0
SECTION
2
HEADER
9
$ACADVER
1
AC1014
9
$HANDSEED
5
       48D
9
$EXTMAX
10
297.0000000000
20
210.0000000000
9
$EXTMIN
10
0.0000000000
20
0.0000000000
9
$LIMMIN
10
0.0000000000
20
0.0000000000
9
$LIMMAX
10
297.0000000000
20
210.0000000000
9
$VIEWCTR
10
148.5000000000
20
105.0000000000
9
$VIEWSIZE
40
210.0000000000
9
$CLAYER
8
0
9
$LTSCALE
40
16.3350000000
9
$CELTYPE
6
BYLAYER
9
$DIMSCALE
40
1
9
$DIMASZ
40
3.0000000000
9
$DIMEXO
40
1.8562500000
9
$DIMDLI
40
11.2860000000
9
$DIMEXE
40
5.3460000000
9
$DIMCEN
40
2.6730000000
9
$DIMLFAC
40
1.0000000000
9
$DIMTXT
40
3.0000000000
9
$DIMTOL
70
1
9
$DIMLIM
70
0
9
$DIMTFAC
40
1.0000000000
9
$DIMTP
40
0.0100000000
9
$DIMTM
40
0.0100000000
9
$MEASUREMENT
70
1
0
ENDSEC
0
SECTION
2
CLASSES
0
ENDSEC
0
SECTION
2
TABLES
0
TABLE
2
VPORT
5
8
100
AcDbSymbolTable
70
2
0
VPORT
5
1F4
100
AcDbSymbolTableRecord
100
AcDbViewportTableRecord
2
*ACTIVE
70
0
10
0.0
20
0.0
11
1.0
21
1.0
12
148.5000000000
22
105.0000000000
13
0.0
23
0.0
14
1.0
24
1.0
15
0.0
25
0.0
16
0.0
26
0.0
36
1.0
17
0.0
27
0.0
37
0.0
40
210.0000000000
41
1.4142857143
42
50.0
43
0.0
44
0.0
50
0.0
51
0.0
71
0
72
100
73
1
74
1
75
0
76
0
77
0
78
0
0
ENDTAB
0
TABLE
2
LTYPE
5
5
100
AcDbSymbolTable
70
6
0
LTYPE
5
14
100
AcDbSymbolTableRecord
100
AcDbLinetypeTableRecord
2
BYBLOCK
70
0
3

72
65
73
0
40
0.0
0
LTYPE
5
15
100
AcDbSymbolTableRecord
100
AcDbLinetypeTableRecord
2
BYLAYER
70
0
3

72
65
73
0
40
0.0
0
LTYPE
5
16
100
AcDbSymbolTableRecord
100
AcDbLinetypeTableRecord
2
CONTINUOUS
70
64
3
Solid line
72
65
73
0
40
0
0
LTYPE
5
1F5
100
AcDbSymbolTableRecord
100
AcDbLinetypeTableRecord
2
CENTER
70
64
3
____ _ ____ _ ____ _ ____ _ ____ _ ____ _ ____
72
65
73
4
40
0.6
49
0.375
74
0
49
-0.075
74
0
49
0.075
74
0
49
-0.075
74
0
0
LTYPE
5
1F6
100
AcDbSymbolTableRecord
100
AcDbLinetypeTableRecord
2
HIDDEN
70
64
3
- - - - - - - - - - - - - - - - - - - -
72
65
73
2
40
0.2
49
0.1
74
0
49
-0.1
74
0
0
LTYPE
5
1F7
100
AcDbSymbolTableRecord
100
AcDbLinetypeTableRecord
2
PHANTOM
70
64
3
_____ _ _ _____ _ _ _____ _ _ _____
72
65
73
6
40
0.8
49
0.45
74
0
49
-0.05
74
0
49
0.1
74
0
49
-0.05
74
0
49
0.1
74
0
49
-0.05
74
0
0
LTYPE
5
1F8
100
AcDbSymbolTableRecord
100
AcDbLinetypeTableRecord
2
DOT
70
64
3
. . . . . . . . . . . . . . . . . . . .
72
65
73
2
40
0.2
49
0.1
74
0
49
-0.1
74
0
0
LTYPE
5
1F9
100
AcDbSymbolTableRecord
100
AcDbLinetypeTableRecord
2
DASHED
70
64
3
- - - - - - - - - - - - - - - - - - - -
72
65
73
2
40
0.2
49
0.1
74
0
49
-0.1
74
0
0
ENDTAB
0
TABLE
2
LAYER
5
2
100
AcDbSymbolTable
70
36
0
LAYER
5
10
100
AcDbSymbolTableRecord
100
AcDbLayerTableRecord
2
0
70
0
62
7
6
CONTINUOUS
0
LAYER
5
1FA
100
AcDbSymbolTableRecord
100
AcDbLayerTableRecord
2
DEFAULT_1
70
0
62
7
6
CENTER
0
LAYER
5
1FB
100
AcDbSymbolTableRecord
100
AcDbLayerTableRecord
2
DEFAULT_2
70
0
62
8
6
HIDDEN
0
LAYER
5
1FC
100
AcDbSymbolTableRecord
100
AcDbLayerTableRecord
2
DEFAULT_3
70
0
62
7
6
PHANTOM
0
LAYER
5
1FD
100
AcDbSymbolTableRecord
100
AcDbLayerTableRecord
2
_BLACK_HOLE
70
0
62
7
6
CONTINUOUS
0
LAYER
5
1FE
100
AcDbSymbolTableRecord
100
AcDbLayerTableRecord
2
ASSI
70
0
62
7
6
CONTINUOUS
0
LAYER
5
1FF
100
AcDbSymbolTableRecord
100
AcDbLayerTableRecord
2
COORDINATE
70
0
62
7
6
CONTINUOUS
0
LAYER
5
200
100
AcDbSymbolTableRecord
100
AcDbLayerTableRecord
2
COORD_ORIGINE
70
0
62
7
6
CONTINUOUS
0
LAYER
5
201
100
AcDbSymbolTableRecord
100
AcDbLayerTableRecord
2
COPY
70
0
62
7
6
CONTINUOUS
0
LAYER
5
202
100
AcDbSymbolTableRecord
100
AcDbLayerTableRecord
2
COPY_AGG_COMPLETI
70
0
62
7
6
CONTINUOUS
0
LAYER
5
203
100
AcDbSymbolTableRecord
100
AcDbLayerTableRecord
2
COPY_AGG_LISCI
70
0
62
7
6
CONTINUOUS
0
LAYER
5
204
100
AcDbSymbolTableRecord
100
AcDbLayerTableRecord
2
COPY_ESTETICA_SUPP
70
0
62
7
6
CONTINUOUS
0
LAYER
5
205
100
AcDbSymbolTableRecord
100
AcDbLayerTableRecord
2
COPY_PLACCA
70
0
62
7
6
CONTINUOUS
0
LAYER
5
206
100
AcDbSymbolTableRecord
100
AcDbLayerTableRecord
2
CURVE
70
0
62
7
6
CONTINUOUS
0
LAYER
5
207
100
AcDbSymbolTableRecord
100
AcDbLayerTableRecord
2
DRAFT
70
0
62
7
6
CONTINUOUS
0
LAYER
5
208
100
AcDbSymbolTableRecord
100
AcDbLayerTableRecord
2
ELIMINA
70
0
62
7
6
CONTINUOUS
0
LAYER
5
209
100
AcDbSymbolTableRecord
100
AcDbLayerTableRecord
2
IMPORT_SCRITTE
70
0
62
7
6
CONTINUOUS
0
LAYER
5
20A
100
AcDbSymbolTableRecord
100
AcDbLayerTableRecord
2
NOTE
70
0
62
7
6
CONTINUOUS
0
LAYER
5
20B
100
AcDbSymbolTableRecord
100
AcDbLayerTableRecord
2
PIANI
70
0
62
7
6
CONTINUOUS
0
LAYER
5
20C
100
AcDbSymbolTableRecord
100
AcDbLayerTableRecord
2
PIANI_ORIGINE
70
0
62
7
6
CONTINUOUS
0
LAYER
5
20D
100
AcDbSymbolTableRecord
100
AcDbLayerTableRecord
2
PUNTI
70
0
62
7
6
CONTINUOUS
0
LAYER
5
20E
100
AcDbSymbolTableRecord
100
AcDbLayerTableRecord
2
RACCORDO
70
0
62
7
6
CONTINUOUS
0
LAYER
5
20F
100
AcDbSymbolTableRecord
100
AcDbLayerTableRecord
2
SMUSSO
70
0
62
7
6
CONTINUOUS
0
LAYER
5
210
100
AcDbSymbolTableRecord
100
AcDbLayerTableRecord
2
SUPERFICI
70
0
62
7
6
CONTINUOUS
0
LAYER
5
211
100
AcDbSymbolTableRecord
100
AcDbLayerTableRecord
2
SUP_SUPPORTO
70
0
62
7
6
CONTINUOUS
0
LAYER
5
212
100
AcDbSymbolTableRecord
100
AcDbLayerTableRecord
2
TRASH
70
0
62
7
6
CONTINUOUS
0
LAYER
5
213
100
AcDbSymbolTableRecord
100
AcDbLayerTableRecord
2
XSEC_DATUMS
70
0
62
7
6
CONTINUOUS
0
ENDTAB
0
TABLE
2
STYLE
5
3
100
AcDbSymbolTable
70
1
0
STYLE
5
11
100
AcDbSymbolTableRecord
100
AcDbTextStyleTableRecord
2
STANDARD
70
0
40
0.0
41
0.8000000000
50
0.0
71
0
42
0.2
3
txt
4

0
ENDTAB
0
TABLE
2
VIEW
5
6
100
AcDbSymbolTable
70
0
0
ENDTAB
0
TABLE
2
UCS
5
7
100
AcDbSymbolTable
70
0
0
ENDTAB
0
TABLE
2
APPID
5
9
100
AcDbSymbolTable
70
1
0
APPID
5
214
100
AcDbSymbolTableRecord
100
AcDbRegAppTableRecord
2
ACAD
70
0
0
ENDTAB
0
TABLE
2
DIMSTYLE
5
A
100
AcDbSymbolTable
70
1
0
DIMSTYLE
105
215
100
AcDbSymbolTableRecord
100
AcDbDimStyleTableRecord
2
STANDARD
70
0
3

4

5

6

7

40
1.0
41
3.0000000000
42
0.0625
43
0.38
44
0.18
45
0.0
46
0.0
47
0.0100000000
48
0.0100000000
140
3.0000000000
141
0.09
142
0.0
143
25.4
144
1.0000000000
145
0.0
146
1.0000000000
147
0.09
71
1
72
0
73
0
74
0
75
0
76
0
77
1
78
8
170
0
171
2
172
0
173
0
174
0
175
0
176
0
177
0
178
0
270
2
271
2
272
2
273
2
274
2
340
11
275
0
280
0
281
0
282
0
283
1
284
8
285
0
286
0
287
3
288
0
0
ENDTAB
0
TABLE
2
BLOCK_RECORD
5
1
100
AcDbSymbolTable
70
0
0
BLOCK_RECORD
5
1B
100
AcDbSymbolTableRecord
100
AcDbBlockTableRecord
2
*MODEL_SPACE
0
BLOCK_RECORD
5
1C
100
AcDbSymbolTableRecord
100
AcDbBlockTableRecord
2
*PAPER_SPACE
0
ENDTAB
0
ENDSEC
0
SECTION
2
BLOCKS
0
BLOCK
5
1E
100
AcDbEntity
8
0
100
AcDbBlockBegin
2
*MODEL_SPACE
70
0
10
0.0
20
0.0
30
0.0
3
*MODEL_SPACE
1

0
ENDBLK
5
1F
100
AcDbEntity
8
0
100
AcDbBlockEnd
0
BLOCK
5
20
100
AcDbEntity
8
0
100
AcDbBlockBegin
2
*PAPER_SPACE
70
0
10
0.0
20
0.0
30
0.0
3
*PAPER_SPACE
1

0
ENDBLK
5
21
100
AcDbEntity
8
0
100
AcDbBlockEnd
0
ENDSEC
0
SECTION
2
ENTITIES
0
LINE
5
216
100
AcDbEntity
8
0
100
AcDbLine
62
7
6
CONTINUOUS
10
-77.1152082997
20
71.6706804344
11
-77.1147620263
21
71.6709578863
0
LINE
5
217
100
AcDbEntity
8
0
100
AcDbLine
62
7
6
CONTINUOUS
10
-72.6589757204
20
73.2449518718
11
-72.8437818803
21
73.1366965187
0
LINE
5
218
100
AcDbEntity
8
0
100
AcDbLine
62
7
6
CONTINUOUS
10
-72.1898960309
20
73.2284047408
11
-72.5912002704
21
73.0019944434
0
LINE
5
219
100
AcDbEntity
8
0
100
AcDbLine
62
7
6
CONTINUOUS
10
-77.7610457634
20
0.6165660525
11
-77.7610457634
21
70.3880268758
0
LINE
5
21A
100
AcDbEntity
8
0
100
AcDbLine
62
7
6
CONTINUOUS
10
-77.5179918714
20
0.3089860604
11
-77.5179918714
21
70.0804464485
0
LINE
5
21B
100
AcDbEntity
8
0
100
AcDbLine
62
7
6
CONTINUOUS
10
-62.7880844794
20
48.7294451046
11
-62.7876960868
21
48.7296860976
0
LINE
5
21C
100
AcDbEntity
8
0
100
AcDbLine
62
7
6
CONTINUOUS
10
-62.7892199962
20
48.9889505008
11
-62.7859651981
21
48.9905358256
0
LINE
5
21D
100
AcDbEntity
8
0
100
AcDbLine
62
7
6
CONTINUOUS
10
-60.3263686463
20
44.1464108628
11
-60.2680757001
21
44.1773197100
0
LINE
5
21E
100
AcDbEntity
8
0
100
AcDbLine
62
7
6
CONTINUOUS
10
-60.3263686463
20
45.5837573346
11
-60.2680757001
21
45.6111414336
0
LINE
5
21F
100
AcDbEntity
8
0
100
AcDbLine
62
7
6
CONTINUOUS
10
-61.1876856784
20
46.4621979489
11
-61.2606418775
21
46.4338025058
0
LINE
5
220
100
AcDbEntity
8
0
100
AcDbLine
62
7
6
CONTINUOUS
10
-63.2114536797
20
6.8154716827
11
-63.2114536797
21
48.3982294921
0
LINE
5
221
100
AcDbEntity
8
0
100
AcDbLine
62
7
6
CONTINUOUS
10
-63.0688300937
20
6.8142294061
11
-63.0688300937
21
48.3969872155
0
LINE
5
222
100
AcDbEntity
8
0
100
AcDbLine
62
7
6
CONTINUOUS
10
-63.0366143991
20
6.7475150899
11
-63.0366143991
21
48.1765454737
0
LINE
5
223
100
AcDbEntity
8
0
100
AcDbLine
62
7
6
CONTINUOUS
10
-63.0091380789
20
6.7130901148
11
-63.0091380789
21
48.1421204821
0
LINE
5
224
100
AcDbEntity
8
0
100
AcDbLine
62
7
6
CONTINUOUS
10
-61.9663338291
20
47.3322063239
11
-61.9663338291
21
6.4250946349
0
LINE
5
225
100
AcDbEntity
8
0
100
AcDbLine
62
7
6
CONTINUOUS
10
-61.6875275978
20
46.5500714214
11
-61.6875275978
21
7.1963711373
0
LINE
5
226
100
AcDbEntity
8
0
100
AcDbLine
62
7
6
CONTINUOUS
10
-60.3458574461
20
8.1646400188
11
-60.3458574461
21
46.0412838327
0
LINE
5
227
100
AcDbEntity
8
0
100
AcDbLine
62
7
6
CONTINUOUS
10
-60.3263686463
20
46.0315394328
11
-60.3263686463
21
45.5837573346
0
LINE
5
228
100
AcDbEntity
8
0
100
AcDbLine
62
7
6
CONTINUOUS
10
-60.3263686463
20
44.1464108628
11
-60.3263686463
21
28.7022737944
0
LINE
5
229
100
AcDbEntity
8
0
100
AcDbLine
62
7
6
CONTINUOUS
10
-60.3263686463
20
27.6859163573
11
-60.3263686463
21
12.2417792889
0
LINE
5
22A
100
AcDbEntity
8
0
100
AcDbLine
62
7
6
CONTINUOUS
10
-60.3263686463
20
10.8044328171
11
-60.3263686463
21
8.0674248524
0
LINE
5
22B
100
AcDbEntity
8
0
100
AcDbLine
62
7
6
CONTINUOUS
10
-60.2680757001
20
10.8353416643
11
-60.2680757001
21
12.2691633879
0
LINE
5
22C
100
AcDbEntity
8
0
100
AcDbLine
62
7
6
CONTINUOUS
10
-60.2680757001
20
27.7163090170
11
-60.2680757001
21
28.7301740808
0
LINE
5
22D
100
AcDbEntity
8
0
100
AcDbLine
62
7
6
CONTINUOUS
10
-60.2680757001
20
44.1773197100
11
-60.2680757001
21
45.6111414336
0
LINE
5
22E
100
AcDbEntity
8
0
100
AcDbLine
62
7
6
CONTINUOUS
10
-60.3263686463
20
27.6859163573
11
-60.2680757001
21
27.7163090170
0
LINE
5
22F
100
AcDbEntity
8
0
100
AcDbLine
62
7
6
CONTINUOUS
10
-60.3263686463
20
28.7022737944
11
-60.2680757001
21
28.7301740808
0
LINE
5
230
100
AcDbEntity
8
0
100
AcDbLine
62
7
6
CONTINUOUS
10
71.3527805499
20
-37.7431321870
11
70.8578058031
21
-37.8644013005
0
LINE
5
231
100
AcDbEntity
8
0
100
AcDbLine
62
7
6
CONTINUOUS
10
-46.3660734086
20
2.5597630475
11
-46.3660734086
21
2.0476369127
0
LINE
5
232
100
AcDbEntity
8
0
100
AcDbLine
62
7
6
CONTINUOUS
10
-46.3147023737
20
2.5755214794
11
-46.3147023737
21
2.0649706949
0
LINE
5
233
100
AcDbEntity
8
0
100
AcDbLine
62
7
6
CONTINUOUS
10
-46.9180568273
20
1.3872244457
11
-46.8354974025
21
1.7233081850
0
LINE
5
234
100
AcDbEntity
8
0
100
AcDbLine
62
7
6
CONTINUOUS
10
-52.1166134508
20
3.8770503120
11
-52.1080634452
21
3.8917968903
0
LINE
5
235
100
AcDbEntity
8
0
100
AcDbLine
62
7
6
CONTINUOUS
10
-51.8498612282
20
3.9041171380
11
-51.7545100546
21
4.0685735856
0
LINE
5
236
100
AcDbEntity
8
0
100
AcDbLine
62
7
6
CONTINUOUS
10
-51.4963078376
20
4.0808938333
11
-51.4009566641
21
4.2453502809
0
LINE
5
237
100
AcDbEntity
8
0
100
AcDbLine
62
7
6
CONTINUOUS
10
-51.1427544470
20
4.2576705286
11
-51.0474032735
21
4.4221269762
0
LINE
5
238
100
AcDbEntity
8
0
100
AcDbLine
62
7
6
CONTINUOUS
10
-50.7892010564
20
4.4344472239
11
-50.6938498829
21
4.5989036715
0
LINE
5
239
100
AcDbEntity
8
0
100
AcDbLine
62
7
6
CONTINUOUS
10
-48.2275261543
20
1.9325066637
11
-48.2189761487
21
1.9472532420
0
LINE
5
23A
100
AcDbEntity
8
0
100
AcDbLine
62
7
6
CONTINUOUS
10
-47.9714887753
20
1.9410931182
11
-47.8654227581
21
2.1240299373
0
LINE
5
23B
100
AcDbEntity
8
0
100
AcDbLine
62
7
6
CONTINUOUS
10
-47.6179353847
20
2.1178698135
11
-47.5118693675
21
2.3008066326
0
LINE
5
23C
100
AcDbEntity
8
0
100
AcDbLine
62
7
6
CONTINUOUS
10
-47.2643819941
20
2.2946465088
11
-47.1583159769
21
2.4775833279
0
LINE
5
23D
100
AcDbEntity
8
0
100
AcDbLine
62
7
6
CONTINUOUS
10
-46.9108286035
20
2.4714232041
11
-46.8047625863
21
2.6543600232
0
LINE
5
23E
100
AcDbEntity
8
0
100
AcDbLine
62
7
6
CONTINUOUS
10
-60.3263686463
20
10.8044328171
11
-60.2680757001
21
10.8353416643
0
LINE
5
23F
100
AcDbEntity
8
0
100
AcDbLine
62
7
6
CONTINUOUS
10
-60.3263686463
20
12.2417792889
11
-60.2680757001
21
12.2691633879
0
LINE
5
240
100
AcDbEntity
8
0
100
AcDbLine
62
7
6
CONTINUOUS
10
65.9629023943
20
-72.6877389055
11
65.9628089403
21
-72.6876951622
0
LINE
5
241
100
AcDbEntity
8
0
100
AcDbLine
62
7
6
CONTINUOUS
10
-76.6018126697
20
-1.4052788531
11
-76.6019356909
21
-1.4052132308
0
LINE
5
242
100
AcDbEntity
8
0
100
AcDbLine
62
7
6
CONTINUOUS
10
-30.4561708319
20
-5.4817907812
11
-30.4561708319
21
-5.9073143757
0
LINE
5
243
100
AcDbEntity
8
0
100
AcDbLine
62
7
6
CONTINUOUS
10
-30.4047997970
20
-5.4660319535
11
-30.4047997970
21
-5.8899805829
0
LINE
5
244
100
AcDbEntity
8
0
100
AcDbLine
62
7
6
CONTINUOUS
10
-31.0081542506
20
-6.5677268426
11
-30.9255948258
21
-6.2316431034
0
LINE
5
245
100
AcDbEntity
8
0
100
AcDbLine
62
7
6
CONTINUOUS
10
-46.6279858910
20
1.8290473803
11
-46.3732810174
21
2.0136434312
0
LINE
5
246
100
AcDbEntity
8
0
100
AcDbLine
62
7
6
CONTINUOUS
10
-60.3458574461
20
8.1646400188
11
-61.2606418775
21
7.6970096820
0
LINE
5
247
100
AcDbEntity
8
0
100
AcDbLine
62
7
6
CONTINUOUS
10
-60.2046299029
20
7.9210585380
11
-61.1194143343
21
7.4534282012
0
LINE
5
248
100
AcDbEntity
8
0
100
AcDbLine
62
7
6
CONTINUOUS
10
-62.2959573310
20
5.5144547735
11
-62.3546974098
21
5.4850041764
0
LINE
5
249
100
AcDbEntity
8
0
100
AcDbLine
62
7
6
CONTINUOUS
10
-60.2680757001
20
45.6111414336
11
-60.3263686463
21
45.7116818935
0
LINE
5
24A
100
AcDbEntity
8
0
100
AcDbLine
62
7
6
CONTINUOUS
10
-46.3730869384
20
2.5561057621
11
-47.8426306802
21
1.7400589267
0
LINE
5
24B
100
AcDbEntity
8
0
100
AcDbLine
62
7
6
CONTINUOUS
10
-46.6279858910
20
1.8290473803
11
-47.3177042629
21
1.4775957180
0
LINE
5
24C
100
AcDbEntity
8
0
100
AcDbLine
62
7
6
CONTINUOUS
10
-46.9180568273
20
1.3872244457
11
-47.0138841541
21
1.3390958522
0
LINE
5
24D
100
AcDbEntity
8
0
100
AcDbLine
62
7
6
CONTINUOUS
10
-52.1080634452
20
3.8917968903
11
-51.9666420890
21
3.9625075684
0
LINE
5
24E
100
AcDbEntity
8
0
100
AcDbLine
62
7
6
CONTINUOUS
10
-51.7545100546
20
4.0685735856
11
-51.6130886984
21
4.1392842637
0
LINE
5
24F
100
AcDbEntity
8
0
100
AcDbLine
62
7
6
CONTINUOUS
10
-51.4009566641
20
4.2453502809
11
-51.2595353078
21
4.3160609590
0
LINE
5
250
100
AcDbEntity
8
0
100
AcDbLine
62
7
6
CONTINUOUS
10
-51.0474032735
20
4.4221269762
11
-50.9059819172
21
4.4928376543
0
LINE
5
251
100
AcDbEntity
8
0
100
AcDbLine
62
7
6
CONTINUOUS
10
-50.6938498829
20
4.5989036715
11
-50.5524285266
21
4.6696143496
0
LINE
5
252
100
AcDbEntity
8
0
100
AcDbLine
62
7
6
CONTINUOUS
10
-48.2189761487
20
1.9472532420
11
-48.0775547925
21
2.0179639201
0
LINE
5
253
100
AcDbEntity
8
0
100
AcDbLine
62
7
6
CONTINUOUS
10
-47.8654227581
20
2.1240299373
11
-47.7240014019
21
2.1947406154
0
LINE
5
254
100
AcDbEntity
8
0
100
AcDbLine
62
7
6
CONTINUOUS
10
-47.5118693675
20
2.3008066326
11
-47.3704480113
21
2.3715173107
0
LINE
5
255
100
AcDbEntity
8
0
100
AcDbLine
62
7
6
CONTINUOUS
10
-47.1583159769
20
2.4775833279
11
-47.0168946207
21
2.5482940060
0
LINE
5
256
100
AcDbEntity
8
0
100
AcDbLine
62
7
6
CONTINUOUS
10
-46.8047625863
20
2.6543600232
11
-46.6633412301
21
2.7250707013
0
LINE
5
257
100
AcDbEntity
8
0
100
AcDbLine
62
7
6
CONTINUOUS
10
-46.5572752129
20
2.6481998994
11
-48.1080939192
21
1.8727905462
0
LINE
5
258
100
AcDbEntity
8
0
100
AcDbLine
62
7
6
CONTINUOUS
10
-46.3660734086
20
2.0476369127
11
-47.4138114662
21
1.5256493197
0
LINE
5
259
100
AcDbEntity
8
0
100
AcDbLine
62
7
6
CONTINUOUS
10
-50.6305507840
20
4.6848376849
11
-52.2626444547
21
3.9500658140
0
LINE
5
25A
100
AcDbEntity
8
0
100
AcDbLine
62
7
6
CONTINUOUS
10
-9.2059830306
20
-21.8036696055
11
-8.9331062811
21
-21.9401079803
0
LINE
5
25B
100
AcDbEntity
8
0
100
AcDbLine
62
7
6
CONTINUOUS
10
-8.2568463262
20
-22.2782379578
11
-7.9721050320
21
-22.4206086049
0
LINE
5
25C
100
AcDbEntity
8
0
100
AcDbLine
62
7
6
CONTINUOUS
10
-7.7229566647
20
-22.5451827885
11
-7.4382160777
21
-22.6875530820
0
LINE
5
25D
100
AcDbEntity
8
0
100
AcDbLine
62
7
6
CONTINUOUS
10
-7.1653393282
20
-22.8239914568
11
-6.8805980340
21
-22.9663621039
0
LINE
5
25E
100
AcDbEntity
8
0
100
AcDbLine
62
7
6
CONTINUOUS
10
-6.6077212845
20
-23.1028004786
11
-6.3229806974
21
-23.2451707721
0
LINE
5
25F
100
AcDbEntity
8
0
100
AcDbLine
62
7
6
CONTINUOUS
10
-6.0975607124
20
-23.3578807646
11
-5.8128194182
21
-23.5002514117
0
LINE
5
260
100
AcDbEntity
8
0
100
AcDbLine
62
7
6
CONTINUOUS
10
-5.1840162278
20
-23.8146530070
11
-4.8992756407
21
-23.9570233005
0
LINE
5
261
100
AcDbEntity
8
0
100
AcDbLine
62
7
6
CONTINUOUS
10
-4.6738556557
20
-24.0697332930
11
-4.3891143615
21
-24.2121039401
0
LINE
5
262
100
AcDbEntity
8
0
100
AcDbLine
62
7
6
CONTINUOUS
10
-3.8552254072
20
-24.4790484172
11
-3.5348918932
21
-24.6392151742
0
LINE
5
263
100
AcDbEntity
8
0
100
AcDbLine
62
7
6
CONTINUOUS
10
-9.1279624298
20
-21.7646593051
11
-8.9018980408
21
-21.8776914996
0
LINE
5
264
100
AcDbEntity
8
0
100
AcDbLine
62
7
6
CONTINUOUS
10
-8.1788257253
20
-22.2392276573
11
-7.9505908548
21
-22.3533450926
0
LINE
5
265
100
AcDbEntity
8
0
100
AcDbLine
62
7
6
CONTINUOUS
10
-7.6449360639
20
-22.5061724880
11
-7.4167019005
21
-22.6202895697
0
LINE
5
266
100
AcDbEntity
8
0
100
AcDbLine
62
7
6
CONTINUOUS
10
-7.0873187273
20
-22.7849811563
11
-6.8493897936
21
-22.9039456232
0
LINE
5
267
100
AcDbEntity
8
0
100
AcDbLine
62
7
6
CONTINUOUS
10
-6.5297006836
20
-23.0637901782
11
-6.3014665203
21
-23.1779072598
0
LINE
5
268
100
AcDbEntity
8
0
100
AcDbLine
62
7
6
CONTINUOUS
10
-6.0195401115
20
-23.3188704642
11
-5.7816111779
21
-23.4378349310
0
LINE
5
269
100
AcDbEntity
8
0
100
AcDbLine
62
7
6
CONTINUOUS
10
-5.1059956269
20
-23.7756427065
11
-4.8944452229
21
-23.8814179085
0
LINE
5
26A
100
AcDbEntity
8
0
100
AcDbLine
62
7
6
CONTINUOUS
10
-4.5958350548
20
-24.0307229925
11
-4.3676001844
21
-24.1448404278
0
LINE
5
26B
100
AcDbEntity
8
0
100
AcDbLine
62
7
6
CONTINUOUS
10
-3.7772048063
20
-24.4400381168
11
-3.5409522492
21
-24.5581643954
0
LINE
5
26C
100
AcDbEntity
8
0
100
AcDbLine
62
7
6
CONTINUOUS
10
-5.6144469016
20
-23.1812224599
11
-5.1636076387
21
-23.4066420913
0
LINE
5
26D
100
AcDbEntity
8
0
100
AcDbLine
62
7
6
CONTINUOUS
10
-5.5364263007
20
-23.1422121594
11
-5.0855870378
21
-23.3676317909
0
LINE
5
26E
100
AcDbEntity
8
0
100
AcDbLine
62
7
6
CONTINUOUS
10
-4.1634829047
20
-23.5066730900
11
-3.9143345375
21
-23.6312472737
0
LINE
5
26F
100
AcDbEntity
8
0
100
AcDbLine
62
7
6
CONTINUOUS
10
-5.1363479914
20
-23.0202405467
11
-5.4092247409
21
-22.8838021719
0
LINE
5
270
100
AcDbEntity
8
0
100
AcDbLine
62
7
6
CONTINUOUS
10
-4.0854623038
20
-23.4676627896
11
-3.8363139366
21
-23.5922369732
0
LINE
5
271
100
AcDbEntity
8
0
100
AcDbLine
62
7
6
CONTINUOUS
10
-3.7091120137
20
-23.3338272069
11
-4.0650388178
21
-23.1558637652
0
LINE
5
272
100
AcDbEntity
8
0
100
AcDbLine
62
7
6
CONTINUOUS
10
-3.9146179565
20
-22.6855768755
11
-3.5586917338
21
-22.8635399906
0
LINE
5
273
100
AcDbEntity
8
0
100
AcDbLine
62
7
6
CONTINUOUS
10
-3.8365973556
20
-22.6465665751
11
-3.4806710793
21
-22.8245297132
0
LINE
5
274
100
AcDbEntity
8
0
100
AcDbLine
62
7
6
CONTINUOUS
10
-3.4127900260
20
-22.5364594499
11
-4.0771860744
21
-22.2042614483
0
LINE
5
275
100
AcDbEntity
8
0
100
AcDbLine
62
7
6
CONTINUOUS
10
-4.7653098669
20
-21.8601995520
11
-5.0500511611
21
-21.7178289049
0
LINE
5
276
100
AcDbEntity
8
0
100
AcDbLine
62
7
6
CONTINUOUS
10
-5.7263111160
20
-21.3796989274
11
-6.1534219967
21
-21.1661434871
0
LINE
5
277
100
AcDbEntity
8
0
100
AcDbLine
62
7
6
CONTINUOUS
10
-6.6873116581
20
-20.8991986564
11
-7.1262870834
21
-20.6797109438
0
LINE
5
278
100
AcDbEntity
8
0
100
AcDbLine
62
7
6
CONTINUOUS
10
-7.3754354506
20
-20.5551367601
11
-7.6601767448
21
-20.4127661131
0
LINE
5
279
100
AcDbEntity
8
0
100
AcDbLine
62
7
6
CONTINUOUS
10
-7.8737321851
20
-20.3059883929
11
-8.1584734793
21
-20.1636177458
0
LINE
5
27A
100
AcDbEntity
8
0
100
AcDbLine
62
7
6
CONTINUOUS
10
-8.7872759626
20
-19.8492165041
11
-9.0720172568
21
-19.7068458570
0
LINE
5
27B
100
AcDbEntity
8
0
100
AcDbLine
62
7
6
CONTINUOUS
10
-61.4440106025
20
7.0643815014
11
49.7640443251
21
-48.5396459624
0
LINE
5
27C
100
AcDbEntity
8
0
100
AcDbLine
62
7
6
CONTINUOUS
10
-61.1194143343
20
7.4534282012
11
49.7640443251
21
-47.9883011285
0
LINE
5
27D
100
AcDbEntity
8
0
100
AcDbLine
62
7
6
CONTINUOUS
10
-62.4027522811
20
5.5774030336
11
-62.4028018550
21
5.5774324901
0
LINE
5
27E
100
AcDbEntity
8
0
100
AcDbLine
62
7
6
CONTINUOUS
10
-48.0775547925
20
2.0179639201
11
-47.9714887753
21
1.9410931182
0
LINE
5
27F
100
AcDbEntity
8
0
100
AcDbLine
62
7
6
CONTINUOUS
10
-47.7240014019
20
2.1947406154
11
-47.6179353847
21
2.1178698135
0
LINE
5
280
100
AcDbEntity
8
0
100
AcDbLine
62
7
6
CONTINUOUS
10
-47.3704480113
20
2.3715173107
11
-47.2643819941
21
2.2946465088
0
LINE
5
281
100
AcDbEntity
8
0
100
AcDbLine
62
7
6
CONTINUOUS
10
-47.0168946207
20
2.5482940060
11
-46.9108286035
21
2.4714232041
0
LINE
5
282
100
AcDbEntity
8
0
100
AcDbLine
62
7
6
CONTINUOUS
10
-46.6633412301
20
2.7250707013
11
-46.5572752129
21
2.6481998994
0
LINE
5
283
100
AcDbEntity
8
0
100
AcDbLine
62
7
6
CONTINUOUS
10
-14.5462682552
20
-13.4367420695
11
-14.5462682552
21
-13.8622656640
0
LINE
5
284
100
AcDbEntity
8
0
100
AcDbLine
62
7
6
CONTINUOUS
10
-14.4948972203
20
-13.4209832418
11
-14.4948972203
21
-13.8449318712
0
LINE
5
285
100
AcDbEntity
8
0
100
AcDbLine
62
7
6
CONTINUOUS
10
49.7640443251
20
-47.0632785760
11
-60.2046299029
21
7.9210585380
0
LINE
5
286
100
AcDbEntity
8
0
100
AcDbLine
62
7
6
CONTINUOUS
10
47.2404393115
20
-45.7824544881
11
43.3513520149
21
-43.8379108398
0
LINE
5
287
100
AcDbEntity
8
0
100
AcDbLine
62
7
6
CONTINUOUS
10
-48.2189761487
20
1.9472532420
11
-52.1080634452
21
3.8917968903
0
LINE
5
288
100
AcDbEntity
8
0
100
AcDbLine
62
7
6
CONTINUOUS
10
47.3818606677
20
-45.7117438099
11
43.4927733712
21
-43.7672001617
0
LINE
5
289
100
AcDbEntity
8
0
100
AcDbLine
62
7
6
CONTINUOUS
10
-48.0775547925
20
2.0179639201
11
-51.9666420890
21
3.9625075684
0
LINE
5
28A
100
AcDbEntity
8
0
100
AcDbLine
62
7
6
CONTINUOUS
10
47.5939927021
20
-45.6056777928
11
43.7049054055
21
-43.6611341445
0
LINE
5
28B
100
AcDbEntity
8
0
100
AcDbLine
62
7
6
CONTINUOUS
10
-47.8654227581
20
2.1240299373
11
-51.7545100546
21
4.0685735856
0
LINE
5
28C
100
AcDbEntity
8
0
100
AcDbLine
62
7
6
CONTINUOUS
10
47.7354140583
20
-45.5349671147
11
43.8463267618
21
-43.5904234664
0
LINE
5
28D
100
AcDbEntity
8
0
100
AcDbLine
62
7
6
CONTINUOUS
10
-47.7240014019
20
2.1947406154
11
-51.6130886984
21
4.1392842637
0
LINE
5
28E
100
AcDbEntity
8
0
100
AcDbLine
62
7
6
CONTINUOUS
10
47.9475460927
20
-45.4289010975
11
44.0584587961
21
-43.4843574492
0
LINE
5
28F
100
AcDbEntity
8
0
100
AcDbLine
62
7
6
CONTINUOUS
10
-47.5118693675
20
2.3008066326
11
-51.4009566641
21
4.2453502809
0
LINE
5
290
100
AcDbEntity
8
0
100
AcDbLine
62
7
6
CONTINUOUS
10
48.0889674489
20
-45.3581904194
11
44.1998801524
21
-43.4136467711
0
LINE
5
291
100
AcDbEntity
8
0
100
AcDbLine
62
7
6
CONTINUOUS
10
-47.3704480113
20
2.3715173107
11
-51.2595353078
21
4.3160609590
0
LINE
5
292
100
AcDbEntity
8
0
100
AcDbLine
62
7
6
CONTINUOUS
10
48.3010994832
20
-45.2521244022
11
44.4120121867
21
-43.3075807539
0
LINE
5
293
100
AcDbEntity
8
0
100
AcDbLine
62
7
6
CONTINUOUS
10
-47.1583159769
20
2.4775833279
11
-51.0474032735
21
4.4221269762
0
LINE
5
294
100
AcDbEntity
8
0
100
AcDbLine
62
7
6
CONTINUOUS
10
48.4425208395
20
-45.1814137241
11
44.5534335430
21
-43.2368700758
0
LINE
5
295
100
AcDbEntity
8
0
100
AcDbLine
62
7
6
CONTINUOUS
10
-47.0168946207
20
2.5482940060
11
-50.9059819172
21
4.4928376543
0
LINE
5
296
100
AcDbEntity
8
0
100
AcDbLine
62
7
6
CONTINUOUS
10
48.6546528738
20
-45.0753477069
11
44.7655655773
21
-43.1308040586
0
LINE
5
297
100
AcDbEntity
8
0
100
AcDbLine
62
7
6
CONTINUOUS
10
-46.8047625863
20
2.6543600232
11
-50.6938498829
21
4.5989036715
0
LINE
5
298
100
AcDbEntity
8
0
100
AcDbLine
62
7
6
CONTINUOUS
10
-34.7206482073
20
-3.3567161439
11
-30.4631843617
21
-5.4854480666
0
LINE
5
299
100
AcDbEntity
8
0
100
AcDbLine
62
7
6
CONTINUOUS
10
-18.8107456306
20
-11.3116674322
11
-14.5532817850
21
-13.4403993550
0
LINE
5
29A
100
AcDbEntity
8
0
100
AcDbLine
62
7
6
CONTINUOUS
10
-2.9008430539
20
-19.2666187206
11
1.3566207917
21
-21.3953506433
0
LINE
5
29B
100
AcDbEntity
8
0
100
AcDbLine
62
7
6
CONTINUOUS
10
13.0090595228
20
-27.2215700089
11
17.2665233684
21
-29.3503019317
0
LINE
5
29C
100
AcDbEntity
8
0
100
AcDbLine
62
7
6
CONTINUOUS
10
28.9189620995
20
-35.1765212972
11
33.1764259451
21
-37.3052532200
0
LINE
5
29D
100
AcDbEntity
8
0
100
AcDbLine
62
7
6
CONTINUOUS
10
-34.5988446387
20
-3.3672162112
11
-30.4061024921
21
-5.4635872845
0
LINE
5
29E
100
AcDbEntity
8
0
100
AcDbLine
62
7
6
CONTINUOUS
10
-18.6889420620
20
-11.3221674995
11
-14.4961999154
21
-13.4185385728
0
LINE
5
29F
100
AcDbEntity
8
0
100
AcDbLine
62
7
6
CONTINUOUS
10
-2.7790394853
20
-19.2771187878
11
1.4137026613
21
-21.3734898612
0
LINE
5
2A0
100
AcDbEntity
8
0
100
AcDbLine
62
7
6
CONTINUOUS
10
13.1308630914
20
-27.2320700762
11
17.3236052380
21
-29.3284411495
0
LINE
5
2A1
100
AcDbEntity
8
0
100
AcDbLine
62
7
6
CONTINUOUS
10
29.0407656681
20
-35.1870213645
11
33.2335078147
21
-37.2833924378
0
LINE
5
2A2
100
AcDbEntity
8
0
100
AcDbLine
62
7
6
CONTINUOUS
10
-50.6305507840
20
4.6848376849
11
-50.5762663200
21
4.6576954529
0
LINE
5
2A3
100
AcDbEntity
8
0
100
AcDbLine
62
7
6
CONTINUOUS
10
-46.5572752129
20
2.6481998994
11
-46.3730869384
21
2.5561057621
0
LINE
5
2A4
100
AcDbEntity
8
0
100
AcDbLine
62
7
6
CONTINUOUS
10
44.8288646762
20
-43.0448700452
11
44.8831491402
21
-43.0720122772
0
LINE
5
2A5
100
AcDbEntity
8
0
100
AcDbLine
62
7
6
CONTINUOUS
10
48.9021402473
20
-45.0815078307
11
49.0863285218
21
-45.1736019680
0
LINE
5
2A6
100
AcDbEntity
8
0
100
AcDbLine
62
7
6
CONTINUOUS
10
48.7960742301
20
-45.0046370288
11
44.9069869336
21
-43.0600933805
0
LINE
5
2A7
100
AcDbEntity
8
0
100
AcDbLine
62
7
6
CONTINUOUS
10
-46.6633412301
20
2.7250707013
11
-50.5524285266
21
4.6696143496
0
LINE
5
2A8
100
AcDbEntity
8
0
100
AcDbLine
62
7
6
CONTINUOUS
10
-50.5087482617
20
4.6743381407
11
-46.3160040225
21
2.5779660211
0
LINE
5
2A9
100
AcDbEntity
8
0
100
AcDbLine
62
7
6
CONTINUOUS
10
44.9506671985
20
-43.0553695894
11
49.1434114377
21
-45.1517417090
0
LINE
5
2AA
100
AcDbEntity
8
0
100
AcDbLine
62
7
6
CONTINUOUS
10
-9.0720172568
20
-19.7068458570
11
-9.2059830306
21
-21.8036696055
0
LINE
5
2AB
100
AcDbEntity
8
0
100
AcDbLine
62
7
6
CONTINUOUS
10
-8.9988270738
20
-19.7434409486
11
-9.1279624298
21
-21.7646593051
0
LINE
5
2AC
100
AcDbEntity
8
0
100
AcDbLine
62
7
6
CONTINUOUS
10
-8.8949715411
20
-21.3045785658
11
-8.7872759626
21
-19.8492165041
0
LINE
5
2AD
100
AcDbEntity
8
0
100
AcDbLine
62
7
6
CONTINUOUS
10
-15.0982516739
20
-14.5226781310
11
-15.0156922491
21
-14.1865943917
0
LINE
5
2AE
100
AcDbEntity
8
0
100
AcDbLine
62
7
6
CONTINUOUS
10
-30.7180833143
20
-6.1259039081
11
-30.4633784407
21
-5.9413078572
0
LINE
5
2AF
100
AcDbEntity
8
0
100
AcDbLine
62
7
6
CONTINUOUS
10
-30.4631843617
20
-5.4854480666
11
-31.8506642100
21
-6.2559243084
0
LINE
5
2B0
100
AcDbEntity
8
0
100
AcDbLine
62
7
6
CONTINUOUS
10
-30.7180833143
20
-6.1259039081
11
-31.4078016862
21
-6.4773555703
0
LINE
5
2B1
100
AcDbEntity
8
0
100
AcDbLine
62
7
6
CONTINUOUS
10
-31.0081542506
20
-6.5677268426
11
-31.1039815774
21
-6.6158554361
0
LINE
5
2B2
100
AcDbEntity
8
0
100
AcDbLine
62
7
6
CONTINUOUS
10
-30.4561708319
20
-5.9073143757
11
-31.5039088895
21
-6.4293019686
0
LINE
5
2B3
100
AcDbEntity
8
0
100
AcDbLine
62
7
6
CONTINUOUS
10
-34.7206482073
20
-3.3567161439
11
-36.2616006909
21
-4.0504560680
0
LINE
5
2B4
100
AcDbEntity
8
0
100
AcDbLine
62
7
6
CONTINUOUS
10
47.3818606677
20
-45.7117438099
11
47.4879266849
21
-45.7886146119
0
LINE
5
2B5
100
AcDbEntity
8
0
100
AcDbLine
62
7
6
CONTINUOUS
10
47.7354140583
20
-45.5349671147
11
47.8414800755
21
-45.6118379166
0
LINE
5
2B6
100
AcDbEntity
8
0
100
AcDbLine
62
7
6
CONTINUOUS
10
48.0889674489
20
-45.3581904194
11
48.1950334661
21
-45.4350612213
0
LINE
5
2B7
100
AcDbEntity
8
0
100
AcDbLine
62
7
6
CONTINUOUS
10
48.4425208395
20
-45.1814137241
11
48.5485868567
21
-45.2582845260
0
LINE
5
2B8
100
AcDbEntity
8
0
100
AcDbLine
62
7
6
CONTINUOUS
10
48.7960742301
20
-45.0046370288
11
48.9021402473
21
-45.0815078307
0
LINE
5
2B9
100
AcDbEntity
8
0
100
AcDbLine
62
7
6
CONTINUOUS
10
-3.5348918932
20
-24.6392151742
11
-3.6026875102
21
-23.7325213220
0
LINE
5
2BA
100
AcDbEntity
8
0
100
AcDbLine
62
7
6
CONTINUOUS
10
-3.9143345375
20
-23.6312472737
11
-3.8552254072
21
-24.4790484172
0
LINE
5
2BB
100
AcDbEntity
8
0
100
AcDbLine
62
7
6
CONTINUOUS
10
-3.8363139366
20
-23.5922369732
11
-3.7772048063
21
-24.4400381168
0
LINE
5
2BC
100
AcDbEntity
8
0
100
AcDbLine
62
7
6
CONTINUOUS
10
-5.1636076387
20
-23.4066420913
11
-5.1840162278
21
-23.8146530070
0
LINE
5
2BD
100
AcDbEntity
8
0
100
AcDbLine
62
7
6
CONTINUOUS
10
-5.0855870378
20
-23.3676317909
11
-5.1059956269
21
-23.7756427065
0
LINE
5
2BE
100
AcDbEntity
8
0
100
AcDbLine
62
7
6
CONTINUOUS
10
-4.8992756407
20
-23.9570233005
11
-4.7653098669
21
-21.8601995520
0
LINE
5
2BF
100
AcDbEntity
8
0
100
AcDbLine
62
7
6
CONTINUOUS
10
-5.0931993876
20
-22.3690354180
11
-5.1363479914
21
-23.0202405467
0
LINE
5
2C0
100
AcDbEntity
8
0
100
AcDbLine
62
7
6
CONTINUOUS
10
-5.0151787867
20
-22.3300251176
11
-5.0583273906
21
-22.9812302462
0
LINE
5
2C1
100
AcDbEntity
8
0
100
AcDbLine
62
7
6
CONTINUOUS
10
-7.0471218383
20
-21.4648071687
11
-7.1653393282
21
-22.8239914568
0
LINE
5
2C2
100
AcDbEntity
8
0
100
AcDbLine
62
7
6
CONTINUOUS
10
-6.9691012374
20
-21.4257968683
11
-7.0873187273
21
-22.7849811563
0
LINE
5
2C3
100
AcDbEntity
8
0
100
AcDbLine
62
7
6
CONTINUOUS
10
-6.8173929855
20
-22.2524510257
11
-6.6873116581
21
-20.8991986564
0
LINE
5
2C4
100
AcDbEntity
8
0
100
AcDbLine
62
7
6
CONTINUOUS
10
-7.6601767448
20
-20.4127661131
11
-8.2568463262
21
-22.2782379578
0
LINE
5
2C5
100
AcDbEntity
8
0
100
AcDbLine
62
7
6
CONTINUOUS
10
-7.6007165410
20
-20.4317844086
11
-8.1788257253
21
-22.2392276573
0
LINE
5
2C6
100
AcDbEntity
8
0
100
AcDbLine
62
7
6
CONTINUOUS
10
-7.9721050320
20
-22.4206086049
11
-7.3754354506
21
-20.5551367601
0
LINE
5
2C7
100
AcDbEntity
8
0
100
AcDbLine
62
7
6
CONTINUOUS
10
-7.1262870834
20
-20.6797109438
11
-7.7229566647
21
-22.5451827885
0
LINE
5
2C8
100
AcDbEntity
8
0
100
AcDbLine
62
7
6
CONTINUOUS
10
-7.0668268795
20
-20.6987292393
11
-7.6449360639
21
-22.5061724880
0
LINE
5
2C9
100
AcDbEntity
8
0
100
AcDbLine
62
7
6
CONTINUOUS
10
-7.4382160777
20
-22.6875530820
11
-7.0471218383
21
-21.4648071687
0
LINE
5
2CA
100
AcDbEntity
8
0
100
AcDbLine
62
7
6
CONTINUOUS
10
70.8578058031
20
-37.2184432453
11
71.3527805499
21
-37.4659306187
0
LINE
5
2CB
100
AcDbEntity
8
0
100
AcDbLine
62
7
6
CONTINUOUS
10
-60.2680757001
20
28.7301740808
11
-60.3263686463
21
28.7593205539
0
LINE
5
2CC
100
AcDbEntity
8
0
100
AcDbLine
62
7
6
CONTINUOUS
10
1.3636343215
20
-21.3916933579
11
1.3636343215
21
-21.8172169524
0
LINE
5
2CD
100
AcDbEntity
8
0
100
AcDbLine
62
7
6
CONTINUOUS
10
1.4150053564
20
-21.3759345302
11
1.4150053564
21
-21.7998831596
0
LINE
5
2CE
100
AcDbEntity
8
0
100
AcDbLine
62
7
6
CONTINUOUS
10
0.8116509028
20
-22.4776294193
11
0.8942103276
21
-22.1415456801
0
LINE
5
2CF
100
AcDbEntity
8
0
100
AcDbLine
62
7
6
CONTINUOUS
10
-6.2166270451
20
-21.8800545653
11
-6.6077212845
21
-23.1028004786
0
LINE
5
2D0
100
AcDbEntity
8
0
100
AcDbLine
62
7
6
CONTINUOUS
10
-6.1386064442
20
-21.8410442649
11
-6.5297006836
21
-23.0637901782
0
LINE
5
2D1
100
AcDbEntity
8
0
100
AcDbLine
62
7
6
CONTINUOUS
10
-6.3229806974
20
-23.2451707721
11
-5.7263111160
21
-21.3796989274
0
LINE
5
2D2
100
AcDbEntity
8
0
100
AcDbLine
62
7
6
CONTINUOUS
10
-4.0771860744
20
-22.2042614483
11
-4.6738556557
21
-24.0697332930
0
LINE
5
2D3
100
AcDbEntity
8
0
100
AcDbLine
62
7
6
CONTINUOUS
10
-4.0177258705
20
-22.2232797439
11
-4.5958350548
21
-24.0307229925
0
LINE
5
2D4
100
AcDbEntity
8
0
100
AcDbLine
62
7
6
CONTINUOUS
10
-4.0650388178
20
-23.1558637652
11
-3.9146179565
21
-22.6855768755
0
LINE
5
2D5
100
AcDbEntity
8
0
100
AcDbLine
62
7
6
CONTINUOUS
10
-4.3891143615
20
-24.2121039401
11
-4.1634829047
21
-23.5066730900
0
LINE
5
2D6
100
AcDbEntity
8
0
100
AcDbLine
62
7
6
CONTINUOUS
10
-6.1534219967
20
-21.1661434871
11
-6.8173929855
21
-22.2524510257
0
LINE
5
2D7
100
AcDbEntity
8
0
100
AcDbLine
62
7
6
CONTINUOUS
10
-6.1139801819
20
-21.1902510440
11
-6.7393723847
21
-22.2134407252
0
LINE
5
2D8
100
AcDbEntity
8
0
100
AcDbLine
62
7
6
CONTINUOUS
10
-6.8805980340
20
-22.9663621039
11
-6.2166270451
21
-21.8800545653
0
LINE
5
2D9
100
AcDbEntity
8
0
100
AcDbLine
62
7
6
CONTINUOUS
10
-5.4092247409
20
-22.8838021719
11
-5.0931993876
21
-22.3690354180
0
LINE
5
2DA
100
AcDbEntity
8
0
100
AcDbLine
62
7
6
CONTINUOUS
10
-5.8128194182
20
-23.5002514117
11
-5.6144469016
21
-23.1812224599
0
LINE
5
2DB
100
AcDbEntity
8
0
100
AcDbLine
62
7
6
CONTINUOUS
10
-5.0500511611
20
-21.7178289049
11
-6.0975607124
21
-23.3578807646
0
LINE
5
2DC
100
AcDbEntity
8
0
100
AcDbLine
62
7
6
CONTINUOUS
10
-5.0123333883
20
-21.7419194402
11
-6.0195401115
21
-23.3188704642
0
LINE
5
2DD
100
AcDbEntity
8
0
100
AcDbLine
62
7
6
CONTINUOUS
10
-8.1584734793
20
-20.1636177458
11
-8.8949715411
21
-21.3045785658
0
LINE
5
2DE
100
AcDbEntity
8
0
100
AcDbLine
62
7
6
CONTINUOUS
10
-8.1211755604
20
-20.1876938091
11
-8.8169509402
21
-21.2655682654
0
LINE
5
2DF
100
AcDbEntity
8
0
100
AcDbLine
62
7
6
CONTINUOUS
10
-8.9331062811
20
-21.9401079803
11
-7.8737321851
21
-20.3059883929
0
LINE
5
2E0
100
AcDbEntity
8
0
100
AcDbLine
62
7
6
CONTINUOUS
10
-14.8081807377
20
-14.0808551964
11
-14.5534758640
21
-13.8962591455
0
LINE
5
2E1
100
AcDbEntity
8
0
100
AcDbLine
62
7
6
CONTINUOUS
10
-14.5532817850
20
-13.4403993550
11
-15.9407616333
21
-14.2108755968
0
LINE
5
2E2
100
AcDbEntity
8
0
100
AcDbLine
62
7
6
CONTINUOUS
10
-14.8081807377
20
-14.0808551964
11
-15.4978991095
21
-14.4323068587
0
LINE
5
2E3
100
AcDbEntity
8
0
100
AcDbLine
62
7
6
CONTINUOUS
10
-15.0982516739
20
-14.5226781310
11
-15.1940790007
21
-14.5708067245
0
LINE
5
2E4
100
AcDbEntity
8
0
100
AcDbLine
62
7
6
CONTINUOUS
10
-14.5462682552
20
-13.8622656640
11
-15.5940063128
21
-14.3842532570
0
LINE
5
2E5
100
AcDbEntity
8
0
100
AcDbLine
62
7
6
CONTINUOUS
10
-18.8107456306
20
-11.3116674322
11
-20.3516981142
21
-12.0054073563
0
LINE
5
2E6
100
AcDbEntity
8
0
100
AcDbLine
62
7
6
CONTINUOUS
10
-8.8949715411
20
-21.3045785658
11
-8.8169509402
21
-21.2655682654
0
LINE
5
2E7
100
AcDbEntity
8
0
100
AcDbLine
62
7
6
CONTINUOUS
10
49.7640443251
20
-9.0136670529
11
-61.3394380398
21
46.5380741296
0
LINE
5
2E8
100
AcDbEntity
8
0
100
AcDbLine
62
7
6
CONTINUOUS
10
49.7640443251
20
-8.9580773249
11
-61.4440106025
21
46.6459501389
0
LINE
5
2E9
100
AcDbEntity
8
0
100
AcDbLine
62
7
6
CONTINUOUS
10
-61.3395471546
20
46.5381286882
11
-61.3405519125
21
46.5386342166
0
LINE
5
2EA
100
AcDbEntity
8
0
100
AcDbLine
62
7
6
CONTINUOUS
10
17.2735368982
20
-29.3466446462
11
17.2735368982
21
-29.7721682407
0
LINE
5
2EB
100
AcDbEntity
8
0
100
AcDbLine
62
7
6
CONTINUOUS
10
17.3249079331
20
-29.3308858185
11
17.3249079331
21
-29.7548344479
0
LINE
5
2EC
100
AcDbEntity
8
0
100
AcDbLine
62
7
6
CONTINUOUS
10
1.1017218390
20
-22.0358064848
11
1.3564267127
21
-21.8512104339
0
LINE
5
2ED
100
AcDbEntity
8
0
100
AcDbLine
62
7
6
CONTINUOUS
10
1.3566207917
20
-21.3953506433
11
-0.0308590566
21
-22.1658268851
0
LINE
5
2EE
100
AcDbEntity
8
0
100
AcDbLine
62
7
6
CONTINUOUS
10
1.1017218390
20
-22.0358064848
11
0.4120034672
21
-22.3872581470
0
LINE
5
2EF
100
AcDbEntity
8
0
100
AcDbLine
62
7
6
CONTINUOUS
10
0.8116509028
20
-22.4776294193
11
0.7158235760
21
-22.5257580128
0
LINE
5
2F0
100
AcDbEntity
8
0
100
AcDbLine
62
7
6
CONTINUOUS
10
-9.2059830306
20
-21.8036696055
11
-9.1279624298
21
-21.7646593051
0
LINE
5
2F1
100
AcDbEntity
8
0
100
AcDbLine
62
7
6
CONTINUOUS
10
-7.0471218383
20
-21.4648071687
11
-6.9691012374
21
-21.4257968683
0
LINE
5
2F2
100
AcDbEntity
8
0
100
AcDbLine
62
7
6
CONTINUOUS
10
-8.2568463262
20
-22.2782379578
11
-8.1788257253
21
-22.2392276573
0
LINE
5
2F3
100
AcDbEntity
8
0
100
AcDbLine
62
7
6
CONTINUOUS
10
-7.7229566647
20
-22.5451827885
11
-7.6449360639
21
-22.5061724880
0
LINE
5
2F4
100
AcDbEntity
8
0
100
AcDbLine
62
7
6
CONTINUOUS
10
-6.2166270451
20
-21.8800545653
11
-6.1386064442
21
-21.8410442649
0
LINE
5
2F5
100
AcDbEntity
8
0
100
AcDbLine
62
7
6
CONTINUOUS
10
-6.8173929855
20
-22.2524510257
11
-6.7393723847
21
-22.2134407252
0
LINE
5
2F6
100
AcDbEntity
8
0
100
AcDbLine
62
7
6
CONTINUOUS
10
-7.1653393282
20
-22.8239914568
11
-7.0873187273
21
-22.7849811563
0
LINE
5
2F7
100
AcDbEntity
8
0
100
AcDbLine
62
7
6
CONTINUOUS
10
-6.6077212845
20
-23.1028004786
11
-6.5297006836
21
-23.0637901782
0
LINE
5
2F8
100
AcDbEntity
8
0
100
AcDbLine
62
7
6
CONTINUOUS
10
-5.0931993876
20
-22.3690354180
11
-5.0151787867
21
-22.3300251176
0
LINE
5
2F9
100
AcDbEntity
8
0
100
AcDbLine
62
7
6
CONTINUOUS
10
-6.0975607124
20
-23.3578807646
11
-6.0195401115
21
-23.3188704642
0
LINE
5
2FA
100
AcDbEntity
8
0
100
AcDbLine
62
7
6
CONTINUOUS
10
-5.6144469016
20
-23.1812224599
11
-5.5364263007
21
-23.1422121594
0
LINE
5
2FB
100
AcDbEntity
8
0
100
AcDbLine
62
7
6
CONTINUOUS
10
-5.1363479914
20
-23.0202405467
11
-5.0583273906
21
-22.9812302462
0
LINE
5
2FC
100
AcDbEntity
8
0
100
AcDbLine
62
7
6
CONTINUOUS
10
-3.9146179565
20
-22.6855768755
11
-3.8365973556
21
-22.6465665751
0
LINE
5
2FD
100
AcDbEntity
8
0
100
AcDbLine
62
7
6
CONTINUOUS
10
-5.1636076387
20
-23.4066420913
11
-5.0855870378
21
-23.3676317909
0
LINE
5
2FE
100
AcDbEntity
8
0
100
AcDbLine
62
7
6
CONTINUOUS
10
-3.5586916860
20
-22.8635400165
11
-3.4806710793
21
-22.8245297132
0
LINE
5
2FF
100
AcDbEntity
8
0
100
AcDbLine
62
7
6
CONTINUOUS
10
-5.1840162278
20
-23.8146530070
11
-5.1059956269
21
-23.7756427065
0
LINE
5
300
100
AcDbEntity
8
0
100
AcDbLine
62
7
6
CONTINUOUS
10
-4.1634829047
20
-23.5066730900
11
-4.0854623038
21
-23.4676627896
0
LINE
5
301
100
AcDbEntity
8
0
100
AcDbLine
62
7
6
CONTINUOUS
10
-3.9143345375
20
-23.6312472737
11
-3.8363139366
21
-23.5922369732
0
LINE
5
302
100
AcDbEntity
8
0
100
AcDbLine
62
7
6
CONTINUOUS
10
-4.6738556557
20
-24.0697332930
11
-4.5958350548
21
-24.0307229925
0
LINE
5
303
100
AcDbEntity
8
0
100
AcDbLine
62
7
6
CONTINUOUS
10
-3.6026875102
20
-23.7325213220
11
-3.5246669093
21
-23.6935110215
0
LINE
5
304
100
AcDbEntity
8
0
100
AcDbLine
62
7
6
CONTINUOUS
10
-3.8552254072
20
-24.4790484172
11
-3.7772048063
21
-24.4400381168
0
LINE
5
305
100
AcDbEntity
8
0
100
AcDbLine
62
7
6
CONTINUOUS
10
1.3636343215
20
-21.8172169524
11
0.3158962638
21
-22.3392045453
0
LINE
5
306
100
AcDbEntity
8
0
100
AcDbLine
62
7
6
CONTINUOUS
10
-2.9008430539
20
-19.2666187206
11
-4.4417955375
21
-19.9603586447
0
LINE
5
307
100
AcDbEntity
8
0
100
AcDbLine
62
7
6
CONTINUOUS
10
-62.3996592183
20
48.9683215860
11
-62.3995301500
21
48.9682623355
0
LINE
5
308
100
AcDbEntity
8
0
100
AcDbLine
62
7
6
CONTINUOUS
10
50.4814009415
20
-7.4722143542
11
50.4814363232
21
-7.4722334600
0
LINE
5
309
100
AcDbEntity
8
0
100
AcDbLine
62
7
6
CONTINUOUS
10
16.7215534795
20
-30.4325807077
11
16.8041129043
21
-30.0964969684
0
LINE
5
30A
100
AcDbEntity
8
0
100
AcDbLine
62
7
6
CONTINUOUS
10
70.7680267090
20
0.3277836849
11
71.3527805499
21
0.5910410466
0
LINE
5
30B
100
AcDbEntity
8
0
100
AcDbLine
62
7
6
CONTINUOUS
10
33.1834394749
20
-37.3015959346
11
33.1834394749
21
-37.7271195291
0
LINE
5
30C
100
AcDbEntity
8
0
100
AcDbLine
62
7
6
CONTINUOUS
10
33.2348105098
20
-37.2858371069
11
33.2348105098
21
-37.7097857363
0
LINE
5
30D
100
AcDbEntity
8
0
100
AcDbLine
62
7
6
CONTINUOUS
10
17.0116244157
20
-29.9907577731
11
17.2663292894
21
-29.8061617222
0
LINE
5
30E
100
AcDbEntity
8
0
100
AcDbLine
62
7
6
CONTINUOUS
10
70.1119608880
20
1.5095064208
11
70.6456737687
21
1.8106198409
0
LINE
5
30F
100
AcDbEntity
8
0
100
AcDbLine
62
7
6
CONTINUOUS
10
17.2665233684
20
-29.3503019317
11
15.8790435201
21
-30.1207781735
0
LINE
5
310
100
AcDbEntity
8
0
100
AcDbLine
62
7
6
CONTINUOUS
10
66.3123786428
20
0.3866426957
11
69.4670135793
21
1.9988954309
0
LINE
5
311
100
AcDbEntity
8
0
100
AcDbLine
62
7
6
CONTINUOUS
10
67.6757828442
20
-1.9136942598
11
70.8578058031
21
-0.2874385164
0
LINE
5
312
100
AcDbEntity
8
0
100
AcDbLine
62
7
6
CONTINUOUS
10
17.0116244157
20
-29.9907577731
11
16.3219060439
21
-30.3422094354
0
LINE
5
313
100
AcDbEntity
8
0
100
AcDbLine
62
7
6
CONTINUOUS
10
16.7215534795
20
-30.4325807077
11
16.6257261527
21
-30.4807093011
0
LINE
5
314
100
AcDbEntity
8
0
100
AcDbLine
62
7
6
CONTINUOUS
10
17.2735368982
20
-29.7721682407
11
16.2257988405
21
-30.2941558337
0
LINE
5
315
100
AcDbEntity
8
0
100
AcDbLine
62
7
6
CONTINUOUS
10
13.0090595228
20
-27.2215700089
11
11.4681070392
21
-27.9153099330
0
LINE
5
316
100
AcDbEntity
8
0
100
AcDbLine
62
7
6
CONTINUOUS
10
-72.1898960309
20
73.2284047408
11
70.6456737687
21
1.8106198409
0
LINE
5
317
100
AcDbEntity
8
0
100
AcDbLine
62
7
6
CONTINUOUS
10
32.6314560562
20
-38.3875319960
11
32.7140154810
21
-38.0514482568
0
LINE
5
318
100
AcDbEntity
8
0
100
AcDbLine
62
7
6
CONTINUOUS
10
49.0933420516
20
-45.1699446825
11
49.0933420516
21
-45.6820708174
0
LINE
5
319
100
AcDbEntity
8
0
100
AcDbLine
62
7
6
CONTINUOUS
10
49.1447130865
20
-45.1541862507
11
49.1447130865
21
-45.6647370352
0
LINE
5
31A
100
AcDbEntity
8
0
100
AcDbLine
62
7
6
CONTINUOUS
10
49.7640443383
20
-49.1045567782
11
49.7640443251
21
-8.7860075058
0
LINE
5
31B
100
AcDbEntity
8
0
100
AcDbLine
62
7
6
CONTINUOUS
10
49.8262736181
20
-49.4712092248
11
49.8262736181
21
-8.5640975476
0
LINE
5
31C
100
AcDbEntity
8
0
100
AcDbLine
62
7
6
CONTINUOUS
10
32.9215269924
20
-37.9457090614
11
33.1762318660
21
-37.7611130106
0
LINE
5
31D
100
AcDbEntity
8
0
100
AcDbLine
62
7
6
CONTINUOUS
10
33.1764259451
20
-37.3052532200
11
31.7889460968
21
-38.0757294618
0
LINE
5
31E
100
AcDbEntity
8
0
100
AcDbLine
62
7
6
CONTINUOUS
10
32.9215269924
20
-37.9457090614
11
32.2318086206
21
-38.2971607237
0
LINE
5
31F
100
AcDbEntity
8
0
100
AcDbLine
62
7
6
CONTINUOUS
10
32.6314560562
20
-38.3875319960
11
32.5356287293
21
-38.4356605895
0
LINE
5
320
100
AcDbEntity
8
0
100
AcDbLine
62
7
6
CONTINUOUS
10
33.1834394749
20
-37.7271195291
11
32.1357014172
21
-38.2491071220
0
LINE
5
321
100
AcDbEntity
8
0
100
AcDbLine
62
7
6
CONTINUOUS
10
28.9189620995
20
-35.1765212972
11
27.3780096159
21
-35.8702612214
0
LINE
5
322
100
AcDbEntity
8
0
100
AcDbLine
62
7
6
CONTINUOUS
10
70.7870951250
20
1.7224118965
11
71.0699378375
21
1.5102798621
0
LINE
5
323
100
AcDbEntity
8
0
100
AcDbLine
62
7
6
CONTINUOUS
10
50.9241833982
20
-8.8245402564
11
50.9241833982
21
-50.2535706237
0
LINE
5
324
100
AcDbEntity
8
0
100
AcDbLine
62
7
6
CONTINUOUS
10
51.0599464107
20
-8.8254356578
11
51.0599464107
21
-50.2544660251
0
LINE
5
325
100
AcDbEntity
8
0
100
AcDbLine
62
7
6
CONTINUOUS
10
51.2515144678
20
-8.8125680060
11
51.2515144678
21
-50.3953258154
0
LINE
5
326
100
AcDbEntity
8
0
100
AcDbLine
62
7
6
CONTINUOUS
10
51.2826739761
20
-8.8488343358
11
51.2826739761
21
-50.4315921452
0
LINE
5
327
100
AcDbEntity
8
0
100
AcDbLine
62
7
6
CONTINUOUS
10
44.8288646762
20
-43.0448700452
11
43.1967710054
21
-43.7796419161
0
LINE
5
328
100
AcDbEntity
8
0
100
AcDbLine
62
7
6
CONTINUOUS
10
48.5413586329
20
-46.3424832843
11
48.6239180577
21
-46.0063995451
0
LINE
5
329
100
AcDbEntity
8
0
100
AcDbLine
62
7
6
CONTINUOUS
10
43.3428020094
20
-43.8526574181
11
43.3513520149
21
-43.8379108398
0
LINE
5
32A
100
AcDbEntity
8
0
100
AcDbLine
62
7
6
CONTINUOUS
10
43.6095542320
20
-43.8255905921
11
43.7049054055
21
-43.6611341445
0
LINE
5
32B
100
AcDbEntity
8
0
100
AcDbLine
62
7
6
CONTINUOUS
10
43.9631076226
20
-43.6488138968
11
44.0584587961
21
-43.4843574492
0
LINE
5
32C
100
AcDbEntity
8
0
100
AcDbLine
62
7
6
CONTINUOUS
10
44.3166610132
20
-43.4720372015
11
44.4120121867
21
-43.3075807539
0
LINE
5
32D
100
AcDbEntity
8
0
100
AcDbLine
62
7
6
CONTINUOUS
10
44.6702144038
20
-43.2952605062
11
44.7655655773
21
-43.1308040586
0
LINE
5
32E
100
AcDbEntity
8
0
100
AcDbLine
62
7
6
CONTINUOUS
10
47.2318893059
20
-45.7972010664
11
47.2404393115
21
-45.7824544881
0
LINE
5
32F
100
AcDbEntity
8
0
100
AcDbLine
62
7
6
CONTINUOUS
10
47.4879266849
20
-45.7886146119
11
47.5939927021
21
-45.6056777928
0
LINE
5
330
100
AcDbEntity
8
0
100
AcDbLine
62
7
6
CONTINUOUS
10
47.8414800755
20
-45.6118379166
11
47.9475460927
21
-45.4289010975
0
LINE
5
331
100
AcDbEntity
8
0
100
AcDbLine
62
7
6
CONTINUOUS
10
48.1950334661
20
-45.4350612213
11
48.3010994832
21
-45.2521244022
0
LINE
5
332
100
AcDbEntity
8
0
100
AcDbLine
62
7
6
CONTINUOUS
10
48.5485868567
20
-45.2582845260
11
48.6546528738
21
-45.0753477069
0
LINE
5
333
100
AcDbEntity
8
0
100
AcDbLine
62
7
6
CONTINUOUS
10
49.0863285218
20
-45.1736019680
11
47.6167847799
21
-45.9896488034
0
LINE
5
334
100
AcDbEntity
8
0
100
AcDbLine
62
7
6
CONTINUOUS
10
48.8314295691
20
-45.9006603498
11
48.1417111973
21
-46.2521120121
0
LINE
5
335
100
AcDbEntity
8
0
100
AcDbLine
62
7
6
CONTINUOUS
10
48.5413586329
20
-46.3424832843
11
48.4455313060
21
-46.3906118778
0
LINE
5
336
100
AcDbEntity
8
0
100
AcDbLine
62
7
6
CONTINUOUS
10
43.3513520149
20
-43.8379108398
11
43.4927733712
21
-43.7672001617
0
LINE
5
337
100
AcDbEntity
8
0
100
AcDbLine
62
7
6
CONTINUOUS
10
43.7049054055
20
-43.6611341445
11
43.8463267618
21
-43.5904234664
0
LINE
5
338
100
AcDbEntity
8
0
100
AcDbLine
62
7
6
CONTINUOUS
10
44.0584587961
20
-43.4843574492
11
44.1998801524
21
-43.4136467711
0
LINE
5
339
100
AcDbEntity
8
0
100
AcDbLine
62
7
6
CONTINUOUS
10
44.4120121867
20
-43.3075807539
11
44.5534335430
21
-43.2368700758
0
LINE
5
33A
100
AcDbEntity
8
0
100
AcDbLine
62
7
6
CONTINUOUS
10
44.7655655773
20
-43.1308040586
11
44.9069869336
21
-43.0600933805
0
LINE
5
33B
100
AcDbEntity
8
0
100
AcDbLine
62
7
6
CONTINUOUS
10
47.2404393115
20
-45.7824544881
11
47.3818606677
21
-45.7117438099
0
LINE
5
33C
100
AcDbEntity
8
0
100
AcDbLine
62
7
6
CONTINUOUS
10
47.5939927021
20
-45.6056777928
11
47.7354140583
21
-45.5349671147
0
LINE
5
33D
100
AcDbEntity
8
0
100
AcDbLine
62
7
6
CONTINUOUS
10
47.9475460927
20
-45.4289010975
11
48.0889674489
21
-45.3581904194
0
LINE
5
33E
100
AcDbEntity
8
0
100
AcDbLine
62
7
6
CONTINUOUS
10
48.3010994832
20
-45.2521244022
11
48.4425208395
21
-45.1814137241
0
LINE
5
33F
100
AcDbEntity
8
0
100
AcDbLine
62
7
6
CONTINUOUS
10
48.6546528738
20
-45.0753477069
11
48.7960742301
21
-45.0046370288
0
LINE
5
340
100
AcDbEntity
8
0
100
AcDbLine
62
7
6
CONTINUOUS
10
48.9021402473
20
-45.0815078307
11
47.3513215409
21
-45.8569171839
0
LINE
5
341
100
AcDbEntity
8
0
100
AcDbLine
62
7
6
CONTINUOUS
10
49.0933420516
20
-45.6820708174
11
48.0456039939
21
-46.2040584104
0
LINE
5
342
100
AcDbEntity
8
0
100
AcDbLine
62
7
6
CONTINUOUS
10
66.4584053102
20
-1.9077521423
11
66.4584053102
21
-71.6792125304
0
LINE
5
343
100
AcDbEntity
8
0
100
AcDbLine
62
7
6
CONTINUOUS
10
67.6757828442
20
-1.9136942598
11
67.6757828442
21
-71.6851546479
0
LINE
5
344
100
AcDbEntity
8
0
100
AcDbLine
62
7
6
CONTINUOUS
10
70.8578058031
20
-0.2874385164
11
70.8578058031
21
-70.4463040500
0
LINE
5
345
100
AcDbEntity
8
0
100
AcDbLine
62
7
6
CONTINUOUS
10
71.3527805499
20
-37.4659306187
11
71.3527805499
21
-69.5570166600
0
LINE
5
346
100
AcDbEntity
8
0
100
AcDbLine
62
7
6
CONTINUOUS
10
71.3527805499
20
-31.2228434265
11
71.3527805499
21
0.9445944372
0
LINE
5
347
100
AcDbEntity
8
0
100
AcDbLine
62
7
6
CONTINUOUS
10
48.8314295691
20
-45.9006603498
11
49.0861344427
21
-45.7160642989
0
LINE
5
348
100
AcDbEntity
8
0
100
AcDbLine
62
7
6
CONTINUOUS
10
70.8578058031
20
-31.5472515768
11
71.3527805499
21
-31.2228434265
0
LINE
5
349
100
AcDbEntity
8
0
100
AcDbLine
62
7
6
CONTINUOUS
10
50.9187876022
20
-50.7499248415
11
50.5244722917
21
-50.9545806744
0
LINE
5
34A
100
AcDbEntity
8
0
100
AcDbLine
62
7
6
CONTINUOUS
10
50.9917514105
20
-50.9566092839
11
50.9916965580
21
-50.9566377477
0
LINE
5
34B
100
AcDbEntity
8
0
100
AcDbLine
62
7
6
CONTINUOUS
10
50.7629683753
20
-50.8110833865
11
50.7614058495
21
-50.8117000845
0
LINE
5
34C
100
AcDbEntity
8
0
100
AcDbLine
62
7
6
CONTINUOUS
10
71.3527805499
20
-69.5570166600
11
70.8578058031
21
-69.7798552919
0
LINE
5
34D
100
AcDbEntity
8
0
100
AcDbLine
62
7
6
CONTINUOUS
10
71.0702839829
20
-70.1082705418
11
70.8578058031
21
-70.1974541017
0
LINE
5
34E
100
AcDbEntity
8
0
100
AcDbLine
62
7
6
CONTINUOUS
10
70.8578058031
20
-70.4463040500
11
67.6757828442
21
-71.6851546479
0
LINE
5
34F
100
AcDbEntity
8
0
100
AcDbLine
62
7
6
CONTINUOUS
10
67.0989885835
20
-72.7475990546
11
70.2834365520
21
-71.5078820338
0
SPLINE
5
350
100
AcDbEntity
8
0
100
AcDbSpline
62
7
6
CONTINUOUS
70
0
71
3
72
8
73
4
74
2
42
0.0000001000
43
0.0000001000
44
0.0000000001
12
0.0000021663
22
-0.0964968582
32
0.0000000000
13
0.0081002258
23
-0.0961434090
33
0.0000000000
40
0.0000000000
40
0.0000000000
40
0.0000000000
40
0.0000000000
40
1.0000000000
40
1.0000000000
40
1.0000000000
40
1.0000000000
10
-63.0366204792
20
6.7475559573
30
0.0000000000
10
-63.0366197571
20
6.7153903379
30
0.0000000000
10
-63.0351773322
20
6.6832015292
30
0.0000000000
10
-63.0324772569
20
6.6511537263
30
0.0000000000
11
-63.0366204792
21
6.7475559573
31
0.0000000000
11
-63.0324772569
21
6.6511537263
31
0.0000000000
0
SPLINE
5
351
100
AcDbEntity
8
0
100
AcDbSpline
62
7
6
CONTINUOUS
70
0
71
3
72
8
73
4
74
2
42
0.0000001000
43
0.0000001000
44
0.0000000001
12
0.0065971025
22
-0.0783024995
32
0.0000000000
13
0.0114330444
23
-0.0776569744
33
0.0000000000
40
0.0000000000
40
0.0000000000
40
0.0000000000
40
0.0000000000
40
1.0000000000
40
1.0000000000
40
1.0000000000
40
1.0000000000
10
-63.0324772569
20
6.6511537263
30
0.0000000000
10
-63.0302782227
20
6.6250528931
30
0.0000000000
10
-63.0272449848
20
6.5990455895
30
0.0000000000
10
-63.0234339700
20
6.5731599314
30
0.0000000000
11
-63.0324772569
21
6.6511537263
31
0.0000000000
11
-63.0234339700
21
6.5731599314
31
0.0000000000
0
SPLINE
5
352
100
AcDbEntity
8
0
100
AcDbSpline
62
7
6
CONTINUOUS
70
0
71
3
72
12
73
8
74
6
42
0.0000001000
43
0.0000001000
44
0.0000000001
12
0.1431656561
22
-0.9724279278
32
0.0000000000
13
0.7146068261
23
-0.6749491644
33
0.0000000000
40
0.0000000000
40
0.0000000000
40
0.0000000000
40
0.0000000000
40
0.1643006602
40
0.4182431184
40
0.6735124140
40
0.9208495837
40
1.0000000000
40
1.0000000000
40
1.0000000000
40
1.0000000000
10
-63.0234339700
20
6.5731599314
30
0.0000000000
10
-63.0155932328
20
6.5199030812
30
0.0000000000
10
-62.9872532447
20
6.3856433959
30
0.0000000000
10
-62.9123896179
20
6.1773681723
30
0.0000000000
10
-62.7932803196
20
5.9592364570
30
0.0000000000
10
-62.6760975334
20
5.8080545687
30
0.0000000000
10
-62.6007323230
20
5.7320535776
30
0.0000000000
10
-62.5818785137
20
5.7142460752
30
0.0000000000
11
-63.0234339700
21
6.5731599314
31
0.0000000000
11
-62.9905265260
21
6.4151789516
31
0.0000000000
11
-62.9066757250
21
6.1804268760
31
0.0000000000
11
-62.7863280554
21
5.9606383856
31
0.0000000000
11
-62.6367096340
21
5.7694232003
31
0.0000000000
11
-62.5818785137
21
5.7142460752
31
0.0000000000
0
SPLINE
5
353
100
AcDbEntity
8
0
100
AcDbSpline
62
7
6
CONTINUOUS
70
0
71
3
72
9
73
5
74
3
42
0.0000001000
43
0.0000001000
44
0.0000000001
12
0.1305947177
22
-0.1233472623
32
0.0000000000
13
0.1498697748
23
-0.0998843692
33
0.0000000000
40
0.0000000000
40
0.0000000000
40
0.0000000000
40
0.0000000000
40
0.8322184254
40
1.0000000000
40
1.0000000000
40
1.0000000000
40
1.0000000000
10
-62.5818785137
20
5.7142460752
30
0.0000000000
10
-62.5456507369
20
5.6800287870
30
0.0000000000
10
-62.4995325782
20
5.6416522852
30
0.0000000000
10
-62.4501144430
20
5.6075676527
30
0.0000000000
10
-62.4417326474
20
5.6019814004
30
0.0000000000
11
-62.5818785137
21
5.7142460752
31
0.0000000000
11
-62.4666044516
21
5.6191260183
31
0.0000000000
11
-62.4417326474
21
5.6019814004
31
0.0000000000
0
SPLINE
5
354
100
AcDbEntity
8
0
100
AcDbSpline
62
7
6
CONTINUOUS
70
0
71
3
72
8
73
4
74
2
42
0.0000001000
43
0.0000001000
44
0.0000000001
12
0.0383501875
22
-0.0255594185
32
0.0000000000
13
0.0395838649
23
-0.0235853762
33
0.0000000000
40
0.0000000000
40
0.0000000000
40
0.0000000000
40
0.0000000000
40
1.0000000000
40
1.0000000000
40
1.0000000000
40
1.0000000000
10
-62.4417326474
20
5.6019814004
30
0.0000000000
10
-62.4289492516
20
5.5934615943
30
0.0000000000
10
-62.4159557136
20
5.5852500383
30
0.0000000000
10
-62.4027610919
20
5.5773882462
30
0.0000000000
11
-62.4417326474
21
5.6019814004
31
0.0000000000
11
-62.4027610919
21
5.5773882462
31
0.0000000000
0
SPLINE
5
355
100
AcDbEntity
8
0
100
AcDbSpline
62
7
6
CONTINUOUS
70
0
71
3
72
9
73
5
74
3
42
0.0000001000
43
0.0000001000
44
0.0000000001
12
32.1005770591
22
-19.1219583183
32
0.0000000000
13
32.8939563831
23
-17.7251231042
33
0.0000000000
40
0.0000000000
40
0.0000000000
40
0.0000000000
40
0.0000000000
40
0.6799012138
40
1.0000000000
40
1.0000000000
40
1.0000000000
40
1.0000000000
10
-62.4028116384
20
5.5774159837
30
0.0000000000
10
-55.1277378695
20
1.2437350933
30
0.0000000000
10
-44.3348283200
20
-4.9761319190
30
0.0000000000
10
-33.4112794489
20
-10.9608664664
30
0.0000000000
10
-29.9015076119
20
-12.8521299299
30
0.0000000000
11
-62.4028116384
21
5.5774159837
31
0.0000000000
11
-40.3911231907
21
-7.1053615053
31
0.0000000000
11
-29.9015076119
21
-12.8521299299
31
0.0000000000
0
SPLINE
5
356
100
AcDbEntity
8
0
100
AcDbSpline
62
7
6
CONTINUOUS
70
0
71
3
72
8
73
4
74
2
42
0.0000001000
43
0.0000001000
44
0.0000000001
12
2.3365309704
22
-1.2590549645
32
0.0000000000
13
2.3404108316
23
-1.2518216860
33
0.0000000000
40
0.0000000000
40
0.0000000000
40
0.0000000000
40
0.0000000000
40
1.0000000000
40
1.0000000000
40
1.0000000000
40
1.0000000000
10
-29.9015076119
20
-12.8521299299
30
0.0000000000
10
-29.1226639551
20
-13.2718149181
30
0.0000000000
10
-28.3431724056
20
-13.6902962741
30
0.0000000000
10
-27.5630354617
20
-14.1075701695
30
0.0000000000
11
-29.9015076119
21
-12.8521299299
31
0.0000000000
11
-27.5630354617
21
-14.1075701695
31
0.0000000000
0
SPLINE
5
357
100
AcDbEntity
8
0
100
AcDbSpline
62
7
6
CONTINUOUS
70
0
71
3
72
10
73
6
74
4
42
0.0000001000
43
0.0000001000
44
0.0000000001
12
44.6986724721
22
-23.9080962963
32
0.0000000000
13
46.0513010253
23
-21.1863625726
33
0.0000000000
40
0.0000000000
40
0.0000000000
40
0.0000000000
40
0.0000000000
40
0.2126679557
40
0.7112673346
40
1.0000000000
40
1.0000000000
40
1.0000000000
40
1.0000000000
10
-27.5630354617
20
-14.1075701695
30
0.0000000000
10
-24.3943770289
20
-15.8023988244
30
0.0000000000
10
-13.7611990443
20
-21.4041268519
30
0.0000000000
10
1.3532321597
20
-28.9625279469
30
0.0000000000
10
13.3902879174
20
-34.6287619609
30
0.0000000000
10
17.8224595482
20
-36.6678269398
30
0.0000000000
11
-27.5630354617
21
-14.1075701695
31
0.0000000000
11
-18.0252860387
21
-19.1320405808
31
0.0000000000
11
4.5801825058
21
-30.4345936887
31
0.0000000000
11
17.8224595482
21
-36.6678269398
31
0.0000000000
0
SPLINE
5
358
100
AcDbEntity
8
0
100
AcDbSpline
62
7
6
CONTINUOUS
70
0
71
3
72
8
73
4
74
2
42
0.0000001000
43
0.0000001000
44
0.0000000001
12
1.9533707383
22
-0.8986677853
32
0.0000000000
13
1.9556848073
23
-0.8936285576
33
0.0000000000
40
0.0000000000
40
0.0000000000
40
0.0000000000
40
0.0000000000
40
1.0000000000
40
1.0000000000
40
1.0000000000
40
1.0000000000
10
17.8224595482
20
-36.6678269398
30
0.0000000000
10
18.4735831277
20
-36.9673828682
30
0.0000000000
10
19.1250931998
20
-37.2660998440
30
0.0000000000
10
19.7769881355
20
-37.5639760299
30
0.0000000000
11
17.8224595482
21
-36.6678269398
31
0.0000000000
11
19.7769881355
21
-37.5639760299
31
0.0000000000
0
SPLINE
5
359
100
AcDbEntity
8
0
100
AcDbSpline
62
7
6
CONTINUOUS
70
0
71
3
72
8
73
4
74
2
42
0.0000001000
43
0.0000001000
44
0.0000000001
12
0.0543479887
22
-0.0248337128
32
0.0000000000
13
0.0543497719
23
-0.0248298167
33
0.0000000000
40
0.0000000000
40
0.0000000000
40
0.0000000000
40
0.0000000000
40
1.0000000000
40
1.0000000000
40
1.0000000000
40
1.0000000000
10
19.7769881355
20
-37.5639760299
30
0.0000000000
10
19.7951041318
20
-37.5722539341
30
0.0000000000
10
19.8132204252
20
-37.5805311891
30
0.0000000000
10
19.8313370158
20
-37.5888077947
30
0.0000000000
11
19.7769881355
21
-37.5639760299
31
0.0000000000
11
19.8313370158
21
-37.5888077947
31
0.0000000000
0
SPLINE
5
35A
100
AcDbEntity
8
0
100
AcDbSpline
62
7
6
CONTINUOUS
70
0
71
3
72
8
73
4
74
2
42
0.0000001000
43
0.0000001000
44
0.0000000001
12
0.4307623044
22
-0.1967947371
32
0.0000000000
13
0.4308742621
23
-0.1965499330
33
0.0000000000
40
0.0000000000
40
0.0000000000
40
0.0000000000
40
0.0000000000
40
1.0000000000
40
1.0000000000
40
1.0000000000
40
1.0000000000
10
19.8313370158
20
-37.5888077947
30
0.0000000000
10
19.9749244507
20
-37.6544060404
30
0.0000000000
10
20.1185305538
20
-37.7199634952
30
0.0000000000
10
20.2621553078
20
-37.7854801395
30
0.0000000000
11
19.8313370158
21
-37.5888077947
31
0.0000000000
11
20.2621553078
21
-37.7854801395
31
0.0000000000
0
SPLINE
5
35B
100
AcDbEntity
8
0
100
AcDbSpline
62
7
6
CONTINUOUS
70
0
71
3
72
9
73
5
74
3
42
0.0000001000
43
0.0000001000
44
0.0000000001
12
29.7702031922
22
-13.5801368460
32
0.0000000000
13
30.2830293486
23
-12.3912045451
33
0.0000000000
40
0.0000000000
40
0.0000000000
40
0.0000000000
40
0.0000000000
40
0.2396492213
40
1.0000000000
40
1.0000000000
40
1.0000000000
40
1.0000000000
10
20.2621553078
20
-37.7854801395
30
0.0000000000
10
22.6402906456
20
-38.8703032130
30
0.0000000000
10
32.5850289554
20
-43.3503269270
30
0.0000000000
10
42.6174267382
20
-47.6339783454
30
0.0000000000
10
50.2926683870
20
-50.7745323537
30
0.0000000000
11
20.2621553078
21
-37.7854801395
31
0.0000000000
11
27.4118226666
21
-41.0062935976
31
0.0000000000
11
50.2926683870
21
-50.7745323537
31
0.0000000000
0
SPLINE
5
35C
100
AcDbEntity
8
0
100
AcDbSpline
62
7
6
CONTINUOUS
70
0
71
3
72
8
73
4
74
2
42
0.0000001000
43
0.0000001000
44
0.0000000001
12
0.0464753454
22
-0.0190167736
32
0.0000000000
13
0.0464764967
23
-0.0190139252
33
0.0000000000
40
0.0000000000
40
0.0000000000
40
0.0000000000
40
0.0000000000
40
1.0000000000
40
1.0000000000
40
1.0000000000
40
1.0000000000
10
50.2926683870
20
-50.7745323537
30
0.0000000000
10
50.3081601688
20
-50.7808712782
30
0.0000000000
10
50.3236521425
20
-50.7872097280
30
0.0000000000
10
50.3391443080
20
-50.7935477031
30
0.0000000000
11
50.2926683870
21
-50.7745323537
31
0.0000000000
11
50.3391443080
21
-50.7935477031
31
0.0000000000
0
SPLINE
5
35D
100
AcDbEntity
8
0
100
AcDbSpline
62
7
6
CONTINUOUS
70
0
71
3
72
8
73
4
74
2
42
0.0000001000
43
0.0000001000
44
0.0000000001
12
0.0585093948
22
-0.0239368630
32
0.0000000000
13
0.0603606567
23
-0.0189350280
33
0.0000000000
40
0.0000000000
40
0.0000000000
40
0.0000000000
40
0.0000000000
40
1.0000000000
40
1.0000000000
40
1.0000000000
40
1.0000000000
10
50.3391166411
20
-50.7935398938
30
0.0000000000
10
50.3586197728
20
-50.8015188481
30
0.0000000000
10
50.3784464702
20
-50.8087153675
30
0.0000000000
10
50.3985666891
20
-50.8150270435
30
0.0000000000
11
50.3391166411
21
-50.7935398938
31
0.0000000000
11
50.3985666891
21
-50.8150270435
31
0.0000000000
0
SPLINE
5
35E
100
AcDbEntity
8
0
100
AcDbSpline
62
7
6
CONTINUOUS
70
0
71
3
72
8
73
4
74
2
42
0.0000001000
43
0.0000001000
44
0.0000000001
12
0.0561653956
22
-0.0176189823
32
0.0000000000
13
0.0574816185
23
-0.0127211280
33
0.0000000000
40
0.0000000000
40
0.0000000000
40
0.0000000000
40
0.0000000000
40
1.0000000000
40
1.0000000000
40
1.0000000000
40
1.0000000000
10
50.3985666891
20
-50.8150270435
30
0.0000000000
10
50.4172884877
20
-50.8209000376
30
0.0000000000
10
50.4362644242
20
-50.8260069129
30
0.0000000000
10
50.4554249637
20
-50.8302472889
30
0.0000000000
11
50.3985666891
21
-50.8150270435
31
0.0000000000
11
50.4554249637
21
-50.8302472889
31
0.0000000000
0
SPLINE
5
35F
100
AcDbEntity
8
0
100
AcDbSpline
62
7
6
CONTINUOUS
70
0
71
3
72
10
73
6
74
4
42
0.0000001000
43
0.0000001000
44
0.0000000001
12
0.3053676826
22
-0.0675802364
32
0.0000000000
13
0.2913429803
23
0.1159922476
33
0.0000000000
40
0.0000000000
40
0.0000000000
40
0.0000000000
40
0.0000000000
40
0.3596309361
40
0.8665297789
40
1.0000000000
40
1.0000000000
40
1.0000000000
40
1.0000000000
10
50.4554249637
20
-50.8302472889
30
0.0000000000
10
50.4920315189
20
-50.8383486035
30
0.0000000000
10
50.5818584724
20
-50.8502479631
30
0.0000000000
10
50.6867870157
20
-50.8380997353
30
0.0000000000
10
50.7500943822
20
-50.8161554164
30
0.0000000000
10
50.7630562529
20
-50.8109949127
30
0.0000000000
11
50.4554249637
21
-50.8302472889
31
0.0000000000
11
50.5667811709
21
-50.8443628525
31
0.0000000000
11
50.7235356510
21
-50.8246876426
31
0.0000000000
11
50.7630562529
21
-50.8109949127
31
0.0000000000
0
SPLINE
5
360
100
AcDbEntity
8
0
100
AcDbSpline
62
7
6
CONTINUOUS
70
0
71
3
72
10
73
6
74
4
42
0.0000001000
43
0.0000001000
44
0.0000000001
12
-0.4580900517
22
-0.2855262111
32
0.0000000000
13
-0.0500301217
23
-0.5357225092
33
0.0000000000
40
0.0000000000
40
0.0000000000
40
0.0000000000
40
0.0000000000
40
0.2523748898
40
0.6059398050
40
1.0000000000
40
1.0000000000
40
1.0000000000
40
1.0000000000
10
-62.7879901317
20
48.7294376993
30
0.0000000000
10
-62.8265269404
20
48.7054178173
30
0.0000000000
10
-62.9099636271
20
48.6327566169
30
0.0000000000
10
-62.9984837383
20
48.4732728105
30
0.0000000000
10
-63.0257598396
20
48.3408853586
30
0.0000000000
10
-63.0323314661
20
48.2705163865
30
0.0000000000
11
-62.7879901317
21
48.7294376993
31
0.0000000000
11
-62.8908606560
21
48.6407315375
31
0.0000000000
11
-62.9861982331
21
48.4767893931
31
0.0000000000
11
-63.0323314661
21
48.2705163865
31
0.0000000000
0
SPLINE
5
361
100
AcDbEntity
8
0
100
AcDbSpline
62
7
6
CONTINUOUS
70
0
71
3
72
8
73
4
74
2
42
0.0000001000
43
0.0000001000
44
0.0000000001
12
-0.0087604464
22
-0.0938068536
32
0.0000000000
13
-0.0000097560
23
-0.0941392705
33
0.0000000000
40
0.0000000000
40
0.0000000000
40
0.0000000000
40
0.0000000000
40
1.0000000000
40
1.0000000000
40
1.0000000000
40
1.0000000000
10
-63.0323314661
20
48.2705163865
30
0.0000000000
10
-63.0352516149
20
48.2392474353
30
0.0000000000
10
-63.0366306152
20
48.2078620166
30
0.0000000000
10
-63.0366338672
20
48.1764822598
30
0.0000000000
11
-63.0323314661
21
48.2705163865
31
0.0000000000
11
-63.0366338672
21
48.1764822598
31
0.0000000000
0
SPLINE
5
362
100
AcDbEntity
8
0
100
AcDbSpline
62
7
6
CONTINUOUS
70
0
71
3
72
8
73
4
74
2
42
0.0000001000
43
0.0000001000
44
0.0000000001
12
-0.0770535652
22
-0.0477210678
32
0.0000000000
13
-0.0770535563
23
-0.0477210822
33
0.0000000000
40
0.0000000000
40
0.0000000000
40
0.0000000000
40
0.0000000000
40
1.0000000000
40
1.0000000000
40
1.0000000000
40
1.0000000000
10
-62.4003493250
20
48.9695850300
30
0.0000000000
10
-62.4260338468
20
48.9536780074
30
0.0000000000
10
-62.4517183670
20
48.9377709825
30
0.0000000000
10
-62.4774028858
20
48.9218639551
30
0.0000000000
11
-62.4003493250
21
48.9695850300
31
0.0000000000
11
-62.4774028858
21
48.9218639551
31
0.0000000000
0
SPLINE
5
363
100
AcDbEntity
8
0
100
AcDbSpline
62
7
6
CONTINUOUS
70
0
71
3
72
8
73
4
74
2
42
0.0000001000
43
0.0000001000
44
0.0000000001
12
-0.1281477465
22
-0.0793649175
32
0.0000000000
13
-0.1281477218
23
-0.0793649573
33
0.0000000000
40
0.0000000000
40
0.0000000000
40
0.0000000000
40
0.0000000000
40
1.0000000000
40
1.0000000000
40
1.0000000000
40
1.0000000000
10
-62.4774028858
20
48.9218639551
30
0.0000000000
10
-62.5201188013
20
48.8954089826
30
0.0000000000
10
-62.5628347127
20
48.8689540034
30
0.0000000000
10
-62.6055506200
20
48.8424990176
30
0.0000000000
11
-62.4774028858
21
48.9218639551
31
0.0000000000
11
-62.6055506200
21
48.8424990176
31
0.0000000000
0
SPLINE
5
364
100
AcDbEntity
8
0
100
AcDbSpline
62
7
6
CONTINUOUS
70
0
71
3
72
8
73
4
74
2
42
0.0000001000
43
0.0000001000
44
0.0000000001
12
-0.0671915952
22
-0.0416133663
32
0.0000000000
13
-0.0671915884
23
-0.0416133772
33
0.0000000000
40
0.0000000000
40
0.0000000000
40
0.0000000000
40
0.0000000000
40
1.0000000000
40
1.0000000000
40
1.0000000000
40
1.0000000000
10
-62.6055506200
20
48.8424990176
30
0.0000000000
10
-62.6279478183
20
48.8286278956
30
0.0000000000
10
-62.6503450156
20
48.8147567716
30
0.0000000000
10
-62.6727422117
20
48.8008856459
30
0.0000000000
11
-62.6055506200
21
48.8424990176
31
0.0000000000
11
-62.6727422117
21
48.8008856459
31
0.0000000000
0
SPLINE
5
365
100
AcDbEntity
8
0
100
AcDbSpline
62
7
6
CONTINUOUS
70
0
71
3
72
8
73
4
74
2
42
0.0000001000
43
0.0000001000
44
0.0000000001
12
-0.1149566565
22
-0.0711954402
32
0.0000000000
13
-0.1149566367
23
-0.0711954722
33
0.0000000000
40
0.0000000000
40
0.0000000000
40
0.0000000000
40
0.0000000000
40
1.0000000000
40
1.0000000000
40
1.0000000000
40
1.0000000000
10
-62.6727422117
20
48.8008856459
30
0.0000000000
10
-62.7110610972
20
48.7771538325
30
0.0000000000
10
-62.7493799794
20
48.7534220138
30
0.0000000000
10
-62.7876988583
20
48.7296901897
30
0.0000000000
11
-62.6727422117
21
48.8008856459
31
0.0000000000
11
-62.7876988583
21
48.7296901897
31
0.0000000000
0
SPLINE
5
366
100
AcDbEntity
8
0
100
AcDbSpline
62
7
6
CONTINUOUS
70
0
71
3
72
8
73
4
74
2
42
0.0000001000
43
0.0000001000
44
0.0000000001
12
0.3315655757
22
0.1301592658
32
0.0000000000
13
0.3315654740
23
0.1301595248
33
0.0000000000
40
0.0000000000
40
0.0000000000
40
0.0000000000
40
0.0000000000
40
1.0000000000
40
1.0000000000
40
1.0000000000
40
1.0000000000
10
50.7614076217
20
-50.8117061148
30
0.0000000000
10
50.8719294803
20
-50.7683196928
30
0.0000000000
10
50.9824513219
20
-50.7249332277
30
0.0000000000
10
51.0929731466
20
-50.6815467195
30
0.0000000000
11
50.7614076217
21
-50.8117061148
31
0.0000000000
11
51.0929731466
21
-50.6815467195
31
0.0000000000
0
SPLINE
5
367
100
AcDbEntity
8
0
100
AcDbSpline
62
7
6
CONTINUOUS
70
0
71
3
72
8
73
4
74
2
42
0.0000001000
43
0.0000001000
44
0.0000000001
12
0.0215011240
22
0.0084404931
32
0.0000000000
13
0.0215011236
23
0.0084404942
33
0.0000000000
40
0.0000000000
40
0.0000000000
40
0.0000000000
40
0.0000000000
40
1.0000000000
40
1.0000000000
40
1.0000000000
40
1.0000000000
10
51.0929731466
20
-50.6815467195
30
0.0000000000
10
51.1001401879
20
-50.6787332218
30
0.0000000000
10
51.1073072292
20
-50.6759197239
30
0.0000000000
10
51.1144742704
20
-50.6731062259
30
0.0000000000
11
51.0929731466
21
-50.6815467195
31
0.0000000000
11
51.1144742704
21
-50.6731062259
31
0.0000000000
0
SPLINE
5
368
100
AcDbEntity
8
0
100
AcDbSpline
62
7
6
CONTINUOUS
70
0
71
3
72
8
73
4
74
2
42
0.0000001000
43
0.0000001000
44
0.0000000001
12
0.1075390877
22
0.0422156097
32
0.0000000000
13
0.1075390770
23
0.0422156370
33
0.0000000000
40
0.0000000000
40
0.0000000000
40
0.0000000000
40
0.0000000000
40
1.0000000000
40
1.0000000000
40
1.0000000000
40
1.0000000000
10
51.1144742704
20
-50.6731062259
30
0.0000000000
10
51.1503206329
20
-50.6590343560
30
0.0000000000
10
51.1861669937
20
-50.6449624815
30
0.0000000000
10
51.2220133527
20
-50.6308906025
30
0.0000000000
11
51.1144742704
21
-50.6731062259
31
0.0000000000
11
51.2220133527
21
-50.6308906025
31
0.0000000000
0
SPLINE
5
369
100
AcDbEntity
8
0
100
AcDbSpline
62
7
6
CONTINUOUS
70
0
71
3
72
15
73
11
74
9
42
0.0000001000
43
0.0000001000
44
0.0000000001
12
1.0969248077
22
-0.5484624039
32
0.0000000000
13
-0.8937185940
23
-0.8450849013
33
0.0000000000
40
0.0000000000
40
0.0000000000
40
0.0000000000
40
0.0000000000
40
0.1070790041
40
0.2244355232
40
0.3529093749
40
0.4931805149
40
0.6358804951
40
0.7782454200
40
0.9159647391
40
1.0000000000
40
1.0000000000
40
1.0000000000
40
1.0000000000
10
-3.4127900260
20
-22.5364594499
30
0.0000000000
10
-3.3736374874
20
-22.5560357193
30
0.0000000000
10
-3.2984249687
20
-22.6114592681
30
0.0000000000
10
-3.2093169813
20
-22.7268771071
30
0.0000000000
10
-3.1467126640
20
-22.8735260893
30
0.0000000000
10
-3.1181314830
20
-23.0406992662
30
0.0000000000
10
-3.1258459332
20
-23.2157496855
30
0.0000000000
10
-3.1714010630
20
-23.3839519339
30
0.0000000000
10
-3.2424156857
20
-23.5164623689
30
0.0000000000
10
-3.3023720817
20
-23.5854795204
30
0.0000000000
10
-3.3274067067
20
-23.6091518305
30
0.0000000000
11
-3.4127900260
21
-22.5364594499
31
0.0000000000
11
-3.3060901922
21
-22.6130134172
31
0.0000000000
11
-3.2171859183
21
-22.7261978119
31
0.0000000000
11
-3.1543176250
21
-22.8706720456
31
0.0000000000
11
-3.1243915310
21
-23.0400774911
31
0.0000000000
11
-3.1322534120
21
-23.2149079556
31
0.0000000000
11
-3.1782175386
21
-23.3833453134
31
0.0000000000
11
-3.2593296986
21
-23.5314926865
31
0.0000000000
11
-3.3274067067
21
-23.6091518305
31
0.0000000000
0
SPLINE
5
36A
100
AcDbEntity
8
0
100
AcDbSpline
62
7
6
CONTINUOUS
70
0
71
3
72
9
73
5
74
3
42
0.0000001000
43
0.0000001000
44
0.0000000001
12
-0.0694345419
22
-0.0656561063
32
0.0000000000
13
-0.0808663058
23
-0.0510038811
33
0.0000000000
40
0.0000000000
40
0.0000000000
40
0.0000000000
40
0.0000000000
40
0.5102376245
40
1.0000000000
40
1.0000000000
40
1.0000000000
40
1.0000000000
10
-3.3274067067
20
-23.6091518305
30
0.0000000000
10
-3.3392160786
20
-23.6203185690
30
0.0000000000
10
-3.3633699954
20
-23.6411214342
30
0.0000000000
10
-3.3894670748
20
-23.6594784534
30
0.0000000000
10
-3.4026688328
20
-23.6678050474
30
0.0000000000
11
-3.3274067067
21
-23.6091518305
31
0.0000000000
11
-3.3643704406
21
-23.6409106206
31
0.0000000000
11
-3.4026688328
21
-23.6678050474
31
0.0000000000
0
SPLINE
5
36B
100
AcDbEntity
8
0
100
AcDbSpline
62
7
6
CONTINUOUS
70
0
71
3
72
8
73
4
74
2
42
0.0000001000
43
0.0000001000
44
0.0000000001
12
-0.0380644546
22
-0.0240079585
32
0.0000000000
13
-0.0402726131
23
-0.0201221236
33
0.0000000000
40
0.0000000000
40
0.0000000000
40
0.0000000000
40
0.0000000000
40
1.0000000000
40
1.0000000000
40
1.0000000000
40
1.0000000000
10
-3.4026688328
20
-23.6678050474
30
0.0000000000
10
-3.4153569843
20
-23.6758077003
30
0.0000000000
10
-3.4284334525
20
-23.6831970285
30
0.0000000000
10
-3.4418576569
20
-23.6899044031
30
0.0000000000
11
-3.4026688328
21
-23.6678050474
31
0.0000000000
11
-3.4418576569
21
-23.6899044031
31
0.0000000000
0
SPLINE
5
36C
100
AcDbEntity
8
0
100
AcDbSpline
62
7
6
CONTINUOUS
70
0
71
3
72
10
73
6
74
4
42
0.0000001000
43
0.0000001000
44
0.0000000001
12
0.1285418304
22
-0.0642709152
32
0.0000000000
13
0.1290251556
23
0.0649280805
33
0.0000000000
40
0.0000000000
40
0.0000000000
40
0.0000000000
40
0.0000000000
40
0.4440298755
40
0.9259603095
40
1.0000000000
40
1.0000000000
40
1.0000000000
40
1.0000000000
10
-3.7091120137
20
-23.3338272069
30
0.0000000000
10
-3.6900865427
20
-23.3433399424
30
0.0000000000
10
-3.6455261078
20
-23.3545356677
30
0.0000000000
10
-3.5969490832
20
-23.3451331240
30
0.0000000000
10
-3.5726593201
20
-23.3338537401
30
0.0000000000
10
-3.5694749926
20
-23.3322513217
30
0.0000000000
11
-3.7091120137
21
-23.3338272069
31
0.0000000000
11
-3.6472534431
21
-23.3495008592
31
0.0000000000
11
-3.5791769523
21
-23.3367506094
31
0.0000000000
11
-3.5694749926
21
-23.3322513217
31
0.0000000000
0
SPLINE
5
36D
100
AcDbEntity
8
0
100
AcDbSpline
62
7
6
CONTINUOUS
70
0
71
3
72
11
73
7
74
5
42
0.0000001000
43
0.0000001000
44
0.0000000001
12
0.5206973758
22
-0.3932750689
32
0.0000000000
13
0.0000000000
23
-0.6491483388
33
0.0000000000
40
0.0000000000
40
0.0000000000
40
0.0000000000
40
0.0000000000
40
0.1288548461
40
0.4212318718
40
0.7209063908
40
1.0000000000
40
1.0000000000
40
1.0000000000
40
1.0000000000
10
71.0713146617
20
1.5093013742
30
0.0000000000
10
71.0936794551
20
1.4924095747
30
0.0000000000
10
71.1625953261
20
1.4311768500
30
0.0000000000
10
71.2564706991
20
1.3049063829
30
0.0000000000
10
71.3319399975
20
1.1304362440
30
0.0000000000
10
71.3527805499
20
1.0049854881
30
0.0000000000
10
71.3527805499
20
0.9445944372
30
0.0000000000
11
71.0713146617
21
1.5093013742
31
0.0000000000
11
71.1345261844
21
1.4537731925
31
0.0000000000
11
71.2492271593
21
1.3025573503
31
0.0000000000
11
71.3258679006
21
1.1237575489
31
0.0000000000
11
71.3527805499
21
0.9445944372
31
0.0000000000
0
SPLINE
5
36E
100
AcDbEntity
8
0
100
AcDbSpline
62
7
6
CONTINUOUS
70
0
71
3
72
10
73
6
74
4
42
0.0000001000
43
0.0000001000
44
0.0000000001
12
0.4240165170
22
0.2466621338
32
0.0000000000
13
0.4356278248
23
-0.2178139124
33
0.0000000000
40
0.0000000000
40
0.0000000000
40
0.0000000000
40
0.0000000000
40
0.2531026872
40
0.6032646634
40
1.0000000000
40
1.0000000000
40
1.0000000000
40
1.0000000000
10
-72.6589255434
20
73.2448656166
30
0.0000000000
10
-72.6231523034
20
73.2656758995
30
0.0000000000
10
-72.5295748183
20
73.3014612936
30
0.0000000000
10
-72.3633340435
20
73.2991204629
30
0.0000000000
10
-72.2475056815
20
73.2572095661
30
0.0000000000
10
-72.1898960309
20
73.2284047408
30
0.0000000000
11
-72.6589255434
21
73.2448656166
31
0.0000000000
11
-72.5434494215
21
73.2891560323
31
0.0000000000
11
-72.3729087328
21
73.2904019917
31
0.0000000000
11
-72.1898960309
21
73.2284047408
31
0.0000000000
0
SPLINE
5
36F
100
AcDbEntity
8
0
100
AcDbSpline
62
7
6
CONTINUOUS
70
0
71
3
72
11
73
7
74
5
42
0.0000001000
43
0.0000001000
44
0.0000000001
12
-0.1052704140
22
0.0525821704
32
0.0000000000
13
-0.1091585435
23
-0.0434817623
33
0.0000000000
40
0.0000000000
40
0.0000000000
40
0.0000000000
40
0.0000000000
40
0.0566546350
40
0.4227727881
40
0.7332455682
40
1.0000000000
40
1.0000000000
40
1.0000000000
40
1.0000000000
10
-34.5991783702
20
-3.3670488204
30
0.0000000000
10
-34.6011663891
20
-3.3660558125
30
0.0000000000
10
-34.6161035476
20
-3.3588430458
30
0.0000000000
10
-34.6433391218
20
-3.3490125414
30
0.0000000000
10
-34.6804936326
20
-3.3451918251
30
0.0000000000
10
-34.7031527182
20
-3.3495804329
30
0.0000000000
10
-34.7128588933
20
-3.3534467505
30
0.0000000000
11
-34.5991783702
21
-3.3670488204
31
0.0000000000
11
-34.6051835257
21
-3.3641504259
31
0.0000000000
11
-34.6458501868
21
-3.3501202033
31
0.0000000000
11
-34.6821936681
21
-3.3469607514
31
0.0000000000
11
-34.7128588933
21
-3.3534467505
31
0.0000000000
0
SPLINE
5
370
100
AcDbEntity
8
0
100
AcDbSpline
62
7
6
CONTINUOUS
70
0
71
3
72
10
73
6
74
4
42
0.0000001000
43
0.0000001000
44
0.0000000001
12
0.0774178382
22
0.0632233885
32
0.0000000000
13
0.0237236076
23
0.0965743011
33
0.0000000000
40
0.0000000000
40
0.0000000000
40
0.0000000000
40
0.0000000000
40
0.0185822240
40
0.4830448330
40
1.0000000000
40
1.0000000000
40
1.0000000000
40
1.0000000000
10
-31.0575775594
20
-6.6525130920
30
0.0000000000
10
-31.0570980276
20
-6.6521214816
30
0.0000000000
10
-31.0447165764
20
-6.6418428552
30
0.0000000000
10
-31.0237069555
20
-6.6153234854
30
0.0000000000
10
-31.0122422645
20
-6.5843683706
30
0.0000000000
10
-31.0081542506
20
-6.5677268426
30
0.0000000000
11
-31.0575775594
21
-6.6525130920
31
0.0000000000
11
-31.0561487292
21
-6.6513269197
31
0.0000000000
11
-31.0268601611
21
-6.6156117015
31
0.0000000000
11
-31.0081542506
21
-6.5677268426
31
0.0000000000
0
SPLINE
5
371
100
AcDbEntity
8
0
100
AcDbSpline
62
7
6
CONTINUOUS
70
0
71
3
72
11
73
7
74
5
42
0.0000001000
43
0.0000001000
44
0.0000000001
12
-0.1052704140
22
0.0525821704
32
0.0000000000
13
-0.1091585435
23
-0.0434817623
33
0.0000000000
40
0.0000000000
40
0.0000000000
40
0.0000000000
40
0.0000000000
40
0.0566546350
40
0.4227727881
40
0.7332455682
40
1.0000000000
40
1.0000000000
40
1.0000000000
40
1.0000000000
10
-18.6892757935
20
-11.3220001087
30
0.0000000000
10
-18.6912638124
20
-11.3210071008
30
0.0000000000
10
-18.7062009709
20
-11.3137943342
30
0.0000000000
10
-18.7334365451
20
-11.3039638297
30
0.0000000000
10
-18.7705910559
20
-11.3001431134
30
0.0000000000
10
-18.7932501415
20
-11.3045317212
30
0.0000000000
10
-18.8029563166
20
-11.3083980388
30
0.0000000000
11
-18.6892757935
21
-11.3220001087
31
0.0000000000
11
-18.6952809491
21
-11.3191017142
31
0.0000000000
11
-18.7359476101
21
-11.3050714917
31
0.0000000000
11
-18.7722910914
21
-11.3019120397
31
0.0000000000
11
-18.8029563166
21
-11.3083980388
31
0.0000000000
0
SPLINE
5
372
100
AcDbEntity
8
0
100
AcDbSpline
62
7
6
CONTINUOUS
70
0
71
3
72
10
73
6
74
4
42
0.0000001000
43
0.0000001000
44
0.0000000001
12
0.0774178382
22
0.0632233885
32
0.0000000000
13
0.0237236076
23
0.0965743011
33
0.0000000000
40
0.0000000000
40
0.0000000000
40
0.0000000000
40
0.0000000000
40
0.0185822240
40
0.4830448330
40
1.0000000000
40
1.0000000000
40
1.0000000000
40
1.0000000000
10
-15.1476749827
20
-14.6074643803
30
0.0000000000
10
-15.1471954509
20
-14.6070727699
30
0.0000000000
10
-15.1348139997
20
-14.5967941435
30
0.0000000000
10
-15.1138043788
20
-14.5702747737
30
0.0000000000
10
-15.1023396878
20
-14.5393196589
30
0.0000000000
10
-15.0982516739
20
-14.5226781310
30
0.0000000000
11
-15.1476749827
21
-14.6074643803
31
0.0000000000
11
-15.1462461525
21
-14.6062782080
31
0.0000000000
11
-15.1169575844
21
-14.5705629898
31
0.0000000000
11
-15.0982516739
21
-14.5226781310
31
0.0000000000
0
SPLINE
5
373
100
AcDbEntity
8
0
100
AcDbSpline
62
7
6
CONTINUOUS
70
0
71
3
72
11
73
7
74
5
42
0.0000001000
43
0.0000001000
44
0.0000000001
12
-0.1052704140
22
0.0525821704
32
0.0000000000
13
-0.1091585435
23
-0.0434817623
33
0.0000000000
40
0.0000000000
40
0.0000000000
40
0.0000000000
40
0.0000000000
40
0.0566546350
40
0.4227727881
40
0.7332455682
40
1.0000000000
40
1.0000000000
40
1.0000000000
40
1.0000000000
10
-2.7793732168
20
-19.2769513971
30
0.0000000000
10
-2.7813612357
20
-19.2759583892
30
0.0000000000
10
-2.7962983942
20
-19.2687456225
30
0.0000000000
10
-2.8235339684
20
-19.2589151181
30
0.0000000000
10
-2.8606884792
20
-19.2550944018
30
0.0000000000
10
-2.8833475648
20
-19.2594830096
30
0.0000000000
10
-2.8930537399
20
-19.2633493272
30
0.0000000000
11
-2.7793732168
21
-19.2769513971
31
0.0000000000
11
-2.7853783724
21
-19.2740530026
31
0.0000000000
11
-2.8260450334
21
-19.2600227800
31
0.0000000000
11
-2.8623885147
21
-19.2568633281
31
0.0000000000
11
-2.8930537399
21
-19.2633493272
31
0.0000000000
0
SPLINE
5
374
100
AcDbEntity
8
0
100
AcDbSpline
62
7
6
CONTINUOUS
70
0
71
3
72
10
73
6
74
4
42
0.0000001000
43
0.0000001000
44
0.0000000001
12
0.0774178382
22
0.0632233885
32
0.0000000000
13
0.0237236076
23
0.0965743011
33
0.0000000000
40
0.0000000000
40
0.0000000000
40
0.0000000000
40
0.0000000000
40
0.0185822240
40
0.4830448330
40
1.0000000000
40
1.0000000000
40
1.0000000000
40
1.0000000000
10
0.7622275940
20
-22.5624156687
30
0.0000000000
10
0.7627071258
20
-22.5620240583
30
0.0000000000
10
0.7750885770
20
-22.5517454319
30
0.0000000000
10
0.7960981979
20
-22.5252260621
30
0.0000000000
10
0.8075628889
20
-22.4942709473
30
0.0000000000
10
0.8116509028
20
-22.4776294193
30
0.0000000000
11
0.7622275940
21
-22.5624156687
31
0.0000000000
11
0.7636564242
21
-22.5612294964
31
0.0000000000
11
0.7929449923
21
-22.5255142782
31
0.0000000000
11
0.8116509028
21
-22.4776294193
31
0.0000000000
0
SPLINE
5
375
100
AcDbEntity
8
0
100
AcDbSpline
62
7
6
CONTINUOUS
70
0
71
3
72
11
73
7
74
5
42
0.0000001000
43
0.0000001000
44
0.0000000001
12
-0.1052704140
22
0.0525821704
32
0.0000000000
13
-0.1091585435
23
-0.0434817623
33
0.0000000000
40
0.0000000000
40
0.0000000000
40
0.0000000000
40
0.0000000000
40
0.0566546350
40
0.4227727881
40
0.7332455682
40
1.0000000000
40
1.0000000000
40
1.0000000000
40
1.0000000000
10
13.1305293599
20
-27.2319026854
30
0.0000000000
10
13.1285413410
20
-27.2309096775
30
0.0000000000
10
13.1136041825
20
-27.2236969109
30
0.0000000000
10
13.0863686083
20
-27.2138664064
30
0.0000000000
10
13.0492140975
20
-27.2100456901
30
0.0000000000
10
13.0265550119
20
-27.2144342979
30
0.0000000000
10
13.0168488368
20
-27.2183006155
30
0.0000000000
11
13.1305293599
21
-27.2319026854
31
0.0000000000
11
13.1245242043
21
-27.2290042909
31
0.0000000000
11
13.0838575433
21
-27.2149740684
31
0.0000000000
11
13.0475140620
21
-27.2118146164
31
0.0000000000
11
13.0168488368
21
-27.2183006155
31
0.0000000000
0
SPLINE
5
376
100
AcDbEntity
8
0
100
AcDbSpline
62
7
6
CONTINUOUS
70
0
71
3
72
10
73
6
74
4
42
0.0000001000
43
0.0000001000
44
0.0000000001
12
0.0774178382
22
0.0632233885
32
0.0000000000
13
0.0237236076
23
0.0965743011
33
0.0000000000
40
0.0000000000
40
0.0000000000
40
0.0000000000
40
0.0000000000
40
0.0185822240
40
0.4830448330
40
1.0000000000
40
1.0000000000
40
1.0000000000
40
1.0000000000
10
16.6721301707
20
-30.5173669570
30
0.0000000000
10
16.6726097025
20
-30.5169753466
30
0.0000000000
10
16.6849911537
20
-30.5066967202
30
0.0000000000
10
16.7060007746
20
-30.4801773504
30
0.0000000000
10
16.7174654656
20
-30.4492222356
30
0.0000000000
10
16.7215534795
20
-30.4325807077
30
0.0000000000
11
16.6721301707
21
-30.5173669570
31
0.0000000000
11
16.6735590009
21
-30.5161807847
31
0.0000000000
11
16.7028475690
21
-30.4804655665
31
0.0000000000
11
16.7215534795
21
-30.4325807077
31
0.0000000000
0
SPLINE
5
377
100
AcDbEntity
8
0
100
AcDbSpline
62
7
6
CONTINUOUS
70
0
71
3
72
11
73
7
74
5
42
0.0000001000
43
0.0000001000
44
0.0000000001
12
-0.1052704140
22
0.0525821704
32
0.0000000000
13
-0.1091585435
23
-0.0434817623
33
0.0000000000
40
0.0000000000
40
0.0000000000
40
0.0000000000
40
0.0000000000
40
0.0566546350
40
0.4227727881
40
0.7332455682
40
1.0000000000
40
1.0000000000
40
1.0000000000
40
1.0000000000
10
29.0404319366
20
-35.1868539738
30
0.0000000000
10
29.0384439177
20
-35.1858609659
30
0.0000000000
10
29.0235067592
20
-35.1786481992
30
0.0000000000
10
28.9962711850
20
-35.1688176948
30
0.0000000000
10
28.9591166742
20
-35.1649969785
30
0.0000000000
10
28.9364575886
20
-35.1693855863
30
0.0000000000
10
28.9267514135
20
-35.1732519039
30
0.0000000000
11
29.0404319366
21
-35.1868539738
31
0.0000000000
11
29.0344267810
21
-35.1839555793
31
0.0000000000
11
28.9937601200
21
-35.1699253567
31
0.0000000000
11
28.9574166387
21
-35.1667659048
31
0.0000000000
11
28.9267514135
21
-35.1732519039
31
0.0000000000
0
SPLINE
5
378
100
AcDbEntity
8
0
100
AcDbSpline
62
7
6
CONTINUOUS
70
0
71
3
72
10
73
6
74
4
42
0.0000001000
43
0.0000001000
44
0.0000000001
12
0.0774178382
22
0.0632233885
32
0.0000000000
13
0.0237236076
23
0.0965743011
33
0.0000000000
40
0.0000000000
40
0.0000000000
40
0.0000000000
40
0.0000000000
40
0.0185822240
40
0.4830448330
40
1.0000000000
40
1.0000000000
40
1.0000000000
40
1.0000000000
10
32.5820327473
20
-38.4723182454
30
0.0000000000
10
32.5825122792
20
-38.4719266350
30
0.0000000000
10
32.5948937304
20
-38.4616480086
30
0.0000000000
10
32.6159033513
20
-38.4351286388
30
0.0000000000
10
32.6273680423
20
-38.4041735240
30
0.0000000000
10
32.6314560562
20
-38.3875319960
30
0.0000000000
11
32.5820327473
21
-38.4723182454
31
0.0000000000
11
32.5834615776
21
-38.4711320731
31
0.0000000000
11
32.6127501457
21
-38.4354168549
31
0.0000000000
11
32.6314560562
21
-38.3875319960
31
0.0000000000
0
SPLINE
5
379
100
AcDbEntity
8
0
100
AcDbSpline
62
7
6
CONTINUOUS
70
0
71
3
72
11
73
7
74
5
42
0.0000001000
43
0.0000001000
44
0.0000000001
12
-0.0962552428
22
0.0480794250
32
0.0000000000
13
-0.1040694768
23
-0.0280463984
33
0.0000000000
40
0.0000000000
40
0.0000000000
40
0.0000000000
40
0.0000000000
40
0.0617005584
40
0.4621855957
40
0.8018322241
40
1.0000000000
40
1.0000000000
40
1.0000000000
40
1.0000000000
10
-50.5090805404
20
4.6745047995
30
0.0000000000
10
-50.5110602078
20
4.6754936420
30
0.0000000000
10
-50.5259910078
20
4.6827044304
30
0.0000000000
10
-50.5532223330
20
4.6925371929
30
0.0000000000
10
-50.5870129867
20
4.6960160992
30
0.0000000000
10
-50.6063267550
20
4.6931283533
30
0.0000000000
10
-50.6132011606
20
4.6912757225
30
0.0000000000
11
-50.5090805404
21
4.6745047995
31
0.0000000000
11
-50.5150602979
21
4.6773913846
31
0.0000000000
11
-50.5557330060
21
4.6914293152
31
0.0000000000
11
-50.5920863368
21
4.6945936453
31
0.0000000000
11
-50.6132011606
21
4.6912757225
31
0.0000000000
0
SPLINE
5
37A
100
AcDbEntity
8
0
100
AcDbSpline
62
7
6
CONTINUOUS
70
0
71
3
72
8
73
4
74
2
42
0.0000001000
43
0.0000001000
44
0.0000000001
12
-0.0097473490
22
-0.0026268801
32
0.0000000000
13
-0.0093484860
23
-0.0037236898
33
0.0000000000
40
0.0000000000
40
0.0000000000
40
0.0000000000
40
0.0000000000
40
1.0000000000
40
1.0000000000
40
1.0000000000
40
1.0000000000
10
-50.6132011606
20
4.6912757225
30
0.0000000000
10
-50.6164502769
20
4.6904000959
30
0.0000000000
10
-50.6196453080
20
4.6893483082
30
0.0000000000
10
-50.6227614700
20
4.6881070782
30
0.0000000000
11
-50.6132011606
21
4.6912757225
31
0.0000000000
11
-50.6227614700
21
4.6881070782
31
0.0000000000
0
SPLINE
5
37B
100
AcDbEntity
8
0
100
AcDbSpline
62
7
6
CONTINUOUS
70
0
71
3
72
10
73
6
74
4
42
0.0000001000
43
0.0000001000
44
0.0000000001
12
0.0774178382
22
0.0632233885
32
0.0000000000
13
0.0237236076
23
0.0965743011
33
0.0000000000
40
0.0000000000
40
0.0000000000
40
0.0000000000
40
0.0000000000
40
0.0185822240
40
0.4830448330
40
1.0000000000
40
1.0000000000
40
1.0000000000
40
1.0000000000
10
-46.9674801361
20
1.3024381964
30
0.0000000000
10
-46.9670006043
20
1.3028298068
30
0.0000000000
10
-46.9546191531
20
1.3131084332
30
0.0000000000
10
-46.9336095322
20
1.3396278030
30
0.0000000000
10
-46.9221448412
20
1.3705829178
30
0.0000000000
10
-46.9180568273
20
1.3872244457
30
0.0000000000
11
-46.9674801361
21
1.3024381964
31
0.0000000000
11
-46.9660513059
21
1.3036243687
31
0.0000000000
11
-46.9367627378
21
1.3393395869
31
0.0000000000
11
-46.9180568273
21
1.3872244457
31
0.0000000000
0
SPLINE
5
37C
100
AcDbEntity
8
0
100
AcDbSpline
62
7
6
CONTINUOUS
70
0
71
3
72
11
73
7
74
5
42
0.0000001000
43
0.0000001000
44
0.0000000001
12
-0.0962552428
22
0.0480794250
32
0.0000000000
13
-0.1040694768
23
-0.0280463984
33
0.0000000000
40
0.0000000000
40
0.0000000000
40
0.0000000000
40
0.0000000000
40
0.0617005584
40
0.4621855957
40
0.8018322241
40
1.0000000000
40
1.0000000000
40
1.0000000000
40
1.0000000000
10
44.9503349198
20
-43.0552029306
30
0.0000000000
10
44.9483552524
20
-43.0542140881
30
0.0000000000
10
44.9334244524
20
-43.0470032997
30
0.0000000000
10
44.9061931272
20
-43.0371705372
30
0.0000000000
10
44.8724024735
20
-43.0336916309
30
0.0000000000
10
44.8530887052
20
-43.0365793767
30
0.0000000000
10
44.8462142996
20
-43.0384320075
30
0.0000000000
11
44.9503349198
21
-43.0552029306
31
0.0000000000
11
44.9443551623
21
-43.0523163455
31
0.0000000000
11
44.9036824541
21
-43.0382784149
31
0.0000000000
11
44.8673291234
21
-43.0351140848
31
0.0000000000
11
44.8462142996
21
-43.0384320075
31
0.0000000000
0
SPLINE
5
37D
100
AcDbEntity
8
0
100
AcDbSpline
62
7
6
CONTINUOUS
70
0
71
3
72
8
73
4
74
2
42
0.0000001000
43
0.0000001000
44
0.0000000001
12
-0.0097473490
22
-0.0026268801
32
0.0000000000
13
-0.0093484860
23
-0.0037236898
33
0.0000000000
40
0.0000000000
40
0.0000000000
40
0.0000000000
40
0.0000000000
40
1.0000000000
40
1.0000000000
40
1.0000000000
40
1.0000000000
10
44.8462142996
20
-43.0384320075
30
0.0000000000
10
44.8429651832
20
-43.0393076342
30
0.0000000000
10
44.8397701522
20
-43.0403594219
30
0.0000000000
10
44.8366539902
20
-43.0416006518
30
0.0000000000
11
44.8462142996
21
-43.0384320075
31
0.0000000000
11
44.8366539902
21
-43.0416006518
31
0.0000000000
0
SPLINE
5
37E
100
AcDbEntity
8
0
100
AcDbSpline
62
7
6
CONTINUOUS
70
0
71
3
72
10
73
6
74
4
42
0.0000001000
43
0.0000001000
44
0.0000000001
12
0.0774178382
22
0.0632233885
32
0.0000000000
13
0.0237236076
23
0.0965743011
33
0.0000000000
40
0.0000000000
40
0.0000000000
40
0.0000000000
40
0.0000000000
40
0.0185822240
40
0.4830448330
40
1.0000000000
40
1.0000000000
40
1.0000000000
40
1.0000000000
10
48.4919353240
20
-46.4272695337
30
0.0000000000
10
48.4924148559
20
-46.4268779233
30
0.0000000000
10
48.5047963071
20
-46.4165992969
30
0.0000000000
10
48.5258059280
20
-46.3900799271
30
0.0000000000
10
48.5372706190
20
-46.3591248123
30
0.0000000000
10
48.5413586329
20
-46.3424832843
30
0.0000000000
11
48.4919353240
21
-46.4272695337
31
0.0000000000
11
48.4933641543
21
-46.4260833614
31
0.0000000000
11
48.5226527224
21
-46.3903681432
31
0.0000000000
11
48.5413586329
21
-46.3424832843
31
0.0000000000
0
SPLINE
5
37F
100
AcDbEntity
8
0
100
AcDbSpline
62
7
6
CONTINUOUS
70
0
71
3
72
11
73
7
74
5
42
0.0000001000
43
0.0000001000
44
0.0000000001
12
0.0000000000
22
-0.2489279662
32
0.0000000000
13
0.1925666610
23
-0.1603810453
33
0.0000000000
40
0.0000000000
40
0.0000000000
40
0.0000000000
40
0.0000000000
40
0.2909643186
40
0.6018649730
40
0.9073713220
40
1.0000000000
40
1.0000000000
40
1.0000000000
40
1.0000000000
10
-60.3458574461
20
8.1646400188
30
0.0000000000
10
-60.3458574461
20
8.1404969668
30
0.0000000000
10
-60.3375593729
20
8.0904682114
30
0.0000000000
10
-60.3074544381
20
8.0207718492
30
0.0000000000
10
-60.2720612771
20
7.9731304857
30
0.0000000000
10
-60.2475622322
20
7.9505114977
30
0.0000000000
10
-60.2416165004
20
7.9455595363
30
0.0000000000
11
-60.3458574461
21
8.1646400188
31
0.0000000000
11
-60.3351066523
21
8.0930131867
31
0.0000000000
11
-60.3046505894
21
8.0218659492
31
0.0000000000
11
-60.2587115952
21
7.9612600874
31
0.0000000000
11
-60.2416165004
21
7.9455595363
31
0.0000000000
0
SPLINE
5
380
100
AcDbEntity
8
0
100
AcDbSpline
62
7
6
CONTINUOUS
70
0
71
3
72
8
73
4
74
2
42
0.0000001000
43
0.0000001000
44
0.0000000001
12
0.0342922225
22
-0.0285606162
32
0.0000000000
13
0.0396490894
23
-0.0198245447
33
0.0000000000
40
0.0000000000
40
0.0000000000
40
0.0000000000
40
0.0000000000
40
1.0000000000
40
1.0000000000
40
1.0000000000
40
1.0000000000
10
-60.2416165004
20
7.9455595363
30
0.0000000000
10
-60.2301857596
20
7.9360393309
30
0.0000000000
10
-60.2178462660
20
7.9276667196
30
0.0000000000
10
-60.2046299029
20
7.9210585380
30
0.0000000000
11
-60.2416165004
21
7.9455595363
31
0.0000000000
11
-60.2046299029
21
7.9210585380
31
0.0000000000
0
SPLINE
5
381
100
AcDbEntity
8
0
100
AcDbSpline
62
7
6
CONTINUOUS
70
0
71
3
72
8
73
4
74
2
42
0.0000001000
43
0.0000001000
44
0.0000000001
12
0.1490077678
22
-0.0745038839
32
0.0000000000
13
0.1337024596
23
-0.1003274277
33
0.0000000000
40
0.0000000000
40
0.0000000000
40
0.0000000000
40
0.0000000000
40
1.0000000000
40
1.0000000000
40
1.0000000000
40
1.0000000000
10
70.6456737687
20
1.8106198409
30
0.0000000000
10
70.6953430247
20
1.7857852130
30
0.0000000000
10
70.7425314067
20
1.7558593942
30
0.0000000000
10
70.7870988933
20
1.7224169183
30
0.0000000000
11
70.6456737687
21
1.8106198409
31
0.0000000000
11
70.7870988933
21
1.7224169183
31
0.0000000000
0
SPLINE
5
382
100
AcDbEntity
8
0
100
AcDbSpline
62
7
6
CONTINUOUS
70
0
71
3
72
11
73
7
74
5
42
0.0000001000
43
0.0000001000
44
0.0000000001
12
0.0000000000
22
-0.6536225173
32
0.0000000000
13
-0.6075709316
23
-0.2552926827
33
0.0000000000
40
0.0000000000
40
0.0000000000
40
0.0000000000
40
0.0000000000
40
0.3265814330
40
0.6132522300
40
0.8683400742
40
1.0000000000
40
1.0000000000
40
1.0000000000
40
1.0000000000
10
71.3527805499
20
-69.5570166600
30
0.0000000000
10
71.3527805499
20
-69.6281703194
30
0.0000000000
10
71.3395213173
20
-69.7625418216
30
0.0000000000
10
71.2709587148
20
-69.9419556232
30
0.0000000000
10
71.1715336836
20
-70.0552624416
30
0.0000000000
10
71.0968790503
20
-70.0969019606
30
0.0000000000
10
71.0702148024
20
-70.1081058991
30
0.0000000000
11
71.3527805499
21
-69.5570166600
31
0.0000000000
11
71.3286864706
21
-69.7691134884
31
0.0000000000
11
71.2580462044
21
-69.9426621891
31
0.0000000000
11
71.1456737687
21
-70.0658357051
31
0.0000000000
11
71.0702148024
21
-70.1081058991
31
0.0000000000
0
SPLINE
5
383
100
AcDbEntity
8
0
100
AcDbSpline
62
7
6
CONTINUOUS
70
0
71
3
72
9
73
5
74
3
42
0.0000001000
43
0.0000001000
44
0.0000000001
12
0.0077036343
22
0.0034681917
32
0.0000000000
13
0.0078730259
23
0.0030642778
33
0.0000000000
40
0.0000000000
40
0.0000000000
40
0.0000000000
40
0.0000000000
40
0.5038142726
40
1.0000000000
40
1.0000000000
40
1.0000000000
40
1.0000000000
10
-34.7206482073
20
-3.3567161439
30
0.0000000000
10
-34.7193544736
20
-3.3561337024
30
0.0000000000
10
-34.7167719003
20
-3.3550099837
30
0.0000000000
10
-34.7141610543
20
-3.3539535674
30
0.0000000000
10
-34.7128588933
20
-3.3534467505
30
0.0000000000
11
-34.7206482073
21
-3.3567161439
31
0.0000000000
11
-34.7167450226
21
-3.3550184947
31
0.0000000000
11
-34.7128588933
21
-3.3534467505
31
0.0000000000
0
SPLINE
5
384
100
AcDbEntity
8
0
100
AcDbSpline
62
7
6
CONTINUOUS
70
0
71
3
72
12
73
8
74
6
42
0.0000001000
43
0.0000001000
44
0.0000000001
12
0.0621465978
22
0.0450404280
32
0.0000000000
13
0.0228371738
23
0.0679332256
33
0.0000000000
40
0.0000000000
40
0.0000000000
40
0.0000000000
40
0.0000000000
40
0.3394624056
40
0.6150559031
40
0.8172482162
40
0.9508575684
40
1.0000000000
40
1.0000000000
40
1.0000000000
40
1.0000000000
10
-30.4633784407
20
-5.9413078572
30
0.0000000000
10
-30.4563462962
20
-5.9362113465
30
0.0000000000
10
-30.4436241738
20
-5.9268051855
30
0.0000000000
10
-30.4274542447
20
-5.9140096220
30
0.0000000000
10
-30.4150177757
20
-5.9034258916
30
0.0000000000
10
-30.4092376908
20
-5.8970729825
30
0.0000000000
10
-30.4051800212
20
-5.8924994936
30
0.0000000000
10
-30.4048059298
20
-5.8913866923
30
0.0000000000
11
-30.4633784407
21
-5.9413078572
31
0.0000000000
11
-30.4424714499
21
-5.9257602839
31
0.0000000000
11
-30.4259136668
21
-5.9125974742
31
0.0000000000
11
-30.4142710963
21
-5.9023369536
31
0.0000000000
11
-30.4072672739
21
-5.8948465226
31
0.0000000000
11
-30.4048059298
21
-5.8913866923
31
0.0000000000
0
SPLINE
5
385
100
AcDbEntity
8
0
100
AcDbSpline
62
7
6
CONTINUOUS
70
0
71
3
72
9
73
5
74
3
42
0.0000001000
43
0.0000001000
44
0.0000000001
12
0.0077036343
22
0.0034681917
32
0.0000000000
13
0.0078730259
23
0.0030642778
33
0.0000000000
40
0.0000000000
40
0.0000000000
40
0.0000000000
40
0.0000000000
40
0.5038142726
40
1.0000000000
40
1.0000000000
40
1.0000000000
40
1.0000000000
10
-18.8107456306
20
-11.3116674322
30
0.0000000000
10
-18.8094518969
20
-11.3110849907
30
0.0000000000
10
-18.8068693236
20
-11.3099612721
30
0.0000000000
10
-18.8042584776
20
-11.3089048558
30
0.0000000000
10
-18.8029563166
20
-11.3083980388
30
0.0000000000
11
-18.8107456306
21
-11.3116674322
31
0.0000000000
11
-18.8068424459
21
-11.3099697830
31
0.0000000000
11
-18.8029563166
21
-11.3083980388
31
0.0000000000
0
SPLINE
5
386
100
AcDbEntity
8
0
100
AcDbSpline
62
7
6
CONTINUOUS
70
0
71
3
72
12
73
8
74
6
42
0.0000001000
43
0.0000001000
44
0.0000000001
12
0.0621465978
22
0.0450404280
32
0.0000000000
13
0.0228371738
23
0.0679332256
33
0.0000000000
40
0.0000000000
40
0.0000000000
40
0.0000000000
40
0.0000000000
40
0.3394624056
40
0.6150559031
40
0.8172482162
40
0.9508575684
40
1.0000000000
40
1.0000000000
40
1.0000000000
40
1.0000000000
10
-14.5534758640
20
-13.8962591455
30
0.0000000000
10
-14.5464437195
20
-13.8911626349
30
0.0000000000
10
-14.5337215971
20
-13.8817564738
30
0.0000000000
10
-14.5175516680
20
-13.8689609104
30
0.0000000000
10
-14.5051151990
20
-13.8583771800
30
0.0000000000
10
-14.4993351141
20
-13.8520242708
30
0.0000000000
10
-14.4952774445
20
-13.8474507820
30
0.0000000000
10
-14.4949033531
20
-13.8463379807
30
0.0000000000
11
-14.5534758640
21
-13.8962591455
31
0.0000000000
11
-14.5325688732
21
-13.8807115722
31
0.0000000000
11
-14.5160110901
21
-13.8675487625
31
0.0000000000
11
-14.5043685196
21
-13.8572882419
31
0.0000000000
11
-14.4973646972
21
-13.8497978109
31
0.0000000000
11
-14.4949033531
21
-13.8463379807
31
0.0000000000
0
SPLINE
5
387
100
AcDbEntity
8
0
100
AcDbSpline
62
7
6
CONTINUOUS
70
0
71
3
72
9
73
5
74
3
42
0.0000001000
43
0.0000001000
44
0.0000000001
12
0.0077036343
22
0.0034681917
32
0.0000000000
13
0.0078730259
23
0.0030642778
33
0.0000000000
40
0.0000000000
40
0.0000000000
40
0.0000000000
40
0.0000000000
40
0.5038142726
40
1.0000000000
40
1.0000000000
40
1.0000000000
40
1.0000000000
10
-2.9008430539
20
-19.2666187206
30
0.0000000000
10
-2.8995493202
20
-19.2660362791
30
0.0000000000
10
-2.8969667469
20
-19.2649125604
30
0.0000000000
10
-2.8943559009
20
-19.2638561441
30
0.0000000000
10
-2.8930537399
20
-19.2633493272
30
0.0000000000
11
-2.9008430539
21
-19.2666187206
31
0.0000000000
11
-2.8969398692
21
-19.2649210714
31
0.0000000000
11
-2.8930537399
21
-19.2633493272
31
0.0000000000
0
SPLINE
5
388
100
AcDbEntity
8
0
100
AcDbSpline
62
7
6
CONTINUOUS
70
0
71
3
72
12
73
8
74
6
42
0.0000001000
43
0.0000001000
44
0.0000000001
12
0.0621465978
22
0.0450404280
32
0.0000000000
13
0.0228371738
23
0.0679332256
33
0.0000000000
40
0.0000000000
40
0.0000000000
40
0.0000000000
40
0.0000000000
40
0.3394624056
40
0.6150559031
40
0.8172482162
40
0.9508575684
40
1.0000000000
40
1.0000000000
40
1.0000000000
40
1.0000000000
10
1.3564267127
20
-21.8512104339
30
0.0000000000
10
1.3634588572
20
-21.8461139232
30
0.0000000000
10
1.3761809796
20
-21.8367077622
30
0.0000000000
10
1.3923509087
20
-21.8239121987
30
0.0000000000
10
1.4047873777
20
-21.8133284683
30
0.0000000000
10
1.4105674626
20
-21.8069755592
30
0.0000000000
10
1.4146251322
20
-21.8024020703
30
0.0000000000
10
1.4149992236
20
-21.8012892690
30
0.0000000000
11
1.3564267127
21
-21.8512104339
31
0.0000000000
11
1.3773337035
21
-21.8356628606
31
0.0000000000
11
1.3938914866
21
-21.8225000509
31
0.0000000000
11
1.4055340571
21
-21.8122395303
31
0.0000000000
11
1.4125378795
21
-21.8047490993
31
0.0000000000
11
1.4149992236
21
-21.8012892690
31
0.0000000000
0
SPLINE
5
389
100
AcDbEntity
8
0
100
AcDbSpline
62
7
6
CONTINUOUS
70
0
71
3
72
9
73
5
74
3
42
0.0000001000
43
0.0000001000
44
0.0000000001
12
0.0077036343
22
0.0034681917
32
0.0000000000
13
0.0078730259
23
0.0030642778
33
0.0000000000
40
0.0000000000
40
0.0000000000
40
0.0000000000
40
0.0000000000
40
0.5038142726
40
1.0000000000
40
1.0000000000
40
1.0000000000
40
1.0000000000
10
13.0090595228
20
-27.2215700089
30
0.0000000000
10
13.0103532564
20
-27.2209875674
30
0.0000000000
10
13.0129358298
20
-27.2198638488
30
0.0000000000
10
13.0155466758
20
-27.2188074325
30
0.0000000000
10
13.0168488368
20
-27.2183006155
30
0.0000000000
11
13.0090595228
21
-27.2215700089
31
0.0000000000
11
13.0129627075
21
-27.2198723597
31
0.0000000000
11
13.0168488368
21
-27.2183006155
31
0.0000000000
0
SPLINE
5
38A
100
AcDbEntity
8
0
100
AcDbSpline
62
7
6
CONTINUOUS
70
0
71
3
72
12
73
8
74
6
42
0.0000001000
43
0.0000001000
44
0.0000000001
12
0.0621465978
22
0.0450404280
32
0.0000000000
13
0.0228371738
23
0.0679332256
33
0.0000000000
40
0.0000000000
40
0.0000000000
40
0.0000000000
40
0.0000000000
40
0.3394624056
40
0.6150559031
40
0.8172482162
40
0.9508575684
40
1.0000000000
40
1.0000000000
40
1.0000000000
40
1.0000000000
10
17.2663292894
20
-29.8061617222
30
0.0000000000
10
17.2733614339
20
-29.8010652116
30
0.0000000000
10
17.2860835563
20
-29.7916590505
30
0.0000000000
10
17.3022534854
20
-29.7788634871
30
0.0000000000
10
17.3146899544
20
-29.7682797567
30
0.0000000000
10
17.3204700393
20
-29.7619268475
30
0.0000000000
10
17.3245277089
20
-29.7573533587
30
0.0000000000
10
17.3249018003
20
-29.7562405574
30
0.0000000000
11
17.2663292894
21
-29.8061617222
31
0.0000000000
11
17.2872362802
21
-29.7906141489
31
0.0000000000
11
17.3037940633
21
-29.7774513392
31
0.0000000000
11
17.3154366338
21
-29.7671908186
31
0.0000000000
11
17.3224404562
21
-29.7597003876
31
0.0000000000
11
17.3249018003
21
-29.7562405574
31
0.0000000000
0
SPLINE
5
38B
100
AcDbEntity
8
0
100
AcDbSpline
62
7
6
CONTINUOUS
70
0
71
3
72
9
73
5
74
3
42
0.0000001000
43
0.0000001000
44
0.0000000001
12
0.0077036343
22
0.0034681917
32
0.0000000000
13
0.0078730259
23
0.0030642778
33
0.0000000000
40
0.0000000000
40
0.0000000000
40
0.0000000000
40
0.0000000000
40
0.5038142726
40
1.0000000000
40
1.0000000000
40
1.0000000000
40
1.0000000000
10
28.9189620995
20
-35.1765212972
30
0.0000000000
10
28.9202558331
20
-35.1759388558
30
0.0000000000
10
28.9228384065
20
-35.1748151371
30
0.0000000000
10
28.9254492525
20
-35.1737587208
30
0.0000000000
10
28.9267514135
20
-35.1732519039
30
0.0000000000
11
28.9189620995
21
-35.1765212972
31
0.0000000000
11
28.9228652842
21
-35.1748236481
31
0.0000000000
11
28.9267514135
21
-35.1732519039
31
0.0000000000
0
SPLINE
5
38C
100
AcDbEntity
8
0
100
AcDbSpline
62
7
6
CONTINUOUS
70
0
71
3
72
12
73
8
74
6
42
0.0000001000
43
0.0000001000
44
0.0000000001
12
0.0621465978
22
0.0450404280
32
0.0000000000
13
0.0228371738
23
0.0679332256
33
0.0000000000
40
0.0000000000
40
0.0000000000
40
0.0000000000
40
0.0000000000
40
0.3394624056
40
0.6150559031
40
0.8172482162
40
0.9508575684
40
1.0000000000
40
1.0000000000
40
1.0000000000
40
1.0000000000
10
33.1762318660
20
-37.7611130106
30
0.0000000000
10
33.1832640106
20
-37.7560164999
30
0.0000000000
10
33.1959861330
20
-37.7466103389
30
0.0000000000
10
33.2121560621
20
-37.7338147754
30
0.0000000000
10
33.2245925311
20
-37.7232310450
30
0.0000000000
10
33.2303726160
20
-37.7168781359
30
0.0000000000
10
33.2344302856
20
-37.7123046470
30
0.0000000000
10
33.2348043770
20
-37.7111918457
30
0.0000000000
11
33.1762318660
21
-37.7611130106
31
0.0000000000
11
33.1971388569
21
-37.7455654373
31
0.0000000000
11
33.2136966400
21
-37.7324026276
31
0.0000000000
11
33.2253392105
21
-37.7221421070
31
0.0000000000
11
33.2323430329
21
-37.7146516760
31
0.0000000000
11
33.2348043770
21
-37.7111918457
31
0.0000000000
0
SPLINE
5
38D
100
AcDbEntity
8
0
100
AcDbSpline
62
7
6
CONTINUOUS
70
0
71
3
72
9
73
5
74
3
42
0.0000001000
43
0.0000001000
44
0.0000000001
12
0.0077036343
22
0.0034681917
32
0.0000000000
13
0.0078730259
23
0.0030642778
33
0.0000000000
40
0.0000000000
40
0.0000000000
40
0.0000000000
40
0.0000000000
40
0.5038139722
40
1.0000000000
40
1.0000000000
40
1.0000000000
40
1.0000000000
10
-50.6305507840
20
4.6848376849
30
0.0000000000
10
-50.6292570511
20
4.6854201260
30
0.0000000000
10
-50.6266744778
20
4.6865438447
30
0.0000000000
10
-50.6240636318
20
4.6876002610
30
0.0000000000
10
-50.6227614700
20
4.6881070782
30
0.0000000000
11
-50.6305507840
21
4.6848376849
31
0.0000000000
11
-50.6266476016
21
4.6865353331
31
0.0000000000
11
-50.6227614700
21
4.6881070782
31
0.0000000000
0
SPLINE
5
38E
100
AcDbEntity
8
0
100
AcDbSpline
62
7
6
CONTINUOUS
70
0
71
3
72
12
73
8
74
6
42
0.0000001000
43
0.0000001000
44
0.0000000001
12
0.0621464993
22
0.0450403566
32
0.0000000000
13
0.0228381282
23
0.0679327343
33
0.0000000000
40
0.0000000000
40
0.0000000000
40
0.0000000000
40
0.0000000000
40
0.3394763878
40
0.6150513133
40
0.8172410278
40
0.9508551943
40
1.0000000000
40
1.0000000000
40
1.0000000000
40
1.0000000000
10
-46.3732810174
20
2.0136434312
30
0.0000000000
10
-46.3662485944
20
2.0187401437
30
0.0000000000
10
-46.3535265858
20
2.0281462245
30
0.0000000000
10
-46.3373568326
20
2.0409416763
30
0.0000000000
10
-46.3249206839
20
2.0515250879
30
0.0000000000
10
-46.3191405591
20
2.0578780132
30
0.0000000000
10
-46.3150826394
20
2.0624516572
30
0.0000000000
10
-46.3147085142
20
2.0635645042
30
0.0000000000
11
-46.3732810174
21
2.0136434312
31
0.0000000000
11
-46.3523732076
21
2.0291916323
31
0.0000000000
11
-46.3358165719
21
2.0423535409
31
0.0000000000
11
-46.3241741446
21
2.0526138850
31
0.0000000000
11
-46.3171700332
21
2.0601045294
31
0.0000000000
11
-46.3147085142
21
2.0635645042
31
0.0000000000
0
SPLINE
5
38F
100
AcDbEntity
8
0
100
AcDbSpline
62
7
6
CONTINUOUS
70
0
71
3
72
9
73
5
74
3
42
0.0000001000
43
0.0000001000
44
0.0000000001
12
0.0077036343
22
0.0034681917
32
0.0000000000
13
0.0078730259
23
0.0030642778
33
0.0000000000
40
0.0000000000
40
0.0000000000
40
0.0000000000
40
0.0000000000
40
0.5038139722
40
1.0000000000
40
1.0000000000
40
1.0000000000
40
1.0000000000
10
44.8288646762
20
-43.0448700452
30
0.0000000000
10
44.8301584091
20
-43.0442876041
30
0.0000000000
10
44.8327409824
20
-43.0431638854
30
0.0000000000
10
44.8353518284
20
-43.0421074691
30
0.0000000000
10
44.8366539902
20
-43.0416006518
30
0.0000000000
11
44.8288646762
21
-43.0448700452
31
0.0000000000
11
44.8327678585
21
-43.0431723970
31
0.0000000000
11
44.8366539902
21
-43.0416006518
31
0.0000000000
0
SPLINE
5
390
100
AcDbEntity
8
0
100
AcDbSpline
62
7
6
CONTINUOUS
70
0
71
3
72
12
73
8
74
6
42
0.0000001000
43
0.0000001000
44
0.0000000001
12
0.0621464993
22
0.0450403566
32
0.0000000000
13
0.0228381282
23
0.0679327343
33
0.0000000000
40
0.0000000000
40
0.0000000000
40
0.0000000000
40
0.0000000000
40
0.3394763878
40
0.6150513133
40
0.8172410278
40
0.9508551943
40
1.0000000000
40
1.0000000000
40
1.0000000000
40
1.0000000000
10
49.0861344427
20
-45.7160642989
30
0.0000000000
10
49.0931668658
20
-45.7109675864
30
0.0000000000
10
49.1058888744
20
-45.7015615056
30
0.0000000000
10
49.1220586276
20
-45.6887660538
30
0.0000000000
10
49.1344947763
20
-45.6781826422
30
0.0000000000
10
49.1402749011
20
-45.6718297169
30
0.0000000000
10
49.1443328208
20
-45.6672560729
30
0.0000000000
10
49.1447069459
20
-45.6661432259
30
0.0000000000
11
49.0861344427
21
-45.7160642989
31
0.0000000000
11
49.1070422526
21
-45.7005160978
31
0.0000000000
11
49.1235988883
21
-45.6873541892
31
0.0000000000
11
49.1352413156
21
-45.6770938451
31
0.0000000000
11
49.1422454270
21
-45.6696032007
31
0.0000000000
11
49.1447069459
21
-45.6661432259
31
0.0000000000
0
SPLINE
5
391
100
AcDbEntity
8
0
100
AcDbSpline
62
7
6
CONTINUOUS
70
0
71
3
72
8
73
4
74
2
42
0.0000001000
43
0.0000001000
44
0.0000000001
12
-0.0536413513
22
0.0319479080
32
0.0000000000
13
-0.0511467611
23
0.0359524573
33
0.0000000000
40
0.0000000000
40
0.0000000000
40
0.0000000000
40
0.0000000000
40
1.0000000000
40
1.0000000000
40
1.0000000000
40
1.0000000000
10
-62.4241394595
20
5.6288933140
30
0.0000000000
10
-62.4420199099
20
5.6395426166
30
0.0000000000
10
-62.4594848126
20
5.6509061227
30
0.0000000000
10
-62.4765337329
20
5.6628902751
30
0.0000000000
11
-62.4241394595
21
5.6288933140
31
0.0000000000
11
-62.4765337329
21
5.6628902751
31
0.0000000000
0
SPLINE
5
392
100
AcDbEntity
8
0
100
AcDbSpline
62
7
6
CONTINUOUS
70
0
71
3
72
8
73
4
74
2
42
0.0000001000
43
0.0000001000
44
0.0000000001
12
-0.1062420335
22
0.0746804311
32
0.0000000000
13
-0.0954611706
23
0.0882325213
33
0.0000000000
40
0.0000000000
40
0.0000000000
40
0.0000000000
40
0.0000000000
40
1.0000000000
40
1.0000000000
40
1.0000000000
40
1.0000000000
10
-62.4765337329
20
5.6628902751
30
0.0000000000
10
-62.5119477441
20
5.6877837521
30
0.0000000000
10
-62.5455668921
20
5.7153551684
30
0.0000000000
10
-62.5773872823
20
5.7447660088
30
0.0000000000
11
-62.4765337329
21
5.6628902751
31
0.0000000000
11
-62.5773872823
21
5.7447660088
31
0.0000000000
0
SPLINE
5
393
100
AcDbEntity
8
0
100
AcDbSpline
62
7
6
CONTINUOUS
70
0
71
3
72
12
73
8
74
6
42
0.0000001000
43
0.0000001000
44
0.0000000001
12
-0.7000873430
22
0.6470743129
32
0.0000000000
13
-0.1196158636
23
0.9454786161
33
0.0000000000
40
0.0000000000
40
0.0000000000
40
0.0000000000
40
0.0000000000
40
0.2224464644
40
0.4572916380
40
0.6952782468
40
0.9267435067
40
1.0000000000
40
1.0000000000
40
1.0000000000
40
1.0000000000
10
-62.5773872823
20
5.7447660088
30
0.0000000000
10
-62.6292979337
20
5.7927458065
30
0.0000000000
10
-62.7261715578
20
5.9014432564
30
0.0000000000
10
-62.8453828985
20
6.0879037845
30
0.0000000000
10
-62.9366441874
20
6.2926106588
30
0.0000000000
10
-62.9824569443
20
6.4591242277
30
0.0000000000
10
-62.9974633770
20
6.5548243309
30
0.0000000000
10
-63.0003842566
20
6.5779118136
30
0.0000000000
11
-62.5773872823
21
5.7447660088
31
0.0000000000
11
-62.7191751722
21
5.9017945803
31
0.0000000000
11
-62.8399592143
21
6.0896826177
31
0.0000000000
11
-62.9320404875
21
6.2964564163
31
0.0000000000
11
-62.9896287848
21
6.5089383171
31
0.0000000000
11
-63.0003842566
21
6.5779118136
31
0.0000000000
0
SPLINE
5
394
100
AcDbEntity
8
0
100
AcDbSpline
62
7
6
CONTINUOUS
70
0
71
3
72
8
73
4
74
2
42
0.0000001000
43
0.0000001000
44
0.0000000001
12
-0.0170295305
22
0.1346063678
32
0.0000000000
13
0.0000164048
23
0.1354072906
33
0.0000000000
40
0.0000000000
40
0.0000000000
40
0.0000000000
40
0.0000000000
40
1.0000000000
40
1.0000000000
40
1.0000000000
40
1.0000000000
10
-63.0003842566
20
6.5779118136
30
0.0000000000
10
-63.0060607667
20
6.6227806029
30
0.0000000000
10
-63.0091435471
20
6.6679543512
30
0.0000000000
10
-63.0091380789
20
6.7130901148
30
0.0000000000
11
-63.0003842566
21
6.5779118136
31
0.0000000000
11
-63.0091380789
21
6.7130901148
31
0.0000000000
0
SPLINE
5
395
100
AcDbEntity
8
0
100
AcDbSpline
62
7
6
CONTINUOUS
70
0
71
3
72
10
73
6
74
4
42
0.0000001000
43
0.0000001000
44
0.0000000001
12
-30.2833142674
22
12.3892200904
32
0.0000000000
13
-29.7698550837
23
13.5779295732
33
0.0000000000
40
0.0000000000
40
0.0000000000
40
0.0000000000
40
0.0000000000
40
0.3996564954
40
0.8461058452
40
1.0000000000
40
1.0000000000
40
1.0000000000
40
1.0000000000
10
50.3081391546
20
-50.7372459931
30
0.0000000000
10
46.2738314047
20
-49.0867685656
30
0.0000000000
10
37.7605483702
20
-45.5244957363
30
0.0000000000
10
27.7708388323
20
-41.1461375997
30
0.0000000000
10
21.8052525028
20
-38.4470036655
30
0.0000000000
10
20.2781169408
20
-37.7504823337
30
0.0000000000
11
50.3081391546
21
-50.7372459931
31
0.0000000000
11
38.2449597028
21
-45.6897580681
31
0.0000000000
11
24.8658122117
21
-39.8261742848
31
0.0000000000
11
20.2781169408
21
-37.7504823337
31
0.0000000000
0
SPLINE
5
396
100
AcDbEntity
8
0
100
AcDbSpline
62
7
6
CONTINUOUS
70
0
71
3
72
8
73
4
74
2
42
0.0000001000
43
0.0000001000
44
0.0000000001
12
-0.2152940352
22
0.0981948767
32
0.0000000000
13
-0.2152661539
23
0.0982560299
33
0.0000000000
40
0.0000000000
40
0.0000000000
40
0.0000000000
40
0.0000000000
40
1.0000000000
40
1.0000000000
40
1.0000000000
40
1.0000000000
10
20.2781169408
20
-37.7504823337
30
0.0000000000
10
20.2063522624
20
-37.7177507082
30
0.0000000000
10
20.1345922297
20
-37.6850088892
30
0.0000000000
10
20.0628368451
20
-37.6522568792
30
0.0000000000
11
20.2781169408
21
-37.7504823337
31
0.0000000000
11
20.0628368451
21
-37.6522568792
31
0.0000000000
0
SPLINE
5
397
100
AcDbEntity
8
0
100
AcDbSpline
62
7
6
CONTINUOUS
70
0
71
3
72
8
73
4
74
2
42
0.0000001000
43
0.0000001000
44
0.0000000001
12
-0.2181672062
22
0.0995801855
32
0.0000000000
13
-0.2181385538
23
0.0996429824
33
0.0000000000
40
0.0000000000
40
0.0000000000
40
0.0000000000
40
0.0000000000
40
1.0000000000
40
1.0000000000
40
1.0000000000
40
1.0000000000
10
20.0628368451
20
-37.6522568792
30
0.0000000000
10
19.9901144430
20
-37.6190634840
30
0.0000000000
10
19.9173968151
20
-37.5858596214
30
0.0000000000
10
19.8446839639
20
-37.5526452939
30
0.0000000000
11
20.0628368451
21
-37.6522568792
31
0.0000000000
11
19.8446839639
21
-37.5526452939
31
0.0000000000
0
SPLINE
5
398
100
AcDbEntity
8
0
100
AcDbSpline
62
7
6
CONTINUOUS
70
0
71
3
72
8
73
4
74
2
42
0.0000001000
43
0.0000001000
44
0.0000000001
12
-2.0076640777
22
0.9170760186
32
0.0000000000
13
-2.0052307116
23
0.9223885094
33
0.0000000000
40
0.0000000000
40
0.0000000000
40
0.0000000000
40
0.0000000000
40
1.0000000000
40
1.0000000000
40
1.0000000000
40
1.0000000000
10
19.8446839639
20
-37.5526452939
30
0.0000000000
10
19.1754626046
20
-37.2469532877
30
0.0000000000
10
18.5066458566
20
-36.9403748405
30
0.0000000000
10
17.8382356194
20
-36.6329120040
30
0.0000000000
11
19.8446839639
21
-37.5526452939
31
0.0000000000
11
17.8382356194
21
-36.6329120040
31
0.0000000000
0
SPLINE
5
399
100
AcDbEntity
8
0
100
AcDbSpline
62
7
6
CONTINUOUS
70
0
71
3
72
11
73
7
74
5
42
0.0000001000
43
0.0000001000
44
0.0000000001
12
-46.0495289143
22
21.1823787093
32
0.0000000000
13
-44.6972711645
23
23.9041623817
33
0.0000000000
40
0.0000000000
40
0.0000000000
40
0.0000000000
40
0.0000000000
40
0.1725106920
40
0.5390846414
40
0.9072579195
40
1.0000000000
40
1.0000000000
40
1.0000000000
40
1.0000000000
10
17.8382356194
20
-36.6329120040
30
0.0000000000
10
15.1902235856
20
-35.4148497339
30
0.0000000000
10
6.9352963125
20
-31.5651098626
30
0.0000000000
10
-6.8506222930
20
-24.8601336025
30
0.0000000000
10
-19.2867370288
20
-18.4693205942
30
0.0000000000
10
-26.1640274989
20
-14.8155413385
30
0.0000000000
10
-27.5458001384
20
-14.0765674216
30
0.0000000000
11
17.8382356194
21
-36.6329120040
31
0.0000000000
11
9.9134578582
21
-32.9372120330
31
0.0000000000
11
-6.7958846458
21
-24.8110951267
31
0.0000000000
11
-23.3944179533
21
-16.2821073644
31
0.0000000000
11
-27.5458001384
21
-14.0765674216
31
0.0000000000
0
SPLINE
5
39A
100
AcDbEntity
8
0
100
AcDbSpline
62
7
6
CONTINUOUS
70
0
71
3
72
8
73
4
74
2
42
0.0000001000
43
0.0000001000
44
0.0000000001
12
-2.3407770215
22
1.2518507856
32
0.0000000000
13
-2.3368921227
23
1.2590836191
33
0.0000000000
40
0.0000000000
40
0.0000000000
40
0.0000000000
40
0.0000000000
40
1.0000000000
40
1.0000000000
40
1.0000000000
40
1.0000000000
10
-27.5458001384
20
-14.0765674216
30
0.0000000000
10
-28.3260591455
20
-13.6592838264
30
0.0000000000
10
-29.1056720114
20
-13.2407927988
30
0.0000000000
10
-29.8846360523
20
-12.8210982591
30
0.0000000000
11
-27.5458001384
21
-14.0765674216
31
0.0000000000
11
-29.8846360523
21
-12.8210982591
31
0.0000000000
0
SPLINE
5
39B
100
AcDbEntity
8
0
100
AcDbSpline
62
7
6
CONTINUOUS
70
0
71
3
72
10
73
6
74
4
42
0.0000001000
43
0.0000001000
44
0.0000000001
12
-32.8939474314
22
17.7227823126
32
0.0000000000
13
-32.1012158496
23
19.1200615144
33
0.0000000000
40
0.0000000000
40
0.0000000000
40
0.0000000000
40
0.0000000000
40
0.2477226968
40
0.6443390775
40
1.0000000000
40
1.0000000000
40
1.0000000000
40
1.0000000000
10
-29.8846360523
20
-12.8210982591
30
0.0000000000
10
-32.6008285072
20
-11.3576531162
30
0.0000000000
10
-39.6452611261
20
-7.5130979250
30
0.0000000000
10
-50.4940384354
20
-1.3945330155
30
0.0000000000
10
-58.5800468851
20
3.3392813192
30
0.0000000000
10
-62.3857628990
20
5.6060342245
30
0.0000000000
11
-29.8846360523
21
-12.8210982591
31
0.0000000000
11
-38.0094330870
21
-8.3870296985
31
0.0000000000
11
-50.9174299694
21
-1.1075433690
31
0.0000000000
11
-62.3857628990
21
5.6060342245
31
0.0000000000
0
SPLINE
5
39C
100
AcDbEntity
8
0
100
AcDbSpline
62
7
6
CONTINUOUS
70
0
71
3
72
8
73
4
74
2
42
0.0000001000
43
0.0000001000
44
0.0000000001
12
-0.0383771428
22
0.0228581165
32
0.0000000000
13
-0.0383759781
23
0.0228600624
33
0.0000000000
40
0.0000000000
40
0.0000000000
40
0.0000000000
40
0.0000000000
40
1.0000000000
40
1.0000000000
40
1.0000000000
40
1.0000000000
10
-62.3857628990
20
5.6060342245
30
0.0000000000
10
-62.3985552800
20
5.6136535967
30
0.0000000000
10
-62.4113474668
20
5.6212732932
30
0.0000000000
10
-62.4241394595
20
5.6288933140
30
0.0000000000
11
-62.3857628990
21
5.6060342245
31
0.0000000000
11
-62.4241394595
21
5.6288933140
31
0.0000000000
0
SPLINE
5
39D
100
AcDbEntity
8
0
100
AcDbSpline
62
7
6
CONTINUOUS
70
0
71
3
72
10
73
6
74
4
42
0.0000001000
43
0.0000001000
44
0.0000000001
12
0.0000096797
22
-0.1925864965
32
0.0000000000
13
0.0353895533
23
-0.1892886881
33
0.0000000000
40
0.0000000000
40
0.0000000000
40
0.0000000000
40
0.0000000000
40
0.3504528190
40
0.6967821153
40
1.0000000000
40
1.0000000000
40
1.0000000000
40
1.0000000000
10
49.7640440557
20
-49.1045567782
30
0.0000000000
10
49.7640451864
20
-49.1270542717
30
0.0000000000
10
49.7648145816
20
-49.1717864066
30
0.0000000000
10
49.7688800785
20
-49.2358714456
30
0.0000000000
10
49.7742807634
20
-49.2772766117
30
0.0000000000
10
49.7778576786
20
-49.2964085169
30
0.0000000000
11
49.7640440557
21
-49.1045567782
31
0.0000000000
11
49.7653411010
21
-49.1720311888
31
0.0000000000
11
49.7698399667
21
-49.2385713890
31
0.0000000000
11
49.7778576786
21
-49.2964085169
31
0.0000000000
0
SPLINE
5
39E
100
AcDbEntity
8
0
100
AcDbSpline
62
7
6
CONTINUOUS
70
0
71
3
72
10
73
6
74
4
42
0.0000001000
43
0.0000001000
44
0.0000000001
12
-0.1266561726
22
-0.0570209503
32
0.0000000000
13
-0.1254810371
23
0.0595624391
33
0.0000000000
40
0.0000000000
40
0.0000000000
40
0.0000000000
40
0.0000000000
40
0.3244166372
40
0.6788770577
40
1.0000000000
40
1.0000000000
40
1.0000000000
40
1.0000000000
10
51.0599464107
20
-50.2544660251
30
0.0000000000
10
51.0462499542
20
-50.2606322068
30
0.0000000000
10
51.0150875920
20
-50.2679736275
30
0.0000000000
10
50.9685434425
20
-50.2676920137
30
0.0000000000
10
50.9376150114
20
-50.2599462456
30
0.0000000000
10
50.9241833982
20
-50.2535706237
30
0.0000000000
11
51.0599464107
21
-50.2544660251
31
0.0000000000
11
51.0163672587
21
-50.2659285715
31
0.0000000000
11
50.9671338294
21
-50.2656027293
31
0.0000000000
11
50.9241833982
21
-50.2535706237
31
0.0000000000
0
SPLINE
5
39F
100
AcDbEntity
8
0
100
AcDbSpline
62
7
6
CONTINUOUS
70
0
71
3
72
10
73
6
74
4
42
0.0000001000
43
0.0000001000
44
0.0000000001
12
0.0000283071
22
-0.4007692521
32
0.0000000000
13
-0.2445372104
23
-0.3208307386
33
0.0000000000
40
0.0000000000
40
0.0000000000
40
0.0000000000
40
0.0000000000
40
0.4620219936
40
0.8735127520
40
1.0000000000
40
1.0000000000
40
1.0000000000
40
1.0000000000
10
50.9241833982
20
-50.2535706237
30
0.0000000000
10
50.9241877577
20
-50.3152920267
30
0.0000000000
10
50.9126997239
20
-50.4326161877
30
0.0000000000
10
50.8652642969
20
-50.5595242174
30
0.0000000000
10
50.8248485641
20
-50.6197035327
30
0.0000000000
10
50.8145382845
20
-50.6332305317
30
0.0000000000
11
50.9241833982
21
-50.2535706237
31
0.0000000000
11
50.9036570485
21
-50.4375935934
31
0.0000000000
11
50.8430298640
21
-50.5909578349
31
0.0000000000
11
50.8145382845
21
-50.6332305317
31
0.0000000000
0
SPLINE
5
3A0
100
AcDbEntity
8
0
100
AcDbSpline
62
7
6
CONTINUOUS
70
0
71
3
72
9
73
5
74
3
42
0.0000001000
43
0.0000001000
44
0.0000000001
12
-0.1174466556
22
-0.1540890125
32
0.0000000000
13
-0.1785401705
23
-0.0754974816
33
0.0000000000
40
0.0000000000
40
0.0000000000
40
0.0000000000
40
0.0000000000
40
0.5073459979
40
1.0000000000
40
1.0000000000
40
1.0000000000
40
1.0000000000
10
50.8145382845
20
-50.6332305317
30
0.0000000000
10
50.7946762542
20
-50.6592893463
30
0.0000000000
10
50.7496177952
20
-50.7061016552
30
0.0000000000
10
50.6933440333
20
-50.7390930231
30
0.0000000000
10
50.6640245235
20
-50.7514910685
30
0.0000000000
11
50.8145382845
21
-50.6332305317
31
0.0000000000
11
50.7460689780
21
-50.7032319117
31
0.0000000000
11
50.6640245235
21
-50.7514910685
31
0.0000000000
0
SPLINE
5
3A1
100
AcDbEntity
8
0
100
AcDbSpline
62
7
6
CONTINUOUS
70
0
71
3
72
9
73
5
74
3
42
0.0000001000
43
0.0000001000
44
0.0000000001
12
-0.0890404515
22
-0.0376516378
32
0.0000000000
13
-0.0955266425
23
-0.0132705656
33
0.0000000000
40
0.0000000000
40
0.0000000000
40
0.0000000000
40
0.0000000000
40
0.4950266892
40
1.0000000000
40
1.0000000000
40
1.0000000000
40
1.0000000000
10
50.6640245235
20
-50.7514910685
30
0.0000000000
10
50.6493320569
20
-50.7577039237
30
0.0000000000
10
50.6188422801
20
-50.7682987628
30
0.0000000000
10
50.5872952197
20
-50.7746857051
30
0.0000000000
10
50.5712157514
20
-50.7769194656
30
0.0000000000
11
50.6640245235
21
-50.7514910685
31
0.0000000000
11
50.6188864615
21
-50.7671622288
31
0.0000000000
11
50.5712157514
21
-50.7769194656
31
0.0000000000
0
SPLINE
5
3A2
100
AcDbEntity
8
0
100
AcDbSpline
62
7
6
CONTINUOUS
70
0
71
3
72
8
73
4
74
2
42
0.0000001000
43
0.0000001000
44
0.0000000001
12
-0.0498046914
22
-0.0069188700
32
0.0000000000
13
-0.0503599073
23
-0.0008466328
33
0.0000000000
40
0.0000000000
40
0.0000000000
40
0.0000000000
40
0.0000000000
40
1.0000000000
40
1.0000000000
40
1.0000000000
40
1.0000000000
10
50.5712157514
20
-50.7769194656
30
0.0000000000
10
50.5546141875
20
-50.7792257556
30
0.0000000000
10
50.5378537429
20
-50.7804751396
30
0.0000000000
10
50.5210671072
20
-50.7807573505
30
0.0000000000
11
50.5712157514
21
-50.7769194656
31
0.0000000000
11
50.5210671072
21
-50.7807573505
31
0.0000000000
0
SPLINE
5
3A3
100
AcDbEntity
8
0
100
AcDbSpline
62
7
6
CONTINUOUS
70
0
71
3
72
9
73
5
74
3
42
0.0000001000
43
0.0000001000
44
0.0000000001
12
-0.1708938397
22
-0.0028730063
32
0.0000000000
13
-0.1619944618
23
0.0528167205
33
0.0000000000
40
0.0000000000
40
0.0000000000
40
0.0000000000
40
0.0000000000
40
0.3016385976
40
1.0000000000
40
1.0000000000
40
1.0000000000
40
1.0000000000
10
50.5210671072
20
-50.7807573505
30
0.0000000000
10
50.5038843811
20
-50.7810462204
30
0.0000000000
10
50.4468287923
20
-50.7786443936
30
0.0000000000
10
50.3910356404
20
-50.7661627833
30
0.0000000000
10
50.3533254139
20
-50.7538677303
30
0.0000000000
11
50.5210671072
21
-50.7807573505
31
0.0000000000
11
50.4695789094
21
-50.7786801354
31
0.0000000000
11
50.3533254139
21
-50.7538677303
31
0.0000000000
0
SPLINE
5
3A4
100
AcDbEntity
8
0
100
AcDbSpline
62
7
6
CONTINUOUS
70
0
71
3
72
8
73
4
74
2
42
0.0000001000
43
0.0000001000
44
0.0000000001
12
-0.0458463199
22
0.0149477472
32
0.0000000000
13
-0.0444837470
23
0.0182067037
33
0.0000000000
40
0.0000000000
40
0.0000000000
40
0.0000000000
40
0.0000000000
40
1.0000000000
40
1.0000000000
40
1.0000000000
40
1.0000000000
10
50.3533254139
20
-50.7538677303
30
0.0000000000
10
50.3380433073
20
-50.7488851479
30
0.0000000000
10
50.3229670703
20
-50.7433148943
30
0.0000000000
10
50.3081391546
20
-50.7372459931
30
0.0000000000
11
50.3533254139
21
-50.7538677303
31
0.0000000000
11
50.3081391546
21
-50.7372459931
31
0.0000000000
0
SPLINE
5
3A5
100
AcDbEntity
8
0
100
AcDbSpline
62
7
6
CONTINUOUS
70
0
71
3
72
11
73
7
74
5
42
0.0000001000
43
0.0000001000
44
0.0000000001
12
-0.0027945291
22
-0.6672115398
32
0.0000000000
13
-0.6237912148
23
-0.2494511969
33
0.0000000000
40
0.0000000000
40
0.0000000000
40
0.0000000000
40
0.0000000000
40
0.3097386259
40
0.5842822638
40
0.8308409609
40
1.0000000000
40
1.0000000000
40
1.0000000000
40
1.0000000000
10
51.0599286718
20
-50.2544561769
30
0.0000000000
10
51.0596401473
20
-50.3233432388
30
0.0000000000
10
51.0463901626
20
-50.4539392972
30
0.0000000000
10
50.9804289200
20
-50.6293008752
30
0.0000000000
10
50.8797667481
20
-50.7500409724
30
0.0000000000
10
50.7981001255
20
-50.7969138245
30
0.0000000000
10
50.7629268180
20
-50.8109794661
30
0.0000000000
11
51.0599286718
21
-50.2544561769
31
0.0000000000
11
51.0362797748
21
-50.4597616189
31
0.0000000000
11
50.9685968884
21
-50.6299792606
31
0.0000000000
11
50.8610778291
21
-50.7544887643
31
0.0000000000
11
50.7629268180
21
-50.8109794661
31
0.0000000000
0
SPLINE
5
3A6
100
AcDbEntity
8
0
100
AcDbSpline
62
7
6
CONTINUOUS
70
0
71
3
72
10
73
6
74
4
42
0.0000001000
43
0.0000001000
44
0.0000000001
12
-0.1266561976
22
-0.0570208692
32
0.0000000000
13
-0.1254810576
23
0.0595623715
33
0.0000000000
40
0.0000000000
40
0.0000000000
40
0.0000000000
40
0.0000000000
40
0.3243868302
40
0.6788429215
40
1.0000000000
40
1.0000000000
40
1.0000000000
40
1.0000000000
10
51.0599464107
20
-8.8254356578
30
0.0000000000
10
51.0462512099
20
-8.8316012642
30
0.0000000000
10
51.0150906080
20
-8.8389427650
30
0.0000000000
10
50.9685464776
20
-8.8386621087
30
0.0000000000
10
50.9376164414
20
-8.8309165488
30
0.0000000000
10
50.9241833982
20
-8.8245402564
30
0.0000000000
11
51.0599464107
21
-8.8254356578
31
0.0000000000
11
51.0163714077
21
-8.8368976890
31
0.0000000000
11
50.9671385760
21
-8.8365729829
31
0.0000000000
11
50.9241833982
21
-8.8245402564
31
0.0000000000
0
SPLINE
5
3A7
100
AcDbEntity
8
0
100
AcDbSpline
62
7
6
CONTINUOUS
70
0
71
3
72
10
73
6
74
4
42
0.0000001000
43
0.0000001000
44
0.0000000001
12
-0.1219589309
22
-0.0720355586
32
0.0000000000
13
-0.0067013676
23
-0.1414856679
33
0.0000000000
40
0.0000000000
40
0.0000000000
40
0.0000000000
40
0.0000000000
40
0.3174661452
40
0.6702468652
40
1.0000000000
40
1.0000000000
40
1.0000000000
40
1.0000000000
10
50.3772898981
20
-7.6371304559
30
0.0000000000
10
50.3643839542
20
-7.6447534062
30
0.0000000000
10
50.3409303146
20
-7.6672171767
30
0.0000000000
10
50.3170938154
20
-7.7084037628
30
0.0000000000
10
50.3088757671
20
-7.7403144798
30
0.0000000000
10
50.3081391681
20
-7.7558662606
30
0.0000000000
11
50.3772898981
21
-7.6371304559
31
0.0000000000
11
50.3438435905
21
-7.6671870583
31
0.0000000000
11
50.3186958185
21
-7.7103672351
31
0.0000000000
11
50.3081391681
21
-7.7558662606
31
0.0000000000
0
SPLINE
5
3A8
100
AcDbEntity
8
0
100
AcDbSpline
62
7
6
CONTINUOUS
70
0
71
3
72
13
73
9
74
7
42
0.0000001000
43
0.0000001000
44
0.0000000001
12
1.1302439166
22
-0.6110742734
32
0.0000000000
13
-0.0001640448
23
-1.2848591563
33
0.0000000000
40
0.0000000000
40
0.0000000000
40
0.0000000000
40
0.0000000000
40
0.1527868675
40
0.3193191386
40
0.4938494671
40
0.6698777307
40
0.8407096161
40
1.0000000000
40
1.0000000000
40
1.0000000000
40
1.0000000000
10
50.3081391547
20
-7.7558662677
30
0.0000000000
10
50.3657012972
20
-7.7869876423
30
0.0000000000
10
50.4782973097
20
-7.8667111033
30
0.0000000000
10
50.6256608203
20
-8.0197971927
30
0.0000000000
10
50.7514436290
20
-8.2032482845
30
0.0000000000
10
50.8477439161
20
-8.4057604046
30
0.0000000000
10
50.9087708581
20
-8.6147234471
30
0.0000000000
10
50.9241921084
20
-8.7563183537
30
0.0000000000
10
50.9241833982
20
-8.8245402564
30
0.0000000000
11
50.3081391547
21
-7.7558662677
31
0.0000000000
11
50.4694871051
21
-7.8676888987
31
0.0000000000
11
50.6187900432
21
-8.0209599461
31
0.0000000000
11
50.7459915462
21
-8.2056392530
31
0.0000000000
11
50.8429749338
21
-8.4099619945
31
0.0000000000
11
50.9036333061
21
-8.6209088578
31
0.0000000000
11
50.9241833982
21
-8.8245402564
31
0.0000000000
0
SPLINE
5
3A9
100
AcDbEntity
8
0
100
AcDbSpline
62
7
6
CONTINUOUS
70
0
71
3
72
13
73
9
74
7
42
0.0000001000
43
0.0000001000
44
0.0000000001
12
1.2502357805
22
-0.6861735851
32
0.0000000000
13
0.0059526508
23
-1.4261445444
33
0.0000000000
40
0.0000000000
40
0.0000000000
40
0.0000000000
40
0.0000000000
40
0.1529150647
40
0.3192018148
40
0.4936472814
40
0.6696452538
40
0.8403922215
40
1.0000000000
40
1.0000000000
40
1.0000000000
40
1.0000000000
10
50.3772898981
20
-7.6371304559
30
0.0000000000
10
50.4410165265
20
-7.6721058819
30
0.0000000000
10
50.5654036881
20
-7.7613144321
30
0.0000000000
10
50.7280860394
20
-7.9319136723
30
0.0000000000
10
50.8670617741
20
-8.1357347376
30
0.0000000000
10
50.9737829496
20
-8.3604607880
30
0.0000000000
10
51.0419400739
20
-8.5923526914
30
0.0000000000
10
51.0596130078
20
-8.7495517903
30
0.0000000000
10
51.0599297043
20
-8.8254263778
30
0.0000000000
11
50.3772898981
21
-7.6371304559
31
0.0000000000
11
50.5557881773
21
-7.7624206658
31
0.0000000000
11
50.7204795104
21
-7.9330587770
31
0.0000000000
11
50.8610703783
21
-8.1383122520
31
0.0000000000
11
50.9685906410
21
-8.3651178116
31
0.0000000000
11
51.0362815657
21
-8.5990323729
31
0.0000000000
11
51.0599297043
21
-8.8254263778
31
0.0000000000
0
SPLINE
5
3AA
100
AcDbEntity
8
0
100
AcDbSpline
62
7
6
CONTINUOUS
70
0
71
3
72
10
73
6
74
4
42
0.0000001000
43
0.0000001000
44
0.0000000001
12
-0.1255531406
22
-0.0680693316
32
0.0000000000
13
0.0061122538
23
-0.1426872992
33
0.0000000000
40
0.0000000000
40
0.0000000000
40
0.0000000000
40
0.0000000000
40
0.3165398129
40
0.6659107633
40
1.0000000000
40
1.0000000000
40
1.0000000000
40
1.0000000000
10
-62.3593170571
20
48.7311946965
30
0.0000000000
10
-62.3725645797
20
48.7240124787
30
0.0000000000
10
-62.3965290981
20
48.7016686961
30
0.0000000000
10
-62.4190870605
20
48.6590817627
30
0.0000000000
10
-62.4248201379
20
48.6261631368
30
0.0000000000
10
-62.4241394585
20
48.6102730398
30
0.0000000000
11
-62.3593170571
21
48.7311946965
31
0.0000000000
11
-62.3933268731
21
48.7014111041
31
0.0000000000
11
-62.4169012082
21
48.6574348282
31
0.0000000000
11
-62.4241394585
21
48.6102730398
31
0.0000000000
0
SPLINE
5
3AB
100
AcDbEntity
8
0
100
AcDbSpline
62
7
6
CONTINUOUS
70
0
71
3
72
8
73
4
74
2
42
0.0000001000
43
0.0000001000
44
0.0000000001
12
2.8095686615
22
-1.2842368828
32
0.0000000000
13
2.8071738953
23
-1.2894750266
33
0.0000000000
40
0.0000000000
40
0.0000000000
40
0.0000000000
40
0.0000000000
40
1.0000000000
40
1.0000000000
40
1.0000000000
40
1.0000000000
10
-62.4241394594
20
48.6102730394
30
0.0000000000
10
-61.4876165723
20
48.1821940784
30
0.0000000000
10
-60.5514932820
20
47.7532386456
30
0.0000000000
10
-59.6157686503
20
47.3234136367
30
0.0000000000
11
-62.4241394594
21
48.6102730394
31
0.0000000000
11
-59.6157686503
21
47.3234136367
31
0.0000000000
0
SPLINE
5
3AC
100
AcDbEntity
8
0
100
AcDbSpline
62
7
6
CONTINUOUS
70
0
71
3
72
10
73
6
74
4
42
0.0000001000
43
0.0000001000
44
0.0000000001
12
24.6478963450
22
-11.3220085328
32
0.0000000000
13
24.4657266711
23
-11.7105527895
33
0.0000000000
40
0.0000000000
40
0.0000000000
40
0.0000000000
40
0.0000000000
40
0.3533650400
40
0.8794551234
40
1.0000000000
40
1.0000000000
40
1.0000000000
40
1.0000000000
10
-59.6157686503
20
47.3234136367
30
0.0000000000
10
-56.7125336913
20
45.9898129709
30
0.0000000000
10
-49.4965120154
20
42.6499131578
30
0.0000000000
10
-41.3182389122
20
38.7947137069
30
0.0000000000
10
-36.0424406769
20
36.2754394214
30
0.0000000000
10
-35.0593680090
20
35.8048903743
30
0.0000000000
11
-59.6157686503
21
47.3234136367
31
0.0000000000
11
-50.9175487974
21
43.2977046924
31
0.0000000000
11
-38.0098924831
21
37.2138029908
31
0.0000000000
11
-35.0593680090
21
35.8048903743
31
0.0000000000
0
SPLINE
5
3AD
100
AcDbEntity
8
0
100
AcDbSpline
62
7
6
CONTINUOUS
70
0
71
3
72
11
73
7
74
5
42
0.0000001000
43
0.0000001000
44
0.0000000001
12
48.1019851364
22
-23.0240795130
32
0.0000000000
13
47.4252633706
23
-24.3875947129
33
0.0000000000
40
0.0000000000
40
0.0000000000
40
0.0000000000
40
0.0000000000
40
0.2428096028
40
0.5891607822
40
0.9409430375
40
1.0000000000
40
1.0000000000
40
1.0000000000
40
1.0000000000
10
-35.0593680090
20
35.8048903743
30
0.0000000000
10
-31.1661600406
20
33.9414011738
30
0.0000000000
10
-21.7361132631
20
29.3851770966
30
0.0000000000
10
-6.7387850052
20
21.9786266895
30
0.0000000000
10
5.2704107669
20
15.8997532295
30
0.0000000000
10
11.7677975762
20
12.5651451657
30
0.0000000000
10
12.7013949098
20
12.0850594101
30
0.0000000000
11
-35.0593680090
21
35.8048903743
31
0.0000000000
11
-23.4001219419
21
30.1720976394
31
0.0000000000
11
-6.8388216005
21
21.9944368787
31
0.0000000000
11
9.8994515364
21
13.5230756269
31
0.0000000000
11
12.7013949098
21
12.0850594101
31
0.0000000000
0
SPLINE
5
3AE
100
AcDbEntity
8
0
100
AcDbSpline
62
7
6
CONTINUOUS
70
0
71
3
72
10
73
6
74
4
42
0.0000001000
43
0.0000001000
44
0.0000000001
12
37.7755805168
22
-19.4254176406
32
0.0000000000
13
37.3647025632
23
-20.2041720862
33
0.0000000000
40
0.0000000000
40
0.0000000000
40
0.0000000000
40
0.0000000000
40
0.3224479997
40
0.6786577324
40
1.0000000000
40
1.0000000000
40
1.0000000000
40
1.0000000000
10
12.7013949098
20
12.0850594101
30
0.0000000000
10
16.7616150345
20
9.9971637231
30
0.0000000000
10
25.2919144272
20
5.5730881409
30
0.0000000000
10
37.8145160336
20
-1.0351649388
30
0.0000000000
10
46.2680117730
20
-5.5712524014
30
0.0000000000
10
50.2702978561
20
-7.7354038923
30
0.0000000000
11
12.7013949098
21
12.0850594101
31
0.0000000000
11
24.8603858391
21
5.7794810536
31
0.0000000000
11
38.2425189791
21
-1.2817890497
31
0.0000000000
11
50.2702978561
21
-7.7354038923
31
0.0000000000
0
SPLINE
5
3AF
100
AcDbEntity
8
0
100
AcDbSpline
62
7
6
CONTINUOUS
70
0
71
3
72
8
73
4
74
2
42
0.0000001000
43
0.0000001000
44
0.0000000001
12
0.0378415057
22
-0.0204619933
32
0.0000000000
13
0.0378410915
23
-0.0204627575
33
0.0000000000
40
0.0000000000
40
0.0000000000
40
0.0000000000
40
0.0000000000
40
1.0000000000
40
1.0000000000
40
1.0000000000
40
1.0000000000
10
50.2702978561
20
-7.7354038923
30
0.0000000000
10
50.2829116913
20
-7.7422245567
30
0.0000000000
10
50.2955254575
20
-7.7490453485
30
0.0000000000
10
50.3081391547
20
-7.7558662677
30
0.0000000000
11
50.2702978561
21
-7.7354038923
31
0.0000000000
11
50.3081391547
21
-7.7558662677
31
0.0000000000
0
SPLINE
5
3B0
100
AcDbEntity
8
0
100
AcDbSpline
62
7
6
CONTINUOUS
70
0
71
3
72
8
73
4
74
2
42
0.0000001000
43
0.0000001000
44
0.0000000001
12
2.8018502526
22
-1.2806971351
32
0.0000000000
13
2.7994684732
23
-1.2859069600
33
0.0000000000
40
0.0000000000
40
0.0000000000
40
0.0000000000
40
0.0000000000
40
1.0000000000
40
1.0000000000
40
1.0000000000
40
1.0000000000
10
-62.3593170571
20
48.7311946965
30
0.0000000000
10
-61.4253669729
20
48.3042956515
30
0.0000000000
10
-60.4918143181
20
47.8765248807
30
0.0000000000
10
-59.5586581604
20
47.4478892273
30
0.0000000000
11
-62.3593170571
21
48.7311946965
31
0.0000000000
11
-59.5586581604
21
47.4478892273
31
0.0000000000
0
SPLINE
5
3B1
100
AcDbEntity
8
0
100
AcDbSpline
62
7
6
CONTINUOUS
70
0
71
3
72
10
73
6
74
4
42
0.0000001000
43
0.0000001000
44
0.0000000001
12
24.6499661946
22
-11.3227076487
32
0.0000000000
13
24.4677559815
23
-11.7113458463
33
0.0000000000
40
0.0000000000
40
0.0000000000
40
0.0000000000
40
0.0000000000
40
0.3536681750
40
0.8797363341
40
1.0000000000
40
1.0000000000
40
1.0000000000
40
1.0000000000
10
-59.5586581604
20
47.4478892273
30
0.0000000000
10
-56.6526886415
20
46.1130621108
30
0.0000000000
10
-49.4337630127
20
42.7718661732
30
0.0000000000
10
-41.2548259780
20
38.9163765004
30
0.0000000000
10
-35.9810686917
20
36.3981021566
30
0.0000000000
10
-35.0002080151
20
35.9286190287
30
0.0000000000
11
-59.5586581604
21
47.4478892273
31
0.0000000000
11
-50.8522569019
21
43.4184521598
31
0.0000000000
11
-37.9440907157
21
37.3343459951
31
0.0000000000
11
-35.0002080151
21
35.9286190287
31
0.0000000000
0
SPLINE
5
3B2
100
AcDbEntity
8
0
100
AcDbSpline
62
7
6
CONTINUOUS
70
0
71
3
72
13
73
9
74
7
42
0.0000001000
43
0.0000001000
44
0.0000000001
12
86.4229162920
22
-41.3658147688
32
0.0000000000
13
84.2800062540
23
-45.5727504486
33
0.0000000000
40
0.0000000000
40
0.0000000000
40
0.0000000000
40
0.0000000000
40
0.1352287347
40
0.3280116582
40
0.5238175692
40
0.6996488132
40
0.8575767914
40
1.0000000000
40
1.0000000000
40
1.0000000000
40
1.0000000000
10
-35.0002080151
20
35.9286190287
30
0.0000000000
10
-31.1045874762
20
34.0640034322
30
0.0000000000
10
-21.6719162636
20
29.5065507552
30
0.0000000000
10
-6.6717727000
20
22.0986190250
30
0.0000000000
10
9.4115531882
20
13.9574726620
30
0.0000000000
10
24.4316363335
20
6.1824000696
30
0.0000000000
10
37.8818977961
20
-0.9154219155
30
0.0000000000
10
46.3344125957
20
-5.4510020474
30
0.0000000000
10
50.3355555651
20
-7.6145411614
30
0.0000000000
11
-35.0002080151
21
35.9286190287
31
0.0000000000
11
-23.3337506521
21
30.2923917760
31
0.0000000000
11
-6.7718141797
21
22.1144269898
31
0.0000000000
11
9.9670929545
21
13.6427348125
31
0.0000000000
11
24.9285873564
21
5.8988243079
31
0.0000000000
11
38.3112163206
21
-1.1627442155
31
0.0000000000
11
50.3355555651
21
-7.6145411614
31
0.0000000000
0
SPLINE
5
3B3
100
AcDbEntity
8
0
100
AcDbSpline
62
7
6
CONTINUOUS
70
0
71
3
72
8
73
4
74
2
42
0.0000001000
43
0.0000001000
44
0.0000000001
12
0.0417346588
22
-0.0225671933
32
0.0000000000
13
0.0417341550
23
-0.0225681229
33
0.0000000000
40
0.0000000000
40
0.0000000000
40
0.0000000000
40
0.0000000000
40
1.0000000000
40
1.0000000000
40
1.0000000000
40
1.0000000000
10
50.3355555651
20
-7.6145411614
30
0.0000000000
10
50.3494671180
20
-7.6220635591
30
0.0000000000
10
50.3633785870
20
-7.6295861118
30
0.0000000000
10
50.3772899720
20
-7.6371088195
30
0.0000000000
11
50.3355555651
21
-7.6145411614
31
0.0000000000
11
50.3772899720
21
-7.6371088195
31
0.0000000000
0
SPLINE
5
3B4
100
AcDbEntity
8
0
100
AcDbSpline
62
7
6
CONTINUOUS
70
0
71
3
72
8
73
4
74
2
42
0.0000001000
43
0.0000001000
44
0.0000000001
12
-0.0000084480
22
0.1260502924
32
0.0000000000
13
0.0182416761
23
0.1250426265
33
0.0000000000
40
0.0000000000
40
0.0000000000
40
0.0000000000
40
0.0000000000
40
1.0000000000
40
1.0000000000
40
1.0000000000
40
1.0000000000
10
-63.0091380789
20
48.1421204821
30
0.0000000000
10
-63.0091408949
20
48.1841372462
30
0.0000000000
10
-63.0064777887
20
48.2262972908
30
0.0000000000
10
-63.0003972300
20
48.2679781663
30
0.0000000000
11
-63.0091380789
21
48.1421204821
31
0.0000000000
11
-63.0003972300
21
48.2679781663
31
0.0000000000
0
SPLINE
5
3B5
100
AcDbEntity
8
0
100
AcDbSpline
62
7
6
CONTINUOUS
70
0
71
3
72
8
73
4
74
2
42
0.0000001000
43
0.0000001000
44
0.0000000001
12
0.0084637500
22
0.0580171213
32
0.0000000000
13
0.0131031255
23
0.0572116815
33
0.0000000000
40
0.0000000000
40
0.0000000000
40
0.0000000000
40
0.0000000000
40
1.0000000000
40
1.0000000000
40
1.0000000000
40
1.0000000000
10
-63.0003972300
20
48.2679781663
30
0.0000000000
10
-62.9975759800
20
48.2873172067
30
0.0000000000
10
-62.9940190335
20
48.3065530934
30
0.0000000000
10
-62.9896513250
20
48.3256236539
30
0.0000000000
11
-63.0003972300
21
48.2679781663
31
0.0000000000
11
-62.9896513250
21
48.3256236539
31
0.0000000000
0
SPLINE
5
3B6
100
AcDbEntity
8
0
100
AcDbSpline
62
7
6
CONTINUOUS
70
0
71
3
72
9
73
5
74
3
42
0.0000001000
43
0.0000001000
44
0.0000000001
12
0.0581409807
22
0.2538587654
32
0.0000000000
13
0.1798665568
23
0.1889089310
33
0.0000000000
40
0.0000000000
40
0.0000000000
40
0.0000000000
40
0.0000000000
40
0.6257017394
40
1.0000000000
40
1.0000000000
40
1.0000000000
40
1.0000000000
10
-62.9896513250
20
48.3256236539
30
0.0000000000
10
-62.9775250207
20
48.3785702776
30
0.0000000000
10
-62.9481567597
20
48.4611531803
30
0.0000000000
10
-62.8966153733
20
48.5323411077
30
0.0000000000
10
-62.8741741268
20
48.5559105358
30
0.0000000000
11
-62.9896513250
21
48.3256236539
31
0.0000000000
11
-62.9320926390
21
48.4774536461
31
0.0000000000
11
-62.8741741268
21
48.5559105358
31
0.0000000000
0
SPLINE
5
3B7
100
AcDbEntity
8
0
100
AcDbSpline
62
7
6
CONTINUOUS
70
0
71
3
72
9
73
5
74
3
42
0.0000001000
43
0.0000001000
44
0.0000000001
12
0.1256910848
22
0.1320099127
32
0.0000000000
13
0.1763135603
23
0.0463317459
33
0.0000000000
40
0.0000000000
40
0.0000000000
40
0.0000000000
40
0.0000000000
40
0.2546078846
40
1.0000000000
40
1.0000000000
40
1.0000000000
40
1.0000000000
10
-62.8741741268
20
48.5559105358
30
0.0000000000
10
-62.8635068131
20
48.5671141240
30
0.0000000000
10
-62.8188148512
20
48.6083875500
30
0.0000000000
10
-62.7630743105
20
48.6364875200
30
0.0000000000
10
-62.7192667313
20
48.6479992927
30
0.0000000000
11
-62.8741741268
21
48.5559105358
31
0.0000000000
11
-62.8400327353
21
48.5872772318
31
0.0000000000
11
-62.7192667313
21
48.6479992927
31
0.0000000000
0
SPLINE
5
3B8
100
AcDbEntity
8
0
100
AcDbSpline
62
7
6
CONTINUOUS
70
0
71
3
72
8
73
4
74
2
42
0.0000001000
43
0.0000001000
44
0.0000000001
12
0.0907296992
22
0.0238419856
32
0.0000000000
13
0.0939949957
23
-0.0008245433
33
0.0000000000
40
0.0000000000
40
0.0000000000
40
0.0000000000
40
0.0000000000
40
1.0000000000
40
1.0000000000
40
1.0000000000
40
1.0000000000
10
-62.7192667313
20
48.6479992927
30
0.0000000000
10
-62.6890234982
20
48.6559466212
30
0.0000000000
10
-62.6577036067
20
48.6593977970
30
0.0000000000
10
-62.6263719415
20
48.6591229492
30
0.0000000000
11
-62.7192667313
21
48.6479992927
31
0.0000000000
11
-62.6263719415
21
48.6591229492
31
0.0000000000
0
SPLINE
5
3B9
100
AcDbEntity
8
0
100
AcDbSpline
62
7
6
CONTINUOUS
70
0
71
3
72
9
73
5
74
3
42
0.0000001000
43
0.0000001000
44
0.0000000001
12
0.1533623153
22
-0.0013453256
32
0.0000000000
13
0.1442450954
23
-0.0505173615
33
0.0000000000
40
0.0000000000
40
0.0000000000
40
0.0000000000
40
0.0000000000
40
0.3197596347
40
1.0000000000
40
1.0000000000
40
1.0000000000
40
1.0000000000
10
-62.6263719415
20
48.6591229492
30
0.0000000000
10
-62.6100255822
20
48.6589795556
30
0.0000000000
10
-62.5588947881
20
48.6553593774
30
0.0000000000
10
-62.5092116502
20
48.6428896911
30
0.0000000000
10
-62.4765045381
20
48.6314350416
30
0.0000000000
11
-62.6263719415
21
48.6591229492
31
0.0000000000
11
-62.5774744715
21
48.6557595531
31
0.0000000000
11
-62.4765045381
21
48.6314350416
31
0.0000000000
0
SPLINE
5
3BA
100
AcDbEntity
8
0
100
AcDbSpline
62
7
6
CONTINUOUS
70
0
71
3
72
8
73
4
74
2
42
0.0000001000
43
0.0000001000
44
0.0000000001
12
0.0534006659
22
-0.0187019235
32
0.0000000000
13
0.0512618713
23
-0.0234411178
33
0.0000000000
40
0.0000000000
40
0.0000000000
40
0.0000000000
40
0.0000000000
40
1.0000000000
40
1.0000000000
40
1.0000000000
40
1.0000000000
10
-62.4765045381
20
48.6314350416
30
0.0000000000
10
-62.4587043161
20
48.6252010671
30
0.0000000000
10
-62.4412267499
20
48.6180867453
30
0.0000000000
10
-62.4241394594
20
48.6102730394
30
0.0000000000
11
-62.4765045381
21
48.6314350416
31
0.0000000000
11
-62.4241394594
21
48.6102730394
31
0.0000000000
0
SPLINE
5
3BB
100
AcDbEntity
8
0
100
AcDbSpline
62
7
6
CONTINUOUS
70
0
71
3
72
11
73
7
74
5
42
0.0000001000
43
0.0000001000
44
0.0000000001
12
-0.0195412789
22
0.0425755242
32
0.0000000000
13
-0.0499119373
23
-0.0248663412
33
0.0000000000
40
0.0000000000
40
0.0000000000
40
0.0000000000
40
0.0000000000
40
0.0589486857
40
0.2266399199
40
0.5491652463
40
1.0000000000
40
1.0000000000
40
1.0000000000
40
1.0000000000
10
49.1446992709
20
-45.6647260516
30
0.0000000000
10
49.1443152933
20
-45.6638894612
30
0.0000000000
10
49.1397365401
20
-45.6613179511
30
0.0000000000
10
49.1300823952
20
-45.6664279808
30
0.0000000000
10
49.1137615565
20
-45.6716083900
30
0.0000000000
10
49.1008427303
20
-45.6783339472
30
0.0000000000
10
49.0933420516
20
-45.6820708174
30
0.0000000000
11
49.1446992709
21
-45.6647260516
31
0.0000000000
11
49.1419736588
21
-45.6628684053
31
0.0000000000
11
49.1328178927
21
-45.6647692468
31
0.0000000000
11
49.1160727212
21
-45.6713313540
31
0.0000000000
11
49.0933420516
21
-45.6820708174
31
0.0000000000
0
SPLINE
5
3BC
100
AcDbEntity
8
0
100
AcDbSpline
62
7
6
CONTINUOUS
70
0
71
3
72
8
73
4
74
2
42
0.0000001000
43
0.0000001000
44
0.0000000001
12
-0.1252962990
22
-0.0776038558
32
0.0000000000
13
-0.1252962754
23
-0.0776038940
33
0.0000000000
40
0.0000000000
40
0.0000000000
40
0.0000000000
40
0.0000000000
40
1.0000000000
40
1.0000000000
40
1.0000000000
40
1.0000000000
10
-62.1569632728
20
48.8565251631
30
0.0000000000
10
-62.1987287058
20
48.8306572111
30
0.0000000000
10
-62.2404941349
20
48.8047892528
30
0.0000000000
10
-62.2822595600
20
48.7789212882
30
0.0000000000
11
-62.1569632728
21
48.8565251631
31
0.0000000000
11
-62.2822595600
21
48.7789212882
31
0.0000000000
0
SPLINE
5
3BD
100
AcDbEntity
8
0
100
AcDbSpline
62
7
6
CONTINUOUS
70
0
71
3
72
8
73
4
74
2
42
0.0000001000
43
0.0000001000
44
0.0000000001
12
-0.0770575023
22
-0.0477265763
32
0.0000000000
13
-0.0770574934
23
-0.0477265908
33
0.0000000000
40
0.0000000000
40
0.0000000000
40
0.0000000000
40
0.0000000000
40
1.0000000000
40
1.0000000000
40
1.0000000000
40
1.0000000000
10
-62.2822595600
20
48.7789212882
30
0.0000000000
10
-62.3079453941
20
48.7630124294
30
0.0000000000
10
-62.3336312267
20
48.7471035682
30
0.0000000000
10
-62.3593170578
20
48.7311947046
30
0.0000000000
11
-62.2822595600
21
48.7789212882
31
0.0000000000
11
-62.3593170578
21
48.7311947046
31
0.0000000000
0
SPLINE
5
3BE
100
AcDbEntity
8
0
100
AcDbSpline
62
7
6
CONTINUOUS
70
0
71
3
72
8
73
4
74
2
42
0.0000001000
43
0.0000001000
44
0.0000000001
12
-0.0534417395
22
-0.0271381504
32
0.0000000000
13
-0.0534417364
23
-0.0271381566
33
0.0000000000
40
0.0000000000
40
0.0000000000
40
0.0000000000
40
0.0000000000
40
1.0000000000
40
1.0000000000
40
1.0000000000
40
1.0000000000
10
50.5800884913
20
-7.5341260139
30
0.0000000000
10
50.5622745782
20
-7.5431720641
30
0.0000000000
10
50.5444606655
20
-7.5522181152
30
0.0000000000
10
50.5266467534
20
-7.5612641674
30
0.0000000000
11
50.5800884913
21
-7.5341260139
31
0.0000000000
11
50.5266467534
21
-7.5612641674
31
0.0000000000
0
SPLINE
5
3BF
100
AcDbEntity
8
0
100
AcDbSpline
62
7
6
CONTINUOUS
70
0
71
3
72
8
73
4
74
2
42
0.0000001000
43
0.0000001000
44
0.0000000001
12
-0.1493567950
22
-0.0758446181
32
0.0000000000
13
-0.1493567706
23
-0.0758446662
33
0.0000000000
40
0.0000000000
40
0.0000000000
40
0.0000000000
40
0.0000000000
40
1.0000000000
40
1.0000000000
40
1.0000000000
40
1.0000000000
10
50.5266467534
20
-7.5612641674
30
0.0000000000
10
50.4768611551
20
-7.5865457068
30
0.0000000000
10
50.4270755608
20
-7.6118272542
30
0.0000000000
10
50.3772899706
20
-7.6371088096
30
0.0000000000
11
50.5266467534
21
-7.5612641674
31
0.0000000000
11
50.3772899706
21
-7.6371088096
31
0.0000000000
0
SPLINE
5
3C0
100
AcDbEntity
8
0
100
AcDbSpline
62
7
6
CONTINUOUS
70
0
71
3
72
8
73
4
74
2
42
0.0000001000
43
0.0000001000
44
0.0000000001
12
-0.0300403595
22
-0.0152557825
32
0.0000000000
13
-0.0300403573
23
-0.0152557868
33
0.0000000000
40
0.0000000000
40
0.0000000000
40
0.0000000000
40
0.0000000000
40
1.0000000000
40
1.0000000000
40
1.0000000000
40
1.0000000000
10
51.2474730944
20
-8.7302014395
30
0.0000000000
10
51.2374596412
20
-8.7352867003
30
0.0000000000
10
51.2274461884
20
-8.7403719618
30
0.0000000000
10
51.2174327360
20
-8.7454572241
30
0.0000000000
11
51.2474730944
21
-8.7302014395
31
0.0000000000
11
51.2174327360
21
-8.7454572241
31
0.0000000000
0
SPLINE
5
3C1
100
AcDbEntity
8
0
100
AcDbSpline
62
7
6
CONTINUOUS
70
0
71
3
72
8
73
4
74
2
42
0.0000001000
43
0.0000001000
44
0.0000000001
12
-0.1574863646
22
-0.0799783562
32
0.0000000000
13
-0.1574862784
23
-0.0799785261
33
0.0000000000
40
0.0000000000
40
0.0000000000
40
0.0000000000
40
0.0000000000
40
1.0000000000
40
1.0000000000
40
1.0000000000
40
1.0000000000
10
51.2174327360
20
-8.7454572241
30
0.0000000000
10
51.1649372811
20
-8.7721166761
30
0.0000000000
10
51.1124418368
20
-8.7987761491
30
0.0000000000
10
51.0599464107
20
-8.8254356578
30
0.0000000000
11
51.2174327360
21
-8.7454572241
31
0.0000000000
11
51.0599464107
21
-8.8254356578
31
0.0000000000
0
SPLINE
5
3C2
100
AcDbEntity
8
0
100
AcDbSpline
62
7
6
CONTINUOUS
70
0
71
3
72
8
73
4
74
2
42
0.0000001000
43
0.0000001000
44
0.0000000001
12
-0.1915680563
22
-0.0752021844
32
0.0000000000
13
-0.1915681577
23
-0.0752019259
33
0.0000000000
40
0.0000000000
40
0.0000000000
40
0.0000000000
40
0.0000000000
40
1.0000000000
40
1.0000000000
40
1.0000000000
40
1.0000000000
10
51.2515145120
20
-50.1792639554
30
0.0000000000
10
51.1876584932
20
-50.2043313502
30
0.0000000000
10
51.1238024633
20
-50.2293987165
30
0.0000000000
10
51.0599464107
20
-50.2544660251
30
0.0000000000
11
51.2515145120
21
-50.1792639554
31
0.0000000000
11
51.0599464107
21
-50.2544660251
31
0.0000000000
0
SPLINE
5
3C3
100
AcDbEntity
8
0
100
AcDbSpline
62
7
6
CONTINUOUS
70
0
71
3
72
8
73
4
74
2
42
0.0000001000
43
0.0000001000
44
0.0000000001
12
-0.0144267262
22
-0.0353292112
32
0.0000000000
13
-0.0056102396
23
-0.0373967089
33
0.0000000000
40
0.0000000000
40
0.0000000000
40
0.0000000000
40
0.0000000000
40
1.0000000000
40
1.0000000000
40
1.0000000000
40
1.0000000000
10
-61.2487357429
20
46.4927066766
30
0.0000000000
10
-61.2535446517
20
46.4809302729
30
0.0000000000
10
-61.2566570218
20
46.4686334960
30
0.0000000000
10
-61.2585271017
20
46.4561679264
30
0.0000000000
11
-61.2487357429
21
46.4927066766
31
0.0000000000
11
-61.2585271017
21
46.4561679264
31
0.0000000000
0
SPLINE
5
3C4
100
AcDbEntity
8
0
100
AcDbSpline
62
7
6
CONTINUOUS
70
0
71
3
72
8
73
4
74
2
42
0.0000001000
43
0.0000001000
44
0.0000000001
12
-0.0033394594
22
-0.0222601528
32
0.0000000000
13
-0.0009858950
23
-0.0223965388
33
0.0000000000
40
0.0000000000
40
0.0000000000
40
0.0000000000
40
0.0000000000
40
1.0000000000
40
1.0000000000
40
1.0000000000
40
1.0000000000
10
-61.2585271017
20
46.4561679264
30
0.0000000000
10
-61.2596402548
20
46.4487478755
30
0.0000000000
10
-61.2603132458
20
46.4412680187
30
0.0000000000
10
-61.2606418775
20
46.4338025058
30
0.0000000000
11
-61.2585271017
21
46.4561679264
31
0.0000000000
11
-61.2606418775
21
46.4338025058
31
0.0000000000
0
SPLINE
5
3C5
100
AcDbEntity
8
0
100
AcDbSpline
62
7
6
CONTINUOUS
70
0
71
3
72
9
73
5
74
3
42
0.0000001000
43
0.0000001000
44
0.0000000001
12
-0.1109513848
22
0.0561354446
32
0.0000000000
13
-0.0655175159
23
0.1047670880
33
0.0000000000
40
0.0000000000
40
0.0000000000
40
0.0000000000
40
0.0000000000
40
0.3139914870
40
1.0000000000
40
1.0000000000
40
1.0000000000
40
1.0000000000
10
-61.3405302862
20
46.5386769609
30
0.0000000000
10
-61.3521428830
20
46.5445523115
30
0.0000000000
10
-61.3874731282
20
46.5665422839
30
0.0000000000
10
-61.4154245754
20
46.5982854945
30
0.0000000000
10
-61.4304064333
20
46.6222425325
30
0.0000000000
11
-61.3405302862
21
46.5386769609
31
0.0000000000
11
-61.3736021949
21
46.5593232179
31
0.0000000000
11
-61.4304064333
21
46.6222425325
31
0.0000000000
0
SPLINE
5
3C6
100
AcDbEntity
8
0
100
AcDbSpline
62
7
6
CONTINUOUS
70
0
71
3
72
10
73
6
74
4
42
0.0000001000
43
0.0000001000
44
0.0000000001
12
-0.0000105117
22
0.1202944904
32
0.0000000000
13
0.0404839700
23
0.1132466365
33
0.0000000000
40
0.0000000000
40
0.0000000000
40
0.0000000000
40
0.0000000000
40
0.3922589014
40
0.7251118633
40
1.0000000000
40
1.0000000000
40
1.0000000000
40
1.0000000000
10
49.7640443550
20
-8.7859865255
30
0.0000000000
10
49.7640429806
20
-8.7702576639
30
0.0000000000
10
49.7647755430
20
-8.7411720563
30
0.0000000000
10
49.7688405614
20
-8.7012686532
30
0.0000000000
10
49.7741481575
20
-8.6773326074
30
0.0000000000
10
49.7778576786
20
-8.6669558884
30
0.0000000000
11
49.7640443550
21
-8.7859865255
31
0.0000000000
11
49.7654837687
21
-8.7388334123
31
0.0000000000
11
49.7699272196
21
-8.6990501154
31
0.0000000000
11
49.7778576786
21
-8.6669558884
31
0.0000000000
0
SPLINE
5
3C7
100
AcDbEntity
8
0
100
AcDbSpline
62
7
6
CONTINUOUS
70
0
71
3
72
11
73
7
74
5
42
0.0000001000
43
0.0000001000
44
0.0000000001
12
0.0133289340
22
-0.2907914457
32
0.0000000000
13
0.2541258976
23
-0.1419765951
33
0.0000000000
40
0.0000000000
40
0.0000000000
40
0.0000000000
40
0.0000000000
40
0.2459543452
40
0.5126315043
40
0.7724559832
40
1.0000000000
40
1.0000000000
40
1.0000000000
40
1.0000000000
10
-61.2606418775
20
7.6970096820
30
0.0000000000
10
-61.2595491078
20
7.6731692088
30
0.0000000000
10
-61.2495058890
20
7.6237872002
30
0.0000000000
10
-61.2187295054
20
7.5548882074
30
0.0000000000
10
-61.1754713958
20
7.4952690931
30
0.0000000000
10
-61.1386892768
20
7.4641968428
30
0.0000000000
10
-61.1194143343
20
7.4534282012
30
0.0000000000
11
-61.2606418775
21
7.6970096820
31
0.0000000000
11
-61.2475221719
21
7.6266254927
31
0.0000000000
11
-61.2160892018
21
7.5556451578
31
0.0000000000
11
-61.1711119815
21
7.4948375809
31
0.0000000000
11
-61.1194143343
21
7.4534282012
31
0.0000000000
0
SPLINE
5
3C8
100
AcDbEntity
8
0
100
AcDbSpline
62
7
6
CONTINUOUS
70
0
71
3
72
11
73
7
74
5
42
0.0000001000
43
0.0000001000
44
0.0000000001
12
0.2700352851
22
-0.0554712334
32
0.0000000000
13
0.2425199604
23
-0.1310731923
33
0.0000000000
40
0.0000000000
40
0.0000000000
40
0.0000000000
40
0.0000000000
40
0.2168838976
40
0.4806397922
40
0.7544691971
40
1.0000000000
40
1.0000000000
40
1.0000000000
40
1.0000000000
10
-61.6875248034
20
7.1963695858
30
0.0000000000
10
-61.6680027017
20
7.1923593134
30
0.0000000000
10
-61.6253670172
20
7.1805240849
30
0.0000000000
10
-61.5598699424
20
7.1577245365
30
0.0000000000
10
-61.4933032276
20
7.1302961577
30
0.0000000000
10
-61.4502477968
20
7.1095922293
30
0.0000000000
10
-61.4303990899
20
7.0988647273
30
0.0000000000
11
-61.6875248034
21
7.1963695858
31
0.0000000000
11
-61.6297102071
21
7.1811306515
31
0.0000000000
11
-61.5609786415
21
7.1574071075
31
0.0000000000
11
-61.4912011767
21
7.1286062879
31
0.0000000000
11
-61.4303990899
21
7.0988647273
31
0.0000000000
0
SPLINE
5
3C9
100
AcDbEntity
8
0
100
AcDbSpline
62
7
6
CONTINUOUS
70
0
71
3
72
11
73
7
74
5
42
0.0000001000
43
0.0000001000
44
0.0000000001
12
0.2667640437
22
-0.0323814431
32
0.0000000000
13
0.2329602470
23
-0.1339445266
33
0.0000000000
40
0.0000000000
40
0.0000000000
40
0.0000000000
40
0.0000000000
40
0.2241160085
40
0.4876989315
40
0.7576848110
40
1.0000000000
40
1.0000000000
40
1.0000000000
40
1.0000000000
10
-61.6967677490
20
7.1517232519
30
0.0000000000
10
-61.6768390514
20
7.1493041853
30
0.0000000000
10
-61.6339328978
20
7.1404163415
30
0.0000000000
10
-61.5689178776
20
7.1207513235
30
0.0000000000
10
-61.5041264951
20
7.0954278358
30
0.0000000000
10
-61.4628271171
20
7.0752004262
30
0.0000000000
10
-61.4440105150
20
7.0643814952
30
0.0000000000
11
-61.6967677490
21
7.1517232519
31
0.0000000000
11
-61.6376284779
21
7.1403394723
31
0.0000000000
11
-61.5697669045
21
7.1200471634
31
0.0000000000
11
-61.5022271682
21
7.0935507487
31
0.0000000000
11
-61.4440105150
21
7.0643814952
31
0.0000000000
0
SPLINE
5
3CA
100
AcDbEntity
8
0
100
AcDbSpline
62
7
6
CONTINUOUS
70
0
71
3
72
10
73
6
74
4
42
0.0000001000
43
0.0000001000
44
0.0000000001
12
0.0717792061
22
-0.0919147482
32
0.0000000000
13
0.0367512841
23
-0.1106793499
33
0.0000000000
40
0.0000000000
40
0.0000000000
40
0.0000000000
40
0.0000000000
40
0.3355720077
40
0.6718271723
40
1.0000000000
40
1.0000000000
40
1.0000000000
40
1.0000000000
10
-61.8943919013
20
6.5397157451
30
0.0000000000
10
-61.8863628706
20
6.5294344062
30
0.0000000000
10
-61.8714615631
20
6.5079060477
30
0.0000000000
10
-61.8529513953
20
6.4736424371
30
0.0000000000
10
-61.8432786225
20
6.4496161335
30
0.0000000000
10
-61.8392583649
20
6.4375088151
30
0.0000000000
11
-61.8943919013
21
6.5397157451
31
0.0000000000
11
-61.8720918812
21
6.5075559802
31
0.0000000000
11
-61.8534743334
21
6.4730426428
31
0.0000000000
11
-61.8392583649
21
6.4375088151
31
0.0000000000
0
SPLINE
5
3CB
100
AcDbEntity
8
0
100
AcDbSpline
62
7
6
CONTINUOUS
70
0
71
3
72
8
73
4
74
2
42
0.0000001000
43
0.0000001000
44
0.0000000001
12
-0.0081351665
22
-0.0318806699
32
0.0000000000
13
-0.0077459921
23
-0.0319781946
33
0.0000000000
40
0.0000000000
40
0.0000000000
40
0.0000000000
40
0.0000000000
40
1.0000000000
40
1.0000000000
40
1.0000000000
40
1.0000000000
10
49.7638799240
20
-48.6050778045
30
0.0000000000
10
49.7611682018
20
-48.6157046944
30
0.0000000000
10
49.7585208111
20
-48.6263482008
30
0.0000000000
10
49.7559388137
20
-48.6370075989
30
0.0000000000
11
49.7638799240
21
-48.6050778045
31
0.0000000000
11
49.7559388137
21
-48.6370075989
31
0.0000000000
0
SPLINE
5
3CC
100
AcDbEntity
8
0
100
AcDbSpline
62
7
6
CONTINUOUS
70
0
71
3
72
8
73
4
74
2
42
0.0000001000
43
0.0000001000
44
0.0000000001
12
-0.0103780117
22
-0.0428441018
32
0.0000000000
13
-0.0096660464
23
-0.0430100340
33
0.0000000000
40
0.0000000000
40
0.0000000000
40
0.0000000000
40
0.0000000000
40
1.0000000000
40
1.0000000000
40
1.0000000000
40
1.0000000000
10
49.7559388137
20
-48.6370075989
30
0.0000000000
10
49.7524794765
20
-48.6512889662
30
0.0000000000
10
49.7491375230
20
-48.6655988600
30
0.0000000000
10
49.7459155076
20
-48.6799355380
30
0.0000000000
11
49.7559388137
21
-48.6370075989
31
0.0000000000
11
49.7459155076
21
-48.6799355380
31
0.0000000000
0
SPLINE
5
3CD
100
AcDbEntity
8
0
100
AcDbSpline
62
7
6
CONTINUOUS
70
0
71
3
72
9
73
5
74
3
42
0.0000001000
43
0.0000001000
44
0.0000000001
12
-0.0515188338
22
-0.2292381698
32
0.0000000000
13
-0.0284685022
23
-0.2332214981
33
0.0000000000
40
0.0000000000
40
0.0000000000
40
0.0000000000
40
0.0000000000
40
0.5246339819
40
1.0000000000
40
1.0000000000
40
1.0000000000
40
1.0000000000
10
49.7459155076
20
-48.6799355380
30
0.0000000000
10
49.7369059973
20
-48.7200242493
30
0.0000000000
10
49.7215205578
20
-48.7968361528
30
0.0000000000
10
49.7099319483
20
-48.8743154111
30
0.0000000000
10
49.7054209621
20
-48.9112706027
30
0.0000000000
11
49.7459155076
21
-48.6799355380
31
0.0000000000
11
49.7218075911
21
-48.8008042021
31
0.0000000000
11
49.7054209621
21
-48.9112706027
31
0.0000000000
0
SPLINE
5
3CE
100
AcDbEntity
8
0
100
AcDbSpline
62
7
6
CONTINUOUS
70
0
71
3
72
10
73
6
74
4
42
0.0000001000
43
0.0000001000
44
0.0000000001
12
-0.0341496907
22
-0.2797632966
32
0.0000000000
13
0.0192675990
23
-0.2812183382
33
0.0000000000
40
0.0000000000
40
0.0000000000
40
0.0000000000
40
0.0000000000
40
0.3617932520
40
0.6937794602
40
1.0000000000
40
1.0000000000
40
1.0000000000
40
1.0000000000
10
49.7054209621
20
-48.9112706027
30
0.0000000000
10
49.7013025862
20
-48.9450094270
30
0.0000000000
10
49.6950000333
20
-49.0099059270
30
0.0000000000
10
49.6912514902
20
-49.1038232384
30
0.0000000000
10
49.6928323558
20
-49.1638069604
30
0.0000000000
10
49.6947990673
20
-49.1925119042
30
0.0000000000
11
49.7054209621
21
-48.9112706027
31
0.0000000000
11
49.6957359586
21
-49.0127651801
31
0.0000000000
11
49.6922300314
21
-49.1062552737
31
0.0000000000
11
49.6947990673
21
-49.1925119042
31
0.0000000000
0
SPLINE
5
3CF
100
AcDbEntity
8
0
100
AcDbSpline
62
7
6
CONTINUOUS
70
0
71
3
72
9
73
5
74
3
42
0.0000001000
43
0.0000001000
44
0.0000000001
12
0.0103819170
22
-0.1515282436
32
0.0000000000
13
0.0437513168
23
-0.1454054465
33
0.0000000000
40
0.0000000000
40
0.0000000000
40
0.0000000000
40
0.0000000000
40
0.5241755103
40
1.0000000000
40
1.0000000000
40
1.0000000000
40
1.0000000000
10
49.6947990673
20
-49.1925119042
30
0.0000000000
10
49.6966130495
20
-49.2189877023
30
0.0000000000
10
49.7020345334
20
-49.2693736315
30
0.0000000000
10
49.7129031425
20
-49.3189796196
30
0.0000000000
10
49.7198424585
20
-49.3420421104
30
0.0000000000
11
49.6947990673
21
-49.1925119042
31
0.0000000000
11
49.7037933197
21
-49.2715955460
31
0.0000000000
11
49.7198424585
21
-49.3420421104
31
0.0000000000
0
SPLINE
5
3D0
100
AcDbEntity
8
0
100
AcDbSpline
62
7
6
CONTINUOUS
70
0
71
3
72
10
73
6
74
4
42
0.0000001000
43
0.0000001000
44
0.0000000001
12
0.0650415738
22
0.0359699514
32
0.0000000000
13
0.0414255793
23
0.0617103322
33
0.0000000000
40
0.0000000000
40
0.0000000000
40
0.0000000000
40
0.0000000000
40
0.4029458771
40
0.7382909294
40
1.0000000000
40
1.0000000000
40
1.0000000000
40
1.0000000000
10
49.7198422084
20
-49.3420414442
30
0.0000000000
10
49.7285782864
20
-49.3372101297
30
0.0000000000
10
49.7442718059
20
-49.3277371629
30
0.0000000000
10
49.7639853642
20
-49.3126753626
30
0.0000000000
10
49.7742432622
20
-49.3017920191
30
0.0000000000
10
49.7778570788
20
-49.2964086346
30
0.0000000000
11
49.7198422084
21
-49.3420414442
31
0.0000000000
11
49.7453694302
21
-49.3263791687
31
0.0000000000
11
49.7649599511
21
-49.3109698363
31
0.0000000000
11
49.7778570788
21
-49.2964086346
31
0.0000000000
0
SPLINE
5
3D1
100
AcDbEntity
8
0
100
AcDbSpline
62
7
6
CONTINUOUS
70
0
71
3
72
10
73
6
74
4
42
0.0000001000
43
0.0000001000
44
0.0000000001
12
-0.0282673185
22
0.1141664841
32
0.0000000000
13
-0.0843251969
23
0.0819895636
33
0.0000000000
40
0.0000000000
40
0.0000000000
40
0.0000000000
40
0.0000000000
40
0.3320384601
40
0.6658715195
40
1.0000000000
40
1.0000000000
40
1.0000000000
40
1.0000000000
10
49.7778569302
20
-8.6669560352
30
0.0000000000
10
49.7747283179
20
-8.6543201474
30
0.0000000000
10
49.7660308360
20
-8.6295128910
30
0.0000000000
10
49.7463587893
20
-8.5953684384
30
0.0000000000
10
49.7292339800
20
-8.5753214007
30
0.0000000000
10
49.7198421634
20
-8.5661897179
30
0.0000000000
11
49.7778569302
21
-8.6669560352
31
0.0000000000
11
49.7649598067
21
-8.6300948212
31
0.0000000000
11
49.7453693221
21
-8.5960679510
31
0.0000000000
11
49.7198421634
21
-8.5661897179
31
0.0000000000
0
SPLINE
5
3D2
100
AcDbEntity
8
0
100
AcDbSpline
62
7
6
CONTINUOUS
70
0
71
3
72
11
73
7
74
5
42
0.0000001000
43
0.0000001000
44
0.0000000001
12
-0.2547398696
22
0.1235372471
32
0.0000000000
13
-0.1898920309
23
-0.2099877834
33
0.0000000000
40
0.0000000000
40
0.0000000000
40
0.0000000000
40
0.0000000000
40
0.2209234184
40
0.4691971914
40
0.7346585853
40
1.0000000000
40
1.0000000000
40
1.0000000000
40
1.0000000000
10
-61.4304032912
20
46.6222462656
30
0.0000000000
10
-61.4491626255
20
46.6313436893
30
0.0000000000
10
-61.4938507761
20
46.6409891331
30
0.0000000000
10
-61.5635320310
20
46.6313130080
30
0.0000000000
10
-61.6314525902
20
46.6009489033
30
0.0000000000
10
-61.6707312080
20
46.5686436940
30
0.0000000000
10
-61.6875266147
20
46.5500708755
30
0.0000000000
11
-61.4304032912
21
46.6222462656
31
0.0000000000
11
-61.4912046952
21
46.6369183793
31
0.0000000000
11
-61.5609818196
21
46.6284433764
31
0.0000000000
11
-61.6297129536
21
46.5980385526
31
0.0000000000
11
-61.6875266147
21
46.5500708755
31
0.0000000000
0
SPLINE
5
3D3
100
AcDbEntity
8
0
100
AcDbSpline
62
7
6
CONTINUOUS
70
0
71
3
72
11
73
7
74
5
42
0.0000001000
43
0.0000001000
44
0.0000000001
12
-0.2468755158
22
0.1151367348
32
0.0000000000
13
-0.2007016275
23
-0.1841815537
33
0.0000000000
40
0.0000000000
40
0.0000000000
40
0.0000000000
40
0.0000000000
40
0.2198237231
40
0.4687875302
40
0.7349047440
40
1.0000000000
40
1.0000000000
40
1.0000000000
40
1.0000000000
10
-61.4440105117
20
46.6459502362
30
0.0000000000
10
-61.4621002100
20
46.6543868314
30
0.0000000000
10
-61.5048752580
20
46.6635622759
30
0.0000000000
10
-61.5720096591
20
46.6563984088
30
0.0000000000
10
-61.6388984247
20
46.6310183870
30
0.0000000000
10
-61.6790327315
20
46.6031678472
30
0.0000000000
10
-61.6967677480
20
46.5868926285
30
0.0000000000
11
-61.4440105117
21
46.6459502362
31
0.0000000000
11
-61.5022271646
21
46.6599695532
31
0.0000000000
11
-61.5697669015
21
46.6538239832
31
0.0000000000
11
-61.6376284757
21
46.6283325663
31
0.0000000000
11
-61.6967677480
21
46.5868926285
31
0.0000000000
0
SPLINE
5
3D4
100
AcDbEntity
8
0
100
AcDbSpline
62
7
6
CONTINUOUS
70
0
71
3
72
10
73
6
74
4
42
0.0000001000
43
0.0000001000
44
0.0000000001
12
-0.0599240122
22
-0.0375413496
32
0.0000000000
13
-0.0528682956
23
-0.0469593812
33
0.0000000000
40
0.0000000000
40
0.0000000000
40
0.0000000000
40
0.0000000000
40
0.2458501249
40
0.5832747725
40
1.0000000000
40
1.0000000000
40
1.0000000000
40
1.0000000000
10
-61.8392583199
20
47.2133605980
30
0.0000000000
10
-61.8441690951
20
47.2102840828
30
0.0000000000
10
-61.8553010116
20
47.2021772761
30
0.0000000000
10
-61.8736235896
20
47.1873512148
30
0.0000000000
10
-61.8870479921
20
47.1756915124
30
0.0000000000
10
-61.8943918430
20
47.1691684595
30
0.0000000000
11
-61.8392583199
21
47.2133605980
31
0.0000000000
11
-61.8534742660
21
47.2033539597
31
0.0000000000
11
-61.8720918111
21
47.1884311140
31
0.0000000000
11
-61.8943918430
21
47.1691684595
31
0.0000000000
0
SPLINE
5
3D5
100
AcDbEntity
8
0
100
AcDbSpline
62
7
6
CONTINUOUS
70
0
71
3
72
10
73
6
74
4
42
0.0000001000
43
0.0000001000
44
0.0000000001
12
-0.0787029685
22
-0.1101839646
32
0.0000000000
13
-0.0641729464
23
-0.1192329496
33
0.0000000000
40
0.0000000000
40
0.0000000000
40
0.0000000000
40
0.0000000000
40
0.3255212293
40
0.6598265465
40
1.0000000000
40
1.0000000000
40
1.0000000000
40
1.0000000000
10
-61.8943916077
20
6.5397161193
30
0.0000000000
10
-61.9029314367
20
6.5277603794
30
0.0000000000
10
-61.9198001774
20
6.5032067140
30
0.0000000000
10
-61.9438990379
20
6.4650315706
30
0.0000000000
10
-61.9590571848
20
6.4386145964
30
0.0000000000
10
-61.9663338291
20
6.4250946349
30
0.0000000000
11
-61.8943916077
21
6.5397161193
31
0.0000000000
11
-61.9193400886
21
6.5033789639
31
0.0000000000
11
-61.9434883639
21
6.4650913210
31
0.0000000000
11
-61.9663338291
21
6.4250946349
31
0.0000000000
0
SPLINE
5
3D6
100
AcDbEntity
8
0
100
AcDbSpline
62
7
6
CONTINUOUS
70
0
71
3
72
8
73
4
74
2
42
0.0000001000
43
0.0000001000
44
0.0000000001
12
-4.3131795082
22
1.7684549475
32
0.0000000000
13
-4.3031837470
23
1.7929001442
33
0.0000000000
40
0.0000000000
40
0.0000000000
40
0.0000000000
40
0.0000000000
40
1.0000000000
40
1.0000000000
40
1.0000000000
40
1.0000000000
10
49.7198424585
20
-49.3420421104
30
0.0000000000
10
48.2821159558
20
-48.7525571279
30
0.0000000000
10
46.8460433907
20
-48.1589887449
30
0.0000000000
10
45.4116488083
20
-47.5613553635
30
0.0000000000
11
49.7198424585
21
-49.3420421104
31
0.0000000000
11
45.4116488083
21
-47.5613553635
31
0.0000000000
0
SPLINE
5
3D7
100
AcDbEntity
8
0
100
AcDbSpline
62
7
6
CONTINUOUS
70
0
71
3
72
8
73
4
74
2
42
0.0000001000
43
0.0000001000
44
0.0000000001
12
-16.7158931113
22
6.9645938753
32
0.0000000000
13
-16.5597436678
23
7.3293944840
33
0.0000000000
40
0.0000000000
40
0.0000000000
40
0.0000000000
40
0.0000000000
40
1.0000000000
40
1.0000000000
40
1.0000000000
40
1.0000000000
10
45.4116488083
20
-47.5613553635
30
0.0000000000
10
39.8396844379
20
-45.2398240717
30
0.0000000000
10
34.2930402534
20
-42.8569533456
30
0.0000000000
10
28.7731256974
20
-40.4138218509
30
0.0000000000
11
45.4116488083
21
-47.5613553635
31
0.0000000000
11
28.7731256974
21
-40.4138218509
31
0.0000000000
0
SPLINE
5
3D8
100
AcDbEntity
8
0
100
AcDbSpline
62
7
6
CONTINUOUS
70
0
71
3
72
9
73
5
74
3
42
0.0000001000
43
0.0000001000
44
0.0000000001
12
-2.5518273291
22
1.1294467792
32
0.0000000000
13
-2.5480038601
23
1.1380207581
33
0.0000000000
40
0.0000000000
40
0.0000000000
40
0.0000000000
40
0.0000000000
40
0.7140648057
40
1.0000000000
40
1.0000000000
40
1.0000000000
40
1.0000000000
10
28.7731256974
20
-40.4138218509
30
0.0000000000
10
28.1657356688
20
-40.1449891193
30
0.0000000000
10
27.3155797967
20
-39.7674850555
30
0.0000000000
10
26.4660623363
20
-39.3885528418
30
0.0000000000
10
26.2232076766
20
-39.2800861129
30
0.0000000000
11
28.7731256974
21
-40.4138218509
31
0.0000000000
11
26.9519284124
21
-39.6051361901
31
0.0000000000
11
26.2232076766
21
-39.2800861129
31
0.0000000000
0
SPLINE
5
3D9
100
AcDbEntity
8
0
100
AcDbSpline
62
7
6
CONTINUOUS
70
0
71
3
72
10
73
6
74
4
42
0.0000001000
43
0.0000001000
44
0.0000000001
12
-54.6506532776
22
24.4087455455
32
0.0000000000
13
-52.7794362788
23
28.2262355469
33
0.0000000000
40
0.0000000000
40
0.0000000000
40
0.0000000000
40
0.0000000000
40
0.4017060287
40
0.8184456051
40
1.0000000000
40
1.0000000000
40
1.0000000000
40
1.0000000000
10
26.2232076766
20
-39.2800861129
30
0.0000000000
10
18.9053753779
20
-36.0117060331
30
0.0000000000
10
4.0925612494
20
-29.1367937225
30
0.0000000000
10
-13.7536486469
20
-20.2122017683
30
0.0000000000
10
-24.3151954480
20
-14.6497598808
30
0.0000000000
10
-27.5093083206
20
-12.9415608423
30
0.0000000000
11
26.2232076766
21
-39.2800861129
31
0.0000000000
11
4.4144340724
21
-29.1596370728
31
0.0000000000
11
-17.8946617700
21
-18.0051180488
31
0.0000000000
11
-27.5093083206
21
-12.9415608423
31
0.0000000000
0
SPLINE
5
3DA
100
AcDbEntity
8
0
100
AcDbSpline
62
7
6
CONTINUOUS
70
0
71
3
72
8
73
4
74
2
42
0.0000001000
43
0.0000001000
44
0.0000000001
12
-1.3017357267
22
0.6961631618
32
0.0000000000
13
-1.3005357979
23
0.6984040877
33
0.0000000000
40
0.0000000000
40
0.0000000000
40
0.0000000000
40
0.0000000000
40
1.0000000000
40
1.0000000000
40
1.0000000000
40
1.0000000000
10
-27.5093083206
20
-12.9415608423
30
0.0000000000
10
-27.9432202295
20
-12.7095064550
30
0.0000000000
10
-28.3769323611
20
-12.4770782416
30
0.0000000000
10
-28.8104442937
20
-12.2442768790
30
0.0000000000
11
-27.5093083206
21
-12.9415608423
31
0.0000000000
11
-28.8104442937
21
-12.2442768790
31
0.0000000000
0
SPLINE
5
3DB
100
AcDbEntity
8
0
100
AcDbSpline
62
7
6
CONTINUOUS
70
0
71
3
72
9
73
5
74
3
42
0.0000001000
43
0.0000001000
44
0.0000000001
12
-32.8993884854
22
17.6673855794
32
0.0000000000
13
-32.1085635643
23
19.0646425821
33
0.0000000000
40
0.0000000000
40
0.0000000000
40
0.0000000000
40
0.0000000000
40
0.3408202826
40
1.0000000000
40
1.0000000000
40
1.0000000000
40
1.0000000000
10
-28.8104442937
20
-12.2442768790
30
0.0000000000
10
-32.5480372541
20
-10.2371424303
30
0.0000000000
10
-43.4708365998
20
-4.2666299260
30
0.0000000000
10
-54.2631961454
20
1.9389359946
30
0.0000000000
10
-61.3183007641
20
6.1279445645
30
0.0000000000
11
-28.8104442937
21
-12.2442768790
31
0.0000000000
11
-39.9783086869
21
-6.1400954682
31
0.0000000000
11
-61.3183007641
21
6.1279445645
31
0.0000000000
0
SPLINE
5
3DC
100
AcDbEntity
8
0
100
AcDbSpline
62
7
6
CONTINUOUS
70
0
71
3
72
8
73
4
74
2
42
0.0000001000
43
0.0000001000
44
0.0000000001
12
-0.5210648855
22
0.3093852450
32
0.0000000000
13
-0.5208502276
23
0.3097430044
33
0.0000000000
40
0.0000000000
40
0.0000000000
40
0.0000000000
40
0.0000000000
40
1.0000000000
40
1.0000000000
40
1.0000000000
40
1.0000000000
10
-61.3183007641
20
6.1279445645
30
0.0000000000
10
-61.4919890593
20
6.2310729795
30
0.0000000000
10
-61.6656415955
20
6.3342610487
30
0.0000000000
10
-61.8392583380
20
6.4375087168
30
0.0000000000
11
-61.3183007641
21
6.1279445645
31
0.0000000000
11
-61.8392583380
21
6.4375087168
31
0.0000000000
0
SPLINE
5
3DD
100
AcDbEntity
8
0
100
AcDbSpline
62
7
6
CONTINUOUS
70
0
71
3
72
16
73
12
74
10
42
0.0000001000
43
0.0000001000
44
0.0000000001
12
-0.1239832829
22
-0.6342960040
32
0.0000000000
13
-0.3762169548
23
-0.5255131568
33
0.0000000000
40
0.0000000000
40
0.0000000000
40
0.0000000000
40
0.0000000000
40
0.1212875020
40
0.2456127888
40
0.3705183713
40
0.4935865117
40
0.6124585354
40
0.7247800735
40
0.8280992465
40
0.9203627998
40
1.0000000000
40
1.0000000000
40
1.0000000000
40
1.0000000000
10
-61.6967677990
20
7.1517232833
30
0.0000000000
10
-61.7017803399
20
7.1260792240
30
0.0000000000
10
-61.7123989172
20
7.0742388792
30
0.0000000000
10
-61.7299326947
20
6.9963609792
30
0.0000000000
10
-61.7492433401
20
6.9185073079
30
0.0000000000
10
-61.7701623860
20
6.8422860004
30
0.0000000000
10
-61.7924902076
20
6.7692911218
30
0.0000000000
10
-61.8159958340
20
6.7011505322
30
0.0000000000
10
-61.8404352646
20
6.6394428577
30
0.0000000000
10
-61.8656457195
20
6.5857507810
30
0.0000000000
10
-61.8844046527
20
6.5536662515
30
0.0000000000
10
-61.8943916077
20
6.5397161193
30
0.0000000000
11
-61.6967677990
21
7.1517232833
31
0.0000000000
11
-61.7125125074
21
7.0749326964
31
0.0000000000
11
-61.7301871893
21
6.9965493310
31
0.0000000000
11
-61.7496630035
21
6.9182074493
31
0.0000000000
11
-61.7707774147
21
6.8415222604
31
0.0000000000
11
-61.7933456864
21
6.7680848484
31
0.0000000000
11
-61.8171611181
21
6.6995091737
31
0.0000000000
11
-61.8419801695
21
6.6375177620
31
0.0000000000
11
-61.8676701697
21
6.5837055938
31
0.0000000000
11
-61.8943916077
21
6.5397161193
31
0.0000000000
0
SPLINE
5
3DE
100
AcDbEntity
8
0
100
AcDbSpline
62
7
6
CONTINUOUS
70
0
71
3
72
9
73
5
74
3
42
0.0000001000
43
0.0000001000
44
0.0000000001
12
-0.0097022606
22
-0.0445504041
32
0.0000000000
13
-0.0087475995
23
-0.0447476466
33
0.0000000000
40
0.0000000000
40
0.0000000000
40
0.0000000000
40
0.0000000000
40
0.4942111613
40
1.0000000000
40
1.0000000000
40
1.0000000000
40
1.0000000000
10
-61.6875275978
20
7.1963711373
30
0.0000000000
10
-61.6891259197
20
7.1890320350
30
0.0000000000
10
-61.6922905963
20
7.1741666666
30
0.0000000000
10
-61.6952929863
20
7.1592675700
30
0.0000000000
10
-61.6967677990
20
7.1517232833
30
0.0000000000
11
-61.6875275978
21
7.1963711373
31
0.0000000000
11
-61.6922143190
21
7.1743305351
31
0.0000000000
11
-61.6967677990
21
7.1517232833
31
0.0000000000
0
SPLINE
5
3DF
100
AcDbEntity
8
0
100
AcDbSpline
62
7
6
CONTINUOUS
70
0
71
3
72
9
73
5
74
3
42
0.0000001000
43
0.0000001000
44
0.0000000001
12
-0.0099267915
22
0.0366437996
32
0.0000000000
13
-0.0085588746
23
0.0369872263
33
0.0000000000
40
0.0000000000
40
0.0000000000
40
0.0000000000
40
0.0000000000
40
0.4874124778
40
1.0000000000
40
1.0000000000
40
1.0000000000
40
1.0000000000
10
-61.6875275978
20
46.5500714214
30
0.0000000000
10
-61.6891404119
20
46.5560249698
30
0.0000000000
10
-61.6923369369
20
46.5682702755
30
0.0000000000
10
-61.6953054082
20
46.5805729303
30
0.0000000000
10
-61.6967677990
20
46.5868926605
30
0.0000000000
11
-61.6875275978
21
46.5500714214
31
0.0000000000
11
-61.6922022853
21
46.5679756239
31
0.0000000000
11
-61.6967677990
21
46.5868926605
31
0.0000000000
0
SPLINE
5
3E0
100
AcDbEntity
8
0
100
AcDbSpline
62
7
6
CONTINUOUS
70
0
71
3
72
15
73
11
74
9
42
0.0000001000
43
0.0000001000
44
0.0000000001
12
-0.1390205433
22
0.6005899070
32
0.0000000000
13
-0.2999047218
23
0.5386019919
33
0.0000000000
40
0.0000000000
40
0.0000000000
40
0.0000000000
40
0.0000000000
40
0.1606994776
40
0.3098533277
40
0.4481196177
40
0.5764641503
40
0.6955935567
40
0.8061587307
40
0.9083976677
40
1.0000000000
40
1.0000000000
40
1.0000000000
40
1.0000000000
10
-61.6967677990
20
46.5868926605
30
0.0000000000
10
-61.7042146419
20
46.6190641553
30
0.0000000000
10
-61.7193546172
20
46.6809180013
30
0.0000000000
10
-61.7434420785
20
46.7698046992
30
0.0000000000
10
-61.7678004815
20
46.8517033809
30
0.0000000000
10
-61.7923312409
20
46.9270875115
30
0.0000000000
10
-61.8170474728
20
46.9963963634
30
0.0000000000
10
-61.8420330305
20
47.0598804820
30
0.0000000000
10
-61.8672388340
20
47.1171492838
30
0.0000000000
10
-61.8852342837
20
47.1527230265
30
0.0000000000
10
-61.8943916077
20
47.1691687593
30
0.0000000000
11
-61.6967677990
21
46.5868926605
31
0.0000000000
11
-61.7203263536
21
46.6831170826
31
0.0000000000
11
-61.7444015245
21
46.7718581363
31
0.0000000000
11
-61.7687407983
21
46.8535462217
31
0.0000000000
11
-61.7932792457
21
46.9287653783
31
0.0000000000
11
-61.8180242577
21
46.9979106618
31
0.0000000000
11
-61.8430923545
21
47.0612935276
31
0.0000000000
11
-61.8686605968
21
47.1189016379
31
0.0000000000
11
-61.8943916077
21
47.1691687593
31
0.0000000000
0
SPLINE
5
3E1
100
AcDbEntity
8
0
100
AcDbSpline
62
7
6
CONTINUOUS
70
0
71
3
72
11
73
7
74
5
42
0.0000001000
43
0.0000001000
44
0.0000000001
12
-0.0869407112
22
0.1558029240
32
0.0000000000
13
-0.0580374946
23
0.1687154041
33
0.0000000000
40
0.0000000000
40
0.0000000000
40
0.0000000000
40
0.0000000000
40
0.2786042115
40
0.5471650159
40
0.7918056836
40
1.0000000000
40
1.0000000000
40
1.0000000000
40
1.0000000000
10
-61.8943916077
20
47.1691687593
30
0.0000000000
10
-61.9024656238
20
47.1836378763
30
0.0000000000
10
-61.9174729369
20
47.2125351429
30
0.0000000000
10
-61.9370284883
20
47.2553915741
30
0.0000000000
10
-61.9531226683
20
47.2951745685
30
0.0000000000
10
-61.9623061369
20
47.3204977945
30
0.0000000000
10
-61.9663338291
20
47.3322063239
30
0.0000000000
11
-61.8943916077
21
47.1691687593
31
0.0000000000
11
-61.9173611282
21
47.2132517136
31
0.0000000000
11
-61.9372836977
21
47.2568299253
31
0.0000000000
11
-61.9536675049
21
47.2972868176
31
0.0000000000
11
-61.9663338291
21
47.3322063239
31
0.0000000000
0
SPLINE
5
3E2
100
AcDbEntity
8
0
100
AcDbSpline
62
7
6
CONTINUOUS
70
0
71
3
72
10
73
6
74
4
42
0.0000001000
43
0.0000001000
44
0.0000000001
12
0.1063295528
22
-0.0062709306
32
0.0000000000
13
0.1062274371
23
0.0078121686
33
0.0000000000
40
0.0000000000
40
0.0000000000
40
0.0000000000
40
0.0000000000
40
0.2763315320
40
0.6069919730
40
1.0000000000
40
1.0000000000
40
1.0000000000
40
1.0000000000
10
49.7198423084
20
-8.5661895626
30
0.0000000000
10
49.7296363778
20
-8.5667671812
30
0.0000000000
10
49.7511922761
20
-8.5673300942
30
0.0000000000
10
49.7866992104
20
-8.5666454064
30
0.0000000000
10
49.8123544267
20
-8.5651190513
30
0.0000000000
10
49.8262705052
20
-8.5640956363
30
0.0000000000
11
49.7198423084
21
-8.5661895626
31
0.0000000000
11
49.7492621921
21
-8.5670769136
31
0.0000000000
11
49.7844770809
21
-8.5664728722
31
0.0000000000
11
49.8262705052
21
-8.5640956363
31
0.0000000000
0
SPLINE
5
3E3
100
AcDbEntity
8
0
100
AcDbSpline
62
7
6
CONTINUOUS
70
0
71
3
72
16
73
12
74
10
42
0.0000001000
43
0.0000001000
44
0.0000000001
12
-0.2563373278
22
-0.7067392796
32
0.0000000000
13
-0.6444022178
23
-0.3872144324
33
0.0000000000
40
0.0000000000
40
0.0000000000
40
0.0000000000
40
0.0000000000
40
0.1174020780
40
0.2380009758
40
0.3595784580
40
0.4799955998
40
0.5972275684
40
0.7093404157
40
0.8144415386
40
0.9113222927
40
1.0000000000
40
1.0000000000
40
1.0000000000
40
1.0000000000
10
-61.4440106025
20
7.0643815014
30
0.0000000000
10
-61.4540421141
20
7.0367239480
30
0.0000000000
10
-61.4753058972
20
6.9809866623
30
0.0000000000
10
-61.5103988040
20
6.8979698444
30
0.0000000000
10
-61.5490592842
20
6.8157102793
30
0.0000000000
10
-61.5909580632
20
6.7359958404
30
0.0000000000
10
-61.6357146726
20
6.6605806797
30
0.0000000000
10
-61.6828890529
20
6.5912321723
30
0.0000000000
10
-61.7320958757
20
6.5296584753
30
0.0000000000
10
-61.7831063406
20
6.4774932158
30
0.0000000000
10
-61.8202103009
20
6.4489544795
30
0.0000000000
10
-61.8392583380
20
6.4375087168
30
0.0000000000
11
-61.4440106025
21
7.0643815014
31
0.0000000000
11
-61.4754981377
21
6.9819274022
31
0.0000000000
11
-61.5108454542
21
6.8984364886
31
0.0000000000
11
-61.5497946582
21
6.8157499166
31
0.0000000000
11
-61.5920206914
21
6.7356726488
31
0.0000000000
11
-61.6371540972
21
6.6599721840
31
0.0000000000
11
-61.6847813622
21
6.5904331926
31
0.0000000000
11
-61.7344138600
21
6.5289528339
31
0.0000000000
11
-61.7857831643
21
6.4773195771
31
0.0000000000
11
-61.8392583380
21
6.4375087168
31
0.0000000000
0
SPLINE
5
3E4
100
AcDbEntity
8
0
100
AcDbSpline
62
7
6
CONTINUOUS
70
0
71
3
72
14
73
10
74
8
42
0.0000001000
43
0.0000001000
44
0.0000000001
12
113.6806188762
22
-52.0030581665
32
0.0000000000
13
109.9773081180
23
-59.4356195043
33
0.0000000000
40
0.0000000000
40
0.0000000000
40
0.0000000000
40
0.0000000000
40
0.1377340838
40
0.2771703542
40
0.4182900054
40
0.5611098088
40
0.7056628955
40
0.8519667130
40
1.0000000000
40
1.0000000000
40
1.0000000000
40
1.0000000000
10
-61.9663338291
20
47.3322063238
30
0.0000000000
10
-56.7471018683
20
44.9446751340
30
0.0000000000
10
-46.2690069186
20
40.0855411564
30
0.0000000000
10
-30.5307681243
20
32.5935970445
30
0.0000000000
10
-14.6764411248
20
24.8544264298
30
0.0000000000
10
1.2936446939
20
16.8682471051
30
0.0000000000
10
17.3805767303
20
8.6345147677
30
0.0000000000
10
33.5840258311
20
0.1533415652
30
0.0000000000
10
44.3995061454
20
-5.6312806996
30
0.0000000000
10
49.8262736181
20
-8.5640974066
30
0.0000000000
11
-61.9663338291
21
47.3322063238
31
0.0000000000
11
-46.3455817786
21
40.0893966227
31
0.0000000000
11
-30.6064249747
21
32.5981908009
31
0.0000000000
11
-14.7525233044
21
24.8603832773
31
0.0000000000
11
1.2165452356
21
16.8758490832
31
0.0000000000
11
17.3030512662
21
8.6434529354
31
0.0000000000
11
33.5075270305
21
0.1628425597
31
0.0000000000
11
49.8262736181
21
-8.5640974066
31
0.0000000000
0
SPLINE
5
3E5
100
AcDbEntity
8
0
100
AcDbSpline
62
7
6
CONTINUOUS
70
0
71
3
72
13
73
9
74
7
42
0.0000001000
43
0.0000001000
44
0.0000000001
12
1.0466837547
22
-0.7854088026
32
0.0000000000
13
0.0000000000
23
-1.3041874072
33
0.0000000000
40
0.0000000000
40
0.0000000000
40
0.0000000000
40
0.0000000000
40
0.0404917831
40
0.2260966917
40
0.4229388807
40
0.6230465413
40
0.8179581732
40
1.0000000000
40
1.0000000000
40
1.0000000000
40
1.0000000000
10
70.7870988933
20
1.7224169183
30
0.0000000000
10
70.8012262571
20
1.7118160507
30
0.0000000000
10
70.8786396754
20
1.6506501997
30
0.0000000000
10
71.0078305470
20
1.5185487981
30
0.0000000000
10
71.1523357601
20
1.3091649862
30
0.0000000000
10
71.2636664125
20
1.0759913992
30
0.0000000000
10
71.3346554388
20
0.8342837895
30
0.0000000000
10
71.3527805499
20
0.6701799326
30
0.0000000000
10
71.3527805499
20
0.5910410466
30
0.0000000000
11
70.7870988933
21
1.7224169183
31
0.0000000000
11
70.8286864706
21
1.6896043899
31
0.0000000000
11
70.9992271593
21
1.5178177419
31
0.0000000000
11
71.1456737687
21
1.3069668728
31
0.0000000000
11
71.2580462044
21
1.0714209212
31
0.0000000000
11
71.3286864706
21
0.8272319542
31
0.0000000000
11
71.3527805499
21
0.5910410466
31
0.0000000000
0
SPLINE
5
3E6
100
AcDbEntity
8
0
100
AcDbSpline
62
7
6
CONTINUOUS
70
0
71
3
72
11
73
7
74
5
42
0.0000001000
43
0.0000001000
44
0.0000000001
12
-0.1369429978
22
0.1076346279
32
0.0000000000
13
-0.1169085900
23
0.1291161468
33
0.0000000000
40
0.0000000000
40
0.0000000000
40
0.0000000000
40
0.0000000000
40
0.2858807400
40
0.5559281671
40
0.7975228901
40
1.0000000000
40
1.0000000000
40
1.0000000000
40
1.0000000000
10
-61.8392582198
20
47.2133607051
30
0.0000000000
10
-61.8523080084
20
47.2236175941
30
0.0000000000
10
-61.8771644405
20
47.2442339503
30
0.0000000000
10
-61.9113805108
20
47.2754537531
30
0.0000000000
10
-61.9408156714
20
47.3046691697
30
0.0000000000
10
-61.9584433076
20
47.3234920105
30
0.0000000000
10
-61.9663337454
20
47.3322063653
30
0.0000000000
11
-61.8392582198
21
47.2133607051
31
0.0000000000
11
-61.8776064797
21
47.2451241707
31
0.0000000000
11
-61.9123611761
21
47.2768191532
31
0.0000000000
11
-61.9422278248
21
47.3064634929
31
0.0000000000
11
-61.9663337454
21
47.3322063653
31
0.0000000000
0
SPLINE
5
3E7
100
AcDbEntity
8
0
100
AcDbSpline
62
7
6
CONTINUOUS
70
0
71
3
72
11
73
7
74
5
42
0.0000001000
43
0.0000001000
44
0.0000000001
12
0.0334071326
22
-0.1784713161
32
0.0000000000
13
0.0622988835
23
-0.1705488091
33
0.0000000000
40
0.0000000000
40
0.0000000000
40
0.0000000000
40
0.0000000000
40
0.2827246898
40
0.5521454888
40
0.7950738069
40
1.0000000000
40
1.0000000000
40
1.0000000000
40
1.0000000000
10
49.7778576786
20
-49.2964085169
30
0.0000000000
10
49.7810060190
20
-49.3132279327
30
0.0000000000
10
49.7880272991
20
-49.3459172731
30
0.0000000000
10
49.8003246751
20
-49.3924551730
30
0.0000000000
10
49.8131236739
20
-49.4339487467
30
0.0000000000
10
49.8220180605
20
-49.4595592521
30
0.0000000000
10
49.8262736181
20
-49.4712092248
30
0.0000000000
11
49.7778576786
21
-49.2964085169
31
0.0000000000
11
49.7885946767
21
-49.3466077205
31
0.0000000000
11
49.8010711904
21
-49.3939089566
31
0.0000000000
11
49.8140674408
21
-49.4360596308
31
0.0000000000
11
49.8262736181
21
-49.4712092248
31
0.0000000000
0
SPLINE
5
3E8
100
AcDbEntity
8
0
100
AcDbSpline
62
7
6
CONTINUOUS
70
0
71
3
72
10
73
6
74
4
42
0.0000001000
43
0.0000001000
44
0.0000000001
12
0.0383481205
22
0.1071378749
32
0.0000000000
13
0.0554778949
23
0.0993544452
33
0.0000000000
40
0.0000000000
40
0.0000000000
40
0.0000000000
40
0.0000000000
40
0.2816093764
40
0.6133356952
40
1.0000000000
40
1.0000000000
40
1.0000000000
40
1.0000000000
10
49.7778576786
20
-8.6669558884
30
0.0000000000
10
49.7814574087
20
-8.6568988784
30
0.0000000000
10
49.7901462228
20
-8.6352967404
30
0.0000000000
10
49.8062921033
20
-8.6009563336
30
0.0000000000
10
49.8191231776
20
-8.5769031534
30
0.0000000000
10
49.8262736181
20
-8.5640975476
30
0.0000000000
11
49.7778576786
21
-8.6669558884
31
0.0000000000
11
49.7896921753
21
-8.6371757229
31
0.0000000000
11
49.8056677799
21
-8.6029744109
31
0.0000000000
11
49.8262736181
21
-8.5640975476
31
0.0000000000
0
SPLINE
5
3E9
100
AcDbEntity
8
0
100
AcDbSpline
62
7
6
CONTINUOUS
70
0
71
3
72
10
73
6
74
4
42
0.0000001000
43
0.0000001000
44
0.0000000001
12
-0.1265189614
22
-0.0174043779
32
0.0000000000
13
-0.1275427272
23
-0.0065431426
33
0.0000000000
40
0.0000000000
40
0.0000000000
40
0.0000000000
40
0.0000000000
40
0.3285859906
40
0.6624624030
40
1.0000000000
40
1.0000000000
40
1.0000000000
40
1.0000000000
10
-61.8392582199
20
6.4375088048
30
0.0000000000
10
-61.8531156726
20
6.4356025265
30
0.0000000000
10
-61.8810995259
20
6.4320803753
30
0.0000000000
10
-61.9234644806
20
6.4278651244
30
0.0000000000
10
-61.9519806187
20
6.4258289525
30
0.0000000000
10
-61.9663307739
20
6.4250927670
30
0.0000000000
11
-61.8392582199
21
6.4375088048
31
0.0000000000
11
-61.8808960576
21
6.4322880276
31
0.0000000000
11
-61.9233271082
21
6.4280768999
31
0.0000000000
11
-61.9663307739
21
6.4250927670
31
0.0000000000
0
SPLINE
5
3EA
100
AcDbEntity
8
0
100
AcDbSpline
62
7
6
CONTINUOUS
70
0
71
3
72
8
73
4
74
2
42
0.0000001000
43
0.0000001000
44
0.0000000001
12
-4.4503326722
22
1.8239151890
32
0.0000000000
13
-4.4396644907
23
1.8499181172
33
0.0000000000
40
0.0000000000
40
0.0000000000
40
0.0000000000
40
0.0000000000
40
1.0000000000
40
1.0000000000
40
1.0000000000
40
1.0000000000
10
49.8262736181
20
-49.4712092247
30
0.0000000000
10
48.3428293941
20
-48.8632374951
30
0.0000000000
10
46.8611498741
20
-48.2509220356
30
0.0000000000
10
45.3812617105
20
-47.6342826632
30
0.0000000000
11
49.8262736181
21
-49.4712092247
31
0.0000000000
11
45.3812617105
21
-47.6342826632
31
0.0000000000
0
SPLINE
5
3EB
100
AcDbEntity
8
0
100
AcDbSpline
62
7
6
CONTINUOUS
70
0
71
3
72
9
73
5
74
3
42
0.0000001000
43
0.0000001000
44
0.0000000001
12
-16.7172946335
22
6.9657574978
32
0.0000000000
13
-16.5607283632
23
7.3304337039
33
0.0000000000
40
0.0000000000
40
0.0000000000
40
0.0000000000
40
0.0000000000
40
0.7126119111
40
1.0000000000
40
1.0000000000
40
1.0000000000
40
1.0000000000
10
45.3812617105
20
-47.6342826632
30
0.0000000000
10
41.4102806182
20
-45.9796554090
30
0.0000000000
10
35.8559485821
20
-43.6140482886
30
0.0000000000
10
30.3280293718
20
-41.1878883071
30
0.0000000000
10
28.7415773466
20
-40.4856618627
30
0.0000000000
11
45.3812617105
21
-47.6342826632
31
0.0000000000
11
33.5075271327
21
-42.5773860914
31
0.0000000000
11
28.7415773466
21
-40.4856618627
31
0.0000000000
0
SPLINE
5
3EC
100
AcDbEntity
8
0
100
AcDbSpline
62
7
6
CONTINUOUS
70
0
71
3
72
8
73
4
74
2
42
0.0000001000
43
0.0000001000
44
0.0000000001
12
-9.8449228115
22
4.3577524132
32
0.0000000000
13
-9.7876310038
23
4.4848839257
33
0.0000000000
40
0.0000000000
40
0.0000000000
40
0.0000000000
40
0.0000000000
40
1.0000000000
40
1.0000000000
40
1.0000000000
40
1.0000000000
10
28.7415773466
20
-40.4856618627
30
0.0000000000
10
25.4599364095
20
-39.0330777250
30
0.0000000000
10
22.1877351219
20
-37.5591978479
30
0.0000000000
10
18.9251914540
20
-36.0642365394
30
0.0000000000
11
28.7415773466
21
-40.4856618627
31
0.0000000000
11
18.9251914540
21
-36.0642365394
31
0.0000000000
0
SPLINE
5
3ED
100
AcDbEntity
8
0
100
AcDbSpline
62
7
6
CONTINUOUS
70
0
71
3
72
11
73
7
74
5
42
0.0000001000
43
0.0000001000
44
0.0000000001
12
-47.1681336173
22
21.6133612090
32
0.0000000000
13
-45.7517091685
23
24.4694632784
33
0.0000000000
40
0.0000000000
40
0.0000000000
40
0.0000000000
40
0.0000000000
40
0.0344075026
40
0.3774975685
40
0.7216152382
40
1.0000000000
40
1.0000000000
40
1.0000000000
40
1.0000000000
10
18.9251914540
20
-36.0642365394
30
0.0000000000
10
18.3842122274
20
-35.8163492787
30
0.0000000000
10
12.4518402389
20
-33.0903262062
30
0.0000000000
10
1.1729885522
20
-27.7461798974
30
0.0000000000
10
-13.7642321064
20
-20.2769220440
30
0.0000000000
10
-23.3005546027
20
-15.2794907633
30
0.0000000000
10
-27.5460808227
20
-13.0088488611
30
0.0000000000
11
18.9251914540
21
-36.0642365394
31
0.0000000000
11
17.3030513672
21
-35.3188368536
31
0.0000000000
11
1.2165453354
21
-27.6973329615
31
0.0000000000
11
-14.7525232058
21
-19.7127985278
31
0.0000000000
11
-27.5460808227
21
-13.0088488611
31
0.0000000000
0
SPLINE
5
3EE
100
AcDbEntity
8
0
100
AcDbSpline
62
7
6
CONTINUOUS
70
0
71
3
72
8
73
4
74
2
42
0.0000001000
43
0.0000001000
44
0.0000000001
12
-1.3015636911
22
0.6961174899
32
0.0000000000
13
-1.3003627988
23
0.6983571538
33
0.0000000000
40
0.0000000000
40
0.0000000000
40
0.0000000000
40
0.0000000000
40
1.0000000000
40
1.0000000000
40
1.0000000000
40
1.0000000000
10
-27.5460808227
20
-13.0088488611
30
0.0000000000
10
-27.9799353864
20
-12.7768096978
30
0.0000000000
10
-28.4135900413
20
-12.5443969133
30
0.0000000000
10
-28.8470443076
20
-12.3116111954
30
0.0000000000
11
-27.5460808227
21
-13.0088488611
31
0.0000000000
11
-28.8470443076
21
-12.3116111954
31
0.0000000000
0
SPLINE
5
3EF
100
AcDbEntity
8
0
100
AcDbSpline
62
7
6
CONTINUOUS
70
0
71
3
72
10
73
6
74
4
42
0.0000001000
43
0.0000001000
44
0.0000000001
12
-21.7510393265
22
11.6813507207
32
0.0000000000
13
-21.4088384333
23
12.2976107372
33
0.0000000000
40
0.0000000000
40
0.0000000000
40
0.0000000000
40
0.0000000000
40
0.0809379083
40
0.8096085880
40
1.0000000000
40
1.0000000000
40
1.0000000000
40
1.0000000000
10
-28.8470443076
20
-12.3116111954
30
0.0000000000
10
-29.4338721833
20
-11.9964564974
30
0.0000000000
10
-35.3001409969
20
-8.8371785020
30
0.0000000000
10
-42.5004104088
20
-4.8506837727
30
0.0000000000
10
-49.0692500050
20
-1.1009335707
30
0.0000000000
10
-50.4279363315
20
-0.3204804131
30
0.0000000000
11
-28.8470443076
21
-12.3116111954
31
0.0000000000
11
-30.6064248772
21
-11.3640981772
31
0.0000000000
11
-46.3455816823
21
-2.6508309439
31
0.0000000000
11
-50.4279363315
21
-0.3204804131
31
0.0000000000
0
SPLINE
5
3F0
100
AcDbEntity
8
0
100
AcDbSpline
62
7
6
CONTINUOUS
70
0
71
3
72
8
73
4
74
2
42
0.0000001000
43
0.0000001000
44
0.0000000001
12
-10.9745149893
22
6.3039530980
32
0.0000000000
13
-10.8820825277
23
6.4616673729
33
0.0000000000
40
0.0000000000
40
0.0000000000
40
0.0000000000
40
0.0000000000
40
1.0000000000
40
1.0000000000
40
1.0000000000
40
1.0000000000
10
-50.4279363315
20
-0.3204804131
30
0.0000000000
10
-54.0861079946
20
1.7808372863
30
0.0000000000
10
-57.7290285954
20
3.9086942035
30
0.0000000000
10
-61.3563894379
20
6.0625833278
30
0.0000000000
11
-50.4279363315
21
-0.3204804131
31
0.0000000000
11
-61.3563894379
21
6.0625833278
31
0.0000000000
0
SPLINE
5
3F1
100
AcDbEntity
8
0
100
AcDbSpline
62
7
6
CONTINUOUS
70
0
71
3
72
8
73
4
74
2
42
0.0000001000
43
0.0000001000
44
0.0000000001
12
-0.1889915631
22
0.1122212236
32
0.0000000000
13
-0.1889633994
23
0.1122683268
33
0.0000000000
40
0.0000000000
40
0.0000000000
40
0.0000000000
40
0.0000000000
40
1.0000000000
40
1.0000000000
40
1.0000000000
40
1.0000000000
10
-61.3563894379
20
6.0625833278
30
0.0000000000
10
-61.4193866256
20
6.0999904024
30
0.0000000000
10
-61.4823791202
20
6.1374053288
30
0.0000000000
10
-61.5453669200
20
6.1748281044
30
0.0000000000
11
-61.3563894379
21
6.0625833278
31
0.0000000000
11
-61.5453669200
21
6.1748281044
31
0.0000000000
0
SPLINE
5
3F2
100
AcDbEntity
8
0
100
AcDbSpline
62
7
6
CONTINUOUS
70
0
71
3
72
8
73
4
74
2
42
0.0000001000
43
0.0000001000
44
0.0000000001
12
-0.4210368499
22
0.2501495146
32
0.0000000000
13
-0.4208969504
23
0.2503832353
33
0.0000000000
40
0.0000000000
40
0.0000000000
40
0.0000000000
40
0.0000000000
40
1.0000000000
40
1.0000000000
40
1.0000000000
40
1.0000000000
10
-61.5453669200
20
6.1748281044
30
0.0000000000
10
-61.6857125366
20
6.2582112759
30
0.0000000000
10
-61.8260348456
20
6.3416334156
30
0.0000000000
10
-61.9663338291
20
6.4250944940
30
0.0000000000
11
-61.5453669200
21
6.1748281044
31
0.0000000000
11
-61.9663338291
21
6.4250944940
31
0.0000000000
0
SPLINE
5
3F3
100
AcDbEntity
8
0
100
AcDbSpline
62
7
6
CONTINUOUS
70
0
71
3
72
11
73
7
74
5
42
0.0000001000
43
0.0000001000
44
0.0000000001
12
0.0936667431
22
-0.1389513037
32
0.0000000000
13
0.1170418511
23
-0.1199255129
33
0.0000000000
40
0.0000000000
40
0.0000000000
40
0.0000000000
40
0.0000000000
40
0.2753624774
40
0.5432924136
40
0.7892750331
40
1.0000000000
40
1.0000000000
40
1.0000000000
40
1.0000000000
10
49.7198423084
20
-49.3420414513
30
0.0000000000
10
49.7284397439
20
-49.3547954431
30
0.0000000000
10
49.7461944394
20
-49.3794318922
30
0.0000000000
10
49.7738139396
20
-49.4138154093
30
0.0000000000
10
49.8005309971
20
-49.4442366291
30
0.0000000000
10
49.8180524881
20
-49.4627854160
30
0.0000000000
10
49.8262737015
20
-49.4712091826
30
0.0000000000
11
49.7198423084
21
-49.3420414513
31
0.0000000000
11
49.7467602432
21
-49.3795200666
31
0.0000000000
11
49.7748440102
21
-49.4145505086
31
0.0000000000
11
49.8020290299
21
-49.4455356624
31
0.0000000000
11
49.8262737015
21
-49.4712091826
31
0.0000000000
0
SPLINE
5
3F4
100
AcDbEntity
8
0
100
AcDbSpline
62
7
6
CONTINUOUS
70
0
71
3
72
9
73
5
74
3
42
0.0000001000
43
0.0000001000
44
0.0000000001
12
-0.0071103887
22
-0.0034668137
32
0.0000000000
13
-0.0069157758
23
-0.0038403736
33
0.0000000000
40
0.0000000000
40
0.0000000000
40
0.0000000000
40
0.0000000000
40
0.4954356311
40
1.0000000000
40
1.0000000000
40
1.0000000000
40
1.0000000000
10
-46.3660734086
20
2.5597630475
30
0.0000000000
10
-46.3672476552
20
2.5591905199
30
0.0000000000
10
-46.3696019619
20
2.5580022071
30
0.0000000000
10
-46.3719237871
20
2.5567516673
30
0.0000000000
10
-46.3730869384
20
2.5561057621
30
0.0000000000
11
-46.3660734086
21
2.5597630475
31
0.0000000000
11
-46.3695724973
21
2.5579977809
31
0.0000000000
11
-46.3730869384
21
2.5561057621
31
0.0000000000
0
SPLINE
5
3F5
100
AcDbEntity
8
0
100
AcDbSpline
62
7
6
CONTINUOUS
70
0
71
3
72
9
73
5
74
3
42
0.0000001000
43
0.0000001000
44
0.0000000001
12
-0.0497544325
22
0.0310692820
32
0.0000000000
13
0.0025586198
23
0.0572953071
33
0.0000000000
40
0.0000000000
40
0.0000000000
40
0.0000000000
40
0.0000000000
40
0.3494854432
40
1.0000000000
40
1.0000000000
40
1.0000000000
40
1.0000000000
10
-62.4026459210
20
5.5776822032
30
0.0000000000
10
-62.4084420710
20
5.5813016238
30
0.0000000000
10
-62.4226668086
20
5.5960321329
30
0.0000000000
10
-62.4246942518
20
5.6164695102
30
0.0000000000
10
-62.4241394454
20
5.6288933207
30
0.0000000000
11
-62.4026459210
21
5.5776822032
31
0.0000000000
11
-62.4168949700
21
5.5922948581
31
0.0000000000
11
-62.4241394454
21
5.6288933207
31
0.0000000000
0
SPLINE
5
3F6
100
AcDbEntity
8
0
100
AcDbSpline
62
7
6
CONTINUOUS
70
0
71
3
72
13
73
9
74
7
42
0.0000001000
43
0.0000001000
44
0.0000000001
12
-0.4319209501
22
-0.2122750125
32
0.0000000000
13
-0.1810714046
23
-0.4459030550
33
0.0000000000
40
0.0000000000
40
0.0000000000
40
0.0000000000
40
0.0000000000
40
0.1405729633
40
0.3005243747
40
0.4738984954
40
0.6530881487
40
0.8307724939
40
1.0000000000
40
1.0000000000
40
1.0000000000
40
1.0000000000
10
-61.1194143343
20
7.4534282012
30
0.0000000000
10
-61.1396531369
20
7.4434814920
30
0.0000000000
10
-61.1813941350
20
7.4190130866
30
0.0000000000
10
-61.2415063715
20
7.3721420132
30
0.0000000000
10
-61.2996418016
20
7.3137050693
30
0.0000000000
10
-61.3521617251
20
7.2465448196
30
0.0000000000
10
-61.3963822372
20
7.1744620195
30
0.0000000000
10
-61.4201923459
20
7.1240191250
30
0.0000000000
10
-61.4304064333
20
7.0988661044
30
0.0000000000
11
-61.1194143343
21
7.4534282012
31
0.0000000000
11
-61.1779104022
21
7.4194410649
31
0.0000000000
11
-61.2387741114
21
7.3723094648
31
0.0000000000
11
-61.2977558145
21
7.3132906562
31
0.0000000000
11
-61.3509617145
21
7.2454224971
31
0.0000000000
11
-61.3956898349
21
7.1725395464
31
0.0000000000
11
-61.4304064333
21
7.0988661044
31
0.0000000000
0
SPLINE
5
3F7
100
AcDbEntity
8
0
100
AcDbSpline
62
7
6
CONTINUOUS
70
0
71
3
72
9
73
5
74
3
42
0.0000001000
43
0.0000001000
44
0.0000000001
12
-0.0139400057
22
-0.0343507568
32
0.0000000000
13
-0.0131923080
23
-0.0346447870
33
0.0000000000
40
0.0000000000
40
0.0000000000
40
0.0000000000
40
0.0000000000
40
0.4972512106
40
1.0000000000
40
1.0000000000
40
1.0000000000
40
1.0000000000
10
-61.4304064333
20
7.0988661044
30
0.0000000000
10
-61.4327169949
20
7.0931724526
30
0.0000000000
10
-61.4373126940
20
7.0817014970
30
0.0000000000
10
-61.4417997969
20
7.0701873763
30
0.0000000000
10
-61.4440106025
20
7.0643815014
30
0.0000000000
11
-61.4304064333
21
7.0988661044
31
0.0000000000
11
-61.4372605774
21
7.0817538865
31
0.0000000000
11
-61.4440106025
21
7.0643815014
31
0.0000000000
0
SPLINE
5
3F8
100
AcDbEntity
8
0
100
AcDbSpline
62
7
6
CONTINUOUS
70
0
71
3
72
8
73
4
74
2
42
0.0000001000
43
0.0000001000
44
0.0000000001
12
-0.0070557089
22
0.0112843001
32
0.0000000000
13
-0.0066344780
23
0.0115383811
33
0.0000000000
40
0.0000000000
40
0.0000000000
40
0.0000000000
40
0.0000000000
40
1.0000000000
40
1.0000000000
40
1.0000000000
40
1.0000000000
10
-61.4304064333
20
46.6222425325
30
0.0000000000
10
-61.4327583363
20
46.6260039659
30
0.0000000000
10
-61.4350393669
20
46.6298100941
30
0.0000000000
10
-61.4372508596
20
46.6336562211
30
0.0000000000
11
-61.4304064333
21
46.6222425325
31
0.0000000000
11
-61.4372508596
21
46.6336562211
31
0.0000000000
0
SPLINE
5
3F9
100
AcDbEntity
8
0
100
AcDbSpline
62
7
6
CONTINUOUS
70
0
71
3
72
8
73
4
74
2
42
0.0000001000
43
0.0000001000
44
0.0000000001
12
-0.0069939980
22
0.0121636418
32
0.0000000000
13
-0.0065230685
23
0.0124211157
33
0.0000000000
40
0.0000000000
40
0.0000000000
40
0.0000000000
40
0.0000000000
40
1.0000000000
40
1.0000000000
40
1.0000000000
40
1.0000000000
10
-61.4372508596
20
46.6336562211
30
0.0000000000
10
-61.4395821923
20
46.6377107683
30
0.0000000000
10
-61.4418362463
20
46.6418097670
30
0.0000000000
10
-61.4440106025
20
46.6459501389
30
0.0000000000
11
-61.4372508596
21
46.6336562211
31
0.0000000000
11
-61.4440106025
21
46.6459501389
31
0.0000000000
0
SPLINE
5
3FA
100
AcDbEntity
8
0
100
AcDbSpline
62
7
6
CONTINUOUS
70
0
71
3
72
9
73
5
74
3
42
0.0000001000
43
0.0000001000
44
0.0000000001
12
-0.1498720238
22
-0.0748832310
32
0.0000000000
13
-0.1667974079
23
-0.0059927023
33
0.0000000000
40
0.0000000000
40
0.0000000000
40
0.0000000000
40
0.0000000000
40
0.2634833911
40
1.0000000000
40
1.0000000000
40
1.0000000000
40
1.0000000000
10
-3.4418576569
20
-23.6899044031
30
0.0000000000
10
-3.4550205865
20
-23.6964812323
30
0.0000000000
10
-3.5062468199
20
-23.7189538550
30
0.0000000000
10
-3.5617378231
20
-23.7310500804
30
0.0000000000
10
-3.6026875102
20
-23.7325213220
30
0.0000000000
11
-3.4418576569
21
-23.6899044031
31
0.0000000000
11
-3.4823111852
21
-23.7076031922
31
0.0000000000
11
-3.6026875102
21
-23.7325213220
31
0.0000000000
0
SPLINE
5
3FB
100
AcDbEntity
8
0
100
AcDbSpline
62
7
6
CONTINUOUS
70
0
71
3
72
9
73
5
74
3
42
0.0000001000
43
0.0000001000
44
0.0000000001
12
-0.0616571516
22
0.0266980340
32
0.0000000000
13
-0.0030055615
23
0.0665700477
33
0.0000000000
40
0.0000000000
40
0.0000000000
40
0.0000000000
40
0.0000000000
40
0.4043181421
40
1.0000000000
40
1.0000000000
40
1.0000000000
40
1.0000000000
10
50.3391490914
20
-50.7934648544
30
0.0000000000
10
50.3308393898
20
-50.7898666878
30
0.0000000000
10
50.3131197272
20
-50.7734400532
30
0.0000000000
10
50.3087359417
20
-50.7504641825
30
0.0000000000
10
50.3081391555
20
-50.7372459926
30
0.0000000000
11
50.3391490914
21
-50.7934648544
31
0.0000000000
11
50.3186906857
21
-50.7755128907
31
0.0000000000
11
50.3081391555
21
-50.7372459926
31
0.0000000000
0
SPLINE
5
3FC
100
AcDbEntity
8
0
100
AcDbSpline
62
7
6
CONTINUOUS
70
0
71
3
72
9
73
5
74
3
42
0.0000001000
43
0.0000001000
44
0.0000000001
12
0.0004254729
22
-0.0468525009
32
0.0000000000
13
0.0399641662
23
-0.0210483222
33
0.0000000000
40
0.0000000000
40
0.0000000000
40
0.0000000000
40
0.0000000000
40
0.2859307893
40
1.0000000000
40
1.0000000000
40
1.0000000000
40
1.0000000000
10
-63.0360176603
20
48.1764876892
30
0.0000000000
10
-63.0359771083
20
48.1720221651
30
0.0000000000
10
-63.0326508220
20
48.1563703567
30
0.0000000000
10
-63.0186504724
20
48.1471304684
30
0.0000000000
10
-63.0091380789
20
48.1421204821
30
0.0000000000
11
-63.0360176603
21
48.1764876892
31
0.0000000000
11
-63.0332022598
21
48.1635957128
31
0.0000000000
11
-63.0091380789
21
48.1421204821
31
0.0000000000
0
SPLINE
5
3FD
100
AcDbEntity
8
0
100
AcDbSpline
62
7
6
CONTINUOUS
70
0
71
3
72
11
73
7
74
5
42
0.0000001000
43
0.0000001000
44
0.0000000001
12
-0.0195404331
22
0.0425761212
32
0.0000000000
13
-0.0499119590
23
-0.0248663520
33
0.0000000000
40
0.0000000000
40
0.0000000000
40
0.0000000000
40
0.0000000000
40
0.0589471467
40
0.2266400525
40
0.5491947345
40
1.0000000000
40
1.0000000000
40
1.0000000000
40
1.0000000000
10
-30.4048136047
20
-5.8899696051
30
0.0000000000
10
-30.4051975556
20
-5.8891330248
30
0.0000000000
10
-30.4097762691
20
-5.8865614658
30
0.0000000000
10
-30.4194309870
20
-5.8916717929
30
0.0000000000
10
-30.4357518013
20
-5.8968522026
30
0.0000000000
10
-30.4486706406
20
-5.9035777482
30
0.0000000000
10
-30.4561708319
20
-5.9073143757
30
0.0000000000
11
-30.4048136047
21
-5.8899696051
31
0.0000000000
11
-30.4075391124
21
-5.8881119663
31
0.0000000000
11
-30.4166949792
21
-5.8900128013
31
0.0000000000
11
-30.4334416584
21
-5.8965755691
31
0.0000000000
11
-30.4561708319
21
-5.9073143757
31
0.0000000000
0
SPLINE
5
3FE
100
AcDbEntity
8
0
100
AcDbSpline
62
7
6
CONTINUOUS
70
0
71
3
72
11
73
7
74
5
42
0.0000001000
43
0.0000001000
44
0.0000000001
12
0.0482009592
22
0.0239889202
32
0.0000000000
13
0.0251738994
23
-0.0430584636
33
0.0000000000
40
0.0000000000
40
0.0000000000
40
0.0000000000
40
0.0000000000
40
0.4645705024
40
0.8050613832
40
0.9884282404
40
1.0000000000
40
1.0000000000
40
1.0000000000
40
1.0000000000
10
-46.3660734086
20
2.5597630475
30
0.0000000000
10
-46.3586091606
20
2.5634778958
30
0.0000000000
10
-46.3448004582
20
2.5703074211
30
0.0000000000
10
-46.3303645776
20
2.5745189401
30
0.0000000000
10
-46.3179893057
20
2.5803516238
30
0.0000000000
10
-46.3161932141
20
2.5777805316
30
0.0000000000
10
-46.3160961120
20
2.5776144442
30
0.0000000000
11
-46.3660734086
21
2.5597630475
31
0.0000000000
11
-46.3433551424
21
2.5702280481
31
0.0000000000
11
-46.3261869288
21
2.5766562766
31
0.0000000000
11
-46.3164159974
21
2.5780692344
31
0.0000000000
11
-46.3160961120
21
2.5776144442
31
0.0000000000
0
SPLINE
5
3FF
100
AcDbEntity
8
0
100
AcDbSpline
62
7
6
CONTINUOUS
70
0
71
3
72
11
73
7
74
5
42
0.0000001000
43
0.0000001000
44
0.0000000001
12
-0.0195404331
22
0.0425761212
32
0.0000000000
13
-0.0499119590
23
-0.0248663520
33
0.0000000000
40
0.0000000000
40
0.0000000000
40
0.0000000000
40
0.0000000000
40
0.0589471467
40
0.2266400525
40
0.5491947345
40
1.0000000000
40
1.0000000000
40
1.0000000000
40
1.0000000000
10
-14.4949110280
20
-13.8449208934
30
0.0000000000
10
-14.4952949789
20
-13.8440843131
30
0.0000000000
10
-14.4998736924
20
-13.8415127541
30
0.0000000000
10
-14.5095284103
20
-13.8466230812
30
0.0000000000
10
-14.5258492246
20
-13.8518034909
30
0.0000000000
10
-14.5387680639
20
-13.8585290366
30
0.0000000000
10
-14.5462682552
20
-13.8622656640
30
0.0000000000
11
-14.4949110280
21
-13.8449208934
31
0.0000000000
11
-14.4976365357
21
-13.8430632547
31
0.0000000000
11
-14.5067924025
21
-13.8449640897
31
0.0000000000
11
-14.5235390817
21
-13.8515268575
31
0.0000000000
11
-14.5462682552
21
-13.8622656640
31
0.0000000000
0
SPLINE
5
400
100
AcDbEntity
8
0
100
AcDbSpline
62
7
6
CONTINUOUS
70
0
71
3
72
9
73
5
74
3
42
0.0000001000
43
0.0000001000
44
0.0000000001
12
-0.0071103887
22
-0.0034668137
32
0.0000000000
13
-0.0069157758
23
-0.0038403736
33
0.0000000000
40
0.0000000000
40
0.0000000000
40
0.0000000000
40
0.0000000000
40
0.4954356311
40
1.0000000000
40
1.0000000000
40
1.0000000000
40
1.0000000000
10
49.0933420516
20
-45.1699446825
30
0.0000000000
10
49.0921678050
20
-45.1705172102
30
0.0000000000
10
49.0898134983
20
-45.1717055230
30
0.0000000000
10
49.0874916731
20
-45.1729560628
30
0.0000000000
10
49.0863285218
20
-45.1736019680
30
0.0000000000
11
49.0933420516
21
-45.1699446825
31
0.0000000000
11
49.0898429629
21
-45.1717099492
31
0.0000000000
11
49.0863285218
21
-45.1736019680
31
0.0000000000
0
SPLINE
5
401
100
AcDbEntity
8
0
100
AcDbSpline
62
7
6
CONTINUOUS
70
0
71
3
72
15
73
11
74
9
42
0.0000001000
43
0.0000001000
44
0.0000000001
12
-0.3152767957
22
0.6182391140
32
0.0000000000
13
-0.4917436581
23
0.4897011687
33
0.0000000000
40
0.0000000000
40
0.0000000000
40
0.0000000000
40
0.0000000000
40
0.1440212137
40
0.2819663984
40
0.4138546382
40
0.5402304101
40
0.6616153546
40
0.7787240345
40
0.8921639994
40
1.0000000000
40
1.0000000000
40
1.0000000000
40
1.0000000000
10
-61.4440106025
20
46.6459501389
30
0.0000000000
10
-61.4591461181
20
46.6756299881
30
0.0000000000
10
-61.4899336441
20
46.7331552341
30
0.0000000000
10
-61.5381045990
20
46.8159103438
30
0.0000000000
10
-61.5868478226
20
46.8935491874
30
0.0000000000
10
-61.6359731150
20
46.9663677516
30
0.0000000000
10
-61.6855243430
20
47.0347178603
30
0.0000000000
10
-61.7356971724
20
47.0988584681
30
0.0000000000
10
-61.7864486232
20
47.1584874319
30
0.0000000000
10
-61.8215825249
20
47.1957584390
30
0.0000000000
10
-61.8392584147
20
47.2133609109
30
0.0000000000
11
-61.4440106025
21
46.6459501389
31
0.0000000000
11
-61.4911272557
21
46.7340967015
31
0.0000000000
11
-61.5392770231
21
46.8168388813
31
0.0000000000
11
-61.5879551976
21
46.8943499245
31
0.0000000000
11
-61.6370320246
21
46.9670364015
31
0.0000000000
11
-61.6865225943
21
47.0352053497
31
0.0000000000
11
-61.7366614764
21
47.0991680702
31
0.0000000000
11
-61.7878007237
21
47.1590225000
31
0.0000000000
11
-61.8392584147
21
47.2133609109
31
0.0000000000
0
SPLINE
5
402
100
AcDbEntity
8
0
100
AcDbSpline
62
7
6
CONTINUOUS
70
0
71
3
72
21
73
17
74
15
42
0.0000001000
43
0.0000001000
44
0.0000000001
12
113.4397635153
22
-51.9024066186
32
0.0000000000
13
109.7512576651
23
-59.3051532342
33
0.0000000000
40
0.0000000000
40
0.0000000000
40
0.0000000000
40
0.0000000000
40
0.1157356293
40
0.2205111564
40
0.3155465377
40
0.4021520812
40
0.4813727681
40
0.5534234792
40
0.6184333757
40
0.6773973352
40
0.7322901380
40
0.7851814172
40
0.8380443141
40
0.8920411920
40
0.9472670899
40
1.0000000000
40
1.0000000000
40
1.0000000000
40
1.0000000000
10
-61.8392584147
20
47.2133609109
30
0.0000000000
10
-57.4629176105
20
45.2110416810
30
0.0000000000
10
-49.1412374306
20
41.3597008247
30
0.0000000000
10
-37.2778720692
20
35.7529745608
30
0.0000000000
10
-26.5460405438
20
30.5876572541
30
0.0000000000
10
-16.8015143062
20
25.8218624982
30
0.0000000000
10
-7.9401215748
20
21.4261924384
30
0.0000000000
10
0.0966246243
20
17.3892053299
30
0.0000000000
10
7.3642414445
20
13.6978372129
30
0.0000000000
10
13.9822866791
20
10.3032477076
30
0.0000000000
10
20.1405178426
20
7.1164758725
30
0.0000000000
10
26.0630790146
20
4.0263883222
30
0.0000000000
10
31.9425777413
20
0.9343823751
30
0.0000000000
10
37.8977807037
20
-2.2221671920
30
0.0000000000
10
43.8378421509
20
-5.3956635868
30
0.0000000000
10
47.7906745704
20
-7.5237451319
30
0.0000000000
10
49.7198423032
20
-8.5661895690
30
0.0000000000
11
-61.8392584147
21
47.2133609109
31
0.0000000000
11
-48.7362425940
21
41.1498844657
31
0.0000000000
11
-36.9186523225
21
35.5652949520
31
0.0000000000
11
-26.2358570779
21
30.4239389062
31
0.0000000000
11
-16.5303175394
21
25.6774775528
31
0.0000000000
11
-7.6768938060
21
21.2859548084
31
0.0000000000
11
0.3550810172
21
17.2515092077
31
0.0000000000
11
7.5858329154
21
13.5789680747
31
0.0000000000
11
14.1308264559
21
10.2219234185
31
0.0000000000
11
20.2126357860
21
7.0747585194
31
0.0000000000
11
26.0624641396
21
4.0226710946
31
0.0000000000
11
31.8991937561
21
0.9532077305
31
0.0000000000
11
37.8509166399
21
-2.2014430903
31
0.0000000000
11
43.9275031427
21
-5.4478223741
31
0.0000000000
11
49.7198423032
21
-8.5661895690
31
0.0000000000
0
SPLINE
5
403
100
AcDbEntity
8
0
100
AcDbSpline
62
7
6
CONTINUOUS
70
0
71
3
72
11
73
7
74
5
42
0.0000001000
43
0.0000001000
44
0.0000000001
12
-0.0195404331
22
0.0425761212
32
0.0000000000
13
-0.0499119590
23
-0.0248663520
33
0.0000000000
40
0.0000000000
40
0.0000000000
40
0.0000000000
40
0.0000000000
40
0.0589471467
40
0.2266400525
40
0.5491947345
40
1.0000000000
40
1.0000000000
40
1.0000000000
40
1.0000000000
10
1.4149915487
20
-21.7998721818
30
0.0000000000
10
1.4146075978
20
-21.7990356015
30
0.0000000000
10
1.4100288843
20
-21.7964640425
30
0.0000000000
10
1.4003741664
20
-21.8015743696
30
0.0000000000
10
1.3840533521
20
-21.8067547793
30
0.0000000000
10
1.3711345128
20
-21.8134803249
30
0.0000000000
10
1.3636343215
20
-21.8172169524
30
0.0000000000
11
1.4149915487
21
-21.7998721818
31
0.0000000000
11
1.4122660410
21
-21.7980145430
31
0.0000000000
11
1.4031101741
21
-21.7999153780
31
0.0000000000
11
1.3863634950
21
-21.8064781458
31
0.0000000000
11
1.3636343215
21
-21.8172169524
31
0.0000000000
0
SPLINE
5
404
100
AcDbEntity
8
0
100
AcDbSpline
62
7
6
CONTINUOUS
70
0
71
3
72
12
73
8
74
6
42
0.0000001000
43
0.0000001000
44
0.0000000001
12
-0.0910482333
22
0.2274784022
32
0.0000000000
13
-0.0294841029
23
0.2433524309
33
0.0000000000
40
0.0000000000
40
0.0000000000
40
0.0000000000
40
0.0000000000
40
0.0880774098
40
0.3444570636
40
0.5844052819
40
0.8039933258
40
1.0000000000
40
1.0000000000
40
1.0000000000
40
1.0000000000
10
49.7623999207
20
-8.9249266571
30
0.0000000000
10
49.7597268232
20
-8.9182480876
30
0.0000000000
10
49.7494352926
20
-8.8920640321
30
0.0000000000
10
49.7331202158
20
-8.8471969514
30
0.0000000000
10
49.7157033538
20
-8.7913570726
30
0.0000000000
10
49.7026841156
20
-8.7393896145
30
0.0000000000
10
49.6968451842
20
-8.7059158750
30
0.0000000000
10
49.6949188239
20
-8.6900163081
30
0.0000000000
11
49.7623999207
21
-8.9249266571
31
0.0000000000
11
49.7545078950
21
-8.9048405196
31
0.0000000000
11
49.7331368394
21
-8.8457733598
31
0.0000000000
11
49.7157678047
21
-8.7896091410
31
0.0000000000
11
49.7028899589
21
-8.7373728454
31
0.0000000000
11
49.6949188239
21
-8.6900163081
31
0.0000000000
0
SPLINE
5
405
100
AcDbEntity
8
0
100
AcDbSpline
62
7
6
CONTINUOUS
70
0
71
3
72
11
73
7
74
5
42
0.0000001000
43
0.0000001000
44
0.0000000001
12
-0.0157679001
22
0.1301432447
32
0.0000000000
13
0.1043759410
23
0.0792073999
33
0.0000000000
40
0.0000000000
40
0.0000000000
40
0.0000000000
40
0.0000000000
40
0.3179449773
40
0.5853980444
40
0.8072960927
40
1.0000000000
40
1.0000000000
40
1.0000000000
40
1.0000000000
10
49.6949188239
20
-8.6900163081
30
0.0000000000
10
49.6932477157
20
-8.6762235111
30
0.0000000000
10
49.6913173876
20
-8.6506726149
30
0.0000000000
10
49.6936306859
20
-8.6153237440
30
0.0000000000
10
49.7018124130
20
-8.5863480330
30
0.0000000000
10
49.7131377527
20
-8.5712774275
30
0.0000000000
10
49.7198423032
20
-8.5661895690
30
0.0000000000
11
49.6949188239
21
-8.6900163081
31
0.0000000000
11
49.6922151370
21
-8.6484446680
31
0.0000000000
11
49.6950958363
21
-8.6135196209
31
0.0000000000
11
49.7039820996
21
-8.5858361885
31
0.0000000000
11
49.7198423032
21
-8.5661895690
31
0.0000000000
0
SPLINE
5
406
100
AcDbEntity
8
0
100
AcDbSpline
62
7
6
CONTINUOUS
70
0
71
3
72
11
73
7
74
5
42
0.0000001000
43
0.0000001000
44
0.0000000001
12
-0.0195404331
22
0.0425761212
32
0.0000000000
13
-0.0499119590
23
-0.0248663520
33
0.0000000000
40
0.0000000000
40
0.0000000000
40
0.0000000000
40
0.0000000000
40
0.0589471467
40
0.2266400525
40
0.5491947345
40
1.0000000000
40
1.0000000000
40
1.0000000000
40
1.0000000000
10
17.3248941254
20
-29.7548234701
30
0.0000000000
10
17.3245101745
20
-29.7539868898
30
0.0000000000
10
17.3199314610
20
-29.7514153308
30
0.0000000000
10
17.3102767431
20
-29.7565256579
30
0.0000000000
10
17.2939559288
20
-29.7617060676
30
0.0000000000
10
17.2810370895
20
-29.7684316133
30
0.0000000000
10
17.2735368982
20
-29.7721682407
30
0.0000000000
11
17.3248941254
21
-29.7548234701
31
0.0000000000
11
17.3221686177
21
-29.7529658314
31
0.0000000000
11
17.3130127508
21
-29.7548666664
31
0.0000000000
11
17.2962660717
21
-29.7614294342
31
0.0000000000
11
17.2735368982
21
-29.7721682407
31
0.0000000000
0
SPLINE
5
407
100
AcDbEntity
8
0
100
AcDbSpline
62
7
6
CONTINUOUS
70
0
71
3
72
9
73
5
74
3
42
0.0000001000
43
0.0000001000
44
0.0000000001
12
-0.0071103887
22
-0.0034668137
32
0.0000000000
13
-0.0069157758
23
-0.0038403736
33
0.0000000000
40
0.0000000000
40
0.0000000000
40
0.0000000000
40
0.0000000000
40
0.4954353307
40
1.0000000000
40
1.0000000000
40
1.0000000000
40
1.0000000000
10
-30.4561708319
20
-5.4817907812
30
0.0000000000
10
-30.4573450778
20
-5.4823633085
30
0.0000000000
10
-30.4596993845
20
-5.4835516212
30
0.0000000000
10
-30.4620212097
20
-5.4848021610
30
0.0000000000
10
-30.4631843617
20
-5.4854480666
30
0.0000000000
11
-30.4561708319
21
-5.4817907812
31
0.0000000000
11
-30.4596699184
21
-5.4835560467
31
0.0000000000
11
-30.4631843617
21
-5.4854480666
31
0.0000000000
0
SPLINE
5
408
100
AcDbEntity
8
0
100
AcDbSpline
62
7
6
CONTINUOUS
70
0
71
3
72
11
73
7
74
5
42
0.0000001000
43
0.0000001000
44
0.0000000001
12
-0.0195404331
22
0.0425761212
32
0.0000000000
13
-0.0499119590
23
-0.0248663520
33
0.0000000000
40
0.0000000000
40
0.0000000000
40
0.0000000000
40
0.0000000000
40
0.0589471467
40
0.2266400525
40
0.5491947345
40
1.0000000000
40
1.0000000000
40
1.0000000000
40
1.0000000000
10
33.2347967021
20
-37.7097747585
30
0.0000000000
10
33.2344127512
20
-37.7089381782
30
0.0000000000
10
33.2298340377
20
-37.7063666192
30
0.0000000000
10
33.2201793198
20
-37.7114769463
30
0.0000000000
10
33.2038585055
20
-37.7166573560
30
0.0000000000
10
33.1909396662
20
-37.7233829016
30
0.0000000000
10
33.1834394749
20
-37.7271195291
30
0.0000000000
11
33.2347967021
21
-37.7097747585
31
0.0000000000
11
33.2320711944
21
-37.7079171197
31
0.0000000000
11
33.2229153275
21
-37.7098179547
31
0.0000000000
11
33.2061686484
21
-37.7163807225
31
0.0000000000
11
33.1834394749
21
-37.7271195291
31
0.0000000000
0
SPLINE
5
409
100
AcDbEntity
8
0
100
AcDbSpline
62
7
6
CONTINUOUS
70
0
71
3
72
11
73
7
74
5
42
0.0000001000
43
0.0000001000
44
0.0000000001
12
0.0481999906
22
0.0239892823
32
0.0000000000
13
0.0252175720
23
-0.0430748496
33
0.0000000000
40
0.0000000000
40
0.0000000000
40
0.0000000000
40
0.0000000000
40
0.4644562302
40
0.8049366114
40
0.9883797280
40
1.0000000000
40
1.0000000000
40
1.0000000000
40
1.0000000000
10
-30.4561708319
20
-5.4817907812
30
0.0000000000
10
-30.4487085699
20
-5.4780767906
30
0.0000000000
10
-30.4349037723
20
-5.4712482046
30
0.0000000000
10
-30.4204643225
20
-5.4670377117
30
0.0000000000
10
-30.4080931448
20
-5.4612005238
30
0.0000000000
10
-30.4062927106
20
-5.4637736754
30
0.0000000000
10
-30.4061950322
20
-5.4639405225
30
0.0000000000
11
-30.4561708319
21
-5.4817907812
31
0.0000000000
11
-30.4334585307
21
-5.4713283201
31
0.0000000000
11
-30.4162913540
21
-5.4648996197
31
0.0000000000
11
-30.4065168222
21
-5.4634837777
31
0.0000000000
11
-30.4061950322
21
-5.4639405225
31
0.0000000000
0
SPLINE
5
40A
100
AcDbEntity
8
0
100
AcDbSpline
62
7
6
CONTINUOUS
70
0
71
3
72
14
73
10
74
8
42
0.0000001000
43
0.0000001000
44
0.0000000001
12
0.4970332130
22
0.2501172142
32
0.0000000000
13
-0.4951713382
23
0.2475856691
33
0.0000000000
40
0.0000000000
40
0.0000000000
40
0.0000000000
40
0.0000000000
40
0.1220884508
40
0.2760610852
40
0.4317582974
40
0.5890578128
40
0.7423590502
40
0.8806967392
40
1.0000000000
40
1.0000000000
40
1.0000000000
40
1.0000000000
10
-3.5694749926
20
-23.3322513217
30
0.0000000000
10
-3.5492476542
20
-23.3220725140
30
0.0000000000
10
-3.5081079665
20
-23.2899037562
30
0.0000000000
10
-3.4645214101
20
-23.2215884698
30
0.0000000000
10
-3.4405335403
20
-23.1377492507
30
0.0000000000
10
-3.4389290783
20
-23.0507314969
30
0.0000000000
10
-3.4601967998
20
-22.9693787533
30
0.0000000000
10
-3.5011274004
20
-22.9041919963
30
0.0000000000
10
-3.5389998820
20
-22.8733859165
30
0.0000000000
10
-3.5586917338
20
-22.8635399906
30
0.0000000000
11
-3.5694749926
21
-23.3322513217
31
0.0000000000
11
-3.5154550916
21
-23.2913677077
31
0.0000000000
11
-3.4684913884
21
-23.2202296517
31
0.0000000000
11
-3.4443279085
21
-23.1374889642
31
0.0000000000
11
-3.4429632922
21
-23.0504157528
31
0.0000000000
11
-3.4651144249
21
-22.9684870683
31
0.0000000000
11
-3.5065437400
21
-22.9040737826
31
0.0000000000
11
-3.5586917338
21
-22.8635399906
31
0.0000000000
0
SPLINE
5
40B
100
AcDbEntity
8
0
100
AcDbSpline
62
7
6
CONTINUOUS
70
0
71
3
72
11
73
7
74
5
42
0.0000001000
43
0.0000001000
44
0.0000000001
12
0.0482009592
22
0.0239889202
32
0.0000000000
13
0.0251738994
23
-0.0430584636
33
0.0000000000
40
0.0000000000
40
0.0000000000
40
0.0000000000
40
0.0000000000
40
0.4645705024
40
0.8050613832
40
0.9884282404
40
1.0000000000
40
1.0000000000
40
1.0000000000
40
1.0000000000
10
49.0933420516
20
-45.1699446825
30
0.0000000000
10
49.1008062995
20
-45.1662298343
30
0.0000000000
10
49.1146150020
20
-45.1594003089
30
0.0000000000
10
49.1290508826
20
-45.1551887900
30
0.0000000000
10
49.1414261545
20
-45.1493561063
30
0.0000000000
10
49.1432222461
20
-45.1519271985
30
0.0000000000
10
49.1433193482
20
-45.1520932859
30
0.0000000000
11
49.0933420516
21
-45.1699446825
31
0.0000000000
11
49.1160603177
21
-45.1594796820
31
0.0000000000
11
49.1332285314
21
-45.1530514535
31
0.0000000000
11
49.1429994628
21
-45.1516384957
31
0.0000000000
11
49.1433193482
21
-45.1520932859
31
0.0000000000
0
SPLINE
5
40C
100
AcDbEntity
8
0
100
AcDbSpline
62
7
6
CONTINUOUS
70
0
71
3
72
10
73
6
74
4
42
0.0000001000
43
0.0000001000
44
0.0000000001
12
0.3809523719
22
0.2345535715
32
0.0000000000
13
0.4049700480
23
-0.1819913881
33
0.0000000000
40
0.0000000000
40
0.0000000000
40
0.0000000000
40
0.0000000000
40
0.2400796622
40
0.5968862660
40
1.0000000000
40
1.0000000000
40
1.0000000000
40
1.0000000000
10
-62.7876271405
20
48.7295741178
30
0.0000000000
10
-62.7571408349
20
48.7483446319
30
0.0000000000
10
-62.6744206814
20
48.7840340453
30
0.0000000000
10
-62.5228303017
20
48.7898693905
30
0.0000000000
10
-62.4137314898
20
48.7556277236
30
0.0000000000
10
-62.3593151604
20
48.7311733143
30
0.0000000000
11
-62.7876271405
21
48.7295741178
31
0.0000000000
11
-62.6893416614
21
48.7718442514
31
0.0000000000
11
-62.5311943378
21
48.7810726506
31
0.0000000000
11
-62.3593151604
21
48.7311733143
31
0.0000000000
0
SPLINE
5
40D
100
AcDbEntity
8
0
100
AcDbSpline
62
7
6
CONTINUOUS
70
0
71
3
72
9
73
5
74
3
42
0.0000001000
43
0.0000001000
44
0.0000000001
12
0.0003362950
22
-0.0469136085
32
0.0000000000
13
0.0400171538
23
-0.0210762037
33
0.0000000000
40
0.0000000000
40
0.0000000000
40
0.0000000000
40
0.0000000000
40
0.2868204079
40
1.0000000000
40
1.0000000000
40
1.0000000000
40
1.0000000000
10
-63.0360181627
20
6.7475193638
30
0.0000000000
10
-63.0359860106
20
6.7430341037
30
0.0000000000
10
-63.0326704754
20
6.7273531628
30
0.0000000000
10
-63.0186512180
20
6.7181004875
30
0.0000000000
10
-63.0091380789
20
6.7130901148
30
0.0000000000
11
-63.0360181627
21
6.7475193638
31
0.0000000000
11
-63.0332035325
21
6.7345677033
31
0.0000000000
11
-63.0091380789
21
6.7130901148
31
0.0000000000
0
SPLINE
5
40E
100
AcDbEntity
8
0
100
AcDbSpline
62
7
6
CONTINUOUS
70
0
71
3
72
9
73
5
74
3
42
0.0000001000
43
0.0000001000
44
0.0000000001
12
-0.0071103887
22
-0.0034668137
32
0.0000000000
13
-0.0069157758
23
-0.0038403736
33
0.0000000000
40
0.0000000000
40
0.0000000000
40
0.0000000000
40
0.0000000000
40
0.4954353307
40
1.0000000000
40
1.0000000000
40
1.0000000000
40
1.0000000000
10
-14.5462682552
20
-13.4367420695
30
0.0000000000
10
-14.5474425011
20
-13.4373145969
30
0.0000000000
10
-14.5497968078
20
-13.4385029096
30
0.0000000000
10
-14.5521186330
20
-13.4397534494
30
0.0000000000
10
-14.5532817850
20
-13.4403993550
30
0.0000000000
11
-14.5462682552
21
-13.4367420695
31
0.0000000000
11
-14.5497673418
21
-13.4385073351
31
0.0000000000
11
-14.5532817850
21
-13.4403993550
31
0.0000000000
0
SPLINE
5
40F
100
AcDbEntity
8
0
100
AcDbSpline
62
7
6
CONTINUOUS
70
0
71
3
72
11
73
7
74
5
42
0.0000001000
43
0.0000001000
44
0.0000000001
12
0.0481999906
22
0.0239892823
32
0.0000000000
13
0.0252175720
23
-0.0430748496
33
0.0000000000
40
0.0000000000
40
0.0000000000
40
0.0000000000
40
0.0000000000
40
0.4644562302
40
0.8049366114
40
0.9883797280
40
1.0000000000
40
1.0000000000
40
1.0000000000
40
1.0000000000
10
-14.5462682552
20
-13.4367420695
30
0.0000000000
10
-14.5388059932
20
-13.4330280790
30
0.0000000000
10
-14.5250011956
20
-13.4261994930
30
0.0000000000
10
-14.5105617458
20
-13.4219890000
30
0.0000000000
10
-14.4981905681
20
-13.4161518121
30
0.0000000000
10
-14.4963901339
20
-13.4187249637
30
0.0000000000
10
-14.4962924555
20
-13.4188918109
30
0.0000000000
11
-14.5462682552
21
-13.4367420695
31
0.0000000000
11
-14.5235559540
21
-13.4262796084
31
0.0000000000
11
-14.5063887773
21
-13.4198509081
31
0.0000000000
11
-14.4966142455
21
-13.4184350660
31
0.0000000000
11
-14.4962924555
21
-13.4188918109
31
0.0000000000
0
SPLINE
5
410
100
AcDbEntity
8
0
100
AcDbSpline
62
7
6
CONTINUOUS
70
0
71
3
72
9
73
5
74
3
42
0.0000001000
43
0.0000001000
44
0.0000000001
12
-0.1618156681
22
-0.0629840701
32
0.0000000000
13
-0.1746132928
23
0.0046308491
33
0.0000000000
40
0.0000000000
40
0.0000000000
40
0.0000000000
40
0.0000000000
40
0.7653092335
40
1.0000000000
40
1.0000000000
40
1.0000000000
40
1.0000000000
10
-61.2606418775
20
46.4338025058
30
0.0000000000
10
-61.3019215525
20
46.4177350756
30
0.0000000000
10
-61.3588365841
20
46.4030299087
30
0.0000000000
10
-61.4171626975
20
46.4012474738
30
0.0000000000
10
-61.4308227400
20
46.4016097463
30
0.0000000000
11
-61.2606418775
21
46.4338025058
31
0.0000000000
11
-61.3898632190
21
46.4027958968
31
0.0000000000
11
-61.4308227400
21
46.4016097463
31
0.0000000000
0
SPLINE
5
411
100
AcDbEntity
8
0
100
AcDbSpline
62
7
6
CONTINUOUS
70
0
71
3
72
10
73
6
74
4
42
0.0000001000
43
0.0000001000
44
0.0000000001
12
-0.3098052427
22
0.0082162206
32
0.0000000000
13
-0.1617733809
23
0.2621890490
33
0.0000000000
40
0.0000000000
40
0.0000000000
40
0.0000000000
40
0.0000000000
40
0.2539911220
40
0.6203002700
40
1.0000000000
40
1.0000000000
40
1.0000000000
40
1.0000000000
10
-61.4308227400
20
46.4016097463
30
0.0000000000
10
-61.4570520004
20
46.4023053620
30
0.0000000000
10
-61.5208522823
20
46.4110329252
30
0.0000000000
10
-61.6154590886
20
46.4574601195
30
0.0000000000
10
-61.6670524948
20
46.5168870511
30
0.0000000000
10
-61.6875275978
20
46.5500714214
30
0.0000000000
11
-61.4308227400
21
46.4016097463
31
0.0000000000
11
-61.5084422410
21
46.4128177939
31
0.0000000000
11
-61.6096150704
21
46.4628158853
31
0.0000000000
11
-61.6875275978
21
46.5500714214
31
0.0000000000
0
SPLINE
5
412
100
AcDbEntity
8
0
100
AcDbSpline
62
7
6
CONTINUOUS
70
0
71
3
72
9
73
5
74
3
42
0.0000001000
43
0.0000001000
44
0.0000000001
12
-0.0071103887
22
-0.0034668137
32
0.0000000000
13
-0.0069157758
23
-0.0038403736
33
0.0000000000
40
0.0000000000
40
0.0000000000
40
0.0000000000
40
0.0000000000
40
0.4954353307
40
1.0000000000
40
1.0000000000
40
1.0000000000
40
1.0000000000
10
1.3636343215
20
-21.3916933579
30
0.0000000000
10
1.3624600756
20
-21.3922658852
30
0.0000000000
10
1.3601057689
20
-21.3934541979
30
0.0000000000
10
1.3577839437
20
-21.3947047377
30
0.0000000000
10
1.3566207917
20
-21.3953506433
30
0.0000000000
11
1.3636343215
21
-21.3916933579
31
0.0000000000
11
1.3601352349
21
-21.3934586234
31
0.0000000000
11
1.3566207917
21
-21.3953506433
31
0.0000000000
0
SPLINE
5
413
100
AcDbEntity
8
0
100
AcDbSpline
62
7
6
CONTINUOUS
70
0
71
3
72
11
73
7
74
5
42
0.0000001000
43
0.0000001000
44
0.0000000001
12
0.0481999906
22
0.0239892823
32
0.0000000000
13
0.0252175720
23
-0.0430748496
33
0.0000000000
40
0.0000000000
40
0.0000000000
40
0.0000000000
40
0.0000000000
40
0.4644562302
40
0.8049366114
40
0.9883797280
40
1.0000000000
40
1.0000000000
40
1.0000000000
40
1.0000000000
10
1.3636343215
20
-21.3916933579
30
0.0000000000
10
1.3710965835
20
-21.3879793673
30
0.0000000000
10
1.3849013811
20
-21.3811507813
30
0.0000000000
10
1.3993408309
20
-21.3769402884
30
0.0000000000
10
1.4117120086
20
-21.3711031005
30
0.0000000000
10
1.4135124428
20
-21.3736762521
30
0.0000000000
10
1.4136101212
20
-21.3738430992
30
0.0000000000
11
1.3636343215
21
-21.3916933579
31
0.0000000000
11
1.3863466227
21
-21.3812308968
31
0.0000000000
11
1.4035137994
21
-21.3748021964
31
0.0000000000
11
1.4132883312
21
-21.3733863544
31
0.0000000000
11
1.4136101212
21
-21.3738430992
31
0.0000000000
0
SPLINE
5
414
100
AcDbEntity
8
0
100
AcDbSpline
62
7
6
CONTINUOUS
70
0
71
3
72
14
73
10
74
8
42
0.0000001000
43
0.0000001000
44
0.0000000001
12
0.4952221695
22
-0.2476110848
32
0.0000000000
13
-0.4970355939
23
-0.2498361339
33
0.0000000000
40
0.0000000000
40
0.0000000000
40
0.0000000000
40
0.0000000000
40
0.1268033478
40
0.2694201892
40
0.4212917537
40
0.5822736155
40
0.7377950927
40
0.8858400068
40
1.0000000000
40
1.0000000000
40
1.0000000000
40
1.0000000000
10
-3.4806710793
20
-22.8245297132
30
0.0000000000
10
-3.4597391363
20
-22.8349956847
30
0.0000000000
10
-3.4204387671
20
-22.8678206421
30
0.0000000000
10
-3.3799534613
20
-22.9355873248
30
0.0000000000
10
-3.3601753098
20
-23.0185170128
30
0.0000000000
10
-3.3635381623
20
-23.1059331572
30
0.0000000000
10
-3.3894882417
20
-23.1887447839
30
0.0000000000
10
-3.4332172937
20
-23.2537952675
30
0.0000000000
10
-3.4725615987
20
-23.2837493725
30
0.0000000000
10
-3.4914754587
20
-23.2932564696
30
0.0000000000
11
-3.4806710793
21
-22.8245297132
31
0.0000000000
11
-3.4257159028
21
-22.8682226617
31
0.0000000000
11
-3.3844809113
21
-22.9355642960
31
0.0000000000
11
-3.3643016246
21
-23.0171946069
31
0.0000000000
11
-3.3675633516
21
-23.1062665736
31
0.0000000000
11
-3.3937958737
21
-23.1882818723
31
0.0000000000
11
-3.4405567475
21
-23.2556042672
31
0.0000000000
11
-3.4914754587
21
-23.2932564696
31
0.0000000000
0
SPLINE
5
415
100
AcDbEntity
8
0
100
AcDbSpline
62
7
6
CONTINUOUS
70
0
71
3
72
8
73
4
74
2
42
0.0000001000
43
0.0000001000
44
0.0000000001
12
0.0480574021
22
0.0017266078
32
0.0000000000
13
0.0476100049
23
0.0082445930
33
0.0000000000
40
0.0000000000
40
0.0000000000
40
0.0000000000
40
0.0000000000
40
1.0000000000
40
1.0000000000
40
1.0000000000
40
1.0000000000
10
-3.5246669093
20
-23.6935110215
30
0.0000000000
10
-3.5086477753
20
-23.6929354856
30
0.0000000000
10
-3.4926388338
20
-23.6912207871
30
0.0000000000
10
-3.4767688322
20
-23.6884725894
30
0.0000000000
11
-3.5246669093
21
-23.6935110215
31
0.0000000000
11
-3.4767688322
21
-23.6884725894
31
0.0000000000
0
SPLINE
5
416
100
AcDbEntity
8
0
100
AcDbSpline
62
7
6
CONTINUOUS
70
0
71
3
72
9
73
5
74
3
42
0.0000001000
43
0.0000001000
44
0.0000000001
12
-0.0071103887
22
-0.0034668137
32
0.0000000000
13
-0.0069157758
23
-0.0038403736
33
0.0000000000
40
0.0000000000
40
0.0000000000
40
0.0000000000
40
0.0000000000
40
0.4954353307
40
1.0000000000
40
1.0000000000
40
1.0000000000
40
1.0000000000
10
17.2735368982
20
-29.3466446462
30
0.0000000000
10
17.2723626523
20
-29.3472171736
30
0.0000000000
10
17.2700083456
20
-29.3484054863
30
0.0000000000
10
17.2676865204
20
-29.3496560261
30
0.0000000000
10
17.2665233684
20
-29.3503019317
30
0.0000000000
11
17.2735368982
21
-29.3466446462
31
0.0000000000
11
17.2700378116
21
-29.3484099118
31
0.0000000000
11
17.2665233684
21
-29.3503019317
31
0.0000000000
0
SPLINE
5
417
100
AcDbEntity
8
0
100
AcDbSpline
62
7
6
CONTINUOUS
70
0
71
3
72
11
73
7
74
5
42
0.0000001000
43
0.0000001000
44
0.0000000001
12
0.0481999906
22
0.0239892823
32
0.0000000000
13
0.0252175720
23
-0.0430748496
33
0.0000000000
40
0.0000000000
40
0.0000000000
40
0.0000000000
40
0.0000000000
40
0.4644562302
40
0.8049366114
40
0.9883797280
40
1.0000000000
40
1.0000000000
40
1.0000000000
40
1.0000000000
10
17.2735368982
20
-29.3466446462
30
0.0000000000
10
17.2809991602
20
-29.3429306557
30
0.0000000000
10
17.2948039578
20
-29.3361020697
30
0.0000000000
10
17.3092434076
20
-29.3318915767
30
0.0000000000
10
17.3216145853
20
-29.3260543888
30
0.0000000000
10
17.3234150195
20
-29.3286275404
30
0.0000000000
10
17.3235126979
20
-29.3287943876
30
0.0000000000
11
17.2735368982
21
-29.3466446462
31
0.0000000000
11
17.2962491993
21
-29.3361821851
31
0.0000000000
11
17.3134163761
21
-29.3297534848
31
0.0000000000
11
17.3231909079
21
-29.3283376427
31
0.0000000000
11
17.3235126979
21
-29.3287943876
31
0.0000000000
0
SPLINE
5
418
100
AcDbEntity
8
0
100
AcDbSpline
62
7
6
CONTINUOUS
70
0
71
3
72
9
73
5
74
3
42
0.0000001000
43
0.0000001000
44
0.0000000001
12
-0.0071103887
22
-0.0034668137
32
0.0000000000
13
-0.0069157758
23
-0.0038403736
33
0.0000000000
40
0.0000000000
40
0.0000000000
40
0.0000000000
40
0.0000000000
40
0.4954353307
40
1.0000000000
40
1.0000000000
40
1.0000000000
40
1.0000000000
10
33.1834394749
20
-37.3015959346
30
0.0000000000
10
33.1822652290
20
-37.3021684619
30
0.0000000000
10
33.1799109223
20
-37.3033567746
30
0.0000000000
10
33.1775890971
20
-37.3046073144
30
0.0000000000
10
33.1764259451
20
-37.3052532200
30
0.0000000000
11
33.1834394749
21
-37.3015959346
31
0.0000000000
11
33.1799403883
21
-37.3033612001
31
0.0000000000
11
33.1764259451
21
-37.3052532200
31
0.0000000000
0
SPLINE
5
419
100
AcDbEntity
8
0
100
AcDbSpline
62
7
6
CONTINUOUS
70
0
71
3
72
11
73
7
74
5
42
0.0000001000
43
0.0000001000
44
0.0000000001
12
0.0481999906
22
0.0239892823
32
0.0000000000
13
0.0252175720
23
-0.0430748496
33
0.0000000000
40
0.0000000000
40
0.0000000000
40
0.0000000000
40
0.0000000000
40
0.4644562302
40
0.8049366114
40
0.9883797280
40
1.0000000000
40
1.0000000000
40
1.0000000000
40
1.0000000000
10
33.1834394749
20
-37.3015959346
30
0.0000000000
10
33.1909017369
20
-37.2978819440
30
0.0000000000
10
33.2047065345
20
-37.2910533580
30
0.0000000000
10
33.2191459843
20
-37.2868428651
30
0.0000000000
10
33.2315171620
20
-37.2810056772
30
0.0000000000
10
33.2333175962
20
-37.2835788288
30
0.0000000000
10
33.2334152746
20
-37.2837456759
30
0.0000000000
11
33.1834394749
21
-37.3015959346
31
0.0000000000
11
33.2061517760
21
-37.2911334735
31
0.0000000000
11
33.2233189528
21
-37.2847047731
31
0.0000000000
11
33.2330934846
21
-37.2832889311
31
0.0000000000
11
33.2334152746
21
-37.2837456759
31
0.0000000000
0
SPLINE
5
41A
100
AcDbEntity
8
0
100
AcDbSpline
62
7
6
CONTINUOUS
70
0
71
3
72
11
73
7
74
5
42
0.0000001000
43
0.0000001000
44
0.0000000001
12
-0.0195412789
22
0.0425755242
32
0.0000000000
13
-0.0499119373
23
-0.0248663412
33
0.0000000000
40
0.0000000000
40
0.0000000000
40
0.0000000000
40
0.0000000000
40
0.0589486857
40
0.2266399199
40
0.5491652463
40
1.0000000000
40
1.0000000000
40
1.0000000000
40
1.0000000000
10
-46.3147161893
20
2.0649816785
30
0.0000000000
10
-46.3151001668
20
2.0658182689
30
0.0000000000
10
-46.3196789201
20
2.0683897790
30
0.0000000000
10
-46.3293330650
20
2.0632797493
30
0.0000000000
10
-46.3456539037
20
2.0580993401
30
0.0000000000
10
-46.3585727299
20
2.0513737829
30
0.0000000000
10
-46.3660734086
20
2.0476369127
30
0.0000000000
11
-46.3147161893
21
2.0649816785
31
0.0000000000
11
-46.3174418013
21
2.0668393248
31
0.0000000000
11
-46.3265975675
21
2.0649384833
31
0.0000000000
11
-46.3433427390
21
2.0583763761
31
0.0000000000
11
-46.3660734086
21
2.0476369127
31
0.0000000000
0
SPLINE
5
41B
100
AcDbEntity
8
0
100
AcDbSpline
62
7
6
CONTINUOUS
70
0
71
3
72
13
73
9
74
7
42
0.0000001000
43
0.0000001000
44
0.0000000001
12
-0.5974967999
22
-0.3054728071
32
0.0000000000
13
-0.2473744019
23
-0.6237964148
33
0.0000000000
40
0.0000000000
40
0.0000000000
40
0.0000000000
40
0.0000000000
40
0.1396772424
40
0.2992024712
40
0.4725579158
40
0.6519919848
40
0.8301360451
40
1.0000000000
40
1.0000000000
40
1.0000000000
40
1.0000000000
10
-61.2606418775
20
7.6970096820
30
0.0000000000
10
-61.2884607793
20
7.6827871489
30
0.0000000000
10
-61.3458517821
20
7.6478895357
30
0.0000000000
10
-61.4283856042
20
7.5814027928
30
0.0000000000
10
-61.5081848772
20
7.4987546254
30
0.0000000000
10
-61.5802381121
20
7.4040165919
30
0.0000000000
10
-61.6408808113
20
7.3025507988
30
0.0000000000
10
-61.6735209331
20
7.2316913127
30
0.0000000000
10
-61.6875275978
20
7.1963711373
30
0.0000000000
11
-61.2606418775
21
7.6970096820
31
0.0000000000
11
-61.3409257492
21
7.6486356636
31
0.0000000000
11
-61.4245259070
21
7.5817716881
31
0.0000000000
11
-61.5055299639
21
7.4982774327
31
0.0000000000
11
-61.5785461530
21
7.4025315423
31
0.0000000000
11
-61.6399010393
21
7.2999328287
31
0.0000000000
11
-61.6875275978
21
7.1963711373
31
0.0000000000
0
SPLINE
5
41C
100
AcDbEntity
8
0
100
AcDbSpline
62
7
6
CONTINUOUS
70
0
71
3
72
8
73
4
74
2
42
0.0000001000
43
0.0000001000
44
0.0000000001
12
0.9976236871
22
-0.5363462400
32
0.0000000000
13
0.9978603354
23
-0.5359086570
33
0.0000000000
40
0.0000000000
40
0.0000000000
40
0.0000000000
40
0.0000000000
40
1.0000000000
40
1.0000000000
40
1.0000000000
40
1.0000000000
10
-73.3721905516
20
73.4184974964
30
0.0000000000
10
-73.0396493226
20
73.2397154164
30
0.0000000000
10
-72.7070686155
20
73.0610062918
30
0.0000000000
10
-72.3744485037
20
72.8823700728
30
0.0000000000
11
-73.3721905516
21
73.4184974964
31
0.0000000000
11
-72.3744485037
21
72.8823700728
31
0.0000000000
0
SPLINE
5
41D
100
AcDbEntity
8
0
100
AcDbSpline
62
7
6
CONTINUOUS
70
0
71
3
72
10
73
6
74
4
42
0.0000001000
43
0.0000001000
44
0.0000000001
12
139.7126241335
22
-75.0337518244
32
0.0000000000
13
143.7994563278
23
-66.8680661417
33
0.0000000000
40
0.0000000000
40
0.0000000000
40
0.0000000000
40
0.0000000000
40
0.3236941466
40
0.6594317360
40
1.0000000000
40
1.0000000000
40
1.0000000000
40
1.0000000000
10
-72.3744485037
20
72.8823700728
30
0.0000000000
10
-57.2997289593
20
64.7863746527
30
0.0000000000
10
-26.4245301379
20
48.5982307756
30
0.0000000000
10
20.8627334539
20
24.9628795874
30
0.0000000000
10
53.1425031781
20
9.5899424982
30
0.0000000000
10
69.4670135793
20
1.9988954309
30
0.0000000000
11
-72.3744485037
21
72.8823700728
31
0.0000000000
11
-26.9143168704
21
49.0389922943
31
0.0000000000
11
20.7080187747
21
25.2278244717
31
0.0000000000
11
69.4670135793
21
1.9988954309
31
0.0000000000
0
SPLINE
5
41E
100
AcDbEntity
8
0
100
AcDbSpline
62
7
6
CONTINUOUS
70
0
71
3
72
8
73
4
74
2
42
0.0000001000
43
0.0000001000
44
0.0000000001
12
0.0851023579
22
-0.0312235781
32
0.0000000000
13
0.0885673109
23
-0.0205832350
33
0.0000000000
40
0.0000000000
40
0.0000000000
40
0.0000000000
40
0.0000000000
40
1.0000000000
40
1.0000000000
40
1.0000000000
40
1.0000000000
10
51.1140657086
20
-50.6742191175
30
0.0000000000
10
51.1424331613
20
-50.6846269769
30
0.0000000000
10
51.1714881166
20
-50.6934763431
30
0.0000000000
10
51.2010105535
20
-50.7003374214
30
0.0000000000
11
51.1140657086
21
-50.6742191175
31
0.0000000000
11
51.2010105535
21
-50.7003374214
31
0.0000000000
0
SPLINE
5
41F
100
AcDbEntity
8
0
100
AcDbSpline
62
7
6
CONTINUOUS
70
0
71
3
72
10
73
6
74
4
42
0.0000001000
43
0.0000001000
44
0.0000000001
12
0.0000000000
22
-1.2755184173
32
0.0000000000
13
-1.1946305863
23
-0.4680030511
33
0.0000000000
40
0.0000000000
40
0.0000000000
40
0.0000000000
40
0.0000000000
40
0.3748760195
40
0.7027292833
40
1.0000000000
40
1.0000000000
40
1.0000000000
40
1.0000000000
10
70.8578058031
20
-70.4463040881
30
0.0000000000
10
70.8578058031
20
-70.6056911771
30
0.0000000000
10
70.8217977400
20
-70.9070915934
30
0.0000000000
10
70.6262742740
20
-71.2982373634
30
0.0000000000
10
70.4018142829
20
-71.4615121655
30
0.0000000000
10
70.2834380528
20
-71.5078866997
30
0.0000000000
11
70.8578058031
21
-70.4463040881
31
0.0000000000
11
70.7905344864
21
-70.9197095879
31
0.0000000000
11
70.5921743464
21
-71.2878538161
31
0.0000000000
11
70.2834380528
21
-71.5078866997
31
0.0000000000
0
SPLINE
5
420
100
AcDbEntity
8
0
100
AcDbSpline
62
7
6
CONTINUOUS
70
0
71
3
72
12
73
8
74
6
42
0.0000001000
43
0.0000001000
44
0.0000000001
12
2.5370243908
22
-1.1797396117
32
0.0000000000
13
0.0000000000
23
-2.7979060583
33
0.0000000000
40
0.0000000000
40
0.0000000000
40
0.0000000000
40
0.0000000000
40
0.1829076570
40
0.3862860557
40
0.5971889546
40
0.8069657853
40
1.0000000000
40
1.0000000000
40
1.0000000000
40
1.0000000000
10
69.4670135793
20
1.9988954309
30
0.0000000000
10
69.6216939750
20
1.9269676282
30
0.0000000000
10
69.9247662377
20
1.7229306421
30
0.0000000000
10
70.3053274551
20
1.3111083788
30
0.0000000000
10
70.6091369232
20
0.8100967822
30
0.0000000000
10
70.8062721137
20
0.2689560380
30
0.0000000000
10
70.8578058031
20
-0.1074079454
30
0.0000000000
10
70.8578058031
20
-0.2874384783
30
0.0000000000
11
69.4670135793
21
1.9988954309
31
0.0000000000
11
69.8959458273
21
1.7197649433
31
0.0000000000
11
70.2855136179
21
1.3049924324
31
0.0000000000
11
70.5921743464
21
0.8008483326
31
0.0000000000
11
70.7905344864
21
0.2484472419
31
0.0000000000
11
70.8578058031
21
-0.2874384783
31
0.0000000000
0
SPLINE
5
421
100
AcDbEntity
8
0
100
AcDbSpline
62
7
6
CONTINUOUS
70
0
71
3
72
11
73
7
74
5
42
0.0000001000
43
0.0000001000
44
0.0000000001
12
-1.2754752608
22
-0.7936528913
32
0.0000000000
13
-0.0002640956
23
-1.4992048904
33
0.0000000000
40
0.0000000000
40
0.0000000000
40
0.0000000000
40
0.0000000000
40
0.1431143069
40
0.4850451948
40
0.8468279392
40
1.0000000000
40
1.0000000000
40
1.0000000000
40
1.0000000000
10
-77.1150013137
20
71.6706590470
30
0.0000000000
10
-77.1758475664
20
71.6327980192
30
0.0000000000
10
-77.3711126064
20
71.4869828519
30
0.0000000000
10
-77.6296629113
20
71.1406028432
30
0.0000000000
10
-77.7462021109
20
70.7220684121
30
0.0000000000
10
-77.7611170621
20
70.4646647317
30
0.0000000000
10
-77.7611305461
20
70.3881192975
30
0.0000000000
11
-77.1150013137
21
71.6706590470
31
0.0000000000
11
-77.2869681431
21
71.5421736692
31
0.0000000000
11
-77.5954717322
21
71.1355304536
31
0.0000000000
11
-77.7473674355
21
70.6172726271
31
0.0000000000
11
-77.7611305461
21
70.3881192975
31
0.0000000000
0
SPLINE
5
422
100
AcDbEntity
8
0
100
AcDbSpline
62
7
6
CONTINUOUS
70
0
71
3
72
8
73
4
74
2
42
0.0000001000
43
0.0000001000
44
0.0000000001
12
-0.0000416386
22
-0.3943388502
32
0.0000000000
13
0.0720431620
23
-0.3894278776
33
0.0000000000
40
0.0000000000
40
0.0000000000
40
0.0000000000
40
0.0000000000
40
1.0000000000
40
1.0000000000
40
1.0000000000
40
1.0000000000
10
-77.7609890578
20
0.6166232190
30
0.0000000000
10
-77.7610029373
20
0.4851769356
30
0.0000000000
10
-77.7480503589
20
0.3534419249
30
0.0000000000
10
-77.7240359716
20
0.2236326323
30
0.0000000000
11
-77.7609890578
21
0.6166232190
31
0.0000000000
11
-77.7240359716
21
0.2236326323
31
0.0000000000
0
SPLINE
5
423
100
AcDbEntity
8
0
100
AcDbSpline
62
7
6
CONTINUOUS
70
0
71
3
72
9
73
5
74
3
42
0.0000001000
43
0.0000001000
44
0.0000000001
12
0.0736760994
22
-0.3982546885
32
0.0000000000
13
0.1378426053
23
-0.3799451029
33
0.0000000000
40
0.0000000000
40
0.0000000000
40
0.0000000000
40
0.0000000000
40
0.4985950495
40
1.0000000000
40
1.0000000000
40
1.0000000000
40
1.0000000000
10
-77.7240359716
20
0.2236326323
30
0.0000000000
10
-77.7117911254
20
0.1574433603
30
0.0000000000
10
-77.6814642054
20
0.0256959701
30
0.0000000000
10
-77.6405840351
20
-0.1028565116
30
0.0000000000
10
-77.6175457135
20
-0.1663586301
30
0.0000000000
11
-77.7240359716
21
0.2236326323
31
0.0000000000
11
-77.6789259144
21
0.0268604120
31
0.0000000000
11
-77.6175457135
21
-0.1663586301
31
0.0000000000
0
SPLINE
5
424
100
AcDbEntity
8
0
100
AcDbSpline
62
7
6
CONTINUOUS
70
0
71
3
72
9
73
5
74
3
42
0.0000001000
43
0.0000001000
44
0.0000000001
12
0.2048051654
22
-0.5645186368
32
0.0000000000
13
0.3306536719
23
-0.5013855271
33
0.0000000000
40
0.0000000000
40
0.0000000000
40
0.0000000000
40
0.0000000000
40
0.6717855231
40
1.0000000000
40
1.0000000000
40
1.0000000000
40
1.0000000000
10
-77.6175457135
20
-0.1663586301
30
0.0000000000
10
-77.5716839984
20
-0.2927704460
30
0.0000000000
10
-77.4884277696
20
-0.4753114907
30
0.0000000000
10
-77.3848250917
20
-0.6468207828
30
0.0000000000
10
-77.3486499843
20
-0.7016747790
30
0.0000000000
11
-77.6175457135
21
-0.1663586301
31
0.0000000000
11
-77.4506410732
21
-0.5330487249
31
0.0000000000
11
-77.3486499843
21
-0.7016747790
31
0.0000000000
0
SPLINE
5
425
100
AcDbEntity
8
0
100
AcDbSpline
62
7
6
CONTINUOUS
70
0
71
3
72
9
73
5
74
3
42
0.0000001000
43
0.0000001000
44
0.0000000001
12
0.5112637304
22
-0.7752529513
32
0.0000000000
13
0.7930527670
23
-0.4879495064
33
0.0000000000
40
0.0000000000
40
0.0000000000
40
0.0000000000
40
0.0000000000
40
0.4137574896
40
1.0000000000
40
1.0000000000
40
1.0000000000
40
1.0000000000
10
-77.3486499843
20
-0.7016747790
30
0.0000000000
10
-77.2781369185
20
-0.8085970173
30
0.0000000000
10
-77.0877779678
20
-1.0538113475
30
0.0000000000
10
-76.8501235578
20
-1.2563239454
30
0.0000000000
10
-76.6951498094
20
-1.3516761932
30
0.0000000000
11
-77.3486499843
21
-0.7016747790
31
0.0000000000
11
-77.1125152769
21
-1.0042052145
31
0.0000000000
11
-76.6951498094
21
-1.3516761932
31
0.0000000000
0
SPLINE
5
426
100
AcDbEntity
8
0
100
AcDbSpline
62
7
6
CONTINUOUS
70
0
71
3
72
8
73
4
74
2
42
0.0000001000
43
0.0000001000
44
0.0000000001
12
0.0916098639
22
-0.0563657170
32
0.0000000000
13
0.0950457712
23
-0.0506539993
33
0.0000000000
40
0.0000000000
40
0.0000000000
40
0.0000000000
40
0.0000000000
40
1.0000000000
40
1.0000000000
40
1.0000000000
40
1.0000000000
10
-76.6951498094
20
-1.3516761932
30
0.0000000000
10
-76.6646131881
20
-1.3704647656
30
0.0000000000
10
-76.6334689112
20
-1.3883459972
30
0.0000000000
10
-76.6017869875
20
-1.4052306637
30
0.0000000000
11
-76.6951498094
21
-1.3516761932
31
0.0000000000
11
-76.6017869875
21
-1.4052306637
31
0.0000000000
0
SPLINE
5
427
100
AcDbEntity
8
0
100
AcDbSpline
62
7
6
CONTINUOUS
70
0
71
3
72
10
73
6
74
4
42
0.0000001000
43
0.0000001000
44
0.0000000001
12
140.2541177442
22
-74.8762436810
32
0.0000000000
13
143.9762085094
23
-67.4428656910
33
0.0000000000
40
0.0000000000
40
0.0000000000
40
0.0000000000
40
0.0000000000
40
0.3293546484
40
0.6648045963
40
1.0000000000
40
1.0000000000
40
1.0000000000
40
1.0000000000
10
-76.6019705311
20
-1.4052785847
30
0.0000000000
10
-61.2041886500
20
-9.6255582230
30
0.0000000000
10
-29.9714705440
20
-25.9348577038
30
0.0000000000
10
17.4350129960
20
-49.6311115768
30
0.0000000000
10
49.4966577654
20
-64.9744757309
30
0.0000000000
10
65.5833788760
20
-72.5099885944
30
0.0000000000
11
-76.6019705311
21
-1.4052785847
31
0.0000000000
11
-30.1882899256
21
-25.6488815138
31
0.0000000000
11
17.5143077821
21
-49.4999346356
31
0.0000000000
11
65.5833788760
21
-72.5099885944
31
0.0000000000
0
SPLINE
5
428
100
AcDbEntity
8
0
100
AcDbSpline
62
7
6
CONTINUOUS
70
0
71
3
72
8
73
4
74
2
42
0.0000001000
43
0.0000001000
44
0.0000000001
12
0.3794185715
22
-0.1777312795
32
0.0000000000
13
0.3794415512
23
-0.1776818650
33
0.0000000000
40
0.0000000000
40
0.0000000000
40
0.0000000000
40
0.0000000000
40
1.0000000000
40
1.0000000000
40
1.0000000000
40
1.0000000000
10
65.5833788760
20
-72.5099885944
30
0.0000000000
10
65.7098517332
20
-72.5692323543
30
0.0000000000
10
65.8363284216
20
-72.6284678774
30
0.0000000000
10
65.9628089386
20
-72.6876951658
30
0.0000000000
11
65.5833788760
21
-72.5099885944
31
0.0000000000
11
65.9628089386
21
-72.6876951658
31
0.0000000000
0
SPLINE
5
429
100
AcDbEntity
8
0
100
AcDbSpline
62
7
6
CONTINUOUS
70
0
71
3
72
11
73
7
74
5
42
0.0000001000
43
0.0000001000
44
0.0000000001
12
1.0610518932
22
-0.4967411007
32
0.0000000000
13
1.0925281821
23
0.4277373737
33
0.0000000000
40
0.0000000000
40
0.0000000000
40
0.0000000000
40
0.0000000000
40
0.1083347629
40
0.4950574545
40
0.8611557870
40
1.0000000000
40
1.0000000000
40
1.0000000000
40
1.0000000000
10
65.9629125444
20
-72.6877170756
30
0.0000000000
10
66.0012288128
20
-72.7056551854
30
0.0000000000
10
66.1793436860
20
-72.7812195005
30
0.0000000000
10
66.5107006353
20
-72.8571713828
30
0.0000000000
10
66.8620393386
20
-72.8271890671
30
0.0000000000
10
67.0504957704
20
-72.7665198386
30
0.0000000000
10
67.1010595090
20
-72.7467235523
30
0.0000000000
11
65.9629125444
21
-72.6877170756
31
0.0000000000
11
66.0797761030
21
-72.7371993848
31
0.0000000000
11
66.5204728497
21
-72.8347892655
31
0.0000000000
11
66.9460617469
21
-72.7965809324
31
0.0000000000
11
67.1010595090
21
-72.7467235523
31
0.0000000000
0
SPLINE
5
42A
100
AcDbEntity
8
0
100
AcDbSpline
62
7
6
CONTINUOUS
70
0
71
3
72
10
73
6
74
4
42
0.0000001000
43
0.0000001000
44
0.0000000001
12
0.7779576306
22
0.4894749266
32
0.0000000000
13
0.8012251661
23
-0.4307577204
33
0.0000000000
40
0.0000000000
40
0.0000000000
40
0.0000000000
40
0.0000000000
40
0.1368906121
40
0.5372211980
40
1.0000000000
40
1.0000000000
40
1.0000000000
40
1.0000000000
10
-74.2449500100
20
73.4578660345
30
0.0000000000
10
-74.2094516446
20
73.4802008752
30
0.0000000000
10
-74.0625537119
20
73.5549295850
30
0.0000000000
10
-73.7465654042
20
73.5798481477
30
0.0000000000
10
-73.4957872258
20
73.4849460103
30
0.0000000000
10
-73.3721905516
20
73.4184974964
30
0.0000000000
11
-74.2449500100
21
73.4578660345
31
0.0000000000
11
-74.1331046863
21
73.5143015845
31
0.0000000000
11
-73.7710213913
21
73.5532485526
31
0.0000000000
11
-73.3721905516
21
73.4184974964
31
0.0000000000
0
SPLINE
5
42B
100
AcDbEntity
8
0
100
AcDbSpline
62
7
6
CONTINUOUS
70
0
71
3
72
9
73
5
74
3
42
0.0000001000
43
0.0000001000
44
0.0000000001
12
-2.2293320457
22
-1.3886812281
32
0.0000000000
13
-2.2293318230
23
-1.3886815856
33
0.0000000000
40
0.0000000000
40
0.0000000000
40
0.0000000000
40
0.0000000000
40
0.6441124012
40
1.0000000000
40
1.0000000000
40
1.0000000000
40
1.0000000000
10
-74.2452830108
20
73.4584127410
30
0.0000000000
10
-74.7239298165
20
73.1602571409
30
0.0000000000
10
-75.4670404745
20
72.6973633599
30
0.0000000000
10
-76.2101510953
20
72.2344695192
30
0.0000000000
10
-76.4746149452
20
72.0697313342
30
0.0000000000
11
-74.2452830108
21
73.4584127410
31
0.0000000000
11
-75.6812233816
21
72.5639458666
31
0.0000000000
11
-76.4746149452
21
72.0697313342
31
0.0000000000
0
SPLINE
5
42C
100
AcDbEntity
8
0
100
AcDbSpline
62
7
6
CONTINUOUS
70
0
71
3
72
8
73
4
74
2
42
0.0000001000
43
0.0000001000
44
0.0000000001
12
-0.6406193117
22
-0.3990506180
32
0.0000000000
13
-0.6406192934
23
-0.3990506475
33
0.0000000000
40
0.0000000000
40
0.0000000000
40
0.0000000000
40
0.0000000000
40
1.0000000000
40
1.0000000000
40
1.0000000000
40
1.0000000000
10
-76.4746149452
20
72.0697313342
30
0.0000000000
10
-76.6881547157
20
71.9367144615
30
0.0000000000
10
-76.9016944833
20
71.8036975840
30
0.0000000000
10
-77.1152342477
20
71.6706807015
30
0.0000000000
11
-76.4746149452
21
72.0697313342
31
0.0000000000
11
-77.1152342477
21
71.6706807015
31
0.0000000000
0
SPLINE
5
42D
100
AcDbEntity
8
0
100
AcDbSpline
62
7
6
CONTINUOUS
70
0
71
3
72
8
73
4
74
2
42
0.0000001000
43
0.0000001000
44
0.0000000001
12
0.0001354030
22
-0.1941460512
32
0.0000000000
13
-0.0387372108
23
-0.1911300789
33
0.0000000000
40
0.0000000000
40
0.0000000000
40
0.0000000000
40
0.0000000000
40
1.0000000000
40
1.0000000000
40
1.0000000000
40
1.0000000000
10
51.2515219029
20
-50.3953616361
30
0.0000000000
10
51.2515670372
20
-50.4600769865
30
0.0000000000
10
51.2462929018
20
-50.5251163926
30
0.0000000000
10
51.2333804982
20
-50.5888264189
30
0.0000000000
11
51.2515219029
21
-50.3953616361
31
0.0000000000
11
51.2333804982
21
-50.5888264189
31
0.0000000000
0
SPLINE
5
42E
100
AcDbEntity
8
0
100
AcDbSpline
62
7
6
CONTINUOUS
70
0
71
3
72
9
73
5
74
3
42
0.0000001000
43
0.0000001000
44
0.0000000001
12
-0.0531275254
22
-0.2621321437
32
0.0000000000
13
-0.1578545962
23
-0.2160405706
33
0.0000000000
40
0.0000000000
40
0.0000000000
40
0.0000000000
40
0.0000000000
40
0.3607392090
40
1.0000000000
40
1.0000000000
40
1.0000000000
40
1.0000000000
10
51.2333804982
20
-50.5888264189
30
0.0000000000
10
51.2269921044
20
-50.6203468663
30
0.0000000000
10
51.2041000543
20
-50.7068222094
30
0.0000000000
10
51.1646825505
20
-50.7892583242
30
0.0000000000
10
51.1310457992
20
-50.8352937462
30
0.0000000000
11
51.2333804982
21
-50.5888264189
31
0.0000000000
11
51.2083254811
21
-50.6822113240
31
0.0000000000
11
51.1310457992
21
-50.8352937462
31
0.0000000000
0
SPLINE
5
42F
100
AcDbEntity
8
0
100
AcDbSpline
62
7
6
CONTINUOUS
70
0
71
3
72
9
73
5
74
3
42
0.0000001000
43
0.0000001000
44
0.0000000001
12
-0.0889500053
22
-0.1217374112
32
0.0000000000
13
-0.1282497271
23
-0.0813860030
33
0.0000000000
40
0.0000000000
40
0.0000000000
40
0.0000000000
40
0.0000000000
40
0.5147073365
40
1.0000000000
40
1.0000000000
40
1.0000000000
40
1.0000000000
10
51.1310457992
20
-50.8352937462
30
0.0000000000
10
51.1157847257
20
-50.8561801257
30
0.0000000000
10
51.0827598576
20
-50.8940946415
30
0.0000000000
10
51.0425839448
20
-50.9250652909
30
0.0000000000
10
51.0218377276
20
-50.9382306343
30
0.0000000000
11
51.1310457992
21
-50.8352937462
31
0.0000000000
11
51.0798939611
21
-50.8933702902
31
0.0000000000
11
51.0218377276
21
-50.9382306343
31
0.0000000000
0
SPLINE
5
430
100
AcDbEntity
8
0
100
AcDbSpline
62
7
6
CONTINUOUS
70
0
71
3
72
8
73
4
74
2
42
0.0000001000
43
0.0000001000
44
0.0000000001
12
-0.0297588888
22
-0.0188846953
32
0.0000000000
13
-0.0313297059
23
-0.0162520055
33
0.0000000000
40
0.0000000000
40
0.0000000000
40
0.0000000000
40
0.0000000000
40
1.0000000000
40
1.0000000000
40
1.0000000000
40
1.0000000000
10
51.0218377276
20
-50.9382306343
30
0.0000000000
10
51.0119180980
20
-50.9445255327
30
0.0000000000
10
51.0017128904
20
-50.9503941736
30
0.0000000000
10
50.9912696551
20
-50.9558115088
30
0.0000000000
11
51.0218377276
21
-50.9382306343
31
0.0000000000
11
50.9912696551
21
-50.9558115088
31
0.0000000000
0
SPLINE
5
431
100
AcDbEntity
8
0
100
AcDbSpline
62
7
6
CONTINUOUS
70
0
71
3
72
9
73
5
74
3
42
0.0000001000
43
0.0000001000
44
0.0000000001
12
0.2286374871
22
-0.1235712802
32
0.0000000000
13
0.1937208756
23
-0.1700622517
33
0.0000000000
40
0.0000000000
40
0.0000000000
40
0.0000000000
40
0.0000000000
40
0.0952962814
40
1.0000000000
40
1.0000000000
40
1.0000000000
40
1.0000000000
10
50.4814288701
20
-7.4722472502
30
0.0000000000
10
50.4886916375
20
-7.4761725447
30
0.0000000000
10
50.5643485945
20
-7.5182931221
30
0.0000000000
10
50.6338802857
20
-7.5693269751
30
0.0000000000
10
50.6923002846
20
-7.6206122922
30
0.0000000000
11
50.4814288701
21
-7.4722472502
31
0.0000000000
11
50.5030556650
21
-7.4842813584
31
0.0000000000
11
50.6923002846
21
-7.6206122922
31
0.0000000000
0
SPLINE
5
432
100
AcDbEntity
8
0
100
AcDbSpline
62
7
6
CONTINUOUS
70
0
71
3
72
9
73
5
74
3
42
0.0000001000
43
0.0000001000
44
0.0000000001
12
0.2917027827
22
-0.2560778848
32
0.0000000000
13
0.2207310005
23
-0.3193720044
33
0.0000000000
40
0.0000000000
40
0.0000000000
40
0.0000000000
40
0.0000000000
40
0.3230702012
40
1.0000000000
40
1.0000000000
40
1.0000000000
40
1.0000000000
10
50.6923002846
20
-7.6206122922
30
0.0000000000
10
50.7237137768
20
-7.6481893368
30
0.0000000000
10
50.8169335407
20
-7.7381262668
30
0.0000000000
10
50.8985135544
20
-7.8389841125
30
0.0000000000
10
50.9483200184
20
-7.9110482547
30
0.0000000000
11
50.6923002846
21
-7.6206122922
31
0.0000000000
11
50.7827319412
21
-7.7074410845
31
0.0000000000
11
50.9483200184
21
-7.9110482547
31
0.0000000000
0
SPLINE
5
433
100
AcDbEntity
8
0
100
AcDbSpline
62
7
6
CONTINUOUS
70
0
71
3
72
9
73
5
74
3
42
0.0000001000
43
0.0000001000
44
0.0000000001
12
0.3072698601
22
-0.4445836375
32
0.0000000000
13
0.1600071974
23
-0.5159503177
33
0.0000000000
40
0.0000000000
40
0.0000000000
40
0.0000000000
40
0.0000000000
40
0.2499782820
40
1.0000000000
40
1.0000000000
40
1.0000000000
40
1.0000000000
10
50.9483200184
20
-7.9110482547
30
0.0000000000
10
50.9739236156
20
-7.9480936727
30
0.0000000000
10
51.0706199250
20
-8.1002952274
30
0.0000000000
10
51.1442242712
20
-8.2658873605
30
0.0000000000
10
51.1842272289
20
-8.3948786751
30
0.0000000000
11
50.9483200184
21
-7.9110482547
31
0.0000000000
11
51.0208245733
21
-8.0250246048
31
0.0000000000
11
51.1842272289
21
-8.3948786751
31
0.0000000000
0
SPLINE
5
434
100
AcDbEntity
8
0
100
AcDbSpline
62
7
6
CONTINUOUS
70
0
71
3
72
9
73
5
74
3
42
0.0000001000
43
0.0000001000
44
0.0000000001
12
0.1256031978
22
-0.4050130921
32
0.0000000000
13
0.0002689544
23
-0.4266079236
33
0.0000000000
40
0.0000000000
40
0.0000000000
40
0.0000000000
40
0.0000000000
40
0.8890610561
40
1.0000000000
40
1.0000000000
40
1.0000000000
40
1.0000000000
10
51.1842272289
20
-8.3948786751
30
0.0000000000
10
51.2214501995
20
-8.5149057976
30
0.0000000000
10
51.2485130774
20
-8.6545785795
30
0.0000000000
10
51.2515139523
20
-8.7967411460
30
0.0000000000
10
51.2515238982
20
-8.8125169569
30
0.0000000000
11
51.1842272289
21
-8.3948786751
31
0.0000000000
11
51.2505519827
21
-8.7652290589
31
0.0000000000
11
51.2515238982
21
-8.8125169569
31
0.0000000000
0
SPLINE
5
435
100
AcDbEntity
8
0
100
AcDbSpline
62
7
6
CONTINUOUS
70
0
71
3
72
11
73
7
74
5
42
0.0000001000
43
0.0000001000
44
0.0000000001
12
114.7643772309
22
-52.4540907001
32
0.0000000000
13
110.9943773955
23
-60.0211804346
33
0.0000000000
40
0.0000000000
40
0.0000000000
40
0.0000000000
40
0.0000000000
40
0.2408192404
40
0.4894546755
40
0.7434517354
40
1.0000000000
40
1.0000000000
40
1.0000000000
40
1.0000000000
10
-62.3995301413
20
48.9682623544
30
0.0000000000
10
-53.1870400895
20
44.7576109274
30
0.0000000000
10
-34.5413739703
20
36.0272830771
30
0.0000000000
10
-6.4557911227
20
22.2747376814
30
0.0000000000
10
21.9843937882
20
7.7523448830
30
0.0000000000
10
40.9515597954
20
-2.3188683936
30
0.0000000000
10
50.4433647608
20
-7.4516449526
30
0.0000000000
11
-62.3995301413
21
48.9682623544
31
0.0000000000
11
-34.8767494451
21
36.0883334549
31
0.0000000000
11
-6.6971549052
21
22.2963356651
31
0.0000000000
11
21.8495373590
21
7.7256631388
31
0.0000000000
11
50.4433647608
21
-7.4516449526
31
0.0000000000
0
SPLINE
5
436
100
AcDbEntity
8
0
100
AcDbSpline
62
7
6
CONTINUOUS
70
0
71
3
72
8
73
4
74
2
42
0.0000001000
43
0.0000001000
44
0.0000000001
12
0.0380366009
22
-0.0205686246
32
0.0000000000
13
0.0380361815
23
-0.0205693955
33
0.0000000000
40
0.0000000000
40
0.0000000000
40
0.0000000000
40
0.0000000000
40
1.0000000000
40
1.0000000000
40
1.0000000000
40
1.0000000000
10
50.4433647608
20
-7.4516449526
30
0.0000000000
10
50.4560436277
20
-7.4585011608
30
0.0000000000
10
50.4687224248
20
-7.4653574975
30
0.0000000000
10
50.4814011520
20
-7.4722139626
30
0.0000000000
11
50.4433647608
21
-7.4516449526
31
0.0000000000
11
50.4814011520
21
-7.4722139626
31
0.0000000000
0
SPLINE
5
437
100
AcDbEntity
8
0
100
AcDbSpline
62
7
6
CONTINUOUS
70
0
71
3
72
10
73
6
74
4
42
0.0000001000
43
0.0000001000
44
0.0000000001
12
0.3422540726
22
0.1668070562
32
0.0000000000
13
0.3489518408
23
-0.1462817789
33
0.0000000000
40
0.0000000000
40
0.0000000000
40
0.0000000000
40
0.0000000000
40
0.3029286109
40
0.8101287798
40
1.0000000000
40
1.0000000000
40
1.0000000000
40
1.0000000000
10
-62.7890809930
20
48.9886748919
30
0.0000000000
10
-62.7545214761
20
49.0055184352
30
0.0000000000
10
-62.6536256124
20
49.0351467378
30
0.0000000000
10
-62.5257794148
20
49.0169089344
30
0.0000000000
10
-62.4429472577
20
48.9869079252
30
0.0000000000
10
-62.4208619538
20
48.9776496919
30
0.0000000000
11
-62.7890809930
21
48.9886748919
31
0.0000000000
11
-62.6786920399
21
49.0214675388
31
0.0000000000
11
-62.4885379574
21
49.0019688780
31
0.0000000000
11
-62.4208619538
21
48.9776496919
31
0.0000000000
0
SPLINE
5
438
100
AcDbEntity
8
0
100
AcDbSpline
62
7
6
CONTINUOUS
70
0
71
3
72
8
73
4
74
2
42
0.0000001000
43
0.0000001000
44
0.0000000001
12
0.0213690885
22
-0.0089579934
32
0.0000000000
13
0.0210704060
23
-0.0096163184
33
0.0000000000
40
0.0000000000
40
0.0000000000
40
0.0000000000
40
0.0000000000
40
1.0000000000
40
1.0000000000
40
1.0000000000
40
1.0000000000
10
-62.4208619538
20
48.9776496919
30
0.0000000000
10
-62.4137389243
20
48.9746636941
30
0.0000000000
10
-62.4066654990
20
48.9715646840
30
0.0000000000
10
-62.3996420304
20
48.9683592446
30
0.0000000000
11
-62.4208619538
21
48.9776496919
31
0.0000000000
11
-62.3996420304
21
48.9683592446
31
0.0000000000
0
SPLINE
5
439
100
AcDbEntity
8
0
100
AcDbSpline
62
7
6
CONTINUOUS
70
0
71
3
72
8
73
4
74
2
42
0.0000001000
43
0.0000001000
44
0.0000000001
12
-0.0180119998
22
-0.0494405843
32
0.0000000000
13
-0.0144532689
23
-0.0505353951
33
0.0000000000
40
0.0000000000
40
0.0000000000
40
0.0000000000
40
0.0000000000
40
1.0000000000
40
1.0000000000
40
1.0000000000
40
1.0000000000
10
-62.4485637968
20
48.9875908655
30
0.0000000000
10
-62.4545677967
20
48.9711106707
30
0.0000000000
10
-62.4599508512
20
48.9543992787
30
0.0000000000
10
-62.4647686075
20
48.9375541470
30
0.0000000000
11
-62.4485637968
21
48.9875908655
31
0.0000000000
11
-62.4647686075
21
48.9375541470
31
0.0000000000
0
SPLINE
5
43A
100
AcDbEntity
8
0
100
AcDbSpline
62
7
6
CONTINUOUS
70
0
71
3
72
8
73
4
74
2
42
0.0000001000
43
0.0000001000
44
0.0000000001
12
-0.0672511296
22
-0.0323692611
32
0.0000000000
13
-0.0672511289
23
-0.0323692625
33
0.0000000000
40
0.0000000000
40
0.0000000000
40
0.0000000000
40
0.0000000000
40
1.0000000000
40
1.0000000000
40
1.0000000000
40
1.0000000000
10
-63.0015789644
20
48.4293564772
30
0.0000000000
10
-63.0239960076
20
48.4185667235
30
0.0000000000
10
-63.0464130507
20
48.4077769696
30
0.0000000000
10
-63.0688300937
20
48.3969872155
30
0.0000000000
11
-63.0015789644
21
48.4293564772
31
0.0000000000
11
-63.0688300937
21
48.3969872155
31
0.0000000000
0
SPLINE
5
43B
100
AcDbEntity
8
0
100
AcDbSpline
62
7
6
CONTINUOUS
70
0
71
3
72
8
73
4
74
2
42
0.0000001000
43
0.0000001000
44
0.0000000001
12
-0.0322156949
22
-0.0161522417
32
0.0000000000
13
-0.0322156950
23
-0.0161522414
33
0.0000000000
40
0.0000000000
40
0.0000000000
40
0.0000000000
40
0.0000000000
40
1.0000000000
40
1.0000000000
40
1.0000000000
40
1.0000000000
10
-63.0366143988
20
6.8303816476
30
0.0000000000
10
-63.0473529637
20
6.8249975671
30
0.0000000000
10
-63.0580915287
20
6.8196134865
30
0.0000000000
10
-63.0688300937
20
6.8142294061
30
0.0000000000
11
-63.0366143988
21
6.8303816476
31
0.0000000000
11
-63.0688300937
21
6.8142294061
31
0.0000000000
0
SPLINE
5
43C
100
AcDbEntity
8
0
100
AcDbSpline
62
7
6
CONTINUOUS
70
0
71
3
72
8
73
4
74
2
42
0.0000001000
43
0.0000001000
44
0.0000000001
12
-0.0877255945
22
0.0522663933
32
0.0000000000
13
-0.0826200867
23
0.0601397660
33
0.0000000000
40
0.0000000000
40
0.0000000000
40
0.0000000000
40
0.0000000000
40
1.0000000000
40
1.0000000000
40
1.0000000000
40
1.0000000000
10
-62.4304679601
20
5.3663505091
30
0.0000000000
10
-62.4597098250
20
5.3837726402
30
0.0000000000
10
-62.4881068087
20
5.4026463277
30
0.0000000000
10
-62.5156468376
20
5.4226929164
30
0.0000000000
11
-62.4304679601
21
5.3663505091
31
0.0000000000
11
-62.5156468376
21
5.4226929164
31
0.0000000000
0
SPLINE
5
43D
100
AcDbEntity
8
0
100
AcDbSpline
62
7
6
CONTINUOUS
70
0
71
3
72
11
73
7
74
5
42
0.0000001000
43
0.0000001000
44
0.0000000001
12
-0.2749636182
22
0.2001480309
32
0.0000000000
13
-0.2205166678
23
0.2587135783
33
0.0000000000
40
0.0000000000
40
0.0000000000
40
0.0000000000
40
0.0000000000
40
0.0653383909
40
0.4532574830
40
0.8606041483
40
1.0000000000
40
1.0000000000
40
1.0000000000
40
1.0000000000
10
-62.5156468376
20
5.4226929164
30
0.0000000000
10
-62.5216353977
20
5.4270520332
30
0.0000000000
10
-62.5628974103
20
5.4576762922
30
0.0000000000
10
-62.6375282110
20
5.5206285088
30
0.0000000000
10
-62.7118331391
20
5.5962594664
30
0.0000000000
10
-62.7526824205
20
5.6428465454
30
0.0000000000
10
-62.7629287900
20
5.6548677452
30
0.0000000000
11
-62.5156468376
21
5.4226929164
31
0.0000000000
11
-62.5334908326
21
5.4359337806
31
0.0000000000
11
-62.6344773302
21
5.5206774917
31
0.0000000000
11
-62.7316827258
21
5.6192436200
31
0.0000000000
11
-62.7629287900
21
5.6548677452
31
0.0000000000
0
SPLINE
5
43E
100
AcDbEntity
8
0
100
AcDbSpline
62
7
6
CONTINUOUS
70
0
71
3
72
16
73
12
74
10
42
0.0000001000
43
0.0000001000
44
0.0000000001
12
-0.8228001197
22
0.9653218748
32
0.0000000000
13
0.0000024457
23
1.2680423944
33
0.0000000000
40
0.0000000000
40
0.0000000000
40
0.0000000000
40
0.0000000000
40
0.0760404940
40
0.1925806672
40
0.3112198996
40
0.4309167839
40
0.5504529227
40
0.6684410930
40
0.7834813907
40
0.8943221001
40
1.0000000000
40
1.0000000000
40
1.0000000000
40
1.0000000000
10
-62.7629287900
20
5.6548677452
30
0.0000000000
10
-62.7837841659
20
5.6793355960
30
0.0000000000
10
-62.8348353141
20
5.7428086216
30
0.0000000000
10
-62.9102455866
20
5.8507608738
30
0.0000000000
10
-62.9864779863
20
5.9801128050
30
0.0000000000
10
-63.0533017372
20
6.1159769888
30
0.0000000000
10
-63.1096141972
20
6.2562298613
30
0.0000000000
10
-63.1544310482
20
6.3985107231
30
0.0000000000
10
-63.1869816899
20
6.5403348843
30
0.0000000000
10
-63.2067769208
20
6.6792401186
30
0.0000000000
10
-63.2114537659
20
6.7708036636
30
0.0000000000
10
-63.2114536797
20
6.8154716827
30
0.0000000000
11
-62.7629287900
21
5.6548677452
31
0.0000000000
11
-62.8234151790
21
5.7299789669
31
0.0000000000
11
-62.9081493435
21
5.8510509425
31
0.0000000000
11
-62.9845919615
21
5.9806217427
31
0.0000000000
11
-63.0515899005
21
6.1168152238
31
0.0000000000
11
-63.1080219931
21
6.2574956169
31
0.0000000000
11
-63.1528667938
21
6.4002306631
31
0.0000000000
11
-63.1853311398
21
6.5424483350
31
0.0000000000
11
-63.2049231069
21
6.6816268510
31
0.0000000000
11
-63.2114536797
21
6.8154716827
31
0.0000000000
0
SPLINE
5
43F
100
AcDbEntity
8
0
100
AcDbSpline
62
7
6
CONTINUOUS
70
0
71
3
72
9
73
5
74
3
42
0.0000001000
43
0.0000001000
44
0.0000000001
12
-0.1316681061
22
0.0786858870
32
0.0000000000
13
-0.1190368379
23
0.0968364264
33
0.0000000000
40
0.0000000000
40
0.0000000000
40
0.0000000000
40
0.0000000000
40
0.7423546561
40
1.0000000000
40
1.0000000000
40
1.0000000000
40
1.0000000000
10
-62.3546973899
20
5.4850046921
30
0.0000000000
10
-62.3872788671
20
5.5044756370
30
0.0000000000
10
-62.4296186319
20
5.5333584325
30
0.0000000000
10
-62.4698359502
20
5.5649796593
30
0.0000000000
10
-62.4800590459
20
5.5732961441
30
0.0000000000
11
-62.3546973899
21
5.4850046921
31
0.0000000000
11
-62.4489714502
21
5.5488673158
31
0.0000000000
11
-62.4800590459
21
5.5732961441
31
0.0000000000
0
SPLINE
5
440
100
AcDbEntity
8
0
100
AcDbSpline
62
7
6
CONTINUOUS
70
0
71
3
72
11
73
7
74
5
42
0.0000001000
43
0.0000001000
44
0.0000000001
12
-0.3335505490
22
0.2713432560
32
0.0000000000
13
-0.2413668769
23
0.3557703897
33
0.0000000000
40
0.0000000000
40
0.0000000000
40
0.0000000000
40
0.0000000000
40
0.1890374376
40
0.4841397967
40
0.7907123895
40
1.0000000000
40
1.0000000000
40
1.0000000000
40
1.0000000000
10
-62.4800590459
20
5.5732961441
30
0.0000000000
10
-62.5010768930
20
5.5903941554
30
0.0000000000
10
-62.5534037085
20
5.6360175431
30
0.0000000000
10
-62.6327878359
20
5.7170521973
30
0.0000000000
10
-62.7067414644
20
5.8068343498
30
0.0000000000
10
-62.7498343873
20
5.8669315087
30
0.0000000000
10
-62.7666727529
20
5.8917509537
30
0.0000000000
11
-62.4800590459
21
5.5732961441
31
0.0000000000
11
-62.5413726548
21
5.6266311447
31
0.0000000000
11
-62.6303042043
21
5.7170675271
31
0.0000000000
11
-62.7142181717
21
5.8186594279
31
0.0000000000
11
-62.7666727529
21
5.8917509537
31
0.0000000000
0
SPLINE
5
441
100
AcDbEntity
8
0
100
AcDbSpline
62
7
6
CONTINUOUS
70
0
71
3
72
12
73
8
74
6
42
0.0000001000
43
0.0000001000
44
0.0000000001
12
-0.3106664104
22
0.4579166425
32
0.0000000000
13
-0.1583544827
23
0.5302051516
33
0.0000000000
40
0.0000000000
40
0.0000000000
40
0.0000000000
40
0.0000000000
40
0.0822107468
40
0.3314616417
40
0.5829611485
40
0.8341467665
40
1.0000000000
40
1.0000000000
40
1.0000000000
40
1.0000000000
10
-62.7666727529
20
5.8917509537
30
0.0000000000
10
-62.7751861255
20
5.9042995100
30
0.0000000000
10
-62.8088463422
20
5.9553445186
30
0.0000000000
10
-62.8633548612
20
6.0481201189
30
0.0000000000
10
-62.9244503665
20
6.1727391843
30
0.0000000000
10
-62.9702914397
20
6.2873070628
30
0.0000000000
10
-62.9942514255
20
6.3604305462
30
0.0000000000
10
-63.0030059599
20
6.3897426258
30
0.0000000000
11
-62.7666727529
21
5.8917509537
31
0.0000000000
11
-62.7917191686
21
5.9297253003
31
0.0000000000
11
-62.8616245679
21
6.0485793001
31
0.0000000000
11
-62.9228801367
21
6.1735008448
31
0.0000000000
11
-62.9744607855
21
6.3025310138
31
0.0000000000
11
-63.0030059599
21
6.3897426258
31
0.0000000000
0
SPLINE
5
442
100
AcDbEntity
8
0
100
AcDbSpline
62
7
6
CONTINUOUS
70
0
71
3
72
11
73
7
74
5
42
0.0000001000
43
0.0000001000
44
0.0000000001
12
-0.1118282604
22
0.3744252690
32
0.0000000000
13
-0.0125159573
23
0.3905933697
33
0.0000000000
40
0.0000000000
40
0.0000000000
40
0.0000000000
40
0.0000000000
40
0.1162572052
40
0.4586209406
40
0.7885009475
40
1.0000000000
40
1.0000000000
40
1.0000000000
40
1.0000000000
10
-63.0030059599
20
6.3897426258
30
0.0000000000
10
-63.0073395736
20
6.4042525042
30
0.0000000000
10
-63.0236868150
20
6.4617159592
30
0.0000000000
10
-63.0465839075
20
6.5619307487
30
0.0000000000
10
-63.0627427448
20
6.6760111578
30
0.0000000000
10
-63.0673096764
20
6.7464441884
30
0.0000000000
10
-63.0681920474
20
6.7739808976
30
0.0000000000
11
-63.0030059599
21
6.3897426258
31
0.0000000000
11
-63.0154327276
21
6.4334386947
31
0.0000000000
11
-63.0450713063
21
6.5638647798
31
0.0000000000
11
-63.0629276101
21
6.6914960112
31
0.0000000000
11
-63.0681920474
21
6.7739808976
31
0.0000000000
0
SPLINE
5
443
100
AcDbEntity
8
0
100
AcDbSpline
62
7
6
CONTINUOUS
70
0
71
3
72
8
73
4
74
2
42
0.0000001000
43
0.0000001000
44
0.0000000001
12
-0.0012894467
22
0.0402405765
32
0.0000000000
13
0.0000249193
23
0.0402484801
33
0.0000000000
40
0.0000000000
40
0.0000000000
40
0.0000000000
40
0.0000000000
40
1.0000000000
40
1.0000000000
40
1.0000000000
40
1.0000000000
10
-63.0681920474
20
6.7739808976
30
0.0000000000
10
-63.0686218630
20
6.7873944231
30
0.0000000000
10
-63.0688377040
20
6.8008128918
30
0.0000000000
10
-63.0688293975
20
6.8142290519
30
0.0000000000
11
-63.0681920474
21
6.7739808976
31
0.0000000000
11
-63.0688293975
21
6.8142290519
31
0.0000000000
0
SPLINE
5
444
100
AcDbEntity
8
0
100
AcDbSpline
62
7
6
CONTINUOUS
70
0
71
3
72
10
73
6
74
4
42
0.0000001000
43
0.0000001000
44
0.0000000001
12
0.0065460774
22
0.1457953808
32
0.0000000000
13
0.1314043258
23
0.0634984043
33
0.0000000000
40
0.0000000000
40
0.0000000000
40
0.0000000000
40
0.0000000000
40
0.3291079203
40
0.6818811469
40
1.0000000000
40
1.0000000000
40
1.0000000000
40
1.0000000000
10
-62.4304678783
20
5.3663505479
30
0.0000000000
10
-62.4297497563
20
5.3823446861
30
0.0000000000
10
-62.4207155747
20
5.4151838152
30
0.0000000000
10
-62.3943990521
20
5.4566487051
30
0.0000000000
10
-62.3686314543
20
5.4782713456
30
0.0000000000
10
-62.3546973899
20
5.4850046921
30
0.0000000000
11
-62.4304678783
21
5.3663505479
31
0.0000000000
11
-62.4189534158
21
5.4129806944
31
0.0000000000
11
-62.3912441350
21
5.4563725355
31
0.0000000000
11
-62.3546973899
21
5.4850046921
31
0.0000000000
0
SPLINE
5
445
100
AcDbEntity
8
0
100
AcDbSpline
62
7
6
CONTINUOUS
70
0
71
3
72
10
73
6
74
4
42
0.0000001000
43
0.0000001000
44
0.0000000001
12
0.1295396640
22
-0.0682436755
32
0.0000000000
13
0.1314102853
23
0.0645682639
33
0.0000000000
40
0.0000000000
40
0.0000000000
40
0.0000000000
40
0.0000000000
40
0.3190777950
40
0.6763970785
40
1.0000000000
40
1.0000000000
40
1.0000000000
40
1.0000000000
10
-63.2114536797
20
6.8154716827
30
0.0000000000
10
-63.1976759363
20
6.8082133355
30
0.0000000000
10
-63.1650337346
20
6.7994930092
30
0.0000000000
10
-63.1159814560
20
6.7991071629
30
0.0000000000
10
-63.0830050111
20
6.8072645798
30
0.0000000000
10
-63.0688300937
20
6.8142294061
30
0.0000000000
11
-63.2114536797
21
6.8154716827
31
0.0000000000
11
-63.1667598145
21
6.8018684928
31
0.0000000000
11
-63.1144444427
21
6.8014128167
31
0.0000000000
11
-63.0688300937
21
6.8142294061
31
0.0000000000
0
SPLINE
5
446
100
AcDbEntity
8
0
100
AcDbSpline
62
7
6
CONTINUOUS
70
0
71
3
72
11
73
7
74
5
42
0.0000001000
43
0.0000001000
44
0.0000000001
12
-0.0000019425
22
0.4647013514
32
0.0000000000
13
0.2308111128
23
0.4039629246
33
0.0000000000
40
0.0000000000
40
0.0000000000
40
0.0000000000
40
0.0000000000
40
0.2734328914
40
0.5316145783
40
0.7737068566
40
1.0000000000
40
1.0000000000
40
1.0000000000
40
1.0000000000
10
-63.2114536797
20
48.3982294921
30
0.0000000000
10
-63.2114538568
20
48.4405843701
30
0.0000000000
10
-63.2074643333
20
48.5230120677
30
0.0000000000
10
-63.1883461041
20
48.6415999189
30
0.0000000000
10
-63.1564064593
20
48.7498816662
30
0.0000000000
10
-63.1258588882
20
48.8160149952
30
0.0000000000
10
-63.1084485641
20
48.8464863418
30
0.0000000000
11
-63.2114536797
21
48.3982294921
31
0.0000000000
11
-63.2049301401
21
48.5251265554
31
0.0000000000
11
-63.1853836504
21
48.6435009875
31
0.0000000000
11
-63.1530517872
21
48.7512555123
31
0.0000000000
11
-63.1084485641
21
48.8464863418
31
0.0000000000
0
SPLINE
5
447
100
AcDbEntity
8
0
100
AcDbSpline
62
7
6
CONTINUOUS
70
0
71
3
72
10
73
6
74
4
42
0.0000001000
43
0.0000001000
44
0.0000000001
12
0.1107226856
22
0.1937855563
32
0.0000000000
13
0.1833675881
23
0.1275117282
33
0.0000000000
40
0.0000000000
40
0.0000000000
40
0.0000000000
40
0.0000000000
40
0.4425201339
40
0.8630784691
40
1.0000000000
40
1.0000000000
40
1.0000000000
40
1.0000000000
10
-63.1084485641
20
48.8464863418
30
0.0000000000
10
-63.0921162249
20
48.8750710119
30
0.0000000000
10
-63.0557108479
20
48.9282816556
30
0.0000000000
10
-63.0026238995
20
48.9809727105
30
0.0000000000
10
-62.9693733661
20
49.0058514419
30
0.0000000000
10
-62.9610043758
20
49.0116711422
30
0.0000000000
11
-63.1084485641
21
48.8464863418
31
0.0000000000
11
-63.0523099919
21
48.9276024627
31
0.0000000000
11
-62.9854860424
21
48.9933594279
31
0.0000000000
11
-62.9610043758
21
49.0116711422
31
0.0000000000
0
SPLINE
5
448
100
AcDbEntity
8
0
100
AcDbSpline
62
7
6
CONTINUOUS
70
0
71
3
72
13
73
9
74
7
42
0.0000001000
43
0.0000001000
44
0.0000000001
12
0.4251639349
22
0.2956541485
32
0.0000000000
13
0.4798636933
23
-0.1932417609
33
0.0000000000
40
0.0000000000
40
0.0000000000
40
0.0000000000
40
0.0000000000
40
0.1172035500
40
0.2932364122
40
0.4740849044
40
0.6607385600
40
0.8580785471
40
1.0000000000
40
1.0000000000
40
1.0000000000
40
1.0000000000
10
-62.9610043758
20
49.0116711422
30
0.0000000000
10
-62.9443941350
20
49.0232217142
30
0.0000000000
10
-62.9008415891
20
49.0492553906
30
0.0000000000
10
-62.8237945494
20
49.0782097321
30
0.0000000000
10
-62.7305435947
20
49.0922027502
30
0.0000000000
10
-62.6327860524
20
49.0878949255
30
0.0000000000
10
-62.5438856176
20
49.0685644839
30
0.0000000000
10
-62.4886073717
20
49.0491572659
30
0.0000000000
10
-62.4659063876
20
49.0400155488
30
0.0000000000
11
-62.9610043758
21
49.0116711422
31
0.0000000000
11
-62.9089235974
21
49.0427345902
31
0.0000000000
11
-62.8237916804
21
49.0748479868
31
0.0000000000
11
-62.7314054595
21
49.0890834121
31
0.0000000000
11
-62.6350012761
21
49.0853335434
31
0.0000000000
11
-62.5352181883
21
49.0641802930
31
0.0000000000
11
-62.4659063876
21
49.0400155488
31
0.0000000000
0
SPLINE
5
449
100
AcDbEntity
8
0
100
AcDbSpline
62
7
6
CONTINUOUS
70
0
71
3
72
8
73
4
74
2
42
0.0000001000
43
0.0000001000
44
0.0000000001
12
0.0357981410
22
-0.0144159600
32
0.0000000000
13
0.0350698582
23
-0.0160291083
33
0.0000000000
40
0.0000000000
40
0.0000000000
40
0.0000000000
40
0.0000000000
40
1.0000000000
40
1.0000000000
40
1.0000000000
40
1.0000000000
10
-62.4659063876
20
49.0400155488
30
0.0000000000
10
-62.4539736739
20
49.0352102288
30
0.0000000000
10
-62.4421579129
20
49.0301221939
30
0.0000000000
10
-62.4304679602
20
49.0247791579
30
0.0000000000
11
-62.4659063876
21
49.0400155488
31
0.0000000000
11
-62.4304679602
21
49.0247791579
31
0.0000000000
0
SPLINE
5
44A
100
AcDbEntity
8
0
100
AcDbSpline
62
7
6
CONTINUOUS
70
0
71
3
72
9
73
5
74
3
42
0.0000001000
43
0.0000001000
44
0.0000000001
12
-0.0000954444
22
0.1538153680
32
0.0000000000
13
0.0219382296
23
0.1523390302
33
0.0000000000
40
0.0000000000
40
0.0000000000
40
0.0000000000
40
0.0000000000
40
0.7569565863
40
1.0000000000
40
1.0000000000
40
1.0000000000
40
1.0000000000
10
-63.0688296631
20
48.3969869964
30
0.0000000000
10
-63.0688537455
20
48.4357975150
30
0.0000000000
10
-63.0664065445
20
48.4871207635
30
0.0000000000
10
-63.0600938998
20
48.5380474170
30
0.0000000000
10
-63.0583165857
20
48.5503890830
30
0.0000000000
11
-63.0688296631
21
48.3969869964
31
0.0000000000
11
-63.0629340611
21
48.5132692147
31
0.0000000000
11
-63.0583165857
21
48.5503890830
31
0.0000000000
0
SPLINE
5
44B
100
AcDbEntity
8
0
100
AcDbSpline
62
7
6
CONTINUOUS
70
0
71
3
72
11
73
7
74
5
42
0.0000001000
43
0.0000001000
44
0.0000000001
12
0.0430811155
22
0.2991551941
32
0.0000000000
13
0.1642757276
23
0.2539738027
33
0.0000000000
40
0.0000000000
40
0.0000000000
40
0.0000000000
40
0.0000000000
40
0.2401249459
40
0.5812453320
40
0.8999974280
40
1.0000000000
40
1.0000000000
40
1.0000000000
40
1.0000000000
10
-63.0583165857
20
48.5503890830
30
0.0000000000
10
-63.0548683022
20
48.5743339579
30
0.0000000000
10
-63.0443066446
20
48.6319693253
30
0.0000000000
10
-63.0186756923
20
48.7191770742
30
0.0000000000
10
-62.9865341638
20
48.7889480674
30
0.0000000000
10
-62.9646263198
20
48.8250620382
30
0.0000000000
10
-62.9591503213
20
48.8335280493
30
0.0000000000
11
-63.0583165857
21
48.5503890830
31
0.0000000000
11
-63.0451192272
21
48.6217305199
31
0.0000000000
11
-63.0156017080
21
48.7204489172
31
0.0000000000
11
-62.9748506695
21
48.8076801196
31
0.0000000000
11
-62.9591503213
21
48.8335280493
31
0.0000000000
0
SPLINE
5
44C
100
AcDbEntity
8
0
100
AcDbSpline
62
7
6
CONTINUOUS
70
0
71
3
72
11
73
7
74
5
42
0.0000001000
43
0.0000001000
44
0.0000000001
12
0.1265880241
22
0.1957078038
32
0.0000000000
13
0.2091662771
23
0.1030536934
33
0.0000000000
40
0.0000000000
40
0.0000000000
40
0.0000000000
40
0.0000000000
40
0.2581180648
40
0.6266276479
40
0.9846308141
40
1.0000000000
40
1.0000000000
40
1.0000000000
40
1.0000000000
10
-62.9591503213
20
48.8335280493
30
0.0000000000
10
-62.9482587694
20
48.8503666225
30
0.0000000000
10
-62.9194723479
20
48.8897245330
30
0.0000000000
10
-62.8649329746
20
48.9439351884
30
0.0000000000
10
-62.8162641212
20
48.9754757920
30
0.0000000000
10
-62.7902914594
20
48.9884223299
30
0.0000000000
10
-62.7892198876
20
48.9889502803
30
0.0000000000
11
-62.9591503213
21
48.8335280493
31
0.0000000000
11
-62.9235386144
21
48.8819666997
31
0.0000000000
11
-62.8624423454
21
48.9421691989
31
0.0000000000
11
-62.7924271875
21
48.9873515293
31
0.0000000000
11
-62.7892198876
21
48.9889502803
31
0.0000000000
0
SPLINE
5
44D
100
AcDbEntity
8
0
100
AcDbSpline
62
7
6
CONTINUOUS
70
0
71
3
72
10
73
6
74
4
42
0.0000001000
43
0.0000001000
44
0.0000000001
12
0.1295396639
22
-0.0682436755
32
0.0000000000
13
0.1314102853
23
0.0645682638
33
0.0000000000
40
0.0000000000
40
0.0000000000
40
0.0000000000
40
0.0000000000
40
0.3190787509
40
0.6763978908
40
1.0000000000
40
1.0000000000
40
1.0000000000
40
1.0000000000
10
-63.2114536797
20
48.3982294921
30
0.0000000000
10
-63.1976758950
20
48.3909711232
30
0.0000000000
10
-63.1650336457
20
48.3822508040
30
0.0000000000
10
-63.1159813678
20
48.3818649866
30
0.0000000000
10
-63.0830049755
20
48.3900224067
30
0.0000000000
10
-63.0688300937
20
48.3969872155
30
0.0000000000
11
-63.2114536797
21
48.3982294921
31
0.0000000000
11
-63.1667596744
21
48.3846262819
31
0.0000000000
11
-63.1144443234
21
48.3841706411
31
0.0000000000
11
-63.0688300937
21
48.3969872155
31
0.0000000000
0
SPLINE
5
44E
100
AcDbEntity
8
0
100
AcDbSpline
62
7
6
CONTINUOUS
70
0
71
3
72
8
73
4
74
2
42
0.0000001000
43
0.0000001000
44
0.0000000001
12
0.0469796875
22
-0.0214726020
32
0.0000000000
13
0.0469790173
23
-0.0214740721
33
0.0000000000
40
0.0000000000
40
0.0000000000
40
0.0000000000
40
0.0000000000
40
1.0000000000
40
1.0000000000
40
1.0000000000
40
1.0000000000
10
-62.4304679602
20
49.0247791579
30
0.0000000000
10
-62.4148080643
20
49.0176216238
30
0.0000000000
10
-62.3991482802
20
49.0104638448
30
0.0000000000
10
-62.3834886078
20
49.0033058208
30
0.0000000000
11
-62.4304679602
21
49.0247791579
31
0.0000000000
11
-62.3834886078
21
49.0033058208
31
0.0000000000
0
SPLINE
5
44F
100
AcDbEntity
8
0
100
AcDbSpline
62
7
6
CONTINUOUS
70
0
71
3
72
15
73
11
74
9
42
0.0000001000
43
0.0000001000
44
0.0000000001
12
114.7657502677
22
-52.4593347593
32
0.0000000000
13
110.9962763481
23
-60.0248688307
33
0.0000000000
40
0.0000000000
40
0.0000000000
40
0.0000000000
40
0.0000000000
40
0.1020469148
40
0.2152416287
40
0.3425619826
40
0.4842296474
40
0.6304911960
40
0.7664272933
40
0.8887221156
40
1.0000000000
40
1.0000000000
40
1.0000000000
40
1.0000000000
10
-62.3834886078
20
49.0033058208
30
0.0000000000
10
-58.4796583629
20
47.2188680666
30
0.0000000000
10
-50.2601766274
20
43.4229430219
30
0.0000000000
10
-37.2273142846
20
37.2774539913
30
0.0000000000
10
-22.7467843284
20
30.2958430422
30
0.0000000000
10
-7.0847793107
20
22.5637650303
30
0.0000000000
10
8.8254930701
20
14.5177790221
30
0.0000000000
10
23.9381028490
20
6.7018399833
30
0.0000000000
10
37.6856276404
20
-0.5491049419
30
0.0000000000
10
46.3429588644
20
-5.1940259175
30
0.0000000000
10
50.4601024682
20
-7.4205060563
30
0.0000000000
11
-62.3834886078
21
49.0033058208
31
0.0000000000
11
-50.6927484967
21
43.6048270239
31
0.0000000000
11
-37.7730517735
21
37.5133943500
31
0.0000000000
11
-23.3007513694
21
30.5366873843
31
0.0000000000
11
-7.2706592953
21
22.6240651399
31
0.0000000000
11
9.1998618811
21
14.2959711599
31
0.0000000000
11
24.4365291592
21
6.4167579357
31
0.0000000000
11
38.0865443253
21
-0.7821458480
31
0.0000000000
11
50.4601024682
21
-7.4205060563
31
0.0000000000
0
SPLINE
5
450
100
AcDbEntity
8
0
100
AcDbSpline
62
7
6
CONTINUOUS
70
0
71
3
72
9
73
5
74
3
42
0.0000001000
43
0.0000001000
44
0.0000000001
12
0.0028453011
22
-0.0663588188
32
0.0000000000
13
0.0607470357
23
-0.0294669655
33
0.0000000000
40
0.0000000000
40
0.0000000000
40
0.0000000000
40
0.0000000000
40
0.6191054594
40
1.0000000000
40
1.0000000000
40
1.0000000000
40
1.0000000000
10
-62.4304679591
20
49.0247791583
30
0.0000000000
10
-62.4298807787
20
49.0110847893
30
0.0000000000
10
-62.4250652539
20
48.9880069382
30
0.0000000000
10
-62.4072966409
20
48.9722181198
30
0.0000000000
10
-62.3995839028
20
48.9684768511
30
0.0000000000
11
-62.4304679591
21
49.0247791583
31
0.0000000000
11
-62.4189533338
21
48.9853033669
31
0.0000000000
11
-62.3995839028
21
48.9684768511
31
0.0000000000
0
SPLINE
5
451
100
AcDbEntity
8
0
100
AcDbSpline
62
7
6
CONTINUOUS
70
0
71
3
72
10
73
6
74
4
42
0.0000001000
43
0.0000001000
44
0.0000000001
12
0.2708225513
22
-0.1464546953
32
0.0000000000
13
0.2279164123
23
-0.2071527421
33
0.0000000000
40
0.0000000000
40
0.0000000000
40
0.0000000000
40
0.0000000000
40
0.4138636048
40
0.8501450887
40
1.0000000000
40
1.0000000000
40
1.0000000000
40
1.0000000000
10
50.4601024682
20
-7.4205060563
30
0.0000000000
10
50.4974636673
20
-7.4407101457
30
0.0000000000
10
50.5717843685
20
-7.4868159495
30
0.0000000000
10
50.6530113410
20
-7.5498019560
30
0.0000000000
10
50.6981664333
20
-7.5895861622
30
0.0000000000
10
50.7095512312
20
-7.5999337808
30
0.0000000000
11
50.4601024682
21
-7.4205060563
31
0.0000000000
11
50.5685765886
21
-7.4873637039
31
0.0000000000
11
50.6749167557
21
-7.5694305803
31
0.0000000000
11
50.7095512312
21
-7.5999337808
31
0.0000000000
0
SPLINE
5
452
100
AcDbEntity
8
0
100
AcDbSpline
62
7
6
CONTINUOUS
70
0
71
3
72
11
73
7
74
5
42
0.0000001000
43
0.0000001000
44
0.0000000001
12
0.3988117044
22
-0.3624791094
32
0.0000000000
13
0.2693088725
23
-0.4667683563
33
0.0000000000
40
0.0000000000
40
0.0000000000
40
0.0000000000
40
0.0000000000
40
0.1748345583
40
0.4442152374
40
0.7200443708
40
1.0000000000
40
1.0000000000
40
1.0000000000
40
1.0000000000
10
50.7095512312
20
-7.5999337808
30
0.0000000000
10
50.7327932539
20
-7.6210584058
30
0.0000000000
10
50.7901537838
20
-7.6765967760
30
0.0000000000
10
50.8762214148
20
-7.7733102525
30
0.0000000000
10
50.9652281513
20
-7.8919936174
30
0.0000000000
10
51.0185387543
20
-7.9764972488
30
0.0000000000
10
51.0436702659
20
-8.0200553917
30
0.0000000000
11
50.7095512312
21
-7.5999337808
31
0.0000000000
11
50.7772848840
21
-7.6654153423
31
0.0000000000
11
50.8738979531
21
-7.7737103811
31
0.0000000000
11
50.9631477763
21
-7.8925245274
31
0.0000000000
11
51.0436702659
21
-8.0200553917
31
0.0000000000
0
SPLINE
5
453
100
AcDbEntity
8
0
100
AcDbSpline
62
7
6
CONTINUOUS
70
0
71
3
72
9
73
5
74
3
42
0.0000001000
43
0.0000001000
44
0.0000000001
12
0.1264137339
22
-0.2191013249
32
0.0000000000
13
0.0962334148
23
-0.2339335649
33
0.0000000000
40
0.0000000000
40
0.0000000000
40
0.0000000000
40
0.0000000000
40
0.6002989131
40
1.0000000000
40
1.0000000000
40
1.0000000000
40
1.0000000000
10
51.0436702659
20
-8.0200553917
30
0.0000000000
10
51.0689656083
20
-8.0638974875
30
0.0000000000
10
51.1081979404
20
-8.1386064397
30
0.0000000000
10
51.1423822072
20
-8.2157177450
30
0.0000000000
10
51.1552037407
20
-8.2468855784
30
0.0000000000
11
51.0436702659
21
-8.0200553917
31
0.0000000000
11
51.1142487463
21
-8.1544586022
31
0.0000000000
11
51.1552037407
21
-8.2468855784
31
0.0000000000
0
SPLINE
5
454
100
AcDbEntity
8
0
100
AcDbSpline
62
7
6
CONTINUOUS
70
0
71
3
72
12
73
8
74
6
42
0.0000001000
43
0.0000001000
44
0.0000000001
12
0.2215221928
22
-0.5384977387
32
0.0000000000
13
0.0169082973
23
-0.5820571367
33
0.0000000000
40
0.0000000000
40
0.0000000000
40
0.0000000000
40
0.0000000000
40
0.0863355055
40
0.3426575332
40
0.5924784609
40
0.8332877894
40
1.0000000000
40
1.0000000000
40
1.0000000000
40
1.0000000000
10
51.1552037407
20
-8.2468855784
30
0.0000000000
10
51.1615788176
20
-8.2623827366
30
0.0000000000
10
51.1860547659
20
-8.3242293580
30
0.0000000000
10
51.2225872487
20
-8.4333733107
30
0.0000000000
10
51.2568969048
20
-8.5743841894
30
0.0000000000
10
51.2759279666
20
-8.7006794097
30
0.0000000000
10
51.2811966203
20
-8.7796894429
30
0.0000000000
10
51.2821362268
20
-8.8120347869
30
0.0000000000
11
51.1552037407
21
-8.2468855784
31
0.0000000000
11
51.1737001560
21
-8.2936293368
31
0.0000000000
11
51.2209465570
21
-8.4351635828
31
0.0000000000
11
51.2551507258
21
-8.5765113433
31
0.0000000000
11
51.2757931657
21
-8.7151646228
31
0.0000000000
11
51.2821362268
21
-8.8120347869
31
0.0000000000
0
SPLINE
5
455
100
AcDbEntity
8
0
100
AcDbSpline
62
7
6
CONTINUOUS
70
0
71
3
72
8
73
4
74
2
42
0.0000001000
43
0.0000001000
44
0.0000000001
12
0.0010688580
22
-0.0367947427
32
0.0000000000
13
-0.0000000638
23
-0.0367991197
33
0.0000000000
40
0.0000000000
40
0.0000000000
40
0.0000000000
40
0.0000000000
40
1.0000000000
40
1.0000000000
40
1.0000000000
40
1.0000000000
10
51.2821362268
20
-8.8120347869
30
0.0000000000
10
51.2824925128
20
-8.8242997011
30
0.0000000000
10
51.2826739974
20
-8.8365679626
30
0.0000000000
10
51.2826739761
20
-8.8488343358
30
0.0000000000
11
51.2821362268
21
-8.8120347869
31
0.0000000000
11
51.2826739761
21
-8.8488343358
31
0.0000000000
0
SPLINE
5
456
100
AcDbEntity
8
0
100
AcDbSpline
62
7
6
CONTINUOUS
70
0
71
3
72
9
73
5
74
3
42
0.0000001000
43
0.0000001000
44
0.0000000001
12
-0.0027192993
22
-0.0575784669
32
0.0000000000
13
0.0511071541
23
-0.0295702867
33
0.0000000000
40
0.0000000000
40
0.0000000000
40
0.0000000000
40
0.0000000000
40
0.6588148970
40
1.0000000000
40
1.0000000000
40
1.0000000000
40
1.0000000000
10
50.4601025459
20
-7.4205060154
30
0.0000000000
10
50.4595053743
20
-7.4331505326
30
0.0000000000
10
50.4610294527
20
-7.4538451572
30
0.0000000000
10
50.4757852343
20
-7.4685115396
30
0.0000000000
10
50.4815975675
20
-7.4718745200
30
0.0000000000
11
50.4601025459
21
-7.4205060154
31
0.0000000000
11
50.4672565951
21
-7.4578019060
31
0.0000000000
11
50.4815975675
21
-7.4718745200
31
0.0000000000
0
SPLINE
5
457
100
AcDbEntity
8
0
100
AcDbSpline
62
7
6
CONTINUOUS
70
0
71
3
72
9
73
5
74
3
42
0.0000001000
43
0.0000001000
44
0.0000000001
12
-0.0444160529
22
0.0210775597
32
0.0000000000
13
-0.0005350095
23
0.0511501172
33
0.0000000000
40
0.0000000000
40
0.0000000000
40
0.0000000000
40
0.0000000000
40
0.7161322208
40
1.0000000000
40
1.0000000000
40
1.0000000000
40
1.0000000000
10
51.2826739761
20
-8.8488343358
30
0.0000000000
10
51.2720713872
20
-8.8438028960
30
0.0000000000
10
51.2561442041
20
-8.8345182038
30
0.0000000000
10
51.2523223213
20
-8.8174000425
30
0.0000000000
10
51.2522716973
20
-8.8125600857
30
0.0000000000
11
51.2826739761
21
-8.8488343358
31
0.0000000000
11
51.2554675962
21
-8.8264874032
31
0.0000000000
11
51.2522716973
21
-8.8125600857
31
0.0000000000
0
SPLINE
5
458
100
AcDbEntity
8
0
100
AcDbSpline
62
7
6
CONTINUOUS
70
0
71
3
72
9
73
5
74
3
42
0.0000001000
43
0.0000001000
44
0.0000000001
12
0.0000006260
22
-0.1682012015
32
0.0000000000
13
-0.0252954186
23
-0.1664028130
33
0.0000000000
40
0.0000000000
40
0.0000000000
40
0.0000000000
40
0.0000000000
40
0.7565805102
40
1.0000000000
40
1.0000000000
40
1.0000000000
40
1.0000000000
10
51.2826739761
20
-50.4315921452
30
0.0000000000
10
51.2826741340
20
-50.4740113955
30
0.0000000000
10
51.2798052613
20
-50.5301383508
30
0.0000000000
10
51.2725121585
20
-50.5857824778
30
0.0000000000
10
51.2704596926
20
-50.5992843737
30
0.0000000000
11
51.2826739761
21
-50.4315921452
31
0.0000000000
11
51.2758005761
21
-50.5586641387
31
0.0000000000
11
51.2704596926
21
-50.5992843737
31
0.0000000000
0
SPLINE
5
459
100
AcDbEntity
8
0
100
AcDbSpline
62
7
6
CONTINUOUS
70
0
71
3
72
11
73
7
74
5
42
0.0000001000
43
0.0000001000
44
0.0000000001
12
-0.0555111784
22
-0.3651734876
32
0.0000000000
13
-0.2239447115
23
-0.2940073156
33
0.0000000000
40
0.0000000000
40
0.0000000000
40
0.0000000000
40
0.0000000000
40
0.2159877563
40
0.5243891222
40
0.8149890413
40
1.0000000000
40
1.0000000000
40
1.0000000000
40
1.0000000000
10
51.2704596926
20
-50.5992843737
30
0.0000000000
10
51.2664631143
20
-50.6255753745
30
0.0000000000
10
51.2542083459
20
-50.6890108227
30
0.0000000000
10
51.2245175101
20
-50.7851363837
30
0.0000000000
10
51.1824876978
20
-50.8724112974
30
0.0000000000
10
51.1498184051
20
-50.9211858399
30
0.0000000000
10
51.1360076632
20
-50.9393173650
30
0.0000000000
11
51.2704596926
21
-50.5992843737
31
0.0000000000
11
51.2552060514
21
-50.6775625882
31
0.0000000000
11
51.2211414616
21
-50.7861834764
31
0.0000000000
11
51.1741495622
21
-50.8826086441
31
0.0000000000
11
51.1360076632
21
-50.9393173650
31
0.0000000000
0
SPLINE
5
45A
100
AcDbEntity
8
0
100
AcDbSpline
62
7
6
CONTINUOUS
70
0
71
3
72
8
73
4
74
2
42
0.0000001000
43
0.0000001000
44
0.0000000001
12
-0.0202112583
22
-0.0265344859
32
0.0000000000
13
-0.0217913716
23
-0.0252595053
33
0.0000000000
40
0.0000000000
40
0.0000000000
40
0.0000000000
40
0.0000000000
40
1.0000000000
40
1.0000000000
40
1.0000000000
40
1.0000000000
10
51.1360076632
20
-50.9393173650
30
0.0000000000
10
51.1292705771
20
-50.9481621937
30
0.0000000000
10
51.1222711359
20
-50.9568067522
30
0.0000000000
10
51.1150073453
20
-50.9652265873
30
0.0000000000
11
51.1360076632
21
-50.9393173650
31
0.0000000000
11
51.1150073453
21
-50.9652265873
31
0.0000000000
0
SPLINE
5
45B
100
AcDbEntity
8
0
100
AcDbSpline
62
7
6
CONTINUOUS
70
0
71
3
72
11
73
7
74
5
42
0.0000001000
43
0.0000001000
44
0.0000000001
12
-0.2537769591
22
-0.2941659927
32
0.0000000000
13
-0.3873626811
23
-0.0296685158
33
0.0000000000
40
0.0000000000
40
0.0000000000
40
0.0000000000
40
0.0000000000
40
0.2514626569
40
0.4979966954
40
0.7455330920
40
1.0000000000
40
1.0000000000
40
1.0000000000
40
1.0000000000
10
51.1150073453
20
-50.9652265873
30
0.0000000000
10
51.0937355359
20
-50.9898838414
30
0.0000000000
10
51.0471191809
20
-51.0348984112
30
0.0000000000
10
50.9653201023
20
-51.0871707730
30
0.0000000000
10
50.8742664405
20
-51.1219288695
30
0.0000000000
10
50.8098498730
20
-51.1327459522
30
0.0000000000
10
50.7769928784
20
-51.1352625040
30
0.0000000000
11
51.1150073453
21
-50.9652265873
31
0.0000000000
11
51.0446120997
21
-51.0327692006
31
0.0000000000
11
50.9639633245
21
-51.0841875279
31
0.0000000000
11
50.8742945034
21
-51.1185693766
31
0.0000000000
11
50.7769928784
21
-51.1352625040
31
0.0000000000
0
SPLINE
5
45C
100
AcDbEntity
8
0
100
AcDbSpline
62
7
6
CONTINUOUS
70
0
71
3
72
10
73
6
74
4
42
0.0000001000
43
0.0000001000
44
0.0000000001
12
-0.3239383833
22
-0.0248107820
32
0.0000000000
13
-0.3002916220
23
0.1228223164
33
0.0000000000
40
0.0000000000
40
0.0000000000
40
0.0000000000
40
0.0000000000
40
0.3129447539
40
0.6417919222
40
1.0000000000
40
1.0000000000
40
1.0000000000
40
1.0000000000
10
50.7769928784
20
-51.1352625040
30
0.0000000000
10
50.7432012725
20
-51.1378506387
30
0.0000000000
10
50.6734583069
20
-51.1367233136
30
0.0000000000
10
50.5666378373
20
-51.1174137142
30
0.0000000000
10
50.4959580964
20
-51.0936000204
30
0.0000000000
10
50.4601024682
20
-51.0789347051
30
0.0000000000
11
50.7769928784
21
-51.1352625040
31
0.0000000000
11
50.6754685042
21
-51.1340727307
31
0.0000000000
11
50.5703954332
21
-51.1155644718
31
0.0000000000
11
50.4601024682
21
-51.0789347051
31
0.0000000000
0
SPLINE
5
45D
100
AcDbEntity
8
0
100
AcDbSpline
62
7
6
CONTINUOUS
70
0
71
3
72
9
73
5
74
3
42
0.0000001000
43
0.0000001000
44
0.0000000001
12
-0.0443856264
22
0.0210631208
32
0.0000000000
13
-0.0005873242
23
0.0511160268
33
0.0000000000
40
0.0000000000
40
0.0000000000
40
0.0000000000
40
0.0000000000
40
0.7166246752
40
1.0000000000
40
1.0000000000
40
1.0000000000
40
1.0000000000
10
51.2826739761
20
-50.4315921452
30
0.0000000000
10
51.2720713644
20
-50.4265606945
30
0.0000000000
10
51.2561550788
20
-50.4172823459
30
0.0000000000
10
51.2523275597
20
-50.4001812778
30
0.0000000000
10
51.2522720820
20
-50.3953529376
30
0.0000000000
11
51.2826739761
21
-50.4315921452
31
0.0000000000
11
51.2554675556
21
-50.4092451426
31
0.0000000000
11
51.2522720820
21
-50.3953529376
31
0.0000000000
0
SPLINE
5
45E
100
AcDbEntity
8
0
100
AcDbSpline
62
7
6
CONTINUOUS
70
0
71
3
72
8
73
4
74
2
42
0.0000001000
43
0.0000001000
44
0.0000000001
12
-0.2040141186
22
0.0834436625
32
0.0000000000
13
-0.2039918321
23
0.0834984727
33
0.0000000000
40
0.0000000000
40
0.0000000000
40
0.0000000000
40
0.0000000000
40
1.0000000000
40
1.0000000000
40
1.0000000000
40
1.0000000000
10
50.4601024682
20
-51.0789347051
30
0.0000000000
10
50.3920977620
20
-51.0511201510
30
0.0000000000
10
50.3240967690
20
-51.0232964608
30
0.0000000000
10
50.2560994916
20
-50.9954636365
30
0.0000000000
11
50.4601024682
21
-51.0789347051
31
0.0000000000
11
50.2560994916
21
-50.9954636365
31
0.0000000000
0
SPLINE
5
45F
100
AcDbEntity
8
0
100
AcDbSpline
62
7
6
CONTINUOUS
70
0
71
3
72
10
73
6
74
4
42
0.0000001000
43
0.0000001000
44
0.0000000001
12
-27.6753852494
22
11.3281614010
32
0.0000000000
13
-27.2478593732
23
12.3220361964
33
0.0000000000
40
0.0000000000
40
0.0000000000
40
0.0000000000
40
0.0000000000
40
0.4382258819
40
0.9266159176
40
1.0000000000
40
1.0000000000
40
1.0000000000
40
1.0000000000
10
50.2560994916
20
-50.9954636365
30
0.0000000000
10
46.2134094558
20
-49.3406991298
30
0.0000000000
10
37.6930298024
20
-45.7734789218
30
0.0000000000
10
28.5637555796
20
-41.7700201903
30
0.0000000000
10
23.4583340044
20
-39.4693490071
30
0.0000000000
10
22.7918142851
20
-39.1679352339
30
0.0000000000
11
50.2560994916
21
-50.9954636365
31
0.0000000000
11
38.1679515590
21
-45.9347367148
31
0.0000000000
11
24.7925632359
21
-40.0695374637
31
0.0000000000
11
22.7918142851
21
-39.1679352339
31
0.0000000000
0
SPLINE
5
460
100
AcDbEntity
8
0
100
AcDbSpline
62
7
6
CONTINUOUS
70
0
71
3
72
8
73
4
74
2
42
0.0000001000
43
0.0000001000
44
0.0000000001
12
-2.5862935095
22
1.1695745270
32
0.0000000000
13
-2.5822940600
23
1.1783848912
33
0.0000000000
40
0.0000000000
40
0.0000000000
40
0.0000000000
40
0.0000000000
40
1.0000000000
40
1.0000000000
40
1.0000000000
40
1.0000000000
10
22.7918142851
20
-39.1679352339
30
0.0000000000
10
21.9297164486
20
-38.7780770582
30
0.0000000000
10
21.0682831542
20
-38.3867483053
30
0.0000000000
10
20.2075184675
20
-37.9939533415
30
0.0000000000
11
22.7918142851
21
-39.1679352339
31
0.0000000000
11
20.2075184675
21
-37.9939533415
31
0.0000000000
0
SPLINE
5
461
100
AcDbEntity
8
0
100
AcDbSpline
62
7
6
CONTINUOUS
70
0
71
3
72
8
73
4
74
2
42
0.0000001000
43
0.0000001000
44
0.0000000001
12
-0.0328758590
22
0.0150023253
32
0.0000000000
13
-0.0328752087
23
0.0150037512
33
0.0000000000
40
0.0000000000
40
0.0000000000
40
0.0000000000
40
0.0000000000
40
1.0000000000
40
1.0000000000
40
1.0000000000
40
1.0000000000
10
20.2075184675
20
-37.9939533415
30
0.0000000000
10
20.1965598479
20
-37.9889525664
30
0.0000000000
10
20.1856013366
20
-37.9839515537
30
0.0000000000
10
20.1746429337
20
-37.9789503033
30
0.0000000000
11
20.2075184675
21
-37.9939533415
31
0.0000000000
11
20.1746429337
21
-37.9789503033
31
0.0000000000
0
SPLINE
5
462
100
AcDbEntity
8
0
100
AcDbSpline
62
7
6
CONTINUOUS
70
0
71
3
72
8
73
4
74
2
42
0.0000001000
43
0.0000001000
44
0.0000000001
12
-0.1585100590
22
0.0723416087
32
0.0000000000
13
-0.1584949389
23
0.0723747531
33
0.0000000000
40
0.0000000000
40
0.0000000000
40
0.0000000000
40
0.0000000000
40
1.0000000000
40
1.0000000000
40
1.0000000000
40
1.0000000000
10
20.1746429337
20
-37.9789503033
30
0.0000000000
10
20.1218062473
20
-37.9548364337
30
0.0000000000
10
20.0689720806
20
-37.9307170396
30
0.0000000000
10
20.0161404343
20
-37.9065921219
30
0.0000000000
11
20.1746429337
21
-37.9789503033
31
0.0000000000
11
20.0161404343
21
-37.9065921219
31
0.0000000000
0
SPLINE
5
463
100
AcDbEntity
8
0
100
AcDbSpline
62
7
6
CONTINUOUS
70
0
71
3
72
8
73
4
74
2
42
0.0000001000
43
0.0000001000
44
0.0000000001
12
-0.2763454329
22
0.1261897233
32
0.0000000000
13
-0.2762994440
23
0.1262904573
33
0.0000000000
40
0.0000000000
40
0.0000000000
40
0.0000000000
40
0.0000000000
40
1.0000000000
40
1.0000000000
40
1.0000000000
40
1.0000000000
10
20.0161404343
20
-37.9065921219
30
0.0000000000
10
19.9240252900
20
-37.8645288808
30
0.0000000000
10
19.8319178080
20
-37.8224488480
30
0.0000000000
10
19.7398179933
20
-37.7803520289
30
0.0000000000
11
20.0161404343
21
-37.9065921219
31
0.0000000000
11
19.7398179933
21
-37.7803520289
31
0.0000000000
0
SPLINE
5
464
100
AcDbEntity
8
0
100
AcDbSpline
62
7
6
CONTINUOUS
70
0
71
3
72
11
73
7
74
5
42
0.0000001000
43
0.0000001000
44
0.0000000001
12
-45.4621474713
22
20.7797573139
32
0.0000000000
13
-44.1532062995
23
23.4331355564
33
0.0000000000
40
0.0000000000
40
0.0000000000
40
0.0000000000
40
0.0000000000
40
0.2149138267
40
0.5742992559
40
0.9419812796
40
1.0000000000
40
1.0000000000
40
1.0000000000
40
1.0000000000
10
19.7398179933
20
-37.7803520289
30
0.0000000000
10
16.4830032989
20
-36.2917329748
30
0.0000000000
10
7.8056645027
20
-32.2577083275
30
0.0000000000
10
-6.3122657206
20
-25.3979106743
30
0.0000000000
10
-17.9532207556
20
-19.4291973542
30
0.0000000000
10
-24.2242049075
20
-16.1146385215
30
0.0000000000
10
-25.0781090849
20
-15.6614516746
30
0.0000000000
11
19.7398179933
21
-37.7803520289
31
0.0000000000
11
9.9983572060
21
-33.2517599226
31
0.0000000000
11
-6.1595208765
21
-25.4014277264
31
0.0000000000
11
-22.5140968325
21
-17.0166694193
31
0.0000000000
11
-25.0781090849
21
-15.6614516746
31
0.0000000000
0
SPLINE
5
465
100
AcDbEntity
8
0
100
AcDbSpline
62
7
6
CONTINUOUS
70
0
71
3
72
8
73
4
74
2
42
0.0000001000
43
0.0000001000
44
0.0000000001
12
-2.5088440965
22
1.3315020296
32
0.0000000000
13
-2.5044157964
23
1.3398085115
33
0.0000000000
40
0.0000000000
40
0.0000000000
40
0.0000000000
40
0.0000000000
40
1.0000000000
40
1.0000000000
40
1.0000000000
40
1.0000000000
10
-25.0781090849
20
-15.6614516746
30
0.0000000000
10
-25.9143904504
20
-15.2176176648
30
0.0000000000
10
-26.7499354265
20
-14.7723968311
30
0.0000000000
10
-27.5847406919
20
-14.3257939940
30
0.0000000000
11
-25.0781090849
21
-15.6614516746
31
0.0000000000
11
-27.5847406919
21
-14.3257939940
31
0.0000000000
0
SPLINE
5
466
100
AcDbEntity
8
0
100
AcDbSpline
62
7
6
CONTINUOUS
70
0
71
3
72
8
73
4
74
2
42
0.0000001000
43
0.0000001000
44
0.0000000001
12
-0.0704441148
22
0.0376860842
32
0.0000000000
13
-0.0704406031
23
0.0376926444
33
0.0000000000
40
0.0000000000
40
0.0000000000
40
0.0000000000
40
0.0000000000
40
1.0000000000
40
1.0000000000
40
1.0000000000
40
1.0000000000
10
-27.5847406919
20
-14.3257939940
30
0.0000000000
10
-27.6082220635
20
-14.3132319659
30
0.0000000000
10
-27.6317028499
20
-14.3006688444
30
0.0000000000
10
-27.6551830509
20
-14.2881046296
30
0.0000000000
11
-27.5847406919
21
-14.3257939940
31
0.0000000000
11
-27.6551830509
21
-14.2881046296
31
0.0000000000
0
SPLINE
5
467
100
AcDbEntity
8
0
100
AcDbSpline
62
7
6
CONTINUOUS
70
0
71
3
72
10
73
6
74
4
42
0.0000001000
43
0.0000001000
44
0.0000000001
12
-35.2231701541
22
18.8478571781
32
0.0000000000
13
-34.3187209654
23
20.4471179823
33
0.0000000000
40
0.0000000000
40
0.0000000000
40
0.0000000000
40
0.0000000000
40
0.2783945994
40
0.6572829180
40
1.0000000000
40
1.0000000000
40
1.0000000000
40
1.0000000000
10
-27.6551830509
20
-14.2881046296
30
0.0000000000
10
-30.9238298323
20
-12.5390574135
30
0.0000000000
10
-38.6142454444
20
-8.3595765383
30
0.0000000000
10
-50.2166711697
20
-1.8236237228
30
0.0000000000
10
-58.5099306577
20
3.0304916390
30
0.0000000000
10
-62.4304679601
20
5.3663505091
30
0.0000000000
11
-27.6551830509
21
-14.2881046296
31
0.0000000000
11
-37.4268951770
21
-8.9776904863
31
0.0000000000
11
-50.6145343404
21
-1.5492374847
31
0.0000000000
11
-62.4304679601
21
5.3663505091
31
0.0000000000
0
SPLINE
5
468
100
AcDbEntity
8
0
100
AcDbSpline
62
7
6
CONTINUOUS
70
0
71
3
72
8
73
4
74
2
42
0.0000001000
43
0.0000001000
44
0.0000000001
12
-0.2153824296
22
0.0880926084
32
0.0000000000
13
-0.2153575865
23
0.0881537054
33
0.0000000000
40
0.0000000000
40
0.0000000000
40
0.0000000000
40
0.0000000000
40
1.0000000000
40
1.0000000000
40
1.0000000000
40
1.0000000000
10
50.5244722918
20
-50.9545806748
30
0.0000000000
10
50.4526781485
20
-50.9252164720
30
0.0000000000
10
50.3808881444
20
-50.8958420852
30
0.0000000000
10
50.3091022822
20
-50.8664575167
30
0.0000000000
11
50.5244722918
21
-50.9545806748
31
0.0000000000
11
50.3091022822
21
-50.8664575167
31
0.0000000000
0
SPLINE
5
469
100
AcDbEntity
8
0
100
AcDbSpline
62
7
6
CONTINUOUS
70
0
71
3
72
10
73
6
74
4
42
0.0000001000
43
0.0000001000
44
0.0000000001
12
-30.2976175304
22
12.4019185570
32
0.0000000000
13
-29.7834436907
23
13.5915653407
33
0.0000000000
40
0.0000000000
40
0.0000000000
40
0.0000000000
40
0.0000000000
40
0.3998800564
40
0.8459531612
40
1.0000000000
40
1.0000000000
40
1.0000000000
40
1.0000000000
10
50.3091022822
20
-50.8664575167
30
0.0000000000
10
46.2706312796
20
-49.2133642192
30
0.0000000000
10
37.7549081244
20
-45.6480473338
30
0.0000000000
10
27.7605812437
20
-41.2652625378
30
0.0000000000
10
21.7944778652
20
-38.5644398828
30
0.0000000000
10
20.2651294159
20
-37.8665273247
30
0.0000000000
11
50.3091022822
21
-50.8664575167
31
0.0000000000
11
38.2335348886
21
-45.8109314957
31
0.0000000000
11
24.8594849878
21
-39.9463530136
31
0.0000000000
11
20.2651294159
21
-37.8665273247
31
0.0000000000
0
SPLINE
5
46A
100
AcDbEntity
8
0
100
AcDbSpline
62
7
6
CONTINUOUS
70
0
71
3
72
8
73
4
74
2
42
0.0000001000
43
0.0000001000
44
0.0000000001
12
-0.0327778185
22
0.0149580373
32
0.0000000000
13
-0.0327771720
23
0.0149594549
33
0.0000000000
40
0.0000000000
40
0.0000000000
40
0.0000000000
40
0.0000000000
40
1.0000000000
40
1.0000000000
40
1.0000000000
40
1.0000000000
10
20.2651294159
20
-37.8665273247
30
0.0000000000
10
20.2542034764
20
-37.8615413122
30
0.0000000000
10
20.2432776447
20
-37.8565550635
30
0.0000000000
10
20.2323519206
20
-37.8515685786
30
0.0000000000
11
20.2651294159
21
-37.8665273247
31
0.0000000000
11
20.2323519206
21
-37.8515685786
31
0.0000000000
0
SPLINE
5
46B
100
AcDbEntity
8
0
100
AcDbSpline
62
7
6
CONTINUOUS
70
0
71
3
72
8
73
4
74
2
42
0.0000001000
43
0.0000001000
44
0.0000000001
12
-0.1484880378
22
0.0677697302
32
0.0000000000
13
-0.1484747670
23
0.0677988203
33
0.0000000000
40
0.0000000000
40
0.0000000000
40
0.0000000000
40
0.0000000000
40
1.0000000000
40
1.0000000000
40
1.0000000000
40
1.0000000000
10
20.2323519206
20
-37.8515685786
30
0.0000000000
10
20.1828559080
20
-37.8289786685
30
0.0000000000
10
20.1333621068
20
-37.8063839096
30
0.0000000000
10
20.0838705178
20
-37.7837843029
30
0.0000000000
11
20.2323519206
21
-37.8515685786
31
0.0000000000
11
20.0838705178
21
-37.7837843029
31
0.0000000000
0
SPLINE
5
46C
100
AcDbEntity
8
0
100
AcDbSpline
62
7
6
CONTINUOUS
70
0
71
3
72
8
73
4
74
2
42
0.0000001000
43
0.0000001000
44
0.0000000001
12
-0.2857498821
22
0.1304834841
32
0.0000000000
13
-0.2857007026
23
0.1305912057
33
0.0000000000
40
0.0000000000
40
0.0000000000
40
0.0000000000
40
0.0000000000
40
1.0000000000
40
1.0000000000
40
1.0000000000
40
1.0000000000
10
20.0838705178
20
-37.7837843029
30
0.0000000000
10
19.9886205571
20
-37.7402898082
30
0.0000000000
10
19.8933787902
20
-37.6967773569
30
0.0000000000
10
19.7981452227
20
-37.6532469550
30
0.0000000000
11
20.0838705178
21
-37.7837843029
31
0.0000000000
11
19.7981452227
21
-37.6532469550
31
0.0000000000
0
SPLINE
5
46D
100
AcDbEntity
8
0
100
AcDbSpline
62
7
6
CONTINUOUS
70
0
71
3
72
11
73
7
74
5
42
0.0000001000
43
0.0000001000
44
0.0000000001
12
-45.4545427758
22
20.7768601635
32
0.0000000000
13
-44.1458188110
23
23.4297318239
33
0.0000000000
40
0.0000000000
40
0.0000000000
40
0.0000000000
40
0.0000000000
40
0.2147267629
40
0.5741341734
40
0.9418386778
40
1.0000000000
40
1.0000000000
40
1.0000000000
40
1.0000000000
10
19.7981452227
20
-37.6532469550
30
0.0000000000
10
16.5447096129
20
-36.1661309796
30
0.0000000000
10
7.8712940087
20
-32.1338799142
30
0.0000000000
10
-6.2422090523
20
-25.2762418515
30
0.0000000000
10
-17.8840436459
20
-19.3070713535
30
0.0000000000
10
-24.1564238299
20
-15.9917344058
30
0.0000000000
10
-25.0122835600
20
-15.5374996788
30
0.0000000000
11
19.7981452227
21
-37.6532469550
31
0.0000000000
11
10.0667663246
21
-33.1292850353
31
0.0000000000
11
-6.0894785761
21
-25.2797560257
31
0.0000000000
11
-22.4423937284
21
-16.8958405080
31
0.0000000000
11
-25.0122835600
21
-15.5374996788
31
0.0000000000
0
SPLINE
5
46E
100
AcDbEntity
8
0
100
AcDbSpline
62
7
6
CONTINUOUS
70
0
71
3
72
8
73
4
74
2
42
0.0000001000
43
0.0000001000
44
0.0000000001
12
-2.5088280434
22
1.3315228901
32
0.0000000000
13
-2.5043990621
23
1.3398304623
33
0.0000000000
40
0.0000000000
40
0.0000000000
40
0.0000000000
40
0.0000000000
40
1.0000000000
40
1.0000000000
40
1.0000000000
40
1.0000000000
10
-25.0122835600
20
-15.5374996788
30
0.0000000000
10
-25.8485595745
20
-15.0936587155
30
0.0000000000
10
-26.6840990865
20
-14.6484307460
30
0.0000000000
10
-27.5188987739
20
-14.2018205919
30
0.0000000000
11
-25.0122835600
21
-15.5374996788
31
0.0000000000
11
-27.5188987739
21
-14.2018205919
31
0.0000000000
0
SPLINE
5
46F
100
AcDbEntity
8
0
100
AcDbSpline
62
7
6
CONTINUOUS
70
0
71
3
72
8
73
4
74
2
42
0.0000001000
43
0.0000001000
44
0.0000000001
12
-0.0644147544
22
0.0344613011
32
0.0000000000
13
-0.0644118177
23
0.0344667872
33
0.0000000000
40
0.0000000000
40
0.0000000000
40
0.0000000000
40
0.0000000000
40
1.0000000000
40
1.0000000000
40
1.0000000000
40
1.0000000000
10
-27.5188987739
20
-14.2018205919
30
0.0000000000
10
-27.5403703587
20
-14.1903334915
30
0.0000000000
10
-27.5618414541
20
-14.1788454768
30
0.0000000000
10
-27.5833120600
20
-14.1673565477
30
0.0000000000
11
-27.5188987739
21
-14.2018205919
31
0.0000000000
11
-27.5833120600
21
-14.1673565477
31
0.0000000000
0
SPLINE
5
470
100
AcDbEntity
8
0
100
AcDbSpline
62
7
6
CONTINUOUS
70
0
71
3
72
8
73
4
74
2
42
0.0000001000
43
0.0000001000
44
0.0000000001
12
-0.4549637789
22
0.2434512845
32
0.0000000000
13
-0.4548171925
23
0.2437248913
33
0.0000000000
40
0.0000000000
40
0.0000000000
40
0.0000000000
40
0.0000000000
40
1.0000000000
40
1.0000000000
40
1.0000000000
40
1.0000000000
10
-27.5833120600
20
-14.1673565477
30
0.0000000000
10
-27.7349666529
20
-14.0862061195
30
0.0000000000
10
-27.8865968248
20
-14.0050100758
30
0.0000000000
10
-28.0382025557
20
-13.9237684453
30
0.0000000000
11
-27.5833120600
21
-14.1673565477
31
0.0000000000
11
-28.0382025557
21
-13.9237684453
31
0.0000000000
0
SPLINE
5
471
100
AcDbEntity
8
0
100
AcDbSpline
62
7
6
CONTINUOUS
70
0
71
3
72
10
73
6
74
4
42
0.0000001000
43
0.0000001000
44
0.0000000001
12
-34.7530727159
22
18.6232820754
32
0.0000000000
13
-33.8715741082
23
20.1808513407
33
0.0000000000
40
0.0000000000
40
0.0000000000
40
0.0000000000
40
0.0000000000
40
0.2689433461
40
0.6527939093
40
1.0000000000
40
1.0000000000
40
1.0000000000
40
1.0000000000
10
-28.0382025557
20
-13.9237684453
30
0.0000000000
10
-31.1537384440
20
-12.2542325128
30
0.0000000000
10
-38.6908829842
20
-8.1551150333
30
0.0000000000
10
-50.1421458963
20
-1.7042847892
30
0.0000000000
10
-58.4345584657
20
3.1493660099
30
0.0000000000
10
-62.3546974098
20
5.4850041770
30
0.0000000000
11
-28.0382025557
21
-13.9237684453
31
0.0000000000
11
-37.3536720670
21
-8.8576560362
31
0.0000000000
11
-50.5399616556
21
-1.4299270562
31
0.0000000000
11
-62.3546974098
21
5.4850041770
31
0.0000000000
0
SPLINE
5
472
100
AcDbEntity
8
0
100
AcDbSpline
62
7
6
CONTINUOUS
70
0
71
3
72
10
73
6
74
4
42
0.0000001000
43
0.0000001000
44
0.0000000001
12
-0.0065775536
22
0.1455361591
32
0.0000000000
13
0.1284007528
23
0.0688279339
33
0.0000000000
40
0.0000000000
40
0.0000000000
40
0.0000000000
40
0.0000000000
40
0.3386198267
40
0.6901161625
40
1.0000000000
40
1.0000000000
40
1.0000000000
40
1.0000000000
10
50.4601024692
20
-51.0789347046
30
0.0000000000
10
50.4593600392
20
-51.0625075616
30
0.0000000000
10
50.4650376070
20
-51.0286019785
30
0.0000000000
10
50.4872580091
20
-50.9848276047
30
0.0000000000
10
50.5112091858
20
-50.9616902296
30
0.0000000000
10
50.5244722918
20
-50.9545806748
30
0.0000000000
11
50.4601024692
21
-51.0789347046
31
0.0000000000
11
50.4672566923
21
-51.0301244889
31
0.0000000000
11
50.4907967286
21
-50.9846482353
31
0.0000000000
11
50.5244722918
21
-50.9545806748
31
0.0000000000
0
SPLINE
5
473
100
AcDbEntity
8
0
100
AcDbSpline
62
7
6
CONTINUOUS
70
0
71
3
72
8
73
4
74
2
42
0.0000001000
43
0.0000001000
44
0.0000000001
12
-0.6111050643
22
-0.3806670075
32
0.0000000000
13
-0.6111050476
23
-0.3806670344
33
0.0000000000
40
0.0000000000
40
0.0000000000
40
0.0000000000
40
0.0000000000
40
1.0000000000
40
1.0000000000
40
1.0000000000
40
1.0000000000
10
-73.3721905516
20
73.4184974964
30
0.0000000000
10
-73.5758922397
20
73.2916084939
30
0.0000000000
10
-73.7795939251
20
73.1647194869
30
0.0000000000
10
-73.9832956076
20
73.0378304754
30
0.0000000000
11
-73.3721905516
21
73.4184974964
31
0.0000000000
11
-73.9832956076
21
73.0378304754
31
0.0000000000
0
SPLINE
5
474
100
AcDbEntity
8
0
100
AcDbSpline
62
7
6
CONTINUOUS
70
0
71
3
72
9
73
5
74
3
42
0.0000001000
43
0.0000001000
44
0.0000000001
12
-2.2293304343
22
-1.3886853143
32
0.0000000000
13
-2.2293302116
23
-1.3886856718
33
0.0000000000
40
0.0000000000
40
0.0000000000
40
0.0000000000
40
0.0000000000
40
0.3629397597
40
1.0000000000
40
1.0000000000
40
1.0000000000
40
1.0000000000
10
-73.9832956076
20
73.0378304754
30
0.0000000000
10
-74.2529998250
20
72.8698274373
30
0.0000000000
10
-74.9961099563
20
72.4069323109
30
0.0000000000
10
-75.7392200505
20
71.9440371249
30
0.0000000000
10
-76.2126259305
20
71.6491449824
30
0.0000000000
11
-73.9832956076
21
73.0378304754
31
0.0000000000
11
-74.7924082451
21
72.5338213376
31
0.0000000000
11
-76.2126259305
21
71.6491449824
31
0.0000000000
0
SPLINE
5
475
100
AcDbEntity
8
0
100
AcDbSpline
62
7
6
CONTINUOUS
70
0
71
3
72
12
73
8
74
6
42
0.0000001000
43
0.0000001000
44
0.0000000001
12
2.4774497018
22
-1.2637708375
32
0.0000000000
13
0.0591753079
23
-2.7805344878
33
0.0000000000
40
0.0000000000
40
0.0000000000
40
0.0000000000
40
0.0000000000
40
0.1812902646
40
0.3845973935
40
0.5995581343
40
0.8095853094
40
1.0000000000
40
1.0000000000
40
1.0000000000
40
1.0000000000
10
66.3123824724
20
0.3865522216
30
0.0000000000
10
66.4620949764
20
0.3101824384
30
0.0000000000
10
66.7544570450
20
0.0978216240
30
0.0000000000
10
67.1235217866
20
-0.3221442261
30
0.0000000000
10
67.4205009465
20
-0.8273325023
30
0.0000000000
10
67.6160922610
20
-1.3665081326
30
0.0000000000
10
67.6719634567
20
-1.7371741523
30
0.0000000000
10
67.6757194060
20
-1.9136590237
30
0.0000000000
11
66.3123824724
21
0.3865522216
31
0.0000000000
11
66.7253620505
21
0.0973058444
31
0.0000000000
11
67.1022280359
21
-0.3242195598
31
0.0000000000
11
67.4059965829
21
-0.8391357130
31
0.0000000000
11
67.6026843629
21
-1.3891449291
31
0.0000000000
11
67.6757194060
21
-1.9136590237
31
0.0000000000
0
SPLINE
5
476
100
AcDbEntity
8
0
100
AcDbSpline
62
7
6
CONTINUOUS
70
0
71
3
72
12
73
8
74
6
42
0.0000001000
43
0.0000001000
44
0.0000000001
12
1.3330825246
22
-0.6244946010
32
0.0000000000
13
-0.0001758998
23
-1.4721081798
33
0.0000000000
40
0.0000000000
40
0.0000000000
40
0.0000000000
40
0.0000000000
40
0.1827230636
40
0.3865489757
40
0.6008948253
40
0.8102899431
40
1.0000000000
40
1.0000000000
40
1.0000000000
40
1.0000000000
10
65.7291083283
20
-0.7028288520
30
0.0000000000
10
65.8103033026
20
-0.7408653743
30
0.0000000000
10
65.9695084274
20
-0.8488428846
30
0.0000000000
10
66.1702506126
20
-1.0675251017
30
0.0000000000
10
66.3298556027
20
-1.3333691404
30
0.0000000000
10
66.4320986953
20
-1.6184719155
30
0.0000000000
10
66.4584164336
20
-1.8146609001
30
0.0000000000
10
66.4584053102
20
-1.9077521423
30
0.0000000000
11
65.7291083283
21
-0.7028288520
31
0.0000000000
11
65.9540978716
21
-0.8502544716
31
0.0000000000
11
66.1588132403
21
-1.0696260684
31
0.0000000000
11
66.3216107163
21
-1.3399271052
31
0.0000000000
11
66.4243135705
21
-1.6305670620
31
0.0000000000
11
66.4584053102
21
-1.9077521423
31
0.0000000000
0
SPLINE
5
477
100
AcDbEntity
8
0
100
AcDbSpline
62
7
6
CONTINUOUS
70
0
71
3
72
11
73
7
74
5
42
0.0000001000
43
0.0000001000
44
0.0000000001
12
-1.0976487268
22
-0.6586105880
32
0.0000000000
13
-0.0002788625
23
-1.2800783399
33
0.0000000000
40
0.0000000000
40
0.0000000000
40
0.0000000000
40
0.0000000000
40
0.2307125284
40
0.4893439759
40
0.7537547754
40
1.0000000000
40
1.0000000000
40
1.0000000000
40
1.0000000000
10
66.3123824724
20
0.3865522216
30
0.0000000000
10
66.2279687014
20
0.3359023169
30
0.0000000000
10
66.0688541025
20
0.1950418958
30
0.0000000000
10
65.8863310418
20
-0.0727077392
30
0.0000000000
10
65.7630309026
20
-0.3795380155
30
0.0000000000
10
65.7291312519
20
-0.5977577744
30
0.0000000000
10
65.7291083624
20
-0.7028288339
30
0.0000000000
11
66.3123824724
21
0.3865522216
31
0.0000000000
11
66.0869612805
21
0.1957508472
31
0.0000000000
11
65.8982010552
21
-0.0762343426
31
0.0000000000
11
65.7729742061
21
-0.3906828100
31
0.0000000000
11
65.7291083624
21
-0.7028288339
31
0.0000000000
0
SPLINE
5
478
100
AcDbEntity
8
0
100
AcDbSpline
62
7
6
CONTINUOUS
70
0
71
3
72
11
73
7
74
5
42
0.0000001000
43
0.0000001000
44
0.0000000001
12
-1.1370823694
22
-0.5119167530
32
0.0000000000
13
-1.1293495288
23
0.5287577125
33
0.0000000000
40
0.0000000000
40
0.0000000000
40
0.0000000000
40
0.0000000000
40
0.2379103915
40
0.5013436507
40
0.7640595523
40
1.0000000000
40
1.0000000000
40
1.0000000000
40
1.0000000000
10
67.6757828442
20
-1.9136942598
30
0.0000000000
10
67.5856082736
20
-1.9542910315
30
0.0000000000
10
67.3830603146
20
-2.0121994803
30
0.0000000000
10
67.0650314296
20
-2.0390099169
30
0.0000000000
10
66.7480936670
20
-2.0092576601
30
0.0000000000
10
66.5472250547
20
-1.9493372528
30
0.0000000000
10
66.4584053102
20
-1.9077521423
30
0.0000000000
11
67.6757828442
21
-1.9136942598
31
0.0000000000
11
67.3919915625
21
-2.0001723949
31
0.0000000000
11
67.0647797701
21
-2.0292576454
31
0.0000000000
11
66.7387659711
21
-1.9969839508
31
0.0000000000
11
66.4584053102
21
-1.9077521423
31
0.0000000000
0
SPLINE
5
479
100
AcDbEntity
8
0
100
AcDbSpline
62
7
6
CONTINUOUS
70
0
71
3
72
10
73
6
74
4
42
0.0000001000
43
0.0000001000
44
0.0000000001
12
-0.0265482029
22
-1.2714617552
32
0.0000000000
13
-1.1896929153
23
-0.4693579070
33
0.0000000000
40
0.0000000000
40
0.0000000000
40
0.0000000000
40
0.0000000000
40
0.3744810832
40
0.7033182949
40
1.0000000000
40
1.0000000000
40
1.0000000000
40
1.0000000000
10
67.6757192728
20
-71.6851193564
30
0.0000000000
10
67.6724053396
20
-71.8438321482
30
0.0000000000
10
67.6321532896
20
-72.1434281461
30
0.0000000000
10
67.4402272441
20
-72.5335774859
30
0.0000000000
10
67.2186421081
20
-72.7004031609
30
0.0000000000
10
67.1009887339
20
-72.7468197957
30
0.0000000000
11
67.6757192728
21
-71.6851193564
31
0.0000000000
11
67.6026840193
21
-72.1557279449
31
0.0000000000
11
67.4059960697
21
-72.5247820973
31
0.0000000000
11
67.1009887339
21
-72.7468197957
31
0.0000000000
0
SPLINE
5
47A
100
AcDbEntity
8
0
100
AcDbSpline
62
7
6
CONTINUOUS
70
0
71
3
72
12
73
8
74
6
42
0.0000001000
43
0.0000001000
44
0.0000000001
12
0.0001313982
22
-1.1088127277
32
0.0000000000
13
-1.0040658501
23
0.4704438873
33
0.0000000000
40
0.0000000000
40
0.0000000000
40
0.0000000000
40
0.0000000000
40
0.2233194378
40
0.4216550005
40
0.6028979258
40
0.7891951752
40
1.0000000000
40
1.0000000000
40
1.0000000000
40
1.0000000000
10
66.4584053102
20
-71.6792125304
30
0.0000000000
10
66.4584150915
20
-71.7617523421
30
0.0000000000
10
66.4399692776
20
-71.9188634677
30
0.0000000000
10
66.3393630520
20
-72.1246530594
30
0.0000000000
10
66.1635748109
20
-72.2547322889
30
0.0000000000
10
65.9429408706
20
-72.2789326836
30
0.0000000000
10
65.7996623035
20
-72.2340636633
30
0.0000000000
10
65.7291083283
20
-72.2010063829
30
0.0000000000
11
66.4584053102
21
-71.6792125304
31
0.0000000000
11
66.4243136403
21
-71.9244739083
31
0.0000000000
11
66.3216106853
21
-72.1189362156
31
0.0000000000
11
66.1588132460
21
-72.2367653694
31
0.0000000000
11
65.9540978718
21
-72.2643745939
31
0.0000000000
11
65.7291083283
21
-72.2010063829
31
0.0000000000
0
SPLINE
5
47B
100
AcDbEntity
8
0
100
AcDbSpline
62
7
6
CONTINUOUS
70
0
71
3
72
11
73
7
74
5
42
0.0000001000
43
0.0000001000
44
0.0000000001
12
-1.1370818036
22
-0.5119185418
32
0.0000000000
13
-1.1293489731
23
0.5287594146
33
0.0000000000
40
0.0000000000
40
0.0000000000
40
0.0000000000
40
0.0000000000
40
0.2379202403
40
0.5013584134
40
0.7640704590
40
1.0000000000
40
1.0000000000
40
1.0000000000
40
1.0000000000
10
67.6757828442
20
-71.6851546479
30
0.0000000000
10
67.5856045855
20
-71.7257532420
30
0.0000000000
10
67.3830502025
20
-71.7836625604
30
0.0000000000
10
67.0650164911
20
-71.8104707531
30
0.0000000000
10
66.7480830060
20
-71.7807159104
30
0.0000000000
10
66.5472209052
20
-71.7207958524
30
0.0000000000
10
66.4584053102
20
-71.6792125304
30
0.0000000000
11
67.6757828442
21
-71.6851546479
31
0.0000000000
11
67.3919794676
21
-71.7716354032
31
0.0000000000
11
67.0647612636
21
-71.8007183811
31
0.0000000000
11
66.7387525085
21
-71.7684419627
31
0.0000000000
11
66.4584053102
21
-71.6792125304
31
0.0000000000
0
SPLINE
5
47C
100
AcDbEntity
8
0
100
AcDbSpline
62
7
6
CONTINUOUS
70
0
71
3
72
10
73
6
74
4
42
0.0000001000
43
0.0000001000
44
0.0000000001
12
-143.9709449078
22
67.4175784400
32
0.0000000000
13
-140.2518762765
23
74.8477979439
33
0.0000000000
40
0.0000000000
40
0.0000000000
40
0.0000000000
40
0.0000000000
40
0.3385585064
40
0.6728190327
40
1.0000000000
40
1.0000000000
40
1.0000000000
40
1.0000000000
10
65.7291083283
20
-72.2010063829
30
0.0000000000
10
49.4815789696
20
-64.5927414952
30
0.0000000000
10
17.3183327472
20
-49.2027492592
30
0.0000000000
10
-30.0834286026
20
-25.5085647511
30
0.0000000000
10
-61.1565313777
20
-9.2860660178
30
0.0000000000
10
-76.4524462279
20
-1.1231410398
30
0.0000000000
11
65.7291083283
21
-72.2010063829
31
0.0000000000
11
17.1813496420
21
-48.9646927704
31
0.0000000000
11
-30.3474063379
21
-25.2003147718
31
0.0000000000
11
-76.4524462279
21
-1.1231410398
31
0.0000000000
0
SPLINE
5
47D
100
AcDbEntity
8
0
100
AcDbSpline
62
7
6
CONTINUOUS
70
0
71
3
72
8
73
4
74
2
42
0.0000001000
43
0.0000001000
44
0.0000000001
12
-0.3824317004
22
0.2040911780
32
0.0000000000
13
-0.3824007078
23
0.2041489000
33
0.0000000000
40
0.0000000000
40
0.0000000000
40
0.0000000000
40
0.0000000000
40
1.0000000000
40
1.0000000000
40
1.0000000000
40
1.0000000000
10
-76.4524462279
20
-1.1231410398
30
0.0000000000
10
-76.5799234614
20
-1.0551106471
30
0.0000000000
10
-76.7073955311
20
-0.9870706353
30
0.0000000000
10
-76.8348624337
20
-0.9190210019
30
0.0000000000
11
-76.4524462279
21
-1.1231410398
31
0.0000000000
11
-76.8348624337
21
-0.9190210019
31
0.0000000000
0
SPLINE
5
47E
100
AcDbEntity
8
0
100
AcDbSpline
62
7
6
CONTINUOUS
70
0
71
3
72
12
73
8
74
6
42
0.0000001000
43
0.0000001000
44
0.0000000001
12
-1.2897124989
22
0.6881594605
32
0.0000000000
13
0.0001634741
23
1.4618213797
33
0.0000000000
40
0.0000000000
40
0.0000000000
40
0.0000000000
40
0.0000000000
40
0.1787939160
40
0.3814706471
40
0.5968498971
40
0.8083936418
40
1.0000000000
40
1.0000000000
40
1.0000000000
40
1.0000000000
10
-76.8348624337
20
-0.9190210019
30
0.0000000000
10
-76.9117266831
20
-0.8780080937
30
0.0000000000
10
-77.0616892733
20
-0.7638227773
30
0.0000000000
10
-77.2489985645
20
-0.5390577847
30
0.0000000000
10
-77.3979300184
20
-0.2686921068
30
0.0000000000
10
-77.4933135450
20
0.0188894270
30
0.0000000000
10
-77.5180023123
20
0.2156213034
30
0.0000000000
10
-77.5179918714
20
0.3089860604
30
0.0000000000
11
-76.8348624337
21
-0.9190210019
31
0.0000000000
11
-77.0456562631
21
-0.7644975254
31
0.0000000000
11
-77.2374186244
21
-0.5386494249
31
0.0000000000
11
-77.3898905606
21
-0.2631856182
31
0.0000000000
11
-77.4860681101
21
0.0307169909
31
0.0000000000
11
-77.5179918714
21
0.3089860604
31
0.0000000000
0
SPLINE
5
47F
100
AcDbEntity
8
0
100
AcDbSpline
62
7
6
CONTINUOUS
70
0
71
3
72
12
73
8
74
6
42
0.0000001000
43
0.0000001000
44
0.0000000001
12
-0.0001181202
22
1.0650475794
32
0.0000000000
13
0.9396199845
23
-0.5014385757
33
0.0000000000
40
0.0000000000
40
0.0000000000
40
0.0000000000
40
0.0000000000
40
0.2312153938
40
0.4321704913
40
0.6101739550
40
0.7913144935
40
1.0000000000
40
1.0000000000
40
1.0000000000
40
1.0000000000
10
-77.5179918714
20
70.0804464485
30
0.0000000000
10
-77.5180009752
20
70.1625315804
30
0.0000000000
10
-77.5011562959
20
70.3170018323
30
0.0000000000
10
-77.4087677942
20
70.5193414725
30
0.0000000000
10
-77.2430073786
20
70.6465815213
30
0.0000000000
10
-77.0330133965
20
70.6637230754
30
0.0000000000
10
-76.9002241245
20
70.6140375167
30
0.0000000000
10
-76.8348624337
20
70.5791565289
30
0.0000000000
11
-77.5179918714
21
70.0804464485
31
0.0000000000
11
-77.4860681755
21
70.3246238394
31
0.0000000000
11
-77.3898905315
21
70.5158234912
31
0.0000000000
11
-77.2374186298
21
70.6284898763
31
0.0000000000
11
-77.0456562633
21
70.6496225968
31
0.0000000000
11
-76.8348624337
21
70.5791565289
31
0.0000000000
0
SPLINE
5
480
100
AcDbEntity
8
0
100
AcDbSpline
62
7
6
CONTINUOUS
70
0
71
3
72
10
73
6
74
4
42
0.0000001000
43
0.0000001000
44
0.0000000001
12
140.6124153525
22
-74.9992582705
32
0.0000000000
13
144.2984284723
23
-67.6365554475
33
0.0000000000
40
0.0000000000
40
0.0000000000
40
0.0000000000
40
0.0000000000
40
0.3289685528
40
0.6623210481
40
1.0000000000
40
1.0000000000
40
1.0000000000
40
1.0000000000
10
-76.2126259305
20
71.6491449820
30
0.0000000000
10
-60.7936050048
20
63.4250124985
30
0.0000000000
10
-29.6001022750
20
47.1467030965
30
0.0000000000
10
17.9177086535
20
23.3944778337
30
0.0000000000
10
50.0701979627
20
7.9997897392
30
0.0000000000
10
66.3123786574
20
0.3866426885
30
0.0000000000
11
-76.2126259305
21
71.6491449820
31
0.0000000000
11
-29.7378568301
21
47.3893245003
31
0.0000000000
11
17.7779043823
21
23.6314438802
31
0.0000000000
11
66.3123786574
21
0.3866426885
31
0.0000000000
0
SPLINE
5
481
100
AcDbEntity
8
0
100
AcDbSpline
62
7
6
CONTINUOUS
70
0
71
3
72
10
73
6
74
4
42
0.0000001000
43
0.0000001000
44
0.0000000001
12
140.6508177439
22
-75.0198409823
32
0.0000000000
13
144.3379150055
23
-67.6549729504
33
0.0000000000
40
0.0000000000
40
0.0000000000
40
0.0000000000
40
0.0000000000
40
0.3289684763
40
0.6623209985
40
1.0000000000
40
1.0000000000
40
1.0000000000
40
1.0000000000
10
-76.8348624337
20
70.5791565289
30
0.0000000000
10
-61.4116340301
20
62.3527689343
30
0.0000000000
10
-30.2096107344
20
46.0699994920
30
0.0000000000
10
17.3211918693
20
22.3112804460
30
0.0000000000
10
49.4824806563
20
6.9123923852
30
0.0000000000
10
65.7291083283
20
-0.7028288520
30
0.0000000000
11
-76.8348624337
21
70.5791565289
31
0.0000000000
11
-30.3474064217
21
46.3126924534
31
0.0000000000
11
17.1813495561
21
22.5483144542
31
0.0000000000
11
65.7291083283
21
-0.7028288520
31
0.0000000000
0
SPLINE
5
482
100
AcDbEntity
8
0
100
AcDbSpline
62
7
6
CONTINUOUS
70
0
71
3
72
11
73
7
74
5
42
0.0000001000
43
0.0000001000
44
0.0000000001
12
-1.1375752868
22
-0.6037641618
32
0.0000000000
13
0.0001945953
23
-1.2878698142
33
0.0000000000
40
0.0000000000
40
0.0000000000
40
0.0000000000
40
0.0000000000
40
0.2348137904
40
0.4936894194
40
0.7560061970
40
1.0000000000
40
1.0000000000
40
1.0000000000
40
1.0000000000
10
-76.2126259305
20
71.6491449820
30
0.0000000000
10
-76.3016653855
20
71.6018875982
30
0.0000000000
10
-76.4707572487
20
71.4677756578
30
0.0000000000
10
-76.6665700304
20
71.2054345593
30
0.0000000000
10
-76.7987806344
20
70.9016773196
30
0.0000000000
10
-76.8348782534
20
70.6839006168
30
0.0000000000
10
-76.8348624267
20
70.5791565322
30
0.0000000000
11
-76.2126259305
21
71.6491449820
31
0.0000000000
11
-76.4531905732
21
71.4658959261
31
0.0000000000
11
-76.6545913664
21
71.2002043349
31
0.0000000000
11
-76.7881539580
21
70.8898979528
31
0.0000000000
11
-76.8348624267
21
70.5791565322
31
0.0000000000
0
SPLINE
5
483
100
AcDbEntity
8
0
100
AcDbSpline
62
7
6
CONTINUOUS
70
0
71
3
72
10
73
6
74
4
42
0.0000001000
43
0.0000001000
44
0.0000000001
12
0.8010287692
22
0.5031622609
32
0.0000000000
13
0.8404893374
23
-0.4118716624
33
0.0000000000
40
0.0000000000
40
0.0000000000
40
0.0000000000
40
0.0000000000
40
0.1342865019
40
0.5359009538
40
1.0000000000
40
1.0000000000
40
1.0000000000
40
1.0000000000
10
-77.1143584345
20
71.6703153726
30
0.0000000000
10
-77.0785026507
20
71.6928380059
30
0.0000000000
10
-76.9278422557
20
71.7699427253
30
0.0000000000
10
-76.6044597417
20
71.8009763654
30
0.0000000000
10
-76.3426452764
20
71.7127708040
30
0.0000000000
10
-76.2126218431
20
71.6490543887
30
0.0000000000
11
-77.1143584345
21
71.6703153726
31
0.0000000000
11
-77.0015758189
21
71.7276827411
31
0.0000000000
11
-76.6285706078
21
71.7742721913
31
0.0000000000
11
-76.2126218431
21
71.6490543887
31
0.0000000000
0
SPLINE
5
484
100
AcDbEntity
8
0
100
AcDbSpline
62
7
6
CONTINUOUS
70
0
71
3
72
10
73
6
74
4
42
0.0000001000
43
0.0000001000
44
0.0000000001
12
-0.0018000228
22
-0.4051864000
32
0.0000000000
13
0.3587298830
23
-0.1915493724
33
0.0000000000
40
0.0000000000
40
0.0000000000
40
0.0000000000
40
0.0000000000
40
0.0108656609
40
0.4419825597
40
1.0000000000
40
1.0000000000
40
1.0000000000
40
1.0000000000
10
-77.7610317547
20
70.3880267554
30
0.0000000000
10
-77.7610382742
20
70.3865592161
30
0.0000000000
10
-77.7606475890
20
70.3268714619
30
0.0000000000
10
-77.6985014758
20
70.1931821596
30
0.0000000000
10
-77.5847177151
20
70.1160757454
30
0.0000000000
10
-77.5179918714
20
70.0804464485
30
0.0000000000
11
-77.7610317547
21
70.3880267554
31
0.0000000000
11
-77.7610027007
21
70.3836248612
31
0.0000000000
11
-77.6964500941
21
70.2206203686
31
0.0000000000
11
-77.5179918714
21
70.0804464485
31
0.0000000000
0
SPLINE
5
485
100
AcDbEntity
8
0
100
AcDbSpline
62
7
6
CONTINUOUS
70
0
71
3
72
10
73
6
74
4
42
0.0000001000
43
0.0000001000
44
0.0000000001
12
-0.0017962538
22
-0.4051853352
32
0.0000000000
13
0.3587295360
23
-0.1915485215
33
0.0000000000
40
0.0000000000
40
0.0000000000
40
0.0000000000
40
0.0000000000
40
0.0108429930
40
0.4419614198
40
1.0000000000
40
1.0000000000
40
1.0000000000
40
1.0000000000
10
-77.7610318156
20
0.6165659907
30
0.0000000000
10
-77.7610383078
20
0.6151015168
30
0.0000000000
10
-77.7606484352
20
0.5554167464
30
0.0000000000
10
-77.6985071090
20
0.4217250142
30
0.0000000000
10
-77.5847201784
20
0.3446165487
30
0.0000000000
10
-77.5179918714
20
0.3089860604
30
0.0000000000
11
-77.7610318156
21
0.6165659907
31
0.0000000000
11
-77.7610028815
21
0.6121732884
31
0.0000000000
11
-77.6964554895
21
0.4491663904
31
0.0000000000
11
-77.5179918714
21
0.3089860604
31
0.0000000000
0
SPLINE
5
486
100
AcDbEntity
8
0
100
AcDbSpline
62
7
6
CONTINUOUS
70
0
71
3
72
10
73
6
74
4
42
0.0000001000
43
0.0000001000
44
0.0000000001
12
-0.5212842059
22
0.2393778021
32
0.0000000000
13
-0.0000910258
23
0.5644698609
33
0.0000000000
40
0.0000000000
40
0.0000000000
40
0.0000000000
40
0.0000000000
40
0.1335546219
40
0.5233432088
40
1.0000000000
40
1.0000000000
40
1.0000000000
40
1.0000000000
10
65.9631947096
20
-72.6868550866
30
0.0000000000
10
65.9399880712
20
-72.6761984160
30
0.0000000000
10
65.8540860120
20
-72.6244017796
30
0.0000000000
10
65.7498002463
20
-72.4555587129
30
0.0000000000
10
65.7291227975
20
-72.2906925103
30
0.0000000000
10
65.7291083348
20
-72.2010063795
30
0.0000000000
11
65.9631947096
21
-72.6868550866
31
0.0000000000
11
65.8981845162
21
-72.6473805613
31
0.0000000000
11
65.7729615657
21
-72.4664669503
31
0.0000000000
11
65.7291083348
21
-72.2010063795
31
0.0000000000
0
SPLINE
5
487
100
AcDbEntity
8
0
100
AcDbSpline
62
7
6
CONTINUOUS
70
0
71
3
72
10
73
6
74
4
42
0.0000001000
43
0.0000001000
44
0.0000000001
12
-0.5034815879
22
0.2634786235
32
0.0000000000
13
0.0000517943
23
0.5614324354
33
0.0000000000
40
0.0000000000
40
0.0000000000
40
0.0000000000
40
0.0000000000
40
0.1109684682
40
0.5174636887
40
1.0000000000
40
1.0000000000
40
1.0000000000
40
1.0000000000
10
-76.6016844176
20
-1.4047330724
30
0.0000000000
10
-76.6203079444
20
-1.3949871327
30
0.0000000000
10
-76.7030381534
20
-1.3423494310
30
0.0000000000
10
-76.8118052736
20
-1.1781760508
30
0.0000000000
10
-76.8348707282
20
-1.0093248304
30
0.0000000000
10
-76.8348623973
20
-0.9190209849
30
0.0000000000
11
-76.6016844176
21
-1.4047330724
31
0.0000000000
11
-76.6545741748
21
-1.3709250184
31
0.0000000000
11
-76.7881408098
21
-1.1858732932
31
0.0000000000
11
-76.8348623973
21
-0.9190209849
31
0.0000000000
0
SPLINE
5
488
100
AcDbEntity
8
0
100
AcDbSpline
62
7
6
CONTINUOUS
70
0
71
3
72
13
73
9
74
7
42
0.0000001000
43
0.0000001000
44
0.0000000001
12
-0.4283474092
22
-0.2222949100
32
0.0000000000
13
-0.4461764045
23
0.1818546951
33
0.0000000000
40
0.0000000000
40
0.0000000000
40
0.0000000000
40
0.0000000000
40
0.0105704700
40
0.1936640240
40
0.3818669680
40
0.5753673717
40
0.7786320097
40
1.0000000000
40
1.0000000000
40
1.0000000000
40
1.0000000000
10
50.9916964252
20
-50.9566374917
30
0.0000000000
10
50.9901871473
20
-50.9574207456
30
0.0000000000
10
50.9624509133
20
-50.9716079780
30
0.0000000000
10
50.9047703185
20
-50.9936443631
30
0.0000000000
10
50.8147760278
20
-51.0088196806
30
0.0000000000
10
50.7203730739
20
-51.0073868158
30
0.0000000000
10
50.6222948310
20
-50.9897765926
30
0.0000000000
10
50.5573953008
20
-50.9679986517
30
0.0000000000
10
50.5244722428
20
-50.9545797156
30
0.0000000000
11
50.9916964252
21
-50.9566374917
31
0.0000000000
11
50.9871548598
21
-50.9589604944
31
0.0000000000
11
50.9047935815
21
-50.9905652142
31
0.0000000000
11
50.8154306143
21
-51.0059567575
31
0.0000000000
11
50.7222048539
21
-51.0049533682
31
0.0000000000
11
50.6257346755
21
-50.9880741939
31
0.0000000000
11
50.5244722428
21
-50.9545797156
31
0.0000000000
0
ENDSEC
0
SECTION
2
OBJECTS
0
DICTIONARY
5
489
100
AcDbDictionary
3
ACAD_GROUP
350
48A
3
ACAD_MLINESTYLE
350
48B
0
DICTIONARY
5
48A
102
{ACAD_REACTORS
330
489
102
}
100
AcDbDictionary
0
DICTIONARY
5
48B
102
{ACAD_REACTORS
330
489
102
}
100
AcDbDictionary
3
STANDARD
350
48C
0
MLINESTYLE
5
48C
102
{ACAD_REACTORS
330
48B
102
}
100
AcDbMlineStyle
2
STANDARD
70
0
3

62
256
51
90.0
52
90.0
71
2
49
0.5
62
256
6
BYLAYER
49
-0.5
62
256
6
BYLAYER
0
ENDSEC
0
EOF
