  0
SECTION
  2
HEADER
  9
$ACADVER
  1
AC1015
  9
$DWGCODEPAGE
  3
ANSI_1252
  9
$EXTMAX
 10
297.0
 20
210.0
 30
0.0
  9
$EXTMIN
 10
0.0
 20
0.0
 30
0.0
  9
$LIMMIN
 10
0.0
 20
0.0
  9
$LIMMAX
 10
297.0
 20
210.0
  9
$VIEWCTR
 10
148.5
 20
105.0
  9
$VIEWSIZE
 40
210.0
  9
$CLAYER
  8
0
  9
$LTSCALE
 40
16.335
  9
$CELTYPE
  6
BYLAYER
  9
$DIMSCALE
 40
1.0
  9
$DIMASZ
 40
3.0
  9
$DIMEXO
 40
0.5
  9
$DIMDLI
 40
11.286
  9
$DIMEXE
 40
1.5
  9
$DIMCEN
 40
2.673
  9
$DIMLFAC
 40
1.0
  9
$DIMBLK
  1
_FILLED
  9
$DIMTXT
 40
3.0
  9
$DIMTOL
 70
1
  9
$DIMLIM
 70
0
  9
$DIMTFAC
 40
1.0
  9
$DIMTP
 40
0.01
  9
$DIMTM
 40
0.01
  9
$DIMGAP
 40
0.625
  9
$DIMDSEP
 70
44
  9
$PDMODE
 70
3
  9
$PDSIZE
 40
3.0
  9
$HANDSEED
  5
43B
  9
$TILEMODE
 70
1
  9
$MEASUREMENT
 70
1
  9
$INSUNITS
 70
4
  0
ENDSEC
  0
SECTION
  2
CLASSES
  0
CLASS
  1
ACDBDICTIONARYWDFLT
  2
AcDbDictionaryWithDefault
  3
AutoCAD 2000
 90
0
280
0
281
0
  0
CLASS
  1
ACDBPLACEHOLDER
  2
AcDbPlaceHolder
  3
AutoCAD 2000
 90
0
280
0
281
0
  0
CLASS
  1
LAYOUT
  2
AcDbLayout
  3
AutoCAD 2000
 90
0
280
0
281
0
  0
ENDSEC
  0
SECTION
  2
TABLES
  0
TABLE
  2
VPORT
  5
8
100
AcDbSymbolTable
 70
2
  0
VPORT
  5
1F4
100
AcDbSymbolTableRecord
100
AcDbViewportTableRecord
  2
*ACTIVE
 70
0
 10
0.0
 20
0.0
 11
1.0
 21
1.0
 12
148.5
 22
105.0
 13
0.0
 23
0.0
 14
1.0
 24
1.0
 15
0.0
 25
0.0
 16
0.0
 26
0.0
 36
1.0
 17
0.0
 27
0.0
 37
0.0
 40
210.0
 41
1.4142857143
 42
50.0
 43
0.0
 44
0.0
 50
0.0
 51
0.0
 71
0
 72
100
 73
1
 74
1
 75
0
 76
0
 77
0
 78
0
  0
ENDTAB
  0
TABLE
  2
LTYPE
  5
5
100
AcDbSymbolTable
 70
6
  0
LTYPE
  5
14
100
AcDbSymbolTableRecord
100
AcDbLinetypeTableRecord
  2
BYBLOCK
 70
0
  3

 72
65
 73
0
 40
0.0
  0
LTYPE
  5
15
100
AcDbSymbolTableRecord
100
AcDbLinetypeTableRecord
  2
BYLAYER
 70
0
  3

 72
65
 73
0
 40
0.0
  0
LTYPE
  5
16
100
AcDbSymbolTableRecord
100
AcDbLinetypeTableRecord
  2
CONTINUOUS
 70
64
  3
Solid line
 72
65
 73
0
 40
0.0
  0
LTYPE
  5
1F5
100
AcDbSymbolTableRecord
100
AcDbLinetypeTableRecord
  2
CENTER
 70
64
  3
____ _ ____ _ ____ _ ____ _ ____ _ ____ _ ____
 72
65
 73
4
 40
0.6
 49
0.375
 74
0
 49
-0.075
 74
0
 49
0.075
 74
0
 49
-0.075
 74
0
  0
LTYPE
  5
1F6
100
AcDbSymbolTableRecord
100
AcDbLinetypeTableRecord
  2
HIDDEN
 70
64
  3
- - - - - - - - - - - - - - - - - - - -
 72
65
 73
2
 40
0.2
 49
0.1
 74
0
 49
-0.1
 74
0
  0
LTYPE
  5
1F7
100
AcDbSymbolTableRecord
100
AcDbLinetypeTableRecord
  2
PHANTOM
 70
64
  3
_____ _ _ _____ _ _ _____ _ _ _____
 72
65
 73
6
 40
0.8
 49
0.45
 74
0
 49
-0.05
 74
0
 49
0.1
 74
0
 49
-0.05
 74
0
 49
0.1
 74
0
 49
-0.05
 74
0
  0
LTYPE
  5
1F8
100
AcDbSymbolTableRecord
100
AcDbLinetypeTableRecord
  2
DOT
 70
64
  3
. . . . . . . . . . . . . . . . . . . .
 72
65
 73
2
 40
0.2
 49
0.1
 74
0
 49
-0.1
 74
0
  0
LTYPE
  5
1F9
100
AcDbSymbolTableRecord
100
AcDbLinetypeTableRecord
  2
DASHED
 70
64
  3
- - - - - - - - - - - - - - - - - - - -
 72
65
 73
2
 40
0.2
 49
0.1
 74
0
 49
-0.1
 74
0
  0
ENDTAB
  0
TABLE
  2
LAYER
  5
2
100
AcDbSymbolTable
 70
36
  0
LAYER
  5
10
100
AcDbSymbolTableRecord
100
AcDbLayerTableRecord
  2
0
 70
0
 62
7
  6
CONTINUOUS
370
-3
390
F
  0
LAYER
  5
1FA
100
AcDbSymbolTableRecord
100
AcDbLayerTableRecord
  2
DEFAULT_1
 70
0
 62
7
  6
CENTER
370
-3
390
F
  0
LAYER
  5
1FB
100
AcDbSymbolTableRecord
100
AcDbLayerTableRecord
  2
DEFAULT_2
 70
0
 62
7
  6
HIDDEN
370
-3
390
F
  0
LAYER
  5
1FC
100
AcDbSymbolTableRecord
100
AcDbLayerTableRecord
  2
DEFAULT_3
 70
0
 62
7
  6
PHANTOM
370
-3
390
F
  0
LAYER
  5
1FD
100
AcDbSymbolTableRecord
100
AcDbLayerTableRecord
  2
ASSI
 70
0
 62
7
  6
CONTINUOUS
370
-3
390
F
  0
LAYER
  5
1FE
100
AcDbSymbolTableRecord
100
AcDbLayerTableRecord
  2
COORDINATE
 70
0
 62
7
  6
CONTINUOUS
370
-3
390
F
  0
LAYER
  5
1FF
100
AcDbSymbolTableRecord
100
AcDbLayerTableRecord
  2
COORD_ORIGINE
 70
0
 62
7
  6
CONTINUOUS
370
-3
390
F
  0
LAYER
  5
200
100
AcDbSymbolTableRecord
100
AcDbLayerTableRecord
  2
COPY_DENTI
 70
0
 62
7
  6
CONTINUOUS
370
-3
390
F
  0
LAYER
  5
201
100
AcDbSymbolTableRecord
100
AcDbLayerTableRecord
  2
COPY_PLACCA
 70
0
 62
7
  6
CONTINUOUS
370
-3
390
F
  0
LAYER
  5
202
100
AcDbSymbolTableRecord
100
AcDbLayerTableRecord
  2
COPY_PUBLISH
 70
0
 62
7
  6
CONTINUOUS
370
-3
390
F
  0
LAYER
  5
203
100
AcDbSymbolTableRecord
100
AcDbLayerTableRecord
  2
COPY_SUPP
 70
0
 62
7
  6
CONTINUOUS
370
-3
390
F
  0
LAYER
  5
204
100
AcDbSymbolTableRecord
100
AcDbLayerTableRecord
  2
COSMETIC
 70
0
 62
7
  6
CONTINUOUS
370
-3
390
F
  0
LAYER
  5
205
100
AcDbSymbolTableRecord
100
AcDbLayerTableRecord
  2
CURVE
 70
0
 62
7
  6
CONTINUOUS
370
-3
390
F
  0
LAYER
  5
206
100
AcDbSymbolTableRecord
100
AcDbLayerTableRecord
  2
DRAFT
 70
0
 62
7
  6
CONTINUOUS
370
-3
390
F
  0
LAYER
  5
207
100
AcDbSymbolTableRecord
100
AcDbLayerTableRecord
  2
IMPORT_IGES
 70
0
 62
7
  6
CONTINUOUS
370
-3
390
F
  0
LAYER
  5
208
100
AcDbSymbolTableRecord
100
AcDbLayerTableRecord
  2
NOTE
 70
0
 62
7
  6
CONTINUOUS
370
-3
390
F
  0
LAYER
  5
209
100
AcDbSymbolTableRecord
100
AcDbLayerTableRecord
  2
PIANI
 70
0
 62
7
  6
CONTINUOUS
370
-3
390
F
  0
LAYER
  5
20A
100
AcDbSymbolTableRecord
100
AcDbLayerTableRecord
  2
PIANI_ORIGINE
 70
0
 62
7
  6
CONTINUOUS
370
-3
390
F
  0
LAYER
  5
20B
100
AcDbSymbolTableRecord
100
AcDbLayerTableRecord
  2
RACCORDO
 70
0
 62
7
  6
CONTINUOUS
370
-3
390
F
  0
LAYER
  5
20C
100
AcDbSymbolTableRecord
100
AcDbLayerTableRecord
  2
SKELETON
 70
0
 62
7
  6
CONTINUOUS
370
-3
390
F
  0
LAYER
  5
20D
100
AcDbSymbolTableRecord
100
AcDbLayerTableRecord
  2
SMUSSO
 70
0
 62
7
  6
CONTINUOUS
370
-3
390
F
  0
LAYER
  5
20E
100
AcDbSymbolTableRecord
100
AcDbLayerTableRecord
  2
SUPERFICI
 70
0
 62
7
  6
CONTINUOUS
370
-3
390
F
  0
LAYER
  5
20F
100
AcDbSymbolTableRecord
100
AcDbLayerTableRecord
  2
TRASH
 70
0
 62
7
  6
CONTINUOUS
370
-3
390
F
  0
LAYER
  5
210
100
AcDbSymbolTableRecord
100
AcDbLayerTableRecord
  2
WHITE
 70
0
 62
7
  6
CONTINUOUS
370
-3
390
F
  0
LAYER
  5
211
100
AcDbSymbolTableRecord
100
AcDbLayerTableRecord
  2
XSEC_DATUMS
 70
0
 62
7
  6
CONTINUOUS
370
-3
390
F
  0
ENDTAB
  0
TABLE
  2
STYLE
  5
3
100
AcDbSymbolTable
 70
1
  0
STYLE
  5
11
100
AcDbSymbolTableRecord
100
AcDbTextStyleTableRecord
  2
STANDARD
 70
0
 40
0.0
 41
0.8
 50
0.0
 71
0
 42
0.2
  3
txt
  4

  0
STYLE
  5
212
100
AcDbSymbolTableRecord
100
AcDbTextStyleTableRecord
  2
TEXTSTYLE_1
 70
0
 40
0.0
 41
0.8
 50
0.0
 71
0
 42
0.2
  3
gdt
  4

  0
ENDTAB
  0
TABLE
  2
VIEW
  5
6
100
AcDbSymbolTable
 70
0
  0
ENDTAB
  0
TABLE
  2
UCS
  5
7
100
AcDbSymbolTable
 70
0
  0
ENDTAB
  0
TABLE
  2
APPID
  5
9
100
AcDbSymbolTable
 70
1
  0
APPID
  5
213
100
AcDbSymbolTableRecord
100
AcDbRegAppTableRecord
  2
ACAD
 70
0
  0
ENDTAB
  0
TABLE
  2
BLOCK_RECORD
  5
1
100
AcDbSymbolTable
 70
0
  0
BLOCK_RECORD
  5
214
100
AcDbSymbolTableRecord
100
AcDbBlockTableRecord
  2
*Model_Space
  0
BLOCK_RECORD
  5
215
100
AcDbSymbolTableRecord
100
AcDbBlockTableRecord
  2
*Paper_Space
  0
ENDTAB
  0
TABLE
  2
DIMSTYLE
  5
A
100
AcDbSymbolTable
 70
1
100
AcDbDimStyleTable
 71
0
  0
DIMSTYLE
105
216
100
AcDbSymbolTableRecord
100
AcDbDimStyleTableRecord
  2
STANDARD
 70
0
  3

  4

 40
1.0
 41
3.0
 42
0.5
 43
0.38
 44
1.5
 45
0.0
 46
0.0
 47
0.01
 48
0.01
140
3.0
141
0.09
142
0.0
143
25.4
144
1.0
145
0.0
146
1.0
147
0.625
 71
1.0
 72
0.0
 73
0
 74
0
 75
0
 76
0
 77
1
 78
8
170
0
171
2
172
0
173
0
174
0
175
0
176
0
177
0
178
0
270
2
271
2
272
2
273
2
274
2
275
0
280
0
281
0
282
0
283
1
284
8
285
0
286
0
287
3
288
0
340
11
278
44
  0
ENDTAB
  0
ENDSEC
  0
SECTION
  2
BLOCKS
  0
BLOCK
  5
20
100
AcDbEntity
  8
0
100
AcDbBlockBegin
  2
*Model_Space
 70
0
 10
0.0
 20
0.0
 30
0.0
  3
*Model_Space
  1

  0
ENDBLK
  5
21
100
AcDbEntity
  8
0
100
AcDbBlockEnd
  0
BLOCK
  5
1C
100
AcDbEntity
  8
0
100
AcDbBlockBegin
  2
*Paper_Space
 70
0
 10
0.0
 20
0.0
 30
0.0
  3
*Paper_Space
  1

  0
ENDBLK
  5
1D
100
AcDbEntity
  8
0
100
AcDbBlockEnd
  0
ENDSEC
  0
SECTION
  2
ENTITIES
  0
LWPOLYLINE
  5
217
100
AcDbEntity
  8
RACCORDO
100
AcDbPolyline
 62
7
  6
CONTINUOUS
 90
8
 70
0
 10
66.6082792817
 20
171.0514462558
 10
66.4894104035
 20
170.9359263578
 10
66.3861564905
 20
170.8017388186
 10
66.3005352322
 20
170.6500163417
 10
66.234640643
 20
170.4828269848
 10
66.1900432417
 20
170.3030173345
 10
66.167438572
 20
170.1126314398
 10
66.1645223487
 20
170.012584993
  0
LWPOLYLINE
  5
218
100
AcDbEntity
  8
DRAFT
100
AcDbPolyline
 62
7
  6
CONTINUOUS
 90
41
 70
0
 10
70.993190084
 20
173.3022974067
 10
71.3699336954
 20
173.6581873318
 10
71.3818016899
 20
173.6688875493
 10
71.3940343946
 20
173.6791544798
 10
71.4066248806
 20
173.688982308
 10
71.4195660166
 20
173.6983654673
 10
71.4328504726
 20
173.707298643
 10
71.4464707241
 20
173.7157767753
 10
71.4604190564
 20
173.7237950621
 10
71.4746875692
 20
173.7313489617
 10
71.4892681805
 20
173.7384341955
 10
71.5041526317
 20
173.7450467503
 10
71.5193324921
 20
173.7511828808
 10
71.5347991638
 20
173.7568391113
 10
71.5505438861
 20
173.7620122382
 10
71.5665577412
 20
173.7666993312
 10
71.5828316586
 20
173.7708977357
 10
71.5993564205
 20
173.7746050735
 10
71.6161226673
 20
173.7778192448
 10
71.6331209022
 20
173.7805384291
 10
71.6503414974
 20
173.7827610861
 10
71.6677746989
 20
173.7844859569
 10
71.6854106323
 20
173.7857120646
 10
71.7032393085
 20
173.7864387147
 10
71.7212506291
 20
173.7866654956
 10
71.7394343923
 20
173.7863922788
 10
71.7577802986
 20
173.785619219
 10
71.7762779568
 20
173.7843467543
 10
71.7949168895
 20
173.7825756052
 10
71.8136865395
 20
173.7803067751
 10
71.8325762754
 20
173.7775415489
 10
71.8515753979
 20
173.7742814929
 10
71.8706731457
 20
173.7705284537
 10
71.8898587016
 20
173.7662845571
 10
71.9091211987
 20
173.7615522068
 10
71.9284497265
 20
173.7563340832
 10
71.9478333372
 20
173.750633142
 10
71.9672610517
 20
173.7444526123
 10
71.9867218658
 20
173.7377959947
 10
72.0062047568
 20
173.7306670596
 10
72.0256986894
 20
173.723069845
  0
LINE
  5
219
100
AcDbEntity
  8
DRAFT
100
AcDbLine
 62
7
  6
CONTINUOUS
 10
72.0256986894
 20
173.723069845
 11
71.3734404532
 21
173.1399522148
  0
LINE
  5
21A
100
AcDbEntity
  8
RACCORDO
100
AcDbLine
 62
7
  6
CONTINUOUS
 10
69.4385112116
 20
173.3699689848
 11
66.6082792817
 21
171.0514462558
  0
LINE
  5
21B
100
AcDbEntity
  8
RACCORDO
100
AcDbLine
 62
7
  6
CONTINUOUS
 10
70.6768875804
 20
173.437340512
 11
67.8649895987
 21
171.133968532
  0
LWPOLYLINE
  5
21C
100
AcDbEntity
  8
RACCORDO
100
AcDbPolyline
 62
7
  6
CONTINUOUS
 90
10
 70
0
 10
69.438359698
 20
173.3698664818
 10
69.4877608569
 20
173.4073653113
 10
69.6063111312
 20
173.4775925364
 10
69.73542581
 20
173.5291433309
 10
69.8758424001
 20
173.5616066268
 10
70.0268260433
 20
173.5753955171
 10
70.182963219
 20
173.5699217779
 10
70.3424495808
 20
173.544989458
 10
70.5070907781
 20
173.5007955063
 10
70.6768875804
 20
173.437340512
  0
LWPOLYLINE
  5
21D
100
AcDbEntity
  8
RACCORDO
100
AcDbPolyline
 62
7
  6
CONTINUOUS
 90
14
 70
0
 10
66.6815720689
 20
170.4783960688
 10
66.6357131145
 20
170.4440453817
 10
66.5932626455
 20
170.4061081469
 10
66.5543514425
 20
170.3644260112
 10
66.51884847
 20
170.3191571329
 10
66.4871261955
 20
170.2714035509
 10
66.459345427
 20
170.2210371807
 10
66.4353451495
 20
170.1681859486
 10
66.4150151055
 20
170.1143359179
 10
66.3985237538
 20
170.0596227073
 10
66.3857025111
 20
170.0039106028
 10
66.3759355852
 20
169.9482786912
 10
66.3690176998
 20
169.8930866583
 10
66.365154086
 20
169.8379747836
  0
LWPOLYLINE
  5
21E
100
AcDbEntity
  8
RACCORDO
100
AcDbPolyline
 62
7
  6
CONTINUOUS
 90
6
 70
0
 10
67.565007279
 20
101.6861826096
 10
67.5695646846
 20
101.6185461608
 10
67.5830984267
 20
101.5599361745
 10
67.6051972896
 20
101.5121334854
 10
67.6351898103
 20
101.476590554
 10
67.6674204029
 20
101.4563099875
  0
LWPOLYLINE
  5
21F
100
AcDbEntity
  8
RACCORDO
100
AcDbPolyline
 62
7
  6
CONTINUOUS
 90
3
 70
0
 10
66.1645221198
 20
103.6611907162
 10
66.1751594285
 20
103.4645721776
 10
66.2033282689
 20
103.281481098
  0
LWPOLYLINE
  5
220
100
AcDbEntity
  8
RACCORDO
100
AcDbPolyline
 62
7
  6
CONTINUOUS
 90
31
 70
0
 10
66.364344733
 20
103.4316274715
 10
66.3651414167
 20
103.3768288487
 10
66.3688705942
 20
103.319439378
 10
66.3755322757
 20
103.2594590669
 10
66.3849297508
 20
103.1967295157
 10
66.3972597715
 20
103.1314091561
 10
66.4131125599
 20
103.0639732568
 10
66.4326123044
 20
102.9942040357
 10
66.455634931
 20
102.9223193623
 10
66.4823982952
 20
102.8494480047
 10
66.5130579359
 20
102.7755150223
 10
66.5474585122
 20
102.7005955067
 10
66.5853515758
 20
102.6260432861
 10
66.6268661055
 20
102.5518837038
 10
66.6718733775
 20
102.4780916113
 10
66.7197383736
 20
102.4059450862
 10
66.7705964285
 20
102.3354788094
 10
66.8243124675
 20
102.2666582988
 10
66.8798457933
 20
102.2006578366
 10
66.9373207266
 20
102.1375644514
 10
66.9966131373
 20
102.0772912602
 10
67.05630953
 20
102.0207515851
 10
67.1164017891
 20
101.9681487296
 10
67.1768980736
 20
101.9192794234
 10
67.2364091482
 20
101.8744470117
 10
67.2946569316
 20
101.8339247276
 10
67.3519193897
 20
101.79743925
 10
67.4076412547
 20
101.7644740128
 10
67.4616373734
 20
101.7348567786
 10
67.5140927393
 20
101.7087596629
 10
67.565007279
 20
101.6861826096
  0
LINE
  5
221
100
AcDbEntity
  8
RACCORDO
100
AcDbLine
 62
7
  6
CONTINUOUS
 10
66.164520708
 20
170.0122978974
 11
66.164520708
 21
103.6609823102
  0
LINE
  5
222
100
AcDbEntity
  8
RACCORDO
100
AcDbLine
 62
7
  6
CONTINUOUS
 10
66.364344733
 20
169.7829430589
 11
66.364344733
 21
103.4316274715
  0
LINE
  5
223
100
AcDbEntity
  8
RACCORDO
100
AcDbLine
 62
7
  6
CONTINUOUS
 10
66.365154086
 20
169.8379747836
 11
66.364344733
 21
169.7829430589
  0
LWPOLYLINE
  5
224
100
AcDbEntity
  8
RACCORDO
100
AcDbPolyline
 62
7
  6
CONTINUOUS
 90
10
 70
0
 10
67.565007279
 20
170.4949543299
 10
67.5695646825
 20
170.5695621243
 10
67.5830984198
 20
170.6488743645
 10
67.6051972767
 20
170.7304811894
 10
67.6351897925
 20
170.8119030182
 10
67.6721646611
 20
170.8906658893
 10
67.7149984199
 20
170.9643766304
 10
67.7623895871
 20
171.0307955765
 10
67.8128982063
 20
171.0879046208
 10
67.8649895987
 20
171.133968532
  0
LWPOLYLINE
  5
225
100
AcDbEntity
  8
RACCORDO
100
AcDbPolyline
 62
7
  6
CONTINUOUS
 90
21
 70
0
 10
233.6744530259
 20
35.1463835565
 10
233.7362590917
 20
35.1592943617
 10
233.7959765835
 20
35.17650762
 10
233.8535098625
 20
35.1981926879
 10
233.9089543799
 20
35.224180044
 10
233.9613143075
 20
35.2541029117
 10
234.0104738787
 20
35.288121574
 10
234.056548621
 20
35.3260755377
 10
234.0988895936
 20
35.3671168152
 10
234.1373528762
 20
35.4114014258
 10
234.1720821588
 20
35.4587731476
 10
234.202859904
 20
35.5079156203
 10
234.2295012286
 20
35.5589007806
 10
234.252190842
 20
35.611656539
 10
234.271265613
 20
35.6646505111
 10
234.2865737727
 20
35.7176214233
 10
234.2982669949
 20
35.7708304658
 10
234.30713734
 20
35.8235289737
 10
234.3134488201
 20
35.875467385
 10
234.3169373917
 20
35.9268952343
 10
234.3176030475
 20
35.9778125148
  0
LWPOLYLINE
  5
226
100
AcDbEntity
  8
RACCORDO
100
AcDbPolyline
 62
7
  6
CONTINUOUS
 90
3
 70
0
 10
66.2033282689
 20
103.281481098
 10
66.2487505622
 20
103.0967733947
 10
66.3106272851
 20
102.9129450527
  0
LWPOLYLINE
  5
227
100
AcDbEntity
  8
RACCORDO
100
AcDbPolyline
 62
7
  6
CONTINUOUS
 90
24
 70
0
 10
83.7025163005
 20
148.9426841468
 10
83.7033661411
 20
148.9835918343
 10
83.705906217
 20
149.0236073254
 10
83.7101365319
 20
149.0627306231
 10
83.7160673651
 20
149.1010351946
 10
83.7236884528
 20
149.1384475847
 10
83.7329689878
 20
149.1747474148
 10
83.7439209715
 20
149.2099280317
 10
83.7565324326
 20
149.2439961119
 10
83.7707366078
 20
149.2767512744
 10
83.7865431976
 20
149.3081826384
 10
83.8039425442
 20
149.3383011179
 10
83.822838848
 20
149.3669390245
 10
83.8432371621
 20
149.3940842188
 10
83.8651324859
 20
149.4197488809
 10
83.8884139378
 20
149.443801802
 10
83.9130856935
 20
149.4662350986
 10
83.9391436367
 20
149.4870567001
 10
83.9664644456
 20
149.5061591146
 10
83.9950576734
 20
149.5235373357
 10
84.0249138301
 20
149.5391964187
 10
84.055881025
 20
149.5530439605
 10
84.0879654573
 20
149.5650707747
 10
84.1211609903
 20
149.5752860962
  0
LWPOLYLINE
  5
228
100
AcDbEntity
  8
RACCORDO
100
AcDbPolyline
 62
7
  6
CONTINUOUS
 90
10
 70
0
 10
83.843907404
 20
148.9558951968
 10
83.8446813503
 20
148.9932832879
 10
83.8470052917
 20
149.0299833805
 10
83.8508799761
 20
149.0659286557
 10
83.8563039995
 20
149.101057789
 10
83.8632722506
 20
149.1353011849
 10
83.8717737814
 20
149.1685823564
 10
83.8817961174
 20
149.2008406368
 10
83.8933241178
 20
149.2320161833
 10
83.9063346539
 20
149.2620387626
  0
LWPOLYLINE
  5
229
100
AcDbEntity
  8
RACCORDO
100
AcDbPolyline
 62
7
  6
CONTINUOUS
 90
9
 70
0
 10
83.9063346539
 20
149.2620387626
 10
83.9208036183
 20
149.2908518946
 10
83.936706635
 20
149.3184057431
 10
83.9540130538
 20
149.3446455467
 10
83.9726880541
 20
149.3695205882
 10
83.9927002417
 20
149.392990738
 10
84.014020267
 20
149.4150206661
 10
84.0366084511
 20
149.4355685454
 10
84.0420489314
 20
149.4401388842
  0
LWPOLYLINE
  5
22A
100
AcDbEntity
  8
RACCORDO
100
AcDbPolyline
 62
7
  6
CONTINUOUS
 90
12
 70
0
 10
85.9989801589
 20
147.4896449537
 10
85.9966583078
 20
147.4869318266
 10
85.9922534159
 20
147.4814172702
 10
85.988017233
 20
147.475732988
 10
85.9839554231
 20
147.4698865802
 10
85.980073417
 20
147.4638858638
 10
85.9763764053
 20
147.4577388621
 10
85.972869331
 20
147.451453794
 10
85.9695568834
 20
147.4450390631
 10
85.9664434914
 20
147.4385032462
 10
85.9635333177
 20
147.4318550821
 10
85.9608302535
 20
147.4251034598
  0
LWPOLYLINE
  5
22B
100
AcDbEntity
  8
RACCORDO
100
AcDbPolyline
 62
7
  6
CONTINUOUS
 90
33
 70
0
 10
84.0889230758
 20
149.226286203
 10
84.0821017371
 20
149.2202196322
 10
84.0701716405
 20
149.2091038574
 10
84.0585520558
 20
149.1976146952
 10
84.0472514669
 20
149.1857584174
 10
84.0362623201
 20
149.173523867
 10
84.025593378
 20
149.1609159447
 10
84.0152540938
 20
149.1479407295
 10
84.0052401682
 20
149.1345863176
 10
83.9955577329
 20
149.1208524548
 10
83.9862201607
 20
149.1067492477
 10
83.9772349678
 20
149.0922790132
 10
83.9686096617
 20
149.077444406
 10
83.9603547709
 20
149.0622537002
 10
83.9524814528
 20
149.0467176802
 10
83.9449977154
 20
149.0308428244
 10
83.9379108161
 20
149.0146350287
 10
83.9312295284
 20
148.9981043009
 10
83.9249607144
 20
148.9812574036
 10
83.9191105298
 20
148.9641005897
 10
83.9136858673
 20
148.9466428316
 10
83.9086924745
 20
148.9288903288
 10
83.9041358799
 20
148.9108500875
 10
83.9000220555
 20
148.8925319366
 10
83.8963560758
 20
148.8739428199
 10
83.8931425269
 20
148.8550892709
 10
83.8903862156
 20
148.8359802351
 10
83.8880916016
 20
148.8166228354
 10
83.8862627801
 20
148.7970234957
 10
83.8849038432
 20
148.7771898697
 10
83.8840188552
 20
148.7571289577
 10
83.883611541
 20
148.7368483633
 10
83.8835824981
 20
148.7297638135
  0
LINE
  5
22C
100
AcDbEntity
  8
RACCORDO
100
AcDbLine
 62
7
  6
CONTINUOUS
 10
84.4442562644
 20
149.537045638
 11
84.0889185651
 21
149.2262823128
  0
LINE
  5
22D
100
AcDbEntity
  8
RACCORDO
100
AcDbLine
 62
7
  6
CONTINUOUS
 10
84.8277312003
 20
149.419777512
 11
84.680815798
 21
149.2912885255
  0
LINE
  5
22E
100
AcDbEntity
  8
RACCORDO
100
AcDbLine
 62
7
  6
CONTINUOUS
 10
84.0420489314
 20
149.4401388842
 11
84.0438483114
 21
149.4416203021
  0
LINE
  5
22F
100
AcDbEntity
  8
RACCORDO
100
AcDbLine
 62
7
  6
CONTINUOUS
 10
83.9510346847
 20
149.0436487277
 11
83.843907404
 21
148.9558951968
  0
LINE
  5
230
100
AcDbEntity
  8
RACCORDO
100
AcDbLine
 62
7
  6
CONTINUOUS
 10
84.0420534936
 20
149.4401425786
 11
84.0837821872
 21
149.4705950558
  0
LWPOLYLINE
  5
231
100
AcDbEntity
  8
RACCORDO
100
AcDbPolyline
 62
7
  6
CONTINUOUS
 90
8
 70
0
 10
66.3106272851
 20
102.9129450527
 10
66.3882768901
 20
102.7314085613
 10
66.4810270197
 20
102.553571262
 10
66.5873652732
 20
102.3820896693
 10
66.7061208689
 20
102.2185421527
 10
66.836367067
 20
102.064104148
 10
66.9765039902
 20
101.9206526887
 10
67.1253239367
 20
101.7894523853
  0
LWPOLYLINE
  5
232
100
AcDbEntity
  8
RACCORDO
100
AcDbPolyline
 62
7
  6
CONTINUOUS
 90
26
 70
0
 10
85.3968711123
 20
147.7898021957
 10
85.397243863
 20
147.7839344192
 10
85.3977655174
 20
147.7781899926
 10
85.3984354197
 20
147.7725761363
 10
85.399252728
 20
147.7670999066
 10
85.400216415
 20
147.7617681866
 10
85.4013252694
 20
147.7565876781
 10
85.4025778974
 20
147.7515648924
 10
85.4039727245
 20
147.746706143
 10
85.4055079977
 20
147.7420175369
 10
85.407181787
 20
147.7375049675
 10
85.4089919887
 20
147.7331741066
 10
85.4109363275
 20
147.7290303979
 10
85.4130123595
 20
147.7250790497
 10
85.4152174752
 20
147.7213250286
 10
85.417548903
 20
147.7177730532
 10
85.4200037125
 20
147.7144275881
 10
85.422578818
 20
147.7112928382
 10
85.4252709829
 20
147.7083727438
 10
85.4280768234
 20
147.7056709751
 10
85.4309928126
 20
147.7031909282
 10
85.4340152853
 20
147.7009357203
 10
85.4371404426
 20
147.6989081859
 10
85.4403643562
 20
147.6971108737
 10
85.4436829741
 20
147.6955460427
 10
85.4462374007
 20
147.6945240236
  0
LWPOLYLINE
  5
233
100
AcDbEntity
  8
RACCORDO
100
AcDbPolyline
 62
7
  6
CONTINUOUS
 90
46
 70
0
 10
86.1876922536
 20
110.8257525543
 10
86.1880121293
 20
110.8201744407
 10
86.1885229619
 20
110.8145173525
 10
86.1892241312
 20
110.8087881581
 10
86.190114786
 20
110.8029938134
 10
86.1911938448
 20
110.7971413531
 10
86.1924599975
 20
110.7912378829
 10
86.193911707
 20
110.7852905701
 10
86.1955472107
 20
110.7793066354
 10
86.1973645228
 20
110.7732933439
 10
86.1993614371
 20
110.7672579964
 10
86.2015355291
 20
110.7612079204
 10
86.2038841591
 20
110.7551504614
 10
86.2064044756
 20
110.7490929736
 10
86.2090934189
 20
110.7430428115
 10
86.2119477241
 20
110.7370073207
 10
86.2149639259
 20
110.7309938288
 10
86.2181383623
 20
110.7250096369
 10
86.2214671792
 20
110.7190620103
 10
86.2249463351
 20
110.7131581701
 10
86.2285716059
 20
110.7073052841
 10
86.2323385901
 20
110.7015104584
 10
86.2362427143
 20
110.6957807285
 10
86.2402792384
 20
110.6901230508
 10
86.2444432618
 20
110.6845442944
 10
86.2487297287
 20
110.6790512324
 10
86.253133435
 20
110.673650534
 10
86.2576490342
 20
110.6683487562
 10
86.2622710439
 20
110.6631523358
 10
86.2669938524
 20
110.6580675819
 10
86.2718117259
 20
110.6531006678
 10
86.2767188148
 20
110.6482576239
 10
86.2817091615
 20
110.6435443302
 10
86.2867767072
 20
110.6389665091
 10
86.2919152993
 20
110.6345297185
 10
86.2971186992
 20
110.6302393451
 10
86.3023805893
 20
110.626100598
 10
86.3076945811
 20
110.6221185018
 10
86.313054223
 20
110.6182978914
 10
86.3184530077
 20
110.6146434053
 10
86.3238843843
 20
110.6111594785
 10
86.3293417548
 20
110.6078503429
 10
86.3348184826
 20
110.6047200217
 10
86.3403079147
 20
110.6017723159
 10
86.3458033899
 20
110.5990108015
 10
86.3512982363
 20
110.59643883
  0
LWPOLYLINE
  5
234
100
AcDbEntity
  8
RACCORDO
100
AcDbPolyline
 62
7
  6
CONTINUOUS
 90
43
 70
0
 10
84.5729360823
 20
149.0335068871
 10
84.5726932065
 20
149.0397505311
 10
84.5726129742
 20
149.0461115852
 10
84.572695495
 20
149.0525813653
 10
84.5729406563
 20
149.0591510389
 10
84.5733481234
 20
149.0658116369
 10
84.5739173399
 20
149.0725540662
 10
84.5746475288
 20
149.0793691221
 10
84.5755376932
 20
149.0862475007
 10
84.5765866179
 20
149.0931798114
 10
84.5777928709
 20
149.1001565904
 10
84.5791548053
 20
149.1071683127
 10
84.5806705619
 20
149.114205406
 10
84.5823380713
 20
149.1212582633
 10
84.5841550571
 20
149.1283172558
 10
84.5861190387
 20
149.1353727467
 10
84.5882273348
 20
149.1424151037
 10
84.5904770672
 20
149.1494347126
 10
84.5928651645
 20
149.1564219901
 10
84.5953883666
 20
149.1633673971
 10
84.5980432286
 20
149.1702614518
 10
84.6008261262
 20
149.1770947424
 10
84.6037332602
 20
149.18385794
 10
84.6067606616
 20
149.1905418114
 10
84.6099041976
 20
149.1971372319
 10
84.6131595764
 20
149.2036351972
 10
84.6165223539
 20
149.2100268363
 10
84.6199879392
 20
149.2163034233
 10
84.6235516009
 20
149.2224563894
 10
84.6272084741
 20
149.2284773345
 10
84.6309535662
 20
149.2343580388
 10
84.6347817646
 20
149.2400904739
 10
84.6386878428
 20
149.2456668138
 10
84.6426664683
 20
149.2510794458
 10
84.6467122095
 20
149.2563209804
 10
84.6508195431
 20
149.2613842618
 10
84.6549828617
 20
149.2662623777
 10
84.6591964816
 20
149.2709486685
 10
84.6634546502
 20
149.2754367362
 10
84.6677515543
 20
149.2797204539
 10
84.6720813278
 20
149.2837939734
 10
84.6764380596
 20
149.2876517335
 10
84.6808158019
 20
149.2912884674
  0
LWPOLYLINE
  5
235
100
AcDbEntity
  8
RACCORDO
100
AcDbPolyline
 62
7
  6
CONTINUOUS
 90
60
 70
0
 10
83.8836083006
 20
109.4748279045
 10
83.8840336592
 20
109.4534051293
 10
83.8849799796
 20
109.4318508902
 10
83.8864455762
 20
109.4101724053
 10
83.8884281375
 20
109.3883824667
 10
83.8909243552
 20
109.3665008375
 10
83.8939313432
 20
109.3445371703
 10
83.8974460893
 20
109.3225017221
 10
83.9014635809
 20
109.3004159956
 10
83.905979966
 20
109.2782900333
 10
83.910991396
 20
109.2561340534
 10
83.9164909628
 20
109.2339704521
 10
83.9224737816
 20
109.2118096155
 10
83.9289351795
 20
109.1896617285
 10
83.9358663823
 20
109.1675495087
 10
83.9432610733
 20
109.1454848219
 10
83.9511141381
 20
109.123476439
 10
83.9594166116
 20
109.1015428555
 10
83.968161334
 20
109.0796962361
 10
83.977342773
 20
109.0579449687
 10
83.9869530984
 20
109.0363021797
 10
83.9969854716
 20
109.0147785063
 10
84.0074334615
 20
108.9933837556
 10
84.0182891604
 20
108.9721300384
 10
84.029545346
 20
108.9510281646
 10
84.0411953652
 20
108.9300875839
 10
84.0532319173
 20
108.9093185872
 10
84.0656478673
 20
108.8887314294
 10
84.0784360489
 20
108.8683359238
 10
84.0915892066
 20
108.848141955
 10
84.1050998928
 20
108.8281598296
 10
84.1189608207
 20
108.80839906
 10
84.1331652272
 20
108.7888686163
 10
84.1477056275
 20
108.7695784498
 10
84.1625744505
 20
108.7505381975
 10
84.1777650544
 20
108.7317565841
 10
84.1932698317
 20
108.7132433234
 10
84.2090810519
 20
108.6950080622
 10
84.2251920217
 20
108.6770594849
 10
84.2415953833
 20
108.6594067042
 10
84.2582829254
 20
108.6420597727
 10
84.2752466295
 20
108.6250285377
 10
84.2924792626
 20
108.6083216589
 10
84.3099721854
 20
108.591949342
 10
84.3277150497
 20
108.5759230798
 10
84.3456997447
 20
108.5602518819
 10
84.3639180952
 20
108.5449450182
 10
84.3823594488
 20
108.5300134297
 10
84.4010155209
 20
108.5154658772
 10
84.4198779972
 20
108.5013112969
 10
84.4389361884
 20
108.4875599515
 10
84.4581816974
 20
108.4742203866
 10
84.4776061411
 20
108.4613011403
 10
84.4971989916
 20
108.4488117758
 10
84.5169514408
 20
108.4367608256
 10
84.5368554039
 20
108.4251562771
 10
84.5569019785
 20
108.4140064629
 10
84.5770828254
 20
108.4033195503
 10
84.597388558
 20
108.3931038956
 10
84.6053321173
 20
108.3892529219
  0
LWPOLYLINE
  5
236
100
AcDbEntity
  8
RACCORDO
100
AcDbPolyline
 62
7
  6
CONTINUOUS
 90
67
 70
0
 10
83.9646512297
 20
109.3892943331
 10
83.9648212876
 20
109.3741702712
 10
83.965329761
 20
109.3589249338
 10
83.9661766501
 20
109.3435583211
 10
83.9673627671
 20
109.3280616114
 10
83.9688873005
 20
109.3124436269
 10
83.970747815
 20
109.2967308341
 10
83.9729448372
 20
109.2809236724
 10
83.9754778418
 20
109.2650217034
 10
83.9783428159
 20
109.2490500758
 10
83.9815402823
 20
109.2330087091
 10
83.9850697201
 20
109.2168976854
 10
83.9889255503
 20
109.2007423974
 10
83.993108284
 20
109.1845427761
 10
83.9976174125
 20
109.1682988925
 10
84.0024458279
 20
109.1520363501
 10
84.0075940361
 20
109.1357551118
 10
84.0130615342
 20
109.1194552168
 10
84.0188397012
 20
109.1031623834
 10
84.0249290257
 20
109.0868766271
 10
84.0313290226
 20
109.0705979349
 10
84.0380296105
 20
109.0543519819
 10
84.0450312625
 20
109.0381388223
 10
84.0523335093
 20
109.0219584046
 10
84.0599248563
 20
109.0058362455
 10
84.067805761
 20
108.9897724341
 10
84.0759757699
 20
108.9737668844
 10
84.0844220217
 20
108.9578448499
 10
84.0931449542
 20
108.9420064607
 10
84.1021441339
 20
108.9262515901
 10
84.1114053922
 20
108.9106051071
 10
84.1209291445
 20
108.8950671821
 10
84.1307149799
 20
108.8796376482
 10
84.1407474906
 20
108.8643408688
 10
84.1510270687
 20
108.8491770511
 10
84.1615533265
 20
108.8341459914
 10
84.1723096856
 20
108.819271436
 10
84.1832965184
 20
108.8045536232
 10
84.1945134571
 20
108.7899923182
 10
84.2059428121
 20
108.7756105572
 10
84.2175849222
 20
108.7614086243
 10
84.2294394531
 20
108.7473862387
 10
84.241487706
 20
108.7335655884
 10
84.2537299865
 20
108.7199469956
 10
84.266165993
 20
108.7065301414
 10
84.2787761159
 20
108.6933362515
 10
84.2915606376
 20
108.6803656732
 10
84.3045192795
 20
108.6676180622
 10
84.3176315901
 20
108.6551136061
 10
84.3308978225
 20
108.6428526833
 10
84.3443177271
 20
108.6308349182
 10
84.3578700982
 20
108.6190793663
 10
84.3715551426
 20
108.6075864482
 10
84.3853726566
 20
108.5963557459
 10
84.3993008184
 20
108.5854050569
 10
84.4133398039
 20
108.5747348233
 10
84.4274894399
 20
108.5643446052
 10
84.4417273796
 20
108.5542508765
 10
84.4560537938
 20
108.5444540929
 10
84.470468514
 20
108.5349538005
 10
84.4849486838
 20
108.5257651091
 10
84.4994949216
 20
108.5168882665
 10
84.5141066107
 20
108.5083230263
 10
84.5287590419
 20
108.5000837565
 10
84.5434439788
 20
108.4921752465
 10
84.5581696588
 20
108.4845927076
 10
84.5729360823
 20
108.4773361404
  0
LINE
  5
237
100
AcDbEntity
  8
RACCORDO
100
AcDbLine
 62
7
  6
CONTINUOUS
 10
83.7025163005
 20
109.4492334242
 11
83.7025163005
 21
148.9426841468
  0
LINE
  5
238
100
AcDbEntity
  8
RACCORDO
100
AcDbLine
 62
7
  6
CONTINUOUS
 10
83.843907404
 20
109.4624444741
 11
83.843907404
 21
148.9558951968
  0
LINE
  5
239
100
AcDbEntity
  8
RACCORDO
100
AcDbLine
 62
7
  6
CONTINUOUS
 10
83.8835824156
 20
148.7297633827
 11
83.8836083006
 21
109.4748279045
  0
LINE
  5
23A
100
AcDbEntity
  8
RACCORDO
100
AcDbLine
 62
7
  6
CONTINUOUS
 10
83.9646512297
 20
148.6375345514
 11
83.9646512297
 21
109.3892943331
  0
LINE
  5
23B
100
AcDbEntity
  8
RACCORDO
100
AcDbLine
 62
7
  6
CONTINUOUS
 10
85.0937656642
 20
109.5451399165
 11
85.0937656642
 21
147.5241116388
  0
LINE
  5
23C
100
AcDbEntity
  8
RACCORDO
100
AcDbLine
 62
7
  6
CONTINUOUS
 10
85.3702261547
 20
109.5667738544
 11
85.3702261547
 21
147.5457455766
  0
LINE
  5
23D
100
AcDbEntity
  8
RACCORDO
100
AcDbLine
 62
7
  6
CONTINUOUS
 10
87.0971612749
 20
111.5567642827
 11
87.0971612749
 21
147.0824434196
  0
LINE
  5
23E
100
AcDbEntity
  8
DRAFT
100
AcDbLine
 62
7
  6
CONTINUOUS
 10
87.2098587512
 20
111.3560088075
 11
87.2098587512
 21
122.0207886269
  0
LINE
  5
23F
100
AcDbEntity
  8
DRAFT
100
AcDbLine
 62
7
  6
CONTINUOUS
 10
87.2098587512
 20
122.9743451811
 11
87.2098587512
 21
138.4038295126
  0
LINE
  5
240
100
AcDbEntity
  8
DRAFT
100
AcDbLine
 62
7
  6
CONTINUOUS
 10
87.2098587512
 20
139.3573860668
 11
87.2098587512
 21
147.0406159217
  0
LINE
  5
241
100
AcDbEntity
  8
DRAFT
100
AcDbLine
 62
7
  6
CONTINUOUS
 10
87.2657865596
 20
122.0697773472
 11
87.2657865596
 21
123.0204742309
  0
LINE
  5
242
100
AcDbEntity
  8
DRAFT
100
AcDbLine
 62
7
  6
CONTINUOUS
 10
87.2657865596
 20
138.4528182329
 11
87.2657865596
 21
139.4035151167
  0
LWPOLYLINE
  5
243
100
AcDbEntity
  8
RACCORDO
100
AcDbPolyline
 62
7
  6
CONTINUOUS
 90
55
 70
0
 10
85.0937656642
 20
147.5241116388
 10
85.0939394203
 20
147.5369886759
 10
85.0944391951
 20
147.549645348
 10
85.0952649888
 20
147.5620816553
 10
85.0964214623
 20
147.5743095528
 10
85.0979039553
 20
147.5863170859
 10
85.099698486
 20
147.59806839
 10
85.1018064655
 20
147.6095619988
 10
85.1042264837
 20
147.6207993795
 10
85.1069403277
 20
147.6317490675
 10
85.1099498756
 20
147.6424104346
 10
85.1132532508
 20
147.6527841102
 10
85.1168266082
 20
147.6628405166
 10
85.1206719141
 20
147.6725778738
 10
85.124787204
 20
147.6819979632
 10
85.1291427367
 20
147.6910765484
 10
85.1337391472
 20
147.6998096897
 10
85.1385758025
 20
147.7082013283
 10
85.1436210592
 20
147.7162390499
 10
85.14887394
 20
147.7239188024
 10
85.1543354242
 20
147.7312446393
 10
85.1599768033
 20
147.7382163047
 10
85.1657975195
 20
147.744832149
 10
85.1717981324
 20
147.7510938233
 10
85.177951609
 20
147.7570060219
 10
85.1842577817
 20
147.7625678762
 10
85.1907168197
 20
147.7677802561
 10
85.1973021957
 20
147.7726504644
 10
85.204012993
 20
147.7771773681
 10
85.2108501297
 20
147.7813621014
 10
85.2177898303
 20
147.7852153676
 10
85.2248324646
 20
147.7887368586
 10
85.2319776642
 20
147.7919268835
 10
85.2392005461
 20
147.7947970709
 10
85.2465017548
 20
147.7973467174
 10
85.2538806468
 20
147.7995765273
 10
85.2613104068
 20
147.8015002404
 10
85.2687900825
 20
147.8031166935
 10
85.2763206267
 20
147.8044270503
 10
85.2838780819
 20
147.8054485406
 10
85.2914616651
 20
147.8061804441
 10
85.2990721596
 20
147.8066234815
 10
85.3066879565
 20
147.8067970438
 10
85.3143081484
 20
147.8067006947
 10
85.3219336428
 20
147.8063348706
 10
85.3295455527
 20
147.8057202723
 10
85.3371430875
 20
147.8048566983
 10
85.3447270375
 20
147.8037443499
 10
85.3522808874
 20
147.802404532
 10
85.3598016401
 20
147.8008380192
 10
85.3672922922
 20
147.7990440365
 10
85.374745318
 20
147.7970415647
 10
85.3821582085
 20
147.7948369304
 10
85.3895334722
 20
147.7924238065
 10
85.3968711087
 20
147.7898021929
  0
LWPOLYLINE
  5
244
100
AcDbEntity
  8
RACCORDO
100
AcDbPolyline
 62
7
  6
CONTINUOUS
 90
24
 70
0
 10
84.5729360823
 20
108.4773361404
 10
84.5726932051
 20
108.4714932255
 10
84.5726129715
 20
108.4657842216
 10
84.5726954911
 20
108.4602169225
 10
84.5729406512
 20
108.4547989288
 10
84.5733481171
 20
108.4495376372
 10
84.5739173326
 20
108.4444402304
 10
84.5746475205
 20
108.4395136675
 10
84.575537684
 20
108.4347646742
 10
84.5765866078
 20
108.4301997338
 10
84.57779286
 20
108.4258250785
 10
84.5791547937
 20
108.4216466806
 10
84.5806705496
 20
108.4176702444
 10
84.5823380585
 20
108.4139011986
 10
84.5841550438
 20
108.4103446888
 10
84.5861190249
 20
108.4070055702
 10
84.5882273207
 20
108.4038884015
 10
84.5904770528
 20
108.4009974383
 10
84.5928651499
 20
108.3983366273
 10
84.5953883518
 20
108.3959096011
 10
84.5980432137
 20
108.3937196731
 10
84.6008261113
 20
108.3917698329
 10
84.6037332453
 20
108.3900627425
 10
84.6053309174
 20
108.389253442
  0
LWPOLYLINE
  5
245
100
AcDbEntity
  8
RACCORDO
100
AcDbPolyline
 62
7
  6
CONTINUOUS
 90
27
 70
0
 10
85.3968711212
 20
109.0225466969
 10
85.397243871
 20
109.02827785
 10
85.3977655245
 20
109.0341177739
 10
85.398435426
 20
109.0400591284
 10
85.3992527335
 20
109.0460944455
 10
85.4002164197
 20
109.0522161393
 10
85.4013252733
 20
109.0584165152
 10
85.4025779006
 20
109.0646877798
 10
85.403972727
 20
109.0710220505
 10
85.4055079995
 20
109.0774113655
 10
85.4071817882
 20
109.083847694
 10
85.4089919893
 20
109.0903229459
 10
85.4109363275
 20
109.0968289823
 10
85.413012359
 20
109.1033576254
 10
85.4152174742
 20
109.1099006694
 10
85.4175489015
 20
109.1164498899
 10
85.4200037106
 20
109.1229970552
 10
85.4225788157
 20
109.1295339357
 10
85.4252709803
 20
109.1360523152
 10
85.4280768203
 20
109.1425440005
 10
85.4309928092
 20
109.1490008319
 10
85.4340152817
 20
109.1554146937
 10
85.4371404387
 20
109.1617775241
 10
85.4403643522
 20
109.1680813255
 10
85.4436829698
 20
109.1743181743
 10
85.4470921204
 20
109.1804802313
 10
85.4505875188
 20
109.1865597513
  0
LWPOLYLINE
  5
246
100
AcDbEntity
  8
RACCORDO
100
AcDbPolyline
 62
7
  6
CONTINUOUS
 90
4
 70
0
 10
84.6145956997
 20
108.0808430667
 10
84.6162689109
 20
108.0954347385
 10
84.6197007044
 20
108.1109862051
 10
84.6247866185
 20
108.1270240893
  0
LWPOLYLINE
  5
247
100
AcDbEntity
  8
RACCORDO
100
AcDbPolyline
 62
7
  6
CONTINUOUS
 90
7
 70
0
 10
84.6247866185
 20
108.1270240893
 10
84.6313718409
 20
108.1430602076
 10
84.6392559215
 20
108.1586064302
 10
84.6481988736
 20
108.1731895395
 10
84.6579284792
 20
108.1863656345
 10
84.6681485749
 20
108.1977336426
 10
84.6785480672
 20
108.2069475286
  0
LINE
  5
248
100
AcDbEntity
  8
RACCORDO
100
AcDbLine
 62
7
  6
CONTINUOUS
 10
85.9608303392
 20
110.554593425
 11
85.763737237
 21
110.2247231263
  0
LINE
  5
249
100
AcDbEntity
  8
RACCORDO
100
AcDbLine
 62
7
  6
CONTINUOUS
 10
85.763737237
 20
110.2247231263
 11
85.3702261547
 21
109.5667738544
  0
LINE
  5
24A
100
AcDbEntity
  8
RACCORDO
100
AcDbLine
 62
7
  6
CONTINUOUS
 10
86.1839363858
 20
110.404847205
 11
86.0215046008
 21
110.1347413307
  0
LINE
  5
24B
100
AcDbEntity
  8
RACCORDO
100
AcDbLine
 62
7
  6
CONTINUOUS
 10
86.0215046008
 20
110.1347413307
 11
85.6970869075
 21
109.5957403025
  0
LINE
  5
24C
100
AcDbEntity
  8
RACCORDO
100
AcDbLine
 62
7
  6
CONTINUOUS
 10
85.6970869075
 20
109.5957403025
 11
85.4505875188
 21
109.1865597513
  0
LINE
  5
24D
100
AcDbEntity
  8
DRAFT
100
AcDbLine
 62
7
  6
CONTINUOUS
 10
87.2657865596
 20
138.4528182329
 11
87.2098587512
 21
138.4038295126
  0
LINE
  5
24E
100
AcDbEntity
  8
DRAFT
100
AcDbLine
 62
7
  6
CONTINUOUS
 10
87.2657865596
 20
139.4035151167
 11
87.2098587512
 21
139.3573860668
  0
LWPOLYLINE
  5
24F
100
AcDbEntity
  8
RACCORDO
100
AcDbPolyline
 62
7
  6
CONTINUOUS
 90
7
 70
0
 10
84.0837821872
 20
149.4705950558
 10
84.1540204427
 20
149.5069378585
 10
84.2325189178
 20
149.5312687261
 10
84.3183152089
 20
149.5430684824
 10
84.4104575302
 20
149.541979175
 10
84.5072706841
 20
149.5278475429
 10
84.6061303508
 20
149.501187494
  0
LWPOLYLINE
  5
250
100
AcDbEntity
  8
RACCORDO
100
AcDbPolyline
 62
7
  6
CONTINUOUS
 90
18
 70
0
 10
86.1144714506
 20
147.4468370687
 10
86.107525693
 20
147.4438838902
 10
86.0977051002
 20
147.4400331728
 10
86.0879442891
 20
147.4365330039
 10
86.0782435401
 20
147.433383148
 10
86.0686180727
 20
147.4305893302
 10
86.0590663944
 20
147.4281519052
 10
86.0495899979
 20
147.4260705185
 10
86.0402085808
 20
147.4243498317
 10
86.0309220472
 20
147.4229910751
 10
86.021730493
 20
147.4219930184
 10
86.0126539043
 20
147.4213566331
 10
86.0036922161
 20
147.4210834243
 10
85.9948454934
 20
147.4211718867
 10
85.9861339176
 20
147.4216184759
 10
85.977564216
 20
147.4224220104
 10
85.9691296613
 20
147.4235836717
 10
85.9608302535
 20
147.4251034598
  0
LWPOLYLINE
  5
251
100
AcDbEntity
  8
RACCORDO
100
AcDbPolyline
 62
7
  6
CONTINUOUS
 90
6
 70
0
 10
233.3575660944
 20
35.1430178219
 10
233.4204492853
 20
35.1362071969
 10
233.4841248014
 20
35.1329675456
 10
233.5483858418
 20
35.1332201142
 10
233.6118407531
 20
35.1376335801
 10
233.6744530259
 20
35.1463835565
  0
LWPOLYLINE
  5
252
100
AcDbEntity
  8
RACCORDO
100
AcDbPolyline
 62
7
  6
CONTINUOUS
 90
9
 70
0
 10
233.5250454528
 20
34.8934997983
 10
233.6923261311
 20
34.875303356
 10
233.8563129472
 20
34.8744282029
 10
234.0157048649
 20
34.8908912691
 10
234.1691755123
 20
34.9245678483
 10
234.3152956304
 20
34.9752032658
 10
234.4525882214
 20
35.042311862
 10
234.5794028413
 20
35.125087827
 10
234.6221678615
 20
35.1584857213
  0
LWPOLYLINE
  5
253
100
AcDbEntity
  8
RACCORDO
100
AcDbPolyline
 62
7
  6
CONTINUOUS
 90
4
 70
0
 10
67.1253239367
 20
101.7894523853
 10
67.2817228279
 20
101.6716329808
 10
67.4442729043
 20
101.5685306552
 10
67.6118321054
 20
101.4812148621
  0
LWPOLYLINE
  5
254
100
AcDbEntity
  8
RACCORDO
100
AcDbPolyline
 62
7
  6
CONTINUOUS
 90
7
 70
0
 10
83.871825803
 20
109.2257613521
 10
83.8633020595
 20
109.2663660144
 10
83.8563195664
 20
109.3066079745
 10
83.8508868168
 20
109.3464058249
 10
83.8470074462
 20
109.3856872278
 10
83.8446816952
 20
109.4243887236
 10
83.843907404
 20
109.4624444741
  0
LWPOLYLINE
  5
255
100
AcDbEntity
  8
RACCORDO
100
AcDbPolyline
 62
7
  6
CONTINUOUS
 90
6
 70
0
 10
84.6145957728
 20
149.5372821935
 10
84.6162690042
 20
149.523442659
 10
84.6197008078
 20
149.5114283116
 10
84.6247867223
 20
149.5016048582
 10
84.6313719365
 20
149.4942713171
 10
84.6394652754
 20
149.4895724778
  0
LINE
  5
256
100
AcDbEntity
  8
SUPERFICI
100
AcDbLine
 62
7
  6
CONTINUOUS
 10
101.9388886722
 20
107.0789216991
 11
101.9388886722
 21
106.5945142342
  0
LINE
  5
257
100
AcDbEntity
  8
SUPERFICI
100
AcDbLine
 62
7
  6
CONTINUOUS
 10
101.969279053
 20
107.1098098167
 11
101.969279053
 21
106.626496643
  0
LINE
  5
258
100
AcDbEntity
  8
SUPERFICI
100
AcDbLine
 62
7
  6
CONTINUOUS
 10
101.2528955724
 20
105.9902490961
 11
101.2615089257
 21
106.0189352512
  0
LINE
  5
259
100
AcDbEntity
  8
SUPERFICI
100
AcDbLine
 62
7
  6
CONTINUOUS
 10
95.8226199748
 20
107.8888174731
 11
95.8667194259
 21
107.9879221718
  0
LINE
  5
25A
100
AcDbEntity
  8
SUPERFICI
100
AcDbLine
 62
7
  6
CONTINUOUS
 10
96.0742066249
 20
108.0446321426
 11
96.153507644
 21
108.222845327
  0
LINE
  5
25B
100
AcDbEntity
  8
SUPERFICI
100
AcDbLine
 62
7
  6
CONTINUOUS
 10
96.3609948431
 20
108.2795552978
 11
96.4402958622
 21
108.4577684822
  0
LINE
  5
25C
100
AcDbEntity
  8
SUPERFICI
100
AcDbLine
 62
7
  6
CONTINUOUS
 10
96.6477830612
 20
108.514478453
 11
96.7270840804
 21
108.6926916374
  0
LINE
  5
25D
100
AcDbEntity
  8
SUPERFICI
100
AcDbLine
 62
7
  6
CONTINUOUS
 10
96.9345712794
 20
108.7494016082
 11
97.0138722986
 21
108.9276147926
  0
LINE
  5
25E
100
AcDbEntity
  8
SUPERFICI
100
AcDbLine
 62
7
  6
CONTINUOUS
 10
100.3279562184
 20
106.0793728673
 11
100.3720556695
 21
106.1784775659
  0
LINE
  5
25F
100
AcDbEntity
  8
SUPERFICI
100
AcDbLine
 62
7
  6
CONTINUOUS
 10
100.5728074222
 20
106.2200509679
 11
100.6588438876
 21
106.4134007211
  0
LINE
  5
260
100
AcDbEntity
  8
SUPERFICI
100
AcDbLine
 62
7
  6
CONTINUOUS
 10
100.8595956404
 20
106.4549741231
 11
100.9456321058
 21
106.6483238763
  0
LINE
  5
261
100
AcDbEntity
  8
SUPERFICI
100
AcDbLine
 62
7
  6
CONTINUOUS
 10
101.1463838585
 20
106.6898972783
 11
101.232420324
 21
106.8832470315
  0
LINE
  5
262
100
AcDbEntity
  8
SUPERFICI
100
AcDbLine
 62
7
  6
CONTINUOUS
 10
101.4331720767
 20
106.9248204335
 11
101.5192085422
 21
107.1181701867
  0
LINE
  5
263
100
AcDbEntity
  8
DRAFT
100
AcDbLine
 62
7
  6
CONTINUOUS
 10
87.2657865596
 20
122.0697773472
 11
87.2098587512
 21
122.0207886269
  0
LINE
  5
264
100
AcDbEntity
  8
DRAFT
100
AcDbLine
 62
7
  6
CONTINUOUS
 10
87.2657865596
 20
123.0204742309
 11
87.2098587512
 21
122.9743451811
  0
LWPOLYLINE
  5
265
100
AcDbEntity
  8
RACCORDO
100
AcDbPolyline
 62
7
  6
CONTINUOUS
 90
25
 70
0
 10
86.1876922536
 20
110.8257525543
 10
86.1775541352
 20
110.8174440054
 10
86.1674475161
 20
110.8088449676
 10
86.1573723965
 20
110.799955441
 10
86.1473239214
 20
110.7907707085
 10
86.1373069458
 20
110.7812954872
 10
86.1273360337
 20
110.7715439283
 10
86.1174112858
 20
110.7615158615
 10
86.1075326014
 20
110.7512114571
 10
86.0977142431
 20
110.7406453774
 10
86.0879560187
 20
110.7298171022
 10
86.0782581202
 20
110.7187271517
 10
86.0686353871
 20
110.7073917487
 10
86.0590864165
 20
110.6958085289
 10
86.0496126111
 20
110.6839798566
 10
86.0402330187
 20
110.6719290485
 10
86.0309473524
 20
110.6596545441
 10
86.021755899
 20
110.6471579038
 10
86.0126785669
 20
110.6344671259
 10
86.0037153478
 20
110.6215807333
 10
85.9948662501
 20
110.608500203
 10
85.986151207
 20
110.5952579641
 10
85.977576863
 20
110.5818648264
 10
85.9691365738
 20
110.56830998
 10
85.9608303392
 20
110.554593425
  0
LINE
  5
266
100
AcDbEntity
  8
RACCORDO
100
AcDbLine
 62
7
  6
CONTINUOUS
 10
83.8770037116
 20
109.4895553821
 11
83.843907404
 21
109.4624444741
  0
LINE
  5
267
100
AcDbEntity
  8
RACCORDO
100
AcDbLine
 62
7
  6
CONTINUOUS
 10
84.792108994
 20
108.2999707239
 11
84.6785480394
 21
108.2069470359
  0
LINE
  5
268
100
AcDbEntity
  8
RACCORDO
100
AcDbLine
 62
7
  6
CONTINUOUS
 10
87.0971612749
 20
111.5567642827
 11
86.1876922536
 21
110.8257525543
  0
LINE
  5
269
100
AcDbEntity
  8
RACCORDO
100
AcDbLine
 62
7
  6
CONTINUOUS
 10
87.2607671609
 20
111.3274505856
 11
86.3512982359
 21
110.5964388297
  0
LWPOLYLINE
  5
26A
100
AcDbEntity
  8
RACCORDO
100
AcDbPolyline
 62
7
  6
CONTINUOUS
 90
25
 70
0
 10
86.3512983347
 20
110.5964387688
 10
86.3438263354
 20
110.5906041054
 10
86.3363703355
 20
110.5845542754
 10
86.3289339857
 20
110.5782929559
 10
86.3215210039
 20
110.5718245927
 10
86.3141349258
 20
110.5651524572
 10
86.3067791208
 20
110.5582784971
 10
86.2994572051
 20
110.5512066985
 10
86.2921727509
 20
110.5439411488
 10
86.2849290744
 20
110.5364838513
 10
86.2777295567
 20
110.5288387725
 10
86.2705779479
 20
110.5210104003
 10
86.2634781333
 20
110.51300148
 10
86.2564325306
 20
110.5048151003
 10
86.2494457883
 20
110.4964570679
 10
86.2425250658
 20
110.4879344563
 10
86.2356733191
 20
110.4792515386
 10
86.2288943679
 20
110.4704138833
 10
86.2221964471
 20
110.4614310524
 10
86.2155826956
 20
110.4523083088
 10
86.2090562675
 20
110.4430511867
 10
86.2026251006
 20
110.4336702254
 10
86.1962936727
 20
110.424172888
 10
86.1900631486
 20
110.4145632993
 10
86.183936265
 20
110.4048472711
  0
LWPOLYLINE
  5
26B
100
AcDbEntity
  8
RACCORDO
100
AcDbPolyline
 62
7
  6
CONTINUOUS
 90
10
 70
0
 10
234.3176030475
 20
35.9778125148
 10
234.392793138
 20
35.9546780165
 10
234.4737462659
 20
35.9392132048
 10
234.5581049587
 20
35.9318684376
 10
234.643412569
 20
35.9328576051
 10
234.7271848153
 20
35.9421519012
 10
234.8069821286
 20
35.9594806627
 10
234.8804806953
 20
35.9843392509
 10
234.9455401306
 20
36.0160037476
 10
235.0002658094
 20
36.0535520367
  0
LWPOLYLINE
  5
26C
100
AcDbEntity
  8
RACCORDO
100
AcDbPolyline
 62
7
  6
CONTINUOUS
 90
7
 70
0
 10
66.364344733
 20
103.4316274715
 10
66.3007269646
 20
103.464241318
 10
66.2477033394
 20
103.5025845468
 10
66.2068179941
 20
103.5455405575
 10
66.179261584
 20
103.5918584184
 10
66.1658366127
 20
103.6401892889
 10
66.164520708
 20
103.6609822983
  0
LWPOLYLINE
  5
26D
100
AcDbEntity
  8
RACCORDO
100
AcDbPolyline
 62
7
  6
CONTINUOUS
 90
22
 70
0
 10
84.3566552086
 20
108.4258539369
 10
84.3232445035
 20
108.4567218723
 10
84.2905448532
 20
108.4887116519
 10
84.258619494
 20
108.5217574558
 10
84.2275306515
 20
108.5557961389
 10
84.1973294822
 20
108.5907732552
 10
84.168060463
 20
108.6266332455
 10
84.1397787687
 20
108.6633114382
 10
84.1125342331
 20
108.7007464726
 10
84.0863627532
 20
108.7388870211
 10
84.0613105111
 20
108.7776724022
 10
84.0374286809
 20
108.8170306549
 10
84.0147593239
 20
108.8568924654
 10
83.9933426459
 20
108.897194692
 10
83.9732240408
 20
108.9378606081
 10
83.9544484411
 20
108.9787985927
 10
83.9370495374
 20
109.0199388621
 10
83.9210614883
 20
109.0612057837
 10
83.9065215539
 20
109.1024976251
 10
83.893454227
 20
109.1437399316
 10
83.8818811882
 20
109.1848605138
 10
83.871825803
 20
109.2257613521
  0
LWPOLYLINE
  5
26E
100
AcDbEntity
  8
RACCORDO
100
AcDbPolyline
 62
7
  6
CONTINUOUS
 90
43
 70
0
 10
85.9608303392
 20
110.554593425
 10
85.9635334037
 20
110.5515615529
 10
85.9664435777
 20
110.5484393037
 10
85.96955697
 20
110.545230852
 10
85.9728694178
 20
110.5419404877
 10
85.9763764922
 20
110.5385726102
 10
85.980073504
 20
110.5351317226
 10
85.98395551
 20
110.5316224255
 10
85.9880173199
 20
110.5280494111
 10
85.9922535027
 20
110.5244174566
 10
85.9966583944
 20
110.5207314184
 10
86.0012261054
 20
110.5169962247
 10
86.0059505283
 20
110.5132168698
 10
86.0108253464
 20
110.5093984069
 10
86.0158440418
 20
110.5055459416
 10
86.020999904
 20
110.5016646247
 10
86.0262860395
 20
110.4977596459
 10
86.0316953804
 20
110.4938362263
 10
86.037220694
 20
110.4898996118
 10
86.0428545926
 20
110.4859550659
 10
86.0485895434
 20
110.4820078627
 10
86.0544178785
 20
110.4780632798
 10
86.0603318049
 20
110.4741265913
 10
86.0663234155
 20
110.4702030609
 10
86.072384699
 20
110.4662979346
 10
86.0785075512
 20
110.4624164337
 10
86.0846837855
 20
110.4585637481
 10
86.0909051438
 20
110.4547450289
 10
86.0971633079
 20
110.4509653821
 10
86.1034499101
 20
110.4472298613
 10
86.109756545
 20
110.4435434611
 10
86.1160747801
 20
110.4399111105
 10
86.1223961676
 20
110.436337666
 10
86.1287122555
 20
110.4328279057
 10
86.1350145988
 20
110.4293865222
 10
86.1412947707
 20
110.4260181169
 10
86.1475443745
 20
110.4227271937
 10
86.1537550539
 20
110.4195181525
 10
86.1599185049
 20
110.4163952842
 10
86.1660264867
 20
110.4133627641
 10
86.1720708324
 20
110.410424647
 10
86.1780434605
 20
110.4075848613
 10
86.1839363852
 20
110.4048472039
  0
LWPOLYLINE
  5
26F
100
AcDbEntity
  8
RACCORDO
100
AcDbPolyline
 62
7
  6
CONTINUOUS
 90
50
 70
0
 10
85.3702261547
 20
147.5457455767
 10
85.3680166393
 20
147.5526391486
 10
85.3659950651
 20
147.5594295206
 10
85.3641574664
 20
147.5661113131
 10
85.3624952859
 20
147.5726810708
 10
85.3610088562
 20
147.5791320302
 10
85.3597072091
 20
147.5854542553
 10
85.3585862068
 20
147.5916433092
 10
85.3576408203
 20
147.5976948709
 10
85.3568782606
 20
147.6035997724
 10
85.3562940558
 20
147.6093550041
 10
85.3558827968
 20
147.6149564105
 10
85.3556497065
 20
147.6203939331
 10
85.3555901527
 20
147.6256652348
 10
85.3556980932
 20
147.6307675555
 10
85.3559759333
 20
147.6356913649
 10
85.3564187216
 20
147.6404343955
 10
85.357020098
 20
147.644996297
 10
85.3577798439
 20
147.6493715841
 10
85.3586926872
 20
147.653558647
 10
85.3597525985
 20
147.6575586384
 10
85.3609581553
 20
147.6613708937
 10
85.3623043896
 20
147.6649954145
 10
85.363785635
 20
147.6684330352
 10
85.365399627
 20
147.6716845724
 10
85.367141844
 20
147.6747508698
 10
85.3690069446
 20
147.6776329356
 10
85.3709916628
 20
147.6803319862
 10
85.3730915887
 20
147.6828491134
 10
85.3753020209
 20
147.6851860712
 10
85.3776194934
 20
147.6873451334
 10
85.3800404137
 20
147.6893281243
 10
85.3825600938
 20
147.691136646
 10
85.3851736413
 20
147.6927727308
 10
85.3878780058
 20
147.6942385579
 10
85.3906687082
 20
147.6955361781
 10
85.3935388835
 20
147.6966678135
 10
85.3964852747
 20
147.6976359053
 10
85.3995043723
 20
147.6984433159
 10
85.4025891192
 20
147.6990933238
 10
85.4057366981
 20
147.6995887993
 10
85.4089440051
 20
147.6999328503
 10
85.4122037663
 20
147.7001293667
 10
85.41551349
 20
147.7001814966
 10
85.4188706048
 20
147.7000925435
 10
85.4222679309
 20
147.699866768
 10
85.4257033856
 20
147.6995074809
 10
85.4291748237
 20
147.6990180792
 10
85.4326751758
 20
147.6984029972
 10
85.4336542462
 20
147.6982099187
  0
LWPOLYLINE
  5
270
100
AcDbEntity
  8
SUPERFICI
100
AcDbPolyline
 62
7
  6
CONTINUOUS
 90
3
 70
0
 10
101.9692790432
 20
107.1102822901
 10
101.9690895635
 20
107.1110833883
 10
101.9683568569
 20
107.1116905376
  0
LINE
  5
271
100
AcDbEntity
  8
SUPERFICI
100
AcDbLine
 62
7
  6
CONTINUOUS
 10
120.3698096687
 20
99.5947331071
 11
120.3698096687
 21
99.1922408467
  0
LINE
  5
272
100
AcDbEntity
  8
SUPERFICI
100
AcDbLine
 62
7
  6
CONTINUOUS
 10
120.4002000495
 20
99.6256223747
 11
120.4002000495
 21
99.2242232147
  0
LINE
  5
273
100
AcDbEntity
  8
SUPERFICI
100
AcDbLine
 62
7
  6
CONTINUOUS
 10
119.6838165689
 20
98.5879757086
 11
119.6924299222
 21
98.6166618636
  0
LINE
  5
274
100
AcDbEntity
  8
0
100
AcDbLine
 62
7
  6
CONTINUOUS
 10
101.9333342939
 20
107.0740477803
 11
100.6909051026
 21
105.9336044128
  0
LWPOLYLINE
  5
275
100
AcDbEntity
  8
SUPERFICI
100
AcDbPolyline
 62
7
  6
CONTINUOUS
 90
7
 70
0
 10
101.2058171253
 20
105.9172900714
 10
101.2098023528
 20
105.9207122
 10
101.2211950618
 20
105.9321273202
 10
101.2312255995
 20
105.9448124108
 10
101.2398110952
 20
105.9586880022
 10
101.2470344195
 20
105.9738335639
 10
101.2528955724
 20
105.9902490961
  0
LWPOLYLINE
  5
276
100
AcDbEntity
  8
SUPERFICI
100
AcDbPolyline
 62
7
  6
CONTINUOUS
 90
10
 70
0
 10
101.9388886722
 20
107.0789216991
 10
101.9451850354
 20
107.0843113593
 10
101.9508878062
 20
107.0893102142
 10
101.9559351159
 20
107.093902843
 10
101.9602696157
 20
107.0980889842
 10
101.9638236904
 20
107.101827533
 10
101.9665298162
 20
107.1050348834
 10
101.9683416274
 20
107.1076555377
 10
101.9692071795
 20
107.109679304
 10
101.9692790432
 20
107.1102822901
  0
LINE
  5
277
100
AcDbEntity
  8
0
100
AcDbLine
 62
7
  6
CONTINUOUS
 10
101.9388886722
 20
106.5945142342
 11
101.0101790774
 21
105.8053767867
  0
LINE
  5
278
100
AcDbEntity
  8
SUPERFICI
100
AcDbLine
 62
7
  6
CONTINUOUS
 10
101.2058754556
 20
105.9173116836
 11
101.0503038566
 21
105.7892617708
  0
LINE
  5
279
100
AcDbEntity
  8
0
100
AcDbLine
 62
7
  6
CONTINUOUS
 10
101.2528955724
 20
105.9902490961
 11
101.0222844953
 21
105.800514978
  0
LINE
  5
27A
100
AcDbEntity
  8
SUPERFICI
100
AcDbLine
 62
7
  6
CONTINUOUS
 10
95.8667194259
 20
107.9879221718
 11
95.9814347131
 21
108.0818914339
  0
LINE
  5
27B
100
AcDbEntity
  8
SUPERFICI
100
AcDbLine
 62
7
  6
CONTINUOUS
 10
96.153507644
 20
108.222845327
 11
96.2682229313
 21
108.3168145891
  0
LINE
  5
27C
100
AcDbEntity
  8
SUPERFICI
100
AcDbLine
 62
7
  6
CONTINUOUS
 10
96.4402958622
 20
108.4577684822
 11
96.5550111495
 21
108.5517377443
  0
LINE
  5
27D
100
AcDbEntity
  8
SUPERFICI
100
AcDbLine
 62
7
  6
CONTINUOUS
 10
96.7270840804
 20
108.6926916374
 11
96.8417993677
 21
108.7866608995
  0
LINE
  5
27E
100
AcDbEntity
  8
SUPERFICI
100
AcDbLine
 62
7
  6
CONTINUOUS
 10
97.0138722986
 20
108.9276147926
 11
97.1285875858
 21
109.0215840547
  0
LINE
  5
27F
100
AcDbEntity
  8
SUPERFICI
100
AcDbLine
 62
7
  6
CONTINUOUS
 10
100.3720556695
 20
106.1784775659
 11
100.4867709567
 21
106.272446828
  0
LINE
  5
280
100
AcDbEntity
  8
SUPERFICI
100
AcDbLine
 62
7
  6
CONTINUOUS
 10
100.6588438876
 20
106.4134007211
 11
100.7735591749
 21
106.5073699832
  0
LINE
  5
281
100
AcDbEntity
  8
SUPERFICI
100
AcDbLine
 62
7
  6
CONTINUOUS
 10
100.9456321058
 20
106.6483238763
 11
101.0603473931
 21
106.7422931384
  0
LINE
  5
282
100
AcDbEntity
  8
SUPERFICI
100
AcDbLine
 62
7
  6
CONTINUOUS
 10
101.232420324
 20
106.8832470315
 11
101.3471356113
 21
106.9772162936
  0
LINE
  5
283
100
AcDbEntity
  8
SUPERFICI
100
AcDbLine
 62
7
  6
CONTINUOUS
 10
101.5192085422
 20
107.1181701867
 11
101.6339238294
 21
107.2121394488
  0
LINE
  5
284
100
AcDbEntity
  8
SUPERFICI
100
AcDbLine
 62
7
  6
CONTINUOUS
 10
101.7199602949
 20
107.1597435887
 11
100.3770170884
 21
106.0596689158
  0
LINE
  5
285
100
AcDbEntity
  8
0
100
AcDbLine
 62
7
  6
CONTINUOUS
 10
97.0012500523
 20
109.054884003
 11
95.5577928307
 21
107.9951780246
  0
LINE
  5
286
100
AcDbEntity
  8
SUPERFICI
100
AcDbLine
 62
7
  6
CONTINUOUS
 10
97.0157125595
 20
109.064098638
 11
97.0077031425
 21
109.0593969788
  0
LWPOLYLINE
  5
287
100
AcDbEntity
  8
RACCORDO
100
AcDbPolyline
 62
7
  6
CONTINUOUS
 90
67
 70
0
 10
215.2261575375
 20
56.004056896
 10
215.2414659465
 20
55.9992347325
 10
215.2567322431
 20
55.9947718174
 10
215.2719564268
 20
55.9906681502
 10
215.2871470364
 20
55.9869217821
 10
215.3022955322
 20
55.9835346612
 10
215.3173762957
 20
55.9805126321
 10
215.332388686
 20
55.9778564464
 10
215.3473333425
 20
55.9755653513
 10
215.3621865666
 20
55.9736429344
 10
215.3769481813
 20
55.9720897881
 10
215.3916183617
 20
55.9709053183
 10
215.4061739362
 20
55.9700913319
 10
215.4206147226
 20
55.9696484118
 10
215.4349409006
 20
55.9695759729
 10
215.4491298422
 20
55.9698740698
 10
215.4631813329
 20
55.9705432885
 10
215.477095584
 20
55.9715830404
 10
215.4908506054
 20
55.9729916185
 10
215.5044461346
 20
55.9747696041
 10
215.5178824306
 20
55.9769164129
 10
215.5311382842
 20
55.9794285894
 10
215.5442134029
 20
55.9823067073
 10
215.5571080755
 20
55.9855501897
 10
215.569801965
 20
55.9891538544
 10
215.5822947547
 20
55.9931182687
 10
215.5945867575
 20
55.997442862
 10
215.6066585802
 20
56.0021207449
 10
215.6185098719
 20
56.0071524734
 10
215.6301409795
 20
56.0125374879
 10
215.6415335561
 20
56.0182672253
 10
215.6526872158
 20
56.0243422232
 10
215.6636023404
 20
56.0307619404
 10
215.6742617347
 20
56.0375161946
 10
215.6846649921
 20
56.0446055089
 10
215.6948125152
 20
56.0520293567
 10
215.704688322
 20
56.0597759814
 10
215.7142919823
 20
56.0678458877
 10
215.7236239224
 20
56.0762385674
 10
215.7326694457
 20
56.0849407442
 10
215.7414280984
 20
56.0939529011
 10
215.7499003304
 20
56.1032745517
 10
215.7580728007
 20
56.1128909658
 10
215.7659450348
 20
56.1228026021
 10
215.7735175034
 20
56.1330089987
 10
215.7807782829
 20
56.1434940443
 10
215.7877268829
 20
56.1542581758
 10
215.7943637904
 20
56.1653009533
 10
215.8006785474
 20
56.1766049507
 10
215.8066706476
 20
56.1881705795
 10
215.8123405944
 20
56.1999974255
 10
215.8176794447
 20
56.2120668247
 10
215.8226866742
 20
56.2243791504
 10
215.8273628047
 20
56.2369340269
 10
215.8317004623
 20
56.249711667
 10
215.8356991175
 20
56.2627124165
 10
215.8393592978
 20
56.2759359276
 10
215.8426752156
 20
56.2893613723
 10
215.8456463289
 20
56.3029890956
 10
215.8482731781
 20
56.316818751
 10
215.8505516003
 20
56.3308284733
 10
215.8524810493
 20
56.3450191314
 10
215.8540620701
 20
56.3593898553
 10
215.8552921364
 20
56.3739161713
 10
215.8561704059
 20
56.3885899213
 10
215.8566977204
 20
56.403419263
 10
215.8568740796
 20
56.4184041961
  0
LWPOLYLINE
  5
288
100
AcDbEntity
  8
RACCORDO
100
AcDbPolyline
 62
7
  6
CONTINUOUS
 90
39
 70
0
 10
215.2745716079
 20
55.9095563532
 10
215.2806252267
 20
55.9076024183
 10
215.3009643067
 20
55.9013537021
 10
215.3212830985
 20
55.8955979655
 10
215.341574693
 20
55.8903364999
 10
215.3618278288
 20
55.8855713466
 10
215.3820259366
 20
55.8813053476
 10
215.4021609893
 20
55.8775390695
 10
215.4222244339
 20
55.8742728991
 10
215.4421989996
 20
55.8715083834
 10
215.4620765578
 20
55.8692452615
 10
215.4818485318
 20
55.8674829563
 10
215.5014970007
 20
55.8662213714
 10
215.5210133931
 20
55.86545917
 10
215.5403897626
 20
55.8651946026
 10
215.5596090557
 20
55.8654257034
 10
215.5786632951
 20
55.8661500221
 10
215.5975439825
 20
55.8673646696
 10
215.616233173
 20
55.8690656354
 10
215.6347229819
 20
55.8712491361
 10
215.6530050154
 20
55.8739108923
 10
215.671060532
 20
55.8770444273
 10
215.6888783633
 20
55.8806436195
 10
215.7064539841
 20
55.8847031757
 10
215.7237784938
 20
55.8892165989
 10
215.7408403462
 20
55.8941763294
 10
215.7576357646
 20
55.899576609
 10
215.7741669048
 20
55.9054137986
 10
215.7904259894
 20
55.9116813275
 10
215.8064051869
 20
55.9183723494
 10
215.8221057088
 20
55.9254836247
 10
215.8375198982
 20
55.9330083093
 10
215.8526398189
 20
55.9409391899
 10
215.8674655124
 20
55.9492731096
 10
215.8819891077
 20
55.9580025794
 10
215.8962032564
 20
55.9671201245
 10
215.910108127
 20
55.9766232023
 10
215.9236962449
 20
55.9865040967
 10
215.928550956
 20
55.9901843085
  0
LWPOLYLINE
  5
289
100
AcDbEntity
  8
RACCORDO
100
AcDbPolyline
 62
7
  6
CONTINUOUS
 90
55
 70
0
 10
214.4119463799
 20
57.4001967124
 10
212.7314110258
 20
57.9481923603
 10
210.9798744409
 20
58.522729872
 10
209.1574601649
 20
59.1243285568
 10
207.2694361977
 20
59.7519408636
 10
205.3108008361
 20
60.4077241817
 10
203.2662858612
 20
61.0970604208
 10
201.1315109767
 20
61.8220686712
 10
198.9111744931
 20
62.5819498996
 10
196.603635284
 20
63.3777491761
 10
194.1949865137
 20
64.2150635131
 10
191.6995011982
 20
65.0897935601
 10
189.1577376873
 20
65.9881386745
 10
186.5733349653
 20
66.9092730153
 10
183.9428781397
 20
67.8548946876
 10
181.2962105109
 20
68.8144235838
 10
178.63753271
 20
69.7865103343
 10
175.9627481343
 20
70.7728650774
 10
173.2891555585
 20
71.767088336
 10
170.6223228531
 20
72.7671014836
 10
167.956706745
 20
73.7750125847
 10
165.2929004009
 20
74.7905367002
 10
162.6312821523
 20
75.813530446
 10
159.9715013773
 20
76.8441574647
 10
157.3130557366
 20
77.8825838192
 10
154.6555896705
 20
78.9289534659
 10
151.9994855487
 20
79.9831389354
 10
149.3453465768
 20
81.04489395
 10
146.6931837863
 20
82.1142065522
 10
144.0430066627
 20
83.1910804277
 10
141.3954126902
 20
84.275279616
 10
138.7507595605
 20
85.3666345973
 10
136.1087036713
 20
86.4652822125
 10
133.4687891995
 20
87.5714407502
 10
130.8306708324
 20
88.6852255708
 10
128.1947068007
 20
89.8064844156
 10
125.5614925408
 20
90.9350256066
 10
122.9255694112
 20
92.0731587026
 10
120.2923821092
 20
93.21854147
 10
117.6788299505
 20
94.3638459855
 10
115.0807468717
 20
95.5106834454
 10
112.5022082562
 20
96.6570804441
 10
109.9723673104
 20
97.7899292809
 10
107.4875749681
 20
98.9103752159
 10
105.0512678231
 20
100.0164003615
 10
102.7030724847
 20
101.0895938429
 10
100.4564859016
 20
102.1229024911
 10
98.2976169097
 20
103.1218926637
 10
96.2249245829
 20
104.0867843153
 10
94.2426607437
 20
105.0147745449
 10
92.3462140193
 20
105.9073595533
 10
90.520759694
 20
106.7712464744
 10
88.7612563957
 20
107.6083118959
 10
87.0724393244
 20
108.4155834805
 10
85.454164773
 20
109.1925490909
  0
LWPOLYLINE
  5
28A
100
AcDbEntity
  8
RACCORDO
100
AcDbPolyline
 62
7
  6
CONTINUOUS
 90
55
 70
0
 10
214.372182253
 20
57.2231540513
 10
212.6939354262
 20
57.7757830313
 10
210.9445095389
 20
58.3554875026
 10
209.1240025255
 20
58.9623510057
 10
207.2376074768
 20
59.5943374496
 10
205.2803346299
 20
60.2536556614
 10
203.2370372162
 20
60.9467815678
 10
201.1033486659
 20
61.6752711873
 10
198.8839264593
 20
62.4378143977
 10
196.5771955164
 20
63.2366178378
 10
194.1692477287
 20
64.0768256664
 10
191.674340465
 20
64.9535864554
 10
189.1330804012
 20
65.8540562073
 10
186.5490891524
 20
66.777332351
 10
183.9189401287
 20
67.7244763185
 10
181.2725292484
 20
68.6854722856
 10
178.6140463837
 20
69.6590390639
 10
175.9393781359
 20
70.6465151749
 10
173.2658667333
 20
71.6417309587
 10
170.5990719144
 20
72.6426870433
 10
167.9334350536
 20
73.6513765658
 10
165.2695823881
 20
74.6675863886
 10
162.607884787
 20
75.6911772847
 10
159.9479772335
 20
76.7222862201
 10
157.2893818377
 20
77.7611140908
 10
154.63173707
 20
78.8078069316
 10
151.9754134695
 20
79.8622190409
 10
149.3210309494
 20
80.9241134626
 10
146.6685957501
 20
81.9934945705
 10
144.018107409
 20
83.0703556503
 10
141.3701731008
 20
84.1544409153
 10
138.7251480617
 20
85.2456047571
 10
136.0826796276
 20
86.3439878441
 10
133.4423127954
 20
87.4497635386
 10
130.8037084449
 20
88.5630770559
 10
128.1672112945
 20
89.6837807131
 10
125.5333918383
 20
90.8116083227
 10
122.8968143095
 20
91.9489800063
 10
120.2629251384
 20
93.0934772299
 10
117.6485789588
 20
94.2375444871
 10
115.0496249358
 20
95.3831632663
 10
112.4701471323
 20
96.5282920476
 10
109.939250221
 20
97.6592594721
 10
107.4532982717
 20
98.7778462987
 10
105.0157349257
 20
99.8821133161
 10
102.6661381494
 20
100.9526939896
 10
100.4180413393
 20
101.983280547
 10
98.2575510356
 20
102.9798924318
 10
96.1830329642
 20
103.941597832
 10
94.1987976454
 20
104.866099534
 10
92.3002304119
 20
105.7554532241
 10
90.4723458004
 20
106.6152856744
 10
88.7100865977
 20
107.4474233651
 10
87.0182962153
 20
108.2498708682
 10
85.3968711087
 20
109.0225466872
  0
LWPOLYLINE
  5
28B
100
AcDbEntity
  8
RACCORDO
100
AcDbPolyline
 62
7
  6
CONTINUOUS
 90
13
 70
0
 10
215.2997894604
 20
55.5947229444
 10
204.2366216428
 20
59.2689442905
 10
193.2030028953
 20
63.0710488323
 10
182.1991544399
 20
67.0009740743
 10
171.2245943935
 20
71.0589224082
 10
160.2802501904
 20
75.2445681475
 10
149.3684377834
 20
79.5570402586
 10
138.4893570423
 20
83.9962821494
 10
127.6432092758
 20
88.5621893154
 10
116.8322738883
 20
93.2537871477
 10
106.0574217286
 20
98.0706790625
 10
95.318136298
 20
103.0130636417
 10
84.6145956324
 20
108.0808430145
  0
LWPOLYLINE
  5
28C
100
AcDbEntity
  8
RACCORDO
100
AcDbPolyline
 62
7
  6
CONTINUOUS
 90
13
 70
0
 10
215.3505143563
 20
55.7261394325
 10
204.2895230786
 20
59.3995305407
 10
193.2567266332
 20
63.201336627
 10
182.253040998
 20
67.1312251946
 10
171.2793990936
 20
71.1888328825
 10
160.336700677
 20
75.3738320054
 10
149.425812227
 20
79.6859333469
 10
138.5476768931
 20
84.1247947353
 10
127.7031846733
 20
88.6900221611
 10
116.8931223196
 20
93.3812409899
 10
106.1183630156
 20
98.1980669347
 10
95.3798662613
 20
103.1401033512
 10
84.6785480394
 20
108.2069470359
  0
LWPOLYLINE
  5
28D
100
AcDbEntity
  8
RACCORDO
100
AcDbPolyline
 62
7
  6
CONTINUOUS
 90
6
 70
0
 10
233.0604130328
 20
35.2194966523
 10
233.1170280607
 20
35.1991476826
 10
233.1749994139
 20
35.1813855998
 10
233.2343271517
 20
35.1662104559
 10
233.2952683654
 20
35.153320612
 10
233.3575660944
 20
35.1430178219
  0
LWPOLYLINE
  5
28E
100
AcDbEntity
  8
RACCORDO
100
AcDbPolyline
 62
7
  6
CONTINUOUS
 90
4
 70
0
 10
233.1583564315
 20
34.9914112137
 10
233.1849062444
 20
34.9816788511
 10
233.3555337193
 20
34.9289804568
 10
233.5250454528
 20
34.8934997983
  0
LWPOLYLINE
  5
28F
100
AcDbEntity
  8
RACCORDO
100
AcDbPolyline
 62
7
  6
CONTINUOUS
 90
10
 70
0
 10
233.1583972329
 20
34.9913946035
 10
214.4020831695
 20
42.068986409
 10
195.7356085529
 20
49.2243170714
 10
177.1599523996
 20
56.4570115655
 10
158.6760890321
 20
63.766690786
 10
140.2849878382
 20
71.1529716419
 10
121.9876132116
 20
78.615467084
 10
103.7849247581
 20
86.1537860221
 10
85.6778772545
 20
93.7675333384
 10
67.6674204029
 20
101.4563099875
  0
LWPOLYLINE
  5
290
100
AcDbEntity
  8
RACCORDO
100
AcDbPolyline
 62
7
  6
CONTINUOUS
 90
10
 70
0
 10
67.565007279
 20
101.6861826096
 10
85.5759022823
 20
93.9972190652
 10
103.6833910624
 20
86.383286563
 10
121.8865234346
 20
78.8447842143
 10
140.184329194
 20
71.3821132461
 10
158.5758630404
 20
63.995658631
 10
177.0602053916
 20
56.6857896925
 10
195.6364022308
 20
49.4528842633
 10
214.3034643947
 20
42.29732804
 10
233.0604130328
 20
35.2194966523
  0
LINE
  5
291
100
AcDbEntity
  8
RACCORDO
100
AcDbLine
 62
7
  6
CONTINUOUS
 10
67.6118321054
 20
101.4812148621
 11
67.667693286
 21
101.4561932113
  0
LWPOLYLINE
  5
292
100
AcDbEntity
  8
RACCORDO
100
AcDbPolyline
 62
7
  6
CONTINUOUS
 90
49
 70
0
 10
84.6053309174
 20
108.389253442
 10
87.2654174864
 20
107.1176922211
 10
89.9407253938
 20
105.8476934301
 10
92.6182934288
 20
104.5854739688
 10
95.2980956266
 20
103.3310458859
 10
97.9801230552
 20
102.0844129714
 10
100.6643825161
 20
100.8455718137
 10
103.3508578151
 20
99.6145297444
 10
106.0395321451
 20
98.3912941545
 10
108.7304115154
 20
97.1758621137
 10
111.423479209
 20
95.9682410846
 10
114.1187182207
 20
94.7684384219
 10
116.8161342505
 20
93.5764514238
 10
119.515710621
 20
92.3922874016
 10
122.2174302656
 20
91.2159536078
 10
124.9212984174
 20
90.0474476352
 10
127.6272980426
 20
88.8867768202
 10
130.3354122186
 20
87.7339482195
 10
133.0456464577
 20
86.5889593915
 10
135.7579837504
 20
85.4518175332
 10
138.4724069911
 20
84.3225296516
 10
141.1889216573
 20
83.2010934095
 10
143.9075106539
 20
82.0875159121
 10
146.6281567928
 20
80.9818040732
 10
149.3508655176
 20
79.8839556594
 10
152.0756196495
 20
78.7939776829
 10
154.8024019207
 20
77.7118769627
 10
157.5312177437
 20
76.6376513684
 10
160.2620498534
 20
75.5713078204
 10
162.9948808993
 20
74.5128530442
 10
165.7297162643
 20
73.4622850115
 10
168.4665386
 20
72.4196105496
 10
171.2053304757
 20
71.3848362902
 10
173.9460972449
 20
70.3579603072
 10
176.6888215779
 20
69.3389892973
 10
179.4334858524
 20
68.3279298395
 10
182.180095073
 20
67.3247802257
 10
184.9286315949
 20
66.329547141
 10
187.6790779896
 20
65.3422369685
 10
190.4314396714
 20
64.3628479428
 10
193.1856988909
 20
63.391386664
 10
195.9418380099
 20
62.4278594643
 10
198.6998626933
 20
61.4722645817
 10
201.4597552268
 20
60.5246084862
 10
204.2214983504
 20
59.5848972791
 10
206.9850984909
 20
58.6531290555
 10
209.7505459123
 20
57.7293075197
 10
212.5178131088
 20
56.8134420952
 10
215.2745721412
 20
55.9095561234
  0
LWPOLYLINE
  5
293
100
AcDbEntity
  8
RACCORDO
100
AcDbPolyline
 62
7
  6
CONTINUOUS
 90
49
 70
0
 10
84.5729360823
 20
108.4773361404
 10
87.2456893536
 20
107.1997518048
 10
89.9206906787
 20
105.929950302
 10
92.5979373026
 20
104.6679331783
 10
95.2774309714
 20
103.4137003311
 10
97.9591644259
 20
102.1672549566
 10
100.6431213665
 20
100.9286035217
 10
103.3293030122
 20
99.6977456718
 10
106.0177025467
 20
98.4746847956
 10
108.7082915214
 20
97.2594329002
 10
111.4010663567
 20
96.0519917886
 10
114.096024889
 20
94.852362582
 10
116.7931406741
 20
93.6605561725
 10
119.4924048221
 20
92.4765765208
 10
122.1938203443
 20
91.3004224871
 10
124.8973785763
 20
90.1320972557
 10
127.6032176627
 20
88.9715433966
 10
130.3111937615
 20
87.8188213104
 10
133.0208742268
 20
86.6741101214
 10
135.7322127439
 20
85.5374313618
 10
138.4452476744
 20
84.4087646469
 10
141.159671715
 20
83.2882248699
 10
143.8751516077
 20
82.1759449644
 10
146.592010857
 20
81.0717916556
 10
149.3109281583
 20
79.975481218
 10
152.031909236
 20
78.8870051094
 10
154.7549422053
 20
77.8063744448
 10
157.4806823608
 20
76.7333374527
 10
160.2094569875
 20
75.6677662575
 10
162.9409360378
 20
74.6097941206
 10
165.6747895409
 20
73.5595615842
 10
168.4110434252
 20
72.5170628831
 10
171.1496670551
 20
71.4823075876
 10
173.8902439597
 20
70.4554578733
 10
176.6326351514
 20
69.4365670633
 10
179.3769728183
 20
68.4255839022
 10
182.1232463176
 20
67.4225129171
 10
184.8714578012
 20
66.427353156
 10
187.6215984824
 20
65.4401077722
 10
190.3736412408
 20
64.4607873907
 10
193.1275833715
 20
63.4893928394
 10
195.8834208235
 20
62.5259253849
 10
198.6411243466
 20
61.5703962157
 10
201.4006867016
 20
60.6228076083
 10
204.1621082442
 20
59.6831592666
 10
206.9253710271
 20
58.751458442
 10
209.6904667378
 20
57.8277081791
 10
212.4573967333
 20
56.9119073453
 10
215.2261575375
 20
56.004056896
  0
LWPOLYLINE
  5
294
100
AcDbEntity
  8
RACCORDO
100
AcDbPolyline
 62
7
  6
CONTINUOUS
 90
55
 70
0
 10
85.3968711087
 20
109.0225466872
 10
85.3895256114
 20
109.0261465536
 10
85.3821373769
 20
109.0299909914
 10
85.3747064056
 20
109.034080001
 10
85.3672272988
 20
109.0384110486
 10
85.3597054558
 20
109.0429866683
 10
85.3521570734
 20
109.0478144621
 10
85.3445822268
 20
109.0528946724
 10
85.3369808412
 20
109.058227057
 10
85.3293688894
 20
109.0638184905
 10
85.3217458824
 20
109.0696695121
 10
85.3141123092
 20
109.0757795827
 10
85.3064856092
 20
109.0821539591
 10
85.2988645968
 20
109.0887939569
 10
85.2912504573
 20
109.0956982603
 10
85.2836641863
 20
109.1028681788
 10
85.2761042673
 20
109.1103059074
 10
85.2685722163
 20
109.1180092507
 10
85.2610935765
 20
109.1259729319
 10
85.2536683468
 20
109.1341979571
 10
85.2462965275
 20
109.1426833195
 10
85.2390036642
 20
109.151420723
 10
85.2317905619
 20
109.1604098776
 10
85.2246564146
 20
109.1696510725
 10
85.2176243506
 20
109.1791368798
 10
85.2106939261
 20
109.1888683209
 10
85.2038655836
 20
109.1988443735
 10
85.1971637805
 20
109.2090545428
 10
85.1905880723
 20
109.2194999997
 10
85.184138902
 20
109.2301795722
 10
85.1778420574
 20
109.2410792524
 10
85.1716972397
 20
109.2522000937
 10
85.165704746
 20
109.2635410414
 10
85.1598912585
 20
109.2750849241
 10
85.1542557077
 20
109.2868350557
 10
85.1487991611
 20
109.2987881209
 10
85.1435515064
 20
109.3109170054
 10
85.1385121048
 20
109.3232262188
 10
85.133681593
 20
109.3357112499
 10
85.1290917712
 20
109.3483314534
 10
85.1247436365
 20
109.3610891504
 10
85.1206361898
 20
109.3739820182
 10
85.1167982363
 20
109.3869624459
 10
85.1132316249
 20
109.4000302256
 10
85.1099345049
 20
109.4131855639
 10
85.1069301322
 20
109.4263814716
 10
85.1042200742
 20
109.4396177452
 10
85.1018027619
 20
109.4528945871
 10
85.0996967465
 20
109.4661656178
 10
85.0979033705
 20
109.4794315652
 10
85.0964212903
 20
109.4926917005
 10
85.0952650277
 20
109.5058974599
 10
85.0944394229
 20
109.5190326552
 10
85.0939396352
 20
109.5321134741
 10
85.0937656642
 20
109.5451399165
  0
LWPOLYLINE
  5
295
100
AcDbEntity
  8
RACCORDO
100
AcDbPolyline
 62
7
  6
CONTINUOUS
 90
37
 70
0
 10
84.6145956324
 20
108.0808430145
 10
84.5742290313
 20
108.1010892795
 10
84.5341266072
 20
108.1229292277
 10
84.4942883504
 20
108.1463628518
 10
84.4546388936
 20
108.1714367268
 10
84.4152535873
 20
108.1981042646
 10
84.3763584918
 20
108.2262257064
 10
84.3379557743
 20
108.2558121005
 10
84.300043234
 20
108.2868523724
 10
84.2628403638
 20
108.3191735676
 10
84.2263542459
 20
108.3527820367
 10
84.1905777516
 20
108.3876713929
 10
84.155709045
 20
108.423649566
 10
84.1217580791
 20
108.4607168348
 10
84.088714845
 20
108.4988728772
 10
84.0567475543
 20
108.5379247138
 10
84.0258623085
 20
108.5778736329
 10
83.9960529457
 20
108.6187182994
 10
83.9674692747
 20
108.6602617923
 10
83.9401126795
 20
108.7025131554
 10
83.9139817149
 20
108.7454632976
 10
83.8892219407
 20
108.7888880913
 10
83.8658376581
 20
108.8327978826
 10
83.8438245071
 20
108.8771822798
 10
83.8233150519
 20
108.9217860462
 10
83.8043191515
 20
108.9666140399
 10
83.7868268939
 20
109.0116613615
 10
83.7709411866
 20
109.0566581376
 10
83.7566750306
 20
109.1016025834
 10
83.7440153816
 20
109.1464964501
 10
83.73302608
 20
109.1910751684
 10
83.7237201823
 20
109.2353307723
 10
83.7160846018
 20
109.2792712043
 10
83.7101439671
 20
109.322655761
 10
83.7059064825
 20
109.3654042037
 10
83.7033639282
 20
109.4075967591
 10
83.7025163005
 20
109.4492334242
  0
LWPOLYLINE
  5
296
100
AcDbEntity
  8
RACCORDO
100
AcDbPolyline
 62
7
  6
CONTINUOUS
 90
4
 70
0
 10
84.6785480394
 20
108.2069470359
 10
84.6417186184
 20
108.2255020961
 10
84.6049985736
 20
108.2455814598
 10
84.5684541118
 20
108.2671556267
  0
LWPOLYLINE
  5
297
100
AcDbEntity
  8
RACCORDO
100
AcDbPolyline
 62
7
  6
CONTINUOUS
 90
55
 70
0
 10
85.454164773
 20
109.1925490909
 10
85.4505301532
 20
109.1944081496
 10
85.4469112651
 20
109.1964557369
 10
85.4433093216
 20
109.1986919592
 10
85.4397236422
 20
109.2011139967
 10
85.4361576824
 20
109.203724692
 10
85.4326190498
 20
109.2065325238
 10
85.4291099169
 20
109.2095372827
 10
85.42563165
 20
109.2127387302
 10
85.4221908414
 20
109.2161451825
 10
85.4187897674
 20
109.2197563743
 10
85.4154304428
 20
109.2235716896
 10
85.4121192526
 20
109.2275988248
 10
85.4088586249
 20
109.2318377749
 10
85.4056512216
 20
109.2362871946
 10
85.4025039811
 20
109.2409526476
 10
85.39941972
 20
109.2458344534
 10
85.3964015582
 20
109.2509303805
 10
85.393457095
 20
109.2562419789
 10
85.3905902043
 20
109.2617684785
 10
85.3878037627
 20
109.2675080719
 10
85.3851040535
 20
109.2734605456
 10
85.3824955616
 20
109.2796239213
 10
85.3799812961
 20
109.285996971
 10
85.3775655146
 20
109.2925804491
 10
85.3752526169
 20
109.2993729825
 10
85.3730464829
 20
109.3063721728
 10
85.3709508156
 20
109.3135771034
 10
85.3689704439
 20
109.3209861982
 10
85.3671096107
 20
109.3285966558
 10
85.365371379
 20
109.3364055746
 10
85.3637610447
 20
109.3444109711
 10
85.3622831724
 20
109.3526098134
 10
85.3609399881
 20
109.3609974663
 10
85.3597370802
 20
109.3695733059
 10
85.3586795505
 20
109.3783322694
 10
85.3577690714
 20
109.3872629002
 10
85.3570117154
 20
109.3963653099
 10
85.3564126496
 20
109.4056330465
 10
85.3559720359
 20
109.4150447058
 10
85.3556961762
 20
109.4245987527
 10
85.3555899216
 20
109.4342899121
 10
85.3556507527
 20
109.4440911837
 10
85.3558846282
 20
109.4539991041
 10
85.356296187
 20
109.464010098
 10
85.3568803456
 20
109.4740970846
 10
85.3576425839
 20
109.4842565849
 10
85.3585874054
 20
109.4944849428
 10
85.3597077735
 20
109.5047549117
 10
85.3610088131
 20
109.5150635469
 10
85.3624947053
 20
109.5254066638
 10
85.3641565341
 20
109.5357552768
 10
85.365994062
 20
109.5460974272
 10
85.3680159176
 20
109.556438109
 10
85.3702261547
 20
109.5667738544
  0
LINE
  5
298
100
AcDbEntity
  8
SUPERFICI
100
AcDbLine
 62
7
  6
CONTINUOUS
 10
100.4867709567
 20
106.272446828
 11
100.5728074222
 21
106.2200509679
  0
LINE
  5
299
100
AcDbEntity
  8
SUPERFICI
100
AcDbLine
 62
7
  6
CONTINUOUS
 10
100.7735591749
 20
106.5073699832
 11
100.8595956404
 21
106.4549741231
  0
LINE
  5
29A
100
AcDbEntity
  8
SUPERFICI
100
AcDbLine
 62
7
  6
CONTINUOUS
 10
101.0603473931
 20
106.7422931384
 11
101.1463838585
 21
106.6898972783
  0
LINE
  5
29B
100
AcDbEntity
  8
SUPERFICI
100
AcDbLine
 62
7
  6
CONTINUOUS
 10
101.3471356113
 20
106.9772162936
 11
101.4331720767
 21
106.9248204335
  0
LWPOLYLINE
  5
29C
100
AcDbEntity
  8
RACCORDO
100
AcDbPolyline
 62
7
  6
CONTINUOUS
 90
7
 70
0
 10
84.5684541118
 20
108.2671556267
 10
84.5321479727
 20
108.2901965077
 10
84.4961498832
 20
108.3146651772
 10
84.4605359311
 20
108.3405100772
 10
84.4253704909
 20
108.3676895882
 10
84.3907186014
 20
108.39615876
 10
84.3566552086
 20
108.4258539369
  0
LWPOLYLINE
  5
29D
100
AcDbEntity
  8
SUPERFICI
100
AcDbPolyline
 62
7
  6
CONTINUOUS
 90
3
 70
0
 10
120.4002000397
 20
99.6260937477
 10
120.4000116911
 20
99.6268928579
 10
120.3992779047
 20
99.6275018845
  0
LINE
  5
29E
100
AcDbEntity
  8
SUPERFICI
100
AcDbLine
 62
7
  6
CONTINUOUS
 10
138.8007306652
 20
92.1924597195
 11
138.8007306652
 21
91.7899674591
  0
LINE
  5
29F
100
AcDbEntity
  8
SUPERFICI
100
AcDbLine
 62
7
  6
CONTINUOUS
 10
138.831121046
 20
92.2233489872
 11
138.831121046
 21
91.8219498271
  0
LINE
  5
2A0
100
AcDbEntity
  8
0
100
AcDbLine
 62
7
  6
CONTINUOUS
 10
120.3642552904
 20
99.5898591883
 11
119.1839048599
 21
98.5063987954
  0
LWPOLYLINE
  5
2A1
100
AcDbEntity
  8
SUPERFICI
100
AcDbPolyline
 62
7
  6
CONTINUOUS
 90
7
 70
0
 10
119.6367381218
 20
98.5150166838
 10
119.6407233493
 20
98.5184388125
 10
119.6521160583
 20
98.5298539326
 10
119.662146596
 20
98.5425390232
 10
119.6707320917
 20
98.5564146146
 10
119.677955416
 20
98.5715601763
 10
119.6838165689
 20
98.5879757086
  0
LWPOLYLINE
  5
2A2
100
AcDbEntity
  8
SUPERFICI
100
AcDbPolyline
 62
7
  6
CONTINUOUS
 90
10
 70
0
 10
120.3698096687
 20
99.5947331071
 10
120.3761040828
 20
99.6001211489
 10
120.3818054721
 20
99.6051186903
 10
120.3868519585
 20
99.6097103441
 10
120.3911861549
 20
99.6138959248
 10
120.3947404572
 20
99.6176343164
 10
120.397447348
 20
99.6208418222
 10
120.3992603873
 20
99.6234630235
 10
120.40012751
 20
99.6254877126
 10
120.4002000397
 20
99.6260937477
  0
LINE
  5
2A3
100
AcDbEntity
  8
0
100
AcDbLine
 62
7
  6
CONTINUOUS
 10
120.3698096687
 20
99.1922408467
 11
119.4411000739
 21
98.4031033992
  0
LINE
  5
2A4
100
AcDbEntity
  8
SUPERFICI
100
AcDbLine
 62
7
  6
CONTINUOUS
 10
119.6367964521
 20
98.515038296
 11
119.4812248531
 21
98.3869883832
  0
LINE
  5
2A5
100
AcDbEntity
  8
0
100
AcDbLine
 62
7
  6
CONTINUOUS
 10
119.6838165689
 20
98.5879757086
 11
119.4532054918
 21
98.3982415904
  0
LINE
  5
2A6
100
AcDbEntity
  8
0
100
AcDbLine
 62
7
  6
CONTINUOUS
 10
115.4321710488
 20
101.5706954109
 11
114.0608370807
 21
100.5639383124
  0
LINE
  5
2A7
100
AcDbEntity
  8
SUPERFICI
100
AcDbLine
 62
7
  6
CONTINUOUS
 10
115.4466308373
 20
101.5799087367
 11
115.438624139
 21
101.5752083868
  0
LWPOLYLINE
  5
2A8
100
AcDbEntity
  8
RACCORDO
100
AcDbPolyline
 62
7
  6
CONTINUOUS
 90
10
 70
0
 10
83.7025163005
 20
109.4492334242
 10
83.7176392548
 20
109.4439361167
 10
83.7341548897
 20
109.4402529979
 10
83.7515446149
 20
109.4382997174
 10
83.7692623939
 20
109.4381376081
 10
83.786751889
 20
109.4397717604
 10
83.803463931
 20
109.4431508619
 10
83.8188737624
 20
109.4481688089
 10
83.8324975151
 20
109.4546680381
 10
83.843907404
 20
109.4624444741
  0
LWPOLYLINE
  5
2A9
100
AcDbEntity
  8
RACCORDO
100
AcDbPolyline
 62
7
  6
CONTINUOUS
 90
43
 70
0
 10
215.8568740796
 20
56.4184041961
 10
215.8630099303
 20
56.4161646867
 10
215.8692836826
 20
56.4140546154
 10
215.8756870404
 20
56.4120767724
 10
215.8822115363
 20
56.4102337732
 10
215.8888485427
 20
56.4085280548
 10
215.8955892833
 20
56.4069618727
 10
215.9024248445
 20
56.405537298
 10
215.9093461875
 20
56.4042562144
 10
215.9163441598
 20
56.403120316
 10
215.9234095077
 20
56.4021311047
 10
215.9305328885
 20
56.4012898887
 10
215.9377048828
 20
56.4005977803
 10
215.9449160065
 20
56.4000556948
 10
215.9521567244
 20
56.3996643489
 10
215.9594174615
 20
56.3994242602
 10
215.9666886169
 20
56.399335746
 10
215.9739605756
 20
56.3993989236
 10
215.9812237216
 20
56.3996137093
 10
215.9884684505
 20
56.3999798191
 10
215.9956851824
 20
56.4004967689
 10
216.0028643743
 20
56.401163875
 10
216.009996533
 20
56.4019802555
 10
216.0170722272
 20
56.4029448307
 10
216.0240821006
 20
56.4040563251
 10
216.0310168837
 20
56.405313269
 10
216.0378674063
 20
56.4067140003
 10
216.0446246099
 20
56.4082566667
 10
216.051279559
 20
56.4099392283
 10
216.0578234535
 20
56.4117594601
 10
216.0642476404
 20
56.4137149553
 10
216.0705436245
 20
56.415803128
 10
216.0767030804
 20
56.4180212169
 10
216.0827178634
 20
56.420366289
 10
216.0885800198
 20
56.4228352433
 10
216.0942817979
 20
56.4254248149
 10
216.0998156579
 20
56.4281315797
 10
216.1051742823
 20
56.4309519583
 10
216.1103505851
 20
56.4338822213
 10
216.1153377216
 20
56.4369184938
 10
216.120129097
 20
56.4400567609
 10
216.1247183755
 20
56.4432928728
 10
216.2007929656
 20
56.5015714093
  0
LWPOLYLINE
  5
2AA
100
AcDbEntity
  8
SUPERFICI
100
AcDbPolyline
 62
7
  6
CONTINUOUS
 90
10
 70
0
 10
207.7007697683
 20
64.6471698309
 10
207.6906711518
 20
64.6509127852
 10
207.677413791
 20
64.6548803931
 10
207.6645728497
 20
64.6576662131
 10
207.6523130579
 20
64.6592417034
 10
207.6406971821
 20
64.6596127093
 10
207.6297364511
 20
64.6588488407
 10
207.6194932449
 20
64.6570357692
 10
207.6099946142
 20
64.6542308913
 10
207.6012385385
 20
64.6504583125
  0
LWPOLYLINE
  5
2AB
100
AcDbEntity
  8
SUPERFICI
100
AcDbPolyline
 62
7
  6
CONTINUOUS
 90
10
 70
0
 10
189.2698482541
 20
71.9675281815
 10
189.2597253334
 20
71.9712794532
 10
189.2464697386
 20
71.9752445691
 10
189.2336309994
 20
71.978027951
 10
189.22137382
 20
71.9796013519
 10
189.2097609688
 20
71.9799706806
 10
189.1988035025
 20
71.9792055665
 10
189.1885635268
 20
71.97739188
 10
189.1790679725
 20
71.9745870722
 10
189.1703148234
 20
71.9708151863
  0
LWPOLYLINE
  5
2AC
100
AcDbEntity
  8
SUPERFICI
100
AcDbPolyline
 62
7
  6
CONTINUOUS
 90
10
 70
0
 10
170.8389272576
 20
79.3698015691
 10
170.8288043369
 20
79.3735528408
 10
170.8155487421
 20
79.3775179567
 10
170.8027100029
 20
79.3803013386
 10
170.7904528235
 20
79.3818747395
 10
170.7788399723
 20
79.3822440682
 10
170.767882506
 20
79.3814789541
 10
170.7576425303
 20
79.3796652676
 10
170.748146976
 20
79.3768604598
 10
170.7393938269
 20
79.3730885739
  0
LWPOLYLINE
  5
2AD
100
AcDbEntity
  8
SUPERFICI
100
AcDbPolyline
 62
7
  6
CONTINUOUS
 90
10
 70
0
 10
152.4080062611
 20
86.7720749567
 10
152.3978833404
 20
86.7758262284
 10
152.3846277456
 20
86.7797913443
 10
152.3717890064
 20
86.7825747262
 10
152.359531827
 20
86.7841481271
 10
152.3479189758
 20
86.7845174558
 10
152.3369615095
 20
86.7837523417
 10
152.3267215338
 20
86.7819386552
 10
152.3172259794
 20
86.7791338474
 10
152.3084728304
 20
86.7753619615
  0
LWPOLYLINE
  5
2AE
100
AcDbEntity
  8
SUPERFICI
100
AcDbPolyline
 62
7
  6
CONTINUOUS
 90
10
 70
0
 10
133.9770852646
 20
94.1743483442
 10
133.9669623439
 20
94.178099616
 10
133.9537067491
 20
94.1820647319
 10
133.9408680099
 20
94.1848481138
 10
133.9286108305
 20
94.1864215146
 10
133.9169979793
 20
94.1867908433
 10
133.906040513
 20
94.1860257293
 10
133.8958005372
 20
94.1842120427
 10
133.8863049829
 20
94.1814072349
 10
133.8775518339
 20
94.1776353491
  0
LWPOLYLINE
  5
2AF
100
AcDbEntity
  8
SUPERFICI
100
AcDbPolyline
 62
7
  6
CONTINUOUS
 90
10
 70
0
 10
115.5461642681
 20
101.5766217318
 10
115.5360413474
 20
101.5803730036
 10
115.5227857526
 20
101.5843381195
 10
115.5099470134
 20
101.5871215014
 10
115.497689834
 20
101.5886949022
 10
115.4860769828
 20
101.5890642309
 10
115.4751195165
 20
101.5882991169
 10
115.4648795407
 20
101.5864854303
 10
115.4553839864
 20
101.5836806225
 10
115.4466308373
 20
101.5799087367
  0
LWPOLYLINE
  5
2B0
100
AcDbEntity
  8
SUPERFICI
100
AcDbPolyline
 62
7
  6
CONTINUOUS
 90
10
 70
0
 10
97.1152437892
 20
109.0608101564
 10
97.1051451728
 20
109.0645531107
 10
97.0918878119
 20
109.0685207186
 10
97.0790468707
 20
109.0713065386
 10
97.0667870789
 20
109.0728820289
 10
97.0551712031
 20
109.0732530349
 10
97.0442104721
 20
109.0724891662
 10
97.0339672659
 20
109.0706760947
 10
97.0244686352
 20
109.0678712168
 10
97.0157125595
 20
109.064098638
  0
LWPOLYLINE
  5
2B1
100
AcDbEntity
  8
0
100
AcDbPolyline
 62
7
  6
CONTINUOUS
 90
32
 70
0
 10
152.972656067
 20
81.6404701964
 10
152.9783188488
 20
81.638312263
 10
152.98412634
 20
81.6363625661
 10
152.9900785397
 20
81.6346211031
 10
152.9961820559
 20
81.6330812384
 10
153.0024302784
 20
81.631749602
 10
153.0088033783
 20
81.6306460893
 10
153.015304842
 20
81.6297717019
 10
153.0219311807
 20
81.6291254315
 10
153.0286521023
 20
81.6287241579
 10
153.0354673574
 20
81.6285695687
 10
153.0423771928
 20
81.628659969
 10
153.0493520603
 20
81.629007164
 10
153.0563969226
 20
81.629613788
 10
153.0635068144
 20
81.6304771992
 10
153.0706372957
 20
81.6316012887
 10
153.0777855112
 20
81.6329881671
 10
153.0849543137
 20
81.634635717
 10
153.0921078254
 20
81.6365414882
 10
153.0992405601
 20
81.6387047789
 10
153.106358002
 20
81.6411262852
 10
153.1134407292
 20
81.6438056538
 10
153.1204856223
 20
81.6467406246
 10
153.1274957991
 20
81.649933453
 10
153.1344611947
 20
81.6533905598
 10
153.1413811989
 20
81.6571115951
 10
153.1482564205
 20
81.661096905
 10
153.1550786229
 20
81.6653539547
 10
153.161848414
 20
81.6698841499
 10
153.1685651851
 20
81.6746860822
 10
153.1752188741
 20
81.6797629963
 10
153.1795192533
 20
81.6832178706
  0
LWPOLYLINE
  5
2B2
100
AcDbEntity
  8
RACCORDO
100
AcDbPolyline
 62
7
  6
CONTINUOUS
 90
17
 70
0
 10
86.3512982359
 20
110.5964388297
 10
88.4763628438
 20
109.7573508013
 10
90.6850192651
 20
108.8831036783
 10
92.9772674997
 20
107.9736974606
 10
95.3516967529
 20
107.0294659766
 10
97.8097178195
 20
106.050075398
 10
100.3555630839
 20
105.0345242403
 10
102.9893402103
 20
103.9828955111
 10
105.7109415346
 20
102.8951062029
 10
108.5242764484
 20
101.7699058082
 10
111.4284169479
 20
100.6077188559
 10
114.4242910369
 20
99.4081208172
 10
117.5185921185
 20
98.168587598
 10
120.7061891696
 20
96.8912070419
 10
123.9922132133
 20
95.5738913054
 10
127.3987507229
 20
94.207852763
 10
130.9365465554
 20
92.7888014156
  0
LWPOLYLINE
  5
2B3
100
AcDbEntity
  8
RACCORDO
100
AcDbPolyline
 62
7
  6
CONTINUOUS
 90
28
 70
0
 10
214.686292772
 20
57.4978594348
 10
214.6802406161
 20
57.5002533676
 10
214.6743459431
 20
57.5027732649
 10
214.6686167178
 20
57.5054157219
 10
214.6630606816
 20
57.508177168
 10
214.6576853419
 20
57.5110538721
 10
214.6524979619
 20
57.514041947
 10
214.6475055508
 20
57.5171373553
 10
214.6427148544
 20
57.5203359145
 10
214.638132346
 20
57.5236333025
 10
214.6337642175
 20
57.5270250639
 10
214.6296163711
 20
57.5305066159
 10
214.6256944115
 20
57.534073254
 10
214.6220036379
 20
57.537720159
 10
214.6185490376
 20
57.5414424032
 10
214.6153352782
 20
57.5452349571
 10
214.6123667023
 20
57.5490926961
 10
214.6096473211
 20
57.5530104076
 10
214.607180809
 20
57.556982798
 10
214.6049704988
 20
57.5610044997
 10
214.6030193771
 20
57.5650700786
 10
214.6013300802
 20
57.5691740413
 10
214.5999048908
 20
57.5733108424
 10
214.5987457346
 20
57.5774748923
 10
214.5978541778
 20
57.5816605645
 10
214.5972314252
 20
57.5858622032
 10
214.5968783182
 20
57.5900741311
 10
214.5967903037
 20
57.5934728849
  0
LWPOLYLINE
  5
2B4
100
AcDbEntity
  8
RACCORDO
100
AcDbPolyline
 62
7
  6
CONTINUOUS
 90
4
 70
0
 10
208.4050516727
 20
61.3031185792
 10
210.6926357461
 20
60.3886260451
 10
212.9019165382
 20
59.506206838
 10
214.5967903036
 20
58.8301540621
  0
LWPOLYLINE
  5
2B5
100
AcDbEntity
  8
RACCORDO
100
AcDbPolyline
 62
7
  6
CONTINUOUS
 90
6
 70
0
 10
192.9220943994
 20
67.4993286691
 10
195.7375148929
 20
66.3714605769
 10
198.449964051
 20
65.2853215906
 10
201.07167916
 20
64.2357712619
 10
203.6027349283
 20
63.2231678596
 10
208.4050516727
 20
61.3031185792
  0
LINE
  5
2B6
100
AcDbEntity
  8
RACCORDO
100
AcDbLine
 62
7
  6
CONTINUOUS
 10
186.9834329494
 20
69.879590831
 11
192.9220943994
 21
67.4993286691
  0
LINE
  5
2B7
100
AcDbEntity
  8
0
100
AcDbLine
 62
7
  6
CONTINUOUS
 10
146.853373333
 20
82.7060170177
 11
146.537118042
 21
82.8328618676
  0
LINE
  5
2B8
100
AcDbEntity
  8
0
100
AcDbLine
 62
7
  6
CONTINUOUS
 10
146.9018037416
 20
82.7754466269
 11
146.6099377851
 21
82.892512309
  0
LWPOLYLINE
  5
2B9
100
AcDbEntity
  8
RACCORDO
100
AcDbPolyline
 62
7
  6
CONTINUOUS
 90
3
 70
0
 10
177.2238740579
 20
73.7938356438
 10
180.5932450203
 20
72.4422106295
 10
186.9834329494
 20
69.879590831
  0
LINE
  5
2BA
100
AcDbEntity
  8
0
100
AcDbLine
 62
7
  6
CONTINUOUS
 10
147.9670185706
 20
82.2592014687
 11
147.637069617
 21
82.3916076488
  0
LINE
  5
2BB
100
AcDbEntity
  8
0
100
AcDbLine
 62
7
  6
CONTINUOUS
 10
148.5856275419
 20
82.0109027591
 11
148.2557101091
 21
82.1433347596
  0
LINE
  5
2BC
100
AcDbEntity
  8
0
100
AcDbLine
 62
7
  6
CONTINUOUS
 10
147.9961701927
 20
82.3363626601
 11
147.7098796366
 21
82.4512501252
  0
LINE
  5
2BD
100
AcDbEntity
  8
0
100
AcDbLine
 62
7
  6
CONTINUOUS
 10
148.6147778415
 20
82.0880658864
 11
148.328516499
 21
82.2029742628
  0
LINE
  5
2BE
100
AcDbEntity
  8
0
100
AcDbLine
 62
7
  6
CONTINUOUS
 10
146.8123642849
 20
85.1950091445
 11
147.14227951
 21
85.0625753356
  0
LINE
  5
2BF
100
AcDbEntity
  8
RACCORDO
100
AcDbLine
 62
7
  6
CONTINUOUS
 10
170.048283487
 20
76.6731272297
 11
177.2238740579
 21
73.7938356438
  0
LINE
  5
2C0
100
AcDbEntity
  8
RACCORDO
100
AcDbLine
 62
7
  6
CONTINUOUS
 10
166.2420750353
 20
78.2008321169
 11
170.048283487
 21
76.6731272297
  0
LINE
  5
2C1
100
AcDbEntity
  8
RACCORDO
100
AcDbLine
 62
7
  6
CONTINUOUS
 10
130.9365465554
 20
92.7888014156
 11
138.3635305196
 21
89.8086126748
  0
LINE
  5
2C2
100
AcDbEntity
  8
0
100
AcDbLine
 62
7
  6
CONTINUOUS
 10
149.2316672132
 20
81.7515169196
 11
148.9017826571
 21
81.8839758511
  0
LINE
  5
2C3
100
AcDbEntity
  8
0
100
AcDbLine
 62
7
  6
CONTINUOUS
 10
149.2781558811
 20
81.8217208718
 11
148.9745866669
 21
81.9436134046
  0
LINE
  5
2C4
100
AcDbEntity
  8
0
100
AcDbLine
 62
7
  6
CONTINUOUS
 10
147.8708230842
 20
84.7701016017
 11
148.2007209299
 21
84.6376535564
  0
LINE
  5
2C5
100
AcDbEntity
  8
0
100
AcDbLine
 62
7
  6
CONTINUOUS
 10
148.448140771
 20
84.5383146201
 11
148.7780291741
 21
84.4058588399
  0
LINE
  5
2C6
100
AcDbEntity
  8
0
100
AcDbLine
 62
7
  6
CONTINUOUS
 10
149.066677108
 20
84.289956412
 11
149.5752372503
 21
84.0857391602
  0
LINE
  5
2C7
100
AcDbEntity
  8
0
100
AcDbLine
 62
7
  6
CONTINUOUS
 10
150.1937391195
 20
83.8373527178
 11
150.6885270103
 21
83.63863242
  0
LINE
  5
2C8
100
AcDbEntity
  8
RACCORDO
100
AcDbLine
 62
7
  6
CONTINUOUS
 10
158.317425622
 20
81.382229934
 11
166.2420750353
 21
78.2008321169
  0
LINE
  5
2C9
100
AcDbEntity
  8
RACCORDO
100
AcDbLine
 62
7
  6
CONTINUOUS
 10
138.3635305196
 20
89.8086126748
 11
146.2790339053
 21
86.6309831829
  0
LINE
  5
2CA
100
AcDbEntity
  8
RACCORDO
100
AcDbLine
 62
7
  6
CONTINUOUS
 10
214.5967903036
 20
60.1864329681
 11
87.2607671609
 21
111.3274505856
  0
LINE
  5
2CB
100
AcDbEntity
  8
SUPERFICI
100
AcDbLine
 62
7
  6
CONTINUOUS
 10
210.9575816485
 20
61.7648372404
 11
206.4522454049
 21
63.5742818463
  0
LINE
  5
2CC
100
AcDbEntity
  8
SUPERFICI
100
AcDbLine
 62
7
  6
CONTINUOUS
 10
100.3720556695
 20
106.1784775659
 11
95.8667194259
 21
107.9879221718
  0
LINE
  5
2CD
100
AcDbEntity
  8
SUPERFICI
100
AcDbLine
 62
7
  6
CONTINUOUS
 10
211.0722969357
 20
61.8588065025
 11
206.5669606922
 21
63.6682511083
  0
LINE
  5
2CE
100
AcDbEntity
  8
SUPERFICI
100
AcDbLine
 62
7
  6
CONTINUOUS
 10
100.4867709567
 20
106.272446828
 11
95.9814347131
 21
108.0818914339
  0
LINE
  5
2CF
100
AcDbEntity
  8
SUPERFICI
100
AcDbLine
 62
7
  6
CONTINUOUS
 10
211.2443698666
 20
61.9997603956
 11
206.7390336231
 21
63.8092050015
  0
LINE
  5
2D0
100
AcDbEntity
  8
SUPERFICI
100
AcDbLine
 62
7
  6
CONTINUOUS
 10
100.6588438876
 20
106.4134007211
 11
96.153507644
 21
108.222845327
  0
LINE
  5
2D1
100
AcDbEntity
  8
SUPERFICI
100
AcDbLine
 62
7
  6
CONTINUOUS
 10
211.3590851539
 20
62.0937296577
 11
206.8537489103
 21
63.9031742635
  0
LINE
  5
2D2
100
AcDbEntity
  8
SUPERFICI
100
AcDbLine
 62
7
  6
CONTINUOUS
 10
100.7735591749
 20
106.5073699832
 11
96.2682229313
 21
108.3168145891
  0
LINE
  5
2D3
100
AcDbEntity
  8
SUPERFICI
100
AcDbLine
 62
7
  6
CONTINUOUS
 10
211.5311580848
 20
62.2346835508
 11
207.0258218412
 21
64.0441281567
  0
LINE
  5
2D4
100
AcDbEntity
  8
SUPERFICI
100
AcDbLine
 62
7
  6
CONTINUOUS
 10
100.9456321058
 20
106.6483238763
 11
96.4402958622
 21
108.4577684822
  0
LINE
  5
2D5
100
AcDbEntity
  8
SUPERFICI
100
AcDbLine
 62
7
  6
CONTINUOUS
 10
211.6458733721
 20
62.3286528129
 11
207.1405371285
 21
64.1380974187
  0
LINE
  5
2D6
100
AcDbEntity
  8
SUPERFICI
100
AcDbLine
 62
7
  6
CONTINUOUS
 10
101.0603473931
 20
106.7422931384
 11
96.5550111495
 21
108.5517377443
  0
LINE
  5
2D7
100
AcDbEntity
  8
SUPERFICI
100
AcDbLine
 62
7
  6
CONTINUOUS
 10
211.817946303
 20
62.469606706
 11
207.3126100594
 21
64.2790513119
  0
LINE
  5
2D8
100
AcDbEntity
  8
SUPERFICI
100
AcDbLine
 62
7
  6
CONTINUOUS
 10
101.232420324
 20
106.8832470315
 11
96.7270840804
 21
108.6926916374
  0
LINE
  5
2D9
100
AcDbEntity
  8
SUPERFICI
100
AcDbLine
 62
7
  6
CONTINUOUS
 10
211.9326615903
 20
62.5635759681
 11
207.4273253467
 21
64.3730205739
  0
LINE
  5
2DA
100
AcDbEntity
  8
SUPERFICI
100
AcDbLine
 62
7
  6
CONTINUOUS
 10
101.3471356113
 20
106.9772162936
 11
96.8417993677
 21
108.7866608995
  0
LINE
  5
2DB
100
AcDbEntity
  8
SUPERFICI
100
AcDbLine
 62
7
  6
CONTINUOUS
 10
212.1047345212
 20
62.7045298612
 11
207.5993982776
 21
64.5139744671
  0
LINE
  5
2DC
100
AcDbEntity
  8
SUPERFICI
100
AcDbLine
 62
7
  6
CONTINUOUS
 10
101.5192085422
 20
107.1181701867
 11
97.0138722986
 21
108.9276147926
  0
LINE
  5
2DD
100
AcDbEntity
  8
SUPERFICI
100
AcDbLine
 62
7
  6
CONTINUOUS
 10
115.4321710488
 20
101.5706954109
 11
120.3642552904
 21
99.5898591883
  0
LINE
  5
2DE
100
AcDbEntity
  8
SUPERFICI
100
AcDbLine
 62
7
  6
CONTINUOUS
 10
133.8630920453
 20
94.1684220234
 11
138.7951762869
 21
92.1875858007
  0
LINE
  5
2DF
100
AcDbEntity
  8
SUPERFICI
100
AcDbLine
 62
7
  6
CONTINUOUS
 10
152.2940130418
 20
86.7661486358
 11
157.2260972834
 21
84.7853124131
  0
LINE
  5
2E0
100
AcDbEntity
  8
SUPERFICI
100
AcDbLine
 62
7
  6
CONTINUOUS
 10
170.7249340383
 20
79.3638752482
 11
175.6570182799
 21
77.3830390255
  0
LINE
  5
2E1
100
AcDbEntity
  8
SUPERFICI
100
AcDbLine
 62
7
  6
CONTINUOUS
 10
189.1558550348
 20
71.9616018606
 11
194.0879392764
 21
69.980765638
  0
LINE
  5
2E2
100
AcDbEntity
  8
SUPERFICI
100
AcDbLine
 62
7
  6
CONTINUOUS
 10
115.5467389179
 20
101.5763792855
 11
120.3987627366
 21
99.6276971335
  0
LINE
  5
2E3
100
AcDbEntity
  8
SUPERFICI
100
AcDbLine
 62
7
  6
CONTINUOUS
 10
133.9776599144
 20
94.1741058979
 11
138.8296837331
 21
92.225423746
  0
LINE
  5
2E4
100
AcDbEntity
  8
SUPERFICI
100
AcDbLine
 62
7
  6
CONTINUOUS
 10
152.4085809109
 20
86.7718325103
 11
157.2606047296
 21
84.8231503584
  0
LINE
  5
2E5
100
AcDbEntity
  8
SUPERFICI
100
AcDbLine
 62
7
  6
CONTINUOUS
 10
170.8395019074
 20
79.3695591227
 11
175.6915257261
 21
77.4208769708
  0
LINE
  5
2E6
100
AcDbEntity
  8
SUPERFICI
100
AcDbLine
 62
7
  6
CONTINUOUS
 10
189.2704229039
 20
71.9672857351
 11
194.1224467226
 21
70.0186035832
  0
LINE
  5
2E7
100
AcDbEntity
  8
SUPERFICI
100
AcDbLine
 62
7
  6
CONTINUOUS
 10
97.0012500523
 20
109.054884003
 11
97.1139725405
 21
109.0096121104
  0
LINE
  5
2E8
100
AcDbEntity
  8
SUPERFICI
100
AcDbLine
 62
7
  6
CONTINUOUS
 10
101.7199602949
 20
107.1597435887
 11
101.9333342939
 21
107.0740477803
  0
LINE
  5
2E9
100
AcDbEntity
  8
SUPERFICI
100
AcDbLine
 62
7
  6
CONTINUOUS
 10
207.5867760313
 20
64.6412436774
 11
207.6994985196
 21
64.5959717849
  0
LINE
  5
2EA
100
AcDbEntity
  8
SUPERFICI
100
AcDbLine
 62
7
  6
CONTINUOUS
 10
212.3054862739
 20
62.7461032632
 11
212.5188602729
 21
62.6604074548
  0
LINE
  5
2EB
100
AcDbEntity
  8
SUPERFICI
100
AcDbLine
 62
7
  6
CONTINUOUS
 10
212.2194498084
 20
62.7984991233
 11
207.7141135649
 21
64.6079437291
  0
LINE
  5
2EC
100
AcDbEntity
  8
SUPERFICI
100
AcDbLine
 62
7
  6
CONTINUOUS
 10
101.6339238294
 20
107.2121394488
 11
97.1285875858
 21
109.0215840547
  0
LINE
  5
2ED
100
AcDbEntity
  8
SUPERFICI
100
AcDbLine
 62
7
  6
CONTINUOUS
 10
97.1158170647
 20
109.0605682216
 11
101.9678425968
 21
107.1118853815
  0
LINE
  5
2EE
100
AcDbEntity
  8
SUPERFICI
100
AcDbLine
 62
7
  6
CONTINUOUS
 10
207.7013430437
 20
64.646927896
 11
212.5533685758
 21
62.698245056
  0
LINE
  5
2EF
100
AcDbEntity
  8
0
100
AcDbLine
 62
7
  6
CONTINUOUS
 10
149.8776425343
 20
81.4920783664
 11
149.5477908351
 21
81.6245642127
  0
LINE
  5
2F0
100
AcDbEntity
  8
0
100
AcDbLine
 62
7
  6
CONTINUOUS
 10
150.4685848633
 20
81.2546735163
 11
150.1387632297
 21
81.3871839909
  0
LINE
  5
2F1
100
AcDbEntity
  8
0
100
AcDbLine
 62
7
  6
CONTINUOUS
 10
149.9067945632
 20
81.5692489224
 11
149.6205939052
 21
81.6842009965
  0
LINE
  5
2F2
100
AcDbEntity
  8
0
100
AcDbLine
 62
7
  6
CONTINUOUS
 10
150.5156337215
 20
81.3246594471
 11
150.2115667024
 21
81.4468211044
  0
LINE
  5
2F3
100
AcDbEntity
  8
0
100
AcDbLine
 62
7
  6
CONTINUOUS
 10
151.243703526
 20
81.4210781632
 11
150.7215145624
 21
81.6309098611
  0
LINE
  5
2F4
100
AcDbEntity
  8
0
100
AcDbLine
 62
7
  6
CONTINUOUS
 10
151.3165101516
 20
81.4807178593
 11
150.7943190562
 21
81.6905478111
  0
LINE
  5
2F5
100
AcDbEntity
  8
0
100
AcDbLine
 62
7
  6
CONTINUOUS
 10
150.9813747221
 20
81.9835883453
 11
151.2974440193
 21
81.8565911392
  0
LINE
  5
2F6
100
AcDbEntity
  8
0
100
AcDbLine
 62
7
  6
CONTINUOUS
 10
153.2500128524
 20
82.2413607804
 11
152.8377626083
 21
82.4070208249
  0
LINE
  5
2F7
100
AcDbEntity
  8
0
100
AcDbLine
 62
7
  6
CONTINUOUS
 10
151.4719164357
 20
83.3239716873
 11
151.8017555378
 21
83.1914755221
  0
LINE
  5
2F8
100
AcDbEntity
  8
0
100
AcDbLine
 62
7
  6
CONTINUOUS
 10
152.5988444592
 20
82.8712582366
 11
153.368417629
 21
82.5620584116
  0
LINE
  5
2F9
100
AcDbEntity
  8
RACCORDO
100
AcDbLine
 62
7
  6
CONTINUOUS
 10
142.0520827128
 20
87.9148727049
 11
149.6963003046
 21
84.8443304618
  0
LINE
  5
2FA
100
AcDbEntity
  8
RACCORDO
100
AcDbLine
 62
7
  6
CONTINUOUS
 10
149.6963003046
 20
84.8443304618
 11
158.317425622
 21
81.382229934
  0
LINE
  5
2FB
100
AcDbEntity
  8
RACCORDO
100
AcDbLine
 62
7
  6
CONTINUOUS
 10
146.2790339053
 20
86.6309831829
 11
154.4084610631
 21
83.3660951247
  0
LWPOLYLINE
  5
2FC
100
AcDbEntity
  8
RACCORDO
100
AcDbPolyline
 62
7
  6
CONTINUOUS
 90
20
 70
0
 10
154.4084610631
 20
83.3660951247
 10
162.5463398247
 20
80.0964488134
 10
166.4455004019
 20
78.5293063161
 10
170.2495541784
 20
77.0000236979
 10
173.9151198166
 20
75.5260278602
 10
177.4206270703
 20
74.1160062833
 10
180.7876461858
 20
72.7612714869
 10
184.0375065639
 20
71.4531879312
 10
187.172684585
 20
70.1907896378
 10
190.1907038687
 20
68.975042585
 10
193.1054646757
 20
67.8002091684
 10
195.9175698199
 20
66.6661022288
 10
198.6264164874
 20
65.5729089253
 10
201.2440964963
 20
64.515453131
 10
203.7706651519
 20
63.4938532753
 10
206.206067149
 20
62.5079909288
 10
208.5622283899
 20
61.552334676
 10
210.8431241755
 20
60.6250407118
 10
213.0447792049
 20
59.7279528413
 10
214.5967903036
 20
59.0940473141
  0
LINE
  5
2FD
100
AcDbEntity
  8
0
100
AcDbLine
 62
7
  6
CONTINUOUS
 10
151.5266491899
 20
80.8294428394
 11
151.1968814726
 21
80.9619974797
  0
LINE
  5
2FE
100
AcDbEntity
  8
0
100
AcDbLine
 62
7
  6
CONTINUOUS
 10
151.5365445501
 20
80.9143747576
 11
151.2696886852
 21
81.0216376567
  0
LINE
  5
2FF
100
AcDbEntity
  8
0
100
AcDbLine
 62
7
  6
CONTINUOUS
 10
152.7127438902
 20
81.2877491038
 11
152.4242063352
 21
81.4037419488
  0
LINE
  5
300
100
AcDbEntity
  8
0
100
AcDbLine
 62
7
  6
CONTINUOUS
 10
152.7855601106
 20
81.3473966595
 11
152.4970199345
 21
81.4633873575
  0
LINE
  5
301
100
AcDbEntity
  8
0
100
AcDbLine
 62
7
  6
CONTINUOUS
 10
152.5604397604
 20
81.8061580434
 11
152.9726560648
 21
81.6404701972
  0
LINE
  5
302
100
AcDbEntity
  8
0
100
AcDbLine
 62
7
  6
CONTINUOUS
 10
153.1771955836
 20
82.1817123658
 11
152.7649491541
 21
82.347375535
  0
LINE
  5
303
100
AcDbEntity
  8
RACCORDO
100
AcDbLine
 62
7
  6
CONTINUOUS
 10
131.2662865064
 20
92.2488730475
 11
142.0520827128
 21
87.9148727049
  0
LINE
  5
304
100
AcDbEntity
  8
0
100
AcDbLine
 62
7
  6
CONTINUOUS
 10
152.1174408858
 20
80.5919145979
 11
151.7877033569
 21
80.724493967
  0
LINE
  5
305
100
AcDbEntity
  8
0
100
AcDbLine
 62
7
  6
CONTINUOUS
 10
152.1466103544
 20
80.6691089901
 11
151.8605143492
 21
80.7841372402
  0
LINE
  5
306
100
AcDbEntity
  8
0
100
AcDbLine
 62
7
  6
CONTINUOUS
 10
153.1038941217
 20
80.2841114579
 11
152.8084728262
 21
80.4029413115
  0
LINE
  5
307
100
AcDbEntity
  8
RACCORDO
100
AcDbLine
 62
7
  6
CONTINUOUS
 10
120.4901684523
 20
96.5810557509
 11
131.2662865064
 21
92.2488730475
  0
LINE
  5
308
100
AcDbEntity
  8
0
100
AcDbLine
 62
7
  6
CONTINUOUS
 10
153.1065520474
 20
80.194093408
 11
152.7356532222
 21
80.343290984
  0
LINE
  5
309
100
AcDbEntity
  8
RACCORDO
100
AcDbLine
 62
7
  6
CONTINUOUS
 10
114.2098750801
 20
99.1071229675
 11
120.4901684523
 21
96.5810557509
  0
LWPOLYLINE
  5
30A
100
AcDbEntity
  8
RACCORDO
100
AcDbPolyline
 62
7
  6
CONTINUOUS
 90
3
 70
0
 10
105.5015889551
 20
102.6122365165
 10
108.3128266307
 20
101.4803277417
 10
114.2098750801
 20
99.1071229675
  0
LWPOLYLINE
  5
30B
100
AcDbEntity
  8
RACCORDO
100
AcDbPolyline
 62
7
  6
CONTINUOUS
 90
3
 70
0
 10
97.6098060492
 20
105.7923382257
 10
100.1519064792
 20
104.7674493153
 10
105.5015889551
 20
102.6122365165
  0
LWPOLYLINE
  5
30C
100
AcDbEntity
  8
RACCORDO
100
AcDbPolyline
 62
7
  6
CONTINUOUS
 90
4
 70
0
 10
86.1839363858
 20
110.404847205
 10
88.3002513066
 20
109.5491366911
 10
90.5013414116
 20
108.6602662716
 10
97.6098060492
 20
105.7923382257
  0
LWPOLYLINE
  5
30D
100
AcDbEntity
  8
RACCORDO
100
AcDbPolyline
 62
7
  6
CONTINUOUS
 90
43
 70
0
 10
85.0937656642
 20
109.5451399165
 10
85.099757614
 20
109.5426966649
 10
85.1059020697
 20
109.5403813767
 10
85.112190729
 20
109.5381971804
 10
85.1186150946
 20
109.5361470272
 10
85.1251664858
 20
109.5342336875
 10
85.1318360503
 20
109.5324597464
 10
85.1386147762
 20
109.5308276009
 10
85.1454935039
 20
109.5293394565
 10
85.152462939
 20
109.5279973238
 10
85.1595136641
 20
109.5268030165
 10
85.1666361524
 20
109.5257581483
 10
85.1738207798
 20
109.5248641309
 10
85.1810578385
 20
109.5241221724
 10
85.1883375496
 20
109.5235332754
 10
85.1956500768
 20
109.5230982355
 10
85.2029855393
 20
109.5228176407
 10
85.2103340254
 20
109.5226918699
 10
85.2176856057
 20
109.5227210933
 10
85.2250303468
 20
109.5229052712
 10
85.2323583242
 20
109.5232441549
 10
85.2396596366
 20
109.5237372864
 10
85.2469244181
 20
109.5243839994
 10
85.2541428526
 20
109.5251834201
 10
85.2613051866
 20
109.5261344682
 10
85.2684017421
 20
109.5272358588
 10
85.2754229302
 20
109.5284861035
 10
85.282359264
 20
109.5298835131
 10
85.2892013709
 20
109.5314261994
 10
85.2959400058
 20
109.5331120779
 10
85.3025660635
 20
109.5349388706
 10
85.3090705907
 20
109.5369041091
 10
85.3154447985
 20
109.5390051379
 10
85.3216800739
 20
109.5412391183
 10
85.327767992
 20
109.5436030315
 10
85.3337003265
 20
109.5460936835
 10
85.3394690617
 20
109.5487077088
 10
85.3450664028
 20
109.5514415754
 10
85.3504847866
 20
109.5542915893
 10
85.3557168919
 20
109.5572538994
 10
85.3607556488
 20
109.5603245031
 10
85.3655942491
 20
109.5634992513
 10
85.3702261547
 20
109.5667738544
  0
LWPOLYLINE
  5
30E
100
AcDbEntity
  8
0
100
AcDbPolyline
 62
7
  6
CONTINUOUS
 90
79
 70
0
 10
153.3684176263
 20
82.5620584127
 10
153.3799908786
 20
82.5572062185
 10
153.391492099
 20
82.5519455298
 10
153.4029212919
 20
82.5462763585
 10
153.4142952617
 20
82.5401947547
 10
153.4255972128
 20
82.5337046926
 10
153.4367767495
 20
82.52681807
 10
153.4478308102
 20
82.5195335493
 10
153.4587624654
 20
82.5118524926
 10
153.4695305166
 20
82.503790846
 10
153.4801309399
 20
82.4953499352
 10
153.4905677679
 20
82.486528458
 10
153.5008118858
 20
82.4773384176
 10
153.5108614746
 20
82.4677813538
 10
153.5207183615
 20
82.4578557492
 10
153.5303589016
 20
82.4475690198
 10
153.5397870697
 20
82.4369157503
 10
153.5489988988
 20
82.4259013775
 10
153.5579588301
 20
82.4145495931
 10
153.5666643738
 20
82.4028614686
 10
153.5751180264
 20
82.3908359506
 10
153.5832917087
 20
82.3784935405
 10
153.5911807219
 20
82.3658420406
 10
153.5987897702
 20
82.3528736632
 10
153.6061048776
 20
82.3395855228
 10
153.6131255266
 20
82.3259782354
 10
153.6198522395
 20
82.3120511981
 10
153.6262726003
 20
82.2977996973
 10
153.6323905837
 20
82.2832139333
 10
153.6382022192
 20
82.2683037171
 10
153.6436831721
 20
82.2530937488
 10
153.6488324856
 20
82.2375848245
 10
153.6536511189
 20
82.221776154
 10
153.6581176098
 20
82.2056900548
 10
153.6622308013
 20
82.1893337102
 10
153.6659918509
 20
82.1726999376
 10
153.6693827673
 20
82.1557895035
 10
153.6724052292
 20
82.1385954132
 10
153.6750575572
 20
82.1211246586
 10
153.6773167226
 20
82.1033989825
 10
153.6791813301
 20
82.0854053062
 10
153.6806527722
 20
82.0671566998
 10
153.6817122004
 20
82.0487141242
 10
153.6823578357
 20
82.030077914
 10
153.682591451
 20
82.0112477169
 10
153.6823995233
 20
81.9922834576
 10
153.6817829778
 20
81.9731969592
 10
153.6807408804
 20
81.9539763728
 10
153.6792569175
 20
81.9346461097
 10
153.6773303205
 20
81.9151917439
 10
153.6749618474
 20
81.8956276707
 10
153.6721374722
 20
81.8760215283
 10
153.6688509986
 20
81.8563657749
 10
153.6651086094
 20
81.8366679138
 10
153.6609148463
 20
81.8170181458
 10
153.6562612388
 20
81.7974211331
 10
153.6511562417
 20
81.777872169
 10
153.6456297829
 20
81.7584473988
 10
153.6396857954
 20
81.7391624054
 10
153.6333203304
 20
81.7200015607
 10
153.6265514925
 20
81.700994194
 10
153.619374235
 20
81.6821253533
 10
153.6117935893
 20
81.663409947
 10
153.6038427778
 20
81.6449220956
 10
153.5955189884
 20
81.6266605355
 10
153.5868250184
 20
81.6086264892
 10
153.577802506
 20
81.5908978079
 10
153.5684516606
 20
81.5734838295
 10
153.5587722595
 20
81.5563751799
 10
153.5488052939
 20
81.5396216461
 10
153.5385575463
 20
81.5232396776
 10
153.5280222233
 20
81.5072127956
 10
153.5172199527
 20
81.4915413976
 10
153.5061459782
 20
81.4762170937
 10
153.4948050472
 20
81.4612482505
 10
153.4832320443
 20
81.4466604037
 10
153.4714267427
 20
81.4324536521
 10
153.4593893627
 20
81.4186278806
 10
153.4471554609
 20
81.4052083083
  0
LWPOLYLINE
  5
30F
100
AcDbEntity
  8
RACCORDO
100
AcDbPolyline
 62
7
  6
CONTINUOUS
 90
27
 70
0
 10
83.9646512297
 20
109.3892943331
 10
83.9588836495
 20
109.3918355099
 10
83.953280963
 20
109.3944952839
 10
83.9478505789
 20
109.3972701382
 10
83.9425996779
 20
109.4001564035
 10
83.9375352035
 20
109.4031502631
 10
83.9326638527
 20
109.4062477582
 10
83.9279920671
 20
109.4094447928
 10
83.9235260244
 20
109.4127371394
 10
83.9192716301
 20
109.4161204444
 10
83.91523451
 20
109.4195902339
 10
83.9114200026
 20
109.4231419197
 10
83.907833152
 20
109.4267708053
 10
83.9044787012
 20
109.4304720921
 10
83.9013610859
 20
109.4342408856
 10
83.8984844287
 20
109.4380722024
 10
83.8958525335
 20
109.4419609761
 10
83.8934688806
 20
109.4459020644
 10
83.8913366219
 20
109.4498902559
 10
83.8894585771
 20
109.4539202768
 10
83.8878372296
 20
109.4579867982
 10
83.8864747234
 20
109.4620844426
 10
83.8853728601
 20
109.4662077917
 10
83.8845330968
 20
109.4703513929
 10
83.883956544
 20
109.474509767
 10
83.8836439641
 20
109.4786774153
 10
83.8835824156
 20
109.4815231644
  0
LWPOLYLINE
  5
310
100
AcDbEntity
  8
RACCORDO
100
AcDbPolyline
 62
7
  6
CONTINUOUS
 90
7
 70
0
 10
216.2455926495
 20
56.2169458487
 10
216.2317416444
 20
56.2232851438
 10
216.2200588758
 20
56.2309271589
 10
216.2109111767
 20
56.23963193
 10
216.2045857774
 20
56.2491261223
 10
216.2012812845
 20
56.2591116174
 10
216.2007929731
 20
56.2647507348
  0
LINE
  5
311
100
AcDbEntity
  8
SUPERFICI
100
AcDbLine
 62
7
  6
CONTINUOUS
 10
101.6339238294
 20
107.2121394488
 11
101.7199602949
 21
107.1597435887
  0
LWPOLYLINE
  5
312
100
AcDbEntity
  8
SUPERFICI
100
AcDbPolyline
 62
7
  6
CONTINUOUS
 90
3
 70
0
 10
138.8311210362
 20
92.2238203601
 10
138.8309326876
 20
92.2246194704
 10
138.8301989012
 20
92.2252284969
  0
LINE
  5
313
100
AcDbEntity
  8
0
100
AcDbLine
 62
7
  6
CONTINUOUS
 10
153.0766842923
 20
81.203777887
 11
153.1065520474
 21
80.194093408
  0
LINE
  5
314
100
AcDbEntity
  8
0
100
AcDbLine
 62
7
  6
CONTINUOUS
 10
152.7356532222
 20
80.343290984
 11
152.7127438902
 21
81.2877491038
  0
LINE
  5
315
100
AcDbEntity
  8
0
100
AcDbLine
 62
7
  6
CONTINUOUS
 10
152.8084728262
 20
80.4029413115
 11
152.7855601106
 21
81.3473966595
  0
LINE
  5
316
100
AcDbEntity
  8
0
100
AcDbLine
 62
7
  6
CONTINUOUS
 10
151.1968814726
 20
80.9619974797
 11
151.243703526
 21
81.4210781632
  0
LINE
  5
317
100
AcDbEntity
  8
0
100
AcDbLine
 62
7
  6
CONTINUOUS
 10
151.2696886852
 20
81.0216376567
 11
151.3165101516
 21
81.4807178593
  0
LINE
  5
318
100
AcDbEntity
  8
0
100
AcDbLine
 62
7
  6
CONTINUOUS
 10
146.537118042
 20
82.8328618676
 11
146.8123642849
 21
85.1950091445
  0
LINE
  5
319
100
AcDbEntity
  8
0
100
AcDbLine
 62
7
  6
CONTINUOUS
 10
146.6099377851
 20
82.892512309
 11
146.8752903579
 21
85.169750009
  0
LINE
  5
31A
100
AcDbEntity
  8
0
100
AcDbLine
 62
7
  6
CONTINUOUS
 10
151.8017555378
 20
83.1914755221
 11
151.5266491899
 21
80.8294428394
  0
LINE
  5
31B
100
AcDbEntity
  8
0
100
AcDbLine
 62
7
  6
CONTINUOUS
 10
151.2974440193
 20
81.8565911392
 11
151.3846881929
 21
82.5902879386
  0
LINE
  5
31C
100
AcDbEntity
  8
0
100
AcDbLine
 62
7
  6
CONTINUOUS
 10
151.3702501658
 20
81.916230443
 11
151.4574935972
 21
82.6499266343
  0
LINE
  5
31D
100
AcDbEntity
  8
0
100
AcDbLine
 62
7
  6
CONTINUOUS
 10
147.14227951
 20
85.0625753356
 11
146.9338104976
 21
83.4216814004
  0
LINE
  5
31E
100
AcDbEntity
  8
0
100
AcDbLine
 62
7
  6
CONTINUOUS
 10
148.9017826571
 20
81.8839758511
 11
149.1171600903
 21
83.4179110637
  0
LINE
  5
31F
100
AcDbEntity
  8
0
100
AcDbLine
 62
7
  6
CONTINUOUS
 10
148.9745866669
 20
81.9436134046
 11
149.1899650293
 21
83.4775493784
  0
LINE
  5
320
100
AcDbEntity
  8
0
100
AcDbLine
 62
7
  6
CONTINUOUS
 10
149.5752372503
 20
84.0857391602
 11
149.3461097368
 21
82.5573190624
  0
LINE
  5
321
100
AcDbEntity
  8
SUPERFICI
100
AcDbLine
 62
7
  6
CONTINUOUS
 10
138.1147375654
 20
91.185702321
 11
138.1233509187
 21
91.214388476
  0
LINE
  5
322
100
AcDbEntity
  8
0
100
AcDbLine
 62
7
  6
CONTINUOUS
 10
147.637069617
 20
82.3916076488
 11
148.448140771
 21
84.5383146201
  0
LINE
  5
323
100
AcDbEntity
  8
0
100
AcDbLine
 62
7
  6
CONTINUOUS
 10
147.7098796366
 20
82.4512501252
 11
148.4917943766
 21
84.5207873297
  0
LINE
  5
324
100
AcDbEntity
  8
0
100
AcDbLine
 62
7
  6
CONTINUOUS
 10
138.7951762869
 20
92.1875858007
 11
137.6148258564
 21
91.1041254078
  0
LWPOLYLINE
  5
325
100
AcDbEntity
  8
SUPERFICI
100
AcDbPolyline
 62
7
  6
CONTINUOUS
 90
7
 70
0
 10
138.0676591183
 20
91.1127432962
 10
138.0716443458
 20
91.1161654249
 10
138.0830370548
 20
91.127580545
 10
138.0930675925
 20
91.1402656357
 10
138.1016530882
 20
91.154141227
 10
138.1088764125
 20
91.1692867888
 10
138.1147375654
 20
91.185702321
  0
LWPOLYLINE
  5
326
100
AcDbEntity
  8
SUPERFICI
100
AcDbPolyline
 62
7
  6
CONTINUOUS
 90
10
 70
0
 10
138.8007306652
 20
92.1924597195
 10
138.8070250793
 20
92.1978477613
 10
138.8127264686
 20
92.2028453027
 10
138.817772955
 20
92.2074369565
 10
138.8221071514
 20
92.2116225372
 10
138.8256614537
 20
92.2153609288
 10
138.8283683445
 20
92.2185684346
 10
138.8301813838
 20
92.2211896359
 10
138.8310485065
 20
92.223214325
 10
138.8311210362
 20
92.2238203601
  0
LINE
  5
327
100
AcDbEntity
  8
0
100
AcDbLine
 62
7
  6
CONTINUOUS
 10
138.8007306652
 20
91.7899674591
 11
137.8720210704
 21
91.0008300116
  0
LINE
  5
328
100
AcDbEntity
  8
SUPERFICI
100
AcDbLine
 62
7
  6
CONTINUOUS
 10
138.0677174486
 20
91.1127649085
 11
137.9121458496
 21
90.9847149956
  0
LINE
  5
329
100
AcDbEntity
  8
0
100
AcDbLine
 62
7
  6
CONTINUOUS
 10
138.1147375654
 20
91.185702321
 11
137.8841264883
 21
90.9959682028
  0
LINE
  5
32A
100
AcDbEntity
  8
0
100
AcDbLine
 62
7
  6
CONTINUOUS
 10
133.8630920453
 20
94.1684220234
 11
132.4917580772
 21
93.1616649248
  0
LINE
  5
32B
100
AcDbEntity
  8
SUPERFICI
100
AcDbLine
 62
7
  6
CONTINUOUS
 10
133.8775518339
 20
94.1776353491
 11
133.8695451355
 21
94.1729349992
  0
LINE
  5
32C
100
AcDbEntity
  8
DRAFT
100
AcDbLine
 62
7
  6
CONTINUOUS
 10
87.2657865596
 20
123.0204742309
 11
87.2098587512
 21
123.0429360997
  0
LINE
  5
32D
100
AcDbEntity
  8
0
100
AcDbLine
 62
7
  6
CONTINUOUS
 10
237.8217311725
 20
70.3783615604
 11
238.1907758761
 21
70.2301448875
  0
LINE
  5
32E
100
AcDbEntity
  8
SUPERFICI
100
AcDbLine
 62
7
  6
CONTINUOUS
 10
211.0722969357
 20
61.8588065025
 11
211.1583334012
 21
61.8064106424
  0
LINE
  5
32F
100
AcDbEntity
  8
SUPERFICI
100
AcDbLine
 62
7
  6
CONTINUOUS
 10
211.3590851539
 20
62.0937296577
 11
211.4451216194
 21
62.0413337976
  0
LINE
  5
330
100
AcDbEntity
  8
SUPERFICI
100
AcDbLine
 62
7
  6
CONTINUOUS
 10
211.6458733721
 20
62.3286528129
 11
211.7319098375
 21
62.2762569528
  0
LINE
  5
331
100
AcDbEntity
  8
SUPERFICI
100
AcDbLine
 62
7
  6
CONTINUOUS
 10
211.9326615903
 20
62.5635759681
 11
212.0186980557
 21
62.511180108
  0
LINE
  5
332
100
AcDbEntity
  8
SUPERFICI
100
AcDbLine
 62
7
  6
CONTINUOUS
 10
212.2194498084
 20
62.7984991233
 11
212.3054862739
 21
62.7461032632
  0
LWPOLYLINE
  5
333
100
AcDbEntity
  8
SUPERFICI
100
AcDbPolyline
 62
7
  6
CONTINUOUS
 90
3
 70
0
 10
157.2620420327
 20
84.8215469725
 10
157.2618536841
 20
84.8223460828
 10
157.2611198977
 20
84.8229551093
  0
LINE
  5
334
100
AcDbEntity
  8
SUPERFICI
100
AcDbLine
 62
7
  6
CONTINUOUS
 10
157.2316516617
 20
84.7901863319
 11
157.2316516617
 21
84.3876940715
  0
LINE
  5
335
100
AcDbEntity
  8
SUPERFICI
100
AcDbLine
 62
7
  6
CONTINUOUS
 10
157.2620420425
 20
84.8210755996
 11
157.2620420425
 21
84.4196764395
  0
LINE
  5
336
100
AcDbEntity
  8
SUPERFICI
100
AcDbLine
 62
7
  6
CONTINUOUS
 10
156.5456585619
 20
83.7834289334
 11
156.5542719152
 21
83.8121150884
  0
LINE
  5
337
100
AcDbEntity
  8
0
100
AcDbLine
 62
7
  6
CONTINUOUS
 10
148.7780291741
 20
84.4058588399
 11
147.9670185706
 21
82.2592014687
  0
LINE
  5
338
100
AcDbEntity
  8
0
100
AcDbLine
 62
7
  6
CONTINUOUS
 10
148.2557101091
 20
82.1433347596
 11
149.066677108
 21
84.289956412
  0
LINE
  5
339
100
AcDbEntity
  8
0
100
AcDbLine
 62
7
  6
CONTINUOUS
 10
148.328516499
 20
82.2029742628
 11
149.1103302431
 21
84.2724276682
  0
LINE
  5
33A
100
AcDbEntity
  8
0
100
AcDbLine
 62
7
  6
CONTINUOUS
 10
149.1171600903
 20
83.4179110637
 11
148.5856275419
 21
82.0109027591
  0
LINE
  5
33B
100
AcDbEntity
  8
0
100
AcDbLine
 62
7
  6
CONTINUOUS
 10
149.5477908351
 20
81.6245642127
 11
150.0792913066
 21
83.0315462414
  0
LINE
  5
33C
100
AcDbEntity
  8
0
100
AcDbLine
 62
7
  6
CONTINUOUS
 10
149.6205939052
 20
81.6842009965
 11
150.152094322
 21
83.0911829803
  0
LINE
  5
33D
100
AcDbEntity
  8
0
100
AcDbLine
 62
7
  6
CONTINUOUS
 10
150.6885270103
 20
83.63863242
 11
149.8776425343
 21
81.4920783664
  0
LINE
  5
33E
100
AcDbEntity
  8
0
100
AcDbLine
 62
7
  6
CONTINUOUS
 10
151.7877033569
 20
80.724493967
 11
152.5988444592
 21
82.8712582366
  0
LINE
  5
33F
100
AcDbEntity
  8
0
100
AcDbLine
 62
7
  6
CONTINUOUS
 10
151.8605143492
 20
80.7841372402
 11
152.642493538
 21
82.8537217749
  0
LINE
  5
340
100
AcDbEntity
  8
0
100
AcDbLine
 62
7
  6
CONTINUOUS
 10
152.7649491541
 20
82.347375535
 11
152.5604397604
 21
81.8061580434
  0
LINE
  5
341
100
AcDbEntity
  8
0
100
AcDbLine
 62
7
  6
CONTINUOUS
 10
152.4242063352
 20
81.4037419488
 11
152.1174408858
 21
80.5919145979
  0
LINE
  5
342
100
AcDbEntity
  8
0
100
AcDbLine
 62
7
  6
CONTINUOUS
 10
149.3461097368
 20
82.5573190624
 11
150.1937391195
 21
83.8373527178
  0
LINE
  5
343
100
AcDbEntity
  8
0
100
AcDbLine
 62
7
  6
CONTINUOUS
 10
149.4189133377
 20
82.6169562809
 11
150.2200532444
 21
83.8267845971
  0
LINE
  5
344
100
AcDbEntity
  8
0
100
AcDbLine
 62
7
  6
CONTINUOUS
 10
150.0792913066
 20
83.0315462414
 11
149.2316672132
 21
81.7515169196
  0
LINE
  5
345
100
AcDbEntity
  8
0
100
AcDbLine
 62
7
  6
CONTINUOUS
 10
151.3846881929
 20
82.5902879386
 11
150.9813747221
 21
81.9835883453
  0
LINE
  5
346
100
AcDbEntity
  8
0
100
AcDbLine
 62
7
  6
CONTINUOUS
 10
150.7215145624
 20
81.6309098611
 11
150.4685848633
 21
81.2546735163
  0
LINE
  5
347
100
AcDbEntity
  8
0
100
AcDbLine
 62
7
  6
CONTINUOUS
 10
150.1387632297
 20
81.3871839909
 11
151.4719164357
 21
83.3239716873
  0
LINE
  5
348
100
AcDbEntity
  8
0
100
AcDbLine
 62
7
  6
CONTINUOUS
 10
150.2115667024
 20
81.4468211044
 11
151.4967918353
 21
83.3139794747
  0
LINE
  5
349
100
AcDbEntity
  8
0
100
AcDbLine
 62
7
  6
CONTINUOUS
 10
146.9338104976
 20
83.4216814004
 11
147.8708230842
 21
84.7701016017
  0
LINE
  5
34A
100
AcDbEntity
  8
0
100
AcDbLine
 62
7
  6
CONTINUOUS
 10
147.0066286257
 20
83.4813305189
 11
147.895348995
 21
84.760255108
  0
LINE
  5
34B
100
AcDbEntity
  8
0
100
AcDbLine
 62
7
  6
CONTINUOUS
 10
148.2007209299
 20
84.6376535564
 11
146.853373333
 21
82.7060170177
  0
LINE
  5
34C
100
AcDbEntity
  8
0
100
AcDbLine
 62
7
  6
CONTINUOUS
 10
153.4471554609
 20
81.4052083083
 11
153.4347311432
 21
81.3922010325
  0
LINE
  5
34D
100
AcDbEntity
  8
0
100
AcDbLine
 62
7
  6
CONTINUOUS
 10
147.0066286257
 20
83.4813305189
 11
146.9338104976
 21
83.4216814004
  0
LINE
  5
34E
100
AcDbEntity
  8
0
100
AcDbLine
 62
7
  6
CONTINUOUS
 10
146.6099377851
 20
82.892512309
 11
146.537118042
 21
82.8328618676
  0
LINE
  5
34F
100
AcDbEntity
  8
0
100
AcDbLine
 62
7
  6
CONTINUOUS
 10
147.7098796366
 20
82.4512501252
 11
147.637069617
 21
82.3916076488
  0
LINE
  5
350
100
AcDbEntity
  8
0
100
AcDbLine
 62
7
  6
CONTINUOUS
 10
149.1899650293
 20
83.4775493784
 11
149.1171600903
 21
83.4179110637
  0
LINE
  5
351
100
AcDbEntity
  8
0
100
AcDbLine
 62
7
  6
CONTINUOUS
 10
148.328516499
 20
82.2029742628
 11
148.2557101091
 21
82.1433347596
  0
LINE
  5
352
100
AcDbEntity
  8
0
100
AcDbLine
 62
7
  6
CONTINUOUS
 10
149.4189133377
 20
82.6169562809
 11
149.3461097368
 21
82.5573190624
  0
LINE
  5
353
100
AcDbEntity
  8
0
100
AcDbLine
 62
7
  6
CONTINUOUS
 10
150.152094322
 20
83.0911829803
 11
150.0792913066
 21
83.0315462414
  0
LINE
  5
354
100
AcDbEntity
  8
0
100
AcDbLine
 62
7
  6
CONTINUOUS
 10
148.9745866669
 20
81.9436134046
 11
148.9017826571
 21
81.8839758511
  0
LINE
  5
355
100
AcDbEntity
  8
0
100
AcDbLine
 62
7
  6
CONTINUOUS
 10
149.6205939052
 20
81.6842009965
 11
149.5477908351
 21
81.6245642127
  0
LINE
  5
356
100
AcDbEntity
  8
0
100
AcDbLine
 62
7
  6
CONTINUOUS
 10
151.4574935972
 20
82.6499266343
 11
151.3846881929
 21
82.5902879386
  0
LINE
  5
357
100
AcDbEntity
  8
0
100
AcDbLine
 62
7
  6
CONTINUOUS
 10
150.2115667024
 20
81.4468211044
 11
150.1387632297
 21
81.3871839909
  0
LINE
  5
358
100
AcDbEntity
  8
0
100
AcDbLine
 62
7
  6
CONTINUOUS
 10
152.2940130418
 20
86.7661486358
 11
150.9226790737
 21
85.7593915372
  0
LINE
  5
359
100
AcDbEntity
  8
SUPERFICI
100
AcDbLine
 62
7
  6
CONTINUOUS
 10
152.3084728304
 20
86.7753619615
 11
152.300466132
 21
86.7706616116
  0
LWPOLYLINE
  5
35A
100
AcDbEntity
  8
RACCORDO
100
AcDbPolyline
 62
7
  6
CONTINUOUS
 90
10
 70
0
 10
83.7025163005
 20
148.9426841468
 10
83.7176393163
 20
148.9373868219
 10
83.7341550032
 20
148.9337037017
 10
83.7515447627
 20
148.9317504311
 10
83.7692625507
 20
148.9315883373
 10
83.7867520312
 20
148.9332225039
 10
83.8034640448
 20
148.9366016143
 10
83.8188738402
 20
148.9416195624
 10
83.8324975527
 20
148.9481187822
 10
83.843907404
 20
148.9558951968
  0
LWPOLYLINE
  5
35B
100
AcDbEntity
  8
RACCORDO
100
AcDbPolyline
 62
7
  6
CONTINUOUS
 90
67
 70
0
 10
84.5729360823
 20
149.0335068871
 10
84.5581696588
 20
149.0387730191
 10
84.5434439788
 20
149.0436787815
 10
84.5287590419
 20
149.0482241738
 10
84.5141066107
 20
149.0524113918
 10
84.4994949216
 20
149.0562382391
 10
84.4849486838
 20
149.059698126
 10
84.470468514
 20
149.0627902811
 10
84.4560537938
 20
149.0655154747
 10
84.4417273796
 20
149.067869429
 10
84.4274894399
 20
149.0698515447
 10
84.4133398039
 20
149.0714624195
 10
84.3993008184
 20
149.0726995708
 10
84.3853726566
 20
149.0735624085
 10
84.3715551426
 20
149.0740515206
 10
84.3578700982
 20
149.074166192
 10
84.3443177271
 20
149.0739058282
 10
84.3308978225
 20
149.0732710212
 10
84.3176315901
 20
149.0722628356
 10
84.3045192795
 20
149.0708806795
 10
84.2915606376
 20
149.069125142
 10
84.2787761159
 20
149.0669990581
 10
84.266165993
 20
149.0645018424
 10
84.2537299865
 20
149.0616340772
 10
84.241487706
 20
149.058400349
 10
84.2294394531
 20
149.054800078
 10
84.2175849222
 20
149.0508338407
 10
84.2059428121
 20
149.0465079578
 10
84.1945134571
 20
149.0418218595
 10
84.1832965184
 20
149.0367761123
 10
84.1723096856
 20
149.0313787408
 10
84.1615533265
 20
149.0256291925
 10
84.1510270687
 20
149.0195280163
 10
84.1407474906
 20
149.0130848893
 10
84.1307149799
 20
149.006299273
 10
84.1209291445
 20
148.9991717023
 10
84.1114053922
 20
148.9917134639
 10
84.1021441339
 20
148.9839240368
 10
84.0931449542
 20
148.9758039385
 10
84.0844220217
 20
148.9673660126
 10
84.0759757699
 20
148.9586097595
 10
84.067805761
 20
148.9495356756
 10
84.0599248563
 20
148.940158098
 10
84.0523335093
 20
148.930476551
 10
84.0450312625
 20
148.9204915072
 10
84.0380296105
 20
148.9102187264
 10
84.0313290226
 20
148.8996577545
 10
84.0249290257
 20
148.8888090428
 10
84.0188397012
 20
148.8776897089
 10
84.0130615342
 20
148.8662993239
 10
84.0075940361
 20
148.8546383142
 10
84.0024458279
 20
148.8427250799
 10
83.9976174125
 20
148.8305592301
 10
83.993108284
 20
148.8181411535
 10
83.9889255503
 20
148.8054904198
 10
83.9850697201
 20
148.7926066656
 10
83.9815402823
 20
148.7794902525
 10
83.9783428159
 20
148.7661618376
 10
83.9754778418
 20
148.7526210584
 10
83.9729448372
 20
148.738868276
 10
83.970747815
 20
148.7249252326
 10
83.9688873005
 20
148.7107910424
 10
83.9673627671
 20
148.6964665903
 10
83.9661766501
 20
148.6819762754
 10
83.965329761
 20
148.6673282307
 10
83.9648212876
 20
148.6525143227
 10
83.9646512297
 20
148.6375345514
  0
LWPOLYLINE
  5
35C
100
AcDbEntity
  8
RACCORDO
100
AcDbPolyline
 62
7
  6
CONTINUOUS
 90
43
 70
0
 10
215.8568740796
 20
95.6666444143
 10
215.8630099284
 20
95.6644049056
 10
215.8692836787
 20
95.6622948348
 10
215.8756870347
 20
95.6603169924
 10
215.8822115288
 20
95.6584739935
 10
215.8888485335
 20
95.6567682753
 10
215.8955892724
 20
95.6552020934
 10
215.9024248321
 20
95.6537775187
 10
215.9093461736
 20
95.6524964351
 10
215.9163441445
 20
95.6513605365
 10
215.9234094913
 20
95.6503713251
 10
215.930532871
 20
95.6495301088
 10
215.9377048643
 20
95.6488380001
 10
215.9449159872
 20
95.6482959143
 10
215.9521567044
 20
95.647904568
 10
215.959417441
 20
95.6476644789
 10
215.966688596
 20
95.6475759643
 10
215.9739605544
 20
95.6476391414
 10
215.9812237002
 20
95.6478539267
 10
215.9884684292
 20
95.648220036
 10
215.9956851612
 20
95.6487369854
 10
216.0028643535
 20
95.6494040911
 10
216.0099965125
 20
95.6502204712
 10
216.0170722073
 20
95.651185046
 10
216.0240820813
 20
95.6522965401
 10
216.0310168651
 20
95.6535534837
 10
216.0378673886
 20
95.6549542147
 10
216.044624593
 20
95.6564968809
 10
216.0512795431
 20
95.6581794423
 10
216.0578234388
 20
95.6599996741
 10
216.0642476267
 20
95.6619551692
 10
216.070543612
 20
95.6640433419
 10
216.0767030691
 20
95.6662614309
 10
216.0827178533
 20
95.6686065031
 10
216.0885800109
 20
95.6710754576
 10
216.0942817902
 20
95.6736650296
 10
216.0998156514
 20
95.6763717947
 10
216.105174277
 20
95.6791921737
 10
216.110350581
 20
95.6821224371
 10
216.1153377186
 20
95.6851587102
 10
216.1201290951
 20
95.6882969778
 10
216.1247183746
 20
95.6915330903
 10
216.1290994886
 20
95.6948627683
  0
LWPOLYLINE
  5
35D
100
AcDbEntity
  8
RACCORDO
100
AcDbPolyline
 62
7
  6
CONTINUOUS
 90
55
 70
0
 10
85.3968711087
 20
147.7898021929
 10
87.018296218
 20
147.1893180628
 10
88.7100866033
 20
146.561004573
 10
90.4723458092
 20
145.9049432196
 10
92.300230424
 20
145.2234799873
 10
94.1987976612
 20
144.5144378394
 10
96.1830329839
 20
143.7711383347
 10
98.2575510596
 20
142.9921230519
 10
100.4180413677
 20
142.1790919395
 10
102.6661381828
 20
141.3301333454
 10
105.015734965
 20
140.4400919465
 10
107.4532983172
 20
139.5144113946
 10
109.9392502719
 20
138.5670223989
 10
112.4701471873
 20
137.5990807545
 10
115.0496249939
 20
136.6095891187
 10
117.6485790195
 20
135.609133273
 10
120.2629252005
 20
134.5991277244
 10
122.8968143723
 20
133.5782179973
 10
125.5333919031
 20
132.5527550604
 10
128.1672113785
 20
131.5247772971
 10
130.8037085494
 20
130.4922447364
 10
133.4423128752
 20
129.4553594789
 10
136.0826796058
 20
128.4142546465
 10
138.7251478928
 20
127.3687995849
 10
141.3701727887
 20
126.3188005287
 10
144.0181069536
 20
125.2641168835
 10
146.6685951552
 20
124.2048941839
 10
149.3210302789
 20
123.1413675918
 10
151.9754128242
 20
122.0735300297
 10
154.6317365143
 20
121.0013909158
 10
157.2893813865
 20
119.9252079586
 10
159.9479769032
 20
118.8451271796
 10
162.6078845927
 20
117.7610022241
 10
165.2695822913
 20
116.6726519871
 10
167.9334349845
 20
115.5799240899
 10
170.5990718343
 20
114.4829731721
 10
173.2658666435
 20
113.3820784011
 10
175.9393780516
 20
112.2748625415
 10
178.6140463062
 20
111.1637090635
 10
181.2725291775
 20
110.0560059508
 10
183.9189400638
 20
108.9497875164
 10
186.5490890934
 20
107.846962114
 10
189.1330803478
 20
106.7606453884
 10
191.6743404164
 20
105.6890000161
 10
194.1692476845
 20
104.6337044598
 10
196.577195477
 20
103.6130302118
 10
198.8839264253
 20
102.632696939
 10
201.1033486376
 20
101.6866922437
 10
203.2370371933
 20
100.7756322662
 10
205.2803346115
 20
99.901417398
 10
207.2376074625
 20
99.0619013511
 10
209.1240025151
 20
98.2516601695
 10
210.9445095321
 20
97.468835683
 10
212.6939354229
 20
96.7151133257
 10
214.372182253
 20
95.990409557
  0
LWPOLYLINE
  5
35E
100
AcDbEntity
  8
RACCORDO
100
AcDbPolyline
 62
7
  6
CONTINUOUS
 90
3
 70
0
 10
85.4462374154
 20
147.6945240182
 10
86.7890201276
 20
147.1968095405
 10
88.1352663506
 20
146.6971522904
  0
LWPOLYLINE
  5
35F
100
AcDbEntity
  8
RACCORDO
100
AcDbPolyline
 62
7
  6
CONTINUOUS
 90
12
 70
0
 10
84.6394652754
 20
149.4895724778
 10
95.0956555891
 20
145.6131923772
 10
105.8791372362
 20
141.5546309718
 10
116.7000930344
 20
137.4205258796
 10
127.5573181757
 20
133.2113505693
 10
138.4497202324
 20
128.9275422054
 10
149.3762533264
 20
124.5695208507
 10
160.3358261833
 20
120.1377242928
 10
171.3273242231
 20
115.6326003482
 10
182.3496673509
 20
111.0545825056
 10
193.4017192261
 20
106.4041283696
 10
204.482178231
 20
101.6817707356
  0
LWPOLYLINE
  5
360
100
AcDbEntity
  8
RACCORDO
100
AcDbPolyline
 62
7
  6
CONTINUOUS
 90
13
 70
0
 10
84.6145956324
 20
149.5372820845
 10
95.3181402435
 20
145.5684736132
 10
106.0574277168
 20
141.5252666249
 10
116.8322799981
 20
137.4077589764
 10
127.6432123182
 20
133.2157758734
 10
138.489355053
 20
128.9496900773
 10
149.3684325536
 20
124.6104047947
 10
160.2802455757
 20
120.1979771558
 10
171.2245922306
 20
115.7125111639
 10
182.1991542085
 20
111.1549486382
 10
193.203003277
 20
106.5256388504
 10
204.2366221031
 20
101.8243558119
 10
215.2997894604
 20
97.0511620144
  0
LINE
  5
361
100
AcDbEntity
  8
RACCORDO
100
AcDbLine
 62
7
  6
CONTINUOUS
 10
88.1352663506
 20
146.6971522904
 11
90.2842402592
 21
145.8980991437
  0
LWPOLYLINE
  5
362
100
AcDbEntity
  8
RACCORDO
100
AcDbPolyline
 62
7
  6
CONTINUOUS
 90
47
 70
0
 10
90.2842402592
 20
145.8980991437
 10
92.3462140319
 20
145.1296255829
 10
94.2426607599
 20
144.4212649987
 10
96.2249246031
 20
143.6791437622
 10
98.2976169342
 20
142.9012281233
 10
100.4564859306
 20
142.0887840366
 10
102.7030725186
 20
141.2409267943
 10
105.0512678628
 20
140.3520569469
 10
107.4875750142
 20
139.4269091958
 10
109.9723673619
 20
138.480277493
 10
112.5022083118
 20
137.5132678751
 10
115.0807469306
 20
136.5242784187
 10
117.6788300119
 20
135.5243702644
 10
120.292382172
 20
134.5150316846
 10
122.9255694747
 20
133.4945679235
 10
125.5614926063
 20
132.4695008269
 10
128.1947068854
 20
131.4419466916
 10
130.8306709375
 20
130.4097681854
 10
133.46878928
 20
129.3732038447
 10
136.1087036502
 20
128.3323903079
 10
138.7507593924
 20
127.2871825134
 10
141.3954123788
 20
126.2374023755
 10
144.0430062081
 20
125.1829090169
 10
146.6931831922
 20
124.1238373747
 10
149.3453459072
 20
123.0604261402
 10
151.9994849043
 20
121.9926803395
 10
154.6555891155
 20
120.9206031716
 10
157.3130552862
 20
119.8444381835
 10
159.9715010478
 20
118.7643477589
 10
162.6312819588
 20
117.6801919795
 10
165.2929003049
 20
116.5917639477
 10
167.9567066767
 20
115.4989290015
 10
170.6223227738
 20
114.4018464043
 10
173.2891554695
 20
113.3007553632
 10
175.9627480508
 20
112.1933741968
 10
178.6375326333
 20
111.0820103182
 10
181.2962104408
 20
109.9738796568
 10
183.9428780757
 20
108.8673597618
 10
186.5733349072
 20
107.7642866284
 10
189.1577376347
 20
106.6772960646
 10
191.6995011504
 20
105.6051556587
 10
194.1949864703
 20
104.5496002901
 10
196.6036352453
 20
103.5280368278
 10
198.9111744598
 20
102.5468837838
 10
201.131510949
 20
101.6005759806
 10
203.2662858388
 20
100.6887146123
 10
205.3108008184
 20
99.8136251734
  0
LWPOLYLINE
  5
363
100
AcDbEntity
  8
SUPERFICI
100
AcDbPolyline
 62
7
  6
CONTINUOUS
 90
6
 70
0
 10
90.284226019
 20
145.898104445
 10
90.601130307
 20
145.7792980287
 10
90.7912796369
 20
145.7072208103
 10
90.9832117471
 20
145.6338718826
 10
91.1769122472
 20
145.55924474
 10
91.3723244591
 20
145.4833495925
  0
LWPOLYLINE
  5
364
100
AcDbEntity
  8
RACCORDO
100
AcDbPolyline
 62
7
  6
CONTINUOUS
 90
20
 70
0
 10
135.7280820229
 20
129.5071329007
 10
133.0166295341
 20
130.575794284
 10
130.3070699341
 20
131.6399957045
 10
127.5994107434
 20
132.6997364239
 10
124.8938809852
 20
133.7549242713
 10
122.1905534767
 20
134.8055297065
 10
119.4893612378
 20
135.8515794136
 10
116.7903230372
 20
136.8930651104
 10
114.0934397967
 20
137.9299861854
 10
111.3987164516
 20
138.9623404139
 10
108.7061776994
 20
139.9901170207
 10
106.0158261164
 20
141.0133146551
 10
103.3276648615
 20
142.0319317392
 10
100.6417193977
 20
143.0459570735
 10
97.9579942618
 20
144.0553885157
 10
95.2764905243
 20
145.0602251839
 10
92.597228351
 20
146.0604576931
 10
89.9202162816
 20
147.056081869
 10
87.2454512756
 20
148.0470987836
 10
84.5729360823
 20
149.0335068871
  0
LINE
  5
365
100
AcDbEntity
  8
SUPERFICI
100
AcDbLine
 62
7
  6
CONTINUOUS
 10
91.3723244591
 20
145.4833495925
 11
91.5786276083
 21
145.4025527765
  0
LWPOLYLINE
  5
366
100
AcDbEntity
  8
RACCORDO
100
AcDbPolyline
 62
7
  6
CONTINUOUS
 90
28
 70
0
 10
214.686292772
 20
95.4768311571
 10
214.6802406154
 20
95.4792250902
 10
214.6743459417
 20
95.4817449878
 10
214.6686167158
 20
95.4843874451
 10
214.663060679
 20
95.4871488916
 10
214.6576853389
 20
95.4900255961
 10
214.6524979586
 20
95.4930136713
 10
214.6475055472
 20
95.49610908
 10
214.6427148506
 20
95.4993076394
 10
214.6381323421
 20
95.5026050277
 10
214.6337642135
 20
95.5059967895
 10
214.6296163671
 20
95.5094783417
 10
214.6256944074
 20
95.5130449801
 10
214.622003634
 20
95.5166918854
 10
214.6185490338
 20
95.5204141298
 10
214.6153352746
 20
95.5242066839
 10
214.6123666989
 20
95.528064423
 10
214.609647318
 20
95.5319821347
 10
214.6071808062
 20
95.5359545252
 10
214.6049704963
 20
95.539976227
 10
214.6030193749
 20
95.544041806
 10
214.6013300783
 20
95.5481457687
 10
214.5999048892
 20
95.5522825698
 10
214.5987457334
 20
95.5564466196
 10
214.5978541769
 20
95.5606322917
 10
214.5972314247
 20
95.5648339303
 10
214.596878318
 20
95.5690458581
 10
214.5967903036
 20
95.5724487671
  0
LINE
  5
367
100
AcDbEntity
  8
SUPERFICI
100
AcDbLine
 62
7
  6
CONTINUOUS
 10
91.5786276083
 20
145.4025527765
 11
91.856604135
 21
145.2926583621
  0
LWPOLYLINE
  5
368
100
AcDbEntity
  8
RACCORDO
100
AcDbPolyline
 62
7
  6
CONTINUOUS
 90
26
 70
0
 10
91.8564036036
 20
145.2921538029
 10
93.4198383194
 20
144.6707840991
 10
97.3216881559
 20
143.1158128157
 10
101.3678619827
 20
141.5002897852
 10
105.5719179726
 20
139.8194737313
 10
109.9205954421
 20
138.0790989797
 10
114.3738599366
 20
136.2955301584
 10
118.9318867172
 20
134.4689284979
 10
123.5945690362
 20
132.5995103775
 10
128.3214153674
 20
130.7036328965
 10
133.1124988899
 20
128.7813712715
 10
137.96776996
 20
126.8328051827
 10
142.8465512195
 20
124.8743128282
 10
147.748882491
 20
122.9059072666
 10
152.6747287521
 20
120.927616406
 10
157.5832983038
 20
118.955825734
 10
162.4746061116
 20
116.990513325
 10
167.3486293297
 20
115.0316621315
 10
172.1645161509
 20
113.0956392861
 10
176.9223126251
 20
111.1823654983
 10
181.6219436618
 20
109.2917713512
 10
186.2223718825
 20
107.4402398628
 10
190.7236971056
 20
105.6275613079
 10
195.1257336457
 20
103.8535736818
 10
199.3869746664
 20
102.1346647293
 10
203.4934721428
 20
100.4760125633
  0
LINE
  5
369
100
AcDbEntity
  8
DRAFT
100
AcDbLine
 62
7
  6
CONTINUOUS
 10
87.2657865596
 20
139.4035151167
 11
87.2098587512
 21
139.4259769854
  0
LWPOLYLINE
  5
36A
100
AcDbEntity
  8
RACCORDO
100
AcDbPolyline
 62
7
  6
CONTINUOUS
 90
38
 70
0
 10
207.5219069801
 20
98.8458658818
 10
206.0686729467
 20
99.434678054
 10
203.6150766639
 20
100.4277367711
 10
201.0726876155
 20
101.4557147104
 10
198.4415339944
 20
102.518659652
 10
195.7215093918
 20
103.6167062086
 10
192.9090919244
 20
104.7512998883
 10
190.0052722955
 20
105.9220830763
 10
187.0090066232
 20
107.1295374619
 10
183.9137463658
 20
108.3763099838
 10
180.7247009399
 20
109.6603252653
 10
177.4366289972
 20
110.9837336353
 10
174.0273263281
 20
112.3554738977
 10
170.48580795
 20
113.7799586317
 10
166.8230607627
 20
115.2527733741
 10
163.0498483862
 20
116.7695940281
 10
159.1424936565
 20
118.3399248113
 10
155.1246965794
 20
119.9542152497
 10
151.0782687703
 20
121.5795996148
 10
146.9888830218
 20
123.2218362329
 10
142.870886942
 20
124.8751277997
 10
138.849058692
 20
126.4893771103
 10
134.9508971125
 20
128.0535755078
 10
131.1488938115
 20
129.5787584945
 10
127.4852767692
 20
131.0479815104
 10
123.9813935679
 20
132.4526923535
 10
120.6158843023
 20
133.8014664643
 10
117.3669146384
 20
135.1030518413
 10
114.2318993949
 20
136.3584540328
 10
111.2134481331
 20
137.5666155165
 10
108.2975407474
 20
138.7331417109
 10
105.4836555048
 20
139.8581879138
 10
102.7723639073
 20
140.9414941128
 10
100.1513168872
 20
141.9879740598
 10
97.6206837643
 20
142.9974705588
 10
95.1803769675
 20
143.9699663115
 10
92.8177281792
 20
144.9104392014
 10
91.8564705066
 20
145.2927114874
  0
LINE
  5
36B
100
AcDbEntity
  8
RACCORDO
100
AcDbLine
 62
7
  6
CONTINUOUS
 10
203.4934721428
 20
100.4760125633
 11
207.544612058
 21
98.8366629545
  0
LINE
  5
36C
100
AcDbEntity
  8
RACCORDO
100
AcDbLine
 62
7
  6
CONTINUOUS
 10
207.544612058
 20
98.8366629545
 11
208.3240045867
 21
98.5207559634
  0
LWPOLYLINE
  5
36D
100
AcDbEntity
  8
RACCORDO
100
AcDbPolyline
 62
7
  6
CONTINUOUS
 90
43
 70
0
 10
85.0937656642
 20
147.5241116388
 10
85.0997576132
 20
147.5216683875
 10
85.1059020682
 20
147.5193530995
 10
85.1121907268
 20
147.5171689034
 10
85.1186150916
 20
147.5151187504
 10
85.1251664821
 20
147.5132054108
 10
85.131836046
 20
147.5114314698
 10
85.1386147712
 20
147.5097993244
 10
85.1454934983
 20
147.5083111799
 10
85.1524629328
 20
147.5069690473
 10
85.1595136574
 20
147.5057747399
 10
85.1666361452
 20
147.5047298715
 10
85.1738207722
 20
147.503835854
 10
85.1810578305
 20
147.5030938954
 10
85.1883375413
 20
147.5025049983
 10
85.1956500683
 20
147.5020699583
 10
85.2029855306
 20
147.5017893632
 10
85.2103340165
 20
147.5016635923
 10
85.2176855967
 20
147.5016928155
 10
85.2250303377
 20
147.5018769932
 10
85.2323583153
 20
147.5022158767
 10
85.2396596277
 20
147.502709008
 10
85.2469244093
 20
147.5033557208
 10
85.2541428441
 20
147.5041551413
 10
85.2613051782
 20
147.5051061893
 10
85.268401734
 20
147.5062075797
 10
85.2754229225
 20
147.5074578243
 10
85.2823592566
 20
147.5088552339
 10
85.2892013639
 20
147.5103979201
 10
85.2959399993
 20
147.5120837985
 10
85.3025660574
 20
147.5139105911
 10
85.3090705851
 20
147.5158758296
 10
85.3154447934
 20
147.5179768585
 10
85.3216800694
 20
147.5202108389
 10
85.327767988
 20
147.5225747522
 10
85.333700323
 20
147.5250654043
 10
85.3394690587
 20
147.5276794297
 10
85.3450664004
 20
147.5304132965
 10
85.3504847848
 20
147.5332633105
 10
85.3557168905
 20
147.5362256208
 10
85.3607556479
 20
147.5392962248
 10
85.3655942486
 20
147.5424709733
 10
85.3702261547
 20
147.5457455767
  0
LINE
  5
36E
100
AcDbEntity
  8
RACCORDO
100
AcDbLine
 62
7
  6
CONTINUOUS
 10
205.3108008184
 20
99.8136251734
 11
207.5286378643
 21
98.862472038
  0
LWPOLYLINE
  5
36F
100
AcDbEntity
  8
RACCORDO
100
AcDbPolyline
 62
7
  6
CONTINUOUS
 90
5
 70
0
 10
207.5286378643
 20
98.862472038
 10
209.307491883
 20
98.0982091346
 10
210.9964824861
 20
97.3714280212
 10
212.699205223
 20
96.6377132099
 10
214.4034251349
 20
95.9024017026
  0
LWPOLYLINE
  5
370
100
AcDbEntity
  8
RACCORDO
100
AcDbPolyline
 62
7
  6
CONTINUOUS
 90
47
 70
0
 10
209.8080446253
 20
99.207582199
 10
207.0429787254
 20
100.3976418634
 10
204.2797536844
 20
101.5832560226
 10
201.5183786151
 20
102.7644217832
 10
198.7588528532
 20
103.9411416446
 10
196.0011881409
 20
105.1134109548
 10
193.2454007139
 20
106.2812230086
 10
190.491496639
 20
107.444577104
 10
187.7394903475
 20
108.6034674941
 10
184.9893953752
 20
109.757888648
 10
182.2412164393
 20
110.9078401059
 10
179.4949704561
 20
112.0533150949
 10
176.7506684665
 20
113.1943091732
 10
174.0083063664
 20
114.3308252281
 10
171.2678166061
 20
115.4628916635
 10
168.5292946754
 20
116.5904684114
 10
165.7929810516
 20
117.7134571108
 10
163.0589165415
 20
118.8318436423
 10
160.3270883162
 20
119.9456342277
 10
157.5976564244
 20
121.0547636188
 10
154.8708279465
 20
122.1591506041
 10
152.1464237412
 20
123.258871491
 10
149.4240245075
 20
124.3540954106
 10
146.7036296235
 20
125.4448210001
 10
143.9852675863
 20
126.5310380496
 10
141.2685627731
 20
127.6128968091
 10
138.5533381168
 20
128.6904641452
 10
135.8397986268
 20
129.7636555821
 10
133.1281418097
 20
130.8323929615
 10
130.4183782954
 20
131.8966713841
 10
127.7105254262
 20
132.9564816812
 10
125.0047907525
 20
134.0117419397
 10
122.301258516
 20
135.0624198195
 10
119.5998724162
 20
136.1085368104
 10
116.9006291709
 20
137.1500930225
 10
114.2035408226
 20
138.1870836501
 10
111.5086232857
 20
139.2195022695
 10
108.8158790926
 20
140.247346422
 10
106.1253220179
 20
141.2706106713
 10
103.4369662541
 20
142.2892892707
 10
100.7508149661
 20
143.3033792007
 10
98.0668839931
 20
144.3128742699
 10
95.3851854741
 20
145.3177695466
 10
92.7057170335
 20
146.3180637739
 10
90.0284872135
 20
147.3137527664
 10
87.3535154684
 20
148.3048295279
 10
84.680815798
 20
149.2912885255
  0
LINE
  5
371
100
AcDbEntity
  8
RACCORDO
100
AcDbLine
 62
7
  6
CONTINUOUS
 10
204.482178231
 20
101.6817707356
 11
215.315198564
 21
97.0072483383
  0
LWPOLYLINE
  5
372
100
AcDbEntity
  8
RACCORDO
100
AcDbPolyline
 62
7
  6
CONTINUOUS
 90
30
 70
0
 10
215.2261575375
 20
96.5602276427
 10
212.457641151
 20
97.7590605184
 10
209.6909538207
 20
98.9534535574
 10
206.9260990249
 20
100.1434058072
 10
204.1630745512
 20
101.3289182966
 10
201.4018895729
 20
102.5099880916
 10
198.6425646084
 20
103.6866082606
 10
195.8851008301
 20
104.8587787988
 10
193.1295039402
 20
106.0264977249
 10
190.3758011607
 20
107.1897550644
 10
187.6239962529
 20
108.3485496088
 10
184.8740922139
 20
109.502880476
 10
182.126115016
 20
110.6527380917
 10
179.3800708679
 20
111.7981201973
 10
176.6359602067
 20
112.9390268613
 10
173.8938002648
 20
114.0754519298
 10
171.1535124587
 20
115.207427198
 10
168.4151820703
 20
116.3349187206
 10
165.679071522
 20
117.4578212253
 10
162.9452096502
 20
118.5761205879
 10
160.2135729924
 20
119.6898276816
 10
157.4843445399
 20
120.798873917
 10
154.7577198764
 20
121.9031799586
 10
152.0335077119
 20
123.0028210132
 10
149.3113112142
 20
124.0979607073
 10
146.5911201429
 20
125.1886068802
 10
143.8729511118
 20
126.2747492839
 10
141.1564492726
 20
127.3565258085
 10
138.4414279237
 20
128.4340127359
 10
135.7280820229
 20
129.5071329007
  0
LWPOLYLINE
  5
373
100
AcDbEntity
  8
RACCORDO
100
AcDbPolyline
 62
7
  6
CONTINUOUS
 90
3
 70
0
 10
215.3436283493
 20
96.8141572807
 10
212.5749324999
 20
98.013085435
 10
209.8080446253
 20
99.207582199
  0
LWPOLYLINE
  5
374
100
AcDbEntity
  8
RACCORDO
100
AcDbPolyline
 62
7
  6
CONTINUOUS
 90
64
 70
0
 10
214.4034260862
 20
95.9024012702
 10
214.4053032379
 20
95.9015764169
 10
214.4084261253
 20
95.9001410422
 10
214.4116489068
 20
95.8985787976
 10
214.4149677545
 20
95.8968857613
 10
214.4183786923
 20
95.8950581521
 10
214.4218767252
 20
95.8930930522
 10
214.4254561775
 20
95.8909882051
 10
214.4291114307
 20
95.8887415151
 10
214.4328373038
 20
95.8863509061
 10
214.4366285937
 20
95.8838146737
 10
214.4404785677
 20
95.8811323585
 10
214.4443819709
 20
95.8783027356
 10
214.4483359069
 20
95.8753231079
 10
214.4523343809
 20
95.8721932192
 10
214.4563708935
 20
95.8689134547
 10
214.4604419096
 20
95.8654820161
 10
214.4645411227
 20
95.8618996777
 10
214.4686622023
 20
95.8581675389
 10
214.4728016905
 20
95.8542842491
 10
214.4769528695
 20
95.8502517067
 10
214.4811098226
 20
95.8460714503
 10
214.4852701802
 20
95.8417415242
 10
214.4894274519
 20
95.8372642514
 10
214.4935754351
 20
95.8326421005
 10
214.497711791
 20
95.8278733789
 10
214.5018300766
 20
95.8229610833
 10
214.5059240918
 20
95.8179083144
 10
214.5099916841
 20
95.8127133748
 10
214.5140270893
 20
95.8073790814
 10
214.5180237217
 20
95.8019096639
 10
214.5219780395
 20
95.7963054874
 10
214.5258842721
 20
95.7905701955
 10
214.5297364414
 20
95.7847080764
 10
214.5335305762
 20
95.7787205827
 10
214.5372608786
 20
95.7726122602
 10
214.5409218992
 20
95.766387501
 10
214.5445099956
 20
95.7600477717
 10
214.5480197873
 20
95.7535976558
 10
214.5514456502
 20
95.7470426873
 10
214.5547831875
 20
95.7403864016
 10
214.5580270199
 20
95.7336344953
 10
214.5611720237
 20
95.7267926215
 10
214.5642140213
 20
95.7198648112
 10
214.5671478624
 20
95.7128575639
 10
214.5699688303
 20
95.7057767964
 10
214.5726731984
 20
95.6986262981
 10
214.5752555668
 20
95.6914147087
 10
214.5777120919
 20
95.6841469344
 10
214.5800407492
 20
95.676822032
 10
214.5822362912
 20
95.6694488919
 10
214.5842944862
 20
95.6620338438
 10
214.5862135789
 20
95.6545734585
 10
214.5879883663
 20
95.6470763175
 10
214.5896138039
 20
95.6395516018
 10
214.5910868644
 20
95.6319988384
 10
214.5924022551
 20
95.6244275742
 10
214.5935546431
 20
95.6168494398
 10
214.5945398295
 20
95.6092698102
 10
214.5953527576
 20
95.6017001711
 10
214.5959884514
 20
95.5941544751
 10
214.5964425199
 20
95.586645233
 10
214.5967107795
 20
95.579187481
 10
214.5967902807
 20
95.5724587739
  0
LWPOLYLINE
  5
375
100
AcDbEntity
  8
RACCORDO
100
AcDbPolyline
 62
7
  6
CONTINUOUS
 90
27
 70
0
 10
83.9646512297
 20
148.6375345514
 10
83.9588836478
 20
148.6400757289
 10
83.9532809597
 20
148.6427355038
 10
83.9478505742
 20
148.645510359
 10
83.942599672
 20
148.6483966251
 10
83.9375351967
 20
148.6513904856
 10
83.9326638451
 20
148.6544879815
 10
83.9279920589
 20
148.6576850169
 10
83.9235260157
 20
148.6609773643
 10
83.9192716211
 20
148.6643606701
 10
83.9152345009
 20
148.6678304603
 10
83.9114199936
 20
148.6713821468
 10
83.9078331431
 20
148.675011033
 10
83.9044786925
 20
148.6787123203
 10
83.9013610776
 20
148.6824811144
 10
83.8984844209
 20
148.6863124316
 10
83.8958525263
 20
148.6902012056
 10
83.893468874
 20
148.6941422942
 10
83.891336616
 20
148.6981304859
 10
83.889458572
 20
148.702160507
 10
83.8878372252
 20
148.7062270284
 10
83.8864747198
 20
148.7103246729
 10
83.8853728573
 20
148.7144480218
 10
83.8845330948
 20
148.7185916229
 10
83.8839565428
 20
148.7227499968
 10
83.8836439636
 20
148.7269176448
 10
83.8835824156
 20
148.7297633827
  0
LWPOLYLINE
  5
376
100
AcDbEntity
  8
RACCORDO
100
AcDbPolyline
 62
7
  6
CONTINUOUS
 90
55
 70
0
 10
214.372182253
 20
95.990409557
 10
214.3797938158
 20
95.9870276388
 10
214.3874496956
 20
95.9834024432
 10
214.3951498924
 20
95.9795339703
 10
214.4029000012
 20
95.9754249145
 10
214.4106944277
 20
95.971072582
 10
214.4185163883
 20
95.9664688904
 10
214.4263658057
 20
95.9616135953
 10
214.4342427577
 20
95.9565069415
 10
214.4421306927
 20
95.9511415802
 10
214.4500301175
 20
95.9455169867
 10
214.4579405255
 20
95.939633686
 10
214.465843845
 20
95.9334859031
 10
214.4737413045
 20
95.9270723575
 10
214.4816316755
 20
95.9203943296
 10
214.4894932007
 20
95.9134498862
 10
214.497327451
 20
95.9062368766
 10
214.5051328552
 20
95.8987574511
 10
214.5128829424
 20
95.8910161267
 10
214.5205777133
 20
95.8830118967
 10
214.5282171667
 20
95.8747457673
 10
214.5357748287
 20
95.8662252742
 10
214.5432498641
 20
95.8574506826
 10
214.5506431073
 20
95.8484217266
 10
214.5579305887
 20
95.839145145
 10
214.5651127671
 20
95.8296199286
 10
214.5721891826
 20
95.8198470856
 10
214.579134488
 20
95.8098363816
 10
214.5859491423
 20
95.799586658
 10
214.5926326852
 20
95.7890990723
 10
214.59915839
 20
95.7783868634
 10
214.6055265648
 20
95.7674489855
 10
214.6117368999
 20
95.7562864831
 10
214.6177617415
 20
95.7449157315
 10
214.6236021962
 20
95.7333334473
 10
214.6292571558
 20
95.7215429126
 10
214.6346956442
 20
95.7095703498
 10
214.6399183213
 20
95.6974112669
 10
214.6449245254
 20
95.6850701546
 10
214.649681298
 20
95.6725867091
 10
214.6541876036
 20
95.6599585782
 10
214.6584444759
 20
95.6471881127
 10
214.66242206
 20
95.6343220636
 10
214.6661184377
 20
95.6213605823
 10
214.6695355256
 20
95.608303516
 10
214.67264922
 20
95.5951971593
 10
214.6754578947
 20
95.5820416678
 10
214.6779631746
 20
95.5688368848
 10
214.680145832
 20
95.5556286355
 10
214.6820044745
 20
95.5424161514
 10
214.6835404937
 20
95.5292002003
 10
214.6847388383
 20
95.5160289124
 10
214.6855944913
 20
95.5029183312
 10
214.6861124692
 20
95.4898524128
 10
214.686292772
 20
95.4768311571
  0
LWPOLYLINE
  5
377
100
AcDbEntity
  8
RACCORDO
100
AcDbPolyline
 62
7
  6
CONTINUOUS
 90
3
 70
0
 10
215.3152161991
 20
97.0072404167
 10
215.3480418536
 20
96.9924140392
 10
215.4562601463
 20
96.9352793566
  0
LWPOLYLINE
  5
378
100
AcDbEntity
  8
RACCORDO
100
AcDbPolyline
 62
7
  6
CONTINUOUS
 90
6
 70
0
 10
215.2997894604
 20
97.0511620144
 10
215.3416383443
 20
97.0321299644
 10
215.3832142913
 20
97.0114970554
 10
215.4245172927
 20
96.98926328
 10
215.4656254713
 20
96.9653843198
 10
215.5064606886
 20
96.9399044797
  0
LWPOLYLINE
  5
379
100
AcDbEntity
  8
RACCORDO
100
AcDbPolyline
 62
7
  6
CONTINUOUS
 90
7
 70
0
 10
216.2455926495
 20
95.7103965713
 10
216.2317416941
 20
95.7167358392
 10
216.2200589456
 20
95.7243778269
 10
216.2109112418
 20
95.7330825761
 10
216.2045858203
 20
95.7425767582
 10
216.201281299
 20
95.7525622563
 10
216.2007929656
 20
95.7582237846
  0
LWPOLYLINE
  5
37A
100
AcDbEntity
  8
RACCORDO
100
AcDbPolyline
 62
7
  6
CONTINUOUS
 90
7
 70
0
 10
66.364344733
 20
169.7829430589
 10
66.3007268643
 20
169.8155569664
 10
66.2477031997
 20
169.853900255
 10
66.2068178653
 20
169.8968563126
 10
66.1792615014
 20
169.9431741966
 10
66.1658365891
 20
169.991505063
 10
66.164520708
 20
170.0122978974
  0
LWPOLYLINE
  5
37B
100
AcDbEntity
  8
SUPERFICI
100
AcDbPolyline
 62
7
  6
CONTINUOUS
 90
3
 70
0
 10
175.6929630292
 20
77.419273585
 10
175.6927746806
 20
77.4200726952
 10
175.6920408942
 20
77.4206817217
  0
LINE
  5
37C
100
AcDbEntity
  8
SUPERFICI
100
AcDbLine
 62
7
  6
CONTINUOUS
 10
175.6625726582
 20
77.3879129443
 11
175.6625726582
 21
76.9854206839
  0
LINE
  5
37D
100
AcDbEntity
  8
SUPERFICI
100
AcDbLine
 62
7
  6
CONTINUOUS
 10
175.692963039
 20
77.418802212
 11
175.692963039
 21
77.0174030519
  0
LINE
  5
37E
100
AcDbEntity
  8
SUPERFICI
100
AcDbLine
 62
7
  6
CONTINUOUS
 10
174.9765795584
 20
76.3811555458
 11
174.9851929117
 21
76.4098417008
  0
LWPOLYLINE
  5
37F
100
AcDbEntity
  8
0
100
AcDbPolyline
 62
7
  6
CONTINUOUS
 90
6
 70
0
 10
153.4347311432
 20
81.3922010325
 10
153.4221102996
 20
81.3795999468
 10
153.4093101635
 20
81.3674119684
 10
153.3963315277
 20
81.3556404919
 10
153.3831735971
 20
81.344282119
 10
153.3757580086
 20
81.3381216582
  0
LINE
  5
380
100
AcDbEntity
  8
0
100
AcDbLine
 62
7
  6
CONTINUOUS
 10
157.2260972834
 20
84.7853124131
 11
156.0457468529
 21
83.7018520202
  0
LWPOLYLINE
  5
381
100
AcDbEntity
  8
SUPERFICI
100
AcDbPolyline
 62
7
  6
CONTINUOUS
 90
7
 70
0
 10
156.4985801148
 20
83.7104699086
 10
156.5025653423
 20
83.7138920373
 10
156.5139580513
 20
83.7253071575
 10
156.523988589
 20
83.7379922481
 10
156.5325740847
 20
83.7518678394
 10
156.539797409
 20
83.7670134012
 10
156.5456585619
 20
83.7834289334
  0
LWPOLYLINE
  5
382
100
AcDbEntity
  8
SUPERFICI
100
AcDbPolyline
 62
7
  6
CONTINUOUS
 90
10
 70
0
 10
157.2316516617
 20
84.7901863319
 10
157.2379460758
 20
84.7955743737
 10
157.2436474651
 20
84.8005719152
 10
157.2486939515
 20
84.8051635689
 10
157.2530281479
 20
84.8093491496
 10
157.2565824502
 20
84.8130875412
 10
157.259289341
 20
84.816295047
 10
157.2611023803
 20
84.8189162483
 10
157.261969503
 20
84.8209409374
 10
157.2620420327
 20
84.8215469725
  0
LINE
  5
383
100
AcDbEntity
  8
0
100
AcDbLine
 62
7
  6
CONTINUOUS
 10
157.2316516617
 20
84.3876940715
 11
156.3029420669
 21
83.598556624
  0
LWPOLYLINE
  5
384
100
AcDbEntity
  8
0
100
AcDbPolyline
 62
7
  6
CONTINUOUS
 90
70
 70
0
 10
153.1795192533
 20
81.6832178706
 10
153.1818123916
 20
81.6851156823
 10
153.1883428268
 20
81.6907433488
 10
153.1947913848
 20
81.6966468692
 10
153.2011620892
 20
81.7028297595
 10
153.207450917
 20
81.709288504
 10
153.2136270035
 20
81.7160134298
 10
153.2196930174
 20
81.7230106717
 10
153.2256462913
 20
81.7302740975
 10
153.231447958
 20
81.7377756352
 10
153.237098664
 20
81.7455231022
 10
153.242597765
 20
81.7535086868
 10
153.2479044577
 20
81.7616808748
 10
153.253014801
 20
81.7700374114
 10
153.2579327394
 20
81.7785805597
 10
153.262629298
 20
81.7872655837
 10
153.2671013424
 20
81.796087154
 10
153.2713520109
 20
81.8050506103
 10
153.2753617388
 20
81.8141272211
 10
153.2791277043
 20
81.8233172811
 10
153.2826527334
 20
81.8326205072
 10
153.285925733
 20
81.8420073018
 10
153.2889442968
 20
81.8514791963
 10
153.2917108355
 20
81.8610346712
 10
153.2942214805
 20
81.8706395528
 10
153.2964772633
 20
81.8802973211
 10
153.2984771566
 20
81.8900045077
 10
153.3002142039
 20
81.8997165156
 10
153.301687958
 20
81.9094411393
 10
153.30289887
 20
81.9191705953
 10
153.3038413294
 20
81.9288369178
 10
153.3045103349
 20
81.9384366214
 10
153.3049108911
 20
81.9479732005
 10
153.3050523961
 20
81.9573891565
 10
153.3049324937
 20
81.9666732794
 10
153.3045535422
 20
81.9758367852
 10
153.3039320101
 20
81.9848558124
 10
153.3030686471
 20
81.9937268018
 10
153.3019627047
 20
82.0024533163
 10
153.3006284042
 20
82.0110221759
 10
153.2990675621
 20
82.019430139
 10
153.2972783625
 20
82.0276804491
 10
153.2952695779
 20
82.0357696533
 10
153.2930400219
 20
82.0436982707
 10
153.2905908811
 20
82.0514657829
 10
153.2879344869
 20
82.05906718
 10
153.2850708691
 20
82.0665014837
 10
153.2819999976
 20
82.0737696718
 10
153.278734113
 20
82.080869668
 10
153.275271732
 20
82.0878062085
 10
153.2716143372
 20
82.0945745555
 10
153.2677786183
 20
82.1011584208
 10
153.2637633452
 20
82.1075589073
 10
153.2595697466
 20
82.1137749089
 10
153.2552182
 20
82.1197868223
 10
153.2507026104
 20
82.1255988937
 10
153.2460290708
 20
82.1312068724
 10
153.2412362401
 20
82.1365784075
 10
153.2363278581
 20
82.1417059001
 10
153.2313001823
 20
82.1465969424
 10
153.2261806477
 20
82.1512419695
 10
153.2209663857
 20
82.1556412729
 10
153.2156602622
 20
82.1597945538
 10
153.210298314
 20
82.1636913606
 10
153.2048862827
 20
82.1673264575
 10
153.199418424
 20
82.1707050725
 10
153.1939135453
 20
82.1738324496
 10
153.1883779151
 20
82.1767103345
 10
153.1828052623
 20
82.1793369741
 10
153.1771955856
 20
82.181712365
  0
LWPOLYLINE
  5
385
100
AcDbEntity
  8
0
100
AcDbPolyline
 62
7
  6
CONTINUOUS
 90
70
 70
0
 10
153.2523382325
 20
81.7428676871
 10
153.2546364534
 20
81.744769751
 10
153.2611671302
 20
81.7503978917
 10
153.2676159031
 20
81.7563018924
 10
153.2739867954
 20
81.762485271
 10
153.2802757841
 20
81.7689445099
 10
153.286451996
 20
81.775669921
 10
153.2925180982
 20
81.7826676411
 10
153.2984714249
 20
81.7899315362
 10
153.3042731041
 20
81.7974335136
 10
153.3099237807
 20
81.8051813901
 10
153.3154228121
 20
81.8131673546
 10
153.320729396
 20
81.8213398741
 10
153.3258395874
 20
81.8296966869
 10
153.3307573345
 20
81.8382400631
 10
153.3354536753
 20
81.8469252693
 10
153.3399254756
 20
81.8557469752
 10
153.3441758735
 20
81.8647105213
 10
153.3481853154
 20
81.8737871814
 10
153.3519509784
 20
81.8829772479
 10
153.3554756897
 20
81.8922804398
 10
153.3587483712
 20
81.9016671715
 10
153.3617666206
 20
81.911138977
 10
153.3645328448
 20
81.9206943342
 10
153.3670431791
 20
81.9302990733
 10
153.3692986554
 20
81.9399566732
 10
153.3712982461
 20
81.9496636667
 10
153.3730349971
 20
81.9593754645
 10
153.3745084615
 20
81.9690998657
 10
153.3757190902
 20
81.978829082
 10
153.3766612754
 20
81.9884951416
 10
153.3773300148
 20
81.9980945517
 10
153.3777303137
 20
82.0076308139
 10
153.377871575
 20
82.017046446
 10
153.377751444
 20
82.0263302421
 10
153.3773722774
 20
82.0354934139
 10
153.3767505437
 20
82.0445121044
 10
153.3758869933
 20
82.0533827527
 10
153.3747808769
 20
82.0621089233
 10
153.3734464139
 20
82.0706774449
 10
153.3718854199
 20
82.0790850797
 10
153.3700960798
 20
82.0873350674
 10
153.3680871656
 20
82.0954239529
 10
153.3658574912
 20
82.103352253
 10
153.3634082429
 20
82.1111194516
 10
153.3607517514
 20
82.1187205429
 10
153.3578880465
 20
82.1261545508
 10
153.3548170981
 20
82.1334224509
 10
153.3515511467
 20
82.1405221643
 10
153.3480887094
 20
82.1474584258
 10
153.3444312684
 20
82.154226499
 10
153.3405955116
 20
82.1608100979
 10
153.3365802081
 20
82.1672103265
 10
153.3323865874
 20
82.1734260776
 10
153.3280350272
 20
82.179437747
 10
153.3235194336
 20
82.1852495797
 10
153.3188458988
 20
82.1908573261
 10
153.3140530793
 20
82.1962286387
 10
153.309144715
 20
82.2013559191
 10
153.3041170635
 20
82.2062467589
 10
153.2989975571
 20
82.2108915946
 10
153.2937833268
 20
82.2152907185
 10
153.2884772387
 20
82.2194438309
 10
153.2831153284
 20
82.2233404807
 10
153.2777033377
 20
82.226975432
 10
153.2722355217
 20
82.2303539128
 10
153.266730686
 20
82.2334811668
 10
153.2611950983
 20
82.2363589397
 10
153.2556224882
 20
82.2389854784
 10
153.2500128544
 20
82.2413607796
  0
LINE
  5
386
100
AcDbEntity
  8
SUPERFICI
100
AcDbLine
 62
7
  6
CONTINUOUS
 10
156.4986384451
 20
83.7104915209
 11
156.3430668461
 21
83.582441608
  0
LINE
  5
387
100
AcDbEntity
  8
0
100
AcDbLine
 62
7
  6
CONTINUOUS
 10
156.5456585619
 20
83.7834289334
 11
156.3150474849
 21
83.5936948152
  0
LINE
  5
388
100
AcDbEntity
  8
0
100
AcDbLine
 62
7
  6
CONTINUOUS
 10
150.7943190562
 20
81.6905478111
 11
150.7215145624
 21
81.6309098611
  0
LINE
  5
389
100
AcDbEntity
  8
0
100
AcDbLine
 62
7
  6
CONTINUOUS
 10
151.3702501658
 20
81.916230443
 11
151.2974440193
 21
81.8565911392
  0
LINE
  5
38A
100
AcDbEntity
  8
0
100
AcDbLine
 62
7
  6
CONTINUOUS
 10
151.3165101516
 20
81.4807178593
 11
151.243703526
 21
81.4210781632
  0
LINE
  5
38B
100
AcDbEntity
  8
0
100
AcDbLine
 62
7
  6
CONTINUOUS
 10
152.8377626083
 20
82.4070208249
 11
152.7649491541
 21
82.347375535
  0
LINE
  5
38C
100
AcDbEntity
  8
0
100
AcDbLine
 62
7
  6
CONTINUOUS
 10
151.2696886852
 20
81.0216376567
 11
151.1968814726
 21
80.9619974797
  0
LINE
  5
38D
100
AcDbEntity
  8
0
100
AcDbLine
 62
7
  6
CONTINUOUS
 10
153.2500128524
 20
82.2413607804
 11
153.1771955836
 21
82.1817123658
  0
LINE
  5
38E
100
AcDbEntity
  8
0
100
AcDbLine
 62
7
  6
CONTINUOUS
 10
152.4970199345
 20
81.4633873575
 11
152.4242063352
 21
81.4037419488
  0
LINE
  5
38F
100
AcDbEntity
  8
0
100
AcDbLine
 62
7
  6
CONTINUOUS
 10
151.8605143492
 20
80.7841372402
 11
151.7877033569
 21
80.724493967
  0
LINE
  5
390
100
AcDbEntity
  8
SUPERFICI
100
AcDbLine
 62
7
  6
CONTINUOUS
 10
153.1795200122
 20
81.6832166733
 11
153.2523389917
 21
81.7428664893
  0
LINE
  5
391
100
AcDbEntity
  8
0
100
AcDbLine
 62
7
  6
CONTINUOUS
 10
152.7855601106
 20
81.3473966595
 11
152.7127438902
 21
81.2877491038
  0
LINE
  5
392
100
AcDbEntity
  8
0
100
AcDbLine
 62
7
  6
CONTINUOUS
 10
153.1495040117
 20
81.263428309
 11
153.0766842923
 21
81.203777887
  0
LINE
  5
393
100
AcDbEntity
  8
0
100
AcDbLine
 62
7
  6
CONTINUOUS
 10
152.8084728262
 20
80.4029413115
 11
152.7356532222
 21
80.343290984
  0
LWPOLYLINE
  5
394
100
AcDbEntity
  8
0
100
AcDbPolyline
 62
7
  6
CONTINUOUS
 90
23
 70
0
 10
153.3757580086
 20
81.3381216582
 10
153.3698512244
 20
81.3333335802
 10
153.3563545291
 20
81.3227887356
 10
153.3426933911
 20
81.3126537262
 10
153.3289123041
 20
81.3029437065
 10
153.3150097779
 20
81.2936592154
 10
153.3009873046
 20
81.2847997221
 10
153.286893853
 20
81.2763787798
 10
153.2727344801
 20
81.2683999593
 10
153.258504133
 20
81.2608597041
 10
153.2442366171
 20
81.2537608788
 10
153.2299224246
 20
81.2471003453
 10
153.2155710689
 20
81.2408812599
 10
153.2012448875
 20
81.2351159321
 10
153.1869376813
 20
81.2298063512
 10
153.1726556572
 20
81.224950551
 10
153.1584797631
 20
81.2205549105
 10
153.1444047997
 20
81.2166245295
 10
153.1304359757
 20
81.2131543349
 10
153.1166698522
 20
81.2101354485
 10
153.1031386198
 20
81.2075649206
 10
153.0898100981
 20
81.2054457288
 10
153.0766842923
 20
81.203777887
  0
LWPOLYLINE
  5
395
100
AcDbEntity
  8
0
100
AcDbPolyline
 62
7
  6
CONTINUOUS
 90
3
 70
0
 10
153.4114184081
 20
81.3694193877
 10
153.4017441251
 20
81.3626027049
 10
153.3878409401
 20
81.3533174064
  0
LWPOLYLINE
  5
396
100
AcDbEntity
  8
0
100
AcDbPolyline
 62
7
  6
CONTINUOUS
 90
3
 70
0
 10
153.3878409401
 20
81.3533174064
 10
153.3738177774
 20
81.3444571342
 10
153.3597236186
 20
81.3360354497
  0
LWPOLYLINE
  5
397
100
AcDbEntity
  8
0
100
AcDbPolyline
 62
7
  6
CONTINUOUS
 90
16
 70
0
 10
153.3597236186
 20
81.3360354497
 10
153.3455635201
 20
81.3280559247
 10
153.3313324298
 20
81.3205150014
 10
153.3170641683
 20
81.31341555
 10
153.3027492297
 20
81.3067544338
 10
153.2883971256
 20
81.3005348076
 10
153.2740702033
 20
81.2947689811
 10
153.2597622606
 20
81.2894589436
 10
153.2454795074
 20
81.2846027289
 10
153.2313029108
 20
81.2802067163
 10
153.2172272706
 20
81.2762760074
 10
153.2032577963
 20
81.2728055275
 10
153.1894910703
 20
81.2697863933
 10
153.1759592903
 20
81.2672156535
 10
153.1626302691
 20
81.2650962875
 10
153.1495040117
 20
81.263428309
  0
LINE
  5
398
100
AcDbEntity
  8
RACCORDO
100
AcDbLine
 62
7
  6
CONTINUOUS
 10
85.9608302535
 20
147.4251034598
 11
85.3702261547
 21
147.5457455766
  0
LWPOLYLINE
  5
399
100
AcDbEntity
  8
RACCORDO
100
AcDbPolyline
 62
7
  6
CONTINUOUS
 90
9
 70
0
 10
85.4336569903
 20
147.6982093317
 10
85.4344758845
 20
147.6980382271
 10
85.4360299312
 20
147.6976828504
 10
85.4376946724
 20
147.6972608499
 10
85.439457824
 20
147.696770973
 10
85.4413138062
 20
147.6962108974
 10
85.4432560081
 20
147.6955790294
 10
85.4452693443
 20
147.6948774502
 10
85.4462373882
 20
147.69452399
  0
LWPOLYLINE
  5
39A
100
AcDbEntity
  8
RACCORDO
100
AcDbPolyline
 62
7
  6
CONTINUOUS
 90
10
 70
0
 10
234.3176030475
 20
102.3291281022
 10
234.3927930037
 20
102.305993637
 10
234.4737460201
 20
102.290528826
 10
234.5581046395
 20
102.2831840368
 10
234.6434122278
 20
102.2841731715
 10
234.7271845012
 20
102.2934674373
 10
234.8069818737
 20
102.3107961798
 10
234.8804805194
 20
102.3356547664
 10
234.9455400449
 20
102.3673192854
 10
235.0002658094
 20
102.4048676241
  0
LINE
  5
39B
100
AcDbEntity
  8
RACCORDO
100
AcDbLine
 62
7
  6
CONTINUOUS
 10
84.573163051
 20
149.5515321366
 11
84.6145956324
 21
149.5372820845
  0
LINE
  5
39C
100
AcDbEntity
  8
RACCORDO
100
AcDbLine
 62
7
  6
CONTINUOUS
 10
84.6061303508
 20
149.501187494
 11
84.6394650727
 21
149.4895719235
  0
LWPOLYLINE
  5
39D
100
AcDbEntity
  8
RACCORDO
100
AcDbPolyline
 62
7
  6
CONTINUOUS
 90
38
 70
0
 10
84.680815798
 20
149.2912885255
 10
84.6622589984
 20
149.2977743407
 10
84.6437367706
 20
149.3038154997
 10
84.6252591106
 20
149.3094090517
 10
84.6068363185
 20
149.3145524396
 10
84.5884779971
 20
149.3192430288
 10
84.5701930521
 20
149.3234780803
 10
84.5519911697
 20
149.3272555878
 10
84.5338823357
 20
149.3305737261
 10
84.5158758346
 20
149.3334303718
 10
84.4979814139
 20
149.3358242085
 10
84.4802086576
 20
149.3377541968
 10
84.4625665086
 20
149.3392190003
 10
84.4450644408
 20
149.3402180333
 10
84.4277118881
 20
149.34075097
 10
84.4105176154
 20
149.3408172254
 10
84.3934908471
 20
149.3404169399
 10
84.3766407516
 20
149.3395505172
 10
84.3599758695
 20
149.3382181324
 10
84.3435051441
 20
149.3364206547
 10
84.3272374213
 20
149.3341592152
 10
84.3111809339
 20
149.3314347455
 10
84.2953442857
 20
149.3282488361
 10
84.2797359758
 20
149.3246033384
 10
84.2643638999
 20
149.3204999317
 10
84.2492362792
 20
149.3159409175
 10
84.23436123
 20
149.3109288583
 10
84.2197462907
 20
149.3054661752
 10
84.2053992684
 20
149.2995558715
 10
84.1913278514
 20
149.2932012072
 10
84.1775391821
 20
149.2864053324
 10
84.1640406171
 20
149.2791719383
 10
84.1508393802
 20
149.2715049661
 10
84.1379421794
 20
149.2634082759
 10
84.125355884
 20
149.2548862266
 10
84.1130872231
 20
149.2459434228
 10
84.1011424436
 20
149.2365844169
 10
84.0889216827
 20
149.2262850393
  0
LWPOLYLINE
  5
39E
100
AcDbEntity
  8
RACCORDO
100
AcDbPolyline
 62
7
  6
CONTINUOUS
 90
10
 70
0
 10
236.1456005267
 20
106.9813749879
 10
217.3897686435
 20
114.0581512671
 10
198.7257654193
 20
121.212044248
 10
180.1535908542
 20
128.4430539305
 10
161.672210049
 20
135.7515959535
 10
143.2826579028
 20
143.1372546781
 10
124.9880391132
 20
150.598783188
 10
106.7893885791
 20
158.1357658441
 10
88.6856714015
 20
165.7486182855
 10
70.6768875804
 20
173.437340512
  0
LWPOLYLINE
  5
39F
100
AcDbEntity
  8
RACCORDO
100
AcDbPolyline
 62
7
  6
CONTINUOUS
 90
10
 70
0
 10
233.0604130328
 20
104.0282683725
 10
214.3034643947
 20
111.1060997603
 10
195.6364022308
 20
118.2616559835
 10
177.0602053916
 20
125.4945614128
 10
158.5758630404
 20
132.8044303513
 10
140.184329194
 20
140.1908849664
 10
121.8865234346
 20
147.6535559346
 10
103.6833910624
 20
155.1920582832
 10
85.5759022823
 20
162.8059907854
 10
67.565007279
 20
170.4949543299
  0
LWPOLYLINE
  5
3A0
100
AcDbEntity
  8
RACCORDO
100
AcDbPolyline
 62
7
  6
CONTINUOUS
 90
10
 70
0
 10
233.3337025451
 20
104.6780030079
 10
214.5781801815
 20
111.7553159974
 10
195.9144686873
 20
118.9095875567
 10
177.3425680626
 20
126.140817686
 10
158.8615228619
 20
133.449390085
 10
140.4722885307
 20
140.834921054
 10
122.1777314052
 20
148.2962594931
 10
103.9788069307
 20
155.8330217025
 10
85.8745596619
 20
163.4455913821
 10
67.8649895987
 20
171.133968532
  0
LINE
  5
3A1
100
AcDbEntity
  8
DRAFT
100
AcDbLine
 62
7
  6
CONTINUOUS
 10
72.0256986894
 20
173.723069845
 11
237.4944116358
 21
107.2671043209
  0
LWPOLYLINE
  5
3A2
100
AcDbEntity
  8
RACCORDO
100
AcDbPolyline
 62
7
  6
CONTINUOUS
 90
18
 70
0
 10
67.8649895987
 20
171.133968532
 10
67.7981861745
 20
171.160814967
 10
67.7290604639
 20
171.1856104208
 10
67.6577630004
 20
171.207983043
 10
67.5845261789
 20
171.2275381801
 10
67.509506347
 20
171.2438903025
 10
67.4327903977
 20
171.256639609
 10
67.3543733924
 20
171.2653688388
 10
67.2748774523
 20
171.2695676834
 10
67.1953499363
 20
171.2687962101
 10
67.1161090602
 20
171.2627355194
 10
67.0375646485
 20
171.2510794966
 10
66.9608253068
 20
171.2337150788
 10
66.886278502
 20
171.2105464009
 10
66.8142129448
 20
171.1814713207
 10
66.7454503136
 20
171.1466808235
 10
66.6802484806
 20
171.106242735
 10
66.6243573951
 20
171.064719261
  0
LWPOLYLINE
  5
3A3
100
AcDbEntity
  8
RACCORDO
100
AcDbPolyline
 62
7
  6
CONTINUOUS
 90
17
 70
0
 10
67.565007279
 20
170.4949543299
 10
67.5149591122
 20
170.5158157629
 10
67.4634399414
 20
170.5345709053
 10
67.4104498356
 20
170.5512198094
 10
67.3558427655
 20
170.5660730055
 10
67.2997649087
 20
170.5788200768
 10
67.2426546254
 20
170.5885296413
 10
67.1842326591
 20
170.5951914096
 10
67.1247783845
 20
170.5988157612
 10
67.0655680189
 20
170.5985022488
 10
67.0065789261
 20
170.5940836777
 10
66.9478337172
 20
170.5857272233
 10
66.8906763405
 20
170.5730338857
 10
66.8352027095
 20
170.5558294538
 10
66.7813167452
 20
170.5342880122
 10
66.730074289
 20
170.5085329144
 10
66.6815720689
 20
170.4783960688
  0
LWPOLYLINE
  5
3A4
100
AcDbEntity
  8
RACCORDO
100
AcDbPolyline
 62
7
  6
CONTINUOUS
 90
4
 70
0
 10
215.4562601463
 20
96.9352793566
 10
215.5623719681
 20
96.8664368303
 10
215.6646693551
 20
96.7868969966
 10
215.7615509016
 20
96.6978582004
  0
LWPOLYLINE
  5
3A5
100
AcDbEntity
  8
RACCORDO
100
AcDbPolyline
 62
7
  6
CONTINUOUS
 90
10
 70
0
 10
215.5064606886
 20
96.9399044797
 10
215.5467885364
 20
96.9129566799
 10
215.5866067343
 20
96.8845297795
 10
215.6259175314
 20
96.8546348924
 10
215.6644932995
 20
96.8234383093
 10
215.7023266491
 20
96.7909334278
 10
215.7394249264
 20
96.7571268129
 10
215.7755825956
 20
96.7222044961
 10
215.8107892801
 20
96.6861658518
 10
215.8450553047
 20
96.6490114607
  0
LWPOLYLINE
  5
3A6
100
AcDbEntity
  8
SUPERFICI
100
AcDbPolyline
 62
7
  6
CONTINUOUS
 90
3
 70
0
 10
194.1238840257
 20
70.0170001974
 10
194.1236956771
 20
70.0177993076
 10
194.1229618907
 20
70.0184083341
  0
LINE
  5
3A7
100
AcDbEntity
  8
SUPERFICI
100
AcDbLine
 62
7
  6
CONTINUOUS
 10
194.0934936547
 20
69.9856395567
 11
194.0934936547
 21
69.5831472963
  0
LINE
  5
3A8
100
AcDbEntity
  8
SUPERFICI
100
AcDbLine
 62
7
  6
CONTINUOUS
 10
194.1238840355
 20
70.0165288244
 11
194.1238840355
 21
69.6151296643
  0
LINE
  5
3A9
100
AcDbEntity
  8
0
100
AcDbLine
 62
7
  6
CONTINUOUS
 10
175.6570182799
 20
77.3830390255
 11
174.4766678494
 21
76.2995786326
  0
LWPOLYLINE
  5
3AA
100
AcDbEntity
  8
SUPERFICI
100
AcDbPolyline
 62
7
  6
CONTINUOUS
 90
7
 70
0
 10
174.9295011113
 20
76.308196521
 10
174.9334863388
 20
76.3116186497
 10
174.9448790478
 20
76.3230337699
 10
174.9549095855
 20
76.3357188605
 10
174.9634950812
 20
76.3495944518
 10
174.9707184055
 20
76.3647400136
 10
174.9765795584
 20
76.3811555458
  0
LWPOLYLINE
  5
3AB
100
AcDbEntity
  8
SUPERFICI
100
AcDbPolyline
 62
7
  6
CONTINUOUS
 90
10
 70
0
 10
175.6625726582
 20
77.3879129443
 10
175.6688670723
 20
77.3933009861
 10
175.6745684616
 20
77.3982985276
 10
175.679614948
 20
77.4028901813
 10
175.6839491444
 20
77.407075762
 10
175.6875034467
 20
77.4108141536
 10
175.6902103375
 20
77.4140216594
 10
175.6920233768
 20
77.4166428607
 10
175.6928904995
 20
77.4186675498
 10
175.6929630292
 20
77.419273585
  0
LINE
  5
3AC
100
AcDbEntity
  8
0
100
AcDbLine
 62
7
  6
CONTINUOUS
 10
175.6625726582
 20
76.9854206839
 11
174.7338630634
 21
76.1962832364
  0
LINE
  5
3AD
100
AcDbEntity
  8
SUPERFICI
100
AcDbLine
 62
7
  6
CONTINUOUS
 10
174.9295594416
 20
76.3082181333
 11
174.7739878426
 21
76.1801682204
  0
LINE
  5
3AE
100
AcDbEntity
  8
0
100
AcDbLine
 62
7
  6
CONTINUOUS
 10
174.9765795584
 20
76.3811555458
 11
174.7459684814
 21
76.1914214276
  0
LINE
  5
3AF
100
AcDbEntity
  8
RACCORDO
100
AcDbLine
 62
7
  6
CONTINUOUS
 10
215.3436283493
 20
96.8141572807
 11
215.4765261776
 21
96.9221312948
  0
LINE
  5
3B0
100
AcDbEntity
  8
0
100
AcDbLine
 62
7
  6
CONTINUOUS
 10
170.7249340383
 20
79.3638752482
 11
169.3536000702
 21
78.3571181496
  0
LINE
  5
3B1
100
AcDbEntity
  8
SUPERFICI
100
AcDbLine
 62
7
  6
CONTINUOUS
 10
170.7393938269
 20
79.3730885739
 11
170.7313871285
 21
79.368388224
  0
LWPOLYLINE
  5
3B2
100
AcDbEntity
  8
RACCORDO
100
AcDbPolyline
 62
7
  6
CONTINUOUS
 90
9
 70
0
 10
84.2631799651
 20
149.5973200999
 10
84.3001952392
 20
149.5980895022
 10
84.3377260977
 20
149.5969711433
 10
84.3757028119
 20
149.5940250809
 10
84.4140351809
 20
149.5893011807
 10
84.4528134336
 20
149.5827495987
 10
84.492238491
 20
149.5742808314
 10
84.532377345
 20
149.5638650583
 10
84.573163051
 20
149.5515321366
  0
LWPOLYLINE
  5
3B3
100
AcDbEntity
  8
DRAFT
100
AcDbPolyline
 62
7
  6
CONTINUOUS
 90
12
 70
0
 10
237.4944116358
 20
107.2671043209
 10
237.5139055684
 20
107.2590431299
 10
237.5333884594
 20
107.2505225284
 10
237.5528492735
 20
107.2415473426
 10
237.572276988
 20
107.2321226561
 10
237.5916605987
 20
107.2222538073
 10
237.6109891265
 20
107.2119463858
 10
237.6302516236
 20
107.2012062299
 10
237.6494371795
 20
107.190039423
 10
237.6685349273
 20
107.1784522901
 10
237.6875340498
 20
107.1664513942
 10
237.6946053142
 20
107.1618626175
  0
LWPOLYLINE
  5
3B4
100
AcDbEntity
  8
RACCORDO
100
AcDbPolyline
 62
7
  6
CONTINUOUS
 90
16
 70
0
 10
236.1456005267
 20
106.9813749879
 10
236.3233514026
 20
106.9052469993
 10
236.4957214895
 20
106.8140896216
 10
236.6627100852
 20
106.7079022384
 10
236.8262065674
 20
106.5850038946
 10
236.9843203697
 20
106.4470745017
 10
237.1313802338
 20
106.2991541808
 10
237.266613807
 20
106.1414351687
 10
237.3907910304
 20
105.9737231084
 10
237.5005532387
 20
105.8004774848
 10
237.5958135796
 20
105.6208726084
 10
237.6766566709
 20
105.4357322031
 10
237.7399807877
 20
105.2519896396
 10
237.7847514668
 20
105.0719555531
 10
237.812001715
 20
104.893318027
 10
237.8217311725
 20
104.7160767442
  0
LINE
  5
3B5
100
AcDbEntity
  8
0
100
AcDbLine
 62
7
  6
CONTINUOUS
 10
237.6946053142
 20
107.1618626175
 11
237.8812966932
 21
107.0398306023
  0
LWPOLYLINE
  5
3B6
100
AcDbEntity
  8
DRAFT
100
AcDbPolyline
 62
7
  6
CONTINUOUS
 90
39
 70
0
 10
237.6946053142
 20
107.1618626175
 10
237.7064237857
 20
107.1540435327
 10
237.7251934357
 20
107.1412357337
 10
237.7438323684
 20
107.1280352516
 10
237.7623300266
 20
107.1144495633
 10
237.7806759329
 20
107.1004863638
 10
237.7988596961
 20
107.0861535621
 10
237.8168710167
 20
107.0714592765
 10
237.8346996929
 20
107.0564118298
 10
237.8523356263
 20
107.0410197452
 10
237.8697688278
 20
107.0252917409
 10
237.886989423
 20
107.0092367253
 10
237.9039876579
 20
106.9928637924
 10
237.9207539047
 20
106.9761822157
 10
237.9372786666
 20
106.959201444
 10
237.953552584
 20
106.9419310954
 10
237.9695664391
 20
106.9243809519
 10
237.9853111614
 20
106.9065609541
 10
238.000777833
 20
106.8884811955
 10
238.0159576935
 20
106.8701519167
 10
238.0308421447
 20
106.8515834995
 10
238.045422756
 20
106.8327864613
 10
238.0596912688
 20
106.8137714489
 10
238.0736396011
 20
106.7945492327
 10
238.0872598526
 20
106.7751307003
 10
238.1005443086
 20
106.7555268505
 10
238.1134854446
 20
106.7357487872
 10
238.1260759306
 20
106.715807713
 10
238.1383086353
 20
106.6957149226
 10
238.1501766298
 20
106.6754817967
 10
238.1616731921
 20
106.6551197958
 10
238.1727918104
 20
106.634640453
 10
238.183526187
 20
106.614055368
 10
238.1938702417
 20
106.5933762004
 10
238.2038181157
 20
106.5726146632
 10
238.2133641743
 20
106.5517825159
 10
238.2225030106
 20
106.5308915581
 10
238.2312294482
 20
106.5099536225
 10
238.2337632144
 20
106.5036723537
  0
LWPOLYLINE
  5
3B7
100
AcDbEntity
  8
RACCORDO
100
AcDbPolyline
 62
7
  6
CONTINUOUS
 90
6
 70
0
 10
215.7615509016
 20
96.6978582004
 10
215.8515739427
 20
96.600636592
 10
215.9334501549
 20
96.4966323619
 10
216.005915278
 20
96.3875085376
 10
216.067994031
 20
96.2748488323
 10
216.1189532119
 20
96.1600592485
  0
LWPOLYLINE
  5
3B8
100
AcDbEntity
  8
RACCORDO
100
AcDbPolyline
 62
7
  6
CONTINUOUS
 90
10
 70
0
 10
215.8450553047
 20
96.6490114607
 10
215.878206176
 20
96.6109291566
 10
215.910235506
 20
96.5719174164
 10
215.9411496266
 20
96.5319777146
 10
215.9707931172
 20
96.4913023751
 10
215.9991644811
 20
96.4498822618
 10
216.0262651583
 20
96.4077264617
 10
216.0519441282
 20
96.365054629
 10
216.0761968703
 20
96.3218562381
 10
216.0990278505
 20
96.2781417672
  0
LWPOLYLINE
  5
3B9
100
AcDbEntity
  8
SUPERFICI
100
AcDbPolyline
 62
7
  6
CONTINUOUS
 90
3
 70
0
 10
212.5548050222
 20
62.6966419646
 10
212.5546155425
 20
62.6974430628
 10
212.553882836
 20
62.698050212
  0
LWPOLYLINE
  5
3BA
100
AcDbEntity
  8
RACCORDO
100
AcDbPolyline
 62
7
  6
CONTINUOUS
 90
26
 70
0
 10
215.2261575375
 20
56.004056896
 10
215.226568866
 20
55.9979512404
 10
215.2271304373
 20
55.9919844761
 10
215.2278414847
 20
55.9861647491
 10
215.2287010375
 20
55.9805000043
 10
215.2297079223
 20
55.9749979755
 10
215.2308607644
 20
55.969666174
 10
215.2321579899
 20
55.9645118788
 10
215.233597828
 20
55.9595421265
 10
215.2351783129
 20
55.954763702
 10
215.2368972869
 20
55.9501831287
 10
215.2387524032
 20
55.9458066601
 10
215.2407411293
 20
55.9416402709
 10
215.2428607502
 20
55.9376896492
 10
215.2451083721
 20
55.9339601883
 10
215.2474809265
 20
55.9304569798
 10
215.2499751744
 20
55.9271848061
 10
215.2525877107
 20
55.9241481346
 10
215.2553149687
 20
55.9213511109
 10
215.2581532252
 20
55.9187975535
 10
215.2610986052
 20
55.9164909486
 10
215.2641470879
 20
55.9144344451
 10
215.2672945114
 20
55.9126308506
 10
215.2705365787
 20
55.9110826273
 10
215.2738688638
 20
55.909791889
 10
215.2745716079
 20
55.9095563532
  0
LWPOLYLINE
  5
3BB
100
AcDbEntity
  8
RACCORDO
100
AcDbPolyline
 62
7
  6
CONTINUOUS
 90
28
 70
0
 10
214.3721822577
 20
57.2231540555
 10
214.3719428543
 20
57.2291310636
 10
214.3718426651
 20
57.2352207341
 10
214.371881816
 20
57.2414154127
 10
214.3720602578
 20
57.2477073131
 10
214.3723777663
 20
57.2540885268
 10
214.3728339423
 20
57.2605510331
 10
214.3734282124
 20
57.267086709
 10
214.3741598298
 20
57.2736873396
 10
214.3750278748
 20
57.2803446285
 10
214.3760312563
 20
57.2870502078
 10
214.3771687131
 20
57.2937956492
 10
214.3784388156
 20
57.3005724739
 10
214.3798399674
 20
57.3073721641
 10
214.3813704072
 20
57.314186173
 10
214.3830282114
 20
57.3210059358
 10
214.3848112962
 20
57.3278228807
 10
214.3867174205
 20
57.334628439
 10
214.3887441884
 20
57.3414140568
 10
214.3908890524
 20
57.348171205
 10
214.3931493165
 20
57.3548913902
 10
214.3955221397
 20
57.3615661658
 10
214.3980045396
 20
57.3681871419
 10
214.4005933959
 20
57.3747459964
 10
214.4032854546
 20
57.3812344853
 10
214.4060773321
 20
57.3876444531
 10
214.408965519
 20
57.3939678428
 10
214.4119463852
 20
57.4001967063
  0
LWPOLYLINE
  5
3BC
100
AcDbEntity
  8
RACCORDO
100
AcDbPolyline
 62
7
  6
CONTINUOUS
 90
6
 70
0
 10
215.299789523
 20
97.0511620686
 10
215.2998333183
 20
97.0379768863
 10
215.3015569708
 20
97.0266485138
 10
215.3049080134
 20
97.0175217799
 10
215.3097844425
 20
97.0108744968
 10
215.3151984631
 20
97.0072481048
  0
LINE
  5
3BD
100
AcDbEntity
  8
SUPERFICI
100
AcDbLine
 62
7
  6
CONTINUOUS
 10
212.5244146512
 20
62.6652813736
 11
212.5244146512
 21
62.1808739087
  0
LINE
  5
3BE
100
AcDbEntity
  8
SUPERFICI
100
AcDbLine
 62
7
  6
CONTINUOUS
 10
212.554805032
 20
62.6961694912
 11
212.554805032
 21
62.2128563175
  0
LINE
  5
3BF
100
AcDbEntity
  8
RACCORDO
100
AcDbLine
 62
7
  6
CONTINUOUS
 10
214.5967903036
 20
95.5724487671
 11
214.5967903036
 21
57.5934770447
  0
LINE
  5
3C0
100
AcDbEntity
  8
RACCORDO
100
AcDbLine
 62
7
  6
CONTINUOUS
 10
214.686292772
 20
95.4768311571
 11
214.686292772
 21
57.4978594348
  0
LWPOLYLINE
  5
3C1
100
AcDbEntity
  8
RACCORDO
100
AcDbPolyline
 62
7
  6
CONTINUOUS
 90
10
 70
0
 10
215.2997895908
 20
55.5947230573
 10
215.2998334092
 20
55.6099691165
 10
215.3015570756
 20
55.6262065778
 10
215.304908123
 20
55.6429411858
 10
215.3097845483
 20
55.6596635523
 10
215.3160379169
 20
55.6758646618
 10
215.3234778812
 20
55.6910513653
 10
215.3318779746
 20
55.7047613917
 10
215.3409825051
 20
55.7165774187
 10
215.3505143378
 20
55.7261397758
  0
LWPOLYLINE
  5
3C2
100
AcDbEntity
  8
RACCORDO
100
AcDbPolyline
 62
7
  6
CONTINUOUS
 90
17
 70
0
 10
214.5967903073
 20
57.5934728849
 10
214.5967344141
 20
57.5879067304
 10
214.596505001
 20
57.5810073857
 10
214.5961075452
 20
57.5743704132
 10
214.5955526349
 20
57.568005278
 10
214.594852325
 20
57.561926813
 10
214.5940187605
 20
57.5561412206
 10
214.5930646374
 20
57.5506542441
 10
214.5920051179
 20
57.5454797733
 10
214.590854571
 20
57.5406213338
 10
214.5896281441
 20
57.5360825071
 10
214.5883447792
 20
57.5318759225
 10
214.5870218894
 20
57.5280034372
 10
214.5856763903
 20
57.5244626315
 10
214.5843286412
 20
57.5212572485
 10
214.5829980237
 20
57.5183850355
 10
214.5826380452
 20
57.5176537027
  0
LWPOLYLINE
  5
3C3
100
AcDbEntity
  8
RACCORDO
100
AcDbPolyline
 62
7
  6
CONTINUOUS
 90
55
 70
0
 10
214.686292772
 20
57.4978594348
 10
214.6861126919
 20
57.4849772174
 10
214.6855947274
 20
57.4723056451
 10
214.6847388786
 20
57.4598447182
 10
214.6835403154
 20
57.4475823428
 10
214.6820038684
 20
57.4355306132
 10
214.6801440292
 20
57.4237258115
 10
214.6779593362
 20
57.4121693626
 10
214.675451252
 20
57.4008598425
 10
214.6726386535
 20
57.3898292595
 10
214.6695195957
 20
57.3790781872
 10
214.666096025
 20
57.3686060532
 10
214.6623926558
 20
57.3584431474
 10
214.658407452
 20
57.3485911925
 10
214.6541424513
 20
57.3390484672
 10
214.6496284786
 20
57.3298400955
 10
214.6448648778
 20
57.32097
 10
214.6398523069
 20
57.3124342597
 10
214.6346235619
 20
57.3042462333
 10
214.6291796577
 20
57.2964100036
 10
214.6235195811
 20
57.2889214894
 10
214.6176730865
 20
57.2817818032
 10
214.6116407537
 20
57.2749926126
 10
214.6054220046
 20
57.2685522517
 10
214.5990448565
 20
57.2624568321
 10
214.5925094851
 20
57.2567072292
 10
214.5858157163
 20
57.2513025692
 10
214.5789910433
 20
57.2462363402
 10
214.5720364175
 20
57.2415097039
 10
214.564950889
 20
57.2371214998
 10
214.5577590981
 20
57.2330617335
 10
214.5504606631
 20
57.2293307028
 10
214.5430559671
 20
57.2259281109
 10
214.5355707978
 20
57.2228430702
 10
214.5280044882
 20
57.2200762657
 10
214.5203577062
 20
57.2176270132
 10
214.5126582415
 20
57.215482371
 10
214.5049070817
 20
57.2136435311
 10
214.4971032399
 20
57.2121093021
 10
214.4892715438
 20
57.2108631667
 10
214.4814128049
 20
57.2099058688
 10
214.473526212
 20
57.209236665
 10
214.4656341582
 20
57.2088368061
 10
214.4577375837
 20
57.2087067559
 10
214.4498355482
 20
57.2088460508
 10
214.4419476237
 20
57.2092345512
 10
214.4340746293
 20
57.2098724818
 10
214.4262157456
 20
57.2107596178
 10
214.4183880866
 20
57.2118751444
 10
214.4105947575
 20
57.2132183757
 10
214.4028326527
 20
57.2147899974
 10
214.3951095702
 20
57.2165712517
 10
214.3874281093
 20
57.218555886
 10
214.3797856703
 20
57.2207501526
 10
214.372182253
 20
57.2231540513
  0
LWPOLYLINE
  5
3C4
100
AcDbEntity
  8
RACCORDO
100
AcDbPolyline
 62
7
  6
CONTINUOUS
 90
25
 70
0
 10
214.3721822646
 20
95.9904095671
 10
214.3719428604
 20
95.9847876444
 10
214.3718426705
 20
95.9792929631
 10
214.3718818207
 20
95.9739324298
 10
214.3720602618
 20
95.9687127822
 10
214.3723777696
 20
95.9636405811
 10
214.3728339449
 20
95.9587222018
 10
214.3734282144
 20
95.9539638265
 10
214.3741598311
 20
95.9493714361
 10
214.3750278755
 20
95.9449508029
 10
214.3760312564
 20
95.9407074834
 10
214.3771687126
 20
95.9366468111
 10
214.3784388146
 20
95.93277389
 10
214.3798399658
 20
95.9290935881
 10
214.381370405
 20
95.9256105312
 10
214.3830282087
 20
95.9223290974
 10
214.3848112931
 20
95.9192534113
 10
214.386717417
 20
95.9163873386
 10
214.3887441844
 20
95.9137344819
 10
214.390889048
 20
95.9112981756
 10
214.3931493117
 20
95.9090814821
 10
214.3955221345
 20
95.9070871875
 10
214.3980045341
 20
95.9053177985
 10
214.4005933901
 20
95.9037755391
 10
214.403425127
 20
95.9024016843
  0
LINE
  5
3C5
100
AcDbEntity
  8
SUPERFICI
100
AcDbLine
 62
7
  6
CONTINUOUS
 10
193.4075005549
 20
68.9788821582
 11
193.4161139082
 21
69.0075683132
  0
LINE
  5
3C6
100
AcDbEntity
  8
0
100
AcDbLine
 62
7
  6
CONTINUOUS
 10
194.0879392764
 20
69.980765638
 11
192.9075888459
 21
68.8973052451
  0
LINE
  5
3C7
100
AcDbEntity
  8
DRAFT
100
AcDbLine
 62
7
  6
CONTINUOUS
 10
236.7747226558
 20
106.6237037331
 11
237.4944116358
 21
107.2671043209
  0
LWPOLYLINE
  5
3C8
100
AcDbEntity
  8
SUPERFICI
100
AcDbPolyline
 62
7
  6
CONTINUOUS
 90
7
 70
0
 10
193.3604221078
 20
68.9059231334
 10
193.3644073353
 20
68.9093452621
 10
193.3758000443
 20
68.9207603823
 10
193.385830582
 20
68.9334454729
 10
193.3944160777
 20
68.9473210642
 10
193.401639402
 20
68.962466626
 10
193.4075005549
 20
68.9788821582
  0
LWPOLYLINE
  5
3C9
100
AcDbEntity
  8
SUPERFICI
100
AcDbPolyline
 62
7
  6
CONTINUOUS
 90
10
 70
0
 10
194.0934936547
 20
69.9856395567
 10
194.0997880688
 20
69.9910275986
 10
194.1054894581
 20
69.99602514
 10
194.1105359445
 20
70.0006167937
 10
194.1148701409
 20
70.0048023744
 10
194.1184244432
 20
70.008540766
 10
194.121131334
 20
70.0117482718
 10
194.1229443733
 20
70.0143694731
 10
194.123811496
 20
70.0163941622
 10
194.1238840257
 20
70.0170001974
  0
LINE
  5
3CA
100
AcDbEntity
  8
0
100
AcDbLine
 62
7
  6
CONTINUOUS
 10
194.0934936547
 20
69.5831472963
 11
193.1647840599
 21
68.7940098488
  0
LINE
  5
3CB
100
AcDbEntity
  8
SUPERFICI
100
AcDbLine
 62
7
  6
CONTINUOUS
 10
193.3604804381
 20
68.9059447457
 11
193.2049088391
 21
68.7778948329
  0
LINE
  5
3CC
100
AcDbEntity
  8
0
100
AcDbLine
 62
7
  6
CONTINUOUS
 10
193.4075005549
 20
68.9788821582
 11
193.1768894779
 21
68.78914804
  0
LINE
  5
3CD
100
AcDbEntity
  8
RACCORDO
100
AcDbLine
 62
7
  6
CONTINUOUS
 10
233.3337025451
 20
104.6780030079
 11
236.1456005267
 21
106.9813749879
  0
LINE
  5
3CE
100
AcDbEntity
  8
RACCORDO
100
AcDbLine
 62
7
  6
CONTINUOUS
 10
235.0002658094
 20
102.4048676241
 11
237.8217311725
 21
104.7160767442
  0
LINE
  5
3CF
100
AcDbEntity
  8
RACCORDO
100
AcDbLine
 62
7
  6
CONTINUOUS
 10
216.1290994886
 20
95.6948627683
 11
216.2007929656
 21
95.7531122077
  0
LINE
  5
3D0
100
AcDbEntity
  8
0
100
AcDbLine
 62
7
  6
CONTINUOUS
 10
189.1558550348
 20
71.9616018606
 11
187.7845210667
 21
70.9548447621
  0
LINE
  5
3D1
100
AcDbEntity
  8
DRAFT
100
AcDbLine
 62
7
  6
CONTINUOUS
 10
237.6053505916
 20
105.5990317036
 11
238.3135636801
 21
106.1189623483
  0
LINE
  5
3D2
100
AcDbEntity
  8
SUPERFICI
100
AcDbLine
 62
7
  6
CONTINUOUS
 10
189.1703148234
 20
71.9708151863
 11
189.162308125
 21
71.9661148365
  0
LWPOLYLINE
  5
3D3
100
AcDbEntity
  8
RACCORDO
100
AcDbPolyline
 62
7
  6
CONTINUOUS
 90
5
 70
0
 10
84.1211609903
 20
149.5752860962
 10
84.1552972226
 20
149.5836251477
 10
84.190459113
 20
149.5900702093
 10
84.2265617624
 20
149.5946390473
 10
84.2631799651
 20
149.5973200999
  0
LWPOLYLINE
  5
3D4
100
AcDbEntity
  8
0
100
AcDbPolyline
 62
7
  6
CONTINUOUS
 90
30
 70
0
 10
237.8813005224
 20
107.0398275387
 10
237.8932856528
 20
107.031799969
 10
237.9053599489
 20
107.0233128161
 10
237.917327992
 20
107.0144948964
 10
237.9291557786
 20
107.0053712634
 10
237.94084291
 20
106.9959410474
 10
237.952389785
 20
106.9862051181
 10
237.9637635966
 20
106.976191137
 10
237.9749638529
 20
106.9658983133
 10
237.9859910458
 20
106.9553274379
 10
237.9968138452
 20
106.9445085445
 10
238.0074316696
 20
106.9334409278
 10
238.0178451004
 20
106.9221252931
 10
238.0280245511
 20
106.9105937904
 10
238.0379693563
 20
106.8988458058
 10
238.0476801813
 20
106.886881953
 10
238.0571294358
 20
106.8747362237
 10
238.0663163761
 20
106.8624081007
 10
238.0752417459
 20
106.8498981011
 10
238.0838801866
 20
106.8372417683
 10
238.0922308822
 20
106.8244386861
 10
238.1002946488
 20
106.8114892707
 10
238.1080485755
 20
106.7984303138
 10
238.1154917813
 20
106.7852615038
 10
238.1226251474
 20
106.7719831524
 10
238.1294284064
 20
106.7586329857
 10
238.1359006196
 20
106.7452107997
 10
238.1420427257
 20
106.7317167984
 10
238.147837274
 20
106.7181893209
 10
238.1508732182
 20
106.7107409465
  0
LWPOLYLINE
  5
3D5
100
AcDbEntity
  8
RACCORDO
100
AcDbPolyline
 62
7
  6
CONTINUOUS
 90
13
 70
0
 10
216.0990278505
 20
96.2781417672
 10
216.1202995241
 20
96.2341623737
 10
216.1400016118
 20
96.1899128547
 10
216.1581443437
 20
96.1453983704
 10
216.1746209381
 20
96.1008856208
 10
216.1894178657
 20
96.0563759576
 10
216.2025486157
 20
96.0118679943
 10
216.2139469358
 20
95.9676243243
 10
216.2235992513
 20
95.9236524893
 10
216.2315191087
 20
95.8799449233
 10
216.2376809402
 20
95.8367415603
 10
216.2420762181
 20
95.7941223743
 10
216.2447134558
 20
95.752007379
  0
LWPOLYLINE
  5
3D6
100
AcDbEntity
  8
RACCORDO
100
AcDbPolyline
 62
7
  6
CONTINUOUS
 90
5
 70
0
 10
216.1189532119
 20
96.1600592485
 10
216.1580300947
 20
96.0449205252
 10
216.1846819164
 20
95.9312293105
 10
216.1986115119
 20
95.8205520072
 10
216.2007922481
 20
95.7582846759
  0
LWPOLYLINE
  5
3D7
100
AcDbEntity
  8
RACCORDO
100
AcDbPolyline
 62
7
  6
CONTINUOUS
 90
6
 70
0
 10
233.0604130328
 20
35.2194966523
 10
233.0645648999
 20
35.1520231823
 10
233.0768943574
 20
35.0938968994
 10
233.0970267933
 20
35.0468839514
 10
233.1243505071
 20
35.0124128161
 10
233.1583559996
 20
34.9914100505
  0
LINE
  5
3D8
100
AcDbEntity
  8
RACCORDO
100
AcDbLine
 62
7
  6
CONTINUOUS
 10
216.2447134558
 20
95.752007379
 11
216.2455926495
 21
95.7103965713
  0
LWPOLYLINE
  5
3D9
100
AcDbEntity
  8
RACCORDO
100
AcDbPolyline
 62
7
  6
CONTINUOUS
 90
67
 70
0
 10
216.1290994886
 20
95.6948627683
 10
216.1288364348
 20
95.7137195902
 10
216.1281361586
 20
95.7327348126
 10
216.1269991478
 20
95.7518984692
 10
216.1254261954
 20
95.7712004118
 10
216.1234181628
 20
95.7906306144
 10
216.1209759456
 20
95.8101791895
 10
216.1181008471
 20
95.8298360685
 10
216.1147944809
 20
95.8495907555
 10
216.1110585179
 20
95.8694326369
 10
216.1068949788
 20
95.8893512014
 10
216.1023061117
 20
95.9093360688
 10
216.0972942588
 20
95.9293767549
 10
216.0918620701
 20
95.9494627158
 10
216.0860124531
 20
95.9695833861
 10
216.0797484495
 20
95.989728207
 10
216.0730733469
 20
96.009886563
 10
216.065990686
 20
96.030047839
 10
216.0585041967
 20
96.0502014598
 10
216.0506177954
 20
96.0703367778
 10
216.0423356363
 20
96.0904431877
 10
216.0336621088
 20
96.1105101841
 10
216.0246017335
 20
96.1305271512
 10
216.0151592627
 20
96.1504835291
 10
216.0053397239
 20
96.1703689283
 10
215.995148218
 20
96.190172819
 10
215.9845900754
 20
96.2098847311
 10
215.9736709472
 20
96.2294944201
 10
215.962396495
 20
96.2489914842
 10
215.9507725997
 20
96.2683655996
 10
215.9388055089
 20
96.2876067193
 10
215.9265014194
 20
96.3067046177
 10
215.9138667349
 20
96.3256491664
 10
215.9009082678
 20
96.3444305682
 10
215.8876327192
 20
96.3630388246
 10
215.8740469877
 20
96.3814640472
 10
215.8601584218
 20
96.3996967306
 10
215.8459741953
 20
96.4177271509
 10
215.8315016704
 20
96.4355457058
 10
215.8167487021
 20
96.4531432218
 10
215.801722907
 20
96.470510292
 10
215.7864320737
 20
96.4876376497
 10
215.7708845215
 20
96.5045165049
 10
215.7550882739
 20
96.521137813
 10
215.7390515098
 20
96.5374926858
 10
215.7227829698
 20
96.5535727626
 10
215.7062910393
 20
96.5693694108
 10
215.6895842561
 20
96.5848741552
 10
215.6726717589
 20
96.6000790878
 10
215.6555622593
 20
96.6149760256
 10
215.6382646112
 20
96.629556952
 10
215.6207883175
 20
96.6438144451
 10
215.6031423929
 20
96.6577407984
 10
215.5853359488
 20
96.6713285074
 10
215.5673787637
 20
96.6845707098
 10
215.5492800988
 20
96.6974602229
 10
215.5310492926
 20
96.709990077
 10
215.5126963454
 20
96.7221540004
 10
215.4942306483
 20
96.7339454118
 10
215.4756617938
 20
96.7453578601
 10
215.4570001725
 20
96.7563855667
 10
215.4382555669
 20
96.7670224176
 10
215.4194374793
 20
96.7772627123
 10
215.4005559406
 20
96.7871015846
 10
215.3816207887
 20
96.7965338614
 10
215.3626416663
 20
96.8055540901
 10
215.3436283493
 20
96.8141572807
  0
LWPOLYLINE
  5
3DA
100
AcDbEntity
  8
RACCORDO
100
AcDbPolyline
 62
7
  6
CONTINUOUS
 90
67
 70
0
 10
215.8568740796
 20
95.6666444143
 10
215.8566977204
 20
95.6817633145
 10
215.8561704059
 20
95.6969932182
 10
215.8552921364
 20
95.7123341256
 10
215.8540620701
 20
95.7277948341
 10
215.8524810493
 20
95.7433665468
 10
215.8505516003
 20
95.7590228719
 10
215.8482731781
 20
95.7747633545
 10
215.8456463289
 20
95.7905884506
 10
215.8426752156
 20
95.806473134
 10
215.8393592978
 20
95.822417471
 10
215.8356991175
 20
95.8384213967
 10
215.8317004623
 20
95.8544596893
 10
215.8273628047
 20
95.8705324043
 10
215.8226866742
 20
95.8866394879
 10
215.8176794447
 20
95.9027555545
 10
215.8123405944
 20
95.9188806279
 10
215.8066706476
 20
95.9350146866
 10
215.8006785474
 20
95.9511322762
 10
215.7943637904
 20
95.967233369
 10
215.7877268829
 20
95.9833179954
 10
215.7807782829
 20
95.9993607888
 10
215.7735175034
 20
96.0153616836
 10
215.7659450348
 20
96.0313207484
 10
215.7580728007
 20
96.0472128182
 10
215.7499003304
 20
96.0630377932
 10
215.7414280984
 20
96.0787957763
 10
215.7326694457
 20
96.0944619068
 10
215.7236239224
 20
96.1100360452
 10
215.7142919823
 20
96.1255183344
 10
215.704688322
 20
96.1408843381
 10
215.6948125152
 20
96.1561338769
 10
215.6846649921
 20
96.1712671337
 10
215.6742617347
 20
96.1862602151
 10
215.6636023404
 20
96.2011129056
 10
215.6526872158
 20
96.2158254243
 10
215.6415335561
 20
96.2303745301
 10
215.6301409795
 20
96.244759977
 10
215.6185098719
 20
96.2589820147
 10
215.6066585802
 20
96.2730181455
 10
215.5945867575
 20
96.2868680784
 10
215.5822947547
 20
96.300532108
 10
215.569801965
 20
96.313988615
 10
215.5571080755
 20
96.3272372713
 10
215.5442134029
 20
96.3402784082
 10
215.5311382842
 20
96.353091396
 10
215.5178824306
 20
96.3656758817
 10
215.5044461346
 20
96.3780322214
 10
215.4908506054
 20
96.3901408481
 10
215.477095584
 20
96.4020013784
 10
215.4631813329
 20
96.4136141985
 10
215.4491298422
 20
96.4249608955
 10
215.4349409006
 20
96.4360410452
 10
215.4206147226
 20
96.4468550744
 10
215.4061739362
 20
96.4573858459
 10
215.3916183617
 20
96.4676329145
 10
215.3769481813
 20
96.4775967277
 10
215.3621865666
 20
96.4872614868
 10
215.3473333425
 20
96.4966267331
 10
215.332388686
 20
96.5056929271
 10
215.3173762957
 20
96.514445649
 10
215.3022955322
 20
96.5228846337
 10
215.2871470364
 20
96.5310101477
 10
215.2719564268
 20
96.5388085675
 10
215.2567322431
 20
96.5462753524
 10
215.2414659465
 20
96.553415044
 10
215.2261575375
 20
96.5602276427
  0
LINE
  5
3DB
100
AcDbEntity
  8
RACCORDO
100
AcDbLine
 62
7
  6
CONTINUOUS
 10
215.8568740796
 20
56.4184041961
 11
215.8568740796
 21
95.6666444143
  0
LINE
  5
3DC
100
AcDbEntity
  8
RACCORDO
100
AcDbLine
 62
7
  6
CONTINUOUS
 10
216.1290994886
 20
56.4466225501
 11
216.1290994886
 21
95.6948627683
  0
LINE
  5
3DD
100
AcDbEntity
  8
RACCORDO
100
AcDbLine
 62
7
  6
CONTINUOUS
 10
216.2007929656
 20
95.7582237846
 11
216.2007929656
 21
56.264773062
  0
LINE
  5
3DE
100
AcDbEntity
  8
RACCORDO
100
AcDbLine
 62
7
  6
CONTINUOUS
 10
216.2455926495
 20
95.7103965713
 11
216.2455926495
 21
56.2169458487
  0
LWPOLYLINE
  5
3DF
100
AcDbEntity
  8
RACCORDO
100
AcDbPolyline
 62
7
  6
CONTINUOUS
 90
4
 70
0
 10
216.200792483
 20
56.2647507357
 10
216.200532585
 20
56.2436696282
 10
216.1919489582
 20
56.1451322475
 10
216.1712870675
 20
56.0533088635
  0
LINE
  5
3E0
100
AcDbEntity
  8
RACCORDO
100
AcDbLine
 62
7
  6
CONTINUOUS
 10
216.2455926495
 20
56.2169458487
 11
216.2447111605
 21
56.1760122363
  0
LWPOLYLINE
  5
3E1
100
AcDbEntity
  8
RACCORDO
100
AcDbPolyline
 62
7
  6
CONTINUOUS
 90
4
 70
0
 10
216.2447111605
 20
56.1760122363
 10
216.2420764935
 20
56.1359192607
 10
216.2376886522
 20
56.096666925
 10
216.2315369872
 20
56.0581814587
  0
LWPOLYLINE
  5
3E2
100
AcDbEntity
  8
RACCORDO
100
AcDbPolyline
 62
7
  6
CONTINUOUS
 90
43
 70
0
 10
215.2261575375
 20
96.5602276428
 10
215.2265688649
 20
96.5662085439
 10
215.2271304351
 20
96.5723118358
 10
215.2278414815
 20
96.5785291861
 10
215.2287010334
 20
96.5848521068
 10
215.2297079173
 20
96.5912719659
 10
215.2308607586
 20
96.597779999
 10
215.2321579834
 20
96.6043673212
 10
215.2335978208
 20
96.6110249395
 10
215.235178305
 20
96.6177437649
 10
215.2368972785
 20
96.6245146247
 10
215.2387523944
 20
96.6313282754
 10
215.2407411201
 20
96.6381754149
 10
215.2428607406
 20
96.6450466955
 10
215.2451083622
 20
96.6519327364
 10
215.2474809164
 20
96.6588241367
 10
215.2499751642
 20
96.6657114884
 10
215.2525877004
 20
96.6725853886
 10
215.2553149584
 20
96.6794364532
 10
215.2581532149
 20
96.686255329
 10
215.2610985951
 20
96.6930327069
 10
215.2641470779
 20
96.6997593342
 10
215.2672945015
 20
96.7064260279
 10
215.2705365692
 20
96.7130236864
 10
215.2738688546
 20
96.7195433026
 10
215.2772868087
 20
96.7259759759
 10
215.2807857652
 20
96.7323129243
 10
215.2843609472
 20
96.7385454967
 10
215.288007474
 20
96.7446651842
 10
215.2917203672
 20
96.7506636322
 10
215.2954945581
 20
96.7565326516
 10
215.299324894
 20
96.76226423
 10
215.3032061457
 20
96.7678505426
 10
215.3071330146
 20
96.7732839629
 10
215.3111001396
 20
96.7785570732
 10
215.3151021048
 20
96.7836626746
 10
215.3191334468
 20
96.7885937969
 10
215.3231886618
 20
96.7933437081
 10
215.3272622137
 20
96.7979059235
 10
215.3313485412
 20
96.8022742149
 10
215.3354420657
 20
96.8064426186
 10
215.3395371986
 20
96.8104054438
 10
215.3436283493
 20
96.8141572805
  0
LWPOLYLINE
  5
3E3
100
AcDbEntity
  8
RACCORDO
100
AcDbPolyline
 62
7
  6
CONTINUOUS
 90
4
 70
0
 10
216.2315369872
 20
56.0581814587
 10
216.2236321621
 20
56.0205366445
 10
216.2140061532
 20
55.9839538187
 10
216.2026465394
 20
55.9484392909
  0
LINE
  5
3E4
100
AcDbEntity
  8
SUPERFICI
100
AcDbLine
 62
7
  6
CONTINUOUS
 10
211.8384215514
 20
61.5766087706
 11
211.8470349047
 21
61.6052949256
  0
LWPOLYLINE
  5
3E5
100
AcDbEntity
  8
RACCORDO
100
AcDbPolyline
 62
7
  6
CONTINUOUS
 90
8
 70
0
 10
216.2026465394
 20
55.9484392909
 10
216.1895657697
 20
55.9139867755
 10
216.1748331274
 20
55.8807987182
 10
216.1584385911
 20
55.8488857365
 10
216.1403922218
 20
55.8182372472
 10
216.1207934287
 20
55.7890238949
 10
216.0996370203
 20
55.7612577061
 10
216.0769282366
 20
55.7349266967
  0
LINE
  5
3E6
100
AcDbEntity
  8
RACCORDO
100
AcDbLine
 62
7
  6
CONTINUOUS
 10
216.1712870675
 20
56.0533088635
 11
216.1387742969
 21
55.9695909219
  0
LINE
  5
3E7
100
AcDbEntity
  8
SUPERFICI
100
AcDbLine
 62
7
  6
CONTINUOUS
 10
206.4081459538
 20
63.4751771476
 11
206.4522454049
 21
63.5742818463
  0
LINE
  5
3E8
100
AcDbEntity
  8
SUPERFICI
100
AcDbLine
 62
7
  6
CONTINUOUS
 10
206.6597326039
 20
63.6309918171
 11
206.7390336231
 21
63.8092050015
  0
LINE
  5
3E9
100
AcDbEntity
  8
SUPERFICI
100
AcDbLine
 62
7
  6
CONTINUOUS
 10
206.9465208221
 20
63.8659149723
 11
207.0258218412
 21
64.0441281567
  0
LINE
  5
3EA
100
AcDbEntity
  8
SUPERFICI
100
AcDbLine
 62
7
  6
CONTINUOUS
 10
207.2333090403
 20
64.1008381275
 11
207.3126100594
 21
64.2790513119
  0
LINE
  5
3EB
100
AcDbEntity
  8
SUPERFICI
100
AcDbLine
 62
7
  6
CONTINUOUS
 10
207.5200972584
 20
64.3357612827
 11
207.5993982776
 21
64.5139744671
  0
LINE
  5
3EC
100
AcDbEntity
  8
SUPERFICI
100
AcDbLine
 62
7
  6
CONTINUOUS
 10
210.9134821974
 20
61.6657325417
 11
210.9575816485
 21
61.7648372404
  0
LINE
  5
3ED
100
AcDbEntity
  8
SUPERFICI
100
AcDbLine
 62
7
  6
CONTINUOUS
 10
211.1583334012
 20
61.8064106424
 11
211.2443698666
 21
61.9997603956
  0
LINE
  5
3EE
100
AcDbEntity
  8
SUPERFICI
100
AcDbLine
 62
7
  6
CONTINUOUS
 10
211.4451216194
 20
62.0413337976
 11
211.5311580848
 21
62.2346835508
  0
LINE
  5
3EF
100
AcDbEntity
  8
SUPERFICI
100
AcDbLine
 62
7
  6
CONTINUOUS
 10
211.7319098375
 20
62.2762569528
 11
211.817946303
 21
62.469606706
  0
LINE
  5
3F0
100
AcDbEntity
  8
SUPERFICI
100
AcDbLine
 62
7
  6
CONTINUOUS
 10
212.0186980557
 20
62.511180108
 11
212.1047345212
 21
62.7045298612
  0
LINE
  5
3F1
100
AcDbEntity
  8
RACCORDO
100
AcDbLine
 62
7
  6
CONTINUOUS
 10
214.5967903036
 20
57.7737153166
 11
214.4119463799
 21
57.4001967124
  0
LWPOLYLINE
  5
3F2
100
AcDbEntity
  8
RACCORDO
100
AcDbPolyline
 62
7
  6
CONTINUOUS
 90
41
 70
0
 10
214.5826377969
 20
57.5176532263
 10
214.581361258
 20
57.5151149225
 10
214.5773803814
 20
57.5074736595
 10
214.5733165075
 20
57.5000754463
 10
214.5691818234
 20
57.4929355716
 10
214.5649822977
 20
57.486056216
 10
214.5607206585
 20
57.4794335226
 10
214.5564047129
 20
57.473073386
 10
214.5520395876
 20
57.4669759345
 10
214.5476291379
 20
57.46113885
 10
214.543179246
 20
57.4555642797
 10
214.5386946273
 20
57.4502515383
 10
214.5341795754
 20
57.4451987596
 10
214.5296392558
 20
57.4404062828
 10
214.5250787979
 20
57.4358736058
 10
214.5205021096
 20
57.4315983245
 10
214.5159123758
 20
57.4275779347
 10
214.5113137067
 20
57.4238110366
 10
214.5067107347
 20
57.4202959819
 10
214.5021073109
 20
57.4170298859
 10
214.4975075195
 20
57.414011416
 10
214.492915928
 20
57.4112385938
 10
214.488337218
 20
57.4087074087
 10
214.4837764793
 20
57.406416921
 10
214.4792373433
 20
57.4043643677
 10
214.4747224222
 20
57.4025428297
 10
214.4702364085
 20
57.4009509726
 10
214.4657830835
 20
57.3995862434
 10
214.4613636843
 20
57.3984398072
 10
214.456982669
 20
57.3975101265
 10
214.4526436688
 20
57.3967947662
 10
214.4483465975
 20
57.3962835137
 10
214.4440955167
 20
57.395974679
 10
214.4398939513
 20
57.3958659954
 10
214.4357408761
 20
57.3959463979
 10
214.4316410961
 20
57.3962138306
 10
214.4275968614
 20
57.3966664439
 10
214.4236030295
 20
57.3972936474
 10
214.4196598969
 20
57.3980908021
 10
214.4157733527
 20
57.3990590675
 10
214.4119463799
 20
57.4001967124
  0
LINE
  5
3F3
100
AcDbEntity
  8
0
100
AcDbLine
 62
7
  6
CONTINUOUS
 10
212.5188602729
 20
62.6604074548
 11
211.2764310817
 21
61.5199640873
  0
LWPOLYLINE
  5
3F4
100
AcDbEntity
  8
SUPERFICI
100
AcDbPolyline
 62
7
  6
CONTINUOUS
 90
7
 70
0
 10
211.7913431043
 20
61.5036497459
 10
211.7953283318
 20
61.5070718745
 10
211.8067210408
 20
61.5184869947
 10
211.8167515785
 20
61.5311720853
 10
211.8253370742
 20
61.5450476766
 10
211.8325603985
 20
61.5601932384
 10
211.8384215514
 20
61.5766087706
  0
LWPOLYLINE
  5
3F5
100
AcDbEntity
  8
SUPERFICI
100
AcDbPolyline
 62
7
  6
CONTINUOUS
 90
10
 70
0
 10
212.5244146512
 20
62.6652813736
 10
212.5307110144
 20
62.6706710338
 10
212.5364137852
 20
62.6756698887
 10
212.5414610949
 20
62.6802625175
 10
212.5457955947
 20
62.6844486587
 10
212.5493496694
 20
62.6881872075
 10
212.5520557952
 20
62.6913945579
 10
212.5538676065
 20
62.6940152122
 10
212.5547331585
 20
62.6960389785
 10
212.5548050222
 20
62.6966419646
  0
LINE
  5
3F6
100
AcDbEntity
  8
0
100
AcDbLine
 62
7
  6
CONTINUOUS
 10
212.5244146512
 20
62.1808739087
 11
211.5957050564
 21
61.3917364612
  0
LINE
  5
3F7
100
AcDbEntity
  8
SUPERFICI
100
AcDbLine
 62
7
  6
CONTINUOUS
 10
211.7914014346
 20
61.5036713581
 11
211.6358298356
 21
61.3756214453
  0
LINE
  5
3F8
100
AcDbEntity
  8
0
100
AcDbLine
 62
7
  6
CONTINUOUS
 10
211.8384215514
 20
61.5766087706
 11
211.6078104744
 21
61.3868746524
  0
LINE
  5
3F9
100
AcDbEntity
  8
SUPERFICI
100
AcDbLine
 62
7
  6
CONTINUOUS
 10
206.4522454049
 20
63.5742818463
 11
206.5669606922
 21
63.6682511083
  0
LINE
  5
3FA
100
AcDbEntity
  8
SUPERFICI
100
AcDbLine
 62
7
  6
CONTINUOUS
 10
206.7390336231
 20
63.8092050015
 11
206.8537489103
 21
63.9031742635
  0
LINE
  5
3FB
100
AcDbEntity
  8
SUPERFICI
100
AcDbLine
 62
7
  6
CONTINUOUS
 10
207.0258218412
 20
64.0441281567
 11
207.1405371285
 21
64.1380974187
  0
LINE
  5
3FC
100
AcDbEntity
  8
SUPERFICI
100
AcDbLine
 62
7
  6
CONTINUOUS
 10
207.3126100594
 20
64.2790513119
 11
207.4273253467
 21
64.3730205739
  0
LINE
  5
3FD
100
AcDbEntity
  8
SUPERFICI
100
AcDbLine
 62
7
  6
CONTINUOUS
 10
207.5993982776
 20
64.5139744671
 11
207.7141135649
 21
64.6079437291
  0
LINE
  5
3FE
100
AcDbEntity
  8
SUPERFICI
100
AcDbLine
 62
7
  6
CONTINUOUS
 10
210.9575816485
 20
61.7648372404
 11
211.0722969357
 21
61.8588065025
  0
LINE
  5
3FF
100
AcDbEntity
  8
SUPERFICI
100
AcDbLine
 62
7
  6
CONTINUOUS
 10
211.2443698666
 20
61.9997603956
 11
211.3590851539
 21
62.0937296577
  0
LINE
  5
400
100
AcDbEntity
  8
SUPERFICI
100
AcDbLine
 62
7
  6
CONTINUOUS
 10
211.5311580848
 20
62.2346835508
 11
211.6458733721
 21
62.3286528129
  0
LINE
  5
401
100
AcDbEntity
  8
SUPERFICI
100
AcDbLine
 62
7
  6
CONTINUOUS
 10
211.817946303
 20
62.469606706
 11
211.9326615903
 21
62.5635759681
  0
LINE
  5
402
100
AcDbEntity
  8
SUPERFICI
100
AcDbLine
 62
7
  6
CONTINUOUS
 10
212.1047345212
 20
62.7045298612
 11
212.2194498084
 21
62.7984991233
  0
LINE
  5
403
100
AcDbEntity
  8
SUPERFICI
100
AcDbLine
 62
7
  6
CONTINUOUS
 10
212.3054862739
 20
62.7461032632
 11
210.9625430675
 21
61.6460285903
  0
LINE
  5
404
100
AcDbEntity
  8
0
100
AcDbLine
 62
7
  6
CONTINUOUS
 10
207.5867760313
 20
64.6412436774
 11
206.1433188097
 21
63.5815376991
  0
LINE
  5
405
100
AcDbEntity
  8
SUPERFICI
100
AcDbLine
 62
7
  6
CONTINUOUS
 10
207.6012385385
 20
64.6504583125
 11
207.5932291215
 21
64.6457566533
  0
LINE
  5
406
100
AcDbEntity
  8
DRAFT
100
AcDbLine
 62
7
  6
CONTINUOUS
 10
238.3135636801
 20
69.9029460715
 11
237.8217311725
 21
69.6570993164
  0
LWPOLYLINE
  5
407
100
AcDbEntity
  8
RACCORDO
100
AcDbPolyline
 62
7
  6
CONTINUOUS
 90
15
 70
0
 10
215.8458324315
 20
55.5828362858
 10
215.811408459
 20
55.5716146855
 10
215.7760096457
 20
55.5622413883
 10
215.7395479494
 20
55.554731588
 10
215.702111468
 20
55.5490701387
 10
215.6641411623
 20
55.5452815082
 10
215.6257599184
 20
55.5433931689
 10
215.5868448791
 20
55.5433776734
 10
215.5474683767
 20
55.5451770965
 10
215.5077239633
 20
55.5487443175
 10
215.4675181128
 20
55.5541264799
 10
215.4266425449
 20
55.5614070585
 10
215.3850278496
 20
55.5706138932
 10
215.3427434809
 20
55.5817191822
 10
215.2997894604
 20
55.5947229444
  0
LINE
  5
408
100
AcDbEntity
  8
DRAFT
100
AcDbLine
 62
7
  6
CONTINUOUS
 10
238.3135636801
 20
69.9029460715
 11
238.1907758761
 21
70.2301448875
  0
LWPOLYLINE
  5
409
100
AcDbEntity
  8
RACCORDO
100
AcDbPolyline
 62
7
  6
CONTINUOUS
 90
31
 70
0
 10
235.0002658094
 20
102.4048676241
 10
234.9986522112
 20
102.477759853
 10
234.9935764782
 20
102.55413095
 10
234.9847325158
 20
102.6339280461
 10
234.9718085501
 20
102.7171332288
 10
234.9545021666
 20
102.8035669388
 10
234.9325514298
 20
102.8928799794
 10
234.9056363637
 20
102.9850569805
 10
234.8735495104
 20
103.0796930065
 10
234.8363440125
 20
103.1757918824
 10
234.7938922523
 20
103.2730776957
 10
234.7461176953
 20
103.3711980309
 10
234.6933930359
 20
103.469018375
 10
234.635798059
 20
103.5661580746
 10
234.5734067703
 20
103.6622918286
 10
234.506812178
 20
103.756411237
 10
234.4361902993
 20
103.8482303685
 10
234.3617978064
 20
103.9373910155
 10
234.2845443498
 20
104.0228949672
 10
234.2046866731
 20
104.1045892943
 10
234.1226128629
 20
104.1822086826
 10
234.0396004719
 20
104.2548056399
 10
233.9560675456
 20
104.3223305332
 10
233.8723401901
 20
104.3848232808
 10
233.7896588005
 20
104.4417502701
 10
233.7086794928
 20
104.4931095583
 10
233.6293978705
 20
104.5393298827
 10
233.5520534829
 20
104.5806743853
 10
233.4768636755
 20
104.6173986482
 10
233.4040268305
 20
104.6497518998
 10
233.3337025451
 20
104.6780030079
  0
LWPOLYLINE
  5
40A
100
AcDbEntity
  8
RACCORDO
100
AcDbPolyline
 62
7
  6
CONTINUOUS
 90
31
 70
0
 10
234.3176030475
 20
102.3291281022
 10
234.3167685727
 20
102.3838957683
 10
234.3128625042
 20
102.4411403384
 10
234.305884851
 20
102.5008618207
 10
234.296041687
 20
102.5632262848
 10
234.2831269763
 20
102.6280676945
 10
234.2665225808
 20
102.6948879132
 10
234.246098525
 20
102.7638999829
 10
234.2219848885
 20
102.8348909532
 10
234.1939536407
 20
102.9067237215
 10
234.1618420565
 20
102.9794673414
 10
234.125813041
 20
103.0530529177
 10
234.0861270239
 20
103.1261364368
 10
234.0426491636
 20
103.1986877527
 10
233.9955145336
 20
103.2707372156
 10
233.9453884204
 20
103.3410315421
 10
233.8921293452
 20
103.4095310181
 10
233.8358790237
 20
103.476275566
 10
233.7777274741
 20
103.5401313048
 10
233.7175446999
 20
103.6010065567
 10
233.6554608713
 20
103.6589931521
 10
233.5929561452
 20
103.7132323752
 10
233.5300390614
 20
103.7635212698
 10
233.4667011199
 20
103.8100628268
 10
233.4043967806
 20
103.8526071301
 10
233.3434170584
 20
103.8908915409
 10
233.2834708335
 20
103.9251786055
 10
233.2251392698
 20
103.9560061027
 10
233.1686160305
 20
103.9835532408
 10
233.1137073071
 20
104.0076406837
 10
233.0604130328
 20
104.0282683725
  0
LINE
  5
40B
100
AcDbEntity
  8
RACCORDO
100
AcDbLine
 62
7
  6
CONTINUOUS
 10
234.3176030475
 20
35.9778125148
 11
234.3176030475
 21
102.3291281022
  0
LINE
  5
40C
100
AcDbEntity
  8
RACCORDO
100
AcDbLine
 62
7
  6
CONTINUOUS
 10
235.0002658094
 20
36.0535520367
 11
235.0002658094
 21
102.4048676241
  0
LINE
  5
40D
100
AcDbEntity
  8
RACCORDO
100
AcDbLine
 62
7
  6
CONTINUOUS
 10
237.8217311725
 20
104.7160767442
 11
237.8217311725
 21
38.3647611568
  0
LINE
  5
40E
100
AcDbEntity
  8
DRAFT
100
AcDbLine
 62
7
  6
CONTINUOUS
 10
238.3135636801
 20
106.1189623483
 11
238.3135636801
 21
75.9836630376
  0
LINE
  5
40F
100
AcDbEntity
  8
DRAFT
100
AcDbLine
 62
7
  6
CONTINUOUS
 10
238.3135636801
 20
69.9029460715
 11
238.3135636801
 21
39.7676467609
  0
LWPOLYLINE
  5
410
100
AcDbEntity
  8
DRAFT
100
AcDbPolyline
 62
7
  6
CONTINUOUS
 90
32
 70
0
 10
238.3135636801
 20
39.7676467609
 10
238.3133316919
 20
39.748246
 10
238.3126358586
 20
39.7290425713
 10
238.3114765745
 20
39.7100473517
 10
238.3098544962
 20
39.6912711005
 10
238.3077705423
 20
39.6727244527
 10
238.3052258934
 20
39.6544179133
 10
238.3022219906
 20
39.6363618512
 10
238.2987605355
 20
39.6185664938
 10
238.2948434886
 20
39.6010419203
 10
238.2904730686
 20
39.583798057
 10
238.285651751
 20
39.5668446709
 10
238.2803822666
 20
39.5501913647
 10
238.2746676001
 20
39.5338475709
 10
238.2685109883
 20
39.5178225468
 10
238.2619159184
 20
39.5021253692
 10
238.254886126
 20
39.4867649291
 10
238.2474255927
 20
39.4717499269
 10
238.2395385443
 20
39.4570888671
 10
238.2312294482
 20
39.442790054
 10
238.2225030106
 20
39.4288615866
 10
238.2133641743
 20
39.4153113541
 10
238.2038181157
 20
39.4021470315
 10
238.1938702417
 20
39.3893760752
 10
238.183526187
 20
39.3770057189
 10
238.1727918104
 20
39.3650429691
 10
238.1616731921
 20
39.3534946018
 10
238.1501766298
 20
39.3423671581
 10
238.1383086353
 20
39.3316669406
 10
238.1260759306
 20
39.3214000102
 10
238.1134854446
 20
39.311572182
 10
238.1027660256
 20
39.3037506454
  0
LWPOLYLINE
  5
411
100
AcDbEntity
  8
RACCORDO
100
AcDbPolyline
 62
7
  6
CONTINUOUS
 90
10
 70
0
 10
233.0604130328
 20
104.0282683725
 10
233.0645649146
 20
104.1030390522
 10
233.0768944073
 20
104.1828349604
 10
233.0970268854
 20
104.2652315388
 10
233.1243506337
 20
104.3477252092
 10
233.1580354338
 20
104.427809443
 10
233.1970577901
 20
104.5030509211
 10
233.2402320279
 20
104.5711634695
 10
233.2862463199
 20
104.630077523
 10
233.3337025451
 20
104.6780030079
  0
LWPOLYLINE
  5
412
100
AcDbEntity
  8
RACCORDO
100
AcDbPolyline
 62
7
  6
CONTINUOUS
 90
8
 70
0
 10
237.8217311725
 20
38.3647611568
 10
237.8119301795
 20
38.1947332551
 10
237.7846830893
 20
38.0364771948
 10
237.7399902604
 20
37.8899932913
 10
237.6768591317
 20
37.7538032475
 10
237.5962837097
 20
37.6293866326
 10
237.5012443688
 20
37.5211807062
 10
237.4425761812
 20
37.4688303161
  0
LWPOLYLINE
  5
413
100
AcDbEntity
  8
RACCORDO
100
AcDbPolyline
 62
7
  6
CONTINUOUS
 90
3
 70
0
 10
216.1387742969
 20
55.9695909219
 10
216.0947862932
 20
55.8951979678
 10
216.039816195
 20
55.8311726344
  0
LWPOLYLINE
  5
414
100
AcDbEntity
  8
RACCORDO
100
AcDbPolyline
 62
7
  6
CONTINUOUS
 90
9
 70
0
 10
216.0769282366
 20
55.7349266967
 10
216.0527821339
 20
55.7101654951
 10
216.0271944379
 20
55.6869819041
 10
216.0001694777
 20
55.6653681687
 10
215.9718352118
 20
55.6454355789
 10
215.9421817934
 20
55.6271889005
 10
215.9112191278
 20
55.6106234184
 10
215.8791047966
 20
55.5958361976
 10
215.8458324315
 20
55.5828362858
  0
LINE
  5
415
100
AcDbEntity
  8
DRAFT
100
AcDbLine
 62
7
  6
CONTINUOUS
 10
238.3135636801
 20
75.9836630376
 11
237.8217311725
 21
75.5073576696
  0
LINE
  5
416
100
AcDbEntity
  8
RACCORDO
100
AcDbLine
 62
7
  6
CONTINUOUS
 10
216.039816195
 20
55.8311726344
 11
216.0083622072
 21
55.8032971545
  0
LINE
  5
417
100
AcDbEntity
  8
RACCORDO
100
AcDbLine
 62
7
  6
CONTINUOUS
 10
215.5206115119
 20
55.8654748652
 11
215.3505143563
 21
55.7261394325
  0
LINE
  5
418
100
AcDbEntity
  8
RACCORDO
100
AcDbLine
 62
7
  6
CONTINUOUS
 10
216.0108142919
 20
55.8052933364
 11
216.0083620271
 21
55.8032970069
  0
LWPOLYLINE
  5
419
100
AcDbEntity
  8
RACCORDO
100
AcDbPolyline
 62
7
  6
CONTINUOUS
 90
32
 70
0
 10
215.9285498896
 20
55.9901834247
 10
215.9388055089
 20
55.9982756852
 10
215.9507725996
 20
56.0083346741
 10
215.9623964949
 20
56.0187940756
 10
215.9736709471
 20
56.029648266
 10
215.9845900754
 20
56.0408915516
 10
215.995148218
 20
56.052518059
 10
216.0053397239
 20
56.0645215858
 10
216.0151592627
 20
56.0768958216
 10
216.0246017334
 20
56.0896342881
 10
216.0336621088
 20
56.1027302375
 10
216.0423356363
 20
56.1161767778
 10
216.0506177954
 20
56.1299668518
 10
216.0585041967
 20
56.144093186
 10
216.0659906859
 20
56.1585483356
 10
216.0730733469
 20
56.1733246999
 10
216.0797484495
 20
56.1884145102
 10
216.0860124531
 20
56.2038097924
 10
216.0918620701
 20
56.2195024476
 10
216.0972942588
 20
56.2354842765
 10
216.1023061117
 20
56.2517468212
 10
216.1068949788
 20
56.2682815171
 10
216.1110585179
 20
56.2850797827
 10
216.1147944809
 20
56.3021327914
 10
216.1181008471
 20
56.3194314817
 10
216.1209759456
 20
56.3369667097
 10
216.1234181628
 20
56.354729
 10
216.1254261954
 20
56.3727091333
 10
216.1269991478
 20
56.3908981755
 10
216.1281361586
 20
56.4092866995
 10
216.1288364348
 20
56.427864772
 10
216.1290994886
 20
56.4466225501
  0
LWPOLYLINE
  5
41A
100
AcDbEntity
  8
RACCORDO
100
AcDbPolyline
 62
7
  6
CONTINUOUS
 90
21
 70
0
 10
216.0083620271
 20
55.8032970069
 10
215.9935636188
 20
55.7917641735
 10
215.9675325288
 20
55.7734487081
 10
215.9402944972
 20
55.756671896
 10
215.9118985089
 20
55.7414681578
 10
215.8823941218
 20
55.7278685217
 10
215.8518311268
 20
55.7158994328
 10
215.8202611994
 20
55.7055844965
 10
215.7877394669
 20
55.6969466345
 10
215.7542517714
 20
55.6899911741
 10
215.7199216263
 20
55.6847528249
 10
215.6850272458
 20
55.681262654
 10
215.6497606308
 20
55.6795007021
 10
215.614077851
 20
55.6794266396
 10
215.5779093244
 20
55.6810247205
 10
215.5413957723
 20
55.6842748851
 10
215.5045256651
 20
55.6891641067
 10
215.4669831818
 20
55.6957535697
 10
215.4286968872
 20
55.7041054322
 10
215.3898525559
 20
55.7142262326
 10
215.3505143563
 20
55.7261394325
  0
LINE
  5
41B
100
AcDbEntity
  8
RACCORDO
100
AcDbLine
 62
7
  6
CONTINUOUS
 10
215.9285450552
 20
55.9901797194
 11
216.1963296241
 21
56.1954209371
  0
LINE
  5
41C
100
AcDbEntity
  8
0
100
AcDbLine
 62
7
  6
CONTINUOUS
 10
238.2337632144
 20
106.5036723537
 11
238.1508756432
 21
106.7107354703
  0
LWPOLYLINE
  5
41D
100
AcDbEntity
  8
DRAFT
100
AcDbPolyline
 62
7
  6
CONTINUOUS
 90
20
 70
0
 10
238.2337632144
 20
106.5036723537
 10
238.2395385443
 20
106.4889805688
 10
238.2474255927
 20
106.4679842762
 10
238.254886126
 20
106.4469766372
 10
238.2619159184
 20
106.4259695509
 10
238.2685109883
 20
106.4049749158
 10
238.2746676001
 20
106.3840046235
 10
238.2803822666
 20
106.3630705519
 10
238.285651751
 20
106.3421845581
 10
238.2904730686
 20
106.3213584724
 10
238.2948434886
 20
106.3006040907
 10
238.2987605355
 20
106.2799331686
 10
238.3022219906
 20
106.2593574143
 10
238.3052258934
 20
106.2388884821
 10
238.3077705423
 20
106.2185379659
 10
238.3098544962
 20
106.1983173923
 10
238.3114765745
 20
106.1782382147
 10
238.3126358586
 20
106.1583118059
 10
238.3133316919
 20
106.1385494526
 10
238.3135636801
 20
106.1189623483
  0
LINE
  5
41E
100
AcDbEntity
  8
DRAFT
100
AcDbLine
 62
7
  6
CONTINUOUS
 10
238.3135636801
 20
39.7676467609
 11
237.8217311725
 21
39.4065706993
  0
LINE
  5
41F
100
AcDbEntity
  8
DRAFT
100
AcDbLine
 62
7
  6
CONTINUOUS
 10
238.1027660256
 20
39.3037506454
 11
237.8217311725
 21
39.104950647
  0
LWPOLYLINE
  5
420
100
AcDbEntity
  8
RACCORDO
100
AcDbPolyline
 62
7
  6
CONTINUOUS
 90
15
 70
0
 10
234.6232749236
 20
35.1593882501
 10
234.6543402834
 20
35.1860247481
 10
234.7103986876
 20
35.2406786266
 10
234.7614962396
 20
35.2995348374
 10
234.8075654179
 20
35.3622415836
 10
234.8482027943
 20
35.4277845648
 10
234.8835502327
 20
35.4957162246
 10
234.9137846735
 20
35.5656228843
 10
234.9388578808
 20
35.6363321202
 10
234.959023516
 20
35.7070565468
 10
234.9747412096
 20
35.7776630688
 10
234.986396699
 20
35.8479264
 10
234.9943269926
 20
35.9175588539
 10
234.9988425858
 20
35.9861943361
 10
235.0002658094
 20
36.0535520367
  0
LINE
  5
421
100
AcDbEntity
  8
RACCORDO
100
AcDbLine
 62
7
  6
CONTINUOUS
 10
235.0002658094
 20
36.0535520367
 11
237.8217311725
 21
38.3647611568
  0
LINE
  5
422
100
AcDbEntity
  8
RACCORDO
100
AcDbLine
 62
7
  6
CONTINUOUS
 10
234.6221210894
 20
35.1584436221
 11
237.4419712672
 21
37.4683289586
  0
ELLIPSE
  5
423
100
AcDbEntity
  8
SUPERFICI
100
AcDbEllipse
 62
7
  6
CONTINUOUS
 10
207.5867760313
 20
64.4774132686
 30
0.0
 11
0.0820063524
 21
0.1825471329
 31
0.0
 40
0.504400903
 41
0.6752534469
 42
0.7276133244
  0
ELLIPSE
  5
424
100
AcDbEntity
  8
SUPERFICI
100
AcDbEllipse
 62
7
  6
CONTINUOUS
 10
97.0012500523
 20
108.8910535941
 30
0.0
 11
0.0820063524
 21
0.1825471329
 31
0.0
 40
0.504400903
 41
0.6752534469
 42
0.7276133244
  0
ELLIPSE
  5
425
100
AcDbEntity
  8
SUPERFICI
100
AcDbEllipse
 62
7
  6
CONTINUOUS
 10
115.4321710488
 20
101.4068650021
 30
0.0
 11
0.0820063524
 21
0.1825471329
 31
0.0
 40
0.504400903
 41
0.6752534469
 42
0.7276133244
  0
ELLIPSE
  5
426
100
AcDbEntity
  8
SUPERFICI
100
AcDbEllipse
 62
7
  6
CONTINUOUS
 10
133.8630920453
 20
94.0045916145
 30
0.0
 11
0.0820063524
 21
0.1825471329
 31
0.0
 40
0.504400903
 41
0.6752534469
 42
0.7276133244
  0
ELLIPSE
  5
427
100
AcDbEntity
  8
SUPERFICI
100
AcDbEllipse
 62
7
  6
CONTINUOUS
 10
152.2940130418
 20
86.6023182269
 30
0.0
 11
0.0820063524
 21
0.1825471329
 31
0.0
 40
0.504400903
 41
0.6752534469
 42
0.7276133244
  0
ELLIPSE
  5
428
100
AcDbEntity
  8
SUPERFICI
100
AcDbEllipse
 62
7
  6
CONTINUOUS
 10
170.7249340383
 20
79.2000448393
 30
0.0
 11
0.0820063524
 21
0.1825471329
 31
0.0
 40
0.504400903
 41
0.6752534469
 42
0.7276133244
  0
ELLIPSE
  5
429
100
AcDbEntity
  8
SUPERFICI
100
AcDbEllipse
 62
7
  6
CONTINUOUS
 10
193.9238840355
 20
69.4802607062
 30
0.0
 11
0.19974097
 21
0.1359120531
 31
0.0
 40
0.0748697584
 41
-0.60940585
 42
-0.0505345048
  0
ELLIPSE
  5
42A
100
AcDbEntity
  8
SUPERFICI
100
AcDbEllipse
 62
7
  6
CONTINUOUS
 10
175.492963039
 20
76.8825340938
 30
0.0
 11
0.19974097
 21
0.1359120531
 31
0.0
 40
0.0748697584
 41
-0.60940585
 42
-0.0505345048
  0
ELLIPSE
  5
42B
100
AcDbEntity
  8
SUPERFICI
100
AcDbEllipse
 62
7
  6
CONTINUOUS
 10
157.0620420425
 20
84.2848074814
 30
0.0
 11
0.19974097
 21
0.1359120531
 31
0.0
 40
0.0748697584
 41
-0.60940585
 42
-0.0505345049
  0
ELLIPSE
  5
42C
100
AcDbEntity
  8
SUPERFICI
100
AcDbEllipse
 62
7
  6
CONTINUOUS
 10
138.631121046
 20
91.687080869
 30
0.0
 11
0.19974097
 21
0.1359120531
 31
0.0
 40
0.0748697584
 41
-0.60940585
 42
-0.0505345048
  0
ELLIPSE
  5
42D
100
AcDbEntity
  8
SUPERFICI
100
AcDbEllipse
 62
7
  6
CONTINUOUS
 10
189.1558550348
 20
71.7977714517
 30
0.0
 11
0.0820063524
 21
0.1825471329
 31
0.0
 40
0.504400903
 41
0.6752534469
 42
0.7276133244
  0
ELLIPSE
  5
42E
100
AcDbEntity
  8
SUPERFICI
100
AcDbEllipse
 62
7
  6
CONTINUOUS
 10
120.2002000495
 20
99.0893542566
 30
0.0
 11
0.19974097
 21
0.1359120531
 31
0.0
 40
0.0748697584
 41
-0.60940585
 42
-0.0505345049
  0
ELLIPSE
  5
42F
100
AcDbEntity
  8
SUPERFICI
100
AcDbEllipse
 62
7
  6
CONTINUOUS
 10
101.769279053
 20
106.4916276442
 30
0.0
 11
0.19974097
 21
0.1359120531
 31
0.0
 40
0.0748697584
 41
-0.60940585
 42
-0.0505348179
  0
ELLIPSE
  5
430
100
AcDbEntity
  8
SUPERFICI
100
AcDbEllipse
 62
7
  6
CONTINUOUS
 10
212.354805032
 20
62.0779873186
 30
0.0
 11
0.19974097
 21
0.1359120531
 31
0.0
 40
0.0748697584
 41
-0.60940585
 42
-0.0505348179
  0
ELLIPSE
  5
431
100
AcDbEntity
  8
RACCORDO
100
AcDbEllipse
 62
7
  6
CONTINUOUS
 10
87.2612165158
 20
111.4913253554
 30
0.0
 11
-0.1268434165
 21
0.1546379889
 31
0.0
 40
0.6728141967
 41
0.6869639216
 42
2.2550211926
  0
ELLIPSE
  5
432
100
AcDbEntity
  8
SUPERFICI
100
AcDbEllipse
 62
7
  6
CONTINUOUS
 10
120.3642552904
 20
99.4260287794
 30
0.0
 11
0.067652159
 21
0.1883288026
 31
0.0
 40
0.4341965489
 41
0.6388247178
 42
0.6911845954
  0
ELLIPSE
  5
433
100
AcDbEntity
  8
SUPERFICI
100
AcDbEllipse
 62
7
  6
CONTINUOUS
 10
138.7951762869
 20
92.0237553919
 30
0.0
 11
0.067652159
 21
0.1883288026
 31
0.0
 40
0.4341965489
 41
0.6388247178
 42
0.6911845954
  0
ELLIPSE
  5
434
100
AcDbEntity
  8
SUPERFICI
100
AcDbEllipse
 62
7
  6
CONTINUOUS
 10
157.2260972834
 20
84.6214820043
 30
0.0
 11
0.067652159
 21
0.1883288026
 31
0.0
 40
0.4341965489
 41
0.6388247178
 42
0.6911845954
  0
ELLIPSE
  5
435
100
AcDbEntity
  8
SUPERFICI
100
AcDbEllipse
 62
7
  6
CONTINUOUS
 10
175.6570182799
 20
77.2192086167
 30
0.0
 11
0.067652159
 21
0.1883288026
 31
0.0
 40
0.4341965489
 41
0.6388247178
 42
0.6911845954
  0
ELLIPSE
  5
436
100
AcDbEntity
  8
SUPERFICI
100
AcDbEllipse
 62
7
  6
CONTINUOUS
 10
194.0879392764
 20
69.8169352291
 30
0.0
 11
0.067652159
 21
0.1883288026
 31
0.0
 40
0.4341965489
 41
0.6388247178
 42
0.6911845954
  0
ELLIPSE
  5
437
100
AcDbEntity
  8
SUPERFICI
100
AcDbEllipse
 62
7
  6
CONTINUOUS
 10
212.5188602729
 20
62.4965770459
 30
0.0
 11
0.067652159
 21
0.1883288026
 31
0.0
 40
0.4341965489
 41
0.6388247178
 42
0.6911845954
  0
ELLIPSE
  5
438
100
AcDbEntity
  8
SUPERFICI
100
AcDbEllipse
 62
7
  6
CONTINUOUS
 10
101.9333342939
 20
106.9102173715
 30
0.0
 11
0.067652159
 21
0.1883288026
 31
0.0
 40
0.4341965489
 41
0.6388247178
 42
0.6911845954
  0
ENDSEC
  0
SECTION
  2
OBJECTS
  0
DICTIONARY
  5
C
100
AcDbDictionary
280
0
281
1
  3
ACAD_GROUP
350
D
  3
ACAD_MLINESTYLE
350
17
  3
ACAD_LAYOUT
350
1A
  3
ACAD_PLOTSETTINGS
350
19
  3
ACAD_PLOTSTYLENAME
350
E
  0
DICTIONARY
  5
D
102
{ACAD_REACTORS
330
C
102
}
100
AcDbDictionary
280
0
281
1
  0
ACDBDICTIONARYWDFLT
  5
E
102
{ACAD_REACTORS
330
C
102
}
100
AcDbDictionary
281
1
  3
Normal
350
F
100
AcDbDictionaryWithDefault
340
F
  0
DICTIONARY
  5
17
102
{ACAD_REACTORS
330
C
102
}
100
AcDbDictionary
280
0
281
1
  3
Standard
350
18
  0
DICTIONARY
  5
19
102
{ACAD_REACTORS
330
C
102
}
100
AcDbDictionary
281
1
  0
DICTIONARY
  5
1A
102
{ACAD_REACTORS
330
C
102
}
100
AcDbDictionary
281
1
  3
Model
350
439
  3
Layout1
350
43A
  0
ACDBPLACEHOLDER
  5
F
102
{ACAD_REACTORS
330
E
102
}
  0
MLINESTYLE
  5
18
102
{ACAD_REACTORS
330
17
102
}
100
AcDbMlineStyle
  2
STANDARD
 70
0
  3

 62
256
 51
90.0
 52
90.0
 71
2
 49
0.5
 62
256
  6
BYLAYER
 49
-0.5
 62
256
  6
BYLAYER
  0
LAYOUT
  5
439
102
{ACAD_REACTORS
330
1A
102
}
100
AcDbPlotSettings
  1

  2
none_device
  4
ISO_A4_(297.00_x_210.00_MM)
  6

 40
0.0
 41
0.0
 42
0.0
 43
0.0
 44
297.0
 45
210.0
 46
0.0
 47
0.0
 48
0.0
 49
0.0
140
0.0
141
0.0
142
1.0
143
1.0
 70
1024
 72
1
 73
0
 74
0
  7

 75
0
147
1.0
148
0.0
149
0.0
100
AcDbLayout
  1
Model
 70
0
 71
0
 10
0.0
 20
0.0
 11
297.0
 21
210.0
 12
0.0
 22
0.0
 32
0.0
 14
0.0
 24
0.0
 34
0.0
 15
0.0
 25
0.0
 35
0.0
146
0.0
 13
0.0
 23
0.0
 33
0.0
 16
1.0
 26
0.0
 36
0.0
 17
0.0
 27
1.0
 37
0.0
 76
0
330
214
345
0
346
0
  0
LAYOUT
  5
43A
102
{ACAD_REACTORS
330
1A
102
}
100
AcDbPlotSettings
  1

  2
none_device
  4
ISO_A4_(297.00_x_210.00_MM)
  6

 40
0.0
 41
0.0
 42
0.0
 43
0.0
 44
297.0
 45
210.0
 46
0.0
 47
0.0
 48
0.0
 49
0.0
140
0.0
141
0.0
142
1.0
143
1.0
 70
0
 72
1
 73
0
 74
0
  7

 75
0
147
1.0
148
0.0
149
0.0
100
AcDbLayout
  1
Layout1
 70
0
 71
1
 10
0.0
 20
0.0
 11
297.0
 21
210.0
 12
0.0
 22
0.0
 32
0.0
 14
0.0
 24
0.0
 34
0.0
 15
0.0
 25
0.0
 35
0.0
146
0.0
 13
0.0
 23
0.0
 33
0.0
 16
1.0
 26
0.0
 36
0.0
 17
0.0
 27
1.0
 37
0.0
 76
0
330
215
345
0
346
0
  0
ENDSEC
  0
EOF
