0
SECTION
2
HEADER
9
$ACADVER
1
AC1014
9
$HANDSEED
5
       3C5
9
$EXTMAX
10
297.0000000000
20
210.0000000000
9
$EXTMIN
10
0.0000000000
20
0.0000000000
9
$LIMMIN
10
0.0000000000
20
0.0000000000
9
$LIMMAX
10
297.0000000000
20
210.0000000000
9
$VIEWCTR
10
148.5000000000
20
105.0000000000
9
$VIEWSIZE
40
210.0000000000
9
$CLAYER
8
0
9
$LTSCALE
40
16.3350000000
9
$CELTYPE
6
BYLAYER
9
$DIMSCALE
40
1
9
$DIMASZ
40
3.0000000000
9
$DIMEXO
40
1.8562500000
9
$DIMDLI
40
11.2860000000
9
$DIMEXE
40
5.3460000000
9
$DIMCEN
40
2.6730000000
9
$DIMLFAC
40
1.0000000000
9
$DIMTXT
40
3.0000000000
9
$DIMTOL
70
1
9
$DIMLIM
70
0
9
$DIMTFAC
40
1.0000000000
9
$DIMTP
40
0.0100000000
9
$DIMTM
40
0.0100000000
9
$MEASUREMENT
70
1
0
ENDSEC
0
SECTION
2
CLASSES
0
ENDSEC
0
SECTION
2
TABLES
0
TABLE
2
VPORT
5
8
100
AcDbSymbolTable
70
2
0
VPORT
5
1F4
100
AcDbSymbolTableRecord
100
AcDbViewportTableRecord
2
*ACTIVE
70
0
10
0.0
20
0.0
11
1.0
21
1.0
12
148.5000000000
22
105.0000000000
13
0.0
23
0.0
14
1.0
24
1.0
15
0.0
25
0.0
16
0.0
26
0.0
36
1.0
17
0.0
27
0.0
37
0.0
40
210.0000000000
41
1.4142857143
42
50.0
43
0.0
44
0.0
50
0.0
51
0.0
71
0
72
100
73
1
74
1
75
0
76
0
77
0
78
0
0
ENDTAB
0
TABLE
2
LTYPE
5
5
100
AcDbSymbolTable
70
6
0
LTYPE
5
14
100
AcDbSymbolTableRecord
100
AcDbLinetypeTableRecord
2
BYBLOCK
70
0
3

72
65
73
0
40
0.0
0
LTYPE
5
15
100
AcDbSymbolTableRecord
100
AcDbLinetypeTableRecord
2
BYLAYER
70
0
3

72
65
73
0
40
0.0
0
LTYPE
5
16
100
AcDbSymbolTableRecord
100
AcDbLinetypeTableRecord
2
CONTINUOUS
70
64
3
Solid line
72
65
73
0
40
0
0
LTYPE
5
1F5
100
AcDbSymbolTableRecord
100
AcDbLinetypeTableRecord
2
CENTER
70
64
3
____ _ ____ _ ____ _ ____ _ ____ _ ____ _ ____
72
65
73
4
40
0.6
49
0.375
74
0
49
-0.075
74
0
49
0.075
74
0
49
-0.075
74
0
0
LTYPE
5
1F6
100
AcDbSymbolTableRecord
100
AcDbLinetypeTableRecord
2
HIDDEN
70
64
3
- - - - - - - - - - - - - - - - - - - -
72
65
73
2
40
0.2
49
0.1
74
0
49
-0.1
74
0
0
LTYPE
5
1F7
100
AcDbSymbolTableRecord
100
AcDbLinetypeTableRecord
2
PHANTOM
70
64
3
_____ _ _ _____ _ _ _____ _ _ _____
72
65
73
6
40
0.8
49
0.45
74
0
49
-0.05
74
0
49
0.1
74
0
49
-0.05
74
0
49
0.1
74
0
49
-0.05
74
0
0
LTYPE
5
1F8
100
AcDbSymbolTableRecord
100
AcDbLinetypeTableRecord
2
DOT
70
64
3
. . . . . . . . . . . . . . . . . . . .
72
65
73
2
40
0.2
49
0.1
74
0
49
-0.1
74
0
0
LTYPE
5
1F9
100
AcDbSymbolTableRecord
100
AcDbLinetypeTableRecord
2
DASHED
70
64
3
- - - - - - - - - - - - - - - - - - - -
72
65
73
2
40
0.2
49
0.1
74
0
49
-0.1
74
0
0
ENDTAB
0
TABLE
2
LAYER
5
2
100
AcDbSymbolTable
70
36
0
LAYER
5
10
100
AcDbSymbolTableRecord
100
AcDbLayerTableRecord
2
0
70
0
62
7
6
CONTINUOUS
0
LAYER
5
1FA
100
AcDbSymbolTableRecord
100
AcDbLayerTableRecord
2
DEFAULT_1
70
0
62
7
6
CENTER
0
LAYER
5
1FB
100
AcDbSymbolTableRecord
100
AcDbLayerTableRecord
2
DEFAULT_2
70
0
62
8
6
HIDDEN
0
LAYER
5
1FC
100
AcDbSymbolTableRecord
100
AcDbLayerTableRecord
2
DEFAULT_3
70
0
62
7
6
PHANTOM
0
LAYER
5
1FD
100
AcDbSymbolTableRecord
100
AcDbLayerTableRecord
2
_BLACK_HOLE
70
0
62
7
6
CONTINUOUS
0
LAYER
5
1FE
100
AcDbSymbolTableRecord
100
AcDbLayerTableRecord
2
ASSI
70
0
62
7
6
CONTINUOUS
0
LAYER
5
1FF
100
AcDbSymbolTableRecord
100
AcDbLayerTableRecord
2
COORDINATE
70
0
62
7
6
CONTINUOUS
0
LAYER
5
200
100
AcDbSymbolTableRecord
100
AcDbLayerTableRecord
2
COORD_ORIGINE
70
0
62
7
6
CONTINUOUS
0
LAYER
5
201
100
AcDbSymbolTableRecord
100
AcDbLayerTableRecord
2
COPY_PLACCA
70
0
62
7
6
CONTINUOUS
0
LAYER
5
202
100
AcDbSymbolTableRecord
100
AcDbLayerTableRecord
2
COPY_SUPPORTO
70
0
62
7
6
CONTINUOUS
0
LAYER
5
203
100
AcDbSymbolTableRecord
100
AcDbLayerTableRecord
2
CURVE
70
0
62
7
6
CONTINUOUS
0
LAYER
5
204
100
AcDbSymbolTableRecord
100
AcDbLayerTableRecord
2
DRAFT
70
0
62
7
6
CONTINUOUS
0
LAYER
5
205
100
AcDbSymbolTableRecord
100
AcDbLayerTableRecord
2
IMPORT_INCISIONI
70
0
62
7
6
CONTINUOUS
0
LAYER
5
206
100
AcDbSymbolTableRecord
100
AcDbLayerTableRecord
2
NOTE
70
0
62
7
6
CONTINUOUS
0
LAYER
5
207
100
AcDbSymbolTableRecord
100
AcDbLayerTableRecord
2
PIANI
70
0
62
7
6
CONTINUOUS
0
LAYER
5
208
100
AcDbSymbolTableRecord
100
AcDbLayerTableRecord
2
PIANI_ORIGINE
70
0
62
7
6
CONTINUOUS
0
LAYER
5
209
100
AcDbSymbolTableRecord
100
AcDbLayerTableRecord
2
PUNTI
70
0
62
7
6
CONTINUOUS
0
LAYER
5
20A
100
AcDbSymbolTableRecord
100
AcDbLayerTableRecord
2
RACCORDO
70
0
62
7
6
CONTINUOUS
0
LAYER
5
20B
100
AcDbSymbolTableRecord
100
AcDbLayerTableRecord
2
SMUSSO
70
0
62
7
6
CONTINUOUS
0
LAYER
5
20C
100
AcDbSymbolTableRecord
100
AcDbLayerTableRecord
2
SUPERFICI
70
0
62
7
6
CONTINUOUS
0
LAYER
5
20D
100
AcDbSymbolTableRecord
100
AcDbLayerTableRecord
2
TRASH
70
0
62
7
6
CONTINUOUS
0
LAYER
5
20E
100
AcDbSymbolTableRecord
100
AcDbLayerTableRecord
2
XSEC_DATUMS
70
0
62
7
6
CONTINUOUS
0
ENDTAB
0
TABLE
2
STYLE
5
3
100
AcDbSymbolTable
70
1
0
STYLE
5
11
100
AcDbSymbolTableRecord
100
AcDbTextStyleTableRecord
2
STANDARD
70
0
40
0.0
41
0.8000000000
50
0.0
71
0
42
0.2
3
txt
4

0
ENDTAB
0
TABLE
2
VIEW
5
6
100
AcDbSymbolTable
70
0
0
ENDTAB
0
TABLE
2
UCS
5
7
100
AcDbSymbolTable
70
0
0
ENDTAB
0
TABLE
2
APPID
5
9
100
AcDbSymbolTable
70
1
0
APPID
5
20F
100
AcDbSymbolTableRecord
100
AcDbRegAppTableRecord
2
ACAD
70
0
0
ENDTAB
0
TABLE
2
DIMSTYLE
5
A
100
AcDbSymbolTable
70
1
0
DIMSTYLE
105
210
100
AcDbSymbolTableRecord
100
AcDbDimStyleTableRecord
2
STANDARD
70
0
3

4

5

6

7

40
1.0
41
3.0000000000
42
0.0625
43
0.38
44
0.18
45
0.0
46
0.0
47
0.0100000000
48
0.0100000000
140
3.0000000000
141
0.09
142
0.0
143
25.4
144
1.0000000000
145
0.0
146
1.0000000000
147
0.09
71
1
72
0
73
0
74
0
75
0
76
0
77
1
78
8
170
0
171
2
172
0
173
0
174
0
175
0
176
0
177
0
178
0
270
2
271
2
272
2
273
2
274
2
340
11
275
0
280
0
281
0
282
0
283
1
284
8
285
0
286
0
287
3
288
0
0
ENDTAB
0
TABLE
2
BLOCK_RECORD
5
1
100
AcDbSymbolTable
70
0
0
BLOCK_RECORD
5
1B
100
AcDbSymbolTableRecord
100
AcDbBlockTableRecord
2
*MODEL_SPACE
0
BLOCK_RECORD
5
1C
100
AcDbSymbolTableRecord
100
AcDbBlockTableRecord
2
*PAPER_SPACE
0
ENDTAB
0
ENDSEC
0
SECTION
2
BLOCKS
0
BLOCK
5
1E
100
AcDbEntity
8
0
100
AcDbBlockBegin
2
*MODEL_SPACE
70
0
10
0.0
20
0.0
30
0.0
3
*MODEL_SPACE
1

0
ENDBLK
5
1F
100
AcDbEntity
8
0
100
AcDbBlockEnd
0
BLOCK
5
20
100
AcDbEntity
8
0
100
AcDbBlockBegin
2
*PAPER_SPACE
70
0
10
0.0
20
0.0
30
0.0
3
*PAPER_SPACE
1

0
ENDBLK
5
21
100
AcDbEntity
8
0
100
AcDbBlockEnd
0
ENDSEC
0
SECTION
2
ENTITIES
0
LINE
5
211
100
AcDbEntity
8
0
100
AcDbLine
62
7
6
CONTINUOUS
10
-14.0332831133
20
41.3742028727
11
-14.4705305764
21
41.1017792022
0
LINE
5
212
100
AcDbEntity
8
0
100
AcDbLine
62
7
6
CONTINUOUS
10
-15.7367656107
20
41.5722525279
11
-18.6011548131
21
39.7893406167
0
LINE
5
213
100
AcDbEntity
8
0
100
AcDbLine
62
7
6
CONTINUOUS
10
-13.5615669395
20
41.3592827562
11
-14.2351977221
21
40.9395822756
0
LINE
5
214
100
AcDbEntity
8
0
100
AcDbLine
62
7
6
CONTINUOUS
10
7.1060202219
20
-41.6257345691
11
7.1058565091
21
-41.6256756758
0
LINE
5
215
100
AcDbEntity
8
0
100
AcDbLine
62
7
6
CONTINUOUS
10
-18.2413835212
20
-28.9488839702
11
-18.2420246377
21
-28.9484399337
0
LINE
5
216
100
AcDbEntity
8
0
100
AcDbLine
62
7
6
CONTINUOUS
10
-3.5152832524
20
36.3361409126
11
-4.4034222067
21
35.6327341945
0
LINE
5
217
100
AcDbEntity
8
0
100
AcDbLine
62
7
6
CONTINUOUS
10
-3.2385726518
20
35.1696552699
11
-3.3368746107
21
35.0994603966
0
LINE
5
218
100
AcDbEntity
8
0
100
AcDbLine
62
7
6
CONTINUOUS
10
1.8147191388
20
33.6711397170
11
0.5463252616
21
33.1578604604
0
LINE
5
219
100
AcDbEntity
8
0
100
AcDbLine
62
7
6
CONTINUOUS
10
-15.4274420821
20
25.2025864284
11
-15.4252807274
21
25.2038896237
0
LINE
5
21A
100
AcDbEntity
8
0
100
AcDbLine
62
7
6
CONTINUOUS
10
-15.3584631141
20
25.3529826123
11
-15.3558481159
21
25.3542605552
0
LINE
5
21B
100
AcDbEntity
8
0
100
AcDbLine
62
7
6
CONTINUOUS
10
-13.6133259023
20
22.2833190135
11
-13.6862821014
21
22.2549235705
0
LINE
5
21C
100
AcDbEntity
8
0
100
AcDbLine
62
7
6
CONTINUOUS
10
-15.1974657781
20
-19.3644147738
11
-15.1974992308
21
-19.3643830345
0
LINE
5
21D
100
AcDbEntity
8
0
100
AcDbLine
62
7
6
CONTINUOUS
10
-9.2852737349
20
-22.0901735343
11
-9.0123969854
21
-22.2266119090
0
LINE
5
21E
100
AcDbEntity
8
0
100
AcDbLine
62
7
6
CONTINUOUS
10
-8.3361370304
20
-22.5647418865
11
-8.0513957362
21
-22.7071125336
0
LINE
5
21F
100
AcDbEntity
8
0
100
AcDbLine
62
7
6
CONTINUOUS
10
-7.8022473690
20
-22.8316867172
11
-7.5175067819
21
-22.9740570108
0
LINE
5
220
100
AcDbEntity
8
0
100
AcDbLine
62
7
6
CONTINUOUS
10
-7.2446300324
20
-23.1104953855
11
-6.9598887382
21
-23.2528660326
0
LINE
5
221
100
AcDbEntity
8
0
100
AcDbLine
62
7
6
CONTINUOUS
10
-6.6870119887
20
-23.3893044074
11
-6.4022714017
21
-23.5316747009
0
LINE
5
222
100
AcDbEntity
8
0
100
AcDbLine
62
7
6
CONTINUOUS
10
-6.1768514167
20
-23.6443846934
11
-5.8921101225
21
-23.7867553405
0
LINE
5
223
100
AcDbEntity
8
0
100
AcDbLine
62
7
6
CONTINUOUS
10
-5.2633069320
20
-24.1011569357
11
-4.9785663450
21
-24.2435272292
0
LINE
5
224
100
AcDbEntity
8
0
100
AcDbLine
62
7
6
CONTINUOUS
10
-4.7531463600
20
-24.3562372217
11
-4.4684050658
21
-24.4986078688
0
LINE
5
225
100
AcDbEntity
8
0
100
AcDbLine
62
7
6
CONTINUOUS
10
-3.9345161115
20
-24.7655523460
11
-3.6141825975
21
-24.9257191030
0
LINE
5
226
100
AcDbEntity
8
0
100
AcDbLine
62
7
6
CONTINUOUS
10
-9.2072531340
20
-22.0511632338
11
-8.9811887450
21
-22.1641954283
0
LINE
5
227
100
AcDbEntity
8
0
100
AcDbLine
62
7
6
CONTINUOUS
10
-8.2581164296
20
-22.5257315861
11
-8.0298815591
21
-22.6398490213
0
LINE
5
228
100
AcDbEntity
8
0
100
AcDbLine
62
7
6
CONTINUOUS
10
-7.7242267681
20
-22.7926764168
11
-7.4959926048
21
-22.9067934985
0
LINE
5
229
100
AcDbEntity
8
0
100
AcDbLine
62
7
6
CONTINUOUS
10
-7.1666094316
20
-23.0714850851
11
-6.9286804979
21
-23.1904495519
0
LINE
5
22A
100
AcDbEntity
8
0
100
AcDbLine
62
7
6
CONTINUOUS
10
-6.6089913879
20
-23.3502941069
11
-6.3807572245
21
-23.4644111886
0
LINE
5
22B
100
AcDbEntity
8
0
100
AcDbLine
62
7
6
CONTINUOUS
10
-6.0988308158
20
-23.6053743929
11
-5.8609018821
21
-23.7243388598
0
LINE
5
22C
100
AcDbEntity
8
0
100
AcDbLine
62
7
6
CONTINUOUS
10
-5.1852863312
20
-24.0621466353
11
-4.9737359271
21
-24.1679218373
0
LINE
5
22D
100
AcDbEntity
8
0
100
AcDbLine
62
7
6
CONTINUOUS
10
-4.6751257591
20
-24.3172269213
11
-4.4468908887
21
-24.4313443565
0
LINE
5
22E
100
AcDbEntity
8
0
100
AcDbLine
62
7
6
CONTINUOUS
10
-3.8564955106
20
-24.7265420455
11
-3.6202429535
21
-24.8446683241
0
LINE
5
22F
100
AcDbEntity
8
0
100
AcDbLine
62
7
6
CONTINUOUS
10
-5.6937376059
20
-23.4677263886
11
-5.2428983430
21
-23.6931460201
0
LINE
5
230
100
AcDbEntity
8
0
100
AcDbLine
62
7
6
CONTINUOUS
10
-5.6157170050
20
-23.4287160882
11
-5.1648777421
21
-23.6541357196
0
LINE
5
231
100
AcDbEntity
8
0
100
AcDbLine
62
7
6
CONTINUOUS
10
-4.2427736090
20
-23.7931770188
11
-3.9936252417
21
-23.9177512024
0
LINE
5
232
100
AcDbEntity
8
0
100
AcDbLine
62
7
6
CONTINUOUS
10
-5.2156386957
20
-23.3067444754
11
-5.4885154452
21
-23.1703061007
0
LINE
5
233
100
AcDbEntity
8
0
100
AcDbLine
62
7
6
CONTINUOUS
10
-4.1647530081
20
-23.7541667183
11
-3.9156046409
21
-23.8787409020
0
LINE
5
234
100
AcDbEntity
8
0
100
AcDbLine
62
7
6
CONTINUOUS
10
-3.7884027699
20
-23.6203311097
11
-4.1443295221
21
-23.4423676940
0
LINE
5
235
100
AcDbEntity
8
0
100
AcDbLine
62
7
6
CONTINUOUS
10
-3.9939086608
20
-22.9720808042
11
-3.6379824323
21
-23.1500439222
0
LINE
5
236
100
AcDbEntity
8
0
100
AcDbLine
62
7
6
CONTINUOUS
10
-3.9158880599
20
-22.9330705038
11
-3.5599617836
21
-23.1110336419
0
LINE
5
237
100
AcDbEntity
8
0
100
AcDbLine
62
7
6
CONTINUOUS
10
-3.4920807699
20
-22.8229633589
11
-4.1564767786
21
-22.4907653770
0
LINE
5
238
100
AcDbEntity
8
0
100
AcDbLine
62
7
6
CONTINUOUS
10
-4.8446005712
20
-22.1467034808
11
-5.1293418654
21
-22.0043328337
0
LINE
5
239
100
AcDbEntity
8
0
100
AcDbLine
62
7
6
CONTINUOUS
10
-5.8056018203
20
-21.6662028562
11
-6.2327127009
21
-21.4526474159
0
LINE
5
23A
100
AcDbEntity
8
0
100
AcDbLine
62
7
6
CONTINUOUS
10
-6.7666023624
20
-21.1857025852
11
-7.2055777877
21
-20.9662148725
0
LINE
5
23B
100
AcDbEntity
8
0
100
AcDbLine
62
7
6
CONTINUOUS
10
-7.4547261549
20
-20.8416406889
11
-7.7394674491
21
-20.6992700418
0
LINE
5
23C
100
AcDbEntity
8
0
100
AcDbLine
62
7
6
CONTINUOUS
10
-7.9530228894
20
-20.5924923217
11
-8.2377641836
21
-20.4501216746
0
LINE
5
23D
100
AcDbEntity
8
0
100
AcDbLine
62
7
6
CONTINUOUS
10
-8.8665666669
20
-20.1357204329
11
-9.1513079611
21
-19.9933497858
0
LINE
5
23E
100
AcDbEntity
8
0
100
AcDbLine
62
7
6
CONTINUOUS
10
-13.8691316741
20
-17.0961476444
11
1.7345341159
21
-24.8979805394
0
LINE
5
23F
100
AcDbEntity
8
0
100
AcDbLine
62
7
6
CONTINUOUS
10
-19.2172558816
20
-26.9398122374
11
-19.2172558816
21
38.5251830432
0
LINE
5
240
100
AcDbEntity
8
0
100
AcDbLine
62
7
6
CONTINUOUS
10
-19.0520449644
20
-27.1996607536
11
-19.0520449644
21
38.2653342170
0
LINE
5
241
100
AcDbEntity
8
0
100
AcDbLine
62
7
6
CONTINUOUS
10
11.1839161438
20
28.3018766865
11
11.8610028259
21
28.6479978734
0
LINE
5
242
100
AcDbEntity
8
0
100
AcDbLine
62
7
6
CONTINUOUS
10
11.9596313074
20
27.1195367060
11
12.5671405418
21
27.4300904694
0
LINE
5
243
100
AcDbEntity
8
0
100
AcDbLine
62
7
6
CONTINUOUS
10
-13.5450545582
20
-16.7068413684
11
1.7345341159
21
-24.3466357055
0
LINE
5
244
100
AcDbEntity
8
0
100
AcDbLine
62
7
6
CONTINUOUS
10
1.7345341159
20
-23.5758818440
11
-12.7828313768
21
-16.3171990977
0
LINE
5
245
100
AcDbEntity
8
0
100
AcDbLine
62
7
6
CONTINUOUS
10
-0.5850455883
20
-22.2556490546
11
-4.4741328848
21
-20.3111054064
0
LINE
5
246
100
AcDbEntity
8
0
100
AcDbLine
62
7
6
CONTINUOUS
10
-0.4436242320
20
-22.1849383765
11
-4.3327115285
21
-20.2403947283
0
LINE
5
247
100
AcDbEntity
8
0
100
AcDbLine
62
7
6
CONTINUOUS
10
-0.2314921977
20
-22.0788723593
11
-4.1205794942
21
-20.1343287111
0
LINE
5
248
100
AcDbEntity
8
0
100
AcDbLine
62
7
6
CONTINUOUS
10
-0.0900708414
20
-22.0081616812
11
-3.9791581379
21
-20.0636180330
0
LINE
5
249
100
AcDbEntity
8
0
100
AcDbLine
62
7
6
CONTINUOUS
10
0.1220611929
20
-21.9020956640
11
-3.7670261036
21
-19.9575520158
0
LINE
5
24A
100
AcDbEntity
8
0
100
AcDbLine
62
7
6
CONTINUOUS
10
0.2634825492
20
-21.8313849859
11
-3.6256047474
21
-19.8868413377
0
LINE
5
24B
100
AcDbEntity
8
0
100
AcDbLine
62
7
6
CONTINUOUS
10
0.4756145835
20
-21.7253189687
11
-3.4134727130
21
-19.7807753205
0
LINE
5
24C
100
AcDbEntity
8
0
100
AcDbLine
62
7
6
CONTINUOUS
10
0.6170359398
20
-21.6546082906
11
-3.2720513568
21
-19.7100646424
0
LINE
5
24D
100
AcDbEntity
8
0
100
AcDbLine
62
7
6
CONTINUOUS
10
0.8291679741
20
-21.5485422735
11
-3.0599193224
21
-19.6039986252
0
LINE
5
24E
100
AcDbEntity
8
0
100
AcDbLine
62
7
6
CONTINUOUS
10
-2.9966202235
20
-19.5180646118
11
-2.9423357596
21
-19.5452068438
0
LINE
5
24F
100
AcDbEntity
8
0
100
AcDbLine
62
7
6
CONTINUOUS
10
1.0766553475
20
-21.5547023973
11
1.2608436221
21
-21.6467965346
0
LINE
5
250
100
AcDbEntity
8
0
100
AcDbLine
62
7
6
CONTINUOUS
10
0.9705893304
20
-21.4778315953
11
-2.9184979662
21
-19.5332879471
0
LINE
5
251
100
AcDbEntity
8
0
100
AcDbLine
62
7
6
CONTINUOUS
10
-2.8748177012
20
-19.5285641559
11
1.3179265380
21
-21.6249362755
0
LINE
5
252
100
AcDbEntity
8
0
100
AcDbLine
62
7
6
CONTINUOUS
10
-0.4436242320
20
-22.1849383765
11
-0.3375582148
21
-22.2618091785
0
LINE
5
253
100
AcDbEntity
8
0
100
AcDbLine
62
7
6
CONTINUOUS
10
-15.7573611659
20
-18.1375426022
11
-15.7573611659
21
24.7801024744
0
LINE
5
254
100
AcDbEntity
8
0
100
AcDbLine
62
7
6
CONTINUOUS
10
-15.6611109076
20
-18.2658209891
11
-15.6611109076
21
24.6587560772
0
LINE
5
255
100
AcDbEntity
8
0
100
AcDbLine
62
7
6
CONTINUOUS
10
-15.6396372336
20
-18.2967790915
11
-15.6396372336
21
24.6277978979
0
LINE
5
256
100
AcDbEntity
8
0
100
AcDbLine
62
7
6
CONTINUOUS
10
-0.0900708414
20
-22.0081616812
11
0.0159951758
21
-22.0850324832
0
LINE
5
257
100
AcDbEntity
8
0
100
AcDbLine
62
7
6
CONTINUOUS
10
0.2634825492
20
-21.8313849859
11
0.3695485663
21
-21.9082557879
0
LINE
5
258
100
AcDbEntity
8
0
100
AcDbLine
62
7
6
CONTINUOUS
10
0.6170359398
20
-21.6546082906
11
0.7231019569
21
-21.7314790926
0
LINE
5
259
100
AcDbEntity
8
0
100
AcDbLine
62
7
6
CONTINUOUS
10
0.9705893304
20
-21.4778315953
11
1.0766553475
21
-21.5547023973
0
LINE
5
25A
100
AcDbEntity
8
0
100
AcDbLine
62
7
6
CONTINUOUS
10
-14.7029976645
20
23.7741174772
11
-14.7029976645
21
-18.6147987826
0
LINE
5
25B
100
AcDbEntity
8
0
100
AcDbLine
62
7
6
CONTINUOUS
10
-14.4137899698
20
22.9820177003
11
-14.4137899698
21
-17.8454050444
0
LINE
5
25C
100
AcDbEntity
8
0
100
AcDbLine
62
7
6
CONTINUOUS
10
-12.9240589200
20
-16.0736176169
11
-12.9240589200
21
21.9386855224
0
LINE
5
25D
100
AcDbEntity
8
0
100
AcDbLine
62
7
6
CONTINUOUS
10
-12.8682642058
20
21.9107881653
11
-12.8682642058
21
4.2253320624
0
LINE
5
25E
100
AcDbEntity
8
0
100
AcDbLine
62
7
6
CONTINUOUS
10
-12.8682642058
20
3.3593066586
11
-12.8682642058
21
-16.2390699024
0
LINE
5
25F
100
AcDbEntity
8
0
100
AcDbLine
62
7
6
CONTINUOUS
10
-12.8179929028
20
-15.8126706084
11
-12.8179929028
21
3.3872226278
0
LINE
5
260
100
AcDbEntity
8
0
100
AcDbLine
62
7
6
CONTINUOUS
10
-12.8179929028
20
4.4762604690
11
-12.8179929028
21
21.8856525138
0
LINE
5
261
100
AcDbEntity
8
0
100
AcDbLine
62
7
6
CONTINUOUS
10
-12.6144739677
20
4.3662633697
11
-12.6144739677
21
3.5002379659
0
LINE
5
262
100
AcDbEntity
8
0
100
AcDbLine
62
7
6
CONTINUOUS
10
-12.6144739677
20
4.3662633697
11
-12.8682642058
21
4.2253320624
0
LINE
5
263
100
AcDbEntity
8
0
100
AcDbLine
62
7
6
CONTINUOUS
10
-12.6144739677
20
3.5002379659
11
-12.8682642058
21
3.3593066586
0
LINE
5
264
100
AcDbEntity
8
0
100
AcDbLine
62
7
6
CONTINUOUS
10
-9.1513079611
20
-19.9933497858
11
-9.2852737349
21
-22.0901735343
0
LINE
5
265
100
AcDbEntity
8
0
100
AcDbLine
62
7
6
CONTINUOUS
10
-9.0781177781
20
-20.0299448773
11
-9.2072531340
21
-22.0511632338
0
LINE
5
266
100
AcDbEntity
8
0
100
AcDbLine
62
7
6
CONTINUOUS
10
-8.9742622454
20
-21.5910824946
11
-8.8665666669
21
-20.1357204329
0
LINE
5
267
100
AcDbEntity
8
0
100
AcDbLine
62
7
6
CONTINUOUS
10
-14.1311290717
20
-17.0127191699
11
-14.4137899698
21
-17.8454050444
0
LINE
5
268
100
AcDbEntity
8
0
100
AcDbLine
62
7
6
CONTINUOUS
10
-13.8691316741
20
-17.0961476444
11
-14.1517925721
21
-17.9288335189
0
LINE
5
269
100
AcDbEntity
8
0
100
AcDbLine
62
7
6
CONTINUOUS
10
-3.6141825975
20
-24.9257191030
11
-3.6819782144
21
-24.0190252507
0
LINE
5
26A
100
AcDbEntity
8
0
100
AcDbLine
62
7
6
CONTINUOUS
10
-3.9936252417
20
-23.9177512024
11
-3.9345161115
21
-24.7655523460
0
LINE
5
26B
100
AcDbEntity
8
0
100
AcDbLine
62
7
6
CONTINUOUS
10
-3.9156046409
20
-23.8787409020
11
-3.8564955106
21
-24.7265420455
0
LINE
5
26C
100
AcDbEntity
8
0
100
AcDbLine
62
7
6
CONTINUOUS
10
-3.2385726518
20
36.1222832140
11
-3.2385726518
21
35.1696552699
0
LINE
5
26D
100
AcDbEntity
8
0
100
AcDbLine
62
7
6
CONTINUOUS
10
-5.2428983430
20
-23.6931460201
11
-5.2633069320
21
-24.1011569357
0
LINE
5
26E
100
AcDbEntity
8
0
100
AcDbLine
62
7
6
CONTINUOUS
10
-5.1648777421
20
-23.6541357196
11
-5.1852863312
21
-24.0621466353
0
LINE
5
26F
100
AcDbEntity
8
0
100
AcDbLine
62
7
6
CONTINUOUS
10
-4.9785663450
20
-24.2435272292
11
-4.8446005712
21
-22.1467034808
0
LINE
5
270
100
AcDbEntity
8
0
100
AcDbLine
62
7
6
CONTINUOUS
10
-5.1724900918
20
-22.6555393468
11
-5.2156386957
21
-23.3067444754
0
LINE
5
271
100
AcDbEntity
8
0
100
AcDbLine
62
7
6
CONTINUOUS
10
-5.0944694910
20
-22.6165290463
11
-5.1376180948
21
-23.2677341750
0
LINE
5
272
100
AcDbEntity
8
0
100
AcDbLine
62
7
6
CONTINUOUS
10
-7.1264125426
20
-21.7513110975
11
-7.2446300324
21
-23.1104953855
0
LINE
5
273
100
AcDbEntity
8
0
100
AcDbLine
62
7
6
CONTINUOUS
10
-7.0483919417
20
-21.7123007970
11
-7.1666094316
21
-23.0714850851
0
LINE
5
274
100
AcDbEntity
8
0
100
AcDbLine
62
7
6
CONTINUOUS
10
-6.8966836898
20
-22.5389549544
11
-6.7666023624
21
-21.1857025852
0
LINE
5
275
100
AcDbEntity
8
0
100
AcDbLine
62
7
6
CONTINUOUS
10
-7.7394674491
20
-20.6992700418
11
-8.3361370304
21
-22.5647418865
0
LINE
5
276
100
AcDbEntity
8
0
100
AcDbLine
62
7
6
CONTINUOUS
10
-7.6800072452
20
-20.7182883374
11
-8.2581164296
21
-22.5257315861
0
LINE
5
277
100
AcDbEntity
8
0
100
AcDbLine
62
7
6
CONTINUOUS
10
-8.0513957362
20
-22.7071125336
11
-7.4547261549
21
-20.8416406889
0
LINE
5
278
100
AcDbEntity
8
0
100
AcDbLine
62
7
6
CONTINUOUS
10
-7.2055777877
20
-20.9662148725
11
-7.8022473690
21
-22.8316867172
0
LINE
5
279
100
AcDbEntity
8
0
100
AcDbLine
62
7
6
CONTINUOUS
10
-7.1461175838
20
-20.9852331681
11
-7.7242267681
21
-22.7926764168
0
LINE
5
27A
100
AcDbEntity
8
0
100
AcDbLine
62
7
6
CONTINUOUS
10
-7.5175067819
20
-22.9740570108
11
-7.1264125426
21
-21.7513110975
0
LINE
5
27B
100
AcDbEntity
8
0
100
AcDbLine
62
7
6
CONTINUOUS
10
-14.1311290717
20
22.4038408416
11
-14.4137899698
21
22.9820177003
0
LINE
5
27C
100
AcDbEntity
8
0
100
AcDbLine
62
7
6
CONTINUOUS
10
-13.8691316741
20
22.4668116274
11
-14.1517925721
21
23.0449884861
0
LINE
5
27D
100
AcDbEntity
8
0
100
AcDbLine
62
7
6
CONTINUOUS
10
1.2678571519
20
-21.6431392491
11
1.2678571519
21
-22.1552653840
0
LINE
5
27E
100
AcDbEntity
8
0
100
AcDbLine
62
7
6
CONTINUOUS
10
1.3192281868
20
-21.6273808172
11
1.3192281868
21
-22.1379316017
0
LINE
5
27F
100
AcDbEntity
8
0
100
AcDbLine
62
7
6
CONTINUOUS
10
1.7345342311
20
-26.4992802417
11
1.7345341159
21
15.3007043588
0
LINE
5
280
100
AcDbEntity
8
0
100
AcDbLine
62
7
6
CONTINUOUS
10
1.8086112560
20
-26.8706033178
11
1.8086112560
21
15.5183132244
0
LINE
5
281
100
AcDbEntity
8
0
100
AcDbLine
62
7
6
CONTINUOUS
10
2.9803113143
20
15.3178237046
11
2.9803113143
21
-27.6067534315
0
LINE
5
282
100
AcDbEntity
8
0
100
AcDbLine
62
7
6
CONTINUOUS
10
3.1091405774
20
15.3199296263
11
3.1091405774
21
-27.6046475097
0
LINE
5
283
100
AcDbEntity
8
0
100
AcDbLine
62
7
6
CONTINUOUS
10
3.2535457053
20
15.2948465670
11
3.2535457053
21
-27.6227986756
0
LINE
5
284
100
AcDbEntity
8
0
100
AcDbLine
62
7
6
CONTINUOUS
10
-6.2959177494
20
-22.1665584941
11
-6.6870119887
21
-23.3893044074
0
LINE
5
285
100
AcDbEntity
8
0
100
AcDbLine
62
7
6
CONTINUOUS
10
-6.2178971485
20
-22.1275481936
11
-6.6089913879
21
-23.3502941069
0
LINE
5
286
100
AcDbEntity
8
0
100
AcDbLine
62
7
6
CONTINUOUS
10
-6.4022714017
20
-23.5316747009
11
-5.8056018203
21
-21.6662028562
0
LINE
5
287
100
AcDbEntity
8
0
100
AcDbLine
62
7
6
CONTINUOUS
10
-4.1564767786
20
-22.4907653770
11
-4.7531463600
21
-24.3562372217
0
LINE
5
288
100
AcDbEntity
8
0
100
AcDbLine
62
7
6
CONTINUOUS
10
-4.0970165748
20
-22.5097836726
11
-4.6751257591
21
-24.3172269213
0
LINE
5
289
100
AcDbEntity
8
0
100
AcDbLine
62
7
6
CONTINUOUS
10
-4.1443295221
20
-23.4423676940
11
-3.9939086608
21
-22.9720808042
0
LINE
5
28A
100
AcDbEntity
8
0
100
AcDbLine
62
7
6
CONTINUOUS
10
-4.4684050658
20
-24.4986078688
11
-4.2427736090
21
-23.7931770188
0
LINE
5
28B
100
AcDbEntity
8
0
100
AcDbLine
62
7
6
CONTINUOUS
10
3.2918523822
20
15.2554957930
11
3.2918523822
21
-27.6621494518
0
LINE
5
28C
100
AcDbEntity
8
0
100
AcDbLine
62
7
6
CONTINUOUS
10
0.7158737332
20
-22.8156778509
11
0.7984331580
21
-22.4795941117
0
LINE
5
28D
100
AcDbEntity
8
0
100
AcDbLine
62
7
6
CONTINUOUS
10
-4.5462503394
20
-20.4354896164
11
-4.4741328848
21
-20.3111054064
0
LINE
5
28E
100
AcDbEntity
8
0
100
AcDbLine
62
7
6
CONTINUOUS
10
-6.2327127009
20
-21.4526474159
11
-6.8966836898
21
-22.5389549544
0
LINE
5
28F
100
AcDbEntity
8
0
100
AcDbLine
62
7
6
CONTINUOUS
10
-6.1932708861
20
-21.4767549728
11
-6.8186630889
21
-22.4999446540
0
LINE
5
290
100
AcDbEntity
8
0
100
AcDbLine
62
7
6
CONTINUOUS
10
-6.9598887382
20
-23.2528660326
11
-6.2959177494
21
-22.1665584941
0
LINE
5
291
100
AcDbEntity
8
0
100
AcDbLine
62
7
6
CONTINUOUS
10
-8.2377641836
20
-20.4501216746
11
-8.9742622454
21
-21.5910824946
0
LINE
5
292
100
AcDbEntity
8
0
100
AcDbLine
62
7
6
CONTINUOUS
10
-8.2004662647
20
-20.4741977379
11
-8.8962416445
21
-21.5520721941
0
LINE
5
293
100
AcDbEntity
8
0
100
AcDbLine
62
7
6
CONTINUOUS
10
-9.0123969854
20
-22.2266119090
11
-7.9530228894
21
-20.5924923217
0
LINE
5
294
100
AcDbEntity
8
0
100
AcDbLine
62
7
6
CONTINUOUS
10
7.7149659583
20
24.8818287556
11
7.7149659583
21
-40.5831662150
0
LINE
5
295
100
AcDbEntity
8
0
100
AcDbLine
62
7
6
CONTINUOUS
10
8.8368805347
20
24.9148081256
11
8.8368805347
21
-40.5501868450
0
LINE
5
296
100
AcDbEntity
8
0
100
AcDbLine
62
7
6
CONTINUOUS
10
-4.2159306677
20
-20.2987851587
11
-4.1205794942
21
-20.1343287111
0
LINE
5
297
100
AcDbEntity
8
0
100
AcDbLine
62
7
6
CONTINUOUS
10
-3.8623772772
20
-20.1220084634
11
-3.7670261036
21
-19.9575520158
0
LINE
5
298
100
AcDbEntity
8
0
100
AcDbLine
62
7
6
CONTINUOUS
10
-3.5088238866
20
-19.9452317681
11
-3.4134727130
21
-19.7807753205
0
LINE
5
299
100
AcDbEntity
8
0
100
AcDbLine
62
7
6
CONTINUOUS
10
-3.1552704960
20
-19.7684550728
11
-3.0599193224
21
-19.6039986252
0
LINE
5
29A
100
AcDbEntity
8
0
100
AcDbLine
62
7
6
CONTINUOUS
10
-5.4885154452
20
-23.1703061007
11
-5.1724900918
21
-22.6555393468
0
LINE
5
29B
100
AcDbEntity
8
0
100
AcDbLine
62
7
6
CONTINUOUS
10
-5.8921101225
20
-23.7867553405
11
-5.6937376059
21
-23.4677263886
0
LINE
5
29C
100
AcDbEntity
8
0
100
AcDbLine
62
7
6
CONTINUOUS
10
-5.1293418654
20
-22.0043328337
11
-6.1768514167
21
-23.6443846934
0
LINE
5
29D
100
AcDbEntity
8
0
100
AcDbLine
62
7
6
CONTINUOUS
10
-5.0916240926
20
-22.0284233690
11
-6.0988308158
21
-23.6053743929
0
LINE
5
29E
100
AcDbEntity
8
0
100
AcDbLine
62
7
6
CONTINUOUS
10
-12.9240589200
20
-16.0736176169
11
-13.6862821014
21
-16.4632598876
0
LINE
5
29F
100
AcDbEntity
8
0
100
AcDbLine
62
7
6
CONTINUOUS
10
-12.7828313768
20
-16.3171990977
11
-13.5450545582
21
-16.7068413684
0
LINE
5
2A0
100
AcDbEntity
8
0
100
AcDbLine
62
7
6
CONTINUOUS
10
-12.8179929028
20
-15.8126706084
11
-12.8682642058
21
-15.8378062599
0
LINE
5
2A1
100
AcDbEntity
8
0
100
AcDbLine
62
7
6
CONTINUOUS
10
12.0486889830
20
26.5549177732
11
12.0486889830
21
-39.2983711762
0
LINE
5
2A2
100
AcDbEntity
8
0
100
AcDbLine
62
7
6
CONTINUOUS
10
-0.6571630429
20
-22.3800332646
11
-0.5850455883
21
-22.2556490546
0
LINE
5
2A3
100
AcDbEntity
8
0
100
AcDbLine
62
7
6
CONTINUOUS
10
-0.3375582148
20
-22.2618091785
11
-0.2314921977
21
-22.0788723593
0
LINE
5
2A4
100
AcDbEntity
8
0
100
AcDbLine
62
7
6
CONTINUOUS
10
0.0159951758
20
-22.0850324832
11
0.1220611929
21
-21.9020956640
0
LINE
5
2A5
100
AcDbEntity
8
0
100
AcDbLine
62
7
6
CONTINUOUS
10
0.3695485663
20
-21.9082557879
11
0.4756145835
21
-21.7253189687
0
LINE
5
2A6
100
AcDbEntity
8
0
100
AcDbLine
62
7
6
CONTINUOUS
10
0.7231019569
20
-21.7314790926
11
0.8291679741
21
-21.5485422735
0
LINE
5
2A7
100
AcDbEntity
8
0
100
AcDbLine
62
7
6
CONTINUOUS
10
12.5671405418
20
-38.3684429979
11
12.5671405418
21
27.4518614052
0
LINE
5
2A8
100
AcDbEntity
8
0
100
AcDbLine
62
7
6
CONTINUOUS
10
-8.9742622454
20
-21.5910824946
11
-8.8962416445
21
-21.5520721941
0
LINE
5
2A9
100
AcDbEntity
8
0
100
AcDbLine
62
7
6
CONTINUOUS
10
-9.2852737349
20
-22.0901735343
11
-9.2072531340
21
-22.0511632338
0
LINE
5
2AA
100
AcDbEntity
8
0
100
AcDbLine
62
7
6
CONTINUOUS
10
1.7345341159
20
14.6093890045
11
-13.7650679434
21
22.3591900341
0
LINE
5
2AB
100
AcDbEntity
8
0
100
AcDbLine
62
7
6
CONTINUOUS
10
1.7345341159
20
14.6649787324
11
-13.8691316741
21
22.4668116274
0
LINE
5
2AC
100
AcDbEntity
8
0
100
AcDbLine
62
7
6
CONTINUOUS
10
-13.7651804759
20
22.3592463016
11
-13.7678815921
21
22.3606202774
0
LINE
5
2AD
100
AcDbEntity
8
0
100
AcDbLine
62
7
6
CONTINUOUS
10
2.5685928304
20
16.5120901359
11
2.5686193698
21
16.5120726643
0
LINE
5
2AE
100
AcDbEntity
8
0
100
AcDbLine
62
7
6
CONTINUOUS
10
1.0059446694
20
-22.3738549164
11
1.2606495430
21
-22.1892588655
0
LINE
5
2AF
100
AcDbEntity
8
0
100
AcDbLine
62
7
6
CONTINUOUS
10
-4.4741328848
20
-20.3111054064
11
-4.3327115285
21
-20.2403947283
0
LINE
5
2B0
100
AcDbEntity
8
0
100
AcDbLine
62
7
6
CONTINUOUS
10
-4.1205794942
20
-20.1343287111
11
-3.9791581379
21
-20.0636180330
0
LINE
5
2B1
100
AcDbEntity
8
0
100
AcDbLine
62
7
6
CONTINUOUS
10
-3.7670261036
20
-19.9575520158
11
-3.6256047474
21
-19.8868413377
0
LINE
5
2B2
100
AcDbEntity
8
0
100
AcDbLine
62
7
6
CONTINUOUS
10
-3.4134727130
20
-19.7807753205
11
-3.2720513568
21
-19.7100646424
0
LINE
5
2B3
100
AcDbEntity
8
0
100
AcDbLine
62
7
6
CONTINUOUS
10
-3.0599193224
20
-19.6039986252
11
-2.9184979662
21
-19.5332879471
0
LINE
5
2B4
100
AcDbEntity
8
0
100
AcDbLine
62
7
6
CONTINUOUS
10
-7.1264125426
20
-21.7513110975
11
-7.0483919417
21
-21.7123007970
0
LINE
5
2B5
100
AcDbEntity
8
0
100
AcDbLine
62
7
6
CONTINUOUS
10
-8.3361370304
20
-22.5647418865
11
-8.2581164296
21
-22.5257315861
0
LINE
5
2B6
100
AcDbEntity
8
0
100
AcDbLine
62
7
6
CONTINUOUS
10
-7.8022473690
20
-22.8316867172
11
-7.7242267681
21
-22.7926764168
0
LINE
5
2B7
100
AcDbEntity
8
0
100
AcDbLine
62
7
6
CONTINUOUS
10
-6.2959177494
20
-22.1665584941
11
-6.2178971485
21
-22.1275481936
0
LINE
5
2B8
100
AcDbEntity
8
0
100
AcDbLine
62
7
6
CONTINUOUS
10
-6.8966836898
20
-22.5389549544
11
-6.8186630889
21
-22.4999446540
0
LINE
5
2B9
100
AcDbEntity
8
0
100
AcDbLine
62
7
6
CONTINUOUS
10
-7.2446300324
20
-23.1104953855
11
-7.1666094316
21
-23.0714850851
0
LINE
5
2BA
100
AcDbEntity
8
0
100
AcDbLine
62
7
6
CONTINUOUS
10
-6.6870119887
20
-23.3893044074
11
-6.6089913879
21
-23.3502941069
0
LINE
5
2BB
100
AcDbEntity
8
0
100
AcDbLine
62
7
6
CONTINUOUS
10
-5.1724900918
20
-22.6555393468
11
-5.0944694910
21
-22.6165290463
0
LINE
5
2BC
100
AcDbEntity
8
0
100
AcDbLine
62
7
6
CONTINUOUS
10
-6.1768514167
20
-23.6443846934
11
-6.0988308158
21
-23.6053743929
0
LINE
5
2BD
100
AcDbEntity
8
0
100
AcDbLine
62
7
6
CONTINUOUS
10
-5.6937376059
20
-23.4677263886
11
-5.6157170050
21
-23.4287160882
0
LINE
5
2BE
100
AcDbEntity
8
0
100
AcDbLine
62
7
6
CONTINUOUS
10
-5.2156386957
20
-23.3067444754
11
-5.1376180948
21
-23.2677341750
0
LINE
5
2BF
100
AcDbEntity
8
0
100
AcDbLine
62
7
6
CONTINUOUS
10
-3.9939086608
20
-22.9720808042
11
-3.9158880599
21
-22.9330705038
0
LINE
5
2C0
100
AcDbEntity
8
0
100
AcDbLine
62
7
6
CONTINUOUS
10
-2.9966202235
20
-19.5180646118
11
-4.7775468297
21
-20.3198413712
0
LINE
5
2C1
100
AcDbEntity
8
0
100
AcDbLine
62
7
6
CONTINUOUS
10
1.2608436221
20
-21.6467965346
11
-0.3427098968
21
-22.5372598377
0
LINE
5
2C2
100
AcDbEntity
8
0
100
AcDbLine
62
7
6
CONTINUOUS
10
1.0059446694
20
-22.3738549164
11
0.1761438792
21
-22.7966867257
0
LINE
5
2C3
100
AcDbEntity
8
0
100
AcDbLine
62
7
6
CONTINUOUS
10
0.6453560230
20
-22.9141996251
11
0.5285854482
21
-22.9729075102
0
LINE
5
2C4
100
AcDbEntity
8
0
100
AcDbLine
62
7
6
CONTINUOUS
10
0.7158737332
20
-22.8156778509
11
0.4655613544
21
-22.9413954633
0
LINE
5
2C5
100
AcDbEntity
8
0
100
AcDbLine
62
7
6
CONTINUOUS
10
-5.2428983430
20
-23.6931460201
11
-5.1648777421
21
-23.6541357196
0
LINE
5
2C6
100
AcDbEntity
8
0
100
AcDbLine
62
7
6
CONTINUOUS
10
-3.6379823903
20
-23.1500439453
11
-3.5599617836
21
-23.1110336419
0
LINE
5
2C7
100
AcDbEntity
8
0
100
AcDbLine
62
7
6
CONTINUOUS
10
-5.2633069320
20
-24.1011569357
11
-5.1852863312
21
-24.0621466353
0
LINE
5
2C8
100
AcDbEntity
8
0
100
AcDbLine
62
7
6
CONTINUOUS
10
-4.2427736090
20
-23.7931770188
11
-4.1647530081
21
-23.7541667183
0
LINE
5
2C9
100
AcDbEntity
8
0
100
AcDbLine
62
7
6
CONTINUOUS
10
-3.9936252417
20
-23.9177512024
11
-3.9156046409
21
-23.8787409020
0
LINE
5
2CA
100
AcDbEntity
8
0
100
AcDbLine
62
7
6
CONTINUOUS
10
-0.5850455883
20
-22.2556490546
11
-0.4436242320
21
-22.1849383765
0
LINE
5
2CB
100
AcDbEntity
8
0
100
AcDbLine
62
7
6
CONTINUOUS
10
-0.2314921977
20
-22.0788723593
11
-0.0900708414
21
-22.0081616812
0
LINE
5
2CC
100
AcDbEntity
8
0
100
AcDbLine
62
7
6
CONTINUOUS
10
0.1220611929
20
-21.9020956640
11
0.2634825492
21
-21.8313849859
0
LINE
5
2CD
100
AcDbEntity
8
0
100
AcDbLine
62
7
6
CONTINUOUS
10
0.4756145835
20
-21.7253189687
11
0.6170359398
21
-21.6546082906
0
LINE
5
2CE
100
AcDbEntity
8
0
100
AcDbLine
62
7
6
CONTINUOUS
10
0.8291679741
20
-21.5485422735
11
0.9705893304
21
-21.4778315953
0
LINE
5
2CF
100
AcDbEntity
8
0
100
AcDbLine
62
7
6
CONTINUOUS
10
-4.7531463600
20
-24.3562372217
11
-4.6751257591
21
-24.3172269213
0
LINE
5
2D0
100
AcDbEntity
8
0
100
AcDbLine
62
7
6
CONTINUOUS
10
1.0766553475
20
-21.5547023973
11
-0.6155847150
21
-22.4008224286
0
LINE
5
2D1
100
AcDbEntity
8
0
100
AcDbLine
62
7
6
CONTINUOUS
10
-3.6819782144
20
-24.0190252507
11
-3.6039576136
21
-23.9800149503
0
LINE
5
2D2
100
AcDbEntity
8
0
100
AcDbLine
62
7
6
CONTINUOUS
10
-3.9345161115
20
-24.7655523460
11
-3.8564955106
21
-24.7265420455
0
LINE
5
2D3
100
AcDbEntity
8
0
100
AcDbLine
62
7
6
CONTINUOUS
10
1.2678571519
20
-22.1552653840
11
0.0784433291
21
-22.7478364506
0
LINE
5
2D4
100
AcDbEntity
8
0
100
AcDbLine
62
7
6
CONTINUOUS
10
2.7349001455
20
-28.1881020330
11
2.6068068781
21
-28.2543833872
0
LINE
5
2D5
100
AcDbEntity
8
0
100
AcDbLine
62
7
6
CONTINUOUS
10
2.9651361434
20
-28.1988865286
11
2.9639703631
21
-28.1994877839
0
LINE
5
2D6
100
AcDbEntity
8
0
100
AcDbLine
62
7
6
CONTINUOUS
10
2.7902516227
20
-28.1700589402
11
2.7891667188
21
-28.1704969195
0
LINE
5
2D7
100
AcDbEntity
8
0
100
AcDbLine
62
7
6
CONTINUOUS
10
-3.2385726518
20
36.1222832140
11
-3.5152832524
21
36.3361409126
0
LINE
5
2D8
100
AcDbEntity
8
0
100
AcDbLine
62
7
6
CONTINUOUS
10
0.5463252616
20
33.1578604604
11
-4.4034222067
21
35.6327341945
0
LINE
5
2D9
100
AcDbEntity
8
0
100
AcDbLine
62
7
6
CONTINUOUS
10
-13.5615669395
20
41.3592827562
11
-3.5152832524
21
36.3361409126
0
LINE
5
2DA
100
AcDbEntity
8
0
100
AcDbLine
62
7
6
CONTINUOUS
10
11.8610028259
20
28.6479978734
11
1.8147191388
21
33.6711397170
0
LINE
5
2DB
100
AcDbEntity
8
0
100
AcDbLine
62
7
6
CONTINUOUS
10
8.2182690058
20
-41.6290051461
11
11.3871268804
21
-40.3939300539
0
LINE
5
2DC
100
AcDbEntity
8
0
100
AcDbLine
62
7
6
CONTINUOUS
10
12.5671405418
20
-38.3470876198
11
12.0486889830
21
-38.5488752937
0
LINE
5
2DD
100
AcDbEntity
8
0
100
AcDbLine
62
7
6
CONTINUOUS
10
12.2828488971
20
-38.8988044086
11
12.0486889830
21
-38.9899423048
0
SPLINE
5
2DE
100
AcDbEntity
8
0
100
AcDbSpline
62
7
6
CONTINUOUS
70
0
71
3
72
10
73
6
74
4
42
0.0000001000
43
0.0000001000
44
0.0000000001
12
-0.4144711176
22
-0.2450866455
32
0.0000000000
13
-0.0644332344
23
-0.4732115171
33
0.0000000000
40
0.0000000000
40
0.0000000000
40
0.0000000000
40
0.0000000000
40
0.0629913390
40
0.4981364931
40
1.0000000000
40
1.0000000000
40
1.0000000000
40
1.0000000000
10
-15.4251259036
20
25.2037959745
30
0.0000000000
10
-15.4338286005
20
25.1986498625
30
0.0000000000
10
-15.5008837084
20
25.1551748646
30
0.0000000000
10
-15.6023835900
20
25.0254830146
30
0.0000000000
10
-15.6410774954
20
24.8795120261
30
0.0000000000
10
-15.6518563917
20
24.8003494956
30
0.0000000000
11
-15.4251259036
21
25.2037959745
31
0.0000000000
11
-15.4505236161
21
25.1873168205
31
0.0000000000
11
-15.5834454730
21
25.0288631162
31
0.0000000000
11
-15.6518563917
21
24.8003494956
31
0.0000000000
0
SPLINE
5
2DF
100
AcDbEntity
8
0
100
AcDbSpline
62
7
6
CONTINUOUS
70
0
71
3
72
8
73
4
74
2
42
0.0000001000
43
0.0000001000
44
0.0000000001
12
-0.0192136339
22
-0.1411090554
32
0.0000000000
13
0.0000070557
23
-0.1420832262
33
0.0000000000
40
0.0000000000
40
0.0000000000
40
0.0000000000
40
0.0000000000
40
1.0000000000
40
1.0000000000
40
1.0000000000
40
1.0000000000
10
-15.6518563917
20
24.8003494956
30
0.0000000000
10
-15.6582609364
20
24.7533131438
30
0.0000000000
10
-15.6611542440
20
24.7059307358
30
0.0000000000
10
-15.6611518921
20
24.6585696604
30
0.0000000000
11
-15.6518563917
21
24.8003494956
31
0.0000000000
11
-15.6611518921
21
24.6585696604
31
0.0000000000
0
SPLINE
5
2E0
100
AcDbEntity
8
0
100
AcDbSpline
62
7
6
CONTINUOUS
70
0
71
3
72
8
73
4
74
2
42
0.0000001000
43
0.0000001000
44
0.0000000001
12
-0.0000062435
22
-0.0511059840
32
0.0000000000
13
0.0021560063
23
-0.0511028373
33
0.0000000000
40
0.0000000000
40
0.0000000000
40
0.0000000000
40
0.0000000000
40
1.0000000000
40
1.0000000000
40
1.0000000000
40
1.0000000000
10
-15.6611372013
20
-18.2657654726
30
0.0000000000
10
-15.6611392825
20
-18.2828008006
30
0.0000000000
10
-15.6607679351
20
-18.2998449327
30
0.0000000000
10
-15.6600492663
20
-18.3168792118
30
0.0000000000
11
-15.6611372013
21
-18.2657654726
31
0.0000000000
11
-15.6600492663
21
-18.3168792118
31
0.0000000000
0
SPLINE
5
2E1
100
AcDbEntity
8
0
100
AcDbSpline
62
7
6
CONTINUOUS
70
0
71
3
72
9
73
5
74
3
42
0.0000001000
43
0.0000001000
44
0.0000000001
12
0.0077804011
22
-0.1844153151
32
0.0000000000
13
0.0317914779
23
-0.1815060622
33
0.0000000000
40
0.0000000000
40
0.0000000000
40
0.0000000000
40
0.0000000000
40
0.4919751979
40
1.0000000000
40
1.0000000000
40
1.0000000000
40
1.0000000000
10
-15.6600492663
20
-18.3168792118
30
0.0000000000
10
-15.6587733448
20
-18.3471217988
30
0.0000000000
10
-15.6539546289
20
-18.4085304432
30
0.0000000000
10
-15.6452164377
20
-18.4693794083
30
0.0000000000
10
-15.6398328180
20
-18.5001159354
30
0.0000000000
11
-15.6600492663
21
-18.3168792118
31
0.0000000000
11
-15.6530832992
21
-18.4074093942
31
0.0000000000
11
-15.6398328180
21
-18.5001159354
31
0.0000000000
0
SPLINE
5
2E2
100
AcDbEntity
8
0
100
AcDbSpline
62
7
6
CONTINUOUS
70
0
71
3
72
10
73
6
74
4
42
0.0000001000
43
0.0000001000
44
0.0000000001
12
0.1186704611
22
-0.6775214474
32
0.0000000000
13
0.3791504129
23
-0.5739097173
33
0.0000000000
40
0.0000000000
40
0.0000000000
40
0.0000000000
40
0.0000000000
40
0.2819216060
40
0.7155192996
40
1.0000000000
40
1.0000000000
40
1.0000000000
40
1.0000000000
10
-15.6398328180
20
-18.5001159354
30
0.0000000000
10
-15.6286808957
20
-18.5637852469
30
0.0000000000
10
-15.5900923158
20
-18.7234589693
30
0.0000000000
10
-15.5050550186
20
-18.9372628257
30
0.0000000000
10
-15.4231558502
20
-19.0803450952
30
0.0000000000
10
-15.3872021919
20
-19.1347671747
30
0.0000000000
11
-15.6398328180
21
-18.5001159354
31
0.0000000000
11
-15.5948170418
21
-18.6885722289
31
0.0000000000
11
-15.4847775712
21
-18.9653360074
31
0.0000000000
11
-15.3872021919
21
-19.1347671747
31
0.0000000000
0
SPLINE
5
2E3
100
AcDbEntity
8
0
100
AcDbSpline
62
7
6
CONTINUOUS
70
0
71
3
72
9
73
5
74
3
42
0.0000001000
43
0.0000001000
44
0.0000000001
12
0.1525461315
22
-0.2309049502
32
0.0000000000
13
0.1968240420
23
-0.1945947077
33
0.0000000000
40
0.0000000000
40
0.0000000000
40
0.0000000000
40
0.0000000000
40
0.3431972753
40
1.0000000000
40
1.0000000000
40
1.0000000000
40
1.0000000000
10
-15.3872021919
20
-19.1347671747
30
0.0000000000
10
-15.3697510530
20
-19.1611824913
30
0.0000000000
10
-15.3164944254
20
-19.2365975191
30
0.0000000000
10
-15.2559910487
20
-19.3068814851
30
0.0000000000
10
-15.2128995263
20
-19.3494849299
30
0.0000000000
11
-15.3872021919
21
-19.1347671747
31
0.0000000000
11
-15.3323424403
21
-19.2123425965
31
0.0000000000
11
-15.2128995263
21
-19.3494849299
31
0.0000000000
0
SPLINE
5
2E4
100
AcDbEntity
8
0
100
AcDbSpline
62
7
6
CONTINUOUS
70
0
71
3
72
8
73
4
74
2
42
0.0000001000
43
0.0000001000
44
0.0000000001
12
0.0152740305
22
-0.0151010286
32
0.0000000000
13
0.0155559742
23
-0.0147962493
33
0.0000000000
40
0.0000000000
40
0.0000000000
40
0.0000000000
40
0.0000000000
40
1.0000000000
40
1.0000000000
40
1.0000000000
40
1.0000000000
10
-15.2128995263
20
-19.3494849299
30
0.0000000000
10
-15.2078081828
20
-19.3545186061
30
0.0000000000
10
-15.2026700356
20
-19.3595025956
30
0.0000000000
10
-15.1974847108
20
-19.3644346786
30
0.0000000000
11
-15.2128995263
21
-19.3494849299
31
0.0000000000
11
-15.1974847108
21
-19.3644346786
31
0.0000000000
0
SPLINE
5
2E5
100
AcDbEntity
8
0
100
AcDbSpline
62
7
6
CONTINUOUS
70
0
71
3
72
12
73
8
74
6
42
0.0000001000
43
0.0000001000
44
0.0000000001
12
14.5053023529
22
-13.8086152553
32
0.0000000000
13
19.8317811319
23
-2.7970770143
33
0.0000000000
40
0.0000000000
40
0.0000000000
40
0.0000000000
40
0.0000000000
40
0.2062068643
40
0.4117727265
40
0.6127068629
40
0.8109993643
40
1.0000000000
40
1.0000000000
40
1.0000000000
40
1.0000000000
10
-15.1975264364
20
-19.3644116683
30
0.0000000000
10
-14.2004954653
20
-20.3135554189
30
0.0000000000
10
-12.1068942172
20
-22.1051061317
30
0.0000000000
10
-8.7016009603
20
-24.3881184165
30
0.0000000000
10
-5.0826611030
20
-26.2029943062
30
0.0000000000
10
-1.3631047011
20
-27.4946440912
30
0.0000000000
10
1.1770526432
20
-28.0197048689
30
0.0000000000
10
2.4264590571
20
-28.1959213135
30
0.0000000000
11
-15.1975264364
21
-19.3644116683
31
0.0000000000
11
-12.0547474805
21
-22.0433844327
31
0.0000000000
11
-8.6315758848
21
-24.3299804653
31
0.0000000000
11
-5.0325137287
21
-26.1295113139
31
0.0000000000
11
-1.2804487568
21
-27.4297548296
31
0.0000000000
11
2.4264590571
21
-28.1959213135
31
0.0000000000
0
SPLINE
5
2E6
100
AcDbEntity
8
0
100
AcDbSpline
62
7
6
CONTINUOUS
70
0
71
3
72
8
73
4
74
2
42
0.0000001000
43
0.0000001000
44
0.0000000001
12
0.0569111163
22
-0.0080267513
32
0.0000000000
13
0.0569245458
23
-0.0079160448
33
0.0000000000
40
0.0000000000
40
0.0000000000
40
0.0000000000
40
0.0000000000
40
1.0000000000
40
1.0000000000
40
1.0000000000
40
1.0000000000
10
2.4264590571
20
-28.1959213135
30
0.0000000000
10
2.4454294292
20
-28.1985968973
30
0.0000000000
10
2.4644020604
20
-28.2012540344
30
0.0000000000
10
2.4833769091
20
-28.2038927160
30
0.0000000000
11
2.4264590571
21
-28.1959213135
31
0.0000000000
11
2.4833769091
21
-28.2038927160
31
0.0000000000
0
SPLINE
5
2E7
100
AcDbEntity
8
0
100
AcDbSpline
62
7
6
CONTINUOUS
70
0
71
3
72
8
73
4
74
2
42
0.0000001000
43
0.0000001000
44
0.0000000001
12
0.0213685200
22
-0.0029711448
32
0.0000000000
13
0.0214505929
23
-0.0023155229
33
0.0000000000
40
0.0000000000
40
0.0000000000
40
0.0000000000
40
0.0000000000
40
1.0000000000
40
1.0000000000
40
1.0000000000
40
1.0000000000
10
2.4833914089
20
-28.2038608893
30
0.0000000000
10
2.4905142489
20
-28.2048512709
30
0.0000000000
10
2.4976523672
20
-28.2057341656
30
0.0000000000
10
2.5048025649
20
-28.2065060066
30
0.0000000000
11
2.4833914089
21
-28.2038608893
31
0.0000000000
11
2.5048025649
21
-28.2065060066
31
0.0000000000
0
SPLINE
5
2E8
100
AcDbEntity
8
0
100
AcDbSpline
62
7
6
CONTINUOUS
70
0
71
3
72
8
73
4
74
2
42
0.0000001000
43
0.0000001000
44
0.0000000001
12
0.0665584909
22
-0.0071847763
32
0.0000000000
13
0.0669695720
23
-0.0004498512
33
0.0000000000
40
0.0000000000
40
0.0000000000
40
0.0000000000
40
0.0000000000
40
1.0000000000
40
1.0000000000
40
1.0000000000
40
1.0000000000
10
2.5048025649
20
-28.2065060066
30
0.0000000000
10
2.5269887285
20
-28.2089009321
30
0.0000000000
10
2.5492911897
20
-28.2102266504
30
0.0000000000
10
2.5716143803
20
-28.2103766008
30
0.0000000000
11
2.5048025649
21
-28.2065060066
31
0.0000000000
11
2.5716143803
21
-28.2103766008
31
0.0000000000
0
SPLINE
5
2E9
100
AcDbEntity
8
0
100
AcDbSpline
62
7
6
CONTINUOUS
70
0
71
3
72
8
73
4
74
2
42
0.0000001000
43
0.0000001000
44
0.0000000001
12
0.0651176681
22
-0.0004374115
32
0.0000000000
13
0.0648090206
23
0.0064194769
33
0.0000000000
40
0.0000000000
40
0.0000000000
40
0.0000000000
40
0.0000000000
40
1.0000000000
40
1.0000000000
40
1.0000000000
40
1.0000000000
10
2.5716143803
20
-28.2103766008
30
0.0000000000
10
2.5933202697
20
-28.2105224046
30
0.0000000000
10
2.6150457580
20
-28.2095565682
30
0.0000000000
10
2.6366487648
20
-28.2074167426
30
0.0000000000
11
2.5716143803
21
-28.2103766008
31
0.0000000000
11
2.6366487648
21
-28.2074167426
31
0.0000000000
0
SPLINE
5
2EA
100
AcDbEntity
8
0
100
AcDbSpline
62
7
6
CONTINUOUS
70
0
71
3
72
9
73
5
74
3
42
0.0000001000
43
0.0000001000
44
0.0000000001
12
0.1579001021
22
0.0156403545
32
0.0000000000
13
0.1472808571
23
0.0598835510
33
0.0000000000
40
0.0000000000
40
0.0000000000
40
0.0000000000
40
0.0000000000
40
0.7923621859
40
1.0000000000
40
1.0000000000
40
1.0000000000
40
1.0000000000
10
2.6366487648
20
-28.2074167426
30
0.0000000000
10
2.6783534548
20
-28.2032858008
30
0.0000000000
10
2.7304107355
20
-28.1925505354
30
0.0000000000
10
2.7801128011
20
-28.1741319827
30
0.0000000000
10
2.7903064928
20
-28.1699872861
30
0.0000000000
11
2.6366487648
21
-28.2074167426
31
0.0000000000
11
2.7593712031
21
-28.1814495056
31
0.0000000000
11
2.7903064928
21
-28.1699872861
31
0.0000000000
0
SPLINE
5
2EB
100
AcDbEntity
8
0
100
AcDbSpline
62
7
6
CONTINUOUS
70
0
71
3
72
8
73
4
74
2
42
0.0000001000
43
0.0000001000
44
0.0000000001
12
-0.0013742172
22
0.1125745265
32
0.0000000000
13
-0.0010568988
23
0.1125780652
33
0.0000000000
40
0.0000000000
40
0.0000000000
40
0.0000000000
40
0.0000000000
40
1.0000000000
40
1.0000000000
40
1.0000000000
40
1.0000000000
10
-12.8150287864
20
-16.2965259241
30
0.0000000000
10
-12.8154868588
20
-16.2590010819
30
0.0000000000
10
-12.8158921550
20
-16.2214755817
30
0.0000000000
10
-12.8162444545
20
-16.1839495600
30
0.0000000000
11
-12.8150287864
21
-16.2965259241
31
0.0000000000
11
-12.8162444545
21
-16.1839495600
31
0.0000000000
0
SPLINE
5
2EC
100
AcDbEntity
8
0
100
AcDbSpline
62
7
6
CONTINUOUS
70
0
71
3
72
8
73
4
74
2
42
0.0000001000
43
0.0000001000
44
0.0000000001
12
-0.0034855055
22
0.3712668298
32
0.0000000000
13
-0.0000034881
23
0.3712861786
33
0.0000000000
40
0.0000000000
40
0.0000000000
40
0.0000000000
40
0.0000000000
40
1.0000000000
40
1.0000000000
40
1.0000000000
40
1.0000000000
10
-12.8162444545
20
-16.1839495600
30
0.0000000000
10
-12.8174062897
20
-16.0601939501
30
0.0000000000
10
-12.8179917401
20
-15.9364326679
30
0.0000000000
10
-12.8179929028
20
-15.8126706084
30
0.0000000000
11
-12.8162444545
21
-16.1839495600
31
0.0000000000
11
-12.8179929028
21
-15.8126706084
31
0.0000000000
0
SPLINE
5
2ED
100
AcDbEntity
8
0
100
AcDbSpline
62
7
6
CONTINUOUS
70
0
71
3
72
8
73
4
74
2
42
0.0000001000
43
0.0000001000
44
0.0000000001
12
-0.0977244924
22
-0.0594719666
32
0.0000000000
13
-0.0977242180
23
-0.0594724175
33
0.0000000000
40
0.0000000000
40
0.0000000000
40
0.0000000000
40
0.0000000000
40
1.0000000000
40
1.0000000000
40
1.0000000000
40
1.0000000000
10
-15.1541960752
20
25.3688775298
30
0.0000000000
10
-15.1867709060
20
25.3490535409
30
0.0000000000
10
-15.2193456911
20
25.3292294769
30
0.0000000000
10
-15.2519204304
20
25.3094053378
30
0.0000000000
11
-15.1541960752
21
25.3688775298
31
0.0000000000
11
-15.2519204304
21
25.3094053378
31
0.0000000000
0
SPLINE
5
2EE
100
AcDbEntity
8
0
100
AcDbSpline
62
7
6
CONTINUOUS
70
0
71
3
72
8
73
4
74
2
42
0.0000001000
43
0.0000001000
44
0.0000000001
12
-0.1537693114
22
-0.0935800037
32
0.0000000000
13
-0.1537686316
23
-0.0935811207
33
0.0000000000
40
0.0000000000
40
0.0000000000
40
0.0000000000
40
0.0000000000
40
1.0000000000
40
1.0000000000
40
1.0000000000
40
1.0000000000
10
-15.2519204304
20
25.3094053378
30
0.0000000000
10
-15.3031768675
20
25.2782120032
30
0.0000000000
10
-15.3544331914
20
25.2470184825
30
0.0000000000
10
-15.4056894019
20
25.2158247756
30
0.0000000000
11
-15.2519204304
21
25.3094053378
31
0.0000000000
11
-15.4056894019
21
25.2158247756
31
0.0000000000
0
SPLINE
5
2EF
100
AcDbEntity
8
0
100
AcDbSpline
62
7
6
CONTINUOUS
70
0
71
3
72
8
73
4
74
2
42
0.0000001000
43
0.0000001000
44
0.0000000001
12
-0.0217678556
22
-0.0132475675
32
0.0000000000
13
-0.0217678419
23
-0.0132475898
33
0.0000000000
40
0.0000000000
40
0.0000000000
40
0.0000000000
40
0.0000000000
40
1.0000000000
40
1.0000000000
40
1.0000000000
40
1.0000000000
10
-15.4056894019
20
25.2158247756
30
0.0000000000
10
-15.4129453538
20
25.2114089198
30
0.0000000000
10
-15.4202013034
20
25.2069930602
30
0.0000000000
10
-15.4274572507
20
25.2025771970
30
0.0000000000
11
-15.4056894019
21
25.2158247756
31
0.0000000000
11
-15.4274572507
21
25.2025771970
31
0.0000000000
0
SPLINE
5
2F0
100
AcDbEntity
8
0
100
AcDbSpline
62
7
6
CONTINUOUS
70
0
71
3
72
8
73
4
74
2
42
0.0000001000
43
0.0000001000
44
0.0000000001
12
0.1416208631
22
0.0569640108
32
0.0000000000
13
0.1416204986
23
0.0569649169
33
0.0000000000
40
0.0000000000
40
0.0000000000
40
0.0000000000
40
0.0000000000
40
1.0000000000
40
1.0000000000
40
1.0000000000
40
1.0000000000
10
2.7891807855
20
-28.1704912615
30
0.0000000000
10
2.8363877398
20
-28.1515032579
30
0.0000000000
10
2.8835946334
20
-28.1325151033
30
0.0000000000
10
2.9308014663
20
-28.1135267976
30
0.0000000000
11
2.7891807855
21
-28.1704912615
31
0.0000000000
11
2.9308014663
21
-28.1135267976
31
0.0000000000
0
SPLINE
5
2F1
100
AcDbEntity
8
0
100
AcDbSpline
62
7
6
CONTINUOUS
70
0
71
3
72
8
73
4
74
2
42
0.0000001000
43
0.0000001000
44
0.0000000001
12
0.2189443357
22
0.0880673774
32
0.0000000000
13
0.2189434651
23
0.0880695418
33
0.0000000000
40
0.0000000000
40
0.0000000000
40
0.0000000000
40
0.0000000000
40
1.0000000000
40
1.0000000000
40
1.0000000000
40
1.0000000000
10
2.9308014663
20
-28.1135267976
30
0.0000000000
10
3.0037829115
20
-28.0841710051
30
0.0000000000
10
3.0767642116
20
-28.0548148518
30
0.0000000000
10
3.1497453667
20
-28.0254583379
30
0.0000000000
11
2.9308014663
21
-28.1135267976
31
0.0000000000
11
3.1497453667
21
-28.0254583379
31
0.0000000000
0
SPLINE
5
2F2
100
AcDbEntity
8
0
100
AcDbSpline
62
7
6
CONTINUOUS
70
0
71
3
72
14
73
10
74
8
42
0.0000001000
43
0.0000001000
44
0.0000000001
12
1.1108568515
22
-0.5554284258
32
0.0000000000
13
-0.9326250005
23
-0.8265858255
33
0.0000000000
40
0.0000000000
40
0.0000000000
40
0.0000000000
40
0.0000000000
40
0.1179735745
40
0.2479134614
40
0.3924569461
40
0.5481158698
40
0.7047292617
40
0.8583816396
40
1.0000000000
40
1.0000000000
40
1.0000000000
40
1.0000000000
10
-3.4920807699
20
-22.8229633589
30
0.0000000000
10
-3.4483968520
20
-22.8448053178
30
0.0000000000
10
-3.3651515035
20
-22.9086537388
30
0.0000000000
10
-3.2705369003
20
-23.0432614618
30
0.0000000000
10
-3.2111992058
20
-23.2134203816
30
0.0000000000
10
-3.1947115869
20
-23.4036745435
30
0.0000000000
10
-3.2241417156
20
-23.5961762711
30
0.0000000000
10
-3.2972841754
20
-23.7705966971
30
0.0000000000
10
-3.3747101885
20
-23.8677001167
30
0.0000000000
10
-3.4187357963
20
-23.9067200264
30
0.0000000000
11
-3.4920807699
21
-22.8229633589
31
0.0000000000
11
-3.3744860833
21
-22.9103686924
31
0.0000000000
11
-3.2804016731
21
-23.0414882299
31
0.0000000000
11
-3.2198213513
21
-23.2104772082
31
0.0000000000
11
-3.2024475800
21
-23.4030195524
31
0.0000000000
11
-3.2321310712
21
-23.5952512927
31
0.0000000000
11
-3.3072564751
21
-23.7706742820
31
0.0000000000
11
-3.4187357963
21
-23.9067200264
31
0.0000000000
0
SPLINE
5
2F3
100
AcDbEntity
8
0
100
AcDbSpline
62
7
6
CONTINUOUS
70
0
71
3
72
8
73
4
74
2
42
0.0000001000
43
0.0000001000
44
0.0000000001
12
-0.0779385471
22
-0.0690769583
32
0.0000000000
13
-0.0910856320
23
-0.0507359456
33
0.0000000000
40
0.0000000000
40
0.0000000000
40
0.0000000000
40
0.0000000000
40
1.0000000000
40
1.0000000000
40
1.0000000000
40
1.0000000000
10
-3.4187357963
20
-23.9067200264
30
0.0000000000
10
-3.4447153120
20
-23.9297456792
30
0.0000000000
10
-3.4730941843
20
-23.9501412291
30
0.0000000000
10
-3.5034560616
20
-23.9670532110
30
0.0000000000
11
-3.4187357963
21
-23.9067200264
31
0.0000000000
11
-3.5034560616
21
-23.9670532110
31
0.0000000000
0
SPLINE
5
2F4
100
AcDbEntity
8
0
100
AcDbSpline
62
7
6
CONTINUOUS
70
0
71
3
72
8
73
4
74
2
42
0.0000001000
43
0.0000001000
44
0.0000000001
12
-0.0174794416
22
-0.0097362886
32
0.0000000000
13
-0.0179087723
23
-0.0089484777
33
0.0000000000
40
0.0000000000
40
0.0000000000
40
0.0000000000
40
0.0000000000
40
1.0000000000
40
1.0000000000
40
1.0000000000
40
1.0000000000
10
-3.5034560616
20
-23.9670532110
30
0.0000000000
10
-3.5092825422
20
-23.9702986405
30
0.0000000000
10
-3.5151820490
20
-23.9734157839
30
0.0000000000
10
-3.5211516397
20
-23.9763986098
30
0.0000000000
11
-3.5034560616
21
-23.9670532110
31
0.0000000000
11
-3.5211516397
21
-23.9763986098
31
0.0000000000
0
SPLINE
5
2F5
100
AcDbEntity
8
0
100
AcDbSpline
62
7
6
CONTINUOUS
70
0
71
3
72
9
73
5
74
3
42
0.0000001000
43
0.0000001000
44
0.0000000001
12
0.1282352441
22
-0.0641176221
32
0.0000000000
13
0.1293444368
23
0.0643399544
33
0.0000000000
40
0.0000000000
40
0.0000000000
40
0.0000000000
40
0.0000000000
40
0.4925982483
40
1.0000000000
40
1.0000000000
40
1.0000000000
40
1.0000000000
10
-3.7884027699
20
-23.6203311097
30
0.0000000000
10
-3.7673466177
20
-23.6308591858
30
0.0000000000
10
-3.7186793249
20
-23.6419182846
30
0.0000000000
10
-3.6706756331
20
-23.6296667076
30
0.0000000000
10
-3.6487991018
20
-23.6187846391
30
0.0000000000
11
-3.7884027699
21
-23.6203311097
31
0.0000000000
11
-3.7195607961
21
-23.6360981649
31
0.0000000000
11
-3.6487991018
21
-23.6187846391
31
0.0000000000
0
SPLINE
5
2F6
100
AcDbEntity
8
0
100
AcDbSpline
62
7
6
CONTINUOUS
70
0
71
3
72
8
73
4
74
2
42
0.0000001000
43
0.0000001000
44
0.0000000001
12
-0.1328883878
22
0.0997446887
32
0.0000000000
13
-0.1476960053
23
0.0746130868
33
0.0000000000
40
0.0000000000
40
0.0000000000
40
0.0000000000
40
0.0000000000
40
1.0000000000
40
1.0000000000
40
1.0000000000
40
1.0000000000
10
12.0191928055
20
28.5512024510
30
0.0000000000
10
11.9748966762
20
28.5844506806
30
0.0000000000
10
11.9280488504
20
28.6141731359
30
0.0000000000
10
11.8788168486
20
28.6390441648
30
0.0000000000
11
12.0191928055
21
28.5512024510
31
0.0000000000
11
11.8788168486
21
28.6390441648
31
0.0000000000
0
SPLINE
5
2F7
100
AcDbEntity
8
0
100
AcDbSpline
62
7
6
CONTINUOUS
70
0
71
3
72
12
73
8
74
6
42
0.0000001000
43
0.0000001000
44
0.0000000001
12
0.5217738663
22
-0.3916577104
32
0.0000000000
13
0.0000008868
23
-0.6495956037
33
0.0000000000
40
0.0000000000
40
0.0000000000
40
0.0000000000
40
0.0000000000
40
0.0761621520
40
0.3036423120
40
0.5426427529
40
0.7792499749
40
1.0000000000
40
1.0000000000
40
1.0000000000
40
1.0000000000
10
12.2853823217
20
28.3515590396
30
0.0000000000
10
12.2986287952
20
28.3416158749
30
0.0000000000
10
12.3496215889
20
28.2994509265
30
0.0000000000
10
12.4274622823
20
28.2104506174
30
0.0000000000
10
12.5040716261
20
28.0777676115
30
0.0000000000
10
12.5540000465
20
27.9346006146
30
0.0000000000
10
12.5671404766
20
27.8354009260
30
0.0000000000
10
12.5671405418
20
27.7876015107
30
0.0000000000
11
12.2853823217
21
28.3515590396
31
0.0000000000
11
12.3237418479
21
28.3199830974
31
0.0000000000
11
12.4219841423
21
28.2095998705
31
0.0000000000
11
12.4998571848
21
28.0752887399
31
0.0000000000
11
12.5498774634
21
27.9299568543
31
0.0000000000
11
12.5671405418
21
27.7876015107
31
0.0000000000
0
SPLINE
5
2F8
100
AcDbEntity
8
0
100
AcDbSpline
62
7
6
CONTINUOUS
70
0
71
3
72
11
73
7
74
5
42
0.0000001000
43
0.0000001000
44
0.0000000001
12
0.4415989456
22
0.1727331922
32
0.0000000000
13
0.0900032013
23
0.4649952802
33
0.0000000000
40
0.0000000000
40
0.0000000000
40
0.0000000000
40
0.0000000000
40
0.0100475621
40
0.4031916270
40
0.8390225235
40
1.0000000000
40
1.0000000000
40
1.0000000000
40
1.0000000000
10
12.2829571795
20
-38.8987725092
30
0.0000000000
10
12.2844361771
20
-38.8981939934
30
0.0000000000
10
12.3436381328
20
-38.8745863532
30
0.0000000000
10
12.4541155818
20
-38.7924646591
30
0.0000000000
10
12.5247545748
20
-38.6489888543
30
0.0000000000
10
12.5474355181
20
-38.5573504210
30
0.0000000000
10
12.5522650141
20
-38.5323991654
30
0.0000000000
11
12.2829571795
21
-38.8987725092
31
0.0000000000
11
12.2873830148
21
-38.8970075388
31
0.0000000000
11
12.4372485447
21
-38.7878695046
31
0.0000000000
11
12.5337518578
21
-38.6064117101
31
0.0000000000
11
12.5522650141
21
-38.5323991654
31
0.0000000000
0
SPLINE
5
2F9
100
AcDbEntity
8
0
100
AcDbSpline
62
7
6
CONTINUOUS
70
0
71
3
72
8
73
4
74
2
42
0.0000001000
43
0.0000001000
44
0.0000000001
12
0.0313751012
22
0.1620972784
32
0.0000000000
13
0.0000000000
23
0.1643880321
33
0.0000000000
40
0.0000000000
40
0.0000000000
40
0.0000000000
40
0.0000000000
40
1.0000000000
40
1.0000000000
40
1.0000000000
40
1.0000000000
10
12.5522650141
20
-38.5323991654
30
0.0000000000
10
12.5627233812
20
-38.4783667393
30
0.0000000000
10
12.5671405418
20
-38.4232390086
30
0.0000000000
10
12.5671405418
20
-38.3684429979
30
0.0000000000
11
12.5522650141
21
-38.5323991654
31
0.0000000000
11
12.5671405418
21
-38.3684429979
31
0.0000000000
0
SPLINE
5
2FA
100
AcDbEntity
8
0
100
AcDbSpline
62
7
6
CONTINUOUS
70
0
71
3
72
11
73
7
74
5
42
0.0000001000
43
0.0000001000
44
0.0000000001
12
-0.0962552428
22
0.0480794250
32
0.0000000000
13
-0.1040694768
23
-0.0280463984
33
0.0000000000
40
0.0000000000
40
0.0000000000
40
0.0000000000
40
0.0000000000
40
0.0617005584
40
0.4621855957
40
0.8018322241
40
1.0000000000
40
1.0000000000
40
1.0000000000
40
1.0000000000
10
-2.8751499799
20
-19.5283974971
30
0.0000000000
10
-2.8771296473
20
-19.5274086547
30
0.0000000000
10
-2.8920604473
20
-19.5201978662
30
0.0000000000
10
-2.9192917726
20
-19.5103651038
30
0.0000000000
10
-2.9530824262
20
-19.5068861975
30
0.0000000000
10
-2.9723961946
20
-19.5097739433
30
0.0000000000
10
-2.9792706002
20
-19.5116265741
30
0.0000000000
11
-2.8751499799
21
-19.5283974971
31
0.0000000000
11
-2.8811297374
21
-19.5255109120
31
0.0000000000
11
-2.9218024456
21
-19.5114729814
31
0.0000000000
11
-2.9581557764
21
-19.5083086514
31
0.0000000000
11
-2.9792706002
21
-19.5116265741
31
0.0000000000
0
SPLINE
5
2FB
100
AcDbEntity
8
0
100
AcDbSpline
62
7
6
CONTINUOUS
70
0
71
3
72
8
73
4
74
2
42
0.0000001000
43
0.0000001000
44
0.0000000001
12
-0.0097473490
22
-0.0026268801
32
0.0000000000
13
-0.0093484860
23
-0.0037236898
33
0.0000000000
40
0.0000000000
40
0.0000000000
40
0.0000000000
40
0.0000000000
40
1.0000000000
40
1.0000000000
40
1.0000000000
40
1.0000000000
10
-2.9792706002
20
-19.5116265741
30
0.0000000000
10
-2.9825197165
20
-19.5125022008
30
0.0000000000
10
-2.9857147475
20
-19.5135539885
30
0.0000000000
10
-2.9888309095
20
-19.5147952184
30
0.0000000000
11
-2.9792706002
21
-19.5116265741
31
0.0000000000
11
-2.9888309095
21
-19.5147952184
31
0.0000000000
0
SPLINE
5
2FC
100
AcDbEntity
8
0
100
AcDbSpline
62
7
6
CONTINUOUS
70
0
71
3
72
10
73
6
74
4
42
0.0000001000
43
0.0000001000
44
0.0000000001
12
0.1119100113
22
0.0564217965
32
0.0000000000
13
0.0297045593
23
0.1209216196
33
0.0000000000
40
0.0000000000
40
0.0000000000
40
0.0000000000
40
0.0000000000
40
0.2161886674
40
0.5871326888
40
1.0000000000
40
1.0000000000
40
1.0000000000
40
1.0000000000
10
0.6453329699
20
-22.9141780503
30
0.0000000000
10
0.6533975286
20
-22.9101121326
30
0.0000000000
10
0.6740146780
20
-22.8964796540
30
0.0000000000
10
0.7003210283
20
-22.8632744937
30
0.0000000000
10
0.7117857193
20
-22.8323193789
30
0.0000000000
10
0.7158737332
20
-22.8156778509
30
0.0000000000
11
0.6453329699
21
-22.9141780503
31
0.0000000000
11
0.6678792545
21
-22.8992779280
31
0.0000000000
11
0.6971678226
21
-22.8635627098
31
0.0000000000
11
0.7158737332
21
-22.8156778509
31
0.0000000000
0
SPLINE
5
2FD
100
AcDbEntity
8
0
100
AcDbSpline
62
7
6
CONTINUOUS
70
0
71
3
72
11
73
7
74
5
42
0.0000001000
43
0.0000001000
44
0.0000000001
12
0.0000000000
22
-0.2932582443
32
0.0000000000
13
0.2622981477
23
-0.1311490738
33
0.0000000000
40
0.0000000000
40
0.0000000000
40
0.0000000000
40
0.0000000000
40
0.2446591969
40
0.5103553467
40
0.7710805979
40
1.0000000000
40
1.0000000000
40
1.0000000000
40
1.0000000000
10
-12.9240589200
20
-16.0736176169
30
0.0000000000
10
-12.9240589200
20
-16.0975337257
30
0.0000000000
10
-12.9158437787
20
-16.1475085181
30
0.0000000000
10
-12.8857848043
20
-16.2173331776
30
0.0000000000
10
-12.8413547869
20
-16.2771285988
30
0.0000000000
10
-12.8028464218
20
-16.3071915752
30
0.0000000000
10
-12.7828313768
20
-16.3171990977
30
0.0000000000
11
-12.9240589200
21
-16.0736176169
31
0.0000000000
11
-12.9134981729
21
-16.1445844611
31
0.0000000000
11
-12.8829306669
21
-16.2162557793
31
0.0000000000
11
-12.8367316997
21
-16.2771800023
31
0.0000000000
11
-12.7828313768
21
-16.3171990977
31
0.0000000000
0
SPLINE
5
2FE
100
AcDbEntity
8
0
100
AcDbSpline
62
7
6
CONTINUOUS
70
0
71
3
72
8
73
4
74
2
42
0.0000001000
43
0.0000001000
44
0.0000000001
12
-0.0686785292
22
0.0339663086
32
0.0000000000
13
-0.0724277287
23
0.0263913738
33
0.0000000000
40
0.0000000000
40
0.0000000000
40
0.0000000000
40
0.0000000000
40
1.0000000000
40
1.0000000000
40
1.0000000000
40
1.0000000000
10
-13.5789654046
20
41.3679352915
30
0.0000000000
10
-13.6018582477
20
41.3792573943
30
0.0000000000
10
-13.6254479808
20
41.3895034833
30
0.0000000000
10
-13.6495905571
20
41.3983006080
30
0.0000000000
11
-13.5789654046
21
41.3679352915
31
0.0000000000
11
-13.6495905571
21
41.3983006080
31
0.0000000000
0
SPLINE
5
2FF
100
AcDbEntity
8
0
100
AcDbSpline
62
7
6
CONTINUOUS
70
0
71
3
72
8
73
4
74
2
42
0.0000001000
43
0.0000001000
44
0.0000000001
12
-0.0683639338
22
0.0249105994
32
0.0000000000
13
-0.0709557996
23
0.0162241401
33
0.0000000000
40
0.0000000000
40
0.0000000000
40
0.0000000000
40
0.0000000000
40
1.0000000000
40
1.0000000000
40
1.0000000000
40
1.0000000000
10
-13.6495905571
20
41.3983006080
30
0.0000000000
10
-13.6723785350
20
41.4066041411
30
0.0000000000
10
-13.6956590582
20
41.4136167461
30
0.0000000000
10
-13.7193109914
20
41.4190247928
30
0.0000000000
11
-13.6495905571
21
41.3983006080
31
0.0000000000
11
-13.7193109914
21
41.4190247928
31
0.0000000000
0
SPLINE
5
300
100
AcDbEntity
8
0
100
AcDbSpline
62
7
6
CONTINUOUS
70
0
71
3
72
10
73
6
74
4
42
0.0000001000
43
0.0000001000
44
0.0000000001
12
-0.3160163175
22
0.0722575607
32
0.0000000000
13
-0.2752393925
23
-0.1728664984
33
0.0000000000
40
0.0000000000
40
0.0000000000
40
0.0000000000
40
0.0000000000
40
0.2126503642
40
0.7997432035
40
1.0000000000
40
1.0000000000
40
1.0000000000
40
1.0000000000
10
-13.7193109914
20
41.4190247928
30
0.0000000000
10
-13.7417113198
20
41.4241466583
30
0.0000000000
10
-13.8272081786
20
41.4379964379
30
0.0000000000
10
-13.9381854379
20
41.4251486827
30
0.0000000000
10
-14.0140968097
20
41.3859734636
30
0.0000000000
10
-14.0324696627
20
41.3744342333
30
0.0000000000
11
-13.7193109914
21
41.4190247928
31
0.0000000000
11
-13.7874084971
21
41.4298062629
31
0.0000000000
11
-13.9747399979
21
41.4040214710
31
0.0000000000
11
-14.0324696627
21
41.3744342333
31
0.0000000000
0
SPLINE
5
301
100
AcDbEntity
8
0
100
AcDbSpline
62
7
6
CONTINUOUS
70
0
71
3
72
9
73
5
74
3
42
0.0000001000
43
0.0000001000
44
0.0000000001
12
-0.0173798366
22
0.0086899183
32
0.0000000000
13
-0.0174175059
23
0.0086141679
33
0.0000000000
40
0.0000000000
40
0.0000000000
40
0.0000000000
40
0.0000000000
40
0.5033571768
40
1.0000000000
40
1.0000000000
40
1.0000000000
40
1.0000000000
10
-13.5615669395
20
41.3592827562
30
0.0000000000
10
-13.5644830280
20
41.3607408004
30
0.0000000000
10
-13.5702793650
20
41.3636313280
30
0.0000000000
10
-13.5760819782
20
41.3665092366
30
0.0000000000
10
-13.5789654046
20
41.3679352915
30
0.0000000000
11
-13.5615669395
21
41.3592827562
31
0.0000000000
11
-13.5703198739
21
41.3636475388
31
0.0000000000
11
-13.5789654046
21
41.3679352915
31
0.0000000000
0
SPLINE
5
302
100
AcDbEntity
8
0
100
AcDbSpline
62
7
6
CONTINUOUS
70
0
71
3
72
9
73
5
74
3
42
0.0000001000
43
0.0000001000
44
0.0000000001
12
0.0178327503
22
-0.0089163751
32
0.0000000000
13
0.0177957242
23
-0.0089900462
33
0.0000000000
40
0.0000000000
40
0.0000000000
40
0.0000000000
40
0.0000000000
40
0.4969280475
40
1.0000000000
40
1.0000000000
40
1.0000000000
40
1.0000000000
10
11.8610028259
20
28.6479978734
30
0.0000000000
10
11.8639566905
20
28.6465209411
30
0.0000000000
10
11.8698977656
20
28.6435424622
30
0.0000000000
10
11.8758326721
20
28.6405517115
30
0.0000000000
10
11.8788168486
20
28.6390441648
30
0.0000000000
11
11.8610028259
21
28.6479978734
31
0.0000000000
11
11.8698597409
21
28.6435577314
31
0.0000000000
11
11.8788168486
21
28.6390441648
31
0.0000000000
0
SPLINE
5
303
100
AcDbEntity
8
0
100
AcDbSpline
62
7
6
CONTINUOUS
70
0
71
3
72
8
73
4
74
2
42
0.0000001000
43
0.0000001000
44
0.0000000001
12
-0.2565651658
22
0.1317260541
32
0.0000000000
13
-0.2517717600
23
0.1410700632
33
0.0000000000
40
0.0000000000
40
0.0000000000
40
0.0000000000
40
0.0000000000
40
1.0000000000
40
1.0000000000
40
1.0000000000
40
1.0000000000
10
-12.6144739677
20
4.3662633697
30
0.0000000000
10
-12.6999956897
20
4.4101720544
30
0.0000000000
10
-12.7848013753
20
4.4555846278
30
0.0000000000
10
-12.8687252953
20
4.5026079822
30
0.0000000000
11
-12.6144739677
21
4.3662633697
31
0.0000000000
11
-12.8687252953
21
4.5026079822
31
0.0000000000
0
SPLINE
5
304
100
AcDbEntity
8
0
100
AcDbSpline
62
7
6
CONTINUOUS
70
0
71
3
72
9
73
5
74
3
42
0.0000001000
43
0.0000001000
44
0.0000000001
12
0.0077036343
22
0.0034681917
32
0.0000000000
13
0.0078730259
23
0.0030642778
33
0.0000000000
40
0.0000000000
40
0.0000000000
40
0.0000000000
40
0.0000000000
40
0.5038139722
40
1.0000000000
40
1.0000000000
40
1.0000000000
40
1.0000000000
10
-2.9966202235
20
-19.5180646118
30
0.0000000000
10
-2.9953264906
20
-19.5174821706
30
0.0000000000
10
-2.9927439173
20
-19.5163584520
30
0.0000000000
10
-2.9901330713
20
-19.5153020357
30
0.0000000000
10
-2.9888309095
20
-19.5147952184
30
0.0000000000
11
-2.9966202235
21
-19.5180646118
31
0.0000000000
11
-2.9927170412
21
-19.5163669636
31
0.0000000000
11
-2.9888309095
21
-19.5147952184
31
0.0000000000
0
SPLINE
5
305
100
AcDbEntity
8
0
100
AcDbSpline
62
7
6
CONTINUOUS
70
0
71
3
72
12
73
8
74
6
42
0.0000001000
43
0.0000001000
44
0.0000000001
12
0.0621464993
22
0.0450403566
32
0.0000000000
13
0.0228381282
23
0.0679327343
33
0.0000000000
40
0.0000000000
40
0.0000000000
40
0.0000000000
40
0.0000000000
40
0.3394763878
40
0.6150513133
40
0.8172410278
40
0.9508551943
40
1.0000000000
40
1.0000000000
40
1.0000000000
40
1.0000000000
10
1.2606495430
20
-22.1892588655
30
0.0000000000
10
1.2676819661
20
-22.1841621530
30
0.0000000000
10
1.2804039747
20
-22.1747560722
30
0.0000000000
10
1.2965737279
20
-22.1619606204
30
0.0000000000
10
1.3090098766
20
-22.1513772088
30
0.0000000000
10
1.3147900013
20
-22.1450242835
30
0.0000000000
10
1.3188479211
20
-22.1404506394
30
0.0000000000
10
1.3192220462
20
-22.1393377924
30
0.0000000000
11
1.2606495430
21
-22.1892588655
31
0.0000000000
11
1.2815573528
21
-22.1737106644
31
0.0000000000
11
1.2981139885
21
-22.1605487558
31
0.0000000000
11
1.3097564159
21
-22.1502884116
31
0.0000000000
11
1.3167605273
21
-22.1427977672
31
0.0000000000
11
1.3192220462
21
-22.1393377924
31
0.0000000000
0
SPLINE
5
306
100
AcDbEntity
8
0
100
AcDbSpline
62
7
6
CONTINUOUS
70
0
71
3
72
11
73
7
74
5
42
0.0000001000
43
0.0000001000
44
0.0000000001
12
0.0000868162
22
-0.2173217233
32
0.0000000000
13
0.0527352719
23
-0.2108134740
33
0.0000000000
40
0.0000000000
40
0.0000000000
40
0.0000000000
40
0.0000000000
40
0.1285699350
40
0.4524936691
40
0.7438590072
40
1.0000000000
40
1.0000000000
40
1.0000000000
40
1.0000000000
10
1.7345333432
20
-26.4992802421
30
0.0000000000
10
1.7345370639
20
-26.5085939220
30
0.0000000000
10
1.7347860982
20
-26.5413730648
30
0.0000000000
10
1.7366987557
20
-26.5952456012
30
0.0000000000
10
1.7424301440
20
-26.6581349896
30
0.0000000000
10
1.7491883335
20
-26.6973149207
30
0.0000000000
10
1.7536908885
20
-26.7153142449
30
0.0000000000
11
1.7345333432
21
-26.4992802421
31
0.0000000000
11
1.7347524098
21
-26.5272207594
31
0.0000000000
11
1.7374655774
21
-26.5975600902
31
0.0000000000
11
1.7435559547
21
-26.6605828904
31
0.0000000000
11
1.7536908885
21
-26.7153142449
31
0.0000000000
0
SPLINE
5
307
100
AcDbEntity
8
0
100
AcDbSpline
62
7
6
CONTINUOUS
70
0
71
3
72
9
73
5
74
3
42
0.0000001000
43
0.0000001000
44
0.0000000001
12
-0.1499106195
22
-0.0749058511
32
0.0000000000
13
-0.1666182246
23
-0.0059862646
33
0.0000000000
40
0.0000000000
40
0.0000000000
40
0.0000000000
40
0.0000000000
40
0.1725497664
40
1.0000000000
40
1.0000000000
40
1.0000000000
40
1.0000000000
10
-3.5211516397
20
-23.9763986098
30
0.0000000000
10
-3.5297739872
20
-23.9807069389
30
0.0000000000
10
-3.5805915500
20
-24.0040515776
30
0.0000000000
10
-3.6360221182
20
-24.0173741387
30
0.0000000000
10
-3.6819782144
20
-24.0190252507
30
0.0000000000
11
-3.5211516397
21
-23.9763986098
31
0.0000000000
11
-3.5474484493
21
-23.9884647712
31
0.0000000000
11
-3.6819782144
21
-24.0190252507
31
0.0000000000
0
SPLINE
5
308
100
AcDbEntity
8
0
100
AcDbSpline
62
7
6
CONTINUOUS
70
0
71
3
72
9
73
5
74
3
42
0.0000001000
43
0.0000001000
44
0.0000000001
12
-0.1325182021
22
0.0687983737
32
0.0000000000
13
-0.0658468308
23
0.1328527789
33
0.0000000000
40
0.0000000000
40
0.0000000000
40
0.0000000000
40
0.0000000000
40
0.3729453741
40
1.0000000000
40
1.0000000000
40
1.0000000000
40
1.0000000000
10
-13.7678512844
20
22.3606786556
30
0.0000000000
10
-13.7843253012
20
22.3692313340
30
0.0000000000
10
-13.8256543945
20
22.3977652297
30
0.0000000000
10
-13.8553684874
20
22.4390429775
30
0.0000000000
10
-13.8691316741
20
22.4668116274
30
0.0000000000
11
-13.7678512844
21
22.3606786556
31
0.0000000000
11
-13.8135367794
21
22.3922870229
31
0.0000000000
11
-13.8691316741
21
22.4668116274
31
0.0000000000
0
SPLINE
5
309
100
AcDbEntity
8
0
100
AcDbSpline
62
7
6
CONTINUOUS
70
0
71
3
72
8
73
4
74
2
42
0.0000001000
43
0.0000001000
44
0.0000000001
12
-0.0117387724
22
-0.0283819563
32
0.0000000000
13
-0.0054491057
23
-0.0303533362
33
0.0000000000
40
0.0000000000
40
0.0000000000
40
0.0000000000
40
0.0000000000
40
1.0000000000
40
1.0000000000
40
1.0000000000
40
1.0000000000
10
-13.6747353101
20
22.3139694064
30
0.0000000000
10
-13.6786482342
20
22.3045087543
30
0.0000000000
10
-13.6813402670
20
22.2945517722
30
0.0000000000
10
-13.6831566356
20
22.2844339935
30
0.0000000000
11
-13.6747353101
21
22.3139694064
31
0.0000000000
11
-13.6831566356
21
22.2844339935
31
0.0000000000
0
SPLINE
5
30A
100
AcDbEntity
8
0
100
AcDbSpline
62
7
6
CONTINUOUS
70
0
71
3
72
8
73
4
74
2
42
0.0000001000
43
0.0000001000
44
0.0000000001
12
-0.0052712729
22
-0.0293627483
32
0.0000000000
13
-0.0012921771
23
-0.0293543547
33
0.0000000000
40
0.0000000000
40
0.0000000000
40
0.0000000000
40
0.0000000000
40
1.0000000000
40
1.0000000000
40
1.0000000000
40
1.0000000000
10
-13.6831566356
20
22.2844339935
30
0.0000000000
10
-13.6849137266
20
22.2746464107
30
0.0000000000
10
-13.6858513757
20
22.2647083553
30
0.0000000000
10
-13.6862821014
20
22.2549235705
30
0.0000000000
11
-13.6831566356
21
22.2844339935
31
0.0000000000
11
-13.6862821014
21
22.2549235705
31
0.0000000000
0
SPLINE
5
30B
100
AcDbEntity
8
0
100
AcDbSpline
62
7
6
CONTINUOUS
70
0
71
3
72
17
73
13
74
11
42
0.0000001000
43
0.0000001000
44
0.0000000001
12
-0.3380415825
22
0.6914988974
32
0.0000000000
13
-0.5633838715
23
0.5244439435
33
0.0000000000
40
0.0000000000
40
0.0000000000
40
0.0000000000
40
0.0000000000
40
0.1166922173
40
0.2294116857
40
0.3380744495
40
0.4428257744
40
0.5439507304
40
0.6413514960
40
0.7351724436
40
0.8259541400
40
0.9140830487
40
1.0000000000
40
1.0000000000
40
1.0000000000
40
1.0000000000
10
-14.1517925721
20
23.0449884861
30
0.0000000000
10
-14.1649415127
20
23.0718859993
30
0.0000000000
10
-14.1917868876
20
23.1242839680
30
0.0000000000
10
-14.2338991694
20
23.2001295556
30
0.0000000000
10
-14.2767536419
20
23.2720127012
30
0.0000000000
10
-14.3201072632
20
23.3400926696
30
0.0000000000
10
-14.3638133024
20
23.4044829633
30
0.0000000000
10
-14.4077953104
20
23.4652562411
30
0.0000000000
10
-14.4520851335
20
23.5224864405
30
0.0000000000
10
-14.4968602550
20
23.5762822065
30
0.0000000000
10
-14.5424685976
20
23.6266752672
30
0.0000000000
10
-14.5741419136
20
23.6581974921
30
0.0000000000
10
-14.5902766552
20
23.6732170337
30
0.0000000000
11
-14.1517925721
21
23.0449884861
31
0.0000000000
11
-14.1926997220
21
23.1249506195
31
0.0000000000
11
-14.2347968566
21
23.2008137826
31
0.0000000000
11
-14.2776234001
21
23.2726553650
31
0.0000000000
11
-14.3209418250
21
23.3406575309
31
0.0000000000
11
-14.3646761788
21
23.4050452537
31
0.0000000000
11
-14.4086617866
21
23.4657553654
31
0.0000000000
11
-14.4529018982
21
23.5228317502
31
0.0000000000
11
-14.4976664078
21
23.5764847795
31
0.0000000000
11
-14.5432852327
21
23.6266868838
31
0.0000000000
11
-14.5902766552
21
23.6732170337
31
0.0000000000
0
SPLINE
5
30C
100
AcDbEntity
8
0
100
AcDbSpline
62
7
6
CONTINUOUS
70
0
71
3
72
31
73
27
74
25
42
0.0000001000
43
0.0000001000
44
0.0000000001
12
17.4391840779
22
-5.4454954311
32
0.0000000000
13
15.3003180116
23
-9.9839286124
33
0.0000000000
40
0.0000000000
40
0.0000000000
40
0.0000000000
40
0.0000000000
40
0.0787377357
40
0.1530930683
40
0.2230654104
40
0.2888355659
40
0.3506607935
40
0.4083218926
40
0.4615202439
40
0.5109184170
40
0.5579139255
40
0.6040446196
40
0.6498273772
40
0.6943510080
40
0.7366757102
40
0.7759122784
40
0.8112398489
40
0.8425818024
40
0.8702074622
40
0.8945232613
40
0.9160129739
40
0.9352022125
40
0.9526345764
40
0.9688561900
40
0.9843905467
40
1.0000000000
40
1.0000000000
40
1.0000000000
40
1.0000000000
10
-14.5902766552
20
23.6732170337
30
0.0000000000
10
-14.1325693664
20
23.5302950404
30
0.0000000000
10
-13.2475854877
20
23.2363015014
30
0.0000000000
10
-11.9724981329
20
22.7672614381
30
0.0000000000
10
-10.7840850189
20
22.2928446715
30
0.0000000000
10
-9.6773852916
20
21.8205712781
30
0.0000000000
10
-8.6489830152
20
21.3565088292
30
0.0000000000
10
-7.6983359556
20
20.9067382261
30
0.0000000000
10
-6.8227504790
20
20.4755866268
30
0.0000000000
10
-6.0110331060
20
20.0619757026
30
0.0000000000
10
-5.2425587048
20
19.6584575943
30
0.0000000000
10
-4.4980938956
20
19.2566976094
30
0.0000000000
10
-3.7711495604
20
18.8542734265
30
0.0000000000
10
-3.0684579732
20
18.4559845403
30
0.0000000000
10
-2.4039972523
20
18.0711643354
30
0.0000000000
10
-1.7910230206
20
17.7092440836
30
0.0000000000
10
-1.2381006920
20
17.3772055756
30
0.0000000000
10
-0.7477232318
20
17.0783885537
30
0.0000000000
10
-0.3160924447
20
16.8120544471
30
0.0000000000
10
0.0633462760
20
16.5754047218
30
0.0000000000
10
0.3983205653
20
16.3645536352
30
0.0000000000
10
0.6971348596
20
16.1749518312
30
0.0000000000
10
0.9683059892
20
16.0016685415
30
0.0000000000
10
1.2202519866
20
15.8396377942
30
0.0000000000
10
1.4624375608
20
15.6829556631
30
0.0000000000
10
1.6214091822
20
15.5795163460
30
0.0000000000
10
1.7010190485
20
15.5275684570
30
0.0000000000
11
-14.5902766552
21
23.6732170337
31
0.0000000000
11
-13.2248636678
21
23.2205015602
31
0.0000000000
11
-11.9497320818
21
22.7520934669
31
0.0000000000
11
-10.7622939578
21
22.2785816035
31
0.0000000000
11
-9.6569955069
21
21.8072582358
31
0.0000000000
11
-8.6273426975
21
21.3428914580
31
0.0000000000
11
-7.6750124491
21
20.8925417658
31
0.0000000000
11
-6.8030195687
21
20.4633060498
31
0.0000000000
11
-5.9988647220
21
20.0536542583
31
0.0000000000
11
-5.2386666962
21
19.6545616754
31
0.0000000000
11
-4.4969542396
21
19.2543653791
31
0.0000000000
11
-3.7651363535
21
18.8493187504
31
0.0000000000
11
-3.0574502541
21
18.4482607106
31
0.0000000000
11
-2.3882911160
21
18.0607682232
31
0.0000000000
11
-1.7710030311
21
17.6963367764
31
0.0000000000
11
-1.2176746010
21
17.3640782583
31
0.0000000000
11
-0.7286929635
21
17.0661291630
31
0.0000000000
11
-0.2991648424
21
16.8011051232
31
0.0000000000
11
0.0777764163
21
16.5660209640
31
0.0000000000
11
0.4100433380
21
16.3568793427
31
0.0000000000
11
0.7060634622
21
16.1690540928
31
0.0000000000
11
0.9744328743
21
15.9975637782
31
0.0000000000
11
1.2236980995
21
15.8372591081
31
0.0000000000
11
1.4619862258
21
15.6831002400
31
0.0000000000
11
1.7010190485
21
15.5275684570
31
0.0000000000
0
SPLINE
5
30D
100
AcDbEntity
8
0
100
AcDbSpline
62
7
6
CONTINUOUS
70
0
71
3
72
12
73
8
74
6
42
0.0000001000
43
0.0000001000
44
0.0000000001
12
-0.0878140799
22
0.2178831394
32
0.0000000000
13
-0.0352271966
23
0.2323208919
33
0.0000000000
40
0.0000000000
40
0.0000000000
40
0.0000000000
40
0.0000000000
40
0.0539562416
40
0.3897934734
40
0.6788608477
40
0.9262410758
40
1.0000000000
40
1.0000000000
40
1.0000000000
40
1.0000000000
10
1.7344627869
20
15.1588174888
30
0.0000000000
10
1.7328834143
20
15.1627362072
30
0.0000000000
10
1.7215753010
20
15.1910871023
30
0.0000000000
10
1.7032003981
20
15.2409860495
30
0.0000000000
10
1.6832394146
20
15.3063430442
30
0.0000000000
10
1.6724044112
20
15.3529220893
30
0.0000000000
10
1.6682081955
20
15.3777275301
30
0.0000000000
10
1.6673420887
20
15.3834394431
30
0.0000000000
11
1.7344627869
21
15.1588174888
31
0.0000000000
11
1.7297673303
21
15.1705907758
31
0.0000000000
11
1.7026895660
21
15.2446805179
31
0.0000000000
11
1.6830841156
21
15.3096856718
31
0.0000000000
11
1.6702152073
21
15.3663483473
31
0.0000000000
11
1.6673420887
21
15.3834394431
31
0.0000000000
0
SPLINE
5
30E
100
AcDbEntity
8
0
100
AcDbSpline
62
7
6
CONTINUOUS
70
0
71
3
72
12
73
8
74
6
42
0.0000001000
43
0.0000001000
44
0.0000000001
12
-0.0236276544
22
0.1558227238
32
0.0000000000
13
0.1454101537
23
0.0606244585
33
0.0000000000
40
0.0000000000
40
0.0000000000
40
0.0000000000
40
0.0000000000
40
0.2012429028
40
0.4589822409
40
0.6688008762
40
0.8412311666
40
1.0000000000
40
1.0000000000
40
1.0000000000
40
1.0000000000
10
1.6673420887
20
15.3834394431
30
0.0000000000
10
1.6657571228
20
15.3938921822
30
0.0000000000
10
1.6628882683
20
15.4178438313
30
0.0000000000
10
1.6620340752
20
15.4530800596
30
0.0000000000
10
1.6670541545
20
15.4865176712
30
0.0000000000
10
1.6788958888
20
15.5130563000
30
0.0000000000
10
1.6933235150
20
15.5243600321
30
0.0000000000
10
1.7010190485
20
15.5275684570
30
0.0000000000
11
1.6673420887
21
15.3834394431
31
0.0000000000
11
1.6636802183
21
15.4149398496
31
0.0000000000
11
1.6632687927
21
15.4555425000
31
0.0000000000
11
1.6689648707
21
15.4881032454
31
0.0000000000
11
1.6811406057
21
15.5123867396
31
0.0000000000
11
1.7010190485
21
15.5275684570
31
0.0000000000
0
SPLINE
5
30F
100
AcDbEntity
8
0
100
AcDbSpline
62
7
6
CONTINUOUS
70
0
71
3
72
11
73
7
74
5
42
0.0000001000
43
0.0000001000
44
0.0000000001
12
0.0000146092
22
0.1336235708
32
0.0000000000
13
0.0628122871
23
0.1179242370
33
0.0000000000
40
0.0000000000
40
0.0000000000
40
0.0000000000
40
0.0000000000
40
0.1640308589
40
0.5005211508
40
0.7786633453
40
1.0000000000
40
1.0000000000
40
1.0000000000
40
1.0000000000
10
1.7345318587
20
15.3016884746
30
0.0000000000
10
1.7345326575
20
15.3089946043
30
0.0000000000
10
1.7348085368
20
15.3312900341
30
0.0000000000
10
1.7367603222
20
15.3659663872
30
0.0000000000
10
1.7423257129
20
15.4027873744
30
0.0000000000
10
1.7490566849
20
15.4242903431
30
0.0000000000
10
1.7536909054
20
15.4329906618
30
0.0000000000
11
1.7345318587
21
15.3016884746
31
0.0000000000
11
1.7348185948
21
15.3236073219
31
0.0000000000
11
1.7376712293
21
15.3684750429
31
0.0000000000
11
1.7437600040
21
15.4051353014
31
0.0000000000
11
1.7536909054
21
15.4329906618
31
0.0000000000
0
SPLINE
5
310
100
AcDbEntity
8
0
100
AcDbSpline
62
7
6
CONTINUOUS
70
0
71
3
72
11
73
7
74
5
42
0.0000001000
43
0.0000001000
44
0.0000000001
12
-0.0195412789
22
0.0425755242
32
0.0000000000
13
-0.0499119373
23
-0.0248663412
33
0.0000000000
40
0.0000000000
40
0.0000000000
40
0.0000000000
40
0.0000000000
40
0.0589486857
40
0.2266399199
40
0.5491652463
40
1.0000000000
40
1.0000000000
40
1.0000000000
40
1.0000000000
10
1.3192143712
20
-22.1379206182
30
0.0000000000
10
1.3188303936
20
-22.1370840278
30
0.0000000000
10
1.3142516404
20
-22.1345125176
30
0.0000000000
10
1.3045974955
20
-22.1396225474
30
0.0000000000
10
1.2882766568
20
-22.1448029565
30
0.0000000000
10
1.2753578305
20
-22.1515285137
30
0.0000000000
10
1.2678571519
20
-22.1552653840
30
0.0000000000
11
1.3192143712
21
-22.1379206182
31
0.0000000000
11
1.3164887591
21
-22.1360629719
31
0.0000000000
11
1.3073329930
21
-22.1379638133
31
0.0000000000
11
1.2905878215
21
-22.1445259205
31
0.0000000000
11
1.2678571519
21
-22.1552653840
31
0.0000000000
0
SPLINE
5
311
100
AcDbEntity
8
0
100
AcDbSpline
62
7
6
CONTINUOUS
70
0
71
3
72
9
73
5
74
3
42
0.0000001000
43
0.0000001000
44
0.0000000001
12
-0.0003818618
22
-0.0396141940
32
0.0000000000
13
0.0324208103
23
-0.0205592753
33
0.0000000000
40
0.0000000000
40
0.0000000000
40
0.0000000000
40
0.0000000000
40
0.2545314199
40
1.0000000000
40
1.0000000000
40
1.0000000000
40
1.0000000000
10
-15.6606687294
20
24.6585653800
30
0.0000000000
10
-15.6607011280
20
24.6552043609
30
0.0000000000
10
-15.6587026130
20
24.6420804222
30
0.0000000000
10
-15.6476934656
20
24.6329066626
30
0.0000000000
10
-15.6396372338
20
24.6277978980
30
0.0000000000
11
-15.6606687294
21
24.6585653800
31
0.0000000000
11
-15.6590999933
21
24.6487793687
31
0.0000000000
11
-15.6396372338
21
24.6277978980
31
0.0000000000
0
SPLINE
5
312
100
AcDbEntity
8
0
100
AcDbSpline
62
7
6
CONTINUOUS
70
0
71
3
72
9
73
5
74
3
42
0.0000001000
43
0.0000001000
44
0.0000000001
12
0.2459392524
22
0.1450594161
32
0.0000000000
13
0.2724749188
23
-0.0777825999
33
0.0000000000
40
0.0000000000
40
0.0000000000
40
0.0000000000
40
0.0000000000
40
0.4351564481
40
1.0000000000
40
1.0000000000
40
1.0000000000
40
1.0000000000
10
-15.4252235640
20
25.2037927067
30
0.0000000000
10
-15.3895495468
20
25.2248338868
30
0.0000000000
10
-15.2973034647
20
25.2567591682
30
0.0000000000
10
-15.2002093365
20
25.2449996351
30
0.0000000000
10
-15.1489074362
20
25.2303546351
30
0.0000000000
11
-15.4252235640
21
25.2037927067
31
0.0000000000
11
-15.3083485604
21
25.2443466649
31
0.0000000000
11
-15.1489074362
21
25.2303546351
31
0.0000000000
0
SPLINE
5
313
100
AcDbEntity
8
0
100
AcDbSpline
62
7
6
CONTINUOUS
70
0
71
3
72
12
73
8
74
6
42
0.0000001000
43
0.0000001000
44
0.0000000001
12
18.9596596719
22
-5.6879602252
32
0.0000000000
13
16.5234459958
23
-10.8994501618
33
0.0000000000
40
0.0000000000
40
0.0000000000
40
0.0000000000
40
0.0000000000
40
0.1744626940
40
0.3595980322
40
0.5607103397
40
0.7696649195
40
1.0000000000
40
1.0000000000
40
1.0000000000
40
1.0000000000
10
-15.1489074361
20
25.2303546351
30
0.0000000000
10
-14.0463230014
20
24.8995756803
30
0.0000000000
10
-11.8047876919
20
24.1123407743
30
0.0000000000
10
-8.4067668247
20
22.6437376613
30
0.0000000000
10
-4.8972129665
20
20.8767368183
30
0.0000000000
10
-1.2217572629
20
18.7892441414
30
0.0000000000
10
1.2318723468
20
17.2440125991
30
0.0000000000
10
2.5005154345
20
16.4071706891
30
0.0000000000
11
-15.1489074361
21
25.2303546351
31
0.0000000000
11
-11.8859784863
21
24.0993112928
31
0.0000000000
11
-8.5181260891
21
22.6545650477
31
0.0000000000
11
-4.9589505260
21
20.8713241840
31
0.0000000000
11
-1.3597574399
21
18.8333031648
31
0.0000000000
11
2.5005154345
21
16.4071706891
31
0.0000000000
0
SPLINE
5
314
100
AcDbEntity
8
0
100
AcDbSpline
62
7
6
CONTINUOUS
70
0
71
3
72
8
73
4
74
2
42
0.0000001000
43
0.0000001000
44
0.0000000001
12
0.0095640525
22
-0.0063087878
32
0.0000000000
13
0.0095633751
23
-0.0063097963
33
0.0000000000
40
0.0000000000
40
0.0000000000
40
0.0000000000
40
0.0000000000
40
1.0000000000
40
1.0000000000
40
1.0000000000
40
1.0000000000
10
2.5005154345
20
16.4071706891
30
0.0000000000
10
2.5037034520
20
16.4050677599
30
0.0000000000
10
2.5068913566
20
16.4029646625
30
0.0000000000
10
2.5100791483
20
16.4008613971
30
0.0000000000
11
2.5005154345
21
16.4071706891
31
0.0000000000
11
2.5100791483
21
16.4008613971
31
0.0000000000
0
SPLINE
5
315
100
AcDbEntity
8
0
100
AcDbSpline
62
7
6
CONTINUOUS
70
0
71
3
72
8
73
4
74
2
42
0.0000001000
43
0.0000001000
44
0.0000000001
12
-0.0242897363
22
-0.0147981888
32
0.0000000000
13
-0.0242897184
23
-0.0147982181
33
0.0000000000
40
0.0000000000
40
0.0000000000
40
0.0000000000
40
0.0000000000
40
1.0000000000
40
1.0000000000
40
1.0000000000
40
1.0000000000
10
-14.9997006114
20
25.3212576054
30
0.0000000000
10
-15.0077971901
20
25.3163248758
30
0.0000000000
10
-15.0158937659
20
25.3113921413
30
0.0000000000
10
-15.0239903387
20
25.3064594019
30
0.0000000000
11
-14.9997006114
21
25.3212576054
31
0.0000000000
11
-15.0239903387
21
25.3064594019
31
0.0000000000
0
SPLINE
5
316
100
AcDbEntity
8
0
100
AcDbSpline
62
7
6
CONTINUOUS
70
0
71
3
72
8
73
4
74
2
42
0.0000001000
43
0.0000001000
44
0.0000000001
12
-0.0527081788
22
-0.0321118225
32
0.0000000000
13
-0.0527080948
23
-0.0321119605
33
0.0000000000
40
0.0000000000
40
0.0000000000
40
0.0000000000
40
0.0000000000
40
1.0000000000
40
1.0000000000
40
1.0000000000
40
1.0000000000
10
-15.0239903387
20
25.3064594019
30
0.0000000000
10
-15.0415597316
20
25.2957554611
30
0.0000000000
10
-15.0591291106
20
25.2850514973
30
0.0000000000
10
-15.0766984755
20
25.2743475104
30
0.0000000000
11
-15.0239903387
21
25.3064594019
31
0.0000000000
11
-15.0766984755
21
25.2743475104
31
0.0000000000
0
SPLINE
5
317
100
AcDbEntity
8
0
100
AcDbSpline
62
7
6
CONTINUOUS
70
0
71
3
72
8
73
4
74
2
42
0.0000001000
43
0.0000001000
44
0.0000000001
12
-0.0722090395
22
-0.0439927459
32
0.0000000000
13
-0.0722088817
23
-0.0439930049
33
0.0000000000
40
0.0000000000
40
0.0000000000
40
0.0000000000
40
0.0000000000
40
1.0000000000
40
1.0000000000
40
1.0000000000
40
1.0000000000
10
-15.0766984755
20
25.2743475104
30
0.0000000000
10
-15.1007681553
20
25.2596832618
30
0.0000000000
10
-15.1248378089
20
25.2450189700
30
0.0000000000
10
-15.1489074361
20
25.2303546351
30
0.0000000000
11
-15.0766984755
21
25.2743475104
31
0.0000000000
11
-15.1489074361
21
25.2303546351
31
0.0000000000
0
SPLINE
5
318
100
AcDbEntity
8
0
100
AcDbSpline
62
7
6
CONTINUOUS
70
0
71
3
72
8
73
4
74
2
42
0.0000001000
43
0.0000001000
44
0.0000000001
12
-0.0347667492
22
-0.0172869325
32
0.0000000000
13
-0.0347667247
23
-0.0172869817
33
0.0000000000
40
0.0000000000
40
0.0000000000
40
0.0000000000
40
0.0000000000
40
1.0000000000
40
1.0000000000
40
1.0000000000
40
1.0000000000
10
2.6361034494
20
16.4635243631
30
0.0000000000
10
2.6245145330
20
16.4577620523
30
0.0000000000
10
2.6129256207
20
16.4519997333
30
0.0000000000
10
2.6013367125
20
16.4462374060
30
0.0000000000
11
2.6361034494
21
16.4635243631
31
0.0000000000
11
2.6013367125
21
16.4462374060
31
0.0000000000
0
SPLINE
5
319
100
AcDbEntity
8
0
100
AcDbSpline
62
7
6
CONTINUOUS
70
0
71
3
72
8
73
4
74
2
42
0.0000001000
43
0.0000001000
44
0.0000000001
12
-0.0912576486
22
-0.0453758391
32
0.0000000000
13
-0.0912574797
23
-0.0453761788
33
0.0000000000
40
0.0000000000
40
0.0000000000
40
0.0000000000
40
0.0000000000
40
1.0000000000
40
1.0000000000
40
1.0000000000
40
1.0000000000
10
2.6013367125
20
16.4462374060
30
0.0000000000
10
2.5709174963
20
16.4311121263
30
0.0000000000
10
2.5404983082
20
16.4159867900
30
0.0000000000
10
2.5100791483
20
16.4008613971
30
0.0000000000
11
2.6013367125
21
16.4462374060
31
0.0000000000
11
2.5100791483
21
16.4008613971
31
0.0000000000
0
SPLINE
5
31A
100
AcDbEntity
8
0
100
AcDbSpline
62
7
6
CONTINUOUS
70
0
71
3
72
8
73
4
74
2
42
0.0000001000
43
0.0000001000
44
0.0000000001
12
-0.0337152776
22
-0.0167958225
32
0.0000000000
13
-0.0337152538
23
-0.0167958703
33
0.0000000000
40
0.0000000000
40
0.0000000000
40
0.0000000000
40
0.0000000000
40
1.0000000000
40
1.0000000000
40
1.0000000000
40
1.0000000000
10
3.2485378238
20
15.3893731773
30
0.0000000000
10
3.2372993980
20
15.3837745698
30
0.0000000000
10
3.2260609761
20
15.3781759543
30
0.0000000000
10
3.2148225582
20
15.3725773309
30
0.0000000000
11
3.2485378238
21
15.3893731773
31
0.0000000000
11
3.2148225582
21
15.3725773309
31
0.0000000000
0
SPLINE
5
31B
100
AcDbEntity
8
0
100
AcDbSpline
62
7
6
CONTINUOUS
70
0
71
3
72
8
73
4
74
2
42
0.0000001000
43
0.0000001000
44
0.0000000001
12
-0.1056820977
22
-0.0526474698
32
0.0000000000
13
-0.1056818638
23
-0.0526479394
33
0.0000000000
40
0.0000000000
40
0.0000000000
40
0.0000000000
40
0.0000000000
40
1.0000000000
40
1.0000000000
40
1.0000000000
40
1.0000000000
10
3.2148225582
20
15.3725773309
30
0.0000000000
10
3.1795951923
20
15.3550281743
30
0.0000000000
10
3.1443678653
20
15.3374789395
30
0.0000000000
10
3.1091405774
20
15.3199296263
30
0.0000000000
11
3.2148225582
21
15.3725773309
31
0.0000000000
11
3.1091405774
21
15.3199296263
31
0.0000000000
0
SPLINE
5
31C
100
AcDbEntity
8
0
100
AcDbSpline
62
7
6
CONTINUOUS
70
0
71
3
72
8
73
4
74
2
42
0.0000001000
43
0.0000001000
44
0.0000000001
12
-0.0264130166
22
-0.0106243134
32
0.0000000000
13
-0.0264130293
23
-0.0106242819
33
0.0000000000
40
0.0000000000
40
0.0000000000
40
0.0000000000
40
0.0000000000
40
1.0000000000
40
1.0000000000
40
1.0000000000
40
1.0000000000
10
3.2535457114
20
-27.5465628553
30
0.0000000000
10
3.2447413725
20
-27.5501042931
30
0.0000000000
10
3.2359370316
20
-27.5536457256
30
0.0000000000
10
3.2271326885
20
-27.5571871529
30
0.0000000000
11
3.2535457114
21
-27.5465628553
31
0.0000000000
11
3.2271326885
21
-27.5571871529
31
0.0000000000
0
SPLINE
5
31D
100
AcDbEntity
8
0
100
AcDbSpline
62
7
6
CONTINUOUS
70
0
71
3
72
8
73
4
74
2
42
0.0000001000
43
0.0000001000
44
0.0000000001
12
-0.1179919846
22
-0.0474606713
32
0.0000000000
13
-0.1179922376
23
-0.0474600423
33
0.0000000000
40
0.0000000000
40
0.0000000000
40
0.0000000000
40
0.0000000000
40
1.0000000000
40
1.0000000000
40
1.0000000000
40
1.0000000000
10
3.2271326885
20
-27.5571871529
30
0.0000000000
10
3.1878020269
20
-27.5730073767
30
0.0000000000
10
3.1484713233
20
-27.5888274956
30
0.0000000000
10
3.1091405774
20
-27.6046475097
30
0.0000000000
11
3.2271326885
21
-27.5571871529
31
0.0000000000
11
3.1091405774
21
-27.6046475097
31
0.0000000000
0
SPLINE
5
31E
100
AcDbEntity
8
0
100
AcDbSpline
62
7
6
CONTINUOUS
70
0
71
3
72
17
73
13
74
11
42
0.0000001000
43
0.0000001000
44
0.0000000001
12
0.4961792244
22
-0.2480896122
32
0.0000000000
13
-0.4986944740
23
-0.2487991526
33
0.0000000000
40
0.0000000000
40
0.0000000000
40
0.0000000000
40
0.0000000000
40
0.0967991284
40
0.2045593644
40
0.3197588357
40
0.4365575171
40
0.5495472855
40
0.6608736015
40
0.7688241355
40
0.8722822029
40
0.9743127143
40
1.0000000000
40
1.0000000000
40
1.0000000000
40
1.0000000000
10
-3.5599617836
20
-23.1110336419
30
0.0000000000
10
-3.5439518781
20
-23.1190385947
30
0.0000000000
10
-3.5131060380
20
-23.1421592194
30
0.0000000000
10
-3.4769477549
20
-23.1896954943
30
0.0000000000
10
-3.4519400028
20
-23.2480107109
30
0.0000000000
10
-3.4407910495
20
-23.3113285813
30
0.0000000000
10
-3.4422936670
20
-23.3747463697
30
0.0000000000
10
-3.4551001955
20
-23.4352238630
30
0.0000000000
10
-3.4789352157
20
-23.4903878432
30
0.0000000000
10
-3.5127245152
20
-23.5380470419
30
0.0000000000
10
-3.5457019054
20
-23.5661538540
30
0.0000000000
10
-3.5664894162
20
-23.5776222562
30
0.0000000000
10
-3.5707594520
20
-23.5797525812
30
0.0000000000
11
-3.5599617836
21
-23.1110336419
31
0.0000000000
11
-3.5164863115
21
-23.1425526901
31
0.0000000000
11
-3.4798449515
21
-23.1897861179
31
0.0000000000
11
-3.4544194724
21
-23.2484168915
31
0.0000000000
11
-3.4428480425
21
-23.3121687639
31
0.0000000000
11
-3.4442439137
21
-23.3748337551
31
0.0000000000
11
-3.4572260504
21
-23.4352115907
31
0.0000000000
11
-3.4811383196
21
-23.4901153423
31
0.0000000000
11
-3.5146936301
21
-23.5366769434
31
0.0000000000
11
-3.5582315245
21
-23.5728448599
31
0.0000000000
11
-3.5707594520
21
-23.5797525812
31
0.0000000000
0
SPLINE
5
31F
100
AcDbEntity
8
0
100
AcDbSpline
62
7
6
CONTINUOUS
70
0
71
3
72
8
73
4
74
2
42
0.0000001000
43
0.0000001000
44
0.0000000001
12
0.0544985173
22
0.0019580244
32
0.0000000000
13
0.0538856775
23
0.0102995503
33
0.0000000000
40
0.0000000000
40
0.0000000000
40
0.0000000000
40
0.0000000000
40
1.0000000000
40
1.0000000000
40
1.0000000000
40
1.0000000000
10
-3.6039576136
20
-23.9800149503
30
0.0000000000
10
-3.5857914411
20
-23.9793622755
30
0.0000000000
10
-3.5676361930
20
-23.9772440102
30
0.0000000000
10
-3.5496743005
20
-23.9738108268
30
0.0000000000
11
-3.6039576136
21
-23.9800149503
31
0.0000000000
11
-3.5496743005
21
-23.9738108268
31
0.0000000000
0
SPLINE
5
320
100
AcDbEntity
8
0
100
AcDbSpline
62
7
6
CONTINUOUS
70
0
71
3
72
9
73
5
74
3
42
0.0000001000
43
0.0000001000
44
0.0000000001
12
-0.0006187863
22
-0.0398053384
32
0.0000000000
13
0.0325712585
23
-0.0206545394
33
0.0000000000
40
0.0000000000
40
0.0000000000
40
0.0000000000
40
0.0000000000
40
0.2578313622
40
1.0000000000
40
1.0000000000
40
1.0000000000
40
1.0000000000
10
-15.6606665836
20
-18.2658278968
30
0.0000000000
10
-15.6607197644
20
-18.2692489183
30
0.0000000000
10
-15.6587556217
20
-18.2824518033
30
0.0000000000
10
-15.6476950224
20
-18.2916693743
30
0.0000000000
10
-15.6396372336
20
-18.2967790915
30
0.0000000000
11
-15.6606665836
21
-18.2658278968
31
0.0000000000
11
-15.6591022240
21
-18.2757922222
31
0.0000000000
11
-15.6396372336
21
-18.2967790915
31
0.0000000000
0
SPLINE
5
321
100
AcDbEntity
8
0
100
AcDbSpline
62
7
6
CONTINUOUS
70
0
71
3
72
10
73
6
74
4
42
0.0000001000
43
0.0000001000
44
0.0000000001
12
-0.1198484016
22
-0.0539560045
32
0.0000000000
13
-0.1222747970
23
0.0482054334
33
0.0000000000
40
0.0000000000
40
0.0000000000
40
0.0000000000
40
0.0000000000
40
0.3202954311
40
0.6721752655
40
1.0000000000
40
1.0000000000
40
1.0000000000
40
1.0000000000
10
3.1091405774
20
15.3199296264
30
0.0000000000
10
3.0963449456
20
15.3141690058
30
0.0000000000
10
3.0672848792
20
15.3069779599
30
0.0000000000
10
3.0232492158
20
15.3063127886
30
0.0000000000
10
2.9936728820
20
15.3125560602
30
0.0000000000
10
2.9803113143
20
15.3178237046
30
0.0000000000
11
3.1091405774
21
15.3199296264
31
0.0000000000
11
3.0685278393
21
15.3088471181
31
0.0000000000
11
3.0222850518
21
15.3080912089
31
0.0000000000
11
2.9803113143
21
15.3178237046
31
0.0000000000
0
SPLINE
5
322
100
AcDbEntity
8
0
100
AcDbSpline
62
7
6
CONTINUOUS
70
0
71
3
72
10
73
6
74
4
42
0.0000001000
43
0.0000001000
44
0.0000000001
12
-0.1125637710
22
-0.0796018947
32
0.0000000000
13
-0.0311367781
23
-0.1343040031
33
0.0000000000
40
0.0000000000
40
0.0000000000
40
0.0000000000
40
0.0000000000
40
0.3197467593
40
0.6767478623
40
1.0000000000
40
1.0000000000
40
1.0000000000
40
1.0000000000
10
2.5100713865
20
16.4008171055
30
0.0000000000
10
2.4980740861
20
16.3923329562
30
0.0000000000
10
2.4758298126
20
16.3699799146
30
0.0000000000
10
2.4502693996
20
16.3316274634
30
0.0000000000
10
2.4381028928
20
16.3023769024
30
0.0000000000
10
2.4347478828
20
16.2879055504
30
0.0000000000
11
2.5100713865
21
16.4008171055
31
0.0000000000
11
2.4781585212
21
16.3704063662
31
0.0000000000
11
2.4508447508
21
16.3294624504
31
0.0000000000
11
2.4347478828
21
16.2879055504
31
0.0000000000
0
SPLINE
5
323
100
AcDbEntity
8
0
100
AcDbSpline
62
7
6
CONTINUOUS
70
0
71
3
72
10
73
6
74
4
42
0.0000001000
43
0.0000001000
44
0.0000000001
12
-0.1272199457
22
-0.0636157784
32
0.0000000000
13
0.0215135760
23
-0.1406024462
33
0.0000000000
40
0.0000000000
40
0.0000000000
40
0.0000000000
40
0.0000000000
40
0.3164999925
40
0.6600472208
40
1.0000000000
40
1.0000000000
40
1.0000000000
40
1.0000000000
10
-15.1489078575
20
25.2303565110
30
0.0000000000
10
-15.1623295615
20
25.2236450466
30
0.0000000000
10
-15.1865603063
20
25.2017984825
30
0.0000000000
10
-15.2069380983
20
25.1579283020
30
0.0000000000
10
-15.2091545553
20
25.1245702134
30
0.0000000000
10
-15.2067166887
20
25.1086374826
30
0.0000000000
11
-15.1489078575
21
25.2303565110
31
0.0000000000
11
-15.1830886289
21
25.2010589360
31
0.0000000000
11
-15.2040525278
21
25.1569185159
31
0.0000000000
11
-15.2067166887
21
25.1086374826
31
0.0000000000
0
SPLINE
5
324
100
AcDbEntity
8
0
100
AcDbSpline
62
7
6
CONTINUOUS
70
0
71
3
72
10
73
6
74
4
42
0.0000001000
43
0.0000001000
44
0.0000000001
12
-0.1198482979
22
-0.0539563184
32
0.0000000000
13
-0.1222746869
23
0.0482058062
33
0.0000000000
40
0.0000000000
40
0.0000000000
40
0.0000000000
40
0.0000000000
40
0.3203688278
40
0.6722583487
40
1.0000000000
40
1.0000000000
40
1.0000000000
40
1.0000000000
10
3.1091405774
20
-27.6046475098
30
0.0000000000
10
3.0963420245
20
-27.6104094839
30
0.0000000000
10
3.0672779326
20
-27.6176004470
30
0.0000000000
10
3.0232422052
20
-27.6182635161
30
0.0000000000
10
2.9936694839
20
-27.6120197818
30
0.0000000000
10
2.9803113146
20
-27.6067534316
30
0.0000000000
11
3.1091405774
21
-27.6046475098
31
0.0000000000
11
3.0685182063
21
-27.6157314031
31
0.0000000000
11
3.0222740939
21
-27.6164848924
31
0.0000000000
11
2.9803113146
21
-27.6067534316
31
0.0000000000
0
SPLINE
5
325
100
AcDbEntity
8
0
100
AcDbSpline
62
7
6
CONTINUOUS
70
0
71
3
72
10
73
6
74
4
42
0.0000001000
43
0.0000001000
44
0.0000000001
12
0.0607370670
22
0.0428888445
32
0.0000000000
13
0.0369850556
23
0.0645023252
33
0.0000000000
40
0.0000000000
40
0.0000000000
40
0.0000000000
40
0.0000000000
40
0.3885793936
40
0.7235615455
40
1.0000000000
40
1.0000000000
40
1.0000000000
40
1.0000000000
10
1.7010187461
20
-26.7671357375
30
0.0000000000
10
1.7088858037
20
-26.7615804971
30
0.0000000000
10
1.7231299967
20
-26.7506243369
30
0.0000000000
10
1.7410218779
20
-26.7334053929
30
0.0000000000
10
1.7502823962
20
-26.7212579950
30
0.0000000000
10
1.7536904267
20
-26.7153143539
30
0.0000000000
11
1.7010187461
21
-26.7671357375
31
0.0000000000
11
1.7238106781
21
-26.7493793457
31
0.0000000000
11
1.7415653701
21
-26.7319112473
31
0.0000000000
11
1.7536904267
21
-26.7153143539
31
0.0000000000
0
SPLINE
5
326
100
AcDbEntity
8
0
100
AcDbSpline
62
7
6
CONTINUOUS
70
0
71
3
72
10
73
6
74
4
42
0.0000001000
43
0.0000001000
44
0.0000000001
12
-0.0274051564
22
0.1058178105
32
0.0000000000
13
-0.0757260495
23
0.0788290368
33
0.0000000000
40
0.0000000000
40
0.0000000000
40
0.0000000000
40
0.0000000000
40
0.3341571432
40
0.6679906253
40
1.0000000000
40
1.0000000000
40
1.0000000000
40
1.0000000000
10
1.7536902426
20
15.4329905053
30
0.0000000000
10
1.7506376997
20
15.4447770977
30
0.0000000000
10
1.7425100428
20
15.4678676823
30
0.0000000000
10
1.7247142907
20
15.4998435815
30
0.0000000000
10
1.7093994590
20
15.5188442996
30
0.0000000000
10
1.7010188729
20
15.5275682927
30
0.0000000000
11
1.7536902426
21
15.4329905053
31
0.0000000000
11
1.7415652590
21
15.4674457050
31
0.0000000000
11
1.7238106613
21
15.4993262161
31
0.0000000000
11
1.7010188729
21
15.5275682927
31
0.0000000000
0
SPLINE
5
327
100
AcDbEntity
8
0
100
AcDbSpline
62
7
6
CONTINUOUS
70
0
71
3
72
10
73
6
74
4
42
0.0000001000
43
0.0000001000
44
0.0000000001
12
-0.2548899789
22
0.1235277735
32
0.0000000000
13
-0.2008503682
23
-0.1997176551
33
0.0000000000
40
0.0000000000
40
0.0000000000
40
0.0000000000
40
0.0000000000
40
0.3026466803
40
0.6488790261
40
1.0000000000
40
1.0000000000
40
1.0000000000
40
1.0000000000
10
-13.8691316741
20
22.4668116274
30
0.0000000000
10
-13.8948455427
20
22.4792733842
30
0.0000000000
10
-13.9583789495
20
22.4885072792
30
0.0000000000
10
-14.0513091909
20
22.4645411199
30
0.0000000000
10
-14.1076214794
20
22.4272158608
30
0.0000000000
10
-14.1311290717
20
22.4038408416
30
0.0000000000
11
-13.8691316741
21
22.4668116274
31
0.0000000000
11
-13.9534080670
21
22.4824952309
31
0.0000000000
11
-14.0487613230
21
22.4595771828
31
0.0000000000
11
-14.1311290717
21
22.4038408416
31
0.0000000000
0
SPLINE
5
328
100
AcDbEntity
8
0
100
AcDbSpline
62
7
6
CONTINUOUS
70
0
71
3
72
10
73
6
74
4
42
0.0000001000
43
0.0000001000
44
0.0000000001
12
-0.2548899778
22
0.1235277787
32
0.0000000000
13
-0.2008503743
23
-0.1997176507
33
0.0000000000
40
0.0000000000
40
0.0000000000
40
0.0000000000
40
0.0000000000
40
0.3026459891
40
0.6488783689
40
1.0000000000
40
1.0000000000
40
1.0000000000
40
1.0000000000
10
-14.1517925721
20
23.0449884861
30
0.0000000000
10
-14.1775063819
20
23.0574502150
30
0.0000000000
10
-14.2410397080
20
23.0666841409
30
0.0000000000
10
-14.3339699706
20
23.0427180419
30
0.0000000000
10
-14.3902823328
20
23.0053927627
30
0.0000000000
10
-14.4137899698
20
22.9820177003
30
0.0000000000
11
-14.1517925721
21
23.0449884861
31
0.0000000000
11
-14.2360687646
21
23.0606720984
31
0.0000000000
11
-14.3314220471
21
23.0377541172
31
0.0000000000
11
-14.4137899698
21
22.9820177003
31
0.0000000000
0
SPLINE
5
329
100
AcDbEntity
8
0
100
AcDbSpline
62
7
6
CONTINUOUS
70
0
71
3
72
10
73
6
74
4
42
0.0000001000
43
0.0000001000
44
0.0000000001
12
-0.0423413913
22
-0.0472391268
32
0.0000000000
13
-0.0429375439
23
-0.0466979212
33
0.0000000000
40
0.0000000000
40
0.0000000000
40
0.0000000000
40
0.0000000000
40
0.2465276727
40
0.5836086332
40
1.0000000000
40
1.0000000000
40
1.0000000000
40
1.0000000000
10
-14.5902754075
20
23.6732154051
30
0.0000000000
10
-14.5937548491
20
23.6693334878
30
0.0000000000
10
-14.6020401839
20
23.6601872225
30
0.0000000000
10
-14.6162977465
20
23.6445709064
30
0.0000000000
10
-14.6270719029
20
23.6328332200
30
0.0000000000
10
-14.6330315104
20
23.6263516830
30
0.0000000000
11
-14.5902754075
21
23.6732154051
31
0.0000000000
11
-14.6007609581
21
23.6616121560
31
0.0000000000
11
-14.6151732733
21
23.6458152019
31
0.0000000000
11
-14.6330315104
21
23.6263516830
31
0.0000000000
0
SPLINE
5
32A
100
AcDbEntity
8
0
100
AcDbSpline
62
7
6
CONTINUOUS
70
0
71
3
72
10
73
6
74
4
42
0.0000001000
43
0.0000001000
44
0.0000000001
12
0.0133021650
22
-0.2902074418
32
0.0000000000
13
0.2536155301
23
-0.1416914597
33
0.0000000000
40
0.0000000000
40
0.0000000000
40
0.0000000000
40
0.0000000000
40
0.3338687498
40
0.6884992647
40
1.0000000000
40
1.0000000000
40
1.0000000000
40
1.0000000000
10
-13.6862821014
20
-16.4632598876
30
0.0000000000
10
-13.6848017090
20
-16.4955569529
30
0.0000000000
10
-13.6679060509
20
-16.5616067159
30
0.0000000000
10
-13.6194040400
20
-16.6462280714
30
0.0000000000
10
-13.5713883663
20
-16.6921290371
30
0.0000000000
10
-13.5450545582
20
-16.7068413684
30
0.0000000000
11
-13.6862821014
21
-16.4632598876
31
0.0000000000
11
-13.6645360540
21
-16.5577836269
31
0.0000000000
11
-13.6128604685
21
-16.6469109273
31
0.0000000000
11
-13.5450545582
21
-16.7068413684
31
0.0000000000
0
SPLINE
5
32B
100
AcDbEntity
8
0
100
AcDbSpline
62
7
6
CONTINUOUS
70
0
71
3
72
10
73
6
74
4
42
0.0000001000
43
0.0000001000
44
0.0000000001
12
0.2749364005
22
-0.0258320204
32
0.0000000000
13
0.2435649904
23
-0.1301284483
33
0.0000000000
40
0.0000000000
40
0.0000000000
40
0.0000000000
40
0.0000000000
40
0.3035295026
40
0.6659119441
40
1.0000000000
40
1.0000000000
40
1.0000000000
40
1.0000000000
10
-14.1311290717
20
-17.0127191699
30
0.0000000000
10
-14.1033119688
20
-17.0153327633
30
0.0000000000
10
-14.0430466239
20
-17.0281679852
30
0.0000000000
10
-13.9553540681
20
-17.0562220540
30
0.0000000000
10
-13.8962557254
20
-17.0816561910
30
0.0000000000
10
-13.8691316741
20
-17.0961476444
30
0.0000000000
11
-14.1311290717
21
-17.0127191699
31
0.0000000000
11
-14.0487613230
21
-17.0282482637
31
0.0000000000
11
-13.9534080675
21
-17.0586118350
31
0.0000000000
11
-13.8691316741
21
-17.0961476444
31
0.0000000000
0
SPLINE
5
32C
100
AcDbEntity
8
0
100
AcDbSpline
62
7
6
CONTINUOUS
70
0
71
3
72
10
73
6
74
4
42
0.0000001000
43
0.0000001000
44
0.0000000001
12
0.2749364024
22
-0.0258320063
32
0.0000000000
13
0.2435649847
23
-0.1301284603
33
0.0000000000
40
0.0000000000
40
0.0000000000
40
0.0000000000
40
0.0000000000
40
0.3035300245
40
0.6659125701
40
1.0000000000
40
1.0000000000
40
1.0000000000
40
1.0000000000
10
-14.4137899698
20
-17.8454050444
30
0.0000000000
10
-14.3859728188
20
-17.8480186409
30
0.0000000000
10
-14.3257074180
20
-17.8608538831
30
0.0000000000
10
-14.2380148660
20
-17.8889079642
30
0.0000000000
10
-14.1789165720
20
-17.9143420913
30
0.0000000000
10
-14.1517925721
20
-17.9288335189
30
0.0000000000
11
-14.4137899698
21
-17.8454050444
31
0.0000000000
11
-14.3314220806
21
-17.8609341719
31
0.0000000000
11
-14.2360688027
21
-17.8912977683
31
0.0000000000
11
-14.1517925721
21
-17.9288335189
31
0.0000000000
0
SPLINE
5
32D
100
AcDbEntity
8
0
100
AcDbSpline
62
7
6
CONTINUOUS
70
0
71
3
72
10
73
6
74
4
42
0.0000001000
43
0.0000001000
44
0.0000000001
12
0.0586975344
22
-0.0915618860
32
0.0000000000
13
0.0257576538
23
-0.1056670374
33
0.0000000000
40
0.0000000000
40
0.0000000000
40
0.0000000000
40
0.0000000000
40
0.3336402314
40
0.6693860831
40
1.0000000000
40
1.0000000000
40
1.0000000000
40
1.0000000000
10
-14.6330316409
20
-18.5219538114
30
0.0000000000
10
-14.6265036879
20
-18.5321367210
30
0.0000000000
10
-14.6145513304
20
-18.5533243141
30
0.0000000000
10
-14.6002098290
20
-18.5866882264
30
0.0000000000
10
-14.5931140006
20
-18.6098440321
30
0.0000000000
10
-14.5902753876
20
-18.6214890298
30
0.0000000000
11
-14.6330316409
21
-18.5219538114
31
0.0000000000
11
-14.6151733228
21
-18.5535423036
31
0.0000000000
11
-14.6007609344
21
-18.5870938766
31
0.0000000000
11
-14.5902753876
21
-18.6214890298
31
0.0000000000
0
SPLINE
5
32E
100
AcDbEntity
8
0
100
AcDbSpline
62
7
6
CONTINUOUS
70
0
71
3
72
11
73
7
74
5
42
0.0000001000
43
0.0000001000
44
0.0000000001
12
-0.4647781332
22
-0.2284187870
32
0.0000000000
13
-0.1699665477
23
-0.4891883360
33
0.0000000000
40
0.0000000000
40
0.0000000000
40
0.0000000000
40
0.0000000000
40
0.2290849025
40
0.4782658848
40
0.7385107188
40
1.0000000000
40
1.0000000000
40
1.0000000000
40
1.0000000000
10
-13.5450545582
20
-16.7068413684
30
0.0000000000
10
-13.5805457760
20
-16.7242838003
30
0.0000000000
10
-13.6500969048
20
-16.7702725822
30
0.0000000000
10
-13.7406607389
20
-16.8609952277
30
0.0000000000
10
-13.8166487644
20
-16.9710613506
30
0.0000000000
10
-13.8543168639
20
-17.0535084756
30
0.0000000000
10
-13.8691316741
20
-17.0961476444
30
0.0000000000
11
-13.5450545582
21
-16.7068413684
31
0.0000000000
11
-13.6446733737
21
-16.7712686633
31
0.0000000000
11
-13.7363712176
21
-16.8620649932
31
0.0000000000
11
-13.8131028638
21
-16.9728635487
31
0.0000000000
11
-13.8691316741
21
-17.0961476444
31
0.0000000000
0
SPLINE
5
32F
100
AcDbEntity
8
0
100
AcDbSpline
62
7
6
CONTINUOUS
70
0
71
3
72
10
73
6
74
4
42
0.0000001000
43
0.0000001000
44
0.0000000001
12
-0.0763573044
22
-0.0877913058
32
0.0000000000
13
-0.0625102353
23
-0.0981336935
33
0.0000000000
40
0.0000000000
40
0.0000000000
40
0.0000000000
40
0.0000000000
40
0.3312550995
40
0.6661446084
40
1.0000000000
40
1.0000000000
40
1.0000000000
40
1.0000000000
10
-14.6330313282
20
-18.5219534805
30
0.0000000000
10
-14.6414625771
20
-18.5316472530
30
0.0000000000
10
-14.6580176738
20
-18.5514954868
30
0.0000000000
10
-14.6814247614
20
-18.5824359476
30
0.0000000000
10
-14.6960412048
20
-18.6038809546
30
0.0000000000
10
-14.7029976645
20
-18.6148017755
30
0.0000000000
11
-14.6330313282
21
-18.5219534805
31
0.0000000000
11
-14.6576893220
21
-18.5515757693
31
0.0000000000
11
-14.6811889330
21
-18.5826569598
31
0.0000000000
11
-14.7029976645
21
-18.6148017755
31
0.0000000000
0
SPLINE
5
330
100
AcDbEntity
8
0
100
AcDbSpline
62
7
6
CONTINUOUS
70
0
71
3
72
16
73
12
74
10
42
0.0000001000
43
0.0000001000
44
0.0000000001
12
-0.1294006287
22
-0.7041642131
32
0.0000000000
13
-0.4704071045
23
-0.5397304121
33
0.0000000000
40
0.0000000000
40
0.0000000000
40
0.0000000000
40
0.0000000000
40
0.1657431135
40
0.3162322146
40
0.4526027802
40
0.5758316483
40
0.6860706742
40
0.7833406578
40
0.8675533280
40
0.9393259666
40
1.0000000000
40
1.0000000000
40
1.0000000000
40
1.0000000000
10
-14.4137899698
20
-17.8454050444
30
0.0000000000
10
-14.4209390575
20
-17.8843085008
30
0.0000000000
10
-14.4355652638
20
-17.9583585173
30
0.0000000000
10
-14.4593890954
20
-18.0637261670
30
0.0000000000
10
-14.4836693460
20
-18.1585495564
30
0.0000000000
10
-14.5081898920
20
-18.2433533570
30
0.0000000000
10
-14.5327726341
20
-18.3183806406
30
0.0000000000
10
-14.5572322988
20
-18.3835840321
30
0.0000000000
10
-14.5814750659
20
-18.4390061978
30
0.0000000000
10
-14.6056609821
20
-18.4847327965
30
0.0000000000
10
-14.6235174961
20
-18.5110376068
30
0.0000000000
10
-14.6330313282
20
-18.5219534805
30
0.0000000000
11
-14.4137899698
21
-17.8454050444
31
0.0000000000
11
-14.4368255230
21
-17.9618123407
31
0.0000000000
11
-14.4606509415
21
-18.0668885010
31
0.0000000000
11
-14.4849555777
21
-18.1614502182
31
0.0000000000
11
-14.5095731769
21
-18.2461724770
31
0.0000000000
11
-14.5342940541
21
-18.3211272823
31
0.0000000000
11
-14.5589463887
21
-18.3862588688
31
0.0000000000
11
-14.5833890603
21
-18.4413745712
31
0.0000000000
11
-14.6078018449
21
-18.4865911153
31
0.0000000000
11
-14.6330313282
21
-18.5219534805
31
0.0000000000
0
SPLINE
5
331
100
AcDbEntity
8
0
100
AcDbSpline
62
7
6
CONTINUOUS
70
0
71
3
72
17
73
13
74
11
42
0.0000001000
43
0.0000001000
44
0.0000000001
12
-0.1468672487
22
0.6669355435
32
0.0000000000
13
-0.3586458703
23
0.5811593134
33
0.0000000000
40
0.0000000000
40
0.0000000000
40
0.0000000000
40
0.0000000000
40
0.1323476551
40
0.2565915928
40
0.3731166245
40
0.4824039910
40
0.5849512370
40
0.6807585260
40
0.7699744282
40
0.8529794117
40
0.9297746969
40
1.0000000000
40
1.0000000000
40
1.0000000000
40
1.0000000000
10
-14.4137899698
20
22.9820177003
30
0.0000000000
10
-14.4202691485
20
23.0114401520
30
0.0000000000
10
-14.4334919594
20
23.0683401956
30
0.0000000000
10
-14.4545550886
20
23.1506292156
30
0.0000000000
10
-14.4759800885
20
23.2273877260
30
0.0000000000
10
-14.4976454931
20
23.2989326856
30
0.0000000000
10
-14.5194764640
20
23.3654810289
30
0.0000000000
10
-14.5414325518
20
23.4271594731
30
0.0000000000
10
-14.5635197856
20
23.4840443210
30
0.0000000000
10
-14.5858086652
20
23.5361802487
30
0.0000000000
10
-14.6084397096
20
23.5834162094
30
0.0000000000
10
-14.6246359538
20
23.6127478844
30
0.0000000000
10
-14.6330312922
20
23.6263519140
30
0.0000000000
11
-14.4137899698
21
22.9820177003
31
0.0000000000
11
-14.4342453773
21
23.0700547386
31
0.0000000000
11
-14.4552955394
21
23.1522501384
31
0.0000000000
11
-14.4767102632
21
23.2288912568
31
0.0000000000
11
-14.4983710832
21
23.3003128323
31
0.0000000000
11
-14.5202403970
21
23.3668416425
31
0.0000000000
11
-14.5422362501
21
23.4284617478
31
0.0000000000
11
-14.5643598068
21
23.4852299921
31
0.0000000000
11
-14.5867472217
21
23.5373071764
31
0.0000000000
11
-14.6095585618
21
23.5845309518
31
0.0000000000
11
-14.6330312922
21
23.6263519140
31
0.0000000000
0
SPLINE
5
332
100
AcDbEntity
8
0
100
AcDbSpline
62
7
6
CONTINUOUS
70
0
71
3
72
11
73
7
74
5
42
0.0000001000
43
0.0000001000
44
0.0000000001
12
-0.0859510584
22
0.1394009954
32
0.0000000000
13
-0.0560185066
23
0.1538900545
33
0.0000000000
40
0.0000000000
40
0.0000000000
40
0.0000000000
40
0.0000000000
40
0.2818131103
40
0.5519294736
40
0.7957642821
40
1.0000000000
40
1.0000000000
40
1.0000000000
40
1.0000000000
10
-14.6330312922
20
23.6263519140
30
0.0000000000
10
-14.6411053372
20
23.6394469234
30
0.0000000000
10
-14.6560086409
20
23.6656626198
30
0.0000000000
10
-14.6751753766
20
23.7046708812
30
0.0000000000
10
-14.6905382350
20
23.7407587437
30
0.0000000000
10
-14.6991840045
20
23.7636442598
30
0.0000000000
10
-14.7029976645
20
23.7741208751
30
0.0000000000
11
-14.6330312922
21
23.6263519140
31
0.0000000000
11
-14.6559048527
21
23.6664371419
31
0.0000000000
11
-14.6754258301
21
23.7061336311
31
0.0000000000
11
-14.6911072343
21
23.7428582953
31
0.0000000000
11
-14.7029976645
21
23.7741208751
31
0.0000000000
0
SPLINE
5
333
100
AcDbEntity
8
0
100
AcDbSpline
62
7
6
CONTINUOUS
70
0
71
3
72
11
73
7
74
5
42
0.0000001000
43
0.0000001000
44
0.0000000001
12
0.1062484463
22
-0.0200158351
32
0.0000000000
13
0.1080981962
23
-0.0020361671
33
0.0000000000
40
0.0000000000
40
0.0000000000
40
0.0000000000
40
0.0000000000
40
0.2047974462
40
0.4384388950
40
0.7026914536
40
1.0000000000
40
1.0000000000
40
1.0000000000
40
1.0000000000
10
1.7010189713
20
15.5275683980
30
0.0000000000
10
1.7082721081
20
15.5262020007
30
0.0000000000
10
1.7238907130
20
15.5237507479
30
0.0000000000
10
1.7490761857
20
15.5210310634
30
0.0000000000
10
1.7776791753
20
15.5191342595
30
0.0000000000
10
1.7979118244
20
15.5185265115
30
0.0000000000
10
1.8086246636
20
15.5183247215
30
0.0000000000
11
1.7010189713
21
15.5275683980
31
0.0000000000
11
1.7228840721
21
15.5240765959
31
0.0000000000
11
1.7479930732
21
15.5213123612
31
0.0000000000
11
1.7764976126
21
15.5193751424
31
0.0000000000
11
1.8086246636
21
15.5183247215
31
0.0000000000
0
SPLINE
5
334
100
AcDbEntity
8
0
100
AcDbSpline
62
7
6
CONTINUOUS
70
0
71
3
72
12
73
8
74
6
42
0.0000001000
43
0.0000001000
44
0.0000000001
12
-0.1226522051
22
0.0889660318
32
0.0000000000
13
-0.1029279946
23
0.1111950816
33
0.0000000000
40
0.0000000000
40
0.0000000000
40
0.0000000000
40
0.0000000000
40
0.2342629520
40
0.4572094004
40
0.6629003506
40
0.8451933367
40
1.0000000000
40
1.0000000000
40
1.0000000000
40
1.0000000000
10
-14.5902752168
20
23.6732156094
30
0.0000000000
10
-14.5998528394
20
23.6801627578
30
0.0000000000
10
-14.6182086995
20
23.6941922545
30
0.0000000000
10
-14.6438355979
20
23.7157548802
30
0.0000000000
10
-14.6665705220
20
23.7366313508
30
0.0000000000
10
-14.6859880124
20
23.7559929758
30
0.0000000000
10
-14.6976642256
20
23.7683866371
30
0.0000000000
10
-14.7029755387
20
23.7741245503
30
0.0000000000
11
-14.5902752168
21
23.6732156094
31
0.0000000000
11
-14.6184843223
21
23.6947606760
31
0.0000000000
11
-14.6443350942
21
23.7165067898
31
0.0000000000
11
-14.6672841983
21
23.7375943507
31
0.0000000000
11
-14.6868592909
21
23.7570813754
31
0.0000000000
11
-14.7029755387
21
23.7741245503
31
0.0000000000
0
SPLINE
5
335
100
AcDbEntity
8
0
100
AcDbSpline
62
7
6
CONTINUOUS
70
0
71
3
72
10
73
6
74
4
42
0.0000001000
43
0.0000001000
44
0.0000000001
12
0.0477752162
22
0.0896006663
32
0.0000000000
13
0.0599307373
23
0.0819698567
33
0.0000000000
40
0.0000000000
40
0.0000000000
40
0.0000000000
40
0.0000000000
40
0.2748478226
40
0.6066234300
40
1.0000000000
40
1.0000000000
40
1.0000000000
40
1.0000000000
10
1.7536909054
20
15.4329906618
30
0.0000000000
10
1.7580678767
20
15.4411995111
30
0.0000000000
10
1.7683518789
20
15.4589850177
30
0.0000000000
10
1.7866170576
20
15.4874912901
30
0.0000000000
10
1.8007528067
20
15.5075673770
30
0.0000000000
10
1.8086112560
20
15.5183157174
30
0.0000000000
11
1.7536909054
21
15.4329906618
31
0.0000000000
11
1.7675502099
21
15.4572147707
31
0.0000000000
11
1.7856783580
21
15.4856106627
31
0.0000000000
11
1.8086112560
21
15.5183157174
31
0.0000000000
0
SPLINE
5
336
100
AcDbEntity
8
0
100
AcDbSpline
62
7
6
CONTINUOUS
70
0
71
3
72
11
73
7
74
5
42
0.0000001000
43
0.0000001000
44
0.0000000001
12
0.0400754906
22
-0.1599910081
32
0.0000000000
13
0.0699976973
23
-0.1493435302
33
0.0000000000
40
0.0000000000
40
0.0000000000
40
0.0000000000
40
0.0000000000
40
0.2845087854
40
0.5552653307
40
0.7979828890
40
1.0000000000
40
1.0000000000
40
1.0000000000
40
1.0000000000
10
1.7536908885
20
-26.7153142449
30
0.0000000000
10
1.7574914982
20
-26.7304871940
30
0.0000000000
10
1.7657808730
20
-26.7598877740
30
0.0000000000
10
1.7798869523
20
-26.8014463770
30
0.0000000000
10
1.7941311829
20
-26.8381235129
30
0.0000000000
10
1.8038976784
20
-26.8605495672
30
0.0000000000
10
1.8086112560
20
-26.8706062167
30
0.0000000000
11
1.7536908885
21
-26.7153142449
31
0.0000000000
11
1.7663868450
21
-26.7604892365
31
0.0000000000
11
1.7807011458
21
-26.8027898359
31
0.0000000000
11
1.7952132725
21
-26.8400991659
31
0.0000000000
11
1.8086112560
21
-26.8706062167
31
0.0000000000
0
SPLINE
5
337
100
AcDbEntity
8
0
100
AcDbSpline
62
7
6
CONTINUOUS
70
0
71
3
72
12
73
8
74
6
42
0.0000001000
43
0.0000001000
44
0.0000000001
12
0.0959505751
22
-0.1146650571
32
0.0000000000
13
0.1178176076
23
-0.0920521565
33
0.0000000000
40
0.0000000000
40
0.0000000000
40
0.0000000000
40
0.0000000000
40
0.2207139263
40
0.4385028658
40
0.6460208376
40
0.8352132869
40
1.0000000000
40
1.0000000000
40
1.0000000000
40
1.0000000000
10
1.7010189376
20
-26.7671357511
30
0.0000000000
10
1.7080781470
20
-26.7755718095
30
0.0000000000
10
1.7225871655
20
-26.7919314303
30
0.0000000000
10
1.7451104308
20
-26.8149527876
30
0.0000000000
10
1.7674348070
20
-26.8359290017
30
0.0000000000
10
1.7884750408
20
-26.8543869605
30
0.0000000000
10
1.8021531243
20
-26.8655365742
30
0.0000000000
10
1.8086247164
20
-26.8705928983
30
0.0000000000
11
1.7010189376
21
-26.7671357511
31
0.0000000000
11
1.7228813572
21
-26.7918547774
31
0.0000000000
11
1.7456318804
21
-26.8151514943
31
0.0000000000
11
1.7682245601
21
-26.8364174835
31
0.0000000000
11
1.7895077982
21
-26.8550502249
31
0.0000000000
11
1.8086247164
21
-26.8705928983
31
0.0000000000
0
SPLINE
5
338
100
AcDbEntity
8
0
100
AcDbSpline
62
7
6
CONTINUOUS
70
0
71
3
72
11
73
7
74
5
42
0.0000001000
43
0.0000001000
44
0.0000000001
12
-0.1129803509
22
-0.0002601882
32
0.0000000000
13
-0.1118920711
23
0.0156458242
33
0.0000000000
40
0.0000000000
40
0.0000000000
40
0.0000000000
40
0.0000000000
40
0.2497065643
40
0.5009555869
40
0.7517068224
40
1.0000000000
40
1.0000000000
40
1.0000000000
40
1.0000000000
10
-14.5902752890
20
-18.6214890368
30
0.0000000000
10
-14.5996792674
20
-18.6215106937
30
0.0000000000
10
-14.6185468903
20
-18.6213032418
30
0.0000000000
10
-14.6468387345
20
-18.6201876835
30
0.0000000000
10
-14.6750269221
20
-18.6181616229
30
0.0000000000
10
-14.6937148589
20
-18.6160879229
30
0.0000000000
10
-14.7029755382
20
-18.6147930057
30
0.0000000000
11
-14.5902752890
21
-18.6214890368
31
0.0000000000
11
-14.6184855031
21
-18.6211707087
31
0.0000000000
11
-14.6468490123
21
-18.6200339932
31
0.0000000000
11
-14.6751038853
21
-18.6179716673
31
0.0000000000
11
-14.7029755382
21
-18.6147930057
31
0.0000000000
0
SPLINE
5
339
100
AcDbEntity
8
0
100
AcDbSpline
62
7
6
CONTINUOUS
70
0
71
3
72
12
73
8
74
6
42
0.0000001000
43
0.0000001000
44
0.0000000001
12
1.0592582203
22
-0.7168776238
32
0.0000000000
13
0.0045843845
23
-1.2790310740
33
0.0000000000
40
0.0000000000
40
0.0000000000
40
0.0000000000
40
0.0000000000
40
0.1980645004
40
0.4050386427
40
0.6125291611
40
0.8131986901
40
1.0000000000
40
1.0000000000
40
1.0000000000
40
1.0000000000
10
2.5100791483
20
16.4008613971
30
0.0000000000
10
2.5800129651
20
16.3535320609
30
0.0000000000
10
2.7126907888
20
16.2408956961
30
0.0000000000
10
2.8780979104
20
16.0371520223
30
0.0000000000
10
3.0060006350
20
15.8065690038
30
0.0000000000
10
3.0877690134
20
15.5650060735
30
0.0000000000
10
3.1088551211
20
15.3995711864
30
0.0000000000
10
3.1091405774
20
15.3199296264
30
0.0000000000
11
2.5100791483
21
16.4008613971
31
0.0000000000
11
2.7042003949
21
16.2380910537
31
0.0000000000
11
2.8715385797
21
16.0329596870
31
0.0000000000
11
2.9999834981
21
15.8007249517
31
0.0000000000
11
3.0810475883
21
15.5571985036
31
0.0000000000
11
3.1091405774
21
15.3199296264
31
0.0000000000
0
SPLINE
5
33A
100
AcDbEntity
8
0
100
AcDbSpline
62
7
6
CONTINUOUS
70
0
71
3
72
9
73
5
74
3
42
0.0000001000
43
0.0000001000
44
0.0000000001
12
-0.0015028258
22
-0.4135970500
32
0.0000000000
13
-0.2348736899
23
-0.3430397725
33
0.0000000000
40
0.0000000000
40
0.0000000000
40
0.0000000000
40
0.0000000000
40
0.5258182298
40
1.0000000000
40
1.0000000000
40
1.0000000000
40
1.0000000000
10
3.1091405774
20
-27.6046475098
30
0.0000000000
10
3.1088771730
20
-27.6771397993
30
0.0000000000
10
3.0928766880
20
-27.8159028755
30
0.0000000000
10
3.0371372757
20
-27.9446749616
30
0.0000000000
10
3.0000130017
20
-27.9988960305
30
0.0000000000
11
3.1091405774
21
-27.6046475098
31
0.0000000000
11
3.0810632698
21
-27.8203057525
31
0.0000000000
11
3.0000130017
21
-27.9988960305
31
0.0000000000
0
SPLINE
5
33B
100
AcDbEntity
8
0
100
AcDbSpline
62
7
6
CONTINUOUS
70
0
71
3
72
8
73
4
74
2
42
0.0000001000
43
0.0000001000
44
0.0000000001
12
-0.1030550998
22
-0.1505149342
32
0.0000000000
13
-0.1517505361
23
-0.1011419645
33
0.0000000000
40
0.0000000000
40
0.0000000000
40
0.0000000000
40
0.0000000000
40
1.0000000000
40
1.0000000000
40
1.0000000000
40
1.0000000000
10
3.0000130017
20
-27.9988960305
30
0.0000000000
10
2.9656613018
20
-28.0490676752
30
0.0000000000
10
2.9221535776
20
-28.0933825777
30
0.0000000000
10
2.8715700656
20
-28.1270965658
30
0.0000000000
11
3.0000130017
21
-27.9988960305
31
0.0000000000
11
2.8715700656
21
-28.1270965658
31
0.0000000000
0
SPLINE
5
33C
100
AcDbEntity
8
0
100
AcDbSpline
62
7
6
CONTINUOUS
70
0
71
3
72
8
73
4
74
2
42
0.0000001000
43
0.0000001000
44
0.0000000001
12
-0.0765947185
22
-0.0510504971
32
0.0000000000
13
-0.0854713953
23
-0.0346080928
33
0.0000000000
40
0.0000000000
40
0.0000000000
40
0.0000000000
40
0.0000000000
40
1.0000000000
40
1.0000000000
40
1.0000000000
40
1.0000000000
10
2.8715700656
20
-28.1270965658
30
0.0000000000
10
2.8460384928
20
-28.1441133982
30
0.0000000000
10
2.8187042675
20
-28.1584295047
30
0.0000000000
10
2.7902138024
20
-28.1699655356
30
0.0000000000
11
2.8715700656
21
-28.1270965658
31
0.0000000000
11
2.7902138024
21
-28.1699655356
31
0.0000000000
0
SPLINE
5
33D
100
AcDbEntity
8
0
100
AcDbSpline
62
7
6
CONTINUOUS
70
0
71
3
72
9
73
5
74
3
42
0.0000001000
43
0.0000001000
44
0.0000000001
12
-0.0071103887
22
-0.0034668137
32
0.0000000000
13
-0.0069157758
23
-0.0038403736
33
0.0000000000
40
0.0000000000
40
0.0000000000
40
0.0000000000
40
0.0000000000
40
0.4954356311
40
1.0000000000
40
1.0000000000
40
1.0000000000
40
1.0000000000
10
1.2678571519
20
-21.6431392491
30
0.0000000000
10
1.2666829052
20
-21.6437117768
30
0.0000000000
10
1.2643285986
20
-21.6449000896
30
0.0000000000
10
1.2620067734
20
-21.6461506293
30
0.0000000000
10
1.2608436221
20
-21.6467965346
30
0.0000000000
11
1.2678571519
21
-21.6431392491
31
0.0000000000
11
1.2643580632
21
-21.6449045158
31
0.0000000000
11
1.2608436221
21
-21.6467965346
31
0.0000000000
0
SPLINE
5
33E
100
AcDbEntity
8
0
100
AcDbSpline
62
7
6
CONTINUOUS
70
0
71
3
72
13
73
9
74
7
42
0.0000001000
43
0.0000001000
44
0.0000000001
12
-17.8633879202
22
2.7993398599
32
0.0000000000
13
-13.4904960779
23
12.0450288750
33
0.0000000000
40
0.0000000000
40
0.0000000000
40
0.0000000000
40
0.0000000000
40
0.1690078227
40
0.3373430928
40
0.5062691789
40
0.6778430830
40
0.8540675076
40
1.0000000000
40
1.0000000000
40
1.0000000000
40
1.0000000000
10
1.8086112560
20
-26.8706033178
30
0.0000000000
10
0.8022604901
20
-26.7128998729
30
0.0000000000
10
-1.1920373256
20
-26.2956911746
30
0.0000000000
10
-4.1026871428
20
-25.3624332436
30
0.0000000000
10
-6.9158310502
20
-24.1276464393
30
0.0000000000
10
-9.6315245202
20
-22.5926535032
30
0.0000000000
10
-12.0715310754
20
-20.8817645909
30
0.0000000000
10
-13.5653833433
20
-19.6378888862
30
0.0000000000
10
-14.2216172488
20
-19.0519685246
30
0.0000000000
11
1.8086112560
21
-26.8706033178
31
0.0000000000
11
-1.1822485344
21
-26.2434925787
31
0.0000000000
11
-4.0807539431
21
-25.3145142133
31
0.0000000000
11
-6.8783131366
21
-24.0884872077
31
0.0000000000
11
-9.5805388500
21
-22.5646052224
31
0.0000000000
11
-12.1918373158
21
-20.7386363379
31
0.0000000000
11
-14.2216172488
21
-19.0519685246
31
0.0000000000
0
SPLINE
5
33F
100
AcDbEntity
8
0
100
AcDbSpline
62
7
6
CONTINUOUS
70
0
71
3
72
8
73
4
74
2
42
0.0000001000
43
0.0000001000
44
0.0000000001
12
-0.1051848644
22
0.0939146138
32
0.0000000000
13
-0.1048342966
23
0.0942976462
33
0.0000000000
40
0.0000000000
40
0.0000000000
40
0.0000000000
40
0.0000000000
40
1.0000000000
40
1.0000000000
40
1.0000000000
40
1.0000000000
10
-14.2216172488
20
-19.0519685246
30
0.0000000000
10
-14.2566788703
20
-19.0206636533
30
0.0000000000
10
-14.2916820868
20
-18.9892946607
30
0.0000000000
10
-14.3266268523
20
-18.9578621120
30
0.0000000000
11
-14.2216172488
21
-19.0519685246
31
0.0000000000
11
-14.3266268523
21
-18.9578621120
31
0.0000000000
0
SPLINE
5
340
100
AcDbEntity
8
0
100
AcDbSpline
62
7
6
CONTINUOUS
70
0
71
3
72
8
73
4
74
2
42
0.0000001000
43
0.0000001000
44
0.0000000001
12
-0.3786607180
22
0.3406024130
32
0.0000000000
13
-0.3740787400
23
0.3454976092
33
0.0000000000
40
0.0000000000
40
0.0000000000
40
0.0000000000
40
0.0000000000
40
1.0000000000
40
1.0000000000
40
1.0000000000
40
1.0000000000
10
-14.3266268523
20
-18.9578621120
30
0.0000000000
10
-14.4528470916
20
-18.8443279743
30
0.0000000000
10
-14.5783047512
20
-18.7299646524
30
0.0000000000
10
-14.7029976645
20
-18.6147987826
30
0.0000000000
11
-14.3266268523
21
-18.9578621120
31
0.0000000000
11
-14.7029976645
21
-18.6147987826
31
0.0000000000
0
SPLINE
5
341
100
AcDbEntity
8
0
100
AcDbSpline
62
7
6
CONTINUOUS
70
0
71
3
72
12
73
8
74
6
42
0.0000001000
43
0.0000001000
44
0.0000000001
12
0.0000000000
22
1.2662565327
32
0.0000000000
13
-1.0169095187
23
0.7632820673
33
0.0000000000
40
0.0000000000
40
0.0000000000
40
0.0000000000
40
0.0000000000
40
0.2239927164
40
0.4601593121
40
0.6963835398
40
0.9233698251
40
1.0000000000
40
1.0000000000
40
1.0000000000
40
1.0000000000
10
12.5671405418
20
27.4518614052
30
0.0000000000
10
12.5671405418
20
27.5464054853
30
0.0000000000
10
12.5418403037
20
27.7410087884
30
0.0000000000
10
12.4447639693
20
28.0202338760
30
0.0000000000
10
12.2959826839
20
28.2773831134
30
0.0000000000
10
12.1446084265
20
28.4496536681
30
0.0000000000
10
12.0451681236
20
28.5317056383
30
0.0000000000
10
12.0191928055
20
28.5512024510
30
0.0000000000
11
12.5671405418
21
27.4518614052
31
0.0000000000
11
12.5333051289
21
27.7334682457
31
0.0000000000
11
12.4361136194
21
28.0162812838
31
0.0000000000
11
12.2858652407
21
28.2749286908
31
0.0000000000
11
12.0944526493
21
28.4893421329
31
0.0000000000
11
12.0191928055
21
28.5512024510
31
0.0000000000
0
SPLINE
5
342
100
AcDbEntity
8
0
100
AcDbSpline
62
7
6
CONTINUOUS
70
0
71
3
72
13
73
9
74
7
42
0.0000001000
43
0.0000001000
44
0.0000000001
12
17.6843242272
22
-5.4879773079
32
0.0000000000
13
15.4985228627
23
-10.1315846432
33
0.0000000000
40
0.0000000000
40
0.0000000000
40
0.0000000000
40
0.0000000000
40
0.1434705116
40
0.2959324943
40
0.4572708664
40
0.6280987141
40
0.8090904631
40
1.0000000000
40
1.0000000000
40
1.0000000000
40
1.0000000000
10
-14.7029976645
20
23.7741174772
30
0.0000000000
10
-13.8572713162
20
23.5116631731
30
0.0000000000
10
-12.1305305355
20
22.9120598336
30
0.0000000000
10
-9.5205014851
20
21.8348756686
30
0.0000000000
10
-6.8156047215
20
20.5552234475
30
0.0000000000
10
-4.0152791655
20
19.0734349773
30
0.0000000000
10
-1.1191158288
20
17.3886480804
30
0.0000000000
10
0.8223393151
20
16.1630519352
30
0.0000000000
10
1.8086112560
20
15.5183132244
30
0.0000000000
11
-14.7029976645
21
23.7741174772
31
0.0000000000
11
-12.1918337321
21
22.9073570918
31
0.0000000000
11
-9.5805335992
21
21.8346890220
31
0.0000000000
11
-6.8783131122
21
20.5609159572
31
0.0000000000
11
-4.0807596129
21
19.0848097004
31
0.0000000000
11
-1.1822528429
21
17.4025942705
31
0.0000000000
11
1.8086112560
21
15.5183132244
31
0.0000000000
0
SPLINE
5
343
100
AcDbEntity
8
0
100
AcDbSpline
62
7
6
CONTINUOUS
70
0
71
3
72
9
73
5
74
3
42
0.0000001000
43
0.0000001000
44
0.0000000001
12
-0.0000704316
22
-0.3719220363
32
0.0000000000
13
-0.2120066729
23
-0.3079203860
33
0.0000000000
40
0.0000000000
40
0.0000000000
40
0.0000000000
40
0.0000000000
40
0.5220248543
40
1.0000000000
40
1.0000000000
40
1.0000000000
40
1.0000000000
10
2.9803113143
20
-27.6067534315
30
0.0000000000
10
2.9802990587
20
-27.6714709471
30
0.0000000000
10
2.9662020596
20
-27.7963040309
30
0.0000000000
10
2.9159084745
20
-27.9121064932
30
0.0000000000
10
2.8821305010
20
-27.9611659237
30
0.0000000000
11
2.9803113143
21
-27.6067534315
31
0.0000000000
11
2.9557171611
21
-27.7993419577
31
0.0000000000
11
2.8821305010
21
-27.9611659237
31
0.0000000000
0
SPLINE
5
344
100
AcDbEntity
8
0
100
AcDbSpline
62
7
6
CONTINUOUS
70
0
71
3
72
8
73
4
74
2
42
0.0000001000
43
0.0000001000
44
0.0000000001
12
-0.0318418986
22
-0.0462474580
32
0.0000000000
13
-0.0373704139
23
-0.0420380526
33
0.0000000000
40
0.0000000000
40
0.0000000000
40
0.0000000000
40
0.0000000000
40
1.0000000000
40
1.0000000000
40
1.0000000000
40
1.0000000000
10
2.8821305010
20
-27.9611659237
30
0.0000000000
10
2.8715165349
20
-27.9765817430
30
0.0000000000
10
2.8599409616
20
-27.9913763695
30
0.0000000000
10
2.8474841569
20
-28.0053890537
30
0.0000000000
11
2.8821305010
21
-27.9611659237
31
0.0000000000
11
2.8474841569
21
-28.0053890537
31
0.0000000000
0
SPLINE
5
345
100
AcDbEntity
8
0
100
AcDbSpline
62
7
6
CONTINUOUS
70
0
71
3
72
9
73
5
74
3
42
0.0000001000
43
0.0000001000
44
0.0000000001
12
-0.1099632342
22
-0.1236978597
32
0.0000000000
13
-0.1488157267
23
-0.0720186629
33
0.0000000000
40
0.0000000000
40
0.0000000000
40
0.0000000000
40
0.0000000000
40
0.6681711085
40
1.0000000000
40
1.0000000000
40
1.0000000000
40
1.0000000000
10
2.8474841569
20
-28.0053890537
30
0.0000000000
10
2.8229927382
20
-28.0329394991
30
0.0000000000
10
2.7812401274
20
-28.0696483377
30
0.0000000000
10
2.7332257055
20
-28.0968502787
30
0.0000000000
10
2.7167652530
20
-28.1048162364
30
0.0000000000
11
2.8474841569
21
-28.0053890537
31
0.0000000000
11
2.7644013597
21
-28.0777506904
31
0.0000000000
11
2.7167652530
21
-28.1048162364
31
0.0000000000
0
SPLINE
5
346
100
AcDbEntity
8
0
100
AcDbSpline
62
7
6
CONTINUOUS
70
0
71
3
72
8
73
4
74
2
42
0.0000001000
43
0.0000001000
44
0.0000000001
12
-0.0501765128
22
-0.0242826846
32
0.0000000000
13
-0.0529379851
23
-0.0176706583
33
0.0000000000
40
0.0000000000
40
0.0000000000
40
0.0000000000
40
0.0000000000
40
1.0000000000
40
1.0000000000
40
1.0000000000
40
1.0000000000
10
2.7167652530
20
-28.1048162364
30
0.0000000000
10
2.7000397487
20
-28.1129104646
30
0.0000000000
10
2.6827692272
20
-28.1199098347
30
0.0000000000
10
2.6651232322
20
-28.1258000542
30
0.0000000000
11
2.7167652530
21
-28.1048162364
31
0.0000000000
11
2.6651232322
21
-28.1258000542
31
0.0000000000
0
SPLINE
5
347
100
AcDbEntity
8
0
100
AcDbSpline
62
7
6
CONTINUOUS
70
0
71
3
72
8
73
4
74
2
42
0.0000001000
43
0.0000001000
44
0.0000000001
12
-0.0532196434
22
-0.0177646756
32
0.0000000000
13
-0.0549797280
23
-0.0109952018
33
0.0000000000
40
0.0000000000
40
0.0000000000
40
0.0000000000
40
0.0000000000
40
1.0000000000
40
1.0000000000
40
1.0000000000
40
1.0000000000
10
2.6651232322
20
-28.1258000542
30
0.0000000000
10
2.6473833510
20
-28.1317216127
30
0.0000000000
10
2.6292639903
20
-28.1365221866
30
0.0000000000
10
2.6109374143
20
-28.1401872538
30
0.0000000000
11
2.6651232322
21
-28.1258000542
31
0.0000000000
11
2.6109374143
21
-28.1401872538
31
0.0000000000
0
SPLINE
5
348
100
AcDbEntity
8
0
100
AcDbSpline
62
7
6
CONTINUOUS
70
0
71
3
72
8
73
4
74
2
42
0.0000001000
43
0.0000001000
44
0.0000000001
12
-0.1211121285
22
-0.0242207871
32
0.0000000000
13
-0.1231615853
23
0.0057684576
33
0.0000000000
40
0.0000000000
40
0.0000000000
40
0.0000000000
40
0.0000000000
40
1.0000000000
40
1.0000000000
40
1.0000000000
40
1.0000000000
10
2.6109374143
20
-28.1401872538
30
0.0000000000
10
2.5705667048
20
-28.1482608495
30
0.0000000000
10
2.5291904727
20
-28.1508243416
30
0.0000000000
10
2.4881366109
20
-28.1489015224
30
0.0000000000
11
2.6109374143
21
-28.1401872538
31
0.0000000000
11
2.4881366109
21
-28.1489015224
31
0.0000000000
0
SPLINE
5
349
100
AcDbEntity
8
0
100
AcDbSpline
62
7
6
CONTINUOUS
70
0
71
3
72
8
73
4
74
2
42
0.0000001000
43
0.0000001000
44
0.0000000001
12
-0.0536831164
22
0.0025143293
32
0.0000000000
13
-0.0529857466
23
0.0073740426
33
0.0000000000
40
0.0000000000
40
0.0000000000
40
0.0000000000
40
0.0000000000
40
1.0000000000
40
1.0000000000
40
1.0000000000
40
1.0000000000
10
2.4881366109
20
-28.1489015224
30
0.0000000000
10
2.4702422388
20
-28.1480634126
30
0.0000000000
10
2.4524091130
20
-28.1463729601
30
0.0000000000
10
2.4347471974
20
-28.1439149459
30
0.0000000000
11
2.4881366109
21
-28.1489015224
31
0.0000000000
11
2.4347471974
21
-28.1439149459
31
0.0000000000
0
SPLINE
5
34A
100
AcDbEntity
8
0
100
AcDbSpline
62
7
6
CONTINUOUS
70
0
71
3
72
8
73
4
74
2
42
0.0000001000
43
0.0000001000
44
0.0000000001
12
-1.0960459168
22
0.1526601010
32
0.0000000000
13
-1.0902356530
23
0.1936232391
33
0.0000000000
40
0.0000000000
40
0.0000000000
40
0.0000000000
40
0.0000000000
40
1.0000000000
40
1.0000000000
40
1.0000000000
40
1.0000000000
10
2.4347471974
20
-28.1439149459
30
0.0000000000
10
2.0693985585
20
-28.0930282455
30
0.0000000000
10
1.7048678125
20
-28.0352808479
30
0.0000000000
10
1.3414559282
20
-27.9707397683
30
0.0000000000
11
2.4347471974
21
-28.1439149459
31
0.0000000000
11
1.3414559282
21
-27.9707397683
31
0.0000000000
0
SPLINE
5
34B
100
AcDbEntity
8
0
100
AcDbSpline
62
7
6
CONTINUOUS
70
0
71
3
72
12
73
8
74
6
42
0.0000001000
43
0.0000001000
44
0.0000000001
12
-18.6178375112
22
3.3064833215
32
0.0000000000
13
-13.7012067377
23
13.0159373911
33
0.0000000000
40
0.0000000000
40
0.0000000000
40
0.0000000000
40
0.0000000000
40
0.1502438537
40
0.3510324441
40
0.5608139543
40
0.7752331732
40
1.0000000000
40
1.0000000000
40
1.0000000000
40
1.0000000000
10
1.3414559282
20
-27.9707397683
30
0.0000000000
10
0.4090507099
20
-27.8051468361
30
0.0000000000
10
-1.7522293210
20
-27.3137644112
30
0.0000000000
10
-5.0965535158
20
-26.1485746323
30
0.0000000000
10
-8.6300700613
20
-24.3879019536
30
0.0000000000
10
-12.0427151204
20
-22.1200218709
30
0.0000000000
10
-14.1550866279
20
-20.3222370700
30
0.0000000000
10
-15.1816122151
20
-19.3470534217
30
0.0000000000
11
1.3414559282
21
-27.9707397683
31
0.0000000000
11
-1.4285807637
21
-27.3409283232
31
0.0000000000
11
-5.0125227670
21
-26.0946486551
31
0.0000000000
11
-8.5628555744
21
-24.3306832378
31
0.0000000000
11
-11.9413158661
21
-22.0934927839
31
0.0000000000
11
-15.1816122151
21
-19.3470534217
31
0.0000000000
0
SPLINE
5
34C
100
AcDbEntity
8
0
100
AcDbSpline
62
7
6
CONTINUOUS
70
0
71
3
72
8
73
4
74
2
42
0.0000001000
43
0.0000001000
44
0.0000000001
12
-0.0251159038
22
0.0238597255
32
0.0000000000
13
-0.0250941310
23
0.0238816978
33
0.0000000000
40
0.0000000000
40
0.0000000000
40
0.0000000000
40
0.0000000000
40
1.0000000000
40
1.0000000000
40
1.0000000000
40
1.0000000000
10
-15.1816122151
20
-19.3470534217
30
0.0000000000
10
-15.1899841831
20
-19.3391001798
30
0.0000000000
10
-15.1983525230
20
-19.3311432722
30
0.0000000000
10
-15.2067172333
20
-19.3231827063
30
0.0000000000
11
-15.1816122151
21
-19.3470534217
31
0.0000000000
11
-15.2067172333
21
-19.3231827063
31
0.0000000000
0
SPLINE
5
34D
100
AcDbEntity
8
0
100
AcDbSpline
62
7
6
CONTINUOUS
70
0
71
3
72
8
73
4
74
2
42
0.0000001000
43
0.0000001000
44
0.0000000001
12
-0.0504758416
22
0.0480516412
32
0.0000000000
13
-0.0472711579
23
0.0513056950
33
0.0000000000
40
0.0000000000
40
0.0000000000
40
0.0000000000
40
0.0000000000
40
1.0000000000
40
1.0000000000
40
1.0000000000
40
1.0000000000
10
-15.2067172333
20
-19.3231827063
30
0.0000000000
10
-15.2235425139
20
-19.3071654926
30
0.0000000000
10
-15.2398239371
20
-19.2905655868
30
0.0000000000
10
-15.2555809898
20
-19.2734636885
30
0.0000000000
11
-15.2067172333
21
-19.3231827063
31
0.0000000000
11
-15.2555809898
21
-19.2734636885
31
0.0000000000
0
SPLINE
5
34E
100
AcDbEntity
8
0
100
AcDbSpline
62
7
6
CONTINUOUS
70
0
71
3
72
8
73
4
74
2
42
0.0000001000
43
0.0000001000
44
0.0000000001
12
-0.0981009579
22
0.1064737580
32
0.0000000000
13
-0.0850733278
23
0.1172817973
33
0.0000000000
40
0.0000000000
40
0.0000000000
40
0.0000000000
40
0.0000000000
40
1.0000000000
40
1.0000000000
40
1.0000000000
40
1.0000000000
10
-15.2555809898
20
-19.2734636885
30
0.0000000000
10
-15.2882813091
20
-19.2379724358
30
0.0000000000
10
-15.3187232726
20
-19.2003192050
30
0.0000000000
10
-15.3470810485
20
-19.1612252726
30
0.0000000000
11
-15.2555809898
21
-19.2734636885
31
0.0000000000
11
-15.3470810485
21
-19.1612252726
31
0.0000000000
0
SPLINE
5
34F
100
AcDbEntity
8
0
100
AcDbSpline
62
7
6
CONTINUOUS
70
0
71
3
72
11
73
7
74
5
42
0.0000001000
43
0.0000001000
44
0.0000000001
12
-0.4609577913
22
0.6354748271
32
0.0000000000
13
-0.0930337260
23
0.7795145537
33
0.0000000000
40
0.0000000000
40
0.0000000000
40
0.0000000000
40
0.0000000000
40
0.2990984496
40
0.6063370773
40
0.9060058184
40
1.0000000000
40
1.0000000000
40
1.0000000000
40
1.0000000000
10
-15.3470810485
20
-19.1612252726
30
0.0000000000
10
-15.3930383021
20
-19.0978687607
30
0.0000000000
10
-15.4751066967
20
-18.9617606945
30
0.0000000000
10
-15.5669151601
20
-18.7427052024
30
0.0000000000
10
-15.6129520574
20
-18.5648774458
30
0.0000000000
10
-15.6280348973
20
-18.4629057638
30
0.0000000000
10
-15.6309497736
20
-18.4384824863
30
0.0000000000
11
-15.3470810485
21
-19.1612252726
31
0.0000000000
11
-15.4689858606
21
-18.9610346679
31
0.0000000000
11
-15.5621372810
21
-18.7390191983
31
0.0000000000
11
-15.6202180708
21
-18.5114815528
31
0.0000000000
11
-15.6309497736
21
-18.4384824863
31
0.0000000000
0
SPLINE
5
350
100
AcDbEntity
8
0
100
AcDbSpline
62
7
6
CONTINUOUS
70
0
71
3
72
8
73
4
74
2
42
0.0000001000
43
0.0000001000
44
0.0000000001
12
-0.0168487757
22
0.1411731682
32
0.0000000000
13
-0.0000096773
23
0.1419209413
33
0.0000000000
40
0.0000000000
40
0.0000000000
40
0.0000000000
40
0.0000000000
40
1.0000000000
40
1.0000000000
40
1.0000000000
40
1.0000000000
10
-15.6309497736
20
-18.4384824863
30
0.0000000000
10
-15.6365660322
20
-18.3914247636
30
0.0000000000
10
-15.6396340078
20
-18.3440860719
30
0.0000000000
10
-15.6396372336
20
-18.2967790915
30
0.0000000000
11
-15.6309497736
21
-18.4384824863
31
0.0000000000
11
-15.6396372336
21
-18.2967790915
31
0.0000000000
0
SPLINE
5
351
100
AcDbEntity
8
0
100
AcDbSpline
62
7
6
CONTINUOUS
70
0
71
3
72
8
73
4
74
2
42
0.0000001000
43
0.0000001000
44
0.0000000001
12
0.0000099295
22
0.0672906741
32
0.0000000000
13
0.0044905588
23
0.0672668478
33
0.0000000000
40
0.0000000000
40
0.0000000000
40
0.0000000000
40
0.0000000000
40
1.0000000000
40
1.0000000000
40
1.0000000000
40
1.0000000000
10
-15.6396372336
20
24.6277978979
30
0.0000000000
10
-15.6396339238
20
24.6502281226
30
0.0000000000
10
-15.6389452613
20
24.6726957416
30
0.0000000000
10
-15.6374484084
20
24.6951180242
30
0.0000000000
11
-15.6396372336
21
24.6277978979
31
0.0000000000
11
-15.6374484084
21
24.6951180242
31
0.0000000000
0
SPLINE
5
352
100
AcDbEntity
8
0
100
AcDbSpline
62
7
6
CONTINUOUS
70
0
71
3
72
9
73
5
74
3
42
0.0000001000
43
0.0000001000
44
0.0000000001
12
0.0121041485
22
0.1813155014
32
0.0000000000
13
0.0553146150
23
0.1734652431
33
0.0000000000
40
0.0000000000
40
0.0000000000
40
0.0000000000
40
0.0000000000
40
0.6819240570
40
1.0000000000
40
1.0000000000
40
1.0000000000
40
1.0000000000
10
-15.6374484084
20
24.6951180242
30
0.0000000000
10
-15.6346970384
20
24.7363324916
30
0.0000000000
10
-15.6266581066
20
24.7965463704
30
0.0000000000
10
-15.6111067612
20
24.8553260004
30
0.0000000000
10
-15.6052420118
20
24.8737177074
30
0.0000000000
11
-15.6374484084
21
24.6951180242
31
0.0000000000
11
-15.6202397307
21
24.8177881217
31
0.0000000000
11
-15.6052420118
21
24.8737177074
31
0.0000000000
0
SPLINE
5
353
100
AcDbEntity
8
0
100
AcDbSpline
62
7
6
CONTINUOUS
70
0
71
3
72
9
73
5
74
3
42
0.0000001000
43
0.0000001000
44
0.0000000001
12
0.0474253257
22
0.1487246301
32
0.0000000000
13
0.0960194851
23
0.1243077131
33
0.0000000000
40
0.0000000000
40
0.0000000000
40
0.0000000000
40
0.0000000000
40
0.6879420436
40
1.0000000000
40
1.0000000000
40
1.0000000000
40
1.0000000000
10
-15.6052420118
20
24.8737177074
30
0.0000000000
10
-15.5943667200
20
24.9078223494
30
0.0000000000
10
-15.5739685436
20
24.9558743168
30
0.0000000000
10
-15.5447673222
20
24.9995626073
30
0.0000000000
10
-15.5347794408
20
25.0124930109
30
0.0000000000
11
-15.6052420118
21
24.8737177074
31
0.0000000000
11
-15.5621350272
21
24.9718711144
31
0.0000000000
11
-15.5347794408
21
25.0124930109
31
0.0000000000
0
SPLINE
5
354
100
AcDbEntity
8
0
100
AcDbSpline
62
7
6
CONTINUOUS
70
0
71
3
72
10
73
6
74
4
42
0.0000001000
43
0.0000001000
44
0.0000000001
12
0.1932249124
22
0.2501507578
32
0.0000000000
13
0.3112558953
23
-0.0525636417
33
0.0000000000
40
0.0000000000
40
0.0000000000
40
0.0000000000
40
0.0000000000
40
0.2918363819
40
0.7086846547
40
1.0000000000
40
1.0000000000
40
1.0000000000
40
1.0000000000
10
-15.5347794408
20
25.0124930109
30
0.0000000000
10
-15.5159827543
20
25.0368273749
30
0.0000000000
10
-15.4628085321
20
25.0898748863
30
0.0000000000
10
-15.3609698732
20
25.1285990053
30
0.0000000000
10
-15.2858141688
20
25.1252461139
30
0.0000000000
10
-15.2555896293
20
25.1201419154
30
0.0000000000
11
-15.5347794408
21
25.0124930109
31
0.0000000000
11
-15.4689669148
21
25.0761753487
31
0.0000000000
11
-15.3471333887
21
25.1227966615
31
0.0000000000
11
-15.2555896293
21
25.1201419154
31
0.0000000000
0
SPLINE
5
355
100
AcDbEntity
8
0
100
AcDbSpline
62
7
6
CONTINUOUS
70
0
71
3
72
8
73
4
74
2
42
0.0000001000
43
0.0000001000
44
0.0000000001
12
0.0496945728
22
-0.0083922193
32
0.0000000000
13
0.0478517182
23
-0.0143729239
33
0.0000000000
40
0.0000000000
40
0.0000000000
40
0.0000000000
40
0.0000000000
40
1.0000000000
40
1.0000000000
40
1.0000000000
40
1.0000000000
10
-15.2555896293
20
25.1201419154
30
0.0000000000
10
-15.2390247717
20
25.1173445090
30
0.0000000000
10
-15.2226677875
20
25.1134282471
30
0.0000000000
10
-15.2067172147
20
25.1086372725
30
0.0000000000
11
-15.2555896293
21
25.1201419154
31
0.0000000000
11
-15.2067172147
21
25.1086372725
31
0.0000000000
0
SPLINE
5
356
100
AcDbEntity
8
0
100
AcDbSpline
62
7
6
CONTINUOUS
70
0
71
3
72
12
73
8
74
6
42
0.0000001000
43
0.0000001000
44
0.0000000001
12
18.9489140072
22
-5.6940653008
32
0.0000000000
13
16.5186584646
23
-10.8911727666
33
0.0000000000
40
0.0000000000
40
0.0000000000
40
0.0000000000
40
0.0000000000
40
0.1743401360
40
0.3593773459
40
0.5603846152
40
0.7692330914
40
1.0000000000
40
1.0000000000
40
1.0000000000
40
1.0000000000
10
-15.2067172147
20
25.1086372725
30
0.0000000000
10
-14.1055317998
20
24.7777358995
30
0.0000000000
10
-11.8666189127
20
23.9905716476
30
0.0000000000
10
-8.4722749007
20
22.5229323016
30
0.0000000000
10
-4.9660529682
20
20.7576454582
30
0.0000000000
10
-1.2906155836
20
18.6708786273
30
0.0000000000
10
1.1640939507
20
17.1256792137
30
0.0000000000
10
2.4347472003
20
16.2879051235
30
0.0000000000
11
-15.2067172147
21
25.1086372725
31
0.0000000000
11
-11.9478768659
21
23.9777504916
31
0.0000000000
11
-8.5834913562
21
22.5338561452
31
0.0000000000
11
-5.0277039304
21
20.7523248794
31
0.0000000000
11
-1.4316001778
21
18.7167286896
31
0.0000000000
11
2.4347472003
21
16.2879051235
31
0.0000000000
0
SPLINE
5
357
100
AcDbEntity
8
0
100
AcDbSpline
62
7
6
CONTINUOUS
70
0
71
3
72
12
73
8
74
6
42
0.0000001000
43
0.0000001000
44
0.0000000001
12
0.9627576754
22
-0.6349805053
32
0.0000000000
13
0.0001008339
23
-1.1533007298
33
0.0000000000
40
0.0000000000
40
0.0000000000
40
0.0000000000
40
0.0000000000
40
0.1973013965
40
0.4053448536
40
0.6138850428
40
0.8148570365
40
1.0000000000
40
1.0000000000
40
1.0000000000
40
1.0000000000
10
2.4347472003
20
16.2879051235
30
0.0000000000
10
2.4980650116
20
16.2461442766
30
0.0000000000
10
2.6190583079
20
16.1460206218
30
0.0000000000
10
2.7704647858
20
15.9634089649
30
0.0000000000
10
2.8876065250
20
15.7553658675
30
0.0000000000
10
2.9617184802
20
15.5377262873
30
0.0000000000
10
2.9803050915
20
15.3889988763
30
0.0000000000
10
2.9803113143
20
15.3178237046
30
0.0000000000
11
2.4347472003
21
16.2879051235
31
0.0000000000
11
2.6108715889
21
16.1438279855
31
0.0000000000
11
2.7644252581
21
15.9594618357
31
0.0000000000
11
2.8821333488
21
15.7497247369
31
0.0000000000
11
2.9556897053
21
15.5299249122
31
0.0000000000
11
2.9803113143
21
15.3178237046
31
0.0000000000
0
SPLINE
5
358
100
AcDbEntity
8
0
100
AcDbSpline
62
7
6
CONTINUOUS
70
0
71
3
72
8
73
4
74
2
42
0.0000001000
43
0.0000001000
44
0.0000000001
12
-0.1324724761
22
-0.0516329489
32
0.0000000000
13
-0.1428568186
23
-0.0082783810
33
0.0000000000
40
0.0000000000
40
0.0000000000
40
0.0000000000
40
0.0000000000
40
1.0000000000
40
1.0000000000
40
1.0000000000
40
1.0000000000
10
-13.6862821014
20
22.2549235705
30
0.0000000000
10
-13.7304395935
20
22.2377125875
30
0.0000000000
10
-13.7772682533
20
22.2260042214
30
0.0000000000
10
-13.8248871929
20
22.2232447611
30
0.0000000000
11
-13.6862821014
21
22.2549235705
31
0.0000000000
11
-13.8248871929
21
22.2232447611
31
0.0000000000
0
SPLINE
5
359
100
AcDbEntity
8
0
100
AcDbSpline
62
7
6
CONTINUOUS
70
0
71
3
72
10
73
6
74
4
42
0.0000001000
43
0.0000001000
44
0.0000000001
12
-0.3780305583
22
-0.0219064166
32
0.0000000000
13
-0.1649290778
23
0.3381611410
33
0.0000000000
40
0.0000000000
40
0.0000000000
40
0.0000000000
40
0.0000000000
40
0.3362715898
40
0.6583532762
40
1.0000000000
40
1.0000000000
40
1.0000000000
40
1.0000000000
10
-13.8248871929
20
22.2232447611
30
0.0000000000
10
-13.8672608385
20
22.2207892592
30
0.0000000000
10
-13.9514451864
20
22.2298548911
30
0.0000000000
10
-14.0628260545
20
22.2954053315
30
0.0000000000
10
-14.1123465787
20
22.3653302929
30
0.0000000000
10
-14.1311290717
20
22.4038408416
30
0.0000000000
11
-13.8248871929
21
22.2232447611
31
0.0000000000
11
-13.9504273095
21
22.2389440549
31
0.0000000000
11
-14.0548997667
21
22.3003435340
31
0.0000000000
11
-14.1311290717
21
22.4038408416
31
0.0000000000
0
SPLINE
5
35A
100
AcDbEntity
8
0
100
AcDbSpline
62
7
6
CONTINUOUS
70
0
71
3
72
11
73
7
74
5
42
0.0000001000
43
0.0000001000
44
0.0000000001
12
-0.6432240270
22
-0.3287532563
32
0.0000000000
13
-0.2322629441
23
-0.6840100710
33
0.0000000000
40
0.0000000000
40
0.0000000000
40
0.0000000000
40
0.0000000000
40
0.2281165500
40
0.4771199443
40
0.7377877585
40
1.0000000000
40
1.0000000000
40
1.0000000000
40
1.0000000000
10
-13.6862821014
20
-16.4632598876
30
0.0000000000
10
-13.7351921167
20
-16.4882579072
30
0.0000000000
10
-13.8308954704
20
-16.5538587389
30
0.0000000000
10
-13.9551234980
20
-16.6821847674
30
0.0000000000
10
-14.0592510848
20
-16.8372302989
30
0.0000000000
10
-14.1108283427
20
-16.9529338986
30
0.0000000000
10
-14.1311290717
20
-17.0127191699
30
0.0000000000
11
-13.6862821014
21
-16.4632598876
31
0.0000000000
11
-13.8231932716
21
-16.5549612871
31
0.0000000000
11
-13.9490867253
21
-16.6834323931
31
0.0000000000
11
-14.0543307980
21
-16.8395729614
31
0.0000000000
11
-14.1311290717
21
-17.0127191699
31
0.0000000000
0
SPLINE
5
35B
100
AcDbEntity
8
0
100
AcDbSpline
62
7
6
CONTINUOUS
70
0
71
3
72
10
73
6
74
4
42
0.0000001000
43
0.0000001000
44
0.0000000001
12
-0.0820117051
22
0.0100557146
32
0.0000000000
13
-0.0155701679
23
0.0797132352
33
0.0000000000
40
0.0000000000
40
0.0000000000
40
0.0000000000
40
0.0000000000
40
0.0648011279
40
0.4816528792
40
1.0000000000
40
1.0000000000
40
1.0000000000
40
1.0000000000
10
2.4833861887
20
-28.2038169572
30
0.0000000000
10
2.4816147050
20
-28.2035997500
30
0.0000000000
10
2.4686138278
20
-28.2011402924
30
0.0000000000
10
2.4460797834
20
-28.1822924427
30
0.0000000000
10
2.4374378388
20
-28.1576877431
30
0.0000000000
10
2.4347475883
20
-28.1439147012
30
0.0000000000
11
2.4833861887
21
-28.2038169572
31
0.0000000000
11
2.4781553209
21
-28.2028181609
31
0.0000000000
11
2.4508368547
21
-28.1828189773
31
0.0000000000
11
2.4347475883
21
-28.1439147012
31
0.0000000000
0
SPLINE
5
35C
100
AcDbEntity
8
0
100
AcDbSpline
62
7
6
CONTINUOUS
70
0
71
3
72
9
73
5
74
3
42
0.0000001000
43
0.0000001000
44
0.0000000001
12
-0.0328149200
22
0.0300700492
32
0.0000000000
13
0.0080111386
23
0.0424522030
33
0.0000000000
40
0.0000000000
40
0.0000000000
40
0.0000000000
40
0.0000000000
40
0.2528308603
40
1.0000000000
40
1.0000000000
40
1.0000000000
40
1.0000000000
10
-15.1972015448
20
-19.3640581750
30
0.0000000000
10
-15.1999670863
20
-19.3615239628
30
0.0000000000
10
-15.2092511340
20
-19.3498796595
30
0.0000000000
10
-15.2087116037
20
-19.3337553565
30
0.0000000000
10
-15.2067163785
20
-19.3231823645
30
0.0000000000
11
-15.1972015448
21
-19.3640581750
31
0.0000000000
11
-15.2040337169
21
-19.3553495074
31
0.0000000000
11
-15.2067163785
21
-19.3231823645
31
0.0000000000
0
SPLINE
5
35D
100
AcDbEntity
8
0
100
AcDbSpline
62
7
6
CONTINUOUS
70
0
71
3
72
16
73
12
74
10
42
0.0000001000
43
0.0000001000
44
0.0000000001
12
-0.2685558948
22
-0.7912196452
32
0.0000000000
13
-0.7607836268
23
-0.3454838183
33
0.0000000000
40
0.0000000000
40
0.0000000000
40
0.0000000000
40
0.0000000000
40
0.1598347234
40
0.3053696038
40
0.4378816443
40
0.5584966544
40
0.6675716396
40
0.7653972045
40
0.8522700171
40
0.9294740865
40
1.0000000000
40
1.0000000000
40
1.0000000000
40
1.0000000000
10
-14.1517925721
20
-17.9288335189
30
0.0000000000
10
-14.1661007579
20
-17.9709883099
30
0.0000000000
10
-14.1954098151
20
-18.0508752647
30
0.0000000000
10
-14.2431062280
20
-18.1631725532
30
0.0000000000
10
-14.2917305786
20
-18.2630525112
30
0.0000000000
10
-14.3408600100
20
-18.3512248229
30
0.0000000000
10
-14.3901578095
20
-18.4280576227
30
0.0000000000
10
-14.4392827975
20
-18.4935910025
30
0.0000000000
10
-14.4881468465
20
-18.5479364604
30
0.0000000000
10
-14.5372585924
20
-18.5912406428
30
0.0000000000
10
-14.5723896148
20
-18.6133667686
30
0.0000000000
10
-14.5902746016
20
-18.6214886225
30
0.0000000000
11
-14.1517925721
21
-17.9288335189
31
0.0000000000
11
-14.1978653909
21
-18.0541852267
31
0.0000000000
11
-14.2455183446
21
-18.1660615428
31
0.0000000000
11
-14.2941300789
21
-18.2655403692
31
0.0000000000
11
-14.3433677412
21
-18.3534740766
31
0.0000000000
11
-14.3928113865
21
-18.4300343272
31
0.0000000000
11
-14.4421170562
21
-18.4952274490
31
0.0000000000
11
-14.4909979468
21
-18.5488886334
31
0.0000000000
11
-14.5398051023
21
-18.5910688097
31
0.0000000000
11
-14.5902746016
21
-18.6214886225
31
0.0000000000
0
SPLINE
5
35E
100
AcDbEntity
8
0
100
AcDbSpline
62
7
6
CONTINUOUS
70
0
71
3
72
11
73
7
74
5
42
0.0000001000
43
0.0000001000
44
0.0000000001
12
-0.0720762461
22
-0.2823895644
32
0.0000000000
13
-0.0381891963
23
-0.2889236759
33
0.0000000000
40
0.0000000000
40
0.0000000000
40
0.0000000000
40
0.0000000000
40
0.0616471853
40
0.4852334875
40
0.8762810738
40
1.0000000000
40
1.0000000000
40
1.0000000000
40
1.0000000000
10
1.7344285151
20
-25.9990900193
30
0.0000000000
10
1.7329474159
20
-26.0048928599
30
0.0000000000
10
1.7214401645
20
-26.0506061713
30
0.0000000000
10
1.7028128014
20
-26.1336904088
30
0.0000000000
10
1.6870765272
20
-26.2235039502
30
0.0000000000
10
1.6801007426
20
-26.2730243632
30
0.0000000000
10
1.6785258338
20
-26.2849394722
30
0.0000000000
11
1.7344285151
21
-25.9990900193
31
0.0000000000
11
1.7300427532
21
-26.0165130304
31
0.0000000000
11
1.7031094320
21
-26.1369736593
31
0.0000000000
11
1.6835495693
21
-26.2492353446
31
0.0000000000
11
1.6785258338
21
-26.2849394722
31
0.0000000000
0
SPLINE
5
35F
100
AcDbEntity
8
0
100
AcDbSpline
62
7
6
CONTINUOUS
70
0
71
3
72
11
73
7
74
5
42
0.0000001000
43
0.0000001000
44
0.0000000001
12
-0.0373608960
22
-0.2826570978
32
0.0000000000
13
0.0147482088
23
-0.2847902614
33
0.0000000000
40
0.0000000000
40
0.0000000000
40
0.0000000000
40
0.0000000000
40
0.2432051780
40
0.5851677230
40
0.9004464109
40
1.0000000000
40
1.0000000000
40
1.0000000000
40
1.0000000000
10
1.6785258338
20
-26.2849394722
30
0.0000000000
10
1.6754970460
20
-26.3078540288
30
0.0000000000
10
1.6691141563
20
-26.3631070183
30
0.0000000000
10
1.6630179017
20
-26.4485027648
30
0.0000000000
10
1.6622372413
20
-26.5204647007
30
0.0000000000
10
1.6637527276
20
-26.5598728755
30
0.0000000000
10
1.6642421400
20
-26.5693235064
30
0.0000000000
11
1.6785258338
21
-26.2849394722
31
0.0000000000
11
1.6706096037
21
-26.3538240142
31
0.0000000000
11
1.6638582964
21
-26.4510779819
31
0.0000000000
11
1.6631372652
21
-26.5409559731
31
0.0000000000
11
1.6642421400
21
-26.5693235064
31
0.0000000000
0
SPLINE
5
360
100
AcDbEntity
8
0
100
AcDbSpline
62
7
6
CONTINUOUS
70
0
71
3
72
10
73
6
74
4
42
0.0000001000
43
0.0000001000
44
0.0000000001
12
0.0104460340
22
-0.2017145806
32
0.0000000000
13
0.0738068207
23
-0.1879502042
33
0.0000000000
40
0.0000000000
40
0.0000000000
40
0.0000000000
40
0.0000000000
40
0.2700305661
40
0.6495559580
40
1.0000000000
40
1.0000000000
40
1.0000000000
40
1.0000000000
10
1.6642421400
20
-26.5693235064
30
0.0000000000
10
1.6651823895
20
-26.5874798739
30
0.0000000000
10
1.6685603403
20
-26.6310949474
30
0.0000000000
10
1.6787655267
20
-26.6977286917
30
0.0000000000
10
1.6923979662
20
-26.7451829106
30
0.0000000000
10
1.7010196864
20
-26.7671382536
30
0.0000000000
11
1.6642421400
21
-26.5693235064
31
0.0000000000
11
1.6685527404
21
-26.6236853078
31
0.0000000000
11
1.6807336640
21
-26.6993457936
31
0.0000000000
11
1.7010196864
21
-26.7671382536
31
0.0000000000
0
SPLINE
5
361
100
AcDbEntity
8
0
100
AcDbSpline
62
7
6
CONTINUOUS
70
0
71
3
72
14
73
10
74
8
42
0.0000001000
43
0.0000001000
44
0.0000000001
12
-17.6894652048
22
2.8287060761
32
0.0000000000
13
-13.3725424170
23
11.9269434851
33
0.0000000000
40
0.0000000000
40
0.0000000000
40
0.0000000000
40
0.0000000000
40
0.1001672416
40
0.2114859516
40
0.3360326771
40
0.4764056762
40
0.6359695528
40
0.8190953328
40
1.0000000000
40
1.0000000000
40
1.0000000000
40
1.0000000000
10
1.7010196864
20
-26.7671382536
30
0.0000000000
10
1.1103847080
20
-26.6726903586
30
0.0000000000
10
-0.1310016890
20
-26.4359549137
30
0.0000000000
10
-2.0752382641
20
-25.9336315183
30
0.0000000000
10
-4.2063578425
20
-25.2154888650
30
0.0000000000
10
-6.5381411618
20
-24.2139655707
30
0.0000000000
10
-9.0808403854
20
-22.8429915911
30
0.0000000000
10
-11.6809688216
20
-21.0977769878
30
0.0000000000
10
-13.3662325463
20
-19.7187646916
30
0.0000000000
10
-14.1726176581
20
-18.9995514443
30
0.0000000000
11
1.7010196864
21
-26.7671382536
31
0.0000000000
11
-0.0615605443
21
-26.4306242517
31
0.0000000000
11
-1.9923155172
21
-25.9316613265
31
0.0000000000
11
-4.1066975542
21
-25.2193102547
31
0.0000000000
11
-6.4176429746
21
-24.2277961427
31
0.0000000000
11
-8.9346932513
21
-22.8730814604
31
0.0000000000
11
-11.6610031453
21
-21.0484551011
31
0.0000000000
11
-14.1726176581
21
-18.9995514443
31
0.0000000000
0
SPLINE
5
362
100
AcDbEntity
8
0
100
AcDbSpline
62
7
6
CONTINUOUS
70
0
71
3
72
8
73
4
74
2
42
0.0000001000
43
0.0000001000
44
0.0000000001
12
-0.1084818091
22
0.0967547058
32
0.0000000000
13
-0.1081062808
23
0.0971619969
33
0.0000000000
40
0.0000000000
40
0.0000000000
40
0.0000000000
40
0.0000000000
40
1.0000000000
40
1.0000000000
40
1.0000000000
40
1.0000000000
10
-14.1726176581
20
-18.9995514443
30
0.0000000000
10
-14.2087782612
20
-18.9672998757
30
0.0000000000
10
-14.2448763148
20
-18.9349801099
30
0.0000000000
10
-14.2809117418
20
-18.9025927776
30
0.0000000000
11
-14.1726176581
21
-18.9995514443
31
0.0000000000
11
-14.2809117418
21
-18.9025927776
31
0.0000000000
0
SPLINE
5
363
100
AcDbEntity
8
0
100
AcDbSpline
62
7
6
CONTINUOUS
70
0
71
3
72
8
73
4
74
2
42
0.0000001000
43
0.0000001000
44
0.0000000001
12
-0.3109187770
22
0.2794424988
32
0.0000000000
13
-0.3078051037
23
0.2827508083
33
0.0000000000
40
0.0000000000
40
0.0000000000
40
0.0000000000
40
0.0000000000
40
1.0000000000
40
1.0000000000
40
1.0000000000
40
1.0000000000
10
-14.2809117418
20
-18.9025927776
30
0.0000000000
10
-14.3845513341
20
-18.8094452781
30
0.0000000000
10
-14.4876729004
20
-18.7157388920
30
0.0000000000
10
-14.5902746016
20
-18.6214886225
30
0.0000000000
11
-14.2809117418
21
-18.9025927776
31
0.0000000000
11
-14.5902746016
21
-18.6214886225
31
0.0000000000
0
SPLINE
5
364
100
AcDbEntity
8
0
100
AcDbSpline
62
7
6
CONTINUOUS
70
0
71
3
72
11
73
7
74
5
42
0.0000001000
43
0.0000001000
44
0.0000000001
12
0.0482009592
22
0.0239889202
32
0.0000000000
13
0.0251738994
23
-0.0430584636
33
0.0000000000
40
0.0000000000
40
0.0000000000
40
0.0000000000
40
0.0000000000
40
0.4645705024
40
0.8050613832
40
0.9884282404
40
1.0000000000
40
1.0000000000
40
1.0000000000
40
1.0000000000
10
1.2678571519
20
-21.6431392491
30
0.0000000000
10
1.2753213998
20
-21.6394244009
30
0.0000000000
10
1.2891301023
20
-21.6325948755
30
0.0000000000
10
1.3035659828
20
-21.6283833565
30
0.0000000000
10
1.3159412547
20
-21.6225506729
30
0.0000000000
10
1.3177373463
20
-21.6251217650
30
0.0000000000
10
1.3178344484
20
-21.6252878524
30
0.0000000000
11
1.2678571519
21
-21.6431392491
31
0.0000000000
11
1.2905754180
21
-21.6326742486
31
0.0000000000
11
1.3077436317
21
-21.6262460201
31
0.0000000000
11
1.3175145631
21
-21.6248330623
31
0.0000000000
11
1.3178344484
21
-21.6252878524
31
0.0000000000
0
SPLINE
5
365
100
AcDbEntity
8
0
100
AcDbSpline
62
7
6
CONTINUOUS
70
0
71
3
72
14
73
10
74
8
42
0.0000001000
43
0.0000001000
44
0.0000000001
12
0.4989610958
22
0.2481988013
32
0.0000000000
13
-0.4946822571
23
0.2473411285
33
0.0000000000
40
0.0000000000
40
0.0000000000
40
0.0000000000
40
0.0000000000
40
0.0096030726
40
0.1727423021
40
0.3490581914
40
0.5283486149
40
0.7053875387
40
0.8650737538
40
1.0000000000
40
1.0000000000
40
1.0000000000
40
1.0000000000
10
-3.6487991018
20
-23.6187846391
30
0.0000000000
10
-3.6472019152
20
-23.6179901487
30
0.0000000000
10
-3.6187092030
20
-23.6032513186
30
0.0000000000
10
-3.5703676017
20
-23.5575480293
30
0.0000000000
10
-3.5284695351
20
-23.4697088370
30
0.0000000000
10
-3.5150685357
20
-23.3709857017
30
0.0000000000
10
-3.5306914933
20
-23.2754302270
30
0.0000000000
10
-3.5731707799
20
-23.1977071362
30
0.0000000000
10
-3.6157338923
20
-23.1611681922
30
0.0000000000
10
-3.6379824323
20
-23.1500439222
30
0.0000000000
11
-3.6487991018
21
-23.6187846391
31
0.0000000000
11
-3.6440481087
21
-23.6163270803
31
0.0000000000
11
-3.5767181694
21
-23.5562628491
31
0.0000000000
11
-3.5335711260
21
-23.4688124761
31
0.0000000000
11
-3.5200128143
21
-23.3705833333
31
0.0000000000
11
-3.5367820864
21
-23.2741148033
31
0.0000000000
11
-3.5801098516
21
-23.1971553502
31
0.0000000000
11
-3.6379824323
21
-23.1500439222
31
0.0000000000
0
SPLINE
5
366
100
AcDbEntity
8
0
100
AcDbSpline
62
7
6
CONTINUOUS
70
0
71
3
72
12
73
8
74
6
42
0.0000001000
43
0.0000001000
44
0.0000000001
12
23.3230100995
22
-16.4616246736
32
0.0000000000
13
26.9091741736
23
-9.5312240711
33
0.0000000000
40
0.0000000000
40
0.0000000000
40
0.0000000000
40
0.0000000000
40
0.1835724734
40
0.3755987269
40
0.5759723989
40
0.7842121923
40
1.0000000000
40
1.0000000000
40
1.0000000000
40
1.0000000000
10
-14.9933966882
20
41.4621507985
30
0.0000000000
10
-13.5662424709
20
40.4548504124
30
0.0000000000
10
-10.5744666194
20
38.4940677304
30
0.0000000000
10
-5.8122853732
20
35.7750483436
30
0.0000000000
10
-0.6947930391
20
33.2233028167
30
0.0000000000
10
4.7549563704
20
30.8502407085
30
0.0000000000
10
8.5292263549
20
29.4186346422
30
0.0000000000
10
10.4647835891
20
28.7330606598
30
0.0000000000
11
-14.9933966882
21
41.4621507985
31
0.0000000000
11
-10.6146437510
21
38.5830308348
31
0.0000000000
11
-5.8576220258
21
35.8588429693
31
0.0000000000
11
-0.7413860230
21
33.3007249679
31
0.0000000000
11
4.7067738567
21
30.9223220309
31
0.0000000000
11
10.4647835891
21
28.7330606598
31
0.0000000000
0
SPLINE
5
367
100
AcDbEntity
8
0
100
AcDbSpline
62
7
6
CONTINUOUS
70
0
71
3
72
14
73
10
74
8
42
0.0000001000
43
0.0000001000
44
0.0000000001
12
2.6830184747
22
-0.9503246032
32
0.0000000000
13
0.0000000000
23
-2.8463494141
33
0.0000000000
40
0.0000000000
40
0.0000000000
40
0.0000000000
40
0.0000000000
40
0.1378805789
40
0.2861761426
40
0.4373147082
40
0.5850058117
40
0.7294342844
40
0.8696625157
40
1.0000000000
40
1.0000000000
40
1.0000000000
40
1.0000000000
10
10.4647835891
20
28.7330606598
30
0.0000000000
10
10.5880956359
20
28.6893835577
30
0.0000000000
10
10.8349172778
20
28.5715981373
30
0.0000000000
10
11.1729762102
20
28.3277302733
30
0.0000000000
10
11.4728583415
20
28.0250208023
30
0.0000000000
10
11.7193978010
20
27.6822368545
30
0.0000000000
10
11.9044504833
20
27.3141001497
30
0.0000000000
10
12.0203485807
20
26.9357706358
30
0.0000000000
10
12.0486889830
20
26.6785797806
30
0.0000000000
10
12.0486889830
20
26.5549177733
30
0.0000000000
11
10.4647835891
21
28.7330606598
31
0.0000000000
11
10.8199923973
21
28.5661815003
31
0.0000000000
11
11.1632619310
21
28.3205491047
31
0.0000000000
11
11.4664187029
21
28.0153243790
31
0.0000000000
11
11.7116412079
21
27.6738779322
31
0.0000000000
11
11.8953485053
21
27.3061146629
31
0.0000000000
11
12.0104263775
21
26.9239253634
31
0.0000000000
11
12.0486889830
21
26.5549177733
31
0.0000000000
0
SPLINE
5
368
100
AcDbEntity
8
0
100
AcDbSpline
62
7
6
CONTINUOUS
70
0
71
3
72
12
73
8
74
6
42
0.0000001000
43
0.0000001000
44
0.0000000001
12
0.0000000000
22
-1.3594859678
32
0.0000000000
13
-1.2715096972
23
-0.4947412827
33
0.0000000000
40
0.0000000000
40
0.0000000000
40
0.0000000000
40
0.0000000000
40
0.2538021962
40
0.4925985976
40
0.7159608164
40
0.9364575202
40
1.0000000000
40
1.0000000000
40
1.0000000000
40
1.0000000000
10
12.0486889830
20
-39.2983711764
30
0.0000000000
10
12.0486889830
20
-39.4133846845
30
0.0000000000
10
12.0257550936
20
-39.6377168834
30
0.0000000000
10
11.9123209933
20
-39.9458823770
30
0.0000000000
10
11.7237893236
20
-40.1972082574
30
0.0000000000
10
11.5323920884
20
-40.3314877736
30
0.0000000000
10
11.4140176680
20
-40.3834373856
30
0.0000000000
10
11.3870860416
20
-40.3939164149
30
0.0000000000
11
12.0486889830
21
-39.2983711764
31
0.0000000000
11
12.0104263775
21
-39.6412836089
31
0.0000000000
11
11.8953485053
21
-39.9448432319
31
0.0000000000
11
11.7116412079
21
-40.1866276187
31
0.0000000000
11
11.4664187029
21
-40.3590320400
31
0.0000000000
11
11.3870860416
21
-40.3939164149
31
0.0000000000
0
SPLINE
5
369
100
AcDbEntity
8
0
100
AcDbSpline
62
7
6
CONTINUOUS
70
0
71
3
72
8
73
4
74
2
42
0.0000001000
43
0.0000001000
44
0.0000000001
12
0.0000084440
22
-0.0639482238
32
0.0000000000
13
-0.0041281412
23
-0.0638486066
33
0.0000000000
40
0.0000000000
40
0.0000000000
40
0.0000000000
40
0.0000000000
40
1.0000000000
40
1.0000000000
40
1.0000000000
40
1.0000000000
10
3.2535615832
20
-27.6228530644
30
0.0000000000
10
3.2535643979
20
-27.6441691390
30
0.0000000000
10
3.2529059531
20
-27.6654914192
30
0.0000000000
10
3.2515299061
20
-27.6867742881
30
0.0000000000
11
3.2535615832
21
-27.6228530644
31
0.0000000000
11
3.2515299061
21
-27.6867742881
31
0.0000000000
0
SPLINE
5
36A
100
AcDbEntity
8
0
100
AcDbSpline
62
7
6
CONTINUOUS
70
0
71
3
72
9
73
5
74
3
42
0.0000001000
43
0.0000001000
44
0.0000000001
12
-0.0116523695
22
-0.1802233786
32
0.0000000000
13
-0.0500736840
23
-0.1740021933
33
0.0000000000
40
0.0000000000
40
0.0000000000
40
0.0000000000
40
0.0000000000
40
0.5123528726
40
1.0000000000
40
1.0000000000
40
1.0000000000
40
1.0000000000
10
3.2515299061
20
-27.6867742881
30
0.0000000000
10
3.2495398644
20
-27.7175536100
30
0.0000000000
10
3.2427263834
20
-27.7774671868
30
0.0000000000
10
3.2295462268
20
-27.8365411336
30
0.0000000000
10
3.2214067974
20
-27.8648250235
30
0.0000000000
11
3.2515299061
21
-27.6867742881
31
0.0000000000
11
3.2408867641
21
-27.7787269889
31
0.0000000000
11
3.2214067974
21
-27.8648250235
31
0.0000000000
0
SPLINE
5
36B
100
AcDbEntity
8
0
100
AcDbSpline
62
7
6
CONTINUOUS
70
0
71
3
72
10
73
6
74
4
42
0.0000001000
43
0.0000001000
44
0.0000000001
12
-0.1200787128
22
-0.4172642738
32
0.0000000000
13
-0.3881587264
23
-0.1978315679
33
0.0000000000
40
0.0000000000
40
0.0000000000
40
0.0000000000
40
0.0000000000
40
0.3790677714
40
0.8948046270
40
1.0000000000
40
1.0000000000
40
1.0000000000
40
1.0000000000
10
3.2214067974
20
-27.8648250235
30
0.0000000000
10
3.2062341407
20
-27.9175488363
30
0.0000000000
10
3.1563744388
20
-28.0377127166
30
0.0000000000
10
3.0556107426
20
-28.1476223904
30
0.0000000000
10
2.9773893694
20
-28.1925207233
30
0.0000000000
10
2.9637785354
20
-28.1994577119
30
0.0000000000
11
3.2214067974
21
-27.8648250235
31
0.0000000000
11
3.1567566841
21
-28.0154441175
31
0.0000000000
11
3.0034438604
21
-28.1766376744
31
0.0000000000
11
2.9637785354
21
-28.1994577119
31
0.0000000000
0
SPLINE
5
36C
100
AcDbEntity
8
0
100
AcDbSpline
62
7
6
CONTINUOUS
70
0
71
3
72
8
73
4
74
2
42
0.0000001000
43
0.0000001000
44
0.0000000001
12
0.0371347530
22
-0.0244608110
32
0.0000000000
13
0.0362893900
23
-0.0257376338
33
0.0000000000
40
0.0000000000
40
0.0000000000
40
0.0000000000
40
0.0000000000
40
1.0000000000
40
1.0000000000
40
1.0000000000
40
1.0000000000
10
2.5686310341
20
16.5120903724
30
0.0000000000
10
2.5810092851
20
16.5039367687
30
0.0000000000
10
2.5932482775
20
16.4955629857
30
0.0000000000
10
2.6053447408
20
16.4869837744
30
0.0000000000
11
2.5686310341
21
16.5120903724
31
0.0000000000
11
2.6053447408
21
16.4869837744
31
0.0000000000
0
SPLINE
5
36D
100
AcDbEntity
8
0
100
AcDbSpline
62
7
6
CONTINUOUS
70
0
71
3
72
9
73
5
74
3
42
0.0000001000
43
0.0000001000
44
0.0000000001
12
0.1547076136
22
-0.1097237485
32
0.0000000000
13
0.1385717715
23
-0.1291476120
33
0.0000000000
40
0.0000000000
40
0.0000000000
40
0.0000000000
40
0.0000000000
40
0.4937714033
40
1.0000000000
40
1.0000000000
40
1.0000000000
40
1.0000000000
10
2.6053447408
20
16.4869837744
30
0.0000000000
10
2.6308081393
20
16.4689242914
30
0.0000000000
10
2.6810982769
20
16.4305061788
30
0.0000000000
10
2.7286728931
20
16.3889188433
30
0.0000000000
10
2.7520558909
20
16.3671261052
30
0.0000000000
11
2.6053447408
21
16.4869837744
31
0.0000000000
11
2.6798097311
21
16.4302120718
31
0.0000000000
11
2.7520558909
21
16.3671261052
31
0.0000000000
0
SPLINE
5
36E
100
AcDbEntity
8
0
100
AcDbSpline
62
7
6
CONTINUOUS
70
0
71
3
72
11
73
7
74
5
42
0.0000001000
43
0.0000001000
44
0.0000000001
12
0.7876997687
22
-0.7341289136
32
0.0000000000
13
0.1323828197
23
-1.0703606141
33
0.0000000000
40
0.0000000000
40
0.0000000000
40
0.0000000000
40
0.0000000000
40
0.1830401386
40
0.4634276979
40
0.7397297480
40
1.0000000000
40
1.0000000000
40
1.0000000000
40
1.0000000000
10
2.7520558909
20
16.3671261052
30
0.0000000000
10
2.8001161159
20
16.3223344192
30
0.0000000000
10
2.9143030216
20
16.2010139954
30
0.0000000000
10
3.0658644023
20
15.9817806130
30
0.0000000000
10
3.1877736787
20
15.7137513294
30
0.0000000000
10
3.2333208513
20
15.5257063869
30
0.0000000000
10
3.2448059546
20
15.4328453780
30
0.0000000000
11
2.7520558909
21
16.3671261052
31
0.0000000000
11
2.8873160690
21
16.2239985185
31
0.0000000000
11
3.0588403963
21
15.9760913717
31
0.0000000000
11
3.1810121132
21
15.7053081678
31
0.0000000000
11
3.2448059546
21
15.4328453780
31
0.0000000000
0
SPLINE
5
36F
100
AcDbEntity
8
0
100
AcDbSpline
62
7
6
CONTINUOUS
70
0
71
3
72
8
73
4
74
2
42
0.0000001000
43
0.0000001000
44
0.0000000001
12
0.0169712382
22
-0.1372182963
32
0.0000000000
13
0.0000108606
23
-0.1381985833
33
0.0000000000
40
0.0000000000
40
0.0000000000
40
0.0000000000
40
0.0000000000
40
1.0000000000
40
1.0000000000
40
1.0000000000
40
1.0000000000
10
3.2448059546
20
15.4328453780
30
0.0000000000
10
3.2504630340
20
15.3871059459
30
0.0000000000
10
3.2535464586
20
15.3409667459
30
0.0000000000
10
3.2535500788
20
15.2949005514
30
0.0000000000
11
3.2448059546
21
15.4328453780
31
0.0000000000
11
3.2535500788
21
15.2949005514
31
0.0000000000
0
SPLINE
5
370
100
AcDbEntity
8
0
100
AcDbSpline
62
7
6
CONTINUOUS
70
0
71
3
72
12
73
8
74
6
42
0.0000001000
43
0.0000001000
44
0.0000000001
12
18.9797997903
22
-5.7106579582
32
0.0000000000
13
16.5546241568
23
-10.8989623935
33
0.0000000000
40
0.0000000000
40
0.0000000000
40
0.0000000000
40
0.0000000000
40
0.1666247292
40
0.3549352704
40
0.5590667824
40
0.7774157169
40
1.0000000000
40
1.0000000000
40
1.0000000000
40
1.0000000000
10
-15.1303706440
20
25.3624458386
30
0.0000000000
10
-14.0762026438
20
25.0452668933
30
0.0000000000
10
-11.8600066232
20
24.2702330647
30
0.0000000000
10
-8.4649496008
20
22.8097767127
30
0.0000000000
10
-4.8572730438
20
20.9972005501
30
0.0000000000
10
-1.1509538161
20
18.8903214096
30
0.0000000000
10
1.3150005048
20
17.3374401853
30
0.0000000000
10
2.5432668880
20
16.5287942751
30
0.0000000000
11
-15.1303706440
21
25.3624458386
31
0.0000000000
11
-12.0088050090
21
24.2840507046
31
0.0000000000
11
-8.5760398113
21
22.8190033494
31
0.0000000000
11
-4.9571198936
21
21.0099444101
31
0.0000000000
11
-1.1918399900
21
18.8765118599
31
0.0000000000
11
2.5432668880
21
16.5287942751
31
0.0000000000
0
SPLINE
5
371
100
AcDbEntity
8
0
100
AcDbSpline
62
7
6
CONTINUOUS
70
0
71
3
72
8
73
4
74
2
42
0.0000001000
43
0.0000001000
44
0.0000000001
12
0.0253399312
22
-0.0166828890
32
0.0000000000
13
0.0253352346
23
-0.0166899071
33
0.0000000000
40
0.0000000000
40
0.0000000000
40
0.0000000000
40
0.0000000000
40
1.0000000000
40
1.0000000000
40
1.0000000000
40
1.0000000000
10
2.5432668880
20
16.5287942751
30
0.0000000000
10
2.5517135317
20
16.5232333121
30
0.0000000000
10
2.5601593925
20
16.5176711788
30
0.0000000000
10
2.5686044707
20
16.5121078764
30
0.0000000000
11
2.5432668880
21
16.5287942751
31
0.0000000000
11
2.5686044707
21
16.5121078764
31
0.0000000000
0
SPLINE
5
372
100
AcDbEntity
8
0
100
AcDbSpline
62
7
6
CONTINUOUS
70
0
71
3
72
10
73
6
74
4
42
0.0000001000
43
0.0000001000
44
0.0000000001
12
0.1867228385
22
0.0938576146
32
0.0000000000
13
0.2022092068
23
-0.0485447421
33
0.0000000000
40
0.0000000000
40
0.0000000000
40
0.0000000000
40
0.0000000000
40
0.1463491768
40
0.7653374848
40
1.0000000000
40
1.0000000000
40
1.0000000000
40
1.0000000000
10
-15.3583155642
20
25.3529070912
30
0.0000000000
10
-15.3492066529
20
25.3574857527
30
0.0000000000
10
-15.3002311347
20
25.3785290499
30
0.0000000000
10
-15.2289137296
20
25.3834372036
30
0.0000000000
10
-15.1705478835
20
25.3729648589
30
0.0000000000
10
-15.1547309098
20
25.3691676484
30
0.0000000000
11
-15.3583155642
21
25.3529070912
31
0.0000000000
11
-15.3302712829
21
25.3649015164
31
0.0000000000
11
-15.2028265890
21
25.3776144398
31
0.0000000000
11
-15.1547309098
21
25.3691676484
31
0.0000000000
0
SPLINE
5
373
100
AcDbEntity
8
0
100
AcDbSpline
62
7
6
CONTINUOUS
70
0
71
3
72
8
73
4
74
2
42
0.0000001000
43
0.0000001000
44
0.0000000001
12
0.0246008361
22
-0.0059059687
32
0.0000000000
13
0.0242185040
23
-0.0073079274
33
0.0000000000
40
0.0000000000
40
0.0000000000
40
0.0000000000
40
0.0000000000
40
1.0000000000
40
1.0000000000
40
1.0000000000
40
1.0000000000
10
-15.1547309098
20
25.3691676484
30
0.0000000000
10
-15.1465306311
20
25.3671989922
30
0.0000000000
10
-15.1383914696
20
25.3649834706
30
0.0000000000
10
-15.1303186350
20
25.3625474948
30
0.0000000000
11
-15.1547309098
21
25.3691676484
31
0.0000000000
11
-15.1303186350
21
25.3625474948
31
0.0000000000
0
SPLINE
5
374
100
AcDbEntity
8
0
100
AcDbSpline
62
7
6
CONTINUOUS
70
0
71
3
72
8
73
4
74
2
42
0.0000001000
43
0.0000001000
44
0.0000000001
12
-0.0000227303
22
-0.0452145740
32
0.0000000000
13
0.0009115531
23
-0.0452269074
33
0.0000000000
40
0.0000000000
40
0.0000000000
40
0.0000000000
40
0.0000000000
40
1.0000000000
40
1.0000000000
40
1.0000000000
40
1.0000000000
10
-19.2172743307
20
-26.9390126838
30
0.0000000000
10
-19.2172819075
20
-26.9540842085
30
0.0000000000
10
-19.2171320203
20
-26.9691594130
30
0.0000000000
10
-19.2168281692
20
-26.9842350488
30
0.0000000000
11
-19.2172743307
21
-26.9390126838
31
0.0000000000
11
-19.2168281692
21
-26.9842350488
31
0.0000000000
0
SPLINE
5
375
100
AcDbEntity
8
0
100
AcDbSpline
62
7
6
CONTINUOUS
70
0
71
3
72
11
73
7
74
5
42
0.0000001000
43
0.0000001000
44
0.0000000001
12
0.0352271492
22
-1.7478028178
32
0.0000000000
13
1.1139172188
23
-1.3483038488
33
0.0000000000
40
0.0000000000
40
0.0000000000
40
0.0000000000
40
0.0000000000
40
0.1980562314
40
0.4966315610
40
0.7979324180
40
1.0000000000
40
1.0000000000
40
1.0000000000
40
1.0000000000
10
-19.2168281692
20
-26.9842350488
30
0.0000000000
10
-19.2145025171
20
-27.0996227952
30
0.0000000000
10
-19.1860540077
20
-27.3890241602
30
0.0000000000
10
-19.0650819214
20
-27.8395417694
30
0.0000000000
10
-18.8640222297
20
-28.2635797757
30
0.0000000000
10
-18.6956269042
20
-28.5047905904
30
0.0000000000
10
-18.6205980512
20
-28.5956067566
30
0.0000000000
11
-19.2168281692
21
-26.9842350488
31
0.0000000000
11
-19.1843618872
21
-27.3290174350
31
0.0000000000
11
-19.0507666753
21
-27.8326762458
31
0.0000000000
11
-18.8240257614
21
-28.3071108233
31
0.0000000000
11
-18.6205980512
21
-28.5956067566
31
0.0000000000
0
SPLINE
5
376
100
AcDbEntity
8
0
100
AcDbSpline
62
7
6
CONTINUOUS
70
0
71
3
72
8
73
4
74
2
42
0.0000001000
43
0.0000001000
44
0.0000000001
12
0.0103079557
22
-0.0124769203
32
0.0000000000
13
0.0104016292
23
-0.0124006789
33
0.0000000000
40
0.0000000000
40
0.0000000000
40
0.0000000000
40
0.0000000000
40
1.0000000000
40
1.0000000000
40
1.0000000000
40
1.0000000000
10
-18.6205980512
20
-28.5956067566
30
0.0000000000
10
-18.6171620660
20
-28.5997657300
30
0.0000000000
10
-18.6137104988
20
-28.6039120922
30
0.0000000000
10
-18.6102432891
20
-28.6080456519
30
0.0000000000
11
-18.6205980512
21
-28.5956067566
31
0.0000000000
11
-18.6102432891
21
-28.6080456519
31
0.0000000000
0
SPLINE
5
377
100
AcDbEntity
8
0
100
AcDbSpline
62
7
6
CONTINUOUS
70
0
71
3
72
9
73
5
74
3
42
0.0000001000
43
0.0000001000
44
0.0000000001
12
0.3231318526
22
-0.3852333385
32
0.0000000000
13
0.4132209752
23
-0.2867662166
33
0.0000000000
40
0.0000000000
40
0.0000000000
40
0.0000000000
40
0.0000000000
40
0.3158636016
40
1.0000000000
40
1.0000000000
40
1.0000000000
40
1.0000000000
10
-18.6102432891
20
-28.6080456519
30
0.0000000000
10
-18.5762214255
20
-28.6486060485
30
0.0000000000
10
-18.4637425113
20
-28.7731145623
30
0.0000000000
10
-18.3355940818
20
-28.8834556552
30
0.0000000000
10
-18.2413609119
20
-28.9488513908
30
0.0000000000
11
-18.6102432891
21
-28.6080456519
31
0.0000000000
11
-18.5036020909
21
-28.7258479827
31
0.0000000000
11
-18.2413609119
21
-28.9488513908
31
0.0000000000
0
SPLINE
5
378
100
AcDbEntity
8
0
100
AcDbSpline
62
7
6
CONTINUOUS
70
0
71
3
72
11
73
7
74
5
42
0.0000001000
43
0.0000001000
44
0.0000000001
12
23.3453416565
22
-16.2000650520
32
0.0000000000
13
26.7344405452
23
-9.6289365727
33
0.0000000000
40
0.0000000000
40
0.0000000000
40
0.0000000000
40
0.0000000000
40
0.2304600745
40
0.4768093956
40
0.7350934472
40
1.0000000000
40
1.0000000000
40
1.0000000000
40
1.0000000000
10
-18.2420327560
20
-28.9484516492
30
0.0000000000
10
-16.4486430302
20
-30.1929410488
30
0.0000000000
10
-12.6330606261
20
-32.6185712984
30
0.0000000000
10
-6.5022776241
20
-35.9294316194
30
0.0000000000
10
0.1257241565
20
-38.9731528284
30
0.0000000000
10
4.7451469531
20
-40.7754197116
30
0.0000000000
10
7.1058564488
20
-41.6256758433
30
0.0000000000
11
-18.2420327560
21
-28.9484516492
31
0.0000000000
11
-12.7225818244
21
-32.4727752655
31
0.0000000000
11
-6.5690076414
21
-35.8096839261
31
0.0000000000
11
0.0962762397
21
-38.8818684241
31
0.0000000000
11
7.1058564488
21
-41.6256758433
31
0.0000000000
0
SPLINE
5
379
100
AcDbEntity
8
0
100
AcDbSpline
62
7
6
CONTINUOUS
70
0
71
3
72
11
73
7
74
5
42
0.0000001000
43
0.0000001000
44
0.0000000001
12
1.0701050301
22
-0.3851846520
32
0.0000000000
13
1.0608501660
23
0.4150411872
33
0.0000000000
40
0.0000000000
40
0.0000000000
40
0.0000000000
40
0.0000000000
40
0.2390113441
40
0.5882009859
40
0.9218746603
40
1.0000000000
40
1.0000000000
40
1.0000000000
40
1.0000000000
10
7.1060249327
20
-41.6257214865
30
0.0000000000
10
7.1912806799
20
-41.6564093203
30
0.0000000000
10
7.4068889259
20
-41.7166196387
30
0.0000000000
10
7.7580974400
20
-41.7431560918
30
0.0000000000
10
8.0444806875
20
-41.6917159759
30
0.0000000000
10
8.1918797092
20
-41.6392812692
30
0.0000000000
10
8.2195061357
20
-41.6284728579
30
0.0000000000
11
7.1060249327
21
-41.6257214865
31
0.0000000000
11
7.3679026336
21
-41.6981954440
31
0.0000000000
11
7.7631797810
21
-41.7263926114
31
0.0000000000
11
8.1356788711
21
-41.6582914302
31
0.0000000000
11
8.2195061357
21
-41.6284728579
31
0.0000000000
0
SPLINE
5
37A
100
AcDbEntity
8
0
100
AcDbSpline
62
7
6
CONTINUOUS
70
0
71
3
72
11
73
7
74
5
42
0.0000001000
43
0.0000001000
44
0.0000000001
12
-1.2487698817
22
-0.7779593347
32
0.0000000000
13
0.0003332198
23
-1.4678321032
33
0.0000000000
40
0.0000000000
40
0.0000000000
40
0.0000000000
40
0.0000000000
40
0.2132146055
40
0.4846483444
40
0.7757224638
40
1.0000000000
40
1.0000000000
40
1.0000000000
40
1.0000000000
10
-18.6013091317
20
39.7892341004
30
0.0000000000
10
-18.6900611243
20
39.7339433361
30
0.0000000000
10
-18.8746932634
20
39.5810835429
30
0.0000000000
10
-19.0875526156
20
39.2602099595
30
0.0000000000
10
-19.1982051736
20
38.8873736349
30
0.0000000000
10
-19.2173085762
20
38.6348852134
30
0.0000000000
10
-19.2172836650
20
38.5251512908
30
0.0000000000
11
-18.6013091317
21
39.7892341004
31
0.0000000000
11
-18.8425186500
21
39.5902309360
31
0.0000000000
11
-19.0646432777
21
39.2604455277
31
0.0000000000
11
-19.1905723692
21
38.8530800557
31
0.0000000000
11
-19.2172836650
21
38.5251512908
31
0.0000000000
0
SPLINE
5
37B
100
AcDbEntity
8
0
100
AcDbSpline
62
7
6
CONTINUOUS
70
0
71
3
72
11
73
7
74
5
42
0.0000001000
43
0.0000001000
44
0.0000000001
12
0.6765132042
22
0.4227153824
32
0.0000000000
13
0.6483785516
23
-0.4576323689
33
0.0000000000
40
0.0000000000
40
0.0000000000
40
0.0000000000
40
0.0000000000
40
0.0596158999
40
0.3319630690
40
0.6403228133
40
1.0000000000
40
1.0000000000
40
1.0000000000
40
1.0000000000
10
-15.7367348658
20
41.5722511126
30
0.0000000000
10
-15.7232912180
20
41.5806512986
30
0.0000000000
10
-15.6461750198
20
41.6236871786
30
0.0000000000
10
-15.4744796013
20
41.6614054015
30
0.0000000000
10
-15.2262024003
20
41.6057066782
30
0.0000000000
10
-15.0711323460
20
41.5170174395
30
0.0000000000
10
-14.9933966882
20
41.4621507985
30
0.0000000000
11
-15.7367348658
21
41.5722511126
31
0.0000000000
11
-15.6952095890
21
41.5953512692
31
0.0000000000
11
-15.4846624751
21
41.6441948713
31
0.0000000000
11
-15.2442899976
21
41.5982800548
31
0.0000000000
11
-14.9933966882
21
41.4621507985
31
0.0000000000
0
SPLINE
5
37C
100
AcDbEntity
8
0
100
AcDbSpline
62
7
6
CONTINUOUS
70
0
71
3
72
12
73
8
74
6
42
0.0000001000
43
0.0000001000
44
0.0000000001
12
23.1751917999
22
-16.0570159981
32
0.0000000000
13
26.5198225334
23
-9.5716399075
33
0.0000000000
40
0.0000000000
40
0.0000000000
40
0.0000000000
40
0.0000000000
40
0.1842483126
40
0.3767335668
40
0.5771533048
40
0.7850832103
40
1.0000000000
40
1.0000000000
40
1.0000000000
40
1.0000000000
10
-17.7678431996
20
39.7350549584
30
0.0000000000
10
-16.3445132049
20
38.7488955905
30
0.0000000000
10
-13.3685992005
20
36.8259073566
30
0.0000000000
10
-8.6481448444
20
34.1488402967
30
0.0000000000
10
-3.5928142644
20
31.6274239298
30
0.0000000000
10
1.7732530324
20
29.2736165740
30
0.0000000000
10
5.4832799738
20
27.8452695584
30
0.0000000000
10
7.3831316808
20
27.1595675182
30
0.0000000000
11
-17.7678431996
21
39.7350549584
31
0.0000000000
11
-13.4084698473
21
36.9099406011
31
0.0000000000
11
-8.6908808826
21
34.2273122203
31
0.0000000000
11
-3.6367488141
21
31.7002500927
31
0.0000000000
11
1.7299022267
21
29.3407623534
31
0.0000000000
11
7.3831316808
21
27.1595675182
31
0.0000000000
0
SPLINE
5
37D
100
AcDbEntity
8
0
100
AcDbSpline
62
7
6
CONTINUOUS
70
0
71
3
72
9
73
5
74
3
42
0.0000001000
43
0.0000001000
44
0.0000000001
12
0.0047214288
22
-0.3178603061
32
0.0000000000
13
0.2579857480
23
-0.1823808819
33
0.0000000000
40
0.0000000000
40
0.0000000000
40
0.0000000000
40
0.0000000000
40
0.4029406493
40
1.0000000000
40
1.0000000000
40
1.0000000000
40
1.0000000000
10
-19.2169264577
20
38.5251561964
30
0.0000000000
10
-19.2162923059
20
38.4824632504
30
0.0000000000
10
-19.1843528181
20
38.3752127543
30
0.0000000000
10
-19.1033892322
20
38.3016316206
30
0.0000000000
10
-19.0520449644
20
38.2653342170
30
0.0000000000
11
-19.2169264577
21
38.5251561964
31
0.0000000000
11
-19.1825932602
21
38.4014986783
31
0.0000000000
11
-19.0520449644
21
38.2653342170
31
0.0000000000
0
SPLINE
5
37E
100
AcDbEntity
8
0
100
AcDbSpline
62
7
6
CONTINUOUS
70
0
71
3
72
11
73
7
74
5
42
0.0000001000
43
0.0000001000
44
0.0000000001
12
0.7446716958
22
0.4655186604
32
0.0000000000
13
0.7625828664
23
-0.4255769584
33
0.0000000000
40
0.0000000000
40
0.0000000000
40
0.0000000000
40
0.0000000000
40
0.0751471301
40
0.3504252153
40
0.6531268936
40
1.0000000000
40
1.0000000000
40
1.0000000000
40
1.0000000000
10
-18.6011181468
20
39.7892548214
30
0.0000000000
10
-18.5824648332
20
39.8009156185
30
0.0000000000
10
-18.4925827143
20
39.8505187518
30
0.0000000000
10
-18.3027750197
20
39.8964392026
30
0.0000000000
10
-18.0313032541
20
39.8606272072
30
0.0000000000
10
-17.8560163622
20
39.7842620256
30
0.0000000000
10
-17.7678431996
20
39.7350549584
30
0.0000000000
11
-18.6011181468
21
39.7892548214
31
0.0000000000
11
-18.5433653587
21
39.8210418885
31
0.0000000000
11
-18.3103623995
21
39.8802162756
31
0.0000000000
11
-18.0476092962
21
39.8512165259
31
0.0000000000
11
-17.7678431996
21
39.7350549584
31
0.0000000000
0
SPLINE
5
37F
100
AcDbEntity
8
0
100
AcDbSpline
62
7
6
CONTINUOUS
70
0
71
3
72
8
73
4
74
2
42
0.0000001000
43
0.0000001000
44
0.0000000001
12
-0.1284604010
22
0.0177948411
32
0.0000000000
13
-0.1283892597
23
0.0183559947
33
0.0000000000
40
0.0000000000
40
0.0000000000
40
0.0000000000
40
0.0000000000
40
1.0000000000
40
1.0000000000
40
1.0000000000
40
1.0000000000
10
2.6068068781
20
-28.2543833872
30
0.0000000000
10
2.5639867444
20
-28.2484517735
30
0.0000000000
10
2.5211782209
20
-28.2424265990
30
0.0000000000
10
2.4783818010
20
-28.2363079341
30
0.0000000000
11
2.6068068781
21
-28.2543833872
31
0.0000000000
11
2.4783818010
21
-28.2363079341
31
0.0000000000
0
SPLINE
5
380
100
AcDbEntity
8
0
100
AcDbSpline
62
7
6
CONTINUOUS
70
0
71
3
72
11
73
7
74
5
42
0.0000001000
43
0.0000001000
44
0.0000000001
12
-8.8730941711
22
1.2685988649
32
0.0000000000
13
-8.1109862185
23
3.8183826736
33
0.0000000000
40
0.0000000000
40
0.0000000000
40
0.0000000000
40
0.0000000000
40
0.2909518010
40
0.5649453965
40
0.8165562419
40
1.0000000000
40
1.0000000000
40
1.0000000000
40
1.0000000000
10
2.4783818010
20
-28.2363079341
30
0.0000000000
10
1.6178342244
20
-28.1132742259
30
0.0000000000
10
-0.0436012127
20
-27.8009793639
30
0.0000000000
10
-2.3964590814
20
-27.1467251214
30
0.0000000000
10
-4.3884543785
20
-26.4202926010
30
0.0000000000
10
-5.5793828717
20
-25.8977448903
30
0.0000000000
10
-6.0753528031
20
-25.6642587344
30
0.0000000000
11
2.4783818010
21
-28.2363079341
31
0.0000000000
11
-0.0845668963
21
-27.7543769110
31
0.0000000000
11
-2.4506631470
21
-27.0968997373
31
0.0000000000
11
-4.5694896062
21
-26.3247572122
31
0.0000000000
11
-6.0753528031
21
-25.6642587344
31
0.0000000000
0
SPLINE
5
381
100
AcDbEntity
8
0
100
AcDbSpline
62
7
6
CONTINUOUS
70
0
71
3
72
14
73
10
74
8
42
0.0000001000
43
0.0000001000
44
0.0000000001
12
0.0001556777
22
0.9814701391
32
0.0000000000
13
0.8068062727
23
-0.5588803955
33
0.0000000000
40
0.0000000000
40
0.0000000000
40
0.0000000000
40
0.0000000000
40
0.1837530905
40
0.3434679184
40
0.4792040430
40
0.5983299872
40
0.7155034051
40
0.8464473561
40
1.0000000000
40
1.0000000000
40
1.0000000000
40
1.0000000000
10
-19.0520449644
20
38.2653342170
30
0.0000000000
10
-19.0520354290
20
38.3254502741
30
0.0000000000
10
-19.0441787627
20
38.4381537617
30
0.0000000000
10
-19.0033357169
20
38.5907820501
30
0.0000000000
10
-18.9341204374
20
38.7100659653
30
0.0000000000
10
-18.8351767292
20
38.7874507435
30
0.0000000000
10
-18.7131707627
20
38.8112824880
30
0.0000000000
10
-18.5823222104
20
38.7820224763
30
0.0000000000
10
-18.5002499991
20
38.7360000036
30
0.0000000000
10
-18.4589542537
20
38.7073941495
30
0.0000000000
11
-19.0520449644
21
38.2653342170
31
0.0000000000
11
-19.0374988384
21
38.4450948186
31
0.0000000000
11
-18.9942361364
21
38.5957619156
31
0.0000000000
11
-18.9241905895
21
38.7090820115
31
0.0000000000
11
-18.8306776726
21
38.7792623770
31
0.0000000000
11
-18.7181030754
21
38.8027670333
31
0.0000000000
11
-18.5919340205
21
38.7783101768
31
0.0000000000
11
-18.4589542537
21
38.7073941495
31
0.0000000000
0
SPLINE
5
382
100
AcDbEntity
8
0
100
AcDbSpline
62
7
6
CONTINUOUS
70
0
71
3
72
9
73
5
74
3
42
0.0000001000
43
0.0000001000
44
0.0000000001
12
8.7969764836
22
-6.0960566435
32
0.0000000000
13
9.4452884774
23
-5.0359003480
33
0.0000000000
40
0.0000000000
40
0.0000000000
40
0.0000000000
40
0.0000000000
40
0.4890598883
40
1.0000000000
40
1.0000000000
40
1.0000000000
40
1.0000000000
10
-18.4589542537
20
38.7073941495
30
0.0000000000
10
-17.0248714750
20
37.7136152226
30
0.0000000000
10
-14.0263666703
20
35.7757895805
30
0.0000000000
10
-10.9216604970
20
34.0149395704
30
0.0000000000
10
-9.3130015803
20
33.1572584082
30
0.0000000000
11
-18.4589542537
21
38.7073941495
31
0.0000000000
11
-14.0665734274
21
35.8605185949
31
0.0000000000
11
-9.3130015803
21
33.1572584082
31
0.0000000000
0
SPLINE
5
383
100
AcDbEntity
8
0
100
AcDbSpline
62
7
6
CONTINUOUS
70
0
71
3
72
8
73
4
74
2
42
0.0000001000
43
0.0000001000
44
0.0000000001
12
0.0555557331
22
-0.0296203908
32
0.0000000000
13
0.0555734768
23
-0.0295870049
33
0.0000000000
40
0.0000000000
40
0.0000000000
40
0.0000000000
40
0.0000000000
40
1.0000000000
40
1.0000000000
40
1.0000000000
40
1.0000000000
10
-9.3130015803
20
33.1572584082
30
0.0000000000
10
-9.2944830026
20
33.1473849446
30
0.0000000000
10
-9.2759614644
20
33.1375170480
30
0.0000000000
10
-9.2574369721
20
33.1276547130
30
0.0000000000
11
-9.3130015803
21
33.1572584082
31
0.0000000000
11
-9.2574369721
21
33.1276547130
31
0.0000000000
0
SPLINE
5
384
100
AcDbEntity
8
0
100
AcDbSpline
62
7
6
CONTINUOUS
70
0
71
3
72
8
73
4
74
2
42
0.0000001000
43
0.0000001000
44
0.0000000001
12
0.0258378145
22
-0.0137559064
32
0.0000000000
13
0.0258416438
23
-0.0137486947
33
0.0000000000
40
0.0000000000
40
0.0000000000
40
0.0000000000
40
0.0000000000
40
1.0000000000
40
1.0000000000
40
1.0000000000
40
1.0000000000
10
-9.2574369721
20
33.1276547130
30
0.0000000000
10
-9.2488243673
20
33.1230694108
30
0.0000000000
10
-9.2402111239
20
33.1184853109
30
0.0000000000
10
-9.2315972426
20
33.1139024127
30
0.0000000000
11
-9.2574369721
21
33.1276547130
31
0.0000000000
11
-9.2315972426
21
33.1139024127
31
0.0000000000
0
SPLINE
5
385
100
AcDbEntity
8
0
100
AcDbSpline
62
7
6
CONTINUOUS
70
0
71
3
72
10
73
6
74
4
42
0.0000001000
43
0.0000001000
44
0.0000000001
12
12.9873840101
22
-6.9097608068
32
0.0000000000
13
13.7316228472
23
-5.2776230820
33
0.0000000000
40
0.0000000000
40
0.0000000000
40
0.0000000000
40
0.0000000000
40
0.3808255163
40
0.7824311946
40
1.0000000000
40
1.0000000000
40
1.0000000000
40
1.0000000000
10
-9.2315972426
20
33.1139024127
30
0.0000000000
10
-7.5829548354
20
32.2367646703
30
0.0000000000
10
-4.1477009943
20
30.5250683075
30
0.0000000000
10
0.3441428921
20
28.5548658669
30
0.0000000000
10
3.1656402553
20
27.4326385461
30
0.0000000000
10
4.1614978484
20
27.0498898296
30
0.0000000000
11
-9.2315972426
21
33.1139024127
31
0.0000000000
11
-4.2201489106
21
30.6108360058
31
0.0000000000
11
1.1877461623
21
28.2333665813
31
0.0000000000
11
4.1614978484
21
27.0498898296
31
0.0000000000
0
SPLINE
5
386
100
AcDbEntity
8
0
100
AcDbSpline
62
7
6
CONTINUOUS
70
0
71
3
72
8
73
4
74
2
42
0.0000001000
43
0.0000001000
44
0.0000000001
12
0.9964051816
22
-0.3829591771
32
0.0000000000
13
0.9992975738
23
-0.3752798232
33
0.0000000000
40
0.0000000000
40
0.0000000000
40
0.0000000000
40
0.0000000000
40
1.0000000000
40
1.0000000000
40
1.0000000000
40
1.0000000000
10
4.1614978484
20
27.0498898296
30
0.0000000000
10
4.4936329090
20
26.9222367706
30
0.0000000000
10
4.8262601686
20
26.7958724005
30
0.0000000000
10
5.1593593598
20
26.6707791261
30
0.0000000000
11
4.1614978484
21
27.0498898296
31
0.0000000000
11
5.1593593598
21
26.6707791261
31
0.0000000000
0
SPLINE
5
387
100
AcDbEntity
8
0
100
AcDbSpline
62
7
6
CONTINUOUS
70
0
71
3
72
8
73
4
74
2
42
0.0000001000
43
0.0000001000
44
0.0000000001
12
1.7210039173
22
-0.6463120323
32
0.0000000000
13
1.7290918823
23
-0.6239610668
33
0.0000000000
40
0.0000000000
40
0.0000000000
40
0.0000000000
40
0.0000000000
40
1.0000000000
40
1.0000000000
40
1.0000000000
40
1.0000000000
10
5.1593593598
20
26.6707791261
30
0.0000000000
10
5.7330273323
20
26.4553417820
30
0.0000000000
10
6.3080950632
20
26.2436745330
30
0.0000000000
10
6.8844590240
20
26.0356875107
30
0.0000000000
11
5.1593593598
21
26.6707791261
31
0.0000000000
11
6.8844590240
21
26.0356875107
31
0.0000000000
0
SPLINE
5
388
100
AcDbEntity
8
0
100
AcDbSpline
62
7
6
CONTINUOUS
70
0
71
3
72
14
73
10
74
8
42
0.0000001000
43
0.0000001000
44
0.0000000001
12
1.4123857654
22
-0.5099453552
32
0.0000000000
13
0.0003412824
23
-1.5016250194
33
0.0000000000
40
0.0000000000
40
0.0000000000
40
0.0000000000
40
0.0000000000
40
0.1363188386
40
0.2807783564
40
0.4297643336
40
0.5796395032
40
0.7268090969
40
0.8678878688
40
1.0000000000
40
1.0000000000
40
1.0000000000
40
1.0000000000
10
6.8844590240
20
26.0356875107
30
0.0000000000
10
6.9486372864
20
26.0125157912
30
0.0000000000
10
7.0760836733
20
25.9509339749
30
0.0000000000
10
7.2509974579
20
25.8240884297
30
0.0000000000
10
7.4078902795
20
25.6658219778
30
0.0000000000
10
7.5389243186
20
25.4839423617
30
0.0000000000
10
7.6378211374
20
25.2871006002
30
0.0000000000
10
7.6997719928
20
25.0849553049
30
0.0000000000
10
7.7149509291
20
24.9479563828
30
0.0000000000
10
7.7149659583
20
24.8818287556
30
0.0000000000
11
6.8844590240
21
26.0356875107
31
0.0000000000
11
7.0692842894
21
25.9477010186
31
0.0000000000
11
7.2453792661
21
25.8210258640
31
0.0000000000
11
7.4031099777
21
25.6623685516
31
0.0000000000
11
7.5345732155
21
25.4797001090
31
0.0000000000
11
7.6333086169
21
25.2819895390
31
0.0000000000
11
7.6944043898
21
25.0791432043
31
0.0000000000
11
7.7149659583
21
24.8818287556
31
0.0000000000
0
SPLINE
5
389
100
AcDbEntity
8
0
100
AcDbSpline
62
7
6
CONTINUOUS
70
0
71
3
72
14
73
10
74
8
42
0.0000001000
43
0.0000001000
44
0.0000000001
12
-0.0002740825
22
-1.2056781139
32
0.0000000000
13
-1.1344157363
23
0.4083634735
33
0.0000000000
40
0.0000000000
40
0.0000000000
40
0.0000000000
40
0.0000000000
40
0.1525459198
40
0.2942744492
40
0.4281335119
40
0.5598797869
40
0.6961720979
40
0.8422274141
40
1.0000000000
40
1.0000000000
40
1.0000000000
40
1.0000000000
10
7.7149659583
20
-40.5831662150
30
0.0000000000
10
7.7149520215
20
-40.6444733073
30
0.0000000000
10
7.7027752155
20
-40.7633486262
30
0.0000000000
10
7.6421619593
20
-40.9266394971
30
0.0000000000
10
7.5412427688
20
-41.0589573104
30
0.0000000000
10
7.4050556682
20
-41.1510218551
30
0.0000000000
10
7.2424428266
20
-41.1970136045
30
0.0000000000
10
7.0636058124
20
-41.1956701318
30
0.0000000000
10
6.9441189254
20
-41.1654104463
30
0.0000000000
10
6.8844590240
20
-41.1439342593
30
0.0000000000
11
7.7149659583
21
-40.5831662150
31
0.0000000000
11
7.6944043904
21
-40.7659345376
31
0.0000000000
11
7.6333086168
21
-40.9255181703
31
0.0000000000
11
7.5345732155
21
-41.0531831934
31
0.0000000000
11
7.4031099778
21
-41.1423387193
31
0.0000000000
11
7.2453792655
21
-41.1884214331
31
0.0000000000
11
7.0692842901
21
-41.1889275369
31
0.0000000000
11
6.8844590240
21
-41.1439342593
31
0.0000000000
0
SPLINE
5
38A
100
AcDbEntity
8
0
100
AcDbSpline
62
7
6
CONTINUOUS
70
0
71
3
72
12
73
8
74
6
42
0.0000001000
43
0.0000001000
44
0.0000000001
12
-26.3094220879
22
9.4759820030
32
0.0000000000
13
-23.0625807224
23
15.8162419898
33
0.0000000000
40
0.0000000000
40
0.0000000000
40
0.0000000000
40
0.0000000000
40
0.2183108178
40
0.4295422743
40
0.6331612297
40
0.8287405559
40
1.0000000000
40
1.0000000000
40
1.0000000000
40
1.0000000000
10
6.8844590240
20
-41.1439342593
30
0.0000000000
10
4.9699152068
20
-40.4543644658
30
0.0000000000
10
1.2311965099
20
-39.0171206218
30
0.0000000000
10
-4.1761054693
20
-36.6467674054
30
0.0000000000
10
-9.2702265194
20
-34.1060185924
30
0.0000000000
10
-13.8971763912
20
-31.4804896931
30
0.0000000000
10
-16.7745546465
20
-29.6288724324
30
0.0000000000
10
-18.0911162313
20
-28.7259788287
30
0.0000000000
11
6.8844590240
21
-41.1439342593
31
0.0000000000
11
1.1877516864
21
-38.9493075798
31
0.0000000000
11
-4.2201416125
21
-36.5732520611
31
0.0000000000
11
-9.3129947315
21
-34.0268299067
31
0.0000000000
11
-14.0665688673
21
-31.3221560968
31
0.0000000000
11
-18.0911162313
21
-28.7259788287
31
0.0000000000
0
SPLINE
5
38B
100
AcDbEntity
8
0
100
AcDbSpline
62
7
6
CONTINUOUS
70
0
71
3
72
8
73
4
74
2
42
0.0000001000
43
0.0000001000
44
0.0000000001
12
-0.3685410566
22
0.2527442442
32
0.0000000000
13
-0.3671306151
23
0.2547605146
33
0.0000000000
40
0.0000000000
40
0.0000000000
40
0.0000000000
40
0.0000000000
40
1.0000000000
40
1.0000000000
40
1.0000000000
40
1.0000000000
10
-18.0911162313
20
-28.7259788287
30
0.0000000000
10
-18.2139632502
20
-28.6417307473
30
0.0000000000
10
-18.3365773820
20
-28.5571477920
30
0.0000000000
10
-18.4589542537
20
-28.4722276204
30
0.0000000000
11
-18.0911162313
21
-28.7259788287
31
0.0000000000
11
-18.4589542537
21
-28.4722276204
31
0.0000000000
0
SPLINE
5
38C
100
AcDbEntity
8
0
100
AcDbSpline
62
7
6
CONTINUOUS
70
0
71
3
72
14
73
10
74
8
42
0.0000001000
43
0.0000001000
44
0.0000000001
12
-1.1897235558
22
0.8259045890
32
0.0000000000
13
-0.0002296565
23
1.4482957144
33
0.0000000000
40
0.0000000000
40
0.0000000000
40
0.0000000000
40
0.0000000000
40
0.1208985999
40
0.2571022364
40
0.4044150526
40
0.5578864184
40
0.7120846768
40
0.8613200367
40
1.0000000000
40
1.0000000000
40
1.0000000000
40
1.0000000000
10
-18.4589542537
20
-28.4722276204
30
0.0000000000
10
-18.5068995577
20
-28.4389440510
30
0.0000000000
10
-18.6008508816
20
-28.3564660557
30
0.0000000000
10
-18.7249879290
20
-28.2049803865
30
0.0000000000
10
-18.8359170853
20
-28.0248555181
30
0.0000000000
10
-18.9282321051
20
-27.8250215313
30
0.0000000000
10
-18.9976961865
20
-27.6151548279
30
0.0000000000
10
-19.0411326068
20
-27.4057096323
30
0.0000000000
10
-19.0520343482
20
-27.2666106192
30
0.0000000000
10
-19.0520449644
20
-27.1996607536
30
0.0000000000
11
-18.4589542537
21
-28.4722276204
31
0.0000000000
11
-18.5919340201
21
-28.3583183788
31
0.0000000000
11
-18.7181030758
21
-28.2066802637
31
0.0000000000
11
-18.8306776725
21
-28.0254448939
31
0.0000000000
11
-18.9241905894
21
-27.8238012909
31
0.0000000000
11
-18.9942361364
21
-27.6117457937
31
0.0000000000
11
-19.0374988380
21
-27.3999829233
31
0.0000000000
11
-19.0520449644
21
-27.1996607536
31
0.0000000000
0
SPLINE
5
38D
100
AcDbEntity
8
0
100
AcDbSpline
62
7
6
CONTINUOUS
70
0
71
3
72
9
73
5
74
3
42
0.0000001000
43
0.0000001000
44
0.0000000001
12
-0.1940284388
22
-0.0994507854
32
0.0000000000
13
-0.2172801800
23
-0.0186490263
33
0.0000000000
40
0.0000000000
40
0.0000000000
40
0.0000000000
40
0.0000000000
40
0.6743154431
40
1.0000000000
40
1.0000000000
40
1.0000000000
40
1.0000000000
10
2.9639441740
20
-28.1994366889
30
0.0000000000
10
2.9203320497
20
-28.2217904224
30
0.0000000000
10
2.8509361654
20
-28.2459540779
30
0.0000000000
10
2.7788649700
20
-28.2563048281
30
0.0000000000
10
2.7552767036
20
-28.2583293947
30
0.0000000000
11
2.9639441740
21
-28.1994366889
31
0.0000000000
11
2.8255261493
21
-28.2480975283
31
0.0000000000
11
2.7552767036
21
-28.2583293947
31
0.0000000000
0
SPLINE
5
38E
100
AcDbEntity
8
0
100
AcDbSpline
62
7
6
CONTINUOUS
70
0
71
3
72
8
73
4
74
2
42
0.0000001000
43
0.0000001000
44
0.0000000001
12
-0.0729003740
22
-0.0062569950
32
0.0000000000
13
-0.0730867294
23
0.0019279828
33
0.0000000000
40
0.0000000000
40
0.0000000000
40
0.0000000000
40
0.0000000000
40
1.0000000000
40
1.0000000000
40
1.0000000000
40
1.0000000000
10
2.7552767036
20
-28.2583293947
30
0.0000000000
10
2.7309765790
20
-28.2604150597
30
0.0000000000
10
2.7065535690
20
-28.2610717141
30
0.0000000000
10
2.6821913259
20
-28.2604290531
30
0.0000000000
11
2.7552767036
21
-28.2583293947
31
0.0000000000
11
2.6821913259
21
-28.2604290531
31
0.0000000000
0
SPLINE
5
38F
100
AcDbEntity
8
0
100
AcDbSpline
62
7
6
CONTINUOUS
70
0
71
3
72
8
73
4
74
2
42
0.0000001000
43
0.0000001000
44
0.0000000001
12
-0.0757852131
22
0.0019991671
32
0.0000000000
13
-0.0747789278
23
0.0099475668
33
0.0000000000
40
0.0000000000
40
0.0000000000
40
0.0000000000
40
0.0000000000
40
1.0000000000
40
1.0000000000
40
1.0000000000
40
1.0000000000
10
2.6821913259
20
-28.2604290531
30
0.0000000000
10
2.6569295882
20
-28.2597626641
30
0.0000000000
10
2.6317331874
20
-28.2576992428
30
0.0000000000
10
2.6068068781
20
-28.2543833872
30
0.0000000000
11
2.6821913259
21
-28.2604290531
31
0.0000000000
11
2.6068068781
21
-28.2543833872
31
0.0000000000
0
SPLINE
5
390
100
AcDbEntity
8
0
100
AcDbSpline
62
7
6
CONTINUOUS
70
0
71
3
72
8
73
4
74
2
42
0.0000001000
43
0.0000001000
44
0.0000000001
12
-0.0910533815
22
0.0867318365
32
0.0000000000
13
-0.0831609133
23
0.0945732016
33
0.0000000000
40
0.0000000000
40
0.0000000000
40
0.0000000000
40
0.0000000000
40
1.0000000000
40
1.0000000000
40
1.0000000000
40
1.0000000000
10
-15.1797458924
20
-19.5150534179
30
0.0000000000
10
-15.2100970195
20
-19.4861428058
30
0.0000000000
10
-15.2390956155
20
-19.4557862121
30
0.0000000000
10
-15.2668159199
20
-19.4242618116
30
0.0000000000
11
-15.1797458924
21
-19.5150534179
31
0.0000000000
11
-15.2668159199
21
-19.4242618116
31
0.0000000000
0
SPLINE
5
391
100
AcDbEntity
8
0
100
AcDbSpline
62
7
6
CONTINUOUS
70
0
71
3
72
8
73
4
74
2
42
0.0000001000
43
0.0000001000
44
0.0000000001
12
-0.1072482873
22
0.1219661195
32
0.0000000000
13
-0.0949697446
23
0.1318298420
33
0.0000000000
40
0.0000000000
40
0.0000000000
40
0.0000000000
40
0.0000000000
40
1.0000000000
40
1.0000000000
40
1.0000000000
40
1.0000000000
10
-15.2668159199
20
-19.4242618116
30
0.0000000000
10
-15.3025653490
20
-19.3836064384
30
0.0000000000
10
-15.3361887347
20
-19.3410087789
30
0.0000000000
10
-15.3678453163
20
-19.2970654982
30
0.0000000000
11
-15.2668159199
21
-19.4242618116
31
0.0000000000
11
-15.3678453163
21
-19.2970654982
31
0.0000000000
0
SPLINE
5
392
100
AcDbEntity
8
0
100
AcDbSpline
62
7
6
CONTINUOUS
70
0
71
3
72
10
73
6
74
4
42
0.0000001000
43
0.0000001000
44
0.0000000001
12
-0.5558913935
22
0.7716465373
32
0.0000000000
13
-0.1628912906
23
0.9367266771
33
0.0000000000
40
0.0000000000
40
0.0000000000
40
0.0000000000
40
0.0000000000
40
0.3295299964
40
0.6681714288
40
1.0000000000
40
1.0000000000
40
1.0000000000
40
1.0000000000
10
-15.3678453163
20
-19.2970654982
30
0.0000000000
10
-15.4289062792
20
-19.2123052713
30
0.0000000000
10
-15.5378792808
20
-19.0302900705
30
0.0000000000
10
-15.6599606852
20
-18.7371479662
30
0.0000000000
10
-15.7131184188
20
-18.5310597757
30
0.0000000000
10
-15.7311357469
20
-18.4274488841
30
0.0000000000
11
-15.3678453163
21
-19.2970654982
31
0.0000000000
11
-15.5297284164
21
-19.0294024185
31
0.0000000000
11
-15.6534723362
21
-18.7327157867
31
0.0000000000
11
-15.7311357469
21
-18.4274488841
31
0.0000000000
0
SPLINE
5
393
100
AcDbEntity
8
0
100
AcDbSpline
62
7
6
CONTINUOUS
70
0
71
3
72
8
73
4
74
2
42
0.0000001000
43
0.0000001000
44
0.0000000001
12
-0.0336573668
22
0.1935508843
32
0.0000000000
13
-0.0120895976
23
0.1959512462
33
0.0000000000
40
0.0000000000
40
0.0000000000
40
0.0000000000
40
0.0000000000
40
1.0000000000
40
1.0000000000
40
1.0000000000
40
1.0000000000
10
-15.7311357469
20
-18.4274488841
30
0.0000000000
10
-15.7423548692
20
-18.3629319226
30
0.0000000000
10
-15.7503590866
20
-18.2977892081
30
0.0000000000
10
-15.7543889525
20
-18.2324721261
30
0.0000000000
11
-15.7311357469
21
-18.4274488841
31
0.0000000000
11
-15.7543889525
21
-18.2324721261
31
0.0000000000
0
SPLINE
5
394
100
AcDbEntity
8
0
100
AcDbSpline
62
7
6
CONTINUOUS
70
0
71
3
72
8
73
4
74
2
42
0.0000001000
43
0.0000001000
44
0.0000000001
12
-0.0058524599
22
0.0948581448
32
0.0000000000
13
-0.0000058125
23
0.0949496962
33
0.0000000000
40
0.0000000000
40
0.0000000000
40
0.0000000000
40
0.0000000000
40
1.0000000000
40
1.0000000000
40
1.0000000000
40
1.0000000000
10
-15.7543889525
20
-18.2324721261
30
0.0000000000
10
-15.7563397724
20
-18.2008527445
30
0.0000000000
10
-15.7573592283
20
-18.1691925009
30
0.0000000000
10
-15.7573611659
20
-18.1375426022
30
0.0000000000
11
-15.7543889525
21
-18.2324721261
31
0.0000000000
11
-15.7573611659
21
-18.1375426022
31
0.0000000000
0
SPLINE
5
395
100
AcDbEntity
8
0
100
AcDbSpline
62
7
6
CONTINUOUS
70
0
71
3
72
10
73
6
74
4
42
0.0000001000
43
0.0000001000
44
0.0000000001
12
-0.0225421442
22
0.1153322528
32
0.0000000000
13
0.0737371614
23
0.0940613072
33
0.0000000000
40
0.0000000000
40
0.0000000000
40
0.0000000000
40
0.0000000000
40
0.4383801492
40
0.8717852183
40
1.0000000000
40
1.0000000000
40
1.0000000000
40
1.0000000000
10
2.5612712787
20
-28.3855619457
30
0.0000000000
10
2.5579772692
20
-28.3687088223
30
0.0000000000
10
2.5580923867
20
-28.3337126139
30
0.0000000000
10
2.5704052466
20
-28.2959979892
30
0.0000000000
10
2.5828904226
20
-28.2772437602
30
0.0000000000
10
2.5860418206
20
-28.2732237435
30
0.0000000000
11
2.5612712787
21
-28.3855619457
31
0.0000000000
11
2.5607781933
21
-28.3340482458
31
0.0000000000
11
2.5774801271
21
-28.2859332330
31
0.0000000000
11
2.5860418206
21
-28.2732237435
31
0.0000000000
0
SPLINE
5
396
100
AcDbEntity
8
0
100
AcDbSpline
62
7
6
CONTINUOUS
70
0
71
3
72
8
73
4
74
2
42
0.0000001000
43
0.0000001000
44
0.0000000001
12
0.0091659085
22
0.0116923043
32
0.0000000000
13
0.0108935312
23
0.0098486759
33
0.0000000000
40
0.0000000000
40
0.0000000000
40
0.0000000000
40
0.0000000000
40
1.0000000000
40
1.0000000000
40
1.0000000000
40
1.0000000000
10
2.5860418206
20
-28.2732237435
30
0.0000000000
10
2.5890971234
20
-28.2693263088
30
0.0000000000
10
2.5924354431
20
-28.2656746436
30
0.0000000000
10
2.5960666202
20
-28.2623917517
30
0.0000000000
11
2.5860418206
21
-28.2732237435
31
0.0000000000
11
2.5960666202
21
-28.2623917517
31
0.0000000000
0
SPLINE
5
397
100
AcDbEntity
8
0
100
AcDbSpline
62
7
6
CONTINUOUS
70
0
71
3
72
8
73
4
74
2
42
0.0000001000
43
0.0000001000
44
0.0000000001
12
0.0099932349
22
0.0090347317
32
0.0000000000
13
0.0114947327
23
0.0068878344
33
0.0000000000
40
0.0000000000
40
0.0000000000
40
0.0000000000
40
0.0000000000
40
1.0000000000
40
1.0000000000
40
1.0000000000
40
1.0000000000
10
2.5960666202
20
-28.2623917517
30
0.0000000000
10
2.5993976985
20
-28.2593801745
30
0.0000000000
10
2.6029752280
20
-28.2566789347
30
0.0000000000
10
2.6068068056
20
-28.2543829899
30
0.0000000000
11
2.5960666202
21
-28.2623917517
31
0.0000000000
11
2.6068068056
21
-28.2543829899
31
0.0000000000
0
SPLINE
5
398
100
AcDbEntity
8
0
100
AcDbSpline
62
7
6
CONTINUOUS
70
0
71
3
72
9
73
5
74
3
42
0.0000001000
43
0.0000001000
44
0.0000000001
12
-0.0526312798
22
0.0206285653
32
0.0000000000
13
-0.0024212315
23
0.0585043115
33
0.0000000000
40
0.0000000000
40
0.0000000000
40
0.0000000000
40
0.0000000000
40
0.6974120486
40
1.0000000000
40
1.0000000000
40
1.0000000000
40
1.0000000000
10
3.2918523822
20
-27.6621494518
30
0.0000000000
10
3.2796171527
20
-27.6573539151
30
0.0000000000
10
3.2606001539
20
-27.6485446715
30
0.0000000000
10
3.2546311733
20
-27.6287192042
30
0.0000000000
10
3.2543869614
20
-27.6228183042
30
0.0000000000
11
3.2918523822
21
-27.6621494518
31
0.0000000000
11
3.2594381261
21
-27.6397084597
31
0.0000000000
11
3.2543869614
21
-27.6228183042
31
0.0000000000
0
SPLINE
5
399
100
AcDbEntity
8
0
100
AcDbSpline
62
7
6
CONTINUOUS
70
0
71
3
72
9
73
5
74
3
42
0.0000001000
43
0.0000001000
44
0.0000000001
12
-0.0526788750
22
0.0206472101
32
0.0000000000
13
-0.0023326878
23
0.0585502757
33
0.0000000000
40
0.0000000000
40
0.0000000000
40
0.0000000000
40
0.0000000000
40
0.6967033999
40
1.0000000000
40
1.0000000000
40
1.0000000000
40
1.0000000000
10
3.2918523822
20
15.2554957930
30
0.0000000000
10
3.2796185318
20
15.2602907868
30
0.0000000000
10
3.2605853790
20
15.2691071925
30
0.0000000000
10
3.2546204777
20
15.2889606243
30
0.0000000000
10
3.2543846456
20
15.2948799908
30
0.0000000000
11
3.2918523822
21
15.2554957930
31
0.0000000000
11
3.2594408794
21
15.2779329506
31
0.0000000000
11
3.2543846456
21
15.2948799908
31
0.0000000000
0
SPLINE
5
39A
100
AcDbEntity
8
0
100
AcDbSpline
62
7
6
CONTINUOUS
70
0
71
3
72
9
73
5
74
3
42
0.0000001000
43
0.0000001000
44
0.0000000001
12
-0.0104422279
22
-0.0450530184
32
0.0000000000
13
0.0391245349
23
-0.0282590512
33
0.0000000000
40
0.0000000000
40
0.0000000000
40
0.0000000000
40
0.0000000000
40
0.7273990762
40
1.0000000000
40
1.0000000000
40
1.0000000000
40
1.0000000000
10
2.5612749330
20
16.5565258026
30
0.0000000000
10
2.5587430440
20
16.5456019612
30
0.0000000000
10
2.5546273905
20
16.5284619767
30
0.0000000000
10
2.5656622011
20
16.5155225663
30
0.0000000000
10
2.5692173292
20
16.5129547519
30
0.0000000000
11
2.5612749330
21
16.5565258026
31
0.0000000000
11
2.5607718521
21
16.5228893068
31
0.0000000000
11
2.5692173292
21
16.5129547519
31
0.0000000000
0
SPLINE
5
39B
100
AcDbEntity
8
0
100
AcDbSpline
62
7
6
CONTINUOUS
70
0
71
3
72
9
73
5
74
3
42
0.0000001000
43
0.0000001000
44
0.0000000001
12
0.0127741281
22
-0.0835876700
32
0.0000000000
13
0.0818447212
23
-0.0249714275
33
0.0000000000
40
0.0000000000
40
0.0000000000
40
0.0000000000
40
0.0000000000
40
0.5487632650
40
1.0000000000
40
1.0000000000
40
1.0000000000
40
1.0000000000
10
-15.1797457812
20
25.4270319868
30
0.0000000000
10
-15.1774091238
20
25.4117420392
30
0.0000000000
10
-15.1671173893
20
25.3838532596
30
0.0000000000
10
-15.1426795321
20
25.3662069448
30
0.0000000000
10
-15.1303690838
20
25.3624509363
30
0.0000000000
11
-15.1797457812
21
25.4270319868
31
0.0000000000
11
-15.1618536929
21
25.3842177911
31
0.0000000000
11
-15.1303690838
21
25.3624509363
31
0.0000000000
0
SPLINE
5
39C
100
AcDbEntity
8
0
100
AcDbSpline
62
7
6
CONTINUOUS
70
0
71
3
72
10
73
6
74
4
42
0.0000001000
43
0.0000001000
44
0.0000000001
12
0.0884909733
22
-0.0564435418
32
0.0000000000
13
0.1049881244
23
0.0124552746
33
0.0000000000
40
0.0000000000
40
0.0000000000
40
0.0000000000
40
0.0000000000
40
0.4546374293
40
0.9811958785
40
1.0000000000
40
1.0000000000
40
1.0000000000
40
1.0000000000
10
-15.7573611659
20
24.7801024744
30
0.0000000000
10
-15.7439507297
20
24.7715486921
30
0.0000000000
10
-15.7101425880
20
24.7610988699
30
0.0000000000
10
-15.6750147587
20
24.7600877351
30
0.0000000000
10
-15.6559240913
20
24.7622558072
30
0.0000000000
10
-15.6552660215
20
24.7623338774
30
0.0000000000
11
-15.7573611659
21
24.7801024744
31
0.0000000000
11
-15.7124791898
21
24.7638953422
31
0.0000000000
11
-15.6572406645
21
24.7621095299
31
0.0000000000
11
-15.6552660215
21
24.7623338774
31
0.0000000000
0
SPLINE
5
39D
100
AcDbEntity
8
0
100
AcDbSpline
62
7
6
CONTINUOUS
70
0
71
3
72
9
73
5
74
3
42
0.0000001000
43
0.0000001000
44
0.0000000001
12
0.0835777327
22
-0.0533096351
32
0.0000000000
13
0.0992380855
23
0.0088693534
33
0.0000000000
40
0.0000000000
40
0.0000000000
40
0.0000000000
40
0.0000000000
40
0.4812866027
40
1.0000000000
40
1.0000000000
40
1.0000000000
40
1.0000000000
10
-15.7573611659
20
-18.1375426022
30
0.0000000000
10
-15.7439528848
20
-18.1460950066
30
0.0000000000
10
-15.7114105064
20
-18.1561548448
30
0.0000000000
10
-15.6782567691
20
-18.1574510326
30
0.0000000000
10
-15.6610980610
20
-18.1559174817
30
0.0000000000
11
-15.7573611659
21
-18.1375426022
31
0.0000000000
11
-15.7124868501
21
-18.1537483534
31
0.0000000000
11
-15.6610980610
21
-18.1559174817
31
0.0000000000
0
SPLINE
5
39E
100
AcDbEntity
8
0
100
AcDbSpline
62
7
6
CONTINUOUS
70
0
71
3
72
8
73
4
74
2
42
0.0000001000
43
0.0000001000
44
0.0000000001
12
-0.1044581821
22
0.0145071120
32
0.0000000000
13
-0.1044113557
23
0.0148768787
33
0.0000000000
40
0.0000000000
40
0.0000000000
40
0.0000000000
40
0.0000000000
40
1.0000000000
40
1.0000000000
40
1.0000000000
40
1.0000000000
10
2.5612712114
20
-28.3855619878
30
0.0000000000
10
2.5264518174
20
-28.3807262839
30
0.0000000000
10
2.4916400960
20
-28.3758289332
30
0.0000000000
10
2.4568363108
20
-28.3708699736
30
0.0000000000
11
2.5612712114
21
-28.3855619878
31
0.0000000000
11
2.4568363108
21
-28.3708699736
31
0.0000000000
0
SPLINE
5
39F
100
AcDbEntity
8
0
100
AcDbSpline
62
7
6
CONTINUOUS
70
0
71
3
72
15
73
11
74
9
42
0.0000001000
43
0.0000001000
44
0.0000000001
12
-19.8560740393
22
2.8291597460
32
0.0000000000
13
-14.5195083033
23
13.8351897262
33
0.0000000000
40
0.0000000000
40
0.0000000000
40
0.0000000000
40
0.0000000000
40
0.1315879122
40
0.2543632988
40
0.3671116341
40
0.4812769317
40
0.5974705697
40
0.7163256555
40
0.8487932835
40
1.0000000000
40
1.0000000000
40
1.0000000000
40
1.0000000000
10
2.4568363108
20
-28.3708699736
30
0.0000000000
10
1.5858965347
20
-28.2467755655
30
0.0000000000
10
-0.0880490098
20
-27.9323204197
30
0.0000000000
10
-2.4549175730
20
-27.2736190707
30
0.0000000000
10
-4.6531133969
20
-26.4716643208
30
0.0000000000
10
-6.7456798864
20
-25.5271829831
30
0.0000000000
10
-8.7987448789
20
-24.4114602894
30
0.0000000000
10
-10.8690658591
20
-23.0845999684
30
0.0000000000
10
-13.0234396869
20
-21.4680311599
30
0.0000000000
10
-14.4479301672
20
-20.2123779547
30
0.0000000000
10
-15.1797458924
20
-19.5150534179
30
0.0000000000
11
2.4568363108
21
-28.3708699736
31
0.0000000000
11
-0.1369454223
21
-27.8834385281
31
0.0000000000
11
-2.5092523714
21
-27.2236875425
31
0.0000000000
11
-4.6337146050
21
-26.4491777670
31
0.0000000000
11
-6.7208748710
21
-25.5077453585
31
0.0000000000
11
-8.7689779236
21
-24.3961039246
31
0.0000000000
11
-10.7765775679
21
-23.1109430102
31
0.0000000000
11
-12.9027008849
21
-21.5179033673
31
0.0000000000
11
-15.1797458924
21
-19.5150534179
31
0.0000000000
0
SPLINE
5
3A0
100
AcDbEntity
8
0
100
AcDbSpline
62
7
6
CONTINUOUS
70
0
71
3
72
8
73
4
74
2
42
0.0000001000
43
0.0000001000
44
0.0000000001
12
0.0000352102
22
-0.1791592582
32
0.0000000000
13
-0.0313149712
23
-0.1770704378
33
0.0000000000
40
0.0000000000
40
0.0000000000
40
0.0000000000
40
0.0000000000
40
1.0000000000
40
1.0000000000
40
1.0000000000
40
1.0000000000
10
3.2918523822
20
-27.6621494518
30
0.0000000000
10
3.2918641189
20
-27.7218692045
30
0.0000000000
10
3.2871726266
20
-27.7818787812
30
0.0000000000
10
3.2767343029
20
-27.8409022605
30
0.0000000000
11
3.2918523822
21
-27.6621494518
31
0.0000000000
11
3.2767343029
21
-27.8409022605
31
0.0000000000
0
SPLINE
5
3A1
100
AcDbEntity
8
0
100
AcDbSpline
62
7
6
CONTINUOUS
70
0
71
3
72
9
73
5
74
3
42
0.0000001000
43
0.0000001000
44
0.0000000001
12
-0.0562856970
22
-0.3182673536
32
0.0000000000
13
-0.1836363976
23
-0.2665237133
33
0.0000000000
40
0.0000000000
40
0.0000000000
40
0.0000000000
40
0.0000000000
40
0.2601674297
40
1.0000000000
40
1.0000000000
40
1.0000000000
40
1.0000000000
10
3.2767343029
20
-27.8409022605
30
0.0000000000
10
3.2718530679
20
-27.8685031936
30
0.0000000000
10
3.2482608761
20
-27.9737634827
30
0.0000000000
10
3.2045259748
20
-28.0739104293
30
0.0000000000
10
3.1592392455
20
-28.1396380706
30
0.0000000000
11
3.2767343029
21
-27.8409022605
31
0.0000000000
11
3.2582138267
21
-27.9229276841
31
0.0000000000
11
3.1592392455
21
-28.1396380706
31
0.0000000000
0
SPLINE
5
3A2
100
AcDbEntity
8
0
100
AcDbSpline
62
7
6
CONTINUOUS
70
0
71
3
72
8
73
4
74
2
42
0.0000001000
43
0.0000001000
44
0.0000000001
12
-0.1095475234
22
-0.1589936043
32
0.0000000000
13
-0.1547322750
23
-0.1155115459
33
0.0000000000
40
0.0000000000
40
0.0000000000
40
0.0000000000
40
0.0000000000
40
1.0000000000
40
1.0000000000
40
1.0000000000
40
1.0000000000
10
3.1592392455
20
-28.1396380706
30
0.0000000000
10
3.1227234043
20
-28.1926359387
30
0.0000000000
10
3.0778008393
20
-28.2401956472
30
0.0000000000
10
3.0262234143
20
-28.2786994958
30
0.0000000000
11
3.1592392455
21
-28.1396380706
31
0.0000000000
11
3.0262234143
21
-28.2786994958
31
0.0000000000
0
SPLINE
5
3A3
100
AcDbEntity
8
0
100
AcDbSpline
62
7
6
CONTINUOUS
70
0
71
3
72
8
73
4
74
2
42
0.0000001000
43
0.0000001000
44
0.0000000001
12
-0.0237256492
22
-0.0177117956
32
0.0000000000
13
-0.0246454842
23
-0.0163951860
33
0.0000000000
40
0.0000000000
40
0.0000000000
40
0.0000000000
40
0.0000000000
40
1.0000000000
40
1.0000000000
40
1.0000000000
40
1.0000000000
10
3.0262234143
20
-28.2786994958
30
0.0000000000
10
3.0183148645
20
-28.2846034276
30
0.0000000000
10
3.0102498512
20
-28.2902944456
30
0.0000000000
10
3.0020346898
20
-28.2957595076
30
0.0000000000
11
3.0262234143
21
-28.2786994958
31
0.0000000000
11
3.0020346898
21
-28.2957595076
31
0.0000000000
0
SPLINE
5
3A4
100
AcDbEntity
8
0
100
AcDbSpline
62
7
6
CONTINUOUS
70
0
71
3
72
9
73
5
74
3
42
0.0000001000
43
0.0000001000
44
0.0000000001
12
-0.3827768946
22
-0.2546388754
32
0.0000000000
13
-0.4531401250
23
0.0628842075
33
0.0000000000
40
0.0000000000
40
0.0000000000
40
0.0000000000
40
0.0000000000
40
0.4842559667
40
1.0000000000
40
1.0000000000
40
1.0000000000
40
1.0000000000
10
3.0020346898
20
-28.2957595076
30
0.0000000000
10
2.9402473581
20
-28.3368629725
30
0.0000000000
10
2.7951157961
20
-28.3953479754
30
0.0000000000
10
2.6391726500
20
-28.3963727061
30
0.0000000000
10
2.5612712114
20
-28.3855619878
30
0.0000000000
11
3.0020346898
21
-28.2957595076
31
0.0000000000
11
2.7971503504
21
-28.3800317412
31
0.0000000000
11
2.5612712114
21
-28.3855619878
31
0.0000000000
0
SPLINE
5
3A5
100
AcDbEntity
8
0
100
AcDbSpline
62
7
6
CONTINUOUS
70
0
71
3
72
8
73
4
74
2
42
0.0000001000
43
0.0000001000
44
0.0000000001
12
0.0844846462
22
-0.0556164197
32
0.0000000000
13
0.0804319493
23
-0.0615618240
33
0.0000000000
40
0.0000000000
40
0.0000000000
40
0.0000000000
40
0.0000000000
40
1.0000000000
40
1.0000000000
40
1.0000000000
40
1.0000000000
10
2.5612712154
20
16.5565234731
30
0.0000000000
10
2.5894327642
20
16.5379846665
30
0.0000000000
10
2.6169310478
20
16.5183998959
30
0.0000000000
10
2.6437416976
20
16.4978792879
30
0.0000000000
11
2.5612712154
21
16.5565234731
31
0.0000000000
11
2.6437416976
21
16.4978792879
31
0.0000000000
0
SPLINE
5
3A6
100
AcDbEntity
8
0
100
AcDbSpline
62
7
6
CONTINUOUS
70
0
71
3
72
8
73
4
74
2
42
0.0000001000
43
0.0000001000
44
0.0000000001
12
0.0809128345
22
-0.0619298888
32
0.0000000000
13
0.0766631236
23
-0.0672759146
33
0.0000000000
40
0.0000000000
40
0.0000000000
40
0.0000000000
40
0.0000000000
40
1.0000000000
40
1.0000000000
40
1.0000000000
40
1.0000000000
10
2.6437416976
20
16.4978792879
30
0.0000000000
10
2.6707126424
20
16.4772359916
30
0.0000000000
10
2.6969877063
20
16.4556456342
30
0.0000000000
10
2.7225420809
20
16.4332203293
30
0.0000000000
11
2.6437416976
21
16.4978792879
31
0.0000000000
11
2.7225420809
21
16.4332203293
31
0.0000000000
0
SPLINE
5
3A7
100
AcDbEntity
8
0
100
AcDbSpline
62
7
6
CONTINUOUS
70
0
71
3
72
12
73
8
74
6
42
0.0000001000
43
0.0000001000
44
0.0000000001
12
0.8685406812
22
-0.7621900333
32
0.0000000000
13
0.1768244185
23
-1.1426197165
33
0.0000000000
40
0.0000000000
40
0.0000000000
40
0.0000000000
40
0.0000000000
40
0.0892401773
40
0.3670076635
40
0.6455227585
40
0.9151364193
40
1.0000000000
40
1.0000000000
40
1.0000000000
40
1.0000000000
10
2.7225420809
20
16.4332203293
30
0.0000000000
10
2.7483783223
20
16.4105476714
30
0.0000000000
10
2.8516023779
20
16.3137945183
30
0.0000000000
10
3.0104834532
20
16.1216746148
30
0.0000000000
10
3.1669869754
20
15.8435434854
30
0.0000000000
10
3.2460254076
20
15.6120586582
30
0.0000000000
10
3.2718184417
20
15.4777556553
30
0.0000000000
10
3.2768204261
20
15.4454333884
30
0.0000000000
11
2.7225420809
21
16.4332203293
31
0.0000000000
11
2.7978151400
21
16.3627578160
31
0.0000000000
11
3.0024446984
21
16.1164680006
31
0.0000000000
11
3.1595272916
21
15.8364507534
31
0.0000000000
11
3.2584099586
21
15.5417935298
31
0.0000000000
11
3.2768204261
21
15.4454333884
31
0.0000000000
0
SPLINE
5
3A8
100
AcDbEntity
8
0
100
AcDbSpline
62
7
6
CONTINUOUS
70
0
71
3
72
8
73
4
74
2
42
0.0000001000
43
0.0000001000
44
0.0000000001
12
0.0229369727
22
-0.1482161650
32
0.0000000000
13
0.0052671970
23
-0.1495393721
33
0.0000000000
40
0.0000000000
40
0.0000000000
40
0.0000000000
40
0.0000000000
40
1.0000000000
40
1.0000000000
40
1.0000000000
40
1.0000000000
10
3.2768204261
20
15.4454333884
30
0.0000000000
10
3.2844660837
20
15.3960280001
30
0.0000000000
10
3.2893711725
20
15.3462266574
30
0.0000000000
10
3.2911269048
20
15.2963802001
30
0.0000000000
11
3.2768204261
21
15.4454333884
31
0.0000000000
11
3.2911269048
21
15.2963802001
31
0.0000000000
0
SPLINE
5
3A9
100
AcDbEntity
8
0
100
AcDbSpline
62
7
6
CONTINUOUS
70
0
71
3
72
8
73
4
74
2
42
0.0000001000
43
0.0000001000
44
0.0000000001
12
0.0014399599
22
-0.0408814601
32
0.0000000000
13
0.0000026425
23
-0.0408801857
33
0.0000000000
40
0.0000000000
40
0.0000000000
40
0.0000000000
40
0.0000000000
40
1.0000000000
40
1.0000000000
40
1.0000000000
40
1.0000000000
10
3.2911269048
20
15.2963802001
30
0.0000000000
10
3.2916068915
20
15.2827530467
30
0.0000000000
10
3.2918515014
20
15.2691225215
30
0.0000000000
10
3.2918523822
20
15.2554957930
30
0.0000000000
11
3.2911269048
21
15.2963802001
31
0.0000000000
11
3.2918523822
21
15.2554957930
31
0.0000000000
0
SPLINE
5
3AA
100
AcDbEntity
8
0
100
AcDbSpline
62
7
6
CONTINUOUS
70
0
71
3
72
8
73
4
74
2
42
0.0000001000
43
0.0000001000
44
0.0000000001
12
0.0637754025
22
-0.0192090853
32
0.0000000000
13
0.0637418597
23
-0.0193222269
33
0.0000000000
40
0.0000000000
40
0.0000000000
40
0.0000000000
40
0.0000000000
40
1.0000000000
40
1.0000000000
40
1.0000000000
40
1.0000000000
10
-15.1797458669
20
25.4270319526
30
0.0000000000
10
-15.1584873994
20
25.4206289242
30
0.0000000000
10
-15.1372345226
20
25.4142069831
30
0.0000000000
10
-15.1159872360
20
25.4077662408
30
0.0000000000
11
-15.1797458669
21
25.4270319526
31
0.0000000000
11
-15.1159872360
21
25.4077662408
31
0.0000000000
0
SPLINE
5
3AB
100
AcDbEntity
8
0
100
AcDbSpline
62
7
6
CONTINUOUS
70
0
71
3
72
15
73
11
74
9
42
0.0000001000
43
0.0000001000
44
0.0000000001
12
18.9794800288
22
-5.7532965367
32
0.0000000000
13
16.5633084520
23
-10.9073648541
33
0.0000000000
40
0.0000000000
40
0.0000000000
40
0.0000000000
40
0.0000000000
40
0.1154051218
40
0.2283248234
40
0.3370431622
40
0.4511575793
40
0.5698536331
40
0.6941471964
40
0.8357519440
40
1.0000000000
40
1.0000000000
40
1.0000000000
40
1.0000000000
10
-15.1159872360
20
25.4077662408
30
0.0000000000
10
-14.3858775011
20
25.1864462783
30
0.0000000000
10
-12.9544415169
20
24.7046505438
30
0.0000000000
10
-10.8794408897
20
23.8912679498
30
0.0000000000
10
-8.8462034960
20
22.9998827654
30
0.0000000000
10
-6.8103820554
20
22.0227901550
30
0.0000000000
10
-4.7154105550
20
20.9338586857
30
0.0000000000
10
-2.4942651423
20
19.6960220484
30
0.0000000000
10
-0.0508802253
20
18.2406931603
30
0.0000000000
10
1.6544408105
20
17.1536946310
30
0.0000000000
10
2.5612712154
20
16.5565234731
30
0.0000000000
11
-15.1159872360
21
25.4077662408
31
0.0000000000
11
-12.9454401385
21
24.6817226719
31
0.0000000000
11
-10.8593697090
21
23.8672296358
31
0.0000000000
11
-8.8839123167
21
23.0032793006
31
0.0000000000
11
-6.8429701132
21
22.0253597899
31
0.0000000000
11
-4.7535402490
21
20.9411163567
31
0.0000000000
11
-2.5997582100
21
19.7421649664
31
0.0000000000
11
-0.1863684891
21
18.3061145769
31
0.0000000000
11
2.5612712154
21
16.5565234731
31
0.0000000000
0
SPLINE
5
3AC
100
AcDbEntity
8
0
100
AcDbSpline
62
7
6
CONTINUOUS
70
0
71
3
72
10
73
6
74
4
42
0.0000001000
43
0.0000001000
44
0.0000000001
12
-0.0000961832
22
0.5435360797
32
0.0000000000
13
0.3345380127
23
0.4351846259
33
0.0000000000
40
0.0000000000
40
0.0000000000
40
0.0000000000
40
0.0000000000
40
0.4755859602
40
0.8808294971
40
1.0000000000
40
1.0000000000
40
1.0000000000
40
1.0000000000
10
-15.7573611659
20
24.7801024744
30
0.0000000000
10
-15.7573764137
20
24.8662685172
30
0.0000000000
10
-15.7434147396
20
25.0266320025
30
0.0000000000
10
-15.6834884338
20
25.2001730938
30
0.0000000000
10
-15.6301258826
20
25.2803351468
30
0.0000000000
10
-15.6168368616
20
25.2976222037
30
0.0000000000
11
-15.7573611659
21
24.7801024744
31
0.0000000000
11
-15.7309818794
21
25.0372511040
31
0.0000000000
11
-15.6532458351
21
25.2433422284
31
0.0000000000
11
-15.6168368616
21
25.2976222037
31
0.0000000000
0
SPLINE
5
3AD
100
AcDbEntity
8
0
100
AcDbSpline
62
7
6
CONTINUOUS
70
0
71
3
72
9
73
5
74
3
42
0.0000001000
43
0.0000001000
44
0.0000000001
12
0.1105674349
22
0.1438319293
32
0.0000000000
13
0.1634271534
23
0.0788637797
33
0.0000000000
40
0.0000000000
40
0.0000000000
40
0.0000000000
40
0.0000000000
40
0.6775692302
40
1.0000000000
40
1.0000000000
40
1.0000000000
40
1.0000000000
10
-15.6168368616
20
25.2976222037
30
0.0000000000
10
-15.5918644976
20
25.3301075669
30
0.0000000000
10
-15.5489493275
20
25.3732079216
30
0.0000000000
10
-15.4966599953
20
25.4038215754
30
0.0000000000
10
-15.4790953476
20
25.4122976118
30
0.0000000000
11
-15.6168368616
21
25.2976222037
31
0.0000000000
11
-15.5294048217
21
25.3827818701
31
0.0000000000
11
-15.4790953476
21
25.4122976118
31
0.0000000000
0
SPLINE
5
3AE
100
AcDbEntity
8
0
100
AcDbSpline
62
7
6
CONTINUOUS
70
0
71
3
72
9
73
5
74
3
42
0.0000001000
43
0.0000001000
44
0.0000000001
12
0.1594659431
22
0.0769522491
32
0.0000000000
13
0.1766515406
23
-0.0047621584
33
0.0000000000
40
0.0000000000
40
0.0000000000
40
0.0000000000
40
0.0000000000
40
0.6613743180
40
1.0000000000
40
1.0000000000
40
1.0000000000
40
1.0000000000
10
-15.4790953476
20
25.4122976118
30
0.0000000000
10
-15.4439397879
20
25.4292623589
30
0.0000000000
10
-15.3865145012
20
25.4464650399
30
0.0000000000
10
-15.3275747535
20
25.4491233248
30
0.0000000000
10
-15.3076351707
20
25.4485857951
30
0.0000000000
11
-15.4790953476
21
25.4122976118
31
0.0000000000
11
-15.3673181188
21
25.4456552304
31
0.0000000000
11
-15.3076351707
21
25.4485857951
31
0.0000000000
0
SPLINE
5
3AF
100
AcDbEntity
8
0
100
AcDbSpline
62
7
6
CONTINUOUS
70
0
71
3
72
8
73
4
74
2
42
0.0000001000
43
0.0000001000
44
0.0000000001
12
0.0628232216
22
-0.0016935835
32
0.0000000000
13
0.0620286804
23
-0.0104084884
33
0.0000000000
40
0.0000000000
40
0.0000000000
40
0.0000000000
40
0.0000000000
40
1.0000000000
40
1.0000000000
40
1.0000000000
40
1.0000000000
10
-15.3076351707
20
25.4485857951
30
0.0000000000
10
-15.2866940969
20
25.4480212673
30
0.0000000000
10
-15.2657739017
20
25.4458709994
30
0.0000000000
10
-15.2450976749
20
25.4424015033
30
0.0000000000
11
-15.3076351707
21
25.4485857951
31
0.0000000000
11
-15.2450976749
21
25.4424015033
31
0.0000000000
0
SPLINE
5
3B0
100
AcDbEntity
8
0
100
AcDbSpline
62
7
6
CONTINUOUS
70
0
71
3
72
8
73
4
74
2
42
0.0000001000
43
0.0000001000
44
0.0000000001
12
0.0664666734
22
-0.0111531890
32
0.0000000000
13
0.0639624608
23
-0.0192580053
33
0.0000000000
40
0.0000000000
40
0.0000000000
40
0.0000000000
40
0.0000000000
40
1.0000000000
40
1.0000000000
40
1.0000000000
40
1.0000000000
10
-15.2450976749
20
25.4424015033
30
0.0000000000
10
-15.2229421171
20
25.4386837736
30
0.0000000000
10
-15.2010666871
20
25.4334512877
30
0.0000000000
10
-15.1797458669
20
25.4270319526
30
0.0000000000
11
-15.2450976749
21
25.4424015033
31
0.0000000000
11
-15.1797458669
21
25.4270319526
31
0.0000000000
0
SPLINE
5
3B1
100
AcDbEntity
8
0
100
AcDbSpline
62
7
6
CONTINUOUS
70
0
71
3
72
10
73
6
74
4
42
0.0000001000
43
0.0000001000
44
0.0000000001
12
0.0188337235
22
0.0997926889
32
0.0000000000
13
0.0790094183
23
0.0649554668
33
0.0000000000
40
0.0000000000
40
0.0000000000
40
0.0000000000
40
0.0000000000
40
0.4524706794
40
0.9665696278
40
1.0000000000
40
1.0000000000
40
1.0000000000
40
1.0000000000
10
-15.1797412298
20
-19.5150515573
30
0.0000000000
10
-15.1769006606
20
-19.5000004688
30
0.0000000000
10
-15.1625848519
20
-19.4695111991
30
0.0000000000
10
-15.1400276053
20
-19.4439596911
30
0.0000000000
10
-15.1257253334
20
-19.4319728166
30
0.0000000000
10
-15.1248448953
20
-19.4312489882
30
0.0000000000
11
-15.1797412298
21
-19.5150515573
31
0.0000000000
11
-15.1618568756
21
-19.4727244173
31
0.0000000000
11
-15.1274645594
21
-19.4334440446
31
0.0000000000
11
-15.1248448953
21
-19.4312489882
31
0.0000000000
0
SPLINE
5
3B2
100
AcDbEntity
8
0
100
AcDbSpline
62
7
6
CONTINUOUS
70
0
71
3
72
10
73
6
74
4
42
0.0000001000
43
0.0000001000
44
0.0000000001
12
3.0816476052
22
1.5735015758
32
0.0000000000
13
3.0816562191
23
1.5734847058
33
0.0000000000
40
0.0000000000
40
0.0000000000
40
0.0000000000
40
0.0000000000
40
0.3333142457
40
0.6666476020
40
1.0000000000
40
1.0000000000
40
1.0000000000
40
1.0000000000
10
7.3831316808
20
27.1595675182
30
0.0000000000
10
7.7255173632
20
27.3343910152
30
0.0000000000
10
8.4103086775
20
27.6840474079
30
0.0000000000
10
9.4375259800
20
28.2085451246
30
0.0000000000
10
10.1223577631
20
28.5582190249
30
0.0000000000
10
10.4647835933
20
28.7330606582
30
0.0000000000
11
7.3831316808
21
27.1595675182
31
0.0000000000
11
8.4102892062
21
27.6840370726
31
0.0000000000
11
9.4375065801
21
28.2085348233
31
0.0000000000
11
10.4647835933
21
28.7330606582
31
0.0000000000
0
SPLINE
5
3B3
100
AcDbEntity
8
0
100
AcDbSpline
62
7
6
CONTINUOUS
70
0
71
3
72
9
73
5
74
3
42
0.0000001000
43
0.0000001000
44
0.0000000001
12
0.0046770619
22
-0.3178900499
32
0.0000000000
13
0.2580114313
23
-0.1823985627
33
0.0000000000
40
0.0000000000
40
0.0000000000
40
0.0000000000
40
0.0000000000
40
0.4029937594
40
1.0000000000
40
1.0000000000
40
1.0000000000
40
1.0000000000
10
-19.2169268666
20
-26.9398073967
30
0.0000000000
10
-19.2162985910
20
-26.9825099654
30
0.0000000000
10
-19.1843615268
20
-27.0897745156
30
0.0000000000
10
-19.1033897760
20
-27.1633630602
30
0.0000000000
10
-19.0520449644
20
-27.1996607536
30
0.0000000000
11
-19.2169268666
21
-26.9398073967
31
0.0000000000
11
-19.1825942881
21
-27.0634947371
31
0.0000000000
11
-19.0520449644
21
-27.1996607536
31
0.0000000000
0
SPLINE
5
3B4
100
AcDbEntity
8
0
100
AcDbSpline
62
7
6
CONTINUOUS
70
0
71
3
72
10
73
6
74
4
42
0.0000001000
43
0.0000001000
44
0.0000000001
12
3.2118038212
22
1.6401187088
32
0.0000000000
13
3.2118130776
23
1.6401005821
33
0.0000000000
40
0.0000000000
40
0.0000000000
40
0.0000000000
40
0.0000000000
40
0.3333127783
40
0.6666464684
40
1.0000000000
40
1.0000000000
40
1.0000000000
40
1.0000000000
10
8.8368805347
20
24.9148081256
30
0.0000000000
10
9.1937256198
20
25.0970323001
30
0.0000000000
10
9.9074385205
20
25.4614914109
30
0.0000000000
10
10.9780413362
20
26.0081946275
30
0.0000000000
10
11.6917992389
20
26.3726733328
30
0.0000000000
10
12.0486889830
20
26.5549177732
30
0.0000000000
11
8.8368805347
21
24.9148081256
31
0.0000000000
11
9.9074163037
21
25.4614796428
31
0.0000000000
11
10.9780202652
21
26.0081834442
31
0.0000000000
11
12.0486889830
21
26.5549177732
31
0.0000000000
0
SPLINE
5
3B5
100
AcDbEntity
8
0
100
AcDbSpline
62
7
6
CONTINUOUS
70
0
71
3
72
10
73
6
74
4
42
0.0000001000
43
0.0000001000
44
0.0000000001
12
-3.2118045811
22
-1.2518255909
32
0.0000000000
13
-3.2118123137
23
-1.2518057512
33
0.0000000000
40
0.0000000000
40
0.0000000000
40
0.0000000000
40
0.0000000000
40
0.3333541195
40
0.6666878094
40
1.0000000000
40
1.0000000000
40
1.0000000000
40
1.0000000000
10
12.0486889830
20
-39.2983711762
30
0.0000000000
10
11.6917995537
20
-39.4374715821
30
0.0000000000
10
10.9780422803
20
-39.7156631339
30
0.0000000000
10
9.9074394639
20
-40.1329350227
30
0.0000000000
10
9.1937259341
20
-40.4111061393
30
0.0000000000
10
8.8368805347
20
-40.5501868450
30
0.0000000000
11
12.0486889830
21
-39.2983711762
31
0.0000000000
11
10.9780202651
21
-39.7156712910
31
0.0000000000
11
9.9074163034
21
-40.1329436265
31
0.0000000000
11
8.8368805347
21
-40.5501868450
31
0.0000000000
0
SPLINE
5
3B6
100
AcDbEntity
8
0
100
AcDbSpline
62
7
6
CONTINUOUS
70
0
71
3
72
11
73
7
74
5
42
0.0000001000
43
0.0000001000
44
0.0000000001
12
-0.5306919712
22
0.1860387765
32
0.0000000000
13
-0.0001696180
23
0.5592568577
33
0.0000000000
40
0.0000000000
40
0.0000000000
40
0.0000000000
40
0.0000000000
40
0.0339159896
40
0.2933264103
40
0.6108214976
40
1.0000000000
40
1.0000000000
40
1.0000000000
40
1.0000000000
10
7.1058971487
20
-41.6255597480
30
0.0000000000
10
7.0998975009
20
-41.6234565183
30
0.0000000000
10
7.0488637717
20
-41.6030922668
30
0.0000000000
10
6.9614707891
20
-41.5204869927
30
0.0000000000
10
6.8966831636
20
-41.3489072623
30
0.0000000000
10
6.8844814037
20
-41.2164842474
30
0.0000000000
10
6.8844593998
20
-41.1439339986
30
0.0000000000
11
7.1058971487
21
-41.6255597480
31
0.0000000000
11
7.0882171162
21
-41.6184891863
31
0.0000000000
11
6.9786477725
21
-41.5234002109
31
0.0000000000
11
6.9085934791
21
-41.3602425698
31
0.0000000000
11
6.8844593998
21
-41.1439339986
31
0.0000000000
0
SPLINE
5
3B7
100
AcDbEntity
8
0
100
AcDbSpline
62
7
6
CONTINUOUS
70
0
71
3
72
9
73
5
74
3
42
0.0000001000
43
0.0000001000
44
0.0000000001
12
0.0850470729
22
0.3319849630
32
0.0000000000
13
0.2802221434
23
0.1983585904
33
0.0000000000
40
0.0000000000
40
0.0000000000
40
0.0000000000
40
0.0000000000
40
0.5042055575
40
1.0000000000
40
1.0000000000
40
1.0000000000
40
1.0000000000
10
-15.5780859899
20
25.0391587595
30
0.0000000000
10
-15.5637922543
20
25.0949549806
30
0.0000000000
10
-15.5237218448
20
25.2026453081
30
0.0000000000
10
-15.4491411545
20
25.2935736723
30
0.0000000000
10
-15.4028302941
20
25.3263553679
30
0.0000000000
11
-15.5780859899
21
25.0391587595
31
0.0000000000
11
-15.5146114924
21
25.1992898232
31
0.0000000000
11
-15.4028302941
21
25.3263553679
31
0.0000000000
0
SPLINE
5
3B8
100
AcDbEntity
8
0
100
AcDbSpline
62
7
6
CONTINUOUS
70
0
71
3
72
8
73
4
74
2
42
0.0000001000
43
0.0000001000
44
0.0000000001
12
0.0421558766
22
0.0298405406
32
0.0000000000
13
0.0466102600
23
0.0227824824
33
0.0000000000
40
0.0000000000
40
0.0000000000
40
0.0000000000
40
0.0000000000
40
1.0000000000
40
1.0000000000
40
1.0000000000
40
1.0000000000
10
-15.4028302941
20
25.3263553679
30
0.0000000000
10
-15.3887783352
20
25.3363022147
30
0.0000000000
10
-15.3738669994
20
25.3451166194
30
0.0000000000
10
-15.3583302461
20
25.3527107802
30
0.0000000000
11
-15.4028302941
21
25.3263553679
31
0.0000000000
11
-15.3583302461
21
25.3527107802
31
0.0000000000
0
SPLINE
5
3B9
100
AcDbEntity
8
0
100
AcDbSpline
62
7
6
CONTINUOUS
70
0
71
3
72
10
73
6
74
4
42
0.0000001000
43
0.0000001000
44
0.0000000001
12
-0.4479137345
22
0.3117625667
32
0.0000000000
13
0.0001100529
23
0.5413089345
33
0.0000000000
40
0.0000000000
40
0.0000000000
40
0.0000000000
40
0.0000000000
40
0.2150023913
40
0.5873027344
40
1.0000000000
40
1.0000000000
40
1.0000000000
40
1.0000000000
10
-18.2419232891
20
-28.9482943247
30
0.0000000000
10
-18.2740241304
20
-28.9259510922
30
0.0000000000
10
-18.3539394768
20
-28.8535650118
30
0.0000000000
10
-18.4400610072
20
-28.6897679506
30
0.0000000000
10
-18.4589691129
20
-28.5466930918
30
0.0000000000
10
-18.4589539734
20
-28.4722275194
30
0.0000000000
11
-18.2419232891
21
-28.9482943247
31
0.0000000000
11
-18.3286041216
21
-28.8697609738
31
0.0000000000
11
-18.4256284549
21
-28.6931245658
31
0.0000000000
11
-18.4589539734
21
-28.4722275194
31
0.0000000000
0
SPLINE
5
3BA
100
AcDbEntity
8
0
100
AcDbSpline
62
7
6
CONTINUOUS
70
0
71
3
72
11
73
7
74
5
42
0.0000001000
43
0.0000001000
44
0.0000000001
12
-1.0436397151
22
-0.4698501597
32
0.0000000000
13
-1.0790420491
23
0.3815904659
33
0.0000000000
40
0.0000000000
40
0.0000000000
40
0.0000000000
40
0.0000000000
40
0.2338465291
40
0.4926440548
40
0.7553208450
40
1.0000000000
40
1.0000000000
40
1.0000000000
40
1.0000000000
10
8.8368805347
20
-40.5501868450
30
0.0000000000
10
8.7555300264
20
-40.5868111214
30
0.0000000000
10
8.5738495391
20
-40.6413387253
30
0.0000000000
10
8.2862310837
20
-40.6731660094
30
0.0000000000
10
7.9931199506
20
-40.6576914691
30
0.0000000000
10
7.8029723239
20
-40.6142886259
30
0.0000000000
10
7.7149659583
20
-40.5831662150
30
0.0000000000
11
8.8368805347
21
-40.5501868450
31
0.0000000000
11
8.5817187518
21
-40.6309683401
31
0.0000000000
11
8.2874789859
21
-40.6649964611
31
0.0000000000
11
7.9872943952
21
-40.6484406057
31
0.0000000000
11
7.7149659583
21
-40.5831662150
31
0.0000000000
0
SPLINE
5
3BB
100
AcDbEntity
8
0
100
AcDbSpline
62
7
6
CONTINUOUS
70
0
71
3
72
10
73
6
74
4
42
0.0000001000
43
0.0000001000
44
0.0000000001
12
-2.7744511812
22
-1.7270883328
32
0.0000000000
13
-2.7744418386
23
-1.7271033410
33
0.0000000000
40
0.0000000000
40
0.0000000000
40
0.0000000000
40
0.0000000000
40
0.3333523165
40
0.6666856722
40
1.0000000000
40
1.0000000000
40
1.0000000000
40
1.0000000000
10
-14.9933966941
20
41.4621508024
30
0.0000000000
10
-15.3016866035
20
41.2702411702
30
0.0000000000
10
-15.9182485359
20
40.8864322572
30
0.0000000000
10
-16.8430640406
20
40.3107336472
30
0.0000000000
10
-17.4595894609
20
39.9269443881
30
0.0000000000
10
-17.7678431996
20
39.7350549584
30
0.0000000000
11
-14.9933966941
21
41.4621508024
31
0.0000000000
11
-15.9182658996
21
40.8864210661
31
0.0000000000
11
-16.8430814646
21
40.3107224142
31
0.0000000000
11
-17.7678431996
21
39.7350549584
31
0.0000000000
0
SPLINE
5
3BC
100
AcDbEntity
8
0
100
AcDbSpline
62
7
6
CONTINUOUS
70
0
71
3
72
11
73
7
74
5
42
0.0000001000
43
0.0000001000
44
0.0000000001
12
-1.0436401230
22
-0.4698489105
32
0.0000000000
13
-1.0790423587
23
0.3815891680
33
0.0000000000
40
0.0000000000
40
0.0000000000
40
0.0000000000
40
0.0000000000
40
0.2338435791
40
0.4926397754
40
0.7553177045
40
1.0000000000
40
1.0000000000
40
1.0000000000
40
1.0000000000
10
8.8368805347
20
24.9148081256
30
0.0000000000
10
8.7555310208
20
24.8781844086
30
0.0000000000
10
8.5738522167
20
24.8236571707
30
0.0000000000
10
8.2862350645
20
24.7918294303
30
0.0000000000
10
7.9931228072
20
24.8073032634
30
0.0000000000
10
7.8029734787
20
24.8507060511
30
0.0000000000
10
7.7149659583
20
24.8818287556
30
0.0000000000
11
8.8368805347
21
24.9148081256
31
0.0000000000
11
8.5817220359
21
24.8340275526
31
0.0000000000
11
8.2874838908
21
24.7999989778
31
0.0000000000
11
7.9872979909
21
24.8165540936
31
0.0000000000
11
7.7149659583
21
24.8818287556
31
0.0000000000
0
SPLINE
5
3BD
100
AcDbEntity
8
0
100
AcDbSpline
62
7
6
CONTINUOUS
70
0
71
3
72
12
73
8
74
6
42
0.0000001000
43
0.0000001000
44
0.0000000001
12
-1.0002462362
22
-0.7723053361
32
0.0000000000
13
-0.0003988742
23
-1.2637040421
33
0.0000000000
40
0.0000000000
40
0.0000000000
40
0.0000000000
40
0.0000000000
40
0.1744943363
40
0.3745457606
40
0.5883252582
40
0.8015420117
40
1.0000000000
40
1.0000000000
40
1.0000000000
40
1.0000000000
10
7.3831323511
20
27.1595490760
30
0.0000000000
10
7.3249532501
20
27.1146281070
30
0.0000000000
10
7.2144070274
20
26.9996144944
30
0.0000000000
10
7.0793780355
20
26.7906302972
30
0.0000000000
10
6.9723656854
20
26.5479332877
30
0.0000000000
10
6.9029164903
20
26.2928594724
30
0.0000000000
10
6.8844856127
20
26.1192850382
30
0.0000000000
10
6.8844592261
20
26.0356876508
30
0.0000000000
11
7.3831323511
21
27.1595490760
31
0.0000000000
11
7.2272857178
21
27.0035486332
31
0.0000000000
11
7.0882204060
21
26.7924287272
31
0.0000000000
11
6.9786510928
21
26.5454919644
31
0.0000000000
11
6.9085956523
21
26.2853156696
31
0.0000000000
11
6.8844592261
21
26.0356876508
31
0.0000000000
0
SPLINE
5
3BE
100
AcDbEntity
8
0
100
AcDbSpline
62
7
6
CONTINUOUS
70
0
71
3
72
12
73
8
74
6
42
0.0000001000
43
0.0000001000
44
0.0000000001
12
-1.2009218101
22
-0.5011104564
32
0.0000000000
13
0.0002845717
23
-1.3012781419
33
0.0000000000
40
0.0000000000
40
0.0000000000
40
0.0000000000
40
0.0000000000
40
0.1921939388
40
0.3971363210
40
0.6062472537
40
0.8099620107
40
1.0000000000
40
1.0000000000
40
1.0000000000
40
1.0000000000
10
-17.7678431985
20
39.7350549360
30
0.0000000000
10
-17.8447798295
20
39.7029514718
30
0.0000000000
10
-17.9946247527
20
39.6136168790
30
0.0000000000
10
-18.1851995184
20
39.4296678059
30
0.0000000000
10
-18.3359548135
20
39.2056502778
30
0.0000000000
10
-18.4337645782
20
38.9610496022
30
0.0000000000
10
-18.4589717589
20
38.7898250980
30
0.0000000000
10
-18.4589537324
20
38.7073943375
30
0.0000000000
11
-17.7678431985
21
39.7350549360
31
0.0000000000
11
-17.9839583583
21
39.6091854160
31
0.0000000000
11
-18.1767559638
21
39.4249272676
31
0.0000000000
11
-18.3286082540
21
39.1991274752
31
0.0000000000
11
-18.4256311577
21
38.9524312356
31
0.0000000000
11
-18.4589537324
21
38.7073943375
31
0.0000000000
0
SPLINE
5
3BF
100
AcDbEntity
8
0
100
AcDbSpline
62
7
6
CONTINUOUS
70
0
71
3
72
12
73
8
74
6
42
0.0000001000
43
0.0000001000
44
0.0000000001
12
-0.0275919304
22
-1.3146630265
32
0.0000000000
13
-1.2300829175
23
-0.4801547185
33
0.0000000000
40
0.0000000000
40
0.0000000000
40
0.0000000000
40
0.0000000000
40
0.2683550448
40
0.5128316234
40
0.7375873270
40
0.9516026263
40
1.0000000000
40
1.0000000000
40
1.0000000000
40
1.0000000000
10
8.8368805347
20
-40.5501868450
30
0.0000000000
10
8.8344123902
20
-40.6677856635
30
0.0000000000
10
8.8089764596
20
-40.8930444408
30
0.0000000000
10
8.6993393688
20
-41.2007366416
30
0.0000000000
10
8.5222410395
20
-41.4480308929
30
0.0000000000
10
8.3452001931
20
-41.5747252055
30
0.0000000000
10
8.2392148444
20
-41.6207889139
30
0.0000000000
10
8.2193705835
20
-41.6285349897
30
0.0000000000
11
8.8368805347
21
-40.5501868450
31
0.0000000000
11
8.7938838666
21
-40.9004316895
31
0.0000000000
11
8.6823256032
21
-41.2019296047
31
0.0000000000
11
8.5074598915
21
-41.4401893310
31
0.0000000000
11
8.2779477609
21
-41.6030431823
31
0.0000000000
11
8.2193705835
21
-41.6285349897
31
0.0000000000
0
SPLINE
5
3C0
100
AcDbEntity
8
0
100
AcDbSpline
62
7
6
CONTINUOUS
70
0
71
3
72
14
73
10
74
8
42
0.0000001000
43
0.0000001000
44
0.0000000001
12
2.5524272626
22
-1.1451517287
32
0.0000000000
13
0.0598203353
23
-2.7969052434
33
0.0000000000
40
0.0000000000
40
0.0000000000
40
0.0000000000
40
0.0000000000
40
0.1312776283
40
0.2726637693
40
0.4209612766
40
0.5719956924
40
0.7215444977
40
0.8653051411
40
1.0000000000
40
1.0000000000
40
1.0000000000
40
1.0000000000
10
7.3831316808
20
27.1595675182
30
0.0000000000
10
7.4948238799
20
27.1094565839
30
0.0000000000
10
7.7158429812
20
26.9800638053
30
0.0000000000
10
8.0166318808
20
26.7254322237
30
0.0000000000
10
8.2874615423
20
26.4143113641
30
0.0000000000
10
8.5154567434
20
26.0616375613
30
0.0000000000
10
8.6899071495
20
25.6841825856
30
0.0000000000
10
8.8026303447
20
25.2997883851
30
0.0000000000
10
8.8341947042
20
25.0403843780
30
0.0000000000
10
8.8368805347
20
24.9148081256
30
0.0000000000
11
7.3831316808
21
27.1595675182
31
0.0000000000
11
7.7015773743
21
26.9766232150
31
0.0000000000
11
8.0047922051
21
26.7226390187
31
0.0000000000
11
8.2779476927
21
26.4103854171
31
0.0000000000
11
8.5074598495
21
26.0556291384
31
0.0000000000
11
8.6823255818
21
25.6755567626
31
0.0000000000
11
8.7938838586
21
25.2891619227
31
0.0000000000
11
8.8368805347
21
24.9148081256
31
0.0000000000
0
ENDSEC
0
SECTION
2
OBJECTS
0
DICTIONARY
5
3C1
100
AcDbDictionary
3
ACAD_GROUP
350
3C2
3
ACAD_MLINESTYLE
350
3C3
0
DICTIONARY
5
3C2
102
{ACAD_REACTORS
330
3C1
102
}
100
AcDbDictionary
0
DICTIONARY
5
3C3
102
{ACAD_REACTORS
330
3C1
102
}
100
AcDbDictionary
3
STANDARD
350
3C4
0
MLINESTYLE
5
3C4
102
{ACAD_REACTORS
330
3C3
102
}
100
AcDbMlineStyle
2
STANDARD
70
0
3

62
256
51
90.0
52
90.0
71
2
49
0.5
62
256
6
BYLAYER
49
-0.5
62
256
6
BYLAYER
0
ENDSEC
0
EOF
