0
SECTION
2
HEADER
9
$ACADVER
1
AC1015
9
$DWGCODEPAGE
3
ANSI_1252
9
$EXTMAX
10
297.0000000000
20
210.0000000000
30
0.0000000000
9
$EXTMIN
10
0.0000000000
20
0.0000000000
30
0.0000000000
9
$LIMMIN
10
0.0000000000
20
0.0000000000
9
$LIMMAX
10
297.0000000000
20
210.0000000000
9
$VIEWCTR
10
148.5000000000
20
105.0000000000
9
$VIEWSIZE
40
210.0000000000
9
$CLAYER
8
0
9
$LTSCALE
40
16.3350000000
9
$CELTYPE
6
BYLAYER
9
$DIMSCALE
40
1
9
$DIMASZ
40
3.0000000000
9
$DIMEXO
40
1.8562500000
9
$DIMDLI
40
11.2860000000
9
$DIMEXE
40
5.3460000000
9
$DIMCEN
40
2.6730000000
9
$DIMLFAC
40
1.0000000000
9
$DIMBLK
1
_FILLED
9
$DIMTXT
40
3.0000000000
9
$DIMTOL
70
1
9
$DIMLIM
70
0
9
$DIMTFAC
40
1.0000000000
9
$DIMTP
40
0.0100000000
9
$DIMTM
40
0.0100000000
9
$PDMODE
70
3
9
$PDSIZE
40
3.0000000000
9
$HANDSEED
5
3BD
9
$MEASUREMENT
70
1
9
$INSUNITS
70
4
0
ENDSEC
0
SECTION
2
CLASSES
0
CLASS
1
ACDBDICTIONARYWDFLT
2
AcDbDictionaryWithDefault
3
AutoCAD 2000
90
0
280
0
281
0
0
CLASS
1
ACDBPLACEHOLDER
2
AcDbPlaceHolder
3
AutoCAD 2000
90
0
280
0
281
0
0
CLASS
1
LAYOUT
2
AcDbLayout
3
AutoCAD 2000
90
0
280
0
281
0
0
ENDSEC
0
SECTION
2
TABLES
0
TABLE
2
VPORT
5
8
100
AcDbSymbolTable
70
2
0
VPORT
5
1F4
100
AcDbSymbolTableRecord
100
AcDbViewportTableRecord
2
*ACTIVE
70
0
10
0.0
20
0.0
11
1.0
21
1.0
12
148.5000000000
22
105.0000000000
13
0.0
23
0.0
14
1.0
24
1.0
15
0.0
25
0.0
16
0.0
26
0.0
36
1.0
17
0.0
27
0.0
37
0.0
40
210.0000000000
41
1.4142857143
42
50.0
43
0.0
44
0.0
50
0.0
51
0.0
71
0
72
100
73
1
74
1
75
0
76
0
77
0
78
0
0
ENDTAB
0
TABLE
2
LTYPE
5
5
100
AcDbSymbolTable
70
6
0
LTYPE
5
14
100
AcDbSymbolTableRecord
100
AcDbLinetypeTableRecord
2
BYBLOCK
70
0
3

72
65
73
0
40
0.0
0
LTYPE
5
15
100
AcDbSymbolTableRecord
100
AcDbLinetypeTableRecord
2
BYLAYER
70
0
3

72
65
73
0
40
0.0
0
LTYPE
5
16
100
AcDbSymbolTableRecord
100
AcDbLinetypeTableRecord
2
CONTINUOUS
70
64
3
Solid line
72
65
73
0
40
0
0
LTYPE
5
1F5
100
AcDbSymbolTableRecord
100
AcDbLinetypeTableRecord
2
CENTER
70
64
3
____ _ ____ _ ____ _ ____ _ ____ _ ____ _ ____
72
65
73
4
40
0.6
49
0.375
74
0
49
-0.075
74
0
49
0.075
74
0
49
-0.075
74
0
0
LTYPE
5
1F6
100
AcDbSymbolTableRecord
100
AcDbLinetypeTableRecord
2
HIDDEN
70
64
3
- - - - - - - - - - - - - - - - - - - -
72
65
73
2
40
0.2
49
0.1
74
0
49
-0.1
74
0
0
LTYPE
5
1F7
100
AcDbSymbolTableRecord
100
AcDbLinetypeTableRecord
2
PHANTOM
70
64
3
_____ _ _ _____ _ _ _____ _ _ _____
72
65
73
6
40
0.8
49
0.45
74
0
49
-0.05
74
0
49
0.1
74
0
49
-0.05
74
0
49
0.1
74
0
49
-0.05
74
0
0
LTYPE
5
1F8
100
AcDbSymbolTableRecord
100
AcDbLinetypeTableRecord
2
DOT
70
64
3
. . . . . . . . . . . . . . . . . . . .
72
65
73
2
40
0.2
49
0.1
74
0
49
-0.1
74
0
0
LTYPE
5
1F9
100
AcDbSymbolTableRecord
100
AcDbLinetypeTableRecord
2
DASHED
70
64
3
- - - - - - - - - - - - - - - - - - - -
72
65
73
2
40
0.2
49
0.1
74
0
49
-0.1
74
0
0
ENDTAB
0
TABLE
2
LAYER
5
2
100
AcDbSymbolTable
70
36
0
LAYER
5
10
100
AcDbSymbolTableRecord
100
AcDbLayerTableRecord
2
0
70
0
62
7
6
CONTINUOUS
370
-3
390
F
0
LAYER
5
1FA
100
AcDbSymbolTableRecord
100
AcDbLayerTableRecord
2
DEFAULT_1
70
0
62
7
6
CENTER
370
-3
390
F
0
LAYER
5
1FB
100
AcDbSymbolTableRecord
100
AcDbLayerTableRecord
2
DEFAULT_2
70
0
62
8
6
HIDDEN
370
-3
390
F
0
LAYER
5
1FC
100
AcDbSymbolTableRecord
100
AcDbLayerTableRecord
2
DEFAULT_3
70
0
62
7
6
PHANTOM
370
-3
390
F
0
LAYER
5
1FD
100
AcDbSymbolTableRecord
100
AcDbLayerTableRecord
2
ASSI
70
0
62
7
6
CONTINUOUS
370
-3
390
F
0
LAYER
5
1FE
100
AcDbSymbolTableRecord
100
AcDbLayerTableRecord
2
COORDINATE
70
0
62
7
6
CONTINUOUS
370
-3
390
F
0
LAYER
5
1FF
100
AcDbSymbolTableRecord
100
AcDbLayerTableRecord
2
COORD_ORIGINE
70
0
62
7
6
CONTINUOUS
370
-3
390
F
0
LAYER
5
200
100
AcDbSymbolTableRecord
100
AcDbLayerTableRecord
2
COPY
70
0
62
7
6
CONTINUOUS
370
-3
390
F
0
LAYER
5
201
100
AcDbSymbolTableRecord
100
AcDbLayerTableRecord
2
COPY_GRIGLIA
70
0
62
7
6
CONTINUOUS
370
-3
390
F
0
LAYER
5
202
100
AcDbSymbolTableRecord
100
AcDbLayerTableRecord
2
COPY_PLACCA
70
0
62
7
6
CONTINUOUS
370
-3
390
F
0
LAYER
5
203
100
AcDbSymbolTableRecord
100
AcDbLayerTableRecord
2
COPY_PUB
70
0
62
7
6
CONTINUOUS
370
-3
390
F
0
LAYER
5
204
100
AcDbSymbolTableRecord
100
AcDbLayerTableRecord
2
COPY_SUPPORTO
70
0
62
7
6
CONTINUOUS
370
-3
390
F
0
LAYER
5
205
100
AcDbSymbolTableRecord
100
AcDbLayerTableRecord
2
CURVE
70
0
62
7
6
CONTINUOUS
370
-3
390
F
0
LAYER
5
206
100
AcDbSymbolTableRecord
100
AcDbLayerTableRecord
2
DRAFT
70
0
62
7
6
CONTINUOUS
370
-3
390
F
0
LAYER
5
207
100
AcDbSymbolTableRecord
100
AcDbLayerTableRecord
2
IMPORT_SCRITTE
70
0
62
7
6
CONTINUOUS
370
-3
390
F
0
LAYER
5
208
100
AcDbSymbolTableRecord
100
AcDbLayerTableRecord
2
NOTE
70
0
62
7
6
CONTINUOUS
370
-3
390
F
0
LAYER
5
209
100
AcDbSymbolTableRecord
100
AcDbLayerTableRecord
2
PIANI
70
0
62
7
6
CONTINUOUS
370
-3
390
F
0
LAYER
5
20A
100
AcDbSymbolTableRecord
100
AcDbLayerTableRecord
2
PIANI_ORIGINE
70
0
62
7
6
CONTINUOUS
370
-3
390
F
0
LAYER
5
20B
100
AcDbSymbolTableRecord
100
AcDbLayerTableRecord
2
PUNTI
70
0
62
7
6
CONTINUOUS
370
-3
390
F
0
LAYER
5
20C
100
AcDbSymbolTableRecord
100
AcDbLayerTableRecord
2
RACCORDO
70
0
62
7
6
CONTINUOUS
370
-3
390
F
0
LAYER
5
20D
100
AcDbSymbolTableRecord
100
AcDbLayerTableRecord
2
SKEL
70
0
62
7
6
CONTINUOUS
370
-3
390
F
0
LAYER
5
20E
100
AcDbSymbolTableRecord
100
AcDbLayerTableRecord
2
SMUSSO
70
0
62
7
6
CONTINUOUS
370
-3
390
F
0
LAYER
5
20F
100
AcDbSymbolTableRecord
100
AcDbLayerTableRecord
2
SUPERFICI
70
0
62
7
6
CONTINUOUS
370
-3
390
F
0
LAYER
5
210
100
AcDbSymbolTableRecord
100
AcDbLayerTableRecord
2
TRASH
70
0
62
7
6
CONTINUOUS
370
-3
390
F
0
LAYER
5
211
100
AcDbSymbolTableRecord
100
AcDbLayerTableRecord
2
XSEC_DATUMS
70
0
62
7
6
CONTINUOUS
370
-3
390
F
0
ENDTAB
0
TABLE
2
STYLE
5
3
100
AcDbSymbolTable
70
1
0
STYLE
5
11
100
AcDbSymbolTableRecord
100
AcDbTextStyleTableRecord
2
STANDARD
70
0
40
0.0
41
0.8000000000
50
0.0
71
0
42
0.2
3
txt
4

0
ENDTAB
0
TABLE
2
VIEW
5
6
100
AcDbSymbolTable
70
0
0
ENDTAB
0
TABLE
2
UCS
5
7
100
AcDbSymbolTable
70
0
0
ENDTAB
0
TABLE
2
APPID
5
9
100
AcDbSymbolTable
70
1
0
APPID
5
212
100
AcDbSymbolTableRecord
100
AcDbRegAppTableRecord
2
ACAD
70
0
0
ENDTAB
0
TABLE
2
BLOCK_RECORD
5
1
100
AcDbSymbolTable
70
0
0
BLOCK_RECORD
5
1F
100
AcDbSymbolTableRecord
100
AcDbBlockTableRecord
2
*MODEL_SPACE
0
BLOCK_RECORD
5
1B
100
AcDbSymbolTableRecord
100
AcDbBlockTableRecord
2
*PAPER_SPACE
0
ENDTAB
0
TABLE
2
DIMSTYLE
5
A
100
AcDbSymbolTable
70
1
100
AcDbDimStyleTable
71
0
0
DIMSTYLE
105
213
100
AcDbSymbolTableRecord
100
AcDbDimStyleTableRecord
2
STANDARD
70
0
3

4

40
1.0
41
3.0000000000
42
0.0625
43
0.38
44
0.18
45
0.0
46
0.0
47
0.0100000000
48
0.0100000000
140
3.0000000000
141
0.09
142
0.0
143
25.4
144
1.0000000000
145
0.0
146
1.0000000000
147
0.09
71
1
72
0
73
0
74
0
75
0
76
0
77
1
78
8
170
0
171
2
172
0
173
0
174
0
175
0
176
0
177
0
178
0
270
2
271
2
272
2
273
2
274
2
275
0
280
0
281
0
282
0
283
1
284
8
285
0
286
0
287
3
288
0
340
11
0
ENDTAB
0
ENDSEC
0
SECTION
2
BLOCKS
0
BLOCK
5
20
100
AcDbEntity
8
0
100
AcDbBlockBegin
2
*MODEL_SPACE
70
0
10
0.0
20
0.0
30
0.0
3
*MODEL_SPACE
1

0
ENDBLK
5
21
100
AcDbEntity
8
0
100
AcDbBlockEnd
0
BLOCK
5
1C
100
AcDbEntity
8
0
100
AcDbBlockBegin
2
*PAPER_SPACE
70
0
10
0.0
20
0.0
30
0.0
3
*PAPER_SPACE
1

0
ENDBLK
5
1D
100
AcDbEntity
8
0
100
AcDbBlockEnd
0
ENDSEC
0
SECTION
2
ENTITIES
0
LWPOLYLINE
5
214
100
AcDbEntity
8
0
100
AcDbPolyline
62
7
6
CONTINUOUS
90
8
70
0
10
-51.3417702262
20
90.6764559808
10
-51.4393303189
20
90.6209318651
10
-51.5673082249
20
90.5233292532
10
-51.6805959459
20
90.4054390444
10
-51.7778113091
20
90.2685940491
10
-51.8580774713
20
90.1134918396
10
-51.9199055070
20
89.9422184324
10
-51.9622724900
20
89.7578042898
0
LINE
5
215
100
AcDbEntity
8
0
100
AcDbLine
62
7
6
CONTINUOUS
10
-47.8550395235
20
92.4198295189
11
-51.3436244200
21
90.6755370706
0
LINE
5
216
100
AcDbEntity
8
0
100
AcDbLine
62
7
6
CONTINUOUS
10
-47.0070735178
20
92.3397953518
11
-50.4837734206
21
90.6014454004
0
LINE
5
217
100
AcDbEntity
8
0
100
AcDbLine
62
7
6
CONTINUOUS
10
-45.7829914129
20
92.1568541251
11
-46.3050542891
21
91.9537474869
0
LINE
5
218
100
AcDbEntity
8
0
100
AcDbLine
62
7
6
CONTINUOUS
10
52.6986880691
20
-71.4741792940
11
52.4158453567
21
-71.5434759303
0
LWPOLYLINE
5
219
100
AcDbEntity
8
0
100
AcDbPolyline
62
7
6
CONTINUOUS
90
12
70
0
10
-35.4400088582
20
67.1488605343
10
-35.4507972000
20
67.1428829845
10
-35.4988627894
20
67.1115214102
10
-35.5430386736
20
67.0746745990
10
-35.5830455471
20
67.0327390031
10
-35.6186697821
20
66.9861382073
10
-35.6497339288
20
66.9353141204
10
-35.6761911418
20
66.8805985662
10
-35.6980788750
20
66.8220757922
10
-35.7153158932
20
66.7600309683
10
-35.7278534703
20
66.6946649580
10
-35.7356535557
20
66.6258047854
0
LINE
5
21A
100
AcDbEntity
8
0
100
AcDbLine
62
7
6
CONTINUOUS
10
-35.1512374439
20
67.3042189583
11
-35.4402239088
21
67.1487467223
0
LINE
5
21B
100
AcDbEntity
8
0
100
AcDbLine
62
7
6
CONTINUOUS
10
-35.5022744443
20
67.3113517787
11
-35.5062470686
21
67.3093428303
0
LINE
5
21C
100
AcDbEntity
8
0
100
AcDbLine
62
7
6
CONTINUOUS
10
-35.7168475211
20
66.7520456613
11
-35.7777372089
21
66.7216008173
0
LWPOLYLINE
5
21D
100
AcDbEntity
8
0
100
AcDbPolyline
62
7
6
CONTINUOUS
90
7
70
0
10
-35.5062427219
20
67.3093401884
10
-35.4594044910
20
67.3289548087
10
-35.4042604578
20
67.3419919787
10
-35.3456891387
20
67.3461037388
10
-35.2840805216
20
67.3413143297
10
-35.2198608373
20
67.3276616814
10
-35.1537240365
20
67.3052657872
0
LINE
5
21E
100
AcDbEntity
8
0
100
AcDbLine
62
7
6
CONTINUOUS
10
-33.1671823339
20
64.7272457035
11
-33.2407286182
21
64.6986207679
0
LWPOLYLINE
5
21F
100
AcDbEntity
8
0
100
AcDbPolyline
62
7
6
CONTINUOUS
90
10
70
0
10
47.2449289807
20
-93.4884270011
10
47.3790011709
20
-93.5422386772
10
47.5169679890
20
-93.5838561392
10
47.6544367106
20
-93.6115062419
10
47.7902953438
20
-93.6250858005
10
47.9237052667
20
-93.6246524140
10
48.0536666772
20
-93.6103552984
10
48.1785890781
20
-93.5826502488
10
48.2972575133
20
-93.5422407911
10
48.3823995838
20
-93.5037265669
0
LWPOLYLINE
5
220
100
AcDbEntity
8
0
100
AcDbPolyline
62
7
6
CONTINUOUS
90
10
70
0
10
47.2449059252
20
-93.4884176173
10
35.8693992923
20
-88.2974451096
10
24.6129890955
20
-83.0418850870
10
13.4771402151
20
-77.7224196509
10
2.4633020822
20
-72.3397392825
10
-8.4270920014
20
-66.8945425137
10
-19.1926251845
20
-61.3875357505
10
-29.8318965245
20
-55.8194335375
10
-40.3435210338
20
-50.1909585551
10
-50.7261304464
20
-44.5028412255
0
LINE
5
221
100
AcDbEntity
8
0
100
AcDbLine
62
7
6
CONTINUOUS
10
-50.8125757035
20
-44.4515422576
11
-50.7253596518
21
-44.5032650879
0
LWPOLYLINE
5
222
100
AcDbEntity
8
0
100
AcDbPolyline
62
7
6
CONTINUOUS
90
4
70
0
10
-51.2696624839
20
-44.0551029797
10
-51.1251853194
20
-44.2054203351
10
-50.9725312499
20
-44.3380539969
10
-50.8125757035
20
-44.4515422576
0
LWPOLYLINE
5
223
100
AcDbEntity
8
0
100
AcDbPolyline
62
7
6
CONTINUOUS
90
3
70
0
10
-51.9622724900
20
89.7578042898
10
-51.9850446596
20
89.5621718863
10
-51.9893407500
20
89.4268784483
0
LWPOLYLINE
5
224
100
AcDbEntity
8
0
100
AcDbPolyline
62
7
6
CONTINUOUS
90
8
70
0
10
-51.9414841660
20
-42.6823651882
10
-51.8907154379
20
-42.8961150002
10
-51.8228462176
20
-43.1086012167
10
-51.7391625692
20
-43.3164169715
10
-51.6407184383
20
-43.5173628249
10
-51.5285639259
20
-43.7093082905
10
-51.4044851640
20
-43.8891611168
10
-51.2696624839
20
-44.0551029797
0
LINE
5
225
100
AcDbEntity
8
0
100
AcDbLine
62
7
6
CONTINUOUS
10
-51.9743826002
20
-42.4697359409
11
-51.9414841660
21
-42.6823651882
0
LWPOLYLINE
5
226
100
AcDbEntity
8
0
100
AcDbPolyline
62
7
6
CONTINUOUS
90
3
70
0
10
-51.9893406121
20
-42.2081236400
10
-51.9887429346
20
-42.2598320966
10
-51.9743826002
20
-42.4697359409
0
LINE
5
227
100
AcDbEntity
8
0
100
AcDbLine
62
7
6
CONTINUOUS
10
-51.9893418478
20
89.4272705510
11
-51.9893418478
21
-42.2085908239
0
LINE
5
228
100
AcDbEntity
8
0
100
AcDbLine
62
7
6
CONTINUOUS
10
-51.8609447022
20
89.2600048054
11
-51.8609447022
21
-42.3758565698
0
LINE
5
229
100
AcDbEntity
8
0
100
AcDbLine
62
7
6
CONTINUOUS
10
-51.9893418478
20
-42.2085908305
11
-51.9893409748
21
-42.2081236387
0
LWPOLYLINE
5
22A
100
AcDbEntity
8
0
100
AcDbPolyline
62
7
6
CONTINUOUS
90
10
70
0
10
29.9562981398
20
-71.0035534564
10
29.9640112407
20
-71.0064483173
10
30.0276536564
20
-71.0268698749
10
30.0910335738
20
-71.0410467513
10
30.1537903018
20
-71.0489265483
10
30.2154183547
20
-71.0504834916
10
30.2755618445
20
-71.0457748065
10
30.3337701295
20
-71.0348933351
10
30.3893355083
20
-71.0181099357
10
30.4316505275
20
-71.0006311305
0
LINE
5
22B
100
AcDbEntity
8
0
100
AcDbLine
62
7
6
CONTINUOUS
10
25.5883520866
20
-69.3054429257
11
29.9562769855
21
-71.0035457525
0
LWPOLYLINE
5
22C
100
AcDbEntity
8
0
100
AcDbPolyline
62
7
6
CONTINUOUS
90
15
70
0
10
-35.1381465779
20
-38.4563978724
10
-31.0309842320
20
-40.9968432129
10
-26.8001357598
20
-43.5407825634
10
-22.5467824126
20
-46.0246980441
10
-18.2714381031
20
-48.4482344784
10
-13.9745573355
20
-50.8111087745
10
-9.6565629823
20
-53.1130634754
10
-5.3179054347
20
-55.3538331810
10
-0.9590986286
20
-57.5331523573
10
3.4193395692
20
-59.6507623256
10
7.8168871468
20
-61.7064112677
10
12.2330554731
20
-63.6998956927
10
16.6673770203
20
-65.6310283646
10
21.1193437623
20
-67.4996117544
10
25.5883520866
20
-69.3054429257
0
LINE
5
22D
100
AcDbEntity
8
0
100
AcDbLine
62
7
6
CONTINUOUS
10
-35.1380156805
20
-38.4564793648
11
-35.1381463985
21
-38.4563975864
0
LINE
5
22E
100
AcDbEntity
8
0
100
AcDbLine
62
7
6
CONTINUOUS
10
-35.1477736043
20
-38.4502754108
11
-35.1380156805
21
-38.4564793648
0
LWPOLYLINE
5
22F
100
AcDbEntity
8
0
100
AcDbPolyline
62
7
6
CONTINUOUS
90
4
70
0
10
-35.3327202685
20
-38.2973683887
10
-35.2734664462
20
-38.3541054767
10
-35.2117322397
20
-38.4052121199
10
-35.1477736043
20
-38.4502754108
0
LINE
5
230
100
AcDbEntity
8
0
100
AcDbLine
62
7
6
CONTINUOUS
10
29.3563763673
20
-65.9511314437
11
-32.0482535008
21
-35.2488165097
0
LWPOLYLINE
5
231
100
AcDbEntity
8
0
100
AcDbPolyline
62
7
6
CONTINUOUS
90
11
70
0
10
-35.7194018410
20
-37.5355497465
10
-35.7019462176
20
-37.6188083770
10
-35.6791136021
20
-37.7021841326
10
-35.6511303582
20
-37.7849541196
10
-35.6182030938
20
-37.8665547006
10
-35.5805587156
20
-37.9464208147
10
-35.5385374418
20
-38.0237967785
10
-35.4924231141
20
-38.0981423603
10
-35.4424980974
20
-38.1689196676
10
-35.3891637795
20
-38.2354882810
10
-35.3327202685
20
-38.2973683887
0
LWPOLYLINE
5
232
100
AcDbEntity
8
0
100
AcDbPolyline
62
7
6
CONTINUOUS
90
3
70
0
10
-35.7385753386
20
-37.3250028895
10
-35.7375917225
20
-37.3715437844
10
-35.7313267994
20
-37.4529759514
0
LINE
5
233
100
AcDbEntity
8
0
100
AcDbLine
62
7
6
CONTINUOUS
10
-35.9215877648
20
66.7228586555
11
-35.9215877648
21
-37.2362093636
0
LINE
5
234
100
AcDbEntity
8
0
100
AcDbLine
62
7
6
CONTINUOUS
10
-35.7777372089
20
66.7216008173
11
-35.7777372089
21
-37.2374672018
0
LINE
5
235
100
AcDbEntity
8
0
100
AcDbLine
62
7
6
CONTINUOUS
10
-35.7385757512
20
-37.3250606248
11
-35.7385757512
21
66.5477637267
0
LINE
5
236
100
AcDbEntity
8
0
100
AcDbLine
62
7
6
CONTINUOUS
10
-35.6848099529
20
-37.3932800470
11
-35.6848099529
21
66.4795443038
0
LINE
5
237
100
AcDbEntity
8
0
100
AcDbLine
62
7
6
CONTINUOUS
10
-34.7376959118
20
-37.1884019081
11
-34.7376959118
21
65.2606012358
0
LINE
5
238
100
AcDbEntity
8
0
100
AcDbLine
62
7
6
CONTINUOUS
10
-34.4577759020
20
-37.1944218527
11
-34.4577759020
21
65.2545812911
0
LINE
5
239
100
AcDbEntity
8
0
100
AcDbLine
62
7
6
CONTINUOUS
10
-35.7356535557
20
66.6258047854
11
-35.7385753543
21
66.5477247357
0
LINE
5
23A
100
AcDbEntity
8
0
100
AcDbLine
62
7
6
CONTINUOUS
10
52.6986880691
20
-71.4741792940
11
53.0954452841
21
-71.6725579015
0
LINE
5
23B
100
AcDbEntity
8
0
100
AcDbLine
62
7
6
CONTINUOUS
10
-35.7313267994
20
-37.4529759514
11
-35.7194018410
21
-37.5355497465
0
LINE
5
23C
100
AcDbEntity
8
0
100
AcDbLine
62
7
6
CONTINUOUS
10
-32.1894810123
20
64.2423096516
11
-32.1894810123
21
-35.0052353003
0
LINE
5
23D
100
AcDbEntity
8
0
100
AcDbLine
62
7
6
CONTINUOUS
10
-31.4252404073
20
63.8632492847
11
-31.4252404073
21
-35.5603230564
0
LINE
5
23E
100
AcDbEntity
8
0
100
AcDbLine
62
7
6
CONTINUOUS
10
47.4505157738
20
41.6343008032
11
50.9272156765
21
43.3726507546
0
LINE
5
23F
100
AcDbEntity
8
0
100
AcDbLine
62
7
6
CONTINUOUS
10
48.9198210807
20
39.2226890868
11
52.4158453567
21
40.9707012248
0
LINE
5
240
100
AcDbEntity
8
0
100
AcDbLine
62
7
6
CONTINUOUS
10
53.1144333716
20
18.1077683752
11
52.4158453567
21
17.8790457704
0
LINE
5
241
100
AcDbEntity
8
0
100
AcDbLine
62
7
6
CONTINUOUS
10
52.6986880691
20
18.5924626996
11
52.4158453567
21
18.5231660633
0
LINE
5
242
100
AcDbEntity
8
0
100
AcDbLine
62
7
6
CONTINUOUS
10
53.1144333716
20
24.5366442240
11
52.4158453567
21
23.9895062367
0
LINE
5
243
100
AcDbEntity
8
0
100
AcDbLine
62
7
6
CONTINUOUS
10
-3.0601182474
20
-52.8112135184
11
-3.7154438640
21
-54.1660751203
0
LINE
5
244
100
AcDbEntity
8
0
100
AcDbLine
62
7
6
CONTINUOUS
10
-2.8847429898
20
-54.5812194764
11
-2.2295113133
21
-53.2264048446
0
LINE
5
245
100
AcDbEntity
8
0
100
AcDbLine
62
7
6
CONTINUOUS
10
-1.6003600168
20
-52.6566315230
11
-2.6000228218
21
-54.7235999795
0
LINE
5
246
100
AcDbEntity
8
0
100
AcDbLine
62
7
6
CONTINUOUS
10
-4.5346652827
20
-53.7570555812
11
-3.5344621760
21
-51.6898169738
0
LINE
5
247
100
AcDbEntity
8
0
100
AcDbLine
62
7
6
CONTINUOUS
10
-3.2496449336
20
-51.8321496468
11
-4.2496745534
21
-53.8993015107
0
LINE
5
248
100
AcDbEntity
8
0
100
AcDbLine
62
7
6
CONTINUOUS
10
-4.0003462920
20
-54.0237857473
11
-3.0004417920
21
-51.9566964432
0
LINE
5
249
100
AcDbEntity
8
0
100
AcDbLine
62
7
6
CONTINUOUS
10
-32.1894810123
20
-35.0052353003
11
-33.2407269799
21
-35.5426259717
0
LINE
5
24A
100
AcDbEntity
8
0
100
AcDbLine
62
7
6
CONTINUOUS
10
-32.0482535008
20
-35.2488165097
11
-33.0994842678
21
-35.7861968107
0
LINE
5
24B
100
AcDbEntity
8
0
100
AcDbLine
62
7
6
CONTINUOUS
10
-35.7385757512
20
-37.2178864729
11
-35.7777372089
21
-37.2374672018
0
LINE
5
24C
100
AcDbEntity
8
0
100
AcDbLine
62
7
6
CONTINUOUS
10
-35.0197137412
20
-38.5296533522
11
-35.0838298572
21
-38.5617114102
0
LINE
5
24D
100
AcDbEntity
8
0
100
AcDbLine
62
7
6
CONTINUOUS
10
29.3563763673
20
33.2549065788
11
29.3563763673
21
-69.1940965651
0
LINE
5
24E
100
AcDbEntity
8
0
100
AcDbLine
62
7
6
CONTINUOUS
10
29.4197872911
20
33.1818596345
11
29.4197872911
21
-69.2671435096
0
LINE
5
24F
100
AcDbEntity
8
0
100
AcDbLine
62
7
6
CONTINUOUS
10
-0.9519323670
20
-55.5486797938
11
0.0484500129
21
-53.4813515498
0
LINE
5
250
100
AcDbEntity
8
0
100
AcDbLine
62
7
6
CONTINUOUS
10
0.1362424218
20
-54.0000548315
11
-0.1160113393
21
-54.5212581711
0
LINE
5
251
100
AcDbEntity
8
0
100
AcDbLine
62
7
6
CONTINUOUS
10
-0.2891439249
20
-54.9094117453
11
-0.6675286833
21
-55.6912192461
0
LINE
5
252
100
AcDbEntity
8
0
100
AcDbLine
62
7
6
CONTINUOUS
10
30.4338522201
20
33.4202132173
11
30.4338522201
21
-70.4526111335
0
LINE
5
253
100
AcDbEntity
8
0
100
AcDbLine
62
7
6
CONTINUOUS
10
30.7092227386
20
33.4213963381
11
30.7092227386
21
-70.4514280127
0
LINE
5
254
100
AcDbEntity
8
0
100
AcDbLine
62
7
6
CONTINUOUS
10
30.8024323574
20
-70.5776227859
11
30.8024322570
21
33.3815160844
0
LINE
5
255
100
AcDbEntity
8
0
100
AcDbLine
62
7
6
CONTINUOUS
10
30.8342372551
20
-70.6141218736
11
30.8342372551
21
33.3449461455
0
LINE
5
256
100
AcDbEntity
8
0
100
AcDbLine
62
7
6
CONTINUOUS
10
30.8024322927
20
33.3815583566
11
30.8024322570
21
33.3815160947
0
LWPOLYLINE
5
257
100
AcDbEntity
8
0
100
AcDbPolyline
62
7
6
CONTINUOUS
90
9
70
0
10
29.3563763763
20
-69.1941476747
10
29.3562038952
20
-69.2077208206
10
29.3548980187
20
-69.2332896604
10
29.3524599662
20
-69.2566123017
10
29.3490604825
20
-69.2776614725
10
29.3449034335
20
-69.2962843196
10
29.3402774616
20
-69.3121687075
10
29.3354930133
20
-69.3251974322
10
29.3308355997
20
-69.3354675244
0
LWPOLYLINE
5
258
100
AcDbEntity
8
0
100
AcDbPolyline
62
7
6
CONTINUOUS
90
3
70
0
10
30.8024317133
20
-70.5776227849
10
30.7990996569
20
-70.6625438215
10
30.7836049936
20
-70.7729278140
0
LWPOLYLINE
5
259
100
AcDbEntity
8
0
100
AcDbPolyline
62
7
6
CONTINUOUS
90
6
70
0
10
29.3460827175
20
33.3658166274
10
29.3498499589
20
33.3426819401
10
29.3527785048
20
33.3195974483
10
29.3548494923
20
33.2966766618
10
29.3560494952
20
33.2740363535
10
29.3563762584
20
33.2549446268
0
LWPOLYLINE
5
25A
100
AcDbEntity
8
0
100
AcDbPolyline
62
7
6
CONTINUOUS
90
3
70
0
10
-33.3196597895
20
64.8028739283
10
-26.2552961518
20
61.2989770467
10
-19.1094324167
20
57.7391533798
0
LINE
5
25B
100
AcDbEntity
8
0
100
AcDbLine
62
7
6
CONTINUOUS
10
-19.1094324167
20
57.7391533798
11
-4.8853089713
21
50.6354811390
0
LINE
5
25C
100
AcDbEntity
8
0
100
AcDbLine
62
7
6
CONTINUOUS
10
52.6986880691
20
18.5924626996
11
53.0954452841
21
18.3940840921
0
LWPOLYLINE
5
25D
100
AcDbEntity
8
0
100
AcDbPolyline
62
7
6
CONTINUOUS
90
4
70
0
10
-4.8853089713
20
50.6354811390
10
9.2512151457
20
43.5644688589
10
16.2866953089
20
40.0408703223
10
23.2992176515
20
36.5214032619
0
LINE
5
25E
100
AcDbEntity
8
0
100
AcDbLine
62
7
6
CONTINUOUS
10
23.2992176515
20
36.5214032619
11
29.3106447118
21
33.4912285988
0
LWPOLYLINE
5
25F
100
AcDbEntity
8
0
100
AcDbPolyline
62
7
6
CONTINUOUS
90
6
70
0
10
29.2682279147
20
33.5781061111
10
29.2787430246
20
33.5599510421
10
29.2887925156
20
33.5408083309
10
29.2982851850
20
33.5208483460
10
29.3071969702
20
33.5001266466
10
29.3154767811
20
33.4787578311
0
LWPOLYLINE
5
260
100
AcDbEntity
8
0
100
AcDbPolyline
62
7
6
CONTINUOUS
90
6
70
0
10
29.3154767811
20
33.4787578311
10
29.3230716786
20
33.4568751180
10
29.3299607851
20
33.4345416732
10
29.3361145745
20
33.4118462886
10
29.3414972256
20
33.3889042022
10
29.3460827175
20
33.3658166274
0
LWPOLYLINE
5
261
100
AcDbEntity
8
0
100
AcDbPolyline
62
7
6
CONTINUOUS
90
5
70
0
10
30.7405418728
20
33.7791737507
10
30.7715820031
20
33.6584765578
10
30.7920060411
20
33.5397589032
10
30.8016156141
20
33.4248748928
10
30.8024317853
20
33.3815583580
0
LINE
5
262
100
AcDbEntity
8
0
100
AcDbLine
62
7
6
CONTINUOUS
10
53.1144333716
20
-71.9588736183
11
53.0954452841
21
-71.6725579015
0
LINE
5
263
100
AcDbEntity
8
0
100
AcDbLine
62
7
6
CONTINUOUS
10
48.2317361989
20
-92.4221970204
11
48.2317361989
21
39.2136643548
0
LINE
5
264
100
AcDbEntity
8
0
100
AcDbLine
62
7
6
CONTINUOUS
10
48.9198210807
20
-92.4131722885
11
48.9198210807
21
39.2226890868
0
LWPOLYLINE
5
265
100
AcDbEntity
8
0
100
AcDbPolyline
62
7
6
CONTINUOUS
90
5
70
0
10
30.7836049936
20
-70.7729278140
10
30.7558348301
20
-70.8731579811
10
30.7165954941
20
-70.9611257755
10
30.6668439918
20
-71.0354999477
10
30.6071571296
20
-71.0956996664
0
LINE
5
266
100
AcDbEntity
8
0
100
AcDbLine
62
7
6
CONTINUOUS
10
-5.0514860765
20
-52.7227439787
11
-4.9617186168
21
-52.6778602488
0
LINE
5
267
100
AcDbEntity
8
0
100
AcDbLine
62
7
6
CONTINUOUS
10
-5.4849728690
20
-53.2830726699
11
-5.3952008568
21
-53.2381866638
0
LINE
5
268
100
AcDbEntity
8
0
100
AcDbLine
62
7
6
CONTINUOUS
10
-3.0601182474
20
-52.8112135184
11
-2.9703879701
21
-52.7663483798
0
LINE
5
269
100
AcDbEntity
8
0
100
AcDbLine
62
7
6
CONTINUOUS
10
-4.5346652827
20
-53.7570555812
11
-4.4449210298
21
-53.7121834547
0
LINE
5
26A
100
AcDbEntity
8
0
100
AcDbLine
62
7
6
CONTINUOUS
10
-4.0003462920
20
-54.0237857473
11
-3.9106122101
21
-53.9789187063
0
LINE
5
26B
100
AcDbEntity
8
0
100
AcDbLine
62
7
6
CONTINUOUS
10
-2.2295113133
20
-53.2264048446
11
-2.1397859136
21
-53.1815421447
0
LINE
5
26C
100
AcDbEntity
8
0
100
AcDbLine
62
7
6
CONTINUOUS
10
-2.9556138408
20
-53.6614695984
11
-2.8658871853
21
-53.6166062707
0
LINE
5
26D
100
AcDbEntity
8
0
100
AcDbLine
62
7
6
CONTINUOUS
10
-3.4424557405
20
-54.3024578081
11
-3.3527281290
21
-54.2575940023
0
LINE
5
26E
100
AcDbEntity
8
0
100
AcDbLine
62
7
6
CONTINUOUS
10
-2.8847429898
20
-54.5812194764
11
-2.7950176209
21
-54.5363567920
0
LINE
5
26F
100
AcDbEntity
8
0
100
AcDbLine
62
7
6
CONTINUOUS
10
-1.0927143266
20
-53.7087010327
11
-1.0029809184
21
-53.6638343286
0
LINE
5
270
100
AcDbEntity
8
0
100
AcDbLine
62
7
6
CONTINUOUS
10
-2.3746519822
20
-54.8363345447
11
-2.2849249661
21
-54.7914710366
0
LINE
5
271
100
AcDbEntity
8
0
100
AcDbLine
62
7
6
CONTINUOUS
10
-1.8137656372
20
-54.6207899728
11
-1.7240352295
21
-54.5759247690
0
LINE
5
272
100
AcDbEntity
8
0
100
AcDbLine
62
7
6
CONTINUOUS
10
-1.2613016702
20
-54.4226255312
11
-1.1715660326
21
-54.3777577124
0
LINE
5
273
100
AcDbEntity
8
0
100
AcDbLine
62
7
6
CONTINUOUS
10
0.1362424218
20
-54.0000548315
11
0.2260004477
21
-53.9551758186
0
LINE
5
274
100
AcDbEntity
8
0
100
AcDbLine
62
7
6
CONTINUOUS
10
-1.3631697132
20
-54.8463312737
11
-1.2734326485
21
-54.8014627414
0
LINE
5
275
100
AcDbEntity
8
0
100
AcDbLine
62
7
6
CONTINUOUS
10
0.4919582456
20
-54.1781231959
11
0.5817277875
21
-54.1332384250
0
LINE
5
276
100
AcDbEntity
8
0
100
AcDbLine
62
7
6
CONTINUOUS
10
-1.4616055156
20
-55.2933557960
11
-1.3718667042
21
-55.2484863903
0
LINE
5
277
100
AcDbEntity
8
0
100
AcDbLine
62
7
6
CONTINUOUS
10
-0.2891439249
20
-54.9094117453
11
-0.1993855525
21
-54.8645325591
0
LINE
5
278
100
AcDbEntity
8
0
100
AcDbLine
62
7
6
CONTINUOUS
10
-0.0402417990
20
-55.0341090496
11
0.0495244926
21
-54.9892259038
0
LINE
5
279
100
AcDbEntity
8
0
100
AcDbLine
62
7
6
CONTINUOUS
10
-0.9519323670
20
-55.5486797938
11
-0.8621820059
21
-55.5038046132
0
LINE
5
27A
100
AcDbEntity
8
0
100
AcDbLine
62
7
6
CONTINUOUS
10
0.2812744101
20
-55.1304485070
11
0.3710512535
21
-55.0855600853
0
LINE
5
27B
100
AcDbEntity
8
0
100
AcDbLine
62
7
6
CONTINUOUS
10
-0.1344000301
20
-55.9585438738
11
-0.0446236343
21
-55.9136556759
0
LINE
5
27C
100
AcDbEntity
8
0
100
AcDbLine
62
7
6
CONTINUOUS
10
-35.1537240365
20
67.3052657872
11
-35.1295928752
21
67.2951068261
0
LWPOLYLINE
5
27D
100
AcDbEntity
8
0
100
AcDbPolyline
62
7
6
CONTINUOUS
90
9
70
0
10
-35.1295928752
20
67.2951068261
10
-28.2838696092
20
64.2206058992
10
-21.1615864435
20
60.9299285003
10
-13.9777472996
20
57.5182930669
10
-6.7346654465
20
53.9868361697
10
0.5654242052
20
50.3366702476
10
7.9202526001
20
46.5689283851
10
15.3274557340
20
42.6847946770
10
22.7844924722
20
38.6855569914
0
LINE
5
27E
100
AcDbEntity
8
0
100
AcDbLine
62
7
6
CONTINUOUS
10
22.7844924722
20
38.6855569914
11
30.0401441167
21
34.7102208577
0
LINE
5
27F
100
AcDbEntity
8
0
100
AcDbLine
62
7
6
CONTINUOUS
10
29.1837077965
20
33.6704256691
11
29.1899321551
21
33.6667837684
0
LWPOLYLINE
5
280
100
AcDbEntity
8
0
100
AcDbPolyline
62
7
6
CONTINUOUS
90
3
70
0
10
30.0402126233
20
34.7101827217
10
30.0975195764
20
34.6759909686
10
30.1890003380
20
34.6109984946
0
LINE
5
281
100
AcDbEntity
8
0
100
AcDbLine
62
7
6
CONTINUOUS
10
29.1899321551
20
33.6667837684
11
29.1900448760
21
33.6667140967
0
LWPOLYLINE
5
282
100
AcDbEntity
8
0
100
AcDbPolyline
62
7
6
CONTINUOUS
90
9
70
0
10
29.1900515347
20
33.6666966036
10
29.1947601155
20
33.6636089438
10
29.2032135338
20
33.6572138545
10
29.2129326508
20
33.6486831322
10
29.2236218951
20
33.6379759772
10
29.2348658420
20
33.6252510868
10
29.2462038528
20
33.6108634143
10
29.2573585050
20
33.5951058001
10
29.2682279147
20
33.5781061111
0
LWPOLYLINE
5
283
100
AcDbEntity
8
0
100
AcDbPolyline
62
7
6
CONTINUOUS
90
4
70
0
10
30.1890003380
20
34.6109984946
10
30.2783971888
20
34.5344029122
10
30.3643112902
20
34.4472462372
10
30.4454084152
20
34.3507611777
0
LWPOLYLINE
5
284
100
AcDbEntity
8
0
100
AcDbPolyline
62
7
6
CONTINUOUS
90
6
70
0
10
30.4454084152
20
34.3507611777
10
30.5204642019
20
34.2463258441
10
30.5884438562
20
34.1353234813
10
30.6483417901
20
34.0193230906
10
30.6992767182
20
33.9000432111
10
30.7405418728
20
33.7791737507
0
LINE
5
285
100
AcDbEntity
8
0
100
AcDbLine
62
7
6
CONTINUOUS
10
53.1144333716
20
18.1077683752
11
53.0954452841
21
18.3940840921
0
LINE
5
286
100
AcDbEntity
8
0
100
AcDbLine
62
7
6
CONTINUOUS
10
53.1105794282
20
42.1063671783
11
53.0952231153
21
42.3747750386
0
LINE
5
287
100
AcDbEntity
8
0
100
AcDbLine
62
7
6
CONTINUOUS
10
52.4158453567
20
40.9707012248
11
52.4158453567
21
-90.6651601505
0
LINE
5
288
100
AcDbEntity
8
0
100
AcDbLine
62
7
6
CONTINUOUS
10
53.1144333716
20
42.0077335774
11
53.1144333716
21
24.5366442240
0
LINE
5
289
100
AcDbEntity
8
0
100
AcDbLine
62
7
6
CONTINUOUS
10
53.1144333716
20
18.1077683752
11
53.1144333716
21
-65.5299977696
0
LINE
5
28A
100
AcDbEntity
8
0
100
AcDbLine
62
7
6
CONTINUOUS
10
53.1144333716
20
-71.9588736183
11
53.1144333716
21
-89.4299629717
0
LINE
5
28B
100
AcDbEntity
8
0
100
AcDbLine
62
7
6
CONTINUOUS
10
29.3308355997
20
-69.3354675244
11
29.3280102333
21
-69.3407229932
0
LINE
5
28C
100
AcDbEntity
8
0
100
AcDbLine
62
7
6
CONTINUOUS
10
29.3280229781
20
-69.3406934844
11
29.3279669065
21
-69.3407904694
0
LWPOLYLINE
5
28D
100
AcDbEntity
8
0
100
AcDbPolyline
62
7
6
CONTINUOUS
90
3
70
0
10
30.6071571296
20
-71.0956996664
10
30.5380940537
20
-71.1410179320
10
30.5281243130
20
-71.1459381378
0
LINE
5
28E
100
AcDbEntity
8
0
100
AcDbLine
62
7
6
CONTINUOUS
10
30.2867054979
20
-71.0436916092
11
30.0834180193
21
-71.1453353485
0
LINE
5
28F
100
AcDbEntity
8
0
100
AcDbLine
62
7
6
CONTINUOUS
10
30.4308586490
20
-71.0009992172
11
30.7630581082
21
-70.8470871813
0
LINE
5
290
100
AcDbEntity
8
0
100
AcDbLine
62
7
6
CONTINUOUS
10
53.1144333716
20
-65.5299977696
11
52.4158453567
21
-66.0771357569
0
LINE
5
291
100
AcDbEntity
8
0
100
AcDbLine
62
7
6
CONTINUOUS
10
53.1144333716
20
-71.9588736183
11
52.4158453567
21
-72.1875962232
0
LINE
5
292
100
AcDbEntity
8
0
100
AcDbLine
62
7
6
CONTINUOUS
10
52.4158453567
20
-90.2459372833
11
52.8861948934
21
-89.9528029638
0
LINE
5
293
100
AcDbEntity
8
0
100
AcDbLine
62
7
6
CONTINUOUS
10
52.4158453567
20
-90.6651601505
11
48.9198210807
21
-92.4131722885
0
LINE
5
294
100
AcDbEntity
8
0
100
AcDbLine
62
7
6
CONTINUOUS
10
51.8681040528
20
-91.7608852175
11
48.3795191563
21
-93.5051776658
0
SPLINE
5
295
100
AcDbEntity
8
0
100
AcDbSpline
62
7
6
CONTINUOUS
70
0
71
3
72
8
73
4
74
2
42
0.0000001000
43
0.0000001000
44
0.0000000001
12
0.0040288057
22
-0.0679778808
32
0.0000000000
13
0.0000636131
23
-0.0680809487
33
0.0000000000
40
0.0000000000
40
0.0000000000
40
0.0000000000
40
0.0000000000
40
1.0000000000
40
1.0000000000
40
1.0000000000
40
1.0000000000
10
53.1123812756
20
42.0757855532
30
0.0000000000
10
53.1137242109
20
42.0531262596
30
0.0000000000
10
53.1144121672
20
42.0304271561
30
0.0000000000
10
53.1144333716
20
42.0077335065
30
0.0000000000
11
53.1123812756
21
42.0757855532
31
0.0000000000
11
53.1144333716
21
42.0077335065
31
0.0000000000
0
SPLINE
5
296
100
AcDbEntity
8
0
100
AcDbSpline
62
7
6
CONTINUOUS
70
0
71
3
72
14
73
10
74
8
42
0.0000001000
43
0.0000001000
44
0.0000000001
12
0.4478009993
22
-0.3832968267
32
0.0000000000
13
0.0306900110
23
-0.5881480268
33
0.0000000000
40
0.0000000000
40
0.0000000000
40
0.0000000000
40
0.0000000000
40
0.0102029499
40
0.2053411072
40
0.4068049566
40
0.6118155895
40
0.8164688807
40
0.9450175071
40
1.0000000000
40
1.0000000000
40
1.0000000000
40
1.0000000000
10
52.8407634709
20
42.8901589555
30
0.0000000000
10
52.8422864346
20
42.8888553694
30
0.0000000000
10
52.8728028162
20
42.8624632337
30
0.0000000000
10
52.9279143515
20
42.8041213926
30
0.0000000000
10
52.9947467681
20
42.7062553699
30
0.0000000000
10
53.0473763445
20
42.5980063449
30
0.0000000000
10
53.0790933993
20
42.4967697745
30
0.0000000000
10
53.0917908618
20
42.4214728264
30
0.0000000000
10
53.0946664919
20
42.3855525859
30
0.0000000000
10
53.0952289630
20
42.3747733043
30
0.0000000000
11
52.8407634709
21
42.8901589555
31
0.0000000000
11
52.8453123580
21
42.8862250877
31
0.0000000000
11
52.9247160797
21
42.8031795702
31
0.0000000000
11
52.9918594309
21
42.7053887487
31
0.0000000000
11
53.0446177291
21
42.5968178092
31
0.0000000000
11
53.0802823999
21
42.4817162607
31
0.0000000000
11
53.0926628186
21
42.4070459026
31
0.0000000000
11
53.0952289630
21
42.3747733043
31
0.0000000000
0
SPLINE
5
297
100
AcDbEntity
8
0
100
AcDbSpline
62
7
6
CONTINUOUS
70
0
71
3
72
15
73
11
74
9
42
0.0000001000
43
0.0000001000
44
0.0000000001
12
0.4020804577
22
0.1565624024
32
0.0000000000
13
0.3852603147
23
-0.1934714594
33
0.0000000000
40
0.0000000000
40
0.0000000000
40
0.0000000000
40
0.0000000000
40
0.0262728601
40
0.1520751255
40
0.2819796550
40
0.4162604858
40
0.5545004609
40
0.6966131085
40
0.8444309177
40
1.0000000000
40
1.0000000000
40
1.0000000000
40
1.0000000000
10
-45.7831029406
20
92.1569140838
30
0.0000000000
10
-45.7795816727
20
92.1582851978
30
0.0000000000
10
-45.7590782428
20
92.1659096895
30
0.0000000000
10
-45.7198599460
20
92.1766521152
30
0.0000000000
10
-45.6640927996
20
92.1837168418
30
0.0000000000
10
-45.6061208256
20
92.1836448418
30
0.0000000000
10
-45.5468279209
20
92.1765373010
30
0.0000000000
10
-45.4868335854
20
92.1623330280
30
0.0000000000
10
-45.4263079762
20
92.1411762497
30
0.0000000000
10
-45.3865628746
20
92.1231106055
30
0.0000000000
10
-45.3665846768
20
92.1130778797
30
0.0000000000
11
-45.7831029406
21
92.1569140838
31
0.0000000000
11
-45.7724779048
21
92.1608649998
31
0.0000000000
11
-45.7201881768
21
92.1752591568
31
0.0000000000
11
-45.6646509374
21
92.1824689996
31
0.0000000000
11
-45.6067610162
21
92.1825232044
31
0.0000000000
11
-45.5475782287
21
92.1755108202
31
0.0000000000
11
-45.4879295702
21
92.1615250907
31
0.0000000000
11
-45.4277107549
21
92.1406760383
31
0.0000000000
11
-45.3665846768
21
92.1130778797
31
0.0000000000
0
SPLINE
5
298
100
AcDbEntity
8
0
100
AcDbSpline
62
7
6
CONTINUOUS
70
0
71
3
72
17
73
13
74
11
42
0.0000001000
43
0.0000001000
44
0.0000000001
12
-0.0005554867
22
-0.5951182984
32
0.0000000000
13
-0.5050976588
23
-0.3156356473
33
0.0000000000
40
0.0000000000
40
0.0000000000
40
0.0000000000
40
0.0000000000
40
0.1236093187
40
0.2417196112
40
0.3556161569
40
0.4663239936
40
0.5732769875
40
0.6756186095
40
0.7730185334
40
0.8664692439
40
0.9572874608
40
1.0000000000
40
1.0000000000
40
1.0000000000
40
1.0000000000
10
53.1144333716
20
-89.4299629009
30
0.0000000000
10
53.1144104838
20
-89.4544836234
30
0.0000000000
10
53.1128394872
20
-89.5024538505
30
0.0000000000
10
53.1052563481
20
-89.5726624893
30
0.0000000000
10
53.0922400255
20
-89.6394822811
30
0.0000000000
10
53.0737333460
20
-89.7026995950
30
0.0000000000
10
53.0500306387
20
-89.7617035255
30
0.0000000000
10
53.0214078658
20
-89.8155412110
30
0.0000000000
10
52.9879604187
20
-89.8633145675
30
0.0000000000
10
52.9501174842
20
-89.9046491249
30
0.0000000000
10
52.9153957499
20
-89.9335351271
30
0.0000000000
10
52.8933816996
20
-89.9483343948
30
0.0000000000
10
52.8861903651
20
-89.9528282615
30
0.0000000000
11
53.1144333716
21
-89.4299629009
31
0.0000000000
11
53.1118666686
21
-89.5034803085
31
0.0000000000
11
53.1041650005
21
-89.5733467237
31
0.0000000000
11
53.0910886893
21
-89.6398553890
31
0.0000000000
11
53.0724959573
21
-89.7030617948
31
0.0000000000
11
53.0486366270
21
-89.7620704223
31
0.0000000000
11
53.0198584209
21
-89.8157480007
31
0.0000000000
11
52.9865022013
21
-89.8631531283
31
0.0000000000
11
52.9488813891
21
-89.9041118823
31
0.0000000000
11
52.9073025453
21
-89.9386422093
31
0.0000000000
11
52.8861903651
21
-89.9528282615
31
0.0000000000
0
SPLINE
5
299
100
AcDbEntity
8
0
100
AcDbSpline
62
7
6
CONTINUOUS
70
0
71
3
72
11
73
7
74
5
42
0.0000001000
43
0.0000001000
44
0.0000000001
12
0.2193510231
22
-0.1091953390
32
0.0000000000
13
0.1854649321
23
-0.1601938029
33
0.0000000000
40
0.0000000000
40
0.0000000000
40
0.0000000000
40
0.0000000000
40
0.2852906270
40
0.5796464140
40
0.8869064405
40
1.0000000000
40
1.0000000000
40
1.0000000000
40
1.0000000000
10
52.4063766101
20
43.2265972363
30
0.0000000000
10
52.4272362071
20
43.2162131007
30
0.0000000000
10
52.4687784164
20
43.1933859291
30
0.0000000000
10
52.5294422574
20
43.1536761511
30
0.0000000000
10
52.5757970514
20
43.1181110244
30
0.0000000000
10
52.6020495187
20
43.0959725277
30
0.0000000000
10
52.6090411485
20
43.0899335653
30
0.0000000000
11
52.4063766101
21
43.2265972363
31
0.0000000000
11
52.4676697430
21
43.1929857893
31
0.0000000000
11
52.5280496189
21
43.1535354962
31
0.0000000000
11
52.5878502118
21
43.1077965999
31
0.0000000000
11
52.6090411485
21
43.0899335653
31
0.0000000000
0
SPLINE
5
29A
100
AcDbEntity
8
0
100
AcDbSpline
62
7
6
CONTINUOUS
70
0
71
3
72
13
73
9
74
7
42
0.0000001000
43
0.0000001000
44
0.0000000001
12
97.6429665145
22
-49.1458804275
32
0.0000000000
13
97.9028286467
23
-48.6261516913
33
0.0000000000
40
0.0000000000
40
0.0000000000
40
0.0000000000
40
0.0000000000
40
0.1087325207
40
0.3297011770
40
0.4997744408
40
0.6698964301
40
0.8910853742
40
1.0000000000
40
1.0000000000
40
1.0000000000
40
1.0000000000
10
-45.3665847336
20
92.1130779083
30
0.0000000000
10
-41.8275961078
20
90.3318260881
30
0.0000000000
10
-31.0950675791
20
84.9337093232
30
0.0000000000
10
-14.8191363175
20
76.7652047014
30
0.0000000000
10
3.4658137127
20
67.6128369560
30
0.0000000000
10
21.7658058673
20
58.4726048229
30
0.0000000000
10
38.0808632913
20
50.3455962683
30
0.0000000000
10
48.8520266838
20
44.9919635803
30
0.0000000000
10
52.4063766670
20
43.2265972081
30
0.0000000000
11
-45.3665847336
21
92.1130779083
31
0.0000000000
11
-34.7480994146
21
86.7723415602
31
0.0000000000
11
-13.1594736737
21
75.9376920605
31
0.0000000000
11
3.4654171283
21
67.6160137973
31
0.0000000000
11
20.1024144963
21
59.3066384826
31
0.0000000000
11
41.7448467774
21
48.5257564534
31
0.0000000000
11
52.4063766670
21
43.2265972081
31
0.0000000000
0
SPLINE
5
29B
100
AcDbEntity
8
0
100
AcDbSpline
62
7
6
CONTINUOUS
70
0
71
3
72
11
73
7
74
5
42
0.0000001000
43
0.0000001000
44
0.0000000001
12
0.0000003529
22
-0.2932569949
32
0.0000000000
13
0.2622970015
23
-0.1311485725
33
0.0000000000
40
0.0000000000
40
0.0000000000
40
0.0000000000
40
0.0000000000
40
0.2469818528
40
0.5108864439
40
0.7702121384
40
1.0000000000
40
1.0000000000
40
1.0000000000
40
1.0000000000
10
-32.1894810123
20
-35.0052350455
30
0.0000000000
10
-32.1894809833
20
-35.0293780975
30
0.0000000000
10
-32.1811829534
20
-35.0794068529
30
0.0000000000
10
-32.1510779998
20
-35.1491032140
30
0.0000000000
10
-32.1067955816
20
-35.2087100741
30
0.0000000000
10
-32.0683443582
20
-35.2387710755
30
0.0000000000
10
-32.0482534691
20
-35.2488165255
30
0.0000000000
11
-32.1894810123
21
-35.0052350455
31
0.0000000000
11
-32.1787302184
21
-35.0768618775
31
0.0000000000
11
-32.1482741555
21
-35.1480091147
31
0.0000000000
11
-32.1023351613
21
-35.2086149762
31
0.0000000000
11
-32.0482534691
21
-35.2488165255
31
0.0000000000
0
SPLINE
5
29C
100
AcDbEntity
8
0
100
AcDbSpline
62
7
6
CONTINUOUS
70
0
71
3
72
10
73
6
74
4
42
0.0000001000
43
0.0000001000
44
0.0000000001
12
-0.3461632010
22
-1.4180097910
32
0.0000000000
13
-0.3458815970
23
-1.4180785066
33
0.0000000000
40
0.0000000000
40
0.0000000000
40
0.0000000000
40
0.0000000000
40
0.3738826648
40
0.7491061790
40
1.0000000000
40
1.0000000000
40
1.0000000000
40
1.0000000000
10
-4.6620025574
20
-51.1264879467
30
0.0000000000
10
-4.7051440308
20
-51.3032110398
30
0.0000000000
10
-4.7915674512
20
-51.6572944826
30
0.0000000000
10
-4.9069002724
20
-52.1299778151
30
0.0000000000
10
-4.9790945178
20
-52.4259373455
30
0.0000000000
10
-5.0080210363
20
-52.5445330572
30
0.0000000000
11
-4.6620025574
21
-51.1264879467
31
0.0000000000
11
-4.7914060603
21
-51.6566623318
31
0.0000000000
11
-4.9212332338
21
-52.1887479338
31
0.0000000000
11
-5.0080210363
21
-52.5445330572
31
0.0000000000
0
SPLINE
5
29D
100
AcDbEntity
8
0
100
AcDbSpline
62
7
6
CONTINUOUS
70
0
71
3
72
8
73
4
74
2
42
0.0000001000
43
0.0000001000
44
0.0000000001
12
-0.0434670628
22
-0.1782104282
32
0.0000000000
13
-0.0434630332
23
-0.1782114110
33
0.0000000000
40
0.0000000000
40
0.0000000000
40
0.0000000000
40
0.0000000000
40
1.0000000000
40
1.0000000000
40
1.0000000000
40
1.0000000000
10
-5.0080210363
20
-52.5445330572
30
0.0000000000
10
-5.0225100572
20
-52.6039365333
30
0.0000000000
10
-5.0369983988
20
-52.6633401750
30
0.0000000000
10
-5.0514860765
20
-52.7227439787
30
0.0000000000
11
-5.0080210363
21
-52.5445330572
31
0.0000000000
11
-5.0514860765
21
-52.7227439787
31
0.0000000000
0
SPLINE
5
29E
100
AcDbEntity
8
0
100
AcDbSpline
62
7
6
CONTINUOUS
70
0
71
3
72
8
73
4
74
2
42
0.0000001000
43
0.0000001000
44
0.0000000001
12
0.1423696939
22
-0.0711308050
32
0.0000000000
13
0.1423682619
23
-0.0711336711
33
0.0000000000
40
0.0000000000
40
0.0000000000
40
0.0000000000
40
0.0000000000
40
1.0000000000
40
1.0000000000
40
1.0000000000
40
1.0000000000
10
-4.0329261933
20
-51.4407522480
30
0.0000000000
10
-3.9854696287
20
-51.4644625163
30
0.0000000000
10
-3.9380133029
20
-51.4881732628
30
0.0000000000
10
-3.8905572156
20
-51.5118844865
30
0.0000000000
11
-4.0329261933
21
-51.4407522480
31
0.0000000000
11
-3.8905572156
21
-51.5118844865
31
0.0000000000
0
SPLINE
5
29F
100
AcDbEntity
8
0
100
AcDbSpline
62
7
6
CONTINUOUS
70
0
71
3
72
8
73
4
74
2
42
0.0000001000
43
0.0000001000
44
0.0000000001
12
0.1424739891
22
-0.0711864972
32
0.0000000000
13
0.1424725574
23
-0.0711893627
33
0.0000000000
40
0.0000000000
40
0.0000000000
40
0.0000000000
40
0.0000000000
40
1.0000000000
40
1.0000000000
40
1.0000000000
40
1.0000000000
10
-3.8905572156
20
-51.5118844865
30
0.0000000000
10
-3.8430658859
20
-51.5356133189
30
0.0000000000
10
-3.7955747950
20
-51.5593426292
30
0.0000000000
10
-3.7480839425
20
-51.5830724168
30
0.0000000000
11
-3.8905572156
21
-51.5118844865
31
0.0000000000
11
-3.7480839425
21
-51.5830724168
31
0.0000000000
0
SPLINE
5
2A0
100
AcDbEntity
8
0
100
AcDbSpline
62
7
6
CONTINUOUS
70
0
71
3
72
10
73
6
74
4
42
0.0000001000
43
0.0000001000
44
0.0000000001
12
-1.3019520130
22
-1.6336896598
32
0.0000000000
13
-1.3021991957
23
-1.6334926398
33
0.0000000000
40
0.0000000000
40
0.0000000000
40
0.0000000000
40
0.0000000000
40
0.3765684891
40
0.7512546079
40
1.0000000000
40
1.0000000000
40
1.0000000000
40
1.0000000000
10
-3.7480839425
20
-51.5830724168
30
0.0000000000
10
-3.9115086434
20
-51.7881377657
30
0.0000000000
10
-4.2375512049
20
-52.1972353621
30
0.0000000000
10
-4.6715785399
20
-52.7417640477
30
0.0000000000
10
-4.9421819573
20
-53.0812267582
30
0.0000000000
10
-5.0501539738
20
-53.2166680139
30
0.0000000000
11
-3.7480839425
21
-51.5830724168
31
0.0000000000
11
-4.2383737955
21
-52.1982559111
31
0.0000000000
11
-4.7262464346
21
-52.8103374625
31
0.0000000000
11
-5.0501539738
21
-53.2166680139
31
0.0000000000
0
SPLINE
5
2A1
100
AcDbEntity
8
0
100
AcDbSpline
62
7
6
CONTINUOUS
70
0
71
3
72
8
73
4
74
2
42
0.0000001000
43
0.0000001000
44
0.0000000001
12
-0.1615496474
22
-0.2026496106
32
0.0000000000
13
-0.1615540304
23
-0.2026461164
33
0.0000000000
40
0.0000000000
40
0.0000000000
40
0.0000000000
40
0.0000000000
40
1.0000000000
40
1.0000000000
40
1.0000000000
40
1.0000000000
10
-5.0501539738
20
-53.2166680139
30
0.0000000000
10
-5.1040038563
20
-53.2842178841
30
0.0000000000
10
-5.1578544586
20
-53.3517671805
30
0.0000000000
10
-5.2117058021
20
-53.4193158859
30
0.0000000000
11
-5.0501539738
21
-53.2166680139
31
0.0000000000
11
-5.2117058021
21
-53.4193158859
31
0.0000000000
0
SPLINE
5
2A2
100
AcDbEntity
8
0
100
AcDbSpline
62
7
6
CONTINUOUS
70
0
71
3
72
8
73
4
74
2
42
0.0000001000
43
0.0000001000
44
0.0000000001
12
0.1423925335
22
-0.0711190515
32
0.0000000000
13
0.1423910821
23
-0.0711219573
33
0.0000000000
40
0.0000000000
40
0.0000000000
40
0.0000000000
40
0.0000000000
40
1.0000000000
40
1.0000000000
40
1.0000000000
40
1.0000000000
10
-4.9468910743
20
-50.9841909110
30
0.0000000000
10
-4.8994268965
20
-51.0078972615
30
0.0000000000
10
-4.8519629609
20
-51.0316040969
30
0.0000000000
10
-4.8044992668
20
-51.0553114160
30
0.0000000000
11
-4.9468910743
21
-50.9841909110
31
0.0000000000
11
-4.8044992668
21
-51.0553114160
31
0.0000000000
0
SPLINE
5
2A3
100
AcDbEntity
8
0
100
AcDbSpline
62
7
6
CONTINUOUS
70
0
71
3
72
8
73
4
74
2
42
0.0000001000
43
0.0000001000
44
0.0000000001
12
0.1424974347
22
-0.0711750786
32
0.0000000000
13
0.1424959846
23
-0.0711779817
33
0.0000000000
40
0.0000000000
40
0.0000000000
40
0.0000000000
40
0.0000000000
40
1.0000000000
40
1.0000000000
40
1.0000000000
40
1.0000000000
10
-4.8044992668
20
-51.0553114160
30
0.0000000000
10
-4.7570001219
20
-51.0790364422
30
0.0000000000
10
-4.7095012190
20
-51.1027619528
30
0.0000000000
10
-4.6620025574
20
-51.1264879467
30
0.0000000000
11
-4.8044992668
21
-51.0553114160
31
0.0000000000
11
-4.6620025574
21
-51.1264879467
31
0.0000000000
0
SPLINE
5
2A4
100
AcDbEntity
8
0
100
AcDbSpline
62
7
6
CONTINUOUS
70
0
71
3
72
8
73
4
74
2
42
0.0000001000
43
0.0000001000
44
0.0000000001
12
0.1423659317
22
-0.0711414400
32
0.0000000000
13
0.1423645071
23
-0.0711442908
33
0.0000000000
40
0.0000000000
40
0.0000000000
40
0.0000000000
40
0.0000000000
40
1.0000000000
40
1.0000000000
40
1.0000000000
40
1.0000000000
10
-3.5344621760
20
-51.6898169738
30
0.0000000000
10
-3.4870068654
20
-51.7135307871
30
0.0000000000
10
-3.4395517924
20
-51.7372450759
30
0.0000000000
10
-3.3920969567
20
-51.7609598395
30
0.0000000000
11
-3.5344621760
21
-51.6898169738
31
0.0000000000
11
-3.3920969567
21
-51.7609598395
31
0.0000000000
0
SPLINE
5
2A5
100
AcDbEntity
8
0
100
AcDbSpline
62
7
6
CONTINUOUS
70
0
71
3
72
8
73
4
74
2
42
0.0000001000
43
0.0000001000
44
0.0000000001
12
0.1424527356
22
-0.0711883816
32
0.0000000000
13
0.1424513110
23
-0.0711912324
33
0.0000000000
40
0.0000000000
40
0.0000000000
40
0.0000000000
40
0.0000000000
40
1.0000000000
40
1.0000000000
40
1.0000000000
40
1.0000000000
10
-3.3920969567
20
-51.7609598395
30
0.0000000000
10
-3.3446127115
20
-51.7846893001
30
0.0000000000
10
-3.2971287039
20
-51.8084192360
30
0.0000000000
10
-3.2496449336
20
-51.8321496468
30
0.0000000000
11
-3.3920969567
21
-51.7609598395
31
0.0000000000
11
-3.2496449336
21
-51.8321496468
31
0.0000000000
0
SPLINE
5
2A6
100
AcDbEntity
8
0
100
AcDbSpline
62
7
6
CONTINUOUS
70
0
71
3
72
8
73
4
74
2
42
0.0000001000
43
0.0000001000
44
0.0000000001
12
0.1423779554
22
-0.0711850078
32
0.0000000000
13
0.1423765397
23
-0.0711878394
33
0.0000000000
40
0.0000000000
40
0.0000000000
40
0.0000000000
40
0.0000000000
40
1.0000000000
40
1.0000000000
40
1.0000000000
40
1.0000000000
10
-2.0274668803
20
-52.4430740741
30
0.0000000000
10
-1.9800075619
20
-52.4668024101
30
0.0000000000
10
-1.9325484794
20
-52.4905312179
30
0.0000000000
10
-1.8850896328
20
-52.5142604977
30
0.0000000000
11
-2.0274668803
21
-52.4430740741
31
0.0000000000
11
-1.8850896328
21
-52.5142604977
31
0.0000000000
0
SPLINE
5
2A7
100
AcDbEntity
8
0
100
AcDbSpline
62
7
6
CONTINUOUS
70
0
71
3
72
9
73
5
74
3
42
0.0000001000
43
0.0000001000
44
0.0000000001
12
0.2847324473
22
-0.1423653628
32
0.0000000000
13
0.2847267843
23
-0.1423766882
33
0.0000000000
40
0.0000000000
40
0.0000000000
40
0.0000000000
40
0.0000000000
40
0.2500090576
40
1.0000000000
40
1.0000000000
40
1.0000000000
40
1.0000000000
10
-1.8850896328
20
-52.5142604977
30
0.0000000000
10
-1.8613610692
20
-52.5261247078
30
0.0000000000
10
-1.7664504894
20
-52.5735803006
30
0.0000000000
10
-1.6715408533
20
-52.6210377808
30
0.0000000000
10
-1.6003600168
20
-52.6566315230
30
0.0000000000
11
-1.8850896328
21
-52.5142604977
31
0.0000000000
11
-1.8139041190
21
-52.5498534818
31
0.0000000000
11
-1.6003600168
21
-52.6566315230
31
0.0000000000
0
SPLINE
5
2A8
100
AcDbEntity
8
0
100
AcDbSpline
62
7
6
CONTINUOUS
70
0
71
3
72
8
73
4
74
2
42
0.0000001000
43
0.0000001000
44
0.0000000001
12
-0.1032857312
22
-0.1355884240
32
0.0000000000
13
-0.1032858717
23
-0.1355883169
33
0.0000000000
40
0.0000000000
40
0.0000000000
40
0.0000000000
40
0.0000000000
40
1.0000000000
40
1.0000000000
40
1.0000000000
40
1.0000000000
10
-2.2295113133
20
-53.2264048446
30
0.0000000000
10
-2.2639398904
20
-53.2716009859
30
0.0000000000
10
-2.2983684882
20
-53.3167971114
30
0.0000000000
10
-2.3327971121
20
-53.3619932170
30
0.0000000000
11
-2.2295113133
21
-53.2264048446
31
0.0000000000
11
-2.3327971121
21
-53.3619932170
31
0.0000000000
0
SPLINE
5
2A9
100
AcDbEntity
8
0
100
AcDbSpline
62
7
6
CONTINUOUS
70
0
71
3
72
10
73
6
74
4
42
0.0000001000
43
0.0000001000
44
0.0000000001
12
-0.7218748732
22
-0.9476397645
32
0.0000000000
13
-0.7218878880
23
-0.9476298502
33
0.0000000000
40
0.0000000000
40
0.0000000000
40
0.0000000000
40
0.0000000000
40
0.2859928644
40
0.7145642192
40
1.0000000000
40
1.0000000000
40
1.0000000000
40
1.0000000000
10
-2.3327971121
20
-53.3619932170
30
0.0000000000
10
-2.4016141330
20
-53.4523326206
30
0.0000000000
10
-2.5735563781
20
-53.6780489120
30
0.0000000000
10
-2.8141829753
20
-53.9939275845
30
0.0000000000
10
-2.9859933849
20
-54.2194662189
30
0.0000000000
10
-3.0546775959
20
-54.3096287076
30
0.0000000000
11
-2.3327971121
21
-53.3619932170
31
0.0000000000
11
-2.5392485289
21
-53.6330111579
31
0.0000000000
11
-2.8486256706
21
-54.0391407023
31
0.0000000000
11
-3.0546775959
21
-54.3096287076
31
0.0000000000
0
SPLINE
5
2AA
100
AcDbEntity
8
0
100
AcDbSpline
62
7
6
CONTINUOUS
70
0
71
3
72
8
73
4
74
2
42
0.0000001000
43
0.0000001000
44
0.0000000001
12
-0.1029660123
22
-0.1351645712
32
0.0000000000
13
-0.1029664022
23
-0.1351642742
33
0.0000000000
40
0.0000000000
40
0.0000000000
40
0.0000000000
40
0.0000000000
40
1.0000000000
40
1.0000000000
40
1.0000000000
40
1.0000000000
10
-3.0546775959
20
-54.3096287076
30
0.0000000000
10
-3.0889996000
20
-54.3546835647
30
0.0000000000
10
-3.1233216665
20
-54.3997383742
30
0.0000000000
10
-3.1576438005
20
-54.4447931323
30
0.0000000000
11
-3.0546775959
21
-54.3096287076
31
0.0000000000
11
-3.1576438005
21
-54.4447931323
31
0.0000000000
0
SPLINE
5
2AB
100
AcDbEntity
8
0
100
AcDbSpline
62
7
6
CONTINUOUS
70
0
71
3
72
8
73
4
74
2
42
0.0000001000
43
0.0000001000
44
0.0000000001
12
0.1462964056
22
-0.0731192419
32
0.0000000000
13
0.1462949070
23
-0.0731222403
33
0.0000000000
40
0.0000000000
40
0.0000000000
40
0.0000000000
40
0.0000000000
40
1.0000000000
40
1.0000000000
40
1.0000000000
40
1.0000000000
10
-3.0004417920
20
-51.9566964432
30
0.0000000000
10
-2.9516763235
20
-51.9810695239
30
0.0000000000
10
-2.9029111048
20
-52.0054431045
30
0.0000000000
10
-2.8541461359
20
-52.0298171846
30
0.0000000000
11
-3.0004417920
21
-51.9566964432
31
0.0000000000
11
-2.8541461359
21
-52.0298171846
31
0.0000000000
0
SPLINE
5
2AC
100
AcDbEntity
8
0
100
AcDbSpline
62
7
6
CONTINUOUS
70
0
71
3
72
9
73
5
74
3
42
0.0000001000
43
0.0000001000
44
0.0000000001
12
0.2927528116
22
-0.1463259513
32
0.0000000000
13
0.2927468171
23
-0.1463379440
33
0.0000000000
40
0.0000000000
40
0.0000000000
40
0.0000000000
40
0.0000000000
40
0.2499304030
40
1.0000000000
40
1.0000000000
40
1.0000000000
40
1.0000000000
10
-2.8541461359
20
-52.0298171846
30
0.0000000000
10
-2.8297568598
20
-52.0420076192
30
0.0000000000
10
-2.7321728391
20
-52.0907834363
30
0.0000000000
10
-2.6345898179
20
-52.1395612527
30
0.0000000000
10
-2.5613963222
20
-52.1761491336
30
0.0000000000
11
-2.8541461359
21
-52.0298171846
31
0.0000000000
11
-2.7809784950
21
-52.0663888633
31
0.0000000000
11
-2.5613963222
21
-52.1761491336
31
0.0000000000
0
SPLINE
5
2AD
100
AcDbEntity
8
0
100
AcDbSpline
62
7
6
CONTINUOUS
70
0
71
3
72
10
73
6
74
4
42
0.0000001000
43
0.0000001000
44
0.0000000001
12
-0.3503596399
22
-1.3199797502
32
0.0000000000
13
-0.3503218544
23
-1.3199897790
33
0.0000000000
40
0.0000000000
40
0.0000000000
40
0.0000000000
40
0.0000000000
40
0.3745753667
40
0.7496603287
40
1.0000000000
40
1.0000000000
40
1.0000000000
40
1.0000000000
10
-2.5613963222
20
-52.1761491336
30
0.0000000000
10
-2.6051416857
20
-52.3409597666
30
0.0000000000
10
-2.6926894460
20
-52.6708059095
30
0.0000000000
10
-2.8094674860
20
-53.1108014174
30
0.0000000000
10
-2.8825013808
20
-53.3859859689
30
0.0000000000
10
-2.9117345334
20
-53.4961345714
30
0.0000000000
11
-2.5613963222
21
-52.1761491336
31
0.0000000000
11
-2.6926289610
21
-52.6705819487
31
0.0000000000
11
-2.8240342887
21
-53.1656889728
31
0.0000000000
11
-2.9117345334
21
-53.4961345714
31
0.0000000000
0
SPLINE
5
2AE
100
AcDbEntity
8
0
100
AcDbSpline
62
7
6
CONTINUOUS
70
0
71
3
72
8
73
4
74
2
42
0.0000001000
43
0.0000001000
44
0.0000000001
12
-0.0438794744
22
-0.1653349827
32
0.0000000000
13
-0.0438791502
23
-0.1653350688
33
0.0000000000
40
0.0000000000
40
0.0000000000
40
0.0000000000
40
0.0000000000
40
1.0000000000
40
1.0000000000
40
1.0000000000
40
1.0000000000
10
-2.9117345334
20
-53.4961345714
30
0.0000000000
10
-2.9263610249
20
-53.5512462323
30
0.0000000000
10
-2.9409874574
20
-53.6063579089
30
0.0000000000
10
-2.9556138408
20
-53.6614695984
30
0.0000000000
11
-2.9117345334
21
-53.4961345714
31
0.0000000000
11
-2.9556138408
21
-53.6614695984
31
0.0000000000
0
SPLINE
5
2AF
100
AcDbEntity
8
0
100
AcDbSpline
62
7
6
CONTINUOUS
70
0
71
3
72
9
73
5
74
3
42
0.0000001000
43
0.0000001000
44
0.0000000001
12
-0.3025689080
22
-1.2942490478
32
0.0000000000
13
-0.3027186272
23
-1.2942140377
33
0.0000000000
40
0.0000000000
40
0.0000000000
40
0.0000000000
40
0.0000000000
40
0.5945863167
40
1.0000000000
40
1.0000000000
40
1.0000000000
40
1.0000000000
10
-0.6394843621
20
-53.1371949448
30
0.0000000000
10
-0.6994521396
20
-53.3937092029
30
0.0000000000
10
-0.8003213755
20
-53.8251225288
30
0.0000000000
10
-0.9012161697
20
-54.2565298780
30
0.0000000000
10
-0.9421249276
20
-54.4314272380
30
0.0000000000
11
-0.6394843621
21
-53.1371949448
31
0.0000000000
11
-0.8194121102
21
-53.9067320108
31
0.0000000000
11
-0.9421249276
21
-54.4314272380
31
0.0000000000
0
SPLINE
5
2B0
100
AcDbEntity
8
0
100
AcDbSpline
62
7
6
CONTINUOUS
70
0
71
3
72
9
73
5
74
3
42
0.0000001000
43
0.0000001000
44
0.0000000001
12
-0.2203314395
22
-0.9419837972
32
0.0000000000
13
-0.2204283497
23
-0.9419611244
33
0.0000000000
40
0.0000000000
40
0.0000000000
40
0.0000000000
40
0.0000000000
40
0.2564010687
40
1.0000000000
40
1.0000000000
40
1.0000000000
40
1.0000000000
10
-0.9421249276
20
-54.4314272380
30
0.0000000000
10
-0.9609559998
20
-54.5119357887
30
0.0000000000
10
-1.0344036373
20
-54.8259294933
30
0.0000000000
10
-1.1078668242
20
-55.1399195606
30
0.0000000000
10
-1.1625035859
20
-55.3733999890
30
0.0000000000
11
-0.9421249276
21
-54.4314272380
31
0.0000000000
11
-0.9986211275
21
-54.6729521925
31
0.0000000000
11
-1.1625035859
21
-55.3733999890
31
0.0000000000
0
SPLINE
5
2B1
100
AcDbEntity
8
0
100
AcDbSpline
62
7
6
CONTINUOUS
70
0
71
3
72
8
73
4
74
2
42
0.0000001000
43
0.0000001000
44
0.0000000001
12
-0.0146146051
22
-0.0624529006
32
0.0000000000
13
-0.0146150658
23
-0.0624527928
33
0.0000000000
40
0.0000000000
40
0.0000000000
40
0.0000000000
40
0.0000000000
40
1.0000000000
40
1.0000000000
40
1.0000000000
40
1.0000000000
10
-1.1625035859
20
-55.3733999890
30
0.0000000000
10
-1.1673751210
20
-55.3942176226
30
0.0000000000
10
-1.1722467324
20
-55.4150352382
30
0.0000000000
10
-1.1771184210
20
-55.4358528358
30
0.0000000000
11
-1.1625035859
21
-55.3733999890
31
0.0000000000
11
-1.1771184210
21
-55.4358528358
31
0.0000000000
0
SPLINE
5
2B2
100
AcDbEntity
8
0
100
AcDbSpline
62
7
6
CONTINUOUS
70
0
71
3
72
8
73
4
74
2
42
0.0000001000
43
0.0000001000
44
0.0000000001
12
-0.0920408404
22
-0.1192668797
32
0.0000000000
13
-0.0920405272
23
-0.1192671215
33
0.0000000000
40
0.0000000000
40
0.0000000000
40
0.0000000000
40
0.0000000000
40
1.0000000000
40
1.0000000000
40
1.0000000000
40
1.0000000000
10
-1.8137656372
20
-54.6207899728
30
0.0000000000
10
-1.8444459173
20
-54.6605455994
30
0.0000000000
10
-1.8751261433
20
-54.7003012677
30
0.0000000000
10
-1.9058063191
20
-54.7400569749
30
0.0000000000
11
-1.8137656372
21
-54.6207899728
31
0.0000000000
11
-1.9058063191
21
-54.7400569749
31
0.0000000000
0
SPLINE
5
2B3
100
AcDbEntity
8
0
100
AcDbSpline
62
7
6
CONTINUOUS
70
0
71
3
72
9
73
5
74
3
42
0.0000001000
43
0.0000001000
44
0.0000000001
12
-0.1842087059
22
-0.2386996551
32
0.0000000000
13
-0.1842075878
23
-0.2387005179
33
0.0000000000
40
0.0000000000
40
0.0000000000
40
0.0000000000
40
0.0000000000
40
0.2499133785
40
1.0000000000
40
1.0000000000
40
1.0000000000
40
1.0000000000
10
-1.9058063191
20
-54.7400569749
30
0.0000000000
10
-1.9211517257
20
-54.7599417206
30
0.0000000000
10
-1.9825545773
20
-54.8395083112
30
0.0000000000
10
-2.0439572350
20
-54.9190750514
30
0.0000000000
10
-2.0900144507
20
-54.9787570731
30
0.0000000000
11
-1.9058063191
21
-54.7400569749
31
0.0000000000
11
-1.9518425018
21
-54.7997112409
31
0.0000000000
11
-2.0900144507
21
-54.9787570731
31
0.0000000000
0
SPLINE
5
2B4
100
AcDbEntity
8
0
100
AcDbSpline
62
7
6
CONTINUOUS
70
0
71
3
72
8
73
4
74
2
42
0.0000001000
43
0.0000001000
44
0.0000000001
12
0.1423795779
22
-0.0712132733
32
0.0000000000
13
0.1423781567
23
-0.0712161147
33
0.0000000000
40
0.0000000000
40
0.0000000000
40
0.0000000000
40
0.0000000000
40
1.0000000000
40
1.0000000000
40
1.0000000000
40
1.0000000000
10
-0.9241715973
20
-52.9947972682
30
0.0000000000
10
-0.8767117380
20
-53.0185350260
30
0.0000000000
10
-0.8292521154
20
-53.0422732571
30
0.0000000000
10
-0.7817927299
20
-53.0660119620
30
0.0000000000
11
-0.9241715973
21
-52.9947972682
31
0.0000000000
11
-0.7817927299
21
-53.0660119620
31
0.0000000000
0
SPLINE
5
2B5
100
AcDbEntity
8
0
100
AcDbSpline
62
7
6
CONTINUOUS
70
0
71
3
72
8
73
4
74
2
42
0.0000001000
43
0.0000001000
44
0.0000000001
12
0.1423090782
22
-0.0711815624
32
0.0000000000
13
0.1423076570
23
-0.0711844037
33
0.0000000000
40
0.0000000000
40
0.0000000000
40
0.0000000000
40
0.0000000000
40
1.0000000000
40
1.0000000000
40
1.0000000000
40
1.0000000000
10
-0.7817927299
20
-53.0660119620
30
0.0000000000
10
-0.7343563704
20
-53.0897391494
30
0.0000000000
10
-0.6869202478
20
-53.1134668102
30
0.0000000000
10
-0.6394843621
20
-53.1371949448
30
0.0000000000
11
-0.7817927299
21
-53.0660119620
31
0.0000000000
11
-0.6394843621
21
-53.1371949448
31
0.0000000000
0
SPLINE
5
2B6
100
AcDbEntity
8
0
100
AcDbSpline
62
7
6
CONTINUOUS
70
0
71
3
72
8
73
4
74
2
42
0.0000001000
43
0.0000001000
44
0.0000000001
12
-0.0734734848
22
-0.0961269016
32
0.0000000000
13
-0.0734731651
23
-0.0961271460
33
0.0000000000
40
0.0000000000
40
0.0000000000
40
0.0000000000
40
0.0000000000
40
1.0000000000
40
1.0000000000
40
1.0000000000
40
1.0000000000
10
-1.0927143266
20
-53.7087010327
30
0.0000000000
10
-1.1172054882
20
-53.7407433332
30
0.0000000000
10
-1.1416965956
20
-53.7727856752
30
0.0000000000
10
-1.1661876506
20
-53.8048280572
30
0.0000000000
11
-1.0927143266
21
-53.7087010327
31
0.0000000000
11
-1.1661876506
21
-53.8048280572
31
0.0000000000
0
SPLINE
5
2B7
100
AcDbEntity
8
0
100
AcDbSpline
62
7
6
CONTINUOUS
70
0
71
3
72
9
73
5
74
3
42
0.0000001000
43
0.0000001000
44
0.0000000001
12
-0.3678683741
22
-0.4812932289
32
0.0000000000
13
-0.3678612215
23
-0.4812986958
33
0.0000000000
40
0.0000000000
40
0.0000000000
40
0.0000000000
40
0.0000000000
40
0.3997267781
40
1.0000000000
40
1.0000000000
40
1.0000000000
40
1.0000000000
10
-1.1661876506
20
-53.8048280572
30
0.0000000000
10
-1.2152032639
20
-53.8689566544
30
0.0000000000
10
-1.3378255310
20
-54.0293881315
30
0.0000000000
10
-1.4604465819
20
-54.1898205381
30
0.0000000000
10
-1.5340523288
20
-54.2861241110
30
0.0000000000
11
-1.1661876506
21
-53.8048280572
31
0.0000000000
11
-1.3132338771
21
-53.9972143178
31
0.0000000000
11
-1.5340523288
21
-54.2861241110
31
0.0000000000
0
SPLINE
5
2B8
100
AcDbEntity
8
0
100
AcDbSpline
62
7
6
CONTINUOUS
70
0
71
3
72
9
73
5
74
3
42
0.0000001000
43
0.0000001000
44
0.0000000001
12
0.2727569795
22
-0.1364887897
32
0.0000000000
13
0.2727443332
23
-0.1365140588
33
0.0000000000
40
0.0000000000
40
0.0000000000
40
0.0000000000
40
0.0000000000
40
0.5001218857
40
1.0000000000
40
1.0000000000
40
1.0000000000
40
1.0000000000
10
-1.5340523288
20
-54.2861241110
30
0.0000000000
10
-1.4885817505
20
-54.3088777880
30
0.0000000000
10
-1.3976638103
20
-54.3543761555
30
0.0000000000
10
-1.3067479778
20
-54.3998787344
30
0.0000000000
10
-1.2613016702
20
-54.4226255312
30
0.0000000000
11
-1.5340523288
21
-54.2861241110
31
0.0000000000
11
-1.3976421743
21
-54.3543883001
31
0.0000000000
11
-1.2613016702
21
-54.4226255312
31
0.0000000000
0
SPLINE
5
2B9
100
AcDbEntity
8
0
100
AcDbSpline
62
7
6
CONTINUOUS
70
0
71
3
72
8
73
4
74
2
42
0.0000001000
43
0.0000001000
44
0.0000000001
12
0.1477957720
22
-0.0739475408
32
0.0000000000
13
0.1477942261
23
-0.0739506305
33
0.0000000000
40
0.0000000000
40
0.0000000000
40
0.0000000000
40
0.0000000000
40
1.0000000000
40
1.0000000000
40
1.0000000000
40
1.0000000000
10
0.0484500129
20
-53.4813515498
30
0.0000000000
10
0.0977152702
20
-53.5060007301
30
0.0000000000
10
0.1469802708
20
-53.5306504235
30
0.0000000000
10
0.1962450129
20
-53.5553006336
30
0.0000000000
11
0.0484500129
21
-53.4813515498
31
0.0000000000
11
0.1962450129
21
-53.5553006336
31
0.0000000000
0
SPLINE
5
2BA
100
AcDbEntity
8
0
100
AcDbSpline
62
7
6
CONTINUOUS
70
0
71
3
72
10
73
6
74
4
42
0.0000001000
43
0.0000001000
44
0.0000000001
12
0.5163479399
22
-0.2583609436
32
0.0000000000
13
0.5163289853
23
-0.2583988219
33
0.0000000000
40
0.0000000000
40
0.0000000000
40
0.0000000000
40
0.0000000000
40
0.1430290152
40
0.5717722953
40
1.0000000000
40
1.0000000000
40
1.0000000000
40
1.0000000000
10
0.1962450129
20
-53.5553006336
30
0.0000000000
10
0.2208625920
20
-53.5676183374
30
0.0000000000
10
0.3192734828
20
-53.6168600632
30
0.0000000000
10
0.4913872001
20
-53.7029848997
30
0.0000000000
10
0.6388813845
20
-53.7767959367
30
0.0000000000
10
0.7125835099
20
-53.8136804482
30
0.0000000000
11
0.1962450129
21
-53.5553006336
31
0.0000000000
11
0.2700975563
21
-53.5922541326
31
0.0000000000
11
0.4914753677
21
-53.7030304427
31
0.0000000000
11
0.7125835099
21
-53.8136804482
31
0.0000000000
0
SPLINE
5
2BB
100
AcDbEntity
8
0
100
AcDbSpline
62
7
6
CONTINUOUS
70
0
71
3
72
15
73
11
74
9
42
0.0000001000
43
0.0000001000
44
0.0000000001
12
1.2700757458
22
-0.6356142805
32
0.0000000000
13
-1.1742562130
23
-0.8038260538
33
0.0000000000
40
0.0000000000
40
0.0000000000
40
0.0000000000
40
0.0000000000
40
0.0897861119
40
0.1935765866
40
0.3112575708
40
0.4449598928
40
0.5859874878
40
0.7311521975
40
0.8730022861
40
1.0000000000
40
1.0000000000
40
1.0000000000
40
1.0000000000
10
0.7125836233
20
-53.8136805065
30
0.0000000000
10
0.7505953443
20
-53.8327036181
30
0.0000000000
10
0.8246342082
20
-53.8907943301
30
0.0000000000
10
0.9028058096
20
-54.0188916510
30
0.0000000000
10
0.9424255488
20
-54.1846883628
30
0.0000000000
10
0.9380363759
20
-54.3720943720
30
0.0000000000
10
0.8912863017
20
-54.5667114024
30
0.0000000000
10
0.8050859232
20
-54.7515486184
30
0.0000000000
10
0.6887801413
20
-54.9109784342
30
0.0000000000
10
0.5927885209
20
-54.9962596513
30
0.0000000000
10
0.5430792360
20
-55.0302876750
30
0.0000000000
11
0.7125836233
21
-53.8136805065
31
0.0000000000
11
0.8138085386
21
-53.8912333525
31
0.0000000000
11
0.8925271693
21
-54.0158627594
31
0.0000000000
11
0.9338768161
21
-54.1778029356
31
0.0000000000
11
0.9316015207
21
-54.3676794545
31
0.0000000000
11
0.8854892767
21
-54.5625929808
31
0.0000000000
11
0.7985785026
21
-54.7495486014
31
0.0000000000
11
0.6789103311
21
-54.9116179036
31
0.0000000000
11
0.5430792360
21
-55.0302876750
31
0.0000000000
0
SPLINE
5
2BC
100
AcDbEntity
8
0
100
AcDbSpline
62
7
6
CONTINUOUS
70
0
71
3
72
8
73
4
74
2
42
0.0000001000
43
0.0000001000
44
0.0000000001
12
-0.0445681017
22
-0.0305086751
32
0.0000000000
13
-0.0468474165
23
-0.0268977547
33
0.0000000000
40
0.0000000000
40
0.0000000000
40
0.0000000000
40
0.0000000000
40
1.0000000000
40
1.0000000000
40
1.0000000000
40
1.0000000000
10
0.5430792360
20
-55.0302876750
30
0.0000000000
10
0.5282232022
20
-55.0404572334
30
0.0000000000
10
0.5129773043
20
-55.0500679464
30
0.0000000000
10
0.4973614988
20
-55.0590338647
30
0.0000000000
11
0.5430792360
21
-55.0302876750
31
0.0000000000
11
0.4973614988
21
-55.0590338647
31
0.0000000000
0
SPLINE
5
2BD
100
AcDbEntity
8
0
100
AcDbSpline
62
7
6
CONTINUOUS
70
0
71
3
72
8
73
4
74
2
42
0.0000001000
43
0.0000001000
44
0.0000000001
12
-0.0318900142
22
-0.0183098630
32
0.0000000000
13
-0.0328995782
23
-0.0164358152
33
0.0000000000
40
0.0000000000
40
0.0000000000
40
0.0000000000
40
0.0000000000
40
1.0000000000
40
1.0000000000
40
1.0000000000
40
1.0000000000
10
0.4973614988
20
-55.0590338647
30
0.0000000000
10
0.4867314940
20
-55.0651371523
30
0.0000000000
10
0.4759300812
20
-55.0709416543
30
0.0000000000
10
0.4649635551
20
-55.0764202594
30
0.0000000000
11
0.4973614988
21
-55.0590338647
31
0.0000000000
11
0.4649635551
21
-55.0764202594
31
0.0000000000
0
SPLINE
5
2BE
100
AcDbEntity
8
0
100
AcDbSpline
62
7
6
CONTINUOUS
70
0
71
3
72
10
73
6
74
4
42
0.0000001000
43
0.0000001000
44
0.0000000001
12
-0.0745259740
22
-0.7696526462
32
0.0000000000
13
-0.0747162875
23
-0.7696341948
33
0.0000000000
40
0.0000000000
40
0.0000000000
40
0.0000000000
40
0.0000000000
40
0.4294444506
40
0.8575794132
40
1.0000000000
40
1.0000000000
40
1.0000000000
40
1.0000000000
10
0.2812744101
20
-55.1304485070
30
0.0000000000
10
0.2706061548
20
-55.2406228596
30
0.0000000000
10
0.2492911341
20
-55.4606345456
30
0.0000000000
10
0.2244092789
20
-55.7171815649
30
0.0000000000
10
0.2102020671
20
-55.8635548492
30
0.0000000000
10
0.2066550213
20
-55.9000921004
30
0.0000000000
11
0.2812744101
21
-55.1304485070
31
0.0000000000
11
0.2492527828
21
-55.4609699316
31
0.0000000000
11
0.2172941327
21
-55.7904801501
31
0.0000000000
11
0.2066550213
21
-55.9000921004
31
0.0000000000
0
SPLINE
5
2BF
100
AcDbEntity
8
0
100
AcDbSpline
62
7
6
CONTINUOUS
70
0
71
3
72
8
73
4
74
2
42
0.0000001000
43
0.0000001000
44
0.0000000001
12
-0.0212496539
22
-0.2188874852
32
0.0000000000
13
-0.0212661345
23
-0.2188858844
33
0.0000000000
40
0.0000000000
40
0.0000000000
40
0.0000000000
40
0.0000000000
40
1.0000000000
40
1.0000000000
40
1.0000000000
40
1.0000000000
10
0.2066550213
20
-55.9000921004
30
0.0000000000
10
0.1995718033
20
-55.9730545954
30
0.0000000000
10
0.1924858787
20
-56.0460168277
30
0.0000000000
10
0.1853971672
20
-56.1189787892
30
0.0000000000
11
0.2066550213
21
-55.9000921004
31
0.0000000000
11
0.1853971672
21
-56.1189787892
31
0.0000000000
0
SPLINE
5
2C0
100
AcDbEntity
8
0
100
AcDbSpline
62
7
6
CONTINUOUS
70
0
71
3
72
9
73
5
74
3
42
0.0000001000
43
0.0000001000
44
0.0000000001
12
0.3556395612
22
-0.1780929672
32
0.0000000000
13
0.3556215502
23
-0.1781289295
33
0.0000000000
40
0.0000000000
40
0.0000000000
40
0.0000000000
40
0.0000000000
40
0.5003251497
40
1.0000000000
40
1.0000000000
40
1.0000000000
40
1.0000000000
10
-0.1160113393
20
-54.5212581711
30
0.0000000000
10
-0.0566995337
20
-54.5509596346
30
0.0000000000
10
0.0618455094
20
-54.6103269071
30
0.0000000000
10
0.1803874685
20
-54.6697003373
30
0.0000000000
10
0.2396191835
20
-54.6993691860
30
0.0000000000
11
-0.1160113393
21
-54.5212581711
31
0.0000000000
11
0.0619218272
21
-54.6103670551
31
0.0000000000
11
0.2396191835
21
-54.6993691860
31
0.0000000000
0
SPLINE
5
2C1
100
AcDbEntity
8
0
100
AcDbSpline
62
7
6
CONTINUOUS
70
0
71
3
72
10
73
6
74
4
42
0.0000001000
43
0.0000001000
44
0.0000000001
12
0.1408911504
22
-0.0705716225
32
0.0000000000
13
0.1413619868
23
0.0709303623
33
0.0000000000
40
0.0000000000
40
0.0000000000
40
0.0000000000
40
0.0000000000
40
0.3996925458
40
0.8702608757
40
1.0000000000
40
1.0000000000
40
1.0000000000
40
1.0000000000
10
0.2396194587
20
-54.6993693211
30
0.0000000000
10
0.2583905062
20
-54.7087716383
30
0.0000000000
10
0.3049184251
20
-54.7185867801
30
0.0000000000
10
0.3574934810
20
-54.7072281593
30
0.0000000000
10
0.3863806361
20
-54.6942316099
30
0.0000000000
10
0.3924940295
20
-54.6911641288
30
0.0000000000
11
0.2396194587
21
-54.6993693211
31
0.0000000000
11
0.3009658532
21
-54.7136319303
31
0.0000000000
11
0.3737694869
21
-54.6995607090
31
0.0000000000
11
0.3924940295
21
-54.6911641288
31
0.0000000000
0
SPLINE
5
2C2
100
AcDbEntity
8
0
100
AcDbSpline
62
7
6
CONTINUOUS
70
0
71
3
72
22
73
18
74
16
42
0.0000001000
43
0.0000001000
44
0.0000000001
12
0.8780555239
22
-0.7584132049
32
0.0000000000
13
0.0686476388
23
-1.1582889144
33
0.0000000000
40
0.0000000000
40
0.0000000000
40
0.0000000000
40
0.0000000000
40
0.0442518157
40
0.1149699455
40
0.1872926681
40
0.2604046146
40
0.3341260219
40
0.4084117115
40
0.4831835609
40
0.5583186759
40
0.6336994433
40
0.7090647341
40
0.7835028545
40
0.8559324045
40
0.9255866158
40
0.9929199238
40
1.0000000000
40
1.0000000000
40
1.0000000000
40
1.0000000000
10
52.6090411485
20
43.0899335653
30
0.0000000000
10
52.6219929989
20
43.0787465115
30
0.0000000000
10
52.6550060899
20
43.0489439511
30
0.0000000000
10
52.7062122666
20
42.9976665105
30
0.0000000000
10
52.7616643368
20
42.9350605984
30
0.0000000000
10
52.8139780198
20
42.8683289245
30
0.0000000000
10
52.8628091061
20
42.7980872405
30
0.0000000000
10
52.9080533411
20
42.7247325655
30
0.0000000000
10
52.9496359919
20
42.6486192869
30
0.0000000000
10
52.9872704733
20
42.5700061102
30
0.0000000000
10
53.0206243168
20
42.4892317746
30
0.0000000000
10
53.0492861533
20
42.4069615842
30
0.0000000000
10
53.0730736499
20
42.3243411766
30
0.0000000000
10
53.0917005998
20
42.2426659617
30
0.0000000000
10
53.1048914766
20
42.1627150579
30
0.0000000000
10
53.1104163099
20
42.1072437877
30
0.0000000000
10
53.1122192654
20
42.0785191445
30
0.0000000000
10
53.1123812756
20
42.0757855532
30
0.0000000000
11
52.6090411485
21
43.0899335653
31
0.0000000000
11
52.6471723242
21
43.0555565342
31
0.0000000000
11
52.7051840715
21
42.9975514952
31
0.0000000000
11
52.7608203972
21
42.9347548698
31
0.0000000000
11
52.8131820325
21
42.8680350312
31
0.0000000000
11
52.8620328589
21
42.7978402979
31
0.0000000000
11
52.9073025453
21
42.7245139748
31
0.0000000000
11
52.9488813891
21
42.6483903151
31
0.0000000000
11
52.9865022013
21
42.5697673660
31
0.0000000000
11
53.0198584209
21
42.4889341231
31
0.0000000000
11
53.0486366270
21
42.4063791364
31
0.0000000000
11
53.0724959573
21
42.3233891744
31
0.0000000000
11
53.0910886893
21
42.2414505597
31
0.0000000000
11
53.1041650005
21
42.1617135961
31
0.0000000000
11
53.1118666686
21
42.0839845094
31
0.0000000000
11
53.1123812756
21
42.0757855532
31
0.0000000000
0
SPLINE
5
2C3
100
AcDbEntity
8
0
100
AcDbSpline
62
7
6
CONTINUOUS
70
0
71
3
72
10
73
6
74
4
42
0.0000001000
43
0.0000001000
44
0.0000000001
12
-0.1306538077
22
0.0493559755
32
0.0000000000
13
-0.0081432073
23
0.1371363398
33
0.0000000000
40
0.0000000000
40
0.0000000000
40
0.0000000000
40
0.0000000000
40
0.1547607219
40
0.5388870650
40
1.0000000000
40
1.0000000000
40
1.0000000000
40
1.0000000000
10
29.9563494138
20
-71.0033540222
30
0.0000000000
10
29.9496093880
20
-71.0008079001
30
0.0000000000
10
29.9273233423
20
-70.9889705381
30
0.0000000000
10
29.8997306754
20
-70.9496064737
30
0.0000000000
10
29.8922578158
20
-70.9108250689
30
0.0000000000
10
29.8910061698
20
-70.8897466222
30
0.0000000000
11
29.9563494138
21
-71.0033540222
31
0.0000000000
11
29.9374206142
21
-70.9932356106
31
0.0000000000
11
29.9051283905
21
-70.9514991176
31
0.0000000000
11
29.8910061698
21
-70.8897466222
31
0.0000000000
0
SPLINE
5
2C4
100
AcDbEntity
8
0
100
AcDbSpline
62
7
6
CONTINUOUS
70
0
71
3
72
10
73
6
74
4
42
0.0000001000
43
0.0000001000
44
0.0000000001
12
-0.0969109626
22
0.0594173017
32
0.0000000000
13
0.0066378572
23
0.1128103487
33
0.0000000000
40
0.0000000000
40
0.0000000000
40
0.0000000000
40
0.0000000000
40
0.0536369437
40
0.4806753358
40
1.0000000000
40
1.0000000000
40
1.0000000000
40
1.0000000000
10
-35.1381216990
20
-38.4563573010
30
0.0000000000
10
-35.1398543683
20
-38.4552949801
30
0.0000000000
10
-35.1549303309
20
-38.4451023630
30
0.0000000000
10
-35.1765424467
20
-38.4112654816
30
0.0000000000
10
-35.1791956223
20
-38.3747486722
30
0.0000000000
10
-35.1780465547
20
-38.3552202734
30
0.0000000000
11
-35.1381216990
21
-38.4563573010
31
0.0000000000
11
-35.1431605528
21
-38.4529446552
31
0.0000000000
11
-35.1709235815
21
-38.4134729275
31
0.0000000000
11
-35.1780465547
21
-38.3552202734
31
0.0000000000
0
SPLINE
5
2C5
100
AcDbEntity
8
0
100
AcDbSpline
62
7
6
CONTINUOUS
70
0
71
3
72
8
73
4
74
2
42
0.0000001000
43
0.0000001000
44
0.0000000001
12
-0.6985880506
22
-0.4353785131
32
0.0000000000
13
-0.6985880179
23
-0.4353785655
33
0.0000000000
40
0.0000000000
40
0.0000000000
40
0.0000000000
40
0.0000000000
40
1.0000000000
40
1.0000000000
40
1.0000000000
40
1.0000000000
10
53.1144333716
20
-89.4299629717
30
0.0000000000
10
52.8815706880
20
-89.5750891428
30
0.0000000000
10
52.6487080294
20
-89.7202153538
30
0.0000000000
10
52.4158453568
20
-89.8653415423
30
0.0000000000
11
53.1144333716
21
-89.4299629717
31
0.0000000000
11
52.4158453568
21
-89.8653415423
31
0.0000000000
0
SPLINE
5
2C6
100
AcDbEntity
8
0
100
AcDbSpline
62
7
6
CONTINUOUS
70
0
71
3
72
9
73
5
74
3
42
0.0000001000
43
0.0000001000
44
0.0000000001
12
0.7949752751
22
0.3874598585
32
0.0000000000
13
0.7949752533
23
0.3874599032
33
0.0000000000
40
0.0000000000
40
0.0000000000
40
0.0000000000
40
0.0000000000
40
0.0934816875
40
1.0000000000
40
1.0000000000
40
1.0000000000
40
1.0000000000
10
52.3194580836
20
41.6202737453
30
0.0000000000
10
52.3442299604
20
41.6323472124
30
0.0000000000
10
52.6092217198
20
41.7615004964
30
0.0000000000
10
52.8742134965
20
41.8906537448
30
0.0000000000
10
53.1144333716
20
42.0077335774
30
0.0000000000
11
52.3194580836
21
41.6202737453
31
0.0000000000
11
52.3937737142
21
41.6564941460
31
0.0000000000
11
53.1144333716
21
42.0077335774
31
0.0000000000
0
SPLINE
5
2C7
100
AcDbEntity
8
0
100
AcDbSpline
62
7
6
CONTINUOUS
70
0
71
3
72
10
73
6
74
4
42
0.0000001000
43
0.0000001000
44
0.0000000001
12
0.5189147263
22
2.2186340018
32
0.0000000000
13
0.5196761882
23
2.2184557667
33
0.0000000000
40
0.0000000000
40
0.0000000000
40
0.0000000000
40
0.0000000000
40
0.3472867067
40
0.6926919604
40
1.0000000000
40
1.0000000000
40
1.0000000000
40
1.0000000000
10
-5.3952008568
20
-53.2381866638
30
0.0000000000
10
-5.3351301280
20
-52.9813526318
30
0.0000000000
10
-5.2152875228
20
-52.4690822039
30
0.0000000000
10
-5.0421931376
20
-51.7295662696
30
0.0000000000
10
-4.9291553717
20
-51.2468876772
30
0.0000000000
10
-4.8759218148
20
-51.0196379130
30
0.0000000000
11
-5.3952008568
21
-53.2381866638
31
0.0000000000
11
-5.2149473122
21
-52.4676942422
31
0.0000000000
11
-5.0355828290
21
-51.7013964939
31
0.0000000000
11
-4.8759218148
21
-51.0196379130
31
0.0000000000
0
SPLINE
5
2C8
100
AcDbEntity
8
0
100
AcDbSpline
62
7
6
CONTINUOUS
70
0
71
3
72
9
73
5
74
3
42
0.0000001000
43
0.0000001000
44
0.0000000001
12
-0.1435990493
22
0.0716072625
32
0.0000000000
13
-0.1436037230
23
0.0715978894
33
0.0000000000
40
0.0000000000
40
0.0000000000
40
0.0000000000
40
0.0000000000
40
0.6829043732
40
1.0000000000
40
1.0000000000
40
1.0000000000
40
1.0000000000
10
-5.1605702638
20
-53.3551721942
30
0.0000000000
10
-5.1932584033
20
-53.3388718900
30
0.0000000000
10
-5.2411252846
20
-53.3150038683
30
0.0000000000
10
-5.2889929450
20
-53.2911374093
30
0.0000000000
10
-5.3041716492
20
-53.2835696167
30
0.0000000000
11
-5.1605702638
21
-53.3551721942
31
0.0000000000
11
-5.2586357718
21
-53.3062734660
31
0.0000000000
11
-5.3041716492
21
-53.2835696167
31
0.0000000000
0
SPLINE
5
2C9
100
AcDbEntity
8
0
100
AcDbSpline
62
7
6
CONTINUOUS
70
0
71
3
72
8
73
4
74
2
42
0.0000001000
43
0.0000001000
44
0.0000000001
12
-0.0910282674
22
0.0453848388
32
0.0000000000
13
-0.0910301481
23
0.0453810664
33
0.0000000000
40
0.0000000000
40
0.0000000000
40
0.0000000000
40
0.0000000000
40
1.0000000000
40
1.0000000000
40
1.0000000000
40
1.0000000000
10
-5.3041716492
20
-53.2835696167
30
0.0000000000
10
-5.3345144050
20
-53.2684413372
30
0.0000000000
10
-5.3648574741
20
-53.2533136859
30
0.0000000000
10
-5.3952008568
20
-53.2381866638
30
0.0000000000
11
-5.3041716492
21
-53.2835696167
31
0.0000000000
11
-5.3952008568
21
-53.2381866638
31
0.0000000000
0
SPLINE
5
2CA
100
AcDbEntity
8
0
100
AcDbSpline
62
7
6
CONTINUOUS
70
0
71
3
72
10
73
6
74
4
42
0.0000001000
43
0.0000001000
44
0.0000000001
12
0.9049124260
22
1.1388026004
32
0.0000000000
13
0.9047804948
23
1.1389074229
33
0.0000000000
40
0.0000000000
40
0.0000000000
40
0.0000000000
40
0.0000000000
40
0.3738792258
40
0.7491032949
40
1.0000000000
40
1.0000000000
40
1.0000000000
40
1.0000000000
10
-4.9617186168
20
-52.6778602488
30
0.0000000000
10
-4.8489426311
20
-52.5359353707
30
0.0000000000
10
-4.6229916858
20
-52.2515698013
30
0.0000000000
10
-4.3213799540
20
-51.8719484796
30
0.0000000000
10
-4.1325428383
20
-51.6342531250
30
0.0000000000
10
-4.0568740233
20
-51.5390037517
30
0.0000000000
11
-4.9617186168
21
-52.6778602488
31
0.0000000000
11
-4.6234004685
21
-52.2520778202
31
0.0000000000
11
-4.2838843272
21
-51.8247488058
31
0.0000000000
11
-4.0568740233
21
-51.5390037517
31
0.0000000000
0
SPLINE
5
2CB
100
AcDbEntity
8
0
100
AcDbSpline
62
7
6
CONTINUOUS
70
0
71
3
72
8
73
4
74
2
42
0.0000001000
43
0.0000001000
44
0.0000000001
12
0.0626801852
22
0.0788997206
32
0.0000000000
13
0.0626796095
23
0.0789001779
33
0.0000000000
40
0.0000000000
40
0.0000000000
40
0.0000000000
40
0.0000000000
40
1.0000000000
40
1.0000000000
40
1.0000000000
40
1.0000000000
10
-4.0568740233
20
-51.5390037517
30
0.0000000000
10
-4.0359806282
20
-51.5127038449
30
0.0000000000
10
-4.0150873297
20
-51.4864038613
30
0.0000000000
10
-3.9941941265
20
-51.4601038020
30
0.0000000000
11
-4.0568740233
21
-51.5390037517
31
0.0000000000
11
-3.9941941265
21
-51.4601038020
31
0.0000000000
0
SPLINE
5
2CC
100
AcDbEntity
8
0
100
AcDbSpline
62
7
6
CONTINUOUS
70
0
71
3
72
9
73
5
74
3
42
0.0000001000
43
0.0000001000
44
0.0000000001
12
0.9655869853
22
1.9956935418
32
0.0000000000
13
0.9655871420
23
1.9956934660
33
0.0000000000
40
0.0000000000
40
0.0000000000
40
0.0000000000
40
0.0000000000
40
0.5179248777
40
1.0000000000
40
1.0000000000
40
1.0000000000
40
1.0000000000
10
-4.4449210298
20
-53.7121834547
30
0.0000000000
10
-4.2782205227
20
-53.3676436769
30
0.0000000000
10
-3.9563581342
20
-52.7024125254
30
0.0000000000
10
-3.6344958037
20
-52.0371813457
30
0.0000000000
10
-3.4793339572
20
-51.7164899552
30
0.0000000000
11
-4.4449210298
21
-53.7121834547
31
0.0000000000
11
-3.9448194619
21
-52.6785641438
31
0.0000000000
11
-3.4793339572
21
-51.7164899552
31
0.0000000000
0
SPLINE
5
2CD
100
AcDbEntity
8
0
100
AcDbSpline
62
7
6
CONTINUOUS
70
0
71
3
72
8
73
4
74
2
42
0.0000001000
43
0.0000001000
44
0.0000000001
12
-0.0877344773
22
0.0437965937
32
0.0000000000
13
-0.0877362063
23
0.0437931300
33
0.0000000000
40
0.0000000000
40
0.0000000000
40
0.0000000000
40
0.0000000000
40
1.0000000000
40
1.0000000000
40
1.0000000000
40
1.0000000000
10
-4.2147341958
20
-53.8270766268
30
0.0000000000
10
-4.2439790216
20
-53.8124777623
30
0.0000000000
10
-4.2732241355
20
-53.7978794748
30
0.0000000000
10
-4.3024695376
20
-53.7832817648
30
0.0000000000
11
-4.2147341958
21
-53.8270766268
31
0.0000000000
11
-4.3024695376
21
-53.7832817648
31
0.0000000000
0
SPLINE
5
2CE
100
AcDbEntity
8
0
100
AcDbSpline
62
7
6
CONTINUOUS
70
0
71
3
72
8
73
4
74
2
42
0.0000001000
43
0.0000001000
44
0.0000000001
12
-0.1424492119
22
0.0711028789
32
0.0000000000
13
-0.1424537734
23
0.0710937394
33
0.0000000000
40
0.0000000000
40
0.0000000000
40
0.0000000000
40
0.0000000000
40
1.0000000000
40
1.0000000000
40
1.0000000000
40
1.0000000000
10
-4.3024695376
20
-53.7832817648
30
0.0000000000
10
-4.3499526082
20
-53.7595808052
30
0.0000000000
10
-4.3974364387
20
-53.7358813679
30
0.0000000000
10
-4.4449210298
20
-53.7121834547
30
0.0000000000
11
-4.3024695376
21
-53.7832817648
31
0.0000000000
11
-4.4449210298
21
-53.7121834547
31
0.0000000000
0
SPLINE
5
2CF
100
AcDbEntity
8
0
100
AcDbSpline
62
7
6
CONTINUOUS
70
0
71
3
72
9
73
5
74
3
42
0.0000001000
43
0.0000001000
44
0.0000000001
12
0.6190134428
22
1.2796782987
32
0.0000000000
13
0.6190134581
23
1.2796782913
33
0.0000000000
40
0.0000000000
40
0.0000000000
40
0.0000000000
40
0.0000000000
40
0.8076597614
40
1.0000000000
40
1.0000000000
40
1.0000000000
40
1.0000000000
10
-3.9106122101
20
-53.9789187063
30
0.0000000000
10
-3.7439614603
20
-53.6344038165
30
0.0000000000
10
-3.5376236312
20
-53.2078443908
30
0.0000000000
10
-3.3312858113
20
-52.7812849606
30
0.0000000000
10
-3.2915987459
20
-52.6992404180
30
0.0000000000
11
-3.9106122101
21
-53.9789187063
31
0.0000000000
11
-3.4106599427
21
-52.9453740456
31
0.0000000000
11
-3.2915987459
21
-52.6992404180
31
0.0000000000
0
SPLINE
5
2D0
100
AcDbEntity
8
0
100
AcDbSpline
62
7
6
CONTINUOUS
70
0
71
3
72
8
73
4
74
2
42
0.0000001000
43
0.0000001000
44
0.0000000001
12
0.3462876412
22
0.7158758363
32
0.0000000000
13
0.3462876542
23
0.7158758300
33
0.0000000000
40
0.0000000000
40
0.0000000000
40
0.0000000000
40
0.0000000000
40
1.0000000000
40
1.0000000000
40
1.0000000000
40
1.0000000000
10
-3.2915987459
20
-52.6992404180
30
0.0000000000
10
-3.1761695322
20
-52.4606151392
30
0.0000000000
10
-3.0607403193
20
-52.2219898601
30
0.0000000000
10
-2.9453111012
20
-51.9833645834
30
0.0000000000
11
-3.2915987459
21
-52.6992404180
31
0.0000000000
11
-2.9453111012
21
-51.9833645834
31
0.0000000000
0
SPLINE
5
2D1
100
AcDbEntity
8
0
100
AcDbSpline
62
7
6
CONTINUOUS
70
0
71
3
72
8
73
4
74
2
42
0.0000001000
43
0.0000001000
44
0.0000000001
12
-0.0876816020
22
0.0437964802
32
0.0000000000
13
-0.0876833245
23
0.0437930316
33
0.0000000000
40
0.0000000000
40
0.0000000000
40
0.0000000000
40
0.0000000000
40
1.0000000000
40
1.0000000000
40
1.0000000000
40
1.0000000000
10
-3.6805053316
20
-54.0938409924
30
0.0000000000
10
-3.7097325323
20
-54.0792421656
30
0.0000000000
10
-3.7389600200
20
-54.0646439136
30
0.0000000000
10
-3.7681877949
20
-54.0500462364
30
0.0000000000
11
-3.6805053316
21
-54.0938409924
31
0.0000000000
11
-3.7681877949
21
-54.0500462364
31
0.0000000000
0
SPLINE
5
2D2
100
AcDbEntity
8
0
100
AcDbSpline
62
7
6
CONTINUOUS
70
0
71
3
72
8
73
4
74
2
42
0.0000001000
43
0.0000001000
44
0.0000000001
12
-0.1424221423
22
0.0711320814
32
0.0000000000
13
-0.1424266887
23
0.0711229775
33
0.0000000000
40
0.0000000000
40
0.0000000000
40
0.0000000000
40
0.0000000000
40
1.0000000000
40
1.0000000000
40
1.0000000000
40
1.0000000000
10
-3.7681877949
20
-54.0500462364
30
0.0000000000
10
-3.8156618423
20
-54.0263355426
30
0.0000000000
10
-3.8631366472
20
-54.0026263655
30
0.0000000000
10
-3.9106122101
20
-53.9789187063
30
0.0000000000
11
-3.7681877949
21
-54.0500462364
31
0.0000000000
11
-3.9106122101
21
-53.9789187063
31
0.0000000000
0
SPLINE
5
2D3
100
AcDbEntity
8
0
100
AcDbSpline
62
7
6
CONTINUOUS
70
0
71
3
72
10
73
6
74
4
42
0.0000001000
43
0.0000001000
44
0.0000000001
12
0.3399238870
22
1.3258993425
32
0.0000000000
13
0.3399667598
23
1.3258883503
33
0.0000000000
40
0.0000000000
40
0.0000000000
40
0.0000000000
40
0.0000000000
40
0.3754837152
40
0.7503870122
40
1.0000000000
40
1.0000000000
40
1.0000000000
40
1.0000000000
10
-3.3527281290
20
-54.2575940023
30
0.0000000000
10
-3.3101828343
20
-54.0916427987
30
0.0000000000
10
-3.2251567872
20
-53.7599972304
30
0.0000000000
10
-3.1118423562
20
-53.3180324413
30
0.0000000000
10
-3.0410723145
20
-53.0420190881
30
0.0000000000
10
-3.0127856083
20
-52.9316994373
30
0.0000000000
11
-3.3527281290
21
-54.2575940023
31
0.0000000000
11
-3.2250901113
21
-53.7597409383
31
0.0000000000
11
-3.0976439545
21
-53.2626588443
31
0.0000000000
11
-3.0127856083
21
-52.9316994373
31
0.0000000000
0
SPLINE
5
2D4
100
AcDbEntity
8
0
100
AcDbSpline
62
7
6
CONTINUOUS
70
0
71
3
72
8
73
4
74
2
42
0.0000001000
43
0.0000001000
44
0.0000000001
12
0.0423971631
22
0.1653511793
32
0.0000000000
13
0.0423981241
23
0.1653509329
33
0.0000000000
40
0.0000000000
40
0.0000000000
40
0.0000000000
40
0.0000000000
40
1.0000000000
40
1.0000000000
40
1.0000000000
40
1.0000000000
10
-3.0127856083
20
-52.9316994373
30
0.0000000000
10
-2.9986532206
20
-52.8765823775
30
0.0000000000
10
-2.9845206781
20
-52.8214653574
30
0.0000000000
10
-2.9703879701
20
-52.7663483798
30
0.0000000000
11
-3.0127856083
21
-52.9316994373
31
0.0000000000
11
-2.9703879701
21
-52.7663483798
31
0.0000000000
0
SPLINE
5
2D5
100
AcDbEntity
8
0
100
AcDbSpline
62
7
6
CONTINUOUS
70
0
71
3
72
8
73
4
74
2
42
0.0000001000
43
0.0000001000
44
0.0000000001
12
-0.1021805563
22
0.0510713770
32
0.0000000000
13
-0.1021828935
23
0.0510667007
33
0.0000000000
40
0.0000000000
40
0.0000000000
40
0.0000000000
40
0.0000000000
40
1.0000000000
40
1.0000000000
40
1.0000000000
40
1.0000000000
10
-3.1081493750
20
-54.3798213954
30
0.0000000000
10
-3.1422095604
20
-54.3627976031
30
0.0000000000
10
-3.1762701354
20
-54.3457745901
30
0.0000000000
10
-3.2103310999
20
-54.3287523565
30
0.0000000000
11
-3.1081493750
21
-54.3798213954
31
0.0000000000
11
-3.2103310999
21
-54.3287523565
31
0.0000000000
0
SPLINE
5
2D6
100
AcDbEntity
8
0
100
AcDbSpline
62
7
6
CONTINUOUS
70
0
71
3
72
8
73
4
74
2
42
0.0000001000
43
0.0000001000
44
0.0000000001
12
-0.1423947597
22
0.0711628955
32
0.0000000000
13
-0.1423992987
23
0.0711538124
33
0.0000000000
40
0.0000000000
40
0.0000000000
40
0.0000000000
40
0.0000000000
40
1.0000000000
40
1.0000000000
40
1.0000000000
40
1.0000000000
10
-3.2103310999
20
-54.3287523565
30
0.0000000000
10
-3.2577960198
20
-54.3050313914
30
0.0000000000
10
-3.3052616961
20
-54.2813119398
30
0.0000000000
10
-3.3527281290
20
-54.2575940023
30
0.0000000000
11
-3.2103310999
21
-54.3287523565
31
0.0000000000
11
-3.3527281290
21
-54.2575940023
31
0.0000000000
0
SPLINE
5
2D7
100
AcDbEntity
8
0
100
AcDbSpline
62
7
6
CONTINUOUS
70
0
71
3
72
9
73
5
74
3
42
0.0000001000
43
0.0000001000
44
0.0000000001
12
0.6206391180
22
1.2832879564
32
0.0000000000
13
0.6206391092
23
1.2832879606
33
0.0000000000
40
0.0000000000
40
0.0000000000
40
0.0000000000
40
0.0000000000
40
0.5278685262
40
1.0000000000
40
1.0000000000
40
1.0000000000
40
1.0000000000
10
-2.7950176209
20
-54.5363567920
30
0.0000000000
10
-2.6858123353
20
-54.3105543512
30
0.0000000000
10
-2.4789326330
20
-53.8827916973
30
0.0000000000
10
-2.2720529272
20
-53.4550290451
30
0.0000000000
10
-2.1743785081
20
-53.2530688330
30
0.0000000000
11
-2.7950176209
21
-54.5363567920
31
0.0000000000
11
-2.4674017672
21
-53.8589494683
31
0.0000000000
11
-2.1743785081
21
-53.2530688330
31
0.0000000000
0
SPLINE
5
2D8
100
AcDbEntity
8
0
100
AcDbSpline
62
7
6
CONTINUOUS
70
0
71
3
72
8
73
4
74
2
42
0.0000001000
43
0.0000001000
44
0.0000000001
12
0.0345925946
22
0.0715266883
32
0.0000000000
13
0.0345925944
23
0.0715266884
33
0.0000000000
40
0.0000000000
40
0.0000000000
40
0.0000000000
40
0.0000000000
40
1.0000000000
40
1.0000000000
40
1.0000000000
40
1.0000000000
10
-2.1743785081
20
-53.2530688330
30
0.0000000000
10
-2.1628476432
20
-53.2292266036
30
0.0000000000
10
-2.1513167784
20
-53.2053843742
30
0.0000000000
10
-2.1397859136
20
-53.1815421447
30
0.0000000000
11
-2.1743785081
21
-53.2530688330
31
0.0000000000
11
-2.1397859136
21
-53.1815421447
31
0.0000000000
0
SPLINE
5
2D9
100
AcDbEntity
8
0
100
AcDbSpline
62
7
6
CONTINUOUS
70
0
71
3
72
8
73
4
74
2
42
0.0000001000
43
0.0000001000
44
0.0000000001
12
-0.0875723166
22
0.0437965852
32
0.0000000000
13
-0.0875740349
23
0.0437931493
33
0.0000000000
40
0.0000000000
40
0.0000000000
40
0.0000000000
40
0.0000000000
40
1.0000000000
40
1.0000000000
40
1.0000000000
40
1.0000000000
10
-2.5650754302
20
-54.6513404602
30
0.0000000000
10
-2.5942662024
20
-54.6367415985
30
0.0000000000
10
-2.6234572611
20
-54.6221433094
30
0.0000000000
10
-2.6526486060
20
-54.6075455930
30
0.0000000000
11
-2.5650754302
21
-54.6513404602
31
0.0000000000
11
-2.6526486060
21
-54.6075455930
31
0.0000000000
0
SPLINE
5
2DA
100
AcDbEntity
8
0
100
AcDbSpline
62
7
6
CONTINUOUS
70
0
71
3
72
8
73
4
74
2
42
0.0000001000
43
0.0000001000
44
0.0000000001
12
-0.1423667448
22
0.0711933407
32
0.0000000000
13
-0.1423712846
23
0.0711842616
33
0.0000000000
40
0.0000000000
40
0.0000000000
40
0.0000000000
40
0.0000000000
40
1.0000000000
40
1.0000000000
40
1.0000000000
40
1.0000000000
10
-2.6526486060
20
-54.6075455930
30
0.0000000000
10
-2.7001041876
20
-54.5838144794
30
0.0000000000
10
-2.7475605260
20
-54.5600848792
30
0.0000000000
10
-2.7950176209
20
-54.5363567920
30
0.0000000000
11
-2.6526486060
21
-54.6075455930
31
0.0000000000
11
-2.7950176209
21
-54.5363567920
31
0.0000000000
0
SPLINE
5
2DB
100
AcDbEntity
8
0
100
AcDbSpline
62
7
6
CONTINUOUS
70
0
71
3
72
8
73
4
74
2
42
0.0000001000
43
0.0000001000
44
0.0000000001
12
0.1029440102
22
0.1351332626
32
0.0000000000
13
0.1029435767
23
0.1351335928
33
0.0000000000
40
0.0000000000
40
0.0000000000
40
0.0000000000
40
0.0000000000
40
1.0000000000
40
1.0000000000
40
1.0000000000
40
1.0000000000
10
-2.8658871853
20
-53.6166062707
30
0.0000000000
10
-2.8315725152
20
-53.5715618499
30
0.0000000000
10
-2.7972579200
20
-53.5265173720
30
0.0000000000
10
-2.7629433944
20
-53.4814728410
30
0.0000000000
11
-2.8658871853
21
-53.6166062707
31
0.0000000000
11
-2.7629433944
21
-53.4814728410
31
0.0000000000
0
SPLINE
5
2DC
100
AcDbEntity
8
0
100
AcDbSpline
62
7
6
CONTINUOUS
70
0
71
3
72
10
73
6
74
4
42
0.0000001000
43
0.0000001000
44
0.0000000001
12
0.7218993874
22
0.9476342383
32
0.0000000000
13
0.7218842164
23
0.9476457952
33
0.0000000000
40
0.0000000000
40
0.0000000000
40
0.0000000000
40
0.0000000000
40
0.2853940925
40
0.7139654475
40
1.0000000000
40
1.0000000000
40
1.0000000000
40
1.0000000000
10
-2.7629433944
20
-53.4814728410
30
0.0000000000
10
-2.6942681209
20
-53.3913231032
30
0.0000000000
10
-2.5224650791
20
-53.1657965372
30
0.0000000000
10
-2.2818350077
20
-52.8499161284
30
0.0000000000
10
-2.1098804324
20
-52.6241852879
30
0.0000000000
10
-2.0410524895
20
-52.5338321409
30
0.0000000000
11
-2.7629433944
21
-53.4814728410
31
0.0000000000
11
-2.5569183692
21
-53.2110230217
31
0.0000000000
11
-2.2475367607
21
-52.8048912448
31
0.0000000000
11
-2.0410524895
21
-52.5338321409
31
0.0000000000
0
SPLINE
5
2DD
100
AcDbEntity
8
0
100
AcDbSpline
62
7
6
CONTINUOUS
70
0
71
3
72
8
73
4
74
2
42
0.0000001000
43
0.0000001000
44
0.0000000001
12
0.0538145422
22
0.0706444655
32
0.0000000000
13
0.0538144900
23
0.0706445052
33
0.0000000000
40
0.0000000000
40
0.0000000000
40
0.0000000000
40
0.0000000000
40
1.0000000000
40
1.0000000000
40
1.0000000000
40
1.0000000000
10
-2.0410524895
20
-52.5338321409
30
0.0000000000
10
-2.0231143088
20
-52.5102839858
30
0.0000000000
10
-2.0051761371
20
-52.4867358237
30
0.0000000000
10
-1.9872379738
20
-52.4631876553
30
0.0000000000
11
-2.0410524895
21
-52.5338321409
31
0.0000000000
11
-1.9872379738
21
-52.4631876553
31
0.0000000000
0
SPLINE
5
2DE
100
AcDbEntity
8
0
100
AcDbSpline
62
7
6
CONTINUOUS
70
0
71
3
72
8
73
4
74
2
42
0.0000001000
43
0.0000001000
44
0.0000000001
12
0.2633489177
22
0.3343586013
32
0.0000000000
13
0.2633499712
23
0.3343577715
33
0.0000000000
40
0.0000000000
40
0.0000000000
40
0.0000000000
40
0.0000000000
40
1.0000000000
40
1.0000000000
40
1.0000000000
40
1.0000000000
10
-2.2849249661
20
-54.7914710366
30
0.0000000000
10
-2.1971419935
20
-54.6800181695
30
0.0000000000
10
-2.1093588908
20
-54.5685654049
30
0.0000000000
10
-2.0215755671
20
-54.4571128144
30
0.0000000000
11
-2.2849249661
21
-54.7914710366
31
0.0000000000
11
-2.0215755671
21
-54.4571128144
31
0.0000000000
0
SPLINE
5
2DF
100
AcDbEntity
8
0
100
AcDbSpline
62
7
6
CONTINUOUS
70
0
71
3
72
10
73
6
74
4
42
0.0000001000
43
0.0000001000
44
0.0000000001
12
1.0264901343
22
1.3032655832
32
0.0000000000
13
1.0265264294
23
1.3032369953
33
0.0000000000
40
0.0000000000
40
0.0000000000
40
0.0000000000
40
0.0000000000
40
0.2156390584
40
0.6866494542
40
1.0000000000
40
1.0000000000
40
1.0000000000
40
1.0000000000
10
-2.0215755671
20
-54.4571128144
30
0.0000000000
10
-1.9477917784
20
-54.3634344933
30
0.0000000000
10
-1.7128449843
20
-54.0651393511
30
0.0000000000
10
-1.3706777800
20
-53.6307205037
30
0.0000000000
10
-1.1022908498
20
-53.2899827457
30
0.0000000000
10
-0.9950699775
20
-53.1538594044
30
0.0000000000
11
-2.0215755671
21
-54.4571128144
31
0.0000000000
11
-1.8002236786
21
-54.1760782626
31
0.0000000000
11
-1.3167301850
21
-53.5622313260
31
0.0000000000
11
-0.9950699775
21
-53.1538594044
31
0.0000000000
0
SPLINE
5
2E0
100
AcDbEntity
8
0
100
AcDbSpline
62
7
6
CONTINUOUS
70
0
71
3
72
8
73
4
74
2
42
0.0000001000
43
0.0000001000
44
0.0000000001
12
0.1099170789
22
0.1395463376
32
0.0000000000
13
0.1099177001
23
0.1395458482
33
0.0000000000
40
0.0000000000
40
0.0000000000
40
0.0000000000
40
0.0000000000
40
1.0000000000
40
1.0000000000
40
1.0000000000
40
1.0000000000
10
-0.9950699775
20
-53.1538594044
30
0.0000000000
10
-0.9584309512
20
-53.1073439586
30
0.0000000000
10
-0.9217918246
20
-53.0608285917
30
0.0000000000
10
-0.8851525913
20
-53.0143133089
30
0.0000000000
11
-0.9950699775
21
-53.1538594044
31
0.0000000000
11
-0.8851525913
21
-53.0143133089
31
0.0000000000
0
SPLINE
5
2E1
100
AcDbEntity
8
0
100
AcDbSpline
62
7
6
CONTINUOUS
70
0
71
3
72
8
73
4
74
2
42
0.0000001000
43
0.0000001000
44
0.0000000001
12
-0.1025403570
22
0.0513125756
32
0.0000000000
13
-0.1025427189
23
0.0513078555
33
0.0000000000
40
0.0000000000
40
0.0000000000
40
0.0000000000
40
0.0000000000
40
1.0000000000
40
1.0000000000
40
1.0000000000
40
1.0000000000
10
-2.0400393801
20
-54.9139982544
30
0.0000000000
10
-2.0742194991
20
-54.8968940625
30
0.0000000000
10
-2.1084000119
20
-54.8797906575
30
0.0000000000
10
-2.1425809181
20
-54.8626880390
30
0.0000000000
11
-2.0400393801
21
-54.9139982544
31
0.0000000000
11
-2.1425809181
21
-54.8626880390
31
0.0000000000
0
SPLINE
5
2E2
100
AcDbEntity
8
0
100
AcDbSpline
62
7
6
CONTINUOUS
70
0
71
3
72
8
73
4
74
2
42
0.0000001000
43
0.0000001000
44
0.0000000001
12
-0.1423417737
22
0.0712215479
32
0.0000000000
13
-0.1423463216
23
0.0712124578
33
0.0000000000
40
0.0000000000
40
0.0000000000
40
0.0000000000
40
0.0000000000
40
1.0000000000
40
1.0000000000
40
1.0000000000
40
1.0000000000
10
-2.1425809181
20
-54.8626880390
30
0.0000000000
10
-2.1900281761
20
-54.8389475231
30
0.0000000000
10
-2.2374761922
20
-54.8152085226
30
0.0000000000
10
-2.2849249661
20
-54.7914710366
30
0.0000000000
11
-2.1425809181
21
-54.8626880390
31
0.0000000000
11
-2.2849249661
21
-54.7914710366
31
0.0000000000
0
SPLINE
5
2E3
100
AcDbEntity
8
0
100
AcDbSpline
62
7
6
CONTINUOUS
70
0
71
3
72
9
73
5
74
3
42
0.0000001000
43
0.0000001000
44
0.0000000001
12
-0.4505828504
22
0.2255773891
32
0.0000000000
13
-0.4506222875
23
0.2254985975
33
0.0000000000
40
0.0000000000
40
0.0000000000
40
0.0000000000
40
0.0000000000
40
0.4998059163
40
1.0000000000
40
1.0000000000
40
1.0000000000
40
1.0000000000
10
-1.2734326485
20
-54.8014627414
30
0.0000000000
10
-1.3485006399
20
-54.7638811035
30
0.0000000000
10
-1.4986982148
20
-54.6886952148
30
0.0000000000
10
-1.6489023621
20
-54.6135224571
30
0.0000000000
10
-1.7240352295
20
-54.5759247690
30
0.0000000000
11
-1.2734326485
21
-54.8014627414
31
0.0000000000
11
-1.4986415549
21
-54.6887276797
31
0.0000000000
11
-1.7240352295
21
-54.5759247690
31
0.0000000000
0
SPLINE
5
2E4
100
AcDbEntity
8
0
100
AcDbSpline
62
7
6
CONTINUOUS
70
0
71
3
72
9
73
5
74
3
42
0.0000001000
43
0.0000001000
44
0.0000000001
12
0.0984446568
22
0.4470213145
32
0.0000000000
13
0.0984237505
23
0.4470259181
33
0.0000000000
40
0.0000000000
40
0.0000000000
40
0.0000000000
40
0.0000000000
40
0.4996850392
40
1.0000000000
40
1.0000000000
40
1.0000000000
40
1.0000000000
10
-1.3718667042
20
-55.2484863903
30
0.0000000000
10
-1.3554695968
20
-55.1740297693
30
0.0000000000
10
-1.3226565262
20
-55.0250222647
30
0.0000000000
10
-1.2898469401
20
-54.8760139929
30
0.0000000000
10
-1.2734326485
20
-54.8014627414
30
0.0000000000
11
-1.3718667042
21
-55.2484863903
31
0.0000000000
11
-1.3226780659
21
-55.0251159362
31
0.0000000000
11
-1.2734326485
21
-54.8014627414
31
0.0000000000
0
SPLINE
5
2E5
100
AcDbEntity
8
0
100
AcDbSpline
62
7
6
CONTINUOUS
70
0
71
3
72
9
73
5
74
3
42
0.0000001000
43
0.0000001000
44
0.0000000001
12
-0.1186843415
22
0.0594502011
32
0.0000000000
13
-0.1186875306
23
0.0594438341
33
0.0000000000
40
0.0000000000
40
0.0000000000
40
0.0000000000
40
0.0000000000
40
0.6004508962
40
1.0000000000
40
1.0000000000
40
1.0000000000
40
1.0000000000
10
-1.1583039306
20
-55.3554492769
30
0.0000000000
10
-1.1820586370
20
-55.3435503014
30
0.0000000000
10
-1.2216204036
20
-55.3237342053
30
0.0000000000
10
-1.2611827015
20
-55.3039191702
30
0.0000000000
10
-1.2769898670
20
-55.2960022600
30
0.0000000000
11
-1.1583039306
21
-55.3554492769
31
0.0000000000
11
-1.2295686250
21
-55.3197534986
31
0.0000000000
11
-1.2769898670
21
-55.2960022600
31
0.0000000000
0
SPLINE
5
2E6
100
AcDbEntity
8
0
100
AcDbSpline
62
7
6
CONTINUOUS
70
0
71
3
72
8
73
4
74
2
42
0.0000001000
43
0.0000001000
44
0.0000000001
12
-0.0948758193
22
0.0475179021
32
0.0000000000
13
-0.0948778547
23
0.0475138378
33
0.0000000000
40
0.0000000000
40
0.0000000000
40
0.0000000000
40
0.0000000000
40
1.0000000000
40
1.0000000000
40
1.0000000000
40
1.0000000000
10
-1.2769898670
20
-55.2960022600
30
0.0000000000
10
-1.3086151401
20
-55.2801629593
30
0.0000000000
10
-1.3402407526
20
-55.2643243363
30
0.0000000000
10
-1.3718667042
20
-55.2484863903
30
0.0000000000
11
-1.2769898670
21
-55.2960022600
31
0.0000000000
11
-1.3718667042
21
-55.2484863903
31
0.0000000000
0
SPLINE
5
2E7
100
AcDbEntity
8
0
100
AcDbSpline
62
7
6
CONTINUOUS
70
0
71
3
72
9
73
5
74
3
42
0.0000001000
43
0.0000001000
44
0.0000000001
12
0.1123376368
22
0.4756656038
32
0.0000000000
13
0.1123193812
23
0.4756699149
33
0.0000000000
40
0.0000000000
40
0.0000000000
40
0.0000000000
40
0.0000000000
40
0.7497791923
40
1.0000000000
40
1.0000000000
40
1.0000000000
40
1.0000000000
10
-1.1715660326
20
-54.3777577124
30
0.0000000000
10
-1.1434898917
20
-54.2588763217
30
0.0000000000
10
-1.1060464108
20
-54.1003205541
30
0.0000000000
10
-1.0686058946
20
-53.9417640864
30
0.0000000000
10
-1.0592376792
20
-53.9020899163
30
0.0000000000
11
-1.1715660326
21
-54.3777577124
31
0.0000000000
11
-1.0873428726
21
-54.0211122974
31
0.0000000000
11
-1.0592376792
21
-53.9020899163
31
0.0000000000
0
SPLINE
5
2E8
100
AcDbEntity
8
0
100
AcDbSpline
62
7
6
CONTINUOUS
70
0
71
3
72
8
73
4
74
2
42
0.0000001000
43
0.0000001000
44
0.0000000001
12
0.0562588946
22
0.2382550838
32
0.0000000000
13
0.0562546661
23
0.2382560822
33
0.0000000000
40
0.0000000000
40
0.0000000000
40
0.0000000000
40
0.0000000000
40
1.0000000000
40
1.0000000000
40
1.0000000000
40
1.0000000000
10
-1.0592376792
20
-53.9020899163
30
0.0000000000
10
-1.0404847144
20
-53.8226715550
30
0.0000000000
10
-1.0217324738
20
-53.7432530227
30
0.0000000000
10
-1.0029809184
20
-53.6638343286
30
0.0000000000
11
-1.0592376792
21
-53.9020899163
31
0.0000000000
11
-1.0029809184
21
-53.6638343286
31
0.0000000000
0
SPLINE
5
2E9
100
AcDbEntity
8
0
100
AcDbSpline
62
7
6
CONTINUOUS
70
0
71
3
72
9
73
5
74
3
42
0.0000001000
43
0.0000001000
44
0.0000000001
12
-0.1347916231
22
0.0675587293
32
0.0000000000
13
-0.1347957647
23
0.0675504657
33
0.0000000000
40
0.0000000000
40
0.0000000000
40
0.0000000000
40
0.0000000000
40
0.6482854683
40
1.0000000000
40
1.0000000000
40
1.0000000000
40
1.0000000000
10
-0.6325250101
20
-55.6188956846
30
0.0000000000
10
-0.6616528270
20
-55.6042965704
30
0.0000000000
10
-0.7065838159
20
-55.5817778876
30
0.0000000000
10
-0.7515154949
20
-55.5592605817
30
0.0000000000
10
-0.7673187047
20
-55.5513410883
30
0.0000000000
11
-0.6325250101
21
-55.6188956846
31
0.0000000000
11
-0.7199093314
21
-55.5751000795
31
0.0000000000
11
-0.7673187047
21
-55.5513410883
31
0.0000000000
0
SPLINE
5
2EA
100
AcDbEntity
8
0
100
AcDbSpline
62
7
6
CONTINUOUS
70
0
71
3
72
8
73
4
74
2
42
0.0000001000
43
0.0000001000
44
0.0000000001
12
-0.0948622771
22
0.0475385188
32
0.0000000000
13
-0.0948643249
23
0.0475344321
33
0.0000000000
40
0.0000000000
40
0.0000000000
40
0.0000000000
40
0.0000000000
40
1.0000000000
40
1.0000000000
40
1.0000000000
40
1.0000000000
10
-0.7673187047
20
-55.5513410883
30
0.0000000000
10
-0.7989394637
20
-55.5354949153
30
0.0000000000
10
-0.8305605643
20
-55.5196494239
30
0.0000000000
10
-0.8621820059
20
-55.5038046132
30
0.0000000000
11
-0.7673187047
21
-55.5513410883
31
0.0000000000
11
-0.8621820059
21
-55.5038046132
31
0.0000000000
0
SPLINE
5
2EB
100
AcDbEntity
8
0
100
AcDbSpline
62
7
6
CONTINUOUS
70
0
71
3
72
9
73
5
74
3
42
0.0000001000
43
0.0000001000
44
0.0000000001
12
-0.2489048707
22
0.1247036733
32
0.0000000000
13
-0.2489152130
23
0.1246830282
33
0.0000000000
40
0.0000000000
40
0.0000000000
40
0.0000000000
40
0.0000000000
40
0.4997796265
40
1.0000000000
40
1.0000000000
40
1.0000000000
40
1.0000000000
10
0.0495244926
20
-54.9892259038
30
0.0000000000
10
0.0080586315
20
-54.9684511187
30
0.0000000000
10
-0.0749105219
20
-54.9268849503
30
0.0000000000
10
-0.1578813989
20
-54.8853222228
30
0.0000000000
10
-0.1993855525
20
-54.8645325591
30
0.0000000000
11
0.0495244926
21
-54.9892259038
31
0.0000000000
11
-0.0748743840
21
-54.9269041299
31
0.0000000000
11
-0.1993855525
21
-54.8645325591
31
0.0000000000
0
SPLINE
5
2EC
100
AcDbEntity
8
0
100
AcDbSpline
62
7
6
CONTINUOUS
70
0
71
3
72
10
73
6
74
4
42
0.0000001000
43
0.0000001000
44
0.0000000001
12
0.0942750907
22
0.9244168352
32
0.0000000000
13
0.0940270131
23
0.9244421014
33
0.0000000000
40
0.0000000000
40
0.0000000000
40
0.0000000000
40
0.0000000000
40
0.3324366253
40
0.6657700291
40
1.0000000000
40
1.0000000000
40
1.0000000000
40
1.0000000000
10
-0.0446236343
20
-55.9136556759
30
0.0000000000
10
-0.0341768033
20
-55.8112190049
30
0.0000000000
10
-0.0132647588
20
-55.6060683310
30
0.0000000000
10
0.0181173743
20
-55.2979250138
30
0.0000000000
10
0.0390489440
20
-55.0922179893
30
0.0000000000
10
0.0495244926
20
-54.9892259038
30
0.0000000000
11
-0.0446236343
21
-55.9136556759
31
0.0000000000
11
-0.0132976044
21
-55.6063441882
31
0.0000000000
11
0.0180847519
21
-55.2982008283
31
0.0000000000
11
0.0495244926
21
-54.9892259038
31
0.0000000000
0
SPLINE
5
2ED
100
AcDbEntity
8
0
100
AcDbSpline
62
7
6
CONTINUOUS
70
0
71
3
72
8
73
4
74
2
42
0.0000001000
43
0.0000001000
44
0.0000000001
12
-0.0783296628
22
0.0392966145
32
0.0000000000
13
-0.0783310820
23
0.0392937854
33
0.0000000000
40
0.0000000000
40
0.0000000000
40
0.0000000000
40
0.0000000000
40
1.0000000000
40
1.0000000000
40
1.0000000000
40
1.0000000000
10
0.1937279097
20
-56.0332160731
30
0.0000000000
10
0.1676180222
20
-56.0201172016
30
0.0000000000
10
0.1415078978
20
-56.0070188019
30
0.0000000000
10
0.1153975372
20
-55.9939208735
30
0.0000000000
11
0.1937279097
21
-56.0332160731
31
0.0000000000
11
0.1153975372
21
-55.9939208735
31
0.0000000000
0
SPLINE
5
2EE
100
AcDbEntity
8
0
100
AcDbSpline
62
7
6
CONTINUOUS
70
0
71
3
72
8
73
4
74
2
42
0.0000001000
43
0.0000001000
44
0.0000000001
12
-0.1600182152
22
0.0802710911
32
0.0000000000
13
-0.1600241247
23
0.0802593095
33
0.0000000000
40
0.0000000000
40
0.0000000000
40
0.0000000000
40
0.0000000000
40
1.0000000000
40
1.0000000000
40
1.0000000000
40
1.0000000000
10
0.1153975372
20
-55.9939208735
30
0.0000000000
10
0.0620581321
20
-55.9671638431
30
0.0000000000
10
0.0087177406
20
-55.9404087791
30
0.0000000000
10
-0.0446236343
20
-55.9136556759
30
0.0000000000
11
0.1153975372
21
-55.9939208735
31
0.0000000000
11
-0.0446236343
21
-55.9136556759
31
0.0000000000
0
SPLINE
5
2EF
100
AcDbEntity
8
0
100
AcDbSpline
62
7
6
CONTINUOUS
70
0
71
3
72
8
73
4
74
2
42
0.0000001000
43
0.0000001000
44
0.0000000001
12
0.3417789950
22
0.7062993928
32
0.0000000000
13
0.3417790533
23
0.7062993645
33
0.0000000000
40
0.0000000000
40
0.0000000000
40
0.0000000000
40
0.0000000000
40
1.0000000000
40
1.0000000000
40
1.0000000000
40
1.0000000000
10
-0.8621820059
20
-55.5038046132
30
0.0000000000
10
-0.7482556742
20
-55.2683714823
30
0.0000000000
10
-0.6343293226
20
-55.0329383611
30
0.0000000000
10
-0.5204029715
20
-54.7975052395
30
0.0000000000
11
-0.8621820059
21
-55.5038046132
31
0.0000000000
11
-0.5204029715
21
-54.7975052395
31
0.0000000000
0
SPLINE
5
2F0
100
AcDbEntity
8
0
100
AcDbSpline
62
7
6
CONTINUOUS
70
0
71
3
72
9
73
5
74
3
42
0.0000001000
43
0.0000001000
44
0.0000000001
12
0.1850397615
22
0.3823916787
32
0.0000000000
13
0.1850397513
23
0.3823916836
33
0.0000000000
40
0.0000000000
40
0.0000000000
40
0.0000000000
40
0.0000000000
40
0.8560980059
40
1.0000000000
40
1.0000000000
40
1.0000000000
40
1.0000000000
10
-0.5204029715
20
-54.7975052395
30
0.0000000000
10
-0.4675989146
20
-54.6883836550
30
0.0000000000
10
-0.4059189942
20
-54.5609197621
30
0.0000000000
10
-0.3442390768
20
-54.4334558677
30
0.0000000000
10
-0.3353632137
20
-54.4151135591
30
0.0000000000
11
-0.5204029715
21
-54.7975052395
31
0.0000000000
11
-0.3619908031
21
-54.4701404848
31
0.0000000000
11
-0.3353632137
21
-54.4151135591
31
0.0000000000
0
SPLINE
5
2F1
100
AcDbEntity
8
0
100
AcDbSpline
62
7
6
CONTINUOUS
70
0
71
3
72
8
73
4
74
2
42
0.0000001000
43
0.0000001000
44
0.0000000001
12
0.2522190017
22
0.5212201597
32
0.0000000000
13
0.2522189990
23
0.5212201610
33
0.0000000000
40
0.0000000000
40
0.0000000000
40
0.0000000000
40
0.0000000000
40
1.0000000000
40
1.0000000000
40
1.0000000000
40
1.0000000000
10
-0.3353632137
20
-54.4151135591
30
0.0000000000
10
-0.2512902131
20
-54.2413735059
30
0.0000000000
10
-0.1672172171
20
-54.0676334504
30
0.0000000000
10
-0.0831442175
20
-53.8938933967
30
0.0000000000
11
-0.3353632137
21
-54.4151135591
31
0.0000000000
11
-0.0831442175
21
-53.8938933967
31
0.0000000000
0
SPLINE
5
2F2
100
AcDbEntity
8
0
100
AcDbSpline
62
7
6
CONTINUOUS
70
0
71
3
72
8
73
4
74
2
42
0.0000001000
43
0.0000001000
44
0.0000000001
12
0.1867209567
22
0.3858659637
32
0.0000000000
13
0.1867209787
23
0.3858659530
33
0.0000000000
40
0.0000000000
40
0.0000000000
40
0.0000000000
40
0.0000000000
40
1.0000000000
40
1.0000000000
40
1.0000000000
40
1.0000000000
10
-0.0831442175
20
-53.8938933967
30
0.0000000000
10
-0.0209038986
20
-53.7652714088
30
0.0000000000
10
0.0413364223
20
-53.6366494219
30
0.0000000000
10
0.1035767485
20
-53.5080274375
30
0.0000000000
11
-0.0831442175
21
-53.8938933967
31
0.0000000000
11
0.1035767485
21
-53.5080274375
31
0.0000000000
0
SPLINE
5
2F3
100
AcDbEntity
8
0
100
AcDbSpline
62
7
6
CONTINUOUS
70
0
71
3
72
9
73
5
74
3
42
0.0000001000
43
0.0000001000
44
0.0000000001
12
-0.3557212837
22
0.1780747046
32
0.0000000000
13
-0.3557333931
23
0.1780505130
33
0.0000000000
40
0.0000000000
40
0.0000000000
40
0.0000000000
40
0.0000000000
40
0.4997207779
40
1.0000000000
40
1.0000000000
40
1.0000000000
40
1.0000000000
10
0.5817277875
20
-54.1332384250
30
0.0000000000
10
0.5224740153
20
-54.1035758817
30
0.0000000000
10
0.4038992486
20
-54.0442196551
30
0.0000000000
10
0.2853224561
20
-53.9848674759
30
0.0000000000
10
0.2260004477
20
-53.9551758186
30
0.0000000000
11
0.5817277875
21
-54.1332384250
31
0.0000000000
11
0.4039649601
21
-54.0442538130
31
0.0000000000
11
0.2260004477
21
-53.9551758186
31
0.0000000000
0
SPLINE
5
2F4
100
AcDbEntity
8
0
100
AcDbSpline
62
7
6
CONTINUOUS
70
0
71
3
72
9
73
5
74
3
42
0.0000001000
43
0.0000001000
44
0.0000000001
12
0.7761682537
22
0.3782917915
32
0.0000000000
13
0.7761681840
23
0.3782919346
33
0.0000000000
40
0.0000000000
40
0.0000000000
40
0.0000000000
40
0.0000000000
40
0.0489624774
40
1.0000000000
40
1.0000000000
40
1.0000000000
40
1.0000000000
10
51.6302084657
20
42.8483053089
30
0.0000000000
10
51.6428761726
20
42.8544793433
30
0.0000000000
10
51.9015989226
20
42.9805766097
30
0.0000000000
10
52.1603216447
20
43.1066739333
30
0.0000000000
10
52.4063766670
20
43.2265972081
30
0.0000000000
11
51.6302084657
21
42.8483053089
31
0.0000000000
11
51.6682115861
21
42.8668274125
31
0.0000000000
11
52.4063766670
21
43.2265972081
31
0.0000000000
0
SPLINE
5
2F5
100
AcDbEntity
8
0
100
AcDbSpline
62
7
6
CONTINUOUS
70
0
71
3
72
11
73
7
74
5
42
0.0000001000
43
0.0000001000
44
0.0000000001
12
-0.0952448268
22
-0.1648638360
32
0.0000000000
13
-0.1801779040
23
0.0607228212
33
0.0000000000
40
0.0000000000
40
0.0000000000
40
0.0000000000
40
0.0000000000
40
0.2393985382
40
0.5595354821
40
0.8026758884
40
1.0000000000
40
1.0000000000
40
1.0000000000
40
1.0000000000
10
29.3279855258
20
-69.3408012261
30
0.0000000000
10
29.3203850350
20
-69.3539572799
30
0.0000000000
10
29.3011696996
20
-69.3838448474
30
0.0000000000
10
29.2674714112
20
-69.4223929772
30
0.0000000000
10
29.2254367903
20
-69.4487582644
30
0.0000000000
10
29.1955589449
20
-69.4489782327
30
0.0000000000
10
29.1837077966
20
-69.4449842071
30
0.0000000000
11
29.3279855258
21
-69.3408012261
31
0.0000000000
11
29.3031597535
21
-69.3789800809
31
0.0000000000
11
29.2618221662
21
-69.4236597187
31
0.0000000000
11
29.2212179837
21
-69.4457610380
31
0.0000000000
11
29.1837077966
21
-69.4449842071
31
0.0000000000
0
SPLINE
5
2F6
100
AcDbEntity
8
0
100
AcDbSpline
62
7
6
CONTINUOUS
70
0
71
3
72
8
73
4
74
2
42
0.0000001000
43
0.0000001000
44
0.0000000001
12
-0.0145898353
22
-0.0355404718
32
0.0000000000
13
-0.0056477000
23
-0.0376425407
33
0.0000000000
40
0.0000000000
40
0.0000000000
40
0.0000000000
40
0.0000000000
40
1.0000000000
40
1.0000000000
40
1.0000000000
40
1.0000000000
10
-33.2287264017
20
64.7577571370
30
0.0000000000
10
-33.2335896801
20
64.7459103131
30
0.0000000000
10
-33.2367309578
20
64.7335338437
30
0.0000000000
10
-33.2386135245
20
64.7209863301
30
0.0000000000
11
-33.2287264017
21
64.7577571370
31
0.0000000000
11
-33.2386135245
21
64.7209863301
31
0.0000000000
0
SPLINE
5
2F7
100
AcDbEntity
8
0
100
AcDbSpline
62
7
6
CONTINUOUS
70
0
71
3
72
8
73
4
74
2
42
0.0000001000
43
0.0000001000
44
0.0000000001
12
-0.0033398213
22
-0.0222602762
32
0.0000000000
13
-0.0009861753
23
-0.0223966888
33
0.0000000000
40
0.0000000000
40
0.0000000000
40
0.0000000000
40
0.0000000000
40
1.0000000000
40
1.0000000000
40
1.0000000000
40
1.0000000000
10
-33.2386135245
20
64.7209863301
30
0.0000000000
10
-33.2397267983
20
64.7135662381
30
0.0000000000
10
-33.2403998931
20
64.7060863308
30
0.0000000000
10
-33.2407286182
20
64.6986207679
30
0.0000000000
11
-33.2386135245
21
64.7209863301
31
0.0000000000
11
-33.2407286182
21
64.6986207679
31
0.0000000000
0
SPLINE
5
2F8
100
AcDbEntity
8
0
100
AcDbSpline
62
7
6
CONTINUOUS
70
0
71
3
72
8
73
4
74
2
42
0.0000001000
43
0.0000001000
44
0.0000000001
12
-0.0166017190
22
0.0082489438
32
0.0000000000
13
-0.0158154352
23
0.0096246462
33
0.0000000000
40
0.0000000000
40
0.0000000000
40
0.0000000000
40
0.0000000000
40
1.0000000000
40
1.0000000000
40
1.0000000000
40
1.0000000000
10
-33.3198353892
20
64.8029627541
30
0.0000000000
10
-33.3253692956
20
64.8057124020
30
0.0000000000
10
-33.3307844617
20
64.8086963494
30
0.0000000000
10
-33.3360562734
20
64.8119045648
30
0.0000000000
11
-33.3198353892
21
64.8029627541
31
0.0000000000
11
-33.3360562734
21
64.8119045648
31
0.0000000000
0
SPLINE
5
2F9
100
AcDbEntity
8
0
100
AcDbSpline
62
7
6
CONTINUOUS
70
0
71
3
72
8
73
4
74
2
42
0.0000001000
43
0.0000001000
44
0.0000000001
12
1.7427828681
22
-0.8602747975
32
0.0000000000
13
1.7421651485
23
-0.8615230807
33
0.0000000000
40
0.0000000000
40
0.0000000000
40
0.0000000000
40
0.0000000000
40
1.0000000000
40
1.0000000000
40
1.0000000000
40
1.0000000000
10
-33.0994842678
20
-35.7861968107
30
0.0000000000
10
-32.5185566451
20
-36.0729550765
30
0.0000000000
10
-31.9377361451
20
-36.3599298443
30
0.0000000000
10
-31.3570144289
20
-36.6471042045
30
0.0000000000
11
-33.0994842678
21
-35.7861968107
31
0.0000000000
11
-31.3570144289
21
-36.6471042045
31
0.0000000000
0
SPLINE
5
2FA
100
AcDbEntity
8
0
100
AcDbSpline
62
7
6
CONTINUOUS
70
0
71
3
72
10
73
6
74
4
42
0.0000001000
43
0.0000001000
44
0.0000000001
12
60.8491291744
22
-30.0906772647
32
0.0000000000
13
60.5719499640
23
-30.6448254324
33
0.0000000000
40
0.0000000000
40
0.0000000000
40
0.0000000000
40
0.0000000000
40
0.3094883974
40
0.6722933251
40
1.0000000000
40
1.0000000000
40
1.0000000000
40
1.0000000000
10
-31.3570144289
20
-36.6471042045
30
0.0000000000
10
-25.0796479388
20
-39.7513426988
30
0.0000000000
10
-11.4685672299
20
-46.5452579359
30
0.0000000000
10
8.7700900727
20
-56.6646238944
30
0.0000000000
10
22.7408654121
20
-63.6609549028
30
0.0000000000
10
29.3574761834
20
-67.0084595177
30
0.0000000000
11
-31.3570144289
21
-36.6471042045
31
0.0000000000
11
-12.5490103392
21
-46.0084272221
31
0.0000000000
11
9.4792576780
21
-57.0222229193
31
0.0000000000
11
29.3574761834
21
-67.0084595177
31
0.0000000000
0
SPLINE
5
2FB
100
AcDbEntity
8
0
100
AcDbSpline
62
7
6
CONTINUOUS
70
0
71
3
72
8
73
4
74
2
42
0.0000001000
43
0.0000001000
44
0.0000000001
12
-0.3468734011
22
-0.1349504741
32
0.0000000000
13
-0.3468734135
23
-0.1349504424
33
0.0000000000
40
0.0000000000
40
0.0000000000
40
0.0000000000
40
0.0000000000
40
1.0000000000
40
1.0000000000
40
1.0000000000
40
1.0000000000
10
-45.3665847336
20
92.1130779083
30
0.0000000000
10
-45.4822092007
20
92.0680944170
30
0.0000000000
10
-45.5978336707
20
92.0231109332
30
0.0000000000
10
-45.7134581418
20
91.9781274524
30
0.0000000000
11
-45.3665847336
21
92.1130779083
31
0.0000000000
11
-45.7134581418
21
91.9781274524
31
0.0000000000
0
SPLINE
5
2FC
100
AcDbEntity
8
0
100
AcDbSpline
62
7
6
CONTINUOUS
70
0
71
3
72
8
73
4
74
2
42
0.0000001000
43
0.0000001000
44
0.0000000001
12
-0.3724391580
22
-0.1448967467
32
0.0000000000
13
-0.3724391593
23
-0.1448967435
33
0.0000000000
40
0.0000000000
40
0.0000000000
40
0.0000000000
40
0.0000000000
40
1.0000000000
40
1.0000000000
40
1.0000000000
40
1.0000000000
10
-45.7134581418
20
91.9781274524
30
0.0000000000
10
-45.8376045278
20
91.9298285369
30
0.0000000000
10
-45.9617509152
20
91.8815296247
30
0.0000000000
10
-46.0858973016
20
91.8332307102
30
0.0000000000
11
-45.7134581418
21
91.9781274524
31
0.0000000000
11
-46.0858973016
21
91.8332307102
31
0.0000000000
0
SPLINE
5
2FD
100
AcDbEntity
8
0
100
AcDbSpline
62
7
6
CONTINUOUS
70
0
71
3
72
9
73
5
74
3
42
0.0000001000
43
0.0000001000
44
0.0000000001
12
-0.0952645608
22
-0.0381840933
32
0.0000000000
13
-0.1008878807
23
-0.0180977753
33
0.0000000000
40
0.0000000000
40
0.0000000000
40
0.0000000000
40
0.0000000000
40
0.1388749979
40
1.0000000000
40
1.0000000000
40
1.0000000000
40
1.0000000000
10
0.5102634739
20
-55.0515414165
30
0.0000000000
10
0.5058535187
20
-55.0533090218
30
0.0000000000
10
0.4739295542
20
-55.0656467117
30
0.0000000000
10
0.4408067984
20
-55.0750921563
30
0.0000000000
10
0.4118477729
20
-55.0802869719
30
0.0000000000
11
0.5102634739
21
-55.0515414165
31
0.0000000000
11
0.4969635175
21
-55.0566800345
31
0.0000000000
11
0.4118477729
21
-55.0802869719
31
0.0000000000
0
SPLINE
5
2FE
100
AcDbEntity
8
0
100
AcDbSpline
62
7
6
CONTINUOUS
70
0
71
3
72
8
73
4
74
2
42
0.0000001000
43
0.0000001000
44
0.0000000001
12
-0.0405573965
22
-0.0072753897
32
0.0000000000
13
-0.0409895787
23
-0.0031900359
33
0.0000000000
40
0.0000000000
40
0.0000000000
40
0.0000000000
40
0.0000000000
40
1.0000000000
40
1.0000000000
40
1.0000000000
40
1.0000000000
10
0.4118477729
20
-55.0802869719
30
0.0000000000
10
0.3983286408
20
-55.0827121018
30
0.0000000000
10
0.3847144464
20
-55.0844967400
30
0.0000000000
10
0.3710512535
20
-55.0855600853
30
0.0000000000
11
0.4118477729
21
-55.0802869719
31
0.0000000000
11
0.3710512535
21
-55.0855600853
31
0.0000000000
0
SPLINE
5
2FF
100
AcDbEntity
8
0
100
AcDbSpline
62
7
6
CONTINUOUS
70
0
71
3
72
9
73
5
74
3
42
0.0000001000
43
0.0000001000
44
0.0000000001
12
-0.1721788953
22
-0.0860163156
32
0.0000000000
13
-0.1914575835
23
-0.0148979299
33
0.0000000000
40
0.0000000000
40
0.0000000000
40
0.0000000000
40
0.0000000000
40
0.3273152601
40
1.0000000000
40
1.0000000000
40
1.0000000000
40
1.0000000000
10
0.4649635551
20
-55.0764202594
30
0.0000000000
10
0.4461779618
20
-55.0858050770
30
0.0000000000
10
0.3873047732
20
-55.1115555487
30
0.0000000000
10
0.3242046084
20
-55.1271079703
30
0.0000000000
10
0.2812744101
20
-55.1304485070
30
0.0000000000
11
0.4649635551
21
-55.0764202594
31
0.0000000000
11
0.4071849175
21
-55.1015695507
31
0.0000000000
11
0.2812744101
21
-55.1304485070
31
0.0000000000
0
SPLINE
5
300
100
AcDbEntity
8
0
100
AcDbSpline
62
7
6
CONTINUOUS
70
0
71
3
72
14
73
10
74
8
42
0.0000001000
43
0.0000001000
44
0.0000000001
12
0.5489662567
22
0.2754516742
32
0.0000000000
13
-0.5472019715
23
0.2739302760
33
0.0000000000
40
0.0000000000
40
0.0000000000
40
0.0000000000
40
0.0000000000
40
0.1117685165
40
0.2772857288
40
0.4514392017
40
0.6224405965
40
0.7715832128
40
0.8953416453
40
1.0000000000
40
1.0000000000
40
1.0000000000
40
1.0000000000
10
0.4822678605
20
-54.6462772049
30
0.0000000000
10
0.5027202419
20
-54.6360149299
30
0.0000000000
10
0.5498583444
20
-54.6033736055
30
0.0000000000
10
0.6102403445
20
-54.5324440319
30
0.0000000000
10
0.6566411266
20
-54.4380208865
30
0.0000000000
10
0.6776680434
20
-54.3382004253
30
0.0000000000
10
0.6702702231
20
-54.2463283548
30
0.0000000000
10
0.6371262808
20
-54.1748836953
30
0.0000000000
10
0.6008175263
20
-54.1427947818
30
0.0000000000
10
0.5817277736
20
-54.1332384178
30
0.0000000000
11
0.4822678605
21
-54.6462772049
31
0.0000000000
11
0.5390883092
21
-54.6079256513
31
0.0000000000
11
0.6056257553
21
-54.5315602907
31
0.0000000000
11
0.6526812778
21
-54.4359403485
31
0.0000000000
11
0.6731902511
21
-54.3333276134
31
0.0000000000
11
0.6640504197
21
-54.2425204257
31
0.0000000000
11
0.6306771432
21
-54.1745378605
31
0.0000000000
11
0.5817277736
21
-54.1332384178
31
0.0000000000
0
SPLINE
5
301
100
AcDbEntity
8
0
100
AcDbSpline
62
7
6
CONTINUOUS
70
0
71
3
72
14
73
10
74
8
42
0.0000001000
43
0.0000001000
44
0.0000000001
12
0.5489646567
22
0.2754507267
32
0.0000000000
13
-0.5471927324
23
0.2739447299
33
0.0000000000
40
0.0000000000
40
0.0000000000
40
0.0000000000
40
0.0000000000
40
0.1117651015
40
0.2772716893
40
0.4514202244
40
0.6224267527
40
0.7715777905
40
0.8953414477
40
1.0000000000
40
1.0000000000
40
1.0000000000
40
1.0000000000
10
0.3924940295
20
-54.6911641288
30
0.0000000000
10
0.4129457264
20
-54.6809022027
30
0.0000000000
10
0.4600812316
20
-54.6482625699
30
0.0000000000
10
0.5204608799
20
-54.5773366599
30
0.0000000000
10
0.5668623580
20
-54.4829167094
30
0.0000000000
10
0.5878924922
20
-54.3830955068
30
0.0000000000
10
0.5804980564
20
-54.2912195771
30
0.0000000000
10
0.5473560362
20
-54.2197710770
30
0.0000000000
10
0.5110476982
20
-54.1876800750
30
0.0000000000
10
0.4919582318
20
-54.1781231887
30
0.0000000000
11
0.3924940295
21
-54.6911641288
31
0.0000000000
11
0.4493125328
21
-54.6528138398
31
0.0000000000
11
0.5158460384
21
-54.5764540623
31
0.0000000000
11
0.5629020714
21
-54.4808380868
31
0.0000000000
11
0.5834148243
21
-54.3782232160
31
0.0000000000
11
0.5742780448
21
-54.2874108103
31
0.0000000000
11
0.5409061445
21
-54.2194242549
31
0.0000000000
11
0.4919582318
21
-54.1781231887
31
0.0000000000
0
SPLINE
5
302
100
AcDbEntity
8
0
100
AcDbSpline
62
7
6
CONTINUOUS
70
0
71
3
72
9
73
5
74
3
42
0.0000001000
43
0.0000001000
44
0.0000000001
12
0.0004470402
22
-0.0895212247
32
0.0000000000
13
0.0792843790
23
-0.0424882234
33
0.0000000000
40
0.0000000000
40
0.0000000000
40
0.0000000000
40
0.0000000000
40
0.4294977842
40
1.0000000000
40
1.0000000000
40
1.0000000000
40
1.0000000000
10
-35.7385730363
20
66.5477247491
30
0.0000000000
10
-35.7385090353
20
66.5349083599
30
0.0000000000
10
-35.7254048647
20
66.5049430435
30
0.0000000000
10
-35.6998872575
20
66.4876241790
30
0.0000000000
10
-35.6848099529
20
66.4795443038
30
0.0000000000
11
-35.7385730363
21
66.5477247491
31
0.0000000000
11
-35.7249627247
21
66.5115011560
31
0.0000000000
11
-35.6848099529
21
66.4795443038
31
0.0000000000
0
SPLINE
5
303
100
AcDbEntity
8
0
100
AcDbSpline
62
7
6
CONTINUOUS
70
0
71
3
72
12
73
8
74
6
42
0.0000001000
43
0.0000001000
44
0.0000000001
12
0.3609967970
22
0.1942300322
32
0.0000000000
13
0.3749441373
23
-0.1625474131
33
0.0000000000
40
0.0000000000
40
0.0000000000
40
0.0000000000
40
0.0000000000
40
0.0588865255
40
0.2996103007
40
0.5397530940
40
0.7764612256
40
1.0000000000
40
1.0000000000
40
1.0000000000
40
1.0000000000
10
-35.4400335349
20
67.1488360995
30
0.0000000000
10
-35.4329475858
20
67.1526486100
30
0.0000000000
10
-35.3962428085
20
67.1708224842
30
0.0000000000
10
-35.3247743599
20
67.1917059758
30
0.0000000000
10
-35.2261555296
20
67.1943779105
30
0.0000000000
10
-35.1318130261
20
67.1769267075
30
0.0000000000
10
-35.0725905454
20
67.1556432289
30
0.0000000000
10
-35.0446523611
20
67.1435313458
30
0.0000000000
11
-35.4400335349
21
67.1488360995
31
0.0000000000
11
-35.4184048049
21
67.1595382844
31
0.0000000000
11
-35.3240920015
21
67.1875146440
31
0.0000000000
11
-35.2260140739
21
67.1909270877
31
0.0000000000
11
-35.1307725470
21
67.1740021890
31
0.0000000000
11
-35.0446523611
21
67.1435313458
31
0.0000000000
0
SPLINE
5
304
100
AcDbEntity
8
0
100
AcDbSpline
62
7
6
CONTINUOUS
70
0
71
3
72
9
73
5
74
3
42
0.0000001000
43
0.0000001000
44
0.0000000001
12
0.0003683822
22
-0.0895594344
32
0.0000000000
13
0.0793189061
23
-0.0425067252
33
0.0000000000
40
0.0000000000
40
0.0000000000
40
0.0000000000
40
0.0000000000
40
0.4297455016
40
1.0000000000
40
1.0000000000
40
1.0000000000
40
1.0000000000
10
-35.7385732134
20
-37.3250606144
30
0.0000000000
10
-35.7385204432
20
-37.3378898690
30
0.0000000000
10
-35.7254159984
20
-37.3678737529
30
0.0000000000
10
-35.6998872739
20
-37.3852001632
30
0.0000000000
10
-35.6848099529
20
-37.3932800470
30
0.0000000000
11
-35.7385732134
21
-37.3250606144
31
0.0000000000
11
-35.7249627600
21
-37.3613231501
31
0.0000000000
11
-35.6848099529
21
-37.3932800470
31
0.0000000000
0
SPLINE
5
305
100
AcDbEntity
8
0
100
AcDbSpline
62
7
6
CONTINUOUS
70
0
71
3
72
10
73
6
74
4
42
0.0000001000
43
0.0000001000
44
0.0000000001
12
-0.8924291792
22
0.5453921282
32
0.0000000000
13
-0.8938382044
23
0.5430798079
33
0.0000000000
40
0.0000000000
40
0.0000000000
40
0.0000000000
40
0.0000000000
40
0.3340647033
40
0.6673964461
40
1.0000000000
40
1.0000000000
40
1.0000000000
40
1.0000000000
10
-33.5646460250
20
64.7103378867
30
0.0000000000
10
-33.6640223880
20
64.7710699732
30
0.0000000000
10
-33.8626050361
20
64.8923224492
30
0.0000000000
10
-34.1603177781
20
65.0737325998
30
0.0000000000
10
-34.3586779808
20
65.1943711997
30
0.0000000000
10
-34.4577759020
20
65.2545812911
30
0.0000000000
11
-33.5646460250
21
64.7103378867
31
0.0000000000
11
-33.8628506320
21
64.8924105179
31
0.0000000000
11
-34.1605603203
21
65.0738224027
31
0.0000000000
11
-34.4577759020
21
65.2545812911
31
0.0000000000
0
SPLINE
5
306
100
AcDbEntity
8
0
100
AcDbSpline
62
7
6
CONTINUOUS
70
0
71
3
72
10
73
6
74
4
42
0.0000001000
43
0.0000001000
44
0.0000000001
12
-0.1695890641
22
-0.0660087657
32
0.0000000000
13
-0.1819717429
23
0.0087999060
33
0.0000000000
40
0.0000000000
40
0.0000000000
40
0.0000000000
40
0.0000000000
40
0.3459276653
40
0.6809224579
40
1.0000000000
40
1.0000000000
40
1.0000000000
40
1.0000000000
10
-33.2407286182
20
64.6986207679
30
0.0000000000
10
-33.2602838012
20
64.6910093485
30
0.0000000000
10
-33.2996832970
20
64.6782087372
30
0.0000000000
10
-33.3595201827
20
64.6671381863
30
0.0000000000
10
-33.3993335614
20
64.6657413075
30
0.0000000000
10
-33.4186879269
20
64.6666772583
30
0.0000000000
11
-33.2407286182
21
64.6986207679
31
0.0000000000
11
-33.3006629727
21
64.6793614029
31
0.0000000000
11
-33.3606498754
21
64.6684949638
31
0.0000000000
11
-33.4186879269
21
64.6666772583
31
0.0000000000
0
SPLINE
5
307
100
AcDbEntity
8
0
100
AcDbSpline
62
7
6
CONTINUOUS
70
0
71
3
72
10
73
6
74
4
42
0.0000001000
43
0.0000001000
44
0.0000000001
12
-0.1537827057
22
0.0074367225
32
0.0000000000
13
-0.1312273747
23
0.0801952412
33
0.0000000000
40
0.0000000000
40
0.0000000000
40
0.0000000000
40
0.0000000000
40
0.3558016151
40
0.6891198007
40
1.0000000000
40
1.0000000000
40
1.0000000000
40
1.0000000000
10
-33.4186879269
20
64.6666772583
30
0.0000000000
10
-33.4369266386
20
64.6675592576
30
0.0000000000
10
-33.4721347864
20
64.6720493665
30
0.0000000000
10
-33.5213912104
20
64.6871030524
30
0.0000000000
10
-33.5510473609
20
64.7020275158
30
0.0000000000
10
-33.5646460250
20
64.7103378867
30
0.0000000000
11
-33.4186879269
21
64.6666772583
31
0.0000000000
11
-33.4729463896
21
64.6737643304
31
0.0000000000
11
-33.5219409737
21
64.6888401667
31
0.0000000000
11
-33.5646460250
21
64.7103378867
31
0.0000000000
0
SPLINE
5
308
100
AcDbEntity
8
0
100
AcDbSpline
62
7
6
CONTINUOUS
70
0
71
3
72
10
73
6
74
4
42
0.0000001000
43
0.0000001000
44
0.0000000001
12
0.0067880782
22
-0.1266582740
32
0.0000000000
13
0.1087394196
23
-0.0653003446
33
0.0000000000
40
0.0000000000
40
0.0000000000
40
0.0000000000
40
0.0000000000
40
0.3701190676
40
0.7003276747
40
1.0000000000
40
1.0000000000
40
1.0000000000
40
1.0000000000
10
-34.4820072820
20
65.5851280526
30
0.0000000000
10
-34.4811698163
20
65.5695018385
30
0.0000000000
10
-34.4763227942
20
65.5399119518
30
0.0000000000
10
-34.4577893521
20
65.5011566043
30
0.0000000000
10
-34.4378326464
20
65.4822877436
30
0.0000000000
10
-34.4269705815
20
65.4757648416
30
0.0000000000
11
-34.4820072820
21
65.5851280526
31
0.0000000000
11
-34.4737751255
21
65.5389095407
31
0.0000000000
11
-34.4549470581
21
65.5014963611
31
0.0000000000
11
-34.4269705815
21
65.4757648416
31
0.0000000000
0
SPLINE
5
309
100
AcDbEntity
8
0
100
AcDbSpline
62
7
6
CONTINUOUS
70
0
71
3
72
11
73
7
74
5
42
0.0000001000
43
0.0000001000
44
0.0000000001
12
0.2535455460
22
-0.1355945002
32
0.0000000000
13
0.2621813360
23
0.1180345687
33
0.0000000000
40
0.0000000000
40
0.0000000000
40
0.0000000000
40
0.0000000000
40
0.2312253992
40
0.4938298633
40
0.7597505983
40
1.0000000000
40
1.0000000000
40
1.0000000000
40
1.0000000000
10
-34.7376959118
20
65.2606012358
30
0.0000000000
10
-34.7181538551
20
65.2501502717
30
0.0000000000
10
-34.6726549409
20
65.2349121396
30
0.0000000000
10
-34.5999285372
20
65.2266290105
30
0.0000000000
10
-34.5260466296
20
65.2319344334
30
0.0000000000
10
-34.4787722050
20
65.2451287132
30
0.0000000000
10
-34.4577759020
20
65.2545812914
30
0.0000000000
11
-34.7376959118
21
65.2606012358
31
0.0000000000
11
-34.6751574492
21
65.2380408196
31
0.0000000000
11
-34.6001964777
21
65.2289881472
31
0.0000000000
11
-34.5239577253
21
65.2347891202
31
0.0000000000
11
-34.4577759020
21
65.2545812914
31
0.0000000000
0
SPLINE
5
30A
100
AcDbEntity
8
0
100
AcDbSpline
62
7
6
CONTINUOUS
70
0
71
3
72
11
73
7
74
5
42
0.0000001000
43
0.0000001000
44
0.0000000001
12
0.2535455463
22
-0.1355944993
32
0.0000000000
13
0.2621813363
23
0.1180345678
33
0.0000000000
40
0.0000000000
40
0.0000000000
40
0.0000000000
40
0.0000000000
40
0.2312254563
40
0.4938299414
40
0.7597506504
40
1.0000000000
40
1.0000000000
40
1.0000000000
40
1.0000000000
10
-34.7376959118
20
-37.1884019081
30
0.0000000000
10
-34.7181538502
20
-37.1988528747
30
0.0000000000
10
-34.6726549280
20
-37.2140910075
30
0.0000000000
10
-34.5999285190
20
-37.2223741335
30
0.0000000000
10
-34.5260466171
20
-37.2170687076
30
0.0000000000
10
-34.4787722005
20
-37.2038744286
30
0.0000000000
10
-34.4577759020
20
-37.1944218525
30
0.0000000000
11
-34.7376959118
21
-37.1884019081
31
0.0000000000
11
-34.6751574331
21
-37.2109623279
31
0.0000000000
11
-34.6001964551
21
-37.2200149970
31
0.0000000000
11
-34.5239577105
21
-37.2142140208
31
0.0000000000
11
-34.4577759020
21
-37.1944218525
31
0.0000000000
0
SPLINE
5
30B
100
AcDbEntity
8
0
100
AcDbSpline
62
7
6
CONTINUOUS
70
0
71
3
72
10
73
6
74
4
42
0.0000001000
43
0.0000001000
44
0.0000000001
12
0.0088972806
22
0.1580953222
32
0.0000000000
13
0.0909888806
23
0.1295928861
33
0.0000000000
40
0.0000000000
40
0.0000000000
40
0.0000000000
40
0.0000000000
40
0.3116762738
40
0.6500981112
40
1.0000000000
40
1.0000000000
40
1.0000000000
40
1.0000000000
10
-34.4819602275
20
-37.7863118849
30
0.0000000000
10
-34.4810358704
20
-37.7698870312
30
0.0000000000
10
-34.4749110890
20
-37.7358158670
30
0.0000000000
10
-34.4560504131
20
-37.6862779138
30
0.0000000000
10
-34.4375906046
20
-37.6547533823
30
0.0000000000
10
-34.4269782109
20
-37.6396384504
30
0.0000000000
11
-34.4819602275
21
-37.7863118849
31
0.0000000000
11
-34.4737525742
21
-37.7376466333
31
0.0000000000
11
-34.4549428424
21
-37.6874687335
31
0.0000000000
11
-34.4269782109
21
-37.6396384504
31
0.0000000000
0
SPLINE
5
30C
100
AcDbEntity
8
0
100
AcDbSpline
62
7
6
CONTINUOUS
70
0
71
3
72
10
73
6
74
4
42
0.0000001000
43
0.0000001000
44
0.0000000001
12
-0.0092668427
22
0.1614502720
32
0.0000000000
13
0.0773389329
23
0.1420237803
33
0.0000000000
40
0.0000000000
40
0.0000000000
40
0.0000000000
40
0.0000000000
40
0.3192002340
40
0.6575862973
40
1.0000000000
40
1.0000000000
40
1.0000000000
40
1.0000000000
10
29.1463820519
20
-69.6005286314
30
0.0000000000
10
29.1453960591
20
-69.5833503099
30
0.0000000000
10
29.1473771239
20
-69.5476704123
30
0.0000000000
10
29.1601765821
20
-69.4950623340
30
0.0000000000
10
29.1748804702
20
-69.4611944842
30
0.0000000000
10
29.1837077736
20
-69.4449841880
30
0.0000000000
11
29.1463820519
21
-69.6005286314
31
0.0000000000
11
29.1488357304
21
-69.5489671955
31
0.0000000000
11
29.1616048693
21
-69.4957554054
31
0.0000000000
11
29.1837077736
21
-69.4449841880
31
0.0000000000
0
SPLINE
5
30D
100
AcDbEntity
8
0
100
AcDbSpline
62
7
6
CONTINUOUS
70
0
71
3
72
10
73
6
74
4
42
0.0000001000
43
0.0000001000
44
0.0000000001
12
-0.0913023955
22
0.0426811487
32
0.0000000000
13
0.0016908187
23
0.1006075366
33
0.0000000000
40
0.0000000000
40
0.0000000000
40
0.0000000000
40
0.0000000000
40
0.5446866376
40
0.9576846339
40
1.0000000000
40
1.0000000000
40
1.0000000000
40
1.0000000000
10
29.4197872911
20
-69.2671435096
30
0.0000000000
10
29.4032102261
20
-69.2593942258
30
0.0000000000
10
29.3750875444
20
-69.2426002884
30
0.0000000000
10
29.3568457982
20
-69.2108072801
30
0.0000000000
10
29.3564125967
20
-69.1955677655
30
0.0000000000
10
29.3564364459
20
-69.1941486839
30
0.0000000000
11
29.4197872911
21
-69.2671435096
31
0.0000000000
11
29.3746664589
21
-69.2358742781
31
0.0000000000
11
29.3565611142
21
-69.1983937923
31
0.0000000000
11
29.3564364459
21
-69.1941486839
31
0.0000000000
0
SPLINE
5
30E
100
AcDbEntity
8
0
100
AcDbSpline
62
7
6
CONTINUOUS
70
0
71
3
72
10
73
6
74
4
42
0.0000001000
43
0.0000001000
44
0.0000000001
12
-0.0913487027
22
0.0427027956
32
0.0000000000
13
0.0018006434
23
0.1006632320
33
0.0000000000
40
0.0000000000
40
0.0000000000
40
0.0000000000
40
0.0000000000
40
0.5444106267
40
0.9571992641
40
1.0000000000
40
1.0000000000
40
1.0000000000
40
1.0000000000
10
29.4197872911
20
33.1818596345
30
0.0000000000
10
29.4032102229
20
33.1896089198
30
0.0000000000
10
29.3750875371
20
33.2064028594
30
0.0000000000
10
29.3568365448
20
33.2382119966
30
0.0000000000
10
29.3564116411
20
33.2534693348
30
0.0000000000
10
29.3564373307
20
33.2549054883
30
0.0000000000
11
29.4197872911
21
33.1818596345
31
0.0000000000
11
29.3746664515
21
33.2131288739
31
0.0000000000
11
29.3565611132
21
33.2506093628
31
0.0000000000
11
29.3564373307
21
33.2549054883
31
0.0000000000
0
SPLINE
5
30F
100
AcDbEntity
8
0
100
AcDbSpline
62
7
6
CONTINUOUS
70
0
71
3
72
10
73
6
74
4
42
0.0000001000
43
0.0000001000
44
0.0000000001
12
-0.0068273727
22
-0.1116386129
32
0.0000000000
13
0.0949550639
23
-0.0591043885
33
0.0000000000
40
0.0000000000
40
0.0000000000
40
0.0000000000
40
0.0000000000
40
0.3881544885
40
0.7161448683
40
1.0000000000
40
1.0000000000
40
1.0000000000
40
1.0000000000
10
29.1464261228
20
33.7709568691
30
0.0000000000
10
29.1455427644
20
33.7565125262
30
0.0000000000
10
29.1465429392
20
33.7295344752
30
0.0000000000
10
29.1585406507
20
33.6934935539
30
0.0000000000
10
29.1747149798
20
33.6760034798
30
0.0000000000
10
29.1836994738
20
33.6704111185
30
0.0000000000
11
29.1464261228
21
33.7709568691
31
0.0000000000
11
29.1488572448
21
33.7276110052
31
0.0000000000
11
29.1616086633
21
33.6932136806
31
0.0000000000
11
29.1836994738
21
33.6704111185
31
0.0000000000
0
SPLINE
5
310
100
AcDbEntity
8
0
100
AcDbSpline
62
7
6
CONTINUOUS
70
0
71
3
72
11
73
7
74
5
42
0.0000001000
43
0.0000001000
44
0.0000000001
12
-0.2621720303
22
-0.1289772954
32
0.0000000000
13
0.0161489953
23
-0.2917336562
33
0.0000000000
40
0.0000000000
40
0.0000000000
40
0.0000000000
40
0.0000000000
40
0.2311399709
40
0.4877412751
40
0.7510964620
40
1.0000000000
40
1.0000000000
40
1.0000000000
40
1.0000000000
10
-35.0446523586
20
67.1435313117
30
0.0000000000
10
-35.0648518371
20
67.1335940423
30
0.0000000000
10
-35.1032171742
20
67.1037888706
30
0.0000000000
10
-35.1462839462
20
67.0437137650
30
0.0000000000
10
-35.1737574571
20
66.9732542651
30
0.0000000000
10
-35.1793863881
20
66.9228429864
30
0.0000000000
10
-35.1780465408
20
66.8986384734
30
0.0000000000
11
-35.0446523586
21
67.1435313117
31
0.0000000000
11
-35.0988790063
21
67.1032773060
31
0.0000000000
11
-35.1431606634
21
67.0427776227
31
0.0000000000
11
-35.1709236594
21
66.9710135198
31
0.0000000000
11
-35.1780465408
21
66.8986384734
31
0.0000000000
0
SPLINE
5
311
100
AcDbEntity
8
0
100
AcDbSpline
62
7
6
CONTINUOUS
70
0
71
3
72
9
73
5
74
3
42
0.0000001000
43
0.0000001000
44
0.0000000001
12
-0.1041359120
22
-0.0502814421
32
0.0000000000
13
-0.1154966647
23
-0.0078188957
33
0.0000000000
40
0.0000000000
40
0.0000000000
40
0.0000000000
40
0.0000000000
40
0.5750044738
40
1.0000000000
40
1.0000000000
40
1.0000000000
40
1.0000000000
10
30.7092227386
20
-70.4514280127
30
0.0000000000
10
30.6892632001
20
-70.4610653641
30
0.0000000000
10
30.6519458092
20
-70.4724355319
30
0.0000000000
10
30.6136014448
20
-70.4774828500
30
0.0000000000
10
30.5972395895
20
-70.4785905153
30
0.0000000000
11
30.7092227386
21
-70.4514280127
31
0.0000000000
11
30.6460083183
21
-70.4720506341
31
0.0000000000
11
30.5972395895
21
-70.4785905153
31
0.0000000000
0
SPLINE
5
312
100
AcDbEntity
8
0
100
AcDbSpline
62
7
6
CONTINUOUS
70
0
71
3
72
10
73
6
74
4
42
0.0000001000
43
0.0000001000
44
0.0000000001
12
-0.1454643341
22
-0.0098476477
32
0.0000000000
13
-0.1371857425
23
0.0495576710
33
0.0000000000
40
0.0000000000
40
0.0000000000
40
0.0000000000
40
0.0000000000
40
0.1731999781
40
0.6850946849
40
1.0000000000
40
1.0000000000
40
1.0000000000
40
1.0000000000
10
30.5972395895
20
-70.4785905153
30
0.0000000000
10
30.5888414497
20
-70.4791590527
30
0.0000000000
10
30.5555540665
20
-70.4803268256
30
0.0000000000
10
30.5069409695
20
-70.4761126249
30
0.0000000000
10
30.4677943552
20
-70.4658586298
30
0.0000000000
10
30.4533941821
20
-70.4606566385
30
0.0000000000
11
30.5972395895
21
-70.4785905153
31
0.0000000000
11
30.5720094685
21
-70.4794903422
31
0.0000000000
11
30.4977659233
21
-70.4726875200
31
0.0000000000
11
30.4533941821
21
-70.4606566385
31
0.0000000000
0
SPLINE
5
313
100
AcDbEntity
8
0
100
AcDbSpline
62
7
6
CONTINUOUS
70
0
71
3
72
8
73
4
74
2
42
0.0000001000
43
0.0000001000
44
0.0000000001
12
-0.0199014524
22
0.0071893013
32
0.0000000000
13
-0.0191474855
23
0.0089324551
33
0.0000000000
40
0.0000000000
40
0.0000000000
40
0.0000000000
40
0.0000000000
40
1.0000000000
40
1.0000000000
40
1.0000000000
40
1.0000000000
10
30.4533941821
20
-70.4606566385
30
0.0000000000
10
30.4467603646
20
-70.4582602047
30
0.0000000000
10
30.4402347153
20
-70.4555886185
30
0.0000000000
10
30.4338522201
20
-70.4526111335
30
0.0000000000
11
30.4533941821
21
-70.4606566385
31
0.0000000000
11
30.4338522201
21
-70.4526111335
31
0.0000000000
0
SPLINE
5
314
100
AcDbEntity
8
0
100
AcDbSpline
62
7
6
CONTINUOUS
70
0
71
3
72
9
73
5
74
3
42
0.0000001000
43
0.0000001000
44
0.0000000001
12
-0.1041358119
22
-0.0502813923
32
0.0000000000
13
-0.1154965509
23
-0.0078189211
33
0.0000000000
40
0.0000000000
40
0.0000000000
40
0.0000000000
40
0.0000000000
40
0.5750043738
40
1.0000000000
40
1.0000000000
40
1.0000000000
40
1.0000000000
10
30.7092227386
20
33.4213963381
30
0.0000000000
10
30.6892632228
20
33.4117589979
30
0.0000000000
10
30.6519458706
20
33.4003888357
30
0.0000000000
10
30.6136015445
20
33.3953415129
30
0.0000000000
10
30.5972397015
20
33.3942338439
30
0.0000000000
11
30.7092227386
21
33.4213963381
31
0.0000000000
11
30.6460083929
21
33.4007737325
31
0.0000000000
11
30.5972397015
21
33.3942338439
31
0.0000000000
0
SPLINE
5
315
100
AcDbEntity
8
0
100
AcDbSpline
62
7
6
CONTINUOUS
70
0
71
3
72
10
73
6
74
4
42
0.0000001000
43
0.0000001000
44
0.0000000001
12
-0.1454644078
22
-0.0098476943
32
0.0000000000
13
-0.1371858221
23
0.0495576777
33
0.0000000000
40
0.0000000000
40
0.0000000000
40
0.0000000000
40
0.0000000000
40
0.1731998339
40
0.6850944618
40
1.0000000000
40
1.0000000000
40
1.0000000000
40
1.0000000000
10
30.5972397015
20
33.3942338439
30
0.0000000000
10
30.5888415644
20
33.3936653042
30
0.0000000000
10
30.5555541749
20
33.3924975214
30
0.0000000000
10
30.5069410515
20
33.3967117113
30
0.0000000000
10
30.4677944067
20
33.4069657048
30
0.0000000000
10
30.4533942150
20
33.4121677006
30
0.0000000000
11
30.5972397015
21
33.3942338439
31
0.0000000000
11
30.5720095885
21
33.3933340099
31
0.0000000000
11
30.4977660139
21
33.4001368138
31
0.0000000000
11
30.4533942150
21
33.4121677006
31
0.0000000000
0
SPLINE
5
316
100
AcDbEntity
8
0
100
AcDbSpline
62
7
6
CONTINUOUS
70
0
71
3
72
8
73
4
74
2
42
0.0000001000
43
0.0000001000
44
0.0000000001
12
-0.0199014864
22
0.0071893103
32
0.0000000000
13
-0.0191475172
23
0.0089324696
33
0.0000000000
40
0.0000000000
40
0.0000000000
40
0.0000000000
40
0.0000000000
40
1.0000000000
40
1.0000000000
40
1.0000000000
40
1.0000000000
10
30.4533942150
20
33.4121677006
30
0.0000000000
10
30.4467603862
20
33.4145641373
30
0.0000000000
10
30.4402347259
20
33.4172357274
30
0.0000000000
10
30.4338522201
20
33.4202132173
30
0.0000000000
11
30.4533942150
21
33.4121677006
31
0.0000000000
11
30.4338522201
21
33.4202132173
31
0.0000000000
0
SPLINE
5
317
100
AcDbEntity
8
0
100
AcDbSpline
62
7
6
CONTINUOUS
70
0
71
3
72
11
73
7
74
5
42
0.0000001000
43
0.0000001000
44
0.0000000001
12
-0.2520626891
22
-0.1408885511
32
0.0000000000
13
-0.0181185308
23
-0.2881959436
33
0.0000000000
40
0.0000000000
40
0.0000000000
40
0.0000000000
40
0.0000000000
40
0.2305430809
40
0.4911314752
40
0.7565209549
40
1.0000000000
40
1.0000000000
40
1.0000000000
40
1.0000000000
10
30.0353540455
20
34.6035276752
30
0.0000000000
10
30.0159836092
20
34.5927007150
30
0.0000000000
10
29.9789643948
20
34.5620476356
30
0.0000000000
10
29.9349437702
20
34.5034366864
30
0.0000000000
10
29.9032676814
20
34.4359451611
30
0.0000000000
10
29.8924766510
20
34.3875020022
30
0.0000000000
10
29.8910061568
20
34.3641121112
30
0.0000000000
11
30.0353540455
21
34.6035276752
31
0.0000000000
11
29.9830890570
21
34.5622929470
31
0.0000000000
11
29.9374206866
21
34.5024867588
31
0.0000000000
11
29.9051284484
21
34.4329873976
31
0.0000000000
11
29.8910061568
21
34.3641121112
31
0.0000000000
0
SPLINE
5
318
100
AcDbEntity
8
0
100
AcDbSpline
62
7
6
CONTINUOUS
70
0
71
3
72
11
73
7
74
5
42
0.0000001000
43
0.0000001000
44
0.0000000001
12
0.0133320270
22
-0.2907884878
32
0.0000000000
13
0.2541232110
23
-0.1419756359
33
0.0000000000
40
0.0000000000
40
0.0000000000
40
0.0000000000
40
0.0000000000
40
0.2459576580
40
0.5126349230
40
0.7724571623
40
1.0000000000
40
1.0000000000
40
1.0000000000
40
1.0000000000
10
-33.2407269799
20
-35.5426259717
30
0.0000000000
10
-33.2396339419
20
-35.5664665235
30
0.0000000000
10
-33.2295903323
20
-35.6158482843
30
0.0000000000
10
-33.1988137749
20
-35.6847465145
30
0.0000000000
10
-33.1555560458
20
-35.7443646117
30
0.0000000000
10
-33.1187745098
20
-35.7754362738
30
0.0000000000
10
-33.0994998710
20
-35.7862047869
30
0.0000000000
11
-33.2407269799
21
-35.5426259717
31
0.0000000000
11
-33.2276065722
21
-35.6130103072
31
0.0000000000
11
-33.1961734215
21
-35.6839897754
31
0.0000000000
11
-33.1511967834
21
-35.7447960629
31
0.0000000000
11
-33.0994998710
21
-35.7862047869
31
0.0000000000
0
SPLINE
5
319
100
AcDbEntity
8
0
100
AcDbSpline
62
7
6
CONTINUOUS
70
0
71
3
72
11
73
7
74
5
42
0.0000001000
43
0.0000001000
44
0.0000000001
12
0.2125009092
22
-0.1762421916
32
0.0000000000
13
0.2405591119
23
-0.1354594411
33
0.0000000000
40
0.0000000000
40
0.0000000000
40
0.0000000000
40
0.0000000000
40
0.2155526300
40
0.4795591875
40
0.7541830634
40
1.0000000000
40
1.0000000000
40
1.0000000000
40
1.0000000000
10
-33.5646448866
20
-35.8459994849
30
0.0000000000
10
-33.5493765100
20
-35.8586626408
30
0.0000000000
10
-33.5142090108
20
-35.8853760931
30
0.0000000000
10
-33.4573402148
20
-35.9251747378
30
0.0000000000
10
-33.3968117471
20
-35.9645374564
30
0.0000000000
10
-33.3557621620
20
-35.9892463207
30
0.0000000000
10
-33.3360509940
20
-36.0003457290
30
0.0000000000
11
-33.5646448866
21
-35.8459994849
31
0.0000000000
11
-33.5175615774
21
-35.8823927753
31
0.0000000000
11
-33.4579135604
21
-35.9242790972
31
0.0000000000
11
-33.3943406056
21
-35.9655913875
31
0.0000000000
11
-33.3360509940
21
-36.0003457290
31
0.0000000000
0
SPLINE
5
31A
100
AcDbEntity
8
0
100
AcDbSpline
62
7
6
CONTINUOUS
70
0
71
3
72
14
73
10
74
8
42
0.0000001000
43
0.0000001000
44
0.0000000001
12
-0.3831489130
22
0.2608647072
32
0.0000000000
13
0.1165518875
23
0.4486302960
33
0.0000000000
40
0.0000000000
40
0.0000000000
40
0.0000000000
40
0.0000000000
40
0.0965769883
40
0.2281822415
40
0.3811514401
40
0.5374660579
40
0.6937312683
40
0.8483225241
40
1.0000000000
40
1.0000000000
40
1.0000000000
40
1.0000000000
10
-34.4269705747
20
-37.6396450215
30
0.0000000000
10
-34.4393050307
20
-37.6312471789
30
0.0000000000
10
-34.4617034817
20
-37.6021375645
30
0.0000000000
10
-34.4803651332
20
-37.5458643748
30
0.0000000000
10
-34.4896513980
20
-37.4780898231
30
0.0000000000
10
-34.4905391911
20
-37.4060498948
30
0.0000000000
10
-34.4849200778
20
-37.3340058027
30
0.0000000000
10
-34.4740309025
20
-37.2633189883
30
0.0000000000
10
-34.4636686673
20
-37.2171042228
30
0.0000000000
10
-34.4577759020
20
-37.1944218525
30
0.0000000000
11
-34.4269705747
21
-37.6396450215
31
0.0000000000
11
-34.4562540454
21
-37.6057858804
31
0.0000000000
11
-34.4776211423
21
-37.5486483515
31
0.0000000000
11
-34.4881316734
21
-37.4785269630
31
0.0000000000
11
-34.4894499960
21
-37.4060835514
31
0.0000000000
11
-34.4839954427
21
-37.3338567173
31
0.0000000000
11
-34.4731592595
21
-37.2630242123
31
0.0000000000
11
-34.4577759020
21
-37.1944218525
31
0.0000000000
0
SPLINE
5
31B
100
AcDbEntity
8
0
100
AcDbSpline
62
7
6
CONTINUOUS
70
0
71
3
72
9
73
5
74
3
42
0.0000001000
43
0.0000001000
44
0.0000000001
12
-0.0723859128
22
0.0354907877
32
0.0000000000
13
-0.0800606384
23
-0.0130139776
33
0.0000000000
40
0.0000000000
40
0.0000000000
40
0.0000000000
40
0.0000000000
40
0.7394090507
40
1.0000000000
40
1.0000000000
40
1.0000000000
40
1.0000000000
10
-33.3360518933
20
64.8119146104
30
0.0000000000
10
-33.3538928263
20
64.8206620136
30
0.0000000000
10
-33.3814554090
20
64.8261314882
30
0.0000000000
10
-33.4084486456
20
64.8236269104
30
0.0000000000
10
-33.4154030048
20
64.8224964688
30
0.0000000000
11
-33.3360518933
21
64.8119146104
31
0.0000000000
11
-33.3943415963
21
64.8243907519
31
0.0000000000
11
-33.4154030048
21
64.8224964688
31
0.0000000000
0
SPLINE
5
31C
100
AcDbEntity
8
0
100
AcDbSpline
62
7
6
CONTINUOUS
70
0
71
3
72
10
73
6
74
4
42
0.0000001000
43
0.0000001000
44
0.0000000001
12
-0.1904462989
22
-0.0309573334
32
0.0000000000
13
-0.0959779167
23
-0.1660274080
33
0.0000000000
40
0.0000000000
40
0.0000000000
40
0.0000000000
40
0.0000000000
40
0.2308269046
40
0.6051684918
40
1.0000000000
40
1.0000000000
40
1.0000000000
40
1.0000000000
10
-33.4154030048
20
64.8224964688
30
0.0000000000
10
-33.4300563814
20
64.8201145403
30
0.0000000000
10
-33.4675444855
20
64.8083085061
30
0.0000000000
10
-33.5210906679
20
64.7714785081
30
0.0000000000
10
-33.5520143231
20
64.7321888373
30
0.0000000000
10
-33.5646460250
20
64.7103378866
30
0.0000000000
11
-33.4154030048
21
64.8224964688
31
0.0000000000
11
-33.4579146481
21
64.8095832597
31
0.0000000000
11
-33.5175627258
21
64.7696369453
31
0.0000000000
11
-33.5646460250
21
64.7103378866
31
0.0000000000
0
SPLINE
5
31D
100
AcDbEntity
8
0
100
AcDbSpline
62
7
6
CONTINUOUS
70
0
71
3
72
13
73
9
74
7
42
0.0000001000
43
0.0000001000
44
0.0000000001
12
-0.0878346383
22
0.2587724523
32
0.0000000000
13
0.2500603599
23
-0.1102176127
33
0.0000000000
40
0.0000000000
40
0.0000000000
40
0.0000000000
40
0.0000000000
40
0.2758870436
40
0.5136741347
40
0.6891222408
40
0.8063829957
40
0.8945887420
40
1.0000000000
40
1.0000000000
40
1.0000000000
40
1.0000000000
10
-34.4577759020
20
65.2545812914
30
0.0000000000
10
-34.4658533815
20
65.2783786137
30
0.0000000000
10
-34.4790607036
20
65.3232841395
30
0.0000000000
10
-34.4901570353
20
65.3854864074
30
0.0000000000
10
-34.4903723349
20
65.4336281664
30
0.0000000000
10
-34.4808648967
20
65.4689170625
30
0.0000000000
10
-34.4541581094
20
65.4853772839
30
0.0000000000
10
-34.4357569671
20
65.4796375804
30
0.0000000000
10
-34.4269705747
20
65.4757648547
30
0.0000000000
11
-34.4577759020
21
65.2545812914
31
0.0000000000
11
-34.4786164436
21
65.3270360762
31
0.0000000000
11
-34.4890131140
21
65.3911797511
31
0.0000000000
11
-34.4877284631
21
65.4391077591
31
0.0000000000
11
-34.4760609669
21
65.4689523534
31
0.0000000000
11
-34.4552692695
21
65.4811474314
31
0.0000000000
11
-34.4269705747
21
65.4757648547
31
0.0000000000
0
SPLINE
5
31E
100
AcDbEntity
8
0
100
AcDbSpline
62
7
6
CONTINUOUS
70
0
71
3
72
12
73
8
74
6
42
0.0000001000
43
0.0000001000
44
0.0000000001
12
-0.2896325229
22
-0.1416842371
32
0.0000000000
13
-0.1815701056
23
-0.2664464639
33
0.0000000000
40
0.0000000000
40
0.0000000000
40
0.0000000000
40
0.0000000000
40
0.1819003978
40
0.3789818299
40
0.5857202044
40
0.7951878515
40
1.0000000000
40
1.0000000000
40
1.0000000000
40
1.0000000000
10
-33.0994840331
20
-35.7862018282
30
0.0000000000
10
-33.1170454568
20
-35.7947926346
30
0.0000000000
10
-33.1525215468
20
-35.8150340361
30
0.0000000000
10
-33.2033960470
20
-35.8523140620
30
0.0000000000
10
-33.2522209100
20
-35.8967729957
30
0.0000000000
10
-33.2969642402
20
-35.9464306443
30
0.0000000000
10
-33.3236590747
20
-35.9821516257
30
0.0000000000
10
-33.3360549959
20
-36.0003421166
30
0.0000000000
11
-33.0994840331
21
-35.7862018282
31
0.0000000000
11
-33.1505110636
21
-35.8151170865
31
0.0000000000
11
-33.2018602829
21
-35.8525501293
31
0.0000000000
11
-33.2512269356
21
-35.8973421296
31
0.0000000000
11
-33.2964935091
21
-35.9474661849
31
0.0000000000
11
-33.3360549959
21
-36.0003421166
31
0.0000000000
0
SPLINE
5
31F
100
AcDbEntity
8
0
100
AcDbSpline
62
7
6
CONTINUOUS
70
0
71
3
72
15
73
11
74
9
42
0.0000001000
43
0.0000001000
44
0.0000000001
12
0.9898497417
22
-0.5576312550
32
0.0000000000
13
0.2634572754
23
-1.1056232501
33
0.0000000000
40
0.0000000000
40
0.0000000000
40
0.0000000000
40
0.0000000000
40
0.0959268729
40
0.2104952363
40
0.3407308829
40
0.4820922325
40
0.6287024670
40
0.7743436081
40
0.9133693020
40
1.0000000000
40
1.0000000000
40
1.0000000000
40
1.0000000000
10
30.0353540670
20
34.6035281317
30
0.0000000000
10
30.0670051304
20
34.5856975242
30
0.0000000000
10
30.1341676727
20
34.5424081229
30
0.0000000000
10
30.2343930721
20
34.4607248891
30
0.0000000000
10
30.3370343856
20
34.3561294361
30
0.0000000000
10
30.4352424256
20
34.2314883231
30
0.0000000000
10
30.5228447018
20
34.0922378695
30
0.0000000000
10
30.5951845162
20
33.9454807728
30
0.0000000000
10
30.6442285317
20
33.8134368840
30
0.0000000000
10
30.6669949959
20
33.7309716344
30
0.0000000000
10
30.6746028252
20
33.6990446631
30
0.0000000000
11
30.0353540670
21
34.6035281317
31
0.0000000000
11
30.1271303104
21
34.5447522474
31
0.0000000000
11
30.2282643896
21
34.4628118207
31
0.0000000000
11
30.3321434262
21
34.3574455015
31
0.0000000000
11
30.4317336019
21
34.2314494824
31
0.0000000000
11
30.5205181607
21
34.0905185888
31
0.0000000000
11
30.5936380815
21
33.9420863631
31
0.0000000000
11
30.6484770706
21
33.7939628144
31
0.0000000000
11
30.6746028252
21
33.6990446631
31
0.0000000000
0
SPLINE
5
320
100
AcDbEntity
8
0
100
AcDbSpline
62
7
6
CONTINUOUS
70
0
71
3
72
10
73
6
74
4
42
0.0000001000
43
0.0000001000
44
0.0000000001
12
0.0650007544
22
-0.2727817831
32
0.0000000000
13
0.0007569476
23
-0.2803035171
33
0.0000000000
40
0.0000000000
40
0.0000000000
40
0.0000000000
40
0.0000000000
40
0.1655121307
40
0.6162846457
40
1.0000000000
40
1.0000000000
40
1.0000000000
40
1.0000000000
10
30.6746028252
20
33.6990446631
30
0.0000000000
10
30.6781889629
20
33.6839950984
30
0.0000000000
10
30.6906051232
20
33.6277361971
30
0.0000000000
10
30.7048684862
20
33.5352463619
30
0.0000000000
10
30.7091259211
20
33.4572485926
30
0.0000000000
10
30.7092227386
20
33.4213963381
30
0.0000000000
11
30.6746028252
21
33.6990446631
31
0.0000000000
11
30.6845965183
21
33.6537233618
31
0.0000000000
11
30.7035941405
21
33.5288061170
31
0.0000000000
11
30.7092227386
21
33.4213963381
31
0.0000000000
0
SPLINE
5
321
100
AcDbEntity
8
0
100
AcDbSpline
62
7
6
CONTINUOUS
70
0
71
3
72
10
73
6
74
4
42
0.0000001000
43
0.0000001000
44
0.0000000001
12
-0.0008833575
22
-0.3283751615
32
0.0000000000
13
-0.1349302120
23
-0.2999543680
33
0.0000000000
40
0.0000000000
40
0.0000000000
40
0.0000000000
40
0.0000000000
40
0.3188988285
40
0.6557656669
40
1.0000000000
40
1.0000000000
40
1.0000000000
40
1.0000000000
10
30.7092227386
20
-70.4514280127
30
0.0000000000
10
30.7091288380
20
-70.4863341641
30
0.0000000000
10
30.7053181174
20
-70.5581724334
30
0.0000000000
10
30.6863074962
20
-70.6662987115
30
0.0000000000
10
30.6622780899
20
-70.7372589028
30
0.0000000000
10
30.6467955527
20
-70.7716771000
30
0.0000000000
11
30.7092227386
21
-70.4514280127
31
0.0000000000
11
30.7033755433
21
-70.5559834732
31
0.0000000000
11
30.6837368533
21
-70.6648453478
31
0.0000000000
11
30.6467955527
21
-70.7716771000
31
0.0000000000
0
SPLINE
5
322
100
AcDbEntity
8
0
100
AcDbSpline
62
7
6
CONTINUOUS
70
0
71
3
72
9
73
5
74
3
42
0.0000001000
43
0.0000001000
44
0.0000000001
12
-0.0753075668
22
-0.1674112363
32
0.0000000000
13
-0.1311066495
23
-0.1287046020
33
0.0000000000
40
0.0000000000
40
0.0000000000
40
0.0000000000
40
0.0000000000
40
0.6061486707
40
1.0000000000
40
1.0000000000
40
1.0000000000
40
1.0000000000
10
30.6467955527
20
-70.7716771000
30
0.0000000000
10
30.6315796922
20
-70.8055024662
30
0.0000000000
10
30.6011585481
20
-70.8590026272
30
0.0000000000
10
30.5610713927
20
-70.9056061824
30
0.0000000000
10
30.5438592166
20
-70.9225030086
30
0.0000000000
11
30.6467955527
21
-70.7716771000
31
0.0000000000
11
30.5911487709
21
-70.8678266444
31
0.0000000000
11
30.5438592166
21
-70.9225030086
31
0.0000000000
0
SPLINE
5
323
100
AcDbEntity
8
0
100
AcDbSpline
62
7
6
CONTINUOUS
70
0
71
3
72
9
73
5
74
3
42
0.0000001000
43
0.0000001000
44
0.0000000001
12
-0.0980021695
22
-0.0962066399
32
0.0000000000
13
-0.1244935429
23
-0.0580519366
33
0.0000000000
40
0.0000000000
40
0.0000000000
40
0.0000000000
40
0.0000000000
40
0.2591668012
40
1.0000000000
40
1.0000000000
40
1.0000000000
40
1.0000000000
10
30.5438592166
20
-70.9225030086
30
0.0000000000
10
30.5353929137
20
-70.9308141977
30
0.0000000000
10
30.5013963413
20
-70.9615219216
30
0.0000000000
10
30.4624050132
20
-70.9862896932
30
0.0000000000
10
30.4316620300
20
-71.0006252938
30
0.0000000000
11
30.5438592166
21
-70.9225030086
31
0.0000000000
11
30.5174358630
21
-70.9463320715
31
0.0000000000
11
30.4316620300
21
-71.0006252938
31
0.0000000000
0
SPLINE
5
324
100
AcDbEntity
8
0
100
AcDbSpline
62
7
6
CONTINUOUS
70
0
71
3
72
10
73
6
74
4
42
0.0000001000
43
0.0000001000
44
0.0000000001
12
1.0186455057
22
1.2819236991
32
0.0000000000
13
1.0184795874
23
1.2820555240
33
0.0000000000
40
0.0000000000
40
0.0000000000
40
0.0000000000
40
0.0000000000
40
0.3321348904
40
0.6654681224
40
1.0000000000
40
1.0000000000
40
1.0000000000
40
1.0000000000
10
-5.0514860765
20
-52.7227439787
30
0.0000000000
10
-4.9387101721
20
-52.5808201163
30
0.0000000000
10
-4.7127581689
20
-52.2964550058
30
0.0000000000
10
-4.3732387334
20
-51.8691240107
30
0.0000000000
10
-4.1464974896
20
-51.5837150619
30
0.0000000000
10
-4.0329261933
20
-51.4407522480
30
0.0000000000
11
-5.0514860765
21
-52.7227439787
31
0.0000000000
11
-4.7131682010
21
-52.2969645741
31
0.0000000000
11
-4.3736486715
21
-51.8696338659
31
0.0000000000
11
-4.0329261933
21
-51.4407522480
31
0.0000000000
0
SPLINE
5
325
100
AcDbEntity
8
0
100
AcDbSpline
62
7
6
CONTINUOUS
70
0
71
3
72
9
73
5
74
3
42
0.0000001000
43
0.0000001000
44
0.0000000001
12
-0.2732584018
22
0.1362605948
32
0.0000000000
13
-0.2732757419
23
0.1362258153
33
0.0000000000
40
0.0000000000
40
0.0000000000
40
0.0000000000
40
0.0000000000
40
0.5002410200
40
1.0000000000
40
1.0000000000
40
1.0000000000
40
1.0000000000
10
-5.2117058021
20
-53.4193158859
30
0.0000000000
10
-5.2572708226
20
-53.3965948396
30
0.0000000000
10
-5.3483583998
20
-53.3511775356
30
0.0000000000
10
-5.4394488670
20
-53.3057660280
30
0.0000000000
10
-5.4849728690
20
-53.2830726699
30
0.0000000000
11
-5.2117058021
21
-53.4193158859
31
0.0000000000
11
-5.3484030309
21
-53.3511570932
31
0.0000000000
11
-5.4849728690
21
-53.2830726699
31
0.0000000000
0
SPLINE
5
326
100
AcDbEntity
8
0
100
AcDbSpline
62
7
6
CONTINUOUS
70
0
71
3
72
10
73
6
74
4
42
0.0000001000
43
0.0000001000
44
0.0000000001
12
0.5376905845
22
2.2989733028
32
0.0000000000
13
0.5385095257
23
2.2987816126
33
0.0000000000
40
0.0000000000
40
0.0000000000
40
0.0000000000
40
0.0000000000
40
0.3351440882
40
0.6684775501
40
1.0000000000
40
1.0000000000
40
1.0000000000
40
1.0000000000
10
-5.4849728690
20
-53.2830726699
30
0.0000000000
10
-5.4249049288
20
-53.0262435661
30
0.0000000000
10
-5.3050670746
20
-52.5139790813
30
0.0000000000
10
-5.1257100399
20
-51.7476843221
30
0.0000000000
10
-5.0064004068
20
-51.2382234816
30
0.0000000000
10
-4.9468910743
20
-50.9841909110
30
0.0000000000
11
-5.4849728690
21
-53.2830726699
31
0.0000000000
11
-5.3047278307
21
-52.5125949999
31
0.0000000000
11
-5.1253693741
21
-51.7463002633
31
0.0000000000
11
-4.9468910743
21
-50.9841909110
31
0.0000000000
0
SPLINE
5
327
100
AcDbEntity
8
0
100
AcDbSpline
62
7
6
CONTINUOUS
70
0
71
3
72
9
73
5
74
3
42
0.0000001000
43
0.0000001000
44
0.0000000001
12
-0.2849813871
22
0.1422646455
32
0.0000000000
13
-0.2850000776
23
0.1422271989
33
0.0000000000
40
0.0000000000
40
0.0000000000
40
0.0000000000
40
0.0000000000
40
0.5001512946
40
1.0000000000
40
1.0000000000
40
1.0000000000
40
1.0000000000
10
-4.2496745534
20
-53.8993015107
30
0.0000000000
10
-4.2971858233
20
-53.8755835619
30
0.0000000000
10
-4.3921811755
20
-53.8281651313
30
0.0000000000
10
-4.4871796427
20
-53.7807529416
30
0.0000000000
10
-4.5346652827
20
-53.7570555812
30
0.0000000000
11
-4.2496745534
21
-53.8993015107
31
0.0000000000
11
-4.3922106993
21
-53.8281523441
31
0.0000000000
11
-4.5346652827
21
-53.7570555812
31
0.0000000000
0
SPLINE
5
328
100
AcDbEntity
8
0
100
AcDbSpline
62
7
6
CONTINUOUS
70
0
71
3
72
9
73
5
74
3
42
0.0000001000
43
0.0000001000
44
0.0000000001
12
-0.2847108660
22
0.1423991032
32
0.0000000000
13
-0.2847294675
23
0.1423619056
33
0.0000000000
40
0.0000000000
40
0.0000000000
40
0.0000000000
40
0.0000000000
40
0.4999771648
40
1.0000000000
40
1.0000000000
40
1.0000000000
40
1.0000000000
10
-2.6000228218
20
-54.7235999795
30
0.0000000000
10
-2.6474724656
20
-54.6998678795
30
0.0000000000
10
-2.7423776384
20
-54.6524046122
30
0.0000000000
10
-2.8372859112
20
-54.6049475443
30
0.0000000000
10
-2.8847429898
20
-54.5812194764
30
0.0000000000
11
-2.6000228218
21
-54.7235999795
31
0.0000000000
11
-2.7423740790
21
-54.6524083296
31
0.0000000000
11
-2.8847429898
21
-54.5812194764
31
0.0000000000
0
SPLINE
5
329
100
AcDbEntity
8
0
100
AcDbSpline
62
7
6
CONTINUOUS
70
0
71
3
72
9
73
5
74
3
42
0.0000001000
43
0.0000001000
44
0.0000000001
12
-0.2848026412
22
0.1423539298
32
0.0000000000
13
-0.2848212391
23
0.1423167154
33
0.0000000000
40
0.0000000000
40
0.0000000000
40
0.0000000000
40
0.0000000000
40
0.5000361361
40
1.0000000000
40
1.0000000000
40
1.0000000000
40
1.0000000000
10
-3.1576438005
20
-54.4447931323
30
0.0000000000
10
-3.2051143379
20
-54.4210657626
30
0.0000000000
10
-3.3000501015
20
-54.3736175534
30
0.0000000000
10
-3.3949889647
20
-54.3261755464
30
0.0000000000
10
-3.4424557405
20
-54.3024578081
30
0.0000000000
11
-3.1576438005
21
-54.4447931323
31
0.0000000000
11
-3.3000577378
21
-54.3736156750
31
0.0000000000
11
-3.4424557405
21
-54.3024578081
31
0.0000000000
0
SPLINE
5
32A
100
AcDbEntity
8
0
100
AcDbSpline
62
7
6
CONTINUOUS
70
0
71
3
72
10
73
6
74
4
42
0.0000001000
43
0.0000001000
44
0.0000000001
12
0.3823134435
22
1.4912504555
32
0.0000000000
13
0.3823695177
23
1.4912360786
33
0.0000000000
40
0.0000000000
40
0.0000000000
40
0.0000000000
40
0.0000000000
40
0.3338430325
40
0.6671764133
40
1.0000000000
40
1.0000000000
40
1.0000000000
40
1.0000000000
10
-3.4424557405
20
-54.3024578081
30
0.0000000000
10
-3.3999115140
20
-54.1365099500
30
0.0000000000
10
-3.3148868163
20
-53.8048678792
30
0.0000000000
10
-3.1874418619
20
-53.3077862245
30
0.0000000000
10
-3.1025387788
20
-52.9766530318
30
0.0000000000
10
-3.0601182474
20
-52.8112135184
30
0.0000000000
11
-3.4424557405
21
-54.3024578081
31
0.0000000000
11
-3.3148209727
21
-53.8046147692
31
0.0000000000
11
-3.1873757047
21
-53.3075331194
31
0.0000000000
11
-3.0601182474
21
-52.8112135184
31
0.0000000000
0
SPLINE
5
32B
100
AcDbEntity
8
0
100
AcDbSpline
62
7
6
CONTINUOUS
70
0
71
3
72
9
73
5
74
3
42
0.0000001000
43
0.0000001000
44
0.0000000001
12
-0.2848931154
22
0.1423080184
32
0.0000000000
13
-0.2849117441
23
0.1422707187
33
0.0000000000
40
0.0000000000
40
0.0000000000
40
0.0000000000
40
0.0000000000
40
0.5000950295
40
1.0000000000
40
1.0000000000
40
1.0000000000
40
1.0000000000
10
-3.7154438640
20
-54.1660751203
30
0.0000000000
10
-3.7629350743
20
-54.1423526094
30
0.0000000000
10
-3.8579009980
20
-54.0949197100
30
0.0000000000
10
-3.9528700263
20
-54.0474930271
30
0.0000000000
10
-4.0003462920
20
-54.0237857473
30
0.0000000000
11
-3.7154438640
21
-54.1660751203
31
0.0000000000
11
-3.8579198236
21
-54.0949122497
31
0.0000000000
11
-4.0003462920
21
-54.0237857473
31
0.0000000000
0
SPLINE
5
32C
100
AcDbEntity
8
0
100
AcDbSpline
62
7
6
CONTINUOUS
70
0
71
3
72
10
73
6
74
4
42
0.0000001000
43
0.0000001000
44
0.0000000001
12
0.9281615984
22
1.2183843733
32
0.0000000000
13
0.9281361354
23
1.2184037705
33
0.0000000000
40
0.0000000000
40
0.0000000000
40
0.0000000000
40
0.0000000000
40
0.3328774579
40
0.6662107112
40
1.0000000000
40
1.0000000000
40
1.0000000000
40
1.0000000000
10
-2.9556138408
20
-53.6614695984
30
0.0000000000
10
-2.8526258163
20
-53.5262787008
30
0.0000000000
10
-2.6465101140
20
-53.2557107552
30
0.0000000000
10
-2.3371282137
20
-52.8495785939
30
0.0000000000
10
-2.1307341805
20
-52.5786374501
30
0.0000000000
10
-2.0274668803
20
-52.4430740741
30
0.0000000000
11
-2.9556138408
21
-53.6614695984
31
0.0000000000
11
-2.6466516712
21
-53.2558954552
31
0.0000000000
11
-2.3372697039
21
-52.8497634990
31
0.0000000000
11
-2.0274668803
21
-52.4430740741
31
0.0000000000
0
SPLINE
5
32D
100
AcDbEntity
8
0
100
AcDbSpline
62
7
6
CONTINUOUS
70
0
71
3
72
9
73
5
74
3
42
0.0000001000
43
0.0000001000
44
0.0000000001
12
-0.2844777058
22
0.1425157827
32
0.0000000000
13
-0.2844964733
23
0.1424783146
33
0.0000000000
40
0.0000000000
40
0.0000000000
40
0.0000000000
40
0.0000000000
40
0.4998266265
40
1.0000000000
40
1.0000000000
40
1.0000000000
40
1.0000000000
10
-1.1771184210
20
-55.4358528358
30
0.0000000000
10
-1.2245149317
20
-55.4121084415
30
0.0000000000
10
-1.3193423996
20
-55.3646063064
30
0.0000000000
10
-1.4141729954
20
-55.3171104158
30
0.0000000000
10
-1.4616055156
20
-55.2933557960
30
0.0000000000
11
-1.1771184210
21
-55.4358528358
31
0.0000000000
11
-1.3193102999
21
-55.3646243377
31
0.0000000000
11
-1.4616055156
21
-55.2933557960
31
0.0000000000
0
SPLINE
5
32E
100
AcDbEntity
8
0
100
AcDbSpline
62
7
6
CONTINUOUS
70
0
71
3
72
9
73
5
74
3
42
0.0000001000
43
0.0000001000
44
0.0000000001
12
0.0984464556
22
0.4470221764
32
0.0000000000
13
0.0984254451
23
0.4470268029
33
0.0000000000
40
0.0000000000
40
0.0000000000
40
0.0000000000
40
0.0000000000
40
0.4996835087
40
1.0000000000
40
1.0000000000
40
1.0000000000
40
1.0000000000
10
-1.4616055156
20
-55.2933557960
30
0.0000000000
10
-1.4452081588
20
-55.2188992595
30
0.0000000000
10
-1.4123944973
20
-55.0698914658
30
0.0000000000
10
-1.3795843377
20
-54.9208829009
30
0.0000000000
10
-1.3631697132
20
-54.8463312737
30
0.0000000000
11
-1.4616055156
21
-55.2933557960
31
0.0000000000
11
-1.4124161422
21
-55.0699855926
31
0.0000000000
11
-1.3631697132
21
-54.8463312737
31
0.0000000000
0
SPLINE
5
32F
100
AcDbEntity
8
0
100
AcDbSpline
62
7
6
CONTINUOUS
70
0
71
3
72
9
73
5
74
3
42
0.0000001000
43
0.0000001000
44
0.0000000001
12
-0.4505756372
22
0.2255818273
32
0.0000000000
13
-0.4506161856
23
0.2255008179
33
0.0000000000
40
0.0000000000
40
0.0000000000
40
0.0000000000
40
0.0000000000
40
0.4998054507
40
1.0000000000
40
1.0000000000
40
1.0000000000
40
1.0000000000
10
-1.3631697132
20
-54.8463312737
30
0.0000000000
10
-1.4382364330
20
-54.8087489314
30
0.0000000000
10
-1.5884316963
20
-54.7335617485
30
0.0000000000
10
-1.7386337172
20
-54.6583880662
30
0.0000000000
10
-1.8137656372
20
-54.6207899728
30
0.0000000000
11
-1.3631697132
21
-54.8463312737
31
0.0000000000
11
-1.5883749436
21
-54.7335943763
31
0.0000000000
11
-1.8137656372
21
-54.6207899728
31
0.0000000000
0
SPLINE
5
330
100
AcDbEntity
8
0
100
AcDbSpline
62
7
6
CONTINUOUS
70
0
71
3
72
9
73
5
74
3
42
0.0000001000
43
0.0000001000
44
0.0000000001
12
-0.2846282114
22
0.1424411539
32
0.0000000000
13
-0.2846468464
23
0.1424039110
33
0.0000000000
40
0.0000000000
40
0.0000000000
40
0.0000000000
40
0.0000000000
40
0.4999231915
40
1.0000000000
40
1.0000000000
40
1.0000000000
40
1.0000000000
10
-2.0900144507
20
-54.9787570731
30
0.0000000000
10
-2.1374451986
20
-54.9550205277
30
0.0000000000
10
-2.2323228231
20
-54.9075432483
30
0.0000000000
10
-2.3272035533
20
-54.8600721758
30
0.0000000000
10
-2.3746519822
20
-54.8363345447
30
0.0000000000
11
-2.0900144507
21
-54.9787570731
31
0.0000000000
11
-2.2323090245
21
-54.9075520928
31
0.0000000000
11
-2.3746519822
21
-54.8363345447
31
0.0000000000
0
SPLINE
5
331
100
AcDbEntity
8
0
100
AcDbSpline
62
7
6
CONTINUOUS
70
0
71
3
72
10
73
6
74
4
42
0.0000001000
43
0.0000001000
44
0.0000000001
12
1.4504538653
22
1.8415581644
32
0.0000000000
13
1.4505220936
23
1.8415044241
33
0.0000000000
40
0.0000000000
40
0.0000000000
40
0.0000000000
40
0.0000000000
40
0.3341583162
40
0.6674914145
40
1.0000000000
40
1.0000000000
40
1.0000000000
40
1.0000000000
10
-2.3746519822
20
-54.8363345447
30
0.0000000000
10
-2.2130915750
20
-54.6312105529
30
0.0000000000
10
-1.8903688980
20
-54.2214697955
30
0.0000000000
10
-1.4068771053
20
-53.6076227221
30
0.0000000000
10
-1.0849419472
20
-53.1989026120
30
0.0000000000
10
-0.9241715973
20
-52.9947972682
30
0.0000000000
11
-2.3746519822
21
-54.8363345447
31
0.0000000000
11
-1.8899689284
21
-54.2209640125
31
0.0000000000
11
-1.4064769141
21
-53.6071178151
31
0.0000000000
11
-0.9241715973
21
-52.9947972682
31
0.0000000000
0
SPLINE
5
332
100
AcDbEntity
8
0
100
AcDbSpline
62
7
6
CONTINUOUS
70
0
71
3
72
9
73
5
74
3
42
0.0000001000
43
0.0000001000
44
0.0000000001
12
0.1686080193
22
0.7139196159
32
0.0000000000
13
0.1685677204
23
0.7139291322
33
0.0000000000
40
0.0000000000
40
0.0000000000
40
0.0000000000
40
0.0000000000
40
0.4995561878
40
1.0000000000
40
1.0000000000
40
1.0000000000
40
1.0000000000
10
-1.2613016702
20
-54.4226255312
30
0.0000000000
10
-1.2332252771
20
-54.3037445440
30
0.0000000000
10
-1.1770262221
20
-54.0657704841
30
0.0000000000
10
-1.1208338841
20
-53.8277948382
30
0.0000000000
10
-1.0927143266
20
-53.7087010327
30
0.0000000000
11
-1.2613016702
21
-54.4226255312
31
0.0000000000
11
-1.1770777820
21
-54.0659813199
31
0.0000000000
11
-1.0927143266
21
-53.7087010327
31
0.0000000000
0
SPLINE
5
333
100
AcDbEntity
8
0
100
AcDbSpline
62
7
6
CONTINUOUS
70
0
71
3
72
9
73
5
74
3
42
0.0000001000
43
0.0000001000
44
0.0000000001
12
-0.3197850749
22
0.1604590774
32
0.0000000000
13
-0.3198092948
23
0.1604107996
33
0.0000000000
40
0.0000000000
40
0.0000000000
40
0.0000000000
40
0.0000000000
40
0.4996455228
40
1.0000000000
40
1.0000000000
40
1.0000000000
40
1.0000000000
10
0.1853971672
20
-56.1189787892
30
0.0000000000
10
0.1321374402
20
-56.0922545693
30
0.0000000000
10
0.0255403920
20
-56.0387722422
30
0.0000000000
10
-0.0810606926
20
-55.9852979611
30
0.0000000000
10
-0.1344000301
20
-55.9585438738
30
0.0000000000
11
0.1853971672
21
-56.1189787892
31
0.0000000000
11
0.0256149568
21
-56.0388121674
31
0.0000000000
11
-0.1344000301
21
-55.9585438738
31
0.0000000000
0
SPLINE
5
334
100
AcDbEntity
8
0
100
AcDbSpline
62
7
6
CONTINUOUS
70
0
71
3
72
10
73
6
74
4
42
0.0000001000
43
0.0000001000
44
0.0000000001
12
0.0942857296
22
0.9244218316
32
0.0000000000
13
0.0940365847
23
0.9244472090
33
0.0000000000
40
0.0000000000
40
0.0000000000
40
0.0000000000
40
0.0000000000
40
0.3324329408
40
0.6657663445
40
1.0000000000
40
1.0000000000
40
1.0000000000
40
1.0000000000
10
-0.1344000301
20
-55.9585438738
30
0.0000000000
10
-0.1239521360
20
-55.8561077845
30
0.0000000000
10
-0.1030378857
20
-55.6509571331
30
0.0000000000
10
-0.0716523841
20
-55.3428121318
30
0.0000000000
10
-0.0507185294
20
-55.1371028396
30
0.0000000000
10
-0.0402417990
20
-55.0341090496
30
0.0000000000
11
-0.1344000301
21
-55.9585438738
31
0.0000000000
11
-0.1030708698
21
-55.6512341250
31
0.0000000000
11
-0.0716851449
21
-55.3430890812
31
0.0000000000
11
-0.0402417990
21
-55.0341090496
31
0.0000000000
0
SPLINE
5
335
100
AcDbEntity
8
0
100
AcDbSpline
62
7
6
CONTINUOUS
70
0
71
3
72
9
73
5
74
3
42
0.0000001000
43
0.0000001000
44
0.0000000001
12
-0.2488967786
22
0.1247079773
32
0.0000000000
13
-0.2489074664
23
0.1246866440
33
0.0000000000
40
0.0000000000
40
0.0000000000
40
0.0000000000
40
0.0000000000
40
0.4997793638
40
1.0000000000
40
1.0000000000
40
1.0000000000
40
1.0000000000
10
-0.0402417990
20
-55.0341090496
30
0.0000000000
10
-0.0817062902
20
-55.0133335584
30
0.0000000000
10
-0.1646727750
20
-54.9717660128
30
0.0000000000
10
-0.2476410411
20
-54.9302020227
30
0.0000000000
10
-0.2891439249
20
-54.9094117453
30
0.0000000000
11
-0.0402417990
21
-55.0341090496
31
0.0000000000
11
-0.1646366091
21
-54.9717852435
31
0.0000000000
11
-0.2891439249
21
-54.9094117453
31
0.0000000000
0
SPLINE
5
336
100
AcDbEntity
8
0
100
AcDbSpline
62
7
6
CONTINUOUS
70
0
71
3
72
9
73
5
74
3
42
0.0000001000
43
0.0000001000
44
0.0000000001
12
-0.2843942360
22
0.1425583019
32
0.0000000000
13
-0.2844131187
23
0.1425206260
33
0.0000000000
40
0.0000000000
40
0.0000000000
40
0.0000000000
40
0.0000000000
40
0.4997728192
40
1.0000000000
40
1.0000000000
40
1.0000000000
40
1.0000000000
10
-0.6675286833
20
-55.6912192461
30
0.0000000000
10
-0.7149061863
20
-55.6674703246
30
0.0000000000
10
-0.8097058411
20
-55.6199540348
30
0.0000000000
10
-0.9045086429
20
-55.5724440241
30
0.0000000000
10
-0.9519323670
20
-55.5486797938
30
0.0000000000
11
-0.6675286833
21
-55.6912192461
31
0.0000000000
11
-0.8096635538
21
-55.6199771928
31
0.0000000000
11
-0.9519323670
21
-55.5486797938
31
0.0000000000
0
SPLINE
5
337
100
AcDbEntity
8
0
100
AcDbSpline
62
7
6
CONTINUOUS
70
0
71
3
72
9
73
5
74
3
42
0.0000001000
43
0.0000001000
44
0.0000000001
12
-0.3557094153
22
0.1780811658
32
0.0000000000
13
-0.3557222287
23
0.1780555692
33
0.0000000000
40
0.0000000000
40
0.0000000000
40
0.0000000000
40
0.0000000000
40
0.4997104552
40
1.0000000000
40
1.0000000000
40
1.0000000000
40
1.0000000000
10
0.4919582456
20
-54.1781231959
30
0.0000000000
10
0.4327076743
20
-54.1484601891
30
0.0000000000
10
0.3141368050
20
-54.0891019262
30
0.0000000000
10
0.1955637924
20
-54.0297479448
30
0.0000000000
10
0.1362424218
20
-54.0000548315
30
0.0000000000
11
0.4919582456
21
-54.1781231959
31
0.0000000000
11
0.3142049330
21
-54.0891373691
31
0.0000000000
11
0.1362424218
21
-54.0000548315
31
0.0000000000
0
SPLINE
5
338
100
AcDbEntity
8
0
100
AcDbSpline
62
7
6
CONTINUOUS
70
0
71
3
72
8
73
4
74
2
42
0.0000001000
43
0.0000001000
44
0.0000000001
12
-0.0645748423
22
-0.1122418892
32
0.0000000000
13
-0.0645839171
23
-0.1122366675
33
0.0000000000
40
0.0000000000
40
0.0000000000
40
0.0000000000
40
0.0000000000
40
1.0000000000
40
1.0000000000
40
1.0000000000
40
1.0000000000
10
29.3563794253
20
-69.1449270904
30
0.0000000000
10
29.3348544779
20
-69.1823410535
30
0.0000000000
10
29.3133280194
20
-69.2197541472
30
0.0000000000
10
29.2918000471
20
-69.2571663697
30
0.0000000000
11
29.3563794253
21
-69.1449270904
31
0.0000000000
11
29.2918000471
21
-69.2571663697
31
0.0000000000
0
SPLINE
5
339
100
AcDbEntity
8
0
100
AcDbSpline
62
7
6
CONTINUOUS
70
0
71
3
72
8
73
4
74
2
42
0.0000001000
43
0.0000001000
44
0.0000000001
12
-0.1080795180
22
-0.1878251655
32
0.0000000000
13
-0.1081049963
23
-0.1878105008
33
0.0000000000
40
0.0000000000
40
0.0000000000
40
0.0000000000
40
0.0000000000
40
1.0000000000
40
1.0000000000
40
1.0000000000
40
1.0000000000
10
29.2918000471
20
-69.2571663697
30
0.0000000000
10
29.2557735411
20
-69.3197747582
30
0.0000000000
10
29.2197427953
20
-69.3823807069
30
0.0000000000
10
29.1837077966
20
-69.4449842071
30
0.0000000000
11
29.2918000471
21
-69.2571663697
31
0.0000000000
11
29.1837077966
21
-69.4449842071
31
0.0000000000
0
SPLINE
5
33A
100
AcDbEntity
8
0
100
AcDbSpline
62
7
6
CONTINUOUS
70
0
71
3
72
8
73
4
74
2
42
0.0000001000
43
0.0000001000
44
0.0000000001
12
1.8392061717
22
-0.9261369376
32
0.0000000000
13
1.8395487102
23
-0.9254559479
33
0.0000000000
40
0.0000000000
40
0.0000000000
40
0.0000000000
40
0.0000000000
40
1.0000000000
40
1.0000000000
40
1.0000000000
40
1.0000000000
10
-33.3360510056
20
-36.0003457465
30
0.0000000000
10
-32.7229822818
20
-36.3090580590
30
0.0000000000
10
-32.1098542162
20
-36.6176524071
30
0.0000000000
10
-31.4966713128
20
-36.9261377231
30
0.0000000000
11
-33.3360510056
21
-36.0003457465
31
0.0000000000
11
-31.4966713128
21
-36.9261377231
31
0.0000000000
0
SPLINE
5
33B
100
AcDbEntity
8
0
100
AcDbSpline
62
7
6
CONTINUOUS
70
0
71
3
72
10
73
6
74
4
42
0.0000001000
43
0.0000001000
44
0.0000000001
12
60.7767994733
22
-30.5761137279
32
0.0000000000
13
60.9335992840
23
-30.2624337241
33
0.0000000000
40
0.0000000000
40
0.0000000000
40
0.0000000000
40
0.0000000000
40
0.3072170474
40
0.6694163667
40
1.0000000000
40
1.0000000000
40
1.0000000000
40
1.0000000000
10
-31.4966713128
20
-36.9261377231
30
0.0000000000
10
-25.2727816849
20
-40.0573055164
30
0.0000000000
10
-11.6988097821
20
-46.8555460143
30
0.0000000000
10
8.5851794490
20
-56.9975983163
30
0.0000000000
10
22.6421608439
20
-64.0147461977
30
0.0000000000
10
29.3567110572
20
-67.3495012951
30
0.0000000000
11
-31.4966713128
21
-36.9261377231
31
0.0000000000
11
-12.8127631888
21
-46.2952826325
31
0.0000000000
11
9.2277234234
21
-57.3157607747
31
0.0000000000
11
29.3567110572
21
-67.3495012951
31
0.0000000000
0
SPLINE
5
33C
100
AcDbEntity
8
0
100
AcDbSpline
62
7
6
CONTINUOUS
70
0
71
3
72
9
73
5
74
3
42
0.0000001000
43
0.0000001000
44
0.0000000001
12
-0.6065144282
22
-0.9127654442
32
0.0000000000
13
-0.6072169506
23
-0.9122982529
33
0.0000000000
40
0.0000000000
40
0.0000000000
40
0.0000000000
40
0.0000000000
40
0.6005400228
40
1.0000000000
40
1.0000000000
40
1.0000000000
40
1.0000000000
10
-33.3360510056
20
-36.0003457465
30
0.0000000000
10
-33.4574630685
20
-36.1830631400
30
0.0000000000
10
-33.6597053877
20
-36.4872712210
30
0.0000000000
10
-33.8620641279
20
-36.7914018611
30
0.0000000000
10
-33.9429170843
20
-36.9128774075
30
0.0000000000
11
-33.3360510056
21
-36.0003457465
31
0.0000000000
11
-33.7004142695
21
-36.5484134669
31
0.0000000000
11
-33.9429170843
21
-36.9128774075
31
0.0000000000
0
SPLINE
5
33D
100
AcDbEntity
8
0
100
AcDbSpline
62
7
6
CONTINUOUS
70
0
71
3
72
9
73
5
74
3
42
0.0000001000
43
0.0000001000
44
0.0000000001
12
-0.4838290247
22
-0.7269170821
32
0.0000000000
13
-0.4842782629
23
-0.7266178645
33
0.0000000000
40
0.0000000000
40
0.0000000000
40
0.0000000000
40
0.0000000000
40
0.2503314874
40
1.0000000000
40
1.0000000000
40
1.0000000000
40
1.0000000000
10
-33.9429170843
20
-36.9128774075
30
0.0000000000
10
-33.9832896307
20
-36.9735341523
30
0.0000000000
10
-34.1445846363
20
-37.2158274240
30
0.0000000000
10
-34.3059545198
20
-37.4580708435
30
0.0000000000
10
-34.4269705748
20
-37.6396450214
30
0.0000000000
11
-33.9429170843
21
-36.9128774075
31
0.0000000000
11
-34.0640487603
21
-37.0948382984
31
0.0000000000
11
-34.4269705748
21
-37.6396450214
31
0.0000000000
0
SPLINE
5
33E
100
AcDbEntity
8
0
100
AcDbSpline
62
7
6
CONTINUOUS
70
0
71
3
72
11
73
7
74
5
42
0.0000001000
43
0.0000001000
44
0.0000000001
12
-7.7740954412
22
2.9625428959
32
0.0000000000
13
-7.7002360512
23
3.1496004673
33
0.0000000000
40
0.0000000000
40
0.0000000000
40
0.0000000000
40
0.0000000000
40
0.2677687307
40
0.5618586801
40
0.8851957756
40
1.0000000000
40
1.0000000000
40
1.0000000000
40
1.0000000000
10
29.1837077966
20
-69.4449842071
30
0.0000000000
10
28.4898212403
20
-69.1805587568
30
0.0000000000
10
27.0356662856
20
-68.6209107520
30
0.0000000000
10
24.7507642413
20
-67.7235445058
30
0.0000000000
10
22.8662700680
20
-66.9672062571
30
0.0000000000
10
21.7410443997
20
-66.5087529761
30
0.0000000000
10
21.4463711905
20
-66.3882238298
30
0.0000000000
11
29.1837077966
21
-69.4449842071
31
0.0000000000
11
27.1046660829
21
-68.6448717780
31
0.0000000000
11
24.8273236698
21
-67.7505079211
31
0.0000000000
11
22.3308841966
21
-66.7486017313
31
0.0000000000
11
21.4463711905
21
-66.3882238298
31
0.0000000000
0
SPLINE
5
33F
100
AcDbEntity
8
0
100
AcDbSpline
62
7
6
CONTINUOUS
70
0
71
3
72
8
73
4
74
2
42
0.0000001000
43
0.0000001000
44
0.0000000001
12
-0.0732010121
22
0.0299411525
32
0.0000000000
13
-0.0731942363
23
0.0299577156
33
0.0000000000
40
0.0000000000
40
0.0000000000
40
0.0000000000
40
0.0000000000
40
1.0000000000
40
1.0000000000
40
1.0000000000
40
1.0000000000
10
21.4463711905
20
-66.3882238298
30
0.0000000000
10
21.4219708531
20
-66.3782434457
30
0.0000000000
10
21.3975716449
20
-66.3682603005
30
0.0000000000
10
21.3731735661
20
-66.3582743953
30
0.0000000000
11
21.4463711905
21
-66.3882238298
31
0.0000000000
11
21.3731735661
21
-66.3582743953
31
0.0000000000
0
SPLINE
5
340
100
AcDbEntity
8
0
100
AcDbSpline
62
7
6
CONTINUOUS
70
0
71
3
72
24
73
20
74
18
42
0.0000001000
43
0.0000001000
44
0.0000000001
12
-58.1513114446
22
23.8007873074
32
0.0000000000
13
-53.2199218949
23
33.4016407975
33
0.0000000000
40
0.0000000000
40
0.0000000000
40
0.0000000000
40
0.0000000000
40
0.0306010404
40
0.0822855575
40
0.1389266628
40
0.2008482098
40
0.2691513726
40
0.3442581132
40
0.4238006025
40
0.5050165567
40
0.5840408007
40
0.6567740230
40
0.7217187436
40
0.7798951341
40
0.8325057297
40
0.8803926392
40
0.9239916777
40
0.9637181146
40
1.0000000000
40
1.0000000000
40
1.0000000000
40
1.0000000000
10
21.3731735661
20
-66.3582743953
30
0.0000000000
10
20.7800100216
20
-66.1154981103
30
0.0000000000
10
19.1868008378
20
-65.4582909698
30
0.0000000000
10
16.5051238164
20
-64.3289332790
30
0.0000000000
10
13.2323175246
20
-62.9134412059
30
0.0000000000
10
9.6564551708
20
-61.3223237051
30
0.0000000000
10
5.7474068541
20
-59.5292863612
30
0.0000000000
10
1.5274964146
20
-57.5295613595
30
0.0000000000
10
-2.9081430824
20
-55.3544998534
30
0.0000000000
10
-7.3864845388
20
-53.0812323182
30
0.0000000000
10
-11.7070134008
20
-50.8131946426
30
0.0000000000
10
-15.6982593040
20
-48.6519751459
30
0.0000000000
10
-19.2825395654
20
-46.6568528417
30
0.0000000000
10
-22.4798053880
20
-44.8334581166
30
0.0000000000
10
-25.3512431777
20
-43.1602263437
30
0.0000000000
10
-27.9459337387
20
-41.6187207779
30
0.0000000000
10
-30.2977183717
20
-40.1968587046
30
0.0000000000
10
-32.4322889481
20
-38.8856463217
30
0.0000000000
10
-33.7833308721
20
-38.0436031895
30
0.0000000000
10
-34.4269705748
20
-37.6396450214
30
0.0000000000
11
21.3731735661
21
-66.3582743953
31
0.0000000000
11
19.5956910451
21
-65.6250638404
31
0.0000000000
11
16.6027474362
21
-64.3646599189
31
0.0000000000
11
13.3362054176
21
-62.9519212438
31
0.0000000000
11
9.7814663117
21
-61.3702533836
31
0.0000000000
11
5.8805212141
21
-59.5809917046
31
0.0000000000
11
1.6158884271
21
-57.5601425154
31
0.0000000000
11
-2.8715888785
21
-55.3597422548
31
0.0000000000
11
-7.4220050083
21
-53.0499716678
31
0.0000000000
11
-11.8184535891
21
-50.7421548000
31
0.0000000000
11
-15.8371990071
21
-48.5660935590
31
0.0000000000
11
-19.4027488431
21
-46.5814222815
31
0.0000000000
11
-22.5780895924
21
-44.7705419225
31
0.0000000000
11
-25.4342503221
21
-43.1062109282
31
0.0000000000
11
-28.0210604037
21
-41.5693758786
31
0.0000000000
11
-30.3653720334
21
-40.1520126560
31
0.0000000000
11
-32.4922762304
21
-38.8454834065
31
0.0000000000
11
-34.4269705748
21
-37.6396450214
31
0.0000000000
0
SPLINE
5
341
100
AcDbEntity
8
0
100
AcDbSpline
62
7
6
CONTINUOUS
70
0
71
3
72
10
73
6
74
4
42
0.0000001000
43
0.0000001000
44
0.0000000001
12
-1.0898414561
22
0.6656181676
32
0.0000000000
13
-1.0919994887
23
0.6620717945
33
0.0000000000
40
0.0000000000
40
0.0000000000
40
0.0000000000
40
0.0000000000
40
0.3342191424
40
0.6675500216
40
1.0000000000
40
1.0000000000
40
1.0000000000
40
1.0000000000
10
-33.3360519095
20
64.8119146202
30
0.0000000000
10
-33.4574672017
20
64.8860687313
30
0.0000000000
10
-33.7000549956
20
65.0340491000
30
0.0000000000
10
-34.0636947236
20
65.2553326920
30
0.0000000000
10
-34.3059588393
20
65.4023962701
30
0.0000000000
10
-34.4269705748
20
65.4757648547
30
0.0000000000
11
-33.3360519095
21
64.8119146202
31
0.0000000000
11
-33.7004178757
21
65.0341802071
31
0.0000000000
11
-34.0640550963
21
65.2554617465
31
0.0000000000
11
-34.4269705748
21
65.4757648547
31
0.0000000000
0
SPLINE
5
342
100
AcDbEntity
8
0
100
AcDbSpline
62
7
6
CONTINUOUS
70
0
71
3
72
8
73
4
74
2
42
0.0000001000
43
0.0000001000
44
0.0000000001
12
-0.1654697352
22
0.0837042301
32
0.0000000000
13
-0.1654746268
23
0.0836945485
33
0.0000000000
40
0.0000000000
40
0.0000000000
40
0.0000000000
40
0.0000000000
40
1.0000000000
40
1.0000000000
40
1.0000000000
40
1.0000000000
10
29.3103534031
20
33.4938467893
30
0.0000000000
10
29.2551968247
20
33.5217481994
30
0.0000000000
10
29.2000394281
20
33.5496479901
30
0.0000000000
10
29.1448812192
20
33.5775461730
30
0.0000000000
11
29.3103534031
21
33.4938467893
31
0.0000000000
11
29.1448812192
21
33.5775461730
31
0.0000000000
0
SPLINE
5
343
100
AcDbEntity
8
0
100
AcDbSpline
62
7
6
CONTINUOUS
70
0
71
3
72
10
73
6
74
4
42
0.0000001000
43
0.0000001000
44
0.0000000001
12
-62.3169854158
22
31.5189830564
32
0.0000000000
13
-62.6168278870
23
30.9190534418
33
0.0000000000
40
0.0000000000
40
0.0000000000
40
0.0000000000
40
0.0000000000
40
0.3181170914
40
0.6714671459
40
1.0000000000
40
1.0000000000
40
1.0000000000
40
1.0000000000
10
29.1448812192
20
33.5775461730
30
0.0000000000
10
22.5368485031
20
36.9197885780
30
0.0000000000
10
8.5643017129
20
43.9257311975
30
0.0000000000
10
-12.2563310759
20
54.3359120901
30
0.0000000000
10
-26.4620553097
20
61.4176598910
30
0.0000000000
10
-33.3192837022
20
64.8036348483
30
0.0000000000
11
29.1448812192
21
33.5775461730
31
0.0000000000
11
9.2957076208
21
43.5545609391
31
0.0000000000
11
-12.7753208604
21
54.5897586308
31
0.0000000000
11
-33.3192837022
21
64.8036348483
31
0.0000000000
0
SPLINE
5
344
100
AcDbEntity
8
0
100
AcDbSpline
62
7
6
CONTINUOUS
70
0
71
3
72
8
73
4
74
2
42
0.0000001000
43
0.0000001000
44
0.0000000001
12
-0.0167681816
22
0.0082798238
32
0.0000000000
13
-0.0167682330
23
0.0082797200
33
0.0000000000
40
0.0000000000
40
0.0000000000
40
0.0000000000
40
0.0000000000
40
1.0000000000
40
1.0000000000
40
1.0000000000
40
1.0000000000
10
-33.3192837022
20
64.8036348483
30
0.0000000000
10
-33.3248730960
20
64.8063947896
30
0.0000000000
10
-33.3304624985
20
64.8091547136
30
0.0000000000
10
-33.3360519095
20
64.8119146202
30
0.0000000000
11
-33.3192837022
21
64.8036348483
31
0.0000000000
11
-33.3360519095
21
64.8119146202
31
0.0000000000
0
SPLINE
5
345
100
AcDbEntity
8
0
100
AcDbSpline
62
7
6
CONTINUOUS
70
0
71
3
72
8
73
4
74
2
42
0.0000001000
43
0.0000001000
44
0.0000000001
12
-0.0968385225
22
0.0599850444
32
0.0000000000
13
-0.0968600191
23
0.0599503163
33
0.0000000000
40
0.0000000000
40
0.0000000000
40
0.0000000000
40
0.0000000000
40
1.0000000000
40
1.0000000000
40
1.0000000000
40
1.0000000000
10
29.2918028008
20
33.6034978974
30
0.0000000000
10
29.2595232933
20
33.6234929122
30
0.0000000000
10
29.2272402049
20
33.6434821448
30
0.0000000000
10
29.1949535319
20
33.6634655836
30
0.0000000000
11
29.2918028008
21
33.6034978974
31
0.0000000000
11
29.1949535319
21
33.6634655836
31
0.0000000000
0
SPLINE
5
346
100
AcDbEntity
8
0
100
AcDbSpline
62
7
6
CONTINUOUS
70
0
71
3
72
8
73
4
74
2
42
0.0000001000
43
0.0000001000
44
0.0000000001
12
-0.0050028179
22
0.0030964326
32
0.0000000000
13
-0.0050028753
23
0.0030963398
33
0.0000000000
40
0.0000000000
40
0.0000000000
40
0.0000000000
40
0.0000000000
40
1.0000000000
40
1.0000000000
40
1.0000000000
40
1.0000000000
10
29.1949535319
20
33.6634655836
30
0.0000000000
10
29.1932859259
20
33.6644977278
30
0.0000000000
10
29.1916183104
20
33.6655298565
30
0.0000000000
10
29.1899506853
20
33.6665619698
30
0.0000000000
11
29.1949535319
21
33.6634655836
31
0.0000000000
11
29.1899506853
21
33.6665619698
31
0.0000000000
0
SPLINE
5
347
100
AcDbEntity
8
0
100
AcDbSpline
62
7
6
CONTINUOUS
70
0
71
3
72
8
73
4
74
2
42
0.0000001000
43
0.0000001000
44
0.0000000001
12
-0.0062428439
22
0.0038637714
32
0.0000000000
13
-0.0062429333
23
0.0038636269
33
0.0000000000
40
0.0000000000
40
0.0000000000
40
0.0000000000
40
0.0000000000
40
1.0000000000
40
1.0000000000
40
1.0000000000
40
1.0000000000
10
29.1899506853
20
33.6665619698
30
0.0000000000
10
29.1878697373
20
33.6678498936
30
0.0000000000
10
29.1857887744
20
33.6691377933
30
0.0000000000
10
29.1837077967
20
33.6704256690
30
0.0000000000
11
29.1899506853
21
33.6665619698
31
0.0000000000
11
29.1837077967
21
33.6704256690
31
0.0000000000
0
SPLINE
5
348
100
AcDbEntity
8
0
100
AcDbSpline
62
7
6
CONTINUOUS
70
0
71
3
72
8
73
4
74
2
42
0.0000001000
43
0.0000001000
44
0.0000000001
12
1.2687404424
22
-0.5652137618
32
0.0000000000
13
1.2677559927
23
-0.5674197315
33
0.0000000000
40
0.0000000000
40
0.0000000000
40
0.0000000000
40
0.0000000000
40
1.0000000000
40
1.0000000000
40
1.0000000000
40
1.0000000000
10
-34.4269705748
20
65.4757648547
30
0.0000000000
10
-34.0040570939
20
65.2873602674
30
0.0000000000
10
-33.5813046470
20
65.0985938108
30
0.0000000000
10
-33.1587193161
20
64.9094539003
30
0.0000000000
11
-34.4269705748
21
65.4757648547
31
0.0000000000
11
-33.1587193161
21
64.9094539003
31
0.0000000000
0
SPLINE
5
349
100
AcDbEntity
8
0
100
AcDbSpline
62
7
6
CONTINUOUS
70
0
71
3
72
27
73
23
74
21
42
0.0000001000
43
0.0000001000
44
0.0000000001
12
63.6654871648
22
-28.4952734146
32
0.0000000000
13
61.0968638230
23
-33.6518098486
33
0.0000000000
40
0.0000000000
40
0.0000000000
40
0.0000000000
40
0.0000000000
40
0.0104727871
40
0.0439732480
40
0.0809411646
40
0.1217313123
40
0.1667066896
40
0.2162119224
40
0.2705852127
40
0.3308647873
40
0.3975703772
40
0.4687517545
40
0.5420277261
40
0.6139535779
40
0.6807300564
40
0.7406955976
40
0.7945835355
40
0.8434508037
40
0.8880532826
40
0.9287693182
40
0.9659571816
40
1.0000000000
40
1.0000000000
40
1.0000000000
40
1.0000000000
10
-33.1587193161
20
64.9094539003
30
0.0000000000
10
-32.9364676186
20
64.8099789231
30
0.0000000000
10
-32.0034689568
20
64.3918686126
30
0.0000000000
10
-30.2876354477
20
63.6188497961
30
0.0000000000
10
-27.9325912806
20
62.5486108586
30
0.0000000000
10
-25.3389533317
20
61.3585719682
30
0.0000000000
10
-22.4856399118
20
60.0355477511
30
0.0000000000
10
-19.3522080490
20
58.5659539207
30
0.0000000000
10
-15.9043535038
20
56.9288663477
30
0.0000000000
10
-12.1046173615
20
55.1006103236
30
0.0000000000
10
-7.9639970402
20
53.0796468973
30
0.0000000000
10
-3.5647514776
20
50.8998446927
30
0.0000000000
10
0.9295147976
20
48.6386451678
30
0.0000000000
10
5.3189261628
20
46.3971150330
30
0.0000000000
10
9.4209098417
20
44.2733764302
30
0.0000000000
10
13.1407713761
20
42.3238777857
30
0.0000000000
10
16.4840770923
20
40.5529918297
30
0.0000000000
10
19.5054993747
20
38.9375997128
30
0.0000000000
10
22.2517776524
20
37.4571673250
30
0.0000000000
10
24.7548995006
20
36.0979721179
30
0.0000000000
10
27.0389343820
20
34.8498317564
30
0.0000000000
10
28.4904046509
20
34.0522931523
30
0.0000000000
10
29.1837077967
20
33.6704256690
30
0.0000000000
11
-33.1587193161
21
64.9094539003
31
0.0000000000
11
-32.4921037841
21
64.6107173846
31
0.0000000000
11
-30.3616375049
21
63.6508662747
31
0.0000000000
11
-28.0141133182
21
62.5840296908
31
0.0000000000
11
-25.4281521065
21
61.3975144063
31
0.0000000000
11
-22.5821096056
21
60.0778791248
31
0.0000000000
11
-19.4557944213
21
58.6116579876
31
0.0000000000
11
-16.0297386549
21
56.9849756539
31
0.0000000000
11
-12.2408796545
21
55.1620306788
31
0.0000000000
11
-8.0594930113
21
53.1212735380
31
0.0000000000
11
-3.6106154370
21
50.9170077329
31
0.0000000000
11
0.9552251676
21
48.6199377676
31
0.0000000000
11
5.4233364357
21
46.3383537716
31
0.0000000000
11
9.5596518104
21
44.1969486104
31
0.0000000000
11
13.2644308163
21
42.2554347643
31
0.0000000000
11
16.5860384286
21
40.4961077784
31
0.0000000000
11
19.5919798291
21
38.8890509013
31
0.0000000000
11
22.3305337959
21
37.4128393207
31
0.0000000000
11
24.8263569670
21
36.0576672142
31
0.0000000000
11
27.1026007097
21
34.8138510202
31
0.0000000000
11
29.1837077967
21
33.6704256690
31
0.0000000000
0
SPLINE
5
34A
100
AcDbEntity
8
0
100
AcDbSpline
62
7
6
CONTINUOUS
70
0
71
3
72
14
73
10
74
8
42
0.0000001000
43
0.0000001000
44
0.0000000001
12
-0.5712378309
22
0.3551070255
32
0.0000000000
13
-0.0000239330
23
0.6726170221
33
0.0000000000
40
0.0000000000
40
0.0000000000
40
0.0000000000
40
0.0000000000
40
0.1288154885
40
0.2840690447
40
0.4457290653
40
0.5977385051
40
0.7403391796
40
0.8743056995
40
1.0000000000
40
1.0000000000
40
1.0000000000
40
1.0000000000
10
-34.4820072772
20
-37.7863339519
30
0.0000000000
10
-34.5065353707
20
-37.7710861902
30
0.0000000000
10
-34.5550077785
20
-37.7284617169
30
0.0000000000
10
-34.6147547692
20
-37.6477441604
30
0.0000000000
10
-34.6628929574
20
-37.5538444135
30
0.0000000000
10
-34.6980117111
20
-37.4575486936
30
0.0000000000
10
-34.7213140903
20
-37.3641593521
30
0.0000000000
10
-34.7346434678
20
-37.2748323552
30
0.0000000000
10
-34.7376949090
20
-37.2165832834
30
0.0000000000
10
-34.7376959118
20
-37.1884019081
30
0.0000000000
11
-34.4820072772
21
-37.7863339519
31
0.0000000000
11
-34.5483589882
21
-37.7306155091
31
0.0000000000
11
-34.6115088548
21
-37.6474474719
31
0.0000000000
11
-34.6617434373
21
-37.5510117513
31
0.0000000000
11
-34.6969635163
21
-37.4550252441
31
0.0000000000
11
-34.7202221790
21
-37.3619723301
31
0.0000000000
11
-34.7334395431
21
-37.2728388229
31
0.0000000000
11
-34.7376959118
21
-37.1884019081
31
0.0000000000
0
SPLINE
5
34B
100
AcDbEntity
8
0
100
AcDbSpline
62
7
6
CONTINUOUS
70
0
71
3
72
13
73
9
74
7
42
0.0000001000
43
0.0000001000
44
0.0000000001
12
-0.0000213468
22
0.4951917622
32
0.0000000000
13
0.4526038885
23
-0.2009094372
33
0.0000000000
40
0.0000000000
40
0.0000000000
40
0.0000000000
40
0.0000000000
40
0.2311385300
40
0.4385785728
40
0.6067513499
40
0.7426440552
40
0.8671810948
40
1.0000000000
40
1.0000000000
40
1.0000000000
40
1.0000000000
10
-34.7376959118
20
65.2606012358
30
0.0000000000
10
-34.7376975565
20
65.2987538678
30
0.0000000000
10
-34.7326185958
20
65.3713277697
30
0.0000000000
10
-34.7073880546
20
65.4690152155
30
0.0000000000
10
-34.6660615288
20
65.5440480403
30
0.0000000000
10
-34.6104288578
20
65.5912963664
30
0.0000000000
10
-34.5443871200
20
65.6055846487
30
0.0000000000
10
-34.5020453949
20
65.5940229120
30
0.0000000000
10
-34.4820072772
20
65.5851280548
30
0.0000000000
11
-34.7376959118
21
65.2606012358
31
0.0000000000
11
-34.7286894307
21
65.3747042300
31
0.0000000000
11
-34.7012630815
21
65.4736978056
31
0.0000000000
11
-34.6588952712
21
65.5453926889
31
0.0000000000
11
-34.6062505092
21
65.5873077211
31
0.0000000000
11
-34.5459836478
21
65.6003866851
31
0.0000000000
11
-34.4820072772
21
65.5851280548
31
0.0000000000
0
SPLINE
5
34C
100
AcDbEntity
8
0
100
AcDbSpline
62
7
6
CONTINUOUS
70
0
71
3
72
12
73
8
74
6
42
0.0000001000
43
0.0000001000
44
0.0000000001
12
-0.3992251292
22
-0.2040712270
32
0.0000000000
13
-0.2473913512
23
-0.3739295238
33
0.0000000000
40
0.0000000000
40
0.0000000000
40
0.0000000000
40
0.0000000000
40
0.1809342376
40
0.3775719996
40
0.5843622755
40
0.7943330735
40
1.0000000000
40
1.0000000000
40
1.0000000000
40
1.0000000000
10
-33.2407269799
20
-35.5426259717
30
0.0000000000
10
-33.2648048114
20
-35.5549337957
30
0.0000000000
10
-33.3134390490
20
-35.5838592082
30
0.0000000000
10
-33.3830884801
20
-35.6368225728
30
0.0000000000
10
-33.4499272705
20
-35.6998045899
30
0.0000000000
10
-33.5111767260
20
-35.7699930287
30
0.0000000000
10
-33.5476848137
20
-35.8203645062
30
0.0000000000
10
-33.5646448866
20
-35.8459994848
30
0.0000000000
11
-33.2407269799
21
-35.5426259717
31
0.0000000000
11
-33.3105822956
21
-35.5838722487
31
0.0000000000
11
-33.3808984858
21
-35.6370566271
31
0.0000000000
11
-33.4484971273
21
-35.7005131592
31
0.0000000000
11
-33.5104792955
21
-35.7713720464
31
0.0000000000
11
-33.5646448866
21
-35.8459994848
31
0.0000000000
0
SPLINE
5
34D
100
AcDbEntity
8
0
100
AcDbSpline
62
7
6
CONTINUOUS
70
0
71
3
72
8
73
4
74
2
42
0.0000001000
43
0.0000001000
44
0.0000000001
12
1.2715345282
22
-0.5669029692
32
0.0000000000
13
1.2705346867
23
-0.5691416248
33
0.0000000000
40
0.0000000000
40
0.0000000000
40
0.0000000000
40
0.0000000000
40
1.0000000000
40
1.0000000000
40
1.0000000000
40
1.0000000000
10
-34.4820072772
20
65.5851280548
30
0.0000000000
10
-34.0581624345
20
65.3961603984
30
0.0000000000
10
-33.6344820737
20
65.2068234241
30
0.0000000000
10
-33.2109705115
20
65.0171095491
30
0.0000000000
11
-34.4820072772
21
65.5851280548
31
0.0000000000
11
-33.2109705115
21
65.0171095491
31
0.0000000000
0
SPLINE
5
34E
100
AcDbEntity
8
0
100
AcDbSpline
62
7
6
CONTINUOUS
70
0
71
3
72
27
73
23
74
21
42
0.0000001000
43
0.0000001000
44
0.0000000001
12
63.6714191331
22
-28.5218934356
32
0.0000000000
13
61.1145307074
23
-33.6535031153
33
0.0000000000
40
0.0000000000
40
0.0000000000
40
0.0000000000
40
0.0000000000
40
0.0104939948
40
0.0440490147
40
0.0810638693
40
0.1218939952
40
0.1669029151
40
0.2164356331
40
0.2708305937
40
0.3311262549
40
0.3978420126
40
0.4690269316
40
0.5422995199
40
0.6142152308
40
0.6809757226
40
0.7409205520
40
0.7947834790
40
0.8436213171
40
0.8881895656
40
0.9288661748
40
0.9660088754
40
1.0000000000
40
1.0000000000
40
1.0000000000
40
1.0000000000
10
-33.2109705115
20
65.0171095491
30
0.0000000000
10
-32.9882479980
20
64.9173400154
30
0.0000000000
10
-32.0535561956
20
64.4981153719
30
0.0000000000
10
-30.3349670387
20
63.7231961322
30
0.0000000000
10
-27.9766961283
20
62.6506452248
30
0.0000000000
10
-25.3802191212
20
61.4584787097
30
0.0000000000
10
-22.5244021758
20
60.1335239363
30
0.0000000000
10
-19.3887614871
20
58.6622073311
30
0.0000000000
10
-15.9389571687
20
57.0236109414
30
0.0000000000
10
-12.1375081590
20
55.1940734042
30
0.0000000000
10
-7.9954171437
20
53.1720906399
30
0.0000000000
10
-3.5949755279
20
50.9915793053
30
0.0000000000
10
0.9001665924
20
48.7300233447
30
0.0000000000
10
5.2901038749
20
46.4885016331
30
0.0000000000
10
9.3922561933
20
44.3651119747
30
0.0000000000
10
13.1119407022
20
42.4162544281
30
0.0000000000
10
16.4547391275
20
40.6462571299
30
0.0000000000
10
19.4753232311
20
39.0319739714
30
0.0000000000
10
22.2204125230
20
37.5528527481
30
0.0000000000
10
24.7219586711
20
36.1951523315
30
0.0000000000
10
27.0039791722
20
34.9486672798
30
0.0000000000
10
28.4539315231
20
34.1522401892
30
0.0000000000
10
29.1463820664
20
33.7709333830
30
0.0000000000
11
-33.2109705115
21
65.0171095491
31
0.0000000000
11
-32.5429436504
21
64.7174871324
31
0.0000000000
11
-30.4088122039
21
63.7551761036
31
0.0000000000
11
-28.0580742920
21
62.6860405432
31
0.0000000000
11
-25.4692856038
21
61.4974060480
31
0.0000000000
11
-22.6207490424
21
60.1758447150
31
0.0000000000
11
-19.4922323203
21
58.7079023677
31
0.0000000000
11
-16.0642367242
21
57.0797153656
31
0.0000000000
11
-12.2736614109
21
55.2554838977
31
0.0000000000
11
-8.0907823843
21
53.2136894352
31
0.0000000000
11
-3.6406924694
21
51.0087017678
31
0.0000000000
11
0.9260373617
21
48.7112682032
31
0.0000000000
11
5.3946762494
21
46.4296965063
31
0.0000000000
11
9.5311469936
21
44.2886511437
31
0.0000000000
11
13.2357359650
21
42.3477830887
31
0.0000000000
11
16.5568316636
21
40.5893420348
31
0.0000000000
11
19.5619364793
21
38.9833868124
31
0.0000000000
11
22.2993044656
21
37.5084768329
31
0.0000000000
11
24.7935561576
21
36.1547850335
31
0.0000000000
11
27.0677922347
21
34.9126023499
31
0.0000000000
11
29.1463820664
21
33.7709333830
31
0.0000000000
0
SPLINE
5
34F
100
AcDbEntity
8
0
100
AcDbSpline
62
7
6
CONTINUOUS
70
0
71
3
72
9
73
5
74
3
42
0.0000001000
43
0.0000001000
44
0.0000000001
12
0.1702111937
22
-0.0935856006
32
0.0000000000
13
0.1094433362
23
-0.1607388776
33
0.0000000000
40
0.0000000000
40
0.0000000000
40
0.0000000000
40
0.0000000000
40
0.4571815545
40
1.0000000000
40
1.0000000000
40
1.0000000000
40
1.0000000000
10
29.1463820664
20
33.7709333830
30
0.0000000000
10
29.1723212058
20
33.7566715129
30
0.0000000000
10
29.2239334144
20
33.7161110970
30
0.0000000000
10
29.2650351401
20
33.6656080044
30
0.0000000000
10
29.2848377607
20
33.6365239952
30
0.0000000000
11
29.1463820664
21
33.7709333830
31
0.0000000000
11
29.2173166570
21
33.7175063966
31
0.0000000000
11
29.2848377607
21
33.6365239952
31
0.0000000000
0
SPLINE
5
350
100
AcDbEntity
8
0
100
AcDbSpline
62
7
6
CONTINUOUS
70
0
71
3
72
9
73
5
74
3
42
0.0000001000
43
0.0000001000
44
0.0000000001
12
0.1000556630
22
-0.1469512492
32
0.0000000000
13
0.0620330483
23
-0.1664975810
33
0.0000000000
40
0.0000000000
40
0.0000000000
40
0.0000000000
40
0.0000000000
40
0.6130700440
40
1.0000000000
40
1.0000000000
40
1.0000000000
40
1.0000000000
10
29.2848377607
20
33.6365239952
30
0.0000000000
10
29.3052848039
20
33.6064935256
30
0.0000000000
10
29.3342749508
20
33.5546056073
30
0.0000000000
10
29.3572133577
20
33.4999467982
30
0.0000000000
10
29.3652141726
20
33.4784724976
30
0.0000000000
11
29.2848377607
21
33.6365239952
31
0.0000000000
11
29.3385562092
21
33.5418302161
31
0.0000000000
11
29.3652141726
21
33.4784724976
31
0.0000000000
0
SPLINE
5
351
100
AcDbEntity
8
0
100
AcDbSpline
62
7
6
CONTINUOUS
70
0
71
3
72
8
73
4
74
2
42
0.0000001000
43
0.0000001000
44
0.0000000001
12
0.0116196518
22
-0.0311873100
32
0.0000000000
13
0.0104002988
23
-0.0316140214
33
0.0000000000
40
0.0000000000
40
0.0000000000
40
0.0000000000
40
0.0000000000
40
1.0000000000
40
1.0000000000
40
1.0000000000
40
1.0000000000
10
29.3652141726
20
33.4784724976
30
0.0000000000
10
29.3690873898
20
33.4680767276
30
0.0000000000
10
29.3727556064
20
33.4576047522
30
0.0000000000
10
29.3762223727
20
33.4470667451
30
0.0000000000
11
29.3652141726
21
33.4784724976
31
0.0000000000
11
29.3762223727
21
33.4470667451
31
0.0000000000
0
SPLINE
5
352
100
AcDbEntity
8
0
100
AcDbSpline
62
7
6
CONTINUOUS
70
0
71
3
72
10
73
6
74
4
42
0.0000001000
43
0.0000001000
44
0.0000000001
12
0.0757078571
22
-0.2301308703
32
0.0000000000
13
0.0087131339
23
-0.2420754875
33
0.0000000000
40
0.0000000000
40
0.0000000000
40
0.0000000000
40
0.0000000000
40
0.3945684597
40
0.7654061775
40
1.0000000000
40
1.0000000000
40
1.0000000000
40
1.0000000000
10
29.3762223727
20
33.4470667451
30
0.0000000000
10
29.3861796836
20
33.4167992841
30
0.0000000000
10
29.4022716036
20
33.3570280405
30
0.0000000000
10
29.4150726868
20
33.2772036246
30
0.0000000000
10
29.4186062004
20
33.2283968113
30
0.0000000000
10
29.4192875495
20
33.2094670067
30
0.0000000000
11
29.3762223727
21
33.4470667451
31
0.0000000000
11
29.4010979656
21
33.3548222837
31
0.0000000000
11
29.4152347547
21
33.2661484771
31
0.0000000000
11
29.4192875495
21
33.2094670067
31
0.0000000000
0
SPLINE
5
353
100
AcDbEntity
8
0
100
AcDbSpline
62
7
6
CONTINUOUS
70
0
71
3
72
8
73
4
74
2
42
0.0000001000
43
0.0000001000
44
0.0000000001
12
0.0009934469
22
-0.0276007641
32
0.0000000000
13
-0.0000002465
23
-0.0276078021
33
0.0000000000
40
0.0000000000
40
0.0000000000
40
0.0000000000
40
0.0000000000
40
1.0000000000
40
1.0000000000
40
1.0000000000
40
1.0000000000
10
29.4192875495
20
33.2094670067
30
0.0000000000
10
29.4196186985
20
33.2002667520
30
0.0000000000
10
29.4197873732
20
33.1910622352
30
0.0000000000
10
29.4197872911
20
33.1818596345
30
0.0000000000
11
29.4192875495
21
33.2094670067
31
0.0000000000
11
29.4197872911
21
33.1818596345
31
0.0000000000
0
SPLINE
5
354
100
AcDbEntity
8
0
100
AcDbSpline
62
7
6
CONTINUOUS
70
0
71
3
72
8
73
4
74
2
42
0.0000001000
43
0.0000001000
44
0.0000000001
12
-0.0000000859
22
-0.1148211982
32
0.0000000000
13
-0.0202319048
23
-0.1132855000
33
0.0000000000
40
0.0000000000
40
0.0000000000
40
0.0000000000
40
0.0000000000
40
1.0000000000
40
1.0000000000
40
1.0000000000
40
1.0000000000
10
29.4197872911
20
-69.2671435096
30
0.0000000000
10
29.4197872624
20
-69.3054172423
30
0.0000000000
10
29.4168981256
20
-69.3437980662
30
0.0000000000
10
29.4101541573
20
-69.3815598996
30
0.0000000000
11
29.4197872911
21
-69.2671435096
31
0.0000000000
11
29.4101541573
21
-69.3815598996
31
0.0000000000
0
SPLINE
5
355
100
AcDbEntity
8
0
100
AcDbSpline
62
7
6
CONTINUOUS
70
0
71
3
72
8
73
4
74
2
42
0.0000001000
43
0.0000001000
44
0.0000000001
12
-0.0063678335
22
-0.0356557236
32
0.0000000000
13
-0.0088422797
23
-0.0351256532
33
0.0000000000
40
0.0000000000
40
0.0000000000
40
0.0000000000
40
0.0000000000
40
1.0000000000
40
1.0000000000
40
1.0000000000
40
1.0000000000
10
29.4101541573
20
-69.3815598996
30
0.0000000000
10
29.4080315462
20
-69.3934451408
30
0.0000000000
10
29.4055270652
20
-69.4052690631
30
0.0000000000
10
29.4025796387
20
-69.4169776142
30
0.0000000000
11
29.4101541573
21
-69.3815598996
31
0.0000000000
11
29.4025796387
21
-69.4169776142
31
0.0000000000
0
SPLINE
5
356
100
AcDbEntity
8
0
100
AcDbSpline
62
7
6
CONTINUOUS
70
0
71
3
72
12
73
8
74
6
42
0.0000001000
43
0.0000001000
44
0.0000000001
12
-0.0883764726
22
-0.3510725117
32
0.0000000000
13
-0.3374222360
23
0.1288901983
33
0.0000000000
40
0.0000000000
40
0.0000000000
40
0.0000000000
40
0.0000000000
40
0.1883260176
40
0.4265862738
40
0.6239574807
40
0.8072301098
40
1.0000000000
40
1.0000000000
40
1.0000000000
40
1.0000000000
10
29.4025796387
20
-69.4169776142
30
0.0000000000
10
29.3970317756
20
-69.4390163102
30
0.0000000000
10
29.3809102678
20
-69.4880113243
30
0.0000000000
10
29.3424953723
20
-69.5539022785
30
0.0000000000
10
29.2831731220
20
-69.6024128512
30
0.0000000000
10
29.2136059642
20
-69.6187572767
30
0.0000000000
10
29.1680636822
20
-69.6088106735
30
0.0000000000
10
29.1463820664
20
-69.6005286237
30
0.0000000000
11
29.4025796387
21
-69.4169776142
31
0.0000000000
11
29.3808207386
21
-69.4815069714
31
0.0000000000
11
29.3355103705
21
-69.5546731066
31
0.0000000000
11
29.2792150872
21
-69.5984133957
31
0.0000000000
11
29.2147770878
21
-69.6135779288
31
0.0000000000
11
29.1463820664
21
-69.6005286237
31
0.0000000000
0
SPLINE
5
357
100
AcDbEntity
8
0
100
AcDbSpline
62
7
6
CONTINUOUS
70
0
71
3
72
11
73
7
74
5
42
0.0000001000
43
0.0000001000
44
0.0000000001
12
-7.7647647510
22
2.9878592555
32
0.0000000000
13
-7.6957978943
23
3.1613185482
33
0.0000000000
40
0.0000000000
40
0.0000000000
40
0.0000000000
40
0.0000000000
40
0.2677343199
40
0.5618215519
40
0.8851811078
40
1.0000000000
40
1.0000000000
40
1.0000000000
40
1.0000000000
10
29.1463820664
20
-69.6005286237
30
0.0000000000
10
28.4534173964
20
-69.3338778017
30
0.0000000000
10
27.0009160185
20
-68.7700675386
30
0.0000000000
10
24.7180260951
20
-67.8674402285
30
0.0000000000
10
22.8347471094
20
-67.1076103629
30
0.0000000000
10
21.7101000097
20
-66.6473375801
30
0.0000000000
10
21.4155590136
20
-66.5263445489
30
0.0000000000
11
29.1463820664
21
-69.6005286237
31
0.0000000000
11
27.0698554840
21
-68.7944507084
31
0.0000000000
11
24.7945221517
21
-67.8947775470
31
0.0000000000
11
22.2996546957
21
-66.8881698898
31
0.0000000000
11
21.4155590136
21
-66.5263445489
31
0.0000000000
0
SPLINE
5
358
100
AcDbEntity
8
0
100
AcDbSpline
62
7
6
CONTINUOUS
70
0
71
3
72
8
73
4
74
2
42
0.0000001000
43
0.0000001000
44
0.0000000001
12
-0.0953479606
22
0.0391675146
32
0.0000000000
13
-0.0953369203
23
0.0391943844
33
0.0000000000
40
0.0000000000
40
0.0000000000
40
0.0000000000
40
0.0000000000
40
1.0000000000
40
1.0000000000
40
1.0000000000
40
1.0000000000
10
21.4155590136
20
-66.5263445489
30
0.0000000000
10
21.3837763600
20
-66.5132887107
30
0.0000000000
10
21.3519955458
20
-66.5002283942
30
0.0000000000
10
21.3202165724
20
-66.4871635994
30
0.0000000000
11
21.4155590136
21
-66.5263445489
31
0.0000000000
11
21.3202165724
21
-66.4871635994
31
0.0000000000
0
SPLINE
5
359
100
AcDbEntity
8
0
100
AcDbSpline
62
7
6
CONTINUOUS
70
0
71
3
72
24
73
20
74
18
42
0.0000001000
43
0.0000001000
44
0.0000000001
12
-58.1054475509
22
23.8879884353
32
0.0000000000
13
-53.3189247860
23
33.2257477298
33
0.0000000000
40
0.0000000000
40
0.0000000000
40
0.0000000000
40
0.0000000000
40
0.0302287342
40
0.0819309297
40
0.1385924941
40
0.2005370498
40
0.2688659055
40
0.3440009657
40
0.4235733325
40
0.5048195792
40
0.5838730837
40
0.6566331119
40
0.7216017966
40
0.7797998661
40
0.8324305088
40
0.8803364112
40
0.9239538919
40
0.9636988236
40
1.0000000000
40
1.0000000000
40
1.0000000000
40
1.0000000000
10
21.3202165724
20
-66.4871635994
30
0.0000000000
10
20.7347318623
20
-66.2464623817
30
0.0000000000
10
19.1495476014
20
-65.5899540125
30
0.0000000000
10
16.4759681518
20
-64.4605226377
30
0.0000000000
10
13.2036649512
20
-63.0419849729
30
0.0000000000
10
9.6279937336
20
-61.4483128568
30
0.0000000000
10
5.7188211753
20
-59.6532166709
30
0.0000000000
10
1.4984520869
20
-57.6519834466
30
0.0000000000
10
-2.9379975581
20
-55.4760382588
30
0.0000000000
10
-7.4174984868
20
-53.2025719789
30
0.0000000000
10
-11.7395110381
20
-50.9350358431
30
0.0000000000
10
-15.7325185377
20
-48.7749723612
30
0.0000000000
10
-19.3187963547
20
-46.7815787213
30
0.0000000000
10
-22.5182909857
20
-44.9604261280
30
0.0000000000
10
-25.3922250139
20
-43.2899415846
30
0.0000000000
10
-27.9897317698
20
-41.7517075776
30
0.0000000000
10
-30.3447130821
20
-40.3336713088
30
0.0000000000
10
-32.4829303237
20
-39.0268733704
30
0.0000000000
10
-33.8368273787
20
-38.1883785286
30
0.0000000000
10
-34.4820072772
20
-37.7863339519
30
0.0000000000
11
21.3202165724
21
-66.4871635994
31
0.0000000000
11
19.5656464048
21
-65.7604990772
31
0.0000000000
11
16.5735370982
21
-64.4964993385
31
0.0000000000
11
13.3075031619
21
-63.0806816027
31
0.0000000000
11
9.7529593791
21
-61.4964411080
31
0.0000000000
11
5.8518945524
21
-59.7050973428
31
0.0000000000
11
1.5868001227
21
-57.6827033214
31
0.0000000000
11
-2.9014983482
21
-55.4813989594
31
0.0000000000
11
-7.4530984023
21
-53.1714292823
31
0.0000000000
11
-11.8510670495
21
-50.8641387169
31
0.0000000000
11
-15.8716000389
21
-48.6892670749
31
0.0000000000
11
-19.4391533318
21
-46.7063462437
31
0.0000000000
11
-22.6167258727
21
-44.8977276169
31
0.0000000000
11
-25.4753897752
21
-43.2361691508
31
0.0000000000
11
-28.0650298602
21
-41.7026416165
31
0.0000000000
11
-30.4125524476
21
-40.2891443711
31
0.0000000000
11
-32.5431164194
21
-38.9870731951
31
0.0000000000
11
-34.4820072772
21
-37.7863339519
31
0.0000000000
0
SPLINE
5
35A
100
AcDbEntity
8
0
100
AcDbSpline
62
7
6
CONTINUOUS
70
0
71
3
72
12
73
8
74
6
42
0.0000001000
43
0.0000001000
44
0.0000000001
12
66.5229023712
22
-29.5026061147
32
0.0000000000
13
63.6887512679
23
-35.2057277922
33
0.0000000000
40
0.0000000000
40
0.0000000000
40
0.0000000000
40
0.0000000000
40
0.1909901018
40
0.3865599438
40
0.5866391333
40
0.7911485661
40
1.0000000000
40
1.0000000000
40
1.0000000000
40
1.0000000000
10
-35.1780465557
20
66.8986384664
30
0.0000000000
10
-30.9429745912
20
65.0204032184
30
0.0000000000
10
-22.4088943850
20
61.1335343753
30
0.0000000000
10
-9.5703137023
20
54.9942420346
30
0.0000000000
10
3.4503059294
20
48.4807684502
30
0.0000000000
10
16.6437597419
20
41.5977100265
30
0.0000000000
10
25.4571771467
20
36.8150343546
30
0.0000000000
10
29.8910061559
20
34.3641121107
30
0.0000000000
11
-35.1780465557
21
66.8986384664
31
0.0000000000
11
-22.5281208909
21
61.1408784507
31
0.0000000000
11
-9.6873359907
21
55.0039513039
31
0.0000000000
11
3.3355910132
21
48.4924873145
31
0.0000000000
11
16.5315593853
21
41.6110368195
31
0.0000000000
11
29.8910061559
21
34.3641121107
31
0.0000000000
0
SPLINE
5
35B
100
AcDbEntity
8
0
100
AcDbSpline
62
7
6
CONTINUOUS
70
0
71
3
72
9
73
5
74
3
42
0.0000001000
43
0.0000001000
44
0.0000000001
12
-0.0000001896
22
0.1417832068
32
0.0000000000
13
0.0264720351
23
0.1393861968
33
0.0000000000
40
0.0000000000
40
0.0000000000
40
0.0000000000
40
0.0000000000
40
0.5889470110
40
1.0000000000
40
1.0000000000
40
1.0000000000
40
1.0000000000
10
-35.6848099529
20
66.4795443038
30
0.0000000000
10
-35.6848099901
20
66.5073785691
30
0.0000000000
10
-35.6825704156
20
66.5546806228
30
0.0000000000
10
-35.6758499315
20
66.6015399177
30
0.0000000000
10
-35.6722227951
20
66.6206382886
30
0.0000000000
11
-35.6848099529
21
66.4795443038
31
0.0000000000
11
-35.6806177667
21
66.5629418007
31
0.0000000000
11
-35.6722227951
21
66.6206382886
31
0.0000000000
0
SPLINE
5
35C
100
AcDbEntity
8
0
100
AcDbSpline
62
7
6
CONTINUOUS
70
0
71
3
72
9
73
5
74
3
42
0.0000001000
43
0.0000001000
44
0.0000000001
12
0.0220882333
22
0.1163036702
32
0.0000000000
13
0.0465412330
23
0.1089690048
33
0.0000000000
40
0.0000000000
40
0.0000000000
40
0.0000000000
40
0.0000000000
40
0.2488390387
40
1.0000000000
40
1.0000000000
40
1.0000000000
40
1.0000000000
10
-35.6722227951
20
66.6206382886
30
0.0000000000
10
-35.6703906569
20
66.6302852531
30
0.0000000000
10
-35.6621413359
20
66.6688857224
30
0.0000000000
10
-35.6501053214
20
66.7066292432
30
0.0000000000
10
-35.6384520023
20
66.7339136640
30
0.0000000000
11
-35.6722227951
21
66.6206382886
31
0.0000000000
11
-35.6660506753
21
66.6494427975
31
0.0000000000
11
-35.6384520023
21
66.7339136640
31
0.0000000000
0
SPLINE
5
35D
100
AcDbEntity
8
0
100
AcDbSpline
62
7
6
CONTINUOUS
70
0
71
3
72
14
73
10
74
8
42
0.0000001000
43
0.0000001000
44
0.0000000001
12
0.2176152404
22
0.5095119887
32
0.0000000000
13
0.5056630780
23
-0.2242533624
33
0.0000000000
40
0.0000000000
40
0.0000000000
40
0.0000000000
40
0.0000000000
40
0.1559593125
40
0.3049204015
40
0.4483643207
40
0.5894465459
40
0.7301066793
40
0.8688357965
40
1.0000000000
40
1.0000000000
40
1.0000000000
40
1.0000000000
10
-35.6384520023
20
66.7339136640
30
0.0000000000
10
-35.6271389612
20
66.7604013772
30
0.0000000000
10
-35.6002069914
20
66.8102221025
30
0.0000000000
10
-35.5445709243
20
66.8725871129
30
0.0000000000
10
-35.4763055883
20
66.9162212770
30
0.0000000000
10
-35.4000359311
20
66.9383463047
30
0.0000000000
10
-35.3217914143
20
66.9400838816
30
0.0000000000
10
-35.2470270300
20
66.9257168710
30
0.0000000000
10
-35.2001548539
20
66.9084431376
30
0.0000000000
10
-35.1780465557
20
66.8986384664
30
0.0000000000
11
-35.6384520023
21
66.7339136640
31
0.0000000000
11
-35.5967361522
21
66.8094275578
31
0.0000000000
11
-35.5413522813
21
66.8704377702
31
0.0000000000
11
-35.4743499262
21
66.9129427620
31
0.0000000000
11
-35.3994863052
21
66.9349840306
31
0.0000000000
11
-35.3217140123
21
66.9373210589
31
0.0000000000
11
-35.2462510481
21
66.9233836293
31
0.0000000000
11
-35.1780465557
21
66.8986384664
31
0.0000000000
0
SPLINE
5
35E
100
AcDbEntity
8
0
100
AcDbSpline
62
7
6
CONTINUOUS
70
0
71
3
72
16
73
12
74
10
42
0.0000001000
43
0.0000001000
44
0.0000000001
12
-0.8549063498
22
0.5361262279
32
0.0000000000
13
-0.1232501365
23
1.0019100738
33
0.0000000000
40
0.0000000000
40
0.0000000000
40
0.0000000000
40
0.0000000000
40
0.0841196415
40
0.1852650686
40
0.3010018866
40
0.4273797112
40
0.5591104582
40
0.6904477255
40
0.8160616962
40
0.9313153134
40
1.0000000000
40
1.0000000000
40
1.0000000000
40
1.0000000000
10
-35.1780465557
20
-38.3552202739
30
0.0000000000
10
-35.2020180276
20
-38.3401873585
30
0.0000000000
10
-35.2528522588
20
-38.3038859917
30
0.0000000000
10
-35.3284171596
20
-38.2362043313
30
0.0000000000
10
-35.4057254043
20
-38.1501402750
30
0.0000000000
10
-35.4796329557
20
-38.0481253718
30
0.0000000000
10
-35.5454979940
20
-37.9346375514
30
0.0000000000
10
-35.5998114126
20
-37.8154841989
30
0.0000000000
10
-35.6405962669
20
-37.6969111443
30
0.0000000000
10
-35.6649513590
20
-37.5955097276
30
0.0000000000
10
-35.6745248658
20
-37.5343301790
30
0.0000000000
10
-35.6773466648
20
-37.5113915526
30
0.0000000000
11
-35.1780465557
21
-38.3552202739
31
0.0000000000
11
-35.2472890811
21
-38.3061178018
31
0.0000000000
11
-35.3235358071
21
-38.2382649348
31
0.0000000000
11
-35.4018061933
21
-38.1515825520
31
0.0000000000
11
-35.4768068109
21
-38.0484395590
31
0.0000000000
11
-35.5436260204
21
-37.9335236042
31
0.0000000000
11
-35.5985864194
21
-37.8129233047
31
0.0000000000
11
-35.6397074412
21
-37.6930207421
31
0.0000000000
11
-35.6666921254
21
-37.5798913526
31
0.0000000000
11
-35.6773466648
21
-37.5113915526
31
0.0000000000
0
SPLINE
5
35F
100
AcDbEntity
8
0
100
AcDbSpline
62
7
6
CONTINUOUS
70
0
71
3
72
9
73
5
74
3
42
0.0000001000
43
0.0000001000
44
0.0000000001
12
-0.0144584623
22
0.1175339798
32
0.0000000000
13
-0.0000005283
23
0.1183782076
33
0.0000000000
40
0.0000000000
40
0.0000000000
40
0.0000000000
40
0.0000000000
40
0.2714658988
40
1.0000000000
40
1.0000000000
40
1.0000000000
40
1.0000000000
10
-35.6773466648
20
-37.5113915526
30
0.0000000000
10
-35.6786549913
20
-37.5007560634
30
0.0000000000
10
-35.6828781389
20
-37.4615040470
30
0.0000000000
10
-35.6848098246
20
-37.4220275673
30
0.0000000000
10
-35.6848099529
20
-37.3932800470
30
0.0000000000
11
-35.6773466648
21
-37.5113915526
31
0.0000000000
11
-35.6807790060
21
-37.4794283540
31
0.0000000000
11
-35.6848099529
21
-37.3932800470
31
0.0000000000
0
SPLINE
5
360
100
AcDbEntity
8
0
100
AcDbSpline
62
7
6
CONTINUOUS
70
0
71
3
72
12
73
8
74
6
42
0.0000001000
43
0.0000001000
44
0.0000000001
12
-67.9993585024
22
25.9259634057
32
0.0000000000
13
-61.6623098106
23
38.6502457835
33
0.0000000000
40
0.0000000000
40
0.0000000000
40
0.0000000000
40
0.0000000000
40
0.1980190427
40
0.3969799542
40
0.5970521827
40
0.7984038576
40
1.0000000000
40
1.0000000000
40
1.0000000000
40
1.0000000000
10
29.8910061559
20
-70.8897466296
30
0.0000000000
10
25.4026168643
20
-69.1784684781
30
0.0000000000
10
16.4726074151
20
-65.5660316393
30
0.0000000000
10
3.2702251711
20
-59.6021703842
30
0.0000000000
10
-9.7590167709
20
-53.0856396291
30
0.0000000000
10
-22.5799205424
20
-46.0353333586
30
0.0000000000
10
-30.9604535974
20
-40.9988402469
30
0.0000000000
10
-35.1040815264
20
-38.4015934297
30
0.0000000000
11
29.8910061559
21
-70.8897466296
31
0.0000000000
11
16.5315514285
21
-65.4867871179
31
0.0000000000
11
3.3355843382
21
-59.5274523688
31
0.0000000000
11
-9.6873425808
21
-53.0159896748
31
0.0000000000
11
-22.5281285487
21
-45.9569493535
31
0.0000000000
11
-35.1040815264
21
-38.4015934297
31
0.0000000000
0
SPLINE
5
361
100
AcDbEntity
8
0
100
AcDbSpline
62
7
6
CONTINUOUS
70
0
71
3
72
8
73
4
74
2
42
0.0000001000
43
0.0000001000
44
0.0000000001
12
-0.0739702541
22
0.0463649271
32
0.0000000000
13
-0.0739598039
23
0.0463813838
33
0.0000000000
40
0.0000000000
40
0.0000000000
40
0.0000000000
40
0.0000000000
40
1.0000000000
40
1.0000000000
40
1.0000000000
40
1.0000000000
10
-35.1040815264
20
-38.4015934297
30
0.0000000000
10
-35.1287382778
20
-38.3861384540
30
0.0000000000
10
-35.1533932877
20
-38.3706807351
30
0.0000000000
10
-35.1780465557
20
-38.3552202739
30
0.0000000000
11
-35.1040815264
21
-38.4015934297
31
0.0000000000
11
-35.1780465557
21
-38.3552202739
31
0.0000000000
0
SPLINE
5
362
100
AcDbEntity
8
0
100
AcDbSpline
62
7
6
CONTINUOUS
70
0
71
3
72
12
73
8
74
6
42
0.0000001000
43
0.0000001000
44
0.0000000001
12
0.0000005469
22
-0.3806177099
32
0.0000000000
13
-0.2500069219
23
-0.2883379503
33
0.0000000000
40
0.0000000000
40
0.0000000000
40
0.0000000000
40
0.0000000000
40
0.2198234620
40
0.4521119244
40
0.6897105958
40
0.9236548033
40
1.0000000000
40
1.0000000000
40
1.0000000000
40
1.0000000000
10
30.4338522201
20
-70.4526111335
30
0.0000000000
10
30.4338522602
20
-70.4805007010
30
0.0000000000
10
30.4309301115
20
-70.5379174784
30
0.0000000000
10
30.4158144835
20
-70.6243769386
30
0.0000000000
10
30.3870013184
20
-70.7093674808
30
0.0000000000
10
30.3522930613
20
-70.7701936814
30
0.0000000000
10
30.3276317844
20
-70.8010551754
30
0.0000000000
10
30.3212695085
20
-70.8083929146
30
0.0000000000
11
30.4338522201
21
-70.4526111335
31
0.0000000000
11
30.4293590847
21
-70.5361591050
31
0.0000000000
11
30.4137465678
21
-70.6231828145
31
0.0000000000
11
30.3841685989
21
-70.7086433290
31
0.0000000000
11
30.3394643830
21
-70.7856514057
31
0.0000000000
11
30.3212695085
21
-70.8083929146
31
0.0000000000
0
SPLINE
5
363
100
AcDbEntity
8
0
100
AcDbSpline
62
7
6
CONTINUOUS
70
0
71
3
72
10
73
6
74
4
42
0.0000001000
43
0.0000001000
44
0.0000000001
12
-0.1301852131
22
-0.1501451929
32
0.0000000000
13
-0.1922758241
23
-0.0503118935
33
0.0000000000
40
0.0000000000
40
0.0000000000
40
0.0000000000
40
0.0000000000
40
0.2900367788
40
0.7172292350
40
1.0000000000
40
1.0000000000
40
1.0000000000
40
1.0000000000
10
30.3212695085
20
-70.8083929146
30
0.0000000000
10
30.3086833419
20
-70.8229087906
30
0.0000000000
10
30.2747091887
20
-70.8563315573
30
0.0000000000
10
30.2180746346
20
-70.8918653605
30
0.0000000000
10
30.1735544555
20
-70.9075401901
30
0.0000000000
10
30.1554311282
20
-70.9122824344
30
0.0000000000
11
30.3212695085
21
-70.8083929146
31
0.0000000000
11
30.2801192925
21
-70.8486422279
31
0.0000000000
11
30.2083342904
21
-70.8935385432
31
0.0000000000
11
30.1554311282
21
-70.9122824344
31
0.0000000000
0
SPLINE
5
364
100
AcDbEntity
8
0
100
AcDbSpline
62
7
6
CONTINUOUS
70
0
71
3
72
11
73
7
74
5
42
0.0000001000
43
0.0000001000
44
0.0000000001
12
-0.2123044594
22
-0.0555526906
32
0.0000000000
13
-0.2108169425
23
0.0595395613
33
0.0000000000
40
0.0000000000
40
0.0000000000
40
0.0000000000
40
0.0000000000
40
0.1273522950
40
0.5086890262
40
0.8815194038
40
1.0000000000
40
1.0000000000
40
1.0000000000
40
1.0000000000
10
30.1554311282
20
-70.9122824344
30
0.0000000000
10
30.1464186415
20
-70.9146406886
30
0.0000000000
10
30.1100330271
20
-70.9225778418
30
0.0000000000
10
30.0452980757
20
-70.9261198553
30
0.0000000000
10
29.9819788030
20
-70.9169128159
30
0.0000000000
10
29.9472130513
20
-70.9079986895
30
0.0000000000
10
29.9388871457
20
-70.9056472620
30
0.0000000000
11
30.1554311282
21
-70.9122824344
31
0.0000000000
11
30.1281392634
21
-70.9182455148
31
0.0000000000
11
30.0448422581
21
-70.9233448993
31
0.0000000000
11
29.9640321022
21
-70.9120810655
31
0.0000000000
11
29.9388871457
21
-70.9056472620
31
0.0000000000
0
SPLINE
5
365
100
AcDbEntity
8
0
100
AcDbSpline
62
7
6
CONTINUOUS
70
0
71
3
72
8
73
4
74
2
42
0.0000001000
43
0.0000001000
44
0.0000000001
12
-0.0244909131
22
0.0069167981
32
0.0000000000
13
-0.0241383257
23
0.0080377719
33
0.0000000000
40
0.0000000000
40
0.0000000000
40
0.0000000000
40
0.0000000000
40
1.0000000000
40
1.0000000000
40
1.0000000000
40
1.0000000000
10
29.9388871457
20
-70.9056472620
30
0.0000000000
10
29.9307235080
20
-70.9033416626
30
0.0000000000
10
29.9226155574
20
-70.9008420827
30
0.0000000000
10
29.9145694488
20
-70.8981628254
30
0.0000000000
11
29.9388871457
21
-70.9056472620
31
0.0000000000
11
29.9145694488
21
-70.8981628254
31
0.0000000000
0
SPLINE
5
366
100
AcDbEntity
8
0
100
AcDbSpline
62
7
6
CONTINUOUS
70
0
71
3
72
8
73
4
74
2
42
0.0000001000
43
0.0000001000
44
0.0000000001
12
-0.0237487403
22
0.0079080446
32
0.0000000000
13
-0.0233719840
23
0.0089107252
33
0.0000000000
40
0.0000000000
40
0.0000000000
40
0.0000000000
40
0.0000000000
40
1.0000000000
40
1.0000000000
40
1.0000000000
40
1.0000000000
10
29.9145694488
20
-70.8981628254
30
0.0000000000
10
29.9066532021
20
-70.8955268105
30
0.0000000000
10
29.8987968172
20
-70.8927168714
30
0.0000000000
10
29.8910061559
20
-70.8897466296
30
0.0000000000
11
29.9145694488
21
-70.8981628254
31
0.0000000000
11
29.8910061559
21
-70.8897466296
31
0.0000000000
0
SPLINE
5
367
100
AcDbEntity
8
0
100
AcDbSpline
62
7
6
CONTINUOUS
70
0
71
3
72
17
73
13
74
11
42
0.0000001000
43
0.0000001000
44
0.0000000001
12
0.9929171690
22
-0.5488631810
32
0.0000000000
13
0.0000054362
23
-1.1345198526
33
0.0000000000
40
0.0000000000
40
0.0000000000
40
0.0000000000
40
0.0000000000
40
0.0772097122
40
0.1692817326
40
0.2738238930
40
0.3872154613
40
0.5047740208
40
0.6215174800
40
0.7328971454
40
0.8349933179
40
0.9240982298
40
1.0000000000
40
1.0000000000
40
1.0000000000
40
1.0000000000
10
29.8910061559
20
34.3641121107
30
0.0000000000
10
29.9165604388
20
34.3499862546
30
0.0000000000
10
29.9707739051
20
34.3156529326
30
0.0000000000
10
30.0516983862
20
34.2507067105
30
0.0000000000
10
30.1345460727
20
34.1674098154
30
0.0000000000
10
30.2137890398
20
34.0680057116
30
0.0000000000
10
30.2844323499
20
33.9568114024
30
0.0000000000
10
30.3426968906
20
33.8395187971
30
0.0000000000
10
30.3864504724
20
33.7223150842
30
0.0000000000
10
30.4152613361
20
33.6113592804
30
0.0000000000
10
30.4305801775
20
33.5113501733
30
0.0000000000
10
30.4338520826
20
33.4489172390
30
0.0000000000
10
30.4338522201
20
33.4202132173
30
0.0000000000
11
29.8910061559
21
34.3641121107
31
0.0000000000
11
29.9651435986
21
34.3174570973
31
0.0000000000
11
30.0467933066
21
34.2523057212
31
0.0000000000
11
30.1306241659
21
34.1684035750
31
0.0000000000
11
30.2109663633
21
34.0679313719
31
0.0000000000
11
30.2825555154
21
33.9554003884
31
0.0000000000
11
30.3414471103
21
33.8367656868
31
0.0000000000
11
30.3855140356
21
33.7183360760
31
0.0000000000
11
30.4144340419
21
33.6061743476
31
0.0000000000
11
30.4295318983
21
33.5062168369
31
0.0000000000
11
30.4338522201
21
33.4202132173
31
0.0000000000
0
SPLINE
5
368
100
AcDbEntity
8
0
100
AcDbSpline
62
7
6
CONTINUOUS
70
0
71
3
72
8
73
4
74
2
42
0.0000001000
43
0.0000001000
44
0.0000000001
12
0.0466218071
22
0.0234204615
32
0.0000000000
13
0.0466218043
23
0.0234204671
33
0.0000000000
40
0.0000000000
40
0.0000000000
40
0.0000000000
40
0.0000000000
40
1.0000000000
40
1.0000000000
40
1.0000000000
40
1.0000000000
10
30.0353540670
20
34.6035281317
30
0.0000000000
10
30.0508946693
20
34.6113349522
30
0.0000000000
10
30.0664352712
20
34.6191417737
30
0.0000000000
10
30.0819758727
20
34.6269485960
30
0.0000000000
11
30.0353540670
21
34.6035281317
31
0.0000000000
11
30.0819758727
21
34.6269485960
31
0.0000000000
0
SPLINE
5
369
100
AcDbEntity
8
0
100
AcDbSpline
62
7
6
CONTINUOUS
70
0
71
3
72
8
73
4
74
2
42
0.0000001000
43
0.0000001000
44
0.0000000001
12
0.0495427488
22
0.0248878037
32
0.0000000000
13
0.0495427460
23
0.0248878094
33
0.0000000000
40
0.0000000000
40
0.0000000000
40
0.0000000000
40
0.0000000000
40
1.0000000000
40
1.0000000000
40
1.0000000000
40
1.0000000000
10
30.0819758727
20
34.6269485960
30
0.0000000000
10
30.0984901223
20
34.6352445306
30
0.0000000000
10
30.1150043714
20
34.6435404662
30
0.0000000000
10
30.1315186200
20
34.6518364027
30
0.0000000000
11
30.0819758727
21
34.6269485960
31
0.0000000000
11
30.1315186200
21
34.6518364027
31
0.0000000000
0
SPLINE
5
36A
100
AcDbEntity
8
0
100
AcDbSpline
62
7
6
CONTINUOUS
70
0
71
3
72
8
73
4
74
2
42
0.0000001000
43
0.0000001000
44
0.0000000001
12
0.0727988706
22
0.0391670295
32
0.0000000000
13
0.0727988801
23
0.0391670118
33
0.0000000000
40
0.0000000000
40
0.0000000000
40
0.0000000000
40
0.0000000000
40
1.0000000000
40
1.0000000000
40
1.0000000000
40
1.0000000000
10
-35.0446523611
20
67.1435313458
30
0.0000000000
10
-35.0203860709
20
67.1565870223
30
0.0000000000
10
-34.9961197790
20
67.1696426956
30
0.0000000000
10
-34.9718534856
20
67.1826983662
30
0.0000000000
11
-35.0446523611
21
67.1435313458
31
0.0000000000
11
-34.9718534856
21
67.1826983662
31
0.0000000000
0
SPLINE
5
36B
100
AcDbEntity
8
0
100
AcDbSpline
62
7
6
CONTINUOUS
70
0
71
3
72
8
73
4
74
2
42
0.0000001000
43
0.0000001000
44
0.0000000001
12
0.0421083911
22
0.0226550167
32
0.0000000000
13
0.0421083940
23
0.0226550113
33
0.0000000000
40
0.0000000000
40
0.0000000000
40
0.0000000000
40
0.0000000000
40
1.0000000000
40
1.0000000000
40
1.0000000000
40
1.0000000000
10
-34.9718534856
20
67.1826983662
30
0.0000000000
10
-34.9578173553
20
67.1902500385
30
0.0000000000
10
-34.9437812244
20
67.1978017098
30
0.0000000000
10
-34.9297450931
20
67.2053533802
30
0.0000000000
11
-34.9718534856
21
67.1826983662
31
0.0000000000
11
-34.9297450931
21
67.2053533802
31
0.0000000000
0
SPLINE
5
36C
100
AcDbEntity
8
0
100
AcDbSpline
62
7
6
CONTINUOUS
70
0
71
3
72
8
73
4
74
2
42
0.0000001000
43
0.0000001000
44
0.0000000001
12
2.8192288453
22
-1.2502459272
32
0.0000000000
13
2.8137522854
23
-1.2625951506
33
0.0000000000
40
0.0000000000
40
0.0000000000
40
0.0000000000
40
0.0000000000
40
1.0000000000
40
1.0000000000
40
1.0000000000
40
1.0000000000
10
-35.0446523611
20
67.1435313458
30
0.0000000000
10
-34.1049094127
20
66.7267827034
30
0.0000000000
10
-33.1660817691
20
66.3079568957
30
0.0000000000
10
-32.2281643407
20
65.8870918455
30
0.0000000000
11
-35.0446523611
21
67.1435313458
31
0.0000000000
11
-32.2281643407
21
65.8870918455
31
0.0000000000
0
SPLINE
5
36D
100
AcDbEntity
8
0
100
AcDbSpline
62
7
6
CONTINUOUS
70
0
71
3
72
12
73
8
74
6
42
0.0000001000
43
0.0000001000
44
0.0000000001
12
63.5486851373
22
-28.5157517595
32
0.0000000000
13
60.9601254945
23
-33.6950265718
33
0.0000000000
40
0.0000000000
40
0.0000000000
40
0.0000000000
40
0.0000000000
40
0.1552994873
40
0.3596608344
40
0.5687341048
40
0.7824366971
40
1.0000000000
40
1.0000000000
40
1.0000000000
40
1.0000000000
10
-32.2281643407
20
65.8870918455
30
0.0000000000
10
-28.9384716009
20
64.4109313029
30
0.0000000000
10
-21.3457466448
20
60.9341653014
30
0.0000000000
10
-9.4324270516
20
55.2374388332
30
0.0000000000
10
3.5903672820
20
48.7228760585
30
0.0000000000
10
16.7720426679
20
41.8458342168
30
0.0000000000
10
25.5731734339
20
37.0699498000
30
0.0000000000
10
29.9940688492
20
34.6263493763
30
0.0000000000
11
-32.2281643407
21
65.8870918455
31
0.0000000000
11
-22.3924593394
21
61.3849852690
31
0.0000000000
11
-9.5494745082
21
55.2471308858
31
0.0000000000
11
3.4756262904
21
48.7345800344
31
0.0000000000
11
16.6737409692
21
41.8518837126
31
0.0000000000
11
29.9940688492
21
34.6263493763
31
0.0000000000
0
SPLINE
5
36E
100
AcDbEntity
8
0
100
AcDbSpline
62
7
6
CONTINUOUS
70
0
71
3
72
8
73
4
74
2
42
0.0000001000
43
0.0000001000
44
0.0000000001
12
0.0412857720
22
-0.0228202480
32
0.0000000000
13
0.0412846636
23
-0.0228222410
33
0.0000000000
40
0.0000000000
40
0.0000000000
40
0.0000000000
40
0.0000000000
40
1.0000000000
40
1.0000000000
40
1.0000000000
40
1.0000000000
10
29.9940688492
20
34.6263493763
30
0.0000000000
10
30.0078307732
20
34.6187426270
30
0.0000000000
10
30.0215925124
20
34.6111355454
30
0.0000000000
10
30.0353540670
20
34.6035281317
30
0.0000000000
11
29.9940688492
21
34.6263493763
31
0.0000000000
11
30.0353540670
21
34.6035281317
31
0.0000000000
0
SPLINE
5
36F
100
AcDbEntity
8
0
100
AcDbSpline
62
7
6
CONTINUOUS
70
0
71
3
72
8
73
4
74
2
42
0.0000001000
43
0.0000001000
44
0.0000000001
12
0.0932095476
22
0.0431850404
32
0.0000000000
13
0.0932095386
23
0.0431850599
33
0.0000000000
40
0.0000000000
40
0.0000000000
40
0.0000000000
40
0.0000000000
40
1.0000000000
40
1.0000000000
40
1.0000000000
40
1.0000000000
10
30.7092227386
20
-70.4514280127
30
0.0000000000
10
30.7402925878
20
-70.4370329992
30
0.0000000000
10
30.7713624354
20
-70.4226379823
30
0.0000000000
10
30.8024322816
20
-70.4082429623
30
0.0000000000
11
30.7092227386
21
-70.4514280127
31
0.0000000000
11
30.8024322816
21
-70.4082429623
31
0.0000000000
0
SPLINE
5
370
100
AcDbEntity
8
0
100
AcDbSpline
62
7
6
CONTINUOUS
70
0
71
3
72
8
73
4
74
2
42
0.0000001000
43
0.0000001000
44
0.0000000001
12
0.0584453023
22
0.0293616010
32
0.0000000000
13
0.0584453061
23
0.0293615934
33
0.0000000000
40
0.0000000000
40
0.0000000000
40
0.0000000000
40
0.0000000000
40
1.0000000000
40
1.0000000000
40
1.0000000000
40
1.0000000000
10
30.7092227386
20
33.4213963381
30
0.0000000000
10
30.7287045060
20
33.4311835384
30
0.0000000000
10
30.7481862741
20
33.4409707375
30
0.0000000000
10
30.7676680428
20
33.4507579353
30
0.0000000000
11
30.7092227386
21
33.4213963381
31
0.0000000000
11
30.7676680428
21
33.4507579353
31
0.0000000000
0
SPLINE
5
371
100
AcDbEntity
8
0
100
AcDbSpline
62
7
6
CONTINUOUS
70
0
71
3
72
8
73
4
74
2
42
0.0000001000
43
0.0000001000
44
0.0000000001
12
0.0305008408
22
0.0153229292
32
0.0000000000
13
0.0305008418
23
0.0153229272
33
0.0000000000
40
0.0000000000
40
0.0000000000
40
0.0000000000
40
0.0000000000
40
1.0000000000
40
1.0000000000
40
1.0000000000
40
1.0000000000
10
30.7676680428
20
33.4507579353
30
0.0000000000
10
30.7778349897
20
33.4558655783
30
0.0000000000
10
30.7880019368
20
33.4609732211
30
0.0000000000
10
30.7981688840
20
33.4660808635
30
0.0000000000
11
30.7676680428
21
33.4507579353
31
0.0000000000
11
30.7981688840
21
33.4660808635
31
0.0000000000
0
SPLINE
5
372
100
AcDbEntity
8
0
100
AcDbSpline
62
7
6
CONTINUOUS
70
0
71
3
72
10
73
6
74
4
42
0.0000001000
43
0.0000001000
44
0.0000000001
12
-0.8924052874
22
-1.3489028604
32
0.0000000000
13
-0.8938651197
23
-1.3479359300
33
0.0000000000
40
0.0000000000
40
0.0000000000
40
0.0000000000
40
0.0000000000
40
0.3340707529
40
0.6674022086
40
1.0000000000
40
1.0000000000
40
1.0000000000
40
1.0000000000
10
-33.5646448866
20
-35.8459994848
30
0.0000000000
10
-33.6640203887
20
-35.9962091495
30
0.0000000000
10
-33.8626014073
20
-36.2962630369
30
0.0000000000
10
-34.1603143129
20
-36.7457355012
30
0.0000000000
10
-34.3586767138
20
-37.0449816817
30
0.0000000000
10
-34.4577759020
20
-37.1944218527
30
0.0000000000
11
-33.5646448866
21
-35.8459994848
31
0.0000000000
11
-33.8628497509
21
-36.2965766291
31
0.0000000000
11
-34.1605594605
21
-36.7460475544
31
0.0000000000
11
-34.4577759020
21
-37.1944218527
31
0.0000000000
0
SPLINE
5
373
100
AcDbEntity
8
0
100
AcDbSpline
62
7
6
CONTINUOUS
70
0
71
3
72
11
73
7
74
5
42
0.0000001000
43
0.0000001000
44
0.0000000001
12
95.7750828831
22
-53.1270741881
32
0.0000000000
13
99.8508999485
23
-45.0016698862
33
0.0000000000
40
0.0000000000
40
0.0000000000
40
0.0000000000
40
0.0000000000
40
0.2441408733
40
0.4922298818
40
0.7442059286
40
1.0000000000
40
1.0000000000
40
1.0000000000
40
1.0000000000
10
-47.0070735178
20
92.3397953518
30
0.0000000000
10
-39.2128693929
20
88.0162985893
30
0.0000000000
10
-23.4008400294
20
79.4741348804
30
0.0000000000
10
0.7756393649
20
67.0736206616
30
0.0000000000
10
25.5862861093
20
54.9904333335
30
0.0000000000
10
42.4134596010
20
47.2097042073
30
0.0000000000
10
50.9272156765
20
43.3726507546
30
0.0000000000
11
-47.0070735178
21
92.3397953518
31
0.0000000000
11
-23.4837091119
21
79.6263573120
31
0.0000000000
11
0.6909843129
21
67.2216796700
31
0.0000000000
11
25.5003395970
21
55.1343329576
31
0.0000000000
11
50.9272156765
21
43.3726507546
31
0.0000000000
0
SPLINE
5
374
100
AcDbEntity
8
0
100
AcDbSpline
62
7
6
CONTINUOUS
70
0
71
3
72
10
73
6
74
4
42
0.0000001000
43
0.0000001000
44
0.0000000001
12
0.7899024094
22
0.4012096267
32
0.0000000000
13
0.7691793741
23
-0.4266689043
33
0.0000000000
40
0.0000000000
40
0.0000000000
40
0.0000000000
40
0.0000000000
40
0.0732375852
40
0.5016313234
40
1.0000000000
40
1.0000000000
40
1.0000000000
40
1.0000000000
10
-47.8547014153
20
92.4196687659
30
0.0000000000
10
-47.8354179003
20
92.4294633073
30
0.0000000000
10
-47.7002617834
20
92.4900157202
30
0.0000000000
10
-47.3940762792
20
92.5127318813
30
0.0000000000
10
-47.1348518200
20
92.4106748242
30
0.0000000000
10
-47.0070735178
20
92.3397953518
30
0.0000000000
11
-47.8547014153
21
92.4196687659
31
0.0000000000
11
-47.7955596529
21
92.4460966503
31
0.0000000000
11
-47.4207444308
21
92.4848371491
31
0.0000000000
11
-47.0070735178
21
92.3397953518
31
0.0000000000
0
SPLINE
5
375
100
AcDbEntity
8
0
100
AcDbSpline
62
7
6
CONTINUOUS
70
0
71
3
72
10
73
6
74
4
42
0.0000001000
43
0.0000001000
44
0.0000000001
12
0.0000000000
22
-1.2816611832
32
0.0000000000
13
-1.1526439189
23
-0.5831142278
33
0.0000000000
40
0.0000000000
40
0.0000000000
40
0.0000000000
40
0.0000000000
40
0.3952659583
40
0.7416881468
40
1.0000000000
40
1.0000000000
40
1.0000000000
40
1.0000000000
10
52.4158453567
20
-90.6651601505
30
0.0000000000
10
52.4158453567
20
-90.8340258291
30
0.0000000000
10
52.3767374569
20
-91.1538102901
30
0.0000000000
10
52.1774383534
20
-91.5453969950
30
0.0000000000
10
51.9676931480
20
-91.7102033437
30
0.0000000000
10
51.8684459525
20
-91.7604117826
30
0.0000000000
11
52.4158453567
21
-90.6651601505
31
0.0000000000
11
52.3432871388
21
-91.1665341244
31
0.0000000000
11
52.1305990753
21
-91.5562726547
31
0.0000000000
11
51.8684459525
21
-91.7604117826
31
0.0000000000
0
SPLINE
5
376
100
AcDbEntity
8
0
100
AcDbSpline
62
7
6
CONTINUOUS
70
0
71
3
72
12
73
8
74
6
42
0.0000001000
43
0.0000001000
44
0.0000000001
12
2.6962746602
22
-1.2151804565
32
0.0000000000
13
0.0000000000
23
-2.9574584672
33
0.0000000000
40
0.0000000000
40
0.0000000000
40
0.0000000000
40
0.0000000000
40
0.1838710980
40
0.3873194522
40
0.5976734075
40
0.8068573229
40
1.0000000000
40
1.0000000000
40
1.0000000000
40
1.0000000000
10
50.9272156765
20
43.3726507546
30
0.0000000000
10
51.0924713373
20
43.2981718997
30
0.0000000000
10
51.4162256469
20
43.0856696645
30
0.0000000000
10
51.8233737928
20
42.6541859921
30
0.0000000000
10
52.1486038743
20
42.1282653430
30
0.0000000000
10
52.3603151190
20
41.5584797040
30
0.0000000000
10
52.4158453567
20
41.1611050401
30
0.0000000000
10
52.4158453567
20
40.9707012248
30
0.0000000000
11
50.9272156765
21
43.3726507546
31
0.0000000000
11
51.3863610317
21
43.0812844179
31
0.0000000000
11
51.8027481561
21
42.6469427458
31
0.0000000000
11
52.1305990753
21
42.1182287712
31
0.0000000000
11
52.3432871388
21
41.5372855706
31
0.0000000000
11
52.4158453567
21
40.9707012248
31
0.0000000000
0
SPLINE
5
377
100
AcDbEntity
8
0
100
AcDbSpline
62
7
6
CONTINUOUS
70
0
71
3
72
9
73
5
74
3
42
0.0000001000
43
0.0000001000
44
0.0000000001
12
-0.1429653072
22
0.0632893265
32
0.0000000000
13
-0.1535079634
23
0.0310464517
33
0.0000000000
40
0.0000000000
40
0.0000000000
40
0.0000000000
40
0.0000000000
40
0.7457402099
40
1.0000000000
40
1.0000000000
40
1.0000000000
40
1.0000000000
10
-35.1620691111
20
67.3523636774
30
0.0000000000
10
-35.1976074372
20
67.3680961427
30
0.0000000000
10
-35.2468250446
20
67.3859335953
30
0.0000000000
10
-35.2976668103
20
67.3979236323
30
0.0000000000
10
-35.3106771111
20
67.4005549204
30
0.0000000000
11
-35.1620691111
21
67.3523636774
31
0.0000000000
11
-35.2719177756
21
67.3914484398
31
0.0000000000
11
-35.3106771111
21
67.4005549204
31
0.0000000000
0
SPLINE
5
378
100
AcDbEntity
8
0
100
AcDbSpline
62
7
6
CONTINUOUS
70
0
71
3
72
9
73
5
74
3
42
0.0000001000
43
0.0000001000
44
0.0000000001
12
-0.2040425315
22
0.0412668923
32
0.0000000000
13
-0.2040553274
23
-0.0429446535
33
0.0000000000
40
0.0000000000
40
0.0000000000
40
0.0000000000
40
0.0000000000
40
0.3900194588
40
1.0000000000
40
1.0000000000
40
1.0000000000
40
1.0000000000
10
-35.3106771111
20
67.4005549204
30
0.0000000000
10
-35.3372039637
20
67.4059198841
30
0.0000000000
10
-35.4061058547
20
67.4152276158
30
0.0000000000
10
-35.4760738585
20
67.4109427404
30
0.0000000000
10
-35.5175637848
20
67.4022109394
30
0.0000000000
11
-35.3106771111
21
67.4005549204
31
0.0000000000
11
-35.3911122921
21
67.4111126352
31
0.0000000000
11
-35.5175637848
21
67.4022109394
31
0.0000000000
0
SPLINE
5
379
100
AcDbEntity
8
0
100
AcDbSpline
62
7
6
CONTINUOUS
70
0
71
3
72
8
73
4
74
2
42
0.0000001000
43
0.0000001000
44
0.0000000001
12
-0.0868429567
22
-0.0182766151
32
0.0000000000
13
-0.0813230346
23
-0.0357226185
33
0.0000000000
40
0.0000000000
40
0.0000000000
40
0.0000000000
40
0.0000000000
40
1.0000000000
40
1.0000000000
40
1.0000000000
40
1.0000000000
10
-35.5175637848
20
67.4022109394
30
0.0000000000
10
-35.5465114370
20
67.3961187343
30
0.0000000000
10
-35.5748802017
20
67.3870482963
30
0.0000000000
10
-35.6019878799
20
67.3751407568
30
0.0000000000
11
-35.5175637848
21
67.4022109394
31
0.0000000000
11
-35.6019878799
21
67.3751407568
31
0.0000000000
0
SPLINE
5
37A
100
AcDbEntity
8
0
100
AcDbSpline
62
7
6
CONTINUOUS
70
0
71
3
72
9
73
5
74
3
42
0.0000001000
43
0.0000001000
44
0.0000000001
12
-0.0840848228
22
-0.0369357841
32
0.0000000000
13
-0.0740740558
23
-0.0542547141
33
0.0000000000
40
0.0000000000
40
0.0000000000
40
0.0000000000
40
0.0000000000
40
0.4938236924
40
1.0000000000
40
1.0000000000
40
1.0000000000
40
1.0000000000
10
-35.6019878799
20
67.3751407568
30
0.0000000000
10
-35.6158289058
20
67.3690608350
30
0.0000000000
10
-35.6431914091
20
67.3552511034
30
0.0000000000
10
-35.6688333293
20
67.3384853368
30
0.0000000000
10
-35.6813315066
20
67.3293311865
30
0.0000000000
11
-35.6019878799
21
67.3751407568
31
0.0000000000
11
-35.6424338260
21
67.3547008256
31
0.0000000000
11
-35.6813315066
21
67.3293311865
31
0.0000000000
0
SPLINE
5
37B
100
AcDbEntity
8
0
100
AcDbSpline
62
7
6
CONTINUOUS
70
0
71
3
72
9
73
5
74
3
42
0.0000001000
43
0.0000001000
44
0.0000000001
12
-0.1172878072
22
-0.0859061432
32
0.0000000000
13
-0.0859716770
23
-0.1170094711
33
0.0000000000
40
0.0000000000
40
0.0000000000
40
0.0000000000
40
0.0000000000
40
0.6614023047
40
1.0000000000
40
1.0000000000
40
1.0000000000
40
1.0000000000
10
-35.6813315066
20
67.3293311865
30
0.0000000000
10
-35.7071896486
20
67.3103916795
30
0.0000000000
10
-35.7431715693
20
67.2774348670
30
0.0000000000
10
-35.7736290681
20
67.2397595414
30
0.0000000000
10
-35.7833323386
20
67.2265531623
30
0.0000000000
11
-35.6813315066
21
67.3293311865
31
0.0000000000
11
-35.7523700242
21
67.2647321282
31
0.0000000000
11
-35.7833323386
21
67.2265531623
31
0.0000000000
0
SPLINE
5
37C
100
AcDbEntity
8
0
100
AcDbSpline
62
7
6
CONTINUOUS
70
0
71
3
72
11
73
7
74
5
42
0.0000001000
43
0.0000001000
44
0.0000000001
12
-0.3147772407
22
-0.4284192154
32
0.0000000000
13
-0.0000022430
23
-0.5301597935
33
0.0000000000
40
0.0000000000
40
0.0000000000
40
0.0000000000
40
0.0000000000
40
0.1893579813
40
0.4710887770
40
0.7420567159
40
1.0000000000
40
1.0000000000
40
1.0000000000
40
1.0000000000
10
-35.7833323386
20
67.2265531623
30
0.0000000000
10
-35.8032008662
20
67.1995116297
30
0.0000000000
10
-35.8462719725
20
67.1275474770
30
0.0000000000
10
-35.8911925222
20
67.0034594843
30
0.0000000000
10
-35.9167603807
20
66.8620107554
30
0.0000000000
10
-35.9215875719
20
66.7684423749
30
0.0000000000
10
-35.9215877648
20
66.7228586555
30
0.0000000000
11
-35.7833323386
21
67.2265531623
31
0.0000000000
11
-35.8354749928
21
67.1405578355
31
0.0000000000
11
-35.8876801339
21
67.0006159475
31
0.0000000000
11
-35.9140597184
21
66.8594024499
31
0.0000000000
11
-35.9215877648
21
66.7228586555
31
0.0000000000
0
SPLINE
5
37D
100
AcDbEntity
8
0
100
AcDbSpline
62
7
6
CONTINUOUS
70
0
71
3
72
9
73
5
74
3
42
0.0000001000
43
0.0000001000
44
0.0000000001
12
-0.0625693286
22
0.0293276377
32
0.0000000000
13
-0.0037920328
23
0.0678898742
33
0.0000000000
40
0.0000000000
40
0.0000000000
40
0.0000000000
40
0.0000000000
40
0.3845551030
40
1.0000000000
40
1.0000000000
40
1.0000000000
40
1.0000000000
10
-35.1295253840
20
67.2952508158
30
0.0000000000
10
-35.1375458355
20
67.2990101801
30
0.0000000000
10
-35.1559251093
20
67.3149132489
30
0.0000000000
10
-35.1612910822
20
67.3384362318
30
0.0000000000
10
-35.1620690113
20
67.3523637241
30
0.0000000000
11
-35.1295253840
21
67.2952508158
31
0.0000000000
11
-35.1497570815
21
67.3123682456
31
0.0000000000
11
-35.1620690113
21
67.3523637241
31
0.0000000000
0
SPLINE
5
37E
100
AcDbEntity
8
0
100
AcDbSpline
62
7
6
CONTINUOUS
70
0
71
3
72
9
73
5
74
3
42
0.0000001000
43
0.0000001000
44
0.0000000001
12
0.0005543034
22
-0.0518886082
32
0.0000000000
13
0.0451759415
23
-0.0210608324
33
0.0000000000
40
0.0000000000
40
0.0000000000
40
0.0000000000
40
0.0000000000
40
0.2828888418
40
1.0000000000
40
1.0000000000
40
1.0000000000
40
1.0000000000
10
30.8032223076
20
33.3815245345
30
0.0000000000
10
30.8032745764
20
33.3766316317
30
0.0000000000
10
30.8071714015
20
33.3592651176
30
0.0000000000
10
30.8234385312
20
33.3499804648
30
0.0000000000
10
30.8342372551
20
33.3449461455
30
0.0000000000
11
30.8032223076
21
33.3815245345
31
0.0000000000
11
30.8064692603
21
33.3674528054
31
0.0000000000
11
30.8342372551
21
33.3449461455
31
0.0000000000
0
SPLINE
5
37F
100
AcDbEntity
8
0
100
AcDbSpline
62
7
6
CONTINUOUS
70
0
71
3
72
10
73
6
74
4
42
0.0000001000
43
0.0000001000
44
0.0000000001
12
-0.0000054477
22
-0.4451003738
32
0.0000000000
13
0.1211151361
23
-0.4285439088
33
0.0000000000
40
0.0000000000
40
0.0000000000
40
0.0000000000
40
0.0000000000
40
0.3251662600
40
0.7073900713
40
1.0000000000
40
1.0000000000
40
1.0000000000
40
1.0000000000
10
-35.9215877648
20
-37.2362093636
30
0.0000000000
10
-35.9215883553
20
-37.2844532383
30
0.0000000000
10
-35.9158487909
20
-37.3894604817
30
0.0000000000
10
-35.8927249826
20
-37.5362634644
30
0.0000000000
10
-35.8688057160
20
-37.6335952125
30
0.0000000000
10
-35.8569925522
20
-37.6753939466
30
0.0000000000
11
-35.9215877648
21
-37.2362093636
31
0.0000000000
11
-35.9140681924
21
-37.3807455147
31
0.0000000000
11
-35.8879854174
21
-37.5488621768
31
0.0000000000
11
-35.8569925522
21
-37.6753939466
31
0.0000000000
0
SPLINE
5
380
100
AcDbEntity
8
0
100
AcDbSpline
62
7
6
CONTINUOUS
70
0
71
3
72
12
73
8
74
6
42
0.0000001000
43
0.0000001000
44
0.0000000001
12
0.2236935937
22
-0.7914991481
32
0.0000000000
13
0.5295482384
23
-0.6294763376
33
0.0000000000
40
0.0000000000
40
0.0000000000
40
0.0000000000
40
0.0000000000
40
0.0845052072
40
0.3579693578
40
0.6440718265
40
0.9169234872
40
1.0000000000
40
1.0000000000
40
1.0000000000
40
1.0000000000
10
-35.8569925522
20
-37.6753939466
30
0.0000000000
10
-35.8506914610
20
-37.6976892131
30
0.0000000000
10
-35.8222620996
20
-37.7916457303
30
0.0000000000
10
-35.7584633809
20
-37.9565958868
30
0.0000000000
10
-35.6525418887
20
-38.1591942914
30
0.0000000000
10
-35.5533193313
20
-38.3049734537
30
0.0000000000
10
-35.4919933001
20
-38.3809250701
30
0.0000000000
10
-35.4773289598
20
-38.3983566364
30
0.0000000000
11
-35.8569925522
21
-37.6753939466
31
0.0000000000
11
-35.8368771849
21
-37.7419225305
31
0.0000000000
11
-35.7559478222
21
-37.9516592136
31
0.0000000000
11
-35.6468579943
21
-38.1600285490
31
0.0000000000
11
-35.5202770198
21
-38.3452045716
31
0.0000000000
11
-35.4773289598
21
-38.3983566364
31
0.0000000000
0
SPLINE
5
381
100
AcDbEntity
8
0
100
AcDbSpline
62
7
6
CONTINUOUS
70
0
71
3
72
10
73
6
74
4
42
0.0000001000
43
0.0000001000
44
0.0000000001
12
0.2459086881
22
-0.2923127473
32
0.0000000000
13
0.3153141453
23
-0.2154919560
33
0.0000000000
40
0.0000000000
40
0.0000000000
40
0.0000000000
40
0.0000000000
40
0.3316729760
40
0.7565651263
40
1.0000000000
40
1.0000000000
40
1.0000000000
40
1.0000000000
10
-35.4773289598
20
-38.3983566364
30
0.0000000000
10
-35.4501418710
20
-38.4306740494
30
0.0000000000
10
-35.3853796930
20
-38.5020699623
30
0.0000000000
10
-35.2912308585
20
-38.5880747769
30
0.0000000000
10
-35.2229408047
20
-38.6390116910
30
0.0000000000
10
-35.1973546516
20
-38.6564977767
30
0.0000000000
11
-35.4773289598
21
-38.3983566364
31
0.0000000000
11
-35.3921162908
21
-38.4920569033
31
0.0000000000
11
-35.2719772697
21
-38.6010366302
31
0.0000000000
11
-35.1973546516
21
-38.6564977767
31
0.0000000000
0
SPLINE
5
382
100
AcDbEntity
8
0
100
AcDbSpline
62
7
6
CONTINUOUS
70
0
71
3
72
8
73
4
74
2
42
0.0000001000
43
0.0000001000
44
0.0000000001
12
0.0348454847
22
-0.0238140970
32
0.0000000000
13
0.0357255643
23
-0.0224382465
33
0.0000000000
40
0.0000000000
40
0.0000000000
40
0.0000000000
40
0.0000000000
40
1.0000000000
40
1.0000000000
40
1.0000000000
40
1.0000000000
10
-35.1973546516
20
-38.6564977767
30
0.0000000000
10
-35.1857394901
20
-38.6644358090
30
0.0000000000
10
-35.1739776325
20
-38.6721538614
30
0.0000000000
10
-35.1620691111
20
-38.6796332769
30
0.0000000000
11
-35.1973546516
21
-38.6564977767
31
0.0000000000
11
-35.1620691111
21
-38.6796332769
31
0.0000000000
0
SPLINE
5
383
100
AcDbEntity
8
0
100
AcDbSpline
62
7
6
CONTINUOUS
70
0
71
3
72
9
73
5
74
3
42
0.0000001000
43
0.0000001000
44
0.0000000001
12
-0.0288772411
22
-0.0147788769
32
0.0000000000
13
-0.0274925591
23
-0.0171981487
33
0.0000000000
40
0.0000000000
40
0.0000000000
40
0.0000000000
40
0.0000000000
40
0.5762371677
40
1.0000000000
40
1.0000000000
40
1.0000000000
40
1.0000000000
10
-35.5062414619
20
67.3093318751
30
0.0000000000
10
-35.5117881751
20
67.3064931623
30
0.0000000000
10
-35.5212912634
20
67.3013306264
30
0.0000000000
10
-35.5305583735
20
67.2957629633
30
0.0000000000
10
-35.5344418150
20
67.2933336513
30
0.0000000000
11
-35.5062414619
21
67.3093318751
31
0.0000000000
11
-35.5226618841
21
67.3004089500
31
0.0000000000
11
-35.5344418150
21
67.2933336513
31
0.0000000000
0
SPLINE
5
384
100
AcDbEntity
8
0
100
AcDbSpline
62
7
6
CONTINUOUS
70
0
71
3
72
11
73
7
74
5
42
0.0000001000
43
0.0000001000
44
0.0000000001
12
-0.4068407790
22
-0.2545018882
32
0.0000000000
13
-0.0752353949
23
-0.4726047587
33
0.0000000000
40
0.0000000000
40
0.0000000000
40
0.0000000000
40
0.0000000000
40
0.2430213887
40
0.5290578165
40
0.8151708989
40
1.0000000000
40
1.0000000000
40
1.0000000000
40
1.0000000000
10
-35.5344418150
20
67.2933336513
30
0.0000000000
10
-35.5673988187
20
67.2727171838
30
0.0000000000
10
-35.6323077852
20
67.2168686358
30
0.0000000000
10
-35.7038489720
20
67.1065621567
30
0.0000000000
10
-35.7450597713
20
66.9923626446
30
0.0000000000
10
-35.7603910681
20
66.9187403751
30
0.0000000000
10
-35.7650262982
20
66.8896233375
30
0.0000000000
11
-35.5344418150
21
67.2933336513
31
0.0000000000
11
-35.6231315671
21
67.2180878441
31
0.0000000000
11
-35.6990773694
21
67.1043495701
31
0.0000000000
11
-35.7467693815
21
66.9761323398
31
0.0000000000
11
-35.7650262982
21
66.8896233375
31
0.0000000000
0
SPLINE
5
385
100
AcDbEntity
8
0
100
AcDbSpline
62
7
6
CONTINUOUS
70
0
71
3
72
9
73
5
74
3
42
0.0000001000
43
0.0000001000
44
0.0000000001
12
-0.0135164061
22
-0.0849057529
32
0.0000000000
13
-0.0062124279
23
-0.0857311584
33
0.0000000000
40
0.0000000000
40
0.0000000000
40
0.0000000000
40
0.0000000000
40
0.5034360752
40
1.0000000000
40
1.0000000000
40
1.0000000000
40
1.0000000000
10
-35.7650262982
20
66.8896233375
30
0.0000000000
10
-35.7672945137
20
66.8753751311
30
0.0000000000
10
-35.7711427416
20
66.8469672629
30
0.0000000000
10
-35.7737806291
20
66.8184293173
30
0.0000000000
10
-35.7748089183
20
66.8042389838
30
0.0000000000
11
-35.7650262982
21
66.8896233375
31
0.0000000000
11
-35.7708624290
21
66.8467390719
31
0.0000000000
11
-35.7748089183
21
66.8042389838
31
0.0000000000
0
SPLINE
5
386
100
AcDbEntity
8
0
100
AcDbSpline
62
7
6
CONTINUOUS
70
0
71
3
72
8
73
4
74
2
42
0.0000001000
43
0.0000001000
44
0.0000000001
12
-0.0059791149
22
-0.0825114531
32
0.0000000000
13
-0.0000001540
23
-0.0826727393
33
0.0000000000
40
0.0000000000
40
0.0000000000
40
0.0000000000
40
0.0000000000
40
1.0000000000
40
1.0000000000
40
1.0000000000
40
1.0000000000
10
-35.7748089183
20
66.8042389838
30
0.0000000000
10
-35.7768019566
20
66.7767351661
30
0.0000000000
10
-35.7777371576
20
66.7491583971
30
0.0000000000
10
-35.7777372089
20
66.7216008173
30
0.0000000000
11
-35.7748089183
21
66.8042389838
31
0.0000000000
11
-35.7777372089
21
66.7216008173
31
0.0000000000
0
SPLINE
5
387
100
AcDbEntity
8
0
100
AcDbSpline
62
7
6
CONTINUOUS
70
0
71
3
72
9
73
5
74
3
42
0.0000001000
43
0.0000001000
44
0.0000000001
12
0.0006585358
22
-0.0518211798
32
0.0000000000
13
0.0451156461
23
-0.0210327229
33
0.0000000000
40
0.0000000000
40
0.0000000000
40
0.0000000000
40
0.0000000000
40
0.2819323682
40
1.0000000000
40
1.0000000000
40
1.0000000000
40
1.0000000000
10
30.8032231175
20
-70.5776127370
30
0.0000000000
10
30.8032850050
20
-70.5824827597
30
0.0000000000
10
30.8071931589
20
-70.5998153282
30
0.0000000000
10
30.8234385601
20
-70.6090875678
30
0.0000000000
10
30.8342372551
20
-70.6141218736
30
0.0000000000
11
30.8032231175
21
-70.5776127370
31
0.0000000000
11
30.8064693119
21
-70.5916153017
31
0.0000000000
11
30.8342372551
21
-70.6141218736
31
0.0000000000
0
SPLINE
5
388
100
AcDbEntity
8
0
100
AcDbSpline
62
7
6
CONTINUOUS
70
0
71
3
72
11
73
7
74
5
42
0.0000001000
43
0.0000001000
44
0.0000000001
12
61.6750522167
22
-38.7359088473
32
0.0000000000
13
68.0605752597
23
-25.9243768125
33
0.0000000000
40
0.0000000000
40
0.0000000000
40
0.0000000000
40
0.0000000000
40
0.2535370885
40
0.5048891513
40
0.7543327762
40
1.0000000000
40
1.0000000000
40
1.0000000000
40
1.0000000000
10
-35.1620691111
20
-38.6796332769
30
0.0000000000
10
-29.9497647207
20
-41.9532964599
30
0.0000000000
10
-19.4136126215
20
-48.2272664601
30
0.0000000000
10
-3.2360784280
20
-56.8241797973
30
0.0000000000
10
13.1736530939
20
-64.5300160506
30
0.0000000000
10
24.3003664217
20
-69.0921256351
30
0.0000000000
10
29.8737839457
20
-71.2150488616
30
0.0000000000
11
-35.1620691111
21
-38.6796332769
31
0.0000000000
11
-19.2944380842
21
-48.1233176661
31
0.0000000000
11
-3.1273834355
21
-56.7104924675
31
0.0000000000
11
13.3182329295
21
-64.4296522510
31
0.0000000000
11
29.8737839457
21
-71.2150488616
31
0.0000000000
0
SPLINE
5
389
100
AcDbEntity
8
0
100
AcDbSpline
62
7
6
CONTINUOUS
70
0
71
3
72
8
73
4
74
2
42
0.0000001000
43
0.0000001000
44
0.0000000001
12
0.1465223293
22
-0.0558105785
32
0.0000000000
13
0.1465465021
23
-0.0557457233
33
0.0000000000
40
0.0000000000
40
0.0000000000
40
0.0000000000
40
0.0000000000
40
1.0000000000
40
1.0000000000
40
1.0000000000
40
1.0000000000
10
29.8737839457
20
-71.2150488616
30
0.0000000000
10
29.9226247221
20
-71.2336523878
30
0.0000000000
10
29.9714695298
20
-71.2522451066
30
0.0000000000
10
30.0203183639
20
-71.2708270144
30
0.0000000000
11
29.8737839457
21
-71.2150488616
31
0.0000000000
11
30.0203183639
21
-71.2708270144
31
0.0000000000
0
SPLINE
5
38A
100
AcDbEntity
8
0
100
AcDbSpline
62
7
6
CONTINUOUS
70
0
71
3
72
11
73
7
74
5
42
0.0000001000
43
0.0000001000
44
0.0000000001
12
61.6491830371
22
-38.7204883601
32
0.0000000000
13
68.0317469367
23
-25.9155285146
33
0.0000000000
40
0.0000000000
40
0.0000000000
40
0.0000000000
40
0.0000000000
40
0.2535867031
40
0.5049805679
40
0.7544657850
40
1.0000000000
40
1.0000000000
40
1.0000000000
40
1.0000000000
10
-35.0838298572
20
-38.5617114102
30
0.0000000000
10
-29.8726921662
20
-41.8347117383
30
0.0000000000
10
-19.3390295577
20
-48.1072944957
30
0.0000000000
10
-3.1653492197
20
-56.7022041451
30
0.0000000000
10
13.2365255081
20
-64.4043085526
30
0.0000000000
10
24.3565280351
20
-68.9638182503
30
0.0000000000
10
29.9245685625
20
-71.0848679007
30
0.0000000000
11
-35.0838298572
21
-38.5617114102
31
0.0000000000
11
-19.2197186881
21
-48.0034464971
31
0.0000000000
11
-3.0566776323
21
-56.5885321506
31
0.0000000000
11
13.3848967819
21
-64.3057538685
31
0.0000000000
11
29.9245685625
21
-71.0848679007
31
0.0000000000
0
SPLINE
5
38B
100
AcDbEntity
8
0
100
AcDbSpline
62
7
6
CONTINUOUS
70
0
71
3
72
8
73
4
74
2
42
0.0000001000
43
0.0000001000
44
0.0000000001
12
0.1588352451
22
-0.0605055655
32
0.0000000000
13
0.1588636623
23
-0.0604293252
33
0.0000000000
40
0.0000000000
40
0.0000000000
40
0.0000000000
40
0.0000000000
40
1.0000000000
40
1.0000000000
40
1.0000000000
40
1.0000000000
10
29.9245685625
20
-71.0848679007
30
0.0000000000
10
29.9775136442
20
-71.1050364225
30
0.0000000000
10
30.0304634652
20
-71.1251922401
30
0.0000000000
10
30.0834180193
20
-71.1453353485
30
0.0000000000
11
29.9245685625
21
-71.0848679007
31
0.0000000000
11
30.0834180193
21
-71.1453353485
31
0.0000000000
0
SPLINE
5
38C
100
AcDbEntity
8
0
100
AcDbSpline
62
7
6
CONTINUOUS
70
0
71
3
72
9
73
5
74
3
42
0.0000001000
43
0.0000001000
44
0.0000000001
12
-0.0497756938
22
0.0294915617
32
0.0000000000
13
0.0035692663
23
0.0562137671
33
0.0000000000
40
0.0000000000
40
0.0000000000
40
0.0000000000
40
0.0000000000
40
0.3314257135
40
1.0000000000
40
1.0000000000
40
1.0000000000
40
1.0000000000
10
30.0403801917
20
34.7106193038
30
0.0000000000
10
30.0348812101
20
34.7138773911
30
0.0000000000
10
30.0205083164
20
34.7282773313
30
0.0000000000
10
30.0195233758
20
34.7486424888
30
0.0000000000
10
30.0203188157
20
34.7611701819
30
0.0000000000
11
30.0403801917
21
34.7106193038
31
0.0000000000
11
30.0268246900
21
34.7240776494
31
0.0000000000
11
30.0203188157
21
34.7611701819
31
0.0000000000
0
SPLINE
5
38D
100
AcDbEntity
8
0
100
AcDbSpline
62
7
6
CONTINUOUS
70
0
71
3
72
8
73
4
74
2
42
0.0000001000
43
0.0000001000
44
0.0000000001
12
-0.0427393324
22
-0.0213696662
32
0.0000000000
13
-0.0477073991
23
-0.0060456667
33
0.0000000000
40
0.0000000000
40
0.0000000000
40
0.0000000000
40
0.0000000000
40
1.0000000000
40
1.0000000000
40
1.0000000000
40
1.0000000000
10
-35.7777372089
20
66.7216008173
30
0.0000000000
10
-35.7919836530
20
66.7144775953
30
0.0000000000
10
-35.8077912832
20
66.7105275125
30
0.0000000000
10
-35.8236937495
20
66.7085122902
30
0.0000000000
11
-35.7777372089
21
66.7216008173
31
0.0000000000
11
-35.8236937495
21
66.7085122902
31
0.0000000000
0
SPLINE
5
38E
100
AcDbEntity
8
0
100
AcDbSpline
62
7
6
CONTINUOUS
70
0
71
3
72
9
73
5
74
3
42
0.0000001000
43
0.0000001000
44
0.0000000001
12
-0.0998282584
22
-0.0126506242
32
0.0000000000
13
-0.0881180935
23
0.0472538046
33
0.0000000000
40
0.0000000000
40
0.0000000000
40
0.0000000000
40
0.0000000000
40
0.5288892145
40
1.0000000000
40
1.0000000000
40
1.0000000000
40
1.0000000000
10
-35.8236937495
20
66.7085122902
30
0.0000000000
10
-35.8412931126
20
66.7062820307
30
0.0000000000
10
-35.8747888200
20
66.7065458975
30
0.0000000000
10
-35.9077499700
20
66.7154380631
30
0.0000000000
10
-35.9215877648
20
66.7228586555
30
0.0000000000
11
-35.8236937495
21
66.7085122902
31
0.0000000000
11
-35.8765746209
21
66.7089746838
31
0.0000000000
11
-35.9215877648
21
66.7228586555
31
0.0000000000
0
SPLINE
5
38F
100
AcDbEntity
8
0
100
AcDbSpline
62
7
6
CONTINUOUS
70
0
71
3
72
10
73
6
74
4
42
0.0000001000
43
0.0000001000
44
0.0000000001
12
-0.1291723176
22
-0.0687229696
32
0.0000000000
13
0.0087543268
23
-0.1460537434
33
0.0000000000
40
0.0000000000
40
0.0000000000
40
0.0000000000
40
0.0000000000
40
0.3079376940
40
0.6594287451
40
1.0000000000
40
1.0000000000
40
1.0000000000
40
1.0000000000
10
30.0834179807
20
-71.1453346827
30
0.0000000000
10
30.0701589722
20
-71.1523888136
30
0.0000000000
10
30.0462664893
20
-71.1757463082
30
0.0000000000
10
30.0245198563
20
-71.2200095354
30
0.0000000000
10
30.0193246331
20
-71.2542463956
30
0.0000000000
10
30.0203184571
20
-71.2708269644
30
0.0000000000
11
30.0834179807
21
-71.1453346827
31
0.0000000000
11
30.0499275225
21
-71.1754751512
31
0.0000000000
11
30.0268244490
21
-71.2214225251
31
0.0000000000
11
30.0203184571
21
-71.2708269644
31
0.0000000000
0
SPLINE
5
390
100
AcDbEntity
8
0
100
AcDbSpline
62
7
6
CONTINUOUS
70
0
71
3
72
10
73
6
74
4
42
0.0000001000
43
0.0000001000
44
0.0000000001
12
-0.1330540284
22
-0.0617639264
32
0.0000000000
13
-0.0086991747
23
-0.1464325149
33
0.0000000000
40
0.0000000000
40
0.0000000000
40
0.0000000000
40
0.0000000000
40
0.3188512546
40
0.6720745142
40
1.0000000000
40
1.0000000000
40
1.0000000000
40
1.0000000000
10
-35.0838298021
20
-38.5617105135
30
0.0000000000
10
-35.0979712834
20
-38.5682750153
30
0.0000000000
10
-35.1242587559
20
-38.5896221412
30
0.0000000000
10
-35.1514496523
20
-38.6308086675
30
0.0000000000
10
-35.1611177335
20
-38.6636267331
30
0.0000000000
10
-35.1620686272
20
-38.6796330509
30
0.0000000000
11
-35.0838298021
21
-38.5617105135
31
0.0000000000
11
-35.1211107102
21
-38.5899558934
31
0.0000000000
11
-35.1497568287
21
-38.6331316820
31
0.0000000000
11
-35.1620686272
21
-38.6796330509
31
0.0000000000
0
SPLINE
5
391
100
AcDbEntity
8
0
100
AcDbSpline
62
7
6
CONTINUOUS
70
0
71
3
72
8
73
4
74
2
42
0.0000001000
43
0.0000001000
44
0.0000000001
12
-0.0427391994
22
-0.0213695997
32
0.0000000000
13
-0.0477072438
23
-0.0060456865
33
0.0000000000
40
0.0000000000
40
0.0000000000
40
0.0000000000
40
0.0000000000
40
1.0000000000
40
1.0000000000
40
1.0000000000
40
1.0000000000
10
-35.7777372089
20
-37.2374672018
30
0.0000000000
10
-35.7919836087
20
-37.2445904017
30
0.0000000000
10
-35.8077911858
20
-37.2485404810
30
0.0000000000
10
-35.8236936004
20
-37.2505557098
30
0.0000000000
11
-35.7777372089
21
-37.2374672018
31
0.0000000000
11
-35.8236936004
21
-37.2505557098
31
0.0000000000
0
SPLINE
5
392
100
AcDbEntity
8
0
100
AcDbSpline
62
7
6
CONTINUOUS
70
0
71
3
72
9
73
5
74
3
42
0.0000001000
43
0.0000001000
44
0.0000000001
12
-0.0998283923
22
-0.0126507238
32
0.0000000000
13
-0.0881182244
23
0.0472538748
33
0.0000000000
40
0.0000000000
40
0.0000000000
40
0.0000000000
40
0.0000000000
40
0.5288881567
40
1.0000000000
40
1.0000000000
40
1.0000000000
40
1.0000000000
10
-35.8236936004
20
-37.2505557098
30
0.0000000000
10
-35.8412929518
20
-37.2527859825
30
0.0000000000
10
-35.8747887085
20
-37.2525221400
30
0.0000000000
10
-35.9077499184
20
-37.2436299837
30
0.0000000000
10
-35.9215877648
20
-37.2362093636
30
0.0000000000
11
-35.8236936004
21
-37.2505557098
31
0.0000000000
11
-35.8765744450
21
-37.2500933611
31
0.0000000000
11
-35.9215877648
21
-37.2362093636
31
0.0000000000
0
SPLINE
5
393
100
AcDbEntity
8
0
100
AcDbSpline
62
7
6
CONTINUOUS
70
0
71
3
72
9
73
5
74
3
42
0.0000001000
43
0.0000001000
44
0.0000000001
12
-0.0000009821
22
-0.1818788825
32
0.0000000000
13
0.0244516377
23
-0.1803044930
33
0.0000000000
40
0.0000000000
40
0.0000000000
40
0.0000000000
40
0.0000000000
40
0.7293532525
40
1.0000000000
40
1.0000000000
40
1.0000000000
40
1.0000000000
10
-35.7777372089
20
-37.2374672018
30
0.0000000000
10
-35.7777374477
20
-37.2816851866
30
0.0000000000
10
-35.7744345614
20
-37.3423424692
30
0.0000000000
10
-35.7672803739
20
-37.4025804842
30
0.0000000000
10
-35.7650744552
20
-37.4188467590
30
0.0000000000
11
-35.7777372089
21
-37.2374672018
31
0.0000000000
11
-35.7708707825
21
-37.3699433273
31
0.0000000000
11
-35.7650744552
21
-37.4188467590
31
0.0000000000
0
SPLINE
5
394
100
AcDbEntity
8
0
100
AcDbSpline
62
7
6
CONTINUOUS
70
0
71
3
72
9
73
5
74
3
42
0.0000001000
43
0.0000001000
44
0.0000000001
12
0.0303804363
22
-0.2240229977
32
0.0000000000
13
0.0612459787
23
-0.2176413541
33
0.0000000000
40
0.0000000000
40
0.0000000000
40
0.0000000000
40
0.0000000000
40
0.4722218153
40
1.0000000000
40
1.0000000000
40
1.0000000000
40
1.0000000000
10
-35.7650744552
20
-37.4188467590
30
0.0000000000
10
-35.7602923536
20
-37.4541096079
30
0.0000000000
10
-35.7474818601
20
-37.5284162326
30
0.0000000000
10
-35.7295568659
20
-37.6016592412
30
0.0000000000
10
-35.7187821021
20
-37.6399480274
30
0.0000000000
11
-35.7650744552
21
-37.4188467590
31
0.0000000000
11
-35.7470530645
21
-37.5240508469
31
0.0000000000
11
-35.7187821021
21
-37.6399480274
31
0.0000000000
0
SPLINE
5
395
100
AcDbEntity
8
0
100
AcDbSpline
62
7
6
CONTINUOUS
70
0
71
3
72
11
73
7
74
5
42
0.0000001000
43
0.0000001000
44
0.0000000001
12
0.1506753571
22
-0.5354341532
32
0.0000000000
13
0.3041466031
23
-0.4657740140
33
0.0000000000
40
0.0000000000
40
0.0000000000
40
0.0000000000
40
0.0000000000
40
0.1147650390
40
0.4854969895
40
0.8733794892
40
1.0000000000
40
1.0000000000
40
1.0000000000
40
1.0000000000
10
-35.7187821021
20
-37.6399480274
30
0.0000000000
10
-35.7130180143
20
-37.6604310679
30
0.0000000000
10
-35.6870426464
20
-37.7466369778
30
0.0000000000
10
-35.6287487320
20
-37.8979823549
30
0.0000000000
10
-35.5528302528
20
-38.0438189676
30
0.0000000000
10
-35.5022660880
20
-38.1247456095
30
0.0000000000
10
-35.4894290219
20
-38.1444044573
30
0.0000000000
11
-35.7187821021
21
-37.6399480274
31
0.0000000000
11
-35.7003782931
21
-37.7010709524
31
0.0000000000
11
-35.6264482940
21
-37.8934624828
31
0.0000000000
11
-35.5267639835
21
-38.0846808692
31
0.0000000000
11
-35.4894290219
21
-38.1444044573
31
0.0000000000
0
SPLINE
5
396
100
AcDbEntity
8
0
100
AcDbSpline
62
7
6
CONTINUOUS
70
0
71
3
72
11
73
7
74
5
42
0.0000001000
43
0.0000001000
44
0.0000000001
12
0.2994419736
22
-0.4585692841
32
0.0000000000
13
0.4512858811
23
-0.3101395731
33
0.0000000000
40
0.0000000000
40
0.0000000000
40
0.0000000000
40
0.0000000000
40
0.2470341420
40
0.5732678654
40
0.8445993507
40
1.0000000000
40
1.0000000000
40
1.0000000000
40
1.0000000000
10
-35.4894290219
20
-38.1444044573
30
0.0000000000
10
-35.4647715582
20
-38.1821652139
30
0.0000000000
10
-35.4041857943
20
-38.2675890266
30
0.0000000000
10
-35.3032460405
20
-38.3844940981
30
0.0000000000
10
-35.2018383461
20
-38.4775977821
30
0.0000000000
10
-35.1394412039
20
-38.5243908084
30
0.0000000000
10
-35.1160644976
20
-38.5404561054
30
0.0000000000
11
-35.4894290219
21
-38.1444044573
31
0.0000000000
11
-35.4110840658
21
-38.2546592346
31
0.0000000000
11
-35.2939835034
21
-38.3894635863
31
0.0000000000
11
-35.1842335940
21
-38.4895181068
31
0.0000000000
11
-35.1160644976
21
-38.5404561054
31
0.0000000000
0
SPLINE
5
397
100
AcDbEntity
8
0
100
AcDbSpline
62
7
6
CONTINUOUS
70
0
71
3
72
8
73
4
74
2
42
0.0000001000
43
0.0000001000
44
0.0000000001
12
0.0318304678
22
-0.0218750201
32
0.0000000000
13
0.0326388730
23
-0.0206184729
33
0.0000000000
40
0.0000000000
40
0.0000000000
40
0.0000000000
40
0.0000000000
40
1.0000000000
40
1.0000000000
40
1.0000000000
40
1.0000000000
10
-35.1160644976
20
-38.5404561054
30
0.0000000000
10
-35.1054543416
20
-38.5477477788
30
0.0000000000
10
-35.0947094816
20
-38.5548385859
30
0.0000000000
10
-35.0838298572
20
-38.5617114102
30
0.0000000000
11
-35.1160644976
21
-38.5404561054
31
0.0000000000
11
-35.0838298572
21
-38.5617114102
31
0.0000000000
0
SPLINE
5
398
100
AcDbEntity
8
0
100
AcDbSpline
62
7
6
CONTINUOUS
70
0
71
3
72
13
73
9
74
7
42
0.0000001000
43
0.0000001000
44
0.0000000001
12
1.1445756328
22
0.5776730906
32
0.0000000000
13
0.0000162914
23
1.2779627156
33
0.0000000000
40
0.0000000000
40
0.0000000000
40
0.0000000000
40
0.0000000000
40
0.0892818737
40
0.2653986099
40
0.4475470125
40
0.6346834156
40
0.8194560535
40
1.0000000000
40
1.0000000000
40
1.0000000000
40
1.0000000000
10
48.3823236227
20
-93.5037200002
30
0.0000000000
10
48.4163869084
20
-93.4865280883
30
0.0000000000
10
48.5140685015
20
-93.4283389131
30
0.0000000000
10
48.6555170181
20
-93.2971317710
30
0.0000000000
10
48.7823189296
20
-93.0999580934
30
0.0000000000
10
48.8660942358
20
-92.8777759188
30
0.0000000000
10
48.9110490704
20
-92.6458991481
30
0.0000000000
10
48.9198201002
20
-92.4900817658
30
0.0000000000
10
48.9198210807
20
-92.4131722885
30
0.0000000000
11
48.3823236227
21
-93.5037200002
31
0.0000000000
11
48.4805464755
21
-93.4451575157
31
0.0000000000
11
48.6463764065
21
-93.2929825537
31
0.0000000000
11
48.7738558802
21
-93.0982134985
31
0.0000000000
11
48.8598762359
21
-92.8750659661
31
0.0000000000
11
48.9060322015
21
-92.6434883240
31
0.0000000000
11
48.9198210807
21
-92.4131722885
31
0.0000000000
0
SPLINE
5
399
100
AcDbEntity
8
0
100
AcDbSpline
62
7
6
CONTINUOUS
70
0
71
3
72
9
73
5
74
3
42
0.0000001000
43
0.0000001000
44
0.0000000001
12
0.2160651527
22
-0.0816209415
32
0.0000000000
13
0.2313844134
23
-0.0044495633
33
0.0000000000
40
0.0000000000
40
0.0000000000
40
0.0000000000
40
0.0000000000
40
0.4883269735
40
1.0000000000
40
1.0000000000
40
1.0000000000
40
1.0000000000
10
30.0834180193
20
-71.1453353485
30
0.0000000000
10
30.1185881667
20
-71.1586212509
30
0.0000000000
10
30.1925993896
20
-71.1809764836
30
0.0000000000
10
30.2694322395
20
-71.1906294755
30
0.0000000000
10
30.3088966272
20
-71.1913883827
30
0.0000000000
11
30.0834180193
21
-71.1453353485
31
0.0000000000
11
30.1915443739
21
-71.1774255598
31
0.0000000000
11
30.3088966272
21
-71.1913883827
31
0.0000000000
0
SPLINE
5
39A
100
AcDbEntity
8
0
100
AcDbSpline
62
7
6
CONTINUOUS
70
0
71
3
72
9
73
5
74
3
42
0.0000001000
43
0.0000001000
44
0.0000000001
12
0.2257048925
22
-0.0043403451
32
0.0000000000
13
0.2039927168
23
0.0975016378
33
0.0000000000
40
0.0000000000
40
0.0000000000
40
0.0000000000
40
0.0000000000
40
0.5555675469
40
1.0000000000
40
1.0000000000
40
1.0000000000
40
1.0000000000
10
30.3088966272
20
-71.1913883827
30
0.0000000000
10
30.3506947316
20
-71.1921921676
30
0.0000000000
10
30.4262347688
20
-71.1851984190
30
0.0000000000
10
30.4979258623
20
-71.1603591652
30
0.0000000000
10
30.5281461901
20
-71.1459148678
30
0.0000000000
11
30.3088966272
21
-71.1913883827
31
0.0000000000
11
30.4334419210
21
-71.1789130584
31
0.0000000000
11
30.5281461901
21
-71.1459148678
31
0.0000000000
0
SPLINE
5
39B
100
AcDbEntity
8
0
100
AcDbSpline
62
7
6
CONTINUOUS
70
0
71
3
72
10
73
6
74
4
42
0.0000001000
43
0.0000001000
44
0.0000000001
12
0.6425708927
22
-0.2892337832
32
0.0000000000
13
0.6302720260
23
0.3151360130
33
0.0000000000
40
0.0000000000
40
0.0000000000
40
0.0000000000
40
0.0000000000
40
0.3256614742
40
0.6808665158
40
1.0000000000
40
1.0000000000
40
1.0000000000
40
1.0000000000
10
48.2317361989
20
-92.4221970204
30
0.0000000000
10
48.3014897270
20
-92.4535944538
30
0.0000000000
10
48.4602548758
20
-92.4904663950
30
0.0000000000
10
48.6963623513
20
-92.4876443540
30
0.0000000000
10
48.8527741115
20
-92.4466957731
30
0.0000000000
10
48.9198210807
20
-92.4131722885
30
0.0000000000
11
48.2317361989
21
-92.4221970204
31
0.0000000000
11
48.4538217169
21
-92.4799915204
31
0.0000000000
11
48.7041009460
21
-92.4767089269
31
0.0000000000
11
48.9198210807
21
-92.4131722885
31
0.0000000000
0
SPLINE
5
39C
100
AcDbEntity
8
0
100
AcDbSpline
62
7
6
CONTINUOUS
70
0
71
3
72
9
73
5
74
3
42
0.0000001000
43
0.0000001000
44
0.0000000001
12
0.0000000001
22
-0.3096144460
32
0.0000000000
13
0.2823886409
23
-0.1385590303
33
0.0000000000
40
0.0000000000
40
0.0000000000
40
0.0000000000
40
0.0000000000
40
0.6357010821
40
1.0000000000
40
1.0000000000
40
1.0000000000
40
1.0000000000
10
47.1155708881
20
-93.2182646271
30
0.0000000000
10
47.1155708881
20
-93.2838720399
30
0.0000000000
10
47.1290084439
20
-93.3932542158
30
0.0000000000
10
47.2112121388
20
-93.4703742427
30
0.0000000000
10
47.2455034309
20
-93.4871998776
30
0.0000000000
11
47.1155708881
21
-93.2182646271
31
0.0000000000
11
47.1604449135
21
-93.4099031288
31
0.0000000000
11
47.2455034309
21
-93.4871998776
31
0.0000000000
0
SPLINE
5
39D
100
AcDbEntity
8
0
100
AcDbSpline
62
7
6
CONTINUOUS
70
0
71
3
72
9
73
5
74
3
42
0.0000001000
43
0.0000001000
44
0.0000000001
12
0.2876684484
22
-0.1297765512
32
0.0000000000
13
0.3136963689
23
-0.0386402816
33
0.0000000000
40
0.0000000000
40
0.0000000000
40
0.0000000000
40
0.0000000000
40
0.4849581943
40
1.0000000000
40
1.0000000000
40
1.0000000000
40
1.0000000000
10
47.1155708881
20
-93.2182646271
30
0.0000000000
10
47.1620732785
20
-93.2392433611
30
0.0000000000
10
47.2607153953
20
-93.2767648642
30
0.0000000000
10
47.3639428181
20
-93.2993640276
30
0.0000000000
10
47.4177983995
20
-93.3059978144
30
0.0000000000
11
47.1155708881
21
-93.2182646271
31
0.0000000000
11
47.2588262769
21
-93.2721265796
31
0.0000000000
11
47.4177983995
21
-93.3059978144
31
0.0000000000
0
SPLINE
5
39E
100
AcDbEntity
8
0
100
AcDbSpline
62
7
6
CONTINUOUS
70
0
71
3
72
9
73
5
74
3
42
0.0000001000
43
0.0000001000
44
0.0000000001
12
0.2772439464
22
-0.0341501695
32
0.0000000000
13
0.2708439800
23
0.0695107535
33
0.0000000000
40
0.0000000000
40
0.0000000000
40
0.0000000000
40
0.0000000000
40
0.5995416298
40
1.0000000000
40
1.0000000000
40
1.0000000000
40
1.0000000000
10
47.4177983995
20
-93.3059978144
30
0.0000000000
10
47.4732048287
20
-93.3128226305
30
0.0000000000
10
47.5668360808
20
-93.3153689825
30
0.0000000000
10
47.6591003965
20
-93.2998530748
30
0.0000000000
10
47.6952543094
20
-93.2905743538
30
0.0000000000
11
47.4177983995
21
-93.3059978144
31
0.0000000000
11
47.5849851502
21
-93.3093834363
31
0.0000000000
11
47.6952543094
21
-93.2905743538
31
0.0000000000
0
SPLINE
5
39F
100
AcDbEntity
8
0
100
AcDbSpline
62
7
6
CONTINUOUS
70
0
71
3
72
14
73
10
74
8
42
0.0000001000
43
0.0000001000
44
0.0000000001
12
1.0683135998
22
0.2741773448
32
0.0000000000
13
0.0000262640
23
1.1001479994
33
0.0000000000
40
0.0000000000
40
0.0000000000
40
0.0000000000
40
0.0000000000
40
0.0505414464
40
0.2028630215
40
0.3578552910
40
0.5176486483
40
0.6813554421
40
0.8426405433
40
1.0000000000
40
1.0000000000
40
1.0000000000
40
1.0000000000
10
47.6952543094
20
-93.2905743538
30
0.0000000000
10
47.7132523476
20
-93.2859552473
30
0.0000000000
10
47.7847028883
20
-93.2643660791
30
0.0000000000
10
47.9031349009
20
-93.2041025540
30
0.0000000000
10
48.0306535850
20
-93.0867219752
30
0.0000000000
10
48.1271127130
20
-92.9382505541
30
0.0000000000
10
48.1908599729
20
-92.7711248441
30
0.0000000000
10
48.2250594047
20
-92.5969065599
30
0.0000000000
10
48.2317348213
20
-92.4799032509
30
0.0000000000
10
48.2317361989
20
-92.4221970204
30
0.0000000000
11
47.6952543094
21
-93.2905743538
31
0.0000000000
11
47.7485871099
21
-93.2744173216
31
0.0000000000
11
47.8978756595
21
-93.1982941498
31
0.0000000000
11
48.0238935425
21
-93.0834261134
31
0.0000000000
11
48.1207912906
21
-92.9367455748
31
0.0000000000
11
48.1861816012
21
-92.7689339832
31
0.0000000000
11
48.2212598480
21
-92.5949984307
31
0.0000000000
11
48.2317361989
21
-92.4221970204
31
0.0000000000
0
SPLINE
5
3A0
100
AcDbEntity
8
0
100
AcDbSpline
62
7
6
CONTINUOUS
70
0
71
3
72
9
73
5
74
3
42
0.0000001000
43
0.0000001000
44
0.0000000001
12
-0.0000000000
22
-0.3077331416
32
0.0000000000
13
0.2730417849
23
-0.1571051379
33
0.0000000000
40
0.0000000000
40
0.0000000000
40
0.0000000000
40
0.0000000000
40
0.6510217743
40
1.0000000000
40
1.0000000000
40
1.0000000000
40
1.0000000000
10
-50.8550037043
20
-44.2329773309
30
0.0000000000
10
-50.8550037043
20
-44.2997576562
30
0.0000000000
10
-50.8367951125
20
-44.4086710143
30
0.0000000000
10
-50.7571772534
20
-44.4833230374
30
0.0000000000
10
-50.7254153741
20
-44.5015984615
30
0.0000000000
11
-50.8550037043
21
-44.2329773309
31
0.0000000000
11
-50.8052682749
21
-44.4270466321
31
0.0000000000
11
-50.7254153741
21
-44.5015984615
31
0.0000000000
0
SPLINE
5
3A1
100
AcDbEntity
8
0
100
AcDbSpline
62
7
6
CONTINUOUS
70
0
71
3
72
8
73
4
74
2
42
0.0000001000
43
0.0000001000
44
0.0000000001
12
0.2122675142
22
-0.1176314864
32
0.0000000000
13
0.2122911862
23
-0.1175891319
33
0.0000000000
40
0.0000000000
40
0.0000000000
40
0.0000000000
40
0.0000000000
40
1.0000000000
40
1.0000000000
40
1.0000000000
40
1.0000000000
10
-50.8550037043
20
-44.2329773309
30
0.0000000000
10
-50.7842478662
20
-44.2721878264
30
0.0000000000
10
-50.7134880812
20
-44.3113912617
30
0.0000000000
10
-50.6427243525
20
-44.3505876390
30
0.0000000000
11
-50.8550037043
21
-44.2329773309
31
0.0000000000
11
-50.6427243525
21
-44.3505876390
31
0.0000000000
0
SPLINE
5
3A2
100
AcDbEntity
8
0
100
AcDbSpline
62
7
6
CONTINUOUS
70
0
71
3
72
10
73
6
74
4
42
0.0000001000
43
0.0000001000
44
0.0000000001
12
95.6291316193
22
-52.9694462447
32
0.0000000000
13
99.6483643285
23
-44.9541854019
33
0.0000000000
40
0.0000000000
40
0.0000000000
40
0.0000000000
40
0.0000000000
40
0.3249733022
40
0.6590921312
40
1.0000000000
40
1.0000000000
40
1.0000000000
40
1.0000000000
10
-50.6427243525
20
-44.3505876390
30
0.0000000000
10
-40.2837527888
20
-50.0884729267
30
0.0000000000
10
-19.1028814704
20
-61.4189657516
30
0.0000000000
10
13.4980211376
20
-77.7079655792
30
0.0000000000
10
35.7919337185
20
-88.1098527814
30
0.0000000000
10
47.1155708881
20
-93.2182646271
30
0.0000000000
11
-50.6427243525
21
-44.3505876390
31
0.0000000000
11
-19.3223634964
21
-61.1172054346
31
0.0000000000
11
13.3471124004
21
-77.4519434214
31
0.0000000000
11
47.1155708881
21
-93.2182646271
31
0.0000000000
0
SPLINE
5
3A3
100
AcDbEntity
8
0
100
AcDbSpline
62
7
6
CONTINUOUS
70
0
71
3
72
9
73
5
74
3
42
0.0000001000
43
0.0000001000
44
0.0000000001
12
-0.1891627527
22
0.1050624844
32
0.0000000000
13
0.0032587952
23
0.2244044556
33
0.0000000000
40
0.0000000000
40
0.0000000000
40
0.0000000000
40
0.0000000000
40
0.7407542678
40
1.0000000000
40
1.0000000000
40
1.0000000000
40
1.0000000000
10
-51.8609447022
20
-42.3758565698
30
0.0000000000
10
-51.9076524077
20
-42.3499147419
30
0.0000000000
10
-51.9743596202
20
-42.3024768124
30
0.0000000000
10
-51.9864921774
20
-42.2280282686
30
0.0000000000
10
-51.9862105678
20
-42.2086363028
30
0.0000000000
11
-51.8609447022
21
-42.3758565698
31
0.0000000000
11
-51.9765336775
21
-42.2648138643
31
0.0000000000
11
-51.9862105678
21
-42.2086363028
31
0.0000000000
0
SPLINE
5
3A4
100
AcDbEntity
8
0
100
AcDbSpline
62
7
6
CONTINUOUS
70
0
71
3
72
9
73
5
74
3
42
0.0000001000
43
0.0000001000
44
0.0000000001
12
0.0000062390
22
-0.3148110321
32
0.0000000000
13
0.0515517521
23
-0.3106816667
33
0.0000000000
40
0.0000000000
40
0.0000000000
40
0.0000000000
40
0.0000000000
40
0.5735302210
40
1.0000000000
40
1.0000000000
40
1.0000000000
40
1.0000000000
10
-51.8609447022
20
-42.3758565698
30
0.0000000000
10
-51.8609435095
20
-42.4360411167
30
0.0000000000
10
-51.8553233005
20
-42.5410305742
30
0.0000000000
10
-51.8413749920
20
-42.6451260726
30
0.0000000000
10
-51.8340465705
20
-42.6892915199
30
0.0000000000
11
-51.8609447022
21
-42.3758565698
31
0.0000000000
11
-51.8517573707
21
-42.5561763141
31
0.0000000000
11
-51.8340465705
21
-42.6892915199
31
0.0000000000
0
SPLINE
5
3A5
100
AcDbEntity
8
0
100
AcDbSpline
62
7
6
CONTINUOUS
70
0
71
3
72
16
73
12
74
10
42
0.0000001000
43
0.0000001000
44
0.0000000001
12
0.3082239890
22
-1.8575419582
32
0.0000000000
13
1.6463381356
23
-0.9123402488
33
0.0000000000
40
0.0000000000
40
0.0000000000
40
0.0000000000
40
0.0000000000
40
0.0379856390
40
0.1617652216
40
0.2949573663
40
0.4327236422
40
0.5695303289
40
0.6992349303
40
0.8164784729
40
0.9169247674
40
1.0000000000
40
1.0000000000
40
1.0000000000
40
1.0000000000
10
-51.8340465705
20
-42.6892915199
30
0.0000000000
10
-51.8301438755
20
-42.7128114926
30
0.0000000000
10
-51.8118573515
20
-42.8126978575
30
0.0000000000
10
-51.7662467966
20
-42.9923605164
30
0.0000000000
10
-51.6820707716
20
-43.2257009132
30
0.0000000000
10
-51.5718570262
20
-43.4570510483
30
0.0000000000
10
-51.4400214784
20
-43.6742757008
30
0.0000000000
10
-51.2938909194
20
-43.8662223735
30
0.0000000000
10
-51.1431511810
20
-44.0243215129
30
0.0000000000
10
-50.9976369572
20
-44.1451263877
30
0.0000000000
10
-50.9005936788
20
-44.2077130381
30
0.0000000000
10
-50.8550037043
20
-44.2329773309
30
0.0000000000
11
-51.8340465705
21
-42.6892915199
31
0.0000000000
11
-51.8211848279
21
-42.7596474386
31
0.0000000000
11
-51.7642077537
21
-42.9855547734
31
0.0000000000
11
-51.6793115364
21
-43.2214410169
31
0.0000000000
11
-51.5677395656
21
-43.4555186098
31
0.0000000000
11
-51.4338648157
21
-43.6754839023
31
0.0000000000
11
-51.2855268098
21
-43.8693840416
31
0.0000000000
11
-51.1327117629
21
-44.0285913864
31
0.0000000000
11
-50.9867602545
21
-44.1487705385
31
0.0000000000
11
-50.8550037043
21
-44.2329773309
31
0.0000000000
0
SPLINE
5
3A6
100
AcDbEntity
8
0
100
AcDbSpline
62
7
6
CONTINUOUS
70
0
71
3
72
9
73
5
74
3
42
0.0000001000
43
0.0000001000
44
0.0000000001
12
-0.1888384521
22
0.1048823649
32
0.0000000000
13
0.0027295090
23
0.2240048799
33
0.0000000000
40
0.0000000000
40
0.0000000000
40
0.0000000000
40
0.0000000000
40
0.7420266528
40
1.0000000000
40
1.0000000000
40
1.0000000000
40
1.0000000000
10
-51.8609447022
20
89.2600048054
30
0.0000000000
10
-51.9076524237
20
89.2859466422
30
0.0000000000
10
-51.9742452796
20
89.3333032576
30
0.0000000000
10
-51.9864504202
20
89.4075779350
30
0.0000000000
10
-51.9862157067
20
89.4268403646
30
0.0000000000
11
-51.8609447022
21
89.2600048054
31
0.0000000000
11
-51.9765337023
21
89.3710475644
31
0.0000000000
11
-51.9862157067
21
89.4268403646
31
0.0000000000
0
SPLINE
5
3A7
100
AcDbEntity
8
0
100
AcDbSpline
62
7
6
CONTINUOUS
70
0
71
3
72
10
73
6
74
4
42
0.0000001000
43
0.0000001000
44
0.0000000001
12
-0.0000000003
22
0.7360180935
32
0.0000000000
13
0.6709071833
23
0.3026651373
33
0.0000000000
40
0.0000000000
40
0.0000000000
40
0.0000000000
40
0.0000000000
40
0.3316011358
40
0.6826837656
40
1.0000000000
40
1.0000000000
40
1.0000000000
40
1.0000000000
10
-50.8550037043
20
90.0009602557
30
0.0000000000
10
-50.8550037043
20
90.0823150676
30
0.0000000000
10
-50.8157862906
20
90.2502007670
30
0.0000000000
10
-50.6860915311
20
90.4619341501
30
0.0000000000
10
-50.5547366676
20
90.5694318799
30
0.0000000000
10
-50.4837734206
20
90.6014454004
30
0.0000000000
11
-50.8550037043
21
90.0009602557
31
0.0000000000
11
-50.8052683661
21
90.2399034392
31
0.0000000000
11
-50.6693886975
21
90.4596963253
31
0.0000000000
11
-50.4837734206
21
90.6014454004
31
0.0000000000
0
SPLINE
5
3A8
100
AcDbEntity
8
0
100
AcDbSpline
62
7
6
CONTINUOUS
70
0
71
3
72
12
73
8
74
6
42
0.0000001000
43
0.0000001000
44
0.0000000001
12
-0.7863242998
22
0.4246830438
32
0.0000000000
13
-0.8034274872
23
-0.3990368478
33
0.0000000000
40
0.0000000000
40
0.0000000000
40
0.0000000000
40
0.0000000000
40
0.2148921046
40
0.4400070907
40
0.6684860309
40
0.8953180895
40
1.0000000000
40
1.0000000000
40
1.0000000000
40
1.0000000000
10
-50.4837734206
20
90.6014454004
30
0.0000000000
10
-50.5400983818
20
90.6318657448
30
0.0000000000
10
-50.6594096061
20
90.6872118539
30
0.0000000000
10
-50.8517483761
20
90.7425578274
30
0.0000000000
10
-51.0556167711
20
90.7584847297
30
0.0000000000
10
-51.2219439444
20
90.7285037269
30
0.0000000000
10
-51.3136665535
20
90.6903550563
30
0.0000000000
10
-51.3417013283
20
90.6764310764
30
0.0000000000
11
-50.4837734206
21
90.6014454004
31
0.0000000000
11
-50.6583761334
21
90.6814140202
31
0.0000000000
11
-50.8521095231
21
90.7356445753
31
0.0000000000
11
-51.0558118589
21
90.7497012784
31
0.0000000000
11
-51.2550678990
21
90.7124133192
31
0.0000000000
11
-51.3417013283
21
90.6764310764
31
0.0000000000
0
SPLINE
5
3A9
100
AcDbEntity
8
0
100
AcDbSpline
62
7
6
CONTINUOUS
70
0
71
3
72
13
73
9
74
7
42
0.0000001000
43
0.0000001000
44
0.0000000001
12
0.7340785952
22
-0.2792528156
32
0.0000000000
13
0.4219152289
23
0.6653605699
33
0.0000000000
40
0.0000000000
40
0.0000000000
40
0.0000000000
40
0.0000000000
40
0.1563340512
40
0.3200743904
40
0.4934197262
40
0.6762158765
40
0.8680935147
40
1.0000000000
40
1.0000000000
40
1.0000000000
40
1.0000000000
10
30.0203183639
20
-71.2708270144
30
0.0000000000
10
30.0585721908
20
-71.2853792557
30
0.0000000000
10
30.1390732323
20
-71.3098901027
30
0.0000000000
10
30.2679614163
20
-71.3263286385
30
0.0000000000
10
30.4048896535
20
-71.3138143990
30
0.0000000000
10
30.5408320102
20
-71.2615544306
30
0.0000000000
10
30.6457811901
20
-71.1770001258
30
0.0000000000
10
30.6974190734
20
-71.1090707949
30
0.0000000000
10
30.7159701917
20
-71.0798156702
30
0.0000000000
11
30.0203183639
21
-71.2708270144
31
0.0000000000
11
30.1379516917
21
-71.3060194450
31
0.0000000000
11
30.2656249962
21
-71.3214442464
31
0.0000000000
11
30.4011077036
21
-71.3080269433
31
0.0000000000
11
30.5349326092
21
-71.2560393973
31
0.0000000000
11
30.6527828300
21
-71.1621136886
31
0.0000000000
11
30.7159701917
21
-71.0798156702
31
0.0000000000
0
SPLINE
5
3AA
100
AcDbEntity
8
0
100
AcDbSpline
62
7
6
CONTINUOUS
70
0
71
3
72
9
73
5
74
3
42
0.0000001000
43
0.0000001000
44
0.0000000001
12
0.0827160415
22
0.1304432473
32
0.0000000000
13
0.0513426766
23
0.1454481942
33
0.0000000000
40
0.0000000000
40
0.0000000000
40
0.0000000000
40
0.0000000000
40
0.3356700321
40
1.0000000000
40
1.0000000000
40
1.0000000000
40
1.0000000000
10
30.7159701917
20
-71.0798156702
30
0.0000000000
10
30.7252252905
20
-71.0652203738
30
0.0000000000
10
30.7509542023
20
-71.0205667032
30
0.0000000000
10
30.7712772195
20
-70.9732167892
30
0.0000000000
10
30.7826467124
20
-70.9410082578
30
0.0000000000
11
30.7159701917
21
-71.0798156702
31
0.0000000000
11
30.7418890340
21
-71.0349387782
31
0.0000000000
11
30.7826467124
21
-70.9410082578
31
0.0000000000
0
SPLINE
5
3AB
100
AcDbEntity
8
0
100
AcDbSpline
62
7
6
CONTINUOUS
70
0
71
3
72
10
73
6
74
4
42
0.0000001000
43
0.0000001000
44
0.0000000001
12
0.0957676239
22
0.2712992174
32
0.0000000000
13
0.0107906908
23
0.2871611617
33
0.0000000000
40
0.0000000000
40
0.0000000000
40
0.0000000000
40
0.0000000000
40
0.1747465201
40
0.6794577277
40
1.0000000000
40
1.0000000000
40
1.0000000000
40
1.0000000000
10
30.7826467124
20
-70.9410082578
30
0.0000000000
10
30.7882250654
20
-70.9252053931
30
0.0000000000
10
30.8079197788
20
-70.8630555300
30
0.0000000000
10
30.8261552559
20
-70.7687041461
30
0.0000000000
10
30.8322470639
20
-70.6898003667
30
0.0000000000
10
30.8334000214
20
-70.6591179363
30
0.0000000000
11
30.7826467124
21
-70.9410082578
31
0.0000000000
11
30.7978722965
21
-70.8931078295
31
0.0000000000
11
30.8261634101
21
-70.7509385674
31
0.0000000000
11
30.8334000214
21
-70.6591179363
31
0.0000000000
0
SPLINE
5
3AC
100
AcDbEntity
8
0
100
AcDbSpline
62
7
6
CONTINUOUS
70
0
71
3
72
8
73
4
74
2
42
0.0000001000
43
0.0000001000
44
0.0000000001
12
0.0016904187
22
0.0449853119
32
0.0000000000
13
0.0000001726
23
0.0449925705
33
0.0000000000
40
0.0000000000
40
0.0000000000
40
0.0000000000
40
0.0000000000
40
1.0000000000
40
1.0000000000
40
1.0000000000
40
1.0000000000
10
30.8334000214
20
-70.6591179363
30
0.0000000000
10
30.8339634943
20
-70.6441228323
30
0.0000000000
10
30.8342371976
20
-70.6291193971
30
0.0000000000
10
30.8342372551
20
-70.6141218736
30
0.0000000000
11
30.8334000214
21
-70.6591179363
31
0.0000000000
11
30.8342372551
21
-70.6141218736
31
0.0000000000
0
SPLINE
5
3AD
100
AcDbEntity
8
0
100
AcDbSpline
62
7
6
CONTINUOUS
70
0
71
3
72
13
73
9
74
7
42
0.0000001000
43
0.0000001000
44
0.0000000001
12
-0.7883947106
22
0.4369053689
32
0.0000000000
13
-0.5637470133
23
-0.7065439814
33
0.0000000000
40
0.0000000000
40
0.0000000000
40
0.0000000000
40
0.0000000000
40
0.1584859157
40
0.3241277081
40
0.4918467245
40
0.6581280153
40
0.8257066438
40
1.0000000000
40
1.0000000000
40
1.0000000000
40
1.0000000000
10
-50.8550037043
20
90.0009602557
30
0.0000000000
10
-50.8966535235
20
90.0240413715
30
0.0000000000
10
-50.9848487434
20
90.0661219663
30
0.0000000000
10
-51.1271636293
20
90.1086494521
30
0.0000000000
10
-51.2780789661
20
90.1217122537
30
0.0000000000
10
-51.4285261711
20
90.0953404866
30
0.0000000000
10
-51.5665088120
20
90.0245808593
30
0.0000000000
10
-51.6410451415
20
89.9519347648
30
0.0000000000
10
-51.6737975945
20
89.9108861242
30
0.0000000000
11
-50.8550037043
21
90.0009602557
31
0.0000000000
11
-50.9842382217
21
90.0618326439
31
0.0000000000
11
-51.1276077643
21
90.1035051687
31
0.0000000000
11
-51.2783363919
21
90.1151198522
31
0.0000000000
11
-51.4257842099
21
90.0882308083
31
0.0000000000
11
-51.5602897327
21
90.0194991499
31
0.0000000000
11
-51.6737975945
21
89.9108861242
31
0.0000000000
0
SPLINE
5
3AE
100
AcDbEntity
8
0
100
AcDbSpline
62
7
6
CONTINUOUS
70
0
71
3
72
11
73
7
74
5
42
0.0000001000
43
0.0000001000
44
0.0000000001
12
-0.3949613697
22
-0.4950049792
32
0.0000000000
13
-0.0222417500
23
-0.6314077860
33
0.0000000000
40
0.0000000000
40
0.0000000000
40
0.0000000000
40
0.0000000000
40
0.2637387596
40
0.5404952391
40
0.8177089544
40
1.0000000000
40
1.0000000000
40
1.0000000000
40
1.0000000000
10
-51.6737975945
20
89.9108861242
30
0.0000000000
10
-51.7085198018
20
89.8673687911
30
0.0000000000
10
-51.7675911818
20
89.7689450672
30
0.0000000000
10
-51.8244793583
20
89.6054863778
30
0.0000000000
10
-51.8516599450
20
89.4524122543
30
0.0000000000
10
-51.8585925515
20
89.3557968496
30
0.0000000000
10
-51.8599440421
20
89.3174301877
30
0.0000000000
11
-51.6737975945
21
89.9108861242
31
0.0000000000
11
-51.7610566301
21
89.7690249417
31
0.0000000000
11
-51.8199327910
21
89.6044704250
31
0.0000000000
11
-51.8515133805
21
89.4322837012
31
0.0000000000
11
-51.8599440421
21
89.3174301877
31
0.0000000000
0
SPLINE
5
3AF
100
AcDbEntity
8
0
100
AcDbSpline
62
7
6
CONTINUOUS
70
0
71
3
72
8
73
4
74
2
42
0.0000001000
43
0.0000001000
44
0.0000000001
12
-0.0020224196
22
-0.0574132654
32
0.0000000000
13
-0.0000012304
23
-0.0574211223
33
0.0000000000
40
0.0000000000
40
0.0000000000
40
0.0000000000
40
0.0000000000
40
1.0000000000
40
1.0000000000
40
1.0000000000
40
1.0000000000
10
-51.8599440421
20
89.3174301877
30
0.0000000000
10
-51.8606181820
20
89.2982924326
30
0.0000000000
10
-51.8609442921
20
89.2791451795
30
0.0000000000
10
-51.8609447022
20
89.2600048054
30
0.0000000000
11
-51.8599440421
21
89.3174301877
31
0.0000000000
11
-51.8609447022
21
89.2600048054
31
0.0000000000
0
SPLINE
5
3B0
100
AcDbEntity
8
0
100
AcDbSpline
62
7
6
CONTINUOUS
70
0
71
3
72
10
73
6
74
4
42
0.0000001000
43
0.0000001000
44
0.0000000001
12
-0.0000000000
22
0.7283773575
32
0.0000000000
13
0.6370917716
23
0.3530547401
33
0.0000000000
40
0.0000000000
40
0.0000000000
40
0.0000000000
40
0.0000000000
40
0.3370642060
40
0.6905797124
40
1.0000000000
40
1.0000000000
40
1.0000000000
40
1.0000000000
10
47.1155708881
20
41.0156729595
30
0.0000000000
10
47.1155708881
20
41.0975096047
30
0.0000000000
10
47.1507141813
20
41.2655205857
30
0.0000000000
10
47.2658402472
20
41.4816331446
30
0.0000000000
10
47.3848060674
20
41.5978867035
30
0.0000000000
10
47.4505157738
20
41.6343008032
30
0.0000000000
11
47.1155708881
21
41.0156729595
31
0.0000000000
11
47.1604449967
21
41.2570470320
31
0.0000000000
11
47.2830433367
21
41.4834805380
31
0.0000000000
11
47.4505157738
21
41.6343008032
31
0.0000000000
0
SPLINE
5
3B1
100
AcDbEntity
8
0
100
AcDbSpline
62
7
6
CONTINUOUS
70
0
71
3
72
10
73
6
74
4
42
0.0000001000
43
0.0000001000
44
0.0000000001
12
-99.8325892502
22
45.0372944558
32
0.0000000000
13
-95.7952429624
23
53.0864878671
33
0.0000000000
40
0.0000000000
40
0.0000000000
40
0.0000000000
40
0.0000000000
40
0.3401519010
40
0.6735317622
40
1.0000000000
40
1.0000000000
40
1.0000000000
40
1.0000000000
10
47.4505157738
20
41.6343008032
30
0.0000000000
10
36.1311007676
20
46.7408079121
30
0.0000000000
10
13.8454360422
20
57.1388458441
30
0.0000000000
10
-18.8157378878
20
73.4579592501
30
0.0000000000
10
-40.0590720333
20
84.8244280184
30
0.0000000000
10
-50.4837734206
20
90.6014454004
30
0.0000000000
11
47.4505157738
21
41.6343008032
31
0.0000000000
11
13.6946477384
21
57.3947421546
31
0.0000000000
11
-18.9628378242
21
73.7234840680
31
0.0000000000
11
-50.4837734206
21
90.6014454004
31
0.0000000000
0
SPLINE
5
3B2
100
AcDbEntity
8
0
100
AcDbSpline
62
7
6
CONTINUOUS
70
0
71
3
72
10
73
6
74
4
42
0.0000001000
43
0.0000001000
44
0.0000000001
12
-99.8695779807
22
45.0539811146
32
0.0000000000
13
-95.8307358256
23
53.1061568130
33
0.0000000000
40
0.0000000000
40
0.0000000000
40
0.0000000000
40
0.0000000000
40
0.3401527492
40
0.6735314965
40
1.0000000000
40
1.0000000000
40
1.0000000000
40
1.0000000000
10
47.1155708881
20
41.0156729595
30
0.0000000000
10
35.7919337185
20
46.1240848052
30
0.0000000000
10
13.4980211376
20
56.5259720074
30
0.0000000000
10
-19.1752536040
20
72.8511324801
30
0.0000000000
10
-40.4264313993
20
84.2217977418
30
0.0000000000
10
-50.8550037043
20
90.0009602557
30
0.0000000000
11
47.1155708881
21
41.0156729595
31
0.0000000000
11
13.3471124004
21
56.7819941652
31
0.0000000000
11
-19.3223634964
21
73.1167321519
31
0.0000000000
11
-50.8550037043
21
90.0009602557
31
0.0000000000
0
SPLINE
5
3B3
100
AcDbEntity
8
0
100
AcDbSpline
62
7
6
CONTINUOUS
70
0
71
3
72
9
73
5
74
3
42
0.0000001000
43
0.0000001000
44
0.0000000001
12
0.0000022033
22
0.1980401912
32
0.0000000000
13
-0.0287670633
23
0.1960382385
33
0.0000000000
40
0.0000000000
40
0.0000000000
40
0.0000000000
40
0.0000000000
40
0.7295933417
40
1.0000000000
40
1.0000000000
40
1.0000000000
40
1.0000000000
10
30.8342372551
20
33.3449461455
30
0.0000000000
10
30.8342377910
20
33.3931090805
30
0.0000000000
10
30.8303684454
20
33.4591627194
30
0.0000000000
10
30.8219543585
20
33.5246828943
30
0.0000000000
10
30.8193614234
20
33.5423529092
30
0.0000000000
11
30.8342372551
21
33.3449461455
31
0.0000000000
11
30.8261724984
21
33.4892097044
31
0.0000000000
11
30.8193614234
21
33.5423529092
31
0.0000000000
0
SPLINE
5
3B4
100
AcDbEntity
8
0
100
AcDbSpline
62
7
6
CONTINUOUS
70
0
71
3
72
9
73
5
74
3
42
0.0000001000
43
0.0000001000
44
0.0000000001
12
-0.0457354423
22
0.3116722572
32
0.0000000000
13
-0.1039289768
23
0.2974119510
33
0.0000000000
40
0.0000000000
40
0.0000000000
40
0.0000000000
40
0.0000000000
40
0.3682470357
40
1.0000000000
40
1.0000000000
40
1.0000000000
40
1.0000000000
10
30.8193614234
20
33.5423529092
30
0.0000000000
10
30.8137474430
20
33.5806103708
30
0.0000000000
10
30.7944579326
20
33.6839018515
30
0.0000000000
10
30.7652784335
20
33.7849619911
30
0.0000000000
10
30.7433926205
20
33.8475922850
30
0.0000000000
11
30.8193614234
21
33.5423529092
31
0.0000000000
11
30.7981996923
21
33.6563813510
31
0.0000000000
11
30.7433926205
21
33.8475922850
31
0.0000000000
0
SPLINE
5
3B5
100
AcDbEntity
8
0
100
AcDbSpline
62
7
6
CONTINUOUS
70
0
71
3
72
9
73
5
74
3
42
0.0000001000
43
0.0000001000
44
0.0000000001
12
-0.1517754350
22
0.4343334229
32
0.0000000000
13
-0.2529871615
23
0.3843280723
33
0.0000000000
40
0.0000000000
40
0.0000000000
40
0.0000000000
40
0.0000000000
40
0.4877718245
40
1.0000000000
40
1.0000000000
40
1.0000000000
40
1.0000000000
10
30.7433926205
20
33.8475922850
30
0.0000000000
10
30.7187153602
20
33.9182108203
30
0.0000000000
10
30.6591271331
20
34.0598224283
30
0.0000000000
10
30.5828704346
20
34.1932277248
30
0.0000000000
10
30.5396747172
20
34.2588489472
30
0.0000000000
11
30.7433926205
21
33.8475922850
31
0.0000000000
11
30.6566186584
21
34.0544066684
31
0.0000000000
11
30.5396747172
21
34.2588489472
31
0.0000000000
0
SPLINE
5
3B6
100
AcDbEntity
8
0
100
AcDbSpline
62
7
6
CONTINUOUS
70
0
71
3
72
11
73
7
74
5
42
0.0000001000
43
0.0000001000
44
0.0000000001
12
-0.3777523777
22
0.5738664456
32
0.0000000000
13
-0.5880305982
23
0.3549657885
33
0.0000000000
40
0.0000000000
40
0.0000000000
40
0.0000000000
40
0.0000000000
40
0.3290348695
40
0.6170336915
40
0.8586723482
40
1.0000000000
40
1.0000000000
40
1.0000000000
40
1.0000000000
10
30.5396747172
20
34.2588489472
30
0.0000000000
10
30.4982434825
20
34.3217896375
30
0.0000000000
10
30.4134146284
20
34.4351412608
30
0.0000000000
10
30.2769748475
20
34.5772514382
30
0.0000000000
10
30.1579024796
20
34.6747444435
30
0.0000000000
10
30.0847013628
20
34.7232263489
30
0.0000000000
10
30.0569997016
20
34.7399485094
30
0.0000000000
11
30.5396747172
21
34.2588489472
31
0.0000000000
11
30.4040151276
21
34.4394856622
31
0.0000000000
11
30.2667005541
21
34.5817610717
31
0.0000000000
11
30.1380154096
21
34.6864677369
31
0.0000000000
11
30.0569997016
21
34.7399485094
31
0.0000000000
0
SPLINE
5
3B7
100
AcDbEntity
8
0
100
AcDbSpline
62
7
6
CONTINUOUS
70
0
71
3
72
8
73
4
74
2
42
0.0000001000
43
0.0000001000
44
0.0000000001
12
-0.0362899101
22
0.0219064732
32
0.0000000000
13
-0.0370706478
23
0.0205202619
33
0.0000000000
40
0.0000000000
40
0.0000000000
40
0.0000000000
40
0.0000000000
40
1.0000000000
40
1.0000000000
40
1.0000000000
40
1.0000000000
10
30.0569997016
20
34.7399485094
30
0.0000000000
10
30.0449030649
20
34.7472506671
30
0.0000000000
10
30.0326752465
20
34.7543298527
30
0.0000000000
10
30.0203183639
20
34.7611699400
30
0.0000000000
11
30.0569997016
21
34.7399485094
31
0.0000000000
11
30.0203183639
21
34.7611699400
31
0.0000000000
0
SPLINE
5
3B8
100
AcDbEntity
8
0
100
AcDbSpline
62
7
6
CONTINUOUS
70
0
71
3
72
10
73
6
74
4
42
0.0000001000
43
0.0000001000
44
0.0000000001
12
0.6425708923
22
-0.2892337844
32
0.0000000000
13
0.6302720256
23
0.3151360142
33
0.0000000000
40
0.0000000000
40
0.0000000000
40
0.0000000000
40
0.0000000000
40
0.3256613222
40
0.6808663819
40
1.0000000000
40
1.0000000000
40
1.0000000000
40
1.0000000000
10
48.2317361989
20
39.2136643548
30
0.0000000000
10
48.3014896944
20
39.1822669360
30
0.0000000000
10
48.4602548069
20
39.1453949898
30
0.0000000000
10
48.6963622829
20
39.1482170088
30
0.0000000000
10
48.8527740834
20
39.1891655880
30
0.0000000000
10
48.9198210807
20
39.2226890868
30
0.0000000000
11
48.2317361989
21
39.2136643548
31
0.0000000000
11
48.4538216094
21
39.1558698669
31
0.0000000000
11
48.7041008517
21
39.1591524345
31
0.0000000000
11
48.9198210807
21
39.2226890868
31
0.0000000000
0
SPLINE
5
3B9
100
AcDbEntity
8
0
100
AcDbSpline
62
7
6
CONTINUOUS
70
0
71
3
72
11
73
7
74
5
42
0.0000001000
43
0.0000001000
44
0.0000000001
12
-63.7328163245
22
35.2785845722
32
0.0000000000
13
-66.6083974553
23
29.4919326459
33
0.0000000000
40
0.0000000000
40
0.0000000000
40
0.0000000000
40
0.0000000000
40
0.2606227790
40
0.5144275341
40
0.7611937416
40
1.0000000000
40
1.0000000000
40
1.0000000000
40
1.0000000000
10
30.0203183639
20
34.7611699400
30
0.0000000000
10
24.4835771281
20
37.8259708574
30
0.0000000000
10
13.4951020610
20
43.7681404139
30
0.0000000000
10
-2.9445320362
20
52.2189639168
30
0.0000000000
10
-19.0901660848
20
60.0736302128
30
0.0000000000
10
-29.8114069135
20
64.9832746947
30
0.0000000000
10
-35.1135743048
20
67.3308940574
30
0.0000000000
11
30.0203183639
21
34.7611699400
31
0.0000000000
11
13.3182266421
21
43.7876147378
31
0.0000000000
11
-3.1273816710
21
52.2355024463
31
0.0000000000
11
-19.2944328730
21
60.0939448930
31
0.0000000000
11
-35.1135743048
21
67.3308940574
31
0.0000000000
0
SPLINE
5
3BA
100
AcDbEntity
8
0
100
AcDbSpline
62
7
6
CONTINUOUS
70
0
71
3
72
8
73
4
74
2
42
0.0000001000
43
0.0000001000
44
0.0000000001
12
-0.0484939858
22
0.0214714874
32
0.0000000000
13
-0.0484956267
23
0.0214677525
33
0.0000000000
40
0.0000000000
40
0.0000000000
40
0.0000000000
40
0.0000000000
40
1.0000000000
40
1.0000000000
40
1.0000000000
40
1.0000000000
10
-35.1135743048
20
67.3308940574
30
0.0000000000
10
-35.1297389668
20
67.3380512198
30
0.0000000000
10
-35.1459039022
20
67.3452077599
30
0.0000000000
10
-35.1620691111
20
67.3523636774
30
0.0000000000
11
-35.1135743048
21
67.3308940574
31
0.0000000000
11
-35.1620691111
21
67.3523636774
31
0.0000000000
0
SPLINE
5
3BB
100
AcDbEntity
8
0
100
AcDbSpline
62
7
6
CONTINUOUS
70
0
71
3
72
17
73
13
74
11
42
0.0000001000
43
0.0000001000
44
0.0000000001
12
-0.0000348367
22
2.9573895972
32
0.0000000000
13
-2.6838084712
23
1.2423064520
33
0.0000000000
40
0.0000000000
40
0.0000000000
40
0.0000000000
40
0.0000000000
40
0.0812173497
40
0.1735012788
40
0.2779324742
40
0.3905030145
40
0.5074044768
40
0.6242054591
40
0.7358495052
40
0.8377766951
40
0.9260881115
40
1.0000000000
40
1.0000000000
40
1.0000000000
40
1.0000000000
10
48.9198210807
20
39.2226890868
30
0.0000000000
10
48.9198201376
20
39.3027528685
30
0.0000000000
10
48.9097830104
20
39.4738965515
30
0.0000000000
10
48.8642219929
20
39.7445746859
30
0.0000000000
10
48.7813570822
20
40.0386269090
30
0.0000000000
10
48.6581851677
20
40.3445664944
30
0.0000000000
10
48.4969058283
20
40.6461917586
30
0.0000000000
10
48.3040058822
20
40.9275726668
30
0.0000000000
10
48.0902609123
20
41.1742536030
30
0.0000000000
10
47.8699341923
20
41.3753713535
30
0.0000000000
10
47.6574710561
20
41.5269766256
30
0.0000000000
10
47.5166375580
20
41.6036937312
30
0.0000000000
10
47.4505157738
20
41.6343008032
30
0.0000000000
11
48.9198210807
21
39.2226890868
31
0.0000000000
11
48.9063902939
21
39.4625046332
31
0.0000000000
11
48.8617110455
21
39.7317421409
31
0.0000000000
11
48.7784637708
21
40.0291548868
31
0.0000000000
11
48.6544331823
21
40.3381027363
31
0.0000000000
11
48.4914317960
21
40.6429880546
31
0.0000000000
11
48.2958454564
21
40.9277074112
31
0.0000000000
11
48.0791384235
21
41.1768129177
31
0.0000000000
11
47.8559291767
21
41.3794030155
31
0.0000000000
11
47.6428209945
21
41.5303842458
31
0.0000000000
11
47.4505157738
21
41.6343008032
31
0.0000000000
0
SPLINE
5
3BC
100
AcDbEntity
8
0
100
AcDbSpline
62
7
6
CONTINUOUS
70
0
71
3
72
17
73
13
74
11
42
0.0000001000
43
0.0000001000
44
0.0000000001
12
-0.0000490534
22
2.2219590342
32
0.0000000000
13
-2.0253981985
23
0.9137089744
33
0.0000000000
40
0.0000000000
40
0.0000000000
40
0.0000000000
40
0.0000000000
40
0.0810546535
40
0.1731426251
40
0.2773612114
40
0.3897302174
40
0.5064799964
40
0.6232175200
40
0.7349198559
40
0.8370443584
40
0.9256809927
40
1.0000000000
40
1.0000000000
40
1.0000000000
40
1.0000000000
10
48.2317361989
20
39.2136643548
30
0.0000000000
10
48.2317348736
20
39.2736977280
30
0.0000000000
10
48.2241125802
20
39.4020188496
30
0.0000000000
10
48.1894805421
20
39.6048995259
30
0.0000000000
10
48.1264799479
20
39.8251608432
30
0.0000000000
10
48.0328375362
20
40.0541356384
30
0.0000000000
10
47.9102478144
20
40.2796534356
30
0.0000000000
10
47.7636635330
20
40.4897897790
30
0.0000000000
10
47.6012867932
20
40.6737665465
30
0.0000000000
10
47.4339499575
20
40.8235296265
30
0.0000000000
10
47.2726089553
20
40.9362073280
30
0.0000000000
10
47.1657460825
20
40.9930376449
30
0.0000000000
10
47.1155708881
20
41.0156729595
30
0.0000000000
11
48.2317361989
21
39.2136643548
31
0.0000000000
11
48.2215308706
21
39.3934751007
31
0.0000000000
11
48.1875722585
21
39.5952531907
31
0.0000000000
11
48.1242908423
21
39.8180083545
31
0.0000000000
11
48.0300160024
21
40.0492052866
31
0.0000000000
11
47.9061455833
21
40.2771336554
31
0.0000000000
11
47.7575545650
21
40.4897408137
31
0.0000000000
11
47.5929620938
21
40.6755137204
31
0.0000000000
11
47.4234587890
21
40.8263769362
31
0.0000000000
11
47.2616223388
21
40.9386136174
31
0.0000000000
11
47.1155708881
21
41.0156729595
31
0.0000000000
0
ENDSEC
0
SECTION
2
OBJECTS
0
DICTIONARY
5
C
100
AcDbDictionary
280
0
281
1
3
ACAD_GROUP
350
D
3
ACAD_MLINESTYLE
350
17
3
ACAD_LAYOUT
350
1A
3
ACAD_PLOTSETTINGS
350
19
3
ACAD_PLOTSTYLENAME
350
E
0
DICTIONARY
5
D
102
{ACAD_REACTORS
330
C
102
}
100
AcDbDictionary
280
0
281
1
0
ACDBDICTIONARYWDFLT
5
E
102
{ACAD_REACTORS
330
C
102
}
100
AcDbDictionary
281
1
3
Normal
350
F
100
AcDbDictionaryWithDefault
340
F
0
DICTIONARY
5
17
102
{ACAD_REACTORS
330
C
102
}
100
AcDbDictionary
280
0
281
1
3
Standard
350
18
0
DICTIONARY
5
19
102
{ACAD_REACTORS
330
C
102
}
100
AcDbDictionary
281
1
0
DICTIONARY
5
1A
102
{ACAD_REACTORS
330
C
102
}
100
AcDbDictionary
281
1
3
Layout1
350
1E
3
Model
350
22
0
ACDBPLACEHOLDER
5
F
102
{ACAD_REACTORS
330
E
102
}
0
MLINESTYLE
5
18
102
{ACAD_REACTORS
330
17
102
}
100
AcDbMlineStyle
2
STANDARD
70
0
3

62
256
51
90.0
52
90.0
71
2
49
0.5
62
256
6
BYLAYER
49
-0.5
62
256
6
BYLAYER
0
LAYOUT
5
1E
102
{ACAD_REACTORS
330
1A
102
}
100
AcDbPlotSettings
1

2

4

6

40
0.0
41
0.0
42
0.0
43
0.0
44
0.0
45
0.0
46
0.0
47
0.0
48
0.0
49
0.0
140
0.0
141
0.0
142
1.0
143
1.0
70
0
72
0
73
0
74
0
7

75
0
147
1.0
148
0.0
149
0.0
100
AcDbLayout
1
Layout1
70
0
71
0
10
0.0
20
0.0
11
0.0
21
0.0
12
0.0
22
0.0
32
0.0
14
0.0
24
0.0
34
0.0
15
0.0
25
0.0
35
0.0
146
0.0
13
0.0
23
0.0
33
0.0
16
0.0
26
0.0
36
0.0
17
0.0
27
0.0
37
0.0
76
0
330
1B
331
0
345
0
346
0
0
LAYOUT
5
22
102
{ACAD_REACTORS
330
1A
102
}
100
AcDbPlotSettings
1

2

4

6

40
0.0
41
0.0
42
0.0
43
0.0
44
0.0
45
0.0
46
0.0
47
0.0
48
0.0
49
0.0
140
0.0
141
0.0
142
1.0
143
1.0
70
0
72
0
73
0
74
0
7

75
0
147
1.0
148
0.0
149
0.0
100
AcDbLayout
1
Model
70
0
71
0
10
0.0
20
0.0
11
0.0
21
0.0
12
0.0
22
0.0
32
0.0
14
0.0
24
0.0
34
0.0
15
0.0
25
0.0
35
0.0
146
0.0
13
0.0
23
0.0
33
0.0
16
0.0
26
0.0
36
0.0
17
0.0
27
0.0
37
0.0
76
0
330
1F
331
0
345
0
346
0
0
ENDSEC
0
EOF
