  0
SECTION
  2
HEADER
  9
$ACADVER
  1
AC1021
  9
$DWGCODEPAGE
  3
ANSI_1252
  9
$EXTMAX
 10
297.0
 20
210.0
 30
0.0
  9
$EXTMIN
 10
0.0
 20
0.0
 30
0.0
  9
$LIMMIN
 10
0.0
 20
0.0
  9
$LIMMAX
 10
297.0
 20
210.0
  9
$VIEWCTR
 10
148.5
 20
105.0
  9
$VIEWSIZE
 40
210.0
  9
$CLAYER
  8
0
  9
$LTSCALE
 40
16.335
  9
$CELTYPE
  6
BYLAYER
  9
$DIMSCALE
 40
1.0
  9
$DIMASZ
 40
3.0
  9
$DIMEXO
 40
0.5
  9
$DIMDLI
 40
11.286
  9
$DIMEXE
 40
1.5
  9
$DIMCEN
 40
2.673
  9
$DIMLFAC
 40
1.0
  9
$DIMBLK
  1
_FILLED
  9
$DIMALT
 70
0
  9
$DIMALTF
 40
25.4
  9
$DIMTXT
 40
3.0
  9
$DIMTOL
 70
1
  9
$DIMLIM
 70
0
  9
$DIMTFAC
 40
1.0
  9
$DIMTP
 40
0.01
  9
$DIMTM
 40
0.01
  9
$DIMGAP
 40
0.625
  9
$DIMDSEP
 70
44
  9
$AUNITS
 70
0
  9
$PDMODE
 70
3
  9
$PDSIZE
 40
3.0
  9
$HANDSEED
  5
4A3
  9
$TILEMODE
 70
1
  9
$MEASUREMENT
 70
1
  9
$INSUNITS
 70
4
  0
ENDSEC
  0
SECTION
  2
CLASSES
  0
CLASS
  1
ACDBDICTIONARYWDFLT
  2
AcDbDictionaryWithDefault
  3
AutoCAD 2000
 90
0
 91
1
280
0
281
0
  0
CLASS
  1
ACDBPLACEHOLDER
  2
AcDbPlaceHolder
  3
AutoCAD 2000
 90
0
 91
1
280
0
281
0
  0
CLASS
  1
LAYOUT
  2
AcDbLayout
  3
AutoCAD 2000
 90
0
 91
0
280
0
281
0
  0
ENDSEC
  0
SECTION
  2
TABLES
  0
TABLE
  2
VPORT
  5
8
100
AcDbSymbolTable
 70
2
  0
VPORT
  5
1F4
100
AcDbSymbolTableRecord
100
AcDbViewportTableRecord
  2
*ACTIVE
 70
0
 10
0.0
 20
0.0
 11
1.0
 21
1.0
 12
148.5
 22
105.0
 13
0.0
 23
0.0
 14
1.0
 24
1.0
 15
0.0
 25
0.0
 16
0.0
 26
0.0
 36
1.0
 17
0.0
 27
0.0
 37
0.0
 40
210.0
 41
1.4142857143
 42
50.0
 43
0.0
 44
0.0
 50
0.0
 51
0.0
 71
0
 72
100
 73
1
 74
1
 75
0
 76
0
 77
0
 78
0
  0
ENDTAB
  0
TABLE
  2
LTYPE
  5
5
100
AcDbSymbolTable
 70
6
  0
LTYPE
  5
14
100
AcDbSymbolTableRecord
100
AcDbLinetypeTableRecord
  2
BYBLOCK
 70
0
  3

 72
65
 73
0
 40
0.0
  0
LTYPE
  5
15
100
AcDbSymbolTableRecord
100
AcDbLinetypeTableRecord
  2
BYLAYER
 70
0
  3

 72
65
 73
0
 40
0.0
  0
LTYPE
  5
16
100
AcDbSymbolTableRecord
100
AcDbLinetypeTableRecord
  2
CONTINUOUS
 70
64
  3
Solid line
 72
65
 73
0
 40
0.0
  0
LTYPE
  5
1F5
100
AcDbSymbolTableRecord
100
AcDbLinetypeTableRecord
  2
CENTER
 70
64
  3
____ _ ____ _ ____ _ ____ _ ____ _ ____ _ ____
 72
65
 73
4
 40
0.6
 49
0.375
 74
0
 49
-0.075
 74
0
 49
0.075
 74
0
 49
-0.075
 74
0
  0
LTYPE
  5
1F6
100
AcDbSymbolTableRecord
100
AcDbLinetypeTableRecord
  2
HIDDEN
 70
64
  3
- - - - - - - - - - - - - - - - - - - -
 72
65
 73
2
 40
0.2
 49
0.1
 74
0
 49
-0.1
 74
0
  0
LTYPE
  5
1F7
100
AcDbSymbolTableRecord
100
AcDbLinetypeTableRecord
  2
PHANTOM
 70
64
  3
_____ _ _ _____ _ _ _____ _ _ _____
 72
65
 73
6
 40
0.8
 49
0.45
 74
0
 49
-0.05
 74
0
 49
0.1
 74
0
 49
-0.05
 74
0
 49
0.1
 74
0
 49
-0.05
 74
0
  0
LTYPE
  5
1F8
100
AcDbSymbolTableRecord
100
AcDbLinetypeTableRecord
  2
DOT
 70
64
  3
. . . . . . . . . . . . . . . . . . . .
 72
65
 73
2
 40
0.2
 49
0.1
 74
0
 49
-0.1
 74
0
  0
LTYPE
  5
1F9
100
AcDbSymbolTableRecord
100
AcDbLinetypeTableRecord
  2
DASHED
 70
64
  3
- - - - - - - - - - - - - - - - - - - -
 72
65
 73
2
 40
0.2
 49
0.1
 74
0
 49
-0.1
 74
0
  0
ENDTAB
  0
TABLE
  2
LAYER
  5
2
100
AcDbSymbolTable
 70
36
  0
LAYER
  5
10
100
AcDbSymbolTableRecord
100
AcDbLayerTableRecord
  2
0
 70
0
 62
7
  6
CONTINUOUS
370
-3
390
F
  0
LAYER
  5
1FA
100
AcDbSymbolTableRecord
100
AcDbLayerTableRecord
  2
DEFAULT_1
 70
0
 62
7
  6
CENTER
370
-3
390
F
  0
LAYER
  5
1FB
100
AcDbSymbolTableRecord
100
AcDbLayerTableRecord
  2
DEFAULT_2
 70
0
 62
7
  6
HIDDEN
370
-3
390
F
  0
LAYER
  5
1FC
100
AcDbSymbolTableRecord
100
AcDbLayerTableRecord
  2
DEFAULT_3
 70
0
 62
7
  6
PHANTOM
370
-3
390
F
  0
LAYER
  5
1FD
100
AcDbSymbolTableRecord
100
AcDbLayerTableRecord
  2
ASSI
 70
0
 62
7
  6
CONTINUOUS
370
-3
390
F
  0
LAYER
  5
1FE
100
AcDbSymbolTableRecord
100
AcDbLayerTableRecord
  2
COORDINATE
 70
0
 62
7
  6
CONTINUOUS
370
-3
390
F
  0
LAYER
  5
1FF
100
AcDbSymbolTableRecord
100
AcDbLayerTableRecord
  2
COORD_ORIGINE
 70
0
 62
7
  6
CONTINUOUS
370
-3
390
F
  0
LAYER
  5
200
100
AcDbSymbolTableRecord
100
AcDbLayerTableRecord
  2
COPY_PLACCA
 70
0
 62
7
  6
CONTINUOUS
370
-3
390
F
  0
LAYER
  5
201
100
AcDbSymbolTableRecord
100
AcDbLayerTableRecord
  2
COPY_SUPP
 70
0
 62
7
  6
CONTINUOUS
370
-3
390
F
  0
LAYER
  5
202
100
AcDbSymbolTableRecord
100
AcDbLayerTableRecord
  2
CURVE
 70
0
 62
7
  6
CONTINUOUS
370
-3
390
F
  0
LAYER
  5
203
100
AcDbSymbolTableRecord
100
AcDbLayerTableRecord
  2
DRAFT
 70
0
 62
7
  6
CONTINUOUS
370
-3
390
F
  0
LAYER
  5
204
100
AcDbSymbolTableRecord
100
AcDbLayerTableRecord
  2
IGES
 70
0
 62
7
  6
CONTINUOUS
370
-3
390
F
  0
LAYER
  5
205
100
AcDbSymbolTableRecord
100
AcDbLayerTableRecord
  2
IGES_SCRITTE
 70
0
 62
7
  6
CONTINUOUS
370
-3
390
F
  0
LAYER
  5
206
100
AcDbSymbolTableRecord
100
AcDbLayerTableRecord
  2
NOTE
 70
0
 62
7
  6
CONTINUOUS
370
-3
390
F
  0
LAYER
  5
207
100
AcDbSymbolTableRecord
100
AcDbLayerTableRecord
  2
PIANI
 70
0
 62
7
  6
CONTINUOUS
370
-3
390
F
  0
LAYER
  5
208
100
AcDbSymbolTableRecord
100
AcDbLayerTableRecord
  2
PIANI_ORIGINE
 70
0
 62
7
  6
CONTINUOUS
370
-3
390
F
  0
LAYER
  5
209
100
AcDbSymbolTableRecord
100
AcDbLayerTableRecord
  2
PUNTI
 70
0
 62
7
  6
CONTINUOUS
370
-3
390
F
  0
LAYER
  5
20A
100
AcDbSymbolTableRecord
100
AcDbLayerTableRecord
  2
RACCORDO
 70
0
 62
7
  6
CONTINUOUS
370
-3
390
F
  0
LAYER
  5
20B
100
AcDbSymbolTableRecord
100
AcDbLayerTableRecord
  2
SMUSSO
 70
0
 62
7
  6
CONTINUOUS
370
-3
390
F
  0
LAYER
  5
20C
100
AcDbSymbolTableRecord
100
AcDbLayerTableRecord
  2
SNAPLINE
 70
0
 62
7
  6
CONTINUOUS
370
-3
390
F
  0
LAYER
  5
20D
100
AcDbSymbolTableRecord
100
AcDbLayerTableRecord
  2
SUPERFICI
 70
0
 62
7
  6
CONTINUOUS
370
-3
390
F
  0
LAYER
  5
20E
100
AcDbSymbolTableRecord
100
AcDbLayerTableRecord
  2
TRASH
 70
0
 62
7
  6
CONTINUOUS
370
-3
390
F
  0
LAYER
  5
20F
100
AcDbSymbolTableRecord
100
AcDbLayerTableRecord
  2
XSEC_DATUMS
 70
0
 62
7
  6
CONTINUOUS
370
-3
390
F
  0
LAYER
  5
210
100
AcDbSymbolTableRecord
100
AcDbLayerTableRecord
  2
_2D_DELETED_OBJS
 70
0
 62
7
  6
CONTINUOUS
370
-3
390
F
  0
LAYER
  5
211
100
AcDbSymbolTableRecord
100
AcDbLayerTableRecord
  2
_BLACK_HOLE
 70
0
 62
7
  6
CONTINUOUS
370
-3
390
F
  0
ENDTAB
  0
TABLE
  2
STYLE
  5
3
100
AcDbSymbolTable
 70
1
  0
STYLE
  5
11
100
AcDbSymbolTableRecord
100
AcDbTextStyleTableRecord
  2
STANDARD
 70
0
 40
0.0
 41
0.8
 50
0.0
 71
0
 42
0.2
  3
txt
  4

  0
STYLE
  5
212
100
AcDbSymbolTableRecord
100
AcDbTextStyleTableRecord
  2
TEXTSTYLE_1
 70
0
 40
0.0
 41
0.8
 50
0.0
 71
0
 42
0.2
  3
gdt
  4

  0
ENDTAB
  0
TABLE
  2
VIEW
  5
6
100
AcDbSymbolTable
 70
0
  0
ENDTAB
  0
TABLE
  2
UCS
  5
7
100
AcDbSymbolTable
 70
0
  0
ENDTAB
  0
TABLE
  2
APPID
  5
9
100
AcDbSymbolTable
 70
1
  0
APPID
  5
213
100
AcDbSymbolTableRecord
100
AcDbRegAppTableRecord
  2
ACAD
 70
0
  0
ENDTAB
  0
TABLE
  2
BLOCK_RECORD
  5
1
100
AcDbSymbolTable
 70
0
  0
BLOCK_RECORD
  5
214
100
AcDbSymbolTableRecord
100
AcDbBlockTableRecord
  2
*Model_Space
  0
BLOCK_RECORD
  5
215
100
AcDbSymbolTableRecord
100
AcDbBlockTableRecord
  2
*Paper_Space
  0
BLOCK_RECORD
  5
216
100
AcDbSymbolTableRecord
100
AcDbBlockTableRecord
  2
_FILLED
  0
ENDTAB
  0
TABLE
  2
DIMSTYLE
  5
A
100
AcDbSymbolTable
 70
1
100
AcDbDimStyleTable
 71
0
  0
DIMSTYLE
105
217
100
AcDbSymbolTableRecord
100
AcDbDimStyleTableRecord
  2
STANDARD
 70
0
  3

  4

 40
1.0
 41
3.0
 42
0.5
 43
0.38
 44
1.5
 45
0.0
 46
0.0
 47
0.01
 48
0.01
140
3.0
141
0.09
142
0.0
143
25.4
144
1.0
145
0.0
146
1.0
147
0.625
 71
1.0
 72
0.0
 73
0
 74
0
 75
0
 76
0
 77
1
 78
8
 79
2
170
0
171
1
172
0
173
0
174
0
175
0
176
0
177
0
178
0
270
2
179
2
271
2
272
2
273
2
274
2
275
0
280
0
281
0
282
0
283
1
284
8
285
0
286
0
287
3
288
0
340
11
278
44
341
216
342
216
343
216
344
216
  0
ENDTAB
  0
ENDSEC
  0
SECTION
  2
BLOCKS
  0
BLOCK
  5
20
100
AcDbEntity
  8
0
100
AcDbBlockBegin
  2
*Model_Space
 70
0
 10
0.0
 20
0.0
 30
0.0
  3
*Model_Space
  1

  0
ENDBLK
  5
21
100
AcDbEntity
  8
0
100
AcDbBlockEnd
  0
BLOCK
  5
1C
100
AcDbEntity
  8
0
100
AcDbBlockBegin
  2
*Paper_Space
 70
0
 10
0.0
 20
0.0
 30
0.0
  3
*Paper_Space
  1

  0
ENDBLK
  5
1D
100
AcDbEntity
  8
0
100
AcDbBlockEnd
  0
BLOCK
  5
218
100
AcDbEntity
  8
0
100
AcDbBlockBegin
  2
_FILLED
 70
64
 10
0.0
 20
0.0
  3
_FILLED
  1

  0
SOLID
  5
219
100
AcDbEntity
  8
0
  6
BYBLOCK
 62
0
100
AcDbTrace
 10
0.0
 20
0.0
 11
-1.0
 21
0.1333333333
 12
-1.0
 22
-0.1333333333
 13
-1.0
 23
-0.1333333333
  0
ENDBLK
  5
21A
100
AcDbEntity
  8
0
  6
BYBLOCK
 62
0
100
AcDbBlockEnd
  0
ENDSEC
  0
SECTION
  2
ENTITIES
  0
LWPOLYLINE
  5
21B
100
AcDbEntity
  8
0
100
AcDbPolyline
 62
7
  6
CONTINUOUS
 90
44
 70
0
 10
-49.2432864509
 20
-34.6149127437
 10
-49.226324163
 20
-34.8203081982
 10
-49.2063847592
 20
-35.0254394568
 10
-49.1691076949
 20
-35.3442812894
 10
-49.1356510802
 20
-35.584720736
 10
-49.1095319663
 20
-35.7521564667
 10
-49.0809773637
 20
-35.9192016796
 10
-49.0333080495
 20
-36.1688155794
 10
-48.9797996114
 20
-36.4172599976
 10
-48.9205047904
 20
-36.6643641345
 10
-48.8531300606
 20
-36.9190394284
 10
-48.780323614
 20
-37.1725372147
 10
-48.7022339109
 20
-37.4244801381
 10
-48.6187537408
 20
-37.674704518
 10
-48.5155660423
 20
-37.9613267729
 10
-48.4052447188
 20
-38.2453076662
 10
-48.2879874065
 20
-38.5265158189
 10
-48.1639917415
 20
-38.8048198524
 10
-48.0319408121
 20
-39.0831141391
 10
-47.8932145094
 20
-39.3581277339
 10
-47.7478239331
 20
-39.6296830874
 10
-47.595780183
 20
-39.8976026504
 10
-47.4396698224
 20
-40.1575568957
 10
-47.2771997049
 20
-40.4136500815
 10
-47.1084434201
 20
-40.6657146541
 10
-46.933474558
 20
-40.9135830595
 10
-46.7523667084
 20
-41.157087744
 10
-46.5651934612
 20
-41.3960611537
 10
-46.3720284062
 20
-41.6303357349
 10
-46.2103012258
 20
-41.817546156
 10
-46.0446228456
 20
-42.0012837264
 10
-45.8749686003
 20
-42.1813042733
 10
-45.7013138249
 20
-42.3573636241
 10
-45.5236338544
 20
-42.529217606
 10
-45.3419040235
 20
-42.6966220462
 10
-45.1560996674
 20
-42.8593327721
 10
-44.9661961207
 20
-43.0171056109
 10
-44.8428907375
 20
-43.1151178823
 10
-44.7180432696
 20
-43.2111477998
 10
-44.5376239763
 20
-43.3447589142
 10
-44.4171197812
 20
-43.4307026098
 10
-44.2954165733
 20
-43.5149447933
 10
-44.1384739198
 20
-43.619985229
 10
-43.9797547938
 20
-43.7223128945
  0
LINE
  5
21C
100
AcDbEntity
  8
0
100
AcDbLine
 62
7
  6
CONTINUOUS
 10
-49.451679013
 20
-34.2808264114
 11
-49.4132527063
 21
-34.7753691011
  0
LWPOLYLINE
  5
21D
100
AcDbEntity
  8
0
100
AcDbPolyline
 62
7
  6
CONTINUOUS
 90
6
 70
0
 10
-49.2682059927
 20
-34.2688949
 10
-49.2636289906
 20
-34.3381208307
 10
-49.258857038
 20
-34.4073330292
 10
-49.2538818917
 20
-34.4765307067
 10
-49.2486953083
 20
-34.5457130746
 10
-49.2432890446
 20
-34.6148793445
  0
LINE
  5
21E
100
AcDbEntity
  8
0
100
AcDbLine
 62
7
  6
CONTINUOUS
 10
-49.4515948834
 20
-34.2808121442
 11
-49.4522180413
 21
-34.2706302332
  0
LINE
  5
21F
100
AcDbEntity
  8
0
100
AcDbLine
 62
7
  6
CONTINUOUS
 10
-49.4644213471
 20
-34.0492801928
 11
-49.4522180413
 21
-34.2706302332
  0
LWPOLYLINE
  5
220
100
AcDbEntity
  8
0
100
AcDbPolyline
 62
7
  6
CONTINUOUS
 90
6
 70
0
 10
-49.290937026
 20
-33.8748501599
 10
-49.2868013759
 20
-33.9536856515
 10
-49.2824725893
 20
-34.0325090329
 10
-49.2779385244
 20
-34.1113191424
 10
-49.2731870395
 20
-34.1901148187
 10
-49.2682059927
 20
-34.2688949
  0
LINE
  5
221
100
AcDbEntity
  8
0
100
AcDbLine
 62
7
  6
CONTINUOUS
 10
-49.4933297448
 20
-33.421366576
 11
-49.4644213471
 21
-34.0492801928
  0
LWPOLYLINE
  5
222
100
AcDbEntity
  8
0
100
AcDbPolyline
 62
7
  6
CONTINUOUS
 90
10
 70
0
 10
-34.5546923995
 20
-36.8663659785
 10
-34.6432594142
 20
-34.5769998439
 10
-34.7227755572
 20
-32.2872933183
 10
-34.7926365064
 20
-29.9972709632
 10
-34.8505155851
 20
-27.7805400687
 10
-34.8983958729
 20
-25.5635715249
 10
-34.9358895093
 20
-23.346400537
 10
-34.961946931
 20
-21.2004677935
 10
-34.9777218194
 20
-19.0544375584
 10
-34.9830234424
 20
-16.9083689822
  0
LINE
  5
223
100
AcDbEntity
  8
0
100
AcDbLine
 62
7
  6
CONTINUOUS
 10
-49.5165215692
 20
-32.7693639311
 11
-49.4933297448
 21
-33.421366576
  0
LWPOLYLINE
  5
224
100
AcDbEntity
  8
0
100
AcDbPolyline
 62
7
  6
CONTINUOUS
 90
11
 70
0
 10
-49.4390882182
 20
-29.1423332488
 10
-49.4212571085
 20
-29.6574296067
 10
-49.4050131972
 20
-30.172574514
 10
-49.3907566727
 20
-30.6849153845
 10
-49.3776966609
 20
-31.1972858205
 10
-49.3648831145
 20
-31.7096655962
 10
-49.3513659862
 20
-32.222034486
 10
-49.3361952284
 20
-32.7343722641
 10
-49.318420794
 20
-33.2466587048
 10
-49.3057306889
 20
-33.5608045706
 10
-49.290937026
 20
-33.8748501599
  0
LINE
  5
225
100
AcDbEntity
  8
0
100
AcDbLine
 62
7
  6
CONTINUOUS
 10
-49.4507645235
 20
-28.7848638488
 11
-49.4390882168
 21
-29.1423332899
  0
LWPOLYLINE
  5
226
100
AcDbEntity
  8
0
100
AcDbPolyline
 62
7
  6
CONTINUOUS
 90
23
 70
0
 10
-34.6521625465
 20
-36.5528006416
 10
-34.6516966158
 20
-36.5671488017
 10
-34.6514569743
 20
-36.5815055324
 10
-34.6514391447
 20
-36.5958672419
 10
-34.6516386499
 20
-36.6102303387
 10
-34.6520510126
 20
-36.6245912309
 10
-34.6526717557
 20
-36.6389463269
 10
-34.6534964019
 20
-36.6532920349
 10
-34.6545204741
 20
-36.6676247632
 10
-34.6557394951
 20
-36.6819409202
 10
-34.6574178541
 20
-36.698760289
 10
-34.6593552909
 20
-36.7155492878
 10
-34.6615471809
 20
-36.732305462
 10
-34.6639888998
 20
-36.7490263567
 10
-34.6666758229
 20
-36.7657095173
 10
-34.6696033258
 20
-36.7823524889
 10
-34.6727667841
 20
-36.7989528169
 10
-34.6761615732
 20
-36.8155080466
 10
-34.6801283992
 20
-36.8335344443
 10
-34.6843616781
 20
-36.8515004929
 10
-34.6888574466
 20
-36.8694025647
 10
-34.6936117415
 20
-36.8872370322
 10
-34.6986205995
 20
-36.9050002678
  0
LWPOLYLINE
  5
227
100
AcDbEntity
  8
0
100
AcDbPolyline
 62
7
  6
CONTINUOUS
 90
34
 70
0
 10
-50.0730340712
 20
-8.2951638411
 10
-50.0727543826
 20
-8.3046426603
 10
-50.0722437205
 20
-8.3141144846
 10
-50.0715054445
 20
-8.3235731597
 10
-50.070542914
 20
-8.3330125312
 10
-50.0693594887
 20
-8.3424264447
 10
-50.0679585279
 20
-8.3518087461
 10
-50.0663433913
 20
-8.3611532808
 10
-50.0645174385
 20
-8.3704538946
 10
-50.0622840065
 20
-8.3805685656
 10
-50.0598114846
 20
-8.3906225273
 10
-50.0571088864
 20
-8.4006149568
 10
-50.0541852253
 20
-8.4105450311
 10
-50.0510495149
 20
-8.4204119273
 10
-50.0477107686
 20
-8.4302148226
 10
-50.044178
 20
-8.4399528939
 10
-50.0404602225
 20
-8.4496253184
 10
-50.0365664496
 20
-8.4592312732
 10
-50.0325056949
 20
-8.4687699353
 10
-50.0282869718
 20
-8.4782404818
 10
-50.0239192938
 20
-8.4876420899
 10
-50.0194116745
 20
-8.4969739366
 10
-50.0130414246
 20
-8.509610052
 10
-50.00643807
 20
-8.5221178416
 10
-49.9996128942
 20
-8.5345007312
 10
-49.9925771804
 20
-8.5467621464
 10
-49.9853422119
 20
-8.5589055132
 10
-49.9779192722
 20
-8.5709342572
 10
-49.9703196446
 20
-8.5828518041
 10
-49.9625546123
 20
-8.5946615799
 10
-49.9546354587
 20
-8.6063670102
 10
-49.9465734672
 20
-8.6179715208
 10
-49.9383799211
 20
-8.6294785375
 10
-49.9300661037
 20
-8.6408914861
  0
LINE
  5
228
100
AcDbEntity
  8
0
100
AcDbLine
 62
7
  6
CONTINUOUS
 10
-49.752111506
 20
-23.928349742
 11
-49.58795266
 21
-29.918638813
  0
LINE
  5
229
100
AcDbEntity
  8
0
100
AcDbLine
 62
7
  6
CONTINUOUS
 10
-49.5534875167
 20
-31.3873133682
 11
-49.5165215692
 21
-32.7693639311
  0
LINE
  5
22A
100
AcDbEntity
  8
0
100
AcDbLine
 62
7
  6
CONTINUOUS
 10
-49.8724163407
 20
-18.9742792819
 11
-49.752111506
 21
-23.928349742
  0
LINE
  5
22B
100
AcDbEntity
  8
0
100
AcDbLine
 62
7
  6
CONTINUOUS
 10
-49.58795266
 20
-29.918638813
 11
-49.5534875167
 21
-31.3873133682
  0
LINE
  5
22C
100
AcDbEntity
  8
0
100
AcDbLine
 62
7
  6
CONTINUOUS
 10
-50.0096724818
 20
-12.0943684286
 11
-49.8724163407
 21
-18.9742792819
  0
LWPOLYLINE
  5
22D
100
AcDbEntity
  8
0
100
AcDbPolyline
 62
7
  6
CONTINUOUS
 90
33
 70
0
 10
-50.3085511182
 20
22.5802662251
 10
-50.3083664159
 20
22.5695706102
 10
-50.3078815596
 20
22.5588819183
 10
-50.3071022819
 20
22.5482085198
 10
-50.3060343153
 20
22.5375587847
 10
-50.3046833925
 20
22.5269410832
 10
-50.3030552459
 20
22.5163637856
 10
-50.3011556083
 20
22.505835262
 10
-50.2989902121
 20
22.4953638827
 10
-50.2964436918
 20
22.4844628117
 10
-50.293623105
 20
22.4736344902
 10
-50.2905397655
 20
22.4628797649
 10
-50.287204987
 20
22.4521994828
 10
-50.283630083
 20
22.4415944907
 10
-50.2798263674
 20
22.4310656356
 10
-50.2758051537
 20
22.4206137644
 10
-50.2715777557
 20
22.410239724
 10
-50.2671554871
 20
22.3999443612
 10
-50.2625496615
 20
22.3897285229
 10
-50.2577715927
 20
22.3795930562
 10
-50.2528325942
 20
22.3695388077
 10
-50.2463824877
 20
22.356961016
 10
-50.2397048841
 20
22.3445105462
 10
-50.2328107887
 20
22.3321839004
 10
-50.2257112066
 20
22.3199775806
 10
-50.2184171431
 20
22.3078880888
 10
-50.2109396033
 20
22.2959119271
 10
-50.2032895925
 20
22.2840455974
 10
-50.1954781158
 20
22.2722856018
 10
-50.1875161784
 20
22.2606284423
 10
-50.1794147856
 20
22.2490706208
 10
-50.1711849425
 20
22.2376086395
 10
-50.1628376543
 20
22.2262390003
  0
LINE
  5
22E
100
AcDbEntity
  8
0
100
AcDbLine
 62
7
  6
CONTINUOUS
 10
-50.073108051
 20
-8.2951651137
 11
-50.0096724818
 21
-12.0943684286
  0
LWPOLYLINE
  5
22F
100
AcDbEntity
  8
0
100
AcDbPolyline
 62
7
  6
CONTINUOUS
 90
7
 70
0
 10
-49.9300661037
 20
-8.6408914861
 10
-49.874608566
 20
-12.054191908
 10
-49.809419189
 20
-15.4673262053
 10
-49.7333752889
 20
-18.8802331926
 10
-49.6487819676
 20
-22.182045523
 10
-49.5541779592
 20
-25.483588754
 10
-49.4507645235
 20
-28.7848638488
  0
LINE
  5
230
100
AcDbEntity
  8
0
100
AcDbLine
 62
7
  6
CONTINUOUS
 10
-49.9349920616
 20
-8.2927452529
 11
-49.9302115672
 21
-8.6406920659
  0
LINE
  5
231
100
AcDbEntity
  8
0
100
AcDbLine
 62
7
  6
CONTINUOUS
 10
-50.1621574946
 20
-1.522971529
 11
-50.0731730644
 21
-8.2946004685
  0
LINE
  5
232
100
AcDbEntity
  8
0
100
AcDbLine
 62
7
  6
CONTINUOUS
 10
-50.2366827401
 20
5.5700545567
 11
-50.1621574946
 21
-1.522971529
  0
LINE
  5
233
100
AcDbEntity
  8
0
100
AcDbLine
 62
7
  6
CONTINUOUS
 10
-50.2631791225
 20
9.0903098838
 11
-50.2366827401
 21
5.5700545567
  0
LINE
  5
234
100
AcDbEntity
  8
0
100
AcDbLine
 62
7
  6
CONTINUOUS
 10
-50.2953238291
 20
16.0778112985
 11
-50.2631791225
 21
9.0903098838
  0
LWPOLYLINE
  5
235
100
AcDbEntity
  8
0
100
AcDbPolyline
 62
7
  6
CONTINUOUS
 90
10
 70
0
 10
-35.0726634153
 20
-16.9083750572
 10
-35.0673703029
 20
-19.0171508263
 10
-35.0518715451
 20
-21.1258889151
 10
-35.0263515837
 20
-23.2345321693
 10
-34.9895518158
 20
-25.4197671814
 10
-34.9425535101
 20
-27.6048041887
 10
-34.8857239766
 20
-29.7896084401
 10
-34.8171774742
 20
-32.0443238682
 10
-34.7391300489
 20
-34.2987295328
 10
-34.6521625465
 20
-36.5528006416
  0
LINE
  5
236
100
AcDbEntity
  8
0
100
AcDbLine
 62
7
  6
CONTINUOUS
 10
-50.30859375
 20
22.5802660947
 11
-50.2953238291
 21
16.0778112985
  0
LWPOLYLINE
  5
237
100
AcDbEntity
  8
0
100
AcDbPolyline
 62
7
  6
CONTINUOUS
 90
7
 70
0
 10
-50.1628376278
 20
22.2262390004
 10
-50.153476373
 20
17.0917250755
 10
-50.1355018852
 20
11.9572328386
 10
-50.1046719696
 20
6.822815978
 10
-50.059164414
 20
1.7841856814
 10
-50.0012509518
 20
-3.2543311256
 10
-49.9349920616
 20
-8.2927452529
  0
LWPOLYLINE
  5
238
100
AcDbEntity
  8
0
100
AcDbPolyline
 62
7
  6
CONTINUOUS
 90
34
 70
0
 10
-50.0730661486
 20
53.2096578768
 10
-50.07305807
 20
53.1999383023
 10
-50.0728056153
 20
53.1902185714
 10
-50.0723126123
 20
53.1805051243
 10
-50.071582889
 20
53.1708044014
 10
-50.070620273
 20
53.1611228428
 10
-50.0694285921
 20
53.1514668888
 10
-50.0680116742
 20
53.1418429796
 10
-50.0663733471
 20
53.1322575556
 10
-50.0645174385
 20
53.1227170569
 10
-50.0620840432
 20
53.111653817
 10
-50.0593713765
 20
53.1006614056
 10
-50.0563909244
 20
53.0897407812
 10
-50.0531541727
 20
53.0788929025
 10
-50.0496726072
 20
53.0681187282
 10
-50.0459577138
 20
53.057419217
 10
-50.0420209783
 20
53.0467953273
 10
-50.0378738866
 20
53.036248018
 10
-50.0335279245
 20
53.0257782476
 10
-50.0289945779
 20
53.0153869748
 10
-50.0242853326
 20
53.0050751582
 10
-50.0194116745
 20
52.9948437565
 10
-50.0130396029
 20
52.9820418305
 10
-50.006434986
 20
52.9693662349
 10
-49.9996090386
 20
52.9568135938
 10
-49.9925729757
 20
52.944380531
 10
-49.9853380122
 20
52.9320636705
 10
-49.9779153631
 20
52.9198596363
 10
-49.9703162431
 20
52.9077650522
 10
-49.9625518673
 20
52.8957765422
 10
-49.9546334505
 20
52.8838907303
 10
-49.9465722077
 20
52.8721042404
 10
-49.9383793538
 20
52.8604136964
 10
-49.9300661037
 20
52.8488157223
  0
LWPOLYLINE
  5
239
100
AcDbEntity
  8
0
100
AcDbPolyline
 62
7
  6
CONTINUOUS
 90
3
 70
0
 10
-32.8000942855
 20
-17.5281881003
 10
-32.7987579875
 20
-27.9668961135
 10
-32.7950698568
 20
-37.0283852401
  0
LINE
  5
23A
100
AcDbEntity
  8
0
100
AcDbLine
 62
7
  6
CONTINUOUS
 10
-35.0726642136
 20
-16.8824786897
 11
-35.0726634153
 21
-16.9083750572
  0
LINE
  5
23B
100
AcDbEntity
  8
0
100
AcDbLine
 62
7
  6
CONTINUOUS
 10
-35.0722178105
 20
-16.8822554881
 11
-35.0722178105
 21
44.6055481806
  0
LINE
  5
23C
100
AcDbEntity
  8
0
100
AcDbLine
 62
7
  6
CONTINUOUS
 10
-34.9825829503
 20
-16.9081487362
 11
-34.9825829503
 21
44.5796549325
  0
LINE
  5
23D
100
AcDbEntity
  8
0
100
AcDbLine
 62
7
  6
CONTINUOUS
 10
-32.7998465365
 20
-17.5281881059
 11
-32.7998465365
 21
43.9597247203
  0
LINE
  5
23E
100
AcDbEntity
  8
0
100
AcDbLine
 62
7
  6
CONTINUOUS
 10
-30.6623530438
 20
62.410493898
 11
-30.6623530438
 21
-35.9901287487
  0
LWPOLYLINE
  5
23F
100
AcDbEntity
  8
0
100
AcDbPolyline
 62
7
  6
CONTINUOUS
 90
3
 70
0
 10
-32.7950688349
 20
63.4631272404
 10
-32.7987573695
 20
54.3994163998
 10
-32.8000936527
 20
43.9597247147
  0
LINE
  5
240
100
AcDbEntity
  8
0
100
AcDbLine
 62
7
  6
CONTINUOUS
 10
-50.1628376277
 20
22.2262390002
 11
-50.1623796343
 21
22.5809899695
  0
LWPOLYLINE
  5
241
100
AcDbEntity
  8
0
100
AcDbPolyline
 62
7
  6
CONTINUOUS
 90
7
 70
0
 10
-50.1623796343
 20
22.5809899695
 10
-50.1529261947
 20
27.5769341767
 10
-50.135049349
 20
32.5728551626
 10
-50.1046719696
 20
37.568701622
 10
-50.0580389138
 20
42.6622562128
 10
-49.998457235
 20
47.7556904124
 10
-49.9302115662
 20
52.8490146375
  0
LINE
  5
242
100
AcDbEntity
  8
0
100
AcDbLine
 62
7
  6
CONTINUOUS
 10
-50.2947189647
 20
29.2661893277
 11
-50.3085937352
 21
22.5812253473
  0
LWPOLYLINE
  5
243
100
AcDbEntity
  8
0
100
AcDbPolyline
 62
7
  6
CONTINUOUS
 90
10
 70
0
 10
-35.0726642136
 20
44.605324979
 10
-35.0674645956
 20
46.72007811
 10
-35.0519740854
 20
48.834793676
 10
-35.0263515837
 20
50.949413424
 10
-34.9896046241
 20
53.1250301135
 10
-34.9426214158
 20
55.3004473869
 10
-34.8857239765
 20
57.4756289391
 10
-34.8173145686
 20
59.7099041947
 10
-34.7392911004
 20
61.9438633165
 10
-34.6521625465
 20
64.1774772506
  0
LWPOLYLINE
  5
244
100
AcDbEntity
  8
0
100
AcDbPolyline
 62
7
  6
CONTINUOUS
 90
10
 70
0
 10
-34.9830234424
 20
44.5794346865
 10
-34.9777226507
 20
46.7244947275
 10
-34.9619305213
 20
48.8695162768
 10
-34.9358081856
 20
51.0144395958
 10
-34.8983444124
 20
53.2212576025
 10
-34.8504541599
 20
55.4278715059
 10
-34.7924769448
 20
57.6342444441
 10
-34.7227990836
 20
59.9004823792
 10
-34.6433619358
 20
62.1663981215
 10
-34.5546923995
 20
64.4319626606
  0
LINE
  5
245
100
AcDbEntity
  8
0
100
AcDbLine
 62
7
  6
CONTINUOUS
 10
-50.2613438396
 20
36.3036536377
 11
-50.2947189647
 21
29.2661893277
  0
LINE
  5
246
100
AcDbEntity
  8
0
100
AcDbLine
 62
7
  6
CONTINUOUS
 10
-50.2342213955
 20
39.7958639249
 11
-50.2613438396
 21
36.3036536377
  0
LINE
  5
247
100
AcDbEntity
  8
0
100
AcDbLine
 62
7
  6
CONTINUOUS
 10
-50.1597522054
 20
46.7266759072
 11
-50.2342213955
 21
39.7958639249
  0
LINE
  5
248
100
AcDbEntity
  8
0
100
AcDbLine
 62
7
  6
CONTINUOUS
 10
-50.0463949315
 20
54.8330274173
 11
-50.1597522054
 21
46.7266759072
  0
LINE
  5
249
100
AcDbEntity
  8
0
100
AcDbLine
 62
7
  6
CONTINUOUS
 10
-49.9300661037
 20
52.8488157223
 11
-49.9245774344
 21
53.2081738866
  0
LWPOLYLINE
  5
24A
100
AcDbEntity
  8
0
100
AcDbPolyline
 62
7
  6
CONTINUOUS
 90
7
 70
0
 10
-49.9245774344
 20
53.2081738866
 10
-49.8703657476
 20
56.4516248137
 10
-49.8069888081
 20
59.69491417
 10
-49.7333752889
 20
62.9379845899
 10
-49.6456908926
 20
66.2936707221
 10
-49.5471707986
 20
69.6490589069
 10
-49.4390882168
 20
73.0041470706
  0
LINE
  5
24B
100
AcDbEntity
  8
0
100
AcDbLine
 62
7
  6
CONTINUOUS
 10
-49.9234284896
 20
61.3867604552
 11
-50.0463949315
 21
54.8330274173
  0
LINE
  5
24C
100
AcDbEntity
  8
0
100
AcDbLine
 62
7
  6
CONTINUOUS
 10
-49.8152991616
 20
66.1211269829
 11
-49.9234284896
 21
61.3867604552
  0
LINE
  5
24D
100
AcDbEntity
  8
0
100
AcDbLine
 62
7
  6
CONTINUOUS
 10
-49.5361547522
 20
76.6052583131
 11
-49.6089330323
 21
73.7400220912
  0
LINE
  5
24E
100
AcDbEntity
  8
0
100
AcDbLine
 62
7
  6
CONTINUOUS
 10
-49.6089330323
 20
73.7400220912
 11
-49.8152991616
 21
66.1211269829
  0
LINE
  5
24F
100
AcDbEntity
  8
0
100
AcDbLine
 62
7
  6
CONTINUOUS
 10
-49.5164885166
 20
77.2730278293
 11
-49.5361547522
 21
76.6052583131
  0
LWPOLYLINE
  5
250
100
AcDbEntity
  8
0
100
AcDbPolyline
 62
7
  6
CONTINUOUS
 90
14
 70
0
 10
-49.4173826902
 20
73.619798194
 10
-49.4050131972
 20
74.0068413156
 10
-49.3906090411
 20
74.5106320412
 10
-49.3774289144
 20
75.0144523124
 10
-49.3645464217
 20
75.5182842114
 10
-49.3510351676
 20
76.02210982
 10
-49.3359687568
 20
76.5259112202
 10
-49.3184207939
 20
77.0296704941
 10
-49.3095078993
 20
77.2543665829
 10
-49.2995886712
 20
77.4790192929
 10
-49.2883349292
 20
77.703597194
 10
-49.275418493
 20
77.9280688557
 10
-49.2605111822
 20
78.1524028476
 10
-49.2432848164
 20
78.3765677396
  0
LWPOLYLINE
  5
251
100
AcDbEntity
  8
0
100
AcDbPolyline
 62
7
  6
CONTINUOUS
 90
28
 70
0
 10
-34.6521625465
 20
64.1774772506
 10
-34.6517538844
 20
64.1893760504
 10
-34.651505138
 20
64.2012831587
 10
-34.6514202018
 20
64.2131954094
 10
-34.6515029707
 20
64.2251096364
 10
-34.6517573394
 20
64.2370226733
 10
-34.6521872026
 20
64.248931354
 10
-34.6527964551
 20
64.2608325123
 10
-34.6535889915
 20
64.2727229821
 10
-34.6545687066
 20
64.284599597
 10
-34.6557394951
 20
64.296459191
 10
-34.6569786777
 20
64.3072680764
 10
-34.6583846989
 20
64.3180565005
 10
-34.6599619129
 20
64.3288208258
 10
-34.6617146741
 20
64.3395574148
 10
-34.6636473367
 20
64.3502626299
 10
-34.6657642552
 20
64.3609328336
 10
-34.6680697837
 20
64.3715643884
 10
-34.6705682767
 20
64.3821536567
 10
-34.6732640884
 20
64.392697001
 10
-34.6761615732
 20
64.4031907839
 10
-34.6788729718
 20
64.4123525889
 10
-34.6817456735
 20
64.4214676176
 10
-34.6847824163
 20
64.4305300373
 10
-34.6879859381
 20
64.4395340155
 10
-34.6913589769
 20
64.4484737193
 10
-34.6949042706
 20
64.4573433163
 10
-34.6986245573
 20
64.4661369736
  0
LINE
  5
252
100
AcDbEntity
  8
0
100
AcDbLine
 62
7
  6
CONTINUOUS
 10
-49.4929827545
 20
77.9260265939
 11
-49.5164885166
 21
77.2730278293
  0
LWPOLYLINE
  5
253
100
AcDbEntity
  8
0
100
AcDbPolyline
 62
7
  6
CONTINUOUS
 90
4
 70
0
 10
-49.4390882182
 20
73.0041470304
 10
-49.4316223604
 20
73.2093554821
 10
-49.4243753368
 20
73.4145726046
 10
-49.4173826902
 20
73.619798194
  0
LINE
  5
254
100
AcDbEntity
  8
0
100
AcDbLine
 62
7
  6
CONTINUOUS
 10
-49.4638595018
 20
78.5610843604
 11
-49.4929827545
 21
77.9260265939
  0
LINE
  5
255
100
AcDbEntity
  8
0
100
AcDbLine
 62
7
  6
CONTINUOUS
 10
-49.4517416936
 20
78.7857014774
 11
-49.4638595018
 21
78.5610843604
  0
LINE
  5
256
100
AcDbEntity
  8
0
100
AcDbLine
 62
7
  6
CONTINUOUS
 10
-49.4259486974
 20
79.1414864823
 11
-49.4516174288
 21
78.7880478538
  0
LWPOLYLINE
  5
257
100
AcDbEntity
  8
0
100
AcDbPolyline
 62
7
  6
CONTINUOUS
 90
13
 70
0
 10
-49.2432904331
 20
78.3764974885
 10
-49.2369532655
 20
78.455215491
 10
-49.2301140839
 20
78.533893584
 10
-49.2227529187
 20
78.6125254454
 10
-49.2148498003
 20
78.6911047533
 10
-49.2063847592
 20
78.7696251859
 10
-49.1978943766
 20
78.8433915148
 10
-49.1888666833
 20
78.9170933169
 10
-49.1792787618
 20
78.9907236995
 10
-49.1691076949
 20
79.0642757704
 10
-49.1604474175
 20
79.1236514202
 10
-49.1513835247
 20
79.1829665829
 10
-49.1419081805
 20
79.2422164127
  0
LINE
  5
258
100
AcDbEntity
  8
0
100
AcDbLine
 62
7
  6
CONTINUOUS
 10
-49.387139381
 20
79.5063928679
 11
-49.4259486974
 21
79.1414864823
  0
LWPOLYLINE
  5
259
100
AcDbEntity
  8
0
100
AcDbPolyline
 62
7
  6
CONTINUOUS
 90
41
 70
0
 10
-35.0702302519
 20
64.9177008134
 10
-35.0701519987
 20
64.9182542997
 10
-35.0700631913
 20
64.918802237
 10
-35.0699637355
 20
64.9193445589
 10
-35.0698535372
 20
64.9198811988
 10
-35.0697325023
 20
64.9204120905
 10
-35.0696005366
 20
64.9209371672
 10
-35.069457546
 20
64.9214563627
 10
-35.0693034364
 20
64.9219696103
 10
-35.0691381136
 20
64.9224768437
 10
-35.0689614834
 20
64.9229779963
 10
-35.0687734519
 20
64.9234730016
 10
-35.0685739248
 20
64.9239617933
 10
-35.0683628079
 20
64.9244443047
 10
-35.0681400073
 20
64.9249204695
 10
-35.0679054286
 20
64.9253902212
 10
-35.0676589778
 20
64.9258534932
 10
-35.0674005608
 20
64.9263102191
 10
-35.0671300834
 20
64.9267603325
 10
-35.0668474515
 20
64.9272037668
 10
-35.0665525709
 20
64.9276404556
 10
-35.0662453475
 20
64.9280703324
 10
-35.0659256873
 20
64.9284933306
 10
-35.0655934959
 20
64.928909384
 10
-35.0652486794
 20
64.9293184259
 10
-35.0648911435
 20
64.9297203899
 10
-35.0645207942
 20
64.9301152095
 10
-35.0641375372
 20
64.9305028182
 10
-35.0637412786
 20
64.9308831496
 10
-35.063331924
 20
64.9312561372
 10
-35.0629093795
 20
64.9316217145
 10
-35.0624735508
 20
64.931979815
 10
-35.0620243439
 20
64.9323303722
 10
-35.0615616645
 20
64.9326733197
 10
-35.0610854186
 20
64.9330085911
 10
-35.0605955121
 20
64.9333361197
 10
-35.0600918507
 20
64.9336558392
 10
-35.0595743404
 20
64.933967683
 10
-35.059042887
 20
64.9342715848
 10
-35.0584973964
 20
64.9345674779
 10
-35.0579377744
 20
64.934855296
  0
LINE
  5
25A
100
AcDbEntity
  8
0
100
AcDbLine
 62
7
  6
CONTINUOUS
 10
-49.3362108669
 20
79.855222351
 11
-49.387139381
 21
79.5063928679
  0
LWPOLYLINE
  5
25B
100
AcDbEntity
  8
0
100
AcDbPolyline
 62
7
  6
CONTINUOUS
 90
62
 70
0
 10
-49.1419081805
 20
79.2422164127
 10
-49.1356510802
 20
79.2799412371
 10
-49.1098084619
 20
79.425292345
 10
-49.0809773638
 20
79.5701056941
 10
-49.0541798238
 20
79.6911837246
 10
-49.0248569926
 20
79.8116980558
 10
-48.9928856741
 20
79.9315303711
 10
-48.958142672
 20
80.0505623539
 10
-48.9205047903
 20
80.1686756874
 10
-48.8877397738
 20
80.263910715
 10
-48.8531300607
 20
80.3584981083
 10
-48.8112361206
 20
80.4663557979
 10
-48.7669777893
 20
80.5732838939
 10
-48.720228796
 20
80.6791582606
 10
-48.6708628701
 20
80.7838547619
 10
-48.6187537409
 20
80.8872492621
 10
-48.5628136691
 20
80.9909731431
 10
-48.5038890817
 20
81.093074744
 10
-48.4419655026
 20
81.193407903
 10
-48.3770284553
 20
81.2918264583
 10
-48.3090634635
 20
81.388184248
 10
-48.238056051
 20
81.4823351105
 10
-48.1639917414
 20
81.5741328837
 10
-48.0908029761
 20
81.6590137756
 10
-48.0148840978
 20
81.7414824703
 10
-47.9362763114
 20
81.821381859
 10
-47.8550208219
 20
81.8985548331
 10
-47.7711588341
 20
81.9728442837
 10
-47.6847315529
 20
82.0440931022
 10
-47.5957801831
 20
82.1121441798
 10
-47.5043232878
 20
82.1768800893
 10
-47.41051925
 20
82.2381811992
 10
-47.3145058871
 20
82.295970365
 10
-47.2164210163
 20
82.3501704422
 10
-47.1164024552
 20
82.4007042864
 10
-47.0145880211
 20
82.4474947528
 10
-46.9107751016
 20
82.4906115906
 10
-46.8054461368
 20
82.5298769955
 10
-46.6987540558
 20
82.5652852158
 10
-46.5908517877
 20
82.5968305002
 10
-46.4818922615
 20
82.624507097
 10
-46.3720284065
 20
82.6483092547
 10
-46.25906177
 20
82.6686154422
 10
-46.1454514027
 20
82.684897261
 10
-46.031337108
 20
82.6971764742
 10
-45.9168586896
 20
82.7054748448
 10
-45.802155951
 20
82.709814136
 10
-45.6873686957
 20
82.7102161107
 10
-45.5661867124
 20
82.7064034989
 10
-45.4452090976
 20
82.6983343402
 10
-45.3245785412
 20
82.6861203243
 10
-45.2044377331
 20
82.6698731415
 10
-45.0849293631
 20
82.6497044815
 10
-44.9661961212
 20
82.6257260343
 10
-44.84166641
 20
82.5964507161
 10
-44.7180432693
 20
82.5636760841
 10
-44.6276061537
 20
82.5376545417
 10
-44.5376239765
 20
82.5100943975
 10
-44.4160821542
 20
82.4702231385
 10
-44.2954165732
 20
82.4277581732
 10
-44.1367960683
 20
82.3678259454
 10
-43.9796728306
 20
82.3040893874
  0
LWPOLYLINE
  5
25C
100
AcDbEntity
  8
0
100
AcDbPolyline
 62
7
  6
CONTINUOUS
 90
43
 70
0
 10
-43.9795225121
 20
82.3040264064
 10
-43.9710758071
 20
82.3494946345
 10
-43.9620704005
 20
82.3948965576
 10
-43.9524604467
 20
82.4402000725
 10
-43.9422001001
 20
82.4853730757
 10
-43.9312435153
 20
82.5303834641
 10
-43.9195448465
 20
82.5751991342
 10
-43.9070582483
 20
82.6197879827
 10
-43.893737875
 20
82.6641179062
 10
-43.879537881
 20
82.7081568015
 10
-43.8644124209
 20
82.7518725653
 10
-43.848315649
 20
82.7952330941
 10
-43.8330771082
 20
82.8336465138
 10
-43.8170093357
 20
82.8717186509
 10
-43.8000950975
 20
82.909417435
 10
-43.7823171593
 20
82.9467107959
 10
-43.7636582873
 20
82.9835666633
 10
-43.7456147205
 20
83.0172282754
 10
-43.7268276516
 20
83.0504830911
 10
-43.7073213372
 20
83.0833256993
 10
-43.6871200335
 20
83.1157506887
 10
-43.6662479968
 20
83.1477526484
 10
-43.645718212
 20
83.1778878819
 10
-43.6245750313
 20
83.207592494
 10
-43.6027938431
 20
83.2368260695
 10
-43.5803500355
 20
83.2655481934
 10
-43.5572189971
 20
83.2937184507
 10
-43.5326890799
 20
83.3220801544
 10
-43.5074178055
 20
83.3497901065
 10
-43.4814170104
 20
83.3768232432
 10
-43.4546985313
 20
83.4031545005
 10
-43.4272742046
 20
83.4287588143
 10
-43.3976827488
 20
83.4548883688
 10
-43.3673703171
 20
83.4802040648
 10
-43.3363838825
 20
83.5047241674
 10
-43.304770418
 20
83.5284669419
 10
-43.2725768964
 20
83.5514506536
 10
-43.2398502907
 20
83.5736935676
 10
-43.2066375739
 20
83.5952139493
 10
-43.1729857189
 20
83.6160300638
 10
-43.1389416986
 20
83.6361601765
 10
-43.1045524859
 20
83.6556225524
 10
-43.0698650539
 20
83.6744354569
  0
LINE
  5
25D
100
AcDbEntity
  8
0
100
AcDbLine
 62
7
  6
CONTINUOUS
 10
-49.2736227941
 20
80.1875052368
 11
-49.3362108669
 21
79.855222351
  0
LINE
  5
25E
100
AcDbEntity
  8
0
100
AcDbLine
 62
7
  6
CONTINUOUS
 10
-49.1993473505
 20
80.5039216681
 11
-49.2736227941
 21
80.1875052368
  0
LINE
  5
25F
100
AcDbEntity
  8
0
100
AcDbLine
 62
7
  6
CONTINUOUS
 10
-49.114155324
 20
80.8040836812
 11
-49.1993473505
 21
80.5039216681
  0
LINE
  5
260
100
AcDbEntity
  8
0
100
AcDbLine
 62
7
  6
CONTINUOUS
 10
-49.0188685476
 20
81.0878247748
 11
-49.114155324
 21
80.8040836812
  0
LINE
  5
261
100
AcDbEntity
  8
0
100
AcDbLine
 62
7
  6
CONTINUOUS
 10
-48.913780919
 20
81.3571762118
 11
-49.0188685476
 21
81.0878247748
  0
LINE
  5
262
100
AcDbEntity
  8
0
100
AcDbLine
 62
7
  6
CONTINUOUS
 10
-48.7994216535
 20
81.6123153337
 11
-48.913780919
 21
81.3571762118
  0
LINE
  5
263
100
AcDbEntity
  8
0
100
AcDbLine
 62
7
  6
CONTINUOUS
 10
-48.6762220163
 20
81.8534085609
 11
-48.7994216535
 21
81.6123153337
  0
LINE
  5
264
100
AcDbEntity
  8
0
100
AcDbLine
 62
7
  6
CONTINUOUS
 10
-48.5440092319
 20
82.081904879
 11
-48.6762220163
 21
81.8534085609
  0
LINE
  5
265
100
AcDbEntity
  8
0
100
AcDbLine
 62
7
  6
CONTINUOUS
 10
46.7358051478
 20
-88.1583027898
 11
46.9931724237
 21
-88.0894350578
  0
LINE
  5
266
100
AcDbEntity
  8
0
100
AcDbLine
 62
7
  6
CONTINUOUS
 10
46.4775961268
 20
-88.2111356057
 11
46.7358051478
 21
-88.1583027898
  0
LINE
  5
267
100
AcDbEntity
  8
0
100
AcDbLine
 62
7
  6
CONTINUOUS
 10
46.2192858393
 20
-88.2481898897
 11
46.4775961268
 21
-88.2111356057
  0
LINE
  5
268
100
AcDbEntity
  8
0
100
AcDbLine
 62
7
  6
CONTINUOUS
 10
45.9591344979
 20
-88.2701695686
 11
46.2192858393
 21
-88.2481898897
  0
LWPOLYLINE
  5
269
100
AcDbEntity
  8
0
100
AcDbPolyline
 62
7
  6
CONTINUOUS
 90
27
 70
0
 10
30.4770457657
 20
-71.666684785
 10
30.4605905657
 20
-71.667862735
 10
30.44410071
 20
-71.6687090506
 10
30.4275836328
 20
-71.6692261427
 10
30.4110467684
 20
-71.6694164227
 10
30.394497551
 20
-71.6692823016
 10
30.3779434147
 20
-71.6688261905
 10
30.361391794
 20
-71.6680505007
 10
30.3448501229
 20
-71.6669576433
 10
30.3283258357
 20
-71.6655500293
 10
30.3118263667
 20
-71.66383007
 10
30.2953591501
 20
-71.6618001766
 10
30.2789316201
 20
-71.65946276
 10
30.262551211
 20
-71.6568202316
 10
30.246225357
 20
-71.6538750024
 10
30.2299614922
 20
-71.6506294837
 10
30.2137670511
 20
-71.6470860864
 10
30.1976494677
 20
-71.6432472218
 10
30.1816161764
 20
-71.6391153011
 10
30.1656746113
 20
-71.6346927353
 10
30.1498322067
 20
-71.6299819356
 10
30.1340963968
 20
-71.6249853132
 10
30.1184746158
 20
-71.6197052792
 10
30.1029742981
 20
-71.6141442448
 10
30.0876028778
 20
-71.6083046211
 10
30.0723677892
 20
-71.6021888192
 10
30.0572764664
 20
-71.5957992503
  0
LINE
  5
26A
100
AcDbEntity
  8
0
100
AcDbLine
 62
7
  6
CONTINUOUS
 10
45.6952648957
 20
-88.27734375
 11
45.9591344979
 21
-88.2701695686
  0
LINE
  5
26B
100
AcDbEntity
  8
0
100
AcDbLine
 62
7
  6
CONTINUOUS
 10
45.4272580299
 20
-88.2695911962
 11
45.6952648957
 21
-88.27734375
  0
LWPOLYLINE
  5
26C
100
AcDbEntity
  8
0
100
AcDbPolyline
 62
7
  6
CONTINUOUS
 90
17
 70
0
 10
-34.6521568938
 20
-36.5529783673
 10
-34.9893840102
 20
-36.5272489309
 10
-35.3264371855
 20
-36.4992564128
 10
-35.6632738823
 20
-36.4687508621
 10
-35.9998515632
 20
-36.4354823279
 10
-36.3099334287
 20
-36.4021396164
 10
-36.6197043125
 20
-36.3660256104
 10
-36.929109623
 20
-36.3269307086
 10
-37.2380947687
 20
-36.28464531
 10
-37.5215343279
 20
-36.2428048387
 10
-37.8045095606
 20
-36.1979210374
 10
-38.0869568268
 20
-36.1498202025
 10
-38.3688124864
 20
-36.0983286301
 10
-38.6261805873
 20
-36.0480845895
 10
-38.8829179427
 20
-35.9947160119
 10
-39.1389426016
 20
-35.9380837187
 10
-39.3941726132
 20
-35.8780485313
  0
LWPOLYLINE
  5
26D
100
AcDbEntity
  8
0
100
AcDbPolyline
 62
7
  6
CONTINUOUS
 90
8
 70
0
 10
-32.7962882351
 20
-37.0283859229
 10
-33.0968416925
 20
-37.0032393403
 10
-33.3973245955
 20
-36.9772582453
 10
-33.6977205647
 20
-36.9502826917
 10
-33.9120639237
 20
-36.9303322659
 10
-34.1263460702
 20
-36.909735103
 10
-34.3405584227
 20
-36.8884325562
 10
-34.5546923995
 20
-36.8663659785
  0
LINE
  5
26E
100
AcDbEntity
  8
0
100
AcDbLine
 62
7
  6
CONTINUOUS
 10
45.1554794528
 20
-88.2467330315
 11
45.4272580299
 21
-88.2695911962
  0
LINE
  5
26F
100
AcDbEntity
  8
0
100
AcDbLine
 62
7
  6
CONTINUOUS
 10
44.8796298599
 20
-88.2085000523
 11
45.1554794528
 21
-88.2467330315
  0
LWPOLYLINE
  5
270
100
AcDbEntity
  8
0
100
AcDbPolyline
 62
7
  6
CONTINUOUS
 90
17
 70
0
 10
-34.7959654343
 20
-37.1681541001
 10
-35.1264498136
 20
-37.1197689156
 10
-35.456579778
 20
-37.0689733751
 10
-35.786295376
 20
-37.0155408812
 10
-36.1155366562
 20
-36.9592448366
 10
-36.4196787705
 20
-36.9044100896
 10
-36.7232956201
 20
-36.8467416498
 10
-37.0263192904
 20
-36.7860510799
 10
-37.3286818665
 20
-36.7221499424
 10
-37.6067167989
 20
-36.6602454935
 10
-37.8840572845
 20
-36.595293793
 10
-38.1606281702
 20
-36.527135046
 10
-38.4363543029
 20
-36.4556094578
 10
-38.6885572109
 20
-36.386876022
 10
-38.9398955425
 20
-36.3150490911
 10
-39.1902793306
 20
-36.2400047842
 10
-39.4396186082
 20
-36.1616192199
  0
LINE
  5
271
100
AcDbEntity
  8
0
100
AcDbLine
 62
7
  6
CONTINUOUS
 10
44.5991199601
 20
-88.1544324338
 11
44.8796298599
 21
-88.2085000523
  0
LWPOLYLINE
  5
272
100
AcDbEntity
  8
0
100
AcDbPolyline
 62
7
  6
CONTINUOUS
 90
17
 70
0
 10
44.0624726304
 20
-87.551129895
 10
44.0150983171
 20
-87.5407256646
 10
43.9678286364
 20
-87.5298788852
 10
43.9206586327
 20
-87.5186154144
 10
43.8735833503
 20
-87.5069611098
 10
43.8110180533
 20
-87.4908657243
 10
43.7486183481
 20
-87.4741312438
 10
43.6863905493
 20
-87.456766177
 10
43.6229859765
 20
-87.4383819395
 10
43.5597654597
 20
-87.4193736875
 10
43.4967269618
 20
-87.3997669617
 10
43.433868446
 20
-87.3795873029
 10
43.3672509418
 20
-87.3575371694
 10
43.3008334457
 20
-87.3348903731
 10
43.2346149287
 20
-87.3116686801
 10
43.1685943615
 20
-87.2878938561
 10
43.1027707149
 20
-87.2635876669
  0
LWPOLYLINE
  5
273
100
AcDbEntity
  8
0
100
AcDbPolyline
 62
7
  6
CONTINUOUS
 90
31
 70
0
 10
-39.3941726132
 20
-35.8780485313
 10
-39.5886171822
 20
-35.8302615431
 10
-39.7827442248
 20
-35.7811980284
 10
-39.9590377859
 20
-35.7353089444
 10
-40.1349789375
 20
-35.6880880349
 10
-40.294138367
 20
-35.6440109734
 10
-40.4529258807
 20
-35.5986128901
 10
-40.5958724075
 20
-35.5564113763
 10
-40.7384399994
 20
-35.5129476628
 10
-40.8667040223
 20
-35.4725734702
 10
-40.994591278
 20
-35.4310218957
 10
-41.1102085947
 20
-35.3922605228
 10
-41.2254552022
 20
-35.3524109588
 10
-41.3303818312
 20
-35.3150061354
 10
-41.4349437035
 20
-35.2765939366
 10
-41.531094562
 20
-35.2402056678
 10
-41.6268831084
 20
-35.202874291
 10
-41.7162470538
 20
-35.1670150117
 10
-41.8052421965
 20
-35.1302505276
 10
-41.8913032332
 20
-35.0936366291
 10
-41.9769639034
 20
-35.0560946323
 10
-42.0646892786
 20
-35.0164385405
 10
-42.1519125177
 20
-34.9756923199
 10
-42.2461580707
 20
-34.9300701036
 10
-42.339726443
 20
-34.8830651838
 10
-42.4102576328
 20
-34.8464364927
 10
-42.4802824675
 20
-34.8088536603
 10
-42.5496986755
 20
-34.7701657904
 10
-42.6343712216
 20
-34.7208014606
 10
-42.7180848207
 20
-34.6698119913
 10
-42.8009618006
 20
-34.6174825157
  0
LINE
  5
274
100
AcDbEntity
  8
0
100
AcDbLine
 62
7
  6
CONTINUOUS
 10
44.3136564099
 20
-88.0841994391
 11
44.5991199601
 21
-88.1544324338
  0
LWPOLYLINE
  5
275
100
AcDbEntity
  8
0
100
AcDbPolyline
 62
7
  6
CONTINUOUS
 90
37
 70
0
 10
48.2826916781
 20
-83.3778858429
 10
48.3314089237
 20
-83.3916025444
 10
48.3803188809
 20
-83.4047398702
 10
48.429415154
 20
-83.4172396866
 10
48.4786913474
 20
-83.4290438597
 10
48.5281410654
 20
-83.4400942556
 10
48.5777579124
 20
-83.4503327406
 10
48.6275354925
 20
-83.4597011809
 10
48.6774674103
 20
-83.4681414426
 10
48.72754727
 20
-83.4755953918
 10
48.777768676
 20
-83.4820048948
 10
48.8285143643
 20
-83.4873578045
 10
48.8793724772
 20
-83.4915865181
 10
48.930318178
 20
-83.494686638
 10
48.9813266304
 20
-83.4966537662
 10
49.0323729976
 20
-83.497483505
 10
49.0834324431
 20
-83.4971714565
 10
49.1344801305
 20
-83.4957132231
 10
49.185491223
 20
-83.4931044069
 10
49.2332310921
 20
-83.4896076839
 10
49.2808838942
 20
-83.485067931
 10
49.3284164968
 20
-83.4794561496
 10
49.3757957674
 20
-83.4727433412
 10
49.4229885735
 20
-83.4649005074
 10
49.4699617827
 20
-83.4558986496
 10
49.5166822625
 20
-83.4457087693
 10
49.5631168803
 20
-83.4343018681
 10
49.6062775547
 20
-83.4225139364
 10
49.6491519777
 20
-83.4096859427
 10
49.6917331457
 20
-83.3958685901
 10
49.7340140548
 20
-83.3811125816
 10
49.7759877014
 20
-83.3654686204
 10
49.8176470817
 20
-83.3489874096
 10
49.858985192
 20
-83.3317196523
 10
49.8999950286
 20
-83.3137160516
 10
49.9406695877
 20
-83.2950273105
 10
49.9810018656
 20
-83.2757041322
  0
LINE
  5
276
100
AcDbEntity
  8
0
100
AcDbLine
 62
7
  6
CONTINUOUS
 10
44.02495043
 20
-87.9986521748
 11
44.3136564099
 21
-88.0841994391
  0
LINE
  5
277
100
AcDbEntity
  8
0
100
AcDbLine
 62
7
  6
CONTINUOUS
 10
43.7350797072
 20
-87.8979355561
 11
44.02495043
 21
-87.9986521748
  0
LWPOLYLINE
  5
278
100
AcDbEntity
  8
0
100
AcDbPolyline
 62
7
  6
CONTINUOUS
 90
24
 70
0
 10
-39.4396145737
 20
-36.1616219734
 10
-39.7940589869
 20
-36.0276302287
 10
-40.1187447002
 20
-35.9026349212
 10
-40.2669470658
 20
-35.8446233672
 10
-40.4149017492
 20
-35.7859831215
 10
-40.549393114
 20
-35.7319675812
 10
-40.6836214683
 20
-35.6773018757
 10
-40.8053976919
 20
-35.6269860092
 10
-40.9269067548
 20
-35.5760285036
 10
-41.1476961362
 20
-35.4812824818
 10
-41.3490714519
 20
-35.3921063896
 10
-41.5340284846
 20
-35.3075221943
 10
-41.7054899045
 20
-35.2264948508
 10
-41.8674808321
 20
-35.1473219189
 10
-42.0265115336
 20
-35.0667908307
 10
-42.1087973385
 20
-35.0239073447
 10
-42.190711153
 20
-34.9803167423
 10
-42.2795355262
 20
-34.9319537902
 10
-42.3678364769
 20
-34.8826434213
 10
-42.4670546973
 20
-34.8256160268
 10
-42.5654408271
 20
-34.7671535366
 10
-42.6447786535
 20
-34.7184210563
 10
-42.7233470934
 20
-34.668463671
 10
-42.8009922875
 20
-34.6170994538
  0
LINE
  5
279
100
AcDbEntity
  8
0
100
AcDbLine
 62
7
  6
CONTINUOUS
 10
43.4828609101
 20
-87.7999984141
 11
43.7350797072
 21
-87.8979355561
  0
LWPOLYLINE
  5
27A
100
AcDbEntity
  8
0
100
AcDbPolyline
 62
7
  6
CONTINUOUS
 90
16
 70
0
 10
43.1024741059
 20
-87.2634748463
 10
42.9610109643
 20
-87.2077510831
 10
42.8201434424
 20
-87.150548609
 10
42.6797523491
 20
-87.0921639185
 10
42.5397184933
 20
-87.0328935063
 10
42.3999226839
 20
-86.9730338669
 10
42.2602457297
 20
-86.912881495
 10
42.1205684398
 20
-86.8527328851
 10
41.9807716229
 20
-86.7928845318
 10
41.7968048592
 20
-86.7149115206
 10
41.6128473609
 20
-86.636939494
 10
41.3681541538
 20
-86.5316852184
 10
41.124078598
 20
-86.4249971572
 10
40.7986411071
 20
-86.2808179934
 10
40.4737578445
 20
-86.1353700418
 10
40.3509555885
 20
-86.0801686119
  0
LINE
  5
27B
100
AcDbEntity
  8
0
100
AcDbLine
 62
7
  6
CONTINUOUS
 10
43.2949680856
 20
-87.72162604
 11
43.4756162632
 21
-87.7971937774
  0
LINE
  5
27C
100
AcDbEntity
  8
0
100
AcDbLine
 62
7
  6
CONTINUOUS
 10
42.7768385673
 20
-87.5017303355
 11
43.2949680856
 21
-87.72162604
  0
LWPOLYLINE
  5
27D
100
AcDbEntity
  8
0
100
AcDbPolyline
 62
7
  6
CONTINUOUS
 90
13
 70
0
 10
30.8772034513
 20
-71.5462249741
 10
31.4130696807
 20
-71.7767766558
 10
31.949214235
 20
-72.0066838465
 10
32.2788181715
 20
-72.1476265722
 10
32.6082402313
 20
-72.2889900888
 10
32.9371306193
 20
-72.43158164
 10
33.2338921031
 20
-72.5621929174
 10
33.529893475
 20
-72.6945229783
 10
33.8250957357
 20
-72.8286255812
 10
34.2259240887
 20
-73.0142337133
 10
34.6252014155
 20
-73.2031562594
 10
34.9983729901
 20
-73.383364675
 10
35.3701193008
 20
-73.5664881744
  0
LINE
  5
27E
100
AcDbEntity
  8
0
100
AcDbLine
 62
7
  6
CONTINUOUS
 10
42.278511765
 20
-87.2865263116
 11
42.7768385673
 21
-87.5017303355
  0
LINE
  5
27F
100
AcDbEntity
  8
0
100
AcDbLine
 62
7
  6
CONTINUOUS
 10
30.0572764664
 20
-71.5957992503
 11
30.0223001779
 21
-71.5805990165
  0
LWPOLYLINE
  5
280
100
AcDbEntity
  8
0
100
AcDbPolyline
 62
7
  6
CONTINUOUS
 90
13
 70
0
 10
30.0223001779
 20
-71.5805990165
 10
27.3058761619
 20
-70.3926143577
 10
24.5948511568
 20
-69.1923220519
 10
21.8892453045
 20
-67.9798525861
 10
19.1643555791
 20
-66.7440466205
 10
16.445035714
 20
-65.4960433914
 10
13.7313161037
 20
-64.2359141627
 10
11.0097564592
 20
-62.9573617118
 10
8.2939217685
 20
-61.6666879977
 10
5.5838501161
 20
-60.363946855
 10
2.8661003075
 20
-59.0425995822
 10
0.1542637343
 20
-57.7091681837
 10
-2.55160554
 20
-56.3637023421
  0
LWPOLYLINE
  5
281
100
AcDbEntity
  8
0
100
AcDbPolyline
 62
7
  6
CONTINUOUS
 90
10
 70
0
 10
30.0539169714
 20
-71.5083005577
 10
26.4124687175
 20
-69.9117352074
 10
22.7806760623
 20
-68.2932362899
 10
19.1586152968
 20
-66.6530545313
 10
15.5220566406
 20
-64.9801534164
 10
11.8955128872
 20
-63.2856699327
 10
8.2790581406
 20
-61.569743613
 10
4.6597652871
 20
-59.8261996909
 10
1.0508276967
 20
-58.0613365951
 10
-2.5476360353
 20
-56.2752926411
  0
LWPOLYLINE
  5
282
100
AcDbEntity
  8
0
100
AcDbPolyline
 62
7
  6
CONTINUOUS
 90
19
 70
0
 10
29.54062627
 20
-71.7924669723
 10
29.9654148017
 20
-71.9790147922
 10
31.1787995967
 20
-72.5102911327
 10
31.7401170335
 20
-72.7555551779
 10
32.301954875
 20
-72.9996348719
 10
32.8098836943
 20
-73.2177345174
 10
33.3194222896
 20
-73.4320230815
 10
33.7729475082
 20
-73.6175480795
 10
34.2281355358
 20
-73.7989713216
 10
34.6472321388
 20
-73.962117582
 10
35.0676161717
 20
-74.1219086822
 10
35.4716751353
 20
-74.2716832593
 10
35.8769599904
 20
-74.4181097748
 10
36.2851523698
 20
-74.561719998
 10
36.6945539726
 20
-74.7018488961
 10
37.1259266394
 20
-74.8452045459
 10
37.5586819063
 20
-74.9843243961
 10
38.0367815319
 20
-75.1324216525
 10
38.516297638
 20
-75.275865764
  0
LINE
  5
283
100
AcDbEntity
  8
0
100
AcDbLine
 62
7
  6
CONTINUOUS
 10
41.3422389351
 20
-86.8749639265
 11
42.278511765
 21
-87.2865263116
  0
LWPOLYLINE
  5
284
100
AcDbEntity
  8
0
100
AcDbPolyline
 62
7
  6
CONTINUOUS
 90
12
 70
0
 10
39.6084830378
 20
-85.7543291869
 10
37.0966696561
 20
-84.6454539749
 10
34.5874769749
 20
-83.5306595954
 10
30.8089393147
 20
-81.8339065993
 10
27.0386659935
 20
-80.1187974171
 10
23.2765083505
 20
-78.3858912481
 10
19.5223177252
 20
-76.6357472914
 10
15.7469343475
 20
-74.8549351006
 10
11.9798716658
 20
-73.0566297607
 10
8.221509962
 20
-71.2402770898
 10
4.4722295184
 20
-69.4053229058
 10
-0.0751409088
 20
-67.1509542502
  0
LINE
  5
285
100
AcDbEntity
  8
0
100
AcDbLine
 62
7
  6
CONTINUOUS
 10
35.2100321966
 20
-84.1495913076
 11
41.3422389351
 21
-86.8749639265
  0
LWPOLYLINE
  5
286
100
AcDbEntity
  8
0
100
AcDbPolyline
 62
7
  6
CONTINUOUS
 90
9
 70
0
 10
40.3509555885
 20
-86.0801686119
 10
40.2584979135
 20
-86.0386420443
 10
40.1659975101
 20
-85.9972121127
 10
40.0734266396
 20
-85.9559440325
 10
39.9807575635
 20
-85.9149030193
 10
39.8879625431
 20
-85.8741542883
 10
39.79501384
 20
-85.833763055
 10
39.7018837155
 20
-85.7937945348
 10
39.608544431
 20
-85.7543139432
  0
LINE
  5
287
100
AcDbEntity
  8
0
100
AcDbLine
 62
7
  6
CONTINUOUS
 10
30.2506506103
 20
-81.9113812497
 11
35.2100321966
 21
-84.1495913076
  0
LINE
  5
288
100
AcDbEntity
  8
0
100
AcDbLine
 62
7
  6
CONTINUOUS
 10
25.4319689084
 20
-79.7009378993
 11
30.2506506103
 21
-81.9113812497
  0
LINE
  5
289
100
AcDbEntity
  8
0
100
AcDbLine
 62
7
  6
CONTINUOUS
 10
20.7542768721
 20
-77.5226584816
 11
25.4319689084
 21
-79.7009378993
  0
LINE
  5
28A
100
AcDbEntity
  8
0
100
AcDbLine
 62
7
  6
CONTINUOUS
 10
16.2180821191
 20
-75.3805389903
 11
20.7542768721
 21
-77.5226584816
  0
LINE
  5
28B
100
AcDbEntity
  8
0
100
AcDbLine
 62
7
  6
CONTINUOUS
 10
11.8241164037
 20
-73.2770739337
 11
16.2180821191
 21
-75.3805389903
  0
LWPOLYLINE
  5
28C
100
AcDbEntity
  8
0
100
AcDbPolyline
 62
7
  6
CONTINUOUS
 90
41
 70
0
 10
0.3458239606
 20
-55.5768697162
 10
0.3488150676
 20
-55.5783089662
 10
0.3518507793
 20
-55.5796571443
 10
0.3549285839
 20
-55.5809152456
 10
0.3580459699
 20
-55.5820842648
 10
0.3612004255
 20
-55.583165197
 10
0.3643894393
 20
-55.5841590369
 10
0.3676104995
 20
-55.5850667796
 10
0.3708610944
 20
-55.5858894199
 10
0.3741387126
 20
-55.5866279527
 10
0.3774408423
 20
-55.587283373
 10
0.3807649719
 20
-55.5878566756
 10
0.3841085898
 20
-55.5883488554
 10
0.3874691843
 20
-55.5887609075
 10
0.3908442438
 20
-55.5890938265
 10
0.3942312567
 20
-55.5893486076
 10
0.3976277114
 20
-55.5895262455
 10
0.4010310961
 20
-55.5896277352
 10
0.4044388993
 20
-55.5896540717
 10
0.4078486094
 20
-55.5896062497
 10
0.4112577147
 20
-55.5894852642
 10
0.4146637036
 20
-55.5892921101
 10
0.4180640644
 20
-55.5890277824
 10
0.4214562855
 20
-55.5886932758
 10
0.4248378553
 20
-55.5882895854
 10
0.4282062621
 20
-55.5878177061
 10
0.4315589944
 20
-55.5872786327
 10
0.4348935404
 20
-55.5866733601
 10
0.4388035059
 20
-55.5858750986
 10
0.4426844371
 20
-55.5849878811
 10
0.4465361398
 20
-55.5840136055
 10
0.4503584195
 20
-55.5829541698
 10
0.4541510818
 20
-55.5818114719
 10
0.4579139324
 20
-55.5805874095
 10
0.4616467769
 20
-55.5792838808
 10
0.465349421
 20
-55.5779027835
 10
0.4690216701
 20
-55.5764460156
 10
0.4726633301
 20
-55.574915475
 10
0.4762742064
 20
-55.5733130595
 10
0.4798541048
 20
-55.5716406671
 10
0.4834028308
 20
-55.5699001957
  0
LINE
  5
28D
100
AcDbEntity
  8
0
100
AcDbLine
 62
7
  6
CONTINUOUS
 10
7.5727884123
 20
-71.2140662908
 11
11.8241164037
 21
-73.2770739337
  0
LINE
  5
28E
100
AcDbEntity
  8
0
100
AcDbLine
 62
7
  6
CONTINUOUS
 10
3.4641759639
 20
-69.1933663805
 11
7.5727884123
 21
-71.2140662908
  0
LWPOLYLINE
  5
28F
100
AcDbEntity
  8
0
100
AcDbPolyline
 62
7
  6
CONTINUOUS
 90
15
 70
0
 10
-2.5886440301
 20
-56.7163749274
 10
1.2360695762
 20
-58.6146087464
 10
4.726075313
 20
-60.3217802705
 10
7.918901482
 20
-61.8628718024
 10
10.8432152598
 20
-63.2571168802
 10
13.5264073295
 20
-64.5220051241
 10
15.9944190823
 20
-65.6733868362
 10
18.2692061642
 20
-66.7244696964
 10
20.3603622429
 20
-67.6821880548
 10
22.2878879071
 20
-68.5578104804
 10
24.0718063817
 20
-69.3621436329
 10
25.7223931008
 20
-70.101236781
 10
27.2479242975
 20
-70.7800069845
 10
28.6587884303
 20
-71.4041093066
 10
29.54062627
 20
-71.7924669723
  0
LINE
  5
290
100
AcDbEntity
  8
0
100
AcDbLine
 62
7
  6
CONTINUOUS
 10
-0.1879059208
 20
-67.3781199925
 11
3.4641759639
 21
-69.1933663805
  0
LINE
  5
291
100
AcDbEntity
  8
0
100
AcDbLine
 62
7
  6
CONTINUOUS
 10
-0.0751409088
 20
-67.1509542502
 11
-0.5397257685
 21
-66.9193791927
  0
LINE
  5
292
100
AcDbEntity
  8
0
100
AcDbLine
 62
7
  6
CONTINUOUS
 10
-4.5723778273
 20
-54.4308266151
 11
-4.8181548302
 21
-54.3081260307
  0
LINE
  5
293
100
AcDbEntity
  8
0
100
AcDbLine
 62
7
  6
CONTINUOUS
 10
-4.5204272647
 20
-54.3662636627
 11
-4.6866363048
 21
-54.2832822534
  0
LINE
  5
294
100
AcDbEntity
  8
0
100
AcDbLine
 62
7
  6
CONTINUOUS
 10
-4.6866363048
 20
-54.2832822534
 11
-4.7275833995
 21
-54.2628403153
  0
LINE
  5
295
100
AcDbEntity
  8
0
100
AcDbLine
 62
7
  6
CONTINUOUS
 10
-32.8406618929
 20
-37.1036624576
 11
-31.8703078054
 21
-37.5881180682
  0
LINE
  5
296
100
AcDbEntity
  8
0
100
AcDbLine
 62
7
  6
CONTINUOUS
 10
-3.7069646537
 20
-54.8630207212
 11
-3.963359172
 21
-54.7349511083
  0
LWPOLYLINE
  5
297
100
AcDbEntity
  8
0
100
AcDbPolyline
 62
7
  6
CONTINUOUS
 90
4
 70
0
 10
-31.8703078054
 20
-37.5881180682
 10
-22.3693508638
 20
-42.3338121573
 10
-11.7409429584
 20
-47.6455427198
 10
-0.9542257361
 20
-53.0381714628
  0
LINE
  5
298
100
AcDbEntity
  8
0
100
AcDbLine
 62
7
  6
CONTINUOUS
 10
-3.2262797227
 20
-55.1031786405
 11
-3.4826361325
 21
-54.9750899734
  0
LINE
  5
299
100
AcDbEntity
  8
0
100
AcDbLine
 62
7
  6
CONTINUOUS
 10
-3.190517838
 20
-55.0305324355
 11
-3.349369452
 21
-54.9511606672
  0
LINE
  5
29A
100
AcDbEntity
  8
0
100
AcDbLine
 62
7
  6
CONTINUOUS
 10
-3.349369452
 20
-54.9511606672
 11
-3.3920893075
 21
-54.9298165609
  0
LINE
  5
29B
100
AcDbEntity
  8
0
100
AcDbLine
 62
7
  6
CONTINUOUS
 10
-3.6712005686
 20
-54.7903777546
 11
-3.8728054272
 21
-54.6896742359
  0
LINE
  5
29C
100
AcDbEntity
  8
0
100
AcDbLine
 62
7
  6
CONTINUOUS
 10
-2.7243071913
 20
-55.3540483327
 11
-2.9806238733
 21
-55.2259398017
  0
LINE
  5
29D
100
AcDbEntity
  8
0
100
AcDbLine
 62
7
  6
CONTINUOUS
 10
-2.6739935353
 20
-55.2886710508
 11
-2.8473646125
 21
-55.2020180827
  0
LINE
  5
29E
100
AcDbEntity
  8
0
100
AcDbLine
 62
7
  6
CONTINUOUS
 10
-2.8473646125
 20
-55.2020180827
 11
-2.8900819288
 21
-55.1806688294
  0
LINE
  5
29F
100
AcDbEntity
  8
0
100
AcDbLine
 62
7
  6
CONTINUOUS
 10
-2.2981825491
 20
-53.2357922265
 11
-2.166445717
 21
-53.3016493822
  0
LINE
  5
2A0
100
AcDbEntity
  8
0
100
AcDbLine
 62
7
  6
CONTINUOUS
 10
-2.5615623686
 20
-53.1041296138
 11
-2.2981825491
 21
-53.2357922265
  0
LINE
  5
2A1
100
AcDbEntity
  8
0
100
AcDbLine
 62
7
  6
CONTINUOUS
 10
-2.828553072
 20
-52.9706684487
 11
-2.7858241556
 21
-52.9920269945
  0
LINE
  5
2A2
100
AcDbEntity
  8
0
100
AcDbLine
 62
7
  6
CONTINUOUS
 10
-3.0421290147
 20
-52.863912552
 11
-2.828553072
 21
-52.9706684487
  0
LINE
  5
2A3
100
AcDbEntity
  8
0
100
AcDbLine
 62
7
  6
CONTINUOUS
 10
-3.2770923357
 20
-52.7464710385
 11
-3.2343616358
 21
-52.7678287081
  0
LINE
  5
2A4
100
AcDbEntity
  8
0
100
AcDbLine
 62
7
  6
CONTINUOUS
 10
-3.4906771064
 20
-52.6397195714
 11
-3.2770923357
 21
-52.7464710385
  0
LINE
  5
2A5
100
AcDbEntity
  8
0
100
AcDbLine
 62
7
  6
CONTINUOUS
 10
-4.0994626469
 20
-52.3354666089
 11
-4.0567286536
 21
-52.3568226695
  0
LINE
  5
2A6
100
AcDbEntity
  8
0
100
AcDbLine
 62
7
  6
CONTINUOUS
 10
-4.3130636704
 20
-52.2287233059
 11
-4.0994626469
 21
-52.3354666089
  0
LINE
  5
2A7
100
AcDbEntity
  8
0
100
AcDbLine
 62
7
  6
CONTINUOUS
 10
-2.5886440299
 20
-56.7163749306
 11
-2.7326411394
 21
-56.6443643862
  0
LINE
  5
2A8
100
AcDbEntity
  8
0
100
AcDbLine
 62
7
  6
CONTINUOUS
 10
-2.583953951
 20
-56.3475274266
 11
-2.55160554
 21
-56.3637023421
  0
LINE
  5
2A9
100
AcDbEntity
  8
0
100
AcDbLine
 62
7
  6
CONTINUOUS
 10
-1.7632990229
 20
-55.8345450183
 11
-2.0195403313
 21
-55.7063988004
  0
LINE
  5
2AA
100
AcDbEntity
  8
0
100
AcDbLine
 62
7
  6
CONTINUOUS
 10
-2.2224123932
 20
-55.6049568915
 11
-2.4786893899
 21
-55.4768285179
  0
LINE
  5
2AB
100
AcDbEntity
  8
0
100
AcDbLine
 62
7
  6
CONTINUOUS
 10
-1.7125133731
 20
-55.7693925646
 11
-1.8862908527
 21
-55.6824869569
  0
LINE
  5
2AC
100
AcDbEntity
  8
0
100
AcDbLine
 62
7
  6
CONTINUOUS
 10
-1.8862908527
 20
-55.6824869569
 11
-1.9290009848
 21
-55.6611291272
  0
LINE
  5
2AD
100
AcDbEntity
  8
0
100
AcDbLine
 62
7
  6
CONTINUOUS
 10
-2.1866485089
 20
-55.53230012
 11
-2.3881499095
 21
-55.4315587777
  0
LINE
  5
2AE
100
AcDbEntity
  8
0
100
AcDbLine
 62
7
  6
CONTINUOUS
 10
-0.4793464067
 20
-54.1451951578
 11
-0.4366437294
 21
-54.1665497749
  0
LINE
  5
2AF
100
AcDbEntity
  8
0
100
AcDbLine
 62
7
  6
CONTINUOUS
 10
-0.6928934431
 20
-54.0384077597
 11
-0.4793464067
 21
-54.1451951578
  0
LINE
  5
2B0
100
AcDbEntity
  8
0
100
AcDbLine
 62
7
  6
CONTINUOUS
 10
-1.428807254
 20
-53.6704350138
 11
-1.3015106841
 21
-53.7340825594
  0
LINE
  5
2B1
100
AcDbEntity
  8
0
100
AcDbLine
 62
7
  6
CONTINUOUS
 10
-1.6859177729
 20
-53.5418857957
 11
-1.428807254
 21
-53.6704350138
  0
LWPOLYLINE
  5
2B2
100
AcDbEntity
  8
0
100
AcDbPolyline
 62
7
  6
CONTINUOUS
 90
4
 70
0
 10
-0.9542257361
 20
-53.0381714628
 10
9.830996107
 20
-58.4315122352
 10
20.4547556295
 20
-63.7458653613
 10
30.915842846
 20
-68.9819148271
  0
LINE
  5
2B3
100
AcDbEntity
  8
0
100
AcDbLine
 62
7
  6
CONTINUOUS
 10
-30.6623530438
 20
-35.9901287487
 11
30.9551824773
 21
-66.7988965092
  0
LINE
  5
2B4
100
AcDbEntity
  8
0
100
AcDbLine
 62
7
  6
CONTINUOUS
 10
52.9332035869
 20
-72.3960687542
 11
54.206533978
 21
-73.0327339497
  0
LINE
  5
2B5
100
AcDbEntity
  8
0
100
AcDbLine
 62
7
  6
CONTINUOUS
 10
-0.9413283643
 20
-56.2457492372
 11
-1.1975046089
 21
-56.1175704875
  0
LINE
  5
2B6
100
AcDbEntity
  8
0
100
AcDbLine
 62
7
  6
CONTINUOUS
 10
-0.9217196945
 20
-56.1649802958
 11
-1.0642544677
 21
-56.0936646617
  0
LINE
  5
2B7
100
AcDbEntity
  8
0
100
AcDbLine
 62
7
  6
CONTINUOUS
 10
-1.0642544677
 20
-56.0936646617
 11
-1.1069604428
 21
-56.0722984045
  0
LINE
  5
2B8
100
AcDbEntity
  8
0
100
AcDbLine
 62
7
  6
CONTINUOUS
 10
-1.1048936111
 20
-55.7132398415
 11
-1.5105705897
 21
-55.5103224498
  0
LINE
  5
2B9
100
AcDbEntity
  8
0
100
AcDbLine
 62
7
  6
CONTINUOUS
 10
-1.0143502457
 20
-55.6679681589
 11
-1.2171636572
 21
-55.5665181414
  0
LINE
  5
2BA
100
AcDbEntity
  8
0
100
AcDbLine
 62
7
  6
CONTINUOUS
 10
-1.2171636572
 20
-55.5665181414
 11
-1.4200300843
 21
-55.4650521971
  0
LINE
  5
2BB
100
AcDbEntity
  8
0
100
AcDbLine
 62
7
  6
CONTINUOUS
 10
-1.0502737741
 20
-55.3095081476
 11
-1.0093548247
 21
-55.3299753847
  0
LINE
  5
2BC
100
AcDbEntity
  8
0
100
AcDbLine
 62
7
  6
CONTINUOUS
 10
-1.2549030306
 20
-55.2071604018
 11
-1.0502737741
 21
-55.3095081476
  0
LINE
  5
2BD
100
AcDbEntity
  8
0
100
AcDbLine
 62
7
  6
CONTINUOUS
 10
0.2924771505
 20
-55.5501762004
 11
0.3458239606
 21
-55.5768697162
  0
LINE
  5
2BE
100
AcDbEntity
  8
0
100
AcDbLine
 62
7
  6
CONTINUOUS
 10
0.1857555222
 20
-55.4967767596
 11
0.2924771505
 21
-55.5501762004
  0
LINE
  5
2BF
100
AcDbEntity
  8
0
100
AcDbLine
 62
7
  6
CONTINUOUS
 10
0.0256030594
 20
-55.4166465764
 11
0.1857555222
 21
-55.4967767596
  0
LINE
  5
2C0
100
AcDbEntity
  8
0
100
AcDbLine
 62
7
  6
CONTINUOUS
 10
0.5780981519
 20
-55.1051636766
 11
0.3646325994
 21
-54.998376277
  0
LINE
  5
2C1
100
AcDbEntity
  8
0
100
AcDbLine
 62
7
  6
CONTINUOUS
 10
0.3646325994
 20
-54.998376277
 11
0.3112430519
 21
-54.9716687874
  0
LINE
  5
2C2
100
AcDbEntity
  8
0
100
AcDbLine
 62
7
  6
CONTINUOUS
 10
0.3112430519
 20
-54.9716687874
 11
0.2578442406
 21
-54.9449570419
  0
LINE
  5
2C3
100
AcDbEntity
  8
0
100
AcDbLine
 62
7
  6
CONTINUOUS
 10
0.6686574122
 20
-55.0598840465
 11
0.4017942258
 21
-54.9263900012
  0
LINE
  5
2C4
100
AcDbEntity
  8
0
100
AcDbLine
 62
7
  6
CONTINUOUS
 10
0.4017942258
 20
-54.9263900012
 11
0.348397716
 21
-54.8996803042
  0
LINE
  5
2C5
100
AcDbEntity
  8
0
100
AcDbLine
 62
7
  6
CONTINUOUS
 10
0.680883689
 20
-54.7254589726
 11
0.7804598686
 21
-54.7752656176
  0
LINE
  5
2C6
100
AcDbEntity
  8
0
100
AcDbLine
 62
7
  6
CONTINUOUS
 10
0.1826014793
 20
-54.4762387776
 11
0.680883689
 21
-54.7254589726
  0
LINE
  5
2C7
100
AcDbEntity
  8
0
100
AcDbLine
 62
7
  6
CONTINUOUS
 10
-0.4823967482
 20
-56.475428241
 11
-0.7385365776
 21
-56.3472312837
  0
LINE
  5
2C8
100
AcDbEntity
  8
0
100
AcDbLine
 62
7
  6
CONTINUOUS
 10
-0.4466082696
 20
-56.4027408839
 11
-0.6052832692
 21
-56.3233274163
  0
LINE
  5
2C9
100
AcDbEntity
  8
0
100
AcDbLine
 62
7
  6
CONTINUOUS
 10
-0.6052832692
 20
-56.3233274163
 11
-0.647986904
 21
-56.3019564469
  0
LINE
  5
2CA
100
AcDbEntity
  8
0
100
AcDbLine
 62
7
  6
CONTINUOUS
 10
0.0901060736
 20
-55.8800569282
 11
-0.1340335268
 21
-55.7678932148
  0
LINE
  5
2CB
100
AcDbEntity
  8
0
100
AcDbLine
 62
7
  6
CONTINUOUS
 10
0.1806636711
 20
-55.8347781294
 11
0.1433171793
 21
-55.8160891335
  0
LINE
  5
2CC
100
AcDbEntity
  8
0
100
AcDbLine
 62
7
  6
CONTINUOUS
 10
0.1433171793
 20
-55.8160891335
 11
0.0686112727
 21
-55.7787055905
  0
LINE
  5
2CD
100
AcDbEntity
  8
0
100
AcDbLine
 62
7
  6
CONTINUOUS
 10
0.0686112727
 20
-55.7787055905
 11
-0.0434798943
 21
-55.7226163986
  0
LINE
  5
2CE
100
AcDbEntity
  8
0
100
AcDbLine
 62
7
  6
CONTINUOUS
 10
0.285900428
 20
-56.8600802689
 11
-0.0021894769
 21
-56.7158249909
  0
LINE
  5
2CF
100
AcDbEntity
  8
0
100
AcDbLine
 62
7
  6
CONTINUOUS
 10
0.2949850994
 20
-56.7739932305
 11
0.136413075
 21
-56.6945958251
  0
LINE
  5
2D0
100
AcDbEntity
  8
0
100
AcDbLine
 62
7
  6
CONTINUOUS
 10
0.136413075
 20
-56.6945958251
 11
0.0883732106
 21
-56.6705436472
  0
LINE
  5
2D1
100
AcDbEntity
  8
0
100
AcDbLine
 62
7
  6
CONTINUOUS
 10
-3.8407639866
 20
-65.5408960143
 11
-0.1905329766
 21
-67.37680634
  0
LWPOLYLINE
  5
2D2
100
AcDbEntity
  8
0
100
AcDbPolyline
 62
7
  6
CONTINUOUS
 90
10
 70
0
 10
-2.5476360353
 20
-56.2752926411
 10
-6.1449790826
 20
-54.4633870167
 10
-9.7316619688
 20
-52.6303936026
 10
-13.3075602835
 20
-50.7764339864
 10
-16.8782555407
 20
-48.8986033235
 10
-20.4379102137
 20
-46.9999418735
 10
-23.9864276737
 20
-45.0805302905
 10
-27.5175956875
 20
-43.1438042218
 10
-31.0373782103
 20
-41.1864780127
 10
-34.54558482
 20
-39.208549662
  0
LWPOLYLINE
  5
2D3
100
AcDbEntity
  8
0
100
AcDbPolyline
 62
7
  6
CONTINUOUS
 90
15
 70
0
 10
-2.7326411394
 20
-56.6443643862
 10
-6.5708248749
 20
-54.7098966392
 10
-10.1734101097
 20
-52.867637452
 10
-13.4435846291
 20
-51.1729967238
 10
-16.4167813619
 20
-49.6137094206
 10
-19.1265085677
 20
-48.1771794116
 10
-21.6034795539
 20
-46.8511675678
 10
-23.8721108636
 20
-45.6259041427
 10
-25.9434231454
 20
-44.4982240952
 10
-27.8452936269
 20
-43.455263854
 10
-29.5968492864
 20
-42.4883885292
 10
-31.2071624268
 20
-41.5941451062
 10
-32.6879196855
 20
-40.7673709712
 10
-34.0513808985
 20
-40.0023305466
 10
-34.4819804691
 20
-39.7599680638
  0
LINE
  5
2D4
100
AcDbEntity
  8
0
100
AcDbLine
 62
7
  6
CONTINUOUS
 10
-7.9444251386
 20
-63.4554601366
 11
-3.8407639866
 21
-65.5408960143
  0
LINE
  5
2D5
100
AcDbEntity
  8
0
100
AcDbLine
 62
7
  6
CONTINUOUS
 10
-12.1875528158
 20
-61.2712399699
 11
-7.9444251386
 21
-63.4554601366
  0
LWPOLYLINE
  5
2D6
100
AcDbEntity
  8
0
100
AcDbPolyline
 62
7
  6
CONTINUOUS
 90
37
 70
0
 10
-0.1905202622
 20
-67.3767811106
 10
-0.2018906457
 20
-67.3708792571
 10
-0.2131135872
 20
-67.3647081882
 10
-0.2241806897
 20
-67.3582680588
 10
-0.235083556
 20
-67.3515590238
 10
-0.2458137892
 20
-67.3445812379
 10
-0.2563629922
 20
-67.3373348561
 10
-0.267543816
 20
-67.3292100758
 10
-0.2785030841
 20
-67.320785072
 10
-0.2892401507
 20
-67.3120726767
 10
-0.29975437
 20
-67.3030857221
 10
-0.3100450961
 20
-67.2938370402
 10
-0.3201116832
 20
-67.2843394633
 10
-0.3299534855
 20
-67.2746058232
 10
-0.3395698572
 20
-67.2646489523
 10
-0.3489601525
 20
-67.2544816825
 10
-0.3581237255
 20
-67.244116846
 10
-0.3688146321
 20
-67.2314439404
 10
-0.3791896314
 20
-67.2185205038
 10
-0.3892597768
 20
-67.205361658
 10
-0.3990361221
 20
-67.191982525
 10
-0.4085297206
 20
-67.1783982268
 10
-0.4177516259
 20
-67.1646238852
 10
-0.4267128916
 20
-67.1506746221
 10
-0.4354245713
 20
-67.1365655594
 10
-0.4438977184
 20
-67.1223118192
 10
-0.4521433865
 20
-67.1079285232
 10
-0.4621954522
 20
-67.089696031
 10
-0.4719206627
 20
-67.0712944582
 10
-0.48133372
 20
-67.0527353204
 10
-0.4904493259
 20
-67.0340301335
 10
-0.4992821821
 20
-67.015190413
 10
-0.5078469904
 20
-66.9962276747
 10
-0.5161584526
 20
-66.9771534344
 10
-0.5242312706
 20
-66.9579792077
 10
-0.5320801461
 20
-66.9387165104
 10
-0.539719781
 20
-66.9193768582
  0
LINE
  5
2D7
100
AcDbEntity
  8
0
100
AcDbLine
 62
7
  6
CONTINUOUS
 10
-16.5700447511
 20
-58.9864800074
 11
-12.1875528158
 21
-61.2712399699
  0
LINE
  5
2D8
100
AcDbEntity
  8
0
100
AcDbLine
 62
7
  6
CONTINUOUS
 10
-21.0918718388
 20
-56.5995990335
 11
-16.5700447511
 21
-58.9864800074
  0
LWPOLYLINE
  5
2D9
100
AcDbEntity
  8
0
100
AcDbPolyline
 62
7
  6
CONTINUOUS
 90
17
 70
0
 10
0.7804598686
 20
-54.7752656176
 10
0.7838179175
 20
-54.777056366
 10
0.7871559055
 20
-54.7788898618
 10
0.7904734895
 20
-54.7807655999
 10
0.7937703263
 20
-54.7826830755
 10
0.7970460725
 20
-54.7846417836
 10
0.8003003851
 20
-54.7866412193
 10
0.8035329208
 20
-54.7886808775
 10
0.8067433364
 20
-54.7907602534
 10
0.8099312885
 20
-54.7928788421
 10
0.8130964342
 20
-54.7950361385
 10
0.81623843
 20
-54.7972316377
 10
0.8193569329
 20
-54.7994648349
 10
0.8224515995
 20
-54.8017352249
 10
0.8255220866
 20
-54.804042303
 10
0.8285680512
 20
-54.8063855641
 10
0.8315891498
 20
-54.8087645033
  0
LINE
  5
2DA
100
AcDbEntity
  8
0
100
AcDbLine
 62
7
  6
CONTINUOUS
 10
-25.7530458014
 20
-54.108453559
 11
-21.0918718388
 21
-56.5995990335
  0
LINE
  5
2DB
100
AcDbEntity
  8
0
100
AcDbLine
 62
7
  6
CONTINUOUS
 10
-30.5534484825
 20
-51.5093568617
 11
-25.7530458014
 21
-54.108453559
  0
LINE
  5
2DC
100
AcDbEntity
  8
0
100
AcDbLine
 62
7
  6
CONTINUOUS
 10
-35.4928749582
 20
-48.7981737104
 11
-30.5534484825
 21
-51.5093568617
  0
LINE
  5
2DD
100
AcDbEntity
  8
0
100
AcDbLine
 62
7
  6
CONTINUOUS
 10
-42.1378051305
 20
-45.104752371
 11
-35.4928749582
 21
-48.7981737104
  0
LWPOLYLINE
  5
2DE
100
AcDbEntity
  8
0
100
AcDbPolyline
 62
7
  6
CONTINUOUS
 90
11
 70
0
 10
-40.0976814663
 20
-45.9276494168
 10
-35.5461850632
 20
-48.4638285763
 10
-30.5652309199
 20
-51.2045939283
 10
-25.567929626
 20
-53.9155331598
 10
-20.5548079925
 20
-56.5971844326
 10
-16.8165908553
 20
-58.5726405657
 10
-13.0695932292
 20
-60.531357994
 10
-9.3134929716
 20
-62.4724985776
 10
-5.5479679401
 20
-64.3952241765
 10
-3.0453744269
 20
-65.6603330034
 10
-0.5397257684
 20
-66.9193791927
  0
LINE
  5
2DF
100
AcDbEntity
  8
0
100
AcDbLine
 62
7
  6
CONTINUOUS
 10
-40.53963251
 20
-45.6802714123
 11
-40.0976814663
 21
-45.9276494168
  0
LINE
  5
2E0
100
AcDbEntity
  8
0
100
AcDbLine
 62
7
  6
CONTINUOUS
 10
-34.4819804691
 20
-39.7599680638
 11
-34.9008618267
 21
-39.5238672346
  0
LWPOLYLINE
  5
2E1
100
AcDbEntity
  8
0
100
AcDbPolyline
 62
7
  6
CONTINUOUS
 90
17
 70
0
 10
-34.9008618267
 20
-39.5238672346
 10
-35.3092747572
 20
-39.2933643894
 10
-36.4729419047
 20
-38.6348358724
 10
-37.0025744888
 20
-38.3334832799
 10
-37.5304499351
 20
-38.0290836252
 10
-38.0008392361
 20
-37.7521513147
 10
-38.4688555952
 20
-37.4712140804
 10
-38.8984997838
 20
-37.2088855649
 10
-39.3262221998
 20
-36.9434407083
 10
-39.7365938016
 20
-36.6845887703
 10
-40.1450963893
 20
-36.4227961942
 10
-40.5573950417
 20
-36.1543714945
 10
-40.9677621966
 20
-35.8830017635
 10
-41.4030387281
 20
-35.590513684
 10
-41.8359726757
 20
-35.294571531
 10
-42.3197847141
 20
-34.9577519631
 10
-42.8009919088
 20
-34.6172209906
  0
LWPOLYLINE
  5
2E2
100
AcDbEntity
  8
0
100
AcDbPolyline
 62
7
  6
CONTINUOUS
 90
13
 70
0
 10
-34.5476337453
 20
-39.2933441444
 10
-31.9210711462
 20
-40.7775592531
 10
-29.2879399537
 20
-42.2501202327
 10
-26.6483366284
 20
-43.7110572565
 10
-23.9990157561
 20
-45.1622084423
 10
-21.3433540615
 20
-46.6017134403
 10
-18.6814024538
 20
-48.0295490474
 10
-16.0100316815
 20
-49.4473668962
 10
-13.3324483537
 20
-50.8534216159
 10
-10.6486937748
 20
-52.2476705134
 10
-7.9664783431
 20
-53.6261487523
 10
-5.2782157576
 20
-54.9927872564
 10
-2.583953951
 20
-56.3475274266
  0
LINE
  5
2E3
100
AcDbEntity
  8
0
100
AcDbLine
 62
7
  6
CONTINUOUS
 10
-40.2361344755
 20
-46.1622834663
 11
-40.2303540333
 21
-46.1655609546
  0
LINE
  5
2E4
100
AcDbEntity
  8
0
100
AcDbLine
 62
7
  6
CONTINUOUS
 10
-43.0720735041
 20
-44.5746148485
 11
-42.1378051305
 21
-45.104752371
  0
LWPOLYLINE
  5
2E5
100
AcDbEntity
  8
0
100
AcDbPolyline
 62
7
  6
CONTINUOUS
 90
13
 70
0
 10
-35.0563905595
 20
-38.5794279687
 10
-35.5692506099
 20
-38.2856148866
 10
-36.0817639971
 20
-37.9911947304
 10
-36.3966529899
 20
-37.8098838752
 10
-36.7117715845
 20
-37.6289753772
 10
-37.0275573196
 20
-37.4492376705
 10
-37.3146547867
 20
-37.2879049726
 10
-37.60267712
 20
-37.1282248256
 10
-37.8916417629
 20
-36.970256832
 10
-38.2879443728
 20
-36.7572901983
 10
-38.6859741392
 20
-36.5475684821
 10
-39.0620567625
 20
-36.3531463161
 10
-39.4396186082
 20
-36.1616192199
  0
LWPOLYLINE
  5
2E6
100
AcDbEntity
  8
0
100
AcDbPolyline
 62
7
  6
CONTINUOUS
 90
13
 70
0
 10
-43.1292003715
 20
-44.2217780977
 10
-42.9087689592
 20
-44.3481142407
 10
-42.7272177234
 20
-44.4529450255
 10
-42.545632821
 20
-44.557699403
 10
-42.3025471845
 20
-44.6963190172
 10
-42.0587023705
 20
-44.833606673
 10
-41.733480724
 20
-45.0147185608
 10
-41.4076143675
 20
-45.1946839357
 10
-41.2333894042
 20
-45.2906232885
 10
-41.0592821457
 20
-45.3867765098
 10
-40.8855017046
 20
-45.4835076708
 10
-40.7122571936
 20
-45.5811808427
 10
-40.5397577253
 20
-45.6801600967
  0
LINE
  5
2E7
100
AcDbEntity
  8
0
100
AcDbLine
 62
7
  6
CONTINUOUS
 10
-43.5439164267
 20
-44.3011138386
 11
-43.0720735041
 21
-44.5746148485
  0
LINE
  5
2E8
100
AcDbEntity
  8
0
100
AcDbLine
 62
7
  6
CONTINUOUS
 10
-43.6886572405
 20
-44.2159622007
 11
-43.5439164267
 21
-44.3011138386
  0
LWPOLYLINE
  5
2E9
100
AcDbEntity
  8
0
100
AcDbPolyline
 62
7
  6
CONTINUOUS
 90
50
 70
0
 10
-34.54558482
 20
-39.208549662
 10
-34.5710532086
 20
-39.1933178191
 10
-34.595869259
 20
-39.1769353171
 10
-34.6200035816
 20
-39.1594589273
 10
-34.6434267866
 20
-39.1409454209
 10
-34.6661094843
 20
-39.1214515692
 10
-34.688022285
 20
-39.1010341435
 10
-34.7091357989
 20
-39.0797499149
 10
-34.7294206363
 20
-39.0576556549
 10
-34.7488474076
 20
-39.0348081345
 10
-34.7673867229
 20
-39.0112641252
 10
-34.7850091926
 20
-38.9870803981
 10
-34.8044779103
 20
-38.9579817091
 10
-34.8226820141
 20
-38.9281409564
 10
-34.8396576985
 20
-38.8976174641
 10
-34.8554411578
 20
-38.8664705563
 10
-34.8700685863
 20
-38.8347595572
 10
-34.8835761784
 20
-38.8025437909
 10
-34.8960001285
 20
-38.7698825817
 10
-34.9073766309
 20
-38.7368352536
 10
-34.9177418799
 20
-38.7034611307
 10
-34.9271320699
 20
-38.6698195374
 10
-34.9375331839
 20
-38.6275460407
 10
-34.946525168
 20
-38.5849869736
 10
-34.9541605497
 20
-38.5421808152
 10
-34.9604918567
 20
-38.4991660446
 10
-34.9655716166
 20
-38.455981141
 10
-34.9694523569
 20
-38.4126645836
 10
-34.9721866052
 20
-38.3692548515
 10
-34.9738268891
 20
-38.3257904239
 10
-34.9744257362
 20
-38.28230978
 10
-34.973779951
 20
-38.2278974937
 10
-34.9716414589
 20
-38.1735446031
 10
-34.9680677837
 20
-38.1192756044
 10
-34.9631164492
 20
-38.065114994
 10
-34.9568449794
 20
-38.0110872678
 10
-34.949310898
 20
-37.9572169222
 10
-34.940571729
 20
-37.9035284532
 10
-34.9306849962
 20
-37.8500463572
 10
-34.9187860955
 20
-37.7925770061
 10
-34.9056529067
 20
-37.7353886988
 10
-34.8913210401
 20
-37.6784935165
 10
-34.8758261062
 20
-37.6219035402
 10
-34.8592037154
 20
-37.5656308509
 10
-34.841489478
 20
-37.5096875295
 10
-34.8227190046
 20
-37.4540856572
 10
-34.8029279054
 20
-37.3988373149
 10
-34.78429487
 20
-37.3494886287
 10
-34.7648798172
 20
-37.3004445244
 10
-34.7446965687
 20
-37.2517141902
  0
LINE
  5
2EA
100
AcDbEntity
  8
0
100
AcDbLine
 62
7
  6
CONTINUOUS
 10
-43.7083429176
 20
-44.2041123488
 11
-43.6886720917
 21
-44.215972651
  0
LWPOLYLINE
  5
2EB
100
AcDbEntity
  8
0
100
AcDbPolyline
 62
7
  6
CONTINUOUS
 90
11
 70
0
 10
-43.9792894986
 20
-43.7226042888
 10
-43.8953157019
 20
-43.7742407197
 10
-43.8110114387
 20
-43.825329061
 10
-43.7264143741
 20
-43.8759315922
 10
-43.6415621736
 20
-43.9261105926
 10
-43.5564925023
 20
-43.9759283417
 10
-43.4712430257
 20
-44.025447119
 10
-43.385851409
 20
-44.0747292038
 10
-43.3003553175
 20
-44.1238368755
 10
-43.2147924166
 20
-44.1728324137
 10
-43.1292003715
 20
-44.2217780977
  0
LWPOLYLINE
  5
2EC
100
AcDbEntity
  8
0
100
AcDbPolyline
 62
7
  6
CONTINUOUS
 90
9
 70
0
 10
-34.5861509714
 20
-39.2703537233
 10
-34.5813873134
 20
-39.2733199247
 10
-34.5766088318
 20
-39.2762599321
 10
-34.5718156534
 20
-39.2791736428
 10
-34.5670079049
 20
-39.2820609537
 10
-34.5621857131
 20
-39.2849217622
 10
-34.5573492047
 20
-39.2877559654
 10
-34.5524985066
 20
-39.2905634604
 10
-34.5476337453
 20
-39.2933441444
  0
LINE
  5
2ED
100
AcDbEntity
  8
0
100
AcDbLine
 62
7
  6
CONTINUOUS
 10
-44.1231787248
 20
-43.939827818
 11
-43.7083429176
 21
-44.2041123488
  0
LWPOLYLINE
  5
2EE
100
AcDbEntity
  8
0
100
AcDbPolyline
 62
7
  6
CONTINUOUS
 90
26
 70
0
 10
35.3701218941
 20
-73.5664902074
 10
35.6784821514
 20
-73.7639007977
 10
35.8212166647
 20
-73.8543004262
 10
35.9642950036
 20
-73.944154773
 10
36.0960651065
 20
-74.0261429546
 10
36.2282036903
 20
-74.1075358412
 10
36.3492397348
 20
-74.1812914833
 10
36.4706461862
 20
-74.254435703
 10
36.5815666282
 20
-74.3204714464
 10
36.6928439708
 20
-74.3859038664
 10
36.7947113237
 20
-74.4450390086
 10
36.8969162442
 20
-74.5035886721
 10
37.0852090238
 20
-74.6092466275
 10
37.260092098
 20
-74.7045824856
 10
37.4239727976
 20
-74.7912262019
 10
37.5804359734
 20
-74.8712803216
 10
37.7356556264
 20
-74.9478744108
 10
37.8164913497
 20
-74.986555045
 10
37.897671767
 20
-75.0245082023
 10
37.9858661041
 20
-75.0646666591
 10
38.0745108448
 20
-75.1038170822
 10
38.1741276441
 20
-75.1462376127
 10
38.2744113371
 20
-75.1870796187
 10
38.3544729645
 20
-75.2181805841
 10
38.4350733448
 20
-75.2478414952
 10
38.5162875468
 20
-75.2757393709
  0
LINE
  5
2EF
100
AcDbEntity
  8
0
100
AcDbLine
 62
7
  6
CONTINUOUS
 10
-44.8110404583
 20
-43.4324580688
 11
-44.1231787248
 21
-43.939827818
  0
LWPOLYLINE
  5
2F0
100
AcDbEntity
  8
0
100
AcDbPolyline
 62
7
  6
CONTINUOUS
 90
19
 70
0
 10
0.8315891498
 20
-54.8087645033
 10
0.8353316755
 20
-54.8117889272
 10
0.8390341059
 20
-54.8148673701
 10
0.8426957699
 20
-54.8179988446
 10
0.8463159961
 20
-54.8211823631
 10
0.8498941134
 20
-54.824416938
 10
0.8534294505
 20
-54.827701582
 10
0.8569213361
 20
-54.8310353073
 10
0.8603690991
 20
-54.8344171266
 10
0.8637720682
 20
-54.8378460523
 10
0.8671295722
 20
-54.8413210968
 10
0.8704409398
 20
-54.8448412726
 10
0.8737054998
 20
-54.8484055922
 10
0.8769225809
 20
-54.8520130681
 10
0.8800915119
 20
-54.8556627127
 10
0.8832116216
 20
-54.8593535385
 10
0.8862822388
 20
-54.863084558
 10
0.8893026922
 20
-54.8668547837
 10
0.8922723105
 20
-54.870663228
  0
LWPOLYLINE
  5
2F1
100
AcDbEntity
  8
0
100
AcDbPolyline
 62
7
  6
CONTINUOUS
 90
31
 70
0
 10
35.4721738557
 20
-73.3112217658
 10
35.6254252246
 20
-73.4374006317
 10
35.7796466757
 20
-73.5623934787
 10
35.9220844395
 20
-73.6759478521
 10
36.0654642771
 20
-73.7883096423
 10
36.1971695984
 20
-73.8897124947
 10
36.3297595668
 20
-73.9899556139
 10
36.4507682205
 20
-74.0797571354
 10
36.5725843542
 20
-74.1684598395
 10
36.683510964
 20
-74.2476915581
 10
36.7951621372
 20
-74.3258986033
 10
36.8971731258
 20
-74.3959528003
 10
36.9998316185
 20
-74.4650543692
 10
37.0941594159
 20
-74.5272728178
 10
37.1890687779
 20
-74.5886001773
 10
37.2770372649
 20
-74.6442647462
 10
37.3655352453
 20
-74.6990834678
 10
37.4486569047
 20
-74.7494591847
 10
37.5322735883
 20
-74.79900842
 10
37.6135974185
 20
-74.8460785539
 10
37.6954158782
 20
-74.8922845231
 10
37.7796004004
 20
-74.9385778543
 10
37.8643508384
 20
-74.983823998
 10
37.9562643289
 20
-75.0312740866
 10
38.0488726938
 20
-75.0773647522
 10
38.1184741833
 20
-75.1108328856
 10
38.1885396951
 20
-75.1433114148
 10
38.2591454887
 20
-75.1745878725
 10
38.3441718882
 20
-75.2101407597
 10
38.42993351
 20
-75.2439051926
 10
38.5162875476
 20
-75.2761071898
  0
LINE
  5
2F2
100
AcDbEntity
  8
0
100
AcDbLine
 62
7
  6
CONTINUOUS
 10
-45.454474495
 20
-42.8708340825
 11
-44.8110404583
 21
-43.4324580688
  0
LWPOLYLINE
  5
2F3
100
AcDbEntity
  8
0
100
AcDbPolyline
 62
7
  6
CONTINUOUS
 90
37
 70
0
 10
-49.2432877033
 20
-34.6148961522
 10
-49.2536995825
 20
-34.6052751952
 10
-49.2640189736
 20
-34.5955476584
 10
-49.2742352397
 20
-34.5857070462
 10
-49.2843377441
 20
-34.5757468634
 10
-49.2943158498
 20
-34.5656606143
 10
-49.30415892
 20
-34.5554418036
 10
-49.3138563179
 20
-34.545083936
 10
-49.3233974066
 20
-34.5345805158
 10
-49.3327715494
 20
-34.5239250477
 10
-49.3419681093
 20
-34.5131110363
 10
-49.3509764496
 20
-34.5021319862
 10
-49.3597859333
 20
-34.4909814018
 10
-49.3658699791
 20
-34.4830138767
 10
-49.3718390637
 20
-34.4749557103
 10
-49.3776823435
 20
-34.4668047412
 10
-49.3833889747
 20
-34.4585588084
 10
-49.3889481136
 20
-34.4502157504
 10
-49.3943489163
 20
-34.441773406
 10
-49.3995805394
 20
-34.433229614
 10
-49.4046321388
 20
-34.4245822131
 10
-49.4094928711
 20
-34.4158290419
 10
-49.4141518923
 20
-34.4069679394
 10
-49.4185983589
 20
-34.3979967441
 10
-49.422821427
 20
-34.3889132949
 10
-49.4268102529
 20
-34.3797154304
 10
-49.4302902031
 20
-34.371083876
 10
-49.4335507421
 20
-34.3623591604
 10
-49.436583191
 20
-34.3535483579
 10
-49.4393788705
 20
-34.3446585431
 10
-49.4419291016
 20
-34.3356967906
 10
-49.444225205
 20
-34.3266701748
 10
-49.4462585017
 20
-34.3175857702
 10
-49.4480203126
 20
-34.3084506515
 10
-49.4495019585
 20
-34.299271893
 10
-49.4506947603
 20
-34.2900565694
 10
-49.4515900388
 20
-34.2808117551
  0
LWPOLYLINE
  5
2F4
100
AcDbEntity
  8
0
100
AcDbPolyline
 62
7
  6
CONTINUOUS
 90
3
 70
0
 10
-34.7961294417
 20
64.6326224778
 10
-34.8006540984
 20
64.6369233191
 10
-34.8051345914
 20
64.6412242371
  0
LWPOLYLINE
  5
2F5
100
AcDbEntity
  8
0
100
AcDbPolyline
 62
7
  6
CONTINUOUS
 90
39
 70
0
 10
-34.9176930791
 20
64.7542886652
 10
-34.9331741309
 20
64.7693744055
 10
-34.9364647806
 20
64.7726163901
 10
-34.9397331058
 20
64.7758783137
 10
-34.9429626347
 20
64.7791575913
 10
-34.9461368954
 20
64.7824516379
 10
-34.9492394161
 20
64.7857578686
 10
-34.9522537248
 20
64.7890736982
 10
-34.9551633497
 20
64.7923965418
 10
-34.9579518189
 20
64.7957238144
 10
-34.9606026605
 20
64.799052931
 10
-34.9630994027
 20
64.8023813067
 10
-34.9646318467
 20
64.804543129
 10
-34.9660877008
 20
64.8067028361
 10
-34.9674624413
 20
64.8088597183
 10
-34.9687515446
 20
64.8110130655
 10
-34.9699504872
 20
64.8131621678
 10
-34.9710547454
 20
64.8153063153
 10
-34.9720597957
 20
64.8174447982
 10
-34.9729611145
 20
64.8195769066
 10
-34.9737541781
 20
64.8217019304
 10
-34.9744344631
 20
64.8238191599
 10
-34.9749974458
 20
64.8259278851
 10
-34.9754386026
 20
64.828027396
 10
-34.9757534099
 20
64.8301169829
 10
-34.9759373441
 20
64.8321959358
 10
-34.9759858817
 20
64.8342635447
 10
-34.9758944991
 20
64.8363190999
 10
-34.9756586726
 20
64.8383618913
 10
-34.9752738787
 20
64.8403912091
 10
-34.9747355938
 20
64.8424063433
 10
-34.9740392943
 20
64.8444065842
 10
-34.9732712567
 20
64.8462018623
 10
-34.9723762125
 20
64.8479818769
 10
-34.9713601028
 20
64.8497441272
 10
-34.9702288684
 20
64.8514861122
 10
-34.9689884502
 20
64.8532053312
 10
-34.9676447893
 20
64.8548992833
 10
-34.9662038265
 20
64.8565654677
  0
LINE
  5
2F6
100
AcDbEntity
  8
0
100
AcDbLine
 62
7
  6
CONTINUOUS
 10
-34.8051345914
 20
64.6412242371
 11
-34.8139902322
 21
64.6498404589
  0
LINE
  5
2F7
100
AcDbEntity
  8
0
100
AcDbLine
 62
7
  6
CONTINUOUS
 10
-34.9067909951
 20
64.7435454458
 11
-34.9176930791
 21
64.7542886652
  0
LINE
  5
2F8
100
AcDbEntity
  8
0
100
AcDbLine
 62
7
  6
CONTINUOUS
 10
-34.8139902322
 20
64.6498404589
 11
-34.8227506559
 21
64.6584994548
  0
LINE
  5
2F9
100
AcDbEntity
  8
0
100
AcDbLine
 62
7
  6
CONTINUOUS
 10
-34.8963461821
 20
64.7331345197
 11
-34.9067909951
 21
64.7435454458
  0
LINE
  5
2FA
100
AcDbEntity
  8
0
100
AcDbLine
 62
7
  6
CONTINUOUS
 10
-34.8227506559
 20
64.6584994548
 11
-34.8314701544
 21
64.6672295364
  0
LINE
  5
2FB
100
AcDbEntity
  8
0
100
AcDbLine
 62
7
  6
CONTINUOUS
 10
-34.881414849
 20
64.7180778232
 11
-34.8963461821
 21
64.7331345197
  0
LINE
  5
2FC
100
AcDbEntity
  8
0
100
AcDbLine
 62
7
  6
CONTINUOUS
 10
-34.8314701544
 20
64.6672295364
 11
-34.8402030194
 21
64.6760590153
  0
LINE
  5
2FD
100
AcDbEntity
  8
0
100
AcDbLine
 62
7
  6
CONTINUOUS
 10
-46.0409083468
 20
-42.2764390112
 11
-45.454474495
 21
-42.8708340825
  0
LWPOLYLINE
  5
2FE
100
AcDbEntity
  8
0
100
AcDbPolyline
 62
7
  6
CONTINUOUS
 90
19
 70
0
 10
31.9580057557
 20
-70.5451396951
 10
32.1833774438
 20
-70.7744959718
 10
32.410402465
 20
-71.0022256783
 10
32.6392398215
 20
-71.2281368252
 10
32.870048516
 20
-71.4520374227
 10
33.0847098998
 20
-71.6564962531
 10
33.3013031132
 20
-71.8589066674
 10
33.5199494808
 20
-72.0590921134
 10
33.7407703272
 20
-72.2568760392
 10
33.9047105121
 20
-72.4007678784
 10
34.0699398098
 20
-72.5431799839
 10
34.2365043619
 20
-72.6840284165
 10
34.4044503096
 20
-72.8232292372
 10
34.5738237947
 20
-72.9606985066
 10
34.7305070119
 20
-73.0852215087
 10
34.8884543957
 20
-73.2081391971
 10
35.0476897216
 20
-73.3293743513
 10
35.2082367648
 20
-73.4488497505
 10
35.3701193008
 20
-73.5664881744
  0
LWPOLYLINE
  5
2FF
100
AcDbEntity
  8
0
100
AcDbPolyline
 62
7
  6
CONTINUOUS
 90
3
 70
0
 10
-34.8402030194
 20
64.6760590153
 10
-34.8547998087
 20
64.6909344995
 10
-34.881414849
 20
64.7180778232
  0
LWPOLYLINE
  5
300
100
AcDbEntity
  8
0
100
AcDbPolyline
 62
7
  6
CONTINUOUS
 90
38
 70
0
 10
-49.2432877033
 20
78.3765327643
 10
-49.254655262
 20
78.388477788
 10
-49.2659075275
 20
78.4005386542
 10
-49.2770311436
 20
78.4127227151
 10
-49.288012754
 20
78.4250373233
 10
-49.2988390022
 20
78.437489831
 10
-49.309496532
 20
78.4500875907
 10
-49.319971987
 20
78.4628379546
 10
-49.330252011
 20
78.4757482751
 10
-49.3403232476
 20
78.4888259046
 10
-49.3501723404
 20
78.5020781956
 10
-49.3597859333
 20
78.5155125002
 10
-49.3669464676
 20
78.5258809673
 10
-49.3739451602
 20
78.5363631722
 10
-49.3807647975
 20
78.5469627986
 10
-49.3873881655
 20
78.5576835304
 10
-49.3937980508
 20
78.5685290512
 10
-49.3999772394
 20
78.579503045
 10
-49.4059085177
 20
78.5906091955
 10
-49.4115746719
 20
78.6018511865
 10
-49.4169584883
 20
78.6132327017
 10
-49.4220427533
 20
78.6247574251
 10
-49.4268102529
 20
78.6364290402
 10
-49.4303842712
 20
78.6458733834
 10
-49.4337331487
 20
78.6554074616
 10
-49.4368455019
 20
78.6650246369
 10
-49.4397099471
 20
78.6747182712
 10
-49.4423151007
 20
78.6844817265
 10
-49.444649579
 20
78.6943083647
 10
-49.4467019985
 20
78.7041915478
 10
-49.4484609754
 20
78.7141246377
 10
-49.4499151262
 20
78.7241009963
 10
-49.4510530673
 20
78.7341139857
 10
-49.4518634149
 20
78.7441569678
 10
-49.4523468756
 20
78.7545320478
 10
-49.4524763875
 20
78.7649211657
 10
-49.452258111
 20
78.7753135487
 10
-49.4516982067
 20
78.7856984239
  0
LWPOLYLINE
  5
301
100
AcDbEntity
  8
0
100
AcDbPolyline
 62
7
  6
CONTINUOUS
 90
18
 70
0
 10
32.7825794275
 20
-70.6751477766
 10
32.908149719
 20
-70.8141667055
 10
33.0343734026
 20
-70.9525948109
 10
33.2013166372
 20
-71.1335732294
 10
33.369518439
 20
-71.313383336
 10
33.5390528406
 20
-71.4919348003
 10
33.7099938743
 20
-71.6691372921
 10
33.8824155729
 20
-71.8449004808
 10
34.0419781917
 20
-72.0048178003
 10
34.2029051179
 20
-72.1633643619
 10
34.3652519023
 20
-72.3204570654
 10
34.5290740954
 20
-72.4760128106
 10
34.6944272481
 20
-72.6299484973
 10
34.8471846005
 20
-72.7693723302
 10
35.0013047036
 20
-72.9072902333
 10
35.1568207913
 20
-73.0436235469
 10
35.3137660974
 20
-73.178293611
 10
35.4721738557
 20
-73.3112217658
  0
LWPOLYLINE
  5
302
100
AcDbEntity
  8
0
100
AcDbPolyline
 62
7
  6
CONTINUOUS
 90
4
 70
0
 10
32.0866517483
 20
-70.1870380523
 10
32.0268580064
 20
-70.1207091222
 10
31.9671655133
 20
-70.0542888834
 10
31.9075707392
 20
-69.9877807378
  0
LINE
  5
303
100
AcDbEntity
  8
0
100
AcDbLine
 62
7
  6
CONTINUOUS
 10
32.7426954694
 20
-70.6307273116
 11
32.7825794275
 21
-70.6751477766
  0
LWPOLYLINE
  5
304
100
AcDbEntity
  8
0
100
AcDbPolyline
 62
7
  6
CONTINUOUS
 90
7
 70
0
 10
31.9075707392
 20
-69.9877807378
 10
31.7841396687
 20
-69.8494337797
 10
31.6610830023
 20
-69.7107530166
 10
31.5383691513
 20
-69.5717688934
 10
31.3435586177
 20
-69.3498631278
 10
31.1494103224
 20
-69.1273785416
 10
30.9557970669
 20
-68.9044285739
  0
LWPOLYLINE
  5
305
100
AcDbEntity
  8
0
100
AcDbPolyline
 62
7
  6
CONTINUOUS
 90
6
 70
0
 10
32.3580631375
 20
-70.1961914997
 10
32.4345669116
 20
-70.2834711663
 10
32.5112743379
 20
-70.3705724848
 10
32.5881931102
 20
-70.4574875512
 10
32.6653309228
 20
-70.5442084615
 10
32.7426954694
 20
-70.6307273116
  0
LINE
  5
306
100
AcDbEntity
  8
0
100
AcDbLine
 62
7
  6
CONTINUOUS
 10
32.302866369
 20
-70.1329736094
 11
32.3580631375
 21
-70.1961914997
  0
LWPOLYLINE
  5
307
100
AcDbEntity
  8
0
100
AcDbPolyline
 62
7
  6
CONTINUOUS
 90
4
 70
0
 10
32.1457305537
 20
-69.9519220911
 10
32.1980230847
 20
-70.0123463896
 10
32.2504008527
 20
-70.0726977557
 10
32.302866369
 20
-70.1329736094
  0
LWPOLYLINE
  5
308
100
AcDbEntity
  8
0
100
AcDbPolyline
 62
7
  6
CONTINUOUS
 90
36
 70
0
 10
-49.4390882168
 20
73.0041470706
 10
-49.449495241
 20
73.0161765116
 10
-49.4597759814
 20
73.0283218138
 10
-49.469916312
 20
73.0405894274
 10
-49.4799021064
 20
73.0529858025
 10
-49.4897192387
 20
73.0655173895
 10
-49.4993535826
 20
73.0781906386
 10
-49.5087910119
 20
73.0910119999
 10
-49.5180174005
 20
73.1039879238
 10
-49.5270186222
 20
73.1171248605
 10
-49.5357805509
 20
73.1304292602
 10
-49.5442890604
 20
73.143907573
 10
-49.5501580157
 20
73.1535707213
 10
-49.5558796156
 20
73.1633256842
 10
-49.5614409481
 20
73.1731736427
 10
-49.5668291013
 20
73.1831157777
 10
-49.5720311632
 20
73.1931532699
 10
-49.5770342217
 20
73.2032873003
 10
-49.5818253649
 20
73.2135190497
 10
-49.5863916809
 20
73.2238496988
 10
-49.5907202575
 20
73.2342804287
 10
-49.5947981829
 20
73.2448124201
 10
-49.598612545
 20
73.2554468538
 10
-49.6021504319
 20
73.2661849108
 10
-49.6050740124
 20
73.2758899453
 10
-49.607757121
 20
73.2856712675
 10
-49.610191429
 20
73.2955210924
 10
-49.6123686075
 20
73.3054316352
 10
-49.6142803278
 20
73.3153951108
 10
-49.6159182611
 20
73.3254037343
 10
-49.6172740787
 20
73.3354497208
 10
-49.6183394517
 20
73.3455252854
 10
-49.6191060514
 20
73.355622643
 10
-49.619565549
 20
73.3657340089
 10
-49.6197096157
 20
73.375851598
 10
-49.6196022693
 20
73.3836145727
  0
LINE
  5
309
100
AcDbEntity
  8
0
100
AcDbLine
 62
7
  6
CONTINUOUS
 10
-46.5719088262
 20
-41.6600193758
 11
-46.0409083468
 21
-42.2764390112
  0
LWPOLYLINE
  5
30A
100
AcDbEntity
  8
0
100
AcDbPolyline
 62
7
  6
CONTINUOUS
 90
9
 70
0
 10
0.8922723105
 20
-54.870663228
 10
0.8936342514
 20
-54.8724450149
 10
0.8949850115
 20
-54.8742347361
 10
0.8963245235
 20
-54.8760322928
 10
0.8976527202
 20
-54.8778375859
 10
0.8989695342
 20
-54.8796505165
 10
0.9002748984
 20
-54.8814709855
 10
0.9015687453
 20
-54.883298894
 10
0.9028510078
 20
-54.8851341431
  0
LINE
  5
30B
100
AcDbEntity
  8
0
100
AcDbLine
 62
7
  6
CONTINUOUS
 10
-47.0616369768
 20
-41.0123504707
 11
-46.5719088262
 21
-41.6600193758
  0
LWPOLYLINE
  5
30C
100
AcDbEntity
  8
0
100
AcDbPolyline
 62
7
  6
CONTINUOUS
 90
25
 70
0
 10
0.9028510078
 20
-54.8851341431
 10
0.9058473901
 20
-54.8895184757
 10
0.9087772462
 20
-54.8939422724
 10
0.9116396768
 20
-54.89840421
 10
0.9149733722
 20
-54.9037883787
 10
0.918210446
 20
-54.9092236931
 10
0.921351985
 20
-54.9147086469
 10
0.9243990762
 20
-54.9202417339
 10
0.9273528065
 20
-54.9258214478
 10
0.9302142627
 20
-54.9314462824
 10
0.932984532
 20
-54.9371147314
 10
0.9356647011
 20
-54.9428252885
 10
0.938255857
 20
-54.9485764476
 10
0.9407590866
 20
-54.9543667024
 10
0.9431754769
 20
-54.9601945465
 10
0.9455061147
 20
-54.9660584739
 10
0.9477520871
 20
-54.9719569782
 10
0.9499144809
 20
-54.9778885532
 10
0.951994383
 20
-54.9838516926
 10
0.9539928804
 20
-54.9898448902
 10
0.9559110601
 20
-54.9958666398
 10
0.9577500088
 20
-55.001915435
 10
0.9595108136
 20
-55.0079897697
 10
0.9611945615
 20
-55.0140881376
 10
0.9628023392
 20
-55.0202090324
  0
LINE
  5
30D
100
AcDbEntity
  8
0
100
AcDbLine
 62
7
  6
CONTINUOUS
 10
-47.5074158981
 20
-40.3404859945
 11
-47.0616369768
 21
-41.0123504707
  0
LINE
  5
30E
100
AcDbEntity
  8
0
100
AcDbLine
 62
7
  6
CONTINUOUS
 10
-47.9074136505
 20
-39.6500697486
 11
-47.5074158981
 21
-40.3404859945
  0
LWPOLYLINE
  5
30F
100
AcDbEntity
  8
0
100
AcDbPolyline
 62
7
  6
CONTINUOUS
 90
23
 70
0
 10
-34.7124963073
 20
64.4951541473
 10
-34.715154214
 20
64.5001683026
 10
-34.7178634335
 20
64.5051567716
 10
-34.7206258569
 20
64.5101173504
 10
-34.7234433752
 20
64.5150478348
 10
-34.7263178795
 20
64.519946021
 10
-34.729251261
 20
64.5248097049
 10
-34.7322454106
 20
64.5296366826
 10
-34.7353022194
 20
64.5344247501
 10
-34.7384235785
 20
64.5391717034
 10
-34.741611379
 20
64.5438753384
 10
-34.7448675119
 20
64.5485334513
 10
-34.7481938684
 20
64.5531438379
 10
-34.7515923394
 20
64.5577042944
 10
-34.7545784633
 20
64.5615901256
 10
-34.7576200475
 20
64.5654345241
 10
-34.7607176567
 20
64.5692347291
 10
-34.7638718554
 20
64.5729879798
 10
-34.7670832084
 20
64.5766915154
 10
-34.7703522803
 20
64.5803425753
 10
-34.7736796356
 20
64.5839383985
 10
-34.777065839
 20
64.5874762243
 10
-34.7805114551
 20
64.590953292
  0
LINE
  5
310
100
AcDbEntity
  8
0
100
AcDbLine
 62
7
  6
CONTINUOUS
 10
-48.2725342385
 20
-38.9219449421
 11
-47.9074136505
 21
-39.6500697486
  0
LWPOLYLINE
  5
311
100
AcDbEntity
  8
0
100
AcDbPolyline
 62
7
  6
CONTINUOUS
 90
11
 70
0
 10
-34.6986245573
 20
64.4661369736
 10
-34.6999190499
 20
64.4690842268
 10
-34.7012338585
 20
64.4720219573
 10
-34.7025690883
 20
64.4749499416
 10
-34.7039248442
 20
64.4778679559
 10
-34.7053012312
 20
64.4807757766
 10
-34.7066983542
 20
64.48367318
 10
-34.7081163184
 20
64.4865599424
 10
-34.7095552286
 20
64.4894358402
 10
-34.7110151899
 20
64.4923006498
 10
-34.7124963073
 20
64.4951541473
  0
LINE
  5
312
100
AcDbEntity
  8
0
100
AcDbLine
 62
7
  6
CONTINUOUS
 10
-48.5974404496
 20
-38.162019624
 11
-48.2725342385
 21
-38.9219449421
  0
LINE
  5
313
100
AcDbEntity
  8
0
100
AcDbLine
 62
7
  6
CONTINUOUS
 10
-48.8760725846
 20
-37.3772947956
 11
-48.5974404496
 21
-38.162019624
  0
LWPOLYLINE
  5
314
100
AcDbEntity
  8
0
100
AcDbPolyline
 62
7
  6
CONTINUOUS
 90
33
 70
0
 10
-35.0239119998
 20
-38.7200174661
 10
-35.0171950486
 20
-38.7399435629
 10
-35.0100008158
 20
-38.7597297539
 10
-35.0023399525
 20
-38.7793671133
 10
-34.9942231096
 20
-38.7988467153
 10
-34.9856609382
 20
-38.818159634
 10
-34.9766640894
 20
-38.8372969435
 10
-34.967243214
 20
-38.8562497179
 10
-34.9574089633
 20
-38.8750090316
 10
-34.947171988
 20
-38.8935659584
 10
-34.9365429393
 20
-38.9119115727
 10
-34.9255324683
 20
-38.9300369485
 10
-34.9141512258
 20
-38.9479331601
 10
-34.9024098629
 20
-38.9655912814
 10
-34.8903190307
 20
-38.9830023868
 10
-34.8764904297
 20
-39.0020435958
 10
-34.8622527361
 20
-39.020761689
 10
-34.8476149425
 20
-39.0391493701
 10
-34.8325860413
 20
-39.0571993429
 10
-34.8171750253
 20
-39.0749043113
 10
-34.8013908868
 20
-39.092256979
 10
-34.7852426186
 20
-39.1092500498
 10
-34.768739213
 20
-39.1258762276
 10
-34.7518896628
 20
-39.1421282161
 10
-34.7347029605
 20
-39.1579987192
 10
-34.7171880985
 20
-39.1734804406
 10
-34.6993540695
 20
-39.1885660841
 10
-34.6812098661
 20
-39.2032483536
 10
-34.6627644808
 20
-39.2175199529
 10
-34.644026906
 20
-39.2313735856
 10
-34.6250061345
 20
-39.2448019558
 10
-34.6057111588
 20
-39.2577977671
 10
-34.5861509714
 20
-39.2703537233
  0
LWPOLYLINE
  5
315
100
AcDbEntity
  8
0
100
AcDbPolyline
 62
7
  6
CONTINUOUS
 90
39
 70
0
 10
43.1026215933
 20
-87.2635319319
 10
43.1093587245
 20
-87.2864637486
 10
43.1163428868
 20
-87.3093283423
 10
43.1235961241
 20
-87.3321127745
 10
43.1311404801
 20
-87.3548041068
 10
43.1389979986
 20
-87.3773894009
 10
43.1471907235
 20
-87.3998557184
 10
43.1557406985
 20
-87.4221901209
 10
43.1646699675
 20
-87.4443796699
 10
43.1740005742
 20
-87.4664114273
 10
43.1815554924
 20
-87.4834377583
 10
43.1893870494
 20
-87.5003414703
 10
43.1975154595
 20
-87.5171033482
 10
43.2059609375
 20
-87.533704177
 10
43.2147436979
 20
-87.5501247417
 10
43.2238839552
 20
-87.5663458271
 10
43.233401924
 20
-87.5823482182
 10
43.243317819
 20
-87.5981127
 10
43.2536518545
 20
-87.6136200574
 10
43.2622987107
 20
-87.6259174928
 10
43.2712355509
 20
-87.6380140823
 10
43.2804675598
 20
-87.6498885175
 10
43.289999922
 20
-87.6615194901
 10
43.2998378221
 20
-87.6728856919
 10
43.309986445
 20
-87.6839658145
 10
43.3204509752
 20
-87.6947385498
 10
43.3312365973
 20
-87.7051825894
 10
43.3423484961
 20
-87.715276625
 10
43.3536709063
 20
-87.7249048364
 10
43.365304302
 20
-87.7341619053
 10
43.3772349008
 20
-87.7430405033
 10
43.3894489204
 20
-87.7515333019
 10
43.4019325785
 20
-87.7596329726
 10
43.4146720929
 20
-87.7673321869
 10
43.4276536811
 20
-87.7746236163
 10
43.4408635608
 20
-87.7814999325
 10
43.4523117146
 20
-87.7870356788
 10
43.4639077526
 20
-87.7922537401
 10
43.4756432078
 20
-87.7971443405
  0
LINE
  5
316
100
AcDbEntity
  8
0
100
AcDbLine
 62
7
  6
CONTINUOUS
 10
-49.1110808022
 20
-36.5469998144
 11
-48.8760725846
 21
-37.3772947956
  0
LWPOLYLINE
  5
317
100
AcDbEntity
  8
0
100
AcDbPolyline
 62
7
  6
CONTINUOUS
 90
33
 70
0
 10
0.9628023392
 20
-55.0202090324
 10
0.9656015952
 20
-55.0316793797
 10
0.9681474467
 20
-55.0432130696
 10
0.9704469443
 20
-55.0548003316
 10
0.9725071385
 20
-55.066431395
 10
0.97433508
 20
-55.0780964895
 10
0.9759378191
 20
-55.0897858443
 10
0.9776368383
 20
-55.1044463269
 10
0.9789998196
 20
-55.1191249439
 10
0.9800328517
 20
-55.1338171055
 10
0.9807420232
 20
-55.1485182218
 10
0.9811334228
 20
-55.1632237029
 10
0.9812131394
 20
-55.1779289589
 10
0.9809872615
 20
-55.1926293999
 10
0.9804618778
 20
-55.2073204361
 10
0.9796430772
 20
-55.2219974775
 10
0.9785369482
 20
-55.2366559343
 10
0.9771495797
 20
-55.2512912166
 10
0.9754870602
 20
-55.2658987344
 10
0.9735554785
 20
-55.280473898
 10
0.9713609233
 20
-55.2950121174
 10
0.9689094833
 20
-55.3095088027
 10
0.9662072472
 20
-55.323959364
 10
0.9626798106
 20
-55.3410545802
 10
0.9588115646
 20
-55.3580732493
 10
0.9546068145
 20
-55.3750103469
 10
0.9500698659
 20
-55.3918608485
 10
0.9452050243
 20
-55.4086197298
 10
0.9400165951
 20
-55.4252819662
 10
0.9345088839
 20
-55.4418425332
 10
0.9286861961
 20
-55.4582964066
 10
0.9225528372
 20
-55.4746385617
 10
0.9161131127
 20
-55.4908639741
  0
LWPOLYLINE
  5
318
100
AcDbEntity
  8
0
100
AcDbPolyline
 62
7
  6
CONTINUOUS
 90
37
 70
0
 10
-43.9795225121
 20
-43.7224598792
 10
-43.9747508007
 20
-43.7424576447
 10
-43.9697684722
 20
-43.7624104461
 10
-43.9645582783
 20
-43.7823088508
 10
-43.9591029705
 20
-43.8021434261
 10
-43.9533853001
 20
-43.8219047393
 10
-43.9473880187
 20
-43.841583358
 10
-43.9410938779
 20
-43.8611698493
 10
-43.934485629
 20
-43.8806547808
 10
-43.9275460237
 20
-43.9000287197
 10
-43.9202578134
 20
-43.9192822334
 10
-43.9143163544
 20
-43.9342145098
 10
-43.9081369624
 20
-43.9490531083
 10
-43.9017044658
 20
-43.963783419
 10
-43.895003693
 20
-43.978390832
 10
-43.8880194725
 20
-43.9928607375
 10
-43.8807366327
 20
-44.0071785255
 10
-43.873140002
 20
-44.0213295863
 10
-43.8652144089
 20
-44.0352993098
 10
-43.8569446817
 20
-44.0490730862
 10
-43.848315649
 20
-44.0626363056
 10
-43.8410062986
 20
-44.073525286
 10
-43.8334458959
 20
-44.0842493751
 10
-43.8256322199
 20
-44.0947932997
 10
-43.8175630499
 20
-44.105141787
 10
-43.8092361649
 20
-44.1152795637
 10
-43.8006493442
 20
-44.1251913569
 10
-43.7918003669
 20
-44.1348618935
 10
-43.7826870123
 20
-44.1442759005
 10
-43.7733070593
 20
-44.1534181047
 10
-43.7636582874
 20
-44.1622732332
 10
-43.7549158573
 20
-44.1698419682
 10
-43.7459703659
 20
-44.1771730026
 10
-43.7368300279
 20
-44.1842643169
 10
-43.7275030579
 20
-44.1911138919
 10
-43.7179976706
 20
-44.197719708
 10
-43.7083220805
 20
-44.2040797459
  0
LINE
  5
319
100
AcDbEntity
  8
0
100
AcDbLine
 62
7
  6
CONTINUOUS
 10
-49.2936240662
 20
-35.6722435412
 11
-49.1110808022
 21
-36.5469998144
  0
LWPOLYLINE
  5
31A
100
AcDbEntity
  8
0
100
AcDbPolyline
 62
7
  6
CONTINUOUS
 90
17
 70
0
 10
-35.0563905711
 20
-38.5794278611
 10
-35.0551075327
 20
-38.5883419363
 10
-35.0537209242
 20
-38.5972423896
 10
-35.0522315999
 20
-38.6061285048
 10
-35.0506404144
 20
-38.614999566
 10
-35.0489482219
 20
-38.6238548572
 10
-35.0471558768
 20
-38.6326936625
 10
-35.0452642336
 20
-38.6415152658
 10
-35.0432741466
 20
-38.650318951
 10
-35.0411864702
 20
-38.6591040023
 10
-35.0390020587
 20
-38.6678697036
 10
-35.0367217666
 20
-38.676615339
 10
-35.0343464482
 20
-38.6853401923
 10
-35.031876958
 20
-38.6940435477
 10
-35.0293141502
 20
-38.7027246891
 10
-35.0266588794
 20
-38.7113829006
 10
-35.0239119998
 20
-38.7200174661
  0
LINE
  5
31B
100
AcDbEntity
  8
0
100
AcDbLine
 62
7
  6
CONTINUOUS
 10
-49.4132527063
 20
-34.7753691011
 11
-49.2936240662
 21
-35.6722435412
  0
LINE
  5
31C
100
AcDbEntity
  8
0
100
AcDbLine
 62
7
  6
CONTINUOUS
 10
-48.4031743805
 20
82.2981834919
 11
-48.5440092319
 21
82.081904879
  0
LINE
  5
31D
100
AcDbEntity
  8
0
100
AcDbLine
 62
7
  6
CONTINUOUS
 10
-48.254363399
 20
82.5021894911
 11
-48.4031743805
 21
82.2981834919
  0
LWPOLYLINE
  5
31E
100
AcDbEntity
  8
0
100
AcDbPolyline
 62
7
  6
CONTINUOUS
 90
46
 70
0
 10
-34.8649639314
 20
64.6596954204
 10
-34.8732737369
 20
64.6661330709
 10
-34.8815424144
 20
64.6726014592
 10
-34.8897786165
 20
64.6791355678
 10
-34.8979909958
 20
64.6857703793
 10
-34.9061882047
 20
64.6925408762
 10
-34.9143788959
 20
64.699482041
 10
-34.9198400086
 20
64.704221575
 10
-34.9253046338
 20
64.7090628744
 10
-34.9307753353
 20
64.7140163044
 10
-34.9362546767
 20
64.7190922302
 10
-34.9417452218
 20
64.724301017
 10
-34.9472495344
 20
64.7296530299
 10
-34.952770178
 20
64.7351586342
 10
-34.9583097166
 20
64.740828195
 10
-34.9638707137
 20
64.7466720776
 10
-34.969455733
 20
64.7527006472
 10
-34.9750673384
 20
64.7589242688
 10
-34.9807080936
 20
64.7653533078
 10
-34.9863805622
 20
64.7719981294
 10
-34.9920873079
 20
64.7788690986
 10
-34.9978308946
 20
64.7859765808
 10
-35.0036138859
 20
64.793330941
 10
-35.0094388455
 20
64.8009425446
 10
-35.0153083372
 20
64.8088217567
 10
-35.0212249246
 20
64.8169789424
 10
-35.0271911716
 20
64.8254244671
 10
-35.0332096418
 20
64.8341686958
 10
-35.0380848875
 20
64.8414283614
 10
-35.0429123839
 20
64.8488298632
 10
-35.0476088088
 20
64.8563143601
 10
-35.0520908401
 20
64.8638230109
 10
-35.0549186065
 20
64.8688131395
 10
-35.0575893668
 20
64.8737704171
 10
-35.0600784327
 20
64.8786774092
 10
-35.0623611162
 20
64.8835166815
 10
-35.0644127293
 20
64.8882707995
 10
-35.0662085839
 20
64.8929223288
 10
-35.067372782
 20
64.896333164
 10
-35.0683688136
 20
64.899669131
 10
-35.0691862634
 20
64.9029228748
 10
-35.0698147163
 20
64.90608704
 10
-35.0702437568
 20
64.9091542716
 10
-35.0704629698
 20
64.9121172145
 10
-35.0704619399
 20
64.9149685135
 10
-35.0702302519
 20
64.9177008134
  0
LWPOLYLINE
  5
31F
100
AcDbEntity
  8
0
100
AcDbPolyline
 62
7
  6
CONTINUOUS
 90
44
 70
0
 10
-39.4396149312
 20
67.0106891609
 10
-39.4368004929
 20
67.0084824148
 10
-39.4340712493
 20
67.0061652444
 10
-39.4314275123
 20
67.0037431912
 10
-39.428869594
 20
67.0012217965
 10
-39.4263978065
 20
66.9986066017
 10
-39.4240124618
 20
66.995903148
 10
-39.4217138719
 20
66.9931169768
 10
-39.4195023491
 20
66.9902536296
 10
-39.4173782052
 20
66.9873186475
 10
-39.4153417524
 20
66.9843175721
 10
-39.4133933027
 20
66.9812559446
 10
-39.4115331681
 20
66.9781393064
 10
-39.4097616608
 20
66.9749731988
 10
-39.4080790928
 20
66.9717631632
 10
-39.4064857761
 20
66.968514741
 10
-39.4047002752
 20
66.9645932075
 10
-39.403038542
 20
66.960627779
 10
-39.4014967061
 20
66.9566213687
 10
-39.400070897
 20
66.95257689
 10
-39.3987572443
 20
66.9484972561
 10
-39.3975518776
 20
66.9443853804
 10
-39.3964509264
 20
66.9402441761
 10
-39.3954505204
 20
66.9360765565
 10
-39.394546789
 20
66.9318854349
 10
-39.3937358619
 20
66.9276737247
 10
-39.3930138686
 20
66.923444339
 10
-39.3923769387
 20
66.9192001913
 10
-39.3918212017
 20
66.9149441948
 10
-39.3913427873
 20
66.9106792628
 10
-39.3909378249
 20
66.9064083085
 10
-39.3904898284
 20
66.9004520683
 10
-39.390172848
 20
66.8944916076
 10
-39.3899828238
 20
66.8885287409
 10
-39.3899156958
 20
66.882565283
 10
-39.389967404
 20
66.8766030484
 10
-39.3901338885
 20
66.8706438517
 10
-39.3904110894
 20
66.8646895077
 10
-39.3907949466
 20
66.858741831
 10
-39.3912814002
 20
66.8528026361
 10
-39.3918663902
 20
66.8468737378
 10
-39.3925458567
 20
66.8409569506
 10
-39.3933157398
 20
66.8350540893
 10
-39.3941719793
 20
66.8291669684
  0
LINE
  5
320
100
AcDbEntity
  8
0
100
AcDbLine
 62
7
  6
CONTINUOUS
 10
-32.8406618929
 20
63.4984502376
 11
-32.7962882351
 21
63.4631279238
  0
LINE
  5
321
100
AcDbEntity
  8
0
100
AcDbLine
 62
7
  6
CONTINUOUS
 10
-34.5546923995
 20
64.4319626606
 11
-34.6408899636
 21
64.5007081318
  0
LWPOLYLINE
  5
322
100
AcDbEntity
  8
0
100
AcDbPolyline
 62
7
  6
CONTINUOUS
 90
9
 70
0
 10
-34.6408899636
 20
64.5007081318
 10
-34.6632108713
 20
64.5186345106
 10
-34.6743620889
 20
64.5276533553
 10
-34.6854839612
 20
64.5367038298
 10
-34.6965590974
 20
64.5457818288
 10
-34.7075701067
 20
64.5548832471
 10
-34.7184995981
 20
64.5640039793
 10
-34.7293301809
 20
64.5731399203
 10
-34.7400444642
 20
64.5822869646
  0
LWPOLYLINE
  5
323
100
AcDbEntity
  8
0
100
AcDbPolyline
 62
7
  6
CONTINUOUS
 90
7
 70
0
 10
-34.7959665733
 20
64.6051028736
 10
-34.8049168947
 20
64.6125539928
 10
-34.8137568677
 20
64.6197559895
 10
-34.8224951447
 20
64.6267438463
 10
-34.8311403785
 20
64.6335525458
 10
-34.8397012215
 20
64.6402170704
 10
-34.8649639314
 20
64.6596954204
  0
LINE
  5
324
100
AcDbEntity
  8
0
100
AcDbLine
 62
7
  6
CONTINUOUS
 10
-34.7400444642
 20
64.5822869646
 11
-34.7506275168
 21
64.5914431502
  0
LINE
  5
325
100
AcDbEntity
  8
0
100
AcDbLine
 62
7
  6
CONTINUOUS
 10
-34.7506275168
 20
64.5914431502
 11
-34.7610594134
 21
64.6006022291
  0
LWPOLYLINE
  5
326
100
AcDbEntity
  8
0
100
AcDbPolyline
 62
7
  6
CONTINUOUS
 90
7
 70
0
 10
-34.7610594134
 20
64.6006022291
 10
-34.7713227509
 20
64.609760093
 10
-34.7763857716
 20
64.6143372856
 10
-34.7814001265
 20
64.6189126338
 10
-34.78636364
 20
64.6234856243
 10
-34.7912741369
 20
64.6280557435
 10
-34.7961294417
 20
64.6326224778
  0
LWPOLYLINE
  5
327
100
AcDbEntity
  8
0
100
AcDbPolyline
 62
7
  6
CONTINUOUS
 90
8
 70
0
 10
-34.6986205995
 20
-36.9050002678
 10
-34.7005048996
 20
-36.9114431419
 10
-34.7024221656
 20
-36.9178759368
 10
-34.7043722067
 20
-36.924298478
 10
-34.7063548321
 20
-36.9307105908
 10
-34.7083698512
 20
-36.9371121007
 10
-34.7104170732
 20
-36.9435028331
 10
-34.7124963073
 20
-36.9498826134
  0
LINE
  5
328
100
AcDbEntity
  8
0
100
AcDbLine
 62
7
  6
CONTINUOUS
 10
-48.0974658148
 20
82.6948194341
 11
-48.254363399
 21
82.5021894911
  0
LWPOLYLINE
  5
329
100
AcDbEntity
  8
0
100
AcDbPolyline
 62
7
  6
CONTINUOUS
 90
34
 70
0
 10
30.643082678
 20
-71.5251410735
 10
30.6232772553
 20
-71.5306793675
 10
30.6033831416
 20
-71.5358808372
 10
30.583403118
 20
-71.5407337977
 10
30.5633399659
 20
-71.5452265635
 10
30.5431964666
 20
-71.5493474495
 10
30.5229754012
 20
-71.5530847706
 10
30.5026795511
 20
-71.5564268415
 10
30.4823116976
 20
-71.5593619769
 10
30.4618746218
 20
-71.5618784918
 10
30.441371105
 20
-71.5639647009
 10
30.4208039286
 20
-71.5656089189
 10
30.4001758738
 20
-71.5667994607
 10
30.3832962909
 20
-71.5674271742
 10
30.36638861
 20
-71.5677405599
 10
30.3494634424
 20
-71.5677353531
 10
30.3325313991
 20
-71.5674072892
 10
30.3156030915
 20
-71.5667521034
 10
30.2986891308
 20
-71.5657655309
 10
30.2818001281
 20
-71.5644433073
 10
30.2649466947
 20
-71.5627811676
 10
30.2481394419
 20
-71.5607748472
 10
30.2313889807
 20
-71.5584200815
 10
30.2147059226
 20
-71.5557126056
 10
30.1981008786
 20
-71.552648155
 10
30.18158446
 20
-71.5492224649
 10
30.165167278
 20
-71.5454312705
 10
30.1488599438
 20
-71.5412703073
 10
30.1326730687
 20
-71.5367353105
 10
30.1166172638
 20
-71.5318220153
 10
30.1007031404
 20
-71.5265261572
 10
30.0849413098
 20
-71.5208434713
 10
30.069342383
 20
-71.5147696931
 10
30.0539169714
 20
-71.5083005577
  0
LWPOLYLINE
  5
32A
100
AcDbEntity
  8
0
100
AcDbPolyline
 62
7
  6
CONTINUOUS
 90
25
 70
0
 10
32.0663265999
 20
31.1057426937
 10
32.0628491356
 20
31.1116872742
 10
32.059269671
 20
31.1175743604
 10
32.0555893612
 20
31.1234019775
 10
32.0518093615
 20
31.1291681504
 10
32.047930827
 20
31.1348709043
 10
32.0439549129
 20
31.1405082641
 10
32.0398827744
 20
31.1460782549
 10
32.0357155666
 20
31.1515789018
 10
32.0314544448
 20
31.1570082299
 10
32.0271005641
 20
31.1623642641
 10
32.0226550797
 20
31.1676450296
 10
32.0181191469
 20
31.1728485514
 10
32.0135486261
 20
31.1779134702
 10
32.0088925949
 20
31.182899602
 10
32.0041527595
 20
31.187805536
 10
31.9993308263
 20
31.1926298616
 10
31.9944285016
 20
31.1973711682
 10
31.9894474918
 20
31.2020280451
 10
31.9843895032
 20
31.2065990817
 10
31.9792562422
 20
31.2110828672
 10
31.974049415
 20
31.2154779912
 10
31.9687707281
 20
31.2197830429
 10
31.9634218877
 20
31.2239966116
 10
31.9580046003
 20
31.2281172868
  0
LINE
  5
32B
100
AcDbEntity
  8
0
100
AcDbLine
 62
7
  6
CONTINUOUS
 10
0.3801535142
 20
-55.9664209717
 11
0.3644283633
 21
-56.1156019726
  0
LINE
  5
32C
100
AcDbEntity
  8
0
100
AcDbLine
 62
7
  6
CONTINUOUS
 10
0.3644283633
 20
-56.1156019726
 11
0.3487098426
 21
-56.2646878711
  0
LINE
  5
32D
100
AcDbEntity
  8
0
100
AcDbLine
 62
7
  6
CONTINUOUS
 10
0.3487098426
 20
-56.2646878711
 11
0.2916245957
 21
-56.805842105
  0
LINE
  5
32E
100
AcDbEntity
  8
0
100
AcDbLine
 62
7
  6
CONTINUOUS
 10
0.2916245957
 20
-56.805842105
 11
0.285900428
 21
-56.8600802689
  0
LINE
  5
32F
100
AcDbEntity
  8
0
100
AcDbLine
 62
7
  6
CONTINUOUS
 10
0.1687095091
 20
-55.9430824211
 11
0.1806636711
 21
-55.8347781294
  0
LINE
  5
330
100
AcDbEntity
  8
0
100
AcDbLine
 62
7
  6
CONTINUOUS
 10
-0.0021894769
 20
-56.7158249909
 11
0.0901060736
 21
-55.8800569282
  0
LINE
  5
331
100
AcDbEntity
  8
0
100
AcDbLine
 62
7
  6
CONTINUOUS
 10
0.0883732106
 20
-56.6705436472
 11
0.1687095091
 21
-55.9430824211
  0
LWPOLYLINE
  5
332
100
AcDbEntity
  8
0
100
AcDbPolyline
 62
7
  6
CONTINUOUS
 90
10
 70
0
 10
-34.7124963073
 20
-36.9498826134
 10
-34.7165989284
 20
-36.9622717668
 10
-34.7207576832
 20
-36.974642527
 10
-34.7249743769
 20
-36.9869939104
 10
-34.7292508145
 20
-36.9993249333
 10
-34.7335888012
 20
-37.0116346121
 10
-34.7379901419
 20
-37.0239219632
 10
-34.7424566418
 20
-37.0361860029
 10
-34.7469901059
 20
-37.0484257476
 10
-34.7515923394
 20
-37.0606402137
  0
LWPOLYLINE
  5
333
100
AcDbEntity
  8
0
100
AcDbPolyline
 62
7
  6
CONTINUOUS
 90
29
 70
0
 10
-34.8993232995
 20
-37.4235244666
 10
-34.914764645
 20
-37.4673726934
 10
-34.929595869
 20
-37.5114410317
 10
-34.9438023547
 20
-37.5557252329
 10
-34.9573694853
 20
-37.6002210483
 10
-34.9702826438
 20
-37.6449242296
 10
-34.9825272136
 20
-37.689830528
 10
-34.9940885778
 20
-37.7349356951
 10
-35.0049521196
 20
-37.7802354823
 10
-35.015103222
 20
-37.825725641
 10
-35.0245272684
 20
-37.8714019226
 10
-35.0332096418
 20
-37.9172600787
 10
-35.0399156057
 20
-37.9559098472
 10
-35.0460657213
 20
-37.9946703012
 10
-35.0516375986
 20
-38.0335268355
 10
-35.0566088479
 20
-38.0724648449
 10
-35.0609570794
 20
-38.1114697244
 10
-35.0646599032
 20
-38.1505268687
 10
-35.0676949295
 20
-38.1896216728
 10
-35.0700397686
 20
-38.2287395313
 10
-35.0716720305
 20
-38.2678658392
 10
-35.0725693255
 20
-38.3069859914
 10
-35.0727092637
 20
-38.3460853826
 10
-35.0720694553
 20
-38.3851494077
 10
-35.0706275106
 20
-38.4241634615
 10
-35.0683610396
 20
-38.4631129389
 10
-35.0652476526
 20
-38.5019832348
 10
-35.0612649597
 20
-38.5407597439
 10
-35.0563905711
 20
-38.5794278611
  0
LINE
  5
334
100
AcDbEntity
  8
0
100
AcDbLine
 62
7
  6
CONTINUOUS
 10
-47.9328778973
 20
82.8761542259
 11
-48.0974658148
 21
82.6948194341
  0
LWPOLYLINE
  5
335
100
AcDbEntity
  8
0
100
AcDbPolyline
 62
7
  6
CONTINUOUS
 90
15
 70
0
 10
0.5291684436
 20
-55.9114329642
 10
0.5250316089
 20
-55.9123875699
 10
0.5208876533
 20
-55.9133033826
 10
0.5167368838
 20
-55.9141800512
 10
0.5125796071
 20
-55.9150172248
 10
0.5084161301
 20
-55.9158145522
 10
0.5042467596
 20
-55.9165716825
 10
0.5000718026
 20
-55.9172882646
 10
0.4958915657
 20
-55.9179639475
 10
0.4917063559
 20
-55.91859838
 10
0.48751648
 20
-55.9191912113
 10
0.4833222449
 20
-55.9197420903
 10
0.4791239573
 20
-55.9202506658
 10
0.4749219242
 20
-55.9207165869
 10
0.4707164524
 20
-55.9211395026
  0
LWPOLYLINE
  5
336
100
AcDbEntity
  8
0
100
AcDbPolyline
 62
7
  6
CONTINUOUS
 90
19
 70
0
 10
-39.3941726132
 20
66.8291673209
 10
-39.7827442248
 20
67.0397896381
 10
-40.1349789376
 20
67.232497246
 10
-40.4529258807
 20
67.4073173908
 10
-40.7384399995
 20
67.564476951
 10
-40.994591278
 20
67.7051289668
 10
-41.2254552022
 20
67.831187511
 10
-41.4349437036
 20
67.9446076485
 10
-41.6268831084
 20
68.0473544702
 10
-41.8052421965
 20
68.1414690499
 10
-41.9769639033
 20
68.2304554443
 10
-42.1519125179
 20
68.3189880923
 10
-42.2456464083
 20
68.3652850523
 10
-42.3397264429
 20
68.4108828115
 10
-42.4443356488
 20
68.4603918882
 10
-42.5496986754
 20
68.5082562129
 10
-42.6329654896
 20
68.5442305741
 10
-42.7167621992
 20
68.5789697262
 10
-42.8009618006
 20
68.6127149973
  0
LWPOLYLINE
  5
337
100
AcDbEntity
  8
0
100
AcDbPolyline
 62
7
  6
CONTINUOUS
 90
5
 70
0
 10
-34.5546923995
 20
64.4319626606
 10
-34.130169447
 20
64.1998520218
 10
-33.7061490908
 20
63.9668238575
 10
-33.2754388713
 20
63.728977211
 10
-32.845181426
 20
63.490312872
  0
LINE
  5
338
100
AcDbEntity
  8
0
100
AcDbLine
 62
7
  6
CONTINUOUS
 10
-32.845181426
 20
63.490312872
 11
-32.7962882351
 21
63.4631279238
  0
LWPOLYLINE
  5
339
100
AcDbEntity
  8
0
100
AcDbPolyline
 62
7
  6
CONTINUOUS
 90
8
 70
0
 10
-35.2828118181
 20
64.5399645375
 10
-35.9998515633
 20
64.9488006646
 10
-36.6183427737
 20
65.2985232498
 10
-37.2380947687
 20
65.6460058168
 10
-37.8028680815
 20
65.9599113145
 10
-38.3688124864
 20
66.2717008122
 10
-38.880980026
 20
66.551377755
 10
-39.3941726132
 20
66.8291673209
  0
LINE
  5
33A
100
AcDbEntity
  8
0
100
AcDbLine
 62
7
  6
CONTINUOUS
 10
-35.1837404329
 20
64.4832098675
 11
-35.2828118181
 21
64.5399645375
  0
LINE
  5
33B
100
AcDbEntity
  8
0
100
AcDbLine
 62
7
  6
CONTINUOUS
 10
-35.1131903671
 20
64.4427564025
 11
-35.1837404329
 21
64.4832098675
  0
LINE
  5
33C
100
AcDbEntity
  8
0
100
AcDbLine
 62
7
  6
CONTINUOUS
 10
-34.85498129
 20
64.2944378946
 11
-35.1131903671
 21
64.4427564025
  0
LINE
  5
33D
100
AcDbEntity
  8
0
100
AcDbLine
 62
7
  6
CONTINUOUS
 10
-34.6521568938
 20
64.177653855
 11
-34.85498129
 21
64.2944378946
  0
LWPOLYLINE
  5
33E
100
AcDbEntity
  8
0
100
AcDbPolyline
 62
7
  6
CONTINUOUS
 90
10
 70
0
 10
30.6088182329
 20
32.1226787884
 10
30.6684963375
 20
32.0860705314
 10
30.7280171286
 20
32.0492070008
 10
30.8187892041
 20
31.9923457064
 10
30.9092206253
 20
31.9349430633
 10
30.9993186955
 20
31.87701744
 10
31.089090718
 20
31.818587205
 10
31.1680622257
 20
31.7666049838
 10
31.2467779795
 20
31.714236961
 10
31.3252305591
 20
31.6614761662
  0
LWPOLYLINE
  5
33F
100
AcDbEntity
  8
0
100
AcDbPolyline
 62
7
  6
CONTINUOUS
 90
25
 70
0
 10
30.8772035692
 20
31.9687792941
 10
30.839681402
 20
31.9931245666
 10
30.8025519171
 20
32.0180350201
 10
30.7657604994
 20
32.0434357967
 10
30.7292525338
 20
32.0692520385
 10
30.6929734052
 20
32.0954088875
 10
30.6568684985
 20
32.1218314857
 10
30.6208831986
 20
32.1484449753
 10
30.5849628905
 20
32.1751744983
 10
30.549052959
 20
32.2019451968
 10
30.5130987892
 20
32.2286822128
 10
30.4770457658
 20
32.2553106883
 10
30.4459308688
 20
32.2780628544
 10
30.4146848719
 20
32.3006426289
 10
30.3832901183
 20
32.323013187
 10
30.3517289513
 20
32.3451377042
 10
30.319983714
 20
32.3669793556
 10
30.2880367495
 20
32.3885013167
 10
30.2558704011
 20
32.4096667626
 10
30.223467012
 20
32.4304388688
 10
30.1908089252
 20
32.4507808105
 10
30.1578784841
 20
32.4706557631
 10
30.1246580318
 20
32.4900269018
 10
30.0911299115
 20
32.508857402
 10
30.0572764664
 20
32.5271104389
  0
LWPOLYLINE
  5
340
100
AcDbEntity
  8
0
100
AcDbPolyline
 62
7
  6
CONTINUOUS
 90
5
 70
0
 10
31.3252305591
 20
31.6614761662
 10
31.353890719
 20
31.64205681
 10
31.382514232
 20
31.6225835122
 10
31.4111007336
 20
31.6030559305
 10
31.4396498595
 20
31.5834737228
  0
LWPOLYLINE
  5
341
100
AcDbEntity
  8
0
100
AcDbPolyline
 62
7
  6
CONTINUOUS
 90
10
 70
0
 10
31.4396498595
 20
31.5834737228
 10
31.5043649618
 20
31.5387799436
 10
31.5688708795
 20
31.4937847276
 10
31.6331532054
 20
31.4484703311
 10
31.6971975322
 20
31.4028190106
 10
31.7609894526
 20
31.3568130225
 10
31.808425981
 20
31.322231703
 10
31.8556944037
 20
31.2874207276
 10
31.9027752453
 20
31.2523578944
 10
31.9496490303
 20
31.2170210015
  0
LWPOLYLINE
  5
342
100
AcDbEntity
  8
0
100
AcDbPolyline
 62
7
  6
CONTINUOUS
 90
39
 70
0
 10
35.3701223568
 20
29.6058205169
 10
35.3747063088
 20
29.6026084705
 10
35.3791930554
 20
29.5992523399
 10
35.3835808176
 20
29.5957578421
 10
35.387867816
 20
29.5921306942
 10
35.3920522714
 20
29.5883766132
 10
35.3961324046
 20
29.5845013163
 10
35.4001064365
 20
29.5805105203
 10
35.4039725877
 20
29.5764099425
 10
35.4077290792
 20
29.5722052998
 10
35.4113741316
 20
29.5679023093
 10
35.4149059658
 20
29.5635066881
 10
35.4183228026
 20
29.5590241532
 10
35.4216228626
 20
29.5544604216
 10
35.4251091393
 20
29.5493641275
 10
35.4284546111
 20
29.544181173
 10
35.4316612962
 20
29.538915827
 10
35.4347312124
 20
29.5335723582
 10
35.4376663778
 20
29.5281550355
 10
35.4404688103
 20
29.522668128
 10
35.4431405281
 20
29.5171159043
 10
35.445683549
 20
29.5115026333
 10
35.4480998911
 20
29.5058325841
 10
35.4503915723
 20
29.5001100253
 10
35.4525606106
 20
29.4943392259
 10
35.4546090241
 20
29.4885244547
 10
35.4565388307
 20
29.4826699807
 10
35.458692442
 20
29.4756260762
 10
35.4606822446
 20
29.4685357218
 10
35.4625109776
 20
29.461403085
 10
35.4641813797
 20
29.4542323335
 10
35.4656961898
 20
29.4470276349
 10
35.4670581467
 20
29.4397931568
 10
35.4682699893
 20
29.4325330668
 10
35.4693344565
 20
29.4252515325
 10
35.4702542871
 20
29.4179527215
 10
35.47103222
 20
29.4106408015
 10
35.471670994
 20
29.40331994
 10
35.472173348
 20
29.3959943047
  0
LWPOLYLINE
  5
343
100
AcDbEntity
  8
0
100
AcDbPolyline
 62
7
  6
CONTINUOUS
 90
10
 70
0
 10
31.7931708733
 20
31.3492358758
 10
31.705006037
 20
31.4124669987
 10
31.6163866964
 20
31.4750668713
 10
31.5273576467
 20
31.5370877855
 10
31.4379636831
 20
31.5985820333
 10
31.3267774256
 20
31.6740870562
 10
31.2151041285
 20
31.7488617415
 10
31.1029479488
 20
31.8229036415
 10
30.9903130433
 20
31.8962103083
 10
30.8772035692
 20
31.9687792941
  0
LWPOLYLINE
  5
344
100
AcDbEntity
  8
0
100
AcDbPolyline
 62
7
  6
CONTINUOUS
 90
6
 70
0
 10
31.9580046003
 20
31.2281172868
 10
31.9251942593
 20
31.2525522167
 10
31.8923033143
 20
31.2768787367
 10
31.859334167
 20
31.3010996507
 10
31.8262892194
 20
31.3252177624
 10
31.7931708733
 20
31.3492358758
  0
LWPOLYLINE
  5
345
100
AcDbEntity
  8
0
100
AcDbPolyline
 62
7
  6
CONTINUOUS
 90
5
 70
0
 10
31.9496490303
 20
31.2170210015
 10
31.969786028
 20
31.2016983605
 10
31.9898793718
 20
31.1863188902
 10
32.0099275018
 20
31.1708808123
 10
32.0299288579
 20
31.1553823484
  0
LINE
  5
346
100
AcDbEntity
  8
0
100
AcDbLine
 62
7
  6
CONTINUOUS
 10
30.9557970669
 20
31.5870852727
 11
30.915842846
 21
31.6201978681
  0
LWPOLYLINE
  5
347
100
AcDbEntity
  8
0
100
AcDbPolyline
 62
7
  6
CONTINUOUS
 90
29
 70
0
 10
32.1457316751
 20
30.7785301398
 10
32.1454679148
 20
30.7921629566
 10
32.1449984685
 20
30.8057949229
 10
32.1443188147
 20
30.8194213709
 10
32.1434244321
 20
30.8330376327
 10
32.1423107992
 20
30.8466390405
 10
32.1409733946
 20
30.8602209265
 10
32.139407697
 20
30.8737786227
 10
32.1376091849
 20
30.8873074615
 10
32.1355733369
 20
30.900802775
 10
32.1334810319
 20
30.9132161256
 10
32.1311779931
 20
30.9255918834
 10
32.1286592399
 20
30.9379249472
 10
32.1259197917
 20
30.9502102159
 10
32.1229546678
 20
30.9624425886
 10
32.1197588876
 20
30.9746169639
 10
32.1163274706
 20
30.986728241
 10
32.112655436
 20
30.9987713185
 10
32.1087378033
 20
31.0107410956
 10
32.1053071782
 20
31.0205853883
 10
32.1017026704
 20
31.0303697888
 10
32.0979219445
 20
31.0400880788
 10
32.0939626654
 20
31.0497340402
 10
32.0898224979
 20
31.0593014549
 10
32.0854991066
 20
31.0687841049
 10
32.0809901564
 20
31.0781757718
 10
32.0762933121
 20
31.0874702377
 10
32.0714062383
 20
31.0966612844
 10
32.0663265999
 20
31.1057426937
  0
LINE
  5
348
100
AcDbEntity
  8
0
100
AcDbLine
 62
7
  6
CONTINUOUS
 10
32.0872370059
 20
31.0645858014
 11
32.0907821442
 21
30.7779186733
  0
LWPOLYLINE
  5
349
100
AcDbEntity
  8
0
100
AcDbPolyline
 62
7
  6
CONTINUOUS
 90
7
 70
0
 10
32.0907821442
 20
30.7779186733
 10
32.1261721837
 20
27.4670618349
 10
32.1524351446
 20
24.1561160845
 10
32.1712636898
 20
20.8026490793
 10
32.18350243
 20
17.4491527922
 10
32.1900577197
 20
14.2205104675
 10
32.1921207704
 20
10.9918625801
  0
LWPOLYLINE
  5
34A
100
AcDbEntity
  8
0
100
AcDbPolyline
 62
7
  6
CONTINUOUS
 90
7
 70
0
 10
32.2439013553
 20
10.9470421945
 10
32.2420004537
 20
14.1326582577
 10
32.2359363209
 20
17.3182694723
 10
32.2245851685
 20
20.6237621868
 10
32.2070755653
 20
23.9292291678
 10
32.1811769117
 20
27.3539244882
 10
32.1457316751
 20
30.7785301398
  0
LWPOLYLINE
  5
34B
100
AcDbEntity
  8
0
100
AcDbPolyline
 62
7
  6
CONTINUOUS
 90
3
 70
0
 10
30.9550187506
 20
-68.9044286863
 10
30.9535752045
 20
-59.8430625484
 10
30.9527224697
 20
-49.4044064745
  0
LINE
  5
34C
100
AcDbEntity
  8
0
100
AcDbLine
 62
7
  6
CONTINUOUS
 10
30.952593158
 20
12.0835063499
 11
30.952593158
 21
-49.4044064763
  0
LINE
  5
34D
100
AcDbEntity
  8
0
100
AcDbLine
 62
7
  6
CONTINUOUS
 10
32.1925612624
 20
10.9920828262
 11
32.1925612624
 21
-50.4957208425
  0
LINE
  5
34E
100
AcDbEntity
  8
0
100
AcDbLine
 62
7
  6
CONTINUOUS
 10
32.2443477585
 20
10.9472653961
 11
32.2443477585
 21
-50.5405382726
  0
LWPOLYLINE
  5
34F
100
AcDbEntity
  8
0
100
AcDbPolyline
 62
7
  6
CONTINUOUS
 90
3
 70
0
 10
30.9527228278
 20
12.0835063481
 10
30.9535755662
 20
22.5232498369
 10
30.9550189487
 20
31.587085385
  0
LWPOLYLINE
  5
350
100
AcDbEntity
  8
0
100
AcDbPolyline
 62
7
  6
CONTINUOUS
 90
7
 70
0
 10
32.1921207704
 20
-50.4959410886
 10
32.1900404454
 20
-53.7262022977
 10
32.1834866658
 20
-56.9116545756
 10
32.1712930141
 20
-60.1935117742
 10
32.1523970451
 20
-63.4753386208
 10
32.1258358805
 20
-66.7132675782
 10
32.089706846
 20
-69.951099334
  0
LWPOLYLINE
  5
351
100
AcDbEntity
  8
0
100
AcDbPolyline
 62
7
  6
CONTINUOUS
 90
7
 70
0
 10
32.2439013553
 20
-50.5407614742
 10
32.242015119
 20
-53.7032212758
 10
32.235936321
 20
-56.8656761215
 10
32.2246362604
 20
-60.100855481
 10
32.2070755653
 20
-63.3360082115
 10
32.1812733167
 20
-66.6439254565
 10
32.1457316751
 20
-69.9517477524
  0
LINE
  5
352
100
AcDbEntity
  8
0
100
AcDbLine
 62
7
  6
CONTINUOUS
 10
32.089706846
 20
-69.951099334
 11
32.0866517483
 21
-70.1870380523
  0
LWPOLYLINE
  5
353
100
AcDbEntity
  8
0
100
AcDbPolyline
 62
7
  6
CONTINUOUS
 90
8
 70
0
 10
-34.7515923394
 20
-37.0606402137
 10
-34.7550611803
 20
-37.0697083494
 10
-34.7585699141
 20
-37.0787613031
 10
-34.7621193892
 20
-37.0877984221
 10
-34.7657104536
 20
-37.0968190539
 10
-34.7693439557
 20
-37.1058225458
 10
-34.7730207437
 20
-37.1148082451
 10
-34.7767416656
 20
-37.1237754994
  0
LINE
  5
354
100
AcDbEntity
  8
0
100
AcDbLine
 62
7
  6
CONTINUOUS
 10
-34.7767416656
 20
-37.1237754994
 11
-34.7830321572
 21
-37.1386514644
  0
LWPOLYLINE
  5
355
100
AcDbEntity
  8
0
100
AcDbPolyline
 62
7
  6
CONTINUOUS
 90
30
 70
0
 10
-39.4396149312
 20
-36.1616218701
 10
-39.4351048793
 20
-36.1515423397
 10
-39.4307997825
 20
-36.1413682577
 10
-39.426700628
 20
-36.1311049183
 10
-39.4228084031
 20
-36.1207576154
 10
-39.419124095
 20
-36.1103316433
 10
-39.415648691
 20
-36.0998322961
 10
-39.4123831784
 20
-36.0892648677
 10
-39.4093285443
 20
-36.0786346525
 10
-39.4064857761
 20
-36.0679469444
 10
-39.4041348784
 20
-36.058390248
 10
-39.4019548573
 20
-36.0487946582
 10
-39.3999479761
 20
-36.0391626314
 10
-39.3981164978
 20
-36.029496624
 10
-39.3964626856
 20
-36.0197990925
 10
-39.3949888026
 20
-36.010072493
 10
-39.3936971119
 20
-36.0003192821
 10
-39.3925898766
 20
-35.990541916
 10
-39.3916693599
 20
-35.9807428511
 10
-39.3909378249
 20
-35.9709245439
 10
-39.3904222699
 20
-35.9616236167
 10
-39.3900819737
 20
-35.9523125782
 10
-39.3899211285
 20
-35.9429963318
 10
-39.3899439265
 20
-35.9336797811
 10
-39.3901545597
 20
-35.9243678297
 10
-39.3905572203
 20
-35.9150653812
 10
-39.3911561004
 20
-35.905777339
 10
-39.3919553922
 20
-35.8965086068
 10
-39.3929592878
 20
-35.8872640881
 10
-39.3941719793
 20
-35.8780486864
  0
LINE
  5
356
100
AcDbEntity
  8
0
100
AcDbLine
 62
7
  6
CONTINUOUS
 10
-47.760661342
 20
83.0466158348
 11
-47.9328778973
 21
82.8761542259
  0
LINE
  5
357
100
AcDbEntity
  8
0
100
AcDbLine
 62
7
  6
CONTINUOUS
 10
-47.57960864
 20
83.2076105313
 11
-47.760661342
 21
83.0466158348
  0
LWPOLYLINE
  5
358
100
AcDbEntity
  8
0
100
AcDbPolyline
 62
7
  6
CONTINUOUS
 90
5
 70
0
 10
30.9557970669
 20
31.5870852727
 10
31.100247968
 20
31.5274152682
 10
31.2445946238
 20
31.46749305
 10
31.3888313885
 20
31.4073065378
 10
31.5329526166
 20
31.3468436515
  0
LWPOLYLINE
  5
359
100
AcDbEntity
  8
0
100
AcDbPolyline
 62
7
  6
CONTINUOUS
 90
4
 70
0
 10
31.5329526166
 20
31.3468436515
 10
31.6673103061
 20
31.2901716723
 10
31.8015587353
 20
31.2332414377
 10
31.9356941342
 20
31.1760457945
  0
LWPOLYLINE
  5
35A
100
AcDbEntity
  8
0
100
AcDbPolyline
 62
7
  6
CONTINUOUS
 90
4
 70
0
 10
31.9580057557
 20
31.2281191947
 10
32.066531619
 20
31.1797885637
 10
32.1749816724
 20
31.1312872217
 10
32.2833549658
 20
31.0826139647
  0
LWPOLYLINE
  5
35B
100
AcDbEntity
  8
0
100
AcDbPolyline
 62
7
  6
CONTINUOUS
 90
19
 70
0
 10
35.4721738557
 20
29.3959940865
 10
35.7796466756
 20
29.2585941879
 10
36.0654642773
 20
29.1322756386
 10
36.3297595668
 20
29.0159746671
 10
36.5725843541
 20
28.9089647741
 10
36.7951621371
 20
28.8102522593
 10
36.9998316183
 20
28.7185441008
 10
37.1890687781
 20
28.6326014076
 10
37.3655352452
 20
28.5511452934
 10
37.5322735884
 20
28.4727111575
 10
37.6954158781
 20
28.3942655537
 10
37.8643508383
 20
28.3108564141
 10
37.9567873516
 20
28.2640665889
 10
38.0488726939
 20
28.2165832431
 10
38.1544105318
 20
28.1609503514
 10
38.2591454886
 20
28.103834131
 10
38.3454350478
 20
28.0549205217
 10
38.4310969482
 20
28.0049036501
 10
38.5162875476
 20
27.9540903232
  0
LWPOLYLINE
  5
35C
100
AcDbEntity
  8
0
100
AcDbPolyline
 62
7
  6
CONTINUOUS
 90
11
 70
0
 10
32.2833549658
 20
31.0826139647
 10
32.5769972552
 20
30.9496790502
 10
32.8700485159
 20
30.8154457004
 10
33.1608961354
 20
30.6806396538
 10
33.4511376539
 20
30.5445344768
 10
33.7407703273
 20
30.4071391069
 10
34.0190093927
 20
30.2736687952
 10
34.2966908368
 20
30.1390418917
 10
34.5738237947
 20
30.0032891374
 10
34.9725060904
 20
29.8056213283
 10
35.3701193008
 20
29.6058145001
  0
LWPOLYLINE
  5
35D
100
AcDbEntity
  8
0
100
AcDbPolyline
 62
7
  6
CONTINUOUS
 90
6
 70
0
 10
-35.0563905595
 20
64.9355763539
 10
-36.0817639972
 20
65.4193538991
 10
-37.0275573195
 20
65.865313224
 10
-37.8916417629
 20
66.2742975014
 10
-38.6859741392
 20
66.6517148317
 10
-39.4396186082
 20
67.0106834546
  0
LINE
  5
35E
100
AcDbEntity
  8
0
100
AcDbLine
 62
7
  6
CONTINUOUS
 10
-34.5500612459
 20
64.7435053713
 11
-32.6712114985
 21
63.8570853533
  0
LINE
  5
35F
100
AcDbEntity
  8
0
100
AcDbLine
 62
7
  6
CONTINUOUS
 10
-34.5476337453
 20
64.8295655448
 11
-32.6377860453
 21
63.927939707
  0
LWPOLYLINE
  5
360
100
AcDbEntity
  8
0
100
AcDbPolyline
 62
7
  6
CONTINUOUS
 90
18
 70
0
 10
-34.9008735713
 20
65.3262922292
 10
-35.3092747574
 20
65.5194823094
 10
-36.472941905
 20
66.0692341115
 10
-36.8248108998
 20
66.2349680111
 10
-37.1771730961
 20
66.3996405745
 10
-37.5304499346
 20
66.5623273198
 10
-37.9985992752
 20
66.7728366585
 10
-38.4688555955
 20
66.9786171398
 10
-38.8967381511
 20
67.1612469146
 10
-39.3262221996
 20
67.3400684239
 10
-39.7349217708
 20
67.505919735
 10
-40.1450963895
 20
67.6680897366
 10
-40.5557129877
 20
67.8261228522
 10
-40.9677621964
 20
67.9803860791
 10
-41.4010546398
 20
68.1378937815
 10
-41.8359726761
 20
68.2908473158
 10
-42.3176631919
 20
68.4541122977
 10
-42.8009919088
 20
68.6124635626
  0
LINE
  5
361
100
AcDbEntity
  8
0
100
AcDbLine
 62
7
  6
CONTINUOUS
 10
-34.33164417
 20
65.0568417224
 11
-34.9008735713
 21
65.3262922292
  0
LINE
  5
362
100
AcDbEntity
  8
0
100
AcDbLine
 62
7
  6
CONTINUOUS
 10
-34.0513808992
 20
64.9240889225
 11
-34.33164417
 21
65.0568417224
  0
LINE
  5
363
100
AcDbEntity
  8
0
100
AcDbLine
 62
7
  6
CONTINUOUS
 10
-33.4837828266
 20
64.6550422724
 11
-34.0513808992
 21
64.9240889225
  0
LWPOLYLINE
  5
364
100
AcDbEntity
  8
0
100
AcDbPolyline
 62
7
  6
CONTINUOUS
 90
9
 70
0
 10
-32.6377860453
 20
63.927939707
 10
-29.6415047962
 20
62.5069121513
 10
-26.6483366282
 20
61.0793362078
 10
-22.662053809
 20
59.1655033493
 10
-18.6814024553
 20
57.2399872953
 10
-14.6621746087
 20
55.2812351046
 10
-10.6486937741
 20
53.310731018
 10
-6.6751112015
 20
51.3455710314
 10
-2.7071250021
 20
49.3691435452
  0
LWPOLYLINE
  5
365
100
AcDbEntity
  8
0
100
AcDbPolyline
 62
7
  6
CONTINUOUS
 90
7
 70
0
 10
-32.6712114985
 20
63.8570853533
 10
-28.3254636047
 20
61.7945862375
 10
-23.9863660071
 20
59.7181241109
 10
-18.6418375619
 20
57.1368258844
 10
-13.3075415867
 20
54.5344468231
 10
-7.9408023855
 20
51.8901317923
 10
-2.5843908244
 20
49.2249783841
  0
LWPOLYLINE
  5
366
100
AcDbEntity
  8
0
100
AcDbPolyline
 62
7
  6
CONTINUOUS
 90
13
 70
0
 10
-34.7981103687
 20
64.8467771472
 10
-34.7892573399
 20
64.8425297293
 10
-34.7804383609
 20
64.8384017747
 10
-34.771652221
 20
64.834385547
 10
-34.7628977091
 20
64.8304733098
 10
-34.7541736146
 20
64.8266573268
 10
-34.7454787265
 20
64.8229298615
 10
-34.7368118339
 20
64.8192831776
 10
-34.7281717261
 20
64.8157095386
 10
-34.7195571921
 20
64.8122012082
 10
-34.7109670211
 20
64.80875045
 10
-34.7024000023
 20
64.8053495275
 10
-34.6853305777
 20
64.7986662443
  0
LINE
  5
367
100
AcDbEntity
  8
0
100
AcDbLine
 62
7
  6
CONTINUOUS
 10
-34.8278113882
 20
64.8613030049
 11
-34.8218450596
 21
64.8584356532
  0
LWPOLYLINE
  5
368
100
AcDbEntity
  8
0
100
AcDbPolyline
 62
7
  6
CONTINUOUS
 90
19
 70
0
 10
-39.4396145737
 20
67.0106888015
 10
-39.794058987
 20
67.1850573141
 10
-40.1187447
 20
67.3458748585
 10
-40.4149017493
 20
67.4931317459
 10
-40.6836214682
 20
67.6268929958
 10
-40.9269067548
 20
67.7478174083
 10
-41.1476961364
 20
67.8571436601
 10
-41.3490714519
 20
67.9562603473
 10
-41.5340284845
 20
68.0465592263
 10
-41.7054899045
 20
68.1294125823
 10
-41.8674808321
 20
68.2067028264
 10
-42.0265115335
 20
68.2813913912
 10
-42.1907111531
 20
68.3569334432
 10
-42.3678364769
 20
68.4360992001
 10
-42.4664169077
 20
68.4788145808
 10
-42.5654408271
 20
68.5205098075
 10
-42.6434878774
 20
68.5523336068
 10
-42.7219684453
 20
68.5830590701
 10
-42.8009922875
 20
68.6123319345
  0
LWPOLYLINE
  5
369
100
AcDbEntity
  8
0
100
AcDbPolyline
 62
7
  6
CONTINUOUS
 90
5
 70
0
 10
-34.8218450596
 20
64.8584356532
 10
-34.8129187243
 20
64.8540599652
 10
-34.8099498816
 20
64.8525940385
 10
-34.8069845179
 20
64.851129657
 10
-34.7981103687
 20
64.8467771472
  0
LWPOLYLINE
  5
36A
100
AcDbEntity
  8
0
100
AcDbPolyline
 62
7
  6
CONTINUOUS
 90
14
 70
0
 10
-2.5886440299
 20
49.6066758346
 10
-6.5708248748
 20
51.5913429502
 10
-10.1734101087
 20
53.3755103889
 10
-13.44358463
 20
54.9856224049
 10
-16.4167813626
 20
56.4416552318
 10
-19.1265085656
 20
57.7621091044
 10
-21.603479556
 20
58.9636645614
 10
-23.8721108621
 20
60.0595752276
 10
-25.9434231455
 20
61.056360664
 10
-27.8452936273
 20
61.9684322167
 10
-29.596849288
 20
62.805762731
 10
-31.2071624243
 20
63.5733603395
 10
-32.6879196859
 20
64.2773675336
 10
-33.4837828266
 20
64.6550422724
  0
LWPOLYLINE
  5
36B
100
AcDbEntity
  8
0
100
AcDbPolyline
 62
7
  6
CONTINUOUS
 90
4
 70
0
 10
-0.9542257361
 20
47.5628906607
 10
-11.7408192407
 20
52.9555456038
 10
-22.3692271284
 20
58.2675745437
 10
-32.8406618929
 20
63.4984502376
  0
LINE
  5
36C
100
AcDbEntity
  8
0
100
AcDbLine
 62
7
  6
CONTINUOUS
 10
-2.7071250021
 20
49.3691435452
 11
-2.5513524581
 21
49.2912697804
  0
LINE
  5
36D
100
AcDbEntity
  8
0
100
AcDbLine
 62
7
  6
CONTINUOUS
 10
53.0681385643
 20
17.6031057507
 11
54.3413416968
 21
16.9665041844
  0
LINE
  5
36E
100
AcDbEntity
  8
0
100
AcDbLine
 62
7
  6
CONTINUOUS
 10
-2.5843908244
 20
49.2249783841
 11
-2.5476360353
 21
49.2066015398
  0
LINE
  5
36F
100
AcDbEntity
  8
0
100
AcDbLine
 62
7
  6
CONTINUOUS
 10
-2.5886440299
 20
49.6066758346
 11
-2.4325518466
 21
49.5286227835
  0
LWPOLYLINE
  5
370
100
AcDbEntity
  8
0
100
AcDbPolyline
 62
7
  6
CONTINUOUS
 90
3
 70
0
 10
20.4548792831
 20
36.8555213004
 10
9.8311197943
 20
42.169576071
 10
-0.9542257361
 20
47.5628906607
  0
LINE
  5
371
100
AcDbEntity
  8
0
100
AcDbLine
 62
7
  6
CONTINUOUS
 10
30.915842846
 20
31.6201978681
 11
30.7454288893
 21
31.7055198617
  0
LINE
  5
372
100
AcDbEntity
  8
0
100
AcDbLine
 62
7
  6
CONTINUOUS
 10
30.7454288893
 20
31.7055198617
 11
29.8978457752
 21
32.1298616556
  0
LINE
  5
373
100
AcDbEntity
  8
0
100
AcDbLine
 62
7
  6
CONTINUOUS
 10
29.8978457752
 20
32.1298616556
 11
20.4548792831
 21
36.8555213004
  0
LWPOLYLINE
  5
374
100
AcDbEntity
  8
0
100
AcDbPolyline
 62
7
  6
CONTINUOUS
 90
15
 70
0
 10
-2.4325518466
 20
49.5286227835
 10
1.4025013762
 20
47.6046798247
 10
5.0289280033
 20
45.774341333
 10
8.3336807462
 20
44.0969897168
 10
11.349000879
 20
42.558764111
 10
14.1059847573
 20
41.145862443
 10
16.63355206
 20
39.8451487534
 10
18.9547261518
 20
38.6461567207
 10
21.0791916351
 20
37.5450532737
 10
23.0342234283
 20
36.528673689
 10
24.8384292673
 20
35.5881234534
 10
26.5002703003
 20
34.7196439771
 10
28.0310516277
 20
33.9178818768
 10
29.4428134428
 20
33.1769917515
 10
29.889113063
 20
32.942478405
  0
LWPOLYLINE
  5
375
100
AcDbEntity
  8
0
100
AcDbPolyline
 62
7
  6
CONTINUOUS
 90
7
 70
0
 10
-2.5476360353
 20
49.2066015398
 10
2.8709398105
 20
46.4842188678
 10
8.2790770693
 20
43.7411373135
 10
13.724076132
 20
40.9534754941
 10
19.1586785179
 20
38.1456006481
 10
24.5950033335
 20
35.3117635764
 10
30.0213391963
 20
32.4588600762
  0
LWPOLYLINE
  5
376
100
AcDbEntity
  8
0
100
AcDbPolyline
 62
7
  6
CONTINUOUS
 90
19
 70
0
 10
35.3701218941
 20
29.6058205676
 10
35.6784821515
 20
29.4487867448
 10
35.9642950035
 20
29.3043550068
 10
36.2282036903
 20
29.1715790261
 10
36.4706461864
 20
29.0497591685
 10
36.6928439706
 20
28.9379420456
 10
36.8969162443
 20
28.8348374698
 10
37.0852090238
 20
28.7391201095
 10
37.2600920979
 20
28.6494989351
 10
37.4239727976
 20
28.5646812311
 10
37.5804359735
 20
28.4827444236
 10
37.7356556263
 20
28.4003078113
 10
37.8976717671
 20
28.3127419832
 10
38.0745108449
 20
28.2149255391
 10
38.1747105684
 20
28.1581950528
 10
38.2744113371
 20
28.1005837254
 10
38.3556399434
 20
28.0526092322
 10
38.436318988
 20
28.0037217207
 10
38.5162875468
 20
27.9536920174
  0
LWPOLYLINE
  5
377
100
AcDbEntity
  8
0
100
AcDbPolyline
 62
7
  6
CONTINUOUS
 90
7
 70
0
 10
30.0572764664
 20
32.5271104389
 10
24.6180964504
 20
35.3854659722
 10
19.1690314037
 20
38.2249452977
 10
13.739043098
 20
41.0296586799
 10
8.2987674035
 20
43.8143670951
 10
2.8788897447
 20
46.5630950096
 10
-2.5513524581
 20
49.2912697804
  0
LINE
  5
378
100
AcDbEntity
  8
0
100
AcDbLine
 62
7
  6
CONTINUOUS
 10
29.889113063
 20
32.942478405
 11
30.3234730151
 21
32.7141163674
  0
LINE
  5
379
100
AcDbEntity
  8
0
100
AcDbLine
 62
7
  6
CONTINUOUS
 10
30.3234730151
 20
32.7141163674
 11
30.7471729859
 21
32.4912584377
  0
LINE
  5
37A
100
AcDbEntity
  8
0
100
AcDbLine
 62
7
  6
CONTINUOUS
 10
30.7471729859
 20
32.4912584377
 11
31.1610345659
 21
32.273483252
  0
LWPOLYLINE
  5
37B
100
AcDbEntity
  8
0
100
AcDbPolyline
 62
7
  6
CONTINUOUS
 90
3
 70
0
 10
31.1610345659
 20
32.273483252
 10
31.9554533053
 20
31.8550365063
 10
32.2167145364
 20
31.7171852467
  0
LWPOLYLINE
  5
37C
100
AcDbEntity
  8
0
100
AcDbPolyline
 62
7
  6
CONTINUOUS
 90
6
 70
0
 10
30.8772034513
 20
31.9687793485
 10
31.9492142349
 20
31.4038647831
 10
32.9371306196
 20
30.8829692544
 10
33.8250957355
 20
30.4159287522
 10
34.6252014155
 20
29.9961270542
 10
35.3701193008
 20
29.6058145001
  0
LINE
  5
37D
100
AcDbEntity
  8
0
100
AcDbLine
 62
7
  6
CONTINUOUS
 10
30.0213391963
 20
32.4588600762
 11
30.053916971
 21
32.4416606714
  0
LWPOLYLINE
  5
37E
100
AcDbEntity
  8
0
100
AcDbPolyline
 62
7
  6
CONTINUOUS
 90
15
 70
0
 10
32.2167145364
 20
31.7171852467
 10
32.6361149121
 20
31.4947003328
 10
33.0542987605
 20
31.2699529723
 10
33.5425841231
 20
31.0021399727
 10
34.0284581256
 20
30.7299602792
 10
34.4740421038
 20
30.4757227264
 10
34.9176827817
 20
30.2181159332
 10
35.3429581288
 20
29.9668236591
 10
35.7663486082
 20
29.7123672377
 10
36.1933603351
 20
29.4513952426
 10
36.6184393816
 20
29.18728529
 10
37.0690499245
 20
28.9025658673
 10
37.5173308509
 20
28.6141955523
 10
38.0180704864
 20
28.2859081299
 10
38.516297638
 20
27.9538187892
  0
LWPOLYLINE
  5
37F
100
AcDbEntity
  8
0
100
AcDbPolyline
 62
7
  6
CONTINUOUS
 90
8
 70
0
 10
30.053916971
 20
32.4416606714
 10
30.0842181317
 20
32.4255630981
 10
30.1144388698
 20
32.4093145674
 10
30.1445825172
 20
32.3929223304
 10
30.174652406
 20
32.3763936378
 10
30.2046518679
 20
32.3597357406
 10
30.2345842349
 20
32.3429558895
 10
30.2644528388
 20
32.3260613355
  0
LWPOLYLINE
  5
380
100
AcDbEntity
  8
0
100
AcDbPolyline
 62
7
  6
CONTINUOUS
 90
9
 70
0
 10
-35.2477794668
 20
64.8473664382
 10
-35.6813467409
 20
65.0783883635
 10
-36.1155366562
 20
65.3082382864
 10
-36.7214386054
 20
65.6263363874
 10
-37.3286818662
 20
65.9418652036
 10
-37.8819071572
 20
66.2263159999
 10
-38.4363543033
 20
66.5083781864
 10
-38.9374537053
 20
66.7605962607
 10
-39.4396186082
 20
67.0106834546
  0
LINE
  5
381
100
AcDbEntity
  8
0
100
AcDbLine
 62
7
  6
CONTINUOUS
 10
-35.0318450268
 20
64.7317710346
 11
-35.2477794668
 21
64.8473664382
  0
LINE
  5
382
100
AcDbEntity
  8
0
100
AcDbLine
 62
7
  6
CONTINUOUS
 10
-34.7959654343
 20
64.6051047898
 11
-35.0318450268
 21
64.7317710346
  0
LWPOLYLINE
  5
383
100
AcDbEntity
  8
0
100
AcDbPolyline
 62
7
  6
CONTINUOUS
 90
6
 70
0
 10
30.2644528388
 20
32.3260613355
 10
30.2868726447
 20
32.3132862483
 10
30.3092596974
 20
32.3004534869
 10
30.3316154136
 20
32.2875661344
 10
30.3539412101
 20
32.2746272736
 10
30.3762385033
 20
32.2616399874
  0
LWPOLYLINE
  5
384
100
AcDbEntity
  8
0
100
AcDbPolyline
 62
7
  6
CONTINUOUS
 90
7
 70
0
 10
30.3762385033
 20
32.2616399874
 10
30.4151956561
 20
32.2388017218
 10
30.4540721686
 20
32.2158289096
 10
30.4928703615
 20
32.1927258806
 10
30.531592556
 20
32.1694969643
 10
30.5702410728
 20
32.1461464903
 10
30.6088182329
 20
32.1226787884
  0
LWPOLYLINE
  5
385
100
AcDbEntity
  8
0
100
AcDbPolyline
 62
7
  6
CONTINUOUS
 90
46
 70
0
 10
48.2826913358
 20
29.6135573598
 10
48.27583376
 20
29.823759747
 10
48.2652407948
 20
30.0338124089
 10
48.2543561525
 20
30.1965966077
 10
48.2410495475
 20
30.3591971493
 10
48.2162755669
 20
30.6039779138
 10
48.1956524018
 20
30.7740036623
 10
48.1719590806
 20
30.9436374717
 10
48.130387472
 20
31.1957115164
 10
48.0814407221
 20
31.4464897966
 10
48.0253666184
 20
31.6957399829
 10
47.9605137464
 20
31.9516762048
 10
47.8901579587
 20
32.2063489702
 10
47.8145780671
 20
32.4595420872
 10
47.7335998103
 20
32.7110724867
 10
47.6333167193
 20
32.9990110474
 10
47.5258562629
 20
33.2843793478
 10
47.4114596519
 20
33.567064337
 10
47.2903680973
 20
33.8469529643
 10
47.1614742014
 20
34.1266897658
 10
47.0260271298
 20
34.403294881
 10
46.8840576665
 20
34.6766047445
 10
46.7355965956
 20
34.9464557906
 10
46.6011541557
 20
35.1783186002
 10
46.4618412688
 20
35.4072791564
 10
46.3176794628
 20
35.6331779843
 10
46.1686902658
 20
35.8558556089
 10
46.0184142406
 20
36.0702253181
 10
45.8634462759
 20
36.281247999
 10
45.7036848859
 20
36.4888057724
 10
45.5390285854
 20
36.6927807593
 10
45.3791270637
 20
36.881755922
 10
45.2147120959
 20
37.0670262104
 10
45.0457164599
 20
37.2481799219
 10
44.8720729338
 20
37.4248053536
 10
44.6937142957
 20
37.596490803
 10
44.5105733236
 20
37.7628245671
 10
44.3225827956
 20
37.9233949433
 10
44.1296754898
 20
38.0777902288
 10
44.0025386737
 20
38.174058998
 10
43.8735833502
 20
38.2678627743
 10
43.6863905493
 20
38.3980871347
 10
43.5608040826
 20
38.4816298323
 10
43.4338684463
 20
38.5631156634
 10
43.2693390348
 20
38.6645978101
 10
43.1028513095
 20
38.7628217995
  0
LWPOLYLINE
  5
386
100
AcDbEntity
  8
0
100
AcDbPolyline
 62
7
  6
CONTINUOUS
 90
12
 70
0
 10
48.3828688477
 20
24.0931684975
 10
48.3684633439
 20
24.6099048818
 10
48.3553218676
 20
25.1266737834
 10
48.338041998
 20
25.8995164375
 10
48.3236784937
 20
26.6724190807
 10
48.3123229234
 20
27.4453872967
 10
48.3040668556
 20
28.2184266695
 10
48.3017487535
 20
28.4974936651
 10
48.29914935
 20
28.7765539959
 10
48.2955715275
 20
29.055590997
 10
48.2903181685
 20
29.3345880039
 10
48.2826921555
 20
29.6135283519
  0
LWPOLYLINE
  5
387
100
AcDbEntity
  8
0
100
AcDbPolyline
 62
7
  6
CONTINUOUS
 90
24
 70
0
 10
32.1457316751
 20
-69.9517477524
 10
32.1453930953
 20
-69.9675279658
 10
32.1447739094
 20
-69.9833032776
 10
32.1438813901
 20
-69.9990691364
 10
32.14272281
 20
-70.0148209907
 10
32.141305442
 20
-70.0305542892
 10
32.1396365586
 20
-70.0462644806
 10
32.1377234327
 20
-70.0619470133
 10
32.1355733369
 20
-70.0775973361
 10
32.133057748
 20
-70.0940555615
 10
32.1302921088
 20
-70.1104710135
 10
32.1272816083
 20
-70.1268417681
 10
32.1240314355
 20
-70.1431659011
 10
32.1205467796
 20
-70.1594414884
 10
32.1168328296
 20
-70.1756666059
 10
32.1128947745
 20
-70.1918393294
 10
32.1087378034
 20
-70.2079577349
 10
32.1035345252
 20
-70.226986725
 10
32.0980367043
 20
-70.2459330136
 10
32.0922499733
 20
-70.2647928902
 10
32.0861799647
 20
-70.2835626444
 10
32.0798323112
 20
-70.3022385655
 10
32.0732126454
 20
-70.3208169432
 10
32.0663265999
 20
-70.339294067
  0
LINE
  5
388
100
AcDbEntity
  8
0
100
AcDbLine
 62
7
  6
CONTINUOUS
 10
-1.120334822
 20
-55.7806570821
 11
-1.1048936111
 21
-55.7132398415
  0
LINE
  5
389
100
AcDbEntity
  8
0
100
AcDbLine
 62
7
  6
CONTINUOUS
 10
-1.1975046089
 20
-56.1175704875
 11
-1.120334822
 21
-55.7806570821
  0
LINE
  5
38A
100
AcDbEntity
  8
0
100
AcDbLine
 62
7
  6
CONTINUOUS
 10
-1.0452299217
 20
-55.8027907111
 11
-1.0143502457
 21
-55.6679681589
  0
LINE
  5
38B
100
AcDbEntity
  8
0
100
AcDbLine
 62
7
  6
CONTINUOUS
 10
-1.1069604428
 20
-56.0722984045
 11
-1.0452299217
 21
-55.8027907111
  0
LINE
  5
38C
100
AcDbEntity
  8
0
100
AcDbLine
 62
7
  6
CONTINUOUS
 10
-0.4366437294
 20
-54.1665497749
 11
-0.492837534
 21
-54.3980950311
  0
LINE
  5
38D
100
AcDbEntity
  8
0
100
AcDbLine
 62
7
  6
CONTINUOUS
 10
-4.8181548302
 20
-54.3081260307
 11
-4.7618596236
 21
-54.0762828603
  0
LINE
  5
38E
100
AcDbEntity
  8
0
100
AcDbLine
 62
7
  6
CONTINUOUS
 10
-4.7618596236
 20
-54.0762828603
 11
-4.6494003886
 21
-53.6131951269
  0
LINE
  5
38F
100
AcDbEntity
  8
0
100
AcDbLine
 62
7
  6
CONTINUOUS
 10
-4.7275833995
 20
-54.2628403153
 11
-4.6712864926
 21
-54.0309943628
  0
LINE
  5
390
100
AcDbEntity
  8
0
100
AcDbLine
 62
7
  6
CONTINUOUS
 10
-4.6712864926
 20
-54.0309943628
 11
-4.5588241964
 21
-53.5679026839
  0
LINE
  5
391
100
AcDbEntity
  8
0
100
AcDbLine
 62
7
  6
CONTINUOUS
 10
-0.492837534
 20
-54.3980950311
 11
-0.6612411224
 21
-55.0919465562
  0
LINE
  5
392
100
AcDbEntity
  8
0
100
AcDbLine
 62
7
  6
CONTINUOUS
 10
-0.6612411224
 20
-55.0919465562
 11
-0.7733632336
 21
-55.553860357
  0
LINE
  5
393
100
AcDbEntity
  8
0
100
AcDbLine
 62
7
  6
CONTINUOUS
 10
-0.7733632336
 20
-55.553860357
 11
-0.8293805569
 21
-55.7846209163
  0
LINE
  5
394
100
AcDbEntity
  8
0
100
AcDbLine
 62
7
  6
CONTINUOUS
 10
-0.8293805569
 20
-55.7846209163
 11
-0.8853688929
 21
-56.015250553
  0
LINE
  5
395
100
AcDbEntity
  8
0
100
AcDbLine
 62
7
  6
CONTINUOUS
 10
-0.8853688929
 20
-56.015250553
 11
-0.9107811212
 21
-56.1199257845
  0
LINE
  5
396
100
AcDbEntity
  8
0
100
AcDbLine
 62
7
  6
CONTINUOUS
 10
-0.9107811212
 20
-56.1199257845
 11
-0.9259087681
 21
-56.1822367083
  0
LINE
  5
397
100
AcDbEntity
  8
0
100
AcDbLine
 62
7
  6
CONTINUOUS
 10
-0.9259087681
 20
-56.1822367083
 11
-0.9413283643
 21
-56.2457492372
  0
LINE
  5
398
100
AcDbEntity
  8
0
100
AcDbLine
 62
7
  6
CONTINUOUS
 10
-4.6494003886
 20
-53.6131951269
 11
-4.3130636704
 21
-52.2287233059
  0
LINE
  5
399
100
AcDbEntity
  8
0
100
AcDbLine
 62
7
  6
CONTINUOUS
 10
-4.5588241964
 20
-53.5679026839
 11
-4.3344223678
 21
-52.6441211385
  0
LINE
  5
39A
100
AcDbEntity
  8
0
100
AcDbLine
 62
7
  6
CONTINUOUS
 10
-4.3344223678
 20
-52.6441211385
 11
-4.2530245363
 21
-52.3091231589
  0
LINE
  5
39B
100
AcDbEntity
  8
0
100
AcDbLine
 62
7
  6
CONTINUOUS
 10
-1.0093548247
 20
-55.3299753847
 11
-0.8511165314
 21
-54.6841877705
  0
LINE
  5
39C
100
AcDbEntity
  8
0
100
AcDbLine
 62
7
  6
CONTINUOUS
 10
-0.8660891295
 20
-55.0695414086
 11
-0.7605747896
 21
-54.6389168996
  0
LINE
  5
39D
100
AcDbEntity
  8
0
100
AcDbLine
 62
7
  6
CONTINUOUS
 10
-0.8924534556
 20
-55.1771351887
 11
-0.8660891295
 21
-55.0695414086
  0
LINE
  5
39E
100
AcDbEntity
  8
0
100
AcDbLine
 62
7
  6
CONTINUOUS
 10
-0.918812103
 20
-55.2847040239
 11
-0.8924534556
 21
-55.1771351887
  0
LINE
  5
39F
100
AcDbEntity
  8
0
100
AcDbLine
 62
7
  6
CONTINUOUS
 10
-4.2999278179
 20
-53.31859312
 11
-4.4218134497
 21
-53.8007282577
  0
LINE
  5
3A0
100
AcDbEntity
  8
0
100
AcDbLine
 62
7
  6
CONTINUOUS
 10
-4.1174572387
 20
-52.5969527265
 11
-4.2999278179
 21
-53.31859312
  0
LINE
  5
3A1
100
AcDbEntity
  8
0
100
AcDbLine
 62
7
  6
CONTINUOUS
 10
-4.0567286536
 20
-52.3568226695
 11
-4.1174572387
 21
-52.5969527265
  0
LINE
  5
3A2
100
AcDbEntity
  8
0
100
AcDbLine
 62
7
  6
CONTINUOUS
 10
-2.9806238733
 20
-55.2259398017
 11
-2.801497184
 21
-54.5509611774
  0
LINE
  5
3A3
100
AcDbEntity
  8
0
100
AcDbLine
 62
7
  6
CONTINUOUS
 10
-2.801497184
 20
-54.5509611774
 11
-2.7902053689
 21
-54.508412956
  0
LINE
  5
3A4
100
AcDbEntity
  8
0
100
AcDbLine
 62
7
  6
CONTINUOUS
 10
-2.7902053689
 20
-54.508412956
 11
-2.7418376241
 21
-54.3261622558
  0
LINE
  5
3A5
100
AcDbEntity
  8
0
100
AcDbLine
 62
7
  6
CONTINUOUS
 10
-2.7418376241
 20
-54.3261622558
 11
-2.6225919374
 21
-53.8768554942
  0
LINE
  5
3A6
100
AcDbEntity
  8
0
100
AcDbLine
 62
7
  6
CONTINUOUS
 10
-2.8900819288
 20
-55.1806688294
 11
-2.7109533027
 21
-54.5056860955
  0
LINE
  5
3A7
100
AcDbEntity
  8
0
100
AcDbLine
 62
7
  6
CONTINUOUS
 10
-2.7109533027
 20
-54.5056860955
 11
-2.651293492
 21
-54.2808873976
  0
LINE
  5
3A8
100
AcDbEntity
  8
0
100
AcDbLine
 62
7
  6
CONTINUOUS
 10
-2.651293492
 20
-54.2808873976
 11
-2.532047896
 21
-53.8315834735
  0
LINE
  5
3A9
100
AcDbEntity
  8
0
100
AcDbLine
 62
7
  6
CONTINUOUS
 10
-2.412158203
 20
-54.1971079763
 11
-2.5351627274
 21
-54.6453984417
  0
LINE
  5
3AA
100
AcDbEntity
  8
0
100
AcDbLine
 62
7
  6
CONTINUOUS
 10
-2.3506931409
 20
-53.973103
 11
-2.412158203
 21
-54.1971079763
  0
LINE
  5
3AB
100
AcDbEntity
  8
0
100
AcDbLine
 62
7
  6
CONTINUOUS
 10
-2.166445717
 20
-53.3016493822
 11
-2.3506931409
 21
-53.973103
  0
LWPOLYLINE
  5
3AC
100
AcDbEntity
  8
0
100
AcDbPolyline
 62
7
  6
CONTINUOUS
 90
12
 70
0
 10
-34.7446965687
 20
-37.2517141902
 10
-34.7333214391
 20
-37.2251605367
 10
-34.721722281
 20
-37.1987052748
 10
-34.7099013654
 20
-37.1723499141
 10
-34.6978609632
 20
-37.1460959643
 10
-34.6856033454
 20
-37.1199449349
 10
-34.6731307829
 20
-37.0938983356
 10
-34.6604455466
 20
-37.067957676
 10
-34.6475499076
 20
-37.0421244657
 10
-34.6344461368
 20
-37.0164002144
 10
-34.621136505
 20
-36.9907864316
 10
-34.6076232833
 20
-36.9652846271
  0
LINE
  5
3AD
100
AcDbEntity
  8
0
100
AcDbLine
 62
7
  6
CONTINUOUS
 10
-34.7830321572
 20
-37.1386514644
 11
-34.7881428839
 21
-37.1504802203
  0
LWPOLYLINE
  5
3AE
100
AcDbEntity
  8
0
100
AcDbPolyline
 62
7
  6
CONTINUOUS
 90
11
 70
0
 10
-34.8061484347
 20
-37.1910192823
 10
-34.8161800158
 20
-37.2139571474
 10
-34.8260590234
 20
-37.2369662682
 10
-34.8357831649
 20
-37.2600459783
 10
-34.8453501473
 20
-37.2831956112
 10
-34.8547576778
 20
-37.3064145005
 10
-34.8640034633
 20
-37.3297019797
 10
-34.8730852112
 20
-37.3530573824
 10
-34.8820006284
 20
-37.3764800421
 10
-34.8907474222
 20
-37.3999692923
 10
-34.8993232995
 20
-37.4235244666
  0
LWPOLYLINE
  5
3AF
100
AcDbEntity
  8
0
100
AcDbPolyline
 62
7
  6
CONTINUOUS
 90
3
 70
0
 10
-34.7881428839
 20
-37.1504802203
 10
-34.793337333
 20
-37.1622718894
 10
-34.8061484347
 20
-37.1910192823
  0
LWPOLYLINE
  5
3B0
100
AcDbEntity
  8
0
100
AcDbPolyline
 62
7
  6
CONTINUOUS
 90
18
 70
0
 10
-34.9662038265
 20
64.8565654677
 10
-34.9657199982
 20
64.8570957729
 10
-34.9652268915
 20
64.8576228547
 10
-34.964724705
 20
64.8581466298
 10
-34.964213637
 20
64.8586670144
 10
-34.9636938862
 20
64.8591839251
 10
-34.9631656509
 20
64.8596972783
 10
-34.9626291296
 20
64.8602069905
 10
-34.9620845209
 20
64.8607129781
 10
-34.9615320232
 20
64.8612151576
 10
-34.9609718349
 20
64.8617134453
 10
-34.9604041545
 20
64.8622077579
 10
-34.9598291806
 20
64.8626980117
 10
-34.9592471116
 20
64.8631841231
 10
-34.9586581459
 20
64.8636660087
 10
-34.9580624821
 20
64.8641435849
 10
-34.9574603186
 20
64.864616768
 10
-34.9568518539
 20
64.8650854747
  0
LINE
  5
3B1
100
AcDbEntity
  8
0
100
AcDbLine
 62
7
  6
CONTINUOUS
 10
-47.3882105533
 20
83.3602902604
 11
-47.57960864
 21
83.2076105313
  0
LWPOLYLINE
  5
3B2
100
AcDbEntity
  8
0
100
AcDbPolyline
 62
7
  6
CONTINUOUS
 90
13
 70
0
 10
32.1457305537
 20
30.7787101312
 10
32.4424954894
 20
30.6644526783
 10
32.7387222538
 20
30.5488026418
 10
33.0343734026
 20
30.4316881816
 10
33.3176403654
 20
30.3178153287
 10
33.6003263845
 20
30.2025087383
 10
33.8824155729
 20
30.085750646
 10
34.1536527374
 20
29.9718620928
 10
34.4243227239
 20
29.8566314847
 10
34.6944272481
 20
29.740080945
 10
34.9541865428
 20
29.626539681
 10
35.2134321364
 20
29.5118313455
 10
35.4721738557
 20
29.3959940865
  0
LINE
  5
3B3
100
AcDbEntity
  8
0
100
AcDbLine
 62
7
  6
CONTINUOUS
 10
-34.6853305777
 20
64.7986662443
 11
-34.6429774191
 21
64.7822886148
  0
LINE
  5
3B4
100
AcDbEntity
  8
0
100
AcDbLine
 62
7
  6
CONTINUOUS
 10
-34.6429774191
 20
64.7822886148
 11
-34.6292493117
 21
64.7769308992
  0
LINE
  5
3B5
100
AcDbEntity
  8
0
100
AcDbLine
 62
7
  6
CONTINUOUS
 10
-34.6292493117
 20
64.7769308992
 11
-34.6155517409
 21
64.7715076362
  0
LWPOLYLINE
  5
3B6
100
AcDbEntity
  8
0
100
AcDbPolyline
 62
7
  6
CONTINUOUS
 90
5
 70
0
 10
-34.6155517409
 20
64.7715076362
 10
-34.6018794614
 20
64.7659853135
 10
-34.5950511668
 20
64.7631765323
 10
-34.588227228
 20
64.7603304189
 10
-34.5814069896
 20
64.7574427845
  0
LWPOLYLINE
  5
3B7
100
AcDbEntity
  8
0
100
AcDbPolyline
 62
7
  6
CONTINUOUS
 90
7
 70
0
 10
-34.5814069896
 20
64.7574427845
 10
-34.5724472795
 20
64.7535772082
 10
-34.5679689317
 20
64.7516118355
 10
-34.5634913405
 20
64.7496231543
 10
-34.5590143198
 20
64.7476099759
 10
-34.5545376836
 20
64.7455711112
 10
-34.5500612459
 20
64.7435053713
  0
LWPOLYLINE
  5
3B8
100
AcDbEntity
  8
0
100
AcDbPolyline
 62
7
  6
CONTINUOUS
 90
12
 70
0
 10
0.4710140147
 20
63.2781810024
 10
-2.0326324801
 20
64.5244217747
 10
-4.5390705056
 20
65.765040336
 10
-9.5338937214
 20
68.2091133414
 10
-14.5435953656
 20
70.6226509062
 10
-19.5675168242
 20
73.0065322619
 10
-23.3128111725
 20
74.7605873469
 10
-27.0658168008
 20
76.4980440431
 10
-30.8267440519
 20
78.2182210116
 10
-34.5958032686
 20
79.9204369134
 10
-37.0980999246
 20
81.0387534522
 10
-39.6030033124
 20
82.1512176517
  0
LWPOLYLINE
  5
3B9
100
AcDbEntity
  8
0
100
AcDbPolyline
 62
7
  6
CONTINUOUS
 90
9
 70
0
 10
0.4710139426
 20
63.278180993
 10
5.4810610942
 20
60.7549745362
 10
10.5057776704
 20
58.1888913285
 10
15.5150710049
 20
55.5927254343
 10
20.5095077956
 20
52.968019952
 10
25.5343895484
 20
50.2918307842
 10
30.5440444193
 20
47.587316306
 10
35.5377948287
 20
44.8536378646
 10
40.5450318459
 20
42.0771979801
  0
LWPOLYLINE
  5
3BA
100
AcDbEntity
  8
0
100
AcDbPolyline
 62
7
  6
CONTINUOUS
 90
19
 70
0
 10
43.1023912053
 20
38.763082471
 10
42.9430609754
 20
38.8504476219
 10
42.7829051735
 20
38.9363018622
 10
42.622238915
 20
39.0212209378
 10
42.4613773154
 20
39.1057805943
 10
42.3006354899
 20
39.1905565775
 10
42.1403285539
 20
39.276124633
 10
41.9807716229
 20
39.3630605066
 10
41.7965230902
 20
39.4661332198
 10
41.6128473611
 20
39.5702516068
 10
41.3686583259
 20
39.7081011658
 10
41.1240785977
 20
39.8452397207
 10
40.7991586616
 20
40.0263861368
 10
40.4737578446
 20
40.2067006082
 10
40.2999298174
 20
40.3026798114
 10
40.1262291616
 20
40.3988893136
 10
39.952923864
 20
40.4957911599
 10
39.7802819111
 20
40.5938473953
 10
39.6085712895
 20
40.6935200647
  0
LWPOLYLINE
  5
3BB
100
AcDbEntity
  8
0
100
AcDbPolyline
 62
7
  6
CONTINUOUS
 90
9
 70
0
 10
39.6084830461
 20
40.6936416174
 10
34.5874769761
 20
43.4634194659
 10
29.5809711449
 20
46.190402948
 10
24.558974822
 20
48.8888433992
 10
19.5223177234
 20
51.5598842339
 10
14.5196971297
 20
54.1792790711
 10
9.5031275821
 20
56.7717918305
 10
4.4722295192
 20
59.3362999007
 10
-0.5397257604
 20
61.8585983661
  0
LWPOLYLINE
  5
3BC
100
AcDbEntity
  8
0
100
AcDbPolyline
 62
7
  6
CONTINUOUS
 90
13
 70
0
 10
42.3461495027
 20
43.3091694497
 10
36.0478909564
 20
46.7868592295
 10
29.7256516916
 20
50.2210180274
 10
23.3795467284
 20
53.6109818688
 10
17.009691087
 20
56.9560867791
 10
9.7929543501
 20
60.6763075552
 10
2.5461905431
 20
64.3375915865
 10
-4.7305274487
 20
67.9389754425
 10
-12.0371267402
 20
71.4794956928
 10
-18.4545321085
 20
74.5266077085
 10
-24.8945619904
 20
77.5256350741
 10
-31.357020957
 20
80.475825057
 10
-37.8417135793
 20
83.3764249248
  0
LWPOLYLINE
  5
3BD
100
AcDbEntity
  8
0
100
AcDbPolyline
 62
7
  6
CONTINUOUS
 90
13
 70
0
 10
41.9828421531
 20
43.1012090378
 10
35.3923264138
 20
46.7460104652
 10
28.7749013365
 20
50.3420708347
 10
22.130749621
 20
53.8886697749
 10
15.4600539669
 20
57.3850869146
 10
8.8174707412
 20
60.8028150072
 10
2.1490107774
 20
64.1696884122
 10
-4.545267854
 20
67.4849311996
 10
-11.2653070822
 20
70.7477674391
 10
-17.9064080401
 20
73.9081099085
 10
-24.5722381584
 20
77.015952398
 10
-31.2626136602
 20
80.0703436238
 10
-37.977350769
 20
83.0703323023
  0
LWPOLYLINE
  5
3BE
100
AcDbEntity
  8
0
100
AcDbPolyline
 62
7
  6
CONTINUOUS
 90
13
 70
0
 10
47.9492316761
 20
42.1978370213
 10
40.7388998308
 20
46.2123870724
 10
33.4969481035
 20
50.1700458243
 10
26.2235500922
 20
54.069811153
 10
18.9188793949
 20
57.9106809345
 10
11.702142659
 20
61.63090171
 10
4.4553788533
 20
65.2921857407
 10
-2.8213391373
 20
68.8935695961
 10
-10.1279384275
 20
72.4340898457
 10
-17.3429716629
 20
75.8558437085
 10
-24.5865598216
 20
79.2167257473
 10
-31.8584253542
 20
82.5156669277
 10
-39.1582907114
 20
85.751598215
  0
LINE
  5
3BF
100
AcDbEntity
  8
0
100
AcDbLine
 62
7
  6
CONTINUOUS
 10
40.5405506173
 20
42.0767699237
 11
44.0181290218
 21
40.137203111
  0
LINE
  5
3C0
100
AcDbEntity
  8
0
100
AcDbLine
 62
7
  6
CONTINUOUS
 10
42.172097656
 20
42.9956080898
 11
41.9828421531
 21
43.1012090378
  0
LINE
  5
3C1
100
AcDbEntity
  8
0
100
AcDbLine
 62
7
  6
CONTINUOUS
 10
45.6417238103
 20
41.0514840791
 11
42.1721431668
 21
42.9966750571
  0
LWPOLYLINE
  5
3C2
100
AcDbEntity
  8
0
100
AcDbPolyline
 62
7
  6
CONTINUOUS
 90
4
 70
0
 10
45.8059783398
 20
41.3747279761
 10
44.6535159757
 20
42.0209808109
 10
43.5002394592
 20
42.6657960065
 10
42.3461495027
 20
43.3091694497
  0
LINE
  5
3C3
100
AcDbEntity
  8
0
100
AcDbLine
 62
7
  6
CONTINUOUS
 10
46.0400433669
 20
41.2432428667
 11
45.8059783398
 21
41.3747279761
  0
LWPOLYLINE
  5
3C4
100
AcDbEntity
  8
0
100
AcDbPolyline
 62
7
  6
CONTINUOUS
 90
42
 70
0
 10
46.0221934648
 20
40.8197073323
 10
46.2440352802
 20
40.690047186
 10
46.4616062443
 20
40.5530540635
 10
46.6748826562
 20
40.4091552002
 10
46.8838408153
 20
40.258777831
 10
47.0884570208
 20
40.1023491912
 10
47.2887075721
 20
39.9402965159
 10
47.4845687685
 20
39.7730470402
 10
47.6934540472
 20
39.5848973244
 10
47.8971278768
 20
39.391313424
 10
48.0956428773
 20
39.1925504823
 10
48.2890516686
 20
38.9888636426
 10
48.4774068706
 20
38.7805080482
 10
48.6607611032
 20
38.5677388423
 10
48.8391669864
 20
38.3508111683
 10
49.0218380182
 20
38.1180049623
 10
49.1990664502
 20
37.8810374729
 10
49.3708448701
 20
37.6400808468
 10
49.5371658659
 20
37.3953072311
 10
49.6980220253
 20
37.1468887726
 10
49.8534059361
 20
36.8949976182
 10
50.0033101861
 20
36.6398059148
 10
50.1736117499
 20
36.3337484778
 10
50.3361167278
 20
36.0235015362
 10
50.4907138238
 20
35.7092572801
 10
50.6372917421
 20
35.3912078992
 10
50.7757391867
 20
35.0695455835
 10
50.9059448618
 20
34.744462523
 10
51.0084749854
 20
34.4699287472
 10
51.1049977314
 20
34.1932271927
 10
51.1953553252
 20
33.9144510189
 10
51.2793899921
 20
33.6336933854
 10
51.3569439574
 20
33.3510474515
 10
51.4278594466
 20
33.0666063768
 10
51.4919786849
 20
32.7804633206
 10
51.545901806
 20
32.5099810632
 10
51.5934151288
 20
32.2382634134
 10
51.6342560333
 20
31.965497136
 10
51.6681618995
 20
31.6918689956
 10
51.6948701075
 20
31.4175657568
 10
51.7141180371
 20
31.1427741842
 10
51.7256430683
 20
30.8676810424
  0
LWPOLYLINE
  5
3C5
100
AcDbEntity
  8
0
100
AcDbPolyline
 62
7
  6
CONTINUOUS
 90
45
 70
0
 10
44.0119205445
 20
40.1335426729
 10
44.1963578057
 20
40.0256561035
 10
44.3784855941
 20
39.9139363037
 10
44.521905272
 20
39.8209317585
 10
44.6633396896
 20
39.7249197133
 10
44.8775421686
 20
39.5720172219
 10
45.0208082002
 20
39.4645276156
 10
45.162024573
 20
39.3543388526
 10
45.3756822547
 20
39.1794530975
 10
45.5845449292
 20
38.9987828308
 10
45.7886749857
 20
38.8127249389
 10
45.9881348133
 20
38.6216763083
 10
46.1926177602
 20
38.416075409
 10
46.3920393958
 20
38.2055962976
 10
46.5864194054
 20
37.9904263349
 10
46.7757774743
 20
37.7707528814
 10
46.9954068292
 20
37.5027056165
 10
47.2078812412
 20
37.2288134042
 10
47.4131834158
 20
36.9493899229
 10
47.6112960588
 20
36.6647488511
 10
47.8022018759
 20
36.3752038672
 10
47.9858835727
 20
36.0810686497
 10
48.1623238551
 20
35.782656877
 10
48.3338130249
 20
35.4759989378
 10
48.4977935037
 20
35.1654010355
 10
48.6542195555
 20
34.8509975912
 10
48.8030454444
 20
34.5329230264
 10
48.9434958181
 20
34.2129760738
 10
49.0761808939
 20
33.8897015451
 10
49.2009030793
 20
33.5632723945
 10
49.317464782
 20
33.233861576
 10
49.4117602227
 20
32.9459956885
 10
49.4996303307
 20
32.6561376424
 10
49.5809319388
 20
32.364406388
 10
49.6543975163
 20
32.0755169172
 10
49.7200529306
 20
31.7901012629
 10
49.7790470095
 20
31.503212823
 10
49.8311684484
 20
31.2150157809
 10
49.8616069668
 20
31.0247442751
 10
49.8888797364
 20
30.8340054866
 10
49.9232646371
 20
30.5514247518
 10
49.9418884608
 20
30.3666052042
 10
49.9571153591
 20
30.1814820063
 10
49.9711686354
 20
29.9487053199
 10
49.9810018708
 20
29.7157028841
  0
LWPOLYLINE
  5
3C6
100
AcDbEntity
  8
0
100
AcDbPolyline
 62
7
  6
CONTINUOUS
 90
42
 70
0
 10
51.6947940282
 20
30.4733886132
 10
51.681416428
 20
30.7838680781
 10
51.6588813102
 20
31.0939899798
 10
51.6274951389
 20
31.4035326707
 10
51.5875643785
 20
31.7122745031
 10
51.5393954932
 20
32.0199938292
 10
51.4832949473
 20
32.3264690014
 10
51.419569205
 20
32.631478372
 10
51.3485247305
 20
32.9348002932
 10
51.2655010583
 20
33.2543739208
 10
51.1747442548
 20
33.5716909245
 10
51.0764059112
 20
33.8866413036
 10
50.9706376183
 20
34.1991150577
 10
50.8575909671
 20
34.5090021864
 10
50.7374175486
 20
34.8161926892
 10
50.6102689537
 20
35.1205765656
 10
50.4762967735
 20
35.4220438152
 10
50.3341297254
 20
35.7235767883
 10
50.1851980962
 20
36.0218421406
 10
50.0295495027
 20
36.3166624795
 10
49.8672315619
 20
36.6078604123
 10
49.6982918904
 20
36.8952585463
 10
49.5227781053
 20
37.1786794888
 10
49.3407378234
 20
37.4579458471
 10
49.1522186614
 20
37.7328802285
 10
48.9658728932
 20
37.9916102362
 10
48.7735897167
 20
38.245951084
 10
48.5753151952
 20
38.4956388899
 10
48.3709953918
 20
38.740409772
 10
48.1605763697
 20
38.9799998481
 10
47.9440041922
 20
39.2141452364
 10
47.7212249225
 20
39.4425820547
 10
47.4921846238
 20
39.6650464211
 10
47.3017029482
 20
39.8409547462
 10
47.1070801081
 20
40.0124035034
 10
46.9083328549
 20
40.1790392676
 10
46.7054779398
 20
40.3405086137
 10
46.4985321142
 20
40.4964581167
 10
46.2875121294
 20
40.6465343514
 10
46.0724347368
 20
40.7903838929
 10
45.8533166877
 20
40.927653316
 10
45.6301747334
 20
41.0579891957
  0
LWPOLYLINE
  5
3C7
100
AcDbEntity
  8
0
100
AcDbPolyline
 62
7
  6
CONTINUOUS
 90
42
 70
0
 10
53.9881783151
 20
31.6603974202
 10
53.9759753409
 20
31.9516725115
 10
53.9555951802
 20
32.2426282943
 10
53.9273159012
 20
32.5330670178
 10
53.8914155723
 20
32.8227909312
 10
53.8481722616
 20
33.1116022837
 10
53.7978640374
 20
33.3993033246
 10
53.740768968
 20
33.6856963031
 10
53.6728780098
 20
33.9886713037
 10
53.5977910213
 20
34.2898442064
 10
53.515675058
 20
34.5891163716
 10
53.4266971754
 20
34.8863891601
 10
53.331024429
 20
35.1815639323
 10
53.2288238744
 20
35.4745420488
 10
53.1202625671
 20
35.7652248703
 10
52.9823977346
 20
36.1094304638
 10
52.8358063227
 20
36.4500140921
 10
52.6806061739
 20
36.7867722601
 10
52.5169151311
 20
37.1195014725
 10
52.3448510369
 20
37.4479982342
 10
52.164531734
 20
37.7720590499
 10
52.0058095869
 20
38.0422620299
 10
51.8412854461
 20
38.308970311
 10
51.6709671597
 20
38.57200162
 10
51.4948625759
 20
38.8311736837
 10
51.312979543
 20
39.086304229
 10
51.1253259092
 20
39.3372109825
 10
50.9319095226
 20
39.5837116711
 10
50.7430091757
 20
39.8133997966
 10
50.5488693999
 20
40.0386848381
 10
50.3494344802
 20
40.259296644
 10
50.1446487012
 20
40.4749650624
 10
49.9344563477
 20
40.6854199419
 10
49.7188017046
 20
40.8903911305
 10
49.4976290565
 20
41.0896084767
 10
49.2902466133
 20
41.2666961569
 10
49.0782166178
 20
41.4382813425
 10
48.8615641649
 20
41.603911667
 10
48.6403143494
 20
41.7631347638
 10
48.4144922662
 20
41.9154982661
 10
48.1841230101
 20
42.0605498075
 10
47.9492316761
 20
42.1978370213
  0
LWPOLYLINE
  5
3C8
100
AcDbEntity
  8
0
100
AcDbPolyline
 62
7
  6
CONTINUOUS
 90
43
 70
0
 10
52.0789900059
 20
30.7058032656
 10
52.0668612538
 20
30.9955888384
 10
52.0466275246
 20
31.2850459117
 10
52.0185753649
 20
31.5739699575
 10
51.9829913214
 20
31.8621564478
 10
51.9401619408
 20
32.1494008545
 10
51.8903737699
 20
32.4354986497
 10
51.8303517449
 20
32.7370364124
 10
51.7630360389
 20
33.0369550369
 10
51.6886164846
 20
33.3351508082
 10
51.6072829144
 20
33.6315200112
 10
51.5192251609
 20
33.9259589306
 10
51.4246330568
 20
34.2183638514
 10
51.3205203006
 20
34.5174016573
 10
51.2097794885
 20
34.8140498751
 10
51.0925178869
 20
35.1081883077
 10
50.9688427623
 20
35.3996967577
 10
50.8388613811
 20
35.688455028
 10
50.7026810096
 20
35.9743429214
 10
50.5601338378
 20
36.2577452364
 10
50.4115084211
 20
36.5379990406
 10
50.2568403155
 20
36.8149572354
 10
50.0961650765
 20
37.0884727224
 10
49.92951826
 20
37.358398403
 10
49.7569354217
 20
37.6245871786
 10
49.5831512663
 20
37.8801214464
 10
49.4037576605
 20
38.1317557904
 10
49.2187433217
 20
38.3792753016
 10
49.0280969674
 20
38.622465071
 10
48.8318073153
 20
38.8611101895
 10
48.6298630826
 20
39.0949957481
 10
48.4332824616
 20
39.312000179
 10
48.2315578114
 20
39.5242389096
 10
48.0246318306
 20
39.7314122442
 10
47.8124472179
 20
39.9332204869
 10
47.5949466719
 20
40.1293639421
 10
47.3720728911
 20
40.3195429139
 10
47.1614633353
 20
40.489559487
 10
46.9462543368
 20
40.6537696567
 10
46.726476868
 20
40.8117082513
 10
46.5021619018
 20
40.962910099
 10
46.2733404105
 20
41.106910028
 10
46.0400433669
 20
41.2432428667
  0
LINE
  5
3C9
100
AcDbEntity
  8
0
100
AcDbLine
 62
7
  6
CONTINUOUS
 10
51.7256430683
 20
30.8676810424
 11
51.7360043203
 21
30.4901047949
  0
LINE
  5
3CA
100
AcDbEntity
  8
0
100
AcDbLine
 62
7
  6
CONTINUOUS
 10
49.9809960442
 20
29.7159174265
 11
50.1281756445
 21
24.2164285379
  0
LINE
  5
3CB
100
AcDbEntity
  8
0
100
AcDbLine
 62
7
  6
CONTINUOUS
 10
51.8398073043
 20
24.9905905373
 11
51.6926550357
 21
30.4890393089
  0
LINE
  5
3CC
100
AcDbEntity
  8
0
100
AcDbLine
 62
7
  6
CONTINUOUS
 10
51.7360043203
 20
30.4901047949
 11
51.8792297419
 21
24.9910596269
  0
LWPOLYLINE
  5
3CD
100
AcDbEntity
  8
0
100
AcDbPolyline
 62
7
  6
CONTINUOUS
 90
7
 70
0
 10
50.1281784378
 20
24.2162133741
 10
50.2111742695
 20
20.7901321774
 10
50.2903638109
 20
17.3639605505
 10
50.363821359
 20
13.9376655154
 10
50.4301457258
 20
10.5174491896
 10
50.4907403207
 20
7.0971222896
 10
50.5475052826
 20
3.6767300605
  0
LWPOLYLINE
  5
3CE
100
AcDbEntity
  8
0
100
AcDbPolyline
 62
7
  6
CONTINUOUS
 90
5
 70
0
 10
54.206533978
 20
23.0960858703
 10
54.1552432545
 20
25.2361171261
 10
54.1017722252
 20
27.3760952931
 10
54.0460643795
 20
29.5182753715
 10
53.9881783151
 20
31.6603974202
  0
LWPOLYLINE
  5
3CF
100
AcDbEntity
  8
0
100
AcDbPolyline
 62
7
  6
CONTINUOUS
 90
4
 70
0
 10
52.0302381412
 20
16.9044946998
 10
51.9705921335
 20
19.5997904664
 10
51.9073888952
 20
22.2949979539
 10
51.8406328975
 20
24.9901115467
  0
LWPOLYLINE
  5
3D0
100
AcDbEntity
  8
0
100
AcDbPolyline
 62
7
  6
CONTINUOUS
 90
3
 70
0
 10
52.9271281345
 20
16.2593974032
 10
52.8619937259
 20
19.3230818046
 10
52.7923204157
 20
22.3889790891
  0
LWPOLYLINE
  5
3D1
100
AcDbEntity
  8
0
100
AcDbPolyline
 62
7
  6
CONTINUOUS
 90
5
 70
0
 10
48.7289793023
 20
3.5192930193
 10
48.6575882125
 20
8.6506479501
 10
48.5788064631
 20
13.7818937138
 10
48.4874642243
 20
18.9376579409
 10
48.3828688468
 20
24.0931685388
  0
LWPOLYLINE
  5
3D2
100
AcDbEntity
  8
0
100
AcDbPolyline
 62
7
  6
CONTINUOUS
 90
7
 70
0
 10
50.5475748813
 20
3.6767310336
 10
50.6173546843
 20
-1.4752566826
 10
50.6783750418
 20
-6.6273567777
 10
50.7261971602
 20
-11.7795812158
 10
50.7577685631
 20
-16.9137740265
 10
50.7761741811
 20
-22.0480458824
 10
50.7857611792
 20
-27.1823404804
  0
LWPOLYLINE
  5
3D3
100
AcDbEntity
  8
0
100
AcDbPolyline
 62
7
  6
CONTINUOUS
 90
7
 70
0
 10
48.973532995
 20
-27.3419463603
 10
48.9637366227
 20
-22.2078942221
 10
48.9449076764
 20
-17.0738659153
 10
48.9125726659
 20
-11.9399206952
 10
48.8635427699
 20
-6.7867470697
 10
48.8009576689
 20
-1.6337043385
 10
48.7293775659
 20
3.5192200215
  0
LWPOLYLINE
  5
3D4
100
AcDbEntity
  8
0
100
AcDbPolyline
 62
7
  6
CONTINUOUS
 90
7
 70
0
 10
48.973532995
 20
-27.3419463601
 10
48.963791749
 20
-32.4566105127
 10
48.9450065547
 20
-37.5712507282
 10
48.9125726659
 20
-42.6858063388
 10
48.8636262191
 20
-47.7808288822
 10
48.8010620261
 20
-52.8757185604
 10
48.7293775656
 20
-57.9704866805
  0
LWPOLYLINE
  5
3D5
100
AcDbEntity
  8
0
100
AcDbPolyline
 62
7
  6
CONTINUOUS
 90
7
 70
0
 10
50.5475737747
 20
-57.8032315548
 10
50.6174583782
 20
-52.7107616026
 10
50.6784582602
 20
-47.6181761671
 10
50.7261971602
 20
-42.5254644678
 10
50.7578672205
 20
-37.4111511713
 10
50.7762291416
 20
-32.296757351
 10
50.7857610869
 20
-27.1823406853
  0
LWPOLYLINE
  5
3D6
100
AcDbEntity
  8
0
100
AcDbPolyline
 62
7
  6
CONTINUOUS
 90
5
 70
0
 10
48.7289793023
 20
-57.9704141891
 10
48.6577700483
 20
-63.0034275009
 10
48.5788064632
 20
-68.0363240681
 10
48.4876769691
 20
-73.044952796
 10
48.3828688468
 20
-78.0533118217
  0
LWPOLYLINE
  5
3D7
100
AcDbEntity
  8
0
100
AcDbPolyline
 62
7
  6
CONTINUOUS
 90
10
 70
0
 10
51.8406328975
 20
-77.1570526233
 10
52.1008924956
 20
-65.9067343673
 10
52.2951536905
 20
-54.654984634
 10
52.4241934667
 20
-43.4022764934
 10
52.4890299071
 20
-32.0509799621
 10
52.4888458545
 20
-20.6995195354
 10
52.4241934667
 20
-9.3482251522
 10
52.3306649317
 20
-0.5967675629
 10
52.1992955023
 20
8.1542030905
 10
52.0302381412
 20
16.9044946998
  0
LWPOLYLINE
  5
3D8
100
AcDbEntity
  8
0
100
AcDbPolyline
 62
7
  6
CONTINUOUS
 90
7
 70
0
 10
50.1281783826
 20
-77.9233933724
 10
50.2112740265
 20
-74.5758638149
 10
50.2904675403
 20
-71.2282392911
 10
50.363821359
 20
-67.8804862461
 10
50.4302541135
 20
-64.5215004497
 10
50.4908260896
 20
-61.1623992976
 10
50.5475053507
 20
-57.8032305849
  0
LINE
  5
3D9
100
AcDbEntity
  8
0
100
AcDbLine
 62
7
  6
CONTINUOUS
 10
49.9809960442
 20
-83.2759127084
 11
50.1281756445
 21
-77.9236033876
  0
LWPOLYLINE
  5
3DA
100
AcDbEntity
  8
0
100
AcDbPolyline
 62
7
  6
CONTINUOUS
 90
12
 70
0
 10
48.3828688477
 20
-78.0533117817
 10
48.368449744
 20
-78.553009848
 10
48.3553218676
 20
-79.0527420466
 10
48.337966433
 20
-79.8039300491
 10
48.3235538983
 20
-80.5551800405
 10
48.3122115952
 20
-81.3065011557
 10
48.3040668556
 20
-82.0579025295
 10
48.301866168
 20
-82.3219596854
 10
48.2993521044
 20
-82.58600914
 10
48.2958007329
 20
-82.8500321537
 10
48.2904881219
 20
-83.1140099868
 10
48.2826903395
 20
-83.3779238997
  0
LWPOLYLINE
  5
3DB
100
AcDbEntity
  8
0
100
AcDbPolyline
 62
7
  6
CONTINUOUS
 90
43
 70
0
 10
48.2826926754
 20
-83.3778472779
 10
48.2785813468
 20
-83.5057195649
 10
48.2727965836
 20
-83.6335321363
 10
48.2652407948
 20
-83.761252234
 10
48.2544390759
 20
-83.905416587
 10
48.2410495475
 20
-84.0493599104
 10
48.2294335169
 20
-84.1551134481
 10
48.2162755669
 20
-84.2606840599
 10
48.2030092349
 20
-84.3558999646
 10
48.1882924057
 20
-84.4509069091
 10
48.1719590805
 20
-84.5456699017
 10
48.1527841277
 20
-84.6454952158
 10
48.1315706315
 20
-84.7449333515
 10
48.1082703622
 20
-84.8439085953
 10
48.0828350901
 20
-84.9423452336
 10
48.0552165854
 20
-85.0401675528
 10
48.0253666185
 20
-85.1372998393
 10
47.9939060037
 20
-85.231910159
 10
47.9605137465
 20
-85.3258613314
 10
47.9200737242
 20
-85.4329040395
 10
47.8773005073
 20
-85.5390548458
 10
47.8320559079
 20
-85.6441862942
 10
47.7842017382
 20
-85.7481709288
 10
47.7335998102
 20
-85.8508812937
 10
47.6862650172
 20
-85.9409154124
 10
47.6366446096
 20
-86.0297465288
 10
47.5847286559
 20
-86.1172769571
 10
47.5305072248
 20
-86.2034090114
 10
47.4739703847
 20
-86.2880450059
 10
47.4151082044
 20
-86.3710872547
 10
47.3539107525
 20
-86.452438072
 10
47.2903680974
 20
-86.5319997718
 10
47.228144729
 20
-86.6054676365
 10
47.1638401094
 20
-86.6771395609
 10
47.0974772827
 20
-86.7469054502
 10
47.0290792934
 20
-86.8146552091
 10
46.9586691857
 20
-86.8802787426
 10
46.886270004
 20
-86.9436659556
 10
46.8119047925
 20
-87.0047067529
 10
46.7355965957
 20
-87.0632910396
 10
46.6708680406
 20
-87.1099346843
 10
46.6048725306
 20
-87.1547798912
 10
46.5376633484
 20
-87.1977931357
  0
LINE
  5
3DC
100
AcDbEntity
  8
0
100
AcDbLine
 62
7
  6
CONTINUOUS
 10
-34.6076232833
 20
-36.9652846271
 11
-34.5546923995
 21
-36.8663659785
  0
LINE
  5
3DD
100
AcDbEntity
  8
0
100
AcDbLine
 62
7
  6
CONTINUOUS
 10
-47.1870629556
 20
83.5039451605
 11
-47.3882105533
 21
83.3602902604
  0
LWPOLYLINE
  5
3DE
100
AcDbEntity
  8
0
100
AcDbPolyline
 62
7
  6
CONTINUOUS
 90
34
 70
0
 10
48.2826916781
 20
29.6135430735
 10
48.3371432684
 20
29.6016824337
 10
48.3917515603
 20
29.5904393562
 10
48.4465090706
 20
29.5798746746
 10
48.5014083166
 20
29.5700492225
 10
48.5564418151
 20
29.5610238333
 10
48.6116020833
 20
29.5528593405
 10
48.6668816381
 20
29.5456165776
 10
48.7222729967
 20
29.5393563782
 10
48.777768676
 20
29.5341395758
 10
48.8358934022
 20
29.5298556371
 10
48.8940994614
 20
29.5267806074
 10
48.9523623241
 20
29.5249162603
 10
49.0106574609
 20
29.5242643694
 10
49.0689603426
 20
29.5248267082
 10
49.1272464397
 20
29.5266050502
 10
49.185491223
 20
29.5296011689
 10
49.2330887587
 20
29.532963515
 10
49.2806193644
 20
29.5371703978
 10
49.3280601725
 20
29.5422502301
 10
49.3753883153
 20
29.5482314247
 10
49.4225809251
 20
29.5551423945
 10
49.4696151343
 20
29.5630115521
 10
49.5164680753
 20
29.5718673104
 10
49.5631168804
 20
29.5817380821
 10
49.610618058
 20
29.5929055319
 10
49.6578726423
 20
29.6051165645
 10
49.7048717256
 20
29.6183222369
 10
49.7516064
 20
29.6324736059
 10
49.7980677577
 20
29.6475217286
 10
49.8442468909
 20
29.6634176618
 10
49.8901348918
 20
29.6801124625
 10
49.9357228527
 20
29.6975571876
 10
49.9810018656
 20
29.715702894
  0
LWPOLYLINE
  5
3DF
100
AcDbEntity
  8
0
100
AcDbPolyline
 62
7
  6
CONTINUOUS
 90
13
 70
0
 10
-34.6801974701
 20
64.8836590935
 10
-34.6689587399
 20
64.8797005605
 10
-34.6577602327
 20
64.8756447418
 10
-34.6466003409
 20
64.8714908635
 10
-34.6354774567
 20
64.8672381514
 10
-34.6243899726
 20
64.8628858314
 10
-34.613336281
 20
64.8584331294
 10
-34.6023147742
 20
64.8538792712
 10
-34.5913238446
 20
64.8492234828
 10
-34.5803618845
 20
64.8444649901
 10
-34.5694272863
 20
64.8396030189
 10
-34.5585184425
 20
64.8346367952
 10
-34.5476337453
 20
64.8295655448
  0
LWPOLYLINE
  5
3E0
100
AcDbEntity
  8
0
100
AcDbPolyline
 62
7
  6
CONTINUOUS
 90
41
 70
0
 10
-43.0698648492
 20
83.6744353699
 10
-43.1608763455
 20
83.7127334739
 10
-43.2522422663
 20
83.7501952608
 10
-43.3440607414
 20
83.7865167726
 10
-43.4364299003
 20
83.821394051
 10
-43.5307921068
 20
83.8550581789
 10
-43.6257631843
 20
83.88698361
 10
-43.7212839962
 20
83.9172315562
 10
-43.8280873919
 20
83.9489384841
 10
-43.9354864751
 20
83.9785315439
 10
-44.0298743753
 20
84.0025869337
 10
-44.1247037169
 20
84.0248757114
 10
-44.2199688794
 20
84.0453355789
 10
-44.3220727105
 20
84.065081442
 10
-44.4246134636
 20
84.0826241064
 10
-44.5275383846
 20
84.0979130429
 10
-44.6307947196
 20
84.1108977219
 10
-44.7343297146
 20
84.1215276141
 10
-44.8380906156
 20
84.1297521899
 10
-44.9420246688
 20
84.13552092
 10
-45.04607912
 20
84.1387832749
 10
-45.1450369455
 20
84.1395131627
 10
-45.243987652
 20
84.1378803458
 10
-45.3428630143
 20
84.1338318931
 10
-45.4415948072
 20
84.1273148736
 10
-45.5401148055
 20
84.1182763565
 10
-45.6383547839
 20
84.1066634106
 10
-45.7362465174
 20
84.0924231051
 10
-45.8337217807
 20
84.0755025089
 10
-45.9275402454
 20
84.0565443424
 10
-46.0208232535
 20
84.0350292044
 10
-46.1134888097
 20
84.0109572141
 10
-46.2054549188
 20
83.9843284905
 10
-46.2966395852
 20
83.9551431525
 10
-46.3869608137
 20
83.9234013193
 10
-46.476336609
 20
83.8891031099
 10
-46.5646849757
 20
83.8522486434
 10
-46.6560685983
 20
83.8108993732
 10
-46.7461611975
 20
83.7667997179
 10
-46.8348897775
 20
83.7200056556
 10
-46.9221813424
 20
83.6705731643
  0
LWPOLYLINE
  5
3E1
100
AcDbEntity
  8
0
100
AcDbPolyline
 62
7
  6
CONTINUOUS
 90
9
 70
0
 10
-41.0674790206
 20
84.7970040604
 10
-41.0995088726
 20
84.8109373673
 10
-41.1316196894
 20
84.8247078364
 10
-41.1638106003
 20
84.8383133059
 10
-41.1960807347
 20
84.8517516141
 10
-41.2284292219
 20
84.8650205992
 10
-41.2608551913
 20
84.8781180995
 10
-41.2933577723
 20
84.8910419532
 10
-41.3259360942
 20
84.9037899985
  0
LINE
  5
3E2
100
AcDbEntity
  8
0
100
AcDbLine
 62
7
  6
CONTINUOUS
 10
-41.4469738815
 20
84.595832925
 11
-37.9773958597
 21
83.0714445704
  0
LWPOLYLINE
  5
3E3
100
AcDbEntity
  8
0
100
AcDbPolyline
 62
7
  6
CONTINUOUS
 90
4
 70
0
 10
-37.8417135793
 20
83.3764249248
 10
-38.9163670513
 20
83.8513329689
 10
-39.9916224931
 20
84.3248604826
 10
-41.0674790206
 20
84.7970040604
  0
LINE
  5
3E4
100
AcDbEntity
  8
0
100
AcDbLine
 62
7
  6
CONTINUOUS
 10
-39.6076636846
 20
82.1508770746
 11
-43.0672681185
 21
83.6799016811
  0
LWPOLYLINE
  5
3E5
100
AcDbEntity
  8
0
100
AcDbPolyline
 62
7
  6
CONTINUOUS
 90
11
 70
0
 10
-40.5396325022
 20
80.7676993918
 10
-38.0416109253
 20
79.6518718711
 10
-35.5461850631
 20
78.5302504855
 10
-31.7866010529
 20
76.8228836175
 10
-28.0350259391
 20
75.097923342
 10
-24.2911861196
 20
73.3561757899
 10
-20.5548079924
 20
71.5984470918
 10
-15.5389413563
 20
69.2091971421
 10
-10.536518019
 20
66.7920043163
 10
-5.5479679398
 20
64.3463986302
 10
-0.5397257604
 20
61.8585983661
  0
LWPOLYLINE
  5
3E6
100
AcDbEntity
  8
0
100
AcDbPolyline
 62
7
  6
CONTINUOUS
 90
20
 70
0
 10
-43.9793751171
 20
82.3039614759
 10
-43.8255772416
 20
82.2349741043
 10
-43.6725247019
 20
82.1643352811
 10
-43.5199411242
 20
82.0926581893
 10
-43.3675501348
 20
82.020556012
 10
-43.21507536
 20
81.9486419323
 10
-43.062240426
 20
81.8775291332
 10
-42.9087689592
 20
81.8078307977
 10
-42.7879797729
 20
81.7544827293
 10
-42.6668583848
 20
81.7018720163
 10
-42.5456328211
 20
81.6494916978
 10
-42.3019823062
 20
81.5434739482
 10
-42.0587023704
 20
81.4366302047
 10
-41.7329545659
 20
81.2924901038
 10
-41.4076143675
 20
81.1473867143
 10
-41.234699209
 20
81.0699037197
 10
-41.0616731542
 20
80.9926686256
 10
-40.8883165694
 20
80.916203739
 10
-40.714409821
 20
80.8410313664
 10
-40.5397332755
 20
80.7676738147
  0
LWPOLYLINE
  5
3E7
100
AcDbEntity
  8
0
100
AcDbPolyline
 62
7
  6
CONTINUOUS
 90
10
 70
0
 10
54.3413416968
 20
-67.0379599827
 10
54.5137309214
 20
-57.769996373
 10
54.6426610964
 20
-48.5012748854
 10
54.7284341443
 20
-39.2320427954
 10
54.7715019786
 20
-29.8968929883
 10
54.7714028598
 20
-20.5616544329
 10
54.7284341443
 20
-11.2265054503
 10
54.6421657863
 20
-1.8282589854
 10
54.5130375229
 20
7.5694871536
 10
54.3413416968
 20
16.9665041844
  0
LWPOLYLINE
  5
3E8
100
AcDbEntity
  8
0
100
AcDbPolyline
 62
7
  6
CONTINUOUS
 90
3
 70
0
 10
52.7923204157
 20
-73.7398407309
 10
52.8619937259
 20
-70.7436167569
 10
52.9271281345
 20
-67.7450667638
  0
LWPOLYLINE
  5
3E9
100
AcDbEntity
  8
0
100
AcDbPolyline
 62
7
  6
CONTINUOUS
 90
10
 70
0
 10
52.0789900059
 20
-82.3332839913
 10
52.3914068382
 20
-69.8929642515
 10
52.6248319345
 20
-57.4507846394
 10
52.7800049368
 20
-45.0073560881
 10
52.858026939
 20
-32.4453549477
 10
52.8577853918
 20
-19.8831379948
 10
52.7800049368
 20
-7.3211395694
 10
52.6236250657
 20
5.355906692
 10
52.38971734
 20
18.0317377281
 10
52.0789900059
 20
30.7058032656
  0
LINE
  5
3EA
100
AcDbEntity
  8
0
100
AcDbLine
 62
7
  6
CONTINUOUS
 10
51.8603506307
 20
-77.1575538773
 11
51.7256430683
 21
-82.1418148305
  0
LINE
  5
3EB
100
AcDbEntity
  8
0
100
AcDbLine
 62
7
  6
CONTINUOUS
 10
51.8398073043
 20
-77.1565120175
 11
51.6926550357
 21
-82.5078095
  0
LWPOLYLINE
  5
3EC
100
AcDbEntity
  8
0
100
AcDbPolyline
 62
7
  6
CONTINUOUS
 90
5
 70
0
 10
53.9881783151
 20
-81.3786898367
 10
54.046093999
 20
-79.2933663485
 10
54.1017722252
 20
-77.2079816197
 10
54.155270574
 20
-75.120385674
 10
54.206533978
 20
-73.0327339497
  0
LWPOLYLINE
  5
3ED
100
AcDbEntity
  8
0
100
AcDbPolyline
 62
7
  6
CONTINUOUS
 90
12
 70
0
 10
51.6947940282
 20
-82.4944908205
 10
51.6925444124
 20
-82.5637087841
 10
51.6897775592
 20
-82.6329404883
 10
51.6864852428
 20
-82.7021783516
 10
51.6826592377
 20
-82.7714147921
 10
51.6782913183
 20
-82.8406422282
 10
51.6733732588
 20
-82.9098530781
 10
51.6678968337
 20
-82.9790397601
 10
51.6618538173
 20
-83.0481946926
 10
51.6552359841
 20
-83.1173102937
 10
51.6480351083
 20
-83.1863789818
 10
51.6402429643
 20
-83.2553931751
  0
LWPOLYLINE
  5
3EE
100
AcDbEntity
  8
0
100
AcDbPolyline
 62
7
  6
CONTINUOUS
 90
7
 70
0
 10
52.0712768421
 20
-82.5303243577
 10
52.07286222
 20
-82.4974863778
 10
52.074326597
 20
-82.4646465827
 10
52.0756707686
 20
-82.4318057094
 10
52.0768955303
 20
-82.3989644951
 10
52.0780016776
 20
-82.3661236767
 10
52.0789900059
 20
-82.3332839913
  0
LWPOLYLINE
  5
3EF
100
AcDbEntity
  8
0
100
AcDbPolyline
 62
7
  6
CONTINUOUS
 90
39
 70
0
 10
43.1026215933
 20
38.7629543537
 10
43.114450822
 20
38.8120144941
 10
43.1268757388
 20
38.8609631932
 10
43.1399457772
 20
38.9097646879
 10
43.1537103706
 20
38.9583832153
 10
43.1682189523
 20
39.0067830126
 10
43.1835209558
 20
39.0549283166
 10
43.1996658143
 20
39.1027833646
 10
43.2167029614
 20
39.1503123935
 10
43.2346818303
 20
39.1974796404
 10
43.2536518545
 20
39.2442493423
 10
43.2699415262
 20
39.2821919189
 10
43.286941872
 20
39.3198195301
 10
43.3046670461
 20
39.357107246
 10
43.3231312027
 20
39.3940301365
 10
43.3423484962
 20
39.4305632716
 10
43.3655317272
 20
39.4723192667
 10
43.3897040415
 20
39.5135141677
 10
43.4148273492
 20
39.5541420202
 10
43.4408635607
 20
39.5941968696
 10
43.4664920424
 20
39.6318032359
 10
43.4929604121
 20
39.6688180695
 10
43.5203147681
 20
39.7051751726
 10
43.5486012088
 20
39.7408083477
 10
43.5724657169
 20
39.7693807287
 10
43.5969813564
 20
39.7974012606
 10
43.6221444213
 20
39.8248470384
 10
43.6479512053
 20
39.8516951568
 10
43.6743980024
 20
39.8779227108
 10
43.7052522332
 20
39.9069856086
 10
43.7368810699
 20
39.9352306206
 10
43.7692355389
 20
39.9626727113
 10
43.8022666666
 20
39.9893268449
 10
43.8359254796
 20
40.015207986
 10
43.8701630041
 20
40.0403310988
 10
43.9049302668
 20
40.0647111479
 10
43.9401782939
 20
40.0883630975
 10
43.975858112
 20
40.1113019122
 10
44.0119207475
 20
40.1335425562
  0
LINE
  5
3F0
100
AcDbEntity
  8
0
100
AcDbLine
 62
7
  6
CONTINUOUS
 10
-32.7962882351
 20
-37.0283859229
 11
-32.8406618929
 21
-37.1036624576
  0
LINE
  5
3F1
100
AcDbEntity
  8
0
100
AcDbLine
 62
7
  6
CONTINUOUS
 10
-46.9776065933
 20
83.6376838918
 11
-47.1870629556
 21
83.5039451605
  0
LINE
  5
3F2
100
AcDbEntity
  8
0
100
AcDbLine
 62
7
  6
CONTINUOUS
 10
-46.922062669
 20
83.6707142736
 11
-46.9776065933
 21
83.6376838918
  0
LWPOLYLINE
  5
3F3
100
AcDbEntity
  8
0
100
AcDbPolyline
 62
7
  6
CONTINUOUS
 90
14
 70
0
 10
-41.3259360942
 20
84.9037899985
 10
-41.3740950832
 20
84.9222563582
 10
-41.4224139677
 20
84.9403290858
 10
-41.4708899591
 20
84.9580012574
 10
-41.5195202687
 20
84.9752659488
 10
-41.5683021079
 20
84.992116236
 10
-41.617232688
 20
85.0085451949
 10
-41.6663092204
 20
85.0245459015
 10
-41.7155289164
 20
85.0401114316
 10
-41.7648889873
 20
85.0552348613
 10
-41.8143866445
 20
85.0699092664
 10
-41.8640190994
 20
85.0841277228
 10
-41.9137835632
 20
85.0978833066
 10
-41.9636772474
 20
85.1111690936
  0
LWPOLYLINE
  5
3F4
100
AcDbEntity
  8
0
100
AcDbPolyline
 62
7
  6
CONTINUOUS
 90
9
 70
0
 10
-41.6867620427
 20
84.6946823047
 10
-41.6550730766
 20
84.682242407
 10
-41.6234598991
 20
84.6696418451
 10
-41.5919235002
 20
84.6568828683
 10
-41.5604648704
 20
84.6439677259
 10
-41.5290849999
 20
84.6308986671
 10
-41.4977848789
 20
84.6176779413
 10
-41.4665654977
 20
84.6043077977
 10
-41.4354278465
 20
84.5907904856
  0
LWPOLYLINE
  5
3F5
100
AcDbEntity
  8
0
100
AcDbPolyline
 62
7
  6
CONTINUOUS
 90
38
 70
0
 10
-39.1582907114
 20
85.751598215
 10
-39.2640600134
 20
85.7968625604
 10
-39.3707078239
 20
85.8403240214
 10
-39.4782003047
 20
85.8819016377
 10
-39.5865036177
 20
85.921514449
 10
-39.6955839244
 20
85.9590814953
 10
-39.8054073866
 20
85.9945218163
 10
-39.9159401661
 20
86.0277544519
 10
-40.0271484246
 20
86.0586984417
 10
-40.1389983238
 20
86.0872728257
 10
-40.2514560255
 20
86.1133966437
 10
-40.3644876914
 20
86.1369889353
 10
-40.4780594832
 20
86.1579687406
 10
-40.5921375627
 20
86.1762550991
 10
-40.7066880917
 20
86.1917670509
 10
-40.8023961941
 20
86.2025081389
 10
-40.8983489669
 20
86.2112252347
 10
-40.9944870001
 20
86.2178739128
 10
-41.0907508841
 20
86.2224097482
 10
-41.187081209
 20
86.2247883157
 10
-41.2834185651
 20
86.2249651901
 10
-41.3797035425
 20
86.2228959461
 10
-41.4758767316
 20
86.2185361586
 10
-41.5718787225
 20
86.2118414024
 10
-41.6676501053
 20
86.2027672523
 10
-41.7631314705
 20
86.1912692831
 10
-41.8582634081
 20
86.1773030696
 10
-41.9529865084
 20
86.1608241866
 10
-42.0472413616
 20
86.1417882089
 10
-42.1409685579
 20
86.1201507114
 10
-42.2339220539
 20
86.0959305459
 10
-42.3262137234
 20
86.0691063245
 10
-42.417766486
 20
86.0397094783
 10
-42.5085032614
 20
86.0077714384
 10
-42.5983469693
 20
85.973323636
 10
-42.6872205295
 20
85.9363975022
 10
-42.7750468616
 20
85.8970244682
 10
-42.8617488853
 20
85.855235965
  0
LWPOLYLINE
  5
3F6
100
AcDbEntity
  8
0
100
AcDbPolyline
 62
7
  6
CONTINUOUS
 90
9
 70
0
 10
52.047389213
 20
-82.8719041787
 10
52.0511277656
 20
-82.8292502541
 10
52.0546477836
 20
-82.7865806371
 10
52.0579510202
 20
-82.7438969521
 10
52.0610392285
 20
-82.7012008234
 10
52.0639141618
 20
-82.6584938754
 10
52.066577573
 20
-82.6157777322
 10
52.0690312154
 20
-82.5730540182
 10
52.0712768421
 20
-82.5303243577
  0
LWPOLYLINE
  5
3F7
100
AcDbEntity
  8
0
100
AcDbPolyline
 62
7
  6
CONTINUOUS
 90
36
 70
0
 10
51.6402429643
 20
-83.2553931751
 10
51.6245706858
 20
-83.3804328161
 10
51.606876236
 20
-83.5052228817
 10
51.5871105012
 20
-83.6297181029
 10
51.5652243679
 20
-83.7538732108
 10
51.5411687223
 20
-83.8776429364
 10
51.5148944509
 20
-84.0009820109
 10
51.4863524402
 20
-84.1238451653
 10
51.4554935763
 20
-84.2461871306
 10
51.4222687458
 20
-84.3679626379
 10
51.3866288351
 20
-84.4891264182
 10
51.3485247304
 20
-84.6096332027
 10
51.3157440421
 20
-84.7069423491
 10
51.2812772599
 20
-84.8037208196
 10
51.245094723
 20
-84.8999007763
 10
51.2071667707
 20
-84.9954143813
 10
51.1674637422
 20
-85.090193797
 10
51.1259559766
 20
-85.1841711856
 10
51.0826138132
 20
-85.2772787091
 10
51.0374075912
 20
-85.3694485299
 10
50.9903076498
 20
-85.46061281
 10
50.9412843282
 20
-85.5507037118
 10
50.8903079656
 20
-85.6396533974
 10
50.8373489012
 20
-85.7273940289
 10
50.7823774743
 20
-85.8138577687
 10
50.725364024
 20
-85.8989767789
 10
50.6662788895
 20
-85.9826832217
 10
50.6050924101
 20
-86.0649092593
 10
50.541774925
 20
-86.1455870539
 10
50.4762967734
 20
-86.2246487678
 10
50.4145868627
 20
-86.295391979
 10
50.3510938327
 20
-86.3646664392
 10
50.2858619559
 20
-86.432408292
 10
50.2189355048
 20
-86.4985536809
 10
50.1503587517
 20
-86.5630387493
 10
50.0801759691
 20
-86.6257996409
  0
LWPOLYLINE
  5
3F8
100
AcDbEntity
  8
0
100
AcDbPolyline
 62
7
  6
CONTINUOUS
 90
12
 70
0
 10
0.9161131127
 20
-55.4908639741
 10
0.913077216
 20
-55.4982198859
 10
0.9099789651
 20
-55.5055500211
 10
0.9068187676
 20
-55.5128539037
 10
0.9035970315
 20
-55.5201310579
 10
0.9003141644
 20
-55.5273810079
 10
0.8969705742
 20
-55.5346032777
 10
0.8935666686
 20
-55.5417973914
 10
0.8901028555
 20
-55.5489628733
 10
0.8865795425
 20
-55.5560992473
 10
0.8829971376
 20
-55.5632060377
 10
0.8793560484
 20
-55.5702827686
  0
LWPOLYLINE
  5
3F9
100
AcDbEntity
  8
0
100
AcDbPolyline
 62
7
  6
CONTINUOUS
 90
45
 70
0
 10
-34.9568518539
 20
64.8650854747
 10
-34.9544800352
 20
64.8668282871
 10
-34.9520306445
 20
64.8685003235
 10
-34.9495146498
 20
64.870096967
 10
-34.9469430194
 20
64.8716136005
 10
-34.9443267213
 20
64.8730456069
 10
-34.9416767237
 20
64.8743883692
 10
-34.9390039948
 20
64.8756372704
 10
-34.9363195027
 20
64.8767876934
 10
-34.9332999195
 20
64.8779588104
 10
-34.9302794391
 20
64.8790028823
 10
-34.9272581683
 20
64.8799230454
 10
-34.9242362137
 20
64.880722436
 10
-34.9212136822
 20
64.8814041905
 10
-34.9181906805
 20
64.8819714453
 10
-34.9151673152
 20
64.8824273367
 10
-34.9121436932
 20
64.8827750011
 10
-34.9091199211
 20
64.8830175747
 10
-34.9060961058
 20
64.883158194
 10
-34.9030723539
 20
64.8831999953
 10
-34.9000487722
 20
64.883146115
 10
-34.8970254675
 20
64.8829996894
 10
-34.8940025464
 20
64.8827638548
 10
-34.8909801157
 20
64.8824417477
 10
-34.8879582822
 20
64.8820365043
 10
-34.8849371525
 20
64.881551261
 10
-34.8819168335
 20
64.8809891541
 10
-34.8788974318
 20
64.8803533201
 10
-34.8758790542
 20
64.8796468952
 10
-34.8728618075
 20
64.8788730159
 10
-34.8698457983
 20
64.8780348184
 10
-34.8668311334
 20
64.8771354391
 10
-34.8638179196
 20
64.8761780144
 10
-34.8608062636
 20
64.8751656806
 10
-34.8577962721
 20
64.874101574
 10
-34.8547880518
 20
64.8729888311
 10
-34.8517817096
 20
64.8718305881
 10
-34.8487773521
 20
64.8706299814
 10
-34.8457750861
 20
64.8693901474
 10
-34.8427750183
 20
64.8681142224
 10
-34.8397772554
 20
64.8668053428
 10
-34.8367819042
 20
64.8654666449
 10
-34.8337890715
 20
64.864101265
 10
-34.8307988639
 20
64.8627123396
 10
-34.8278113882
 20
64.8613030049
  0
LINE
  5
3FA
100
AcDbEntity
  8
0
100
AcDbLine
 62
7
  6
CONTINUOUS
 10
-46.922987771
 20
83.6698633386
 11
-45.3531852939
 21
84.5894188427
  0
LWPOLYLINE
  5
3FB
100
AcDbEntity
  8
0
100
AcDbPolyline
 62
7
  6
CONTINUOUS
 90
13
 70
0
 10
-45.3505446319
 20
84.5891948852
 10
-45.3257218013
 20
84.6037089613
 10
-45.3007829302
 20
84.6180113644
 10
-45.2757292904
 20
84.63210026
 10
-45.2505621541
 20
84.6459738133
 10
-45.2252827933
 20
84.6596301896
 10
-45.1998924799
 20
84.6730675542
 10
-45.174392486
 20
84.6862840723
 10
-45.1487840837
 20
84.6992779094
 10
-45.1230685448
 20
84.7120472307
 10
-45.0972471415
 20
84.7245902015
 10
-45.0713211458
 20
84.736904987
 10
-45.0452918297
 20
84.7489897527
  0
LWPOLYLINE
  5
3FC
100
AcDbEntity
  8
0
100
AcDbPolyline
 62
7
  6
CONTINUOUS
 90
5
 70
0
 10
-41.7966620109
 20
84.3990589752
 10
-41.7098750277
 20
84.4483270606
 10
-41.6229639258
 20
84.4973760284
 10
-41.5350297167
 20
84.5467132564
 10
-41.4469738815
 20
84.595832925
  0
LINE
  5
3FD
100
AcDbEntity
  8
0
100
AcDbLine
 62
7
  6
CONTINUOUS
 10
-43.0672681185
 20
83.6799016811
 11
-41.7966620109
 21
84.3990589752
  0
LWPOLYLINE
  5
3FE
100
AcDbEntity
  8
0
100
AcDbPolyline
 62
7
  6
CONTINUOUS
 90
5
 70
0
 10
-34.9003125686
 20
64.9408333712
 10
-34.8903190306
 20
64.9389930865
 10
-34.875176346
 20
64.9360750057
 10
-34.8601390184
 20
64.9330286553
 10
-34.845203992
 20
64.9298525638
  0
LWPOLYLINE
  5
3FF
100
AcDbEntity
  8
0
100
AcDbPolyline
 62
7
  6
CONTINUOUS
 90
14
 70
0
 10
-34.845203992
 20
64.9298525638
 10
-34.8321062228
 20
64.9269406857
 10
-34.8190836481
 20
64.9239256049
 10
-34.8061341674
 20
64.92080631
 10
-34.7932556805
 20
64.9175817897
 10
-34.7804460871
 20
64.9142510327
 10
-34.7677032869
 20
64.9108130276
 10
-34.7550251796
 20
64.9072667631
 10
-34.7424096649
 20
64.9036112279
 10
-34.7298546425
 20
64.8998454105
 10
-34.7173580121
 20
64.8959682997
 10
-34.7049176734
 20
64.8919788842
 10
-34.6925315262
 20
64.8878761526
 10
-34.6801974701
 20
64.8836590935
  0
LINE
  5
400
100
AcDbEntity
  8
0
100
AcDbLine
 62
7
  6
CONTINUOUS
 10
-2.7858241556
 20
-52.9920269945
 11
-3.7069646537
 21
-54.8630207212
  0
LINE
  5
401
100
AcDbEntity
  8
0
100
AcDbLine
 62
7
  6
CONTINUOUS
 10
-3.4826361325
 20
-54.9750899734
 11
-2.5615623686
 21
-53.1041296138
  0
LINE
  5
402
100
AcDbEntity
  8
0
100
AcDbLine
 62
7
  6
CONTINUOUS
 10
-3.3920893075
 20
-54.9298165609
 11
-2.5066195351
 21
-53.1311779707
  0
LINE
  5
403
100
AcDbEntity
  8
0
100
AcDbLine
 62
7
  6
CONTINUOUS
 10
-2.6225919374
 20
-53.8768554942
 11
-3.2262797227
 21
-55.1031786405
  0
LINE
  5
404
100
AcDbEntity
  8
0
100
AcDbLine
 62
7
  6
CONTINUOUS
 10
-2.4786893899
 20
-55.4768285179
 11
-1.8750684834
 21
-54.2505388109
  0
LINE
  5
405
100
AcDbEntity
  8
0
100
AcDbLine
 62
7
  6
CONTINUOUS
 10
-2.3881499095
 20
-55.4315587777
 11
-1.7845290024
 21
-54.2052690704
  0
LINE
  5
406
100
AcDbEntity
  8
0
100
AcDbLine
 62
7
  6
CONTINUOUS
 10
-1.3015106868
 20
-53.7340825607
 11
-2.2224124022
 21
-55.6049568961
  0
LINE
  5
407
100
AcDbEntity
  8
0
100
AcDbLine
 62
7
  6
CONTINUOUS
 10
-0.7385365776
 20
-56.3472312837
 11
0.1826014793
 21
-54.4762387776
  0
LINE
  5
408
100
AcDbEntity
  8
0
100
AcDbLine
 62
7
  6
CONTINUOUS
 10
-0.647986904
 20
-56.3019564469
 11
0.2375439735
 21
-54.5032883908
  0
LINE
  5
409
100
AcDbEntity
  8
0
100
AcDbLine
 62
7
  6
CONTINUOUS
 10
-3.963359172
 20
-54.7349511083
 11
-3.0421290147
 21
-52.863912552
  0
LINE
  5
40A
100
AcDbEntity
  8
0
100
AcDbLine
 62
7
  6
CONTINUOUS
 10
-3.8728054272
 20
-54.6896742359
 11
-2.9871870125
 21
-52.890963962
  0
LINE
  5
40B
100
AcDbEntity
  8
0
100
AcDbLine
 62
7
  6
CONTINUOUS
 10
0.2578442406
 20
-54.9449570419
 11
0.0256030594
 21
-55.4166465764
  0
LINE
  5
40C
100
AcDbEntity
  8
0
100
AcDbLine
 62
7
  6
CONTINUOUS
 10
-0.1340335268
 20
-55.7678932148
 11
-0.4823967482
 21
-56.475428241
  0
LWPOLYLINE
  5
40D
100
AcDbEntity
  8
0
100
AcDbPolyline
 62
7
  6
CONTINUOUS
 90
13
 70
0
 10
-44.7711981727
 20
84.9018614138
 10
-44.7843710755
 20
84.8952404271
 10
-44.8086410858
 20
84.8828461769
 10
-44.8328074856
 20
84.8702508495
 10
-44.8568692319
 20
84.8574559773
 10
-44.880825282
 20
84.8444630927
 10
-44.9046745929
 20
84.8312737281
 10
-44.928416122
 20
84.8178894161
 10
-44.9520488263
 20
84.8043116889
 10
-44.9755716631
 20
84.7905420791
 10
-44.9989835894
 20
84.776582119
 10
-45.0222835624
 20
84.7624333411
 10
-45.0454705394
 20
84.7480972778
  0
LINE
  5
40E
100
AcDbEntity
  8
0
100
AcDbLine
 62
7
  6
CONTINUOUS
 10
-42.8619148326
 20
85.8565050765
 11
-44.7711031418
 21
84.9019109219
  0
LINE
  5
40F
100
AcDbEntity
  8
0
100
AcDbLine
 62
7
  6
CONTINUOUS
 10
-39.1582907114
 20
85.751598215
 11
-41.0674790206
 21
84.7970040604
  0
LWPOLYLINE
  5
410
100
AcDbEntity
  8
0
100
AcDbPolyline
 62
7
  6
CONTINUOUS
 90
8
 70
0
 10
-45.0452918297
 20
84.7489897527
 10
-45.0328149318
 20
84.7546839194
 10
-45.0203148611
 20
84.7603249212
 10
-45.0077917563
 20
84.7659125579
 10
-44.9952457563
 20
84.7714466291
 10
-44.9826770001
 20
84.7769269344
 10
-44.9700856266
 20
84.7823532737
 10
-44.9574717745
 20
84.7877254465
  0
LWPOLYLINE
  5
411
100
AcDbEntity
  8
0
100
AcDbPolyline
 62
7
  6
CONTINUOUS
 90
34
 70
0
 10
-41.9636772474
 20
85.1111690936
 10
-42.0501466835
 20
85.1329888156
 10
-42.1369788986
 20
85.1533508037
 10
-42.2241595254
 20
85.1722193845
 10
-42.3116741966
 20
85.189558885
 10
-42.3995085448
 20
85.2053336318
 10
-42.4885968819
 20
85.2196514473
 10
-42.5779579611
 20
85.232293653
 10
-42.6675525899
 20
85.2432197932
 10
-42.7573415758
 20
85.252389412
 10
-42.8472857264
 20
85.2597620537
 10
-42.9373458493
 20
85.2652972626
 10
-43.0274827518
 20
85.2689545828
 10
-43.1176572417
 20
85.2706935586
 10
-43.2078301264
 20
85.2704737342
 10
-43.2979622135
 20
85.2682546539
 10
-43.3880143105
 20
85.2639958618
 10
-43.4779472249
 20
85.2576569023
 10
-43.5677217643
 20
85.2491973195
 10
-43.6572987363
 20
85.2385766576
 10
-43.7399197971
 20
85.2268022165
 10
-43.822284834
 20
85.2131439565
 10
-43.9043402831
 20
85.1976006536
 10
-43.9860325805
 20
85.1801710837
 10
-44.0673081625
 20
85.1608540229
 10
-44.1481134652
 20
85.139648247
 10
-44.2283949248
 20
85.1165525321
 10
-44.3080989774
 20
85.091565654
 10
-44.3871720593
 20
85.0646863888
 10
-44.4655606065
 20
85.0359135124
 10
-44.5432110553
 20
85.0052458007
 10
-44.6200698418
 20
84.9726820298
 10
-44.6960834022
 20
84.9382209755
 10
-44.7711981727
 20
84.9018614138
  0
LWPOLYLINE
  5
412
100
AcDbEntity
  8
0
100
AcDbPolyline
 62
7
  6
CONTINUOUS
 90
21
 70
0
 10
0.8793560484
 20
-55.5702827686
 10
0.8734134179
 20
-55.5815335591
 10
0.8673221344
 20
-55.5927037423
 10
0.8610825156
 20
-55.6037907678
 10
0.8546948792
 20
-55.6147920852
 10
0.8481595429
 20
-55.6257051439
 10
0.8414768241
 20
-55.6365273937
 10
0.8346470408
 20
-55.6472562842
 10
0.8276705104
 20
-55.6578892648
 10
0.8205475506
 20
-55.6684237852
 10
0.8132784792
 20
-55.678857295
 10
0.8058636137
 20
-55.6891872438
 10
0.7983032718
 20
-55.6994110812
 10
0.7905977712
 20
-55.7095262566
 10
0.7827474295
 20
-55.7195302199
 10
0.7747525643
 20
-55.7294204204
 10
0.7666134934
 20
-55.7391943078
 10
0.7583305344
 20
-55.7488493318
 10
0.749904005
 20
-55.7583829418
 10
0.7413342227
 20
-55.7677925875
 10
0.7326215053
 20
-55.7770757185
  0
LWPOLYLINE
  5
413
100
AcDbEntity
  8
0
100
AcDbPolyline
 62
7
  6
CONTINUOUS
 90
16
 70
0
 10
-44.9574717745
 20
84.7877254465
 10
-44.9237033904
 20
84.8017951722
 10
-44.8897800362
 20
84.8154793736
 10
-44.855705816
 20
84.828779657
 10
-44.8214848342
 20
84.8416976287
 10
-44.7871211946
 20
84.854234895
 10
-44.7526190016
 20
84.8663930622
 10
-44.7179823592
 20
84.8781737367
 10
-44.6832153716
 20
84.8895785246
 10
-44.6483221429
 20
84.9006090324
 10
-44.6133067772
 20
84.9112668663
 10
-44.5781733787
 20
84.9215536326
 10
-44.5429260516
 20
84.9314709377
 10
-44.5075688998
 20
84.9410203878
 10
-44.4721060277
 20
84.9502035893
 10
-44.4365415393
 20
84.9590221484
  0
LWPOLYLINE
  5
414
100
AcDbEntity
  8
0
100
AcDbPolyline
 62
7
  6
CONTINUOUS
 90
19
 70
0
 10
32.0663265999
 20
-70.339294067
 10
32.0616279164
 20
-70.3513724232
 10
32.056758348
 20
-70.3633854467
 10
32.0517206634
 20
-70.3753313359
 10
32.0465176309
 20
-70.387208289
 10
32.041152019
 20
-70.3990145045
 10
32.0356265961
 20
-70.4107481806
 10
32.0299441309
 20
-70.4224075158
 10
32.0241073916
 20
-70.4339907084
 10
32.0181191469
 20
-70.4454959568
 10
32.0119959428
 20
-70.4568963443
 10
32.0057273703
 20
-70.4682164863
 10
31.9993161383
 20
-70.4794555294
 10
31.9927649558
 20
-70.4906126203
 10
31.9860765318
 20
-70.5016869057
 10
31.9792535753
 20
-70.5126775323
 10
31.9722987952
 20
-70.5235836468
 10
31.9652149005
 20
-70.5344043958
 10
31.9580046003
 20
-70.5451389262
  0
LINE
  5
415
100
AcDbEntity
  8
0
100
AcDbLine
 62
7
  6
CONTINUOUS
 10
-34.8452829315
 20
64.9294900699
 11
-34.9553023905
 21
64.8744803404
  0
LINE
  5
416
100
AcDbEntity
  8
0
100
AcDbLine
 62
7
  6
CONTINUOUS
 10
-34.4559207775
 20
64.7862435886
 11
-34.5455848204
 21
64.7414115672
  0
LINE
  5
417
100
AcDbEntity
  8
0
100
AcDbLine
 62
7
  6
CONTINUOUS
 10
-34.6643394405
 20
64.5192325807
 11
-34.7124963073
 21
64.4951541473
  0
LINE
  5
418
100
AcDbEntity
  8
0
100
AcDbLine
 62
7
  6
CONTINUOUS
 10
-35.0579420955
 20
64.9348639259
 11
-35.0563905711
 21
64.9355763642
  0
LWPOLYLINE
  5
419
100
AcDbEntity
  8
0
100
AcDbPolyline
 62
7
  6
CONTINUOUS
 90
55
 70
0
 10
0.6899238454
 20
-55.4158319285
 10
0.6950568517
 20
-55.4077214256
 10
0.6999822879
 20
-55.3994817012
 10
0.7046999742
 20
-55.3911196679
 10
0.7092097313
 20
-55.3826422388
 10
0.7135113795
 20
-55.3740563267
 10
0.7175261851
 20
-55.3655386309
 10
0.7213357268
 20
-55.3569275843
 10
0.7249349933
 20
-55.3482274872
 10
0.7283189734
 20
-55.3394426405
 10
0.7314826559
 20
-55.3305773447
 10
0.7344210296
 20
-55.3216359003
 10
0.7371290833
 20
-55.3126226081
 10
0.7396018057
 20
-55.3035417687
 10
0.7418341856
 20
-55.2943976827
 10
0.7438212118
 20
-55.2851946506
 10
0.7455578731
 20
-55.2759369732
 10
0.7470391582
 20
-55.266628951
 10
0.748260056
 20
-55.2572748847
 10
0.7492155552
 20
-55.2478790748
 10
0.7499006445
 20
-55.2384458221
 10
0.7502235026
 20
-55.2316150506
 10
0.7503958109
 20
-55.224773486
 10
0.750410589
 20
-55.2179276112
 10
0.7502608566
 20
-55.2110839092
 10
0.7499396332
 20
-55.204248863
 10
0.7494399385
 20
-55.1974289555
 10
0.748754792
 20
-55.1906306699
 10
0.7478772134
 20
-55.1838604889
 10
0.7468002223
 20
-55.1771248958
 10
0.7455168381
 20
-55.1704303733
 10
0.7440200807
 20
-55.1637834046
 10
0.7423029695
 20
-55.1571904725
 10
0.7403585241
 20
-55.1506580601
 10
0.7381797642
 20
-55.1441926504
 10
0.7357597094
 20
-55.1378007264
 10
0.7330913792
 20
-55.131488771
 10
0.7301677933
 20
-55.1252632672
 10
0.7277023893
 20
-55.1204646923
 10
0.7250795621
 20
-55.1157332441
 10
0.7223019749
 20
-55.1110793158
 10
0.7193722911
 20
-55.1065133003
 10
0.7162931739
 20
-55.1020455908
 10
0.7130672867
 20
-55.0976865806
 10
0.7096972928
 20
-55.0934466626
 10
0.7061858555
 20
-55.08933623
 10
0.7025356381
 20
-55.085365676
 10
0.6987493039
 20
-55.0815453936
 10
0.6948295162
 20
-55.0778857761
 10
0.6907789384
 20
-55.0743972164
 10
0.6866002336
 20
-55.0710901078
 10
0.6822960653
 20
-55.0679748434
 10
0.6778690968
 20
-55.0650618163
 10
0.6733219913
 20
-55.0623614196
 10
0.6686574122
 20
-55.0598840465
  0
LWPOLYLINE
  5
41A
100
AcDbEntity
  8
0
100
AcDbPolyline
 62
7
  6
CONTINUOUS
 90
33
 70
0
 10
-35.0563905711
 20
64.9355763642
 10
-35.0518875042
 20
64.937441773
 10
-35.0473447084
 20
64.9391556494
 10
-35.0427637415
 20
64.9407221716
 10
-35.0381461609
 20
64.9421455178
 10
-35.0334935242
 20
64.9434298663
 10
-35.0288073891
 20
64.9445793952
 10
-35.0240893131
 20
64.9455982829
 10
-35.0193408539
 20
64.9464907074
 10
-35.0145635689
 20
64.9472608471
 10
-35.0097590158
 20
64.9479128802
 10
-35.0049287522
 20
64.948450985
 10
-35.0000743356
 20
64.9488793395
 10
-34.9951973237
 20
64.9492021222
 10
-34.990299274
 20
64.9494235111
 10
-34.9853817441
 20
64.9495476846
 10
-34.9804462916
 20
64.9495788209
 10
-34.9754944741
 20
64.9495210981
 10
-34.9705278492
 20
64.9493786946
 10
-34.9655479744
 20
64.9491557885
 10
-34.9605564074
 20
64.9488565581
 10
-34.9555547057
 20
64.9484851816
 10
-34.9505444269
 20
64.9480458372
 10
-34.9455271286
 20
64.9475427032
 10
-34.9405043685
 20
64.9469799578
 10
-34.935477704
 20
64.9463617792
 10
-34.9304486927
 20
64.9456923456
 10
-34.9254188923
 20
64.9449758353
 10
-34.9203898604
 20
64.9442164266
 10
-34.9153631544
 20
64.9434182975
 10
-34.9103403321
 20
64.9425856265
 10
-34.905322951
 20
64.9417225916
 10
-34.9003125686
 20
64.9408333712
  0
LINE
  5
41B
100
AcDbEntity
  8
0
100
AcDbLine
 62
7
  6
CONTINUOUS
 10
30.915842846
 20
-68.9819148271
 11
30.9557970669
 21
-68.9044285739
  0
LINE
  5
41C
100
AcDbEntity
  8
0
100
AcDbLine
 62
7
  6
CONTINUOUS
 10
-2.0432273005
 20
-54.0061797118
 11
-1.6859177729
 21
-53.5418857957
  0
LINE
  5
41D
100
AcDbEntity
  8
0
100
AcDbLine
 62
7
  6
CONTINUOUS
 10
-2.0987845065
 20
-54.0783711551
 11
-2.0432273005
 21
-54.0061797118
  0
LINE
  5
41E
100
AcDbEntity
  8
0
100
AcDbLine
 62
7
  6
CONTINUOUS
 10
-2.2522936577
 20
-54.277841263
 11
-2.0987845065
 21
-54.0783711551
  0
LINE
  5
41F
100
AcDbEntity
  8
0
100
AcDbLine
 62
7
  6
CONTINUOUS
 10
-2.5351627274
 20
-54.6453984417
 11
-2.2522936577
 21
-54.277841263
  0
LINE
  5
420
100
AcDbEntity
  8
0
100
AcDbLine
 62
7
  6
CONTINUOUS
 10
-1.8786698201
 20
-53.8647307985
 11
-1.6456932188
 21
-53.5619967805
  0
LINE
  5
421
100
AcDbEntity
  8
0
100
AcDbLine
 62
7
  6
CONTINUOUS
 10
-2.0202367117
 20
-54.0486842243
 11
-1.8786698201
 21
-53.8647307985
  0
LINE
  5
422
100
AcDbEntity
  8
0
100
AcDbLine
 62
7
  6
CONTINUOUS
 10
-2.1617509487
 20
-54.2325682394
 11
-2.0202367117
 21
-54.0486842243
  0
LINE
  5
423
100
AcDbEntity
  8
0
100
AcDbLine
 62
7
  6
CONTINUOUS
 10
-2.3032125766
 20
-54.416382809
 11
-2.1617509487
 21
-54.2325682394
  0
LINE
  5
424
100
AcDbEntity
  8
0
100
AcDbLine
 62
7
  6
CONTINUOUS
 10
-2.4446216407
 20
-54.6001278983
 11
-2.3032125766
 21
-54.416382809
  0
LINE
  5
425
100
AcDbEntity
  8
0
100
AcDbLine
 62
7
  6
CONTINUOUS
 10
-1.8750684834
 20
-54.2505388109
 11
-2.0167311632
 21
-54.4346188615
  0
LINE
  5
426
100
AcDbEntity
  8
0
100
AcDbLine
 62
7
  6
CONTINUOUS
 10
-2.0167311632
 20
-54.4346188615
 11
-2.1583446242
 21
-54.6186342401
  0
LINE
  5
427
100
AcDbEntity
  8
0
100
AcDbLine
 62
7
  6
CONTINUOUS
 10
-2.1583446242
 20
-54.6186342401
 11
-2.3114413713
 21
-54.8175703162
  0
LINE
  5
428
100
AcDbEntity
  8
0
100
AcDbLine
 62
7
  6
CONTINUOUS
 10
-2.3114413713
 20
-54.8175703162
 11
-2.4414240723
 21
-54.9864708406
  0
LINE
  5
429
100
AcDbEntity
  8
0
100
AcDbLine
 62
7
  6
CONTINUOUS
 10
-2.4414240723
 20
-54.9864708406
 11
-2.6033337432
 21
-55.1968563279
  0
LINE
  5
42A
100
AcDbEntity
  8
0
100
AcDbLine
 62
7
  6
CONTINUOUS
 10
-2.6033337432
 20
-55.1968563279
 11
-2.6367314157
 21
-55.2402531003
  0
LINE
  5
42B
100
AcDbEntity
  8
0
100
AcDbLine
 62
7
  6
CONTINUOUS
 10
-2.6367314157
 20
-55.2402531003
 11
-2.6922891552
 21
-55.3124444153
  0
LINE
  5
42C
100
AcDbEntity
  8
0
100
AcDbLine
 62
7
  6
CONTINUOUS
 10
-2.6922891552
 20
-55.3124444153
 11
-2.7243071913
 21
-55.3540483327
  0
LINE
  5
42D
100
AcDbEntity
  8
0
100
AcDbLine
 62
7
  6
CONTINUOUS
 10
-1.2226037056
 20
-55.165327026
 11
-1.2549030306
 21
-55.2071604018
  0
LINE
  5
42E
100
AcDbEntity
  8
0
100
AcDbLine
 62
7
  6
CONTINUOUS
 10
-1.187574111
 20
-55.1199575041
 11
-1.2226037056
 21
-55.165327026
  0
LINE
  5
42F
100
AcDbEntity
  8
0
100
AcDbLine
 62
7
  6
CONTINUOUS
 10
-1.1202576658
 20
-55.0327709183
 11
-1.187574111
 21
-55.1199575041
  0
LINE
  5
430
100
AcDbEntity
  8
0
100
AcDbLine
 62
7
  6
CONTINUOUS
 10
-0.9856621792
 20
-54.8584466977
 11
-1.1202576658
 21
-55.0327709183
  0
LINE
  5
431
100
AcDbEntity
  8
0
100
AcDbLine
 62
7
  6
CONTINUOUS
 10
-0.8511165314
 20
-54.6841877705
 11
-0.9856621792
 21
-54.8584466977
  0
LINE
  5
432
100
AcDbEntity
  8
0
100
AcDbLine
 62
7
  6
CONTINUOUS
 10
-1.6369177889
 20
-55.6724117603
 11
-1.7632990229
 21
-55.8345450183
  0
LINE
  5
433
100
AcDbEntity
  8
0
100
AcDbLine
 62
7
  6
CONTINUOUS
 10
-1.5105705897
 20
-55.5103224498
 11
-1.6369177889
 21
-55.6724117603
  0
LINE
  5
434
100
AcDbEntity
  8
0
100
AcDbLine
 62
7
  6
CONTINUOUS
 10
-4.4218134497
 20
-53.8007282577
 11
-3.4906771064
 21
-52.6397195714
  0
LINE
  5
435
100
AcDbEntity
  8
0
100
AcDbLine
 62
7
  6
CONTINUOUS
 10
-3.7110023862
 20
-52.9820951138
 11
-3.4519504391
 21
-52.6590752387
  0
LINE
  5
436
100
AcDbEntity
  8
0
100
AcDbLine
 62
7
  6
CONTINUOUS
 10
-4.0213788881
 20
-53.3690970717
 11
-3.7110023862
 21
-52.9820951138
  0
LINE
  5
437
100
AcDbEntity
  8
0
100
AcDbLine
 62
7
  6
CONTINUOUS
 10
-4.3312448356
 20
-53.7554439507
 11
-4.0213788881
 21
-53.3690970717
  0
LINE
  5
438
100
AcDbEntity
  8
0
100
AcDbLine
 62
7
  6
CONTINUOUS
 10
-35.0113077136
 20
44.636003229
 11
-35.0722178105
 21
44.6055481806
  0
LINE
  5
439
100
AcDbEntity
  8
0
100
AcDbLine
 62
7
  6
CONTINUOUS
 10
32.0866517483
 20
-70.1870380523
 11
32.029928858
 21
-70.2840606978
  0
LWPOLYLINE
  5
43A
100
AcDbEntity
  8
0
100
AcDbPolyline
 62
7
  6
CONTINUOUS
 90
12
 70
0
 10
32.029928858
 20
-70.2840606978
 10
32.0157911281
 20
-70.308030996
 10
32.0014686594
 20
-70.3318956648
 10
31.9869620163
 20
-70.355652739
 10
31.9722717632
 20
-70.3793002535
 10
31.9573984646
 20
-70.4028362433
 10
31.9423426847
 20
-70.4262587433
 10
31.927104988
 20
-70.4495657883
 10
31.911685939
 20
-70.4727554132
 10
31.896086102
 20
-70.495825653
 10
31.8803060414
 20
-70.5187745426
 10
31.8643463216
 20
-70.5416001168
  0
LINE
  5
43B
100
AcDbEntity
  8
0
100
AcDbLine
 62
7
  6
CONTINUOUS
 10
-2.0195403313
 20
-55.7063988004
 11
-1.480046886
 21
-55.0280914605
  0
LINE
  5
43C
100
AcDbEntity
  8
0
100
AcDbLine
 62
7
  6
CONTINUOUS
 10
-1.480046886
 20
-55.0280914605
 11
-1.4447352546
 21
-54.9836940592
  0
LINE
  5
43D
100
AcDbEntity
  8
0
100
AcDbLine
 62
7
  6
CONTINUOUS
 10
-1.4447352546
 20
-54.9836940592
 11
-1.2820060312
 21
-54.7790944363
  0
LINE
  5
43E
100
AcDbEntity
  8
0
100
AcDbLine
 62
7
  6
CONTINUOUS
 10
-1.2820060312
 20
-54.7790944363
 11
-1.0688098442
 21
-54.511043413
  0
LINE
  5
43F
100
AcDbEntity
  8
0
100
AcDbLine
 62
7
  6
CONTINUOUS
 10
-1.0688098442
 20
-54.511043413
 11
-1.0116720559
 21
-54.4392044037
  0
LINE
  5
440
100
AcDbEntity
  8
0
100
AcDbLine
 62
7
  6
CONTINUOUS
 10
-1.0116720559
 20
-54.4392044037
 11
-0.6928934431
 21
-54.0384077597
  0
LINE
  5
441
100
AcDbEntity
  8
0
100
AcDbLine
 62
7
  6
CONTINUOUS
 10
-1.9290009848
 20
-55.6611291272
 11
-1.3388643562
 21
-54.9191483725
  0
LINE
  5
442
100
AcDbEntity
  8
0
100
AcDbLine
 62
7
  6
CONTINUOUS
 10
-1.3388643562
 20
-54.9191483725
 11
-1.1914592156
 21
-54.7338158841
  0
LINE
  5
443
100
AcDbEntity
  8
0
100
AcDbLine
 62
7
  6
CONTINUOUS
 10
-1.1914592156
 20
-54.7338158841
 11
-1.035406345
 21
-54.5376110618
  0
LINE
  5
444
100
AcDbEntity
  8
0
100
AcDbLine
 62
7
  6
CONTINUOUS
 10
-1.035406345
 20
-54.5376110618
 11
-0.9782685568
 21
-54.4657720292
  0
LINE
  5
445
100
AcDbEntity
  8
0
100
AcDbLine
 62
7
  6
CONTINUOUS
 10
-0.9782685568
 20
-54.4657720292
 11
-0.8968032021
 21
-54.3633462307
  0
LINE
  5
446
100
AcDbEntity
  8
0
100
AcDbLine
 62
7
  6
CONTINUOUS
 10
-0.8968032021
 20
-54.3633462307
 11
-0.6538770411
 21
-54.0579181679
  0
LINE
  5
447
100
AcDbEntity
  8
0
100
AcDbLine
 62
7
  6
CONTINUOUS
 10
-3.2343616358
 20
-52.7678287081
 11
-3.3834821349
 21
-52.9531830569
  0
LINE
  5
448
100
AcDbEntity
  8
0
100
AcDbLine
 62
7
  6
CONTINUOUS
 10
-3.3834821349
 20
-52.9531830569
 11
-3.532489492
 21
-53.138393288
  0
LINE
  5
449
100
AcDbEntity
  8
0
100
AcDbLine
 62
7
  6
CONTINUOUS
 10
-3.532489492
 20
-53.138393288
 11
-3.8301649744
 21
-53.5083812081
  0
LINE
  5
44A
100
AcDbEntity
  8
0
100
AcDbLine
 62
7
  6
CONTINUOUS
 10
-3.8301649744
 20
-53.5083812081
 11
-3.9788332039
 21
-53.6931588133
  0
LINE
  5
44B
100
AcDbEntity
  8
0
100
AcDbLine
 62
7
  6
CONTINUOUS
 10
-3.9788332039
 20
-53.6931588133
 11
-4.1477442691
 21
-53.9030911761
  0
LINE
  5
44C
100
AcDbEntity
  8
0
100
AcDbLine
 62
7
  6
CONTINUOUS
 10
-4.1477442691
 20
-53.9030911761
 11
-4.2054536434
 21
-53.9748145054
  0
LINE
  5
44D
100
AcDbEntity
  8
0
100
AcDbLine
 62
7
  6
CONTINUOUS
 10
-4.2054536434
 20
-53.9748145054
 11
-4.2758310735
 21
-54.0622813225
  0
LINE
  5
44E
100
AcDbEntity
  8
0
100
AcDbLine
 62
7
  6
CONTINUOUS
 10
-4.2758310735
 20
-54.0622813225
 11
-4.5513267873
 21
-54.4046651611
  0
LINE
  5
44F
100
AcDbEntity
  8
0
100
AcDbLine
 62
7
  6
CONTINUOUS
 10
-4.5513267873
 20
-54.4046651611
 11
-4.5723778273
 21
-54.4308266151
  0
LWPOLYLINE
  5
450
100
AcDbEntity
  8
0
100
AcDbPolyline
 62
7
  6
CONTINUOUS
 90
57
 70
0
 10
0.5699749184
 20
-55.5001961567
 10
0.5762225061
 20
-55.4927795062
 10
0.5822593931
 20
-55.4851952439
 10
0.588085395
 20
-55.4774504869
 10
0.5937003272
 20
-55.4695523523
 10
0.5991040054
 20
-55.4615079571
 10
0.604296245
 20
-55.4533244185
 10
0.6092768616
 20
-55.4450088535
 10
0.6140456708
 20
-55.4365683791
 10
0.618602488
 20
-55.4280101124
 10
0.6229471289
 20
-55.4193411706
 10
0.6272410567
 20
-55.4102113769
 10
0.6312989375
 20
-55.4009747695
 10
0.6351146082
 20
-55.3916366379
 10
0.6386819059
 20
-55.3822022717
 10
0.6419946674
 20
-55.3726769603
 10
0.6450467298
 20
-55.3630659935
 10
0.64783193
 20
-55.3533746607
 10
0.6503441051
 20
-55.3436082515
 10
0.6525770919
 20
-55.3337720555
 10
0.6545247275
 20
-55.3238713622
 10
0.6561808488
 20
-55.3139114613
 10
0.6575392928
 20
-55.3038976423
 10
0.6585938966
 20
-55.2938351946
 10
0.6593384969
 20
-55.283729408
 10
0.6596767327
 20
-55.2764711841
 10
0.6598445209
 20
-55.2692012308
 10
0.6598334882
 20
-55.2619273239
 10
0.6596352616
 20
-55.2546572393
 10
0.6592414676
 20
-55.2473987524
 10
0.6586437332
 20
-55.2401596392
 10
0.6578336851
 20
-55.2329476754
 10
0.65680295
 20
-55.2257706366
 10
0.6555431547
 20
-55.2186362986
 10
0.6540459261
 20
-55.2115524372
 10
0.6523028909
 20
-55.204526828
 10
0.6503056758
 20
-55.1975672468
 10
0.6480459076
 20
-55.1906814693
 10
0.6455152131
 20
-55.1838772713
 10
0.6427052192
 20
-55.1771624284
 10
0.6396075524
 20
-55.1705447165
 10
0.6369828989
 20
-55.1654482501
 10
0.6341807159
 20
-55.1604282916
 10
0.6312041973
 20
-55.155497308
 10
0.6280565371
 20
-55.1506677661
 10
0.6247409291
 20
-55.1459521329
 10
0.6212605674
 20
-55.1413628753
 10
0.6176186457
 20
-55.1369124601
 10
0.6138183581
 20
-55.1326133544
 10
0.6098628984
 20
-55.128478025
 10
0.6057554606
 20
-55.1245189388
 10
0.6014992385
 20
-55.1207485627
 10
0.5970974261
 20
-55.1171793638
 10
0.5925532174
 20
-55.1138238087
 10
0.5878698061
 20
-55.1106943646
 10
0.5830503863
 20
-55.1078034982
 10
0.5780981519
 20
-55.1051636766
  0
LWPOLYLINE
  5
451
100
AcDbEntity
  8
0
100
AcDbPolyline
 62
7
  6
CONTINUOUS
 90
19
 70
0
 10
31.9580046003
 20
-70.5451389262
 10
31.9327996121
 20
-70.5817428287
 10
31.9071693473
 20
-70.618065936
 10
31.8811122327
 20
-70.6540981982
 10
31.8546266949
 20
-70.6898295652
 10
31.8277111606
 20
-70.7252499872
 10
31.8003640566
 20
-70.7603494142
 10
31.7725838095
 20
-70.7951177962
 10
31.7443688461
 20
-70.8295450833
 10
31.7157175929
 20
-70.8636212254
 10
31.6866284768
 20
-70.8973361727
 10
31.6570999243
 20
-70.9306798752
 10
31.6271303623
 20
-70.9636422829
 10
31.5967182173
 20
-70.9962133459
 10
31.5658619161
 20
-71.0283830142
 10
31.5345598854
 20
-71.0601412378
 10
31.5028105519
 20
-71.0914779668
 10
31.4706123422
 20
-71.1223831513
 10
31.4379636831
 20
-71.1528467412
  0
LWPOLYLINE
  5
452
100
AcDbEntity
  8
0
100
AcDbPolyline
 62
7
  6
CONTINUOUS
 90
13
 70
0
 10
31.8643463216
 20
-70.5416001168
 10
31.8495187451
 20
-70.5624701095
 10
31.8345402965
 20
-70.5832327315
 10
31.8194114141
 20
-70.6038864567
 10
31.8041325362
 20
-70.6244297591
 10
31.7887041009
 20
-70.6448611126
 10
31.7731265468
 20
-70.6651789913
 10
31.757333533
 20
-70.6854667195
 10
31.7413902534
 20
-70.7056361906
 10
31.7252963799
 20
-70.7256851207
 10
31.7090515842
 20
-70.7456112259
 10
31.6926555382
 20
-70.7654122221
 10
31.6761079137
 20
-70.7850858255
  0
LWPOLYLINE
  5
453
100
AcDbEntity
  8
0
100
AcDbPolyline
 62
7
  6
CONTINUOUS
 90
31
 70
0
 10
35.3701223568
 20
-73.5664905141
 10
35.376495642
 20
-73.5575292255
 10
35.3827143168
 20
-73.5484548657
 10
35.3887748922
 20
-73.5392702075
 10
35.3946738789
 20
-73.5299780235
 10
35.4004077878
 20
-73.5205810865
 10
35.4059731298
 20
-73.5110821693
 10
35.4113664158
 20
-73.5014840447
 10
35.4165841564
 20
-73.4917894852
 10
35.4216228627
 20
-73.4820012638
 10
35.4257885191
 20
-73.4735547209
 10
35.4298161633
 20
-73.4650423842
 10
35.4337013783
 20
-73.4564649853
 10
35.437439747
 20
-73.4478232552
 10
35.4410268523
 20
-73.4391179252
 10
35.4444582771
 20
-73.4303497267
 10
35.4477296045
 20
-73.4215193908
 10
35.4508364172
 20
-73.4126276488
 10
35.4537742983
 20
-73.403675232
 10
35.4565388307
 20
-73.3946628717
 10
35.4586740184
 20
-73.3872242944
 10
35.4606837549
 20
-73.3797484688
 10
35.4625622661
 20
-73.3722380099
 10
35.4643037778
 20
-73.3646955327
 10
35.4659025159
 20
-73.3571236525
 10
35.4673527063
 20
-73.3495249842
 10
35.4686485749
 20
-73.341902143
 10
35.4697843474
 20
-73.3342577439
 10
35.4707542499
 20
-73.326594402
 10
35.4715525081
 20
-73.3189147324
 10
35.472173348
 20
-73.3112213501
  0
LWPOLYLINE
  5
454
100
AcDbEntity
  8
0
100
AcDbPolyline
 62
7
  6
CONTINUOUS
 90
9
 70
0
 10
0.7326215053
 20
-55.7770757185
 10
0.7292517762
 20
-55.7805918475
 10
0.7258611702
 20
-55.7840887067
 10
0.7224496686
 20
-55.7875659025
 10
0.7190172527
 20
-55.7910230411
 10
0.7155639036
 20
-55.7944597289
 10
0.7120896029
 20
-55.7978755723
 10
0.7085943317
 20
-55.8012701776
 10
0.7050780713
 20
-55.8046431511
  0
LINE
  5
455
100
AcDbEntity
  8
0
100
AcDbLine
 62
7
  6
CONTINUOUS
 10
44.0181290218
 20
40.137203111
 11
45.2931172616
 21
40.8541693389
  0
LWPOLYLINE
  5
456
100
AcDbEntity
  8
0
100
AcDbPolyline
 62
7
  6
CONTINUOUS
 90
5
 70
0
 10
45.2931172616
 20
40.8541693389
 10
45.3803395371
 20
40.9030529429
 10
45.4674238214
 20
40.9521821548
 10
45.5546433673
 20
41.0017111353
 10
45.6417238103
 20
41.0514840791
  0
LINE
  5
457
100
AcDbEntity
  8
0
100
AcDbLine
 62
7
  6
CONTINUOUS
 10
47.9492316761
 20
42.1978370213
 11
46.0400433669
 21
41.2432428667
  0
LWPOLYLINE
  5
458
100
AcDbEntity
  8
0
100
AcDbPolyline
 62
7
  6
CONTINUOUS
 90
29
 70
0
 10
51.2114454793
 20
-85.5694611376
 10
51.2568940211
 20
-85.495466637
 10
51.3009287365
 20
-85.4206218484
 10
51.3435579388
 20
-85.3449769593
 10
51.3847899412
 20
-85.2685821567
 10
51.4246330568
 20
-85.1914876281
 10
51.4688916645
 20
-85.1017264887
 10
51.5113417779
 20
-85.011140699
 10
51.5520127738
 20
-84.9197702992
 10
51.590934029
 20
-84.8276553297
 10
51.6281349206
 20
-84.7348358305
 10
51.6636448255
 20
-84.6413518419
 10
51.6974931205
 20
-84.5472434042
 10
51.7297091825
 20
-84.4525505574
 10
51.7603223885
 20
-84.3573133418
 10
51.7893621154
 20
-84.2615717977
 10
51.8168577401
 20
-84.1653659652
 10
51.8428386394
 20
-84.0687358845
 10
51.8673341904
 20
-83.9717215958
 10
51.8903737699
 20
-83.8743631395
 10
51.914659161
 20
-83.7641321346
 10
51.9371599948
 20
-83.653543542
 10
51.9579083067
 20
-83.5426270432
 10
51.9769361324
 20
-83.4314123196
 10
51.9942755075
 20
-83.3199290526
 10
52.0099584675
 20
-83.2082069235
 10
52.024017048
 20
-83.096275614
 10
52.0364832846
 20
-82.9841648052
 10
52.047389213
 20
-82.8719041787
  0
LWPOLYLINE
  5
459
100
AcDbEntity
  8
0
100
AcDbPolyline
 62
7
  6
CONTINUOUS
 90
10
 70
0
 10
0.7050780713
 20
-55.8046431511
 10
0.701936011
 20
-55.8076217967
 10
0.6987773508
 20
-55.8105827759
 10
0.6956020775
 20
-55.8135258125
 10
0.6924101781
 20
-55.8164506303
 10
0.6892016393
 20
-55.8193569532
 10
0.6859764482
 20
-55.822244505
 10
0.6827345914
 20
-55.8251130095
 10
0.679476056
 20
-55.8279621905
 10
0.6762008288
 20
-55.8307917718
  0
LINE
  5
45A
100
AcDbEntity
  8
0
100
AcDbLine
 62
7
  6
CONTINUOUS
 10
30.1341685496
 20
32.4817864607
 11
30.053916971
 21
32.4416606714
  0
LWPOLYLINE
  5
45B
100
AcDbEntity
  8
0
100
AcDbPolyline
 62
7
  6
CONTINUOUS
 90
13
 70
0
 10
31.6761079137
 20
-70.7850858255
 10
31.6595185196
 20
-70.8045018641
 10
31.6427788851
 20
-70.8237876839
 10
31.6258886886
 20
-70.8429410455
 10
31.6088476083
 20
-70.8619597099
 10
31.5916553224
 20
-70.8808414376
 10
31.5743115093
 20
-70.8995839894
 10
31.556815847
 20
-70.9181851262
 10
31.5391680139
 20
-70.9366426086
 10
31.5213676883
 20
-70.9549541974
 10
31.5034145482
 20
-70.9731176534
 10
31.4853082721
 20
-70.9911307373
 10
31.4670485382
 20
-71.0089912098
  0
LWPOLYLINE
  5
45C
100
AcDbEntity
  8
0
100
AcDbPolyline
 62
7
  6
CONTINUOUS
 90
21
 70
0
 10
0.6762008288
 20
-55.8307917718
 10
0.6700359074
 20
-55.8360256854
 10
0.6638125714
 20
-55.8411883961
 10
0.6575307352
 20
-55.8462781018
 10
0.651190313
 20
-55.8512930006
 10
0.6447912194
 20
-55.8562312905
 10
0.6383333686
 20
-55.8610911695
 10
0.631816675
 20
-55.8658708355
 10
0.625241053
 20
-55.8705684867
 10
0.6186064169
 20
-55.8751823211
 10
0.6119126812
 20
-55.8797105365
 10
0.6051597601
 20
-55.8841513311
 10
0.5983475681
 20
-55.8885029028
 10
0.5914760195
 20
-55.8927634496
 10
0.5845450286
 20
-55.8969311697
 10
0.5775545099
 20
-55.9010042609
 10
0.5705043777
 20
-55.9049809212
 10
0.5633945464
 20
-55.9088593487
 10
0.5562249303
 20
-55.9126377415
 10
0.5522006922
 20
-55.9147007161
 10
0.5481582022
 20
-55.9167315987
  0
LINE
  5
45D
100
AcDbEntity
  8
0
100
AcDbLine
 62
7
  6
CONTINUOUS
 10
53.9881783151
 20
31.6603974203
 11
52.0789900059
 21
30.7058032656
  0
LINE
  5
45E
100
AcDbEntity
  8
0
100
AcDbLine
 62
7
  6
CONTINUOUS
 10
-35.0108672216
 20
-16.8515801937
 11
-35.0722178105
 21
-16.8822554881
  0
LINE
  5
45F
100
AcDbEntity
  8
0
100
AcDbLine
 62
7
  6
CONTINUOUS
 10
54.206533978
 20
23.0960858703
 11
52.7923204157
 21
22.3889790891
  0
LINE
  5
460
100
AcDbEntity
  8
0
100
AcDbLine
 62
7
  6
CONTINUOUS
 10
32.2438797084
 20
11.0177420492
 11
32.1925612624
 21
10.9920828262
  0
LINE
  5
461
100
AcDbEntity
  8
0
100
AcDbLine
 62
7
  6
CONTINUOUS
 10
51.3244840587
 20
30.3239810757
 11
49.9809960442
 21
29.7159174265
  0
LWPOLYLINE
  5
462
100
AcDbEntity
  8
0
100
AcDbPolyline
 62
7
  6
CONTINUOUS
 90
5
 70
0
 10
51.6926550357
 20
30.4890393089
 10
51.6003049209
 20
30.4480744689
 10
51.5080628542
 20
30.4068666962
 10
51.4162185398
 20
30.3655454099
 10
51.3244840587
 20
30.3239810757
  0
LWPOLYLINE
  5
463
100
AcDbEntity
  8
0
100
AcDbPolyline
 62
7
  6
CONTINUOUS
 90
32
 70
0
 10
-44.4365415393
 20
84.9590221484
 10
-44.3507017713
 20
84.97872915
 10
-44.2643560162
 20
84.9963627232
 10
-44.1775611976
 20
85.0119451471
 10
-44.0903742392
 20
85.025498701
 10
-44.0028520648
 20
85.037045664
 10
-43.915051598
 20
85.0466083153
 10
-43.8270297626
 20
85.0542089342
 10
-43.7388434823
 20
85.0598697999
 10
-43.6505496808
 20
85.0636131915
 10
-43.5622052818
 20
85.0654613882
 10
-43.4738672091
 20
85.0654366693
 10
-43.3855923862
 20
85.063561314
 10
-43.297437737
 20
85.0598576015
 10
-43.2052550672
 20
85.0540428768
 10
-43.1132862888
 20
85.0462896157
 10
-43.0215508712
 20
85.036642041
 10
-42.9300682836
 20
85.0251443753
 10
-42.8388579955
 20
85.0118408417
 10
-42.747939476
 20
84.9967756629
 10
-42.6573321947
 20
84.9799930618
 10
-42.5670556208
 20
84.9615372612
 10
-42.4771292236
 20
84.9414524838
 10
-42.3875724725
 20
84.9197829527
 10
-42.2984048368
 20
84.8965728905
 10
-42.2096457859
 20
84.8718665201
 10
-42.121314789
 20
84.8457080644
 10
-42.0334313156
 20
84.8181417462
 10
-41.9460148349
 20
84.7892117883
 10
-41.8590848163
 20
84.7589624135
 10
-41.7726607291
 20
84.7274378447
 10
-41.6867620427
 20
84.6946823047
  0
LWPOLYLINE
  5
464
100
AcDbEntity
  8
0
100
AcDbPolyline
 62
7
  6
CONTINUOUS
 90
35
 70
0
 10
48.8794202172
 20
-86.8199632275
 10
48.9412548221
 20
-86.7384896271
 10
49.0010402839
 20
-86.6555080572
 10
49.0587898834
 20
-86.5710966329
 10
49.1145169018
 20
-86.4853334696
 10
49.1682346198
 20
-86.3982966825
 10
49.2199563185
 20
-86.3100643868
 10
49.2696952789
 20
-86.2207146978
 10
49.317464782
 20
-86.1303257307
 10
49.3668148927
 20
-86.031723537
 10
49.413931425
 20
-85.9320712949
 10
49.4588578874
 20
-85.8314377971
 10
49.5016377882
 20
-85.7298918366
 10
49.5423146359
 20
-85.6275022064
 10
49.5809319389
 20
-85.5243376992
 10
49.6187188769
 20
-85.4169852799
 10
49.6543975162
 20
-85.3089138062
 10
49.6891268652
 20
-85.196424582
 10
49.7216916658
 20
-85.0832658877
 10
49.7521350713
 20
-84.9695000829
 10
49.7805002348
 20
-84.8551895273
 10
49.8068303095
 20
-84.7403965803
 10
49.8311684485
 20
-84.6251836016
 10
49.8520533253
 20
-84.5177011388
 10
49.8712809367
 20
-84.409928424
 10
49.8888797363
 20
-84.3018845957
 10
49.9070686833
 20
-84.1779283662
 10
49.923264637
 20
-84.0536887615
 10
49.9361795761
 20
-83.9418234504
 10
49.9474893586
 20
-83.8297863145
 10
49.9571153591
 20
-83.7175967377
 10
49.9649179154
 20
-83.6072356891
 10
49.971307504
 20
-83.4967784153
 10
49.9765726481
 20
-83.3862571491
 10
49.981001871
 20
-83.2757041236
  0
LINE
  5
465
100
AcDbEntity
  8
0
100
AcDbLine
 62
7
  6
CONTINUOUS
 10
52.9008381963
 20
17.5194555667
 11
53.0681385643
 21
17.6031057507
  0
LINE
  5
466
100
AcDbEntity
  8
0
100
AcDbLine
 62
7
  6
CONTINUOUS
 10
54.3413416968
 20
16.9665041844
 11
52.9271281345
 21
16.2593974032
  0
LWPOLYLINE
  5
467
100
AcDbEntity
  8
0
100
AcDbPolyline
 62
7
  6
CONTINUOUS
 90
10
 70
0
 10
31.4670485382
 20
-71.0089912098
 10
31.4550484403
 20
-71.020564308
 10
31.4429826082
 20
-71.0320701317
 10
31.4308508102
 20
-71.0435073649
 10
31.4186528141
 20
-71.0548746916
 10
31.406388388
 20
-71.0661707955
 10
31.3940573
 20
-71.0773943607
 10
31.3816593181
 20
-71.0885440711
 10
31.3691942104
 20
-71.0996186105
 10
31.3566617449
 20
-71.1106166628
  0
LWPOLYLINE
  5
468
100
AcDbEntity
  8
0
100
AcDbPolyline
 62
7
  6
CONTINUOUS
 90
21
 70
0
 10
31.4379636831
 20
-71.1528467412
 10
31.415491359
 20
-71.1733154007
 10
31.3928096237
 20
-71.193565119
 10
31.3699183256
 20
-71.2135860396
 10
31.3468173134
 20
-71.233368306
 10
31.3235064355
 20
-71.2529020616
 10
31.2999855406
 20
-71.27217745
 10
31.2762544772
 20
-71.2911846147
 10
31.2523130938
 20
-71.3099136992
 10
31.2281612389
 20
-71.3283548469
 10
31.2037987613
 20
-71.3464982014
 10
31.1792255093
 20
-71.3643339062
 10
31.1544413315
 20
-71.3818521047
 10
31.1294460765
 20
-71.3990429405
 10
31.1042395929
 20
-71.4158965571
 10
31.0788217292
 20
-71.4324030979
 10
31.0531923339
 20
-71.4485527064
 10
31.0273512556
 20
-71.4643355263
 10
31.0012983429
 20
-71.4797417008
 10
30.9750334442
 20
-71.4947613736
 10
30.9485564082
 20
-71.5093846882
  0
LINE
  5
469
100
AcDbEntity
  8
0
100
AcDbLine
 62
7
  6
CONTINUOUS
 10
-30.6623530438
 20
-35.9901287487
 11
-32.8406618929
 21
-37.1036624576
  0
LINE
  5
46A
100
AcDbEntity
  8
0
100
AcDbLine
 62
7
  6
CONTINUOUS
 10
-34.552846527
 20
-36.8700577233
 11
-34.7124963073
 21
-36.9498826134
  0
LINE
  5
46B
100
AcDbEntity
  8
0
100
AcDbLine
 62
7
  6
CONTINUOUS
 10
-34.4668352927
 20
-39.2529449181
 11
-34.5476337453
 21
-39.2933441444
  0
LWPOLYLINE
  5
46C
100
AcDbEntity
  8
0
100
AcDbPolyline
 62
7
  6
CONTINUOUS
 90
21
 70
0
 10
31.3566617449
 20
-71.1106166628
 10
31.334533271
 20
-71.1297041524
 10
31.3121959222
 20
-71.1485455562
 10
31.2896484497
 20
-71.1671337885
 10
31.2668896046
 20
-71.1854617636
 10
31.2439181382
 20
-71.2035223957
 10
31.2207328015
 20
-71.2213085991
 10
31.1973323457
 20
-71.2388132879
 10
31.1737155219
 20
-71.2560293765
 10
31.1498810814
 20
-71.272949779
 10
31.1258277752
 20
-71.2895674098
 10
31.1040413681
 20
-71.304224734
 10
31.0820774245
 20
-71.3186218121
 10
31.0599358947
 20
-71.3327482486
 10
31.0376167295
 20
-71.3465936478
 10
31.0151198792
 20
-71.3601476144
 10
30.9924452946
 20
-71.3733997528
 10
30.9695929261
 20
-71.3863396674
 10
30.9465627243
 20
-71.3989569628
 10
30.9233546397
 20
-71.4112412434
 10
30.8999686229
 20
-71.4231821136
  0
LINE
  5
46D
100
AcDbEntity
  8
0
100
AcDbLine
 62
7
  6
CONTINUOUS
 10
-4.4218134497
 20
-53.8007282577
 11
-4.3312448356
 21
-53.7554439507
  0
LINE
  5
46E
100
AcDbEntity
  8
0
100
AcDbLine
 62
7
  6
CONTINUOUS
 10
-4.8181548302
 20
-54.3081260307
 11
-4.7275833995
 21
-54.2628403153
  0
LWPOLYLINE
  5
46F
100
AcDbEntity
  8
0
100
AcDbPolyline
 62
7
  6
CONTINUOUS
 90
16
 70
0
 10
50.0801759691
 20
-86.6257996409
 10
50.0520849645
 20
-86.6500464817
 10
50.0237540975
 20
-86.674011696
 10
49.9951860782
 20
-86.697691375
 10
49.9663836166
 20
-86.7210816099
 10
49.9373494228
 20
-86.7441784918
 10
49.9080862068
 20
-86.7669781119
 10
49.8785966786
 20
-86.7894765613
 10
49.8488835483
 20
-86.8116699313
 10
49.8189495259
 20
-86.8335543131
 10
49.7887973215
 20
-86.8551257976
 10
49.758429645
 20
-86.8763804763
 10
49.7278492066
 20
-86.8973144402
 10
49.6970587162
 20
-86.9179237804
 10
49.6660608839
 20
-86.9382045882
 10
49.6348584198
 20
-86.9581529548
  0
LWPOLYLINE
  5
470
100
AcDbEntity
  8
0
100
AcDbPolyline
 62
7
  6
CONTINUOUS
 90
29
 70
0
 10
0.5739642523
 20
-55.5246194716
 10
0.5784989672
 20
-55.5222750733
 10
0.5829809933
 20
-55.5198244714
 10
0.5874099124
 20
-55.5172717487
 10
0.5917853063
 20
-55.5146209876
 10
0.5961067568
 20
-55.5118762707
 10
0.6003738458
 20
-55.5090416808
 10
0.604586155
 20
-55.5061213003
 10
0.6087432664
 20
-55.5031192119
 10
0.6128447616
 20
-55.5000394982
 10
0.6168902225
 20
-55.4968862418
 10
0.6208792309
 20
-55.4936635253
 10
0.6248113686
 20
-55.4903754312
 10
0.6286862174
 20
-55.4870260423
 10
0.6333847763
 20
-55.4828167524
 10
0.6379955448
 20
-55.4785224013
 10
0.642518473
 20
-55.4741449157
 10
0.6469535108
 20
-55.4696862223
 10
0.6513006081
 20
-55.4651482478
 10
0.6555597149
 20
-55.460532919
 10
0.6597307812
 20
-55.4558421627
 10
0.6638137569
 20
-55.4510779055
 10
0.6678085919
 20
-55.4462420743
 10
0.6717152362
 20
-55.4413365957
 10
0.6755336398
 20
-55.4363633965
 10
0.6792637525
 20
-55.4313244034
 10
0.6829055244
 20
-55.4262215433
 10
0.6864589054
 20
-55.4210567427
 10
0.6899238454
 20
-55.4158319285
  0
LWPOLYLINE
  5
471
100
AcDbEntity
  8
0
100
AcDbPolyline
 62
7
  6
CONTINUOUS
 90
26
 70
0
 10
0.4834028308
 20
-55.5699001957
 10
0.4870911403
 20
-55.5680036606
 10
0.4907447206
 20
-55.5660365129
 10
0.4943633475
 20
-55.5640009424
 10
0.4979467967
 20
-55.5618991387
 10
0.501494844
 20
-55.5597332916
 10
0.5050072651
 20
-55.5575055908
 10
0.5084838357
 20
-55.5552182261
 10
0.5119243316
 20
-55.5528733872
 10
0.5153285285
 20
-55.5504732639
 10
0.5186962021
 20
-55.5480200457
 10
0.5220271282
 20
-55.5455159226
 10
0.5253210825
 20
-55.5429630842
 10
0.5285778407
 20
-55.5403637202
 10
0.5317971786
 20
-55.5377200205
 10
0.534978872
 20
-55.5350341746
 10
0.5381226965
 20
-55.5323083724
 10
0.5418865462
 20
-55.5289496666
 10
0.5455942769
 20
-55.525536333
 10
0.5492458633
 20
-55.5220693567
 10
0.5528412796
 20
-55.5185497226
 10
0.5563805005
 20
-55.5149784156
 10
0.5598635003
 20
-55.5113564205
 10
0.5632902536
 20
-55.5076847224
 10
0.5666607348
 20
-55.5039643062
 10
0.5699749184
 20
-55.5001961567
  0
LINE
  5
472
100
AcDbEntity
  8
0
100
AcDbLine
 62
7
  6
CONTINUOUS
 10
-2.6225919374
 20
-53.8768554942
 11
-2.532047896
 21
-53.8315834735
  0
LINE
  5
473
100
AcDbEntity
  8
0
100
AcDbLine
 62
7
  6
CONTINUOUS
 10
-3.963359172
 20
-54.7349511083
 11
-3.8728054272
 21
-54.6896742359
  0
LINE
  5
474
100
AcDbEntity
  8
0
100
AcDbLine
 62
7
  6
CONTINUOUS
 10
-3.4826361325
 20
-54.9750899734
 11
-3.3920893075
 21
-54.9298165609
  0
LINE
  5
475
100
AcDbEntity
  8
0
100
AcDbLine
 62
7
  6
CONTINUOUS
 10
-1.8750684834
 20
-54.2505388109
 11
-1.7845290024
 21
-54.2052690704
  0
LINE
  5
476
100
AcDbEntity
  8
0
100
AcDbLine
 62
7
  6
CONTINUOUS
 10
-2.5351627274
 20
-54.6453984417
 11
-2.4446216407
 21
-54.6001278983
  0
LINE
  5
477
100
AcDbEntity
  8
0
100
AcDbLine
 62
7
  6
CONTINUOUS
 10
-2.9806238733
 20
-55.2259398017
 11
-2.8900819288
 21
-55.1806688294
  0
LINE
  5
478
100
AcDbEntity
  8
0
100
AcDbLine
 62
7
  6
CONTINUOUS
 10
-2.4786893899
 20
-55.4768285179
 11
-2.3881499095
 21
-55.4315587777
  0
LINE
  5
479
100
AcDbEntity
  8
0
100
AcDbLine
 62
7
  6
CONTINUOUS
 10
-0.8511165314
 20
-54.6841877705
 11
-0.7605747896
 21
-54.6389168996
  0
LINE
  5
47A
100
AcDbEntity
  8
0
100
AcDbLine
 62
7
  6
CONTINUOUS
 10
-2.0195403313
 20
-55.7063988004
 11
-1.9290009848
 21
-55.6611291272
  0
LINE
  5
47B
100
AcDbEntity
  8
0
100
AcDbLine
 62
7
  6
CONTINUOUS
 10
-1.5105705897
 20
-55.5103224498
 11
-1.4200300843
 21
-55.4650521971
  0
LINE
  5
47C
100
AcDbEntity
  8
0
100
AcDbLine
 62
7
  6
CONTINUOUS
 10
-1.0093548247
 20
-55.3299753847
 11
-0.918812103
 21
-55.2847040239
  0
LINE
  5
47D
100
AcDbEntity
  8
0
100
AcDbLine
 62
7
  6
CONTINUOUS
 10
0.2578442406
 20
-54.9449570419
 11
0.348397716
 21
-54.8996803042
  0
LINE
  5
47E
100
AcDbEntity
  8
0
100
AcDbLine
 62
7
  6
CONTINUOUS
 10
-1.1048936111
 20
-55.7132398415
 11
-1.0143502457
 21
-55.6679681589
  0
LINE
  5
47F
100
AcDbEntity
  8
0
100
AcDbLine
 62
7
  6
CONTINUOUS
 10
0.5780981519
 20
-55.1051636766
 11
0.6686574122
 21
-55.0598840465
  0
LINE
  5
480
100
AcDbEntity
  8
0
100
AcDbLine
 62
7
  6
CONTINUOUS
 10
-1.1975046089
 20
-56.1175704875
 11
-1.1069604428
 21
-56.0722984045
  0
LINE
  5
481
100
AcDbEntity
  8
0
100
AcDbLine
 62
7
  6
CONTINUOUS
 10
-0.1340335268
 20
-55.7678932148
 11
-0.0434798943
 21
-55.7226163986
  0
LINE
  5
482
100
AcDbEntity
  8
0
100
AcDbLine
 62
7
  6
CONTINUOUS
 10
0.0901060736
 20
-55.8800569282
 11
0.1806636711
 21
-55.8347781294
  0
LINE
  5
483
100
AcDbEntity
  8
0
100
AcDbLine
 62
7
  6
CONTINUOUS
 10
-0.7385365776
 20
-56.3472312837
 11
-0.647986904
 21
-56.3019564469
  0
LINE
  5
484
100
AcDbEntity
  8
0
100
AcDbLine
 62
7
  6
CONTINUOUS
 10
-0.0021894769
 20
-56.7158249909
 11
0.0883732106
 21
-56.6705436472
  0
LWPOLYLINE
  5
485
100
AcDbEntity
  8
0
100
AcDbPolyline
 62
7
  6
CONTINUOUS
 90
25
 70
0
 10
0.5481582022
 20
-55.9167315987
 10
0.541549932
 20
-55.9199628502
 10
0.5348959987
 20
-55.9231064082
 10
0.5281979819
 20
-55.9261604656
 10
0.5214574609
 20
-55.9291232156
 10
0.5146760153
 20
-55.9319928512
 10
0.5078552244
 20
-55.9347675654
 10
0.5009966677
 20
-55.9374455515
 10
0.4941019247
 20
-55.9400250023
 10
0.4871725747
 20
-55.942504111
 10
0.4802101972
 20
-55.9448810706
 10
0.4732163717
 20
-55.9471540742
 10
0.4661926776
 20
-55.949321315
 10
0.4591406944
 20
-55.9513809858
 10
0.4520620014
 20
-55.9533312799
 10
0.4449581781
 20
-55.9551703902
 10
0.4378308041
 20
-55.9568965099
 10
0.4306814586
 20
-55.958507832
 10
0.4235117211
 20
-55.9600025496
 10
0.4163231712
 20
-55.9613788557
 10
0.4091173882
 20
-55.9626349434
 10
0.4018959515
 20
-55.9637690058
 10
0.3946604407
 20
-55.9647792359
 10
0.3874124351
 20
-55.9656638269
 10
0.3801535142
 20
-55.9664209717
  0
LINE
  5
486
100
AcDbEntity
  8
0
100
AcDbLine
 62
7
  6
CONTINUOUS
 10
32.2443477302
 20
-50.4698276086
 11
32.1925612624
 21
-50.4957208425
  0
LWPOLYLINE
  5
487
100
AcDbEntity
  8
0
100
AcDbPolyline
 62
7
  6
CONTINUOUS
 90
8
 70
0
 10
30.9485564082
 20
-71.5093846882
 10
30.9402869649
 20
-71.5138457988
 10
30.9319970247
 20
-71.5182674018
 10
30.9236865833
 20
-71.5226492016
 10
30.915355636
 20
-71.5269909027
 10
30.9070041782
 20
-71.5312922094
 10
30.8986322055
 20
-71.5355528262
 10
30.8902397133
 20
-71.5397724574
  0
LINE
  5
488
100
AcDbEntity
  8
0
100
AcDbLine
 62
7
  6
CONTINUOUS
 10
32.0965856684
 20
-70.2507322925
 11
32.029928858
 21
-70.2840606978
  0
LINE
  5
489
100
AcDbEntity
  8
0
100
AcDbLine
 62
7
  6
CONTINUOUS
 10
30.1618124548
 20
-71.5435312561
 11
30.0572764664
 21
-71.5957992503
  0
LWPOLYLINE
  5
48A
100
AcDbEntity
  8
0
100
AcDbPolyline
 62
7
  6
CONTINUOUS
 90
12
 70
0
 10
49.6348584198
 20
-86.9581529548
 10
49.6129692215
 20
-86.971871646
 10
49.5909826554
 20
-86.985425287
 10
49.5688996421
 20
-86.9988125504
 10
49.5467211018
 20
-87.0120321088
 10
49.5244479549
 20
-87.0250826346
 10
49.5020811217
 20
-87.0379628005
 10
49.4796215225
 20
-87.0506712789
 10
49.4570700778
 20
-87.0632067423
 10
49.4344277078
 20
-87.0755678634
 10
49.4116953329
 20
-87.0877533146
 10
49.3888738734
 20
-87.0997617685
  0
LWPOLYLINE
  5
48B
100
AcDbEntity
  8
0
100
AcDbPolyline
 62
7
  6
CONTINUOUS
 90
14
 70
0
 10
46.5376633484
 20
-87.1977931357
 10
46.515129605
 20
-87.2116390413
 10
46.4924703378
 20
-87.2252788112
 10
46.4696874868
 20
-87.2387112249
 10
46.4467829918
 20
-87.2519350619
 10
46.4237587925
 20
-87.2649491018
 10
46.4006168288
 20
-87.2777521239
 10
46.3773590404
 20
-87.2903429079
 10
46.3539873673
 20
-87.3027202333
 10
46.3305037491
 20
-87.3148828795
 10
46.3069101258
 20
-87.3268296261
 10
46.2832084371
 20
-87.3385592526
 10
46.2594006228
 20
-87.3500705384
 10
46.2354886228
 20
-87.3613622632
  0
LINE
  5
48C
100
AcDbEntity
  8
0
100
AcDbLine
 62
7
  6
CONTINUOUS
 10
54.3413416968
 20
-67.0379599827
 11
52.9271281345
 21
-67.7450667638
  0
LWPOLYLINE
  5
48D
100
AcDbEntity
  8
0
100
AcDbPolyline
 62
7
  6
CONTINUOUS
 90
18
 70
0
 10
30.8999686229
 20
-71.4231821136
 10
30.8852537457
 20
-71.430470182
 10
30.8704692547
 20
-71.4376173483
 10
30.8556151376
 20
-71.4446210702
 10
30.8406913824
 20
-71.4514788055
 10
30.8256979771
 20
-71.458188012
 10
30.8106349095
 20
-71.4647461473
 10
30.7955021675
 20
-71.4711506694
 10
30.780299739
 20
-71.477399036
 10
30.765027612
 20
-71.4834887048
 10
30.7500044356
 20
-71.4892954692
 10
30.7349157437
 20
-71.494941983
 10
30.719762874
 20
-71.5004226258
 10
30.7045471643
 20
-71.5057317778
 10
30.6892699521
 20
-71.5108638186
 10
30.6739325753
 20
-71.5158131283
 10
30.6585363713
 20
-71.5205740866
 10
30.643082678
 20
-71.5251410735
  0
LINE
  5
48E
100
AcDbEntity
  8
0
100
AcDbLine
 62
7
  6
CONTINUOUS
 10
30.890238804
 20
-71.5397706377
 11
30.8772035692
 21
-71.5462249312
  0
LWPOLYLINE
  5
48F
100
AcDbEntity
  8
0
100
AcDbPolyline
 62
7
  6
CONTINUOUS
 90
13
 70
0
 10
30.8772035692
 20
-71.5462249312
 10
30.8665631179
 20
-71.5513959573
 10
30.8558745516
 20
-71.5564985406
 10
30.8451386321
 20
-71.5615296026
 10
30.8343561215
 20
-71.566486065
 10
30.8235277816
 20
-71.5713648493
 10
30.8126543745
 20
-71.5761628769
 10
30.8017366619
 20
-71.5808770694
 10
30.7907754059
 20
-71.5855043484
 10
30.7797713683
 20
-71.5900416354
 10
30.7687253111
 20
-71.5944858519
 10
30.7576379963
 20
-71.5988339194
 10
30.7465101857
 20
-71.6030827595
  0
LWPOLYLINE
  5
490
100
AcDbEntity
  8
0
100
AcDbPolyline
 62
7
  6
CONTINUOUS
 90
43
 70
0
 10
51.65268985
 20
-85.9808205487
 10
51.7417678482
 20
-85.9347336807
 10
51.8294537685
 20
-85.88609308
 10
51.9156603641
 20
-85.8349343233
 10
52.000300388
 20
-85.7812929875
 10
52.0832865936
 20
-85.7252046492
 10
52.1645317341
 20
-85.6667048853
 10
52.2516037504
 20
-85.5997827679
 10
52.3364615389
 20
-85.5301147934
 10
52.419092877
 20
-85.45781656
 10
52.4994855425
 20
-85.3830036655
 10
52.577627313
 20
-85.305791708
 10
52.6535059659
 20
-85.2262962855
 10
52.7271092791
 20
-85.144632996
 10
52.7984250299
 20
-85.0609174374
 10
52.8674409962
 20
-84.9752652078
 10
52.9341449554
 20
-84.8877919051
 10
52.9985246852
 20
-84.7986131274
 10
53.0605679632
 20
-84.7078444726
 10
53.120262567
 20
-84.6156015387
 10
53.189296726
 20
-84.5022576906
 10
53.2549492751
 20
-84.3870403038
 10
53.3172896813
 20
-84.2700619127
 10
53.3763874116
 20
-84.1514350518
 10
53.4323119331
 20
-84.0312722553
 10
53.4851327128
 20
-83.9096860577
 10
53.5349192177
 20
-83.7867889933
 10
53.581740915
 20
-83.6626935965
 10
53.6256672716
 20
-83.5375124016
 10
53.6667677546
 20
-83.4113579431
 10
53.7051118311
 20
-83.2843427552
 10
53.740768968
 20
-83.1565793724
 10
53.7811982053
 20
-82.9978966912
 10
53.8177360043
 20
-82.8383395895
 10
53.8504836791
 20
-82.6780032982
 10
53.879542544
 20
-82.516983048
 10
53.9050139132
 20
-82.3553740699
 10
53.9269991009
 20
-82.1932715944
 10
53.9455994214
 20
-82.0307708526
 10
53.9609161888
 20
-81.8679670751
 10
53.9730507174
 20
-81.7049554927
 10
53.9821043214
 20
-81.5418313363
 10
53.9881783151
 20
-81.3786898367
  0
LWPOLYLINE
  5
491
100
AcDbEntity
  8
0
100
AcDbPolyline
 62
7
  6
CONTINUOUS
 90
4
 70
0
 10
49.3888738734
 20
-87.0997617685
 10
49.37287236
 20
-87.1080482761
 10
49.3648555538
 20
-87.1121587273
 10
49.3568281003
 20
-87.1162472346
  0
LINE
  5
492
100
AcDbEntity
  8
0
100
AcDbLine
 62
7
  6
CONTINUOUS
 10
52.8227947182
 20
-72.4512731885
 11
52.9332035869
 21
-72.3960687542
  0
LINE
  5
493
100
AcDbEntity
  8
0
100
AcDbLine
 62
7
  6
CONTINUOUS
 10
54.206533978
 20
-73.0327339497
 11
52.7923204157
 21
-73.7398407309
  0
LINE
  5
494
100
AcDbEntity
  8
0
100
AcDbLine
 62
7
  6
CONTINUOUS
 10
53.9881783151
 20
-81.3786898367
 11
52.0789900059
 21
-82.3332839913
  0
LWPOLYLINE
  5
495
100
AcDbEntity
  8
0
100
AcDbPolyline
 62
7
  6
CONTINUOUS
 90
22
 70
0
 10
30.7465101857
 20
-71.6030827595
 10
30.7340928372
 20
-71.6076859589
 10
30.7216274297
 20
-71.6121584922
 10
30.7091150102
 20
-71.6164961298
 10
30.6965566254
 20
-71.6206946423
 10
30.6839533221
 20
-71.6247498001
 10
30.6713061471
 20
-71.6286573736
 10
30.6586161474
 20
-71.6324131334
 10
30.6458843696
 20
-71.6360128498
 10
30.6331118607
 20
-71.6394522935
 10
30.6202996675
 20
-71.6427272347
 10
30.6074488367
 20
-71.645833444
 10
30.5945604152
 20
-71.6487666919
 10
30.5816354498
 20
-71.6515227488
 10
30.5686749874
 20
-71.6540973852
 10
30.5556800747
 20
-71.6564863716
 10
30.5426517586
 20
-71.6586854784
 10
30.5295910859
 20
-71.6606904761
 10
30.5164991035
 20
-71.6624971351
 10
30.5033768581
 20
-71.664101226
 10
30.4902253965
 20
-71.6654985191
 10
30.4770457657
 20
-71.666684785
  0
LWPOLYLINE
  5
496
100
AcDbEntity
  8
0
100
AcDbPolyline
 62
7
  6
CONTINUOUS
 90
11
 70
0
 10
49.3568281003
 20
-87.1162472346
 10
49.3361131677
 20
-87.1266714939
 10
49.3153285959
 20
-87.136948966
 10
49.2944750556
 20
-87.1470786873
 10
49.2735532176
 20
-87.1570596943
 10
49.2525637527
 20
-87.1668910232
 10
49.2315073316
 20
-87.1765717105
 10
49.2103846251
 20
-87.1861007925
 10
49.1891963041
 20
-87.1954773056
 10
49.1679430392
 20
-87.2047002861
 10
49.1466255013
 20
-87.2137687705
  0
LWPOLYLINE
  5
497
100
AcDbEntity
  8
0
100
AcDbPolyline
 62
7
  6
CONTINUOUS
 90
30
 70
0
 10
49.743762519
 20
-86.9366343068
 10
49.7569354218
 20
-86.93001332
 10
49.818764358
 20
-86.8979336809
 10
49.8799057638
 20
-86.8645559043
 10
49.9403422242
 20
-86.8299055812
 10
50.0000563242
 20
-86.7940083027
 10
50.0590306487
 20
-86.7568896597
 10
50.1172477829
 20
-86.7185752433
 10
50.1746903118
 20
-86.6790906445
 10
50.2313408203
 20
-86.6384614543
 10
50.2871818935
 20
-86.5967132638
 10
50.3421961164
 20
-86.553871664
 10
50.396366074
 20
-86.509962246
 10
50.4496743513
 20
-86.4650106006
 10
50.5021035334
 20
-86.419042319
 10
50.5536362052
 20
-86.3720829922
 10
50.6042549519
 20
-86.3241582112
 10
50.6539423583
 20
-86.2752935671
 10
50.7026810096
 20
-86.2255146508
 10
50.754519661
 20
-86.1704503514
 10
50.8052243631
 20
-86.1143711626
 10
50.8548006099
 20
-86.0573102521
 10
50.9032538956
 20
-85.9993007879
 10
50.950589714
 20
-85.940375938
 10
50.9968135593
 20
-85.8805688701
 10
51.0419309254
 20
-85.8199127521
 10
51.0859473064
 20
-85.758440752
 10
51.1288681964
 20
-85.6961860376
 10
51.1706990894
 20
-85.6331817769
 10
51.2114454793
 20
-85.5694611376
  0
LINE
  5
498
100
AcDbEntity
  8
0
100
AcDbLine
 62
7
  6
CONTINUOUS
 10
51.6528557973
 20
-85.9820896602
 11
49.7436674881
 21
-86.9366838148
  0
LWPOLYLINE
  5
499
100
AcDbEntity
  8
0
100
AcDbPolyline
 62
7
  6
CONTINUOUS
 90
34
 70
0
 10
46.2354886228
 20
-87.3613622632
 10
46.2021850288
 20
-87.376644074
 10
46.1686902656
 20
-87.3914986967
 10
46.1078645206
 20
-87.4171826312
 10
46.0464697352
 20
-87.4414713232
 10
45.9845409309
 20
-87.4643673735
 10
45.9221131295
 20
-87.4858733829
 10
45.8592213523
 20
-87.5059919524
 10
45.795900621
 20
-87.5247256828
 10
45.7321859571
 20
-87.542077175
 10
45.6681123823
 20
-87.5580490298
 10
45.6037149179
 20
-87.5726438482
 10
45.5390285857
 20
-87.585864231
 10
45.471885818
 20
-87.5980918715
 10
45.4045015441
 20
-87.6088692836
 10
45.3369055711
 20
-87.6182124687
 10
45.2691277062
 20
-87.6261374282
 10
45.2011977565
 20
-87.6326601637
 10
45.1331455291
 20
-87.6377966767
 10
45.0650008312
 20
-87.6415629685
 10
44.99679347
 20
-87.6439750406
 10
44.9285532525
 20
-87.6450488946
 10
44.8603099859
 20
-87.6448005318
 10
44.786715928
 20
-87.6430710023
 10
44.7131766774
 20
-87.6398572601
 10
44.6397158988
 20
-87.6351953533
 10
44.5663572568
 20
-87.6291213296
 10
44.493124416
 20
-87.621671237
 10
44.4200410409
 20
-87.6128811234
 10
44.3471307961
 20
-87.6027870366
 10
44.2744173462
 20
-87.5914250245
 10
44.2019243559
 20
-87.578831135
 10
44.1296754896
 20
-87.565041416
 10
44.0624726304
 20
-87.551129895
  0
LWPOLYLINE
  5
49A
100
AcDbEntity
  8
0
100
AcDbPolyline
 62
7
  6
CONTINUOUS
 90
5
 70
0
 10
51.6926550357
 20
-82.5078095
 10
51.6004110732
 20
-82.5499133846
 10
51.5080628542
 20
-82.5917882905
 10
51.4163253411
 20
-82.6331100332
 10
51.3244840587
 20
-82.6742004246
  0
LINE
  5
49B
100
AcDbEntity
  8
0
100
AcDbLine
 62
7
  6
CONTINUOUS
 10
51.3244840587
 20
-82.6742004246
 11
49.9809960442
 21
-83.2759127084
  0
LWPOLYLINE
  5
49C
100
AcDbEntity
  8
0
100
AcDbPolyline
 62
7
  6
CONTINUOUS
 90
29
 70
0
 10
47.4692630335
 20
-87.9182766854
 10
47.5067406692
 20
-87.9022758627
 10
47.5644674967
 20
-87.8765454443
 10
47.6216924845
 20
-87.8497148519
 10
47.6783973721
 20
-87.8217980889
 10
47.7345638988
 20
-87.7928091587
 10
47.7901738041
 20
-87.7627620647
 10
47.8452088275
 20
-87.7316708102
 10
47.8996507084
 20
-87.6995493987
 10
47.9534811861
 20
-87.6664118336
 10
48.0066820002
 20
-87.6322721182
 10
48.0592348902
 20
-87.597144256
 10
48.1111215953
 20
-87.5610422503
 10
48.1623238551
 20
-87.5239801046
 10
48.2167376369
 20
-87.4829672117
 10
48.2703266082
 20
-87.440881977
 10
48.323082649
 20
-87.3977516664
 10
48.374997639
 20
-87.3536035455
 10
48.4260634582
 20
-87.3084648801
 10
48.4762719863
 20
-87.2623629359
 10
48.5256151034
 20
-87.2153249787
 10
48.5740846891
 20
-87.1673782742
 10
48.6216726235
 20
-87.1185500881
 10
48.6683707864
 20
-87.0688676863
 10
48.7141710576
 20
-87.0183583344
 10
48.759065317
 20
-86.9670492981
 10
48.8030454445
 20
-86.9149678433
 10
48.8416002786
 20
-86.8677552971
 10
48.8794202172
 20
-86.8199632275
  0
LINE
  5
49D
100
AcDbEntity
  8
0
100
AcDbLine
 62
7
  6
CONTINUOUS
 10
47.4690131688
 20
-87.9179057057
 11
49.1465390584
 21
-87.2137970265
  0
LINE
  5
49E
100
AcDbEntity
  8
0
100
AcDbLine
 62
7
  6
CONTINUOUS
 10
47.248739019
 20
-88.0046868289
 11
47.4659766947
 21
-87.9196611498
  0
LWPOLYLINE
  5
49F
100
AcDbEntity
  8
0
100
AcDbPolyline
 62
7
  6
CONTINUOUS
 90
13
 70
0
 10
49.3995072633
 20
-87.0851305838
 10
49.4288111392
 20
-87.0742184472
 10
49.4580124029
 20
-87.0630406061
 10
49.4871082414
 20
-87.0515969963
 10
49.5160958419
 20
-87.0398875534
 10
49.5449723913
 20
-87.0279122132
 10
49.5737350766
 20
-87.0156709113
 10
49.602381085
 20
-87.0031635836
 10
49.6309076035
 20
-86.9903901657
 10
49.6593118191
 20
-86.9773505934
 10
49.6875909188
 20
-86.9640448023
 10
49.7157420898
 20
-86.9504727282
 10
49.743762519
 20
-86.9366343068
  0
LINE
  5
4A0
100
AcDbEntity
  8
0
100
AcDbLine
 62
7
  6
CONTINUOUS
 10
46.9931724237
 20
-88.0894350578
 11
47.248739019
 21
-88.0046868289
  0
ENDSEC
  0
SECTION
  2
OBJECTS
  0
DICTIONARY
  5
C
100
AcDbDictionary
280
0
281
1
  3
ACAD_GROUP
350
D
  3
ACAD_MLINESTYLE
350
17
  3
ACAD_LAYOUT
350
1A
  3
ACAD_PLOTSETTINGS
350
19
  3
ACAD_PLOTSTYLENAME
350
E
  0
DICTIONARY
  5
D
102
{ACAD_REACTORS
330
C
102
}
100
AcDbDictionary
280
0
281
1
  0
ACDBDICTIONARYWDFLT
  5
E
102
{ACAD_REACTORS
330
C
102
}
100
AcDbDictionary
281
1
  3
Normal
350
F
100
AcDbDictionaryWithDefault
340
F
  0
DICTIONARY
  5
17
102
{ACAD_REACTORS
330
C
102
}
100
AcDbDictionary
280
0
281
1
  3
Standard
350
18
  0
DICTIONARY
  5
19
102
{ACAD_REACTORS
330
C
102
}
100
AcDbDictionary
281
1
  0
DICTIONARY
  5
1A
102
{ACAD_REACTORS
330
C
102
}
100
AcDbDictionary
281
1
  3
Model
350
4A1
  3
Layout1
350
4A2
  0
ACDBPLACEHOLDER
  5
F
102
{ACAD_REACTORS
330
E
102
}
  0
MLINESTYLE
  5
18
102
{ACAD_REACTORS
330
17
102
}
100
AcDbMlineStyle
  2
STANDARD
 70
0
  3

 62
256
 51
90.0
 52
90.0
 71
2
 49
0.5
 62
256
  6
BYLAYER
 49
-0.5
 62
256
  6
BYLAYER
  0
LAYOUT
  5
4A1
102
{ACAD_REACTORS
330
1A
102
}
100
AcDbPlotSettings
  1

  2
none_device
  4
ISO_A4_(297.00_x_210.00_MM)
  6

 40
0.0
 41
0.0
 42
0.0
 43
0.0
 44
297.0
 45
210.0
 46
0.0
 47
0.0
 48
0.0
 49
0.0
140
0.0
141
0.0
142
1.0
143
1.0
 70
1024
 72
1
 73
0
 74
0
  7

 75
0
147
1.0
148
0.0
149
0.0
100
AcDbLayout
  1
Model
 70
0
 71
0
 10
0.0
 20
0.0
 11
297.0
 21
210.0
 12
0.0
 22
0.0
 32
0.0
 14
0.0
 24
0.0
 34
0.0
 15
0.0
 25
0.0
 35
0.0
146
0.0
 13
0.0
 23
0.0
 33
0.0
 16
1.0
 26
0.0
 36
0.0
 17
0.0
 27
1.0
 37
0.0
 76
0
330
214
345
0
346
0
  0
LAYOUT
  5
4A2
102
{ACAD_REACTORS
330
1A
102
}
100
AcDbPlotSettings
  1

  2
none_device
  4
ISO_A4_(297.00_x_210.00_MM)
  6

 40
0.0
 41
0.0
 42
0.0
 43
0.0
 44
297.0
 45
210.0
 46
0.0
 47
0.0
 48
0.0
 49
0.0
140
0.0
141
0.0
142
1.0
143
1.0
 70
0
 72
1
 73
0
 74
0
  7

 75
0
147
1.0
148
0.0
149
0.0
100
AcDbLayout
  1
Layout1
 70
0
 71
1
 10
0.0
 20
0.0
 11
297.0
 21
210.0
 12
0.0
 22
0.0
 32
0.0
 14
0.0
 24
0.0
 34
0.0
 15
0.0
 25
0.0
 35
0.0
146
0.0
 13
0.0
 23
0.0
 33
0.0
 16
1.0
 26
0.0
 36
0.0
 17
0.0
 27
1.0
 37
0.0
 76
0
330
215
345
0
346
0
  0
ENDSEC
  0
EOF
