  0
SECTION
  2
HEADER
  9
$ACADVER
  1
AC1021
  9
$DWGCODEPAGE
  3
ANSI_1252
  9
$EXTMAX
 10
297.0
 20
210.0
 30
0.0
  9
$EXTMIN
 10
0.0
 20
0.0
 30
0.0
  9
$LIMMIN
 10
0.0
 20
0.0
  9
$LIMMAX
 10
297.0
 20
210.0
  9
$VIEWCTR
 10
148.5
 20
105.0
  9
$VIEWSIZE
 40
210.0
  9
$CLAYER
  8
0
  9
$LTSCALE
 40
16.335
  9
$CELTYPE
  6
BYLAYER
  9
$DIMSCALE
 40
1.0
  9
$DIMASZ
 40
3.0
  9
$DIMEXO
 40
0.5
  9
$DIMDLI
 40
11.286
  9
$DIMEXE
 40
1.5
  9
$DIMCEN
 40
2.673
  9
$DIMLFAC
 40
1.0
  9
$DIMBLK
  1
_FILLED
  9
$DIMALT
 70
0
  9
$DIMALTF
 40
25.4
  9
$DIMTXT
 40
3.0
  9
$DIMTOL
 70
1
  9
$DIMLIM
 70
0
  9
$DIMTFAC
 40
1.0
  9
$DIMTP
 40
0.01
  9
$DIMTM
 40
0.01
  9
$DIMGAP
 40
0.625
  9
$DIMDSEP
 70
44
  9
$AUNITS
 70
0
  9
$PDMODE
 70
3
  9
$PDSIZE
 40
3.0
  9
$HANDSEED
  5
29B
  9
$TILEMODE
 70
1
  9
$MEASUREMENT
 70
1
  9
$INSUNITS
 70
4
  0
ENDSEC
  0
SECTION
  2
CLASSES
  0
CLASS
  1
ACDBDICTIONARYWDFLT
  2
AcDbDictionaryWithDefault
  3
AutoCAD 2000
 90
0
 91
1
280
0
281
0
  0
CLASS
  1
ACDBPLACEHOLDER
  2
AcDbPlaceHolder
  3
AutoCAD 2000
 90
0
 91
1
280
0
281
0
  0
CLASS
  1
LAYOUT
  2
AcDbLayout
  3
AutoCAD 2000
 90
0
 91
0
280
0
281
0
  0
ENDSEC
  0
SECTION
  2
TABLES
  0
TABLE
  2
VPORT
  5
8
100
AcDbSymbolTable
 70
2
  0
VPORT
  5
1F4
100
AcDbSymbolTableRecord
100
AcDbViewportTableRecord
  2
*ACTIVE
 70
0
 10
0.0
 20
0.0
 11
1.0
 21
1.0
 12
148.5
 22
105.0
 13
0.0
 23
0.0
 14
1.0
 24
1.0
 15
0.0
 25
0.0
 16
0.0
 26
0.0
 36
1.0
 17
0.0
 27
0.0
 37
0.0
 40
210.0
 41
1.4142857143
 42
50.0
 43
0.0
 44
0.0
 50
0.0
 51
0.0
 71
0
 72
100
 73
1
 74
1
 75
0
 76
0
 77
0
 78
0
  0
ENDTAB
  0
TABLE
  2
LTYPE
  5
5
100
AcDbSymbolTable
 70
6
  0
LTYPE
  5
14
100
AcDbSymbolTableRecord
100
AcDbLinetypeTableRecord
  2
BYBLOCK
 70
0
  3

 72
65
 73
0
 40
0.0
  0
LTYPE
  5
15
100
AcDbSymbolTableRecord
100
AcDbLinetypeTableRecord
  2
BYLAYER
 70
0
  3

 72
65
 73
0
 40
0.0
  0
LTYPE
  5
16
100
AcDbSymbolTableRecord
100
AcDbLinetypeTableRecord
  2
CONTINUOUS
 70
64
  3
Solid line
 72
65
 73
0
 40
0.0
  0
LTYPE
  5
1F5
100
AcDbSymbolTableRecord
100
AcDbLinetypeTableRecord
  2
CENTER
 70
64
  3
____ _ ____ _ ____ _ ____ _ ____ _ ____ _ ____
 72
65
 73
4
 40
0.6
 49
0.375
 74
0
 49
-0.075
 74
0
 49
0.075
 74
0
 49
-0.075
 74
0
  0
LTYPE
  5
1F6
100
AcDbSymbolTableRecord
100
AcDbLinetypeTableRecord
  2
HIDDEN
 70
64
  3
- - - - - - - - - - - - - - - - - - - -
 72
65
 73
2
 40
0.2
 49
0.1
 74
0
 49
-0.1
 74
0
  0
LTYPE
  5
1F7
100
AcDbSymbolTableRecord
100
AcDbLinetypeTableRecord
  2
PHANTOM
 70
64
  3
_____ _ _ _____ _ _ _____ _ _ _____
 72
65
 73
6
 40
0.8
 49
0.45
 74
0
 49
-0.05
 74
0
 49
0.1
 74
0
 49
-0.05
 74
0
 49
0.1
 74
0
 49
-0.05
 74
0
  0
LTYPE
  5
1F8
100
AcDbSymbolTableRecord
100
AcDbLinetypeTableRecord
  2
DOT
 70
64
  3
. . . . . . . . . . . . . . . . . . . .
 72
65
 73
2
 40
0.2
 49
0.1
 74
0
 49
-0.1
 74
0
  0
LTYPE
  5
1F9
100
AcDbSymbolTableRecord
100
AcDbLinetypeTableRecord
  2
DASHED
 70
64
  3
- - - - - - - - - - - - - - - - - - - -
 72
65
 73
2
 40
0.2
 49
0.1
 74
0
 49
-0.1
 74
0
  0
ENDTAB
  0
TABLE
  2
LAYER
  5
2
100
AcDbSymbolTable
 70
36
  0
LAYER
  5
10
100
AcDbSymbolTableRecord
100
AcDbLayerTableRecord
  2
0
 70
0
 62
7
  6
CONTINUOUS
370
-3
390
F
  0
LAYER
  5
1FA
100
AcDbSymbolTableRecord
100
AcDbLayerTableRecord
  2
DEFAULT_1
 70
0
 62
7
  6
CENTER
370
-3
390
F
  0
LAYER
  5
1FB
100
AcDbSymbolTableRecord
100
AcDbLayerTableRecord
  2
DEFAULT_2
 70
0
 62
7
  6
HIDDEN
370
-3
390
F
  0
LAYER
  5
1FC
100
AcDbSymbolTableRecord
100
AcDbLayerTableRecord
  2
DEFAULT_3
 70
0
 62
7
  6
PHANTOM
370
-3
390
F
  0
LAYER
  5
1FD
100
AcDbSymbolTableRecord
100
AcDbLayerTableRecord
  2
ASSI
 70
0
 62
7
  6
CONTINUOUS
370
-3
390
F
  0
LAYER
  5
1FE
100
AcDbSymbolTableRecord
100
AcDbLayerTableRecord
  2
COLORE_MATERIALE
 70
0
 62
7
  6
CONTINUOUS
370
-3
390
F
  0
LAYER
  5
1FF
100
AcDbSymbolTableRecord
100
AcDbLayerTableRecord
  2
COORDINATE
 70
0
 62
7
  6
CONTINUOUS
370
-3
390
F
  0
LAYER
  5
200
100
AcDbSymbolTableRecord
100
AcDbLayerTableRecord
  2
COORD_ORIGINE
 70
0
 62
7
  6
CONTINUOUS
370
-3
390
F
  0
LAYER
  5
201
100
AcDbSymbolTableRecord
100
AcDbLayerTableRecord
  2
COPY
 70
0
 62
7
  6
CONTINUOUS
370
-3
390
F
  0
LAYER
  5
202
100
AcDbSymbolTableRecord
100
AcDbLayerTableRecord
  2
COSMETICI
 70
0
 62
7
  6
CONTINUOUS
370
-3
390
F
  0
LAYER
  5
203
100
AcDbSymbolTableRecord
100
AcDbLayerTableRecord
  2
CURVE
 70
0
 62
7
  6
CONTINUOUS
370
-3
390
F
  0
LAYER
  5
204
100
AcDbSymbolTableRecord
100
AcDbLayerTableRecord
  2
DRAFT
 70
0
 62
7
  6
CONTINUOUS
370
-3
390
F
  0
LAYER
  5
205
100
AcDbSymbolTableRecord
100
AcDbLayerTableRecord
  2
IGS
 70
0
 62
7
  6
CONTINUOUS
370
-3
390
F
  0
LAYER
  5
206
100
AcDbSymbolTableRecord
100
AcDbLayerTableRecord
  2
NOTE
 70
0
 62
7
  6
CONTINUOUS
370
-3
390
F
  0
LAYER
  5
207
100
AcDbSymbolTableRecord
100
AcDbLayerTableRecord
  2
PIANI
 70
0
 62
7
  6
CONTINUOUS
370
-3
390
F
  0
LAYER
  5
208
100
AcDbSymbolTableRecord
100
AcDbLayerTableRecord
  2
PIANI_ORIGINE
 70
0
 62
7
  6
CONTINUOUS
370
-3
390
F
  0
LAYER
  5
209
100
AcDbSymbolTableRecord
100
AcDbLayerTableRecord
  2
PIANI_RIFERIMENTO
 70
0
 62
7
  6
CONTINUOUS
370
-3
390
F
  0
LAYER
  5
20A
100
AcDbSymbolTableRecord
100
AcDbLayerTableRecord
  2
PUNTI
 70
0
 62
7
  6
CONTINUOUS
370
-3
390
F
  0
LAYER
  5
20B
100
AcDbSymbolTableRecord
100
AcDbLayerTableRecord
  2
RACCORDO
 70
0
 62
7
  6
CONTINUOUS
370
-3
390
F
  0
LAYER
  5
20C
100
AcDbSymbolTableRecord
100
AcDbLayerTableRecord
  2
SIMBOLI
 70
0
 62
7
  6
CONTINUOUS
370
-3
390
F
  0
LAYER
  5
20D
100
AcDbSymbolTableRecord
100
AcDbLayerTableRecord
  2
SMUSSO
 70
0
 62
7
  6
CONTINUOUS
370
-3
390
F
  0
LAYER
  5
20E
100
AcDbSymbolTableRecord
100
AcDbLayerTableRecord
  2
SNAPLINE
 70
0
 62
7
  6
CONTINUOUS
370
-3
390
F
  0
LAYER
  5
20F
100
AcDbSymbolTableRecord
100
AcDbLayerTableRecord
  2
SOLIDO
 70
0
 62
7
  6
CONTINUOUS
370
-3
390
F
  0
LAYER
  5
210
100
AcDbSymbolTableRecord
100
AcDbLayerTableRecord
  2
SUPERFICI
 70
0
 62
7
  6
CONTINUOUS
370
-3
390
F
  0
LAYER
  5
211
100
AcDbSymbolTableRecord
100
AcDbLayerTableRecord
  2
TRASH
 70
0
 62
7
  6
CONTINUOUS
370
-3
390
F
  0
ENDTAB
  0
TABLE
  2
STYLE
  5
3
100
AcDbSymbolTable
 70
1
  0
STYLE
  5
11
100
AcDbSymbolTableRecord
100
AcDbTextStyleTableRecord
  2
STANDARD
 70
0
 40
0.0
 41
0.8
 50
0.0
 71
0
 42
0.2
  3
txt
  4

  0
STYLE
  5
212
100
AcDbSymbolTableRecord
100
AcDbTextStyleTableRecord
  2
TEXTSTYLE_1
 70
0
 40
0.0
 41
0.8
 50
0.0
 71
0
 42
0.2
  3
gdt
  4

  0
ENDTAB
  0
TABLE
  2
VIEW
  5
6
100
AcDbSymbolTable
 70
0
  0
ENDTAB
  0
TABLE
  2
UCS
  5
7
100
AcDbSymbolTable
 70
0
  0
ENDTAB
  0
TABLE
  2
APPID
  5
9
100
AcDbSymbolTable
 70
1
  0
APPID
  5
213
100
AcDbSymbolTableRecord
100
AcDbRegAppTableRecord
  2
ACAD
 70
0
  0
ENDTAB
  0
TABLE
  2
BLOCK_RECORD
  5
1
100
AcDbSymbolTable
 70
0
  0
BLOCK_RECORD
  5
214
100
AcDbSymbolTableRecord
100
AcDbBlockTableRecord
  2
*Model_Space
  0
BLOCK_RECORD
  5
215
100
AcDbSymbolTableRecord
100
AcDbBlockTableRecord
  2
*Paper_Space
  0
ENDTAB
  0
TABLE
  2
DIMSTYLE
  5
A
100
AcDbSymbolTable
 70
1
100
AcDbDimStyleTable
 71
0
  0
DIMSTYLE
105
216
100
AcDbSymbolTableRecord
100
AcDbDimStyleTableRecord
  2
STANDARD
 70
0
  3

  4

 40
1.0
 41
3.0
 42
0.5
 43
0.38
 44
1.5
 45
0.0
 46
0.0
 47
0.01
 48
0.01
140
3.0
141
0.09
142
0.0
143
25.4
144
1.0
145
0.0
146
1.0
147
0.625
 71
1.0
 72
0.0
 73
0
 74
0
 75
0
 76
0
 77
1
 78
8
170
0
171
1
172
0
173
0
174
0
175
0
176
0
177
0
178
0
270
2
271
2
272
2
273
2
274
2
275
0
280
0
281
0
282
0
283
1
284
8
285
0
286
0
287
3
288
0
340
11
278
44
  0
ENDTAB
  0
ENDSEC
  0
SECTION
  2
BLOCKS
  0
BLOCK
  5
20
100
AcDbEntity
  8
0
100
AcDbBlockBegin
  2
*Model_Space
 70
0
 10
0.0
 20
0.0
 30
0.0
  3
*Model_Space
  1

  0
ENDBLK
  5
21
100
AcDbEntity
  8
0
100
AcDbBlockEnd
  0
BLOCK
  5
1C
100
AcDbEntity
  8
0
100
AcDbBlockBegin
  2
*Paper_Space
 70
0
 10
0.0
 20
0.0
 30
0.0
  3
*Paper_Space
  1

  0
ENDBLK
  5
1D
100
AcDbEntity
  8
0
100
AcDbBlockEnd
  0
ENDSEC
  0
SECTION
  2
ENTITIES
  0
LWPOLYLINE
  5
217
100
AcDbEntity
  8
RACCORDO
100
AcDbPolyline
 62
7
  6
CONTINUOUS
 90
46
 70
0
 10
-10.4029560126
 20
20.8571519075
 10
-10.4192550319
 20
20.8461742472
 10
-10.4388454778
 20
20.832365082
 10
-10.4581576121
 20
20.8180777078
 10
-10.4772007142
 20
20.8033139781
 10
-10.495967338
 20
20.7880877178
 10
-10.5144319636
 20
20.7724284736
 10
-10.5325962742
 20
20.7563444619
 10
-10.5504610173
 20
20.7398433797
 10
-10.5679993354
 20
20.7229593047
 10
-10.5852126802
 20
20.7057007596
 10
-10.6021023731
 20
20.6880752445
 10
-10.6186418904
 20
20.6701202476
 10
-10.6348311268
 20
20.651846225
 10
-10.6506730632
 20
20.6332595405
 10
-10.6661461086
 20
20.61439542
 10
-10.6812451939
 20
20.5952711732
 10
-10.6959783897
 20
20.5758867572
 10
-10.710343397
 20
20.5562539809
 10
-10.7243386436
 20
20.5363835284
 10
-10.7379661058
 20
20.5162797802
 10
-10.7512276172
 20
20.4959462738
 10
-10.7641216914
 20
20.475390058
 10
-10.776647162
 20
20.4546168786
 10
-10.7888046923
 20
20.4336281986
 10
-10.8005914151
 20
20.4124299051
 10
-10.8120045872
 20
20.3910270671
 10
-10.8230434575
 20
20.3694190969
 10
-10.8337045797
 20
20.3476093524
 10
-10.8439824968
 20
20.3256037541
 10
-10.8538729573
 20
20.3034045777
 10
-10.8633726222
 20
20.2810102164
 10
-10.8724725742
 20
20.2584301505
 10
-10.8811609431
 20
20.2356820725
 10
-10.8894317001
 20
20.2127678481
 10
-10.8972770994
 20
20.1896928355
 10
-10.9046838133
 20
20.1664783672
 10
-10.9116446825
 20
20.1431272925
 10
-10.9181516696
 20
20.1196432633
 10
-10.9241917621
 20
20.0960467325
 10
-10.9297568366
 20
20.0723407561
 10
-10.9348377093
 20
20.0485285406
 10
-10.939421979
 20
20.0246276526
 10
-10.9434994012
 20
20.0006444933
 10
-10.9470603107
 20
19.9765779569
 10
-10.9495667616
 20
19.9569539705
  0
LINE
  5
218
100
AcDbEntity
  8
RACCORDO
100
AcDbLine
 62
7
  6
CONTINUOUS
 10
-10.4029576344
 20
20.8571508459
 11
-6.9346094671
 21
23.1444938437
  0
LINE
  5
219
100
AcDbEntity
  8
RACCORDO
100
AcDbLine
 62
253
  6
CONTINUOUS
 10
-10.1629933843
 20
20.8256043751
 11
-6.6764954007
 21
23.1249701401
  0
LWPOLYLINE
  5
21A
100
AcDbEntity
  8
RACCORDO
100
AcDbPolyline
 62
253
  6
CONTINUOUS
 90
29
 70
0
 10
-10.4018742409
 20
20.8578588503
 10
-10.3949716316
 20
20.8620769641
 10
-10.3878431337
 20
20.8659381611
 10
-10.3804947716
 20
20.8694391783
 10
-10.3729327557
 20
20.8725770569
 10
-10.3651634766
 20
20.875349145
 10
-10.3571935003
 20
20.8777530998
 10
-10.3490295623
 20
20.8797868898
 10
-10.3406785622
 20
20.8814487961
 10
-10.3321475575
 20
20.8827374143
 10
-10.3234437579
 20
20.8836516553
 10
-10.314574519
 20
20.8841907465
 10
-10.3055473366
 20
20.8843542322
 10
-10.2963698395
 20
20.8841419744
 10
-10.2870497838
 20
20.8835541524
 10
-10.2775950461
 20
20.882591263
 10
-10.2680136166
 20
20.8812541199
 10
-10.2583135929
 20
20.8795438531
 10
-10.2485031726
 20
20.8774619081
 10
-10.2385906466
 20
20.8750100444
 10
-10.2285843921
 20
20.872190334
 10
-10.2184928656
 20
20.8690051599
 10
-10.2083245957
 20
20.865457214
 10
-10.1980881756
 20
20.8615494946
 10
-10.1877922564
 20
20.8572853044
 10
-10.1774455392
 20
20.8526682469
 10
-10.1670567683
 20
20.8477022243
 10
-10.1566347235
 20
20.8423914332
 10
-10.1461882124
 20
20.836740362
  0
LWPOLYLINE
  5
21B
100
AcDbEntity
  8
RACCORDO
100
AcDbPolyline
 62
7
  6
CONTINUOUS
 90
39
 70
0
 10
4.2546640255
 20
-23.6803060001
 10
4.2714113427
 20
-23.6896603087
 10
4.287372823
 20
-23.6980054387
 10
4.3035562742
 20
-23.7059228128
 10
4.3199553384
 20
-23.71340926
 10
4.336574477
 20
-23.720465863
 10
4.3534025308
 20
-23.7270863274
 10
4.3704280201
 20
-23.733264909
 10
4.3876559185
 20
-23.7390016684
 10
4.4050754591
 20
-23.74429065
 10
4.4226747171
 20
-23.7491259928
 10
4.4404578429
 20
-23.7535061817
 10
4.4584136678
 20
-23.7574254552
 10
4.4765305344
 20
-23.7608783989
 10
4.4948127317
 20
-23.7638624333
 10
4.5132485691
 20
-23.7663717787
 10
4.5318270116
 20
-23.7684013932
 10
4.5505543538
 20
-23.7699478634
 10
4.569418343
 20
-23.7710054962
 10
4.5884087943
 20
-23.7715691488
 10
4.6075361784
 20
-23.7716339768
 10
4.6267894667
 20
-23.7711940877
 10
4.6461576134
 20
-23.7702439161
 10
4.6656522703
 20
-23.7687762723
 10
4.6852671785
 20
-23.76678424
 10
4.704986906
 20
-23.7642620665
 10
4.7248106981
 20
-23.7612022796
 10
4.7447323353
 20
-23.7575978291
 10
4.7647371513
 20
-23.753443553
 10
4.7848135504
 20
-23.7487341694
 10
4.8049523883
 20
-23.743464088
 10
4.8251433587
 20
-23.7376284831
 10
4.8453752896
 20
-23.7312230264
 10
4.8656400566
 20
-23.7242425171
 10
4.8859282139
 20
-23.7166824906
 10
4.9062288548
 20
-23.7085392318
 10
4.9265336075
 20
-23.6998080877
 10
4.94683426
 20
-23.6904846603
 10
4.9631622847
 20
-23.6825485976
  0
LINE
  5
21C
100
AcDbEntity
  8
0
100
AcDbLine
 62
7
  6
CONTINUOUS
 10
4.2546764895
 20
-23.6803132194
 11
-10.6051642794
 21
-15.1004273969
  0
LINE
  5
21D
100
AcDbEntity
  8
RACCORDO
100
AcDbLine
 62
253
  6
CONTINUOUS
 10
4.0536745645
 20
-23.3381466002
 11
-10.8026880322
 21
-14.7602690308
  0
LWPOLYLINE
  5
21E
100
AcDbEntity
  8
RACCORDO
100
AcDbPolyline
 62
253
  6
CONTINUOUS
 90
27
 70
0
 10
-10.6118402001
 20
-15.0964431611
 10
-10.6225899472
 20
-15.0896257862
 10
-10.6339151776
 20
-15.0817604278
 10
-10.6449376468
 20
-15.0734044543
 10
-10.655650937
 20
-15.0645627235
 10
-10.6660489812
 20
-15.055240272
 10
-10.6761257326
 20
-15.045442507
 10
-10.685875315
 20
-15.0351751214
 10
-10.6952921976
 20
-15.0244439888
 10
-10.7043709021
 20
-15.0132553308
 10
-10.7131061373
 20
-15.0016156372
 10
-10.721492949
 20
-14.9895315793
 10
-10.7295264593
 20
-14.9770101562
 10
-10.7372019856
 20
-14.9640586246
 10
-10.7445151751
 20
-14.9506844199
 10
-10.7514617724
 20
-14.93689529
 10
-10.7580377317
 20
-14.9226992135
 10
-10.7642393328
 20
-14.9081043284
 10
-10.7700629761
 20
-14.8931190575
 10
-10.7755052571
 20
-14.8777520885
 10
-10.7805630795
 20
-14.862012294
 10
-10.7852335138
 20
-14.8459087484
 10
-10.7895138277
 20
-14.8294507919
 10
-10.7934015702
 20
-14.812648018
 10
-10.7968945016
 20
-14.7955101735
 10
-10.7999905864
 20
-14.7780471451
 10
-10.8026880322
 20
-14.7602690308
  0
LWPOLYLINE
  5
21F
100
AcDbEntity
  8
RACCORDO
100
AcDbPolyline
 62
253
  6
CONTINUOUS
 90
31
 70
0
 10
-10.9495667616
 20
19.9569539705
 10
-10.9499198901
 20
19.9535504348
 10
-10.9503315055
 20
19.9465931419
 10
-10.9503315617
 20
19.9395957032
 10
-10.9499200586
 20
19.9325639099
 10
-10.9490973367
 20
19.9255035816
 10
-10.947864077
 20
19.9184205614
 10
-10.9462213001
 20
19.9113207114
 10
-10.9441703655
 20
19.9042099073
 10
-10.9417129707
 20
19.8970940343
 10
-10.9388511494
 20
19.8899789814
 10
-10.9355872701
 20
19.8828706372
 10
-10.931924034
 20
19.8757748845
 10
-10.9278644728
 20
19.8686975959
 10
-10.9234119463
 20
19.8616446286
 10
-10.9185701394
 20
19.8546218197
 10
-10.9133430591
 20
19.8476349813
 10
-10.9077350316
 20
19.8406898959
 10
-10.9017506981
 20
19.8337923111
 10
-10.8953950112
 20
19.8269479356
 10
-10.888673231
 20
19.8201624338
 10
-10.8815909204
 20
19.8134414214
 10
-10.8741539409
 20
19.8067904609
 10
-10.8663684474
 20
19.8002150565
 10
-10.8582408832
 20
19.7937206502
 10
-10.8497779747
 20
19.7873126168
 10
-10.840986726
 20
19.7809962596
 10
-10.8318744128
 20
19.7747768061
 10
-10.8224485764
 20
19.7686594036
 10
-10.8127170178
 20
19.762649115
 10
-10.802687791
 20
19.7567509143
  0
LWPOLYLINE
  5
220
100
AcDbEntity
  8
RACCORDO
100
AcDbPolyline
 62
7
  6
CONTINUOUS
 90
28
 70
0
 10
-10.9495664907
 20
19.956956345
 10
-10.9930105266
 20
19.5849298529
 10
-11.0354783777
 20
19.2096672497
 10
-11.0765140192
 20
18.8350137212
 10
-11.1161162812
 20
18.460978938
 10
-11.1542842071
 20
18.0875712873
 10
-11.1910169099
 20
17.7147986345
 10
-11.2263134931
 20
17.3426690194
 10
-11.2601730379
 20
16.971191294
 10
-11.2925946231
 20
16.6003745387
 10
-11.3235773839
 20
16.2302274136
 10
-11.3531205411
 20
15.8607583429
 10
-11.3812233085
 20
15.491976045
 10
-11.4078849365
 20
15.1238889813
 10
-11.4331047387
 20
14.7565056052
 10
-11.4568820281
 20
14.3898346163
 10
-11.4792161518
 20
14.0238844531
 10
-11.5001065235
 20
13.6586634922
 10
-11.5195525608
 20
13.2941803337
 10
-11.5375537139
 20
12.9304432861
 10
-11.5541094915
 20
12.5674608198
 10
-11.5692194042
 20
12.2052417692
 10
-11.5828829905
 20
11.8437947552
 10
-11.5950998802
 20
11.4831275521
 10
-11.6058697195
 20
11.1232477202
 10
-11.6151921527
 20
10.7641633258
 10
-11.6230668699
 20
10.4058836158
 10
-11.6294300973
 20
10.0523870543
  0
LWPOLYLINE
  5
221
100
AcDbEntity
  8
RACCORDO
100
AcDbPolyline
 62
253
  6
CONTINUOUS
 90
57
 70
0
 10
-10.8026880322
 20
19.7567489944
 10
-10.7999905864
 20
19.7776969719
 10
-10.7968945016
 20
19.7987982261
 10
-10.7934015702
 20
19.8200405892
 10
-10.7895138277
 20
19.8414118735
 10
-10.7852335138
 20
19.8628996964
 10
-10.7805630795
 20
19.884491485
 10
-10.7755052571
 20
19.9061747592
 10
-10.7700629761
 20
19.9279370466
 10
-10.7642393328
 20
19.9497657056
 10
-10.7580377317
 20
19.9716481294
 10
-10.7514617724
 20
19.9935717261
 10
-10.7445151751
 20
20.0155238317
 10
-10.7372019856
 20
20.0374918085
 10
-10.7295264593
 20
20.0594629816
 10
-10.721492949
 20
20.0814246184
 10
-10.7131061373
 20
20.1033640671
 10
-10.7043709021
 20
20.1252686837
 10
-10.6952921976
 20
20.1471257684
 10
-10.685875315
 20
20.1689227333
 10
-10.6761257326
 20
20.1906470189
 10
-10.6660489812
 20
20.212286021
 10
-10.655650937
 20
20.2338272726
 10
-10.6449376468
 20
20.2552583726
 10
-10.6339151776
 20
20.2765669015
 10
-10.6225899472
 20
20.2977406011
 10
-10.6109685499
 20
20.3187672686
 10
-10.5990575819
 20
20.3396346855
 10
-10.5868639871
 20
20.3603308355
 10
-10.5743948583
 20
20.3808438098
 10
-10.5616572623
 20
20.4011616994
 10
-10.5486586162
 20
20.4212728198
 10
-10.5354064891
 20
20.4411655893
 10
-10.5219084041
 20
20.4608284335
 10
-10.5081722313
 20
20.4802500341
 10
-10.4942059609
 20
20.4994192245
 10
-10.4800175042
 20
20.518324868
 10
-10.4656151219
 20
20.5369560989
 10
-10.4510072026
 20
20.5553021936
 10
-10.4362020364
 20
20.5733524669
 10
-10.4212082481
 20
20.5910965418
 10
-10.4060345668
 20
20.6085242161
 10
-10.3906896033
 20
20.6256253327
 10
-10.3751822967
 20
20.6423900652
 10
-10.3595216758
 20
20.6588087777
 10
-10.3437166284
 20
20.6748718923
 10
-10.3277763689
 20
20.6905701743
 10
-10.3117101716
 20
20.7058946147
 10
-10.2955271311
 20
20.7208362896
 10
-10.2792366564
 20
20.7353866371
 10
-10.2628482505
 20
20.7495372836
 10
-10.2463712435
 20
20.763279928
 10
-10.2298152162
 20
20.7766066966
 10
-10.213189827
 20
20.7895099337
 10
-10.1965045932
 20
20.801982035
 10
-10.179769178
 20
20.8140157892
 10
-10.1629933843
 20
20.8256043751
  0
LINE
  5
222
100
AcDbEntity
  8
DRAFT
100
AcDbLine
 62
7
  6
CONTINUOUS
 10
-5.7393823667
 20
20.4355463673
 11
-5.3987499633
 21
21.2196634427
  0
LINE
  5
223
100
AcDbEntity
  8
RACCORDO
100
AcDbLine
 62
7
  6
CONTINUOUS
 10
-5.3987499633
 20
22.3872159385
 11
-6.1160103411
 21
20.7389404975
  0
LWPOLYLINE
  5
224
100
AcDbEntity
  8
RACCORDO
100
AcDbPolyline
 62
253
  6
CONTINUOUS
 90
25
 70
0
 10
-10.9478640892
 20
-14.5695341514
 10
-10.9462213125
 20
-14.578860709
 10
-10.9441703781
 20
-14.5881202177
 10
-10.9417129835
 20
-14.5973050141
 10
-10.9388511623
 20
-14.6064074968
 10
-10.9355872831
 20
-14.6154201324
 10
-10.9319240471
 20
-14.6243354622
 10
-10.927864486
 20
-14.6331461076
 10
-10.9234119596
 20
-14.6418447769
 10
-10.9185701527
 20
-14.6504242711
 10
-10.9133430726
 20
-14.6588774895
 10
-10.9077350451
 20
-14.6671974363
 10
-10.9017507116
 20
-14.6753772258
 10
-10.8953950247
 20
-14.6834100884
 10
-10.8886732444
 20
-14.6912893759
 10
-10.8815909338
 20
-14.6990085674
 10
-10.8741539543
 20
-14.7065612744
 10
-10.8663684607
 20
-14.7139412463
 10
-10.8582408964
 20
-14.7211423753
 10
-10.8497779879
 20
-14.7281587017
 10
-10.840986739
 20
-14.7349844187
 10
-10.8318744257
 20
-14.7416138773
 10
-10.8224485892
 20
-14.7480415908
 10
-10.8127170304
 20
-14.7542622398
 10
-10.8026878034
 20
-14.7602706758
  0
LWPOLYLINE
  5
225
100
AcDbEntity
  8
RACCORDO
100
AcDbPolyline
 62
7
  6
CONTINUOUS
 90
36
 70
0
 10
-10.9483391997
 20
-14.5662783173
 10
-10.9458497149
 20
-14.5830868586
 10
-10.9422667334
 20
-14.604058884
 10
-10.9382086993
 20
-14.6246994541
 10
-10.933686647
 20
-14.644998747
 10
-10.928709794
 20
-14.6649576115
 10
-10.9232846334
 20
-14.6845847297
 10
-10.9174206356
 20
-14.7038750513
 10
-10.911127648
 20
-14.7228235847
 10
-10.904411647
 20
-14.7414362724
 10
-10.8972825836
 20
-14.7597063211
 10
-10.8897500639
 20
-14.777628859
 10
-10.8818188116
 20
-14.7952103952
 10
-10.8734993503
 20
-14.8124432533
 10
-10.8648011458
 20
-14.829322689
 10
-10.8557264118
 20
-14.8458574184
 10
-10.846285085
 20
-14.8620407966
 10
-10.83648736
 20
-14.8778663992
 10
-10.8263347774
 20
-14.8933412353
 10
-10.8158374478
 20
-14.9084582989
 10
-10.8050056931
 20
-14.9232112265
 10
-10.793840336
 20
-14.9376061547
 10
-10.782351966
 20
-14.951635602
 10
-10.7705506359
 20
-14.9652935503
 10
-10.7584352867
 20
-14.9785866122
 10
-10.746016692
 20
-14.9915073847
 10
-10.7333049089
 20
-15.0040498453
 10
-10.7202964989
 20
-15.0162207556
 10
-10.7070017649
 20
-15.0280130765
 10
-10.6934311884
 20
-15.0394203212
 10
-10.6795802799
 20
-15.0504481359
 10
-10.6654591238
 20
-15.0610894693
 10
-10.6510782847
 20
-15.0713375077
 10
-10.6364327961
 20
-15.0811963404
 10
-10.6215276201
 20
-15.0906621431
 10
-10.6051476036
 20
-15.1004370028
  0
LWPOLYLINE
  5
226
100
AcDbEntity
  8
RACCORDO
100
AcDbPolyline
 62
253
  6
CONTINUOUS
 90
28
 70
0
 10
-10.8026880309
 20
-14.7602690316
 10
-10.8465793874
 20
-14.4368719282
 10
-10.8890392247
 20
-14.1123748691
 10
-10.9300665411
 20
-13.7867853693
 10
-10.9696603603
 20
-13.4601109176
 10
-11.007819756
 20
-13.1323591288
 10
-11.0445438552
 20
-12.8035377455
 10
-11.079831789
 20
-12.4736544422
 10
-11.1136827321
 20
-12.1427167994
 10
-11.1460959296
 20
-11.8107324569
 10
-11.1770706203
 20
-11.4777091023
 10
-11.2066060738
 20
-11.1436544463
 10
-11.2347016317
 20
-10.8085761987
 10
-11.2613566347
 20
-10.4724821164
 10
-11.2865704538
 20
-10.1353799812
 10
-11.3103425269
 20
-9.797277575
 10
-11.3326722965
 20
-9.4581827233
 10
-11.3535592353
 20
-9.1181032765
 10
-11.3730028778
 20
-8.7770470878
 10
-11.3910027683
 20
-8.4350220485
 10
-11.4075584813
 20
-8.0920360773
 10
-11.4226696475
 20
-7.7480971005
 10
-11.4363359145
 20
-7.4032130451
 10
-11.4485569574
 20
-7.0573919249
 10
-11.4593325009
 20
-6.7106418296
 10
-11.4686622969
 20
-6.362970813
 10
-11.4765461233
 20
-6.0143868913
 10
-11.482983796
 20
-5.6648981308
  0
LWPOLYLINE
  5
227
100
AcDbEntity
  8
RACCORDO
100
AcDbPolyline
 62
253
  6
CONTINUOUS
 90
28
 70
0
 10
-11.6919758687
 20
2.5790919187
 10
-11.6916786051
 20
2.5717020186
 10
-11.69093279
 20
2.5634464874
 10
-11.6897741757
 20
2.5552055435
 10
-11.6882037222
 20
2.5469860307
 10
-11.6862227292
 20
2.5387947737
 10
-11.6838328345
 20
2.5306384977
 10
-11.6810360146
 20
2.5225239688
 10
-11.6778345837
 20
2.5144579271
 10
-11.6742311909
 20
2.5064470064
 10
-11.6702288153
 20
2.4984978476
 10
-11.6658307701
 20
2.4906170533
 10
-11.6610407018
 20
2.4828111214
 10
-11.6558625798
 20
2.4750865299
 10
-11.6503006864
 20
2.467449682
 10
-11.6443596199
 20
2.4599068606
 10
-11.6380443005
 20
2.4524643213
 10
-11.6313599506
 20
2.4451282328
 10
-11.6243120825
 20
2.4379046235
 10
-11.6169064974
 20
2.4307994521
 10
-11.609149346
 20
2.4238186376
 10
-11.6010471144
 20
2.4169679977
 10
-11.592606555
 20
2.4102532342
 10
-11.583834619
 20
2.4036798757
 10
-11.5747385129
 20
2.3972533091
 10
-11.565325743
 20
2.3909788376
 10
-11.5556041157
 20
2.3848616737
 10
-11.5455816749
 20
2.3789068799
  0
LWPOLYLINE
  5
228
100
AcDbEntity
  8
RACCORDO
100
AcDbPolyline
 62
253
  6
CONTINUOUS
 90
28
 70
0
 10
-11.6294275696
 20
-5.4612053772
 10
-11.6290975773
 20
-5.4694311567
 10
-11.6283505722
 20
-5.4778756957
 10
-11.62719081
 20
-5.4862996873
 10
-11.6256192504
 20
-5.4946961614
 10
-11.6236371935
 20
-5.5030581707
 10
-11.6212462794
 20
-5.5113787965
 10
-11.6184484863
 20
-5.5196511541
 10
-11.6152461292
 20
-5.527868399
 10
-11.6116418577
 20
-5.5360237321
 10
-11.607638654
 20
-5.5441104058
 10
-11.6032398303
 20
-5.552121729
 10
-11.5984490264
 20
-5.5600510732
 10
-11.5932702061
 20
-5.5678918774
 10
-11.5877076544
 20
-5.5756376542
 10
-11.5817659738
 20
-5.5832819947
 10
-11.5754500805
 20
-5.5908185739
 10
-11.5687652004
 20
-5.598241156
 10
-11.5617168645
 20
-5.6055435994
 10
-11.5543109046
 20
-5.6127198622
 10
-11.5465534486
 20
-5.6197640065
 10
-11.538450915
 20
-5.6266702041
 10
-11.5300100078
 20
-5.6334327407
 10
-11.5212377112
 20
-5.640046021
 10
-11.5121412833
 20
-5.646504573
 10
-11.5027282507
 20
-5.6528030529
 10
-11.4930064018
 20
-5.6589362493
 10
-11.4829837804
 20
-5.6648990875
  0
LWPOLYLINE
  5
229
100
AcDbEntity
  8
RACCORDO
100
AcDbPolyline
 62
7
  6
CONTINUOUS
 90
28
 70
0
 10
-11.6294275696
 20
-5.4612053772
 10
-11.6230543304
 20
-5.8075945636
 10
-11.615173274
 20
-6.1566645716
 10
-11.6058427421
 20
-6.5048339017
 10
-11.5950628347
 20
-6.8520936368
 10
-11.5828337017
 20
-7.1984359272
 10
-11.5691554995
 20
-7.543853267
 10
-11.5540283934
 20
-7.8883382016
 10
-11.5374526399
 20
-8.231882542
 10
-11.5194285355
 20
-8.5744776885
 10
-11.4999563693
 20
-8.9161156401
 10
-11.479036488
 20
-9.2567886278
 10
-11.4566692858
 20
-9.5964884133
 10
-11.4328551478
 20
-9.9352072117
 10
-11.4075945265
 20
-10.272937244
 10
-11.3808879259
 20
-10.6096702926
 10
-11.352735833
 20
-10.9453986192
 10
-11.3231387989
 20
-11.2801145398
 10
-11.2920974325
 20
-11.6138099309
 10
-11.2596123162
 20
-11.9464771898
 10
-11.2256841174
 20
-12.2781085812
 10
-11.1903135836
 20
-12.6086957971
 10
-11.1535014383
 20
-12.938230977
 10
-11.1152483819
 20
-13.2667070466
 10
-11.0755551311
 20
-13.5941168857
 10
-11.0344224568
 20
-13.9204530783
 10
-10.9918513265
 20
-14.2457073154
 10
-10.9483399204
 20
-14.5662731934
  0
LWPOLYLINE
  5
22A
100
AcDbEntity
  8
RACCORDO
100
AcDbPolyline
 62
7
  6
CONTINUOUS
 90
36
 70
0
 10
-11.692030003
 20
2.5825969243
 10
-11.6918644044
 20
2.5718749968
 10
-11.6913757882
 20
2.5615293189
 10
-11.6905652242
 20
2.5512059441
 10
-11.689433484
 20
2.5409096046
 10
-11.6879794548
 20
2.5306345675
 10
-11.6862034071
 20
2.5203906558
 10
-11.6841062142
 20
2.5101879253
 10
-11.6816853897
 20
2.5000211177
 10
-11.6789411395
 20
2.4898998016
 10
-11.6758742679
 20
2.4798342764
 10
-11.6724810086
 20
2.4698205494
 10
-11.6687617421
 20
2.459868577
 10
-11.664717274
 20
2.4499881982
 10
-11.6603424115
 20
2.4401754316
 10
-11.6556369988
 20
2.4304396098
 10
-11.6506019908
 20
2.4207912366
 10
-11.6452317063
 20
2.4112282192
 10
-11.6395260412
 20
2.4017598687
 10
-11.6334858259
 20
2.3923964745
 10
-11.6271047161
 20
2.3831373279
 10
-11.6203829167
 20
2.3739920153
 10
-11.6133208979
 20
2.3649700281
 10
-11.605910438
 20
2.356070346
 10
-11.5981483104
 20
2.3472991756
 10
-11.5900373022
 20
2.3386691655
 10
-11.5815762288
 20
2.3301881677
 10
-11.5727605489
 20
2.3218609487
 10
-11.5635943224
 20
2.3137000806
 10
-11.5540885401
 20
2.3057228183
 10
-11.5442433578
 20
2.2979360372
 10
-11.5340592019
 20
2.2903465655
 10
-11.5235472604
 20
2.2829685898
 10
-11.512711279
 20
2.275809938
 10
-11.5015488924
 20
2.2688740509
 10
-11.4938145379
 20
2.2643122646
  0
LWPOLYLINE
  5
22B
100
AcDbEntity
  8
RACCORDO
100
AcDbPolyline
 62
253
  6
CONTINUOUS
 90
10
 70
0
 10
-11.4829837961
 20
-5.6648981307
 10
-11.4956248183
 20
-4.8467860669
 10
-11.5068444978
 20
-4.027799398
 10
-11.5166428066
 20
-3.207941487
 10
-11.5250197531
 20
-2.3872179595
 10
-11.5319752986
 20
-1.5656299304
 10
-11.5375093166
 20
-0.7431739803
 10
-11.5416217235
 20
0.0801488024
 10
-11.5443125193
 20
0.9043327968
 10
-11.5455816752
 20
1.7293746407
  0
LWPOLYLINE
  5
22C
100
AcDbEntity
  8
RACCORDO
100
AcDbPolyline
 62
253
  6
CONTINUOUS
 90
24
 70
0
 10
-11.5455830948
 20
2.3789076989
 10
-11.5454813751
 20
2.3718786878
 10
-11.5451665721
 20
2.3649810607
 10
-11.5446390656
 20
2.3582231368
 10
-11.5438994918
 20
2.3516130666
 10
-11.5429487426
 20
2.3451588224
 10
-11.5417879647
 20
2.3388681884
 10
-11.5404185581
 20
2.3327487516
 10
-11.5388421744
 20
2.3268078926
 10
-11.5370607148
 20
2.3210527765
 10
-11.535076328
 20
2.3154903443
 10
-11.5328914072
 20
2.3101273047
 10
-11.5305085877
 20
2.3049701261
 10
-11.5279307432
 20
2.3000250283
 10
-11.5251609828
 20
2.2952979755
 10
-11.5222026471
 20
2.2907946689
 10
-11.5190593042
 20
2.2865205398
 10
-11.5157347449
 20
2.2824807432
 10
-11.5122329791
 20
2.2786801513
 10
-11.5085582302
 20
2.2751233479
 10
-11.5047149301
 20
2.2718146228
 10
-11.5007077142
 20
2.2687579666
 10
-11.4965414154
 20
2.2659570658
 10
-11.4938145453
 20
2.2643122517
  0
LWPOLYLINE
  5
22D
100
AcDbEntity
  8
RACCORDO
100
AcDbPolyline
 62
7
  6
CONTINUOUS
 90
10
 70
0
 10
-11.6920300204
 20
1.9339706964
 10
-11.6907698899
 20
1.1125966684
 10
-11.6880815805
 20
0.2873593243
 10
-11.6839682626
 20
-0.5370202049
 10
-11.6784299437
 20
-1.3605381721
 10
-11.671466641
 20
-2.1831914406
 10
-11.6630783711
 20
-3.0049770526
 10
-11.6532651571
 20
-3.8258917867
 10
-11.6420270414
 20
-4.6459318142
 10
-11.6294275697
 20
-5.4612053759
  0
LWPOLYLINE
  5
22E
100
AcDbEntity
  8
RACCORDO
100
AcDbPolyline
 62
253
  6
CONTINUOUS
 90
29
 70
0
 10
-11.6294300973
 20
10.0523870532
 10
-11.6294312071
 20
10.0473240996
 10
-11.6290975772
 20
10.0391797862
 10
-11.6283505721
 20
10.0310397757
 10
-11.6271908099
 20
10.022910803
 10
-11.6256192503
 20
10.0147995943
 10
-11.6236371934
 20
10.0067128606
 10
-11.6212462793
 20
9.9986572932
 10
-11.6184484862
 20
9.9906395572
 10
-11.6152461291
 20
9.9826662864
 10
-11.6116418576
 20
9.9747440782
 10
-11.6076386539
 20
9.9668794873
 10
-11.6032398302
 20
9.959079021
 10
-11.5984490263
 20
9.9513491334
 10
-11.593270206
 20
9.9436962203
 10
-11.5877076543
 20
9.9361266137
 10
-11.5817659737
 20
9.9286465769
 10
-11.5754500804
 20
9.9212622988
 10
-11.5687652003
 20
9.9139798892
 10
-11.5617168644
 20
9.9068053737
 10
-11.5543109045
 20
9.8997446885
 10
-11.5465534485
 20
9.8928036756
 10
-11.5384509149
 20
9.8859880781
 10
-11.5300100077
 20
9.8793035353
 10
-11.5212377111
 20
9.872755578
 10
-11.5121412832
 20
9.866349624
 10
-11.5027282506
 20
9.8600909737
 10
-11.4930064017
 20
9.8539848054
 10
-11.4829837803
 20
9.8480361716
  0
LWPOLYLINE
  5
22F
100
AcDbEntity
  8
RACCORDO
100
AcDbPolyline
 62
253
  6
CONTINUOUS
 90
10
 70
0
 10
-11.5455816752
 20
2.3789068793
 10
-11.5443125193
 20
3.2054678178
 10
-11.5416217235
 20
4.0328704774
 10
-11.5375093166
 20
4.8611114624
 10
-11.5319752986
 20
5.6901850309
 10
-11.5250197531
 20
6.5200901189
 10
-11.5166428066
 20
7.3508303633
 10
-11.5068444978
 20
8.1824047253
 10
-11.4956248183
 20
9.014807468
 10
-11.4829837961
 20
9.8480351961
  0
LWPOLYLINE
  5
230
100
AcDbEntity
  8
RACCORDO
100
AcDbPolyline
 62
253
  6
CONTINUOUS
 90
46
 70
0
 10
-11.5455830948
 20
1.7293754604
 10
-11.5454813751
 20
1.7365219351
 10
-11.5451665721
 20
1.7437830889
 10
-11.5446390656
 20
1.7511501644
 10
-11.5438994917
 20
1.7586142762
 10
-11.5429487424
 20
1.7661664221
 10
-11.5417879645
 20
1.7737974935
 10
-11.5404185578
 20
1.781498287
 10
-11.538842174
 20
1.7892595146
 10
-11.5370607143
 20
1.7970718159
 10
-11.5350763274
 20
1.8049257685
 10
-11.5328914065
 20
1.8128119
 10
-11.5305085868
 20
1.8207206992
 10
-11.5279307422
 20
1.8286426274
 10
-11.5251609817
 20
1.8365681302
 10
-11.5222026459
 20
1.8444876488
 10
-11.5190593027
 20
1.8523916317
 10
-11.5157347434
 20
1.8602705461
 10
-11.5122329774
 20
1.8681148895
 10
-11.5085582284
 20
1.875915201
 10
-11.5047149281
 20
1.8836620727
 10
-11.5007077121
 20
1.8913461615
 10
-11.4965414132
 20
1.8989581997
 10
-11.4922210564
 20
1.9064890066
 10
-11.4877518523
 20
1.9139294995
 10
-11.4831391911
 20
1.9212707046
 10
-11.4783886361
 20
1.9285037678
 10
-11.4735059167
 20
1.9356199657
 10
-11.468496922
 20
1.9426107154
 10
-11.463367693
 20
1.9494675856
 10
-11.4581244161
 20
1.9561823064
 10
-11.452773415
 20
1.9627467793
 10
-11.4473211435
 20
1.9691530872
 10
-11.4417741774
 20
1.9753935035
 10
-11.4361392068
 20
1.9814605018
 10
-11.4304230278
 20
1.9873467649
 10
-11.4246325347
 20
1.9930451934
 10
-11.4187747111
 20
1.9985489147
 10
-11.412856622
 20
2.0038512908
 10
-11.4068854052
 20
2.0089459268
 10
-11.4008682623
 20
2.013826678
 10
-11.3948124505
 20
2.0184876579
 10
-11.3887252735
 20
2.0229232451
 10
-11.3826140729
 20
2.0271280898
 10
-11.3764862193
 20
2.0310971208
 10
-11.3703491034
 20
2.0348255511
  0
LWPOLYLINE
  5
231
100
AcDbEntity
  8
RACCORDO
100
AcDbPolyline
 62
7
  6
CONTINUOUS
 90
10
 70
0
 10
-11.6294300974
 20
10.0523870532
 10
-11.6420335682
 20
9.2217650817
 10
-11.6532705673
 20
8.3883277064
 10
-11.6630827902
 20
7.5557146046
 10
-11.6714701784
 20
6.7239296649
 10
-11.6784326933
 20
5.8929761459
 10
-11.6839703019
 20
5.0628570359
 10
-11.6880829715
 20
4.2335755015
 10
-11.6907706786
 20
3.4051353085
 10
-11.6920300212
 20
2.5825853792
  0
LWPOLYLINE
  5
232
100
AcDbEntity
  8
RACCORDO
100
AcDbPolyline
 62
253
  6
CONTINUOUS
 90
28
 70
0
 10
-11.482983796
 20
9.848035196
 10
-11.4765461233
 20
10.2052206757
 10
-11.4686622969
 20
10.5632302809
 10
-11.4593325009
 20
10.9220557326
 10
-11.4485569574
 20
11.2816887696
 10
-11.4363359145
 20
11.6421210403
 10
-11.4226696475
 20
12.0033441021
 10
-11.4075584813
 20
12.3653495705
 10
-11.3910027683
 20
12.7281291071
 10
-11.3730028778
 20
13.0916743124
 10
-11.3535592353
 20
13.4559767807
 10
-11.3326722965
 20
13.8210280902
 10
-11.3103425269
 20
14.1868197909
 10
-11.2865704538
 20
14.5533434279
 10
-11.2613566347
 20
14.9205905274
 10
-11.2347016317
 20
15.2885525874
 10
-11.2066060738
 20
15.6572211038
 10
-11.1770706203
 20
16.026587554
 10
-11.1460959296
 20
16.3966433847
 10
-11.1136827321
 20
16.7673800457
 10
-11.079831789
 20
17.1387889662
 10
-11.0445438552
 20
17.510861539
 10
-11.007819756
 20
17.8835892348
 10
-10.9696603603
 20
18.2569633715
 10
-10.9300665411
 20
18.6309750893
 10
-10.8890392247
 20
19.0056156675
 10
-10.8465793874
 20
19.3808765261
 10
-10.8026880309
 20
19.7567489936
  0
LWPOLYLINE
  5
233
100
AcDbEntity
  8
RACCORDO
100
AcDbPolyline
 62
253
  6
CONTINUOUS
 90
55
 70
0
 10
4.7506473673
 20
11.1125385558
 10
4.7402721101
 20
11.1086614948
 10
4.7296179867
 20
11.104959511
 10
4.7186938147
 20
11.1014356684
 10
4.7075086349
 20
11.0980928833
 10
4.6960717044
 20
11.0949339222
 10
4.6843924885
 20
11.0919613995
 10
4.6724806529
 20
11.0891777752
 10
4.660346056
 20
11.0865853533
 10
4.6479987406
 20
11.084186279
 10
4.6354489253
 20
11.081982538
 10
4.6227069965
 20
11.0799759541
 10
4.6097834996
 20
11.078168188
 10
4.5966891301
 20
11.0765607357
 10
4.5834347251
 20
11.0751549276
 10
4.570031254
 20
11.0739519273
 10
4.5564898096
 20
11.0729527301
 10
4.5428215991
 20
11.0721581633
 10
4.5290379342
 20
11.0715688842
 10
4.5151502226
 20
11.0711853807
 10
4.5011699577
 20
11.0710079701
 10
4.4871087098
 20
11.0710367992
 10
4.4729781162
 20
11.0712718442
 10
4.4587898713
 20
11.0717129105
 10
4.4445557176
 20
11.0723596331
 10
4.4302874353
 20
11.0732114769
 10
4.4159968331
 20
11.0742677367
 10
4.4016957378
 20
11.0755275384
 10
4.3873959853
 20
11.0769898395
 10
4.3731094102
 20
11.0786534296
 10
4.3588478361
 20
11.080516932
 10
4.3446230661
 20
11.0825788045
 10
4.3304468727
 20
11.0848373405
 10
4.3163309882
 20
11.087290671
 10
4.3022870952
 20
11.0899367655
 10
4.2883268163
 20
11.0927734341
 10
4.2744617054
 20
11.0957983291
 10
4.2607032372
 20
11.0990089471
 10
4.2470627984
 20
11.102402631
 10
4.233551678
 20
11.1059765722
 10
4.2201810579
 20
11.1097278127
 10
4.2069620038
 20
11.1136532481
 10
4.1939054557
 20
11.1177496296
 10
4.1810222196
 20
11.122013567
 10
4.1683229575
 20
11.1264415314
 10
4.1558181797
 20
11.1310298583
 10
4.1435182351
 20
11.1357747503
 10
4.1314333032
 20
11.1406722804
 10
4.1195733857
 20
11.1457183954
 10
4.107948298
 20
11.1509089192
 10
4.096567661
 20
11.1562395559
 10
4.0854408936
 20
11.1617058939
 10
4.0745772042
 20
11.1673034093
 10
4.0639855839
 20
11.1730274694
 10
4.0536747982
 20
11.178873337
  0
LINE
  5
234
100
AcDbEntity
  8
DRAFT
100
AcDbLine
 62
7
  6
CONTINUOUS
 10
9.0897165453
 20
-9.6029613857
 11
9.9382446827
 21
-9.6072365226
  0
LINE
  5
235
100
AcDbEntity
  8
RACCORDO
100
AcDbLine
 62
253
  6
CONTINUOUS
 10
3.3493443316
 20
-14.2288984989
 11
-11.482983796
 21
-5.6648981308
  0
LWPOLYLINE
  5
236
100
AcDbEntity
  8
RACCORDO
100
AcDbPolyline
 62
253
  6
CONTINUOUS
 90
58
 70
0
 10
4.7217357751
 20
12.2521888982
 10
4.7046331406
 20
12.2412231548
 10
4.6875620003
 20
12.2298050983
 10
4.670532125
 20
12.2179413617
 10
4.6535531508
 20
12.2056388624
 10
4.6366349076
 20
12.1929047155
 10
4.6197874124
 20
12.1797462368
 10
4.6030203211
 20
12.1661710834
 10
4.586343217
 20
12.1521871277
 10
4.5697659369
 20
12.137802378
 10
4.5532979905
 20
12.1230252043
 10
4.5369487799
 20
12.1078641721
 10
4.5207278866
 20
12.0923279246
 10
4.5046445875
 20
12.076425469
 10
4.4887080944
 20
12.0601660417
 10
4.4729277734
 20
12.0435589443
 10
4.4573126587
 20
12.0266138095
 10
4.4418716841
 20
12.0093404671
 10
4.4266139227
 20
11.991748807
 10
4.4115481089
 20
11.9738490283
 10
4.3966828621
 20
11.9556515113
 10
4.3820269178
 20
11.9371666839
 10
4.3675886713
 20
11.9184052659
 10
4.3533763766
 20
11.8993781268
 10
4.3393983705
 20
11.8800961578
 10
4.3256626503
 20
11.8605705212
 10
4.3121770789
 20
11.8408125395
 10
4.2989495835
 20
11.8208335537
 10
4.2859877413
 20
11.8006451411
 10
4.2732989614
 20
11.7802589907
 10
4.2608906903
 20
11.759686792
 10
4.2487700295
 20
11.7389404492
 10
4.2369439143
 20
11.7180319831
 10
4.2254192952
 20
11.696973408
 10
4.2142027759
 20
11.6757769213
 10
4.2033007648
 20
11.6544547864
 10
4.1927196552
 20
11.6330192344
 10
4.1824655036
 20
11.611482661
 10
4.1725441765
 20
11.5898575386
 10
4.162961502
 20
11.5681562999
 10
4.1537229687
 20
11.5463914984
 10
4.1448338574
 20
11.5245757279
 10
4.1362993884
 20
11.5027215347
 10
4.1281244502
 20
11.4808415566
 10
4.1203137148
 20
11.4589484515
 10
4.1128717692
 20
11.4370548168
 10
4.1058028804
 20
11.4151733208
 10
4.0991110828
 20
11.3933166077
 10
4.0928002957
 20
11.3714972266
 10
4.0868741295
 20
11.349727763
 10
4.0813359782
 20
11.3280208299
 10
4.0761891054
 20
11.3063889723
 10
4.0714364537
 20
11.284844655
 10
4.0670807423
 20
11.2634003657
 10
4.0631245512
 20
11.2420686028
 10
4.0595701627
 20
11.2208617241
 10
4.0564195697
 20
11.1997919423
 10
4.0536745645
 20
11.178871425
  0
LWPOLYLINE
  5
237
100
AcDbEntity
  8
RACCORDO
100
AcDbPolyline
 62
253
  6
CONTINUOUS
 90
58
 70
0
 10
5.0875672637
 20
11.6475272747
 10
5.0789345361
 20
11.6420819272
 10
5.0703273216
 20
11.6364170134
 10
5.0617456204
 20
11.6305325333
 10
5.0531844275
 20
11.624424787
 10
5.0446487477
 20
11.6180974744
 10
5.0361535954
 20
11.6115616953
 10
5.0276991157
 20
11.6048171342
 10
5.0192851634
 20
11.5978641066
 10
5.0109263174
 20
11.5907146585
 10
5.0026226832
 20
11.5833684572
 10
4.9943741552
 20
11.5758258353
 10
4.9861949963
 20
11.5680998372
 10
4.9780853223
 20
11.5601901421
 10
4.9700450173
 20
11.5520970708
 10
4.9620879967
 20
11.5438346305
 10
4.954214405
 20
11.535402528
 10
4.9464240977
 20
11.5268010566
 10
4.9387305566
 20
11.5180451035
 10
4.9311339493
 20
11.509134401
 10
4.9236341081
 20
11.5000692168
 10
4.9162440122
 20
11.4908652415
 10
4.9089638536
 20
11.4815222377
 10
4.9017934402
 20
11.4720404427
 10
4.8947451743
 20
11.4624362592
 10
4.8878192647
 20
11.4527094717
 10
4.8810155025
 20
11.4428602957
 10
4.8743456637
 20
11.4329057809
 10
4.8678099823
 20
11.4228457483
 10
4.8614082241
 20
11.4126803768
 10
4.8551514623
 20
11.4024272529
 10
4.8490399462
 20
11.3920862217
 10
4.8430734263
 20
11.3816574381
 10
4.8372622278
 20
11.3711589532
 10
4.8316066221
 20
11.3605906509
 10
4.8261063377
 20
11.3499526473
 10
4.8207708859
 20
11.3392633416
 10
4.8156005501
 20
11.3285226418
 10
4.8105950469
 20
11.3177306399
 10
4.8057630366
 20
11.3069060118
 10
4.80110482
 20
11.2960487015
 10
4.7966200964
 20
11.2851587649
 10
4.7923166242
 20
11.2742550461
 10
4.7881947176
 20
11.2633375212
 10
4.7842540625
 20
11.252406214
 10
4.7805014753
 20
11.2414800401
 10
4.7769372827
 20
11.2305590139
 10
4.7735611581
 20
11.2196431208
 10
4.7703789376
 20
11.2087512328
 10
4.7673909549
 20
11.197883379
 10
4.7645968764
 20
11.1870395302
 10
4.7620015383
 20
11.1762384705
 10
4.7596052697
 20
11.165480154
 10
4.7574077416
 20
11.1547646266
 10
4.7554128024
 20
11.1441108109
 10
4.753621735
 20
11.1335250143
 10
4.7520332567
 20
11.1230009293
 10
4.7506473673
 20
11.1125385558
  0
LWPOLYLINE
  5
238
100
AcDbEntity
  8
RACCORDO
100
AcDbPolyline
 62
7
  6
CONTINUOUS
 90
34
 70
0
 10
-11.5017718968
 20
2.2492951078
 10
-11.5098748799
 20
2.2442555952
 10
-11.5213431715
 20
2.2367249777
 10
-11.5324293082
 20
2.2289682781
 10
-11.5431314943
 20
2.2209958469
 10
-11.5534526262
 20
2.2128149557
 10
-11.5633973668
 20
2.2044306626
 10
-11.5729653946
 20
2.195851782
 10
-11.5821566843
 20
2.1870871995
 10
-11.5909737413
 20
2.1781430354
 10
-11.5994145307
 20
2.1690299448
 10
-11.6074796951
 20
2.1597564778
 10
-11.6151734077
 20
2.1503266186
 10
-11.6224940141
 20
2.1407509417
 10
-11.6294410738
 20
2.131039398
 10
-11.6360184029
 20
2.1211959009
 10
-11.6422247564
 20
2.1112313065
 10
-11.6480593307
 20
2.1011566335
 10
-11.6535251514
 20
2.0909768768
 10
-11.6586206265
 20
2.0807055326
 10
-11.6633466155
 20
2.0703522484
 10
-11.6677082279
 20
2.0599166716
 10
-11.671704341
 20
2.0494126737
 10
-11.675336064
 20
2.038849836
 10
-11.6786094687
 20
2.0282211965
 10
-11.6815237373
 20
2.0175385827
 10
-11.6840789404
 20
2.0068132597
 10
-11.6862793045
 20
1.9960370133
 10
-11.6881238262
 20
1.9852215067
 10
-11.6896120796
 20
1.9743780117
 10
-11.6907460272
 20
1.9634974638
 10
-11.6915248256
 20
1.9525844783
 10
-11.6919469305
 20
1.9416574745
 10
-11.6920300055
 20
1.9339610442
  0
LINE
  5
239
100
AcDbEntity
  8
RACCORDO
100
AcDbLine
 62
253
  6
CONTINUOUS
 10
8.3147066098
 20
14.4692379831
 11
4.721735786
 21
12.2521888919
  0
LINE
  5
23A
100
AcDbEntity
  8
RACCORDO
100
AcDbLine
 62
253
  6
CONTINUOUS
 10
8.6679908757
 20
13.8568340864
 11
5.0875672637
 21
11.6475272747
  0
LINE
  5
23B
100
AcDbEntity
  8
RACCORDO
100
AcDbLine
 62
7
  6
CONTINUOUS
 10
-11.5017687429
 20
2.2492970459
 11
-11.4852296366
 21
2.2593554329
  0
LWPOLYLINE
  5
23C
100
AcDbEntity
  8
RACCORDO
100
AcDbPolyline
 62
253
  6
CONTINUOUS
 90
6
 70
0
 10
-11.5017687429
 20
2.2492970459
 10
-11.4978896654
 20
2.2515182414
 10
-11.4933357371
 20
2.2537961813
 10
-11.4886338452
 20
2.2558084516
 10
-11.483789717
 20
2.2575526014
 10
-11.48267737
 20
2.2578817862
  0
LINE
  5
23D
100
AcDbEntity
  8
RACCORDO
100
AcDbLine
 62
253
  6
CONTINUOUS
 10
-6.1160103411
 20
20.7389404975
 11
-6.1160103411
 21
20.676034159
  0
LINE
  5
23E
100
AcDbEntity
  8
DRAFT
100
AcDbLine
 62
7
  6
CONTINUOUS
 10
-5.3987499633
 20
22.3872159385
 11
-5.3987499633
 21
21.2196634427
  0
LINE
  5
23F
100
AcDbEntity
  8
DRAFT
100
AcDbLine
 62
7
  6
CONTINUOUS
 10
2.1802135826
 20
15.862870922
 11
2.5208459859
 21
16.6469879974
  0
LINE
  5
240
100
AcDbEntity
  8
RACCORDO
100
AcDbLine
 62
7
  6
CONTINUOUS
 10
2.5208459859
 20
17.8145404932
 11
1.8035856082
 21
16.1662650522
  0
LWPOLYLINE
  5
241
100
AcDbEntity
  8
RACCORDO
100
AcDbPolyline
 62
7
  6
CONTINUOUS
 90
46
 70
0
 10
3.3362918042
 20
-6.2984052724
 10
3.3440711577
 20
-6.30280292
 10
3.3561467629
 20
-6.3092709404
 10
3.3684340019
 20
-6.3154308876
 10
3.3809349466
 20
-6.3212886852
 10
3.3936376416
 20
-6.3268431546
 10
3.4065132314
 20
-6.3320865702
 10
3.4195572636
 20
-6.3370224625
 10
3.4327648564
 20
-6.3416534304
 10
3.4461030873
 20
-6.3459726507
 10
3.459566856
 20
-6.3499838032
 10
3.4731517418
 20
-6.3536898719
 10
3.4868221191
 20
-6.3570860032
 10
3.5005707955
 20
-6.3601756542
 10
3.5143948334
 20
-6.3629625913
 10
3.528261806
 20
-6.3654450604
 10
3.5421579145
 20
-6.3676256507
 10
3.5560865042
 20
-6.3695094818
 10
3.5700390439
 20
-6.3710990735
 10
3.5840078184
 20
-6.3723967917
 10
3.5979906163
 20
-6.3734052272
 10
3.6119862454
 20
-6.3741261108
 10
3.6259897143
 20
-6.3745605709
 10
3.6399964273
 20
-6.3747091539
 10
3.654005416
 20
-6.3745719252
 10
3.6680120018
 20
-6.3741484408
 10
3.6820113131
 20
-6.3734376346
 10
3.6960024111
 20
-6.3724379115
 10
3.7099829656
 20
-6.3711468409
 10
3.7239454913
 20
-6.3695620365
 10
3.7378822078
 20
-6.3676809029
 10
3.7517962636
 20
-6.3654985771
 10
3.7656742237
 20
-6.363012295
 10
3.779485135
 20
-6.360222959
 10
3.7932260955
 20
-6.3571267866
 10
3.8068899833
 20
-6.3537202569
 10
3.8204424796
 20
-6.3500070798
 10
3.8338792028
 20
-6.3459841438
 10
3.8471950516
 20
-6.341647642
 10
3.8603582173
 20
-6.3370031187
 10
3.8733638357
 20
-6.3320477296
 10
3.8862073487
 20
-6.3267777136
 10
3.8988608497
 20
-6.3211994272
 10
3.9113126833
 20
-6.3153132754
 10
3.9235645464
 20
-6.3091132116
 10
3.9318294627
 20
-6.3046882574
  0
LINE
  5
242
100
AcDbEntity
  8
RACCORDO
100
AcDbLine
 62
253
  6
CONTINUOUS
 10
3.2845217042
 20
-6.8333411857
 11
-11.5455816752
 21
1.7293746407
  0
LINE
  5
243
100
AcDbEntity
  8
RACCORDO
100
AcDbLine
 62
253
  6
CONTINUOUS
 10
3.4597571152
 20
-6.5278919147
 11
-11.3703491034
 21
2.0348255511
  0
LWPOLYLINE
  5
244
100
AcDbEntity
  8
RACCORDO
100
AcDbPolyline
 62
253
  6
CONTINUOUS
 90
29
 70
0
 10
-11.5455816749
 20
1.7293746404
 10
-11.5556041157
 20
1.7353312146
 10
-11.565325743
 20
1.7414533651
 10
-11.5747385129
 20
1.7477360282
 10
-11.583834619
 20
1.7541739997
 10
-11.592606555
 20
1.7607619648
 10
-11.6010471144
 20
1.7674945056
 10
-11.609149346
 20
1.7743660976
 10
-11.6169064974
 20
1.7813710287
 10
-11.6243120825
 20
1.7885034283
 10
-11.6313599506
 20
1.7957573795
 10
-11.6380443005
 20
1.8031269127
 10
-11.6443596199
 20
1.8106059269
 10
-11.6503006864
 20
1.8181882541
 10
-11.6558625798
 20
1.8258676266
 10
-11.6610407018
 20
1.8336376683
 10
-11.6658307701
 20
1.8414919753
 10
-11.6702288153
 20
1.8494240565
 10
-11.6742311909
 20
1.8574273015
 10
-11.6778345837
 20
1.8654951057
 10
-11.6810360145
 20
1.873620814
 10
-11.6838328345
 20
1.8817976618
 10
-11.6862227292
 20
1.8900189053
 10
-11.6882037222
 20
1.8982777636
 10
-11.6897741757
 20
1.906567363
 10
-11.69093279
 20
1.914880874
 10
-11.6916786051
 20
1.9232114372
 10
-11.6920110033
 20
1.9315521065
 10
-11.6920300144
 20
1.9339621222
  0
LWPOLYLINE
  5
245
100
AcDbEntity
  8
RACCORDO
100
AcDbPolyline
 62
253
  6
CONTINUOUS
 90
48
 70
0
 10
-11.3703491034
 20
2.0348255511
 10
-11.3753659072
 20
2.0378078846
 10
-11.3802247269
 20
2.0408686523
 10
-11.3849255625
 20
2.0440078544
 10
-11.3894721193
 20
2.0472282615
 10
-11.3938606919
 20
2.0505271028
 10
-11.3980801647
 20
2.0538960665
 10
-11.4021300477
 20
2.0573352871
 10
-11.4060108309
 20
2.06084463
 10
-11.409712868
 20
2.0644153792
 10
-11.4132357043
 20
2.0680476792
 10
-11.4165797947
 20
2.0717413853
 10
-11.4197368575
 20
2.0754873482
 10
-11.4227064313
 20
2.0792856982
 10
-11.4254889775
 20
2.0831363048
 10
-11.428077599
 20
2.0870296276
 10
-11.4304718165
 20
2.0909657759
 10
-11.4326721092
 20
2.0949446404
 10
-11.4346730178
 20
2.0989563519
 10
-11.4364740462
 20
2.10300099
 10
-11.4380756905
 20
2.1070784751
 10
-11.4394739802
 20
2.1111786995
 10
-11.4406684105
 20
2.1153017185
 10
-11.4416594861
 20
2.1194474768
 10
-11.4424447501
 20
2.1236057004
 10
-11.4430236921
 20
2.1277764221
 10
-11.4433968224
 20
2.1319596091
 10
-11.443563215
 20
2.1361448885
 10
-11.4435223566
 20
2.1403322651
 10
-11.4432747604
 20
2.1445217341
 10
-11.4428210407
 20
2.1487029087
 10
-11.4421606863
 20
2.1528757668
 10
-11.4412942083
 20
2.1570403305
 10
-11.440223754
 20
2.1611862792
 10
-11.4389488171
 20
2.1653135679
 10
-11.4374699039
 20
2.1694222415
 10
-11.4357906799
 20
2.1735021148
 10
-11.4339106465
 20
2.1775531183
 10
-11.4318303023
 20
2.1815753214
 10
-11.4295548084
 20
2.185558747
 10
-11.4270836823
 20
2.1895032954
 10
-11.4244174065
 20
2.1934090663
 10
-11.4215625898
 20
2.1972663819
 10
-11.4185187671
 20
2.201075121
 10
-11.4152864034
 20
2.2048354046
 10
-11.4118735033
 20
2.208537918
 10
-11.4082796075
 20
2.2121825257
 10
-11.4064841307
 20
2.2138887647
  0
LINE
  5
246
100
AcDbEntity
  8
DRAFT
100
AcDbLine
 62
7
  6
CONTINUOUS
 10
9.0897165453
 20
8.5226787591
 11
8.6679908757
 21
8.2834292014
  0
LINE
  5
247
100
AcDbEntity
  8
DRAFT
100
AcDbLine
 62
7
  6
CONTINUOUS
 10
8.6679908757
 20
7.7977748264
 11
8.8094122319
 21
7.8780046994
  0
LWPOLYLINE
  5
248
100
AcDbEntity
  8
RACCORDO
100
AcDbPolyline
 62
253
  6
CONTINUOUS
 90
55
 70
0
 10
3.2845217045
 20
-6.1838089465
 10
3.2948365872
 20
-6.1895966685
 10
3.3054354616
 20
-6.1952123075
 10
3.3163095584
 20
-6.2006512187
 10
3.3274498575
 20
-6.2059088988
 10
3.3388471637
 20
-6.210981008
 10
3.3504921206
 20
-6.2158633698
 10
3.3623751565
 20
-6.2205519728
 10
3.3744863872
 20
-6.2250429132
 10
3.386815691
 20
-6.2293324193
 10
3.3993528184
 20
-6.2334169409
 10
3.4120874399
 20
-6.2372931232
 10
3.4250090518
 20
-6.2409577469
 10
3.4381069708
 20
-6.2444077971
 10
3.4513703522
 20
-6.247640427
 10
3.4647882337
 20
-6.2506529348
 10
3.4783495247
 20
-6.2534428477
 10
3.4920429943
 20
-6.2560078674
 10
3.5058572912
 20
-6.258345832
 10
3.5197809784
 20
-6.2604548276
 10
3.5338025418
 20
-6.262333127
 10
3.547910379
 20
-6.2639791352
 10
3.5620928131
 20
-6.2653915142
 10
3.5763381131
 20
-6.2665691153
 10
3.5906345026
 20
-6.2675109188
 10
3.6049701573
 20
-6.2682161717
 10
3.6193332111
 20
-6.268684312
 10
3.6337117763
 20
-6.2689149006
 10
3.648093956
 20
-6.2689077752
 10
3.66246785
 20
-6.2686629666
 10
3.6768215615
 20
-6.268180621
 10
3.6911432094
 20
-6.2674611687
 10
3.7054209482
 20
-6.2665052322
 10
3.7196429745
 20
-6.265313541
 10
3.7337975242
 20
-6.2638871132
 10
3.7478728816
 20
-6.2622271582
 10
3.7618573991
 20
-6.2603349848
 10
3.7757395123
 20
-6.2582121915
 10
3.7895077276
 20
-6.2558605668
 10
3.8031506306
 20
-6.2532819928
 10
3.8166569228
 20
-6.2504786417
 10
3.8300154399
 20
-6.2474528653
 10
3.8432151391
 20
-6.2442070944
 10
3.8562450905
 20
-6.2407440536
 10
3.8690945214
 20
-6.2370666418
 10
3.8817528336
 20
-6.2331778187
 10
3.894209599
 20
-6.2290808228
 10
3.9064544602
 20
-6.2247790927
 10
3.9184771793
 20
-6.2202761505
 10
3.9302677538
 20
-6.2155757873
 10
3.9418164939
 20
-6.2106819122
 10
3.9531139195
 20
-6.2055984705
 10
3.9641507064
 20
-6.2003296576
 10
3.9749176985
 20
-6.1948799194
 10
3.9854059872
 20
-6.1892538034
  0
LINE
  5
249
100
AcDbEntity
  8
RACCORDO
100
AcDbLine
 62
7
  6
CONTINUOUS
 10
-11.4938124955
 20
2.2643110681
 11
3.3362937232
 21
-6.2984063977
  0
LINE
  5
24A
100
AcDbEntity
  8
RACCORDO
100
AcDbLine
 62
253
  6
CONTINUOUS
 10
-11.5455816752
 20
2.3789068793
 11
3.2845217042
 21
-6.1838089471
  0
LINE
  5
24B
100
AcDbEntity
  8
0
100
AcDbLine
 62
7
  6
CONTINUOUS
 10
9.9382446827
 20
-9.6072365226
 11
10.0867632571
 21
-9.6929892861
  0
LINE
  5
24C
100
AcDbEntity
  8
0
100
AcDbLine
 62
7
  6
CONTINUOUS
 10
8.6679908757
 20
6.8669372741
 11
10.1357906833
 21
7.8969717561
  0
LINE
  5
24D
100
AcDbEntity
  8
DRAFT
100
AcDbLine
 62
7
  6
CONTINUOUS
 10
8.6679908757
 20
-7.2487357178
 11
7.8548180773
 21
-6.7792199355
  0
LINE
  5
24E
100
AcDbEntity
  8
RACCORDO
100
AcDbLine
 62
7
  6
CONTINUOUS
 10
6.7505632152
 20
-4.760944268
 11
6.8364806147
 21
-4.8105518976
  0
LWPOLYLINE
  5
24F
100
AcDbEntity
  8
RACCORDO
100
AcDbPolyline
 62
253
  6
CONTINUOUS
 90
55
 70
0
 10
4.0501631015
 20
1.2727108893
 10
4.0396765593
 20
1.2672529942
 10
4.0289113113
 20
1.2619714416
 10
4.0178762646
 20
1.2568706016
 10
4.0065805497
 20
1.2519546945
 10
3.9950335129
 20
1.2472277879
 10
3.9832447081
 20
1.2426937928
 10
3.9712238896
 20
1.2383564608
 10
3.9589810034
 20
1.2342193804
 10
3.9465261793
 20
1.2302859748
 10
3.9338697227
 20
1.2265594985
 10
3.9210221055
 20
1.2230430348
 10
3.9079939579
 20
1.2197394933
 10
3.8947960595
 20
1.2166516073
 10
3.8814393303
 20
1.2137819317
 10
3.8679348218
 20
1.211132841
 10
3.8542937078
 20
1.2087065271
 10
3.8405272748
 20
1.2065049974
 10
3.8266469135
 20
1.2045300735
 10
3.8126641085
 20
1.2027833896
 10
3.7985904292
 20
1.2012663907
 10
3.7844375203
 20
1.1999803322
 10
3.7702170921
 20
1.1989262781
 10
3.7559409106
 20
1.1981051004
 10
3.7416207879
 20
1.1975174788
 10
3.7272685728
 20
1.1971638993
 10
3.7128961403
 20
1.1970446545
 10
3.6985153822
 20
1.1971598432
 10
3.6841381973
 20
1.1975093699
 10
3.6697764814
 20
1.1980929455
 10
3.6554421174
 20
1.1989100871
 10
3.6411469657
 20
1.1999601186
 10
3.6269028542
 20
1.2012421713
 10
3.6127215686
 20
1.2027551842
 10
3.5986148425
 20
1.2044979057
 10
3.584594348
 20
1.2064688936
 10
3.5706716857
 20
1.2086665173
 10
3.5568583753
 20
1.2110889583
 10
3.5431658461
 20
1.2137342124
 10
3.5296054273
 20
1.2166000908
 10
3.5161883389
 20
1.2196842223
 10
3.5029256824
 20
1.2229840551
 10
3.4898284312
 20
1.2264968588
 10
3.4769074222
 20
1.230219727
 10
3.4641733463
 20
1.2341495792
 10
3.4516367398
 20
1.238283164
 10
3.4393079755
 20
1.2426170612
 10
3.4271972543
 20
1.2471476848
 10
3.4153145968
 20
1.2518712863
 10
3.4036698347
 20
1.2567839572
 10
3.3922726029
 20
1.2618816328
 10
3.3811323317
 20
1.2671600952
 10
3.3702582385
 20
1.272614977
 10
3.3596593207
 20
1.2782417648
 10
3.3493443478
 20
1.284035803
  0
LWPOLYLINE
  5
250
100
AcDbEntity
  8
RACCORDO
100
AcDbPolyline
 62
253
  6
CONTINUOUS
 90
58
 70
0
 10
4.7506473673
 20
-23.2833918366
 10
4.7520332567
 20
-23.2923087311
 10
4.753621735
 20
-23.3010614194
 10
4.7554128024
 20
-23.3096499016
 10
4.7574077416
 20
-23.3180790545
 10
4.7596052697
 20
-23.3263440013
 10
4.7620015383
 20
-23.3344301112
 10
4.7645968764
 20
-23.3423369713
 10
4.7673909549
 20
-23.3500649946
 10
4.7703789376
 20
-23.35760079
 10
4.7735611581
 20
-23.3649440147
 10
4.7769372827
 20
-23.3720950115
 10
4.7805014753
 20
-23.379041417
 10
4.7842540625
 20
-23.3857828814
 10
4.7881947176
 20
-23.3923197544
 10
4.7923166242
 20
-23.398640722
 10
4.7966200964
 20
-23.4047454101
 10
4.80110482
 20
-23.4106341929
 10
4.8057630366
 20
-23.4162968781
 10
4.8105950469
 20
-23.4217330745
 10
4.8156005501
 20
-23.4269431734
 10
4.8207708859
 20
-23.4319181569
 10
4.8261063377
 20
-23.4366576164
 10
4.8316066221
 20
-23.4411619604
 10
4.8372622278
 20
-23.4454233959
 10
4.8430734263
 20
-23.4494415043
 10
4.8490399461
 20
-23.4532167042
 10
4.8551514623
 20
-23.4567424586
 10
4.8614082241
 20
-23.4600183346
 10
4.8678099823
 20
-23.463044765
 10
4.8743456637
 20
-23.4658165117
 10
4.8810155025
 20
-23.4683331344
 10
4.8878192647
 20
-23.4705950733
 10
4.8947451743
 20
-23.4725984106
 10
4.9017934402
 20
-23.4743426979
 10
4.9089638536
 20
-23.4758283835
 10
4.9162440122
 20
-23.4770528953
 10
4.9236341081
 20
-23.4780157815
 10
4.9311339493
 20
-23.4787174939
 10
4.9387305566
 20
-23.4791568155
 10
4.9464240977
 20
-23.4793332916
 10
4.954214405
 20
-23.479247377
 10
4.9620879967
 20
-23.4788992186
 10
4.9700450173
 20
-23.478288362
 10
4.9780853223
 20
-23.4774152615
 10
4.9861949963
 20
-23.4762814278
 10
4.9943741552
 20
-23.4748864107
 10
5.0026226832
 20
-23.4732306603
 10
5.0109263174
 20
-23.4713170375
 10
5.0192851634
 20
-23.4691450918
 10
5.0276991157
 20
-23.4667152736
 10
5.0361535954
 20
-23.4640317946
 10
5.0446487477
 20
-23.4610941775
 10
5.0531844275
 20
-23.4579028997
 10
5.0617456204
 20
-23.4544636044
 10
5.0703273216
 20
-23.4507781729
 10
5.0789345361
 20
-23.446844724
 10
5.0875672637
 20
-23.4426632578
  0
LWPOLYLINE
  5
251
100
AcDbEntity
  8
RACCORDO
100
AcDbPolyline
 62
253
  6
CONTINUOUS
 90
28
 70
0
 10
4.0536745645
 20
-23.3381466002
 10
4.0564195697
 20
-23.3559521747
 10
4.0595701627
 20
-23.3734466754
 10
4.0631245512
 20
-23.3906200044
 10
4.0670807423
 20
-23.4074622998
 10
4.0714364537
 20
-23.4239637898
 10
4.0761891054
 20
-23.4401148067
 10
4.0813359782
 20
-23.4559060178
 10
4.0868741295
 20
-23.4713283412
 10
4.0928002957
 20
-23.4863728075
 10
4.0991110828
 20
-23.5010307351
 10
4.1058028804
 20
-23.5152936952
 10
4.1128717692
 20
-23.5291534348
 10
4.1203137148
 20
-23.5426019816
 10
4.1281244502
 20
-23.5556315812
 10
4.1362993884
 20
-23.568234663
 10
4.1448338573
 20
-23.5804039764
 10
4.1537229687
 20
-23.5921325162
 10
4.162961502
 20
-23.6034134573
 10
4.1725441765
 20
-23.6142403161
 10
4.1824655036
 20
-23.6246068649
 10
4.1927196552
 20
-23.6345070585
 10
4.2033007648
 20
-23.6439352097
 10
4.2142027759
 20
-23.6528859056
 10
4.2254192952
 20
-23.6613539212
 10
4.2369439143
 20
-23.6693344041
 10
4.2487700295
 20
-23.6768227718
 10
4.2546625879
 20
-23.6803051923
  0
LINE
  5
252
100
AcDbEntity
  8
RACCORDO
100
AcDbLine
 62
253
  6
CONTINUOUS
 10
1.8035856082
 20
16.1662650522
 11
1.8035856082
 21
16.1033587137
  0
LINE
  5
253
100
AcDbEntity
  8
DRAFT
100
AcDbLine
 62
7
  6
CONTINUOUS
 10
2.5208459859
 20
17.8145404932
 11
2.5208459859
 21
16.6469879974
  0
LWPOLYLINE
  5
254
100
AcDbEntity
  8
RACCORDO
100
AcDbPolyline
 62
253
  6
CONTINUOUS
 90
28
 70
0
 10
4.0536745632
 20
11.1788714258
 10
4.0082324926
 20
10.8038943211
 10
3.9642725848
 20
10.4294995844
 10
3.9217958416
 20
10.0556958871
 10
3.8808032077
 20
9.6824918273
 10
3.8412956408
 20
9.3098961077
 10
3.8032741085
 20
8.9379175336
 10
3.7667394833
 20
8.5665647849
 10
3.7316925866
 20
8.1958463929
 10
3.6981342565
 20
7.8257709171
 10
3.6660652577
 20
7.4563469263
 10
3.6354863169
 20
7.0875829725
 10
3.6063981649
 20
6.7194875675
 10
3.5788014647
 20
6.3520692317
 10
3.5526968416
 20
5.9853364712
 10
3.5280849196
 20
5.6192977525
 10
3.5049662596
 20
5.2539615472
 10
3.4833413854
 20
4.8893363124
 10
3.4632108137
 20
4.5254304683
 10
3.4445750039
 20
4.1622524349
 10
3.4274343777
 20
3.7998106198
 10
3.4117893451
 20
3.4381133993
 10
3.397640262
 20
3.0771691094
 10
3.3849874498
 20
2.7169861369
 10
3.3738312138
 20
2.357572907
 10
3.3641718119
 20
1.9989377655
 10
3.3560094565
 20
1.6410889795
 10
3.3493443316
 20
1.2840348279
  0
LINE
  5
255
100
AcDbEntity
  8
0
100
AcDbLine
 62
7
  6
CONTINUOUS
 10
8.6679908757
 20
3.4562877048
 11
10.1357906833
 21
4.5193772615
  0
LINE
  5
256
100
AcDbEntity
  8
RACCORDO
100
AcDbLine
 62
253
  6
CONTINUOUS
 10
-11.482983796
 20
9.848035196
 11
3.3493443316
 21
1.2840348279
  0
LWPOLYLINE
  5
257
100
AcDbEntity
  8
RACCORDO
100
AcDbPolyline
 62
253
  6
CONTINUOUS
 90
46
 70
0
 10
3.9854044777
 20
-6.8349616942
 10
3.9852439511
 20
-6.8278063445
 10
3.9848720774
 20
-6.820533229
 10
3.9842893097
 20
-6.8131512072
 10
3.9834963578
 20
-6.8056692712
 10
3.9824941877
 20
-6.7980965349
 10
3.9812840201
 20
-6.7904422226
 10
3.9798673291
 20
-6.7827156581
 10
3.9782458405
 20
-6.7749262534
 10
3.9764215292
 20
-6.7670834966
 10
3.9743966177
 20
-6.7591969412
 10
3.9721735724
 20
-6.7512761938
 10
3.9697551013
 20
-6.7433309028
 10
3.9671441503
 20
-6.7353707465
 10
3.9643438998
 20
-6.7274054211
 10
3.9613577609
 20
-6.7194446293
 10
3.958189371
 20
-6.7114980682
 10
3.9548425895
 20
-6.7035754177
 10
3.9513214933
 20
-6.6956863283
 10
3.9476303713
 20
-6.6878404099
 10
3.9437737198
 20
-6.6800472196
 10
3.9397562366
 20
-6.6723162504
 10
3.9355828155
 20
-6.6646569195
 10
3.9312585401
 20
-6.6570785567
 10
3.9267886778
 20
-6.6495903935
 10
3.9221786736
 20
-6.642201551
 10
3.9174341427
 20
-6.6349210299
 10
3.9125608647
 20
-6.6277576985
 10
3.9075647757
 20
-6.6207202825
 10
3.9024519614
 20
-6.6138173544
 10
3.8972286499
 20
-6.6070573226
 10
3.8919012038
 20
-6.6004484217
 10
3.8864761123
 20
-6.5939987018
 10
3.880959984
 20
-6.5877160197
 10
3.875359538
 20
-6.5816080281
 10
3.8696815963
 20
-6.5756821674
 10
3.8639330753
 20
-6.5699456558
 10
3.8581209773
 20
-6.5644054811
 10
3.852252382
 20
-6.5590683919
 10
3.8463344381
 20
-6.5539408892
 10
3.8403743542
 20
-6.5490292189
 10
3.8343793904
 20
-6.544339364
 10
3.8283568493
 20
-6.5398770372
 10
3.8223140669
 20
-6.5356476742
 10
3.816258404
 20
-6.5316564267
 10
3.810197237
 20
-6.5279081566
  0
LWPOLYLINE
  5
258
100
AcDbEntity
  8
RACCORDO
100
AcDbPolyline
 62
253
  6
CONTINUOUS
 90
28
 70
0
 10
3.3493443316
 20
-14.2288984989
 10
3.3560094565
 20
-14.5785185875
 10
3.3641718119
 20
-14.9272633284
 10
3.3738312138
 20
-15.2751246553
 10
3.3849874498
 20
-15.6220945576
 10
3.397640262
 20
-15.9681649761
 10
3.4117893451
 20
-16.3133278034
 10
3.4274343777
 20
-16.657575028
 10
3.4445750039
 20
-17.0008987207
 10
3.4632108137
 20
-17.3432909319
 10
3.4833413854
 20
-17.6847437449
 10
3.5049662596
 20
-18.0252492662
 10
3.5280849196
 20
-18.3647996134
 10
3.5526968416
 20
-18.7033869379
 10
3.5788014647
 20
-19.0410034121
 10
3.6063981649
 20
-19.3776412186
 10
3.6354863169
 20
-19.7132925776
 10
3.6660652577
 20
-20.04794973
 10
3.6981342565
 20
-20.3816049244
 10
3.7316925866
 20
-20.7142504522
 10
3.7667394833
 20
-21.0458786236
 10
3.8032741085
 20
-21.3764817509
 10
3.8412956408
 20
-21.7060522558
 10
3.8808032077
 20
-22.0345824617
 10
3.9217958416
 20
-22.3620645715
 10
3.9642725848
 20
-22.6884909522
 10
4.0082324926
 20
-23.0138541331
 10
4.0536745632
 20
-23.3381465994
  0
LWPOLYLINE
  5
259
100
AcDbEntity
  8
RACCORDO
100
AcDbPolyline
 62
253
  6
CONTINUOUS
 90
28
 70
0
 10
4.0501631015
 20
-14.2247114345
 10
4.0567921823
 20
-14.5724023973
 10
4.0649098971
 20
-14.9192070748
 10
4.0745162459
 20
-15.265125467
 10
4.0856115209
 20
-15.6101656086
 10
4.0981954299
 20
-15.9543194648
 10
4.1122670965
 20
-16.2975629316
 10
4.1278266225
 20
-16.6398958719
 10
4.1448739061
 20
-16.9813184226
 10
4.1634077648
 20
-17.321806891
 10
4.1834283018
 20
-17.6613612107
 10
4.2049354139
 20
-17.999981448
 10
4.2279276096
 20
-18.3376441085
 10
4.2524049919
 20
-18.6743491258
 10
4.2783674578
 20
-19.0100965663
 10
4.3058132068
 20
-19.3448631353
 10
4.3347423418
 20
-19.678648765
 10
4.3651547599
 20
-20.0114535231
 10
4.3970483521
 20
-20.3432543185
 10
4.4304232212
 20
-20.6740510831
 10
4.4652792644
 20
-21.003843885
 10
4.5016140638
 20
-21.3326098379
 10
4.5394277225
 20
-21.6603488729
 10
4.5787201374
 20
-21.987061059
 10
4.619488582
 20
-22.3127237163
 10
4.6617321474
 20
-22.6373292851
 10
4.7054517425
 20
-22.9608853252
 10
4.7506473673
 20
-23.2833918366
  0
LWPOLYLINE
  5
25A
100
AcDbEntity
  8
RACCORDO
100
AcDbPolyline
 62
253
  6
CONTINUOUS
 90
24
 70
0
 10
3.2845231238
 20
-6.1838097668
 10
3.2846248436
 20
-6.1908387781
 10
3.2849396465
 20
-6.1977364054
 10
3.2854671531
 20
-6.2044943295
 10
3.286206727
 20
-6.2111043999
 10
3.2871574763
 20
-6.2175586444
 10
3.2883182542
 20
-6.2238492785
 10
3.2896876609
 20
-6.2299687155
 10
3.2912640447
 20
-6.2359095746
 10
3.2930455044
 20
-6.2416646909
 10
3.2950298913
 20
-6.2472271232
 10
3.2972148122
 20
-6.2525901628
 10
3.2995976319
 20
-6.2577473415
 10
3.3021754766
 20
-6.2626924394
 10
3.3049452371
 20
-6.2674194922
 10
3.3079035729
 20
-6.2719227988
 10
3.311046916
 20
-6.2761969278
 10
3.3143714754
 20
-6.2802367244
 10
3.3178732413
 20
-6.2840373163
 10
3.3215479904
 20
-6.2875941196
 10
3.3253912906
 20
-6.2909028446
 10
3.3293985067
 20
-6.2939595007
 10
3.3335648055
 20
-6.2967604014
 10
3.3362917967
 20
-6.2984052853
  0
LWPOLYLINE
  5
25B
100
AcDbEntity
  8
RACCORDO
100
AcDbPolyline
 62
253
  6
CONTINUOUS
 90
10
 70
0
 10
3.2845217042
 20
-6.8333411857
 10
3.285837194
 20
-7.6584097822
 10
3.2886244602
 20
-8.4826494775
 10
3.292883474
 20
-9.3060569091
 10
3.2986141303
 20
-10.1286263958
 10
3.3058164507
 20
-10.9503569095
 10
3.3144906231
 20
-11.7712520515
 10
3.3246367136
 20
-12.5913107674
 10
3.3362546258
 20
-13.4105273708
 10
3.3493443317
 20
-14.228898499
  0
LWPOLYLINE
  5
25C
100
AcDbEntity
  8
RACCORDO
100
AcDbPolyline
 62
253
  6
CONTINUOUS
 90
10
 70
0
 10
3.9854059872
 20
-6.8349608376
 10
3.9867165415
 20
-7.6593866054
 10
3.9894983142
 20
-8.4829776284
 10
3.9937513052
 20
-9.3057339066
 10
3.9994755789
 20
-10.1276565697
 10
4.006671071
 20
-10.9487444879
 10
4.0153375886
 20
-11.7689942724
 10
4.0254750674
 20
-12.5884047935
 10
4.0370835717
 20
-13.4069771809
 10
4.0501631015
 20
-14.2247114345
  0
LWPOLYLINE
  5
25D
100
AcDbEntity
  8
RACCORDO
100
AcDbPolyline
 62
253
  6
CONTINUOUS
 90
46
 70
0
 10
3.2845231238
 20
-6.8333420054
 10
3.2846248436
 20
-6.8261955308
 10
3.2849396465
 20
-6.8189343772
 10
3.285467153
 20
-6.811567302
 10
3.2862067269
 20
-6.8041031905
 10
3.2871574761
 20
-6.7965510449
 10
3.288318254
 20
-6.7889199737
 10
3.2896876606
 20
-6.7812191805
 10
3.2912640443
 20
-6.7734579531
 10
3.2930455038
 20
-6.7656456521
 10
3.2950298906
 20
-6.7577916997
 10
3.2972148114
 20
-6.7499055684
 10
3.299597631
 20
-6.7419967695
 10
3.3021754755
 20
-6.7340748415
 10
3.3049452358
 20
-6.7261493389
 10
3.3079035715
 20
-6.7182298204
 10
3.3110469145
 20
-6.7103258377
 10
3.3143714737
 20
-6.7024469233
 10
3.3178732395
 20
-6.6946025801
 10
3.3215479885
 20
-6.6868022687
 10
3.3253912885
 20
-6.679055397
 10
3.3293985045
 20
-6.6713713083
 10
3.3335648032
 20
-6.6637592701
 10
3.3378851599
 20
-6.6562284632
 10
3.342354364
 20
-6.6487879703
 10
3.346967025
 20
-6.6414467651
 10
3.35171758
 20
-6.6342137018
 10
3.3566002993
 20
-6.6270975039
 10
3.3616092941
 20
-6.6201067541
 10
3.366738523
 20
-6.6132498837
 10
3.3719817999
 20
-6.6065351628
 10
3.377332801
 20
-6.5999706896
 10
3.3827850725
 20
-6.5935643816
 10
3.3883320387
 20
-6.5873239651
 10
3.3939670094
 20
-6.5812569665
 10
3.3996831885
 20
-6.5753707033
 10
3.4054736818
 20
-6.5696722745
 10
3.4113315056
 20
-6.5641685529
 10
3.4172495948
 20
-6.5588661766
 10
3.4232208118
 20
-6.5537715404
 10
3.429237955
 20
-6.5488907889
 10
3.435293767
 20
-6.5442298087
 10
3.4413809443
 20
-6.5397942213
 10
3.4474921451
 20
-6.5355893764
 10
3.453619999
 20
-6.5316203451
 10
3.4597571152
 20
-6.5278919147
  0
LWPOLYLINE
  5
25E
100
AcDbEntity
  8
RACCORDO
100
AcDbPolyline
 62
253
  6
CONTINUOUS
 90
10
 70
0
 10
3.3493443317
 20
1.2840348278
 10
3.3362546258
 20
0.4510661641
 10
3.3246367136
 20
-0.381106644
 10
3.3144906231
 20
-1.2124802012
 10
3.3058164507
 20
-2.0430488311
 10
3.2986141303
 20
-2.8728114345
 10
3.292883474
 20
-3.7017714664
 10
3.2886244602
 20
-4.5299278024
 10
3.285837194
 20
-5.3572747612
 10
3.2845217042
 20
-6.1838089471
  0
LWPOLYLINE
  5
25F
100
AcDbEntity
  8
RACCORDO
100
AcDbPolyline
 62
253
  6
CONTINUOUS
 90
10
 70
0
 10
4.0501631015
 20
1.2727108893
 10
4.0370835717
 20
0.4403909563
 10
4.0254750674
 20
-0.3911266917
 10
4.0153375886
 20
-1.2218420547
 10
4.006671071
 20
-2.0517563339
 10
3.9994755789
 20
-2.8808683281
 10
3.9937513052
 20
-3.7091744333
 10
3.9894983142
 20
-4.536673448
 10
3.9867165415
 20
-5.3633665737
 10
3.9854059872
 20
-6.1892538103
  0
LWPOLYLINE
  5
260
100
AcDbEntity
  8
RACCORDO
100
AcDbPolyline
 62
253
  6
CONTINUOUS
 90
24
 70
0
 10
3.9854044777
 20
-6.1892546369
 10
3.9852439511
 20
-6.1963445653
 10
3.9848720774
 20
-6.2032993756
 10
3.9842893098
 20
-6.2101105961
 10
3.983496358
 20
-6.21676993
 10
3.9824941879
 20
-6.2232692655
 10
3.9812840204
 20
-6.2296006857
 10
3.9798673296
 20
-6.2357564782
 10
3.978245841
 20
-6.2417291447
 10
3.9764215299
 20
-6.2475114097
 10
3.9743966185
 20
-6.2530962297
 10
3.9721735734
 20
-6.258476802
 10
3.9697551024
 20
-6.2636465723
 10
3.9671441515
 20
-6.2685992434
 10
3.9643439012
 20
-6.2733287822
 10
3.9613577625
 20
-6.2778294278
 10
3.9581893727
 20
-6.2820956978
 10
3.9548425914
 20
-6.2861223954
 10
3.9513214953
 20
-6.2899046158
 10
3.9476303735
 20
-6.2934377516
 10
3.9437737222
 20
-6.2967174993
 10
3.9397562391
 20
-6.2997398636
 10
3.9355828181
 20
-6.302501163
 10
3.9318294706
 20
-6.3046882719
  0
LWPOLYLINE
  5
261
100
AcDbEntity
  8
RACCORDO
100
AcDbPolyline
 62
253
  6
CONTINUOUS
 90
28
 70
0
 10
4.7506473673
 20
11.1125385558
 10
4.7054517425
 20
10.7396319992
 10
4.6617321474
 20
10.3673219131
 10
4.619488582
 20
9.9956082976
 10
4.5787201374
 20
9.6244825791
 10
4.5394277225
 20
9.2539533311
 10
4.5016140638
 20
8.884046274
 10
4.4652792644
 20
8.5147614535
 10
4.4304232212
 20
8.1460988239
 10
4.3970483521
 20
7.7780839675
 10
4.3651547599
 20
7.410716931
 10
4.3347423418
 20
7.0439976677
 10
4.3058132068
 20
6.6779516209
 10
4.2783674578
 20
6.3125788373
 10
4.2524049919
 20
5.9478792701
 10
4.2279276096
 20
5.5838782218
 10
4.2049354139
 20
5.2205757409
 10
4.1834283018
 20
4.8579717789
 10
4.1634077648
 20
4.4960914935
 10
4.1448739061
 20
4.1349349334
 10
4.1278266225
 20
3.7745020499
 10
4.1122670965
 20
3.4148178545
 10
4.0981954299
 20
3.0558823239
 10
4.0856115209
 20
2.6976954814
 10
4.0745162459
 20
2.3402824085
 10
4.0649098971
 20
1.9836514658
 10
4.0567921823
 20
1.6277942927
 10
4.0501631015
 20
1.2727108893
  0
LINE
  5
262
100
AcDbEntity
  8
DRAFT
100
AcDbLine
 62
7
  6
CONTINUOUS
 10
7.013257311
 20
-1.4763201558
 11
8.6679908757
 21
-0.5536794481
  0
LINE
  5
263
100
AcDbEntity
  8
DRAFT
100
AcDbLine
 62
7
  6
CONTINUOUS
 10
8.8094122319
 20
-10.2476354454
 11
8.6679908757
 21
-9.9448417888
  0
LWPOLYLINE
  5
264
100
AcDbEntity
  8
RACCORDO
100
AcDbPolyline
 62
253
  6
CONTINUOUS
 90
55
 70
0
 10
5.0875672637
 20
11.6475272747
 10
5.0868734172
 20
11.6591602321
 10
5.0858866236
 20
11.6709588627
 10
5.0846077168
 20
11.6829131952
 10
5.0830377777
 20
11.6950131269
 10
5.0811781329
 20
11.7072484318
 10
5.0790303542
 20
11.7196087698
 10
5.0765962567
 20
11.7320836949
 10
5.0738778974
 20
11.7446626643
 10
5.0708775738
 20
11.7573350474
 10
5.0675978213
 20
11.7700901345
 10
5.0640414118
 20
11.7829171461
 10
5.0602113508
 20
11.7958052419
 10
5.0561108753
 20
11.80874353
 10
5.0517434505
 20
11.8217210759
 10
5.0471127675
 20
11.8347269122
 10
5.0422227398
 20
11.8477500473
 10
5.0370774999
 20
11.8607794754
 10
5.0316813962
 20
11.8738041848
 10
5.026038989
 20
11.8868131684
 10
5.0201550468
 20
11.8997954319
 10
5.0140345423
 20
11.9127400039
 10
5.0076826479
 20
11.9256359446
 10
5.0011047318
 20
11.9384723556
 10
4.994306353
 20
11.9512383885
 10
4.9872932571
 20
11.9639232546
 10
4.9800713707
 20
11.9765162337
 10
4.9726467974
 20
11.9890066832
 10
4.9650258117
 20
12.0013840473
 10
4.9572148543
 20
12.0136378656
 10
4.9492205262
 20
12.0257577823
 10
4.9410495837
 20
12.0377335546
 10
4.9327089321
 20
12.0495550617
 10
4.9242056203
 20
12.0612123128
 10
4.9155468345
 20
12.0726954564
 10
4.9067398925
 20
12.0839947879
 10
4.897792237
 20
12.0951007579
 10
4.88871143
 20
12.1060039806
 10
4.8795051457
 20
12.1166952416
 10
4.8701811646
 20
12.1271655055
 10
4.8607473665
 20
12.1374059237
 10
4.851211724
 20
12.1474078419
 10
4.8415822959
 20
12.1571628072
 10
4.8318672201
 20
12.1666625757
 10
4.822074707
 20
12.1758991188
 10
4.8122130325
 20
12.1848646307
 10
4.8022905308
 20
12.1935515344
 10
4.7923155876
 20
12.2019524884
 10
4.7822966328
 20
12.2100603931
 10
4.7722421336
 20
12.2178683963
 10
4.7621605873
 20
12.2253698993
 10
4.7520605139
 20
12.2325585625
 10
4.7419504492
 20
12.2394283106
 10
4.7318389373
 20
12.2459733379
 10
4.7217345237
 20
12.252188113
  0
LWPOLYLINE
  5
265
100
AcDbEntity
  8
RACCORDO
100
AcDbPolyline
 62
253
  6
CONTINUOUS
 90
30
 70
0
 10
5.0875672637
 20
-23.4426632578
 10
5.0868734172
 20
-23.4547307887
 10
5.0858866236
 20
-23.4666126169
 10
5.0846077168
 20
-23.4782987007
 10
5.0830377776
 20
-23.4897791641
 10
5.0811781328
 20
-23.5010443047
 10
5.0790303541
 20
-23.5120846022
 10
5.0765962565
 20
-23.5228907262
 10
5.0738778972
 20
-23.5334535443
 10
5.0708775734
 20
-23.5437641298
 10
5.0675978209
 20
-23.553813769
 10
5.0640414113
 20
-23.5635939686
 10
5.0602113503
 20
-23.5730964635
 10
5.0561108747
 20
-23.5823132228
 10
5.0517434499
 20
-23.5912364572
 10
5.0471127668
 20
-23.5998586257
 10
5.042222739
 20
-23.6081724416
 10
5.037077499
 20
-23.6161708785
 10
5.0316813953
 20
-23.623847177
 10
5.026038988
 20
-23.6311948498
 10
5.0201550458
 20
-23.638207687
 10
5.0140345412
 20
-23.6448797621
 10
5.0076826468
 20
-23.6512054365
 10
5.0011047306
 20
-23.6571793641
 10
4.9943063518
 20
-23.6627964964
 10
4.9872932558
 20
-23.6680520861
 10
4.9800713694
 20
-23.6729416917
 10
4.9726467961
 20
-23.677461181
 10
4.9650258104
 20
-23.6816067343
 10
4.9631648378
 20
-23.682547334
  0
LINE
  5
266
100
AcDbEntity
  8
RACCORDO
100
AcDbLine
 62
7
  6
CONTINUOUS
 10
7.013257311
 20
-5.1167148001
 11
7.013257311
 21
-8.1713764255
  0
LINE
  5
267
100
AcDbEntity
  8
RACCORDO
100
AcDbLine
 62
7
  6
CONTINUOUS
 10
7.013257311
 20
-4.5309817813
 11
7.013257311
 21
-1.4763201558
  0
LINE
  5
268
100
AcDbEntity
  8
RACCORDO
100
AcDbLine
 62
253
  6
CONTINUOUS
 10
6.8364806147
 20
-4.8105518976
 11
3.810197237
 21
-6.5279081566
  0
LINE
  5
269
100
AcDbEntity
  8
RACCORDO
100
AcDbLine
 62
253
  6
CONTINUOUS
 10
7.013257311
 20
-5.1167148001
 11
3.9854059872
 21
-6.8349608376
  0
LWPOLYLINE
  5
26A
100
AcDbEntity
  8
RACCORDO
100
AcDbPolyline
 62
253
  6
CONTINUOUS
 90
55
 70
0
 10
3.810197237
 20
-6.5279081566
 10
3.804946576
 20
-6.530803569
 10
3.7995653742
 20
-6.5336062893
 10
3.7940536317
 20
-6.5363163176
 10
3.7884064901
 20
-6.53893579
 10
3.7826288077
 20
-6.5414625702
 10
3.7767351591
 20
-6.5438902502
 10
3.7707253306
 20
-6.5462185407
 10
3.7645995358
 20
-6.5484477308
 10
3.7583729902
 20
-6.5505722795
 10
3.7520454573
 20
-6.5525919204
 10
3.7456171736
 20
-6.5545069199
 10
3.739104063
 20
-6.5563125357
 10
3.7325059138
 20
-6.5580084979
 10
3.7258229377
 20
-6.5595950765
 10
3.7190716942
 20
-6.5610683387
 10
3.7122520079
 20
-6.5624280046
 10
3.7053640542
 20
-6.5636743542
 10
3.6984249187
 20
-6.5648042955
 10
3.6914344779
 20
-6.5658175388
 10
3.6843928552
 20
-6.5667143737
 10
3.6773175069
 20
-6.5674925775
 10
3.6702083512
 20
-6.5681518558
 10
3.6630654698
 20
-6.5686925028
 10
3.6559065642
 20
-6.5691131789
 10
3.6487315921
 20
-6.5694135866
 10
3.6415405958
 20
-6.5695940234
 10
3.6343514037
 20
-6.5696540417
 10
3.6271640194
 20
-6.5695933425
 10
3.6199784394
 20
-6.5694122249
 10
3.6128124813
 20
-6.5691111383
 10
3.6056661973
 20
-6.5686897855
 10
3.5985395352
 20
-6.5681484638
 10
3.5914501563
 20
-6.5674885152
 10
3.5843981513
 20
-6.5667096453
 10
3.5773834295
 20
-6.5658121487
 10
3.5704233799
 20
-6.5647982501
 10
3.5635181348
 20
-6.5636676601
 10
3.5566675618
 20
-6.5624206681
 10
3.5498886531
 20
-6.5610603684
 10
3.5431815923
 20
-6.5595864807
 10
3.5365461956
 20
-6.5579992852
 10
3.5299989036
 20
-6.5563027161
 10
3.5235399361
 20
-6.5544965036
 10
3.5171690732
 20
-6.5525809175
 10
3.510902096
 20
-6.5505607017
 10
3.5047392485
 20
-6.5484355902
 10
3.4986802866
 20
-6.5462058489
 10
3.4927402589
 20
-6.5438770204
 10
3.4869193925
 20
-6.5414488179
 10
3.4812174602
 20
-6.5389215282
 10
3.4756488295
 20
-6.5363015528
 10
3.4702182898
 20
-6.5335910257
 10
3.4649210517
 20
-6.530787813
 10
3.4597571152
 20
-6.5278919147
  0
LINE
  5
26B
100
AcDbEntity
  8
RACCORDO
100
AcDbLine
 62
253
  6
CONTINUOUS
 10
3.9854059872
 20
-6.1892538103
 11
7.013257311
 21
-4.5309817813
  0
LINE
  5
26C
100
AcDbEntity
  8
RACCORDO
100
AcDbLine
 62
7
  6
CONTINUOUS
 10
3.9318276199
 20
-6.3046892855
 11
6.9598560329
 21
-4.6463202696
  0
LWPOLYLINE
  5
26D
100
AcDbEntity
  8
RACCORDO
100
AcDbPolyline
 62
253
  6
CONTINUOUS
 90
55
 70
0
 10
3.9854059872
 20
-6.8349608444
 10
3.9749176986
 20
-6.8406988123
 10
3.9641507065
 20
-6.8462601064
 10
3.9531139196
 20
-6.8516401637
 10
3.9418164939
 20
-6.8568345978
 10
3.9302677539
 20
-6.8618391231
 10
3.9184771793
 20
-6.8666495543
 10
3.9064544602
 20
-6.8712619684
 10
3.894209599
 20
-6.8756725577
 10
3.8817528336
 20
-6.8798775568
 10
3.8690945214
 20
-6.8838735086
 10
3.8562450905
 20
-6.8876571631
 10
3.8432151391
 20
-6.8912253279
 10
3.8300154399
 20
-6.8945750878
 10
3.8166569228
 20
-6.8977037053
 10
3.8031506306
 20
-6.9006085228
 10
3.7895077276
 20
-6.9032871716
 10
3.7757395123
 20
-6.9057374679
 10
3.7618573991
 20
-6.9079573129
 10
3.7478728816
 20
-6.9099449007
 10
3.7337975242
 20
-6.9116986228
 10
3.7196429745
 20
-6.9132169642
 10
3.7054209482
 20
-6.9144986984
 10
3.6911432094
 20
-6.9155427984
 10
3.6768215615
 20
-6.9163483411
 10
3.66246785
 20
-6.9169146873
 10
3.6480939561
 20
-6.9172413991
 10
3.6337117764
 20
-6.91732815
 10
3.6193332111
 20
-6.9171748934
 10
3.6049701573
 20
-6.9167817851
 10
3.5906345026
 20
-6.9161490993
 10
3.5763381131
 20
-6.9152773825
 10
3.5620928131
 20
-6.9141673826
 10
3.547910379
 20
-6.9128199711
 10
3.5338025418
 20
-6.9112362817
 10
3.5197809784
 20
-6.909417649
 10
3.5058572912
 20
-6.9073655369
 10
3.4920429943
 20
-6.9050816585
 10
3.4783495247
 20
-6.9025679258
 10
3.4647882337
 20
-6.8998263879
 10
3.4513703522
 20
-6.8968593303
 10
3.4381069708
 20
-6.893669225
 10
3.4250090518
 20
-6.8902586806
 10
3.4120874399
 20
-6.8866305317
 10
3.3993528184
 20
-6.8827877942
 10
3.386815691
 20
-6.8787336145
 10
3.3744863872
 20
-6.8744713366
 10
3.3623751565
 20
-6.8700045129
 10
3.3504921207
 20
-6.8653368619
 10
3.3388471638
 20
-6.8604722773
 10
3.3274498575
 20
-6.8554147748
 10
3.3163095585
 20
-6.8501684996
 10
3.3054354616
 20
-6.84473778
 10
3.2948365872
 20
-6.8391271275
 10
3.2845217045
 20
-6.833341186
  0
LINE
  5
26E
100
AcDbEntity
  8
DRAFT
100
AcDbLine
 62
7
  6
CONTINUOUS
 10
9.9382446827
 20
8.5184036222
 11
9.0897165453
 21
8.5226787591
  0
LINE
  5
26F
100
AcDbEntity
  8
DRAFT
100
AcDbLine
 62
7
  6
CONTINUOUS
 10
8.6679908757
 20
-7.2487357178
 11
8.6679908757
 21
-14.66935244
  0
LINE
  5
270
100
AcDbEntity
  8
RACCORDO
100
AcDbLine
 62
7
  6
CONTINUOUS
 10
8.6679908757
 20
-14.66935244
 11
8.6679908757
 21
-21.6592492523
  0
LINE
  5
271
100
AcDbEntity
  8
DRAFT
100
AcDbLine
 62
7
  6
CONTINUOUS
 10
8.6679908757
 20
-0.5536794481
 11
8.6679908757
 21
6.8669372741
  0
LINE
  5
272
100
AcDbEntity
  8
RACCORDO
100
AcDbLine
 62
7
  6
CONTINUOUS
 10
8.6679908757
 20
6.8669372741
 11
8.6679908757
 21
13.8568340864
  0
LINE
  5
273
100
AcDbEntity
  8
DRAFT
100
AcDbLine
 62
7
  6
CONTINUOUS
 10
7.013257311
 20
-7.2484545226
 11
7.8548180773
 21
-6.7792199355
  0
LINE
  5
274
100
AcDbEntity
  8
0
100
AcDbLine
 62
253
  6
CONTINUOUS
 10
10.1357906833
 20
7.8969717561
 11
10.1357906833
 21
4.5193772615
  0
LINE
  5
275
100
AcDbEntity
  8
0
100
AcDbLine
 62
253
  6
CONTINUOUS
 10
10.1357906833
 20
-13.6062628833
 11
10.1357906833
 21
-10.2286683887
  0
LINE
  5
276
100
AcDbEntity
  8
0
100
AcDbLine
 62
7
  6
CONTINUOUS
 10
10.2917885103
 20
8.1483194951
 11
10.2917885103
 21
4.7767359117
  0
LINE
  5
277
100
AcDbEntity
  8
0
100
AcDbLine
 62
7
  6
CONTINUOUS
 10
10.2917885103
 20
-13.3489042331
 11
10.2917885103
 21
-9.9773206497
  0
LINE
  5
278
100
AcDbEntity
  8
DRAFT
100
AcDbLine
 62
7
  6
CONTINUOUS
 10
7.013257311
 20
-8.1713764255
 11
8.6679908757
 21
-7.2487357178
  0
LINE
  5
279
100
AcDbEntity
  8
RACCORDO
100
AcDbLine
 62
253
  6
CONTINUOUS
 10
-10.8026880322
 20
19.7567489944
 11
4.0536745645
 21
11.178871425
  0
LINE
  5
27A
100
AcDbEntity
  8
DRAFT
100
AcDbLine
 62
7
  6
CONTINUOUS
 10
8.6679908757
 20
8.180798356
 11
8.8094122319
 21
7.8780046994
  0
LINE
  5
27B
100
AcDbEntity
  8
DRAFT
100
AcDbLine
 62
7
  6
CONTINUOUS
 10
8.6679908757
 20
-9.8422109434
 11
9.0897165453
 21
-9.6029613857
  0
LINE
  5
27C
100
AcDbEntity
  8
DRAFT
100
AcDbLine
 62
7
  6
CONTINUOUS
 10
8.8094122319
 20
-10.2476354454
 11
8.6679908757
 21
-10.3278653184
  0
LINE
  5
27D
100
AcDbEntity
  8
RACCORDO
100
AcDbLine
 62
7
  6
CONTINUOUS
 10
7.0369611724
 20
15.2069921847
 11
4.3601090005
 21
14.6901604863
  0
LINE
  5
27E
100
AcDbEntity
  8
0
100
AcDbLine
 62
7
  6
CONTINUOUS
 10
10.0867632571
 20
8.4326508587
 11
9.9382446827
 21
8.5184036222
  0
LINE
  5
27F
100
AcDbEntity
  8
RACCORDO
100
AcDbLine
 62
253
  6
CONTINUOUS
 10
-10.1461869935
 20
20.8367411659
 11
4.721735786
 21
12.2521888919
  0
LINE
  5
280
100
AcDbEntity
  8
0
100
AcDbLine
 62
7
  6
CONTINUOUS
 10
10.1357906833
 20
-10.2286683887
 11
8.6679908757
 21
-11.2587028707
  0
LWPOLYLINE
  5
281
100
AcDbEntity
  8
RACCORDO
100
AcDbPolyline
 62
253
  6
CONTINUOUS
 90
55
 70
0
 10
4.0501631015
 20
-14.2247114345
 10
4.0396765593
 20
-14.230615576
 10
4.0289113113
 20
-14.2363430057
 10
4.0178762646
 20
-14.2418889848
 10
4.0065805497
 20
-14.2472489244
 10
3.9950335129
 20
-14.2524183896
 10
3.9832447081
 20
-14.2573931034
 10
3.9712238896
 20
-14.2621689494
 10
3.9589810033
 20
-14.2667419762
 10
3.9465261793
 20
-14.2711084001
 10
3.9338697227
 20
-14.2752646081
 10
3.9210221055
 20
-14.2792071615
 10
3.9079939579
 20
-14.2829327981
 10
3.8947960595
 20
-14.2864384353
 10
3.8814393303
 20
-14.2897211725
 10
3.8679348218
 20
-14.2927782936
 10
3.8542937078
 20
-14.2956072691
 10
3.8405272748
 20
-14.2982057582
 10
3.8266469135
 20
-14.3005716111
 10
3.8126641085
 20
-14.30270287
 10
3.7985904292
 20
-14.3045977717
 10
3.7844375203
 20
-14.3062547483
 10
3.7702170921
 20
-14.3076724287
 10
3.7559409106
 20
-14.3088496401
 10
3.741620788
 20
-14.3097854082
 10
3.7272685728
 20
-14.310478959
 10
3.7128961403
 20
-14.3109297185
 10
3.6985153822
 20
-14.3111373137
 10
3.6841381973
 20
-14.311101573
 10
3.6697764814
 20
-14.3108225259
 10
3.6554421174
 20
-14.3103004032
 10
3.6411469657
 20
-14.309535637
 10
3.6269028542
 20
-14.30852886
 10
3.6127215686
 20
-14.3072809053
 10
3.5986148426
 20
-14.3057928055
 10
3.5845943481
 20
-14.3040657917
 10
3.5706716858
 20
-14.302101293
 10
3.5568583754
 20
-14.2999009347
 10
3.5431658462
 20
-14.2974665375
 10
3.5296054274
 20
-14.2948001156
 10
3.516188339
 20
-14.2919038752
 10
3.5029256824
 20
-14.2887802127
 10
3.4898284313
 20
-14.2854317127
 10
3.4769074223
 20
-14.2818611456
 10
3.4641733464
 20
-14.2780714658
 10
3.4516367399
 20
-14.274065809
 10
3.4393079756
 20
-14.2698474893
 10
3.4271972544
 20
-14.2654199972
 10
3.4153145969
 20
-14.2607869959
 10
3.4036698348
 20
-14.2559523188
 10
3.392272603
 20
-14.2509199661
 10
3.3811323318
 20
-14.2456941017
 10
3.3702582386
 20
-14.2402790494
 10
3.3596593208
 20
-14.2346792898
 10
3.3493443479
 20
-14.228899456
  0
LINE
  5
282
100
AcDbEntity
  8
RACCORDO
100
AcDbLine
 62
7
  6
CONTINUOUS
 10
4.1669238352
 20
14.7157693215
 11
1.8553494172
 21
16.0504434196
  0
LINE
  5
283
100
AcDbEntity
  8
RACCORDO
100
AcDbLine
 62
7
  6
CONTINUOUS
 10
-3.7526721141
 20
19.2884447667
 11
-6.0642465321
 21
20.6231188648
  0
LINE
  5
284
100
AcDbEntity
  8
0
100
AcDbLine
 62
7
  6
CONTINUOUS
 10
10.1357906833
 20
-13.6062628833
 11
8.6679908757
 21
-14.66935244
  0
LINE
  5
285
100
AcDbEntity
  8
RACCORDO
100
AcDbLine
 62
7
  6
CONTINUOUS
 10
-6.6764954007
 20
23.1249701401
 11
-5.3987499633
 21
22.3872159385
  0
LINE
  5
286
100
AcDbEntity
  8
DRAFT
100
AcDbLine
 62
7
  6
CONTINUOUS
 10
-0.8826347769
 20
19.77966763
 11
2.5208459859
 21
17.8145404932
  0
LINE
  5
287
100
AcDbEntity
  8
RACCORDO
100
AcDbLine
 62
7
  6
CONTINUOUS
 10
7.0369611724
 20
15.2069921847
 11
8.3147066098
 21
14.4692379831
  0
LINE
  5
288
100
AcDbEntity
  8
RACCORDO
100
AcDbLine
 62
7
  6
CONTINUOUS
 10
-0.8826347769
 20
19.77966763
 11
-3.5594869488
 21
19.2628359316
  0
LWPOLYLINE
  5
289
100
AcDbEntity
  8
RACCORDO
100
AcDbPolyline
 62
253
  6
CONTINUOUS
 90
55
 70
0
 10
4.7506473673
 20
-23.2833918366
 10
4.7402721101
 20
-23.2907526308
 10
4.7296179867
 20
-23.2979354645
 10
4.7186938147
 20
-23.3049343932
 10
4.707508635
 20
-23.3117436243
 10
4.6960717046
 20
-23.3183575227
 10
4.6843924887
 20
-23.3247706144
 10
4.6724806533
 20
-23.3309775921
 10
4.6603460565
 20
-23.3369733188
 10
4.6479987412
 20
-23.3427528322
 10
4.6354489261
 20
-23.3483113494
 10
4.6227069974
 20
-23.3536442699
 10
4.6097835007
 20
-23.3587471802
 10
4.5966891314
 20
-23.3636158571
 10
4.5834347265
 20
-23.3682462713
 10
4.5700312556
 20
-23.3726345905
 10
4.5564898115
 20
-23.3767771829
 10
4.5428216012
 20
-23.3806706202
 10
4.5290379366
 20
-23.38431168
 10
4.5151502252
 20
-23.387697349
 10
4.5011699606
 20
-23.3908248252
 10
4.487108713
 20
-23.3936915202
 10
4.4729781196
 20
-23.3962950616
 10
4.458789875
 20
-23.3986332946
 10
4.4445557216
 20
-23.4007042841
 10
4.4302874396
 20
-23.4025063161
 10
4.4159968377
 20
-23.4040378993
 10
4.4016957427
 20
-23.405297766
 10
4.3873959906
 20
-23.4062848736
 10
4.3731094157
 20
-23.4069984053
 10
4.358847842
 20
-23.4074377703
 10
4.3446230723
 20
-23.4076026052
 10
4.3304468792
 20
-23.4074927735
 10
4.316330995
 20
-23.4071083661
 10
4.3022871023
 20
-23.4064497012
 10
4.2883268237
 20
-23.4055173238
 10
4.2744617131
 20
-23.4043120056
 10
4.2607032452
 20
-23.4028347441
 10
4.2470628068
 20
-23.401086762
 10
4.2335516867
 20
-23.3990695059
 10
4.2201810669
 20
-23.3967846452
 10
4.206962013
 20
-23.394234071
 10
4.1939054653
 20
-23.3914198941
 10
4.1810222294
 20
-23.3883444435
 10
4.1683229677
 20
-23.3850102646
 10
4.1558181901
 20
-23.3814201168
 10
4.1435182457
 20
-23.3775769712
 10
4.1314333141
 20
-23.3734840084
 10
4.1195733969
 20
-23.369144616
 10
4.1079483094
 20
-23.3645623851
 10
4.0965676727
 20
-23.3597411081
 10
4.0854409055
 20
-23.3546847751
 10
4.0745772163
 20
-23.3493975708
 10
4.0639855962
 20
-23.343883871
 10
4.0536748107
 20
-23.3381482387
  0
LINE
  5
28A
100
AcDbEntity
  8
RACCORDO
100
AcDbLine
 62
253
  6
CONTINUOUS
 10
5.0875672637
 20
-23.4426632578
 11
8.6679908757
 21
-21.6592492523
  0
LINE
  5
28B
100
AcDbEntity
  8
RACCORDO
100
AcDbLine
 62
7
  6
CONTINUOUS
 10
4.9631648378
 20
-23.682547334
 11
8.5553624402
 21
-21.8932686875
  0
ELLIPSE
  5
28C
100
AcDbEntity
  8
RACCORDO
100
AcDbEllipse
 62
7
  6
CONTINUOUS
 10
8.314383629
 20
-21.4547074709
 30
0.0
 11
-0.2498600223
 21
0.43379745
 31
0.0
 40
0.5768037941
 41
-3.1764860618
 42
-2.355482613
  0
ELLIPSE
  5
28D
100
AcDbEntity
  8
0
100
AcDbEllipse
 62
7
  6
CONTINUOUS
 10
9.5917885103
 20
-13.3524310411
 30
0.0
 11
0.6999930985
 21
0.005337181
 31
0.0
 40
0.5824033911
 41
-0.6851189833
 42
-0.004440575
  0
ELLIPSE
  5
28E
100
AcDbEntity
  8
RACCORDO
100
AcDbEllipse
 62
7
  6
CONTINUOUS
 10
6.8364536877
 20
-5.014661692
 30
0.0
 11
-0.125029849
 21
0.2164946157
 31
0.0
 40
0.5774195892
 41
-2.3562809449
 42
-0.7856369171
  0
ELLIPSE
  5
28F
100
AcDbEntity
  8
0
100
AcDbEllipse
 62
7
  6
CONTINUOUS
 10
9.5917885103
 20
-9.9737938417
 30
0.0
 11
0.6999935638
 21
-0.0052448313
 31
0.0
 40
0.5723275643
 41
-0.6763901644
 42
0.7896864073
  0
ELLIPSE
  5
290
100
AcDbEntity
  8
RACCORDO
100
AcDbEllipse
 62
7
  6
CONTINUOUS
 10
8.314383629
 20
14.0606290899
 30
0.0
 11
-0.2496303025
 21
0.4334023309
 31
0.0
 40
0.5778584463
 41
-2.3545649475
 42
-0.7846820092
  0
ELLIPSE
  5
291
100
AcDbEntity
  8
RACCORDO
100
AcDbEllipse
 62
7
  6
CONTINUOUS
 10
-6.6761724199
 20
22.7159882768
 30
0.0
 11
-0.2498600223
 21
0.43379745
 31
0.0
 40
0.5768037941
 41
-0.7837728977
 42
0.0348934082
  0
ELLIPSE
  5
292
100
AcDbEntity
  8
0
100
AcDbEllipse
 62
7
  6
CONTINUOUS
 10
9.5917885103
 20
4.7732091037
 30
0.0
 11
0.6999930985
 21
0.005337181
 31
0.0
 40
0.5824033911
 41
-0.6851189833
 42
-0.004440575
  0
ELLIPSE
  5
293
100
AcDbEntity
  8
RACCORDO
100
AcDbEllipse
 62
7
  6
CONTINUOUS
 10
-3.6112507578
 20
19.3786575642
 30
0.0
 11
0.1999154856
 21
0.0095814127
 31
0.0
 40
0.6067642562
 41
-2.385266879
 42
-1.3380693278
  0
ELLIPSE
  5
294
100
AcDbEntity
  8
RACCORDO
100
AcDbEllipse
 62
7
  6
CONTINUOUS
 10
4.3083451914
 20
14.8059821189
 30
0.0
 11
0.1999154856
 21
0.0095814127
 31
0.0
 40
0.6067642562
 41
-2.385266879
 42
-1.3380693278
  0
ELLIPSE
  5
295
100
AcDbEntity
  8
RACCORDO
100
AcDbEllipse
 62
7
  6
CONTINUOUS
 10
6.8364536877
 20
-4.4288664969
 30
0.0
 11
-0.1250488738
 21
0.2165276008
 31
0.0
 40
0.5772437351
 41
-3.154680706
 42
-2.3564331449
  0
ELLIPSE
  5
296
100
AcDbEntity
  8
RACCORDO
100
AcDbEllipse
 62
7
  6
CONTINUOUS
 10
1.9967707735
 20
16.140656217
 30
0.0
 11
0.1999154856
 21
0.0095814127
 31
0.0
 40
0.6067642562
 41
2.850720877
 42
3.8979184282
  0
ELLIPSE
  5
297
100
AcDbEntity
  8
RACCORDO
100
AcDbEllipse
 62
7
  6
CONTINUOUS
 10
-5.9228251758
 20
20.7133316623
 30
0.0
 11
0.1999154856
 21
0.0095814127
 31
0.0
 40
0.6067642562
 41
2.850720877
 42
3.8979184282
  0
ELLIPSE
  5
298
100
AcDbEntity
  8
0
100
AcDbEllipse
 62
7
  6
CONTINUOUS
 10
9.5917885103
 20
8.1518463031
 30
0.0
 11
0.6999935638
 21
-0.0052448313
 31
0.0
 40
0.5723275643
 41
-0.6763901644
 42
0.7896864073
  0
ENDSEC
  0
SECTION
  2
OBJECTS
  0
DICTIONARY
  5
C
100
AcDbDictionary
280
0
281
1
  3
ACAD_GROUP
350
D
  3
ACAD_MLINESTYLE
350
17
  3
ACAD_LAYOUT
350
1A
  3
ACAD_PLOTSETTINGS
350
19
  3
ACAD_PLOTSTYLENAME
350
E
  0
DICTIONARY
  5
D
102
{ACAD_REACTORS
330
C
102
}
100
AcDbDictionary
280
0
281
1
  0
ACDBDICTIONARYWDFLT
  5
E
102
{ACAD_REACTORS
330
C
102
}
100
AcDbDictionary
281
1
  3
Normal
350
F
100
AcDbDictionaryWithDefault
340
F
  0
DICTIONARY
  5
17
102
{ACAD_REACTORS
330
C
102
}
100
AcDbDictionary
280
0
281
1
  3
Standard
350
18
  0
DICTIONARY
  5
19
102
{ACAD_REACTORS
330
C
102
}
100
AcDbDictionary
281
1
  0
DICTIONARY
  5
1A
102
{ACAD_REACTORS
330
C
102
}
100
AcDbDictionary
281
1
  3
Model
350
299
  3
Layout1
350
29A
  0
ACDBPLACEHOLDER
  5
F
102
{ACAD_REACTORS
330
E
102
}
  0
MLINESTYLE
  5
18
102
{ACAD_REACTORS
330
17
102
}
100
AcDbMlineStyle
  2
STANDARD
 70
0
  3

 62
256
 51
90.0
 52
90.0
 71
2
 49
0.5
 62
256
  6
BYLAYER
 49
-0.5
 62
256
  6
BYLAYER
  0
LAYOUT
  5
299
102
{ACAD_REACTORS
330
1A
102
}
100
AcDbPlotSettings
  1

  2
none_device
  4
ISO_A4_(297.00_x_210.00_MM)
  6

 40
0.0
 41
0.0
 42
0.0
 43
0.0
 44
297.0
 45
210.0
 46
0.0
 47
0.0
 48
0.0
 49
0.0
140
0.0
141
0.0
142
1.0
143
1.0
 70
1024
 72
1
 73
0
 74
0
  7

 75
0
147
1.0
148
0.0
149
0.0
100
AcDbLayout
  1
Model
 70
0
 71
0
 10
0.0
 20
0.0
 11
297.0
 21
210.0
 12
0.0
 22
0.0
 32
0.0
 14
0.0
 24
0.0
 34
0.0
 15
0.0
 25
0.0
 35
0.0
146
0.0
 13
0.0
 23
0.0
 33
0.0
 16
1.0
 26
0.0
 36
0.0
 17
0.0
 27
1.0
 37
0.0
 76
0
330
214
345
0
346
0
  0
LAYOUT
  5
29A
102
{ACAD_REACTORS
330
1A
102
}
100
AcDbPlotSettings
  1

  2
none_device
  4
ISO_A4_(297.00_x_210.00_MM)
  6

 40
0.0
 41
0.0
 42
0.0
 43
0.0
 44
297.0
 45
210.0
 46
0.0
 47
0.0
 48
0.0
 49
0.0
140
0.0
141
0.0
142
1.0
143
1.0
 70
0
 72
1
 73
0
 74
0
  7

 75
0
147
1.0
148
0.0
149
0.0
100
AcDbLayout
  1
Layout1
 70
0
 71
1
 10
0.0
 20
0.0
 11
297.0
 21
210.0
 12
0.0
 22
0.0
 32
0.0
 14
0.0
 24
0.0
 34
0.0
 15
0.0
 25
0.0
 35
0.0
146
0.0
 13
0.0
 23
0.0
 33
0.0
 16
1.0
 26
0.0
 36
0.0
 17
0.0
 27
1.0
 37
0.0
 76
0
330
215
345
0
346
0
  0
ENDSEC
  0
EOF
