  0
SECTION
  2
HEADER
  9
$ACADVER
  1
AC1021
  9
$DWGCODEPAGE
  3
ANSI_1252
  9
$EXTMAX
 10
297.0
 20
210.0
 30
0.0
  9
$EXTMIN
 10
0.0
 20
0.0
 30
0.0
  9
$LIMMIN
 10
0.0
 20
0.0
  9
$LIMMAX
 10
297.0
 20
210.0
  9
$VIEWCTR
 10
148.5
 20
105.0
  9
$VIEWSIZE
 40
210.0
  9
$CLAYER
  8
0
  9
$LTSCALE
 40
16.335
  9
$CELTYPE
  6
BYLAYER
  9
$DIMSCALE
 40
1.0
  9
$DIMASZ
 40
3.0
  9
$DIMEXO
 40
0.5
  9
$DIMDLI
 40
11.286
  9
$DIMEXE
 40
1.5
  9
$DIMCEN
 40
2.673
  9
$DIMLFAC
 40
1.0
  9
$DIMBLK
  1
_FILLED
  9
$DIMALT
 70
0
  9
$DIMALTF
 40
25.4
  9
$DIMTXT
 40
3.0
  9
$DIMTOL
 70
1
  9
$DIMLIM
 70
0
  9
$DIMTFAC
 40
1.0
  9
$DIMTP
 40
0.01
  9
$DIMTM
 40
0.01
  9
$DIMGAP
 40
0.625
  9
$DIMDSEP
 70
44
  9
$AUNITS
 70
0
  9
$PDMODE
 70
3
  9
$PDSIZE
 40
3.0
  9
$HANDSEED
  5
2E5
  9
$TILEMODE
 70
1
  9
$MEASUREMENT
 70
1
  9
$INSUNITS
 70
4
  0
ENDSEC
  0
SECTION
  2
CLASSES
  0
CLASS
  1
ACDBDICTIONARYWDFLT
  2
AcDbDictionaryWithDefault
  3
AutoCAD 2000
 90
0
 91
1
280
0
281
0
  0
CLASS
  1
ACDBPLACEHOLDER
  2
AcDbPlaceHolder
  3
AutoCAD 2000
 90
0
 91
1
280
0
281
0
  0
CLASS
  1
LAYOUT
  2
AcDbLayout
  3
AutoCAD 2000
 90
0
 91
0
280
0
281
0
  0
ENDSEC
  0
SECTION
  2
TABLES
  0
TABLE
  2
VPORT
  5
8
100
AcDbSymbolTable
 70
2
  0
VPORT
  5
1F4
100
AcDbSymbolTableRecord
100
AcDbViewportTableRecord
  2
*ACTIVE
 70
0
 10
0.0
 20
0.0
 11
1.0
 21
1.0
 12
148.5
 22
105.0
 13
0.0
 23
0.0
 14
1.0
 24
1.0
 15
0.0
 25
0.0
 16
0.0
 26
0.0
 36
1.0
 17
0.0
 27
0.0
 37
0.0
 40
210.0
 41
1.4142857143
 42
50.0
 43
0.0
 44
0.0
 50
0.0
 51
0.0
 71
0
 72
100
 73
1
 74
1
 75
0
 76
0
 77
0
 78
0
  0
ENDTAB
  0
TABLE
  2
LTYPE
  5
5
100
AcDbSymbolTable
 70
6
  0
LTYPE
  5
14
100
AcDbSymbolTableRecord
100
AcDbLinetypeTableRecord
  2
BYBLOCK
 70
0
  3

 72
65
 73
0
 40
0.0
  0
LTYPE
  5
15
100
AcDbSymbolTableRecord
100
AcDbLinetypeTableRecord
  2
BYLAYER
 70
0
  3

 72
65
 73
0
 40
0.0
  0
LTYPE
  5
16
100
AcDbSymbolTableRecord
100
AcDbLinetypeTableRecord
  2
CONTINUOUS
 70
64
  3
Solid line
 72
65
 73
0
 40
0.0
  0
LTYPE
  5
1F5
100
AcDbSymbolTableRecord
100
AcDbLinetypeTableRecord
  2
CENTER
 70
64
  3
____ _ ____ _ ____ _ ____ _ ____ _ ____ _ ____
 72
65
 73
4
 40
0.6
 49
0.375
 74
0
 49
-0.075
 74
0
 49
0.075
 74
0
 49
-0.075
 74
0
  0
LTYPE
  5
1F6
100
AcDbSymbolTableRecord
100
AcDbLinetypeTableRecord
  2
HIDDEN
 70
64
  3
- - - - - - - - - - - - - - - - - - - -
 72
65
 73
2
 40
0.2
 49
0.1
 74
0
 49
-0.1
 74
0
  0
LTYPE
  5
1F7
100
AcDbSymbolTableRecord
100
AcDbLinetypeTableRecord
  2
PHANTOM
 70
64
  3
_____ _ _ _____ _ _ _____ _ _ _____
 72
65
 73
6
 40
0.8
 49
0.45
 74
0
 49
-0.05
 74
0
 49
0.1
 74
0
 49
-0.05
 74
0
 49
0.1
 74
0
 49
-0.05
 74
0
  0
LTYPE
  5
1F8
100
AcDbSymbolTableRecord
100
AcDbLinetypeTableRecord
  2
DOT
 70
64
  3
. . . . . . . . . . . . . . . . . . . .
 72
65
 73
2
 40
0.2
 49
0.1
 74
0
 49
-0.1
 74
0
  0
LTYPE
  5
1F9
100
AcDbSymbolTableRecord
100
AcDbLinetypeTableRecord
  2
DASHED
 70
64
  3
- - - - - - - - - - - - - - - - - - - -
 72
65
 73
2
 40
0.2
 49
0.1
 74
0
 49
-0.1
 74
0
  0
ENDTAB
  0
TABLE
  2
LAYER
  5
2
100
AcDbSymbolTable
 70
36
  0
LAYER
  5
10
100
AcDbSymbolTableRecord
100
AcDbLayerTableRecord
  2
0
 70
0
 62
7
  6
CONTINUOUS
370
-3
390
F
  0
LAYER
  5
1FA
100
AcDbSymbolTableRecord
100
AcDbLayerTableRecord
  2
DEFAULT_1
 70
0
 62
7
  6
CENTER
370
-3
390
F
  0
LAYER
  5
1FB
100
AcDbSymbolTableRecord
100
AcDbLayerTableRecord
  2
DEFAULT_2
 70
0
 62
7
  6
HIDDEN
370
-3
390
F
  0
LAYER
  5
1FC
100
AcDbSymbolTableRecord
100
AcDbLayerTableRecord
  2
DEFAULT_3
 70
0
 62
7
  6
PHANTOM
370
-3
390
F
  0
LAYER
  5
1FD
100
AcDbSymbolTableRecord
100
AcDbLayerTableRecord
  2
ASSI
 70
0
 62
7
  6
CONTINUOUS
370
-3
390
F
  0
LAYER
  5
1FE
100
AcDbSymbolTableRecord
100
AcDbLayerTableRecord
  2
COLOR9
 70
0
 62
7
  6
CONTINUOUS
370
-3
390
F
  0
LAYER
  5
1FF
100
AcDbSymbolTableRecord
100
AcDbLayerTableRecord
  2
COORDINATE
 70
0
 62
7
  6
CONTINUOUS
370
-3
390
F
  0
LAYER
  5
200
100
AcDbSymbolTableRecord
100
AcDbLayerTableRecord
  2
COORD_ORIGINE
 70
0
 62
7
  6
CONTINUOUS
370
-3
390
F
  0
LAYER
  5
201
100
AcDbSymbolTableRecord
100
AcDbLayerTableRecord
  2
COPY_PUBLISH
 70
0
 62
7
  6
CONTINUOUS
370
-3
390
F
  0
LAYER
  5
202
100
AcDbSymbolTableRecord
100
AcDbLayerTableRecord
  2
COSMETICI
 70
0
 62
7
  6
CONTINUOUS
370
-3
390
F
  0
LAYER
  5
203
100
AcDbSymbolTableRecord
100
AcDbLayerTableRecord
  2
CURVE
 70
0
 62
7
  6
CONTINUOUS
370
-3
390
F
  0
LAYER
  5
204
100
AcDbSymbolTableRecord
100
AcDbLayerTableRecord
  2
DRAFT
 70
0
 62
7
  6
CONTINUOUS
370
-3
390
F
  0
LAYER
  5
205
100
AcDbSymbolTableRecord
100
AcDbLayerTableRecord
  2
IGES
 70
0
 62
7
  6
CONTINUOUS
370
-3
390
F
  0
LAYER
  5
206
100
AcDbSymbolTableRecord
100
AcDbLayerTableRecord
  2
IGS_SCRITTE
 70
0
 62
7
  6
CONTINUOUS
370
-3
390
F
  0
LAYER
  5
207
100
AcDbSymbolTableRecord
100
AcDbLayerTableRecord
  2
IMPORT_IGES
 70
0
 62
7
  6
CONTINUOUS
370
-3
390
F
  0
LAYER
  5
208
100
AcDbSymbolTableRecord
100
AcDbLayerTableRecord
  2
INTF_YELLOW
 70
0
 62
7
  6
CONTINUOUS
370
-3
390
F
  0
LAYER
  5
209
100
AcDbSymbolTableRecord
100
AcDbLayerTableRecord
  2
LIVELLO_1
 70
0
 62
7
  6
CONTINUOUS
370
-3
390
F
  0
LAYER
  5
20A
100
AcDbSymbolTableRecord
100
AcDbLayerTableRecord
  2
NOTE
 70
0
 62
7
  6
CONTINUOUS
370
-3
390
F
  0
LAYER
  5
20B
100
AcDbSymbolTableRecord
100
AcDbLayerTableRecord
  2
PIANI
 70
0
 62
7
  6
CONTINUOUS
370
-3
390
F
  0
LAYER
  5
20C
100
AcDbSymbolTableRecord
100
AcDbLayerTableRecord
  2
PIANI_ORIGINE
 70
0
 62
7
  6
CONTINUOUS
370
-3
390
F
  0
LAYER
  5
20D
100
AcDbSymbolTableRecord
100
AcDbLayerTableRecord
  2
PIANI_RIFERIMENTO
 70
0
 62
7
  6
CONTINUOUS
370
-3
390
F
  0
LAYER
  5
20E
100
AcDbSymbolTableRecord
100
AcDbLayerTableRecord
  2
PUNTI
 70
0
 62
7
  6
CONTINUOUS
370
-3
390
F
  0
LAYER
  5
20F
100
AcDbSymbolTableRecord
100
AcDbLayerTableRecord
  2
RACCORDO
 70
0
 62
7
  6
CONTINUOUS
370
-3
390
F
  0
LAYER
  5
210
100
AcDbSymbolTableRecord
100
AcDbLayerTableRecord
  2
SIMBOLI
 70
0
 62
7
  6
CONTINUOUS
370
-3
390
F
  0
LAYER
  5
211
100
AcDbSymbolTableRecord
100
AcDbLayerTableRecord
  2
SMUSSO
 70
0
 62
7
  6
CONTINUOUS
370
-3
390
F
  0
LAYER
  5
212
100
AcDbSymbolTableRecord
100
AcDbLayerTableRecord
  2
SNAPLINE
 70
0
 62
7
  6
CONTINUOUS
370
-3
390
F
  0
LAYER
  5
213
100
AcDbSymbolTableRecord
100
AcDbLayerTableRecord
  2
SOLIDO
 70
0
 62
7
  6
CONTINUOUS
370
-3
390
F
  0
LAYER
  5
214
100
AcDbSymbolTableRecord
100
AcDbLayerTableRecord
  2
SUPERFICI
 70
0
 62
7
  6
CONTINUOUS
370
-3
390
F
  0
LAYER
  5
215
100
AcDbSymbolTableRecord
100
AcDbLayerTableRecord
  2
TRASH
 70
0
 62
7
  6
CONTINUOUS
370
-3
390
F
  0
LAYER
  5
216
100
AcDbSymbolTableRecord
100
AcDbLayerTableRecord
  2
WHITE
 70
0
 62
7
  6
CONTINUOUS
370
-3
390
F
  0
ENDTAB
  0
TABLE
  2
STYLE
  5
3
100
AcDbSymbolTable
 70
1
  0
STYLE
  5
11
100
AcDbSymbolTableRecord
100
AcDbTextStyleTableRecord
  2
STANDARD
 70
0
 40
0.0
 41
0.8
 50
0.0
 71
0
 42
0.2
  3
txt
  4

  0
STYLE
  5
217
100
AcDbSymbolTableRecord
100
AcDbTextStyleTableRecord
  2
TEXTSTYLE_1
 70
0
 40
0.0
 41
0.8
 50
0.0
 71
0
 42
0.2
  3
gdt
  4

  0
ENDTAB
  0
TABLE
  2
VIEW
  5
6
100
AcDbSymbolTable
 70
0
  0
ENDTAB
  0
TABLE
  2
UCS
  5
7
100
AcDbSymbolTable
 70
0
  0
ENDTAB
  0
TABLE
  2
APPID
  5
9
100
AcDbSymbolTable
 70
1
  0
APPID
  5
218
100
AcDbSymbolTableRecord
100
AcDbRegAppTableRecord
  2
ACAD
 70
0
  0
ENDTAB
  0
TABLE
  2
BLOCK_RECORD
  5
1
100
AcDbSymbolTable
 70
0
  0
BLOCK_RECORD
  5
219
100
AcDbSymbolTableRecord
100
AcDbBlockTableRecord
  2
*Model_Space
  0
BLOCK_RECORD
  5
21A
100
AcDbSymbolTableRecord
100
AcDbBlockTableRecord
  2
*Paper_Space
  0
ENDTAB
  0
TABLE
  2
DIMSTYLE
  5
A
100
AcDbSymbolTable
 70
1
100
AcDbDimStyleTable
 71
0
  0
DIMSTYLE
105
21B
100
AcDbSymbolTableRecord
100
AcDbDimStyleTableRecord
  2
STANDARD
 70
0
  3

  4

 40
1.0
 41
3.0
 42
0.5
 43
0.38
 44
1.5
 45
0.0
 46
0.0
 47
0.01
 48
0.01
140
3.0
141
0.09
142
0.0
143
25.4
144
1.0
145
0.0
146
1.0
147
0.625
 71
1.0
 72
0.0
 73
0
 74
0
 75
0
 76
0
 77
1
 78
8
170
0
171
1
172
0
173
0
174
0
175
0
176
0
177
0
178
0
270
2
271
2
272
2
273
2
274
2
275
0
280
0
281
0
282
0
283
1
284
8
285
0
286
0
287
3
288
0
340
11
278
44
  0
ENDTAB
  0
ENDSEC
  0
SECTION
  2
BLOCKS
  0
BLOCK
  5
20
100
AcDbEntity
  8
0
100
AcDbBlockBegin
  2
*Model_Space
 70
0
 10
0.0
 20
0.0
 30
0.0
  3
*Model_Space
  1

  0
ENDBLK
  5
21
100
AcDbEntity
  8
0
100
AcDbBlockEnd
  0
BLOCK
  5
1C
100
AcDbEntity
  8
0
100
AcDbBlockBegin
  2
*Paper_Space
 70
0
 10
0.0
 20
0.0
 30
0.0
  3
*Paper_Space
  1

  0
ENDBLK
  5
1D
100
AcDbEntity
  8
0
100
AcDbBlockEnd
  0
ENDSEC
  0
SECTION
  2
ENTITIES
  0
LWPOLYLINE
  5
21C
100
AcDbEntity
  8
ASSI
100
AcDbPolyline
 62
7
  6
CONTINUOUS
 90
13
 70
0
 10
-9.3704017272
 20
21.9136679075
 10
-9.4210972412
 20
21.876799225
 10
-9.4958320467
 20
21.813380718
 10
-9.5650190524
 20
21.7437441401
 10
-9.6289810936
 20
21.6682371065
 10
-9.6875740287
 20
21.5874160245
 10
-9.7401425202
 20
21.502501264
 10
-9.7865463539
 20
21.4139354921
 10
-9.8265271644
 20
21.3220851866
 10
-9.8593957144
 20
21.2282212603
 10
-9.8847908539
 20
21.1328492155
 10
-9.9023367061
 20
21.035880946
 10
-9.9051957136
 20
21.0133500088
  0
LINE
  5
21D
100
AcDbEntity
  8
ASSI
100
AcDbLine
 62
7
  6
CONTINUOUS
 10
-9.3706771721
 20
21.913480519
 11
-7.3880530836
 21
23.265382777
  0
LINE
  5
21E
100
AcDbEntity
  8
ASSI
100
AcDbLine
 62
253
  6
CONTINUOUS
 10
-9.1074962266
 20
21.8973697627
 11
-7.137459134
 21
23.2406892601
  0
LWPOLYLINE
  5
21F
100
AcDbEntity
  8
ASSI
100
AcDbPolyline
 62
253
  6
CONTINUOUS
 90
30
 70
0
 10
-9.3704017325
 20
21.9136679152
 10
-9.367425127
 20
21.9156404532
 10
-9.360401491
 20
21.9199318329
 10
-9.3531487497
 20
21.923869053
 10
-9.3456730254
 20
21.92744879
 10
-9.3379806287
 20
21.9306680221
 10
-9.3300780529
 20
21.9335240318
 10
-9.3219719688
 20
21.9360144083
 10
-9.3136692192
 20
21.9381370494
 10
-9.3051768125
 20
21.9398901633
 10
-9.2965019176
 20
21.9412722702
 10
-9.2876518572
 20
21.9422822032
 10
-9.2786341019
 20
21.94291911
 10
-9.2694562639
 20
21.9431824529
 10
-9.2601260906
 20
21.9430720096
 10
-9.2506514579
 20
21.9425878733
 10
-9.2410403635
 20
21.9417304527
 10
-9.2313009207
 20
21.9405004715
 10
-9.2214413506
 20
21.9388989681
 10
-9.2114699762
 20
21.9369272944
 10
-9.2013952146
 20
21.9345871146
 10
-9.1912255703
 20
21.9318804042
 10
-9.1809696278
 20
21.9288094481
 10
-9.1706360444
 20
21.9253768385
 10
-9.1602335431
 20
21.921585473
 10
-9.149770905
 20
21.917438552
 10
-9.139256962
 20
21.9129395761
 10
-9.1287005892
 20
21.9080923431
 10
-9.1181106977
 20
21.9029009445
 10
-9.1074962266
 20
21.8973697627
  0
LWPOLYLINE
  5
220
100
AcDbEntity
  8
ASSI
100
AcDbPolyline
 62
7
  6
CONTINUOUS
 90
11
 70
0
 10
5.3009315571
 20
-22.7361853419
 10
5.3656321195
 20
-22.7691715514
 10
5.4329534764
 20
-22.7949212149
 10
5.5027078527
 20
-22.8135211051
 10
5.5751737231
 20
-22.8249673641
 10
5.6497821737
 20
-22.8289529888
 10
5.7257450415
 20
-22.8252576183
 10
5.8032829776
 20
-22.813609753
 10
5.882166156
 20
-22.7936135656
 10
5.9615220408
 20
-22.7650533364
 10
6.0073599387
 20
-22.7445726834
  0
LINE
  5
221
100
AcDbEntity
  8
ASSI
100
AcDbLine
 62
7
  6
CONTINUOUS
 10
-9.5624288755
 20
-14.1542687234
 11
5.30171535
 21
-22.7366393077
  0
LINE
  5
222
100
AcDbEntity
  8
ASSI
100
AcDbLine
 62
7
  6
CONTINUOUS
 10
5.3009299946
 20
-22.736184475
 11
5.3017153766
 21
-22.7366393231
  0
LINE
  5
223
100
AcDbEntity
  8
ASSI
100
AcDbLine
 62
253
  6
CONTINUOUS
 10
-9.5624288755
 20
-14.1542687234
 11
-9.567989091
 21
-14.1509835068
  0
LWPOLYLINE
  5
224
100
AcDbEntity
  8
ASSI
100
AcDbPolyline
 62
253
  6
CONTINUOUS
 90
27
 70
0
 10
-9.567989091
 20
-14.1509835068
 10
-9.5795062314
 20
-14.1436851301
 10
-9.5907302855
 20
-14.1358905554
 10
-9.6016546716
 20
-14.1276043524
 10
-9.6122729829
 20
-14.1188313705
 10
-9.6225793328
 20
-14.1095765374
 10
-9.6325676919
 20
-14.099845244
 10
-9.6422321863
 20
-14.0896431768
 10
-9.6515674415
 20
-14.0789761135
 10
-9.6605679927
 20
-14.0678502605
 10
-9.6692285529
 20
-14.0562720966
 10
-9.6775443091
 20
-14.0442482018
 10
-9.6855103963
 20
-14.0317855576
 10
-9.6931221338
 20
-14.0188914082
 10
-9.7003752933
 20
-14.005573103
 10
-9.707265629
 20
-13.9918383747
 10
-9.713789097
 20
-13.9776951832
 10
-9.7199420891
 20
-13.9631515727
 10
-9.7257210186
 20
-13.9482159286
 10
-9.7311224723
 20
-13.9328969344
 10
-9.7361434322
 20
-13.9172034175
 10
-9.7407809563
 20
-13.901144508
 10
-9.7450323338
 20
-13.8847294533
 10
-9.7488952278
 20
-13.8679675667
 10
-9.7523674199
 20
-13.8508684726
 10
-9.7554468199
 20
-13.8334421084
 10
-9.7581316197
 20
-13.8156985381
  0
LINE
  5
225
100
AcDbEntity
  8
ASSI
100
AcDbLine
 62
253
  6
CONTINUOUS
 10
-9.7581316197
 20
-13.8156985381
 11
5.0990569859
 21
-22.3940530347
  0
LWPOLYLINE
  5
226
100
AcDbEntity
  8
ASSI
100
AcDbPolyline
 62
7
  6
CONTINUOUS
 90
6
 70
0
 10
-9.8030136947
 20
-13.9155634763
 10
-9.7581393607
 20
-13.9818313758
 10
-9.7067122696
 20
-14.0415588099
 10
-9.649254036
 20
-14.0943465391
 10
-9.5869311577
 20
-14.1393951779
 10
-9.5613309709
 20
-14.1548997474
  0
LWPOLYLINE
  5
227
100
AcDbEntity
  8
ASSI
100
AcDbPolyline
 62
7
  6
CONTINUOUS
 90
10
 70
0
 10
-9.9051478993
 20
21.013765586
 10
-10.0263026552
 20
19.9298386333
 10
-10.1418658616
 20
18.7874038595
 10
-10.2442634806
 20
17.6511026376
 10
-10.3334710766
 20
16.5211796937
 10
-10.4094671232
 20
15.397876597
 10
-10.4722329274
 20
14.2814312941
 10
-10.5217523379
 20
13.1720823059
 10
-10.5580118558
 20
12.0700686938
 10
-10.5799788266
 20
11.042159324
  0
LWPOLYLINE
  5
228
100
AcDbEntity
  8
ASSI
100
AcDbPolyline
 62
253
  6
CONTINUOUS
 90
58
 70
0
 10
-9.7581316197
 20
20.8147191114
 10
-9.7554468199
 20
20.8356733546
 10
-9.7523674199
 20
20.8567820951
 10
-9.7488952278
 20
20.8780331808
 10
-9.7450323338
 20
20.899414359
 10
-9.7407809563
 20
20.9209133453
 10
-9.7361434322
 20
20.9425178323
 10
-9.7311224723
 20
20.9642154729
 10
-9.7257210186
 20
20.9859937091
 10
-9.7199420891
 20
21.0078398406
 10
-9.713789097
 20
21.0297412665
 10
-9.707265629
 20
21.0516854355
 10
-9.7003752933
 20
21.0736596772
 10
-9.6931221338
 20
21.0956513889
 10
-9.6855103963
 20
21.1176479079
 10
-9.6775443091
 20
21.1396364615
 10
-9.6692285529
 20
21.161604425
 10
-9.6605679927
 20
21.1835391744
 10
-9.6515674415
 20
21.2054279581
 10
-9.6422321863
 20
21.2272582161
 10
-9.6325676919
 20
21.2490174073
 10
-9.6225793328
 20
21.2706928621
 10
-9.6122729829
 20
21.2922721334
 10
-9.6016546716
 20
21.3137428452
 10
-9.5907302855
 20
21.33509252
 10
-9.5795062314
 20
21.3563089314
 10
-9.567989091
 20
21.3773798879
 10
-9.5561852763
 20
21.3982930816
 10
-9.544101726
 20
21.4190365154
 10
-9.5317455138
 20
21.4395983028
 10
-9.519123501
 20
21.4599664507
 10
-9.506243092
 20
21.4801293018
 10
-9.4931118419
 20
21.5000752856
 10
-9.4797370662
 20
21.5197927194
 10
-9.4661266291
 20
21.5392702996
 10
-9.4522884996
 20
21.5584968821
 10
-9.4382303573
 20
21.5774612324
 10
-9.4239604481
 20
21.5961525088
 10
-9.4094871465
 20
21.6145599973
 10
-9.3948185125
 20
21.6326728921
 10
-9.3799631592
 20
21.6504808341
 10
-9.364929798
 20
21.6679736345
 10
-9.3497268021
 20
21.68514101
 10
-9.334363098
 20
21.701973151
 10
-9.3188476975
 20
21.7184604339
 10
-9.3031892442
 20
21.7345931474
 10
-9.2873969461
 20
21.7503620653
 10
-9.2714800543
 20
21.7657581979
 10
-9.2554473959
 20
21.7807725035
 10
-9.2393083525
 20
21.7953964472
 10
-9.2230724236
 20
21.8096216505
 10
-9.2067487067
 20
21.823439648
 10
-9.1903468343
 20
21.8368425244
 10
-9.173876384
 20
21.8498226939
 10
-9.1573464403
 20
21.8623725449
 10
-9.1407665107
 20
21.874484856
 10
-9.124146521
 20
21.8861528077
 10
-9.1074962266
 20
21.8973697627
  0
LINE
  5
229
100
AcDbEntity
  8
ASSI
100
AcDbLine
 62
7
  6
CONTINUOUS
 10
-5.14566088
 20
22.0906499113
 11
-5.3259121294
 21
21.6764297525
  0
LINE
  5
22A
100
AcDbEntity
  8
ASSI
100
AcDbLine
 62
253
  6
CONTINUOUS
 10
-10.2844697996
 20
-8.4891564092
 11
-10.3244968818
 21
-7.8044628375
  0
LWPOLYLINE
  5
22B
100
AcDbEntity
  8
ASSI
100
AcDbPolyline
 62
253
  6
CONTINUOUS
 90
28
 70
0
 10
-10.579921666
 20
-4.4735302778
 10
-10.5794700162
 20
-4.4818928791
 10
-10.5786143668
 20
-4.4902402995
 10
-10.57735541
 20
-4.4985657866
 10
-10.5756941642
 20
-4.5068626057
 10
-10.5736319731
 20
-4.5151240454
 10
-10.571170505
 20
-4.5233434228
 10
-10.568311751
 20
-4.531514089
 10
-10.5650580236
 20
-4.5396294346
 10
-10.5614119547
 20
-4.5476828949
 10
-10.5573764939
 20
-4.5556679554
 10
-10.5529549054
 20
-4.5635781566
 10
-10.548150766
 20
-4.5714070999
 10
-10.5429679619
 20
-4.5791484523
 10
-10.5374106855
 20
-4.5867959516
 10
-10.5314834323
 20
-4.5943434115
 10
-10.5251909969
 20
-4.6017847268
 10
-10.5185384694
 20
-4.6091138781
 10
-10.5115312313
 20
-4.6163249365
 10
-10.5041749507
 20
-4.623412069
 10
-10.4964755785
 20
-4.6303695425
 10
-10.4884393427
 20
-4.6371917291
 10
-10.4800727441
 20
-4.64387311
 10
-10.4713825506
 20
-4.6504082807
 10
-10.4623757919
 20
-4.6567919546
 10
-10.4530597537
 20
-4.6630189678
 10
-10.4434419721
 20
-4.6690842832
 10
-10.433530227
 20
-4.6749829944
  0
LINE
  5
22C
100
AcDbEntity
  8
ASSI
100
AcDbLine
 62
253
  6
CONTINUOUS
 10
-10.3244968818
 20
-7.8044628375
 11
-10.3587827856
 21
-7.115785989
  0
LINE
  5
22D
100
AcDbEntity
  8
ASSI
100
AcDbLine
 62
253
  6
CONTINUOUS
 10
-10.3587827856
 20
-7.115785989
 11
-10.3873243116
 21
-6.4231903504
  0
LINE
  5
22E
100
AcDbEntity
  8
ASSI
100
AcDbLine
 62
253
  6
CONTINUOUS
 10
-10.3873243116
 20
-6.4231903504
 11
-10.4101187694
 21
-5.7267407822
  0
LINE
  5
22F
100
AcDbEntity
  8
ASSI
100
AcDbLine
 62
253
  6
CONTINUOUS
 10
-10.4101187694
 20
-5.7267407822
 11
-10.4271640622
 21
-5.0265024506
  0
LWPOLYLINE
  5
230
100
AcDbEntity
  8
ASSI
100
AcDbPolyline
 62
7
  6
CONTINUOUS
 90
10
 70
0
 10
-10.5799763466
 20
-4.4711452893
 10
-10.5578459558
 20
-5.4777904556
 10
-10.52148812
 20
-6.5356994875
 10
-10.4718473302
 20
-7.5847591067
 10
-10.4089312974
 20
-8.6247428787
 10
-10.3327503048
 20
-9.6554293528
 10
-10.2433169619
 20
-10.6766024998
 10
-10.1406466906
 20
-11.6880449513
 10
-10.0247579439
 20
-12.6895380126
 10
-9.903923514
 20
-13.6206910784
  0
LINE
  5
231
100
AcDbEntity
  8
ASSI
100
AcDbLine
 62
253
  6
CONTINUOUS
 10
-10.4271640622
 20
-5.0265024506
 11
-10.4459467917
 21
-3.856999197
  0
LWPOLYLINE
  5
232
100
AcDbEntity
  8
ASSI
100
AcDbPolyline
 62
253
  6
CONTINUOUS
 90
4
 70
0
 10
-10.6414648328
 20
3.5718556377
 10
-10.6413886831
 20
3.566730404
 10
-10.640938265
 20
3.558561554
 10
-10.6400838097
 20
3.5504022885
  0
LWPOLYLINE
  5
233
100
AcDbEntity
  8
ASSI
100
AcDbPolyline
 62
253
  6
CONTINUOUS
 90
24
 70
0
 10
-10.4950179094
 20
3.3681819497
 10
-10.4949161897
 20
3.3611529386
 10
-10.4946013867
 20
3.3542553115
 10
-10.4940738802
 20
3.3474973876
 10
-10.4933343064
 20
3.3408873174
 10
-10.4923835571
 20
3.3344330731
 10
-10.4912227792
 20
3.3281424392
 10
-10.4898533727
 20
3.3220230024
 10
-10.488276989
 20
3.3160821434
 10
-10.4864955294
 20
3.3103270272
 10
-10.4845111426
 20
3.304764595
 10
-10.4823262218
 20
3.2994015555
 10
-10.4799434022
 20
3.2942443769
 10
-10.4773655577
 20
3.2892992791
 10
-10.4745957974
 20
3.2845722263
 10
-10.4716374617
 20
3.2800689197
 10
-10.4684941187
 20
3.2757947906
 10
-10.4651695595
 20
3.271754994
 10
-10.4616677937
 20
3.267954402
 10
-10.4579930448
 20
3.2643975986
 10
-10.4541497447
 20
3.2610888736
 10
-10.4501425287
 20
3.2580322173
 10
-10.44597623
 20
3.2552313166
 10
-10.4435382699
 20
3.2537540994
  0
LINE
  5
234
100
AcDbEntity
  8
ASSI
100
AcDbLine
 62
7
  6
CONTINUOUS
 10
-10.6029442022
 20
-2.8713587189
 11
-10.5799763424
 21
-4.4711455561
  0
LINE
  5
235
100
AcDbEntity
  8
ASSI
100
AcDbLine
 62
253
  6
CONTINUOUS
 10
-10.4459467917
 20
-3.856999197
 11
-10.4665915553
 21
-2.2183690779
  0
LINE
  5
236
100
AcDbEntity
  8
ASSI
100
AcDbLine
 62
7
  6
CONTINUOUS
 10
-10.6211837016
 20
-1.2027373613
 11
-10.6029442022
 21
-2.8713587189
  0
LINE
  5
237
100
AcDbEntity
  8
ASSI
100
AcDbLine
 62
253
  6
CONTINUOUS
 10
-10.4665915553
 20
-2.2183690779
 11
-10.4816517481
 21
-0.5762165503
  0
LWPOLYLINE
  5
238
100
AcDbEntity
  8
ASSI
100
AcDbPolyline
 62
253
  6
CONTINUOUS
 90
29
 70
0
 10
-10.5799788266
 20
11.042159324
 10
-10.5799216659
 20
11.0346748377
 10
-10.5794700161
 20
11.0266254169
 10
-10.5786143667
 20
11.0185822012
 10
-10.5773554099
 20
11.010551697
 10
-10.5756941641
 20
11.0025404003
 10
-10.573631973
 20
10.9945547915
 10
-10.5711705049
 20
10.9866013306
 10
-10.5683117509
 20
10.9786864511
 10
-10.5650580235
 20
10.9708165556
 10
-10.5614119546
 20
10.9629980102
 10
-10.5573764938
 20
10.9552371396
 10
-10.5529549053
 20
10.9475402217
 10
-10.5481507659
 20
10.9399134827
 10
-10.5429679618
 20
10.9323630919
 10
-10.5374106854
 20
10.9248951572
 10
-10.5314834322
 20
10.9175157195
 10
-10.5251909968
 20
10.9102307481
 10
-10.5185384693
 20
10.9030461361
 10
-10.5115312312
 20
10.8959676953
 10
-10.5041749506
 20
10.8890011515
 10
-10.4964755784
 20
10.8821521402
 10
-10.4884393426
 20
10.8754262016
 10
-10.480072744
 20
10.8688287766
 10
-10.4713825505
 20
10.8623652019
 10
-10.4623757918
 20
10.856040706
 10
-10.4530597537
 20
10.8498604051
 10
-10.443441972
 20
10.8438292984
 10
-10.4335302269
 20
10.8379522647
  0
LINE
  5
239
100
AcDbEntity
  8
ASSI
100
AcDbLine
 62
7
  6
CONTINUOUS
 10
-10.6336448215
 20
0.4695265114
 11
-10.6211837016
 21
-1.2027373613
  0
LINE
  5
23A
100
AcDbEntity
  8
ASSI
100
AcDbLine
 62
253
  6
CONTINUOUS
 10
-10.4816517481
 20
-0.5762165503
 11
-10.491126902
 21
1.0694624908
  0
LWPOLYLINE
  5
23B
100
AcDbEntity
  8
ASSI
100
AcDbPolyline
 62
7
  6
CONTINUOUS
 90
3
 70
0
 10
-10.641464832
 20
2.9232489526
 10
-10.6403274304
 20
2.1454064235
 10
-10.6336448215
 20
0.4695265114
  0
LINE
  5
23C
100
AcDbEntity
  8
ASSI
100
AcDbLine
 62
253
  6
CONTINUOUS
 10
-10.491126902
 20
1.0694624908
 11
-10.4950166151
 21
2.7186489638
  0
LINE
  5
23D
100
AcDbEntity
  8
ASSI
100
AcDbLine
 62
7
  6
CONTINUOUS
 10
-10.6377301178
 20
5.187266611
 11
-10.6414648328
 21
3.5718556323
  0
LINE
  5
23E
100
AcDbEntity
  8
ASSI
100
AcDbLine
 62
253
  6
CONTINUOUS
 10
-10.4950166151
 20
3.3681812024
 11
-10.491126902
 21
5.0221865567
  0
LINE
  5
23F
100
AcDbEntity
  8
ASSI
100
AcDbLine
 62
7
  6
CONTINUOUS
 10
-10.6281771951
 20
6.8731465093
 11
-10.6377301178
 21
5.187266611
  0
LINE
  5
240
100
AcDbEntity
  8
ASSI
100
AcDbLine
 62
253
  6
CONTINUOUS
 10
-10.491126902
 20
5.0221865567
 11
-10.4816517481
 21
6.6795991931
  0
LINE
  5
241
100
AcDbEntity
  8
ASSI
100
AcDbLine
 62
7
  6
CONTINUOUS
 10
-10.6128461371
 20
8.5625316396
 11
-10.6281771951
 21
6.8731465093
  0
LINE
  5
242
100
AcDbEntity
  8
ASSI
100
AcDbLine
 62
253
  6
CONTINUOUS
 10
-10.4816517481
 20
6.6795991931
 11
-10.4665915553
 21
8.3403998967
  0
LINE
  5
243
100
AcDbEntity
  8
ASSI
100
AcDbLine
 62
253
  6
CONTINUOUS
 10
-10.4665915553
 20
8.3403998967
 11
-10.4459467917
 21
10.0045935551
  0
LWPOLYLINE
  5
244
100
AcDbEntity
  8
ASSI
100
AcDbPolyline
 62
253
  6
CONTINUOUS
 90
46
 70
0
 10
-10.4950179094
 20
2.7186497111
 10
-10.4949161897
 20
2.7257961858
 10
-10.4946013867
 20
2.7330573396
 10
-10.4940738802
 20
2.740424415
 10
-10.4933343063
 20
2.7478885267
 10
-10.492383557
 20
2.7554406726
 10
-10.4912227791
 20
2.763071744
 10
-10.4898533724
 20
2.7707725374
 10
-10.4882769887
 20
2.778533765
 10
-10.486495529
 20
2.7863460662
 10
-10.4845111421
 20
2.7942000188
 10
-10.4823262212
 20
2.8020861502
 10
-10.4799434015
 20
2.8099949494
 10
-10.4773655569
 20
2.8179168775
 10
-10.4745957965
 20
2.8258423803
 10
-10.4716374607
 20
2.8337618989
 10
-10.4684941176
 20
2.8416658818
 10
-10.4651695582
 20
2.8495447962
 10
-10.4616677923
 20
2.8573891396
 10
-10.4579930433
 20
2.865189451
 10
-10.4541497431
 20
2.8729363227
 10
-10.4501425271
 20
2.8806204115
 10
-10.4459762282
 20
2.8882324497
 10
-10.4416558714
 20
2.8957632566
 10
-10.4371866673
 20
2.9032037495
 10
-10.4325740062
 20
2.9105449546
 10
-10.4278234511
 20
2.9177780179
 10
-10.4229407318
 20
2.9248942157
 10
-10.417931737
 20
2.9318849654
 10
-10.4128025081
 20
2.9387418357
 10
-10.4075592312
 20
2.9454565565
 10
-10.4022082301
 20
2.9520210295
 10
-10.3967559586
 20
2.9584273374
 10
-10.3912089925
 20
2.9646677538
 10
-10.3855740218
 20
2.9707347521
 10
-10.3798578428
 20
2.9766210152
 10
-10.3740673496
 20
2.9823194438
 10
-10.368209526
 20
2.9878231651
 10
-10.3622914369
 20
2.9931255413
 10
-10.35632022
 20
2.9982201773
 10
-10.3503030771
 20
3.0031009285
 10
-10.3442472652
 20
3.0077619085
 10
-10.3381600882
 20
3.0121974957
 10
-10.3320488876
 20
3.0164023405
 10
-10.325921034
 20
3.0203713716
 10
-10.319783918
 20
3.0240998019
  0
LWPOLYLINE
  5
245
100
AcDbEntity
  8
ASSI
100
AcDbPolyline
 62
7
  6
CONTINUOUS
 90
3
 70
0
 10
-10.579978823
 20
11.0421595599
 10
-10.5917372626
 20
10.2553949524
 10
-10.6128461371
 20
8.5625316396
  0
LINE
  5
246
100
AcDbEntity
  8
ASSI
100
AcDbLine
 62
253
  6
CONTINUOUS
 10
-10.4459467917
 20
10.0045935551
 11
-10.4271640622
 21
11.197352195
  0
LINE
  5
247
100
AcDbEntity
  8
ASSI
100
AcDbLine
 62
253
  6
CONTINUOUS
 10
-10.4271640622
 20
11.197352195
 11
-10.4101187694
 21
11.918690242
  0
LINE
  5
248
100
AcDbEntity
  8
ASSI
100
AcDbLine
 62
253
  6
CONTINUOUS
 10
-10.4101187694
 20
11.918690242
 11
-10.3873243116
 21
12.6433562511
  0
LINE
  5
249
100
AcDbEntity
  8
ASSI
100
AcDbLine
 62
253
  6
CONTINUOUS
 10
-10.3873243116
 20
12.6433562511
 11
-10.3587827856
 21
13.3712823847
  0
LINE
  5
24A
100
AcDbEntity
  8
ASSI
100
AcDbLine
 62
253
  6
CONTINUOUS
 10
-10.3587827856
 20
13.3712823847
 11
-10.3244968818
 21
14.1024005092
  0
LINE
  5
24B
100
AcDbEntity
  8
ASSI
100
AcDbLine
 62
253
  6
CONTINUOUS
 10
-10.3244968818
 20
14.1024005092
 11
-10.2844697996
 21
14.8366421648
  0
LINE
  5
24C
100
AcDbEntity
  8
ASSI
100
AcDbLine
 62
253
  6
CONTINUOUS
 10
-10.2844697996
 20
14.8366421648
 11
-10.2387052522
 21
15.5739386338
  0
LINE
  5
24D
100
AcDbEntity
  8
ASSI
100
AcDbLine
 62
253
  6
CONTINUOUS
 10
-10.2387052522
 20
15.5739386338
 11
-10.187207554
 21
16.3142209373
  0
LINE
  5
24E
100
AcDbEntity
  8
ASSI
100
AcDbLine
 62
253
  6
CONTINUOUS
 10
-10.187207554
 20
16.3142209373
 11
-10.1299815008
 21
17.057419825
  0
LINE
  5
24F
100
AcDbEntity
  8
ASSI
100
AcDbLine
 62
253
  6
CONTINUOUS
 10
-10.1299815008
 20
17.057419825
 11
-10.0670324049
 21
17.803465732
  0
LWPOLYLINE
  5
250
100
AcDbEntity
  8
ASSI
100
AcDbPolyline
 62
253
  6
CONTINUOUS
 90
31
 70
0
 10
-9.9051957136
 20
21.0133500088
 10
-9.905653613
 20
21.0083370772
 10
-9.9059283456
 20
21.0014731698
 10
-9.9058005197
 20
20.9945722287
 10
-9.9052702389
 20
20.9876398391
 10
-9.9043379323
 20
20.9806816115
 10
-9.9030043544
 20
20.9737031774
 10
-9.9012705846
 20
20.9667101846
 10
-9.899138026
 20
20.9597082927
 10
-9.8966084046
 20
20.9527031686
 10
-9.8936837676
 20
20.9457004817
 10
-9.890366482
 20
20.9387058994
 10
-9.8866592327
 20
20.9317250828
 10
-9.88256502
 20
20.9247636814
 10
-9.8780871574
 20
20.9178273294
 10
-9.873229269
 20
20.9109216405
 10
-9.8679952864
 20
20.9040522038
 10
-9.8623894457
 20
20.8972245787
 10
-9.8564162837
 20
20.8904442912
 10
-9.8500806348
 20
20.8837168286
 10
-9.8433876264
 20
20.8770476358
 10
-9.8363426756
 20
20.8704421101
 10
-9.8289514838
 20
20.8639055978
 10
-9.8212200331
 20
20.8574433889
 10
-9.8131545807
 20
20.8510607134
 10
-9.8047616541
 20
20.8447627372
 10
-9.7960480461
 20
20.8385545572
 10
-9.7870208087
 20
20.8324411979
 10
-9.7776872479
 20
20.8264276071
 10
-9.7680549177
 20
20.8205186516
 10
-9.7581316137
 20
20.8147191139
  0
LINE
  5
251
100
AcDbEntity
  8
ASSI
100
AcDbLine
 62
253
  6
CONTINUOUS
 10
-10.0670324049
 20
17.803465732
 11
-9.9983662014
 21
18.5522888518
  0
LINE
  5
252
100
AcDbEntity
  8
ASSI
100
AcDbLine
 62
253
  6
CONTINUOUS
 10
-9.9983662014
 20
18.5522888518
 11
-9.9239892891
 21
19.3038190619
  0
LINE
  5
253
100
AcDbEntity
  8
ASSI
100
AcDbLine
 62
253
  6
CONTINUOUS
 10
-9.9239892891
 20
19.3038190619
 11
-9.8439085419
 21
20.0579859841
  0
LINE
  5
254
100
AcDbEntity
  8
ASSI
100
AcDbLine
 62
253
  6
CONTINUOUS
 10
-9.8439085419
 20
20.0579859841
 11
-9.7581316197
 21
20.8147191114
  0
LWPOLYLINE
  5
255
100
AcDbEntity
  8
0
100
AcDbPolyline
 62
253
  6
CONTINUOUS
 90
54
 70
0
 10
-4.8774361909
 20
9.7846793865
 10
-4.8841495556
 20
9.78099388
 10
-4.8906416928
 20
9.7770291169
 10
-4.8969285977
 20
9.7727816505
 10
-4.9030262661
 20
9.7682480345
 10
-4.9089472286
 20
9.7634256552
 10
-4.9146901559
 20
9.7583152319
 10
-4.9202502543
 20
9.752918317
 10
-4.9256227296
 20
9.7472364628
 10
-4.9308022859
 20
9.7412717883
 10
-4.9357816196
 20
9.7350286795
 10
-4.940552925
 20
9.7285120893
 10
-4.9451083965
 20
9.7217269704
 10
-4.9494410792
 20
9.7146782416
 10
-4.9535474218
 20
9.7073706868
 10
-4.9574247233
 20
9.6998090558
 10
-4.9610702831
 20
9.6919980986
 10
-4.9649498105
 20
9.6827729177
 10
-4.968521515
 20
9.6732403704
 10
-4.9717837841
 20
9.6634125372
 10
-4.9747350055
 20
9.6533014985
 10
-4.9773735668
 20
9.6429193344
 10
-4.9796978556
 20
9.6322781255
 10
-4.9817062595
 20
9.621389952
 10
-4.9833973546
 20
9.6102668642
 10
-4.9847704709
 20
9.5989207923
 10
-4.9858251267
 20
9.5873636361
 10
-4.9865608406
 20
9.5756072958
 10
-4.9869771309
 20
9.5636636711
 10
-4.9870735161
 20
9.5515446623
 10
-4.9868495147
 20
9.5392621691
 10
-4.9863048218
 20
9.5268280888
 10
-4.9854398392
 20
9.5142543062
 10
-4.9842551458
 20
9.5015527037
 10
-4.9827513202
 20
9.4887351632
 10
-4.980928941
 20
9.475813567
 10
-4.9787885868
 20
9.4627997972
 10
-4.9763308364
 20
9.4497057358
 10
-4.9739205557
 20
9.4381920338
 10
-4.9712690604
 20
9.4266346653
 10
-4.9683776993
 20
9.4150423397
 10
-4.9652478211
 20
9.4034237665
 10
-4.9618814568
 20
9.3917887205
 10
-4.9582833646
 20
9.3801512384
 10
-4.9544589849
 20
9.3685264224
 10
-4.950413758
 20
9.3569293746
 10
-4.9461526635
 20
9.3453737869
 10
-4.9416788384
 20
9.3338677102
 10
-4.9369949589
 20
9.322417785
 10
-4.932103701
 20
9.3110306518
 10
-4.9270046987
 20
9.2997084619
 10
-4.9216854155
 20
9.2884354088
 10
-4.9161302728
 20
9.2771911969
 10
-4.9103236917
 20
9.2659555305
  0
LWPOLYLINE
  5
256
100
AcDbEntity
  8
0
100
AcDbPolyline
 62
253
  6
CONTINUOUS
 90
55
 70
0
 10
-4.69559825
 20
-9.4002016107
 10
-4.7051838092
 20
-9.3948352997
 10
-4.7146688617
 20
-9.3898602786
 10
-4.724077997
 20
-9.3852574256
 10
-4.7334358044
 20
-9.3810076188
 10
-4.7427668733
 20
-9.3770917362
 10
-4.7520907601
 20
-9.3734949475
 10
-4.7614068886
 20
-9.3702195879
 10
-4.7707096496
 20
-9.3672722842
 10
-4.779993434
 20
-9.3646596633
 10
-4.7892526325
 20
-9.3623883518
 10
-4.7984800608
 20
-9.3604653841
 10
-4.8076622338
 20
-9.358899425
 10
-4.8167840912
 20
-9.3576995468
 10
-4.8258305727
 20
-9.3568748218
 10
-4.8347866182
 20
-9.3564343223
 10
-4.8421675969
 20
-9.3563664913
 10
-4.8494519337
 20
-9.3565722402
 10
-4.8566162481
 20
-9.3570520256
 10
-4.8636432708
 20
-9.3578071769
 10
-4.870540177
 20
-9.3588425154
 10
-4.8773202531
 20
-9.3601637353
 10
-4.8839922928
 20
-9.3617760872
 10
-4.8905471193
 20
-9.3636830467
 10
-4.896971063
 20
-9.3658876461
 10
-4.9032504544
 20
-9.3683929172
 10
-4.9093716239
 20
-9.3712018923
 10
-4.9153209018
 20
-9.3743176032
 10
-4.9210861691
 20
-9.3777406423
 10
-4.9266615079
 20
-9.3814618422
 10
-4.9320425506
 20
-9.3854695959
 10
-4.9372249298
 20
-9.3897522962
 10
-4.9422042779
 20
-9.394298336
 10
-4.9469762275
 20
-9.3990961082
 10
-4.9515390075
 20
-9.4041373826
 10
-4.9559012321
 20
-9.4094274373
 10
-4.960074112
 20
-9.4149749272
 10
-4.9640649063
 20
-9.4207835979
 10
-4.967865068
 20
-9.4268375579
 10
-4.9714620982
 20
-9.4331160066
 10
-4.9754964615
 20
-9.4409201896
 10
-4.9792206723
 20
-9.4489997829
 10
-4.9826350852
 20
-9.457336886
 10
-4.9857400551
 20
-9.4659135987
 10
-4.9885359368
 20
-9.4747120207
 10
-4.9910235419
 20
-9.4837159853
 10
-4.9932055102
 20
-9.4929162596
 10
-4.9950849382
 20
-9.5023053445
 10
-4.9966649226
 20
-9.5118757406
 10
-4.9979485599
 20
-9.5216199487
 10
-4.9989373543
 20
-9.5315369299
 10
-4.9996264399
 20
-9.5416514871
 10
-5.0000093583
 20
-9.5519948837
 10
-5.000079651
 20
-9.5625983829
 10
-4.9998308596
 20
-9.5734932481
  0
LINE
  5
257
100
AcDbEntity
  8
0
100
AcDbLine
 62
253
  6
CONTINUOUS
 10
-1.3021341645
 20
-11.3595452435
 11
-4.69559825
 21
-9.4002016107
  0
LINE
  5
258
100
AcDbEntity
  8
0
100
AcDbLine
 62
253
  6
CONTINUOUS
 10
-4.6198449306
 20
-9.8222181274
 11
-1.3511671211
 21
-11.7098696162
  0
LWPOLYLINE
  5
259
100
AcDbEntity
  8
ASSI
100
AcDbPolyline
 62
7
  6
CONTINUOUS
 90
5
 70
0
 10
-9.9038293769
 20
-13.621371778
 10
-9.8946247871
 20
-13.6755245052
 10
-9.8720825693
 20
-13.7619771233
 10
-9.8412212294
 20
-13.8422889194
 10
-9.8030136947
 20
-13.9155634763
  0
LWPOLYLINE
  5
25A
100
AcDbEntity
  8
ASSI
100
AcDbPolyline
 62
253
  6
CONTINUOUS
 90
26
 70
0
 10
-9.903829383
 20
-13.6213717788
 10
-9.9030043604
 20
-13.6267744186
 10
-9.9012705906
 20
-13.6360077001
 10
-9.8991380321
 20
-13.6451737866
 10
-9.8966084107
 20
-13.6542652597
 10
-9.8936837738
 20
-13.6632747615
 10
-9.8903664884
 20
-13.6721950004
 10
-9.8866592391
 20
-13.681018757
 10
-9.8825650264
 20
-13.6897388899
 10
-9.8780871639
 20
-13.6983483417
 10
-9.8732292755
 20
-13.7068401446
 10
-9.8679952929
 20
-13.715207426
 10
-9.8623894522
 20
-13.7234434138
 10
-9.8564162902
 20
-13.7315414427
 10
-9.8500806413
 20
-13.7394949585
 10
-9.843387633
 20
-13.7472975243
 10
-9.8363426821
 20
-13.7549428253
 10
-9.8289514903
 20
-13.7624246739
 10
-9.8212200396
 20
-13.7697370149
 10
-9.8131545871
 20
-13.7768739302
 10
-9.8047616605
 20
-13.7838296437
 10
-9.7960480524
 20
-13.790598526
 10
-9.7870208149
 20
-13.7971750987
 10
-9.777687254
 20
-13.8035540394
 10
-9.7680549237
 20
-13.8097301854
 10
-9.7581316196
 20
-13.8156985381
  0
LINE
  5
25B
100
AcDbEntity
  8
ASSI
100
AcDbLine
 62
7
  6
CONTINUOUS
 10
-9.903923514
 20
-13.6206910784
 11
-9.903829383
 21
-13.6213717788
  0
LWPOLYLINE
  5
25C
100
AcDbEntity
  8
ASSI
100
AcDbPolyline
 62
253
  6
CONTINUOUS
 90
17
 70
0
 10
-9.7581316197
 20
-13.8156985381
 10
-9.8017315923
 20
-13.4909865624
 10
-9.8439085419
 20
-13.1651456427
 10
-9.8846614472
 20
-12.8381834291
 10
-9.9239892891
 20
-12.5101076181
 10
-9.9618911475
 20
-12.1809258895
 10
-9.9983662014
 20
-11.8506459054
 10
-10.0334135713
 20
-11.5192754132
 10
-10.0670324049
 20
-11.1868221922
 10
-10.0992219734
 20
-10.8532939901
 10
-10.1299815008
 20
-10.518698633
 10
-10.1593102393
 20
-10.1830439687
 10
-10.187207554
 20
-9.846337814
 10
-10.213672773
 20
-9.5085880658
 10
-10.2387052522
 20
-9.1698026448
 10
-10.2623044503
 20
-8.8299894382
 10
-10.2844697996
 20
-8.4891564092
  0
LWPOLYLINE
  5
25D
100
AcDbEntity
  8
ASSI
100
AcDbPolyline
 62
7
  6
CONTINUOUS
 90
5
 70
0
 10
-10.6414647493
 20
3.5719170819
 10
-10.6377809978
 20
3.5222954225
 10
-10.6273730094
 20
3.4757578483
 10
-10.6102269002
 20
3.4304218515
 10
-10.586446011
 20
3.3870595796
  0
LWPOLYLINE
  5
25E
100
AcDbEntity
  8
ASSI
100
AcDbPolyline
 62
7
  6
CONTINUOUS
 90
9
 70
0
 10
-10.4897737231
 20
3.2123977524
 10
-10.5256153717
 20
3.1821205458
 10
-10.5569645191
 20
3.1489713194
 10
-10.5836625832
 20
3.1132181456
 10
-10.6054660273
 20
3.0753031527
 10
-10.6220849415
 20
3.0360407313
 10
-10.6334887589
 20
2.9961961455
 10
-10.6398523164
 20
2.9562861725
 10
-10.6414644504
 20
2.9229962059
  0
LINE
  5
25F
100
AcDbEntity
  8
ASSI
100
AcDbLine
 62
7
  6
CONTINUOUS
 10
-10.4576000845
 20
3.2346118991
 11
-10.4897737231
 21
3.2123977524
  0
LWPOLYLINE
  5
260
100
AcDbEntity
  8
ASSI
100
AcDbPolyline
 62
253
  6
CONTINUOUS
 90
55
 70
0
 10
5.7896585299
 20
12.1662228222
 10
5.7792349558
 20
12.1625025308
 10
5.768543838
 20
12.1589561294
 10
5.7575938291
 20
12.1555864882
 10
5.7463937913
 20
12.1523963342
 10
5.734952789
 20
12.1493882494
 10
5.7232800817
 20
12.1465646683
 10
5.7113851165
 20
12.1439278761
 10
5.6992775204
 20
12.1414800069
 10
5.6869670921
 20
12.1392230416
 10
5.6744637951
 20
12.1371588071
 10
5.6617777484
 20
12.1352889738
 10
5.6489192194
 20
12.1336150552
 10
5.6358986146
 20
12.132138406
 10
5.6227264721
 20
12.1308602211
 10
5.6094134524
 20
12.1297815353
 10
5.59597033
 20
12.1289032213
 10
5.582407985
 20
12.1282259901
 10
5.5687373936
 20
12.1277503898
 10
5.5549696198
 20
12.1274768053
 10
5.5411158063
 20
12.1274054581
 10
5.5271871652
 20
12.1275364057
 10
5.5131949695
 20
12.1278695424
 10
5.4991505434
 20
12.1284045984
 10
5.4850652534
 20
12.1291411407
 10
5.4709504992
 20
12.1300785733
 10
5.4568177041
 20
12.1312161374
 10
5.4426783063
 20
12.1325529124
 10
5.428543749
 20
12.1340878163
 10
5.4144254719
 20
12.135819607
 10
5.4003349011
 20
12.1377468829
 10
5.3862834407
 20
12.1398680841
 10
5.3722824627
 20
12.1421814939
 10
5.3583432986
 20
12.1446852401
 10
5.3444772297
 20
12.1473772962
 10
5.3306954781
 20
12.1502554836
 10
5.3170091979
 20
12.1533174727
 10
5.3034294657
 20
12.1565607855
 10
5.289967272
 20
12.1599827971
 10
5.276633512
 20
12.163580738
 10
5.2634389771
 20
12.1673516962
 10
5.250394346
 20
12.1712926197
 10
5.2375101761
 20
12.1754003192
 10
5.2247968949
 20
12.1796714701
 10
5.2122647916
 20
12.1841026157
 10
5.1999240088
 20
12.1886901697
 10
5.1877845341
 20
12.1934304193
 10
5.1758561924
 20
12.198319528
 10
5.1641486377
 20
12.2033535391
 10
5.1526713451
 20
12.2085283783
 10
5.1414336035
 20
12.2138398575
 10
5.1304445079
 20
12.219283678
 10
5.1197129522
 20
12.224855434
 10
5.1092476216
 20
12.230550616
 10
5.099056986
 20
12.2363646149
  0
LINE
  5
261
100
AcDbEntity
  8
ASSI
100
AcDbLine
 62
253
  6
CONTINUOUS
 10
4.3750619647
 20
-13.2252785306
 11
-10.433530227
 21
-4.6749829944
  0
LWPOLYLINE
  5
262
100
AcDbEntity
  8
0
100
AcDbPolyline
 62
253
  6
CONTINUOUS
 90
51
 70
0
 10
-3.0974812325
 20
-12.6738938378
 10
-3.090338618
 20
-12.6846811089
 10
-3.0830474489
 20
-12.6952708398
 10
-3.0755968149
 20
-12.705686469
 10
-3.0679758058
 20
-12.715951435
 10
-3.0601735116
 20
-12.7260891764
 10
-3.0521801917
 20
-12.7361190878
 10
-3.0439907852
 20
-12.7460443891
 10
-3.0356014011
 20
-12.7558642564
 10
-3.0270081481
 20
-12.7655778658
 10
-3.0182071351
 20
-12.7751843936
 10
-3.0091988712
 20
-12.7846788305
 10
-3.0000014663
 20
-12.7940394268
 10
-2.9906374307
 20
-12.8032402472
 10
-2.9811292744
 20
-12.8122553567
 10
-2.9714995078
 20
-12.8210588202
 10
-2.9617686636
 20
-12.8296274024
 10
-2.9519493649
 20
-12.8379486673
 10
-2.9420522575
 20
-12.8460128786
 10
-2.9320879871
 20
-12.8538103003
 10
-2.9220671996
 20
-12.8613311962
 10
-2.9120012207
 20
-12.8685654058
 10
-2.9019040961
 20
-12.8755010722
 10
-2.8917905515
 20
-12.8821259144
 10
-2.8816753125
 20
-12.8884276511
 10
-2.8715731049
 20
-12.8943940011
 10
-2.861498293
 20
-12.9000142009
 10
-2.8514637961
 20
-12.9052835561
 10
-2.8414821719
 20
-12.9101988898
 10
-2.8315659784
 20
-12.9147570254
 10
-2.8217277734
 20
-12.9189547858
 10
-2.8119800142
 20
-12.9227890705
 10
-2.8023347555
 20
-12.9262570834
 10
-2.7928039514
 20
-12.9293561048
 10
-2.7833995561
 20
-12.9320834149
 10
-2.7741335236
 20
-12.9344362937
 10
-2.7650194763
 20
-12.9364129375
 10
-2.7560777099
 20
-12.9380152066
 10
-2.7473301882
 20
-12.9392458771
 10
-2.7387988752
 20
-12.9401077254
 10
-2.7305057348
 20
-12.9406035277
 10
-2.7224679037
 20
-12.940736866
 10
-2.7146832102
 20
-12.9405145456
 10
-2.7071446555
 20
-12.9399441778
 10
-2.6998452407
 20
-12.9390333737
 10
-2.692777967
 20
-12.9377897445
 10
-2.6859353622
 20
-12.9362179719
 10
-2.6793080603
 20
-12.93431102
 10
-2.672886222
 20
-12.9320589234
 10
-2.6666600079
 20
-12.9294517169
 10
-2.6606195789
 20
-12.926479435
  0
LWPOLYLINE
  5
263
100
AcDbEntity
  8
ASSI
100
AcDbPolyline
 62
253
  6
CONTINUOUS
 90
26
 70
0
 10
-10.6400838097
 20
3.5504022885
 10
-10.638826009
 20
3.5422591604
 10
-10.6371658816
 20
3.5341387806
 10
-10.6351047706
 20
3.5260477406
 10
-10.6326443422
 20
3.5179925358
 10
-10.6297865856
 20
3.5099796986
 10
-10.6265338128
 20
3.5020157359
 10
-10.6228886551
 20
3.4941070516
 10
-10.6188540589
 20
3.4862600551
 10
-10.6144332896
 20
3.4784811183
 10
-10.6096299302
 20
3.4707765118
 10
-10.6044478722
 20
3.4631524864
 10
-10.5988913052
 20
3.4556152206
 10
-10.5929647205
 20
3.4481707773
 10
-10.5866729163
 20
3.4408251919
 10
-10.5800209795
 20
3.4335844171
 10
-10.573014274
 20
3.426454271
 10
-10.5656584397
 20
3.4194405049
 10
-10.5579594484
 20
3.4125488296
 10
-10.5499235905
 20
3.4057848576
 10
-10.541557411
 20
3.3991540915
 10
-10.5328676474
 20
3.3926618703
 10
-10.5238612819
 20
3.3863133979
 10
-10.5145455817
 20
3.380113797
 10
-10.5049280995
 20
3.3740681014
 10
-10.4950166148
 20
3.3681812031
  0
LWPOLYLINE
  5
264
100
AcDbEntity
  8
ASSI
100
AcDbPolyline
 62
253
  6
CONTINUOUS
 90
58
 70
0
 10
5.7728168294
 20
13.3056634983
 10
5.7555741733
 20
13.2947885655
 10
5.7383635981
 20
13.2834616105
 10
5.7211948592
 20
13.2716892705
 10
5.7040775513
 20
13.2594785562
 10
5.6870215131
 20
13.2468364978
 10
5.6700368224
 20
13.2337701335
 10
5.6531330505
 20
13.2202870524
 10
5.6363198362
 20
13.2063951664
 10
5.6196072899
 20
13.1921023562
 10
5.6030049244
 20
13.1774169923
 10
5.5865221081
 20
13.1623476174
 10
5.5701686396
 20
13.1469027122
 10
5.5539537759
 20
13.1310912631
 10
5.5378867193
 20
13.1149224995
 10
5.5219770692
 20
13.0984055809
 10
5.5062338483
 20
13.0815501246
 10
5.4906659724
 20
13.0643659463
 10
5.4752827379
 20
13.0468627963
 10
5.4600928677
 20
13.0290508567
 10
5.4451049636
 20
13.0109404933
 10
5.4303279754
 20
12.9925419978
 10
5.4157702911
 20
12.9738660769
 10
5.401440143
 20
12.9549235798
 10
5.3873460604
 20
12.9357252504
 10
5.3734960263
 20
12.9162822248
 10
5.3598978909
 20
12.8966058147
 10
5.3465597768
 20
12.8767072369
 10
5.3334892552
 20
12.8565980524
 10
5.3206937144
 20
12.8362899278
 10
5.3081807743
 20
12.8157944182
 10
5.2959575257
 20
12.7951234004
 10
5.2840308901
 20
12.7742888813
 10
5.2724079873
 20
12.7533027601
 10
5.2610954178
 20
12.7321772176
 10
5.2500995695
 20
12.7109244909
 10
5.2394269807
 20
12.6895566814
 10
5.2290836999
 20
12.668086154
 10
5.2190755817
 20
12.6465253668
 10
5.2094085944
 20
12.6248866468
 10
5.2000882234
 20
12.603182523
 10
5.1911197351
 20
12.5814255674
 10
5.1825084738
 20
12.5596282249
 10
5.1742593257
 20
12.5378031071
 10
5.1663769503
 20
12.515962851
 10
5.1588660438
 20
12.4941199591
 10
5.1517308757
 20
12.4722870807
 10
5.1449754662
 20
12.4504768318
 10
5.1386038217
 20
12.4287016531
 10
5.1326195496
 20
12.4069740838
 10
5.1270260423
 20
12.3853067369
 10
5.1218266536
 20
12.3637121189
 10
5.117024352
 20
12.3422027723
 10
5.1126218218
 20
12.3207910597
 10
5.1086216556
 20
12.2994891407
 10
5.1050261571
 20
12.2783092507
 10
5.1018373311
 20
12.2572636913
 10
5.0990569859
 20
12.2363646148
  0
LINE
  5
265
100
AcDbEntity
  8
ASSI
100
AcDbLine
 62
7
  6
CONTINUOUS
 10
-10.457600092
 20
3.234611911
 11
-10.4388993596
 21
3.2463862291
  0
LWPOLYLINE
  5
266
100
AcDbEntity
  8
ASSI
100
AcDbPolyline
 62
253
  6
CONTINUOUS
 90
8
 70
0
 10
-10.4575049565
 20
3.2346718948
 10
-10.4568787272
 20
3.2350625046
 10
-10.4524042742
 20
3.2376483881
 10
-10.4477738114
 20
3.2399729936
 10
-10.4429929781
 20
3.2420334899
 10
-10.4380675968
 20
3.2438273677
 10
-10.4330036658
 20
3.2453524423
 10
-10.4301722696
 20
3.2460359544
  0
LWPOLYLINE
  5
267
100
AcDbEntity
  8
ASSI
100
AcDbPolyline
 62
253
  6
CONTINUOUS
 90
58
 70
0
 10
6.1323195642
 20
12.697534322
 10
6.1235440029
 20
12.692177911
 10
6.1147941295
 20
12.6866017605
 10
6.106069944
 20
12.6808058706
 10
6.0973662866
 20
12.6747865506
 10
6.0886883171
 20
12.6685474911
 10
6.0800515149
 20
12.6620997644
 10
6.0714560982
 20
12.6554430951
 10
6.0629018487
 20
12.6485777586
 10
6.0544035913
 20
12.6415156535
 10
6.045961441
 20
12.6342564525
 10
6.0375752827
 20
12.6268004827
 10
6.0292595957
 20
12.6191606248
 10
6.0210144942
 20
12.6113365541
 10
6.0128398641
 20
12.6033285951
 10
6.0047498419
 20
12.5951506014
 10
5.9967445749
 20
12.5868022789
 10
5.9888239158
 20
12.5782839216
 10
5.9810015594
 20
12.5696102654
 10
5.973277676
 20
12.5607810417
 10
5.9656520953
 20
12.5517965191
 10
5.9581380003
 20
12.5426722402
 10
5.9507355886
 20
12.5334079694
 10
5.9434446626
 20
12.5240039422
 10
5.9362778123
 20
12.514476408
 10
5.9292352474
 20
12.5048251465
 10
5.9223167582
 20
12.4950503779
 10
5.9155343056
 20
12.4851690122
 10
5.908888129
 20
12.4751808709
 10
5.9023779889
 20
12.4650861323
 10
5.8960151277
 20
12.4549022415
 10
5.889799797
 20
12.4446290392
 10
5.8837317451
 20
12.4342666846
 10
5.8778214591
 20
12.4238331004
 10
5.8720692164
 20
12.4133281718
 10
5.8664747395
 20
12.4027520136
 10
5.8610476836
 20
12.3921228931
 10
5.8557883352
 20
12.3814407133
 10
5.8506964078
 20
12.3707055712
 10
5.845780697
 20
12.3599360249
 10
5.8410415082
 20
12.3491320163
 10
5.8364785361
 20
12.3382936034
 10
5.8320996597
 20
12.3274395184
 10
5.8279051976
 20
12.3165697348
 10
5.8238948311
 20
12.3056842791
 10
5.8200754835
 20
12.2948019629
 10
5.8164474871
 20
12.2839228014
 10
5.8130105096
 20
12.2730467794
 10
5.8097704765
 20
12.2621926627
 10
5.8067277231
 20
12.2513604671
 10
5.8038819142
 20
12.2405501767
 10
5.8012379704
 20
12.2297805107
 10
5.7987962277
 20
12.2190514212
 10
5.7965563501
 20
12.2083629559
 10
5.7945222503
 20
12.1977339772
 10
5.7926952325
 20
12.1871707723
 10
5.7910739923
 20
12.176667054
 10
5.7896585299
 20
12.1662228222
  0
LINE
  5
268
100
AcDbEntity
  8
ASSI
100
AcDbLine
 62
253
  6
CONTINUOUS
 10
7.8854229651
 20
14.566665417
 11
5.7728168294
 21
13.3056634983
  0
LINE
  5
269
100
AcDbEntity
  8
ASSI
100
AcDbLine
 62
253
  6
CONTINUOUS
 10
8.2703971235
 20
13.9737399805
 11
6.1323195642
 21
12.697534322
  0
LINE
  5
26A
100
AcDbEntity
  8
ASSI
100
AcDbLine
 62
253
  6
CONTINUOUS
 10
-5.3259121294
 20
21.6764297525
 11
-5.3259121294
 21
21.613523414
  0
LWPOLYLINE
  5
26B
100
AcDbEntity
  8
ASSI
100
AcDbPolyline
 62
253
  6
CONTINUOUS
 90
13
 70
0
 10
4.8616124534
 20
-5.2415059148
 10
4.8745774874
 20
-5.2381840586
 10
4.88737111
 20
-5.2346512433
 10
4.8999830032
 20
-5.2309102475
 10
4.9124030072
 20
-5.2269641188
 10
4.9246210284
 20
-5.2228160949
 10
4.9366270846
 20
-5.2184694931
 10
4.9484114131
 20
-5.2139278904
 10
4.9599645416
 20
-5.2091949812
 10
4.971277194
 20
-5.2042744963
 10
4.9823402406
 20
-5.1991704066
 10
4.9931447102
 20
-5.1938869235
 10
5.003681863
 20
-5.1884283581
  0
LWPOLYLINE
  5
26C
100
AcDbEntity
  8
ASSI
100
AcDbPolyline
 62
7
  6
CONTINUOUS
 90
5
 70
0
 10
-10.586446011
 20
3.3870595796
 10
-10.5563798912
 20
3.3465548496
 10
-10.520382787
 20
3.3094827616
 10
-10.4786843647
 20
3.2761904564
 10
-10.4435382638
 20
3.25375411
  0
LWPOLYLINE
  5
26D
100
AcDbEntity
  8
0
100
AcDbPolyline
 62
253
  6
CONTINUOUS
 90
39
 70
0
 10
-1.0673574787
 20
-11.606636342
 10
-1.0714142021
 20
-11.5992986165
 10
-1.0756065548
 20
-11.5920128923
 10
-1.0799312476
 20
-11.5847755618
 10
-1.0843849909
 20
-11.5775830174
 10
-1.0889644955
 20
-11.5704316515
 10
-1.0936664719
 20
-11.5633178565
 10
-1.098487631
 20
-11.5562380247
 10
-1.1034246832
 20
-11.5491885485
 10
-1.1084743393
 20
-11.5421658203
 10
-1.1136333099
 20
-11.5351662326
 10
-1.1194897638
 20
-11.5274137853
 10
-1.125472942
 20
-11.5196932262
 10
-1.1315786733
 20
-11.512012329
 10
-1.1378027867
 20
-11.5043788673
 10
-1.1441411112
 20
-11.4968006148
 10
-1.1505894757
 20
-11.4892853451
 10
-1.1571437092
 20
-11.4818408319
 10
-1.1637996407
 20
-11.4744748489
 10
-1.1705530991
 20
-11.4671951697
 10
-1.1773993863
 20
-11.4600096469
 10
-1.1843316952
 20
-11.452926448
 10
-1.191342692
 20
-11.4459538198
 10
-1.1984250425
 20
-11.4391000086
 10
-1.2055714127
 20
-11.4323732611
 10
-1.2127744685
 20
-11.4257818238
 10
-1.220026876
 20
-11.4193339432
 10
-1.2273213009
 20
-11.4130378658
 10
-1.2346504094
 20
-11.4069018383
 10
-1.241271371
 20
-11.4015223765
 10
-1.2479161659
 20
-11.396281075
 10
-1.2545864745
 20
-11.3911797737
 10
-1.2612839771
 20
-11.3862203128
 10
-1.268010354
 20
-11.3814045325
 10
-1.2747672856
 20
-11.3767342729
 10
-1.2815564521
 20
-11.372211374
 10
-1.2883795339
 20
-11.3678376761
 10
-1.2952382113
 20
-11.3636150192
 10
-1.3021341645
 20
-11.3595452435
  0
LINE
  5
26E
100
AcDbEntity
  8
ASSI
100
AcDbLine
 62
7
  6
CONTINUOUS
 10
-5.14566088
 20
22.0906499113
 11
-5.1244555907
 21
21.4741774139
  0
LWPOLYLINE
  5
26F
100
AcDbEntity
  8
0
100
AcDbPolyline
 62
253
  6
CONTINUOUS
 90
39
 70
0
 10
-4.9998308596
 20
-9.5734932481
 10
-4.9998358732
 20
-9.5803651461
 10
-4.999680207
 20
-9.5873100067
 10
-4.9993678394
 20
-9.5943261904
 10
-4.9989027489
 20
-9.6014120574
 10
-4.9982889139
 20
-9.6085659681
 10
-4.9975303129
 20
-9.6157862831
 10
-4.9966309243
 20
-9.6230713625
 10
-4.9954085515
 20
-9.6316496432
 10
-4.9940035608
 20
-9.6403073615
 10
-4.9924195468
 20
-9.6490380348
 10
-4.9906601041
 20
-9.6578351807
 10
-4.9887288272
 20
-9.6666923166
 10
-4.9866293108
 20
-9.67560296
 10
-4.9843649458
 20
-9.6845608551
 10
-4.9819383089
 20
-9.6935606519
 10
-4.9793517732
 20
-9.7025972273
 10
-4.9766077119
 20
-9.7116654581
 10
-4.973708498
 20
-9.720760221
 10
-4.9706565047
 20
-9.7298763927
 10
-4.9674538119
 20
-9.7390089906
 10
-4.9641013272
 20
-9.7481535937
 10
-4.9605996651
 20
-9.7573059215
 10
-4.95694944
 20
-9.7664616935
 10
-4.9531512662
 20
-9.7756166294
 10
-4.9492057584
 20
-9.7847664487
 10
-4.9451135128
 20
-9.7939065005
 10
-4.9408750535
 20
-9.8030306526
 10
-4.9364908865
 20
-9.8121324022
 10
-4.9319615178
 20
-9.8212052467
 10
-4.9272874534
 20
-9.8302426835
 10
-4.9224691993
 20
-9.8392382098
 10
-4.9182242775
 20
-9.8469108688
 10
-4.9138704507
 20
-9.8545468297
 10
-4.9094043771
 20
-9.8621449632
 10
-4.9048227154
 20
-9.8697041401
 10
-4.9001221238
 20
-9.8772232309
 10
-4.8952992609
 20
-9.8847011066
 10
-4.890350785
 20
-9.8921366376
  0
LINE
  5
270
100
AcDbEntity
  8
ASSI
100
AcDbLine
 62
7
  6
CONTINUOUS
 10
2.7739350693
 20
17.517974466
 11
2.5936838199
 21
17.1037543072
  0
LWPOLYLINE
  5
271
100
AcDbEntity
  8
ASSI
100
AcDbPolyline
 62
7
  6
CONTINUOUS
 90
13
 70
0
 10
4.3608548124
 20
-5.2941176749
 10
4.4023757009
 20
-5.3155798593
 10
4.4502284599
 20
-5.3349308505
 10
4.4997582918
 20
-5.3499446986
 10
4.550906038
 20
-5.360849801
 10
4.6033008023
 20
-5.3676747928
 10
4.6560352559
 20
-5.370389452
 10
4.7088433709
 20
-5.3690352076
 10
4.7614584277
 20
-5.3635674188
 10
4.8129624256
 20
-5.3539985106
 10
4.8629771525
 20
-5.3402978874
 10
4.9114526059
 20
-5.3222420043
 10
4.9501047345
 20
-5.303832857
  0
LWPOLYLINE
  5
272
100
AcDbEntity
  8
ASSI
100
AcDbPolyline
 62
253
  6
CONTINUOUS
 90
43
 70
0
 10
4.3091278147
 20
-5.179546251
 10
4.3193252131
 20
-5.1852699697
 10
4.3298003532
 20
-5.1908255025
 10
4.3405447618
 20
-5.1962083569
 10
4.3515497266
 20
-5.2014141759
 10
4.3628063661
 20
-5.2064387578
 10
4.3743056417
 20
-5.2112780565
 10
4.3860383096
 20
-5.2159281836
 10
4.3979948313
 20
-5.2203853552
 10
4.4101654424
 20
-5.2246459139
 10
4.4225402535
 20
-5.2287064126
 10
4.4351092948
 20
-5.2325635896
 10
4.4478624292
 20
-5.2362143131
 10
4.4607893478
 20
-5.2396556463
 10
4.4738795872
 20
-5.2428848128
 10
4.4871225698
 20
-5.245899175
 10
4.500507594
 20
-5.2486963132
 10
4.5140238228
 20
-5.2512739743
 10
4.5276603027
 20
-5.2536300357
 10
4.5414059964
 20
-5.2557626109
 10
4.5552497908
 20
-5.2576699919
 10
4.5691804865
 20
-5.2593505967
 10
4.5831868111
 20
-5.2608030887
 10
4.5972574379
 20
-5.2620263119
 10
4.6113809947
 20
-5.2630192335
 10
4.625546061
 20
-5.2637810755
 10
4.639741174
 20
-5.2643112422
 10
4.6539548478
 20
-5.2646092551
 10
4.6681755845
 20
-5.2646749006
 10
4.6823918805
 20
-5.2645081492
 10
4.6965922325
 20
-5.2641090819
 10
4.710765149
 20
-5.2634780515
 10
4.7248991696
 20
-5.2626155944
 10
4.7389828704
 20
-5.2615223495
 10
4.7530048619
 20
-5.2601992317
 10
4.7669537977
 20
-5.2586473396
 10
4.7808183926
 20
-5.2568678663
 10
4.7945874376
 20
-5.254862283
 10
4.8082497875
 20
-5.2526322427
 10
4.8217943694
 20
-5.2501794879
 10
4.8352102168
 20
-5.2475060401
 10
4.848486488
 20
-5.2446140925
 10
4.8616124534
 20
-5.2415059148
  0
LINE
  5
273
100
AcDbEntity
  8
ASSI
100
AcDbLine
 62
253
  6
CONTINUOUS
 10
4.3091278144
 20
-5.8290784902
 11
-10.4950166151
 21
2.7186489638
  0
LINE
  5
274
100
AcDbEntity
  8
ASSI
100
AcDbLine
 62
253
  6
CONTINUOUS
 10
4.4843631001
 20
-5.5236291468
 11
-10.319783918
 21
3.0240998019
  0
LINE
  5
275
100
AcDbEntity
  8
ASSI
100
AcDbLine
 62
7
  6
CONTINUOUS
 10
-10.4432473101
 20
3.2535853189
 11
4.360899708
 21
-5.2941436298
  0
LINE
  5
276
100
AcDbEntity
  8
ASSI
100
AcDbLine
 62
253
  6
CONTINUOUS
 10
-10.4950166151
 20
3.3681812024
 11
4.3091278144
 21
-5.1795462517
  0
LWPOLYLINE
  5
277
100
AcDbEntity
  8
ASSI
100
AcDbPolyline
 62
253
  6
CONTINUOUS
 90
29
 70
0
 10
-10.4950166148
 20
2.7186489636
 10
-10.5049280995
 20
2.7245377653
 10
-10.5145455817
 20
2.730588499
 10
-10.5238612819
 20
2.7367962717
 10
-10.5328676474
 20
2.7431560569
 10
-10.541557411
 20
2.7496627208
 10
-10.5499235905
 20
2.7563110299
 10
-10.5579594484
 20
2.7630956488
 10
-10.5656584397
 20
2.7700110651
 10
-10.573014274
 20
2.7770516156
 10
-10.5800209795
 20
2.7842115912
 10
-10.5866729163
 20
2.7914852301
 10
-10.5929647205
 20
2.7988666447
 10
-10.5988913052
 20
2.8063498829
 10
-10.6044478722
 20
2.8139288975
 10
-10.6096299302
 20
2.8215975365
 10
-10.6144332896
 20
2.8293496204
 10
-10.6188540589
 20
2.8371788858
 10
-10.6228886551
 20
2.8450789546
 10
-10.6265338128
 20
2.8530434526
 10
-10.6297865856
 20
2.8610659567
 10
-10.6326443422
 20
2.8691399378
 10
-10.6351047706
 20
2.8772588855
 10
-10.6371658816
 20
2.8854162527
 10
-10.638826009
 20
2.8936054022
 10
-10.6400838097
 20
2.9018197376
 10
-10.640938265
 20
2.9100526328
 10
-10.6413886831
 20
2.9182973771
 10
-10.6414644773
 20
2.9229975662
  0
LWPOLYLINE
  5
278
100
AcDbEntity
  8
ASSI
100
AcDbPolyline
 62
253
  6
CONTINUOUS
 90
48
 70
0
 10
-10.319783918
 20
3.0240998019
 10
-10.3247451212
 20
3.0270481115
 10
-10.3295519759
 20
3.0300731792
 10
-10.334204482
 20
3.0331750052
 10
-10.338706223
 20
3.0363562617
 10
-10.3430536155
 20
3.0396142763
 10
-10.3472359094
 20
3.042941032
 10
-10.351252641
 20
3.0463366603
 10
-10.355104274
 20
3.0498010295
 10
-10.3587814494
 20
3.0533257277
 10
-10.3622837335
 20
3.0569108938
 10
-10.36561156
 20
3.0605563889
 10
-10.3687568713
 20
3.0642533842
 10
-10.371719227
 20
3.0680020052
 10
-10.3744990674
 20
3.0718021264
 10
-10.3770896561
 20
3.0756445422
 10
-10.3794905357
 20
3.0795293586
 10
-10.3817021635
 20
3.0834564697
 10
-10.3837191749
 20
3.0874163523
 10
-10.3855410962
 20
3.0914090841
 10
-10.387168401
 20
3.0954345874
 10
-10.3885971451
 20
3.0994831059
 10
-10.3898268469
 20
3.1035546945
 10
-10.3908579881
 20
3.1076492985
 10
-10.3916880695
 20
3.1117569968
 10
-10.3923166039
 20
3.1158778232
 10
-10.3927440785
 20
3.120011744
 10
-10.3929694563
 20
3.1241487379
 10
-10.3929922468
 20
3.1282888118
 10
-10.3928129404
 20
3.1324319587
 10
-10.3924319721
 20
3.1365681361
 10
-10.3918488529
 20
3.1406973254
 10
-10.3910640716
 20
3.1448195452
 10
-10.3900795296
 20
3.1489248076
 10
-10.3888947423
 20
3.1530130726
 10
-10.3875101941
 20
3.1570843802
 10
-10.3859292402
 20
3.1611288629
 10
-10.3841514027
 20
3.1651464575
 10
-10.3821771593
 20
3.1691372273
 10
-10.3800112986
 20
3.1730914941
 10
-10.3776533572
 20
3.1770091661
 10
-10.3751037985
 20
3.1808903351
 10
-10.3723688007
 20
3.1847255987
 10
-10.3694479165
 20
3.1885148447
 10
-10.3663415933
 20
3.1922581853
 10
-10.3630573519
 20
3.1959465543
 10
-10.3595947505
 20
3.199579826
 10
-10.3559542309
 20
3.203158126
  0
LWPOLYLINE
  5
279
100
AcDbEntity
  8
0
100
AcDbPolyline
 62
253
  6
CONTINUOUS
 90
39
 70
0
 10
-0.9597787797
 20
7.2432467121
 10
-0.9592278555
 20
7.2504338121
 10
-0.9588379136
 20
7.2576937
 10
-0.9586049316
 20
7.2650247616
 10
-0.958524887
 20
7.2724253829
 10
-0.958593757
 20
7.2798939495
 10
-0.9588075193
 20
7.2874288475
 10
-0.9591621511
 20
7.2950284627
 10
-0.9597490939
 20
7.3039736328
 10
-0.9605190845
 20
7.3129979921
 10
-0.9614689068
 20
7.3220948398
 10
-0.9625953444
 20
7.3312574748
 10
-0.9638951812
 20
7.3404791963
 10
-0.965365201
 20
7.3497533033
 10
-0.9670023857
 20
7.3590733243
 10
-0.9688045103
 20
7.3684337068
 10
-0.9707695476
 20
7.3778291276
 10
-0.9728954708
 20
7.3872542635
 10
-0.975180253
 20
7.3967037916
 10
-0.9776218672
 20
7.4061723886
 10
-0.9802185843
 20
7.4156548692
 10
-0.9829698671
 20
7.4251465987
 10
-0.9858754764
 20
7.4346430799
 10
-0.9889351728
 20
7.4441398159
 10
-0.9921487169
 20
7.4536323096
 10
-0.9955158696
 20
7.4631160639
 10
-0.9990364447
 20
7.4725861911
 10
-1.0027104696
 20
7.4820362405
 10
-1.0065380247
 20
7.4914593709
 10
-1.0105191906
 20
7.5008487409
 10
-1.0146540478
 20
7.5101975091
 10
-1.0189426768
 20
7.5194988343
 10
-1.0227416948
 20
7.5274289526
 10
-1.0266573947
 20
7.5353178824
 10
-1.0306934241
 20
7.5431643181
 10
-1.0348534304
 20
7.5509669535
 10
-1.0391410612
 20
7.5587244827
 10
-1.043559964
 20
7.5664355998
 10
-1.0481137864
 20
7.5740989989
  0
LWPOLYLINE
  5
27A
100
AcDbEntity
  8
0
100
AcDbPolyline
 62
253
  6
CONTINUOUS
 90
39
 70
0
 10
-4.9103236917
 20
9.2659555305
 10
-4.9066309722
 20
9.2584076337
 10
-4.9027925081
 20
9.2509175786
 10
-4.8988120231
 20
9.2434815069
 10
-4.894693241
 20
9.2360955601
 10
-4.8904398852
 20
9.22875588
 10
-4.8860556796
 20
9.221458608
 10
-4.8815443478
 20
9.2141998859
 10
-4.8769096133
 20
9.2069758552
 10
-4.8721551999
 20
9.1997826576
 10
-4.8672848313
 20
9.1926164347
 10
-4.8617416289
 20
9.1846831199
 10
-4.8560636942
 20
9.1767863171
 10
-4.8502548524
 20
9.1689339996
 10
-4.8443189289
 20
9.1611341407
 10
-4.8382597487
 20
9.1533947137
 10
-4.8320811373
 20
9.145723692
 10
-4.8257869198
 20
9.1381290488
 10
-4.8193809214
 20
9.1306187575
 10
-4.8128669675
 20
9.1232007915
 10
-4.806249427
 20
9.1158831932
 10
-4.799534844
 20
9.1086742821
 10
-4.7927303063
 20
9.101582447
 10
-4.7858429017
 20
9.0946160764
 10
-4.7788797182
 20
9.0877835592
 10
-4.7718478435
 20
9.0810932841
 10
-4.7647543655
 20
9.0745536396
 10
-4.757606372
 20
9.0681730145
 10
-4.7504109509
 20
9.0619597976
 10
-4.7438992071
 20
9.0565172749
 10
-4.737352922
 20
9.051219095
 10
-4.7307702295
 20
9.0460672053
 10
-4.7241492636
 20
9.0410635531
 10
-4.717488158
 20
9.0362100859
 10
-4.7107850469
 20
9.031508751
 10
-4.7040380641
 20
9.0269614958
 10
-4.6972453435
 20
9.0225702677
 10
-4.690405019
 20
9.0183370141
 10
-4.6835152247
 20
9.0142636823
  0
LWPOLYLINE
  5
27B
100
AcDbEntity
  8
ASSI
100
AcDbPolyline
 62
253
  6
CONTINUOUS
 90
55
 70
0
 10
5.0695507131
 20
2.2728634768
 10
5.0590153031
 20
2.2675713494
 10
5.0482125735
 20
2.2624542966
 10
5.037151263
 20
2.2575164576
 10
5.0258403193
 20
2.2527618269
 10
5.014288892
 20
2.2481942504
 10
5.0025063253
 20
2.243817423
 10
4.9905021505
 20
2.2396348853
 10
4.978286078
 20
2.2356500205
 10
4.9658679896
 20
2.2318660522
 10
4.9532579306
 20
2.2282860413
 10
4.9404661016
 20
2.2249128836
 10
4.9275028502
 20
2.2217493079
 10
4.9143786626
 20
2.2187978732
 10
4.9011041552
 20
2.2160609671
 10
4.8876900662
 20
2.2135408033
 10
4.8741472465
 20
2.2112394207
 10
4.8604866511
 20
2.2091586807
 10
4.8467193305
 20
2.2073002666
 10
4.8328564213
 20
2.2056656817
 10
4.8189091376
 20
2.2042562482
 10
4.8048887615
 20
2.2030731063
 10
4.7908066346
 20
2.202117213
 10
4.7766741481
 20
2.2013893416
 10
4.7625027341
 20
2.2008900808
 10
4.7483038563
 20
2.2006198345
 10
4.7340890004
 20
2.2005788214
 10
4.7198696651
 20
2.2007670745
 10
4.7056573527
 20
2.2011844417
 10
4.69146356
 20
2.2018305853
 10
4.6772997685
 20
2.2027049826
 10
4.6631774358
 20
2.2038069263
 10
4.6491079856
 20
2.2051355251
 10
4.6351027991
 20
2.2066897041
 10
4.6211732054
 20
2.2084682062
 10
4.6073304724
 20
2.2104695927
 10
4.5935857978
 20
2.2126922447
 10
4.5799503
 20
2.2151343641
 10
4.5664350091
 20
2.2177939755
 10
4.5530508578
 20
2.2206689275
 10
4.539808673
 20
2.2237568945
 10
4.5267191665
 20
2.2270553785
 10
4.5137929268
 20
2.2305617114
 10
4.50104041
 20
2.2342730567
 10
4.4884719321
 20
2.2381864123
 10
4.47609766
 20
2.2422986126
 10
4.4639276035
 20
2.2466063311
 10
4.4519716071
 20
2.2511060832
 10
4.4402393425
 20
2.255794229
 10
4.4287403
 20
2.2606669762
 10
4.4174837816
 20
2.2657203829
 10
4.4064788928
 20
2.2709503616
 10
4.3957345358
 20
2.2763526814
 10
4.3852594019
 20
2.2819229723
 10
4.3750619647
 20
2.2876567285
  0
LINE
  5
27C
100
AcDbEntity
  8
ASSI
100
AcDbLine
 62
7
  6
CONTINUOUS
 10
8.6448624063
 20
-3.4351570428
 11
8.5682937607
 21
-3.3909472665
  0
LINE
  5
27D
100
AcDbEntity
  8
ASSI
100
AcDbLine
 62
253
  6
CONTINUOUS
 10
2.5936838199
 20
17.1037543072
 11
2.5936838199
 21
17.0408479687
  0
LWPOLYLINE
  5
27E
100
AcDbEntity
  8
0
100
AcDbPolyline
 62
253
  6
CONTINUOUS
 90
51
 70
0
 10
-2.6473862261
 20
10.4676367457
 10
-2.6536210811
 20
10.4789481457
 10
-2.6600418535
 20
10.4900404327
 10
-2.6666572487
 20
10.5009383184
 10
-2.6734759721
 20
10.5116665141
 10
-2.680506729
 20
10.5222497314
 10
-2.6877575085
 20
10.5327083764
 10
-2.6952334339
 20
10.5430456326
 10
-2.7029389126
 20
10.5532603784
 10
-2.7108783516
 20
10.5633514919
 10
-2.7190561579
 20
10.5733178514
 10
-2.7274725655
 20
10.5831540188
 10
-2.7361111146
 20
10.5928372913
 10
-2.7449511724
 20
10.60234065
 10
-2.7539721059
 20
10.6116370758
 10
-2.7631532822
 20
10.6206995497
 10
-2.7724758268
 20
10.629503879
 10
-2.7819278986
 20
10.638037176
 10
-2.7914994152
 20
10.6462893795
 10
-2.801180294
 20
10.6542504279
 10
-2.8109604525
 20
10.6619102598
 10
-2.8208291255
 20
10.6692583915
 10
-2.8307728167
 20
10.6762826484
 10
-2.8407773475
 20
10.6829704338
 10
-2.8508285389
 20
10.6893091507
 10
-2.8609122123
 20
10.6952862022
 10
-2.8710143606
 20
10.7008906183
 10
-2.8811216646
 20
10.7061179356
 10
-2.8912209768
 20
10.7109653178
 10
-2.9012991497
 20
10.7154299285
 10
-2.9113430358
 20
10.7195089312
 10
-2.9213395789
 20
10.7231995712
 10
-2.9312760872
 20
10.7264994203
 10
-2.9411399599
 20
10.729406132
 10
-2.9509185964
 20
10.7319173598
 10
-2.9605993961
 20
10.7340307573
 10
-2.9701678273
 20
10.7357450455
 10
-2.9796016354
 20
10.7370632159
 10
-2.9888766345
 20
10.7379893276
 10
-2.9979686389
 20
10.7385274397
 10
-3.006853463
 20
10.7386816112
 10
-3.0155120226
 20
10.7384565486
 10
-3.0239456396
 20
10.737859548
 10
-3.0321607372
 20
10.7368985528
 10
-3.040163739
 20
10.7355815064
 10
-3.0479610682
 20
10.7339163523
 10
-3.0555600536
 20
10.731907855
 10
-3.0629716455
 20
10.7295480639
 10
-3.0702076996
 20
10.7268258493
 10
-3.0772800716
 20
10.7237300817
 10
-3.0842006172
 20
10.7202496316
  0
LWPOLYLINE
  5
27F
100
AcDbEntity
  8
ASSI
100
AcDbPolyline
 62
253
  6
CONTINUOUS
 90
58
 70
0
 10
5.7896585299
 20
-22.3424736566
 10
5.7910739923
 20
-22.3513936547
 10
5.7926952325
 20
-22.3601515486
 10
5.7945222503
 20
-22.3687473383
 10
5.7965563501
 20
-22.3771859067
 10
5.7987962277
 20
-22.3854623709
 10
5.8012379704
 20
-22.393562082
 10
5.8038819142
 20
-22.4014846302
 10
5.8067277231
 20
-22.4092304253
 10
5.8097704765
 20
-22.416786047
 10
5.8130105096
 20
-22.4241511502
 10
5.8164474871
 20
-22.4313260799
 10
5.8200754835
 20
-22.4382984515
 10
5.8238948311
 20
-22.4450679221
 10
5.8279051976
 20
-22.4516348346
 10
5.8320996597
 20
-22.4579878324
 10
5.8364785361
 20
-22.464126546
 10
5.8410415082
 20
-22.4700513449
 10
5.845780697
 20
-22.4757519816
 10
5.8506964078
 20
-22.4812280691
 10
5.8557883352
 20
-22.4864799943
 10
5.8610476836
 20
-22.4914986708
 10
5.8664747395
 20
-22.4962836931
 10
5.8720692164
 20
-22.5008354666
 10
5.8778214591
 20
-22.5051461211
 10
5.8837317451
 20
-22.5092152431
 10
5.889799797
 20
-22.5130432461
 10
5.8960151277
 20
-22.5166235003
 10
5.9023779889
 20
-22.5199555755
 10
5.908888129
 20
-22.523039902
 10
5.9155343056
 20
-22.525871141
 10
5.9223167582
 20
-22.5284488562
 10
5.9292352474
 20
-22.5307734839
 10
5.9362778123
 20
-22.5328409943
 10
5.9434446626
 20
-22.5346509413
 10
5.9507355886
 20
-22.5362037709
 10
5.9581380003
 20
-22.5374967914
 10
5.9656520953
 20
-22.5385295542
 10
5.973277676
 20
-22.539302508
 10
5.9810015594
 20
-22.5398143063
 10
5.9888239158
 20
-22.5400644966
 10
5.9967445749
 20
-22.5400535314
 10
6.0047498419
 20
-22.5397814219
 10
6.0128398641
 20
-22.5392477152
 10
6.0210144942
 20
-22.5384528642
 10
6.0292595957
 20
-22.5373982382
 10
6.0375752827
 20
-22.5360833898
 10
6.045961441
 20
-22.5345087665
 10
6.0544035913
 20
-22.5326770798
 10
6.0629018487
 20
-22.5305878785
 10
6.0714560982
 20
-22.5282416138
 10
6.0800515149
 20
-22.5256423511
 10
6.0886883171
 20
-22.5227895801
 10
6.0973662866
 20
-22.5196838112
 10
6.106069944
 20
-22.5163306409
 10
6.1147941295
 20
-22.5127319349
 10
6.1235440029
 20
-22.5088858274
 10
6.1323195642
 20
-22.5047923187
  0
LWPOLYLINE
  5
280
100
AcDbEntity
  8
ASSI
100
AcDbPolyline
 62
253
  6
CONTINUOUS
 90
28
 70
0
 10
5.0990569859
 20
-22.3940530347
 10
5.1018373311
 20
-22.4118517717
 10
5.1050261571
 20
-22.4293413171
 10
5.1086216556
 20
-22.4465116067
 10
5.1126218218
 20
-22.4633527526
 10
5.117024352
 20
-22.479855081
 10
5.1218266536
 20
-22.4960091309
 10
5.1270260423
 20
-22.5118056704
 10
5.1326195496
 20
-22.5272355539
 10
5.1386038217
 20
-22.5422897602
 10
5.1449754662
 20
-22.5569596179
 10
5.1517308757
 20
-22.5712367295
 10
5.1588660438
 20
-22.585112821
 10
5.1663769503
 20
-22.598579946
 10
5.1742593257
 20
-22.6116303585
 10
5.1825084738
 20
-22.6242564385
 10
5.1911197351
 20
-22.6364509542
 10
5.2000882234
 20
-22.6482069119
 10
5.2094085944
 20
-22.6595174248
 10
5.2190755817
 20
-22.6703760261
 10
5.2290836999
 20
-22.6807764974
 10
5.2394269807
 20
-22.6907127181
 10
5.2500995695
 20
-22.7001790131
 10
5.2610954178
 20
-22.70916998
 10
5.2724079873
 20
-22.7176803153
 10
5.2840308901
 20
-22.7257051802
 10
5.2959575257
 20
-22.7332399942
 10
5.3009299946
 20
-22.736184475
  0
LINE
  5
281
100
AcDbEntity
  8
ASSI
100
AcDbLine
 62
7
  6
CONTINUOUS
 10
2.7739350693
 20
17.517974466
 11
2.7951403585
 21
16.9015019686
  0
LWPOLYLINE
  5
282
100
AcDbEntity
  8
ASSI
100
AcDbPolyline
 62
253
  6
CONTINUOUS
 90
27
 70
0
 10
4.3818862158
 20
-13.5770624801
 10
4.3902515998
 20
-13.9279753508
 10
4.4001579281
 20
-14.278008931
 10
4.4116049871
 20
-14.6271550331
 10
4.4245925084
 20
-14.9754054854
 10
4.4391201686
 20
-15.3227521322
 10
4.4551876434
 20
-15.669186852
 10
4.4727945664
 20
-16.0147015374
 10
4.4919404987
 20
-16.3592880873
 10
4.5126250113
 20
-16.7029384417
 10
4.5348476336
 20
-17.0456445654
 10
4.5586078122
 20
-17.387398429
 10
4.5839050141
 20
-17.7281920416
 10
4.6107386643
 20
-18.0680174362
 10
4.6391080952
 20
-18.4068666525
 10
4.6690126702
 20
-18.7447317741
 10
4.7004517099
 20
-19.0816048999
 10
4.7334244318
 20
-19.4174781277
 10
4.7679300951
 20
-19.7523436139
 10
4.8039679167
 20
-20.0861935283
 10
4.8415369982
 20
-20.4190200252
 10
4.8806364945
 20
-20.7508153294
 10
4.9212655189
 20
-21.0815716895
 10
4.9634230593
 20
-21.4112813329
 10
5.0071081318
 20
-21.7399365432
 10
5.0523197811
 20
-22.0675296604
 10
5.0990569859
 20
-22.3940530347
  0
LWPOLYLINE
  5
283
100
AcDbEntity
  8
ASSI
100
AcDbPolyline
 62
253
  6
CONTINUOUS
 90
27
 70
0
 10
5.0763386894
 20
-13.5744025652
 10
5.0846590922
 20
-13.9233639673
 10
5.0945119216
 20
-14.2714430532
 10
5.1058974794
 20
-14.6186479457
 10
5.1188154637
 20
-14.964970522
 10
5.1332649687
 20
-15.310386414
 10
5.1492461016
 20
-15.6548955416
 10
5.1667587552
 20
-15.9984979849
 10
5.1858017022
 20
-16.3411696153
 10
5.2063750496
 20
-16.6829103644
 10
5.2284786904
 20
-17.0237203006
 10
5.2521110757
 20
-17.3635755015
 10
5.2772723125
 20
-17.7024758979
 10
5.3039622939
 20
-18.040421559
 10
5.3321791505
 20
-18.3773887691
 10
5.3619229892
 20
-18.7133774621
 10
5.3931937031
 20
-19.0483877041
 10
5.4259891013
 20
-19.3823959786
 10
5.4603092911
 20
-19.7154022186
 10
5.4961541653
 20
-20.0474064911
 10
5.5335212111
 20
-20.3783854803
 10
5.5724105371
 20
-20.7083391245
 10
5.6128220348
 20
-21.0372674854
 10
5.6547528666
 20
-21.3651474321
 10
5.6982020869
 20
-21.6919712544
 10
5.7431706413
 20
-22.0177466626
 10
5.7896585299
 20
-22.3424736566
  0
LWPOLYLINE
  5
284
100
AcDbEntity
  8
ASSI
100
AcDbPolyline
 62
253
  6
CONTINUOUS
 90
46
 70
0
 10
5.0036804604
 20
-5.8341983199
 10
5.0035209978
 20
-5.8270420433
 10
5.0031540825
 20
-5.8197659129
 10
5.0025801613
 20
-5.8123787901
 10
5.0017999331
 20
-5.8048896715
 10
5.0008143482
 20
-5.7973076779
 10
4.999624607
 20
-5.7896420432
 10
4.9982321582
 20
-5.7819021032
 10
4.9966386978
 20
-5.7740972842
 10
4.9948461665
 20
-5.7662370914
 10
4.9928567472
 20
-5.7583310975
 10
4.9906728629
 20
-5.7503889311
 10
4.9882971732
 20
-5.7424202648
 10
4.9857325715
 20
-5.7344348033
 10
4.9829821811
 20
-5.7264422719
 10
4.9800493516
 20
-5.7184524046
 10
4.9769376548
 20
-5.710474932
 10
4.9736508805
 20
-5.7025195696
 10
4.9701930314
 20
-5.694596006
 10
4.9665683189
 20
-5.6867138912
 10
4.9627811573
 20
-5.6788828247
 10
4.9588361589
 20
-5.6711123435
 10
4.9547381283
 20
-5.6634119113
 10
4.9504920563
 20
-5.6557909061
 10
4.9461031141
 20
-5.6482586094
 10
4.941576647
 20
-5.6408241945
 10
4.9369181674
 20
-5.6334967157
 10
4.932133349
 20
-5.6262850969
 10
4.927228019
 20
-5.6191981208
 10
4.9222081515
 20
-5.6122444187
 10
4.91707986
 20
-5.6054324591
 10
4.9118493901
 20
-5.5987705382
 10
4.906523112
 20
-5.5922667694
 10
4.9011075123
 20
-5.5859290734
 10
4.8956091866
 20
-5.5797651688
 10
4.8900348311
 20
-5.5737825623
 10
4.8843912346
 20
-5.5679885401
 10
4.8786852705
 20
-5.5623901586
 10
4.8729238877
 20
-5.5569942358
 10
4.867114103
 20
-5.5518073433
 10
4.8612629919
 20
-5.5468357981
 10
4.8553776804
 20
-5.5420856549
 10
4.849465336
 20
-5.5375626988
 10
4.8435331592
 20
-5.5332724381
 10
4.8375883746
 20
-5.5292200978
 10
4.8316382222
 20
-5.5254106133
  0
LINE
  5
285
100
AcDbEntity
  8
ASSI
100
AcDbLine
 62
253
  6
CONTINUOUS
 10
4.3617477579
 20
-12.4067764459
 11
4.3818862158
 21
-13.5770624801
  0
LINE
  5
286
100
AcDbEntity
  8
ASSI
100
AcDbLine
 62
253
  6
CONTINUOUS
 10
5.0562467018
 20
-12.4066974657
 11
5.0763386894
 21
-13.5744025652
  0
LWPOLYLINE
  5
287
100
AcDbEntity
  8
ASSI
100
AcDbPolyline
 62
253
  6
CONTINUOUS
 90
24
 70
0
 10
4.3091291087
 20
-5.179546999
 10
4.3092308284
 20
-5.1865760102
 10
4.3095456314
 20
-5.1934736374
 10
4.3100731379
 20
-5.2002315615
 10
4.3108127118
 20
-5.2068416319
 10
4.311763461
 20
-5.2132958763
 10
4.312924239
 20
-5.2195865104
 10
4.3142936457
 20
-5.2257059473
 10
4.3158700294
 20
-5.2316468065
 10
4.3176514891
 20
-5.2374019227
 10
4.319635876
 20
-5.242964355
 10
4.3218207969
 20
-5.2483273946
 10
4.3242036166
 20
-5.2534845733
 10
4.3267814612
 20
-5.2584296711
 10
4.3295512217
 20
-5.2631567239
 10
4.3325095574
 20
-5.2676600305
 10
4.3356529005
 20
-5.2719341596
 10
4.3389774599
 20
-5.2759739562
 10
4.3424792258
 20
-5.2797745481
 10
4.3461539748
 20
-5.2833313514
 10
4.349997275
 20
-5.2866400765
 10
4.3540044911
 20
-5.2896967326
 10
4.3581707899
 20
-5.2924976333
 10
4.3608548063
 20
-5.2941176855
  0
LINE
  5
288
100
AcDbEntity
  8
ASSI
100
AcDbLine
 62
253
  6
CONTINUOUS
 10
4.3396105098
 20
-10.7672845849
 11
4.3617477579
 21
-12.4067764459
  0
LINE
  5
289
100
AcDbEntity
  8
ASSI
100
AcDbLine
 62
253
  6
CONTINUOUS
 10
5.0341274867
 20
-10.7685053968
 11
5.0562467018
 21
-12.4066974657
  0
LINE
  5
28A
100
AcDbEntity
  8
ASSI
100
AcDbLine
 62
253
  6
CONTINUOUS
 10
4.3234617561
 20
-9.1245035359
 11
4.3396105098
 21
-10.7672845849
  0
LWPOLYLINE
  5
28B
100
AcDbEntity
  8
ASSI
100
AcDbPolyline
 62
253
  6
CONTINUOUS
 90
3
 70
0
 10
5.0121706827
 20
-8.3050440281
 10
5.0179932325
 20
-9.1270192301
 10
5.0341274867
 20
-10.7685053968
  0
LINE
  5
28C
100
AcDbEntity
  8
ASSI
100
AcDbLine
 62
253
  6
CONTINUOUS
 10
4.3133008191
 20
-7.4784285323
 11
4.3234617561
 21
-9.1245035359
  0
LINE
  5
28D
100
AcDbEntity
  8
ASSI
100
AcDbLine
 62
253
  6
CONTINUOUS
 10
4.3091278144
 20
-5.8290784902
 11
4.3133008191
 21
-7.4784285323
  0
LINE
  5
28E
100
AcDbEntity
  8
ASSI
100
AcDbLine
 62
253
  6
CONTINUOUS
 10
4.3133008191
 20
-3.5257044664
 11
4.3091278144
 21
-5.1795462517
  0
LINE
  5
28F
100
AcDbEntity
  8
ASSI
100
AcDbLine
 62
253
  6
CONTINUOUS
 10
4.3234617561
 20
-1.8686877925
 11
4.3133008191
 21
-3.5257044664
  0
LINE
  5
290
100
AcDbEntity
  8
ASSI
100
AcDbLine
 62
253
  6
CONTINUOUS
 10
4.3396105098
 20
-0.2085156103
 11
4.3234617561
 21
-1.8686877925
  0
LINE
  5
291
100
AcDbEntity
  8
ASSI
100
AcDbLine
 62
253
  6
CONTINUOUS
 10
4.3617477579
 20
1.4548163061
 11
4.3396105098
 21
-0.2085156103
  0
LWPOLYLINE
  5
292
100
AcDbEntity
  8
ASSI
100
AcDbPolyline
 62
253
  6
CONTINUOUS
 90
46
 70
0
 10
4.3091291087
 20
-5.8290792375
 10
4.3092308284
 20
-5.821932763
 10
4.3095456313
 20
-5.8146716094
 10
4.3100731378
 20
-5.8073045342
 10
4.3108127117
 20
-5.7998404226
 10
4.3117634609
 20
-5.792288277
 10
4.3129242388
 20
-5.7846572058
 10
4.3142936454
 20
-5.7769564126
 10
4.3158700291
 20
-5.7691951853
 10
4.3176514886
 20
-5.7613828843
 10
4.3196358755
 20
-5.7535289319
 10
4.3218207962
 20
-5.7456428006
 10
4.3242036158
 20
-5.7377340016
 10
4.3267814603
 20
-5.7298120736
 10
4.3295512207
 20
-5.721886571
 10
4.3325095563
 20
-5.7139670526
 10
4.3356528993
 20
-5.7060630698
 10
4.3389774585
 20
-5.6981841555
 10
4.3424792243
 20
-5.6903398122
 10
4.3461539733
 20
-5.6825395009
 10
4.3499972734
 20
-5.6747926292
 10
4.3540044893
 20
-5.6671085404
 10
4.358170788
 20
-5.6594965023
 10
4.3624911448
 20
-5.6519656954
 10
4.3669603488
 20
-5.6445252025
 10
4.3715730099
 20
-5.6371839973
 10
4.3763235648
 20
-5.6299509339
 10
4.3812062842
 20
-5.622834736
 10
4.3862152789
 20
-5.6158439862
 10
4.3913445078
 20
-5.6089871159
 10
4.3965877847
 20
-5.6022723949
 10
4.4019387858
 20
-5.5957079218
 10
4.4073910574
 20
-5.5893016137
 10
4.4129380235
 20
-5.5830611972
 10
4.4185729943
 20
-5.5769941987
 10
4.4242891733
 20
-5.5711079354
 10
4.4300796666
 20
-5.5654095066
 10
4.4359374904
 20
-5.5599057851
 10
4.4418555796
 20
-5.5546034087
 10
4.4478267967
 20
-5.5495087725
 10
4.4538439398
 20
-5.5446280211
 10
4.4598997518
 20
-5.5399670409
 10
4.4659869291
 20
-5.5355314535
 10
4.4720981299
 20
-5.5313266085
 10
4.4782259838
 20
-5.5273575773
 10
4.4843631001
 20
-5.5236291468
  0
LINE
  5
293
100
AcDbEntity
  8
ASSI
100
AcDbLine
 62
253
  6
CONTINUOUS
 10
4.3818862158
 20
2.6467921655
 11
4.3617477579
 21
1.4548163061
  0
LINE
  5
294
100
AcDbEntity
  8
ASSI
100
AcDbLine
 62
253
  6
CONTINUOUS
 10
4.4001579281
 20
3.3674220933
 11
4.3818862158
 21
2.6467921655
  0
LINE
  5
295
100
AcDbEntity
  8
ASSI
100
AcDbLine
 62
253
  6
CONTINUOUS
 10
4.4245925084
 20
4.0911411161
 11
4.4001579281
 21
3.3674220933
  0
LINE
  5
296
100
AcDbEntity
  8
ASSI
100
AcDbLine
 62
253
  6
CONTINUOUS
 10
4.4551876434
 20
4.8178815217
 11
4.4245925084
 21
4.0911411161
  0
LINE
  5
297
100
AcDbEntity
  8
ASSI
100
AcDbLine
 62
253
  6
CONTINUOUS
 10
5.1492461016
 20
4.7890197557
 11
5.1188154637
 21
4.0663256544
  0
LINE
  5
298
100
AcDbEntity
  8
ASSI
100
AcDbLine
 62
253
  6
CONTINUOUS
 10
4.4919404987
 20
5.5475752593
 11
4.4551876434
 21
4.8178815217
  0
LINE
  5
299
100
AcDbEntity
  8
ASSI
100
AcDbLine
 62
253
  6
CONTINUOUS
 10
5.1858017022
 20
5.5146585468
 11
5.1492461016
 21
4.7890197557
  0
LINE
  5
29A
100
AcDbEntity
  8
ASSI
100
AcDbLine
 62
253
  6
CONTINUOUS
 10
4.5348476336
 20
6.2801540085
 11
4.4919404987
 21
5.5475752593
  0
LINE
  5
29B
100
AcDbEntity
  8
ASSI
100
AcDbLine
 62
253
  6
CONTINUOUS
 10
5.2284786904
 20
6.2431657355
 11
5.1858017022
 21
5.5146585468
  0
LINE
  5
29C
100
AcDbEntity
  8
ASSI
100
AcDbLine
 62
253
  6
CONTINUOUS
 10
4.5839050141
 20
7.0155492369
 11
4.5348476336
 21
6.2801540085
  0
LINE
  5
29D
100
AcDbEntity
  8
ASSI
100
AcDbLine
 62
253
  6
CONTINUOUS
 10
5.2772723125
 20
6.9744645031
 11
5.2284786904
 21
6.2431657355
  0
LINE
  5
29E
100
AcDbEntity
  8
ASSI
100
AcDbLine
 62
253
  6
CONTINUOUS
 10
4.6391080952
 20
7.7536920988
 11
4.5839050141
 21
7.0155492369
  0
LINE
  5
29F
100
AcDbEntity
  8
ASSI
100
AcDbLine
 62
253
  6
CONTINUOUS
 10
5.3321791505
 20
7.7085035308
 11
5.2772723125
 21
6.9744645031
  0
LINE
  5
2A0
100
AcDbEntity
  8
ASSI
100
AcDbLine
 62
253
  6
CONTINUOUS
 10
4.7004517099
 20
8.4945135581
 11
4.6391080952
 21
7.7536920988
  0
LINE
  5
2A1
100
AcDbEntity
  8
ASSI
100
AcDbLine
 62
253
  6
CONTINUOUS
 10
5.3931937031
 20
8.4452056847
 11
5.3321791505
 21
7.7085035308
  0
LINE
  5
2A2
100
AcDbEntity
  8
ASSI
100
AcDbLine
 62
253
  6
CONTINUOUS
 10
4.7679300951
 20
9.2379443102
 11
4.7004517099
 21
8.4945135581
  0
LINE
  5
2A3
100
AcDbEntity
  8
ASSI
100
AcDbLine
 62
253
  6
CONTINUOUS
 10
5.4603092911
 20
9.1844932877
 11
5.3931937031
 21
8.4452056847
  0
LINE
  5
2A4
100
AcDbEntity
  8
ASSI
100
AcDbLine
 62
253
  6
CONTINUOUS
 10
4.8415369982
 20
9.9839147321
 11
4.7679300951
 21
9.2379443102
  0
LINE
  5
2A5
100
AcDbEntity
  8
ASSI
100
AcDbLine
 62
253
  6
CONTINUOUS
 10
5.5335212111
 20
9.9263144428
 11
5.4603092911
 21
9.1844932877
  0
LINE
  5
2A6
100
AcDbEntity
  8
ASSI
100
AcDbLine
 62
253
  6
CONTINUOUS
 10
5.6128220348
 20
10.6705911471
 11
5.5335212111
 21
9.9263144428
  0
LINE
  5
2A7
100
AcDbEntity
  8
ASSI
100
AcDbLine
 62
253
  6
CONTINUOUS
 10
4.9634230593
 20
11.1074794399
 11
4.8415369982
 21
9.9839147321
  0
LINE
  5
2A8
100
AcDbEntity
  8
ASSI
100
AcDbLine
 62
253
  6
CONTINUOUS
 10
5.6982020869
 20
11.4172360023
 11
5.6128220348
 21
10.6705911471
  0
LWPOLYLINE
  5
2A9
100
AcDbEntity
  8
ASSI
100
AcDbPolyline
 62
253
  6
CONTINUOUS
 90
3
 70
0
 10
5.0990569859
 20
12.2363646148
 10
5.0523197811
 20
11.8594930851
 10
4.9634230593
 20
11.1074794399
  0
LINE
  5
2AA
100
AcDbEntity
  8
ASSI
100
AcDbLine
 62
253
  6
CONTINUOUS
 10
5.7896585299
 20
12.1662228222
 11
5.6982020869
 21
11.4172360023
  0
LINE
  5
2AB
100
AcDbEntity
  8
ASSI
100
AcDbLine
 62
253
  6
CONTINUOUS
 10
-10.433530227
 20
10.8379522647
 11
4.3750619647
 21
2.2876567285
  0
LWPOLYLINE
  5
2AC
100
AcDbEntity
  8
ASSI
100
AcDbPolyline
 62
253
  6
CONTINUOUS
 90
3
 70
0
 10
5.003681863
 20
-5.8341975511
 10
5.0050150269
 20
-6.658633611
 10
5.0121706827
 20
-8.3050440281
  0
LINE
  5
2AD
100
AcDbEntity
  8
ASSI
100
AcDbLine
 62
253
  6
CONTINUOUS
 10
5.0078446334
 20
-3.5358941533
 11
5.003681863
 21
-5.1884283643
  0
LINE
  5
2AE
100
AcDbEntity
  8
ASSI
100
AcDbLine
 62
253
  6
CONTINUOUS
 10
5.0179932325
 20
-1.8801955579
 11
5.0078446334
 21
-3.5358941533
  0
LINE
  5
2AF
100
AcDbEntity
  8
ASSI
100
AcDbLine
 62
253
  6
CONTINUOUS
 10
5.0341274867
 20
-0.2213352995
 11
5.0179932325
 21
-1.8801955579
  0
LINE
  5
2B0
100
AcDbEntity
  8
ASSI
100
AcDbLine
 62
253
  6
CONTINUOUS
 10
5.0562467018
 20
1.4406757367
 11
5.0341274867
 21
-0.2213352995
  0
LINE
  5
2B1
100
AcDbEntity
  8
ASSI
100
AcDbLine
 62
253
  6
CONTINUOUS
 10
5.0763386894
 20
2.6300167936
 11
5.0562467018
 21
1.4406757367
  0
LWPOLYLINE
  5
2B2
100
AcDbEntity
  8
ASSI
100
AcDbPolyline
 62
253
  6
CONTINUOUS
 90
24
 70
0
 10
5.0036804604
 20
-5.1884291058
 10
5.0035209978
 20
-5.1955167275
 10
5.0031540826
 20
-5.2024671481
 10
5.0025801614
 20
-5.209271903
 10
5.0017999333
 20
-5.2159227047
 10
5.0008143485
 20
-5.2224114534
 10
4.9996246073
 20
-5.2287302467
 10
4.9982321587
 20
-5.2348713891
 10
4.9966386984
 20
-5.2408274014
 10
4.9948461672
 20
-5.24659103
 10
4.9928567481
 20
-5.2521552555
 10
4.9906728639
 20
-5.2575133013
 10
4.9882971744
 20
-5.2626586421
 10
4.9857325729
 20
-5.2675850115
 10
4.9829821826
 20
-5.2722864098
 10
4.9800493533
 20
-5.2767571112
 10
4.9769376568
 20
-5.280991671
 10
4.9736508826
 20
-5.2849849321
 10
4.9701930337
 20
-5.2887320312
 10
4.9665683213
 20
-5.2922284048
 10
4.9627811599
 20
-5.2954697947
 10
4.9588361617
 20
-5.2984522533
 10
4.9547381312
 20
-5.3011721484
 10
4.9501047407
 20
-5.3038328688
  0
LINE
  5
2B3
100
AcDbEntity
  8
ASSI
100
AcDbLine
 62
253
  6
CONTINUOUS
 10
5.0945119216
 20
3.3466270366
 11
5.0763386894
 21
2.6300167936
  0
LINE
  5
2B4
100
AcDbEntity
  8
ASSI
100
AcDbLine
 62
253
  6
CONTINUOUS
 10
5.1188154637
 20
4.0663256544
 11
5.0945119216
 21
3.3466270366
  0
LWPOLYLINE
  5
2B5
100
AcDbEntity
  8
0
100
AcDbPolyline
 62
253
  6
CONTINUOUS
 90
55
 70
0
 10
-1.2900511392
 20
7.0549200495
 10
-1.2804538134
 20
7.0495605324
 10
-1.2709336768
 20
7.0446057685
 10
-1.2614664633
 20
7.0400364491
 10
-1.2520279073
 20
7.0358332654
 10
-1.2425937428
 20
7.0319769089
 10
-1.2331446332
 20
7.0284524223
 10
-1.2236809589
 20
7.0252622538
 10
-1.2142080295
 20
7.0224132033
 10
-1.2047311545
 20
7.0199120704
 10
-1.1952556435
 20
7.017765655
 10
-1.1857884085
 20
7.0159811488
 10
-1.1763427707
 20
7.014567311
 10
-1.1669336536
 20
7.0135332929
 10
-1.1575759808
 20
7.0128882458
 10
-1.1482846758
 20
7.012641321
 10
-1.140605985
 20
7.0127453852
 10
-1.1330079776
 20
7.0131322436
 10
-1.1255148847
 20
7.0138018616
 10
-1.1181445116
 20
7.0147552591
 10
-1.110888961
 20
7.0159976744
 10
-1.1037339096
 20
7.0175354004
 10
-1.09666974
 20
7.0193741631
 10
-1.0897056572
 20
7.0215174221
 10
-1.0828555722
 20
7.0239680701
 10
-1.0761333955
 20
7.0267289999
 10
-1.069553038
 20
7.0298031044
 10
-1.0631284105
 20
7.0331932762
 10
-1.0568719902
 20
7.0368999009
 10
-1.0507905202
 20
7.0409133346
 10
-1.0448893104
 20
7.0452214263
 10
-1.0391736703
 20
7.0498120247
 10
-1.0336489097
 20
7.0546729788
 10
-1.0283203383
 20
7.0597921375
 10
-1.023190312
 20
7.0651609329
 10
-1.0182493713
 20
7.0707851309
 10
-1.0134851033
 20
7.0766740809
 10
-1.0088895802
 20
7.0828319144
 10
-1.0044728171
 20
7.0892418924
 10
-1.0002493145
 20
7.0958820584
 10
-0.9954526105
 20
7.1041264074
 10
-0.9909560108
 20
7.1126519683
 10
-0.9867604434
 20
7.1214401002
 10
-0.9828668367
 20
7.1304721619
 10
-0.9792761188
 20
7.1397295124
 10
-0.9759886211
 20
7.1491953249
 10
-0.9730022864
 20
7.1588600304
 10
-0.9703144606
 20
7.168715874
 10
-0.9679224898
 20
7.1787551009
 10
-0.9658237197
 20
7.1889699564
 10
-0.9640166467
 20
7.1993594014
 10
-0.9625043683
 20
7.2099492598
 10
-0.9612911325
 20
7.2207720713
 10
-0.960381187
 20
7.2318603755
 10
-0.9597787797
 20
7.2432467121
  0
LINE
  5
2B6
100
AcDbEntity
  8
0
100
AcDbLine
 62
253
  6
CONTINUOUS
 10
-4.6835152247
 20
9.0142636823
 11
-1.2900511392
 21
7.0549200495
  0
LINE
  5
2B7
100
AcDbEntity
  8
0
100
AcDbLine
 62
253
  6
CONTINUOUS
 10
-1.3374271062
 20
7.4933212938
 11
-4.6060762442
 21
9.3809893372
  0
LWPOLYLINE
  5
2B8
100
AcDbEntity
  8
ASSI
100
AcDbPolyline
 62
253
  6
CONTINUOUS
 90
55
 70
0
 10
6.1323195642
 20
12.697534322
 10
6.1316199999
 20
12.7091676351
 10
6.1306331773
 20
12.7209693562
 10
6.1293599295
 20
12.7329295229
 10
6.1278013311
 20
12.7450380394
 10
6.125958698
 20
12.7572846845
 10
6.1238335854
 20
12.7696591202
 10
6.1214277874
 20
12.782150901
 10
6.1187433346
 20
12.7947494821
 10
6.1157824932
 20
12.8074442287
 10
6.1125477625
 20
12.8202244246
 10
6.109041873
 20
12.8330792818
 10
6.1052677842
 20
12.8459979489
 10
6.1012286819
 20
12.8589695209
 10
6.0969279756
 20
12.871983048
 10
6.0923692957
 20
12.8850275452
 10
6.0875564904
 20
12.898092001
 10
6.0824936223
 20
12.9111653875
 10
6.0771849651
 20
12.9242366688
 10
6.071635
 20
12.9372948111
 10
6.065848412
 20
12.9503287915
 10
6.0598300857
 20
12.9633276077
 10
6.0535851013
 20
12.976280287
 10
6.0471187306
 20
12.9891758954
 10
6.0404364319
 20
13.0020035474
 10
6.033543846
 20
13.0147524148
 10
6.0264467912
 20
13.0274117358
 10
6.0191512583
 20
13.0399708242
 10
6.0116634057
 20
13.0524190786
 10
6.0039895542
 20
13.0647459908
 10
5.9961361815
 20
13.0769411554
 10
5.988109917
 20
13.088994278
 10
5.9799175358
 20
13.1008951842
 10
5.9715659535
 20
13.112633828
 10
5.9630622198
 20
13.1242003004
 10
5.9544135131
 20
13.1355848378
 10
5.945627134
 20
13.1467778301
 10
5.9367104994
 20
13.157769829
 10
5.9276711362
 20
13.1685515556
 10
5.9185166747
 20
13.1791139089
 10
5.9092548426
 20
13.1894479727
 10
5.899893458
 20
13.1995450237
 10
5.8904404233
 20
13.2093965387
 10
5.880903718
 20
13.2189942017
 10
5.8712913924
 20
13.228329911
 10
5.8616115607
 20
13.2373957859
 10
5.8518723937
 20
13.2461841737
 10
5.8420821128
 20
13.2546876559
 10
5.8322489822
 20
13.2628990542
 10
5.8223813025
 20
13.2708114373
 10
5.8124874031
 20
13.2784181259
 10
5.802575636
 20
13.2857126991
 10
5.7926543679
 20
13.2926889993
 10
5.7827319738
 20
13.2993411374
 10
5.7728168294
 20
13.3056634983
  0
LWPOLYLINE
  5
2B9
100
AcDbEntity
  8
ASSI
100
AcDbPolyline
 62
253
  6
CONTINUOUS
 90
30
 70
0
 10
6.1323195642
 20
-22.5047923187
 10
6.1316199999
 20
-22.5168457422
 10
6.1306331773
 20
-22.528710763
 10
6.1293599294
 20
-22.5403773654
 10
6.127801331
 20
-22.5518357013
 10
6.1259586978
 20
-22.5630760983
 10
6.1238335852
 20
-22.574089068
 10
6.1214277871
 20
-22.584865314
 10
6.1187433342
 20
-22.5953957397
 10
6.1157824927
 20
-22.605671456
 10
6.1125477619
 20
-22.6156837889
 10
6.1090418724
 20
-22.6254242866
 10
6.1052677834
 20
-22.6348847268
 10
6.101228681
 20
-22.6440571237
 10
6.0969279746
 20
-22.6529337344
 10
6.0923692947
 20
-22.6615070661
 10
6.0875564892
 20
-22.6697698816
 10
6.082493621
 20
-22.677715206
 10
6.0771849637
 20
-22.6853363324
 10
6.0716349985
 20
-22.6926268276
 10
6.0658484104
 20
-22.6995805374
 10
6.0598300841
 20
-22.7061915919
 10
6.0535850996
 20
-22.7124544106
 10
6.0471187288
 20
-22.7183637067
 10
6.04043643
 20
-22.7239144921
 10
6.0335438441
 20
-22.7291020812
 10
6.0264467892
 20
-22.7339220948
 10
6.0191512562
 20
-22.7383704644
 10
6.0116634036
 20
-22.7424434348
 10
6.0076679848
 20
-22.7444252243
  0
LINE
  5
2BA
100
AcDbEntity
  8
ASSI
100
AcDbLine
 62
253
  6
CONTINUOUS
 10
8.6448624063
 20
-3.4351570428
 11
4.8316382222
 21
-5.5254106133
  0
LINE
  5
2BB
100
AcDbEntity
  8
ASSI
100
AcDbLine
 62
253
  6
CONTINUOUS
 10
8.8216929844
 20
-3.7413199773
 11
5.003681863
 21
-5.8341975511
  0
LWPOLYLINE
  5
2BC
100
AcDbEntity
  8
ASSI
100
AcDbPolyline
 62
253
  6
CONTINUOUS
 90
55
 70
0
 10
4.8316382222
 20
-5.5254106133
 10
4.8263631933
 20
-5.5282211747
 10
4.820963159
 20
-5.5309398774
 10
4.8154381192
 20
-5.5335667212
 10
4.8097833274
 20
-5.5361037245
 10
4.8040035302
 20
-5.538548869
 10
4.7981129673
 20
-5.5408960999
 10
4.7921114381
 20
-5.5431451414
 10
4.7859991432
 20
-5.5452962693
 10
4.7797909253
 20
-5.5473442565
 10
4.7734865648
 20
-5.5492888465
 10
4.7670862812
 20
-5.5511302957
 10
4.7606055759
 20
-5.5528641456
 10
4.7540442524
 20
-5.5544901367
 10
4.747402507
 20
-5.5560085285
 10
4.7406964301
 20
-5.5574156415
 10
4.7339258599
 20
-5.5587112067
 10
4.727090958
 20
-5.5598954932
 10
4.7202083
 20
-5.5609656285
 10
4.7132777732
 20
-5.5619213348
 10
4.7062994901
 20
-5.56276289
 10
4.699290364
 20
-5.5634882547
 10
4.6922503217
 20
-5.5640971472
 10
4.6851794364
 20
-5.5645898492
 10
4.67809484
 20
-5.5649651672
 10
4.6709964969
 20
-5.5652228165
 10
4.6638844429
 20
-5.5653630818
 10
4.6567759168
 20
-5.5653856229
 10
4.6496709265
 20
-5.5652901541
 10
4.6425694643
 20
-5.5650769611
 10
4.6354887453
 20
-5.5647465613
 10
4.6284288232
 20
-5.5642986705
 10
4.6213896443
 20
-5.5637335728
 10
4.6143882641
 20
-5.5630526378
 10
4.6074247724
 20
-5.5622555845
 10
4.6004990792
 20
-5.561342694
 10
4.5936279698
 20
-5.5603161788
 10
4.5868115734
 20
-5.5591757624
 10
4.5800497607
 20
-5.5579217214
 10
4.573358929
 20
-5.5565570977
 10
4.5667392562
 20
-5.555081624
 10
4.5601905644
 20
-5.5534955675
 10
4.5537287173
 20
-5.551802772
 10
4.5473539267
 20
-5.5500029797
 10
4.5410659808
 20
-5.5480964484
 10
4.534880108
 20
-5.5460877942
 10
4.5287965432
 20
-5.5439767633
 10
4.5228150514
 20
-5.5417636095
 10
4.5169501568
 20
-5.5394537106
 10
4.5112020813
 20
-5.5370467954
 10
4.5055706028
 20
-5.5345431351
 10
4.5000695797
 20
-5.5319489209
 10
4.4947036312
 20
-5.5292662167
 10
4.489468138
 20
-5.5264929587
 10
4.4843631001
 20
-5.5236291468
  0
LINE
  5
2BD
100
AcDbEntity
  8
ASSI
100
AcDbLine
 62
253
  6
CONTINUOUS
 10
5.003681863
 20
-5.1884283643
 11
8.8216929844
 21
-3.169899572
  0
LINE
  5
2BE
100
AcDbEntity
  8
ASSI
100
AcDbLine
 62
7
  6
CONTINUOUS
 10
4.9500274827
 20
-5.3038737688
 11
8.7672249286
 21
-3.2857751553
  0
LWPOLYLINE
  5
2BF
100
AcDbEntity
  8
ASSI
100
AcDbPolyline
 62
253
  6
CONTINUOUS
 90
55
 70
0
 10
5.003681863
 20
-5.8341975573
 10
4.9931447102
 20
-5.8397666494
 10
4.9823402406
 20
-5.8451603224
 10
4.971277194
 20
-5.8503742503
 10
4.9599645416
 20
-5.8554042789
 10
4.9484114131
 20
-5.8602463505
 10
4.9366270846
 20
-5.8648965028
 10
4.9246210284
 20
-5.869351028
 10
4.9124030072
 20
-5.873606333
 10
4.8999830032
 20
-5.8776588663
 10
4.88737111
 20
-5.881505372
 10
4.8745774874
 20
-5.8851427917
 10
4.8616124534
 20
-5.888568123
 10
4.8484864881
 20
-5.8917786304
 10
4.8352102169
 20
-5.89477175
 10
4.8217943694
 20
-5.8975449944
 10
4.8082497875
 20
-5.9000961533
 10
4.7945874376
 20
-5.9024231948
 10
4.7808183927
 20
-5.9045241678
 10
4.7669537977
 20
-5.9063974027
 10
4.7530048619
 20
-5.9080414185
 10
4.7389828704
 20
-5.9094548242
 10
4.7248991697
 20
-5.9106365048
 10
4.7107651491
 20
-5.9115855368
 10
4.6965922325
 20
-5.9123010954
 10
4.6823918805
 20
-5.9127826282
 10
4.6681755845
 20
-5.9130297749
 10
4.6539548478
 20
-5.913042282
 10
4.639741174
 20
-5.9128201634
 10
4.625546061
 20
-5.9123636264
 10
4.6113809947
 20
-5.9116729917
 10
4.5972574379
 20
-5.9107488398
 10
4.5831868111
 20
-5.9095919438
 10
4.5691804865
 20
-5.9082031946
 10
4.5552497908
 20
-5.9065837338
 10
4.5414059964
 20
-5.9047348942
 10
4.5276603028
 20
-5.9026581327
 10
4.5140238228
 20
-5.9003551436
 10
4.500507594
 20
-5.8978278111
 10
4.4871225698
 20
-5.8950781503
 10
4.4738795872
 20
-5.8921084017
 10
4.4607893478
 20
-5.888920984
 10
4.4478624292
 20
-5.8855184457
 10
4.4351092948
 20
-5.8819035514
 10
4.4225402535
 20
-5.8780792385
 10
4.4101654424
 20
-5.8740485693
 10
4.3979948314
 20
-5.869814795
 10
4.3860383096
 20
-5.8653813644
 10
4.3743056417
 20
-5.8607518842
 10
4.3628063661
 20
-5.8559301285
 10
4.3515497266
 20
-5.8509199893
 10
4.3405447618
 20
-5.8457254831
 10
4.3298003532
 20
-5.8403508005
 10
4.3193252131
 20
-5.8348003059
 10
4.3091278147
 20
-5.8290784905
  0
LINE
  5
2C0
100
AcDbEntity
  8
ASSI
100
AcDbLine
 62
7
  6
CONTINUOUS
 10
8.2703971235
 20
13.9737399805
 11
8.8216929844
 21
7.2401508513
  0
LINE
  5
2C1
100
AcDbEntity
  8
ASSI
100
AcDbLine
 62
7
  6
CONTINUOUS
 10
8.8216929844
 20
-3.7413199773
 11
8.8216929844
 21
-14.1513704006
  0
LINE
  5
2C2
100
AcDbEntity
  8
ASSI
100
AcDbLine
 62
7
  6
CONTINUOUS
 10
8.8216929844
 20
-3.169899572
 11
8.8216929844
 21
7.2401508513
  0
LINE
  5
2C3
100
AcDbEntity
  8
ASSI
100
AcDbLine
 62
7
  6
CONTINUOUS
 10
8.2703971235
 20
-21.478619747
 11
8.8216929844
 21
-14.1513704006
  0
LWPOLYLINE
  5
2C4
100
AcDbEntity
  8
0
100
AcDbPolyline
 62
253
  6
CONTINUOUS
 90
54
 70
0
 10
-1.0610615134
 20
-12.1027361557
 10
-1.054940703
 20
-12.0993927827
 10
-1.0490517811
 20
-12.0957763085
 10
-1.043379661
 20
-12.0918838113
 10
-1.037909256
 20
-12.0877123692
 10
-1.0326287205
 20
-12.0832597644
 10
-1.0275391733
 20
-12.0785265947
 10
-1.0226449744
 20
-12.0735141617
 10
-1.0179504837
 20
-12.0682237673
 10
-1.0134605002
 20
-12.0626572435
 10
-1.0091815787
 20
-12.056818544
 10
-1.0051207132
 20
-12.0507121529
 10
-1.0012848975
 20
-12.0443425541
 10
-0.9976803166
 20
-12.0377142223
 10
-0.9943099205
 20
-12.0308315938
 10
-0.9911758505
 20
-12.0236990953
 10
-0.9882802475
 20
-12.0163211537
 10
-0.9852652958
 20
-12.007595168
 10
-0.9825651739
 20
-11.9985658616
 10
-0.9801804476
 20
-11.9892447107
 10
-0.9781116829
 20
-11.9796431914
 10
-0.9763594458
 20
-11.9697727797
 10
-0.974924302
 20
-11.959644952
 10
-0.9738068176
 20
-11.9492711842
 10
-0.973007395
 20
-11.938662937
 10
-0.9725257833
 20
-11.9278316087
 10
-0.9723615682
 20
-11.9167885818
 10
-0.9725143353
 20
-11.9055452392
 10
-0.9729836704
 20
-11.8941129636
 10
-0.9737691591
 20
-11.8825031377
 10
-0.974870387
 20
-11.8707271442
 10
-0.9762867849
 20
-11.8587963753
 10
-0.9780171635
 20
-11.8467222616
 10
-0.9800601783
 20
-11.8345162431
 10
-0.9824144852
 20
-11.8221897599
 10
-0.9850787398
 20
-11.8097542519
 10
-0.9880515978
 20
-11.7972211594
 10
-0.9913317149
 20
-11.7846019222
 10
-0.9944526534
 20
-11.7734985451
 10
-0.9978059736
 20
-11.7623464015
 10
-1.001389841
 20
-11.7511539204
 10
-1.0052024214
 20
-11.7399295309
 10
-1.0092411555
 20
-11.7286827027
 10
-1.0135005848
 20
-11.7174270684
 10
-1.0179745261
 20
-11.7061773011
 10
-1.0226567961
 20
-11.694948074
 10
-1.0275417548
 20
-11.6837526978
 10
-1.0326259365
 20
-11.6725990333
 10
-1.0379064191
 20
-11.6614935792
 10
-1.0433802801
 20
-11.6504428338
 10
-1.0490478227
 20
-11.6394489118
 10
-1.0549222505
 20
-11.6284963924
 10
-1.0610199929
 20
-11.6175654707
 10
-1.0673574787
 20
-11.606636342
  0
LINE
  5
2C5
100
AcDbEntity
  8
ASSI
100
AcDbLine
 62
253
  6
CONTINUOUS
 10
5.0990569859
 20
12.2363646148
 11
-9.7581316197
 21
20.8147191114
  0
LWPOLYLINE
  5
2C6
100
AcDbEntity
  8
ASSI
100
AcDbPolyline
 62
253
  6
CONTINUOUS
 90
55
 70
0
 10
5.0695507131
 20
-13.224558847
 10
5.0590153031
 20
-13.2302924107
 10
5.0482125735
 20
-13.2358505427
 10
5.037151263
 20
-13.241228747
 10
5.0258403193
 20
-13.2464226729
 10
5.014288892
 20
-13.2514281192
 10
5.0025063253
 20
-13.2562410366
 10
4.9905021505
 20
-13.260857532
 10
4.978286078
 20
-13.2652738709
 10
4.9658679896
 20
-13.2694864809
 10
4.9532579306
 20
-13.2734919543
 10
4.9404661016
 20
-13.277287051
 10
4.9275028502
 20
-13.280868701
 10
4.9143786626
 20
-13.2842340071
 10
4.9011041552
 20
-13.287380247
 10
4.8876900662
 20
-13.2903048757
 10
4.8741472465
 20
-13.2930055273
 10
4.8604866512
 20
-13.2954800171
 10
4.8467193305
 20
-13.2977263437
 10
4.8328564213
 20
-13.2997426898
 10
4.8189091376
 20
-13.3015274244
 10
4.8048887615
 20
-13.3030791037
 10
4.7908066346
 20
-13.3043964726
 10
4.7766741481
 20
-13.3054784654
 10
4.7625027342
 20
-13.306324207
 10
4.7483038563
 20
-13.306933013
 10
4.7340890004
 20
-13.3073043912
 10
4.7198696651
 20
-13.3074380409
 10
4.7056573527
 20
-13.3073338543
 10
4.69146356
 20
-13.3069919154
 10
4.6772997686
 20
-13.3064125009
 10
4.6631774358
 20
-13.3055960796
 10
4.6491079857
 20
-13.3045433118
 10
4.6351027991
 20
-13.3032550492
 10
4.6211732054
 20
-13.3017323338
 10
4.6073304724
 20
-13.2999763974
 10
4.5935857978
 20
-13.2979886604
 10
4.5799503
 20
-13.2957707308
 10
4.5664350091
 20
-13.2933244027
 10
4.5530508579
 20
-13.290651655
 10
4.5398086731
 20
-13.2877546496
 10
4.5267191666
 20
-13.2846357302
 10
4.5137929268
 20
-13.2812974196
 10
4.5010404101
 20
-13.2777424182
 10
4.4884719322
 20
-13.2739736019
 10
4.4760976601
 20
-13.2699940192
 10
4.4639276035
 20
-13.2658068893
 10
4.4519716072
 20
-13.2614155994
 10
4.4402393426
 20
-13.2568237016
 10
4.4287403001
 20
-13.2520349104
 10
4.4174837817
 20
-13.2470530995
 10
4.4064788929
 20
-13.2418822989
 10
4.3957345359
 20
-13.2365266914
 10
4.385259402
 20
-13.2309906092
 10
4.3750619647
 20
-13.2252785305
  0
LINE
  5
2C7
100
AcDbEntity
  8
ASSI
100
AcDbLine
 62
7
  6
CONTINUOUS
 10
5.8936247111
 20
15.7167047658
 11
5.2209178903
 21
15.586822282
  0
LINE
  5
2C8
100
AcDbEntity
  8
ASSI
100
AcDbLine
 62
253
  6
CONTINUOUS
 10
5.7728168294
 20
13.3056634983
 11
-9.1074962266
 21
21.8973697627
  0
LINE
  5
2C9
100
AcDbEntity
  8
ASSI
100
AcDbLine
 62
7
  6
CONTINUOUS
 10
5.027732725
 20
15.6124311172
 11
2.6454476289
 21
16.9879326746
  0
LINE
  5
2CA
100
AcDbEntity
  8
ASSI
100
AcDbLine
 62
7
  6
CONTINUOUS
 10
-2.8918632243
 20
20.1851065624
 11
-5.2741483203
 21
21.5606081199
  0
LINE
  5
2CB
100
AcDbEntity
  8
ASSI
100
AcDbLine
 62
7
  6
CONTINUOUS
 10
-7.137459134
 20
23.2406892601
 11
-5.14566088
 21
22.0906499113
  0
LINE
  5
2CC
100
AcDbEntity
  8
ASSI
100
AcDbLine
 62
7
  6
CONTINUOUS
 10
-2.0259712382
 20
20.289380211
 11
2.7739350693
 21
17.517974466
  0
LINE
  5
2CD
100
AcDbEntity
  8
ASSI
100
AcDbLine
 62
7
  6
CONTINUOUS
 10
5.8936247111
 20
15.7167047658
 11
7.8854229651
 21
14.566665417
  0
LINE
  5
2CE
100
AcDbEntity
  8
ASSI
100
AcDbLine
 62
7
  6
CONTINUOUS
 10
-2.0259712382
 20
20.289380211
 11
-2.698678059
 21
20.1594977273
  0
LWPOLYLINE
  5
2CF
100
AcDbEntity
  8
ASSI
100
AcDbPolyline
 62
253
  6
CONTINUOUS
 90
55
 70
0
 10
5.7896585299
 20
-22.3424736566
 10
5.7792349558
 20
-22.3496584664
 10
5.768543838
 20
-22.3566665824
 10
5.7575938291
 20
-22.3634923326
 10
5.7463937913
 20
-22.3701301928
 10
5.734952789
 20
-22.3765747908
 10
5.7232800818
 20
-22.3828209108
 10
5.7113851166
 20
-22.3888634977
 10
5.6992775205
 20
-22.394697661
 10
5.6869670923
 20
-22.400318679
 10
5.6744637953
 20
-22.4057220025
 10
5.6617777487
 20
-22.4109032584
 10
5.6489192197
 20
-22.4158582533
 10
5.635898615
 20
-22.4205829771
 10
5.6227264726
 20
-22.4250736058
 10
5.609413453
 20
-22.4293265052
 10
5.5959703308
 20
-22.4333382333
 10
5.5824079858
 20
-22.4371055432
 10
5.5687373945
 20
-22.4406253859
 10
5.5549696208
 20
-22.4438949128
 10
5.5411158074
 20
-22.4469114777
 10
5.5271871665
 20
-22.4496726393
 10
5.513194971
 20
-22.4521761628
 10
5.499150545
 20
-22.4544200222
 10
5.4850652551
 20
-22.4564024013
 10
5.470950501
 20
-22.4581216958
 10
5.4568177061
 20
-22.4595765142
 10
5.4426783084
 20
-22.4607656792
 10
5.4285437513
 20
-22.4616882281
 10
5.4144254743
 20
-22.4623434146
 10
5.4003349037
 20
-22.4627307082
 10
5.3862834434
 20
-22.4628497955
 10
5.3722824656
 20
-22.4627005801
 10
5.3583433016
 20
-22.4622831829
 10
5.3444772329
 20
-22.4615979415
 10
5.3306954815
 20
-22.4606454107
 10
5.3170092015
 20
-22.4594263613
 10
5.3034294694
 20
-22.4579417799
 10
5.2899672758
 20
-22.456192868
 10
5.276633516
 20
-22.4541810411
 10
5.2634389812
 20
-22.4519079274
 10
5.2503943503
 20
-22.4493753666
 10
5.2375101806
 20
-22.4465854083
 10
5.2247968995
 20
-22.4435403106
 10
5.2122647964
 20
-22.4402425379
 10
5.1999240137
 20
-22.4366947592
 10
5.1877845391
 20
-22.4328998458
 10
5.1758561976
 20
-22.4288608691
 10
5.164148643
 20
-22.4245810978
 10
5.1526713505
 20
-22.4200639958
 10
5.141433609
 20
-22.4153132188
 10
5.1304445136
 20
-22.4103326118
 10
5.1197129579
 20
-22.4051262056
 10
5.1092476274
 20
-22.3996982141
 10
5.099056992
 20
-22.3940530302
  0
LINE
  5
2D0
100
AcDbEntity
  8
ASSI
100
AcDbLine
 62
253
  6
CONTINUOUS
 10
6.1323195642
 20
-22.5047923187
 11
8.2703971235
 21
-21.478619747
  0
LINE
  5
2D1
100
AcDbEntity
  8
ASSI
100
AcDbLine
 62
7
  6
CONTINUOUS
 10
6.0076679848
 20
-22.7444252243
 11
8.132202045
 21
-21.7247528692
  0
ELLIPSE
  5
2D2
100
AcDbEntity
  8
ASSI
100
AcDbEllipse
 62
7
  6
CONTINUOUS
 10
8.6448085358
 20
-3.6392512803
 30
0.0
 11
-0.1251346745
 21
0.2164781009
 31
0.0
 40
0.577507303
 41
-2.3566621664
 42
-0.7861703913
  0
ELLIPSE
  5
2D3
100
AcDbEntity
  8
ASSI
100
AcDbEllipse
 62
7
  6
CONTINUOUS
 10
7.9166865095
 20
-21.2735833825
 30
0.0
 11
-0.2149783503
 21
0.4514263066
 31
0.0
 40
0.6262155472
 41
-3.1396910161
 42
-2.3109372224
  0
ELLIPSE
  5
2D4
100
AcDbEntity
  8
0
100
AcDbEllipse
 62
253
  6
CONTINUOUS
 10
55.4998049904
 20
32.1282605233
 30
0.0
 11
-67.8498342112
 21
111.7403546097
 31
0.0
 40
0.5620393258
 41
-4.6773947539
 42
-4.6520585215
  0
ELLIPSE
  5
2D5
100
AcDbEntity
  8
0
100
AcDbEllipse
 62
253
  6
CONTINUOUS
 10
65.6839531636
 20
26.2480610054
 30
0.0
 11
92.4359670693
 21
50.5435019202
 31
0.0
 40
0.0226223446
 41
-2.4152187426
 42
-2.3898719072
  0
ELLIPSE
  5
2D6
100
AcDbEntity
  8
0
100
AcDbEllipse
 62
253
  6
CONTINUOUS
 10
55.9952041343
 20
31.8422232664
 30
0.0
 11
-67.8712413466
 21
111.7483105274
 31
0.0
 40
0.5619613927
 41
-4.6806821191
 42
-4.6562724471
  0
ELLIPSE
  5
2D7
100
AcDbEntity
  8
0
100
AcDbEllipse
 62
253
  6
CONTINUOUS
 10
65.1879706527
 20
26.5344350911
 30
0.0
 11
92.440255424
 21
50.5409907356
 31
0.0
 40
0.0226605999
 41
-2.4110343697
 42
-2.3866297984
  0
ELLIPSE
  5
2D8
100
AcDbEntity
  8
ASSI
100
AcDbEllipse
 62
7
  6
CONTINUOUS
 10
-7.1070566964
 20
22.8518108678
 30
0.0
 11
-0.2807337341
 21
0.4137505634
 31
0.0
 40
0.5254492115
 41
-0.8261225424
 42
0.0012090728
  0
ELLIPSE
  5
2D9
100
AcDbEntity
  8
ASSI
100
AcDbEllipse
 62
7
  6
CONTINUOUS
 10
8.6448085358
 20
-3.0677065416
 30
0.0
 11
-0.1251726487
 21
0.2165441215
 31
0.0
 40
0.5771556487
 41
-3.1634096711
 42
-2.3569659634
  0
ELLIPSE
  5
2DA
100
AcDbEntity
  8
ASSI
100
AcDbEllipse
 62
7
  6
CONTINUOUS
 10
5.1691540813
 20
15.7026439146
 30
0.0
 11
0.1999154856
 21
0.0095814127
 31
0.0
 40
0.6067642562
 41
-2.385266879
 42
-1.3380693278
  0
ELLIPSE
  5
2DB
100
AcDbEntity
  8
ASSI
100
AcDbEllipse
 62
7
  6
CONTINUOUS
 10
-2.750441868
 20
20.2753193599
 30
0.0
 11
0.1999154856
 21
0.0095814127
 31
0.0
 40
0.6067642562
 41
-2.385266879
 42
-1.3380693278
  0
ELLIPSE
  5
2DC
100
AcDbEntity
  8
ASSI
100
AcDbEllipse
 62
7
  6
CONTINUOUS
 10
7.9166865095
 20
14.1772898325
 30
0.0
 11
-0.2810161013
 21
0.4142924366
 31
0.0
 40
0.524175859
 41
-2.3937039903
 42
-0.8247341631
  0
ELLIPSE
  5
2DD
100
AcDbEntity
  8
ASSI
100
AcDbEllipse
 62
7
  6
CONTINUOUS
 10
2.7868689852
 20
17.0781454721
 30
0.0
 11
0.1999154856
 21
0.0095814127
 31
0.0
 40
0.6067642562
 41
2.850720877
 42
3.8979184282
  0
ELLIPSE
  5
2DE
100
AcDbEntity
  8
ASSI
100
AcDbEllipse
 62
7
  6
CONTINUOUS
 10
-5.1327269641
 20
21.6508209173
 30
0.0
 11
0.1999154856
 21
0.0095814127
 31
0.0
 40
0.6067642562
 41
2.850720877
 42
3.8979184282
  0
ELLIPSE
  5
2DF
100
AcDbEntity
  8
0
100
AcDbEllipse
 62
253
  6
CONTINUOUS
 10
56.0098057255
 20
44.5543994031
 30
0.0
 11
92.440255424
 21
50.5409907356
 31
0.0
 40
0.0226605999
 41
-2.2982681353
 42
-2.273863564
  0
ELLIPSE
  5
2E0
100
AcDbEntity
  8
0
100
AcDbEllipse
 62
253
  6
CONTINUOUS
 10
65.6979713877
 20
38.9605739709
 30
0.0
 11
-67.8498342112
 21
111.7403546097
 31
0.0
 40
0.5620393258
 41
1.4856465272
 42
1.5109827596
  0
ELLIPSE
  5
2E1
100
AcDbEntity
  8
0
100
AcDbEllipse
 62
253
  6
CONTINUOUS
 10
55.5138232145
 20
44.8407734888
 30
0.0
 11
92.4359670693
 21
50.5435019202
 31
0.0
 40
0.0226223446
 41
-2.2950751012
 42
-2.2697282658
  0
ELLIPSE
  5
2E2
100
AcDbEntity
  8
0
100
AcDbEllipse
 62
253
  6
CONTINUOUS
 10
65.2025722438
 20
39.2466112278
 30
0.0
 11
-67.8712413466
 21
111.7483105274
 31
0.0
 40
0.5619613927
 41
1.4897420543
 42
1.5141517263
  0
ENDSEC
  0
SECTION
  2
OBJECTS
  0
DICTIONARY
  5
C
100
AcDbDictionary
280
0
281
1
  3
ACAD_GROUP
350
D
  3
ACAD_MLINESTYLE
350
17
  3
ACAD_LAYOUT
350
1A
  3
ACAD_PLOTSETTINGS
350
19
  3
ACAD_PLOTSTYLENAME
350
E
  0
DICTIONARY
  5
D
102
{ACAD_REACTORS
330
C
102
}
100
AcDbDictionary
280
0
281
1
  0
ACDBDICTIONARYWDFLT
  5
E
102
{ACAD_REACTORS
330
C
102
}
100
AcDbDictionary
281
1
  3
Normal
350
F
100
AcDbDictionaryWithDefault
340
F
  0
DICTIONARY
  5
17
102
{ACAD_REACTORS
330
C
102
}
100
AcDbDictionary
280
0
281
1
  3
Standard
350
18
  0
DICTIONARY
  5
19
102
{ACAD_REACTORS
330
C
102
}
100
AcDbDictionary
281
1
  0
DICTIONARY
  5
1A
102
{ACAD_REACTORS
330
C
102
}
100
AcDbDictionary
281
1
  3
Model
350
2E3
  3
Layout1
350
2E4
  0
ACDBPLACEHOLDER
  5
F
102
{ACAD_REACTORS
330
E
102
}
  0
MLINESTYLE
  5
18
102
{ACAD_REACTORS
330
17
102
}
100
AcDbMlineStyle
  2
STANDARD
 70
0
  3

 62
256
 51
90.0
 52
90.0
 71
2
 49
0.5
 62
256
  6
BYLAYER
 49
-0.5
 62
256
  6
BYLAYER
  0
LAYOUT
  5
2E3
102
{ACAD_REACTORS
330
1A
102
}
100
AcDbPlotSettings
  1

  2
none_device
  4
ISO_A4_(297.00_x_210.00_MM)
  6

 40
0.0
 41
0.0
 42
0.0
 43
0.0
 44
297.0
 45
210.0
 46
0.0
 47
0.0
 48
0.0
 49
0.0
140
0.0
141
0.0
142
1.0
143
1.0
 70
1024
 72
1
 73
0
 74
0
  7

 75
0
147
1.0
148
0.0
149
0.0
100
AcDbLayout
  1
Model
 70
0
 71
0
 10
0.0
 20
0.0
 11
297.0
 21
210.0
 12
0.0
 22
0.0
 32
0.0
 14
0.0
 24
0.0
 34
0.0
 15
0.0
 25
0.0
 35
0.0
146
0.0
 13
0.0
 23
0.0
 33
0.0
 16
1.0
 26
0.0
 36
0.0
 17
0.0
 27
1.0
 37
0.0
 76
0
330
219
345
0
346
0
  0
LAYOUT
  5
2E4
102
{ACAD_REACTORS
330
1A
102
}
100
AcDbPlotSettings
  1

  2
none_device
  4
ISO_A4_(297.00_x_210.00_MM)
  6

 40
0.0
 41
0.0
 42
0.0
 43
0.0
 44
297.0
 45
210.0
 46
0.0
 47
0.0
 48
0.0
 49
0.0
140
0.0
141
0.0
142
1.0
143
1.0
 70
0
 72
1
 73
0
 74
0
  7

 75
0
147
1.0
148
0.0
149
0.0
100
AcDbLayout
  1
Layout1
 70
0
 71
1
 10
0.0
 20
0.0
 11
297.0
 21
210.0
 12
0.0
 22
0.0
 32
0.0
 14
0.0
 24
0.0
 34
0.0
 15
0.0
 25
0.0
 35
0.0
146
0.0
 13
0.0
 23
0.0
 33
0.0
 16
1.0
 26
0.0
 36
0.0
 17
0.0
 27
1.0
 37
0.0
 76
0
330
21A
345
0
346
0
  0
ENDSEC
  0
EOF
