  0
SECTION
  2
HEADER
  9
$ACADVER
  1
AC1021
  9
$DWGCODEPAGE
  3
ANSI_1252
  9
$EXTMAX
 10
297.0
 20
210.0
 30
0.0
  9
$EXTMIN
 10
0.0
 20
0.0
 30
0.0
  9
$LIMMIN
 10
0.0
 20
0.0
  9
$LIMMAX
 10
297.0
 20
210.0
  9
$VIEWCTR
 10
148.5
 20
105.0
  9
$VIEWSIZE
 40
210.0
  9
$CLAYER
  8
0
  9
$LTSCALE
 40
16.335
  9
$CELTYPE
  6
BYLAYER
  9
$DIMSCALE
 40
1.0
  9
$DIMASZ
 40
3.0
  9
$DIMEXO
 40
0.5
  9
$DIMDLI
 40
11.286
  9
$DIMEXE
 40
1.5
  9
$DIMCEN
 40
2.673
  9
$DIMLFAC
 40
1.0
  9
$DIMBLK
  1
_FILLED
  9
$DIMALT
 70
0
  9
$DIMALTF
 40
25.4
  9
$DIMTXT
 40
3.0
  9
$DIMTOL
 70
1
  9
$DIMLIM
 70
0
  9
$DIMTFAC
 40
1.0
  9
$DIMTP
 40
0.01
  9
$DIMTM
 40
0.01
  9
$DIMGAP
 40
0.625
  9
$DIMDSEP
 70
44
  9
$AUNITS
 70
0
  9
$PDMODE
 70
3
  9
$PDSIZE
 40
3.0
  9
$HANDSEED
  5
333
  9
$TILEMODE
 70
1
  9
$MEASUREMENT
 70
1
  9
$INSUNITS
 70
4
  0
ENDSEC
  0
SECTION
  2
CLASSES
  0
CLASS
  1
ACDBDICTIONARYWDFLT
  2
AcDbDictionaryWithDefault
  3
AutoCAD 2000
 90
0
 91
1
280
0
281
0
  0
CLASS
  1
ACDBPLACEHOLDER
  2
AcDbPlaceHolder
  3
AutoCAD 2000
 90
0
 91
1
280
0
281
0
  0
CLASS
  1
LAYOUT
  2
AcDbLayout
  3
AutoCAD 2000
 90
0
 91
0
280
0
281
0
  0
ENDSEC
  0
SECTION
  2
TABLES
  0
TABLE
  2
VPORT
  5
8
100
AcDbSymbolTable
 70
2
  0
VPORT
  5
1F4
100
AcDbSymbolTableRecord
100
AcDbViewportTableRecord
  2
*ACTIVE
 70
0
 10
0.0
 20
0.0
 11
1.0
 21
1.0
 12
148.5
 22
105.0
 13
0.0
 23
0.0
 14
1.0
 24
1.0
 15
0.0
 25
0.0
 16
0.0
 26
0.0
 36
1.0
 17
0.0
 27
0.0
 37
0.0
 40
210.0
 41
1.4142857143
 42
50.0
 43
0.0
 44
0.0
 50
0.0
 51
0.0
 71
0
 72
100
 73
1
 74
1
 75
0
 76
0
 77
0
 78
0
  0
ENDTAB
  0
TABLE
  2
LTYPE
  5
5
100
AcDbSymbolTable
 70
6
  0
LTYPE
  5
14
100
AcDbSymbolTableRecord
100
AcDbLinetypeTableRecord
  2
BYBLOCK
 70
0
  3

 72
65
 73
0
 40
0.0
  0
LTYPE
  5
15
100
AcDbSymbolTableRecord
100
AcDbLinetypeTableRecord
  2
BYLAYER
 70
0
  3

 72
65
 73
0
 40
0.0
  0
LTYPE
  5
16
100
AcDbSymbolTableRecord
100
AcDbLinetypeTableRecord
  2
CONTINUOUS
 70
64
  3
Solid line
 72
65
 73
0
 40
0.0
  0
LTYPE
  5
1F5
100
AcDbSymbolTableRecord
100
AcDbLinetypeTableRecord
  2
CENTER
 70
64
  3
____ _ ____ _ ____ _ ____ _ ____ _ ____ _ ____
 72
65
 73
4
 40
0.6
 49
0.375
 74
0
 49
-0.075
 74
0
 49
0.075
 74
0
 49
-0.075
 74
0
  0
LTYPE
  5
1F6
100
AcDbSymbolTableRecord
100
AcDbLinetypeTableRecord
  2
HIDDEN
 70
64
  3
- - - - - - - - - - - - - - - - - - - -
 72
65
 73
2
 40
0.2
 49
0.1
 74
0
 49
-0.1
 74
0
  0
LTYPE
  5
1F7
100
AcDbSymbolTableRecord
100
AcDbLinetypeTableRecord
  2
PHANTOM
 70
64
  3
_____ _ _ _____ _ _ _____ _ _ _____
 72
65
 73
6
 40
0.8
 49
0.45
 74
0
 49
-0.05
 74
0
 49
0.1
 74
0
 49
-0.05
 74
0
 49
0.1
 74
0
 49
-0.05
 74
0
  0
LTYPE
  5
1F8
100
AcDbSymbolTableRecord
100
AcDbLinetypeTableRecord
  2
DOT
 70
64
  3
. . . . . . . . . . . . . . . . . . . .
 72
65
 73
2
 40
0.2
 49
0.1
 74
0
 49
-0.1
 74
0
  0
LTYPE
  5
1F9
100
AcDbSymbolTableRecord
100
AcDbLinetypeTableRecord
  2
DASHED
 70
64
  3
- - - - - - - - - - - - - - - - - - - -
 72
65
 73
2
 40
0.2
 49
0.1
 74
0
 49
-0.1
 74
0
  0
ENDTAB
  0
TABLE
  2
LAYER
  5
2
100
AcDbSymbolTable
 70
36
  0
LAYER
  5
10
100
AcDbSymbolTableRecord
100
AcDbLayerTableRecord
  2
0
 70
0
 62
7
  6
CONTINUOUS
370
-3
390
F
  0
LAYER
  5
1FA
100
AcDbSymbolTableRecord
100
AcDbLayerTableRecord
  2
DEFAULT_1
 70
0
 62
7
  6
CENTER
370
-3
390
F
  0
LAYER
  5
1FB
100
AcDbSymbolTableRecord
100
AcDbLayerTableRecord
  2
DEFAULT_2
 70
0
 62
7
  6
HIDDEN
370
-3
390
F
  0
LAYER
  5
1FC
100
AcDbSymbolTableRecord
100
AcDbLayerTableRecord
  2
DEFAULT_3
 70
0
 62
7
  6
PHANTOM
370
-3
390
F
  0
LAYER
  5
1FD
100
AcDbSymbolTableRecord
100
AcDbLayerTableRecord
  2
ASSI
 70
0
 62
7
  6
CONTINUOUS
370
-3
390
F
  0
LAYER
  5
1FE
100
AcDbSymbolTableRecord
100
AcDbLayerTableRecord
  2
COLOR9
 70
0
 62
7
  6
CONTINUOUS
370
-3
390
F
  0
LAYER
  5
1FF
100
AcDbSymbolTableRecord
100
AcDbLayerTableRecord
  2
COORDINATE
 70
0
 62
7
  6
CONTINUOUS
370
-3
390
F
  0
LAYER
  5
200
100
AcDbSymbolTableRecord
100
AcDbLayerTableRecord
  2
COORD_ORIGINE
 70
0
 62
7
  6
CONTINUOUS
370
-3
390
F
  0
LAYER
  5
201
100
AcDbSymbolTableRecord
100
AcDbLayerTableRecord
  2
COPY_PUBLISH
 70
0
 62
7
  6
CONTINUOUS
370
-3
390
F
  0
LAYER
  5
202
100
AcDbSymbolTableRecord
100
AcDbLayerTableRecord
  2
COSMETICI
 70
0
 62
7
  6
CONTINUOUS
370
-3
390
F
  0
LAYER
  5
203
100
AcDbSymbolTableRecord
100
AcDbLayerTableRecord
  2
CURVE
 70
0
 62
7
  6
CONTINUOUS
370
-3
390
F
  0
LAYER
  5
204
100
AcDbSymbolTableRecord
100
AcDbLayerTableRecord
  2
DRAFT
 70
0
 62
7
  6
CONTINUOUS
370
-3
390
F
  0
LAYER
  5
205
100
AcDbSymbolTableRecord
100
AcDbLayerTableRecord
  2
IGES
 70
0
 62
7
  6
CONTINUOUS
370
-3
390
F
  0
LAYER
  5
206
100
AcDbSymbolTableRecord
100
AcDbLayerTableRecord
  2
IGS_SCRITTE
 70
0
 62
7
  6
CONTINUOUS
370
-3
390
F
  0
LAYER
  5
207
100
AcDbSymbolTableRecord
100
AcDbLayerTableRecord
  2
IMPORT_IGES
 70
0
 62
7
  6
CONTINUOUS
370
-3
390
F
  0
LAYER
  5
208
100
AcDbSymbolTableRecord
100
AcDbLayerTableRecord
  2
INTF_YELLOW
 70
0
 62
7
  6
CONTINUOUS
370
-3
390
F
  0
LAYER
  5
209
100
AcDbSymbolTableRecord
100
AcDbLayerTableRecord
  2
LIVELLO_1
 70
0
 62
7
  6
CONTINUOUS
370
-3
390
F
  0
LAYER
  5
20A
100
AcDbSymbolTableRecord
100
AcDbLayerTableRecord
  2
NOTE
 70
0
 62
7
  6
CONTINUOUS
370
-3
390
F
  0
LAYER
  5
20B
100
AcDbSymbolTableRecord
100
AcDbLayerTableRecord
  2
PIANI
 70
0
 62
7
  6
CONTINUOUS
370
-3
390
F
  0
LAYER
  5
20C
100
AcDbSymbolTableRecord
100
AcDbLayerTableRecord
  2
PIANI_ORIGINE
 70
0
 62
7
  6
CONTINUOUS
370
-3
390
F
  0
LAYER
  5
20D
100
AcDbSymbolTableRecord
100
AcDbLayerTableRecord
  2
PIANI_RIFERIMENTO
 70
0
 62
7
  6
CONTINUOUS
370
-3
390
F
  0
LAYER
  5
20E
100
AcDbSymbolTableRecord
100
AcDbLayerTableRecord
  2
PUNTI
 70
0
 62
7
  6
CONTINUOUS
370
-3
390
F
  0
LAYER
  5
20F
100
AcDbSymbolTableRecord
100
AcDbLayerTableRecord
  2
RACCORDO
 70
0
 62
7
  6
CONTINUOUS
370
-3
390
F
  0
LAYER
  5
210
100
AcDbSymbolTableRecord
100
AcDbLayerTableRecord
  2
SIMBOLI
 70
0
 62
7
  6
CONTINUOUS
370
-3
390
F
  0
LAYER
  5
211
100
AcDbSymbolTableRecord
100
AcDbLayerTableRecord
  2
SMUSSO
 70
0
 62
7
  6
CONTINUOUS
370
-3
390
F
  0
LAYER
  5
212
100
AcDbSymbolTableRecord
100
AcDbLayerTableRecord
  2
SNAPLINE
 70
0
 62
7
  6
CONTINUOUS
370
-3
390
F
  0
LAYER
  5
213
100
AcDbSymbolTableRecord
100
AcDbLayerTableRecord
  2
SOLIDO
 70
0
 62
7
  6
CONTINUOUS
370
-3
390
F
  0
LAYER
  5
214
100
AcDbSymbolTableRecord
100
AcDbLayerTableRecord
  2
SUPERFICI
 70
0
 62
7
  6
CONTINUOUS
370
-3
390
F
  0
LAYER
  5
215
100
AcDbSymbolTableRecord
100
AcDbLayerTableRecord
  2
TRASH
 70
0
 62
7
  6
CONTINUOUS
370
-3
390
F
  0
LAYER
  5
216
100
AcDbSymbolTableRecord
100
AcDbLayerTableRecord
  2
WHITE
 70
0
 62
7
  6
CONTINUOUS
370
-3
390
F
  0
ENDTAB
  0
TABLE
  2
STYLE
  5
3
100
AcDbSymbolTable
 70
1
  0
STYLE
  5
11
100
AcDbSymbolTableRecord
100
AcDbTextStyleTableRecord
  2
STANDARD
 70
0
 40
0.0
 41
0.8
 50
0.0
 71
0
 42
0.2
  3
txt
  4

  0
STYLE
  5
217
100
AcDbSymbolTableRecord
100
AcDbTextStyleTableRecord
  2
TEXTSTYLE_1
 70
0
 40
0.0
 41
0.8
 50
0.0
 71
0
 42
0.2
  3
gdt
  4

  0
ENDTAB
  0
TABLE
  2
VIEW
  5
6
100
AcDbSymbolTable
 70
0
  0
ENDTAB
  0
TABLE
  2
UCS
  5
7
100
AcDbSymbolTable
 70
0
  0
ENDTAB
  0
TABLE
  2
APPID
  5
9
100
AcDbSymbolTable
 70
1
  0
APPID
  5
218
100
AcDbSymbolTableRecord
100
AcDbRegAppTableRecord
  2
ACAD
 70
0
  0
ENDTAB
  0
TABLE
  2
BLOCK_RECORD
  5
1
100
AcDbSymbolTable
 70
0
  0
BLOCK_RECORD
  5
219
100
AcDbSymbolTableRecord
100
AcDbBlockTableRecord
  2
*Model_Space
  0
BLOCK_RECORD
  5
21A
100
AcDbSymbolTableRecord
100
AcDbBlockTableRecord
  2
*Paper_Space
  0
ENDTAB
  0
TABLE
  2
DIMSTYLE
  5
A
100
AcDbSymbolTable
 70
1
100
AcDbDimStyleTable
 71
0
  0
DIMSTYLE
105
21B
100
AcDbSymbolTableRecord
100
AcDbDimStyleTableRecord
  2
STANDARD
 70
0
  3

  4

 40
1.0
 41
3.0
 42
0.5
 43
0.38
 44
1.5
 45
0.0
 46
0.0
 47
0.01
 48
0.01
140
3.0
141
0.09
142
0.0
143
25.4
144
1.0
145
0.0
146
1.0
147
0.625
 71
1.0
 72
0.0
 73
0
 74
0
 75
0
 76
0
 77
1
 78
8
170
0
171
1
172
0
173
0
174
0
175
0
176
0
177
0
178
0
270
2
271
2
272
2
273
2
274
2
275
0
280
0
281
0
282
0
283
1
284
8
285
0
286
0
287
3
288
0
340
11
278
44
  0
ENDTAB
  0
ENDSEC
  0
SECTION
  2
BLOCKS
  0
BLOCK
  5
20
100
AcDbEntity
  8
0
100
AcDbBlockBegin
  2
*Model_Space
 70
0
 10
0.0
 20
0.0
 30
0.0
  3
*Model_Space
  1

  0
ENDBLK
  5
21
100
AcDbEntity
  8
0
100
AcDbBlockEnd
  0
BLOCK
  5
1C
100
AcDbEntity
  8
0
100
AcDbBlockBegin
  2
*Paper_Space
 70
0
 10
0.0
 20
0.0
 30
0.0
  3
*Paper_Space
  1

  0
ENDBLK
  5
1D
100
AcDbEntity
  8
0
100
AcDbBlockEnd
  0
ENDSEC
  0
SECTION
  2
ENTITIES
  0
LWPOLYLINE
  5
21C
100
AcDbEntity
  8
ASSI
100
AcDbPolyline
 62
7
  6
CONTINUOUS
 90
13
 70
0
 10
-9.305409832
 20
21.783684117
 10
-9.356105346
 20
21.7468154345
 10
-9.4308401515
 20
21.6833969274
 10
-9.5000271571
 20
21.6137603496
 10
-9.5639891983
 20
21.538253316
 10
-9.6225821334
 20
21.457432234
 10
-9.6751506249
 20
21.3725174735
 10
-9.7215544586
 20
21.2839517016
 10
-9.7615352691
 20
21.1921013961
 10
-9.7944038192
 20
21.0982374698
 10
-9.8197989586
 20
21.002865425
 10
-9.8373448108
 20
20.9058971555
 10
-9.8402038184
 20
20.8833662183
  0
LINE
  5
21D
100
AcDbEntity
  8
ASSI
100
AcDbLine
 62
7
  6
CONTINUOUS
 10
-9.3056852768
 20
21.7834967284
 11
-7.3230611884
 21
23.1353989864
  0
LINE
  5
21E
100
AcDbEntity
  8
ASSI
100
AcDbLine
 62
253
  6
CONTINUOUS
 10
-9.0425043313
 20
21.7673859722
 11
-7.0724672387
 21
23.1107054696
  0
LWPOLYLINE
  5
21F
100
AcDbEntity
  8
ASSI
100
AcDbPolyline
 62
253
  6
CONTINUOUS
 90
30
 70
0
 10
-9.3054098372
 20
21.7836841247
 10
-9.3024332318
 20
21.7856566627
 10
-9.2954095957
 20
21.7899480424
 10
-9.2881568544
 20
21.7938852625
 10
-9.2806811302
 20
21.7974649995
 10
-9.2729887334
 20
21.8006842315
 10
-9.2650861576
 20
21.8035402413
 10
-9.2569800736
 20
21.8060306178
 10
-9.2486773239
 20
21.8081532589
 10
-9.2401849172
 20
21.8099063728
 10
-9.2315100223
 20
21.8112884796
 10
-9.2226599619
 20
21.8122984127
 10
-9.2136422066
 20
21.8129353195
 10
-9.2044643687
 20
21.8131986624
 10
-9.1951341954
 20
21.813088219
 10
-9.1856595626
 20
21.8126040827
 10
-9.1760484683
 20
21.8117466621
 10
-9.1663090254
 20
21.810516681
 10
-9.1564494554
 20
21.8089151776
 10
-9.146478081
 20
21.8069435039
 10
-9.1364033194
 20
21.8046033241
 10
-9.126233675
 20
21.8018966137
 10
-9.1159777325
 20
21.7988256576
 10
-9.1056441491
 20
21.795393048
 10
-9.0952416478
 20
21.7916016825
 10
-9.0847790098
 20
21.7874547615
 10
-9.0742650668
 20
21.7829557856
 10
-9.063708694
 20
21.7781085525
 10
-9.0531188024
 20
21.772917154
 10
-9.0425043313
 20
21.7673859722
  0
LWPOLYLINE
  5
220
100
AcDbEntity
  8
ASSI
100
AcDbPolyline
 62
7
  6
CONTINUOUS
 90
11
 70
0
 10
5.3659234523
 20
-22.8661691325
 10
5.4306240148
 20
-22.899155342
 10
5.4979453716
 20
-22.9249050054
 10
5.567699748
 20
-22.9435048956
 10
5.6401656183
 20
-22.9549511546
 10
5.714774069
 20
-22.9589367793
 10
5.7907369368
 20
-22.9552414088
 10
5.8682748728
 20
-22.9435935435
 10
5.9471580513
 20
-22.9235973562
 10
6.0265139361
 20
-22.8950371269
 10
6.072351834
 20
-22.874556474
  0
LINE
  5
221
100
AcDbEntity
  8
ASSI
100
AcDbLine
 62
7
  6
CONTINUOUS
 10
-9.4974369802
 20
-14.2842525139
 11
5.3667072453
 21
-22.8666230982
  0
LINE
  5
222
100
AcDbEntity
  8
ASSI
100
AcDbLine
 62
7
  6
CONTINUOUS
 10
5.3659218899
 20
-22.8661682655
 11
5.3667072719
 21
-22.8666231136
  0
LINE
  5
223
100
AcDbEntity
  8
ASSI
100
AcDbLine
 62
253
  6
CONTINUOUS
 10
-9.4974369802
 20
-14.2842525139
 11
-9.5029971957
 21
-14.2809672973
  0
LWPOLYLINE
  5
224
100
AcDbEntity
  8
ASSI
100
AcDbPolyline
 62
253
  6
CONTINUOUS
 90
27
 70
0
 10
-9.5029971957
 20
-14.2809672973
 10
-9.5145143361
 20
-14.2736689206
 10
-9.5257383902
 20
-14.2658743459
 10
-9.5366627763
 20
-14.2575881429
 10
-9.5472810877
 20
-14.2488151611
 10
-9.5575874375
 20
-14.2395603279
 10
-9.5675757966
 20
-14.2298290345
 10
-9.577240291
 20
-14.2196269674
 10
-9.5865755462
 20
-14.208959904
 10
-9.5955760974
 20
-14.197834051
 10
-9.6042366576
 20
-14.1862558871
 10
-9.6125524139
 20
-14.1742319923
 10
-9.620518501
 20
-14.1617693482
 10
-9.6281302385
 20
-14.1488751987
 10
-9.6353833981
 20
-14.1355568935
 10
-9.6422737337
 20
-14.1218221652
 10
-9.6487972018
 20
-14.1076789737
 10
-9.6549501938
 20
-14.0931353632
 10
-9.6607291233
 20
-14.0781997191
 10
-9.666130577
 20
-14.0628807249
 10
-9.6711515369
 20
-14.047187208
 10
-9.675789061
 20
-14.0311282985
 10
-9.6800404386
 20
-14.0147132438
 10
-9.6839033325
 20
-13.9979513572
 10
-9.6873755246
 20
-13.9808522631
 10
-9.6904549247
 20
-13.9634258989
 10
-9.6931397244
 20
-13.9456823286
  0
LINE
  5
225
100
AcDbEntity
  8
ASSI
100
AcDbLine
 62
253
  6
CONTINUOUS
 10
-9.6931397244
 20
-13.9456823286
 11
5.1640488812
 21
-22.5240368252
  0
LWPOLYLINE
  5
226
100
AcDbEntity
  8
ASSI
100
AcDbPolyline
 62
7
  6
CONTINUOUS
 90
6
 70
0
 10
-9.7380217994
 20
-14.0455472668
 10
-9.6931474654
 20
-14.1118151663
 10
-9.6417203744
 20
-14.1715426004
 10
-9.5842621408
 20
-14.2243303296
 10
-9.5219392624
 20
-14.2693789684
 10
-9.4963390756
 20
-14.2848835379
  0
LWPOLYLINE
  5
227
100
AcDbEntity
  8
ASSI
100
AcDbPolyline
 62
7
  6
CONTINUOUS
 90
10
 70
0
 10
-9.840156004
 20
20.8837817955
 10
-9.9613107599
 20
19.7998548428
 10
-10.0768739664
 20
18.6574200689
 10
-10.1792715853
 20
17.5211188471
 10
-10.2684791814
 20
16.3911959032
 10
-10.3444752279
 20
15.2678928065
 10
-10.4072410322
 20
14.1514475036
 10
-10.4567604426
 20
13.0420985154
 10
-10.4930199606
 20
11.9400849032
 10
-10.5149869313
 20
10.9121755335
  0
LWPOLYLINE
  5
228
100
AcDbEntity
  8
ASSI
100
AcDbPolyline
 62
253
  6
CONTINUOUS
 90
58
 70
0
 10
-9.6931397244
 20
20.6847353209
 10
-9.6904549247
 20
20.7056895641
 10
-9.6873755246
 20
20.7267983046
 10
-9.6839033326
 20
20.7480493902
 10
-9.6800404386
 20
20.7694305685
 10
-9.675789061
 20
20.7909295548
 10
-9.6711515369
 20
20.8125340417
 10
-9.666130577
 20
20.8342316824
 10
-9.6607291233
 20
20.8560099186
 10
-9.6549501938
 20
20.8778560501
 10
-9.6487972018
 20
20.899757476
 10
-9.6422737337
 20
20.921701645
 10
-9.6353833981
 20
20.9436758867
 10
-9.6281302385
 20
20.9656675983
 10
-9.620518501
 20
20.9876641174
 10
-9.6125524139
 20
21.009652671
 10
-9.6042366576
 20
21.0316206345
 10
-9.5955760974
 20
21.0535553839
 10
-9.5865755462
 20
21.0754441676
 10
-9.577240291
 20
21.0972744256
 10
-9.5675757966
 20
21.1190336168
 10
-9.5575874375
 20
21.1407090716
 10
-9.5472810877
 20
21.1622883428
 10
-9.5366627763
 20
21.1837590546
 10
-9.5257383902
 20
21.2051087294
 10
-9.5145143361
 20
21.2263251409
 10
-9.5029971957
 20
21.2473960974
 10
-9.491193381
 20
21.2683092911
 10
-9.4791098307
 20
21.2890527249
 10
-9.4667536185
 20
21.3096145123
 10
-9.4541316057
 20
21.3299826602
 10
-9.4412511967
 20
21.3501455112
 10
-9.4281199467
 20
21.370091495
 10
-9.4147451709
 20
21.3898089289
 10
-9.4011347339
 20
21.4092865091
 10
-9.3872966043
 20
21.4285130916
 10
-9.3732384621
 20
21.4474774418
 10
-9.3589685528
 20
21.4661687183
 10
-9.3444952512
 20
21.4845762068
 10
-9.3298266172
 20
21.5026891016
 10
-9.3149712639
 20
21.5204970436
 10
-9.2999379028
 20
21.537989844
 10
-9.2847349069
 20
21.5551572195
 10
-9.2693712027
 20
21.5719893604
 10
-9.2538558022
 20
21.5884766434
 10
-9.238197349
 20
21.6046093569
 10
-9.2224050508
 20
21.6203782747
 10
-9.206488159
 20
21.6357744074
 10
-9.1904555006
 20
21.650788713
 10
-9.1743164573
 20
21.6654126567
 10
-9.1580805283
 20
21.6796378599
 10
-9.1417568114
 20
21.6934558575
 10
-9.125354939
 20
21.7068587338
 10
-9.1088844887
 20
21.7198389034
 10
-9.0923545451
 20
21.7323887544
 10
-9.0757746154
 20
21.7445010655
 10
-9.0591546257
 20
21.7561690171
 10
-9.0425043313
 20
21.7673859722
  0
LINE
  5
229
100
AcDbEntity
  8
ASSI
100
AcDbLine
 62
7
  6
CONTINUOUS
 10
-5.0806689847
 20
21.9606661208
 11
-5.2609202341
 21
21.546445962
  0
LWPOLYLINE
  5
22A
100
AcDbEntity
  8
0
100
AcDbPolyline
 62
253
  6
CONTINUOUS
 90
55
 70
0
 10
-4.254223147
 20
11.5433128741
 10
-4.2499967931
 20
11.545612701
 10
-4.245694675
 20
11.547672743
 10
-4.2413078532
 20
11.549502322
 10
-4.2368273882
 20
11.5511107599
 10
-4.2322443407
 20
11.5525073787
 10
-4.2275513642
 20
11.5536993115
 10
-4.2227474842
 20
11.5546849376
 10
-4.2178333191
 20
11.555460447
 10
-4.2128094874
 20
11.5560220304
 10
-4.2076766075
 20
11.5563658779
 10
-4.2024363804
 20
11.556488096
 10
-4.1970948379
 20
11.5563844548
 10
-4.1916590944
 20
11.5560506405
 10
-4.1861362645
 20
11.555482339
 10
-4.1805334624
 20
11.5546752366
 10
-4.1758105044
 20
11.5538180418
 10
-4.1710530734
 20
11.5527950416
 10
-4.1662772917
 20
11.5516092603
 10
-4.161494891
 20
11.5502624136
 10
-4.156700039
 20
11.5487509816
 10
-4.1518825125
 20
11.5470701358
 10
-4.1470349867
 20
11.5452158242
 10
-4.1421617309
 20
11.5431871025
 10
-4.1372699129
 20
11.5409838031
 10
-4.1323667005
 20
11.5386057582
 10
-4.1274592616
 20
11.5360528002
 10
-4.1225547639
 20
11.5333247615
 10
-4.1176602719
 20
11.5304227986
 10
-4.1127824374
 20
11.5273533651
 10
-4.1079278088
 20
11.5241242386
 10
-4.1031029344
 20
11.5207431968
 10
-4.0983143627
 20
11.5172180175
 10
-4.0935686421
 20
11.5135564784
 10
-4.0888695606
 20
11.5097638998
 10
-4.0842098648
 20
11.505835773
 10
-4.0795795408
 20
11.5017651322
 10
-4.0749728809
 20
11.4975487305
 10
-4.0704014018
 20
11.4931981988
 10
-4.0658809267
 20
11.488728887
 10
-4.0605424534
 20
11.4832281221
 10
-4.0553065105
 20
11.4775904596
 10
-4.0501793976
 20
11.4718279411
 10
-4.0451674143
 20
11.4659526082
 10
-4.0402768602
 20
11.4599765025
 10
-4.0355130106
 20
11.4539103482
 10
-4.0308770434
 20
11.4477596003
 10
-4.0263691123
 20
11.4415283963
 10
-4.0219893706
 20
11.4352208738
 10
-4.0177379721
 20
11.4288411704
 10
-4.0136138656
 20
11.4223895734
 10
-4.0096111808
 20
11.4158509697
 10
-4.0057228431
 20
11.4092063961
 10
-4.0019417774
 20
11.4024368892
 10
-3.9982609088
 20
11.3955234858
  0
LWPOLYLINE
  5
22B
100
AcDbEntity
  8
0
100
AcDbPolyline
 62
253
  6
CONTINUOUS
 90
29
 70
0
 10
-1.6529380023
 20
-13.131655203
 10
-1.6563028006
 20
-13.1296776467
 10
-1.6596646905
 20
-13.127632673
 10
-1.6630240813
 20
-13.1255206921
 10
-1.6663813825
 20
-13.1233421143
 10
-1.6697370038
 20
-13.1210973498
 10
-1.6730913547
 20
-13.1187868088
 10
-1.6764448446
 20
-13.1164109016
 10
-1.6797975879
 20
-13.1139701363
 10
-1.6831485179
 20
-13.111465413
 10
-1.6864962729
 20
-13.1088977298
 10
-1.6898394911
 20
-13.1062680846
 10
-1.6931768107
 20
-13.1035774755
 10
-1.6965068698
 20
-13.1008269005
 10
-1.6998283067
 20
-13.0980173577
 10
-1.7031397606
 20
-13.0951498332
 10
-1.7064398746
 20
-13.0922252656
 10
-1.7097272929
 20
-13.0892445817
 10
-1.7130006598
 20
-13.0862087084
 10
-1.7162586193
 20
-13.0831185723
 10
-1.7194998157
 20
-13.0799751002
 10
-1.7227228931
 20
-13.0767792189
 10
-1.7259267079
 20
-13.0735315121
 10
-1.729110965
 20
-13.0702311905
 10
-1.7322755814
 20
-13.0668771219
 10
-1.7354204742
 20
-13.0634681741
 10
-1.7385455605
 20
-13.0600032148
 10
-1.7416507573
 20
-13.0564811117
 10
-1.7447359816
 20
-13.0529007325
  0
LWPOLYLINE
  5
22C
100
AcDbEntity
  8
0
100
AcDbPolyline
 62
253
  6
CONTINUOUS
 90
44
 70
0
 10
-4.0079862987
 20
-11.7718798323
 10
-4.0119349023
 20
-11.7695443074
 10
-4.0158534738
 20
-11.76711664
 10
-4.0197465383
 20
-11.7645969459
 10
-4.0236186205
 20
-11.7619853411
 10
-4.0274742454
 20
-11.7592819414
 10
-4.0313179378
 20
-11.7564868625
 10
-4.0351542227
 20
-11.7536002203
 10
-4.0389876249
 20
-11.7506221307
 10
-4.043369666
 20
-11.7471068257
 10
-4.0477530185
 20
-11.743472727
 10
-4.0521368486
 20
-11.7397203311
 10
-4.0565203229
 20
-11.7358501345
 10
-4.0609026076
 20
-11.7318626337
 10
-4.0652828692
 20
-11.7277583252
 10
-4.0696602741
 20
-11.7235377056
 10
-4.0740330364
 20
-11.7192022772
 10
-4.078395562
 20
-11.7147575656
 10
-4.0827413042
 20
-11.7102101021
 10
-4.0870637166
 20
-11.7055664181
 10
-4.0913562528
 20
-11.7008330449
 10
-4.0956123662
 20
-11.696016514
 10
-4.0998255105
 20
-11.6911233567
 10
-4.1039892867
 20
-11.6861603476
 10
-4.1080978872
 20
-11.6811352336
 10
-4.112145652
 20
-11.6760560049
 10
-4.1161269211
 20
-11.6709306518
 10
-4.1200360344
 20
-11.6657671644
 10
-4.123867332
 20
-11.6605735328
 10
-4.1276151538
 20
-11.6553577474
 10
-4.1312747534
 20
-11.6501266084
 10
-4.134845038
 20
-11.6448821575
 10
-4.1383258285
 20
-11.6396252461
 10
-4.1417169457
 20
-11.6343567261
 10
-4.1450182105
 20
-11.6290774492
 10
-4.1482294436
 20
-11.6237882669
 10
-4.151350466
 20
-11.6184900311
 10
-4.1543812851
 20
-11.6131819913
 10
-4.1573226555
 20
-11.6078569887
 10
-4.1601755183
 20
-11.6025062624
 10
-4.1629408148
 20
-11.5971210516
 10
-4.1656194862
 20
-11.5916925953
 10
-4.1682124736
 20
-11.5862121327
 10
-4.1707207183
 20
-11.5806709028
  0
LWPOLYLINE
  5
22D
100
AcDbEntity
  8
0
100
AcDbPolyline
 62
253
  6
CONTINUOUS
 90
55
 70
0
 10
-2.781977224
 20
-13.2090210632
 10
-2.7874450621
 20
-13.2057709498
 10
-2.792876965
 20
-13.2023572431
 10
-2.7982867059
 20
-13.1987746348
 10
-2.8036880576
 20
-13.1950178163
 10
-2.809094793
 20
-13.1910814795
 10
-2.8145179792
 20
-13.1869610553
 10
-2.8199578594
 20
-13.1826549315
 10
-2.8254119705
 20
-13.1781622357
 10
-2.83087785
 20
-13.1734820951
 10
-2.8363530348
 20
-13.168613637
 10
-2.8418339008
 20
-13.1635570128
 10
-2.8473121778
 20
-13.1583164697
 10
-2.8527784343
 20
-13.1528972793
 10
-2.8582232387
 20
-13.1473047127
 10
-2.8636371596
 20
-13.1415440413
 10
-2.8681167336
 20
-13.1366211645
 10
-2.8725530686
 20
-13.131602017
 10
-2.8769309225
 20
-13.126503407
 10
-2.8812389746
 20
-13.1213373682
 10
-2.8854815907
 20
-13.1160968368
 10
-2.8896670582
 20
-13.1107699748
 10
-2.8938010231
 20
-13.105348075
 10
-2.8978785663
 20
-13.0998349532
 10
-2.9018921274
 20
-13.0942375562
 10
-2.905834146
 20
-13.0885628308
 10
-2.9096970614
 20
-13.0828177238
 10
-2.9134733134
 20
-13.0770091818
 10
-2.9171560895
 20
-13.0711445377
 10
-2.9207415692
 20
-13.065232668
 10
-2.9242266804
 20
-13.0592828352
 10
-2.9276083507
 20
-13.0533043019
 10
-2.9308835078
 20
-13.0473063307
 10
-2.9340490794
 20
-13.041298184
 10
-2.9371036749
 20
-13.0352855082
 10
-2.9400526315
 20
-13.0292594847
 10
-2.9429029677
 20
-13.0232076785
 10
-2.9456590118
 20
-13.0171232797
 10
-2.948314329
 20
-13.011021978
 10
-2.9508597938
 20
-13.0049250883
 10
-2.953758994
 20
-12.9976403038
 10
-2.9564860752
 20
-12.9904032877
 10
-2.9590402465
 20
-12.9832247622
 10
-2.961420717
 20
-12.9761154493
 10
-2.9636266959
 20
-12.9690860711
 10
-2.9656578272
 20
-12.9621458398
 10
-2.9675154949
 20
-12.9552979278
 10
-2.9692015176
 20
-12.9485439972
 10
-2.9707177143
 20
-12.9418857105
 10
-2.9720659036
 20
-12.93532473
 10
-2.9732473005
 20
-12.9288601096
 10
-2.9742607044
 20
-12.9224804696
 10
-2.9751043108
 20
-12.9161718216
 10
-2.9757763151
 20
-12.9099201777
 10
-2.9762749128
 20
-12.9037115494
  0
LWPOLYLINE
  5
22E
100
AcDbEntity
  8
0
100
AcDbPolyline
 62
253
  6
CONTINUOUS
 90
55
 70
0
 10
-2.8340915065
 20
-12.3905384429
 10
-2.8286120099
 20
-12.3937966376
 10
-2.8231707221
 20
-12.3972197701
 10
-2.8177538362
 20
-12.4008131048
 10
-2.8123475451
 20
-12.4045819059
 10
-2.8069380418
 20
-12.4085314381
 10
-2.8015142305
 20
-12.4126662329
 10
-2.7960758602
 20
-12.416987891
 10
-2.7906253912
 20
-12.4214972804
 10
-2.7851652836
 20
-12.4261952689
 10
-2.7796979979
 20
-12.4310827244
 10
-2.7742271522
 20
-12.4361594846
 10
-2.7687609971
 20
-12.4414212659
 10
-2.7633089414
 20
-12.4468627543
 10
-2.7578803935
 20
-12.4524786358
 10
-2.7524847621
 20
-12.4582635967
 10
-2.7480219555
 20
-12.463207414
 10
-2.7436037094
 20
-12.4682480375
 10
-2.7392451915
 20
-12.4733685474
 10
-2.7349576665
 20
-12.4785568178
 10
-2.7307367848
 20
-12.4838198973
 10
-2.7265742938
 20
-12.4891696285
 10
-2.7224645618
 20
-12.4946147188
 10
-2.7184124419
 20
-12.5001513348
 10
-2.7144254085
 20
-12.5057725082
 10
-2.7105109359
 20
-12.5114712707
 10
-2.7066764986
 20
-12.5172406537
 10
-2.7029295708
 20
-12.5230736889
 10
-2.6992768792
 20
-12.5289630125
 10
-2.6957221593
 20
-12.5348996786
 10
-2.6922683992
 20
-12.5408743462
 10
-2.6889185866
 20
-12.5468776739
 10
-2.6856757096
 20
-12.5529003205
 10
-2.6825427558
 20
-12.5589329449
 10
-2.6795210522
 20
-12.5649698371
 10
-2.6766052808
 20
-12.5710198128
 10
-2.6737884624
 20
-12.5770953188
 10
-2.6710662757
 20
-12.5832031617
 10
-2.6684450306
 20
-12.5893275864
 10
-2.6659336948
 20
-12.5954471976
 10
-2.6630753326
 20
-12.6027586177
 10
-2.6603888555
 20
-12.6100215173
 10
-2.6578749657
 20
-12.6172251169
 10
-2.6555343658
 20
-12.624358637
 10
-2.6533677579
 20
-12.631411298
 10
-2.651375421
 20
-12.6383738387
 10
-2.649555939
 20
-12.6452430714
 10
-2.6479074721
 20
-12.6520173266
 10
-2.6464281807
 20
-12.658694935
 10
-2.645116225
 20
-12.665274227
 10
-2.6439703836
 20
-12.6717561507
 10
-2.6429919076
 20
-12.6781521239
 10
-2.6421826665
 20
-12.6844761817
 10
-2.6415445297
 20
-12.6907423594
 10
-2.6410793665
 20
-12.6969646922
  0
LINE
  5
22F
100
AcDbEntity
  8
ASSI
100
AcDbLine
 62
253
  6
CONTINUOUS
 10
-10.2194779043
 20
-8.6191401997
 11
-10.2595049865
 21
-7.934446628
  0
LWPOLYLINE
  5
230
100
AcDbEntity
  8
ASSI
100
AcDbPolyline
 62
253
  6
CONTINUOUS
 90
28
 70
0
 10
-10.5149297708
 20
-4.6035140684
 10
-10.514478121
 20
-4.6118766696
 10
-10.5136224716
 20
-4.62022409
 10
-10.5123635148
 20
-4.6285495771
 10
-10.5107022689
 20
-4.6368463963
 10
-10.5086400779
 20
-4.6451078359
 10
-10.5061786098
 20
-4.6533272133
 10
-10.5033198557
 20
-4.6614978795
 10
-10.5000661283
 20
-4.6696132251
 10
-10.4964200595
 20
-4.6776666854
 10
-10.4923845986
 20
-4.6856517459
 10
-10.4879630101
 20
-4.6935619471
 10
-10.4831588708
 20
-4.7013908904
 10
-10.4779760666
 20
-4.7091322428
 10
-10.4724187902
 20
-4.7167797421
 10
-10.466491537
 20
-4.724327202
 10
-10.4601991016
 20
-4.7317685174
 10
-10.4535465741
 20
-4.7390976686
 10
-10.446539336
 20
-4.746308727
 10
-10.4391830555
 20
-4.7533958595
 10
-10.4314836832
 20
-4.760353333
 10
-10.4234474475
 20
-4.7671755196
 10
-10.4150808489
 20
-4.7738569006
 10
-10.4063906554
 20
-4.7803920712
 10
-10.3973838966
 20
-4.7867757451
 10
-10.3880678585
 20
-4.7930027583
 10
-10.3784500768
 20
-4.7990680737
 10
-10.3685383317
 20
-4.8049667849
  0
LINE
  5
231
100
AcDbEntity
  8
ASSI
100
AcDbLine
 62
253
  6
CONTINUOUS
 10
-10.2595049865
 20
-7.934446628
 11
-10.2937908903
 21
-7.2457697795
  0
LINE
  5
232
100
AcDbEntity
  8
ASSI
100
AcDbLine
 62
253
  6
CONTINUOUS
 10
-10.2937908903
 20
-7.2457697795
 11
-10.3223324164
 21
-6.5531741409
  0
LINE
  5
233
100
AcDbEntity
  8
ASSI
100
AcDbLine
 62
253
  6
CONTINUOUS
 10
-10.3223324164
 20
-6.5531741409
 11
-10.3451268741
 21
-5.8567245728
  0
LINE
  5
234
100
AcDbEntity
  8
ASSI
100
AcDbLine
 62
253
  6
CONTINUOUS
 10
-10.3451268741
 20
-5.8567245728
 11
-10.3621721669
 21
-5.1564862411
  0
LWPOLYLINE
  5
235
100
AcDbEntity
  8
ASSI
100
AcDbPolyline
 62
7
  6
CONTINUOUS
 90
10
 70
0
 10
-10.5149844514
 20
-4.6011290798
 10
-10.4928540605
 20
-5.6077742461
 10
-10.4564962247
 20
-6.665683278
 10
-10.4068554349
 20
-7.7147428972
 10
-10.3439394021
 20
-8.7547266692
 10
-10.2677584096
 20
-9.7854131433
 10
-10.1783250666
 20
-10.8065862903
 10
-10.0756547954
 20
-11.8180287418
 10
-9.9597660486
 20
-12.8195218032
 10
-9.8389316187
 20
-13.7506748689
  0
LINE
  5
236
100
AcDbEntity
  8
ASSI
100
AcDbLine
 62
253
  6
CONTINUOUS
 10
-10.3621721669
 20
-5.1564862411
 11
-10.3809548964
 21
-3.9869829875
  0
LWPOLYLINE
  5
237
100
AcDbEntity
  8
ASSI
100
AcDbPolyline
 62
253
  6
CONTINUOUS
 90
4
 70
0
 10
-10.5764729375
 20
3.4418718472
 10
-10.5763967879
 20
3.4367466135
 10
-10.5759463698
 20
3.4285777635
 10
-10.5750919144
 20
3.420418498
  0
LWPOLYLINE
  5
238
100
AcDbEntity
  8
ASSI
100
AcDbPolyline
 62
253
  6
CONTINUOUS
 90
24
 70
0
 10
-10.4300260141
 20
3.2381981592
 10
-10.4299242944
 20
3.231169148
 10
-10.4296094915
 20
3.224271521
 10
-10.4290819849
 20
3.2175135971
 10
-10.4283424111
 20
3.2109035269
 10
-10.4273916619
 20
3.2044492826
 10
-10.426230884
 20
3.1981586486
 10
-10.4248614774
 20
3.1920392119
 10
-10.4232850937
 20
3.1860983529
 10
-10.4215036342
 20
3.1803432367
 10
-10.4195192473
 20
3.1747808045
 10
-10.4173343265
 20
3.169417765
 10
-10.414951507
 20
3.1642605863
 10
-10.4123736625
 20
3.1593154885
 10
-10.4096039021
 20
3.1545884358
 10
-10.4066455665
 20
3.1500851292
 10
-10.4035022235
 20
3.1458110001
 10
-10.4001776642
 20
3.1417712034
 10
-10.3966758985
 20
3.1379706115
 10
-10.3930011495
 20
3.1344138081
 10
-10.3891578494
 20
3.131105083
 10
-10.3851506335
 20
3.1280484268
 10
-10.3809843347
 20
3.125247526
 10
-10.3785463747
 20
3.1237703089
  0
LINE
  5
239
100
AcDbEntity
  8
ASSI
100
AcDbLine
 62
7
  6
CONTINUOUS
 10
-10.537952307
 20
-3.0013425094
 11
-10.5149844472
 21
-4.6011293466
  0
LINE
  5
23A
100
AcDbEntity
  8
ASSI
100
AcDbLine
 62
253
  6
CONTINUOUS
 10
-10.3809548964
 20
-3.9869829875
 11
-10.40159966
 21
-2.3483528684
  0
LINE
  5
23B
100
AcDbEntity
  8
ASSI
100
AcDbLine
 62
7
  6
CONTINUOUS
 10
-10.5561918063
 20
-1.3327211518
 11
-10.537952307
 21
-3.0013425094
  0
LINE
  5
23C
100
AcDbEntity
  8
ASSI
100
AcDbLine
 62
253
  6
CONTINUOUS
 10
-10.40159966
 20
-2.3483528684
 11
-10.4166598528
 21
-0.7062003408
  0
LWPOLYLINE
  5
23D
100
AcDbEntity
  8
ASSI
100
AcDbPolyline
 62
253
  6
CONTINUOUS
 90
29
 70
0
 10
-10.5149869313
 20
10.9121755335
 10
-10.5149297707
 20
10.9046910472
 10
-10.5144781209
 20
10.8966416264
 10
-10.5136224715
 20
10.8885984107
 10
-10.5123635147
 20
10.8805679065
 10
-10.5107022688
 20
10.8725566098
 10
-10.5086400778
 20
10.864571001
 10
-10.5061786097
 20
10.85661754
 10
-10.5033198557
 20
10.8487026606
 10
-10.5000661282
 20
10.8408327651
 10
-10.4964200594
 20
10.8330142197
 10
-10.4923845985
 20
10.8252533491
 10
-10.4879630101
 20
10.8175564312
 10
-10.4831588707
 20
10.8099296921
 10
-10.4779760665
 20
10.8023793014
 10
-10.4724187901
 20
10.7949113667
 10
-10.4664915369
 20
10.787531929
 10
-10.4601991015
 20
10.7802469576
 10
-10.4535465741
 20
10.7730623456
 10
-10.4465393359
 20
10.7659839048
 10
-10.4391830554
 20
10.759017361
 10
-10.4314836831
 20
10.7521683497
 10
-10.4234474474
 20
10.7454424111
 10
-10.4150808488
 20
10.738844986
 10
-10.4063906553
 20
10.7323814113
 10
-10.3973838966
 20
10.7260569155
 10
-10.3880678584
 20
10.7198766146
 10
-10.3784500767
 20
10.7138455079
 10
-10.3685383316
 20
10.7079684742
  0
LINE
  5
23E
100
AcDbEntity
  8
ASSI
100
AcDbLine
 62
7
  6
CONTINUOUS
 10
-10.5686529262
 20
0.3395427209
 11
-10.5561918063
 21
-1.3327211518
  0
LINE
  5
23F
100
AcDbEntity
  8
ASSI
100
AcDbLine
 62
253
  6
CONTINUOUS
 10
-10.4166598528
 20
-0.7062003408
 11
-10.4261350068
 21
0.9394787003
  0
LWPOLYLINE
  5
240
100
AcDbEntity
  8
ASSI
100
AcDbPolyline
 62
7
  6
CONTINUOUS
 90
3
 70
0
 10
-10.5764729368
 20
2.7932651621
 10
-10.5753355352
 20
2.015422633
 10
-10.5686529262
 20
0.3395427209
  0
LINE
  5
241
100
AcDbEntity
  8
ASSI
100
AcDbLine
 62
253
  6
CONTINUOUS
 10
-10.4261350068
 20
0.9394787003
 11
-10.4300247198
 21
2.5886651733
  0
LINE
  5
242
100
AcDbEntity
  8
ASSI
100
AcDbLine
 62
7
  6
CONTINUOUS
 10
-10.5727382225
 20
5.0572828205
 11
-10.5764729376
 21
3.4418718418
  0
LINE
  5
243
100
AcDbEntity
  8
ASSI
100
AcDbLine
 62
253
  6
CONTINUOUS
 10
-10.4300247199
 20
3.2381974119
 11
-10.4261350068
 21
4.8922027661
  0
LINE
  5
244
100
AcDbEntity
  8
ASSI
100
AcDbLine
 62
7
  6
CONTINUOUS
 10
-10.5631852998
 20
6.7431627187
 11
-10.5727382225
 21
5.0572828205
  0
LINE
  5
245
100
AcDbEntity
  8
ASSI
100
AcDbLine
 62
253
  6
CONTINUOUS
 10
-10.4261350068
 20
4.8922027661
 11
-10.4166598528
 21
6.5496154026
  0
LINE
  5
246
100
AcDbEntity
  8
ASSI
100
AcDbLine
 62
7
  6
CONTINUOUS
 10
-10.5478542418
 20
8.4325478491
 11
-10.5631852998
 21
6.7431627187
  0
LINE
  5
247
100
AcDbEntity
  8
ASSI
100
AcDbLine
 62
253
  6
CONTINUOUS
 10
-10.4166598528
 20
6.5496154026
 11
-10.40159966
 21
8.2104161062
  0
LINE
  5
248
100
AcDbEntity
  8
ASSI
100
AcDbLine
 62
253
  6
CONTINUOUS
 10
-10.40159966
 20
8.2104161062
 11
-10.3809548964
 21
9.8746097646
  0
LWPOLYLINE
  5
249
100
AcDbEntity
  8
ASSI
100
AcDbPolyline
 62
253
  6
CONTINUOUS
 90
46
 70
0
 10
-10.4300260141
 20
2.5886659206
 10
-10.4299242944
 20
2.5958123953
 10
-10.4296094914
 20
2.6030735491
 10
-10.4290819849
 20
2.6104406245
 10
-10.428342411
 20
2.6179047362
 10
-10.4273916618
 20
2.625456882
 10
-10.4262308838
 20
2.6330879535
 10
-10.4248614772
 20
2.6407887469
 10
-10.4232850934
 20
2.6485499745
 10
-10.4215036338
 20
2.6563622757
 10
-10.4195192468
 20
2.6642162282
 10
-10.4173343259
 20
2.6721023597
 10
-10.4149515063
 20
2.6800111588
 10
-10.4123736617
 20
2.687933087
 10
-10.4096039012
 20
2.6958585898
 10
-10.4066455654
 20
2.7037781084
 10
-10.4035022223
 20
2.7116820913
 10
-10.400177663
 20
2.7195610057
 10
-10.3966758971
 20
2.727405349
 10
-10.393001148
 20
2.7352056605
 10
-10.3891578478
 20
2.7429525322
 10
-10.3851506318
 20
2.750636621
 10
-10.380984333
 20
2.7582486592
 10
-10.3766639761
 20
2.765779466
 10
-10.3721947721
 20
2.773219959
 10
-10.3675821109
 20
2.7805611641
 10
-10.3628315559
 20
2.7877942274
 10
-10.3579488365
 20
2.7949104252
 10
-10.3529398418
 20
2.8019011749
 10
-10.3478106128
 20
2.8087580451
 10
-10.3425673359
 20
2.815472766
 10
-10.3372163348
 20
2.822037239
 10
-10.3317640633
 20
2.8284435469
 10
-10.3262170972
 20
2.8346839632
 10
-10.3205821266
 20
2.8407509616
 10
-10.3148659476
 20
2.8466372247
 10
-10.3090754544
 20
2.8523356533
 10
-10.3032176307
 20
2.8578393746
 10
-10.2972995417
 20
2.8631417508
 10
-10.2913283248
 20
2.8682363868
 10
-10.2853111818
 20
2.873117138
 10
-10.27925537
 20
2.877778118
 10
-10.2731681929
 20
2.8822137052
 10
-10.2670569923
 20
2.88641855
 10
-10.2609291387
 20
2.890387581
 10
-10.2547920227
 20
2.8941160113
  0
LWPOLYLINE
  5
24A
100
AcDbEntity
  8
ASSI
100
AcDbPolyline
 62
7
  6
CONTINUOUS
 90
3
 70
0
 10
-10.5149869277
 20
10.9121757694
 10
-10.5267453674
 20
10.1254111619
 10
-10.5478542418
 20
8.4325478491
  0
LINE
  5
24B
100
AcDbEntity
  8
ASSI
100
AcDbLine
 62
253
  6
CONTINUOUS
 10
-10.3809548964
 20
9.8746097646
 11
-10.3621721669
 21
11.0673684045
  0
LINE
  5
24C
100
AcDbEntity
  8
ASSI
100
AcDbLine
 62
253
  6
CONTINUOUS
 10
-10.3621721669
 20
11.0673684045
 11
-10.3451268741
 21
11.7887064515
  0
LINE
  5
24D
100
AcDbEntity
  8
ASSI
100
AcDbLine
 62
253
  6
CONTINUOUS
 10
-10.3451268741
 20
11.7887064515
 11
-10.3223324164
 21
12.5133724605
  0
LINE
  5
24E
100
AcDbEntity
  8
ASSI
100
AcDbLine
 62
253
  6
CONTINUOUS
 10
-10.3223324164
 20
12.5133724605
 11
-10.2937908903
 21
13.2412985942
  0
LINE
  5
24F
100
AcDbEntity
  8
ASSI
100
AcDbLine
 62
253
  6
CONTINUOUS
 10
-10.2937908903
 20
13.2412985942
 11
-10.2595049865
 21
13.9724167187
  0
LINE
  5
250
100
AcDbEntity
  8
ASSI
100
AcDbLine
 62
253
  6
CONTINUOUS
 10
-10.2595049865
 20
13.9724167187
 11
-10.2194779043
 21
14.7066583743
  0
LINE
  5
251
100
AcDbEntity
  8
ASSI
100
AcDbLine
 62
253
  6
CONTINUOUS
 10
-10.2194779043
 20
14.7066583743
 11
-10.173713357
 21
15.4439548432
  0
LINE
  5
252
100
AcDbEntity
  8
ASSI
100
AcDbLine
 62
253
  6
CONTINUOUS
 10
-10.173713357
 20
15.4439548432
 11
-10.1222156588
 21
16.1842371468
  0
LINE
  5
253
100
AcDbEntity
  8
ASSI
100
AcDbLine
 62
253
  6
CONTINUOUS
 10
-10.1222156588
 20
16.1842371468
 11
-10.0649896056
 21
16.9274360344
  0
LINE
  5
254
100
AcDbEntity
  8
ASSI
100
AcDbLine
 62
253
  6
CONTINUOUS
 10
-10.0649896056
 20
16.9274360344
 11
-10.0020405096
 21
17.6734819414
  0
LWPOLYLINE
  5
255
100
AcDbEntity
  8
ASSI
100
AcDbPolyline
 62
253
  6
CONTINUOUS
 90
31
 70
0
 10
-9.8402038184
 20
20.8833662183
 10
-9.8406617178
 20
20.8783532866
 10
-9.8409364503
 20
20.8714893792
 10
-9.8408086245
 20
20.8645884382
 10
-9.8402783437
 20
20.8576560486
 10
-9.839346037
 20
20.850697821
 10
-9.8380124592
 20
20.8437193868
 10
-9.8362786893
 20
20.836726394
 10
-9.8341461307
 20
20.8297245022
 10
-9.8316165093
 20
20.8227193781
 10
-9.8286918723
 20
20.8157166912
 10
-9.8253745868
 20
20.8087221089
 10
-9.8216673375
 20
20.8017412922
 10
-9.8175731247
 20
20.7947798909
 10
-9.8130952621
 20
20.7878435388
 10
-9.8082373737
 20
20.78093785
 10
-9.8030033912
 20
20.7740684132
 10
-9.7973975504
 20
20.7672407882
 10
-9.7914243885
 20
20.7604605007
 10
-9.7850887395
 20
20.7537330381
 10
-9.7783957312
 20
20.7470638452
 10
-9.7713507803
 20
20.7404583196
 10
-9.7639595886
 20
20.7339218072
 10
-9.7562281379
 20
20.7274595983
 10
-9.7481626854
 20
20.7210769229
 10
-9.7397697589
 20
20.7147789466
 10
-9.7310561508
 20
20.7085707667
 10
-9.7220289134
 20
20.7024574074
 10
-9.7126953526
 20
20.6964438166
 10
-9.7030630224
 20
20.6905348611
 10
-9.6931397184
 20
20.6847353233
  0
LINE
  5
256
100
AcDbEntity
  8
ASSI
100
AcDbLine
 62
253
  6
CONTINUOUS
 10
-10.0020405096
 20
17.6734819414
 11
-9.9333743061
 21
18.4223050613
  0
LINE
  5
257
100
AcDbEntity
  8
ASSI
100
AcDbLine
 62
253
  6
CONTINUOUS
 10
-9.9333743061
 20
18.4223050613
 11
-9.8589973938
 21
19.1738352713
  0
LINE
  5
258
100
AcDbEntity
  8
ASSI
100
AcDbLine
 62
253
  6
CONTINUOUS
 10
-9.8589973938
 20
19.1738352713
 11
-9.7789166467
 21
19.9280021936
  0
LINE
  5
259
100
AcDbEntity
  8
ASSI
100
AcDbLine
 62
253
  6
CONTINUOUS
 10
-9.7789166467
 20
19.9280021936
 11
-9.6931397244
 21
20.6847353209
  0
LWPOLYLINE
  5
25A
100
AcDbEntity
  8
0
100
AcDbPolyline
 62
253
  6
CONTINUOUS
 90
37
 70
0
 10
-3.5178916827
 20
10.1408928873
 10
-3.5209560562
 20
10.1391656763
 10
-3.5240771256
 20
10.1375715647
 10
-3.5272542651
 20
10.136107757
 10
-3.5304868485
 20
10.134771458
 10
-3.53377425
 20
10.1335598723
 10
-3.5371158435
 20
10.1324702045
 10
-3.540511003
 20
10.1314996594
 10
-3.5439587375
 20
10.1306458244
 10
-3.5474565954
 20
10.1299078184
 10
-3.5510017602
 20
10.129285143
 10
-3.5545914153
 20
10.1287773
 10
-3.5582227439
 20
10.128383791
 10
-3.5618929297
 20
10.1281041176
 10
-3.5655991559
 20
10.1279377816
 10
-3.5693388598
 20
10.1278843552
 10
-3.573110494
 20
10.1279436925
 10
-3.576912765
 20
10.1281157181
 10
-3.5807443793
 20
10.1284003567
 10
-3.5846040434
 20
10.1287975329
 10
-3.5884904637
 20
10.1293071714
 10
-3.5924023467
 20
10.1299291968
 10
-3.5963383333
 20
10.1306636798
 10
-3.6002968019
 20
10.1315112751
 10
-3.6042760653
 20
10.1324727833
 10
-3.6082744364
 20
10.1335490051
 10
-3.6122902279
 20
10.1347407411
 10
-3.6163217527
 20
10.1360487922
 10
-3.6203673237
 20
10.1374739588
 10
-3.6239176252
 20
10.1388179809
 10
-3.6274776457
 20
10.1402546222
 10
-3.6310476416
 20
10.1417862219
 10
-3.6346278694
 20
10.1434151195
 10
-3.6382185859
 20
10.1451436544
 10
-3.6418200474
 20
10.146974166
 10
-3.6454325106
 20
10.1489089938
 10
-3.649056232
 20
10.1509504771
  0
LWPOLYLINE
  5
25B
100
AcDbEntity
  8
0
100
AcDbPolyline
 62
253
  6
CONTINUOUS
 90
29
 70
0
 10
-3.9192051652
 20
-11.7973894784
 10
-3.9220439053
 20
-11.7975385564
 10
-3.9249130392
 20
-11.7976018672
 10
-3.9278124653
 20
-11.7975805651
 10
-3.9307420824
 20
-11.7974758043
 10
-3.9337017888
 20
-11.7972887392
 10
-3.9366914832
 20
-11.797020524
 10
-3.939711064
 20
-11.7966723129
 10
-3.9427602022
 20
-11.7962451654
 10
-3.9458376585
 20
-11.7957397612
 10
-3.9489419658
 20
-11.7951566853
 10
-3.9520716572
 20
-11.7944965226
 10
-3.9552252656
 20
-11.793759858
 10
-3.9584013241
 20
-11.7929472766
 10
-3.9615983658
 20
-11.7920593632
 10
-3.9648149815
 20
-11.7910966724
 10
-3.9680499942
 20
-11.7900596379
 10
-3.9713022848
 20
-11.7889486629
 10
-3.9745707341
 20
-11.7877641507
 10
-3.9778542229
 20
-11.7865065046
 10
-3.9811516321
 20
-11.7851761278
 10
-3.9844618425
 20
-11.7837734235
 10
-3.9877839933
 20
-11.7822985521
 10
-3.9911182561
 20
-11.7807507015
 10
-3.9944650608
 20
-11.7791288166
 10
-3.9978248375
 20
-11.7774318423
 10
-4.0011980161
 20
-11.7756587236
 10
-4.0045850266
 20
-11.7738084053
 10
-4.0079862987
 20
-11.7718798323
  0
LWPOLYLINE
  5
25C
100
AcDbEntity
  8
0
100
AcDbPolyline
 62
253
  6
CONTINUOUS
 90
53
 70
0
 10
-1.8323832798
 20
-11.1711830831
 10
-1.8276788388
 20
-11.1709717523
 10
-1.8229250336
 20
-11.1709821601
 10
-1.8181114123
 20
-11.1712103642
 10
-1.8132275229
 20
-11.1716524227
 10
-1.8082629135
 20
-11.1723043933
 10
-1.8032090553
 20
-11.1731634651
 10
-1.7980651122
 20
-11.1742313521
 10
-1.7928321713
 20
-11.1755108992
 10
-1.7875113196
 20
-11.1770049517
 10
-1.7821036442
 20
-11.1787163545
 10
-1.7766113659
 20
-11.1806476016
 10
-1.7710412407
 20
-11.1827997816
 10
-1.7654011585
 20
-11.1851736317
 10
-1.7596990089
 20
-11.1877698894
 10
-1.7539426819
 20
-11.190589292
 10
-1.7491120155
 20
-11.1931082752
 10
-1.744265568
 20
-11.195774106
 10
-1.7394197027
 20
-11.1985781583
 10
-1.7345863904
 20
-11.2015145373
 10
-1.7297600332
 20
-11.2045882736
 10
-1.7249306411
 20
-11.2078071291
 10
-1.7191223023
 20
-11.2118692499
 10
-1.7133079675
 20
-11.2161469811
 10
-1.7075003968
 20
-11.2206357844
 10
-1.7017123502
 20
-11.2253311214
 10
-1.6959565879
 20
-11.2302284538
 10
-1.6902454261
 20
-11.2353214802
 10
-1.6845894059
 20
-11.2405968474
 10
-1.6789986247
 20
-11.2460394391
 10
-1.6734831799
 20
-11.2516341392
 10
-1.6680531687
 20
-11.2573658312
 10
-1.6635981449
 20
-11.2622390048
 10
-1.6591999394
 20
-11.2672062007
 10
-1.6548490295
 20
-11.2722768054
 10
-1.6505399062
 20
-11.2774555851
 10
-1.646283115
 20
-11.2827288258
 10
-1.6420932152
 20
-11.2880781932
 10
-1.6371707908
 20
-11.2945753776
 10
-1.6323707703
 20
-11.3011437265
 10
-1.6276982688
 20
-11.3077711834
 10
-1.6231584014
 20
-11.3144456916
 10
-1.6187562833
 20
-11.3211551946
 10
-1.6144961247
 20
-11.3278890784
 10
-1.6103785166
 20
-11.3346424997
 10
-1.6064031452
 20
-11.3414120578
 10
-1.6025696968
 20
-11.348194352
 10
-1.5988778575
 20
-11.3549859815
 10
-1.5953265036
 20
-11.3617870959
 10
-1.5919112721
 20
-11.3686120456
 10
-1.58862699
 20
-11.375478731
 10
-1.5854684846
 20
-11.3824050529
 10
-1.5824305828
 20
-11.3894089118
  0
LWPOLYLINE
  5
25D
100
AcDbEntity
  8
0
100
AcDbPolyline
 62
253
  6
CONTINUOUS
 90
53
 70
0
 10
-3.8078293809
 20
-11.3200596546
 10
-3.8031672361
 20
-11.3198638126
 10
-3.7984521645
 20
-11.319889764
 10
-3.7936740072
 20
-11.3201334828
 10
-3.7888226053
 20
-11.3205909427
 10
-3.7838877996
 20
-11.3212581176
 10
-3.778861291
 20
-11.3221321097
 10
-3.7737422187
 20
-11.323214535
 10
-3.7685315817
 20
-11.3245081379
 10
-3.7632303789
 20
-11.3260156628
 10
-3.7578396094
 20
-11.3277398543
 10
-3.7523614212
 20
-11.3296830961
 10
-3.7468025581
 20
-11.3318463293
 10
-3.741170913
 20
-11.3342301344
 10
-3.735474379
 20
-11.3368350919
 10
-3.729720849
 20
-11.3396617823
 10
-3.7248903908
 20
-11.3421856297
 10
-3.720042368
 20
-11.3448550409
 10
-3.7151933152
 20
-11.3476611953
 10
-3.71035535
 20
-11.3505980079
 10
-3.7055229219
 20
-11.353670334
 10
-3.7006860631
 20
-11.3568857647
 10
-3.6948669095
 20
-11.3609409087
 10
-3.689039557
 20
-11.3652084199
 10
-3.6832165404
 20
-11.3696836641
 10
-3.6774103944
 20
-11.3743620072
 10
-3.6716336537
 20
-11.3792388151
 10
-3.665898475
 20
-11.384307719
 10
-3.6602155028
 20
-11.389555412
 10
-3.6545950036
 20
-11.3949668524
 10
-3.6490472437
 20
-11.4005269985
 10
-3.6435824896
 20
-11.4062208088
 10
-3.6390967604
 20
-11.4110599053
 10
-3.634666256
 20
-11.4159906844
 10
-3.630281429
 20
-11.4210224521
 10
-3.6259367679
 20
-11.4261599397
 10
-3.6216429051
 20
-11.4313895802
 10
-3.6174145091
 20
-11.4366932319
 10
-3.6124441549
 20
-11.4431330064
 10
-3.6075944541
 20
-11.4496413294
 10
-3.6028706657
 20
-11.456206297
 10
-3.5982780485
 20
-11.4628160055
 10
-3.5938218615
 20
-11.4694585511
 10
-3.5895064421
 20
-11.476123464
 10
-3.5853324424
 20
-11.4828060113
 10
-3.5812995929
 20
-11.4895028943
 10
-3.5774076243
 20
-11.4962108142
 10
-3.573656267
 20
-11.5029264722
 10
-3.5700444092
 20
-11.5096500492
 10
-3.5665675693
 20
-11.5163956446
 10
-3.5632204231
 20
-11.5231808376
 10
-3.5599976464
 20
-11.530023207
 10
-3.5568939151
 20
-11.5369403321
  0
LWPOLYLINE
  5
25E
100
AcDbEntity
  8
0
100
AcDbPolyline
 62
253
  6
CONTINUOUS
 90
29
 70
0
 10
-1.953111668
 20
-11.6544890344
 10
-1.9559825062
 20
-11.6545899255
 10
-1.9588800504
 20
-11.6546138329
 10
-1.9618044347
 20
-11.6545613173
 10
-1.9647557929
 20
-11.6544329391
 10
-1.9677342593
 20
-11.654229259
 10
-1.9707399677
 20
-11.6539508376
 10
-1.9737730522
 20
-11.6535982353
 10
-1.9768334436
 20
-11.6531719197
 10
-1.9799202604
 20
-11.6526719867
 10
-1.9830324177
 20
-11.6520984388
 10
-1.9861688307
 20
-11.6514512787
 10
-1.9893284146
 20
-11.6507305092
 10
-1.9925100845
 20
-11.6499361329
 10
-1.9957127558
 20
-11.6490681526
 10
-1.9989353263
 20
-11.6481265661
 10
-2.002176625
 20
-11.647111352
 10
-2.0054354635
 20
-11.6460224839
 10
-2.0087106536
 20
-11.6448599357
 10
-2.0120010069
 20
-11.643623681
 10
-2.0153053351
 20
-11.6423136935
 10
-2.0186224499
 20
-11.640929947
 10
-2.0219514378
 20
-11.6394721815
 10
-2.0252924848
 20
-11.6379392027
 10
-2.0286460516
 20
-11.6363295826
 10
-2.0320125989
 20
-11.6346418932
 10
-2.0353925875
 20
-11.6328747065
 10
-2.0387864782
 20
-11.6310265944
 10
-2.0421947317
 20
-11.6290961291
  0
LWPOLYLINE
  5
25F
100
AcDbEntity
  8
0
100
AcDbPolyline
 62
253
  6
CONTINUOUS
 90
55
 70
0
 10
-2.9184992108
 20
-10.5783535665
 10
-2.9130282264
 20
-10.5814151387
 10
-2.9076136428
 20
-10.584251409
 10
-2.9022414179
 20
-10.5868732975
 10
-2.8968975091
 20
-10.589291724
 10
-2.8915678743
 20
-10.5915176084
 10
-2.886241257
 20
-10.5935594029
 10
-2.8809175436
 20
-10.5954156893
 10
-2.8755994067
 20
-10.5970825817
 10
-2.8702895186
 20
-10.5985561942
 10
-2.8649905516
 20
-10.5998326409
 10
-2.8597063006
 20
-10.6009077575
 10
-2.8544450491
 20
-10.6017762666
 10
-2.8492162034
 20
-10.6024326123
 10
-2.8440291694
 20
-10.6028712386
 10
-2.8388933532
 20
-10.6030865898
 10
-2.834660905
 20
-10.6030920361
 10
-2.8304849273
 20
-10.6029386727
 10
-2.8263797905
 20
-10.6026266003
 10
-2.8223562119
 20
-10.6021554164
 10
-2.8184102945
 20
-10.6015227063
 10
-2.8145344881
 20
-10.6007255524
 10
-2.8107237002
 20
-10.5997612805
 10
-2.8069826685
 20
-10.5986281909
 10
-2.8033185888
 20
-10.5973248276
 10
-2.7997386565
 20
-10.5958497347
 10
-2.7962500672
 20
-10.594201456
 10
-2.7928600167
 20
-10.5923785357
 10
-2.789574877
 20
-10.59038084
 10
-2.7863977274
 20
-10.5882135244
 10
-2.7833308238
 20
-10.5858830666
 10
-2.780376422
 20
-10.5833959445
 10
-2.7775367779
 20
-10.5807586358
 10
-2.7748141473
 20
-10.5779776182
 10
-2.7722093876
 20
-10.5750574314
 10
-2.769717761
 20
-10.5719948621
 10
-2.7673331312
 20
-10.5687847589
 10
-2.765051618
 20
-10.5654248971
 10
-2.7628783652
 20
-10.5619247601
 10
-2.7608207724
 20
-10.5582967583
 10
-2.7585125699
 20
-10.5537900835
 10
-2.7563812732
 20
-10.5491280102
 10
-2.754426582
 20
-10.5443213943
 10
-2.7526481959
 20
-10.539381092
 10
-2.7510458148
 20
-10.5343179591
 10
-2.7496188362
 20
-10.5291417172
 10
-2.7483654499
 20
-10.5238575497
 10
-2.7472835437
 20
-10.5184695056
 10
-2.7463710053
 20
-10.5129816337
 10
-2.7456257223
 20
-10.5073979831
 10
-2.7450464886
 20
-10.5017190002
 10
-2.7446357218
 20
-10.4959307209
 10
-2.7443967458
 20
-10.4900155791
 10
-2.7443328842
 20
-10.4839560083
 10
-2.7444474608
 20
-10.4777344421
  0
LWPOLYLINE
  5
260
100
AcDbEntity
  8
0
100
AcDbPolyline
 62
253
  6
CONTINUOUS
 90
29
 70
0
 10
-3.7517610569
 20
-10.6420139588
 10
-3.7551382641
 20
-10.6400268566
 10
-3.7585105196
 20
-10.6379688812
 10
-3.7618782621
 20
-10.6358406168
 10
-3.7652419306
 20
-10.633642647
 10
-3.7686019638
 20
-10.6313755559
 10
-3.7719588006
 20
-10.6290399272
 10
-3.7753128799
 20
-10.6266363449
 10
-3.7786643272
 20
-10.6241654983
 10
-3.7820120142
 20
-10.6216284992
 10
-3.7853544995
 20
-10.6190265645
 10
-3.7886903415
 20
-10.6163609114
 10
-3.7920180986
 20
-10.6136327572
 10
-3.7953363294
 20
-10.6108433188
 10
-3.7986435922
 20
-10.6079938135
 10
-3.8019384701
 20
-10.6050854237
 10
-3.8052196441
 20
-10.6021191932
 10
-3.8084858196
 20
-10.5990961314
 10
-3.8117357021
 20
-10.5960172473
 10
-3.8149679973
 20
-10.5928835502
 10
-3.8181814105
 20
-10.5896960492
 10
-3.8213746474
 20
-10.5864557537
 10
-3.8245466141
 20
-10.5831633217
 10
-3.8276970191
 20
-10.5798180079
 10
-3.8308257717
 20
-10.5764187156
 10
-3.8339327811
 20
-10.5729643484
 10
-3.8370179566
 20
-10.5694538098
 10
-3.8400812074
 20
-10.5658860033
 10
-3.8431224427
 20
-10.5622598324
  0
LWPOLYLINE
  5
261
100
AcDbEntity
  8
0
100
AcDbPolyline
 62
253
  6
CONTINUOUS
 90
44
 70
0
 10
-2.0421947317
 20
-11.6290961291
 10
-2.0461561357
 20
-11.6267513829
 10
-2.0500850721
 20
-11.6243123401
 10
-2.0539860609
 20
-11.6217792704
 10
-2.0578636222
 20
-11.6191524433
 10
-2.0617222759
 20
-11.6164321283
 10
-2.065566542
 20
-11.613618595
 10
-2.0694009406
 20
-11.6107121131
 10
-2.0732299915
 20
-11.607712952
 10
-2.0776040383
 20
-11.6041722329
 10
-2.0819761825
 20
-11.6005114128
 10
-2.0863456021
 20
-11.5967310888
 10
-2.0907114755
 20
-11.592831858
 10
-2.0950729808
 20
-11.5888143177
 10
-2.0994292964
 20
-11.584679065
 10
-2.1037796005
 20
-11.5804266971
 10
-2.1081221348
 20
-11.5760588145
 10
-2.1124513953
 20
-11.5715810319
 10
-2.1167609414
 20
-11.5669999672
 10
-2.1210443326
 20
-11.5623222385
 10
-2.1252951284
 20
-11.5575544636
 10
-2.1295068882
 20
-11.5527032607
 10
-2.1336731715
 20
-11.5477752476
 10
-2.1377876877
 20
-11.5427772929
 10
-2.1418447467
 20
-11.5377172668
 10
-2.145838808
 20
-11.5326032897
 10
-2.1497643315
 20
-11.5274434825
 10
-2.1536157769
 20
-11.5222459656
 10
-2.1573876038
 20
-11.5170188597
 10
-2.1610742721
 20
-11.5117702854
 10
-2.1646711496
 20
-11.5065071576
 10
-2.168177237
 20
-11.5012315675
 10
-2.1715924433
 20
-11.4959444008
 10
-2.1749166774
 20
-11.4906465431
 10
-2.1781498481
 20
-11.4853388799
 10
-2.1812918644
 20
-11.4800222969
 10
-2.1843426351
 20
-11.4746976795
 10
-2.1873022449
 20
-11.4693642773
 10
-2.1901714812
 20
-11.4640147943
 10
-2.1929513069
 20
-11.4586402989
 10
-2.1956426854
 20
-11.4532318591
 10
-2.1982465795
 20
-11.447780543
 10
-2.2007639524
 20
-11.4422774186
 10
-2.2031957672
 20
-11.4367135541
  0
LWPOLYLINE
  5
262
100
AcDbEntity
  8
0
100
AcDbPolyline
 62
253
  6
CONTINUOUS
 90
55
 70
0
 10
-2.8595418885
 20
-11.930065844
 10
-2.871234556
 20
-11.9231149663
 10
-2.882863953
 20
-11.9158036213
 10
-2.894460894
 20
-11.9081175524
 10
-2.9060561934
 20
-11.9000425035
 10
-2.9176806654
 20
-11.8915642181
 10
-2.9293595017
 20
-11.8826696449
 10
-2.9410954019
 20
-11.8733505527
 10
-2.9528854427
 20
-11.8635999154
 10
-2.9647267012
 20
-11.8534107067
 10
-2.9766162539
 20
-11.8427759004
 10
-2.9885474856
 20
-11.8316917514
 10
-3.0004990121
 20
-11.8201676377
 10
-3.012445757
 20
-11.8082162186
 10
-3.024362644
 20
-11.7958501533
 10
-3.0362245966
 20
-11.7830821009
 10
-3.0460453433
 20
-11.772150292
 10
-3.055771062
 20
-11.7609924945
 10
-3.0653622879
 20
-11.7496530862
 10
-3.0747898184
 20
-11.7381637309
 10
-3.0840655001
 20
-11.7265052357
 10
-3.093211442
 20
-11.7146456935
 10
-3.1022429572
 20
-11.7025614866
 10
-3.1111481756
 20
-11.6902621562
 10
-3.1199084309
 20
-11.6777655329
 10
-3.1285050572
 20
-11.6650894474
 10
-3.1369193883
 20
-11.6522517302
 10
-3.1451327582
 20
-11.6392702121
 10
-3.1531284047
 20
-11.6261636516
 10
-3.1608971814
 20
-11.6129545189
 10
-3.1684318459
 20
-11.5996662119
 10
-3.1757251557
 20
-11.5863221288
 10
-3.1827698683
 20
-11.5729456676
 10
-3.1895587412
 20
-11.5595602263
 10
-3.1960888084
 20
-11.5461795813
 10
-3.2023742087
 20
-11.5327790228
 10
-3.2084333574
 20
-11.5193242189
 10
-3.2142776758
 20
-11.5057962018
 10
-3.2198906098
 20
-11.4922374572
 10
-3.2252486113
 20
-11.4787058348
 10
-3.2313154001
 20
-11.4625733351
 10
-3.2369816067
 20
-11.4465923224
 10
-3.2422476609
 20
-11.4307919245
 10
-3.2471139924
 20
-11.4152012693
 10
-3.2515810309
 20
-11.3998494847
 10
-3.2556506522
 20
-11.3847603555
 10
-3.2593305156
 20
-11.3699362951
 10
-3.2626297264
 20
-11.3553743737
 10
-3.2655573898
 20
-11.3410716617
 10
-3.2681226112
 20
-11.3270252293
 10
-3.2703328215
 20
-11.3132271112
 10
-3.2721887544
 20
-11.2996491994
 10
-3.273689469
 20
-11.2862583504
 10
-3.2748340248
 20
-11.2730214203
 10
-3.2756214809
 20
-11.2599052656
  0
LWPOLYLINE
  5
263
100
AcDbEntity
  8
0
100
AcDbPolyline
 62
253
  6
CONTINUOUS
 90
55
 70
0
 10
-2.9008521122
 20
-11.0430724541
 10
-2.8891580541
 20
-11.0500267675
 10
-2.8775320525
 20
-11.0573439978
 10
-2.8659431201
 20
-11.0650384224
 10
-2.8543602698
 20
-11.0731243183
 10
-2.8427525144
 20
-11.0816159627
 10
-2.831094536
 20
-11.0905264102
 10
-2.8193836942
 20
-11.0998638255
 10
-2.807623018
 20
-11.1096351506
 10
-2.7958155365
 20
-11.1198473276
 10
-2.7839642785
 20
-11.1305072985
 10
-2.7720759099
 20
-11.1416187359
 10
-2.7601716433
 20
-11.1531722341
 10
-2.7482763282
 20
-11.165155118
 10
-2.7364148141
 20
-11.1775547122
 10
-2.7246119504
 20
-11.1903583418
 10
-2.7148430652
 20
-11.2013213538
 10
-2.7051711735
 20
-11.2125117719
 10
-2.695635283
 20
-11.2238852244
 10
-2.6862642287
 20
-11.2354100669
 10
-2.6770461571
 20
-11.2471055646
 10
-2.6679590423
 20
-11.2590037099
 10
-2.6589876183
 20
-11.2711281619
 10
-2.6501436601
 20
-11.283469247
 10
-2.6414457023
 20
-11.2960089582
 10
-2.6329122799
 20
-11.3087292885
 10
-2.6245619277
 20
-11.3216122309
 10
-2.6164131805
 20
-11.3346397784
 10
-2.6084826435
 20
-11.3477929901
 10
-2.6007792026
 20
-11.3610491895
 10
-2.5933098141
 20
-11.3743847661
 10
-2.5860814341
 20
-11.3877761095
 10
-2.579101019
 20
-11.4011996091
 10
-2.5723755249
 20
-11.4146316545
 10
-2.565907679
 20
-11.4280582926
 10
-2.5596832928
 20
-11.4415041997
 10
-2.5536839487
 20
-11.4550037092
 10
-2.5478981391
 20
-11.4685757824
 10
-2.5423419974
 20
-11.4821778904
 10
-2.5370385671
 20
-11.495752132
 10
-2.5310337361
 20
-11.5119347357
 10
-2.5254253781
 20
-11.5279647147
 10
-2.5202128794
 20
-11.5438129497
 10
-2.515395626
 20
-11.5594503216
 10
-2.5109730042
 20
-11.5748477109
 10
-2.5069430051
 20
-11.5899813183
 10
-2.5032980395
 20
-11.6048486237
 10
-2.5000291234
 20
-11.6194524268
 10
-2.4971272725
 20
-11.6337955273
 10
-2.4945835028
 20
-11.6478807249
 10
-2.4923904904
 20
-11.6617158978
 10
-2.4905475521
 20
-11.6753292381
 10
-2.4890556653
 20
-11.6887540162
 10
-2.4879158069
 20
-11.7020235028
 10
-2.4871289543
 20
-11.7151709684
  0
LWPOLYLINE
  5
264
100
AcDbEntity
  8
ASSI
100
AcDbPolyline
 62
7
  6
CONTINUOUS
 90
5
 70
0
 10
-9.8388374816
 20
-13.7513555685
 10
-9.8296328919
 20
-13.8055082957
 10
-9.8070906741
 20
-13.8919609139
 10
-9.7762293341
 20
-13.9722727099
 10
-9.7380217994
 20
-14.0455472668
  0
LWPOLYLINE
  5
265
100
AcDbEntity
  8
ASSI
100
AcDbPolyline
 62
253
  6
CONTINUOUS
 90
26
 70
0
 10
-9.8388374877
 20
-13.7513555694
 10
-9.8380124651
 20
-13.7567582091
 10
-9.8362786954
 20
-13.7659914906
 10
-9.8341461368
 20
-13.7751575771
 10
-9.8316165155
 20
-13.7842490502
 10
-9.8286918786
 20
-13.7932585521
 10
-9.8253745931
 20
-13.802178791
 10
-9.8216673438
 20
-13.8110025475
 10
-9.8175731311
 20
-13.8197226804
 10
-9.8130952686
 20
-13.8283321323
 10
-9.8082373802
 20
-13.8368239352
 10
-9.8030033977
 20
-13.8451912165
 10
-9.7973975569
 20
-13.8534272044
 10
-9.791424395
 20
-13.8615252332
 10
-9.785088746
 20
-13.869478749
 10
-9.7783957377
 20
-13.8772813148
 10
-9.7713507868
 20
-13.8849266158
 10
-9.763959595
 20
-13.8924084645
 10
-9.7562281443
 20
-13.8997208055
 10
-9.7481626918
 20
-13.9068577208
 10
-9.7397697652
 20
-13.9138134342
 10
-9.7310561571
 20
-13.9205823165
 10
-9.7220289196
 20
-13.9271588893
 10
-9.7126953588
 20
-13.9335378299
 10
-9.7030630285
 20
-13.9397139759
 10
-9.6931397244
 20
-13.9456823286
  0
LINE
  5
266
100
AcDbEntity
  8
ASSI
100
AcDbLine
 62
7
  6
CONTINUOUS
 10
-9.8389316187
 20
-13.7506748689
 11
-9.8388374877
 21
-13.7513555694
  0
LWPOLYLINE
  5
267
100
AcDbEntity
  8
ASSI
100
AcDbPolyline
 62
253
  6
CONTINUOUS
 90
17
 70
0
 10
-9.6931397244
 20
-13.9456823286
 10
-9.7367396971
 20
-13.6209703529
 10
-9.7789166467
 20
-13.2951294333
 10
-9.8196695519
 20
-12.9681672196
 10
-9.8589973938
 20
-12.6400914087
 10
-9.8968992522
 20
-12.31090968
 10
-9.9333743061
 20
-11.9806296959
 10
-9.968421676
 20
-11.6492592037
 10
-10.0020405096
 20
-11.3168059827
 10
-10.0342300781
 20
-10.9832777807
 10
-10.0649896056
 20
-10.6486824235
 10
-10.094318344
 20
-10.3130277592
 10
-10.1222156588
 20
-9.9763216045
 10
-10.1486808778
 20
-9.6385718563
 10
-10.173713357
 20
-9.2997864353
 10
-10.197312555
 20
-8.9599732287
 10
-10.2194779043
 20
-8.6191401997
  0
LWPOLYLINE
  5
268
100
AcDbEntity
  8
ASSI
100
AcDbPolyline
 62
7
  6
CONTINUOUS
 90
5
 70
0
 10
-10.576472854
 20
3.4419332914
 10
-10.5727891025
 20
3.392311632
 10
-10.5623811142
 20
3.3457740578
 10
-10.545235005
 20
3.3004380609
 10
-10.5214541157
 20
3.257075789
  0
LWPOLYLINE
  5
269
100
AcDbEntity
  8
ASSI
100
AcDbPolyline
 62
7
  6
CONTINUOUS
 90
9
 70
0
 10
-10.4247818278
 20
3.0824139619
 10
-10.4606234764
 20
3.0521367553
 10
-10.4919726239
 20
3.0189875289
 10
-10.5186706879
 20
2.9832343551
 10
-10.5404741321
 20
2.9453193622
 10
-10.5570930462
 20
2.9060569408
 10
-10.5684968636
 20
2.866212355
 10
-10.5748604211
 20
2.826302382
 10
-10.5764725551
 20
2.7930124154
  0
LINE
  5
26A
100
AcDbEntity
  8
ASSI
100
AcDbLine
 62
7
  6
CONTINUOUS
 10
-10.3926081892
 20
3.1046281085
 11
-10.4247818278
 21
3.0824139619
  0
LINE
  5
26B
100
AcDbEntity
  8
0
100
AcDbLine
 62
253
  6
CONTINUOUS
 10
-4.402760433
 20
8.3010003743
 11
-3.8473037108
 21
8.6221440221
  0
LINE
  5
26C
100
AcDbEntity
  8
0
100
AcDbLine
 62
253
  6
CONTINUOUS
 10
-3.6014978124
 20
8.173199514
 11
-4.1546577438
 21
7.8537564327
  0
LINE
  5
26D
100
AcDbEntity
  8
0
100
AcDbLine
 62
253
  6
CONTINUOUS
 10
-2.0945911567
 20
9.6338664074
 11
-1.5205824532
 21
9.9649429981
  0
LINE
  5
26E
100
AcDbEntity
  8
0
100
AcDbLine
 62
253
  6
CONTINUOUS
 10
-1.2837550182
 20
9.5109595158
 11
-1.8556962074
 21
9.181162052
  0
LWPOLYLINE
  5
26F
100
AcDbEntity
  8
0
100
AcDbPolyline
 62
253
  6
CONTINUOUS
 90
37
 70
0
 10
-1.8556962074
 20
9.181162052
 10
-1.8587575071
 20
9.1794342244
 10
-1.8618754942
 20
9.177839376
 10
-1.8650495426
 20
9.1763747152
 10
-1.8682790264
 20
9.1750374504
 10
-1.8715633193
 20
9.1738247899
 10
-1.8749017955
 20
9.1727339421
 10
-1.8782938288
 20
9.1717621152
 10
-1.8817384292
 20
9.1709069009
 10
-1.8852331511
 20
9.1701674241
 10
-1.8887751849
 20
9.1695431931
 10
-1.8923617208
 20
9.169033716
 10
-1.8959899494
 20
9.168638501
 10
-1.899657061
 20
9.1683570563
 10
-1.9033602459
 20
9.1681888901
 10
-1.9070969468
 20
9.1681335813
 10
-1.910865616
 20
9.1681909908
 10
-1.914664958
 20
9.1683610506
 10
-1.9184936773
 20
9.1686436922
 10
-1.9223504784
 20
9.1690388473
 10
-1.9262340658
 20
9.1695464478
 10
-1.9301431441
 20
9.1701664252
 10
-1.9340763526
 20
9.1708988574
 10
-1.9380320707
 20
9.171744406
 10
-1.9420086123
 20
9.1727038787
 10
-1.9460042916
 20
9.1737780831
 10
-1.9500174226
 20
9.1749678271
 10
-1.9540463195
 20
9.1762739183
 10
-1.9580892964
 20
9.1776971643
 10
-1.9616373567
 20
9.1790395438
 10
-1.9651951621
 20
9.1804745837
 10
-1.9687629687
 20
9.1820046294
 10
-1.9723410323
 20
9.1836320261
 10
-1.9759296089
 20
9.1853591192
 10
-1.9795289544
 20
9.187188254
 10
-1.9831393249
 20
9.1891217758
 10
-1.9867609762
 20
9.1911620299
  0
LWPOLYLINE
  5
270
100
AcDbEntity
  8
0
100
AcDbPolyline
 62
253
  6
CONTINUOUS
 90
36
 70
0
 10
-4.1546577438
 20
7.8537564327
 10
-4.1576364707
 20
7.8521105115
 10
-4.160673703
 20
7.8505946871
 10
-4.1637687726
 20
7.849206274
 10
-4.1669210117
 20
7.8479425867
 10
-4.1701297521
 20
7.8468009396
 10
-4.1733943259
 20
7.8457786472
 10
-4.1767140652
 20
7.8448730239
 10
-4.1800879653
 20
7.8440817504
 10
-4.1835136758
 20
7.843403972
 10
-4.1869885095
 20
7.8428392003
 10
-4.1905097795
 20
7.8423869467
 10
-4.1940747987
 20
7.8420467228
 10
-4.1976808799
 20
7.84181804
 10
-4.2013253362
 20
7.8417004099
 10
-4.2050057168
 20
7.841693418
 10
-4.2087205169
 20
7.8417969463
 10
-4.2124684678
 20
7.8420109509
 10
-4.2162483011
 20
7.8423353876
 10
-4.2200587481
 20
7.8427702125
 10
-4.2238985403
 20
7.8433153816
 10
-4.2277664092
 20
7.8439708508
 10
-4.2316610271
 20
7.8447367145
 10
-4.2355808295
 20
7.845613619
 10
-4.2395241932
 20
7.8466023491
 10
-4.2434894945
 20
7.8477036896
 10
-4.2474751101
 20
7.8489184251
 10
-4.2514794164
 20
7.8502473403
 10
-4.25550079
 20
7.8516912201
 10
-4.2595379564
 20
7.8532512877
 10
-4.2635910378
 20
7.8549305217
 10
-4.2676605051
 20
7.8567323392
 10
-4.2717468295
 20
7.8586601574
 10
-4.2758504821
 20
7.8607173936
 10
-4.2799719338
 20
7.862907465
 10
-4.284111656
 20
7.8652337886
  0
LWPOLYLINE
  5
271
100
AcDbEntity
  8
0
100
AcDbPolyline
 62
253
  6
CONTINUOUS
 90
55
 70
0
 10
-1.5205824532
 20
9.9649429981
 10
-1.5163649985
 20
9.9672360356
 10
-1.5120713799
 20
9.9692892949
 10
-1.5076927543
 20
9.9711120692
 10
-1.5032202782
 20
9.9727136517
 10
-1.4986451086
 20
9.9741033354
 10
-1.4939599783
 20
9.9752882405
 10
-1.4891639245
 20
9.9762667945
 10
-1.4842575607
 20
9.9770352515
 10
-1.4792415002
 20
9.9775898661
 10
-1.4741163566
 20
9.9779268924
 10
-1.4688838254
 20
9.9780425036
 10
-1.4635499309
 20
9.9779325475
 10
-1.4581217799
 20
9.9775927907
 10
-1.4526064789
 20
9.977019
 10
-1.4470111345
 20
9.9762069419
 10
-1.4422943263
 20
9.9753460817
 10
-1.4375429556
 20
9.9743198817
 10
-1.4327731105
 20
9.9731314051
 10
-1.4279965031
 20
9.9717824108
 10
-1.4232073407
 20
9.9702694387
 10
-1.4183954548
 20
9.9685877241
 10
-1.4135535621
 20
9.9667332721
 10
-1.4086859205
 20
9.9647051658
 10
-1.4037996733
 20
9.9625032582
 10
-1.3989019638
 20
9.9601274021
 10
-1.3939999352
 20
9.9575774506
 10
-1.3891007308
 20
9.9548532564
 10
-1.3842113882
 20
9.951955975
 10
-1.3793385222
 20
9.9488919719
 10
-1.3744886416
 20
9.9456689151
 10
-1.3696682557
 20
9.9422944727
 10
-1.3648838735
 20
9.9387763126
 10
-1.3601420039
 20
9.9351221029
 10
-1.3554464101
 20
9.9313370756
 10
-1.3507898719
 20
9.9274167192
 10
-1.346162423
 20
9.923354086
 10
-1.3415583948
 20
9.9191459353
 10
-1.3369893085
 20
9.9148038536
 10
-1.3324709829
 20
9.9103431343
 10
-1.3271347636
 20
9.9048527975
 10
-1.3219007209
 20
9.8992256428
 10
-1.3167751568
 20
9.8934736683
 10
-1.3117643733
 20
9.887608872
 10
-1.3068746726
 20
9.8816432519
 10
-1.3021113278
 20
9.8755874854
 10
-1.2974754969
 20
9.8694469675
 10
-1.2929673092
 20
9.8632257726
 10
-1.2885868936
 20
9.8569279749
 10
-1.2843343795
 20
9.850557649
 10
-1.2802087021
 20
9.8441150536
 10
-1.2762040219
 20
9.8375851857
 10
-1.2723133056
 20
9.8309492269
 10
-1.2685295199
 20
9.8241883586
 10
-1.2648456314
 20
9.8172837623
  0
LWPOLYLINE
  5
272
100
AcDbEntity
  8
0
100
AcDbPolyline
 62
253
  6
CONTINUOUS
 90
53
 70
0
 10
-3.8473037108
 20
8.6221440221
 10
-3.8431858708
 20
8.6243431141
 10
-3.8389875256
 20
8.6263053687
 10
-3.8347002387
 20
8.6280397783
 10
-3.8303155737
 20
8.6295553348
 10
-3.825825094
 20
8.6308610305
 10
-3.8212218501
 20
8.6319637531
 10
-3.8165048403
 20
8.632861972
 10
-3.8116745498
 20
8.6335520522
 10
-3.8067314638
 20
8.6340303588
 10
-3.8016760674
 20
8.6342932567
 10
-3.7965099211
 20
8.6343370463
 10
-3.7912388869
 20
8.6341577689
 10
-3.7858699017
 20
8.6337514014
 10
-3.7804099028
 20
8.6331139206
 10
-3.7748658272
 20
8.632241303
 10
-3.7701885452
 20
8.6313325394
 10
-3.7654737172
 20
8.6302609951
 10
-3.7607373662
 20
8.6290299729
 10
-3.7559911754
 20
8.6276414449
 10
-3.7512294677
 20
8.626092062
 10
-3.746442226
 20
8.6243771445
 10
-3.7406545949
 20
8.6220955082
 10
-3.7348276674
 20
8.6195688311
 10
-3.7289733407
 20
8.6167971808
 10
-3.7231035118
 20
8.6137806246
 10
-3.7172300779
 20
8.61051923
 10
-3.7113648525
 20
8.6070152538
 10
-3.7055193143
 20
8.6032797094
 10
-3.6997048583
 20
8.5993257993
 10
-3.6939328797
 20
8.5951667261
 10
-3.6882147736
 20
8.5908156924
 10
-3.6834963097
 20
8.5870503023
 10
-3.6788132713
 20
8.5831539112
 10
-3.6741557589
 20
8.5791196556
 10
-3.6695181573
 20
8.5749443223
 10
-3.6649119869
 20
8.5706393004
 10
-3.6603530522
 20
8.5662196293
 10
-3.6549634609
 20
8.5607834855
 10
-3.6496711168
 20
8.5552156299
 10
-3.6444824892
 20
8.5495277888
 10
-3.6394040476
 20
8.5437316888
 10
-3.6344422612
 20
8.5378390561
 10
-3.6296025614
 20
8.5318603265
 10
-3.624886226
 20
8.5258007726
 10
-3.6202934952
 20
8.5196643767
 10
-3.6158246086
 20
8.5134551208
 10
-3.6114798062
 20
8.507176987
 10
-3.6072580539
 20
8.5008302305
 10
-3.6031532213
 20
8.4944001983
 10
-3.599157904
 20
8.4878685105
 10
-3.5952646979
 20
8.4812167874
 10
-3.5914661986
 20
8.474426649
  0
LWPOLYLINE
  5
273
100
AcDbEntity
  8
ASSI
100
AcDbPolyline
 62
253
  6
CONTINUOUS
 90
55
 70
0
 10
5.8546504251
 20
12.0362390317
 10
5.8442268511
 20
12.0325187403
 10
5.8335357333
 20
12.0289723389
 10
5.8225857244
 20
12.0256026977
 10
5.8113856866
 20
12.0224125437
 10
5.7999446843
 20
12.0194044589
 10
5.788271977
 20
12.0165808778
 10
5.7763770118
 20
12.0139440856
 10
5.7642694156
 20
12.0114962164
 10
5.7519589874
 20
12.0092392511
 10
5.7394556904
 20
12.0071750166
 10
5.7267696437
 20
12.0053051833
 10
5.7139111146
 20
12.0036312647
 10
5.7008905099
 20
12.0021546154
 10
5.6877183673
 20
12.0008764306
 10
5.6744053476
 20
11.9997977447
 10
5.6609622253
 20
11.9989194308
 10
5.6473998803
 20
11.9982421996
 10
5.6337292889
 20
11.9977665993
 10
5.6199615151
 20
11.9974930148
 10
5.6061077015
 20
11.9974216675
 10
5.5921790605
 20
11.9975526152
 10
5.5781868648
 20
11.9978857519
 10
5.5641424387
 20
11.9984208079
 10
5.5500571487
 20
11.9991573502
 10
5.5359423945
 20
12.0000947828
 10
5.5218095994
 20
12.0012323469
 10
5.5076702015
 20
12.0025691218
 10
5.4935356443
 20
12.0041040258
 10
5.4794173671
 20
12.0058358165
 10
5.4653267964
 20
12.0077630923
 10
5.4512753359
 20
12.0098842936
 10
5.4372743579
 20
12.0121977034
 10
5.4233351938
 20
12.0147014496
 10
5.4094691249
 20
12.0173935057
 10
5.3956873734
 20
12.020271693
 10
5.3820010932
 20
12.0233336822
 10
5.368421361
 20
12.026576995
 10
5.3549591672
 20
12.0299990066
 10
5.3416254072
 20
12.0335969475
 10
5.3284308723
 20
12.0373679056
 10
5.3153862413
 20
12.0413088292
 10
5.3025020714
 20
12.0454165287
 10
5.2897887902
 20
12.0496876796
 10
5.2772566869
 20
12.0541188251
 10
5.264915904
 20
12.0587063791
 10
5.2527764294
 20
12.0634466287
 10
5.2408480877
 20
12.0683357375
 10
5.2291405329
 20
12.0733697486
 10
5.2176632403
 20
12.0785445878
 10
5.2064254987
 20
12.083856067
 10
5.1954364032
 20
12.0892998875
 10
5.1847048474
 20
12.0948716435
 10
5.1742395168
 20
12.1005668255
 10
5.1640488812
 20
12.1063808243
  0
LWPOLYLINE
  5
274
100
AcDbEntity
  8
0
100
AcDbPolyline
 62
253
  6
CONTINUOUS
 90
55
 70
0
 10
-2.9434049796
 20
-9.7439018621
 10
-2.9488628965
 20
-9.7408487822
 10
-2.9542667839
 20
-9.7380215232
 10
-2.9596306498
 20
-9.7354091751
 10
-2.9649685026
 20
-9.7330008282
 10
-2.9702943501
 20
-9.7307855728
 10
-2.975619418
 20
-9.7287549689
 10
-2.9809438016
 20
-9.7269104568
 10
-2.9862648134
 20
-9.7252559465
 10
-2.9915797663
 20
-9.7237953482
 10
-2.9968859728
 20
-9.7225325719
 10
-3.0021796242
 20
-9.7214718005
 10
-3.0074524258
 20
-9.7206183076
 10
-3.0126949616
 20
-9.7199776394
 10
-3.0178978156
 20
-9.7195553424
 10
-3.0230515716
 20
-9.7193569627
 10
-3.0273005737
 20
-9.7193661383
 10
-3.0314945162
 20
-9.7195345286
 10
-3.0356189744
 20
-9.7198619986
 10
-3.0396631901
 20
-9.7203489341
 10
-3.0436310719
 20
-9.7209978055
 10
-3.0475301953
 20
-9.7218116043
 10
-3.0513656568
 20
-9.722793065
 10
-3.0551326375
 20
-9.7239438959
 10
-3.0588238398
 20
-9.7252655486
 10
-3.0624319658
 20
-9.7267594746
 10
-3.065949718
 20
-9.7284271256
 10
-3.0693697986
 20
-9.7302699532
 10
-3.0726857348
 20
-9.7322880803
 10
-3.0758943545
 20
-9.7344763164
 10
-3.0789933101
 20
-9.7368281423
 10
-3.0819802545
 20
-9.7393370388
 10
-3.0848528403
 20
-9.7419964868
 10
-3.0876087202
 20
-9.7447999671
 10
-3.0902469663
 20
-9.7477429126
 10
-3.0927723288
 20
-9.7508285647
 10
-3.0951909774
 20
-9.7540621169
 10
-3.0975067937
 20
-9.7574458099
 10
-3.0997145063
 20
-9.7609700726
 10
-3.1018065558
 20
-9.7646223815
 10
-3.1041559089
 20
-9.769158326
 10
-3.1063280338
 20
-9.7738496998
 10
-3.1083231425
 20
-9.7786855803
 10
-3.1101414471
 20
-9.7836550445
 10
-3.1117831598
 20
-9.7887471696
 10
-3.1132488064
 20
-9.7939521742
 10
-3.1145401683
 20
-9.7992648417
 10
-3.1156593406
 20
-9.8046810969
 10
-3.1166084185
 20
-9.8101968647
 10
-3.1173894972
 20
-9.8158080699
 10
-3.11800378
 20
-9.8215142588
 10
-3.1184489027
 20
-9.8273294644
 10
-3.1187216093
 20
-9.8332713413
 10
-3.118818644
 20
-9.8393575441
 10
-3.1187367506
 20
-9.8456057271
  0
LINE
  5
275
100
AcDbEntity
  8
ASSI
100
AcDbLine
 62
253
  6
CONTINUOUS
 10
4.4400538599
 20
-13.3552623211
 11
-10.3685383317
 21
-4.8049667849
  0
LWPOLYLINE
  5
276
100
AcDbEntity
  8
0
100
AcDbPolyline
 62
253
  6
CONTINUOUS
 90
53
 70
0
 10
-2.079650959
 20
-12.6576746607
 10
-2.0845353694
 20
-12.6518269392
 10
-2.0892969717
 20
-12.6459121648
 10
-2.0939494387
 20
-12.6399174225
 10
-2.0985064429
 20
-12.6338297972
 10
-2.1029816571
 20
-12.6276363739
 10
-2.1073859373
 20
-12.6213265984
 10
-2.1117188736
 20
-12.6148993592
 10
-2.1159772392
 20
-12.6083559058
 10
-2.1201578074
 20
-12.6016974875
 10
-2.1242573517
 20
-12.5949253536
 10
-2.1282717546
 20
-12.5880422157
 10
-2.1321933351
 20
-12.5810566342
 10
-2.1360135215
 20
-12.5739786314
 10
-2.1397237423
 20
-12.5668182299
 10
-2.1433154255
 20
-12.5595854521
 10
-2.146210943
 20
-12.5535126105
 10
-2.1490083189
 20
-12.5474174466
 10
-2.1516976819
 20
-12.5413209394
 10
-2.1542714929
 20
-12.5352384483
 10
-2.1567315403
 20
-12.5291628538
 10
-2.1590819445
 20
-12.523081417
 10
-2.161760761
 20
-12.5157644087
 10
-2.1642782973
 20
-12.5084368165
 10
-2.1666252259
 20
-12.5011148133
 10
-2.1687922192
 20
-12.4938145723
 10
-2.1707699497
 20
-12.4865522667
 10
-2.1725508933
 20
-12.4793435328
 10
-2.1741347394
 20
-12.4722018602
 10
-2.1755229809
 20
-12.4651402021
 10
-2.1767171106
 20
-12.4581715114
 10
-2.1777186216
 20
-12.451308741
 10
-2.1784073803
 20
-12.4456767463
 10
-2.1789656486
 20
-12.4401151444
 10
-2.1793956624
 20
-12.4346117768
 10
-2.1796992098
 20
-12.4291596462
 10
-2.1798762887
 20
-12.4237723986
 10
-2.1799264488
 20
-12.4184688406
 10
-2.1798193158
 20
-12.4122372189
 10
-2.1795330406
 20
-12.4061598748
 10
-2.179071892
 20
-12.4002434912
 10
-2.1784401388
 20
-12.3944947508
 10
-2.1776420496
 20
-12.3889203365
 10
-2.1766816747
 20
-12.3835257417
 10
-2.17556219
 20
-12.3783117037
 10
-2.1742865529
 20
-12.3732777703
 10
-2.1728577207
 20
-12.3684234893
 10
-2.1712786507
 20
-12.3637484089
 10
-2.1695503382
 20
-12.3592510667
 10
-2.1676659298
 20
-12.3549259603
 10
-2.1656166097
 20
-12.3507665769
 10
-2.1633935624
 20
-12.3467664039
 10
-2.1609879722
 20
-12.3429189287
  0
LWPOLYLINE
  5
277
100
AcDbEntity
  8
0
100
AcDbPolyline
 62
253
  6
CONTINUOUS
 90
53
 70
0
 10
-1.5834207334
 20
-12.8068630436
 10
-1.5785650147
 20
-12.8127181321
 10
-1.5738308937
 20
-12.8186394499
 10
-1.5692048703
 20
-12.8246398672
 10
-1.5646734446
 20
-12.8307322538
 10
-1.5602231165
 20
-12.8369294797
 10
-1.5558431644
 20
-12.8432420546
 10
-1.5515339812
 20
-12.8496710474
 10
-1.5472987378
 20
-12.8562151666
 10
-1.5431406056
 20
-12.8628731206
 10
-1.5390627555
 20
-12.8696436181
 10
-1.5350692288
 20
-12.8765239303
 10
-1.5311675459
 20
-12.8835055797
 10
-1.5273660972
 20
-12.8905786512
 10
-1.5236732732
 20
-12.8977332303
 10
-1.5200974642
 20
-12.9049594018
 10
-1.5172138707
 20
-12.9110262583
 10
-1.5144270644
 20
-12.9171152754
 10
-1.5117467455
 20
-12.9232057822
 10
-1.5091803177
 20
-12.9292826583
 10
-1.5067259982
 20
-12.9353529868
 10
-1.5043797079
 20
-12.9414294016
 10
-1.5017037397
 20
-12.9487405888
 10
-1.4991867614
 20
-12.9560625659
 10
-1.4968380753
 20
-12.9633791661
 10
-1.4946669833
 20
-12.9706742222
 10
-1.4926827875
 20
-12.9779315673
 10
-1.490893007
 20
-12.985135594
 10
-1.4892980285
 20
-12.9922729342
 10
-1.4878964557
 20
-12.9993307791
 10
-1.4866868921
 20
-13.0062963202
 10
-1.4856679415
 20
-13.0131567489
 10
-1.4849631765
 20
-13.0187874817
 10
-1.4843875685
 20
-13.0243483756
 10
-1.4839388741
 20
-13.0298514812
 10
-1.4836153115
 20
-13.0353037244
 10
-1.4834169446
 20
-13.0406915318
 10
-1.4833442985
 20
-13.0459962053
 10
-1.4834229706
 20
-13.0522300309
 10
-1.4836792815
 20
-13.0583105955
 10
-1.4841090752
 20
-13.0642312761
 10
-1.4847081959
 20
-13.0699854498
 10
-1.4854724879
 20
-13.0755664936
 10
-1.4863980083
 20
-13.0809689682
 10
-1.4874816674
 20
-13.0861921685
 10
-1.4887205888
 20
-13.0912365728
 10
-1.4901118959
 20
-13.0961026597
 10
-1.4916527122
 20
-13.1007909074
 10
-1.4933420813
 20
-13.1053028051
 10
-1.4951867276
 20
-13.1096438839
 10
-1.4971952959
 20
-13.1138206857
 10
-1.4993764308
 20
-13.1178397523
 10
-1.501738777
 20
-13.1217076255
  0
LWPOLYLINE
  5
278
100
AcDbEntity
  8
0
100
AcDbPolyline
 62
253
  6
CONTINUOUS
 90
53
 70
0
 10
-4.174797191
 20
-10.1656237172
 10
-4.1796288355
 20
-10.1597057519
 10
-4.1843351356
 20
-10.1537221178
 10
-4.1889295888
 20
-10.1476597548
 10
-4.1934256922
 20
-10.1415056033
 10
-4.1978369432
 20
-10.1352466032
 10
-4.2021740479
 20
-10.1288720791
 10
-4.2064365475
 20
-10.1223808924
 10
-4.210621192
 20
-10.1157742891
 10
-4.2147247316
 20
-10.1090535148
 10
-4.2187439162
 20
-10.1022198155
 10
-4.2226746273
 20
-10.0952759025
 10
-4.2265092713
 20
-10.0882303501
 10
-4.230239386
 20
-10.081093198
 10
-4.2338565092
 20
-10.0738744859
 10
-4.2373521787
 20
-10.0665842536
 10
-4.2401655786
 20
-10.0604642076
 10
-4.2428792063
 20
-10.0543225041
 10
-4.2454835091
 20
-10.0481801804
 10
-4.2479711759
 20
-10.0420526452
 10
-4.2503438622
 20
-10.0359327927
 10
-4.2526054651
 20
-10.0298078884
 10
-4.2551756266
 20
-10.0224397439
 10
-4.2575824595
 20
-10.0150620157
 10
-4.2598169833
 20
-10.0076907323
 10
-4.2618702175
 20
-10.0003419218
 10
-4.2637331816
 20
-9.9930316127
 10
-4.2653986945
 20
-9.9857753372
 10
-4.2668667722
 20
-9.9785866436
 10
-4.2681392301
 20
-9.9714785841
 10
-4.2692178837
 20
-9.9644642109
 10
-4.2701045482
 20
-9.9575565762
 10
-4.270698258
 20
-9.9518878805
 10
-4.271161981
 20
-9.9462902076
 10
-4.2714977953
 20
-9.9407513925
 10
-4.2717074196
 20
-9.9352644075
 10
-4.2717911346
 20
-9.9298427749
 10
-4.2717488615
 20
-9.9245051544
 10
-4.2715324713
 20
-9.9182329146
 10
-4.2711389249
 20
-9.9121151822
 10
-4.2705726027
 20
-9.906158617
 10
-4.269837885
 20
-9.9003698791
 10
-4.2689391518
 20
-9.8947556284
 10
-4.2678805497
 20
-9.8893213529
 10
-4.2666652896
 20
-9.884067853
 10
-4.2652963488
 20
-9.8789947569
 10
-4.2637767043
 20
-9.8741016931
 10
-4.2621093334
 20
-9.8693882899
 10
-4.2602952271
 20
-9.8648531278
 10
-4.2583274322
 20
-9.8604905957
 10
-4.2561970096
 20
-9.8562940345
 10
-4.25389502
 20
-9.8522567853
 10
-4.2514125242
 20
-9.8483721891
  0
LWPOLYLINE
  5
279
100
AcDbEntity
  8
0
100
AcDbPolyline
 62
253
  6
CONTINUOUS
 90
53
 70
0
 10
-3.6762196259
 20
-10.3134855789
 10
-3.6714177352
 20
-10.3193754242
 10
-3.666738995
 20
-10.3253311552
 10
-3.6621699091
 20
-10.3313659717
 10
-3.6576969819
 20
-10.3374930734
 10
-3.6533067172
 20
-10.3437256598
 10
-3.6489884197
 20
-10.3500745097
 10
-3.6447425964
 20
-10.3565407178
 10
-3.6405725546
 20
-10.3631229576
 10
-3.636481602
 20
-10.3698199029
 10
-3.6324730459
 20
-10.3766302272
 10
-3.6285510399
 20
-10.3835511772
 10
-3.6247231222
 20
-10.3905742913
 10
-3.6209976768
 20
-10.3976896809
 10
-3.617383088
 20
-10.4048874572
 10
-3.61388774
 20
-10.4121577318
 10
-3.6110728591
 20
-10.4182620463
 10
-3.6083561009
 20
-10.4243891532
 10
-3.6057469597
 20
-10.430518366
 10
-3.6032527039
 20
-10.4366345842
 10
-3.6008716977
 20
-10.4427450521
 10
-3.5986000794
 20
-10.4488625999
 10
-3.5960157611
 20
-10.4562246376
 10
-3.5935927401
 20
-10.4635989352
 10
-3.5913403564
 20
-10.4709690816
 10
-3.5892679496
 20
-10.4783186661
 10
-3.5873848594
 20
-10.4856312777
 10
-3.5856985788
 20
-10.4928910678
 10
-3.5842092137
 20
-10.5000844365
 10
-3.5829150228
 20
-10.5071983465
 10
-3.5818142653
 20
-10.5142197602
 10
-3.5809052002
 20
-10.5211356402
 10
-3.5802926331
 20
-10.5268121488
 10
-3.5798098394
 20
-10.5324185547
 10
-3.5794546819
 20
-10.5379670961
 10
-3.5792254028
 20
-10.5434648427
 10
-3.5791217623
 20
-10.5488981881
 10
-3.5791439
 20
-10.5542483573
 10
-3.579335922
 20
-10.5605366297
 10
-3.5797049037
 20
-10.5666714334
 10
-3.5802464834
 20
-10.57264611
 10
-3.580956299
 20
-10.5784540009
 10
-3.5818299889
 20
-10.5840884474
 10
-3.5828634239
 20
-10.5895439637
 10
-3.5840534072
 20
-10.594819754
 10
-3.5853969747
 20
-10.5999161954
 10
-3.5868911625
 20
-10.6048336647
 10
-3.5885330065
 20
-10.6095725389
 10
-3.5903215297
 20
-10.6141342652
 10
-3.5922637035
 20
-10.6185245718
 10
-3.594368486
 20
-10.6227502571
 10
-3.5966448355
 20
-10.6268181195
 10
-3.5991017102
 20
-10.6307349575
  0
LWPOLYLINE
  5
27A
100
AcDbEntity
  8
ASSI
100
AcDbPolyline
 62
253
  6
CONTINUOUS
 90
26
 70
0
 10
-10.5750919144
 20
3.420418498
 10
-10.5738341137
 20
3.4122753699
 10
-10.5721739863
 20
3.4041549901
 10
-10.5701128754
 20
3.3960639501
 10
-10.5676524469
 20
3.3880087453
 10
-10.5647946903
 20
3.3799959081
 10
-10.5615419175
 20
3.3720319454
 10
-10.5578967598
 20
3.364123261
 10
-10.5538621637
 20
3.3562762646
 10
-10.5494413943
 20
3.3484973278
 10
-10.544638035
 20
3.3407927213
 10
-10.5394559769
 20
3.3331686959
 10
-10.5338994099
 20
3.3256314301
 10
-10.5279728252
 20
3.3181869868
 10
-10.521681021
 20
3.3108414014
 10
-10.5150290842
 20
3.3036006265
 10
-10.5080223787
 20
3.2964704804
 10
-10.5006665444
 20
3.2894567144
 10
-10.4929675531
 20
3.282565039
 10
-10.4849316952
 20
3.2758010671
 10
-10.4765655157
 20
3.269170301
 10
-10.4678757521
 20
3.2626780798
 10
-10.4588693866
 20
3.2563296074
 10
-10.4495536865
 20
3.2501300064
 10
-10.4399362042
 20
3.2440843109
 10
-10.4300247195
 20
3.2381974125
  0
LWPOLYLINE
  5
27B
100
AcDbEntity
  8
ASSI
100
AcDbPolyline
 62
253
  6
CONTINUOUS
 90
58
 70
0
 10
5.8378087247
 20
13.1756797078
 10
5.8205660686
 20
13.164804775
 10
5.8033554934
 20
13.15347782
 10
5.7861867544
 20
13.14170548
 10
5.7690694465
 20
13.1294947657
 10
5.7520134083
 20
13.1168527073
 10
5.7350287176
 20
13.103786343
 10
5.7181249457
 20
13.0903032619
 10
5.7013117315
 20
13.0764113759
 10
5.6845991852
 20
13.0621185657
 10
5.6679968197
 20
13.0474332017
 10
5.6515140033
 20
13.0323638269
 10
5.6351605349
 20
13.0169189217
 10
5.6189456712
 20
13.0011074726
 10
5.6028786146
 20
12.984938709
 10
5.5869689645
 20
12.9684217904
 10
5.5712257436
 20
12.9515663341
 10
5.5556578676
 20
12.9343821558
 10
5.5402746332
 20
12.9168790058
 10
5.525084763
 20
12.8990670662
 10
5.5100968589
 20
12.8809567027
 10
5.4953198707
 20
12.8625582073
 10
5.4807621864
 20
12.8438822864
 10
5.4664320382
 20
12.8249397893
 10
5.4523379557
 20
12.8057414599
 10
5.4384879216
 20
12.7862984343
 10
5.4248897862
 20
12.7666220242
 10
5.4115516721
 20
12.7467234464
 10
5.3984811505
 20
12.7266142619
 10
5.3856856096
 20
12.7063061373
 10
5.3731726696
 20
12.6858106277
 10
5.3609494209
 20
12.6651396099
 10
5.3490227853
 20
12.6443050908
 10
5.3373998826
 20
12.6233189696
 10
5.326087313
 20
12.602193427
 10
5.3150914648
 20
12.5809407003
 10
5.304418876
 20
12.5595728909
 10
5.2940755951
 20
12.5381023635
 10
5.2840674769
 20
12.5165415763
 10
5.2744004896
 20
12.4949028563
 10
5.2650801187
 20
12.4731987324
 10
5.2561116304
 20
12.4514417769
 10
5.2475003691
 20
12.4296444343
 10
5.239251221
 20
12.4078193166
 10
5.2313688456
 20
12.3859790605
 10
5.2238579391
 20
12.3641361686
 10
5.2167227709
 20
12.3423032902
 10
5.2099673614
 20
12.3204930412
 10
5.203595717
 20
12.2987178626
 10
5.1976114448
 20
12.2769902933
 10
5.1920179376
 20
12.2553229464
 10
5.1868185488
 20
12.2337283283
 10
5.1820162473
 20
12.2122189818
 10
5.177613717
 20
12.1908072692
 10
5.1736135508
 20
12.1695053502
 10
5.1700180524
 20
12.1483254601
 10
5.1668292264
 20
12.1272799008
 10
5.1640488812
 20
12.1063808243
  0
LINE
  5
27C
100
AcDbEntity
  8
ASSI
100
AcDbLine
 62
7
  6
CONTINUOUS
 10
-10.3926081967
 20
3.1046281204
 11
-10.3739074643
 21
3.1164024386
  0
LWPOLYLINE
  5
27D
100
AcDbEntity
  8
ASSI
100
AcDbPolyline
 62
253
  6
CONTINUOUS
 90
8
 70
0
 10
-10.3925130612
 20
3.1046881043
 10
-10.3918868319
 20
3.1050787141
 10
-10.387412379
 20
3.1076645976
 10
-10.3827819162
 20
3.109989203
 10
-10.3780010829
 20
3.1120496994
 10
-10.3730757015
 20
3.1138435772
 10
-10.3680117706
 20
3.1153686517
 10
-10.3651803743
 20
3.1160521638
  0
LWPOLYLINE
  5
27E
100
AcDbEntity
  8
ASSI
100
AcDbPolyline
 62
253
  6
CONTINUOUS
 90
58
 70
0
 10
6.1973114595
 20
12.5675505314
 10
6.1885358981
 20
12.5621941204
 10
6.1797860247
 20
12.55661797
 10
6.1710618392
 20
12.5508220801
 10
6.1623581818
 20
12.5448027601
 10
6.1536802124
 20
12.5385637006
 10
6.1450434102
 20
12.5321159739
 10
6.1364479935
 20
12.5254593046
 10
6.127893744
 20
12.5185939681
 10
6.1193954865
 20
12.511531863
 10
6.1109533362
 20
12.5042726619
 10
6.1025671779
 20
12.4968166922
 10
6.0942514909
 20
12.4891768342
 10
6.0860063895
 20
12.4813527636
 10
6.0778317593
 20
12.4733448046
 10
6.0697417371
 20
12.4651668109
 10
6.0617364701
 20
12.4568184884
 10
6.0538158111
 20
12.448300131
 10
6.0459934546
 20
12.4396264749
 10
6.0382695713
 20
12.4307972512
 10
6.0306439906
 20
12.4218127286
 10
6.0231298956
 20
12.4126884497
 10
6.0157274839
 20
12.4034241789
 10
6.0084365578
 20
12.3940201517
 10
6.0012697075
 20
12.3844926174
 10
5.9942271426
 20
12.374841356
 10
5.9873086535
 20
12.3650665874
 10
5.9805262008
 20
12.3551852217
 10
5.9738800242
 20
12.3451970804
 10
5.9673698842
 20
12.3351023418
 10
5.961007023
 20
12.324918451
 10
5.9547916923
 20
12.3146452487
 10
5.9487236404
 20
12.3042828941
 10
5.9428133544
 20
12.2938493099
 10
5.9370611116
 20
12.2833443813
 10
5.9314666348
 20
12.2727682231
 10
5.9260395789
 20
12.2621391025
 10
5.9207802305
 20
12.2514569228
 10
5.9156883031
 20
12.2407217807
 10
5.9107725922
 20
12.2299522344
 10
5.9060334035
 20
12.2191482257
 10
5.9014704314
 20
12.2083098129
 10
5.897091555
 20
12.1974557279
 10
5.8928970928
 20
12.1865859443
 10
5.8888867264
 20
12.1757004886
 10
5.8850673788
 20
12.1648181724
 10
5.8814393824
 20
12.1539390109
 10
5.8780024048
 20
12.1430629889
 10
5.8747623718
 20
12.1322088722
 10
5.8717196183
 20
12.1213766765
 10
5.8688738094
 20
12.1105663862
 10
5.8662298656
 20
12.0997967202
 10
5.863788123
 20
12.0890676306
 10
5.8615482454
 20
12.0783791654
 10
5.8595141456
 20
12.0677501866
 10
5.8576871277
 20
12.0571869818
 10
5.8560658876
 20
12.0466832635
 10
5.8546504251
 20
12.0362390317
  0
LINE
  5
27F
100
AcDbEntity
  8
ASSI
100
AcDbLine
 62
253
  6
CONTINUOUS
 10
7.9504148604
 20
14.4366816265
 11
5.8378087247
 21
13.1756797078
  0
LINE
  5
280
100
AcDbEntity
  8
ASSI
100
AcDbLine
 62
253
  6
CONTINUOUS
 10
8.3353890188
 20
13.8437561899
 11
6.1973114595
 21
12.5675505314
  0
LWPOLYLINE
  5
281
100
AcDbEntity
  8
0
100
AcDbPolyline
 62
253
  6
CONTINUOUS
 90
53
 70
0
 10
-2.1849086744
 20
7.6622979628
 10
-2.1808218648
 20
7.6645058982
 10
-2.1766533862
 20
7.6664770592
 10
-2.1723948504
 20
7.668220472
 10
-2.1680378691
 20
7.6697451628
 10
-2.1635740543
 20
7.6710601578
 10
-2.1589964977
 20
7.6721723734
 10
-2.1543042127
 20
7.6730802865
 10
-2.1494976925
 20
7.6737802638
 10
-2.1445774304
 20
7.6742686724
 10
-2.1395439199
 20
7.6745418792
 10
-2.1343987211
 20
7.6745961856
 10
-2.1291476619
 20
7.6744276316
 10
-2.123797637
 20
7.6740321916
 10
-2.1183555412
 20
7.67340584
 10
-2.1128282692
 20
7.6725445512
 10
-2.108164109
 20
7.6716453689
 10
-2.1034615212
 20
7.6705834806
 10
-2.0987364403
 20
7.6693621268
 10
-2.0940004714
 20
7.667983222
 10
-2.0892479008
 20
7.666443378
 10
-2.0844686855
 20
7.6647378806
 10
-2.0786892106
 20
7.6624673398
 10
-2.072868923
 20
7.6599514597
 10
-2.0670198402
 20
7.6571902305
 10
-2.0611539798
 20
7.6541836421
 10
-2.0552833597
 20
7.6509316845
 10
-2.049419886
 20
7.6474365229
 10
-2.0435750194
 20
7.6437090227
 10
-2.037760109
 20
7.6397622244
 10
-2.0319865039
 20
7.6356091684
 10
-2.0262655534
 20
7.6312628953
 10
-2.0215437567
 20
7.627500403
 10
-2.0168564866
 20
7.6236058765
 10
-2.0121938228
 20
7.6195724042
 10
-2.0075501539
 20
7.6153967449
 10
-2.002937105
 20
7.6110903385
 10
-1.9983706103
 20
7.6066682951
 10
-1.9929712012
 20
7.60122809
 10
-1.9876682957
 20
7.5956549128
 10
-1.9824684143
 20
7.5899605499
 10
-1.9773780771
 20
7.5841567876
 10
-1.9724038048
 20
7.5782554122
 10
-1.9675510684
 20
7.5722669064
 10
-1.9628211429
 20
7.5661965375
 10
-1.9582142543
 20
7.5600482689
 10
-1.9537306284
 20
7.5538260644
 10
-1.9493704911
 20
7.5475338872
 10
-1.9451327938
 20
7.5411719705
 10
-1.9410113896
 20
7.5347256248
 10
-1.9369988573
 20
7.5281764301
 10
-1.9330877757
 20
7.5215059664
 10
-1.9292707233
 20
7.5146958137
  0
LWPOLYLINE
  5
282
100
AcDbEntity
  8
0
100
AcDbPolyline
 62
253
  6
CONTINUOUS
 90
53
 70
0
 10
-4.1707207183
 20
-11.5806709028
 10
-4.1736918151
 20
-11.5737740772
 10
-4.1764897473
 20
-11.5669295168
 10
-4.1791243265
 20
-11.5601199705
 10
-4.1816053644
 20
-11.5533281873
 10
-4.1839426724
 20
-11.546536916
 10
-4.186143899
 20
-11.5397322859
 10
-4.1882080392
 20
-11.5329139472
 10
-4.1901319248
 20
-11.52608493
 10
-4.1919123874
 20
-11.5192482649
 10
-4.1935462589
 20
-11.5124069822
 10
-4.1950300139
 20
-11.5055655844
 10
-4.1963586981
 20
-11.4987344628
 10
-4.1975270005
 20
-11.4919254808
 10
-4.1985296097
 20
-11.4851505017
 10
-4.1993612144
 20
-11.4784213889
 10
-4.1999199747
 20
-11.4728594113
 10
-4.2003545196
 20
-11.467356513
 10
-4.2006630748
 20
-11.4619316832
 10
-4.2008439792
 20
-11.4565990476
 10
-4.2008960219
 20
-11.4513532786
 10
-4.200818105
 20
-11.4461841848
 10
-4.2005512703
 20
-11.4400737207
 10
-4.2000923646
 20
-11.4340749014
 10
-4.1994380401
 20
-11.4282036347
 10
-4.1985849488
 20
-11.4224758284
 10
-4.1975297426
 20
-11.4169073902
 10
-4.196270923
 20
-11.4115126176
 10
-4.1948143883
 20
-11.4062993667
 10
-4.1931678862
 20
-11.4012738833
 10
-4.1913391644
 20
-11.3964424133
 10
-4.1893359704
 20
-11.3918112023
 10
-4.1875377142
 20
-11.3881073191
 10
-4.185620719
 20
-11.3845383224
 10
-4.1835820269
 20
-11.3810956924
 10
-4.1814205264
 20
-11.3777741505
 10
-4.1791424917
 20
-11.3745813823
 10
-4.1767560436
 20
-11.3715283147
 10
-4.1737596301
 20
-11.3680613913
 10
-4.1706268029
 20
-11.364812061
 10
-4.1673655699
 20
-11.3617810137
 10
-4.1639839388
 20
-11.3589689391
 10
-4.1604899174
 20
-11.3563765271
 10
-4.1568907196
 20
-11.3540039544
 10
-4.1531903842
 20
-11.3518493459
 10
-4.1493921563
 20
-11.3499103132
 10
-4.1454992807
 20
-11.3481844682
 10
-4.1415150026
 20
-11.3466694227
 10
-4.137439828
 20
-11.3453636279
 10
-4.1332633077
 20
-11.3442688939
 10
-4.1289722535
 20
-11.3433878701
 10
-4.1245534772
 20
-11.342723206
 10
-4.1199937907
 20
-11.342277551
  0
LWPOLYLINE
  5
283
100
AcDbEntity
  8
0
100
AcDbPolyline
 62
253
  6
CONTINUOUS
 90
53
 70
0
 10
-3.5568939151
 20
-11.5369403321
 10
-3.5539451019
 20
-11.5438561751
 10
-3.5511699054
 20
-11.5507194043
 10
-3.5485584948
 20
-11.5575472419
 10
-3.5461010394
 20
-11.5643569102
 10
-3.5437877085
 20
-11.5711656317
 10
-3.5416108219
 20
-11.5779872527
 10
-3.5395713025
 20
-11.5848221153
 10
-3.5376722239
 20
-11.5916671857
 10
-3.5359166596
 20
-11.5985194302
 10
-3.5343076833
 20
-11.6053758147
 10
-3.5328487232
 20
-11.6122318255
 10
-3.531544627
 20
-11.619077029
 10
-3.5304005968
 20
-11.6258995114
 10
-3.529421835
 20
-11.6326873592
 10
-3.5286135438
 20
-11.6394286587
 10
-3.5280737198
 20
-11.6450002286
 10
-3.5276575699
 20
-11.6505121443
 10
-3.5273667734
 20
-11.6559453502
 10
-3.5272029107
 20
-11.6612856641
 10
-3.5271671681
 20
-11.666538397
 10
-3.5272606336
 20
-11.6717137333
 10
-3.5275451046
 20
-11.6778307486
 10
-3.5280204397
 20
-11.6838351897
 10
-3.5286898769
 20
-11.689711268
 10
-3.5295566543
 20
-11.6954431948
 10
-3.5306240101
 20
-11.7010151814
 10
-3.5318933622
 20
-11.7064130352
 10
-3.5333588482
 20
-11.7116289477
 10
-3.5350127852
 20
-11.7166567066
 10
-3.5368474905
 20
-11.7214900994
 10
-3.5388552816
 20
-11.7261229137
 10
-3.5406563578
 20
-11.7298279049
 10
-3.5425753002
 20
-11.7333977819
 10
-3.5446151117
 20
-11.7368410355
 10
-3.5467769477
 20
-11.7401629203
 10
-3.5490545736
 20
-11.7433557475
 10
-3.5514399071
 20
-11.7464085924
 10
-3.5544341088
 20
-11.7498748818
 10
-3.5575638483
 20
-11.7531231931
 10
-3.560821203
 20
-11.7561528543
 10
-3.5641982504
 20
-11.7589631936
 10
-3.5676870676
 20
-11.7615535389
 10
-3.5712805264
 20
-11.7639237325
 10
-3.5749746752
 20
-11.7660756727
 10
-3.578766357
 20
-11.7680117721
 10
-3.5826524144
 20
-11.7697344432
 10
-3.5866296902
 20
-11.7712460985
 10
-3.5906977473
 20
-11.7725483086
 10
-3.5948670283
 20
-11.7736392762
 10
-3.5991506957
 20
-11.7745163621
 10
-3.603561912
 20
-11.7751769269
 10
-3.60811384
 20
-11.7756183315
  0
LINE
  5
284
100
AcDbEntity
  8
ASSI
100
AcDbLine
 62
253
  6
CONTINUOUS
 10
-5.2609202341
 20
21.546445962
 11
-5.2609202341
 21
21.4835396235
  0
LWPOLYLINE
  5
285
100
AcDbEntity
  8
0
100
AcDbPolyline
 62
253
  6
CONTINUOUS
 90
55
 70
0
 10
-4.9689847185
 20
10.1196356269
 10
-4.968608604
 20
10.1260954202
 10
-4.9680595197
 20
10.1323946027
 10
-4.9673394045
 20
10.1385510895
 10
-4.9664501972
 20
10.1445827956
 10
-4.9653938365
 20
10.1505076363
 10
-4.9641716188
 20
10.15633985
 10
-4.9627822701
 20
10.1620789694
 10
-4.9612238743
 20
10.1677208506
 10
-4.9594945149
 20
10.1732613496
 10
-4.9575922756
 20
10.1786963225
 10
-4.9555156454
 20
10.1840204458
 10
-4.9532647345
 20
10.189223677
 10
-4.9508400581
 20
10.194294794
 10
-4.9482421316
 20
10.1992225747
 10
-4.9454714705
 20
10.2039957969
 10
-4.9430323862
 20
10.2078462271
 10
-4.9404822724
 20
10.2115684777
 10
-4.9378296965
 20
10.2151494947
 10
-4.9350806609
 20
10.218579314
 10
-4.9322309083
 20
10.2218603318
 10
-4.9292736165
 20
10.2249980343
 10
-4.9262035805
 20
10.2279958295
 10
-4.9230220633
 20
10.2308488114
 10
-4.9197319452
 20
10.2335499954
 10
-4.9163361063
 20
10.2360923972
 10
-4.9128374268
 20
10.2384690322
 10
-4.9092387868
 20
10.240672916
 10
-4.905543785
 20
10.2426984065
 10
-4.9017588941
 20
10.2445452305
 10
-4.8978913053
 20
10.2462144571
 10
-4.89394821
 20
10.2477071555
 10
-4.8899367992
 20
10.2490243949
 10
-4.8858642642
 20
10.2501672444
 10
-4.8817352478
 20
10.2511371028
 10
-4.8775441989
 20
10.2519366881
 10
-4.8732830181
 20
10.2525690479
 10
-4.8689475139
 20
10.2530365875
 10
-4.864549128
 20
10.2533391436
 10
-4.8601032103
 20
10.2534759108
 10
-4.8547241525
 20
10.2534211837
 10
-4.8493083146
 20
10.2531319365
 10
-4.8438652584
 20
10.2526135455
 10
-4.838404546
 20
10.2518713867
 10
-4.8329357391
 20
10.2509108363
 10
-4.8274672077
 20
10.2497370095
 10
-4.8220025528
 20
10.2483539789
 10
-4.8165441833
 20
10.2467655561
 10
-4.8110945083
 20
10.2449755529
 10
-4.8056559367
 20
10.242987781
 10
-4.8002281825
 20
10.2408035283
 10
-4.7948001799
 20
10.2384139882
 10
-4.789358168
 20
10.2358078302
 10
-4.7838883859
 20
10.2329737239
 10
-4.778377073
 20
10.2299003388
  0
LWPOLYLINE
  5
286
100
AcDbEntity
  8
0
100
AcDbPolyline
 62
253
  6
CONTINUOUS
 90
37
 70
0
 10
-1.4212424664
 20
6.2755167093
 10
-1.424227615
 20
6.2738932398
 10
-1.4272698906
 20
6.272396931
 10
-1.4303686724
 20
6.2710252562
 10
-1.4335233396
 20
6.2697756887
 10
-1.4367332716
 20
6.2686457018
 10
-1.4399978474
 20
6.2676327689
 10
-1.4433164464
 20
6.2667343634
 10
-1.4466881397
 20
6.26594832
 10
-1.4501107669
 20
6.2652739195
 10
-1.4535818594
 20
6.2647108044
 10
-1.4570989487
 20
6.2642586169
 10
-1.4606595663
 20
6.2639169994
 10
-1.4642612436
 20
6.2636855942
 10
-1.4679015122
 20
6.2635640437
 10
-1.4715780984
 20
6.2635520681
 10
-1.4752895085
 20
6.2636496991
 10
-1.4790344435
 20
6.2638570466
 10
-1.4828116045
 20
6.26417422
 10
-1.4866196927
 20
6.2646013293
 10
-1.490457409
 20
6.265138484
 10
-1.4943234547
 20
6.2657857938
 10
-1.4982164788
 20
6.2665434976
 10
-1.5021349229
 20
6.2674123507
 10
-1.5060771764
 20
6.2683932378
 10
-1.5100416288
 20
6.2694870435
 10
-1.5140266696
 20
6.2706946521
 10
-1.5180306884
 20
6.2720169485
 10
-1.5220520746
 20
6.273454817
 10
-1.525584
 20
6.2748087445
 10
-1.5291283008
 20
6.2762541781
 10
-1.5326852885
 20
6.2777934616
 10
-1.5362552746
 20
6.2794289388
 10
-1.5398385707
 20
6.2811629536
 10
-1.5434354881
 20
6.2829978499
 10
-1.5470463386
 20
6.2849359715
 10
-1.5506714334
 20
6.2869796622
  0
LWPOLYLINE
  5
287
100
AcDbEntity
  8
ASSI
100
AcDbPolyline
 62
253
  6
CONTINUOUS
 90
13
 70
0
 10
4.9266043486
 20
-5.3714897053
 10
4.9395693826
 20
-5.3681678491
 10
4.9523630053
 20
-5.3646350338
 10
4.9649748985
 20
-5.360894038
 10
4.9773949024
 20
-5.3569479093
 10
4.9896129237
 20
-5.3527998855
 10
5.0016189799
 20
-5.3484532836
 10
5.0134033083
 20
-5.3439116809
 10
5.0249564369
 20
-5.3391787717
 10
5.0362690893
 20
-5.3342582868
 10
5.0473321359
 20
-5.3291541971
 10
5.0581366055
 20
-5.323870714
 10
5.0686737582
 20
-5.3184121486
  0
LWPOLYLINE
  5
288
100
AcDbEntity
  8
ASSI
100
AcDbPolyline
 62
7
  6
CONTINUOUS
 90
5
 70
0
 10
-10.5214541157
 20
3.257075789
 10
-10.4913879959
 20
3.2165710591
 10
-10.4553908918
 20
3.179498971
 10
-10.4136924694
 20
3.1462066658
 10
-10.3785463685
 20
3.1237703195
  0
LWPOLYLINE
  5
289
100
AcDbEntity
  8
0
100
AcDbPolyline
 62
253
  6
CONTINUOUS
 90
53
 70
0
 10
-2.2031957672
 20
-11.4367135541
 10
-2.2060697847
 20
-11.4298146817
 10
-2.2087711031
 20
-11.4229656214
 10
-2.2113093276
 20
-11.4161489552
 10
-2.2136940633
 20
-11.4093472655
 10
-2.2159349154
 20
-11.4025431343
 10
-2.2180393539
 20
-11.3957225709
 10
-2.2200063079
 20
-11.3888852932
 10
-2.2218325711
 20
-11.3820344461
 10
-2.2235149376
 20
-11.3751731745
 10
-2.2250502011
 20
-11.3683046235
 10
-2.2264348276
 20
-11.3614333858
 10
-2.2276639715
 20
-11.3545698452
 10
-2.2287324594
 20
-11.3477258335
 10
-2.2296351178
 20
-11.3409131824
 10
-2.2303667733
 20
-11.3341437236
 10
-2.2308423675
 20
-11.3285460572
 10
-2.2311940693
 20
-11.3230055639
 10
-2.2314203307
 20
-11.3175412057
 10
-2.2315196338
 20
-11.312167066
 10
-2.23149058
 20
-11.3068777142
 10
-2.2313318002
 20
-11.3016628412
 10
-2.2309679358
 20
-11.2954945111
 10
-2.2304119504
 20
-11.2894350972
 10
-2.2296604992
 20
-11.2835011111
 10
-2.2287102378
 20
-11.2777090649
 10
-2.2275578214
 20
-11.2720754705
 10
-2.2262017618
 20
-11.2666151569
 10
-2.2246479958
 20
-11.2613362218
 10
-2.2229043163
 20
-11.25624508
 10
-2.2209785167
 20
-11.2513481462
 10
-2.2188783899
 20
-11.2466518353
 10
-2.2169994611
 20
-11.2428940643
 10
-2.2150017203
 20
-11.2392714206
 10
-2.2128820043
 20
-11.2357752553
 10
-2.2106390849
 20
-11.2324002305
 10
-2.2082794742
 20
-11.2291542525
 10
-2.2058116197
 20
-11.2260485386
 10
-2.202718135
 20
-11.2225195184
 10
-2.1994891121
 20
-11.2192093796
 10
-2.1961327197
 20
-11.2161188704
 10
-2.1926571264
 20
-11.2132487389
 10
-2.1890705009
 20
-11.2105997334
 10
-2.1853801949
 20
-11.2081720775
 10
-2.1815902917
 20
-11.2059638965
 10
-2.177704058
 20
-11.2039727909
 10
-2.17372476
 20
-11.2021963614
 10
-2.1696556644
 20
-11.2006322086
 10
-2.1654972587
 20
-11.1992787701
 10
-2.1612389147
 20
-11.1981378308
 10
-2.1568672254
 20
-11.1972120126
 10
-2.1523687837
 20
-11.1965039373
 10
-2.1477301828
 20
-11.1960162269
  0
LWPOLYLINE
  5
28A
100
AcDbEntity
  8
0
100
AcDbPolyline
 62
253
  6
CONTINUOUS
 90
53
 70
0
 10
-1.5824305828
 20
-11.3894089118
 10
-1.5795901377
 20
-11.3963348275
 10
-1.5769223748
 20
-11.4032097504
 10
-1.5744177681
 20
-11.4100509692
 10
-1.5720667916
 20
-11.4168757725
 10
-1.5698599193
 20
-11.4237014491
 10
-1.5677897268
 20
-11.4305418903
 10
-1.5658571952
 20
-11.4373973989
 10
-1.5640654074
 20
-11.4442648805
 10
-1.5624174461
 20
-11.4511412405
 10
-1.5609163941
 20
-11.4580233845
 10
-1.5595656597
 20
-11.4649067556
 10
-1.5583699529
 20
-11.4717809477
 10
-1.5573343095
 20
-11.4786340924
 10
-1.5564637651
 20
-11.4854543212
 10
-1.5557633553
 20
-11.4922297657
 10
-1.5553130269
 20
-11.4978311749
 10
-1.5549857556
 20
-11.5033742426
 10
-1.5547829523
 20
-11.5088399697
 10
-1.5547060135
 20
-11.5142142274
 10
-1.5547562772
 20
-11.5195023689
 10
-1.554935067
 20
-11.5247146176
 10
-1.5553212708
 20
-11.5308779072
 10
-1.5558975741
 20
-11.536930548
 10
-1.5566670933
 20
-11.5428564547
 10
-1.5576329446
 20
-11.5486395421
 10
-1.5587982442
 20
-11.5542637248
 10
-1.5601642991
 20
-11.559714545
 10
-1.5617251787
 20
-11.5649840547
 10
-1.5634731429
 20
-11.5700659331
 10
-1.565400452
 20
-11.5749538594
 10
-1.5674993659
 20
-11.5796415131
 10
-1.5693752374
 20
-11.5833923808
 10
-1.5713680663
 20
-11.5870083378
 10
-1.5734810148
 20
-11.590497941
 10
-1.5757153326
 20
-11.5938664748
 10
-1.5780646181
 20
-11.5971061324
 10
-1.5805205571
 20
-11.6002058345
 10
-1.5835978242
 20
-11.6037282038
 10
-1.5868087171
 20
-11.6070323441
 10
-1.5901452531
 20
-11.6101175168
 10
-1.5935994494
 20
-11.612982983
 10
-1.5971633235
 20
-11.6156280041
 10
-1.6008296969
 20
-11.618052362
 10
-1.6045946089
 20
-11.6202579216
 10
-1.608454903
 20
-11.6222470685
 10
-1.6124074228
 20
-11.6240221881
 10
-1.6164490119
 20
-11.625585666
 10
-1.6205792468
 20
-11.6269390661
 10
-1.6248086356
 20
-11.6280806652
 10
-1.629150419
 20
-11.6290079187
 10
-1.6336178381
 20
-11.6297182818
 10
-1.6382241337
 20
-11.6302092098
  0
LINE
  5
28B
100
AcDbEntity
  8
0
100
AcDbLine
 62
253
  6
CONTINUOUS
 10
-2.9762749128
 20
-12.9037115494
 11
-3.0027342274
 21
-12.4881497087
  0
LWPOLYLINE
  5
28C
100
AcDbEntity
  8
0
100
AcDbPolyline
 62
253
  6
CONTINUOUS
 90
55
 70
0
 10
-3.0027342274
 20
-12.4881497081
 10
-3.0030187385
 20
-12.4820861299
 10
-3.0031255791
 20
-12.4761782735
 10
-3.003058269
 20
-12.4704091893
 10
-3.0028203279
 20
-12.4647619282
 10
-3.0024152757
 20
-12.4592195406
 10
-3.0018456664
 20
-12.4537685754
 10
-3.0011101919
 20
-12.4484095733
 10
-3.0002065782
 20
-12.4431465734
 10
-2.9991325516
 20
-12.4379836146
 10
-2.9978858383
 20
-12.4329247357
 10
-2.9964644248
 20
-12.4279750701
 10
-2.9948673401
 20
-12.4231441284
 10
-2.9930938733
 20
-12.4184425153
 10
-2.9911433138
 20
-12.4138808357
 10
-2.9890149507
 20
-12.4094696945
 10
-2.9871061605
 20
-12.405917376
 10
-2.9850800743
 20
-12.4024890218
 10
-2.9829433641
 20
-12.3991966909
 10
-2.9807005942
 20
-12.3960496086
 10
-2.9783478966
 20
-12.3930456638
 10
-2.9758792956
 20
-12.3901799112
 10
-2.97329014
 20
-12.3874493413
 10
-2.9705810783
 20
-12.3848586865
 10
-2.967754084
 20
-12.3824146148
 10
-2.9648111303
 20
-12.3801237942
 10
-2.9617541905
 20
-12.3779928927
 10
-2.958585238
 20
-12.3760285783
 10
-2.9553070699
 20
-12.3742362015
 10
-2.9519257784
 20
-12.3726158426
 10
-2.9484482793
 20
-12.3711662646
 10
-2.9448814887
 20
-12.3698862304
 10
-2.9412323226
 20
-12.3687745028
 10
-2.9375076967
 20
-12.3678298447
 10
-2.933712149
 20
-12.3670507789
 10
-2.9298407051
 20
-12.366434867
 10
-2.9258860125
 20
-12.3659794308
 10
-2.9218443525
 20
-12.3656822766
 10
-2.9177265418
 20
-12.3655431495
 10
-2.913547031
 20
-12.3655622795
 10
-2.908467959
 20
-12.3657934836
 10
-2.9033304508
 20
-12.3662474563
 10
-2.8981441097
 20
-12.3669187447
 10
-2.8929185388
 20
-12.3678018963
 10
-2.8876633414
 20
-12.3688914582
 10
-2.8823869701
 20
-12.3701822648
 10
-2.8770932758
 20
-12.3716702987
 10
-2.8717849587
 20
-12.3733518297
 10
-2.8664647191
 20
-12.3752231275
 10
-2.8611352572
 20
-12.3772804617
 10
-2.8557964524
 20
-12.3795225928
 10
-2.8504369002
 20
-12.3819582433
 10
-2.8450423754
 20
-12.3845986264
 10
-2.8395986526
 20
-12.3874549552
 10
-2.8340915065
 20
-12.3905384429
  0
LWPOLYLINE
  5
28D
100
AcDbEntity
  8
0
100
AcDbPolyline
 62
253
  6
CONTINUOUS
 90
55
 70
0
 10
-3.1061023217
 20
-10.268919458
 10
-3.1058119358
 20
-10.2751945768
 10
-3.105348715
 20
-10.2815130492
 10
-3.1047147477
 20
-10.2878891292
 10
-3.1039121223
 20
-10.294337071
 10
-3.1029429273
 20
-10.3008711286
 10
-3.1018085712
 20
-10.3075029002
 10
-3.1005077436
 20
-10.3142333596
 10
-3.0990384538
 20
-10.3210608249
 10
-3.0973987116
 20
-10.3279836142
 10
-3.0955865263
 20
-10.3350000452
 10
-3.093600291
 20
-10.3421069359
 10
-3.0914399328
 20
-10.349295103
 10
-3.0891057621
 20
-10.3565538631
 10
-3.0865980896
 20
-10.3638725327
 10
-3.0839172255
 20
-10.3712404283
 10
-3.0815524436
 20
-10.3774077419
 10
-3.0790758637
 20
-10.3835806682
 10
-3.076495744
 20
-10.389738054
 10
-3.0738178418
 20
-10.3958643643
 10
-3.0710379101
 20
-10.4019665349
 10
-3.0681492011
 20
-10.4080571196
 10
-3.065146549
 20
-10.4141449927
 10
-3.0620311156
 20
-10.4202243094
 10
-3.0588056445
 20
-10.426285545
 10
-3.0554728796
 20
-10.4323191753
 10
-3.0520355645
 20
-10.4383156756
 10
-3.048496443
 20
-10.4442655215
 10
-3.0448589979
 20
-10.4501596209
 10
-3.0411296683
 20
-10.4559906109
 10
-3.0373156323
 20
-10.4617515612
 10
-3.033424068
 20
-10.4674355412
 10
-3.0294621537
 20
-10.4730356204
 10
-3.0254370674
 20
-10.4785448686
 10
-3.0213534572
 20
-10.4839594673
 10
-3.0172058508
 20
-10.4892880471
 10
-3.0129862456
 20
-10.4945423506
 10
-3.0086905138
 20
-10.4997292337
 10
-3.004330026
 20
-10.5048360047
 10
-2.9999200272
 20
-10.5098450851
 10
-2.9945813455
 20
-10.5157064085
 10
-2.9892029016
 20
-10.5213961427
 10
-2.9837942762
 20
-10.5269086862
 10
-2.9783650498
 20
-10.5322384374
 10
-2.9729248032
 20
-10.5373797946
 10
-2.967481933
 20
-10.5423282244
 10
-2.9620401009
 20
-10.5470834656
 10
-2.9566017846
 20
-10.5516463253
 10
-2.9511694617
 20
-10.5560176104
 10
-2.9457456099
 20
-10.560198128
 10
-2.9403299797
 20
-10.564189374
 10
-2.9349114115
 20
-10.5679956001
 10
-2.9294760185
 20
-10.5716217471
 10
-2.9240099139
 20
-10.5750727556
 10
-2.9184992108
 20
-10.5783535665
  0
LINE
  5
28E
100
AcDbEntity
  8
ASSI
100
AcDbLine
 62
7
  6
CONTINUOUS
 10
-5.0806689847
 20
21.9606661208
 11
-5.0594636955
 21
21.3441936234
  0
LWPOLYLINE
  5
28F
100
AcDbEntity
  8
0
100
AcDbPolyline
 62
253
  6
CONTINUOUS
 90
55
 70
0
 10
-3.2756214809
 20
-11.2599052656
 10
-3.2760499452
 20
-11.2468346872
 10
-3.2761056936
 20
-11.2340710234
 10
-3.2757937215
 20
-11.2215774433
 10
-3.2751190238
 20
-11.2093171161
 10
-3.2740865958
 20
-11.197253211
 10
-3.2726992501
 20
-11.1853564229
 10
-3.2709510687
 20
-11.1736275505
 10
-3.2688339513
 20
-11.1620749183
 10
-3.2663397973
 20
-11.1507068506
 10
-3.2634605063
 20
-11.1395316719
 10
-3.2601888603
 20
-11.1285611734
 10
-3.2565211704
 20
-11.1178210131
 10
-3.2524546306
 20
-11.1073403157
 10
-3.2479864345
 20
-11.0971482059
 10
-3.2431137758
 20
-11.0872738083
 10
-3.2387455249
 20
-11.0793113155
 10
-3.2341125472
 20
-11.0716213142
 10
-3.2292329414
 20
-11.064235437
 10
-3.2241190556
 20
-11.0571777668
 10
-3.2187602348
 20
-11.0504421883
 10
-3.2131400738
 20
-11.0440150369
 10
-3.2072458602
 20
-11.0378877056
 10
-3.2010796552
 20
-11.0320718197
 10
-3.1946472132
 20
-11.026584062
 10
-3.1879542884
 20
-11.0214411155
 10
-3.1810066352
 20
-11.0166596635
 10
-3.1738100081
 20
-11.0122563888
 10
-3.1663721344
 20
-11.0082446428
 10
-3.1587086344
 20
-11.0046244504
 10
-3.150837101
 20
-11.0013925048
 10
-3.1427751275
 20
-10.9985454992
 10
-3.1345403071
 20
-10.9960801268
 10
-3.126150233
 20
-10.9939930808
 10
-3.1176161042
 20
-10.9922804472
 10
-3.1089235433
 20
-10.9909358841
 10
-3.1000517787
 20
-10.9899524422
 10
-3.0909901282
 20
-10.9893244025
 10
-3.0817682663
 20
-10.9890509665
 10
-3.0724259566
 20
-10.9891325659
 10
-3.0611052645
 20
-10.9896966521
 10
-3.0496955989
 20
-10.9907548304
 10
-3.0382241709
 20
-10.9922893205
 10
-3.0267181921
 20
-10.9942823421
 10
-3.0152048737
 20
-10.9967161146
 10
-3.0037073254
 20
-10.9995738739
 10
-2.9922322501
 20
-11.0028429206
 10
-2.9807822487
 20
-11.0065115718
 10
-2.9693599224
 20
-11.0105681444
 10
-2.9579678723
 20
-11.0150009552
 10
-2.946603094
 20
-11.0198037034
 10
-2.9352401609
 20
-11.0249916171
 10
-2.923848041
 20
-11.0305853066
 10
-2.9123957021
 20
-11.0366053821
 10
-2.9008521122
 20
-11.0430724541
  0
LWPOLYLINE
  5
290
100
AcDbEntity
  8
0
100
AcDbPolyline
 62
253
  6
CONTINUOUS
 90
55
 70
0
 10
-3.8497446389
 20
9.4734004324
 10
-3.8501183823
 20
9.4669649052
 10
-3.8506626465
 20
9.4606885627
 10
-3.8513756268
 20
9.4545534463
 10
-3.8522555182
 20
9.4485415971
 10
-3.8533005159
 20
9.4426350563
 10
-3.8545094458
 20
9.436819572
 10
-3.8558836569
 20
9.4310957188
 10
-3.857425129
 20
9.4254677783
 10
-3.859135842
 20
9.419940032
 10
-3.8610177756
 20
9.4145167614
 10
-3.8630725193
 20
9.409203406
 10
-3.8653001017
 20
9.4040100377
 10
-3.8677001609
 20
9.3989478866
 10
-3.8702723353
 20
9.3940281827
 10
-3.8730162631
 20
9.3892621559
 10
-3.8754324589
 20
9.3854170477
 10
-3.8779593658
 20
9.3816994766
 10
-3.8805886731
 20
9.3781224611
 10
-3.8833146164
 20
9.3746959409
 10
-3.8861416168
 20
9.3714175426
 10
-3.8890766419
 20
9.3682818142
 10
-3.8921250328
 20
9.3652854179
 10
-3.8952856247
 20
9.362433473
 10
-3.8985556264
 20
9.3597332133
 10
-3.9019322468
 20
9.3571918722
 10
-3.9054126945
 20
9.3548166834
 10
-3.9089941784
 20
9.3526148805
 10
-3.9126731786
 20
9.3505923119
 10
-3.9164432607
 20
9.3487492853
 10
-3.9202972617
 20
9.3470847231
 10
-3.9242280186
 20
9.3455975479
 10
-3.9282283682
 20
9.3442866822
 10
-3.9322911477
 20
9.3431510483
 10
-3.9364117459
 20
9.3421892296
 10
-3.9405957591
 20
9.3413984523
 10
-3.9448513357
 20
9.3407756036
 10
-3.9491826982
 20
9.340318213
 10
-3.9535783662
 20
9.34002638
 10
-3.9580229332
 20
9.3399008467
 10
-3.9634021037
 20
9.3399696375
 10
-3.9688198944
 20
9.3402734725
 10
-3.974266696
 20
9.3408068557
 10
-3.9797328992
 20
9.3415642912
 10
-3.9852088945
 20
9.342540283
 10
-3.9906862637
 20
9.3437296032
 10
-3.9961613529
 20
9.345128095
 10
-4.0016316993
 20
9.3467318697
 10
-4.0070948401
 20
9.3485370387
 10
-4.0125483124
 20
9.350539713
 10
-4.0179923935
 20
9.3527385608
 10
-4.02343832
 20
9.3551424763
 10
-4.0289000687
 20
9.357762911
 10
-4.0343916163
 20
9.3606113158
 10
-4.0399269395
 20
9.363699142
  0
LWPOLYLINE
  5
291
100
AcDbEntity
  8
0
100
AcDbPolyline
 62
253
  6
CONTINUOUS
 90
51
 70
0
 10
-3.430317652
 20
9.2312285468
 10
-3.4291177929
 20
9.2517432494
 10
-3.4273483451
 20
9.2718744648
 10
-3.4250096575
 20
9.2916792829
 10
-3.4221020787
 20
9.3112147933
 10
-3.4186231522
 20
9.3305273824
 10
-3.4145592004
 20
9.3496206219
 10
-3.4098937406
 20
9.3684873801
 10
-3.40461029
 20
9.3871205251
 10
-3.3986965377
 20
9.4055027299
 10
-3.3921568609
 20
9.4235758852
 10
-3.3849998085
 20
9.4412716867
 10
-3.3772339294
 20
9.4585218299
 10
-3.3688671239
 20
9.4752641761
 10
-3.3599046974
 20
9.4914612499
 10
-3.3503513066
 20
9.5070817419
 10
-3.3402116083
 20
9.5220943423
 10
-3.3307107391
 20
9.5349029009
 10
-3.3207574066
 20
9.5471824091
 10
-3.3103587232
 20
9.5589088642
 10
-3.2995218017
 20
9.5700582635
 10
-3.2882537546
 20
9.5806066043
 10
-3.2765616947
 20
9.5905298838
 10
-3.2644527344
 20
9.5998040994
 10
-3.2519339864
 20
9.6084052484
 10
-3.2390125633
 20
9.6163093281
 10
-3.2256986864
 20
9.6234971665
 10
-3.2120150119
 20
9.6299689149
 10
-3.1979873045
 20
9.6357295556
 10
-3.1836413289
 20
9.6407840705
 10
-3.1690028501
 20
9.6451374418
 10
-3.1540976327
 20
9.6487946516
 10
-3.1389514415
 20
9.651760682
 10
-3.1235900414
 20
9.6540405151
 10
-3.1080391972
 20
9.655639133
 10
-3.0903485017
 20
9.656630833
 10
-3.0724775495
 20
9.6567816682
 10
-3.0544532402
 20
9.6561066315
 10
-3.0363024738
 20
9.6546207156
 10
-3.0180580988
 20
9.6523413383
 10
-2.9997767584
 20
9.6492956172
 10
-2.9815210445
 20
9.6455130948
 10
-2.9633535489
 20
9.6410233138
 10
-2.9453258031
 20
9.6358541241
 10
-2.9274450967
 20
9.6300266045
 10
-2.9097076592
 20
9.6235601414
 10
-2.8921097198
 20
9.616474121
 10
-2.8746403723
 20
9.6087798449
 10
-2.8572601674
 20
9.6004562763
 10
-2.8399225204
 20
9.5914742934
 10
-2.8225808465
 20
9.5818047749
  0
LWPOLYLINE
  5
292
100
AcDbEntity
  8
0
100
AcDbPolyline
 62
253
  6
CONTINUOUS
 90
3
 70
0
 10
-2.9055245732
 20
11.3105767835
 10
-2.9234881456
 20
11.0445432864
 10
-2.9637601578
 20
10.4023125854
  0
LINE
  5
293
100
AcDbEntity
  8
ASSI
100
AcDbLine
 62
7
  6
CONTINUOUS
 10
2.8389269646
 20
17.3879906755
 11
2.6586757152
 21
16.9737705167
  0
LINE
  5
294
100
AcDbEntity
  8
0
100
AcDbLine
 62
253
  6
CONTINUOUS
 10
-2.6410793665
 20
-12.6969646922
 11
-2.614620052
 21
-13.112526533
  0
LWPOLYLINE
  5
295
100
AcDbEntity
  8
0
100
AcDbPolyline
 62
253
  6
CONTINUOUS
 90
55
 70
0
 10
-2.6146200519
 20
-13.1125265335
 10
-2.6143031165
 20
-13.1185578533
 10
-2.6141622679
 20
-13.124434309
 10
-2.614193985
 20
-13.1301728268
 10
-2.614394747
 20
-13.1357903328
 10
-2.614761033
 20
-13.141303753
 10
-2.6152902985
 20
-13.1467265062
 10
-2.6159839042
 20
-13.1520579821
 10
-2.6168441872
 20
-13.1572940633
 10
-2.6178734848
 20
-13.1624306322
 10
-2.6190741339
 20
-13.1674635713
 10
-2.6204482294
 20
-13.1723876879
 10
-2.6219968967
 20
-13.1771934884
 10
-2.6237210186
 20
-13.1818704041
 10
-2.6256214783
 20
-13.1864078662
 10
-2.6276991588
 20
-13.1907953059
 10
-2.6295654227
 20
-13.1943283046
 10
-2.6315489773
 20
-13.19773781
 10
-2.6336434302
 20
-13.2010118504
 10
-2.6358444637
 20
-13.2041412648
 10
-2.6381560594
 20
-13.2071281339
 10
-2.6405842735
 20
-13.2099773489
 10
-2.6431338464
 20
-13.2126918503
 10
-2.6458042555
 20
-13.2152667751
 10
-2.648593662
 20
-13.2176953096
 10
-2.6515002275
 20
-13.2199706399
 10
-2.6545221132
 20
-13.2220859524
 10
-2.6576574807
 20
-13.2240344333
 10
-2.6609036531
 20
-13.2258106147
 10
-2.6642546016
 20
-13.2274144127
 10
-2.6677034589
 20
-13.2288470895
 10
-2.671243358
 20
-13.230109907
 10
-2.6748674317
 20
-13.2312041273
 10
-2.6785688129
 20
-13.2321310125
 10
-2.6823430073
 20
-13.2328920614
 10
-2.686195012
 20
-13.2334897201
 10
-2.6901321968
 20
-13.2339266715
 10
-2.6941582924
 20
-13.2342051266
 10
-2.6982624719
 20
-13.2343254096
 10
-2.7024302693
 20
-13.2342873725
 10
-2.7074977903
 20
-13.2340335063
 10
-2.7126264337
 20
-13.2335570035
 10
-2.7178065435
 20
-13.232863421
 10
-2.7230284636
 20
-13.2319583156
 10
-2.7282825379
 20
-13.2308472444
 10
-2.7335602627
 20
-13.2295354685
 10
-2.7388577435
 20
-13.228027066
 10
-2.7441722383
 20
-13.2263258192
 10
-2.749501005
 20
-13.2244355105
 10
-2.7548413013
 20
-13.2223599224
 10
-2.760193245
 20
-13.2201003242
 10
-2.7655683927
 20
-13.2176479341
 10
-2.7709811609
 20
-13.2149914571
 10
-2.7764459658
 20
-13.2121195984
 10
-2.781977224
 20
-13.2090210632
  0
LWPOLYLINE
  5
296
100
AcDbEntity
  8
0
100
AcDbPolyline
 62
253
  6
CONTINUOUS
 90
55
 70
0
 10
-2.7570818897
 20
-10.0544207112
 10
-2.7573387161
 20
-10.0481400921
 10
-2.7577668227
 20
-10.041815608
 10
-2.7583641361
 20
-10.0354328093
 10
-2.7591285823
 20
-10.0289772463
 10
-2.7600580877
 20
-10.0224344693
 10
-2.7611512661
 20
-10.0157927277
 10
-2.7624094817
 20
-10.0090510665
 10
-2.7638347861
 20
-10.0022112296
 10
-2.765429231
 20
-9.9952749609
 10
-2.7671948681
 20
-9.9882440045
 10
-2.7691333848
 20
-9.9811215903
 10
-2.7712450112
 20
-9.9739168924
 10
-2.7735296131
 20
-9.966640571
 10
-2.7759870562
 20
-9.9593032861
 10
-2.7786172065
 20
-9.9519156979
 10
-2.7809395156
 20
-9.945731126
 10
-2.7833736996
 20
-9.939540115
 10
-2.785911791
 20
-9.9333637559
 10
-2.7885482869
 20
-9.9272175119
 10
-2.7912875423
 20
-9.9210943353
 10
-2.7941363769
 20
-9.9149815506
 10
-2.7971000357
 20
-9.9088702206
 10
-2.8001774665
 20
-9.90276636
 10
-2.8033660424
 20
-9.8966797216
 10
-2.8066631365
 20
-9.8906200583
 10
-2.8100661221
 20
-9.8845971229
 10
-2.8135723723
 20
-9.8786206683
 10
-2.8171785094
 20
-9.8726999861
 10
-2.8208781516
 20
-9.8668425237
 10
-2.8246641664
 20
-9.8610552673
 10
-2.8285294212
 20
-9.855345203
 10
-2.8324667831
 20
-9.849719317
 10
-2.8364691198
 20
-9.8441845955
 10
-2.840531822
 20
-9.8387448843
 10
-2.8446603755
 20
-9.8333914677
 10
-2.8488627893
 20
-9.8281124896
 10
-2.8531431973
 20
-9.8229010272
 10
-2.8574902325
 20
-9.8177698915
 10
-2.8618886525
 20
-9.8127368268
 10
-2.8672159108
 20
-9.8068474152
 10
-2.8725855995
 20
-9.8011304111
 10
-2.8779881038
 20
-9.7955914479
 10
-2.8834138087
 20
-9.7902361593
 10
-2.8888530995
 20
-9.7850701788
 10
-2.8942975422
 20
-9.7800980672
 10
-2.8997434269
 20
-9.7753200945
 10
-2.9051882246
 20
-9.7707354583
 10
-2.9106294063
 20
-9.7663433557
 10
-2.9160644431
 20
-9.7621429842
 10
-2.9214935744
 20
-9.7581328441
 10
-2.9269281127
 20
-9.7543086471
 10
-2.9323821391
 20
-9.750665408
 10
-2.9378697344
 20
-9.7471981414
 10
-2.9434049796
 20
-9.7439018621
  0
LWPOLYLINE
  5
297
100
AcDbEntity
  8
0
100
AcDbPolyline
 62
253
  6
CONTINUOUS
 90
55
 70
0
 10
-2.4871289543
 20
-11.7151709684
 10
-2.486699336
 20
-11.7282180342
 10
-2.4866380292
 20
-11.7409564038
 10
-2.4869400577
 20
-11.7534228568
 10
-2.4876004454
 20
-11.7656541727
 10
-2.4886142161
 20
-11.7776871311
 10
-2.4899785668
 20
-11.789550992
 10
-2.4916993868
 20
-11.8012449361
 10
-2.493784739
 20
-11.8127606248
 10
-2.4962426857
 20
-11.8240897193
 10
-2.4990812897
 20
-11.8352238808
 10
-2.5023077626
 20
-11.8461513248
 10
-2.5059259126
 20
-11.8568464835
 10
-2.5099386971
 20
-11.8672803435
 10
-2.5143490731
 20
-11.8774238915
 10
-2.5191599982
 20
-11.8872481138
 10
-2.5234739703
 20
-11.8951676725
 10
-2.528050424
 20
-11.9028139459
 10
-2.532871628
 20
-11.9101555505
 10
-2.5379255435
 20
-11.9171686069
 10
-2.5432229016
 20
-11.9238592498
 10
-2.5487801255
 20
-11.9302411179
 10
-2.5546099881
 20
-11.9363228173
 10
-2.560710661
 20
-11.9420928236
 10
-2.5670766652
 20
-11.9475345801
 10
-2.5737025216
 20
-11.9526315299
 10
-2.5805827514
 20
-11.9573671163
 10
-2.5877118756
 20
-11.9617247824
 10
-2.5950824401
 20
-11.9656913009
 10
-2.6026790909
 20
-11.9692667627
 10
-2.6104844987
 20
-11.9724545879
 10
-2.6184813343
 20
-11.9752581969
 10
-2.6266522685
 20
-11.9776810098
 10
-2.634979972
 20
-11.9797264469
 10
-2.6434534646
 20
-11.9813985049
 10
-2.6520871609
 20
-11.9827034858
 10
-2.6609018244
 20
-11.9836482681
 10
-2.6699081825
 20
-11.984238546
 10
-2.679076817
 20
-11.9844752766
 10
-2.6883682736
 20
-11.984358233
 10
-2.6996314462
 20
-11.9837535241
 10
-2.710987599
 20
-11.9826569323
 10
-2.7224096629
 20
-11.9810863362
 10
-2.7338705685
 20
-11.9790596146
 10
-2.7453432466
 20
-11.9765946464
 10
-2.7568047059
 20
-11.9737082731
 10
-2.768248267
 20
-11.9704131869
 10
-2.7796713286
 20
-11.9667210428
 10
-2.7910712892
 20
-11.962643496
 10
-2.8024455475
 20
-11.9581922015
 10
-2.8137971152
 20
-11.9533734414
 10
-2.825151456
 20
-11.9481720071
 10
-2.8365396472
 20
-11.9425673171
 10
-2.8479927657
 20
-11.9365387899
 10
-2.8595418885
 20
-11.930065844
  0
LINE
  5
298
100
AcDbEntity
  8
0
100
AcDbLine
 62
253
  6
CONTINUOUS
 10
-3.1187367506
 20
-9.8456057271
 11
-3.1061023222
 21
-10.2689194447
  0
LINE
  5
299
100
AcDbEntity
  8
0
100
AcDbLine
 62
253
  6
CONTINUOUS
 10
-2.7444474608
 20
-10.4777344421
 11
-2.7570818894
 21
-10.0544207246
  0
LWPOLYLINE
  5
29A
100
AcDbEntity
  8
0
100
AcDbPolyline
 62
253
  6
CONTINUOUS
 90
3
 70
0
 10
-3.1078090182
 20
6.7301683492
 10
-3.0965464752
 20
7.2495087076
 10
-3.086718648
 20
7.61750382
  0
LWPOLYLINE
  5
29B
100
AcDbEntity
  8
0
100
AcDbPolyline
 62
253
  6
CONTINUOUS
 90
3
 70
0
 10
-2.725063787
 20
7.4086888408
 10
-2.7321780361
 20
7.1482111614
 10
-2.7461541572
 20
6.52135337
  0
LWPOLYLINE
  5
29C
100
AcDbEntity
  8
0
100
AcDbPolyline
 62
253
  6
CONTINUOUS
 90
55
 70
0
 10
-2.7461541573
 20
6.5213533652
 10
-2.7463627257
 20
6.5149878791
 10
-2.7467451468
 20
6.5087830093
 10
-2.7472990472
 20
6.5027210683
 10
-2.7480220532
 20
6.4967843685
 10
-2.7489117912
 20
6.4909552226
 10
-2.7499666121
 20
6.4852195726
 10
-2.7511877648
 20
6.4795778783
 10
-2.7525772228
 20
6.4740342294
 10
-2.7541369595
 20
6.4685927152
 10
-2.7558689483
 20
6.4632574252
 10
-2.7577747964
 20
6.4580336035
 10
-2.7598546454
 20
6.452931112
 10
-2.7621082705
 20
6.4479609671
 10
-2.7645354471
 20
6.4431341853
 10
-2.7671359505
 20
6.4384617831
 10
-2.7694339516
 20
6.4346950523
 10
-2.7718440802
 20
6.431055921
 10
-2.7743582542
 20
6.4275571304
 10
-2.7769708273
 20
6.4242084058
 10
-2.7796858972
 20
6.4210074097
 10
-2.7825099977
 20
6.4179487884
 10
-2.7854481371
 20
6.4150292082
 10
-2.7884992225
 20
6.4122534134
 10
-2.7916606358
 20
6.4096281684
 10
-2.7949297585
 20
6.407160237
 10
-2.7983039726
 20
6.4048563836
 10
-2.8017806597
 20
6.4027233721
 10
-2.8053564628
 20
6.4007666508
 10
-2.80902507
 20
6.3989864048
 10
-2.8127794304
 20
6.3973815034
 10
-2.8166124933
 20
6.3959508156
 10
-2.820517208
 20
6.3946932109
 10
-2.8244865236
 20
6.3936075582
 10
-2.8285158762
 20
6.3926924289
 10
-2.832610649
 20
6.3919452013
 10
-2.8367787118
 20
6.3913629561
 10
-2.8410241234
 20
6.390943367
 10
-2.8453356984
 20
6.3906864815
 10
-2.8496984402
 20
6.3905929405
 10
-2.8549828931
 20
6.39069613
 10
-2.8603099438
 20
6.3910300952
 10
-2.8656701049
 20
6.3915894729
 10
-2.871053889
 20
6.3923688996
 10
-2.8764518089
 20
6.3933630123
 10
-2.8818555504
 20
6.3945667151
 10
-2.8872614918
 20
6.3959759833
 10
-2.8926671847
 20
6.3975870595
 10
-2.8980701806
 20
6.3993961865
 10
-2.9034680312
 20
6.4013996071
 10
-2.9088609982
 20
6.4035960631
 10
-2.9142601851
 20
6.4059942933
 10
-2.9196794053
 20
6.4086055355
 10
-2.9251324727
 20
6.4114410275
 10
-2.9306332007
 20
6.4145120071
  0
LWPOLYLINE
  5
29D
100
AcDbEntity
  8
0
100
AcDbPolyline
 62
253
  6
CONTINUOUS
 90
55
 70
0
 10
-3.0867186479
 20
7.6175038249
 10
-3.0864458098
 20
7.6238639732
 10
-3.085999676
 20
7.6300656269
 10
-3.08538239
 20
7.6361264966
 10
-3.0845960951
 20
7.6420642929
 10
-3.0836429351
 20
7.6478967264
 10
-3.082524369
 20
7.6536378632
 10
-3.0812391189
 20
7.6592871912
 10
-3.0797852228
 20
7.6648405537
 10
-3.0781607184
 20
7.670293794
 10
-3.0763636437
 20
7.6756427555
 10
-3.0743924168
 20
7.6808821336
 10
-3.0722469778
 20
7.6860020326
 10
-3.0699276471
 20
7.6909914085
 10
-3.0674347453
 20
7.6958392177
 10
-3.0647685927
 20
7.7005344164
 10
-3.0624160201
 20
7.7043214682
 10
-3.0599515488
 20
7.7079820669
 10
-3.0573833707
 20
7.7115034083
 10
-3.0547171915
 20
7.7148757163
 10
-3.0519487734
 20
7.7181013277
 10
-3.0490713926
 20
7.7211856073
 10
-3.0460799033
 20
7.7241318507
 10
-3.0429754705
 20
7.7269350758
 10
-3.0397608375
 20
7.7295882316
 10
-3.036438747
 20
7.7320842666
 10
-3.0330119423
 20
7.7344161298
 10
-3.0294831663
 20
7.7365767698
 10
-3.0258558822
 20
7.7385604815
 10
-3.0221364342
 20
7.7403669441
 10
-3.0183318864
 20
7.7419971829
 10
-3.0144493032
 20
7.7434522233
 10
-3.0104957489
 20
7.7447330905
 10
-3.0064782876
 20
7.7458408099
 10
-3.0024014725
 20
7.7467767287
 10
-2.9982598113
 20
7.7475434815
 10
-2.9940453009
 20
7.7481440248
 10
-2.9897538177
 20
7.7485806996
 10
-2.9853967591
 20
7.7488533845
 10
-2.9809894022
 20
7.7489613425
 10
-2.9756528903
 20
7.748873528
 10
-2.9702755456
 20
7.7485528517
 10
-2.964866966
 20
7.7480047198
 10
-2.959436749
 20
7.7472345386
 10
-2.9539944923
 20
7.7462477142
 10
-2.9485485999
 20
7.7450493842
 10
-2.9431027015
 20
7.7436436103
 10
-2.9376592328
 20
7.7420341857
 10
-2.9322206299
 20
7.7402249033
 10
-2.9267893286
 20
7.7382195564
 10
-2.9213650528
 20
7.7360194168
 10
-2.9159366779
 20
7.7336156722
 10
-2.9104903672
 20
7.7309969892
 10
-2.9050122842
 20
7.7281520342
 10
-2.8994885921
 20
7.725069474
  0
LWPOLYLINE
  5
29E
100
AcDbEntity
  8
0
100
AcDbPolyline
 62
253
  6
CONTINUOUS
 90
55
 70
0
 10
-2.9637601578
 20
10.4023125854
 10
-2.9640602362
 20
10.395711017
 10
-2.9641819664
 20
10.3890685304
 10
-2.9641289358
 20
10.3823701106
 10
-2.9639047314
 20
10.3756007423
 10
-2.9635129404
 20
10.3687454105
 10
-2.9629561765
 20
10.3617919037
 10
-2.9622331597
 20
10.3547392244
 10
-2.9613416366
 20
10.3475891788
 10
-2.9602793537
 20
10.340343573
 10
-2.9590440576
 20
10.3330042132
 10
-2.9576337535
 20
10.3255744786
 10
-2.9560474819
 20
10.3180640414
 10
-2.9542845417
 20
10.310484147
 10
-2.9523442321
 20
10.3028460407
 10
-2.9502258521
 20
10.2951609679
 10
-2.9483251816
 20
10.2887315629
 10
-2.9463070258
 20
10.2822993788
 10
-2.9441780461
 20
10.2758864429
 10
-2.9419428044
 20
10.2695089338
 10
-2.9395974655
 20
10.2631596344
 10
-2.9371360948
 20
10.2568254791
 10
-2.934554075
 20
10.2504972505
 10
-2.9318520576
 20
10.2441811251
 10
-2.9290320116
 20
10.2378871277
 10
-2.9260959057
 20
10.2316252831
 10
-2.9230457087
 20
10.2254056162
 10
-2.9198833896
 20
10.2192381519
 10
-2.9166117344
 20
10.2131324255
 10
-2.9132367986
 20
10.2070960141
 10
-2.9097654549
 20
10.2011360052
 10
-2.9062045762
 20
10.1952594866
 10
-2.9025610351
 20
10.1894735457
 10
-2.8988417046
 20
10.1837852703
 10
-2.8950510877
 20
10.1781985398
 10
-2.8911842103
 20
10.1727044019
 10
-2.8872337283
 20
10.1672906961
 10
-2.8831959296
 20
10.1619503129
 10
-2.8790816281
 20
10.1566963456
 10
-2.8749052693
 20
10.1515469388
 10
-2.8698295038
 20
10.1455269288
 10
-2.8646947873
 20
10.1396892356
 10
-2.8595107297
 20
10.1340394811
 10
-2.8542869408
 20
10.1285832873
 10
-2.8490330304
 20
10.1233262762
 10
-2.8437574527
 20
10.1182729722
 10
-2.8384640383
 20
10.1134235095
 10
-2.8331554625
 20
10.1087769246
 10
-2.8278344
 20
10.104332254
 10
-2.8225035261
 20
10.1000885344
 10
-2.8171627047
 20
10.0960441671
 10
-2.8118005564
 20
10.0921950121
 10
-2.8064028909
 20
10.0885362944
 10
-2.8009555179
 20
10.0850632388
 10
-2.795444247
 20
10.0817710702
  0
LWPOLYLINE
  5
29F
100
AcDbEntity
  8
0
100
AcDbPolyline
 62
253
  6
CONTINUOUS
 90
55
 70
0
 10
-2.5438697123
 20
11.1017617994
 10
-2.5435031247
 20
11.1083955263
 10
-2.5433133038
 20
11.1150699777
 10
-2.5432965761
 20
11.1218003864
 10
-2.5434492682
 20
11.1286019852
 10
-2.5437677065
 20
11.1354900066
 10
-2.5442492209
 20
11.1424768391
 10
-2.5448951543
 20
11.1495634927
 10
-2.5457078528
 20
11.1567481335
 10
-2.5466896627
 20
11.1640289271
 10
-2.5478429301
 20
11.1714040394
 10
-2.5491697678
 20
11.1788700619
 10
-2.550671356
 20
11.1864172895
 10
-2.5523486412
 20
11.1940344427
 10
-2.5542025703
 20
11.201710242
 10
-2.5562340899
 20
11.2094334081
 10
-2.5580622231
 20
11.2158948315
 10
-2.5600080343
 20
11.2223592267
 10
-2.5620652175
 20
11.2288045045
 10
-2.5642295085
 20
11.235214465
 10
-2.5665048119
 20
11.2415964645
 10
-2.5688970742
 20
11.247963748
 10
-2.5714109544
 20
11.2543256482
 10
-2.5740459612
 20
11.2606758474
 10
-2.5768003159
 20
11.2670041154
 10
-2.5796722395
 20
11.273300222
 10
-2.5826599533
 20
11.2795539369
 10
-2.5857616785
 20
11.2857550299
 10
-2.5889747906
 20
11.2918937806
 10
-2.5922932829
 20
11.2979625074
 10
-2.5957103028
 20
11.3039540386
 10
-2.5992189981
 20
11.3098612023
 10
-2.6028125163
 20
11.3156768268
 10
-2.6064840049
 20
11.3213937404
 10
-2.6102289693
 20
11.3270080204
 10
-2.6140523463
 20
11.3325287415
 10
-2.6179614304
 20
11.3379682276
 10
-2.6219599082
 20
11.3433337014
 10
-2.6260370359
 20
11.3486119814
 10
-2.6301784618
 20
11.353784785
 10
-2.6352153674
 20
11.3598315052
 10
-2.640314565
 20
11.3656943783
 10
-2.6454664237
 20
11.3713677704
 10
-2.6506613125
 20
11.3768460472
 10
-2.6558896004
 20
11.3821235745
 10
-2.6611428039
 20
11.3871958193
 10
-2.6664170289
 20
11.392062652
 10
-2.671709529
 20
11.3967250444
 10
-2.6770175577
 20
11.4011839681
 10
-2.6823383682
 20
11.4054403946
 10
-2.6876720705
 20
11.4094959375
 10
-2.6930301995
 20
11.4133547786
 10
-2.6984271465
 20
11.4170217413
 10
-2.7038773029
 20
11.4205016494
 10
-2.7093950599
 20
11.4237993265
  0
LWPOLYLINE
  5
2A0
100
AcDbEntity
  8
0
100
AcDbPolyline
 62
253
  6
CONTINUOUS
 90
51
 70
0
 10
-2.2803709398
 20
8.5672637274
 10
-2.2815672756
 20
8.5467200973
 10
-2.2833231196
 20
8.5265681058
 10
-2.2856379604
 20
8.5067502782
 10
-2.2885112867
 20
8.4872091401
 10
-2.2919453309
 20
8.4678980775
 10
-2.2959532996
 20
8.448813919
 10
-2.3005511436
 20
8.4299643537
 10
-2.3057548132
 20
8.4113570706
 10
-2.3115762647
 20
8.393009707
 10
-2.3180114765
 20
8.3749796915
 10
-2.325052433
 20
8.3573344007
 10
-2.3326911181
 20
8.3401412113
 10
-2.340920224
 20
8.3234614177
 10
-2.3497352731
 20
8.307331984
 10
-2.3591324959
 20
8.2917837923
 10
-2.3691081227
 20
8.2768477244
 10
-2.3784572529
 20
8.2641104274
 10
-2.3882540475
 20
8.251905038
 10
-2.3984921391
 20
8.2402554098
 10
-2.4091651599
 20
8.2291853962
 10
-2.4202667423
 20
8.218718851
 10
-2.4317905187
 20
8.2088796277
 10
-2.4437301216
 20
8.1996915798
 10
-2.4560791832
 20
8.1911785611
 10
-2.468831336
 20
8.1833644251
 10
-2.4819770562
 20
8.1762681318
 10
-2.4954941954
 20
8.1698890669
 10
-2.5093574491
 20
8.1642217225
 10
-2.5235415128
 20
8.1592605909
 10
-2.5380210821
 20
8.1550001641
 10
-2.5527708523
 20
8.1514349342
 10
-2.567765519
 20
8.1485593935
 10
-2.5829797777
 20
8.146368034
 10
-2.5983883239
 20
8.1448553479
 10
-2.615925324
 20
8.1439566723
 10
-2.6336501152
 20
8.1438944945
 10
-2.6515366194
 20
8.144653337
 10
-2.6695587585
 20
8.1462177224
 10
-2.6876845799
 20
8.1485698521
 10
-2.7058586326
 20
8.1516826423
 10
-2.724019591
 20
8.1555266879
 10
-2.7421061294
 20
8.1600725839
 10
-2.7600676477
 20
8.1652926255
 10
-2.7778964478
 20
8.1711659087
 10
-2.795595557
 20
8.1776732297
 10
-2.8131680027
 20
8.1847953847
 10
-2.8306241367
 20
8.1925212846
 10
-2.848003609
 20
8.2008722984
 10
-2.8653533936
 20
8.2098779096
 10
-2.8827204651
 20
8.2195676019
  0
LWPOLYLINE
  5
2A1
100
AcDbEntity
  8
0
100
AcDbPolyline
 62
253
  6
CONTINUOUS
 90
55
 70
0
 10
-1.8609680445
 20
8.325105752
 10
-1.8605914698
 20
8.3315665416
 10
-1.8600411491
 20
8.3378662418
 10
-1.8593190759
 20
8.3440227199
 10
-1.8584272438
 20
8.3500538431
 10
-1.8573676463
 20
8.3559774787
 10
-1.8561416317
 20
8.3618078359
 10
-1.854747967
 20
8.3675444923
 10
-1.853184774
 20
8.3731833673
 10
-1.8514501745
 20
8.3787203804
 10
-1.8495422902
 20
8.3841514511
 10
-1.8474596516
 20
8.3894713165
 10
-1.8452024238
 20
8.3946699852
 10
-1.8427711809
 20
8.3997362831
 10
-1.8401664965
 20
8.4046590364
 10
-1.8373889448
 20
8.4094270712
 10
-1.8349440639
 20
8.4132730921
 10
-1.8323881653
 20
8.4169908897
 10
-1.8297298799
 20
8.4205674439
 10
-1.8269752713
 20
8.4239928219
 10
-1.8241201363
 20
8.42726944
 10
-1.8211577048
 20
8.4304028017
 10
-1.8180828181
 20
8.4333963411
 10
-1.814896763
 20
8.4362452135
 10
-1.8116024378
 20
8.4389425046
 10
-1.8082027409
 20
8.4414813003
 10
-1.8047005705
 20
8.4438546861
 10
-1.801098825
 20
8.4460557479
 10
-1.7974011113
 20
8.4480788964
 10
-1.7936138708
 20
8.4499238429
 10
-1.7897442533
 20
8.4515916237
 10
-1.785799409
 20
8.4530832752
 10
-1.7817864878
 20
8.4543998337
 10
-1.7777126396
 20
8.4555423355
 10
-1.7735824744
 20
8.4565121458
 10
-1.769390441
 20
8.4573119459
 10
-1.7651284485
 20
8.4579447457
 10
-1.7607923114
 20
8.4584129147
 10
-1.756393468
 20
8.4587162596
 10
-1.7519472624
 20
8.4588539467
 10
-1.746568075
 20
8.4588004604
 10
-1.741152334
 20
8.4585125744
 10
-1.7357095921
 20
8.457995637
 10
-1.7302494017
 20
8.4572549968
 10
-1.7247813155
 20
8.456296002
 10
-1.7193136882
 20
8.4551237402
 10
-1.7138500835
 20
8.4537422546
 10
-1.7083928672
 20
8.4521553278
 10
-1.7029444051
 20
8.4503667423
 10
-1.697507063
 20
8.4483802806
 10
-1.6920805325
 20
8.4461972149
 10
-1.686653808
 20
8.4438087771
 10
-1.6812132098
 20
8.4412036891
 10
-1.6757450582
 20
8.4383706724
 10
-1.6702356733
 20
8.4352984488
  0
LWPOLYLINE
  5
2A2
100
AcDbEntity
  8
0
100
AcDbPolyline
 62
253
  6
CONTINUOUS
 90
3
 70
0
 10
-2.6021052969
 20
10.1934976013
 10
-2.5691468229
 20
10.7241162789
 10
-2.5438697123
 20
11.1017617994
  0
LWPOLYLINE
  5
2A3
100
AcDbEntity
  8
ASSI
100
AcDbPolyline
 62
7
  6
CONTINUOUS
 90
13
 70
0
 10
4.4258467077
 20
-5.4241014654
 10
4.4673675962
 20
-5.4455636498
 10
4.5152203552
 20
-5.464914641
 10
4.564750187
 20
-5.4799284892
 10
4.6158979333
 20
-5.4908335915
 10
4.6682926975
 20
-5.4976585833
 10
4.7210271511
 20
-5.5003732425
 10
4.7738352661
 20
-5.4990189981
 10
4.8264503229
 20
-5.4935512093
 10
4.8779543209
 20
-5.4839823011
 10
4.9279690478
 20
-5.4702816779
 10
4.9764445011
 20
-5.4522257949
 10
5.0150966297
 20
-5.4338166475
  0
LWPOLYLINE
  5
2A4
100
AcDbEntity
  8
ASSI
100
AcDbPolyline
 62
253
  6
CONTINUOUS
 90
43
 70
0
 10
4.37411971
 20
-5.3095300415
 10
4.3843171084
 20
-5.3152537602
 10
4.3947922485
 20
-5.3208092931
 10
4.4055366571
 20
-5.3261921474
 10
4.4165416218
 20
-5.3313979664
 10
4.4277982613
 20
-5.3364225483
 10
4.439297537
 20
-5.3412618471
 10
4.4510302049
 20
-5.3459119742
 10
4.4629867266
 20
-5.3503691457
 10
4.4751573377
 20
-5.3546297045
 10
4.4875321488
 20
-5.3586902031
 10
4.50010119
 20
-5.3625473801
 10
4.5128543245
 20
-5.3661981036
 10
4.5257812431
 20
-5.3696394368
 10
4.5388714824
 20
-5.3728686033
 10
4.5521144651
 20
-5.3758829655
 10
4.5654994893
 20
-5.3786801037
 10
4.5790157181
 20
-5.3812577649
 10
4.592652198
 20
-5.3836138262
 10
4.6063978916
 20
-5.3857464015
 10
4.620241686
 20
-5.3876537824
 10
4.6341723818
 20
-5.3893343872
 10
4.6481787064
 20
-5.3907868792
 10
4.6622493331
 20
-5.3920101024
 10
4.6763728899
 20
-5.3930030241
 10
4.6905379563
 20
-5.3937648661
 10
4.7047330693
 20
-5.3942950327
 10
4.718946743
 20
-5.3945930456
 10
4.7331674797
 20
-5.3946586911
 10
4.7473837757
 20
-5.3944919397
 10
4.7615841277
 20
-5.3940928725
 10
4.7757570443
 20
-5.393461842
 10
4.7898910649
 20
-5.3925993849
 10
4.8039747656
 20
-5.39150614
 10
4.8179967572
 20
-5.3901830223
 10
4.831945693
 20
-5.3886311301
 10
4.8458102879
 20
-5.3868516568
 10
4.8595793329
 20
-5.3848460735
 10
4.8732416827
 20
-5.3826160332
 10
4.8867862646
 20
-5.3801632785
 10
4.9002021121
 20
-5.3774898306
 10
4.9134783833
 20
-5.374597883
 10
4.9266043486
 20
-5.3714897053
  0
LINE
  5
2A5
100
AcDbEntity
  8
ASSI
100
AcDbLine
 62
253
  6
CONTINUOUS
 10
4.3741197096
 20
-5.9590622808
 11
-10.4300247198
 21
2.5886651733
  0
LINE
  5
2A6
100
AcDbEntity
  8
ASSI
100
AcDbLine
 62
253
  6
CONTINUOUS
 10
4.5493549953
 20
-5.6536129373
 11
-10.2547920227
 21
2.8941160113
  0
LINE
  5
2A7
100
AcDbEntity
  8
ASSI
100
AcDbLine
 62
7
  6
CONTINUOUS
 10
-10.3782554148
 20
3.1236015284
 11
4.4258916033
 21
-5.4241274203
  0
LINE
  5
2A8
100
AcDbEntity
  8
ASSI
100
AcDbLine
 62
253
  6
CONTINUOUS
 10
-10.4300247199
 20
3.2381974119
 11
4.3741197096
 21
-5.3095300422
  0
LWPOLYLINE
  5
2A9
100
AcDbEntity
  8
ASSI
100
AcDbPolyline
 62
253
  6
CONTINUOUS
 90
29
 70
0
 10
-10.4300247195
 20
2.588665173
 10
-10.4399362042
 20
2.5945539748
 10
-10.4495536865
 20
2.6006047085
 10
-10.4588693866
 20
2.6068124812
 10
-10.4678757521
 20
2.6131722663
 10
-10.4765655157
 20
2.6196789303
 10
-10.4849316952
 20
2.6263272394
 10
-10.4929675531
 20
2.6331118583
 10
-10.5006665444
 20
2.6400272745
 10
-10.5080223787
 20
2.647067825
 10
-10.5150290842
 20
2.6542278006
 10
-10.521681021
 20
2.6615014396
 10
-10.5279728252
 20
2.6688828542
 10
-10.5338994099
 20
2.6763660924
 10
-10.5394559769
 20
2.683945107
 10
-10.544638035
 20
2.6916137459
 10
-10.5494413943
 20
2.6993658299
 10
-10.5538621637
 20
2.7071950953
 10
-10.5578967598
 20
2.715095164
 10
-10.5615419175
 20
2.7230596621
 10
-10.5647946903
 20
2.7310821662
 10
-10.5676524469
 20
2.7391561473
 10
-10.5701128754
 20
2.747275095
 10
-10.5721739863
 20
2.7554324622
 10
-10.5738341137
 20
2.7636216117
 10
-10.5750919144
 20
2.7718359471
 10
-10.5759463698
 20
2.7800688423
 10
-10.5763967879
 20
2.7883135865
 10
-10.576472582
 20
2.7930137757
  0
LWPOLYLINE
  5
2AA
100
AcDbEntity
  8
ASSI
100
AcDbPolyline
 62
253
  6
CONTINUOUS
 90
48
 70
0
 10
-10.2547920227
 20
2.8941160113
 10
-10.2597532259
 20
2.8970643209
 10
-10.2645600806
 20
2.9000893887
 10
-10.2692125868
 20
2.9031912146
 10
-10.2737143278
 20
2.9063724711
 10
-10.2780617202
 20
2.9096304858
 10
-10.2822440141
 20
2.9129572415
 10
-10.2862607457
 20
2.9163528697
 10
-10.2901123787
 20
2.919817239
 10
-10.2937895542
 20
2.9233419372
 10
-10.2972918383
 20
2.9269271033
 10
-10.3006196648
 20
2.9305725984
 10
-10.303764976
 20
2.9342695937
 10
-10.3067273317
 20
2.9380182147
 10
-10.3095071722
 20
2.9418183359
 10
-10.3120977608
 20
2.9456607517
 10
-10.3144986404
 20
2.9495455681
 10
-10.3167102683
 20
2.9534726792
 10
-10.3187272796
 20
2.9574325618
 10
-10.3205492009
 20
2.9614252936
 10
-10.3221765057
 20
2.9654507968
 10
-10.3236052499
 20
2.9694993154
 10
-10.3248349517
 20
2.973570904
 10
-10.3258660928
 20
2.9776655079
 10
-10.3266961743
 20
2.9817732063
 10
-10.3273247086
 20
2.9858940327
 10
-10.3277521832
 20
2.9900279535
 10
-10.3279775611
 20
2.9941649474
 10
-10.3280003515
 20
2.9983050213
 10
-10.3278210452
 20
3.0024481682
 10
-10.3274400768
 20
3.0065843455
 10
-10.3268569576
 20
3.0107135349
 10
-10.3260721764
 20
3.0148357547
 10
-10.3250876344
 20
3.0189410171
 10
-10.323902847
 20
3.0230292821
 10
-10.3225182989
 20
3.0271005897
 10
-10.320937345
 20
3.0311450724
 10
-10.3191595074
 20
3.035162667
 10
-10.3171852641
 20
3.0391534368
 10
-10.3150194034
 20
3.0431077035
 10
-10.312661462
 20
3.0470253755
 10
-10.3101119032
 20
3.0509065446
 10
-10.3073769055
 20
3.0547418082
 10
-10.3044560212
 20
3.0585310542
 10
-10.301349698
 20
3.0622743948
 10
-10.2980654567
 20
3.0659627638
 10
-10.2946028552
 20
3.0695960355
 10
-10.2909623356
 20
3.0731743355
  0
LWPOLYLINE
  5
2AB
100
AcDbEntity
  8
0
100
AcDbPolyline
 62
253
  6
CONTINUOUS
 90
55
 70
0
 10
-0.7416040927
 20
7.6787990352
 10
-0.7419784114
 20
7.6723547242
 10
-0.7425235674
 20
7.6660702664
 10
-0.7432377112
 20
7.6599277267
 10
-0.744118993
 20
7.6539091705
 10
-0.7451655632
 20
7.6479966628
 10
-0.7463762072
 20
7.6421759619
 10
-0.7477522506
 20
7.6364475977
 10
-0.7492956542
 20
7.6308157931
 10
-0.7510083786
 20
7.6252847711
 10
-0.7528923845
 20
7.6198587546
 10
-0.7549492385
 20
7.6145431344
 10
-0.7571789308
 20
7.6093479726
 10
-0.7595810574
 20
7.6042844992
 10
-0.7621552143
 20
7.5993639442
 10
-0.7649009977
 20
7.5945975374
 10
-0.767318604
 20
7.5907524749
 10
-0.7698467294
 20
7.5870352915
 10
-0.7724769886
 20
7.5834590202
 10
-0.7752035427
 20
7.5800336081
 10
-0.7780307392
 20
7.5767566581
 10
-0.7809654718
 20
7.5736226873
 10
-0.7840130201
 20
7.5706283122
 10
-0.7871722059
 20
7.5677785476
 10
-0.7904402368
 20
7.5650805077
 10
-0.7938143204
 20
7.5625413069
 10
-0.7972916642
 20
7.5601680596
 10
-0.8008694758
 20
7.5579678801
 10
-0.8045442341
 20
7.5559465164
 10
-0.8083095033
 20
7.5541042513
 10
-0.8121581192
 20
7.5524400015
 10
-0.8160829174
 20
7.5509526834
 10
-0.8200767336
 20
7.5496412136
 10
-0.8241324034
 20
7.5485045086
 10
-0.8282453078
 20
7.5475411469
 10
-0.8324210094
 20
7.5467483548
 10
-0.836667616
 20
7.5461230203
 10
-0.8409893302
 20
7.5456626754
 10
-0.8453747334
 20
7.5453674263
 10
-0.8498085016
 20
7.5452380232
 10
-0.855174109
 20
7.5453015874
 10
-0.8605777355
 20
7.5455995975
 10
-0.8660098211
 20
7.5461266011
 10
-0.8714608057
 20
7.5468771458
 10
-0.8769211293
 20
7.5478457792
 10
-0.882382418
 20
7.549027314
 10
-0.8878410424
 20
7.5504176221
 10
-0.8932945591
 20
7.5520128403
 10
-0.8987405249
 20
7.5538091055
 10
-0.9041764964
 20
7.5558025546
 10
-0.909602753
 20
7.5579918657
 10
-0.9150304645
 20
7.5603858824
 10
-0.9204735234
 20
7.5629959893
 10
-0.925945822
 20
7.5658335711
 10
-0.9314612528
 20
7.5689100127
  0
LWPOLYLINE
  5
2AC
100
AcDbEntity
  8
ASSI
100
AcDbPolyline
 62
253
  6
CONTINUOUS
 90
55
 70
0
 10
5.1345426084
 20
2.1428796862
 10
5.1240071984
 20
2.1375875589
 10
5.1132044688
 20
2.1324705061
 10
5.1021431583
 20
2.1275326671
 10
5.0908322145
 20
2.1227780363
 10
5.0792807872
 20
2.1182104598
 10
5.0674982206
 20
2.1138336325
 10
5.0554940458
 20
2.1096510948
 10
5.0432779733
 20
2.10566623
 10
5.0308598849
 20
2.1018822617
 10
5.0182498259
 20
2.0983022507
 10
5.0054579969
 20
2.0949290931
 10
4.9924947455
 20
2.0917655174
 10
4.9793705578
 20
2.0888140827
 10
4.9660960505
 20
2.0860771765
 10
4.9526819615
 20
2.0835570128
 10
4.9391391418
 20
2.0812556301
 10
4.9254785464
 20
2.0791748902
 10
4.9117112258
 20
2.0773164761
 10
4.8978483166
 20
2.0756818912
 10
4.8839010328
 20
2.0742724577
 10
4.8698806568
 20
2.0730893158
 10
4.8557985298
 20
2.0721334225
 10
4.8416660433
 20
2.071405551
 10
4.8274946294
 20
2.0709062902
 10
4.8132957516
 20
2.070636044
 10
4.7990808956
 20
2.0705950308
 10
4.7848615603
 20
2.070783284
 10
4.770649248
 20
2.0712006512
 10
4.7564554552
 20
2.0718467948
 10
4.7422916638
 20
2.0727211921
 10
4.7281693311
 20
2.0738231358
 10
4.7140998809
 20
2.0751517346
 10
4.7000946944
 20
2.0767059136
 10
4.6861651006
 20
2.0784844157
 10
4.6723223676
 20
2.0804858022
 10
4.658577693
 20
2.0827084541
 10
4.6449421953
 20
2.0851505736
 10
4.6314269043
 20
2.087810185
 10
4.6180427531
 20
2.090685137
 10
4.6048005683
 20
2.093773104
 10
4.5917110618
 20
2.097071588
 10
4.578784822
 20
2.1005779208
 10
4.5660323053
 20
2.1042892661
 10
4.5534638274
 20
2.1082026217
 10
4.5410895553
 20
2.112314822
 10
4.5289194987
 20
2.1166225405
 10
4.5169635024
 20
2.1211222927
 10
4.5052312377
 20
2.1258104385
 10
4.4937321953
 20
2.1306831856
 10
4.4824756768
 20
2.1357365924
 10
4.4714707881
 20
2.140966571
 10
4.460726431
 20
2.1463688909
 10
4.4502512971
 20
2.1519391818
 10
4.4400538599
 20
2.157672938
  0
LINE
  5
2AD
100
AcDbEntity
  8
ASSI
100
AcDbLine
 62
7
  6
CONTINUOUS
 10
8.7098543016
 20
-3.5651408333
 11
8.633285656
 21
-3.520931057
  0
LWPOLYLINE
  5
2AE
100
AcDbEntity
  8
0
100
AcDbPolyline
 62
253
  6
CONTINUOUS
 90
53
 70
0
 10
-4.410619982
 20
8.001545821
 10
-4.414322762
 20
8.0083851591
 10
-4.4178634788
 20
8.0152346274
 10
-4.4212535413
 20
8.0221103284
 10
-4.4245043589
 20
8.0290283644
 10
-4.4276273406
 20
8.0360048379
 10
-4.4306314495
 20
8.0430527945
 10
-4.4335158641
 20
8.0501730536
 10
-4.4362773169
 20
8.0573633782
 10
-4.4389125401
 20
8.0646215309
 10
-4.4414182663
 20
8.0719452746
 10
-4.4437906814
 20
8.0793307904
 10
-4.446023786
 20
8.0867679334
 10
-4.4481110345
 20
8.0942449769
 10
-4.4500458811
 20
8.1017501943
 10
-4.4518217802
 20
8.1092718591
 10
-4.453175437
 20
8.1155415509
 10
-4.4544096698
 20
8.1217929394
 10
-4.4555199806
 20
8.1280044429
 10
-4.4565027282
 20
8.1341601263
 10
-4.4573576996
 20
8.14026664
 10
-4.4580855386
 20
8.1463362806
 10
-4.4587909737
 20
8.1535821332
 10
-4.4593089976
 20
8.1607756992
 10
-4.4596343424
 20
8.1679000815
 10
-4.4597617404
 20
8.1749383834
 10
-4.4596859238
 20
8.1818737078
 10
-4.4594034979
 20
8.1886902237
 10
-4.4589185604
 20
8.1953763631
 10
-4.4582370821
 20
8.2019216241
 10
-4.4573650338
 20
8.2083155045
 10
-4.4563083864
 20
8.2145475022
 10
-4.455290354
 20
8.2196124662
 10
-4.4541470052
 20
8.2245688594
 10
-4.4528770713
 20
8.2294278228
 10
-4.4514804058
 20
8.2341959796
 10
-4.4499613518
 20
8.2388618827
 10
-4.4483253746
 20
8.2434095675
 10
-4.4462151371
 20
8.2486921773
 10
-4.4439513145
 20
8.2537774634
 10
-4.4415408208
 20
8.2586613256
 10
-4.4389905697
 20
8.2633396636
 10
-4.4363074755
 20
8.2678083773
 10
-4.4334978397
 20
8.2720642821
 10
-4.4305655163
 20
8.2761078556
 10
-4.4275137468
 20
8.2799404912
 10
-4.4243457727
 20
8.2835635822
 10
-4.4210648358
 20
8.2869785218
 10
-4.4176716277
 20
8.2901868688
 10
-4.4141566409
 20
8.2931908426
 10
-4.4105078178
 20
8.2959928282
 10
-4.406713101
 20
8.2985952105
 10
-4.402760433
 20
8.3010003743
  0
LWPOLYLINE
  5
2AF
100
AcDbEntity
  8
0
100
AcDbPolyline
 62
253
  6
CONTINUOUS
 90
53
 70
0
 10
-2.1949402882
 20
7.3610708278
 10
-2.1985996437
 20
7.3678847255
 10
-2.2020980207
 20
7.3747112545
 10
-2.2054467315
 20
7.3815666254
 10
-2.2086570881
 20
7.3884670484
 10
-2.2117404027
 20
7.3954287343
 10
-2.214705544
 20
7.4024648067
 10
-2.2175516077
 20
7.4095760433
 10
-2.2202752459
 20
7.4167601349
 10
-2.2228731111
 20
7.4240147725
 10
-2.2253418555
 20
7.431337647
 10
-2.2276776034
 20
7.438724899
 10
-2.2298743676
 20
7.4461664676
 10
-2.2319256329
 20
7.4536507413
 10
-2.2338248842
 20
7.4611661088
 10
-2.2355656063
 20
7.4687009588
 10
-2.2368902981
 20
7.4749840603
 10
-2.2380959399
 20
7.4812512351
 10
-2.2391780957
 20
7.4874810903
 10
-2.2401331477
 20
7.4936578752
 10
-2.2409607512
 20
7.499788408
 10
-2.2416613794
 20
7.505885149
 10
-2.2423341357
 20
7.5131676721
 10
-2.2428192079
 20
7.5204019801
 10
-2.2431110744
 20
7.527570575
 10
-2.2432042139
 20
7.5346559593
 10
-2.2430931049
 20
7.5416406351
 10
-2.2427741364
 20
7.5485082532
 10
-2.242251338
 20
7.5552470579
 10
-2.2415306498
 20
7.561846442
 10
-2.2406180117
 20
7.5682957985
 10
-2.2395193637
 20
7.5745845201
 10
-2.2384652158
 20
7.5796976679
 10
-2.2372846415
 20
7.5847031966
 10
-2.235976263
 20
7.589612405
 10
-2.2345398724
 20
7.5944319889
 10
-2.2329799411
 20
7.599150231
 10
-2.2313021102
 20
7.6037508105
 10
-2.2291405819
 20
7.6090972134
 10
-2.2268244689
 20
7.6142464866
 10
-2.2243608385
 20
7.619194436
 10
-2.2217567579
 20
7.6239368678
 10
-2.2190192945
 20
7.6284695878
 10
-2.216154884
 20
7.6327893371
 10
-2.2131674368
 20
7.6368965972
 10
-2.2100602318
 20
7.6407927848
 10
-2.206836548
 20
7.6444793164
 10
-2.2034996643
 20
7.6479576085
 10
-2.200050273
 20
7.6512292611
 10
-2.1964787195
 20
7.6542966068
 10
-2.1927727628
 20
7.6571621617
 10
-2.1889201614
 20
7.6598284417
 10
-2.1849086744
 20
7.6622979628
  0
LWPOLYLINE
  5
2B0
100
AcDbEntity
  8
0
100
AcDbPolyline
 62
253
  6
CONTINUOUS
 90
53
 70
0
 10
-3.5914661986
 20
8.474426649
 10
-3.5878177994
 20
8.4675815885
 10
-3.5843306794
 20
8.4607249522
 10
-3.5809935088
 20
8.4538405108
 10
-3.5777949579
 20
8.4469120352
 10
-3.5747236969
 20
8.4399232962
 10
-3.5717708316
 20
8.4328611563
 10
-3.5689372106
 20
8.4257248447
 10
-3.5662261179
 20
8.4185166825
 10
-3.5636408374
 20
8.4112389907
 10
-3.5611846534
 20
8.4038940903
 10
-3.5588613797
 20
8.3964858657
 10
-3.5566769503
 20
8.3890244557
 10
-3.5546378288
 20
8.3815215624
 10
-3.5527504793
 20
8.373988888
 10
-3.5510213653
 20
8.3664381346
 10
-3.5497060835
 20
8.3601429286
 10
-3.5485095688
 20
8.3538648041
 10
-3.5474362139
 20
8.3476252707
 10
-3.5464895967
 20
8.341440178
 10
-3.5456700377
 20
8.3353027343
 10
-3.5449770427
 20
8.3292004879
 10
-3.5443128619
 20
8.3219132025
 10
-3.543835635
 20
8.3146760455
 10
-3.543550775
 20
8.307506392
 10
-3.5434636949
 20
8.3004216171
 10
-3.5435798081
 20
8.2934390958
 10
-3.5439026269
 20
8.2865750736
 10
-3.5444280613
 20
8.279841278
 10
-3.5451501208
 20
8.273248307
 10
-3.5460628147
 20
8.2668067585
 10
-3.5471601524
 20
8.2605272307
 10
-3.5482121311
 20
8.2554227979
 10
-3.549389539
 20
8.2504269448
 10
-3.5506937405
 20
8.2455283774
 10
-3.5521249385
 20
8.2407203856
 10
-3.5536786894
 20
8.2360145965
 10
-3.5553493882
 20
8.2314272217
 10
-3.5575011559
 20
8.226097524
 10
-3.5598062721
 20
8.220965818
 10
-3.5622577516
 20
8.2160362345
 10
-3.5648486095
 20
8.2113129043
 10
-3.5675718608
 20
8.2067999582
 10
-3.5704211465
 20
8.2025005982
 10
-3.5733926126
 20
8.1984143111
 10
-3.5764830312
 20
8.1945396547
 10
-3.5796891744
 20
8.1908751872
 10
-3.5830078144
 20
8.1874194665
 10
-3.5864383018
 20
8.1841708738
 10
-3.5899903017
 20
8.1811270841
 10
-3.5936760577
 20
8.1782855954
 10
-3.5975078134
 20
8.175643906
 10
-3.6014978124
 20
8.173199514
  0
LWPOLYLINE
  5
2B1
100
AcDbEntity
  8
0
100
AcDbPolyline
 62
253
  6
CONTINUOUS
 90
53
 70
0
 10
-4.273102048
 20
11.237495885
 10
-4.276617828
 20
11.2443566478
 10
-4.2799696571
 20
11.2512331021
 10
-4.2831685292
 20
11.2581414269
 10
-4.2862254381
 20
11.2650978011
 10
-4.2891513778
 20
11.2721184036
 10
-4.2919549643
 20
11.2792163434
 10
-4.2946353033
 20
11.28639245
 10
-4.297189123
 20
11.2936444831
 10
-4.2996131514
 20
11.3009702023
 10
-4.3019041165
 20
11.3083673672
 10
-4.3040582509
 20
11.3158321547
 10
-4.3060698058
 20
11.3233544096
 10
-4.3079325368
 20
11.3309223938
 10
-4.3096401997
 20
11.3385243692
 10
-4.3111865501
 20
11.3461485978
 10
-4.3123474051
 20
11.3525081644
 10
-4.3133880441
 20
11.3588533137
 10
-4.3143046103
 20
11.3651623263
 10
-4.3150939142
 20
11.371419213
 10
-4.3157554374
 20
11.3776309069
 10
-4.3162893292
 20
11.3838100714
 10
-4.3167608492
 20
11.3911933598
 10
-4.3170437316
 20
11.3985303237
 10
-4.317132913
 20
11.4058032454
 10
-4.3170233301
 20
11.4129944078
 10
-4.3167099195
 20
11.4200860932
 10
-4.3161895008
 20
11.4270617352
 10
-4.3154664246
 20
11.433909371
 10
-4.3145469245
 20
11.4406181888
 10
-4.3134372341
 20
11.4471773767
 10
-4.3121435869
 20
11.4535761229
 10
-4.3109286258
 20
11.4587810075
 10
-4.3095884745
 20
11.4638784457
 10
-4.3081213615
 20
11.4688799169
 10
-4.3065268424
 20
11.4737921937
 10
-4.3048097799
 20
11.4786032197
 10
-4.3029763639
 20
11.4832962315
 10
-4.3006308282
 20
11.4887525636
 10
-4.2981339636
 20
11.4940104459
 10
-4.2954930775
 20
11.4990655087
 10
-4.2927154771
 20
11.5039133818
 10
-4.2898084696
 20
11.5085496955
 10
-4.2867786826
 20
11.5129710523
 10
-4.2836300247
 20
11.517177945
 10
-4.2803657249
 20
11.5211718387
 10
-4.2769890121
 20
11.5249541989
 10
-4.2735031153
 20
11.5285264907
 10
-4.2699086574
 20
11.5318903767
 10
-4.266195838
 20
11.5350483089
 10
-4.2623522507
 20
11.5380029364
 10
-4.2583654892
 20
11.5407569084
 10
-4.254223147
 20
11.5433128741
  0
LINE
  5
2B2
100
AcDbEntity
  8
ASSI
100
AcDbLine
 62
253
  6
CONTINUOUS
 10
2.6586757152
 20
16.9737705167
 11
2.6586757152
 21
16.9108641782
  0
LWPOLYLINE
  5
2B3
100
AcDbEntity
  8
0
100
AcDbPolyline
 62
253
  6
CONTINUOUS
 90
53
 70
0
 10
-4.2514125242
 20
-9.8483721891
 10
-4.2488083316
 20
-9.844684613
 10
-4.2460721159
 20
-9.8412154731
 10
-4.2431997626
 20
-9.837952525
 10
-4.2401871572
 20
-9.8348835242
 10
-4.2370301853
 20
-9.8319962264
 10
-4.2337253158
 20
-9.829281091
 10
-4.2302713512
 20
-9.826739393
 10
-4.2266676776
 20
-9.8243751114
 10
-4.2229136807
 20
-9.822192225
 10
-4.2190087467
 20
-9.8201947129
 10
-4.2149530777
 20
-9.8183869798
 10
-4.2107501407
 20
-9.816775134
 10
-4.206404219
 20
-9.8153657098
 10
-4.2019195958
 20
-9.8141652413
 10
-4.1973005544
 20
-9.8131802629
 10
-4.1933535874
 20
-9.8125284903
 10
-4.1893296755
 20
-9.8120329914
 10
-4.1852422453
 20
-9.8116958564
 10
-4.1811009251
 20
-9.811519086
 10
-4.1769001499
 20
-9.8115043224
 10
-4.1726305565
 20
-9.8116531183
 10
-4.1674073248
 20
-9.8120500291
 10
-4.1620811556
 20
-9.8126890111
 10
-4.1566616927
 20
-9.8135743739
 10
-4.15115858
 20
-9.8147104272
 10
-4.1455814612
 20
-9.8161014807
 10
-4.1399404798
 20
-9.8177495277
 10
-4.1342477779
 20
-9.8196472954
 10
-4.1285159974
 20
-9.8217851949
 10
-4.1227577799
 20
-9.824153637
 10
-4.1169857673
 20
-9.8267430328
 10
-4.112171475
 20
-9.8290642979
 10
-4.1073465124
 20
-9.8315362108
 10
-4.1025010104
 20
-9.8341626384
 10
-4.097629588
 20
-9.8369450681
 10
-4.092744818
 20
-9.8398754694
 10
-4.0878637612
 20
-9.8429434324
 10
-4.0820319315
 20
-9.8467932155
 10
-4.0762385878
 20
-9.8508159271
 10
-4.0704923007
 20
-9.8550013972
 10
-4.0648016413
 20
-9.8593394557
 10
-4.0591751802
 20
-9.8638199326
 10
-4.0536202726
 20
-9.8684336744
 10
-4.0481394108
 20
-9.8731755952
 10
-4.0427338714
 20
-9.8780416257
 10
-4.0374049307
 20
-9.8830276964
 10
-4.0321538655
 20
-9.8881297383
 10
-4.0269798811
 20
-9.8933471599
 10
-4.0218738987
 20
-9.8986932815
 10
-4.0168247682
 20
-9.9041849013
 10
-4.0118213398
 20
-9.9098388178
 10
-4.0068524634
 20
-9.915671829
  0
LWPOLYLINE
  5
2B4
100
AcDbEntity
  8
0
100
AcDbPolyline
 62
253
  6
CONTINUOUS
 90
44
 70
0
 10
-3.5991017102
 20
-10.6307349575
 10
-3.6009841482
 20
-10.6333850697
 10
-3.6029398034
 20
-10.6359009039
 10
-3.6049685438
 20
-10.6382883744
 10
-3.6070702373
 20
-10.6405533956
 10
-3.609244752
 20
-10.642701882
 10
-3.6114919559
 20
-10.6447397477
 10
-3.6138117171
 20
-10.6466729073
 10
-3.6162039036
 20
-10.6485072751
 10
-3.6190263052
 20
-10.6504887678
 10
-3.6219426909
 20
-10.6523485097
 10
-3.6249526208
 20
-10.6540860591
 10
-3.6280556552
 20
-10.6557009745
 10
-3.6312513541
 20
-10.6571928143
 10
-3.6345392777
 20
-10.658561137
 10
-3.6379189862
 20
-10.659805501
 10
-3.641389242
 20
-10.6609252851
 10
-3.6449456163
 20
-10.6619191497
 10
-3.6485828825
 20
-10.6627855757
 10
-3.6522958141
 20
-10.6635230439
 10
-3.6560791844
 20
-10.6641300351
 10
-3.6599277668
 20
-10.6646050301
 10
-3.6638363349
 20
-10.6649465098
 10
-3.6677994667
 20
-10.6651533937
 10
-3.6718109585
 20
-10.6652263568
 10
-3.6758644114
 20
-10.665166513
 10
-3.6799534266
 20
-10.6649749759
 10
-3.6840716051
 20
-10.6646528593
 10
-3.6882125478
 20
-10.664201277
 10
-3.6923698559
 20
-10.6636213427
 10
-3.6965380834
 20
-10.6629141132
 10
-3.7007155956
 20
-10.6620804171
 10
-3.7049017108
 20
-10.6611210257
 10
-3.7090957475
 20
-10.6600367107
 10
-3.7132970239
 20
-10.6588282436
 10
-3.7175048584
 20
-10.6574963957
 10
-3.7217185693
 20
-10.6560419387
 10
-3.7259387554
 20
-10.654464249
 10
-3.730171138
 20
-10.6527571222
 10
-3.7344227187
 20
-10.6509129592
 10
-3.7387004992
 20
-10.6489241607
 10
-3.7430114813
 20
-10.6467831273
 10
-3.7473626666
 20
-10.6444822598
 10
-3.7517610569
 20
-10.6420139588
  0
LWPOLYLINE
  5
2B5
100
AcDbEntity
  8
0
100
AcDbPolyline
 62
253
  6
CONTINUOUS
 90
53
 70
0
 10
-1.4133829175
 20
6.5749712625
 10
-1.4097100756
 20
6.56820121
 10
-1.4061973372
 20
6.5614177552
 10
-1.4028332879
 20
6.5546048279
 10
-1.3996065137
 20
6.5477463576
 10
-1.3965056002
 20
6.540826274
 10
-1.3935215797
 20
6.5338315738
 10
-1.3906552707
 20
6.5267615228
 10
-1.3879099381
 20
6.5196184534
 10
-1.3852888467
 20
6.5124046985
 10
-1.3827952616
 20
6.5051225908
 10
-1.3804329812
 20
6.4977760057
 10
-1.3782079384
 20
6.4903749893
 10
-1.3761265997
 20
6.4829311304
 10
-1.3741954315
 20
6.4754560178
 10
-1.3724209003
 20
6.4679612403
 10
-1.3710665721
 20
6.4617113637
 10
-1.3698300274
 20
6.4554771791
 10
-1.3687157836
 20
6.4492799869
 10
-1.3677275097
 20
6.4431354725
 10
-1.3668654825
 20
6.4370368615
 10
-1.3661291306
 20
6.4309717644
 10
-1.3654116953
 20
6.4237269283
 10
-1.3648800214
 20
6.4165300202
 10
-1.3645397211
 20
6.4093985485
 10
-1.364396406
 20
6.4023500221
 10
-1.3644556881
 20
6.3954019493
 10
-1.3647212902
 20
6.3885706756
 10
-1.3651893795
 20
6.3818678928
 10
-1.365854234
 20
6.3753041292
 10
-1.3667101318
 20
6.3688899134
 10
-1.3677513511
 20
6.3626357738
 10
-1.3687572432
 20
6.3575509823
 10
-1.3698891801
 20
6.3525734504
 10
-1.3711484848
 20
6.3476919622
 10
-1.3725353512
 20
6.3428998886
 10
-1.374045457
 20
6.338208947
 10
-1.3756733509
 20
6.3336354419
 10
-1.3777750422
 20
6.3283212058
 10
-1.3800315608
 20
6.3232037151
 10
-1.3824359688
 20
6.3182871286
 10
-1.3849813288
 20
6.3135756052
 10
-1.3876607028
 20
6.3090733037
 10
-1.3904677763
 20
6.304783448
 10
-1.3933987275
 20
6.3007055232
 10
-1.3964503573
 20
6.2968380792
 10
-1.3996194672
 20
6.2931796661
 10
-1.4029028582
 20
6.2897288342
 10
-1.4062998947
 20
6.2864839659
 10
-1.4098201937
 20
6.2834427739
 10
-1.4134759353
 20
6.2806028037
 10
-1.4172792995
 20
6.2779616004
 10
-1.4212424664
 20
6.2755167093
  0
LWPOLYLINE
  5
2B6
100
AcDbEntity
  8
0
100
AcDbPolyline
 62
253
  6
CONTINUOUS
 90
53
 70
0
 10
-2.1113341585
 20
9.3287642011
 10
-2.1148905416
 20
9.3356357142
 10
-2.1182836769
 20
9.3425213869
 10
-2.1215246523
 20
9.3494375196
 10
-2.1246245557
 20
9.3564004124
 10
-2.1275944751
 20
9.3634263657
 10
-2.1304430956
 20
9.3705285831
 10
-2.133169491
 20
9.3777078823
 10
-2.135770332
 20
9.3849619843
 10
-2.1382422895
 20
9.39228861
 10
-2.1405820345
 20
9.3996854805
 10
-2.1427857335
 20
9.407148741
 10
-2.1448475352
 20
9.4146682336
 10
-2.1467610842
 20
9.4222322248
 10
-2.1485200249
 20
9.4298289807
 10
-2.1501180019
 20
9.4374467678
 10
-2.1513220476
 20
9.4438000423
 10
-2.1524058723
 20
9.450138094
 10
-2.1533654488
 20
9.4564392434
 10
-2.1541974569
 20
9.4626875334
 10
-2.1549014033
 20
9.4688898974
 10
-2.1554775019
 20
9.4750589908
 10
-2.1559994322
 20
9.4824292104
 10
-2.1563323605
 20
9.4897520448
 10
-2.1564710782
 20
9.4970097944
 10
-2.1564103766
 20
9.5041847593
 10
-2.1561450472
 20
9.5112592399
 10
-2.1556717906
 20
9.5182166875
 10
-2.1549949458
 20
9.5250451587
 10
-2.1541207607
 20
9.531733861
 10
-2.1530554836
 20
9.538272002
 10
-2.1518053627
 20
9.5446487895
 10
-2.1506260243
 20
9.5498346918
 10
-2.1493210047
 20
9.5549125335
 10
-2.1478886478
 20
9.5598937999
 10
-2.1463285869
 20
9.5647852912
 10
-2.1446456153
 20
9.5695750687
 10
-2.1428458159
 20
9.5742465085
 10
-2.1405398687
 20
9.5796766945
 10
-2.1380817213
 20
9.5849082318
 10
-2.1354786464
 20
9.5899368162
 10
-2.1327379165
 20
9.5947581437
 10
-2.1298668042
 20
9.5993679099
 10
-2.1268719157
 20
9.6037627697
 10
-2.1237571917
 20
9.6079432139
 10
-2.1205259067
 20
9.6119106922
 10
-2.117181335
 20
9.6156666544
 10
-2.1137267511
 20
9.6192125503
 10
-2.1101628127
 20
9.6225500267
 10
-2.1064797102
 20
9.6256815185
 10
-2.1026650175
 20
9.6286096579
 10
-2.0987063084
 20
9.6313370768
 10
-2.0945911567
 20
9.6338664074
  0
LWPOLYLINE
  5
2B7
100
AcDbEntity
  8
0
100
AcDbPolyline
 62
253
  6
CONTINUOUS
 90
53
 70
0
 10
-3.5011486809
 20
10.4459950936
 10
-3.4976035553
 20
10.4390900189
 10
-3.4942219754
 20
10.4321719497
 10
-3.4909928383
 20
10.4252245663
 10
-3.4879050411
 20
10.4182315488
 10
-3.4849474811
 20
10.4111765773
 10
-3.4821114499
 20
10.4040464327
 10
-3.4793978174
 20
10.3968402989
 10
-3.4768098477
 20
10.3895604605
 10
-3.4743508054
 20
10.3822092021
 10
-3.4720239547
 20
10.3747888082
 10
-3.4698330669
 20
10.3673031542
 10
-3.4677839406
 20
10.3597624786
 10
-3.4658828816
 20
10.3521786106
 10
-3.4641361955
 20
10.3445633795
 10
-3.4625501879
 20
10.3369286146
 10
-3.4613558601
 20
10.3305624167
 10
-3.4602814751
 20
10.3242126759
 10
-3.4593310147
 20
10.3179011999
 10
-3.4585077574
 20
10.3116440534
 10
-3.4578121699
 20
10.3054343303
 10
-3.4572440157
 20
10.2992593818
 10
-3.4567310273
 20
10.2918841065
 10
-3.4564062991
 20
10.284558256
 10
-3.4562749279
 20
10.2772993939
 10
-3.4563420104
 20
10.2701250839
 10
-3.4566126436
 20
10.2630528899
 10
-3.4570900236
 20
10.2560992461
 10
-3.4577697455
 20
10.2492760694
 10
-3.4586455038
 20
10.2425941472
 10
-3.459710993
 20
10.236064267
 10
-3.4609599077
 20
10.2296972164
 10
-3.4621371191
 20
10.2245205534
 10
-3.4634389718
 20
10.2194529781
 10
-3.4648671071
 20
10.2144830108
 10
-3.4664218854
 20
10.2096038366
 10
-3.4680985432
 20
10.2048272985
 10
-3.4698910362
 20
10.200169904
 10
-3.4721869627
 20
10.1947574957
 10
-3.4746338001
 20
10.1895446658
 10
-3.4772243605
 20
10.1845356546
 10
-3.4799514559
 20
10.1797347026
 10
-3.4828078984
 20
10.1751460501
 10
-3.4857871605
 20
10.1707729853
 10
-3.4888853566
 20
10.1666149877
 10
-3.4920992616
 20
10.1626705843
 10
-3.4954256504
 20
10.1589383023
 10
-3.4988612978
 20
10.155416669
 10
-3.5024055878
 20
10.152104021
 10
-3.5060683414
 20
10.1489979338
 10
-3.5098619884
 20
10.1460957924
 10
-3.5137989588
 20
10.1433949819
 10
-3.5178916827
 20
10.1408928873
  0
LWPOLYLINE
  5
2B8
100
AcDbEntity
  8
ASSI
100
AcDbPolyline
 62
253
  6
CONTINUOUS
 90
58
 70
0
 10
5.8546504251
 20
-22.4724574471
 10
5.8560658876
 20
-22.4813774452
 10
5.8576871277
 20
-22.4901353391
 10
5.8595141456
 20
-22.4987311288
 10
5.8615482454
 20
-22.5071696972
 10
5.863788123
 20
-22.5154461614
 10
5.8662298656
 20
-22.5235458725
 10
5.8688738094
 20
-22.5314684208
 10
5.8717196183
 20
-22.5392142158
 10
5.8747623718
 20
-22.5467698375
 10
5.8780024048
 20
-22.5541349407
 10
5.8814393824
 20
-22.5613098704
 10
5.8850673788
 20
-22.568282242
 10
5.8888867264
 20
-22.5750517126
 10
5.8928970928
 20
-22.5816186251
 10
5.897091555
 20
-22.5879716229
 10
5.9014704314
 20
-22.5941103365
 10
5.9060334035
 20
-22.6000351354
 10
5.9107725922
 20
-22.6057357722
 10
5.9156883031
 20
-22.6112118596
 10
5.9207802305
 20
-22.6164637849
 10
5.9260395789
 20
-22.6214824613
 10
5.9314666348
 20
-22.6262674836
 10
5.9370611116
 20
-22.6308192571
 10
5.9428133544
 20
-22.6351299117
 10
5.9487236404
 20
-22.6391990336
 10
5.9547916923
 20
-22.6430270366
 10
5.961007023
 20
-22.6466072909
 10
5.9673698842
 20
-22.6499393661
 10
5.9738800242
 20
-22.6530236925
 10
5.9805262008
 20
-22.6558549315
 10
5.9873086535
 20
-22.6584326467
 10
5.9942271426
 20
-22.6607572745
 10
6.0012697075
 20
-22.6628247848
 10
6.0084365578
 20
-22.6646347318
 10
6.0157274839
 20
-22.6661875614
 10
6.0231298956
 20
-22.6674805819
 10
6.0306439906
 20
-22.6685133448
 10
6.0382695713
 20
-22.6692862985
 10
6.0459934546
 20
-22.6697980968
 10
6.0538158111
 20
-22.6700482871
 10
6.0617364701
 20
-22.6700373219
 10
6.0697417371
 20
-22.6697652124
 10
6.0778317593
 20
-22.6692315057
 10
6.0860063895
 20
-22.6684366547
 10
6.0942514909
 20
-22.6673820287
 10
6.1025671779
 20
-22.6660671803
 10
6.1109533362
 20
-22.664492557
 10
6.1193954865
 20
-22.6626608703
 10
6.127893744
 20
-22.660571669
 10
6.1364479935
 20
-22.6582254043
 10
6.1450434102
 20
-22.6556261417
 10
6.1536802124
 20
-22.6527733707
 10
6.1623581818
 20
-22.6496676017
 10
6.1710618392
 20
-22.6463144315
 10
6.1797860247
 20
-22.6427157254
 10
6.1885358981
 20
-22.638869618
 10
6.1973114595
 20
-22.6347761092
  0
LWPOLYLINE
  5
2B9
100
AcDbEntity
  8
ASSI
100
AcDbPolyline
 62
253
  6
CONTINUOUS
 90
28
 70
0
 10
5.1640488812
 20
-22.5240368252
 10
5.1668292264
 20
-22.5418355622
 10
5.1700180524
 20
-22.5593251076
 10
5.1736135508
 20
-22.5764953973
 10
5.177613717
 20
-22.5933365431
 10
5.1820162473
 20
-22.6098388715
 10
5.1868185488
 20
-22.6259929214
 10
5.1920179376
 20
-22.6417894609
 10
5.1976114448
 20
-22.6572193444
 10
5.203595717
 20
-22.6722735508
 10
5.2099673614
 20
-22.6869434085
 10
5.2167227709
 20
-22.70122052
 10
5.2238579391
 20
-22.7150966116
 10
5.2313688456
 20
-22.7285637366
 10
5.239251221
 20
-22.741614149
 10
5.2475003691
 20
-22.754240229
 10
5.2561116304
 20
-22.7664347447
 10
5.2650801187
 20
-22.7781907024
 10
5.2744004896
 20
-22.7895012153
 10
5.2840674769
 20
-22.8003598167
 10
5.2940755951
 20
-22.8107602879
 10
5.304418876
 20
-22.8206965086
 10
5.3150914648
 20
-22.8301628036
 10
5.326087313
 20
-22.8391537705
 10
5.3373998826
 20
-22.8476641058
 10
5.3490227853
 20
-22.8556889707
 10
5.3609494209
 20
-22.8632237847
 10
5.3659218899
 20
-22.8661682655
  0
LINE
  5
2BA
100
AcDbEntity
  8
ASSI
100
AcDbLine
 62
7
  6
CONTINUOUS
 10
2.8389269646
 20
17.3879906755
 11
2.8601322538
 21
16.7715181781
  0
LWPOLYLINE
  5
2BB
100
AcDbEntity
  8
ASSI
100
AcDbPolyline
 62
253
  6
CONTINUOUS
 90
27
 70
0
 10
4.4468781111
 20
-13.7070462706
 10
4.4552434951
 20
-14.0579591413
 10
4.4651498233
 20
-14.4079927215
 10
4.4765968823
 20
-14.7571388236
 10
4.4895844036
 20
-15.1053892759
 10
4.5041120638
 20
-15.4527359227
 10
4.5201795387
 20
-15.7991706425
 10
4.5377864616
 20
-16.144685328
 10
4.5569323939
 20
-16.4892718779
 10
4.5776169066
 20
-16.8329222322
 10
4.5998395288
 20
-17.1756283559
 10
4.6235997075
 20
-17.5173822195
 10
4.6488969094
 20
-17.8581758322
 10
4.6757305595
 20
-18.1980012267
 10
4.7040999905
 20
-18.536850443
 10
4.7340045654
 20
-18.8747155647
 10
4.7654436052
 20
-19.2115886904
 10
4.798416327
 20
-19.5474619183
 10
4.8329219904
 20
-19.8823274045
 10
4.8689598119
 20
-20.2161773188
 10
4.9065288934
 20
-20.5490038157
 10
4.9456283897
 20
-20.8807991199
 10
4.9862574142
 20
-21.2115554801
 10
5.0284149546
 20
-21.5412651235
 10
5.0721000271
 20
-21.8699203337
 10
5.1173116764
 20
-22.197513451
 10
5.1640488812
 20
-22.5240368252
  0
LWPOLYLINE
  5
2BC
100
AcDbEntity
  8
ASSI
100
AcDbPolyline
 62
253
  6
CONTINUOUS
 90
27
 70
0
 10
5.1413305847
 20
-13.7043863558
 10
5.1496509875
 20
-14.0533477578
 10
5.1595038168
 20
-14.4014268437
 10
5.1708893746
 20
-14.7486317362
 10
5.1838073589
 20
-15.0949543126
 10
5.198256864
 20
-15.4403702045
 10
5.2142379969
 20
-15.7848793322
 10
5.2317506505
 20
-16.1284817754
 10
5.2507935974
 20
-16.4711534059
 10
5.2713669449
 20
-16.8128941549
 10
5.2934705856
 20
-17.1537040911
 10
5.317102971
 20
-17.493559292
 10
5.3422642078
 20
-17.8324596885
 10
5.3689541892
 20
-18.1704053495
 10
5.3971710457
 20
-18.5073725597
 10
5.4269148845
 20
-18.8433612526
 10
5.4581855984
 20
-19.1783714947
 10
5.4909809966
 20
-19.5123797692
 10
5.5253011864
 20
-19.8453860092
 10
5.5611460605
 20
-20.1773902816
 10
5.5985131064
 20
-20.5083692708
 10
5.6374024323
 20
-20.838322915
 10
5.67781393
 20
-21.1672512759
 10
5.7197447619
 20
-21.4951312227
 10
5.7631939821
 20
-21.821955045
 10
5.8081625365
 20
-22.1477304531
 10
5.8546504251
 20
-22.4724574471
  0
LWPOLYLINE
  5
2BD
100
AcDbEntity
  8
ASSI
100
AcDbPolyline
 62
253
  6
CONTINUOUS
 90
46
 70
0
 10
5.0686723556
 20
-5.9641821104
 10
5.0685128931
 20
-5.9570258338
 10
5.0681459778
 20
-5.9497497035
 10
5.0675720566
 20
-5.9423625807
 10
5.0667918284
 20
-5.9348734621
 10
5.0658062435
 20
-5.9272914685
 10
5.0646165022
 20
-5.9196258338
 10
5.0632240535
 20
-5.9118858938
 10
5.0616305931
 20
-5.9040810747
 10
5.0598380617
 20
-5.8962208819
 10
5.0578486425
 20
-5.888314888
 10
5.0556647582
 20
-5.8803727217
 10
5.0532890685
 20
-5.8724040553
 10
5.0507244668
 20
-5.8644185938
 10
5.0479740763
 20
-5.8564260624
 10
5.0450412468
 20
-5.8484361951
 10
5.0419295501
 20
-5.8404587225
 10
5.0386427757
 20
-5.8325033601
 10
5.0351849267
 20
-5.8245797965
 10
5.0315602141
 20
-5.8166976818
 10
5.0277730525
 20
-5.8088666152
 10
5.0238280542
 20
-5.801096134
 10
5.0197300236
 20
-5.7933957018
 10
5.0154839516
 20
-5.7857746966
 10
5.0110950094
 20
-5.7782423999
 10
5.0065685422
 20
-5.770807985
 10
5.0019100627
 20
-5.7634805062
 10
4.9971252443
 20
-5.7562688874
 10
4.9922199143
 20
-5.7491819114
 10
4.9872000467
 20
-5.7422282092
 10
4.9820717552
 20
-5.7354162496
 10
4.9768412854
 20
-5.7287543287
 10
4.9715150073
 20
-5.7222505599
 10
4.9660994076
 20
-5.7159128639
 10
4.9606010818
 20
-5.7097489593
 10
4.9550267263
 20
-5.7037663529
 10
4.9493831299
 20
-5.6979723307
 10
4.9436771657
 20
-5.6923739491
 10
4.937915783
 20
-5.6869780263
 10
4.9321059983
 20
-5.6817911338
 10
4.9262548872
 20
-5.6768195886
 10
4.9203695757
 20
-5.6720694454
 10
4.9144572313
 20
-5.6675464893
 10
4.9085250544
 20
-5.6632562286
 10
4.9025802698
 20
-5.6592038883
 10
4.8966301175
 20
-5.6553944038
  0
LINE
  5
2BE
100
AcDbEntity
  8
ASSI
100
AcDbLine
 62
253
  6
CONTINUOUS
 10
4.4267396532
 20
-12.5367602364
 11
4.4468781111
 21
-13.7070462706
  0
LINE
  5
2BF
100
AcDbEntity
  8
ASSI
100
AcDbLine
 62
253
  6
CONTINUOUS
 10
5.1212385971
 20
-12.5366812562
 11
5.1413305847
 21
-13.7043863558
  0
LWPOLYLINE
  5
2C0
100
AcDbEntity
  8
ASSI
100
AcDbPolyline
 62
253
  6
CONTINUOUS
 90
24
 70
0
 10
4.3741210039
 20
-5.3095307895
 10
4.3742227236
 20
-5.3165598008
 10
4.3745375266
 20
-5.323457428
 10
4.3750650331
 20
-5.330215352
 10
4.375804607
 20
-5.3368254224
 10
4.3767553563
 20
-5.3432796668
 10
4.3779161343
 20
-5.349570301
 10
4.3792855409
 20
-5.3556897379
 10
4.3808619247
 20
-5.361630597
 10
4.3826433843
 20
-5.3673857133
 10
4.3846277713
 20
-5.3729481456
 10
4.3868126922
 20
-5.3783111852
 10
4.3891955118
 20
-5.3834683638
 10
4.3917733565
 20
-5.3884134617
 10
4.3945431169
 20
-5.3931405145
 10
4.3975014527
 20
-5.3976438211
 10
4.4006447958
 20
-5.4019179501
 10
4.4039693551
 20
-5.4059577468
 10
4.407471121
 20
-5.4097583386
 10
4.4111458701
 20
-5.413315142
 10
4.4149891703
 20
-5.416623867
 10
4.4189963863
 20
-5.4196805231
 10
4.4231626852
 20
-5.4224814238
 10
4.4258467016
 20
-5.424101476
  0
LINE
  5
2C1
100
AcDbEntity
  8
ASSI
100
AcDbLine
 62
253
  6
CONTINUOUS
 10
4.4046024051
 20
-10.8972683755
 11
4.4267396532
 21
-12.5367602364
  0
LINE
  5
2C2
100
AcDbEntity
  8
ASSI
100
AcDbLine
 62
253
  6
CONTINUOUS
 10
5.0991193819
 20
-10.8984891873
 11
5.1212385971
 21
-12.5366812562
  0
LINE
  5
2C3
100
AcDbEntity
  8
ASSI
100
AcDbLine
 62
253
  6
CONTINUOUS
 10
4.3884536513
 20
-9.2544873265
 11
4.4046024051
 21
-10.8972683755
  0
LWPOLYLINE
  5
2C4
100
AcDbEntity
  8
ASSI
100
AcDbPolyline
 62
253
  6
CONTINUOUS
 90
3
 70
0
 10
5.077162578
 20
-8.4350278186
 10
5.0829851278
 20
-9.2570030206
 10
5.0991193819
 20
-10.8984891873
  0
LINE
  5
2C5
100
AcDbEntity
  8
ASSI
100
AcDbLine
 62
253
  6
CONTINUOUS
 10
4.3782927143
 20
-7.6084123228
 11
4.3884536513
 21
-9.2544873265
  0
LINE
  5
2C6
100
AcDbEntity
  8
ASSI
100
AcDbLine
 62
253
  6
CONTINUOUS
 10
4.3741197096
 20
-5.9590622808
 11
4.3782927143
 21
-7.6084123228
  0
LINE
  5
2C7
100
AcDbEntity
  8
ASSI
100
AcDbLine
 62
253
  6
CONTINUOUS
 10
4.3782927143
 20
-3.655688257
 11
4.3741197096
 21
-5.3095300422
  0
LINE
  5
2C8
100
AcDbEntity
  8
ASSI
100
AcDbLine
 62
253
  6
CONTINUOUS
 10
4.3884536513
 20
-1.998671583
 11
4.3782927143
 21
-3.655688257
  0
LINE
  5
2C9
100
AcDbEntity
  8
ASSI
100
AcDbLine
 62
253
  6
CONTINUOUS
 10
4.4046024051
 20
-0.3384994009
 11
4.3884536513
 21
-1.998671583
  0
LINE
  5
2CA
100
AcDbEntity
  8
ASSI
100
AcDbLine
 62
253
  6
CONTINUOUS
 10
4.4267396532
 20
1.3248325156
 11
4.4046024051
 21
-0.3384994009
  0
LWPOLYLINE
  5
2CB
100
AcDbEntity
  8
ASSI
100
AcDbPolyline
 62
253
  6
CONTINUOUS
 90
46
 70
0
 10
4.3741210039
 20
-5.9590630281
 10
4.3742227236
 20
-5.9519165535
 10
4.3745375266
 20
-5.9446553999
 10
4.3750650331
 20
-5.9372883247
 10
4.3758046069
 20
-5.9298242131
 10
4.3767553562
 20
-5.9222720675
 10
4.3779161341
 20
-5.9146409963
 10
4.3792855407
 20
-5.9069402032
 10
4.3808619243
 20
-5.8991789758
 10
4.3826433839
 20
-5.8913666748
 10
4.3846277707
 20
-5.8835127224
 10
4.3868126915
 20
-5.8756265911
 10
4.3891955111
 20
-5.8677177922
 10
4.3917733556
 20
-5.8597958642
 10
4.3945431159
 20
-5.8518703616
 10
4.3975014516
 20
-5.8439508431
 10
4.4006447946
 20
-5.8360468603
 10
4.4039693538
 20
-5.828167946
 10
4.4074711196
 20
-5.8203236027
 10
4.4111458685
 20
-5.8125232914
 10
4.4149891686
 20
-5.8047764197
 10
4.4189963846
 20
-5.797092331
 10
4.4231626833
 20
-5.7894802928
 10
4.42748304
 20
-5.7819494859
 10
4.431952244
 20
-5.774508993
 10
4.4365649051
 20
-5.7671677878
 10
4.4413154601
 20
-5.7599347245
 10
4.4461981794
 20
-5.7528185266
 10
4.4512071742
 20
-5.7458277767
 10
4.4563364031
 20
-5.7389709064
 10
4.46157968
 20
-5.7322561854
 10
4.4669306811
 20
-5.7256917123
 10
4.4723829526
 20
-5.7192854042
 10
4.4779299188
 20
-5.7130449877
 10
4.4835648895
 20
-5.7069779892
 10
4.4892810686
 20
-5.7010917259
 10
4.4950715619
 20
-5.6953932971
 10
4.5009293857
 20
-5.6898895756
 10
4.5068474749
 20
-5.6845871992
 10
4.5128186919
 20
-5.6794925631
 10
4.518835835
 20
-5.6746118116
 10
4.5248916471
 20
-5.6699508314
 10
4.5309788244
 20
-5.665515244
 10
4.5370900252
 20
-5.661310399
 10
4.5432178791
 20
-5.6573413678
 10
4.5493549953
 20
-5.6536129373
  0
LINE
  5
2CC
100
AcDbEntity
  8
ASSI
100
AcDbLine
 62
253
  6
CONTINUOUS
 10
4.4468781111
 20
2.516808375
 11
4.4267396532
 21
1.3248325156
  0
LINE
  5
2CD
100
AcDbEntity
  8
ASSI
100
AcDbLine
 62
253
  6
CONTINUOUS
 10
4.4651498233
 20
3.2374383028
 11
4.4468781111
 21
2.516808375
  0
LINE
  5
2CE
100
AcDbEntity
  8
ASSI
100
AcDbLine
 62
253
  6
CONTINUOUS
 10
4.4895844036
 20
3.9611573256
 11
4.4651498233
 21
3.2374383028
  0
LINE
  5
2CF
100
AcDbEntity
  8
ASSI
100
AcDbLine
 62
253
  6
CONTINUOUS
 10
4.5201795387
 20
4.6878977311
 11
4.4895844036
 21
3.9611573256
  0
LINE
  5
2D0
100
AcDbEntity
  8
ASSI
100
AcDbLine
 62
253
  6
CONTINUOUS
 10
5.2142379969
 20
4.6590359652
 11
5.1838073589
 21
3.9363418638
  0
LINE
  5
2D1
100
AcDbEntity
  8
ASSI
100
AcDbLine
 62
253
  6
CONTINUOUS
 10
4.5569323939
 20
5.4175914688
 11
4.5201795387
 21
4.6878977311
  0
LINE
  5
2D2
100
AcDbEntity
  8
ASSI
100
AcDbLine
 62
253
  6
CONTINUOUS
 10
5.2507935974
 20
5.3846747563
 11
5.2142379969
 21
4.6590359652
  0
LINE
  5
2D3
100
AcDbEntity
  8
ASSI
100
AcDbLine
 62
253
  6
CONTINUOUS
 10
4.5998395288
 20
6.150170218
 11
4.5569323939
 21
5.4175914688
  0
LINE
  5
2D4
100
AcDbEntity
  8
ASSI
100
AcDbLine
 62
253
  6
CONTINUOUS
 10
5.2934705856
 20
6.1131819449
 11
5.2507935974
 21
5.3846747563
  0
LINE
  5
2D5
100
AcDbEntity
  8
ASSI
100
AcDbLine
 62
253
  6
CONTINUOUS
 10
4.6488969094
 20
6.8855654464
 11
4.5998395288
 21
6.150170218
  0
LINE
  5
2D6
100
AcDbEntity
  8
ASSI
100
AcDbLine
 62
253
  6
CONTINUOUS
 10
5.3422642078
 20
6.8444807126
 11
5.2934705856
 21
6.1131819449
  0
LINE
  5
2D7
100
AcDbEntity
  8
ASSI
100
AcDbLine
 62
253
  6
CONTINUOUS
 10
4.7040999905
 20
7.6237083083
 11
4.6488969094
 21
6.8855654464
  0
LINE
  5
2D8
100
AcDbEntity
  8
ASSI
100
AcDbLine
 62
253
  6
CONTINUOUS
 10
5.3971710457
 20
7.5785197403
 11
5.3422642078
 21
6.8444807126
  0
LINE
  5
2D9
100
AcDbEntity
  8
ASSI
100
AcDbLine
 62
253
  6
CONTINUOUS
 10
4.7654436052
 20
8.3645297676
 11
4.7040999905
 21
7.6237083083
  0
LINE
  5
2DA
100
AcDbEntity
  8
ASSI
100
AcDbLine
 62
253
  6
CONTINUOUS
 10
5.4581855984
 20
8.3152218941
 11
5.3971710457
 21
7.5785197403
  0
LINE
  5
2DB
100
AcDbEntity
  8
ASSI
100
AcDbLine
 62
253
  6
CONTINUOUS
 10
4.8329219904
 20
9.1079605197
 11
4.7654436052
 21
8.3645297676
  0
LINE
  5
2DC
100
AcDbEntity
  8
ASSI
100
AcDbLine
 62
253
  6
CONTINUOUS
 10
5.5253011864
 20
9.0545094972
 11
5.4581855984
 21
8.3152218941
  0
LINE
  5
2DD
100
AcDbEntity
  8
ASSI
100
AcDbLine
 62
253
  6
CONTINUOUS
 10
4.9065288934
 20
9.8539309416
 11
4.8329219904
 21
9.1079605197
  0
LINE
  5
2DE
100
AcDbEntity
  8
ASSI
100
AcDbLine
 62
253
  6
CONTINUOUS
 10
5.5985131064
 20
9.7963306523
 11
5.5253011864
 21
9.0545094972
  0
LINE
  5
2DF
100
AcDbEntity
  8
ASSI
100
AcDbLine
 62
253
  6
CONTINUOUS
 10
5.67781393
 20
10.5406073565
 11
5.5985131064
 21
9.7963306523
  0
LINE
  5
2E0
100
AcDbEntity
  8
ASSI
100
AcDbLine
 62
253
  6
CONTINUOUS
 10
5.0284149546
 20
10.9774956494
 11
4.9065288934
 21
9.8539309416
  0
LINE
  5
2E1
100
AcDbEntity
  8
ASSI
100
AcDbLine
 62
253
  6
CONTINUOUS
 10
5.7631939821
 20
11.2872522118
 11
5.67781393
 21
10.5406073565
  0
LWPOLYLINE
  5
2E2
100
AcDbEntity
  8
ASSI
100
AcDbPolyline
 62
253
  6
CONTINUOUS
 90
3
 70
0
 10
5.1640488812
 20
12.1063808243
 10
5.1173116764
 20
11.7295092945
 10
5.0284149546
 20
10.9774956494
  0
LINE
  5
2E3
100
AcDbEntity
  8
ASSI
100
AcDbLine
 62
253
  6
CONTINUOUS
 10
5.8546504251
 20
12.0362390317
 11
5.7631939821
 21
11.2872522118
  0
LINE
  5
2E4
100
AcDbEntity
  8
ASSI
100
AcDbLine
 62
253
  6
CONTINUOUS
 10
-10.3685383317
 20
10.7079684742
 11
4.4400538599
 21
2.157672938
  0
LWPOLYLINE
  5
2E5
100
AcDbEntity
  8
0
100
AcDbPolyline
 62
253
  6
CONTINUOUS
 90
36
 70
0
 10
-1.5506714334
 20
6.2869796622
 10
-1.5547279831
 20
6.2893835339
 10
-1.5587664407
 20
6.291898715
 10
-1.5627877742
 20
6.2945233858
 10
-1.566792952
 20
6.2972557266
 10
-1.5707829422
 20
6.3000939178
 10
-1.5747587132
 20
6.3030361395
 10
-1.578721233
 20
6.3060805721
 10
-1.5826708627
 20
6.3092251463
 10
-1.5866055344
 20
6.3124667944
 10
-1.5905225727
 20
6.3158021991
 10
-1.5944193025
 20
6.3192280432
 10
-1.5982930485
 20
6.3227410095
 10
-1.6021411355
 20
6.3263377806
 10
-1.6059608883
 20
6.3300150393
 10
-1.6097499048
 20
6.3337698069
 10
-1.6135068758
 20
6.3376004596
 10
-1.6172307652
 20
6.3415057119
 10
-1.6209205368
 20
6.3454842785
 10
-1.6245751546
 20
6.3495348742
 10
-1.6281935825
 20
6.3536562136
 10
-1.6317747844
 20
6.3578470114
 10
-1.6353175477
 20
6.3621059458
 10
-1.6388199542
 20
6.3664315497
 10
-1.6422799092
 20
6.3708223196
 10
-1.6456953177
 20
6.3752767518
 10
-1.6490640853
 20
6.3797933428
 10
-1.6523841169
 20
6.384370589
 10
-1.6556533181
 20
6.3890069868
 10
-1.6588697127
 20
6.3937015699
 10
-1.6620318007
 20
6.39845552
 10
-1.6651382004
 20
6.4032705564
 10
-1.6681875305
 20
6.408148398
 10
-1.6711784094
 20
6.413090764
 10
-1.6741094558
 20
6.4180993733
 10
-1.6769792882
 20
6.423175945
  0
LWPOLYLINE
  5
2E6
100
AcDbEntity
  8
0
100
AcDbPolyline
 62
253
  6
CONTINUOUS
 90
36
 70
0
 10
-4.284111656
 20
7.8652337886
 10
-4.2881755088
 20
7.8676422217
 10
-4.2922210426
 20
7.8701624999
 10
-4.2962492472
 20
7.872792782
 10
-4.3002611124
 20
7.875531227
 10
-4.3042576281
 20
7.8783759937
 10
-4.3082397841
 20
7.8813252411
 10
-4.3122085703
 20
7.8843771278
 10
-4.3161643558
 20
7.8875295441
 10
-4.3201050272
 20
7.8907793046
 10
-4.3240278505
 20
7.8941229551
 10
-4.3279300917
 20
7.8975570417
 10
-4.3318090165
 20
7.9010781101
 10
-4.335661891
 20
7.9046827062
 10
-4.3394859812
 20
7.9083673759
 10
-4.3432788532
 20
7.9121290272
 10
-4.3470392747
 20
7.9159660163
 10
-4.3507663135
 20
7.9198770615
 10
-4.3544590375
 20
7.9238608811
 10
-4.3581165146
 20
7.9279161934
 10
-4.3617378128
 20
7.9320417167
 10
-4.3653219998
 20
7.9362361693
 10
-4.3688679595
 20
7.9404982272
 10
-4.3723738395
 20
7.9448263968
 10
-4.3758376033
 20
7.9492191421
 10
-4.3792572144
 20
7.9536749271
 10
-4.3826306363
 20
7.958192216
 10
-4.3859558326
 20
7.9627694728
 10
-4.3892307666
 20
7.9674051616
 10
-4.3924535277
 20
7.9720982821
 10
-4.3956227072
 20
7.9768499771
 10
-4.3987370223
 20
7.9816619253
 10
-4.4017951902
 20
7.9865358052
 10
-4.404795928
 20
7.9914732955
 10
-4.4077379529
 20
7.9964760745
 10
-4.410619982
 20
8.001545821
  0
LWPOLYLINE
  5
2E7
100
AcDbEntity
  8
0
100
AcDbPolyline
 62
253
  6
CONTINUOUS
 90
55
 70
0
 10
-2.9306332007
 20
6.4145120071
 10
-2.9361133412
 20
6.4177806759
 10
-2.9415401487
 20
6.4212254505
 10
-2.946927433
 20
6.4248511411
 10
-2.9522890042
 20
6.4286625579
 10
-2.9576386723
 20
6.4326645111
 10
-2.962987522
 20
6.4368611579
 10
-2.9683357375
 20
6.4412540443
 10
-2.9736807779
 20
6.4458440631
 10
-2.979020102
 20
6.4506321073
 10
-2.9843511689
 20
6.4556190699
 10
-2.9896702896
 20
6.460804777
 10
-2.9949691839
 20
6.4661847877
 10
-3.0002384234
 20
6.4717535941
 10
-3.0054685798
 20
6.4775056885
 10
-3.010650225
 20
6.4834355631
 10
-3.0149228824
 20
6.4885065588
 10
-3.0191407224
 20
6.4936796171
 10
-3.0232891636
 20
6.4989371673
 10
-3.0273573213
 20
6.5042665498
 10
-3.0313490996
 20
6.5096747504
 10
-3.0352720993
 20
6.5151736661
 10
-3.0391314781
 20
6.5207720434
 10
-3.0429226193
 20
6.5264660257
 10
-3.046638463
 20
6.5322486058
 10
-3.050271949
 20
6.5381127766
 10
-3.0538160174
 20
6.5440515307
 10
-3.057263608
 20
6.550057861
 10
-3.0606084352
 20
6.5561243363
 10
-3.0638473096
 20
6.5622418292
 10
-3.0669778163
 20
6.5684007886
 10
-3.0699975404
 20
6.5745916633
 10
-3.0729040667
 20
6.5808049019
 10
-3.0756949805
 20
6.5870309533
 10
-3.078369292
 20
6.5932639749
 10
-3.0809317131
 20
6.5995129585
 10
-3.0833883811
 20
6.605790605
 10
-3.0857431283
 20
6.6121038282
 10
-3.0879905671
 20
6.6184363963
 10
-3.0901230049
 20
6.6247662908
 10
-3.0925215242
 20
6.6323321073
 10
-3.0947434298
 20
6.6398511659
 10
-3.0967887866
 20
6.6473122654
 10
-3.0986576597
 20
6.6547042046
 10
-3.100350114
 20
6.6620157822
 10
-3.1018665444
 20
6.6692373799
 10
-3.1032086666
 20
6.6763657104
 10
-3.1043785258
 20
6.6833990696
 10
-3.1053781677
 20
6.6903357529
 10
-3.1062096378
 20
6.6971740561
 10
-3.1068741257
 20
6.7039149799
 10
-3.1073693975
 20
6.7105703451
 10
-3.1076923634
 20
6.7171546777
 10
-3.1078399336
 20
6.7236825038
 10
-3.1078090182
 20
6.7301683492
  0
LWPOLYLINE
  5
2E8
100
AcDbEntity
  8
0
100
AcDbPolyline
 62
253
  6
CONTINUOUS
 90
53
 70
0
 10
-1.2648456314
 20
9.8172837623
 10
-1.2613365804
 20
9.8103608162
 10
-1.2579917644
 20
9.8034243695
 10
-1.2548001791
 20
9.7964581183
 10
-1.2517508201
 20
9.7894457587
 10
-1.2488326829
 20
9.7823709866
 10
-1.2460371374
 20
9.7752205919
 10
-1.2433650509
 20
9.7679937392
 10
-1.2408196649
 20
9.7606926869
 10
-1.2384042211
 20
9.7533196933
 10
-1.2361219611
 20
9.7458770169
 10
-1.2339766254
 20
9.7383685164
 10
-1.2319739505
 20
9.7308044519
 10
-1.2301201721
 20
9.7231966839
 10
-1.2284215256
 20
9.715557073
 10
-1.2268842466
 20
9.7078974797
 10
-1.2257309837
 20
9.7015102816
 10
-1.2246979443
 20
9.6951393309
 10
-1.2237889611
 20
9.6888065151
 10
-1.2230072016
 20
9.6825279588
 10
-1.2223531716
 20
9.6762967347
 10
-1.2218267121
 20
9.6701001523
 10
-1.2213640029
 20
9.662698697
 10
-1.2210897318
 20
9.6553464298
 10
-1.2210088644
 20
9.6480609289
 10
-1.2211263667
 20
9.6408597726
 10
-1.2214472043
 20
9.633760539
 10
-1.2219744522
 20
9.626779682
 10
-1.2227036207
 20
9.6199291584
 10
-1.2236283291
 20
9.6132198008
 10
-1.2247421969
 20
9.6066624418
 10
-1.2260388433
 20
9.6002679138
 10
-1.2272553057
 20
9.5950683763
 10
-1.2285960004
 20
9.5899779226
 10
-1.2300626609
 20
9.5849850366
 10
-1.2316557036
 20
9.5800828875
 10
-1.2333702749
 20
9.5752833855
 10
-1.2352002038
 20
9.5706031259
 10
-1.2375402727
 20
9.5651635149
 10
-1.2400303332
 20
9.5599237906
 10
-1.2426631482
 20
9.5548882332
 10
-1.2454314807
 20
9.5500611231
 10
-1.2483280934
 20
9.5454467403
 10
-1.2513464207
 20
9.5410484044
 10
-1.2544825819
 20
9.5368655922
 10
-1.2577333678
 20
9.5328968197
 10
-1.2610955692
 20
9.5291406031
 10
-1.2645659767
 20
9.5255954584
 10
-1.2681439911
 20
9.5222597068
 10
-1.2718394524
 20
9.51913089
 10
-1.2756648107
 20
9.5162063548
 10
-1.2796325159
 20
9.5134834478
 10
-1.2837550182
 20
9.5109595158
  0
LWPOLYLINE
  5
2E9
100
AcDbEntity
  8
ASSI
100
AcDbPolyline
 62
253
  6
CONTINUOUS
 90
3
 70
0
 10
5.0686737582
 20
-5.9641813416
 10
5.0700069221
 20
-6.7886174015
 10
5.077162578
 20
-8.4350278186
  0
LINE
  5
2EA
100
AcDbEntity
  8
ASSI
100
AcDbLine
 62
253
  6
CONTINUOUS
 10
5.0728365287
 20
-3.6658779438
 11
5.0686737582
 21
-5.3184121548
  0
LINE
  5
2EB
100
AcDbEntity
  8
ASSI
100
AcDbLine
 62
253
  6
CONTINUOUS
 10
5.0829851278
 20
-2.0101793484
 11
5.0728365287
 21
-3.6658779438
  0
LINE
  5
2EC
100
AcDbEntity
  8
ASSI
100
AcDbLine
 62
253
  6
CONTINUOUS
 10
5.0991193819
 20
-0.35131909
 11
5.0829851278
 21
-2.0101793484
  0
LINE
  5
2ED
100
AcDbEntity
  8
ASSI
100
AcDbLine
 62
253
  6
CONTINUOUS
 10
5.1212385971
 20
1.3106919462
 11
5.0991193819
 21
-0.35131909
  0
LINE
  5
2EE
100
AcDbEntity
  8
ASSI
100
AcDbLine
 62
253
  6
CONTINUOUS
 10
5.1413305847
 20
2.5000330031
 11
5.1212385971
 21
1.3106919462
  0
LWPOLYLINE
  5
2EF
100
AcDbEntity
  8
ASSI
100
AcDbPolyline
 62
253
  6
CONTINUOUS
 90
24
 70
0
 10
5.0686723556
 20
-5.3184128963
 10
5.0685128931
 20
-5.325500518
 10
5.0681459778
 20
-5.3324509387
 10
5.0675720567
 20
-5.3392556935
 10
5.0667918286
 20
-5.3459064952
 10
5.0658062438
 20
-5.3523952439
 10
5.0646165026
 20
-5.3587140372
 10
5.0632240539
 20
-5.3648551796
 10
5.0616305937
 20
-5.3708111919
 10
5.0598380625
 20
-5.3765748205
 10
5.0578486434
 20
-5.382139046
 10
5.0556647592
 20
-5.3874970919
 10
5.0532890697
 20
-5.3926424327
 10
5.0507244682
 20
-5.397568802
 10
5.0479740779
 20
-5.4022702003
 10
5.0450412486
 20
-5.4067409017
 10
5.041929552
 20
-5.4109754615
 10
5.0386427779
 20
-5.4149687227
 10
5.035184929
 20
-5.4187158217
 10
5.0315602166
 20
-5.4222121953
 10
5.0277730551
 20
-5.4254535852
 10
5.0238280569
 20
-5.4284360438
 10
5.0197300264
 20
-5.4311559389
 10
5.015096636
 20
-5.4338166593
  0
LINE
  5
2F0
100
AcDbEntity
  8
ASSI
100
AcDbLine
 62
253
  6
CONTINUOUS
 10
5.1595038168
 20
3.216643246
 11
5.1413305847
 21
2.5000330031
  0
LINE
  5
2F1
100
AcDbEntity
  8
ASSI
100
AcDbLine
 62
253
  6
CONTINUOUS
 10
5.1838073589
 20
3.9363418638
 11
5.1595038168
 21
3.216643246
  0
LWPOLYLINE
  5
2F2
100
AcDbEntity
  8
0
100
AcDbPolyline
 62
253
  6
CONTINUOUS
 90
44
 70
0
 10
-1.501738777
 20
-13.1217076255
 10
-1.5035610355
 20
-13.1243631381
 10
-1.5054611641
 20
-13.1268797792
 10
-1.5074386171
 20
-13.1292636507
 10
-1.509492849
 20
-13.1315208547
 10
-1.511623314
 20
-13.1336574929
 10
-1.5138294667
 20
-13.1356796673
 10
-1.5161107613
 20
-13.1375934798
 10
-1.5184666523
 20
-13.1394050323
 10
-1.5212497698
 20
-13.1413564492
 10
-1.5241289612
 20
-13.1431821398
 10
-1.5271035809
 20
-13.1448819725
 10
-1.5301729833
 20
-13.1464558153
 10
-1.5333365229
 20
-13.1479035363
 10
-1.5365935543
 20
-13.1492250037
 10
-1.5399434318
 20
-13.1504200856
 10
-1.5433847335
 20
-13.1514884782
 10
-1.5469129313
 20
-13.1524291901
 10
-1.5505227208
 20
-13.1532410578
 10
-1.5542087974
 20
-13.1539229182
 10
-1.5579658567
 20
-13.1544736078
 10
-1.5617885941
 20
-13.1548919633
 10
-1.5656717052
 20
-13.1551768213
 10
-1.5696096738
 20
-13.1553274573
 10
-1.5735961378
 20
-13.1553449022
 10
-1.5776245233
 20
-13.1552306255
 10
-1.5816882566
 20
-13.1549860969
 10
-1.5857807636
 20
-13.154612786
 10
-1.5898954708
 20
-13.1541121624
 10
-1.5940258042
 20
-13.1534856958
 10
-1.5981661639
 20
-13.1527347873
 10
-1.6023148446
 20
-13.1518605639
 10
-1.6064711153
 20
-13.1508640841
 10
-1.6106342446
 20
-13.1497464064
 10
-1.6148035012
 20
-13.1485085894
 10
-1.6189781538
 20
-13.1471516915
 10
-1.6231574712
 20
-13.1456767713
 10
-1.627342052
 20
-13.1440834838
 10
-1.6315378137
 20
-13.1423658697
 10
-1.6357520041
 20
-13.1405165662
 10
-1.6399918705
 20
-13.1385282106
 10
-1.6442646607
 20
-13.13639344
 10
-1.6485776221
 20
-13.1341048917
 10
-1.6529380023
 20
-13.131655203
  0
LWPOLYLINE
  5
2F3
100
AcDbEntity
  8
0
100
AcDbPolyline
 62
253
  6
CONTINUOUS
 90
53
 70
0
 10
-2.1609879722
 20
-12.3429189287
 10
-2.1584524689
 20
-12.3392986645
 10
-2.1557837658
 20
-12.3358950028
 10
-2.1529779364
 20
-12.3326959247
 10
-2.1500310543
 20
-12.3296894113
 10
-2.146939193
 20
-12.3268634438
 10
-2.1436989655
 20
-12.3242086643
 10
-2.1403091429
 20
-12.3217263591
 10
-2.1367690357
 20
-12.3194204757
 10
-2.1330779545
 20
-12.3172949616
 10
-2.1292352097
 20
-12.3153537641
 10
-2.1252409169
 20
-12.3136012483
 10
-2.1210984115
 20
-12.3120434493
 10
-2.1168118338
 20
-12.3106868198
 10
-2.112385324
 20
-12.3095378125
 10
-2.1078230225
 20
-12.30860288
 10
-2.1039221754
 20
-12.3079916584
 10
-2.0999431806
 20
-12.3075355397
 10
-2.0958993151
 20
-12.3072364825
 10
-2.0918000982
 20
-12.3070963884
 10
-2.0876400182
 20
-12.3071169301
 10
-2.0834098059
 20
-12.307299723
 10
-2.0782321632
 20
-12.3077357427
 10
-2.0729495938
 20
-12.3084118551
 10
-2.0675715091
 20
-12.309332185
 10
-2.0621073209
 20
-12.310500857
 10
-2.0565664407
 20
-12.3119219959
 10
-2.0509588285
 20
-12.3135974244
 10
-2.0452966382
 20
-12.3155197562
 10
-2.039592572
 20
-12.3176793029
 10
-2.033859332
 20
-12.3200663762
 10
-2.0281096205
 20
-12.3226712877
 10
-2.0233119189
 20
-12.3250030403
 10
-2.0185018085
 20
-12.327483206
 10
-2.0136694981
 20
-12.330115649
 10
-2.0088096473
 20
-12.3329018616
 10
-2.0039347184
 20
-12.335833846
 10
-1.9990616248
 20
-12.3389012322
 10
-1.9932367067
 20
-12.3427475368
 10
-1.9874473618
 20
-12.3467638378
 10
-1.9817021658
 20
-12.350940086
 10
-1.9760096945
 20
-12.3552662319
 10
-1.9703785233
 20
-12.3597322263
 10
-1.9648160265
 20
-12.3643290199
 10
-1.9593247708
 20
-12.3690515635
 10
-1.9539061218
 20
-12.3738958081
 10
-1.9485614446
 20
-12.3788577047
 10
-1.9432921046
 20
-12.3839332043
 10
-1.9380973586
 20
-12.3891217094
 10
-1.9329680297
 20
-12.3944364282
 10
-1.9278928327
 20
-12.3998940206
 10
-1.9228604822
 20
-12.4055111464
 10
-1.9178596929
 20
-12.4113044656
  0
LINE
  5
2F4
100
AcDbEntity
  8
0
100
AcDbLine
 62
253
  6
CONTINUOUS
 10
-0.9314612528
 20
7.5689100127
 11
-1.6891703436
 21
8.0064017455
  0
LINE
  5
2F5
100
AcDbEntity
  8
0
100
AcDbLine
 62
253
  6
CONTINUOUS
 10
-4.0399269395
 20
9.363699142
 11
-4.7973117433
 21
9.8010036355
  0
LINE
  5
2F6
100
AcDbEntity
  8
0
100
AcDbLine
 62
253
  6
CONTINUOUS
 10
-4.778377073
 20
10.2299003388
 11
-4.0209922691
 21
9.7925958454
  0
LINE
  5
2F7
100
AcDbEntity
  8
0
100
AcDbLine
 62
253
  6
CONTINUOUS
 10
-1.6702356733
 20
8.4352984488
 11
-0.9125265824
 21
7.9978067161
  0
LWPOLYLINE
  5
2F8
100
AcDbEntity
  8
0
100
AcDbPolyline
 62
253
  6
CONTINUOUS
 90
55
 70
0
 10
-2.8994885921
 20
7.725069474
 10
-2.8940127716
 20
7.7218027177
 10
-2.8885933431
 20
7.7183604102
 10
-2.8832163179
 20
7.714737567
 10
-2.8778677075
 20
7.7109292034
 10
-2.8725335233
 20
7.7069303346
 10
-2.8672025441
 20
7.7027366441
 10
-2.861874619
 20
7.6983464884
 10
-2.8565523647
 20
7.6937588919
 10
-2.8512383976
 20
7.6889728792
 10
-2.8459353344
 20
7.6839874748
 10
-2.8406469279
 20
7.678802766
 10
-2.8353814764
 20
7.6734230913
 10
-2.8301484145
 20
7.6678538524
 10
-2.8249571767
 20
7.6621004504
 10
-2.8198171977
 20
7.6561682868
 10
-2.8155813428
 20
7.6510945602
 10
-2.8114020861
 20
7.6459179712
 10
-2.8072938775
 20
7.6406560465
 10
-2.8032675003
 20
7.635321381
 10
-2.7993190712
 20
7.6299068433
 10
-2.7954410401
 20
7.62440037
 10
-2.7916282929
 20
7.61879308
 10
-2.7878854597
 20
7.6130888198
 10
-2.7842196063
 20
7.6072946176
 10
-2.780637799
 20
7.6014175021
 10
-2.7771471036
 20
7.5954645016
 10
-2.7737545862
 20
7.5894426445
 10
-2.7704665121
 20
7.5833594105
 10
-2.7672859434
 20
7.5772240846
 10
-2.7642151415
 20
7.571046403
 10
-2.7612563678
 20
7.5648361019
 10
-2.7584118836
 20
7.5586029174
 10
-2.7556839504
 20
7.5523565857
 10
-2.7530734305
 20
7.546103088
 10
-2.7505755893
 20
7.5398333843
 10
-2.7481842934
 20
7.5335346798
 10
-2.7458956614
 20
7.527199993
 10
-2.7437148205
 20
7.5208455961
 10
-2.7416491501
 20
7.5144935749
 10
-2.7393305928
 20
7.5069008979
 10
-2.7371882511
 20
7.499354705
 10
-2.7352218689
 20
7.4918662557
 10
-2.7334311898
 20
7.4844468095
 10
-2.7318159578
 20
7.4771076261
 10
-2.7303756123
 20
7.4698583926
 10
-2.7291083757
 20
7.4627025059
 10
-2.7280121661
 20
7.4556417906
 10
-2.7270849014
 20
7.4486780712
 10
-2.7263244998
 20
7.4418131722
 10
-2.7257297691
 20
7.4350461502
 10
-2.7253030759
 20
7.4283649895
 10
-2.7250476768
 20
7.4217549068
 10
-2.7249668284
 20
7.4152011184
 10
-2.725063787
 20
7.4086888408
  0
LWPOLYLINE
  5
2F9
100
AcDbEntity
  8
0
100
AcDbPolyline
 62
253
  6
CONTINUOUS
 90
55
 70
0
 10
-4.7973117433
 20
9.8010036355
 10
-4.8027767162
 20
9.8042649507
 10
-4.8081837525
 20
9.8077026148
 10
-4.8135469394
 20
9.8113217377
 10
-4.8188803643
 20
9.8151274292
 10
-4.8241981144
 20
9.8191247994
 10
-4.8295114736
 20
9.8233182757
 10
-4.834820513
 20
9.8277095559
 10
-4.8401225
 20
9.8322996554
 10
-4.8454147025
 20
9.8370895896
 10
-4.8506943881
 20
9.8420803739
 10
-4.8559577052
 20
9.8472719761
 10
-4.861196326
 20
9.8526601726
 10
-4.8664008035
 20
9.8582396925
 10
-4.8715616905
 20
9.8640052645
 10
-4.8766695401
 20
9.8699516176
 10
-4.880877278
 20
9.8750388179
 10
-4.8850273186
 20
9.8802305225
 10
-4.8891053565
 20
9.8855093541
 10
-4.8931007141
 20
9.8908628814
 10
-4.8970172259
 20
9.8962984583
 10
-4.900862354
 20
9.9018283848
 10
-4.90464111
 20
9.9074617254
 10
-4.9083487031
 20
9.913194602
 10
-4.911977892
 20
9.919019901
 10
-4.9155214352
 20
9.9249305088
 10
-4.9189720913
 20
9.9309193117
 10
-4.922322619
 20
9.9369791961
 10
-4.9255666173
 20
9.9431026015
 10
-4.9287010463
 20
9.9492801799
 10
-4.9317237069
 20
9.9555021366
 10
-4.9346323996
 20
9.9617586767
 10
-4.9374249252
 20
9.9680400054
 10
-4.9400990842
 20
9.974336328
 10
-4.94265405
 20
9.9806416466
 10
-4.9450944865
 20
9.9869651509
 10
-4.9474264301
 20
9.9933198276
 10
-4.9496537065
 20
9.9997127651
 10
-4.9517712986
 20
10.0061274571
 10
-4.9537719782
 20
10.0125414991
 10
-4.9560104443
 20
10.020210493
 10
-4.9580705708
 20
10.0278348562
 10
-4.9599527806
 20
10.0354031565
 10
-4.9616574965
 20
10.0429039618
 10
-4.9631851411
 20
10.0503258401
 10
-4.9645364254
 20
10.0576589533
 10
-4.965713212
 20
10.0648998406
 10
-4.9667176517
 20
10.0720466353
 10
-4.9675518951
 20
10.0790974707
 10
-4.968218093
 20
10.0860504801
 10
-4.9687174443
 20
10.0929066194
 10
-4.9690473417
 20
10.0996781349
 10
-4.9692042259
 20
10.1063800953
 10
-4.9691845379
 20
10.1130275698
 10
-4.9689847185
 20
10.1196356269
  0
LWPOLYLINE
  5
2FA
100
AcDbEntity
  8
0
100
AcDbPolyline
 62
253
  6
CONTINUOUS
 90
55
 70
0
 10
-1.6891703436
 20
8.0064017455
 10
-1.6946468857
 20
8.0096703072
 10
-1.700064989
 20
8.0131160076
 10
-1.7054386953
 20
8.0167438502
 10
-1.7107820467
 20
8.0205588386
 10
-1.7161090848
 20
8.0245659762
 10
-1.7214310634
 20
8.028769599
 10
-1.726748083
 20
8.0331713712
 10
-1.7320574557
 20
8.0377722897
 10
-1.7373564937
 20
8.0425733511
 10
-1.7426425093
 20
8.047575552
 10
-1.7479116855
 20
8.0527788302
 10
-1.7531556891
 20
8.0581788876
 10
-1.7583650576
 20
8.063770367
 10
-1.7635303287
 20
8.0695479113
 10
-1.7686420399
 20
8.0755061635
 10
-1.7728525802
 20
8.0806031459
 10
-1.777005008
 20
8.0858043782
 10
-1.781084976
 20
8.0910923391
 10
-1.785081769
 20
8.0964544602
 10
-1.7889991987
 20
8.1018979846
 10
-1.7928447086
 20
8.1074351086
 10
-1.7966233137
 20
8.1130748159
 10
-1.8003303138
 20
8.1188132398
 10
-1.8039585802
 20
8.1246433014
 10
-1.8075009841
 20
8.1305579214
 10
-1.8109503969
 20
8.1365500207
 10
-1.8142996896
 20
8.1426125202
 10
-1.817542557
 20
8.1487378911
 10
-1.8206759869
 20
8.1549168054
 10
-1.8236977906
 20
8.1611394853
 10
-1.8266057794
 20
8.1673961531
 10
-1.8293977645
 20
8.1736770312
 10
-1.8320715572
 20
8.1799723418
 10
-1.8346263325
 20
8.1862760921
 10
-1.837066721
 20
8.1925974289
 10
-1.839398717
 20
8.1989492838
 10
-1.8416261134
 20
8.2053387125
 10
-1.8437438975
 20
8.2117492668
 10
-1.8457448554
 20
8.2181586225
 10
-1.8479837808
 20
8.2258213652
 10
-1.8500444868
 20
8.2334388416
 10
-1.8519273722
 20
8.2409996582
 10
-1.8536328356
 20
8.2484924214
 10
-1.8551612758
 20
8.2559057377
 10
-1.8565133806
 20
8.2632298069
 10
-1.8576909951
 20
8.2704612018
 10
-1.8586962532
 20
8.2775980881
 10
-1.8595312891
 20
8.284638632
 10
-1.8601982369
 20
8.2915809993
 10
-1.8606982844
 20
8.2984261541
 10
-1.8610288334
 20
8.3051862525
 10
-1.8611863395
 20
8.3118762488
 10
-1.861167258
 20
8.3185110972
 10
-1.8609680445
 20
8.325105752
  0
LWPOLYLINE
  5
2FB
100
AcDbEntity
  8
0
100
AcDbPolyline
 62
253
  6
CONTINUOUS
 90
51
 70
0
 10
-2.8827204651
 20
8.2195676019
 10
-2.9001711971
 20
8.2299853969
 10
-2.9175469583
 20
8.2410416175
 10
-2.9348949822
 20
8.2527602222
 10
-2.9522625026
 20
8.2651651699
 10
-2.9696889961
 20
8.2782797602
 10
-2.9871829108
 20
8.2921246578
 10
-3.0047449376
 20
8.3067198687
 10
-3.0223757678
 20
8.3220853989
 10
-3.0400660243
 20
8.3382311928
 10
-3.0577660591
 20
8.3551269493
 10
-3.0754161563
 20
8.3727323061
 10
-3.0929566
 20
8.3910069007
 10
-3.1103330029
 20
8.409913928
 10
-3.1275122922
 20
8.4294308126
 10
-3.1444667237
 20
8.4495385362
 10
-3.1611685533
 20
8.4702180809
 10
-3.1757795689
 20
8.4890635396
 10
-3.1901461973
 20
8.5083262344
 10
-3.2042455596
 20
8.5279866189
 10
-3.2180547767
 20
8.5480251464
 10
-3.2315509695
 20
8.5684222707
 10
-3.2447112591
 20
8.5891584452
 10
-3.2575127663
 20
8.6102141234
 10
-3.2699326122
 20
8.631569759
 10
-3.2819479176
 20
8.6532058054
 10
-3.2935384726
 20
8.6751002776
 10
-3.3046947432
 20
8.6972214366
 10
-3.3154098647
 20
8.7195351045
 10
-3.325676972
 20
8.7420071038
 10
-3.3354892003
 20
8.7646032568
 10
-3.3448396848
 20
8.7872893858
 10
-3.3537215605
 20
8.8100313131
 10
-3.3621279626
 20
8.832794861
 10
-3.3700520262
 20
8.8555458518
 10
-3.3783833387
 20
8.8810861193
 10
-3.3860967311
 20
8.9065363799
 10
-3.3931934316
 20
8.9318657756
 10
-3.399674668
 20
8.9570434483
 10
-3.40554109
 20
8.9820311175
 10
-3.410791034
 20
9.0067608134
 10
-3.4154222578
 20
9.031157144
 10
-3.4194325193
 20
9.0551447171
 10
-3.4228228159
 20
9.0786627894
 10
-3.425607102
 20
9.1017092115
 10
-3.4278025712
 20
9.1242964826
 10
-3.4294264172
 20
9.1464371019
 10
-3.4304922122
 20
9.1681505297
 10
-3.4309990408
 20
9.1894840698
 10
-3.4309423664
 20
9.2104919872
 10
-3.430317652
 20
9.2312285468
  0
LWPOLYLINE
  5
2FC
100
AcDbEntity
  8
0
100
AcDbPolyline
 62
253
  6
CONTINUOUS
 90
55
 70
0
 10
-4.0209922691
 20
9.7925958454
 10
-4.0155175656
 20
9.7893271734
 10
-4.0101022503
 20
9.7858796328
 10
-4.0047323432
 20
9.7822483538
 10
-3.999393864
 20
9.7784284668
 10
-3.9940728327
 20
9.7744151021
 10
-3.9887580382
 20
9.7702040423
 10
-3.9834493462
 20
9.7657936791
 10
-3.9781493914
 20
9.7611830565
 10
-3.9728608085
 20
9.7563712184
 10
-3.9675862323
 20
9.7513572088
 10
-3.9623294252
 20
9.7461411397
 10
-3.9570986608
 20
9.7407273952
 10
-3.9519033405
 20
9.7351214276
 10
-3.9467528656
 20
9.7293286889
 10
-3.9416566374
 20
9.7233546313
 10
-3.9374594744
 20
9.7182440904
 10
-3.9333207891
 20
9.7130290616
 10
-3.9292548589
 20
9.7077271865
 10
-3.9252723419
 20
9.702351145
 10
-3.9213694175
 20
9.6968937694
 10
-3.9175386453
 20
9.6913429303
 10
-3.913774999
 20
9.6856897043
 10
-3.9100831071
 20
9.6799379933
 10
-3.9064700116
 20
9.6740949057
 10
-3.9029427547
 20
9.6681675496
 10
-3.8995083788
 20
9.6621630331
 10
-3.8961739258
 20
9.6560884646
 10
-3.8929456236
 20
9.6499513919
 10
-3.8898264422
 20
9.6437611213
 10
-3.886818537
 20
9.6375273991
 10
-3.8839240635
 20
9.6312599713
 10
-3.8811451774
 20
9.6249685839
 10
-3.878484034
 20
9.6186629831
 10
-3.8759414357
 20
9.6123491384
 10
-3.8735127721
 20
9.6060179129
 10
-3.8711920793
 20
9.5996563932
 10
-3.8689755848
 20
9.5932575515
 10
-3.8668682804
 20
9.5868379018
 10
-3.8648773489
 20
9.5804198438
 10
-3.8626498189
 20
9.5727472672
 10
-3.8605997932
 20
9.5651206638
 10
-3.8587268559
 20
9.5575514592
 10
-3.857030591
 20
9.5500510789
 10
-3.8555105825
 20
9.5426309487
 10
-3.854166128
 20
9.5353008834
 10
-3.8529953798
 20
9.5280642549
 10
-3.8519962035
 20
9.5209228243
 10
-3.8511664648
 20
9.5138783528
 10
-3.8505040296
 20
9.5069326017
 10
-3.850007707
 20
9.5000845653
 10
-3.8496800801
 20
9.4933221702
 10
-3.8495246754
 20
9.4866305765
 10
-3.8495450195
 20
9.4799949439
 10
-3.8497446389
 20
9.4734004324
  0
LWPOLYLINE
  5
2FD
100
AcDbEntity
  8
0
100
AcDbPolyline
 62
253
  6
CONTINUOUS
 90
55
 70
0
 10
-0.9125265824
 20
7.9978067161
 10
-0.9070631768
 20
7.9945443427
 10
-0.9016589887
 20
7.9911025743
 10
-0.8963000968
 20
7.9874766077
 10
-0.8909725799
 20
7.9836616394
 10
-0.8856625166
 20
7.9796528663
 10
-0.8803587412
 20
7.9754461295
 10
-0.8750611095
 20
7.9710398487
 10
-0.8697722331
 20
7.9664330877
 10
-0.8644947234
 20
7.9616249107
 10
-0.8592311918
 20
7.9566143817
 10
-0.853985377
 20
7.9514016347
 10
-0.8487655262
 20
7.9459910833
 10
-0.8435810138
 20
7.9403882111
 10
-0.8384412143
 20
7.9345985017
 10
-0.8333555022
 20
7.9286274387
 10
-0.8291669583
 20
7.9235193883
 10
-0.8250367277
 20
7.9183068591
 10
-0.820979053
 20
7.9130075042
 10
-0.817004568
 20
7.9076340219
 10
-0.8131094701
 20
7.9021792909
 10
-0.8092863478
 20
7.8966312349
 10
-0.8055301935
 20
7.8909809752
 10
-0.8018456139
 20
7.885232423
 10
-0.7982396197
 20
7.8793926873
 10
-0.7947192214
 20
7.8734688769
 10
-0.7912914296
 20
7.8674681005
 10
-0.7879632547
 20
7.8613974671
 10
-0.7847408978
 20
7.8552645152
 10
-0.7816273215
 20
7.8490785024
 10
-0.7786246785
 20
7.8428491159
 10
-0.775735122
 20
7.8365860432
 10
-0.7729608048
 20
7.8302989715
 10
-0.7703038799
 20
7.8239975882
 10
-0.7677651549
 20
7.8176878191
 10
-0.7653400566
 20
7.8113605442
 10
-0.7630226663
 20
7.8050028823
 10
-0.7608092499
 20
7.7986078301
 10
-0.7587048109
 20
7.7921918974
 10
-0.7567165376
 20
7.7857774719
 10
-0.7544919316
 20
7.7781091273
 10
-0.7524445526
 20
7.7704866037
 10
-0.7505739982
 20
7.7629213133
 10
-0.7488798661
 20
7.7554246682
 10
-0.7473617539
 20
7.7480080805
 10
-0.7460189726
 20
7.740681349
 10
-0.744849686
 20
7.7334478192
 10
-0.7438517712
 20
7.726309223
 10
-0.7430231054
 20
7.7192672928
 10
-0.7423615656
 20
7.7123237604
 10
-0.74186597
 20
7.7054776088
 10
-0.7415389012
 20
7.6987168238
 10
-0.7413838829
 20
7.6920266421
 10
-0.7414044389
 20
7.6853923004
 10
-0.7416040927
 20
7.6787990352
  0
LWPOLYLINE
  5
2FE
100
AcDbEntity
  8
0
100
AcDbPolyline
 62
253
  6
CONTINUOUS
 90
51
 70
0
 10
-2.8225808465
 20
9.5818047749
 10
-2.8051664963
 20
9.5714024198
 10
-2.7878351258
 20
9.5603551072
 10
-2.7705396059
 20
9.5486389045
 10
-2.7532328073
 20
9.5362298791
 10
-2.7358752998
 20
9.5231046644
 10
-2.7184584498
 20
9.5092421591
 10
-2.7009813229
 20
9.4946218278
 10
-2.6834429845
 20
9.4792231355
 10
-2.6658526125
 20
9.4630357869
 10
-2.6482598337
 20
9.4460904475
 10
-2.6307243873
 20
9.4284280226
 10
-2.6133060126
 20
9.410089418
 10
-2.5960590753
 20
9.3911120218
 10
-2.5790164483
 20
9.3715191532
 10
-2.5622056308
 20
9.3513306145
 10
-2.5456541223
 20
9.3305662075
 10
-2.5311820794
 20
9.3116424929
 10
-2.5169588856
 20
9.2922991611
 10
-2.5030067762
 20
9.2725559559
 10
-2.4893479865
 20
9.252432621
 10
-2.4760047515
 20
9.2319489
 10
-2.4629993066
 20
9.2111245368
 10
-2.450353887
 20
9.1899792749
 10
-2.4380907278
 20
9.1685328583
 10
-2.4262320644
 20
9.1468050306
 10
-2.4147974798
 20
9.1248180135
 10
-2.4037959489
 20
9.1026039412
 10
-2.3932337943
 20
9.0801974259
 10
-2.3831173386
 20
9.0576330797
 10
-2.3734529046
 20
9.0349455147
 10
-2.364246815
 20
9.0121693432
 10
-2.3555053924
 20
8.9893391774
 10
-2.3472349595
 20
8.9664896293
 10
-2.3394418391
 20
8.9436553111
 10
-2.3312512172
 20
8.9180250021
 10
-2.323671071
 20
8.8924890453
 10
-2.3166997753
 20
8.8670787112
 10
-2.3103357052
 20
8.8418252707
 10
-2.3045778276
 20
8.8167674589
 10
-2.2994274785
 20
8.7919738694
 10
-2.294886586
 20
8.7675205604
 10
-2.2909570782
 20
8.7434835899
 10
-2.2876377149
 20
8.7199241719
 10
-2.2849145835
 20
8.6968441441
 10
-2.2827706033
 20
8.6742305004
 10
-2.2811886935
 20
8.6520702342
 10
-2.2801553796
 20
8.6303434784
 10
-2.2796716117
 20
8.6090029228
 10
-2.2797419463
 20
8.5879943961
 10
-2.2803709398
 20
8.5672637274
  0
LWPOLYLINE
  5
2FF
100
AcDbEntity
  8
ASSI
100
AcDbPolyline
 62
253
  6
CONTINUOUS
 90
55
 70
0
 10
6.1973114595
 20
12.5675505314
 10
6.1966118952
 20
12.5791838446
 10
6.1956250726
 20
12.5909855656
 10
6.1943518247
 20
12.6029457324
 10
6.1927932264
 20
12.6150542489
 10
6.1909505932
 20
12.6273008939
 10
6.1888254807
 20
12.6396753297
 10
6.1864196826
 20
12.6521671105
 10
6.1837352299
 20
12.6647656916
 10
6.1807743885
 20
12.6774604382
 10
6.1775396578
 20
12.6902406341
 10
6.1740337683
 20
12.7030954912
 10
6.1702596795
 20
12.7160141583
 10
6.1662205771
 20
12.7289857303
 10
6.1619198709
 20
12.7419992575
 10
6.157361191
 20
12.7550437547
 10
6.1525483857
 20
12.7681082105
 10
6.1474855175
 20
12.781181597
 10
6.1421768603
 20
12.7942528783
 10
6.1366268953
 20
12.8073110206
 10
6.1308403072
 20
12.820345001
 10
6.1248219809
 20
12.8333438172
 10
6.1185769966
 20
12.8462964964
 10
6.1121106258
 20
12.8591921049
 10
6.1054283271
 20
12.8720197569
 10
6.0985357412
 20
12.8847686243
 10
6.0914386864
 20
12.8974279453
 10
6.0841431535
 20
12.9099870337
 10
6.0766553009
 20
12.922435288
 10
6.0689814494
 20
12.9347622003
 10
6.0611280768
 20
12.9469573649
 10
6.0531018122
 20
12.9590104875
 10
6.0449094311
 20
12.9709113937
 10
6.0365578487
 20
12.9826500375
 10
6.0280541151
 20
12.9942165099
 10
6.0194054084
 20
13.0056010473
 10
6.0106190293
 20
13.0167940396
 10
6.0017023947
 20
13.0277860384
 10
5.9926630315
 20
13.0385677651
 10
5.98350857
 20
13.0491301183
 10
5.9742467378
 20
13.0594641822
 10
5.9648853533
 20
13.0695612332
 10
5.9554323186
 20
13.0794127482
 10
5.9458956133
 20
13.0890104112
 10
5.9362832877
 20
13.0983461205
 10
5.9266034559
 20
13.1074119954
 10
5.916864289
 20
13.1162003832
 10
5.9070740081
 20
13.1247038653
 10
5.8972408775
 20
13.1329152637
 10
5.8873731977
 20
13.1408276467
 10
5.8774792984
 20
13.1484343354
 10
5.8675675312
 20
13.1557289086
 10
5.8576462632
 20
13.1627052087
 10
5.847723869
 20
13.1693573469
 10
5.8378087247
 20
13.1756797078
  0
LWPOLYLINE
  5
300
100
AcDbEntity
  8
ASSI
100
AcDbPolyline
 62
253
  6
CONTINUOUS
 90
30
 70
0
 10
6.1973114595
 20
-22.6347761092
 10
6.1966118952
 20
-22.6468295327
 10
6.1956250725
 20
-22.6586945535
 10
6.1943518246
 20
-22.6703611559
 10
6.1927932263
 20
-22.6818194918
 10
6.190950593
 20
-22.6930598888
 10
6.1888254804
 20
-22.7040728585
 10
6.1864196823
 20
-22.7148491045
 10
6.1837352295
 20
-22.7253795302
 10
6.180774388
 20
-22.7356552466
 10
6.1775396572
 20
-22.7456675794
 10
6.1740337676
 20
-22.7554080771
 10
6.1702596787
 20
-22.7648685173
 10
6.1662205763
 20
-22.7740409142
 10
6.1619198699
 20
-22.782917525
 10
6.1573611899
 20
-22.7914908566
 10
6.1525483845
 20
-22.7997536721
 10
6.1474855163
 20
-22.8076989965
 10
6.142176859
 20
-22.8153201229
 10
6.1366268938
 20
-22.8226106181
 10
6.1308403057
 20
-22.8295643279
 10
6.1248219793
 20
-22.8361753824
 10
6.1185769949
 20
-22.8424382011
 10
6.1121106241
 20
-22.8483474972
 10
6.1054283253
 20
-22.8538982826
 10
6.0985357393
 20
-22.8590858717
 10
6.0914386845
 20
-22.8639058853
 10
6.0841431515
 20
-22.8683542549
 10
6.0766552989
 20
-22.8724272253
 10
6.0726598801
 20
-22.8744090148
  0
LINE
  5
301
100
AcDbEntity
  8
ASSI
100
AcDbLine
 62
253
  6
CONTINUOUS
 10
8.7098543016
 20
-3.5651408333
 11
4.8966301175
 21
-5.6553944038
  0
LINE
  5
302
100
AcDbEntity
  8
ASSI
100
AcDbLine
 62
253
  6
CONTINUOUS
 10
8.8866848796
 20
-3.8713037678
 11
5.0686737582
 21
-5.9641813416
  0
LWPOLYLINE
  5
303
100
AcDbEntity
  8
ASSI
100
AcDbPolyline
 62
253
  6
CONTINUOUS
 90
55
 70
0
 10
4.8966301175
 20
-5.6553944038
 10
4.8913550886
 20
-5.6582049652
 10
4.8859550542
 20
-5.6609236679
 10
4.8804300145
 20
-5.6635505117
 10
4.8747752227
 20
-5.666087515
 10
4.8689954254
 20
-5.6685326595
 10
4.8631048626
 20
-5.6708798904
 10
4.8571033333
 20
-5.6731289319
 10
4.8509910384
 20
-5.6752800599
 10
4.8447828205
 20
-5.677328047
 10
4.83847846
 20
-5.679272637
 10
4.8320781765
 20
-5.6811140862
 10
4.8255974711
 20
-5.6828479362
 10
4.8190361476
 20
-5.6844739272
 10
4.8123944023
 20
-5.685992319
 10
4.8056883254
 20
-5.687399432
 10
4.7989177551
 20
-5.6886949973
 10
4.7920828533
 20
-5.6898792837
 10
4.7852001953
 20
-5.690949419
 10
4.7782696684
 20
-5.6919051253
 10
4.7712913854
 20
-5.6927466805
 10
4.7642822593
 20
-5.6934720452
 10
4.757242217
 20
-5.6940809377
 10
4.7501713316
 20
-5.6945736397
 10
4.7430867352
 20
-5.6949489577
 10
4.7359883922
 20
-5.695206607
 10
4.7288763381
 20
-5.6953468723
 10
4.721767812
 20
-5.6953694134
 10
4.7146628218
 20
-5.6952739446
 10
4.7075613595
 20
-5.6950607517
 10
4.7004806406
 20
-5.6947303518
 10
4.6934207184
 20
-5.694282461
 10
4.6863815396
 20
-5.6937173633
 10
4.6793801593
 20
-5.6930364283
 10
4.6724166676
 20
-5.6922393751
 10
4.6654909745
 20
-5.6913264845
 10
4.6586198651
 20
-5.6902999693
 10
4.6518034687
 20
-5.689159553
 10
4.645041656
 20
-5.687905512
 10
4.6383508243
 20
-5.6865408882
 10
4.6317311515
 20
-5.6850654145
 10
4.6251824596
 20
-5.6834793581
 10
4.6187206125
 20
-5.6817865625
 10
4.6123458219
 20
-5.6799867703
 10
4.6060578761
 20
-5.6780802389
 10
4.5998720033
 20
-5.6760715847
 10
4.5937884384
 20
-5.6739605538
 10
4.5878069467
 20
-5.6717474
 10
4.5819420521
 20
-5.6694375011
 10
4.5761939765
 20
-5.6670305859
 10
4.5705624981
 20
-5.6645269256
 10
4.5650614749
 20
-5.6619327115
 10
4.5596955264
 20
-5.6592500073
 10
4.5544600332
 20
-5.6564767492
 10
4.5493549953
 20
-5.6536129373
  0
LINE
  5
304
100
AcDbEntity
  8
ASSI
100
AcDbLine
 62
253
  6
CONTINUOUS
 10
5.0686737582
 20
-5.3184121548
 11
8.8866848796
 21
-3.2998833626
  0
LINE
  5
305
100
AcDbEntity
  8
ASSI
100
AcDbLine
 62
7
  6
CONTINUOUS
 10
5.015019378
 20
-5.4338575593
 11
8.8322168238
 21
-3.4157589459
  0
LWPOLYLINE
  5
306
100
AcDbEntity
  8
ASSI
100
AcDbPolyline
 62
253
  6
CONTINUOUS
 90
55
 70
0
 10
5.0686737582
 20
-5.9641813478
 10
5.0581366055
 20
-5.96975044
 10
5.0473321359
 20
-5.9751441129
 10
5.0362690893
 20
-5.9803580408
 10
5.0249564369
 20
-5.9853880694
 10
5.0134033083
 20
-5.990230141
 10
5.0016189799
 20
-5.9948802933
 10
4.9896129237
 20
-5.9993348185
 10
4.9773949025
 20
-6.0035901235
 10
4.9649748985
 20
-6.0076426568
 10
4.9523630053
 20
-6.0114891626
 10
4.9395693826
 20
-6.0151265823
 10
4.9266043486
 20
-6.0185519135
 10
4.9134783833
 20
-6.0217624209
 10
4.9002021121
 20
-6.0247555405
 10
4.8867862646
 20
-6.0275287849
 10
4.8732416827
 20
-6.0300799438
 10
4.8595793329
 20
-6.0324069853
 10
4.8458102879
 20
-6.0345079583
 10
4.831945693
 20
-6.0363811932
 10
4.8179967572
 20
-6.0380252091
 10
4.8039747656
 20
-6.0394386147
 10
4.7898910649
 20
-6.0406202953
 10
4.7757570443
 20
-6.0415693273
 10
4.7615841277
 20
-6.0422848859
 10
4.7473837757
 20
-6.0427664187
 10
4.7331674797
 20
-6.0430135654
 10
4.7189467431
 20
-6.0430260725
 10
4.7047330693
 20
-6.0428039539
 10
4.6905379563
 20
-6.0423474169
 10
4.67637289
 20
-6.0416567822
 10
4.6622493332
 20
-6.0407326303
 10
4.6481787064
 20
-6.0395757343
 10
4.6341723818
 20
-6.0381869852
 10
4.620241686
 20
-6.0365675243
 10
4.6063978916
 20
-6.0347186847
 10
4.592652198
 20
-6.0326419232
 10
4.5790157181
 20
-6.0303389341
 10
4.5654994893
 20
-6.0278116016
 10
4.5521144651
 20
-6.0250619408
 10
4.5388714825
 20
-6.0220921922
 10
4.5257812431
 20
-6.0189047745
 10
4.5128543245
 20
-6.0155022362
 10
4.5001011901
 20
-6.0118873419
 10
4.4875321488
 20
-6.0080630291
 10
4.4751573377
 20
-6.0040323599
 10
4.4629867266
 20
-5.9997985855
 10
4.4510302049
 20
-5.9953651549
 10
4.439297537
 20
-5.9907356748
 10
4.4277982614
 20
-5.9859139191
 10
4.4165416218
 20
-5.9809037798
 10
4.4055366571
 20
-5.9757092737
 10
4.3947922485
 20
-5.970334591
 10
4.3843171084
 20
-5.9647840964
 10
4.37411971
 20
-5.959062281
  0
LWPOLYLINE
  5
307
100
AcDbEntity
  8
0
100
AcDbPolyline
 62
253
  6
CONTINUOUS
 90
55
 70
0
 10
-2.795444247
 20
10.0817710702
 10
-2.7899716149
 20
10.0787191914
 10
-2.7845365454
 20
10.0759028338
 10
-2.7791252766
 20
10.0733109499
 10
-2.773724047
 20
10.0709324924
 10
-2.7683190948
 20
10.068756414
 10
-2.7628993587
 20
10.0667741801
 10
-2.757464579
 20
10.0649873087
 10
-2.7520171963
 20
10.0633998305
 10
-2.7465596511
 20
10.0620157763
 10
-2.7410943841
 20
10.0608391769
 10
-2.7356249951
 20
10.0598743211
 10
-2.7301597213
 20
10.0591265296
 10
-2.7247079589
 20
10.0586013808
 10
-2.7192791045
 20
10.0583044536
 10
-2.7138825543
 20
10.0582413264
 10
-2.7094185075
 20
10.0583707113
 10
-2.7049985916
 20
10.0586657732
 10
-2.7006379791
 20
10.0591259542
 10
-2.6963479374
 20
10.0597513452
 10
-2.6921241165
 20
10.0605446341
 10
-2.6879582613
 20
10.0615091583
 10
-2.6838447371
 20
10.0626479164
 10
-2.6797883883
 20
10.0639625533
 10
-2.6757966797
 20
10.0654543757
 10
-2.6718770755
 20
10.0671246899
 10
-2.6680370404
 20
10.0689748026
 10
-2.6642840389
 20
10.0710060203
 10
-2.660624792
 20
10.0732182796
 10
-2.6570630472
 20
10.0756060374
 10
-2.6536018083
 20
10.0781623809
 10
-2.6502440793
 20
10.0808803969
 10
-2.6469928641
 20
10.0837531727
 10
-2.6438511667
 20
10.0867737951
 10
-2.6408203276
 20
10.0899374438
 10
-2.637895034
 20
10.0932476682
 10
-2.6350683095
 20
10.0967101102
 10
-2.6323358432
 20
10.1003272494
 10
-2.6297039848
 20
10.1040889168
 10
-2.6271817492
 20
10.107981781
 10
-2.6243099882
 20
10.1128095608
 10
-2.6216098034
 20
10.1177956328
 10
-2.6190819324
 20
10.1229285629
 10
-2.616727113
 20
10.1281969171
 10
-2.614546083
 20
10.1335892614
 10
-2.6125391525
 20
10.1390953731
 10
-2.610704922
 20
10.1447098744
 10
-2.6090415644
 20
10.1504285988
 10
-2.6075472524
 20
10.1562473799
 10
-2.606220159
 20
10.1621620511
 10
-2.6050590673
 20
10.1681722034
 10
-2.6040652012
 20
10.1742924569
 10
-2.6032403947
 20
10.1805411893
 10
-2.6025864819
 20
10.1869367782
 10
-2.6021052969
 20
10.1934976013
  0
LWPOLYLINE
  5
308
100
AcDbEntity
  8
0
100
AcDbPolyline
 62
253
  6
CONTINUOUS
 90
36
 70
0
 10
-3.649056232
 20
10.1509504771
 10
-3.6531215983
 20
10.1533620553
 10
-3.6571650122
 20
10.1558878617
 10
-3.6611875318
 20
10.1585260022
 10
-3.6651902151
 20
10.1612745826
 10
-3.6691741203
 20
10.1641317088
 10
-3.6731403053
 20
10.1670954867
 10
-3.6770898282
 20
10.1701640222
 10
-3.6810231254
 20
10.173335161
 10
-3.6849381465
 20
10.1766057091
 10
-3.6888322194
 20
10.1799722124
 10
-3.6927026718
 20
10.1834312166
 10
-3.6965468318
 20
10.1869792677
 10
-3.7003620272
 20
10.1906129116
 10
-3.7041455859
 20
10.194328694
 10
-3.7078951207
 20
10.1981235189
 10
-3.7116093839
 20
10.2019957218
 10
-3.7152874129
 20
10.2059439962
 10
-3.718928245
 20
10.2099670358
 10
-3.7225309174
 20
10.214063534
 10
-3.7260944675
 20
10.2182321843
 10
-3.7296179325
 20
10.2224716804
 10
-3.7331001652
 20
10.2267806758
 10
-3.7365392799
 20
10.2311576648
 10
-3.7399332065
 20
10.2356011015
 10
-3.7432798747
 20
10.2401094401
 10
-3.7465772144
 20
10.2446811349
 10
-3.7498231554
 20
10.2493146402
 10
-3.7530156275
 20
10.2540084101
 10
-3.7561526692
 20
10.2587614468
 10
-3.7592327539
 20
10.2635749433
 10
-3.7622544636
 20
10.2684506408
 10
-3.7652163805
 20
10.2733902803
 10
-3.7681170866
 20
10.2783956027
 10
-3.7709551641
 20
10.2834683491
 10
-3.773729195
 20
10.2886102605
  0
LWPOLYLINE
  5
309
100
AcDbEntity
  8
0
100
AcDbPolyline
 62
253
  6
CONTINUOUS
 90
36
 70
0
 10
-1.9867609762
 20
9.1911620299
 10
-1.9908222302
 20
9.1935709708
 10
-1.9948617158
 20
9.1960937381
 10
-1.9988804741
 20
9.1987284543
 10
-2.0028795462
 20
9.2014732417
 10
-2.0068599731
 20
9.2043262229
 10
-2.0108227961
 20
9.2072855203
 10
-2.0147690561
 20
9.2103492564
 10
-2.0186991825
 20
9.2135153081
 10
-2.0226111569
 20
9.2167805692
 10
-2.0265023491
 20
9.2201416881
 10
-2.0303701289
 20
9.2235953132
 10
-2.0342118662
 20
9.2271380928
 10
-2.0380249307
 20
9.2307666751
 10
-2.0418066924
 20
9.2344777084
 10
-2.045554786
 20
9.2382681818
 10
-2.0492679069
 20
9.2421364463
 10
-2.0529450157
 20
9.2460811936
 10
-2.0565850729
 20
9.2501011155
 10
-2.0601870389
 20
9.2541949037
 10
-2.0637498741
 20
9.25836125
 10
-2.0672725392
 20
9.262598846
 10
-2.0707538155
 20
9.2669063479
 10
-2.0741917681
 20
9.2712822692
 10
-2.0775842831
 20
9.2757250875
 10
-2.0809292466
 20
9.2802332807
 10
-2.0842245447
 20
9.2848053266
 10
-2.0874680634
 20
9.2894397031
 10
-2.0906576888
 20
9.2941348878
 10
-2.093791411
 20
9.2988899075
 10
-2.096867636
 20
9.3037059841
 10
-2.0998848741
 20
9.3085848885
 10
-2.1028416353
 20
9.3135283916
 10
-2.1057364297
 20
9.3185382641
 10
-2.1085677674
 20
9.323616277
 10
-2.1113341585
 20
9.3287642011
  0
LINE
  5
30A
100
AcDbEntity
  8
ASSI
100
AcDbLine
 62
7
  6
CONTINUOUS
 10
8.3353890188
 20
13.8437561899
 11
8.8866848796
 21
7.1101670608
  0
LINE
  5
30B
100
AcDbEntity
  8
ASSI
100
AcDbLine
 62
7
  6
CONTINUOUS
 10
8.8866848796
 20
-3.8713037678
 11
8.8866848796
 21
-14.2813541912
  0
LINE
  5
30C
100
AcDbEntity
  8
ASSI
100
AcDbLine
 62
7
  6
CONTINUOUS
 10
8.8866848796
 20
-3.2998833626
 11
8.8866848796
 21
7.1101670608
  0
LINE
  5
30D
100
AcDbEntity
  8
ASSI
100
AcDbLine
 62
7
  6
CONTINUOUS
 10
8.3353890188
 20
-21.6086035375
 11
8.8866848796
 21
-14.2813541912
  0
LWPOLYLINE
  5
30E
100
AcDbEntity
  8
0
100
AcDbPolyline
 62
253
  6
CONTINUOUS
 90
55
 70
0
 10
-2.7093950599
 20
11.4237993265
 10
-2.7148758501
 20
11.4268540627
 10
-2.7203219246
 20
11.4296712606
 10
-2.7257470096
 20
11.432262015
 10
-2.7311648313
 20
11.4346374203
 10
-2.7365891157
 20
11.4368085713
 10
-2.7420308987
 20
11.4387840392
 10
-2.7474904547
 20
11.4405623017
 10
-2.7529653678
 20
11.442139313
 10
-2.758453222
 20
11.4435110276
 10
-2.7639516015
 20
11.4446733996
 10
-2.7694569164
 20
11.4456221288
 10
-2.7749608821
 20
11.4463518955
 10
-2.7804540397
 20
11.4468571258
 10
-2.7859269308
 20
11.4471322453
 10
-2.7913700966
 20
11.44717168
 10
-2.7958748889
 20
11.447021131
 10
-2.8003371052
 20
11.446703699
 10
-2.8047413806
 20
11.4462200418
 10
-2.8090763011
 20
11.4455701446
 10
-2.8133462552
 20
11.4447513002
 10
-2.8175595824
 20
11.4437601284
 10
-2.8217219806
 20
11.442593606
 10
-2.8258285817
 20
11.4412501364
 10
-2.829871876
 20
11.4397284801
 10
-2.833844354
 20
11.4380273974
 10
-2.8377385058
 20
11.4361456485
 10
-2.8415468218
 20
11.4340819939
 10
-2.8452625228
 20
11.4318365714
 10
-2.8488817503
 20
11.4294150291
 10
-2.8524013764
 20
11.4268243927
 10
-2.855818273
 20
11.424071688
 10
-2.8591293121
 20
11.4211639406
 10
-2.8623313658
 20
11.4181081762
 10
-2.8654230058
 20
11.4149092992
 10
-2.8684096037
 20
11.4115637282
 10
-2.8712982306
 20
11.4080657609
 10
-2.8740932379
 20
11.4044128887
 10
-2.8767880965
 20
11.4006153801
 10
-2.8793735576
 20
11.3966866979
 10
-2.8823211988
 20
11.3918161249
 10
-2.8850970993
 20
11.3867875484
 10
-2.8877003697
 20
11.3816124686
 10
-2.8901301204
 20
11.3763023858
 10
-2.892385462
 20
11.3708688004
 10
-2.8944659511
 20
11.3653219899
 10
-2.8963729295
 20
11.3596673406
 10
-2.8981081851
 20
11.3539090162
 10
-2.8996735059
 20
11.3480511802
 10
-2.9010706799
 20
11.3420979963
 10
-2.9023009162
 20
11.3360498618
 10
-2.9033631086
 20
11.329892108
 10
-2.9042555723
 20
11.3236063003
 10
-2.9049766221
 20
11.3171740037
 10
-2.9055245732
 20
11.3105767835
  0
LINE
  5
30F
100
AcDbEntity
  8
ASSI
100
AcDbLine
 62
253
  6
CONTINUOUS
 10
5.1640488812
 20
12.1063808243
 11
-9.6931397244
 21
20.6847353209
  0
LWPOLYLINE
  5
310
100
AcDbEntity
  8
ASSI
100
AcDbPolyline
 62
253
  6
CONTINUOUS
 90
55
 70
0
 10
5.1345426084
 20
-13.3545426376
 10
5.1240071984
 20
-13.3602762012
 10
5.1132044688
 20
-13.3658343332
 10
5.1021431583
 20
-13.3712125375
 10
5.0908322145
 20
-13.3764064635
 10
5.0792807872
 20
-13.3814119097
 10
5.0674982206
 20
-13.3862248271
 10
5.0554940458
 20
-13.3908413225
 10
5.0432779732
 20
-13.3952576614
 10
5.0308598849
 20
-13.3994702714
 10
5.0182498259
 20
-13.4034757448
 10
5.0054579969
 20
-13.4072708415
 10
4.9924947455
 20
-13.4108524916
 10
4.9793705578
 20
-13.4142177977
 10
4.9660960505
 20
-13.4173640376
 10
4.9526819615
 20
-13.4202886662
 10
4.9391391418
 20
-13.4229893178
 10
4.9254785464
 20
-13.4254638077
 10
4.9117112258
 20
-13.4277101342
 10
4.8978483166
 20
-13.4297264803
 10
4.8839010328
 20
-13.4315112149
 10
4.8698806568
 20
-13.4330628942
 10
4.8557985298
 20
-13.4343802631
 10
4.8416660434
 20
-13.435462256
 10
4.8274946294
 20
-13.4363079975
 10
4.8132957516
 20
-13.4369168036
 10
4.7990808957
 20
-13.4372881817
 10
4.7848615604
 20
-13.4374218315
 10
4.770649248
 20
-13.4373176448
 10
4.7564554553
 20
-13.4369757059
 10
4.7422916638
 20
-13.4363962915
 10
4.7281693311
 20
-13.4355798701
 10
4.7140998809
 20
-13.4345271023
 10
4.7000946944
 20
-13.4332388397
 10
4.6861651007
 20
-13.4317161243
 10
4.6723223677
 20
-13.4299601879
 10
4.6585776931
 20
-13.427972451
 10
4.6449421953
 20
-13.4257545213
 10
4.6314269044
 20
-13.4233081932
 10
4.6180427532
 20
-13.4206354455
 10
4.6048005683
 20
-13.4177384402
 10
4.5917110619
 20
-13.4146195207
 10
4.5787848221
 20
-13.4112812101
 10
4.5660323054
 20
-13.4077262087
 10
4.5534638275
 20
-13.4039573924
 10
4.5410895553
 20
-13.3999778097
 10
4.5289194988
 20
-13.3957906798
 10
4.5169635025
 20
-13.3913993899
 10
4.5052312378
 20
-13.3868074921
 10
4.4937321954
 20
-13.3820187009
 10
4.4824756769
 20
-13.37703689
 10
4.4714707881
 20
-13.3718660895
 10
4.4607264311
 20
-13.3665104819
 10
4.4502512972
 20
-13.3609743997
 10
4.44005386
 20
-13.3552623211
  0
LINE
  5
311
100
AcDbEntity
  8
ASSI
100
AcDbLine
 62
7
  6
CONTINUOUS
 10
5.9586166064
 20
15.5867209752
 11
5.2859097856
 21
15.4568384915
  0
LINE
  5
312
100
AcDbEntity
  8
ASSI
100
AcDbLine
 62
253
  6
CONTINUOUS
 10
5.8378087247
 20
13.1756797078
 11
-9.0425043313
 21
21.7673859722
  0
LINE
  5
313
100
AcDbEntity
  8
ASSI
100
AcDbLine
 62
7
  6
CONTINUOUS
 10
5.0927246203
 20
15.4824473266
 11
2.7104395242
 21
16.8579488841
  0
LINE
  5
314
100
AcDbEntity
  8
ASSI
100
AcDbLine
 62
7
  6
CONTINUOUS
 10
-2.826871329
 20
20.0551227719
 11
-5.2091564251
 21
21.4306243293
  0
LINE
  5
315
100
AcDbEntity
  8
ASSI
100
AcDbLine
 62
7
  6
CONTINUOUS
 10
-7.0724672387
 20
23.1107054696
 11
-5.0806689847
 21
21.9606661208
  0
LINE
  5
316
100
AcDbEntity
  8
ASSI
100
AcDbLine
 62
7
  6
CONTINUOUS
 10
-1.9609793429
 20
20.1593964205
 11
2.8389269646
 21
17.3879906755
  0
LINE
  5
317
100
AcDbEntity
  8
ASSI
100
AcDbLine
 62
7
  6
CONTINUOUS
 10
5.9586166064
 20
15.5867209752
 11
7.9504148604
 21
14.4366816265
  0
LINE
  5
318
100
AcDbEntity
  8
ASSI
100
AcDbLine
 62
7
  6
CONTINUOUS
 10
-1.9609793429
 20
20.1593964205
 11
-2.6336861637
 21
20.0295139367
  0
LWPOLYLINE
  5
319
100
AcDbEntity
  8
ASSI
100
AcDbPolyline
 62
253
  6
CONTINUOUS
 90
55
 70
0
 10
5.8546504251
 20
-22.4724574471
 10
5.844226851
 20
-22.4796422569
 10
5.8335357333
 20
-22.4866503729
 10
5.8225857244
 20
-22.4934761231
 10
5.8113856866
 20
-22.5001139833
 10
5.7999446843
 20
-22.5065585813
 10
5.788271977
 20
-22.5128047014
 10
5.7763770119
 20
-22.5188472882
 10
5.7642694157
 20
-22.5246814516
 10
5.7519589876
 20
-22.5303024696
 10
5.7394556906
 20
-22.535705793
 10
5.726769644
 20
-22.5408870489
 10
5.713911115
 20
-22.5458420438
 10
5.7008905103
 20
-22.5505667676
 10
5.6877183679
 20
-22.5550573964
 10
5.6744053482
 20
-22.5593102958
 10
5.660962226
 20
-22.5633220238
 10
5.6473998811
 20
-22.5670893337
 10
5.6337292898
 20
-22.5706091764
 10
5.6199615161
 20
-22.5738787033
 10
5.6061077027
 20
-22.5768952683
 10
5.5921790618
 20
-22.5796564298
 10
5.5781868662
 20
-22.5821599534
 10
5.5641424402
 20
-22.5844038127
 10
5.5500571504
 20
-22.5863861918
 10
5.5359423963
 20
-22.5881054863
 10
5.5218096014
 20
-22.5895603048
 10
5.5076702036
 20
-22.5907494697
 10
5.4935356466
 20
-22.5916720187
 10
5.4794173696
 20
-22.5923272051
 10
5.465326799
 20
-22.5927144987
 10
5.4512753387
 20
-22.592833586
 10
5.4372743608
 20
-22.5926843706
 10
5.4233351969
 20
-22.5922669734
 10
5.4094691281
 20
-22.5915817321
 10
5.3956873768
 20
-22.5906292012
 10
5.3820010967
 20
-22.5894101518
 10
5.3684213647
 20
-22.5879255704
 10
5.3549591711
 20
-22.5861766585
 10
5.3416254112
 20
-22.5841648316
 10
5.3284308765
 20
-22.5818917179
 10
5.3153862456
 20
-22.5793591571
 10
5.3025020758
 20
-22.5765691988
 10
5.2897887948
 20
-22.5735241011
 10
5.2772566916
 20
-22.5702263284
 10
5.2649159089
 20
-22.5666785497
 10
5.2527764344
 20
-22.5628836363
 10
5.2408480929
 20
-22.5588446596
 10
5.2291405382
 20
-22.5545648883
 10
5.2176632457
 20
-22.5500477863
 10
5.2064255043
 20
-22.5452970093
 10
5.1954364088
 20
-22.5403164023
 10
5.1847048532
 20
-22.5351099962
 10
5.1742395227
 20
-22.5296820046
 10
5.1640488872
 20
-22.5240368207
  0
LINE
  5
31A
100
AcDbEntity
  8
ASSI
100
AcDbLine
 62
253
  6
CONTINUOUS
 10
6.1973114595
 20
-22.6347761092
 11
8.3353890188
 21
-21.6086035375
  0
LINE
  5
31B
100
AcDbEntity
  8
ASSI
100
AcDbLine
 62
7
  6
CONTINUOUS
 10
6.0726598801
 20
-22.8744090148
 11
8.1971939403
 21
-21.8547366597
  0
ELLIPSE
  5
31C
100
AcDbEntity
  8
ASSI
100
AcDbEllipse
 62
7
  6
CONTINUOUS
 10
8.7098004311
 20
-3.7692350708
 30
0.0
 11
-0.1251346745
 21
0.2164781009
 31
0.0
 40
0.577507303
 41
-2.3566621664
 42
-0.7861703913
  0
ELLIPSE
  5
31D
100
AcDbEntity
  8
ASSI
100
AcDbEllipse
 62
7
  6
CONTINUOUS
 10
7.9816784048
 20
-21.403567173
 30
0.0
 11
-0.2149783503
 21
0.4514263066
 31
0.0
 40
0.6262155472
 41
-3.1396910161
 42
-2.3109372224
  0
ELLIPSE
  5
31E
100
AcDbEntity
  8
0
100
AcDbEllipse
 62
253
  6
CONTINUOUS
 10
66.0819735334
 20
25.9257907475
 30
0.0
 11
127.2704062044
 21
27.9819587651
 31
0.0
 40
0.2022323502
 41
-2.1988553186
 42
-2.1959217502
  0
ELLIPSE
  5
31F
100
AcDbEntity
  8
0
100
AcDbEllipse
 62
253
  6
CONTINUOUS
 10
66.803355492
 20
25.5092738457
 30
0.0
 11
127.2259433618
 21
28.0130607009
 31
0.0
 40
0.2021251212
 41
-2.204033625
 42
-2.2010991639
  0
ELLIPSE
  5
320
100
AcDbEntity
  8
0
100
AcDbEllipse
 62
253
  6
CONTINUOUS
 10
54.5576684236
 20
32.5797800845
 30
0.0
 11
-114.5752662614
 21
133.7954050237
 31
0.0
 40
0.411302102
 41
1.5567226867
 42
1.5596638244
  0
ELLIPSE
  5
321
100
AcDbEntity
  8
0
100
AcDbEllipse
 62
253
  6
CONTINUOUS
 10
55.255895503
 20
32.1766325197
 30
0.0
 11
-114.9976351439
 21
134.0229584088
 31
0.0
 40
0.4101908956
 41
1.5515869203
 42
1.5545204887
  0
ELLIPSE
  5
322
100
AcDbEntity
  8
0
100
AcDbEllipse
 62
253
  6
CONTINUOUS
 10
66.7903211483
 20
25.5167997124
 30
0.0
 11
127.0039836579
 21
28.1682626691
 31
0.0
 40
0.2015865937
 41
-2.1867808741
 42
-2.1838391815
  0
ELLIPSE
  5
323
100
AcDbEntity
  8
0
100
AcDbEllipse
 62
253
  6
CONTINUOUS
 10
66.0659037657
 20
25.93506923
 30
0.0
 11
126.9785990347
 21
28.1860061117
 31
0.0
 40
0.2015246598
 41
-2.181984409
 42
-2.1790468727
  0
ELLIPSE
  5
324
100
AcDbEntity
  8
0
100
AcDbEllipse
 62
253
  6
CONTINUOUS
 10
54.5328183587
 20
32.5941282005
 30
0.0
 11
-115.055453504
 21
134.0541312573
 31
0.0
 40
0.4100391468
 41
1.5380263896
 42
1.5409543479
  0
ELLIPSE
  5
325
100
AcDbEntity
  8
0
100
AcDbEllipse
 62
253
  6
CONTINUOUS
 10
55.2751742175
 20
32.1655012315
 30
0.0
 11
-114.6101086275
 21
133.8141653289
 31
0.0
 40
0.4112102578
 41
1.5333133729
 42
1.5362509091
  0
ELLIPSE
  5
326
100
AcDbEntity
  8
ASSI
100
AcDbEllipse
 62
7
  6
CONTINUOUS
 10
-7.0420648011
 20
22.7218270773
 30
0.0
 11
-0.2807337341
 21
0.4137505634
 31
0.0
 40
0.5254492115
 41
-0.8261225424
 42
0.0012090728
  0
ELLIPSE
  5
327
100
AcDbEntity
  8
ASSI
100
AcDbEllipse
 62
7
  6
CONTINUOUS
 10
8.7098004311
 20
-3.1976903321
 30
0.0
 11
-0.1251726487
 21
0.2165441215
 31
0.0
 40
0.5771556487
 41
-3.1634096711
 42
-2.3569659634
  0
ELLIPSE
  5
328
100
AcDbEntity
  8
ASSI
100
AcDbEllipse
 62
7
  6
CONTINUOUS
 10
5.2341459765
 20
15.5726601241
 30
0.0
 11
0.1999154856
 21
0.0095814127
 31
0.0
 40
0.6067642562
 41
-2.385266879
 42
-1.3380693278
  0
ELLIPSE
  5
329
100
AcDbEntity
  8
ASSI
100
AcDbEllipse
 62
7
  6
CONTINUOUS
 10
-2.6854499728
 20
20.1453355694
 30
0.0
 11
0.1999154856
 21
0.0095814127
 31
0.0
 40
0.6067642562
 41
-2.385266879
 42
-1.3380693278
  0
ELLIPSE
  5
32A
100
AcDbEntity
  8
ASSI
100
AcDbEllipse
 62
7
  6
CONTINUOUS
 10
7.9816784048
 20
14.0473060419
 30
0.0
 11
-0.2810161013
 21
0.4142924366
 31
0.0
 40
0.524175859
 41
-2.3937039903
 42
-0.8247341631
  0
ELLIPSE
  5
32B
100
AcDbEntity
  8
ASSI
100
AcDbEllipse
 62
7
  6
CONTINUOUS
 10
2.8518608804
 20
16.9481616815
 30
0.0
 11
0.1999154856
 21
0.0095814127
 31
0.0
 40
0.6067642562
 41
2.850720877
 42
3.8979184282
  0
ELLIPSE
  5
32C
100
AcDbEntity
  8
ASSI
100
AcDbEllipse
 62
7
  6
CONTINUOUS
 10
-5.0677350688
 20
21.5208371268
 30
0.0
 11
0.1999154856
 21
0.0095814127
 31
0.0
 40
0.6067642562
 41
2.850720877
 42
3.8979184282
  0
ELLIPSE
  5
32D
100
AcDbEntity
  8
0
100
AcDbEllipse
 62
253
  6
CONTINUOUS
 10
63.7643952731
 20
39.9845383014
 30
0.0
 11
-63.6084390228
 21
110.217662994
 31
0.0
 40
0.5774671019
 41
1.4991449667
 42
1.5075838669
  0
ELLIPSE
  5
32E
100
AcDbEntity
  8
0
100
AcDbEllipse
 62
253
  6
CONTINUOUS
 10
64.2785931912
 20
39.6876468679
 30
0.0
 11
-63.6566023802
 21
110.2343461772
 31
0.0
 40
0.5772923264
 41
1.4949691815
 42
1.503403376
  0
ELLIPSE
  5
32F
100
AcDbEntity
  8
0
100
AcDbEllipse
 62
253
  6
CONTINUOUS
 10
64.2758848682
 20
39.6892106197
 30
0.0
 11
-63.5899357352
 21
110.2112574481
 31
0.0
 40
0.5775342425
 41
1.5297731103
 42
1.5382020567
  0
ELLIPSE
  5
330
100
AcDbEntity
  8
0
100
AcDbEllipse
 62
253
  6
CONTINUOUS
 10
63.7660843213
 20
39.9835630661
 30
0.0
 11
-63.6419108564
 21
110.2292557184
 31
0.0
 40
0.5773456408
 41
1.5336332319
 42
1.5420539335
  0
ENDSEC
  0
SECTION
  2
OBJECTS
  0
DICTIONARY
  5
C
100
AcDbDictionary
280
0
281
1
  3
ACAD_GROUP
350
D
  3
ACAD_MLINESTYLE
350
17
  3
ACAD_LAYOUT
350
1A
  3
ACAD_PLOTSETTINGS
350
19
  3
ACAD_PLOTSTYLENAME
350
E
  0
DICTIONARY
  5
D
102
{ACAD_REACTORS
330
C
102
}
100
AcDbDictionary
280
0
281
1
  0
ACDBDICTIONARYWDFLT
  5
E
102
{ACAD_REACTORS
330
C
102
}
100
AcDbDictionary
281
1
  3
Normal
350
F
100
AcDbDictionaryWithDefault
340
F
  0
DICTIONARY
  5
17
102
{ACAD_REACTORS
330
C
102
}
100
AcDbDictionary
280
0
281
1
  3
Standard
350
18
  0
DICTIONARY
  5
19
102
{ACAD_REACTORS
330
C
102
}
100
AcDbDictionary
281
1
  0
DICTIONARY
  5
1A
102
{ACAD_REACTORS
330
C
102
}
100
AcDbDictionary
281
1
  3
Model
350
331
  3
Layout1
350
332
  0
ACDBPLACEHOLDER
  5
F
102
{ACAD_REACTORS
330
E
102
}
  0
MLINESTYLE
  5
18
102
{ACAD_REACTORS
330
17
102
}
100
AcDbMlineStyle
  2
STANDARD
 70
0
  3

 62
256
 51
90.0
 52
90.0
 71
2
 49
0.5
 62
256
  6
BYLAYER
 49
-0.5
 62
256
  6
BYLAYER
  0
LAYOUT
  5
331
102
{ACAD_REACTORS
330
1A
102
}
100
AcDbPlotSettings
  1

  2
none_device
  4
ISO_A4_(297.00_x_210.00_MM)
  6

 40
0.0
 41
0.0
 42
0.0
 43
0.0
 44
297.0
 45
210.0
 46
0.0
 47
0.0
 48
0.0
 49
0.0
140
0.0
141
0.0
142
1.0
143
1.0
 70
1024
 72
1
 73
0
 74
0
  7

 75
0
147
1.0
148
0.0
149
0.0
100
AcDbLayout
  1
Model
 70
0
 71
0
 10
0.0
 20
0.0
 11
297.0
 21
210.0
 12
0.0
 22
0.0
 32
0.0
 14
0.0
 24
0.0
 34
0.0
 15
0.0
 25
0.0
 35
0.0
146
0.0
 13
0.0
 23
0.0
 33
0.0
 16
1.0
 26
0.0
 36
0.0
 17
0.0
 27
1.0
 37
0.0
 76
0
330
219
345
0
346
0
  0
LAYOUT
  5
332
102
{ACAD_REACTORS
330
1A
102
}
100
AcDbPlotSettings
  1

  2
none_device
  4
ISO_A4_(297.00_x_210.00_MM)
  6

 40
0.0
 41
0.0
 42
0.0
 43
0.0
 44
297.0
 45
210.0
 46
0.0
 47
0.0
 48
0.0
 49
0.0
140
0.0
141
0.0
142
1.0
143
1.0
 70
0
 72
1
 73
0
 74
0
  7

 75
0
147
1.0
148
0.0
149
0.0
100
AcDbLayout
  1
Layout1
 70
0
 71
1
 10
0.0
 20
0.0
 11
297.0
 21
210.0
 12
0.0
 22
0.0
 32
0.0
 14
0.0
 24
0.0
 34
0.0
 15
0.0
 25
0.0
 35
0.0
146
0.0
 13
0.0
 23
0.0
 33
0.0
 16
1.0
 26
0.0
 36
0.0
 17
0.0
 27
1.0
 37
0.0
 76
0
330
21A
345
0
346
0
  0
ENDSEC
  0
EOF
