  0
SECTION
  2
HEADER
  9
$ACADVER
  1
AC1021
  9
$DWGCODEPAGE
  3
ANSI_1252
  9
$EXTMAX
 10
297.0
 20
210.0
 30
0.0
  9
$EXTMIN
 10
0.0
 20
0.0
 30
0.0
  9
$LIMMIN
 10
0.0
 20
0.0
  9
$LIMMAX
 10
297.0
 20
210.0
  9
$VIEWCTR
 10
148.5
 20
105.0
  9
$VIEWSIZE
 40
210.0
  9
$CLAYER
  8
0
  9
$LTSCALE
 40
16.335
  9
$CELTYPE
  6
BYLAYER
  9
$DIMSCALE
 40
1.0
  9
$DIMASZ
 40
3.0
  9
$DIMEXO
 40
0.5
  9
$DIMDLI
 40
11.286
  9
$DIMEXE
 40
1.5
  9
$DIMCEN
 40
2.673
  9
$DIMLFAC
 40
1.0
  9
$DIMBLK
  1
_FILLED
  9
$DIMALT
 70
0
  9
$DIMALTF
 40
25.4
  9
$DIMTXT
 40
3.0
  9
$DIMTOL
 70
1
  9
$DIMLIM
 70
0
  9
$DIMTFAC
 40
1.0
  9
$DIMTP
 40
0.01
  9
$DIMTM
 40
0.01
  9
$DIMGAP
 40
0.625
  9
$DIMDSEP
 70
44
  9
$AUNITS
 70
0
  9
$PDMODE
 70
3
  9
$PDSIZE
 40
3.0
  9
$HANDSEED
  5
363
  9
$TILEMODE
 70
1
  9
$MEASUREMENT
 70
1
  9
$INSUNITS
 70
4
  0
ENDSEC
  0
SECTION
  2
CLASSES
  0
CLASS
  1
ACDBDICTIONARYWDFLT
  2
AcDbDictionaryWithDefault
  3
AutoCAD 2000
 90
0
 91
1
280
0
281
0
  0
CLASS
  1
ACDBPLACEHOLDER
  2
AcDbPlaceHolder
  3
AutoCAD 2000
 90
0
 91
1
280
0
281
0
  0
CLASS
  1
LAYOUT
  2
AcDbLayout
  3
AutoCAD 2000
 90
0
 91
0
280
0
281
0
  0
ENDSEC
  0
SECTION
  2
TABLES
  0
TABLE
  2
VPORT
  5
8
100
AcDbSymbolTable
 70
2
  0
VPORT
  5
1F4
100
AcDbSymbolTableRecord
100
AcDbViewportTableRecord
  2
*ACTIVE
 70
0
 10
0.0
 20
0.0
 11
1.0
 21
1.0
 12
148.5
 22
105.0
 13
0.0
 23
0.0
 14
1.0
 24
1.0
 15
0.0
 25
0.0
 16
0.0
 26
0.0
 36
1.0
 17
0.0
 27
0.0
 37
0.0
 40
210.0
 41
1.4142857143
 42
50.0
 43
0.0
 44
0.0
 50
0.0
 51
0.0
 71
0
 72
100
 73
1
 74
1
 75
0
 76
0
 77
0
 78
0
  0
ENDTAB
  0
TABLE
  2
LTYPE
  5
5
100
AcDbSymbolTable
 70
6
  0
LTYPE
  5
14
100
AcDbSymbolTableRecord
100
AcDbLinetypeTableRecord
  2
BYBLOCK
 70
0
  3

 72
65
 73
0
 40
0.0
  0
LTYPE
  5
15
100
AcDbSymbolTableRecord
100
AcDbLinetypeTableRecord
  2
BYLAYER
 70
0
  3

 72
65
 73
0
 40
0.0
  0
LTYPE
  5
16
100
AcDbSymbolTableRecord
100
AcDbLinetypeTableRecord
  2
CONTINUOUS
 70
64
  3
Solid line
 72
65
 73
0
 40
0.0
  0
LTYPE
  5
1F5
100
AcDbSymbolTableRecord
100
AcDbLinetypeTableRecord
  2
CENTER
 70
64
  3
____ _ ____ _ ____ _ ____ _ ____ _ ____ _ ____
 72
65
 73
4
 40
0.6
 49
0.375
 74
0
 49
-0.075
 74
0
 49
0.075
 74
0
 49
-0.075
 74
0
  0
LTYPE
  5
1F6
100
AcDbSymbolTableRecord
100
AcDbLinetypeTableRecord
  2
HIDDEN
 70
64
  3
- - - - - - - - - - - - - - - - - - - -
 72
65
 73
2
 40
0.2
 49
0.1
 74
0
 49
-0.1
 74
0
  0
LTYPE
  5
1F7
100
AcDbSymbolTableRecord
100
AcDbLinetypeTableRecord
  2
PHANTOM
 70
64
  3
_____ _ _ _____ _ _ _____ _ _ _____
 72
65
 73
6
 40
0.8
 49
0.45
 74
0
 49
-0.05
 74
0
 49
0.1
 74
0
 49
-0.05
 74
0
 49
0.1
 74
0
 49
-0.05
 74
0
  0
LTYPE
  5
1F8
100
AcDbSymbolTableRecord
100
AcDbLinetypeTableRecord
  2
DOT
 70
64
  3
. . . . . . . . . . . . . . . . . . . .
 72
65
 73
2
 40
0.2
 49
0.1
 74
0
 49
-0.1
 74
0
  0
LTYPE
  5
1F9
100
AcDbSymbolTableRecord
100
AcDbLinetypeTableRecord
  2
DASHED
 70
64
  3
- - - - - - - - - - - - - - - - - - - -
 72
65
 73
2
 40
0.2
 49
0.1
 74
0
 49
-0.1
 74
0
  0
ENDTAB
  0
TABLE
  2
LAYER
  5
2
100
AcDbSymbolTable
 70
36
  0
LAYER
  5
10
100
AcDbSymbolTableRecord
100
AcDbLayerTableRecord
  2
0
 70
0
 62
7
  6
CONTINUOUS
370
-3
390
F
  0
LAYER
  5
1FA
100
AcDbSymbolTableRecord
100
AcDbLayerTableRecord
  2
DEFAULT_1
 70
0
 62
7
  6
CENTER
370
-3
390
F
  0
LAYER
  5
1FB
100
AcDbSymbolTableRecord
100
AcDbLayerTableRecord
  2
DEFAULT_2
 70
0
 62
7
  6
HIDDEN
370
-3
390
F
  0
LAYER
  5
1FC
100
AcDbSymbolTableRecord
100
AcDbLayerTableRecord
  2
DEFAULT_3
 70
0
 62
7
  6
PHANTOM
370
-3
390
F
  0
LAYER
  5
1FD
100
AcDbSymbolTableRecord
100
AcDbLayerTableRecord
  2
ASSI
 70
0
 62
7
  6
CONTINUOUS
370
-3
390
F
  0
LAYER
  5
1FE
100
AcDbSymbolTableRecord
100
AcDbLayerTableRecord
  2
COLOR9
 70
0
 62
7
  6
CONTINUOUS
370
-3
390
F
  0
LAYER
  5
1FF
100
AcDbSymbolTableRecord
100
AcDbLayerTableRecord
  2
COORDINATE
 70
0
 62
7
  6
CONTINUOUS
370
-3
390
F
  0
LAYER
  5
200
100
AcDbSymbolTableRecord
100
AcDbLayerTableRecord
  2
COORD_ORIGINE
 70
0
 62
7
  6
CONTINUOUS
370
-3
390
F
  0
LAYER
  5
201
100
AcDbSymbolTableRecord
100
AcDbLayerTableRecord
  2
COPY_PUBLISH
 70
0
 62
7
  6
CONTINUOUS
370
-3
390
F
  0
LAYER
  5
202
100
AcDbSymbolTableRecord
100
AcDbLayerTableRecord
  2
COSMETICI
 70
0
 62
7
  6
CONTINUOUS
370
-3
390
F
  0
LAYER
  5
203
100
AcDbSymbolTableRecord
100
AcDbLayerTableRecord
  2
CURVE
 70
0
 62
7
  6
CONTINUOUS
370
-3
390
F
  0
LAYER
  5
204
100
AcDbSymbolTableRecord
100
AcDbLayerTableRecord
  2
DRAFT
 70
0
 62
7
  6
CONTINUOUS
370
-3
390
F
  0
LAYER
  5
205
100
AcDbSymbolTableRecord
100
AcDbLayerTableRecord
  2
IGES
 70
0
 62
7
  6
CONTINUOUS
370
-3
390
F
  0
LAYER
  5
206
100
AcDbSymbolTableRecord
100
AcDbLayerTableRecord
  2
IGS_SCRITTE
 70
0
 62
7
  6
CONTINUOUS
370
-3
390
F
  0
LAYER
  5
207
100
AcDbSymbolTableRecord
100
AcDbLayerTableRecord
  2
IMPORT_IGES
 70
0
 62
7
  6
CONTINUOUS
370
-3
390
F
  0
LAYER
  5
208
100
AcDbSymbolTableRecord
100
AcDbLayerTableRecord
  2
INTF_YELLOW
 70
0
 62
7
  6
CONTINUOUS
370
-3
390
F
  0
LAYER
  5
209
100
AcDbSymbolTableRecord
100
AcDbLayerTableRecord
  2
LIVELLO_1
 70
0
 62
7
  6
CONTINUOUS
370
-3
390
F
  0
LAYER
  5
20A
100
AcDbSymbolTableRecord
100
AcDbLayerTableRecord
  2
NOTE
 70
0
 62
7
  6
CONTINUOUS
370
-3
390
F
  0
LAYER
  5
20B
100
AcDbSymbolTableRecord
100
AcDbLayerTableRecord
  2
PIANI
 70
0
 62
7
  6
CONTINUOUS
370
-3
390
F
  0
LAYER
  5
20C
100
AcDbSymbolTableRecord
100
AcDbLayerTableRecord
  2
PIANI_ORIGINE
 70
0
 62
7
  6
CONTINUOUS
370
-3
390
F
  0
LAYER
  5
20D
100
AcDbSymbolTableRecord
100
AcDbLayerTableRecord
  2
PIANI_RIFERIMENTO
 70
0
 62
7
  6
CONTINUOUS
370
-3
390
F
  0
LAYER
  5
20E
100
AcDbSymbolTableRecord
100
AcDbLayerTableRecord
  2
PUNTI
 70
0
 62
7
  6
CONTINUOUS
370
-3
390
F
  0
LAYER
  5
20F
100
AcDbSymbolTableRecord
100
AcDbLayerTableRecord
  2
RACCORDO
 70
0
 62
7
  6
CONTINUOUS
370
-3
390
F
  0
LAYER
  5
210
100
AcDbSymbolTableRecord
100
AcDbLayerTableRecord
  2
SIMBOLI
 70
0
 62
7
  6
CONTINUOUS
370
-3
390
F
  0
LAYER
  5
211
100
AcDbSymbolTableRecord
100
AcDbLayerTableRecord
  2
SMUSSO
 70
0
 62
7
  6
CONTINUOUS
370
-3
390
F
  0
LAYER
  5
212
100
AcDbSymbolTableRecord
100
AcDbLayerTableRecord
  2
SNAPLINE
 70
0
 62
7
  6
CONTINUOUS
370
-3
390
F
  0
LAYER
  5
213
100
AcDbSymbolTableRecord
100
AcDbLayerTableRecord
  2
SOLIDO
 70
0
 62
7
  6
CONTINUOUS
370
-3
390
F
  0
LAYER
  5
214
100
AcDbSymbolTableRecord
100
AcDbLayerTableRecord
  2
SUPERFICI
 70
0
 62
7
  6
CONTINUOUS
370
-3
390
F
  0
LAYER
  5
215
100
AcDbSymbolTableRecord
100
AcDbLayerTableRecord
  2
TRASH
 70
0
 62
7
  6
CONTINUOUS
370
-3
390
F
  0
LAYER
  5
216
100
AcDbSymbolTableRecord
100
AcDbLayerTableRecord
  2
WHITE
 70
0
 62
7
  6
CONTINUOUS
370
-3
390
F
  0
ENDTAB
  0
TABLE
  2
STYLE
  5
3
100
AcDbSymbolTable
 70
1
  0
STYLE
  5
11
100
AcDbSymbolTableRecord
100
AcDbTextStyleTableRecord
  2
STANDARD
 70
0
 40
0.0
 41
0.8
 50
0.0
 71
0
 42
0.2
  3
txt
  4

  0
STYLE
  5
217
100
AcDbSymbolTableRecord
100
AcDbTextStyleTableRecord
  2
TEXTSTYLE_1
 70
0
 40
0.0
 41
0.8
 50
0.0
 71
0
 42
0.2
  3
gdt
  4

  0
ENDTAB
  0
TABLE
  2
VIEW
  5
6
100
AcDbSymbolTable
 70
0
  0
ENDTAB
  0
TABLE
  2
UCS
  5
7
100
AcDbSymbolTable
 70
0
  0
ENDTAB
  0
TABLE
  2
APPID
  5
9
100
AcDbSymbolTable
 70
1
  0
APPID
  5
218
100
AcDbSymbolTableRecord
100
AcDbRegAppTableRecord
  2
ACAD
 70
0
  0
ENDTAB
  0
TABLE
  2
BLOCK_RECORD
  5
1
100
AcDbSymbolTable
 70
0
  0
BLOCK_RECORD
  5
219
100
AcDbSymbolTableRecord
100
AcDbBlockTableRecord
  2
*Model_Space
  0
BLOCK_RECORD
  5
21A
100
AcDbSymbolTableRecord
100
AcDbBlockTableRecord
  2
*Paper_Space
  0
ENDTAB
  0
TABLE
  2
DIMSTYLE
  5
A
100
AcDbSymbolTable
 70
1
100
AcDbDimStyleTable
 71
0
  0
DIMSTYLE
105
21B
100
AcDbSymbolTableRecord
100
AcDbDimStyleTableRecord
  2
STANDARD
 70
0
  3

  4

 40
1.0
 41
3.0
 42
0.5
 43
0.38
 44
1.5
 45
0.0
 46
0.0
 47
0.01
 48
0.01
140
3.0
141
0.09
142
0.0
143
25.4
144
1.0
145
0.0
146
1.0
147
0.625
 71
1.0
 72
0.0
 73
0
 74
0
 75
0
 76
0
 77
1
 78
8
170
0
171
1
172
0
173
0
174
0
175
0
176
0
177
0
178
0
270
2
271
2
272
2
273
2
274
2
275
0
280
0
281
0
282
0
283
1
284
8
285
0
286
0
287
3
288
0
340
11
278
44
  0
ENDTAB
  0
ENDSEC
  0
SECTION
  2
BLOCKS
  0
BLOCK
  5
20
100
AcDbEntity
  8
0
100
AcDbBlockBegin
  2
*Model_Space
 70
0
 10
0.0
 20
0.0
 30
0.0
  3
*Model_Space
  1

  0
ENDBLK
  5
21
100
AcDbEntity
  8
0
100
AcDbBlockEnd
  0
BLOCK
  5
1C
100
AcDbEntity
  8
0
100
AcDbBlockBegin
  2
*Paper_Space
 70
0
 10
0.0
 20
0.0
 30
0.0
  3
*Paper_Space
  1

  0
ENDBLK
  5
1D
100
AcDbEntity
  8
0
100
AcDbBlockEnd
  0
ENDSEC
  0
SECTION
  2
ENTITIES
  0
LWPOLYLINE
  5
21C
100
AcDbEntity
  8
ASSI
100
AcDbPolyline
 62
7
  6
CONTINUOUS
 90
13
 70
0
 10
-9.3704017272
 20
21.9136679075
 10
-9.4210972412
 20
21.876799225
 10
-9.4958320467
 20
21.813380718
 10
-9.5650190524
 20
21.7437441401
 10
-9.6289810936
 20
21.6682371065
 10
-9.6875740287
 20
21.5874160245
 10
-9.7401425202
 20
21.502501264
 10
-9.7865463539
 20
21.4139354921
 10
-9.8265271644
 20
21.3220851866
 10
-9.8593957144
 20
21.2282212603
 10
-9.8847908539
 20
21.1328492155
 10
-9.9023367061
 20
21.035880946
 10
-9.9051957136
 20
21.0133500088
  0
LINE
  5
21D
100
AcDbEntity
  8
ASSI
100
AcDbLine
 62
7
  6
CONTINUOUS
 10
-9.3706771721
 20
21.913480519
 11
-7.3880530836
 21
23.265382777
  0
LINE
  5
21E
100
AcDbEntity
  8
ASSI
100
AcDbLine
 62
253
  6
CONTINUOUS
 10
-9.1074962266
 20
21.8973697627
 11
-7.137459134
 21
23.2406892601
  0
LWPOLYLINE
  5
21F
100
AcDbEntity
  8
ASSI
100
AcDbPolyline
 62
253
  6
CONTINUOUS
 90
30
 70
0
 10
-9.3704017325
 20
21.9136679152
 10
-9.367425127
 20
21.9156404532
 10
-9.360401491
 20
21.9199318329
 10
-9.3531487497
 20
21.923869053
 10
-9.3456730254
 20
21.92744879
 10
-9.3379806287
 20
21.9306680221
 10
-9.3300780529
 20
21.9335240318
 10
-9.3219719688
 20
21.9360144083
 10
-9.3136692192
 20
21.9381370494
 10
-9.3051768125
 20
21.9398901633
 10
-9.2965019176
 20
21.9412722702
 10
-9.2876518572
 20
21.9422822032
 10
-9.2786341019
 20
21.94291911
 10
-9.2694562639
 20
21.9431824529
 10
-9.2601260906
 20
21.9430720096
 10
-9.2506514579
 20
21.9425878733
 10
-9.2410403635
 20
21.9417304527
 10
-9.2313009207
 20
21.9405004715
 10
-9.2214413506
 20
21.9388989681
 10
-9.2114699762
 20
21.9369272944
 10
-9.2013952146
 20
21.9345871146
 10
-9.1912255703
 20
21.9318804042
 10
-9.1809696278
 20
21.9288094481
 10
-9.1706360444
 20
21.9253768385
 10
-9.1602335431
 20
21.921585473
 10
-9.149770905
 20
21.917438552
 10
-9.139256962
 20
21.9129395761
 10
-9.1287005892
 20
21.9080923431
 10
-9.1181106977
 20
21.9029009445
 10
-9.1074962266
 20
21.8973697627
  0
LWPOLYLINE
  5
220
100
AcDbEntity
  8
ASSI
100
AcDbPolyline
 62
7
  6
CONTINUOUS
 90
11
 70
0
 10
5.3009315571
 20
-22.7361853419
 10
5.3656321195
 20
-22.7691715514
 10
5.4329534764
 20
-22.7949212149
 10
5.5027078527
 20
-22.8135211051
 10
5.5751737231
 20
-22.8249673641
 10
5.6497821737
 20
-22.8289529888
 10
5.7257450415
 20
-22.8252576183
 10
5.8032829776
 20
-22.813609753
 10
5.882166156
 20
-22.7936135656
 10
5.9615220408
 20
-22.7650533364
 10
6.0073599387
 20
-22.7445726834
  0
LINE
  5
221
100
AcDbEntity
  8
ASSI
100
AcDbLine
 62
7
  6
CONTINUOUS
 10
-9.5624288755
 20
-14.1542687234
 11
5.30171535
 21
-22.7366393077
  0
LINE
  5
222
100
AcDbEntity
  8
ASSI
100
AcDbLine
 62
7
  6
CONTINUOUS
 10
5.3009299946
 20
-22.736184475
 11
5.3017153766
 21
-22.7366393231
  0
LINE
  5
223
100
AcDbEntity
  8
ASSI
100
AcDbLine
 62
253
  6
CONTINUOUS
 10
-9.5624288755
 20
-14.1542687234
 11
-9.567989091
 21
-14.1509835068
  0
LWPOLYLINE
  5
224
100
AcDbEntity
  8
ASSI
100
AcDbPolyline
 62
253
  6
CONTINUOUS
 90
27
 70
0
 10
-9.567989091
 20
-14.1509835068
 10
-9.5795062314
 20
-14.1436851301
 10
-9.5907302855
 20
-14.1358905554
 10
-9.6016546716
 20
-14.1276043524
 10
-9.6122729829
 20
-14.1188313705
 10
-9.6225793328
 20
-14.1095765374
 10
-9.6325676919
 20
-14.099845244
 10
-9.6422321863
 20
-14.0896431768
 10
-9.6515674415
 20
-14.0789761135
 10
-9.6605679927
 20
-14.0678502605
 10
-9.6692285529
 20
-14.0562720966
 10
-9.6775443091
 20
-14.0442482018
 10
-9.6855103963
 20
-14.0317855576
 10
-9.6931221338
 20
-14.0188914082
 10
-9.7003752933
 20
-14.005573103
 10
-9.707265629
 20
-13.9918383747
 10
-9.713789097
 20
-13.9776951832
 10
-9.7199420891
 20
-13.9631515727
 10
-9.7257210186
 20
-13.9482159286
 10
-9.7311224723
 20
-13.9328969344
 10
-9.7361434322
 20
-13.9172034175
 10
-9.7407809563
 20
-13.901144508
 10
-9.7450323338
 20
-13.8847294533
 10
-9.7488952278
 20
-13.8679675667
 10
-9.7523674199
 20
-13.8508684726
 10
-9.7554468199
 20
-13.8334421084
 10
-9.7581316197
 20
-13.8156985381
  0
LINE
  5
225
100
AcDbEntity
  8
ASSI
100
AcDbLine
 62
253
  6
CONTINUOUS
 10
-9.7581316197
 20
-13.8156985381
 11
5.0990569859
 21
-22.3940530347
  0
LWPOLYLINE
  5
226
100
AcDbEntity
  8
ASSI
100
AcDbPolyline
 62
7
  6
CONTINUOUS
 90
6
 70
0
 10
-9.8030136947
 20
-13.9155634763
 10
-9.7581393607
 20
-13.9818313758
 10
-9.7067122696
 20
-14.0415588099
 10
-9.649254036
 20
-14.0943465391
 10
-9.5869311577
 20
-14.1393951779
 10
-9.5613309709
 20
-14.1548997474
  0
LWPOLYLINE
  5
227
100
AcDbEntity
  8
ASSI
100
AcDbPolyline
 62
7
  6
CONTINUOUS
 90
10
 70
0
 10
-9.9051478993
 20
21.013765586
 10
-10.0263026552
 20
19.9298386333
 10
-10.1418658616
 20
18.7874038595
 10
-10.2442634806
 20
17.6511026376
 10
-10.3334710766
 20
16.5211796937
 10
-10.4094671232
 20
15.397876597
 10
-10.4722329274
 20
14.2814312941
 10
-10.5217523379
 20
13.1720823059
 10
-10.5580118558
 20
12.0700686938
 10
-10.5799788266
 20
11.042159324
  0
LWPOLYLINE
  5
228
100
AcDbEntity
  8
ASSI
100
AcDbPolyline
 62
253
  6
CONTINUOUS
 90
58
 70
0
 10
-9.7581316197
 20
20.8147191114
 10
-9.7554468199
 20
20.8356733546
 10
-9.7523674199
 20
20.8567820951
 10
-9.7488952278
 20
20.8780331808
 10
-9.7450323338
 20
20.899414359
 10
-9.7407809563
 20
20.9209133453
 10
-9.7361434322
 20
20.9425178323
 10
-9.7311224723
 20
20.9642154729
 10
-9.7257210186
 20
20.9859937091
 10
-9.7199420891
 20
21.0078398406
 10
-9.713789097
 20
21.0297412665
 10
-9.707265629
 20
21.0516854355
 10
-9.7003752933
 20
21.0736596772
 10
-9.6931221338
 20
21.0956513889
 10
-9.6855103963
 20
21.1176479079
 10
-9.6775443091
 20
21.1396364615
 10
-9.6692285529
 20
21.161604425
 10
-9.6605679927
 20
21.1835391744
 10
-9.6515674415
 20
21.2054279581
 10
-9.6422321863
 20
21.2272582161
 10
-9.6325676919
 20
21.2490174073
 10
-9.6225793328
 20
21.2706928621
 10
-9.6122729829
 20
21.2922721334
 10
-9.6016546716
 20
21.3137428452
 10
-9.5907302855
 20
21.33509252
 10
-9.5795062314
 20
21.3563089314
 10
-9.567989091
 20
21.3773798879
 10
-9.5561852763
 20
21.3982930816
 10
-9.544101726
 20
21.4190365154
 10
-9.5317455138
 20
21.4395983028
 10
-9.519123501
 20
21.4599664507
 10
-9.506243092
 20
21.4801293018
 10
-9.4931118419
 20
21.5000752856
 10
-9.4797370662
 20
21.5197927194
 10
-9.4661266291
 20
21.5392702996
 10
-9.4522884996
 20
21.5584968821
 10
-9.4382303573
 20
21.5774612324
 10
-9.4239604481
 20
21.5961525088
 10
-9.4094871465
 20
21.6145599973
 10
-9.3948185125
 20
21.6326728921
 10
-9.3799631592
 20
21.6504808341
 10
-9.364929798
 20
21.6679736345
 10
-9.3497268021
 20
21.68514101
 10
-9.334363098
 20
21.701973151
 10
-9.3188476975
 20
21.7184604339
 10
-9.3031892442
 20
21.7345931474
 10
-9.2873969461
 20
21.7503620653
 10
-9.2714800543
 20
21.7657581979
 10
-9.2554473959
 20
21.7807725035
 10
-9.2393083525
 20
21.7953964472
 10
-9.2230724236
 20
21.8096216505
 10
-9.2067487067
 20
21.823439648
 10
-9.1903468343
 20
21.8368425244
 10
-9.173876384
 20
21.8498226939
 10
-9.1573464403
 20
21.8623725449
 10
-9.1407665107
 20
21.874484856
 10
-9.124146521
 20
21.8861528077
 10
-9.1074962266
 20
21.8973697627
  0
LINE
  5
229
100
AcDbEntity
  8
ASSI
100
AcDbLine
 62
7
  6
CONTINUOUS
 10
-5.14566088
 20
22.0906499113
 11
-5.3259121294
 21
21.6764297525
  0
LWPOLYLINE
  5
22A
100
AcDbEntity
  8
0
100
AcDbPolyline
 62
253
  6
CONTINUOUS
 90
32
 70
0
 10
-1.2129392251
 20
-12.8095758241
 10
-1.2153353723
 20
-12.8101896077
 10
-1.2177666278
 20
-12.8107209654
 10
-1.2202328523
 20
-12.8111709798
 10
-1.2227339067
 20
-12.8115407332
 10
-1.2252696519
 20
-12.8118313078
 10
-1.2278399486
 20
-12.8120437862
 10
-1.2304446576
 20
-12.8121792507
 10
-1.2330836398
 20
-12.8122387836
 10
-1.2361411264
 20
-12.8122149725
 10
-1.2392412985
 20
-12.8120934561
 10
-1.2423822584
 20
-12.8118742914
 10
-1.2455621083
 20
-12.8115575351
 10
-1.2487789507
 20
-12.8111432444
 10
-1.2520308878
 20
-12.810631476
 10
-1.2553160218
 20
-12.8100222868
 10
-1.2582162754
 20
-12.8094093531
 10
-1.2611393485
 20
-12.8087217781
 10
-1.2640840971
 20
-12.8079594648
 10
-1.267049377
 20
-12.807122316
 10
-1.2700340442
 20
-12.8062102347
 10
-1.2730369548
 20
-12.8052231238
 10
-1.2760569645
 20
-12.8041608862
 10
-1.2790929295
 20
-12.8030234248
 10
-1.2821439772
 20
-12.8018103617
 10
-1.2852103217
 20
-12.8005201957
 10
-1.2882924484
 20
-12.7991511445
 10
-1.291390843
 20
-12.7977014262
 10
-1.2945059911
 20
-12.7961692585
 10
-1.2976383782
 20
-12.7945528595
 10
-1.3007884898
 20
-12.792850447
 10
-1.3039568117
 20
-12.7910602389
  0
LWPOLYLINE
  5
22B
100
AcDbEntity
  8
0
100
AcDbPolyline
 62
253
  6
CONTINUOUS
 90
29
 70
0
 10
-1.9297562492
 20
-12.6496433332
 10
-1.9283085857
 20
-12.6500547067
 10
-1.9268822599
 20
-12.6504121383
 10
-1.9254766194
 20
-12.6507180539
 10
-1.9240910112
 20
-12.6509748794
 10
-1.9227247829
 20
-12.6511850405
 10
-1.9213772816
 20
-12.6513509632
 10
-1.9200478547
 20
-12.6514750733
 10
-1.918518944
 20
-12.651570178
 10
-1.9170133941
 20
-12.6516150431
 10
-1.9155308529
 20
-12.6516130386
 10
-1.9140709684
 20
-12.6515675347
 10
-1.9126333884
 20
-12.6514819014
 10
-1.9112177609
 20
-12.6513595089
 10
-1.9095470369
 20
-12.6511686884
 10
-1.9079040932
 20
-12.6509345768
 10
-1.9062856058
 20
-12.6506619636
 10
-1.9046882505
 20
-12.6503556382
 10
-1.9031087032
 20
-12.65002039
 10
-1.9011547461
 20
-12.649567051
 10
-1.8992199206
 20
-12.6490799442
 10
-1.8973007275
 20
-12.6485630101
 10
-1.8953936674
 20
-12.6480201894
 10
-1.8928649792
 20
-12.6472618789
 10
-1.8903507437
 20
-12.646467339
 10
-1.8878500643
 20
-12.6456393557
 10
-1.885361938
 20
-12.6447811505
 10
-1.8828849353
 20
-12.6438976882
 10
-1.8804175197
 20
-12.6429943698
  0
LWPOLYLINE
  5
22C
100
AcDbEntity
  8
0
100
AcDbPolyline
 62
253
  6
CONTINUOUS
 90
47
 70
0
 10
-3.8495349103
 20
-11.9588309655
 10
-3.8342217939
 20
-11.9665037653
 10
-3.8190640096
 20
-11.9735750703
 10
-3.8040555943
 20
-11.9800579229
 10
-3.7891905847
 20
-11.9859653658
 10
-3.7744630178
 20
-11.9913104412
 10
-3.7598669303
 20
-11.9961061918
 10
-3.7453963591
 20
-12.0003656599
 10
-3.7310484804
 20
-12.0041002547
 10
-3.7168330285
 20
-12.0073148515
 10
-3.702762877
 20
-12.010012692
 10
-3.6888508995
 20
-12.0121970183
 10
-3.6751099698
 20
-12.0138710722
 10
-3.6615529614
 20
-12.0150380955
 10
-3.6481927481
 20
-12.0157013302
 10
-3.6328695112
 20
-12.0158428857
 10
-3.6178387604
 20
-12.0153094267
 10
-3.6031075995
 20
-12.0141072385
 10
-3.5886831321
 20
-12.0122426062
 10
-3.5745724621
 20
-12.0097218152
 10
-3.5607826931
 20
-12.0065511507
 10
-3.5473217386
 20
-12.0027367156
 10
-3.5342007513
 20
-11.9982838827
 10
-3.5214316934
 20
-11.9931978426
 10
-3.5090265274
 20
-11.9874837856
 10
-3.4969972154
 20
-11.9811469024
 10
-3.48535572
 20
-11.9741923834
 10
-3.4741137123
 20
-11.9666242626
 10
-3.4632816987
 20
-11.9584419477
 10
-3.4528698946
 20
-11.9496436902
 10
-3.4428885153
 20
-11.9402277412
 10
-3.4333477762
 20
-11.9301923523
 10
-3.4242578925
 20
-11.9195357745
 10
-3.4168342102
 20
-11.9099073873
 10
-3.4097620615
 20
-11.8998296103
 10
-3.4030542338
 20
-11.8893107223
 10
-3.3967235147
 20
-11.8783590017
 10
-3.390782692
 20
-11.8669827273
 10
-3.3852445531
 20
-11.8551901776
 10
-3.3801218856
 20
-11.8429896312
 10
-3.3754268033
 20
-11.8303858278
 10
-3.3711687243
 20
-11.8173693511
 10
-3.3673563929
 20
-11.8039272458
 10
-3.3639985534
 20
-11.7900465567
 10
-3.3611039502
 20
-11.7757143286
 10
-3.3586813275
 20
-11.7609176062
 10
-3.3567394295
 20
-11.7456434342
  0
LWPOLYLINE
  5
22D
100
AcDbEntity
  8
0
100
AcDbPolyline
 62
253
  6
CONTINUOUS
 90
15
 70
0
 10
-3.9443620259
 20
-11.5787894409
 10
-3.9583364293
 20
-11.571585956
 10
-3.9723394725
 20
-11.5642389775
 10
-3.9863711983
 20
-11.5567483368
 10
-4.0004316495
 20
-11.5491138653
 10
-4.0145208687
 20
-11.5413353944
 10
-4.0286388987
 20
-11.5334127555
 10
-4.0427857822
 20
-11.5253457799
 10
-4.056961553
 20
-11.5171342418
 10
-4.0711662084
 20
-11.5087776861
 10
-4.0853997371
 20
-11.5002756003
 10
-4.0996621274
 20
-11.4916274722
 10
-4.1139533679
 20
-11.4828327894
 10
-4.128273447
 20
-11.4738910394
 10
-4.1426223532
 20
-11.4648017099
  0
LWPOLYLINE
  5
22E
100
AcDbEntity
  8
0
100
AcDbPolyline
 62
253
  6
CONTINUOUS
 90
6
 70
0
 10
-3.9629953578
 20
-11.9003891269
 10
-3.9509603818
 20
-11.9070016853
 10
-3.9389749487
 20
-11.9135118529
 10
-3.9270395671
 20
-11.9199157328
 10
-3.9151547462
 20
-11.9262094276
 10
-3.9033209948
 20
-11.9323890404
  0
LINE
  5
22F
100
AcDbEntity
  8
0
100
AcDbLine
 62
253
  6
CONTINUOUS
 10
-3.9872123704
 20
-11.8868727188
 11
-3.9629953578
 21
-11.9003891269
  0
LINE
  5
230
100
AcDbEntity
  8
0
100
AcDbLine
 62
253
  6
CONTINUOUS
 10
-4.0116242544
 20
-11.8729952684
 11
-3.9872123704
 21
-11.8868727188
  0
LINE
  5
231
100
AcDbEntity
  8
0
100
AcDbLine
 62
253
  6
CONTINUOUS
 10
-4.0359264984
 20
-11.8589635594
 11
-4.0116242544
 21
-11.8729952684
  0
LINE
  5
232
100
AcDbEntity
  8
0
100
AcDbLine
 62
253
  6
CONTINUOUS
 10
-4.0598422208
 20
-11.8449378488
 11
-4.0359264984
 21
-11.8589635594
  0
LINE
  5
233
100
AcDbEntity
  8
0
100
AcDbLine
 62
253
  6
CONTINUOUS
 10
-4.0835850203
 20
-11.8307634761
 11
-4.0598422208
 21
-11.8449378488
  0
LINE
  5
234
100
AcDbEntity
  8
0
100
AcDbLine
 62
253
  6
CONTINUOUS
 10
-4.1032403728
 20
-11.8188136086
 11
-4.0835850203
 21
-11.8307634761
  0
LWPOLYLINE
  5
235
100
AcDbEntity
  8
0
100
AcDbPolyline
 62
253
  6
CONTINUOUS
 90
4
 70
0
 10
-4.1421958075
 20
-11.7944657174
 10
-4.1325014436
 20
-11.8006139125
 10
-4.1227773936
 20
-11.8067199054
 10
-4.1032403728
 20
-11.8188136086
  0
LINE
  5
236
100
AcDbEntity
  8
ASSI
100
AcDbLine
 62
253
  6
CONTINUOUS
 10
-10.2844697996
 20
-8.4891564092
 11
-10.3244968818
 21
-7.8044628375
  0
LWPOLYLINE
  5
237
100
AcDbEntity
  8
ASSI
100
AcDbPolyline
 62
253
  6
CONTINUOUS
 90
28
 70
0
 10
-10.579921666
 20
-4.4735302778
 10
-10.5794700162
 20
-4.4818928791
 10
-10.5786143668
 20
-4.4902402995
 10
-10.57735541
 20
-4.4985657866
 10
-10.5756941642
 20
-4.5068626057
 10
-10.5736319731
 20
-4.5151240454
 10
-10.571170505
 20
-4.5233434228
 10
-10.568311751
 20
-4.531514089
 10
-10.5650580236
 20
-4.5396294346
 10
-10.5614119547
 20
-4.5476828949
 10
-10.5573764939
 20
-4.5556679554
 10
-10.5529549054
 20
-4.5635781566
 10
-10.548150766
 20
-4.5714070999
 10
-10.5429679619
 20
-4.5791484523
 10
-10.5374106855
 20
-4.5867959516
 10
-10.5314834323
 20
-4.5943434115
 10
-10.5251909969
 20
-4.6017847268
 10
-10.5185384694
 20
-4.6091138781
 10
-10.5115312313
 20
-4.6163249365
 10
-10.5041749507
 20
-4.623412069
 10
-10.4964755785
 20
-4.6303695425
 10
-10.4884393427
 20
-4.6371917291
 10
-10.4800727441
 20
-4.64387311
 10
-10.4713825506
 20
-4.6504082807
 10
-10.4623757919
 20
-4.6567919546
 10
-10.4530597537
 20
-4.6630189678
 10
-10.4434419721
 20
-4.6690842832
 10
-10.433530227
 20
-4.6749829944
  0
LINE
  5
238
100
AcDbEntity
  8
ASSI
100
AcDbLine
 62
253
  6
CONTINUOUS
 10
-10.3244968818
 20
-7.8044628375
 11
-10.3587827856
 21
-7.115785989
  0
LINE
  5
239
100
AcDbEntity
  8
ASSI
100
AcDbLine
 62
253
  6
CONTINUOUS
 10
-10.3587827856
 20
-7.115785989
 11
-10.3873243116
 21
-6.4231903504
  0
LINE
  5
23A
100
AcDbEntity
  8
ASSI
100
AcDbLine
 62
253
  6
CONTINUOUS
 10
-10.3873243116
 20
-6.4231903504
 11
-10.4101187694
 21
-5.7267407822
  0
LINE
  5
23B
100
AcDbEntity
  8
ASSI
100
AcDbLine
 62
253
  6
CONTINUOUS
 10
-10.4101187694
 20
-5.7267407822
 11
-10.4271640622
 21
-5.0265024506
  0
LWPOLYLINE
  5
23C
100
AcDbEntity
  8
ASSI
100
AcDbPolyline
 62
7
  6
CONTINUOUS
 90
10
 70
0
 10
-10.5799763466
 20
-4.4711452893
 10
-10.5578459558
 20
-5.4777904556
 10
-10.52148812
 20
-6.5356994875
 10
-10.4718473302
 20
-7.5847591067
 10
-10.4089312974
 20
-8.6247428787
 10
-10.3327503048
 20
-9.6554293528
 10
-10.2433169619
 20
-10.6766024998
 10
-10.1406466906
 20
-11.6880449513
 10
-10.0247579439
 20
-12.6895380126
 10
-9.903923514
 20
-13.6206910784
  0
LINE
  5
23D
100
AcDbEntity
  8
ASSI
100
AcDbLine
 62
253
  6
CONTINUOUS
 10
-10.4271640622
 20
-5.0265024506
 11
-10.4459467917
 21
-3.856999197
  0
LWPOLYLINE
  5
23E
100
AcDbEntity
  8
ASSI
100
AcDbPolyline
 62
253
  6
CONTINUOUS
 90
4
 70
0
 10
-10.6414648328
 20
3.5718556377
 10
-10.6413886831
 20
3.566730404
 10
-10.640938265
 20
3.558561554
 10
-10.6400838097
 20
3.5504022885
  0
LWPOLYLINE
  5
23F
100
AcDbEntity
  8
ASSI
100
AcDbPolyline
 62
253
  6
CONTINUOUS
 90
24
 70
0
 10
-10.4950179094
 20
3.3681819497
 10
-10.4949161897
 20
3.3611529386
 10
-10.4946013867
 20
3.3542553115
 10
-10.4940738802
 20
3.3474973876
 10
-10.4933343064
 20
3.3408873174
 10
-10.4923835571
 20
3.3344330731
 10
-10.4912227792
 20
3.3281424392
 10
-10.4898533727
 20
3.3220230024
 10
-10.488276989
 20
3.3160821434
 10
-10.4864955294
 20
3.3103270272
 10
-10.4845111426
 20
3.304764595
 10
-10.4823262218
 20
3.2994015555
 10
-10.4799434022
 20
3.2942443769
 10
-10.4773655577
 20
3.2892992791
 10
-10.4745957974
 20
3.2845722263
 10
-10.4716374617
 20
3.2800689197
 10
-10.4684941187
 20
3.2757947906
 10
-10.4651695595
 20
3.271754994
 10
-10.4616677937
 20
3.267954402
 10
-10.4579930448
 20
3.2643975986
 10
-10.4541497447
 20
3.2610888736
 10
-10.4501425287
 20
3.2580322173
 10
-10.44597623
 20
3.2552313166
 10
-10.4435382699
 20
3.2537540994
  0
LINE
  5
240
100
AcDbEntity
  8
ASSI
100
AcDbLine
 62
7
  6
CONTINUOUS
 10
-10.6029442022
 20
-2.8713587189
 11
-10.5799763424
 21
-4.4711455561
  0
LINE
  5
241
100
AcDbEntity
  8
ASSI
100
AcDbLine
 62
253
  6
CONTINUOUS
 10
-10.4459467917
 20
-3.856999197
 11
-10.4665915553
 21
-2.2183690779
  0
LINE
  5
242
100
AcDbEntity
  8
ASSI
100
AcDbLine
 62
7
  6
CONTINUOUS
 10
-10.6211837016
 20
-1.2027373613
 11
-10.6029442022
 21
-2.8713587189
  0
LINE
  5
243
100
AcDbEntity
  8
ASSI
100
AcDbLine
 62
253
  6
CONTINUOUS
 10
-10.4665915553
 20
-2.2183690779
 11
-10.4816517481
 21
-0.5762165503
  0
LWPOLYLINE
  5
244
100
AcDbEntity
  8
ASSI
100
AcDbPolyline
 62
253
  6
CONTINUOUS
 90
29
 70
0
 10
-10.5799788266
 20
11.042159324
 10
-10.5799216659
 20
11.0346748377
 10
-10.5794700161
 20
11.0266254169
 10
-10.5786143667
 20
11.0185822012
 10
-10.5773554099
 20
11.010551697
 10
-10.5756941641
 20
11.0025404003
 10
-10.573631973
 20
10.9945547915
 10
-10.5711705049
 20
10.9866013306
 10
-10.5683117509
 20
10.9786864511
 10
-10.5650580235
 20
10.9708165556
 10
-10.5614119546
 20
10.9629980102
 10
-10.5573764938
 20
10.9552371396
 10
-10.5529549053
 20
10.9475402217
 10
-10.5481507659
 20
10.9399134827
 10
-10.5429679618
 20
10.9323630919
 10
-10.5374106854
 20
10.9248951572
 10
-10.5314834322
 20
10.9175157195
 10
-10.5251909968
 20
10.9102307481
 10
-10.5185384693
 20
10.9030461361
 10
-10.5115312312
 20
10.8959676953
 10
-10.5041749506
 20
10.8890011515
 10
-10.4964755784
 20
10.8821521402
 10
-10.4884393426
 20
10.8754262016
 10
-10.480072744
 20
10.8688287766
 10
-10.4713825505
 20
10.8623652019
 10
-10.4623757918
 20
10.856040706
 10
-10.4530597537
 20
10.8498604051
 10
-10.443441972
 20
10.8438292984
 10
-10.4335302269
 20
10.8379522647
  0
LINE
  5
245
100
AcDbEntity
  8
ASSI
100
AcDbLine
 62
7
  6
CONTINUOUS
 10
-10.6336448215
 20
0.4695265114
 11
-10.6211837016
 21
-1.2027373613
  0
LINE
  5
246
100
AcDbEntity
  8
ASSI
100
AcDbLine
 62
253
  6
CONTINUOUS
 10
-10.4816517481
 20
-0.5762165503
 11
-10.491126902
 21
1.0694624908
  0
LWPOLYLINE
  5
247
100
AcDbEntity
  8
ASSI
100
AcDbPolyline
 62
7
  6
CONTINUOUS
 90
3
 70
0
 10
-10.641464832
 20
2.9232489526
 10
-10.6403274304
 20
2.1454064235
 10
-10.6336448215
 20
0.4695265114
  0
LINE
  5
248
100
AcDbEntity
  8
ASSI
100
AcDbLine
 62
253
  6
CONTINUOUS
 10
-10.491126902
 20
1.0694624908
 11
-10.4950166151
 21
2.7186489638
  0
LINE
  5
249
100
AcDbEntity
  8
ASSI
100
AcDbLine
 62
7
  6
CONTINUOUS
 10
-10.6377301178
 20
5.187266611
 11
-10.6414648328
 21
3.5718556323
  0
LINE
  5
24A
100
AcDbEntity
  8
ASSI
100
AcDbLine
 62
253
  6
CONTINUOUS
 10
-10.4950166151
 20
3.3681812024
 11
-10.491126902
 21
5.0221865567
  0
LINE
  5
24B
100
AcDbEntity
  8
ASSI
100
AcDbLine
 62
7
  6
CONTINUOUS
 10
-10.6281771951
 20
6.8731465093
 11
-10.6377301178
 21
5.187266611
  0
LINE
  5
24C
100
AcDbEntity
  8
ASSI
100
AcDbLine
 62
253
  6
CONTINUOUS
 10
-10.491126902
 20
5.0221865567
 11
-10.4816517481
 21
6.6795991931
  0
LINE
  5
24D
100
AcDbEntity
  8
ASSI
100
AcDbLine
 62
7
  6
CONTINUOUS
 10
-10.6128461371
 20
8.5625316396
 11
-10.6281771951
 21
6.8731465093
  0
LINE
  5
24E
100
AcDbEntity
  8
ASSI
100
AcDbLine
 62
253
  6
CONTINUOUS
 10
-10.4816517481
 20
6.6795991931
 11
-10.4665915553
 21
8.3403998967
  0
LINE
  5
24F
100
AcDbEntity
  8
ASSI
100
AcDbLine
 62
253
  6
CONTINUOUS
 10
-10.4665915553
 20
8.3403998967
 11
-10.4459467917
 21
10.0045935551
  0
LWPOLYLINE
  5
250
100
AcDbEntity
  8
ASSI
100
AcDbPolyline
 62
253
  6
CONTINUOUS
 90
46
 70
0
 10
-10.4950179094
 20
2.7186497111
 10
-10.4949161897
 20
2.7257961858
 10
-10.4946013867
 20
2.7330573396
 10
-10.4940738802
 20
2.740424415
 10
-10.4933343063
 20
2.7478885267
 10
-10.492383557
 20
2.7554406726
 10
-10.4912227791
 20
2.763071744
 10
-10.4898533724
 20
2.7707725374
 10
-10.4882769887
 20
2.778533765
 10
-10.486495529
 20
2.7863460662
 10
-10.4845111421
 20
2.7942000188
 10
-10.4823262212
 20
2.8020861502
 10
-10.4799434015
 20
2.8099949494
 10
-10.4773655569
 20
2.8179168775
 10
-10.4745957965
 20
2.8258423803
 10
-10.4716374607
 20
2.8337618989
 10
-10.4684941176
 20
2.8416658818
 10
-10.4651695582
 20
2.8495447962
 10
-10.4616677923
 20
2.8573891396
 10
-10.4579930433
 20
2.865189451
 10
-10.4541497431
 20
2.8729363227
 10
-10.4501425271
 20
2.8806204115
 10
-10.4459762282
 20
2.8882324497
 10
-10.4416558714
 20
2.8957632566
 10
-10.4371866673
 20
2.9032037495
 10
-10.4325740062
 20
2.9105449546
 10
-10.4278234511
 20
2.9177780179
 10
-10.4229407318
 20
2.9248942157
 10
-10.417931737
 20
2.9318849654
 10
-10.4128025081
 20
2.9387418357
 10
-10.4075592312
 20
2.9454565565
 10
-10.4022082301
 20
2.9520210295
 10
-10.3967559586
 20
2.9584273374
 10
-10.3912089925
 20
2.9646677538
 10
-10.3855740218
 20
2.9707347521
 10
-10.3798578428
 20
2.9766210152
 10
-10.3740673496
 20
2.9823194438
 10
-10.368209526
 20
2.9878231651
 10
-10.3622914369
 20
2.9931255413
 10
-10.35632022
 20
2.9982201773
 10
-10.3503030771
 20
3.0031009285
 10
-10.3442472652
 20
3.0077619085
 10
-10.3381600882
 20
3.0121974957
 10
-10.3320488876
 20
3.0164023405
 10
-10.325921034
 20
3.0203713716
 10
-10.319783918
 20
3.0240998019
  0
LWPOLYLINE
  5
251
100
AcDbEntity
  8
ASSI
100
AcDbPolyline
 62
7
  6
CONTINUOUS
 90
3
 70
0
 10
-10.579978823
 20
11.0421595599
 10
-10.5917372626
 20
10.2553949524
 10
-10.6128461371
 20
8.5625316396
  0
LINE
  5
252
100
AcDbEntity
  8
ASSI
100
AcDbLine
 62
253
  6
CONTINUOUS
 10
-10.4459467917
 20
10.0045935551
 11
-10.4271640622
 21
11.197352195
  0
LINE
  5
253
100
AcDbEntity
  8
ASSI
100
AcDbLine
 62
253
  6
CONTINUOUS
 10
-10.4271640622
 20
11.197352195
 11
-10.4101187694
 21
11.918690242
  0
LINE
  5
254
100
AcDbEntity
  8
ASSI
100
AcDbLine
 62
253
  6
CONTINUOUS
 10
-10.4101187694
 20
11.918690242
 11
-10.3873243116
 21
12.6433562511
  0
LINE
  5
255
100
AcDbEntity
  8
ASSI
100
AcDbLine
 62
253
  6
CONTINUOUS
 10
-10.3873243116
 20
12.6433562511
 11
-10.3587827856
 21
13.3712823847
  0
LINE
  5
256
100
AcDbEntity
  8
ASSI
100
AcDbLine
 62
253
  6
CONTINUOUS
 10
-10.3587827856
 20
13.3712823847
 11
-10.3244968818
 21
14.1024005092
  0
LINE
  5
257
100
AcDbEntity
  8
ASSI
100
AcDbLine
 62
253
  6
CONTINUOUS
 10
-10.3244968818
 20
14.1024005092
 11
-10.2844697996
 21
14.8366421648
  0
LINE
  5
258
100
AcDbEntity
  8
ASSI
100
AcDbLine
 62
253
  6
CONTINUOUS
 10
-10.2844697996
 20
14.8366421648
 11
-10.2387052522
 21
15.5739386338
  0
LINE
  5
259
100
AcDbEntity
  8
ASSI
100
AcDbLine
 62
253
  6
CONTINUOUS
 10
-10.2387052522
 20
15.5739386338
 11
-10.187207554
 21
16.3142209373
  0
LINE
  5
25A
100
AcDbEntity
  8
ASSI
100
AcDbLine
 62
253
  6
CONTINUOUS
 10
-10.187207554
 20
16.3142209373
 11
-10.1299815008
 21
17.057419825
  0
LINE
  5
25B
100
AcDbEntity
  8
ASSI
100
AcDbLine
 62
253
  6
CONTINUOUS
 10
-10.1299815008
 20
17.057419825
 11
-10.0670324049
 21
17.803465732
  0
LWPOLYLINE
  5
25C
100
AcDbEntity
  8
ASSI
100
AcDbPolyline
 62
253
  6
CONTINUOUS
 90
31
 70
0
 10
-9.9051957136
 20
21.0133500088
 10
-9.905653613
 20
21.0083370772
 10
-9.9059283456
 20
21.0014731698
 10
-9.9058005197
 20
20.9945722287
 10
-9.9052702389
 20
20.9876398391
 10
-9.9043379323
 20
20.9806816115
 10
-9.9030043544
 20
20.9737031774
 10
-9.9012705846
 20
20.9667101846
 10
-9.899138026
 20
20.9597082927
 10
-9.8966084046
 20
20.9527031686
 10
-9.8936837676
 20
20.9457004817
 10
-9.890366482
 20
20.9387058994
 10
-9.8866592327
 20
20.9317250828
 10
-9.88256502
 20
20.9247636814
 10
-9.8780871574
 20
20.9178273294
 10
-9.873229269
 20
20.9109216405
 10
-9.8679952864
 20
20.9040522038
 10
-9.8623894457
 20
20.8972245787
 10
-9.8564162837
 20
20.8904442912
 10
-9.8500806348
 20
20.8837168286
 10
-9.8433876264
 20
20.8770476358
 10
-9.8363426756
 20
20.8704421101
 10
-9.8289514838
 20
20.8639055978
 10
-9.8212200331
 20
20.8574433889
 10
-9.8131545807
 20
20.8510607134
 10
-9.8047616541
 20
20.8447627372
 10
-9.7960480461
 20
20.8385545572
 10
-9.7870208087
 20
20.8324411979
 10
-9.7776872479
 20
20.8264276071
 10
-9.7680549177
 20
20.8205186516
 10
-9.7581316137
 20
20.8147191139
  0
LINE
  5
25D
100
AcDbEntity
  8
ASSI
100
AcDbLine
 62
253
  6
CONTINUOUS
 10
-10.0670324049
 20
17.803465732
 11
-9.9983662014
 21
18.5522888518
  0
LINE
  5
25E
100
AcDbEntity
  8
ASSI
100
AcDbLine
 62
253
  6
CONTINUOUS
 10
-9.9983662014
 20
18.5522888518
 11
-9.9239892891
 21
19.3038190619
  0
LINE
  5
25F
100
AcDbEntity
  8
ASSI
100
AcDbLine
 62
253
  6
CONTINUOUS
 10
-9.9239892891
 20
19.3038190619
 11
-9.8439085419
 21
20.0579859841
  0
LINE
  5
260
100
AcDbEntity
  8
ASSI
100
AcDbLine
 62
253
  6
CONTINUOUS
 10
-9.8439085419
 20
20.0579859841
 11
-9.7581316197
 21
20.8147191114
  0
LWPOLYLINE
  5
261
100
AcDbEntity
  8
0
100
AcDbPolyline
 62
253
  6
CONTINUOUS
 90
29
 70
0
 10
-3.8484335715
 20
9.9291540477
 10
-3.8462874406
 20
9.9300503974
 10
-3.8441456857
 20
9.930918249
 10
-3.8420023398
 20
9.9317487544
 10
-3.8402831059
 20
9.9323803439
 10
-3.8385595678
 20
9.9329779606
 10
-3.8368322586
 20
9.9335371961
 10
-3.835101711
 20
9.9340536418
 10
-3.8333684579
 20
9.9345228892
 10
-3.8319223966
 20
9.9348748516
 10
-3.8304751263
 20
9.9351893707
 10
-3.8290269468
 20
9.9354648414
 10
-3.8275781579
 20
9.9356996585
 10
-3.8261290592
 20
9.9358922168
 10
-3.8246799505
 20
9.9360409111
 10
-3.8232308399
 20
9.9361442496
 10
-3.8217805685
 20
9.9362011934
 10
-3.8203276857
 20
9.9362108169
 10
-3.8188709466
 20
9.9361722418
 10
-3.8174099303
 20
9.9360847793
 10
-3.8159444214
 20
9.9359477881
 10
-3.8148423582
 20
9.9358119885
 10
-3.8137384325
 20
9.9356466946
 10
-3.8126334299
 20
9.9354506331
 10
-3.8115281361
 20
9.9352225306
 10
-3.8104229545
 20
9.9349608369
 10
-3.8093167598
 20
9.9346628957
 10
-3.8082080444
 20
9.9343257741
 10
-3.8070953009
 20
9.9339465393
  0
LWPOLYLINE
  5
262
100
AcDbEntity
  8
0
100
AcDbPolyline
 62
253
  6
CONTINUOUS
 90
4
 70
0
 10
-3.8594387043
 20
9.9245545033
 10
-3.8571811911
 20
9.9254606251
 10
-3.854957888
 20
9.9263824884
 10
-3.8484335715
 20
9.9291540477
  0
LWPOLYLINE
  5
263
100
AcDbEntity
  8
0
100
AcDbPolyline
 62
253
  6
CONTINUOUS
 90
29
 70
0
 10
-2.763586941
 20
-11.1316502345
 10
-2.7649023461
 20
-11.131242456
 10
-2.7662042484
 20
-11.1308887792
 10
-2.7674928791
 20
-11.1305871907
 10
-2.768768469
 20
-11.130335677
 10
-2.7700312491
 20
-11.1301322244
 10
-2.7712814505
 20
-11.1299748196
 10
-2.772519304
 20
-11.1298614489
 10
-2.7739482151
 20
-11.1297821171
 10
-2.7753612824
 20
-11.1297565786
 10
-2.7767591543
 20
-11.1297814315
 10
-2.7781424792
 20
-11.1298532744
 10
-2.7795119056
 20
-11.1299687055
 10
-2.7808680822
 20
-11.1301243233
 10
-2.7824792408
 20
-11.1303592597
 10
-2.7840753158
 20
-11.1306409175
 10
-2.7856593696
 20
-11.1309630474
 10
-2.7872344646
 20
-11.1313194005
 10
-2.7888036633
 20
-11.1317037276
 10
-2.7907609484
 20
-11.1322150449
 10
-2.7927162647
 20
-11.132754642
 10
-2.7946720713
 20
-11.1333168537
 10
-2.7966308274
 20
-11.1338960147
 10
-2.7992506076
 20
-11.1346876507
 10
-2.8018814344
 20
-11.1355030046
 10
-2.8045247392
 20
-11.1363457338
 10
-2.8071812144
 20
-11.1372184538
 10
-2.8098485953
 20
-11.1381196127
 10
-2.8125238784
 20
-11.1390466164
  0
LWPOLYLINE
  5
264
100
AcDbEntity
  8
0
100
AcDbPolyline
 62
253
  6
CONTINUOUS
 90
13
 70
0
 10
-4.2704339956
 20
-9.773356506
 10
-4.2626355182
 20
-9.7769188815
 10
-4.2547799677
 20
-9.7806067087
 10
-4.2468682564
 20
-9.7844137634
 10
-4.238901297
 20
-9.7883338217
 10
-4.230880002
 20
-9.7923606594
 10
-4.2228052837
 20
-9.7964880527
 10
-4.2146780548
 20
-9.8007097773
 10
-4.2064992277
 20
-9.8050196094
 10
-4.1982697149
 20
-9.8094113247
 10
-4.1876155206
 20
-9.8151695983
 10
-4.1768786847
 20
-9.8210485964
 10
-4.1660588437
 20
-9.8270439738
  0
LWPOLYLINE
  5
265
100
AcDbEntity
  8
0
100
AcDbPolyline
 62
253
  6
CONTINUOUS
 90
47
 70
0
 10
-4.3064279211
 20
-9.4135011923
 10
-4.3217707051
 20
-9.4058671155
 10
-4.3369740105
 20
-9.3988426143
 10
-4.3520433909
 20
-9.3924144796
 10
-4.3669844005
 20
-9.3865695026
 10
-4.381802593
 20
-9.3812944743
 10
-4.3965035224
 20
-9.3765761858
 10
-4.4110927426
 20
-9.372401428
 10
-4.4255726536
 20
-9.3687586041
 10
-4.43993304
 20
-9.3656425649
 10
-4.4541605324
 20
-9.3630497733
 10
-4.4682417614
 20
-9.3609766922
 10
-4.4821633576
 20
-9.3594197846
 10
-4.4959119517
 20
-9.3583755132
 10
-4.5094741743
 20
-9.3578403409
 10
-4.5250456194
 20
-9.3578545161
 10
-4.5403374112
 20
-9.3585501023
 10
-4.5553417661
 20
-9.3599203843
 10
-4.5700509002
 20
-9.361958647
 10
-4.5844570299
 20
-9.3646581751
 10
-4.5985523714
 20
-9.3680122536
 10
-4.6123283164
 20
-9.3720143509
 10
-4.625772958
 20
-9.3766586702
 10
-4.6388735649
 20
-9.3819395982
 10
-4.6516174056
 20
-9.3878515217
 10
-4.6639917488
 20
-9.3943888274
 10
-4.6759838629
 20
-9.4015459022
 10
-4.6875813311
 20
-9.4093183252
 10
-4.6987729944
 20
-9.4177064453
 10
-4.7095480083
 20
-9.4267118038
 10
-4.7198955283
 20
-9.4363359419
 10
-4.7298047099
 20
-9.4465804009
 10
-4.7392647088
 20
-9.457446722
 10
-4.7470064477
 20
-9.467255231
 10
-4.7543967886
 20
-9.4775131188
 10
-4.7614223124
 20
-9.4882117535
 10
-4.7680696005
 20
-9.4993425032
 10
-4.7743252338
 20
-9.5108967359
 10
-4.7801757935
 20
-9.5228658198
 10
-4.7856078609
 20
-9.5352411229
 10
-4.7906087896
 20
-9.5480176044
 10
-4.7951690244
 20
-9.5612045882
 10
-4.7992797826
 20
-9.5748149891
 10
-4.8029322817
 20
-9.5888617219
 10
-4.8061177389
 20
-9.6033577015
 10
-4.8088273718
 20
-9.6183158428
 10
-4.8110523975
 20
-9.6337490607
  0
LWPOLYLINE
  5
266
100
AcDbEntity
  8
0
100
AcDbPolyline
 62
253
  6
CONTINUOUS
 90
27
 70
0
 10
-2.0279921447
 20
-11.1576954746
 10
-2.0292474573
 20
-11.1570558436
 10
-2.0304968111
 20
-11.1564416461
 10
-2.031740297
 20
-11.1558529375
 10
-2.0329780061
 20
-11.1552897733
 10
-2.0342100291
 20
-11.1547522089
 10
-2.0354364571
 20
-11.1542402998
 10
-2.0366573811
 20
-11.1537541014
 10
-2.037872892
 20
-11.1532936692
 10
-2.0390830808
 20
-11.1528590585
 10
-2.0402880384
 20
-11.1524503248
 10
-2.0414878557
 20
-11.1520675235
 10
-2.0426826238
 20
-11.1517107101
 10
-2.0437027147
 20
-11.1514256736
 10
-2.0447189427
 20
-11.1511602695
 10
-2.0457310878
 20
-11.1509149962
 10
-2.04673893
 20
-11.1506903524
 10
-2.0477422493
 20
-11.1504868366
 10
-2.0487408257
 20
-11.1503049471
 10
-2.0497344391
 20
-11.1501451827
 10
-2.0507228696
 20
-11.1500080418
 10
-2.051705897
 20
-11.1498940229
 10
-2.0526833014
 20
-11.1498036245
 10
-2.0536548628
 20
-11.1497373452
 10
-2.0546203611
 20
-11.1496956834
 10
-2.0555795764
 20
-11.1496791378
 10
-2.0565322886
 20
-11.1496882067
  0
LWPOLYLINE
  5
267
100
AcDbEntity
  8
0
100
AcDbPolyline
 62
253
  6
CONTINUOUS
 90
8
 70
0
 10
-4.2259154822
 20
-9.4539241421
 10
-4.2396987831
 20
-9.446636041
 10
-4.2533393293
 20
-9.4395283885
 10
-4.2641488465
 20
-9.4339842643
 10
-4.2748648776
 20
-9.4285871071
 10
-4.2854850092
 20
-9.4233592923
 10
-4.2960068281
 20
-9.4183231955
 10
-4.3064279211
 20
-9.4135011923
  0
LINE
  5
268
100
AcDbEntity
  8
0
100
AcDbLine
 62
253
  6
CONTINUOUS
 10
-4.1979188037
 20
-9.4689847883
 11
-4.2259154822
 21
-9.4539241421
  0
LINE
  5
269
100
AcDbEntity
  8
0
100
AcDbLine
 62
253
  6
CONTINUOUS
 10
-4.1660588437
 20
-9.8270439738
 11
-4.1441686926
 21
-9.839366487
  0
LINE
  5
26A
100
AcDbEntity
  8
0
100
AcDbLine
 62
253
  6
CONTINUOUS
 10
-4.1441686926
 20
-9.839366487
 11
-4.1219421593
 21
-9.8521023777
  0
LINE
  5
26B
100
AcDbEntity
  8
0
100
AcDbLine
 62
253
  6
CONTINUOUS
 10
-2.4644742317
 20
-11.3013640146
 11
-2.7385217142
 21
-11.1431324329
  0
LINE
  5
26C
100
AcDbEntity
  8
0
100
AcDbLine
 62
253
  6
CONTINUOUS
 10
-2.7083206228
 20
-11.8113561362
 11
-2.4180340103
 21
-11.9799146823
  0
LINE
  5
26D
100
AcDbEntity
  8
0
100
AcDbLine
 62
253
  6
CONTINUOUS
 10
-4.1219421593
 20
-9.8521023777
 11
-4.099379209
 21
-9.8652185073
  0
LWPOLYLINE
  5
26E
100
AcDbEntity
  8
0
100
AcDbPolyline
 62
253
  6
CONTINUOUS
 90
39
 70
0
 10
-1.3039568117
 20
-12.7910602389
 10
-1.3073474464
 20
-12.7890549786
 10
-1.3107134875
 20
-12.786970392
 10
-1.3140588487
 20
-12.7848065803
 10
-1.3173874438
 20
-12.7825636448
 10
-1.3207031865
 20
-12.7802416868
 10
-1.3240099907
 20
-12.7778408076
 10
-1.32731177
 20
-12.7753611085
 10
-1.3311615088
 20
-12.7723688065
 10
-1.3350087043
 20
-12.7692705091
 10
-1.3388523254
 20
-12.7660673658
 10
-1.3426913409
 20
-12.7627605259
 10
-1.3465247199
 20
-12.759351139
 10
-1.3503514312
 20
-12.7558403545
 10
-1.3541697015
 20
-12.7522300658
 10
-1.3579747883
 20
-12.7485251427
 10
-1.3617612068
 20
-12.7447311989
 10
-1.3655234723
 20
-12.7408538482
 10
-1.3692561
 20
-12.7368987044
 10
-1.3729536052
 20
-12.7328713813
 10
-1.3766105802
 20
-12.7287776932
 10
-1.3802219258
 20
-12.724624258
 10
-1.3837826198
 20
-12.7204178938
 10
-1.3872876402
 20
-12.7161654192
 10
-1.3907319648
 20
-12.7118736524
 10
-1.3941105715
 20
-12.7075494118
 10
-1.3974192128
 20
-12.7031985881
 10
-1.4006567396
 20
-12.6988233608
 10
-1.4038227775
 20
-12.6944249818
 10
-1.406916952
 20
-12.6900047031
 10
-1.4099388886
 20
-12.6855637763
 10
-1.4128882129
 20
-12.6811034536
 10
-1.4153584429
 20
-12.6772647743
 10
-1.417776705
 20
-12.6734072129
 10
-1.420144654
 20
-12.6695252175
 10
-1.422463945
 20
-12.6656132366
 10
-1.424736233
 20
-12.6616657182
 10
-1.4269631729
 20
-12.6576771107
 10
-1.4291464196
 20
-12.6536418624
  0
LWPOLYLINE
  5
26F
100
AcDbEntity
  8
0
100
AcDbPolyline
 62
253
  6
CONTINUOUS
 90
13
 70
0
 10
-4.099379209
 20
-9.8652185073
 10
-4.0770322981
 20
-9.8784241374
 10
-4.0659384562
 20
-9.8850787194
 10
-4.0548969428
 20
-9.8917775214
 10
-4.0439071973
 20
-9.8985278251
 10
-4.0343333253
 20
-9.9044820896
 10
-4.0247990633
 20
-9.9104849001
 10
-4.0153048155
 20
-9.9165397967
 10
-4.0058509862
 20
-9.9226503193
 10
-3.9964379795
 20
-9.928820008
 10
-3.9870661999
 20
-9.9350524028
 10
-3.9777360514
 20
-9.9413510436
 10
-3.9684479384
 20
-9.9477194706
  0
LWPOLYLINE
  5
270
100
AcDbEntity
  8
0
100
AcDbPolyline
 62
253
  6
CONTINUOUS
 90
50
 70
0
 10
-4.1988130664
 20
-11.4274777967
 10
-4.205470308
 20
-11.4231211118
 10
-4.2120835507
 20
-11.4185563387
 10
-4.218664144
 20
-11.4137800117
 10
-4.2252234373
 20
-11.4087886656
 10
-4.2317727804
 20
-11.4035788349
 10
-4.2383235226
 20
-11.398147054
 10
-4.2448843141
 20
-11.3924911766
 10
-4.2514530064
 20
-11.3866143324
 10
-4.2580247517
 20
-11.3805209698
 10
-4.2645947018
 20
-11.3742155376
 10
-4.271158009
 20
-11.3677024843
 10
-4.2777098252
 20
-11.3609862585
 10
-4.2842463691
 20
-11.3540700804
 10
-4.2907681259
 20
-11.3469522553
 10
-4.297276647
 20
-11.3396298603
 10
-4.3037704474
 20
-11.3321038611
 10
-4.3102358939
 20
-11.3243907784
 10
-4.3166563164
 20
-11.3165110216
 10
-4.3230181944
 20
-11.3084805106
 10
-4.3293206056
 20
-11.3002972075
 10
-4.3355657772
 20
-11.2919545846
 10
-4.3417559362
 20
-11.2834461143
 10
-4.3478933098
 20
-11.274765269
 10
-4.3539801252
 20
-11.2659055211
 10
-4.3600155355
 20
-11.2568645633
 10
-4.365986397
 20
-11.2476569688
 10
-4.3718764923
 20
-11.2383015312
 10
-4.3776696038
 20
-11.228817044
 10
-4.3833495137
 20
-11.2192223008
 10
-4.3889000046
 20
-11.2095360951
 10
-4.3943055733
 20
-11.1997777079
 10
-4.3995535754
 20
-11.1899683706
 10
-4.4046320806
 20
-11.1801298021
 10
-4.409529159
 20
-11.1702837213
 10
-4.4142328806
 20
-11.160451847
 10
-4.4187313152
 20
-11.1506558982
 10
-4.4230148626
 20
-11.1409129432
 10
-4.4270832421
 20
-11.1312214478
 10
-4.4309385026
 20
-11.1215752274
 10
-4.4345826931
 20
-11.1119680973
 10
-4.4380178626
 20
-11.1023938727
 10
-4.4412460602
 20
-11.0928463691
 10
-4.4438492793
 20
-11.084679558
 10
-4.4462994662
 20
-11.076525043
 10
-4.4485941445
 20
-11.0683800325
 10
-4.4507308377
 20
-11.0602417347
 10
-4.4527070692
 20
-11.0521073579
 10
-4.4545203626
 20
-11.0439741105
 10
-4.4561682414
 20
-11.0358392007
  0
LWPOLYLINE
  5
271
100
AcDbEntity
  8
0
100
AcDbPolyline
 62
253
  6
CONTINUOUS
 90
49
 70
0
 10
-3.9684479384
 20
-9.9477194706
 10
-3.9617354475
 20
-9.9521529268
 10
-3.9550721812
 20
-9.9567964002
 10
-3.948446656
 20
-9.9616534695
 10
-3.9418473883
 20
-9.9667277135
 10
-3.9352628948
 20
-9.9720227108
 10
-3.9286816918
 20
-9.9775420403
 10
-3.9220949898
 20
-9.9832879633
 10
-3.9155047742
 20
-9.9892574723
 10
-3.9089157246
 20
-9.9954462426
 10
-3.9023325202
 20
-10.0018499493
 10
-3.8957598405
 20
-10.0084642676
 10
-3.8892023648
 20
-10.0152848727
 10
-3.8826637183
 20
-10.0223086879
 10
-3.8761433088
 20
-10.0295376284
 10
-3.86963949
 20
-10.0369748578
 10
-3.8631537632
 20
-10.0446194231
 10
-3.8567002198
 20
-10.0524539073
 10
-3.850296099
 20
-10.0604567771
 10
-3.8439553968
 20
-10.0686111552
 10
-3.8376791372
 20
-10.0769187883
 10
-3.8314651013
 20
-10.0853860792
 10
-3.82531107
 20
-10.0940194306
 10
-3.8192148244
 20
-10.1028252453
 10
-3.8131741453
 20
-10.111809926
 10
-3.8071898299
 20
-10.1209756426
 10
-3.8012747396
 20
-10.1303076328
 10
-3.7954447516
 20
-10.1397869015
 10
-3.7897157435
 20
-10.1493944538
 10
-3.7841035927
 20
-10.1591112944
 10
-3.7786241765
 20
-10.1689184283
 10
-3.7732926511
 20
-10.1787963065
 10
-3.7681212871
 20
-10.1887231648
 10
-3.7631216341
 20
-10.198676685
 10
-3.7583052413
 20
-10.2086345491
 10
-3.7536836583
 20
-10.2185744388
 10
-3.7492684344
 20
-10.2284740363
 10
-3.7450688098
 20
-10.2383158334
 10
-3.7410847877
 20
-10.248101563
 10
-3.737314062
 20
-10.2578377682
 10
-3.7337543265
 20
-10.2675309918
 10
-3.7304032754
 20
-10.277187777
 10
-3.7272586024
 20
-10.2868146668
 10
-3.7243190273
 20
-10.2964178693
 10
-3.7215873731
 20
-10.3060022545
 10
-3.7190674884
 20
-10.3155723572
 10
-3.7167632219
 20
-10.3251327126
 10
-3.7146784225
 20
-10.3346878556
 10
-3.7128169387
 20
-10.3442423213
  0
LWPOLYLINE
  5
272
100
AcDbEntity
  8
0
100
AcDbPolyline
 62
253
  6
CONTINUOUS
 90
24
 70
0
 10
-2.4180340103
 20
-11.9799146823
 10
-2.415450012
 20
-11.9817239408
 10
-2.4128702818
 20
-11.9835783586
 10
-2.4102947608
 20
-11.9854776698
 10
-2.4077233903
 20
-11.9874216086
 10
-2.4051561116
 20
-11.989409909
 10
-2.4025928659
 20
-11.9914423053
 10
-2.4000335945
 20
-11.9935185315
 10
-2.3974782387
 20
-11.9956383218
 10
-2.3949267396
 20
-11.9978014103
 10
-2.3923790386
 20
-12.0000075312
 10
-2.389835077
 20
-12.0022564185
 10
-2.3875063736
 20
-12.0043553181
 10
-2.3851808787
 20
-12.00649019
 10
-2.3828587077
 20
-12.0086612942
 10
-2.3805399763
 20
-12.0108688908
 10
-2.3782248003
 20
-12.0131132398
 10
-2.3759132952
 20
-12.0153946011
 10
-2.3736055767
 20
-12.0177132348
 10
-2.3713017605
 20
-12.0200694008
 10
-2.3690019621
 20
-12.0224633593
 10
-2.3667062973
 20
-12.0248953701
 10
-2.3644148817
 20
-12.0273656934
 10
-2.3621278309
 20
-12.0298745891
  0
LWPOLYLINE
  5
273
100
AcDbEntity
  8
0
100
AcDbPolyline
 62
253
  6
CONTINUOUS
 90
26
 70
0
 10
-1.960359183
 20
-12.6329185736
 10
-1.9589534494
 20
-12.6339180823
 10
-1.9575595128
 20
-12.6348941626
 10
-1.9561772723
 20
-12.6358464384
 10
-1.9548066272
 20
-12.6367745335
 10
-1.9534474768
 20
-12.6376780718
 10
-1.9520997203
 20
-12.6385566772
 10
-1.9507632569
 20
-12.6394099735
 10
-1.9494379859
 20
-12.6402375847
 10
-1.9481238064
 20
-12.6410391345
 10
-1.9468206178
 20
-12.6418142469
 10
-1.9455283193
 20
-12.6425625458
 10
-1.9442468101
 20
-12.6432836549
 10
-1.9430734053
 20
-12.6439248196
 10
-1.9419092544
 20
-12.6445421023
 10
-1.9407545039
 20
-12.6451351091
 10
-1.9396093003
 20
-12.645703446
 10
-1.93847379
 20
-12.6462467191
 10
-1.9373481197
 20
-12.6467645344
 10
-1.9362324357
 20
-12.647256498
 10
-1.9351268846
 20
-12.647722216
 10
-1.9340316128
 20
-12.6481612944
 10
-1.9329467669
 20
-12.6485733393
 10
-1.9318724933
 20
-12.6489579566
 10
-1.9308089386
 20
-12.6493147526
 10
-1.9297562492
 20
-12.6496433332
  0
LINE
  5
274
100
AcDbEntity
  8
0
100
AcDbLine
 62
253
  6
CONTINUOUS
 10
-2.7432203763
 20
-11.7848246619
 11
-2.7420038416
 21
-11.7860404186
  0
LWPOLYLINE
  5
275
100
AcDbEntity
  8
ASSI
100
AcDbPolyline
 62
7
  6
CONTINUOUS
 90
5
 70
0
 10
-9.9038293769
 20
-13.621371778
 10
-9.8946247871
 20
-13.6755245052
 10
-9.8720825693
 20
-13.7619771233
 10
-9.8412212294
 20
-13.8422889194
 10
-9.8030136947
 20
-13.9155634763
  0
LWPOLYLINE
  5
276
100
AcDbEntity
  8
ASSI
100
AcDbPolyline
 62
253
  6
CONTINUOUS
 90
26
 70
0
 10
-9.903829383
 20
-13.6213717788
 10
-9.9030043604
 20
-13.6267744186
 10
-9.9012705906
 20
-13.6360077001
 10
-9.8991380321
 20
-13.6451737866
 10
-9.8966084107
 20
-13.6542652597
 10
-9.8936837738
 20
-13.6632747615
 10
-9.8903664884
 20
-13.6721950004
 10
-9.8866592391
 20
-13.681018757
 10
-9.8825650264
 20
-13.6897388899
 10
-9.8780871639
 20
-13.6983483417
 10
-9.8732292755
 20
-13.7068401446
 10
-9.8679952929
 20
-13.715207426
 10
-9.8623894522
 20
-13.7234434138
 10
-9.8564162902
 20
-13.7315414427
 10
-9.8500806413
 20
-13.7394949585
 10
-9.843387633
 20
-13.7472975243
 10
-9.8363426821
 20
-13.7549428253
 10
-9.8289514903
 20
-13.7624246739
 10
-9.8212200396
 20
-13.7697370149
 10
-9.8131545871
 20
-13.7768739302
 10
-9.8047616605
 20
-13.7838296437
 10
-9.7960480524
 20
-13.790598526
 10
-9.7870208149
 20
-13.7971750987
 10
-9.777687254
 20
-13.8035540394
 10
-9.7680549237
 20
-13.8097301854
 10
-9.7581316196
 20
-13.8156985381
  0
LINE
  5
277
100
AcDbEntity
  8
ASSI
100
AcDbLine
 62
7
  6
CONTINUOUS
 10
-9.903923514
 20
-13.6206910784
 11
-9.903829383
 21
-13.6213717788
  0
LWPOLYLINE
  5
278
100
AcDbEntity
  8
ASSI
100
AcDbPolyline
 62
253
  6
CONTINUOUS
 90
17
 70
0
 10
-9.7581316197
 20
-13.8156985381
 10
-9.8017315923
 20
-13.4909865624
 10
-9.8439085419
 20
-13.1651456427
 10
-9.8846614472
 20
-12.8381834291
 10
-9.9239892891
 20
-12.5101076181
 10
-9.9618911475
 20
-12.1809258895
 10
-9.9983662014
 20
-11.8506459054
 10
-10.0334135713
 20
-11.5192754132
 10
-10.0670324049
 20
-11.1868221922
 10
-10.0992219734
 20
-10.8532939901
 10
-10.1299815008
 20
-10.518698633
 10
-10.1593102393
 20
-10.1830439687
 10
-10.187207554
 20
-9.846337814
 10
-10.213672773
 20
-9.5085880658
 10
-10.2387052522
 20
-9.1698026448
 10
-10.2623044503
 20
-8.8299894382
 10
-10.2844697996
 20
-8.4891564092
  0
LWPOLYLINE
  5
279
100
AcDbEntity
  8
ASSI
100
AcDbPolyline
 62
7
  6
CONTINUOUS
 90
5
 70
0
 10
-10.6414647493
 20
3.5719170819
 10
-10.6377809978
 20
3.5222954225
 10
-10.6273730094
 20
3.4757578483
 10
-10.6102269002
 20
3.4304218515
 10
-10.586446011
 20
3.3870595796
  0
LWPOLYLINE
  5
27A
100
AcDbEntity
  8
ASSI
100
AcDbPolyline
 62
7
  6
CONTINUOUS
 90
9
 70
0
 10
-10.4897737231
 20
3.2123977524
 10
-10.5256153717
 20
3.1821205458
 10
-10.5569645191
 20
3.1489713194
 10
-10.5836625832
 20
3.1132181456
 10
-10.6054660273
 20
3.0753031527
 10
-10.6220849415
 20
3.0360407313
 10
-10.6334887589
 20
2.9961961455
 10
-10.6398523164
 20
2.9562861725
 10
-10.6414644504
 20
2.9229962059
  0
LINE
  5
27B
100
AcDbEntity
  8
ASSI
100
AcDbLine
 62
7
  6
CONTINUOUS
 10
-10.4576000845
 20
3.2346118991
 11
-10.4897737231
 21
3.2123977524
  0
LWPOLYLINE
  5
27C
100
AcDbEntity
  8
0
100
AcDbPolyline
 62
253
  6
CONTINUOUS
 90
53
 70
0
 10
-2.0608288918
 20
9.5598168567
 10
-2.0574187338
 20
9.5620799545
 10
-2.0539359396
 20
9.5641376992
 10
-2.0503737272
 20
9.5659989283
 10
-2.0467253149
 20
9.5676724791
 10
-2.0429839207
 20
9.569167189
 10
-2.0391440086
 20
9.5704899128
 10
-2.0352050252
 20
9.5716395744
 10
-2.0311676628
 20
9.5726131155
 10
-2.0270326139
 20
9.5734074773
 10
-2.0228005708
 20
9.5740196014
 10
-2.0184730229
 20
9.5744463006
 10
-2.0140546473
 20
9.5746838739
 10
-2.0095509179
 20
9.5747284918
 10
-2.0049673088
 20
9.5745763246
 10
-2.000309294
 20
9.5742235429
 10
-1.9963763662
 20
9.5737741845
 10
-1.9924085745
 20
9.5731844535
 10
-1.9884189242
 20
9.5724559527
 10
-1.9844168042
 20
9.5715894197
 10
-1.9803971384
 20
9.5705821329
 10
-1.9763512342
 20
9.569430506
 10
-1.9714535218
 20
9.5678538813
 10
-1.9665159675
 20
9.5660634835
 10
-1.9615490296
 20
9.564058554
 10
-1.9565631667
 20
9.561838334
 10
-1.9515688374
 20
9.5594020649
 10
-1.9465764109
 20
9.5567509281
 10
-1.9415959002
 20
9.5538938656
 10
-1.9366372293
 20
9.5508417594
 10
-1.9317103221
 20
9.5476054917
 10
-1.9268251022
 20
9.5441959444
 10
-1.9227906868
 20
9.5412281586
 10
-1.9187834367
 20
9.5381420085
 10
-1.9147946764
 20
9.5349319056
 10
-1.9108195603
 20
9.5315953041
 10
-1.9068685637
 20
9.5281418267
 10
-1.9029559922
 20
9.5245841388
 10
-1.8983286451
 20
9.5201932776
 10
-1.8937832018
 20
9.5156810133
 10
-1.8893256337
 20
9.5110577679
 10
-1.8849619126
 20
9.5063339635
 10
-1.8806980099
 20
9.5015200222
 10
-1.8765388924
 20
9.4966251802
 10
-1.8724855071
 20
9.4916539315
 10
-1.8685377964
 20
9.4866095841
 10
-1.8646957025
 20
9.481495446
 10
-1.8609591677
 20
9.4763148255
 10
-1.8573270433
 20
9.4710678596
 10
-1.8537938174
 20
9.4657420025
 10
-1.8503528871
 20
9.4603215371
 10
-1.8469976496
 20
9.4547907466
 10
-1.843721502
 20
9.4491339141
  0
LWPOLYLINE
  5
27D
100
AcDbEntity
  8
0
100
AcDbPolyline
 62
253
  6
CONTINUOUS
 90
53
 70
0
 10
-1.6299679747
 20
9.8124340266
 10
-1.6264955309
 20
9.8145886478
 10
-1.6229535706
 20
9.8165381404
 10
-1.6193350986
 20
9.8182910379
 10
-1.6156331197
 20
9.8198558736
 10
-1.6118406386
 20
9.8212411809
 10
-1.6079519551
 20
9.8224535691
 10
-1.6039665494
 20
9.8234919509
 10
-1.5998851965
 20
9.8243533149
 10
-1.5957086715
 20
9.8250346496
 10
-1.5914377497
 20
9.8255329437
 10
-1.5870739989
 20
9.8258450805
 10
-1.5826221581
 20
9.8259675229
 10
-1.5780877592
 20
9.8258966287
 10
-1.573476334
 20
9.8256287554
 10
-1.5687934143
 20
9.8251602609
 10
-1.5648419794
 20
9.8246146311
 10
-1.5608576657
 20
9.8239290181
 10
-1.5568534018
 20
9.8231052885
 10
-1.5528385119
 20
9.8221443593
 10
-1.5488079028
 20
9.8210433494
 10
-1.544752877
 20
9.8197984281
 10
-1.5398466499
 20
9.8181101769
 10
-1.5349033896
 20
9.8162086239
 10
-1.5299337477
 20
9.814093216
 10
-1.5249483756
 20
9.8117633998
 10
-1.5199579246
 20
9.8092186223
 10
-1.5149728874
 20
9.8064602314
 10
-1.5100031208
 20
9.8034971802
 10
-1.5050583226
 20
9.8003403231
 10
-1.5001481909
 20
9.7970005142
 10
-1.4952824237
 20
9.793488608
 10
-1.4912661312
 20
9.7904363713
 10
-1.4872787596
 20
9.7872663474
 10
-1.4833116863
 20
9.7839727233
 10
-1.4793601081
 20
9.7805528211
 10
-1.4754344982
 20
9.7770165024
 10
-1.4715491487
 20
9.773376764
 10
-1.4669568579
 20
9.7688888774
 10
-1.4624489867
 20
9.7642813256
 10
-1.4580313987
 20
9.7595646526
 10
-1.4537099573
 20
9.7547494025
 10
-1.449490526
 20
9.7498461194
 10
-1.4453779674
 20
9.7448641303
 10
-1.4413731393
 20
9.7398078933
 10
-1.4374758985
 20
9.7346806497
 10
-1.4336861017
 20
9.7294856405
 10
-1.4300036059
 20
9.7242261069
 10
-1.4264272368
 20
9.718902121
 10
-1.422951697
 20
9.7135010781
 10
-1.4195706581
 20
9.7080072048
 10
-1.4162777917
 20
9.7024047275
 10
-1.4130667695
 20
9.6966778726
  0
LWPOLYLINE
  5
27E
100
AcDbEntity
  8
0
100
AcDbPolyline
 62
253
  6
CONTINUOUS
 90
52
 70
0
 10
-2.509396219
 20
8.6062645854
 10
-2.513050384
 20
8.6048217359
 10
-2.5165979959
 20
8.6031996913
 10
-2.5200500021
 20
8.6013982644
 10
-2.5234173498
 20
8.5994172682
 10
-2.5267086621
 20
8.597256326
 10
-2.5299232653
 20
8.5949143034
 10
-2.5330581611
 20
8.5923898766
 10
-2.5361103514
 20
8.5896817215
 10
-2.539076838
 20
8.5867885144
 10
-2.541954091
 20
8.5837094343
 10
-2.5447364528
 20
8.5804456717
 10
-2.5474177339
 20
8.5769989202
 10
-2.5499917448
 20
8.5733708734
 10
-2.5524522963
 20
8.5695632248
 10
-2.5544111642
 20
8.5662557906
 10
-2.5562806259
 20
8.5628352716
 10
-2.5580543649
 20
8.5593121302
 10
-2.5597274725
 20
8.555693544
 10
-2.5613006707
 20
8.5519735498
 10
-2.5627760894
 20
8.5481428993
 10
-2.5644186691
 20
8.543390989
 10
-2.5659160771
 20
8.5384741834
 10
-2.5672608771
 20
8.5334002498
 10
-2.5684456327
 20
8.5281769555
 10
-2.5694629075
 20
8.5228120677
 10
-2.5703069244
 20
8.517314365
 10
-2.5709785423
 20
8.5116966713
 10
-2.5714802792
 20
8.5059728219
 10
-2.5718146531
 20
8.500156652
 10
-2.5719841821
 20
8.4942619967
 10
-2.5720012018
 20
8.4892967601
 10
-2.5719060639
 20
8.4842763263
 10
-2.5716993378
 20
8.479190394
 10
-2.5713817709
 20
8.4740336249
 10
-2.5709548234
 20
8.4688205321
 10
-2.5704201333
 20
8.4635705917
 10
-2.5696389426
 20
8.4572457262
 10
-2.5687098988
 20
8.4509071778
 10
-2.5676379394
 20
8.4445662784
 10
-2.5664280017
 20
8.4382343599
 10
-2.565085023
 20
8.4319227544
 10
-2.5636135687
 20
8.4256412223
 10
-2.5620167155
 20
8.4193932376
 10
-2.5602971682
 20
8.4131807028
 10
-2.5584576316
 20
8.4070055202
 10
-2.5565008104
 20
8.4008695924
 10
-2.5544274842
 20
8.3947720124
 10
-2.5522307319
 20
8.388700635
 10
-2.5499017072
 20
8.3826405057
 10
-2.5474315639
 20
8.3765766702
 10
-2.5448114557
 20
8.3704941738
  0
LWPOLYLINE
  5
27F
100
AcDbEntity
  8
0
100
AcDbPolyline
 62
253
  6
CONTINUOUS
 90
27
 70
0
 10
-3.0238567248
 20
8.3647748751
 10
-3.0304972077
 20
8.3623801646
 10
-3.032675446
 20
8.3616143391
 10
-3.0348423179
 20
8.3608767793
 10
-3.0370015799
 20
8.3601747211
 10
-3.0387258124
 20
8.3596433168
 10
-3.0404481664
 20
8.3591418808
 10
-3.0421692294
 20
8.3586730292
 10
-3.0438895886
 20
8.3582393781
 10
-3.0456098315
 20
8.3578435438
 10
-3.0473307082
 20
8.3574881162
 10
-3.0490536197
 20
8.3571755803
 10
-3.0507801298
 20
8.3569083947
 10
-3.0525118023
 20
8.3566890183
 10
-3.054250201
 20
8.3565199097
 10
-3.0559966108
 20
8.356403364
 10
-3.0577512027
 20
8.3563410209
 10
-3.0595138685
 20
8.3563343566
 10
-3.0612845004
 20
8.3563848469
 10
-3.0630629903
 20
8.356493968
 10
-3.0643381515
 20
8.3566089626
 10
-3.0656175874
 20
8.356757183
 10
-3.0669016185
 20
8.3569411885
 10
-3.0681905654
 20
8.3571635381
 10
-3.0694847485
 20
8.357426791
 10
-3.0707844884
 20
8.3577335063
 10
-3.0720901056
 20
8.3580862433
  0
LWPOLYLINE
  5
280
100
AcDbEntity
  8
ASSI
100
AcDbPolyline
 62
253
  6
CONTINUOUS
 90
55
 70
0
 10
5.7896585299
 20
12.1662228222
 10
5.7792349558
 20
12.1625025308
 10
5.768543838
 20
12.1589561294
 10
5.7575938291
 20
12.1555864882
 10
5.7463937913
 20
12.1523963342
 10
5.734952789
 20
12.1493882494
 10
5.7232800817
 20
12.1465646683
 10
5.7113851165
 20
12.1439278761
 10
5.6992775204
 20
12.1414800069
 10
5.6869670921
 20
12.1392230416
 10
5.6744637951
 20
12.1371588071
 10
5.6617777484
 20
12.1352889738
 10
5.6489192194
 20
12.1336150552
 10
5.6358986146
 20
12.132138406
 10
5.6227264721
 20
12.1308602211
 10
5.6094134524
 20
12.1297815353
 10
5.59597033
 20
12.1289032213
 10
5.582407985
 20
12.1282259901
 10
5.5687373936
 20
12.1277503898
 10
5.5549696198
 20
12.1274768053
 10
5.5411158063
 20
12.1274054581
 10
5.5271871652
 20
12.1275364057
 10
5.5131949695
 20
12.1278695424
 10
5.4991505434
 20
12.1284045984
 10
5.4850652534
 20
12.1291411407
 10
5.4709504992
 20
12.1300785733
 10
5.4568177041
 20
12.1312161374
 10
5.4426783063
 20
12.1325529124
 10
5.428543749
 20
12.1340878163
 10
5.4144254719
 20
12.135819607
 10
5.4003349011
 20
12.1377468829
 10
5.3862834407
 20
12.1398680841
 10
5.3722824627
 20
12.1421814939
 10
5.3583432986
 20
12.1446852401
 10
5.3444772297
 20
12.1473772962
 10
5.3306954781
 20
12.1502554836
 10
5.3170091979
 20
12.1533174727
 10
5.3034294657
 20
12.1565607855
 10
5.289967272
 20
12.1599827971
 10
5.276633512
 20
12.163580738
 10
5.2634389771
 20
12.1673516962
 10
5.250394346
 20
12.1712926197
 10
5.2375101761
 20
12.1754003192
 10
5.2247968949
 20
12.1796714701
 10
5.2122647916
 20
12.1841026157
 10
5.1999240088
 20
12.1886901697
 10
5.1877845341
 20
12.1934304193
 10
5.1758561924
 20
12.198319528
 10
5.1641486377
 20
12.2033535391
 10
5.1526713451
 20
12.2085283783
 10
5.1414336035
 20
12.2138398575
 10
5.1304445079
 20
12.219283678
 10
5.1197129522
 20
12.224855434
 10
5.1092476216
 20
12.230550616
 10
5.099056986
 20
12.2363646149
  0
LWPOLYLINE
  5
281
100
AcDbEntity
  8
0
100
AcDbPolyline
 62
253
  6
CONTINUOUS
 90
3
 70
0
 10
-3.0193040284
 20
8.3663800175
 10
-3.021595452
 20
8.3655814034
 10
-3.0238567248
 20
8.3647748751
  0
LWPOLYLINE
  5
282
100
AcDbEntity
  8
0
100
AcDbPolyline
 62
253
  6
CONTINUOUS
 90
39
 70
0
 10
-2.3315837685
 20
8.2128110758
 10
-2.3202290238
 20
8.2166106498
 10
-2.309101386
 20
8.2208248101
 10
-2.2982017708
 20
8.2254660321
 10
-2.2875310944
 20
8.2305467909
 10
-2.2770902728
 20
8.2360795619
 10
-2.2685669882
 20
8.2410432198
 10
-2.260211425
 20
8.2463290265
 10
-2.2520310474
 20
8.2519365702
 10
-2.2440333193
 20
8.257865439
 10
-2.2362257049
 20
8.264115221
 10
-2.228615668
 20
8.2706855044
 10
-2.2212094484
 20
8.2775745897
 10
-2.2140083881
 20
8.2847756267
 10
-2.2070126047
 20
8.2922804775
 10
-2.200222216
 20
8.3000810043
 10
-2.1936373395
 20
8.3081690692
 10
-2.187258093
 20
8.3165365344
 10
-2.1798750069
 20
8.3269357933
 10
-2.1727908754
 20
8.3377173108
 10
-2.1660083765
 20
8.3488727275
 10
-2.1595301882
 20
8.360393684
 10
-2.1533589885
 20
8.3722718211
 10
-2.1474977405
 20
8.3844991247
 10
-2.1419505477
 20
8.3970689626
 10
-2.1367217984
 20
8.4099750479
 10
-2.131815881
 20
8.4232110936
 10
-2.1272371839
 20
8.4367708128
 10
-2.1229904881
 20
8.4506472572
 10
-2.1190821439
 20
8.4648308327
 10
-2.1155188939
 20
8.4793112839
 10
-2.1123074812
 20
8.4940783553
 10
-2.1094546482
 20
8.5091217914
 10
-2.1073562255
 20
8.5218636202
 10
-2.105516351
 20
8.5347958258
 10
-2.1039398765
 20
8.5479239868
 10
-2.1026316538
 20
8.5612536818
 10
-2.1015965349
 20
8.5747904896
 10
-2.1008393716
 20
8.5885399886
  0
LINE
  5
283
100
AcDbEntity
  8
ASSI
100
AcDbLine
 62
253
  6
CONTINUOUS
 10
4.3750619647
 20
-13.2252785306
 11
-10.433530227
 21
-4.6749829944
  0
LWPOLYLINE
  5
284
100
AcDbEntity
  8
0
100
AcDbPolyline
 62
253
  6
CONTINUOUS
 90
16
 70
0
 10
-3.9548695833
 20
-9.6166809691
 10
-3.970990331
 20
-9.6055962211
 10
-3.9869890158
 20
-9.5948146427
 10
-4.0028656048
 20
-9.5843234636
 10
-4.0186200645
 20
-9.5741099139
 10
-4.034252362
 20
-9.5641612232
 10
-4.0497624641
 20
-9.5544646215
 10
-4.0651503375
 20
-9.5450073386
 10
-4.0804159492
 20
-9.5357766044
 10
-4.0955588515
 20
-9.5267605887
 10
-4.1105769388
 20
-9.5179512215
 10
-4.1254676911
 20
-9.5093413732
 10
-4.1402285885
 20
-9.5009239138
 10
-4.1548570419
 20
-9.4926909231
 10
-4.1693501854
 20
-9.4846313197
 10
-4.1979188037
 20
-9.4689847883
  0
LWPOLYLINE
  5
285
100
AcDbEntity
  8
0
100
AcDbPolyline
 62
253
  6
CONTINUOUS
 90
24
 70
0
 10
-1.9982364567
 20
-11.1760902511
 10
-1.9995063742
 20
-11.17505671
 10
-2.0007741408
 20
-11.1740486086
 10
-2.0020396728
 20
-11.1730656081
 10
-2.0033028866
 20
-11.1721073699
 10
-2.0045636984
 20
-11.1711735553
 10
-2.0058220245
 20
-11.1702638257
 10
-2.0070777814
 20
-11.1693778425
 10
-2.0083308853
 20
-11.1685152669
 10
-2.0095812526
 20
-11.1676757603
 10
-2.0108287995
 20
-11.1668589841
 10
-2.0120734424
 20
-11.1660645996
 10
-2.0133150976
 20
-11.1652922682
 10
-2.0146661553
 20
-11.1644745341
 10
-2.0160136326
 20
-11.1636825373
 10
-2.0173576042
 20
-11.1629161731
 10
-2.018698145
 20
-11.1621753368
 10
-2.0200353296
 20
-11.1614599239
 10
-2.0213692328
 20
-11.1607698296
 10
-2.0226999294
 20
-11.1601049492
 10
-2.0240274941
 20
-11.1594651782
 10
-2.0253520017
 20
-11.1588504119
 10
-2.026673527
 20
-11.1582605456
 10
-2.0279921447
 20
-11.1576954746
  0
LWPOLYLINE
  5
286
100
AcDbEntity
  8
0
100
AcDbPolyline
 62
253
  6
CONTINUOUS
 90
26
 70
0
 10
-1.9897029028
 20
-12.607200428
 10
-1.9886006051
 20
-12.608433172
 10
-1.9874946727
 20
-12.6096440543
 10
-1.9863853405
 20
-12.6108333898
 10
-1.9852728432
 20
-12.6120014932
 10
-1.9841574156
 20
-12.6131486791
 10
-1.9830392925
 20
-12.6142752625
 10
-1.9819187087
 20
-12.6153815579
 10
-1.980795899
 20
-12.6164678802
 10
-1.9796710981
 20
-12.617534544
 10
-1.9785445409
 20
-12.6185818642
 10
-1.9774164622
 20
-12.6196101555
 10
-1.9762870966
 20
-12.6206197327
 10
-1.9751566791
 20
-12.6216109104
 10
-1.9739310797
 20
-12.6226642612
 10
-1.9727044269
 20
-12.6236966262
 10
-1.9714766262
 20
-12.6247082443
 10
-1.9702475831
 20
-12.625699354
 10
-1.9690172032
 20
-12.6266701941
 10
-1.9677853922
 20
-12.6276210032
 10
-1.9665520555
 20
-12.6285520201
 10
-1.9653170988
 20
-12.6294634833
 10
-1.9640804276
 20
-12.6303556315
 10
-1.9628419475
 20
-12.6312287036
 10
-1.9616015642
 20
-12.632082938
 10
-1.960359183
 20
-12.6329185736
  0
LWPOLYLINE
  5
287
100
AcDbEntity
  8
0
100
AcDbPolyline
 62
253
  6
CONTINUOUS
 90
25
 70
0
 10
-2.7689283029
 20
-11.7550084839
 10
-2.7680670006
 20
-11.7562473249
 10
-2.7671984814
 20
-11.7574686237
 10
-2.7663233267
 20
-11.7586727185
 10
-2.7654421179
 20
-11.7598599475
 10
-2.7645554364
 20
-11.7610306492
 10
-2.7636638637
 20
-11.7621851617
 10
-2.7627679813
 20
-11.7633238233
 10
-2.7618683705
 20
-11.7644469724
 10
-2.7609656129
 20
-11.7655549472
 10
-2.7600602898
 20
-11.7666480861
 10
-2.7591529827
 20
-11.7677267272
 10
-2.758244273
 20
-11.768791209
 10
-2.7573347423
 20
-11.7698418696
 10
-2.7564249718
 20
-11.7708790473
 10
-2.7555155431
 20
-11.7719030805
 10
-2.7542767841
 20
-11.7732790106
 10
-2.7530398337
 20
-11.7746325449
 10
-2.7518047839
 20
-11.7759651007
 10
-2.7505717266
 20
-11.7772780956
 10
-2.7493407539
 20
-11.778572947
 10
-2.7481119577
 20
-11.7798510723
 10
-2.7468854298
 20
-11.781113889
 10
-2.7456612623
 20
-11.7823628145
 10
-2.7432203763
 20
-11.7848246619
  0
LWPOLYLINE
  5
288
100
AcDbEntity
  8
ASSI
100
AcDbPolyline
 62
253
  6
CONTINUOUS
 90
26
 70
0
 10
-10.6400838097
 20
3.5504022885
 10
-10.638826009
 20
3.5422591604
 10
-10.6371658816
 20
3.5341387806
 10
-10.6351047706
 20
3.5260477406
 10
-10.6326443422
 20
3.5179925358
 10
-10.6297865856
 20
3.5099796986
 10
-10.6265338128
 20
3.5020157359
 10
-10.6228886551
 20
3.4941070516
 10
-10.6188540589
 20
3.4862600551
 10
-10.6144332896
 20
3.4784811183
 10
-10.6096299302
 20
3.4707765118
 10
-10.6044478722
 20
3.4631524864
 10
-10.5988913052
 20
3.4556152206
 10
-10.5929647205
 20
3.4481707773
 10
-10.5866729163
 20
3.4408251919
 10
-10.5800209795
 20
3.4335844171
 10
-10.573014274
 20
3.426454271
 10
-10.5656584397
 20
3.4194405049
 10
-10.5579594484
 20
3.4125488296
 10
-10.5499235905
 20
3.4057848576
 10
-10.541557411
 20
3.3991540915
 10
-10.5328676474
 20
3.3926618703
 10
-10.5238612819
 20
3.3863133979
 10
-10.5145455817
 20
3.380113797
 10
-10.5049280995
 20
3.3740681014
 10
-10.4950166148
 20
3.3681812031
  0
LWPOLYLINE
  5
289
100
AcDbEntity
  8
0
100
AcDbPolyline
 62
253
  6
CONTINUOUS
 90
22
 70
0
 10
-3.8752883965
 20
9.9023568205
 10
-3.874568219
 20
9.9036868857
 10
-3.8738356908
 20
9.9050122644
 10
-3.8730896039
 20
9.9063318623
 10
-3.8723287506
 20
9.9076445849
 10
-3.8715519231
 20
9.9089493379
 10
-3.8707579135
 20
9.9102450271
 10
-3.8699455141
 20
9.9115305581
 10
-3.8691135171
 20
9.9128048365
 10
-3.8682607147
 20
9.914066768
 10
-3.8676067262
 20
9.9150043785
 10
-3.8669398067
 20
9.9159335032
 10
-3.8662594075
 20
9.9168532169
 10
-3.86556498
 20
9.9177625946
 10
-3.8648559755
 20
9.9186607111
 10
-3.8641318454
 20
9.9195466413
 10
-3.8633920411
 20
9.9204194601
 10
-3.862636014
 20
9.9212782423
 10
-3.8618632154
 20
9.9221220628
 10
-3.8610730966
 20
9.9229499966
 10
-3.8602651091
 20
9.9237611185
 10
-3.8594387043
 20
9.9245545033
  0
LWPOLYLINE
  5
28A
100
AcDbEntity
  8
0
100
AcDbPolyline
 62
253
  6
CONTINUOUS
 90
53
 70
0
 10
-2.503530106
 20
9.2982909248
 10
-2.5065040041
 20
9.2954557228
 10
-2.5093386497
 20
9.2924730181
 10
-2.5120434027
 20
9.2893383602
 10
-2.514627623
 20
9.2860472988
 10
-2.5171006703
 20
9.2825953835
 10
-2.5194698676
 20
9.2789788513
 10
-2.5217343896
 20
9.2751966892
 10
-2.5238913743
 20
9.2712485711
 10
-2.5259379597
 20
9.2671341714
 10
-2.5278712836
 20
9.2628531643
 10
-2.5296881287
 20
9.2584059819
 10
-2.5313838563
 20
9.253796088
 10
-2.5329534727
 20
9.2490277043
 10
-2.5343919839
 20
9.2441050527
 10
-2.5356943961
 20
9.2390323549
 10
-2.5366721209
 20
9.234695435
 10
-2.5375486663
 20
9.2302710983
 10
-2.5383208342
 20
9.2257731949
 10
-2.5389859378
 20
9.2212114717
 10
-2.5395433364
 20
9.2165792618
 10
-2.5399929004
 20
9.2118657951
 10
-2.5403891244
 20
9.2060921617
 10
-2.540625283
 20
9.2001970999
 10
-2.5406967785
 20
9.1941917
 10
-2.5405990135
 20
9.1880870526
 10
-2.5403273907
 20
9.181894248
 10
-2.5398789611
 20
9.1756248874
 10
-2.5392573713
 20
9.1692926137
 10
-2.5384679163
 20
9.1629115805
 10
-2.5375158913
 20
9.1564959413
 10
-2.5364065915
 20
9.1500598497
 10
-2.5353650698
 20
9.1446877781
 10
-2.534216362
 20
9.1393000253
 10
-2.5329588234
 20
9.1338852841
 10
-2.5315920026
 20
9.1284374863
 10
-2.5301202213
 20
9.122971519
 10
-2.5285489944
 20
9.1175075081
 10
-2.526539526
 20
9.1109775226
 10
-2.5244013697
 20
9.1044895615
 10
-2.5221410975
 20
9.0980538507
 10
-2.5197652817
 20
9.0916806161
 10
-2.5172804944
 20
9.0853800838
 10
-2.5146926725
 20
9.0791609636
 10
-2.512005212
 20
9.0730259009
 10
-2.5092208736
 20
9.0669760252
 10
-2.5063424179
 20
9.0610124656
 10
-2.5033726055
 20
9.0551363518
 10
-2.5003119516
 20
9.0493464884
 10
-2.4971519885
 20
9.0436323827
 10
-2.4938820032
 20
9.0379812173
 10
-2.4904912825
 20
9.0323801749
 10
-2.483303199
 20
9.0210335084
  0
LWPOLYLINE
  5
28B
100
AcDbEntity
  8
ASSI
100
AcDbPolyline
 62
253
  6
CONTINUOUS
 90
58
 70
0
 10
5.7728168294
 20
13.3056634983
 10
5.7555741733
 20
13.2947885655
 10
5.7383635981
 20
13.2834616105
 10
5.7211948592
 20
13.2716892705
 10
5.7040775513
 20
13.2594785562
 10
5.6870215131
 20
13.2468364978
 10
5.6700368224
 20
13.2337701335
 10
5.6531330505
 20
13.2202870524
 10
5.6363198362
 20
13.2063951664
 10
5.6196072899
 20
13.1921023562
 10
5.6030049244
 20
13.1774169923
 10
5.5865221081
 20
13.1623476174
 10
5.5701686396
 20
13.1469027122
 10
5.5539537759
 20
13.1310912631
 10
5.5378867193
 20
13.1149224995
 10
5.5219770692
 20
13.0984055809
 10
5.5062338483
 20
13.0815501246
 10
5.4906659724
 20
13.0643659463
 10
5.4752827379
 20
13.0468627963
 10
5.4600928677
 20
13.0290508567
 10
5.4451049636
 20
13.0109404933
 10
5.4303279754
 20
12.9925419978
 10
5.4157702911
 20
12.9738660769
 10
5.401440143
 20
12.9549235798
 10
5.3873460604
 20
12.9357252504
 10
5.3734960263
 20
12.9162822248
 10
5.3598978909
 20
12.8966058147
 10
5.3465597768
 20
12.8767072369
 10
5.3334892552
 20
12.8565980524
 10
5.3206937144
 20
12.8362899278
 10
5.3081807743
 20
12.8157944182
 10
5.2959575257
 20
12.7951234004
 10
5.2840308901
 20
12.7742888813
 10
5.2724079873
 20
12.7533027601
 10
5.2610954178
 20
12.7321772176
 10
5.2500995695
 20
12.7109244909
 10
5.2394269807
 20
12.6895566814
 10
5.2290836999
 20
12.668086154
 10
5.2190755817
 20
12.6465253668
 10
5.2094085944
 20
12.6248866468
 10
5.2000882234
 20
12.603182523
 10
5.1911197351
 20
12.5814255674
 10
5.1825084738
 20
12.5596282249
 10
5.1742593257
 20
12.5378031071
 10
5.1663769503
 20
12.515962851
 10
5.1588660438
 20
12.4941199591
 10
5.1517308757
 20
12.4722870807
 10
5.1449754662
 20
12.4504768318
 10
5.1386038217
 20
12.4287016531
 10
5.1326195496
 20
12.4069740838
 10
5.1270260423
 20
12.3853067369
 10
5.1218266536
 20
12.3637121189
 10
5.117024352
 20
12.3422027723
 10
5.1126218218
 20
12.3207910597
 10
5.1086216556
 20
12.2994891407
 10
5.1050261571
 20
12.2783092507
 10
5.1018373311
 20
12.2572636913
 10
5.0990569859
 20
12.2363646148
  0
LINE
  5
28C
100
AcDbEntity
  8
ASSI
100
AcDbLine
 62
7
  6
CONTINUOUS
 10
-10.457600092
 20
3.234611911
 11
-10.4388993596
 21
3.2463862291
  0
LWPOLYLINE
  5
28D
100
AcDbEntity
  8
ASSI
100
AcDbPolyline
 62
253
  6
CONTINUOUS
 90
8
 70
0
 10
-10.4575049565
 20
3.2346718948
 10
-10.4568787272
 20
3.2350625046
 10
-10.4524042742
 20
3.2376483881
 10
-10.4477738114
 20
3.2399729936
 10
-10.4429929781
 20
3.2420334899
 10
-10.4380675968
 20
3.2438273677
 10
-10.4330036658
 20
3.2453524423
 10
-10.4301722696
 20
3.2460359544
  0
LWPOLYLINE
  5
28E
100
AcDbEntity
  8
ASSI
100
AcDbPolyline
 62
253
  6
CONTINUOUS
 90
58
 70
0
 10
6.1323195642
 20
12.697534322
 10
6.1235440029
 20
12.692177911
 10
6.1147941295
 20
12.6866017605
 10
6.106069944
 20
12.6808058706
 10
6.0973662866
 20
12.6747865506
 10
6.0886883171
 20
12.6685474911
 10
6.0800515149
 20
12.6620997644
 10
6.0714560982
 20
12.6554430951
 10
6.0629018487
 20
12.6485777586
 10
6.0544035913
 20
12.6415156535
 10
6.045961441
 20
12.6342564525
 10
6.0375752827
 20
12.6268004827
 10
6.0292595957
 20
12.6191606248
 10
6.0210144942
 20
12.6113365541
 10
6.0128398641
 20
12.6033285951
 10
6.0047498419
 20
12.5951506014
 10
5.9967445749
 20
12.5868022789
 10
5.9888239158
 20
12.5782839216
 10
5.9810015594
 20
12.5696102654
 10
5.973277676
 20
12.5607810417
 10
5.9656520953
 20
12.5517965191
 10
5.9581380003
 20
12.5426722402
 10
5.9507355886
 20
12.5334079694
 10
5.9434446626
 20
12.5240039422
 10
5.9362778123
 20
12.514476408
 10
5.9292352474
 20
12.5048251465
 10
5.9223167582
 20
12.4950503779
 10
5.9155343056
 20
12.4851690122
 10
5.908888129
 20
12.4751808709
 10
5.9023779889
 20
12.4650861323
 10
5.8960151277
 20
12.4549022415
 10
5.889799797
 20
12.4446290392
 10
5.8837317451
 20
12.4342666846
 10
5.8778214591
 20
12.4238331004
 10
5.8720692164
 20
12.4133281718
 10
5.8664747395
 20
12.4027520136
 10
5.8610476836
 20
12.3921228931
 10
5.8557883352
 20
12.3814407133
 10
5.8506964078
 20
12.3707055712
 10
5.845780697
 20
12.3599360249
 10
5.8410415082
 20
12.3491320163
 10
5.8364785361
 20
12.3382936034
 10
5.8320996597
 20
12.3274395184
 10
5.8279051976
 20
12.3165697348
 10
5.8238948311
 20
12.3056842791
 10
5.8200754835
 20
12.2948019629
 10
5.8164474871
 20
12.2839228014
 10
5.8130105096
 20
12.2730467794
 10
5.8097704765
 20
12.2621926627
 10
5.8067277231
 20
12.2513604671
 10
5.8038819142
 20
12.2405501767
 10
5.8012379704
 20
12.2297805107
 10
5.7987962277
 20
12.2190514212
 10
5.7965563501
 20
12.2083629559
 10
5.7945222503
 20
12.1977339772
 10
5.7926952325
 20
12.1871707723
 10
5.7910739923
 20
12.176667054
 10
5.7896585299
 20
12.1662228222
  0
LINE
  5
28F
100
AcDbEntity
  8
ASSI
100
AcDbLine
 62
253
  6
CONTINUOUS
 10
7.8854229651
 20
14.566665417
 11
5.7728168294
 21
13.3056634983
  0
LINE
  5
290
100
AcDbEntity
  8
ASSI
100
AcDbLine
 62
253
  6
CONTINUOUS
 10
8.2703971235
 20
13.9737399805
 11
6.1323195642
 21
12.697534322
  0
LWPOLYLINE
  5
291
100
AcDbEntity
  8
0
100
AcDbPolyline
 62
253
  6
CONTINUOUS
 90
41
 70
0
 10
-1.7437634621
 20
7.1720347957
 10
-1.7225853425
 20
7.1830525272
 10
-1.7018121072
 20
7.1947600108
 10
-1.6814383784
 20
7.207158179
 10
-1.6614587786
 20
7.2202479645
 10
-1.64186793
 20
7.2340302997
 10
-1.6226633845
 20
7.2485048339
 10
-1.6038544128
 20
7.2636660821
 10
-1.5854532146
 20
7.2795072761
 10
-1.5674719903
 20
7.2960216476
 10
-1.5499229397
 20
7.3132024282
 10
-1.5328175643
 20
7.3310433651
 10
-1.5161645714
 20
7.3495402668
 10
-1.4999719695
 20
7.3686894571
 10
-1.4842477672
 20
7.3884872599
 10
-1.468999973
 20
7.4089299992
 10
-1.4542369683
 20
7.4300139376
 10
-1.439968625
 20
7.4517350925
 10
-1.4262051878
 20
7.47408942
 10
-1.4129569015
 20
7.4970728762
 10
-1.4002340106
 20
7.5206814172
 10
-1.3880452445
 20
7.5449089567
 10
-1.3763932709
 20
7.5697412388
 10
-1.3652792419
 20
7.5951619649
 10
-1.3547043099
 20
7.6211548367
 10
-1.3446696271
 20
7.6477035556
 10
-1.3351763047
 20
7.6747924536
 10
-1.3262252896
 20
7.7024083833
 10
-1.3178174879
 20
7.7305388278
 10
-1.3099538054
 20
7.75917127
 10
-1.302635148
 20
7.7882931928
 10
-1.2958626257
 20
7.8178907434
 10
-1.2896381643
 20
7.8479447255
 10
-1.2839638933
 20
7.8784346069
 10
-1.2788419427
 20
7.9093398555
 10
-1.2742744421
 20
7.940639939
 10
-1.270263403
 20
7.9723191085
 10
-1.2668103636
 20
8.0043807479
 10
-1.2639167435
 20
8.0368330243
 10
-1.2615839627
 20
8.0696841049
 10
-1.2598134409
 20
8.1029421567
  0
LWPOLYLINE
  5
292
100
AcDbEntity
  8
0
100
AcDbPolyline
 62
253
  6
CONTINUOUS
 90
38
 70
0
 10
-2.1249640912
 20
7.8801348423
 10
-2.1126728756
 20
7.8861537924
 10
-2.1006444822
 20
7.8926123532
 10
-2.0888722574
 20
7.8995025597
 10
-2.0773495478
 20
7.9068164466
 10
-2.0660697001
 20
7.9145460487
 10
-2.0550260608
 20
7.9226834008
 10
-2.0420787655
 20
7.9329748519
 10
-2.0294664004
 20
7.9438259106
 10
-2.0171933367
 20
7.9552204947
 10
-2.0052639454
 20
7.9671425216
 10
-1.9936825978
 20
7.9795759089
 10
-1.9824531163
 20
7.9925057437
 10
-1.9715771294
 20
8.0059217909
 10
-1.9610557171
 20
8.0198149849
 10
-1.9508899594
 20
8.03417626
 10
-1.9410809362
 20
8.0489965507
 10
-1.9316303582
 20
8.0642671402
 10
-1.9225424584
 20
8.0799807074
 10
-1.9138221006
 20
8.09613028
 10
-1.9054741486
 20
8.1127088857
 10
-1.8975034662
 20
8.1297095523
 10
-1.889915386
 20
8.1471255208
 10
-1.8827171157
 20
8.1649508852
 10
-1.8759163319
 20
8.1831799526
 10
-1.8695207112
 20
8.2018070302
 10
-1.8635379303
 20
8.2208264254
 10
-1.8579760819
 20
8.24023201
 10
-1.8528449243
 20
8.2600159154
 10
-1.848154632
 20
8.2801698376
 10
-1.8439153796
 20
8.3006854727
 10
-1.8401373415
 20
8.3215545168
 10
-1.8373489411
 20
8.339211376
 10
-1.8348956284
 20
8.3571151746
 10
-1.8327851377
 20
8.3752731957
 10
-1.8310252032
 20
8.3936927222
 10
-1.8296235593
 20
8.4123810374
 10
-1.8285879403
 20
8.4313454243
  0
LWPOLYLINE
  5
293
100
AcDbEntity
  8
0
100
AcDbPolyline
 62
253
  6
CONTINUOUS
 90
37
 70
0
 10
-1.9307315544
 20
7.4937039674
 10
-1.9330691826
 20
7.4926127303
 10
-1.9354381298
 20
7.4916159018
 10
-1.9378405232
 20
7.4907105642
 10
-1.9402784899
 20
7.4898937999
 10
-1.9427541572
 20
7.489162691
 10
-1.9452696521
 20
7.4885143201
 10
-1.9478264861
 20
7.4879462503
 10
-1.9504237079
 20
7.4874579695
 10
-1.9530597503
 20
7.4870494465
 10
-1.9557330462
 20
7.4867206499
 10
-1.9584420285
 20
7.4864715487
 10
-1.96118513
 20
7.4863021115
 10
-1.9639608411
 20
7.4862122847
 10
-1.9667678807
 20
7.4862019242
 10
-1.9696050254
 20
7.4862708636
 10
-1.9724710516
 20
7.4864189364
 10
-1.9753647359
 20
7.486645976
 10
-1.9782848546
 20
7.486951816
 10
-1.9812302206
 20
7.4873363851
 10
-1.9841997913
 20
7.4877999939
 10
-1.9871925606
 20
7.4883430482
 10
-1.9902075225
 20
7.4889659536
 10
-1.9932436708
 20
7.489669116
 10
-1.9962999993
 20
7.4904529412
 10
-1.9993753442
 20
7.4913177833
 10
-2.0024679105
 20
7.4922637901
 10
-2.0055757453
 20
7.4932910574
 10
-2.0086968961
 20
7.4943996815
 10
-2.01182941
 20
7.4955897582
 10
-2.0149713344
 20
7.4968613836
 10
-2.0181217169
 20
7.4982153978
 10
-2.0212836072
 20
7.4996556167
 10
-2.0244610556
 20
7.5011866
 10
-2.0276581122
 20
7.5028129077
 10
-2.0308788273
 20
7.5045390996
 10
-2.0341272511
 20
7.5063697356
  0
LWPOLYLINE
  5
294
100
AcDbEntity
  8
0
100
AcDbPolyline
 62
253
  6
CONTINUOUS
 90
24
 70
0
 10
-1.968897776
 20
-11.2062470077
 10
-1.969968804
 20
-11.204878231
 10
-1.9710546798
 20
-11.203520869
 10
-1.9721551371
 20
-11.2021747248
 10
-1.9732699097
 20
-11.2008396015
 10
-1.9743987315
 20
-11.1995153022
 10
-1.9755413362
 20
-11.19820163
 10
-1.9766974578
 20
-11.196898388
 10
-1.9778668299
 20
-11.1956053793
 10
-1.9790491865
 20
-11.194322407
 10
-1.9802442614
 20
-11.1930492741
 10
-1.9814517883
 20
-11.1917857839
 10
-1.9826715012
 20
-11.1905317394
 10
-1.9840157384
 20
-11.1891741886
 10
-1.9853741526
 20
-11.1878271273
 10
-1.9867467355
 20
-11.1864900383
 10
-1.9881334785
 20
-11.1851624042
 10
-1.9895343732
 20
-11.1838437077
 10
-1.9909494113
 20
-11.1825334316
 10
-1.9923785843
 20
-11.1812310586
 10
-1.9938218837
 20
-11.1799360713
 10
-1.9952793012
 20
-11.1786479525
 10
-1.9967508284
 20
-11.1773661849
 10
-1.9982364567
 20
-11.1760902511
  0
LWPOLYLINE
  5
295
100
AcDbEntity
  8
0
100
AcDbPolyline
 62
253
  6
CONTINUOUS
 90
39
 70
0
 10
-1.2568431402
 20
-11.8651485352
 10
-1.2455078496
 20
-11.8811367859
 10
-1.2344042501
 20
-11.8972516514
 10
-1.2235327385
 20
-11.913502618
 10
-1.2128937115
 20
-11.9298991722
 10
-1.202487566
 20
-11.9464508002
 10
-1.1939951076
 20
-11.9603667291
 10
-1.1856717634
 20
-11.9743880399
 10
-1.1775246489
 20
-11.9885058363
 10
-1.1695608796
 20
-12.0027112222
 10
-1.1617875709
 20
-12.0169953015
 10
-1.1542118382
 20
-12.0313491779
 10
-1.1468396315
 20
-12.0457641681
 10
-1.1396722391
 20
-12.0602324392
 10
-1.1327097836
 20
-12.0747463713
 10
-1.1259523879
 20
-12.0892983444
 10
-1.1194001747
 20
-12.1038807384
 10
-1.1130532667
 20
-12.1184859332
 10
-1.1057085466
 20
-12.1360319598
 10
-1.0986622176
 20
-12.1535892269
 10
-1.0919168547
 20
-12.1711471147
 10
-1.0854750326
 20
-12.188695003
 10
-1.0793393263
 20
-12.2062222721
 10
-1.0735125953
 20
-12.2237183123
 10
-1.0679988379
 20
-12.2411725554
 10
-1.0628023372
 20
-12.2585744433
 10
-1.0579273763
 20
-12.2759134181
 10
-1.0533782383
 20
-12.2931789219
 10
-1.049159594
 20
-12.3103594017
 10
-1.0452776652
 20
-12.3274393248
 10
-1.0417390618
 20
-12.3444021634
 10
-1.0385503935
 20
-12.3612313899
 10
-1.0357182698
 20
-12.3779104766
 10
-1.033635456
 20
-12.3916846406
 10
-1.0318096181
 20
-12.4053427334
 10
-1.0302455414
 20
-12.4188844255
 10
-1.0289480111
 20
-12.4323093871
 10
-1.0279218125
 20
-12.4456172884
 10
-1.027171731
 20
-12.4588077997
  0
LWPOLYLINE
  5
296
100
AcDbEntity
  8
0
100
AcDbPolyline
 62
253
  6
CONTINUOUS
 90
52
 70
0
 10
-1.4347280376
 20
-12.0267399852
 10
-1.438395438
 20
-12.0213777915
 10
-1.4419551721
 20
-12.0159717245
 10
-1.4454182307
 20
-12.0105094762
 10
-1.4487956051
 20
-12.0049787383
 10
-1.4520959568
 20
-11.9993695919
 10
-1.4553186298
 20
-11.9936816764
 10
-1.4584606389
 20
-11.9879170206
 10
-1.4615189985
 20
-11.9820776533
 10
-1.4644907234
 20
-11.9761656033
 10
-1.4673722849
 20
-11.9701839646
 10
-1.470157982
 20
-11.9641400908
 10
-1.4728415704
 20
-11.9580424007
 10
-1.4754168059
 20
-11.9518993131
 10
-1.477877444
 20
-11.9457192468
 10
-1.4798354759
 20
-11.9405489783
 10
-1.4817032439
 20
-11.9353755122
 10
-1.4834744022
 20
-11.9302154844
 10
-1.4851440207
 20
-11.9250809702
 10
-1.4867128342
 20
-11.9199658025
 10
-1.4881829932
 20
-11.9148592541
 10
-1.4898181604
 20
-11.9087332556
 10
-1.4913071087
 20
-11.9026192021
 10
-1.4926425847
 20
-11.8965320743
 10
-1.4938173347
 20
-11.8904868531
 10
-1.4948241051
 20
-11.8844985192
 10
-1.495657297
 20
-11.8785811938
 10
-1.4963179308
 20
-11.8727455602
 10
-1.4968086817
 20
-11.8670014425
 10
-1.497132225
 20
-11.8613586643
 10
-1.4972912357
 20
-11.8558270496
 10
-1.4972998334
 20
-11.8513067621
 10
-1.4971966384
 20
-11.8468605034
 10
-1.4969822587
 20
-11.842478283
 10
-1.4966574827
 20
-11.838154383
 10
-1.4962238192
 20
-11.8339001737
 10
-1.4956829571
 20
-11.8297312974
 10
-1.4948951312
 20
-11.8248596061
 10
-1.4939602869
 20
-11.8201381248
 10
-1.4928833398
 20
-11.8155716588
 10
-1.4916692053
 20
-11.8111650133
 10
-1.4903227991
 20
-11.8069229936
 10
-1.4888486706
 20
-11.8028494079
 10
-1.487249905
 20
-11.7989440772
 10
-1.4855292214
 20
-11.7952058252
 10
-1.4836893387
 20
-11.791633476
 10
-1.4817329762
 20
-11.7882258533
 10
-1.4796609309
 20
-11.7849813374
 10
-1.4774663112
 20
-11.7818965337
 10
-1.4751403039
 20
-11.7789676038
 10
-1.4726740954
 20
-11.7761907093
 10
-1.4700588722
 20
-11.773562012
  0
LINE
  5
297
100
AcDbEntity
  8
0
100
AcDbLine
 62
253
  6
CONTINUOUS
 10
-1.9647044293
 20
-11.2130654366
 11
-1.968897776
 21
-11.2062470077
  0
LINE
  5
298
100
AcDbEntity
  8
0
100
AcDbLine
 62
253
  6
CONTINUOUS
 10
-1.9586519993
 20
-11.2230465872
 11
-1.9647044293
 21
-11.2130654366
  0
LINE
  5
299
100
AcDbEntity
  8
0
100
AcDbLine
 62
253
  6
CONTINUOUS
 10
-2.7726583874
 20
-11.7480405263
 11
-2.7689283029
 21
-11.7550084839
  0
LINE
  5
29A
100
AcDbEntity
  8
0
100
AcDbLine
 62
253
  6
CONTINUOUS
 10
-2.7882789525
 20
-11.7184888461
 11
-2.7726583874
 21
-11.7480405263
  0
LWPOLYLINE
  5
29B
100
AcDbEntity
  8
0
100
AcDbPolyline
 62
253
  6
CONTINUOUS
 90
53
 70
0
 10
-1.4291464196
 20
-12.6536418624
 10
-1.4321337508
 20
-12.6478379986
 10
-1.4349802791
 20
-12.6420557858
 10
-1.4376954347
 20
-12.6362809824
 10
-1.4402886478
 20
-12.630499347
 10
-1.4427693487
 20
-12.6246966378
 10
-1.4451449239
 20
-12.6188614441
 10
-1.447414586
 20
-12.6129936779
 10
-1.449575504
 20
-12.6070960818
 10
-1.4516248468
 20
-12.6011713986
 10
-1.4535597834
 20
-12.5952223709
 10
-1.4553771178
 20
-12.5892528393
 10
-1.4570721935
 20
-12.5832710345
 10
-1.4586399891
 20
-12.5772862853
 10
-1.4600754832
 20
-12.5713079202
 10
-1.4613736542
 20
-12.5653452679
 10
-1.4623468971
 20
-12.5603969056
 10
-1.4632181198
 20
-12.5554820212
 10
-1.4639841524
 20
-12.5506167031
 10
-1.4646423404
 20
-12.5458127771
 10
-1.4651920916
 20
-12.5410650199
 10
-1.465633329
 20
-12.5363639458
 10
-1.466018755
 20
-12.5307760967
 10
-1.4662434032
 20
-12.5252564625
 10
-1.4663028658
 20
-12.519819694
 10
-1.4661927354
 20
-12.5144804417
 10
-1.4659086045
 20
-12.509253356
 10
-1.46544771
 20
-12.5041517903
 10
-1.4648138675
 20
-12.4991839077
 10
-1.4640125368
 20
-12.4943565744
 10
-1.4630491779
 20
-12.4896766563
 10
-1.4619292508
 20
-12.4851510194
 10
-1.4608795187
 20
-12.4815004149
 10
-1.4597232229
 20
-12.4779534066
 10
-1.458458736
 20
-12.4745016832
 10
-1.4570856223
 20
-12.4711402872
 10
-1.455608214
 20
-12.4678776773
 10
-1.4540320352
 20
-12.464725666
 10
-1.4520175222
 20
-12.4611027977
 10
-1.4498752844
 20
-12.4576581507
 10
-1.4476118719
 20
-12.4543936742
 10
-1.4452338347
 20
-12.451311317
 10
-1.4427477229
 20
-12.4484130283
 10
-1.4401594563
 20
-12.4457001035
 10
-1.4374724329
 20
-12.4431712236
 10
-1.4346894201
 20
-12.4408244164
 10
-1.4318131856
 20
-12.4386577091
 10
-1.4288464971
 20
-12.4366691295
 10
-1.4257898823
 20
-12.4348570823
 10
-1.4226349099
 20
-12.4332214814
 10
-1.419370909
 20
-12.4317626179
 10
-1.4159872084
 20
-12.430480783
 10
-1.4124731371
 20
-12.4293762677
  0
LINE
  5
29C
100
AcDbEntity
  8
ASSI
100
AcDbLine
 62
253
  6
CONTINUOUS
 10
-5.3259121294
 20
21.6764297525
 11
-5.3259121294
 21
21.613523414
  0
LWPOLYLINE
  5
29D
100
AcDbEntity
  8
0
100
AcDbPolyline
 62
253
  6
CONTINUOUS
 90
3
 70
0
 10
-4.8330998318
 20
10.1628321252
 10
-4.8081758723
 20
10.6894174073
 10
-4.779658516
 20
11.2264638551
  0
LWPOLYLINE
  5
29E
100
AcDbEntity
  8
0
100
AcDbPolyline
 62
253
  6
CONTINUOUS
 90
55
 70
0
 10
-4.7796585174
 20
11.2264638304
 10
-4.7793896194
 20
11.2302394244
 10
-4.7790138503
 20
11.2339049366
 10
-4.7785334433
 20
11.237472059
 10
-4.7779506318
 20
11.2409524834
 10
-4.7772676493
 20
11.2443579017
 10
-4.7764867291
 20
11.2477000057
 10
-4.7754228482
 20
11.2516391967
 10
-4.7742211512
 20
11.2554989286
 10
-4.7728816365
 20
11.2592740785
 10
-4.7714043022
 20
11.2629595234
 10
-4.7697891464
 20
11.2665501404
 10
-4.7680366217
 20
11.2700401511
 10
-4.7661489969
 20
11.2734211543
 10
-4.7641289954
 20
11.2766840934
 10
-4.7619793402
 20
11.2798199119
 10
-4.7597027545
 20
11.282819553
 10
-4.7577106273
 20
11.2852087524
 10
-4.7556339626
 20
11.2874921942
 10
-4.7534744781
 20
11.2896649775
 10
-4.7512338915
 20
11.2917222018
 10
-4.7489139203
 20
11.2936589663
 10
-4.7465162822
 20
11.2954703702
 10
-4.7440415641
 20
11.2971518149
 10
-4.7414858307
 20
11.2986999098
 10
-4.7388440156
 20
11.3001115661
 10
-4.7361126325
 20
11.301382336
 10
-4.7332945142
 20
11.3025023339
 10
-4.7303940731
 20
11.3034603152
 10
-4.7274160355
 20
11.3042471301
 10
-4.7243663833
 20
11.3048620096
 10
-4.7212514119
 20
11.3053062798
 10
-4.7180765055
 20
11.3055819147
 10
-4.714843401
 20
11.3056934794
 10
-4.7115529239
 20
11.3056461871
 10
-4.708205805
 20
11.3054449744
 10
-4.7048023973
 20
11.3050936717
 10
-4.7013429595
 20
11.3045958334
 10
-4.69782775
 20
11.3039550135
 10
-4.6942570273
 20
11.3031747662
 10
-4.69063105
 20
11.3022586457
 10
-4.6862087613
 20
11.3009857775
 10
-4.681716461
 20
11.2995334604
 10
-4.677163332
 20
11.2979127849
 10
-4.6725585571
 20
11.2961348416
 10
-4.6679113193
 20
11.294210721
 10
-4.6627061867
 20
11.2919139536
 10
-4.6574551551
 20
11.2894602121
 10
-4.6521534122
 20
11.2868592961
 10
-4.6467961455
 20
11.2841210052
 10
-4.6413785427
 20
11.2812551389
 10
-4.6358957915
 20
11.278271497
 10
-4.6303430794
 20
11.275179879
 10
-4.6247155942
 20
11.2719900846
 10
-4.6190085234
 20
11.2687119133
  0
LWPOLYLINE
  5
29F
100
AcDbEntity
  8
0
100
AcDbPolyline
 62
253
  6
CONTINUOUS
 90
27
 70
0
 10
-3.0037745409
 20
8.3891417028
 10
-3.0041350213
 20
8.3881324818
 10
-3.0045126725
 20
8.3871462704
 10
-3.0049067547
 20
8.3861824564
 10
-3.005316528
 20
8.3852404273
 10
-3.0057412525
 20
8.3843195709
 10
-3.0061801884
 20
8.3834192749
 10
-3.0066325958
 20
8.3825389267
 10
-3.0070977348
 20
8.3816779143
 10
-3.0075748656
 20
8.3808356251
 10
-3.0080632484
 20
8.3800114468
 10
-3.0085621433
 20
8.3792047672
 10
-3.0090708103
 20
8.3784149739
 10
-3.0095885097
 20
8.3776414545
 10
-3.0101145016
 20
8.3768835967
 10
-3.0106480462
 20
8.3761407882
 10
-3.0113866291
 20
8.3751510079
 10
-3.0121371297
 20
8.3741864836
 10
-3.0128987968
 20
8.3732456258
 10
-3.0136708797
 20
8.3723268451
 10
-3.0144526275
 20
8.3714285518
 10
-3.0152432894
 20
8.3705491566
 10
-3.0160421144
 20
8.3696870698
 10
-3.0168483516
 20
8.368840702
 10
-3.0176612503
 20
8.3680084637
 10
-3.0184800595
 20
8.3671887653
 10
-3.0193040284
 20
8.3663800175
  0
LWPOLYLINE
  5
2A0
100
AcDbEntity
  8
0
100
AcDbPolyline
 62
253
  6
CONTINUOUS
 90
38
 70
0
 10
-1.5425036344
 20
6.7878749818
 10
-1.5448452978
 20
6.7867206693
 10
-1.5472198898
 20
6.7856619312
 10
-1.5496297359
 20
6.7846957513
 10
-1.5520771623
 20
6.783819113
 10
-1.5545644946
 20
6.7830290001
 10
-1.5570940587
 20
6.7823223963
 10
-1.5596675184
 20
6.7816968114
 10
-1.5622838891
 20
6.7811518605
 10
-1.5649415241
 20
6.7806876848
 10
-1.5676387767
 20
6.7803044256
 10
-1.5703740001
 20
6.7800022242
 10
-1.5731455478
 20
6.7797812217
 10
-1.5759518538
 20
6.7796415321
 10
-1.5787916761
 20
6.7795831593
 10
-1.5816638534
 20
6.7796060799
 10
-1.5845672243
 20
6.7797102703
 10
-1.5875006277
 20
6.7798957071
 10
-1.5904629022
 20
6.7801623668
 10
-1.5934529356
 20
6.7805103438
 10
-1.5964698121
 20
6.7809402033
 10
-1.5995126648
 20
6.7814526283
 10
-1.6025806268
 20
6.782048302
 10
-1.6056728312
 20
6.7827279072
 10
-1.6087884114
 20
6.7834921272
 10
-1.6119262972
 20
6.784341589
 10
-1.6150846068
 20
6.7852766967
 10
-1.6182612549
 20
6.7862977982
 10
-1.6214541566
 20
6.7874052417
 10
-1.6246612267
 20
6.7885993753
 10
-1.6278803802
 20
6.789880547
 10
-1.6306483478
 20
6.7910487252
 10
-1.6334262864
 20
6.7922842761
 10
-1.6362168212
 20
6.7935903703
 10
-1.6390225775
 20
6.7949701784
 10
-1.6418461805
 20
6.7964268709
 10
-1.6446902557
 20
6.7979636184
 10
-1.6475574281
 20
6.7995835916
  0
LWPOLYLINE
  5
2A1
100
AcDbEntity
  8
ASSI
100
AcDbPolyline
 62
253
  6
CONTINUOUS
 90
13
 70
0
 10
4.8616124534
 20
-5.2415059148
 10
4.8745774874
 20
-5.2381840586
 10
4.88737111
 20
-5.2346512433
 10
4.8999830032
 20
-5.2309102475
 10
4.9124030072
 20
-5.2269641188
 10
4.9246210284
 20
-5.2228160949
 10
4.9366270846
 20
-5.2184694931
 10
4.9484114131
 20
-5.2139278904
 10
4.9599645416
 20
-5.2091949812
 10
4.971277194
 20
-5.2042744963
 10
4.9823402406
 20
-5.1991704066
 10
4.9931447102
 20
-5.1938869235
 10
5.003681863
 20
-5.1884283581
  0
LWPOLYLINE
  5
2A2
100
AcDbEntity
  8
ASSI
100
AcDbPolyline
 62
7
  6
CONTINUOUS
 90
5
 70
0
 10
-10.586446011
 20
3.3870595796
 10
-10.5563798912
 20
3.3465548496
 10
-10.520382787
 20
3.3094827616
 10
-10.4786843647
 20
3.2761904564
 10
-10.4435382638
 20
3.25375411
  0
LWPOLYLINE
  5
2A3
100
AcDbEntity
  8
0
100
AcDbPolyline
 62
253
  6
CONTINUOUS
 90
32
 70
0
 10
-4.4561682414
 20
-11.0358392007
 10
-4.4638843707
 20
-11.0040382063
 10
-4.4710907565
 20
-10.9724185961
 10
-4.4778075451
 20
-10.9409703307
 10
-4.4840548826
 20
-10.9096833706
 10
-4.4898529152
 20
-10.8785476764
 10
-4.4964987509
 20
-10.8398307655
 10
-4.5025100044
 20
-10.8013466155
 10
-4.5079226541
 20
-10.7631073207
 10
-4.5127726781
 20
-10.7251249759
 10
-4.5170969513
 20
-10.6874055335
 10
-4.5209359335
 20
-10.6499303785
 10
-4.5243309808
 20
-10.6126747538
 10
-4.5273234496
 20
-10.5756139023
 10
-4.5307566549
 20
-10.526463934
 10
-4.533633719
 20
-10.4775833924
 10
-4.5360406734
 20
-10.4289394531
 10
-4.5380344703
 20
-10.3805149294
 10
-4.5395557421
 20
-10.3323551847
 10
-4.5405160414
 20
-10.2845212198
 10
-4.5408146536
 20
-10.2488951191
 10
-4.5407090482
 20
-10.2135056212
 10
-4.5401603062
 20
-10.1783717645
 10
-4.5391295085
 20
-10.1435125876
 10
-4.5375779538
 20
-10.1089531469
 10
-4.5354678118
 20
-10.0747425712
 10
-4.5327614697
 20
-10.0409360072
 10
-4.5294213149
 20
-10.0075886014
 10
-4.5254096718
 20
-9.9747504842
 10
-4.5206886134
 20
-9.9424517198
 10
-4.5152201495
 20
-9.9107173562
 10
-4.5089662901
 20
-9.8795724412
  0
LWPOLYLINE
  5
2A4
100
AcDbEntity
  8
0
100
AcDbPolyline
 62
253
  6
CONTINUOUS
 90
32
 70
0
 10
-3.7128169387
 20
-10.3442423213
 10
-3.7055031117
 20
-10.376291383
 10
-3.6986796065
 20
-10.4081469897
 10
-3.6923260398
 20
-10.439818934
 10
-3.6864220287
 20
-10.4713170088
 10
-3.68094719
 20
-10.5026510069
 10
-3.6746766672
 20
-10.5415975109
 10
-3.6690083917
 20
-10.5802909958
 10
-3.6639058775
 20
-10.6187195112
 10
-3.6593326385
 20
-10.6568711068
 10
-3.6552514049
 20
-10.69473996
 10
-3.651621772
 20
-10.7323447591
 10
-3.6484025512
 20
-10.7697103204
 10
-3.645552554
 20
-10.8068614598
 10
-3.6422576666
 20
-10.8561014097
 10
-3.6394600276
 20
-10.9050376068
 10
-3.6370737115
 20
-10.9537033749
 10
-3.6350418918
 20
-11.0021163028
 10
-3.6334241362
 20
-11.0502310387
 10
-3.6323091112
 20
-11.0979864958
 10
-3.6318563695
 20
-11.1335316736
 10
-3.6317753259
 20
-11.1688212816
 10
-3.6321050178
 20
-11.2038362054
 10
-3.6328844827
 20
-11.238557331
 10
-3.634152624
 20
-11.2729595692
 10
-3.6359478103
 20
-11.3069939313
 10
-3.6383082763
 20
-11.3406054538
 10
-3.6412722565
 20
-11.3737391732
 10
-3.6448780487
 20
-11.406345148
 10
-3.6491642019
 20
-11.4383935253
 10
-3.6541693285
 20
-11.4698594744
 10
-3.6599320405
 20
-11.5007181643
  0
LWPOLYLINE
  5
2A5
100
AcDbEntity
  8
0
100
AcDbPolyline
 62
253
  6
CONTINUOUS
 90
47
 70
0
 10
-4.7524385706
 20
-10.9341880448
 10
-4.7485982287
 20
-10.9528958446
 10
-4.7443087783
 20
-10.9716683624
 10
-4.7395777448
 20
-10.9905082352
 10
-4.7344126538
 20
-11.0094180997
 10
-4.7288210309
 20
-11.0284005929
 10
-4.7228104015
 20
-11.0474583516
 10
-4.7163882913
 20
-11.0665940126
 10
-4.709562969
 20
-11.085806332
 10
-4.7023456762
 20
-11.1050785421
 10
-4.6947483977
 20
-11.1243899945
 10
-4.6867831184
 20
-11.1437200408
 10
-4.6784618231
 20
-11.1630480325
 10
-4.6697964967
 20
-11.1823533211
 10
-4.660799124
 20
-11.2016152583
 10
-4.6498971641
 20
-11.2240081666
 10
-4.6385705291
 20
-11.2462990962
 10
-4.6268301836
 20
-11.2684731795
 10
-4.6146870916
 20
-11.2905155487
 10
-4.6021522176
 20
-11.3124113363
 10
-4.5892365258
 20
-11.3341456746
 10
-4.5759515396
 20
-11.3557027279
 10
-4.5623110195
 20
-11.3770627886
 10
-4.5483292851
 20
-11.3982051808
 10
-4.534020656
 20
-11.419109229
 10
-4.5193994518
 20
-11.4397542575
 10
-4.504479992
 20
-11.4601195906
 10
-4.4892755338
 20
-11.4801856465
 10
-4.4737950835
 20
-11.4999372193
 10
-4.4580465849
 20
-11.5193601972
 10
-4.4420379819
 20
-11.5384404682
 10
-4.4257772182
 20
-11.5571639203
 10
-4.4092722378
 20
-11.5755164417
 10
-4.3949387601
 20
-11.5909391786
 10
-4.3804487178
 20
-11.6060577326
 10
-4.3658191344
 20
-11.620850809
 10
-4.3510670336
 20
-11.6352971136
 10
-4.3362094389
 20
-11.6493753516
 10
-4.3212633741
 20
-11.6630642288
 10
-4.3062458627
 20
-11.6763424506
 10
-4.2911701769
 20
-11.6891913397
 10
-4.2760345828
 20
-11.7016026878
 10
-4.2608335948
 20
-11.7135709035
 10
-4.2455617275
 20
-11.7250903958
 10
-4.2302134956
 20
-11.7361555734
 10
-4.2147834135
 20
-11.7467608452
 10
-4.1992659958
 20
-11.7569006199
  0
LWPOLYLINE
  5
2A6
100
AcDbEntity
  8
0
100
AcDbPolyline
 62
253
  6
CONTINUOUS
 90
47
 70
0
 10
-3.4163705246
 20
-10.4447259846
 10
-3.4199160509
 20
-10.4259184979
 10
-3.4239051595
 20
-10.4070440917
 10
-3.4283303396
 20
-10.388100294
 10
-3.43318408
 20
-10.3690846332
 10
-3.4384588699
 20
-10.3499946374
 10
-3.4441471984
 20
-10.3308278348
 10
-3.4502415543
 20
-10.3115817536
 10
-3.4567337543
 20
-10.2922577907
 10
-3.4636129242
 20
-10.2728728172
 10
-3.4708675175
 20
-10.2534475731
 10
-3.4784859875
 20
-10.2340027981
 10
-3.4864567877
 20
-10.2145592322
 10
-3.4947683714
 20
-10.1951376152
 10
-3.5034091921
 20
-10.175758687
 10
-3.5138921808
 20
-10.1532285105
 10
-3.5247971463
 20
-10.1307993022
 10
-3.5361136538
 20
-10.1084856969
 10
-3.547831268
 20
-10.0863023293
 10
-3.5599395542
 20
-10.0642638343
 10
-3.5724280772
 20
-10.0423848466
 10
-3.5852859277
 20
-10.0206810464
 10
-3.5985002984
 20
-9.9991722957
 10
-3.6120579078
 20
-9.9778795018
 10
-3.6259454742
 20
-9.9568235722
 10
-3.6401497161
 20
-9.9360254141
 10
-3.6546573518
 20
-9.915505935
 10
-3.6694562634
 20
-9.8952849984
 10
-3.684538988
 20
-9.875378293
 10
-3.6998992262
 20
-9.8558004636
 10
-3.7155306789
 20
-9.8365661552
 10
-3.7314270468
 20
-9.8176900127
 10
-3.7475820306
 20
-9.7991866808
 10
-3.7616281328
 20
-9.7836367127
 10
-3.7758431092
 20
-9.768393845
 10
-3.7902104585
 20
-9.7534805166
 10
-3.8047136795
 20
-9.7389191666
 10
-3.8193362708
 20
-9.7247322341
 10
-3.8340617312
 20
-9.7109421582
 10
-3.8488735594
 20
-9.6975713778
 10
-3.8637589889
 20
-9.6846396496
 10
-3.8787201923
 20
-9.672156
 10
-3.8937630773
 20
-9.660126773
 10
-3.9088935514
 20
-9.6485583124
 10
-3.9241175221
 20
-9.6374569623
 10
-3.9394408969
 20
-9.6268290665
 10
-3.9548695833
 20
-9.6166809691
  0
LINE
  5
2A7
100
AcDbEntity
  8
ASSI
100
AcDbLine
 62
7
  6
CONTINUOUS
 10
-5.14566088
 20
22.0906499113
 11
-5.1244555907
 21
21.4741774139
  0
LINE
  5
2A8
100
AcDbEntity
  8
0
100
AcDbLine
 62
253
  6
CONTINUOUS
 10
-4.5480841359
 20
9.4696837534
 11
-4.567153331
 21
8.9375171365
  0
LWPOLYLINE
  5
2A9
100
AcDbEntity
  8
0
100
AcDbPolyline
 62
253
  6
CONTINUOUS
 90
3
 70
0
 10
-4.8736544606
 20
9.1144870722
 10
-4.8549263825
 20
9.6378468178
 10
-4.8330998318
 20
10.1628321252
  0
LINE
  5
2AA
100
AcDbEntity
  8
0
100
AcDbLine
 62
253
  6
CONTINUOUS
 10
-4.5262055368
 20
9.9946961532
 11
-4.5480841359
 21
9.4696837534
  0
LWPOLYLINE
  5
2AB
100
AcDbEntity
  8
0
100
AcDbPolyline
 62
253
  6
CONTINUOUS
 90
54
 70
0
 10
-4.5671533302
 20
8.9375171609
 10
-4.5673328809
 20
8.9337897756
 10
-4.5676208805
 20
8.9301730373
 10
-4.5680148029
 20
8.9266553321
 10
-4.5685121224
 20
8.9232250465
 10
-4.5691103131
 20
8.9198705667
 10
-4.5698068491
 20
8.9165802789
 10
-4.5707696874
 20
8.9127045003
 10
-4.5718705565
 20
8.9089094779
 10
-4.5731095072
 20
8.9052002552
 10
-4.5744865902
 20
8.9015818758
 10
-4.5760018564
 20
8.8980593829
 10
-4.5776549277
 20
8.8946384529
 10
-4.5794437099
 20
8.8913272927
 10
-4.5813656798
 20
8.888134742
 10
-4.5834183144
 20
8.8850696406
 10
-4.5855990904
 20
8.8821408282
 10
-4.5875124398
 20
8.8798105835
 10
-4.5895113862
 20
8.8775859104
 10
-4.591594292
 20
8.8754715965
 10
-4.5937595191
 20
8.8734724295
 10
-4.5960054298
 20
8.8715931971
 10
-4.5983303862
 20
8.8698386871
 10
-4.6007338663
 20
8.8682133932
 10
-4.6032198117
 20
8.866720634
 10
-4.6057932798
 20
8.8653634341
 10
-4.6084578047
 20
8.8641461268
 10
-4.6112108261
 20
8.8630782801
 10
-4.6140482604
 20
8.8621707704
 10
-4.6169656737
 20
8.8614324017
 10
-4.6199572307
 20
8.8608636873
 10
-4.6230167461
 20
8.8604630676
 10
-4.6261389046
 20
8.8602283905
 10
-4.6293218723
 20
8.8601551321
 10
-4.6325646857
 20
8.8602381761
 10
-4.6358664912
 20
8.8604726729
 10
-4.6392268742
 20
8.8608548424
 10
-4.6426455302
 20
8.8613811716
 10
-4.6461221545
 20
8.8620481474
 10
-4.6496564426
 20
8.862852257
 10
-4.6532480898
 20
8.8637899873
 10
-4.6576319054
 20
8.8650858869
 10
-4.6620886753
 20
8.8665582131
 10
-4.6666091952
 20
8.8681960372
 10
-4.6711842611
 20
8.8699884305
 10
-4.6758046687
 20
8.8719244645
 10
-4.6809832826
 20
8.874231686
 10
-4.68621095
 20
8.8766931427
 10
-4.6914921101
 20
8.8792992278
 10
-4.6968312021
 20
8.8820403347
 10
-4.7022326652
 20
8.8849068564
 10
-4.7077009387
 20
8.8878891862
 10
-4.7132404619
 20
8.8909777173
 10
-4.718855674
 20
8.8941628429
  0
LWPOLYLINE
  5
2AC
100
AcDbEntity
  8
0
100
AcDbPolyline
 62
253
  6
CONTINUOUS
 90
3
 70
0
 10
-4.473157387
 20
11.0494939191
 10
-4.4875804071
 20
10.7852058806
 10
-4.5262055368
 20
9.9946961532
  0
LINE
  5
2AD
100
AcDbEntity
  8
ASSI
100
AcDbLine
 62
7
  6
CONTINUOUS
 10
2.7739350693
 20
17.517974466
 11
2.5936838199
 21
17.1037543072
  0
LWPOLYLINE
  5
2AE
100
AcDbEntity
  8
0
100
AcDbPolyline
 62
253
  6
CONTINUOUS
 90
26
 70
0
 10
-1.9299463476
 20
-11.2803383873
 10
-1.9302330463
 20
-11.2790049072
 10
-1.9305578995
 20
-11.2776569096
 10
-1.9309199706
 20
-11.2762951785
 10
-1.931318323
 20
-11.2749204978
 10
-1.9317520201
 20
-11.2735336514
 10
-1.9322201251
 20
-11.2721354233
 10
-1.9327217211
 20
-11.2707264419
 10
-1.9332559692
 20
-11.269306714
 10
-1.9338220504
 20
-11.267876091
 10
-1.9344191455
 20
-11.2664344241
 10
-1.9350464352
 20
-11.2649815648
 10
-1.9357031005
 20
-11.2635173642
 10
-1.9365285882
 20
-11.2617453513
 10
-1.9373929842
 20
-11.2599577807
 10
-1.9382940754
 20
-11.2581556401
 10
-1.939229649
 20
-11.2563399172
 10
-1.940197492
 20
-11.2545115997
 10
-1.9411951433
 20
-11.2526718804
 10
-1.9422191495
 20
-11.2508227718
 10
-1.9432658092
 20
-11.2489664917
 10
-1.9443314207
 20
-11.2471052577
 10
-1.9454122826
 20
-11.2452412876
 10
-1.9472394529
 20
-11.2421315148
 10
-1.9490929515
 20
-11.2390119747
 10
-1.9586519993
 20
-11.2230465872
  0
LWPOLYLINE
  5
2AF
100
AcDbEntity
  8
0
100
AcDbPolyline
 62
253
  6
CONTINUOUS
 90
23
 70
0
 10
-2.8032982029
 20
-11.6806342583
 10
-2.8031086935
 20
-11.6819076926
 10
-2.8028793751
 20
-11.6832009963
 10
-2.8026112635
 20
-11.6845131051
 10
-2.8023053741
 20
-11.6858429548
 10
-2.8019627228
 20
-11.6871894813
 10
-2.8015843251
 20
-11.6885516203
 10
-2.8011711924
 20
-11.6899284835
 10
-2.8007243193
 20
-11.6913198859
 10
-2.8002446961
 20
-11.6927258184
 10
-2.799733313
 20
-11.6941462719
 10
-2.7991911604
 20
-11.6955812374
 10
-2.7986192286
 20
-11.6970307056
 10
-2.7978951009
 20
-11.6987890182
 10
-2.7971318566
 20
-11.700567105
 10
-2.7963318353
 20
-11.7023638692
 10
-2.7954973766
 20
-11.7041782139
 10
-2.79463082
 20
-11.7060090425
 10
-2.7935065417
 20
-11.7083186325
 10
-2.792343282
 20
-11.7106473914
 10
-2.7911485567
 20
-11.7129904458
 10
-2.7899298818
 20
-11.7153429223
 10
-2.7882789525
 20
-11.7184888461
  0
LWPOLYLINE
  5
2B0
100
AcDbEntity
  8
0
100
AcDbPolyline
 62
253
  6
CONTINUOUS
 90
39
 70
0
 10
-1.3336229711
 20
-12.2818666945
 10
-1.3339421201
 20
-12.2763503729
 10
-1.3343870786
 20
-12.270783265
 10
-1.3349548095
 20
-12.2651662855
 10
-1.3356422756
 20
-12.2595003491
 10
-1.3364464396
 20
-12.2537863704
 10
-1.3373642645
 20
-12.2480252641
 10
-1.3383927131
 20
-12.2422179449
 10
-1.3397285685
 20
-12.2353862944
 10
-1.3412074458
 20
-12.2284988981
 10
-1.3428259295
 20
-12.2215616662
 10
-1.3445806045
 20
-12.2145805089
 10
-1.3464680553
 20
-12.2075613364
 10
-1.3484848666
 20
-12.2005100588
 10
-1.3506277906
 20
-12.1934322803
 10
-1.3528942494
 20
-12.1863323809
 10
-1.3552818326
 20
-12.1792144345
 10
-1.3577881296
 20
-12.1720825152
 10
-1.3604107301
 20
-12.1649406969
 10
-1.3631472236
 20
-12.1577930536
 10
-1.3659954714
 20
-12.1506434765
 10
-1.3689544212
 20
-12.1434951265
 10
-1.3720232926
 20
-12.1363509815
 10
-1.375201305
 20
-12.1292140197
 10
-1.3784876779
 20
-12.1220872191
 10
-1.3818816308
 20
-12.1149735578
 10
-1.3853824253
 20
-12.1078762758
 10
-1.3889894923
 20
-12.1007996615
 10
-1.3927023046
 20
-12.093748265
 10
-1.3965203353
 20
-12.0867266368
 10
-1.4004430572
 20
-12.0797393272
 10
-1.4044699434
 20
-12.0727908863
 10
-1.4080045123
 20
-12.0668691719
 10
-1.4116175636
 20
-12.0609804614
 10
-1.4153114379
 20
-12.055125859
 10
-1.4190884759
 20
-12.0493064689
 10
-1.4229510184
 20
-12.0435233953
 10
-1.4269014061
 20
-12.0377777423
 10
-1.4347280376
 20
-12.0267399852
  0
LINE
  5
2B1
100
AcDbEntity
  8
0
100
AcDbLine
 62
253
  6
CONTINUOUS
 10
-1.8633453688
 20
-12.5876590999
 11
-1.8889096533
 21
-12.0902671751
  0
LWPOLYLINE
  5
2B2
100
AcDbEntity
  8
0
100
AcDbPolyline
 62
253
  6
CONTINUOUS
 90
3
 70
0
 10
-1.8889096533
 20
-12.0902671751
 10
-1.9113767677
 20
-11.5908933901
 10
-1.9222719255
 20
-11.3190841106
  0
LWPOLYLINE
  5
2B3
100
AcDbEntity
  8
0
100
AcDbPolyline
 62
253
  6
CONTINUOUS
 90
39
 70
0
 10
-2.1008393716
 20
8.5885399886
 10
-2.1003659745
 20
8.6024407702
 10
-2.1001741917
 20
8.6164555852
 10
-2.100258815
 20
8.6305839098
 10
-2.1006146364
 20
8.6448252205
 10
-2.1012364478
 20
8.6591789935
 10
-2.1021190411
 20
8.6736447051
 10
-2.1035156471
 20
8.6911480516
 10
-2.1052748492
 20
8.7087957556
 10
-2.1073912169
 20
8.7265717371
 10
-2.1098593201
 20
8.7444599162
 10
-2.1126737284
 20
8.7624442127
 10
-2.1158294324
 20
8.7805096308
 10
-2.1193231068
 20
8.7986455115
 10
-2.1231518471
 20
8.8168422798
 10
-2.1273127488
 20
8.8350903608
 10
-2.1318029075
 20
8.8533801795
 10
-2.136619569
 20
8.8717016134
 10
-2.1417605804
 20
8.8900423496
 10
-2.147223939
 20
8.9083895274
 10
-2.1530076422
 20
8.9267302862
 10
-2.1591096873
 20
8.9450517654
 10
-2.1644367706
 20
8.9602955818
 10
-2.1699842514
 20
8.9755091725
 10
-2.1757528469
 20
8.9906846314
 10
-2.1817432744
 20
9.0058140525
 10
-2.1879562514
 20
9.0208895297
 10
-2.1943924952
 20
9.0359031568
 10
-2.2010514253
 20
9.0508467322
 10
-2.2079272701
 20
9.0657108714
 10
-2.2150129605
 20
9.0804858945
 10
-2.2223014269
 20
9.0951621215
 10
-2.2297856001
 20
9.1097298723
 10
-2.2374584107
 20
9.1241794669
 10
-2.2469066238
 20
9.141353954
 10
-2.2566148345
 20
9.1583550442
 10
-2.2665815825
 20
9.1751934247
 10
-2.2768054074
 20
9.1918797828
 10
-2.2872848486
 20
9.2084248055
  0
LWPOLYLINE
  5
2B4
100
AcDbEntity
  8
0
100
AcDbPolyline
 62
253
  6
CONTINUOUS
 90
37
 70
0
 10
-1.8285879403
 20
8.4313454243
 10
-1.8279274623
 20
8.4504735636
 10
-1.8276358752
 20
8.4697626348
 10
-1.8277055501
 20
8.4892114291
 10
-1.8281288581
 20
8.5088187375
 10
-1.82889817
 20
8.5285833511
 10
-1.8300058569
 20
8.548504061
 10
-1.8317716705
 20
8.5726099498
 10
-1.8340046312
 20
8.5969169394
 10
-1.836695612
 20
8.6214030927
 10
-1.8398354858
 20
8.6460464729
 10
-1.8434151256
 20
8.6708251428
 10
-1.8474258952
 20
8.6957188692
 10
-1.851861123
 20
8.7207142332
 10
-1.8567146284
 20
8.7457995198
 10
-1.8619802306
 20
8.7709630139
 10
-1.8676517491
 20
8.7961930004
 10
-1.8737233757
 20
8.8214774794
 10
-1.8801907928
 20
8.846803312
 10
-1.8870500554
 20
8.8721570742
 10
-1.8942972184
 20
8.8975253423
 10
-1.9019283366
 20
8.9228946925
 10
-1.9099402507
 20
8.9482524884
 10
-1.9183329429
 20
8.9735892434
 10
-1.9271071811
 20
8.9988962583
 10
-1.9362637332
 20
9.0241648339
 10
-1.9458033669
 20
9.049386271
 10
-1.9557260776
 20
9.0745492706
 10
-1.9660287691
 20
9.0996321342
 10
-1.9767075727
 20
9.1246105636
 10
-1.9877586198
 20
9.1494602603
 10
-1.9991780416
 20
9.1741569263
 10
-2.0089744247
 20
9.1946054309
 10
-2.01903125
 20
9.2149309986
 10
-2.0293558306
 20
9.2351338377
 10
-2.0399554795
 20
9.2552141565
 10
-2.0508375099
 20
9.2751721633
  0
LINE
  5
2B5
100
AcDbEntity
  8
0
100
AcDbLine
 62
253
  6
CONTINUOUS
 10
-2.9749353782
 20
8.9726586171
 11
-2.9969103591
 21
8.4259689326
  0
LWPOLYLINE
  5
2B6
100
AcDbEntity
  8
0
100
AcDbPolyline
 62
253
  6
CONTINUOUS
 90
3
 70
0
 10
-2.9373992382
 20
9.7626115434
 10
-2.9506854558
 20
9.4988978551
 10
-2.9749353782
 20
8.9726586171
  0
LWPOLYLINE
  5
2B7
100
AcDbEntity
  8
0
100
AcDbPolyline
 62
253
  6
CONTINUOUS
 90
41
 70
0
 10
-1.5230097807
 20
8.2549084247
 10
-1.5244856623
 20
8.227442571
 10
-1.5264508575
 20
8.200334134
 10
-1.5289019382
 20
8.1735765181
 10
-1.5318354764
 20
8.1471631276
 10
-1.5352480439
 20
8.1210873668
 10
-1.5391363675
 20
8.095345767
 10
-1.5434977935
 20
8.0699473669
 10
-1.5483298231
 20
8.0449043322
 10
-1.5536299573
 20
8.0202288286
 10
-1.5593956973
 20
7.9959330216
 10
-1.5656244613
 20
7.9720290808
 10
-1.5723133357
 20
7.9485291905
 10
-1.579459324
 20
7.9254455391
 10
-1.5870594296
 20
7.9027903149
 10
-1.5951106561
 20
7.8805757061
 10
-1.6036102302
 20
7.8588136224
 10
-1.6125562721
 20
7.8375148592
 10
-1.6219471256
 20
7.8166899334
 10
-1.6317811343
 20
7.796349362
 10
-1.6420566418
 20
7.7765036617
 10
-1.6527710071
 20
7.7571626319
 10
-1.6639176509
 20
7.7383332021
 10
-1.6754890094
 20
7.7200215843
 10
-1.6874775186
 20
7.7022339902
 10
-1.6998756146
 20
7.6849766319
 10
-1.7126761519
 20
7.6682555019
 10
-1.7258736586
 20
7.6520757151
 10
-1.7394630811
 20
7.636442167
 10
-1.7534393658
 20
7.6213597533
 10
-1.7677974592
 20
7.6068333693
 10
-1.7825314347
 20
7.5928685422
 10
-1.797631874
 20
7.5794733239
 10
-1.8130884858
 20
7.5666563982
 10
-1.8288909788
 20
7.5544264485
 10
-1.8450290616
 20
7.5427921585
 10
-1.8614951504
 20
7.5317609672
 10
-1.8782924909
 20
7.5213353358
 10
-1.8954270363
 20
7.5115164809
 10
-1.9129047398
 20
7.5023056193
 10
-1.9307315544
 20
7.4937039674
  0
LWPOLYLINE
  5
2B8
100
AcDbEntity
  8
0
100
AcDbPolyline
 62
253
  6
CONTINUOUS
 90
39
 70
0
 10
-2.4072656665
 20
8.7654666908
 10
-2.4075891086
 20
8.7597082809
 10
-2.4080404136
 20
8.7540495406
 10
-2.4086164479
 20
8.748487701
 10
-2.4093140779
 20
8.7430199932
 10
-2.41013017
 20
8.7376436481
 10
-2.4110615907
 20
8.7323558969
 10
-2.4121052065
 20
8.7271539705
 10
-2.4134606174
 20
8.7211909654
 10
-2.4149609233
 20
8.7153433908
 10
-2.4166025743
 20
8.709613629
 10
-2.4183820207
 20
8.7040040622
 10
-2.4202957125
 20
8.6985170727
 10
-2.4223401001
 20
8.6931550426
 10
-2.4245118035
 20
8.6879202086
 10
-2.4268081228
 20
8.6828142248
 10
-2.4292265283
 20
8.6778386
 10
-2.43176449
 20
8.6729948427
 10
-2.4344194781
 20
8.6682844615
 10
-2.4371889626
 20
8.6637089649
 10
-2.4400706984
 20
8.6592699835
 10
-2.4430635795
 20
8.6549696348
 10
-2.4461667845
 20
8.650810158
 10
-2.4493794919
 20
8.6467937924
 10
-2.4527008806
 20
8.6429227775
 10
-2.4561301291
 20
8.6391993525
 10
-2.4596664593
 20
8.6356261072
 10
-2.4633092659
 20
8.6322070328
 10
-2.4670579871
 20
8.6289464711
 10
-2.4709120607
 20
8.6258487637
 10
-2.4748709248
 20
8.6229182524
 10
-2.4789340173
 20
8.620159279
 10
-2.4824996503
 20
8.6179344919
 10
-2.4861437978
 20
8.6158430133
 10
-2.4898688113
 20
8.6138889339
 10
-2.4936770422
 20
8.6120763448
 10
-2.4975708419
 20
8.6104093367
 10
-2.5015525619
 20
8.6088920004
 10
-2.509396219
 20
8.6062645854
  0
LWPOLYLINE
  5
2B9
100
AcDbEntity
  8
0
100
AcDbPolyline
 62
253
  6
CONTINUOUS
 90
51
 70
0
 10
-3.6599320405
 20
-11.5007181643
 10
-3.6607835044
 20
-11.5072157998
 10
-3.661850224
 20
-11.5135239186
 10
-3.6631285101
 20
-11.5196570239
 10
-3.6646146734
 20
-11.5256296185
 10
-3.6663050247
 20
-11.5314562056
 10
-3.668196551
 20
-11.5371488043
 10
-3.6702889442
 20
-11.5427094992
 10
-3.6725825728
 20
-11.548137891
 10
-3.6750778052
 20
-11.5534335803
 10
-3.6777750095
 20
-11.5585961679
 10
-3.680673435
 20
-11.5636238316
 10
-3.6837678534
 20
-11.5685090577
 10
-3.6870519176
 20
-11.5732429093
 10
-3.69051928
 20
-11.5778164499
 10
-3.6941635934
 20
-11.5822207427
 10
-3.6979788472
 20
-11.5864479135
 10
-3.7019603782
 20
-11.590494338
 10
-3.7061038601
 20
-11.5943574542
 10
-3.7104049666
 20
-11.5980347004
 10
-3.7148593711
 20
-11.6015235144
 10
-3.7194624665
 20
-11.6048211412
 10
-3.7242085212
 20
-11.6079240518
 10
-3.7290915228
 20
-11.6108285241
 10
-3.7341054588
 20
-11.6135308357
 10
-3.7392443167
 20
-11.6160272645
 10
-3.7445022556
 20
-11.6183143336
 10
-3.7498741198
 20
-11.6203895481
 10
-3.7553549251
 20
-11.6222506582
 10
-3.7609396875
 20
-11.6238954145
 10
-3.7666234227
 20
-11.6253215674
 10
-3.7724008731
 20
-11.6265267941
 10
-3.7782656873
 20
-11.6275084797
 10
-3.7842112406
 20
-11.6282639361
 10
-3.7902309081
 20
-11.6287904754
 10
-3.796318065
 20
-11.6290854095
 10
-3.802464761
 20
-11.6291468363
 10
-3.8086577438
 20
-11.6289759967
 10
-3.8148824357
 20
-11.6285749176
 10
-3.8211242589
 20
-11.6279456261
 10
-3.8273686355
 20
-11.627090149
 10
-3.8336037003
 20
-11.6260104325
 10
-3.8398284381
 20
-11.6247081002
 10
-3.8460445462
 20
-11.6231846948
 10
-3.8522537219
 20
-11.6214417592
 10
-3.8584576626
 20
-11.6194808362
 10
-3.8646594273
 20
-11.6173017037
 10
-3.8708675218
 20
-11.6148970792
 10
-3.8770918138
 20
-11.6122579151
 10
-3.8833421709
 20
-11.6093751641
 10
-3.8896284607
 20
-11.6062397787
  0
LWPOLYLINE
  5
2BA
100
AcDbEntity
  8
0
100
AcDbPolyline
 62
253
  6
CONTINUOUS
 90
51
 70
0
 10
-4.5089662901
 20
-9.8795724412
 10
-4.5080373716
 20
-9.8728531776
 10
-4.5068785075
 20
-9.8663379542
 10
-4.5054940373
 20
-9.8600118855
 10
-4.5038883006
 20
-9.8538600857
 10
-4.5020656367
 20
-9.8478676693
 10
-4.5000296144
 20
-9.8420221875
 10
-4.4977807191
 20
-9.8363209392
 10
-4.4953186657
 20
-9.8307636601
 10
-4.4926431689
 20
-9.8253500861
 10
-4.4897539435
 20
-9.8200799528
 10
-4.4866519842
 20
-9.8149545909
 10
-4.4833434054
 20
-9.8099817103
 10
-4.4798356018
 20
-9.8051706158
 10
-4.4761359679
 20
-9.8005306121
 10
-4.4722518981
 20
-9.7960710039
 10
-4.4681905314
 20
-9.7917999397
 10
-4.4639579849
 20
-9.7877209418
 10
-4.4595601198
 20
-9.7838363764
 10
-4.4550027978
 20
-9.7801486097
 10
-4.45029188
 20
-9.7766600076
 10
-4.4454332946
 20
-9.7733729851
 10
-4.4404332351
 20
-9.7702901531
 10
-4.4352979616
 20
-9.7674141712
 10
-4.4300337343
 20
-9.764747699
 10
-4.4246468132
 20
-9.7622933963
 10
-4.4191434338
 20
-9.7600537697
 10
-4.4135297336
 20
-9.7580307147
 10
-4.4078118252
 20
-9.7562259736
 10
-4.4019958213
 20
-9.7546412888
 10
-4.3960878346
 20
-9.7532784028
 10
-4.390094077
 20
-9.7521390761
 10
-4.3840211564
 20
-9.7512251415
 10
-4.3778757798
 20
-9.7505384499
 10
-4.3716646543
 20
-9.7500808522
 10
-4.3653944868
 20
-9.7498541992
 10
-4.3590733035
 20
-9.7498596357
 10
-4.3527144067
 20
-9.7500954818
 10
-4.3463324178
 20
-9.7505593515
 10
-4.3399419583
 20
-9.7512488588
 10
-4.3335576497
 20
-9.7521616177
 10
-4.3271914663
 20
-9.7532953285
 10
-4.3208447944
 20
-9.7546480376
 10
-4.3145163734
 20
-9.7562178775
 10
-4.3082049425
 20
-9.7580029808
 10
-4.3019092411
 20
-9.7600014802
 10
-4.2956265
 20
-9.7622133239
 10
-4.2893479163
 20
-9.7646457223
 10
-4.2830631786
 20
-9.7673077015
 10
-4.2767619754
 20
-9.7702082874
 10
-4.2704339956
 20
-9.773356506
  0
LWPOLYLINE
  5
2BB
100
AcDbEntity
  8
0
100
AcDbPolyline
 62
253
  6
CONTINUOUS
 90
31
 70
0
 10
-4.8110523975
 20
-9.6337490607
 10
-4.8181485585
 20
-9.6688217181
 10
-4.8243756258
 20
-9.7045454252
 10
-4.8297740027
 20
-9.7408933413
 10
-4.834384092
 20
-9.7778386252
 10
-4.838246174
 20
-9.8153492215
 10
-4.8414000378
 20
-9.8533722159
 10
-4.8438853499
 20
-9.8918494798
 10
-4.8457417766
 20
-9.9307228845
 10
-4.8470092732
 20
-9.9699400768
 10
-4.8477289511
 20
-10.0094718059
 10
-4.8479422107
 20
-10.0492945967
 10
-4.8476904524
 20
-10.089384974
 10
-4.8467022857
 20
-10.1432117505
 10
-4.8450550521
 20
-10.1974004708
 10
-4.8428427826
 20
-10.2518791027
 10
-4.8401288628
 20
-10.3065942532
 10
-4.8368540964
 20
-10.3615670844
 10
-4.8329286418
 20
-10.4168373975
 10
-4.8295026086
 20
-10.4585111582
 10
-4.825616829
 20
-10.5004025952
 10
-4.8212281048
 20
-10.542539663
 10
-4.8162932376
 20
-10.5849503164
 10
-4.81077003
 20
-10.6276554101
 10
-4.8046202884
 20
-10.6706473995
 10
-4.7978068201
 20
-10.7139116403
 10
-4.7902924321
 20
-10.757433488
 10
-4.782039256
 20
-10.8012042979
 10
-4.7730067192
 20
-10.8452394246
 10
-4.7631535735
 20
-10.8895602222
 10
-4.7524385706
 20
-10.9341880448
  0
LWPOLYLINE
  5
2BC
100
AcDbEntity
  8
ASSI
100
AcDbPolyline
 62
7
  6
CONTINUOUS
 90
13
 70
0
 10
4.3608548124
 20
-5.2941176749
 10
4.4023757009
 20
-5.3155798593
 10
4.4502284599
 20
-5.3349308505
 10
4.4997582918
 20
-5.3499446986
 10
4.550906038
 20
-5.360849801
 10
4.6033008023
 20
-5.3676747928
 10
4.6560352559
 20
-5.370389452
 10
4.7088433709
 20
-5.3690352076
 10
4.7614584277
 20
-5.3635674188
 10
4.8129624256
 20
-5.3539985106
 10
4.8629771525
 20
-5.3402978874
 10
4.9114526059
 20
-5.3222420043
 10
4.9501047345
 20
-5.303832857
  0
LWPOLYLINE
  5
2BD
100
AcDbEntity
  8
ASSI
100
AcDbPolyline
 62
253
  6
CONTINUOUS
 90
43
 70
0
 10
4.3091278147
 20
-5.179546251
 10
4.3193252131
 20
-5.1852699697
 10
4.3298003532
 20
-5.1908255025
 10
4.3405447618
 20
-5.1962083569
 10
4.3515497266
 20
-5.2014141759
 10
4.3628063661
 20
-5.2064387578
 10
4.3743056417
 20
-5.2112780565
 10
4.3860383096
 20
-5.2159281836
 10
4.3979948313
 20
-5.2203853552
 10
4.4101654424
 20
-5.2246459139
 10
4.4225402535
 20
-5.2287064126
 10
4.4351092948
 20
-5.2325635896
 10
4.4478624292
 20
-5.2362143131
 10
4.4607893478
 20
-5.2396556463
 10
4.4738795872
 20
-5.2428848128
 10
4.4871225698
 20
-5.245899175
 10
4.500507594
 20
-5.2486963132
 10
4.5140238228
 20
-5.2512739743
 10
4.5276603027
 20
-5.2536300357
 10
4.5414059964
 20
-5.2557626109
 10
4.5552497908
 20
-5.2576699919
 10
4.5691804865
 20
-5.2593505967
 10
4.5831868111
 20
-5.2608030887
 10
4.5972574379
 20
-5.2620263119
 10
4.6113809947
 20
-5.2630192335
 10
4.625546061
 20
-5.2637810755
 10
4.639741174
 20
-5.2643112422
 10
4.6539548478
 20
-5.2646092551
 10
4.6681755845
 20
-5.2646749006
 10
4.6823918805
 20
-5.2645081492
 10
4.6965922325
 20
-5.2641090819
 10
4.710765149
 20
-5.2634780515
 10
4.7248991696
 20
-5.2626155944
 10
4.7389828704
 20
-5.2615223495
 10
4.7530048619
 20
-5.2601992317
 10
4.7669537977
 20
-5.2586473396
 10
4.7808183926
 20
-5.2568678663
 10
4.7945874376
 20
-5.254862283
 10
4.8082497875
 20
-5.2526322427
 10
4.8217943694
 20
-5.2501794879
 10
4.8352102168
 20
-5.2475060401
 10
4.848486488
 20
-5.2446140925
 10
4.8616124534
 20
-5.2415059148
  0
LINE
  5
2BE
100
AcDbEntity
  8
ASSI
100
AcDbLine
 62
253
  6
CONTINUOUS
 10
4.3091278144
 20
-5.8290784902
 11
-10.4950166151
 21
2.7186489638
  0
LINE
  5
2BF
100
AcDbEntity
  8
ASSI
100
AcDbLine
 62
253
  6
CONTINUOUS
 10
4.4843631001
 20
-5.5236291468
 11
-10.319783918
 21
3.0240998019
  0
LINE
  5
2C0
100
AcDbEntity
  8
ASSI
100
AcDbLine
 62
7
  6
CONTINUOUS
 10
-10.4432473101
 20
3.2535853189
 11
4.360899708
 21
-5.2941436298
  0
LINE
  5
2C1
100
AcDbEntity
  8
ASSI
100
AcDbLine
 62
253
  6
CONTINUOUS
 10
-10.4950166151
 20
3.3681812024
 11
4.3091278144
 21
-5.1795462517
  0
LWPOLYLINE
  5
2C2
100
AcDbEntity
  8
ASSI
100
AcDbPolyline
 62
253
  6
CONTINUOUS
 90
29
 70
0
 10
-10.4950166148
 20
2.7186489636
 10
-10.5049280995
 20
2.7245377653
 10
-10.5145455817
 20
2.730588499
 10
-10.5238612819
 20
2.7367962717
 10
-10.5328676474
 20
2.7431560569
 10
-10.541557411
 20
2.7496627208
 10
-10.5499235905
 20
2.7563110299
 10
-10.5579594484
 20
2.7630956488
 10
-10.5656584397
 20
2.7700110651
 10
-10.573014274
 20
2.7770516156
 10
-10.5800209795
 20
2.7842115912
 10
-10.5866729163
 20
2.7914852301
 10
-10.5929647205
 20
2.7988666447
 10
-10.5988913052
 20
2.8063498829
 10
-10.6044478722
 20
2.8139288975
 10
-10.6096299302
 20
2.8215975365
 10
-10.6144332896
 20
2.8293496204
 10
-10.6188540589
 20
2.8371788858
 10
-10.6228886551
 20
2.8450789546
 10
-10.6265338128
 20
2.8530434526
 10
-10.6297865856
 20
2.8610659567
 10
-10.6326443422
 20
2.8691399378
 10
-10.6351047706
 20
2.8772588855
 10
-10.6371658816
 20
2.8854162527
 10
-10.638826009
 20
2.8936054022
 10
-10.6400838097
 20
2.9018197376
 10
-10.640938265
 20
2.9100526328
 10
-10.6413886831
 20
2.9182973771
 10
-10.6414644773
 20
2.9229975662
  0
LWPOLYLINE
  5
2C3
100
AcDbEntity
  8
ASSI
100
AcDbPolyline
 62
253
  6
CONTINUOUS
 90
48
 70
0
 10
-10.319783918
 20
3.0240998019
 10
-10.3247451212
 20
3.0270481115
 10
-10.3295519759
 20
3.0300731792
 10
-10.334204482
 20
3.0331750052
 10
-10.338706223
 20
3.0363562617
 10
-10.3430536155
 20
3.0396142763
 10
-10.3472359094
 20
3.042941032
 10
-10.351252641
 20
3.0463366603
 10
-10.355104274
 20
3.0498010295
 10
-10.3587814494
 20
3.0533257277
 10
-10.3622837335
 20
3.0569108938
 10
-10.36561156
 20
3.0605563889
 10
-10.3687568713
 20
3.0642533842
 10
-10.371719227
 20
3.0680020052
 10
-10.3744990674
 20
3.0718021264
 10
-10.3770896561
 20
3.0756445422
 10
-10.3794905357
 20
3.0795293586
 10
-10.3817021635
 20
3.0834564697
 10
-10.3837191749
 20
3.0874163523
 10
-10.3855410962
 20
3.0914090841
 10
-10.387168401
 20
3.0954345874
 10
-10.3885971451
 20
3.0994831059
 10
-10.3898268469
 20
3.1035546945
 10
-10.3908579881
 20
3.1076492985
 10
-10.3916880695
 20
3.1117569968
 10
-10.3923166039
 20
3.1158778232
 10
-10.3927440785
 20
3.120011744
 10
-10.3929694563
 20
3.1241487379
 10
-10.3929922468
 20
3.1282888118
 10
-10.3928129404
 20
3.1324319587
 10
-10.3924319721
 20
3.1365681361
 10
-10.3918488529
 20
3.1406973254
 10
-10.3910640716
 20
3.1448195452
 10
-10.3900795296
 20
3.1489248076
 10
-10.3888947423
 20
3.1530130726
 10
-10.3875101941
 20
3.1570843802
 10
-10.3859292402
 20
3.1611288629
 10
-10.3841514027
 20
3.1651464575
 10
-10.3821771593
 20
3.1691372273
 10
-10.3800112986
 20
3.1730914941
 10
-10.3776533572
 20
3.1770091661
 10
-10.3751037985
 20
3.1808903351
 10
-10.3723688007
 20
3.1847255987
 10
-10.3694479165
 20
3.1885148447
 10
-10.3663415933
 20
3.1922581853
 10
-10.3630573519
 20
3.1959465543
 10
-10.3595947505
 20
3.199579826
 10
-10.3559542309
 20
3.203158126
  0
LWPOLYLINE
  5
2C4
100
AcDbEntity
  8
0
100
AcDbPolyline
 62
253
  6
CONTINUOUS
 90
39
 70
0
 10
-1.027171731
 20
-12.4588077997
 10
-1.0267038491
 20
-12.4718201097
 10
-1.0265164337
 20
-12.4846224243
 10
-1.0266043108
 20
-12.4972199876
 10
-1.0269623064
 20
-12.5096180436
 10
-1.0275852465
 20
-12.5218218363
 10
-1.0284679571
 20
-12.5338366097
 10
-1.0298634076
 20
-12.548009322
 10
-1.0316200498
 20
-12.5619090955
 10
-1.0337324565
 20
-12.5755276279
 10
-1.0361952005
 20
-12.5888566169
 10
-1.0390028544
 20
-12.60188776
 10
-1.0421504038
 20
-12.6146132769
 10
-1.0456344852
 20
-12.627027474
 10
-1.0494521479
 20
-12.6391251801
 10
-1.053600441
 20
-12.6509012236
 10
-1.0580764138
 20
-12.6623504331
 10
-1.0628772672
 20
-12.6734670084
 10
-1.0680008085
 20
-12.6842426345
 10
-1.0734449966
 20
-12.6946683677
 10
-1.0792077903
 20
-12.7047352644
 10
-1.0852871486
 20
-12.7144343808
 10
-1.0905939405
 20
-12.722229189
 10
-1.0961198448
 20
-12.7297548482
 10
-1.1018655552
 20
-12.7370038232
 10
-1.1078317649
 20
-12.743968579
 10
-1.1140191674
 20
-12.7506415803
 10
-1.1204284563
 20
-12.757015292
 10
-1.127059063
 20
-12.7630832798
 10
-1.1339053723
 20
-12.7688435132
 10
-1.1409605067
 20
-12.7742950625
 10
-1.1482175891
 20
-12.7794369981
 10
-1.1556697423
 20
-12.7842683902
 10
-1.1633100888
 20
-12.7887883092
 10
-1.1727189978
 20
-12.7938018466
 10
-1.1823876841
 20
-12.7983764454
 10
-1.1923148294
 20
-12.802523027
 10
-1.2024991158
 20
-12.8062525128
 10
-1.2129392251
 20
-12.8095758241
  0
LWPOLYLINE
  5
2C5
100
AcDbEntity
  8
0
100
AcDbPolyline
 62
253
  6
CONTINUOUS
 90
41
 70
0
 10
-1.2598134409
 20
8.1029421567
 10
-1.2586093449
 20
8.1365240843
 10
-1.2579720591
 20
8.1703784302
 10
-1.2578995389
 20
8.204511172
 10
-1.2583897399
 20
8.238928287
 10
-1.2594406176
 20
8.2736357526
 10
-1.2610504424
 20
8.3086349017
 10
-1.2632187451
 20
8.3439084889
 10
-1.2659453714
 20
8.3794346243
 10
-1.2692301669
 20
8.4151914182
 10
-1.2730729773
 20
8.4511569806
 10
-1.2774737385
 20
8.4873108851
 10
-1.282432746
 20
8.5236385596
 10
-1.2879503855
 20
8.5601268951
 10
-1.2940270427
 20
8.5967627829
 10
-1.3006631033
 20
8.6335331142
 10
-1.3078590464
 20
8.6704242326
 10
-1.3156157252
 20
8.7074202919
 10
-1.3239340862
 20
8.744504898
 10
-1.3328150759
 20
8.7816616569
 10
-1.342259641
 20
8.8188741748
 10
-1.352266995
 20
8.8561258778
 10
-1.36282942
 20
8.8933994722
 10
-1.3739374653
 20
8.9306774845
 10
-1.3855816798
 20
8.9679424411
 10
-1.3977526129
 20
9.0051768684
 10
-1.4104411589
 20
9.0423638899
 10
-1.4236395939
 20
9.0794890169
 10
-1.4373405391
 20
9.1165383575
 10
-1.4515366157
 20
9.1534980202
 10
-1.4662204451
 20
9.1903541132
 10
-1.4813840274
 20
9.2270914394
 10
-1.4970168784
 20
9.26368958
 10
-1.513107893
 20
9.300126811
 10
-1.5296459659
 20
9.3363814081
 10
-1.5466199918
 20
9.3724316474
 10
-1.5640215763
 20
9.4082604852
 10
-1.5818531687
 20
9.4438696001
 10
-1.6001199288
 20
9.4792653513
 10
-1.6188270168
 20
9.514454098
 10
-1.6379795925
 20
9.5494421992
  0
LWPOLYLINE
  5
2C6
100
AcDbEntity
  8
0
100
AcDbPolyline
 62
253
  6
CONTINUOUS
 90
41
 70
0
 10
-0.9533372558
 20
7.9259866485
 10
-0.9555111118
 20
7.8853633981
 10
-0.9583917608
 20
7.8452556224
 10
-0.9619750745
 20
7.8056516284
 10
-0.9662569248
 20
7.7665397231
 10
-0.9712331834
 20
7.7279082132
 10
-0.9768994613
 20
7.689751389
 10
-0.9832503269
 20
7.6520874731
 10
-0.9902800878
 20
7.6149406714
 10
-0.9979830518
 20
7.5783351898
 10
-1.0063535265
 20
7.5422952342
 10
-1.0153861639
 20
7.5068428384
 10
-1.0250769933
 20
7.4719913471
 10
-1.0354223884
 20
7.4377519333
 10
-1.0464187228
 20
7.4041357698
 10
-1.0580623703
 20
7.3711540293
 10
-1.0703497869
 20
7.3388186993
 10
-1.0832777585
 20
7.3071450254
 10
-1.0968431535
 20
7.2761490679
 10
-1.1110428401
 20
7.2458468873
 10
-1.1258736866
 20
7.2162545437
 10
-1.1413314684
 20
7.1873867852
 10
-1.1574075887
 20
7.1592531094
 10
-1.1740923577
 20
7.1318617018
 10
-1.1913760856
 20
7.1052207478
 10
-1.2092490827
 20
7.0793384328
 10
-1.2277021704
 20
7.054222807
 10
-1.2467282155
 20
7.02988138
 10
-1.2663205961
 20
7.0063215263
 10
-1.2864726901
 20
6.9835506203
 10
-1.3071778758
 20
6.9615760364
 10
-1.3284283833
 20
6.940406
 10
-1.3502118526
 20
6.9200521394
 10
-1.3725147756
 20
6.9005269338
 10
-1.3953236445
 20
6.8818428625
 10
-1.4186249513
 20
6.8640124046
 10
-1.4424088551
 20
6.8470462305
 10
-1.4666801821
 20
6.8309477751
 10
-1.4914474255
 20
6.8157186645
 10
-1.5167190785
 20
6.8013605247
 10
-1.5425036344
 20
6.7878749818
  0
LWPOLYLINE
  5
2C7
100
AcDbEntity
  8
0
100
AcDbPolyline
 62
253
  6
CONTINUOUS
 90
31
 70
0
 10
-3.3567394295
 20
-11.7456434342
 10
-3.3502900749
 20
-11.7109428885
 10
-3.3446717852
 20
-11.6755683383
 10
-3.3398437887
 20
-11.6395458898
 10
-3.3357653135
 20
-11.6029016494
 10
-3.3323956949
 20
-11.5656670177
 10
-3.3296946955
 20
-11.527894573
 10
-3.3276221849
 20
-11.489642188
 10
-3.326138033
 20
-11.4509677354
 10
-3.3252019013
 20
-11.411923381
 10
-3.3247726204
 20
-11.372538463
 10
-3.3248088127
 20
-11.3328366128
 10
-3.3252691008
 20
-11.2928414617
 10
-3.3264716784
 20
-11.2391019055
 10
-3.3282605976
 20
-11.1849552313
 10
-3.3305418117
 20
-11.1304737336
 10
-3.3332520648
 20
-11.0757110605
 10
-3.336451263
 20
-11.020646274
 10
-3.3402301029
 20
-10.9652397897
 10
-3.3435000555
 20
-10.923434972
 10
-3.347190574
 20
-10.881387567
 10
-3.3513451587
 20
-10.8390694586
 10
-3.3560073101
 20
-10.7964525308
 10
-3.3612196105
 20
-10.7535159563
 10
-3.3670209697
 20
-10.710268063
 10
-3.3734493794
 20
-10.6667244678
 10
-3.3805428311
 20
-10.6229007875
 10
-3.3883399984
 20
-10.5788065207
 10
-3.3968822815
 20
-10.5344266929
 10
-3.4062117629
 20
-10.4897402117
 10
-3.4163705246
 20
-10.4447259846
  0
LWPOLYLINE
  5
2C8
100
AcDbEntity
  8
ASSI
100
AcDbPolyline
 62
253
  6
CONTINUOUS
 90
55
 70
0
 10
5.0695507131
 20
2.2728634768
 10
5.0590153031
 20
2.2675713494
 10
5.0482125735
 20
2.2624542966
 10
5.037151263
 20
2.2575164576
 10
5.0258403193
 20
2.2527618269
 10
5.014288892
 20
2.2481942504
 10
5.0025063253
 20
2.243817423
 10
4.9905021505
 20
2.2396348853
 10
4.978286078
 20
2.2356500205
 10
4.9658679896
 20
2.2318660522
 10
4.9532579306
 20
2.2282860413
 10
4.9404661016
 20
2.2249128836
 10
4.9275028502
 20
2.2217493079
 10
4.9143786626
 20
2.2187978732
 10
4.9011041552
 20
2.2160609671
 10
4.8876900662
 20
2.2135408033
 10
4.8741472465
 20
2.2112394207
 10
4.8604866511
 20
2.2091586807
 10
4.8467193305
 20
2.2073002666
 10
4.8328564213
 20
2.2056656817
 10
4.8189091376
 20
2.2042562482
 10
4.8048887615
 20
2.2030731063
 10
4.7908066346
 20
2.202117213
 10
4.7766741481
 20
2.2013893416
 10
4.7625027341
 20
2.2008900808
 10
4.7483038563
 20
2.2006198345
 10
4.7340890004
 20
2.2005788214
 10
4.7198696651
 20
2.2007670745
 10
4.7056573527
 20
2.2011844417
 10
4.69146356
 20
2.2018305853
 10
4.6772997685
 20
2.2027049826
 10
4.6631774358
 20
2.2038069263
 10
4.6491079856
 20
2.2051355251
 10
4.6351027991
 20
2.2066897041
 10
4.6211732054
 20
2.2084682062
 10
4.6073304724
 20
2.2104695927
 10
4.5935857978
 20
2.2126922447
 10
4.5799503
 20
2.2151343641
 10
4.5664350091
 20
2.2177939755
 10
4.5530508578
 20
2.2206689275
 10
4.539808673
 20
2.2237568945
 10
4.5267191665
 20
2.2270553785
 10
4.5137929268
 20
2.2305617114
 10
4.50104041
 20
2.2342730567
 10
4.4884719321
 20
2.2381864123
 10
4.47609766
 20
2.2422986126
 10
4.4639276035
 20
2.2466063311
 10
4.4519716071
 20
2.2511060832
 10
4.4402393425
 20
2.255794229
 10
4.4287403
 20
2.2606669762
 10
4.4174837816
 20
2.2657203829
 10
4.4064788928
 20
2.2709503616
 10
4.3957345358
 20
2.2763526814
 10
4.3852594019
 20
2.2819229723
 10
4.3750619647
 20
2.2876567285
  0
LINE
  5
2C9
100
AcDbEntity
  8
ASSI
100
AcDbLine
 62
7
  6
CONTINUOUS
 10
8.6448624063
 20
-3.4351570428
 11
8.5682937607
 21
-3.3909472665
  0
LWPOLYLINE
  5
2CA
100
AcDbEntity
  8
0
100
AcDbPolyline
 62
253
  6
CONTINUOUS
 90
53
 70
0
 10
-1.7585817791
 20
6.922310019
 10
-1.7615638601
 20
6.9281291367
 10
-1.764407586
 20
6.9339508149
 10
-1.7671222278
 20
6.9397888097
 10
-1.7697170571
 20
6.9456568767
 10
-1.7722013449
 20
6.9515687721
 10
-1.7745823544
 20
6.9575355405
 10
-1.7768593157
 20
6.9635573818
 10
-1.779029451
 20
6.9696317848
 10
-1.7810899821
 20
6.9757562381
 10
-1.7830381312
 20
6.9819282306
 10
-1.7848707631
 20
6.9881441411
 10
-1.7865833144
 20
6.9943959089
 10
-1.7881708646
 20
7.0006743637
 10
-1.7896284932
 20
7.006970335
 10
-1.7909512798
 20
7.0132746522
 10
-1.7919469883
 20
7.0185260944
 10
-1.792842436
 20
7.0237601675
 10
-1.7936344195
 20
7.028960075
 10
-1.7943202685
 20
7.0341135454
 10
-1.7948994449
 20
7.0392264074
 10
-1.7953719438
 20
7.0443090146
 10
-1.7957973701
 20
7.0503772445
 10
-1.7960646584
 20
7.056401465
 10
-1.7961692933
 20
7.0623663243
 10
-1.7961067595
 20
7.0682564705
 10
-1.7958725418
 20
7.0740565517
 10
-1.7954637208
 20
7.0797523598
 10
-1.794883761
 20
7.0853342621
 10
-1.794137723
 20
7.0907937698
 10
-1.7932306674
 20
7.0961223941
 10
-1.7921676546
 20
7.1013116461
 10
-1.7911655785
 20
7.1055258062
 10
-1.7900571466
 20
7.1096466086
 10
-1.7888407924
 20
7.1136833771
 10
-1.787516095
 20
7.1176415286
 10
-1.786087215
 20
7.1215108524
 10
-1.7845594586
 20
7.1252772313
 10
-1.7826026486
 20
7.1296446217
 10
-1.7805175278
 20
7.1338400503
 10
-1.7783105266
 20
7.1378601251
 10
-1.7759880753
 20
7.1417014539
 10
-1.7735566045
 20
7.1453606447
 10
-1.7710219208
 20
7.1488351527
 10
-1.7683873359
 20
7.1521258215
 10
-1.7656555378
 20
7.1552343419
 10
-1.7628292146
 20
7.1581624047
 10
-1.7599110543
 20
7.1609117007
 10
-1.7569015584
 20
7.1634839122
 10
-1.7537924823
 20
7.1658806875
 10
-1.750573395
 20
7.1681036666
 10
-1.7472338653
 20
7.1701544894
 10
-1.7437634621
 20
7.1720347957
  0
LWPOLYLINE
  5
2CB
100
AcDbEntity
  8
0
100
AcDbPolyline
 62
253
  6
CONTINUOUS
 90
53
 70
0
 10
-2.1465801759
 20
7.632678424
 10
-2.1494357715
 20
7.6385065587
 10
-2.1521529924
 20
7.6443341365
 10
-2.1547407817
 20
7.6501751076
 10
-2.1572080826
 20
7.6560434221
 10
-2.1595638383
 20
7.6619530301
 10
-2.1618150327
 20
7.6679151099
 10
-2.1639608131
 20
7.6739297513
 10
-2.1659983676
 20
7.6799942722
 10
-2.1679248844
 20
7.6861059902
 10
-2.1697375515
 20
7.6922622234
 10
-2.1714332391
 20
7.698459232
 10
-2.1730075442
 20
7.704689047
 10
-2.1744557461
 20
7.7109426417
 10
-2.1757731239
 20
7.7172109896
 10
-2.1769549567
 20
7.7234850642
 10
-2.1778328498
 20
7.7287094707
 10
-2.1786104826
 20
7.7339152543
 10
-2.1792850016
 20
7.7390860838
 10
-2.1798539647
 20
7.7442100527
 10
-2.1803165763
 20
7.7492929538
 10
-2.1806724522
 20
7.7543450048
 10
-2.1809574445
 20
7.7603755674
 10
-2.1810837593
 20
7.7663606979
 10
-2.1810469717
 20
7.7722846751
 10
-2.1808426568
 20
7.7781317777
 10
-2.1804663898
 20
7.7838862846
 10
-2.1799153426
 20
7.7895337305
 10
-2.1791930758
 20
7.7950646747
 10
-2.1783047465
 20
7.8004709322
 10
-2.1772555123
 20
7.8057443182
 10
-2.1760505304
 20
7.8108766481
 10
-2.1749303168
 20
7.8150422452
 10
-2.1737036577
 20
7.819113337
 10
-2.1723686842
 20
7.8230990579
 10
-2.1709247968
 20
7.8270046811
 10
-2.1693764735
 20
7.8308200362
 10
-2.1677294617
 20
7.8345310917
 10
-2.1656303205
 20
7.8388304284
 10
-2.1634039717
 20
7.8429561318
 10
-2.161057043
 20
7.8469049653
 10
-2.1585961617
 20
7.8506736922
 10
-2.1560279555
 20
7.8542590759
 10
-2.1533583937
 20
7.8576587065
 10
-2.1505908136
 20
7.8608734806
 10
-2.1477278939
 20
7.8639051217
 10
-2.1447723138
 20
7.8667553531
 10
-2.1417267522
 20
7.8694258984
 10
-2.1385916569
 20
7.8719184105
 10
-2.1353585512
 20
7.8742342604
 10
-2.1320167269
 20
7.8763747486
 10
-2.1285554763
 20
7.8783411757
 10
-2.1249640912
 20
7.8801348423
  0
LWPOLYLINE
  5
2CC
100
AcDbEntity
  8
0
100
AcDbPolyline
 62
253
  6
CONTINUOUS
 90
30
 70
0
 10
-3.876939147
 20
9.2855222513
 10
-3.8838975459
 20
9.3000340195
 10
-3.8850821586
 20
9.3025457721
 10
-3.8862410281
 20
9.3050318529
 10
-3.8873722611
 20
9.3074932073
 10
-3.8884740872
 20
9.309931032
 10
-3.8895452258
 20
9.3123475298
 10
-3.890584519
 20
9.3147451552
 10
-3.8915908087
 20
9.3171263625
 10
-3.8925627482
 20
9.3194929786
 10
-3.8934982345
 20
9.3218443199
 10
-3.8943949763
 20
9.3241790751
 10
-3.8952506819
 20
9.326495933
 10
-3.8959042895
 20
9.3283358984
 10
-3.8965297687
 20
9.330164376
 10
-3.8971267209
 20
9.3319821715
 10
-3.8976947477
 20
9.3337900907
 10
-3.8982334504
 20
9.335588939
 10
-3.8987423253
 20
9.3373792612
 10
-3.8992204483
 20
9.3391605576
 10
-3.89966679
 20
9.3409320673
 10
-3.9000803212
 20
9.3426930295
 10
-3.9004600126
 20
9.3444426836
 10
-3.9007094223
 20
9.3456848972
 10
-3.9009376063
 20
9.3469195088
 10
-3.9011411294
 20
9.3481450741
 10
-3.9013165564
 20
9.3493601486
 10
-3.9014604519
 20
9.3505632881
 10
-3.9015693807
 20
9.3517530481
 10
-3.9016399076
 20
9.3529279843
  0
LWPOLYLINE
  5
2CD
100
AcDbEntity
  8
0
100
AcDbPolyline
 62
253
  6
CONTINUOUS
 90
4
 70
0
 10
-3.8725259847
 20
9.2760950914
 10
-3.873996219
 20
9.2792836504
 10
-3.8754690083
 20
9.2824254386
 10
-3.876939147
 20
9.2855222513
  0
LWPOLYLINE
  5
2CE
100
AcDbEntity
  8
0
100
AcDbPolyline
 62
253
  6
CONTINUOUS
 90
39
 70
0
 10
-2.5448114557
 20
8.3704941738
 10
-2.542846642
 20
8.3661213275
 10
-2.5408270924
 20
8.3618102334
 10
-2.5387523003
 20
8.3575549407
 10
-2.5366217587
 20
8.3533494987
 10
-2.534434961
 20
8.3491879565
 10
-2.5321914003
 20
8.3450643633
 10
-2.5298905699
 20
8.3409727683
 10
-2.5271335212
 20
8.3362335287
 10
-2.5242988998
 20
8.3315310007
 10
-2.5213877731
 20
8.3268664425
 10
-2.5184012087
 20
8.3222411123
 10
-2.5153402741
 20
8.3176562685
 10
-2.5122060367
 20
8.3131131691
 10
-2.509000214
 20
8.3086139266
 10
-2.5057271237
 20
8.3041640694
 10
-2.502391733
 20
8.2997699802
 10
-2.4989990096
 20
8.2954380416
 10
-2.495553921
 20
8.2911746364
 10
-2.4920614347
 20
8.2869861471
 10
-2.4885266508
 20
8.2828787813
 10
-2.4849552002
 20
8.2788580463
 10
-2.4813528464
 20
8.2749292745
 10
-2.4777253529
 20
8.271097798
 10
-2.4740784833
 20
8.2673689491
 10
-2.470418001
 20
8.2637480602
 10
-2.4667488788
 20
8.2602396143
 10
-2.4630729269
 20
8.256844698
 10
-2.4593911644
 20
8.2535635491
 10
-2.4557046109
 20
8.250396405
 10
-2.4520142855
 20
8.2473435034
 10
-2.4483212078
 20
8.2444050817
 10
-2.4451534625
 20
8.2419776018
 10
-2.4419800938
 20
8.2396337767
 10
-2.4387967517
 20
8.2373729791
 10
-2.4355990859
 20
8.2351945814
 10
-2.4323827465
 20
8.2330979561
 10
-2.4291433834
 20
8.231082476
 10
-2.4258766463
 20
8.2291475134
  0
LINE
  5
2CF
100
AcDbEntity
  8
ASSI
100
AcDbLine
 62
253
  6
CONTINUOUS
 10
2.5936838199
 20
17.1037543072
 11
2.5936838199
 21
17.0408479687
  0
LINE
  5
2D0
100
AcDbEntity
  8
0
100
AcDbLine
 62
253
  6
CONTINUOUS
 10
-2.8251947712
 20
-11.1586514862
 11
-2.825715959
 21
-11.1598826416
  0
LWPOLYLINE
  5
2D1
100
AcDbEntity
  8
0
100
AcDbPolyline
 62
253
  6
CONTINUOUS
 90
24
 70
0
 10
-3.4695574105
 20
8.9989588871
 10
-3.4718139868
 20
9.001634544
 10
-3.4740859104
 20
9.0042727248
 10
-3.4763732607
 20
9.0068735339
 10
-3.4786761168
 20
9.0094370755
 10
-3.4809945582
 20
9.0119634541
 10
-3.4833286642
 20
9.0144527739
 10
-3.485678514
 20
9.0169051393
 10
-3.4880441869
 20
9.0193206546
 10
-3.4904257622
 20
9.0216994242
 10
-3.4928233194
 20
9.0240415524
 10
-3.4952369375
 20
9.0263471435
 10
-3.4974635987
 20
9.0284284741
 10
-3.4997038894
 20
9.0304785504
 10
-3.5019578766
 20
9.0324967317
 10
-3.5042256273
 20
9.0344823774
 10
-3.5065072087
 20
9.0364348467
 10
-3.5088026879
 20
9.0383534991
 10
-3.5111121318
 20
9.0402376937
 10
-3.5134356075
 20
9.0420867899
 10
-3.5157731822
 20
9.0439001471
 10
-3.5181249228
 20
9.0456771246
 10
-3.5204908965
 20
9.0474170817
 10
-3.5228711703
 20
9.0491193777
  0
LWPOLYLINE
  5
2D2
100
AcDbEntity
  8
0
100
AcDbPolyline
 62
253
  6
CONTINUOUS
 90
55
 70
0
 10
-2.2872848486
 20
9.2084248055
 10
-2.290843583
 20
9.2138408983
 10
-2.294465091
 20
9.2191206018
 10
-2.298156974
 20
9.2242791046
 10
-2.3019268333
 20
9.2293315948
 10
-2.3057822703
 20
9.2342932608
 10
-2.3097294622
 20
9.2391760941
 10
-2.3137688883
 20
9.2439792994
 10
-2.3178996039
 20
9.2486988843
 10
-2.322120664
 20
9.2533308569
 10
-2.3264311238
 20
9.2578712248
 10
-2.3308292924
 20
9.2623151974
 10
-2.3353104953
 20
9.2666547905
 10
-2.3398693118
 20
9.2708812211
 10
-2.3445003213
 20
9.2749857064
 10
-2.3491981032
 20
9.2789594635
 10
-2.3531584603
 20
9.2821638694
 10
-2.3571489429
 20
9.2852611481
 10
-2.3611570708
 20
9.2882410549
 10
-2.3651739019
 20
9.291095762
 10
-2.3692046449
 20
9.2938271079
 10
-2.3732580465
 20
9.2964393482
 10
-2.3773403339
 20
9.2989349364
 10
-2.3814476582
 20
9.3013091189
 10
-2.385573651
 20
9.3035553405
 10
-2.389711944
 20
9.3056670459
 10
-2.393856169
 20
9.3076376797
 10
-2.3979999576
 20
9.3094606868
 10
-2.4021370958
 20
9.3111307558
 10
-2.4062619864
 20
9.3126475517
 10
-2.4103691866
 20
9.3140119836
 10
-2.4144532535
 20
9.3152249604
 10
-2.4185087441
 20
9.3162873911
 10
-2.4225302155
 20
9.3172001849
 10
-2.4265145546
 20
9.3179645019
 10
-2.4304679671
 20
9.3185825081
 10
-2.4343989884
 20
9.3190566205
 10
-2.438312373
 20
9.3193887621
 10
-2.4421977526
 20
9.3195788786
 10
-2.4460409781
 20
9.3196264215
 10
-2.4505804126
 20
9.3194954996
 10
-2.4550330976
 20
9.3191635093
 10
-2.4593933601
 20
9.3186354782
 10
-2.4636555273
 20
9.3179164336
 10
-2.4678139265
 20
9.3170114029
 10
-2.4718638477
 20
9.3159251457
 10
-2.4758044329
 20
9.3146613504
 10
-2.4796357869
 20
9.3132234374
 10
-2.4833580146
 20
9.3116148272
 10
-2.4869712209
 20
9.3098389403
 10
-2.4904765068
 20
9.3078969641
 10
-2.4938789571
 20
9.305781153
 10
-2.4971846531
 20
9.3034815285
 10
-2.5003996757
 20
9.300988112
 10
-2.503530106
 20
9.2982909248
  0
LWPOLYLINE
  5
2D3
100
AcDbEntity
  8
0
100
AcDbPolyline
 62
253
  6
CONTINUOUS
 90
38
 70
0
 10
-2.483303199
 20
9.0210335084
 10
-2.479727812
 20
9.0152019014
 10
-2.4762407052
 20
9.0093224287
 10
-2.4728396317
 20
9.0033959022
 10
-2.4695223447
 20
8.9974231336
 10
-2.4662865971
 20
8.9914049347
 10
-2.4631301421
 20
8.9853421171
 10
-2.4595455591
 20
8.9782141283
 10
-2.4560666474
 20
8.9710314525
 10
-2.4526942105
 20
8.9637990283
 10
-2.449429052
 20
8.9565217949
 10
-2.4462719756
 20
8.9492046909
 10
-2.4432237849
 20
8.9418526552
 10
-2.4402853356
 20
8.9344704115
 10
-2.4374576924
 20
8.9270618216
 10
-2.4347419722
 20
8.9196305322
 10
-2.4321392916
 20
8.91218019
 10
-2.4296507676
 20
8.9047144416
 10
-2.4272775169
 20
8.8972369338
 10
-2.4250208784
 20
8.8897514098
 10
-2.4228830791
 20
8.8822620001
 10
-2.4208665681
 20
8.8747729319
 10
-2.4189737947
 20
8.8672884324
 10
-2.4172072079
 20
8.8598127288
 10
-2.4155692567
 20
8.8523500481
 10
-2.4140625788
 20
8.8449047296
 10
-2.4126905651
 20
8.8374815591
 10
-2.4114567951
 20
8.8300854346
 10
-2.4103648481
 20
8.8227212541
 10
-2.4094183034
 20
8.8153939153
 10
-2.4086207406
 20
8.8081083163
 10
-2.4080587012
 20
8.8019002213
 10
-2.4076127725
 20
8.7957280959
 10
-2.4072869796
 20
8.789593645
 10
-2.4070853475
 20
8.783498574
 10
-2.4070119013
 20
8.7774445879
 10
-2.407070666
 20
8.7714333918
 10
-2.4072656665
 20
8.7654666908
  0
LWPOLYLINE
  5
2D4
100
AcDbEntity
  8
0
100
AcDbPolyline
 62
253
  6
CONTINUOUS
 90
41
 70
0
 10
-1.843721502
 20
9.4491339141
 10
-1.8275466807
 20
9.4204450019
 10
-1.8117586937
 20
9.3915716667
 10
-1.7963516824
 20
9.3625092632
 10
-1.7813197884
 20
9.3332531461
 10
-1.7666571532
 20
9.3037986702
 10
-1.7523603182
 20
9.2741453048
 10
-1.738435425
 20
9.2443089764
 10
-1.7248910151
 20
9.2143097263
 10
-1.7117356298
 20
9.1841675954
 10
-1.6989778107
 20
9.1539026249
 10
-1.6866253868
 20
9.1235333536
 10
-1.6746833373
 20
9.0930723116
 10
-1.6631559288
 20
9.0625305265
 10
-1.6520474282
 20
9.0319190263
 10
-1.6413621022
 20
9.0012488386
 10
-1.6311045717
 20
8.9705314314
 10
-1.6212808742
 20
8.9397800334
 10
-1.6118974015
 20
8.9090083134
 10
-1.6029605453
 20
8.8782299402
 10
-1.5944766973
 20
8.8474585826
 10
-1.586451367
 20
8.8167080796
 10
-1.5788865341
 20
8.7859929508
 10
-1.5717832961
 20
8.755327886
 10
-1.5651427502
 20
8.7247275748
 10
-1.558965994
 20
8.6942067072
 10
-1.5532541758
 20
8.6637793419
 10
-1.5480086476
 20
8.6334570144
 10
-1.5432308124
 20
8.6032506293
 10
-1.538922073
 20
8.5731710914
 10
-1.5350838325
 20
8.543229305
 10
-1.5317175916
 20
8.5134378272
 10
-1.5288252418
 20
8.4838158238
 10
-1.5264087727
 20
8.4543841128
 10
-1.5244701737
 20
8.4251635125
 10
-1.5230114341
 20
8.396174841
 10
-1.5220347396
 20
8.3674346713
 10
-1.5215430605
 20
8.3389425967
 10
-1.5215395633
 20
8.3106939653
 10
-1.5220274145
 20
8.2826841252
 10
-1.5230097807
 20
8.2549084247
  0
LWPOLYLINE
  5
2D5
100
AcDbEntity
  8
0
100
AcDbPolyline
 62
253
  6
CONTINUOUS
 90
53
 70
0
 10
-2.0508375099
 20
9.2751721633
 10
-2.0652285601
 20
9.3007296621
 10
-2.0683121511
 20
9.3064734306
 10
-2.0712697813
 20
9.3122524292
 10
-2.0741112242
 20
9.3180797152
 10
-2.0768462533
 20
9.323968346
 10
-2.0794825535
 20
9.3299288453
 10
-2.0820194551
 20
9.3359616037
 10
-2.0844541995
 20
9.3420644782
 10
-2.0867840283
 20
9.3482353257
 10
-2.0890061832
 20
9.3544720035
 10
-2.0911174837
 20
9.3607712048
 10
-2.0931130628
 20
9.3671249689
 10
-2.0949876315
 20
9.3735241711
 10
-2.0967359006
 20
9.379959687
 10
-2.0983525813
 20
9.3864223921
 10
-2.0995953266
 20
9.3918201212
 10
-2.1007390343
 20
9.3972128436
 10
-2.1017797202
 20
9.4025830079
 10
-2.1027141673
 20
9.4079178101
 10
-2.1035422251
 20
9.4132234366
 10
-2.1042645097
 20
9.418510821
 10
-2.1049914884
 20
9.4248412952
 10
-2.1055620474
 20
9.4311459237
 10
-2.1059711929
 20
9.4374093848
 10
-2.106213931
 20
9.4436163565
 10
-2.1062852681
 20
9.4497515171
 10
-2.1061817984
 20
9.4558004847
 10
-2.1059064682
 20
9.4617526386
 10
-2.105463812
 20
9.4675982977
 10
-2.104858364
 20
9.4733277813
 10
-2.1040946587
 20
9.4789314087
 10
-2.1033400036
 20
9.4835005841
 10
-2.1024775347
 20
9.4879856971
 10
-2.1015061902
 20
9.4923968083
 10
-2.1004258216
 20
9.4967396993
 10
-2.0992399334
 20
9.5010030366
 10
-2.0979529435
 20
9.5051712075
 10
-2.0962810626
 20
9.5100291628
 10
-2.0944760373
 20
9.514723131
 10
-2.0925439482
 20
9.5192486467
 10
-2.0904908756
 20
9.5236012446
 10
-2.0883229002
 20
9.5277764591
 10
-2.0860455329
 20
9.5317708172
 10
-2.0836620061
 20
9.5355848156
 10
-2.081174983
 20
9.5392199432
 10
-2.0785871264
 20
9.5426776891
 10
-2.0759010994
 20
9.5459595422
 10
-2.0731174632
 20
9.5490672662
 10
-2.0702283719
 20
9.552003723
 10
-2.0672238779
 20
9.5547720493
 10
-2.0640940337
 20
9.5573753817
 10
-2.0608288918
 20
9.5598168567
  0
LWPOLYLINE
  5
2D6
100
AcDbEntity
  8
0
100
AcDbPolyline
 62
253
  6
CONTINUOUS
 90
28
 70
0
 10
-2.9643558675
 20
9.8598670491
 10
-2.9625342242
 20
9.8565177919
 10
-2.9607472356
 20
9.8531880811
 10
-2.9593457728
 20
9.8505356761
 10
-2.9579725025
 20
9.847893916
 10
-2.956630539
 20
9.845264134
 10
-2.9553229964
 20
9.8426476635
 10
-2.9540529891
 20
9.8400458381
 10
-2.953025449
 20
9.8378897079
 10
-2.9520272192
 20
9.835744897
 10
-2.9510593809
 20
9.8336116281
 10
-2.9501230156
 20
9.8314901245
 10
-2.9492192046
 20
9.8293806091
 10
-2.9483490294
 20
9.827283305
 10
-2.9475134577
 20
9.8251982654
 10
-2.9467130031
 20
9.823124865
 10
-2.9459480656
 20
9.8210623086
 10
-2.9452189931
 20
9.8190098647
 10
-2.9445259247
 20
9.8169670568
 10
-2.9438689475
 20
9.8149334723
 10
-2.9434002566
 20
9.8134143716
 10
-2.9429537815
 20
9.8119017524
 10
-2.9425313877
 20
9.8103971404
 10
-2.9421349409
 20
9.8089020611
 10
-2.9417663311
 20
9.8074176021
 10
-2.9414275468
 20
9.8059430991
 10
-2.9411206007
 20
9.80447745
 10
-2.9408475059
 20
9.8030195524
  0
LWPOLYLINE
  5
2D7
100
AcDbEntity
  8
0
100
AcDbPolyline
 62
253
  6
CONTINUOUS
 90
3
 70
0
 10
-2.9757598034
 20
9.8806529099
 10
-2.9738253594
 20
9.8770814326
 10
-2.9643558675
 20
9.8598670491
  0
LWPOLYLINE
  5
2D8
100
AcDbEntity
  8
0
100
AcDbPolyline
 62
253
  6
CONTINUOUS
 90
53
 70
0
 10
-1.6379795925
 20
9.5494421992
 10
-1.6410830178
 20
9.555222109
 10
-1.6440494713
 20
9.5610192754
 10
-1.6468884436
 20
9.5668470229
 10
-1.649609425
 20
9.5727186762
 10
-1.6522219062
 20
9.57864756
 10
-1.6547333328
 20
9.5846444011
 10
-1.6571429723
 20
9.5907095352
 10
-1.6594480474
 20
9.5968407004
 10
-1.6616457809
 20
9.6030356345
 10
-1.6637333955
 20
9.6092920755
 10
-1.6657077247
 20
9.615606618
 10
-1.6675640447
 20
9.6219712826
 10
-1.6692972422
 20
9.6283769465
 10
-1.6709022043
 20
9.6348144869
 10
-1.6723738178
 20
9.6412747811
 10
-1.6734945046
 20
9.6466671517
 10
-1.6745154462
 20
9.6520516632
 10
-1.6754330516
 20
9.6574109905
 10
-1.6762443742
 20
9.6627324982
 10
-1.6769490468
 20
9.6680223102
 10
-1.6775473466
 20
9.6732912398
 10
-1.6781244149
 20
9.6795959311
 10
-1.6785439656
 20
9.6858707001
 10
-1.6788012583
 20
9.6921001237
 10
-1.6788915529
 20
9.6982687786
 10
-1.6788101091
 20
9.7043612417
 10
-1.6785537794
 20
9.7103630983
 10
-1.6781257882
 20
9.7162639674
 10
-1.6775309525
 20
9.7220544763
 10
-1.6767740895
 20
9.7277252525
 10
-1.6758600163
 20
9.7332669233
 10
-1.6749809862
 20
9.7377821524
 10
-1.6739947952
 20
9.7422111163
 10
-1.6729001108
 20
9.7465637152
 10
-1.6716966319
 20
9.7508456474
 10
-1.6703881819
 20
9.7550458043
 10
-1.6689796158
 20
9.7591488758
 10
-1.6671636605
 20
9.763926556
 10
-1.6652167691
 20
9.7685381533
 10
-1.6631451821
 20
9.7729794349
 10
-1.6609551398
 20
9.7772461678
 10
-1.6586528825
 20
9.7813341189
 10
-1.6562440544
 20
9.7852400126
 10
-1.6537319148
 20
9.7889644028
 10
-1.6511191269
 20
9.7925088004
 10
-1.6484083537
 20
9.7958747168
 10
-1.6456022584
 20
9.799063663
 10
-1.6427013667
 20
9.8020773685
 10
-1.6396976541
 20
9.8049184363
 10
-1.6365809591
 20
9.8075896877
 10
-1.6333411199
 20
9.810093944
 10
-1.6299679747
 20
9.8124340266
  0
LWPOLYLINE
  5
2D9
100
AcDbEntity
  8
ASSI
100
AcDbPolyline
 62
253
  6
CONTINUOUS
 90
58
 70
0
 10
5.7896585299
 20
-22.3424736566
 10
5.7910739923
 20
-22.3513936547
 10
5.7926952325
 20
-22.3601515486
 10
5.7945222503
 20
-22.3687473383
 10
5.7965563501
 20
-22.3771859067
 10
5.7987962277
 20
-22.3854623709
 10
5.8012379704
 20
-22.393562082
 10
5.8038819142
 20
-22.4014846302
 10
5.8067277231
 20
-22.4092304253
 10
5.8097704765
 20
-22.416786047
 10
5.8130105096
 20
-22.4241511502
 10
5.8164474871
 20
-22.4313260799
 10
5.8200754835
 20
-22.4382984515
 10
5.8238948311
 20
-22.4450679221
 10
5.8279051976
 20
-22.4516348346
 10
5.8320996597
 20
-22.4579878324
 10
5.8364785361
 20
-22.464126546
 10
5.8410415082
 20
-22.4700513449
 10
5.845780697
 20
-22.4757519816
 10
5.8506964078
 20
-22.4812280691
 10
5.8557883352
 20
-22.4864799943
 10
5.8610476836
 20
-22.4914986708
 10
5.8664747395
 20
-22.4962836931
 10
5.8720692164
 20
-22.5008354666
 10
5.8778214591
 20
-22.5051461211
 10
5.8837317451
 20
-22.5092152431
 10
5.889799797
 20
-22.5130432461
 10
5.8960151277
 20
-22.5166235003
 10
5.9023779889
 20
-22.5199555755
 10
5.908888129
 20
-22.523039902
 10
5.9155343056
 20
-22.525871141
 10
5.9223167582
 20
-22.5284488562
 10
5.9292352474
 20
-22.5307734839
 10
5.9362778123
 20
-22.5328409943
 10
5.9434446626
 20
-22.5346509413
 10
5.9507355886
 20
-22.5362037709
 10
5.9581380003
 20
-22.5374967914
 10
5.9656520953
 20
-22.5385295542
 10
5.973277676
 20
-22.539302508
 10
5.9810015594
 20
-22.5398143063
 10
5.9888239158
 20
-22.5400644966
 10
5.9967445749
 20
-22.5400535314
 10
6.0047498419
 20
-22.5397814219
 10
6.0128398641
 20
-22.5392477152
 10
6.0210144942
 20
-22.5384528642
 10
6.0292595957
 20
-22.5373982382
 10
6.0375752827
 20
-22.5360833898
 10
6.045961441
 20
-22.5345087665
 10
6.0544035913
 20
-22.5326770798
 10
6.0629018487
 20
-22.5305878785
 10
6.0714560982
 20
-22.5282416138
 10
6.0800515149
 20
-22.5256423511
 10
6.0886883171
 20
-22.5227895801
 10
6.0973662866
 20
-22.5196838112
 10
6.106069944
 20
-22.5163306409
 10
6.1147941295
 20
-22.5127319349
 10
6.1235440029
 20
-22.5088858274
 10
6.1323195642
 20
-22.5047923187
  0
LWPOLYLINE
  5
2DA
100
AcDbEntity
  8
ASSI
100
AcDbPolyline
 62
253
  6
CONTINUOUS
 90
28
 70
0
 10
5.0990569859
 20
-22.3940530347
 10
5.1018373311
 20
-22.4118517717
 10
5.1050261571
 20
-22.4293413171
 10
5.1086216556
 20
-22.4465116067
 10
5.1126218218
 20
-22.4633527526
 10
5.117024352
 20
-22.479855081
 10
5.1218266536
 20
-22.4960091309
 10
5.1270260423
 20
-22.5118056704
 10
5.1326195496
 20
-22.5272355539
 10
5.1386038217
 20
-22.5422897602
 10
5.1449754662
 20
-22.5569596179
 10
5.1517308757
 20
-22.5712367295
 10
5.1588660438
 20
-22.585112821
 10
5.1663769503
 20
-22.598579946
 10
5.1742593257
 20
-22.6116303585
 10
5.1825084738
 20
-22.6242564385
 10
5.1911197351
 20
-22.6364509542
 10
5.2000882234
 20
-22.6482069119
 10
5.2094085944
 20
-22.6595174248
 10
5.2190755817
 20
-22.6703760261
 10
5.2290836999
 20
-22.6807764974
 10
5.2394269807
 20
-22.6907127181
 10
5.2500995695
 20
-22.7001790131
 10
5.2610954178
 20
-22.70916998
 10
5.2724079873
 20
-22.7176803153
 10
5.2840308901
 20
-22.7257051802
 10
5.2959575257
 20
-22.7332399942
 10
5.3009299946
 20
-22.736184475
  0
LINE
  5
2DB
100
AcDbEntity
  8
ASSI
100
AcDbLine
 62
7
  6
CONTINUOUS
 10
2.7739350693
 20
17.517974466
 11
2.7951403585
 21
16.9015019686
  0
LWPOLYLINE
  5
2DC
100
AcDbEntity
  8
ASSI
100
AcDbPolyline
 62
253
  6
CONTINUOUS
 90
27
 70
0
 10
4.3818862158
 20
-13.5770624801
 10
4.3902515998
 20
-13.9279753508
 10
4.4001579281
 20
-14.278008931
 10
4.4116049871
 20
-14.6271550331
 10
4.4245925084
 20
-14.9754054854
 10
4.4391201686
 20
-15.3227521322
 10
4.4551876434
 20
-15.669186852
 10
4.4727945664
 20
-16.0147015374
 10
4.4919404987
 20
-16.3592880873
 10
4.5126250113
 20
-16.7029384417
 10
4.5348476336
 20
-17.0456445654
 10
4.5586078122
 20
-17.387398429
 10
4.5839050141
 20
-17.7281920416
 10
4.6107386643
 20
-18.0680174362
 10
4.6391080952
 20
-18.4068666525
 10
4.6690126702
 20
-18.7447317741
 10
4.7004517099
 20
-19.0816048999
 10
4.7334244318
 20
-19.4174781277
 10
4.7679300951
 20
-19.7523436139
 10
4.8039679167
 20
-20.0861935283
 10
4.8415369982
 20
-20.4190200252
 10
4.8806364945
 20
-20.7508153294
 10
4.9212655189
 20
-21.0815716895
 10
4.9634230593
 20
-21.4112813329
 10
5.0071081318
 20
-21.7399365432
 10
5.0523197811
 20
-22.0675296604
 10
5.0990569859
 20
-22.3940530347
  0
LWPOLYLINE
  5
2DD
100
AcDbEntity
  8
ASSI
100
AcDbPolyline
 62
253
  6
CONTINUOUS
 90
27
 70
0
 10
5.0763386894
 20
-13.5744025652
 10
5.0846590922
 20
-13.9233639673
 10
5.0945119216
 20
-14.2714430532
 10
5.1058974794
 20
-14.6186479457
 10
5.1188154637
 20
-14.964970522
 10
5.1332649687
 20
-15.310386414
 10
5.1492461016
 20
-15.6548955416
 10
5.1667587552
 20
-15.9984979849
 10
5.1858017022
 20
-16.3411696153
 10
5.2063750496
 20
-16.6829103644
 10
5.2284786904
 20
-17.0237203006
 10
5.2521110757
 20
-17.3635755015
 10
5.2772723125
 20
-17.7024758979
 10
5.3039622939
 20
-18.040421559
 10
5.3321791505
 20
-18.3773887691
 10
5.3619229892
 20
-18.7133774621
 10
5.3931937031
 20
-19.0483877041
 10
5.4259891013
 20
-19.3823959786
 10
5.4603092911
 20
-19.7154022186
 10
5.4961541653
 20
-20.0474064911
 10
5.5335212111
 20
-20.3783854803
 10
5.5724105371
 20
-20.7083391245
 10
5.6128220348
 20
-21.0372674854
 10
5.6547528666
 20
-21.3651474321
 10
5.6982020869
 20
-21.6919712544
 10
5.7431706413
 20
-22.0177466626
 10
5.7896585299
 20
-22.3424736566
  0
LWPOLYLINE
  5
2DE
100
AcDbEntity
  8
ASSI
100
AcDbPolyline
 62
253
  6
CONTINUOUS
 90
46
 70
0
 10
5.0036804604
 20
-5.8341983199
 10
5.0035209978
 20
-5.8270420433
 10
5.0031540825
 20
-5.8197659129
 10
5.0025801613
 20
-5.8123787901
 10
5.0017999331
 20
-5.8048896715
 10
5.0008143482
 20
-5.7973076779
 10
4.999624607
 20
-5.7896420432
 10
4.9982321582
 20
-5.7819021032
 10
4.9966386978
 20
-5.7740972842
 10
4.9948461665
 20
-5.7662370914
 10
4.9928567472
 20
-5.7583310975
 10
4.9906728629
 20
-5.7503889311
 10
4.9882971732
 20
-5.7424202648
 10
4.9857325715
 20
-5.7344348033
 10
4.9829821811
 20
-5.7264422719
 10
4.9800493516
 20
-5.7184524046
 10
4.9769376548
 20
-5.710474932
 10
4.9736508805
 20
-5.7025195696
 10
4.9701930314
 20
-5.694596006
 10
4.9665683189
 20
-5.6867138912
 10
4.9627811573
 20
-5.6788828247
 10
4.9588361589
 20
-5.6711123435
 10
4.9547381283
 20
-5.6634119113
 10
4.9504920563
 20
-5.6557909061
 10
4.9461031141
 20
-5.6482586094
 10
4.941576647
 20
-5.6408241945
 10
4.9369181674
 20
-5.6334967157
 10
4.932133349
 20
-5.6262850969
 10
4.927228019
 20
-5.6191981208
 10
4.9222081515
 20
-5.6122444187
 10
4.91707986
 20
-5.6054324591
 10
4.9118493901
 20
-5.5987705382
 10
4.906523112
 20
-5.5922667694
 10
4.9011075123
 20
-5.5859290734
 10
4.8956091866
 20
-5.5797651688
 10
4.8900348311
 20
-5.5737825623
 10
4.8843912346
 20
-5.5679885401
 10
4.8786852705
 20
-5.5623901586
 10
4.8729238877
 20
-5.5569942358
 10
4.867114103
 20
-5.5518073433
 10
4.8612629919
 20
-5.5468357981
 10
4.8553776804
 20
-5.5420856549
 10
4.849465336
 20
-5.5375626988
 10
4.8435331592
 20
-5.5332724381
 10
4.8375883746
 20
-5.5292200978
 10
4.8316382222
 20
-5.5254106133
  0
LINE
  5
2DF
100
AcDbEntity
  8
ASSI
100
AcDbLine
 62
253
  6
CONTINUOUS
 10
4.3617477579
 20
-12.4067764459
 11
4.3818862158
 21
-13.5770624801
  0
LINE
  5
2E0
100
AcDbEntity
  8
ASSI
100
AcDbLine
 62
253
  6
CONTINUOUS
 10
5.0562467018
 20
-12.4066974657
 11
5.0763386894
 21
-13.5744025652
  0
LWPOLYLINE
  5
2E1
100
AcDbEntity
  8
ASSI
100
AcDbPolyline
 62
253
  6
CONTINUOUS
 90
24
 70
0
 10
4.3091291087
 20
-5.179546999
 10
4.3092308284
 20
-5.1865760102
 10
4.3095456314
 20
-5.1934736374
 10
4.3100731379
 20
-5.2002315615
 10
4.3108127118
 20
-5.2068416319
 10
4.311763461
 20
-5.2132958763
 10
4.312924239
 20
-5.2195865104
 10
4.3142936457
 20
-5.2257059473
 10
4.3158700294
 20
-5.2316468065
 10
4.3176514891
 20
-5.2374019227
 10
4.319635876
 20
-5.242964355
 10
4.3218207969
 20
-5.2483273946
 10
4.3242036166
 20
-5.2534845733
 10
4.3267814612
 20
-5.2584296711
 10
4.3295512217
 20
-5.2631567239
 10
4.3325095574
 20
-5.2676600305
 10
4.3356529005
 20
-5.2719341596
 10
4.3389774599
 20
-5.2759739562
 10
4.3424792258
 20
-5.2797745481
 10
4.3461539748
 20
-5.2833313514
 10
4.349997275
 20
-5.2866400765
 10
4.3540044911
 20
-5.2896967326
 10
4.3581707899
 20
-5.2924976333
 10
4.3608548063
 20
-5.2941176855
  0
LINE
  5
2E2
100
AcDbEntity
  8
ASSI
100
AcDbLine
 62
253
  6
CONTINUOUS
 10
4.3396105098
 20
-10.7672845849
 11
4.3617477579
 21
-12.4067764459
  0
LINE
  5
2E3
100
AcDbEntity
  8
ASSI
100
AcDbLine
 62
253
  6
CONTINUOUS
 10
5.0341274867
 20
-10.7685053968
 11
5.0562467018
 21
-12.4066974657
  0
LINE
  5
2E4
100
AcDbEntity
  8
ASSI
100
AcDbLine
 62
253
  6
CONTINUOUS
 10
4.3234617561
 20
-9.1245035359
 11
4.3396105098
 21
-10.7672845849
  0
LWPOLYLINE
  5
2E5
100
AcDbEntity
  8
ASSI
100
AcDbPolyline
 62
253
  6
CONTINUOUS
 90
3
 70
0
 10
5.0121706827
 20
-8.3050440281
 10
5.0179932325
 20
-9.1270192301
 10
5.0341274867
 20
-10.7685053968
  0
LINE
  5
2E6
100
AcDbEntity
  8
ASSI
100
AcDbLine
 62
253
  6
CONTINUOUS
 10
4.3133008191
 20
-7.4784285323
 11
4.3234617561
 21
-9.1245035359
  0
LINE
  5
2E7
100
AcDbEntity
  8
ASSI
100
AcDbLine
 62
253
  6
CONTINUOUS
 10
4.3091278144
 20
-5.8290784902
 11
4.3133008191
 21
-7.4784285323
  0
LINE
  5
2E8
100
AcDbEntity
  8
ASSI
100
AcDbLine
 62
253
  6
CONTINUOUS
 10
4.3133008191
 20
-3.5257044664
 11
4.3091278144
 21
-5.1795462517
  0
LINE
  5
2E9
100
AcDbEntity
  8
ASSI
100
AcDbLine
 62
253
  6
CONTINUOUS
 10
4.3234617561
 20
-1.8686877925
 11
4.3133008191
 21
-3.5257044664
  0
LINE
  5
2EA
100
AcDbEntity
  8
ASSI
100
AcDbLine
 62
253
  6
CONTINUOUS
 10
4.3396105098
 20
-0.2085156103
 11
4.3234617561
 21
-1.8686877925
  0
LINE
  5
2EB
100
AcDbEntity
  8
ASSI
100
AcDbLine
 62
253
  6
CONTINUOUS
 10
4.3617477579
 20
1.4548163061
 11
4.3396105098
 21
-0.2085156103
  0
LWPOLYLINE
  5
2EC
100
AcDbEntity
  8
ASSI
100
AcDbPolyline
 62
253
  6
CONTINUOUS
 90
46
 70
0
 10
4.3091291087
 20
-5.8290792375
 10
4.3092308284
 20
-5.821932763
 10
4.3095456313
 20
-5.8146716094
 10
4.3100731378
 20
-5.8073045342
 10
4.3108127117
 20
-5.7998404226
 10
4.3117634609
 20
-5.792288277
 10
4.3129242388
 20
-5.7846572058
 10
4.3142936454
 20
-5.7769564126
 10
4.3158700291
 20
-5.7691951853
 10
4.3176514886
 20
-5.7613828843
 10
4.3196358755
 20
-5.7535289319
 10
4.3218207962
 20
-5.7456428006
 10
4.3242036158
 20
-5.7377340016
 10
4.3267814603
 20
-5.7298120736
 10
4.3295512207
 20
-5.721886571
 10
4.3325095563
 20
-5.7139670526
 10
4.3356528993
 20
-5.7060630698
 10
4.3389774585
 20
-5.6981841555
 10
4.3424792243
 20
-5.6903398122
 10
4.3461539733
 20
-5.6825395009
 10
4.3499972734
 20
-5.6747926292
 10
4.3540044893
 20
-5.6671085404
 10
4.358170788
 20
-5.6594965023
 10
4.3624911448
 20
-5.6519656954
 10
4.3669603488
 20
-5.6445252025
 10
4.3715730099
 20
-5.6371839973
 10
4.3763235648
 20
-5.6299509339
 10
4.3812062842
 20
-5.622834736
 10
4.3862152789
 20
-5.6158439862
 10
4.3913445078
 20
-5.6089871159
 10
4.3965877847
 20
-5.6022723949
 10
4.4019387858
 20
-5.5957079218
 10
4.4073910574
 20
-5.5893016137
 10
4.4129380235
 20
-5.5830611972
 10
4.4185729943
 20
-5.5769941987
 10
4.4242891733
 20
-5.5711079354
 10
4.4300796666
 20
-5.5654095066
 10
4.4359374904
 20
-5.5599057851
 10
4.4418555796
 20
-5.5546034087
 10
4.4478267967
 20
-5.5495087725
 10
4.4538439398
 20
-5.5446280211
 10
4.4598997518
 20
-5.5399670409
 10
4.4659869291
 20
-5.5355314535
 10
4.4720981299
 20
-5.5313266085
 10
4.4782259838
 20
-5.5273575773
 10
4.4843631001
 20
-5.5236291468
  0
LINE
  5
2ED
100
AcDbEntity
  8
ASSI
100
AcDbLine
 62
253
  6
CONTINUOUS
 10
4.3818862158
 20
2.6467921655
 11
4.3617477579
 21
1.4548163061
  0
LINE
  5
2EE
100
AcDbEntity
  8
ASSI
100
AcDbLine
 62
253
  6
CONTINUOUS
 10
4.4001579281
 20
3.3674220933
 11
4.3818862158
 21
2.6467921655
  0
LINE
  5
2EF
100
AcDbEntity
  8
ASSI
100
AcDbLine
 62
253
  6
CONTINUOUS
 10
4.4245925084
 20
4.0911411161
 11
4.4001579281
 21
3.3674220933
  0
LINE
  5
2F0
100
AcDbEntity
  8
ASSI
100
AcDbLine
 62
253
  6
CONTINUOUS
 10
4.4551876434
 20
4.8178815217
 11
4.4245925084
 21
4.0911411161
  0
LINE
  5
2F1
100
AcDbEntity
  8
ASSI
100
AcDbLine
 62
253
  6
CONTINUOUS
 10
5.1492461016
 20
4.7890197557
 11
5.1188154637
 21
4.0663256544
  0
LINE
  5
2F2
100
AcDbEntity
  8
ASSI
100
AcDbLine
 62
253
  6
CONTINUOUS
 10
4.4919404987
 20
5.5475752593
 11
4.4551876434
 21
4.8178815217
  0
LINE
  5
2F3
100
AcDbEntity
  8
ASSI
100
AcDbLine
 62
253
  6
CONTINUOUS
 10
5.1858017022
 20
5.5146585468
 11
5.1492461016
 21
4.7890197557
  0
LINE
  5
2F4
100
AcDbEntity
  8
ASSI
100
AcDbLine
 62
253
  6
CONTINUOUS
 10
4.5348476336
 20
6.2801540085
 11
4.4919404987
 21
5.5475752593
  0
LINE
  5
2F5
100
AcDbEntity
  8
ASSI
100
AcDbLine
 62
253
  6
CONTINUOUS
 10
5.2284786904
 20
6.2431657355
 11
5.1858017022
 21
5.5146585468
  0
LINE
  5
2F6
100
AcDbEntity
  8
ASSI
100
AcDbLine
 62
253
  6
CONTINUOUS
 10
4.5839050141
 20
7.0155492369
 11
4.5348476336
 21
6.2801540085
  0
LINE
  5
2F7
100
AcDbEntity
  8
ASSI
100
AcDbLine
 62
253
  6
CONTINUOUS
 10
5.2772723125
 20
6.9744645031
 11
5.2284786904
 21
6.2431657355
  0
LINE
  5
2F8
100
AcDbEntity
  8
ASSI
100
AcDbLine
 62
253
  6
CONTINUOUS
 10
4.6391080952
 20
7.7536920988
 11
4.5839050141
 21
7.0155492369
  0
LINE
  5
2F9
100
AcDbEntity
  8
ASSI
100
AcDbLine
 62
253
  6
CONTINUOUS
 10
5.3321791505
 20
7.7085035308
 11
5.2772723125
 21
6.9744645031
  0
LINE
  5
2FA
100
AcDbEntity
  8
ASSI
100
AcDbLine
 62
253
  6
CONTINUOUS
 10
4.7004517099
 20
8.4945135581
 11
4.6391080952
 21
7.7536920988
  0
LINE
  5
2FB
100
AcDbEntity
  8
ASSI
100
AcDbLine
 62
253
  6
CONTINUOUS
 10
5.3931937031
 20
8.4452056847
 11
5.3321791505
 21
7.7085035308
  0
LINE
  5
2FC
100
AcDbEntity
  8
ASSI
100
AcDbLine
 62
253
  6
CONTINUOUS
 10
4.7679300951
 20
9.2379443102
 11
4.7004517099
 21
8.4945135581
  0
LINE
  5
2FD
100
AcDbEntity
  8
ASSI
100
AcDbLine
 62
253
  6
CONTINUOUS
 10
5.4603092911
 20
9.1844932877
 11
5.3931937031
 21
8.4452056847
  0
LINE
  5
2FE
100
AcDbEntity
  8
ASSI
100
AcDbLine
 62
253
  6
CONTINUOUS
 10
4.8415369982
 20
9.9839147321
 11
4.7679300951
 21
9.2379443102
  0
LINE
  5
2FF
100
AcDbEntity
  8
ASSI
100
AcDbLine
 62
253
  6
CONTINUOUS
 10
5.5335212111
 20
9.9263144428
 11
5.4603092911
 21
9.1844932877
  0
LINE
  5
300
100
AcDbEntity
  8
ASSI
100
AcDbLine
 62
253
  6
CONTINUOUS
 10
5.6128220348
 20
10.6705911471
 11
5.5335212111
 21
9.9263144428
  0
LINE
  5
301
100
AcDbEntity
  8
ASSI
100
AcDbLine
 62
253
  6
CONTINUOUS
 10
4.9634230593
 20
11.1074794399
 11
4.8415369982
 21
9.9839147321
  0
LINE
  5
302
100
AcDbEntity
  8
ASSI
100
AcDbLine
 62
253
  6
CONTINUOUS
 10
5.6982020869
 20
11.4172360023
 11
5.6128220348
 21
10.6705911471
  0
LWPOLYLINE
  5
303
100
AcDbEntity
  8
ASSI
100
AcDbPolyline
 62
253
  6
CONTINUOUS
 90
3
 70
0
 10
5.0990569859
 20
12.2363646148
 10
5.0523197811
 20
11.8594930851
 10
4.9634230593
 20
11.1074794399
  0
LINE
  5
304
100
AcDbEntity
  8
ASSI
100
AcDbLine
 62
253
  6
CONTINUOUS
 10
5.7896585299
 20
12.1662228222
 11
5.6982020869
 21
11.4172360023
  0
LINE
  5
305
100
AcDbEntity
  8
ASSI
100
AcDbLine
 62
253
  6
CONTINUOUS
 10
-10.433530227
 20
10.8379522647
 11
4.3750619647
 21
2.2876567285
  0
LWPOLYLINE
  5
306
100
AcDbEntity
  8
0
100
AcDbPolyline
 62
253
  6
CONTINUOUS
 90
38
 70
0
 10
-1.6475574281
 20
6.7995835916
 10
-1.6510166695
 20
6.8016341382
 10
-1.6544483944
 20
6.8037737852
 10
-1.6578575267
 20
6.8060031851
 10
-1.6612489903
 20
6.8083229907
 10
-1.6646277092
 20
6.8107338547
 10
-1.6679986071
 20
6.8132364298
 10
-1.6713655864
 20
6.8158310831
 10
-1.6747284631
 20
6.8185170389
 10
-1.6780860318
 20
6.8212932358
 10
-1.6814370869
 20
6.8241586125
 10
-1.684780423
 20
6.8271121077
 10
-1.6881148345
 20
6.83015266
 10
-1.691438789
 20
6.8332788655
 10
-1.6947494463
 20
6.8364879492
 10
-1.6980436392
 20
6.8397767938
 10
-1.7013182006
 20
6.8431422816
 10
-1.7045699633
 20
6.8465812953
 10
-1.7077957602
 20
6.8500907174
 10
-1.7109924587
 20
6.8536673812
 10
-1.7141570645
 20
6.8573079247
 10
-1.7172866179
 20
6.8610089366
 10
-1.7203781592
 20
6.8647670056
 10
-1.7234287287
 20
6.8685787206
 10
-1.7264353667
 20
6.8724406703
 10
-1.7293953783
 20
6.8763497503
 10
-1.7323071282
 20
6.8803040836
 10
-1.7351692457
 20
6.8843021001
 10
-1.7379803605
 20
6.8883422298
 10
-1.740739102
 20
6.8924229023
 10
-1.7434440997
 20
6.8965425477
 10
-1.7457191842
 20
6.9001044316
 10
-1.7479548913
 20
6.9036983881
 10
-1.7501523356
 20
6.9073290104
 10
-1.7523126318
 20
6.9110008915
 10
-1.7544368946
 20
6.9147186246
 10
-1.7565262388
 20
6.9184868027
 10
-1.7585817791
 20
6.922310019
  0
LWPOLYLINE
  5
307
100
AcDbEntity
  8
0
100
AcDbPolyline
 62
253
  6
CONTINUOUS
 90
24
 70
0
 10
-3.1036705001
 20
8.3749092018
 10
-3.1050737222
 20
8.3758905459
 10
-3.1064705215
 20
8.3768944155
 10
-3.1078609429
 20
8.3779207535
 10
-3.1092450313
 20
8.3789695028
 10
-3.1106228314
 20
8.3800406062
 10
-3.1119943883
 20
8.3811340066
 10
-3.1133597467
 20
8.3822496469
 10
-3.1147189515
 20
8.3833874698
 10
-3.1160720477
 20
8.3845474184
 10
-3.11741908
 20
8.3857294355
 10
-3.1187600935
 20
8.3869334638
 10
-3.1199840823
 20
8.3880564829
 10
-3.1212029398
 20
8.3891981383
 10
-3.1224165546
 20
8.390358619
 10
-3.1236248152
 20
8.3915381138
 10
-3.1248276101
 20
8.3927368114
 10
-3.126024828
 20
8.3939549007
 10
-3.1272163574
 20
8.3951925705
 10
-3.1284020869
 20
8.3964500097
 10
-3.129581905
 20
8.3977274069
 10
-3.1307557002
 20
8.3990249511
 10
-3.1319233612
 20
8.4003428311
 10
-3.1330847765
 20
8.4016812356
  0
LWPOLYLINE
  5
308
100
AcDbEntity
  8
0
100
AcDbPolyline
 62
253
  6
CONTINUOUS
 90
24
 70
0
 10
-3.8470530529
 20
9.2439658269
 10
-3.848251572
 20
9.2451435158
 10
-3.8494372021
 20
9.2463381272
 10
-3.8506100753
 20
9.2475491944
 10
-3.8517703238
 20
9.2487762505
 10
-3.8529180797
 20
9.2500188288
 10
-3.854053475
 20
9.2512764623
 10
-3.855176642
 20
9.2525486844
 10
-3.8562877126
 20
9.2538350281
 10
-3.8573868192
 20
9.2551350268
 10
-3.8584740936
 20
9.2564482136
 10
-3.8595496682
 20
9.2577741216
 10
-3.860613675
 20
9.2591122841
 10
-3.8617613706
 20
9.2605856298
 10
-3.8628956213
 20
9.262073024
 10
-3.8640165915
 20
9.263574487
 10
-3.8651244455
 20
9.2650900389
 10
-3.8662193479
 20
9.2666197
 10
-3.867301463
 20
9.2681634905
 10
-3.8683709552
 20
9.2697214306
 10
-3.8694279891
 20
9.2712935405
 10
-3.870472729
 20
9.2728798405
 10
-3.8715053394
 20
9.2744803507
 10
-3.8725259847
 20
9.2760950914
  0
LWPOLYLINE
  5
309
100
AcDbEntity
  8
0
100
AcDbPolyline
 62
253
  6
CONTINUOUS
 90
41
 70
0
 10
-1.4130667695
 20
9.6966778726
 10
-1.3897772333
 20
9.6538507828
 10
-1.3670535071
 20
9.610771524
 10
-1.3448870504
 20
9.5674332886
 10
-1.3232693229
 20
9.5238292685
 10
-1.3021917841
 20
9.4799526561
 10
-1.2816492402
 20
9.4358026553
 10
-1.2616498832
 20
9.3914025174
 10
-1.2422052517
 20
9.3467815055
 10
-1.2233268842
 20
9.3019688825
 10
-1.2050263194
 20
9.2569939116
 10
-1.1873140455
 20
9.2118835708
 10
-1.1701963494
 20
9.1666556975
 10
-1.1536784676
 20
9.1213258442
 10
-1.1377656366
 20
9.0759095632
 10
-1.1224630932
 20
9.030422407
 10
-1.1077765718
 20
8.9848805823
 10
-1.0937137996
 20
8.9393029126
 10
-1.0802830015
 20
8.8937088759
 10
-1.0674924028
 20
8.8481179502
 10
-1.0553502286
 20
8.8025496133
 10
-1.0438636277
 20
8.7570234805
 10
-1.0330354444
 20
8.7115597165
 10
-1.0228674467
 20
8.6661786235
 10
-1.0133614027
 20
8.6209005037
 10
-1.0045190803
 20
8.5757456591
 10
-0.9963423737
 20
8.5307336006
 10
-0.9888336806
 20
8.4858806738
 10
-0.9819955249
 20
8.4412024328
 10
-0.9758304306
 20
8.3967144318
 10
-0.9703409214
 20
8.3524322253
 10
-0.9655296654
 20
8.3083737552
 10
-0.9613999075
 20
8.2645665156
 10
-0.9579550366
 20
8.2210403884
 10
-0.9551984416
 20
8.1778252555
 10
-0.9531335116
 20
8.1349509987
 10
-0.951763914
 20
8.0924414834
 10
-0.9510944299
 20
8.0502965084
 10
-0.9511301191
 20
8.0085098561
 10
-0.9518760412
 20
7.9670753087
 10
-0.9533372558
 20
7.9259866485
  0
LWPOLYLINE
  5
30A
100
AcDbEntity
  8
ASSI
100
AcDbPolyline
 62
253
  6
CONTINUOUS
 90
3
 70
0
 10
5.003681863
 20
-5.8341975511
 10
5.0050150269
 20
-6.658633611
 10
5.0121706827
 20
-8.3050440281
  0
LINE
  5
30B
100
AcDbEntity
  8
ASSI
100
AcDbLine
 62
253
  6
CONTINUOUS
 10
5.0078446334
 20
-3.5358941533
 11
5.003681863
 21
-5.1884283643
  0
LINE
  5
30C
100
AcDbEntity
  8
ASSI
100
AcDbLine
 62
253
  6
CONTINUOUS
 10
5.0179932325
 20
-1.8801955579
 11
5.0078446334
 21
-3.5358941533
  0
LINE
  5
30D
100
AcDbEntity
  8
ASSI
100
AcDbLine
 62
253
  6
CONTINUOUS
 10
5.0341274867
 20
-0.2213352995
 11
5.0179932325
 21
-1.8801955579
  0
LINE
  5
30E
100
AcDbEntity
  8
ASSI
100
AcDbLine
 62
253
  6
CONTINUOUS
 10
5.0562467018
 20
1.4406757367
 11
5.0341274867
 21
-0.2213352995
  0
LINE
  5
30F
100
AcDbEntity
  8
ASSI
100
AcDbLine
 62
253
  6
CONTINUOUS
 10
5.0763386894
 20
2.6300167936
 11
5.0562467018
 21
1.4406757367
  0
LWPOLYLINE
  5
310
100
AcDbEntity
  8
ASSI
100
AcDbPolyline
 62
253
  6
CONTINUOUS
 90
24
 70
0
 10
5.0036804604
 20
-5.1884291058
 10
5.0035209978
 20
-5.1955167275
 10
5.0031540826
 20
-5.2024671481
 10
5.0025801614
 20
-5.209271903
 10
5.0017999333
 20
-5.2159227047
 10
5.0008143485
 20
-5.2224114534
 10
4.9996246073
 20
-5.2287302467
 10
4.9982321587
 20
-5.2348713891
 10
4.9966386984
 20
-5.2408274014
 10
4.9948461672
 20
-5.24659103
 10
4.9928567481
 20
-5.2521552555
 10
4.9906728639
 20
-5.2575133013
 10
4.9882971744
 20
-5.2626586421
 10
4.9857325729
 20
-5.2675850115
 10
4.9829821826
 20
-5.2722864098
 10
4.9800493533
 20
-5.2767571112
 10
4.9769376568
 20
-5.280991671
 10
4.9736508826
 20
-5.2849849321
 10
4.9701930337
 20
-5.2887320312
 10
4.9665683213
 20
-5.2922284048
 10
4.9627811599
 20
-5.2954697947
 10
4.9588361617
 20
-5.2984522533
 10
4.9547381312
 20
-5.3011721484
 10
4.9501047407
 20
-5.3038328688
  0
LINE
  5
311
100
AcDbEntity
  8
ASSI
100
AcDbLine
 62
253
  6
CONTINUOUS
 10
5.0945119216
 20
3.3466270366
 11
5.0763386894
 21
2.6300167936
  0
LINE
  5
312
100
AcDbEntity
  8
ASSI
100
AcDbLine
 62
253
  6
CONTINUOUS
 10
5.1188154637
 20
4.0663256544
 11
5.0945119216
 21
3.3466270366
  0
LWPOLYLINE
  5
313
100
AcDbEntity
  8
0
100
AcDbPolyline
 62
253
  6
CONTINUOUS
 90
24
 70
0
 10
-3.0720901056
 20
8.3580862433
 10
-3.07343804
 20
8.3585698495
 10
-3.0747936421
 20
8.3590766996
 10
-3.0761570589
 20
8.3596072876
 10
-3.0775284372
 20
8.3601621073
 10
-3.0789079239
 20
8.3607416526
 10
-3.0802956659
 20
8.3613464174
 10
-3.0816918101
 20
8.3619768956
 10
-3.0830965032
 20
8.3626335811
 10
-3.0845098923
 20
8.3633169677
 10
-3.0859321242
 20
8.3640275493
 10
-3.0873633457
 20
8.3647658199
 10
-3.08868328
 20
8.3654673448
 10
-3.090010756
 20
8.3661931179
 10
-3.0913456382
 20
8.366943706
 10
-3.0926877911
 20
8.3677196759
 10
-3.0940370792
 20
8.3685215946
 10
-3.0953933671
 20
8.3693500288
 10
-3.0967565192
 20
8.3702055453
 10
-3.0981264
 20
8.371088711
 10
-3.0995028739
 20
8.3720000926
 10
-3.1008858056
 20
8.3729402571
 10
-3.1022750595
 20
8.3739097712
 10
-3.1036705001
 20
8.3749092018
  0
LWPOLYLINE
  5
314
100
AcDbEntity
  8
0
100
AcDbPolyline
 62
253
  6
CONTINUOUS
 90
33
 70
0
 10
-2.4258766463
 20
8.2291475134
 10
-2.4227438604
 20
8.2273813798
 10
-2.4196191603
 20
8.2257043878
 10
-2.4165020869
 20
8.2241148883
 10
-2.4133921811
 20
8.2226112326
 10
-2.4102889838
 20
8.2211917716
 10
-2.4071920358
 20
8.2198548564
 10
-2.4041008782
 20
8.2185988381
 10
-2.4010150517
 20
8.2174220678
 10
-2.3979344315
 20
8.2163231849
 10
-2.3948602291
 20
8.2153019825
 10
-2.3917939906
 20
8.2143585422
 10
-2.3887372617
 20
8.2134929455
 10
-2.3856915884
 20
8.2127052737
 10
-2.3826585164
 20
8.2119956086
 10
-2.3796395918
 20
8.2113640315
 10
-2.3766363603
 20
8.2108106241
 10
-2.3736502863
 20
8.2103354779
 10
-2.3706825089
 20
8.2099387257
 10
-2.3677340854
 20
8.2096205102
 10
-2.3648060733
 20
8.2093809743
 10
-2.3618995301
 20
8.2092202609
 10
-2.3590155133
 20
8.2091385127
 10
-2.3561550803
 20
8.2091358727
 10
-2.3533192885
 20
8.2092124836
 10
-2.3505090722
 20
8.2093687139
 10
-2.3477248718
 20
8.2096058348
 10
-2.3449670046
 20
8.2099253428
 10
-2.3422357878
 20
8.2103287347
 10
-2.3395315386
 20
8.2108175073
 10
-2.3368545741
 20
8.2113931572
 10
-2.3342052117
 20
8.2120571811
 10
-2.3315837685
 20
8.2128110758
  0
LINE
  5
315
100
AcDbEntity
  8
0
100
AcDbLine
 62
253
  6
CONTINUOUS
 10
-3.7816975482
 20
9.9225411186
 11
-3.5067769852
 21
9.763805431
  0
LWPOLYLINE
  5
316
100
AcDbEntity
  8
0
100
AcDbPolyline
 62
253
  6
CONTINUOUS
 90
56
 70
0
 10
-4.718855674
 20
8.8941628429
 10
-4.7303664093
 20
8.9008097766
 10
-4.736094395
 20
8.9041769063
 10
-4.7417391258
 20
8.9075516593
 10
-4.7473047563
 20
8.9109493497
 10
-4.7527954408
 20
8.9143852916
 10
-4.7582153341
 20
8.917874799
 10
-4.7635685905
 20
8.9214331861
 10
-4.7688593646
 20
8.9250757667
 10
-4.7740918109
 20
8.9288178551
 10
-4.7779791013
 20
8.931697911
 10
-4.7818300768
 20
8.9346428668
 10
-4.7856388948
 20
8.9376530354
 10
-4.7893997128
 20
8.9407287293
 10
-4.7931066884
 20
8.9438702613
 10
-4.7967539789
 20
8.9470779441
 10
-4.8003360744
 20
8.9503519145
 10
-4.8038487942
 20
8.9536916058
 10
-4.80728829
 20
8.9570962754
 10
-4.8106517047
 20
8.9605662372
 10
-4.8139401457
 20
8.9641060312
 10
-4.8171557115
 20
8.9677212541
 10
-4.8202998554
 20
8.9714171406
 10
-4.8233714503
 20
8.9751974775
 10
-4.8263687237
 20
8.9790656898
 10
-4.8292892246
 20
8.9830233049
 10
-4.8321277873
 20
8.98706426
 10
-4.8348785674
 20
8.9911805949
 10
-4.8375360949
 20
8.9953628038
 10
-4.8400963976
 20
8.9995951985
 10
-4.8425558774
 20
9.0038605456
 10
-4.8449125034
 20
9.00814508
 10
-4.8471705123
 20
9.0124489118
 10
-4.8493357077
 20
9.0167756193
 10
-4.851412758
 20
9.0211270663
 10
-4.85340179
 20
9.0254982568
 10
-4.855301795
 20
9.02988248
 10
-4.8571117646
 20
9.0342730248
 10
-4.85883069
 20
9.0386631805
 10
-4.8604575629
 20
9.043046236
 10
-4.8622869902
 20
9.0482868828
 10
-4.863981323
 20
9.0534948525
 10
-4.8655394751
 20
9.0586573556
 10
-4.86696036
 20
9.0637616028
 10
-4.8682428916
 20
9.0687948047
 10
-4.8693865327
 20
9.0737458887
 10
-4.8703929435
 20
9.0786106484
 10
-4.8712643336
 20
9.0833865943
 10
-4.8720029123
 20
9.0880712369
 10
-4.8726108893
 20
9.0926620865
 10
-4.8730188348
 20
9.0964160397
 10
-4.8733357138
 20
9.1001118217
 10
-4.8735596211
 20
9.1037581242
 10
-4.8736886514
 20
9.107363639
 10
-4.8737208997
 20
9.1109370578
 10
-4.8736544606
 20
9.1144870722
  0
LINE
  5
317
100
AcDbEntity
  8
0
100
AcDbLine
 62
253
  6
CONTINUOUS
 10
-3.5228711703
 20
9.0491193777
 11
-3.8139974713
 21
9.2180572989
  0
LWPOLYLINE
  5
318
100
AcDbEntity
  8
0
100
AcDbPolyline
 62
253
  6
CONTINUOUS
 90
39
 70
0
 10
-2.0341272511
 20
7.5063697356
 10
-2.0371919749
 20
7.5081809698
 10
-2.0402327985
 20
7.5100607381
 10
-2.0432531205
 20
7.5120094001
 10
-2.0462563392
 20
7.5140273155
 10
-2.0492458533
 20
7.5161148439
 10
-2.0522250611
 20
7.5182723449
 10
-2.0551973612
 20
7.5205001781
 10
-2.0586598054
 20
7.5231884937
 10
-2.062116615
 20
7.5259724295
 10
-2.065566932
 20
7.5288513861
 10
-2.0690098983
 20
7.5318247643
 10
-2.0724446557
 20
7.5348919647
 10
-2.0758703463
 20
7.5380523882
 10
-2.0792855308
 20
7.5413048392
 10
-2.0826864455
 20
7.5446457387
 10
-2.0860687453
 20
7.5480709111
 10
-2.0894280855
 20
7.5515761812
 10
-2.0927601211
 20
7.5551573736
 10
-2.0960605071
 20
7.5588103131
 10
-2.0993249758
 20
7.5625306773
 10
-2.1025495677
 20
7.5663135568
 10
-2.1057304007
 20
7.5701538952
 10
-2.1088635924
 20
7.5740466362
 10
-2.1119452607
 20
7.5779867233
 10
-2.1149715233
 20
7.5819691002
 10
-2.1179390441
 20
7.5859893805
 10
-2.1208466722
 20
7.5900458579
 10
-2.1236938028
 20
7.594137496
 10
-2.1264798311
 20
7.5982632586
 10
-2.1292041522
 20
7.6024221092
 10
-2.1318661615
 20
7.6066130117
 10
-2.1340980762
 20
7.6102308279
 10
-2.1362848615
 20
7.6138761126
 10
-2.1384276125
 20
7.6175535476
 10
-2.1405274243
 20
7.6212678146
 10
-2.1425853921
 20
7.6250235951
 10
-2.144602611
 20
7.628825571
 10
-2.1465801759
 20
7.632678424
  0
LWPOLYLINE
  5
319
100
AcDbEntity
  8
0
100
AcDbPolyline
 62
253
  6
CONTINUOUS
 90
26
 70
0
 10
-3.0029847401
 20
9.9107626751
 10
-3.0017446903
 20
9.9096185482
 10
-3.0004963198
 20
9.9084523192
 10
-2.9992397839
 20
9.9072628597
 10
-2.9979752381
 20
9.9060490415
 10
-2.9967028377
 20
9.9048097364
 10
-2.9954227382
 20
9.9035438159
 10
-2.994135095
 20
9.9022501518
 10
-2.9930024246
 20
9.9010945718
 10
-2.991864702
 20
9.8999162597
 10
-2.9907225315
 20
9.8987145885
 10
-2.9895765175
 20
9.897488931
 10
-2.9884272645
 20
9.8962386603
 10
-2.9872753768
 20
9.8949631493
 10
-2.9861214589
 20
9.8936617708
 10
-2.9849661151
 20
9.892333898
 10
-2.9840412348
 20
9.8912520733
 10
-2.9831162296
 20
9.8901523961
 10
-2.9821915006
 20
9.8890343715
 10
-2.9812674485
 20
9.8878975047
 10
-2.9803444743
 20
9.886741301
 10
-2.9794229789
 20
9.8855652655
 10
-2.9785033632
 20
9.8843689035
 10
-2.9775860281
 20
9.8831517201
 10
-2.9766713745
 20
9.8819132205
 10
-2.9757598034
 20
9.8806529099
  0
LWPOLYLINE
  5
31A
100
AcDbEntity
  8
ASSI
100
AcDbPolyline
 62
253
  6
CONTINUOUS
 90
55
 70
0
 10
6.1323195642
 20
12.697534322
 10
6.1316199999
 20
12.7091676351
 10
6.1306331773
 20
12.7209693562
 10
6.1293599295
 20
12.7329295229
 10
6.1278013311
 20
12.7450380394
 10
6.125958698
 20
12.7572846845
 10
6.1238335854
 20
12.7696591202
 10
6.1214277874
 20
12.782150901
 10
6.1187433346
 20
12.7947494821
 10
6.1157824932
 20
12.8074442287
 10
6.1125477625
 20
12.8202244246
 10
6.109041873
 20
12.8330792818
 10
6.1052677842
 20
12.8459979489
 10
6.1012286819
 20
12.8589695209
 10
6.0969279756
 20
12.871983048
 10
6.0923692957
 20
12.8850275452
 10
6.0875564904
 20
12.898092001
 10
6.0824936223
 20
12.9111653875
 10
6.0771849651
 20
12.9242366688
 10
6.071635
 20
12.9372948111
 10
6.065848412
 20
12.9503287915
 10
6.0598300857
 20
12.9633276077
 10
6.0535851013
 20
12.976280287
 10
6.0471187306
 20
12.9891758954
 10
6.0404364319
 20
13.0020035474
 10
6.033543846
 20
13.0147524148
 10
6.0264467912
 20
13.0274117358
 10
6.0191512583
 20
13.0399708242
 10
6.0116634057
 20
13.0524190786
 10
6.0039895542
 20
13.0647459908
 10
5.9961361815
 20
13.0769411554
 10
5.988109917
 20
13.088994278
 10
5.9799175358
 20
13.1008951842
 10
5.9715659535
 20
13.112633828
 10
5.9630622198
 20
13.1242003004
 10
5.9544135131
 20
13.1355848378
 10
5.945627134
 20
13.1467778301
 10
5.9367104994
 20
13.157769829
 10
5.9276711362
 20
13.1685515556
 10
5.9185166747
 20
13.1791139089
 10
5.9092548426
 20
13.1894479727
 10
5.899893458
 20
13.1995450237
 10
5.8904404233
 20
13.2093965387
 10
5.880903718
 20
13.2189942017
 10
5.8712913924
 20
13.228329911
 10
5.8616115607
 20
13.2373957859
 10
5.8518723937
 20
13.2461841737
 10
5.8420821128
 20
13.2546876559
 10
5.8322489822
 20
13.2628990542
 10
5.8223813025
 20
13.2708114373
 10
5.8124874031
 20
13.2784181259
 10
5.802575636
 20
13.2857126991
 10
5.7926543679
 20
13.2926889993
 10
5.7827319738
 20
13.2993411374
 10
5.7728168294
 20
13.3056634983
  0
LWPOLYLINE
  5
31B
100
AcDbEntity
  8
ASSI
100
AcDbPolyline
 62
253
  6
CONTINUOUS
 90
30
 70
0
 10
6.1323195642
 20
-22.5047923187
 10
6.1316199999
 20
-22.5168457422
 10
6.1306331773
 20
-22.528710763
 10
6.1293599294
 20
-22.5403773654
 10
6.127801331
 20
-22.5518357013
 10
6.1259586978
 20
-22.5630760983
 10
6.1238335852
 20
-22.574089068
 10
6.1214277871
 20
-22.584865314
 10
6.1187433342
 20
-22.5953957397
 10
6.1157824927
 20
-22.605671456
 10
6.1125477619
 20
-22.6156837889
 10
6.1090418724
 20
-22.6254242866
 10
6.1052677834
 20
-22.6348847268
 10
6.101228681
 20
-22.6440571237
 10
6.0969279746
 20
-22.6529337344
 10
6.0923692947
 20
-22.6615070661
 10
6.0875564892
 20
-22.6697698816
 10
6.082493621
 20
-22.677715206
 10
6.0771849637
 20
-22.6853363324
 10
6.0716349985
 20
-22.6926268276
 10
6.0658484104
 20
-22.6995805374
 10
6.0598300841
 20
-22.7061915919
 10
6.0535850996
 20
-22.7124544106
 10
6.0471187288
 20
-22.7183637067
 10
6.04043643
 20
-22.7239144921
 10
6.0335438441
 20
-22.7291020812
 10
6.0264467892
 20
-22.7339220948
 10
6.0191512562
 20
-22.7383704644
 10
6.0116634036
 20
-22.7424434348
 10
6.0076679848
 20
-22.7444252243
  0
LWPOLYLINE
  5
31C
100
AcDbEntity
  8
0
100
AcDbPolyline
 62
253
  6
CONTINUOUS
 90
55
 70
0
 10
-1.4700588722
 20
-11.773562012
 10
-1.4673466473
 20
-11.7710897929
 10
-1.464536993
 20
-11.7688114019
 10
-1.4616250559
 20
-11.7667176769
 10
-1.4586059826
 20
-11.7647994556
 10
-1.4554749195
 20
-11.7630475759
 10
-1.4522278514
 20
-11.7614549241
 10
-1.4488641149
 20
-11.7600225811
 10
-1.4453838845
 20
-11.7587536762
 10
-1.4417873351
 20
-11.7576513386
 10
-1.4380746412
 20
-11.7567186976
 10
-1.4342466607
 20
-11.7559590675
 10
-1.4303069838
 20
-11.755376501
 10
-1.4262598841
 20
-11.754975236
 10
-1.422109635
 20
-11.7547595101
 10
-1.4178605099
 20
-11.7547335611
 10
-1.4142486866
 20
-11.7548594811
 10
-1.4105830084
 20
-11.7551196972
 10
-1.4068753167
 20
-11.7555137727
 10
-1.4031340611
 20
-11.7560418369
 10
-1.3993541238
 20
-11.7567062803
 10
-1.3955269949
 20
-11.7575100592
 10
-1.3916464978
 20
-11.7584558072
 10
-1.3877157869
 20
-11.7595448688
 10
-1.3837403492
 20
-11.7607782657
 10
-1.3797256722
 20
-11.7621570199
 10
-1.3756772429
 20
-11.7636821535
 10
-1.3716005486
 20
-11.7653546882
 10
-1.3675011878
 20
-11.7671745281
 10
-1.3633852032
 20
-11.7691371058
 10
-1.359258749
 20
-11.7712367357
 10
-1.3551279794
 20
-11.7734677326
 10
-1.3509990484
 20
-11.7758244109
 10
-1.34687811
 20
-11.7783010852
 10
-1.342768832
 20
-11.7808938252
 10
-1.3386649358
 20
-11.7836057203
 10
-1.3345576567
 20
-11.7864416152
 10
-1.3304422031
 20
-11.7894036437
 10
-1.3263296778
 20
-11.7924830974
 10
-1.3222351569
 20
-11.7956685572
 10
-1.3173635638
 20
-11.7996166052
 10
-1.3125466935
 20
-11.8036910037
 10
-1.3077916329
 20
-11.8078818975
 10
-1.3031054689
 20
-11.8121794319
 10
-1.2984952886
 20
-11.8165737517
 10
-1.2939670773
 20
-11.8210560956
 10
-1.289522415
 20
-11.8256220763
 10
-1.2851617801
 20
-11.8302684003
 10
-1.280885651
 20
-11.8349917738
 10
-1.2766945061
 20
-11.8397889033
 10
-1.2725873266
 20
-11.8446595585
 10
-1.2685571051
 20
-11.8496157626
 10
-1.2645953366
 20
-11.8546726024
 10
-1.2606935166
 20
-11.8598451643
 10
-1.2568431402
 20
-11.8651485352
  0
LWPOLYLINE
  5
31D
100
AcDbEntity
  8
0
100
AcDbPolyline
 62
253
  6
CONTINUOUS
 90
23
 70
0
 10
-2.8125238784
 20
-11.1390466164
 10
-2.8131749123
 20
-11.1395562643
 10
-2.8138070704
 20
-11.1400919909
 10
-2.8144209735
 20
-11.1406527282
 10
-2.8150172423
 20
-11.1412374078
 10
-2.8155964978
 20
-11.1418449616
 10
-2.8161593608
 20
-11.1424743214
 10
-2.8167064521
 20
-11.1431244187
 10
-2.8172383925
 20
-11.1437941856
 10
-2.8177558029
 20
-11.1444825536
 10
-2.8182593042
 20
-11.1451884546
 10
-2.8187495171
 20
-11.1459108204
 10
-2.8192270625
 20
-11.1466485827
 10
-2.8196925612
 20
-11.1474006733
 10
-2.8201466341
 20
-11.148166024
 10
-2.8207643872
 20
-11.1492579655
 10
-2.8213630522
 20
-11.1503721174
 10
-2.8219447187
 20
-11.1515067942
 10
-2.8225114764
 20
-11.1526603103
 10
-2.823065415
 20
-11.1538309801
 10
-2.8236086241
 20
-11.1550171182
 10
-2.8241431934
 20
-11.1562170389
 10
-2.8246712125
 20
-11.1574290568
  0
LINE
  5
31E
100
AcDbEntity
  8
ASSI
100
AcDbLine
 62
253
  6
CONTINUOUS
 10
8.6448624063
 20
-3.4351570428
 11
4.8316382222
 21
-5.5254106133
  0
LINE
  5
31F
100
AcDbEntity
  8
ASSI
100
AcDbLine
 62
253
  6
CONTINUOUS
 10
8.8216929844
 20
-3.7413199773
 11
5.003681863
 21
-5.8341975511
  0
LWPOLYLINE
  5
320
100
AcDbEntity
  8
ASSI
100
AcDbPolyline
 62
253
  6
CONTINUOUS
 90
55
 70
0
 10
4.8316382222
 20
-5.5254106133
 10
4.8263631933
 20
-5.5282211747
 10
4.820963159
 20
-5.5309398774
 10
4.8154381192
 20
-5.5335667212
 10
4.8097833274
 20
-5.5361037245
 10
4.8040035302
 20
-5.538548869
 10
4.7981129673
 20
-5.5408960999
 10
4.7921114381
 20
-5.5431451414
 10
4.7859991432
 20
-5.5452962693
 10
4.7797909253
 20
-5.5473442565
 10
4.7734865648
 20
-5.5492888465
 10
4.7670862812
 20
-5.5511302957
 10
4.7606055759
 20
-5.5528641456
 10
4.7540442524
 20
-5.5544901367
 10
4.747402507
 20
-5.5560085285
 10
4.7406964301
 20
-5.5574156415
 10
4.7339258599
 20
-5.5587112067
 10
4.727090958
 20
-5.5598954932
 10
4.7202083
 20
-5.5609656285
 10
4.7132777732
 20
-5.5619213348
 10
4.7062994901
 20
-5.56276289
 10
4.699290364
 20
-5.5634882547
 10
4.6922503217
 20
-5.5640971472
 10
4.6851794364
 20
-5.5645898492
 10
4.67809484
 20
-5.5649651672
 10
4.6709964969
 20
-5.5652228165
 10
4.6638844429
 20
-5.5653630818
 10
4.6567759168
 20
-5.5653856229
 10
4.6496709265
 20
-5.5652901541
 10
4.6425694643
 20
-5.5650769611
 10
4.6354887453
 20
-5.5647465613
 10
4.6284288232
 20
-5.5642986705
 10
4.6213896443
 20
-5.5637335728
 10
4.6143882641
 20
-5.5630526378
 10
4.6074247724
 20
-5.5622555845
 10
4.6004990792
 20
-5.561342694
 10
4.5936279698
 20
-5.5603161788
 10
4.5868115734
 20
-5.5591757624
 10
4.5800497607
 20
-5.5579217214
 10
4.573358929
 20
-5.5565570977
 10
4.5667392562
 20
-5.555081624
 10
4.5601905644
 20
-5.5534955675
 10
4.5537287173
 20
-5.551802772
 10
4.5473539267
 20
-5.5500029797
 10
4.5410659808
 20
-5.5480964484
 10
4.534880108
 20
-5.5460877942
 10
4.5287965432
 20
-5.5439767633
 10
4.5228150514
 20
-5.5417636095
 10
4.5169501568
 20
-5.5394537106
 10
4.5112020813
 20
-5.5370467954
 10
4.5055706028
 20
-5.5345431351
 10
4.5000695797
 20
-5.5319489209
 10
4.4947036312
 20
-5.5292662167
 10
4.489468138
 20
-5.5264929587
 10
4.4843631001
 20
-5.5236291468
  0
LINE
  5
321
100
AcDbEntity
  8
ASSI
100
AcDbLine
 62
253
  6
CONTINUOUS
 10
5.003681863
 20
-5.1884283643
 11
8.8216929844
 21
-3.169899572
  0
LINE
  5
322
100
AcDbEntity
  8
ASSI
100
AcDbLine
 62
7
  6
CONTINUOUS
 10
4.9500274827
 20
-5.3038737688
 11
8.7672249286
 21
-3.2857751553
  0
LWPOLYLINE
  5
323
100
AcDbEntity
  8
ASSI
100
AcDbPolyline
 62
253
  6
CONTINUOUS
 90
55
 70
0
 10
5.003681863
 20
-5.8341975573
 10
4.9931447102
 20
-5.8397666494
 10
4.9823402406
 20
-5.8451603224
 10
4.971277194
 20
-5.8503742503
 10
4.9599645416
 20
-5.8554042789
 10
4.9484114131
 20
-5.8602463505
 10
4.9366270846
 20
-5.8648965028
 10
4.9246210284
 20
-5.869351028
 10
4.9124030072
 20
-5.873606333
 10
4.8999830032
 20
-5.8776588663
 10
4.88737111
 20
-5.881505372
 10
4.8745774874
 20
-5.8851427917
 10
4.8616124534
 20
-5.888568123
 10
4.8484864881
 20
-5.8917786304
 10
4.8352102169
 20
-5.89477175
 10
4.8217943694
 20
-5.8975449944
 10
4.8082497875
 20
-5.9000961533
 10
4.7945874376
 20
-5.9024231948
 10
4.7808183927
 20
-5.9045241678
 10
4.7669537977
 20
-5.9063974027
 10
4.7530048619
 20
-5.9080414185
 10
4.7389828704
 20
-5.9094548242
 10
4.7248991697
 20
-5.9106365048
 10
4.7107651491
 20
-5.9115855368
 10
4.6965922325
 20
-5.9123010954
 10
4.6823918805
 20
-5.9127826282
 10
4.6681755845
 20
-5.9130297749
 10
4.6539548478
 20
-5.913042282
 10
4.639741174
 20
-5.9128201634
 10
4.625546061
 20
-5.9123636264
 10
4.6113809947
 20
-5.9116729917
 10
4.5972574379
 20
-5.9107488398
 10
4.5831868111
 20
-5.9095919438
 10
4.5691804865
 20
-5.9082031946
 10
4.5552497908
 20
-5.9065837338
 10
4.5414059964
 20
-5.9047348942
 10
4.5276603028
 20
-5.9026581327
 10
4.5140238228
 20
-5.9003551436
 10
4.500507594
 20
-5.8978278111
 10
4.4871225698
 20
-5.8950781503
 10
4.4738795872
 20
-5.8921084017
 10
4.4607893478
 20
-5.888920984
 10
4.4478624292
 20
-5.8855184457
 10
4.4351092948
 20
-5.8819035514
 10
4.4225402535
 20
-5.8780792385
 10
4.4101654424
 20
-5.8740485693
 10
4.3979948314
 20
-5.869814795
 10
4.3860383096
 20
-5.8653813644
 10
4.3743056417
 20
-5.8607518842
 10
4.3628063661
 20
-5.8559301285
 10
4.3515497266
 20
-5.8509199893
 10
4.3405447618
 20
-5.8457254831
 10
4.3298003532
 20
-5.8403508005
 10
4.3193252131
 20
-5.8348003059
 10
4.3091278147
 20
-5.8290784905
  0
LWPOLYLINE
  5
324
100
AcDbEntity
  8
0
100
AcDbPolyline
 62
253
  6
CONTINUOUS
 90
24
 70
0
 10
-3.03354317
 20
9.9303358499
 10
-3.0320295454
 20
9.9296231457
 10
-3.0305150215
 20
9.9288884717
 10
-3.0289994007
 20
9.928130852
 10
-3.0274824854
 20
9.9273493108
 10
-3.0259640781
 20
9.9265428722
 10
-3.0244439811
 20
9.9257105601
 10
-3.022921997
 20
9.9248513988
 10
-3.0213979282
 20
9.9239644123
 10
-3.0198715771
 20
9.9230486246
 10
-3.0183427461
 20
9.92210306
 10
-3.0171649609
 20
9.9213548124
 10
-3.0159858023
 20
9.9205878354
 10
-3.0148054812
 20
9.9198015965
 10
-3.0136242087
 20
9.9189955635
 10
-3.0124421956
 20
9.9181692037
 10
-3.0112596528
 20
9.9173219848
 10
-3.0100767912
 20
9.9164533745
 10
-3.0088938219
 20
9.9155628402
 10
-3.0077109556
 20
9.9146498495
 10
-3.0065284034
 20
9.9137138701
 10
-3.0053463761
 20
9.9127543695
 10
-3.0041650847
 20
9.9117708153
 10
-3.0029847401
 20
9.9107626751
  0
LWPOLYLINE
  5
325
100
AcDbEntity
  8
0
100
AcDbPolyline
 62
253
  6
CONTINUOUS
 90
56
 70
0
 10
-4.6190085234
 20
11.2687119133
 10
-4.6131933354
 20
11.2653365555
 10
-4.6074666538
 20
11.2619679656
 10
-4.6018246647
 20
11.2585906629
 10
-4.5962635543
 20
11.255189167
 10
-4.5907795085
 20
11.2517479971
 10
-4.5853687136
 20
11.2482516726
 10
-4.5800273556
 20
11.2446847129
 10
-4.5747516206
 20
11.2410316373
 10
-4.5695376947
 20
11.2372769653
 10
-4.5656667755
 20
11.2343860036
 10
-4.5618344141
 20
11.2314288205
 10
-4.5580465457
 20
11.2284050504
 10
-4.5543091058
 20
11.2253143278
 10
-4.5506280298
 20
11.2221562871
 10
-4.5470092531
 20
11.2189305627
 10
-4.5434583586
 20
11.2156369587
 10
-4.5399795199
 20
11.212275958
 10
-4.5365765582
 20
11.208848213
 10
-4.5332523216
 20
11.2053533108
 10
-4.5300057665
 20
11.2017865766
 10
-4.5268348763
 20
11.1981422703
 10
-4.5237382965
 20
11.1944150319
 10
-4.5207173209
 20
11.190601021
 10
-4.5177739051
 20
11.1866967775
 10
-4.5149106386
 20
11.1827007649
 10
-4.512132645
 20
11.1786191421
 10
-4.5094456814
 20
11.1744599916
 10
-4.5068550801
 20
11.1702329757
 10
-4.5043644744
 20
11.1659540755
 10
-4.5019770727
 20
11.161640852
 10
-4.4996945674
 20
11.1573073212
 10
-4.4975125876
 20
11.1529533205
 10
-4.4954252464
 20
11.1485751423
 10
-4.4934277804
 20
11.1441708394
 10
-4.49151992
 20
11.1397455054
 10
-4.4897025194
 20
11.1353059942
 10
-4.4879764324
 20
11.1308591595
 10
-4.4863425131
 20
11.1264118553
 10
-4.4848016155
 20
11.1219709352
 10
-4.4830764115
 20
11.1166601134
 10
-4.4814871563
 20
11.1113814272
 10
-4.4800346178
 20
11.1061479494
 10
-4.4787195638
 20
11.1009727528
 10
-4.4775427621
 20
11.0958689102
 10
-4.4765044649
 20
11.0908477263
 10
-4.4756028617
 20
11.0859134339
 10
-4.4748356265
 20
11.0810684974
 10
-4.4742004332
 20
11.0763153815
 10
-4.4736949557
 20
11.0716565506
 10
-4.4733717158
 20
11.0678462845
 10
-4.4731390808
 20
11.0640943815
 10
-4.4729991905
 20
11.0603920176
 10
-4.4729541849
 20
11.0567303686
 10
-4.4730062038
 20
11.0531006105
 10
-4.473157387
 20
11.0494939191
  0
LINE
  5
326
100
AcDbEntity
  8
ASSI
100
AcDbLine
 62
7
  6
CONTINUOUS
 10
8.2703971235
 20
13.9737399805
 11
8.8216929844
 21
7.2401508513
  0
LINE
  5
327
100
AcDbEntity
  8
ASSI
100
AcDbLine
 62
7
  6
CONTINUOUS
 10
8.8216929844
 20
-3.7413199773
 11
8.8216929844
 21
-14.1513704006
  0
LINE
  5
328
100
AcDbEntity
  8
ASSI
100
AcDbLine
 62
7
  6
CONTINUOUS
 10
8.8216929844
 20
-3.169899572
 11
8.8216929844
 21
7.2401508513
  0
LINE
  5
329
100
AcDbEntity
  8
ASSI
100
AcDbLine
 62
7
  6
CONTINUOUS
 10
8.2703971235
 20
-21.478619747
 11
8.8216929844
 21
-14.1513704006
  0
LWPOLYLINE
  5
32A
100
AcDbEntity
  8
0
100
AcDbPolyline
 62
253
  6
CONTINUOUS
 90
26
 70
0
 10
-1.8804175197
 20
-12.6429943698
 10
-1.8795890704
 20
-12.6423131369
 10
-1.8787816487
 20
-12.641618561
 10
-1.8779954182
 20
-12.640910313
 10
-1.8772305426
 20
-12.6401880639
 10
-1.8764871856
 20
-12.6394514847
 10
-1.875765511
 20
-12.6387002465
 10
-1.8750656823
 20
-12.6379340202
 10
-1.8743878633
 20
-12.6371524769
 10
-1.8737322177
 20
-12.6363552876
 10
-1.8730989092
 20
-12.6355421232
 10
-1.8724881013
 20
-12.6347126549
 10
-1.871899958
 20
-12.6338665535
 10
-1.8713773437
 20
-12.6330704942
 10
-1.8708744861
 20
-12.6322597527
 10
-1.8703916906
 20
-12.6314340994
 10
-1.8699292626
 20
-12.6305933049
 10
-1.8694875076
 20
-12.6297371398
 10
-1.869066731
 20
-12.6288653746
 10
-1.8686672382
 20
-12.6279777799
 10
-1.8682893348
 20
-12.6270741261
 10
-1.8679333262
 20
-12.6261541839
 10
-1.8675995178
 20
-12.6252177238
 10
-1.8672882151
 20
-12.6242645163
 10
-1.8669997234
 20
-12.6232943319
 10
-1.8667343484
 20
-12.6223069413
  0
LWPOLYLINE
  5
32B
100
AcDbEntity
  8
0
100
AcDbPolyline
 62
253
  6
CONTINUOUS
 90
26
 70
0
 10
-2.3678678424
 20
-11.3186983278
 10
-2.3697026149
 20
-11.3193308817
 10
-2.3715615722
 20
-11.3199154427
 10
-2.3734452951
 20
-11.3204517871
 10
-2.3753543641
 20
-11.3209396909
 10
-2.3772893597
 20
-11.3213789306
 10
-2.3792508627
 20
-11.3217692823
 10
-2.3812394535
 20
-11.3221105224
 10
-2.3832557128
 20
-11.322402427
 10
-2.3852999646
 20
-11.3226446847
 10
-2.3873715059
 20
-11.3228366337
 10
-2.3894693776
 20
-11.3229775243
 10
-2.3915926201
 20
-11.3230666072
 10
-2.3937402741
 20
-11.3231031326
 10
-2.3959113802
 20
-11.323086351
 10
-2.398104979
 20
-11.323015513
 10
-2.400320111
 20
-11.3228898689
 10
-2.4023066132
 20
-11.3227315153
 10
-2.4043098624
 20
-11.3225284154
 10
-2.4063303499
 20
-11.3222797188
 10
-2.4083685667
 20
-11.3219845749
 10
-2.4104250041
 20
-11.3216421333
 10
-2.4125001532
 20
-11.3212515434
 10
-2.4145945051
 20
-11.3208119548
 10
-2.416708551
 20
-11.3203225169
 10
-2.418842782
 20
-11.3197823794
  0
LWPOLYLINE
  5
32C
100
AcDbEntity
  8
0
100
AcDbPolyline
 62
253
  6
CONTINUOUS
 90
23
 70
0
 10
-3.0637624349
 20
9.9378633643
 10
-3.0625610235
 20
9.937831106
 10
-3.0613531075
 20
9.9377695973
 10
-3.060138932
 20
9.937679534
 10
-3.0589187422
 20
9.9375616119
 10
-3.057692783
 20
9.9374165267
 10
-3.0564612997
 20
9.9372449741
 10
-3.0552245372
 20
9.93704765
 10
-3.0539827408
 20
9.9368252501
 10
-3.0527361555
 20
9.93657847
 10
-3.0514850263
 20
9.9363080057
 10
-3.0502295985
 20
9.9360145528
 10
-3.0489701171
 20
9.9356988072
 10
-3.0474536475
 20
9.9352913771
 10
-3.0459315999
 20
9.934853519
 10
-3.0444038808
 20
9.9343859045
 10
-3.0428703962
 20
9.9338892055
 10
-3.0413310527
 20
9.9333640935
 10
-3.0397857564
 20
9.9328112403
 10
-3.0382344137
 20
9.9322313177
 10
-3.0366769308
 20
9.9316249973
 10
-3.0351132141
 20
9.9309929508
 10
-3.03354317
 20
9.9303358499
  0
LWPOLYLINE
  5
32D
100
AcDbEntity
  8
0
100
AcDbPolyline
 62
253
  6
CONTINUOUS
 90
24
 70
0
 10
-3.4604106431
 20
9.7458977967
 10
-3.4578578474
 20
9.7454440948
 10
-3.4553187219
 20
9.745045126
 10
-3.4527931691
 20
9.7447010961
 10
-3.4502810918
 20
9.7444122111
 10
-3.4477823924
 20
9.7441786771
 10
-3.4452969738
 20
9.7440007
 10
-3.4428247385
 20
9.7438784858
 10
-3.4403655892
 20
9.7438122406
 10
-3.4379194286
 20
9.7438021701
 10
-3.4354861593
 20
9.7438484805
 10
-3.4330656839
 20
9.7439513778
 10
-3.4308581674
 20
9.7440957285
 10
-3.4286618243
 20
9.7442888134
 10
-3.4264771593
 20
9.7445316452
 10
-3.4243046772
 20
9.7448252364
 10
-3.4221448827
 20
9.7451705995
 10
-3.4199982804
 20
9.745568747
 10
-3.4178653752
 20
9.7460206916
 10
-3.4157466718
 20
9.7465274457
 10
-3.4136426748
 20
9.747090022
 10
-3.4115538891
 20
9.7477094329
 10
-3.4094808193
 20
9.748386691
 10
-3.4074239702
 20
9.7491228089
  0
LWPOLYLINE
  5
32E
100
AcDbEntity
  8
0
100
AcDbPolyline
 62
253
  6
CONTINUOUS
 90
39
 70
0
 10
-1.4124731371
 20
-12.4293762677
 10
-1.4088385739
 20
-12.4281796242
 10
-1.4052940952
 20
-12.4268415638
 10
-1.4018374798
 20
-12.4253651749
 10
-1.3984665067
 20
-12.4237535458
 10
-1.3951789548
 20
-12.4220097647
 10
-1.391972603
 20
-12.4201369199
 10
-1.3888452301
 20
-12.4181380996
 10
-1.3852942053
 20
-12.4156508103
 10
-1.3818484449
 20
-12.4129997613
 10
-1.3785087373
 20
-12.410188456
 10
-1.3752758709
 20
-12.4072203978
 10
-1.372150634
 20
-12.4040990901
 10
-1.369133815
 20
-12.4008280362
 10
-1.3662262488
 20
-12.3974104953
 10
-1.3634289559
 20
-12.3938487493
 10
-1.3607430035
 20
-12.3901448361
 10
-1.3581694587
 20
-12.3863007933
 10
-1.3557093886
 20
-12.3823186588
 10
-1.3533638602
 20
-12.3782004701
 10
-1.3511341563
 20
-12.3739481077
 10
-1.3490224215
 20
-12.3695628216
 10
-1.347031016
 20
-12.3650457046
 10
-1.3451623001
 20
-12.3603978493
 10
-1.343418634
 20
-12.3556203485
 10
-1.3418023778
 20
-12.3507142948
 10
-1.3403160773
 20
-12.345680685
 10
-1.33896302
 20
-12.3405201328
 10
-1.3377466789
 20
-12.3352331556
 10
-1.3366705269
 20
-12.3298202711
 10
-1.335738037
 20
-12.3242819969
 10
-1.3349526823
 20
-12.3186188507
 10
-1.3343995472
 20
-12.3136652051
 10
-1.333960966
 20
-12.3086173753
 10
-1.3336408415
 20
-12.3034725392
 10
-1.3334430768
 20
-12.298227875
 10
-1.3333715749
 20
-12.2928805607
 10
-1.3334302386
 20
-12.2874277745
 10
-1.3336229711
 20
-12.2818666945
  0
LINE
  5
32F
100
AcDbEntity
  8
ASSI
100
AcDbLine
 62
253
  6
CONTINUOUS
 10
5.0990569859
 20
12.2363646148
 11
-9.7581316197
 21
20.8147191114
  0
LWPOLYLINE
  5
330
100
AcDbEntity
  8
ASSI
100
AcDbPolyline
 62
253
  6
CONTINUOUS
 90
55
 70
0
 10
5.0695507131
 20
-13.224558847
 10
5.0590153031
 20
-13.2302924107
 10
5.0482125735
 20
-13.2358505427
 10
5.037151263
 20
-13.241228747
 10
5.0258403193
 20
-13.2464226729
 10
5.014288892
 20
-13.2514281192
 10
5.0025063253
 20
-13.2562410366
 10
4.9905021505
 20
-13.260857532
 10
4.978286078
 20
-13.2652738709
 10
4.9658679896
 20
-13.2694864809
 10
4.9532579306
 20
-13.2734919543
 10
4.9404661016
 20
-13.277287051
 10
4.9275028502
 20
-13.280868701
 10
4.9143786626
 20
-13.2842340071
 10
4.9011041552
 20
-13.287380247
 10
4.8876900662
 20
-13.2903048757
 10
4.8741472465
 20
-13.2930055273
 10
4.8604866512
 20
-13.2954800171
 10
4.8467193305
 20
-13.2977263437
 10
4.8328564213
 20
-13.2997426898
 10
4.8189091376
 20
-13.3015274244
 10
4.8048887615
 20
-13.3030791037
 10
4.7908066346
 20
-13.3043964726
 10
4.7766741481
 20
-13.3054784654
 10
4.7625027342
 20
-13.306324207
 10
4.7483038563
 20
-13.306933013
 10
4.7340890004
 20
-13.3073043912
 10
4.7198696651
 20
-13.3074380409
 10
4.7056573527
 20
-13.3073338543
 10
4.69146356
 20
-13.3069919154
 10
4.6772997686
 20
-13.3064125009
 10
4.6631774358
 20
-13.3055960796
 10
4.6491079857
 20
-13.3045433118
 10
4.6351027991
 20
-13.3032550492
 10
4.6211732054
 20
-13.3017323338
 10
4.6073304724
 20
-13.2999763974
 10
4.5935857978
 20
-13.2979886604
 10
4.5799503
 20
-13.2957707308
 10
4.5664350091
 20
-13.2933244027
 10
4.5530508579
 20
-13.290651655
 10
4.5398086731
 20
-13.2877546496
 10
4.5267191666
 20
-13.2846357302
 10
4.5137929268
 20
-13.2812974196
 10
4.5010404101
 20
-13.2777424182
 10
4.4884719322
 20
-13.2739736019
 10
4.4760976601
 20
-13.2699940192
 10
4.4639276035
 20
-13.2658068893
 10
4.4519716072
 20
-13.2614155994
 10
4.4402393426
 20
-13.2568237016
 10
4.4287403001
 20
-13.2520349104
 10
4.4174837817
 20
-13.2470530995
 10
4.4064788929
 20
-13.2418822989
 10
4.3957345359
 20
-13.2365266914
 10
4.385259402
 20
-13.2309906092
 10
4.3750619647
 20
-13.2252785305
  0
LINE
  5
331
100
AcDbEntity
  8
ASSI
100
AcDbLine
 62
7
  6
CONTINUOUS
 10
5.8936247111
 20
15.7167047658
 11
5.2209178903
 21
15.586822282
  0
LINE
  5
332
100
AcDbEntity
  8
ASSI
100
AcDbLine
 62
253
  6
CONTINUOUS
 10
5.7728168294
 20
13.3056634983
 11
-9.1074962266
 21
21.8973697627
  0
LINE
  5
333
100
AcDbEntity
  8
ASSI
100
AcDbLine
 62
7
  6
CONTINUOUS
 10
5.027732725
 20
15.6124311172
 11
2.6454476289
 21
16.9879326746
  0
LINE
  5
334
100
AcDbEntity
  8
ASSI
100
AcDbLine
 62
7
  6
CONTINUOUS
 10
-2.8918632243
 20
20.1851065624
 11
-5.2741483203
 21
21.5606081199
  0
LINE
  5
335
100
AcDbEntity
  8
ASSI
100
AcDbLine
 62
7
  6
CONTINUOUS
 10
-7.137459134
 20
23.2406892601
 11
-5.14566088
 21
22.0906499113
  0
LINE
  5
336
100
AcDbEntity
  8
ASSI
100
AcDbLine
 62
7
  6
CONTINUOUS
 10
-2.0259712382
 20
20.289380211
 11
2.7739350693
 21
17.517974466
  0
LINE
  5
337
100
AcDbEntity
  8
ASSI
100
AcDbLine
 62
7
  6
CONTINUOUS
 10
5.8936247111
 20
15.7167047658
 11
7.8854229651
 21
14.566665417
  0
LINE
  5
338
100
AcDbEntity
  8
ASSI
100
AcDbLine
 62
7
  6
CONTINUOUS
 10
-2.0259712382
 20
20.289380211
 11
-2.698678059
 21
20.1594977273
  0
LWPOLYLINE
  5
339
100
AcDbEntity
  8
ASSI
100
AcDbPolyline
 62
253
  6
CONTINUOUS
 90
55
 70
0
 10
5.7896585299
 20
-22.3424736566
 10
5.7792349558
 20
-22.3496584664
 10
5.768543838
 20
-22.3566665824
 10
5.7575938291
 20
-22.3634923326
 10
5.7463937913
 20
-22.3701301928
 10
5.734952789
 20
-22.3765747908
 10
5.7232800818
 20
-22.3828209108
 10
5.7113851166
 20
-22.3888634977
 10
5.6992775205
 20
-22.394697661
 10
5.6869670923
 20
-22.400318679
 10
5.6744637953
 20
-22.4057220025
 10
5.6617777487
 20
-22.4109032584
 10
5.6489192197
 20
-22.4158582533
 10
5.635898615
 20
-22.4205829771
 10
5.6227264726
 20
-22.4250736058
 10
5.609413453
 20
-22.4293265052
 10
5.5959703308
 20
-22.4333382333
 10
5.5824079858
 20
-22.4371055432
 10
5.5687373945
 20
-22.4406253859
 10
5.5549696208
 20
-22.4438949128
 10
5.5411158074
 20
-22.4469114777
 10
5.5271871665
 20
-22.4496726393
 10
5.513194971
 20
-22.4521761628
 10
5.499150545
 20
-22.4544200222
 10
5.4850652551
 20
-22.4564024013
 10
5.470950501
 20
-22.4581216958
 10
5.4568177061
 20
-22.4595765142
 10
5.4426783084
 20
-22.4607656792
 10
5.4285437513
 20
-22.4616882281
 10
5.4144254743
 20
-22.4623434146
 10
5.4003349037
 20
-22.4627307082
 10
5.3862834434
 20
-22.4628497955
 10
5.3722824656
 20
-22.4627005801
 10
5.3583433016
 20
-22.4622831829
 10
5.3444772329
 20
-22.4615979415
 10
5.3306954815
 20
-22.4606454107
 10
5.3170092015
 20
-22.4594263613
 10
5.3034294694
 20
-22.4579417799
 10
5.2899672758
 20
-22.456192868
 10
5.276633516
 20
-22.4541810411
 10
5.2634389812
 20
-22.4519079274
 10
5.2503943503
 20
-22.4493753666
 10
5.2375101806
 20
-22.4465854083
 10
5.2247968995
 20
-22.4435403106
 10
5.2122647964
 20
-22.4402425379
 10
5.1999240137
 20
-22.4366947592
 10
5.1877845391
 20
-22.4328998458
 10
5.1758561976
 20
-22.4288608691
 10
5.164148643
 20
-22.4245810978
 10
5.1526713505
 20
-22.4200639958
 10
5.141433609
 20
-22.4153132188
 10
5.1304445136
 20
-22.4103326118
 10
5.1197129579
 20
-22.4051262056
 10
5.1092476274
 20
-22.3996982141
 10
5.099056992
 20
-22.3940530302
  0
LINE
  5
33A
100
AcDbEntity
  8
ASSI
100
AcDbLine
 62
253
  6
CONTINUOUS
 10
6.1323195642
 20
-22.5047923187
 11
8.2703971235
 21
-21.478619747
  0
LINE
  5
33B
100
AcDbEntity
  8
ASSI
100
AcDbLine
 62
7
  6
CONTINUOUS
 10
6.0076679848
 20
-22.7444252243
 11
8.132202045
 21
-21.7247528692
  0
ELLIPSE
  5
33C
100
AcDbEntity
  8
ASSI
100
AcDbEllipse
 62
7
  6
CONTINUOUS
 10
8.6448085358
 20
-3.6392512803
 30
0.0
 11
-0.1251346745
 21
0.2164781009
 31
0.0
 40
0.577507303
 41
-2.3566621664
 42
-0.7861703913
  0
ELLIPSE
  5
33D
100
AcDbEntity
  8
ASSI
100
AcDbEllipse
 62
7
  6
CONTINUOUS
 10
7.9166865095
 20
-21.2735833825
 30
0.0
 11
-0.2149783503
 21
0.4514263066
 31
0.0
 40
0.6262155472
 41
-3.1396910161
 42
-2.3109372224
  0
ELLIPSE
  5
33E
100
AcDbEntity
  8
0
100
AcDbEllipse
 62
253
  6
CONTINUOUS
 10
57.5588095017
 20
30.9394171238
 30
0.0
 11
-63.4439244085
 21
110.1607839106
 31
0.0
 40
0.5780639714
 41
-4.654156511
 42
-4.6496477737
  0
ELLIPSE
  5
33F
100
AcDbEntity
  8
0
100
AcDbEllipse
 62
253
  6
CONTINUOUS
 10
56.0507764552
 20
31.8101365048
 30
0.0
 11
-93.3339384156
 21
122.8365010267
 31
0.0
 40
0.473404528
 41
1.5679915853
 42
1.5684348548
  0
ELLIPSE
  5
340
100
AcDbEntity
  8
0
100
AcDbEllipse
 62
253
  6
CONTINUOUS
 10
38.4161843735
 20
41.9921289594
 30
0.0
 11
397.2386018073
 21
-298.4585506484
 31
0.0
 40
0.136290287
 41
-1.5720077313
 42
-1.5719229277
  0
ELLIPSE
  5
341
100
AcDbEntity
  8
0
100
AcDbEllipse
 62
253
  6
CONTINUOUS
 10
64.2035168311
 20
27.1028463896
 30
0.0
 11
90.203653693
 21
51.8421936802
 31
0.0
 40
0.0019955032
 41
-2.4020620457
 42
-2.3973764058
  0
ELLIPSE
  5
342
100
AcDbEntity
  8
0
100
AcDbEllipse
 62
253
  6
CONTINUOUS
 10
80.384091891
 20
17.7603851403
 30
0.0
 11
410.2942999699
 21
-156.057273941
 31
0.0
 40
0.1305095415
 41
-1.7242663468
 42
-1.7241529382
  0
ELLIPSE
  5
343
100
AcDbEntity
  8
0
100
AcDbEllipse
 62
253
  6
CONTINUOUS
 10
61.2327064139
 20
28.8181550915
 30
0.0
 11
54.2950208311
 21
72.4026608489
 31
0.0
 40
0.4795981734
 41
-3.8207814363
 42
-3.8202492855
  0
ELLIPSE
  5
344
100
AcDbEntity
  8
0
100
AcDbEllipse
 62
253
  6
CONTINUOUS
 10
88.8443674521
 20
12.8755280634
 30
0.0
 11
592.6164095408
 21
-263.9581611362
 31
0.0
 40
0.0918564612
 41
-1.6849789861
 42
-1.6849362124
  0
ELLIPSE
  5
345
100
AcDbEntity
  8
0
100
AcDbEllipse
 62
253
  6
CONTINUOUS
 10
60.7074700031
 20
29.1214200123
 30
0.0
 11
44.4294361671
 21
78.270773188
 31
0.0
 40
0.5821657265
 41
-3.8821986885
 42
-3.8754297695
  0
ELLIPSE
  5
346
100
AcDbEntity
  8
0
100
AcDbEllipse
 62
253
  6
CONTINUOUS
 10
1.5527013214
 20
63.2766420657
 30
0.0
 11
843.7354101279
 21
-558.2233270748
 31
0.0
 40
0.0650344369
 41
-1.534606467
 42
-1.534538888
  0
ELLIPSE
  5
347
100
AcDbEntity
  8
0
100
AcDbEllipse
 62
253
  6
CONTINUOUS
 10
114.6384447644
 20
-2.017648901
 30
0.0
 11
804.2426824111
 21
-387.5500364942
 31
0.0
 40
0.0680971653
 41
-1.6858476411
 42
-1.6857800622
  0
ELLIPSE
  5
348
100
AcDbEntity
  8
0
100
AcDbEllipse
 62
253
  6
CONTINUOUS
 10
9.0743191268
 20
58.9337542129
 30
0.0
 11
789.6543434404
 21
-526.8561596195
 31
0.0
 40
0.0694475107
 41
-1.541285734
 42
-1.5412146416
  0
ELLIPSE
  5
349
100
AcDbEntity
  8
0
100
AcDbEllipse
 62
253
  6
CONTINUOUS
 10
117.6936244028
 20
-3.7816713338
 30
0.0
 11
912.6092458258
 21
-450.5600554751
 31
0.0
 40
0.0601018179
 41
-1.6747570519
 42
-1.6746965645
  0
ELLIPSE
  5
34A
100
AcDbEntity
  8
0
100
AcDbEllipse
 62
253
  6
CONTINUOUS
 10
65.3618047829
 20
26.434065443
 30
0.0
 11
111.1642950853
 21
38.9222649145
 31
0.0
 40
0.1466917276
 41
-2.2730152269
 42
-2.2727284382
  0
ELLIPSE
  5
34B
100
AcDbEntity
  8
0
100
AcDbEllipse
 62
253
  6
CONTINUOUS
 10
61.0955007274
 20
28.8973759353
 30
0.0
 11
27.3437386348
 21
86.9752230625
 31
0.0
 40
0.6773684358
 41
-4.0337718167
 42
-4.0332833545
  0
ELLIPSE
  5
34C
100
AcDbEntity
  8
0
100
AcDbEllipse
 62
253
  6
CONTINUOUS
 10
62.2857987973
 20
28.2101127476
 30
0.0
 11
54.3817194576
 21
72.3501426189
 31
0.0
 40
0.4785133794
 41
-3.8077964406
 42
-3.8072647064
  0
ELLIPSE
  5
34D
100
AcDbEntity
  8
0
100
AcDbEllipse
 62
253
  6
CONTINUOUS
 10
55.9239976614
 20
31.8833369915
 30
0.0
 11
-93.4868604373
 21
122.9111471796
 31
0.0
 40
0.4729138278
 41
-4.7104172287
 42
-4.7101156074
  0
ELLIPSE
  5
34E
100
AcDbEntity
  8
ASSI
100
AcDbEllipse
 62
7
  6
CONTINUOUS
 10
-7.1070566964
 20
22.8518108678
 30
0.0
 11
-0.2807337341
 21
0.4137505634
 31
0.0
 40
0.5254492115
 41
-0.8261225424
 42
0.0012090728
  0
ELLIPSE
  5
34F
100
AcDbEntity
  8
ASSI
100
AcDbEllipse
 62
7
  6
CONTINUOUS
 10
8.6448085358
 20
-3.0677065416
 30
0.0
 11
-0.1251726487
 21
0.2165441215
 31
0.0
 40
0.5771556487
 41
-3.1634096711
 42
-2.3569659634
  0
ELLIPSE
  5
350
100
AcDbEntity
  8
ASSI
100
AcDbEllipse
 62
7
  6
CONTINUOUS
 10
5.1691540813
 20
15.7026439146
 30
0.0
 11
0.1999154856
 21
0.0095814127
 31
0.0
 40
0.6067642562
 41
-2.385266879
 42
-1.3380693278
  0
ELLIPSE
  5
351
100
AcDbEntity
  8
ASSI
100
AcDbEllipse
 62
7
  6
CONTINUOUS
 10
-2.750441868
 20
20.2753193599
 30
0.0
 11
0.1999154856
 21
0.0095814127
 31
0.0
 40
0.6067642562
 41
-2.385266879
 42
-1.3380693278
  0
ELLIPSE
  5
352
100
AcDbEntity
  8
ASSI
100
AcDbEllipse
 62
7
  6
CONTINUOUS
 10
7.9166865095
 20
14.1772898325
 30
0.0
 11
-0.2810161013
 21
0.4142924366
 31
0.0
 40
0.524175859
 41
-2.3937039903
 42
-0.8247341631
  0
ELLIPSE
  5
353
100
AcDbEntity
  8
ASSI
100
AcDbEllipse
 62
7
  6
CONTINUOUS
 10
2.7868689852
 20
17.0781454721
 30
0.0
 11
0.1999154856
 21
0.0095814127
 31
0.0
 40
0.6067642562
 41
2.850720877
 42
3.8979184282
  0
ELLIPSE
  5
354
100
AcDbEntity
  8
ASSI
100
AcDbEllipse
 62
7
  6
CONTINUOUS
 10
-5.1327269641
 20
21.6508209173
 30
0.0
 11
0.1999154856
 21
0.0095814127
 31
0.0
 40
0.6067642562
 41
2.850720877
 42
3.8979184282
  0
ELLIPSE
  5
355
100
AcDbEntity
  8
0
100
AcDbEllipse
 62
253
  6
CONTINUOUS
 10
60.1375689029
 20
42.1710806775
 30
0.0
 11
54.2516897483
 21
72.4289086795
 31
0.0
 40
0.4801391982
 41
-3.91331632
 42
-3.9127839041
  0
ELLIPSE
  5
356
100
AcDbEntity
  8
0
100
AcDbEllipse
 62
253
  6
CONTINUOUS
 10
64.0541393629
 20
39.90970198
 30
0.0
 11
-88.1255917639
 21
120.3416637684
 31
0.0
 40
0.4904735454
 41
1.4746399129
 42
1.4749482859
  0
ELLIPSE
  5
357
100
AcDbEntity
  8
0
100
AcDbEllipse
 62
253
  6
CONTINUOUS
 10
56.4238697363
 20
44.3153240327
 30
0.0
 11
90.2112030653
 21
51.8378296162
 31
0.0
 40
0.0020676906
 41
-2.2971178536
 42
-2.2924283654
  0
ELLIPSE
  5
358
100
AcDbEntity
  8
0
100
AcDbEllipse
 62
253
  6
CONTINUOUS
 10
36.9280786613
 20
55.5719494597
 30
0.0
 11
407.3239960789
 21
-154.2759351571
 31
0.0
 40
0.1313953192
 41
-1.6203807104
 42
-1.6202664572
  0
ELLIPSE
  5
359
100
AcDbEntity
  8
0
100
AcDbEllipse
 62
253
  6
CONTINUOUS
 10
25.2378069924
 20
62.3217658078
 30
0.0
 11
604.7622769486
 21
-271.0820913147
 31
0.0
 40
0.0900610801
 41
-1.5784550678
 42
-1.5784130574
  0
ELLIPSE
  5
35A
100
AcDbEntity
  8
0
100
AcDbEllipse
 62
253
  6
CONTINUOUS
 10
59.1781998397
 20
42.7250083508
 30
0.0
 11
53.0100142192
 21
73.1807486166
 31
0.0
 40
0.4953136122
 41
-3.9320726541
 42
-3.9315438298
  0
ELLIPSE
  5
35B
100
AcDbEntity
  8
0
100
AcDbEllipse
 62
253
  6
CONTINUOUS
 10
59.6809585027
 20
42.4347217999
 30
0.0
 11
44.5733184138
 21
78.1881165695
 31
0.0
 40
0.5809635907
 41
-3.9860269632
 42
-3.9792470194
  0
ELLIPSE
  5
35C
100
AcDbEntity
  8
0
100
AcDbEllipse
 62
253
  6
CONTINUOUS
 10
77.8087340499
 20
31.9679713933
 30
0.0
 11
379.3372336273
 21
-287.9825841546
 31
0.0
 40
0.1425007154
 41
-1.6787113733
 42
-1.6786226845
  0
ELLIPSE
  5
35D
100
AcDbEntity
  8
0
100
AcDbEllipse
 62
253
  6
CONTINUOUS
 10
64.3085130725
 20
39.7628297881
 30
0.0
 11
-91.7652665308
 21
122.0752170613
 31
0.0
 40
0.4784731837
 41
1.4649458582
 42
1.4653959621
  0
ELLIPSE
  5
35E
100
AcDbEntity
  8
0
100
AcDbEllipse
 62
253
  6
CONTINUOUS
 10
63.1465722261
 20
40.4337198703
 30
0.0
 11
-63.6450177941
 21
110.23033213
 31
0.0
 40
0.5773343661
 41
1.523497006
 42
1.5279912557
  0
ELLIPSE
  5
35F
100
AcDbEntity
  8
0
100
AcDbEllipse
 62
253
  6
CONTINUOUS
 10
54.9268095976
 20
45.1797077942
 30
0.0
 11
108.3536847809
 21
40.749702688
 31
0.0
 40
0.132869017
 41
-2.1849637952
 42
-2.1846759106
  0
ELLIPSE
  5
360
100
AcDbEntity
  8
0
100
AcDbEllipse
 62
253
  6
CONTINUOUS
 10
61.2551857292
 20
41.525782729
 30
0.0
 11
30.7179919968
 21
85.4489419051
 31
0.0
 40
0.6647187398
 41
-4.1084001711
 42
-4.1079069073
  0
ENDSEC
  0
SECTION
  2
OBJECTS
  0
DICTIONARY
  5
C
100
AcDbDictionary
280
0
281
1
  3
ACAD_GROUP
350
D
  3
ACAD_MLINESTYLE
350
17
  3
ACAD_LAYOUT
350
1A
  3
ACAD_PLOTSETTINGS
350
19
  3
ACAD_PLOTSTYLENAME
350
E
  0
DICTIONARY
  5
D
102
{ACAD_REACTORS
330
C
102
}
100
AcDbDictionary
280
0
281
1
  0
ACDBDICTIONARYWDFLT
  5
E
102
{ACAD_REACTORS
330
C
102
}
100
AcDbDictionary
281
1
  3
Normal
350
F
100
AcDbDictionaryWithDefault
340
F
  0
DICTIONARY
  5
17
102
{ACAD_REACTORS
330
C
102
}
100
AcDbDictionary
280
0
281
1
  3
Standard
350
18
  0
DICTIONARY
  5
19
102
{ACAD_REACTORS
330
C
102
}
100
AcDbDictionary
281
1
  0
DICTIONARY
  5
1A
102
{ACAD_REACTORS
330
C
102
}
100
AcDbDictionary
281
1
  3
Model
350
361
  3
Layout1
350
362
  0
ACDBPLACEHOLDER
  5
F
102
{ACAD_REACTORS
330
E
102
}
  0
MLINESTYLE
  5
18
102
{ACAD_REACTORS
330
17
102
}
100
AcDbMlineStyle
  2
STANDARD
 70
0
  3

 62
256
 51
90.0
 52
90.0
 71
2
 49
0.5
 62
256
  6
BYLAYER
 49
-0.5
 62
256
  6
BYLAYER
  0
LAYOUT
  5
361
102
{ACAD_REACTORS
330
1A
102
}
100
AcDbPlotSettings
  1

  2
none_device
  4
ISO_A4_(297.00_x_210.00_MM)
  6

 40
0.0
 41
0.0
 42
0.0
 43
0.0
 44
297.0
 45
210.0
 46
0.0
 47
0.0
 48
0.0
 49
0.0
140
0.0
141
0.0
142
1.0
143
1.0
 70
1024
 72
1
 73
0
 74
0
  7

 75
0
147
1.0
148
0.0
149
0.0
100
AcDbLayout
  1
Model
 70
0
 71
0
 10
0.0
 20
0.0
 11
297.0
 21
210.0
 12
0.0
 22
0.0
 32
0.0
 14
0.0
 24
0.0
 34
0.0
 15
0.0
 25
0.0
 35
0.0
146
0.0
 13
0.0
 23
0.0
 33
0.0
 16
1.0
 26
0.0
 36
0.0
 17
0.0
 27
1.0
 37
0.0
 76
0
330
219
345
0
346
0
  0
LAYOUT
  5
362
102
{ACAD_REACTORS
330
1A
102
}
100
AcDbPlotSettings
  1

  2
none_device
  4
ISO_A4_(297.00_x_210.00_MM)
  6

 40
0.0
 41
0.0
 42
0.0
 43
0.0
 44
297.0
 45
210.0
 46
0.0
 47
0.0
 48
0.0
 49
0.0
140
0.0
141
0.0
142
1.0
143
1.0
 70
0
 72
1
 73
0
 74
0
  7

 75
0
147
1.0
148
0.0
149
0.0
100
AcDbLayout
  1
Layout1
 70
0
 71
1
 10
0.0
 20
0.0
 11
297.0
 21
210.0
 12
0.0
 22
0.0
 32
0.0
 14
0.0
 24
0.0
 34
0.0
 15
0.0
 25
0.0
 35
0.0
146
0.0
 13
0.0
 23
0.0
 33
0.0
 16
1.0
 26
0.0
 36
0.0
 17
0.0
 27
1.0
 37
0.0
 76
0
330
21A
345
0
346
0
  0
ENDSEC
  0
EOF
