  0
SECTION
  2
HEADER
  9
$ACADVER
  1
AC1021
  9
$DWGCODEPAGE
  3
ANSI_1252
  9
$EXTMAX
 10
297.0
 20
210.0
 30
0.0
  9
$EXTMIN
 10
0.0
 20
0.0
 30
0.0
  9
$LIMMIN
 10
0.0
 20
0.0
  9
$LIMMAX
 10
297.0
 20
210.0
  9
$VIEWCTR
 10
148.5
 20
105.0
  9
$VIEWSIZE
 40
210.0
  9
$CLAYER
  8
0
  9
$LTSCALE
 40
16.335
  9
$CELTYPE
  6
BYLAYER
  9
$DIMSCALE
 40
1.0
  9
$DIMASZ
 40
3.0
  9
$DIMEXO
 40
0.5
  9
$DIMDLI
 40
11.286
  9
$DIMEXE
 40
1.5
  9
$DIMCEN
 40
2.673
  9
$DIMLFAC
 40
1.0
  9
$DIMBLK
  1
_FILLED
  9
$DIMALT
 70
0
  9
$DIMALTF
 40
25.4
  9
$DIMTXT
 40
3.0
  9
$DIMTOL
 70
1
  9
$DIMLIM
 70
0
  9
$DIMTFAC
 40
1.0
  9
$DIMTP
 40
0.01
  9
$DIMTM
 40
0.01
  9
$DIMGAP
 40
0.625
  9
$DIMDSEP
 70
44
  9
$AUNITS
 70
0
  9
$PDMODE
 70
3
  9
$PDSIZE
 40
3.0
  9
$HANDSEED
  5
311
  9
$TILEMODE
 70
1
  9
$MEASUREMENT
 70
1
  9
$INSUNITS
 70
4
  0
ENDSEC
  0
SECTION
  2
CLASSES
  0
CLASS
  1
ACDBDICTIONARYWDFLT
  2
AcDbDictionaryWithDefault
  3
AutoCAD 2000
 90
0
 91
1
280
0
281
0
  0
CLASS
  1
ACDBPLACEHOLDER
  2
AcDbPlaceHolder
  3
AutoCAD 2000
 90
0
 91
1
280
0
281
0
  0
CLASS
  1
LAYOUT
  2
AcDbLayout
  3
AutoCAD 2000
 90
0
 91
0
280
0
281
0
  0
ENDSEC
  0
SECTION
  2
TABLES
  0
TABLE
  2
VPORT
  5
8
100
AcDbSymbolTable
 70
2
  0
VPORT
  5
1F4
100
AcDbSymbolTableRecord
100
AcDbViewportTableRecord
  2
*ACTIVE
 70
0
 10
0.0
 20
0.0
 11
1.0
 21
1.0
 12
148.5
 22
105.0
 13
0.0
 23
0.0
 14
1.0
 24
1.0
 15
0.0
 25
0.0
 16
0.0
 26
0.0
 36
1.0
 17
0.0
 27
0.0
 37
0.0
 40
210.0
 41
1.4142857143
 42
50.0
 43
0.0
 44
0.0
 50
0.0
 51
0.0
 71
0
 72
100
 73
1
 74
1
 75
0
 76
0
 77
0
 78
0
  0
ENDTAB
  0
TABLE
  2
LTYPE
  5
5
100
AcDbSymbolTable
 70
6
  0
LTYPE
  5
14
100
AcDbSymbolTableRecord
100
AcDbLinetypeTableRecord
  2
BYBLOCK
 70
0
  3

 72
65
 73
0
 40
0.0
  0
LTYPE
  5
15
100
AcDbSymbolTableRecord
100
AcDbLinetypeTableRecord
  2
BYLAYER
 70
0
  3

 72
65
 73
0
 40
0.0
  0
LTYPE
  5
16
100
AcDbSymbolTableRecord
100
AcDbLinetypeTableRecord
  2
CONTINUOUS
 70
64
  3
Solid line
 72
65
 73
0
 40
0.0
  0
LTYPE
  5
1F5
100
AcDbSymbolTableRecord
100
AcDbLinetypeTableRecord
  2
CENTER
 70
64
  3
____ _ ____ _ ____ _ ____ _ ____ _ ____ _ ____
 72
65
 73
4
 40
0.6
 49
0.375
 74
0
 49
-0.075
 74
0
 49
0.075
 74
0
 49
-0.075
 74
0
  0
LTYPE
  5
1F6
100
AcDbSymbolTableRecord
100
AcDbLinetypeTableRecord
  2
HIDDEN
 70
64
  3
- - - - - - - - - - - - - - - - - - - -
 72
65
 73
2
 40
0.2
 49
0.1
 74
0
 49
-0.1
 74
0
  0
LTYPE
  5
1F7
100
AcDbSymbolTableRecord
100
AcDbLinetypeTableRecord
  2
PHANTOM
 70
64
  3
_____ _ _ _____ _ _ _____ _ _ _____
 72
65
 73
6
 40
0.8
 49
0.45
 74
0
 49
-0.05
 74
0
 49
0.1
 74
0
 49
-0.05
 74
0
 49
0.1
 74
0
 49
-0.05
 74
0
  0
LTYPE
  5
1F8
100
AcDbSymbolTableRecord
100
AcDbLinetypeTableRecord
  2
DOT
 70
64
  3
. . . . . . . . . . . . . . . . . . . .
 72
65
 73
2
 40
0.2
 49
0.1
 74
0
 49
-0.1
 74
0
  0
LTYPE
  5
1F9
100
AcDbSymbolTableRecord
100
AcDbLinetypeTableRecord
  2
DASHED
 70
64
  3
- - - - - - - - - - - - - - - - - - - -
 72
65
 73
2
 40
0.2
 49
0.1
 74
0
 49
-0.1
 74
0
  0
ENDTAB
  0
TABLE
  2
LAYER
  5
2
100
AcDbSymbolTable
 70
36
  0
LAYER
  5
10
100
AcDbSymbolTableRecord
100
AcDbLayerTableRecord
  2
0
 70
0
 62
7
  6
CONTINUOUS
370
-3
390
F
  0
LAYER
  5
1FA
100
AcDbSymbolTableRecord
100
AcDbLayerTableRecord
  2
DEFAULT_1
 70
0
 62
7
  6
CENTER
370
-3
390
F
  0
LAYER
  5
1FB
100
AcDbSymbolTableRecord
100
AcDbLayerTableRecord
  2
DEFAULT_2
 70
0
 62
7
  6
HIDDEN
370
-3
390
F
  0
LAYER
  5
1FC
100
AcDbSymbolTableRecord
100
AcDbLayerTableRecord
  2
DEFAULT_3
 70
0
 62
7
  6
PHANTOM
370
-3
390
F
  0
LAYER
  5
1FD
100
AcDbSymbolTableRecord
100
AcDbLayerTableRecord
  2
ASSI
 70
0
 62
7
  6
CONTINUOUS
370
-3
390
F
  0
LAYER
  5
1FE
100
AcDbSymbolTableRecord
100
AcDbLayerTableRecord
  2
COLOR9
 70
0
 62
7
  6
CONTINUOUS
370
-3
390
F
  0
LAYER
  5
1FF
100
AcDbSymbolTableRecord
100
AcDbLayerTableRecord
  2
COORDINATE
 70
0
 62
7
  6
CONTINUOUS
370
-3
390
F
  0
LAYER
  5
200
100
AcDbSymbolTableRecord
100
AcDbLayerTableRecord
  2
COORD_ORIGINE
 70
0
 62
7
  6
CONTINUOUS
370
-3
390
F
  0
LAYER
  5
201
100
AcDbSymbolTableRecord
100
AcDbLayerTableRecord
  2
COPY_PUBLISH
 70
0
 62
7
  6
CONTINUOUS
370
-3
390
F
  0
LAYER
  5
202
100
AcDbSymbolTableRecord
100
AcDbLayerTableRecord
  2
COSMETICI
 70
0
 62
7
  6
CONTINUOUS
370
-3
390
F
  0
LAYER
  5
203
100
AcDbSymbolTableRecord
100
AcDbLayerTableRecord
  2
CURVE
 70
0
 62
7
  6
CONTINUOUS
370
-3
390
F
  0
LAYER
  5
204
100
AcDbSymbolTableRecord
100
AcDbLayerTableRecord
  2
DRAFT
 70
0
 62
7
  6
CONTINUOUS
370
-3
390
F
  0
LAYER
  5
205
100
AcDbSymbolTableRecord
100
AcDbLayerTableRecord
  2
IGES
 70
0
 62
7
  6
CONTINUOUS
370
-3
390
F
  0
LAYER
  5
206
100
AcDbSymbolTableRecord
100
AcDbLayerTableRecord
  2
IGS_SCRITTE
 70
0
 62
7
  6
CONTINUOUS
370
-3
390
F
  0
LAYER
  5
207
100
AcDbSymbolTableRecord
100
AcDbLayerTableRecord
  2
IMPORT_IGES
 70
0
 62
7
  6
CONTINUOUS
370
-3
390
F
  0
LAYER
  5
208
100
AcDbSymbolTableRecord
100
AcDbLayerTableRecord
  2
INTF_YELLOW
 70
0
 62
7
  6
CONTINUOUS
370
-3
390
F
  0
LAYER
  5
209
100
AcDbSymbolTableRecord
100
AcDbLayerTableRecord
  2
LIVELLO_1
 70
0
 62
7
  6
CONTINUOUS
370
-3
390
F
  0
LAYER
  5
20A
100
AcDbSymbolTableRecord
100
AcDbLayerTableRecord
  2
NOTE
 70
0
 62
7
  6
CONTINUOUS
370
-3
390
F
  0
LAYER
  5
20B
100
AcDbSymbolTableRecord
100
AcDbLayerTableRecord
  2
PIANI
 70
0
 62
7
  6
CONTINUOUS
370
-3
390
F
  0
LAYER
  5
20C
100
AcDbSymbolTableRecord
100
AcDbLayerTableRecord
  2
PIANI_ORIGINE
 70
0
 62
7
  6
CONTINUOUS
370
-3
390
F
  0
LAYER
  5
20D
100
AcDbSymbolTableRecord
100
AcDbLayerTableRecord
  2
PIANI_RIFERIMENTO
 70
0
 62
7
  6
CONTINUOUS
370
-3
390
F
  0
LAYER
  5
20E
100
AcDbSymbolTableRecord
100
AcDbLayerTableRecord
  2
PUNTI
 70
0
 62
7
  6
CONTINUOUS
370
-3
390
F
  0
LAYER
  5
20F
100
AcDbSymbolTableRecord
100
AcDbLayerTableRecord
  2
RACCORDO
 70
0
 62
7
  6
CONTINUOUS
370
-3
390
F
  0
LAYER
  5
210
100
AcDbSymbolTableRecord
100
AcDbLayerTableRecord
  2
SIMBOLI
 70
0
 62
7
  6
CONTINUOUS
370
-3
390
F
  0
LAYER
  5
211
100
AcDbSymbolTableRecord
100
AcDbLayerTableRecord
  2
SMUSSO
 70
0
 62
7
  6
CONTINUOUS
370
-3
390
F
  0
LAYER
  5
212
100
AcDbSymbolTableRecord
100
AcDbLayerTableRecord
  2
SNAPLINE
 70
0
 62
7
  6
CONTINUOUS
370
-3
390
F
  0
LAYER
  5
213
100
AcDbSymbolTableRecord
100
AcDbLayerTableRecord
  2
SOLIDO
 70
0
 62
7
  6
CONTINUOUS
370
-3
390
F
  0
LAYER
  5
214
100
AcDbSymbolTableRecord
100
AcDbLayerTableRecord
  2
SUPERFICI
 70
0
 62
7
  6
CONTINUOUS
370
-3
390
F
  0
LAYER
  5
215
100
AcDbSymbolTableRecord
100
AcDbLayerTableRecord
  2
TRASH
 70
0
 62
7
  6
CONTINUOUS
370
-3
390
F
  0
LAYER
  5
216
100
AcDbSymbolTableRecord
100
AcDbLayerTableRecord
  2
WHITE
 70
0
 62
7
  6
CONTINUOUS
370
-3
390
F
  0
ENDTAB
  0
TABLE
  2
STYLE
  5
3
100
AcDbSymbolTable
 70
1
  0
STYLE
  5
11
100
AcDbSymbolTableRecord
100
AcDbTextStyleTableRecord
  2
STANDARD
 70
0
 40
0.0
 41
0.8
 50
0.0
 71
0
 42
0.2
  3
txt
  4

  0
STYLE
  5
217
100
AcDbSymbolTableRecord
100
AcDbTextStyleTableRecord
  2
TEXTSTYLE_1
 70
0
 40
0.0
 41
0.8
 50
0.0
 71
0
 42
0.2
  3
gdt
  4

  0
ENDTAB
  0
TABLE
  2
VIEW
  5
6
100
AcDbSymbolTable
 70
0
  0
ENDTAB
  0
TABLE
  2
UCS
  5
7
100
AcDbSymbolTable
 70
0
  0
ENDTAB
  0
TABLE
  2
APPID
  5
9
100
AcDbSymbolTable
 70
1
  0
APPID
  5
218
100
AcDbSymbolTableRecord
100
AcDbRegAppTableRecord
  2
ACAD
 70
0
  0
ENDTAB
  0
TABLE
  2
BLOCK_RECORD
  5
1
100
AcDbSymbolTable
 70
0
  0
BLOCK_RECORD
  5
219
100
AcDbSymbolTableRecord
100
AcDbBlockTableRecord
  2
*Model_Space
  0
BLOCK_RECORD
  5
21A
100
AcDbSymbolTableRecord
100
AcDbBlockTableRecord
  2
*Paper_Space
  0
ENDTAB
  0
TABLE
  2
DIMSTYLE
  5
A
100
AcDbSymbolTable
 70
1
100
AcDbDimStyleTable
 71
0
  0
DIMSTYLE
105
21B
100
AcDbSymbolTableRecord
100
AcDbDimStyleTableRecord
  2
STANDARD
 70
0
  3

  4

 40
1.0
 41
3.0
 42
0.5
 43
0.38
 44
1.5
 45
0.0
 46
0.0
 47
0.01
 48
0.01
140
3.0
141
0.09
142
0.0
143
25.4
144
1.0
145
0.0
146
1.0
147
0.625
 71
1.0
 72
0.0
 73
0
 74
0
 75
0
 76
0
 77
1
 78
8
170
0
171
1
172
0
173
0
174
0
175
0
176
0
177
0
178
0
270
2
271
2
272
2
273
2
274
2
275
0
280
0
281
0
282
0
283
1
284
8
285
0
286
0
287
3
288
0
340
11
278
44
  0
ENDTAB
  0
ENDSEC
  0
SECTION
  2
BLOCKS
  0
BLOCK
  5
20
100
AcDbEntity
  8
0
100
AcDbBlockBegin
  2
*Model_Space
 70
0
 10
0.0
 20
0.0
 30
0.0
  3
*Model_Space
  1

  0
ENDBLK
  5
21
100
AcDbEntity
  8
0
100
AcDbBlockEnd
  0
BLOCK
  5
1C
100
AcDbEntity
  8
0
100
AcDbBlockBegin
  2
*Paper_Space
 70
0
 10
0.0
 20
0.0
 30
0.0
  3
*Paper_Space
  1

  0
ENDBLK
  5
1D
100
AcDbEntity
  8
0
100
AcDbBlockEnd
  0
ENDSEC
  0
SECTION
  2
ENTITIES
  0
LWPOLYLINE
  5
21C
100
AcDbEntity
  8
ASSI
100
AcDbPolyline
 62
7
  6
CONTINUOUS
 90
13
 70
0
 10
-9.0179359531
 20
21.9180447697
 10
-9.0686314671
 20
21.8811760872
 10
-9.1433662726
 20
21.8177575801
 10
-9.2125532782
 20
21.7481210023
 10
-9.2765153194
 20
21.6726139687
 10
-9.3351082545
 20
21.5917928867
 10
-9.387676746
 20
21.5068781262
 10
-9.4340805797
 20
21.4183123543
 10
-9.4740613902
 20
21.3264620488
 10
-9.5069299403
 20
21.2325981225
 10
-9.5323250797
 20
21.1372260777
 10
-9.5498709319
 20
21.0402578082
 10
-9.5527299395
 20
21.017726871
  0
LINE
  5
21D
100
AcDbEntity
  8
ASSI
100
AcDbLine
 62
7
  6
CONTINUOUS
 10
-9.0182113979
 20
21.9178573811
 11
-7.0355873095
 21
23.2697596391
  0
LINE
  5
21E
100
AcDbEntity
  8
ASSI
100
AcDbLine
 62
253
  6
CONTINUOUS
 10
-8.7550304524
 20
21.9017466249
 11
-6.7849933598
 21
23.2450661223
  0
LWPOLYLINE
  5
21F
100
AcDbEntity
  8
ASSI
100
AcDbPolyline
 62
253
  6
CONTINUOUS
 90
30
 70
0
 10
-9.0179359583
 20
21.9180447774
 10
-9.0149593529
 20
21.9200173154
 10
-9.0079357168
 20
21.9243086951
 10
-9.0006829755
 20
21.9282459152
 10
-8.9932072513
 20
21.9318256522
 10
-8.9855148545
 20
21.9350448843
 10
-8.9776122787
 20
21.937900894
 10
-8.9695061947
 20
21.9403912705
 10
-8.961203445
 20
21.9425139116
 10
-8.9527110383
 20
21.9442670255
 10
-8.9440361434
 20
21.9456491323
 10
-8.935186083
 20
21.9466590654
 10
-8.9261683277
 20
21.9472959722
 10
-8.9169904898
 20
21.9475593151
 10
-8.9076603165
 20
21.9474488718
 10
-8.8981856837
 20
21.9469647355
 10
-8.8885745894
 20
21.9461073148
 10
-8.8788351465
 20
21.9448773337
 10
-8.8689755764
 20
21.9432758303
 10
-8.859004202
 20
21.9413041566
 10
-8.8489294405
 20
21.9389639768
 10
-8.8387597961
 20
21.9362572664
 10
-8.8285038536
 20
21.9331863103
 10
-8.8181702702
 20
21.9297537007
 10
-8.8077677689
 20
21.9259623352
 10
-8.7973051309
 20
21.9218154142
 10
-8.7867911879
 20
21.9173164383
 10
-8.7762348151
 20
21.9124692053
 10
-8.7656449235
 20
21.9072778067
 10
-8.7550304524
 20
21.9017466249
  0
LWPOLYLINE
  5
220
100
AcDbEntity
  8
ASSI
100
AcDbPolyline
 62
7
  6
CONTINUOUS
 90
11
 70
0
 10
5.6533973313
 20
-22.7318084798
 10
5.7180978937
 20
-22.7647946893
 10
5.7854192506
 20
-22.7905443527
 10
5.8551736269
 20
-22.8091442429
 10
5.9276394972
 20
-22.8205905019
 10
6.0022479479
 20
-22.8245761266
 10
6.0782108157
 20
-22.8208807561
 10
6.1557487517
 20
-22.8092328908
 10
6.2346319302
 20
-22.7892367035
 10
6.313987815
 20
-22.7606764742
 10
6.3598257129
 20
-22.7401958212
  0
LINE
  5
221
100
AcDbEntity
  8
ASSI
100
AcDbLine
 62
7
  6
CONTINUOUS
 10
-9.2099631013
 20
-14.1498918612
 11
5.6541811242
 21
-22.7322624455
  0
LINE
  5
222
100
AcDbEntity
  8
ASSI
100
AcDbLine
 62
7
  6
CONTINUOUS
 10
5.6533957688
 20
-22.7318076128
 11
5.6541811508
 21
-22.7322624609
  0
LINE
  5
223
100
AcDbEntity
  8
ASSI
100
AcDbLine
 62
253
  6
CONTINUOUS
 10
-9.2099631013
 20
-14.1498918612
 11
-9.2155233168
 21
-14.1466066446
  0
LWPOLYLINE
  5
224
100
AcDbEntity
  8
ASSI
100
AcDbPolyline
 62
253
  6
CONTINUOUS
 90
27
 70
0
 10
-9.2155233168
 20
-14.1466066446
 10
-9.2270404572
 20
-14.1393082679
 10
-9.2382645113
 20
-14.1315136932
 10
-9.2491888974
 20
-14.1232274902
 10
-9.2598072088
 20
-14.1144545084
 10
-9.2701135586
 20
-14.1051996752
 10
-9.2801019177
 20
-14.0954683818
 10
-9.2897664121
 20
-14.0852663147
 10
-9.2991016673
 20
-14.0745992513
 10
-9.3081022185
 20
-14.0634733983
 10
-9.3167627787
 20
-14.0518952344
 10
-9.325078535
 20
-14.0398713396
 10
-9.3330446221
 20
-14.0274086955
 10
-9.3406563596
 20
-14.014514546
 10
-9.3479095192
 20
-14.0011962408
 10
-9.3547998548
 20
-13.9874615125
 10
-9.3613233229
 20
-13.973318321
 10
-9.3674763149
 20
-13.9587747105
 10
-9.3732552444
 20
-13.9438390664
 10
-9.3786566981
 20
-13.9285200722
 10
-9.383677658
 20
-13.9128265553
 10
-9.3883151821
 20
-13.8967676458
 10
-9.3925665597
 20
-13.8803525911
 10
-9.3964294536
 20
-13.8635907045
 10
-9.3999016457
 20
-13.8464916104
 10
-9.4029810458
 20
-13.8290652462
 10
-9.4056658455
 20
-13.8113216759
  0
LINE
  5
225
100
AcDbEntity
  8
ASSI
100
AcDbLine
 62
253
  6
CONTINUOUS
 10
-9.4056658455
 20
-13.8113216759
 11
5.4515227601
 21
-22.3896761725
  0
LWPOLYLINE
  5
226
100
AcDbEntity
  8
ASSI
100
AcDbPolyline
 62
7
  6
CONTINUOUS
 90
6
 70
0
 10
-9.4505479205
 20
-13.9111866141
 10
-9.4056735865
 20
-13.9774545136
 10
-9.3542464955
 20
-14.0371819477
 10
-9.2967882618
 20
-14.0899696769
 10
-9.2344653835
 20
-14.1350183157
 10
-9.2088651967
 20
-14.1505228852
  0
LWPOLYLINE
  5
227
100
AcDbEntity
  8
ASSI
100
AcDbPolyline
 62
7
  6
CONTINUOUS
 90
10
 70
0
 10
-9.5526821251
 20
21.0181424482
 10
-9.673836881
 20
19.9342154955
 10
-9.7894000875
 20
18.7917807217
 10
-9.8917977064
 20
17.6554794998
 10
-9.9810053024
 20
16.5255565559
 10
-10.057001349
 20
15.4022534592
 10
-10.1197671533
 20
14.2858081563
 10
-10.1692865637
 20
13.1764591681
 10
-10.2055460817
 20
12.0744455559
 10
-10.2275130524
 20
11.0465361862
  0
LWPOLYLINE
  5
228
100
AcDbEntity
  8
ASSI
100
AcDbPolyline
 62
253
  6
CONTINUOUS
 90
58
 70
0
 10
-9.4056658455
 20
20.8190959736
 10
-9.4029810458
 20
20.8400502168
 10
-9.3999016457
 20
20.8611589573
 10
-9.3964294536
 20
20.8824100429
 10
-9.3925665597
 20
20.9037912212
 10
-9.3883151821
 20
20.9252902075
 10
-9.383677658
 20
20.9468946945
 10
-9.3786566981
 20
20.9685923351
 10
-9.3732552444
 20
20.9903705713
 10
-9.3674763149
 20
21.0122167028
 10
-9.3613233229
 20
21.0341181287
 10
-9.3547998548
 20
21.0560622977
 10
-9.3479095192
 20
21.0780365394
 10
-9.3406563596
 20
21.1000282511
 10
-9.3330446221
 20
21.1220247701
 10
-9.325078535
 20
21.1440133237
 10
-9.3167627787
 20
21.1659812872
 10
-9.3081022185
 20
21.1879160366
 10
-9.2991016673
 20
21.2098048203
 10
-9.2897664121
 20
21.2316350783
 10
-9.2801019177
 20
21.2533942695
 10
-9.2701135586
 20
21.2750697243
 10
-9.2598072088
 20
21.2966489956
 10
-9.2491888974
 20
21.3181197073
 10
-9.2382645113
 20
21.3394693821
 10
-9.2270404572
 20
21.3606857936
 10
-9.2155233168
 20
21.3817567501
 10
-9.2037195021
 20
21.4026699438
 10
-9.1916359518
 20
21.4234133776
 10
-9.1792797396
 20
21.443975165
 10
-9.1666577268
 20
21.4643433129
 10
-9.1537773178
 20
21.4845061639
 10
-9.1406460678
 20
21.5044521478
 10
-9.127271292
 20
21.5241695816
 10
-9.113660855
 20
21.5436471618
 10
-9.0998227254
 20
21.5628737443
 10
-9.0857645832
 20
21.5818380945
 10
-9.0714946739
 20
21.600529371
 10
-9.0570213723
 20
21.6189368595
 10
-9.0423527383
 20
21.6370497543
 10
-9.027497385
 20
21.6548576963
 10
-9.0124640239
 20
21.6723504967
 10
-8.997261028
 20
21.6895178722
 10
-8.9818973238
 20
21.7063500132
 10
-8.9663819233
 20
21.7228372961
 10
-8.9507234701
 20
21.7389700096
 10
-8.9349311719
 20
21.7547389275
 10
-8.9190142801
 20
21.7701350601
 10
-8.9029816217
 20
21.7851493657
 10
-8.8868425783
 20
21.7997733094
 10
-8.8706066494
 20
21.8139985127
 10
-8.8542829325
 20
21.8278165102
 10
-8.8378810601
 20
21.8412193866
 10
-8.8214106098
 20
21.8541995561
 10
-8.8048806662
 20
21.8667494071
 10
-8.7883007365
 20
21.8788617182
 10
-8.7716807468
 20
21.8905296699
 10
-8.7550304524
 20
21.9017466249
  0
LINE
  5
229
100
AcDbEntity
  8
ASSI
100
AcDbLine
 62
7
  6
CONTINUOUS
 10
-4.7931951058
 20
22.0950267735
 11
-4.9734463552
 21
21.6808066147
  0
LWPOLYLINE
  5
22A
100
AcDbEntity
  8
0
100
AcDbPolyline
 62
253
  6
CONTINUOUS
 90
29
 70
0
 10
-2.7970943065
 20
-12.0629869477
 10
-2.7981562093
 20
-12.0630348231
 10
-2.7992277826
 20
-12.0630530269
 10
-2.8003091235
 20
-12.0630415949
 10
-2.8014003293
 20
-12.0630005632
 10
-2.8025014972
 20
-12.0629299676
 10
-2.8036127243
 20
-12.0628298441
 10
-2.8047341078
 20
-12.0627002286
 10
-2.8058657448
 20
-12.0625411571
 10
-2.8070077327
 20
-12.0623526655
 10
-2.8081601685
 20
-12.0621347897
 10
-2.8093231494
 20
-12.0618875657
 10
-2.8104967726
 20
-12.0616110294
 10
-2.8116811353
 20
-12.0613052167
 10
-2.8127163371
 20
-12.0610164332
 10
-2.8137596927
 20
-12.0607051568
 10
-2.8148112169
 20
-12.0603708573
 10
-2.8158709238
 20
-12.0600130047
 10
-2.816938828
 20
-12.0596310688
 10
-2.8180149439
 20
-12.0592245196
 10
-2.819099286
 20
-12.0587928268
 10
-2.8201918686
 20
-12.0583354604
 10
-2.8212927063
 20
-12.0578518903
 10
-2.8224018133
 20
-12.0573415863
 10
-2.8235192042
 20
-12.0568040184
 10
-2.8246448935
 20
-12.0562386565
 10
-2.8257788954
 20
-12.0556449703
 10
-2.8269212245
 20
-12.0550224298
 10
-2.8280718952
 20
-12.054370505
  0
LWPOLYLINE
  5
22B
100
AcDbEntity
  8
0
100
AcDbPolyline
 62
253
  6
CONTINUOUS
 90
29
 70
0
 10
-4.0359412578
 20
-11.3569618731
 10
-4.0372776478
 20
-11.3561764991
 10
-4.0386110177
 20
-11.3553653826
 10
-4.0399415111
 20
-11.354528489
 10
-4.0412692715
 20
-11.3536657838
 10
-4.0425944424
 20
-11.3527772323
 10
-4.0439171673
 20
-11.3518627999
 10
-4.0452375896
 20
-11.350922452
 10
-4.0465558529
 20
-11.3499561541
 10
-4.0478721008
 20
-11.3489638716
 10
-4.0491864766
 20
-11.3479455698
 10
-4.0504991239
 20
-11.3469012141
 10
-4.0518101863
 20
-11.3458307701
 10
-4.0531198071
 20
-11.344734203
 10
-4.0542536984
 20
-11.3437626344
 10
-4.0553863584
 20
-11.3427710771
 10
-4.0565175306
 20
-11.3417591897
 10
-4.0576469585
 20
-11.3407266309
 10
-4.0587743857
 20
-11.3396730591
 10
-4.0598995559
 20
-11.3385981331
 10
-4.0610222125
 20
-11.3375015115
 10
-4.0621420991
 20
-11.3363828528
 10
-4.0632589593
 20
-11.3352418156
 10
-4.0643725367
 20
-11.3340780585
 10
-4.0654825748
 20
-11.3328912402
 10
-4.0665888172
 20
-11.3316810192
 10
-4.0676910074
 20
-11.3304470542
 10
-4.068788889
 20
-11.3291890037
 10
-4.0698822057
 20
-11.3279065264
  0
LWPOLYLINE
  5
22C
100
AcDbEntity
  8
0
100
AcDbPolyline
 62
253
  6
CONTINUOUS
 90
29
 70
0
 10
-2.8280718952
 20
-12.054370505
 10
-2.8294082851
 20
-12.053585131
 10
-2.8307416551
 20
-12.0527740145
 10
-2.8320721485
 20
-12.0519371209
 10
-2.8333999089
 20
-12.0510744156
 10
-2.8347250798
 20
-12.0501858641
 10
-2.8360478046
 20
-12.0492714317
 10
-2.837368227
 20
-12.0483310838
 10
-2.8386864903
 20
-12.0473647859
 10
-2.8400027382
 20
-12.0463725034
 10
-2.841317114
 20
-12.0453542016
 10
-2.8426297613
 20
-12.044309846
 10
-2.8439408236
 20
-12.0432394019
 10
-2.8452504445
 20
-12.0421428348
 10
-2.8463843358
 20
-12.0411712662
 10
-2.8475169958
 20
-12.0401797089
 10
-2.8486481679
 20
-12.0391678215
 10
-2.8497775958
 20
-12.0381352627
 10
-2.8509050231
 20
-12.037081691
 10
-2.8520301932
 20
-12.036006765
 10
-2.8531528498
 20
-12.0349101433
 10
-2.8542727365
 20
-12.0337914846
 10
-2.8553895967
 20
-12.0326504474
 10
-2.856503174
 20
-12.0314866903
 10
-2.8576132121
 20
-12.030299872
 10
-2.8587194545
 20
-12.0290896511
 10
-2.8598216448
 20
-12.027855686
 10
-2.8609195264
 20
-12.0265976355
 10
-2.8620128431
 20
-12.0253151582
  0
LWPOLYLINE
  5
22D
100
AcDbEntity
  8
0
100
AcDbPolyline
 62
253
  6
CONTINUOUS
 90
55
 70
0
 10
-1.5261551845
 20
-12.9006942094
 10
-1.5307877642
 20
-12.8979394784
 10
-1.5353878921
 20
-12.8950451551
 10
-1.5399671947
 20
-12.8920068448
 10
-1.5445372983
 20
-12.8888201527
 10
-1.5491098293
 20
-12.8854806842
 10
-1.5536940661
 20
-12.8819847376
 10
-1.5582898952
 20
-12.8783313834
 10
-1.5628948552
 20
-12.8745203851
 10
-1.5675064848
 20
-12.8705515062
 10
-1.5721223223
 20
-12.8664245102
 10
-1.576739091
 20
-12.8621398787
 10
-1.5813502517
 20
-12.8577009657
 10
-1.5859484499
 20
-12.8531118433
 10
-1.5905263311
 20
-12.8483765835
 10
-1.5950765407
 20
-12.8434992584
 10
-1.5988406412
 20
-12.8393310522
 10
-1.6025683814
 20
-12.8350802671
 10
-1.6062477245
 20
-12.8307601533
 10
-1.6098698281
 20
-12.8263799899
 10
-1.6134386262
 20
-12.8219331746
 10
-1.6169612472
 20
-12.8174091342
 10
-1.6204424827
 20
-12.8128001221
 10
-1.6238777776
 20
-12.8081096977
 10
-1.6272602404
 20
-12.803344247
 10
-1.6305829792
 20
-12.7985101557
 10
-1.6338391026
 20
-12.7936138098
 10
-1.6370217187
 20
-12.7886615951
 10
-1.6401246392
 20
-12.7836601755
 10
-1.643144488
 20
-12.7786173264
 10
-1.6460785922
 20
-12.7735411012
 10
-1.6489242792
 20
-12.7684395535
 10
-1.6516788761
 20
-12.7633207365
 10
-1.6543397099
 20
-12.7581927037
 10
-1.6569055692
 20
-12.7530603232
 10
-1.6593810866
 20
-12.7479157211
 10
-1.6617723563
 20
-12.7427478385
 10
-1.6640831312
 20
-12.7375505943
 10
-1.6663078006
 20
-12.7323378211
 10
-1.6684384129
 20
-12.7271283293
 10
-1.6708619861
 20
-12.7209039109
 10
-1.6731380649
 20
-12.7147207392
 10
-1.6752660474
 20
-12.7085882485
 10
-1.677245332
 20
-12.702515873
 10
-1.6790753166
 20
-12.6965130469
 10
-1.680755784
 20
-12.6905878302
 10
-1.6822880538
 20
-12.6847427858
 10
-1.68367383
 20
-12.6789791022
 10
-1.6849148166
 20
-12.6732979681
 10
-1.6860127176
 20
-12.6677005723
 10
-1.6869686837
 20
-12.6621859077
 10
-1.6877816523
 20
-12.6567441857
 10
-1.6884500074
 20
-12.6513634221
 10
-1.688972133
 20
-12.6460316325
 10
-1.6893464133
 20
-12.6407368329
  0
LINE
  5
22E
100
AcDbEntity
  8
ASSI
100
AcDbLine
 62
253
  6
CONTINUOUS
 10
-9.9320040254
 20
-8.484779547
 11
-9.9720311076
 21
-7.8000859753
  0
LWPOLYLINE
  5
22F
100
AcDbEntity
  8
ASSI
100
AcDbPolyline
 62
253
  6
CONTINUOUS
 90
28
 70
0
 10
-10.2274558919
 20
-4.4691534156
 10
-10.227004242
 20
-4.4775160169
 10
-10.2261485927
 20
-4.4858634373
 10
-10.2248896359
 20
-4.4941889244
 10
-10.22322839
 20
-4.5024857436
 10
-10.221166199
 20
-4.5107471832
 10
-10.2187047309
 20
-4.5189665606
 10
-10.2158459768
 20
-4.5271372268
 10
-10.2125922494
 20
-4.5352525724
 10
-10.2089461806
 20
-4.5433060327
 10
-10.2049107197
 20
-4.5512910932
 10
-10.2004891312
 20
-4.5592012944
 10
-10.1956849918
 20
-4.5670302377
 10
-10.1905021877
 20
-4.5747715901
 10
-10.1849449113
 20
-4.5824190894
 10
-10.1790176581
 20
-4.5899665493
 10
-10.1727252227
 20
-4.5974078646
 10
-10.1660726952
 20
-4.6047370159
 10
-10.1590654571
 20
-4.6119480743
 10
-10.1517091766
 20
-4.6190352068
 10
-10.1440098043
 20
-4.6259926803
 10
-10.1359735686
 20
-4.6328148669
 10
-10.12760697
 20
-4.6394962478
 10
-10.1189167764
 20
-4.6460314185
 10
-10.1099100177
 20
-4.6524150924
 10
-10.1005939796
 20
-4.6586421056
 10
-10.0909761979
 20
-4.664707421
 10
-10.0810644528
 20
-4.6706061322
  0
LINE
  5
230
100
AcDbEntity
  8
ASSI
100
AcDbLine
 62
253
  6
CONTINUOUS
 10
-9.9720311076
 20
-7.8000859753
 11
-10.0063170114
 21
-7.1114091268
  0
LINE
  5
231
100
AcDbEntity
  8
ASSI
100
AcDbLine
 62
253
  6
CONTINUOUS
 10
-10.0063170114
 20
-7.1114091268
 11
-10.0348585375
 21
-6.4188134882
  0
LINE
  5
232
100
AcDbEntity
  8
ASSI
100
AcDbLine
 62
253
  6
CONTINUOUS
 10
-10.0348585375
 20
-6.4188134882
 11
-10.0576529952
 21
-5.7223639201
  0
LINE
  5
233
100
AcDbEntity
  8
ASSI
100
AcDbLine
 62
253
  6
CONTINUOUS
 10
-10.0576529952
 20
-5.7223639201
 11
-10.074698288
 21
-5.0221255884
  0
LWPOLYLINE
  5
234
100
AcDbEntity
  8
ASSI
100
AcDbPolyline
 62
7
  6
CONTINUOUS
 90
10
 70
0
 10
-10.2275105724
 20
-4.4667684271
 10
-10.2053801816
 20
-5.4734135934
 10
-10.1690223458
 20
-6.5313226253
 10
-10.119381556
 20
-7.5803822445
 10
-10.0564655232
 20
-8.6203660165
 10
-9.9802845307
 20
-9.6510524906
 10
-9.8908511877
 20
-10.6722256376
 10
-9.7881809165
 20
-11.6836680891
 10
-9.6722921697
 20
-12.6851611505
 10
-9.5514577398
 20
-13.6163142162
  0
LINE
  5
235
100
AcDbEntity
  8
ASSI
100
AcDbLine
 62
253
  6
CONTINUOUS
 10
-10.074698288
 20
-5.0221255884
 11
-10.0934810175
 21
-3.8526223348
  0
LWPOLYLINE
  5
236
100
AcDbEntity
  8
ASSI
100
AcDbPolyline
 62
253
  6
CONTINUOUS
 90
4
 70
0
 10
-10.2889990586
 20
3.5762324999
 10
-10.288922909
 20
3.5711072662
 10
-10.2884724909
 20
3.5629384162
 10
-10.2876180355
 20
3.5547791507
  0
LWPOLYLINE
  5
237
100
AcDbEntity
  8
ASSI
100
AcDbPolyline
 62
253
  6
CONTINUOUS
 90
24
 70
0
 10
-10.1425521352
 20
3.3725588119
 10
-10.1424504155
 20
3.3655298008
 10
-10.1421356125
 20
3.3586321737
 10
-10.141608106
 20
3.3518742498
 10
-10.1408685322
 20
3.3452641796
 10
-10.139917783
 20
3.3388099353
 10
-10.1387570051
 20
3.3325193013
 10
-10.1373875985
 20
3.3263998646
 10
-10.1358112148
 20
3.3204590056
 10
-10.1340297552
 20
3.3147038894
 10
-10.1320453684
 20
3.3091414572
 10
-10.1298604476
 20
3.3037784177
 10
-10.1274776281
 20
3.298621239
 10
-10.1248997836
 20
3.2936761413
 10
-10.1221300232
 20
3.2889490885
 10
-10.1191716875
 20
3.2844457819
 10
-10.1160283446
 20
3.2801716528
 10
-10.1127037853
 20
3.2761318561
 10
-10.1092020195
 20
3.2723312642
 10
-10.1055272706
 20
3.2687744608
 10
-10.1016839705
 20
3.2654657357
 10
-10.0976767546
 20
3.2624090795
 10
-10.0935104558
 20
3.2596081787
 10
-10.0910724957
 20
3.2581309616
  0
LINE
  5
238
100
AcDbEntity
  8
ASSI
100
AcDbLine
 62
7
  6
CONTINUOUS
 10
-10.2504784281
 20
-2.8669818567
 11
-10.2275105682
 21
-4.4667686939
  0
LINE
  5
239
100
AcDbEntity
  8
ASSI
100
AcDbLine
 62
253
  6
CONTINUOUS
 10
-10.0934810175
 20
-3.8526223348
 11
-10.1141257811
 21
-2.2139922157
  0
LINE
  5
23A
100
AcDbEntity
  8
ASSI
100
AcDbLine
 62
7
  6
CONTINUOUS
 10
-10.2687179274
 20
-1.1983604991
 11
-10.2504784281
 21
-2.8669818567
  0
LINE
  5
23B
100
AcDbEntity
  8
ASSI
100
AcDbLine
 62
253
  6
CONTINUOUS
 10
-10.1141257811
 20
-2.2139922157
 11
-10.1291859739
 21
-0.5718396881
  0
LWPOLYLINE
  5
23C
100
AcDbEntity
  8
ASSI
100
AcDbPolyline
 62
253
  6
CONTINUOUS
 90
29
 70
0
 10
-10.2275130524
 20
11.0465361862
 10
-10.2274558918
 20
11.0390516999
 10
-10.227004242
 20
11.0310022791
 10
-10.2261485926
 20
11.0229590634
 10
-10.2248896358
 20
11.0149285592
 10
-10.2232283899
 20
11.0069172625
 10
-10.2211661989
 20
10.9989316537
 10
-10.2187047308
 20
10.9909781928
 10
-10.2158459767
 20
10.9830633133
 10
-10.2125922493
 20
10.9751934178
 10
-10.2089461805
 20
10.9673748724
 10
-10.2049107196
 20
10.9596140018
 10
-10.2004891312
 20
10.9519170839
 10
-10.1956849918
 20
10.9442903448
 10
-10.1905021876
 20
10.9367399541
 10
-10.1849449112
 20
10.9292720194
 10
-10.179017658
 20
10.9218925817
 10
-10.1727252226
 20
10.9146076103
 10
-10.1660726952
 20
10.9074229983
 10
-10.159065457
 20
10.9003445575
 10
-10.1517091765
 20
10.8933780137
 10
-10.1440098042
 20
10.8865290024
 10
-10.1359735685
 20
10.8798030638
 10
-10.1276069699
 20
10.8732056388
 10
-10.1189167764
 20
10.8667420641
 10
-10.1099100176
 20
10.8604175682
 10
-10.1005939795
 20
10.8542372673
 10
-10.0909761978
 20
10.8482061606
 10
-10.0810644527
 20
10.8423291269
  0
LINE
  5
23D
100
AcDbEntity
  8
ASSI
100
AcDbLine
 62
7
  6
CONTINUOUS
 10
-10.2811790473
 20
0.4739033736
 11
-10.2687179274
 21
-1.1983604991
  0
LINE
  5
23E
100
AcDbEntity
  8
ASSI
100
AcDbLine
 62
253
  6
CONTINUOUS
 10
-10.1291859739
 20
-0.5718396881
 11
-10.1386611279
 21
1.073839353
  0
LWPOLYLINE
  5
23F
100
AcDbEntity
  8
ASSI
100
AcDbPolyline
 62
7
  6
CONTINUOUS
 90
3
 70
0
 10
-10.2889990579
 20
2.9276258148
 10
-10.2878616563
 20
2.1497832857
 10
-10.2811790473
 20
0.4739033736
  0
LINE
  5
240
100
AcDbEntity
  8
ASSI
100
AcDbLine
 62
253
  6
CONTINUOUS
 10
-10.1386611279
 20
1.073839353
 11
-10.1425508409
 21
2.723025826
  0
LINE
  5
241
100
AcDbEntity
  8
ASSI
100
AcDbLine
 62
7
  6
CONTINUOUS
 10
-10.2852643436
 20
5.1916434732
 11
-10.2889990586
 21
3.5762324945
  0
LINE
  5
242
100
AcDbEntity
  8
ASSI
100
AcDbLine
 62
253
  6
CONTINUOUS
 10
-10.1425508409
 20
3.3725580646
 11
-10.1386611279
 21
5.0265634189
  0
LINE
  5
243
100
AcDbEntity
  8
ASSI
100
AcDbLine
 62
7
  6
CONTINUOUS
 10
-10.2757114209
 20
6.8775233715
 11
-10.2852643436
 21
5.1916434732
  0
LINE
  5
244
100
AcDbEntity
  8
ASSI
100
AcDbLine
 62
253
  6
CONTINUOUS
 10
-10.1386611279
 20
5.0265634189
 11
-10.1291859739
 21
6.6839760553
  0
LINE
  5
245
100
AcDbEntity
  8
ASSI
100
AcDbLine
 62
7
  6
CONTINUOUS
 10
-10.2603803629
 20
8.5669085018
 11
-10.2757114209
 21
6.8775233715
  0
LINE
  5
246
100
AcDbEntity
  8
ASSI
100
AcDbLine
 62
253
  6
CONTINUOUS
 10
-10.1291859739
 20
6.6839760553
 11
-10.1141257811
 21
8.3447767589
  0
LINE
  5
247
100
AcDbEntity
  8
ASSI
100
AcDbLine
 62
253
  6
CONTINUOUS
 10
-10.1141257811
 20
8.3447767589
 11
-10.0934810175
 21
10.0089704173
  0
LWPOLYLINE
  5
248
100
AcDbEntity
  8
ASSI
100
AcDbPolyline
 62
253
  6
CONTINUOUS
 90
46
 70
0
 10
-10.1425521352
 20
2.7230265733
 10
-10.1424504155
 20
2.730173048
 10
-10.1421356125
 20
2.7374342018
 10
-10.141608106
 20
2.7448012772
 10
-10.1408685321
 20
2.7522653889
 10
-10.1399177829
 20
2.7598175348
 10
-10.1387570049
 20
2.7674486062
 10
-10.1373875982
 20
2.7751493996
 10
-10.1358112145
 20
2.7829106272
 10
-10.1340297548
 20
2.7907229284
 10
-10.1320453679
 20
2.7985768809
 10
-10.129860447
 20
2.8064630124
 10
-10.1274776274
 20
2.8143718116
 10
-10.1248997828
 20
2.8222937397
 10
-10.1221300223
 20
2.8302192425
 10
-10.1191716865
 20
2.8381387611
 10
-10.1160283434
 20
2.846042744
 10
-10.1127037841
 20
2.8539216584
 10
-10.1092020182
 20
2.8617660017
 10
-10.1055272691
 20
2.8695663132
 10
-10.1016839689
 20
2.8773131849
 10
-10.0976767529
 20
2.8849972737
 10
-10.093510454
 20
2.8926093119
 10
-10.0891900972
 20
2.9001401188
 10
-10.0847208932
 20
2.9075806117
 10
-10.080108232
 20
2.9149218168
 10
-10.075357677
 20
2.9221548801
 10
-10.0704749576
 20
2.9292710779
 10
-10.0654659628
 20
2.9362618276
 10
-10.0603367339
 20
2.9431186979
 10
-10.055093457
 20
2.9498334187
 10
-10.0497424559
 20
2.9563978917
 10
-10.0442901844
 20
2.9628041996
 10
-10.0387432183
 20
2.969044616
 10
-10.0331082477
 20
2.9751116143
 10
-10.0273920687
 20
2.9809978774
 10
-10.0216015755
 20
2.986696306
 10
-10.0157437518
 20
2.9922000273
 10
-10.0098256628
 20
2.9975024035
 10
-10.0038544459
 20
3.0025970395
 10
-9.9978373029
 20
3.0074777907
 10
-9.9917814911
 20
3.0121387707
 10
-9.985694314
 20
3.0165743579
 10
-9.9795831134
 20
3.0207792027
 10
-9.9734552598
 20
3.0247482337
 10
-9.9673181438
 20
3.0284766641
  0
LWPOLYLINE
  5
249
100
AcDbEntity
  8
ASSI
100
AcDbPolyline
 62
7
  6
CONTINUOUS
 90
3
 70
0
 10
-10.2275130488
 20
11.0465364221
 10
-10.2392714885
 20
10.2597718146
 10
-10.2603803629
 20
8.5669085018
  0
LINE
  5
24A
100
AcDbEntity
  8
ASSI
100
AcDbLine
 62
253
  6
CONTINUOUS
 10
-10.0934810175
 20
10.0089704173
 11
-10.074698288
 21
11.2017290572
  0
LINE
  5
24B
100
AcDbEntity
  8
ASSI
100
AcDbLine
 62
253
  6
CONTINUOUS
 10
-10.074698288
 20
11.2017290572
 11
-10.0576529952
 21
11.9230671042
  0
LINE
  5
24C
100
AcDbEntity
  8
ASSI
100
AcDbLine
 62
253
  6
CONTINUOUS
 10
-10.0576529952
 20
11.9230671042
 11
-10.0348585375
 21
12.6477331133
  0
LINE
  5
24D
100
AcDbEntity
  8
ASSI
100
AcDbLine
 62
253
  6
CONTINUOUS
 10
-10.0348585375
 20
12.6477331133
 11
-10.0063170114
 21
13.3756592469
  0
LINE
  5
24E
100
AcDbEntity
  8
ASSI
100
AcDbLine
 62
253
  6
CONTINUOUS
 10
-10.0063170114
 20
13.3756592469
 11
-9.9720311076
 21
14.1067773714
  0
LINE
  5
24F
100
AcDbEntity
  8
ASSI
100
AcDbLine
 62
253
  6
CONTINUOUS
 10
-9.9720311076
 20
14.1067773714
 11
-9.9320040254
 21
14.841019027
  0
LINE
  5
250
100
AcDbEntity
  8
ASSI
100
AcDbLine
 62
253
  6
CONTINUOUS
 10
-9.9320040254
 20
14.841019027
 11
-9.8862394781
 21
15.578315496
  0
LINE
  5
251
100
AcDbEntity
  8
ASSI
100
AcDbLine
 62
253
  6
CONTINUOUS
 10
-9.8862394781
 20
15.578315496
 11
-9.8347417798
 21
16.3185977995
  0
LINE
  5
252
100
AcDbEntity
  8
ASSI
100
AcDbLine
 62
253
  6
CONTINUOUS
 10
-9.8347417798
 20
16.3185977995
 11
-9.7775157266
 21
17.0617966872
  0
LINE
  5
253
100
AcDbEntity
  8
ASSI
100
AcDbLine
 62
253
  6
CONTINUOUS
 10
-9.7775157266
 20
17.0617966872
 11
-9.7145666307
 21
17.8078425942
  0
LWPOLYLINE
  5
254
100
AcDbEntity
  8
ASSI
100
AcDbPolyline
 62
253
  6
CONTINUOUS
 90
31
 70
0
 10
-9.5527299395
 20
21.017726871
 10
-9.5531878389
 20
21.0127139393
 10
-9.5534625714
 20
21.005850032
 10
-9.5533347456
 20
20.9989490909
 10
-9.5528044648
 20
20.9920167013
 10
-9.5518721581
 20
20.9850584737
 10
-9.5505385803
 20
20.9780800396
 10
-9.5488048104
 20
20.9710870468
 10
-9.5466722518
 20
20.9640851549
 10
-9.5441426304
 20
20.9570800308
 10
-9.5412179934
 20
20.9500773439
 10
-9.5379007079
 20
20.9430827616
 10
-9.5341934585
 20
20.9361019449
 10
-9.5300992458
 20
20.9291405436
 10
-9.5256213832
 20
20.9222041916
 10
-9.5207634948
 20
20.9152985027
 10
-9.5155295123
 20
20.9084290659
 10
-9.5099236715
 20
20.9016014409
 10
-9.5039505096
 20
20.8948211534
 10
-9.4976148606
 20
20.8880936908
 10
-9.4909218523
 20
20.8814244979
 10
-9.4838769014
 20
20.8748189723
 10
-9.4764857097
 20
20.86828246
 10
-9.468754259
 20
20.861820251
 10
-9.4606888065
 20
20.8554375756
 10
-9.45229588
 20
20.8491395994
 10
-9.4435822719
 20
20.8429314194
 10
-9.4345550345
 20
20.8368180601
 10
-9.4252214737
 20
20.8308044693
 10
-9.4155891435
 20
20.8248955138
 10
-9.4056658395
 20
20.819095976
  0
LINE
  5
255
100
AcDbEntity
  8
ASSI
100
AcDbLine
 62
253
  6
CONTINUOUS
 10
-9.7145666307
 20
17.8078425942
 11
-9.6459004272
 21
18.556665714
  0
LINE
  5
256
100
AcDbEntity
  8
ASSI
100
AcDbLine
 62
253
  6
CONTINUOUS
 10
-9.6459004272
 20
18.556665714
 11
-9.5715235149
 21
19.3081959241
  0
LINE
  5
257
100
AcDbEntity
  8
ASSI
100
AcDbLine
 62
253
  6
CONTINUOUS
 10
-9.5715235149
 20
19.3081959241
 11
-9.4914427678
 21
20.0623628463
  0
LINE
  5
258
100
AcDbEntity
  8
ASSI
100
AcDbLine
 62
253
  6
CONTINUOUS
 10
-9.4914427678
 20
20.0623628463
 11
-9.4056658455
 21
20.8190959736
  0
LWPOLYLINE
  5
259
100
AcDbEntity
  8
0
100
AcDbPolyline
 62
253
  6
CONTINUOUS
 90
43
 70
0
 10
-2.9432706531
 20
-10.2700414133
 10
-2.9420042141
 20
-10.269934693
 10
-2.9407305083
 20
-10.2698814968
 10
-2.9394487734
 20
-10.2698799814
 10
-2.9381582474
 20
-10.2699283037
 10
-2.9368581681
 20
-10.2700246207
 10
-2.9355477735
 20
-10.2701670892
 10
-2.9342263014
 20
-10.2703538661
 10
-2.9328929896
 20
-10.2705831083
 10
-2.9313541191
 20
-10.2708950431
 10
-2.9297999882
 20
-10.2712591433
 10
-2.9282317959
 20
-10.2716745167
 10
-2.9266507412
 20
-10.2721402711
 10
-2.9250580232
 20
-10.2726555143
 10
-2.9234548408
 20
-10.2732193542
 10
-2.9218423931
 20
-10.2738308985
 10
-2.9202219228
 20
-10.2744892306
 10
-2.9185948481
 20
-10.2751933349
 10
-2.9169626307
 20
-10.2759421714
 10
-2.9153267324
 20
-10.2767346999
 10
-2.9136886151
 20
-10.2775698804
 10
-2.9120497405
 20
-10.2784466728
 10
-2.9104115706
 20
-10.2793640369
 10
-2.9085032366
 20
-10.2804841731
 10
-2.9066003134
 20
-10.2816563889
 10
-2.9047052633
 20
-10.2828789569
 10
-2.9028205483
 20
-10.2841501498
 10
-2.9009486306
 20
-10.2854682401
 10
-2.8990919723
 20
-10.2868315005
 10
-2.8975144307
 20
-10.2880347278
 10
-2.8959506688
 20
-10.2892692411
 10
-2.8944014461
 20
-10.2905344093
 10
-2.8928675225
 20
-10.2918296013
 10
-2.8913496575
 20
-10.2931541861
 10
-2.8898486109
 20
-10.2945075326
 10
-2.8883651423
 20
-10.2958890097
 10
-2.8868996068
 20
-10.2972986744
 10
-2.8854507408
 20
-10.2987393358
 10
-2.884016876
 20
-10.3002144912
 10
-2.8825963441
 20
-10.3017276376
 10
-2.8811874769
 20
-10.3032822723
 10
-2.8797886061
 20
-10.3048818924
 10
-2.8783980635
 20
-10.3065299952
  0
LWPOLYLINE
  5
25A
100
AcDbEntity
  8
0
100
AcDbPolyline
 62
253
  6
CONTINUOUS
 90
29
 70
0
 10
-4.0049636691
 20
-11.3655783159
 10
-4.0060255719
 20
-11.3656261913
 10
-4.0070971452
 20
-11.365644395
 10
-4.0081784862
 20
-11.3656329631
 10
-4.009269692
 20
-11.3655919313
 10
-4.0103708598
 20
-11.3655213358
 10
-4.0114820869
 20
-11.3654212123
 10
-4.0126034704
 20
-11.3652915968
 10
-4.0137351075
 20
-11.3651325253
 10
-4.0148770953
 20
-11.3649440337
 10
-4.0160295311
 20
-11.3647261579
 10
-4.017192512
 20
-11.3644789339
 10
-4.0183661352
 20
-11.3642023976
 10
-4.019550498
 20
-11.3638965849
 10
-4.0205856997
 20
-11.3636078014
 10
-4.0216290554
 20
-11.363296525
 10
-4.0226805795
 20
-11.3629622255
 10
-4.0237402864
 20
-11.3626043729
 10
-4.0248081906
 20
-11.362222437
 10
-4.0258843066
 20
-11.3618158877
 10
-4.0269686486
 20
-11.361384195
 10
-4.0280612313
 20
-11.3609268286
 10
-4.0291620689
 20
-11.3604432585
 10
-4.0302711759
 20
-11.3599329545
 10
-4.0313885669
 20
-11.3593953866
 10
-4.0325142561
 20
-11.3588300246
 10
-4.033648258
 20
-11.3582363385
 10
-4.0347905871
 20
-11.357613798
 10
-4.0359412578
 20
-11.3569618731
  0
LWPOLYLINE
  5
25B
100
AcDbEntity
  8
0
100
AcDbPolyline
 62
253
  6
CONTINUOUS
 90
55
 70
0
 10
-1.6174641803
 20
-10.9282578809
 10
-1.6128233247
 20
-10.9310195607
 10
-1.6082196455
 20
-10.9339223938
 10
-1.6036413866
 20
-10.9369707718
 10
-1.5990767919
 20
-10.9401690865
 10
-1.5945141052
 20
-10.9435217297
 10
-1.5899439474
 20
-10.9470324043
 10
-1.585366447
 20
-10.9507020593
 10
-1.5807841092
 20
-10.9545309549
 10
-1.5761994396
 20
-10.9585193512
 10
-1.5716149434
 20
-10.9626675086
 10
-1.5670339369
 20
-10.9669749632
 10
-1.5624629791
 20
-10.9714383556
 10
-1.55790944
 20
-10.9760536024
 10
-1.5533806896
 20
-10.98081662
 10
-1.5488840976
 20
-10.985723325
 10
-1.5451680946
 20
-10.9899172236
 10
-1.5414914525
 20
-10.9941946819
 10
-1.5378660821
 20
-10.9985423122
 10
-1.5343007476
 20
-11.0029507278
 10
-1.5307916273
 20
-11.0074265445
 10
-1.5273317533
 20
-11.0119803791
 10
-1.5239164437
 20
-11.0166200166
 10
-1.5205501626
 20
-11.0213419155
 10
-1.5172396603
 20
-11.026139703
 10
-1.5139916872
 20
-11.031007006
 10
-1.5108129938
 20
-11.0359374516
 10
-1.5077103304
 20
-11.0409246667
 10
-1.5046897344
 20
-11.0459619698
 10
-1.5017543916
 20
-11.0510414455
 10
-1.4989067745
 20
-11.0561548697
 10
-1.4961493561
 20
-11.0612940185
 10
-1.4934846088
 20
-11.0664506677
 10
-1.4909150055
 20
-11.0716165935
 10
-1.4884416146
 20
-11.0767867919
 10
-1.4860598876
 20
-11.0819691402
 10
-1.4837638718
 20
-11.0871747356
 10
-1.4815498522
 20
-11.0924096928
 10
-1.4794230655
 20
-11.0976601948
 10
-1.4773909864
 20
-11.1029074418
 10
-1.4750859359
 20
-11.1091772082
 10
-1.4729283827
 20
-11.1154057494
 10
-1.4709186816
 20
-11.1215835988
 10
-1.4690571876
 20
-11.12770129
 10
-1.4673442557
 20
-11.1337493566
 10
-1.4657798927
 20
-11.1397196907
 10
-1.4643627128
 20
-11.145609619
 10
-1.4630909819
 20
-11.151417827
 10
-1.4619629658
 20
-11.1571429999
 10
-1.4609769306
 20
-11.1627838232
 10
-1.4601317398
 20
-11.1683412386
 10
-1.4594286474
 20
-11.1738252131
 10
-1.4588695051
 20
-11.1792479703
 10
-1.4584561644
 20
-11.1846217335
 10
-1.4581904771
 20
-11.1899587263
  0
LWPOLYLINE
  5
25C
100
AcDbEntity
  8
0
100
AcDbPolyline
 62
253
  6
CONTINUOUS
 90
42
 70
0
 10
-4.0698822057
 20
-11.3279065264
 10
-4.071218749
 20
-11.326305808
 10
-4.0725214722
 20
-11.3246948311
 10
-4.0737924023
 20
-11.323072796
 10
-4.0750335659
 20
-11.3214389032
 10
-4.0762469897
 20
-11.3197923528
 10
-4.0774347005
 20
-11.3181323453
 10
-4.0785987251
 20
-11.3164580809
 10
-4.0797410902
 20
-11.31476876
 10
-4.0810221784
 20
-11.3128190386
 10
-4.0822773492
 20
-11.3108497737
 10
-4.0835063281
 20
-11.3088621319
 10
-4.0847088403
 20
-11.3068572798
 10
-4.0858846114
 20
-11.304836384
 10
-4.0870333667
 20
-11.3028006113
 10
-4.0881548316
 20
-11.3007511281
 10
-4.0892486487
 20
-11.2986892631
 10
-4.0903141287
 20
-11.2966169929
 10
-4.0913504996
 20
-11.2945364561
 10
-4.0923569895
 20
-11.2924497913
 10
-4.0933328262
 20
-11.2903591371
 10
-4.0942772377
 20
-11.288266632
 10
-4.0951894521
 20
-11.2861744147
 10
-4.0962120087
 20
-11.2837367483
 10
-4.0971886465
 20
-11.2813060023
 10
-4.0981183213
 20
-11.2788857945
 10
-4.0989999891
 20
-11.2764797426
 10
-4.0998326058
 20
-11.2740914646
 10
-4.1006151272
 20
-11.2717245782
 10
-4.1013466747
 20
-11.2693822867
 10
-4.1020270305
 20
-11.2670661351
 10
-4.1026561419
 20
-11.2647772537
 10
-4.1032339566
 20
-11.2625167731
 10
-4.103760422
 20
-11.2602858236
 10
-4.1042354856
 20
-11.2580855356
 10
-4.1046015995
 20
-11.2562243236
 10
-4.1049290854
 20
-11.2543841102
 10
-4.1052171181
 20
-11.2525625366
 10
-4.1054648728
 20
-11.2507572439
 10
-4.1056715245
 20
-11.2489658734
 10
-4.1058362482
 20
-11.2471860662
 10
-4.105958219
 20
-11.2454154635
  0
LWPOLYLINE
  5
25D
100
AcDbEntity
  8
ASSI
100
AcDbPolyline
 62
7
  6
CONTINUOUS
 90
5
 70
0
 10
-9.5513636027
 20
-13.6169949158
 10
-9.5421590129
 20
-13.671147643
 10
-9.5196167952
 20
-13.7576002612
 10
-9.4887554552
 20
-13.8379120572
 10
-9.4505479205
 20
-13.9111866141
  0
LWPOLYLINE
  5
25E
100
AcDbEntity
  8
ASSI
100
AcDbPolyline
 62
253
  6
CONTINUOUS
 90
26
 70
0
 10
-9.5513636088
 20
-13.6169949166
 10
-9.5505385862
 20
-13.6223975564
 10
-9.5488048165
 20
-13.6316308379
 10
-9.5466722579
 20
-13.6407969244
 10
-9.5441426366
 20
-13.6498883975
 10
-9.5412179997
 20
-13.6588978994
 10
-9.5379007142
 20
-13.6678181382
 10
-9.5341934649
 20
-13.6766418948
 10
-9.5300992522
 20
-13.6853620277
 10
-9.5256213897
 20
-13.6939714795
 10
-9.5207635013
 20
-13.7024632824
 10
-9.5155295188
 20
-13.7108305638
 10
-9.509923678
 20
-13.7190665516
 10
-9.5039505161
 20
-13.7271645805
 10
-9.4976148671
 20
-13.7351180963
 10
-9.4909218588
 20
-13.7429206621
 10
-9.4838769079
 20
-13.7505659631
 10
-9.4764857161
 20
-13.7580478117
 10
-9.4687542654
 20
-13.7653601527
 10
-9.4606888129
 20
-13.772497068
 10
-9.4522958863
 20
-13.7794527815
 10
-9.4435822782
 20
-13.7862216638
 10
-9.4345550407
 20
-13.7927982365
 10
-9.4252214799
 20
-13.7991771772
 10
-9.4155891496
 20
-13.8053533232
 10
-9.4056658455
 20
-13.8113216759
  0
LINE
  5
25F
100
AcDbEntity
  8
ASSI
100
AcDbLine
 62
7
  6
CONTINUOUS
 10
-9.5514577398
 20
-13.6163142162
 11
-9.5513636088
 21
-13.6169949166
  0
LWPOLYLINE
  5
260
100
AcDbEntity
  8
ASSI
100
AcDbPolyline
 62
253
  6
CONTINUOUS
 90
17
 70
0
 10
-9.4056658455
 20
-13.8113216759
 10
-9.4492658181
 20
-13.4866097002
 10
-9.4914427678
 20
-13.1607687806
 10
-9.532195673
 20
-12.8338065669
 10
-9.5715235149
 20
-12.5057307559
 10
-9.6094253733
 20
-12.1765490273
 10
-9.6459004272
 20
-11.8462690432
 10
-9.6809477971
 20
-11.514898551
 10
-9.7145666307
 20
-11.18244533
 10
-9.7467561992
 20
-10.848917128
 10
-9.7775157266
 20
-10.5143217708
 10
-9.8068444651
 20
-10.1786671065
 10
-9.8347417798
 20
-9.8419609518
 10
-9.8612069988
 20
-9.5042112036
 10
-9.8862394781
 20
-9.1654257826
 10
-9.9098386761
 20
-8.825612576
 10
-9.9320040254
 20
-8.484779547
  0
LWPOLYLINE
  5
261
100
AcDbEntity
  8
ASSI
100
AcDbPolyline
 62
7
  6
CONTINUOUS
 90
5
 70
0
 10
-10.2889989751
 20
3.5762939441
 10
-10.2853152236
 20
3.5266722847
 10
-10.2749072353
 20
3.4801347105
 10
-10.2577611261
 20
3.4347987136
 10
-10.2339802368
 20
3.3914364417
  0
LWPOLYLINE
  5
262
100
AcDbEntity
  8
ASSI
100
AcDbPolyline
 62
7
  6
CONTINUOUS
 90
9
 70
0
 10
-10.1373079489
 20
3.2167746146
 10
-10.1731495975
 20
3.186497408
 10
-10.204498745
 20
3.1533481816
 10
-10.231196809
 20
3.1175950078
 10
-10.2530002532
 20
3.0796800149
 10
-10.2696191673
 20
3.0404175935
 10
-10.2810229847
 20
3.0005730077
 10
-10.2873865422
 20
2.9606630347
 10
-10.2889986762
 20
2.9273730681
  0
LINE
  5
263
100
AcDbEntity
  8
ASSI
100
AcDbLine
 62
7
  6
CONTINUOUS
 10
-10.1051343103
 20
3.2389887613
 11
-10.1373079489
 21
3.2167746146
  0
LWPOLYLINE
  5
264
100
AcDbEntity
  8
ASSI
100
AcDbPolyline
 62
253
  6
CONTINUOUS
 90
55
 70
0
 10
6.1421243041
 20
12.1705996844
 10
6.13170073
 20
12.166879393
 10
6.1210096122
 20
12.1633329916
 10
6.1100596033
 20
12.1599633504
 10
6.0988595655
 20
12.1567731964
 10
6.0874185632
 20
12.1537651116
 10
6.0757458559
 20
12.1509415305
 10
6.0638508907
 20
12.1483047383
 10
6.0517432945
 20
12.1458568691
 10
6.0394328663
 20
12.1435999038
 10
6.0269295693
 20
12.1415356693
 10
6.0142435226
 20
12.139665836
 10
6.0013849935
 20
12.1379919174
 10
5.9883643888
 20
12.1365152681
 10
5.9751922462
 20
12.1352370833
 10
5.9618792265
 20
12.1341583974
 10
5.9484361042
 20
12.1332800835
 10
5.9348737592
 20
12.1326028523
 10
5.9212031678
 20
12.132127252
 10
5.907435394
 20
12.1318536675
 10
5.8935815804
 20
12.1317823202
 10
5.8796529394
 20
12.1319132679
 10
5.8656607437
 20
12.1322464046
 10
5.8516163176
 20
12.1327814606
 10
5.8375310276
 20
12.1335180029
 10
5.8234162734
 20
12.1344554355
 10
5.8092834783
 20
12.1355929996
 10
5.7951440804
 20
12.1369297745
 10
5.7810095232
 20
12.1384646785
 10
5.766891246
 20
12.1401964692
 10
5.7528006753
 20
12.1421237451
 10
5.7387492148
 20
12.1442449463
 10
5.7247482369
 20
12.1465583561
 10
5.7108090727
 20
12.1490621023
 10
5.6969430038
 20
12.1517541584
 10
5.6831612523
 20
12.1546323458
 10
5.6694749721
 20
12.1576943349
 10
5.6558952399
 20
12.1609376477
 10
5.6424330461
 20
12.1643596593
 10
5.6290992861
 20
12.1679576002
 10
5.6159047512
 20
12.1717285583
 10
5.6028601202
 20
12.1756694819
 10
5.5899759503
 20
12.1797771814
 10
5.5772626691
 20
12.1840483323
 10
5.5647305658
 20
12.1884794779
 10
5.552389783
 20
12.1930670318
 10
5.5402503083
 20
12.1978072814
 10
5.5283219666
 20
12.2026963902
 10
5.5166144118
 20
12.2077304013
 10
5.5051371192
 20
12.2129052405
 10
5.4938993776
 20
12.2182167197
 10
5.4829102821
 20
12.2236605402
 10
5.4721787263
 20
12.2292322962
 10
5.4617133957
 20
12.2349274782
 10
5.4515227602
 20
12.240741477
  0
LWPOLYLINE
  5
265
100
AcDbEntity
  8
0
100
AcDbPolyline
 62
253
  6
CONTINUOUS
 90
43
 70
0
 10
-4.1511400157
 20
-9.5726327815
 10
-4.1498736035
 20
-9.572526098
 10
-4.1485999257
 20
-9.5724729314
 10
-4.14731822
 20
-9.5724714393
 10
-4.1460277238
 20
-9.5725197789
 10
-4.1447276748
 20
-9.5726161078
 10
-4.1434173106
 20
-9.5727585832
 10
-4.1420958686
 20
-9.5729453627
 10
-4.1407625865
 20
-9.5731746035
 10
-4.1392237489
 20
-9.5734865327
 10
-4.1376696497
 20
-9.5738506233
 10
-4.1361014876
 20
-9.5742659836
 10
-4.1345204616
 20
-9.5747317218
 10
-4.1329277704
 20
-9.5752469463
 10
-4.131324613
 20
-9.5758107651
 10
-4.1297121881
 20
-9.5764222868
 10
-4.1280917385
 20
-9.5770805947
 10
-4.126464682
 20
-9.5777846739
 10
-4.1248324806
 20
-9.5785334844
 10
-4.1231965959
 20
-9.5793259867
 10
-4.1215584897
 20
-9.5801611408
 10
-4.1199196238
 20
-9.581037907
 10
-4.1182814601
 20
-9.5819552455
 10
-4.1163731301
 20
-9.5830753528
 10
-4.1144702073
 20
-9.5842475415
 10
-4.1125751537
 20
-9.5854700848
 10
-4.1106904311
 20
-9.5867412559
 10
-4.1088185016
 20
-9.5880593279
 10
-4.106961827
 20
-9.5894225742
 10
-4.1053842677
 20
-9.5906257931
 10
-4.1038204848
 20
-9.5918603018
 10
-4.1022712379
 20
-9.5931254693
 10
-4.1007372869
 20
-9.5944206649
 10
-4.0992193917
 20
-9.5957452577
 10
-4.097718312
 20
-9.5970986168
 10
-4.0962348076
 20
-9.5984801114
 10
-4.0947692338
 20
-9.5998897987
 10
-4.0933203272
 20
-9.6013304879
 10
-4.09188642
 20
-9.6028056762
 10
-4.0904658442
 20
-9.6043188606
 10
-4.0890569319
 20
-9.6058735385
 10
-4.0876580151
 20
-9.6074732071
 10
-4.0862674261
 20
-9.6091213634
  0
LINE
  5
266
100
AcDbEntity
  8
ASSI
100
AcDbLine
 62
253
  6
CONTINUOUS
 10
4.7275277388
 20
-13.2209016684
 11
-10.0810644528
 21
-4.6706061322
  0
LWPOLYLINE
  5
267
100
AcDbEntity
  8
0
100
AcDbPolyline
 62
253
  6
CONTINUOUS
 90
41
 70
0
 10
-2.8620128431
 20
-12.0253151582
 10
-2.8633298381
 20
-12.0237054973
 10
-2.8646144092
 20
-12.0220878384
 10
-2.8658685728
 20
-12.0204611404
 10
-2.867094345
 20
-12.0188243622
 10
-2.8682937423
 20
-12.0171764628
 10
-2.869468781
 20
-12.015516401
 10
-2.8706214774
 20
-12.0138431356
 10
-2.8717538479
 20
-12.0121556256
 10
-2.8730251105
 20
-12.010208731
 10
-2.8742720321
 20
-12.008243114
 10
-2.8754941867
 20
-12.0062600171
 10
-2.8766911479
 20
-12.004260683
 10
-2.8778624894
 20
-12.0022463544
 10
-2.879007785
 20
-12.0002182738
 10
-2.8801266085
 20
-11.9981776839
 10
-2.8813977957
 20
-11.9957830135
 10
-2.8826312131
 20
-11.9933760048
 10
-2.8838257022
 20
-11.9909596547
 10
-2.884980105
 20
-11.9885369599
 10
-2.8860932631
 20
-11.9861109175
 10
-2.8871640184
 20
-11.9836845243
 10
-2.8881912219
 20
-11.9812608004
 10
-2.8891737611
 20
-11.9788428584
 10
-2.890110533
 20
-11.976433834
 10
-2.8910004346
 20
-11.9740368631
 10
-2.8918423625
 20
-11.9716550814
 10
-2.8926352138
 20
-11.9692916246
 10
-2.8933780073
 20
-11.9669493337
 10
-2.8940702494
 20
-11.9646298702
 10
-2.8947115687
 20
-11.9623346005
 10
-2.8953015937
 20
-11.9600648913
 10
-2.8958399529
 20
-11.9578221091
 10
-2.8963262746
 20
-11.9556076206
 10
-2.896701301
 20
-11.9537325553
 10
-2.8970368585
 20
-11.9518772153
 10
-2.8973319826
 20
-11.9500395351
 10
-2.8975857089
 20
-11.9482174487
 10
-2.8977970729
 20
-11.9464088905
 10
-2.8979651102
 20
-11.9446117946
 10
-2.8980888564
 20
-11.9428240953
  0
LWPOLYLINE
  5
268
100
AcDbEntity
  8
ASSI
100
AcDbPolyline
 62
253
  6
CONTINUOUS
 90
26
 70
0
 10
-10.2876180355
 20
3.5547791507
 10
-10.2863602348
 20
3.5466360226
 10
-10.2847001074
 20
3.5385156428
 10
-10.2826389965
 20
3.5304246028
 10
-10.280178568
 20
3.522369398
 10
-10.2773208114
 20
3.5143565608
 10
-10.2740680386
 20
3.5063925981
 10
-10.2704228809
 20
3.4984839137
 10
-10.2663882848
 20
3.4906369173
 10
-10.2619675154
 20
3.4828579805
 10
-10.2571641561
 20
3.475153374
 10
-10.251982098
 20
3.4675293486
 10
-10.246425531
 20
3.4599920828
 10
-10.2404989463
 20
3.4525476395
 10
-10.2342071421
 20
3.4452020541
 10
-10.2275552053
 20
3.4379612793
 10
-10.2205484998
 20
3.4308311332
 10
-10.2131926655
 20
3.4238173671
 10
-10.2054936742
 20
3.4169256917
 10
-10.1974578163
 20
3.4101617198
 10
-10.1890916368
 20
3.4035309537
 10
-10.1804018732
 20
3.3970387325
 10
-10.1713955077
 20
3.3906902601
 10
-10.1620798076
 20
3.3844906591
 10
-10.1524623253
 20
3.3784449636
 10
-10.1425508406
 20
3.3725580653
  0
LWPOLYLINE
  5
269
100
AcDbEntity
  8
0
100
AcDbPolyline
 62
253
  6
CONTINUOUS
 90
31
 70
0
 10
-3.633226646
 20
8.7951309168
 10
-3.6390485402
 20
8.787456699
 10
-3.6450777498
 20
8.7799707785
 10
-3.6513176572
 20
8.772673109
 10
-3.657771645
 20
8.7655636444
 10
-3.6644430957
 20
8.7586423386
 10
-3.6713353917
 20
8.7519091452
 10
-3.6784519155
 20
8.7453640182
 10
-3.6857960498
 20
8.7390069114
 10
-3.6933711769
 20
8.7328377786
 10
-3.7011806794
 20
8.7268565737
 10
-3.7092263419
 20
8.7210640992
 10
-3.7175035577
 20
8.7154645531
 10
-3.7260061222
 20
8.710062982
 10
-3.7347278308
 20
8.7048644328
 10
-3.743662479
 20
8.699873952
 10
-3.752803862
 20
8.6950965864
 10
-3.7621457755
 20
8.6905373826
 10
-3.7716820147
 20
8.6862013875
 10
-3.7814063751
 20
8.6820936476
 10
-3.791312652
 20
8.6782192097
 10
-3.8013963495
 20
8.6745828855
 10
-3.8116598054
 20
8.6711885465
 10
-3.8221070663
 20
8.6680398293
 10
-3.8327421784
 20
8.6651403704
 10
-3.8435691882
 20
8.6624938063
 10
-3.8545921423
 20
8.6601037736
 10
-3.865815087
 20
8.6579739089
 10
-3.8772420688
 20
8.6561078486
 10
-3.888877134
 20
8.6545092294
 10
-3.9007243292
 20
8.6531816877
  0
LWPOLYLINE
  5
26A
100
AcDbEntity
  8
0
100
AcDbPolyline
 62
253
  6
CONTINUOUS
 90
44
 70
0
 10
-0.9437909317
 20
9.5634349171
 10
-0.9427976807
 20
9.5644139047
 10
-0.9417816226
 20
9.565327354
 10
-0.9407429266
 20
9.56617827
 10
-0.9396817616
 20
9.5669696581
 10
-0.9385982969
 20
9.5677045234
 10
-0.9374927014
 20
9.5683858711
 10
-0.9363651443
 20
9.5690167063
 10
-0.9352157945
 20
9.5696000342
 10
-0.9338759736
 20
9.5702117321
 10
-0.9325092998
 20
9.5707659175
 10
-0.9311171631
 20
9.5712632034
 10
-0.9297009535
 20
9.5717042024
 10
-0.9282620611
 20
9.5720895274
 10
-0.9268018758
 20
9.5724197911
 10
-0.9253217877
 20
9.5726956063
 10
-0.9238232063
 20
9.5729175786
 10
-0.9223076183
 20
9.5730862844
 10
-0.9207765301
 20
9.5732022926
 10
-0.919231448
 20
9.5732661725
 10
-0.9176738782
 20
9.5732784931
 10
-0.9161053269
 20
9.5732398236
 10
-0.9145273005
 20
9.5731507331
 10
-0.9129413254
 20
9.5730117825
 10
-0.9113490084
 20
9.572823501
 10
-0.9097519764
 20
9.5725864092
 10
-0.9081518564
 20
9.5723010281
 10
-0.9065502754
 20
9.5719678786
 10
-0.9049488603
 20
9.5715874815
 10
-0.9033492382
 20
9.5711603578
 10
-0.9017529038
 20
9.5706870212
 10
-0.9001608238
 20
9.5701679572
 10
-0.8985738327
 20
9.5696036445
 10
-0.896992765
 20
9.5689945615
 10
-0.8954184553
 20
9.5683411866
 10
-0.8938517379
 20
9.5676439985
 10
-0.8922934475
 20
9.5669034755
 10
-0.890743863
 20
9.5661194834
 10
-0.889201041
 20
9.5652894367
 10
-0.8876624827
 20
9.564410137
 10
-0.8861256891
 20
9.563478386
 10
-0.8845881613
 20
9.5624909854
 10
-0.8830474005
 20
9.5614447369
 10
-0.8815009076
 20
9.5603364422
  0
LWPOLYLINE
  5
26B
100
AcDbEntity
  8
ASSI
100
AcDbPolyline
 62
253
  6
CONTINUOUS
 90
58
 70
0
 10
6.1252826036
 20
13.3100403605
 10
6.1080399475
 20
13.2991654277
 10
6.0908293723
 20
13.2878384727
 10
6.0736606333
 20
13.2760661327
 10
6.0565433254
 20
13.2638554184
 10
6.0394872872
 20
13.25121336
 10
6.0225025965
 20
13.2381469957
 10
6.0055988246
 20
13.2246639146
 10
5.9887856104
 20
13.2107720286
 10
5.9720730641
 20
13.1964792184
 10
5.9554706986
 20
13.1817938545
 10
5.9389878822
 20
13.1667244796
 10
5.9226344138
 20
13.1512795744
 10
5.9064195501
 20
13.1354681253
 10
5.8903524935
 20
13.1192993617
 10
5.8744428434
 20
13.1027824431
 10
5.8586996225
 20
13.0859269868
 10
5.8431317465
 20
13.0687428085
 10
5.8277485121
 20
13.0512396585
 10
5.8125586419
 20
13.0334277189
 10
5.7975707378
 20
13.0153173555
 10
5.7827937496
 20
12.99691886
 10
5.7682360653
 20
12.9782429391
 10
5.7539059171
 20
12.959300442
 10
5.7398118346
 20
12.9401021126
 10
5.7259618005
 20
12.920659087
 10
5.7123636651
 20
12.9009826769
 10
5.699025551
 20
12.8810840991
 10
5.6859550294
 20
12.8609749146
 10
5.6731594886
 20
12.84066679
 10
5.6606465485
 20
12.8201712804
 10
5.6484232998
 20
12.7995002626
 10
5.6364966642
 20
12.7786657435
 10
5.6248737615
 20
12.7576796223
 10
5.613561192
 20
12.7365540797
 10
5.6025653437
 20
12.7153013531
 10
5.5918927549
 20
12.6939335436
 10
5.581549474
 20
12.6724630162
 10
5.5715413558
 20
12.650902229
 10
5.5618743685
 20
12.629263509
 10
5.5525539976
 20
12.6075593852
 10
5.5435855093
 20
12.5858024296
 10
5.534974248
 20
12.564005087
 10
5.5267250999
 20
12.5421799693
 10
5.5188427245
 20
12.5203397132
 10
5.511331818
 20
12.4984968213
 10
5.5041966498
 20
12.4766639429
 10
5.4974412403
 20
12.4548536939
 10
5.4910695959
 20
12.4330785153
 10
5.4850853238
 20
12.411350946
 10
5.4794918165
 20
12.3896835991
 10
5.4742924277
 20
12.368088981
 10
5.4694901262
 20
12.3465796345
 10
5.4650875959
 20
12.3251679219
 10
5.4610874298
 20
12.3038660029
 10
5.4574919313
 20
12.2826861129
 10
5.4543031053
 20
12.2616405535
 10
5.4515227601
 20
12.240741477
  0
LINE
  5
26C
100
AcDbEntity
  8
ASSI
100
AcDbLine
 62
7
  6
CONTINUOUS
 10
-10.1051343178
 20
3.2389887732
 11
-10.0864335854
 21
3.2507630913
  0
LWPOLYLINE
  5
26D
100
AcDbEntity
  8
ASSI
100
AcDbPolyline
 62
253
  6
CONTINUOUS
 90
8
 70
0
 10
-10.1050391823
 20
3.239048757
 10
-10.104412953
 20
3.2394393668
 10
-10.0999385001
 20
3.2420252503
 10
-10.0953080373
 20
3.2443498558
 10
-10.090527204
 20
3.2464103521
 10
-10.0856018226
 20
3.2482042299
 10
-10.0805378917
 20
3.2497293045
 10
-10.0777064954
 20
3.2504128165
  0
LWPOLYLINE
  5
26E
100
AcDbEntity
  8
ASSI
100
AcDbPolyline
 62
253
  6
CONTINUOUS
 90
58
 70
0
 10
6.4847853384
 20
12.7019111842
 10
6.476009777
 20
12.6965547731
 10
6.4672599036
 20
12.6909786227
 10
6.4585357181
 20
12.6851827328
 10
6.4498320607
 20
12.6791634128
 10
6.4411540913
 20
12.6729243533
 10
6.4325172891
 20
12.6664766266
 10
6.4239218724
 20
12.6598199573
 10
6.4153676229
 20
12.6529546208
 10
6.4068693655
 20
12.6458925157
 10
6.3984272151
 20
12.6386333146
 10
6.3900410568
 20
12.6311773449
 10
6.3817253699
 20
12.6235374869
 10
6.3734802684
 20
12.6157134163
 10
6.3653056382
 20
12.6077054573
 10
6.357215616
 20
12.5995274636
 10
6.349210349
 20
12.5911791411
 10
6.34128969
 20
12.5826607837
 10
6.3334673335
 20
12.5739871276
 10
6.3257434502
 20
12.5651579039
 10
6.3181178695
 20
12.5561733813
 10
6.3106037745
 20
12.5470491024
 10
6.3032013628
 20
12.5377848316
 10
6.2959104367
 20
12.5283808044
 10
6.2887435864
 20
12.5188532701
 10
6.2817010215
 20
12.5092020087
 10
6.2747825324
 20
12.4994272401
 10
6.2680000797
 20
12.4895458744
 10
6.2613539032
 20
12.4795577331
 10
6.2548437631
 20
12.4694629945
 10
6.2484809019
 20
12.4592791037
 10
6.2422655712
 20
12.4490059014
 10
6.2361975193
 20
12.4386435468
 10
6.2302872333
 20
12.4282099626
 10
6.2245349905
 20
12.417705034
 10
6.2189405137
 20
12.4071288758
 10
6.2135134578
 20
12.3964997552
 10
6.2082541094
 20
12.3858175755
 10
6.203162182
 20
12.3750824334
 10
6.1982464711
 20
12.3643128871
 10
6.1935072824
 20
12.3535088785
 10
6.1889443103
 20
12.3426704656
 10
6.1845654339
 20
12.3318163806
 10
6.1803709718
 20
12.320946597
 10
6.1763606053
 20
12.3100611413
 10
6.1725412577
 20
12.2991788251
 10
6.1689132613
 20
12.2882996636
 10
6.1654762837
 20
12.2774236416
 10
6.1622362507
 20
12.2665695249
 10
6.1591934972
 20
12.2557373292
 10
6.1563476883
 20
12.2449270389
 10
6.1537037445
 20
12.2341573729
 10
6.1512620019
 20
12.2234282833
 10
6.1490221243
 20
12.2127398181
 10
6.1469880245
 20
12.2021108393
 10
6.1451610066
 20
12.1915476345
 10
6.1435397665
 20
12.1810439162
 10
6.1421243041
 20
12.1705996844
  0
LINE
  5
26F
100
AcDbEntity
  8
ASSI
100
AcDbLine
 62
253
  6
CONTINUOUS
 10
8.2378887393
 20
14.5710422792
 11
6.1252826036
 21
13.3100403605
  0
LINE
  5
270
100
AcDbEntity
  8
ASSI
100
AcDbLine
 62
253
  6
CONTINUOUS
 10
8.6228628977
 20
13.9781168426
 11
6.4847853384
 21
12.7019111842
  0
LINE
  5
271
100
AcDbEntity
  8
ASSI
100
AcDbLine
 62
253
  6
CONTINUOUS
 10
-4.9734463552
 20
21.6808066147
 11
-4.9734463552
 21
21.6179002762
  0
LWPOLYLINE
  5
272
100
AcDbEntity
  8
ASSI
100
AcDbPolyline
 62
253
  6
CONTINUOUS
 90
13
 70
0
 10
5.2140782275
 20
-5.2371290526
 10
5.2270432615
 20
-5.2338071964
 10
5.2398368842
 20
-5.2302743811
 10
5.2524487774
 20
-5.2265333853
 10
5.2648687813
 20
-5.2225872566
 10
5.2770868026
 20
-5.2184392327
 10
5.2890928588
 20
-5.2140926309
 10
5.3008771872
 20
-5.2095510282
 10
5.3124303158
 20
-5.204818119
 10
5.3237429682
 20
-5.1998976341
 10
5.3348060148
 20
-5.1947935444
 10
5.3456104844
 20
-5.1895100613
 10
5.3561476371
 20
-5.1840514959
  0
LWPOLYLINE
  5
273
100
AcDbEntity
  8
ASSI
100
AcDbPolyline
 62
7
  6
CONTINUOUS
 90
5
 70
0
 10
-10.2339802368
 20
3.3914364417
 10
-10.203914117
 20
3.3509317118
 10
-10.1679170129
 20
3.3138596238
 10
-10.1262185905
 20
3.2805673185
 10
-10.0910724896
 20
3.2581309722
  0
LINE
  5
274
100
AcDbEntity
  8
0
100
AcDbLine
 62
253
  6
CONTINUOUS
 10
-4.105958219
 20
-11.2454154635
 11
-4.1325576192
 21
-10.7486914875
  0
LWPOLYLINE
  5
275
100
AcDbEntity
  8
0
100
AcDbPolyline
 62
253
  6
CONTINUOUS
 90
3
 70
0
 10
-2.8980888564
 20
-11.9428240953
 10
-2.9246882566
 20
-11.4461001193
 10
-2.9313064076
 20
-11.3123172234
  0
LINE
  5
276
100
AcDbEntity
  8
0
100
AcDbLine
 62
253
  6
CONTINUOUS
 10
-4.1325576192
 20
-10.7486914875
 11
-4.1560602491
 21
-10.2499775363
  0
LWPOLYLINE
  5
277
100
AcDbEntity
  8
0
100
AcDbPolyline
 62
253
  6
CONTINUOUS
 90
3
 70
0
 10
-2.9480695862
 20
-10.9501460303
 10
-2.9684914132
 20
-10.4494772002
 10
-2.9734340423
 20
-10.3150760946
  0
LINE
  5
278
100
AcDbEntity
  8
0
100
AcDbLine
 62
253
  6
CONTINUOUS
 10
-4.1560602491
 20
-10.2499775363
 11
-4.1813034042
 21
-9.6176674838
  0
LINE
  5
279
100
AcDbEntity
  8
ASSI
100
AcDbLine
 62
7
  6
CONTINUOUS
 10
-4.7931951058
 20
22.0950267735
 11
-4.7719898166
 21
21.4785542761
  0
LWPOLYLINE
  5
27A
100
AcDbEntity
  8
0
100
AcDbPolyline
 62
253
  6
CONTINUOUS
 90
44
 70
0
 10
-4.1813034054
 20
-9.6176674501
 10
-4.1813437275
 20
-9.6159999744
 10
-4.181344133
 20
-9.6143746693
 10
-4.1813058885
 20
-9.6127887801
 10
-4.181230261
 20
-9.6112395519
 10
-4.1811185173
 20
-9.60972423
 10
-4.1809719244
 20
-9.6082400595
 10
-4.1807917491
 20
-9.6067842856
 10
-4.1805792582
 20
-9.6053541535
 10
-4.1802982515
 20
-9.6037483845
 10
-4.1799772912
 20
-9.602173217
 10
-4.1796169772
 20
-9.6006293593
 10
-4.1792179095
 20
-9.5991175196
 10
-4.1787806878
 20
-9.5976384062
 10
-4.1783059119
 20
-9.5961927274
 10
-4.1777941819
 20
-9.5947811914
 10
-4.1771512983
 20
-9.5931785474
 10
-4.1764601291
 20
-9.5916247658
 10
-4.1757218709
 20
-9.590121273
 10
-4.1749377206
 20
-9.5886694952
 10
-4.1741088748
 20
-9.5872708587
 10
-4.1732365303
 20
-9.5859267898
 10
-4.1724550933
 20
-9.5848192524
 10
-4.1716433381
 20
-9.5837538068
 10
-4.1708020252
 20
-9.5827314065
 10
-4.1699319155
 20
-9.5817530051
 10
-4.1690337697
 20
-9.5808195561
 10
-4.1681083484
 20
-9.579932013
 10
-4.1671564124
 20
-9.5790913292
 10
-4.1661786687
 20
-9.5782983832
 10
-4.1651756101
 20
-9.5775537525
 10
-4.1641476757
 20
-9.5768579394
 10
-4.1630953045
 20
-9.5762114463
 10
-4.1620189357
 20
-9.5756147755
 10
-4.1609190083
 20
-9.5750684294
 10
-4.1597959615
 20
-9.5745729103
 10
-4.1587943159
 20
-9.5741815434
 10
-4.1577734417
 20
-9.5738305522
 10
-4.156731475
 20
-9.5735210132
 10
-4.1556665518
 20
-9.5732540029
 10
-4.1545768083
 20
-9.5730305981
 10
-4.1534603803
 20
-9.5728518751
 10
-4.1523154041
 20
-9.5727189108
 10
-4.1511400157
 20
-9.5726327815
  0
LWPOLYLINE
  5
27B
100
AcDbEntity
  8
0
100
AcDbPolyline
 62
253
  6
CONTINUOUS
 90
42
 70
0
 10
-2.9734340428
 20
-10.3150760819
 10
-2.9734742164
 20
-10.3133902956
 10
-2.97347289
 20
-10.311748038
 10
-2.9734314438
 20
-10.3101466617
 10
-2.9733512583
 20
-10.308583519
 10
-2.9732337137
 20
-10.3070559623
 10
-2.9730801905
 20
-10.3055613443
 10
-2.9728920691
 20
-10.3040970171
 10
-2.9726707297
 20
-10.3026603333
 10
-2.972378645
 20
-10.3010496009
 10
-2.9720457099
 20
-10.2994719987
 10
-2.9716726576
 20
-10.2979280092
 10
-2.9712602215
 20
-10.2964181151
 10
-2.9708091348
 20
-10.294942799
 10
-2.9703201309
 20
-10.2935025434
 10
-2.969793943
 20
-10.292097831
 10
-2.9692313301
 20
-10.2907291945
 10
-2.9686331538
 20
-10.2893973677
 10
-2.9680003016
 20
-10.2881031345
 10
-2.9673336608
 20
-10.2868472788
 10
-2.9666341187
 20
-10.2856305845
 10
-2.9659025627
 20
-10.2844538356
 10
-2.9651398802
 20
-10.283317816
 10
-2.9642119539
 20
-10.2820449847
 10
-2.9632444377
 20
-10.2808299127
 10
-2.9622389003
 20
-10.2796738552
 10
-2.9611969107
 20
-10.2785780675
 10
-2.9601200376
 20
-10.2775438047
 10
-2.9590098501
 20
-10.2765723221
 10
-2.9578677975
 20
-10.2756647124
 10
-2.9566948506
 20
-10.2748214188
 10
-2.9554918609
 20
-10.2740427222
 10
-2.9542596799
 20
-10.2733289032
 10
-2.9529991589
 20
-10.2726802426
 10
-2.9517111495
 20
-10.2720970213
 10
-2.950585375
 20
-10.2716495712
 10
-2.9494373679
 20
-10.2712515226
 10
-2.9482644656
 20
-10.2709039929
 10
-2.9470640055
 20
-10.2706080997
 10
-2.9458333251
 20
-10.2703649604
 10
-2.9445697618
 20
-10.2701756925
 10
-2.9432706531
 20
-10.2700414133
  0
LINE
  5
27C
100
AcDbEntity
  8
0
100
AcDbLine
 62
253
  6
CONTINUOUS
 10
-3.5433970447
 20
9.5770085816
 11
-3.566738756
 21
9.0047491114
  0
LINE
  5
27D
100
AcDbEntity
  8
0
100
AcDbLine
 62
253
  6
CONTINUOUS
 10
-3.8589120792
 20
9.5198753219
 11
-3.8356469743
 21
10.0456068321
  0
LWPOLYLINE
  5
27E
100
AcDbEntity
  8
0
100
AcDbPolyline
 62
253
  6
CONTINUOUS
 90
30
 70
0
 10
-3.5689540434
 20
8.9946276393
 10
-3.5693255676
 20
8.9865549712
 10
-3.5698310476
 20
8.9785817664
 10
-3.5704712575
 20
8.9706969268
 10
-3.5712469715
 20
8.9628893544
 10
-3.5721589636
 20
8.9551479513
 10
-3.573208008
 20
8.9474616195
 10
-3.5743948788
 20
8.939819261
 10
-3.5757204381
 20
8.9322125843
 10
-3.5771858995
 20
8.9246445241
 10
-3.5787925646
 20
8.9171208215
 10
-3.580541735
 20
8.9096472176
 10
-3.5824347123
 20
8.9022294535
 10
-3.584472798
 20
8.8948732703
 10
-3.5866572938
 20
8.8875844092
 10
-3.5889893947
 20
8.8803685712
 10
-3.5914698695
 20
8.8732312968
 10
-3.5940993806
 20
8.8661780865
 10
-3.5968785902
 20
8.8592144407
 10
-3.5998081606
 20
8.8523458599
 10
-3.6028887542
 20
8.8455778444
 10
-3.6061210332
 20
8.8389158948
 10
-3.6090745728
 20
8.833176881
 10
-3.6121472697
 20
8.8275201354
 10
-3.6153416397
 20
8.8219425086
 10
-3.6186601988
 20
8.8164408507
 10
-3.6221054631
 20
8.8110120122
 10
-3.6256799484
 20
8.8056528435
 10
-3.6293861707
 20
8.8003601949
 10
-3.633226646
 20
8.7951309168
  0
LWPOLYLINE
  5
27F
100
AcDbEntity
  8
0
100
AcDbPolyline
 62
253
  6
CONTINUOUS
 90
3
 70
0
 10
-3.0024536302
 20
9.9846263529
 10
-3.0156731064
 20
9.7209465945
 10
-3.0350843346
 20
9.3028212494
  0
LWPOLYLINE
  5
280
100
AcDbEntity
  8
0
100
AcDbPolyline
 62
253
  6
CONTINUOUS
 90
3
 70
0
 10
-3.5052725502
 20
10.3672625904
 10
-3.5187548467
 20
10.1034493544
 10
-3.5433970447
 20
9.5770085816
  0
LWPOLYLINE
  5
281
100
AcDbEntity
  8
0
100
AcDbPolyline
 62
253
  6
CONTINUOUS
 90
4
 70
0
 10
-3.8356469743
 20
10.0456068321
 10
-3.8092850059
 20
10.5729264079
 10
-3.7798274588
 20
11.1018083487
 10
-3.759597408
 20
11.4371310475
  0
LWPOLYLINE
  5
282
100
AcDbEntity
  8
0
100
AcDbPolyline
 62
253
  6
CONTINUOUS
 90
41
 70
0
 10
-3.0350843356
 20
9.3028212267
 10
-3.0351510094
 20
9.3016367855
 10
-3.035244457
 20
9.3004830371
 10
-3.0353637691
 20
9.2993582863
 10
-3.0355080362
 20
9.2982608382
 10
-3.0356763491
 20
9.2971889978
 10
-3.0358677983
 20
9.2961410701
 10
-3.0360814746
 20
9.2951153599
 10
-3.0363164684
 20
9.2941101724
 10
-3.0366100465
 20
9.2929848269
 10
-3.0369293846
 20
9.2918844515
 10
-3.0372735867
 20
9.2908094249
 10
-3.0376417571
 20
9.2897601261
 10
-3.038033
 20
9.2887369339
 10
-3.0384464196
 20
9.2877402272
 10
-3.03888112
 20
9.2867703849
 10
-3.0394140655
 20
9.2856732111
 10
-3.0399738951
 20
9.2846128189
 10
-3.0405597469
 20
9.2835889092
 10
-3.0411707588
 20
9.2826011826
 10
-3.0418060686
 20
9.2816493396
 10
-3.0424648143
 20
9.280733081
 10
-3.043146195
 20
9.2798522236
 10
-3.0438496544
 20
9.2790070485
 10
-3.0445746975
 20
9.2781979531
 10
-3.0453208291
 20
9.2774253347
 10
-3.0460875543
 20
9.2766895905
 10
-3.0468743779
 20
9.275991118
 10
-3.0476807423
 20
9.2753303418
 10
-3.0485058392
 20
9.2747077958
 10
-3.049348798
 20
9.2741240413
 10
-3.0502087476
 20
9.2735796398
 10
-3.0510848174
 20
9.2730751523
 10
-3.0519761365
 20
9.2726111404
 10
-3.0527519734
 20
9.2722460704
 10
-3.0535400575
 20
9.2719115865
 10
-3.0543420723
 20
9.2716081253
 10
-3.0551597013
 20
9.2713361234
 10
-3.0559946279
 20
9.2710960176
 10
-3.0568485356
 20
9.2708882444
 10
-3.0577231078
 20
9.2707132404
  0
LWPOLYLINE
  5
283
100
AcDbEntity
  8
0
100
AcDbPolyline
 62
253
  6
CONTINUOUS
 90
55
 70
0
 10
-3.7595974058
 20
11.4371310826
 10
-3.7591798978
 20
11.4426165759
 10
-3.7586187405
 20
11.4479673804
 10
-3.7579152247
 20
11.4531987649
 10
-3.7570706415
 20
11.4583259983
 10
-3.7560862817
 20
11.4633643495
 10
-3.7549629986
 20
11.46832589
 10
-3.7536998947
 20
11.4732099028
 10
-3.7522956347
 20
11.4780124737
 10
-3.7507488833
 20
11.4827296884
 10
-3.7490583053
 20
11.4873576326
 10
-3.7472228533
 20
11.4918915653
 10
-3.7452426308
 20
11.4963234391
 10
-3.7431180296
 20
11.5006443798
 10
-3.740849441
 20
11.5048455131
 10
-3.7384372566
 20
11.5089179648
 10
-3.7363187733
 20
11.51220607
 10
-3.7341075434
 20
11.515388092
 10
-3.7318102676
 20
11.5184534721
 10
-3.7294314476
 20
11.5213941799
 10
-3.7269667886
 20
11.5242122957
 10
-3.7244097966
 20
11.5269124277
 10
-3.7217555166
 20
11.5294972822
 10
-3.7190051483
 20
11.531961957
 10
-3.7161614306
 20
11.5342996478
 10
-3.7132271021
 20
11.5365035503
 10
-3.7102049015
 20
11.5385668602
 10
-3.7070975676
 20
11.5404827733
 10
-3.7039084217
 20
11.5422457479
 10
-3.7006431162
 20
11.5438552931
 10
-3.697307886
 20
11.5453121808
 10
-3.693908966
 20
11.5466171828
 10
-3.6904525911
 20
11.5477710709
 10
-3.6869449964
 20
11.5487746168
 10
-3.6833901467
 20
11.5496289224
 10
-3.6797829266
 20
11.5503364095
 10
-3.6761159507
 20
11.5508998299
 10
-3.6723853486
 20
11.5513213339
 10
-3.66860131
 20
11.5516006669
 10
-3.66477754
 20
11.5517369726
 10
-3.6601533257
 20
11.551711587
 10
-3.6555000677
 20
11.5514838246
 10
-3.6508262005
 20
11.5510585004
 10
-3.6461401585
 20
11.5504404297
 10
-3.6414503762
 20
11.5496344277
 10
-3.6367642032
 20
11.5486450733
 10
-3.6320846488
 20
11.5474760002
 10
-3.6274136374
 20
11.5461306061
 10
-3.6227530935
 20
11.5446122883
 10
-3.6181049415
 20
11.5429244445
 10
-3.6134688117
 20
11.5410682812
 10
-3.6088351579
 20
11.5390362418
 10
-3.6041921401
 20
11.5368185788
 10
-3.5995279179
 20
11.5344055446
 10
-3.5948306512
 20
11.5317873917
  0
LINE
  5
284
100
AcDbEntity
  8
ASSI
100
AcDbLine
 62
7
  6
CONTINUOUS
 10
3.1264008435
 20
17.5223513282
 11
2.9461495941
 21
17.1081311694
  0
LWPOLYLINE
  5
285
100
AcDbEntity
  8
0
100
AcDbPolyline
 62
253
  6
CONTINUOUS
 90
42
 70
0
 10
-0.5742052992
 20
7.3701787067
 10
-0.5884022222
 20
7.3448523256
 10
-0.6033417585
 20
7.3205468955
 10
-0.619021835
 20
7.2972420663
 10
-0.6354403787
 20
7.2749174875
 10
-0.6525953164
 20
7.253552809
 10
-0.6704808498
 20
7.2331348536
 10
-0.6890762796
 20
7.2136791374
 10
-0.7083571812
 20
7.1952083496
 10
-0.72829913
 20
7.1777451793
 10
-0.7488777015
 20
7.1613123158
 10
-0.7700703702
 20
7.145930367
 10
-0.7918622076
 20
7.1316116157
 10
-0.8142401842
 20
7.1183662634
 10
-0.8371912705
 20
7.1062045116
 10
-0.8607024373
 20
7.0951365617
 10
-0.8847601678
 20
7.0851738555
 10
-0.9093489955
 20
7.0763327959
 10
-0.9344529667
 20
7.068631026
 10
-0.9600561277
 20
7.0620861889
 10
-0.9861425248
 20
7.0567159278
 10
-1.012694215
 20
7.0525333608
 10
-1.0396852988
 20
7.0495335065
 10
-1.0670878874
 20
7.0477068587
 10
-1.0948740922
 20
7.0470439108
 10
-1.1230160243
 20
7.0475351567
 10
-1.1514872078
 20
7.0491719012
 10
-1.1802668178
 20
7.0519486939
 10
-1.209335442
 20
7.0558608959
 10
-1.2386736682
 20
7.0609038682
 10
-1.2682620844
 20
7.0670729716
 10
-1.2980781203
 20
7.0743624201
 10
-1.3280865747
 20
7.0827618395
 10
-1.3582490882
 20
7.0922597084
 10
-1.3885273014
 20
7.1028445057
 10
-1.4188828551
 20
7.1145047099
 10
-1.4442154641
 20
7.1250376229
 10
-1.4695823986
 20
7.1363200577
 10
-1.4949909138
 20
7.1483627267
 10
-1.5204482652
 20
7.1611763422
 10
-1.5459617078
 20
7.1747716164
 10
-1.571538497
 20
7.1891592618
  0
LWPOLYLINE
  5
286
100
AcDbEntity
  8
0
100
AcDbPolyline
 62
253
  6
CONTINUOUS
 90
54
 70
0
 10
-0.8457070313
 20
7.6830735631
 10
-0.8434655612
 20
7.6867033515
 10
-0.8411090406
 20
7.6901645981
 10
-0.8386339998
 20
7.6934693076
 10
-0.836036969
 20
7.6966294848
 10
-0.8333150275
 20
7.6996544966
 10
-0.830467452
 20
7.7025431588
 10
-0.8274940684
 20
7.7052916493
 10
-0.8243947025
 20
7.7078961461
 10
-0.8211691802
 20
7.7103528273
 10
-0.8178178594
 20
7.7126574489
 10
-0.8143432256
 20
7.7148040802
 10
-0.8107482963
 20
7.7167863686
 10
-0.8070360892
 20
7.7185979615
 10
-0.8032096216
 20
7.7202325063
 10
-0.7999371702
 20
7.7214547392
 10
-0.7965974734
 20
7.7225455761
 10
-0.793200538
 20
7.7235009828
 10
-0.7897533358
 20
7.724317514
 10
-0.7862506987
 20
7.7249940807
 10
-0.7826844238
 20
7.7255301833
 10
-0.7790484965
 20
7.7259247941
 10
-0.7753456565
 20
7.7261747753
 10
-0.771580832
 20
7.7262764611
 10
-0.7677589511
 20
7.7262261858
 10
-0.763884942
 20
7.7260202837
 10
-0.7599637329
 20
7.7256550891
 10
-0.7560004383
 20
7.7251281921
 10
-0.752000918
 20
7.7244422055
 10
-0.7479712182
 20
7.723600998
 10
-0.7439173851
 20
7.7226084382
 10
-0.7398454649
 20
7.7214683946
 10
-0.7357615037
 20
7.7201847358
 10
-0.7316691208
 20
7.7187602953
 10
-0.7275622281
 20
7.7171937656
 10
-0.7234323103
 20
7.7154828041
 10
-0.7192748444
 20
7.7136266983
 10
-0.7151012753
 20
7.7116312574
 10
-0.7109270399
 20
7.7095039206
 10
-0.7059356743
 20
7.7067867967
 10
-0.70097342
 20
7.7038991594
 10
-0.696048119
 20
7.7008497124
 10
-0.6911676127
 20
7.6976471597
 10
-0.686339743
 20
7.6943002051
 10
-0.6815712001
 20
7.6908167045
 10
-0.6768640695
 20
7.6872011211
 10
-0.6722192852
 20
7.6834570701
 10
-0.6676377812
 20
7.6795881668
 10
-0.6631204914
 20
7.6755980265
 10
-0.6586665534
 20
7.671487263
 10
-0.6542679181
 20
7.6672444853
 10
-0.6499147397
 20
7.6628553011
 10
-0.6455971727
 20
7.6583053182
 10
-0.6413053714
 20
7.6535801442
  0
LWPOLYLINE
  5
287
100
AcDbEntity
  8
0
100
AcDbPolyline
 62
253
  6
CONTINUOUS
 90
3
 70
0
 10
-1.6893464133
 20
-12.6407368329
 10
-1.7159458135
 20
-12.1440128569
 10
-1.7225775823
 20
-12.0099497958
  0
LINE
  5
288
100
AcDbEntity
  8
0
100
AcDbLine
 62
253
  6
CONTINUOUS
 10
-1.4159081169
 20
-12.1903816492
 11
-1.3828452926
 21
-12.8177067064
  0
LINE
  5
289
100
AcDbEntity
  8
0
100
AcDbLine
 62
253
  6
CONTINUOUS
 10
-1.4385983926
 20
-11.6911498267
 11
-1.4159081169
 21
-12.1903816492
  0
LWPOLYLINE
  5
28A
100
AcDbEntity
  8
0
100
AcDbPolyline
 62
253
  6
CONTINUOUS
 90
55
 70
0
 10
-1.3828452907
 20
-12.8177067397
 10
-1.3826243309
 20
-12.8228637561
 10
-1.3825532336
 20
-12.8278873183
 10
-1.3826290295
 20
-12.8327918523
 10
-1.3828487495
 20
-12.8375917842
 10
-1.3832094244
 20
-12.84230154
 10
-1.3837088599
 20
-12.8469325306
 10
-1.3843479614
 20
-12.8514841069
 10
-1.3851284091
 20
-12.8559526045
 10
-1.3860518832
 20
-12.8603343591
 10
-1.3871200642
 20
-12.8646257065
 10
-1.3883344518
 20
-12.8688221984
 10
-1.3896958251
 20
-12.8729162508
 10
-1.3912047825
 20
-12.876899496
 10
-1.3928619229
 20
-12.8807635661
 10
-1.3946678446
 20
-12.8845000932
 10
-1.3962859384
 20
-12.887509588
 10
-1.3980025627
 20
-12.8904149843
 10
-1.3998125118
 20
-12.8932065664
 10
-1.4017123622
 20
-12.8958769284
 10
-1.4037058188
 20
-12.8984279041
 10
-1.4057983689
 20
-12.9008636376
 10
-1.4079942843
 20
-12.9031865688
 10
-1.4102929763
 20
-12.9053923211
 10
-1.412692641
 20
-12.907474814
 10
-1.4151914745
 20
-12.9094279666
 10
-1.4177876727
 20
-12.9112456983
 10
-1.4204794318
 20
-12.9129219285
 10
-1.4232642524
 20
-12.914451762
 10
-1.426136854
 20
-12.9158350452
 10
-1.4290912605
 20
-12.9170728099
 10
-1.4321214959
 20
-12.9181660882
 10
-1.4352215843
 20
-12.9191159119
 10
-1.4383855497
 20
-12.9199233129
 10
-1.4416095082
 20
-12.920589541
 10
-1.4448979445
 20
-12.9211167179
 10
-1.4482574356
 20
-12.9215071832
 10
-1.4516913638
 20
-12.9217628449
 10
-1.4551903345
 20
-12.9218838842
 10
-1.4587417585
 20
-12.921870051
 10
-1.4630572152
 20
-12.9216759395
 10
-1.4674217326
 20
-12.9212920543
 10
-1.4718269668
 20
-12.9207231984
 10
-1.4762645739
 20
-12.919974175
 10
-1.4807262101
 20
-12.9190497872
 10
-1.4852045608
 20
-12.9179545798
 10
-1.4896964287
 20
-12.9166920639
 10
-1.4941996456
 20
-12.9152654923
 10
-1.4987120436
 20
-12.9136781176
 10
-1.5032314544
 20
-12.9119331926
 10
-1.5077580891
 20
-12.9100318505
 10
-1.512301674
 20
-12.9079667459
 10
-1.5168743146
 20
-12.9057284141
 10
-1.5214881163
 20
-12.9033073902
 10
-1.5261551845
 20
-12.9006942094
  0
LWPOLYLINE
  5
28B
100
AcDbEntity
  8
0
100
AcDbPolyline
 62
253
  6
CONTINUOUS
 90
3
 70
0
 10
-1.7393049097
 20
-11.6485643892
 10
-1.759729872
 20
-11.1478975359
 10
-1.7646915989
 20
-11.0129888406
  0
LINE
  5
28C
100
AcDbEntity
  8
0
100
AcDbLine
 62
253
  6
CONTINUOUS
 10
-1.4581904771
 20
-11.1899587263
 11
-1.4385983926
 21
-11.6911498267
  0
LWPOLYLINE
  5
28D
100
AcDbEntity
  8
0
100
AcDbPolyline
 62
253
  6
CONTINUOUS
 90
55
 70
0
 10
-1.7646915997
 20
-11.0129888194
 10
-1.7648054576
 20
-11.0078023721
 10
-1.7647709889
 20
-11.0027478953
 10
-1.7645908117
 20
-10.9978108175
 10
-1.7642675442
 20
-10.9929765667
 10
-1.7638038044
 20
-10.9882305714
 10
-1.7632015009
 20
-10.9835613226
 10
-1.7624597029
 20
-10.9789695633
 10
-1.7615767703
 20
-10.9744590994
 10
-1.7605510627
 20
-10.9700337366
 10
-1.7593809398
 20
-10.9656972808
 10
-1.7580649571
 20
-10.9614543043
 10
-1.7566024528
 20
-10.9573124457
 10
-1.7549929613
 20
-10.95328011
 10
-1.7532360165
 20
-10.9493657023
 10
-1.7513311527
 20
-10.9455776277
 10
-1.7496313715
 20
-10.9425242903
 10
-1.7478338868
 20
-10.9395743238
 10
-1.7459440402
 20
-10.9367375311
 10
-1.7439653303
 20
-10.934021389
 10
-1.7418938847
 20
-10.9314240702
 10
-1.7397239881
 20
-10.9289414216
 10
-1.7374512035
 20
-10.9265710449
 10
-1.7350762079
 20
-10.924317562
 10
-1.7326009566
 20
-10.9221873494
 10
-1.7300274049
 20
-10.9201867838
 10
-1.7273575082
 20
-10.9183222419
 10
-1.7245932219
 20
-10.9166001004
 10
-1.7217371729
 20
-10.9150255182
 10
-1.7187946752
 20
-10.9135987838
 10
-1.7157717144
 20
-10.912318968
 10
-1.7126742761
 20
-10.9111851413
 10
-1.709508346
 20
-10.9101963747
 10
-1.7062799098
 20
-10.9093517388
 10
-1.7029928365
 20
-10.9086500593
 10
-1.6996425302
 20
-10.908089182
 10
-1.6962222782
 20
-10.9076667077
 10
-1.6927286324
 20
-10.9073807006
 10
-1.6891712024
 20
-10.90723108
 10
-1.6855628621
 20
-10.9072182288
 10
-1.6811814737
 20
-10.9073829701
 10
-1.6767537292
 20
-10.9077404015
 10
-1.672288045
 20
-10.9082857142
 10
-1.6677928372
 20
-10.9090140992
 10
-1.663276522
 20
-10.9099207475
 10
-1.6587464742
 20
-10.9110011055
 10
-1.6542059011
 20
-10.9122516406
 10
-1.649656969
 20
-10.9136690754
 10
-1.6451018436
 20
-10.9152501328
 10
-1.6405426909
 20
-10.9169915353
 10
-1.6359792917
 20
-10.9188921567
 10
-1.6314018861
 20
-10.920959474
 10
-1.626798329
 20
-10.9232031151
 10
-1.6221564755
 20
-10.9256327081
 10
-1.6174641803
 20
-10.9282578809
  0
LWPOLYLINE
  5
28E
100
AcDbEntity
  8
0
100
AcDbPolyline
 62
253
  6
CONTINUOUS
 90
57
 70
0
 10
-2.2826638865
 20
8.8834181514
 10
-2.2834781192
 20
8.8570975178
 10
-2.2836080433
 20
8.8308892021
 10
-2.2830892852
 20
8.8048101043
 10
-2.2819574716
 20
8.778877124
 10
-2.2802482291
 20
8.7531071611
 10
-2.2779971842
 20
8.7275171154
 10
-2.2752399635
 20
8.7021238865
 10
-2.2720121935
 20
8.6769443744
 10
-2.2677903149
 20
8.6484523332
 10
-2.2630384484
 20
8.6202937594
 10
-2.2577946684
 20
8.5925009069
 10
-2.2520970492
 20
8.5651060298
 10
-2.2459836652
 20
8.538141382
 10
-2.2394925908
 20
8.5116392176
 10
-2.2326619003
 20
8.4856317905
 10
-2.2255247435
 20
8.4601408915
 10
-2.2180945712
 20
8.435146459
 10
-2.2103799097
 20
8.4106179679
 10
-2.2023892852
 20
8.3865248934
 10
-2.1941312241
 20
8.3628367105
 10
-2.1856142526
 20
8.3395228942
 10
-2.1768468969
 20
8.3165529197
 10
-2.1641684877
 20
8.2849311592
 10
-2.1510412344
 20
8.2539397546
 10
-2.1374903343
 20
8.2235949609
 10
-2.1235409848
 20
8.1939130332
 10
-2.1092183833
 20
8.1649102263
 10
-2.094547108
 20
8.1365970932
 10
-2.079549261
 20
8.1089613775
 10
-2.064246325
 20
8.0819851211
 10
-2.0486597829
 20
8.0556503656
 10
-2.0328111176
 20
8.0299391525
 10
-2.0167169594
 20
8.0048303653
 10
-2.0003745279
 20
7.9802902534
 10
-1.9837761901
 20
7.9562819082
 10
-1.966914313
 20
7.9327684209
 10
-1.9497812635
 20
7.9097128827
 10
-1.9279750863
 20
7.8814934875
 10
-1.9057369624
 20
7.8539334697
 10
-1.8830705782
 20
7.8270343312
 10
-1.8599796203
 20
7.8007975738
 10
-1.8412057507
 20
7.7802892885
 10
-1.8221770749
 20
7.7602258386
 10
-1.8029081546
 20
7.7406271746
 10
-1.7834135514
 20
7.7215132466
 10
-1.7637078269
 20
7.7029040051
 10
-1.7438079705
 20
7.6848207382
 10
-1.7237406823
 20
7.6672900858
 10
-1.7035350903
 20
7.6503400256
 10
-1.6832203223
 20
7.6339985353
 10
-1.6628255064
 20
7.6182935926
 10
-1.642373235
 20
7.6032490686
 10
-1.6218599597
 20
7.5888724075
 10
-1.6012755967
 20
7.5751669472
 10
-1.5806100624
 20
7.5621360251
 10
-1.559853273
 20
7.549782979
  0
LWPOLYLINE
  5
28F
100
AcDbEntity
  8
0
100
AcDbPolyline
 62
253
  6
CONTINUOUS
 90
53
 70
0
 10
-2.5891650091
 20
9.0603880583
 10
-2.5873001889
 20
9.0931908613
 10
-2.5846472601
 20
9.1254196262
 10
-2.5812201404
 20
9.1570894009
 10
-2.5770327473
 20
9.1882152336
 10
-2.5720989984
 20
9.2188121721
 10
-2.5649020636
 20
9.2563274166
 10
-2.5565795458
 20
9.293008591
 10
-2.5471502967
 20
9.3288245098
 10
-2.5366331679
 20
9.3637439875
 10
-2.5250469367
 20
9.3977355957
 10
-2.5124100826
 20
9.4307669353
 10
-2.4987410105
 20
9.4628053646
 10
-2.4840581256
 20
9.4938182416
 10
-2.4683783065
 20
9.5237734599
 10
-2.4517123273
 20
9.5526410544
 10
-2.4340694358
 20
9.5803915951
 10
-2.4154588795
 20
9.6069956525
 10
-2.3958909619
 20
9.6324211896
 10
-2.3753802076
 20
9.6566257425
 10
-2.3539421972
 20
9.6795642401
 10
-2.3315925109
 20
9.7011916114
 10
-2.3130669241
 20
9.7175193138
 10
-2.2939764056
 20
9.7329565976
 10
-2.2743295252
 20
9.7474810105
 10
-2.2541348523
 20
9.7610701001
 10
-2.2334009564
 20
9.7737014141
 10
-2.2121388775
 20
9.7853567885
 10
-2.1903695363
 20
9.7960352123
 10
-2.1681163242
 20
9.8057399632
 10
-2.1454026322
 20
9.8144743187
 10
-2.1222518515
 20
9.8222415562
 10
-2.0927343557
 20
9.8305961402
 10
-2.0626161486
 20
9.8374544471
 10
-2.0319429213
 20
9.8428262004
 10
-2.0007603649
 20
9.8467211237
 10
-1.9691117908
 20
9.8491487875
 10
-1.937030992
 20
9.8501181501
 10
-1.904549382
 20
9.8496380164
 10
-1.8716983742
 20
9.8477171917
 10
-1.8385079976
 20
9.8443623061
 10
-1.8050027434
 20
9.8395712897
 10
-1.7712057186
 20
9.8333398977
 10
-1.73714003
 20
9.8256638852
 10
-1.7028342942
 20
9.8165405977
 10
-1.6683391667
 20
9.8059737412
 10
-1.6337108125
 20
9.7939686122
 10
-1.5990053969
 20
9.7805305068
 10
-1.5712171326
 20
9.768748077
 10
-1.5434071082
 20
9.756032074
 10
-1.5155669373
 20
9.7423626396
 10
-1.4876882334
 20
9.7277199159
 10
-1.45976261
 20
9.7120840446
  0
LWPOLYLINE
  5
290
100
AcDbEntity
  8
ASSI
100
AcDbPolyline
 62
7
  6
CONTINUOUS
 90
13
 70
0
 10
4.7133205866
 20
-5.2897408127
 10
4.7548414751
 20
-5.3112029971
 10
4.8026942341
 20
-5.3305539883
 10
4.8522240659
 20
-5.3455678364
 10
4.9033718122
 20
-5.3564729388
 10
4.9557665764
 20
-5.3632979306
 10
5.00850103
 20
-5.3660125898
 10
5.061309145
 20
-5.3646583454
 10
5.1139242018
 20
-5.3591905566
 10
5.1654281998
 20
-5.3496216484
 10
5.2154429267
 20
-5.3359210252
 10
5.26391838
 20
-5.3178651421
 10
5.3025705086
 20
-5.2994559948
  0
LWPOLYLINE
  5
291
100
AcDbEntity
  8
ASSI
100
AcDbPolyline
 62
253
  6
CONTINUOUS
 90
43
 70
0
 10
4.6615935889
 20
-5.1751693888
 10
4.6717909873
 20
-5.1808931075
 10
4.6822661274
 20
-5.1864486403
 10
4.693010536
 20
-5.1918314947
 10
4.7040155007
 20
-5.1970373137
 10
4.7152721402
 20
-5.2020618956
 10
4.7267714159
 20
-5.2069011943
 10
4.7385040838
 20
-5.2115513214
 10
4.7504606055
 20
-5.216008493
 10
4.7626312166
 20
-5.2202690517
 10
4.7750060277
 20
-5.2243295504
 10
4.7875750689
 20
-5.2281867274
 10
4.8003282034
 20
-5.2318374509
 10
4.813255122
 20
-5.2352787841
 10
4.8263453613
 20
-5.2385079506
 10
4.839588344
 20
-5.2415223128
 10
4.8529733682
 20
-5.244319451
 10
4.866489597
 20
-5.2468971122
 10
4.8801260769
 20
-5.2492531735
 10
4.8938717705
 20
-5.2513857487
 10
4.9077155649
 20
-5.2532931297
 10
4.9216462607
 20
-5.2549737345
 10
4.9356525853
 20
-5.2564262265
 10
4.9497232121
 20
-5.2576494497
 10
4.9638467688
 20
-5.2586423713
 10
4.9780118352
 20
-5.2594042133
 10
4.9922069482
 20
-5.25993438
 10
5.0064206219
 20
-5.2602323929
 10
5.0206413586
 20
-5.2602980384
 10
5.0348576546
 20
-5.260131287
 10
5.0490580066
 20
-5.2597322197
 10
5.0632309232
 20
-5.2591011893
 10
5.0773649438
 20
-5.2582387322
 10
5.0914486445
 20
-5.2571454873
 10
5.1054706361
 20
-5.2558223695
 10
5.1194195719
 20
-5.2542704774
 10
5.1332841668
 20
-5.2524910041
 10
5.1470532118
 20
-5.2504854208
 10
5.1607155616
 20
-5.2482553805
 10
5.1742601435
 20
-5.2458026257
 10
5.187675991
 20
-5.2431291779
 10
5.2009522622
 20
-5.2402372303
 10
5.2140782275
 20
-5.2371290526
  0
LINE
  5
292
100
AcDbEntity
  8
ASSI
100
AcDbLine
 62
253
  6
CONTINUOUS
 10
4.6615935885
 20
-5.824701628
 11
-10.1425508409
 21
2.723025826
  0
LINE
  5
293
100
AcDbEntity
  8
ASSI
100
AcDbLine
 62
253
  6
CONTINUOUS
 10
4.8368288742
 20
-5.5192522846
 11
-9.9673181438
 21
3.0284766641
  0
LINE
  5
294
100
AcDbEntity
  8
ASSI
100
AcDbLine
 62
7
  6
CONTINUOUS
 10
-10.0907815359
 20
3.2579621811
 11
4.7133654822
 21
-5.2897667676
  0
LINE
  5
295
100
AcDbEntity
  8
ASSI
100
AcDbLine
 62
253
  6
CONTINUOUS
 10
-10.1425508409
 20
3.3725580646
 11
4.6615935885
 21
-5.1751693895
  0
LWPOLYLINE
  5
296
100
AcDbEntity
  8
ASSI
100
AcDbPolyline
 62
253
  6
CONTINUOUS
 90
29
 70
0
 10
-10.1425508406
 20
2.7230258258
 10
-10.1524623253
 20
2.7289146275
 10
-10.1620798076
 20
2.7349653612
 10
-10.1713955077
 20
2.7411731339
 10
-10.1804018732
 20
2.747532919
 10
-10.1890916368
 20
2.754039583
 10
-10.1974578163
 20
2.7606878921
 10
-10.2054936742
 20
2.767472511
 10
-10.2131926655
 20
2.7743879273
 10
-10.2205484998
 20
2.7814284777
 10
-10.2275552053
 20
2.7885884533
 10
-10.2342071421
 20
2.7958620923
 10
-10.2404989463
 20
2.8032435069
 10
-10.246425531
 20
2.8107267451
 10
-10.251982098
 20
2.8183057597
 10
-10.2571641561
 20
2.8259743986
 10
-10.2619675154
 20
2.8337264826
 10
-10.2663882848
 20
2.841555748
 10
-10.2704228809
 20
2.8494558168
 10
-10.2740680386
 20
2.8574203148
 10
-10.2773208114
 20
2.8654428189
 10
-10.280178568
 20
2.8735168
 10
-10.2826389965
 20
2.8816357477
 10
-10.2847001074
 20
2.8897931149
 10
-10.2863602348
 20
2.8979822644
 10
-10.2876180355
 20
2.9061965998
 10
-10.2884724909
 20
2.914429495
 10
-10.288922909
 20
2.9226742393
 10
-10.2889987031
 20
2.9273744284
  0
LWPOLYLINE
  5
297
100
AcDbEntity
  8
ASSI
100
AcDbPolyline
 62
253
  6
CONTINUOUS
 90
48
 70
0
 10
-9.9673181438
 20
3.0284766641
 10
-9.972279347
 20
3.0314249737
 10
-9.9770862017
 20
3.0344500414
 10
-9.9817387079
 20
3.0375518674
 10
-9.9862404489
 20
3.0407331239
 10
-9.9905878413
 20
3.0439911385
 10
-9.9947701352
 20
3.0473178942
 10
-9.9987868668
 20
3.0507135224
 10
-10.0026384998
 20
3.0541778917
 10
-10.0063156753
 20
3.0577025899
 10
-10.0098179593
 20
3.061287756
 10
-10.0131457859
 20
3.0649332511
 10
-10.0162910971
 20
3.0686302464
 10
-10.0192534528
 20
3.0723788674
 10
-10.0220332933
 20
3.0761789886
 10
-10.0246238819
 20
3.0800214044
 10
-10.0270247615
 20
3.0839062208
 10
-10.0292363894
 20
3.0878333319
 10
-10.0312534007
 20
3.0917932145
 10
-10.033075322
 20
3.0957859463
 10
-10.0347026268
 20
3.0998114495
 10
-10.036131371
 20
3.1038599681
 10
-10.0373610728
 20
3.1079315567
 10
-10.0383922139
 20
3.1120261606
 10
-10.0392222954
 20
3.116133859
 10
-10.0398508297
 20
3.1202546854
 10
-10.0402783043
 20
3.1243886062
 10
-10.0405036821
 20
3.1285256001
 10
-10.0405264726
 20
3.132665674
 10
-10.0403471663
 20
3.1368088209
 10
-10.0399661979
 20
3.1409449982
 10
-10.0393830787
 20
3.1450741876
 10
-10.0385982975
 20
3.1491964074
 10
-10.0376137555
 20
3.1533016698
 10
-10.0364289681
 20
3.1573899348
 10
-10.03504442
 20
3.1614612424
 10
-10.033463466
 20
3.1655057251
 10
-10.0316856285
 20
3.1695233197
 10
-10.0297113852
 20
3.1735140895
 10
-10.0275455245
 20
3.1774683563
 10
-10.0251875831
 20
3.1813860282
 10
-10.0226380243
 20
3.1852671973
 10
-10.0199030266
 20
3.1891024609
 10
-10.0169821423
 20
3.1928917069
 10
-10.0138758191
 20
3.1966350475
 10
-10.0105915777
 20
3.2003234165
 10
-10.0071289763
 20
3.2039566882
 10
-10.0034884567
 20
3.2075349882
  0
LWPOLYLINE
  5
298
100
AcDbEntity
  8
0
100
AcDbPolyline
 62
253
  6
CONTINUOUS
 90
53
 70
0
 10
-0.5034967316
 20
8.1929231434
 10
-0.503643029
 20
8.1905284716
 10
-0.5038484649
 20
8.18820598
 10
-0.5041124497
 20
8.185946867
 10
-0.5044343935
 20
8.1837423308
 10
-0.5048137064
 20
8.1815835698
 10
-0.5052497988
 20
8.179461782
 10
-0.5057423527
 20
8.1773701395
 10
-0.5062921375
 20
8.1753097085
 10
-0.5069001946
 20
8.1732835289
 10
-0.5075675653
 20
8.1712946404
 10
-0.508295291
 20
8.1693460831
 10
-0.5090844128
 20
8.1674408967
 10
-0.5099357635
 20
8.165582429
 10
-0.5108493406
 20
8.1637752586
 10
-0.511824933
 20
8.1620242721
 10
-0.5128623297
 20
8.1603343559
 10
-0.5139613194
 20
8.1587103967
 10
-0.515121691
 20
8.1571572808
 10
-0.516165069
 20
8.1558861127
 10
-0.5172537276
 20
8.1546735667
 10
-0.518388006
 20
8.1535226264
 10
-0.519568243
 20
8.1524362756
 10
-0.5207947776
 20
8.1514174979
 10
-0.5220679487
 20
8.1504692772
 10
-0.5233880952
 20
8.1495945972
 10
-0.5247553176
 20
8.1487958733
 10
-0.5261687632
 20
8.1480732484
 10
-0.5276273407
 20
8.1474262973
 10
-0.5291299589
 20
8.1468545944
 10
-0.5306755265
 20
8.1463577145
 10
-0.5322629523
 20
8.1459352323
 10
-0.5338911451
 20
8.1455867224
 10
-0.5355589003
 20
8.1453116762
 10
-0.5372645594
 20
8.1451092524
 10
-0.5390063508
 20
8.1449785264
 10
-0.5407825025
 20
8.1449185736
 10
-0.5425912429
 20
8.1449284694
 10
-0.5444308001
 20
8.1450072891
 10
-0.5462994024
 20
8.1451541083
 10
-0.5485137489
 20
8.145409961
 10
-0.5507621909
 20
8.1457547619
 10
-0.5530417016
 20
8.1461861632
 10
-0.5553492547
 20
8.1467018168
 10
-0.5576818234
 20
8.1472993747
 10
-0.5600363814
 20
8.147976489
 10
-0.5620708773
 20
8.1486191074
 10
-0.5641239753
 20
8.1493211365
 10
-0.5662003457
 20
8.1500852624
 10
-0.5683046587
 20
8.1509141713
 10
-0.5704415847
 20
8.1518105494
 10
-0.5726157941
 20
8.1527770828
 10
-0.5748319571
 20
8.1538164577
  0
LWPOLYLINE
  5
299
100
AcDbEntity
  8
0
100
AcDbPolyline
 62
253
  6
CONTINUOUS
 90
54
 70
0
 10
-4.5503677005
 20
9.0933770551
 10
-4.5553973413
 20
9.1080395846
 10
-4.5599825173
 20
9.122637165
 10
-4.5641529538
 20
9.1372543143
 10
-4.5679383764
 20
9.1519755505
 10
-4.5713600389
 20
9.1668673646
 10
-4.5744053081
 20
9.18192414
 10
-4.5770530791
 20
9.1971222335
 10
-4.5792822473
 20
9.2124380015
 10
-4.5807496894
 20
9.2247571322
 10
-4.5819230172
 20
9.2371104112
 10
-4.5827895297
 20
9.2494718069
 10
-4.5833365255
 20
9.2618152874
 10
-4.5835513034
 20
9.2741148213
 10
-4.5834226582
 20
9.2863467708
 10
-4.5829453686
 20
9.2984970746
 10
-4.5821157094
 20
9.3105540652
 10
-4.5809299551
 20
9.3225060753
 10
-4.5793843806
 20
9.3343414375
 10
-4.5774763017
 20
9.3460493575
 10
-4.5752071984
 20
9.3576225332
 10
-4.5725795919
 20
9.3690545359
 10
-4.5695960035
 20
9.3803389364
 10
-4.5662589544
 20
9.3914693059
 10
-4.5625708954
 20
9.40243928
 10
-4.558533996
 20
9.4132427525
 10
-4.5541503552
 20
9.4238736817
 10
-4.549422072
 20
9.434326026
 10
-4.5443512455
 20
9.4445937437
 10
-4.5375347325
 20
9.4571584065
 10
-4.5301935174
 20
9.4694064548
 10
-4.5223348426
 20
9.4813191931
 10
-4.51396595
 20
9.4928779261
 10
-4.5050940819
 20
9.5040639582
 10
-4.4957264804
 20
9.5148585941
 10
-4.4858703876
 20
9.5252431383
 10
-4.4755330458
 20
9.5351988953
 10
-4.4647211366
 20
9.5447096833
 10
-4.4534391005
 20
9.5537693739
 10
-4.4416908175
 20
9.5623743523
 10
-4.4294801675
 20
9.5705210039
 10
-4.4168110306
 20
9.5782057138
 10
-4.4036872868
 20
9.5854248673
 10
-4.3901128161
 20
9.5921748496
 10
-4.3760914985
 20
9.5984520459
 10
-4.3632549747
 20
9.6036309559
 10
-4.3500643596
 20
9.6084249647
 10
-4.3365155602
 20
9.6128255868
 10
-4.3226044837
 20
9.6168243364
 10
-4.3083270372
 20
9.6204127278
 10
-4.2936791279
 20
9.6235822754
 10
-4.2786566629
 20
9.6263244934
 10
-4.2632555494
 20
9.6286308963
 10
-4.2474716944
 20
9.6304929982
  0
LWPOLYLINE
  5
29A
100
AcDbEntity
  8
ASSI
100
AcDbPolyline
 62
253
  6
CONTINUOUS
 90
55
 70
0
 10
5.4220164873
 20
2.2772403389
 10
5.4114810773
 20
2.2719482116
 10
5.4006783477
 20
2.2668311588
 10
5.3896170372
 20
2.2618933198
 10
5.3783060934
 20
2.257138689
 10
5.3667546661
 20
2.2525711126
 10
5.3549720995
 20
2.2481942852
 10
5.3429679247
 20
2.2440117475
 10
5.3307518522
 20
2.2400268827
 10
5.3183337638
 20
2.2362429144
 10
5.3057237048
 20
2.2326629034
 10
5.2929318758
 20
2.2292897458
 10
5.2799686244
 20
2.2261261701
 10
5.2668444367
 20
2.2231747354
 10
5.2535699294
 20
2.2204378292
 10
5.2401558404
 20
2.2179176655
 10
5.2266130207
 20
2.2156162829
 10
5.2129524253
 20
2.2135355429
 10
5.1991851047
 20
2.2116771288
 10
5.1853221955
 20
2.2100425439
 10
5.1713749117
 20
2.2086331104
 10
5.1573545357
 20
2.2074499685
 10
5.1432724087
 20
2.2064940752
 10
5.1291399222
 20
2.2057662037
 10
5.1149685083
 20
2.205266943
 10
5.1007696305
 20
2.2049966967
 10
5.0865547745
 20
2.2049556836
 10
5.0723354392
 20
2.2051439367
 10
5.0581231269
 20
2.2055613039
 10
5.0439293342
 20
2.2062074475
 10
5.0297655427
 20
2.2070818448
 10
5.01564321
 20
2.2081837885
 10
5.0015737598
 20
2.2095123873
 10
4.9875685733
 20
2.2110665663
 10
4.9736389795
 20
2.2128450684
 10
4.9597962465
 20
2.2148464549
 10
4.9460515719
 20
2.2170691068
 10
4.9324160742
 20
2.2195112263
 10
4.9189007832
 20
2.2221708377
 10
4.905516632
 20
2.2250457897
 10
4.8922744472
 20
2.2281337567
 10
4.8791849407
 20
2.2314322407
 10
4.8662587009
 20
2.2349385735
 10
4.8535061842
 20
2.2386499189
 10
4.8409377063
 20
2.2425632745
 10
4.8285634342
 20
2.2466754747
 10
4.8163933776
 20
2.2509831933
 10
4.8044373813
 20
2.2554829454
 10
4.7927051167
 20
2.2601710912
 10
4.7812060742
 20
2.2650438383
 10
4.7699495557
 20
2.2700972451
 10
4.758944667
 20
2.2753272238
 10
4.7482003099
 20
2.2807295436
 10
4.737725176
 20
2.2862998345
 10
4.7275277388
 20
2.2920335907
  0
LINE
  5
29B
100
AcDbEntity
  8
ASSI
100
AcDbLine
 62
7
  6
CONTINUOUS
 10
8.9973281805
 20
-3.4307801806
 11
8.9207595349
 21
-3.3865704043
  0
LWPOLYLINE
  5
29C
100
AcDbEntity
  8
0
100
AcDbPolyline
 62
253
  6
CONTINUOUS
 90
31
 70
0
 10
-3.0228226868
 20
10.0928338967
 10
-3.0213714626
 20
10.0889831295
 10
-3.0199691892
 20
10.0851261954
 10
-3.0186156606
 20
10.0812625089
 10
-3.0173106708
 20
10.0773914846
 10
-3.0160540138
 20
10.073512537
 10
-3.0148454837
 20
10.0696250807
 10
-3.0136848745
 20
10.0657285302
 10
-3.0125722224
 20
10.0618226695
 10
-3.0115085319
 20
10.0579087602
 10
-3.0104950497
 20
10.0539884334
 10
-3.0095330224
 20
10.0500633201
 10
-3.0086236969
 20
10.0461350514
 10
-3.0077683197
 20
10.0422052583
 10
-3.0069681374
 20
10.0382755719
 10
-3.0063142738
 20
10.0348386055
 10
-3.00570469
 20
10.0314048988
 10
-3.0051404527
 20
10.0279763809
 10
-3.0046226287
 20
10.0245549812
 10
-3.0041522845
 20
10.0211426288
 10
-3.003730487
 20
10.0177412529
 10
-3.0033583026
 20
10.0143527827
 10
-3.0030367983
 20
10.0109791476
 10
-3.0027671116
 20
10.0076220241
 10
-3.0025506646
 20
10.004282079
 10
-3.0023889504
 20
10.0009597266
 10
-3.0022834622
 20
9.9976553811
 10
-3.0022356929
 20
9.9943694567
 10
-3.0022471358
 20
9.9911023677
 10
-3.0023192838
 20
9.9878545284
 10
-3.0024536302
 20
9.9846263529
  0
LWPOLYLINE
  5
29D
100
AcDbEntity
  8
0
100
AcDbPolyline
 62
253
  6
CONTINUOUS
 90
39
 70
0
 10
-1.4707953247
 20
8.9945584617
 10
-1.4711973923
 20
8.9965661729
 10
-1.4715578831
 20
8.9985480976
 10
-1.4718783579
 20
9.0005073557
 10
-1.4721603774
 20
9.0024470668
 10
-1.4724055024
 20
9.0043703505
 10
-1.4726152936
 20
9.0062803266
 10
-1.4727913119
 20
9.0081801148
 10
-1.4729556562
 20
9.010386745
 10
-1.4730761902
 20
9.0125822586
 10
-1.4731529481
 20
9.0147651598
 10
-1.473185964
 20
9.0169339526
 10
-1.473175272
 20
9.0190871412
 10
-1.4731209063
 20
9.0212232297
 10
-1.4730229264
 20
9.0233405959
 10
-1.4728814937
 20
9.025437112
 10
-1.4726967952
 20
9.0275105239
 10
-1.4724690175
 20
9.0295585775
 10
-1.4721983477
 20
9.0315790188
 10
-1.4718849724
 20
9.0335695936
 10
-1.4715290811
 20
9.0355280572
 10
-1.4711308724
 20
9.0374522022
 10
-1.4706905477
 20
9.0393398305
 10
-1.4702083082
 20
9.041188744
 10
-1.4696843551
 20
9.0429967446
 10
-1.4691188897
 20
9.0447616343
 10
-1.4685120849
 20
9.0464813401
 10
-1.4678640012
 20
9.0481542897
 10
-1.4671746707
 20
9.0497790359
 10
-1.4664441253
 20
9.0513541317
 10
-1.4656723974
 20
9.0528781298
 10
-1.4648595188
 20
9.054349583
 10
-1.4641296707
 20
9.0555680191
 10
-1.4633674312
 20
9.0567465294
 10
-1.4625706185
 20
9.0578848554
 10
-1.4617370508
 20
9.058982739
 10
-1.4608645461
 20
9.0600399217
 10
-1.4599509226
 20
9.0610561453
 10
-1.4589939985
 20
9.0620311515
  0
LINE
  5
29E
100
AcDbEntity
  8
ASSI
100
AcDbLine
 62
253
  6
CONTINUOUS
 10
2.9461495941
 20
17.1081311694
 11
2.9461495941
 21
17.0452248309
  0
LWPOLYLINE
  5
29F
100
AcDbEntity
  8
0
100
AcDbPolyline
 62
253
  6
CONTINUOUS
 90
35
 70
0
 10
-0.5164276269
 20
8.2518206069
 10
-0.515626157
 20
8.2501125517
 10
-0.5148547893
 20
8.2484069701
 10
-0.5141129804
 20
8.2467040262
 10
-0.5134001874
 20
8.2450038839
 10
-0.512715867
 20
8.2433067071
 10
-0.512059476
 20
8.2416126598
 10
-0.5114304714
 20
8.2399219059
 10
-0.51082831
 20
8.2382346093
 10
-0.5102524487
 20
8.236550934
 10
-0.5097023443
 20
8.234871044
 10
-0.5091774536
 20
8.2331951031
 10
-0.5086772335
 20
8.2315232754
 10
-0.5082011409
 20
8.2298557247
 10
-0.5077486326
 20
8.228192615
 10
-0.5073191655
 20
8.2265341102
 10
-0.5069121964
 20
8.2248803743
 10
-0.5065271822
 20
8.2232315712
 10
-0.5061635798
 20
8.2215878649
 10
-0.5057796485
 20
8.2197449583
 10
-0.50542258
 20
8.2179087433
 10
-0.5050928251
 20
8.2160792534
 10
-0.5047908349
 20
8.2142565223
 10
-0.5045170602
 20
8.2124405835
 10
-0.504271952
 20
8.2106314705
 10
-0.5040559612
 20
8.2088292169
 10
-0.5038695387
 20
8.2070338563
 10
-0.5037131356
 20
8.2052454221
 10
-0.5035872026
 20
8.203463948
 10
-0.5034921908
 20
8.2016894675
 10
-0.503428551
 20
8.1999220141
 10
-0.5033967343
 20
8.1981616215
 10
-0.5033971916
 20
8.1964083231
 10
-0.5034303737
 20
8.1946621526
 10
-0.5034967316
 20
8.1929231434
  0
LWPOLYLINE
  5
2A0
100
AcDbEntity
  8
ASSI
100
AcDbPolyline
 62
253
  6
CONTINUOUS
 90
58
 70
0
 10
6.1421243041
 20
-22.3380967944
 10
6.1435397665
 20
-22.3470167925
 10
6.1451610066
 20
-22.3557746864
 10
6.1469880245
 20
-22.3643704761
 10
6.1490221243
 20
-22.3728090445
 10
6.1512620019
 20
-22.3810855087
 10
6.1537037445
 20
-22.3891852198
 10
6.1563476883
 20
-22.397107768
 10
6.1591934972
 20
-22.4048535631
 10
6.1622362507
 20
-22.4124091848
 10
6.1654762837
 20
-22.419774288
 10
6.1689132613
 20
-22.4269492177
 10
6.1725412577
 20
-22.4339215893
 10
6.1763606053
 20
-22.4406910599
 10
6.1803709718
 20
-22.4472579724
 10
6.1845654339
 20
-22.4536109702
 10
6.1889443103
 20
-22.4597496838
 10
6.1935072824
 20
-22.4656744827
 10
6.1982464711
 20
-22.4713751195
 10
6.203162182
 20
-22.4768512069
 10
6.2082541094
 20
-22.4821031322
 10
6.2135134578
 20
-22.4871218086
 10
6.2189405137
 20
-22.4919068309
 10
6.2245349905
 20
-22.4964586044
 10
6.2302872333
 20
-22.5007692589
 10
6.2361975193
 20
-22.5048383809
 10
6.2422655712
 20
-22.5086663839
 10
6.2484809019
 20
-22.5122466382
 10
6.2548437631
 20
-22.5155787134
 10
6.2613539032
 20
-22.5186630398
 10
6.2680000797
 20
-22.5214942788
 10
6.2747825324
 20
-22.524071994
 10
6.2817010215
 20
-22.5263966218
 10
6.2887435864
 20
-22.5284641321
 10
6.2959104367
 20
-22.5302740791
 10
6.3032013628
 20
-22.5318269087
 10
6.3106037745
 20
-22.5331199292
 10
6.3181178695
 20
-22.5341526921
 10
6.3257434502
 20
-22.5349256458
 10
6.3334673335
 20
-22.5354374441
 10
6.34128969
 20
-22.5356876344
 10
6.349210349
 20
-22.5356766692
 10
6.357215616
 20
-22.5354045597
 10
6.3653056382
 20
-22.534870853
 10
6.3734802684
 20
-22.534076002
 10
6.3817253699
 20
-22.533021376
 10
6.3900410568
 20
-22.5317065276
 10
6.3984272151
 20
-22.5301319043
 10
6.4068693655
 20
-22.5283002176
 10
6.4153676229
 20
-22.5262110163
 10
6.4239218724
 20
-22.5238647516
 10
6.4325172891
 20
-22.5212654889
 10
6.4411540913
 20
-22.518412718
 10
6.4498320607
 20
-22.515306949
 10
6.4585357181
 20
-22.5119537787
 10
6.4672599036
 20
-22.5083550727
 10
6.476009777
 20
-22.5045089653
 10
6.4847853384
 20
-22.5004154565
  0
LWPOLYLINE
  5
2A1
100
AcDbEntity
  8
ASSI
100
AcDbPolyline
 62
253
  6
CONTINUOUS
 90
28
 70
0
 10
5.4515227601
 20
-22.3896761725
 10
5.4543031053
 20
-22.4074749095
 10
5.4574919313
 20
-22.4249644549
 10
5.4610874298
 20
-22.4421347445
 10
5.4650875959
 20
-22.4589758904
 10
5.4694901262
 20
-22.4754782188
 10
5.4742924277
 20
-22.4916322687
 10
5.4794918165
 20
-22.5074288082
 10
5.4850853238
 20
-22.5228586917
 10
5.4910695959
 20
-22.537912898
 10
5.4974412403
 20
-22.5525827557
 10
5.5041966498
 20
-22.5668598673
 10
5.511331818
 20
-22.5807359589
 10
5.5188427245
 20
-22.5942030838
 10
5.5267250999
 20
-22.6072534963
 10
5.534974248
 20
-22.6198795763
 10
5.5435855093
 20
-22.632074092
 10
5.5525539976
 20
-22.6438300497
 10
5.5618743685
 20
-22.6551405626
 10
5.5715413558
 20
-22.6659991639
 10
5.581549474
 20
-22.6763996352
 10
5.5918927549
 20
-22.6863358559
 10
5.6025653437
 20
-22.6958021509
 10
5.613561192
 20
-22.7047931178
 10
5.6248737615
 20
-22.7133034531
 10
5.6364966642
 20
-22.721328318
 10
5.6484232998
 20
-22.728863132
 10
5.6533957688
 20
-22.7318076128
  0
LINE
  5
2A2
100
AcDbEntity
  8
ASSI
100
AcDbLine
 62
7
  6
CONTINUOUS
 10
3.1264008435
 20
17.5223513282
 11
3.1476061327
 21
16.9058788308
  0
LWPOLYLINE
  5
2A3
100
AcDbEntity
  8
ASSI
100
AcDbPolyline
 62
253
  6
CONTINUOUS
 90
27
 70
0
 10
4.73435199
 20
-13.5726856179
 10
4.742717374
 20
-13.9235984886
 10
4.7526237022
 20
-14.2736320688
 10
4.7640707612
 20
-14.6227781709
 10
4.7770582825
 20
-14.9710286232
 10
4.7915859427
 20
-15.31837527
 10
4.8076534176
 20
-15.6648099898
 10
4.8252603405
 20
-16.0103246752
 10
4.8444062728
 20
-16.3549112252
 10
4.8650907855
 20
-16.6985615795
 10
4.8873134078
 20
-17.0412677032
 10
4.9110735864
 20
-17.3830215668
 10
4.9363707883
 20
-17.7238151794
 10
4.9632044384
 20
-18.063640574
 10
4.9915738694
 20
-18.4024897903
 10
5.0214784443
 20
-18.7403549119
 10
5.0529174841
 20
-19.0772280377
 10
5.0858902059
 20
-19.4131012656
 10
5.1203958693
 20
-19.7479667518
 10
5.1564336908
 20
-20.0818166661
 10
5.1940027723
 20
-20.414643163
 10
5.2331022686
 20
-20.7464384672
 10
5.2737312931
 20
-21.0771948273
 10
5.3158888335
 20
-21.4069044707
 10
5.359573906
 20
-21.735559681
 10
5.4047855553
 20
-22.0631527982
 10
5.4515227601
 20
-22.3896761725
  0
LWPOLYLINE
  5
2A4
100
AcDbEntity
  8
ASSI
100
AcDbPolyline
 62
253
  6
CONTINUOUS
 90
27
 70
0
 10
5.4288044636
 20
-13.570025703
 10
5.4371248664
 20
-13.9189871051
 10
5.4469776957
 20
-14.267066191
 10
5.4583632535
 20
-14.6142710835
 10
5.4712812378
 20
-14.9605936598
 10
5.4857307429
 20
-15.3060095518
 10
5.5017118758
 20
-15.6505186794
 10
5.5192245294
 20
-15.9941211227
 10
5.5382674763
 20
-16.3367927531
 10
5.5588408238
 20
-16.6785335022
 10
5.5809444645
 20
-17.0193434384
 10
5.6045768499
 20
-17.3591986393
 10
5.6297380867
 20
-17.6980990357
 10
5.6564280681
 20
-18.0360446968
 10
5.6846449246
 20
-18.373011907
 10
5.7143887634
 20
-18.7090005999
 10
5.7456594773
 20
-19.0440108419
 10
5.7784548755
 20
-19.3780191165
 10
5.8127750653
 20
-19.7110253565
 10
5.8486199394
 20
-20.0430296289
 10
5.8859869853
 20
-20.3740086181
 10
5.9248763113
 20
-20.7039622623
 10
5.9652878089
 20
-21.0328906232
 10
6.0072186408
 20
-21.3607705699
 10
6.050667861
 20
-21.6875943922
 10
6.0956364154
 20
-22.0133698004
 10
6.1421243041
 20
-22.3380967944
  0
LWPOLYLINE
  5
2A5
100
AcDbEntity
  8
ASSI
100
AcDbPolyline
 62
253
  6
CONTINUOUS
 90
46
 70
0
 10
5.3561462345
 20
-5.8298214577
 10
5.355986772
 20
-5.8226651811
 10
5.3556198567
 20
-5.8153890507
 10
5.3550459355
 20
-5.8080019279
 10
5.3542657073
 20
-5.8005128094
 10
5.3532801224
 20
-5.7929308158
 10
5.3520903811
 20
-5.7852651811
 10
5.3506979324
 20
-5.777525241
 10
5.349104472
 20
-5.769720422
 10
5.3473119406
 20
-5.7618602292
 10
5.3453225214
 20
-5.7539542353
 10
5.3431386371
 20
-5.7460120689
 10
5.3407629474
 20
-5.7380434026
 10
5.3381983457
 20
-5.7300579411
 10
5.3354479552
 20
-5.7220654097
 10
5.3325151257
 20
-5.7140755424
 10
5.329403429
 20
-5.7060980698
 10
5.3261166547
 20
-5.6981427074
 10
5.3226588056
 20
-5.6902191438
 10
5.319034093
 20
-5.6823370291
 10
5.3152469314
 20
-5.6745059625
 10
5.3113019331
 20
-5.6667354813
 10
5.3072039025
 20
-5.6590350491
 10
5.3029578305
 20
-5.6514140439
 10
5.2985688883
 20
-5.6438817472
 10
5.2940424211
 20
-5.6364473323
 10
5.2893839416
 20
-5.6291198535
 10
5.2845991232
 20
-5.6219082347
 10
5.2796937932
 20
-5.6148212587
 10
5.2746739256
 20
-5.6078675565
 10
5.2695456342
 20
-5.6010555969
 10
5.2643151643
 20
-5.594393676
 10
5.2589888862
 20
-5.5878899072
 10
5.2535732865
 20
-5.5815522112
 10
5.2480749607
 20
-5.5753883066
 10
5.2425006052
 20
-5.5694057001
 10
5.2368570088
 20
-5.563611678
 10
5.2311510446
 20
-5.5580132964
 10
5.2253896619
 20
-5.5526173736
 10
5.2195798772
 20
-5.5474304811
 10
5.2137287661
 20
-5.5424589359
 10
5.2078434546
 20
-5.5377087927
 10
5.2019311102
 20
-5.5331858366
 10
5.1959989333
 20
-5.5288955759
 10
5.1900541488
 20
-5.5248432356
 10
5.1841039964
 20
-5.5210337511
  0
LINE
  5
2A6
100
AcDbEntity
  8
ASSI
100
AcDbLine
 62
253
  6
CONTINUOUS
 10
4.7142135321
 20
-12.4023995837
 11
4.73435199
 21
-13.5726856179
  0
LINE
  5
2A7
100
AcDbEntity
  8
ASSI
100
AcDbLine
 62
253
  6
CONTINUOUS
 10
5.408712476
 20
-12.4023206035
 11
5.4288044636
 21
-13.570025703
  0
LWPOLYLINE
  5
2A8
100
AcDbEntity
  8
ASSI
100
AcDbPolyline
 62
253
  6
CONTINUOUS
 90
24
 70
0
 10
4.6615948828
 20
-5.1751701368
 10
4.6616966026
 20
-5.1821991481
 10
4.6620114055
 20
-5.1890967753
 10
4.6625389121
 20
-5.1958546993
 10
4.6632784859
 20
-5.2024647697
 10
4.6642292352
 20
-5.2089190141
 10
4.6653900132
 20
-5.2152096483
 10
4.6667594198
 20
-5.2213290851
 10
4.6683358036
 20
-5.2272699443
 10
4.6701172632
 20
-5.2330250606
 10
4.6721016502
 20
-5.2385874928
 10
4.6742865711
 20
-5.2439505324
 10
4.6766693907
 20
-5.2491077111
 10
4.6792472354
 20
-5.254052809
 10
4.6820169958
 20
-5.2587798618
 10
4.6849753316
 20
-5.2632831684
 10
4.6881186747
 20
-5.2675572974
 10
4.6914432341
 20
-5.271597094
 10
4.6949449999
 20
-5.2753976859
 10
4.698619749
 20
-5.2789544893
 10
4.7024630492
 20
-5.2822632143
 10
4.7064702652
 20
-5.2853198704
 10
4.7106365641
 20
-5.2881207711
 10
4.7133205805
 20
-5.2897408233
  0
LINE
  5
2A9
100
AcDbEntity
  8
ASSI
100
AcDbLine
 62
253
  6
CONTINUOUS
 10
4.692076284
 20
-10.7629077227
 11
4.7142135321
 21
-12.4023995837
  0
LINE
  5
2AA
100
AcDbEntity
  8
ASSI
100
AcDbLine
 62
253
  6
CONTINUOUS
 10
5.3865932608
 20
-10.7641285346
 11
5.408712476
 21
-12.4023206035
  0
LINE
  5
2AB
100
AcDbEntity
  8
ASSI
100
AcDbLine
 62
253
  6
CONTINUOUS
 10
4.6759275302
 20
-9.1201266737
 11
4.692076284
 21
-10.7629077227
  0
LWPOLYLINE
  5
2AC
100
AcDbEntity
  8
ASSI
100
AcDbPolyline
 62
253
  6
CONTINUOUS
 90
3
 70
0
 10
5.3646364569
 20
-8.3006671659
 10
5.3704590067
 20
-9.1226423679
 10
5.3865932608
 20
-10.7641285346
  0
LINE
  5
2AD
100
AcDbEntity
  8
ASSI
100
AcDbLine
 62
253
  6
CONTINUOUS
 10
4.6657665932
 20
-7.4740516701
 11
4.6759275302
 21
-9.1201266737
  0
LINE
  5
2AE
100
AcDbEntity
  8
ASSI
100
AcDbLine
 62
253
  6
CONTINUOUS
 10
4.6615935885
 20
-5.824701628
 11
4.6657665932
 21
-7.4740516701
  0
LINE
  5
2AF
100
AcDbEntity
  8
ASSI
100
AcDbLine
 62
253
  6
CONTINUOUS
 10
4.6657665932
 20
-3.5213276042
 11
4.6615935885
 21
-5.1751693895
  0
LINE
  5
2B0
100
AcDbEntity
  8
ASSI
100
AcDbLine
 62
253
  6
CONTINUOUS
 10
4.6759275302
 20
-1.8643109303
 11
4.6657665932
 21
-3.5213276042
  0
LINE
  5
2B1
100
AcDbEntity
  8
ASSI
100
AcDbLine
 62
253
  6
CONTINUOUS
 10
4.692076284
 20
-0.2041387482
 11
4.6759275302
 21
-1.8643109303
  0
LINE
  5
2B2
100
AcDbEntity
  8
ASSI
100
AcDbLine
 62
253
  6
CONTINUOUS
 10
4.7142135321
 20
1.4591931683
 11
4.692076284
 21
-0.2041387482
  0
LWPOLYLINE
  5
2B3
100
AcDbEntity
  8
ASSI
100
AcDbPolyline
 62
253
  6
CONTINUOUS
 90
46
 70
0
 10
4.6615948828
 20
-5.8247023753
 10
4.6616966025
 20
-5.8175559008
 10
4.6620114055
 20
-5.8102947472
 10
4.662538912
 20
-5.802927672
 10
4.6632784859
 20
-5.7954635604
 10
4.6642292351
 20
-5.7879114148
 10
4.665390013
 20
-5.7802803436
 10
4.6667594196
 20
-5.7725795505
 10
4.6683358033
 20
-5.7648183231
 10
4.6701172628
 20
-5.7570060221
 10
4.6721016496
 20
-5.7491520697
 10
4.6742865704
 20
-5.7412659384
 10
4.67666939
 20
-5.7333571395
 10
4.6792472345
 20
-5.7254352115
 10
4.6820169948
 20
-5.7175097089
 10
4.6849753305
 20
-5.7095901904
 10
4.6881186735
 20
-5.7016862076
 10
4.6914432327
 20
-5.6938072933
 10
4.6949449985
 20
-5.68596295
 10
4.6986197474
 20
-5.6781626387
 10
4.7024630475
 20
-5.670415767
 10
4.7064702635
 20
-5.6627316782
 10
4.7106365622
 20
-5.6551196401
 10
4.7149569189
 20
-5.6475888332
 10
4.7194261229
 20
-5.6401483403
 10
4.724038784
 20
-5.6328071351
 10
4.728789339
 20
-5.6255740718
 10
4.7336720583
 20
-5.6184578738
 10
4.7386810531
 20
-5.611467124
 10
4.743810282
 20
-5.6046102537
 10
4.7490535589
 20
-5.5978955327
 10
4.75440456
 20
-5.5913310596
 10
4.7598568315
 20
-5.5849247515
 10
4.7654037977
 20
-5.578684335
 10
4.7710387684
 20
-5.5726173365
 10
4.7767549475
 20
-5.5667310732
 10
4.7825454408
 20
-5.5610326444
 10
4.7884032646
 20
-5.5555289229
 10
4.7943213538
 20
-5.5502265465
 10
4.8002925708
 20
-5.5451319103
 10
4.8063097139
 20
-5.5402511589
 10
4.812365526
 20
-5.5355901787
 10
4.8184527033
 20
-5.5311545913
 10
4.8245639041
 20
-5.5269497463
 10
4.830691758
 20
-5.5229807151
 10
4.8368288742
 20
-5.5192522846
  0
LINE
  5
2B4
100
AcDbEntity
  8
ASSI
100
AcDbLine
 62
253
  6
CONTINUOUS
 10
4.73435199
 20
2.6511690277
 11
4.7142135321
 21
1.4591931683
  0
LINE
  5
2B5
100
AcDbEntity
  8
ASSI
100
AcDbLine
 62
253
  6
CONTINUOUS
 10
4.7526237022
 20
3.3717989555
 11
4.73435199
 21
2.6511690277
  0
LINE
  5
2B6
100
AcDbEntity
  8
ASSI
100
AcDbLine
 62
253
  6
CONTINUOUS
 10
4.7770582825
 20
4.0955179783
 11
4.7526237022
 21
3.3717989555
  0
LINE
  5
2B7
100
AcDbEntity
  8
ASSI
100
AcDbLine
 62
253
  6
CONTINUOUS
 10
4.8076534176
 20
4.8222583839
 11
4.7770582825
 21
4.0955179783
  0
LINE
  5
2B8
100
AcDbEntity
  8
ASSI
100
AcDbLine
 62
253
  6
CONTINUOUS
 10
5.5017118758
 20
4.7933966179
 11
5.4712812378
 21
4.0707025166
  0
LINE
  5
2B9
100
AcDbEntity
  8
ASSI
100
AcDbLine
 62
253
  6
CONTINUOUS
 10
4.8444062728
 20
5.5519521215
 11
4.8076534176
 21
4.8222583839
  0
LINE
  5
2BA
100
AcDbEntity
  8
ASSI
100
AcDbLine
 62
253
  6
CONTINUOUS
 10
5.5382674763
 20
5.519035409
 11
5.5017118758
 21
4.7933966179
  0
LINE
  5
2BB
100
AcDbEntity
  8
ASSI
100
AcDbLine
 62
253
  6
CONTINUOUS
 10
4.8873134078
 20
6.2845308707
 11
4.8444062728
 21
5.5519521215
  0
LINE
  5
2BC
100
AcDbEntity
  8
ASSI
100
AcDbLine
 62
253
  6
CONTINUOUS
 10
5.5809444645
 20
6.2475425977
 11
5.5382674763
 21
5.519035409
  0
LINE
  5
2BD
100
AcDbEntity
  8
ASSI
100
AcDbLine
 62
253
  6
CONTINUOUS
 10
4.9363707883
 20
7.0199260991
 11
4.8873134078
 21
6.2845308707
  0
LINE
  5
2BE
100
AcDbEntity
  8
ASSI
100
AcDbLine
 62
253
  6
CONTINUOUS
 10
5.6297380867
 20
6.9788413653
 11
5.5809444645
 21
6.2475425977
  0
LINE
  5
2BF
100
AcDbEntity
  8
ASSI
100
AcDbLine
 62
253
  6
CONTINUOUS
 10
4.9915738694
 20
7.758068961
 11
4.9363707883
 21
7.0199260991
  0
LINE
  5
2C0
100
AcDbEntity
  8
ASSI
100
AcDbLine
 62
253
  6
CONTINUOUS
 10
5.6846449246
 20
7.712880393
 11
5.6297380867
 21
6.9788413653
  0
LINE
  5
2C1
100
AcDbEntity
  8
ASSI
100
AcDbLine
 62
253
  6
CONTINUOUS
 10
5.0529174841
 20
8.4988904203
 11
4.9915738694
 21
7.758068961
  0
LINE
  5
2C2
100
AcDbEntity
  8
ASSI
100
AcDbLine
 62
253
  6
CONTINUOUS
 10
5.7456594773
 20
8.4495825468
 11
5.6846449246
 21
7.712880393
  0
LINE
  5
2C3
100
AcDbEntity
  8
ASSI
100
AcDbLine
 62
253
  6
CONTINUOUS
 10
5.1203958693
 20
9.2423211724
 11
5.0529174841
 21
8.4988904203
  0
LINE
  5
2C4
100
AcDbEntity
  8
ASSI
100
AcDbLine
 62
253
  6
CONTINUOUS
 10
5.8127750653
 20
9.1888701499
 11
5.7456594773
 21
8.4495825468
  0
LINE
  5
2C5
100
AcDbEntity
  8
ASSI
100
AcDbLine
 62
253
  6
CONTINUOUS
 10
5.1940027723
 20
9.9882915943
 11
5.1203958693
 21
9.2423211724
  0
LINE
  5
2C6
100
AcDbEntity
  8
ASSI
100
AcDbLine
 62
253
  6
CONTINUOUS
 10
5.8859869853
 20
9.930691305
 11
5.8127750653
 21
9.1888701499
  0
LINE
  5
2C7
100
AcDbEntity
  8
ASSI
100
AcDbLine
 62
253
  6
CONTINUOUS
 10
5.9652878089
 20
10.6749680092
 11
5.8859869853
 21
9.930691305
  0
LINE
  5
2C8
100
AcDbEntity
  8
ASSI
100
AcDbLine
 62
253
  6
CONTINUOUS
 10
5.3158888335
 20
11.1118563021
 11
5.1940027723
 21
9.9882915943
  0
LINE
  5
2C9
100
AcDbEntity
  8
ASSI
100
AcDbLine
 62
253
  6
CONTINUOUS
 10
6.050667861
 20
11.4216128645
 11
5.9652878089
 21
10.6749680092
  0
LWPOLYLINE
  5
2CA
100
AcDbEntity
  8
ASSI
100
AcDbPolyline
 62
253
  6
CONTINUOUS
 90
3
 70
0
 10
5.4515227601
 20
12.240741477
 10
5.4047855553
 20
11.8638699473
 10
5.3158888335
 20
11.1118563021
  0
LINE
  5
2CB
100
AcDbEntity
  8
ASSI
100
AcDbLine
 62
253
  6
CONTINUOUS
 10
6.1421243041
 20
12.1705996844
 11
6.050667861
 21
11.4216128645
  0
LINE
  5
2CC
100
AcDbEntity
  8
ASSI
100
AcDbLine
 62
253
  6
CONTINUOUS
 10
-10.0810644528
 20
10.8423291269
 11
4.7275277388
 21
2.2920335907
  0
LWPOLYLINE
  5
2CD
100
AcDbEntity
  8
0
100
AcDbPolyline
 62
253
  6
CONTINUOUS
 90
53
 70
0
 10
-0.6413053714
 20
7.6535801442
 10
-0.6371920095
 20
7.6488131052
 10
-0.6331847288
 20
7.6439655584
 10
-0.6292719866
 20
7.6390275194
 10
-0.6254422399
 20
7.6339890039
 10
-0.6216839462
 20
7.6288400275
 10
-0.6179879631
 20
7.6235724718
 10
-0.6143547511
 20
7.618185682
 10
-0.6107871713
 20
7.6126808694
 10
-0.6072880847
 20
7.6070592453
 10
-0.6038603523
 20
7.6013220208
 10
-0.6005074761
 20
7.5954714671
 10
-0.5972355222
 20
7.5895140948
 10
-0.5940511975
 20
7.5834574746
 10
-0.590961209
 20
7.5773091771
 10
-0.5879722637
 20
7.5710767728
 10
-0.5855641542
 20
7.5658264388
 10
-0.5832386748
 20
7.5605400718
 10
-0.5810036291
 20
7.5552347889
 10
-0.5788649734
 20
7.5499229479
 10
-0.5768212738
 20
7.5445978684
 10
-0.5748692491
 20
7.5392481108
 10
-0.5726454984
 20
7.5327854043
 10
-0.5705570927
 20
7.526285029
 10
-0.5686120901
 20
7.5197613257
 10
-0.5668185488
 20
7.5132286351
 10
-0.5651845269
 20
7.506701298
 10
-0.5637165136
 20
7.5001933156
 10
-0.5624147232
 20
7.4937173299
 10
-0.5612778009
 20
7.4872856432
 10
-0.560304392
 20
7.480910558
 10
-0.559493142
 20
7.4746043766
 10
-0.5589398373
 20
7.4694076825
 10
-0.5584964764
 20
7.4642561806
 10
-0.5581613338
 20
7.4591386701
 10
-0.5579330298
 20
7.4540488913
 10
-0.5578115696
 20
7.4490003498
 10
-0.5577973044
 20
7.4440114923
 10
-0.557921442
 20
7.4381255171
 10
-0.5581966353
 20
7.4323593132
 10
-0.5586190735
 20
7.4267201438
 10
-0.5591849454
 20
7.4212152717
 10
-0.5598904403
 20
7.4158519602
 10
-0.5607319571
 20
7.4106361981
 10
-0.5617067343
 20
7.4055688779
 10
-0.5628122206
 20
7.4006496178
 10
-0.5640458644
 20
7.3958780362
 10
-0.5654051145
 20
7.3912537513
 10
-0.5668890923
 20
7.3867751838
 10
-0.5685036123
 20
7.3824359635
 10
-0.5702561618
 20
7.3782285224
 10
-0.5721542283
 20
7.3741452928
 10
-0.5742052992
 20
7.3701787067
  0
LWPOLYLINE
  5
2CE
100
AcDbEntity
  8
ASSI
100
AcDbPolyline
 62
253
  6
CONTINUOUS
 90
3
 70
0
 10
5.3561476371
 20
-5.8298206889
 10
5.357480801
 20
-6.6542567488
 10
5.3646364569
 20
-8.3006671659
  0
LINE
  5
2CF
100
AcDbEntity
  8
ASSI
100
AcDbLine
 62
253
  6
CONTINUOUS
 10
5.3603104076
 20
-3.5315172911
 11
5.3561476371
 21
-5.1840515021
  0
LINE
  5
2D0
100
AcDbEntity
  8
ASSI
100
AcDbLine
 62
253
  6
CONTINUOUS
 10
5.3704590067
 20
-1.8758186957
 11
5.3603104076
 21
-3.5315172911
  0
LINE
  5
2D1
100
AcDbEntity
  8
ASSI
100
AcDbLine
 62
253
  6
CONTINUOUS
 10
5.3865932608
 20
-0.2169584373
 11
5.3704590067
 21
-1.8758186957
  0
LINE
  5
2D2
100
AcDbEntity
  8
ASSI
100
AcDbLine
 62
253
  6
CONTINUOUS
 10
5.408712476
 20
1.4450525989
 11
5.3865932608
 21
-0.2169584373
  0
LINE
  5
2D3
100
AcDbEntity
  8
ASSI
100
AcDbLine
 62
253
  6
CONTINUOUS
 10
5.4288044636
 20
2.6343936558
 11
5.408712476
 21
1.4450525989
  0
LWPOLYLINE
  5
2D4
100
AcDbEntity
  8
ASSI
100
AcDbPolyline
 62
253
  6
CONTINUOUS
 90
24
 70
0
 10
5.3561462345
 20
-5.1840522436
 10
5.355986772
 20
-5.1911398653
 10
5.3556198567
 20
-5.1980902859
 10
5.3550459356
 20
-5.2048950408
 10
5.3542657075
 20
-5.2115458425
 10
5.3532801227
 20
-5.2180345912
 10
5.3520903815
 20
-5.2243533845
 10
5.3506979328
 20
-5.2304945269
 10
5.3491044726
 20
-5.2364505392
 10
5.3473119414
 20
-5.2422141678
 10
5.3453225223
 20
-5.2477783933
 10
5.3431386381
 20
-5.2531364391
 10
5.3407629486
 20
-5.2582817799
 10
5.3381983471
 20
-5.2632081493
 10
5.3354479568
 20
-5.2679095476
 10
5.3325151275
 20
-5.272380249
 10
5.3294034309
 20
-5.2766148088
 10
5.3261166568
 20
-5.2806080699
 10
5.3226588079
 20
-5.284355169
 10
5.3190340955
 20
-5.2878515426
 10
5.315246934
 20
-5.2910929325
 10
5.3113019358
 20
-5.2940753911
 10
5.3072039053
 20
-5.2967952862
 10
5.3025705149
 20
-5.2994560066
  0
LINE
  5
2D5
100
AcDbEntity
  8
ASSI
100
AcDbLine
 62
253
  6
CONTINUOUS
 10
5.4469776957
 20
3.3510038988
 11
5.4288044636
 21
2.6343936558
  0
LINE
  5
2D6
100
AcDbEntity
  8
ASSI
100
AcDbLine
 62
253
  6
CONTINUOUS
 10
5.4712812378
 20
4.0707025166
 11
5.4469776957
 21
3.3510038988
  0
LWPOLYLINE
  5
2D7
100
AcDbEntity
  8
0
100
AcDbPolyline
 62
253
  6
CONTINUOUS
 90
43
 70
0
 10
-1.559853273
 20
7.549782979
 10
-1.5390039642
 20
7.5380992777
 10
-1.5182262612
 20
7.5271606595
 10
-1.4975138726
 20
7.5169558152
 10
-1.4768605069
 20
7.5074734357
 10
-1.456259873
 20
7.4987022116
 10
-1.4357056793
 20
7.4906308338
 10
-1.4151959381
 20
7.4832508691
 10
-1.3947458766
 20
7.4765653879
 10
-1.3743750254
 20
7.4705803365
 10
-1.3541029153
 20
7.4653016615
 10
-1.3339490769
 20
7.4607353093
 10
-1.313933041
 20
7.4568872262
 10
-1.2940736376
 20
7.4537633565
 10
-1.2743868946
 20
7.4513696361
 10
-1.2548881392
 20
7.4497119987
 10
-1.2355926985
 20
7.4487963781
 10
-1.2165158998
 20
7.448628708
 10
-1.1976730702
 20
7.4492149222
 10
-1.1790792709
 20
7.4505595561
 10
-1.1607484982
 20
7.4526615519
 10
-1.1426944825
 20
7.4555184537
 10
-1.1249309541
 20
7.4591278054
 10
-1.1074716432
 20
7.463487151
 10
-1.0903302801
 20
7.4685940344
 10
-1.0735196536
 20
7.4744449837
 10
-1.0570487854
 20
7.4810324627
 10
-1.0409257557
 20
7.4883479193
 10
-1.0251586448
 20
7.4963828015
 10
-1.0097555329
 20
7.505128557
 10
-0.9947245001
 20
7.5145766339
 10
-0.9800747822
 20
7.5247177391
 10
-0.9658202366
 20
7.5355396165
 10
-0.9519758763
 20
7.547029269
 10
-0.9385567143
 20
7.5591736994
 10
-0.9255777636
 20
7.5719599107
 10
-0.9130540372
 20
7.5853749059
 10
-0.900998348
 20
7.599409955
 10
-0.8894147092
 20
7.6140733974
 10
-0.878304934
 20
7.6293778394
 10
-0.8676708354
 20
7.6453358875
 10
-0.8575142266
 20
7.6619601483
 10
-0.8457070313
 20
7.6830735631
  0
LWPOLYLINE
  5
2D8
100
AcDbEntity
  8
0
100
AcDbPolyline
 62
253
  6
CONTINUOUS
 90
42
 70
0
 10
-4.2496729016
 20
8.7338695875
 10
-4.2596384558
 20
8.7397387066
 10
-4.2695663223
 20
8.7458200904
 10
-4.2794592156
 20
8.7521209442
 10
-4.2893198503
 20
8.7586484736
 10
-4.2991509408
 20
8.7654098841
 10
-4.3089552017
 20
8.7724123813
 10
-4.3187334243
 20
8.779662217
 10
-4.3284787075
 20
8.787161828
 10
-4.3381822271
 20
8.7949126975
 10
-4.3478351588
 20
8.8029163088
 10
-4.3574286783
 20
8.811174145
 10
-4.3669539614
 20
8.8196876892
 10
-4.3750575603
 20
8.8271898055
 10
-4.3830994072
 20
8.8348826858
 10
-4.3910743661
 20
8.8427681374
 10
-4.3989773009
 20
8.8508479673
 10
-4.4068030757
 20
8.8591239829
 10
-4.4145465544
 20
8.8675979913
 10
-4.422202601
 20
8.8762717997
 10
-4.4297657532
 20
8.8851457523
 10
-4.4372292433
 20
8.8942143419
 10
-4.4445859773
 20
8.903470598
 10
-4.4518288612
 20
8.9129075504
 10
-4.4589508009
 20
8.9225182289
 10
-4.4659447025
 20
8.932295663
 10
-4.4728034719
 20
8.9422328826
 10
-4.4795198327
 20
8.9523222927
 10
-4.4860857785
 20
8.9625538003
 10
-4.4924931206
 20
8.9729166878
 10
-4.4987336701
 20
8.9834002375
 10
-4.5047992382
 20
8.9939937317
 10
-4.5106816362
 20
9.0046864529
 10
-4.5163726753
 20
9.0154676834
 10
-4.5211893206
 20
9.024967125
 10
-4.5258500879
 20
9.0345290566
 10
-4.5303518782
 20
9.0441564088
 10
-4.5346915921
 20
9.0538521125
 10
-4.5388661305
 20
9.0636190982
 10
-4.5428723941
 20
9.0734602967
 10
-4.5467072838
 20
9.0833786388
 10
-4.5503677005
 20
9.0933770551
  0
LWPOLYLINE
  5
2D9
100
AcDbEntity
  8
0
100
AcDbPolyline
 62
253
  6
CONTINUOUS
 90
53
 70
0
 10
-1.571538497
 20
7.1891592618
 10
-1.5993744421
 20
7.2057026024
 10
-1.6270806365
 20
7.2231037307
 10
-1.6546663539
 20
7.2413534124
 10
-1.6821408675
 20
7.2604424129
 10
-1.7095134508
 20
7.2803614982
 10
-1.7435883467
 20
7.3064074736
 10
-1.7774668518
 20
7.3336812741
 10
-1.8110973517
 20
7.362128146
 10
-1.8444282321
 20
7.3916933356
 10
-1.8774129966
 20
7.4223267656
 10
-1.9100256208
 20
7.4539970629
 10
-1.9422451985
 20
7.4866775305
 10
-1.9740508233
 20
7.5203414716
 10
-2.0054196561
 20
7.5549621493
 10
-2.0363211271
 20
7.5905126663
 10
-2.0667227339
 20
7.6269660854
 10
-2.0965919738
 20
7.6642954694
 10
-2.1258946762
 20
7.7024721796
 10
-2.154589997
 20
7.7414607717
 10
-2.182635424
 20
7.7812240998
 10
-2.2099884451
 20
7.821725018
 10
-2.2313436452
 20
7.8546316459
 10
-2.2522060345
 20
7.8879662821
 10
-2.2725531498
 20
7.9217086507
 10
-2.2923625281
 20
7.9558384756
 10
-2.3116117061
 20
7.9903354808
 10
-2.3302806655
 20
8.025177556
 10
-2.3483591673
 20
8.060335253
 10
-2.365839417
 20
8.0957772894
 10
-2.3827136205
 20
8.1314723826
 10
-2.3989739834
 20
8.16738925
 10
-2.4184248818
 20
8.2125496335
 10
-2.4368924467
 20
8.2579470775
 10
-2.4543646491
 20
8.3035209993
 10
-2.47082946
 20
8.349210816
 10
-2.4862759228
 20
8.3949595639
 10
-2.5006973705
 20
8.4407247565
 10
-2.5140882085
 20
8.486467526
 10
-2.5264428423
 20
8.532149005
 10
-2.5377544646
 20
8.5777313303
 10
-2.5480114172
 20
8.6231806565
 10
-2.5572008295
 20
8.6684641428
 10
-2.5653098306
 20
8.7135489483
 10
-2.57232454
 20
8.7583951378
 10
-2.5782270385
 20
8.8029343997
 10
-2.5829983971
 20
8.8470913282
 10
-2.5866196868
 20
8.8907905176
 10
-2.588675464
 20
8.9253767145
 10
-2.5899704837
 20
8.9596256328
 10
-2.590492147
 20
8.9935412068
 10
-2.5902278551
 20
9.0271273705
 10
-2.5891650091
 20
9.0603880583
  0
LWPOLYLINE
  5
2DA
100
AcDbEntity
  8
0
100
AcDbPolyline
 62
253
  6
CONTINUOUS
 90
21
 70
0
 10
-1.3024162894
 20
9.2143480721
 10
-1.3116216399
 20
9.2223869316
 10
-1.3207900085
 20
9.2302856966
 10
-1.329922201
 20
9.2380425164
 10
-1.3390190234
 20
9.2456555403
 10
-1.3480812815
 20
9.2531229176
 10
-1.3571097811
 20
9.2604427975
 10
-1.366105328
 20
9.2676133294
 10
-1.3750687281
 20
9.2746326625
 10
-1.3840007873
 20
9.2814989462
 10
-1.3929023113
 20
9.2882103296
 10
-1.4017739548
 20
9.2947649058
 10
-1.4106157668
 20
9.3011605422
 10
-1.4194276451
 20
9.30739505
 10
-1.4282094876
 20
9.3134662403
 10
-1.4369611922
 20
9.3193719244
 10
-1.4456826565
 20
9.3251099133
 10
-1.4543737785
 20
9.3306780183
 10
-1.4630344558
 20
9.3360740505
 10
-1.4716645865
 20
9.341295821
 10
-1.4802640682
 20
9.346341141
  0
LWPOLYLINE
  5
2DB
100
AcDbEntity
  8
0
100
AcDbPolyline
 62
253
  6
CONTINUOUS
 90
39
 70
0
 10
-1.4282169396
 20
8.9192767695
 10
-1.4296878465
 20
8.9206505883
 10
-1.4311297776
 20
8.9220512506
 10
-1.4325451663
 20
8.923479462
 10
-1.4339364456
 20
8.9249359278
 10
-1.4353060486
 20
8.9264213535
 10
-1.4366564086
 20
8.9279364443
 10
-1.4379899586
 20
8.9294819058
 10
-1.439526983
 20
8.9313238292
 10
-1.4410435977
 20
8.9332065243
 10
-1.4425389612
 20
8.9351284649
 10
-1.4440122323
 20
8.9370881248
 10
-1.4454625697
 20
8.9390839778
 10
-1.4468891319
 20
8.9411144976
 10
-1.4482909856
 20
8.9431779997
 10
-1.4496668298
 20
8.9452721659
 10
-1.4510152714
 20
8.9473945194
 10
-1.4523349172
 20
8.9495425838
 10
-1.4536243743
 20
8.9517138823
 10
-1.4548822495
 20
8.9539059384
 10
-1.4561071592
 20
8.9561162581
 10
-1.4572977568
 20
8.9583422791
 10
-1.4584527052
 20
8.9605814214
 10
-1.4595706673
 20
8.9628311056
 10
-1.460650306
 20
8.9650887517
 10
-1.4616902842
 20
8.9673517802
 10
-1.4626893838
 20
8.9696178319
 10
-1.4636468636
 20
8.9718854306
 10
-1.4645621014
 20
8.9741533207
 10
-1.465434475
 20
8.9764202467
 10
-1.4662633623
 20
8.9786849529
 10
-1.4670481411
 20
8.9809461838
 10
-1.4676852293
 20
8.9828812125
 10
-1.4682890558
 20
8.9848152667
 10
-1.4688592224
 20
8.9867508476
 10
-1.4693953309
 20
8.9886904563
 10
-1.4698969829
 20
8.9906365941
 10
-1.4703637803
 20
8.9925917622
 10
-1.4707953247
 20
8.9945584617
  0
LWPOLYLINE
  5
2DC
100
AcDbEntity
  8
ASSI
100
AcDbPolyline
 62
253
  6
CONTINUOUS
 90
55
 70
0
 10
6.4847853384
 20
12.7019111842
 10
6.4840857741
 20
12.7135444973
 10
6.4830989515
 20
12.7253462184
 10
6.4818257036
 20
12.7373063851
 10
6.4802671053
 20
12.7494149016
 10
6.4784244721
 20
12.7616615467
 10
6.4762993596
 20
12.7740359824
 10
6.4738935615
 20
12.7865277632
 10
6.4712091088
 20
12.7991263443
 10
6.4682482674
 20
12.8118210909
 10
6.4650135367
 20
12.8246012868
 10
6.4615076472
 20
12.837456144
 10
6.4577335584
 20
12.8503748111
 10
6.453694456
 20
12.863346383
 10
6.4493937498
 20
12.8763599102
 10
6.4448350699
 20
12.8894044074
 10
6.4400222646
 20
12.9024688632
 10
6.4349593964
 20
12.9155422497
 10
6.4296507392
 20
12.928613531
 10
6.4241007742
 20
12.9416716733
 10
6.4183141861
 20
12.9547056537
 10
6.4122958598
 20
12.9677044699
 10
6.4060508755
 20
12.9806571491
 10
6.3995845048
 20
12.9935527576
 10
6.3929022061
 20
13.0063804096
 10
6.3860096202
 20
13.019129277
 10
6.3789125653
 20
13.031788598
 10
6.3716170324
 20
13.0443476864
 10
6.3641291798
 20
13.0567959407
 10
6.3564553284
 20
13.069122853
 10
6.3486019557
 20
13.0813180176
 10
6.3405756912
 20
13.0933711402
 10
6.33238331
 20
13.1052720464
 10
6.3240317276
 20
13.1170106902
 10
6.315527994
 20
13.1285771626
 10
6.3068792873
 20
13.1399617
 10
6.2980929082
 20
13.1511546923
 10
6.2891762736
 20
13.1621466912
 10
6.2801369104
 20
13.1729284178
 10
6.2709824489
 20
13.1834907711
 10
6.2617206168
 20
13.1938248349
 10
6.2523592322
 20
13.2039218859
 10
6.2429061975
 20
13.2137734009
 10
6.2333694922
 20
13.2233710639
 10
6.2237571666
 20
13.2327067732
 10
6.2140773348
 20
13.2417726481
 10
6.2043381679
 20
13.2505610359
 10
6.194547887
 20
13.2590645181
 10
6.1847147564
 20
13.2672759164
 10
6.1748470766
 20
13.2751882995
 10
6.1649531773
 20
13.2827949881
 10
6.1550414101
 20
13.2900895613
 10
6.1451201421
 20
13.2970658615
 10
6.1351977479
 20
13.3037179996
 10
6.1252826036
 20
13.3100403605
  0
LWPOLYLINE
  5
2DD
100
AcDbEntity
  8
ASSI
100
AcDbPolyline
 62
253
  6
CONTINUOUS
 90
30
 70
0
 10
6.4847853384
 20
-22.5004154565
 10
6.4840857741
 20
-22.51246888
 10
6.4830989514
 20
-22.5243339008
 10
6.4818257035
 20
-22.5360005032
 10
6.4802671052
 20
-22.5474588391
 10
6.4784244719
 20
-22.5586992361
 10
6.4762993593
 20
-22.5697122058
 10
6.4738935612
 20
-22.5804884518
 10
6.4712091084
 20
-22.5910188775
 10
6.4682482669
 20
-22.6012945939
 10
6.4650135361
 20
-22.6113069267
 10
6.4615076465
 20
-22.6210474244
 10
6.4577335576
 20
-22.6305078646
 10
6.4536944552
 20
-22.6396802615
 10
6.4493937488
 20
-22.6485568723
 10
6.4448350688
 20
-22.6571302039
 10
6.4400222634
 20
-22.6653930194
 10
6.4349593952
 20
-22.6733383438
 10
6.4296507379
 20
-22.6809594702
 10
6.4241007727
 20
-22.6882499654
 10
6.4183141846
 20
-22.6952036752
 10
6.4122958582
 20
-22.7018147297
 10
6.4060508738
 20
-22.7080775484
 10
6.399584503
 20
-22.7139868445
 10
6.3929022042
 20
-22.7195376299
 10
6.3860096182
 20
-22.724725219
 10
6.3789125634
 20
-22.7295452326
 10
6.3716170304
 20
-22.7339936022
 10
6.3641291778
 20
-22.7380665726
 10
6.360133759
 20
-22.7400483621
  0
LINE
  5
2DE
100
AcDbEntity
  8
ASSI
100
AcDbLine
 62
253
  6
CONTINUOUS
 10
8.9973281805
 20
-3.4307801806
 11
5.1841039964
 21
-5.5210337511
  0
LINE
  5
2DF
100
AcDbEntity
  8
ASSI
100
AcDbLine
 62
253
  6
CONTINUOUS
 10
9.1741587585
 20
-3.7369431151
 11
5.3561476371
 21
-5.8298206889
  0
LWPOLYLINE
  5
2E0
100
AcDbEntity
  8
ASSI
100
AcDbPolyline
 62
253
  6
CONTINUOUS
 90
55
 70
0
 10
5.1841039964
 20
-5.5210337511
 10
5.1788289675
 20
-5.5238443125
 10
5.1734289331
 20
-5.5265630152
 10
5.1679038934
 20
-5.529189859
 10
5.1622491016
 20
-5.5317268623
 10
5.1564693043
 20
-5.5341720068
 10
5.1505787415
 20
-5.5365192377
 10
5.1445772122
 20
-5.5387682792
 10
5.1384649173
 20
-5.5409194071
 10
5.1322566994
 20
-5.5429673943
 10
5.1259523389
 20
-5.5449119843
 10
5.1195520554
 20
-5.5467534335
 10
5.11307135
 20
-5.5484872835
 10
5.1065100265
 20
-5.5501132745
 10
5.0998682812
 20
-5.5516316663
 10
5.0931622043
 20
-5.5530387793
 10
5.086391634
 20
-5.5543343446
 10
5.0795567322
 20
-5.555518631
 10
5.0726740742
 20
-5.5565887663
 10
5.0657435473
 20
-5.5575444726
 10
5.0587652643
 20
-5.5583860278
 10
5.0517561382
 20
-5.5591113925
 10
5.0447160959
 20
-5.559720285
 10
5.0376452105
 20
-5.560212987
 10
5.0305606142
 20
-5.560588305
 10
5.0234622711
 20
-5.5608459543
 10
5.016350217
 20
-5.5609862196
 10
5.0092416909
 20
-5.5610087607
 10
5.0021367007
 20
-5.5609132919
 10
4.9950352384
 20
-5.560700099
 10
4.9879545195
 20
-5.5603696991
 10
4.9808945973
 20
-5.5599218083
 10
4.9738554185
 20
-5.5593567106
 10
4.9668540382
 20
-5.5586757756
 10
4.9598905465
 20
-5.5578787224
 10
4.9529648534
 20
-5.5569658318
 10
4.946093744
 20
-5.5559393166
 10
4.9392773476
 20
-5.5547989003
 10
4.9325155349
 20
-5.5535448592
 10
4.9258247032
 20
-5.5521802355
 10
4.9192050304
 20
-5.5507047618
 10
4.9126563385
 20
-5.5491187054
 10
4.9061944914
 20
-5.5474259098
 10
4.8998197008
 20
-5.5456261176
 10
4.893531755
 20
-5.5437195862
 10
4.8873458822
 20
-5.541710932
 10
4.8812623173
 20
-5.5395999011
 10
4.8752808256
 20
-5.5373867473
 10
4.869415931
 20
-5.5350768484
 10
4.8636678554
 20
-5.5326699332
 10
4.858036377
 20
-5.5301662729
 10
4.8525353538
 20
-5.5275720588
 10
4.8471694053
 20
-5.5248893545
 10
4.8419339121
 20
-5.5221160965
 10
4.8368288742
 20
-5.5192522846
  0
LINE
  5
2E1
100
AcDbEntity
  8
ASSI
100
AcDbLine
 62
253
  6
CONTINUOUS
 10
5.3561476371
 20
-5.1840515021
 11
9.1741587585
 21
-3.1655227098
  0
LINE
  5
2E2
100
AcDbEntity
  8
ASSI
100
AcDbLine
 62
7
  6
CONTINUOUS
 10
5.3024932569
 20
-5.2994969066
 11
9.1196907027
 21
-3.2813982931
  0
LWPOLYLINE
  5
2E3
100
AcDbEntity
  8
ASSI
100
AcDbPolyline
 62
253
  6
CONTINUOUS
 90
55
 70
0
 10
5.3561476371
 20
-5.8298206951
 10
5.3456104844
 20
-5.8353897872
 10
5.3348060148
 20
-5.8407834602
 10
5.3237429682
 20
-5.8459973881
 10
5.3124303158
 20
-5.8510274167
 10
5.3008771873
 20
-5.8558694883
 10
5.2890928588
 20
-5.8605196406
 10
5.2770868026
 20
-5.8649741658
 10
5.2648687814
 20
-5.8692294708
 10
5.2524487774
 20
-5.8732820041
 10
5.2398368842
 20
-5.8771285099
 10
5.2270432616
 20
-5.8807659296
 10
5.2140782275
 20
-5.8841912608
 10
5.2009522622
 20
-5.8874017682
 10
5.187675991
 20
-5.8903948878
 10
5.1742601435
 20
-5.8931681322
 10
5.1607155617
 20
-5.8957192911
 10
5.1470532118
 20
-5.8980463326
 10
5.1332841668
 20
-5.9001473056
 10
5.1194195719
 20
-5.9020205405
 10
5.1054706361
 20
-5.9036645564
 10
5.0914486445
 20
-5.905077962
 10
5.0773649438
 20
-5.9062596426
 10
5.0632309232
 20
-5.9072086746
 10
5.0490580066
 20
-5.9079242332
 10
5.0348576546
 20
-5.908405766
 10
5.0206413587
 20
-5.9086529127
 10
5.006420622
 20
-5.9086654198
 10
4.9922069482
 20
-5.9084433012
 10
4.9780118352
 20
-5.9079867642
 10
4.9638467689
 20
-5.9072961295
 10
4.9497232121
 20
-5.9063719776
 10
4.9356525853
 20
-5.9052150816
 10
4.9216462607
 20
-5.9038263325
 10
4.907715565
 20
-5.9022068716
 10
4.8938717706
 20
-5.900358032
 10
4.8801260769
 20
-5.8982812705
 10
4.866489597
 20
-5.8959782814
 10
4.8529733682
 20
-5.8934509489
 10
4.839588344
 20
-5.8907012881
 10
4.8263453614
 20
-5.8877315395
 10
4.813255122
 20
-5.8845441218
 10
4.8003282034
 20
-5.8811415835
 10
4.787575069
 20
-5.8775266892
 10
4.7750060277
 20
-5.8737023763
 10
4.7626312166
 20
-5.8696717072
 10
4.7504606055
 20
-5.8654379328
 10
4.7385040838
 20
-5.8610045022
 10
4.7267714159
 20
-5.8563750221
 10
4.7152721403
 20
-5.8515532663
 10
4.7040155007
 20
-5.8465431271
 10
4.693010536
 20
-5.8413486209
 10
4.6822661274
 20
-5.8359739383
 10
4.6717909873
 20
-5.8304234437
 10
4.6615935889
 20
-5.8247016283
  0
LWPOLYLINE
  5
2E4
100
AcDbEntity
  8
0
100
AcDbPolyline
 62
253
  6
CONTINUOUS
 90
57
 70
0
 10
-1.4802640682
 20
9.346341141
 10
-1.5023146524
 20
9.3586561698
 10
-1.523998064
 20
9.3699544875
 10
-1.5453147441
 20
9.3802793894
 10
-1.5662651336
 20
9.389674171
 10
-1.5868496734
 20
9.3981821276
 10
-1.6070688046
 20
9.4058465547
 10
-1.626922968
 20
9.4127107476
 10
-1.6464126047
 20
9.4188180018
 10
-1.6682385972
 20
9.4249222916
 10
-1.6895772009
 20
9.4301344739
 10
-1.7104165678
 20
9.4344945471
 10
-1.7307448498
 20
9.4380425093
 10
-1.7505501986
 20
9.4408183589
 10
-1.7698207663
 20
9.4428620939
 10
-1.7885447047
 20
9.4442137126
 10
-1.806716886
 20
9.4449106966
 10
-1.824359063
 20
9.4449804616
 10
-1.8414997092
 20
9.4444479065
 10
-1.8581672977
 20
9.4433379303
 10
-1.8743903018
 20
9.441675432
 10
-1.8901971947
 20
9.4394853106
 10
-1.9056164497
 20
9.4367924651
 10
-1.9265927124
 20
9.4322186475
 10
-1.9468610894
 20
9.4267366246
 10
-1.9664176579
 20
9.4203747285
 10
-1.9852584948
 20
9.4131612912
 10
-2.0033796772
 20
9.4051246446
 10
-2.0207817913
 20
9.3962947609
 10
-2.0374834586
 20
9.386708173
 10
-2.0535078099
 20
9.376403054
 10
-2.0688779758
 20
9.3654175771
 10
-2.0836170869
 20
9.3537899153
 10
-2.0977489136
 20
9.3415527225
 10
-2.1112997853
 20
9.3287165759
 10
-2.1242966707
 20
9.3152865332
 10
-2.136766539
 20
9.3012676524
 10
-2.1487363592
 20
9.2866649913
 10
-2.163027719
 20
9.2675975148
 10
-2.1765797172
 20
9.247630176
 10
-2.1893921784
 20
9.2267673665
 10
-2.2014649272
 20
9.2050134777
 10
-2.2105886604
 20
9.1869733506
 10
-2.2192282448
 20
9.1683776514
 10
-2.2273730599
 20
9.1492382882
 10
-2.235012485
 20
9.1295671692
 10
-2.2421358994
 20
9.1093762024
 10
-2.2487326151
 20
9.0886801572
 10
-2.2547916739
 20
9.067505248
 10
-2.26030205
 20
9.0458805502
 10
-2.2652527177
 20
9.0238351393
 10
-2.2696326511
 20
9.0013980909
 10
-2.2734314526
 20
8.9785909784
 10
-2.2766412355
 20
8.955405366
 10
-2.2792547412
 20
8.931825316
 10
-2.281264711
 20
8.9078348904
 10
-2.2826638865
 20
8.8834181514
  0
LWPOLYLINE
  5
2E5
100
AcDbEntity
  8
0
100
AcDbPolyline
 62
253
  6
CONTINUOUS
 90
25
 70
0
 10
-1.45976261
 20
9.7120840446
 10
-1.44416893
 20
9.7029362007
 10
-1.4285986471
 20
9.6935135193
 10
-1.4130489782
 20
9.6838146185
 10
-1.3975171405
 20
9.6738381167
 10
-1.382000351
 20
9.6635826323
 10
-1.3664958267
 20
9.6530467836
 10
-1.3510007847
 20
9.6422291889
 10
-1.335512442
 20
9.6311284666
 10
-1.3200298442
 20
9.6197444458
 10
-1.3045593511
 20
9.6080817998
 10
-1.289109151
 20
9.5961464123
 10
-1.2736874324
 20
9.5839441673
 10
-1.2583023835
 20
9.5714809488
 10
-1.2429621927
 20
9.5587626407
 10
-1.2276750484
 20
9.5457951271
 10
-1.2124491389
 20
9.5325842917
 10
-1.1972909664
 20
9.5191343946
 10
-1.1822002892
 20
9.5054431992
 10
-1.1671751793
 20
9.4915068451
 10
-1.1522137088
 20
9.4773214718
 10
-1.1373139497
 20
9.4628832186
 10
-1.1224739742
 20
9.4481882252
 10
-1.1076918544
 20
9.433232631
 10
-1.0929656623
 20
9.4180125754
  0
LWPOLYLINE
  5
2E6
100
AcDbEntity
  8
0
100
AcDbPolyline
 62
253
  6
CONTINUOUS
 90
42
 70
0
 10
-3.5948306512
 20
11.5317873917
 10
-3.5915204148
 20
11.5298182121
 10
-3.5882509347
 20
11.5277590162
 10
-3.5850187598
 20
11.5256111603
 10
-3.5818204391
 20
11.5233760009
 10
-3.5786525215
 20
11.5210548941
 10
-3.5755115561
 20
11.5186491966
 10
-3.5723940917
 20
11.5161602645
 10
-3.5692966774
 20
11.5135894544
 10
-3.565777885
 20
11.5105528431
 10
-3.5622815341
 20
11.5074129439
 10
-3.558808386
 20
11.5041716402
 10
-3.5553592019
 20
11.5008308153
 10
-3.551934743
 20
11.4973923526
 10
-3.5485357705
 20
11.4938581353
 10
-3.5451630457
 20
11.490230047
 10
-3.5418177871
 20
11.4865104996
 10
-3.538503042
 20
11.4827040204
 10
-3.5352223154
 20
11.4788156652
 10
-3.531979112
 20
11.47485049
 10
-3.5287769366
 20
11.4708135507
 10
-3.525619294
 20
11.4667099033
 10
-3.5225096888
 20
11.4625446035
 10
-3.5189471049
 20
11.4576141671
 10
-3.515459634
 20
11.4526162636
 10
-3.5120522345
 20
11.44756046
 10
-3.5087298648
 20
11.4424563232
 10
-3.505497483
 20
11.4373134201
 10
-3.5023600474
 20
11.4321413176
 10
-3.4993217224
 20
11.4269483939
 10
-3.4963834964
 20
11.4217382731
 10
-3.4935455635
 20
11.4165133903
 10
-3.4908081183
 20
11.411276181
 10
-3.4881713549
 20
11.4060290803
 10
-3.4856354679
 20
11.4007745236
 10
-3.483542097
 20
11.396264923
 10
-3.4815219645
 20
11.3917435282
 10
-3.479574053
 20
11.3872022335
 10
-3.4776973449
 20
11.3826329334
 10
-3.4758908226
 20
11.3780275223
 10
-3.4741534686
 20
11.3733778946
 10
-3.4724842655
 20
11.3686759448
  0
LWPOLYLINE
  5
2E7
100
AcDbEntity
  8
0
100
AcDbPolyline
 62
253
  6
CONTINUOUS
 90
43
 70
0
 10
-0.8815009076
 20
9.5603364422
 10
-0.8800174338
 20
9.5592422
 10
-0.8785595844
 20
9.5581143753
 10
-0.8771254013
 20
9.5569532635
 10
-0.8757129267
 20
9.5557591603
 10
-0.8743202023
 20
9.5545323611
 10
-0.8729452703
 20
9.5532731616
 10
-0.8715861726
 20
9.5519818573
 10
-0.8702409511
 20
9.5506587437
 10
-0.8687186396
 20
9.5491082202
 10
-0.8672126008
 20
9.5475180409
 10
-0.8657235407
 20
9.5458897104
 10
-0.8642521654
 20
9.5442247338
 10
-0.8627991809
 20
9.5425246157
 10
-0.8613652933
 20
9.5407908612
 10
-0.8599512085
 20
9.5390249749
 10
-0.8585576777
 20
9.5372285255
 10
-0.857185632
 20
9.535403337
 10
-0.8558360473
 20
9.533551297
 10
-0.8545099
 20
9.5316742934
 10
-0.853208166
 20
9.5297742137
 10
-0.8519318215
 20
9.5278529457
 10
-0.8506818425
 20
9.5259123772
 10
-0.8492581739
 20
9.5236265442
 10
-0.8478733582
 20
9.5213202418
 10
-0.8465290336
 20
9.5189967015
 10
-0.8452268378
 20
9.5166591547
 10
-0.8439684089
 20
9.5143108327
 10
-0.8427553847
 20
9.5119549672
 10
-0.8417529182
 20
9.5099319193
 10
-0.8407853752
 20
9.5079066586
 10
-0.8398531175
 20
9.5058801405
 10
-0.8389565067
 20
9.5038533203
 10
-0.8380959042
 20
9.5018271533
 10
-0.8372716719
 20
9.499802595
 10
-0.8364841713
 20
9.4977806006
 10
-0.8357337397
 20
9.49576142
 10
-0.8350206173
 20
9.4937424808
 10
-0.83434502
 20
9.4917205053
 10
-0.8337071637
 20
9.4896922157
 10
-0.8331072643
 20
9.4876543341
 10
-0.8325455376
 20
9.4856035827
 10
-0.8320221996
 20
9.4835366836
  0
LINE
  5
2E8
100
AcDbEntity
  8
ASSI
100
AcDbLine
 62
7
  6
CONTINUOUS
 10
8.6228628977
 20
13.9781168426
 11
9.1741587585
 21
7.2445277135
  0
LINE
  5
2E9
100
AcDbEntity
  8
ASSI
100
AcDbLine
 62
7
  6
CONTINUOUS
 10
9.1741587585
 20
-3.7369431151
 11
9.1741587585
 21
-14.1469935385
  0
LINE
  5
2EA
100
AcDbEntity
  8
ASSI
100
AcDbLine
 62
7
  6
CONTINUOUS
 10
9.1741587585
 20
-3.1655227098
 11
9.1741587585
 21
7.2445277135
  0
LINE
  5
2EB
100
AcDbEntity
  8
ASSI
100
AcDbLine
 62
7
  6
CONTINUOUS
 10
8.6228628977
 20
-21.4742428848
 11
9.1741587585
 21
-14.1469935385
  0
LWPOLYLINE
  5
2EC
100
AcDbEntity
  8
0
100
AcDbPolyline
 62
253
  6
CONTINUOUS
 90
52
 70
0
 10
-3.0577231078
 20
9.2707132404
 10
-3.0587628498
 20
9.2705582476
 10
-3.0598269158
 20
9.2704683913
 10
-3.0609151372
 20
9.2704426687
 10
-3.0620273453
 20
9.2704800769
 10
-3.0631633717
 20
9.2705796133
 10
-3.0643230476
 20
9.2707402749
 10
-3.0655062044
 20
9.270961059
 10
-3.0667126735
 20
9.2712409627
 10
-3.0679422864
 20
9.2715789834
 10
-3.0691948119
 20
9.2719743234
 10
-3.0704697691
 20
9.2724270064
 10
-3.0717666148
 20
9.2729372612
 10
-3.0730848056
 20
9.2735053166
 10
-3.0744237981
 20
9.2741314016
 10
-3.075783049
 20
9.274815745
 10
-3.077162015
 20
9.2755585757
 10
-3.0785601528
 20
9.2763601224
 10
-3.0799769189
 20
9.2772206142
 10
-3.081267282
 20
9.2780455456
 10
-3.0825706701
 20
9.278917985
 10
-3.0838854589
 20
9.2798375096
 10
-3.0852100246
 20
9.2808036967
 10
-3.0865427432
 20
9.2818161235
 10
-3.0878821886
 20
9.2828745803
 10
-3.0892277279
 20
9.2839797098
 10
-3.0905789261
 20
9.2851323681
 10
-3.0919353481
 20
9.2863334111
 10
-3.093296559
 20
9.2875836946
 10
-3.0946616867
 20
9.2888837294
 10
-3.0960281097
 20
9.2902326462
 10
-3.0973927697
 20
9.2916292301
 10
-3.0987526082
 20
9.2930722666
 10
-3.1001045666
 20
9.294560541
 10
-3.1014456407
 20
9.2960929248
 10
-3.102773043
 20
9.2976686339
 10
-3.1040840405
 20
9.2992869703
 10
-3.1053758999
 20
9.300947236
 10
-3.1066458882
 20
9.3026487332
 10
-3.1076854713
 20
9.3040976262
 10
-3.1087060174
 20
9.3055741799
 10
-3.1097055759
 20
9.3070779069
 10
-3.1106821962
 20
9.3086083197
 10
-3.1116339277
 20
9.3101649308
 10
-3.1125588197
 20
9.3117472528
 10
-3.1133287223
 20
9.3131239886
 10
-3.1140761168
 20
9.3145211424
 10
-3.1147996468
 20
9.3159406007
 10
-3.1154979561
 20
9.3173842501
 10
-3.1161696884
 20
9.3188539769
 10
-3.1168134874
 20
9.3203516678
 10
-3.117427997
 20
9.3218792092
  0
LWPOLYLINE
  5
2ED
100
AcDbEntity
  8
0
100
AcDbPolyline
 62
253
  6
CONTINUOUS
 90
32
 70
0
 10
-4.2474716944
 20
9.6304929982
 10
-4.2346656272
 20
9.6316231419
 10
-4.2217538835
 20
9.6323914933
 10
-4.2087347543
 20
9.632798774
 10
-4.1956065307
 20
9.6328457054
 10
-4.1823687403
 20
9.6325326365
 10
-4.1690258577
 20
9.6318584243
 10
-4.1555835941
 20
9.6308215528
 10
-4.1420476606
 20
9.6294205064
 10
-4.1284231503
 20
9.627653472
 10
-4.1147126835
 20
9.6255174483
 10
-4.1009182625
 20
9.6230091366
 10
-4.0870418895
 20
9.6201252386
 10
-4.0730864158
 20
9.616862433
 10
-4.0590580887
 20
9.6132173084
 10
-4.0449640049
 20
9.609186431
 10
-4.0308112608
 20
9.6047663668
 10
-4.0194514274
 20
9.6009477168
 10
-4.0080611978
 20
9.5968755724
 10
-3.9966431765
 20
9.5925477164
 10
-3.9851999681
 20
9.5879619316
 10
-3.9737341771
 20
9.5831160009
 10
-3.9622490791
 20
9.5780078407
 10
-3.9507506344
 20
9.5726359014
 10
-3.9392454739
 20
9.5669987672
 10
-3.9277402289
 20
9.5610950221
 10
-3.9162415306
 20
9.5549232501
 10
-3.9047546801
 20
9.5484810824
 10
-3.8932796586
 20
9.5417623389
 10
-3.8818151172
 20
9.5347598864
 10
-3.870359707
 20
9.5274665918
 10
-3.8589120792
 20
9.5198753219
  0
LWPOLYLINE
  5
2EE
100
AcDbEntity
  8
0
100
AcDbPolyline
 62
253
  6
CONTINUOUS
 90
31
 70
0
 10
-3.9007243292
 20
8.6531816877
 10
-3.91281072
 20
8.6521404164
 10
-3.924877999
 20
8.6513841876
 10
-3.9369282453
 20
8.6509101946
 10
-3.9489635381
 20
8.650715631
 10
-3.9609859566
 20
8.6507976903
 10
-3.9729975799
 20
8.6511535659
 10
-3.9850004872
 20
8.6517804514
 10
-3.9969967577
 20
8.6526755402
 10
-4.0089884705
 20
8.6538360257
 10
-4.0209777048
 20
8.6552591016
 10
-4.0329644984
 20
8.6569420621
 10
-4.0449407232
 20
8.6588826053
 10
-4.0568962098
 20
8.6610785302
 10
-4.0688207889
 20
8.6635276358
 10
-4.0807042908
 20
8.6662277209
 10
-4.0925368391
 20
8.6691758621
 10
-4.1043097283
 20
8.6723662466
 10
-4.1160145457
 20
8.675792339
 10
-4.1276428787
 20
8.6794476039
 10
-4.1391863147
 20
8.6833255062
 10
-4.1506378546
 20
8.6874203064
 10
-4.1619961534
 20
8.6917294497
 10
-4.1732612799
 20
8.6962511771
 10
-4.1844333027
 20
8.7009837298
 10
-4.1955122904
 20
8.7059253489
 10
-4.2064995821
 20
8.7110755691
 10
-4.2174015982
 20
8.7164391
 10
-4.2282260296
 20
8.7220219446
 10
-4.2389805671
 20
8.727830106
 10
-4.2496729016
 20
8.7338695875
  0
LINE
  5
2EF
100
AcDbEntity
  8
ASSI
100
AcDbLine
 62
253
  6
CONTINUOUS
 10
5.4515227601
 20
12.240741477
 11
-9.4056658455
 21
20.8190959736
  0
LWPOLYLINE
  5
2F0
100
AcDbEntity
  8
ASSI
100
AcDbPolyline
 62
253
  6
CONTINUOUS
 90
55
 70
0
 10
5.4220164873
 20
-13.2201819849
 10
5.4114810773
 20
-13.2259155485
 10
5.4006783477
 20
-13.2314736805
 10
5.3896170372
 20
-13.2368518848
 10
5.3783060934
 20
-13.2420458108
 10
5.3667546661
 20
-13.247051257
 10
5.3549720995
 20
-13.2518641744
 10
5.3429679247
 20
-13.2564806698
 10
5.3307518522
 20
-13.2608970087
 10
5.3183337638
 20
-13.2651096187
 10
5.3057237048
 20
-13.2691150921
 10
5.2929318758
 20
-13.2729101888
 10
5.2799686244
 20
-13.2764918388
 10
5.2668444368
 20
-13.2798571449
 10
5.2535699294
 20
-13.2830033848
 10
5.2401558404
 20
-13.2859280135
 10
5.2266130207
 20
-13.2886286651
 10
5.2129524253
 20
-13.291103155
 10
5.1991851047
 20
-13.2933494815
 10
5.1853221955
 20
-13.2953658276
 10
5.1713749117
 20
-13.2971505622
 10
5.1573545357
 20
-13.2987022415
 10
5.1432724087
 20
-13.3000196104
 10
5.1291399223
 20
-13.3011016033
 10
5.1149685083
 20
-13.3019473448
 10
5.1007696305
 20
-13.3025561508
 10
5.0865547746
 20
-13.302927529
 10
5.0723354393
 20
-13.3030611788
 10
5.0581231269
 20
-13.3029569921
 10
5.0439293342
 20
-13.3026150532
 10
5.0297655427
 20
-13.3020356387
 10
5.01564321
 20
-13.3012192174
 10
5.0015737598
 20
-13.3001664496
 10
4.9875685733
 20
-13.298878187
 10
4.9736389796
 20
-13.2973554716
 10
4.9597962466
 20
-13.2955995352
 10
4.946051572
 20
-13.2936117982
 10
4.9324160742
 20
-13.2913938686
 10
4.9189007833
 20
-13.2889475405
 10
4.9055166321
 20
-13.2862747928
 10
4.8922744473
 20
-13.2833777874
 10
4.8791849408
 20
-13.280258868
 10
4.866258701
 20
-13.2769205574
 10
4.8535061843
 20
-13.273365556
 10
4.8409377064
 20
-13.2695967397
 10
4.8285634342
 20
-13.265617157
 10
4.8163933777
 20
-13.2614300271
 10
4.8044373814
 20
-13.2570387372
 10
4.7927051167
 20
-13.2524468394
 10
4.7812060743
 20
-13.2476580482
 10
4.7699495558
 20
-13.2426762373
 10
4.758944667
 20
-13.2375054367
 10
4.74820031
 20
-13.2321498292
 10
4.7377251761
 20
-13.226613747
 10
4.7275277389
 20
-13.2209016683
  0
LINE
  5
2F1
100
AcDbEntity
  8
ASSI
100
AcDbLine
 62
7
  6
CONTINUOUS
 10
6.2460904853
 20
15.7210816279
 11
5.5733836645
 21
15.5911991442
  0
LINE
  5
2F2
100
AcDbEntity
  8
ASSI
100
AcDbLine
 62
253
  6
CONTINUOUS
 10
6.1252826036
 20
13.3100403605
 11
-8.7550304524
 21
21.9017466249
  0
LINE
  5
2F3
100
AcDbEntity
  8
ASSI
100
AcDbLine
 62
7
  6
CONTINUOUS
 10
5.3801984992
 20
15.6168079793
 11
2.9979134031
 21
16.9923095368
  0
LINE
  5
2F4
100
AcDbEntity
  8
ASSI
100
AcDbLine
 62
7
  6
CONTINUOUS
 10
-2.5393974501
 20
20.1894834246
 11
-4.9216825462
 21
21.5649849821
  0
LINE
  5
2F5
100
AcDbEntity
  8
ASSI
100
AcDbLine
 62
7
  6
CONTINUOUS
 10
-6.7849933598
 20
23.2450661223
 11
-4.7931951058
 21
22.0950267735
  0
LINE
  5
2F6
100
AcDbEntity
  8
ASSI
100
AcDbLine
 62
7
  6
CONTINUOUS
 10
-1.673505464
 20
20.2937570732
 11
3.1264008435
 21
17.5223513282
  0
LINE
  5
2F7
100
AcDbEntity
  8
ASSI
100
AcDbLine
 62
7
  6
CONTINUOUS
 10
6.2460904853
 20
15.7210816279
 11
8.2378887393
 21
14.5710422792
  0
LINE
  5
2F8
100
AcDbEntity
  8
ASSI
100
AcDbLine
 62
7
  6
CONTINUOUS
 10
-1.673505464
 20
20.2937570732
 11
-2.3462122848
 21
20.1638745895
  0
LWPOLYLINE
  5
2F9
100
AcDbEntity
  8
ASSI
100
AcDbPolyline
 62
253
  6
CONTINUOUS
 90
55
 70
0
 10
6.1421243041
 20
-22.3380967944
 10
6.13170073
 20
-22.3452816042
 10
6.1210096122
 20
-22.3522897202
 10
6.1100596033
 20
-22.3591154704
 10
6.0988595655
 20
-22.3657533306
 10
6.0874185632
 20
-22.3721979286
 10
6.0757458559
 20
-22.3784440486
 10
6.0638508908
 20
-22.3844866355
 10
6.0517432946
 20
-22.3903207988
 10
6.0394328665
 20
-22.3959418169
 10
6.0269295695
 20
-22.4013451403
 10
6.0142435229
 20
-22.4065263962
 10
6.0013849939
 20
-22.4114813911
 10
5.9883643892
 20
-22.4162061149
 10
5.9751922468
 20
-22.4206967437
 10
5.9618792271
 20
-22.4249496431
 10
5.9484361049
 20
-22.4289613711
 10
5.93487376
 20
-22.432728681
 10
5.9212031687
 20
-22.4362485237
 10
5.907435395
 20
-22.4395180506
 10
5.8935815816
 20
-22.4425346155
 10
5.8796529407
 20
-22.4452957771
 10
5.8656607451
 20
-22.4477993007
 10
5.8516163192
 20
-22.45004316
 10
5.8375310293
 20
-22.4520255391
 10
5.8234162752
 20
-22.4537448336
 10
5.8092834803
 20
-22.455199652
 10
5.7951440826
 20
-22.456388817
 10
5.7810095255
 20
-22.457311366
 10
5.7668912485
 20
-22.4579665524
 10
5.7528006779
 20
-22.458353846
 10
5.7387492176
 20
-22.4584729333
 10
5.7247482398
 20
-22.4583237179
 10
5.7108090758
 20
-22.4579063207
 10
5.696943007
 20
-22.4572210794
 10
5.6831612557
 20
-22.4562685485
 10
5.6694749756
 20
-22.4550494991
 10
5.6558952436
 20
-22.4535649177
 10
5.64243305
 20
-22.4518160058
 10
5.6290992901
 20
-22.4498041789
 10
5.6159047554
 20
-22.4475310652
 10
5.6028601245
 20
-22.4449985044
 10
5.5899759548
 20
-22.4422085461
 10
5.5772626737
 20
-22.4391634484
 10
5.5647305705
 20
-22.4358656757
 10
5.5523897878
 20
-22.432317897
 10
5.5402503133
 20
-22.4285229836
 10
5.5283219718
 20
-22.4244840069
 10
5.5166144171
 20
-22.4202042356
 10
5.5051371246
 20
-22.4156871336
 10
5.4938993832
 20
-22.4109363566
 10
5.4829102877
 20
-22.4059557496
 10
5.4721787321
 20
-22.4007493434
 10
5.4617134016
 20
-22.3953213519
 10
5.4515227661
 20
-22.389676168
  0
LINE
  5
2FA
100
AcDbEntity
  8
ASSI
100
AcDbLine
 62
253
  6
CONTINUOUS
 10
6.4847853384
 20
-22.5004154565
 11
8.6228628977
 21
-21.4742428848
  0
LINE
  5
2FB
100
AcDbEntity
  8
ASSI
100
AcDbLine
 62
7
  6
CONTINUOUS
 10
6.360133759
 20
-22.7400483621
 11
8.4846678192
 21
-21.720376007
  0
ELLIPSE
  5
2FC
100
AcDbEntity
  8
ASSI
100
AcDbEllipse
 62
7
  6
CONTINUOUS
 10
8.99727431
 20
-3.6348744181
 30
0.0
 11
-0.1251346745
 21
0.2164781009
 31
0.0
 40
0.577507303
 41
-2.3566621664
 42
-0.7861703913
  0
ELLIPSE
  5
2FD
100
AcDbEntity
  8
ASSI
100
AcDbEllipse
 62
7
  6
CONTINUOUS
 10
8.2691522837
 20
-21.2692065203
 30
0.0
 11
-0.2149783503
 21
0.4514263066
 31
0.0
 40
0.6262155472
 41
-3.1396910161
 42
-2.3109372224
  0
ELLIPSE
  5
2FE
100
AcDbEntity
  8
0
100
AcDbEllipse
 62
253
  6
CONTINUOUS
 10
66.8286915184
 20
25.794989609
 30
0.0
 11
130.4585904899
 21
25.7419740786
 31
0.0
 40
0.2093763302
 41
-2.1854924533
 42
-2.175734608
  0
ELLIPSE
  5
2FF
100
AcDbEntity
  8
0
100
AcDbEllipse
 62
253
  6
CONTINUOUS
 10
68.0393710511
 20
25.0959584203
 30
0.0
 11
130.496963633
 21
25.7149018293
 31
0.0
 40
0.2094559865
 41
-2.1852894205
 42
-2.1755276496
  0
ELLIPSE
  5
300
100
AcDbEntity
  8
0
100
AcDbEllipse
 62
253
  6
CONTINUOUS
 10
56.1834211874
 20
31.9414352816
 30
0.0
 11
-118.6512038094
 21
136.0031643609
 31
0.0
 40
0.4007729257
 41
1.5320483293
 42
1.5418061053
  0
ELLIPSE
  5
301
100
AcDbEntity
  8
0
100
AcDbEllipse
 62
253
  6
CONTINUOUS
 10
54.9758317009
 20
32.6386823165
 30
0.0
 11
-118.6440159377
 21
135.9992486696
 31
0.0
 40
0.4007911158
 41
1.5320512967
 42
1.5418020086
  0
ELLIPSE
  5
302
100
AcDbEntity
  8
ASSI
100
AcDbEllipse
 62
7
  6
CONTINUOUS
 10
-6.7545909222
 20
22.85618773
 30
0.0
 11
-0.2807337341
 21
0.4137505634
 31
0.0
 40
0.5254492115
 41
-0.8261225424
 42
0.0012090728
  0
ELLIPSE
  5
303
100
AcDbEntity
  8
ASSI
100
AcDbEllipse
 62
7
  6
CONTINUOUS
 10
8.99727431
 20
-3.0633296794
 30
0.0
 11
-0.1251726487
 21
0.2165441215
 31
0.0
 40
0.5771556487
 41
-3.1634096711
 42
-2.3569659634
  0
ELLIPSE
  5
304
100
AcDbEntity
  8
ASSI
100
AcDbEllipse
 62
7
  6
CONTINUOUS
 10
5.5216198554
 20
15.7070207768
 30
0.0
 11
0.1999154856
 21
0.0095814127
 31
0.0
 40
0.6067642562
 41
-2.385266879
 42
-1.3380693278
  0
ELLIPSE
  5
305
100
AcDbEntity
  8
ASSI
100
AcDbEllipse
 62
7
  6
CONTINUOUS
 10
-2.3979760939
 20
20.2796962221
 30
0.0
 11
0.1999154856
 21
0.0095814127
 31
0.0
 40
0.6067642562
 41
-2.385266879
 42
-1.3380693278
  0
ELLIPSE
  5
306
100
AcDbEntity
  8
ASSI
100
AcDbEllipse
 62
7
  6
CONTINUOUS
 10
8.2691522837
 20
14.1816666947
 30
0.0
 11
-0.2810161013
 21
0.4142924366
 31
0.0
 40
0.524175859
 41
-2.3937039903
 42
-0.8247341631
  0
ELLIPSE
  5
307
100
AcDbEntity
  8
ASSI
100
AcDbEllipse
 62
7
  6
CONTINUOUS
 10
-4.7802611899
 20
21.6551977795
 30
0.0
 11
0.1999154856
 21
0.0095814127
 31
0.0
 40
0.6067642562
 41
2.850720877
 42
3.8979184282
  0
ELLIPSE
  5
308
100
AcDbEntity
  8
ASSI
100
AcDbEllipse
 62
7
  6
CONTINUOUS
 10
3.1393347594
 20
17.0825223343
 30
0.0
 11
0.1999154856
 21
0.0095814127
 31
0.0
 40
0.6067642562
 41
2.850720877
 42
3.8979184282
  0
ELLIPSE
  5
309
100
AcDbEntity
  8
0
100
AcDbEllipse
 62
253
  6
CONTINUOUS
 10
59.2524760864
 20
42.8900083597
 30
0.0
 11
78.2500568582
 21
58.5732507635
 31
0.0
 40
0.1340744409
 41
2.3424893463
 42
2.3454421969
  0
ELLIPSE
  5
30A
100
AcDbEntity
  8
0
100
AcDbEllipse
 62
253
  6
CONTINUOUS
 10
62.9407495666
 20
40.7604454771
 30
0.0
 11
-26.770333507
 21
101.1991090521
 31
0.0
 40
0.6892478078
 41
-4.6029842167
 42
-4.5900113759
  0
ELLIPSE
  5
30B
100
AcDbEntity
  8
0
100
AcDbEllipse
 62
253
  6
CONTINUOUS
 10
62.5277300615
 20
40.998917763
 30
0.0
 11
-28.9659985268
 21
101.5890047305
 31
0.0
 40
0.6846038973
 41
-4.6047261973
 42
-4.5941353056
  0
ELLIPSE
  5
30C
100
AcDbEntity
  8
0
100
AcDbEllipse
 62
253
  6
CONTINUOUS
 10
59.2401095131
 20
42.8971486641
 30
0.0
 11
78.3690907316
 21
58.5073197486
 31
0.0
 40
0.1325046824
 41
2.3491228629
 42
2.3522376909
  0
ELLIPSE
  5
30D
100
AcDbEntity
  8
0
100
AcDbEllipse
 62
253
  6
CONTINUOUS
 10
76.5668182331
 20
32.8929242038
 30
0.0
 11
248.3187959761
 21
-211.0798576117
 31
0.0
 40
0.2129835173
 41
-1.70590568
 42
-1.7024227018
  0
ELLIPSE
  5
30E
100
AcDbEntity
  8
0
100
AcDbEllipse
 62
253
  6
CONTINUOUS
 10
64.6036708567
 20
39.8002955655
 30
0.0
 11
-2.7759855406
 21
96.6572512959
 31
0.0
 40
0.7171148452
 41
-4.4140146749
 42
-4.400567216
  0
ENDSEC
  0
SECTION
  2
OBJECTS
  0
DICTIONARY
  5
C
100
AcDbDictionary
280
0
281
1
  3
ACAD_GROUP
350
D
  3
ACAD_MLINESTYLE
350
17
  3
ACAD_LAYOUT
350
1A
  3
ACAD_PLOTSETTINGS
350
19
  3
ACAD_PLOTSTYLENAME
350
E
  0
DICTIONARY
  5
D
102
{ACAD_REACTORS
330
C
102
}
100
AcDbDictionary
280
0
281
1
  0
ACDBDICTIONARYWDFLT
  5
E
102
{ACAD_REACTORS
330
C
102
}
100
AcDbDictionary
281
1
  3
Normal
350
F
100
AcDbDictionaryWithDefault
340
F
  0
DICTIONARY
  5
17
102
{ACAD_REACTORS
330
C
102
}
100
AcDbDictionary
280
0
281
1
  3
Standard
350
18
  0
DICTIONARY
  5
19
102
{ACAD_REACTORS
330
C
102
}
100
AcDbDictionary
281
1
  0
DICTIONARY
  5
1A
102
{ACAD_REACTORS
330
C
102
}
100
AcDbDictionary
281
1
  3
Model
350
30F
  3
Layout1
350
310
  0
ACDBPLACEHOLDER
  5
F
102
{ACAD_REACTORS
330
E
102
}
  0
MLINESTYLE
  5
18
102
{ACAD_REACTORS
330
17
102
}
100
AcDbMlineStyle
  2
STANDARD
 70
0
  3

 62
256
 51
90.0
 52
90.0
 71
2
 49
0.5
 62
256
  6
BYLAYER
 49
-0.5
 62
256
  6
BYLAYER
  0
LAYOUT
  5
30F
102
{ACAD_REACTORS
330
1A
102
}
100
AcDbPlotSettings
  1

  2
none_device
  4
ISO_A4_(297.00_x_210.00_MM)
  6

 40
0.0
 41
0.0
 42
0.0
 43
0.0
 44
297.0
 45
210.0
 46
0.0
 47
0.0
 48
0.0
 49
0.0
140
0.0
141
0.0
142
1.0
143
1.0
 70
1024
 72
1
 73
0
 74
0
  7

 75
0
147
1.0
148
0.0
149
0.0
100
AcDbLayout
  1
Model
 70
0
 71
0
 10
0.0
 20
0.0
 11
297.0
 21
210.0
 12
0.0
 22
0.0
 32
0.0
 14
0.0
 24
0.0
 34
0.0
 15
0.0
 25
0.0
 35
0.0
146
0.0
 13
0.0
 23
0.0
 33
0.0
 16
1.0
 26
0.0
 36
0.0
 17
0.0
 27
1.0
 37
0.0
 76
0
330
219
345
0
346
0
  0
LAYOUT
  5
310
102
{ACAD_REACTORS
330
1A
102
}
100
AcDbPlotSettings
  1

  2
none_device
  4
ISO_A4_(297.00_x_210.00_MM)
  6

 40
0.0
 41
0.0
 42
0.0
 43
0.0
 44
297.0
 45
210.0
 46
0.0
 47
0.0
 48
0.0
 49
0.0
140
0.0
141
0.0
142
1.0
143
1.0
 70
0
 72
1
 73
0
 74
0
  7

 75
0
147
1.0
148
0.0
149
0.0
100
AcDbLayout
  1
Layout1
 70
0
 71
1
 10
0.0
 20
0.0
 11
297.0
 21
210.0
 12
0.0
 22
0.0
 32
0.0
 14
0.0
 24
0.0
 34
0.0
 15
0.0
 25
0.0
 35
0.0
146
0.0
 13
0.0
 23
0.0
 33
0.0
 16
1.0
 26
0.0
 36
0.0
 17
0.0
 27
1.0
 37
0.0
 76
0
330
21A
345
0
346
0
  0
ENDSEC
  0
EOF
