  0
SECTION
  2
HEADER
  9
$ACADVER
  1
AC1021
  9
$DWGCODEPAGE
  3
ANSI_1252
  9
$EXTMAX
 10
297.0
 20
210.0
 30
0.0
  9
$EXTMIN
 10
0.0
 20
0.0
 30
0.0
  9
$LIMMIN
 10
0.0
 20
0.0
  9
$LIMMAX
 10
297.0
 20
210.0
  9
$VIEWCTR
 10
148.5
 20
105.0
  9
$VIEWSIZE
 40
210.0
  9
$CLAYER
  8
0
  9
$LTSCALE
 40
16.335
  9
$CELTYPE
  6
BYLAYER
  9
$DIMSCALE
 40
1.0
  9
$DIMASZ
 40
3.0
  9
$DIMEXO
 40
0.5
  9
$DIMDLI
 40
11.286
  9
$DIMEXE
 40
1.5
  9
$DIMCEN
 40
2.673
  9
$DIMLFAC
 40
1.0
  9
$DIMBLK
  1
_FILLED
  9
$DIMALT
 70
0
  9
$DIMALTF
 40
25.4
  9
$DIMTXT
 40
3.0
  9
$DIMTOL
 70
1
  9
$DIMLIM
 70
0
  9
$DIMTFAC
 40
1.0
  9
$DIMTP
 40
0.01
  9
$DIMTM
 40
0.01
  9
$DIMGAP
 40
0.625
  9
$DIMDSEP
 70
44
  9
$AUNITS
 70
0
  9
$PDMODE
 70
3
  9
$PDSIZE
 40
3.0
  9
$HANDSEED
  5
2C9
  9
$TILEMODE
 70
1
  9
$MEASUREMENT
 70
1
  9
$INSUNITS
 70
4
  0
ENDSEC
  0
SECTION
  2
CLASSES
  0
CLASS
  1
ACDBDICTIONARYWDFLT
  2
AcDbDictionaryWithDefault
  3
AutoCAD 2000
 90
0
 91
1
280
0
281
0
  0
CLASS
  1
ACDBPLACEHOLDER
  2
AcDbPlaceHolder
  3
AutoCAD 2000
 90
0
 91
1
280
0
281
0
  0
CLASS
  1
LAYOUT
  2
AcDbLayout
  3
AutoCAD 2000
 90
0
 91
0
280
0
281
0
  0
ENDSEC
  0
SECTION
  2
TABLES
  0
TABLE
  2
VPORT
  5
8
100
AcDbSymbolTable
 70
2
  0
VPORT
  5
1F4
100
AcDbSymbolTableRecord
100
AcDbViewportTableRecord
  2
*ACTIVE
 70
0
 10
0.0
 20
0.0
 11
1.0
 21
1.0
 12
148.5
 22
105.0
 13
0.0
 23
0.0
 14
1.0
 24
1.0
 15
0.0
 25
0.0
 16
0.0
 26
0.0
 36
1.0
 17
0.0
 27
0.0
 37
0.0
 40
210.0
 41
1.4142857143
 42
50.0
 43
0.0
 44
0.0
 50
0.0
 51
0.0
 71
0
 72
100
 73
1
 74
1
 75
0
 76
0
 77
0
 78
0
  0
ENDTAB
  0
TABLE
  2
LTYPE
  5
5
100
AcDbSymbolTable
 70
6
  0
LTYPE
  5
14
100
AcDbSymbolTableRecord
100
AcDbLinetypeTableRecord
  2
BYBLOCK
 70
0
  3

 72
65
 73
0
 40
0.0
  0
LTYPE
  5
15
100
AcDbSymbolTableRecord
100
AcDbLinetypeTableRecord
  2
BYLAYER
 70
0
  3

 72
65
 73
0
 40
0.0
  0
LTYPE
  5
16
100
AcDbSymbolTableRecord
100
AcDbLinetypeTableRecord
  2
CONTINUOUS
 70
64
  3
Solid line
 72
65
 73
0
 40
0.0
  0
LTYPE
  5
1F5
100
AcDbSymbolTableRecord
100
AcDbLinetypeTableRecord
  2
CENTER
 70
64
  3
____ _ ____ _ ____ _ ____ _ ____ _ ____ _ ____
 72
65
 73
4
 40
0.6
 49
0.375
 74
0
 49
-0.075
 74
0
 49
0.075
 74
0
 49
-0.075
 74
0
  0
LTYPE
  5
1F6
100
AcDbSymbolTableRecord
100
AcDbLinetypeTableRecord
  2
HIDDEN
 70
64
  3
- - - - - - - - - - - - - - - - - - - -
 72
65
 73
2
 40
0.2
 49
0.1
 74
0
 49
-0.1
 74
0
  0
LTYPE
  5
1F7
100
AcDbSymbolTableRecord
100
AcDbLinetypeTableRecord
  2
PHANTOM
 70
64
  3
_____ _ _ _____ _ _ _____ _ _ _____
 72
65
 73
6
 40
0.8
 49
0.45
 74
0
 49
-0.05
 74
0
 49
0.1
 74
0
 49
-0.05
 74
0
 49
0.1
 74
0
 49
-0.05
 74
0
  0
LTYPE
  5
1F8
100
AcDbSymbolTableRecord
100
AcDbLinetypeTableRecord
  2
DOT
 70
64
  3
. . . . . . . . . . . . . . . . . . . .
 72
65
 73
2
 40
0.2
 49
0.1
 74
0
 49
-0.1
 74
0
  0
LTYPE
  5
1F9
100
AcDbSymbolTableRecord
100
AcDbLinetypeTableRecord
  2
DASHED
 70
64
  3
- - - - - - - - - - - - - - - - - - - -
 72
65
 73
2
 40
0.2
 49
0.1
 74
0
 49
-0.1
 74
0
  0
ENDTAB
  0
TABLE
  2
LAYER
  5
2
100
AcDbSymbolTable
 70
36
  0
LAYER
  5
10
100
AcDbSymbolTableRecord
100
AcDbLayerTableRecord
  2
0
 70
0
 62
7
  6
CONTINUOUS
370
-3
390
F
  0
LAYER
  5
1FA
100
AcDbSymbolTableRecord
100
AcDbLayerTableRecord
  2
DEFAULT_1
 70
0
 62
7
  6
CENTER
370
-3
390
F
  0
LAYER
  5
1FB
100
AcDbSymbolTableRecord
100
AcDbLayerTableRecord
  2
DEFAULT_2
 70
0
 62
7
  6
HIDDEN
370
-3
390
F
  0
LAYER
  5
1FC
100
AcDbSymbolTableRecord
100
AcDbLayerTableRecord
  2
DEFAULT_3
 70
0
 62
7
  6
PHANTOM
370
-3
390
F
  0
LAYER
  5
1FD
100
AcDbSymbolTableRecord
100
AcDbLayerTableRecord
  2
ASSI
 70
0
 62
7
  6
CONTINUOUS
370
-3
390
F
  0
LAYER
  5
1FE
100
AcDbSymbolTableRecord
100
AcDbLayerTableRecord
  2
COLOR9
 70
0
 62
7
  6
CONTINUOUS
370
-3
390
F
  0
LAYER
  5
1FF
100
AcDbSymbolTableRecord
100
AcDbLayerTableRecord
  2
COORDINATE
 70
0
 62
7
  6
CONTINUOUS
370
-3
390
F
  0
LAYER
  5
200
100
AcDbSymbolTableRecord
100
AcDbLayerTableRecord
  2
COORD_ORIGINE
 70
0
 62
7
  6
CONTINUOUS
370
-3
390
F
  0
LAYER
  5
201
100
AcDbSymbolTableRecord
100
AcDbLayerTableRecord
  2
COPY_PUBLISH
 70
0
 62
7
  6
CONTINUOUS
370
-3
390
F
  0
LAYER
  5
202
100
AcDbSymbolTableRecord
100
AcDbLayerTableRecord
  2
COSMETICI
 70
0
 62
7
  6
CONTINUOUS
370
-3
390
F
  0
LAYER
  5
203
100
AcDbSymbolTableRecord
100
AcDbLayerTableRecord
  2
CURVE
 70
0
 62
7
  6
CONTINUOUS
370
-3
390
F
  0
LAYER
  5
204
100
AcDbSymbolTableRecord
100
AcDbLayerTableRecord
  2
DRAFT
 70
0
 62
7
  6
CONTINUOUS
370
-3
390
F
  0
LAYER
  5
205
100
AcDbSymbolTableRecord
100
AcDbLayerTableRecord
  2
IGES
 70
0
 62
7
  6
CONTINUOUS
370
-3
390
F
  0
LAYER
  5
206
100
AcDbSymbolTableRecord
100
AcDbLayerTableRecord
  2
IGS_SCRITTE
 70
0
 62
7
  6
CONTINUOUS
370
-3
390
F
  0
LAYER
  5
207
100
AcDbSymbolTableRecord
100
AcDbLayerTableRecord
  2
IMPORT_IGES
 70
0
 62
7
  6
CONTINUOUS
370
-3
390
F
  0
LAYER
  5
208
100
AcDbSymbolTableRecord
100
AcDbLayerTableRecord
  2
INTF_YELLOW
 70
0
 62
7
  6
CONTINUOUS
370
-3
390
F
  0
LAYER
  5
209
100
AcDbSymbolTableRecord
100
AcDbLayerTableRecord
  2
NOTE
 70
0
 62
7
  6
CONTINUOUS
370
-3
390
F
  0
LAYER
  5
20A
100
AcDbSymbolTableRecord
100
AcDbLayerTableRecord
  2
PIANI
 70
0
 62
7
  6
CONTINUOUS
370
-3
390
F
  0
LAYER
  5
20B
100
AcDbSymbolTableRecord
100
AcDbLayerTableRecord
  2
PIANI_ORIGINE
 70
0
 62
7
  6
CONTINUOUS
370
-3
390
F
  0
LAYER
  5
20C
100
AcDbSymbolTableRecord
100
AcDbLayerTableRecord
  2
PIANI_RIFERIMENTO
 70
0
 62
7
  6
CONTINUOUS
370
-3
390
F
  0
LAYER
  5
20D
100
AcDbSymbolTableRecord
100
AcDbLayerTableRecord
  2
PUNTI
 70
0
 62
7
  6
CONTINUOUS
370
-3
390
F
  0
LAYER
  5
20E
100
AcDbSymbolTableRecord
100
AcDbLayerTableRecord
  2
RACCORDO
 70
0
 62
7
  6
CONTINUOUS
370
-3
390
F
  0
LAYER
  5
20F
100
AcDbSymbolTableRecord
100
AcDbLayerTableRecord
  2
SIMBOLI
 70
0
 62
7
  6
CONTINUOUS
370
-3
390
F
  0
LAYER
  5
210
100
AcDbSymbolTableRecord
100
AcDbLayerTableRecord
  2
SMUSSO
 70
0
 62
7
  6
CONTINUOUS
370
-3
390
F
  0
LAYER
  5
211
100
AcDbSymbolTableRecord
100
AcDbLayerTableRecord
  2
SNAPLINE
 70
0
 62
7
  6
CONTINUOUS
370
-3
390
F
  0
LAYER
  5
212
100
AcDbSymbolTableRecord
100
AcDbLayerTableRecord
  2
SOLIDO
 70
0
 62
7
  6
CONTINUOUS
370
-3
390
F
  0
LAYER
  5
213
100
AcDbSymbolTableRecord
100
AcDbLayerTableRecord
  2
SUPERFICI
 70
0
 62
7
  6
CONTINUOUS
370
-3
390
F
  0
LAYER
  5
214
100
AcDbSymbolTableRecord
100
AcDbLayerTableRecord
  2
TRASH
 70
0
 62
7
  6
CONTINUOUS
370
-3
390
F
  0
LAYER
  5
215
100
AcDbSymbolTableRecord
100
AcDbLayerTableRecord
  2
WHITE
 70
0
 62
7
  6
CONTINUOUS
370
-3
390
F
  0
ENDTAB
  0
TABLE
  2
STYLE
  5
3
100
AcDbSymbolTable
 70
1
  0
STYLE
  5
11
100
AcDbSymbolTableRecord
100
AcDbTextStyleTableRecord
  2
STANDARD
 70
0
 40
0.0
 41
0.8
 50
0.0
 71
0
 42
0.2
  3
txt
  4

  0
STYLE
  5
216
100
AcDbSymbolTableRecord
100
AcDbTextStyleTableRecord
  2
TEXTSTYLE_1
 70
0
 40
0.0
 41
0.8
 50
0.0
 71
0
 42
0.2
  3
gdt
  4

  0
ENDTAB
  0
TABLE
  2
VIEW
  5
6
100
AcDbSymbolTable
 70
0
  0
ENDTAB
  0
TABLE
  2
UCS
  5
7
100
AcDbSymbolTable
 70
0
  0
ENDTAB
  0
TABLE
  2
APPID
  5
9
100
AcDbSymbolTable
 70
1
  0
APPID
  5
217
100
AcDbSymbolTableRecord
100
AcDbRegAppTableRecord
  2
ACAD
 70
0
  0
ENDTAB
  0
TABLE
  2
BLOCK_RECORD
  5
1
100
AcDbSymbolTable
 70
0
  0
BLOCK_RECORD
  5
218
100
AcDbSymbolTableRecord
100
AcDbBlockTableRecord
  2
*Model_Space
  0
BLOCK_RECORD
  5
219
100
AcDbSymbolTableRecord
100
AcDbBlockTableRecord
  2
*Paper_Space
  0
ENDTAB
  0
TABLE
  2
DIMSTYLE
  5
A
100
AcDbSymbolTable
 70
1
100
AcDbDimStyleTable
 71
0
  0
DIMSTYLE
105
21A
100
AcDbSymbolTableRecord
100
AcDbDimStyleTableRecord
  2
STANDARD
 70
0
  3

  4

 40
1.0
 41
3.0
 42
0.5
 43
0.38
 44
1.5
 45
0.0
 46
0.0
 47
0.01
 48
0.01
140
3.0
141
0.09
142
0.0
143
25.4
144
1.0
145
0.0
146
1.0
147
0.625
 71
1.0
 72
0.0
 73
0
 74
0
 75
0
 76
0
 77
1
 78
8
170
0
171
1
172
0
173
0
174
0
175
0
176
0
177
0
178
0
270
2
271
2
272
2
273
2
274
2
275
0
280
0
281
0
282
0
283
1
284
8
285
0
286
0
287
3
288
0
340
11
278
44
  0
ENDTAB
  0
ENDSEC
  0
SECTION
  2
BLOCKS
  0
BLOCK
  5
20
100
AcDbEntity
  8
0
100
AcDbBlockBegin
  2
*Model_Space
 70
0
 10
0.0
 20
0.0
 30
0.0
  3
*Model_Space
  1

  0
ENDBLK
  5
21
100
AcDbEntity
  8
0
100
AcDbBlockEnd
  0
BLOCK
  5
1C
100
AcDbEntity
  8
0
100
AcDbBlockBegin
  2
*Paper_Space
 70
0
 10
0.0
 20
0.0
 30
0.0
  3
*Paper_Space
  1

  0
ENDBLK
  5
1D
100
AcDbEntity
  8
0
100
AcDbBlockEnd
  0
ENDSEC
  0
SECTION
  2
ENTITIES
  0
LWPOLYLINE
  5
21B
100
AcDbEntity
  8
ASSI
100
AcDbPolyline
 62
7
  6
CONTINUOUS
 90
15
 70
0
 10
-16.4124992932
 20
26.2363502848
 10
-16.44739904
 20
26.2114706539
 10
-16.5084831145
 20
26.1623974804
 10
-16.5660451036
 20
26.1091021328
 10
-16.6202638726
 20
26.0518088458
 10
-16.6711173237
 20
25.9908144241
 10
-16.7183143086
 20
25.9267050102
 10
-16.7618174995
 20
25.8597250458
 10
-16.8015505571
 20
25.7900661749
 10
-16.8371442944
 20
25.7184045734
 10
-16.8684921871
 20
25.6449308497
 10
-16.8954291706
 20
25.5698205675
 10
-16.9176159827
 20
25.4936792237
 10
-16.9348399214
 20
25.4167247714
 10
-16.9471828359
 20
25.3362444663
  0
LINE
  5
21C
100
AcDbEntity
  8
ASSI
100
AcDbLine
 62
7
  6
CONTINUOUS
 10
-16.4126812196
 20
26.2362264464
 11
-14.4300571312
 21
27.5881287044
  0
LINE
  5
21D
100
AcDbEntity
  8
ASSI
100
AcDbLine
 62
253
  6
CONTINUOUS
 10
-16.1495002741
 20
26.2201156902
 11
-14.1794631815
 21
27.5634351875
  0
LWPOLYLINE
  5
21E
100
AcDbEntity
  8
ASSI
100
AcDbPolyline
 62
253
  6
CONTINUOUS
 90
27
 70
0
 10
-16.4124993071
 20
26.2363503051
 10
-16.4102907227
 20
26.2378252335
 10
-16.4024055385
 20
26.2426777603
 10
-16.3942303985
 20
26.2470820623
 10
-16.3857740362
 20
26.2510334342
 10
-16.3770454862
 20
26.2545276545
 10
-16.3680540732
 20
26.2575609903
 10
-16.3588094032
 20
26.260130201
 10
-16.3493213527
 20
26.2622325418
 10
-16.339600058
 20
26.2638657666
 10
-16.3296559047
 20
26.2650281307
 10
-16.3194995166
 20
26.2657183922
 10
-16.3091417441
 20
26.2659358137
 10
-16.2985936527
 20
26.265680163
 10
-16.2878665115
 20
26.2649517131
 10
-16.2769717805
 20
26.2637512423
 10
-16.2659210991
 20
26.2620800331
 10
-16.254726273
 20
26.2599398709
 10
-16.2433992622
 20
26.2573330421
 10
-16.2319521676
 20
26.2542623317
 10
-16.2203972186
 20
26.2507310202
 10
-16.2087467598
 20
26.2467428803
 10
-16.1970132378
 20
26.2423021726
 10
-16.185209188
 20
26.2374136414
 10
-16.173347221
 20
26.2320825091
 10
-16.1614400094
 20
26.2263144713
 10
-16.1495002741
 20
26.2201156902
  0
LINE
  5
21F
100
AcDbEntity
  8
ASSI
100
AcDbLine
 62
7
  6
CONTINUOUS
 10
-16.9471519335
 20
25.3365115107
 11
-16.9471828359
 21
25.3362444663
  0
LWPOLYLINE
  5
220
100
AcDbEntity
  8
ASSI
100
AcDbPolyline
 62
253
  6
CONTINUOUS
 90
52
 70
0
 10
-16.8001356672
 20
25.1374650389
 10
-16.7971090445
 20
25.160894988
 10
-16.7935897521
 20
25.1845161055
 10
-16.7895803733
 20
25.2083114049
 10
-16.7850839279
 20
25.2322637385
 10
-16.7801036408
 20
25.2563559277
 10
-16.7746429239
 20
25.2805707786
 10
-16.768705758
 20
25.3048910306
 10
-16.7622964914
 20
25.3292990802
 10
-16.7554196053
 20
25.3537771121
 10
-16.7480801802
 20
25.3783074773
 10
-16.7402835556
 20
25.4028726344
 10
-16.7320351127
 20
25.4274548783
 10
-16.7233408945
 20
25.4520366129
 10
-16.7142072613
 20
25.4766001511
 10
-16.7046405548
 20
25.5011276551
 10
-16.6946477985
 20
25.5256015361
 10
-16.6842362941
 20
25.5500042337
 10
-16.6734132701
 20
25.5743180145
 10
-16.662186668
 20
25.5985254578
 10
-16.650564698
 20
25.6226091967
 10
-16.6385554353
 20
25.6465516972
 10
-16.6261677034
 20
25.6703357907
 10
-16.6134105544
 20
25.6939444465
 10
-16.6002928227
 20
25.7173605116
 10
-16.5868241143
 20
25.7405672501
 10
-16.5730142996
 20
25.7635480043
 10
-16.5588729951
 20
25.7862859689
 10
-16.5444105934
 20
25.8087648476
 10
-16.5296376646
 20
25.8309685721
 10
-16.5145644449
 20
25.8528809613
 10
-16.4992019778
 20
25.8744863622
 10
-16.4835615229
 20
25.8957692947
 10
-16.4676539582
 20
25.9167141706
 10
-16.4514909527
 20
25.9373060204
 10
-16.4350843429
 20
25.9575301198
 10
-16.4184455412
 20
25.9773716347
 10
-16.4015867491
 20
25.9968164003
 10
-16.3845203194
 20
26.0158505194
 10
-16.3672581348
 20
26.0344599937
 10
-16.3498128832
 20
26.0526315171
 10
-16.3321973219
 20
26.0703521519
 10
-16.3144236376
 20
26.087608924
 10
-16.2965048103
 20
26.1043895854
 10
-16.2784540243
 20
26.1206821098
 10
-16.2602839346
 20
26.1364743766
 10
-16.2420079512
 20
26.1517550718
 10
-16.2236393886
 20
26.1665134038
 10
-16.205190875
 20
26.1807385873
 10
-16.1866756552
 20
26.1944204019
 10
-16.1681075837
 20
26.2075492133
 10
-16.1495002741
 20
26.2201156902
  0
LINE
  5
221
100
AcDbEntity
  8
ASSI
100
AcDbLine
 62
7
  6
CONTINUOUS
 10
-12.2230202666
 20
26.4338095684
 11
-12.403271516
 21
26.0195894096
  0
LWPOLYLINE
  5
222
100
AcDbEntity
  8
ASSI
100
AcDbPolyline
 62
253
  6
CONTINUOUS
 90
25
 70
0
 10
-17.6219257135
 20
-0.1507843504
 10
-17.6213891902
 20
-0.160191348
 10
-17.620341451
 20
-0.1695780635
 10
-17.6187835685
 20
-0.1789348869
 10
-17.6167171377
 20
-0.188252239
 10
-17.614144274
 20
-0.1975205808
 10
-17.6110676116
 20
-0.2067304238
 10
-17.6074903002
 20
-0.2158723391
 10
-17.6034160023
 20
-0.2249369675
 10
-17.5988488889
 20
-0.2339150287
 10
-17.5937936357
 20
-0.2427973314
 10
-17.5882554182
 20
-0.2515747821
 10
-17.5822399063
 20
-0.2602383946
 10
-17.5757532586
 20
-0.2687792993
 10
-17.5688021157
 20
-0.2771887523
 10
-17.5613935942
 20
-0.2854581442
 10
-17.5535352788
 20
-0.293579009
 10
-17.5452352145
 20
-0.3015430329
 10
-17.5365018987
 20
-0.3093420623
 10
-17.5273442724
 20
-0.3169681129
 10
-17.517771711
 20
-0.3244133774
 10
-17.5077940145
 20
-0.3316702334
 10
-17.4974213979
 20
-0.3387312516
 10
-17.4866644803
 20
-0.3455892031
 10
-17.4755342745
 20
-0.3522370669
  0
LWPOLYLINE
  5
223
100
AcDbEntity
  8
ASSI
100
AcDbPolyline
 62
7
  6
CONTINUOUS
 90
10
 70
0
 10
-17.6219803939
 20
-0.148399364
 10
-17.5998500026
 20
-1.1550435198
 10
-17.5634921423
 20
-2.2129540957
 10
-17.51385139
 20
-3.2620125204
 10
-17.4509354476
 20
-4.3019954057
 10
-17.3747545864
 20
-5.332680514
 10
-17.2853213028
 20
-6.353853221
 10
-17.1826511216
 20
-7.3652954593
 10
-17.0667620582
 20
-8.366791287
 10
-16.9459275618
 20
-9.297945148
  0
LINE
  5
224
100
AcDbEntity
  8
ASSI
100
AcDbLine
 62
7
  6
CONTINUOUS
 10
-17.6449482497
 20
1.4513872058
 11
-17.6219803899
 21
-0.1483996286
  0
LINE
  5
225
100
AcDbEntity
  8
ASSI
100
AcDbLine
 62
7
  6
CONTINUOUS
 10
-17.6631877491
 20
3.1200085624
 11
-17.6449482497
 21
1.4513872058
  0
LINE
  5
226
100
AcDbEntity
  8
ASSI
100
AcDbLine
 62
7
  6
CONTINUOUS
 10
-17.675648869
 20
4.7922724361
 11
-17.6631877491
 21
3.1200085624
  0
LWPOLYLINE
  5
227
100
AcDbEntity
  8
ASSI
100
AcDbPolyline
 62
7
  6
CONTINUOUS
 90
3
 70
0
 10
-17.6834688796
 20
7.2459949036
 10
-17.682331478
 20
6.4681523509
 10
-17.675648869
 20
4.7922724361
  0
LINE
  5
228
100
AcDbEntity
  8
ASSI
100
AcDbLine
 62
7
  6
CONTINUOUS
 10
-17.6797341653
 20
9.5100125383
 11
-17.6834688803
 21
7.8946015487
  0
LINE
  5
229
100
AcDbEntity
  8
ASSI
100
AcDbLine
 62
253
  6
CONTINUOUS
 10
-17.5370200596
 20
7.6909267817
 11
-17.5331308155
 21
9.344932412
  0
LINE
  5
22A
100
AcDbEntity
  8
ASSI
100
AcDbLine
 62
7
  6
CONTINUOUS
 10
-17.6701812426
 20
11.1958924369
 11
-17.6797341653
 21
9.5100125383
  0
LINE
  5
22B
100
AcDbEntity
  8
ASSI
100
AcDbLine
 62
253
  6
CONTINUOUS
 10
-17.5331308155
 20
9.344932412
 11
-17.5236558403
 21
11.0023451433
  0
LINE
  5
22C
100
AcDbEntity
  8
ASSI
100
AcDbLine
 62
7
  6
CONTINUOUS
 10
-17.6548501846
 20
12.8852775679
 11
-17.6701812426
 21
11.1958924369
  0
LINE
  5
22D
100
AcDbEntity
  8
ASSI
100
AcDbLine
 62
253
  6
CONTINUOUS
 10
-17.5236558403
 20
11.0023451433
 11
-17.508595603
 21
12.6631458064
  0
LINE
  5
22E
100
AcDbEntity
  8
ASSI
100
AcDbLine
 62
253
  6
CONTINUOUS
 10
-17.508595603
 20
12.6631458064
 11
-17.4879508394
 21
14.3273394722
  0
LWPOLYLINE
  5
22F
100
AcDbEntity
  8
ASSI
100
AcDbPolyline
 62
7
  6
CONTINUOUS
 90
3
 70
0
 10
-17.6219828705
 20
15.3649054874
 10
-17.6337413102
 20
14.5781408802
 10
-17.6548501846
 20
12.8852775679
  0
LWPOLYLINE
  5
230
100
AcDbEntity
  8
ASSI
100
AcDbPolyline
 62
253
  6
CONTINUOUS
 90
43
 70
0
 10
-17.5370219569
 20
7.0413956386
 10
-17.5369048148
 20
7.0490570673
 10
-17.5365430867
 20
7.056849428
 10
-17.5359372736
 20
7.0647619321
 10
-17.5350882142
 20
7.0727836248
 10
-17.5339970839
 20
7.0809034
 10
-17.5326653935
 20
7.0891100158
 10
-17.5310949868
 20
7.0973921101
 10
-17.5292880378
 20
7.1057382162
 10
-17.5272470485
 20
7.1141367791
 10
-17.5249748445
 20
7.1225761708
 10
-17.5224745717
 20
7.1310447069
 10
-17.5197496918
 20
7.1395306627
 10
-17.5168039773
 20
7.1480222894
 10
-17.5136415067
 20
7.1565078303
 10
-17.5102666584
 20
7.164975537
 10
-17.5066841049
 20
7.1734136861
 10
-17.5028988062
 20
7.1818105949
 10
-17.4989160031
 20
7.1901546377
 10
-17.4947412098
 20
7.1984342623
 10
-17.4903802064
 20
7.2066380055
 10
-17.4858390307
 20
7.2147545091
 10
-17.4811239699
 20
7.2227725358
 10
-17.4762415521
 20
7.2306809846
 10
-17.4711985371
 20
7.2384689062
 10
-17.4660019068
 20
7.2461255183
 10
-17.4606588561
 20
7.2536402202
 10
-17.4551767824
 20
7.2610026077
 10
-17.4495632758
 20
7.2682024877
 10
-17.443826108
 20
7.2752298918
 10
-17.4379732224
 20
7.2820750906
 10
-17.4320127221
 20
7.2887286068
 10
-17.4259528596
 20
7.2951812288
 10
-17.4198020247
 20
7.3014240227
 10
-17.4135687334
 20
7.3074483454
 10
-17.4072616156
 20
7.3132458562
 10
-17.4008894035
 20
7.3188085285
 10
-17.3944609196
 20
7.3241286606
 10
-17.3879850641
 20
7.3291988869
 10
-17.3814708028
 20
7.3340121876
 10
-17.3749271548
 20
7.3385618987
 10
-17.3683631797
 20
7.3428417211
 10
-17.3617879655
 20
7.3468457293
  0
LWPOLYLINE
  5
231
100
AcDbEntity
  8
ASSI
100
AcDbPolyline
 62
253
  6
CONTINUOUS
 90
22
 70
0
 10
-17.4879508394
 20
14.3273394722
 10
-17.4670851447
 20
15.6229400915
 10
-17.4562594531
 20
16.086581244
 10
-17.4430576324
 20
16.5516037163
 10
-17.4274802358
 20
17.0179895287
 10
-17.4095278612
 20
17.4857206406
 10
-17.389201151
 20
17.9547789518
 10
-17.3665009281
 20
18.4251463368
 10
-17.3414280909
 20
18.8968046023
 10
-17.3139835373
 20
19.3697354735
 10
-17.2841683759
 20
19.8439206713
 10
-17.2519837898
 20
20.31934187
 10
-17.2174309303
 20
20.7959806548
 10
-17.1805111898
 20
21.2738186203
 10
-17.1412260363
 20
21.7528372939
 10
-17.0995768769
 20
22.233018094
 10
-17.0555653886
 20
22.7143424745
 10
-17.009193323
 20
23.1967918429
 10
-16.9604623401
 20
23.6803474848
 10
-16.9093743248
 20
24.1649906996
 10
-16.8559313874
 20
24.6507028018
 10
-16.8001356672
 20
25.1374650389
  0
LWPOLYLINE
  5
232
100
AcDbEntity
  8
ASSI
100
AcDbPolyline
 62
253
  6
CONTINUOUS
 90
28
 70
0
 10
-16.9471828359
 20
25.3362444663
 10
-16.9475260879
 20
25.3327925443
 10
-16.9479200561
 20
25.3250792263
 10
-16.9478045581
 20
25.3173181574
 10
-16.9471797121
 20
25.3095172872
 10
-16.9460461583
 20
25.3016846059
 10
-16.9444050576
 20
25.2938281365
 10
-16.9422580911
 20
25.2859559262
 10
-16.9396074578
 20
25.2780760384
 10
-16.9364558727
 20
25.2701965444
 10
-16.9328065641
 20
25.262325515
 10
-16.9286632697
 20
25.2544710125
 10
-16.9240302335
 20
25.246641082
 10
-16.9189122012
 20
25.2388437437
 10
-16.9133144149
 20
25.2310869842
 10
-16.9072426085
 20
25.2233787488
 10
-16.9007030011
 20
25.2157269328
 10
-16.8937022914
 20
25.2081393739
 10
-16.8862476498
 20
25.2006238439
 10
-16.8783467122
 20
25.1931880409
 10
-16.8700075714
 20
25.1858395812
 10
-16.861238769
 20
25.1785859918
 10
-16.8520492868
 20
25.1714347024
 10
-16.8424485374
 20
25.164393038
 10
-16.8324463548
 20
25.1574682113
 10
-16.8220529841
 20
25.1506673153
 10
-16.8112790709
 20
25.143997316
 10
-16.800135651
 20
25.1374650454
  0
LWPOLYLINE
  5
233
100
AcDbEntity
  8
ASSI
100
AcDbPolyline
 62
7
  6
CONTINUOUS
 90
10
 70
0
 10
-16.9471519469
 20
25.3365115123
 10
-17.0683065735
 20
24.2525855198
 10
-17.1838699843
 20
23.1101489687
 10
-17.2862674731
 20
21.9738489651
 10
-17.3754750252
 20
20.8439269568
 10
-17.4514709945
 20
19.7206253538
 10
-17.5142367845
 20
18.6041805713
 10
-17.5637562397
 20
17.4948319078
 10
-17.600015855
 20
16.392815366
 10
-17.6219828739
 20
15.3649052535
  0
LWPOLYLINE
  5
234
100
AcDbEntity
  8
ASSI
100
AcDbPolyline
 62
7
  6
CONTINUOUS
 90
11
 70
0
 10
14.098120708
 20
-27.5587910657
 10
14.1628063434
 20
-27.5917704185
 10
14.2301191586
 20
-27.6175189638
 10
14.2998633058
 20
-27.6361192099
 10
14.3723206633
 20
-27.647568063
 10
14.4469221324
 20
-27.6515579019
 10
14.5228802305
 20
-27.6478678513
 10
14.6004204873
 20
-27.6362248886
 10
14.679314297
 20
-27.6162307107
 10
14.7586874534
 20
-27.5876675471
 10
14.8045467166
 20
-27.56717814
  0
LWPOLYLINE
  5
235
100
AcDbEntity
  8
ASSI
100
AcDbPolyline
 62
253
  6
CONTINUOUS
 90
23
 70
0
 10
-16.6261677034
 20
-9.8177895909
 10
-16.6385554353
 20
-9.8088188522
 10
-16.650564698
 20
-9.7992370999
 10
-16.662186668
 20
-9.7890513467
 10
-16.6734132701
 20
-9.7782687716
 10
-16.6842362941
 20
-9.7668972246
 10
-16.6946477985
 20
-9.7549449916
 10
-16.7046405548
 20
-9.7424205375
 10
-16.7142072613
 20
-9.7293329538
 10
-16.7233408945
 20
-9.715691756
 10
-16.7320351127
 20
-9.7015066481
 10
-16.7402835556
 20
-9.6867879315
 10
-16.7480801802
 20
-9.671546265
 10
-16.7554196053
 20
-9.6557924542
 10
-16.7622964914
 20
-9.6395378368
 10
-16.768705758
 20
-9.6227942327
 10
-16.7746429239
 20
-9.6055737075
 10
-16.7801036408
 20
-9.5878887963
 10
-16.7850839279
 20
-9.5697522103
 10
-16.7895803733
 20
-9.5511767706
 10
-16.7935897521
 20
-9.532175788
 10
-16.7971090445
 20
-9.5127630668
 10
-16.8001356672
 20
-9.4929526107
  0
LWPOLYLINE
  5
236
100
AcDbEntity
  8
ASSI
100
AcDbPolyline
 62
7
  6
CONTINUOUS
 90
8
 70
0
 10
-16.8553081947
 20
-9.5749977098
 10
-16.8233529298
 20
-9.6268605963
 10
-16.7877325827
 20
-9.6748284768
 10
-16.7487897937
 20
-9.718737045
 10
-16.7065014499
 20
-9.7587804567
 10
-16.6610715072
 20
-9.7948093707
 10
-16.6130185422
 20
-9.82647775
 10
-16.6039123436
 20
-9.8318227107
  0
LWPOLYLINE
  5
237
100
AcDbEntity
  8
ASSI
100
AcDbPolyline
 62
253
  6
CONTINUOUS
 90
22
 70
0
 10
-16.9444050733
 20
-9.3074983728
 10
-16.942258107
 20
-9.3178536802
 10
-16.939607474
 20
-9.328119242
 10
-16.9364558892
 20
-9.3382845433
 10
-16.9328065807
 20
-9.3483391721
 10
-16.9286632865
 20
-9.3582728295
 10
-16.9240302505
 20
-9.3680753405
 10
-16.9189122182
 20
-9.3777366646
 10
-16.913314432
 20
-9.3872469059
 10
-16.9072426257
 20
-9.3965963232
 10
-16.9007030184
 20
-9.4057753399
 10
-16.8937023086
 20
-9.4147745541
 10
-16.8862476671
 20
-9.4235847481
 10
-16.8783467294
 20
-9.4321968978
 10
-16.8700075886
 20
-9.4406021817
 10
-16.8612387861
 20
-9.4487919905
 10
-16.8520493037
 20
-9.4567579354
 10
-16.8424485542
 20
-9.4644918572
 10
-16.8324463715
 20
-9.471985834
 10
-16.8220530005
 20
-9.4792321898
 10
-16.8112790872
 20
-9.4862235024
 10
-16.800135667
 20
-9.4929526105
  0
LWPOLYLINE
  5
238
100
AcDbEntity
  8
ASSI
100
AcDbPolyline
 62
7
  6
CONTINUOUS
 90
6
 70
0
 10
-16.9458794723
 20
-9.2982947625
 10
-16.9408252245
 20
-9.3306367677
 10
-16.9263235232
 20
-9.3971922396
 10
-16.9069953543
 20
-9.4602742101
 10
-16.883227462
 20
-9.5195381669
 10
-16.8553081947
 20
-9.5749977098
  0
LINE
  5
239
100
AcDbEntity
  8
ASSI
100
AcDbLine
 62
7
  6
CONTINUOUS
 10
-16.9459275618
 20
-9.297945148
 11
-16.9458794882
 21
-9.2982947647
  0
LWPOLYLINE
  5
23A
100
AcDbEntity
  8
ASSI
100
AcDbPolyline
 62
253
  6
CONTINUOUS
 90
21
 70
0
 10
-16.8001356672
 20
-9.4929526107
 10
-16.8559313874
 20
-9.0752581438
 10
-16.9093743248
 20
-8.6557010453
 10
-16.9604623401
 20
-8.2342975975
 10
-17.009193323
 20
-7.8110641977
 10
-17.0555653886
 20
-7.3860172207
 10
-17.0995768769
 20
-6.959173018
 10
-17.1412260363
 20
-6.5305481367
 10
-17.1805111898
 20
-6.1001592089
 10
-17.2174309303
 20
-5.6680228133
 10
-17.2519837898
 20
-5.2341557042
 10
-17.2841683759
 20
-4.7985747022
 10
-17.3139835373
 20
-4.3612965827
 10
-17.3414280909
 20
-3.9223382825
 10
-17.3665009281
 20
-3.4817168232
 10
-17.389201151
 20
-3.0394492017
 10
-17.4095278612
 20
-2.5955525506
 10
-17.4274802358
 20
-2.1500440682
 10
-17.4430576324
 20
-1.7029409402
 10
-17.4562594531
 20
-1.2542604592
 10
-17.4670851447
 20
-0.8040200236
  0
LWPOLYLINE
  5
23B
100
AcDbEntity
  8
ASSI
100
AcDbPolyline
 62
253
  6
CONTINUOUS
 90
27
 70
0
 10
-17.6834689116
 20
7.8944507276
 10
-17.6832046344
 20
7.8851508828
 10
-17.6824885879
 20
7.8765063435
 10
-17.6813199829
 20
7.867876842
 10
-17.6796998781
 20
7.8592702508
 10
-17.6776297446
 20
7.8506943344
 10
-17.6751114619
 20
7.8421568994
 10
-17.6721473128
 20
7.8336657108
 10
-17.6687399839
 20
7.8252284164
 10
-17.6648925593
 20
7.8168526764
 10
-17.6606085321
 20
7.8085461237
 10
-17.6558918046
 20
7.8003162788
 10
-17.6507466728
 20
7.7921706422
 10
-17.6451777948
 20
7.7841166001
 10
-17.6391901975
 20
7.7761613861
 10
-17.6327893017
 20
7.7683122179
 10
-17.6259809176
 20
7.7605762422
 10
-17.6187712116
 20
7.7529604414
 10
-17.6111666868
 20
7.7454717002
 10
-17.6031742667
 20
7.738116858
 10
-17.5948012982
 20
7.7309026504
 10
-17.5860554587
 20
7.7238356773
 10
-17.576944623
 20
7.7169222942
 10
-17.5674769394
 20
7.7101686687
 10
-17.5576609474
 20
7.7035808976
 10
-17.5475055853
 20
7.6971649949
 10
-17.5370200593
 20
7.6909267825
  0
LWPOLYLINE
  5
23C
100
AcDbEntity
  8
ASSI
100
AcDbPolyline
 62
7
  6
CONTINUOUS
 90
12
 70
0
 10
-17.6834688407
 20
7.8944522044
 10
-17.6832576821
 20
7.8825433215
 10
-17.6797806191
 20
7.8450118227
 10
-17.6719839596
 20
7.8076832429
 10
-17.6598585413
 20
7.7710183815
 10
-17.6434896051
 20
7.7355146319
 10
-17.6229769246
 20
7.7015258819
 10
-17.5984343572
 20
7.6693601815
 10
-17.5700748827
 20
7.6393759507
 10
-17.5380777365
 20
7.6118086639
 10
-17.502542298
 20
7.5868045154
 10
-17.4853507851
 20
7.5763887782
  0
LWPOLYLINE
  5
23D
100
AcDbEntity
  8
ASSI
100
AcDbPolyline
 62
253
  6
CONTINUOUS
 90
23
 70
0
 10
-17.5370219569
 20
7.6909278772
 10
-17.5369048148
 20
7.6834017218
 10
-17.5365430868
 20
7.676027076
 10
-17.5359372737
 20
7.6688141502
 10
-17.5350882144
 20
7.6617729304
 10
-17.5339970843
 20
7.6549131655
 10
-17.532665394
 20
7.6482443528
 10
-17.5310949875
 20
7.6417757252
 10
-17.5292880388
 20
7.6355162386
 10
-17.5272470497
 20
7.6294745593
 10
-17.5249748459
 20
7.623659052
 10
-17.5224745734
 20
7.6180777684
 10
-17.5197496937
 20
7.6127384357
 10
-17.5168039796
 20
7.6076484462
 10
-17.5136415092
 20
7.6028148472
 10
-17.5102666612
 20
7.5982443306
 10
-17.5066841079
 20
7.5939432245
 10
-17.5028988095
 20
7.5899174836
 10
-17.4989160067
 20
7.5861726818
 10
-17.4947412137
 20
7.5827140036
 10
-17.4903802105
 20
7.5795462377
 10
-17.485839035
 20
7.5766737697
 10
-17.4853507991
 20
7.576388754
  0
LINE
  5
23E
100
AcDbEntity
  8
ASSI
100
AcDbLine
 62
253
  6
CONTINUOUS
 10
-17.4670851447
 20
-0.8040200236
 11
-17.4879508394
 21
0.4657467407
  0
LINE
  5
23F
100
AcDbEntity
  8
ASSI
100
AcDbLine
 62
253
  6
CONTINUOUS
 10
-17.4879508394
 20
0.4657467407
 11
-17.508595603
 21
2.1043768672
  0
LINE
  5
240
100
AcDbEntity
  8
ASSI
100
AcDbLine
 62
253
  6
CONTINUOUS
 10
-17.508595603
 20
2.1043768672
 11
-17.5236558403
 21
3.746529406
  0
LWPOLYLINE
  5
241
100
AcDbEntity
  8
ASSI
100
AcDbPolyline
 62
253
  6
CONTINUOUS
 90
26
 70
0
 10
-17.6219828739
 20
15.3649052535
 10
-17.6219257133
 20
15.3574207652
 10
-17.62138919
 20
15.3483654696
 10
-17.6203414507
 20
15.339319057
 10
-17.6187835682
 20
15.3302907889
 10
-17.6167171374
 20
15.3212899081
 10
-17.6141442737
 20
15.3123256296
 10
-17.6110676113
 20
15.3034071307
 10
-17.6074902999
 20
15.294543542
 10
-17.603416002
 20
15.2857439378
 10
-17.5988488885
 20
15.2770173268
 10
-17.5937936354
 20
15.2683726432
 10
-17.5882554179
 20
15.2598187371
 10
-17.582239906
 20
15.2513643659
 10
-17.5757532582
 20
15.2430181849
 10
-17.5688021154
 20
15.2347887387
 10
-17.5613935939
 20
15.2266844523
 10
-17.5535352785
 20
15.2187136229
 10
-17.5452352142
 20
15.2108844105
 10
-17.5365018984
 20
15.2032048308
 10
-17.5273442721
 20
15.1956827456
 10
-17.5177717107
 20
15.1883258561
 10
-17.5077940142
 20
15.181141694
 10
-17.4974213976
 20
15.1741376142
 10
-17.48666448
 20
15.1673207873
 10
-17.4755342742
 20
15.1606981923
  0
LINE
  5
242
100
AcDbEntity
  8
ASSI
100
AcDbLine
 62
253
  6
CONTINUOUS
 10
-17.5236558403
 20
3.746529406
 11
-17.5331308155
 21
5.3922083357
  0
LINE
  5
243
100
AcDbEntity
  8
ASSI
100
AcDbLine
 62
253
  6
CONTINUOUS
 10
-17.5331308155
 20
5.3922083357
 11
-17.5370200596
 21
7.0413945431
  0
LWPOLYLINE
  5
244
100
AcDbEntity
  8
0
100
AcDbPolyline
 62
253
  6
CONTINUOUS
 90
37
 70
0
 10
-10.5416900104
 20
14.1248027507
 10
-10.5511728708
 20
14.1073774519
 10
-10.5601625386
 20
14.0895514725
 10
-10.5686627577
 20
14.0713226146
 10
-10.5766772723
 20
14.0526886804
 10
-10.5842098264
 20
14.033647472
 10
-10.5912641641
 20
14.0141967916
 10
-10.5978440293
 20
13.9943344415
 10
-10.6039531663
 20
13.9740582237
 10
-10.609595319
 20
13.9533659404
 10
-10.6147728742
 20
13.9322582785
 10
-10.61948279
 20
13.910747463
 10
-10.6237206671
 20
13.8888486037
 10
-10.6274821063
 20
13.8665768104
 10
-10.6307627085
 20
13.8439471927
 10
-10.6335580744
 20
13.8209748605
 10
-10.6358638047
 20
13.7976749235
 10
-10.6376755003
 20
13.7740624915
 10
-10.638988762
 20
13.7501526741
 10
-10.6398004121
 20
13.7259612507
 10
-10.6401121594
 20
13.7015066782
 10
-10.639926934
 20
13.6768080834
 10
-10.6392476664
 20
13.6518845927
 10
-10.6380772869
 20
13.6267553328
 10
-10.6364187256
 20
13.6014394303
 10
-10.6342749129
 20
13.5759560116
 10
-10.6316487792
 20
13.5503242035
 10
-10.6285432546
 20
13.5245631324
 10
-10.62496023
 20
13.4986876506
 10
-10.620897438
 20
13.4726955121
 10
-10.6163515715
 20
13.4465801966
 10
-10.6113193235
 20
13.420335184
 10
-10.6057973873
 20
13.3939539539
 10
-10.5997824557
 20
13.3674299859
 10
-10.5932712218
 20
13.3407567599
 10
-10.5862603786
 20
13.3139277555
 10
-10.5787466192
 20
13.2869364524
  0
LWPOLYLINE
  5
245
100
AcDbEntity
  8
ASSI
100
AcDbPolyline
 62
7
  6
CONTINUOUS
 90
9
 70
0
 10
-17.531773879
 20
7.5351466244
 10
-17.5676126855
 20
7.5048728331
 10
-17.5989607646
 20
7.4717265131
 10
-17.6256592305
 20
7.4359753192
 10
-17.6474641327
 20
7.3980610865
 10
-17.664084998
 20
7.3587981318
 10
-17.675490743
 20
7.3189516257
 10
-17.6818557187
 20
7.2790382605
 10
-17.6834684615
 20
7.2457487302
  0
LINE
  5
246
100
AcDbEntity
  8
ASSI
100
AcDbLine
 62
7
  6
CONTINUOUS
 10
-17.4996045387
 20
7.557357548
 11
-17.531773879
 21
7.5351466244
  0
LINE
  5
247
100
AcDbEntity
  8
ASSI
100
AcDbLine
 62
7
  6
CONTINUOUS
 10
-17.499604556
 20
7.5573575754
 11
-17.4808164275
 21
7.5691869201
  0
LWPOLYLINE
  5
248
100
AcDbEntity
  8
ASSI
100
AcDbPolyline
 62
253
  6
CONTINUOUS
 90
7
 70
0
 10
-17.499509004
 20
7.5574178223
 10
-17.4966653946
 20
7.5591338442
 10
-17.4917810888
 20
7.5617548437
 10
-17.4867213658
 20
7.5640740091
 10
-17.4814932994
 20
7.5660880981
 10
-17.4761041985
 20
7.567794295
 10
-17.4721783199
 20
7.5687830382
  0
LINE
  5
249
100
AcDbEntity
  8
ASSI
100
AcDbLine
 62
7
  6
CONTINUOUS
 10
-16.6044329283
 20
-9.8315227929
 11
14.0989032052
 21
-27.5592442732
  0
LINE
  5
24A
100
AcDbEntity
  8
ASSI
100
AcDbLine
 62
253
  6
CONTINUOUS
 10
-16.8001356672
 20
-9.4929526107
 11
13.896244837
 21
-27.2166579978
  0
LINE
  5
24B
100
AcDbEntity
  8
ASSI
100
AcDbLine
 62
7
  6
CONTINUOUS
 10
14.0981187686
 20
-27.5587899742
 11
14.098903233
 21
-27.5592442892
  0
LINE
  5
24C
100
AcDbEntity
  8
ASSI
100
AcDbLine
 62
253
  6
CONTINUOUS
 10
-16.6044329283
 20
-9.8315227929
 11
-16.6134105544
 21
-9.8261427717
  0
LWPOLYLINE
  5
24D
100
AcDbEntity
  8
0
100
AcDbPolyline
 62
253
  6
CONTINUOUS
 90
37
 70
0
 10
-9.5180864474
 20
12.6745245624
 10
-9.5088122261
 20
12.6918226718
 10
-9.5000203824
 20
12.7095273797
 10
-9.4917070205
 20
12.7276410478
 10
-9.4838682444
 20
12.7461660379
 10
-9.4765001583
 20
12.7651047117
 10
-9.4695988662
 20
12.784459431
 10
-9.4631604722
 20
12.8042325575
 10
-9.4571810804
 20
12.8244264529
 10
-9.4516567949
 20
12.8450434791
 10
-9.4465850777
 20
12.8660831074
 10
-9.4419688225
 20
12.8875332477
 10
-9.4378122809
 20
12.9093789194
 10
-9.4341197046
 20
12.931605142
 10
-9.4308953452
 20
12.954196935
 10
-9.4281434543
 20
12.9771393179
 10
-9.4258682835
 20
13.0004173101
 10
-9.4240740845
 20
13.0240159311
 10
-9.4227651089
 20
13.0479202004
 10
-9.4219444503
 20
13.0721144333
 10
-9.4216105701
 20
13.0965801281
 10
-9.4217607716
 20
13.1212980791
 10
-9.4223923582
 20
13.1462490803
 10
-9.4235026333
 20
13.1714139259
 10
-9.4250889002
 20
13.1967734102
 10
-9.4271484624
 20
13.2223083272
 10
-9.429678623
 20
13.2479994712
 10
-9.4326766856
 20
13.2738276362
 10
-9.4361409959
 20
13.2997778865
 10
-9.4400740696
 20
13.3258523655
 10
-9.4444794647
 20
13.3520574868
 10
-9.4493607394
 20
13.378399664
 10
-9.4547214517
 20
13.4048853106
 10
-9.4605651596
 20
13.43152084
 10
-9.4668954214
 20
13.4583126658
 10
-9.473715795
 20
13.4852672015
 10
-9.4810298386
 20
13.5123908607
  0
LWPOLYLINE
  5
24E
100
AcDbEntity
  8
0
100
AcDbPolyline
 62
253
  6
CONTINUOUS
 90
37
 70
0
 10
-8.3496589887
 20
12.8591515113
 10
-8.3591418491
 20
12.8417262126
 10
-8.3681315169
 20
12.8239002332
 10
-8.376631736
 20
12.8056713753
 10
-8.3846462506
 20
12.7870374411
 10
-8.3921788047
 20
12.7679962327
 10
-8.3992331424
 20
12.7485455523
 10
-8.4058130077
 20
12.7286832022
 10
-8.4119221446
 20
12.7084069844
 10
-8.4175642973
 20
12.6877147011
 10
-8.4227418525
 20
12.6666070392
 10
-8.4274517683
 20
12.6450962237
 10
-8.4316896454
 20
12.6231973644
 10
-8.4354510846
 20
12.600925571
 10
-8.4387316868
 20
12.5782959534
 10
-8.4415270527
 20
12.5553236212
 10
-8.443832783
 20
12.5320236842
 10
-8.4456444786
 20
12.5084112522
 10
-8.4469577403
 20
12.4845014348
 10
-8.4477693904
 20
12.4603100114
 10
-8.4480811377
 20
12.4358554389
 10
-8.4478959124
 20
12.4111568441
 10
-8.4472166448
 20
12.3862333534
 10
-8.4460462652
 20
12.3611040935
 10
-8.4443877039
 20
12.3357881909
 10
-8.4422438913
 20
12.3103047723
 10
-8.4396177575
 20
12.2846729642
 10
-8.436512233
 20
12.2589118931
 10
-8.4329292084
 20
12.2330364112
 10
-8.4288664163
 20
12.2070442727
 10
-8.4243205498
 20
12.1809289573
 10
-8.4192883019
 20
12.1546839447
 10
-8.4137663656
 20
12.1283027146
 10
-8.407751434
 20
12.1017787466
 10
-8.4012402001
 20
12.0751055206
 10
-8.3942293569
 20
12.0482765162
 10
-8.3867155975
 20
12.0212852131
  0
LINE
  5
24F
100
AcDbEntity
  8
ASSI
100
AcDbLine
 62
7
  6
CONTINUOUS
 10
-12.2230202666
 20
26.4338095684
 11
-12.2018149773
 21
25.817337071
  0
LINE
  5
250
100
AcDbEntity
  8
ASSI
100
AcDbLine
 62
253
  6
CONTINUOUS
 10
-12.403271516
 20
26.0195894096
 11
-12.403271516
 21
25.956771421
  0
LINE
  5
251
100
AcDbEntity
  8
ASSI
100
AcDbLine
 62
7
  6
CONTINUOUS
 10
-4.3034243173
 20
21.8611341232
 11
-4.4836755667
 21
21.4469139644
  0
LWPOLYLINE
  5
252
100
AcDbEntity
  8
0
100
AcDbPolyline
 62
253
  6
CONTINUOUS
 90
37
 70
0
 10
-7.5028321211
 20
11.5109419714
 10
-7.4935578997
 20
11.5282400808
 10
-7.484766056
 20
11.5459447887
 10
-7.4764526941
 20
11.5640584568
 10
-7.468613918
 20
11.5825834469
 10
-7.4612458319
 20
11.6015221207
 10
-7.4543445398
 20
11.62087684
 10
-7.4479061458
 20
11.6406499665
 10
-7.441926754
 20
11.6608438619
 10
-7.4364024685
 20
11.6814608881
 10
-7.4313307513
 20
11.7025005165
 10
-7.4267144961
 20
11.7239506567
 10
-7.4225579545
 20
11.7457963284
 10
-7.4188653782
 20
11.768022551
 10
-7.4156410188
 20
11.790614344
 10
-7.4128891279
 20
11.8135567269
 10
-7.4106139571
 20
11.8368347191
 10
-7.4088197581
 20
11.8604333401
 10
-7.4075107825
 20
11.8843376095
 10
-7.4066901239
 20
11.9085318423
 10
-7.4063562437
 20
11.9329975372
 10
-7.4065064452
 20
11.9577154881
 10
-7.4071380318
 20
11.9826664893
 10
-7.4082483069
 20
12.0078313349
 10
-7.4098345739
 20
12.0331908192
 10
-7.411894136
 20
12.0587257362
 10
-7.4144242967
 20
12.0844168802
 10
-7.4174223592
 20
12.1102450452
 10
-7.4208866696
 20
12.1361952955
 10
-7.4248197432
 20
12.1622697745
 10
-7.4292251384
 20
12.1884748959
 10
-7.434106413
 20
12.214817073
 10
-7.4394671253
 20
12.2413027196
 10
-7.4453108333
 20
12.267938249
 10
-7.451641095
 20
12.2947300748
 10
-7.4584614687
 20
12.3216846105
 10
-7.4657755123
 20
12.3488082697
  0
LWPOLYLINE
  5
253
100
AcDbEntity
  8
ASSI
100
AcDbPolyline
 62
253
  6
CONTINUOUS
 90
13
 70
0
 10
13.649551548
 20
-10.0663270834
 10
13.6633956952
 20
-10.0629625683
 10
13.6770552858
 20
-10.0593595702
 10
13.6905179443
 20
-10.0555212695
 10
13.7037715178
 20
-10.0514511707
 10
13.716803925
 20
-10.04715302
 10
13.7296031901
 20
-10.0426306838
 10
13.7421576072
 20
-10.0378883536
 10
13.7544559076
 20
-10.0329303427
 10
13.7664871031
 20
-10.0277609985
 10
13.7782403312
 20
-10.0223849833
 10
13.7897048768
 20
-10.0168072795
 10
13.8008703399
 20
-10.0110329874
  0
LINE
  5
254
100
AcDbEntity
  8
0
100
AcDbLine
 62
253
  6
CONTINUOUS
 10
-12.5569443368
 20
-5.939841855
 11
-11.6730608603
 21
-6.4501850966
  0
LINE
  5
255
100
AcDbEntity
  8
0
100
AcDbLine
 62
253
  6
CONTINUOUS
 10
-10.5416900104
 20
-7.103424446
 11
-9.4810298386
 21
-7.7158363359
  0
LINE
  5
256
100
AcDbEntity
  8
0
100
AcDbLine
 62
253
  6
CONTINUOUS
 10
-7.4657755123
 20
-8.8794189269
 11
-8.3496589887
 21
-8.3690756853
  0
LWPOLYLINE
  5
257
100
AcDbEntity
  8
0
100
AcDbPolyline
 62
253
  6
CONTINUOUS
 90
37
 70
0
 10
-12.5940009456
 20
-5.1447675997
 10
-12.6015146975
 20
-5.1610492361
 10
-12.6085255347
 20
-5.1777256132
 10
-12.6150367641
 20
-5.1947987525
 10
-12.6210516925
 20
-5.2122706758
 10
-12.6265736268
 20
-5.2301434047
 10
-12.6316058736
 20
-5.2484189607
 10
-12.63615174
 20
-5.2670993654
 10
-12.6402145326
 20
-5.2861866405
 10
-12.6437975583
 20
-5.3056828077
 10
-12.6469030845
 20
-5.3255871819
 10
-12.6495292203
 20
-5.3458882522
 10
-12.6516730354
 20
-5.3665718009
 10
-12.6533315996
 20
-5.3876236104
 10
-12.6545019825
 20
-5.4090294631
 10
-12.6551812539
 20
-5.4307751414
 10
-12.6553664835
 20
-5.4528464278
 10
-12.655054741
 20
-5.4752291046
 10
-12.6542430961
 20
-5.4979089542
 10
-12.6529298401
 20
-5.5208710915
 10
-12.6511181504
 20
-5.5440979611
 10
-12.648812426
 20
-5.5675713402
 10
-12.6460170661
 20
-5.5912730058
 10
-12.6427364696
 20
-5.6151847351
 10
-12.6389750356
 20
-5.6392883051
 10
-12.634737163
 20
-5.663565493
 10
-12.630027251
 20
-5.6879980759
 10
-12.6248496985
 20
-5.7125678308
 10
-12.6192075474
 20
-5.7372606231
 10
-12.6130984107
 20
-5.7620786705
 10
-12.606518544
 20
-5.7870282793
 10
-12.5994642031
 20
-5.8121157552
 10
-12.5919316438
 20
-5.8373474045
 10
-12.5839171217
 20
-5.8627295331
 10
-12.5754168927
 20
-5.888268447
 10
-12.5664272125
 20
-5.9139704523
 10
-12.5569443368
 20
-5.939841855
  0
LINE
  5
258
100
AcDbEntity
  8
0
100
AcDbLine
 62
253
  6
CONTINUOUS
 10
-8.3867155975
 20
-7.57400143
 11
-7.5028321211
 21
-8.0843446716
  0
LINE
  5
259
100
AcDbEntity
  8
0
100
AcDbLine
 62
253
  6
CONTINUOUS
 10
-9.5180864474
 20
-6.9207620807
 11
-10.5787466192
 21
-6.3083501907
  0
LINE
  5
25A
100
AcDbEntity
  8
0
100
AcDbLine
 62
253
  6
CONTINUOUS
 10
-11.7101174691
 20
-5.6551108413
 11
-12.5940009456
 21
-5.1447675997
  0
LINE
  5
25B
100
AcDbEntity
  8
ASSI
100
AcDbLine
 62
253
  6
CONTINUOUS
 10
13.1722498157
 20
-18.0478834937
 11
-17.4755342745
 21
-0.3522370669
  0
LWPOLYLINE
  5
25C
100
AcDbEntity
  8
0
100
AcDbPolyline
 62
253
  6
CONTINUOUS
 90
37
 70
0
 10
-8.3496589887
 20
-8.3690756853
 10
-8.3591418653
 20
-8.34320428
 10
-8.3681315463
 20
-8.3175022722
 10
-8.376631776
 20
-8.2919633559
 10
-8.3846462985
 20
-8.266581225
 10
-8.3921788583
 20
-8.2413495736
 10
-8.3992331995
 20
-8.2162620956
 10
-8.4058130665
 20
-8.191312485
 10
-8.4119222034
 20
-8.1664944359
 10
-8.4175643546
 20
-8.1418016422
 10
-8.4227419071
 20
-8.1172318861
 10
-8.4274518191
 20
-8.0927993022
 10
-8.4316896915
 20
-8.0685221134
 10
-8.4354511254
 20
-8.0444185425
 10
-8.4387317216
 20
-8.0205068124
 10
-8.4415270811
 20
-7.9968051457
 10
-8.443832805
 20
-7.9733317655
 10
-8.4456444941
 20
-7.9501048944
 10
-8.4469577494
 20
-7.9271427553
 10
-8.4477693935
 20
-7.9044629036
 10
-8.448081135
 20
-7.8820802244
 10
-8.4478959044
 20
-7.8600089357
 10
-8.4472166319
 20
-7.8382632551
 10
-8.4460462479
 20
-7.8168574003
 10
-8.4443876827
 20
-7.7958055893
 10
-8.4422438666
 20
-7.7751220397
 10
-8.43961773
 20
-7.7548209693
 10
-8.4365122031
 20
-7.7349165959
 10
-8.4329291768
 20
-7.7154204306
 10
-8.4288663838
 20
-7.6963331583
 10
-8.4243205173
 20
-7.6776527573
 10
-8.4192882707
 20
-7.6593772058
 10
-8.413766337
 20
-7.6415044821
 10
-8.4077514097
 20
-7.6240325644
 10
-8.4012401818
 20
-7.606959431
 10
-8.3942293467
 20
-7.5902830601
 10
-8.3867155975
 20
-7.57400143
  0
LWPOLYLINE
  5
25D
100
AcDbEntity
  8
0
100
AcDbPolyline
 62
253
  6
CONTINUOUS
 90
37
 70
0
 10
-7.5028321211
 20
-8.0843446716
 10
-7.4935578945
 20
-8.1103194884
 10
-7.4847660465
 20
-8.1361201496
 10
-7.4764526811
 20
-8.1617528356
 10
-7.4686139022
 20
-8.1872237267
 10
-7.4612458139
 20
-8.2125390029
 10
-7.4543445203
 20
-8.2377048448
 10
-7.4479061253
 20
-8.2627274324
 10
-7.4419267331
 20
-8.2876129461
 10
-7.4364024475
 20
-8.3123675661
 10
-7.4313307307
 20
-8.336993382
 10
-7.4267144762
 20
-8.3614761205
 10
-7.4225579357
 20
-8.3857974177
 10
-7.4188653608
 20
-8.4099389095
 10
-7.4156410031
 20
-8.4338822321
 10
-7.4128891143
 20
-8.4576090214
 10
-7.410613946
 20
-8.4811009135
 10
-7.4088197497
 20
-8.5043395444
 10
-7.4075107772
 20
-8.5273065501
 10
-7.4066901219
 20
-8.5499842729
 10
-7.4063562452
 20
-8.57235788
 10
-7.4065064504
 20
-8.5944132449
 10
-7.4071380407
 20
-8.616136241
 10
-7.4082483194
 20
-8.6375127418
 10
-7.4098345898
 20
-8.6585286206
 10
-7.4118941551
 20
-8.679169751
 10
-7.4144243187
 20
-8.6994220064
 10
-7.4174223837
 20
-8.7192712602
 10
-7.4208866959
 20
-8.7387060886
 10
-7.4248197708
 20
-8.7577258792
 10
-7.4292251663
 20
-8.776332722
 10
-7.4341064401
 20
-8.7945287073
 10
-7.4394671503
 20
-8.8123159252
 10
-7.4453108547
 20
-8.8296964659
 10
-7.4516411113
 20
-8.8466724196
 10
-7.4584614778
 20
-8.8632458766
 10
-7.4657755123
 20
-8.8794189269
  0
LWPOLYLINE
  5
25E
100
AcDbEntity
  8
0
100
AcDbPolyline
 62
253
  6
CONTINUOUS
 90
37
 70
0
 10
-11.6730608603
 20
-6.4501850966
 10
-11.6657468284
 20
-6.4340120523
 10
-11.6589264638
 20
-6.4174386013
 10
-11.6525962088
 20
-6.4004626535
 10
-11.6467525054
 20
-6.3830821184
 10
-11.6413917958
 20
-6.3652949059
 10
-11.6365105223
 20
-6.3470989255
 10
-11.6321051269
 20
-6.328492087
 10
-11.6281720518
 20
-6.3094723001
 10
-11.6247077391
 20
-6.2900374743
 10
-11.6217096735
 20
-6.2701882224
 10
-11.6191795092
 20
-6.2499359681
 10
-11.6171199431
 20
-6.2292948382
 10
-11.6155336717
 20
-6.2082789596
 10
-11.6144233919
 20
-6.1869024588
 10
-11.6137918004
 20
-6.1651794628
 10
-11.6136415939
 20
-6.1431240983
 10
-11.6139754691
 20
-6.120750492
 10
-11.6147961229
 20
-6.0980727706
 10
-11.6161050938
 20
-6.0751057672
 10
-11.6178992884
 20
-6.0518671392
 10
-11.620174455
 20
-6.0283752503
 10
-11.6229263422
 20
-6.0046484642
 10
-11.6261506983
 20
-5.9807051446
 10
-11.6298432718
 20
-5.9565636552
 10
-11.6339998111
 20
-5.9322423597
 10
-11.6386160646
 20
-5.9077596217
 10
-11.6436877807
 20
-5.883133805
 10
-11.6492120658
 20
-5.8583791827
 10
-11.6551914581
 20
-5.8334936651
 10
-11.6616298535
 20
-5.8084710722
 10
-11.668531148
 20
-5.7833052236
 10
-11.6758992378
 20
-5.7579899393
 10
-11.6837380187
 20
-5.7325190392
 10
-11.6920513869
 20
-5.7068863429
 10
-11.7008432384
 20
-5.6810856703
 10
-11.7101174691
 20
-5.6551108413
  0
LWPOLYLINE
  5
25F
100
AcDbEntity
  8
0
100
AcDbPolyline
 62
253
  6
CONTINUOUS
 90
37
 70
0
 10
-10.5787466192
 20
-6.3083501907
 10
-10.5862603711
 20
-6.3246318271
 10
-10.5932712083
 20
-6.3413082041
 10
-10.5997824377
 20
-6.3583813435
 10
-10.6057973661
 20
-6.3758532668
 10
-10.6113193004
 20
-6.3937259956
 10
-10.6163515473
 20
-6.4120015516
 10
-10.6208974136
 20
-6.4306819564
 10
-10.6249602062
 20
-6.4497692315
 10
-10.628543232
 20
-6.4692653987
 10
-10.6316487581
 20
-6.4891697729
 10
-10.6342748939
 20
-6.5094708432
 10
-10.636418709
 20
-6.5301543918
 10
-10.6380772732
 20
-6.5512062013
 10
-10.6392476561
 20
-6.5726120541
 10
-10.6399269275
 20
-6.5943577324
 10
-10.6401121571
 20
-6.6164290188
 10
-10.6398004146
 20
-6.6388116956
 10
-10.6389887697
 20
-6.6614915452
 10
-10.6376755137
 20
-6.6844536825
 10
-10.635863824
 20
-6.7076805521
 10
-10.6335580996
 20
-6.7311539312
 10
-10.6307627397
 20
-6.7548555968
 10
-10.6274821432
 20
-6.7787673261
 10
-10.6237207092
 20
-6.8028708961
 10
-10.6194828366
 20
-6.827148084
 10
-10.6147729246
 20
-6.8515806668
 10
-10.6095953721
 20
-6.8761504218
 10
-10.6039532211
 20
-6.900843214
 10
-10.5978440843
 20
-6.9256612615
 10
-10.5912642176
 20
-6.9506108702
 10
-10.5842098767
 20
-6.9756983462
 10
-10.5766773174
 20
-7.0009299955
 10
-10.5686627953
 20
-7.0263121241
 10
-10.5601625663
 20
-7.051851038
 10
-10.5511728861
 20
-7.0775530433
 10
-10.5416900104
 20
-7.103424446
  0
LWPOLYLINE
  5
260
100
AcDbEntity
  8
0
100
AcDbPolyline
 62
253
  6
CONTINUOUS
 90
37
 70
0
 10
-12.5940009456
 20
14.4505190434
 10
-12.6015147016
 20
14.4775103337
 10
-12.6085255421
 20
14.5043393264
 10
-12.6150367741
 20
14.5310125417
 10
-12.6210517043
 20
14.5575365001
 10
-12.6265736398
 20
14.5839177218
 10
-12.6316058873
 20
14.6101627274
 10
-12.6361517539
 20
14.6362780372
 10
-12.6402145464
 20
14.6622701716
 10
-12.6437975716
 20
14.688145651
 10
-12.646903097
 20
14.7139067212
 10
-12.6495292318
 20
14.7395385299
 10
-12.6516730456
 20
14.7650219502
 10
-12.6533316081
 20
14.7903378553
 10
-12.6545019891
 20
14.8154671183
 10
-12.6551812582
 20
14.8403906123
 10
-12.655366485
 20
14.8650892104
 10
-12.6550547393
 20
14.8895437858
 10
-12.6542430907
 20
14.9137352115
 10
-12.6529298306
 20
14.9376450304
 10
-12.6511181365
 20
14.9612574632
 10
-12.6488124075
 20
14.9845574005
 10
-12.646017043
 20
15.0075297327
 10
-12.642736442
 20
15.0301593504
 10
-12.6389750038
 20
15.0524311438
 10
-12.6347371275
 20
15.0743300036
 10
-12.6300272124
 20
15.0958408202
 10
-12.6248496576
 20
15.1169484841
 10
-12.6192075051
 20
15.1376407702
 10
-12.6130983681
 20
15.1579169918
 10
-12.6065185024
 20
15.1777793465
 10
-12.5994641639
 20
15.197230032
 10
-12.5919316086
 20
15.2162712461
 10
-12.5839170923
 20
15.2349051864
 10
-12.575416871
 20
15.2531340506
 10
-12.5664272005
 20
15.2709600365
 10
-12.5569443368
 20
15.2883853416
  0
LWPOLYLINE
  5
261
100
AcDbEntity
  8
0
100
AcDbPolyline
 62
253
  6
CONTINUOUS
 90
37
 70
0
 10
-11.6730608603
 20
14.7780421
 10
-11.665746816
 20
14.7509184381
 10
-11.6589264418
 20
14.7239638998
 10
-11.6525961796
 20
14.6971720715
 10
-11.6467524713
 20
14.6705365396
 10
-11.6413917588
 20
14.6440508908
 10
-11.636510484
 20
14.6177087115
 10
-11.6321050888
 20
14.5915035882
 10
-11.6281720151
 20
14.5654291075
 10
-11.6247077048
 20
14.5394788557
 10
-11.6217096423
 20
14.5136506894
 10
-11.6191794818
 20
14.4879595444
 10
-11.6171199198
 20
14.4624246264
 10
-11.6155336532
 20
14.4370651412
 10
-11.6144233785
 20
14.4119002946
 10
-11.6137917923
 20
14.3869492923
 10
-11.6136415914
 20
14.3622313401
 10
-11.6139754724
 20
14.3377656437
 10
-11.614796132
 20
14.313571409
 10
-11.6161051086
 20
14.2896671374
 10
-11.6178993088
 20
14.2660685139
 10
-11.6201744809
 20
14.2427905192
 10
-11.6229263731
 20
14.2198481339
 10
-11.6261507338
 20
14.1972563388
 10
-11.6298433113
 20
14.1750301145
 10
-11.6339998539
 20
14.1531844418
 10
-11.63861611
 20
14.1317343014
 10
-11.6436878279
 20
14.1106946739
 10
-11.6492121139
 20
14.0900776497
 10
-11.6551915058
 20
14.0698837572
 10
-11.6616298995
 20
14.0501106347
 10
-11.668531191
 20
14.0307559202
 10
-11.675899276
 20
14.0118172517
 10
-11.6837380504
 20
13.9932922676
 10
-11.6920514102
 20
13.9751786058
 10
-11.7008432511
 20
13.9574739044
 10
-11.7101174691
 20
13.9401758017
  0
LINE
  5
262
100
AcDbEntity
  8
ASSI
100
AcDbLine
 62
253
  6
CONTINUOUS
 10
-4.4836755667
 20
21.4469139644
 11
-4.4836755667
 21
21.3840959757
  0
LWPOLYLINE
  5
263
100
AcDbEntity
  8
0
100
AcDbPolyline
 62
253
  6
CONTINUOUS
 90
37
 70
0
 10
-9.4810298386
 20
-7.7158363359
 10
-9.4737158067
 20
-7.6996632916
 10
-9.4668954421
 20
-7.6830898406
 10
-9.4605651871
 20
-7.6661138928
 10
-9.4547214837
 20
-7.6487333578
 10
-9.4493607742
 20
-7.6309461452
 10
-9.4444795006
 20
-7.6127501648
 10
-9.4400741052
 20
-7.5941433263
 10
-9.4361410301
 20
-7.5751235394
 10
-9.4326767174
 20
-7.5556887136
 10
-9.4296786518
 20
-7.5358394617
 10
-9.4271484876
 20
-7.5155872074
 10
-9.4250889214
 20
-7.4949460775
 10
-9.42350265
 20
-7.4739301989
 10
-9.4223923702
 20
-7.4525536982
 10
-9.4217607787
 20
-7.4308307022
 10
-9.4216105722
 20
-7.4087753376
 10
-9.4219444474
 20
-7.3864017313
 10
-9.4227651012
 20
-7.36372401
 10
-9.4240740721
 20
-7.3407570065
 10
-9.4258682667
 20
-7.3175183785
 10
-9.4281434333
 20
-7.2940264896
 10
-9.4308953205
 20
-7.2702997035
 10
-9.4341196766
 20
-7.2463563839
 10
-9.4378122501
 20
-7.2222148945
 10
-9.4419687894
 20
-7.197893599
 10
-9.4465850429
 20
-7.173410861
 10
-9.451656759
 20
-7.1487850444
 10
-9.4571810442
 20
-7.124030422
 10
-9.4631604364
 20
-7.0991449044
 10
-9.4695988318
 20
-7.0741223115
 10
-9.4765001264
 20
-7.0489564629
 10
-9.4838682161
 20
-7.0236411787
 10
-9.491706997
 20
-6.9981702785
 10
-9.5000203652
 20
-6.9725375822
 10
-9.5088122167
 20
-6.9467369096
 10
-9.5180864474
 20
-6.9207620807
  0
LINE
  5
264
100
AcDbEntity
  8
ASSI
100
AcDbLine
 62
7
  6
CONTINUOUS
 10
-4.3034243173
 20
21.8611341232
 11
-4.282219028
 21
21.2446616257
  0
LINE
  5
265
100
AcDbEntity
  8
ASSI
100
AcDbLine
 62
7
  6
CONTINUOUS
 10
3.6868823101
 20
17.2476312186
 11
3.5066310607
 21
16.8334110598
  0
LWPOLYLINE
  5
266
100
AcDbEntity
  8
ASSI
100
AcDbPolyline
 62
253
  6
CONTINUOUS
 90
49
 70
0
 10
14.5868463809
 20
7.3436178591
 10
14.575100873
 20
7.3394446977
 10
14.5630181152
 20
7.3354920758
 10
14.5506104838
 20
7.3317640418
 10
14.5378906875
 20
7.3282644145
 10
14.5248717553
 20
7.3249967783
 10
14.5115670221
 20
7.3219644804
 10
14.4979901159
 20
7.3191706266
 10
14.4841549432
 20
7.3166180786
 10
14.4700756753
 20
7.314309451
 10
14.4557667333
 20
7.3122471085
 10
14.4412427736
 20
7.3104331635
 10
14.4265186731
 20
7.308869474
 10
14.4116095133
 20
7.3075576417
 10
14.3965305655
 20
7.3064990102
 10
14.3812972749
 20
7.305694664
 10
14.3659252447
 20
7.3051454268
 10
14.3504302202
 20
7.3048518613
 10
14.3348280728
 20
7.3048142681
 10
14.3191347835
 20
7.3050326858
 10
14.3033664268
 20
7.3055068907
 10
14.287539154
 20
7.3062363969
 10
14.2716691767
 20
7.3072204574
 10
14.2557727503
 20
7.3084580641
 10
14.2398661573
 20
7.3099479493
 10
14.2239656907
 20
7.3116885871
 10
14.2080876369
 20
7.3136781945
 10
14.1922482597
 20
7.3159147335
 10
14.1764637832
 20
7.3183959133
 10
14.1607503751
 20
7.3211191925
 10
14.1451241305
 20
7.3240817817
 10
14.1296010551
 20
7.3272806463
 10
14.1141970491
 20
7.3307125097
 10
14.0989278904
 20
7.3343738568
 10
14.0838092191
 20
7.3382609373
 10
14.068856521
 20
7.3423697697
 10
14.0540851119
 20
7.3466961454
 10
14.0395101221
 20
7.3512356329
 10
14.0251464804
 20
7.3559835826
 10
14.0110088994
 20
7.3609351311
 10
13.9971118599
 20
7.3660852066
 10
13.9834695966
 20
7.3714285341
 10
13.9700960829
 20
7.3769596404
 10
13.9570050172
 20
7.38267286
 10
13.9442098085
 20
7.388562341
 10
13.9317235627
 20
7.394622051
 10
13.9195590693
 20
7.4008457829
 10
13.9077287883
 20
7.407227162
 10
13.8962448372
 20
7.4137596518
  0
LWPOLYLINE
  5
267
100
AcDbEntity
  8
ASSI
100
AcDbPolyline
 62
7
  6
CONTINUOUS
 90
13
 70
0
 10
13.1580429936
 20
-10.1167228108
 10
13.1995662859
 20
-10.1381860829
 10
13.2474206406
 20
-10.1575373094
 10
13.2969515995
 20
-10.1725510818
 10
13.3480997644
 20
-10.1834557321
 10
13.400494234
 20
-10.19028029
 10
13.4532281139
 20
-10.1929944388
 10
13.5060352848
 20
-10.1916399394
 10
13.5586490647
 20
-10.186171947
 10
13.6101519562
 20
-10.1766031104
 10
13.6601657849
 20
-10.1629025717
 10
13.7086403631
 20
-10.1448470104
 10
13.7472921402
 20
-10.1264380365
  0
LWPOLYLINE
  5
268
100
AcDbEntity
  8
ASSI
100
AcDbPolyline
 62
253
  6
CONTINUOUS
 90
40
 70
0
 10
13.1063150627
 20
-10.0021508657
 10
13.1171210989
 20
-10.0082061345
 10
13.1282379259
 20
-10.0140725272
 10
13.1396554592
 20
-10.0197447275
 10
13.1513632912
 20
-10.0252175793
 10
13.1633508504
 20
-10.0304861451
 10
13.1756074229
 20
-10.0355457014
 10
13.1881220052
 20
-10.0403917038
 10
13.2008831558
 20
-10.0450197132
 10
13.2138791542
 20
-10.049425456
 10
13.227098157
 20
-10.0536049356
 10
13.2405282287
 20
-10.0575543907
 10
13.2541572008
 20
-10.0612702171
 10
13.267972696
 20
-10.0647490605
 10
13.281962201
 20
-10.0679877836
 10
13.2961130912
 20
-10.0709834283
 10
13.3104125731
 20
-10.0737333044
 10
13.3248476428
 20
-10.0762349236
 10
13.3394051584
 20
-10.0784859654
 10
13.3540718978
 20
-10.0804844115
 10
13.3688345792
 20
-10.0822284727
 10
13.3836798219
 20
-10.0837165197
 10
13.3985941734
 20
-10.084947232
 10
13.4135640975
 20
-10.0859195156
 10
13.4285759932
 20
-10.0866324324
 10
13.4436162206
 20
-10.0870853682
 10
13.4586711653
 20
-10.0872779411
 10
13.4737272269
 20
-10.0872099159
 10
13.4887707769
 20
-10.0868813861
 10
13.5037881463
 20
-10.0862926775
 10
13.5187656915
 20
-10.0854442576
 10
13.5336898188
 20
-10.0843369328
 10
13.5485470039
 20
-10.0829717391
 10
13.5633237795
 20
-10.0813498419
 10
13.5780067643
 20
-10.0794727473
 10
13.5925826218
 20
-10.0773421942
 10
13.6070380807
 20
-10.0749600472
 10
13.6213599951
 20
-10.0723285167
 10
13.6355354157
 20
-10.0694500225
 10
13.649551548
 20
-10.0663270834
  0
LINE
  5
269
100
AcDbEntity
  8
ASSI
100
AcDbLine
 62
253
  6
CONTINUOUS
 10
13.1063150624
 20
-10.6516831051
 11
-17.5370200596
 21
7.0413945431
  0
LINE
  5
26A
100
AcDbEntity
  8
ASSI
100
AcDbLine
 62
253
  6
CONTINUOUS
 10
13.2815509511
 20
-10.3462341099
 11
-17.3617879655
 21
7.3468457293
  0
LWPOLYLINE
  5
26B
100
AcDbEntity
  8
ASSI
100
AcDbPolyline
 62
253
  6
CONTINUOUS
 90
27
 70
0
 10
-17.5370200593
 20
7.0413945427
 10
-17.5475055853
 20
7.04763487
 10
-17.5576609474
 20
7.0540564004
 10
-17.5674769394
 20
7.0606533107
 10
-17.576944623
 20
7.0674195961
 10
-17.5860554587
 20
7.074349146
 10
-17.5948012982
 20
7.0814357555
 10
-17.6031742667
 20
7.0886730738
 10
-17.6111666868
 20
7.0960544885
 10
-17.6187712116
 20
7.1035732006
 10
-17.6259809176
 20
7.1112223728
 10
-17.6327893017
 20
7.1189951073
 10
-17.6391901975
 20
7.1268843343
 10
-17.6451777948
 20
7.1348829079
 10
-17.6507466728
 20
7.1429835955
 10
-17.6558918046
 20
7.1511790522
 10
-17.6606085321
 20
7.1594618907
 10
-17.6648925593
 20
7.1678245945
 10
-17.6687399839
 20
7.1762595086
 10
-17.6721473128
 20
7.1847589973
 10
-17.6751114619
 20
7.1933153832
 10
-17.6776297446
 20
7.2019208623
 10
-17.6796998781
 20
7.2105676652
 10
-17.6813199829
 20
7.2192479671
 10
-17.6824885878
 20
7.2279538266
 10
-17.6832046344
 20
7.2366773647
 10
-17.6834685332
 20
7.2457474252
  0
LWPOLYLINE
  5
26C
100
AcDbEntity
  8
ASSI
100
AcDbPolyline
 62
253
  6
CONTINUOUS
 90
46
 70
0
 10
-17.3617879655
 20
7.3468457293
 10
-17.367036904
 20
7.3499703647
 10
-17.3721121572
 20
7.3531805871
 10
-17.3770137253
 20
7.3564763966
 10
-17.3817458364
 20
7.3598609918
 10
-17.3863042624
 20
7.3633311742
 10
-17.3906763182
 20
7.3668773478
 10
-17.3948614101
 20
7.3704996709
 10
-17.3988601319
 20
7.3741979854
 10
-17.4026615807
 20
7.3779622201
 10
-17.4062652058
 20
7.3817925469
 10
-17.409671558
 20
7.385688794
 10
-17.412871386
 20
7.3896403757
 10
-17.4158641262
 20
7.3936474355
 10
-17.4186503423
 20
7.3977098299
 10
-17.4212224745
 20
7.4018165425
 10
-17.4235799477
 20
7.4059677051
 10
-17.425723337
 20
7.4101631861
 10
-17.4276468078
 20
7.4143915734
 10
-17.4293497584
 20
7.418652951
 10
-17.4308327905
 20
7.4229472351
 10
-17.4320918747
 20
7.4272627618
 10
-17.4331264022
 20
7.4315995929
 10
-17.4339369817
 20
7.4359576665
 10
-17.4345214097
 20
7.4403251336
 10
-17.4348790706
 20
7.4447020129
 10
-17.4350105801
 20
7.4490882857
 10
-17.4349155811
 20
7.4534720469
 10
-17.4345934579
 20
7.4578532959
 10
-17.4340448263
 20
7.4622320334
 10
-17.4332711766
 20
7.4665963566
 10
-17.4322718971
 20
7.4709462232
 10
-17.4310475996
 20
7.4752816755
 10
-17.4296016097
 20
7.4795909376
 10
-17.4279333213
 20
7.4838739439
 10
-17.4260433404
 20
7.48813076
 10
-17.4239368116
 20
7.4923498064
 10
-17.4216131522
 20
7.4965309692
 10
-17.4190729449
 20
7.5006743624
 10
-17.4163230819
 20
7.5047687491
 10
-17.4133629916
 20
7.508814003
 10
-17.4101932457
 20
7.5128102505
 10
-17.4068224517
 20
7.5167466338
 10
-17.4032500487
 20
7.5206229984
 10
-17.3994765975
 20
7.5244394988
 10
-17.3979221636
 20
7.5259084642
  0
LINE
  5
26D
100
AcDbEntity
  8
ASSI
100
AcDbLine
 62
253
  6
CONTINUOUS
 10
16.6826108162
 20
9.7440604539
 11
14.5700046805
 21
8.4830585352
  0
LINE
  5
26E
100
AcDbEntity
  8
ASSI
100
AcDbLine
 62
7
  6
CONTINUOUS
 10
-17.4852513576
 20
7.5763312463
 11
13.1580875591
 21
-10.1167485929
  0
LINE
  5
26F
100
AcDbEntity
  8
ASSI
100
AcDbLine
 62
253
  6
CONTINUOUS
 10
-17.5370200596
 20
7.6909267817
 11
13.1063150624
 21
-10.0021508665
  0
LWPOLYLINE
  5
270
100
AcDbEntity
  8
ASSI
100
AcDbPolyline
 62
253
  6
CONTINUOUS
 90
52
 70
0
 10
14.5700046805
 20
8.4830585352
 10
14.5507352275
 20
8.4708743717
 10
14.5315073808
 20
8.4581265061
 10
14.5123347539
 20
8.4448242702
 10
14.4932307394
 20
8.4309775647
 10
14.4742090441
 20
8.4165963434
 10
14.4552836812
 20
8.4016905918
 10
14.4364679583
 20
8.3862711054
 10
14.4177752924
 20
8.3703491945
 10
14.3992197444
 20
8.3539361676
 10
14.3808145196
 20
8.3370440391
 10
14.362572577
 20
8.319685069
 10
14.3445074466
 20
8.3018714558
 10
14.3266318958
 20
8.2836161315
 10
14.3089586026
 20
8.2649324078
 10
14.2915007625
 20
8.245833525
 10
14.2742707467
 20
8.2263333696
 10
14.2572807386
 20
8.2064461171
 10
14.2405434092
 20
8.1861858748
 10
14.2240706142
 20
8.1655673557
 10
14.2078740034
 20
8.1446055407
 10
14.1919656557
 20
8.1233153244
 10
14.1763568533
 20
8.1017121739
 10
14.1610586171
 20
8.0798117553
 10
14.1460823157
 20
8.0576295959
 10
14.1314385432
 20
8.0351817501
 10
14.1171376681
 20
8.012484528
 10
14.1031903673
 20
7.9895541227
 10
14.0896065388
 20
7.966407176
 10
14.0763957611
 20
7.9430604398
 10
14.063567846
 20
7.9195305025
 10
14.0511318745
 20
7.8958343783
 10
14.0390966412
 20
7.8719892525
 10
14.0274711134
 20
7.8480121439
 10
14.0162635322
 20
7.8239204016
 10
14.0054818082
 20
7.7997314642
 10
13.9951339677
 20
7.7754626043
 10
13.9852273443
 20
7.7511313641
 10
13.9757689295
 20
7.7267553507
 10
13.9667657667
 20
7.7023519968
 10
13.9582242518
 20
7.6779389691
 10
13.9501503923
 20
7.653533884
 10
13.942550163
 20
7.6291541039
 10
13.9354289358
 20
7.6048171513
 10
13.928791759
 20
7.5805406943
 10
13.9226436113
 20
7.5563422605
 10
13.9169888819
 20
7.53223943
 10
13.9118315106
 20
7.5082494871
 10
13.9071752838
 20
7.4843894092
 10
13.9030235512
 20
7.4606763031
 10
13.8993792078
 20
7.4371273884
 10
13.896244837
 20
7.4137596518
  0
LWPOLYLINE
  5
271
100
AcDbEntity
  8
ASSI
100
AcDbPolyline
 62
253
  6
CONTINUOUS
 90
52
 70
0
 10
14.9295074153
 20
7.8749293589
 10
14.9196994389
 20
7.8689271495
 10
14.909925459
 20
7.8626518105
 10
14.9001854754
 20
7.8561033419
 10
14.890472227
 20
7.8492764571
 10
14.880792975
 20
7.8421764428
 10
14.8711695031
 20
7.8348191584
 10
14.8616022071
 20
7.8272042088
 10
14.8520906913
 20
7.8193319892
 10
14.8426555521
 20
7.8112195452
 10
14.8332969862
 20
7.8028663812
 10
14.8240147969
 20
7.7942729928
 10
14.8148289901
 20
7.7854579125
 10
14.8057397597
 20
7.7764206491
 10
14.7967469117
 20
7.7671616936
 10
14.787869871
 20
7.7577010524
 10
14.7791088905
 20
7.7480382911
 10
14.7704637172
 20
7.7381738439
 10
14.7619530165
 20
7.7281290204
 10
14.7535770795
 20
7.7179034305
 10
14.745335615
 20
7.7074974642
 10
14.7372464149
 20
7.6969336011
 10
14.729309815
 20
7.6862115098
 10
14.7215254795
 20
7.6753315216
 10
14.7139101923
 20
7.66431711
 10
14.7064643101
 20
7.6531679721
 10
14.6991874763
 20
7.6418844108
 10
14.6920954042
 20
7.6304908083
 10
14.6851885016
 20
7.6189869406
 10
14.6784663607
 20
7.6073730316
 10
14.6719434719
 20
7.5956741354
 10
14.6656202605
 20
7.5838900598
 10
14.6594963013
 20
7.572020997
 10
14.6535848084
 20
7.5600925771
 10
14.6478862428
 20
7.5481046756
 10
14.6424001436
 20
7.536057417
 10
14.637138342
 20
7.5239768062
 10
14.6321013226
 20
7.5118627704
 10
14.6272886008
 20
7.4997153822
 10
14.6227105544
 20
7.4875608647
 10
14.618367695
 20
7.4753992211
 10
14.614259511
 20
7.4632304481
 10
14.6103948451
 20
7.451080758
 10
14.6067742133
 20
7.438950153
 10
14.6033970995
 20
7.4268386308
 10
14.600270799
 20
7.4147723974
 10
14.5973958282
 20
7.4027513218
 10
14.5947716706
 20
7.3907755349
 10
14.5924040725
 20
7.3788716353
 10
14.5902949492
 20
7.3670484892
 10
14.5884423853
 20
7.3552972305
 10
14.5868463809
 20
7.3436178591
  0
LINE
  5
272
100
AcDbEntity
  8
ASSI
100
AcDbLine
 62
253
  6
CONTINUOUS
 10
17.0675849746
 20
9.1511350174
 11
14.9295074153
 21
7.8749293589
  0
LINE
  5
273
100
AcDbEntity
  8
ASSI
100
AcDbLine
 62
7
  6
CONTINUOUS
 10
17.4420502573
 20
-8.2577620058
 11
17.3654816118
 21
-8.2135522295
  0
LINE
  5
274
100
AcDbEntity
  8
ASSI
100
AcDbLine
 62
7
  6
CONTINUOUS
 10
3.6868823101
 20
17.2476312186
 11
3.7080875994
 21
16.6311587211
  0
LINE
  5
275
100
AcDbEntity
  8
ASSI
100
AcDbLine
 62
253
  6
CONTINUOUS
 10
3.5066310607
 20
16.8334110598
 11
3.5066310607
 21
16.7705930711
  0
LINE
  5
276
100
AcDbEntity
  8
ASSI
100
AcDbLine
 62
253
  6
CONTINUOUS
 10
-17.4755342745
 20
15.1606981922
 11
13.1722498157
 21
-2.5349482346
  0
LINE
  5
277
100
AcDbEntity
  8
ASSI
100
AcDbLine
 62
7
  6
CONTINUOUS
 10
11.6064782594
 20
12.6749557733
 11
11.42622701
 21
12.2607356145
  0
LINE
  5
278
100
AcDbEntity
  8
0
100
AcDbLine
 62
253
  6
CONTINUOUS
 10
-10.5787466192
 20
13.2869364524
 11
-9.5180864474
 21
12.6745245624
  0
LINE
  5
279
100
AcDbEntity
  8
0
100
AcDbLine
 62
253
  6
CONTINUOUS
 10
-8.3867155975
 20
12.0212852131
 11
-7.5028321211
 21
11.5109419714
  0
LINE
  5
27A
100
AcDbEntity
  8
0
100
AcDbLine
 62
253
  6
CONTINUOUS
 10
-11.7101174691
 20
13.9401758017
 11
-12.5940009456
 21
14.4505190434
  0
LWPOLYLINE
  5
27B
100
AcDbEntity
  8
ASSI
100
AcDbPolyline
 62
253
  6
CONTINUOUS
 90
49
 70
0
 10
13.8667385642
 20
-2.5497414863
 10
13.8548672548
 20
-2.5556829059
 10
13.8426589929
 20
-2.5614020861
 10
13.8301262769
 20
-2.5668931715
 10
13.8172819376
 20
-2.5721505408
 10
13.8041391245
 20
-2.5771688114
 10
13.790711293
 20
-2.5819428458
 10
13.7770121901
 20
-2.5864677564
 10
13.7630558407
 20
-2.5907389109
 10
13.7488565328
 20
-2.5947519364
 10
13.7344288034
 20
-2.5985027246
 10
13.7197874231
 20
-2.6019874354
 10
13.7049473815
 20
-2.6052025015
 10
13.6899238715
 20
-2.6081446311
 10
13.6747322736
 20
-2.6108108123
 10
13.6593881406
 20
-2.6131983155
 10
13.6439071816
 20
-2.6153046964
 10
13.6283052454
 20
-2.6171277986
 10
13.6125983049
 20
-2.6186657557
 10
13.5968024405
 20
-2.619916993
 10
13.5809338237
 20
-2.6208802297
 10
13.5650087001
 20
-2.6215544795
 10
13.5490433737
 20
-2.6219390522
 10
13.5330541893
 20
-2.6220335542
 10
13.5170575161
 20
-2.6218378885
 10
13.5010697312
 20
-2.6213522557
 10
13.4851072025
 20
-2.6205771527
 10
13.469186272
 20
-2.6195133733
 10
13.453323239
 20
-2.6181620064
 10
13.4375343438
 20
-2.6165244355
 10
13.4218357507
 20
-2.6146023371
 10
13.4062435314
 20
-2.6123976791
 10
13.3907736488
 20
-2.6099127184
 10
13.3754419407
 20
-2.6071499992
 10
13.3602641032
 20
-2.6041123499
 10
13.345255675
 20
-2.6008028802
 10
13.3304320213
 20
-2.5972249784
 10
13.3158083182
 20
-2.5933823074
 10
13.3013995371
 20
-2.5892788013
 10
13.2872204293
 20
-2.584918661
 10
13.2732855111
 20
-2.5803063505
 10
13.2596090485
 20
-2.5754465917
 10
13.2462050433
 20
-2.5703443598
 10
13.2330872181
 20
-2.5650048784
 10
13.2202690026
 20
-2.5594336139
 10
13.2077635197
 20
-2.55363627
 10
13.1955835723
 20
-2.547618782
 10
13.1837416298
 20
-2.5413873103
 10
13.1722498157
 20
-2.5349482346
  0
LINE
  5
27C
100
AcDbEntity
  8
ASSI
100
AcDbLine
 62
7
  6
CONTINUOUS
 10
14.7261679012
 20
10.873686073
 11
14.0534610804
 21
10.7438035892
  0
LINE
  5
27D
100
AcDbEntity
  8
0
100
AcDbLine
 62
253
  6
CONTINUOUS
 10
-12.5569443368
 20
15.2883853416
 11
-11.6730608603
 21
14.7780421
  0
LINE
  5
27E
100
AcDbEntity
  8
0
100
AcDbLine
 62
253
  6
CONTINUOUS
 10
-7.4657755123
 20
12.3488082697
 11
-8.3496589887
 21
12.8591515113
  0
LINE
  5
27F
100
AcDbEntity
  8
0
100
AcDbLine
 62
253
  6
CONTINUOUS
 10
-9.4810298386
 20
13.5123908607
 11
-10.5416900104
 21
14.1248027507
  0
LWPOLYLINE
  5
280
100
AcDbEntity
  8
ASSI
100
AcDbPolyline
 62
253
  6
CONTINUOUS
 90
52
 70
0
 10
14.5868463809
 20
-27.1650786197
 10
14.5884423853
 20
-27.1750393416
 10
14.5902949492
 20
-27.1847956762
 10
14.5924040725
 20
-27.1943476232
 10
14.5947716706
 20
-27.2037019865
 10
14.5973958282
 20
-27.2128519624
 10
14.600270799
 20
-27.2217771399
 10
14.6033970995
 20
-27.2304768321
 10
14.6067742133
 20
-27.238951726
 10
14.6103948451
 20
-27.2471834715
 10
14.614259511
 20
-27.2551715153
 10
14.618367695
 20
-27.2629164107
 10
14.6227105544
 20
-27.2704014676
 10
14.6272886008
 20
-27.2776261386
 10
14.6321013226
 20
-27.2845909711
 10
14.637138342
 20
-27.2912809175
 10
14.6424001436
 20
-27.2976953834
 10
14.6478862428
 20
-27.3038349632
 10
14.6535848084
 20
-27.3096863927
 10
14.6594963013
 20
-27.3152490506
 10
14.6656202605
 20
-27.3205235583
 10
14.6719434719
 20
-27.3254985151
 10
14.6784663607
 20
-27.3301732708
 10
14.6851885016
 20
-27.3345484756
 10
14.6920954042
 20
-27.3386146794
 10
14.6991874763
 20
-27.3423712192
 10
14.7064643101
 20
-27.345818758
 10
14.7139101923
 20
-27.3489498346
 10
14.7215254795
 20
-27.3517637619
 10
14.729309815
 20
-27.3542612269
 10
14.7372464149
 20
-27.35643683
 10
14.745335615
 20
-27.358289878
 10
14.7535770795
 20
-27.3598210641
 10
14.7619530165
 20
-27.3610270677
 10
14.7704637172
 20
-27.3619071853
 10
14.7791088905
 20
-27.3624621204
 10
14.787869871
 20
-27.3626906634
 10
14.7967469117
 20
-27.3625921072
 10
14.8057397597
 20
-27.3621671589
 10
14.8148289901
 20
-27.3614167295
 10
14.8240147969
 20
-27.3603401193
 10
14.8332969862
 20
-27.3589380281
 10
14.8426555521
 20
-27.3572134668
 10
14.8520906913
 20
-27.3551657278
 10
14.8616022071
 20
-27.3527955188
 10
14.8711695031
 20
-27.3501079731
 10
14.880792975
 20
-27.3471022694
 10
14.890472227
 20
-27.3437792292
 10
14.9001854754
 20
-27.3401464505
 10
14.909925459
 20
-27.336206466
 10
14.9196994389
 20
-27.3319567431
 10
14.9295074153
 20
-27.3273972818
  0
LWPOLYLINE
  5
281
100
AcDbEntity
  8
ASSI
100
AcDbPolyline
 62
253
  6
CONTINUOUS
 90
25
 70
0
 10
13.896244837
 20
-27.2166579978
 10
13.8993792078
 20
-27.2365306664
 10
13.9030235512
 20
-27.2560155904
 10
13.9071752838
 20
-27.2750987663
 10
13.9118315106
 20
-27.2937664618
 10
13.9169888819
 20
-27.312005294
 10
13.9226436113
 20
-27.3298022255
 10
13.928791759
 20
-27.347144569
 10
13.9354289358
 20
-27.3640197656
 10
13.942550163
 20
-27.3804154624
 10
13.9501503923
 20
-27.3963198583
 10
13.9582242518
 20
-27.4117215969
 10
13.9667657667
 20
-27.4266095295
 10
13.9757689295
 20
-27.4409730182
 10
13.9852273443
 20
-27.4548017408
 10
13.9951339677
 20
-27.4680855882
 10
14.0054818082
 20
-27.4808150636
 10
14.0162635322
 20
-27.4929810567
 10
14.0274711134
 20
-27.5045746421
 10
14.0390966412
 20
-27.515587552
 10
14.0511318745
 20
-27.5260119182
 10
14.063567846
 20
-27.5358400469
 10
14.0763957611
 20
-27.5450649418
 10
14.0896065388
 20
-27.5536800422
 10
14.0981187686
 20
-27.5587899742
  0
LINE
  5
282
100
AcDbEntity
  8
ASSI
100
AcDbLine
 62
7
  6
CONTINUOUS
 10
11.6064782594
 20
12.6749557733
 11
11.6276835486
 21
12.0584832759
  0
LWPOLYLINE
  5
283
100
AcDbEntity
  8
ASSI
100
AcDbPolyline
 62
253
  6
CONTINUOUS
 90
22
 70
0
 10
13.1722498157
 20
-18.0478834937
 10
13.1813069422
 20
-18.5000175001
 10
13.1929115558
 20
-18.9507076754
 10
13.2070632236
 20
-19.3999365863
 10
13.2237614423
 20
-19.8476868628
 10
13.2430055641
 20
-20.2939411839
 10
13.2647947972
 20
-20.7386822774
 10
13.2891283384
 20
-21.1818929564
 10
13.3160052694
 20
-21.6235560768
 10
13.3454244834
 20
-22.0636545213
 10
13.3773848917
 20
-22.5021712794
 10
13.4118852913
 20
-22.9390894031
 10
13.4489242627
 20
-23.3743919621
 10
13.4885004333
 20
-23.8080621471
 10
13.5306123154
 20
-24.2400831926
 10
13.5752581743
 20
-24.6704383305
 10
13.6224363527
 20
-25.0991109404
 10
13.6721450793
 20
-25.5260844637
 10
13.7243823076
 20
-25.9513423257
 10
13.779146024
 20
-26.3748680773
 10
13.8364342469
 20
-26.7966453953
 10
13.896244837
 20
-27.2166579978
  0
LWPOLYLINE
  5
284
100
AcDbEntity
  8
ASSI
100
AcDbPolyline
 62
253
  6
CONTINUOUS
 90
23
 70
0
 10
13.1063169597
 20
-10.002151962
 10
13.1064341019
 20
-10.0096781179
 10
13.1067958299
 20
-10.0170527641
 10
13.107401643
 20
-10.0242656904
 10
13.1082507025
 20
-10.0313069105
 10
13.1093418328
 20
-10.0381666758
 10
13.1106735232
 20
-10.044835489
 10
13.1122439299
 20
-10.0513041169
 10
13.1140508789
 20
-10.0575636037
 10
13.1160918682
 20
-10.0636052832
 10
13.1183640722
 20
-10.0694207907
 10
13.120864345
 20
-10.0750020745
 10
13.1235892249
 20
-10.0803414072
 10
13.1265349394
 20
-10.0854313967
 10
13.12969741
 20
-10.0902649958
 10
13.1330722583
 20
-10.0948355123
 10
13.1366548119
 20
-10.0991366184
 10
13.1404401106
 20
-10.103162359
 10
13.1444229137
 20
-10.1069071607
 10
13.1485977069
 20
-10.1103658387
 10
13.1529587104
 20
-10.1135336044
 10
13.1574998861
 20
-10.1164060721
 10
13.1580429797
 20
-10.1167228349
  0
LINE
  5
285
100
AcDbEntity
  8
ASSI
100
AcDbLine
 62
253
  6
CONTINUOUS
 10
13.1471184488
 20
-16.4100489562
 11
13.1722498157
 21
-18.0478834937
  0
LINE
  5
286
100
AcDbEntity
  8
ASSI
100
AcDbLine
 62
253
  6
CONTINUOUS
 10
13.1279754586
 20
-14.7689091453
 11
13.1471184488
 21
-16.4100489562
  0
LINE
  5
287
100
AcDbEntity
  8
ASSI
100
AcDbLine
 62
253
  6
CONTINUOUS
 10
13.1148206903
 20
-13.1244830511
 11
13.1279754586
 21
-14.7689091453
  0
LWPOLYLINE
  5
288
100
AcDbEntity
  8
ASSI
100
AcDbPolyline
 62
253
  6
CONTINUOUS
 90
3
 70
0
 10
13.1063150624
 20
-10.6516831051
 10
13.1076533165
 20
-11.4767656542
 10
13.1148206903
 20
-13.1244830511
  0
LINE
  5
289
100
AcDbEntity
  8
ASSI
100
AcDbLine
 62
253
  6
CONTINUOUS
 10
11.42622701
 20
12.2607356145
 11
11.42622701
 21
12.1979176259
  0
LINE
  5
28A
100
AcDbEntity
  8
ASSI
100
AcDbLine
 62
253
  6
CONTINUOUS
 10
13.1104885361
 20
-8.3483093469
 11
13.1063150624
 21
-10.0021508665
  0
LINE
  5
28B
100
AcDbEntity
  8
ASSI
100
AcDbLine
 62
253
  6
CONTINUOUS
 10
13.1206496518
 20
-6.6912927844
 11
13.1104885361
 21
-8.3483093469
  0
LINE
  5
28C
100
AcDbEntity
  8
ASSI
100
AcDbLine
 62
253
  6
CONTINUOUS
 10
13.1367983607
 20
-5.0311205912
 11
13.1206496518
 21
-6.6912927844
  0
LWPOLYLINE
  5
28D
100
AcDbEntity
  8
ASSI
100
AcDbPolyline
 62
253
  6
CONTINUOUS
 90
43
 70
0
 10
13.1063169597
 20
-10.6516842006
 10
13.1064341018
 20
-10.6440227724
 10
13.1067958298
 20
-10.6362304122
 10
13.1074016429
 20
-10.6283179086
 10
13.1082507022
 20
-10.6202962165
 10
13.1093418324
 20
-10.6121764418
 10
13.1106735226
 20
-10.6039698266
 10
13.1122439292
 20
-10.5956877328
 10
13.1140508779
 20
-10.5873416272
 10
13.116091867
 20
-10.5789430648
 10
13.1183640707
 20
-10.5705036736
 10
13.1208643432
 20
-10.5620351379
 10
13.1235892229
 20
-10.5535491825
 10
13.126534937
 20
-10.5450575562
 10
13.1296974074
 20
-10.5365720157
 10
13.1330722554
 20
-10.5281043092
 10
13.1366548087
 20
-10.5196661603
 10
13.1404401071
 20
-10.5112692518
 10
13.1444229099
 20
-10.5029252091
 10
13.1485977029
 20
-10.4946455846
 10
13.1529587061
 20
-10.4864418415
 10
13.1574998816
 20
-10.4783253379
 10
13.1622149422
 20
-10.4703073112
 10
13.1670973598
 20
-10.4623988622
 10
13.1721403747
 20
-10.4546109405
 10
13.1773370049
 20
-10.4469543282
 10
13.1826800555
 20
-10.4394396261
 10
13.1881621291
 20
-10.4320772383
 10
13.1937756358
 20
-10.424877358
 10
13.1995128036
 20
-10.4178499535
 10
13.2053656894
 20
-10.4110047543
 10
13.2113261898
 20
-10.4043512376
 10
13.2173860525
 20
-10.3978986153
 10
13.2235368876
 20
-10.3916558209
 10
13.2297701792
 20
-10.3856314977
 10
13.2360772974
 20
-10.3798339864
 10
13.2424495098
 20
-10.3742713136
 10
13.2488779942
 20
-10.3689511809
 10
13.2553538502
 20
-10.3638809541
 10
13.261868112
 20
-10.3590676529
 10
13.2684117606
 20
-10.3545179414
 10
13.2749757362
 20
-10.3502381185
 10
13.2815509511
 20
-10.3462341099
  0
LWPOLYLINE
  5
28E
100
AcDbEntity
  8
ASSI
100
AcDbPolyline
 62
253
  6
CONTINUOUS
 90
3
 70
0
 10
13.1722498157
 20
-2.5349482346
 10
13.1589356088
 20
-3.3677886673
 10
13.1367983607
 20
-5.0311205912
  0
LWPOLYLINE
  5
28F
100
AcDbEntity
  8
ASSI
100
AcDbPolyline
 62
253
  6
CONTINUOUS
 90
22
 70
0
 10
13.896244837
 20
7.4137596518
 10
13.8364342469
 20
6.9293155502
 10
13.779146024
 20
6.4458236676
 10
13.7243823076
 20
5.9633027566
 10
13.6721450793
 20
5.4817715769
 10
13.6224363527
 20
5.0012487547
 10
13.5752581743
 20
4.5217527814
 10
13.5306123154
 20
4.0433022381
 10
13.4885004333
 20
3.565915682
 10
13.4489242627
 20
3.0896115061
 10
13.4118852913
 20
2.6144081712
 10
13.3773848917
 20
2.1403240941
 10
13.3454244834
 20
1.6673775349
 10
13.3160052694
 20
1.1955868079
 10
13.2891283384
 20
0.7249702036
 10
13.2647947972
 20
0.2555458761
 10
13.2430055641
 20
-0.2126679927
 10
13.2237614423
 20
-0.679653266
 10
13.2070632236
 20
-1.1453919297
 10
13.1929115558
 20
-1.6098659722
 10
13.1813069422
 20
-2.0730573849
 10
13.1722498157
 20
-2.5349482346
  0
LWPOLYLINE
  5
290
100
AcDbEntity
  8
ASSI
100
AcDbPolyline
 62
253
  6
CONTINUOUS
 90
49
 70
0
 10
14.9295074153
 20
7.8749293589
 10
14.9287001928
 20
7.8880288798
 10
14.927529531
 20
7.9013399717
 10
14.9259966804
 20
7.9148484137
 10
14.9241032786
 20
7.9285397743
 10
14.9218513485
 20
7.9423994266
 10
14.9192432957
 20
7.9564125638
 10
14.9162819067
 20
7.9705642151
 10
14.9129703452
 20
7.9848392619
 10
14.9093121489
 20
7.9992224535
 10
14.9053112262
 20
8.0136984239
 10
14.9009718513
 20
8.0282517078
 10
14.8962986602
 20
8.0428667576
 10
14.8912966454
 20
8.0575279594
 10
14.8859711506
 20
8.07221965
 10
14.8803278654
 20
8.0869261339
 10
14.8743728186
 20
8.1016316995
 10
14.8681123723
 20
8.1163206364
 10
14.8615532147
 20
8.1309772519
 10
14.8547023532
 20
8.1455858877
 10
14.8475671068
 20
8.1601309369
 10
14.8401550983
 20
8.1745968605
 10
14.8324742463
 20
8.188968204
 10
14.8245327565
 20
8.2032296141
 10
14.8163391131
 20
8.2173658546
 10
14.8079020696
 20
8.2313618234
 10
14.7992306397
 20
8.2452025681
 10
14.7903340873
 20
8.258873302
 10
14.781221917
 20
8.2723594202
 10
14.7719038636
 20
8.2856465151
 10
14.762389882
 20
8.2987203914
 10
14.7526901362
 20
8.311567082
 10
14.7428149889
 20
8.3241728622
 10
14.73277499
 20
8.3365242648
 10
14.7225808657
 20
8.3486080944
 10
14.7122435066
 20
8.3604114413
 10
14.7017739567
 20
8.3719216956
 10
14.6911834008
 20
8.3831265605
 10
14.6804831532
 20
8.3940140654
 10
14.6696846455
 20
8.4045725788
 10
14.6587994141
 20
8.4147908206
 10
14.647839088
 20
8.4246578744
 10
14.6368153765
 20
8.4341631987
 10
14.6257400568
 20
8.4432966387
 10
14.614624961
 20
8.4520484368
 10
14.6034819637
 20
8.4604092431
 10
14.5923229694
 20
8.4683701255
 10
14.5811598997
 20
8.4759225791
 10
14.5700046805
 20
8.4830585352
  0
LWPOLYLINE
  5
291
100
AcDbEntity
  8
ASSI
100
AcDbPolyline
 62
253
  6
CONTINUOUS
 90
43
 70
0
 10
13.8008683114
 20
-10.656803283
 10
13.8006895166
 20
-10.6491311529
 10
13.800272605
 20
-10.6413221587
 10
13.7996181596
 20
-10.6333872179
 10
13.7987270952
 20
-10.6253374238
 10
13.7976006576
 20
-10.6171840305
 10
13.7962404217
 20
-10.6089384368
 10
13.7946482892
 20
-10.6006121705
 10
13.7928264858
 20
-10.592216872
 10
13.7907775586
 20
-10.5837642785
 10
13.7885043721
 20
-10.5752662071
 10
13.7860101043
 20
-10.5667345384
 10
13.7832982423
 20
-10.5581812002
 10
13.7803725775
 20
-10.5496181505
 10
13.7772372
 20
-10.5410573608
 10
13.7738964933
 20
-10.5325107995
 10
13.7703551279
 20
-10.5239904152
 10
13.7666180547
 20
-10.5155081197
 10
13.7626904984
 20
-10.5070757717
 10
13.7585779499
 20
-10.49870516
 10
13.7542861588
 20
-10.4904079872
 10
13.7498211251
 20
-10.4821958531
 10
13.7451890912
 20
-10.4740802386
 10
13.740396533
 20
-10.4660724899
 10
13.7354501506
 20
-10.458183802
 10
13.7303568594
 20
-10.4504252038
 10
13.72512378
 20
-10.4428075421
 10
13.7197582285
 20
-10.4353414669
 10
13.7142677062
 20
-10.4280374159
 10
13.7086598892
 20
-10.4209056007
 10
13.7029426173
 20
-10.4139559919
 10
13.6971238838
 20
-10.4071983053
 10
13.6912118233
 20
-10.4006419885
 10
13.6852147014
 20
-10.3942962076
 10
13.6791409021
 20
-10.3881698342
 10
13.6729989171
 20
-10.3822714333
 10
13.6667973331
 20
-10.3766092511
 10
13.6605448201
 20
-10.3711912036
 10
13.6542501196
 20
-10.3660248656
 10
13.6479220318
 20
-10.3611174598
 10
13.6415694036
 20
-10.356475847
 10
13.6352011164
 20
-10.3521065163
 10
13.6288260733
 20
-10.3480155763
  0
LWPOLYLINE
  5
292
100
AcDbEntity
  8
ASSI
100
AcDbPolyline
 62
253
  6
CONTINUOUS
 90
22
 70
0
 10
13.8667385642
 20
-18.0471638101
 10
13.8757479226
 20
-18.4968152753
 10
13.8872900752
 20
-18.9449967694
 10
13.9013650222
 20
-19.3917082924
 10
13.917973503
 20
-19.8369670564
 10
13.9371147781
 20
-20.2807558492
 10
13.9587866289
 20
-20.7230230346
 10
13.9829893478
 20
-21.1637683927
 10
14.0097226423
 20
-21.6029921432
 10
14.0389834158
 20
-22.0406433089
 10
14.070771961
 20
-22.4767217023
 10
14.1050879853
 20
-22.9112275107
 10
14.1419275145
 20
-23.3441103187
 10
14.1812908415
 20
-23.7753699434
 10
14.2231776733
 20
-24.2050065677
 10
14.2675831572
 20
-24.6329703249
 10
14.3145075892
 20
-25.0592610489
 10
14.3639506733
 20
-25.4838789058
 10
14.4159066686
 20
-25.9067745281
 10
14.4703736615
 20
-26.3279314599
 10
14.5273535656
 20
-26.7473661571
 10
14.5868463809
 20
-27.1650786197
  0
LINE
  5
293
100
AcDbEntity
  8
ASSI
100
AcDbLine
 62
253
  6
CONTINUOUS
 10
13.8416268106
 20
-16.410617938
 11
13.8667385642
 21
-18.0471638101
  0
LINE
  5
294
100
AcDbEntity
  8
ASSI
100
AcDbLine
 62
253
  6
CONTINUOUS
 10
13.8225000527
 20
-14.7707788254
 11
13.8416268106
 21
-16.410617938
  0
LINE
  5
295
100
AcDbEntity
  8
ASSI
100
AcDbLine
 62
253
  6
CONTINUOUS
 10
13.8093585336
 20
-13.1276489715
 11
13.8225000527
 21
-14.7707788254
  0
LWPOLYLINE
  5
296
100
AcDbEntity
  8
ASSI
100
AcDbPolyline
 62
253
  6
CONTINUOUS
 90
3
 70
0
 10
13.8008703399
 20
-10.6568021711
 10
13.8022032256
 20
-11.4812383737
 10
13.8093585336
 20
-13.1276489715
  0
LINE
  5
297
100
AcDbEntity
  8
ASSI
100
AcDbLine
 62
253
  6
CONTINUOUS
 10
13.8050326235
 20
-8.3584990592
 11
13.8008703399
 21
-10.0110329965
  0
LINE
  5
298
100
AcDbEntity
  8
ASSI
100
AcDbLine
 62
253
  6
CONTINUOUS
 10
13.8151810371
 20
-6.7028005645
 11
13.8050326235
 21
-8.3584990592
  0
LINE
  5
299
100
AcDbEntity
  8
ASSI
100
AcDbLine
 62
253
  6
CONTINUOUS
 10
13.8313153376
 20
-5.0439402734
 11
13.8151810371
 21
-6.7028005645
  0
LINE
  5
29A
100
AcDbEntity
  8
ASSI
100
AcDbLine
 62
253
  6
CONTINUOUS
 10
13.8534345528
 20
-3.3819292302
 11
13.8313153376
 21
-5.0439402734
  0
LWPOLYLINE
  5
29B
100
AcDbEntity
  8
ASSI
100
AcDbPolyline
 62
253
  6
CONTINUOUS
 90
23
 70
0
 10
13.8008683114
 20
-10.0110340689
 10
13.8006895166
 20
-10.0186228005
 10
13.8002726051
 20
-10.0260533326
 10
13.7996181598
 20
-10.0333152771
 10
13.7987270957
 20
-10.0403984813
 10
13.7976006583
 20
-10.0472930427
 10
13.7962404227
 20
-10.0539893223
 10
13.7946482905
 20
-10.0604779583
 10
13.7928264875
 20
-10.0667498794
 10
13.7907775607
 20
-10.0727963171
 10
13.7885043746
 20
-10.0786088182
 10
13.7860101072
 20
-10.0841792565
 10
13.7832982457
 20
-10.0894998443
 10
13.7803725814
 20
-10.0945631431
 10
13.7772372044
 20
-10.0993620743
 10
13.7738964982
 20
-10.1038899286
 10
13.7703551332
 20
-10.1081403759
 10
13.7666180605
 20
-10.112107474
 10
13.7626905046
 20
-10.1157856765
 10
13.7585779565
 20
-10.1191698412
 10
13.7542861658
 20
-10.1222552369
 10
13.7498211324
 20
-10.12503755
 10
13.7472921546
 20
-10.1264380636
  0
LWPOLYLINE
  5
29C
100
AcDbEntity
  8
ASSI
100
AcDbPolyline
 62
253
  6
CONTINUOUS
 90
22
 70
0
 10
14.5868463809
 20
7.3436178591
 10
14.5273535656
 20
6.861840853
 10
14.4703736615
 20
6.3810476283
 10
14.4159066686
 20
5.901238185
 10
14.3639506733
 20
5.4223940064
 10
14.3145075892
 20
4.9445336093
 10
14.2675831572
 20
4.4677125432
 10
14.2231776733
 20
3.9919309605
 10
14.1812908415
 20
3.5171887088
 10
14.1419275145
 20
3.0435408805
 10
14.1050879853
 20
2.5709876079
 10
14.070771961
 20
2.0995287587
 10
14.0389834158
 20
1.6292190278
 10
14.0097226423
 20
1.1600585431
 10
13.9829893478
 20
0.6920471768
 10
13.9587866289
 20
0.2252392407
 10
13.9371147781
 20
-0.2403651698
 10
13.917973503
 20
-0.7047661499
 10
13.9013650222
 20
-1.1679096742
 10
13.8872900752
 20
-1.6297777341
 10
13.8757479226
 20
-2.0903883382
 10
13.8534345528
 20
-3.3819292302
  0
LINE
  5
29D
100
AcDbEntity
  8
ASSI
100
AcDbLine
 62
253
  6
CONTINUOUS
 10
17.4420502573
 20
-8.2577620058
 11
13.6288260733
 21
-10.3480155763
  0
LWPOLYLINE
  5
29E
100
AcDbEntity
  8
ASSI
100
AcDbPolyline
 62
253
  6
CONTINUOUS
 90
52
 70
0
 10
13.6288260733
 20
-10.3480155763
 10
13.623235959
 20
-10.3509890017
 10
13.6175065316
 20
-10.35385908
 10
13.6116377911
 20
-10.3566258114
 10
13.6056240597
 20
-10.3592915756
 10
13.5994710152
 20
-10.3618539928
 10
13.593195691
 20
-10.3643059236
 10
13.5867978459
 20
-10.3666470156
 10
13.5802777212
 20
-10.3688776211
 10
13.5736530731
 20
-10.3709916576
 10
13.5669236313
 20
-10.3729887998
 10
13.5600896662
 20
-10.3748693731
 10
13.5531697455
 20
-10.3766282705
 10
13.5461636473
 20
-10.3782651604
 10
13.5390715935
 20
-10.3797803745
 10
13.5319128177
 20
-10.3811698016
 10
13.5246871188
 20
-10.3824331034
 10
13.517394698
 20
-10.3835706184
 10
13.5100553919
 20
-10.3845792502
 10
13.5026690828
 20
-10.3854586464
 10
13.4952358883
 20
-10.3862091594
 10
13.4877759987
 20
-10.3868287507
 10
13.4802893359
 20
-10.3873170642
 10
13.4727759778
 20
-10.3876744559
 10
13.4652563481
 20
-10.3878999549
 10
13.4577304403
 20
-10.3879932025
 10
13.4501982609
 20
-10.3879545574
 10
13.4426802534
 20
-10.3877841244
 10
13.4351764444
 20
-10.3874815449
 10
13.4276868074
 20
-10.3870471775
 10
13.4202317057
 20
-10.3864822031
 10
13.4128112401
 20
-10.3857862665
 10
13.4054253099
 20
-10.3849597229
 10
13.3980939762
 20
-10.384004818
 10
13.3908173779
 20
-10.3829212007
 10
13.3835953761
 20
-10.3817092222
 10
13.3764476148
 20
-10.3803721816
 10
13.3693743154
 20
-10.378909743
 10
13.3623752567
 20
-10.3773222423
 10
13.3554694185
 20
-10.3756139869
 10
13.3486570423
 20
-10.3737846474
 10
13.3419378867
 20
-10.3718345532
 10
13.335330207
 20
-10.3697690006
 10
13.3288342931
 20
-10.3675876672
 10
13.3224498552
 20
-10.3652908753
 10
13.3161942787
 20
-10.3628848874
 10
13.3100678304
 20
-10.3603693563
 10
13.3040702437
 20
-10.3577446292
 10
13.2982181038
 20
-10.3550180106
 10
13.2925169394
 20
-10.3521919352
 10
13.2869612218
 20
-10.3492639683
 10
13.2815509511
 20
-10.3462341099
  0
LINE
  5
29F
100
AcDbEntity
  8
ASSI
100
AcDbLine
 62
253
  6
CONTINUOUS
 10
13.8008703399
 20
-10.0110329965
 11
17.6188808354
 21
-7.9925045351
  0
LINE
  5
2A0
100
AcDbEntity
  8
ASSI
100
AcDbLine
 62
7
  6
CONTINUOUS
 10
13.7472153338
 20
-10.1264787318
 11
17.5644127796
 21
-8.1083801184
  0
LINE
  5
2A1
100
AcDbEntity
  8
ASSI
100
AcDbLine
 62
7
  6
CONTINUOUS
 10
6.8065719519
 20
15.4463615183
 11
6.1338651311
 21
15.3164790345
  0
LINE
  5
2A2
100
AcDbEntity
  8
ASSI
100
AcDbLine
 62
253
  6
CONTINUOUS
 10
13.896244837
 20
7.4137596518
 11
-16.8001356672
 21
25.1374650389
  0
LINE
  5
2A3
100
AcDbEntity
  8
ASSI
100
AcDbLine
 62
253
  6
CONTINUOUS
 10
14.5700046805
 20
8.4830585352
 11
-16.1495002741
 21
26.2201156902
  0
LINE
  5
2A4
100
AcDbEntity
  8
ASSI
100
AcDbLine
 62
7
  6
CONTINUOUS
 10
17.6188808354
 20
-8.5639249404
 11
17.6188808354
 21
-18.9739753637
  0
LINE
  5
2A5
100
AcDbEntity
  8
ASSI
100
AcDbLine
 62
7
  6
CONTINUOUS
 10
17.6188808354
 20
-7.9925045351
 11
17.6188808354
 21
2.4175458883
  0
LWPOLYLINE
  5
2A6
100
AcDbEntity
  8
ASSI
100
AcDbPolyline
 62
253
  6
CONTINUOUS
 90
27
 70
0
 10
14.9295074153
 20
-27.3273972818
 10
14.9287001928
 20
-27.3409443431
 10
14.9275295309
 20
-27.354251366
 10
14.9259966801
 20
-27.3673041341
 10
14.9241032782
 20
-27.3800887026
 10
14.9218513478
 20
-27.3925914134
 10
14.9192432949
 20
-27.4047989094
 10
14.9162819056
 20
-27.4166981487
 10
14.9129703438
 20
-27.4282764191
 10
14.9093121473
 20
-27.4395213511
 10
14.9053112243
 20
-27.4504209312
 10
14.9009718491
 20
-27.460963515
 10
14.8962986576
 20
-27.4711378396
 10
14.8912966424
 20
-27.4809330354
 10
14.8859711474
 20
-27.4903386376
 10
14.8803278618
 20
-27.4993445982
 10
14.8743728148
 20
-27.5079412955
 10
14.8681123681
 20
-27.5161195455
 10
14.8615532102
 20
-27.523870611
 10
14.8547023484
 20
-27.5311862113
 10
14.8475671018
 20
-27.5380585308
 10
14.8401550931
 20
-27.5444802277
 10
14.8324742408
 20
-27.5504444414
 10
14.8245327509
 20
-27.5559448
 10
14.8163391073
 20
-27.5609754275
 10
14.8079020637
 20
-27.5655309492
 10
14.8048558359
 20
-27.5670301873
  0
LINE
  5
2A7
100
AcDbEntity
  8
ASSI
100
AcDbLine
 62
253
  6
CONTINUOUS
 10
17.6188808354
 20
-8.5639249404
 11
13.8008703399
 21
-10.6568021711
  0
LWPOLYLINE
  5
2A8
100
AcDbEntity
  8
ASSI
100
AcDbPolyline
 62
253
  6
CONTINUOUS
 90
52
 70
0
 10
13.8008703399
 20
-10.6568021801
 10
13.7897048768
 20
-10.662693511
 10
13.7782403312
 20
-10.6683878604
 10
13.7664871031
 20
-10.6738801103
 10
13.7544559077
 20
-10.6791653462
 10
13.7421576072
 20
-10.6842388025
 10
13.7296031901
 20
-10.6890958579
 10
13.716803925
 20
-10.6937321831
 10
13.7037715178
 20
-10.6981435675
 10
13.6905179443
 20
-10.7023258675
 10
13.6770552858
 20
-10.7062753154
 10
13.6633956952
 20
-10.7099883938
 10
13.6495515481
 20
-10.7134616583
 10
13.6355354158
 20
-10.7166919962
 10
13.6213599951
 20
-10.7196765248
 10
13.6070380808
 20
-10.7224124697
 10
13.5925826218
 20
-10.7248973913
 10
13.5780067644
 20
-10.7271290667
 10
13.5633237796
 20
-10.7291053876
 10
13.5485470039
 20
-10.7308245951
 10
13.5336898188
 20
-10.7322851723
 10
13.5187656915
 20
-10.7334857241
 10
13.5037881464
 20
-10.7344251951
 10
13.4887707769
 20
-10.7351027692
 10
13.473727227
 20
-10.7355177653
 10
13.4586711654
 20
-10.735669838
 10
13.4436162206
 20
-10.7355588862
 10
13.4285759933
 20
-10.7351849493
 10
13.4135640975
 20
-10.7345483905
 10
13.3985941735
 20
-10.7336498176
 10
13.383679822
 20
-10.7324899917
 10
13.3688345793
 20
-10.7310699889
 10
13.3540718978
 20
-10.7293911251
 10
13.3394051584
 20
-10.7274548731
 10
13.3248476428
 20
-10.7252630055
 10
13.3104125732
 20
-10.7228175374
 10
13.2961130912
 20
-10.7201206549
 10
13.281962201
 20
-10.7171748303
 10
13.2679726961
 20
-10.7139827527
 10
13.2541572008
 20
-10.7105472688
 10
13.2405282288
 20
-10.7068715012
 10
13.227098157
 20
-10.702958805
 10
13.2138791543
 20
-10.6988126968
 10
13.2008831558
 20
-10.6944369249
 10
13.1881220052
 20
-10.689835488
 10
13.1756074229
 20
-10.6850125963
 10
13.1633508505
 20
-10.6799726764
 10
13.1513632913
 20
-10.6747202774
 10
13.1396554592
 20
-10.6692600856
 10
13.1282379259
 20
-10.6635970244
 10
13.1171210989
 20
-10.6577362594
 10
13.1063150627
 20
-10.6516831056
  0
LINE
  5
2A9
100
AcDbEntity
  8
ASSI
100
AcDbLine
 62
7
  6
CONTINUOUS
 10
-12.3515077069
 20
25.903767777
 11
-9.9692226108
 21
24.5282662196
  0
LINE
  5
2AA
100
AcDbEntity
  8
ASSI
100
AcDbLine
 62
7
  6
CONTINUOUS
 10
-4.4319117576
 20
21.3310923317
 11
-2.0496266616
 21
19.9555907743
  0
LINE
  5
2AB
100
AcDbEntity
  8
ASSI
100
AcDbLine
 62
7
  6
CONTINUOUS
 10
3.5583948698
 20
16.7175894271
 11
5.9406799659
 21
15.3420878697
  0
LINE
  5
2AC
100
AcDbEntity
  8
ASSI
100
AcDbLine
 62
7
  6
CONTINUOUS
 10
11.4779908191
 20
12.1449139819
 11
13.8602759151
 21
10.7694124244
  0
LINE
  5
2AD
100
AcDbEntity
  8
ASSI
100
AcDbLine
 62
7
  6
CONTINUOUS
 10
-14.1794631815
 20
27.5634351875
 11
-12.2230202666
 21
26.4338095684
  0
LINE
  5
2AE
100
AcDbEntity
  8
ASSI
100
AcDbLine
 62
7
  6
CONTINUOUS
 10
-9.1033306248
 20
24.6325398682
 11
-4.3034243173
 21
21.8611341232
  0
LINE
  5
2AF
100
AcDbEntity
  8
ASSI
100
AcDbLine
 62
7
  6
CONTINUOUS
 10
-1.1837346755
 20
20.0598644229
 11
3.6868823101
 21
17.2476312186
  0
LINE
  5
2B0
100
AcDbEntity
  8
ASSI
100
AcDbLine
 62
7
  6
CONTINUOUS
 10
6.8065719519
 20
15.4463615183
 11
11.6064782594
 21
12.6749557733
  0
LINE
  5
2B1
100
AcDbEntity
  8
ASSI
100
AcDbLine
 62
7
  6
CONTINUOUS
 10
14.7261679012
 20
10.873686073
 11
16.6826108162
 21
9.7440604539
  0
LINE
  5
2B2
100
AcDbEntity
  8
ASSI
100
AcDbLine
 62
7
  6
CONTINUOUS
 10
17.0675849746
 20
9.1511350174
 11
17.6188808354
 21
2.4175458883
  0
LINE
  5
2B3
100
AcDbEntity
  8
ASSI
100
AcDbLine
 62
7
  6
CONTINUOUS
 10
17.0675849746
 20
-26.3012247101
 11
17.6188808354
 21
-18.9739753637
  0
LINE
  5
2B4
100
AcDbEntity
  8
ASSI
100
AcDbLine
 62
7
  6
CONTINUOUS
 10
-1.1837346755
 20
20.0598644229
 11
-1.8564414963
 21
19.9299819391
  0
LWPOLYLINE
  5
2B5
100
AcDbEntity
  8
ASSI
100
AcDbPolyline
 62
253
  6
CONTINUOUS
 90
49
 70
0
 10
13.8667385642
 20
-18.0471638101
 10
13.8548672548
 20
-18.0536018278
 10
13.8426589929
 20
-18.0598170975
 10
13.8301262769
 20
-18.0658032563
 10
13.8172819376
 20
-18.0715541758
 10
13.8041391245
 20
-18.0770639681
 10
13.790711293
 20
-18.0823269927
 10
13.7770121901
 20
-18.0873378613
 10
13.7630558407
 20
-18.0920914439
 10
13.7488565328
 20
-18.096582874
 10
13.7344288034
 20
-18.1008075533
 10
13.7197874231
 20
-18.1047611567
 10
13.7049473816
 20
-18.1084396366
 10
13.6899238715
 20
-18.1118392271
 10
13.6747322736
 20
-18.1149564478
 10
13.6593881407
 20
-18.1177881073
 10
13.6439071816
 20
-18.1203313067
 10
13.6283052454
 20
-18.1225834423
 10
13.612598305
 20
-18.1245422084
 10
13.5968024406
 20
-18.1262055996
 10
13.5809338237
 20
-18.1275719132
 10
13.5650087002
 20
-18.1286397502
 10
13.5490433738
 20
-18.1294080174
 10
13.5330541893
 20
-18.1298759283
 10
13.5170575162
 20
-18.1300430039
 10
13.5010697313
 20
-18.1299090731
 10
13.4851072026
 20
-18.129474273
 10
13.4691862721
 20
-18.1287390488
 10
13.4533232391
 20
-18.1277041532
 10
13.437534344
 20
-18.1263706457
 10
13.4218357508
 20
-18.1247398914
 10
13.4062435315
 20
-18.1228135599
 10
13.390773649
 20
-18.1205936234
 10
13.3754419408
 20
-18.1180823545
 10
13.3602641033
 20
-18.1152823242
 10
13.3452556751
 20
-18.1121963992
 10
13.3304320215
 20
-18.1088277386
 10
13.3158083184
 20
-18.1051797913
 10
13.3013995373
 20
-18.101256292
 10
13.2872204295
 20
-18.0970612573
 10
13.2732855113
 20
-18.0925989821
 10
13.2596090487
 20
-18.0878740348
 10
13.2462050435
 20
-18.0828912525
 10
13.2330872183
 20
-18.0776557366
 10
13.2202690028
 20
-18.0721728471
 10
13.2077635199
 20
-18.0664481971
 10
13.1955835725
 20
-18.0604876475
 10
13.18374163
 20
-18.0542973004
 10
13.172249816
 20
-18.0478834935
  0
LINE
  5
2B6
100
AcDbEntity
  8
ASSI
100
AcDbLine
 62
7
  6
CONTINUOUS
 10
-9.1033306248
 20
24.6325398682
 11
-9.7760374456
 21
24.5026573844
  0
LWPOLYLINE
  5
2B7
100
AcDbEntity
  8
ASSI
100
AcDbPolyline
 62
253
  6
CONTINUOUS
 90
49
 70
0
 10
14.5868463809
 20
-27.1650786197
 10
14.575100873
 20
-27.1731492243
 10
14.5630181153
 20
-27.1809952975
 10
14.5506104838
 20
-27.1886088026
 10
14.5378906877
 20
-27.1959819411
 10
14.5248717555
 20
-27.2031071609
 10
14.5115670225
 20
-27.2099771637
 10
14.4979901164
 20
-27.2165849127
 10
14.4841549439
 20
-27.2229236396
 10
14.4700756762
 20
-27.2289868519
 10
14.4557667344
 20
-27.2347683389
 10
14.4412427751
 20
-27.2402621788
 10
14.4265186748
 20
-27.2454627444
 10
14.4116095153
 20
-27.2503647088
 10
14.3965305678
 20
-27.2549630509
 10
14.3812972775
 20
-27.2592530608
 10
14.3659252476
 20
-27.2632303443
 10
14.3504302235
 20
-27.2668908275
 10
14.3348280765
 20
-27.2702307609
 10
14.3191347876
 20
-27.2732467237
 10
14.3033664313
 20
-27.2759356264
 10
14.2875391589
 20
-27.2782947151
 10
14.271669182
 20
-27.2803215731
 10
14.2557727561
 20
-27.2820141246
 10
14.2398661635
 20
-27.2833706358
 10
14.2239656973
 20
-27.2843897173
 10
14.208087644
 20
-27.2850703252
 10
14.1922482673
 20
-27.2854117624
 10
14.1764637912
 20
-27.2854136792
 10
14.1607503836
 20
-27.2850760736
 10
14.1451241394
 20
-27.2843992914
 10
14.1296010645
 20
-27.2833840258
 10
14.1141970589
 20
-27.2820313168
 10
14.0989279007
 20
-27.28034255
 10
14.0838092298
 20
-27.278319455
 10
14.0688565322
 20
-27.2759641041
 10
14.0540851236
 20
-27.2732789099
 10
14.0395101342
 20
-27.2702666228
 10
14.0251464929
 20
-27.2669303283
 10
14.0110089123
 20
-27.2632734435
 10
13.9971118733
 20
-27.2592997143
 10
13.9834696103
 20
-27.2550132109
 10
13.970096097
 20
-27.2504183239
 10
13.9570050317
 20
-27.2455197597
 10
13.9442098233
 20
-27.2403225359
 10
13.9317235778
 20
-27.234831976
 10
13.9195590848
 20
-27.2290537038
 10
13.9077288041
 20
-27.2229936379
 10
13.8962448532
 20
-27.2166579856
  0
LINE
  5
2B8
100
AcDbEntity
  8
ASSI
100
AcDbLine
 62
253
  6
CONTINUOUS
 10
14.9295074153
 20
-27.3273972818
 11
17.0675849746
 21
-26.3012247101
  0
LINE
  5
2B9
100
AcDbEntity
  8
ASSI
100
AcDbLine
 62
7
  6
CONTINUOUS
 10
14.8048558359
 20
-27.5670301873
 11
16.9293898961
 21
-26.5473578323
  0
ELLIPSE
  5
2BA
100
AcDbEntity
  8
ASSI
100
AcDbEllipse
 62
7
  6
CONTINUOUS
 10
17.4419963869
 20
-8.4618562434
 30
0.0
 11
-0.1251346745
 21
0.2164781009
 31
0.0
 40
0.577507303
 41
-2.3566621664
 42
-0.7861703913
  0
ELLIPSE
  5
2BB
100
AcDbEntity
  8
ASSI
100
AcDbEllipse
 62
7
  6
CONTINUOUS
 10
16.7138743606
 20
-26.0961883455
 30
0.0
 11
-0.2149783503
 21
0.4514263066
 31
0.0
 40
0.6262155472
 41
-3.1396910161
 42
-2.3109372224
  0
ELLIPSE
  5
2BC
100
AcDbEntity
  8
ASSI
100
AcDbEllipse
 62
7
  6
CONTINUOUS
 10
-14.1490607439
 20
27.1745567953
 30
0.0
 11
-0.2807337341
 21
0.4137505634
 31
0.0
 40
0.5254492115
 41
-0.8261225424
 42
0.0012090728
  0
ELLIPSE
  5
2BD
100
AcDbEntity
  8
ASSI
100
AcDbEllipse
 62
7
  6
CONTINUOUS
 10
17.4419963869
 20
-7.8903115047
 30
0.0
 11
-0.1251726487
 21
0.2165441215
 31
0.0
 40
0.5771556487
 41
-3.163409671
 42
-2.3569659634
  0
ELLIPSE
  5
2BE
100
AcDbEntity
  8
ASSI
100
AcDbEllipse
 62
7
  6
CONTINUOUS
 10
14.0016972714
 20
10.8596252219
 30
0.0
 11
0.1999154856
 21
0.0095814127
 31
0.0
 40
0.6067642562
 41
-2.385266879
 42
-1.3380693278
  0
ELLIPSE
  5
2BF
100
AcDbEntity
  8
ASSI
100
AcDbEllipse
 62
7
  6
CONTINUOUS
 10
6.0821013221
 20
15.4323006672
 30
0.0
 11
0.1999154856
 21
0.0095814127
 31
0.0
 40
0.6067642562
 41
-2.385266879
 42
-1.3380693278
  0
ELLIPSE
  5
2C0
100
AcDbEntity
  8
ASSI
100
AcDbEllipse
 62
7
  6
CONTINUOUS
 10
-1.9082053053
 20
20.0458035718
 30
0.0
 11
0.1999154856
 21
0.0095814127
 31
0.0
 40
0.6067642562
 41
-2.385266879
 42
-1.3380693278
  0
ELLIPSE
  5
2C1
100
AcDbEntity
  8
ASSI
100
AcDbEllipse
 62
7
  6
CONTINUOUS
 10
-9.8278012546
 20
24.618479017
 30
0.0
 11
0.1999154856
 21
0.0095814127
 31
0.0
 40
0.6067642562
 41
-2.385266879
 42
-1.3380693278
  0
ELLIPSE
  5
2C2
100
AcDbEntity
  8
ASSI
100
AcDbEllipse
 62
7
  6
CONTINUOUS
 10
16.7138743606
 20
9.3546848694
 30
0.0
 11
-0.2810161013
 21
0.4142924366
 31
0.0
 40
0.524175859
 41
-2.3937039903
 42
-0.8247341631
  0
ELLIPSE
  5
2C3
100
AcDbEntity
  8
ASSI
100
AcDbEllipse
 62
7
  6
CONTINUOUS
 10
3.699816226
 20
16.8078022246
 30
0.0
 11
0.1999154856
 21
0.0095814127
 31
0.0
 40
0.6067642562
 41
2.850720877
 42
3.8979184282
  0
ELLIPSE
  5
2C4
100
AcDbEntity
  8
ASSI
100
AcDbEllipse
 62
7
  6
CONTINUOUS
 10
11.6194121753
 20
12.2351267793
 30
0.0
 11
0.1999154856
 21
0.0095814127
 31
0.0
 40
0.6067642562
 41
2.850720877
 42
3.8979184282
  0
ELLIPSE
  5
2C5
100
AcDbEntity
  8
ASSI
100
AcDbEllipse
 62
7
  6
CONTINUOUS
 10
-4.2904904014
 20
21.4213051292
 30
0.0
 11
0.1999154856
 21
0.0095814127
 31
0.0
 40
0.6067642562
 41
2.850720877
 42
3.8979184282
  0
ELLIPSE
  5
2C6
100
AcDbEntity
  8
ASSI
100
AcDbEllipse
 62
7
  6
CONTINUOUS
 10
-12.2100863507
 20
25.9939805745
 30
0.0
 11
0.1999154856
 21
0.0095814127
 31
0.0
 40
0.6067642562
 41
2.850720877
 42
3.8979184282
  0
ENDSEC
  0
SECTION
  2
OBJECTS
  0
DICTIONARY
  5
C
100
AcDbDictionary
280
0
281
1
  3
ACAD_GROUP
350
D
  3
ACAD_MLINESTYLE
350
17
  3
ACAD_LAYOUT
350
1A
  3
ACAD_PLOTSETTINGS
350
19
  3
ACAD_PLOTSTYLENAME
350
E
  0
DICTIONARY
  5
D
102
{ACAD_REACTORS
330
C
102
}
100
AcDbDictionary
280
0
281
1
  0
ACDBDICTIONARYWDFLT
  5
E
102
{ACAD_REACTORS
330
C
102
}
100
AcDbDictionary
281
1
  3
Normal
350
F
100
AcDbDictionaryWithDefault
340
F
  0
DICTIONARY
  5
17
102
{ACAD_REACTORS
330
C
102
}
100
AcDbDictionary
280
0
281
1
  3
Standard
350
18
  0
DICTIONARY
  5
19
102
{ACAD_REACTORS
330
C
102
}
100
AcDbDictionary
281
1
  0
DICTIONARY
  5
1A
102
{ACAD_REACTORS
330
C
102
}
100
AcDbDictionary
281
1
  3
Model
350
2C7
  3
Layout1
350
2C8
  0
ACDBPLACEHOLDER
  5
F
102
{ACAD_REACTORS
330
E
102
}
  0
MLINESTYLE
  5
18
102
{ACAD_REACTORS
330
17
102
}
100
AcDbMlineStyle
  2
STANDARD
 70
0
  3

 62
256
 51
90.0
 52
90.0
 71
2
 49
0.5
 62
256
  6
BYLAYER
 49
-0.5
 62
256
  6
BYLAYER
  0
LAYOUT
  5
2C7
102
{ACAD_REACTORS
330
1A
102
}
100
AcDbPlotSettings
  1

  2
none_device
  4
ISO_A4_(297.00_x_210.00_MM)
  6

 40
0.0
 41
0.0
 42
0.0
 43
0.0
 44
297.0
 45
210.0
 46
0.0
 47
0.0
 48
0.0
 49
0.0
140
0.0
141
0.0
142
1.0
143
1.0
 70
1024
 72
1
 73
0
 74
0
  7

 75
0
147
1.0
148
0.0
149
0.0
100
AcDbLayout
  1
Model
 70
0
 71
0
 10
0.0
 20
0.0
 11
297.0
 21
210.0
 12
0.0
 22
0.0
 32
0.0
 14
0.0
 24
0.0
 34
0.0
 15
0.0
 25
0.0
 35
0.0
146
0.0
 13
0.0
 23
0.0
 33
0.0
 16
1.0
 26
0.0
 36
0.0
 17
0.0
 27
1.0
 37
0.0
 76
0
330
218
345
0
346
0
  0
LAYOUT
  5
2C8
102
{ACAD_REACTORS
330
1A
102
}
100
AcDbPlotSettings
  1

  2
none_device
  4
ISO_A4_(297.00_x_210.00_MM)
  6

 40
0.0
 41
0.0
 42
0.0
 43
0.0
 44
297.0
 45
210.0
 46
0.0
 47
0.0
 48
0.0
 49
0.0
140
0.0
141
0.0
142
1.0
143
1.0
 70
0
 72
1
 73
0
 74
0
  7

 75
0
147
1.0
148
0.0
149
0.0
100
AcDbLayout
  1
Layout1
 70
0
 71
1
 10
0.0
 20
0.0
 11
297.0
 21
210.0
 12
0.0
 22
0.0
 32
0.0
 14
0.0
 24
0.0
 34
0.0
 15
0.0
 25
0.0
 35
0.0
146
0.0
 13
0.0
 23
0.0
 33
0.0
 16
1.0
 26
0.0
 36
0.0
 17
0.0
 27
1.0
 37
0.0
 76
0
330
219
345
0
346
0
  0
ENDSEC
  0
EOF
