  0
SECTION
  2
HEADER
  9
$ACADVER
  1
AC1021
  9
$DWGCODEPAGE
  3
ANSI_1252
  9
$EXTMAX
 10
297.0
 20
210.0
 30
0.0
  9
$EXTMIN
 10
0.0
 20
0.0
 30
0.0
  9
$LIMMIN
 10
0.0
 20
0.0
  9
$LIMMAX
 10
297.0
 20
210.0
  9
$VIEWCTR
 10
148.5
 20
105.0
  9
$VIEWSIZE
 40
210.0
  9
$CLAYER
  8
0
  9
$LTSCALE
 40
16.335
  9
$CELTYPE
  6
BYLAYER
  9
$DIMSCALE
 40
1.0
  9
$DIMASZ
 40
3.0
  9
$DIMEXO
 40
0.5
  9
$DIMDLI
 40
11.286
  9
$DIMEXE
 40
1.5
  9
$DIMCEN
 40
2.673
  9
$DIMLFAC
 40
1.0
  9
$DIMBLK
  1
_FILLED
  9
$DIMALT
 70
0
  9
$DIMALTF
 40
25.4
  9
$DIMTXT
 40
3.0
  9
$DIMTOL
 70
1
  9
$DIMLIM
 70
0
  9
$DIMTFAC
 40
1.0
  9
$DIMTP
 40
0.01
  9
$DIMTM
 40
0.01
  9
$DIMGAP
 40
0.625
  9
$DIMDSEP
 70
44
  9
$AUNITS
 70
0
  9
$PDMODE
 70
3
  9
$PDSIZE
 40
3.0
  9
$HANDSEED
  5
308
  9
$TILEMODE
 70
1
  9
$MEASUREMENT
 70
1
  9
$INSUNITS
 70
4
  0
ENDSEC
  0
SECTION
  2
CLASSES
  0
CLASS
  1
ACDBDICTIONARYWDFLT
  2
AcDbDictionaryWithDefault
  3
AutoCAD 2000
 90
0
 91
1
280
0
281
0
  0
CLASS
  1
ACDBPLACEHOLDER
  2
AcDbPlaceHolder
  3
AutoCAD 2000
 90
0
 91
1
280
0
281
0
  0
CLASS
  1
LAYOUT
  2
AcDbLayout
  3
AutoCAD 2000
 90
0
 91
0
280
0
281
0
  0
ENDSEC
  0
SECTION
  2
TABLES
  0
TABLE
  2
VPORT
  5
8
100
AcDbSymbolTable
 70
2
  0
VPORT
  5
1F4
100
AcDbSymbolTableRecord
100
AcDbViewportTableRecord
  2
*ACTIVE
 70
0
 10
0.0
 20
0.0
 11
1.0
 21
1.0
 12
148.5
 22
105.0
 13
0.0
 23
0.0
 14
1.0
 24
1.0
 15
0.0
 25
0.0
 16
0.0
 26
0.0
 36
1.0
 17
0.0
 27
0.0
 37
0.0
 40
210.0
 41
1.4142857143
 42
50.0
 43
0.0
 44
0.0
 50
0.0
 51
0.0
 71
0
 72
100
 73
1
 74
1
 75
0
 76
0
 77
0
 78
0
  0
ENDTAB
  0
TABLE
  2
LTYPE
  5
5
100
AcDbSymbolTable
 70
6
  0
LTYPE
  5
14
100
AcDbSymbolTableRecord
100
AcDbLinetypeTableRecord
  2
BYBLOCK
 70
0
  3

 72
65
 73
0
 40
0.0
  0
LTYPE
  5
15
100
AcDbSymbolTableRecord
100
AcDbLinetypeTableRecord
  2
BYLAYER
 70
0
  3

 72
65
 73
0
 40
0.0
  0
LTYPE
  5
16
100
AcDbSymbolTableRecord
100
AcDbLinetypeTableRecord
  2
CONTINUOUS
 70
64
  3
Solid line
 72
65
 73
0
 40
0.0
  0
LTYPE
  5
1F5
100
AcDbSymbolTableRecord
100
AcDbLinetypeTableRecord
  2
CENTER
 70
64
  3
____ _ ____ _ ____ _ ____ _ ____ _ ____ _ ____
 72
65
 73
4
 40
0.6
 49
0.375
 74
0
 49
-0.075
 74
0
 49
0.075
 74
0
 49
-0.075
 74
0
  0
LTYPE
  5
1F6
100
AcDbSymbolTableRecord
100
AcDbLinetypeTableRecord
  2
HIDDEN
 70
64
  3
- - - - - - - - - - - - - - - - - - - -
 72
65
 73
2
 40
0.2
 49
0.1
 74
0
 49
-0.1
 74
0
  0
LTYPE
  5
1F7
100
AcDbSymbolTableRecord
100
AcDbLinetypeTableRecord
  2
PHANTOM
 70
64
  3
_____ _ _ _____ _ _ _____ _ _ _____
 72
65
 73
6
 40
0.8
 49
0.45
 74
0
 49
-0.05
 74
0
 49
0.1
 74
0
 49
-0.05
 74
0
 49
0.1
 74
0
 49
-0.05
 74
0
  0
LTYPE
  5
1F8
100
AcDbSymbolTableRecord
100
AcDbLinetypeTableRecord
  2
DOT
 70
64
  3
. . . . . . . . . . . . . . . . . . . .
 72
65
 73
2
 40
0.2
 49
0.1
 74
0
 49
-0.1
 74
0
  0
LTYPE
  5
1F9
100
AcDbSymbolTableRecord
100
AcDbLinetypeTableRecord
  2
DASHED
 70
64
  3
- - - - - - - - - - - - - - - - - - - -
 72
65
 73
2
 40
0.2
 49
0.1
 74
0
 49
-0.1
 74
0
  0
ENDTAB
  0
TABLE
  2
LAYER
  5
2
100
AcDbSymbolTable
 70
36
  0
LAYER
  5
10
100
AcDbSymbolTableRecord
100
AcDbLayerTableRecord
  2
0
 70
0
 62
7
  6
CONTINUOUS
370
-3
390
F
  0
LAYER
  5
1FA
100
AcDbSymbolTableRecord
100
AcDbLayerTableRecord
  2
DEFAULT_1
 70
0
 62
7
  6
CENTER
370
-3
390
F
  0
LAYER
  5
1FB
100
AcDbSymbolTableRecord
100
AcDbLayerTableRecord
  2
DEFAULT_2
 70
0
 62
7
  6
HIDDEN
370
-3
390
F
  0
LAYER
  5
1FC
100
AcDbSymbolTableRecord
100
AcDbLayerTableRecord
  2
DEFAULT_3
 70
0
 62
7
  6
PHANTOM
370
-3
390
F
  0
LAYER
  5
1FD
100
AcDbSymbolTableRecord
100
AcDbLayerTableRecord
  2
ASSI
 70
0
 62
7
  6
CONTINUOUS
370
-3
390
F
  0
LAYER
  5
1FE
100
AcDbSymbolTableRecord
100
AcDbLayerTableRecord
  2
COLOR9
 70
0
 62
7
  6
CONTINUOUS
370
-3
390
F
  0
LAYER
  5
1FF
100
AcDbSymbolTableRecord
100
AcDbLayerTableRecord
  2
COORDINATE
 70
0
 62
7
  6
CONTINUOUS
370
-3
390
F
  0
LAYER
  5
200
100
AcDbSymbolTableRecord
100
AcDbLayerTableRecord
  2
COORD_ORIGINE
 70
0
 62
7
  6
CONTINUOUS
370
-3
390
F
  0
LAYER
  5
201
100
AcDbSymbolTableRecord
100
AcDbLayerTableRecord
  2
COPY_PUBLISH
 70
0
 62
7
  6
CONTINUOUS
370
-3
390
F
  0
LAYER
  5
202
100
AcDbSymbolTableRecord
100
AcDbLayerTableRecord
  2
COSMETICI
 70
0
 62
7
  6
CONTINUOUS
370
-3
390
F
  0
LAYER
  5
203
100
AcDbSymbolTableRecord
100
AcDbLayerTableRecord
  2
CURVE
 70
0
 62
7
  6
CONTINUOUS
370
-3
390
F
  0
LAYER
  5
204
100
AcDbSymbolTableRecord
100
AcDbLayerTableRecord
  2
DRAFT
 70
0
 62
7
  6
CONTINUOUS
370
-3
390
F
  0
LAYER
  5
205
100
AcDbSymbolTableRecord
100
AcDbLayerTableRecord
  2
IGES
 70
0
 62
7
  6
CONTINUOUS
370
-3
390
F
  0
LAYER
  5
206
100
AcDbSymbolTableRecord
100
AcDbLayerTableRecord
  2
IGS_SCRITTE
 70
0
 62
7
  6
CONTINUOUS
370
-3
390
F
  0
LAYER
  5
207
100
AcDbSymbolTableRecord
100
AcDbLayerTableRecord
  2
IMPORT_IGES
 70
0
 62
7
  6
CONTINUOUS
370
-3
390
F
  0
LAYER
  5
208
100
AcDbSymbolTableRecord
100
AcDbLayerTableRecord
  2
INTF_YELLOW
 70
0
 62
7
  6
CONTINUOUS
370
-3
390
F
  0
LAYER
  5
209
100
AcDbSymbolTableRecord
100
AcDbLayerTableRecord
  2
LIVELLO_1
 70
0
 62
7
  6
CONTINUOUS
370
-3
390
F
  0
LAYER
  5
20A
100
AcDbSymbolTableRecord
100
AcDbLayerTableRecord
  2
NOTE
 70
0
 62
7
  6
CONTINUOUS
370
-3
390
F
  0
LAYER
  5
20B
100
AcDbSymbolTableRecord
100
AcDbLayerTableRecord
  2
PIANI
 70
0
 62
7
  6
CONTINUOUS
370
-3
390
F
  0
LAYER
  5
20C
100
AcDbSymbolTableRecord
100
AcDbLayerTableRecord
  2
PIANI_ORIGINE
 70
0
 62
7
  6
CONTINUOUS
370
-3
390
F
  0
LAYER
  5
20D
100
AcDbSymbolTableRecord
100
AcDbLayerTableRecord
  2
PIANI_RIFERIMENTO
 70
0
 62
7
  6
CONTINUOUS
370
-3
390
F
  0
LAYER
  5
20E
100
AcDbSymbolTableRecord
100
AcDbLayerTableRecord
  2
PUNTI
 70
0
 62
7
  6
CONTINUOUS
370
-3
390
F
  0
LAYER
  5
20F
100
AcDbSymbolTableRecord
100
AcDbLayerTableRecord
  2
RACCORDO
 70
0
 62
7
  6
CONTINUOUS
370
-3
390
F
  0
LAYER
  5
210
100
AcDbSymbolTableRecord
100
AcDbLayerTableRecord
  2
SIMBOLI
 70
0
 62
7
  6
CONTINUOUS
370
-3
390
F
  0
LAYER
  5
211
100
AcDbSymbolTableRecord
100
AcDbLayerTableRecord
  2
SMUSSO
 70
0
 62
7
  6
CONTINUOUS
370
-3
390
F
  0
LAYER
  5
212
100
AcDbSymbolTableRecord
100
AcDbLayerTableRecord
  2
SNAPLINE
 70
0
 62
7
  6
CONTINUOUS
370
-3
390
F
  0
LAYER
  5
213
100
AcDbSymbolTableRecord
100
AcDbLayerTableRecord
  2
SOLIDO
 70
0
 62
7
  6
CONTINUOUS
370
-3
390
F
  0
LAYER
  5
214
100
AcDbSymbolTableRecord
100
AcDbLayerTableRecord
  2
SUPERFICI
 70
0
 62
7
  6
CONTINUOUS
370
-3
390
F
  0
LAYER
  5
215
100
AcDbSymbolTableRecord
100
AcDbLayerTableRecord
  2
TRASH
 70
0
 62
7
  6
CONTINUOUS
370
-3
390
F
  0
LAYER
  5
216
100
AcDbSymbolTableRecord
100
AcDbLayerTableRecord
  2
WHITE
 70
0
 62
7
  6
CONTINUOUS
370
-3
390
F
  0
ENDTAB
  0
TABLE
  2
STYLE
  5
3
100
AcDbSymbolTable
 70
1
  0
STYLE
  5
11
100
AcDbSymbolTableRecord
100
AcDbTextStyleTableRecord
  2
STANDARD
 70
0
 40
0.0
 41
0.8
 50
0.0
 71
0
 42
0.2
  3
txt
  4

  0
STYLE
  5
217
100
AcDbSymbolTableRecord
100
AcDbTextStyleTableRecord
  2
TEXTSTYLE_1
 70
0
 40
0.0
 41
0.8
 50
0.0
 71
0
 42
0.2
  3
gdt
  4

  0
ENDTAB
  0
TABLE
  2
VIEW
  5
6
100
AcDbSymbolTable
 70
0
  0
ENDTAB
  0
TABLE
  2
UCS
  5
7
100
AcDbSymbolTable
 70
0
  0
ENDTAB
  0
TABLE
  2
APPID
  5
9
100
AcDbSymbolTable
 70
1
  0
APPID
  5
218
100
AcDbSymbolTableRecord
100
AcDbRegAppTableRecord
  2
ACAD
 70
0
  0
ENDTAB
  0
TABLE
  2
BLOCK_RECORD
  5
1
100
AcDbSymbolTable
 70
0
  0
BLOCK_RECORD
  5
219
100
AcDbSymbolTableRecord
100
AcDbBlockTableRecord
  2
*Model_Space
  0
BLOCK_RECORD
  5
21A
100
AcDbSymbolTableRecord
100
AcDbBlockTableRecord
  2
*Paper_Space
  0
ENDTAB
  0
TABLE
  2
DIMSTYLE
  5
A
100
AcDbSymbolTable
 70
1
100
AcDbDimStyleTable
 71
0
  0
DIMSTYLE
105
21B
100
AcDbSymbolTableRecord
100
AcDbDimStyleTableRecord
  2
STANDARD
 70
0
  3

  4

 40
1.0
 41
3.0
 42
0.5
 43
0.38
 44
1.5
 45
0.0
 46
0.0
 47
0.01
 48
0.01
140
3.0
141
0.09
142
0.0
143
25.4
144
1.0
145
0.0
146
1.0
147
0.625
 71
1.0
 72
0.0
 73
0
 74
0
 75
0
 76
0
 77
1
 78
8
170
0
171
1
172
0
173
0
174
0
175
0
176
0
177
0
178
0
270
2
271
2
272
2
273
2
274
2
275
0
280
0
281
0
282
0
283
1
284
8
285
0
286
0
287
3
288
0
340
11
278
44
  0
ENDTAB
  0
ENDSEC
  0
SECTION
  2
BLOCKS
  0
BLOCK
  5
20
100
AcDbEntity
  8
0
100
AcDbBlockBegin
  2
*Model_Space
 70
0
 10
0.0
 20
0.0
 30
0.0
  3
*Model_Space
  1

  0
ENDBLK
  5
21
100
AcDbEntity
  8
0
100
AcDbBlockEnd
  0
BLOCK
  5
1C
100
AcDbEntity
  8
0
100
AcDbBlockBegin
  2
*Paper_Space
 70
0
 10
0.0
 20
0.0
 30
0.0
  3
*Paper_Space
  1

  0
ENDBLK
  5
1D
100
AcDbEntity
  8
0
100
AcDbBlockEnd
  0
ENDSEC
  0
SECTION
  2
ENTITIES
  0
LWPOLYLINE
  5
21C
100
AcDbEntity
  8
ASSI
100
AcDbPolyline
 62
7
  6
CONTINUOUS
 90
15
 70
0
 10
-16.5999759142
 20
26.4863191127
 10
-16.6348756609
 20
26.4614394819
 10
-16.6959597355
 20
26.4123663084
 10
-16.7535217246
 20
26.3590709607
 10
-16.8077404936
 20
26.3017776738
 10
-16.8585939446
 20
26.2407832521
 10
-16.9057909296
 20
26.1766738381
 10
-16.9492941204
 20
26.1096938737
 10
-16.989027178
 20
26.0400350028
 10
-17.0246209154
 20
25.9683734013
 10
-17.055968808
 20
25.8948996776
 10
-17.0829057916
 20
25.8197893954
 10
-17.1050926037
 20
25.7436480516
 10
-17.1223165423
 20
25.6666935993
 10
-17.1346594569
 20
25.5862132943
  0
LINE
  5
21D
100
AcDbEntity
  8
ASSI
100
AcDbLine
 62
7
  6
CONTINUOUS
 10
-16.6001578405
 20
26.4861952743
 11
-14.6175337521
 21
27.8380975324
  0
LINE
  5
21E
100
AcDbEntity
  8
ASSI
100
AcDbLine
 62
253
  6
CONTINUOUS
 10
-16.3369768951
 20
26.4700845181
 11
-14.3669398025
 21
27.8134040155
  0
LWPOLYLINE
  5
21F
100
AcDbEntity
  8
ASSI
100
AcDbPolyline
 62
253
  6
CONTINUOUS
 90
27
 70
0
 10
-16.599975928
 20
26.4863191331
 10
-16.5977673436
 20
26.4877940615
 10
-16.5898821595
 20
26.4926465883
 10
-16.5817070194
 20
26.4970508902
 10
-16.5732506572
 20
26.5010022621
 10
-16.5645221071
 20
26.5044964824
 10
-16.5555306941
 20
26.5075298183
 10
-16.5462860242
 20
26.5100990289
 10
-16.5367979736
 20
26.5122013697
 10
-16.5270766789
 20
26.5138345945
 10
-16.5171325256
 20
26.5149969586
 10
-16.5069761375
 20
26.5156872201
 10
-16.496618365
 20
26.5159046417
 10
-16.4860702737
 20
26.5156489909
 10
-16.4753431324
 20
26.514920541
 10
-16.4644484015
 20
26.5137200702
 10
-16.45339772
 20
26.512048861
 10
-16.442202894
 20
26.5099086988
 10
-16.4308758831
 20
26.50730187
 10
-16.4194287885
 20
26.5042311596
 10
-16.4078738395
 20
26.5006998481
 10
-16.3962233807
 20
26.4967117082
 10
-16.3844898588
 20
26.4922710006
 10
-16.3726858089
 20
26.4873824693
 10
-16.3608238419
 20
26.4820513371
 10
-16.3489166303
 20
26.4762832993
 10
-16.3369768951
 20
26.4700845181
  0
LINE
  5
220
100
AcDbEntity
  8
ASSI
100
AcDbLine
 62
7
  6
CONTINUOUS
 10
-17.1346285545
 20
25.5864803387
 11
-17.1346594569
 21
25.5862132943
  0
LWPOLYLINE
  5
221
100
AcDbEntity
  8
ASSI
100
AcDbPolyline
 62
253
  6
CONTINUOUS
 90
52
 70
0
 10
-16.9876122882
 20
25.3874338668
 10
-16.9845856655
 20
25.4108638159
 10
-16.9810663731
 20
25.4344849334
 10
-16.9770569942
 20
25.4582802328
 10
-16.9725605488
 20
25.4822325665
 10
-16.9675802617
 20
25.5063247556
 10
-16.9621195448
 20
25.5305396065
 10
-16.956182379
 20
25.5548598586
 10
-16.9497731124
 20
25.5792679081
 10
-16.9428962263
 20
25.6037459401
 10
-16.9355568011
 20
25.6282763052
 10
-16.9277601766
 20
25.6528414624
 10
-16.9195117337
 20
25.6774237062
 10
-16.9108175155
 20
25.7020054409
 10
-16.9016838822
 20
25.726568979
 10
-16.8921171757
 20
25.751096483
 10
-16.8821244195
 20
25.7755703641
 10
-16.8717129151
 20
25.7999730617
 10
-16.860889891
 20
25.8242868424
 10
-16.849663289
 20
25.8484942857
 10
-16.8380413189
 20
25.8725780246
 10
-16.8260320563
 20
25.8965205251
 10
-16.8136443243
 20
25.9203046186
 10
-16.8008871754
 20
25.9439132744
 10
-16.7877694436
 20
25.9673293395
 10
-16.7743007352
 20
25.990536078
 10
-16.7604909205
 20
26.0135168323
 10
-16.746349616
 20
26.0362547968
 10
-16.7318872144
 20
26.0587336755
 10
-16.7171142856
 20
26.0809374
 10
-16.7020410659
 20
26.1028497892
 10
-16.6866785988
 20
26.1244551901
 10
-16.6710381438
 20
26.1457381226
 10
-16.6551305791
 20
26.1666829986
 10
-16.6389675736
 20
26.1872748483
 10
-16.6225609639
 20
26.2074989477
 10
-16.6059221621
 20
26.2273404626
 10
-16.58906337
 20
26.2467852282
 10
-16.5719969404
 20
26.2658193474
 10
-16.5547347557
 20
26.2844288216
 10
-16.5372895042
 20
26.3026003451
 10
-16.5196739428
 20
26.3203209799
 10
-16.5019002586
 20
26.337577752
 10
-16.4839814312
 20
26.3543584134
 10
-16.4659306452
 20
26.3706509377
 10
-16.4477605555
 20
26.3864432046
 10
-16.4294845721
 20
26.4017238998
 10
-16.4111160095
 20
26.4164822318
 10
-16.3926674959
 20
26.4307074152
 10
-16.3741522762
 20
26.4443892298
 10
-16.3555842047
 20
26.4575180413
 10
-16.3369768951
 20
26.4700845181
  0
LINE
  5
222
100
AcDbEntity
  8
ASSI
100
AcDbLine
 62
7
  6
CONTINUOUS
 10
-12.4104968875
 20
26.6837783964
 11
-12.5907481369
 21
26.2695582376
  0
LWPOLYLINE
  5
223
100
AcDbEntity
  8
ASSI
100
AcDbPolyline
 62
253
  6
CONTINUOUS
 90
25
 70
0
 10
-17.8094023345
 20
0.0991844776
 10
-17.8088658112
 20
0.0897774799
 10
-17.807818072
 20
0.0803907644
 10
-17.8062601895
 20
0.071033941
 10
-17.8041937586
 20
0.061716589
 10
-17.801620895
 20
0.0524482471
 10
-17.7985442326
 20
0.0432384041
 10
-17.7949669212
 20
0.0340964888
 10
-17.7908926232
 20
0.0250318605
 10
-17.7863255098
 20
0.0160537992
 10
-17.7812702566
 20
0.0071714965
 10
-17.7757320392
 20
-0.0016059542
 10
-17.7697165273
 20
-0.0102695666
 10
-17.7632298795
 20
-0.0188104714
 10
-17.7562787367
 20
-0.0272199244
 10
-17.7488702152
 20
-0.0354893163
 10
-17.7410118997
 20
-0.0436101811
 10
-17.7327118354
 20
-0.0515742049
 10
-17.7239785197
 20
-0.0593732344
 10
-17.7148208934
 20
-0.066999285
 10
-17.7052483319
 20
-0.0744445495
 10
-17.6952706354
 20
-0.0817014055
 10
-17.6848980188
 20
-0.0887624237
 10
-17.6741411013
 20
-0.0956203752
 10
-17.6630108955
 20
-0.102268239
  0
LWPOLYLINE
  5
224
100
AcDbEntity
  8
ASSI
100
AcDbPolyline
 62
7
  6
CONTINUOUS
 90
10
 70
0
 10
-17.8094570149
 20
0.1015694639
 10
-17.7873266235
 20
-0.9050746918
 10
-17.7509687632
 20
-1.9629852677
 10
-17.7013280109
 20
-3.0120436925
 10
-17.6384120686
 20
-4.0520265777
 10
-17.5622312074
 20
-5.082711686
 10
-17.4727979237
 20
-6.1038843931
 10
-17.3701277426
 20
-7.1153266313
 10
-17.2542386791
 20
-8.1168224591
 10
-17.1334041827
 20
-9.04797632
  0
LINE
  5
225
100
AcDbEntity
  8
ASSI
100
AcDbLine
 62
7
  6
CONTINUOUS
 10
-17.8324248707
 20
1.7013560338
 11
-17.8094570109
 21
0.1015691993
  0
LINE
  5
226
100
AcDbEntity
  8
ASSI
100
AcDbLine
 62
7
  6
CONTINUOUS
 10
-17.8506643701
 20
3.3699773903
 11
-17.8324248707
 21
1.7013560338
  0
LINE
  5
227
100
AcDbEntity
  8
ASSI
100
AcDbLine
 62
7
  6
CONTINUOUS
 10
-17.8631254899
 20
5.042241264
 11
-17.8506643701
 21
3.3699773903
  0
LWPOLYLINE
  5
228
100
AcDbEntity
  8
ASSI
100
AcDbPolyline
 62
7
  6
CONTINUOUS
 90
3
 70
0
 10
-17.8709455005
 20
7.4959637315
 10
-17.8698080989
 20
6.7181211788
 10
-17.8631254899
 20
5.042241264
  0
LINE
  5
229
100
AcDbEntity
  8
ASSI
100
AcDbLine
 62
7
  6
CONTINUOUS
 10
-17.8672107863
 20
9.7599813663
 11
-17.8709455013
 21
8.1445703766
  0
LINE
  5
22A
100
AcDbEntity
  8
ASSI
100
AcDbLine
 62
253
  6
CONTINUOUS
 10
-17.7244966806
 20
7.9408956096
 11
-17.7206074365
 21
9.59490124
  0
LINE
  5
22B
100
AcDbEntity
  8
ASSI
100
AcDbLine
 62
7
  6
CONTINUOUS
 10
-17.8576578635
 20
11.4458612648
 11
-17.8672107863
 21
9.7599813663
  0
LINE
  5
22C
100
AcDbEntity
  8
ASSI
100
AcDbLine
 62
253
  6
CONTINUOUS
 10
-17.7206074365
 20
9.59490124
 11
-17.7111324613
 21
11.2523139713
  0
LINE
  5
22D
100
AcDbEntity
  8
ASSI
100
AcDbLine
 62
7
  6
CONTINUOUS
 10
-17.8423268055
 20
13.1352463959
 11
-17.8576578635
 21
11.4458612648
  0
LINE
  5
22E
100
AcDbEntity
  8
ASSI
100
AcDbLine
 62
253
  6
CONTINUOUS
 10
-17.7111324613
 20
11.2523139713
 11
-17.6960722239
 21
12.9131146343
  0
LINE
  5
22F
100
AcDbEntity
  8
ASSI
100
AcDbLine
 62
253
  6
CONTINUOUS
 10
-17.6960722239
 20
12.9131146343
 11
-17.6754274603
 21
14.5773083001
  0
LWPOLYLINE
  5
230
100
AcDbEntity
  8
ASSI
100
AcDbPolyline
 62
7
  6
CONTINUOUS
 90
3
 70
0
 10
-17.8094594915
 20
15.6148743153
 10
-17.8212179311
 20
14.8281097082
 10
-17.8423268055
 20
13.1352463959
  0
LWPOLYLINE
  5
231
100
AcDbEntity
  8
ASSI
100
AcDbPolyline
 62
253
  6
CONTINUOUS
 90
43
 70
0
 10
-17.7244985779
 20
7.2913644665
 10
-17.7243814357
 20
7.2990258952
 10
-17.7240197077
 20
7.3068182559
 10
-17.7234138946
 20
7.31473076
 10
-17.7225648351
 20
7.3227524527
 10
-17.7214737049
 20
7.3308722279
 10
-17.7201420145
 20
7.3390788437
 10
-17.7185716077
 20
7.347360938
 10
-17.7167646588
 20
7.3557070442
 10
-17.7147236695
 20
7.364105607
 10
-17.7124514654
 20
7.3725449987
 10
-17.7099511927
 20
7.3810135348
 10
-17.7072263127
 20
7.3894994906
 10
-17.7042805983
 20
7.3979911173
 10
-17.7011181277
 20
7.4064766582
 10
-17.6977432793
 20
7.414944365
 10
-17.6941607258
 20
7.4233825141
 10
-17.6903754271
 20
7.4317794228
 10
-17.686392624
 20
7.4401234657
 10
-17.6822178308
 20
7.4484030902
 10
-17.6778568273
 20
7.4566068334
 10
-17.6733156516
 20
7.464723337
 10
-17.6686005908
 20
7.4727413637
 10
-17.6637181731
 20
7.4806498125
 10
-17.658675158
 20
7.4884377342
 10
-17.6534785278
 20
7.4960943462
 10
-17.6481354771
 20
7.5036090481
 10
-17.6426534034
 20
7.5109714356
 10
-17.6370398967
 20
7.5181713156
 10
-17.631302729
 20
7.5251987197
 10
-17.6254498433
 20
7.5320439185
 10
-17.6194893431
 20
7.5386974348
 10
-17.6134294805
 20
7.5451500567
 10
-17.6072786457
 20
7.5513928506
 10
-17.6010453543
 20
7.5574171733
 10
-17.5947382365
 20
7.5632146841
 10
-17.5883660245
 20
7.5687773564
 10
-17.5819375406
 20
7.5740974885
 10
-17.575461685
 20
7.5791677149
 10
-17.5689474238
 20
7.5839810156
 10
-17.5624037757
 20
7.5885307267
 10
-17.5558398007
 20
7.592810549
 10
-17.5492645865
 20
7.5968145573
  0
LWPOLYLINE
  5
232
100
AcDbEntity
  8
ASSI
100
AcDbPolyline
 62
253
  6
CONTINUOUS
 90
22
 70
0
 10
-17.6754274603
 20
14.5773083001
 10
-17.6545617657
 20
15.8729089195
 10
-17.6437360741
 20
16.3365500719
 10
-17.6305342533
 20
16.8015725442
 10
-17.6149568567
 20
17.2679583566
 10
-17.5970044822
 20
17.7356894685
 10
-17.576677772
 20
18.2047477797
 10
-17.553977549
 20
18.6751151647
 10
-17.5289047118
 20
19.1467734302
 10
-17.5014601583
 20
19.6197043014
 10
-17.4716449969
 20
20.0938894993
 10
-17.4394604107
 20
20.569310698
 10
-17.4049075513
 20
21.0459494828
 10
-17.3679878108
 20
21.5237874482
 10
-17.3287026573
 20
22.0028061218
 10
-17.2870534978
 20
22.4829869219
 10
-17.2430420096
 20
22.9643113024
 10
-17.196669944
 20
23.4467606709
 10
-17.1479389611
 20
23.9303163127
 10
-17.0968509457
 20
24.4149595275
 10
-17.0434080083
 20
24.9006716297
 10
-16.9876122882
 20
25.3874338668
  0
LWPOLYLINE
  5
233
100
AcDbEntity
  8
ASSI
100
AcDbPolyline
 62
253
  6
CONTINUOUS
 90
28
 70
0
 10
-17.1346594569
 20
25.5862132943
 10
-17.1350027088
 20
25.5827613722
 10
-17.135396677
 20
25.5750480542
 10
-17.135281179
 20
25.5672869854
 10
-17.1346563331
 20
25.5594861151
 10
-17.1335227792
 20
25.5516534338
 10
-17.1318816786
 20
25.5437969644
 10
-17.129734712
 20
25.5359247541
 10
-17.1270840787
 20
25.5280448663
 10
-17.1239324937
 20
25.5201653723
 10
-17.120283185
 20
25.512294343
 10
-17.1161398906
 20
25.5044398404
 10
-17.1115068545
 20
25.4966099099
 10
-17.1063888221
 20
25.4888125716
 10
-17.1007910358
 20
25.4810558122
 10
-17.0947192294
 20
25.4733475767
 10
-17.0881796221
 20
25.4656957607
 10
-17.0811789123
 20
25.4581082018
 10
-17.0737242708
 20
25.4505926718
 10
-17.0658233332
 20
25.4431568688
 10
-17.0574841924
 20
25.4358084091
 10
-17.04871539
 20
25.4285548197
 10
-17.0395259078
 20
25.4214035304
 10
-17.0299251584
 20
25.414361866
 10
-17.0199229758
 20
25.4074370393
 10
-17.009529605
 20
25.4006361432
 10
-16.9987556919
 20
25.3939661439
 10
-16.9876122719
 20
25.3874338734
  0
LWPOLYLINE
  5
234
100
AcDbEntity
  8
ASSI
100
AcDbPolyline
 62
7
  6
CONTINUOUS
 90
10
 70
0
 10
-17.1346285678
 20
25.5864803402
 10
-17.2557831945
 20
24.5025543478
 10
-17.3713466053
 20
23.3601177967
 10
-17.473744094
 20
22.223817793
 10
-17.5629516462
 20
21.0938957848
 10
-17.6389476154
 20
19.9705941818
 10
-17.7017134055
 20
18.8541493992
 10
-17.7512328606
 20
17.7448007357
 10
-17.787492476
 20
16.642784194
 10
-17.8094594949
 20
15.6148740814
  0
LWPOLYLINE
  5
235
100
AcDbEntity
  8
ASSI
100
AcDbPolyline
 62
7
  6
CONTINUOUS
 90
11
 70
0
 10
13.910644087
 20
-27.3088222378
 10
13.9753297224
 20
-27.3418015905
 10
14.0426425376
 20
-27.3675501358
 10
14.1123866848
 20
-27.3861503819
 10
14.1848440423
 20
-27.397599235
 10
14.2594455114
 20
-27.401589074
 10
14.3354036096
 20
-27.3978990234
 10
14.4129438664
 20
-27.3862560607
 10
14.491837676
 20
-27.3662618828
 10
14.5712108324
 20
-27.3376987192
 10
14.6170700957
 20
-27.3172093121
  0
LWPOLYLINE
  5
236
100
AcDbEntity
  8
ASSI
100
AcDbPolyline
 62
253
  6
CONTINUOUS
 90
23
 70
0
 10
-16.8136443243
 20
-9.567820763
 10
-16.8260320563
 20
-9.5588500243
 10
-16.8380413189
 20
-9.5492682719
 10
-16.849663289
 20
-9.5390825188
 10
-16.860889891
 20
-9.5282999436
 10
-16.8717129151
 20
-9.5169283967
 10
-16.8821244195
 20
-9.5049761637
 10
-16.8921171757
 20
-9.4924517095
 10
-16.9016838822
 20
-9.4793641259
 10
-16.9108175155
 20
-9.4657229281
 10
-16.9195117337
 20
-9.4515378202
 10
-16.9277601766
 20
-9.4368191036
 10
-16.9355568011
 20
-9.4215774371
 10
-16.9428962263
 20
-9.4058236262
 10
-16.9497731124
 20
-9.3895690089
 10
-16.956182379
 20
-9.3728254047
 10
-16.9621195448
 20
-9.3556048795
 10
-16.9675802617
 20
-9.3379199684
 10
-16.9725605488
 20
-9.3197833824
 10
-16.9770569942
 20
-9.3012079427
 10
-16.9810663731
 20
-9.2822069601
 10
-16.9845856655
 20
-9.2627942389
 10
-16.9876122882
 20
-9.2429837827
  0
LWPOLYLINE
  5
237
100
AcDbEntity
  8
ASSI
100
AcDbPolyline
 62
7
  6
CONTINUOUS
 90
8
 70
0
 10
-17.0427848156
 20
-9.3250288819
 10
-17.0108295508
 20
-9.3768917684
 10
-16.9752092037
 20
-9.4248596489
 10
-16.9362664146
 20
-9.4687682171
 10
-16.8939780709
 20
-9.5088116288
 10
-16.8485481281
 20
-9.5448405428
 10
-16.8004951631
 20
-9.5765089221
 10
-16.7913889646
 20
-9.5818538828
  0
LWPOLYLINE
  5
238
100
AcDbEntity
  8
ASSI
100
AcDbPolyline
 62
253
  6
CONTINUOUS
 90
22
 70
0
 10
-17.1318816942
 20
-9.0575295449
 10
-17.129734728
 20
-9.0678848522
 10
-17.1270840949
 20
-9.078150414
 10
-17.1239325101
 20
-9.0883157154
 10
-17.1202832016
 20
-9.0983703442
 10
-17.1161399074
 20
-9.1083040015
 10
-17.1115068714
 20
-9.1181065126
 10
-17.1063888392
 20
-9.1277678367
 10
-17.100791053
 20
-9.137278078
 10
-17.0947192466
 20
-9.1466274953
 10
-17.0881796393
 20
-9.155806512
 10
-17.0811789296
 20
-9.1648057262
 10
-17.073724288
 20
-9.1736159202
 10
-17.0658233504
 20
-9.1822280698
 10
-17.0574842095
 20
-9.1906333537
 10
-17.048715407
 20
-9.1988231625
 10
-17.0395259247
 20
-9.2067891075
 10
-17.0299251752
 20
-9.2145230293
 10
-17.0199229924
 20
-9.222017006
 10
-17.0095296215
 20
-9.2292633619
 10
-16.9987557081
 20
-9.2362546744
 10
-16.987612288
 20
-9.2429837826
  0
LWPOLYLINE
  5
239
100
AcDbEntity
  8
ASSI
100
AcDbPolyline
 62
7
  6
CONTINUOUS
 90
6
 70
0
 10
-17.1333560933
 20
-9.0483259346
 10
-17.1283018454
 20
-9.0806679397
 10
-17.1138001442
 20
-9.1472234116
 10
-17.0944719752
 20
-9.2103053822
 10
-17.0707040829
 20
-9.269569339
 10
-17.0427848156
 20
-9.3250288819
  0
LINE
  5
23A
100
AcDbEntity
  8
ASSI
100
AcDbLine
 62
7
  6
CONTINUOUS
 10
-17.1334041827
 20
-9.04797632
 11
-17.1333561092
 21
-9.0483259368
  0
LWPOLYLINE
  5
23B
100
AcDbEntity
  8
ASSI
100
AcDbPolyline
 62
253
  6
CONTINUOUS
 90
21
 70
0
 10
-16.9876122882
 20
-9.2429837827
 10
-17.0434080083
 20
-8.8252893158
 10
-17.0968509457
 20
-8.4057322174
 10
-17.1479389611
 20
-7.9843287696
 10
-17.196669944
 20
-7.5610953697
 10
-17.2430420096
 20
-7.1360483927
 10
-17.2870534978
 20
-6.70920419
 10
-17.3287026573
 20
-6.2805793088
 10
-17.3679878108
 20
-5.850190381
 10
-17.4049075513
 20
-5.4180539854
 10
-17.4394604107
 20
-4.9841868763
 10
-17.4716449969
 20
-4.5486058743
 10
-17.5014601583
 20
-4.1113277548
 10
-17.5289047118
 20
-3.6723694545
 10
-17.553977549
 20
-3.2317479953
 10
-17.576677772
 20
-2.7894803737
 10
-17.5970044822
 20
-2.3455837227
 10
-17.6149568567
 20
-1.9000752403
 10
-17.6305342533
 20
-1.4529721123
 10
-17.6437360741
 20
-1.0042916313
 10
-17.6545617657
 20
-0.5540511957
  0
LWPOLYLINE
  5
23C
100
AcDbEntity
  8
ASSI
100
AcDbPolyline
 62
253
  6
CONTINUOUS
 90
27
 70
0
 10
-17.8709455325
 20
8.1444195555
 10
-17.8706812553
 20
8.1351197108
 10
-17.8699652088
 20
8.1264751714
 10
-17.8687966038
 20
8.1178456699
 10
-17.867176499
 20
8.1092390788
 10
-17.8651063655
 20
8.1006631623
 10
-17.8625880829
 20
8.0921257273
 10
-17.8596239337
 20
8.0836345388
 10
-17.8562166048
 20
8.0751972444
 10
-17.8523691802
 20
8.0668215044
 10
-17.8480851531
 20
8.0585149516
 10
-17.8433684256
 20
8.0502851068
 10
-17.8382232937
 20
8.0421394701
 10
-17.8326544157
 20
8.0340854281
 10
-17.8266668185
 20
8.026130214
 10
-17.8202659227
 20
8.0182810458
 10
-17.8134575386
 20
8.0105450701
 10
-17.8062478326
 20
8.0029292693
 10
-17.7986433077
 20
7.9954405281
 10
-17.7906508877
 20
7.988085686
 10
-17.7822779191
 20
7.9808714783
 10
-17.7735320797
 20
7.9738045052
 10
-17.7644212439
 20
7.9668911222
 10
-17.7549535604
 20
7.9601374967
 10
-17.7451375684
 20
7.9535497256
 10
-17.7349822062
 20
7.9471338229
 10
-17.7244966802
 20
7.9408956104
  0
LWPOLYLINE
  5
23D
100
AcDbEntity
  8
ASSI
100
AcDbPolyline
 62
7
  6
CONTINUOUS
 90
12
 70
0
 10
-17.8709454616
 20
8.1444210324
 10
-17.870734303
 20
8.1325121494
 10
-17.8672572401
 20
8.0949806506
 10
-17.8594605805
 20
8.0576520709
 10
-17.8473351622
 20
8.0209872094
 10
-17.830966226
 20
7.9854834598
 10
-17.8104535455
 20
7.9514947099
 10
-17.7859109782
 20
7.9193290095
 10
-17.7575515037
 20
7.8893447786
 10
-17.7255543574
 20
7.8617774918
 10
-17.6900189189
 20
7.8367733433
 10
-17.6728274061
 20
7.8263576061
  0
LWPOLYLINE
  5
23E
100
AcDbEntity
  8
ASSI
100
AcDbPolyline
 62
253
  6
CONTINUOUS
 90
23
 70
0
 10
-17.7244985779
 20
7.9408967051
 10
-17.7243814357
 20
7.9333705497
 10
-17.7240197077
 20
7.925995904
 10
-17.7234138947
 20
7.9187829781
 10
-17.7225648353
 20
7.9117417584
 10
-17.7214737052
 20
7.9048819935
 10
-17.720142015
 20
7.8982131807
 10
-17.7185716084
 20
7.8917445531
 10
-17.7167646597
 20
7.8854850665
 10
-17.7147236706
 20
7.8794433872
 10
-17.7124514668
 20
7.87362788
 10
-17.7099511943
 20
7.8680465963
 10
-17.7072263147
 20
7.8627072636
 10
-17.7042806005
 20
7.8576172742
 10
-17.7011181302
 20
7.8527836751
 10
-17.6977432821
 20
7.8482131585
 10
-17.6941607289
 20
7.8439120524
 10
-17.6903754305
 20
7.8398863116
 10
-17.6863926277
 20
7.8361415097
 10
-17.6822178346
 20
7.8326828316
 10
-17.6778568315
 20
7.8295150656
 10
-17.673315656
 20
7.8266425977
 10
-17.67282742
 20
7.826357582
  0
LINE
  5
23F
100
AcDbEntity
  8
ASSI
100
AcDbLine
 62
253
  6
CONTINUOUS
 10
-17.6545617657
 20
-0.5540511957
 11
-17.6754274603
 21
0.7157155686
  0
LINE
  5
240
100
AcDbEntity
  8
ASSI
100
AcDbLine
 62
253
  6
CONTINUOUS
 10
-17.6754274603
 20
0.7157155686
 11
-17.6960722239
 21
2.3543456951
  0
LINE
  5
241
100
AcDbEntity
  8
ASSI
100
AcDbLine
 62
253
  6
CONTINUOUS
 10
-17.6960722239
 20
2.3543456951
 11
-17.7111324613
 21
3.9964982339
  0
LWPOLYLINE
  5
242
100
AcDbEntity
  8
ASSI
100
AcDbPolyline
 62
253
  6
CONTINUOUS
 90
26
 70
0
 10
-17.8094594949
 20
15.6148740814
 10
-17.8094023342
 20
15.6073895931
 10
-17.8088658109
 20
15.5983342975
 10
-17.8078180717
 20
15.589287885
 10
-17.8062601892
 20
15.5802596168
 10
-17.8041937583
 20
15.5712587361
 10
-17.8016208947
 20
15.5622944575
 10
-17.7985442323
 20
15.5533759587
 10
-17.7949669209
 20
15.5445123699
 10
-17.7908926229
 20
15.5357127657
 10
-17.7863255095
 20
15.5269861547
 10
-17.7812702563
 20
15.5183414711
 10
-17.7757320389
 20
15.5097875651
 10
-17.769716527
 20
15.5013331939
 10
-17.7632298792
 20
15.4929870128
 10
-17.7562787364
 20
15.4847575666
 10
-17.7488702149
 20
15.4766532803
 10
-17.7410118994
 20
15.4686824508
 10
-17.7327118351
 20
15.4608532385
 10
-17.7239785194
 20
15.4531736587
 10
-17.7148208931
 20
15.4456515736
 10
-17.7052483316
 20
15.4382946841
 10
-17.6952706351
 20
15.4311105219
 10
-17.6848980185
 20
15.4241064421
 10
-17.674141101
 20
15.4172896153
 10
-17.6630108952
 20
15.4106670202
  0
LINE
  5
243
100
AcDbEntity
  8
ASSI
100
AcDbLine
 62
253
  6
CONTINUOUS
 10
-17.7111324613
 20
3.9964982339
 11
-17.7206074365
 21
5.6421771636
  0
LINE
  5
244
100
AcDbEntity
  8
ASSI
100
AcDbLine
 62
253
  6
CONTINUOUS
 10
-17.7206074365
 20
5.6421771636
 11
-17.7244966805
 21
7.2913633711
  0
LWPOLYLINE
  5
245
100
AcDbEntity
  8
ASSI
100
AcDbPolyline
 62
7
  6
CONTINUOUS
 90
9
 70
0
 10
-17.7192505
 20
7.7851154523
 10
-17.7550893064
 20
7.754841661
 10
-17.7864373855
 20
7.7216953411
 10
-17.8131358514
 20
7.6859441471
 10
-17.8349407536
 20
7.6480299144
 10
-17.851561619
 20
7.6087669597
 10
-17.8629673639
 20
7.5689204537
 10
-17.8693323397
 20
7.5290070885
 10
-17.8709450824
 20
7.4957175582
  0
LINE
  5
246
100
AcDbEntity
  8
ASSI
100
AcDbLine
 62
7
  6
CONTINUOUS
 10
-17.6870811597
 20
7.8073263759
 11
-17.7192505
 21
7.7851154523
  0
LINE
  5
247
100
AcDbEntity
  8
ASSI
100
AcDbLine
 62
7
  6
CONTINUOUS
 10
-17.687081177
 20
7.8073264034
 11
-17.6682930484
 21
7.8191557481
  0
LWPOLYLINE
  5
248
100
AcDbEntity
  8
ASSI
100
AcDbPolyline
 62
253
  6
CONTINUOUS
 90
7
 70
0
 10
-17.686985625
 20
7.8073866502
 10
-17.6841420155
 20
7.8091026721
 10
-17.6792577098
 20
7.8117236716
 10
-17.6741979868
 20
7.8140428371
 10
-17.6689699203
 20
7.8160569261
 10
-17.6635808194
 20
7.8177631229
 10
-17.6596549409
 20
7.8187518662
  0
LINE
  5
249
100
AcDbEntity
  8
ASSI
100
AcDbLine
 62
7
  6
CONTINUOUS
 10
-16.7919095492
 20
-9.5815539649
 11
13.9114265842
 21
-27.3092754452
  0
LINE
  5
24A
100
AcDbEntity
  8
ASSI
100
AcDbLine
 62
253
  6
CONTINUOUS
 10
-16.9876122882
 20
-9.2429837827
 11
13.708768216
 21
-26.9666891699
  0
LINE
  5
24B
100
AcDbEntity
  8
ASSI
100
AcDbLine
 62
7
  6
CONTINUOUS
 10
13.9106421477
 20
-27.3088211463
 11
13.911426612
 21
-27.3092754613
  0
LINE
  5
24C
100
AcDbEntity
  8
ASSI
100
AcDbLine
 62
253
  6
CONTINUOUS
 10
-16.7919095492
 20
-9.5815539649
 11
-16.8008871754
 21
-9.5761739438
  0
LWPOLYLINE
  5
24D
100
AcDbEntity
  8
0
100
AcDbPolyline
 62
253
  6
CONTINUOUS
 90
25
 70
0
 10
-12.2281812413
 20
15.6230938068
 10
-12.2416205047
 20
15.5642024092
 10
-12.2541125594
 20
15.5047595939
 10
-12.2656642433
 20
15.4447606787
 10
-12.2762823942
 20
15.3842009818
 10
-12.2859738497
 20
15.323075821
 10
-12.2947454476
 20
15.2613805143
 10
-12.3026040258
 20
15.1991103797
 10
-12.3095564219
 20
15.1362607351
 10
-12.3156081097
 20
15.0728327757
 10
-12.3207591073
 20
15.0088512057
 10
-12.3250080685
 20
14.9443466063
 10
-12.3283536473
 20
14.879349559
 10
-12.3307944978
 20
14.8138906451
 10
-12.3323292738
 20
14.748000446
 10
-12.3329566294
 20
14.6817095431
 10
-12.3326752185
 20
14.6150485177
 10
-12.3314829178
 20
14.5480407586
 10
-12.3293744945
 20
14.4806808847
 10
-12.3263439385
 20
14.4129563222
 10
-12.3223852396
 20
14.3448544973
 10
-12.3174923878
 20
14.2763628365
 10
-12.3116593729
 20
14.207468766
 10
-12.3048801847
 20
14.138159712
 10
-12.2971488133
 20
14.0684231008
  0
LWPOLYLINE
  5
24E
100
AcDbEntity
  8
0
100
AcDbPolyline
 62
253
  6
CONTINUOUS
 90
43
 70
0
 10
-10.9214582422
 20
13.3337577785
 10
-10.924187421
 20
13.3223987745
 10
-10.9272214249
 20
13.3113658444
 10
-10.930556376
 20
13.3006512583
 10
-10.9341883963
 20
13.2902472862
 10
-10.9381136081
 20
13.2801461982
 10
-10.9423281334
 20
13.2703402644
 10
-10.9468278438
 20
13.2608245408
 10
-10.951607609
 20
13.2516052263
 10
-10.9566620481
 20
13.2426913056
 10
-10.9619857805
 20
13.2340917637
 10
-10.9675734252
 20
13.2258155853
 10
-10.9734196014
 20
13.2178717552
 10
-10.9795193515
 20
13.2102690751
 10
-10.9858694103
 20
13.2030156147
 10
-10.9924669358
 20
13.1961192603
 10
-10.9993090859
 20
13.1895878985
 10
-11.0063930186
 20
13.1834294157
 10
-11.0137158919
 20
13.1776516985
 10
-11.0212743163
 20
13.1722624961
 10
-11.0290627118
 20
13.167269009
 10
-11.0370749511
 20
13.1626783007
 10
-11.0453049068
 20
13.1584974344
 10
-11.0537464514
 20
13.1547334735
 10
-11.0623934578
 20
13.1513934813
 10
-11.0712393179
 20
13.1484828889
 10
-11.0802755028
 20
13.1460005978
 10
-11.0894930029
 20
13.1439438773
 10
-11.0988828085
 20
13.1423099968
 10
-11.1084359102
 20
13.1410962254
 10
-11.1181432984
 20
13.1402998326
 10
-11.1279953141
 20
13.1399181345
 10
-11.1379796999
 20
13.1399486352
 10
-11.1480835488
 20
13.140388886
 10
-11.1582939541
 20
13.1412364379
 10
-11.1685980087
 20
13.1424888421
 10
-11.1789828058
 20
13.1441436496
 10
-11.1894383797
 20
13.1461996589
 10
-11.1999665298
 20
13.1486606581
 10
-11.2105719966
 20
13.1515316823
 10
-11.2212595206
 20
13.1548177668
 10
-11.2320338424
 20
13.158523947
 10
-11.2428997025
 20
13.1626552581
  0
LWPOLYLINE
  5
24F
100
AcDbEntity
  8
0
100
AcDbPolyline
 62
253
  6
CONTINUOUS
 90
44
 70
0
 10
-11.9756133866
 20
15.4170342054
 10
-11.9731575205
 20
15.4269366746
 10
-11.9704677879
 20
15.4365902885
 10
-11.9675473192
 20
15.4460003983
 10
-11.9643992447
 20
15.4551723554
 10
-11.9610266949
 20
15.4641115108
 10
-11.9574328001
 20
15.4728232159
 10
-11.9536206907
 20
15.4813128218
 10
-11.9489018663
 20
15.4909409922
 10
-11.9438968144
 20
15.5002658394
 10
-11.9386120611
 20
15.5092790584
 10
-11.9330541324
 20
15.5179723439
 10
-11.9272295543
 20
15.5263373909
 10
-11.9211448528
 20
15.5343658941
 10
-11.9148061339
 20
15.5420497569
 10
-11.9082178232
 20
15.5493817163
 10
-11.9013839261
 20
15.5563547178
 10
-11.8943084482
 20
15.5629617069
 10
-11.886995395
 20
15.5691956291
 10
-11.8794487719
 20
15.57504943
 10
-11.8716730154
 20
15.5805161301
 10
-11.8636742856
 20
15.5855890503
 10
-11.8554591734
 20
15.5902615867
 10
-11.8470342699
 20
15.5945271354
 10
-11.8384061659
 20
15.5983790923
 10
-11.8295814525
 20
15.6018108535
 10
-11.8205670389
 20
15.6048172022
 10
-11.8113711073
 20
15.60739847
 10
-11.802002158
 20
15.6095563759
 10
-11.7924686915
 20
15.6112926386
 10
-11.7827792082
 20
15.6126089769
 10
-11.7729422085
 20
15.6135071098
 10
-11.7629669347
 20
15.6139887363
 10
-11.7528655967
 20
15.6140554766
 10
-11.742651146
 20
15.6137089311
 10
-11.7323365345
 20
15.6129507004
 10
-11.7219347137
 20
15.611782385
 10
-11.7114586354
 20
15.6102055852
 10
-11.7009183267
 20
15.608220703
 10
-11.6903121159
 20
15.6058233464
 10
-11.679635407
 20
15.6030079246
 10
-11.6688836038
 20
15.599768847
 10
-11.6580521101
 20
15.596100523
 10
-11.6471363298
 20
15.591997362
  0
LWPOLYLINE
  5
250
100
AcDbEntity
  8
0
100
AcDbPolyline
 62
253
  6
CONTINUOUS
 90
43
 70
0
 10
-12.8083555337
 20
-5.9792409561
 10
-12.8034142222
 20
-6.0017827896
 10
-12.7979485782
 20
-6.0244031672
 10
-12.7919634129
 20
-6.0471084411
 10
-12.7854635374
 20
-6.0699049634
 10
-12.7784537628
 20
-6.0927990865
 10
-12.7709389003
 20
-6.1157971626
 10
-12.7629247832
 20
-6.138899871
 10
-12.7544213334
 20
-6.1620851999
 10
-12.7454394953
 20
-6.1853254646
 10
-12.7359902131
 20
-6.2085929804
 10
-12.7260844308
 20
-6.2318600625
 10
-12.7157330928
 20
-6.2550990264
 10
-12.7049462877
 20
-6.278283857
 10
-12.6937306826
 20
-6.3013952184
 10
-12.6820920892
 20
-6.3244154443
 10
-12.6700363189
 20
-6.3473268685
 10
-12.6575691833
 20
-6.3701118248
 10
-12.6446964941
 20
-6.3927526469
 10
-12.631425345
 20
-6.4152311891
 10
-12.6177679588
 20
-6.4375273868
 10
-12.6037378404
 20
-6.4596206959
 10
-12.5893484947
 20
-6.4814905723
 10
-12.5746134267
 20
-6.5031164718
 10
-12.5595461413
 20
-6.5244778504
 10
-12.5441602233
 20
-6.545555502
 10
-12.5284695761
 20
-6.5663355728
 10
-12.512488183
 20
-6.586805547
 10
-12.4962300274
 20
-6.6069529088
 10
-12.4797090926
 20
-6.6267651425
 10
-12.4629393617
 20
-6.6462297323
 10
-12.445936243
 20
-6.6653324671
 10
-12.4287208442
 20
-6.6840523542
 10
-12.4113156977
 20
-6.7023667056
 10
-12.3937433362
 20
-6.7202528332
 10
-12.376026292
 20
-6.737688049
 10
-12.3581870979
 20
-6.754649665
 10
-12.3402431949
 20
-6.7711186574
 10
-12.3221916591
 20
-6.7870906592
 10
-12.3040244751
 20
-6.8025649675
 10
-12.2857336274
 20
-6.8175408797
 10
-12.2673111008
 20
-6.832017693
 10
-12.2487488799
 20
-6.8459947046
  0
LWPOLYLINE
  5
251
100
AcDbEntity
  8
0
100
AcDbPolyline
 62
253
  6
CONTINUOUS
 90
25
 70
0
 10
-12.5560418149
 20
-6.0715303756
 10
-12.5683864508
 20
-6.010149947
 10
-12.5798651867
 20
-5.9491594691
 10
-12.5904838391
 20
-5.8885477578
 10
-12.6002482243
 20
-5.8283036287
 10
-12.6091641588
 20
-5.7684158975
 10
-12.6172374591
 20
-5.7088733798
 10
-12.6244739415
 20
-5.6496648913
 10
-12.6308794224
 20
-5.5907792477
 10
-12.6364584677
 20
-5.5322116764
 10
-12.6412106404
 20
-5.4739830517
 10
-12.6451342527
 20
-5.4161206595
 10
-12.6482276169
 20
-5.358651786
 10
-12.6504890455
 20
-5.3016037172
 10
-12.6519168507
 20
-5.245003739
 10
-12.6525093449
 20
-5.1888791376
 10
-12.6522648404
 20
-5.133257199
 10
-12.6511809293
 20
-5.0781600502
 10
-12.6492523237
 20
-5.0235891826
 10
-12.6464730153
 20
-4.9695409283
 10
-12.6428369958
 20
-4.9160116197
 10
-12.6383382572
 20
-4.8629975891
 10
-12.6329707911
 20
-4.8104951688
 10
-12.6267285895
 20
-4.7585006912
 10
-12.619605644
 20
-4.7070104884
  0
LINE
  5
252
100
AcDbEntity
  8
ASSI
100
AcDbLine
 62
7
  6
CONTINUOUS
 10
-12.4104968875
 20
26.6837783964
 11
-12.3892915983
 21
26.067305899
  0
LINE
  5
253
100
AcDbEntity
  8
ASSI
100
AcDbLine
 62
253
  6
CONTINUOUS
 10
-12.5907481369
 20
26.2695582376
 11
-12.5907481369
 21
26.2067402489
  0
LWPOLYLINE
  5
254
100
AcDbEntity
  8
0
100
AcDbPolyline
 62
253
  6
CONTINUOUS
 90
25
 70
0
 10
-12.8768866581
 20
-4.5039314931
 10
-12.8846115708
 20
-4.5592658626
 10
-12.8913918251
 20
-4.6151688069
 10
-12.8972326872
 20
-4.6716451187
 10
-12.902139423
 20
-4.7286995906
 10
-12.9061172987
 20
-4.7863370151
 10
-12.9091715802
 20
-4.844562185
 10
-12.9113075338
 20
-4.9033798928
 10
-12.9125304254
 20
-4.9627949312
 10
-12.9128447487
 20
-5.0228065165
 10
-12.9122519082
 20
-5.0833915593
 10
-12.910752536
 20
-5.1445213943
 10
-12.908347264
 20
-5.2061673558
 10
-12.9050367244
 20
-5.2683007783
 10
-12.9008215491
 20
-5.3308929962
 10
-12.8957023703
 20
-5.393915344
 10
-12.8896798201
 20
-5.457339156
 10
-12.8827531664
 20
-5.5211425998
 10
-12.8749162215
 20
-5.5853311742
 10
-12.8661614335
 20
-5.6499172114
 10
-12.8564812506
 20
-5.7149130431
 10
-12.845868121
 20
-5.7803310015
 10
-12.8343144929
 20
-5.8461834185
 10
-12.8218128144
 20
-5.9124826261
 10
-12.8083555337
 20
-5.9792409561
  0
LWPOLYLINE
  5
255
100
AcDbEntity
  8
0
100
AcDbPolyline
 62
253
  6
CONTINUOUS
 90
44
 70
0
 10
-12.619605644
 20
-4.7070104884
 10
-12.618073613
 20
-4.6977132575
 10
-12.6163036118
 20
-4.6886541436
 10
-12.6142986872
 20
-4.679828266
 10
-12.6120618859
 20
-4.6712307442
 10
-12.6095962544
 20
-4.6628566975
 10
-12.6069048396
 20
-4.6547012454
 10
-12.6039906882
 20
-4.6467595073
 10
-12.6003134411
 20
-4.6377603685
 10
-12.5963422855
 20
-4.6290534623
 10
-12.5920823354
 20
-4.6206467757
 10
-12.5875387049
 20
-4.6125482959
 10
-12.5827165078
 20
-4.60476601
 10
-12.5776208583
 20
-4.597307905
 10
-12.5722564901
 20
-4.5901817728
 10
-12.5666266172
 20
-4.5833946239
 10
-12.5607340732
 20
-4.5769532737
 10
-12.554581692
 20
-4.5708645374
 10
-12.5481723074
 20
-4.5651352302
 10
-12.5415087529
 20
-4.5597721676
 10
-12.5345943323
 20
-4.5547820781
 10
-12.5274342281
 20
-4.550171345
 10
-12.5200340927
 20
-4.5459462647
 10
-12.5123995783
 20
-4.5421131339
 10
-12.5045363374
 20
-4.5386782489
 10
-12.4964500223
 20
-4.5356479065
 10
-12.488146698
 20
-4.5330270817
 10
-12.4796340796
 20
-4.5308154639
 10
-12.4709202948
 20
-4.5290114209
 10
-12.4620134713
 20
-4.5276133209
 10
-12.4529217368
 20
-4.5266195315
 10
-12.443653219
 20
-4.5260284208
 10
-12.4342167814
 20
-4.52583837
 10
-12.4246242303
 20
-4.5260478137
 10
-12.4148881079
 20
-4.5266551995
 10
-12.4050209562
 20
-4.5276589755
 10
-12.3950353173
 20
-4.5290575894
 10
-12.3849437333
 20
-4.530849489
 10
-12.3747558314
 20
-4.5330343617
 10
-12.3644695794
 20
-4.5356168527
 10
-12.3540800298
 20
-4.5386028468
 10
-12.3435822355
 20
-4.5419982287
 10
-12.3329712493
 20
-4.5458088832
 10
-12.3222421239
 20
-4.5500406951
  0
LWPOLYLINE
  5
256
100
AcDbEntity
  8
0
100
AcDbPolyline
 62
253
  6
CONTINUOUS
 90
25
 70
0
 10
-10.6668074028
 20
13.134229379
 10
-10.6546314436
 20
13.1922469567
 10
-10.6432967667
 20
13.250865335
 10
-10.632796592
 20
13.3100896399
 10
-10.6231241389
 20
13.3699249976
 10
-10.6142726271
 20
13.4303765342
 10
-10.6062352762
 20
13.4914493758
 10
-10.5990053059
 20
13.5531486485
 10
-10.5925759357
 20
13.6154794785
 10
-10.5869417785
 20
13.6784411557
 10
-10.5821030199
 20
13.7420096253
 10
-10.578061239
 20
13.8061549964
 10
-10.5748180145
 20
13.8708473781
 10
-10.5723749254
 20
13.9360568795
 10
-10.5707335506
 20
14.0017536095
 10
-10.569895469
 20
14.0679076773
 10
-10.5698622594
 20
14.134489192
 10
-10.5706363347
 20
14.2014752767
 10
-10.5722234429
 20
14.2688711115
 10
-10.5746301661
 20
14.3366888905
 10
-10.5778630862
 20
14.4049408077
 10
-10.5819287853
 20
14.4736390574
 10
-10.5868338453
 20
14.5427958337
 10
-10.5925848482
 20
14.6124233307
 10
-10.5991883761
 20
14.6825337425
  0
LINE
  5
257
100
AcDbEntity
  8
ASSI
100
AcDbLine
 62
7
  6
CONTINUOUS
 10
-4.4909009382
 20
22.1111029511
 11
-4.6711521876
 21
21.6968827923
  0
LWPOLYLINE
  5
258
100
AcDbEntity
  8
ASSI
100
AcDbPolyline
 62
253
  6
CONTINUOUS
 90
13
 70
0
 10
13.4620749271
 20
-9.8163582555
 10
13.4759190742
 20
-9.8129937404
 10
13.4895786648
 20
-9.8093907423
 10
13.5030413233
 20
-9.8055524415
 10
13.5162948968
 20
-9.8014823427
 10
13.529327304
 20
-9.7971841921
 10
13.5421265692
 20
-9.7926618558
 10
13.5546809862
 20
-9.7879195257
 10
13.5669792867
 20
-9.7829615148
 10
13.5790104822
 20
-9.7777921706
 10
13.5907637103
 20
-9.7724161554
 10
13.6022282559
 20
-9.7668384516
 10
13.613393719
 20
-9.7610641595
  0
LWPOLYLINE
  5
259
100
AcDbEntity
  8
0
100
AcDbPolyline
 62
253
  6
CONTINUOUS
 90
15
 70
0
 10
-11.671468097
 20
-7.1793093936
 10
-11.6657865675
 20
-7.1816374849
 10
-11.660094575
 20
-7.1839058809
 10
-11.6543920161
 20
-7.1861153353
 10
-11.6486787875
 20
-7.1882666021
 10
-11.6429547859
 20
-7.1903604347
 10
-11.6372199078
 20
-7.1923975871
 10
-11.6314740499
 20
-7.1943788128
 10
-11.6257170784
 20
-7.1963048889
 10
-11.6199487372
 20
-7.1981766855
 10
-11.6141687396
 20
-7.199995096
 10
-11.6083767991
 20
-7.2017610138
 10
-11.602572629
 20
-7.2034753322
 10
-11.5967559427
 20
-7.2051389446
 10
-11.5909264536
 20
-7.2067527444
  0
LWPOLYLINE
  5
25A
100
AcDbEntity
  8
0
100
AcDbPolyline
 62
253
  6
CONTINUOUS
 90
22
 70
0
 10
-11.7281614107
 20
-6.869769947
 10
-11.7515348507
 20
-6.8599271898
 10
-11.7749550655
 20
-6.8496869689
 10
-11.7984254793
 20
-6.8390488213
 10
-11.8219495167
 20
-6.8280122842
 10
-11.8455306018
 20
-6.8165768947
 10
-11.8691721591
 20
-6.80474219
 10
-11.8928776129
 20
-6.7925077071
 10
-11.9166479846
 20
-6.7798740709
 10
-11.9404746842
 20
-6.7668462567
 10
-11.9643467185
 20
-6.7534303274
 10
-11.9882530948
 20
-6.739632346
 10
-12.0121828198
 20
-6.7254583756
 10
-12.0361249008
 20
-6.7109144791
 10
-12.0600683446
 20
-6.6960067194
 10
-12.0840045667
 20
-6.6807394662
 10
-12.1079346167
 20
-6.6651103153
 10
-12.1318619523
 20
-6.6491151692
 10
-12.1557900314
 20
-6.6327499302
 10
-12.179722312
 20
-6.6160105007
 10
-12.203662252
 20
-6.5988927834
 10
-12.2276133092
 20
-6.5813926804
  0
LWPOLYLINE
  5
25B
100
AcDbEntity
  8
0
100
AcDbPolyline
 62
253
  6
CONTINUOUS
 90
22
 70
0
 10
-12.2104366269
 20
-6.8737363607
 10
-12.18648892
 20
-6.8907275303
 10
-12.1625442814
 20
-6.9073971206
 10
-12.1386000093
 20
-6.9237476854
 10
-12.1146534018
 20
-6.9397817783
 10
-12.0907017571
 20
-6.955501953
 10
-12.0667423733
 20
-6.9709107632
 10
-12.0427725485
 20
-6.9860107627
 10
-12.0187914215
 20
-7.0008032457
 10
-11.9948054941
 20
-7.0152844692
 10
-11.9708231084
 20
-7.0294494306
 10
-11.9468526069
 20
-7.0432931275
 10
-11.9229023317
 20
-7.0568105574
 10
-11.8989806253
 20
-7.0699967178
 10
-11.8750958298
 20
-7.0828466063
 10
-11.8512544729
 20
-7.0953560701
 10
-11.8274558231
 20
-7.1075243554
 10
-11.8036973341
 20
-7.1193515584
 10
-11.7799764597
 20
-7.1308377749
 10
-11.7562906535
 20
-7.1419831009
 10
-11.7326373694
 20
-7.1527876326
 10
-11.7090140611
 20
-7.1632514658
  0
LWPOLYLINE
  5
25C
100
AcDbEntity
  8
0
100
AcDbPolyline
 62
253
  6
CONTINUOUS
 90
45
 70
0
 10
-12.2276133092
 20
-6.5813926804
 10
-12.2370042892
 20
-6.5743536453
 10
-12.2463285041
 20
-6.5670981673
 10
-12.2555884982
 20
-6.559627651
 10
-12.2647868158
 20
-6.5519435008
 10
-12.2739260011
 20
-6.544047121
 10
-12.2830085986
 20
-6.5359399161
 10
-12.2920371524
 20
-6.5276232905
 10
-12.3025030815
 20
-6.517659277
 10
-12.3128881172
 20
-6.5074235244
 10
-12.3231814625
 20
-6.4969274267
 10
-12.3333723203
 20
-6.4861823781
 10
-12.3434498936
 20
-6.4751997727
 10
-12.3534033852
 20
-6.4639910047
 10
-12.3632223749
 20
-6.4525668578
 10
-12.3728979484
 20
-6.4409356735
 10
-12.3824215686
 20
-6.429105183
 10
-12.3917846979
 20
-6.4170831174
 10
-12.400978799
 20
-6.4048772079
 10
-12.4099953344
 20
-6.3924951855
 10
-12.418825902
 20
-6.3799454575
 10
-12.4274626406
 20
-6.3672391354
 10
-12.4358978238
 20
-6.3543880068
 10
-12.4441237257
 20
-6.3414038591
 10
-12.45213262
 20
-6.3282984801
 10
-12.4599167808
 20
-6.3150836572
 10
-12.4674691776
 20
-6.3017709038
 10
-12.4747855635
 20
-6.288370636
 10
-12.4818623872
 20
-6.2748929957
 10
-12.4886960977
 20
-6.2613481247
 10
-12.4952831437
 20
-6.247746165
 10
-12.5016199741
 20
-6.2340972583
 10
-12.507702489
 20
-6.2204126645
 10
-12.5135243938
 20
-6.2067081157
 10
-12.5190788455
 20
-6.1930004617
 10
-12.5243590008
 20
-6.1793065525
 10
-12.5293580166
 20
-6.1656432381
 10
-12.5340690498
 20
-6.1520273684
 10
-12.5378730808
 20
-6.1404049952
 10
-12.5414585996
 20
-6.1288274954
 10
-12.5448237005
 20
-6.1172925055
 10
-12.5479664781
 20
-6.1057976621
 10
-12.5508850267
 20
-6.0943406016
 10
-12.5535774408
 20
-6.0829189606
 10
-12.5560418149
 20
-6.0715303756
  0
LWPOLYLINE
  5
25D
100
AcDbEntity
  8
0
100
AcDbPolyline
 62
253
  6
CONTINUOUS
 90
44
 70
0
 10
-11.822565719
 20
-4.8385475888
 10
-11.8132177399
 20
-4.8456147535
 10
-11.8039431276
 20
-4.8529024457
 10
-11.7947392091
 20
-4.8604091929
 10
-11.7856033109
 20
-4.8681335225
 10
-11.7765327599
 20
-4.8760739622
 10
-11.7675248828
 20
-4.8842290394
 10
-11.7585770064
 20
-4.8925972817
 10
-11.7482125542
 20
-4.902626147
 10
-11.7379367017
 20
-4.9129315927
 10
-11.7277600193
 20
-4.923502062
 10
-11.7176930777
 20
-4.934325998
 10
-11.7077464476
 20
-4.945391844
 10
-11.6979306996
 20
-4.9566880433
 10
-11.6882560384
 20
-4.9682036479
 10
-11.6787312051
 20
-4.9799301451
 10
-11.6693645748
 20
-4.9918596311
 10
-11.6601645227
 20
-5.003984202
 10
-11.6511394239
 20
-5.0162959539
 10
-11.6422976537
 20
-5.0287869831
 10
-11.6336474187
 20
-5.0414487017
 10
-11.6251962519
 20
-5.0542697856
 10
-11.6169515178
 20
-5.067238227
 10
-11.6089205808
 20
-5.0803420179
 10
-11.6011108055
 20
-5.0935691504
 10
-11.5935295564
 20
-5.1069076166
 10
-11.5861834924
 20
-5.120345674
 10
-11.5790764506
 20
-5.1338726429
 10
-11.5722115628
 20
-5.147478109
 10
-11.5655919605
 20
-5.1611516581
 10
-11.5592207753
 20
-5.1748828761
 10
-11.5531011389
 20
-5.1886613486
 10
-11.5472367108
 20
-5.2024755673
 10
-11.5416332624
 20
-5.216309647
 10
-11.5362970929
 20
-5.2301466082
 10
-11.5312345014
 20
-5.2439694716
 10
-11.5264517873
 20
-5.2577612576
 10
-11.5219552498
 20
-5.2715049869
 10
-11.5177506143
 20
-5.2851871439
 10
-11.5138413112
 20
-5.2988080676
 10
-11.5102301969
 20
-5.3123715609
 10
-11.5069201282
 20
-5.3258814268
 10
-11.5039139614
 20
-5.339341468
 10
-11.5012145532
 20
-5.3527554875
  0
LWPOLYLINE
  5
25E
100
AcDbEntity
  8
0
100
AcDbPolyline
 62
253
  6
CONTINUOUS
 90
31
 70
0
 10
-8.7904424174
 20
-8.7949818069
 10
-8.7817156442
 20
-8.8020517511
 10
-8.7730157154
 20
-8.8089296941
 10
-8.7643294469
 20
-8.8156253659
 10
-8.7556436543
 20
-8.8221484968
 10
-8.7469451536
 20
-8.8285088168
 10
-8.7382207606
 20
-8.8347160559
 10
-8.729457291
 20
-8.8407799444
 10
-8.720644618
 20
-8.8467073372
 10
-8.711784844
 20
-8.8524935888
 10
-8.7028831286
 20
-8.8581311786
 10
-8.6939446315
 20
-8.863612586
 10
-8.6849745122
 20
-8.8689302903
 10
-8.6759779306
 20
-8.8740767709
 10
-8.6669600461
 20
-8.8790445072
 10
-8.659055989
 20
-8.8832387981
 10
-8.6511430925
 20
-8.8872858016
 10
-8.6432248765
 20
-8.8911808394
 10
-8.6353048614
 20
-8.8949192332
 10
-8.627386567
 20
-8.8984963048
 10
-8.6194735137
 20
-8.9019073759
 10
-8.6115692214
 20
-8.905147768
 10
-8.6036772103
 20
-8.9082128031
 10
-8.5957995639
 20
-8.9110990533
 10
-8.5879326193
 20
-8.9138080935
 10
-8.5800712769
 20
-8.916342749
 10
-8.5722104373
 20
-8.9187058452
 10
-8.5643450009
 20
-8.9209002074
 10
-8.5564698682
 20
-8.9229286612
 10
-8.5485799397
 20
-8.9247940318
 10
-8.5406701158
 20
-8.9264991446
  0
LWPOLYLINE
  5
25F
100
AcDbEntity
  8
0
100
AcDbPolyline
 62
253
  6
CONTINUOUS
 90
31
 70
0
 10
-10.6336399392
 20
-7.7307426585
 10
-10.6249115304
 20
-7.7378140085
 10
-10.6162101806
 20
-7.744693305
 10
-10.607522681
 20
-7.751390289
 10
-10.5988358228
 20
-7.7579147019
 10
-10.5901363971
 20
-7.7642762846
 10
-10.5814111952
 20
-7.7704847784
 10
-10.5726470082
 20
-7.7765499244
 10
-10.5638336889
 20
-7.782478585
 10
-10.5549733365
 20
-7.788266107
 10
-10.5460711118
 20
-7.7939049585
 10
-10.5371321757
 20
-7.7993876075
 10
-10.5281616891
 20
-7.8047065221
 10
-10.5191648127
 20
-7.8098541704
 10
-10.5101467073
 20
-7.8148230203
 10
-10.5022425179
 20
-7.8190182318
 10
-10.4943295445
 20
-7.8230660947
 10
-10.486411305
 20
-7.8269619196
 10
-10.4784913176
 20
-7.8307010169
 10
-10.4705731004
 20
-7.8342786972
 10
-10.4626601713
 20
-7.837690271
 10
-10.4547560485
 20
-7.8409310489
 10
-10.4468642501
 20
-7.8439963413
 10
-10.438986872
 20
-7.8468826728
 10
-10.4311203224
 20
-7.8495914234
 10
-10.4232595871
 20
-7.8521251872
 10
-10.4153996523
 20
-7.8544865583
 10
-10.407535504
 20
-7.8566781306
 10
-10.3996621281
 20
-7.8587024984
 10
-10.3917745106
 20
-7.8605622555
 10
-10.3838676376
 20
-7.8622599962
  0
LWPOLYLINE
  5
260
100
AcDbEntity
  8
0
100
AcDbPolyline
 62
253
  6
CONTINUOUS
 90
43
 70
0
 10
-11.2478931844
 20
-5.4444919087
 10
-11.2524519913
 20
-5.421724917
 10
-11.257529189
 20
-5.3988758701
 10
-11.2631200695
 20
-5.3759384868
 10
-11.2692199244
 20
-5.352906486
 10
-11.2758240456
 20
-5.3297735865
 10
-11.2829277247
 20
-5.3065335074
 10
-11.2905253556
 20
-5.2831857127
 10
-11.2986077396
 20
-5.2597526476
 10
-11.3071647803
 20
-5.2362625025
 10
-11.316186381
 20
-5.2127434676
 10
-11.3256624453
 20
-5.1892237335
 10
-11.3355828765
 20
-5.1657314904
 10
-11.3459384324
 20
-5.1422932596
 10
-11.356723288
 20
-5.1189288853
 10
-11.3679324729
 20
-5.0956565426
 10
-11.3795610164
 20
-5.0724944067
 10
-11.3916039479
 20
-5.0494606525
 10
-11.4040562968
 20
-5.0265734553
 10
-11.4169118142
 20
-5.0038514725
 10
-11.4301591379
 20
-4.9813152918
 10
-11.4437856274
 20
-4.9589859832
 10
-11.4577786422
 20
-4.9368846169
 10
-11.4721255417
 20
-4.9150322629
 10
-11.4868136854
 20
-4.8934499914
 10
-11.5018303069
 20
-4.8721575087
 10
-11.5171621361
 20
-4.851169067
 10
-11.532795777
 20
-4.8304975546
 10
-11.5487178335
 20
-4.8101558598
 10
-11.5649149098
 20
-4.790156871
 10
-11.5813736097
 20
-4.7705134765
 10
-11.5980791279
 20
-4.7512402706
 10
-11.6150110205
 20
-4.732358671
 10
-11.6321474346
 20
-4.7138918012
 10
-11.6494665168
 20
-4.6958627847
 10
-11.6669464142
 20
-4.6782947451
 10
-11.6845652734
 20
-4.6612108058
 10
-11.7023062869
 20
-4.6446304113
 10
-11.7201728289
 20
-4.62855829
 10
-11.7381733191
 20
-4.6129954908
 10
-11.7563161773
 20
-4.597943063
 10
-11.7746098233
 20
-4.5834020557
 10
-11.7930626767
 20
-4.5693735181
  0
LWPOLYLINE
  5
261
100
AcDbEntity
  8
0
100
AcDbPolyline
 62
253
  6
CONTINUOUS
 90
25
 70
0
 10
-11.5012145532
 20
-5.3527554875
 10
-11.4898503269
 20
-5.4145222187
 10
-11.4792670225
 20
-5.4758673514
 10
-11.4694587963
 20
-5.5368016012
 10
-11.4604198044
 20
-5.5973356836
 10
-11.4521442032
 20
-5.6574803141
 10
-11.4446261487
 20
-5.7172462084
 10
-11.4378597974
 20
-5.7766440819
 10
-11.4318393053
 20
-5.8356846502
 10
-11.4265601216
 20
-5.8943722876
 10
-11.4220228671
 20
-5.9526860028
 10
-11.4182294554
 20
-6.0105984632
 10
-11.4151818001
 20
-6.0680823364
 10
-11.4128818149
 20
-6.1251102897
 10
-11.4113314134
 20
-6.1816549906
 10
-11.4105325094
 20
-6.2376891065
 10
-11.4104870163
 20
-6.2931853049
 10
-11.4111976286
 20
-6.3481214012
 10
-11.4126701635
 20
-6.4024958031
 10
-11.4149112189
 20
-6.4563120663
 10
-11.4179273927
 20
-6.5095737462
 10
-11.4217252828
 20
-6.5622843987
 10
-11.4263114873
 20
-6.6144475793
 10
-11.4316926039
 20
-6.6660668437
 10
-11.4378752305
 20
-6.7171457475
  0
LWPOLYLINE
  5
262
100
AcDbEntity
  8
0
100
AcDbPolyline
 62
253
  6
CONTINUOUS
 90
25
 70
0
 10
-10.8574474171
 20
14.7714191886
 10
-10.8513228577
 20
14.7065145053
 10
-10.8459888691
 20
14.6420390584
 10
-10.8414400287
 20
14.577981575
 10
-10.8376709139
 20
14.5143307826
 10
-10.8346761019
 20
14.4510754085
 10
-10.8324501702
 20
14.3882041799
 10
-10.830987696
 20
14.3257058241
 10
-10.8302832568
 20
14.2635690685
 10
-10.8303321886
 20
14.2017892804
 10
-10.8311328627
 20
14.1403883869
 10
-10.832684409
 20
14.079394955
 10
-10.8349859574
 20
14.0188375518
 10
-10.8380366379
 20
13.9587447445
 10
-10.8418355806
 20
13.8991451001
 10
-10.8463819153
 20
13.8400671856
 10
-10.851674772
 20
13.7815395683
 10
-10.8577145897
 20
13.7235853472
 10
-10.8645070436
 20
13.6662057495
 10
-10.8720591179
 20
13.6093965347
 10
-10.8803777967
 20
13.553153462
 10
-10.8894700644
 20
13.4974722907
 10
-10.8993429051
 20
13.4423487801
 10
-10.9100033029
 20
13.3877786897
 10
-10.9214582422
 20
13.3337577785
  0
LWPOLYLINE
  5
263
100
AcDbEntity
  8
0
100
AcDbPolyline
 62
253
  6
CONTINUOUS
 90
55
 70
0
 10
-10.4757430072
 20
-6.0579296568
 10
-10.476057932
 20
-6.045582018
 10
-10.4760217126
 20
-6.0335239368
 10
-10.4756388499
 20
-6.0217206706
 10
-10.4749138452
 20
-6.010137477
 10
-10.4738511996
 20
-5.9987396133
 10
-10.4724533951
 20
-5.9874994175
 10
-10.4707148374
 20
-5.976417549
 10
-10.4686279131
 20
-5.9655017476
 10
-10.466185009
 20
-5.9547597532
 10
-10.4633785117
 20
-5.9441993055
 10
-10.4602016819
 20
-5.9338314527
 10
-10.456651277
 20
-5.923680476
 10
-10.4527249285
 20
-5.9137739649
 10
-10.4484202678
 20
-5.9041395088
 10
-10.4437349263
 20
-5.8948046972
 10
-10.439541115
 20
-5.8872768209
 10
-10.4350988049
 20
-5.8800061586
 10
-10.4304255041
 20
-5.8730226787
 10
-10.425533227
 20
-5.8663491956
 10
-10.4204120156
 20
-5.8599799088
 10
-10.4150464187
 20
-5.8539018641
 10
-10.4094244875
 20
-5.8481068621
 10
-10.403548283
 20
-5.8426057237
 10
-10.3974233683
 20
-5.8374140245
 10
-10.3910553069
 20
-5.8325473404
 10
-10.384449662
 20
-5.8280212471
 10
-10.3776119969
 20
-5.8238513204
 10
-10.3705496859
 20
-5.820050034
 10
-10.3632773468
 20
-5.8166174533
 10
-10.3558114081
 20
-5.813550542
 10
-10.3481682987
 20
-5.8108462634
 10
-10.340364447
 20
-5.8085015812
 10
-10.332416282
 20
-5.8065134587
 10
-10.3243342191
 20
-5.8048782897
 10
-10.3161046217
 20
-5.8035901884
 10
-10.3077078401
 20
-5.8026426992
 10
-10.2991337884
 20
-5.8020305344
 10
-10.2904106363
 20
-5.8017530782
 10
-10.2815761172
 20
-5.8018108825
 10
-10.2708742363
 20
-5.8023206121
 10
-10.2600920331
 20
-5.8032971262
 10
-10.2492552175
 20
-5.8047236391
 10
-10.2383894995
 20
-5.8065833654
 10
-10.2275205892
 20
-5.8088595193
 10
-10.2166702835
 20
-5.8115362756
 10
-10.2058447272
 20
-5.814601649
 10
-10.1950461521
 20
-5.8180446146
 10
-10.18427679
 20
-5.8218541474
 10
-10.1735388727
 20
-5.8260192224
 10
-10.1628294165
 20
-5.8305338682
 10
-10.1521245758
 20
-5.8354123269
 10
-10.1413952892
 20
-5.8406738942
 10
-10.1306124957
 20
-5.846337866
 10
-10.119747134
 20
-5.8524235379
  0
LINE
  5
264
100
AcDbEntity
  8
0
100
AcDbLine
 62
253
  6
CONTINUOUS
 10
-9.8897078505
 20
12.1388348039
 11
-9.8725560137
 21
12.6613579989
  0
LINE
  5
265
100
AcDbEntity
  8
0
100
AcDbLine
 62
253
  6
CONTINUOUS
 10
-8.7464119412
 20
12.5395952064
 11
-8.7677306934
 21
11.9841545549
  0
LWPOLYLINE
  5
266
100
AcDbEntity
  8
0
100
AcDbPolyline
 62
253
  6
CONTINUOUS
 90
4
 70
0
 10
-9.8725560137
 20
12.6613579989
 10
-9.8410180191
 20
13.4482070829
 10
-9.8289564599
 20
13.7112944769
 10
-9.8008840019
 20
14.2692548355
  0
LINE
  5
267
100
AcDbEntity
  8
0
100
AcDbLine
 62
253
  6
CONTINUOUS
 10
-8.7231057955
 20
13.065347926
 11
-8.7464119412
 21
12.5395952064
  0
LWPOLYLINE
  5
268
100
AcDbEntity
  8
0
100
AcDbPolyline
 62
253
  6
CONTINUOUS
 90
3
 70
0
 10
-8.6672042485
 20
14.1215908401
 10
-8.6823403842
 20
13.856945962
 10
-8.7231057955
 20
13.065347926
  0
LWPOLYLINE
  5
269
100
AcDbEntity
  8
0
100
AcDbPolyline
 62
253
  6
CONTINUOUS
 90
25
 70
0
 10
-11.1786475451
 20
-6.9140315336
 10
-11.1721430932
 20
-6.8592485816
 10
-11.166485437
 20
-6.8038692885
 10
-11.1616684294
 20
-6.7478891004
 10
-11.1576859239
 20
-6.6913034636
 10
-11.1545317734
 20
-6.6341078241
 10
-11.1521998313
 20
-6.5762976282
 10
-11.1506839508
 20
-6.5178683219
 10
-11.1499779849
 20
-6.4588153515
 10
-11.1500766085
 20
-6.3991396495
 10
-11.1509777826
 20
-6.3388640936
 10
-11.15268029
 20
-6.278017048
 10
-11.1551829132
 20
-6.216626877
 10
-11.1584844348
 20
-6.1547219445
 10
-11.1625836377
 20
-6.0923306148
 10
-11.1674793043
 20
-6.0294812521
 10
-11.1731702173
 20
-5.9662022204
 10
-11.1796565518
 20
-5.9025152167
 10
-11.186944052
 20
-5.8384152683
 10
-11.1950398546
 20
-5.7738907355
 10
-11.2039510961
 20
-5.7089299783
 10
-11.2136849132
 20
-5.6435213568
 10
-11.2242484426
 20
-5.5776532313
 10
-11.2356488208
 20
-5.5113139619
 10
-11.2478931844
 20
-5.4444919087
  0
LWPOLYLINE
  5
26A
100
AcDbEntity
  8
0
100
AcDbPolyline
 62
253
  6
CONTINUOUS
 90
44
 70
0
 10
-11.4378752305
 20
-6.7171457475
 10
-11.439206455
 20
-6.7263597676
 10
-11.4407766764
 20
-6.7353338274
 10
-11.4425827566
 20
-6.744072904
 10
-11.4446215574
 20
-6.7525819744
 10
-11.4468899406
 20
-6.7608660157
 10
-11.4493847682
 20
-6.7689300049
 10
-11.452102902
 20
-6.776778919
 10
-11.4555521309
 20
-6.7856681705
 10
-11.4592962002
 20
-6.7942636149
 10
-11.4633302773
 20
-6.802557412
 10
-11.4676495294
 20
-6.8105417217
 10
-11.4722491239
 20
-6.8182087035
 10
-11.4771242281
 20
-6.8255505173
 10
-11.4822703931
 20
-6.8325595077
 10
-11.4876847059
 20
-6.8392287595
 10
-11.4933646374
 20
-6.8455515422
 10
-11.4993076585
 20
-6.8515211254
 10
-11.5055112402
 20
-6.8571307787
 10
-11.5119728532
 20
-6.8623737717
 10
-11.518689512
 20
-6.8672434666
 10
-11.5256564046
 20
-6.8717335954
 10
-11.5328682628
 20
-6.8758379828
 10
-11.540319818
 20
-6.8795504532
 10
-11.548005802
 20
-6.8828648313
 10
-11.5559209463
 20
-6.8857749416
 10
-11.5640594967
 20
-6.8882759907
 10
-11.5724137557
 20
-6.8903687122
 10
-11.5809755402
 20
-6.892055222
 10
-11.5897366667
 20
-6.8933376358
 10
-11.5986889522
 20
-6.8942180691
 10
-11.6078242132
 20
-6.8946986377
 10
-11.6171335685
 20
-6.8947814548
 10
-11.6266053445
 20
-6.8944686232
 10
-11.6362271697
 20
-6.8937622434
 10
-11.6459866724
 20
-6.8926644157
 10
-11.655871481
 20
-6.8911772404
 10
-11.665869224
 20
-6.8893028181
 10
-11.6759704321
 20
-6.8870419909
 10
-11.6861772457
 20
-6.8843905681
 10
-11.6964947076
 20
-6.8813431011
 10
-11.7069278606
 20
-6.8778941411
 10
-11.7174817474
 20
-6.8740382393
 10
-11.7281614107
 20
-6.869769947
  0
LWPOLYLINE
  5
26B
100
AcDbEntity
  8
0
100
AcDbPolyline
 62
253
  6
CONTINUOUS
 90
43
 70
0
 10
-11.5909264536
 20
-7.2067527444
 10
-11.5754082748
 20
-7.210507046
 10
-11.5601106686
 20
-7.2136984057
 10
-11.5450272951
 20
-7.2163333407
 10
-11.5301518147
 20
-7.2184183678
 10
-11.5154778874
 20
-7.2199600042
 10
-11.5009991734
 20
-7.220964767
 10
-11.4867125089
 20
-7.2214381997
 10
-11.4726274337
 20
-7.2213819533
 10
-11.4587566632
 20
-7.2207967051
 10
-11.4451129133
 20
-7.2196831327
 10
-11.4317088995
 20
-7.2180419135
 10
-11.4185573375
 20
-7.215873725
 10
-11.4056702693
 20
-7.2131789947
 10
-11.3930570424
 20
-7.2099571505
 10
-11.3807263308
 20
-7.2062073704
 10
-11.3686868083
 20
-7.2019288322
 10
-11.3569471489
 20
-7.1971207139
 10
-11.3455160264
 20
-7.1917821934
 10
-11.3344018839
 20
-7.1859134613
 10
-11.3236122412
 20
-7.1795187585
 10
-11.3131543872
 20
-7.1726033385
 10
-11.3030356108
 20
-7.1651724546
 10
-11.2932632009
 20
-7.1572313605
 10
-11.2838444465
 20
-7.1487853096
 10
-11.274785858
 20
-7.1398400368
 10
-11.2660908326
 20
-7.130403203
 10
-11.257761989
 20
-7.1204829504
 10
-11.2498019456
 20
-7.1100874214
 10
-11.2422133213
 20
-7.0992247582
 10
-11.2349987347
 20
-7.0879031032
 10
-11.228161339
 20
-7.0761313829
 10
-11.2217064256
 20
-7.063921661
 10
-11.2156398205
 20
-7.0512867859
 10
-11.2099673498
 20
-7.0382396055
 10
-11.2046948392
 20
-7.0247929679
 10
-11.199828115
 20
-7.0109597214
 10
-11.1953725931
 20
-6.9967491307
 10
-11.1913320502
 20
-6.9821561279
 10
-11.1877098532
 20
-6.9671720615
 10
-11.1845093689
 20
-6.9517882804
 10
-11.1817339639
 20
-6.9359961332
 10
-11.1793870053
 20
-6.9197869687
  0
LWPOLYLINE
  5
26C
100
AcDbEntity
  8
0
100
AcDbPolyline
 62
253
  6
CONTINUOUS
 90
91
 70
0
 10
-12.2635469641
 20
-4.5751753008
 10
-12.2625356132
 20
-4.575645725
 10
-12.2615621628
 20
-4.5759067461
 10
-12.2606223637
 20
-4.5759944322
 10
-12.2597119667
 20
-4.5759448508
 10
-12.2588267225
 20
-4.5757940699
 10
-12.2573991682
 20
-4.5753875531
 10
-12.2560310002
 20
-4.57479736
 10
-12.2547235396
 20
-4.5740207361
 10
-12.2534782147
 20
-4.5730576237
 10
-12.2522968844
 20
-4.571918753
 10
-12.251181515
 20
-4.5706175513
 10
-12.2501316144
 20
-4.5691670611
 10
-12.2491368577
 20
-4.5675787856
 10
-12.2481844615
 20
-4.5658638435
 10
-12.2472642639
 20
-4.564030746
 10
-12.2463765884
 20
-4.5620775758
 10
-12.24552438
 20
-4.5599998081
 10
-12.2447102883
 20
-4.5577932758
 10
-12.243935782
 20
-4.5554552412
 10
-12.2432020342
 20
-4.5529833241
 10
-12.2425099742
 20
-4.5503747017
 10
-12.2418595552
 20
-4.5476247807
 10
-12.2412504862
 20
-4.5447285254
 10
-12.2406820301
 20
-4.5416817383
 10
-12.2401516652
 20
-4.5384835748
 10
-12.2396564236
 20
-4.5351340287
 10
-12.2391934892
 20
-4.5316321979
 10
-12.2387606539
 20
-4.5279735984
 10
-12.2383558616
 20
-4.5241528505
 10
-12.2379779494
 20
-4.5201633484
 10
-12.2376293271
 20
-4.5159935818
 10
-12.2373132978
 20
-4.5116308143
 10
-12.2370330175
 20
-4.5070627341
 10
-12.2367910524
 20
-4.5022787275
 10
-12.2365898218
 20
-4.4972686057
 10
-12.2364318725
 20
-4.4920227855
 10
-12.2363202617
 20
-4.4865341077
 10
-12.2362581746
 20
-4.4807960188
 10
-12.2362478667
 20
-4.4748151963
 10
-12.2362878766
 20
-4.4686512408
 10
-12.2363758132
 20
-4.4623769837
 10
-12.2365087994
 20
-4.4560613782
 10
-12.2366820127
 20
-4.4497578652
 10
-12.2368901447
 20
-4.4435160079
 10
-12.2371287456
 20
-4.4373799687
 10
-12.2373968026
 20
-4.4313723089
 10
-12.2376941618
 20
-4.4255101897
 10
-12.2380206488
 20
-4.4198051177
 10
-12.2383760069
 20
-4.4142459824
 10
-12.2387599585
 20
-4.408816019
 10
-12.2391721705
 20
-4.4035010034
 10
-12.2396120864
 20
-4.398296874
 10
-12.2400790939
 20
-4.39320211
 10
-12.240572548
 20
-4.3882154193
 10
-12.241091673
 20
-4.3833364248
 10
-12.2416356607
 20
-4.3785649783
 10
-12.2422035284
 20
-4.373900618
 10
-12.2427935959
 20
-4.3693416282
 10
-12.2434040087
 20
-4.3648859798
 10
-12.2440335747
 20
-4.3605312783
 10
-12.2446837519
 20
-4.3562736671
 10
-12.2453566609
 20
-4.3521089242
 10
-12.2460546494
 20
-4.3480333049
 10
-12.2467809733
 20
-4.3440449735
 10
-12.2475391156
 20
-4.3401425712
 10
-12.2483320211
 20
-4.3363248968
 10
-12.2491604814
 20
-4.332591378
 10
-12.2500247499
 20
-4.3289415998
 10
-12.2509250828
 20
-4.3253748224
 10
-12.2518617477
 20
-4.3218890061
 10
-12.2528350149
 20
-4.3184817863
 10
-12.2538444404
 20
-4.3151515703
 10
-12.2548867233
 20
-4.3118998526
 10
-12.255957848
 20
-4.3087288994
 10
-12.2570564814
 20
-4.3056403713
 10
-12.258192019
 20
-4.3026335062
 10
-12.2593765391
 20
-4.2997069364
 10
-12.2606208993
 20
-4.2968610302
 10
-12.2619310771
 20
-4.2941030996
 10
-12.2633118297
 20
-4.2914421927
 10
-12.2643954396
 20
-4.2895164121
 10
-12.2655166437
 20
-4.2876588235
 10
-12.2666707869
 20
-4.285876607
 10
-12.2678537128
 20
-4.2841715583
 10
-12.2686571156
 20
-4.2830809896
 10
-12.2694750416
 20
-4.2820432754
 10
-12.2703110135
 20
-4.2810767735
 10
-12.2711678685
 20
-4.2802013658
 10
-12.2720457015
 20
-4.2794430287
 10
-12.2729439216
 20
-4.2788292629
  0
LWPOLYLINE
  5
26D
100
AcDbEntity
  8
0
100
AcDbPolyline
 62
253
  6
CONTINUOUS
 90
96
 70
0
 10
-11.891258101
 20
-4.4992098721
 10
-11.8920794221
 20
-4.4988156576
 10
-11.8928764906
 20
-4.4985680112
 10
-11.8936511996
 20
-4.498446348
 10
-11.8947732745
 20
-4.4984560284
 10
-11.8958479731
 20
-4.4986386565
 10
-11.8968923464
 20
-4.4989369084
 10
-11.8979119629
 20
-4.4993329282
 10
-11.8989009836
 20
-4.4998271185
 10
-11.8998564339
 20
-4.5004203513
 10
-11.9010757591
 20
-4.5013644012
 10
-11.902231634
 20
-4.5024760208
 10
-11.9033233048
 20
-4.5037459764
 10
-11.9043520912
 20
-4.5051644562
 10
-11.9053276053
 20
-4.5067193362
 10
-11.9062615324
 20
-4.5083979144
 10
-11.9071635433
 20
-4.5101900446
 10
-11.9080352511
 20
-4.5120958041
 10
-11.9088762545
 20
-4.514117826
 10
-11.9096858793
 20
-4.5162589057
 10
-11.9104623591
 20
-4.5185224867
 10
-11.9112036547
 20
-4.5209121747
 10
-11.9119080528
 20
-4.5234317496
 10
-11.9125751431
 20
-4.5260856873
 10
-11.9132048411
 20
-4.528878638
 10
-11.9137972386
 20
-4.5318148827
 10
-11.9143531314
 20
-4.5348972264
 10
-11.9148734915
 20
-4.5381281049
 10
-11.9153597435
 20
-4.5415099221
 10
-11.9158151215
 20
-4.5450449547
 10
-11.9162433123
 20
-4.5487354473
 10
-11.9166469962
 20
-4.5525850476
 10
-11.9170248274
 20
-4.556603015
 10
-11.917374454
 20
-4.5608000122
 10
-11.91769354
 20
-4.5651868374
 10
-11.9179798146
 20
-4.5697748319
 10
-11.9182310231
 20
-4.5745754727
 10
-11.9183950071
 20
-4.5783226522
 10
-11.9185367237
 20
-4.5822022163
 10
-11.9186548987
 20
-4.5862204801
 10
-11.9187482575
 20
-4.5903837589
 10
-11.918815603
 20
-4.5946938349
 10
-11.9188560467
 20
-4.5991343585
 10
-11.9188687771
 20
-4.6036844472
 10
-11.9188529828
 20
-4.6083232185
 10
-11.9187874228
 20
-4.6146073863
 10
-11.9186754262
 20
-4.6209462811
 10
-11.9185227096
 20
-4.6272740964
 10
-11.9183343285
 20
-4.6335307661
 10
-11.9181126946
 20
-4.6396791852
 10
-11.9178595586
 20
-4.6456879891
 10
-11.9175762374
 20
-4.6515336745
 10
-11.9172623131
 20
-4.6572241834
 10
-11.916916934
 20
-4.662775319
 10
-11.9165394145
 20
-4.6682013832
 10
-11.9161297348
 20
-4.673510672
 10
-11.915688041
 20
-4.6787099799
 10
-11.9152146467
 20
-4.6838045923
 10
-11.9147105346
 20
-4.6887937584
 10
-11.914176855
 20
-4.6936752179
 10
-11.9136148301
 20
-4.6984474916
 10
-11.9130259708
 20
-4.7031122236
 10
-11.91241186
 20
-4.7076718389
 10
-11.911773879
 20
-4.7121289034
 10
-11.9111126025
 20
-4.716486546
 10
-11.9104284034
 20
-4.7207480369
 10
-11.9097207395
 20
-4.7249165934
 10
-11.9089854073
 20
-4.7289952227
 10
-11.9082172886
 20
-4.7329868795
 10
-11.9074119475
 20
-4.7368939144
 10
-11.9065676794
 20
-4.7407162622
 10
-11.9056834622
 20
-4.7444532534
 10
-11.9047583721
 20
-4.7481048553
 10
-11.9037918772
 20
-4.7516735805
 10
-11.9027835438
 20
-4.7551625783
 10
-11.901999751
 20
-4.7577284468
 10
-11.9011930451
 20
-4.7602498502
 10
-11.9003644668
 20
-4.7627254231
 10
-11.8995157583
 20
-4.7651538984
 10
-11.8986482696
 20
-4.767534355
 10
-11.8977610801
 20
-4.7698671556
 10
-11.8968518823
 20
-4.7721526755
 10
-11.8959150929
 20
-4.7743900533
 10
-11.8946136184
 20
-4.777295607
 10
-11.8932459214
 20
-4.7801064838
 10
-11.8918062135
 20
-4.7828156733
 10
-11.8906766122
 20
-4.7847759326
 10
-11.88950632
 20
-4.7866679918
 10
-11.8883011193
 20
-4.7884814736
 10
-11.8870747335
 20
-4.7901990196
 10
-11.8858268276
 20
-4.7918180552
 10
-11.8851885716
 20
-4.7925821017
 10
-11.8845407515
 20
-4.7933037317
 10
-11.8836641439
 20
-4.7941806496
 10
-11.8827716308
 20
-4.7949389015
 10
-11.8818611435
 20
-4.79555591
  0
LWPOLYLINE
  5
26E
100
AcDbEntity
  8
0
100
AcDbPolyline
 62
253
  6
CONTINUOUS
 90
57
 70
0
 10
-8.2860471664
 20
-6.6219013043
 10
-8.3025379342
 20
-6.6126381036
 10
-8.3189811332
 20
-6.6039173945
 10
-8.3354090317
 20
-6.5957179992
 10
-8.3518538978
 20
-6.5880187399
 10
-8.3683418102
 20
-6.5808036186
 10
-8.3848740896
 20
-6.5740773583
 10
-8.4014458674
 20
-6.5678498619
 10
-8.4180522747
 20
-6.5621310322
 10
-8.4346842825
 20
-6.5569316425
 10
-8.4513162205
 20
-6.5522659478
 10
-8.4679182581
 20
-6.5481490731
 10
-8.4844605647
 20
-6.5445961437
 10
-8.5009161564
 20
-6.5416214405
 10
-8.517269436
 20
-6.539235867
 10
-8.5335076531
 20
-6.5374494827
 10
-8.5496180573
 20
-6.5362723469
 10
-8.5655855599
 20
-6.5357144198
 10
-8.58138572
 20
-6.5357852655
 10
-8.5969917581
 20
-6.536494349
 10
-8.6123768951
 20
-6.5378511352
 10
-8.6275175517
 20
-6.5398660446
 10
-8.6424029483
 20
-6.5425533197
 10
-8.6570255051
 20
-6.5459281583
 10
-8.6713776424
 20
-6.5500057584
 10
-8.6854459979
 20
-6.5547995217
 10
-8.699194078
 20
-6.5603156645
 10
-8.7125796061
 20
-6.566558607
 10
-8.7255603061
 20
-6.5735327694
 10
-8.73809766
 20
-6.5812350001
 10
-8.7501681841
 20
-6.5896318609
 10
-8.7617521529
 20
-6.598682342
 10
-8.7728298411
 20
-6.6083454335
 10
-8.7833871903
 20
-6.6185849323
 10
-8.7934328094
 20
-6.6293838624
 10
-8.8029809741
 20
-6.6407300548
 10
-8.8120459602
 20
-6.6526113402
 10
-8.8206396909
 20
-6.6650160456
 10
-8.8287646794
 20
-6.6779344821
 10
-8.8364210862
 20
-6.6913574569
 10
-8.8436090719
 20
-6.7052757771
 10
-8.850327412
 20
-6.7196766689
 10
-8.8565693421
 20
-6.7345330347
 10
-8.8623267127
 20
-6.7498141957
 10
-8.8675913742
 20
-6.7654894733
 10
-8.8723565275
 20
-6.7815248472
 10
-8.876620774
 20
-6.7978729315
 10
-8.8803840652
 20
-6.8144829984
 10
-8.8836463528
 20
-6.8313043204
 10
-8.8864095734
 20
-6.8482944958
 10
-8.8886836039
 20
-6.8654444264
 10
-8.8904803058
 20
-6.88275334
 10
-8.8918115411
 20
-6.9002204643
 10
-8.8926869016
 20
-6.9178509036
 10
-8.8931069002
 20
-6.9356732687
 10
-8.8930697799
 20
-6.9537220466
 10
-8.8925737838
 20
-6.9720317246
  0
LWPOLYLINE
  5
26F
100
AcDbEntity
  8
0
100
AcDbPolyline
 62
253
  6
CONTINUOUS
 90
57
 70
0
 10
-10.1292446883
 20
-5.5576621559
 10
-10.145735456
 20
-5.5483989552
 10
-10.1621786551
 20
-5.5396782461
 10
-10.1786065535
 20
-5.5314788508
 10
-10.1950514196
 20
-5.5237795914
 10
-10.211539332
 20
-5.5165644702
 10
-10.2280716115
 20
-5.5098382099
 10
-10.2446433892
 20
-5.5036107134
 10
-10.2612497965
 20
-5.4978918838
 10
-10.2778818043
 20
-5.4926924941
 10
-10.2945137423
 20
-5.4880267994
 10
-10.3111157799
 20
-5.4839099247
 10
-10.3276580865
 20
-5.4803569953
 10
-10.3441136782
 20
-5.4773822921
 10
-10.3604669578
 20
-5.4749967186
 10
-10.3767051749
 20
-5.4732103343
 10
-10.3928155791
 20
-5.4720331985
 10
-10.4087830818
 20
-5.4714752714
 10
-10.4245832418
 20
-5.4715461171
 10
-10.4401892799
 20
-5.4722552006
 10
-10.455574417
 20
-5.4736119868
 10
-10.4707150735
 20
-5.4756268962
 10
-10.4856004701
 20
-5.4783141713
 10
-10.5002230269
 20
-5.4816890099
 10
-10.5145751643
 20
-5.48576661
 10
-10.5286435198
 20
-5.4905603732
 10
-10.5423915998
 20
-5.4960765161
 10
-10.555777128
 20
-5.5023194586
 10
-10.568757828
 20
-5.5092936209
 10
-10.5812951819
 20
-5.5169958517
 10
-10.5933657059
 20
-5.5253927125
 10
-10.6049496747
 20
-5.5344431936
 10
-10.6160273629
 20
-5.5441062851
 10
-10.6265847121
 20
-5.5543457839
 10
-10.6366303312
 20
-5.565144714
 10
-10.6461784959
 20
-5.5764909064
 10
-10.655243482
 20
-5.5883721918
 10
-10.6638372128
 20
-5.6007768972
 10
-10.6719622013
 20
-5.6136953337
 10
-10.6796186081
 20
-5.6271183085
 10
-10.6868065938
 20
-5.6410366287
 10
-10.6935249339
 20
-5.6554375205
 10
-10.6997668639
 20
-5.6702938863
 10
-10.7055242345
 20
-5.6855750473
 10
-10.7107888961
 20
-5.7012503249
 10
-10.7155540494
 20
-5.7172856988
 10
-10.7198182958
 20
-5.7336337831
 10
-10.723581587
 20
-5.75024385
 10
-10.7268438746
 20
-5.767065172
 10
-10.7296070953
 20
-5.7840553474
 10
-10.7318811257
 20
-5.801205278
 10
-10.7336778277
 20
-5.8185141916
 10
-10.7350090629
 20
-5.8359813159
 10
-10.7358844234
 20
-5.8536117552
 10
-10.736304422
 20
-5.8714341202
 10
-10.7362673017
 20
-5.8894828982
 10
-10.7357713056
 20
-5.9077925762
  0
LINE
  5
270
100
AcDbEntity
  8
0
100
AcDbLine
 62
253
  6
CONTINUOUS
 10
-10.119747134
 20
-5.8524235379
 11
-9.3808716353
 21
-6.2790409905
  0
LINE
  5
271
100
AcDbEntity
  8
0
100
AcDbLine
 62
253
  6
CONTINUOUS
 10
-8.2765496121
 20
-6.9166626863
 11
-7.5376990586
 21
-7.3432657359
  0
LINE
  5
272
100
AcDbEntity
  8
0
100
AcDbLine
 62
253
  6
CONTINUOUS
 10
-7.5471966129
 20
-7.0485043539
 11
-8.2860471664
 21
-6.6219013043
  0
LINE
  5
273
100
AcDbEntity
  8
0
100
AcDbLine
 62
253
  6
CONTINUOUS
 10
-9.3903691896
 20
-5.9842796085
 11
-10.1292446883
 21
-5.5576621559
  0
LINE
  5
274
100
AcDbEntity
  8
ASSI
100
AcDbLine
 62
253
  6
CONTINUOUS
 10
12.9847731948
 20
-17.7979146657
 11
-17.6630108955
 21
-0.102268239
  0
LINE
  5
275
100
AcDbEntity
  8
0
100
AcDbLine
 62
253
  6
CONTINUOUS
 10
-9.3478737803
 20
-7.1176630256
 11
-10.4566888384
 21
-6.475751081
  0
LINE
  5
276
100
AcDbEntity
  8
0
100
AcDbLine
 62
253
  6
CONTINUOUS
 10
-7.5047012036
 20
-8.1818877711
 11
-8.6135162617
 21
-7.5399758264
  0
LWPOLYLINE
  5
277
100
AcDbEntity
  8
0
100
AcDbPolyline
 62
253
  6
CONTINUOUS
 90
43
 70
0
 10
-12.2971488133
 20
14.0684231008
 10
-12.2941164852
 20
14.0447803545
 10
-12.2905389938
 20
14.0210713472
 10
-12.286422014
 20
13.9972892488
 10
-12.281771221
 20
13.973427229
 10
-12.2765922897
 20
13.9494784579
 10
-12.270890895
 20
13.9254361054
 10
-12.2646732404
 20
13.9012992925
 10
-12.257947643
 20
13.8770909454
 10
-12.2507229481
 20
13.8528399417
 10
-12.2430080013
 20
13.8285751587
 10
-12.2348116481
 20
13.8043254738
 10
-12.2261427339
 20
13.7801197645
 10
-12.2170093647
 20
13.7559851751
 10
-12.2074166891
 20
13.7319419173
 10
-12.1973691163
 20
13.7080084695
 10
-12.1868710554
 20
13.6842033102
 10
-12.1759269155
 20
13.660544918
 10
-12.1645411058
 20
13.6370517713
 10
-12.152719337
 20
13.6137428111
 10
-12.1404725259
 20
13.5906388277
 10
-12.1278128909
 20
13.5677610738
 10
-12.1147526504
 20
13.5451308023
 10
-12.1013040229
 20
13.5227692658
 10
-12.0874792267
 20
13.5006977171
 10
-12.0732906935
 20
13.4789359979
 10
-12.0587517079
 20
13.4574983061
 10
-12.0438757678
 20
13.4363974286
 10
-12.0286763713
 20
13.4156461521
 10
-12.0131670161
 20
13.3952572635
 10
-11.9973612003
 20
13.3752435497
 10
-11.9812737538
 20
13.3556195369
 10
-11.9649248354
 20
13.3364067095
 10
-11.9483359359
 20
13.317628291
 10
-11.9315285461
 20
13.2993075052
 10
-11.9145241569
 20
13.2814675758
 10
-11.8973442592
 20
13.2641317264
 10
-11.8800053402
 20
13.2473194919
 10
-11.8625038731
 20
13.2310356505
 10
-11.8448313277
 20
13.2152812919
 10
-11.8269791735
 20
13.2000575055
 10
-11.8089388803
 20
13.1853653807
 10
-11.7907019178
 20
13.171206007
  0
LWPOLYLINE
  5
278
100
AcDbEntity
  8
0
100
AcDbPolyline
 62
253
  6
CONTINUOUS
 90
43
 70
0
 10
-10.5991883761
 20
14.6825337425
 10
-10.6018384527
 20
14.7064080924
 10
-10.6050270825
 20
14.7303522722
 10
-10.6087487676
 20
14.7543730989
 10
-10.6129980102
 20
14.77847739
 10
-10.6177693125
 20
14.8026719627
 10
-10.6230571765
 20
14.8269636342
 10
-10.6288557017
 20
14.8513531978
 10
-10.6351573761
 20
14.8758173506
 10
-10.6419542851
 20
14.9003267658
 10
-10.6492385139
 20
14.9248521165
 10
-10.6570021478
 20
14.9493640758
 10
-10.6652372721
 20
14.9738333169
 10
-10.673936713
 20
14.9982322387
 10
-10.6830962596
 20
15.0225401441
 10
-10.692712442
 20
15.0467380617
 10
-10.7027817903
 20
15.0708070201
 10
-10.7133008346
 20
15.0947280481
 10
-10.7242661048
 20
15.1184821744
 10
-10.7356728185
 20
15.1420499509
 10
-10.7475109425
 20
15.1654100237
 10
-10.7597691312
 20
15.1885405619
 10
-10.7724360388
 20
15.2114197349
 10
-10.7855003197
 20
15.2340257119
 10
-10.7989506281
 20
15.2563366623
 10
-10.8127753557
 20
15.2783321983
 10
-10.8269618434
 20
15.2999977038
 10
-10.8414971691
 20
15.3213200057
 10
-10.8563684112
 20
15.3422859308
 10
-10.8715626476
 20
15.3628823062
 10
-10.8870669565
 20
15.3830959587
 10
-10.9028670779
 20
15.4029119471
 10
-10.9189433989
 20
15.4223082583
 10
-10.9352749685
 20
15.4412611109
 10
-10.9518408357
 20
15.4597467238
 10
-10.9686200496
 20
15.4777413158
 10
-10.985591659
 20
15.4952211055
 10
-11.0027397045
 20
15.5121660578
 10
-11.0200681928
 20
15.5285711215
 10
-11.0375861222
 20
15.5444349914
 10
-11.055302491
 20
15.5597563622
 10
-11.0732262973
 20
15.5745339289
 10
-11.0913665395
 20
15.5887663861
  0
LWPOLYLINE
  5
279
100
AcDbEntity
  8
0
100
AcDbPolyline
 62
253
  6
CONTINUOUS
 90
25
 70
0
 10
-12.0396242117
 20
13.9793727954
 10
-12.0467092021
 20
14.0436638586
 10
-12.0529241523
 20
14.1075788056
 10
-12.0582738157
 20
14.1711291725
 10
-12.062762946
 20
14.2343264954
 10
-12.0663962967
 20
14.2971823103
 10
-12.0691786216
 20
14.3597081532
 10
-12.0711146741
 20
14.4219155601
 10
-12.072209208
 20
14.4838160672
 10
-12.0724662708
 20
14.5454144563
 10
-12.0718870866
 20
14.6066884922
 10
-12.0704721738
 20
14.6676091858
 10
-12.0682220504
 20
14.7281475479
 10
-12.0651372348
 20
14.7882745891
 10
-12.061218245
 20
14.8479613202
 10
-12.0564655993
 20
14.9071787521
 10
-12.0508798159
 20
14.9658978953
 10
-12.0444601447
 20
15.0240952301
 10
-12.0372007621
 20
15.0817691133
 10
-12.0290945764
 20
15.1389233714
 10
-12.0201344957
 20
15.1955618307
 10
-12.0103134282
 20
15.2516883174
 10
-11.9996242821
 20
15.3073066579
 10
-11.9880599655
 20
15.3624206784
 10
-11.9756133866
 20
15.4170342054
  0
LWPOLYLINE
  5
27A
100
AcDbEntity
  8
0
100
AcDbPolyline
 62
253
  6
CONTINUOUS
 90
55
 70
0
 10
-8.6325454854
 20
-7.1221688052
 10
-8.6328604396
 20
-7.1098207817
 10
-8.6328242771
 20
-7.0977623272
 10
-8.6324414983
 20
-7.0859586921
 10
-8.6317166036
 20
-7.0743751269
 10
-8.6306540934
 20
-7.062976882
 10
-8.6292564492
 20
-7.0517362903
 10
-8.627518076
 20
-7.0406540146
 10
-8.6254313596
 20
-7.0297377999
 10
-8.6229886862
 20
-7.0189953915
 10
-8.6201824417
 20
-7.0084345343
 10
-8.6170058858
 20
-6.9980662812
 10
-8.6134557728
 20
-6.9879149154
 10
-8.6095297308
 20
-6.9780080278
 10
-8.605225388
 20
-6.9683732092
 10
-8.6005403723
 20
-6.9590380504
 10
-8.5963468356
 20
-6.9515098974
 10
-8.5919047981
 20
-6.944238971
 10
-8.5872317625
 20
-6.9372552405
 10
-8.5823397383
 20
-6.9305815217
 10
-8.5772187635
 20
-6.9242120165
 10
-8.5718533831
 20
-6.9181337734
 10
-8.5662316449
 20
-6.9123385962
 10
-8.560355608
 20
-6.9068373102
 10
-8.5542308341
 20
-6.901645496
 10
-8.547862885
 20
-6.896778734
 10
-8.5412573227
 20
-6.8922526048
 10
-8.534419709
 20
-6.888082689
 10
-8.5273574176
 20
-6.8842814635
 10
-8.5200850705
 20
-6.8808489908
 10
-8.5126191015
 20
-6.8777822296
 10
-8.5049759446
 20
-6.8750781389
 10
-8.4971720334
 20
-6.8727336773
 10
-8.4892238021
 20
-6.8707458038
 10
-8.4811416704
 20
-6.8691109074
 10
-8.4729120034
 20
-6.8678230983
 10
-8.4645151518
 20
-6.8668759169
 10
-8.4559410296
 20
-6.8662640715
 10
-8.4472178024
 20
-6.8659869411
 10
-8.4383831988
 20
-6.8660450726
 10
-8.4276811979
 20
-6.866555191
 10
-8.4168988504
 20
-6.8675320879
 10
-8.4060618631
 20
-6.8689589772
 10
-8.3951959422
 20
-6.8708190728
 10
-8.3843267944
 20
-6.8730955885
 10
-8.3734762148
 20
-6.8757726982
 10
-8.3626503525
 20
-6.8788384157
 10
-8.3518514453
 20
-6.8822817147
 10
-8.3410817309
 20
-6.8860915689
 10
-8.3303434471
 20
-6.8902569522
 10
-8.319633614
 20
-6.8947718926
 10
-8.3089283817
 20
-6.899650636
 10
-8.2981986823
 20
-6.9049124826
 10
-8.2874154484
 20
-6.9105767326
 10
-8.2765496121
 20
-6.9166626863
  0
LWPOLYLINE
  5
27B
100
AcDbEntity
  8
0
100
AcDbPolyline
 62
253
  6
CONTINUOUS
 90
31
 70
0
 10
-9.3229545534
 20
-7.4062865589
 10
-9.3215517039
 20
-7.3976789582
 10
-9.3203093755
 20
-7.3889953148
 10
-9.3192263985
 20
-7.3802223736
 10
-9.3183016029
 20
-7.3713468792
 10
-9.3175338188
 20
-7.3623555765
 10
-9.3169218765
 20
-7.35323521
 10
-9.3164646059
 20
-7.3439725245
 10
-9.3161616771
 20
-7.3345569673
 10
-9.31601612
 20
-7.3249887952
 10
-9.3160318041
 20
-7.3152709676
 10
-9.3162125992
 20
-7.3054064441
 10
-9.316562375
 20
-7.2953981839
 10
-9.3170850012
 20
-7.2852491467
 10
-9.3177843474
 20
-7.2749622916
 10
-9.3185442224
 20
-7.2658506167
 10
-9.3194445889
 20
-7.2566379752
 10
-9.3204876745
 20
-7.2473266516
 10
-9.3216757069
 20
-7.2379189301
 10
-9.3230109135
 20
-7.2284170953
 10
-9.324495522
 20
-7.2188234314
 10
-9.3261317598
 20
-7.2091402228
 10
-9.3279218547
 20
-7.1993697539
 10
-9.3298676922
 20
-7.1895129892
 10
-9.3319697912
 20
-7.1795656143
 10
-9.3342283285
 20
-7.1695219948
 10
-9.336643481
 20
-7.1593764963
 10
-9.3392154255
 20
-7.1491234844
 10
-9.3419443389
 20
-7.1387573249
 10
-9.3448303983
 20
-7.1282723835
 10
-9.3478737803
 20
-7.1176630256
  0
LWPOLYLINE
  5
27C
100
AcDbEntity
  8
0
100
AcDbPolyline
 62
253
  6
CONTINUOUS
 90
31
 70
0
 10
-9.3694192662
 20
-6.2749357386
 10
-9.3678801118
 20
-6.2662803934
 10
-9.3665020469
 20
-6.257547203
 10
-9.3652836717
 20
-6.2487228409
 10
-9.364223587
 20
-6.2397939805
 10
-9.3633203931
 20
-6.2307472953
 10
-9.3625726906
 20
-6.2215694587
 10
-9.3619790801
 20
-6.2122471441
 10
-9.3615390491
 20
-6.20276975
 10
-9.3612556338
 20
-6.1931375753
 10
-9.3611327574
 20
-6.1833536437
 10
-9.3611743431
 20
-6.1734209792
 10
-9.3613843141
 20
-6.1633426055
 10
-9.3617665936
 20
-6.1531215467
 10
-9.3623251049
 20
-6.1427608264
 10
-9.3629613886
 20
-6.1335830622
 10
-9.3637378543
 20
-6.1243030402
 10
-9.3646567529
 20
-6.1149231156
 10
-9.3657203351
 20
-6.1054456437
 10
-9.3669308519
 20
-6.0958729797
 10
-9.368290554
 20
-6.0862074788
 10
-9.3698016923
 20
-6.0764514965
 10
-9.3714665176
 20
-6.0666073878
 10
-9.3732868536
 20
-6.0566761703
 10
-9.3752628146
 20
-6.0466535096
 10
-9.3773940879
 20
-6.036533734
 10
-9.3796803606
 20
-6.0263111712
 10
-9.38212132
 20
-6.0159801493
 10
-9.3847166531
 20
-6.0055349962
 10
-9.3874660473
 20
-5.99497004
 10
-9.3903691896
 20
-5.9842796085
  0
LWPOLYLINE
  5
27D
100
AcDbEntity
  8
0
100
AcDbPolyline
 62
253
  6
CONTINUOUS
 90
43
 70
0
 10
-12.3705679661
 20
-4.2359292019
 10
-12.388811362
 20
-4.2287726168
 10
-12.4068550007
 20
-4.2223362587
 10
-12.4247070752
 20
-4.2166087982
 10
-12.4423757786
 20
-4.2115789057
 10
-12.4598693039
 20
-4.2072352519
 10
-12.4771958441
 20
-4.2035665074
 10
-12.4943588605
 20
-4.2005634993
 10
-12.5113428867
 20
-4.1982256803
 10
-12.5281277246
 20
-4.1965546599
 10
-12.5446931761
 20
-4.1955520474
 10
-12.561019043
 20
-4.195219452
 10
-12.5770851272
 20
-4.195558483
 10
-12.5928723146
 20
-4.1965709693
 10
-12.6083658271
 20
-4.1982596167
 10
-12.6235519707
 20
-4.2006273507
 10
-12.6384170514
 20
-4.2036770966
 10
-12.6529473751
 20
-4.2074117798
 10
-12.6671292478
 20
-4.2118343257
 10
-12.6809492082
 20
-4.2169460944
 10
-12.6943947256
 20
-4.2227421848
 10
-12.7074535018
 20
-4.2292161306
 10
-12.7201132388
 20
-4.2363614654
 10
-12.7323616386
 20
-4.2441717229
 10
-12.7441864031
 20
-4.2526404369
 10
-12.755576523
 20
-4.2617601481
 10
-12.7665261443
 20
-4.2715194269
 10
-12.7770307017
 20
-4.2819058508
 10
-12.7870856298
 20
-4.2929069971
 10
-12.7966863635
 20
-4.3045104435
 10
-12.8058283373
 20
-4.3167037673
 10
-12.8145062072
 20
-4.3294735724
 10
-12.8227115139
 20
-4.3428025674
 10
-12.8304350193
 20
-4.3566724872
 10
-12.8376674852
 20
-4.3710650666
 10
-12.8443996735
 20
-4.3859620406
 10
-12.8506223461
 20
-4.401345144
 10
-12.8563269383
 20
-4.4172012129
 10
-12.8615075785
 20
-4.4335374882
 10
-12.8661590686
 20
-4.4503663119
 10
-12.8702762107
 20
-4.4677000259
 10
-12.8738538065
 20
-4.4855509723
 10
-12.8768866581
 20
-4.5039314931
  0
LINE
  5
27E
100
AcDbEntity
  8
ASSI
100
AcDbLine
 62
253
  6
CONTINUOUS
 10
-4.6711521876
 20
21.6968827923
 11
-4.6711521876
 21
21.6340648037
  0
LWPOLYLINE
  5
27F
100
AcDbEntity
  8
0
100
AcDbPolyline
 62
253
  6
CONTINUOUS
 90
31
 70
0
 10
-7.4797570316
 20
-8.4705257073
 10
-7.4783563937
 20
-8.461914082
 10
-7.4771161733
 20
-8.4532266146
 10
-7.476035207
 20
-8.4444500643
 10
-7.4751123314
 20
-8.4355711901
 10
-7.4743463831
 20
-8.4265767511
 10
-7.4737361986
 20
-8.4174535064
 10
-7.4732806144
 20
-8.408188215
 10
-7.4729793052
 20
-8.3987703358
 10
-7.4728352972
 20
-8.3892001271
 10
-7.4728524546
 20
-8.3794805472
 10
-7.4730346417
 20
-8.369614554
 10
-7.4733857227
 20
-8.3596051058
 10
-7.4739095619
 20
-8.3494551607
 10
-7.4746100236
 20
-8.3391676769
 10
-7.4753707899
 20
-8.3300556794
 10
-7.4762719641
 20
-8.3208429252
 10
-7.4773157689
 20
-8.3115316962
 10
-7.478504427
 20
-8.302124274
 10
-7.4798401611
 20
-8.2926229403
 10
-7.481325194
 20
-8.2830299768
 10
-7.4829617485
 20
-8.2733476651
 10
-7.4847520473
 20
-8.2635782869
 10
-7.4866979717
 20
-8.2537228059
 10
-7.488800038
 20
-8.2437769127
 10
-7.4910584209
 20
-8.2337349802
 10
-7.4934732952
 20
-8.223591381
 10
-7.4960448359
 20
-8.2133404878
 10
-7.4987732176
 20
-8.2029766733
 10
-7.5016586152
 20
-8.1924943101
 10
-7.5047012036
 20
-8.1818877711
  0
LWPOLYLINE
  5
280
100
AcDbEntity
  8
0
100
AcDbPolyline
 62
253
  6
CONTINUOUS
 90
31
 70
0
 10
-7.5262217443
 20
-7.3391748871
 10
-7.5246847666
 20
-7.3305155385
 10
-7.5233087757
 20
-7.3217785442
 10
-7.5220923788
 20
-7.3129505919
 10
-7.5210341831
 20
-7.3040183695
 10
-7.5201327959
 20
-7.2949685648
 10
-7.5193868244
 20
-7.2857878657
 10
-7.5187948759
 20
-7.27646296
 10
-7.5183564425
 20
-7.2669832579
 10
-7.5180745571
 20
-7.2573490596
 10
-7.5179531374
 20
-7.2475633874
 10
-7.5179961014
 20
-7.2376292638
 10
-7.5182073667
 20
-7.2275497112
 10
-7.5185908512
 20
-7.2173277521
 10
-7.5191504727
 20
-7.2069664089
 10
-7.5197876458
 20
-7.1977883257
 10
-7.5205649195
 20
-7.1885081931
 10
-7.5214845397
 20
-7.1791283635
 10
-7.5225487526
 20
-7.1696511891
 10
-7.5237598043
 20
-7.1600790226
 10
-7.5251199408
 20
-7.1504142162
 10
-7.5266314082
 20
-7.1406591224
 10
-7.5282964525
 20
-7.1308160936
 10
-7.530116893
 20
-7.1208861459
 10
-7.5320928422
 20
-7.1108649509
 10
-7.5342239856
 20
-7.1007468435
 10
-7.5365100089
 20
-7.0905261591
 10
-7.5389505976
 20
-7.0801972328
 10
-7.5415454374
 20
-7.0697543997
 10
-7.544294214
 20
-7.059191995
 10
-7.5471966129
 20
-7.0485043539
  0
LINE
  5
281
100
AcDbEntity
  8
ASSI
100
AcDbLine
 62
7
  6
CONTINUOUS
 10
-4.4909009382
 20
22.1111029511
 11
-4.469695649
 21
21.4946304537
  0
LINE
  5
282
100
AcDbEntity
  8
ASSI
100
AcDbLine
 62
7
  6
CONTINUOUS
 10
3.4994056892
 20
17.4976000465
 11
3.3191544398
 21
17.0833798877
  0
LWPOLYLINE
  5
283
100
AcDbEntity
  8
ASSI
100
AcDbPolyline
 62
253
  6
CONTINUOUS
 90
49
 70
0
 10
14.39936976
 20
7.593586687
 10
14.3876242521
 20
7.5894135257
 10
14.3755414943
 20
7.5854609037
 10
14.3631338628
 20
7.5817328698
 10
14.3504140666
 20
7.5782332424
 10
14.3373951343
 20
7.5749656063
 10
14.3240904012
 20
7.5719333083
 10
14.3105134949
 20
7.5691394545
 10
14.2966783222
 20
7.5665869065
 10
14.2825990543
 20
7.5642782789
 10
14.2682901123
 20
7.5622159364
 10
14.2537661527
 20
7.5604019914
 10
14.2390420522
 20
7.558838302
 10
14.2241328924
 20
7.5575264696
 10
14.2090539446
 20
7.5564678382
 10
14.1938206539
 20
7.5556634919
 10
14.1784486237
 20
7.5551142547
 10
14.1629535992
 20
7.5548206892
 10
14.1473514518
 20
7.5547830961
 10
14.1316581626
 20
7.5550015138
 10
14.1158898059
 20
7.5554757186
 10
14.1000625331
 20
7.5562052249
 10
14.0841925558
 20
7.5571892853
 10
14.0682961294
 20
7.558426892
 10
14.0523895364
 20
7.5599167773
 10
14.0364890697
 20
7.561657415
 10
14.020611016
 20
7.5636470224
 10
14.0047716388
 20
7.5658835614
 10
13.9889871622
 20
7.5683647412
 10
13.9732737542
 20
7.5710880205
 10
13.9576475096
 20
7.5740506096
 10
13.9421244342
 20
7.5772494742
 10
13.9267204281
 20
7.5806813376
 10
13.9114512694
 20
7.5843426847
 10
13.8963325981
 20
7.5882297652
 10
13.8813799
 20
7.5923385976
 10
13.866608491
 20
7.5966649733
 10
13.8520335012
 20
7.6012044609
 10
13.8376698595
 20
7.6059524105
 10
13.8235322785
 20
7.610903959
 10
13.809635239
 20
7.6160540346
 10
13.7959929756
 20
7.621397362
 10
13.782619462
 20
7.6269284683
 10
13.7695283963
 20
7.6326416879
 10
13.7567331875
 20
7.638531169
 10
13.7442469417
 20
7.6445908789
 10
13.7320824484
 20
7.6508146108
 10
13.7202521673
 20
7.6571959899
 10
13.7087682162
 20
7.6637284798
  0
LWPOLYLINE
  5
284
100
AcDbEntity
  8
ASSI
100
AcDbPolyline
 62
7
  6
CONTINUOUS
 90
13
 70
0
 10
12.9705663726
 20
-9.8667539829
 10
13.012089665
 20
-9.888217255
 10
13.0599440197
 20
-9.9075684814
 10
13.1094749786
 20
-9.9225822539
 10
13.1606231435
 20
-9.9334869042
 10
13.2130176131
 20
-9.9403114621
 10
13.2657514929
 20
-9.9430256109
 10
13.3185586639
 20
-9.9416711114
 10
13.3711724437
 20
-9.936203119
 10
13.4226753352
 20
-9.9266342825
 10
13.472689164
 20
-9.9129337438
 10
13.5211637421
 20
-9.8948781825
 10
13.5598155192
 20
-9.8764692085
  0
LWPOLYLINE
  5
285
100
AcDbEntity
  8
ASSI
100
AcDbPolyline
 62
253
  6
CONTINUOUS
 90
40
 70
0
 10
12.9188384418
 20
-9.7521820378
 10
12.929644478
 20
-9.7582373065
 10
12.9407613049
 20
-9.7641036992
 10
12.9521788383
 20
-9.7697758996
 10
12.9638866703
 20
-9.7752487514
 10
12.9758742295
 20
-9.7805173171
 10
12.988130802
 20
-9.7855768734
 10
13.0006453843
 20
-9.7904228759
 10
13.0134065348
 20
-9.7950508853
 10
13.0264025333
 20
-9.7994566281
 10
13.039621536
 20
-9.8036361077
 10
13.0530516078
 20
-9.8075855628
 10
13.0666805798
 20
-9.8113013892
 10
13.0804960751
 20
-9.8147802326
 10
13.09448558
 20
-9.8180189557
 10
13.1086364702
 20
-9.8210146004
 10
13.1229359522
 20
-9.8237644765
 10
13.1373710218
 20
-9.8262660956
 10
13.1519285374
 20
-9.8285171374
 10
13.1665952768
 20
-9.8305155836
 10
13.1813579583
 20
-9.8322596448
 10
13.196203201
 20
-9.8337476917
 10
13.2111175525
 20
-9.8349784041
 10
13.2260874765
 20
-9.8359506877
 10
13.2410993723
 20
-9.8366636045
 10
13.2561395997
 20
-9.8371165402
 10
13.2711945444
 20
-9.8373091131
 10
13.286250606
 20
-9.8372410879
 10
13.3012941559
 20
-9.8369125581
 10
13.3163115254
 20
-9.8363238496
 10
13.3312890705
 20
-9.8354754297
 10
13.3462131978
 20
-9.8343681049
 10
13.3610703829
 20
-9.8330029112
 10
13.3758471586
 20
-9.831381014
 10
13.3905301434
 20
-9.8295039194
 10
13.4051060008
 20
-9.8273733662
 10
13.4195614598
 20
-9.8249912193
 10
13.4338833742
 20
-9.8223596887
 10
13.4480587948
 20
-9.8194811946
 10
13.4620749271
 20
-9.8163582555
  0
LINE
  5
286
100
AcDbEntity
  8
ASSI
100
AcDbLine
 62
253
  6
CONTINUOUS
 10
12.9188384414
 20
-10.4017142772
 11
-17.7244966805
 21
7.2913633711
  0
LINE
  5
287
100
AcDbEntity
  8
ASSI
100
AcDbLine
 62
253
  6
CONTINUOUS
 10
13.0940743302
 20
-10.096265282
 11
-17.5492645865
 21
7.5968145573
  0
LWPOLYLINE
  5
288
100
AcDbEntity
  8
ASSI
100
AcDbPolyline
 62
253
  6
CONTINUOUS
 90
27
 70
0
 10
-17.7244966802
 20
7.2913633706
 10
-17.7349822062
 20
7.2976036979
 10
-17.7451375684
 20
7.3040252283
 10
-17.7549535604
 20
7.3106221386
 10
-17.7644212439
 20
7.317388424
 10
-17.7735320796
 20
7.3243179739
 10
-17.7822779191
 20
7.3314045834
 10
-17.7906508877
 20
7.3386419017
 10
-17.7986433077
 20
7.3460233164
 10
-17.8062478325
 20
7.3535420285
 10
-17.8134575385
 20
7.3611912007
 10
-17.8202659227
 20
7.3689639352
 10
-17.8266668185
 20
7.3768531623
 10
-17.8326544157
 20
7.3848517359
 10
-17.8382232937
 20
7.3929524234
 10
-17.8433684256
 20
7.4011478801
 10
-17.848085153
 20
7.4094307186
 10
-17.8523691802
 20
7.4177934225
 10
-17.8562166048
 20
7.4262283366
 10
-17.8596239337
 20
7.4347278252
 10
-17.8625880828
 20
7.4432842111
 10
-17.8651063655
 20
7.4518896903
 10
-17.867176499
 20
7.4605364931
 10
-17.8687966038
 20
7.469216795
 10
-17.8699652088
 20
7.4779226545
 10
-17.8706812553
 20
7.4866461927
 10
-17.8709451542
 20
7.4957162531
  0
LWPOLYLINE
  5
289
100
AcDbEntity
  8
ASSI
100
AcDbPolyline
 62
253
  6
CONTINUOUS
 90
46
 70
0
 10
-17.5492645865
 20
7.5968145573
 10
-17.5545135249
 20
7.5999391926
 10
-17.5595887782
 20
7.603149415
 10
-17.5644903462
 20
7.6064452245
 10
-17.5692224574
 20
7.6098298198
 10
-17.5737808833
 20
7.6133000021
 10
-17.5781529392
 20
7.6168461757
 10
-17.582338031
 20
7.6204684989
 10
-17.5863367528
 20
7.6241668133
 10
-17.5901382016
 20
7.6279310481
 10
-17.5937418268
 20
7.6317613748
 10
-17.5971481789
 20
7.6356576219
 10
-17.600348007
 20
7.6396092036
 10
-17.6033407472
 20
7.6436162634
 10
-17.6061269633
 20
7.6476786578
 10
-17.6086990955
 20
7.6517853704
 10
-17.6110565686
 20
7.6559365331
 10
-17.6131999579
 20
7.660132014
 10
-17.6151234287
 20
7.6643604013
 10
-17.6168263793
 20
7.668621779
 10
-17.6183094115
 20
7.6729160631
 10
-17.6195684956
 20
7.6772315897
 10
-17.6206030231
 20
7.6815684208
 10
-17.6214136026
 20
7.6859264944
 10
-17.6219980306
 20
7.6902939616
 10
-17.6223556916
 20
7.6946708408
 10
-17.622487201
 20
7.6990571136
 10
-17.6223922021
 20
7.7034408748
 10
-17.6220700789
 20
7.7078221238
 10
-17.6215214472
 20
7.7122008613
 10
-17.6207477976
 20
7.7165651845
 10
-17.6197485181
 20
7.7209150511
 10
-17.6185242206
 20
7.7252505034
 10
-17.6170782307
 20
7.7295597655
 10
-17.6154099422
 20
7.7338427718
 10
-17.6135199614
 20
7.7380995879
 10
-17.6114134326
 20
7.7423186344
 10
-17.6090897732
 20
7.7464997971
 10
-17.6065495658
 20
7.7506431903
 10
-17.6037997029
 20
7.754737577
 10
-17.6008396126
 20
7.7587828309
 10
-17.5976698667
 20
7.7627790784
 10
-17.5942990726
 20
7.7667154618
 10
-17.5907266696
 20
7.7705918263
 10
-17.5869532184
 20
7.7744083267
 10
-17.5853987845
 20
7.7758772921
  0
LINE
  5
28A
100
AcDbEntity
  8
ASSI
100
AcDbLine
 62
253
  6
CONTINUOUS
 10
16.4951341952
 20
9.9940292818
 11
14.3825280595
 21
8.7330273632
  0
LINE
  5
28B
100
AcDbEntity
  8
ASSI
100
AcDbLine
 62
7
  6
CONTINUOUS
 10
-17.6727279785
 20
7.8263000743
 11
12.9706109381
 21
-9.866779765
  0
LINE
  5
28C
100
AcDbEntity
  8
ASSI
100
AcDbLine
 62
253
  6
CONTINUOUS
 10
-17.7244966806
 20
7.9408956096
 11
12.9188384414
 21
-9.7521820386
  0
LWPOLYLINE
  5
28D
100
AcDbEntity
  8
ASSI
100
AcDbPolyline
 62
253
  6
CONTINUOUS
 90
52
 70
0
 10
14.3825280595
 20
8.7330273632
 10
14.3632586066
 20
8.7208431996
 10
14.3440307598
 20
8.7080953341
 10
14.3248581329
 20
8.6947930982
 10
14.3057541185
 20
8.6809463927
 10
14.2867324231
 20
8.6665651713
 10
14.2678070603
 20
8.6516594197
 10
14.2489913374
 20
8.6362399333
 10
14.2302986714
 20
8.6203180224
 10
14.2117431234
 20
8.6039049955
 10
14.1933378987
 20
8.587012867
 10
14.175095956
 20
8.569653897
 10
14.1570308257
 20
8.5518402837
 10
14.1391552749
 20
8.5335849594
 10
14.1214819816
 20
8.5149012357
 10
14.1040241416
 20
8.4958023529
 10
14.0867941258
 20
8.4763021975
 10
14.0698041177
 20
8.456414945
 10
14.0530667882
 20
8.4361547028
 10
14.0365939933
 20
8.4155361837
 10
14.0203973825
 20
8.3945743686
 10
14.0044890347
 20
8.3732841523
 10
13.9888802324
 20
8.3516810018
 10
13.9735819961
 20
8.3297805832
 10
13.9586056948
 20
8.3075984238
 10
13.9439619222
 20
8.285150578
 10
13.9296610471
 20
8.2624533559
 10
13.9157137464
 20
8.2395229506
 10
13.9021299179
 20
8.2163760039
 10
13.8889191402
 20
8.1930292677
 10
13.8760912251
 20
8.1694993304
 10
13.8636552536
 20
8.1458032063
 10
13.8516200203
 20
8.1219580804
 10
13.8399944924
 20
8.0979809719
 10
13.8287869113
 20
8.0738892295
 10
13.8180051873
 20
8.0497002921
 10
13.8076573467
 20
8.0254314323
 10
13.7977507233
 20
8.001100192
 10
13.7882923085
 20
7.9767241787
 10
13.7792891457
 20
7.9523208248
 10
13.7707476309
 20
7.927907797
 10
13.7626737713
 20
7.9035027119
 10
13.755073542
 20
7.8791229318
 10
13.7479523148
 20
7.8547859793
 10
13.7413151381
 20
7.8305095222
 10
13.7351669904
 20
7.8063110885
 10
13.729512261
 20
7.782208258
 10
13.7243548896
 20
7.758218315
 10
13.7196986628
 20
7.7343582371
 10
13.7155469302
 20
7.710645131
 10
13.7119025869
 20
7.6870962163
 10
13.708768216
 20
7.6637284797
  0
LWPOLYLINE
  5
28E
100
AcDbEntity
  8
ASSI
100
AcDbPolyline
 62
253
  6
CONTINUOUS
 90
52
 70
0
 10
14.7420307943
 20
8.1248981868
 10
14.732222818
 20
8.1188959774
 10
14.722448838
 20
8.1126206384
 10
14.7127088545
 20
8.1060721698
 10
14.702995606
 20
8.0992452851
 10
14.693316354
 20
8.0921452707
 10
14.6836928821
 20
8.0847879864
 10
14.6741255862
 20
8.0771730367
 10
14.6646140704
 20
8.0693008171
 10
14.6551789311
 20
8.0611883731
 10
14.6458203653
 20
8.0528352091
 10
14.636538176
 20
8.0442418208
 10
14.6273523692
 20
8.0354267405
 10
14.6182631387
 20
8.026389477
 10
14.6092702908
 20
8.0171305216
 10
14.60039325
 20
8.0076698804
 10
14.5916322695
 20
7.998007119
 10
14.5829870963
 20
7.9881426718
 10
14.5744763955
 20
7.9780978483
 10
14.5661004585
 20
7.9678722584
 10
14.5578589941
 20
7.9574662922
 10
14.549769794
 20
7.9469024291
 10
14.5418331941
 20
7.9361803377
 10
14.5340488586
 20
7.9253003495
 10
14.5264335713
 20
7.9142859379
 10
14.5189876892
 20
7.9031368
 10
14.5117108554
 20
7.8918532388
 10
14.5046187833
 20
7.8804596362
 10
14.4977118806
 20
7.8689557685
 10
14.4909897397
 20
7.8573418596
 10
14.4844668509
 20
7.8456429633
 10
14.4781436396
 20
7.8338588878
 10
14.4720196803
 20
7.8219898249
 10
14.4661081874
 20
7.8100614051
 10
14.4604096219
 20
7.7980735035
 10
14.4549235227
 20
7.7860262449
 10
14.4496617211
 20
7.7739456341
 10
14.4446247017
 20
7.7618315983
 10
14.4398119799
 20
7.7496842102
 10
14.4352339335
 20
7.7375296926
 10
14.4308910741
 20
7.7253680491
 10
14.4267828901
 20
7.7131992761
 10
14.4229182242
 20
7.701049586
 10
14.4192975923
 20
7.6889189809
 10
14.4159204785
 20
7.6768074588
 10
14.4127941781
 20
7.6647412253
 10
14.4099192072
 20
7.6527201497
 10
14.4072950496
 20
7.6407443628
 10
14.4049274515
 20
7.6288404632
 10
14.4028183282
 20
7.6170173172
 10
14.4009657644
 20
7.6052660584
 10
14.39936976
 20
7.593586687
  0
LINE
  5
28F
100
AcDbEntity
  8
ASSI
100
AcDbLine
 62
253
  6
CONTINUOUS
 10
16.8801083536
 20
9.4011038453
 11
14.7420307943
 21
8.1248981868
  0
LINE
  5
290
100
AcDbEntity
  8
ASSI
100
AcDbLine
 62
7
  6
CONTINUOUS
 10
17.2545736364
 20
-8.0077931779
 11
17.1780049908
 21
-7.9635834016
  0
LINE
  5
291
100
AcDbEntity
  8
ASSI
100
AcDbLine
 62
7
  6
CONTINUOUS
 10
3.4994056892
 20
17.4976000465
 11
3.5206109784
 21
16.8811275491
  0
LINE
  5
292
100
AcDbEntity
  8
ASSI
100
AcDbLine
 62
253
  6
CONTINUOUS
 10
3.3191544398
 20
17.0833798877
 11
3.3191544398
 21
17.0205618991
  0
LINE
  5
293
100
AcDbEntity
  8
ASSI
100
AcDbLine
 62
253
  6
CONTINUOUS
 10
-17.6630108955
 20
15.4106670201
 11
12.9847731948
 21
-2.2849794067
  0
LWPOLYLINE
  5
294
100
AcDbEntity
  8
0
100
AcDbPolyline
 62
253
  6
CONTINUOUS
 90
22
 70
0
 10
-11.7527324511
 20
13.1432952103
 10
-11.7291236974
 20
13.1261106058
 10
-11.7054837691
 20
13.1092668058
 10
-11.6818100119
 20
13.0927612063
 10
-11.6580997716
 20
13.0765912031
 10
-11.6343503937
 20
13.0607541923
 10
-11.6105592241
 20
13.0452475698
 10
-11.5867236085
 20
13.0300687314
 10
-11.5628427425
 20
13.0152163656
 10
-11.5389232216
 20
13.0006943306
 10
-11.514973491
 20
12.9865077772
 10
-11.4910019963
 20
12.9726618562
 10
-11.4670171827
 20
12.9591617182
 10
-11.4430274957
 20
12.946012514
 10
-11.4190413805
 20
12.9332193944
 10
-11.395065424
 20
12.9207866643
 10
-11.3710987787
 20
12.9087152451
 10
-11.3471387385
 20
12.8970052127
 10
-11.3231825974
 20
12.8856566427
 10
-11.2992276493
 20
12.8746696109
 10
-11.2752711882
 20
12.864044193
 10
-11.251310508
 20
12.8537804647
  0
LWPOLYLINE
  5
295
100
AcDbEntity
  8
0
100
AcDbPolyline
 62
253
  6
CONTINUOUS
 90
44
 70
0
 10
-11.7423509784
 20
13.4510321652
 10
-11.7515842885
 20
13.4581755272
 10
-11.7607261353
 20
13.465549249
 10
-11.769779346
 20
13.473151819
 10
-11.7787467479
 20
13.4809817252
 10
-11.7876311682
 20
13.4890374559
 10
-11.796435434
 20
13.4973174994
 10
-11.8051623726
 20
13.5058203436
 10
-11.8152473699
 20
13.516018365
 10
-11.8252206343
 20
13.5265059306
 10
-11.8350718354
 20
13.5372713858
 10
-11.8447906431
 20
13.5483030759
 10
-11.8543667271
 20
13.5595893461
 10
-11.8637897572
 20
13.5711185417
 10
-11.8730497335
 20
13.5828796351
 10
-11.8821379778
 20
13.5948641068
 10
-11.8910461421
 20
13.6070640644
 10
-11.8997658786
 20
13.6194716154
 10
-11.9082888394
 20
13.6320788675
 10
-11.9166066766
 20
13.6448779281
 10
-11.9247112661
 20
13.657860181
 10
-11.9325953794
 20
13.6710141134
 10
-11.9402520115
 20
13.6843274889
 10
-11.9476741578
 20
13.6977880706
 10
-11.9548548134
 20
13.7113836222
 10
-11.9617869736
 20
13.7251019069
 10
-11.9684643623
 20
13.7389309396
 10
-11.9748836189
 20
13.7528597417
 10
-11.9810421114
 20
13.7668775857
 10
-11.9869372081
 20
13.7809737445
 10
-11.992566277
 20
13.7951374908
 10
-11.9979266862
 20
13.8093580973
 10
-12.0030153484
 20
13.823623714
 10
-12.0078273536
 20
13.8379180004
 10
-12.0123573365
 20
13.8522234931
 10
-12.0165999317
 20
13.8665227287
 10
-12.0205497737
 20
13.8807982439
 10
-12.0242014973
 20
13.8950325754
 10
-12.0275500764
 20
13.9092118572
 10
-12.030591843
 20
13.9233366129
 10
-12.0333234684
 20
13.9374109636
 10
-12.0357416241
 20
13.9514390303
 10
-12.0378429814
 20
13.9654249339
 10
-12.0396242117
 20
13.9793727954
  0
LWPOLYLINE
  5
296
100
AcDbEntity
  8
0
100
AcDbPolyline
 62
253
  6
CONTINUOUS
 90
31
 70
0
 10
-10.1399560175
 20
12.2654973351
 10
-10.1313087453
 20
12.2582734236
 10
-10.1226820088
 20
12.2512661391
 10
-10.1140621483
 20
12.2444650345
 10
-10.1054355039
 20
12.2378596629
 10
-10.0967884159
 20
12.2314395776
 10
-10.0881072244
 20
12.2251943314
 10
-10.0793782697
 20
12.2191134777
 10
-10.0705910229
 20
12.213189698
 10
-10.0617474785
 20
12.2074281885
 10
-10.0528527619
 20
12.2018372743
 10
-10.0439119983
 20
12.1964252801
 10
-10.0349303132
 20
12.1912005308
 10
-10.025912832
 20
12.1861713514
 10
-10.0168646799
 20
12.1813460666
 10
-10.0089264274
 20
12.1772976251
 10
-10.0009721159
 20
12.1734165271
 10
-9.9930052446
 20
12.1697076354
 10
-9.9850293129
 20
12.1661758128
 10
-9.9770478199
 20
12.1628259222
 10
-9.9690642649
 20
12.1596628265
 10
-9.9610821472
 20
12.1566913885
 10
-9.953104966
 20
12.153916471
 10
-9.9451346071
 20
12.1513411494
 10
-9.9371665028
 20
12.1489613491
 10
-9.9291944718
 20
12.1467712077
 10
-9.921212333
 20
12.1447648631
 10
-9.9132139051
 20
12.1429364532
 10
-9.9051930069
 20
12.1412801157
 10
-9.8971434573
 20
12.1397899884
 10
-9.8890590751
 20
12.1384602091
  0
LWPOLYLINE
  5
297
100
AcDbEntity
  8
0
100
AcDbPolyline
 62
253
  6
CONTINUOUS
 90
33
 70
0
 10
-8.8277603207
 20
11.515721876
 10
-8.8181243331
 20
11.5068123584
 10
-8.8084352152
 20
11.4981463933
 10
-8.7986932441
 20
11.4897204086
 10
-8.7888986968
 20
11.481530832
 10
-8.7790518505
 20
11.4735740912
 10
-8.769153321
 20
11.4658474631
 10
-8.7592050785
 20
11.4583516205
 10
-8.7492094321
 20
11.4510880854
 10
-8.739168691
 20
11.4440583795
 10
-8.7290851641
 20
11.4372640248
 10
-8.7189611563
 20
11.4307067602
 10
-8.7087989561
 20
11.4243891918
 10
-8.6986008475
 20
11.4183141429
 10
-8.6883691149
 20
11.4124844368
 10
-8.6781060424
 20
11.4069028966
 10
-8.6695309416
 20
11.4024436958
 10
-8.6609354958
 20
11.3981632757
 10
-8.6523195377
 20
11.3940661187
 10
-8.6436828999
 20
11.3901567074
 10
-8.6350254149
 20
11.3864395244
 10
-8.6263469155
 20
11.3829190522
 10
-8.61764806
 20
11.3795991689
 10
-8.6089328109
 20
11.3764813344
 10
-8.6002059565
 20
11.3735664045
 10
-8.5914722849
 20
11.3708552344
 10
-8.5827365846
 20
11.3683486798
 10
-8.5740036437
 20
11.3660475962
 10
-8.5635320353
 20
11.3635559339
 10
-8.553064788
 20
11.3613461303
 10
-8.5425953941
 20
11.3594029343
 10
-8.5321173458
 20
11.3577110943
 10
-8.5216241356
 20
11.3562553593
  0
LWPOLYLINE
  5
298
100
AcDbEntity
  8
0
100
AcDbPolyline
 62
253
  6
CONTINUOUS
 90
33
 70
0
 10
-9.7289434507
 20
14.745198052
 10
-9.7384814534
 20
14.7541368634
 10
-9.7480800818
 20
14.7628274233
 10
-9.7577390131
 20
14.7712733408
 10
-9.7674579243
 20
14.7794782248
 10
-9.7772364927
 20
14.7874456844
 10
-9.7870740653
 20
14.7951784683
 10
-9.79696867
 20
14.8026758841
 10
-9.8069180046
 20
14.8099363793
 10
-9.8169197668
 20
14.8169584012
 10
-9.8269716545
 20
14.8237403971
 10
-9.8370713728
 20
14.8302805982
 10
-9.8472166557
 20
14.8365763713
 10
-9.8574052448
 20
14.842624867
 10
-9.8676348813
 20
14.8484232357
 10
-9.8779033068
 20
14.8539686281
 10
-9.8864885938
 20
14.858394004
 10
-9.8950995308
 20
14.8626371772
 10
-9.9037363995
 20
14.8666936016
 10
-9.9123994817
 20
14.8705587313
 10
-9.9210890592
 20
14.8742280202
 10
-9.9298054135
 20
14.8776969225
 10
-9.9385479639
 20
14.8809615163
 10
-9.9473126787
 20
14.8840203764
 10
-9.9560946638
 20
14.8868727018
 10
-9.9648890248
 20
14.8895176917
 10
-9.9736908675
 20
14.8919545449
 10
-9.9824952978
 20
14.8941824605
 10
-9.9930595705
 20
14.8965818379
 10
-10.0036266562
 20
14.8986946316
 10
-10.0142026898
 20
14.9005362817
 10
-10.0247938059
 20
14.902122228
 10
-10.0354061393
 20
14.9034679107
  0
LINE
  5
299
100
AcDbEntity
  8
ASSI
100
AcDbLine
 62
7
  6
CONTINUOUS
 10
11.4190016385
 20
12.9249246012
 11
11.2387503891
 21
12.5107044424
  0
LWPOLYLINE
  5
29A
100
AcDbEntity
  8
0
100
AcDbPolyline
 62
253
  6
CONTINUOUS
 90
43
 70
0
 10
-11.1479095603
 20
15.3037500821
 10
-11.1371936587
 20
15.2953638207
 10
-11.1266097195
 20
15.286661216
 10
-11.1161530855
 20
15.2776445449
 10
-11.1058190992
 20
15.2683160846
 10
-11.0956031034
 20
15.2586781119
 10
-11.0855004408
 20
15.2487329039
 10
-11.0755089237
 20
15.2384842965
 10
-11.0656362436
 20
15.2279423619
 10
-11.0558925617
 20
15.217118731
 10
-11.0462880394
 20
15.2060250348
 10
-11.0368328379
 20
15.1946729044
 10
-11.0275371183
 20
15.1830739709
 10
-11.0184107198
 20
15.1712392348
 10
-11.0094621934
 20
15.1591771757
 10
-11.0006997679
 20
15.1468956428
 10
-10.9921316721
 20
15.134402485
 10
-10.9837661347
 20
15.1217055515
 10
-10.9756113847
 20
15.1088126916
 10
-10.9676754014
 20
15.095732527
 10
-10.9599651665
 20
15.0824767711
 10
-10.952487412
 20
15.0690579099
 10
-10.9452488703
 20
15.0554884293
 10
-10.9382562735
 20
15.0417808153
 10
-10.9315163538
 20
15.0279475541
 10
-10.9250350956
 20
15.0140008878
 10
-10.9188154921
 20
14.9999520828
 10
-10.9128597886
 20
14.9858121617
 10
-10.9071702304
 20
14.9715921471
 10
-10.901749063
 20
14.9573030616
 10
-10.8965985318
 20
14.9429559278
 10
-10.8917213372
 20
14.928562886
 10
-10.8871220006
 20
14.9141405473
 10
-10.8828054986
 20
14.8997066405
 10
-10.8787768077
 20
14.8852788943
 10
-10.8750409045
 20
14.8708750375
 10
-10.8716027655
 20
14.856512799
 10
-10.8684670975
 20
14.8422062641
 10
-10.8656375288
 20
14.8279549446
 10
-10.8631174179
 20
14.8137547089
 10
-10.8609101233
 20
14.7996014254
 10
-10.8590190035
 20
14.7854909625
 10
-10.8574474171
 20
14.7714191886
  0
LWPOLYLINE
  5
29B
100
AcDbEntity
  8
0
100
AcDbPolyline
 62
253
  6
CONTINUOUS
 90
31
 70
0
 10
-8.4163614338
 20
13.9946663163
 10
-8.424901179
 20
14.0019497663
 10
-8.4334282633
 20
14.0090120699
 10
-8.441956597
 20
14.0158640602
 10
-8.45050009
 20
14.0225165698
 10
-8.4590726523
 20
14.0289804319
 10
-8.4676881939
 20
14.0352664792
 10
-8.476360625
 20
14.0413855447
 10
-8.4851006998
 20
14.0473452252
 10
-8.4939065505
 20
14.053140173
 10
-8.5027731534
 20
14.0587618044
 10
-8.5116954848
 20
14.0642015357
 10
-8.5206685212
 20
14.0694507832
 10
-8.529687239
 20
14.0745009632
 10
-8.5387466144
 20
14.0793434919
 10
-8.5467029455
 20
14.0834037282
 10
-8.5546830414
 20
14.0872933224
 10
-8.5626833849
 20
14.0910071873
 10
-8.5707004583
 20
14.0945402358
 10
-8.5787307444
 20
14.0978873806
 10
-8.5867707255
 20
14.1010435346
 10
-8.5948168844
 20
14.1040036106
 10
-8.6028657034
 20
14.1067625213
 10
-8.6109152725
 20
14.1093169887
 10
-8.6189701105
 20
14.1116709703
 10
-8.6270363436
 20
14.1138302329
 10
-8.6351200978
 20
14.1158005432
 10
-8.6432274993
 20
14.1175876679
 10
-8.6513646743
 20
14.1191973737
 10
-8.6595377488
 20
14.1206354272
 10
-8.667752849
 20
14.1219075952
  0
LWPOLYLINE
  5
29C
100
AcDbEntity
  8
ASSI
100
AcDbPolyline
 62
253
  6
CONTINUOUS
 90
49
 70
0
 10
13.6792619432
 20
-2.2997726584
 10
13.6673906339
 20
-2.305714078
 10
13.655182372
 20
-2.3114332581
 10
13.642649656
 20
-2.3169243436
 10
13.6298053166
 20
-2.3221817128
 10
13.6166625035
 20
-2.3271999834
 10
13.603234672
 20
-2.3319740178
 10
13.5895355692
 20
-2.3364989285
 10
13.5755792197
 20
-2.3407700829
 10
13.5613799118
 20
-2.3447831085
 10
13.5469521824
 20
-2.3485338966
 10
13.5323108022
 20
-2.3520186075
 10
13.5174707606
 20
-2.3552336735
 10
13.5024472505
 20
-2.3581758032
 10
13.4872556526
 20
-2.3608419844
 10
13.4719115197
 20
-2.3632294876
 10
13.4564305606
 20
-2.3653358685
 10
13.4408286244
 20
-2.3671589707
 10
13.425121684
 20
-2.3686969277
 10
13.4093258196
 20
-2.3699481651
 10
13.3934572027
 20
-2.3709114017
 10
13.3775320792
 20
-2.3715856516
 10
13.3615667528
 20
-2.3719702243
 10
13.3455775683
 20
-2.3720647262
 10
13.3295808952
 20
-2.3718690606
 10
13.3135931103
 20
-2.3713834277
 10
13.2976305816
 20
-2.3706083248
 10
13.281709651
 20
-2.3695445454
 10
13.2658466181
 20
-2.3681931784
 10
13.2500577229
 20
-2.3665556075
 10
13.2343591297
 20
-2.3646335092
 10
13.2187669104
 20
-2.3624288511
 10
13.2032970279
 20
-2.3599438905
 10
13.1879653197
 20
-2.3571811713
 10
13.1727874822
 20
-2.3541435219
 10
13.157779054
 20
-2.3508340523
 10
13.1429554003
 20
-2.3472561505
 10
13.1283316973
 20
-2.3434134795
 10
13.1139229162
 20
-2.3393099734
 10
13.0997438084
 20
-2.3349498331
 10
13.0858088901
 20
-2.3303375226
 10
13.0721324276
 20
-2.3254777637
 10
13.0587284223
 20
-2.3203755318
 10
13.0456105971
 20
-2.3150360504
 10
13.0327923816
 20
-2.309464786
 10
13.0202868987
 20
-2.3036674421
 10
13.0081069513
 20
-2.2976499541
 10
12.9962650088
 20
-2.2914184824
 10
12.9847731948
 20
-2.2849794067
  0
LINE
  5
29D
100
AcDbEntity
  8
ASSI
100
AcDbLine
 62
7
  6
CONTINUOUS
 10
14.5386912803
 20
11.1236549009
 11
13.8659844595
 21
10.9937724172
  0
LWPOLYLINE
  5
29E
100
AcDbEntity
  8
0
100
AcDbPolyline
 62
253
  6
CONTINUOUS
 90
43
 70
0
 10
-11.2131972502
 20
12.8377620498
 10
-11.1947413042
 20
12.8307186003
 10
-11.1764448594
 20
12.8243678365
 10
-11.1583014869
 20
12.8187154157
 10
-11.1403047577
 20
12.8137669949
 10
-11.1224482427
 20
12.8095282314
 10
-11.104725513
 20
12.8060047823
 10
-11.0871345444
 20
12.8032007843
 10
-11.0696909319
 20
12.8011142913
 10
-11.0524146753
 20
12.7997418366
 10
-11.0353257743
 20
12.7990799535
 10
-11.0184442289
 20
12.7991251753
 10
-11.0017900389
 20
12.7998740354
 10
-10.9853818113
 20
12.8013233985
 10
-10.9692325823
 20
12.8034714556
 10
-10.9533539952
 20
12.806316729
 10
-10.9377576936
 20
12.8098577411
 10
-10.9224553207
 20
12.8140930144
 10
-10.9074585201
 20
12.8190210712
 10
-10.8927793705
 20
12.82464016
 10
-10.8784316926
 20
12.8309474329
 10
-10.8644297424
 20
12.8379397683
 10
-10.850787776
 20
12.8456140443
 10
-10.8375200492
 20
12.8539671392
 10
-10.8246408183
 20
12.8629959312
 10
-10.8121628779
 20
12.8726958096
 10
-10.800093178
 20
12.8830562081
 10
-10.7884372069
 20
12.8940650712
 10
-10.7772004534
 20
12.9057103436
 10
-10.7663884059
 20
12.91797997
 10
-10.7560065531
 20
12.930861895
 10
-10.7460611962
 20
12.9443428392
 10
-10.7365618877
 20
12.9584046271
 10
-10.7275189929
 20
12.9730278592
 10
-10.7189428768
 20
12.988193136
 10
-10.7108439048
 20
13.0038810579
 10
-10.7032324419
 20
13.0200722254
 10
-10.6961178079
 20
13.0367526186
 10
-10.6895051396
 20
13.0539297368
 10
-10.6833985281
 20
13.0716164588
 10
-10.6778020649
 20
13.0898256635
 10
-10.6727198412
 20
13.1085702297
 10
-10.6681559481
 20
13.1278630365
  0
LWPOLYLINE
  5
29F
100
AcDbEntity
  8
0
100
AcDbPolyline
 62
253
  6
CONTINUOUS
 90
22
 70
0
 10
-11.2428997025
 20
13.1626552581
 10
-11.2666565246
 20
13.1723394573
 10
-11.2904212144
 20
13.1824375281
 10
-11.3141972651
 20
13.1929497732
 10
-11.3379881699
 20
13.2038764952
 10
-11.361797422
 20
13.2152179968
 10
-11.3856285146
 20
13.2269745806
 10
-11.4094849409
 20
13.2391465493
 10
-11.4333678099
 20
13.2517331552
 10
-11.4572686944
 20
13.2647294491
 10
-11.4811767831
 20
13.2781294314
 10
-11.5050812646
 20
13.2919271026
 10
-11.5289713276
 20
13.3061164632
 10
-11.5528361607
 20
13.3206915135
 10
-11.5766649526
 20
13.3356462541
 10
-11.6004492295
 20
13.3509763627
 10
-11.624189868
 20
13.3666842272
 10
-11.6478900822
 20
13.3827739125
 10
-11.6715530862
 20
13.3992494839
 10
-11.6951820941
 20
13.4161150064
 10
-11.7187803201
 20
13.4333745452
 10
-11.7423509784
 20
13.4510321652
  0
LWPOLYLINE
  5
2A0
100
AcDbEntity
  8
0
100
AcDbPolyline
 62
253
  6
CONTINUOUS
 90
43
 70
0
 10
-11.668647337
 20
15.9220810836
 10
-11.6872243249
 20
15.9290405539
 10
-11.705657179
 20
15.9352454059
 10
-11.723953488
 20
15.9407074713
 10
-11.7421208403
 20
15.9454385817
 10
-11.7601668244
 20
15.9494505686
 10
-11.7780990288
 20
15.9527552635
 10
-11.7959202675
 20
15.9553623798
 10
-11.8136142558
 20
15.9572731568
 10
-11.8311599345
 20
15.9584867158
 10
-11.8485362442
 20
15.959002178
 10
-11.8657221259
 20
15.9588186644
 10
-11.8826965201
 20
15.9579352963
 10
-11.8994395432
 20
15.9563509266
 10
-11.9159360137
 20
15.9540633357
 10
-11.9321719255
 20
15.9510700358
 10
-11.9481332727
 20
15.947368539
 10
-11.9638060493
 20
15.9429563576
 10
-11.9791762492
 20
15.9378310036
 10
-11.9942299636
 20
15.9319916038
 10
-12.0089536721
 20
15.9254437425
 10
-12.0233339516
 20
15.9181946182
 10
-12.0373573786
 20
15.9102514297
 10
-12.0510105301
 20
15.9016213758
 10
-12.0642799827
 20
15.892311655
 10
-12.077153564
 20
15.8823304502
 10
-12.089624105
 20
15.8716898797
 10
-12.1016856875
 20
15.8604030462
 10
-12.1133323931
 20
15.8484830521
 10
-12.1245583037
 20
15.8359429999
 10
-12.135357501
 20
15.8227959921
 10
-12.1457231506
 20
15.8090561692
 10
-12.1556447529
 20
15.7947418235
 10
-12.1651108923
 20
15.7798722854
 10
-12.1741101529
 20
15.7644668852
 10
-12.1826311191
 20
15.7485449532
 10
-12.1906623751
 20
15.7321258198
 10
-12.1981936836
 20
15.715223452
 10
-12.2052195205
 20
15.6978303634
 10
-12.2117355403
 20
15.6799337042
 10
-12.2177373975
 20
15.6615206249
 10
-12.2232207463
 20
15.6425782757
 10
-12.2281812413
 20
15.6230938068
  0
LWPOLYLINE
  5
2A1
100
AcDbEntity
  8
0
100
AcDbPolyline
 62
253
  6
CONTINUOUS
 90
95
 70
0
 10
-11.5880510964
 20
15.5673472546
 10
-11.5870310634
 20
15.5668826868
 10
-11.5860305576
 20
15.5666349861
 10
-11.5850485195
 20
15.5665670558
 10
-11.5840838898
 20
15.566641799
 10
-11.583135609
 20
15.5668221189
 10
-11.5815896992
 20
15.5672854074
 10
-11.5800879821
 20
15.567940556
 10
-11.5786321793
 20
15.5687892029
 10
-11.5772242515
 20
15.5698305003
 10
-11.5758671149
 20
15.5710536562
 10
-11.5745639245
 20
15.5724453928
 10
-11.5733152857
 20
15.5739927163
 10
-11.5721116038
 20
15.5756837692
 10
-11.5709407339
 20
15.5775069781
 10
-11.5697929632
 20
15.5794534322
 10
-11.5686683057
 20
15.5815248696
 10
-11.5675692068
 20
15.5837256909
 10
-11.5664978889
 20
15.5860599852
 10
-11.5654556807
 20
15.5885305963
 10
-11.5644436877
 20
15.5911400565
 10
-11.5634627057
 20
15.5938913436
 10
-11.562512293
 20
15.5967892176
 10
-11.5615916981
 20
15.5998388836
 10
-11.5606998063
 20
15.6030447408
 10
-11.559834048
 20
15.6064079639
 10
-11.5589914901
 20
15.6099289212
 10
-11.5581691976
 20
15.6136087524
 10
-11.5573642287
 20
15.6174516815
 10
-11.5565736398
 20
15.621462704
 10
-11.5557953581
 20
15.6256481352
 10
-11.5550307935
 20
15.630019571
 10
-11.5542822266
 20
15.6345899274
 10
-11.5535518104
 20
15.6393717738
 10
-11.5528411866
 20
15.6443762927
 10
-11.5521518692
 20
15.6496143204
 10
-11.5516498441
 20
15.6537025274
 10
-11.5511617138
 20
15.6579323146
 10
-11.5506885363
 20
15.6623078185
 10
-11.5502313699
 20
15.6668331754
 10
-11.5497914266
 20
15.6715067677
 10
-11.5493705331
 20
15.6763039618
 10
-11.5489706701
 20
15.68119437
 10
-11.548593818
 20
15.6861476047
 10
-11.5481296322
 20
15.6927998032
 10
-11.5477089635
 20
15.6994537049
 10
-11.5473308996
 20
15.7060533438
 10
-11.5469949619
 20
15.7125484914
 10
-11.5467024055
 20
15.7189118681
 10
-11.5464549192
 20
15.7251219321
 10
-11.5462536011
 20
15.731163731
 10
-11.5460971856
 20
15.7370486712
 10
-11.5459838165
 20
15.7427947488
 10
-11.5459118127
 20
15.7484173728
 10
-11.5458801936
 20
15.7539216029
 10
-11.5458881538
 20
15.7593099113
 10
-11.5459348784
 20
15.7645843072
 10
-11.5460195137
 20
15.7697449469
 10
-11.5461411968
 20
15.7747915234
 10
-11.546298852
 20
15.7797241584
 10
-11.5464905532
 20
15.7845446877
 10
-11.546714162
 20
15.7892553762
 10
-11.546968153
 20
15.7938588163
 10
-11.5472534535
 20
15.7983589125
 10
-11.5475716043
 20
15.8027598972
 10
-11.5479245252
 20
15.8070655713
 10
-11.5483156523
 20
15.811278009
 10
-11.5487488008
 20
15.8153988532
 10
-11.5492272221
 20
15.8194294856
 10
-11.5497519129
 20
15.823370243
 10
-11.5503233061
 20
15.8272212008
 10
-11.5509417048
 20
15.8309828722
 10
-11.5516068933
 20
15.8346575205
 10
-11.5523185263
 20
15.8382478468
 10
-11.5528824303
 20
15.840886537
 10
-11.5534715668
 20
15.8434783966
 10
-11.554085012
 20
15.8460224907
 10
-11.5547209387
 20
15.8485178183
 10
-11.5553782204
 20
15.8509635784
 10
-11.5560594353
 20
15.8533598351
 10
-11.5567686928
 20
15.8557068918
 10
-11.5575125225
 20
15.8580051455
 10
-11.5585685071
 20
15.8609925863
 10
-11.5597041564
 20
15.8638847602
 10
-11.5609249901
 20
15.866672414
 10
-11.561898748
 20
15.8686880182
 10
-11.5629193171
 20
15.8706298513
 10
-11.5639823606
 20
15.8724896021
 10
-11.5650830345
 20
15.8742648091
 10
-11.5658364192
 20
15.8753976571
 10
-11.5666097526
 20
15.8764732212
 10
-11.5674084681
 20
15.8774722366
 10
-11.5682374352
 20
15.8783738398
 10
-11.5690992688
 20
15.8791507728
 10
-11.5699960199
 20
15.879774179
  0
LWPOLYLINE
  5
2A2
100
AcDbEntity
  8
0
100
AcDbPolyline
 62
253
  6
CONTINUOUS
 90
97
 70
0
 10
-11.1881112623
 20
15.6592787061
 10
-11.188940907
 20
15.6596699953
 10
-11.1897590983
 20
15.6599092017
 10
-11.1905659761
 20
15.6600175491
 10
-11.191753037
 20
15.6599801365
 10
-11.1929071488
 20
15.6597622534
 10
-11.194040781
 20
15.6594229113
 10
-11.1951580646
 20
15.6589811291
 10
-11.1962525385
 20
15.6584367854
 10
-11.1973209963
 20
15.6577891894
 10
-11.1987024394
 20
15.6567664393
 10
-11.2000328352
 20
15.6555693334
 10
-11.2013106416
 20
15.6542074327
 10
-11.2025363882
 20
15.6526908598
 10
-11.203718893
 20
15.6510319849
 10
-11.2048690456
 20
15.6492437402
 10
-11.2059958956
 20
15.6473364662
 10
-11.2071011326
 20
15.6453101368
 10
-11.2081846058
 20
15.6431621342
 10
-11.2092458853
 20
15.6408896609
 10
-11.210283424
 20
15.638489201
 10
-11.2112953954
 20
15.6359570589
 10
-11.2122803393
 20
15.6332893522
 10
-11.21323826
 20
15.6304814521
 10
-11.2141695276
 20
15.6275285429
 10
-11.215074662
 20
15.6244261796
 10
-11.2159547801
 20
15.6211713996
 10
-11.2168111485
 20
15.6177616112
 10
-11.2176455108
 20
15.614194275
 10
-11.2184615194
 20
15.6104670628
 10
-11.2192633038
 20
15.6065776991
 10
-11.22005406
 20
15.6025224692
 10
-11.2208332494
 20
15.5982919012
 10
-11.2215993996
 20
15.5938750839
 10
-11.2223510658
 20
15.5892609356
 10
-11.2230869127
 20
15.584437692
 10
-11.2238056323
 20
15.5793934184
 10
-11.2243326211
 20
15.5754576552
 10
-11.2248485427
 20
15.5713838494
 10
-11.2253526995
 20
15.5671650009
 10
-11.2258443942
 20
15.5627941098
 10
-11.2263225831
 20
15.5582688031
 10
-11.2267848387
 20
15.553605215
 10
-11.2272283872
 20
15.5488241063
 10
-11.2276504549
 20
15.5439462381
 10
-11.2281760387
 20
15.5373312689
 10
-11.2286581433
 20
15.5306513218
 10
-11.2290964087
 20
15.5239765273
 10
-11.2294903411
 20
15.5173711738
 10
-11.2298389119
 20
15.5108761805
 10
-11.2301409587
 20
15.5045266245
 10
-11.2303956075
 20
15.4983491022
 10
-11.2306031383
 20
15.4923362886
 10
-11.2307641198
 20
15.4864723778
 10
-11.2308791634
 20
15.4807428495
 10
-11.2309490533
 20
15.4751383248
 10
-11.2309746163
 20
15.4696507101
 10
-11.2309567044
 20
15.4642737023
 10
-11.2308962684
 20
15.4590081596
 10
-11.2307942837
 20
15.4538567307
 10
-11.2306518756
 20
15.4488211934
 10
-11.2304707674
 20
15.4438998412
 10
-11.2302528319
 20
15.4390900966
 10
-11.2299997605
 20
15.4343892485
 10
-11.2297125172
 20
15.4297940515
 10
-11.2293918847
 20
15.4253011262
 10
-11.2290376495
 20
15.4209071339
 10
-11.2286456148
 20
15.4166088971
 10
-11.2282105878
 20
15.4124032787
 10
-11.2277280437
 20
15.4082878211
 10
-11.2271961295
 20
15.4042627855
 10
-11.2266136602
 20
15.4003291126
 10
-11.2259796098
 20
15.3964870077
 10
-11.2252935888
 20
15.3927337357
 10
-11.2245553665
 20
15.3890658261
 10
-11.2239674545
 20
15.3863693322
 10
-11.2233508545
 20
15.3837204813
 10
-11.2227065379
 20
15.3811207605
 10
-11.2220361409
 20
15.3785712908
 10
-11.2213409828
 20
15.376072963
 10
-11.2206204502
 20
15.3736261113
 10
-11.2198723051
 20
15.3712306097
 10
-11.2190897437
 20
15.3688850461
 10
-11.2182660318
 20
15.366589633
 10
-11.217399278
 20
15.3643523669
 10
-11.21648801
 20
15.3621808429
 10
-11.2155275877
 20
15.3600732663
 10
-11.2145141321
 20
15.3580281072
 10
-11.2134499767
 20
15.3560542867
 10
-11.2123412595
 20
15.3541657653
 10
-11.2112007834
 20
15.3523800179
 10
-11.2100280165
 20
15.3506996132
 10
-11.2094220706
 20
15.3499079755
 10
-11.2088018791
 20
15.3491615427
 10
-11.207953102
 20
15.3482570919
 10
-11.2070760337
 20
15.3474791113
 10
-11.2061663388
 20
15.3468517817
  0
LWPOLYLINE
  5
2A3
100
AcDbEntity
  8
ASSI
100
AcDbPolyline
 62
253
  6
CONTINUOUS
 90
52
 70
0
 10
14.39936976
 20
-26.9151097917
 10
14.4009657644
 20
-26.9250705137
 10
14.4028183282
 20
-26.9348268482
 10
14.4049274515
 20
-26.9443787953
 10
14.4072950496
 20
-26.9537331586
 10
14.4099192072
 20
-26.9628831344
 10
14.4127941781
 20
-26.9718083119
 10
14.4159204785
 20
-26.9805080042
 10
14.4192975923
 20
-26.9889828981
 10
14.4229182242
 20
-26.9972146436
 10
14.4267828901
 20
-27.0052026874
 10
14.4308910741
 20
-27.0129475828
 10
14.4352339335
 20
-27.0204326397
 10
14.4398119799
 20
-27.0276573107
 10
14.4446247017
 20
-27.0346221432
 10
14.4496617211
 20
-27.0413120896
 10
14.4549235227
 20
-27.0477265554
 10
14.4604096219
 20
-27.0538661352
 10
14.4661081874
 20
-27.0597175647
 10
14.4720196803
 20
-27.0652802227
 10
14.4781436396
 20
-27.0705547304
 10
14.4844668509
 20
-27.0755296872
 10
14.4909897397
 20
-27.0802044429
 10
14.4977118806
 20
-27.0845796477
 10
14.5046187833
 20
-27.0886458515
 10
14.5117108554
 20
-27.0924023913
 10
14.5189876892
 20
-27.0958499301
 10
14.5264335713
 20
-27.0989810067
 10
14.5340488586
 20
-27.101794934
 10
14.5418331941
 20
-27.104292399
 10
14.549769794
 20
-27.1064680021
 10
14.5578589941
 20
-27.1083210501
 10
14.5661004585
 20
-27.1098522362
 10
14.5744763955
 20
-27.1110582398
 10
14.5829870963
 20
-27.1119383574
 10
14.5916322695
 20
-27.1124932925
 10
14.60039325
 20
-27.1127218355
 10
14.6092702908
 20
-27.1126232793
 10
14.6182631387
 20
-27.1121983309
 10
14.6273523692
 20
-27.1114479016
 10
14.636538176
 20
-27.1103712914
 10
14.6458203653
 20
-27.1089692002
 10
14.6551789311
 20
-27.1072446389
 10
14.6646140704
 20
-27.1051968999
 10
14.6741255862
 20
-27.1028266908
 10
14.6836928821
 20
-27.1001391452
 10
14.693316354
 20
-27.0971334415
 10
14.702995606
 20
-27.0938104012
 10
14.7127088545
 20
-27.0901776225
 10
14.722448838
 20
-27.0862376381
 10
14.732222818
 20
-27.0819879152
 10
14.7420307943
 20
-27.0774284538
  0
LWPOLYLINE
  5
2A4
100
AcDbEntity
  8
ASSI
100
AcDbPolyline
 62
253
  6
CONTINUOUS
 90
25
 70
0
 10
13.708768216
 20
-26.9666891699
 10
13.7119025869
 20
-26.9865618384
 10
13.7155469302
 20
-27.0060467625
 10
13.7196986628
 20
-27.0251299384
 10
13.7243548896
 20
-27.0437976338
 10
13.729512261
 20
-27.0620364661
 10
13.7351669904
 20
-27.0798333976
 10
13.7413151381
 20
-27.0971757411
 10
13.7479523148
 20
-27.1140509377
 10
13.755073542
 20
-27.1304466345
 10
13.7626737713
 20
-27.1463510304
 10
13.7707476309
 20
-27.1617527689
 10
13.7792891457
 20
-27.1766407016
 10
13.7882923085
 20
-27.1910041903
 10
13.7977507233
 20
-27.2048329129
 10
13.8076573467
 20
-27.2181167602
 10
13.8180051873
 20
-27.2308462356
 10
13.8287869113
 20
-27.2430122288
 10
13.8399944924
 20
-27.2546058142
 10
13.8516200203
 20
-27.2656187241
 10
13.8636552536
 20
-27.2760430903
 10
13.8760912251
 20
-27.285871219
 10
13.8889191402
 20
-27.2950961139
 10
13.9021299179
 20
-27.3037112143
 10
13.9106421477
 20
-27.3088211463
  0
LINE
  5
2A5
100
AcDbEntity
  8
ASSI
100
AcDbLine
 62
7
  6
CONTINUOUS
 10
11.4190016385
 20
12.9249246012
 11
11.4402069277
 21
12.3084521038
  0
LWPOLYLINE
  5
2A6
100
AcDbEntity
  8
ASSI
100
AcDbPolyline
 62
253
  6
CONTINUOUS
 90
22
 70
0
 10
12.9847731948
 20
-17.7979146657
 10
12.9938303213
 20
-18.2500486721
 10
13.0054349348
 20
-18.7007388475
 10
13.0195866026
 20
-19.1499677583
 10
13.0362848214
 20
-19.5977180349
 10
13.0555289432
 20
-20.043972356
 10
13.0773181762
 20
-20.4887134494
 10
13.1016517174
 20
-20.9319241284
 10
13.1285286485
 20
-21.3735872489
 10
13.1579478625
 20
-21.8136856933
 10
13.1899082707
 20
-22.2522024515
 10
13.2244086704
 20
-22.6891205752
 10
13.2614476417
 20
-23.1244231341
 10
13.3010238124
 20
-23.5580933192
 10
13.3431356944
 20
-23.9901143646
 10
13.3877815534
 20
-24.4204695026
 10
13.4349597317
 20
-24.8491421125
 10
13.4846684583
 20
-25.2761156357
 10
13.5369056867
 20
-25.7013734978
 10
13.5916694031
 20
-26.1248992493
 10
13.648957626
 20
-26.5466765674
 10
13.708768216
 20
-26.9666891699
  0
LWPOLYLINE
  5
2A7
100
AcDbEntity
  8
ASSI
100
AcDbPolyline
 62
253
  6
CONTINUOUS
 90
23
 70
0
 10
12.9188403388
 20
-9.7521831341
 10
12.9189574809
 20
-9.7597092899
 10
12.919319209
 20
-9.7670839361
 10
12.9199250221
 20
-9.7742968625
 10
12.9207740816
 20
-9.7813380826
 10
12.9218652118
 20
-9.7881978479
 10
12.9231969022
 20
-9.794866661
 10
12.924767309
 20
-9.8013352889
 10
12.9265742579
 20
-9.8075947758
 10
12.9286152473
 20
-9.8136364553
 10
12.9308874513
 20
-9.8194519627
 10
12.9333877241
 20
-9.8250332465
 10
12.936112604
 20
-9.8303725793
 10
12.9390583184
 20
-9.8354625688
 10
12.9422207891
 20
-9.8402961679
 10
12.9455956374
 20
-9.8448666844
 10
12.949178191
 20
-9.8491677904
 10
12.9529634897
 20
-9.8531935311
 10
12.9569462927
 20
-9.8569383328
 10
12.961121086
 20
-9.8603970108
 10
12.9654820894
 20
-9.8635647765
 10
12.9700232651
 20
-9.8664372442
 10
12.9705663587
 20
-9.866754007
  0
LINE
  5
2A8
100
AcDbEntity
  8
ASSI
100
AcDbLine
 62
253
  6
CONTINUOUS
 10
12.9596418278
 20
-16.1600801283
 11
12.9847731948
 21
-17.7979146657
  0
LINE
  5
2A9
100
AcDbEntity
  8
ASSI
100
AcDbLine
 62
253
  6
CONTINUOUS
 10
12.9404988377
 20
-14.5189403173
 11
12.9596418278
 21
-16.1600801283
  0
LINE
  5
2AA
100
AcDbEntity
  8
ASSI
100
AcDbLine
 62
253
  6
CONTINUOUS
 10
12.9273440694
 20
-12.8745142232
 11
12.9404988377
 21
-14.5189403173
  0
LWPOLYLINE
  5
2AB
100
AcDbEntity
  8
ASSI
100
AcDbPolyline
 62
253
  6
CONTINUOUS
 90
3
 70
0
 10
12.9188384414
 20
-10.4017142772
 10
12.9201766955
 20
-11.2267968263
 10
12.9273440694
 20
-12.8745142232
  0
LINE
  5
2AC
100
AcDbEntity
  8
ASSI
100
AcDbLine
 62
253
  6
CONTINUOUS
 10
11.2387503891
 20
12.5107044424
 11
11.2387503891
 21
12.4478864538
  0
LINE
  5
2AD
100
AcDbEntity
  8
ASSI
100
AcDbLine
 62
253
  6
CONTINUOUS
 10
12.9230119152
 20
-8.0983405189
 11
12.9188384414
 21
-9.7521820386
  0
LINE
  5
2AE
100
AcDbEntity
  8
ASSI
100
AcDbLine
 62
253
  6
CONTINUOUS
 10
12.9331730308
 20
-6.4413239565
 11
12.9230119152
 21
-8.0983405189
  0
LINE
  5
2AF
100
AcDbEntity
  8
ASSI
100
AcDbLine
 62
253
  6
CONTINUOUS
 10
12.9493217397
 20
-4.7811517633
 11
12.9331730308
 21
-6.4413239565
  0
LWPOLYLINE
  5
2B0
100
AcDbEntity
  8
ASSI
100
AcDbPolyline
 62
253
  6
CONTINUOUS
 90
43
 70
0
 10
12.9188403388
 20
-10.4017153727
 10
12.9189574809
 20
-10.3940539445
 10
12.9193192089
 20
-10.3862615843
 10
12.919925022
 20
-10.3783490807
 10
12.9207740813
 20
-10.3703273885
 10
12.9218652114
 20
-10.3622076139
 10
12.9231969016
 20
-10.3540009987
 10
12.9247673082
 20
-10.3457189049
 10
12.9265742569
 20
-10.3373727992
 10
12.928615246
 20
-10.3289742369
 10
12.9308874498
 20
-10.3205348457
 10
12.9333877223
 20
-10.31206631
 10
12.9361126019
 20
-10.3035803546
 10
12.9390583161
 20
-10.2950887283
 10
12.9422207864
 20
-10.2866031877
 10
12.9455956345
 20
-10.2781354812
 10
12.9491781877
 20
-10.2696973324
 10
12.9529634862
 20
-10.2613004239
 10
12.956946289
 20
-10.2529563812
 10
12.961121082
 20
-10.2446767567
 10
12.9654820851
 20
-10.2364730136
 10
12.9700232607
 20
-10.22835651
 10
12.9747383212
 20
-10.2203384832
 10
12.9796207388
 20
-10.2124300343
 10
12.9846637538
 20
-10.2046421125
 10
12.9898603839
 20
-10.1969855003
 10
12.9952034345
 20
-10.1894707982
 10
13.0006855082
 20
-10.1821084103
 10
13.0062990148
 20
-10.1749085301
 10
13.0120361826
 20
-10.1678811256
 10
13.0178890684
 20
-10.1610359264
 10
13.0238495688
 20
-10.1543824097
 10
13.0299094315
 20
-10.1479297873
 10
13.0360602666
 20
-10.1416869929
 10
13.0422935583
 20
-10.1356626697
 10
13.0486006764
 20
-10.1298651584
 10
13.0549728889
 20
-10.1243024857
 10
13.0614013732
 20
-10.118982353
 10
13.0678772292
 20
-10.1139121262
 10
13.074391491
 20
-10.109098825
 10
13.0809351396
 20
-10.1045491134
 10
13.0874991153
 20
-10.1002692906
 10
13.0940743302
 20
-10.096265282
  0
LWPOLYLINE
  5
2B1
100
AcDbEntity
  8
ASSI
100
AcDbPolyline
 62
253
  6
CONTINUOUS
 90
3
 70
0
 10
12.9847731948
 20
-2.2849794067
 10
12.9714589879
 20
-3.1178198393
 10
12.9493217397
 20
-4.7811517633
  0
LWPOLYLINE
  5
2B2
100
AcDbEntity
  8
ASSI
100
AcDbPolyline
 62
253
  6
CONTINUOUS
 90
22
 70
0
 10
13.708768216
 20
7.6637284797
 10
13.648957626
 20
7.1792843782
 10
13.5916694031
 20
6.6957924956
 10
13.5369056867
 20
6.2132715845
 10
13.4846684583
 20
5.7317404049
 10
13.4349597317
 20
5.2512175826
 10
13.3877815534
 20
4.7717216093
 10
13.3431356944
 20
4.293271066
 10
13.3010238124
 20
3.81588451
 10
13.2614476417
 20
3.339580334
 10
13.2244086704
 20
2.8643769991
 10
13.1899082707
 20
2.390292922
 10
13.1579478625
 20
1.9173463628
 10
13.1285286485
 20
1.4455556359
 10
13.1016517174
 20
0.9749390315
 10
13.0773181762
 20
0.505514704
 10
13.0555289432
 20
0.0373008352
 10
13.0362848214
 20
-0.429684438
 10
13.0195866026
 20
-0.8954231018
 10
13.0054349348
 20
-1.3598971443
 10
12.9938303213
 20
-1.823088557
 10
12.9847731948
 20
-2.2849794067
  0
LWPOLYLINE
  5
2B3
100
AcDbEntity
  8
ASSI
100
AcDbPolyline
 62
253
  6
CONTINUOUS
 90
49
 70
0
 10
14.7420307943
 20
8.1248981868
 10
14.7412235719
 20
8.1379977078
 10
14.7400529101
 20
8.1513087996
 10
14.7385200594
 20
8.1648172416
 10
14.7366266577
 20
8.1785086023
 10
14.7343747275
 20
8.1923682546
 10
14.7317666748
 20
8.2063813917
 10
14.7288052858
 20
8.2205330431
 10
14.7254937242
 20
8.2348080898
 10
14.721835528
 20
8.2491912814
 10
14.7178346053
 20
8.2636672518
 10
14.7134952304
 20
8.2782205358
 10
14.7088220393
 20
8.2928355855
 10
14.7038200244
 20
8.3074967873
 10
14.6984945297
 20
8.3221884779
 10
14.6928512444
 20
8.3368949618
 10
14.6868961977
 20
8.3516005275
 10
14.6806357514
 20
8.3662894644
 10
14.6740765938
 20
8.3809460798
 10
14.6672257322
 20
8.3955547156
 10
14.6600904858
 20
8.4100997648
 10
14.6526784774
 20
8.4245656884
 10
14.6449976254
 20
8.438937032
 10
14.6370561356
 20
8.453198442
 10
14.6288624921
 20
8.4673346826
 10
14.6204254487
 20
8.4813306514
 10
14.6117540188
 20
8.495171396
 10
14.6028574664
 20
8.5088421299
 10
14.5937452961
 20
8.5223282481
 10
14.5844272427
 20
8.535615343
 10
14.574913261
 20
8.5486892193
 10
14.5652135153
 20
8.5615359099
 10
14.5553383679
 20
8.5741416901
 10
14.5452983691
 20
8.5864930928
 10
14.5351042447
 20
8.5985769223
 10
14.5247668857
 20
8.6103802692
 10
14.5142973357
 20
8.6218905236
 10
14.5037067798
 20
8.6330953885
 10
14.4930065323
 20
8.6439828934
 10
14.4822080246
 20
8.6545414068
 10
14.4713227931
 20
8.6647596486
 10
14.460362467
 20
8.6746267023
 10
14.4493387556
 20
8.6841320266
 10
14.4382634359
 20
8.6932654666
 10
14.42714834
 20
8.7020172647
 10
14.4160053427
 20
8.710378071
 10
14.4048463484
 20
8.7183389534
 10
14.3936832787
 20
8.725891407
 10
14.3825280595
 20
8.7330273632
  0
LWPOLYLINE
  5
2B4
100
AcDbEntity
  8
ASSI
100
AcDbPolyline
 62
253
  6
CONTINUOUS
 90
43
 70
0
 10
13.6133916905
 20
-10.4068344551
 10
13.6132128956
 20
-10.3991623249
 10
13.6127959841
 20
-10.3913533308
 10
13.6121415386
 20
-10.38341839
 10
13.6112504742
 20
-10.3753685959
 10
13.6101240367
 20
-10.3672152026
 10
13.6087638008
 20
-10.3589696089
 10
13.6071716682
 20
-10.3506433426
 10
13.6053498648
 20
-10.3422480441
 10
13.6033009377
 20
-10.3337954506
 10
13.6010277511
 20
-10.3252973791
 10
13.5985334833
 20
-10.3167657105
 10
13.5958216214
 20
-10.3082123723
 10
13.5928959565
 20
-10.2996493226
 10
13.5897605791
 20
-10.2910885329
 10
13.5864198724
 20
-10.2825419716
 10
13.5828785069
 20
-10.2740215872
 10
13.5791414338
 20
-10.2655392917
 10
13.5752138775
 20
-10.2571069437
 10
13.571101329
 20
-10.2487363321
 10
13.5668095378
 20
-10.2404391593
 10
13.5623445042
 20
-10.2322270252
 10
13.5577124703
 20
-10.2241114107
 10
13.5529199121
 20
-10.2161036619
 10
13.5479735297
 20
-10.2082149741
 10
13.5428802385
 20
-10.2004563759
 10
13.537647159
 20
-10.1928387142
 10
13.5322816075
 20
-10.1853726389
 10
13.5267910853
 20
-10.178068588
 10
13.5211832682
 20
-10.1709367728
 10
13.5154659964
 20
-10.163987164
 10
13.5096472628
 20
-10.1572294774
 10
13.5037352024
 20
-10.1506731606
 10
13.4977380804
 20
-10.1443273796
 10
13.4916642812
 20
-10.1382010062
 10
13.4855222962
 20
-10.1323026053
 10
13.4793207121
 20
-10.1266404232
 10
13.4730681992
 20
-10.1212223757
 10
13.4667734986
 20
-10.1160560377
 10
13.4604454108
 20
-10.1111486319
 10
13.4540927826
 20
-10.106507019
 10
13.4477244954
 20
-10.1021376884
 10
13.4413494523
 20
-10.0980467484
  0
LWPOLYLINE
  5
2B5
100
AcDbEntity
  8
ASSI
100
AcDbPolyline
 62
253
  6
CONTINUOUS
 90
22
 70
0
 10
13.6792619432
 20
-17.7971949822
 10
13.6882713016
 20
-18.2468464474
 10
13.6998134543
 20
-18.6950279415
 10
13.7138884012
 20
-19.1417394645
 10
13.7304968821
 20
-19.5869982285
 10
13.7496381572
 20
-20.0307870213
 10
13.7713100079
 20
-20.4730542066
 10
13.7955127268
 20
-20.9137995647
 10
13.8222460213
 20
-21.3530233153
 10
13.8515067949
 20
-21.7906744809
 10
13.8832953401
 20
-22.2267528743
 10
13.9176113644
 20
-22.6612586828
 10
13.9544508936
 20
-23.0941414908
 10
13.9938142205
 20
-23.5254011155
 10
14.0357010524
 20
-23.9550377397
 10
14.0801065363
 20
-24.383001497
 10
14.1270309683
 20
-24.8092922209
 10
14.1764740524
 20
-25.2339100779
 10
14.2284300477
 20
-25.6568057002
 10
14.2828970406
 20
-26.077962632
 10
14.3398769447
 20
-26.4973973292
 10
14.39936976
 20
-26.9151097917
  0
LINE
  5
2B6
100
AcDbEntity
  8
ASSI
100
AcDbLine
 62
253
  6
CONTINUOUS
 10
13.6541501897
 20
-16.1606491101
 11
13.6792619432
 21
-17.7971949822
  0
LINE
  5
2B7
100
AcDbEntity
  8
ASSI
100
AcDbLine
 62
253
  6
CONTINUOUS
 10
13.6350234318
 20
-14.5208099974
 11
13.6541501897
 21
-16.1606491101
  0
LINE
  5
2B8
100
AcDbEntity
  8
ASSI
100
AcDbLine
 62
253
  6
CONTINUOUS
 10
13.6218819127
 20
-12.8776801435
 11
13.6350234318
 21
-14.5208099974
  0
LWPOLYLINE
  5
2B9
100
AcDbEntity
  8
ASSI
100
AcDbPolyline
 62
253
  6
CONTINUOUS
 90
3
 70
0
 10
13.613393719
 20
-10.4068333431
 10
13.6147266046
 20
-11.2312695458
 10
13.6218819127
 20
-12.8776801435
  0
LINE
  5
2BA
100
AcDbEntity
  8
ASSI
100
AcDbLine
 62
253
  6
CONTINUOUS
 10
13.6175560025
 20
-8.1085302313
 11
13.613393719
 21
-9.7610641685
  0
LINE
  5
2BB
100
AcDbEntity
  8
ASSI
100
AcDbLine
 62
253
  6
CONTINUOUS
 10
13.6277044161
 20
-6.4528317366
 11
13.6175560025
 21
-8.1085302313
  0
LINE
  5
2BC
100
AcDbEntity
  8
ASSI
100
AcDbLine
 62
253
  6
CONTINUOUS
 10
13.6438387167
 20
-4.7939714454
 11
13.6277044161
 21
-6.4528317366
  0
LINE
  5
2BD
100
AcDbEntity
  8
ASSI
100
AcDbLine
 62
253
  6
CONTINUOUS
 10
13.6659579319
 20
-3.1319604023
 11
13.6438387167
 21
-4.7939714454
  0
LWPOLYLINE
  5
2BE
100
AcDbEntity
  8
ASSI
100
AcDbPolyline
 62
253
  6
CONTINUOUS
 90
23
 70
0
 10
13.6133916905
 20
-9.761065241
 10
13.6132128957
 20
-9.7686539725
 10
13.6127959842
 20
-9.7760845047
 10
13.6121415389
 20
-9.7833464492
 10
13.6112504747
 20
-9.7904296534
 10
13.6101240374
 20
-9.7973242148
 10
13.6087638018
 20
-9.8040204944
 10
13.6071716695
 20
-9.8105091304
 10
13.6053498665
 20
-9.8167810515
 10
13.6033009397
 20
-9.8228274892
 10
13.6010277537
 20
-9.8286399902
 10
13.5985334863
 20
-9.8342104285
 10
13.5958216248
 20
-9.8395310163
 10
13.5928959604
 20
-9.8445943152
 10
13.5897605834
 20
-9.8493932463
 10
13.5864198772
 20
-9.8539211006
 10
13.5828785123
 20
-9.858171548
 10
13.5791414395
 20
-9.862138646
 10
13.5752138837
 20
-9.8658168485
 10
13.5711013356
 20
-9.8692010133
 10
13.5668095448
 20
-9.8722864089
 10
13.5623445115
 20
-9.875068722
 10
13.5598155336
 20
-9.8764692357
  0
LWPOLYLINE
  5
2BF
100
AcDbEntity
  8
ASSI
100
AcDbPolyline
 62
253
  6
CONTINUOUS
 90
22
 70
0
 10
14.39936976
 20
7.593586687
 10
14.3398769447
 20
7.1118096809
 10
14.2828970406
 20
6.6310164562
 10
14.2284300477
 20
6.1512070129
 10
14.1764740524
 20
5.6723628344
 10
14.1270309683
 20
5.1945024373
 10
14.0801065363
 20
4.7176813711
 10
14.0357010524
 20
4.2418997884
 10
13.9938142205
 20
3.7671575367
 10
13.9544508936
 20
3.2935097084
 10
13.9176113644
 20
2.8209564358
 10
13.8832953401
 20
2.3494975866
 10
13.8515067949
 20
1.8791878558
 10
13.8222460213
 20
1.410027371
 10
13.7955127268
 20
0.9420160047
 10
13.7713100079
 20
0.4752080686
 10
13.7496381572
 20
0.0096036582
 10
13.7304968821
 20
-0.454797322
 10
13.7138884012
 20
-0.9179408463
 10
13.6998134543
 20
-1.3798089062
 10
13.6882713016
 20
-1.8404195102
 10
13.6659579319
 20
-3.1319604023
  0
LINE
  5
2C0
100
AcDbEntity
  8
ASSI
100
AcDbLine
 62
253
  6
CONTINUOUS
 10
17.2545736364
 20
-8.0077931779
 11
13.4413494523
 21
-10.0980467484
  0
LWPOLYLINE
  5
2C1
100
AcDbEntity
  8
ASSI
100
AcDbPolyline
 62
253
  6
CONTINUOUS
 90
52
 70
0
 10
13.4413494523
 20
-10.0980467484
 10
13.4357593381
 20
-10.1010201737
 10
13.4300299107
 20
-10.1038902521
 10
13.4241611702
 20
-10.1066569834
 10
13.4181474388
 20
-10.1093227477
 10
13.4119943943
 20
-10.1118851649
 10
13.40571907
 20
-10.1143370957
 10
13.399321225
 20
-10.1166781877
 10
13.3928011002
 20
-10.1189087932
 10
13.3861764522
 20
-10.1210228297
 10
13.3794470104
 20
-10.1230199719
 10
13.3726130452
 20
-10.1249005451
 10
13.3656931246
 20
-10.1266594426
 10
13.3586870263
 20
-10.1282963324
 10
13.3515949725
 20
-10.1298115465
 10
13.3444361967
 20
-10.1312009737
 10
13.3372104979
 20
-10.1324642755
 10
13.3299180771
 20
-10.1336017904
 10
13.322578771
 20
-10.1346104222
 10
13.3151924618
 20
-10.1354898184
 10
13.3077592674
 20
-10.1362403315
 10
13.3002993777
 20
-10.1368599227
 10
13.2928127149
 20
-10.1373482363
 10
13.2852993568
 20
-10.137705628
 10
13.2777797272
 20
-10.137931127
 10
13.2702538193
 20
-10.1380243746
 10
13.2627216399
 20
-10.1379857295
 10
13.2552036324
 20
-10.1378152964
 10
13.2476998235
 20
-10.1375127169
 10
13.2402101864
 20
-10.1370783496
 10
13.2327550847
 20
-10.1365133751
 10
13.2253346192
 20
-10.1358174386
 10
13.217948689
 20
-10.134990895
 10
13.2106173553
 20
-10.1340359901
 10
13.203340757
 20
-10.1329523728
 10
13.1961187551
 20
-10.1317403943
 10
13.1889709938
 20
-10.1304033537
 10
13.1818976945
 20
-10.128940915
 10
13.1748986357
 20
-10.1273534143
 10
13.1679927975
 20
-10.125645159
 10
13.1611804214
 20
-10.1238158195
 10
13.1544612658
 20
-10.1218657253
 10
13.1478535861
 20
-10.1198001726
 10
13.1413576722
 20
-10.1176188393
 10
13.1349732342
 20
-10.1153220474
 10
13.1287176577
 20
-10.1129160595
 10
13.1225912095
 20
-10.1104005284
 10
13.1165936227
 20
-10.1077758013
 10
13.1107414829
 20
-10.1050491827
 10
13.1050403184
 20
-10.1022231073
 10
13.0994846008
 20
-10.0992951404
 10
13.0940743302
 20
-10.096265282
  0
LINE
  5
2C2
100
AcDbEntity
  8
ASSI
100
AcDbLine
 62
253
  6
CONTINUOUS
 10
13.613393719
 20
-9.7610641685
 11
17.4314042145
 21
-7.7425357072
  0
LINE
  5
2C3
100
AcDbEntity
  8
ASSI
100
AcDbLine
 62
7
  6
CONTINUOUS
 10
13.5597387129
 20
-9.8765099039
 11
17.3769361587
 21
-7.8584112905
  0
LINE
  5
2C4
100
AcDbEntity
  8
ASSI
100
AcDbLine
 62
7
  6
CONTINUOUS
 10
6.619095331
 20
15.6963303462
 11
5.9463885102
 21
15.5664478624
  0
LINE
  5
2C5
100
AcDbEntity
  8
ASSI
100
AcDbLine
 62
253
  6
CONTINUOUS
 10
13.708768216
 20
7.6637284797
 11
-16.9876122882
 21
25.3874338668
  0
LINE
  5
2C6
100
AcDbEntity
  8
ASSI
100
AcDbLine
 62
253
  6
CONTINUOUS
 10
14.3825280595
 20
8.7330273632
 11
-16.3369768951
 21
26.4700845181
  0
LINE
  5
2C7
100
AcDbEntity
  8
ASSI
100
AcDbLine
 62
7
  6
CONTINUOUS
 10
17.4314042145
 20
-8.3139561124
 11
17.4314042145
 21
-18.7240065358
  0
LINE
  5
2C8
100
AcDbEntity
  8
ASSI
100
AcDbLine
 62
7
  6
CONTINUOUS
 10
17.4314042145
 20
-7.7425357072
 11
17.4314042145
 21
2.6675147162
  0
LWPOLYLINE
  5
2C9
100
AcDbEntity
  8
ASSI
100
AcDbPolyline
 62
253
  6
CONTINUOUS
 90
27
 70
0
 10
14.7420307943
 20
-27.0774284538
 10
14.7412235718
 20
-27.0909755152
 10
14.7400529099
 20
-27.104282538
 10
14.7385200592
 20
-27.1173353061
 10
14.7366266572
 20
-27.1301198747
 10
14.7343747269
 20
-27.1426225855
 10
14.7317666739
 20
-27.1548300814
 10
14.7288052847
 20
-27.1667293208
 10
14.7254937229
 20
-27.1783075912
 10
14.7218355263
 20
-27.1895525231
 10
14.7178346033
 20
-27.2004521032
 10
14.7134952281
 20
-27.2109946871
 10
14.7088220367
 20
-27.2211690117
 10
14.7038200215
 20
-27.2309642074
 10
14.6984945264
 20
-27.2403698097
 10
14.6928512409
 20
-27.2493757702
 10
14.6868961938
 20
-27.2579724675
 10
14.6806357472
 20
-27.2661507175
 10
14.6740765893
 20
-27.273901783
 10
14.6672257275
 20
-27.2812173833
 10
14.6600904808
 20
-27.2880897029
 10
14.6526784721
 20
-27.2945113998
 10
14.6449976199
 20
-27.3004756135
 10
14.6370561299
 20
-27.3059759721
 10
14.6288624864
 20
-27.3110065995
 10
14.6204254428
 20
-27.3155621213
 10
14.6173792149
 20
-27.3170613594
  0
LINE
  5
2CA
100
AcDbEntity
  8
ASSI
100
AcDbLine
 62
253
  6
CONTINUOUS
 10
17.4314042145
 20
-8.3139561124
 11
13.613393719
 21
-10.4068333431
  0
LWPOLYLINE
  5
2CB
100
AcDbEntity
  8
ASSI
100
AcDbPolyline
 62
253
  6
CONTINUOUS
 90
52
 70
0
 10
13.613393719
 20
-10.4068333521
 10
13.6022282559
 20
-10.4127246831
 10
13.5907637103
 20
-10.4184190325
 10
13.5790104822
 20
-10.4239112824
 10
13.5669792867
 20
-10.4291965182
 10
13.5546809863
 20
-10.4342699746
 10
13.5421265692
 20
-10.43912703
 10
13.5293273041
 20
-10.4437633551
 10
13.5162948968
 20
-10.4481747395
 10
13.5030413234
 20
-10.4523570396
 10
13.4895786648
 20
-10.4563064875
 10
13.4759190743
 20
-10.4600195659
 10
13.4620749271
 20
-10.4634928304
 10
13.4480587948
 20
-10.4667231683
 10
13.4338833742
 20
-10.4697076969
 10
13.4195614598
 20
-10.4724436418
 10
13.4051060008
 20
-10.4749285633
 10
13.3905301434
 20
-10.4771602388
 10
13.3758471586
 20
-10.4791365597
 10
13.3610703829
 20
-10.4808557672
 10
13.3462131979
 20
-10.4823163444
 10
13.3312890706
 20
-10.4835168962
 10
13.3163115254
 20
-10.4844563672
 10
13.301294156
 20
-10.4851339413
 10
13.286250606
 20
-10.4855489373
 10
13.2711945444
 20
-10.4857010101
 10
13.2561395997
 20
-10.4855900583
 10
13.2410993723
 20
-10.4852161214
 10
13.2260874765
 20
-10.4845795625
 10
13.2111175525
 20
-10.4836809897
 10
13.196203201
 20
-10.4825211638
 10
13.1813579583
 20
-10.481101161
 10
13.1665952769
 20
-10.4794222971
 10
13.1519285374
 20
-10.4774860452
 10
13.1373710219
 20
-10.4752941775
 10
13.1229359522
 20
-10.4728487095
 10
13.1086364702
 20
-10.470151827
 10
13.09448558
 20
-10.4672060024
 10
13.0804960751
 20
-10.4640139248
 10
13.0666805798
 20
-10.4605784409
 10
13.0530516078
 20
-10.4569026733
 10
13.0396215361
 20
-10.4529899771
 10
13.0264025333
 20
-10.4488438689
 10
13.0134065348
 20
-10.444468097
 10
13.0006453843
 20
-10.4398666601
 10
12.988130802
 20
-10.4350437683
 10
12.9758742295
 20
-10.4300038484
 10
12.9638866703
 20
-10.4247514495
 10
12.9521788383
 20
-10.4192912576
 10
12.9407613049
 20
-10.4136281965
 10
12.929644478
 20
-10.4077674315
 10
12.9188384418
 20
-10.4017142776
  0
LINE
  5
2CC
100
AcDbEntity
  8
ASSI
100
AcDbLine
 62
7
  6
CONTINUOUS
 10
-12.5389843279
 20
26.1537366049
 11
-10.1566992318
 21
24.7782350475
  0
LINE
  5
2CD
100
AcDbEntity
  8
ASSI
100
AcDbLine
 62
7
  6
CONTINUOUS
 10
-4.6193883786
 20
21.5810611597
 11
-2.2371032825
 21
20.2055596022
  0
LINE
  5
2CE
100
AcDbEntity
  8
ASSI
100
AcDbLine
 62
7
  6
CONTINUOUS
 10
3.3709182488
 20
16.9675582551
 11
5.7532033449
 21
15.5920566976
  0
LINE
  5
2CF
100
AcDbEntity
  8
ASSI
100
AcDbLine
 62
7
  6
CONTINUOUS
 10
11.2905141981
 20
12.3948828098
 11
13.6727992942
 21
11.0193812523
  0
LINE
  5
2D0
100
AcDbEntity
  8
ASSI
100
AcDbLine
 62
7
  6
CONTINUOUS
 10
-14.3669398025
 20
27.8134040155
 11
-12.4104968875
 21
26.6837783964
  0
LINE
  5
2D1
100
AcDbEntity
  8
ASSI
100
AcDbLine
 62
7
  6
CONTINUOUS
 10
-9.2908072457
 20
24.8825086961
 11
-4.4909009382
 21
22.1111029511
  0
LINE
  5
2D2
100
AcDbEntity
  8
ASSI
100
AcDbLine
 62
7
  6
CONTINUOUS
 10
-1.3712112964
 20
20.3098332508
 11
3.4994056892
 21
17.4976000465
  0
LINE
  5
2D3
100
AcDbEntity
  8
ASSI
100
AcDbLine
 62
7
  6
CONTINUOUS
 10
6.619095331
 20
15.6963303462
 11
11.4190016385
 21
12.9249246012
  0
LINE
  5
2D4
100
AcDbEntity
  8
ASSI
100
AcDbLine
 62
7
  6
CONTINUOUS
 10
14.5386912803
 20
11.1236549009
 11
16.4951341952
 21
9.9940292818
  0
LINE
  5
2D5
100
AcDbEntity
  8
ASSI
100
AcDbLine
 62
7
  6
CONTINUOUS
 10
16.8801083536
 20
9.4011038453
 11
17.4314042145
 21
2.6675147162
  0
LINE
  5
2D6
100
AcDbEntity
  8
ASSI
100
AcDbLine
 62
7
  6
CONTINUOUS
 10
16.8801083536
 20
-26.0512558822
 11
17.4314042145
 21
-18.7240065358
  0
LINE
  5
2D7
100
AcDbEntity
  8
ASSI
100
AcDbLine
 62
7
  6
CONTINUOUS
 10
-1.3712112964
 20
20.3098332508
 11
-2.0439181172
 21
20.1799507671
  0
LWPOLYLINE
  5
2D8
100
AcDbEntity
  8
ASSI
100
AcDbPolyline
 62
253
  6
CONTINUOUS
 90
49
 70
0
 10
13.6792619432
 20
-17.7971949822
 10
13.6673906339
 20
-17.8036329998
 10
13.655182372
 20
-17.8098482696
 10
13.642649656
 20
-17.8158344284
 10
13.6298053166
 20
-17.8215853478
 10
13.6166625035
 20
-17.8270951402
 10
13.603234672
 20
-17.8323581648
 10
13.5895355692
 20
-17.8373690334
 10
13.5755792197
 20
-17.842122616
 10
13.5613799118
 20
-17.8466140461
 10
13.5469521824
 20
-17.8508387254
 10
13.5323108022
 20
-17.8547923288
 10
13.5174707606
 20
-17.8584708087
 10
13.5024472505
 20
-17.8618703992
 10
13.4872556527
 20
-17.8649876199
 10
13.4719115197
 20
-17.8678192794
 10
13.4564305606
 20
-17.8703624788
 10
13.4408286245
 20
-17.8726146143
 10
13.425121684
 20
-17.8745733804
 10
13.4093258196
 20
-17.8762367717
 10
13.3934572028
 20
-17.8776030853
 10
13.3775320793
 20
-17.8786709222
 10
13.3615667528
 20
-17.8794391895
 10
13.3455775684
 20
-17.8799071004
 10
13.3295808953
 20
-17.880074176
 10
13.3135931104
 20
-17.8799402452
 10
13.2976305817
 20
-17.8795054451
 10
13.2817096511
 20
-17.8787702209
 10
13.2658466182
 20
-17.8777353253
 10
13.250057723
 20
-17.8764018177
 10
13.2343591299
 20
-17.8747710635
 10
13.2187669106
 20
-17.872844732
 10
13.203297028
 20
-17.8706247954
 10
13.1879653199
 20
-17.8681135266
 10
13.1727874824
 20
-17.8653134963
 10
13.1577790542
 20
-17.8622275712
 10
13.1429554005
 20
-17.8588589107
 10
13.1283316974
 20
-17.8552109634
 10
13.1139229164
 20
-17.851287464
 10
13.0997438086
 20
-17.8470924294
 10
13.0858088903
 20
-17.8426301542
 10
13.0721324278
 20
-17.8379052068
 10
13.0587284226
 20
-17.8329224246
 10
13.0456105974
 20
-17.8276869087
 10
13.0327923819
 20
-17.8222040192
 10
13.020286899
 20
-17.8164793692
 10
13.0081069516
 20
-17.8105188196
 10
12.9962650091
 20
-17.8043284725
 10
12.984773195
 20
-17.7979146656
  0
LINE
  5
2D9
100
AcDbEntity
  8
ASSI
100
AcDbLine
 62
7
  6
CONTINUOUS
 10
-9.2908072457
 20
24.8825086961
 11
-9.9635140665
 21
24.7526262123
  0
LWPOLYLINE
  5
2DA
100
AcDbEntity
  8
ASSI
100
AcDbPolyline
 62
253
  6
CONTINUOUS
 90
49
 70
0
 10
14.39936976
 20
-26.9151097917
 10
14.3876242521
 20
-26.9231803964
 10
14.3755414943
 20
-26.9310264696
 10
14.3631338629
 20
-26.9386399746
 10
14.3504140667
 20
-26.9460131132
 10
14.3373951346
 20
-26.953138333
 10
14.3240904016
 20
-26.9600083358
 10
14.3105134955
 20
-26.9666160848
 10
14.296678323
 20
-26.9729548117
 10
14.2825990553
 20
-26.9790180239
 10
14.2682901135
 20
-26.9847995109
 10
14.2537661541
 20
-26.9902933509
 10
14.2390420539
 20
-26.9954939165
 10
14.2241328944
 20
-27.0003958808
 10
14.2090539469
 20
-27.004994223
 10
14.1938206566
 20
-27.0092842329
 10
14.1784486267
 20
-27.0132615164
 10
14.1629536026
 20
-27.0169219995
 10
14.1473514555
 20
-27.020261933
 10
14.1316581667
 20
-27.0232778957
 10
14.1158898104
 20
-27.0259667985
 10
14.100062538
 20
-27.0283258871
 10
14.0841925611
 20
-27.0303527452
 10
14.0682961351
 20
-27.0320452967
 10
14.0523895426
 20
-27.0334018079
 10
14.0364890764
 20
-27.0344208893
 10
14.020611023
 20
-27.0351014973
 10
14.0047716463
 20
-27.0354429345
 10
13.9889871703
 20
-27.0354448513
 10
13.9732737626
 20
-27.0351072456
 10
13.9576475185
 20
-27.0344304635
 10
13.9421244436
 20
-27.0334151979
 10
13.926720438
 20
-27.0320624889
 10
13.9114512797
 20
-27.030373722
 10
13.8963326089
 20
-27.028350627
 10
13.8813799112
 20
-27.0259952762
 10
13.8666085026
 20
-27.023310082
 10
13.8520335132
 20
-27.0202977949
 10
13.837669872
 20
-27.0169615003
 10
13.8235322914
 20
-27.0133046156
 10
13.8096352523
 20
-27.0093308864
 10
13.7959929893
 20
-27.005044383
 10
13.782619476
 20
-27.000449496
 10
13.7695284107
 20
-26.9955509318
 10
13.7567332024
 20
-26.990353708
 10
13.7442469569
 20
-26.9848631481
 10
13.7320824638
 20
-26.9790848758
 10
13.7202521831
 20
-26.97302481
 10
13.7087682323
 20
-26.9666891576
  0
LINE
  5
2DB
100
AcDbEntity
  8
ASSI
100
AcDbLine
 62
253
  6
CONTINUOUS
 10
14.7420307943
 20
-27.0774284538
 11
16.8801083536
 21
-26.0512558822
  0
LINE
  5
2DC
100
AcDbEntity
  8
ASSI
100
AcDbLine
 62
7
  6
CONTINUOUS
 10
14.6173792149
 20
-27.3170613594
 11
16.7419132751
 21
-26.2973890044
  0
ELLIPSE
  5
2DD
100
AcDbEntity
  8
ASSI
100
AcDbEllipse
 62
7
  6
CONTINUOUS
 10
17.2545197659
 20
-8.2118874155
 30
0.0
 11
-0.1251346745
 21
0.2164781009
 31
0.0
 40
0.577507303
 41
-2.3566621664
 42
-0.7861703913
  0
ELLIPSE
  5
2DE
100
AcDbEntity
  8
ASSI
100
AcDbEllipse
 62
7
  6
CONTINUOUS
 10
16.5263977396
 20
-25.8462195176
 30
0.0
 11
-0.2149783503
 21
0.4514263066
 31
0.0
 40
0.6262155472
 41
-3.1396910161
 42
-2.3109372224
  0
ELLIPSE
  5
2DF
100
AcDbEntity
  8
0
100
AcDbEllipse
 62
253
  6
CONTINUOUS
 10
53.1081922926
 20
33.9076509451
 30
0.0
 11
45.10898286
 21
77.8793286131
 31
0.0
 40
0.5764156768
 41
-3.8718003809
 42
-3.8564397474
  0
ELLIPSE
  5
2E0
100
AcDbEntity
  8
0
100
AcDbEllipse
 62
253
  6
CONTINUOUS
 10
52.8247021834
 20
34.0713345812
 30
0.0
 11
44.6069244799
 21
78.1687931187
 31
0.0
 40
0.5806816307
 41
-3.8854914261
 42
-3.8599867774
  0
ELLIPSE
  5
2E1
100
AcDbEntity
  8
0
100
AcDbEllipse
 62
253
  6
CONTINUOUS
 10
406.8677522967
 20
-170.3486853526
 30
0.0
 11
6512.206290521
 21
-3686.2187473245
 31
0.0
 40
0.0084626717
 41
-1.6301305947
 42
-1.6299582639
  0
ELLIPSE
  5
2E2
100
AcDbEntity
  8
0
100
AcDbEllipse
 62
253
  6
CONTINUOUS
 10
53.0893544778
 20
33.9185276633
 30
0.0
 11
44.7186368651
 21
78.1045109671
 31
0.0
 40
0.5797411229
 41
-3.884656423
 42
-3.8788384809
  0
ELLIPSE
  5
2E3
100
AcDbEntity
  8
0
100
AcDbEllipse
 62
253
  6
CONTINUOUS
 10
54.9512764758
 20
32.843477237
 30
0.0
 11
45.1072630453
 21
77.880322647
 31
0.0
 40
0.5764304623
 41
-3.8718130833
 42
-3.8564524497
  0
ELLIPSE
  5
2E4
100
AcDbEntity
  8
0
100
AcDbEllipse
 62
253
  6
CONTINUOUS
 10
408.7188001493
 20
-171.4174571836
 30
0.0
 11
6512.3512502285
 21
-3686.3024535106
 31
0.0
 40
0.0084624833
 41
-1.6301304816
 42
-1.6299581508
  0
ELLIPSE
  5
2E5
100
AcDbEntity
  8
0
100
AcDbEllipse
 62
253
  6
CONTINUOUS
 10
54.6678997052
 20
33.0070954328
 30
0.0
 11
44.6069244799
 21
78.1687931187
 31
0.0
 40
0.5806816307
 41
-3.8854914261
 42
-3.8599867774
  0
ELLIPSE
  5
2E6
100
AcDbEntity
  8
0
100
AcDbEllipse
 62
253
  6
CONTINUOUS
 10
54.9327424968
 20
32.8541785242
 30
0.0
 11
44.7232305729
 21
78.1018660683
 31
0.0
 40
0.5797023421
 41
-3.8846221392
 42
-3.8788041972
  0
ELLIPSE
  5
2E7
100
AcDbEntity
  8
0
100
AcDbEllipse
 62
253
  6
CONTINUOUS
 10
33.6197184613
 20
45.1600514874
 30
0.0
 11
478.9102027219
 21
-346.1666884239
 31
0.0
 40
0.1136317975
 41
-1.5836786398
 42
-1.5835546858
  0
ELLIPSE
  5
2E8
100
AcDbEntity
  8
0
100
AcDbEllipse
 62
253
  6
CONTINUOUS
 10
36.1910414008
 20
43.6754018483
 30
0.0
 11
461.1460485984
 21
-335.8008498348
 31
0.0
 40
0.1179018002
 41
-1.5890937261
 42
-1.5890109713
  0
ELLIPSE
  5
2E9
100
AcDbEntity
  8
0
100
AcDbEllipse
 62
253
  6
CONTINUOUS
 10
69.4222355842
 20
24.4881268115
 30
0.0
 11
480.0080405775
 21
-197.59196688
 31
0.0
 40
0.1125472862
 41
-1.6954471755
 42
-1.6953232216
  0
ELLIPSE
  5
2EA
100
AcDbEntity
  8
0
100
AcDbEllipse
 62
253
  6
CONTINUOUS
 10
32.7577122144
 20
45.6577630909
 30
0.0
 11
561.7705054385
 21
-394.4513341259
 31
0.0
 40
0.0971850406
 41
-1.5820407012
 42
-1.5819336303
  0
ELLIPSE
  5
2EB
100
AcDbEntity
  8
0
100
AcDbEllipse
 62
253
  6
CONTINUOUS
 10
66.8609385415
 20
25.9669876234
 30
0.0
 11
462.6264361547
 21
-187.2786657529
 31
0.0
 40
0.116568257
 41
-1.6955624085
 42
-1.6954796538
  0
ELLIPSE
  5
2EC
100
AcDbEntity
  8
0
100
AcDbEllipse
 62
253
  6
CONTINUOUS
 10
70.3553197368
 20
23.9493757161
 30
0.0
 11
564.6589487704
 21
-247.5391834091
 31
0.0
 40
0.0962677638
 41
-1.6754547182
 42
-1.6753476473
  0
ELLIPSE
  5
2ED
100
AcDbEntity
  8
0
100
AcDbEllipse
 62
253
  6
CONTINUOUS
 10
18.7173281878
 20
53.7645048605
 30
0.0
 11
463.6208302766
 21
-337.2452874521
 31
0.0
 40
0.1172879889
 41
-1.552284524
 42
-1.5522020034
  0
ELLIPSE
  5
2EE
100
AcDbEntity
  8
0
100
AcDbEllipse
 62
253
  6
CONTINUOUS
 10
84.3032235784
 20
15.8960308463
 30
0.0
 11
464.4900643018
 21
-188.3856121967
 31
0.0
 40
0.1161240118
 41
-1.7317058033
 42
-1.7316232827
  0
ELLIPSE
  5
2EF
100
AcDbEntity
  8
ASSI
100
AcDbEllipse
 62
7
  6
CONTINUOUS
 10
-14.3365373649
 20
27.4245256232
 30
0.0
 11
-0.2807337341
 21
0.4137505634
 31
0.0
 40
0.5254492115
 41
-0.8261225424
 42
0.0012090728
  0
ELLIPSE
  5
2F0
100
AcDbEntity
  8
ASSI
100
AcDbEllipse
 62
7
  6
CONTINUOUS
 10
17.2545197659
 20
-7.6403426768
 30
0.0
 11
-0.1251726487
 21
0.2165441215
 31
0.0
 40
0.5771556487
 41
-3.163409671
 42
-2.3569659634
  0
ELLIPSE
  5
2F1
100
AcDbEntity
  8
ASSI
100
AcDbEllipse
 62
7
  6
CONTINUOUS
 10
13.8142206504
 20
11.1095940498
 30
0.0
 11
0.1999154856
 21
0.0095814127
 31
0.0
 40
0.6067642562
 41
-2.385266879
 42
-1.3380693278
  0
ELLIPSE
  5
2F2
100
AcDbEntity
  8
ASSI
100
AcDbEllipse
 62
7
  6
CONTINUOUS
 10
5.8946247011
 20
15.6822694951
 30
0.0
 11
0.1999154856
 21
0.0095814127
 31
0.0
 40
0.6067642562
 41
-2.385266879
 42
-1.3380693278
  0
ELLIPSE
  5
2F3
100
AcDbEntity
  8
ASSI
100
AcDbEllipse
 62
7
  6
CONTINUOUS
 10
-2.0956819263
 20
20.2957723997
 30
0.0
 11
0.1999154856
 21
0.0095814127
 31
0.0
 40
0.6067642562
 41
-2.385266879
 42
-1.3380693278
  0
ELLIPSE
  5
2F4
100
AcDbEntity
  8
ASSI
100
AcDbEllipse
 62
7
  6
CONTINUOUS
 10
-10.0152778756
 20
24.868447845
 30
0.0
 11
0.1999154856
 21
0.0095814127
 31
0.0
 40
0.6067642562
 41
-2.385266879
 42
-1.3380693278
  0
ELLIPSE
  5
2F5
100
AcDbEntity
  8
ASSI
100
AcDbEllipse
 62
7
  6
CONTINUOUS
 10
16.5263977396
 20
9.6046536973
 30
0.0
 11
-0.2810161013
 21
0.4142924366
 31
0.0
 40
0.524175859
 41
-2.3937039903
 42
-0.8247341631
  0
ELLIPSE
  5
2F6
100
AcDbEntity
  8
ASSI
100
AcDbEllipse
 62
7
  6
CONTINUOUS
 10
3.5123396051
 20
17.0577710525
 30
0.0
 11
0.1999154856
 21
0.0095814127
 31
0.0
 40
0.6067642562
 41
2.850720877
 42
3.8979184282
  0
ELLIPSE
  5
2F7
100
AcDbEntity
  8
ASSI
100
AcDbEllipse
 62
7
  6
CONTINUOUS
 10
11.4319355543
 20
12.4850956073
 30
0.0
 11
0.1999154856
 21
0.0095814127
 31
0.0
 40
0.6067642562
 41
2.850720877
 42
3.8979184282
  0
ELLIPSE
  5
2F8
100
AcDbEntity
  8
ASSI
100
AcDbEllipse
 62
7
  6
CONTINUOUS
 10
-4.4779670224
 20
21.6712739571
 30
0.0
 11
0.1999154856
 21
0.0095814127
 31
0.0
 40
0.6067642562
 41
2.850720877
 42
3.8979184282
  0
ELLIPSE
  5
2F9
100
AcDbEntity
  8
ASSI
100
AcDbEllipse
 62
7
  6
CONTINUOUS
 10
-12.3975629716
 20
26.2439494024
 30
0.0
 11
0.1999154856
 21
0.0095814127
 31
0.0
 40
0.6067642562
 41
2.850720877
 42
3.8979184282
  0
ELLIPSE
  5
2FA
100
AcDbEntity
  8
0
100
AcDbEllipse
 62
253
  6
CONTINUOUS
 10
68.3964593512
 20
37.8010040649
 30
0.0
 11
486.6909560182
 21
-350.7052246302
 31
0.0
 40
0.1118565093
 41
-1.6553420135
 42
-1.6552631803
  0
ELLIPSE
  5
2FB
100
AcDbEntity
  8
0
100
AcDbEllipse
 62
253
  6
CONTINUOUS
 10
35.8909234591
 20
56.569293099
 30
0.0
 11
485.2434898854
 21
-200.6938391956
 31
0.0
 40
0.1113879005
 41
-1.6219612668
 42
-1.6218824336
  0
ELLIPSE
  5
2FC
100
AcDbEntity
  8
0
100
AcDbEllipse
 62
253
  6
CONTINUOUS
 10
53.4727451133
 20
46.4177696278
 30
0.0
 11
44.6406854636
 21
78.1493739008
 31
0.0
 40
0.5803979196
 41
-3.9994645635
 42
-3.9645228267
  0
ELLIPSE
  5
2FD
100
AcDbEntity
  8
0
100
AcDbEllipse
 62
253
  6
CONTINUOUS
 10
56.0811020059
 20
44.9117370484
 30
0.0
 11
-23.4307710924
 21
100.6141494906
 31
0.0
 40
0.6956695825
 41
-4.567645087
 42
-4.5391843895
  0
ELLIPSE
  5
2FE
100
AcDbEntity
  8
0
100
AcDbEllipse
 62
253
  6
CONTINUOUS
 10
56.3717764931
 20
44.7439052425
 30
0.0
 11
-23.4127133494
 21
100.6109979606
 31
0.0
 40
0.6957021688
 41
-4.5741324166
 42
-4.545654763
  0
ELLIPSE
  5
2FF
100
AcDbEntity
  8
0
100
AcDbEllipse
 62
253
  6
CONTINUOUS
 10
55.0904759345
 20
45.4837121266
 30
0.0
 11
44.6399183818
 21
78.1498151983
 31
0.0
 40
0.5804043709
 41
-3.9998019398
 42
-3.9648595942
  0
ELLIPSE
  5
300
100
AcDbEntity
  8
0
100
AcDbEllipse
 62
253
  6
CONTINUOUS
 10
84.8154954824
 20
28.3208583816
 30
0.0
 11
489.3769823691
 21
-352.2717549694
 31
0.0
 40
0.1112563467
 41
-1.6877352127
 42
-1.6876142145
  0
ELLIPSE
  5
301
100
AcDbEntity
  8
0
100
AcDbEllipse
 62
253
  6
CONTINUOUS
 10
91.8380575157
 20
24.2661190769
 30
0.0
 11
559.9178603125
 21
-393.3728125445
 31
0.0
 40
0.0975009456
 41
-1.6870225314
 42
-1.6869152524
  0
ELLIPSE
  5
302
100
AcDbEntity
  8
0
100
AcDbEllipse
 62
253
  6
CONTINUOUS
 10
86.2622419478
 20
27.4855251045
 30
0.0
 11
481.4812704207
 21
-347.6665136198
 31
0.0
 40
0.1130390303
 41
-1.6923488539
 42
-1.6922694759
  0
ELLIPSE
  5
303
100
AcDbEntity
  8
0
100
AcDbEllipse
 62
253
  6
CONTINUOUS
 10
17.7375751673
 20
67.0508088877
 30
0.0
 11
485.3786952071
 21
-200.7739184919
 31
0.0
 40
0.1113582639
 41
-1.5853231171
 42
-1.585243739
  0
ELLIPSE
  5
304
100
AcDbEntity
  8
0
100
AcDbEllipse
 62
253
  6
CONTINUOUS
 10
12.3629698086
 20
70.1540386623
 30
0.0
 11
560.7205594518
 21
-245.2236590999
 31
0.0
 40
0.0969226647
 41
-1.5711982916
 42
-1.5710910126
  0
ELLIPSE
  5
305
100
AcDbEntity
  8
0
100
AcDbEllipse
 62
253
  6
CONTINUOUS
 10
19.4955498371
 20
66.035776346
 30
0.0
 11
488.7904238356
 21
-202.7941823435
 31
0.0
 40
0.1106154206
 41
-1.5886251319
 42
-1.5885041336
  0
ENDSEC
  0
SECTION
  2
OBJECTS
  0
DICTIONARY
  5
C
100
AcDbDictionary
280
0
281
1
  3
ACAD_GROUP
350
D
  3
ACAD_MLINESTYLE
350
17
  3
ACAD_LAYOUT
350
1A
  3
ACAD_PLOTSETTINGS
350
19
  3
ACAD_PLOTSTYLENAME
350
E
  0
DICTIONARY
  5
D
102
{ACAD_REACTORS
330
C
102
}
100
AcDbDictionary
280
0
281
1
  0
ACDBDICTIONARYWDFLT
  5
E
102
{ACAD_REACTORS
330
C
102
}
100
AcDbDictionary
281
1
  3
Normal
350
F
100
AcDbDictionaryWithDefault
340
F
  0
DICTIONARY
  5
17
102
{ACAD_REACTORS
330
C
102
}
100
AcDbDictionary
280
0
281
1
  3
Standard
350
18
  0
DICTIONARY
  5
19
102
{ACAD_REACTORS
330
C
102
}
100
AcDbDictionary
281
1
  0
DICTIONARY
  5
1A
102
{ACAD_REACTORS
330
C
102
}
100
AcDbDictionary
281
1
  3
Model
350
306
  3
Layout1
350
307
  0
ACDBPLACEHOLDER
  5
F
102
{ACAD_REACTORS
330
E
102
}
  0
MLINESTYLE
  5
18
102
{ACAD_REACTORS
330
17
102
}
100
AcDbMlineStyle
  2
STANDARD
 70
0
  3

 62
256
 51
90.0
 52
90.0
 71
2
 49
0.5
 62
256
  6
BYLAYER
 49
-0.5
 62
256
  6
BYLAYER
  0
LAYOUT
  5
306
102
{ACAD_REACTORS
330
1A
102
}
100
AcDbPlotSettings
  1

  2
none_device
  4
ISO_A4_(297.00_x_210.00_MM)
  6

 40
0.0
 41
0.0
 42
0.0
 43
0.0
 44
297.0
 45
210.0
 46
0.0
 47
0.0
 48
0.0
 49
0.0
140
0.0
141
0.0
142
1.0
143
1.0
 70
1024
 72
1
 73
0
 74
0
  7

 75
0
147
1.0
148
0.0
149
0.0
100
AcDbLayout
  1
Model
 70
0
 71
0
 10
0.0
 20
0.0
 11
297.0
 21
210.0
 12
0.0
 22
0.0
 32
0.0
 14
0.0
 24
0.0
 34
0.0
 15
0.0
 25
0.0
 35
0.0
146
0.0
 13
0.0
 23
0.0
 33
0.0
 16
1.0
 26
0.0
 36
0.0
 17
0.0
 27
1.0
 37
0.0
 76
0
330
219
345
0
346
0
  0
LAYOUT
  5
307
102
{ACAD_REACTORS
330
1A
102
}
100
AcDbPlotSettings
  1

  2
none_device
  4
ISO_A4_(297.00_x_210.00_MM)
  6

 40
0.0
 41
0.0
 42
0.0
 43
0.0
 44
297.0
 45
210.0
 46
0.0
 47
0.0
 48
0.0
 49
0.0
140
0.0
141
0.0
142
1.0
143
1.0
 70
0
 72
1
 73
0
 74
0
  7

 75
0
147
1.0
148
0.0
149
0.0
100
AcDbLayout
  1
Layout1
 70
0
 71
1
 10
0.0
 20
0.0
 11
297.0
 21
210.0
 12
0.0
 22
0.0
 32
0.0
 14
0.0
 24
0.0
 34
0.0
 15
0.0
 25
0.0
 35
0.0
146
0.0
 13
0.0
 23
0.0
 33
0.0
 16
1.0
 26
0.0
 36
0.0
 17
0.0
 27
1.0
 37
0.0
 76
0
330
21A
345
0
346
0
  0
ENDSEC
  0
EOF
