  0
SECTION
  2
HEADER
  9
$ACADVER
  1
AC1021
  9
$DWGCODEPAGE
  3
ANSI_1252
  9
$EXTMAX
 10
297.0
 20
210.0
 30
0.0
  9
$EXTMIN
 10
0.0
 20
0.0
 30
0.0
  9
$LIMMIN
 10
0.0
 20
0.0
  9
$LIMMAX
 10
297.0
 20
210.0
  9
$VIEWCTR
 10
148.5
 20
105.0
  9
$VIEWSIZE
 40
210.0
  9
$CLAYER
  8
0
  9
$LTSCALE
 40
16.335
  9
$CELTYPE
  6
BYLAYER
  9
$DIMSCALE
 40
1.0
  9
$DIMASZ
 40
3.0
  9
$DIMEXO
 40
0.5
  9
$DIMDLI
 40
11.286
  9
$DIMEXE
 40
1.5
  9
$DIMCEN
 40
2.673
  9
$DIMLFAC
 40
1.0
  9
$DIMBLK
  1
_FILLED
  9
$DIMALT
 70
0
  9
$DIMALTF
 40
25.4
  9
$DIMTXT
 40
3.0
  9
$DIMTOL
 70
1
  9
$DIMLIM
 70
0
  9
$DIMTFAC
 40
1.0
  9
$DIMTP
 40
0.01
  9
$DIMTM
 40
0.01
  9
$DIMGAP
 40
0.625
  9
$DIMDSEP
 70
44
  9
$AUNITS
 70
0
  9
$PDMODE
 70
3
  9
$PDSIZE
 40
3.0
  9
$HANDSEED
  5
2C8
  9
$TILEMODE
 70
1
  9
$MEASUREMENT
 70
1
  9
$INSUNITS
 70
4
  0
ENDSEC
  0
SECTION
  2
CLASSES
  0
CLASS
  1
ACDBDICTIONARYWDFLT
  2
AcDbDictionaryWithDefault
  3
AutoCAD 2000
 90
0
 91
1
280
0
281
0
  0
CLASS
  1
ACDBPLACEHOLDER
  2
AcDbPlaceHolder
  3
AutoCAD 2000
 90
0
 91
1
280
0
281
0
  0
CLASS
  1
LAYOUT
  2
AcDbLayout
  3
AutoCAD 2000
 90
0
 91
0
280
0
281
0
  0
ENDSEC
  0
SECTION
  2
TABLES
  0
TABLE
  2
VPORT
  5
8
100
AcDbSymbolTable
 70
2
  0
VPORT
  5
1F4
100
AcDbSymbolTableRecord
100
AcDbViewportTableRecord
  2
*ACTIVE
 70
0
 10
0.0
 20
0.0
 11
1.0
 21
1.0
 12
148.5
 22
105.0
 13
0.0
 23
0.0
 14
1.0
 24
1.0
 15
0.0
 25
0.0
 16
0.0
 26
0.0
 36
1.0
 17
0.0
 27
0.0
 37
0.0
 40
210.0
 41
1.4142857143
 42
50.0
 43
0.0
 44
0.0
 50
0.0
 51
0.0
 71
0
 72
100
 73
1
 74
1
 75
0
 76
0
 77
0
 78
0
  0
ENDTAB
  0
TABLE
  2
LTYPE
  5
5
100
AcDbSymbolTable
 70
6
  0
LTYPE
  5
14
100
AcDbSymbolTableRecord
100
AcDbLinetypeTableRecord
  2
BYBLOCK
 70
0
  3

 72
65
 73
0
 40
0.0
  0
LTYPE
  5
15
100
AcDbSymbolTableRecord
100
AcDbLinetypeTableRecord
  2
BYLAYER
 70
0
  3

 72
65
 73
0
 40
0.0
  0
LTYPE
  5
16
100
AcDbSymbolTableRecord
100
AcDbLinetypeTableRecord
  2
CONTINUOUS
 70
64
  3
Solid line
 72
65
 73
0
 40
0.0
  0
LTYPE
  5
1F5
100
AcDbSymbolTableRecord
100
AcDbLinetypeTableRecord
  2
CENTER
 70
64
  3
____ _ ____ _ ____ _ ____ _ ____ _ ____ _ ____
 72
65
 73
4
 40
0.6
 49
0.375
 74
0
 49
-0.075
 74
0
 49
0.075
 74
0
 49
-0.075
 74
0
  0
LTYPE
  5
1F6
100
AcDbSymbolTableRecord
100
AcDbLinetypeTableRecord
  2
HIDDEN
 70
64
  3
- - - - - - - - - - - - - - - - - - - -
 72
65
 73
2
 40
0.2
 49
0.1
 74
0
 49
-0.1
 74
0
  0
LTYPE
  5
1F7
100
AcDbSymbolTableRecord
100
AcDbLinetypeTableRecord
  2
PHANTOM
 70
64
  3
_____ _ _ _____ _ _ _____ _ _ _____
 72
65
 73
6
 40
0.8
 49
0.45
 74
0
 49
-0.05
 74
0
 49
0.1
 74
0
 49
-0.05
 74
0
 49
0.1
 74
0
 49
-0.05
 74
0
  0
LTYPE
  5
1F8
100
AcDbSymbolTableRecord
100
AcDbLinetypeTableRecord
  2
DOT
 70
64
  3
. . . . . . . . . . . . . . . . . . . .
 72
65
 73
2
 40
0.2
 49
0.1
 74
0
 49
-0.1
 74
0
  0
LTYPE
  5
1F9
100
AcDbSymbolTableRecord
100
AcDbLinetypeTableRecord
  2
DASHED
 70
64
  3
- - - - - - - - - - - - - - - - - - - -
 72
65
 73
2
 40
0.2
 49
0.1
 74
0
 49
-0.1
 74
0
  0
ENDTAB
  0
TABLE
  2
LAYER
  5
2
100
AcDbSymbolTable
 70
36
  0
LAYER
  5
10
100
AcDbSymbolTableRecord
100
AcDbLayerTableRecord
  2
0
 70
0
 62
7
  6
CONTINUOUS
370
-3
390
F
  0
LAYER
  5
1FA
100
AcDbSymbolTableRecord
100
AcDbLayerTableRecord
  2
DEFAULT_1
 70
0
 62
7
  6
CENTER
370
-3
390
F
  0
LAYER
  5
1FB
100
AcDbSymbolTableRecord
100
AcDbLayerTableRecord
  2
DEFAULT_2
 70
0
 62
7
  6
HIDDEN
370
-3
390
F
  0
LAYER
  5
1FC
100
AcDbSymbolTableRecord
100
AcDbLayerTableRecord
  2
DEFAULT_3
 70
0
 62
7
  6
PHANTOM
370
-3
390
F
  0
LAYER
  5
1FD
100
AcDbSymbolTableRecord
100
AcDbLayerTableRecord
  2
ASSI
 70
0
 62
7
  6
CONTINUOUS
370
-3
390
F
  0
LAYER
  5
1FE
100
AcDbSymbolTableRecord
100
AcDbLayerTableRecord
  2
COLOR9
 70
0
 62
7
  6
CONTINUOUS
370
-3
390
F
  0
LAYER
  5
1FF
100
AcDbSymbolTableRecord
100
AcDbLayerTableRecord
  2
COORDINATE
 70
0
 62
7
  6
CONTINUOUS
370
-3
390
F
  0
LAYER
  5
200
100
AcDbSymbolTableRecord
100
AcDbLayerTableRecord
  2
COORD_ORIGINE
 70
0
 62
7
  6
CONTINUOUS
370
-3
390
F
  0
LAYER
  5
201
100
AcDbSymbolTableRecord
100
AcDbLayerTableRecord
  2
COPY_PUBLISH
 70
0
 62
7
  6
CONTINUOUS
370
-3
390
F
  0
LAYER
  5
202
100
AcDbSymbolTableRecord
100
AcDbLayerTableRecord
  2
COSMETICI
 70
0
 62
7
  6
CONTINUOUS
370
-3
390
F
  0
LAYER
  5
203
100
AcDbSymbolTableRecord
100
AcDbLayerTableRecord
  2
CURVE
 70
0
 62
7
  6
CONTINUOUS
370
-3
390
F
  0
LAYER
  5
204
100
AcDbSymbolTableRecord
100
AcDbLayerTableRecord
  2
DRAFT
 70
0
 62
7
  6
CONTINUOUS
370
-3
390
F
  0
LAYER
  5
205
100
AcDbSymbolTableRecord
100
AcDbLayerTableRecord
  2
IGES
 70
0
 62
7
  6
CONTINUOUS
370
-3
390
F
  0
LAYER
  5
206
100
AcDbSymbolTableRecord
100
AcDbLayerTableRecord
  2
IGS_SCRITTE
 70
0
 62
7
  6
CONTINUOUS
370
-3
390
F
  0
LAYER
  5
207
100
AcDbSymbolTableRecord
100
AcDbLayerTableRecord
  2
IMPORT_IGES
 70
0
 62
7
  6
CONTINUOUS
370
-3
390
F
  0
LAYER
  5
208
100
AcDbSymbolTableRecord
100
AcDbLayerTableRecord
  2
INTF_YELLOW
 70
0
 62
7
  6
CONTINUOUS
370
-3
390
F
  0
LAYER
  5
209
100
AcDbSymbolTableRecord
100
AcDbLayerTableRecord
  2
LIVELLO_1
 70
0
 62
7
  6
CONTINUOUS
370
-3
390
F
  0
LAYER
  5
20A
100
AcDbSymbolTableRecord
100
AcDbLayerTableRecord
  2
NOTE
 70
0
 62
7
  6
CONTINUOUS
370
-3
390
F
  0
LAYER
  5
20B
100
AcDbSymbolTableRecord
100
AcDbLayerTableRecord
  2
PIANI
 70
0
 62
7
  6
CONTINUOUS
370
-3
390
F
  0
LAYER
  5
20C
100
AcDbSymbolTableRecord
100
AcDbLayerTableRecord
  2
PIANI_ORIGINE
 70
0
 62
7
  6
CONTINUOUS
370
-3
390
F
  0
LAYER
  5
20D
100
AcDbSymbolTableRecord
100
AcDbLayerTableRecord
  2
PIANI_RIFERIMENTO
 70
0
 62
7
  6
CONTINUOUS
370
-3
390
F
  0
LAYER
  5
20E
100
AcDbSymbolTableRecord
100
AcDbLayerTableRecord
  2
PUNTI
 70
0
 62
7
  6
CONTINUOUS
370
-3
390
F
  0
LAYER
  5
20F
100
AcDbSymbolTableRecord
100
AcDbLayerTableRecord
  2
RACCORDO
 70
0
 62
7
  6
CONTINUOUS
370
-3
390
F
  0
LAYER
  5
210
100
AcDbSymbolTableRecord
100
AcDbLayerTableRecord
  2
SIMBOLI
 70
0
 62
7
  6
CONTINUOUS
370
-3
390
F
  0
LAYER
  5
211
100
AcDbSymbolTableRecord
100
AcDbLayerTableRecord
  2
SMUSSO
 70
0
 62
7
  6
CONTINUOUS
370
-3
390
F
  0
LAYER
  5
212
100
AcDbSymbolTableRecord
100
AcDbLayerTableRecord
  2
SNAPLINE
 70
0
 62
7
  6
CONTINUOUS
370
-3
390
F
  0
LAYER
  5
213
100
AcDbSymbolTableRecord
100
AcDbLayerTableRecord
  2
SOLIDO
 70
0
 62
7
  6
CONTINUOUS
370
-3
390
F
  0
LAYER
  5
214
100
AcDbSymbolTableRecord
100
AcDbLayerTableRecord
  2
SUPERFICI
 70
0
 62
7
  6
CONTINUOUS
370
-3
390
F
  0
LAYER
  5
215
100
AcDbSymbolTableRecord
100
AcDbLayerTableRecord
  2
TRASH
 70
0
 62
7
  6
CONTINUOUS
370
-3
390
F
  0
LAYER
  5
216
100
AcDbSymbolTableRecord
100
AcDbLayerTableRecord
  2
WHITE
 70
0
 62
7
  6
CONTINUOUS
370
-3
390
F
  0
ENDTAB
  0
TABLE
  2
STYLE
  5
3
100
AcDbSymbolTable
 70
1
  0
STYLE
  5
11
100
AcDbSymbolTableRecord
100
AcDbTextStyleTableRecord
  2
STANDARD
 70
0
 40
0.0
 41
0.8
 50
0.0
 71
0
 42
0.2
  3
txt
  4

  0
STYLE
  5
217
100
AcDbSymbolTableRecord
100
AcDbTextStyleTableRecord
  2
TEXTSTYLE_1
 70
0
 40
0.0
 41
0.8
 50
0.0
 71
0
 42
0.2
  3
gdt
  4

  0
ENDTAB
  0
TABLE
  2
VIEW
  5
6
100
AcDbSymbolTable
 70
0
  0
ENDTAB
  0
TABLE
  2
UCS
  5
7
100
AcDbSymbolTable
 70
0
  0
ENDTAB
  0
TABLE
  2
APPID
  5
9
100
AcDbSymbolTable
 70
1
  0
APPID
  5
218
100
AcDbSymbolTableRecord
100
AcDbRegAppTableRecord
  2
ACAD
 70
0
  0
ENDTAB
  0
TABLE
  2
BLOCK_RECORD
  5
1
100
AcDbSymbolTable
 70
0
  0
BLOCK_RECORD
  5
219
100
AcDbSymbolTableRecord
100
AcDbBlockTableRecord
  2
*Model_Space
  0
BLOCK_RECORD
  5
21A
100
AcDbSymbolTableRecord
100
AcDbBlockTableRecord
  2
*Paper_Space
  0
ENDTAB
  0
TABLE
  2
DIMSTYLE
  5
A
100
AcDbSymbolTable
 70
1
100
AcDbDimStyleTable
 71
0
  0
DIMSTYLE
105
21B
100
AcDbSymbolTableRecord
100
AcDbDimStyleTableRecord
  2
STANDARD
 70
0
  3

  4

 40
1.0
 41
3.0
 42
0.5
 43
0.38
 44
1.5
 45
0.0
 46
0.0
 47
0.01
 48
0.01
140
3.0
141
0.09
142
0.0
143
25.4
144
1.0
145
0.0
146
1.0
147
0.625
 71
1.0
 72
0.0
 73
0
 74
0
 75
0
 76
0
 77
1
 78
8
170
0
171
1
172
0
173
0
174
0
175
0
176
0
177
0
178
0
270
2
271
2
272
2
273
2
274
2
275
0
280
0
281
0
282
0
283
1
284
8
285
0
286
0
287
3
288
0
340
11
278
44
  0
ENDTAB
  0
ENDSEC
  0
SECTION
  2
BLOCKS
  0
BLOCK
  5
20
100
AcDbEntity
  8
0
100
AcDbBlockBegin
  2
*Model_Space
 70
0
 10
0.0
 20
0.0
 30
0.0
  3
*Model_Space
  1

  0
ENDBLK
  5
21
100
AcDbEntity
  8
0
100
AcDbBlockEnd
  0
BLOCK
  5
1C
100
AcDbEntity
  8
0
100
AcDbBlockBegin
  2
*Paper_Space
 70
0
 10
0.0
 20
0.0
 30
0.0
  3
*Paper_Space
  1

  0
ENDBLK
  5
1D
100
AcDbEntity
  8
0
100
AcDbBlockEnd
  0
ENDSEC
  0
SECTION
  2
ENTITIES
  0
LWPOLYLINE
  5
21C
100
AcDbEntity
  8
ASSI
100
AcDbPolyline
 62
7
  6
CONTINUOUS
 90
15
 70
0
 10
-16.2875148792
 20
26.4863191127
 10
-16.322414626
 20
26.4614394819
 10
-16.3834987006
 20
26.4123663084
 10
-16.4410606897
 20
26.3590709607
 10
-16.4952794587
 20
26.3017776738
 10
-16.5461329097
 20
26.2407832521
 10
-16.5933298947
 20
26.1766738381
 10
-16.6368330855
 20
26.1096938737
 10
-16.6765661431
 20
26.0400350028
 10
-16.7121598805
 20
25.9683734013
 10
-16.7435077731
 20
25.8948996776
 10
-16.7704447566
 20
25.8197893954
 10
-16.7926315687
 20
25.7436480516
 10
-16.8098555074
 20
25.6666935993
 10
-16.8221984219
 20
25.5862132943
  0
LINE
  5
21D
100
AcDbEntity
  8
ASSI
100
AcDbLine
 62
7
  6
CONTINUOUS
 10
-16.2876968056
 20
26.4861952743
 11
-14.3050727172
 21
27.8380975324
  0
LINE
  5
21E
100
AcDbEntity
  8
ASSI
100
AcDbLine
 62
253
  6
CONTINUOUS
 10
-16.0245158602
 20
26.4700845181
 11
-14.0544787676
 21
27.8134040155
  0
LWPOLYLINE
  5
21F
100
AcDbEntity
  8
ASSI
100
AcDbPolyline
 62
253
  6
CONTINUOUS
 90
27
 70
0
 10
-16.2875148931
 20
26.4863191331
 10
-16.2853063087
 20
26.4877940615
 10
-16.2774211246
 20
26.4926465883
 10
-16.2692459845
 20
26.4970508902
 10
-16.2607896223
 20
26.5010022621
 10
-16.2520610722
 20
26.5044964824
 10
-16.2430696592
 20
26.5075298183
 10
-16.2338249893
 20
26.5100990289
 10
-16.2243369387
 20
26.5122013697
 10
-16.214615644
 20
26.5138345945
 10
-16.2046714907
 20
26.5149969586
 10
-16.1945151026
 20
26.5156872201
 10
-16.1841573301
 20
26.5159046417
 10
-16.1736092388
 20
26.5156489909
 10
-16.1628820975
 20
26.514920541
 10
-16.1519873666
 20
26.5137200702
 10
-16.1409366851
 20
26.512048861
 10
-16.1297418591
 20
26.5099086988
 10
-16.1184148482
 20
26.50730187
 10
-16.1069677536
 20
26.5042311596
 10
-16.0954128046
 20
26.5006998481
 10
-16.0837623458
 20
26.4967117082
 10
-16.0720288238
 20
26.4922710006
 10
-16.060224774
 20
26.4873824693
 10
-16.048362807
 20
26.4820513371
 10
-16.0364555954
 20
26.4762832993
 10
-16.0245158602
 20
26.4700845181
  0
LINE
  5
220
100
AcDbEntity
  8
ASSI
100
AcDbLine
 62
7
  6
CONTINUOUS
 10
-16.8221675195
 20
25.5864803387
 11
-16.8221984219
 21
25.5862132943
  0
LWPOLYLINE
  5
221
100
AcDbEntity
  8
ASSI
100
AcDbPolyline
 62
253
  6
CONTINUOUS
 90
52
 70
0
 10
-16.6751512533
 20
25.3874338668
 10
-16.6721246305
 20
25.4108638159
 10
-16.6686053382
 20
25.4344849334
 10
-16.6645959593
 20
25.4582802328
 10
-16.6600995139
 20
25.4822325665
 10
-16.6551192268
 20
25.5063247556
 10
-16.6496585099
 20
25.5305396065
 10
-16.6437213441
 20
25.5548598586
 10
-16.6373120775
 20
25.5792679081
 10
-16.6304351913
 20
25.6037459401
 10
-16.6230957662
 20
25.6282763052
 10
-16.6152991417
 20
25.6528414624
 10
-16.6070506988
 20
25.6774237062
 10
-16.5983564806
 20
25.7020054409
 10
-16.5892228473
 20
25.726568979
 10
-16.5796561408
 20
25.751096483
 10
-16.5696633845
 20
25.7755703641
 10
-16.5592518802
 20
25.7999730617
 10
-16.5484288561
 20
25.8242868424
 10
-16.5372022541
 20
25.8484942857
 10
-16.525580284
 20
25.8725780246
 10
-16.5135710214
 20
25.8965205251
 10
-16.5011832894
 20
25.9203046186
 10
-16.4884261405
 20
25.9439132744
 10
-16.4753084087
 20
25.9673293395
 10
-16.4618397003
 20
25.990536078
 10
-16.4480298856
 20
26.0135168323
 10
-16.4338885811
 20
26.0362547968
 10
-16.4194261795
 20
26.0587336755
 10
-16.4046532507
 20
26.0809374
 10
-16.389580031
 20
26.1028497892
 10
-16.3742175639
 20
26.1244551901
 10
-16.3585771089
 20
26.1457381226
 10
-16.3426695442
 20
26.1666829986
 10
-16.3265065387
 20
26.1872748483
 10
-16.310099929
 20
26.2074989477
 10
-16.2934611272
 20
26.2273404626
 10
-16.2766023351
 20
26.2467852282
 10
-16.2595359055
 20
26.2658193474
 10
-16.2422737208
 20
26.2844288216
 10
-16.2248284693
 20
26.3026003451
 10
-16.2072129079
 20
26.3203209799
 10
-16.1894392237
 20
26.337577752
 10
-16.1715203963
 20
26.3543584134
 10
-16.1534696103
 20
26.3706509377
 10
-16.1352995206
 20
26.3864432046
 10
-16.1170235372
 20
26.4017238998
 10
-16.0986549746
 20
26.4164822318
 10
-16.080206461
 20
26.4307074152
 10
-16.0616912413
 20
26.4443892298
 10
-16.0431231698
 20
26.4575180413
 10
-16.0245158602
 20
26.4700845181
  0
LINE
  5
222
100
AcDbEntity
  8
ASSI
100
AcDbLine
 62
7
  6
CONTINUOUS
 10
-12.0980358526
 20
26.6837783964
 11
-12.278287102
 21
26.2695582376
  0
LWPOLYLINE
  5
223
100
AcDbEntity
  8
ASSI
100
AcDbPolyline
 62
253
  6
CONTINUOUS
 90
25
 70
0
 10
-17.4969412996
 20
0.0991844776
 10
-17.4964047763
 20
0.0897774799
 10
-17.4953570371
 20
0.0803907644
 10
-17.4937991546
 20
0.071033941
 10
-17.4917327237
 20
0.061716589
 10
-17.4891598601
 20
0.0524482471
 10
-17.4860831976
 20
0.0432384041
 10
-17.4825058863
 20
0.0340964888
 10
-17.4784315883
 20
0.0250318605
 10
-17.4738644749
 20
0.0160537992
 10
-17.4688092217
 20
0.0071714965
 10
-17.4632710043
 20
-0.0016059542
 10
-17.4572554924
 20
-0.0102695666
 10
-17.4507688446
 20
-0.0188104714
 10
-17.4438177018
 20
-0.0272199244
 10
-17.4364091803
 20
-0.0354893163
 10
-17.4285508648
 20
-0.0436101811
 10
-17.4202508005
 20
-0.0515742049
 10
-17.4115174847
 20
-0.0593732344
 10
-17.4023598585
 20
-0.066999285
 10
-17.392787297
 20
-0.0744445495
 10
-17.3828096005
 20
-0.0817014055
 10
-17.3724369839
 20
-0.0887624237
 10
-17.3616800664
 20
-0.0956203752
 10
-17.3505498606
 20
-0.102268239
  0
LWPOLYLINE
  5
224
100
AcDbEntity
  8
ASSI
100
AcDbPolyline
 62
7
  6
CONTINUOUS
 90
10
 70
0
 10
-17.49699598
 20
0.1015694639
 10
-17.4748655886
 20
-0.9050746918
 10
-17.4385077283
 20
-1.9629852677
 10
-17.388866976
 20
-3.0120436925
 10
-17.3259510336
 20
-4.0520265777
 10
-17.2497701724
 20
-5.082711686
 10
-17.1603368888
 20
-6.1038843931
 10
-17.0576667077
 20
-7.1153266313
 10
-16.9417776442
 20
-8.1168224591
 10
-16.8209431478
 20
-9.04797632
  0
LINE
  5
225
100
AcDbEntity
  8
ASSI
100
AcDbLine
 62
7
  6
CONTINUOUS
 10
-17.5199638358
 20
1.7013560338
 11
-17.496995976
 21
0.1015691993
  0
LINE
  5
226
100
AcDbEntity
  8
ASSI
100
AcDbLine
 62
7
  6
CONTINUOUS
 10
-17.5382033351
 20
3.3699773903
 11
-17.5199638358
 21
1.7013560338
  0
LINE
  5
227
100
AcDbEntity
  8
ASSI
100
AcDbLine
 62
7
  6
CONTINUOUS
 10
-17.550664455
 20
5.042241264
 11
-17.5382033351
 21
3.3699773903
  0
LWPOLYLINE
  5
228
100
AcDbEntity
  8
ASSI
100
AcDbPolyline
 62
7
  6
CONTINUOUS
 90
3
 70
0
 10
-17.5584844656
 20
7.4959637315
 10
-17.557347064
 20
6.7181211788
 10
-17.550664455
 20
5.042241264
  0
LINE
  5
229
100
AcDbEntity
  8
ASSI
100
AcDbLine
 62
7
  6
CONTINUOUS
 10
-17.5547497514
 20
9.7599813663
 11
-17.5584844664
 21
8.1445703766
  0
LINE
  5
22A
100
AcDbEntity
  8
ASSI
100
AcDbLine
 62
253
  6
CONTINUOUS
 10
-17.4120356456
 20
7.9408956096
 11
-17.4081464016
 21
9.59490124
  0
LINE
  5
22B
100
AcDbEntity
  8
ASSI
100
AcDbLine
 62
7
  6
CONTINUOUS
 10
-17.5451968286
 20
11.4458612648
 11
-17.5547497514
 21
9.7599813663
  0
LINE
  5
22C
100
AcDbEntity
  8
ASSI
100
AcDbLine
 62
253
  6
CONTINUOUS
 10
-17.4081464016
 20
9.59490124
 11
-17.3986714263
 21
11.2523139713
  0
LINE
  5
22D
100
AcDbEntity
  8
ASSI
100
AcDbLine
 62
7
  6
CONTINUOUS
 10
-17.5298657706
 20
13.1352463959
 11
-17.5451968286
 21
11.4458612648
  0
LINE
  5
22E
100
AcDbEntity
  8
ASSI
100
AcDbLine
 62
253
  6
CONTINUOUS
 10
-17.3986714263
 20
11.2523139713
 11
-17.383611189
 21
12.9131146343
  0
LINE
  5
22F
100
AcDbEntity
  8
ASSI
100
AcDbLine
 62
253
  6
CONTINUOUS
 10
-17.383611189
 20
12.9131146343
 11
-17.3629664254
 21
14.5773083001
  0
LWPOLYLINE
  5
230
100
AcDbEntity
  8
ASSI
100
AcDbPolyline
 62
7
  6
CONTINUOUS
 90
3
 70
0
 10
-17.4969984565
 20
15.6148743153
 10
-17.5087568962
 20
14.8281097082
 10
-17.5298657706
 20
13.1352463959
  0
LWPOLYLINE
  5
231
100
AcDbEntity
  8
ASSI
100
AcDbPolyline
 62
253
  6
CONTINUOUS
 90
43
 70
0
 10
-17.412037543
 20
7.2913644665
 10
-17.4119204008
 20
7.2990258952
 10
-17.4115586728
 20
7.3068182559
 10
-17.4109528596
 20
7.31473076
 10
-17.4101038002
 20
7.3227524527
 10
-17.4090126699
 20
7.3308722279
 10
-17.4076809796
 20
7.3390788437
 10
-17.4061105728
 20
7.347360938
 10
-17.4043036239
 20
7.3557070442
 10
-17.4022626345
 20
7.364105607
 10
-17.3999904305
 20
7.3725449987
 10
-17.3974901578
 20
7.3810135348
 10
-17.3947652778
 20
7.3894994906
 10
-17.3918195634
 20
7.3979911173
 10
-17.3886570928
 20
7.4064766582
 10
-17.3852822444
 20
7.414944365
 10
-17.3816996909
 20
7.4233825141
 10
-17.3779143922
 20
7.4317794228
 10
-17.3739315891
 20
7.4401234657
 10
-17.3697567958
 20
7.4484030902
 10
-17.3653957924
 20
7.4566068334
 10
-17.3608546167
 20
7.464723337
 10
-17.3561395559
 20
7.4727413637
 10
-17.3512571382
 20
7.4806498125
 10
-17.3462141231
 20
7.4884377342
 10
-17.3410174928
 20
7.4960943462
 10
-17.3356744421
 20
7.5036090481
 10
-17.3301923685
 20
7.5109714356
 10
-17.3245788618
 20
7.5181713156
 10
-17.3188416941
 20
7.5251987197
 10
-17.3129888084
 20
7.5320439185
 10
-17.3070283081
 20
7.5386974348
 10
-17.3009684456
 20
7.5451500567
 10
-17.2948176108
 20
7.5513928506
 10
-17.2885843194
 20
7.5574171733
 10
-17.2822772016
 20
7.5632146841
 10
-17.2759049896
 20
7.5687773564
 10
-17.2694765057
 20
7.5740974885
 10
-17.2630006501
 20
7.5791677149
 10
-17.2564863888
 20
7.5839810156
 10
-17.2499427408
 20
7.5885307267
 10
-17.2433787658
 20
7.592810549
 10
-17.2368035515
 20
7.5968145573
  0
LWPOLYLINE
  5
232
100
AcDbEntity
  8
ASSI
100
AcDbPolyline
 62
253
  6
CONTINUOUS
 90
22
 70
0
 10
-17.3629664254
 20
14.5773083001
 10
-17.3421007308
 20
15.8729089195
 10
-17.3312750392
 20
16.3365500719
 10
-17.3180732184
 20
16.8015725442
 10
-17.3024958218
 20
17.2679583566
 10
-17.2845434472
 20
17.7356894685
 10
-17.2642167371
 20
18.2047477797
 10
-17.2415165141
 20
18.6751151647
 10
-17.2164436769
 20
19.1467734302
 10
-17.1889991234
 20
19.6197043014
 10
-17.159183962
 20
20.0938894993
 10
-17.1269993758
 20
20.569310698
 10
-17.0924465164
 20
21.0459494828
 10
-17.0555267759
 20
21.5237874482
 10
-17.0162416224
 20
22.0028061218
 10
-16.9745924629
 20
22.4829869219
 10
-16.9305809746
 20
22.9643113024
 10
-16.8842089091
 20
23.4467606709
 10
-16.8354779262
 20
23.9303163127
 10
-16.7843899108
 20
24.4149595275
 10
-16.7309469734
 20
24.9006716297
 10
-16.6751512533
 20
25.3874338668
  0
LWPOLYLINE
  5
233
100
AcDbEntity
  8
ASSI
100
AcDbPolyline
 62
253
  6
CONTINUOUS
 90
28
 70
0
 10
-16.8221984219
 20
25.5862132943
 10
-16.8225416739
 20
25.5827613722
 10
-16.8229356421
 20
25.5750480542
 10
-16.8228201441
 20
25.5672869854
 10
-16.8221952982
 20
25.5594861151
 10
-16.8210617443
 20
25.5516534338
 10
-16.8194206437
 20
25.5437969644
 10
-16.8172736771
 20
25.5359247541
 10
-16.8146230438
 20
25.5280448663
 10
-16.8114714588
 20
25.5201653723
 10
-16.8078221501
 20
25.512294343
 10
-16.8036788557
 20
25.5044398404
 10
-16.7990458196
 20
25.4966099099
 10
-16.7939277872
 20
25.4888125716
 10
-16.7883300009
 20
25.4810558122
 10
-16.7822581945
 20
25.4733475767
 10
-16.7757185872
 20
25.4656957607
 10
-16.7687178774
 20
25.4581082018
 10
-16.7612632359
 20
25.4505926718
 10
-16.7533622983
 20
25.4431568688
 10
-16.7450231574
 20
25.4358084091
 10
-16.736254355
 20
25.4285548197
 10
-16.7270648728
 20
25.4214035304
 10
-16.7174641235
 20
25.414361866
 10
-16.7074619409
 20
25.4074370393
 10
-16.6970685701
 20
25.4006361432
 10
-16.686294657
 20
25.3939661439
 10
-16.675151237
 20
25.3874338734
  0
LWPOLYLINE
  5
234
100
AcDbEntity
  8
ASSI
100
AcDbPolyline
 62
7
  6
CONTINUOUS
 90
10
 70
0
 10
-16.8221675329
 20
25.5864803402
 10
-16.9433221595
 20
24.5025543478
 10
-17.0588855704
 20
23.3601177967
 10
-17.1612830591
 20
22.223817793
 10
-17.2504906113
 20
21.0938957848
 10
-17.3264865805
 20
19.9705941818
 10
-17.3892523706
 20
18.8541493992
 10
-17.4387718257
 20
17.7448007357
 10
-17.475031441
 20
16.642784194
 10
-17.49699846
 20
15.6148740814
  0
LWPOLYLINE
  5
235
100
AcDbEntity
  8
0
100
AcDbPolyline
 62
253
  6
CONTINUOUS
 90
54
 70
0
 10
-11.8298111635
 20
14.3778078715
 10
-11.8365243527
 20
14.3741224668
 10
-11.8430163256
 20
14.3701578204
 10
-11.8493030768
 20
14.3659104855
 10
-11.8554006012
 20
14.3613770156
 10
-11.8613214285
 20
14.3565547973
 10
-11.8670642287
 20
14.3514445521
 10
-11.8726242068
 20
14.3460478347
 10
-11.8779965678
 20
14.3403662
 10
-11.8831760155
 20
14.3344017685
 10
-11.8881552491
 20
14.3281589238
 10
-11.8929264669
 20
14.3216426151
 10
-11.897481867
 20
14.3148577917
 10
-11.9018144978
 20
14.307809369
 10
-11.9059208082
 20
14.3005021266
 10
-11.9097980973
 20
14.29294081
 10
-11.9134436643
 20
14.2851301649
 10
-11.9173232233
 20
14.275905333
 10
-11.9208949827
 20
14.2663731227
 10
-11.9241573281
 20
14.2565456104
 10
-11.9271086452
 20
14.246434873
 10
-11.9297473197
 20
14.236052987
 10
-11.9320717371
 20
14.2254120292
 10
-11.9340802831
 20
14.2145240762
 10
-11.9357715316
 20
14.203401175
 10
-11.9371448096
 20
14.1920552534
 10
-11.9381996325
 20
14.1804982096
 10
-11.9389355156
 20
14.1687419418
 10
-11.9393519741
 20
14.1567983483
 10
-11.9394485234
 20
14.1446793272
 10
-11.9392246789
 20
14.1323967767
 10
-11.9386801327
 20
14.1199625929
 10
-11.9378152851
 20
14.1073886635
 10
-11.9366307133
 20
14.0946868743
 10
-11.9351269944
 20
14.0818691109
 10
-11.9333047056
 20
14.0689472589
 10
-11.9311644242
 20
14.055933204
 10
-11.9287067272
 20
14.0428388319
 10
-11.9262964765
 20
14.0313248397
 10
-11.9236449952
 20
14.0197671663
 10
-11.920753632
 20
14.0081745234
 10
-11.9176237357
 20
13.9965556226
 10
-11.9142573375
 20
13.9849202419
 10
-11.910659198
 20
13.9732824243
 10
-11.9068347604
 20
13.961657279
 10
-11.902789468
 20
13.9500599152
 10
-11.8985283026
 20
13.9385040301
 10
-11.8940544012
 20
13.9269976731
 10
-11.8893704398
 20
13.9155474814
 10
-11.8844790942
 20
13.9041600925
 10
-11.8793799976
 20
13.8928376547
 10
-11.8740606133
 20
13.8815643604
 10
-11.868505362
 20
13.8703199129
 10
-11.8626986643
 20
13.8590840155
  0
LWPOLYLINE
  5
236
100
AcDbEntity
  8
ASSI
100
AcDbPolyline
 62
7
  6
CONTINUOUS
 90
11
 70
0
 10
14.2231051219
 20
-27.3088222378
 10
14.2877907573
 20
-27.3418015905
 10
14.3551035726
 20
-27.3675501358
 10
14.4248477197
 20
-27.3861503819
 10
14.4973050772
 20
-27.397599235
 10
14.5719065463
 20
-27.401589074
 10
14.6478646445
 20
-27.3978990234
 10
14.7254049013
 20
-27.3862560607
 10
14.8042987109
 20
-27.3662618828
 10
14.8836718673
 20
-27.3376987192
 10
14.9295311306
 20
-27.3172093121
  0
LWPOLYLINE
  5
237
100
AcDbEntity
  8
ASSI
100
AcDbPolyline
 62
253
  6
CONTINUOUS
 90
23
 70
0
 10
-16.5011832894
 20
-9.567820763
 10
-16.5135710214
 20
-9.5588500243
 10
-16.525580284
 20
-9.5492682719
 10
-16.5372022541
 20
-9.5390825188
 10
-16.5484288561
 20
-9.5282999436
 10
-16.5592518802
 20
-9.5169283967
 10
-16.5696633845
 20
-9.5049761637
 10
-16.5796561408
 20
-9.4924517095
 10
-16.5892228473
 20
-9.4793641259
 10
-16.5983564806
 20
-9.4657229281
 10
-16.6070506988
 20
-9.4515378202
 10
-16.6152991417
 20
-9.4368191036
 10
-16.6230957662
 20
-9.4215774371
 10
-16.6304351913
 20
-9.4058236262
 10
-16.6373120775
 20
-9.3895690089
 10
-16.6437213441
 20
-9.3728254047
 10
-16.6496585099
 20
-9.3556048795
 10
-16.6551192268
 20
-9.3379199684
 10
-16.6600995139
 20
-9.3197833824
 10
-16.6645959593
 20
-9.3012079427
 10
-16.6686053382
 20
-9.2822069601
 10
-16.6721246305
 20
-9.2627942389
 10
-16.6751512533
 20
-9.2429837827
  0
LWPOLYLINE
  5
238
100
AcDbEntity
  8
ASSI
100
AcDbPolyline
 62
7
  6
CONTINUOUS
 90
8
 70
0
 10
-16.7303237807
 20
-9.3250288819
 10
-16.6983685159
 20
-9.3768917684
 10
-16.6627481688
 20
-9.4248596489
 10
-16.6238053797
 20
-9.4687682171
 10
-16.581517036
 20
-9.5088116288
 10
-16.5360870932
 20
-9.5448405428
 10
-16.4880341282
 20
-9.5765089221
 10
-16.4789279297
 20
-9.5818538828
  0
LWPOLYLINE
  5
239
100
AcDbEntity
  8
ASSI
100
AcDbPolyline
 62
253
  6
CONTINUOUS
 90
22
 70
0
 10
-16.8194206593
 20
-9.0575295449
 10
-16.8172736931
 20
-9.0678848522
 10
-16.81462306
 20
-9.078150414
 10
-16.8114714752
 20
-9.0883157154
 10
-16.8078221667
 20
-9.0983703442
 10
-16.8036788725
 20
-9.1083040015
 10
-16.7990458365
 20
-9.1181065126
 10
-16.7939278043
 20
-9.1277678367
 10
-16.7883300181
 20
-9.137278078
 10
-16.7822582117
 20
-9.1466274953
 10
-16.7757186044
 20
-9.155806512
 10
-16.7687178947
 20
-9.1648057262
 10
-16.7612632531
 20
-9.1736159202
 10
-16.7533623155
 20
-9.1822280698
 10
-16.7450231746
 20
-9.1906333537
 10
-16.7362543721
 20
-9.1988231625
 10
-16.7270648898
 20
-9.2067891075
 10
-16.7174641403
 20
-9.2145230293
 10
-16.7074619575
 20
-9.222017006
 10
-16.6970685866
 20
-9.2292633619
 10
-16.6862946732
 20
-9.2362546744
 10
-16.6751512531
 20
-9.2429837826
  0
LWPOLYLINE
  5
23A
100
AcDbEntity
  8
ASSI
100
AcDbPolyline
 62
7
  6
CONTINUOUS
 90
6
 70
0
 10
-16.8208950583
 20
-9.0483259346
 10
-16.8158408105
 20
-9.0806679397
 10
-16.8013391093
 20
-9.1472234116
 10
-16.7820109403
 20
-9.2103053822
 10
-16.758243048
 20
-9.269569339
 10
-16.7303237807
 20
-9.3250288819
  0
LINE
  5
23B
100
AcDbEntity
  8
ASSI
100
AcDbLine
 62
7
  6
CONTINUOUS
 10
-16.8209431478
 20
-9.04797632
 11
-16.8208950743
 21
-9.0483259368
  0
LWPOLYLINE
  5
23C
100
AcDbEntity
  8
ASSI
100
AcDbPolyline
 62
253
  6
CONTINUOUS
 90
21
 70
0
 10
-16.6751512533
 20
-9.2429837827
 10
-16.7309469734
 20
-8.8252893158
 10
-16.7843899108
 20
-8.4057322174
 10
-16.8354779262
 20
-7.9843287696
 10
-16.8842089091
 20
-7.5610953697
 10
-16.9305809746
 20
-7.1360483927
 10
-16.9745924629
 20
-6.70920419
 10
-17.0162416224
 20
-6.2805793088
 10
-17.0555267759
 20
-5.850190381
 10
-17.0924465164
 20
-5.4180539854
 10
-17.1269993758
 20
-4.9841868763
 10
-17.159183962
 20
-4.5486058743
 10
-17.1889991234
 20
-4.1113277548
 10
-17.2164436769
 20
-3.6723694545
 10
-17.2415165141
 20
-3.2317479953
 10
-17.2642167371
 20
-2.7894803737
 10
-17.2845434472
 20
-2.3455837227
 10
-17.3024958218
 20
-1.9000752403
 10
-17.3180732184
 20
-1.4529721123
 10
-17.3312750392
 20
-1.0042916313
 10
-17.3421007308
 20
-0.5540511957
  0
LWPOLYLINE
  5
23D
100
AcDbEntity
  8
ASSI
100
AcDbPolyline
 62
253
  6
CONTINUOUS
 90
27
 70
0
 10
-17.5584844976
 20
8.1444195555
 10
-17.5582202204
 20
8.1351197108
 10
-17.5575041739
 20
8.1264751714
 10
-17.5563355689
 20
8.1178456699
 10
-17.5547154641
 20
8.1092390788
 10
-17.5526453306
 20
8.1006631623
 10
-17.5501270479
 20
8.0921257273
 10
-17.5471628988
 20
8.0836345388
 10
-17.5437555699
 20
8.0751972444
 10
-17.5399081453
 20
8.0668215044
 10
-17.5356241181
 20
8.0585149516
 10
-17.5309073907
 20
8.0502851068
 10
-17.5257622588
 20
8.0421394701
 10
-17.5201933808
 20
8.0340854281
 10
-17.5142057836
 20
8.026130214
 10
-17.5078048878
 20
8.0182810458
 10
-17.5009965036
 20
8.0105450701
 10
-17.4937867976
 20
8.0029292693
 10
-17.4861822728
 20
7.9954405281
 10
-17.4781898528
 20
7.988085686
 10
-17.4698168842
 20
7.9808714783
 10
-17.4610710447
 20
7.9738045052
 10
-17.451960209
 20
7.9668911222
 10
-17.4424925255
 20
7.9601374967
 10
-17.4326765335
 20
7.9535497256
 10
-17.4225211713
 20
7.9471338229
 10
-17.4120356453
 20
7.9408956104
  0
LWPOLYLINE
  5
23E
100
AcDbEntity
  8
ASSI
100
AcDbPolyline
 62
7
  6
CONTINUOUS
 90
12
 70
0
 10
-17.5584844267
 20
8.1444210324
 10
-17.5582732681
 20
8.1325121494
 10
-17.5547962052
 20
8.0949806506
 10
-17.5469995456
 20
8.0576520709
 10
-17.5348741273
 20
8.0209872094
 10
-17.5185051911
 20
7.9854834598
 10
-17.4979925106
 20
7.9514947099
 10
-17.4734499433
 20
7.9193290095
 10
-17.4450904688
 20
7.8893447786
 10
-17.4130933225
 20
7.8617774918
 10
-17.377557884
 20
7.8367733433
 10
-17.3603663712
 20
7.8263576061
  0
LWPOLYLINE
  5
23F
100
AcDbEntity
  8
ASSI
100
AcDbPolyline
 62
253
  6
CONTINUOUS
 90
23
 70
0
 10
-17.412037543
 20
7.9408967051
 10
-17.4119204008
 20
7.9333705497
 10
-17.4115586728
 20
7.925995904
 10
-17.4109528598
 20
7.9187829781
 10
-17.4101038004
 20
7.9117417584
 10
-17.4090126703
 20
7.9048819935
 10
-17.4076809801
 20
7.8982131807
 10
-17.4061105735
 20
7.8917445531
 10
-17.4043036248
 20
7.8854850665
 10
-17.4022626357
 20
7.8794433872
 10
-17.3999904319
 20
7.87362788
 10
-17.3974901594
 20
7.8680465963
 10
-17.3947652798
 20
7.8627072636
 10
-17.3918195656
 20
7.8576172742
 10
-17.3886570953
 20
7.8527836751
 10
-17.3852822472
 20
7.8482131585
 10
-17.381699694
 20
7.8439120524
 10
-17.3779143956
 20
7.8398863116
 10
-17.3739315927
 20
7.8361415097
 10
-17.3697567997
 20
7.8326828316
 10
-17.3653957966
 20
7.8295150656
 10
-17.3608546211
 20
7.8266425977
 10
-17.3603663851
 20
7.826357582
  0
LINE
  5
240
100
AcDbEntity
  8
ASSI
100
AcDbLine
 62
253
  6
CONTINUOUS
 10
-17.3421007308
 20
-0.5540511957
 11
-17.3629664254
 21
0.7157155686
  0
LINE
  5
241
100
AcDbEntity
  8
ASSI
100
AcDbLine
 62
253
  6
CONTINUOUS
 10
-17.3629664254
 20
0.7157155686
 11
-17.383611189
 21
2.3543456951
  0
LINE
  5
242
100
AcDbEntity
  8
ASSI
100
AcDbLine
 62
253
  6
CONTINUOUS
 10
-17.383611189
 20
2.3543456951
 11
-17.3986714263
 21
3.9964982339
  0
LWPOLYLINE
  5
243
100
AcDbEntity
  8
ASSI
100
AcDbPolyline
 62
253
  6
CONTINUOUS
 90
26
 70
0
 10
-17.49699846
 20
15.6148740814
 10
-17.4969412993
 20
15.6073895931
 10
-17.496404776
 20
15.5983342975
 10
-17.4953570368
 20
15.589287885
 10
-17.4937991543
 20
15.5802596168
 10
-17.4917327234
 20
15.5712587361
 10
-17.4891598598
 20
15.5622944575
 10
-17.4860831973
 20
15.5533759587
 10
-17.482505886
 20
15.5445123699
 10
-17.478431588
 20
15.5357127657
 10
-17.4738644746
 20
15.5269861547
 10
-17.4688092214
 20
15.5183414711
 10
-17.463271004
 20
15.5097875651
 10
-17.4572554921
 20
15.5013331939
 10
-17.4507688443
 20
15.4929870128
 10
-17.4438177014
 20
15.4847575666
 10
-17.43640918
 20
15.4766532803
 10
-17.4285508645
 20
15.4686824508
 10
-17.4202508002
 20
15.4608532385
 10
-17.4115174844
 20
15.4531736587
 10
-17.4023598582
 20
15.4456515736
 10
-17.3927872967
 20
15.4382946841
 10
-17.3828096002
 20
15.4311105219
 10
-17.3724369836
 20
15.4241064421
 10
-17.3616800661
 20
15.4172896153
 10
-17.3505498603
 20
15.4106670202
  0
LINE
  5
244
100
AcDbEntity
  8
ASSI
100
AcDbLine
 62
253
  6
CONTINUOUS
 10
-17.3986714263
 20
3.9964982339
 11
-17.4081464016
 21
5.6421771636
  0
LINE
  5
245
100
AcDbEntity
  8
ASSI
100
AcDbLine
 62
253
  6
CONTINUOUS
 10
-17.4081464016
 20
5.6421771636
 11
-17.4120356456
 21
7.2913633711
  0
LWPOLYLINE
  5
246
100
AcDbEntity
  8
ASSI
100
AcDbPolyline
 62
7
  6
CONTINUOUS
 90
9
 70
0
 10
-17.4067894651
 20
7.7851154523
 10
-17.4426282715
 20
7.754841661
 10
-17.4739763506
 20
7.7216953411
 10
-17.5006748165
 20
7.6859441471
 10
-17.5224797187
 20
7.6480299144
 10
-17.5391005841
 20
7.6087669597
 10
-17.550506329
 20
7.5689204537
 10
-17.5568713048
 20
7.5290070885
 10
-17.5584840475
 20
7.4957175582
  0
LINE
  5
247
100
AcDbEntity
  8
ASSI
100
AcDbLine
 62
7
  6
CONTINUOUS
 10
-17.3746201248
 20
7.8073263759
 11
-17.4067894651
 21
7.7851154523
  0
LINE
  5
248
100
AcDbEntity
  8
ASSI
100
AcDbLine
 62
7
  6
CONTINUOUS
 10
-17.3746201421
 20
7.8073264034
 11
-17.3558320135
 21
7.8191557481
  0
LWPOLYLINE
  5
249
100
AcDbEntity
  8
ASSI
100
AcDbPolyline
 62
253
  6
CONTINUOUS
 90
7
 70
0
 10
-17.3745245901
 20
7.8073866502
 10
-17.3716809806
 20
7.8091026721
 10
-17.3667966749
 20
7.8117236716
 10
-17.3617369519
 20
7.8140428371
 10
-17.3565088854
 20
7.8160569261
 10
-17.3511197845
 20
7.8177631229
 10
-17.347193906
 20
7.8187518662
  0
LINE
  5
24A
100
AcDbEntity
  8
ASSI
100
AcDbLine
 62
7
  6
CONTINUOUS
 10
-16.4794485143
 20
-9.5815539649
 11
14.2238876192
 21
-27.3092754452
  0
LINE
  5
24B
100
AcDbEntity
  8
ASSI
100
AcDbLine
 62
253
  6
CONTINUOUS
 10
-16.6751512533
 20
-9.2429837827
 11
14.0212292509
 21
-26.9666891699
  0
LINE
  5
24C
100
AcDbEntity
  8
ASSI
100
AcDbLine
 62
7
  6
CONTINUOUS
 10
14.2231031826
 20
-27.3088211463
 11
14.2238876469
 21
-27.3092754613
  0
LINE
  5
24D
100
AcDbEntity
  8
ASSI
100
AcDbLine
 62
253
  6
CONTINUOUS
 10
-16.4794485143
 20
-9.5815539649
 11
-16.4884261405
 21
-9.5761739438
  0
LINE
  5
24E
100
AcDbEntity
  8
ASSI
100
AcDbLine
 62
7
  6
CONTINUOUS
 10
-12.0980358526
 20
26.6837783964
 11
-12.0768305634
 21
26.067305899
  0
LINE
  5
24F
100
AcDbEntity
  8
ASSI
100
AcDbLine
 62
253
  6
CONTINUOUS
 10
-12.278287102
 20
26.2695582376
 11
-12.278287102
 21
26.2067402489
  0
LWPOLYLINE
  5
250
100
AcDbEntity
  8
0
100
AcDbPolyline
 62
253
  6
CONTINUOUS
 90
39
 70
0
 10
-11.9522058322
 20
-4.980364763
 10
-11.952210837
 20
-4.9872375821
 10
-11.9520551222
 20
-4.9941833531
 10
-11.9517426681
 20
-5.0012004387
 10
-11.9512774549
 20
-5.0082872014
 10
-11.950663463
 20
-5.015442004
 10
-11.9499046726
 20
-5.0226632091
 10
-11.949005064
 20
-5.0299491794
 10
-11.9477823992
 20
-5.0385284989
 10
-11.9463770852
 20
-5.0471872386
 10
-11.9447927247
 20
-5.0559188948
 10
-11.94303292
 20
-5.0647169638
 10
-11.9411012737
 20
-5.0735749419
 10
-11.9390013883
 20
-5.0824863254
 10
-11.9367366626
 20
-5.09144484
 10
-11.9343096816
 20
-5.1004451287
 10
-11.9317228264
 20
-5.1094820639
 10
-11.9289784782
 20
-5.1185505179
 10
-11.9260790182
 20
-5.1276453632
 10
-11.9230268278
 20
-5.136761472
 10
-11.9198239939
 20
-5.1458938599
 10
-11.9164714267
 20
-5.1550381141
 10
-11.9129697423
 20
-5.1641899649
 10
-11.9093195566
 20
-5.1733451426
 10
-11.9055214857
 20
-5.1824993775
 10
-11.9015761456
 20
-5.1916483999
 10
-11.8974841321
 20
-5.2007875719
 10
-11.8932459605
 20
-5.2099107833
 10
-11.888862126
 20
-5.2190115552
 10
-11.8843331236
 20
-5.2280834093
 10
-11.8796594485
 20
-5.237119867
 10
-11.8748415958
 20
-5.2461144496
 10
-11.870597021
 20
-5.2537863428
 10
-11.8662435443
 20
-5.2614215766
 10
-11.8617778264
 20
-5.2690190167
 10
-11.8571965281
 20
-5.2765775286
 10
-11.85249631
 20
-5.2840959781
 10
-11.847673833
 20
-5.2915732309
 10
-11.8427257577
 20
-5.2990081526
  0
LINE
  5
251
100
AcDbEntity
  8
ASSI
100
AcDbLine
 62
7
  6
CONTINUOUS
 10
-4.1784399033
 20
22.1111029511
 11
-4.3586911527
 21
21.6968827923
  0
LWPOLYLINE
  5
252
100
AcDbEntity
  8
ASSI
100
AcDbPolyline
 62
253
  6
CONTINUOUS
 90
13
 70
0
 10
13.774535962
 20
-9.8163582555
 10
13.7883801092
 20
-9.8129937404
 10
13.8020396997
 20
-9.8093907423
 10
13.8155023583
 20
-9.8055524415
 10
13.8287559317
 20
-9.8014823427
 10
13.8417883389
 20
-9.7971841921
 10
13.8545876041
 20
-9.7926618558
 10
13.8671420212
 20
-9.7879195257
 10
13.8794403216
 20
-9.7829615148
 10
13.8914715171
 20
-9.7777921706
 10
13.9032247452
 20
-9.7724161554
 10
13.9146892908
 20
-9.7668384516
 10
13.9258547539
 20
-9.7610641595
  0
LWPOLYLINE
  5
253
100
AcDbEntity
  8
0
100
AcDbPolyline
 62
253
  6
CONTINUOUS
 90
51
 70
0
 10
-10.0498562051
 20
-8.0807653528
 10
-10.042753116
 20
-8.0914940889
 10
-10.0355018785
 20
-8.1020291159
 10
-10.0280914436
 20
-8.1123937185
 10
-10.0205107621
 20
-8.1226111813
 10
-10.012748785
 20
-8.1327047893
 10
-10.0047957015
 20
-8.1426937508
 10
-9.9966466548
 20
-8.1525809697
 10
-9.9882980266
 20
-8.1623652738
 10
-9.9797461985
 20
-8.1720454906
 10
-9.970987552
 20
-8.181620448
 10
-9.9620227127
 20
-8.1910849496
 10
-9.9528692814
 20
-8.200417704
 10
-9.943549103
 20
-8.2095933957
 10
-9.9340840223
 20
-8.2185867093
 10
-9.9244958842
 20
-8.2273723294
 10
-9.914804477
 20
-8.235927609
 10
-9.9050213635
 20
-8.2442405746
 10
-9.8951560504
 20
-8.2523019214
 10
-9.8852180442
 20
-8.2601023443
 10
-9.8752168512
 20
-8.2676325385
 10
-9.8651630091
 20
-8.2748825128
 10
-9.8550711799
 20
-8.2818395312
 10
-9.8449570565
 20
-8.2884901714
 10
-9.834836332
 20
-8.2948210113
 10
-9.8247246994
 20
-8.3008186285
 10
-9.8146372481
 20
-8.3064712859
 10
-9.804586653
 20
-8.3117739863
 10
-9.7945849852
 20
-8.3167234174
 10
-9.784644316
 20
-8.3213162671
 10
-9.7747767166
 20
-8.325549223
 10
-9.764994409
 20
-8.3294189519
 10
-9.7553102187
 20
-8.3329220359
 10
-9.7457371218
 20
-8.336055036
 10
-9.7362880946
 20
-8.3388145134
 10
-9.7269761133
 20
-8.3411970291
 10
-9.7178157955
 20
-8.3432001891
 10
-9.7088283245
 20
-8.3448257802
 10
-9.7000365249
 20
-8.346076634
 10
-9.6914632215
 20
-8.3469555822
 10
-9.683131239
 20
-8.3474654565
 10
-9.6750583392
 20
-8.3476099247
 10
-9.6672420329
 20
-8.3473959985
 10
-9.6596747682
 20
-8.346831526
 10
-9.6523489932
 20
-8.3459243549
 10
-9.6452571558
 20
-8.3446823333
 10
-9.6383913189
 20
-8.3431103235
 10
-9.6317420038
 20
-8.3412012457
 10
-9.6252993468
 20
-8.3389450344
 10
-9.619053484
 20
-8.3363316243
 10
-9.6129945515
 20
-8.33335095
  0
LWPOLYLINE
  5
254
100
AcDbEntity
  8
0
100
AcDbPolyline
 62
253
  6
CONTINUOUS
 90
39
 70
0
 10
-7.9121537524
 20
11.8363751972
 10
-7.9116027641
 20
11.8435632603
 10
-7.9112128003
 20
11.8508240992
 10
-7.9109798365
 20
11.8581561023
 10
-7.910899848
 20
11.8655576577
 10
-7.9109688101
 20
11.8730271537
 10
-7.9111826981
 20
11.8805629786
 10
-7.9115374875
 20
11.8881635206
 10
-7.9121246506
 20
11.8971097708
 10
-7.9128948954
 20
11.9061351915
 10
-7.913844999
 20
11.9152330597
 10
-7.9149717387
 20
11.9243966525
 10
-7.9162718917
 20
11.9336192469
 10
-7.9177422354
 20
11.94289412
 10
-7.9193797449
 20
11.9522147813
 10
-7.9211821873
 20
11.9615756708
 10
-7.9231475275
 20
11.9709714609
 10
-7.9252737306
 20
11.9803968242
 10
-7.9275587615
 20
11.9898464331
 10
-7.9300005852
 20
11.9993149601
 10
-7.9325974656
 20
12.0087972179
 10
-7.9353488619
 20
12.0182885806
 10
-7.9382545325
 20
12.0277845623
 10
-7.9413142355
 20
12.0372806773
 10
-7.944527729
 20
12.0467724398
 10
-7.9478947714
 20
12.0562553641
 10
-7.951415176
 20
12.065724576
 10
-7.9550889774
 20
12.0751736476
 10
-7.9589162656
 20
12.0845957624
 10
-7.9628971304
 20
12.0939841043
 10
-7.9670316616
 20
12.1033318569
 10
-7.9713199492
 20
12.1126322037
 10
-7.9751186681
 20
12.1205615285
 10
-7.9790340625
 20
12.1284497056
 10
-7.9830697777
 20
12.1362954238
 10
-7.9872294595
 20
12.1440973718
 10
-7.9915167533
 20
12.1518542387
 10
-7.9959353046
 20
12.1595647131
 10
-8.000488759
 20
12.1672274839
  0
LWPOLYLINE
  5
255
100
AcDbEntity
  8
0
100
AcDbPolyline
 62
253
  6
CONTINUOUS
 90
55
 70
0
 10
-11.6479732226
 20
-4.8070731256
 10
-11.6576265223
 20
-4.801670088
 10
-11.6671763289
 20
-4.7966646235
 10
-11.6766474427
 20
-4.7920371686
 10
-11.6860646642
 20
-4.78776816
 10
-11.6954527935
 20
-4.7838380346
 10
-11.7048316329
 20
-4.7802315858
 10
-11.7142009921
 20
-4.7769510351
 10
-11.7235556828
 20
-4.774002961
 10
-11.7328905164
 20
-4.7713939419
 10
-11.7422003046
 20
-4.7691305563
 10
-11.7514780652
 20
-4.7672198357
 10
-11.7607096413
 20
-4.7656706247
 10
-11.7698790823
 20
-4.764492221
 10
-11.7789704375
 20
-4.7636939222
 10
-11.7879677562
 20
-4.763285026
 10
-11.7953796165
 20
-4.7632475444
 10
-11.8026904807
 20
-4.7634869014
 10
-11.8098757327
 20
-4.76400306
 10
-11.8169170803
 20
-4.7647968495
 10
-11.823821527
 20
-4.7658725626
 10
-11.8306024006
 20
-4.7672353579
 10
-11.8372686539
 20
-4.7688899699
 10
-11.8438117422
 20
-4.7708394363
 10
-11.850218746
 20
-4.7730863706
 10
-11.8564767459
 20
-4.7756333862
 10
-11.8625728224
 20
-4.7784830966
 10
-11.8684940563
 20
-4.7816381154
 10
-11.8742289764
 20
-4.785098583
 10
-11.8797719051
 20
-4.7888547481
 10
-11.8851186131
 20
-4.7928943862
 10
-11.890264871
 20
-4.7972052732
 10
-11.8952064496
 20
-4.8017751846
 10
-11.8999391196
 20
-4.8065918961
 10
-11.9044612488
 20
-4.8116465858
 10
-11.9087815934
 20
-4.8169440419
 10
-11.9129115068
 20
-4.8224924551
 10
-11.916858557
 20
-4.82829535
 10
-11.9206151712
 20
-4.8343375875
 10
-11.9241699915
 20
-4.8405993624
 10
-11.9281567664
 20
-4.8483782963
 10
-11.9318370798
 20
-4.8564280243
 10
-11.9352114093
 20
-4.864731726
 10
-11.9382802323
 20
-4.8732725809
 10
-11.9410440263
 20
-4.8820337687
 10
-11.9435036534
 20
-4.8909999628
 10
-11.9456615136
 20
-4.9001618115
 10
-11.9475203917
 20
-4.9095114568
 10
-11.9490830724
 20
-4.9190410407
 10
-11.9503523404
 20
-4.9287427055
 10
-11.9513294674
 20
-4.9386150534
 10
-11.9520096732
 20
-4.9486825286
 10
-11.9523866647
 20
-4.9589760356
 10
-11.9524541488
 20
-4.9695264789
 10
-11.9522058322
 20
-4.980364763
  0
LINE
  5
256
100
AcDbEntity
  8
0
100
AcDbLine
 62
253
  6
CONTINUOUS
 10
-8.2545091372
 20
-6.7664167585
 11
-11.6479732226
 21
-4.8070731256
  0
LINE
  5
257
100
AcDbEntity
  8
ASSI
100
AcDbLine
 62
253
  6
CONTINUOUS
 10
13.2972342297
 20
-17.7979146657
 11
-17.3505498606
 21
-0.102268239
  0
LINE
  5
258
100
AcDbEntity
  8
0
100
AcDbLine
 62
253
  6
CONTINUOUS
 10
-11.5722199032
 20
-5.2290896423
 11
-8.3035420937
 21
-7.1167411311
  0
LWPOLYLINE
  5
259
100
AcDbEntity
  8
0
100
AcDbPolyline
 62
253
  6
CONTINUOUS
 90
39
 70
0
 10
-8.0197324513
 20
-7.0135078569
 10
-8.0237799188
 20
-7.0061865357
 10
-8.0279633188
 20
-6.9989154505
 10
-8.0322795287
 20
-6.991690947
 10
-8.0367254262
 20
-6.9845093709
 10
-8.0412978888
 20
-6.9773670679
 10
-8.0459937942
 20
-6.9702603837
 10
-8.0508100199
 20
-6.9631856641
 10
-8.0557434436
 20
-6.9561392548
 10
-8.0607909427
 20
-6.9491175014
 10
-8.0659493949
 20
-6.9421167497
 10
-8.0718073199
 20
-6.9343605184
 10
-8.0777939597
 20
-6.9266338591
 10
-8.0839049049
 20
-6.9189449271
 10
-8.0901357461
 20
-6.9113018778
 10
-8.0964820738
 20
-6.9037128667
 10
-8.1029394786
 20
-6.896186049
 10
-8.109503551
 20
-6.8887295804
 10
-8.1161698817
 20
-6.881351616
 10
-8.1229340611
 20
-6.8740603113
 10
-8.1297911483
 20
-6.8668638605
 10
-8.1367340759
 20
-6.8597706125
 10
-8.143755245
 20
-6.8527889551
 10
-8.1508470568
 20
-6.8459272759
 10
-8.1580019124
 20
-6.8391939627
 10
-8.1652122128
 20
-6.8325974032
 10
-8.1724703592
 20
-6.8261459851
 10
-8.1797687527
 20
-6.8198480961
 10
-8.1870997943
 20
-6.813712124
 10
-8.1937205802
 20
-6.8083343787
 10
-8.200363404
 20
-6.8030962436
 10
-8.207030014
 20
-6.7979993823
 10
-8.2137221583
 20
-6.7930454583
 10
-8.2204415849
 20
-6.7882361353
 10
-8.227190042
 20
-6.7835730768
 10
-8.2339692776
 20
-6.7790579463
 10
-8.24078104
 20
-6.7746924074
 10
-8.2476270771
 20
-6.7704781236
 10
-8.2545091372
 20
-6.7664167585
  0
LINE
  5
25A
100
AcDbEntity
  8
ASSI
100
AcDbLine
 62
253
  6
CONTINUOUS
 10
-4.3586911527
 20
21.6968827923
 11
-4.3586911527
 21
21.6340648037
  0
LWPOLYLINE
  5
25B
100
AcDbEntity
  8
0
100
AcDbPolyline
 62
253
  6
CONTINUOUS
 90
39
 70
0
 10
-11.8626986643
 20
13.8590840155
 10
-11.8590143954
 20
13.851552988
 10
-11.8551841972
 20
13.8440779686
 10
-11.8512116222
 20
13.8366550545
 10
-11.8471002231
 20
13.8292803433
 10
-11.8428535523
 20
13.8219499321
 10
-11.8384751624
 20
13.8146599185
 10
-11.8339686061
 20
13.8074063997
 10
-11.8293374357
 20
13.8001854731
 10
-11.8245852039
 20
13.792993236
 10
-11.8197154632
 20
13.7858257859
 10
-11.8141710043
 20
13.7778885633
 10
-11.8084899048
 20
13.7699854887
 10
-11.802676211
 20
13.7621249275
 10
-11.7967339692
 20
13.7543152446
 10
-11.7906672255
 20
13.7465648052
 10
-11.7844800262
 20
13.7388819743
 10
-11.7781764175
 20
13.7312751171
 10
-11.7717604458
 20
13.7237525986
 10
-11.7652361571
 20
13.716322784
 10
-11.7586081492
 20
13.7089940658
 10
-11.7518832243
 20
13.7017749457
 10
-11.7450687364
 20
13.6946739531
 10
-11.738172039
 20
13.6876996173
 10
-11.7312004861
 20
13.6808604675
 10
-11.7241614312
 20
13.6741650329
 10
-11.7170622283
 20
13.6676218429
 10
-11.7099102309
 20
13.6612394266
 10
-11.702712793
 20
13.6550263134
 10
-11.6962011108
 20
13.649585573
 10
-11.6896566539
 20
13.644290642
 10
-11.6830774981
 20
13.6391432858
 10
-11.676461719
 20
13.6341452695
 10
-11.6698073925
 20
13.6292983586
 10
-11.6631125941
 20
13.6246043181
 10
-11.6563753997
 20
13.6200649135
 10
-11.649593885
 20
13.61568191
 10
-11.6427661256
 20
13.6114570729
 10
-11.6358901973
 20
13.6073921674
  0
LINE
  5
25C
100
AcDbEntity
  8
ASSI
100
AcDbLine
 62
7
  6
CONTINUOUS
 10
-4.1784399033
 20
22.1111029511
 11
-4.1572346141
 21
21.4946304537
  0
LINE
  5
25D
100
AcDbEntity
  8
ASSI
100
AcDbLine
 62
7
  6
CONTINUOUS
 10
3.8118667241
 20
17.4976000465
 11
3.6316154747
 21
17.0833798877
  0
LWPOLYLINE
  5
25E
100
AcDbEntity
  8
ASSI
100
AcDbPolyline
 62
253
  6
CONTINUOUS
 90
49
 70
0
 10
14.7118307949
 20
7.593586687
 10
14.700085287
 20
7.5894135257
 10
14.6880025292
 20
7.5854609037
 10
14.6755948977
 20
7.5817328698
 10
14.6628751015
 20
7.5782332424
 10
14.6498561692
 20
7.5749656063
 10
14.6365514361
 20
7.5719333083
 10
14.6229745298
 20
7.5691394545
 10
14.6091393572
 20
7.5665869065
 10
14.5950600892
 20
7.5642782789
 10
14.5807511472
 20
7.5622159364
 10
14.5662271876
 20
7.5604019914
 10
14.5515030871
 20
7.558838302
 10
14.5365939273
 20
7.5575264696
 10
14.5215149795
 20
7.5564678382
 10
14.5062816889
 20
7.5556634919
 10
14.4909096586
 20
7.5551142547
 10
14.4754146341
 20
7.5548206892
 10
14.4598124867
 20
7.5547830961
 10
14.4441191975
 20
7.5550015138
 10
14.4283508408
 20
7.5554757186
 10
14.412523568
 20
7.5562052249
 10
14.3966535907
 20
7.5571892853
 10
14.3807571643
 20
7.558426892
 10
14.3648505713
 20
7.5599167773
 10
14.3489501046
 20
7.561657415
 10
14.3330720509
 20
7.5636470224
 10
14.3172326737
 20
7.5658835614
 10
14.3014481972
 20
7.5683647412
 10
14.2857347891
 20
7.5710880205
 10
14.2701085445
 20
7.5740506096
 10
14.2545854691
 20
7.5772494742
 10
14.239181463
 20
7.5806813376
 10
14.2239123043
 20
7.5843426847
 10
14.208793633
 20
7.5882297652
 10
14.1938409349
 20
7.5923385976
 10
14.1790695259
 20
7.5966649733
 10
14.1644945361
 20
7.6012044609
 10
14.1501308944
 20
7.6059524105
 10
14.1359933134
 20
7.610903959
 10
14.1220962739
 20
7.6160540346
 10
14.1084540105
 20
7.621397362
 10
14.0950804969
 20
7.6269284683
 10
14.0819894312
 20
7.6326416879
 10
14.0691942225
 20
7.638531169
 10
14.0567079767
 20
7.6445908789
 10
14.0445434833
 20
7.6508146108
 10
14.0327132022
 20
7.6571959899
 10
14.0212292511
 20
7.6637284798
  0
LWPOLYLINE
  5
25F
100
AcDbEntity
  8
ASSI
100
AcDbPolyline
 62
7
  6
CONTINUOUS
 90
13
 70
0
 10
13.2830274076
 20
-9.8667539829
 10
13.3245506999
 20
-9.888217255
 10
13.3724050546
 20
-9.9075684814
 10
13.4219360135
 20
-9.9225822539
 10
13.4730841784
 20
-9.9334869042
 10
13.525478648
 20
-9.9403114621
 10
13.5782125278
 20
-9.9430256109
 10
13.6310196988
 20
-9.9416711114
 10
13.6836334786
 20
-9.936203119
 10
13.7351363701
 20
-9.9266342825
 10
13.7851501989
 20
-9.9129337438
 10
13.8336247771
 20
-9.8948781825
 10
13.8722765541
 20
-9.8764692085
  0
LWPOLYLINE
  5
260
100
AcDbEntity
  8
ASSI
100
AcDbPolyline
 62
253
  6
CONTINUOUS
 90
40
 70
0
 10
13.2312994767
 20
-9.7521820378
 10
13.2421055129
 20
-9.7582373065
 10
13.2532223398
 20
-9.7641036992
 10
13.2646398732
 20
-9.7697758996
 10
13.2763477052
 20
-9.7752487514
 10
13.2883352644
 20
-9.7805173171
 10
13.3005918369
 20
-9.7855768734
 10
13.3131064192
 20
-9.7904228759
 10
13.3258675697
 20
-9.7950508853
 10
13.3388635682
 20
-9.7994566281
 10
13.3520825709
 20
-9.8036361077
 10
13.3655126427
 20
-9.8075855628
 10
13.3791416147
 20
-9.8113013892
 10
13.39295711
 20
-9.8147802326
 10
13.4069466149
 20
-9.8180189557
 10
13.4210975051
 20
-9.8210146004
 10
13.4353969871
 20
-9.8237644765
 10
13.4498320567
 20
-9.8262660956
 10
13.4643895723
 20
-9.8285171374
 10
13.4790563117
 20
-9.8305155836
 10
13.4938189932
 20
-9.8322596448
 10
13.5086642359
 20
-9.8337476917
 10
13.5235785874
 20
-9.8349784041
 10
13.5385485114
 20
-9.8359506877
 10
13.5535604072
 20
-9.8366636045
 10
13.5686006346
 20
-9.8371165402
 10
13.5836555793
 20
-9.8373091131
 10
13.5987116409
 20
-9.8372410879
 10
13.6137551908
 20
-9.8369125581
 10
13.6287725603
 20
-9.8363238496
 10
13.6437501055
 20
-9.8354754297
 10
13.6586742327
 20
-9.8343681049
 10
13.6735314178
 20
-9.8330029112
 10
13.6883081935
 20
-9.831381014
 10
13.7029911783
 20
-9.8295039194
 10
13.7175670357
 20
-9.8273733662
 10
13.7320224947
 20
-9.8249912193
 10
13.7463444091
 20
-9.8223596887
 10
13.7605198297
 20
-9.8194811946
 10
13.774535962
 20
-9.8163582555
  0
LINE
  5
261
100
AcDbEntity
  8
ASSI
100
AcDbLine
 62
253
  6
CONTINUOUS
 10
13.2312994764
 20
-10.4017142772
 11
-17.4120356456
 21
7.2913633711
  0
LINE
  5
262
100
AcDbEntity
  8
ASSI
100
AcDbLine
 62
253
  6
CONTINUOUS
 10
13.4065353651
 20
-10.096265282
 11
-17.2368035515
 21
7.5968145573
  0
LWPOLYLINE
  5
263
100
AcDbEntity
  8
ASSI
100
AcDbPolyline
 62
253
  6
CONTINUOUS
 90
27
 70
0
 10
-17.4120356453
 20
7.2913633706
 10
-17.4225211713
 20
7.2976036979
 10
-17.4326765335
 20
7.3040252283
 10
-17.4424925254
 20
7.3106221386
 10
-17.451960209
 20
7.317388424
 10
-17.4610710447
 20
7.3243179739
 10
-17.4698168842
 20
7.3314045834
 10
-17.4781898528
 20
7.3386419017
 10
-17.4861822728
 20
7.3460233164
 10
-17.4937867976
 20
7.3535420285
 10
-17.5009965036
 20
7.3611912007
 10
-17.5078048878
 20
7.3689639352
 10
-17.5142057836
 20
7.3768531623
 10
-17.5201933808
 20
7.3848517359
 10
-17.5257622588
 20
7.3929524234
 10
-17.5309073907
 20
7.4011478801
 10
-17.5356241181
 20
7.4094307186
 10
-17.5399081453
 20
7.4177934225
 10
-17.5437555699
 20
7.4262283366
 10
-17.5471628988
 20
7.4347278252
 10
-17.5501270479
 20
7.4432842111
 10
-17.5526453306
 20
7.4518896903
 10
-17.5547154641
 20
7.4605364931
 10
-17.5563355689
 20
7.469216795
 10
-17.5575041739
 20
7.4779226545
 10
-17.5582202204
 20
7.4866461927
 10
-17.5584841193
 20
7.4957162531
  0
LWPOLYLINE
  5
264
100
AcDbEntity
  8
ASSI
100
AcDbPolyline
 62
253
  6
CONTINUOUS
 90
46
 70
0
 10
-17.2368035515
 20
7.5968145573
 10
-17.24205249
 20
7.5999391926
 10
-17.2471277433
 20
7.603149415
 10
-17.2520293113
 20
7.6064452245
 10
-17.2567614225
 20
7.6098298198
 10
-17.2613198484
 20
7.6133000021
 10
-17.2656919043
 20
7.6168461757
 10
-17.2698769961
 20
7.6204684989
 10
-17.2738757179
 20
7.6241668133
 10
-17.2776771667
 20
7.6279310481
 10
-17.2812807919
 20
7.6317613748
 10
-17.284687144
 20
7.6356576219
 10
-17.2878869721
 20
7.6396092036
 10
-17.2908797123
 20
7.6436162634
 10
-17.2936659284
 20
7.6476786578
 10
-17.2962380605
 20
7.6517853704
 10
-17.2985955337
 20
7.6559365331
 10
-17.300738923
 20
7.660132014
 10
-17.3026623938
 20
7.6643604013
 10
-17.3043653444
 20
7.668621779
 10
-17.3058483766
 20
7.6729160631
 10
-17.3071074607
 20
7.6772315897
 10
-17.3081419882
 20
7.6815684208
 10
-17.3089525677
 20
7.6859264944
 10
-17.3095369957
 20
7.6902939616
 10
-17.3098946567
 20
7.6946708408
 10
-17.3100261661
 20
7.6990571136
 10
-17.3099311672
 20
7.7034408748
 10
-17.309609044
 20
7.7078221238
 10
-17.3090604123
 20
7.7122008613
 10
-17.3082867627
 20
7.7165651845
 10
-17.3072874832
 20
7.7209150511
 10
-17.3060631857
 20
7.7252505034
 10
-17.3046171958
 20
7.7295597655
 10
-17.3029489073
 20
7.7338427718
 10
-17.3010589264
 20
7.7380995879
 10
-17.2989523976
 20
7.7423186344
 10
-17.2966287383
 20
7.7464997971
 10
-17.2940885309
 20
7.7506431903
 10
-17.291338668
 20
7.754737577
 10
-17.2883785777
 20
7.7587828309
 10
-17.2852088318
 20
7.7627790784
 10
-17.2818380377
 20
7.7667154618
 10
-17.2782656347
 20
7.7705918263
 10
-17.2744921835
 20
7.7744083267
 10
-17.2729377496
 20
7.7758772921
  0
LINE
  5
265
100
AcDbEntity
  8
ASSI
100
AcDbLine
 62
253
  6
CONTINUOUS
 10
16.8075952301
 20
9.9940292818
 11
14.6949890944
 21
8.7330273632
  0
LINE
  5
266
100
AcDbEntity
  8
ASSI
100
AcDbLine
 62
7
  6
CONTINUOUS
 10
-17.3602669436
 20
7.8263000743
 11
13.2830719731
 21
-9.866779765
  0
LINE
  5
267
100
AcDbEntity
  8
ASSI
100
AcDbLine
 62
253
  6
CONTINUOUS
 10
-17.4120356456
 20
7.9408956096
 11
13.2312994764
 21
-9.7521820386
  0
LWPOLYLINE
  5
268
100
AcDbEntity
  8
0
100
AcDbPolyline
 62
253
  6
CONTINUOUS
 90
51
 70
0
 10
-9.5997611987
 20
15.0607652308
 10
-9.6059613971
 20
15.0720152847
 10
-9.612346565
 20
15.0830503694
 10
-9.618925576
 20
15.0938950257
 10
-9.6257073039
 20
15.1045737944
 10
-9.6327006222
 20
15.1151112162
 10
-9.6399136189
 20
15.1255274946
 10
-9.647351239
 20
15.1358254823
 10
-9.6550176417
 20
15.1460036948
 10
-9.6629169864
 20
15.1560606474
 10
-9.6710534323
 20
15.1659948556
 10
-9.679427112
 20
15.1758006854
 10
-9.6880220511
 20
15.1854559062
 10
-9.6968182486
 20
15.1949341379
 10
-9.7057957033
 20
15.2042090007
 10
-9.714934414
 20
15.2132541145
 10
-9.724216228
 20
15.2220458881
 10
-9.7336303848
 20
15.2305718846
 10
-9.7431679724
 20
15.238822456
 10
-9.7528200786
 20
15.2467879541
 10
-9.7625777913
 20
15.2544587307
 10
-9.7724311729
 20
15.2618244484
 10
-9.7823661843
 20
15.2688720114
 10
-9.7923677609
 20
15.2755876347
 10
-9.8024208381
 20
15.2819575333
 10
-9.8125103515
 20
15.2879679219
 10
-9.8226216467
 20
15.2936068121
 10
-9.8327417109
 20
15.2988694019
 10
-9.8428579419
 20
15.3037526857
 10
-9.852957737
 20
15.308253658
 10
-9.863028494
 20
15.3123693133
 10
-9.8730574432
 20
15.3160966343
 10
-9.8830311464
 20
15.3194325573
 10
-9.892935998
 20
15.3223740064
 10
-9.9027583925
 20
15.3249179062
 10
-9.9124847247
 20
15.3270611809
 10
-9.9220994692
 20
15.3288019607
 10
-9.9315794221
 20
15.3301431989
 10
-9.9408994598
 20
15.3310890546
 10
-9.9500344587
 20
15.3316436869
 10
-9.958959295
 20
15.3318112548
 10
-9.9676541969
 20
15.3315965867
 10
-9.9761208001
 20
15.3310071873
 10
-9.9843660919
 20
15.3300512304
 10
-9.9923970595
 20
15.32873689
 10
-10.0002206905
 20
15.32707234
 10
-10.00784479
 20
15.3250625188
 10
-10.0152804349
 20
15.322699424
 10
-10.0225395201
 20
15.3199718173
 10
-10.0296339401
 20
15.3168684609
 10
-10.0365755899
 20
15.3133781167
  0
LWPOLYLINE
  5
269
100
AcDbEntity
  8
ASSI
100
AcDbPolyline
 62
253
  6
CONTINUOUS
 90
52
 70
0
 10
14.6949890944
 20
8.7330273632
 10
14.6757196415
 20
8.7208431996
 10
14.6564917947
 20
8.7080953341
 10
14.6373191678
 20
8.6947930982
 10
14.6182151534
 20
8.6809463927
 10
14.599193458
 20
8.6665651713
 10
14.5802680952
 20
8.6516594197
 10
14.5614523723
 20
8.6362399333
 10
14.5427597064
 20
8.6203180224
 10
14.5242041583
 20
8.6039049955
 10
14.5057989336
 20
8.587012867
 10
14.4875569909
 20
8.569653897
 10
14.4694918606
 20
8.5518402837
 10
14.4516163098
 20
8.5335849594
 10
14.4339430165
 20
8.5149012357
 10
14.4164851765
 20
8.4958023529
 10
14.3992551607
 20
8.4763021975
 10
14.3822651526
 20
8.456414945
 10
14.3655278231
 20
8.4361547028
 10
14.3490550282
 20
8.4155361837
 10
14.3328584174
 20
8.3945743686
 10
14.3169500696
 20
8.3732841523
 10
14.3013412673
 20
8.3516810018
 10
14.2860430311
 20
8.3297805832
 10
14.2710667297
 20
8.3075984238
 10
14.2564229571
 20
8.285150578
 10
14.2421220821
 20
8.2624533559
 10
14.2281747813
 20
8.2395229506
 10
14.2145909528
 20
8.2163760039
 10
14.2013801751
 20
8.1930292677
 10
14.18855226
 20
8.1694993304
 10
14.1761162885
 20
8.1458032063
 10
14.1640810552
 20
8.1219580804
 10
14.1524555273
 20
8.0979809719
 10
14.1412479462
 20
8.0738892295
 10
14.1304662222
 20
8.0497002921
 10
14.1201183816
 20
8.0254314323
 10
14.1102117583
 20
8.001100192
 10
14.1007533435
 20
7.9767241787
 10
14.0917501806
 20
7.9523208248
 10
14.0832086658
 20
7.927907797
 10
14.0751348062
 20
7.9035027119
 10
14.0675345769
 20
7.8791229318
 10
14.0604133497
 20
7.8547859793
 10
14.053776173
 20
7.8305095222
 10
14.0476280253
 20
7.8063110885
 10
14.0419732959
 20
7.782208258
 10
14.0368159246
 20
7.758218315
 10
14.0321596978
 20
7.7343582371
 10
14.0280079651
 20
7.710645131
 10
14.0243636218
 20
7.6870962163
 10
14.0212292509
 20
7.6637284797
  0
LWPOLYLINE
  5
26A
100
AcDbEntity
  8
ASSI
100
AcDbPolyline
 62
253
  6
CONTINUOUS
 90
52
 70
0
 10
15.0544918292
 20
8.1248981868
 10
15.0446838529
 20
8.1188959774
 10
15.0349098729
 20
8.1126206384
 10
15.0251698894
 20
8.1060721698
 10
15.015456641
 20
8.0992452851
 10
15.0057773889
 20
8.0921452707
 10
14.996153917
 20
8.0847879864
 10
14.9865866211
 20
8.0771730367
 10
14.9770751053
 20
8.0693008171
 10
14.967639966
 20
8.0611883731
 10
14.9582814002
 20
8.0528352091
 10
14.9489992109
 20
8.0442418208
 10
14.9398134041
 20
8.0354267405
 10
14.9307241736
 20
8.026389477
 10
14.9217313257
 20
8.0171305216
 10
14.9128542849
 20
8.0076698804
 10
14.9040933044
 20
7.998007119
 10
14.8954481312
 20
7.9881426718
 10
14.8869374304
 20
7.9780978483
 10
14.8785614934
 20
7.9678722584
 10
14.870320029
 20
7.9574662922
 10
14.8622308289
 20
7.9469024291
 10
14.854294229
 20
7.9361803377
 10
14.8465098935
 20
7.9253003495
 10
14.8388946062
 20
7.9142859379
 10
14.8314487241
 20
7.9031368
 10
14.8241718903
 20
7.8918532388
 10
14.8170798182
 20
7.8804596362
 10
14.8101729155
 20
7.8689557685
 10
14.8034507746
 20
7.8573418596
 10
14.7969278858
 20
7.8456429633
 10
14.7906046745
 20
7.8338588878
 10
14.7844807152
 20
7.8219898249
 10
14.7785692223
 20
7.8100614051
 10
14.7728706568
 20
7.7980735035
 10
14.7673845576
 20
7.7860262449
 10
14.762122756
 20
7.7739456341
 10
14.7570857366
 20
7.7618315983
 10
14.7522730148
 20
7.7496842102
 10
14.7476949684
 20
7.7375296926
 10
14.743352109
 20
7.7253680491
 10
14.739243925
 20
7.7131992761
 10
14.7353792591
 20
7.701049586
 10
14.7317586272
 20
7.6889189809
 10
14.7283815134
 20
7.6768074588
 10
14.725255213
 20
7.6647412253
 10
14.7223802421
 20
7.6527201497
 10
14.7197560846
 20
7.6407443628
 10
14.7173884864
 20
7.6288404632
 10
14.7152793632
 20
7.6170173172
 10
14.7134267993
 20
7.6052660584
 10
14.7118307949
 20
7.593586687
  0
LINE
  5
26B
100
AcDbEntity
  8
ASSI
100
AcDbLine
 62
253
  6
CONTINUOUS
 10
17.1925693885
 20
9.4011038453
 11
15.0544918292
 21
8.1248981868
  0
LINE
  5
26C
100
AcDbEntity
  8
ASSI
100
AcDbLine
 62
7
  6
CONTINUOUS
 10
17.5670346713
 20
-8.0077931779
 11
17.4904660258
 21
-7.9635834016
  0
LINE
  5
26D
100
AcDbEntity
  8
ASSI
100
AcDbLine
 62
7
  6
CONTINUOUS
 10
3.8118667241
 20
17.4976000465
 11
3.8330720133
 21
16.8811275491
  0
LINE
  5
26E
100
AcDbEntity
  8
ASSI
100
AcDbLine
 62
253
  6
CONTINUOUS
 10
3.6316154747
 20
17.0833798877
 11
3.6316154747
 21
17.0205618991
  0
LWPOLYLINE
  5
26F
100
AcDbEntity
  8
0
100
AcDbPolyline
 62
253
  6
CONTINUOUS
 90
54
 70
0
 10
-8.013436486
 20
-7.5096076706
 10
-8.0073158352
 20
-7.5062643902
 10
-8.0014270611
 20
-7.5026480232
 10
-7.9957550777
 20
-7.4987556475
 10
-7.990284799
 20
-7.4945843414
 10
-7.9850043802
 20
-7.490131887
 10
-7.9799149408
 20
-7.4853988842
 10
-7.9750208417
 20
-7.480386637
 10
-7.9703264437
 20
-7.4750964495
 10
-7.9658365457
 20
-7.4695301553
 10
-7.9615577
 20
-7.4636917058
 10
-7.9574968971
 20
-7.4575855818
 10
-7.9536611276
 20
-7.4512162641
 10
-7.9500565738
 20
-7.444588224
 10
-7.9466861854
 20
-7.4377058937
 10
-7.9435521042
 20
-7.430573696
 10
-7.9406564717
 20
-7.4231960537
 10
-7.9376414645
 20
-7.4144704033
 10
-7.934941266
 20
-7.4054414211
 10
-7.9325564439
 20
-7.3961205799
 10
-7.9304875665
 20
-7.3865193521
 10
-7.9287352018
 20
-7.3766492103
 10
-7.9272999178
 20
-7.366521627
 10
-7.9261822825
 20
-7.3561480747
 10
-7.9253827009
 20
-7.3455400107
 10
-7.9249009248
 20
-7.3347088311
 10
-7.9247365431
 20
-7.3236659169
 10
-7.9248891445
 20
-7.312422649
 10
-7.9253583177
 20
-7.3009904081
 10
-7.9261436516
 20
-7.2893805753
 10
-7.9272447349
 20
-7.2776045315
 10
-7.9286610011
 20
-7.2656736679
 10
-7.9303912622
 20
-7.2535994174
 10
-7.9324341752
 20
-7.2413932236
 10
-7.9347883969
 20
-7.2290665299
 10
-7.9374525841
 20
-7.2166307795
 10
-7.9404253936
 20
-7.2040974159
 10
-7.9437054824
 20
-7.1914778825
 10
-7.9468264133
 20
-7.1803742282
 10
-7.9501797422
 20
-7.1692217927
 10
-7.9537636344
 20
-7.1580290074
 10
-7.9575762556
 20
-7.1468043034
 10
-7.961615046
 20
-7.1355571535
 10
-7.9658745444
 20
-7.1243011963
 10
-7.9703485644
 20
-7.1130511117
 10
-7.9750309193
 20
-7.1018215798
 10
-7.9799159669
 20
-7.0906259165
 10
-7.9850002413
 20
-7.0794719812
 10
-7.9902808209
 20
-7.0683662694
 10
-7.9957547838
 20
-7.0573152764
 10
-8.0014224338
 20
-7.0463211142
 10
-8.0072969752
 20
-7.0353683607
 10
-8.0133948378
 20
-7.0244372101
 10
-8.0197324513
 20
-7.0135078569
  0
LINE
  5
270
100
AcDbEntity
  8
ASSI
100
AcDbLine
 62
253
  6
CONTINUOUS
 10
-17.3505498606
 20
15.4106670201
 11
13.2972342297
 21
-2.2849794067
  0
LINE
  5
271
100
AcDbEntity
  8
ASSI
100
AcDbLine
 62
7
  6
CONTINUOUS
 10
11.7314626734
 20
12.9249246012
 11
11.551211424
 21
12.5107044424
  0
LWPOLYLINE
  5
272
100
AcDbEntity
  8
0
100
AcDbPolyline
 62
253
  6
CONTINUOUS
 90
55
 70
0
 10
-8.2424261118
 20
11.6480485345
 10
-8.2327608787
 20
11.6426523872
 10
-8.2231755021
 20
11.6376674603
 10
-8.2136455271
 20
11.6330739911
 10
-8.2041464986
 20
11.6288522169
 10
-8.1946539619
 20
11.624982375
 10
-8.18514835
 20
11.621449123
 10
-8.1756296486
 20
11.6182548007
 10
-8.1661027311
 20
11.6154061682
 10
-8.1565724713
 20
11.6129099858
 10
-8.1470437428
 20
11.6107730135
 10
-8.1375232455
 20
11.6090024461
 10
-8.1280249849
 20
11.6076072153
 10
-8.1185647927
 20
11.6065966877
 10
-8.1091585007
 20
11.6059802295
 10
-8.0998219406
 20
11.605767207
 10
-8.0921088948
 20
11.6059036262
 10
-8.0844808199
 20
11.6063261365
 10
-8.0769632677
 20
11.6070341611
 10
-8.0695751434
 20
11.6080281752
 10
-8.062308766
 20
11.6093128625
 10
-8.0551498078
 20
11.6108939592
 10
-8.0480885228
 20
11.6127766575
 10
-8.0411334899
 20
11.6149639756
 10
-8.0342978698
 20
11.6174583875
 10
-8.0275948229
 20
11.6202623678
 10
-8.0210375095
 20
11.6233783905
 10
-8.0146390902
 20
11.6268089302
 10
-8.0084114011
 20
11.6305539164
 10
-8.0023609802
 20
11.6346031011
 10
-7.9964930414
 20
11.6389436914
 10
-7.9908127985
 20
11.6435628947
 10
-7.9853254651
 20
11.648447918
 10
-7.980036255
 20
11.6535859687
 10
-7.974947426
 20
11.6589678639
 10
-7.9700494113
 20
11.6645988594
 10
-7.9653296883
 20
11.6704878214
 10
-7.9607800281
 20
11.6766386557
 10
-7.956409378
 20
11.6830354298
 10
-7.9522309789
 20
11.6896572512
 10
-7.9474856214
 20
11.6978741813
 10
-7.9430368919
 20
11.7063675832
 10
-7.9388855093
 20
11.7151199455
 10
-7.9350321928
 20
11.7241137571
 10
-7.9314776615
 20
11.7333315067
 10
-7.9282221311
 20
11.7427572455
 10
-7.9252638033
 20
11.7523812741
 10
-7.9226003766
 20
11.7621954556
 10
-7.9202295494
 20
11.7721916533
 10
-7.9181490201
 20
11.7823617301
 10
-7.9163575548
 20
11.7927042668
 10
-7.9148581905
 20
11.8032447138
 10
-7.9136550322
 20
11.8140152391
 10
-7.9127521845
 20
11.8250480109
 10
-7.9121537524
 20
11.8363751972
  0
LINE
  5
273
100
AcDbEntity
  8
0
100
AcDbLine
 62
253
  6
CONTINUOUS
 10
-11.6358901973
 20
13.6073921674
 11
-8.2424261118
 21
11.6480485345
  0
LINE
  5
274
100
AcDbEntity
  8
0
100
AcDbLine
 62
253
  6
CONTINUOUS
 10
-8.2898020788
 20
12.0864497789
 11
-11.5584512168
 21
13.9741178223
  0
LWPOLYLINE
  5
275
100
AcDbEntity
  8
ASSI
100
AcDbPolyline
 62
253
  6
CONTINUOUS
 90
49
 70
0
 10
13.9917229781
 20
-2.2997726584
 10
13.9798516688
 20
-2.305714078
 10
13.9676434069
 20
-2.3114332581
 10
13.9551106909
 20
-2.3169243436
 10
13.9422663515
 20
-2.3221817128
 10
13.9291235385
 20
-2.3271999834
 10
13.9156957069
 20
-2.3319740178
 10
13.9019966041
 20
-2.3364989285
 10
13.8880402546
 20
-2.3407700829
 10
13.8738409467
 20
-2.3447831085
 10
13.8594132173
 20
-2.3485338966
 10
13.8447718371
 20
-2.3520186075
 10
13.8299317955
 20
-2.3552336735
 10
13.8149082854
 20
-2.3581758032
 10
13.7997166875
 20
-2.3608419844
 10
13.7843725546
 20
-2.3632294876
 10
13.7688915955
 20
-2.3653358685
 10
13.7532896593
 20
-2.3671589707
 10
13.7375827189
 20
-2.3686969277
 10
13.7217868545
 20
-2.3699481651
 10
13.7059182376
 20
-2.3709114017
 10
13.6899931141
 20
-2.3715856516
 10
13.6740277877
 20
-2.3719702243
 10
13.6580386032
 20
-2.3720647262
 10
13.6420419301
 20
-2.3718690606
 10
13.6260541452
 20
-2.3713834277
 10
13.6100916165
 20
-2.3706083248
 10
13.5941706859
 20
-2.3695445454
 10
13.578307653
 20
-2.3681931784
 10
13.5625187578
 20
-2.3665556075
 10
13.5468201646
 20
-2.3646335092
 10
13.5312279453
 20
-2.3624288511
 10
13.5157580628
 20
-2.3599438905
 10
13.5004263546
 20
-2.3571811713
 10
13.4852485171
 20
-2.3541435219
 10
13.4702400889
 20
-2.3508340523
 10
13.4554164352
 20
-2.3472561505
 10
13.4407927322
 20
-2.3434134795
 10
13.4263839511
 20
-2.3393099734
 10
13.4122048433
 20
-2.3349498331
 10
13.398269925
 20
-2.3303375226
 10
13.3845934625
 20
-2.3254777637
 10
13.3711894573
 20
-2.3203755318
 10
13.358071632
 20
-2.3150360504
 10
13.3452534165
 20
-2.309464786
 10
13.3327479337
 20
-2.3036674421
 10
13.3205679862
 20
-2.2976499541
 10
13.3087260437
 20
-2.2914184824
 10
13.2972342297
 20
-2.2849794067
  0
LINE
  5
276
100
AcDbEntity
  8
ASSI
100
AcDbLine
 62
7
  6
CONTINUOUS
 10
14.8511523152
 20
11.1236549009
 11
14.1784454944
 21
10.9937724172
  0
LWPOLYLINE
  5
277
100
AcDbEntity
  8
ASSI
100
AcDbPolyline
 62
253
  6
CONTINUOUS
 90
52
 70
0
 10
14.7118307949
 20
-26.9151097917
 10
14.7134267993
 20
-26.9250705137
 10
14.7152793632
 20
-26.9348268482
 10
14.7173884864
 20
-26.9443787953
 10
14.7197560846
 20
-26.9537331586
 10
14.7223802421
 20
-26.9628831344
 10
14.725255213
 20
-26.9718083119
 10
14.7283815134
 20
-26.9805080042
 10
14.7317586272
 20
-26.9889828981
 10
14.7353792591
 20
-26.9972146436
 10
14.739243925
 20
-27.0052026874
 10
14.743352109
 20
-27.0129475828
 10
14.7476949684
 20
-27.0204326397
 10
14.7522730148
 20
-27.0276573107
 10
14.7570857366
 20
-27.0346221432
 10
14.762122756
 20
-27.0413120896
 10
14.7673845576
 20
-27.0477265554
 10
14.7728706568
 20
-27.0538661352
 10
14.7785692223
 20
-27.0597175647
 10
14.7844807152
 20
-27.0652802227
 10
14.7906046745
 20
-27.0705547304
 10
14.7969278858
 20
-27.0755296872
 10
14.8034507746
 20
-27.0802044429
 10
14.8101729155
 20
-27.0845796477
 10
14.8170798182
 20
-27.0886458515
 10
14.8241718903
 20
-27.0924023913
 10
14.8314487241
 20
-27.0958499301
 10
14.8388946062
 20
-27.0989810067
 10
14.8465098935
 20
-27.101794934
 10
14.854294229
 20
-27.104292399
 10
14.8622308289
 20
-27.1064680021
 10
14.870320029
 20
-27.1083210501
 10
14.8785614934
 20
-27.1098522362
 10
14.8869374304
 20
-27.1110582398
 10
14.8954481312
 20
-27.1119383574
 10
14.9040933044
 20
-27.1124932925
 10
14.9128542849
 20
-27.1127218355
 10
14.9217313257
 20
-27.1126232793
 10
14.9307241736
 20
-27.1121983309
 10
14.9398134041
 20
-27.1114479016
 10
14.9489992109
 20
-27.1103712914
 10
14.9582814002
 20
-27.1089692002
 10
14.967639966
 20
-27.1072446389
 10
14.9770751053
 20
-27.1051968999
 10
14.9865866211
 20
-27.1028266908
 10
14.996153917
 20
-27.1001391452
 10
15.0057773889
 20
-27.0971334415
 10
15.015456641
 20
-27.0938104012
 10
15.0251698894
 20
-27.0901776225
 10
15.0349098729
 20
-27.0862376381
 10
15.0446838529
 20
-27.0819879152
 10
15.0544918292
 20
-27.0774284538
  0
LWPOLYLINE
  5
278
100
AcDbEntity
  8
ASSI
100
AcDbPolyline
 62
253
  6
CONTINUOUS
 90
25
 70
0
 10
14.0212292509
 20
-26.9666891699
 10
14.0243636218
 20
-26.9865618384
 10
14.0280079651
 20
-27.0060467625
 10
14.0321596978
 20
-27.0251299384
 10
14.0368159246
 20
-27.0437976338
 10
14.0419732959
 20
-27.0620364661
 10
14.0476280253
 20
-27.0798333976
 10
14.053776173
 20
-27.0971757411
 10
14.0604133497
 20
-27.1140509377
 10
14.0675345769
 20
-27.1304466345
 10
14.0751348062
 20
-27.1463510304
 10
14.0832086658
 20
-27.1617527689
 10
14.0917501806
 20
-27.1766407016
 10
14.1007533435
 20
-27.1910041903
 10
14.1102117583
 20
-27.2048329129
 10
14.1201183816
 20
-27.2181167602
 10
14.1304662222
 20
-27.2308462356
 10
14.1412479462
 20
-27.2430122288
 10
14.1524555273
 20
-27.2546058142
 10
14.1640810552
 20
-27.2656187241
 10
14.1761162885
 20
-27.2760430903
 10
14.18855226
 20
-27.285871219
 10
14.2013801751
 20
-27.2950961139
 10
14.2145909528
 20
-27.3037112143
 10
14.2231031826
 20
-27.3088211463
  0
LINE
  5
279
100
AcDbEntity
  8
ASSI
100
AcDbLine
 62
7
  6
CONTINUOUS
 10
11.7314626734
 20
12.9249246012
 11
11.7526679626
 21
12.3084521038
  0
LWPOLYLINE
  5
27A
100
AcDbEntity
  8
ASSI
100
AcDbPolyline
 62
253
  6
CONTINUOUS
 90
22
 70
0
 10
13.2972342297
 20
-17.7979146657
 10
13.3062913562
 20
-18.2500486721
 10
13.3178959697
 20
-18.7007388475
 10
13.3320476375
 20
-19.1499677583
 10
13.3487458563
 20
-19.5977180349
 10
13.3679899781
 20
-20.043972356
 10
13.3897792111
 20
-20.4887134494
 10
13.4141127523
 20
-20.9319241284
 10
13.4409896834
 20
-21.3735872489
 10
13.4704088974
 20
-21.8136856933
 10
13.5023693057
 20
-22.2522024515
 10
13.5368697053
 20
-22.6891205752
 10
13.5739086766
 20
-23.1244231341
 10
13.6134848473
 20
-23.5580933192
 10
13.6555967293
 20
-23.9901143646
 10
13.7002425883
 20
-24.4204695026
 10
13.7474207666
 20
-24.8491421125
 10
13.7971294932
 20
-25.2761156357
 10
13.8493667216
 20
-25.7013734978
 10
13.904130438
 20
-26.1248992493
 10
13.9614186609
 20
-26.5466765674
 10
14.0212292509
 20
-26.9666891699
  0
LWPOLYLINE
  5
27B
100
AcDbEntity
  8
ASSI
100
AcDbPolyline
 62
253
  6
CONTINUOUS
 90
23
 70
0
 10
13.2313013737
 20
-9.7521831341
 10
13.2314185158
 20
-9.7597092899
 10
13.2317802439
 20
-9.7670839361
 10
13.232386057
 20
-9.7742968625
 10
13.2332351165
 20
-9.7813380826
 10
13.2343262467
 20
-9.7881978479
 10
13.2356579371
 20
-9.794866661
 10
13.2372283439
 20
-9.8013352889
 10
13.2390352928
 20
-9.8075947758
 10
13.2410762822
 20
-9.8136364553
 10
13.2433484862
 20
-9.8194519627
 10
13.245848759
 20
-9.8250332465
 10
13.2485736389
 20
-9.8303725793
 10
13.2515193534
 20
-9.8354625688
 10
13.254681824
 20
-9.8402961679
 10
13.2580566723
 20
-9.8448666844
 10
13.2616392259
 20
-9.8491677904
 10
13.2654245246
 20
-9.8531935311
 10
13.2694073277
 20
-9.8569383328
 10
13.2735821209
 20
-9.8603970108
 10
13.2779431243
 20
-9.8635647765
 10
13.2824843001
 20
-9.8664372442
 10
13.2830273936
 20
-9.866754007
  0
LINE
  5
27C
100
AcDbEntity
  8
ASSI
100
AcDbLine
 62
253
  6
CONTINUOUS
 10
13.2721028627
 20
-16.1600801283
 11
13.2972342297
 21
-17.7979146657
  0
LINE
  5
27D
100
AcDbEntity
  8
ASSI
100
AcDbLine
 62
253
  6
CONTINUOUS
 10
13.2529598726
 20
-14.5189403173
 11
13.2721028627
 21
-16.1600801283
  0
LINE
  5
27E
100
AcDbEntity
  8
ASSI
100
AcDbLine
 62
253
  6
CONTINUOUS
 10
13.2398051043
 20
-12.8745142232
 11
13.2529598726
 21
-14.5189403173
  0
LWPOLYLINE
  5
27F
100
AcDbEntity
  8
ASSI
100
AcDbPolyline
 62
253
  6
CONTINUOUS
 90
3
 70
0
 10
13.2312994764
 20
-10.4017142772
 10
13.2326377304
 20
-11.2267968263
 10
13.2398051043
 20
-12.8745142232
  0
LINE
  5
280
100
AcDbEntity
  8
ASSI
100
AcDbLine
 62
253
  6
CONTINUOUS
 10
11.551211424
 20
12.5107044424
 11
11.551211424
 21
12.4478864538
  0
LINE
  5
281
100
AcDbEntity
  8
ASSI
100
AcDbLine
 62
253
  6
CONTINUOUS
 10
13.2354729501
 20
-8.0983405189
 11
13.2312994764
 21
-9.7521820386
  0
LINE
  5
282
100
AcDbEntity
  8
ASSI
100
AcDbLine
 62
253
  6
CONTINUOUS
 10
13.2456340657
 20
-6.4413239565
 11
13.2354729501
 21
-8.0983405189
  0
LINE
  5
283
100
AcDbEntity
  8
ASSI
100
AcDbLine
 62
253
  6
CONTINUOUS
 10
13.2617827746
 20
-4.7811517633
 11
13.2456340657
 21
-6.4413239565
  0
LWPOLYLINE
  5
284
100
AcDbEntity
  8
ASSI
100
AcDbPolyline
 62
253
  6
CONTINUOUS
 90
43
 70
0
 10
13.2313013737
 20
-10.4017153727
 10
13.2314185158
 20
-10.3940539445
 10
13.2317802438
 20
-10.3862615843
 10
13.2323860569
 20
-10.3783490807
 10
13.2332351162
 20
-10.3703273885
 10
13.2343262463
 20
-10.3622076139
 10
13.2356579365
 20
-10.3540009987
 10
13.2372283431
 20
-10.3457189049
 10
13.2390352918
 20
-10.3373727992
 10
13.2410762809
 20
-10.3289742369
 10
13.2433484847
 20
-10.3205348457
 10
13.2458487572
 20
-10.31206631
 10
13.2485736368
 20
-10.3035803546
 10
13.251519351
 20
-10.2950887283
 10
13.2546818213
 20
-10.2866031877
 10
13.2580566694
 20
-10.2781354812
 10
13.2616392226
 20
-10.2696973324
 10
13.2654245211
 20
-10.2613004239
 10
13.2694073239
 20
-10.2529563812
 10
13.2735821169
 20
-10.2446767567
 10
13.2779431201
 20
-10.2364730136
 10
13.2824842956
 20
-10.22835651
 10
13.2871993561
 20
-10.2203384832
 10
13.2920817737
 20
-10.2124300343
 10
13.2971247887
 20
-10.2046421125
 10
13.3023214188
 20
-10.1969855003
 10
13.3076644695
 20
-10.1894707982
 10
13.3131465431
 20
-10.1821084103
 10
13.3187600498
 20
-10.1749085301
 10
13.3244972176
 20
-10.1678811256
 10
13.3303501033
 20
-10.1610359264
 10
13.3363106037
 20
-10.1543824097
 10
13.3423704665
 20
-10.1479297873
 10
13.3485213016
 20
-10.1416869929
 10
13.3547545932
 20
-10.1356626697
 10
13.3610617113
 20
-10.1298651584
 10
13.3674339238
 20
-10.1243024857
 10
13.3738624081
 20
-10.118982353
 10
13.3803382641
 20
-10.1139121262
 10
13.3868525259
 20
-10.109098825
 10
13.3933961745
 20
-10.1045491134
 10
13.3999601502
 20
-10.1002692906
 10
13.4065353651
 20
-10.096265282
  0
LWPOLYLINE
  5
285
100
AcDbEntity
  8
ASSI
100
AcDbPolyline
 62
253
  6
CONTINUOUS
 90
3
 70
0
 10
13.2972342297
 20
-2.2849794067
 10
13.2839200228
 20
-3.1178198393
 10
13.2617827746
 20
-4.7811517633
  0
LWPOLYLINE
  5
286
100
AcDbEntity
  8
ASSI
100
AcDbPolyline
 62
253
  6
CONTINUOUS
 90
22
 70
0
 10
14.0212292509
 20
7.6637284797
 10
13.9614186609
 20
7.1792843782
 10
13.904130438
 20
6.6957924956
 10
13.8493667216
 20
6.2132715845
 10
13.7971294932
 20
5.7317404049
 10
13.7474207666
 20
5.2512175826
 10
13.7002425883
 20
4.7717216093
 10
13.6555967293
 20
4.293271066
 10
13.6134848473
 20
3.81588451
 10
13.5739086766
 20
3.339580334
 10
13.5368697053
 20
2.8643769991
 10
13.5023693057
 20
2.390292922
 10
13.4704088974
 20
1.9173463628
 10
13.4409896834
 20
1.4455556359
 10
13.4141127523
 20
0.9749390315
 10
13.3897792111
 20
0.505514704
 10
13.3679899781
 20
0.0373008352
 10
13.3487458563
 20
-0.429684438
 10
13.3320476375
 20
-0.8954231018
 10
13.3178959697
 20
-1.3598971443
 10
13.3062913562
 20
-1.823088557
 10
13.2972342297
 20
-2.2849794067
  0
LWPOLYLINE
  5
287
100
AcDbEntity
  8
ASSI
100
AcDbPolyline
 62
253
  6
CONTINUOUS
 90
49
 70
0
 10
15.0544918292
 20
8.1248981868
 10
15.0536846068
 20
8.1379977078
 10
15.052513945
 20
8.1513087996
 10
15.0509810944
 20
8.1648172416
 10
15.0490876926
 20
8.1785086023
 10
15.0468357624
 20
8.1923682546
 10
15.0442277097
 20
8.2063813917
 10
15.0412663207
 20
8.2205330431
 10
15.0379547591
 20
8.2348080898
 10
15.0342965629
 20
8.2491912814
 10
15.0302956402
 20
8.2636672518
 10
15.0259562653
 20
8.2782205358
 10
15.0212830742
 20
8.2928355855
 10
15.0162810593
 20
8.3074967873
 10
15.0109555646
 20
8.3221884779
 10
15.0053122794
 20
8.3368949618
 10
14.9993572326
 20
8.3516005275
 10
14.9930967863
 20
8.3662894644
 10
14.9865376287
 20
8.3809460798
 10
14.9796867671
 20
8.3955547156
 10
14.9725515207
 20
8.4100997648
 10
14.9651395123
 20
8.4245656884
 10
14.9574586603
 20
8.438937032
 10
14.9495171705
 20
8.453198442
 10
14.9413235271
 20
8.4673346826
 10
14.9328864836
 20
8.4813306514
 10
14.9242150537
 20
8.495171396
 10
14.9153185013
 20
8.5088421299
 10
14.906206331
 20
8.5223282481
 10
14.8968882776
 20
8.535615343
 10
14.8873742959
 20
8.5486892193
 10
14.8776745502
 20
8.5615359099
 10
14.8677994028
 20
8.5741416901
 10
14.857759404
 20
8.5864930928
 10
14.8475652796
 20
8.5985769223
 10
14.8372279206
 20
8.6103802692
 10
14.8267583706
 20
8.6218905236
 10
14.8161678147
 20
8.6330953885
 10
14.8054675672
 20
8.6439828934
 10
14.7946690595
 20
8.6545414068
 10
14.783783828
 20
8.6647596486
 10
14.7728235019
 20
8.6746267023
 10
14.7617997905
 20
8.6841320266
 10
14.7507244708
 20
8.6932654666
 10
14.7396093749
 20
8.7020172647
 10
14.7284663776
 20
8.710378071
 10
14.7173073834
 20
8.7183389534
 10
14.7061443136
 20
8.725891407
 10
14.6949890944
 20
8.7330273632
  0
LWPOLYLINE
  5
288
100
AcDbEntity
  8
ASSI
100
AcDbPolyline
 62
253
  6
CONTINUOUS
 90
43
 70
0
 10
13.9258527254
 20
-10.4068344551
 10
13.9256739305
 20
-10.3991623249
 10
13.925257019
 20
-10.3913533308
 10
13.9246025735
 20
-10.38341839
 10
13.9237115091
 20
-10.3753685959
 10
13.9225850716
 20
-10.3672152026
 10
13.9212248357
 20
-10.3589696089
 10
13.9196327031
 20
-10.3506433426
 10
13.9178108998
 20
-10.3422480441
 10
13.9157619726
 20
-10.3337954506
 10
13.9134887861
 20
-10.3252973791
 10
13.9109945183
 20
-10.3167657105
 10
13.9082826563
 20
-10.3082123723
 10
13.9053569914
 20
-10.2996493226
 10
13.902221614
 20
-10.2910885329
 10
13.8988809073
 20
-10.2825419716
 10
13.8953395419
 20
-10.2740215872
 10
13.8916024687
 20
-10.2655392917
 10
13.8876749124
 20
-10.2571069437
 10
13.8835623639
 20
-10.2487363321
 10
13.8792705727
 20
-10.2404391593
 10
13.8748055391
 20
-10.2322270252
 10
13.8701735052
 20
-10.2241114107
 10
13.865380947
 20
-10.2161036619
 10
13.8604345646
 20
-10.2082149741
 10
13.8553412734
 20
-10.2004563759
 10
13.850108194
 20
-10.1928387142
 10
13.8447426425
 20
-10.1853726389
 10
13.8392521202
 20
-10.178068588
 10
13.8336443031
 20
-10.1709367728
 10
13.8279270313
 20
-10.163987164
 10
13.8221082977
 20
-10.1572294774
 10
13.8161962373
 20
-10.1506731606
 10
13.8101991153
 20
-10.1443273796
 10
13.8041253161
 20
-10.1382010062
 10
13.7979833311
 20
-10.1323026053
 10
13.791781747
 20
-10.1266404232
 10
13.7855292341
 20
-10.1212223757
 10
13.7792345336
 20
-10.1160560377
 10
13.7729064457
 20
-10.1111486319
 10
13.7665538176
 20
-10.106507019
 10
13.7601855303
 20
-10.1021376884
 10
13.7538104873
 20
-10.0980467484
  0
LWPOLYLINE
  5
289
100
AcDbEntity
  8
ASSI
100
AcDbPolyline
 62
253
  6
CONTINUOUS
 90
22
 70
0
 10
13.9917229781
 20
-17.7971949822
 10
14.0007323365
 20
-18.2468464474
 10
14.0122744892
 20
-18.6950279415
 10
14.0263494361
 20
-19.1417394645
 10
14.042957917
 20
-19.5869982285
 10
14.0620991921
 20
-20.0307870213
 10
14.0837710428
 20
-20.4730542066
 10
14.1079737617
 20
-20.9137995647
 10
14.1347070562
 20
-21.3530233153
 10
14.1639678298
 20
-21.7906744809
 10
14.195756375
 20
-22.2267528743
 10
14.2300723993
 20
-22.6612586828
 10
14.2669119285
 20
-23.0941414908
 10
14.3062752554
 20
-23.5254011155
 10
14.3481620873
 20
-23.9550377397
 10
14.3925675712
 20
-24.383001497
 10
14.4394920032
 20
-24.8092922209
 10
14.4889350873
 20
-25.2339100779
 10
14.5408910826
 20
-25.6568057002
 10
14.5953580755
 20
-26.077962632
 10
14.6523379796
 20
-26.4973973292
 10
14.7118307949
 20
-26.9151097917
  0
LINE
  5
28A
100
AcDbEntity
  8
ASSI
100
AcDbLine
 62
253
  6
CONTINUOUS
 10
13.9666112246
 20
-16.1606491101
 11
13.9917229781
 21
-17.7971949822
  0
LINE
  5
28B
100
AcDbEntity
  8
ASSI
100
AcDbLine
 62
253
  6
CONTINUOUS
 10
13.9474844667
 20
-14.5208099974
 11
13.9666112246
 21
-16.1606491101
  0
LINE
  5
28C
100
AcDbEntity
  8
ASSI
100
AcDbLine
 62
253
  6
CONTINUOUS
 10
13.9343429476
 20
-12.8776801435
 11
13.9474844667
 21
-14.5208099974
  0
LWPOLYLINE
  5
28D
100
AcDbEntity
  8
ASSI
100
AcDbPolyline
 62
253
  6
CONTINUOUS
 90
3
 70
0
 10
13.9258547539
 20
-10.4068333431
 10
13.9271876395
 20
-11.2312695458
 10
13.9343429476
 20
-12.8776801435
  0
LINE
  5
28E
100
AcDbEntity
  8
ASSI
100
AcDbLine
 62
253
  6
CONTINUOUS
 10
13.9300170374
 20
-8.1085302313
 11
13.9258547539
 21
-9.7610641685
  0
LINE
  5
28F
100
AcDbEntity
  8
ASSI
100
AcDbLine
 62
253
  6
CONTINUOUS
 10
13.940165451
 20
-6.4528317366
 11
13.9300170374
 21
-8.1085302313
  0
LINE
  5
290
100
AcDbEntity
  8
ASSI
100
AcDbLine
 62
253
  6
CONTINUOUS
 10
13.9562997516
 20
-4.7939714454
 11
13.940165451
 21
-6.4528317366
  0
LINE
  5
291
100
AcDbEntity
  8
ASSI
100
AcDbLine
 62
253
  6
CONTINUOUS
 10
13.9784189668
 20
-3.1319604023
 11
13.9562997516
 21
-4.7939714454
  0
LWPOLYLINE
  5
292
100
AcDbEntity
  8
ASSI
100
AcDbPolyline
 62
253
  6
CONTINUOUS
 90
23
 70
0
 10
13.9258527254
 20
-9.761065241
 10
13.9256739306
 20
-9.7686539725
 10
13.9252570191
 20
-9.7760845047
 10
13.9246025738
 20
-9.7833464492
 10
13.9237115096
 20
-9.7904296534
 10
13.9225850723
 20
-9.7973242148
 10
13.9212248367
 20
-9.8040204944
 10
13.9196327045
 20
-9.8105091304
 10
13.9178109014
 20
-9.8167810515
 10
13.9157619747
 20
-9.8228274892
 10
13.9134887886
 20
-9.8286399902
 10
13.9109945212
 20
-9.8342104285
 10
13.9082826597
 20
-9.8395310163
 10
13.9053569953
 20
-9.8445943152
 10
13.9022216183
 20
-9.8493932463
 10
13.8988809121
 20
-9.8539211006
 10
13.8953395472
 20
-9.858171548
 10
13.8916024745
 20
-9.862138646
 10
13.8876749186
 20
-9.8658168485
 10
13.8835623705
 20
-9.8692010133
 10
13.8792705797
 20
-9.8722864089
 10
13.8748055464
 20
-9.875068722
 10
13.8722765685
 20
-9.8764692357
  0
LWPOLYLINE
  5
293
100
AcDbEntity
  8
ASSI
100
AcDbPolyline
 62
253
  6
CONTINUOUS
 90
22
 70
0
 10
14.7118307949
 20
7.593586687
 10
14.6523379796
 20
7.1118096809
 10
14.5953580755
 20
6.6310164562
 10
14.5408910826
 20
6.1512070129
 10
14.4889350873
 20
5.6723628344
 10
14.4394920032
 20
5.1945024373
 10
14.3925675712
 20
4.7176813711
 10
14.3481620873
 20
4.2418997884
 10
14.3062752554
 20
3.7671575367
 10
14.2669119285
 20
3.2935097084
 10
14.2300723993
 20
2.8209564358
 10
14.195756375
 20
2.3494975866
 10
14.1639678298
 20
1.8791878558
 10
14.1347070562
 20
1.410027371
 10
14.1079737617
 20
0.9420160047
 10
14.0837710428
 20
0.4752080686
 10
14.0620991921
 20
0.0096036582
 10
14.042957917
 20
-0.454797322
 10
14.0263494361
 20
-0.9179408463
 10
14.0122744892
 20
-1.3798089062
 10
14.0007323365
 20
-1.8404195102
 10
13.9784189668
 20
-3.1319604023
  0
LINE
  5
294
100
AcDbEntity
  8
ASSI
100
AcDbLine
 62
253
  6
CONTINUOUS
 10
17.5670346713
 20
-8.0077931779
 11
13.7538104873
 21
-10.0980467484
  0
LWPOLYLINE
  5
295
100
AcDbEntity
  8
ASSI
100
AcDbPolyline
 62
253
  6
CONTINUOUS
 90
52
 70
0
 10
13.7538104873
 20
-10.0980467484
 10
13.748220373
 20
-10.1010201737
 10
13.7424909456
 20
-10.1038902521
 10
13.7366222051
 20
-10.1066569834
 10
13.7306084737
 20
-10.1093227477
 10
13.7244554292
 20
-10.1118851649
 10
13.7181801049
 20
-10.1143370957
 10
13.7117822599
 20
-10.1166781877
 10
13.7052621351
 20
-10.1189087932
 10
13.6986374871
 20
-10.1210228297
 10
13.6919080453
 20
-10.1230199719
 10
13.6850740802
 20
-10.1249005451
 10
13.6781541595
 20
-10.1266594426
 10
13.6711480613
 20
-10.1282963324
 10
13.6640560075
 20
-10.1298115465
 10
13.6568972317
 20
-10.1312009737
 10
13.6496715328
 20
-10.1324642755
 10
13.642379112
 20
-10.1336017904
 10
13.6350398059
 20
-10.1346104222
 10
13.6276534967
 20
-10.1354898184
 10
13.6202203023
 20
-10.1362403315
 10
13.6127604126
 20
-10.1368599227
 10
13.6052737498
 20
-10.1373482363
 10
13.5977603917
 20
-10.137705628
 10
13.5902407621
 20
-10.137931127
 10
13.5827148543
 20
-10.1380243746
 10
13.5751826749
 20
-10.1379857295
 10
13.5676646673
 20
-10.1378152964
 10
13.5601608584
 20
-10.1375127169
 10
13.5526712213
 20
-10.1370783496
 10
13.5452161197
 20
-10.1365133751
 10
13.5377956541
 20
-10.1358174386
 10
13.5304097239
 20
-10.134990895
 10
13.5230783902
 20
-10.1340359901
 10
13.5158017919
 20
-10.1329523728
 10
13.50857979
 20
-10.1317403943
 10
13.5014320287
 20
-10.1304033537
 10
13.4943587294
 20
-10.128940915
 10
13.4873596706
 20
-10.1273534143
 10
13.4804538324
 20
-10.125645159
 10
13.4736414563
 20
-10.1238158195
 10
13.4669223007
 20
-10.1218657253
 10
13.460314621
 20
-10.1198001726
 10
13.4538187071
 20
-10.1176188393
 10
13.4474342691
 20
-10.1153220474
 10
13.4411786927
 20
-10.1129160595
 10
13.4350522444
 20
-10.1104005284
 10
13.4290546577
 20
-10.1077758013
 10
13.4232025178
 20
-10.1050491827
 10
13.4175013533
 20
-10.1022231073
 10
13.4119456358
 20
-10.0992951404
 10
13.4065353651
 20
-10.096265282
  0
LINE
  5
296
100
AcDbEntity
  8
ASSI
100
AcDbLine
 62
253
  6
CONTINUOUS
 10
13.9258547539
 20
-9.7610641685
 11
17.7438652494
 21
-7.7425357072
  0
LINE
  5
297
100
AcDbEntity
  8
ASSI
100
AcDbLine
 62
7
  6
CONTINUOUS
 10
13.8721997478
 20
-9.8765099039
 11
17.6893971936
 21
-7.8584112905
  0
LINE
  5
298
100
AcDbEntity
  8
ASSI
100
AcDbLine
 62
7
  6
CONTINUOUS
 10
6.9315563659
 20
15.6963303462
 11
6.2588495451
 21
15.5664478624
  0
LINE
  5
299
100
AcDbEntity
  8
ASSI
100
AcDbLine
 62
253
  6
CONTINUOUS
 10
14.0212292509
 20
7.6637284797
 11
-16.6751512533
 21
25.3874338668
  0
LINE
  5
29A
100
AcDbEntity
  8
ASSI
100
AcDbLine
 62
253
  6
CONTINUOUS
 10
14.6949890944
 20
8.7330273632
 11
-16.0245158602
 21
26.4700845181
  0
LINE
  5
29B
100
AcDbEntity
  8
ASSI
100
AcDbLine
 62
7
  6
CONTINUOUS
 10
17.7438652494
 20
-8.3139561124
 11
17.7438652494
 21
-18.7240065358
  0
LINE
  5
29C
100
AcDbEntity
  8
ASSI
100
AcDbLine
 62
7
  6
CONTINUOUS
 10
17.7438652494
 20
-7.7425357072
 11
17.7438652494
 21
2.6675147162
  0
LWPOLYLINE
  5
29D
100
AcDbEntity
  8
ASSI
100
AcDbPolyline
 62
253
  6
CONTINUOUS
 90
27
 70
0
 10
15.0544918292
 20
-27.0774284538
 10
15.0536846068
 20
-27.0909755152
 10
15.0525139448
 20
-27.104282538
 10
15.0509810941
 20
-27.1173353061
 10
15.0490876921
 20
-27.1301198747
 10
15.0468357618
 20
-27.1426225855
 10
15.0442277088
 20
-27.1548300814
 10
15.0412663196
 20
-27.1667293208
 10
15.0379547578
 20
-27.1783075912
 10
15.0342965613
 20
-27.1895525231
 10
15.0302956382
 20
-27.2004521032
 10
15.025956263
 20
-27.2109946871
 10
15.0212830716
 20
-27.2211690117
 10
15.0162810564
 20
-27.2309642074
 10
15.0109555613
 20
-27.2403698097
 10
15.0053122758
 20
-27.2493757702
 10
14.9993572287
 20
-27.2579724675
 10
14.9930967821
 20
-27.2661507175
 10
14.9865376242
 20
-27.273901783
 10
14.9796867624
 20
-27.2812173833
 10
14.9725515157
 20
-27.2880897029
 10
14.965139507
 20
-27.2945113998
 10
14.9574586548
 20
-27.3004756135
 10
14.9495171648
 20
-27.3059759721
 10
14.9413235213
 20
-27.3110065995
 10
14.9328864777
 20
-27.3155621213
 10
14.9298402498
 20
-27.3170613594
  0
LINE
  5
29E
100
AcDbEntity
  8
ASSI
100
AcDbLine
 62
253
  6
CONTINUOUS
 10
17.7438652494
 20
-8.3139561124
 11
13.9258547539
 21
-10.4068333431
  0
LWPOLYLINE
  5
29F
100
AcDbEntity
  8
ASSI
100
AcDbPolyline
 62
253
  6
CONTINUOUS
 90
52
 70
0
 10
13.9258547539
 20
-10.4068333521
 10
13.9146892908
 20
-10.4127246831
 10
13.9032247452
 20
-10.4184190325
 10
13.8914715171
 20
-10.4239112824
 10
13.8794403216
 20
-10.4291965182
 10
13.8671420212
 20
-10.4342699746
 10
13.8545876041
 20
-10.43912703
 10
13.841788339
 20
-10.4437633551
 10
13.8287559318
 20
-10.4481747395
 10
13.8155023583
 20
-10.4523570396
 10
13.8020396998
 20
-10.4563064875
 10
13.7883801092
 20
-10.4600195659
 10
13.774535962
 20
-10.4634928304
 10
13.7605198297
 20
-10.4667231683
 10
13.7463444091
 20
-10.4697076969
 10
13.7320224947
 20
-10.4724436418
 10
13.7175670358
 20
-10.4749285633
 10
13.7029911783
 20
-10.4771602388
 10
13.6883081935
 20
-10.4791365597
 10
13.6735314178
 20
-10.4808557672
 10
13.6586742328
 20
-10.4823163444
 10
13.6437501055
 20
-10.4835168962
 10
13.6287725603
 20
-10.4844563672
 10
13.6137551909
 20
-10.4851339413
 10
13.5987116409
 20
-10.4855489373
 10
13.5836555793
 20
-10.4857010101
 10
13.5686006346
 20
-10.4855900583
 10
13.5535604072
 20
-10.4852161214
 10
13.5385485115
 20
-10.4845795625
 10
13.5235785874
 20
-10.4836809897
 10
13.5086642359
 20
-10.4825211638
 10
13.4938189932
 20
-10.481101161
 10
13.4790563118
 20
-10.4794222971
 10
13.4643895724
 20
-10.4774860452
 10
13.4498320568
 20
-10.4752941775
 10
13.4353969871
 20
-10.4728487095
 10
13.4210975051
 20
-10.470151827
 10
13.4069466149
 20
-10.4672060024
 10
13.39295711
 20
-10.4640139248
 10
13.3791416147
 20
-10.4605784409
 10
13.3655126427
 20
-10.4569026733
 10
13.352082571
 20
-10.4529899771
 10
13.3388635682
 20
-10.4488438689
 10
13.3258675698
 20
-10.444468097
 10
13.3131064192
 20
-10.4398666601
 10
13.3005918369
 20
-10.4350437683
 10
13.2883352644
 20
-10.4300038484
 10
13.2763477052
 20
-10.4247514495
 10
13.2646398732
 20
-10.4192912576
 10
13.2532223398
 20
-10.4136281965
 10
13.2421055129
 20
-10.4077674315
 10
13.2312994767
 20
-10.4017142776
  0
LINE
  5
2A0
100
AcDbEntity
  8
ASSI
100
AcDbLine
 62
7
  6
CONTINUOUS
 10
-12.226523293
 20
26.1537366049
 11
-9.8442381969
 21
24.7782350475
  0
LINE
  5
2A1
100
AcDbEntity
  8
ASSI
100
AcDbLine
 62
7
  6
CONTINUOUS
 10
-4.3069273437
 20
21.5810611597
 11
-1.9246422476
 21
20.2055596022
  0
LINE
  5
2A2
100
AcDbEntity
  8
ASSI
100
AcDbLine
 62
7
  6
CONTINUOUS
 10
3.6833792837
 20
16.9675582551
 11
6.0656643798
 21
15.5920566976
  0
LINE
  5
2A3
100
AcDbEntity
  8
ASSI
100
AcDbLine
 62
7
  6
CONTINUOUS
 10
11.602975233
 20
12.3948828098
 11
13.9852603291
 21
11.0193812523
  0
LINE
  5
2A4
100
AcDbEntity
  8
ASSI
100
AcDbLine
 62
7
  6
CONTINUOUS
 10
-14.0544787676
 20
27.8134040155
 11
-12.0980358526
 21
26.6837783964
  0
LINE
  5
2A5
100
AcDbEntity
  8
ASSI
100
AcDbLine
 62
7
  6
CONTINUOUS
 10
-8.9783462108
 20
24.8825086961
 11
-4.1784399033
 21
22.1111029511
  0
LINE
  5
2A6
100
AcDbEntity
  8
ASSI
100
AcDbLine
 62
7
  6
CONTINUOUS
 10
-1.0587502615
 20
20.3098332508
 11
3.8118667241
 21
17.4976000465
  0
LINE
  5
2A7
100
AcDbEntity
  8
ASSI
100
AcDbLine
 62
7
  6
CONTINUOUS
 10
6.9315563659
 20
15.6963303462
 11
11.7314626734
 21
12.9249246012
  0
LINE
  5
2A8
100
AcDbEntity
  8
ASSI
100
AcDbLine
 62
7
  6
CONTINUOUS
 10
14.8511523152
 20
11.1236549009
 11
16.8075952301
 21
9.9940292818
  0
LINE
  5
2A9
100
AcDbEntity
  8
ASSI
100
AcDbLine
 62
7
  6
CONTINUOUS
 10
17.1925693885
 20
9.4011038453
 11
17.7438652494
 21
2.6675147162
  0
LINE
  5
2AA
100
AcDbEntity
  8
ASSI
100
AcDbLine
 62
7
  6
CONTINUOUS
 10
17.1925693885
 20
-26.0512558822
 11
17.7438652494
 21
-18.7240065358
  0
LINE
  5
2AB
100
AcDbEntity
  8
ASSI
100
AcDbLine
 62
7
  6
CONTINUOUS
 10
-1.0587502615
 20
20.3098332508
 11
-1.7314570823
 21
20.1799507671
  0
LWPOLYLINE
  5
2AC
100
AcDbEntity
  8
ASSI
100
AcDbPolyline
 62
253
  6
CONTINUOUS
 90
49
 70
0
 10
13.9917229781
 20
-17.7971949822
 10
13.9798516688
 20
-17.8036329998
 10
13.9676434069
 20
-17.8098482696
 10
13.9551106909
 20
-17.8158344284
 10
13.9422663515
 20
-17.8215853478
 10
13.9291235384
 20
-17.8270951402
 10
13.9156957069
 20
-17.8323581648
 10
13.9019966041
 20
-17.8373690334
 10
13.8880402546
 20
-17.842122616
 10
13.8738409467
 20
-17.8466140461
 10
13.8594132173
 20
-17.8508387254
 10
13.8447718371
 20
-17.8547923288
 10
13.8299317955
 20
-17.8584708087
 10
13.8149082855
 20
-17.8618703992
 10
13.7997166876
 20
-17.8649876199
 10
13.7843725546
 20
-17.8678192794
 10
13.7688915956
 20
-17.8703624788
 10
13.7532896594
 20
-17.8726146143
 10
13.7375827189
 20
-17.8745733804
 10
13.7217868546
 20
-17.8762367717
 10
13.7059182377
 20
-17.8776030853
 10
13.6899931142
 20
-17.8786709222
 10
13.6740277877
 20
-17.8794391895
 10
13.6580386033
 20
-17.8799071004
 10
13.6420419302
 20
-17.880074176
 10
13.6260541453
 20
-17.8799402452
 10
13.6100916166
 20
-17.8795054451
 10
13.594170686
 20
-17.8787702209
 10
13.5783076531
 20
-17.8777353253
 10
13.5625187579
 20
-17.8764018177
 10
13.5468201648
 20
-17.8747710635
 10
13.5312279455
 20
-17.872844732
 10
13.5157580629
 20
-17.8706247954
 10
13.5004263548
 20
-17.8681135266
 10
13.4852485173
 20
-17.8653134963
 10
13.4702400891
 20
-17.8622275712
 10
13.4554164354
 20
-17.8588589107
 10
13.4407927324
 20
-17.8552109634
 10
13.4263839513
 20
-17.851287464
 10
13.4122048435
 20
-17.8470924294
 10
13.3982699252
 20
-17.8426301542
 10
13.3845934627
 20
-17.8379052068
 10
13.3711894575
 20
-17.8329224246
 10
13.3580716323
 20
-17.8276869087
 10
13.3452534168
 20
-17.8222040192
 10
13.3327479339
 20
-17.8164793692
 10
13.3205679865
 20
-17.8105188196
 10
13.308726044
 20
-17.8043284725
 10
13.2972342299
 20
-17.7979146656
  0
LINE
  5
2AD
100
AcDbEntity
  8
ASSI
100
AcDbLine
 62
7
  6
CONTINUOUS
 10
-8.9783462108
 20
24.8825086961
 11
-9.6510530316
 21
24.7526262123
  0
LWPOLYLINE
  5
2AE
100
AcDbEntity
  8
ASSI
100
AcDbPolyline
 62
253
  6
CONTINUOUS
 90
49
 70
0
 10
14.7118307949
 20
-26.9151097917
 10
14.700085287
 20
-26.9231803964
 10
14.6880025292
 20
-26.9310264696
 10
14.6755948978
 20
-26.9386399746
 10
14.6628751016
 20
-26.9460131132
 10
14.6498561695
 20
-26.953138333
 10
14.6365514365
 20
-26.9600083358
 10
14.6229745304
 20
-26.9666160848
 10
14.6091393579
 20
-26.9729548117
 10
14.5950600902
 20
-26.9790180239
 10
14.5807511484
 20
-26.9847995109
 10
14.566227189
 20
-26.9902933509
 10
14.5515030888
 20
-26.9954939165
 10
14.5365939293
 20
-27.0003958808
 10
14.5215149818
 20
-27.004994223
 10
14.5062816915
 20
-27.0092842329
 10
14.4909096616
 20
-27.0132615164
 10
14.4754146375
 20
-27.0169219995
 10
14.4598124904
 20
-27.020261933
 10
14.4441192016
 20
-27.0232778957
 10
14.4283508453
 20
-27.0259667985
 10
14.4125235729
 20
-27.0283258871
 10
14.396653596
 20
-27.0303527452
 10
14.3807571701
 20
-27.0320452967
 10
14.3648505775
 20
-27.0334018079
 10
14.3489501113
 20
-27.0344208893
 10
14.333072058
 20
-27.0351014973
 10
14.3172326812
 20
-27.0354429345
 10
14.3014482052
 20
-27.0354448513
 10
14.2857347976
 20
-27.0351072456
 10
14.2701085534
 20
-27.0344304635
 10
14.2545854785
 20
-27.0334151979
 10
14.2391814729
 20
-27.0320624889
 10
14.2239123146
 20
-27.030373722
 10
14.2087936438
 20
-27.028350627
 10
14.1938409461
 20
-27.0259952762
 10
14.1790695375
 20
-27.023310082
 10
14.1644945481
 20
-27.0202977949
 10
14.1501309069
 20
-27.0169615003
 10
14.1359933263
 20
-27.0133046156
 10
14.1220962872
 20
-27.0093308864
 10
14.1084540243
 20
-27.005044383
 10
14.095080511
 20
-27.000449496
 10
14.0819894456
 20
-26.9955509318
 10
14.0691942373
 20
-26.990353708
 10
14.0567079918
 20
-26.9848631481
 10
14.0445434988
 20
-26.9790848758
 10
14.032713218
 20
-26.97302481
 10
14.0212292672
 20
-26.9666891576
  0
LINE
  5
2AF
100
AcDbEntity
  8
ASSI
100
AcDbLine
 62
253
  6
CONTINUOUS
 10
15.0544918292
 20
-27.0774284538
 11
17.1925693885
 21
-26.0512558822
  0
LINE
  5
2B0
100
AcDbEntity
  8
ASSI
100
AcDbLine
 62
7
  6
CONTINUOUS
 10
14.9298402498
 20
-27.3170613594
 11
17.05437431
 21
-26.2973890044
  0
ELLIPSE
  5
2B1
100
AcDbEntity
  8
ASSI
100
AcDbEllipse
 62
7
  6
CONTINUOUS
 10
17.5669808008
 20
-8.2118874155
 30
0.0
 11
-0.1251346745
 21
0.2164781009
 31
0.0
 40
0.577507303
 41
-2.3566621664
 42
-0.7861703913
  0
ELLIPSE
  5
2B2
100
AcDbEntity
  8
ASSI
100
AcDbEllipse
 62
7
  6
CONTINUOUS
 10
16.8388587745
 20
-25.8462195176
 30
0.0
 11
-0.2149783503
 21
0.4514263066
 31
0.0
 40
0.6262155472
 41
-3.1396910161
 42
-2.3109372224
  0
ELLIPSE
  5
2B3
100
AcDbEntity
  8
0
100
AcDbEllipse
 62
253
  6
CONTINUOUS
 10
49.0428291617
 20
36.4353517514
 30
0.0
 11
-67.8712413466
 21
111.7483105274
 31
0.0
 40
0.5619613927
 41
-4.6806821191
 42
-4.6562724471
  0
ELLIPSE
  5
2B4
100
AcDbEntity
  8
0
100
AcDbEllipse
 62
253
  6
CONTINUOUS
 10
58.2355956801
 20
31.1275635762
 30
0.0
 11
92.440255424
 21
50.5409907356
 31
0.0
 40
0.0226605999
 41
-2.4110343697
 42
-2.3866297984
  0
ELLIPSE
  5
2B5
100
AcDbEntity
  8
0
100
AcDbEllipse
 62
253
  6
CONTINUOUS
 10
48.5474300178
 20
36.7213890083
 30
0.0
 11
-67.8498342112
 21
111.7403546097
 31
0.0
 40
0.5620393258
 41
-4.6773947539
 42
-4.6520585215
  0
ELLIPSE
  5
2B6
100
AcDbEntity
  8
0
100
AcDbEllipse
 62
253
  6
CONTINUOUS
 10
58.731578191
 20
30.8411894905
 30
0.0
 11
92.4359670693
 21
50.5435019202
 31
0.0
 40
0.0226223446
 41
-2.4152187426
 42
-2.3898719072
  0
ELLIPSE
  5
2B7
100
AcDbEntity
  8
ASSI
100
AcDbEllipse
 62
7
  6
CONTINUOUS
 10
-14.02407633
 20
27.4245256232
 30
0.0
 11
-0.2807337341
 21
0.4137505634
 31
0.0
 40
0.5254492115
 41
-0.8261225424
 42
0.0012090728
  0
ELLIPSE
  5
2B8
100
AcDbEntity
  8
ASSI
100
AcDbEllipse
 62
7
  6
CONTINUOUS
 10
17.5669808008
 20
-7.6403426768
 30
0.0
 11
-0.1251726487
 21
0.2165441215
 31
0.0
 40
0.5771556487
 41
-3.163409671
 42
-2.3569659634
  0
ELLIPSE
  5
2B9
100
AcDbEntity
  8
ASSI
100
AcDbEllipse
 62
7
  6
CONTINUOUS
 10
14.1266816853
 20
11.1095940498
 30
0.0
 11
0.1999154856
 21
0.0095814127
 31
0.0
 40
0.6067642562
 41
-2.385266879
 42
-1.3380693278
  0
ELLIPSE
  5
2BA
100
AcDbEntity
  8
ASSI
100
AcDbEllipse
 62
7
  6
CONTINUOUS
 10
6.2070857361
 20
15.6822694951
 30
0.0
 11
0.1999154856
 21
0.0095814127
 31
0.0
 40
0.6067642562
 41
-2.385266879
 42
-1.3380693278
  0
ELLIPSE
  5
2BB
100
AcDbEntity
  8
ASSI
100
AcDbEllipse
 62
7
  6
CONTINUOUS
 10
-1.7832208914
 20
20.2957723997
 30
0.0
 11
0.1999154856
 21
0.0095814127
 31
0.0
 40
0.6067642562
 41
-2.385266879
 42
-1.3380693278
  0
ELLIPSE
  5
2BC
100
AcDbEntity
  8
ASSI
100
AcDbEllipse
 62
7
  6
CONTINUOUS
 10
-9.7028168406
 20
24.868447845
 30
0.0
 11
0.1999154856
 21
0.0095814127
 31
0.0
 40
0.6067642562
 41
-2.385266879
 42
-1.3380693278
  0
ELLIPSE
  5
2BD
100
AcDbEntity
  8
ASSI
100
AcDbEllipse
 62
7
  6
CONTINUOUS
 10
16.8388587745
 20
9.6046536973
 30
0.0
 11
-0.2810161013
 21
0.4142924366
 31
0.0
 40
0.524175859
 41
-2.3937039903
 42
-0.8247341631
  0
ELLIPSE
  5
2BE
100
AcDbEntity
  8
ASSI
100
AcDbEllipse
 62
7
  6
CONTINUOUS
 10
3.82480064
 20
17.0577710525
 30
0.0
 11
0.1999154856
 21
0.0095814127
 31
0.0
 40
0.6067642562
 41
2.850720877
 42
3.8979184282
  0
ELLIPSE
  5
2BF
100
AcDbEntity
  8
ASSI
100
AcDbEllipse
 62
7
  6
CONTINUOUS
 10
11.7443965893
 20
12.4850956073
 30
0.0
 11
0.1999154856
 21
0.0095814127
 31
0.0
 40
0.6067642562
 41
2.850720877
 42
3.8979184282
  0
ELLIPSE
  5
2C0
100
AcDbEntity
  8
ASSI
100
AcDbEllipse
 62
7
  6
CONTINUOUS
 10
-4.1655059874
 20
21.6712739571
 30
0.0
 11
0.1999154856
 21
0.0095814127
 31
0.0
 40
0.6067642562
 41
2.850720877
 42
3.8979184282
  0
ELLIPSE
  5
2C1
100
AcDbEntity
  8
ASSI
100
AcDbEllipse
 62
7
  6
CONTINUOUS
 10
-12.0851019367
 20
26.2439494024
 30
0.0
 11
0.1999154856
 21
0.0095814127
 31
0.0
 40
0.6067642562
 41
2.850720877
 42
3.8979184282
  0
ELLIPSE
  5
2C2
100
AcDbEntity
  8
0
100
AcDbEllipse
 62
253
  6
CONTINUOUS
 10
48.5614482419
 20
49.4339019738
 30
0.0
 11
92.4359670693
 21
50.5435019202
 31
0.0
 40
0.0226223446
 41
-2.2950751012
 42
-2.2697282658
  0
ELLIPSE
  5
2C3
100
AcDbEntity
  8
0
100
AcDbEllipse
 62
253
  6
CONTINUOUS
 10
58.2501972712
 20
43.8397397129
 30
0.0
 11
-67.8712413466
 21
111.7483105274
 31
0.0
 40
0.5619613927
 41
1.4897420543
 42
1.5141517263
  0
ELLIPSE
  5
2C4
100
AcDbEntity
  8
0
100
AcDbEllipse
 62
253
  6
CONTINUOUS
 10
49.0574307528
 20
49.1475278882
 30
0.0
 11
92.440255424
 21
50.5409907356
 31
0.0
 40
0.0226605999
 41
-2.2982681353
 42
-2.273863564
  0
ELLIPSE
  5
2C5
100
AcDbEntity
  8
0
100
AcDbEllipse
 62
253
  6
CONTINUOUS
 10
58.7455964151
 20
43.553702456
 30
0.0
 11
-67.8498342112
 21
111.7403546097
 31
0.0
 40
0.5620393258
 41
1.4856465272
 42
1.5109827596
  0
ENDSEC
  0
SECTION
  2
OBJECTS
  0
DICTIONARY
  5
C
100
AcDbDictionary
280
0
281
1
  3
ACAD_GROUP
350
D
  3
ACAD_MLINESTYLE
350
17
  3
ACAD_LAYOUT
350
1A
  3
ACAD_PLOTSETTINGS
350
19
  3
ACAD_PLOTSTYLENAME
350
E
  0
DICTIONARY
  5
D
102
{ACAD_REACTORS
330
C
102
}
100
AcDbDictionary
280
0
281
1
  0
ACDBDICTIONARYWDFLT
  5
E
102
{ACAD_REACTORS
330
C
102
}
100
AcDbDictionary
281
1
  3
Normal
350
F
100
AcDbDictionaryWithDefault
340
F
  0
DICTIONARY
  5
17
102
{ACAD_REACTORS
330
C
102
}
100
AcDbDictionary
280
0
281
1
  3
Standard
350
18
  0
DICTIONARY
  5
19
102
{ACAD_REACTORS
330
C
102
}
100
AcDbDictionary
281
1
  0
DICTIONARY
  5
1A
102
{ACAD_REACTORS
330
C
102
}
100
AcDbDictionary
281
1
  3
Model
350
2C6
  3
Layout1
350
2C7
  0
ACDBPLACEHOLDER
  5
F
102
{ACAD_REACTORS
330
E
102
}
  0
MLINESTYLE
  5
18
102
{ACAD_REACTORS
330
17
102
}
100
AcDbMlineStyle
  2
STANDARD
 70
0
  3

 62
256
 51
90.0
 52
90.0
 71
2
 49
0.5
 62
256
  6
BYLAYER
 49
-0.5
 62
256
  6
BYLAYER
  0
LAYOUT
  5
2C6
102
{ACAD_REACTORS
330
1A
102
}
100
AcDbPlotSettings
  1

  2
none_device
  4
ISO_A4_(297.00_x_210.00_MM)
  6

 40
0.0
 41
0.0
 42
0.0
 43
0.0
 44
297.0
 45
210.0
 46
0.0
 47
0.0
 48
0.0
 49
0.0
140
0.0
141
0.0
142
1.0
143
1.0
 70
1024
 72
1
 73
0
 74
0
  7

 75
0
147
1.0
148
0.0
149
0.0
100
AcDbLayout
  1
Model
 70
0
 71
0
 10
0.0
 20
0.0
 11
297.0
 21
210.0
 12
0.0
 22
0.0
 32
0.0
 14
0.0
 24
0.0
 34
0.0
 15
0.0
 25
0.0
 35
0.0
146
0.0
 13
0.0
 23
0.0
 33
0.0
 16
1.0
 26
0.0
 36
0.0
 17
0.0
 27
1.0
 37
0.0
 76
0
330
219
345
0
346
0
  0
LAYOUT
  5
2C7
102
{ACAD_REACTORS
330
1A
102
}
100
AcDbPlotSettings
  1

  2
none_device
  4
ISO_A4_(297.00_x_210.00_MM)
  6

 40
0.0
 41
0.0
 42
0.0
 43
0.0
 44
297.0
 45
210.0
 46
0.0
 47
0.0
 48
0.0
 49
0.0
140
0.0
141
0.0
142
1.0
143
1.0
 70
0
 72
1
 73
0
 74
0
  7

 75
0
147
1.0
148
0.0
149
0.0
100
AcDbLayout
  1
Layout1
 70
0
 71
1
 10
0.0
 20
0.0
 11
297.0
 21
210.0
 12
0.0
 22
0.0
 32
0.0
 14
0.0
 24
0.0
 34
0.0
 15
0.0
 25
0.0
 35
0.0
146
0.0
 13
0.0
 23
0.0
 33
0.0
 16
1.0
 26
0.0
 36
0.0
 17
0.0
 27
1.0
 37
0.0
 76
0
330
21A
345
0
346
0
  0
ENDSEC
  0
EOF
