  0
SECTION
  2
HEADER
  9
$ACADVER
  1
AC1021
  9
$DWGCODEPAGE
  3
ANSI_1252
  9
$EXTMAX
 10
297.0
 20
210.0
 30
0.0
  9
$EXTMIN
 10
0.0
 20
0.0
 30
0.0
  9
$LIMMIN
 10
0.0
 20
0.0
  9
$LIMMAX
 10
297.0
 20
210.0
  9
$VIEWCTR
 10
148.5
 20
105.0
  9
$VIEWSIZE
 40
210.0
  9
$CLAYER
  8
0
  9
$LTSCALE
 40
16.335
  9
$CELTYPE
  6
BYLAYER
  9
$DIMSCALE
 40
1.0
  9
$DIMASZ
 40
3.0
  9
$DIMEXO
 40
0.5
  9
$DIMDLI
 40
11.286
  9
$DIMEXE
 40
1.5
  9
$DIMCEN
 40
2.673
  9
$DIMLFAC
 40
1.0
  9
$DIMBLK
  1
_FILLED
  9
$DIMALT
 70
0
  9
$DIMALTF
 40
25.4
  9
$DIMTXT
 40
3.0
  9
$DIMTOL
 70
1
  9
$DIMLIM
 70
0
  9
$DIMTFAC
 40
1.0
  9
$DIMTP
 40
0.01
  9
$DIMTM
 40
0.01
  9
$DIMGAP
 40
0.625
  9
$DIMDSEP
 70
44
  9
$AUNITS
 70
0
  9
$PDMODE
 70
3
  9
$PDSIZE
 40
3.0
  9
$HANDSEED
  5
316
  9
$TILEMODE
 70
1
  9
$MEASUREMENT
 70
1
  9
$INSUNITS
 70
4
  0
ENDSEC
  0
SECTION
  2
CLASSES
  0
CLASS
  1
ACDBDICTIONARYWDFLT
  2
AcDbDictionaryWithDefault
  3
AutoCAD 2000
 90
0
 91
1
280
0
281
0
  0
CLASS
  1
ACDBPLACEHOLDER
  2
AcDbPlaceHolder
  3
AutoCAD 2000
 90
0
 91
1
280
0
281
0
  0
CLASS
  1
LAYOUT
  2
AcDbLayout
  3
AutoCAD 2000
 90
0
 91
0
280
0
281
0
  0
ENDSEC
  0
SECTION
  2
TABLES
  0
TABLE
  2
VPORT
  5
8
100
AcDbSymbolTable
 70
2
  0
VPORT
  5
1F4
100
AcDbSymbolTableRecord
100
AcDbViewportTableRecord
  2
*ACTIVE
 70
0
 10
0.0
 20
0.0
 11
1.0
 21
1.0
 12
148.5
 22
105.0
 13
0.0
 23
0.0
 14
1.0
 24
1.0
 15
0.0
 25
0.0
 16
0.0
 26
0.0
 36
1.0
 17
0.0
 27
0.0
 37
0.0
 40
210.0
 41
1.4142857143
 42
50.0
 43
0.0
 44
0.0
 50
0.0
 51
0.0
 71
0
 72
100
 73
1
 74
1
 75
0
 76
0
 77
0
 78
0
  0
ENDTAB
  0
TABLE
  2
LTYPE
  5
5
100
AcDbSymbolTable
 70
6
  0
LTYPE
  5
14
100
AcDbSymbolTableRecord
100
AcDbLinetypeTableRecord
  2
BYBLOCK
 70
0
  3

 72
65
 73
0
 40
0.0
  0
LTYPE
  5
15
100
AcDbSymbolTableRecord
100
AcDbLinetypeTableRecord
  2
BYLAYER
 70
0
  3

 72
65
 73
0
 40
0.0
  0
LTYPE
  5
16
100
AcDbSymbolTableRecord
100
AcDbLinetypeTableRecord
  2
CONTINUOUS
 70
64
  3
Solid line
 72
65
 73
0
 40
0.0
  0
LTYPE
  5
1F5
100
AcDbSymbolTableRecord
100
AcDbLinetypeTableRecord
  2
CENTER
 70
64
  3
____ _ ____ _ ____ _ ____ _ ____ _ ____ _ ____
 72
65
 73
4
 40
0.6
 49
0.375
 74
0
 49
-0.075
 74
0
 49
0.075
 74
0
 49
-0.075
 74
0
  0
LTYPE
  5
1F6
100
AcDbSymbolTableRecord
100
AcDbLinetypeTableRecord
  2
HIDDEN
 70
64
  3
- - - - - - - - - - - - - - - - - - - -
 72
65
 73
2
 40
0.2
 49
0.1
 74
0
 49
-0.1
 74
0
  0
LTYPE
  5
1F7
100
AcDbSymbolTableRecord
100
AcDbLinetypeTableRecord
  2
PHANTOM
 70
64
  3
_____ _ _ _____ _ _ _____ _ _ _____
 72
65
 73
6
 40
0.8
 49
0.45
 74
0
 49
-0.05
 74
0
 49
0.1
 74
0
 49
-0.05
 74
0
 49
0.1
 74
0
 49
-0.05
 74
0
  0
LTYPE
  5
1F8
100
AcDbSymbolTableRecord
100
AcDbLinetypeTableRecord
  2
DOT
 70
64
  3
. . . . . . . . . . . . . . . . . . . .
 72
65
 73
2
 40
0.2
 49
0.1
 74
0
 49
-0.1
 74
0
  0
LTYPE
  5
1F9
100
AcDbSymbolTableRecord
100
AcDbLinetypeTableRecord
  2
DASHED
 70
64
  3
- - - - - - - - - - - - - - - - - - - -
 72
65
 73
2
 40
0.2
 49
0.1
 74
0
 49
-0.1
 74
0
  0
ENDTAB
  0
TABLE
  2
LAYER
  5
2
100
AcDbSymbolTable
 70
36
  0
LAYER
  5
10
100
AcDbSymbolTableRecord
100
AcDbLayerTableRecord
  2
0
 70
0
 62
7
  6
CONTINUOUS
370
-3
390
F
  0
LAYER
  5
1FA
100
AcDbSymbolTableRecord
100
AcDbLayerTableRecord
  2
DEFAULT_1
 70
0
 62
7
  6
CENTER
370
-3
390
F
  0
LAYER
  5
1FB
100
AcDbSymbolTableRecord
100
AcDbLayerTableRecord
  2
DEFAULT_2
 70
0
 62
7
  6
HIDDEN
370
-3
390
F
  0
LAYER
  5
1FC
100
AcDbSymbolTableRecord
100
AcDbLayerTableRecord
  2
DEFAULT_3
 70
0
 62
7
  6
PHANTOM
370
-3
390
F
  0
LAYER
  5
1FD
100
AcDbSymbolTableRecord
100
AcDbLayerTableRecord
  2
ASSI
 70
0
 62
7
  6
CONTINUOUS
370
-3
390
F
  0
LAYER
  5
1FE
100
AcDbSymbolTableRecord
100
AcDbLayerTableRecord
  2
COLOR9
 70
0
 62
7
  6
CONTINUOUS
370
-3
390
F
  0
LAYER
  5
1FF
100
AcDbSymbolTableRecord
100
AcDbLayerTableRecord
  2
COORDINATE
 70
0
 62
7
  6
CONTINUOUS
370
-3
390
F
  0
LAYER
  5
200
100
AcDbSymbolTableRecord
100
AcDbLayerTableRecord
  2
COORD_ORIGINE
 70
0
 62
7
  6
CONTINUOUS
370
-3
390
F
  0
LAYER
  5
201
100
AcDbSymbolTableRecord
100
AcDbLayerTableRecord
  2
COPY_PUBLISH
 70
0
 62
7
  6
CONTINUOUS
370
-3
390
F
  0
LAYER
  5
202
100
AcDbSymbolTableRecord
100
AcDbLayerTableRecord
  2
COSMETICI
 70
0
 62
7
  6
CONTINUOUS
370
-3
390
F
  0
LAYER
  5
203
100
AcDbSymbolTableRecord
100
AcDbLayerTableRecord
  2
CURVE
 70
0
 62
7
  6
CONTINUOUS
370
-3
390
F
  0
LAYER
  5
204
100
AcDbSymbolTableRecord
100
AcDbLayerTableRecord
  2
DRAFT
 70
0
 62
7
  6
CONTINUOUS
370
-3
390
F
  0
LAYER
  5
205
100
AcDbSymbolTableRecord
100
AcDbLayerTableRecord
  2
IGES
 70
0
 62
7
  6
CONTINUOUS
370
-3
390
F
  0
LAYER
  5
206
100
AcDbSymbolTableRecord
100
AcDbLayerTableRecord
  2
IGS_SCRITTE
 70
0
 62
7
  6
CONTINUOUS
370
-3
390
F
  0
LAYER
  5
207
100
AcDbSymbolTableRecord
100
AcDbLayerTableRecord
  2
IMPORT_IGES
 70
0
 62
7
  6
CONTINUOUS
370
-3
390
F
  0
LAYER
  5
208
100
AcDbSymbolTableRecord
100
AcDbLayerTableRecord
  2
INTF_YELLOW
 70
0
 62
7
  6
CONTINUOUS
370
-3
390
F
  0
LAYER
  5
209
100
AcDbSymbolTableRecord
100
AcDbLayerTableRecord
  2
LIVELLO_1
 70
0
 62
7
  6
CONTINUOUS
370
-3
390
F
  0
LAYER
  5
20A
100
AcDbSymbolTableRecord
100
AcDbLayerTableRecord
  2
NOTE
 70
0
 62
7
  6
CONTINUOUS
370
-3
390
F
  0
LAYER
  5
20B
100
AcDbSymbolTableRecord
100
AcDbLayerTableRecord
  2
PIANI
 70
0
 62
7
  6
CONTINUOUS
370
-3
390
F
  0
LAYER
  5
20C
100
AcDbSymbolTableRecord
100
AcDbLayerTableRecord
  2
PIANI_ORIGINE
 70
0
 62
7
  6
CONTINUOUS
370
-3
390
F
  0
LAYER
  5
20D
100
AcDbSymbolTableRecord
100
AcDbLayerTableRecord
  2
PIANI_RIFERIMENTO
 70
0
 62
7
  6
CONTINUOUS
370
-3
390
F
  0
LAYER
  5
20E
100
AcDbSymbolTableRecord
100
AcDbLayerTableRecord
  2
PUNTI
 70
0
 62
7
  6
CONTINUOUS
370
-3
390
F
  0
LAYER
  5
20F
100
AcDbSymbolTableRecord
100
AcDbLayerTableRecord
  2
RACCORDO
 70
0
 62
7
  6
CONTINUOUS
370
-3
390
F
  0
LAYER
  5
210
100
AcDbSymbolTableRecord
100
AcDbLayerTableRecord
  2
SIMBOLI
 70
0
 62
7
  6
CONTINUOUS
370
-3
390
F
  0
LAYER
  5
211
100
AcDbSymbolTableRecord
100
AcDbLayerTableRecord
  2
SMUSSO
 70
0
 62
7
  6
CONTINUOUS
370
-3
390
F
  0
LAYER
  5
212
100
AcDbSymbolTableRecord
100
AcDbLayerTableRecord
  2
SNAPLINE
 70
0
 62
7
  6
CONTINUOUS
370
-3
390
F
  0
LAYER
  5
213
100
AcDbSymbolTableRecord
100
AcDbLayerTableRecord
  2
SOLIDO
 70
0
 62
7
  6
CONTINUOUS
370
-3
390
F
  0
LAYER
  5
214
100
AcDbSymbolTableRecord
100
AcDbLayerTableRecord
  2
SUPERFICI
 70
0
 62
7
  6
CONTINUOUS
370
-3
390
F
  0
LAYER
  5
215
100
AcDbSymbolTableRecord
100
AcDbLayerTableRecord
  2
TRASH
 70
0
 62
7
  6
CONTINUOUS
370
-3
390
F
  0
LAYER
  5
216
100
AcDbSymbolTableRecord
100
AcDbLayerTableRecord
  2
WHITE
 70
0
 62
7
  6
CONTINUOUS
370
-3
390
F
  0
ENDTAB
  0
TABLE
  2
STYLE
  5
3
100
AcDbSymbolTable
 70
1
  0
STYLE
  5
11
100
AcDbSymbolTableRecord
100
AcDbTextStyleTableRecord
  2
STANDARD
 70
0
 40
0.0
 41
0.8
 50
0.0
 71
0
 42
0.2
  3
txt
  4

  0
STYLE
  5
217
100
AcDbSymbolTableRecord
100
AcDbTextStyleTableRecord
  2
TEXTSTYLE_1
 70
0
 40
0.0
 41
0.8
 50
0.0
 71
0
 42
0.2
  3
gdt
  4

  0
ENDTAB
  0
TABLE
  2
VIEW
  5
6
100
AcDbSymbolTable
 70
0
  0
ENDTAB
  0
TABLE
  2
UCS
  5
7
100
AcDbSymbolTable
 70
0
  0
ENDTAB
  0
TABLE
  2
APPID
  5
9
100
AcDbSymbolTable
 70
1
  0
APPID
  5
218
100
AcDbSymbolTableRecord
100
AcDbRegAppTableRecord
  2
ACAD
 70
0
  0
ENDTAB
  0
TABLE
  2
BLOCK_RECORD
  5
1
100
AcDbSymbolTable
 70
0
  0
BLOCK_RECORD
  5
219
100
AcDbSymbolTableRecord
100
AcDbBlockTableRecord
  2
*Model_Space
  0
BLOCK_RECORD
  5
21A
100
AcDbSymbolTableRecord
100
AcDbBlockTableRecord
  2
*Paper_Space
  0
ENDTAB
  0
TABLE
  2
DIMSTYLE
  5
A
100
AcDbSymbolTable
 70
1
100
AcDbDimStyleTable
 71
0
  0
DIMSTYLE
105
21B
100
AcDbSymbolTableRecord
100
AcDbDimStyleTableRecord
  2
STANDARD
 70
0
  3

  4

 40
1.0
 41
3.0
 42
0.5
 43
0.38
 44
1.5
 45
0.0
 46
0.0
 47
0.01
 48
0.01
140
3.0
141
0.09
142
0.0
143
25.4
144
1.0
145
0.0
146
1.0
147
0.625
 71
1.0
 72
0.0
 73
0
 74
0
 75
0
 76
0
 77
1
 78
8
170
0
171
1
172
0
173
0
174
0
175
0
176
0
177
0
178
0
270
2
271
2
272
2
273
2
274
2
275
0
280
0
281
0
282
0
283
1
284
8
285
0
286
0
287
3
288
0
340
11
278
44
  0
ENDTAB
  0
ENDSEC
  0
SECTION
  2
BLOCKS
  0
BLOCK
  5
20
100
AcDbEntity
  8
0
100
AcDbBlockBegin
  2
*Model_Space
 70
0
 10
0.0
 20
0.0
 30
0.0
  3
*Model_Space
  1

  0
ENDBLK
  5
21
100
AcDbEntity
  8
0
100
AcDbBlockEnd
  0
BLOCK
  5
1C
100
AcDbEntity
  8
0
100
AcDbBlockBegin
  2
*Paper_Space
 70
0
 10
0.0
 20
0.0
 30
0.0
  3
*Paper_Space
  1

  0
ENDBLK
  5
1D
100
AcDbEntity
  8
0
100
AcDbBlockEnd
  0
ENDSEC
  0
SECTION
  2
ENTITIES
  0
LWPOLYLINE
  5
21C
100
AcDbEntity
  8
ASSI
100
AcDbPolyline
 62
7
  6
CONTINUOUS
 90
15
 70
0
 10
-16.5999759142
 20
26.5488113197
 10
-16.6348756609
 20
26.5239316888
 10
-16.6959597355
 20
26.4748585154
 10
-16.7535217246
 20
26.4215631677
 10
-16.8077404936
 20
26.3642698808
 10
-16.8585939446
 20
26.303275459
 10
-16.9057909296
 20
26.2391660451
 10
-16.9492941204
 20
26.1721860807
 10
-16.989027178
 20
26.1025272098
 10
-17.0246209154
 20
26.0308656083
 10
-17.055968808
 20
25.9573918846
 10
-17.0829057916
 20
25.8822816024
 10
-17.1050926037
 20
25.8061402586
 10
-17.1223165423
 20
25.7291858063
 10
-17.1346594569
 20
25.6487055012
  0
LINE
  5
21D
100
AcDbEntity
  8
ASSI
100
AcDbLine
 62
7
  6
CONTINUOUS
 10
-16.6001578405
 20
26.5486874813
 11
-14.6175337521
 21
27.9005897393
  0
LINE
  5
21E
100
AcDbEntity
  8
ASSI
100
AcDbLine
 62
253
  6
CONTINUOUS
 10
-16.3369768951
 20
26.5325767251
 11
-14.3669398025
 21
27.8758962225
  0
LWPOLYLINE
  5
21F
100
AcDbEntity
  8
ASSI
100
AcDbPolyline
 62
253
  6
CONTINUOUS
 90
27
 70
0
 10
-16.599975928
 20
26.5488113401
 10
-16.5977673436
 20
26.5502862684
 10
-16.5898821595
 20
26.5551387953
 10
-16.5817070194
 20
26.5595430972
 10
-16.5732506572
 20
26.5634944691
 10
-16.5645221071
 20
26.5669886894
 10
-16.5555306941
 20
26.5700220252
 10
-16.5462860242
 20
26.5725912359
 10
-16.5367979736
 20
26.5746935767
 10
-16.5270766789
 20
26.5763268015
 10
-16.5171325256
 20
26.5774891656
 10
-16.5069761375
 20
26.5781794271
 10
-16.496618365
 20
26.5783968486
 10
-16.4860702737
 20
26.5781411979
 10
-16.4753431324
 20
26.577412748
 10
-16.4644484015
 20
26.5762122772
 10
-16.45339772
 20
26.574541068
 10
-16.442202894
 20
26.5724009058
 10
-16.4308758831
 20
26.569794077
 10
-16.4194287885
 20
26.5667233666
 10
-16.4078738395
 20
26.5631920551
 10
-16.3962233807
 20
26.5592039152
 10
-16.3844898588
 20
26.5547632075
 10
-16.3726858089
 20
26.5498746763
 10
-16.3608238419
 20
26.5445435441
 10
-16.3489166303
 20
26.5387755063
 10
-16.3369768951
 20
26.5325767251
  0
LINE
  5
220
100
AcDbEntity
  8
ASSI
100
AcDbLine
 62
7
  6
CONTINUOUS
 10
-17.1346285545
 20
25.6489725457
 11
-17.1346594569
 21
25.6487055012
  0
LWPOLYLINE
  5
221
100
AcDbEntity
  8
ASSI
100
AcDbPolyline
 62
253
  6
CONTINUOUS
 90
52
 70
0
 10
-16.9876122882
 20
25.4499260738
 10
-16.9845856655
 20
25.4733560229
 10
-16.9810663731
 20
25.4969771404
 10
-16.9770569942
 20
25.5207724398
 10
-16.9725605488
 20
25.5447247735
 10
-16.9675802617
 20
25.5688169626
 10
-16.9621195448
 20
25.5930318135
 10
-16.956182379
 20
25.6173520656
 10
-16.9497731124
 20
25.6417601151
 10
-16.9428962263
 20
25.6662381471
 10
-16.9355568011
 20
25.6907685122
 10
-16.9277601766
 20
25.7153336694
 10
-16.9195117337
 20
25.7399159132
 10
-16.9108175155
 20
25.7644976478
 10
-16.9016838822
 20
25.789061186
 10
-16.8921171757
 20
25.81358869
 10
-16.8821244195
 20
25.8380625711
 10
-16.8717129151
 20
25.8624652686
 10
-16.860889891
 20
25.8867790494
 10
-16.849663289
 20
25.9109864927
 10
-16.8380413189
 20
25.9350702316
 10
-16.8260320563
 20
25.9590127321
 10
-16.8136443243
 20
25.9827968256
 10
-16.8008871754
 20
26.0064054814
 10
-16.7877694436
 20
26.0298215465
 10
-16.7743007352
 20
26.053028285
 10
-16.7604909205
 20
26.0760090392
 10
-16.746349616
 20
26.0987470038
 10
-16.7318872144
 20
26.1212258825
 10
-16.7171142856
 20
26.143429607
 10
-16.7020410659
 20
26.1653419962
 10
-16.6866785988
 20
26.1869473971
 10
-16.6710381438
 20
26.2082303296
 10
-16.6551305791
 20
26.2291752055
 10
-16.6389675736
 20
26.2497670553
 10
-16.6225609639
 20
26.2699911547
 10
-16.6059221621
 20
26.2898326696
 10
-16.58906337
 20
26.3092774352
 10
-16.5719969404
 20
26.3283115544
 10
-16.5547347557
 20
26.3469210286
 10
-16.5372895042
 20
26.3650925521
 10
-16.5196739428
 20
26.3828131868
 10
-16.5019002586
 20
26.4000699589
 10
-16.4839814312
 20
26.4168506204
 10
-16.4659306452
 20
26.4331431447
 10
-16.4477605555
 20
26.4489354115
 10
-16.4294845721
 20
26.4642161068
 10
-16.4111160095
 20
26.4789744387
 10
-16.3926674959
 20
26.4931996222
 10
-16.3741522762
 20
26.5068814368
 10
-16.3555842047
 20
26.5200102483
 10
-16.3369768951
 20
26.5325767251
  0
LINE
  5
222
100
AcDbEntity
  8
ASSI
100
AcDbLine
 62
7
  6
CONTINUOUS
 10
-12.4104968875
 20
26.7462706034
 11
-12.5907481369
 21
26.3320504446
  0
LWPOLYLINE
  5
223
100
AcDbEntity
  8
0
100
AcDbPolyline
 62
253
  6
CONTINUOUS
 90
53
 70
0
 10
-11.5840510497
 20
16.3289173566
 10
-11.5798216562
 20
16.3312187502
 10
-11.5755180059
 20
16.3332793296
 10
-11.5711314479
 20
16.3351085855
 10
-11.5666533309
 20
16.3367160084
 10
-11.5620750037
 20
16.3381110888
 10
-11.5573894873
 20
16.3393011822
 10
-11.5525964914
 20
16.3402851038
 10
-11.5476973976
 20
16.3410595338
 10
-11.5426935877
 20
16.3416211524
 10
-11.5375864435
 20
16.3419666398
 10
-11.5323781803
 20
16.3420926077
 10
-11.5270743481
 20
16.3419953948
 10
-11.5216813304
 20
16.3416712713
 10
-11.5162055107
 20
16.3411165074
 10
-11.5106532725
 20
16.3403273733
 10
-11.5059743886
 20
16.3394887956
 10
-11.5012610697
 20
16.3384872582
 10
-11.4965275159
 20
16.3373251486
 10
-11.4917840702
 20
16.3360037076
 10
-11.4870256466
 20
16.3345195891
 10
-11.4822433015
 20
16.3328683003
 10
-11.4764648262
 20
16.3306609347
 10
-11.4706506159
 20
16.3282056392
 10
-11.464812261
 20
16.3255016788
 10
-11.458961352
 20
16.3225483183
 10
-11.4531094794
 20
16.3193448227
 10
-11.4472677792
 20
16.3158923075
 10
-11.4414455706
 20
16.3121992913
 10
-11.4356517181
 20
16.3082761432
 10
-11.4298950868
 20
16.3041332324
 10
-11.4241845411
 20
16.2997809282
 10
-11.4194650473
 20
16.2959993808
 10
-11.4147750099
 20
16.2920726939
 10
-11.4101057251
 20
16.2879939393
 10
-11.4054530054
 20
16.28376022
 10
-11.4008307273
 20
16.2793847639
 10
-11.3962572837
 20
16.2748848302
 10
-11.3908554758
 20
16.2693422691
 10
-11.3855580533
 20
16.2636593521
 10
-11.3803725941
 20
16.2578501177
 10
-11.3753066763
 20
16.2519286048
 10
-11.3703678779
 20
16.245908852
 10
-11.3655623547
 20
16.2398030936
 10
-11.3608905727
 20
16.2336163464
 10
-11.3563515754
 20
16.2273518227
 10
-11.3519444067
 20
16.2210127351
 10
-11.34766811
 20
16.2146022958
 10
-11.3435207097
 20
16.208120003
 10
-11.3394961524
 20
16.2015504973
 10
-11.3355873655
 20
16.1948747054
 10
-11.3317872761
 20
16.1880735536
 10
-11.3280888116
 20
16.1811279683
  0
LWPOLYLINE
  5
224
100
AcDbEntity
  8
ASSI
100
AcDbPolyline
 62
253
  6
CONTINUOUS
 90
25
 70
0
 10
-17.8094023345
 20
0.1616766845
 10
-17.8088658112
 20
0.1522696869
 10
-17.807818072
 20
0.1428829714
 10
-17.8062601895
 20
0.133526148
 10
-17.8041937586
 20
0.124208796
 10
-17.801620895
 20
0.1149404541
 10
-17.7985442326
 20
0.1057306111
 10
-17.7949669212
 20
0.0965886958
 10
-17.7908926232
 20
0.0875240675
 10
-17.7863255098
 20
0.0785460062
 10
-17.7812702566
 20
0.0696637035
 10
-17.7757320392
 20
0.0608862528
 10
-17.7697165273
 20
0.0522226403
 10
-17.7632298795
 20
0.0436817356
 10
-17.7562787367
 20
0.0352722826
 10
-17.7488702152
 20
0.0270028907
 10
-17.7410118997
 20
0.0188820259
 10
-17.7327118354
 20
0.010918002
 10
-17.7239785197
 20
0.0031189726
 10
-17.7148208934
 20
-0.004507078
 10
-17.7052483319
 20
-0.0119523425
 10
-17.6952706354
 20
-0.0192091985
 10
-17.6848980188
 20
-0.0262702167
 10
-17.6741411013
 20
-0.0331281682
 10
-17.6630108955
 20
-0.039776032
  0
LWPOLYLINE
  5
225
100
AcDbEntity
  8
ASSI
100
AcDbPolyline
 62
7
  6
CONTINUOUS
 90
10
 70
0
 10
-17.8094570149
 20
0.1640616709
 10
-17.7873266235
 20
-0.8425824848
 10
-17.7509687632
 20
-1.9004930608
 10
-17.7013280109
 20
-2.9495514855
 10
-17.6384120686
 20
-3.9895343708
 10
-17.5622312074
 20
-5.0202194791
 10
-17.4727979237
 20
-6.0413921861
 10
-17.3701277426
 20
-7.0528344244
 10
-17.2542386791
 20
-8.0543302521
 10
-17.1334041827
 20
-8.9854841131
  0
LINE
  5
226
100
AcDbEntity
  8
ASSI
100
AcDbLine
 62
7
  6
CONTINUOUS
 10
-17.8324248707
 20
1.7638482408
 11
-17.8094570109
 21
0.1640614063
  0
LINE
  5
227
100
AcDbEntity
  8
ASSI
100
AcDbLine
 62
7
  6
CONTINUOUS
 10
-17.8506643701
 20
3.4324695973
 11
-17.8324248707
 21
1.7638482408
  0
LINE
  5
228
100
AcDbEntity
  8
ASSI
100
AcDbLine
 62
7
  6
CONTINUOUS
 10
-17.8631254899
 20
5.104733471
 11
-17.8506643701
 21
3.4324695973
  0
LWPOLYLINE
  5
229
100
AcDbEntity
  8
ASSI
100
AcDbPolyline
 62
7
  6
CONTINUOUS
 90
3
 70
0
 10
-17.8709455005
 20
7.5584559385
 10
-17.8698080989
 20
6.7806133858
 10
-17.8631254899
 20
5.104733471
  0
LINE
  5
22A
100
AcDbEntity
  8
ASSI
100
AcDbLine
 62
7
  6
CONTINUOUS
 10
-17.8672107863
 20
9.8224735732
 11
-17.8709455013
 21
8.2070625836
  0
LINE
  5
22B
100
AcDbEntity
  8
ASSI
100
AcDbLine
 62
253
  6
CONTINUOUS
 10
-17.7244966806
 20
8.0033878166
 11
-17.7206074365
 21
9.6573934469
  0
LINE
  5
22C
100
AcDbEntity
  8
ASSI
100
AcDbLine
 62
7
  6
CONTINUOUS
 10
-17.8576578635
 20
11.5083534718
 11
-17.8672107863
 21
9.8224735732
  0
LINE
  5
22D
100
AcDbEntity
  8
ASSI
100
AcDbLine
 62
253
  6
CONTINUOUS
 10
-17.7206074365
 20
9.6573934469
 11
-17.7111324613
 21
11.3148061783
  0
LINE
  5
22E
100
AcDbEntity
  8
ASSI
100
AcDbLine
 62
7
  6
CONTINUOUS
 10
-17.8423268055
 20
13.1977386028
 11
-17.8576578635
 21
11.5083534718
  0
LINE
  5
22F
100
AcDbEntity
  8
ASSI
100
AcDbLine
 62
253
  6
CONTINUOUS
 10
-17.7111324613
 20
11.3148061783
 11
-17.6960722239
 21
12.9756068413
  0
LINE
  5
230
100
AcDbEntity
  8
ASSI
100
AcDbLine
 62
253
  6
CONTINUOUS
 10
-17.6960722239
 20
12.9756068413
 11
-17.6754274603
 21
14.6398005071
  0
LWPOLYLINE
  5
231
100
AcDbEntity
  8
ASSI
100
AcDbPolyline
 62
7
  6
CONTINUOUS
 90
3
 70
0
 10
-17.8094594915
 20
15.6773665223
 10
-17.8212179311
 20
14.8906019152
 10
-17.8423268055
 20
13.1977386028
  0
LWPOLYLINE
  5
232
100
AcDbEntity
  8
ASSI
100
AcDbPolyline
 62
253
  6
CONTINUOUS
 90
43
 70
0
 10
-17.7244985779
 20
7.3538566735
 10
-17.7243814357
 20
7.3615181022
 10
-17.7240197077
 20
7.3693104629
 10
-17.7234138946
 20
7.377222967
 10
-17.7225648351
 20
7.3852446597
 10
-17.7214737049
 20
7.3933644349
 10
-17.7201420145
 20
7.4015710507
 10
-17.7185716077
 20
7.409853145
 10
-17.7167646588
 20
7.4181992511
 10
-17.7147236695
 20
7.426597814
 10
-17.7124514654
 20
7.4350372057
 10
-17.7099511927
 20
7.4435057418
 10
-17.7072263127
 20
7.4519916976
 10
-17.7042805983
 20
7.4604833243
 10
-17.7011181277
 20
7.4689688652
 10
-17.6977432793
 20
7.4774365719
 10
-17.6941607258
 20
7.485874721
 10
-17.6903754271
 20
7.4942716298
 10
-17.686392624
 20
7.5026156726
 10
-17.6822178308
 20
7.5108952972
 10
-17.6778568273
 20
7.5190990404
 10
-17.6733156516
 20
7.527215544
 10
-17.6686005908
 20
7.5352335707
 10
-17.6637181731
 20
7.5431420195
 10
-17.658675158
 20
7.5509299411
 10
-17.6534785278
 20
7.5585865532
 10
-17.6481354771
 20
7.5661012551
 10
-17.6426534034
 20
7.5734636426
 10
-17.6370398967
 20
7.5806635226
 10
-17.631302729
 20
7.5876909267
 10
-17.6254498433
 20
7.5945361255
 10
-17.6194893431
 20
7.6011896418
 10
-17.6134294805
 20
7.6076422637
 10
-17.6072786457
 20
7.6138850576
 10
-17.6010453543
 20
7.6199093803
 10
-17.5947382365
 20
7.6257068911
 10
-17.5883660245
 20
7.6312695634
 10
-17.5819375406
 20
7.6365896955
 10
-17.575461685
 20
7.6416599218
 10
-17.5689474238
 20
7.6464732225
 10
-17.5624037757
 20
7.6510229336
 10
-17.5558398007
 20
7.655302756
 10
-17.5492645865
 20
7.6593067643
  0
LWPOLYLINE
  5
233
100
AcDbEntity
  8
ASSI
100
AcDbPolyline
 62
253
  6
CONTINUOUS
 90
22
 70
0
 10
-17.6754274603
 20
14.6398005071
 10
-17.6545617657
 20
15.9354011265
 10
-17.6437360741
 20
16.3990422789
 10
-17.6305342533
 20
16.8640647512
 10
-17.6149568567
 20
17.3304505636
 10
-17.5970044822
 20
17.7981816755
 10
-17.576677772
 20
18.2672399867
 10
-17.553977549
 20
18.7376073717
 10
-17.5289047118
 20
19.2092656372
 10
-17.5014601583
 20
19.6821965084
 10
-17.4716449969
 20
20.1563817062
 10
-17.4394604107
 20
20.631802905
 10
-17.4049075513
 20
21.1084416897
 10
-17.3679878108
 20
21.5862796552
 10
-17.3287026573
 20
22.0652983288
 10
-17.2870534978
 20
22.5454791289
 10
-17.2430420096
 20
23.0268035094
 10
-17.196669944
 20
23.5092528779
 10
-17.1479389611
 20
23.9928085197
 10
-17.0968509457
 20
24.4774517345
 10
-17.0434080083
 20
24.9631638367
 10
-16.9876122882
 20
25.4499260738
  0
LWPOLYLINE
  5
234
100
AcDbEntity
  8
ASSI
100
AcDbPolyline
 62
253
  6
CONTINUOUS
 90
28
 70
0
 10
-17.1346594569
 20
25.6487055012
 10
-17.1350027088
 20
25.6452535792
 10
-17.135396677
 20
25.6375402612
 10
-17.135281179
 20
25.6297791924
 10
-17.1346563331
 20
25.6219783221
 10
-17.1335227792
 20
25.6141456408
 10
-17.1318816786
 20
25.6062891714
 10
-17.129734712
 20
25.5984169611
 10
-17.1270840787
 20
25.5905370733
 10
-17.1239324937
 20
25.5826575793
 10
-17.120283185
 20
25.5747865499
 10
-17.1161398906
 20
25.5669320474
 10
-17.1115068545
 20
25.5591021169
 10
-17.1063888221
 20
25.5513047786
 10
-17.1007910358
 20
25.5435480192
 10
-17.0947192294
 20
25.5358397837
 10
-17.0881796221
 20
25.5281879677
 10
-17.0811789123
 20
25.5206004088
 10
-17.0737242708
 20
25.5130848788
 10
-17.0658233332
 20
25.5056490758
 10
-17.0574841924
 20
25.4983006161
 10
-17.04871539
 20
25.4910470267
 10
-17.0395259078
 20
25.4838957373
 10
-17.0299251584
 20
25.476854073
 10
-17.0199229758
 20
25.4699292463
 10
-17.009529605
 20
25.4631283502
 10
-16.9987556919
 20
25.4564583509
 10
-16.9876122719
 20
25.4499260803
  0
LWPOLYLINE
  5
235
100
AcDbEntity
  8
ASSI
100
AcDbPolyline
 62
7
  6
CONTINUOUS
 90
10
 70
0
 10
-17.1346285678
 20
25.6489725472
 10
-17.2557831945
 20
24.5650465548
 10
-17.3713466053
 20
23.4226100036
 10
-17.473744094
 20
22.28631
 10
-17.5629516462
 20
21.1563879918
 10
-17.6389476154
 20
20.0330863887
 10
-17.7017134055
 20
18.9166416062
 10
-17.7512328606
 20
17.8072929427
 10
-17.787492476
 20
16.7052764009
 10
-17.8094594949
 20
15.6773662884
  0
LWPOLYLINE
  5
236
100
AcDbEntity
  8
0
100
AcDbPolyline
 62
253
  6
CONTINUOUS
 90
37
 70
0
 10
-10.8477195855
 20
14.9264973698
 10
-10.8507846961
 20
14.9247697614
 10
-10.8539064845
 20
14.9231753349
 10
-10.8570843234
 20
14.9217112888
 10
-10.8603175854
 20
14.9203748217
 10
-10.8636056432
 20
14.9191631318
 10
-10.8669478694
 20
14.9180734179
 10
-10.8703436366
 20
14.9171028782
 10
-10.8737919513
 20
14.9162490944
 10
-10.8772903547
 20
14.9155111801
 10
-10.880836022
 20
14.914888632
 10
-10.8844261283
 20
14.9143809471
 10
-10.8880578485
 20
14.9139876219
 10
-10.8917283579
 20
14.9137081532
 10
-10.8954348314
 20
14.9135420379
 10
-10.8991746999
 20
14.9134888428
 10
-10.9029464167
 20
14.9135484159
 10
-10.906748691
 20
14.9137206754
 10
-10.910580232
 20
14.9140055393
 10
-10.9144397486
 20
14.9144029257
 10
-10.9183259502
 20
14.9149127529
 10
-10.9222375457
 20
14.915534939
 10
-10.9261731798
 20
14.9162695493
 10
-10.9301312395
 20
14.9171172378
 10
-10.9341100472
 20
14.918078806
 10
-10.9381079253
 20
14.9191550551
 10
-10.9421231964
 20
14.9203467863
 10
-10.9461541827
 20
14.921654801
 10
-10.9501992068
 20
14.9230799005
 10
-10.9537490292
 20
14.9244238388
 10
-10.9573085694
 20
14.9258603714
 10
-10.9608780819
 20
14.9273918359
 10
-10.9644578211
 20
14.9290205702
 10
-10.9680480415
 20
14.930748912
 10
-10.9716489976
 20
14.9325791991
 10
-10.9752609439
 20
14.934513769
 10
-10.9788841348
 20
14.9365549597
  0
LWPOLYLINE
  5
237
100
AcDbEntity
  8
ASSI
100
AcDbPolyline
 62
7
  6
CONTINUOUS
 90
11
 70
0
 10
13.910644087
 20
-27.2463300308
 10
13.9753297224
 20
-27.2793093835
 10
14.0426425376
 20
-27.3050579289
 10
14.1123866848
 20
-27.3236581749
 10
14.1848440423
 20
-27.335107028
 10
14.2594455114
 20
-27.339096867
 10
14.3354036096
 20
-27.3354068164
 10
14.4129438664
 20
-27.3237638537
 10
14.491837676
 20
-27.3037696758
 10
14.5712108324
 20
-27.2752065122
 10
14.6170700957
 20
-27.2547171051
  0
LWPOLYLINE
  5
238
100
AcDbEntity
  8
ASSI
100
AcDbPolyline
 62
253
  6
CONTINUOUS
 90
23
 70
0
 10
-16.8136443243
 20
-9.505328556
 10
-16.8260320563
 20
-9.4963578173
 10
-16.8380413189
 20
-9.486776065
 10
-16.849663289
 20
-9.4765903118
 10
-16.860889891
 20
-9.4658077367
 10
-16.8717129151
 20
-9.4544361897
 10
-16.8821244195
 20
-9.4424839567
 10
-16.8921171757
 20
-9.4299595026
 10
-16.9016838822
 20
-9.4168719189
 10
-16.9108175155
 20
-9.4032307211
 10
-16.9195117337
 20
-9.3890456132
 10
-16.9277601766
 20
-9.3743268966
 10
-16.9355568011
 20
-9.3590852301
 10
-16.9428962263
 20
-9.3433314192
 10
-16.9497731124
 20
-9.3270768019
 10
-16.956182379
 20
-9.3103331977
 10
-16.9621195448
 20
-9.2931126726
 10
-16.9675802617
 20
-9.2754277614
 10
-16.9725605488
 20
-9.2572911754
 10
-16.9770569942
 20
-9.2387157357
 10
-16.9810663731
 20
-9.2197147531
 10
-16.9845856655
 20
-9.2003020319
 10
-16.9876122882
 20
-9.1804915757
  0
LWPOLYLINE
  5
239
100
AcDbEntity
  8
ASSI
100
AcDbPolyline
 62
7
  6
CONTINUOUS
 90
8
 70
0
 10
-17.0427848156
 20
-9.2625366749
 10
-17.0108295508
 20
-9.3143995614
 10
-16.9752092037
 20
-9.3623674419
 10
-16.9362664146
 20
-9.4062760101
 10
-16.8939780709
 20
-9.4463194218
 10
-16.8485481281
 20
-9.4823483358
 10
-16.8004951631
 20
-9.5140167151
 10
-16.7913889646
 20
-9.5193616758
  0
LWPOLYLINE
  5
23A
100
AcDbEntity
  8
ASSI
100
AcDbPolyline
 62
253
  6
CONTINUOUS
 90
22
 70
0
 10
-17.1318816942
 20
-8.9950373379
 10
-17.129734728
 20
-9.0053926453
 10
-17.1270840949
 20
-9.015658207
 10
-17.1239325101
 20
-9.0258235084
 10
-17.1202832016
 20
-9.0358781372
 10
-17.1161399074
 20
-9.0458117945
 10
-17.1115068714
 20
-9.0556143056
 10
-17.1063888392
 20
-9.0652756297
 10
-17.100791053
 20
-9.074785871
 10
-17.0947192466
 20
-9.0841352883
 10
-17.0881796393
 20
-9.093314305
 10
-17.0811789296
 20
-9.1023135192
 10
-17.073724288
 20
-9.1111237132
 10
-17.0658233504
 20
-9.1197358628
 10
-17.0574842095
 20
-9.1281411467
 10
-17.048715407
 20
-9.1363309555
 10
-17.0395259247
 20
-9.1442969005
 10
-17.0299251752
 20
-9.1520308223
 10
-17.0199229924
 20
-9.1595247991
 10
-17.0095296215
 20
-9.1667711549
 10
-16.9987557081
 20
-9.1737624674
 10
-16.987612288
 20
-9.1804915756
  0
LWPOLYLINE
  5
23B
100
AcDbEntity
  8
ASSI
100
AcDbPolyline
 62
7
  6
CONTINUOUS
 90
6
 70
0
 10
-17.1333560933
 20
-8.9858337276
 10
-17.1283018454
 20
-9.0181757327
 10
-17.1138001442
 20
-9.0847312046
 10
-17.0944719752
 20
-9.1478131752
 10
-17.0707040829
 20
-9.207077132
 10
-17.0427848156
 20
-9.2625366749
  0
LINE
  5
23C
100
AcDbEntity
  8
ASSI
100
AcDbLine
 62
7
  6
CONTINUOUS
 10
-17.1334041827
 20
-8.9854841131
 11
-17.1333561092
 21
-8.9858337298
  0
LWPOLYLINE
  5
23D
100
AcDbEntity
  8
ASSI
100
AcDbPolyline
 62
253
  6
CONTINUOUS
 90
21
 70
0
 10
-16.9876122882
 20
-9.1804915757
 10
-17.0434080083
 20
-8.7627971088
 10
-17.0968509457
 20
-8.3432400104
 10
-17.1479389611
 20
-7.9218365626
 10
-17.196669944
 20
-7.4986031628
 10
-17.2430420096
 20
-7.0735561858
 10
-17.2870534978
 20
-6.6467119831
 10
-17.3287026573
 20
-6.2180871018
 10
-17.3679878108
 20
-5.787698174
 10
-17.4049075513
 20
-5.3555617784
 10
-17.4394604107
 20
-4.9216946693
 10
-17.4716449969
 20
-4.4861136673
 10
-17.5014601583
 20
-4.0488355478
 10
-17.5289047118
 20
-3.6098772475
 10
-17.553977549
 20
-3.1692557883
 10
-17.576677772
 20
-2.7269881668
 10
-17.5970044822
 20
-2.2830915157
 10
-17.6149568567
 20
-1.8375830333
 10
-17.6305342533
 20
-1.3904799053
 10
-17.6437360741
 20
-0.9417994243
 10
-17.6545617657
 20
-0.4915589887
  0
LWPOLYLINE
  5
23E
100
AcDbEntity
  8
ASSI
100
AcDbPolyline
 62
253
  6
CONTINUOUS
 90
27
 70
0
 10
-17.8709455325
 20
8.2069117625
 10
-17.8706812553
 20
8.1976119178
 10
-17.8699652088
 20
8.1889673784
 10
-17.8687966038
 20
8.1803378769
 10
-17.867176499
 20
8.1717312857
 10
-17.8651063655
 20
8.1631553693
 10
-17.8625880829
 20
8.1546179343
 10
-17.8596239337
 20
8.1461267457
 10
-17.8562166048
 20
8.1376894513
 10
-17.8523691802
 20
8.1293137113
 10
-17.8480851531
 20
8.1210071586
 10
-17.8433684256
 20
8.1127773137
 10
-17.8382232937
 20
8.1046316771
 10
-17.8326544157
 20
8.096577635
 10
-17.8266668185
 20
8.088622421
 10
-17.8202659227
 20
8.0807732528
 10
-17.8134575386
 20
8.0730372771
 10
-17.8062478326
 20
8.0654214763
 10
-17.7986433077
 20
8.0579327351
 10
-17.7906508877
 20
8.0505778929
 10
-17.7822779191
 20
8.0433636853
 10
-17.7735320797
 20
8.0362967122
 10
-17.7644212439
 20
8.0293833292
 10
-17.7549535604
 20
8.0226297036
 10
-17.7451375684
 20
8.0160419326
 10
-17.7349822062
 20
8.0096260299
 10
-17.7244966802
 20
8.0033878174
  0
LWPOLYLINE
  5
23F
100
AcDbEntity
  8
ASSI
100
AcDbPolyline
 62
7
  6
CONTINUOUS
 90
12
 70
0
 10
-17.8709454616
 20
8.2069132393
 10
-17.870734303
 20
8.1950043564
 10
-17.8672572401
 20
8.1574728576
 10
-17.8594605805
 20
8.1201442779
 10
-17.8473351622
 20
8.0834794164
 10
-17.830966226
 20
8.0479756668
 10
-17.8104535455
 20
8.0139869168
 10
-17.7859109782
 20
7.9818212164
 10
-17.7575515037
 20
7.9518369856
 10
-17.7255543574
 20
7.9242696988
 10
-17.6900189189
 20
7.8992655503
 10
-17.6728274061
 20
7.8888498131
  0
LWPOLYLINE
  5
240
100
AcDbEntity
  8
ASSI
100
AcDbPolyline
 62
253
  6
CONTINUOUS
 90
23
 70
0
 10
-17.7244985779
 20
8.0033889121
 10
-17.7243814357
 20
7.9958627567
 10
-17.7240197077
 20
7.988488111
 10
-17.7234138947
 20
7.9812751851
 10
-17.7225648353
 20
7.9742339654
 10
-17.7214737052
 20
7.9673742004
 10
-17.720142015
 20
7.9607053877
 10
-17.7185716084
 20
7.9542367601
 10
-17.7167646597
 20
7.9479772735
 10
-17.7147236706
 20
7.9419355942
 10
-17.7124514668
 20
7.9361200869
 10
-17.7099511943
 20
7.9305388033
 10
-17.7072263147
 20
7.9251994706
 10
-17.7042806005
 20
7.9201094811
 10
-17.7011181302
 20
7.9152758821
 10
-17.6977432821
 20
7.9107053655
 10
-17.6941607289
 20
7.9064042594
 10
-17.6903754305
 20
7.9023785186
 10
-17.6863926277
 20
7.8986337167
 10
-17.6822178346
 20
7.8951750385
 10
-17.6778568315
 20
7.8920072726
 10
-17.673315656
 20
7.8891348047
 10
-17.67282742
 20
7.888849789
  0
LINE
  5
241
100
AcDbEntity
  8
ASSI
100
AcDbLine
 62
253
  6
CONTINUOUS
 10
-17.6545617657
 20
-0.4915589887
 11
-17.6754274603
 21
0.7782077756
  0
LINE
  5
242
100
AcDbEntity
  8
ASSI
100
AcDbLine
 62
253
  6
CONTINUOUS
 10
-17.6754274603
 20
0.7782077756
 11
-17.6960722239
 21
2.4168379021
  0
LINE
  5
243
100
AcDbEntity
  8
ASSI
100
AcDbLine
 62
253
  6
CONTINUOUS
 10
-17.6960722239
 20
2.4168379021
 11
-17.7111324613
 21
4.0589904409
  0
LWPOLYLINE
  5
244
100
AcDbEntity
  8
ASSI
100
AcDbPolyline
 62
253
  6
CONTINUOUS
 90
26
 70
0
 10
-17.8094594949
 20
15.6773662884
 10
-17.8094023342
 20
15.6698818001
 10
-17.8088658109
 20
15.6608265045
 10
-17.8078180717
 20
15.6517800919
 10
-17.8062601892
 20
15.6427518238
 10
-17.8041937583
 20
15.633750943
 10
-17.8016208947
 20
15.6247866645
 10
-17.7985442323
 20
15.6158681656
 10
-17.7949669209
 20
15.6070045769
 10
-17.7908926229
 20
15.5982049727
 10
-17.7863255095
 20
15.5894783617
 10
-17.7812702563
 20
15.5808336781
 10
-17.7757320389
 20
15.5722797721
 10
-17.769716527
 20
15.5638254008
 10
-17.7632298792
 20
15.5554792198
 10
-17.7562787364
 20
15.5472497736
 10
-17.7488702149
 20
15.5391454873
 10
-17.7410118994
 20
15.5311746578
 10
-17.7327118351
 20
15.5233454455
 10
-17.7239785194
 20
15.5156658657
 10
-17.7148208931
 20
15.5081437806
 10
-17.7052483316
 20
15.500786891
 10
-17.6952706351
 20
15.4936027289
 10
-17.6848980185
 20
15.4865986491
 10
-17.674141101
 20
15.4797818222
 10
-17.6630108952
 20
15.4731592272
  0
LINE
  5
245
100
AcDbEntity
  8
ASSI
100
AcDbLine
 62
253
  6
CONTINUOUS
 10
-17.7111324613
 20
4.0589904409
 11
-17.7206074365
 21
5.7046693706
  0
LINE
  5
246
100
AcDbEntity
  8
ASSI
100
AcDbLine
 62
253
  6
CONTINUOUS
 10
-17.7206074365
 20
5.7046693706
 11
-17.7244966805
 21
7.353855578
  0
LWPOLYLINE
  5
247
100
AcDbEntity
  8
ASSI
100
AcDbPolyline
 62
7
  6
CONTINUOUS
 90
9
 70
0
 10
-17.7192505
 20
7.8476076593
 10
-17.7550893064
 20
7.817333868
 10
-17.7864373855
 20
7.784187548
 10
-17.8131358514
 20
7.7484363541
 10
-17.8349407536
 20
7.7105221214
 10
-17.851561619
 20
7.6712591667
 10
-17.8629673639
 20
7.6314126607
 10
-17.8693323397
 20
7.5914992955
 10
-17.8709450824
 20
7.5582097651
  0
LINE
  5
248
100
AcDbEntity
  8
ASSI
100
AcDbLine
 62
7
  6
CONTINUOUS
 10
-17.6870811597
 20
7.8698185829
 11
-17.7192505
 21
7.8476076593
  0
LINE
  5
249
100
AcDbEntity
  8
ASSI
100
AcDbLine
 62
7
  6
CONTINUOUS
 10
-17.687081177
 20
7.8698186104
 11
-17.6682930484
 21
7.881647955
  0
LWPOLYLINE
  5
24A
100
AcDbEntity
  8
ASSI
100
AcDbPolyline
 62
253
  6
CONTINUOUS
 90
7
 70
0
 10
-17.686985625
 20
7.8698788572
 10
-17.6841420155
 20
7.8715948791
 10
-17.6792577098
 20
7.8742158786
 10
-17.6741979868
 20
7.876535044
 10
-17.6689699203
 20
7.8785491331
 10
-17.6635808194
 20
7.8802553299
 10
-17.6596549409
 20
7.8812440731
  0
LINE
  5
24B
100
AcDbEntity
  8
0
100
AcDbLine
 62
253
  6
CONTINUOUS
 10
-11.7325883358
 20
13.0866048569
 11
-11.1771316136
 21
13.4077485047
  0
LINE
  5
24C
100
AcDbEntity
  8
0
100
AcDbLine
 62
253
  6
CONTINUOUS
 10
-10.9313257152
 20
12.9588039966
 11
-11.4844856466
 21
12.6393609153
  0
LINE
  5
24D
100
AcDbEntity
  8
0
100
AcDbLine
 62
253
  6
CONTINUOUS
 10
-9.4244190595
 20
14.41947089
 11
-8.850410356
 21
14.7505474806
  0
LINE
  5
24E
100
AcDbEntity
  8
0
100
AcDbLine
 62
253
  6
CONTINUOUS
 10
-8.613582921
 20
14.2965639984
 11
-9.1855241102
 21
13.9667665346
  0
LWPOLYLINE
  5
24F
100
AcDbEntity
  8
0
100
AcDbPolyline
 62
253
  6
CONTINUOUS
 90
37
 70
0
 10
-9.1855241102
 20
13.9667665346
 10
-9.1885861405
 20
13.9650383124
 10
-9.1917048403
 20
13.9634431514
 10
-9.194879582
 20
13.9619782539
 10
-9.1981097384
 20
13.960640822
 10
-9.2013946819
 20
13.9594280579
 10
-9.2047337852
 20
13.9583371639
 10
-9.2081264209
 20
13.9573653421
 10
-9.2115715965
 20
13.9565101782
 10
-9.2150668592
 20
13.9557707921
 10
-9.218609391
 20
13.9551466871
 10
-9.2221963743
 20
13.9546373665
 10
-9.2258249909
 20
13.9542423336
 10
-9.2294924232
 20
13.9539610918
 10
-9.2331958532
 20
13.9537931443
 10
-9.2369327172
 20
13.9537380648
 10
-9.2407014682
 20
13.9537957083
 10
-9.2445008133
 20
13.9539659999
 10
-9.2483294597
 20
13.954248865
 10
-9.2521861145
 20
13.9546442287
 10
-9.2560694849
 20
13.9551520164
 10
-9.259978278
 20
13.9557721533
 10
-9.2639111371
 20
13.9565047118
 10
-9.2678664497
 20
13.9573503531
 10
-9.2718425394
 20
13.9583098855
 10
-9.27583773
 20
13.9593841172
 10
-9.2798503451
 20
13.9605738566
 10
-9.2838787082
 20
13.961879912
 10
-9.2879211431
 20
13.9633030917
 10
-9.2914687285
 20
13.9646453883
 10
-9.295026058
 20
13.9660803207
 10
-9.2985933855
 20
13.9676102326
 10
-9.3021709649
 20
13.9692374676
 10
-9.3057590501
 20
13.9709643695
 10
-9.3093578949
 20
13.9727932818
 10
-9.3129677532
 20
13.9747265482
 10
-9.316588879
 20
13.9767665124
  0
LWPOLYLINE
  5
250
100
AcDbEntity
  8
0
100
AcDbPolyline
 62
253
  6
CONTINUOUS
 90
36
 70
0
 10
-11.4844856466
 20
12.6393609153
 10
-11.4874650454
 20
12.6377146394
 10
-11.4905029343
 20
12.6361985355
 10
-11.493598644
 20
12.6348099124
 10
-11.4967515052
 20
12.633546079
 10
-11.4999608486
 20
12.6324043441
 10
-11.5032260048
 20
12.6313820164
 10
-11.5065463046
 20
12.6304764048
 10
-11.5099207409
 20
12.6296851845
 10
-11.5133469566
 20
12.6290074961
 10
-11.5168222566
 20
12.6284428464
 10
-11.520343946
 20
12.6279907423
 10
-11.52390933
 20
12.6276506908
 10
-11.5275157136
 20
12.6274221989
 10
-11.5311604018
 20
12.6273047733
 10
-11.534840938
 20
12.6272979948
 10
-11.5385558178
 20
12.6274017397
 10
-11.542303775
 20
12.6276159581
 10
-11.5460835434
 20
12.6279405999
 10
-11.549893857
 20
12.6283756152
 10
-11.5537334496
 20
12.6289209541
 10
-11.5576010549
 20
12.6295765667
 10
-11.5614953488
 20
12.6303425422
 10
-11.5654147747
 20
12.6312195268
 10
-11.5693577182
 20
12.632208306
 10
-11.5733225648
 20
12.6333096651
 10
-11.5773076998
 20
12.6345243897
 10
-11.5813115088
 20
12.6358532652
 10
-11.5853323772
 20
12.637297077
 10
-11.5893690376
 20
12.6388570487
 10
-11.5934216111
 20
12.6405361572
 10
-11.5974905657
 20
12.6423378172
 10
-11.6015763696
 20
12.6442654436
 10
-11.605679491
 20
12.6463224515
 10
-11.609800398
 20
12.6485122557
 10
-11.6139395588
 20
12.6508382712
  0
LWPOLYLINE
  5
251
100
AcDbEntity
  8
0
100
AcDbPolyline
 62
253
  6
CONTINUOUS
 90
53
 70
0
 10
-8.850410356
 20
14.7505474806
 10
-8.8461890652
 20
14.7528424916
 10
-8.8418931626
 20
14.7548965767
 10
-8.8375140992
 20
14.7567192101
 10
-8.8330433259
 20
14.7583198658
 10
-8.8284722938
 20
14.7597080181
 10
-8.8237941129
 20
14.7608910222
 10
-8.8190085299
 20
14.7618677581
 10
-8.8141169505
 20
14.7626349868
 10
-8.8091207805
 20
14.7631894695
 10
-8.8040214255
 20
14.7635279671
 10
-8.7988211154
 20
14.7636471749
 10
-8.7935253756
 20
14.7635435243
 10
-8.7881405556
 20
14.763213381
 10
-8.7826730048
 20
14.7626531106
 10
-8.7771290728
 20
14.7618590786
 10
-8.7724571034
 20
14.7610169475
 10
-8.7677506148
 20
14.7600123672
 10
-8.7630237209
 20
14.7588477468
 10
-8.758286701
 20
14.7575243531
 10
-8.7535344946
 20
14.7560388826
 10
-8.7487582065
 20
14.7543868897
 10
-8.7429868397
 20
14.7521795937
 10
-8.7371795638
 20
14.7497254101
 10
-8.7313479564
 20
14.7470236459
 10
-8.7255035952
 20
14.7440736078
 10
-8.7196580581
 20
14.7408746028
 10
-8.7138224603
 20
14.7374277516
 10
-8.708006068
 20
14.7337414314
 10
-8.7022176851
 20
14.7298258334
 10
-8.6964661154
 20
14.7256911486
 10
-8.6907601627
 20
14.7213475683
 10
-8.6860441065
 20
14.7175735615
 10
-8.6813571763
 20
14.7136546474
 10
-8.6766907061
 20
14.709583908
 10
-8.6720405397
 20
14.7053584452
 10
-8.6674205612
 20
14.7009914415
 10
-8.6628491646
 20
14.6965000995
 10
-8.6574494819
 20
14.6909679615
 10
-8.6521538272
 20
14.6852955417
 10
-8.6469697832
 20
14.6794968341
 10
-8.6419049325
 20
14.6735858326
 10
-8.6369668578
 20
14.667576531
 10
-8.6321617142
 20
14.6614811157
 10
-8.6274899473
 20
14.6553045431
 10
-8.622950575
 20
14.6490499618
 10
-8.6185426153
 20
14.6427205208
 10
-8.6142650864
 20
14.6363193687
 10
-8.6101159981
 20
14.6298459751
 10
-8.6060893286
 20
14.6232850927
 10
-8.6021780481
 20
14.6166177946
 10
-8.5983751266
 20
14.6098251542
 10
-8.5946735342
 20
14.6028882449
  0
LWPOLYLINE
  5
252
100
AcDbEntity
  8
0
100
AcDbPolyline
 62
253
  6
CONTINUOUS
 90
53
 70
0
 10
-9.5147365772
 20
12.4479024454
 10
-9.5106461134
 20
12.4501122461
 10
-9.5064754873
 20
12.4520841652
 10
-9.5022166035
 20
12.4538274109
 10
-9.4978613663
 20
12.4553511914
 10
-9.4934016802
 20
12.4566647149
 10
-9.4888310146
 20
12.4577751345
 10
-9.4841490991
 20
12.4586813815
 10
-9.4793572281
 20
12.4593803322
 10
-9.474456696
 20
12.4598688626
 10
-9.4694487972
 20
12.4601438489
 10
-9.4643356362
 20
12.4602021136
 10
-9.4591225573
 20
12.4600402647
 10
-9.4538157145
 20
12.4596548565
 10
-9.4484212623
 20
12.4590424433
 10
-9.4429453547
 20
12.4581995793
 10
-9.438326049
 20
12.4573194285
 10
-9.4336684125
 20
12.456279418
 10
-9.4289864069
 20
12.4550821165
 10
-9.4242901977
 20
12.4537289292
 10
-9.4195747647
 20
12.4522166093
 10
-9.4148312915
 20
12.4505407468
 10
-9.4090941196
 20
12.4483088216
 10
-9.4033151732
 20
12.4458345966
 10
-9.3975057514
 20
12.4431176237
 10
-9.391677153
 20
12.4401574547
 10
-9.3858406772
 20
12.4369536416
 10
-9.3800072268
 20
12.4335074918
 10
-9.3741861204
 20
12.4298273352
 10
-9.3683862808
 20
12.425923257
 10
-9.3626166304
 20
12.4218053426
 10
-9.356886092
 20
12.4174836773
 10
-9.3521446507
 20
12.4137318034
 10
-9.3474278881
 20
12.4098385608
 10
-9.3427271256
 20
12.4057970705
 10
-9.338038209
 20
12.4016044281
 10
-9.3333750815
 20
12.3972736259
 10
-9.3287562107
 20
12.3928216307
 10
-9.3232939701
 20
12.3873405496
 10
-9.3179298638
 20
12.3817230938
 10
-9.3126717032
 20
12.3759829745
 10
-9.3075272994
 20
12.3701339029
 10
-9.302504464
 20
12.3641895902
 10
-9.2976095624
 20
12.3581619729
 10
-9.2928431775
 20
12.3520558896
 10
-9.2882044462
 20
12.3458744039
 10
-9.2836925056
 20
12.3396205796
 10
-9.2793064927
 20
12.3332974806
 10
-9.2750444525
 20
12.3269045723
 10
-9.2709000614
 20
12.3204269264
 10
-9.2668659037
 20
12.3138460162
 10
-9.2629345638
 20
12.307143315
 10
-9.2590986261
 20
12.3003002963
  0
LWPOLYLINE
  5
253
100
AcDbEntity
  8
0
100
AcDbPolyline
 62
253
  6
CONTINUOUS
 90
53
 70
0
 10
-11.1771316136
 20
13.4077485047
 10
-11.1730130351
 20
13.4099479764
 10
-11.1688153321
 20
13.4119099402
 10
-11.1645303337
 20
13.4136435297
 10
-11.1601498691
 20
13.4151578784
 10
-11.1556657675
 20
13.4164621201
 10
-11.1510714184
 20
13.4175633357
 10
-11.1463664526
 20
13.4184603953
 10
-11.1415520614
 20
13.4191501164
 10
-11.1366294361
 20
13.4196293162
 10
-11.1315997679
 20
13.4198948124
 10
-11.1264650949
 20
13.4199433683
 10
-11.1212308425
 20
13.4197715316
 10
-11.1159032828
 20
13.4193757959
 10
-11.1104886879
 20
13.4187526548
 10
-11.1049933301
 20
13.4178986021
 10
-11.1003584617
 20
13.4170087556
 10
-11.0956860848
 20
13.4159587973
 10
-11.090990421
 20
13.4147514057
 10
-11.0862818527
 20
13.4133880881
 10
-11.0815554085
 20
13.4118656676
 10
-11.0768022778
 20
13.4101797958
 10
-11.0710552829
 20
13.4079360612
 10
-11.0652683053
 20
13.4054503183
 10
-11.0594524776
 20
13.4027221898
 10
-11.0536189322
 20
13.3997512984
 10
-11.0477788017
 20
13.396537267
 10
-11.0419428674
 20
13.3930814996
 10
-11.0361205046
 20
13.3893925263
 10
-11.0303207377
 20
13.3854806582
 10
-11.0245525907
 20
13.3813562067
 10
-11.0188250879
 20
13.377029483
 10
-11.0140874117
 20
13.3732746763
 10
-11.0093755582
 20
13.3693797544
 10
-11.0046808581
 20
13.3653379082
 10
-10.999999128
 20
13.361146268
 10
-10.9953441279
 20
13.3568177213
 10
-10.9907341038
 20
13.3523690949
 10
-10.9852831653
 20
13.3468933473
 10
-10.9799309855
 20
13.3412824953
 10
-10.9746852837
 20
13.3355501187
 10
-10.9695537792
 20
13.3297097974
 10
-10.964544191
 20
13.3237751112
 10
-10.9596628179
 20
13.3177578952
 10
-10.9549102762
 20
13.3116630067
 10
-10.9502857618
 20
13.305493558
 10
-10.9457884705
 20
13.2992526617
 10
-10.941417598
 20
13.2929434303
 10
-10.9371712422
 20
13.2865653759
 10
-10.9330431078
 20
13.2801036088
 10
-10.9290258017
 20
13.2735396391
 10
-10.9251119306
 20
13.2668549767
 10
-10.9212941014
 20
13.2600311315
  0
LINE
  5
254
100
AcDbEntity
  8
ASSI
100
AcDbLine
 62
7
  6
CONTINUOUS
 10
-16.7919095492
 20
-9.5190617579
 11
13.9114265842
 21
-27.2467832382
  0
LINE
  5
255
100
AcDbEntity
  8
ASSI
100
AcDbLine
 62
253
  6
CONTINUOUS
 10
-16.9876122882
 20
-9.1804915757
 11
13.708768216
 21
-26.9041969629
  0
LINE
  5
256
100
AcDbEntity
  8
ASSI
100
AcDbLine
 62
7
  6
CONTINUOUS
 10
13.9106421477
 20
-27.2463289393
 11
13.911426612
 21
-27.2467832543
  0
LINE
  5
257
100
AcDbEntity
  8
ASSI
100
AcDbLine
 62
253
  6
CONTINUOUS
 10
-16.7919095492
 20
-9.5190617579
 11
-16.8008871754
 21
-9.5136817368
  0
LWPOLYLINE
  5
258
100
AcDbEntity
  8
0
100
AcDbPolyline
 62
253
  6
CONTINUOUS
 90
37
 70
0
 10
-8.7510703692
 20
11.0611211918
 10
-8.7540560161
 20
11.0594974633
 10
-8.757098778
 20
11.05800095
 10
-8.7601980333
 20
11.0566291213
 10
-8.7633531602
 20
11.0553794464
 10
-8.7665635372
 20
11.0542493945
 10
-8.7698285427
 20
11.0532364351
 10
-8.773147555
 20
11.0523380372
 10
-8.7765196437
 20
11.0515520319
 10
-8.7799426432
 20
11.0508776964
 10
-8.7834140789
 20
11.0503146698
 10
-8.7869314765
 20
11.049862591
 10
-8.7904923613
 20
11.0495210991
 10
-8.7940942591
 20
11.0492898329
 10
-8.7977346953
 20
11.0491684316
 10
-8.8014113917
 20
11.0491566118
 10
-8.8051228552
 20
11.049254401
 10
-8.8088677888
 20
11.0494619046
 10
-8.8126448956
 20
11.0497792278
 10
-8.8164528787
 20
11.0502064759
 10
-8.8202904412
 20
11.0507437542
 10
-8.8241562861
 20
11.0513911679
 10
-8.8280490655
 20
11.0521489522
 10
-8.8319672267
 20
11.0530178626
 10
-8.8359091661
 20
11.053998784
 10
-8.83987328
 20
11.0550926019
 10
-8.8438579648
 20
11.0563002013
 10
-8.8478616166
 20
11.0576224676
 10
-8.8518826319
 20
11.0590602859
 10
-8.8554142338
 20
11.0604141533
 10
-8.8589582117
 20
11.0618595108
 10
-8.8625148757
 20
11.0633987011
 10
-8.8660845357
 20
11.0650340672
 10
-8.8696675017
 20
11.0667679518
 10
-8.8732640839
 20
11.0686026977
 10
-8.876874592
 20
11.0705406477
 10
-8.8804993362
 20
11.0725841447
  0
LINE
  5
259
100
AcDbEntity
  8
ASSI
100
AcDbLine
 62
7
  6
CONTINUOUS
 10
-12.4104968875
 20
26.7462706034
 11
-12.3892915983
 21
26.1297981059
  0
LINE
  5
25A
100
AcDbEntity
  8
ASSI
100
AcDbLine
 62
253
  6
CONTINUOUS
 10
-12.5907481369
 20
26.3320504446
 11
-12.5907481369
 21
26.2692324559
  0
LWPOLYLINE
  5
25B
100
AcDbEntity
  8
0
100
AcDbPolyline
 62
253
  6
CONTINUOUS
 90
57
 70
0
 10
-10.7601455548
 20
14.0168330293
 10
-10.7591487278
 20
14.034476473
 10
-10.7577292272
 20
14.051849395
 10
-10.7558873773
 20
14.0689872502
 10
-10.7536235027
 20
14.0859254935
 10
-10.7509368404
 20
14.1026924057
 10
-10.7478222779
 20
14.1192875709
 10
-10.7442736156
 20
14.135703399
 10
-10.7402846534
 20
14.1519323
 10
-10.735850756
 20
14.1679625042
 10
-10.730973546
 20
14.1837655224
 10
-10.7256562105
 20
14.1993086859
 10
-10.7199019364
 20
14.2145593261
 10
-10.7137132222
 20
14.2294875807
 10
-10.7070898128
 20
14.2440748147
 10
-10.7000307642
 20
14.2583051994
 10
-10.6925351328
 20
14.2721629064
 10
-10.6846031296
 20
14.2856305194
 10
-10.676239586
 20
14.2986842715
 10
-10.6674504881
 20
14.3112988079
 10
-10.658241822
 20
14.323448774
 10
-10.6486171061
 20
14.3351109132
 10
-10.6385699867
 20
14.346270361
 10
-10.6280916424
 20
14.3569143513
 10
-10.6171732518
 20
14.3670301178
 10
-10.605810632
 20
14.3766008235
 10
-10.5940181547
 20
14.3855933491
 10
-10.5818148304
 20
14.3939705044
 10
-10.5692196696
 20
14.4016950993
 10
-10.5562559312
 20
14.408736389
 10
-10.5429638694
 20
14.4150894103
 10
-10.5293879869
 20
14.4207556451
 10
-10.5155727864
 20
14.4257365756
 10
-10.5015557691
 20
14.4300363079
 10
-10.4873464298
 20
14.4336694453
 10
-10.472947262
 20
14.4366532154
 10
-10.4583607589
 20
14.4390048455
 10
-10.443590222
 20
14.44073939
 10
-10.4286421848
 20
14.4418632103
 10
-10.4135239889
 20
14.4423804947
 10
-10.3982429757
 20
14.4422954315
 10
-10.3828102837
 20
14.4416126273
 10
-10.3672522377
 20
14.4403383621
 10
-10.3515989595
 20
14.4384793341
 10
-10.3358805708
 20
14.4360422417
 10
-10.3201293181
 20
14.4330364355
 10
-10.3043859471
 20
14.4294818759
 10
-10.2886933284
 20
14.4254011757
 10
-10.2730943323
 20
14.4208169476
 10
-10.2576236611
 20
14.4157497726
 10
-10.2422833443
 20
14.4102121044
 10
-10.2270672429
 20
14.404214365
 10
-10.2119692179
 20
14.3977669764
 10
-10.1969795938
 20
14.3908759837
 10
-10.1820745475
 20
14.3835299253
 10
-10.1672267193
 20
14.3757129627
 10
-10.1524087493
 20
14.3674092575
  0
LWPOLYLINE
  5
25C
100
AcDbEntity
  8
0
100
AcDbPolyline
 62
253
  6
CONTINUOUS
 90
55
 70
0
 10
-12.2988126212
 20
14.9052401095
 10
-12.2984363963
 20
14.9117015298
 10
-12.297887348
 20
14.9180001622
 10
-12.2971676121
 20
14.9241537947
 10
-12.2962793245
 20
14.9301802151
 10
-12.295224621
 20
14.9360972113
 10
-12.2940050571
 20
14.9419188708
 10
-12.2926198675
 20
14.9476444796
 10
-12.2910677068
 20
14.9532696233
 10
-12.2893472295
 20
14.9587898876
 10
-12.2874570901
 20
14.9642008581
 10
-12.2853962584
 20
14.9694971933
 10
-12.2831649648
 20
14.9746698433
 10
-12.2807637555
 20
14.979708831
 10
-12.2781931761
 20
14.9846041794
 10
-12.2754537726
 20
14.9893459115
 10
-12.2730435543
 20
14.9931718032
 10
-12.2705239138
 20
14.996872267
 10
-12.2679022888
 20
15.0004354818
 10
-12.2651838522
 20
15.0038523613
 10
-12.2623647169
 20
15.0071247599
 10
-12.2594387307
 20
15.0102572674
 10
-12.2564011931
 20
15.0132525722
 10
-12.2532532085
 20
15.0161057585
 10
-12.249997333
 20
15.0188100095
 10
-12.2466361226
 20
15.0213585084
 10
-12.243172133
 20
15.0237444384
 10
-12.2396079204
 20
15.0259609825
 10
-12.2359465585
 20
15.0280025869
 10
-12.2321931927
 20
15.0298687491
 10
-12.2283534863
 20
15.0315602295
 10
-12.2244331026
 20
15.0330777887
 10
-12.2204377049
 20
15.0344221871
 10
-12.2163729564
 20
15.0355941851
 10
-12.2122423139
 20
15.0365947251
 10
-12.2080404083
 20
15.0374254765
 10
-12.203759664
 20
15.0380882909
 10
-12.1993966654
 20
15.0385844653
 10
-12.1949646377
 20
15.0389130793
 10
-12.1904809663
 20
15.0390726583
 10
-12.1850537205
 20
15.0390403732
 10
-12.1795882901
 20
15.0387685419
 10
-12.1740958223
 20
15.0382631523
 10
-12.1685874646
 20
15.0375301924
 10
-12.1630743643
 20
15.03657565
 10
-12.1575660575
 20
15.035405179
 10
-12.1520656359
 20
15.034023098
 10
-12.1465745799
 20
15.0324333915
 10
-12.14109437
 20
15.0306400441
 10
-12.1356264867
 20
15.0286470403
 10
-12.1301698599
 20
15.0264557903
 10
-12.1247132178
 20
15.024057406
 10
-12.119242738
 20
15.0214404247
 10
-12.1137445981
 20
15.0185933841
 10
-12.1082049758
 20
15.0155048214
  0
LWPOLYLINE
  5
25D
100
AcDbEntity
  8
0
100
AcDbPolyline
 62
253
  6
CONTINUOUS
 90
55
 70
0
 10
-11.1795725417
 20
14.259004915
 10
-11.1799466406
 20
14.2525643363
 10
-11.1804912671
 20
14.2462855383
 10
-11.1812043962
 20
14.2401506784
 10
-11.1820840026
 20
14.2341419144
 10
-11.183128061
 20
14.2282414036
 10
-11.184335112
 20
14.2224350391
 10
-11.1857059592
 20
14.2167236557
 10
-11.1872419718
 20
14.2111118236
 10
-11.1889445191
 20
14.205604113
 10
-11.1908149704
 20
14.2002050942
 10
-11.1928543997
 20
14.194920226
 10
-11.1950626987
 20
14.1897585217
 10
-11.1974394641
 20
14.1847298833
 10
-11.1999842922
 20
14.1798442124
 10
-11.2026967795
 20
14.1751114112
 10
-11.2050838173
 20
14.1712923255
 10
-11.20757987
 20
14.1675979831
 10
-11.2101778026
 20
14.1640400916
 10
-11.2128727144
 20
14.160627656
 10
-11.2156686421
 20
14.15735887
 10
-11.2185718565
 20
14.1542292247
 10
-11.2215871726
 20
14.1512361379
 10
-11.2247135822
 20
14.1483847329
 10
-11.2279486211
 20
14.1456820597
 10
-11.2312898253
 20
14.1431351682
 10
-11.2347347305
 20
14.1407511084
 10
-11.2382808728
 20
14.1385369301
 10
-11.2419252711
 20
14.136498383
 10
-11.2456628772
 20
14.1346360155
 10
-11.2494881261
 20
14.1329490756
 10
-11.2533954527
 20
14.1314368114
 10
-11.2573792919
 20
14.130098471
 10
-11.2614340788
 20
14.1289333025
 10
-11.2655564443
 20
14.1279403688
 10
-11.2697518042
 20
14.1271179929
 10
-11.2740277701
 20
14.1264643127
 10
-11.2783877604
 20
14.1259780144
 10
-11.282818419
 20
14.1256599791
 10
-11.2873021966
 20
14.1255116364
 10
-11.2927313102
 20
14.1255581925
 10
-11.2982003588
 20
14.125844998
 10
-11.3036980573
 20
14.1263658864
 10
-11.3092131208
 20
14.1271146913
 10
-11.3147342641
 20
14.1280852465
 10
-11.3202518365
 20
14.1292717326
 10
-11.3257627234
 20
14.1306697189
 10
-11.3312654441
 20
14.1322751221
 10
-11.3367585184
 20
14.1340838586
 10
-11.3422404656
 20
14.136091845
 10
-11.3477123922
 20
14.1382976059
 10
-11.3531857522
 20
14.1407100987
 10
-11.3586745866
 20
14.1433408891
 10
-11.3641929363
 20
14.1462015425
 10
-11.3697548423
 20
14.1493036246
  0
LWPOLYLINE
  5
25E
100
AcDbEntity
  8
0
100
AcDbPolyline
 62
253
  6
CONTINUOUS
 90
3
 70
0
 10
-10.235352476
 20
16.096181266
 10
-10.2533160484
 20
15.8301477689
 10
-10.2935880606
 20
15.187917068
  0
LINE
  5
25F
100
AcDbEntity
  8
ASSI
100
AcDbLine
 62
7
  6
CONTINUOUS
 10
-4.4909009382
 20
22.1735951581
 11
-4.6711521876
 21
21.7593749993
  0
LWPOLYLINE
  5
260
100
AcDbEntity
  8
ASSI
100
AcDbPolyline
 62
253
  6
CONTINUOUS
 90
13
 70
0
 10
13.4620749271
 20
-9.7538660485
 10
13.4759190742
 20
-9.7505015334
 10
13.4895786648
 20
-9.7468985353
 10
13.5030413233
 20
-9.7430602346
 10
13.5162948968
 20
-9.7389901358
 10
13.529327304
 20
-9.7346919851
 10
13.5421265692
 20
-9.7301696489
 10
13.5546809862
 20
-9.7254273187
 10
13.5669792867
 20
-9.7204693078
 10
13.5790104822
 20
-9.7152999636
 10
13.5907637103
 20
-9.7099239484
 10
13.6022282559
 20
-9.7043462446
 10
13.613393719
 20
-9.6985719525
  0
LWPOLYLINE
  5
261
100
AcDbEntity
  8
0
100
AcDbPolyline
 62
253
  6
CONTINUOUS
 90
29
 70
0
 10
-8.9827659051
 20
-8.3460507204
 10
-8.9861310409
 20
-8.3440729625
 10
-8.9894932404
 20
-8.3420277907
 10
-8.9928529131
 20
-8.3399156171
 10
-8.9962104686
 20
-8.3377368533
 10
-8.9995663165
 20
-8.3354919114
 10
-9.0029208663
 20
-8.3331812033
 10
-9.0062745275
 20
-8.3308051407
 10
-9.0096274144
 20
-8.3283642337
 10
-9.0129784601
 20
-8.3258593844
 10
-9.0163263021
 20
-8.323291593
 10
-9.0196695782
 20
-8.3206618596
 10
-9.0230069262
 20
-8.3179711846
 10
-9.0263369836
 20
-8.3152205681
 10
-9.0296583883
 20
-8.3124110104
 10
-9.0329697796
 20
-8.3095434988
 10
-9.0362698039
 20
-8.3066189705
 10
-9.0395571094
 20
-8.3036383494
 10
-9.0428303443
 20
-8.3006025599
 10
-9.0460881566
 20
-8.2975125262
 10
-9.0493291944
 20
-8.2943691723
 10
-9.052552106
 20
-8.2911734227
 10
-9.0557557508
 20
-8.2879258588
 10
-9.0589398337
 20
-8.2846256926
 10
-9.0621042707
 20
-8.2812717933
 10
-9.0652489781
 20
-8.2778630301
 10
-9.0683738721
 20
-8.2743982723
 10
-9.0714788688
 20
-8.2708763892
 10
-9.0745638844
 20
-8.26729625
  0
LWPOLYLINE
  5
262
100
AcDbEntity
  8
0
100
AcDbPolyline
 62
253
  6
CONTINUOUS
 90
43
 70
0
 10
-11.3378142015
 20
-6.9862753497
 10
-11.3416461752
 20
-6.9840093819
 10
-11.3454655276
 20
-6.981645255
 10
-11.3492767702
 20
-6.979182497
 10
-11.3530844146
 20
-6.9766206363
 10
-11.3568929722
 20
-6.973959201
 10
-11.3607069545
 20
-6.9711977193
 10
-11.3652958288
 20
-6.9677514251
 10
-11.369898303
 20
-6.9641608264
 10
-11.3745136686
 20
-6.9604263651
 10
-11.3791412173
 20
-6.9565484831
 10
-11.3837802407
 20
-6.9525276222
 10
-11.3884287427
 20
-6.9483654963
 10
-11.3930795763
 20
-6.9440689081
 10
-11.3977243066
 20
-6.939645932
 10
-11.402354499
 20
-6.9351046428
 10
-11.4069617186
 20
-6.9304531151
 10
-11.4115382806
 20
-6.9256988753
 10
-11.4160795007
 20
-6.9208472568
 10
-11.4205814443
 20
-6.9159030447
 10
-11.4250401769
 20
-6.9108710243
 10
-11.429451764
 20
-6.9057559807
 10
-11.4338121499
 20
-6.9005627679
 10
-11.4381167939
 20
-6.8952965149
 10
-11.4423610339
 20
-6.8899624196
 10
-11.4465402081
 20
-6.8845656798
 10
-11.4506496543
 20
-6.8791114932
 10
-11.4546842802
 20
-6.8736059598
 10
-11.4586372711
 20
-6.8680587873
 10
-11.462501382
 20
-6.8624805855
 10
-11.4662693677
 20
-6.8568819641
 10
-11.4699339833
 20
-6.8512735328
 10
-11.4734891985
 20
-6.8456641966
 10
-11.4769338435
 20
-6.8400560417
 10
-11.4802679629
 20
-6.8344494493
 10
-11.4834916019
 20
-6.8288448007
 10
-11.4866048053
 20
-6.8232424772
 10
-11.4891149651
 20
-6.8185749411
 10
-11.4915494007
 20
-6.8139035977
 10
-11.493909048
 20
-6.8092227606
 10
-11.4961948433
 20
-6.804526743
 10
-11.4984077223
 20
-6.7998098585
 10
-11.5005486211
 20
-6.7950664202
  0
LWPOLYLINE
  5
263
100
AcDbEntity
  8
0
100
AcDbPolyline
 62
253
  6
CONTINUOUS
 90
55
 70
0
 10
-10.1118051268
 20
-8.4234165806
 10
-10.1172792197
 20
-8.420162654
 10
-10.1227150923
 20
-8.4167462104
 10
-10.1281262968
 20
-8.4131623099
 10
-10.133526385
 20
-8.4094060123
 10
-10.1389289088
 20
-8.4054723778
 10
-10.144344651
 20
-8.4013573109
 10
-10.1497733162
 20
-8.3970600949
 10
-10.1552118399
 20
-8.3925808575
 10
-10.1606571576
 20
-8.3879197266
 10
-10.1661062047
 20
-8.3830768301
 10
-10.1715550408
 20
-8.3780530643
 10
-10.176996223
 20
-8.3728523999
 10
-10.1824214325
 20
-8.3674795764
 10
-10.1878223507
 20
-8.3619393331
 10
-10.1931906586
 20
-8.3562364093
 10
-10.1976318961
 20
-8.3513650944
 10
-10.2020312537
 20
-8.3463986737
 10
-10.2063752745
 20
-8.3413517229
 10
-10.2106539295
 20
-8.3362346424
 10
-10.2148709023
 20
-8.3310411329
 10
-10.2190333041
 20
-8.3257607196
 10
-10.2231458555
 20
-8.3203857454
 10
-10.2272037124
 20
-8.3149198221
 10
-10.23119964
 20
-8.309369379
 10
-10.2351264032
 20
-8.3037408453
 10
-10.2389767671
 20
-8.2980406501
 10
-10.2427434967
 20
-8.2922752228
 10
-10.2464201537
 20
-8.2864511225
 10
-10.2500034865
 20
-8.2805754286
 10
-10.2534910402
 20
-8.2746553507
 10
-10.2568803598
 20
-8.2686980979
 10
-10.2601689904
 20
-8.26271088
 10
-10.263354477
 20
-8.2567009061
 10
-10.2664357208
 20
-8.2506723245
 10
-10.2694170464
 20
-8.244617038
 10
-10.2723041346
 20
-8.2385238884
 10
-10.2750999039
 20
-8.2323876719
 10
-10.2777962238
 20
-8.226227005
 10
-10.2803822019
 20
-8.2200664587
 10
-10.2833273311
 20
-8.212703605
 10
-10.2860967224
 20
-8.2053890459
 10
-10.2886892154
 20
-8.1981355199
 10
-10.2911036497
 20
-8.1909557655
 10
-10.2933388649
 20
-8.1838625211
 10
-10.2953943164
 20
-8.1768664384
 10
-10.297271922
 20
-8.1699698221
 10
-10.2989742148
 20
-8.16317289
 10
-10.3005037284
 20
-8.1564758597
 10
-10.301862996
 20
-8.1498789492
 10
-10.3030538191
 20
-8.1433800023
 10
-10.3040750711
 20
-8.1369673667
 10
-10.3049248935
 20
-8.1306270164
 10
-10.3056014278
 20
-8.1243449251
 10
-10.3061028156
 20
-8.1181070669
  0
LWPOLYLINE
  5
264
100
AcDbEntity
  8
0
100
AcDbPolyline
 62
253
  6
CONTINUOUS
 90
55
 70
0
 10
-10.1893697913
 20
-7.1444613614
 10
-10.2010624588
 20
-7.1375104838
 10
-10.2126918558
 20
-7.1301991387
 10
-10.2242887968
 20
-7.1225130699
 10
-10.2358840962
 20
-7.1144380209
 10
-10.2475085682
 20
-7.1059597355
 10
-10.2591874045
 20
-7.0970651623
 10
-10.2709233046
 20
-7.0877460702
 10
-10.2827133455
 20
-7.0779954328
 10
-10.294554604
 20
-7.0678062241
 10
-10.3064441567
 20
-7.0571714179
 10
-10.3183753884
 20
-7.0460872688
 10
-10.3303269149
 20
-7.0345631551
 10
-10.3422736598
 20
-7.0226117361
 10
-10.3541905468
 20
-7.0102456707
 10
-10.3660524994
 20
-6.9974776183
 10
-10.375873246
 20
-6.9865458095
 10
-10.3855989648
 20
-6.9753880119
 10
-10.3951901907
 20
-6.9640486036
 10
-10.4046177212
 20
-6.9525592484
 10
-10.4138934029
 20
-6.9409007532
 10
-10.4230393448
 20
-6.9290412109
 10
-10.43207086
 20
-6.9169570041
 10
-10.4409760784
 20
-6.9046576737
 10
-10.4497363337
 20
-6.8921610504
 10
-10.45833296
 20
-6.8794849648
 10
-10.4667472911
 20
-6.8666472476
 10
-10.474960661
 20
-6.8536657295
 10
-10.4829563075
 20
-6.840559169
 10
-10.4907250842
 20
-6.8273500363
 10
-10.4982597487
 20
-6.8140617294
 10
-10.5055530585
 20
-6.8007176462
 10
-10.5125977711
 20
-6.787341185
 10
-10.519386644
 20
-6.7739557437
 10
-10.5259167112
 20
-6.7605750988
 10
-10.5322021115
 20
-6.7471745402
 10
-10.5382612602
 20
-6.7337197364
 10
-10.5441055786
 20
-6.7201917192
 10
-10.5497185126
 20
-6.7066329747
 10
-10.5550765141
 20
-6.6931013522
 10
-10.5611433029
 20
-6.6769688526
 10
-10.5668095095
 20
-6.6609878398
 10
-10.5720755637
 20
-6.645187442
 10
-10.5769418951
 20
-6.6295967868
 10
-10.5814089337
 20
-6.6142450021
 10
-10.585478555
 20
-6.599155873
 10
-10.5891584184
 20
-6.5843318125
 10
-10.5924576291
 20
-6.5697698912
 10
-10.5953852926
 20
-6.5554671791
 10
-10.597950514
 20
-6.5414207467
 10
-10.6001607243
 20
-6.5276226286
 10
-10.6020166572
 20
-6.5140447169
 10
-10.6035173718
 20
-6.5006538678
 10
-10.6046619276
 20
-6.4874169377
 10
-10.6054493837
 20
-6.4743007831
  0
LWPOLYLINE
  5
265
100
AcDbEntity
  8
0
100
AcDbPolyline
 62
253
  6
CONTINUOUS
 90
55
 70
0
 10
-10.1639194093
 20
-7.6049339603
 10
-10.1584351827
 20
-7.6081950393
 10
-10.1529913154
 20
-7.6116199674
 10
-10.1475742166
 20
-7.6152136544
 10
-10.1421702955
 20
-7.6189810097
 10
-10.1367659612
 20
-7.6229269431
 10
-10.131350393
 20
-7.6270555303
 10
-10.1259238502
 20
-7.6313675111
 10
-10.1204893621
 20
-7.6358627915
 10
-10.1150499581
 20
-7.6405412773
 10
-10.1096086676
 20
-7.6454028745
 10
-10.1041694047
 20
-7.6504467043
 10
-10.0987396225
 20
-7.6556687495
 10
-10.0933276592
 20
-7.6610642081
 10
-10.0879418526
 20
-7.6666282782
 10
-10.0825905408
 20
-7.6723561578
 10
-10.0781649177
 20
-7.677249064
 10
-10.0737824911
 20
-7.6822376443
 10
-10.0694567124
 20
-7.6873071508
 10
-10.065197609
 20
-7.69244704
 10
-10.0610015109
 20
-7.697663585
 10
-10.056861324
 20
-7.7029672635
 10
-10.0527723268
 20
-7.7083657338
 10
-10.0487392879
 20
-7.713855378
 10
-10.0447693485
 20
-7.719429759
 10
-10.0408696498
 20
-7.7250824398
 10
-10.0370473331
 20
-7.7308069833
 10
-10.0333095394
 20
-7.7365969524
 10
-10.0296626177
 20
-7.7424457675
 10
-10.0261097478
 20
-7.7483462777
 10
-10.0226533172
 20
-7.7542911895
 10
-10.0192957132
 20
-7.7602732094
 10
-10.0160393234
 20
-7.7662850439
 10
-10.0128865353
 20
-7.7723193995
 10
-10.0098383958
 20
-7.7783720592
 10
-10.0068905895
 20
-7.7844511114
 10
-10.0040374606
 20
-7.7905677211
 10
-10.0012760784
 20
-7.7967270888
 10
-9.9986144119
 20
-7.8029105573
 10
-9.9960631553
 20
-7.8090935048
 10
-9.9931595427
 20
-7.8164826476
 10
-9.9904313795
 20
-7.8238228048
 10
-9.9878797251
 20
-7.8311011961
 10
-9.9855056386
 20
-7.8383050414
 10
-9.9833101797
 20
-7.8454215606
 10
-9.9812938086
 20
-7.8524400633
 10
-9.9794545907
 20
-7.8593582186
 10
-9.9777899922
 20
-7.8661757856
 10
-9.9762974796
 20
-7.8728925231
 10
-9.9749745191
 20
-7.8795081902
 10
-9.9738193207
 20
-7.8860249312
 10
-9.9728330687
 20
-7.8924544322
 10
-9.9720176909
 20
-7.8988107646
 10
-9.9713751152
 20
-7.9051079999
 10
-9.9709072693
 20
-7.9113602097
  0
LWPOLYLINE
  5
266
100
AcDbEntity
  8
0
100
AcDbPolyline
 62
253
  6
CONTINUOUS
 90
53
 70
0
 10
-9.4094788618
 20
-7.8720701782
 10
-9.4143669322
 20
-7.866218005
 10
-9.4191302244
 20
-7.8603009664
 10
-9.423782321
 20
-7.8543065093
 10
-9.4283368051
 20
-7.8482220811
 10
-9.4328072595
 20
-7.8420351288
 10
-9.4372044287
 20
-7.8357355635
 10
-9.4415277039
 20
-7.8293231528
 10
-9.4457736377
 20
-7.822800128
 10
-9.4499387828
 20
-7.8161687207
 10
-9.454019692
 20
-7.8094311622
 10
-9.4580122357
 20
-7.802590799
 10
-9.4619095559
 20
-7.7956554368
 10
-9.4657041123
 20
-7.7886339965
 10
-9.4693883649
 20
-7.7815353989
 10
-9.4729547733
 20
-7.7743685648
 10
-9.475830569
 20
-7.7683527285
 10
-9.4786104193
 20
-7.7623141515
 10
-9.481285451
 20
-7.7562712847
 10
-9.4838488392
 20
-7.7502376425
 10
-9.4863019508
 20
-7.7442069936
 10
-9.4886482007
 20
-7.73816817
 10
-9.4913249459
 20
-7.7309008354
 10
-9.4938435957
 20
-7.7236209604
 10
-9.496195018
 20
-7.7163438578
 10
-9.4983700808
 20
-7.7090848402
 10
-9.500359652
 20
-7.7018592205
 10
-9.5021562951
 20
-7.6946814699
 10
-9.503759356
 20
-7.6875626945
 10
-9.505169876
 20
-7.6805131593
 10
-9.5063888967
 20
-7.6735431289
 10
-9.5074174594
 20
-7.6666628681
 10
-9.5081299754
 20
-7.6610025544
 10
-9.5087122618
 20
-7.6554011937
 10
-9.5091656282
 20
-7.6498482707
 10
-9.5094910079
 20
-7.6443386619
 10
-9.509687829
 20
-7.6388888122
 10
-9.5097551432
 20
-7.6335205581
 10
-9.509664705
 20
-7.6272121586
 10
-9.5093911858
 20
-7.621060754
 10
-9.5089393599
 20
-7.615074397
 10
-9.5083140016
 20
-7.6092611398
 10
-9.507519885
 20
-7.6036290349
 10
-9.5065615031
 20
-7.5981845054
 10
-9.5054422226
 20
-7.5929274566
 10
-9.5041651289
 20
-7.5878561646
 10
-9.5027333071
 20
-7.5829689053
 10
-9.5011498428
 20
-7.5782639549
 10
-9.4994158211
 20
-7.5737387969
 10
-9.4975243278
 20
-7.5693877453
 10
-9.4954664486
 20
-7.5652043219
 10
-9.4932332691
 20
-7.5611820483
 10
-9.490815875
 20
-7.5573144461
  0
LWPOLYLINE
  5
267
100
AcDbEntity
  8
0
100
AcDbPolyline
 62
253
  6
CONTINUOUS
 90
53
 70
0
 10
-8.9132486362
 20
-8.021258561
 10
-8.9083878146
 20
-8.0271199027
 10
-8.9036507277
 20
-8.0330451865
 10
-8.899023954
 20
-8.0390469187
 10
-8.8944940719
 20
-8.0451376057
 10
-8.8900476599
 20
-8.0513297539
 10
-8.8856740996
 20
-8.0576334022
 10
-8.8813739847
 20
-8.0640487205
 10
-8.877150712
 20
-8.0705734111
 10
-8.8730076783
 20
-8.0772051763
 10
-8.8689482804
 20
-8.0839417185
 10
-8.8649765729
 20
-8.0907796581
 10
-8.8610992415
 20
-8.0977112874
 10
-8.8573236299
 20
-8.1047278167
 10
-8.8536570816
 20
-8.1118204564
 10
-8.8501069401
 20
-8.1189804167
 10
-8.8472434479
 20
-8.1249899651
 10
-8.8444745784
 20
-8.1310220568
 10
-8.8418090165
 20
-8.1370585887
 10
-8.8392534386
 20
-8.1430863157
 10
-8.8368064881
 20
-8.1491114257
 10
-8.8344647999
 20
-8.1551449647
 10
-8.8317914681
 20
-8.1624061583
 10
-8.8292739688
 20
-8.1696800897
 10
-8.8269214028
 20
-8.1769514527
 10
-8.8247428705
 20
-8.184204941
 10
-8.8227474728
 20
-8.1914252485
 10
-8.8209426332
 20
-8.1985979364
 10
-8.8193290668
 20
-8.2057120355
 10
-8.8179058121
 20
-8.2127574445
 10
-8.8166719072
 20
-8.2197240617
 10
-8.8156263903
 20
-8.2266017855
 10
-8.8148982136
 20
-8.2322607371
 10
-8.8142988797
 20
-8.2378613411
 10
-8.8138270741
 20
-8.2434139965
 10
-8.8134818735
 20
-8.2489237432
 10
-8.8132639184
 20
-8.2543741856
 10
-8.8131742404
 20
-8.2597435691
 10
-8.8132363311
 20
-8.2660541327
 10
-8.8134799664
 20
-8.2722086427
 10
-8.8139004864
 20
-8.2781990964
 10
-8.8144932313
 20
-8.2840174915
 10
-8.8152535412
 20
-8.2896558255
 10
-8.8161770307
 20
-8.295107725
 10
-8.8172604121
 20
-8.3003733333
 10
-8.8185006721
 20
-8.3054544226
 10
-8.8198947973
 20
-8.3103527651
 10
-8.8214397744
 20
-8.315070133
 10
-8.8231345477
 20
-8.3196090887
 10
-8.8249858922
 20
-8.3239753549
 10
-8.8270025406
 20
-8.3281754442
 10
-8.8291932256
 20
-8.3322158693
 10
-8.8315666798
 20
-8.336103143
  0
LWPOLYLINE
  5
268
100
AcDbEntity
  8
0
100
AcDbPolyline
 62
253
  6
CONTINUOUS
 90
53
 70
0
 10
-11.5046250938
 20
-5.3800192346
 10
-11.5094571978
 20
-5.3741007038
 10
-11.5141624299
 20
-5.3681184613
 10
-11.5187541952
 20
-5.3620597791
 10
-11.5232458987
 20
-5.355911929
 10
-11.5276509453
 20
-5.3496621829
 10
-11.5319799349
 20
-5.3433002858
 10
-11.5362322463
 20
-5.3368258748
 10
-11.5404044534
 20
-5.33024106
 10
-11.5444931297
 20
-5.3235479517
 10
-11.5484948489
 20
-5.3167486601
 10
-11.5524054967
 20
-5.309846453
 10
-11.5562182054
 20
-5.3028492297
 10
-11.5599254193
 20
-5.2957660468
 10
-11.5635195828
 20
-5.2886059614
 10
-11.5669931401
 20
-5.2813780303
 10
-11.5697894714
 20
-5.27531171
 10
-11.5724881154
 20
-5.2692232946
 10
-11.5750803857
 20
-5.2631315144
 10
-11.5775595856
 20
-5.257050116
 10
-11.5799269747
 20
-5.2509729098
 10
-11.5821858015
 20
-5.2448887222
 10
-11.5847552711
 20
-5.2375684807
 10
-11.5871643336
 20
-5.2302371765
 10
-11.5894042335
 20
-5.2229098898
 10
-11.591466215
 20
-5.215601701
 10
-11.5933415225
 20
-5.2083276903
 10
-11.59502308
 20
-5.2011021548
 10
-11.5965105314
 20
-5.1939362577
 10
-11.5978052002
 20
-5.1868403791
 10
-11.59890841
 20
-5.1798248991
 10
-11.5998214844
 20
-5.1729001978
 10
-11.6004381636
 20
-5.1672036918
 10
-11.6009249168
 20
-5.1615669124
 10
-11.6012829374
 20
-5.1559793369
 10
-11.601513134
 20
-5.1504358003
 10
-11.601615277
 20
-5.1449525685
 10
-11.6015888518
 20
-5.1395512649
 10
-11.6013876717
 20
-5.1332033994
 10
-11.6010055089
 20
-5.1270126597
 10
-11.6004472596
 20
-5.1209870572
 10
-11.5997178199
 20
-5.1151346034
 10
-11.598822086
 20
-5.1094633096
 10
-11.5977646512
 20
-5.1039795826
 10
-11.5965488974
 20
-5.0986834104
 10
-11.5951779036
 20
-5.0935731762
 10
-11.5936547489
 20
-5.0886472636
 10
-11.5919825124
 20
-5.0839040557
 10
-11.5901622536
 20
-5.0793411017
 10
-11.5881869538
 20
-5.0749526127
 10
-11.5860475749
 20
-5.0707319659
 10
-11.5837350786
 20
-5.0666725382
 10
-11.581240427
 20
-5.0627677065
  0
LWPOLYLINE
  5
269
100
AcDbEntity
  8
0
100
AcDbPolyline
 62
253
  6
CONTINUOUS
 90
53
 70
0
 10
-11.0060475287
 20
-5.5278810963
 10
-11.0012411792
 20
-5.5337765009
 10
-10.996560002
 20
-5.5397355601
 10
-10.9919905777
 20
-5.545771114
 10
-10.9875194873
 20
-5.5518960029
 10
-10.9831333115
 20
-5.5581230667
 10
-10.9788214521
 20
-5.5644626229
 10
-10.9745845955
 20
-5.5709148979
 10
-10.9704262489
 20
-5.5774775955
 10
-10.9663499197
 20
-5.5841484192
 10
-10.9623591152
 20
-5.5909250728
 10
-10.9584579888
 20
-5.5978041742
 10
-10.954653278
 20
-5.6047779988
 10
-10.9509523662
 20
-5.6118377362
 10
-10.9473626372
 20
-5.6189745759
 10
-10.9438914742
 20
-5.6261797075
 10
-10.9410954475
 20
-5.6322276148
 10
-10.9383954238
 20
-5.6382986488
 10
-10.9357999408
 20
-5.6443746293
 10
-10.9333155857
 20
-5.6504422706
 10
-10.9309411423
 20
-5.6565078634
 10
-10.9286734433
 20
-5.6625825926
 10
-10.9260910771
 20
-5.6698942802
 10
-10.9236669639
 20
-5.6772197832
 10
-10.9214102055
 20
-5.6845436546
 10
-10.9193299033
 20
-5.691850447
 10
-10.917435159
 20
-5.6991247136
 10
-10.91573335
 20
-5.7063518777
 10
-10.9142249573
 20
-5.7135208463
 10
-10.9129087378
 20
-5.7206213969
 10
-10.9117834481
 20
-5.727643307
 10
-10.9108478452
 20
-5.7345763542
 10
-10.9102120979
 20
-5.7402813767
 10
-10.9097060093
 20
-5.7459281116
 10
-10.9093283742
 20
-5.7515270803
 10
-10.9090782886
 20
-5.7570833971
 10
-10.9089560514
 20
-5.7625805466
 10
-10.9089622622
 20
-5.767996606
 10
-10.9091391184
 20
-5.7743629378
 10
-10.9094968831
 20
-5.7805728499
 10
-10.9100306362
 20
-5.7866182614
 10
-10.9107354574
 20
-5.7924910912
 10
-10.9116064266
 20
-5.7981832583
 10
-10.9126389285
 20
-5.8036883163
 10
-10.9138295687
 20
-5.8090063563
 10
-10.9151752579
 20
-5.814139104
 10
-10.9166729068
 20
-5.8190882853
 10
-10.9183194261
 20
-5.8238556257
 10
-10.9201137476
 20
-5.828443694
 10
-10.9220628887
 20
-5.8328584301
 10
-10.9241758876
 20
-5.837106617
 10
-10.9264617829
 20
-5.8411950376
 10
-10.928929613
 20
-5.8451304749
  0
LWPOLYLINE
  5
26A
100
AcDbEntity
  8
0
100
AcDbPolyline
 62
253
  6
CONTINUOUS
 90
53
 70
0
 10
-11.5005486211
 20
-6.7950664202
 10
-11.5035211568
 20
-6.7881661843
 10
-11.506319399
 20
-6.7813207185
 10
-11.5089532147
 20
-6.7745130318
 10
-11.5114324706
 20
-6.7677261335
 10
-11.5137670335
 20
-6.7609430328
 10
-11.5159646289
 20
-6.7541501883
 10
-11.5180244173
 20
-6.7473478558
 10
-11.5199434181
 20
-6.7405397407
 10
-11.5217186505
 20
-6.7337295482
 10
-11.5233471338
 20
-6.7269209837
 10
-11.5248256079
 20
-6.720118895
 10
-11.5261496945
 20
-6.7133326999
 10
-11.5273147359
 20
-6.7065729587
 10
-11.5283160744
 20
-6.699850232
 10
-11.5291490522
 20
-6.69317508
 10
-11.5297113833
 20
-6.6876582159
 10
-11.5301517794
 20
-6.6821986467
 10
-11.5304684574
 20
-6.6768132953
 10
-11.5306597351
 20
-6.6715147982
 10
-11.530724335
 20
-6.6662986442
 10
-11.5306610807
 20
-6.6611560349
 10
-11.5304145055
 20
-6.6550746677
 10
-11.5299786171
 20
-6.6491017666
 10
-11.5293499065
 20
-6.6432525625
 10
-11.5285248646
 20
-6.6375422862
 10
-11.5274999822
 20
-6.6319861686
 10
-11.5262733341
 20
-6.626597743
 10
-11.5248493296
 20
-6.6213837529
 10
-11.5232339619
 20
-6.6163492442
 10
-11.521433224
 20
-6.611499263
 10
-11.519453109
 20
-6.6068388553
 10
-11.5176691901
 20
-6.6031019961
 10
-11.5157615981
 20
-6.5994933722
 10
-11.5137270657
 20
-6.5960060664
 10
-11.5115643586
 20
-6.5926364795
 10
-11.5092803765
 20
-6.5893942836
 10
-11.5068840525
 20
-6.5862924688
 10
-11.5038717132
 20
-6.5827703261
 10
-11.5007196813
 20
-6.5794701372
 10
-11.4974371728
 20
-6.5763930015
 10
-11.4940334041
 20
-6.5735400187
 10
-11.4905175913
 20
-6.570912288
 10
-11.486897883
 20
-6.5685101928
 10
-11.4831781574
 20
-6.5663312505
 10
-11.479361225
 20
-6.5643722627
 10
-11.4754498962
 20
-6.5626300305
 10
-11.4714469816
 20
-6.5611013553
 10
-11.4673526094
 20
-6.559784028
 10
-11.4631561783
 20
-6.5586797974
 10
-11.4588444044
 20
-6.5577914017
 10
-11.454404004
 20
-6.5571215793
 10
-11.4498216935
 20
-6.5566730685
  0
LWPOLYLINE
  5
26B
100
AcDbEntity
  8
0
100
AcDbPolyline
 62
253
  6
CONTINUOUS
 90
53
 70
0
 10
-10.8867218179
 20
-6.7513358495
 10
-10.8837716103
 20
-6.7582550318
 10
-10.8809961355
 20
-6.7651190908
 10
-10.8783855072
 20
-6.7719449873
 10
-10.8759298386
 20
-6.7787496819
 10
-10.8736192432
 20
-6.7855501351
 10
-10.8714459629
 20
-6.7923598617
 10
-10.8694107536
 20
-6.7991785921
 10
-10.8675164995
 20
-6.8060026106
 10
-10.865766085
 20
-6.8128282018
 10
-10.8641623944
 20
-6.8196516498
 10
-10.86270859
 20
-6.8264680926
 10
-10.8614089461
 20
-6.8332680809
 10
-10.8602680149
 20
-6.8400410191
 10
-10.8592903487
 20
-6.8467763115
 10
-10.8584804998
 20
-6.8534633622
 10
-10.8579369473
 20
-6.8589896013
 10
-10.857514792
 20
-6.864458004
 10
-10.85721573
 20
-6.8698515932
 10
-10.8570413694
 20
-6.8751576887
 10
-10.8569929658
 20
-6.8803807984
 10
-10.8570716867
 20
-6.8855297272
 10
-10.8573358313
 20
-6.89161786
 10
-10.8577881226
 20
-6.897596705
 10
-10.8584319669
 20
-6.9034511158
 10
-10.8592707704
 20
-6.909165946
 10
-10.8603079395
 20
-6.9147260493
 10
-10.8615453202
 20
-6.9201179649
 10
-10.8629785179
 20
-6.9253349746
 10
-10.8646015778
 20
-6.9303720459
 10
-10.8664085452
 20
-6.9352241462
 10
-10.8683934652
 20
-6.9398862431
 10
-10.8701803304
 20
-6.9436241883
 10
-10.8720899445
 20
-6.9472335995
 10
-10.8741256136
 20
-6.9507213844
 10
-10.876288612
 20
-6.9540911382
 10
-10.8785720876
 20
-6.9573332065
 10
-10.8809671571
 20
-6.9604346227
 10
-10.8839770765
 20
-6.9639559584
 10
-10.8871257901
 20
-6.9672550035
 10
-10.8904041893
 20
-6.9703306787
 10
-10.8938031658
 20
-6.9731819046
 10
-10.8973136109
 20
-6.975807602
 10
-10.90092748
 20
-6.9782074061
 10
-10.9046409831
 20
-6.9803838105
 10
-10.9084513939
 20
-6.9823400233
 10
-10.9123559863
 20
-6.9840792526
 10
-10.916352034
 20
-6.9856047065
 10
-10.9204394753
 20
-6.9869186029
 10
-10.9246289063
 20
-6.9880191986
 10
-10.9289335875
 20
-6.9889037604
 10
-10.9333667795
 20
-6.9895695549
 10
-10.9379417428
 20
-6.9900138489
  0
LWPOLYLINE
  5
26C
100
AcDbEntity
  8
0
100
AcDbPolyline
 62
253
  6
CONTINUOUS
 90
53
 70
0
 10
-9.53302367
 20
-6.6511090716
 10
-9.5359018993
 20
-6.6441998394
 10
-9.5386057867
 20
-6.6373435715
 10
-9.5411450337
 20
-6.6305231253
 10
-9.5435293416
 20
-6.6237213583
 10
-9.5457684121
 20
-6.6169211281
 10
-9.5478698337
 20
-6.6101088053
 10
-9.5498327439
 20
-6.6032848132
 10
-9.5516541672
 20
-6.5964530883
 10
-9.5533311284
 20
-6.5896175671
 10
-9.5548606519
 20
-6.5827821859
 10
-9.5562395177
 20
-6.5759519492
 10
-9.5574635272
 20
-6.5691361323
 10
-9.5585282372
 20
-6.5623450788
 10
-9.5594292044
 20
-6.5555891319
 10
-9.5601619854
 20
-6.548878635
 10
-9.5606411201
 20
-6.543330509
 10
-9.5609987913
 20
-6.5378377564
 10
-9.561233417
 20
-6.5324170052
 10
-9.5613434369
 20
-6.5270806423
 10
-9.5613273776
 20
-6.5218240905
 10
-9.5611837874
 20
-6.5166385315
 10
-9.5608409259
 20
-6.5105023365
 10
-9.5603088115
 20
-6.5044715231
 10
-9.5595839264
 20
-6.4985619416
 10
-9.5586627529
 20
-6.4927894422
 10
-9.557541773
 20
-6.4871698753
 10
-9.5562190412
 20
-6.4817173041
 10
-9.5546989008
 20
-6.4764386438
 10
-9.5529872674
 20
-6.4713390228
 10
-9.5510900564
 20
-6.4664235692
 10
-9.5490131835
 20
-6.4616974113
 10
-9.547148332
 20
-6.4579055926
 10
-9.5451593463
 20
-6.4542418318
 10
-9.5430427494
 20
-6.4506991699
 10
-9.5407972049
 20
-6.4472740467
 10
-9.5384299377
 20
-6.4439764957
 10
-9.5359503133
 20
-6.4408199489
 10
-9.5328385229
 20
-6.437233458
 10
-9.5295879108
 20
-6.4338705311
 10
-9.5262079633
 20
-6.4307323437
 10
-9.522708167
 20
-6.4278200718
 10
-9.5190980083
 20
-6.425134891
 10
-9.5153858573
 20
-6.4226772325
 10
-9.5115756195
 20
-6.4204445487
 10
-9.5076700842
 20
-6.4184335474
 10
-9.5036720406
 20
-6.4166409365
 10
-9.499584278
 20
-6.4150634238
 10
-9.4954068719
 20
-6.4136987143
 10
-9.4911290428
 20
-6.4125485011
 10
-9.4867372975
 20
-6.4116154748
 10
-9.4822181429
 20
-6.4109023257
 10
-9.4775580856
 20
-6.4104117443
  0
LINE
  5
26D
100
AcDbEntity
  8
0
100
AcDbLine
 62
253
  6
CONTINUOUS
 10
-9.9709072693
 20
-7.9113602097
 11
-9.9444479548
 21
-8.3269220504
  0
LINE
  5
26E
100
AcDbEntity
  8
0
100
AcDbLine
 62
253
  6
CONTINUOUS
 10
-10.3061028156
 20
-8.1181070669
 11
-10.3325621302
 21
-7.7025452261
  0
LWPOLYLINE
  5
26F
100
AcDbEntity
  8
0
100
AcDbPolyline
 62
253
  6
CONTINUOUS
 90
55
 70
0
 10
-9.9444479547
 20
-8.326922051
 10
-9.9441308084
 20
-8.3329586232
 10
-9.9439900545
 20
-8.3388378232
 10
-9.9440219734
 20
-8.3445764778
 10
-9.9442228454
 20
-8.3501914134
 10
-9.944588951
 20
-8.355699457
 10
-9.9451174885
 20
-8.3611139022
 10
-9.945809329
 20
-8.3664339124
 10
-9.9466662615
 20
-8.3716551177
 10
-9.947690075
 20
-8.3767731486
 10
-9.9488825585
 20
-8.3817836355
 10
-9.9502453197
 20
-8.3866813855
 10
-9.9517792407
 20
-8.3914579129
 10
-9.9534850222
 20
-8.3961039086
 10
-9.9553633651
 20
-8.4006100638
 10
-9.95741497
 20
-8.4049670694
 10
-9.9592565284
 20
-8.408476361
 10
-9.9612134738
 20
-8.4118648443
 10
-9.9632803859
 20
-8.4151217516
 10
-9.965453662
 20
-8.4182387795
 10
-9.9677369707
 20
-8.4212174807
 10
-9.9701357986
 20
-8.4240618722
 10
-9.9726544597
 20
-8.4267741949
 10
-9.9752925794
 20
-8.4293495846
 10
-9.9780486108
 20
-8.4317814009
 10
-9.9809210069
 20
-8.4340630037
 10
-9.9839082207
 20
-8.4361877526
 10
-9.9870087054
 20
-8.4381490072
 10
-9.990220288
 20
-8.4399413831
 10
-9.9935382923
 20
-8.4415645183
 10
-9.9969574159
 20
-8.4430193068
 10
-10.0004723567
 20
-8.4443066425
 10
-10.0040778124
 20
-8.4454274192
 10
-10.0077684807
 20
-8.446382531
 10
-10.011541108
 20
-8.4471729735
 10
-10.0154006354
 20
-8.4478001499
 10
-10.0193540525
 20
-8.4482655652
 10
-10.023404443
 20
-8.4485703527
 10
-10.0275392668
 20
-8.4487141578
 10
-10.0317420779
 20
-8.4486962541
 10
-10.0368548857
 20
-8.4484615447
 10
-10.042030578
 20
-8.447999194
 10
-10.0472578198
 20
-8.4473154674
 10
-10.0525252762
 20
-8.4464166303
 10
-10.0578216123
 20
-8.4453089481
 10
-10.0631370786
 20
-8.4439982982
 10
-10.0684682687
 20
-8.4424890066
 10
-10.0738133614
 20
-8.4407850112
 10
-10.0791705359
 20
-8.43889025
 10
-10.0845379711
 20
-8.436808661
 10
-10.0899165644
 20
-8.4345416257
 10
-10.0953180871
 20
-8.4320803002
 10
-10.1007570287
 20
-8.4294132844
 10
-10.1062478787
 20
-8.4265291779
 10
-10.1118051268
 20
-8.4234165806
  0
LWPOLYLINE
  5
270
100
AcDbEntity
  8
0
100
AcDbPolyline
 62
253
  6
CONTINUOUS
 90
55
 70
0
 10
-10.3325621302
 20
-7.7025452256
 10
-10.3328467409
 20
-7.6964788337
 10
-10.3329535292
 20
-7.6905703719
 10
-10.3328861973
 20
-7.6848030002
 10
-10.3326484473
 20
-7.6791598781
 10
-10.3322439814
 20
-7.6736241656
 10
-10.3316755934
 20
-7.6681825427
 10
-10.3309424427
 20
-7.6628357708
 10
-10.3300427803
 20
-7.6575881315
 10
-10.3289748574
 20
-7.6524439066
 10
-10.3277369247
 20
-7.6474073776
 10
-10.3263274334
 20
-7.6424836796
 10
-10.3247456342
 20
-7.6376813606
 10
-10.3229909775
 20
-7.6330098218
 10
-10.3210629142
 20
-7.6284784645
 10
-10.3189608948
 20
-7.62409669
 10
-10.3170769383
 20
-7.6205671687
 10
-10.3150775138
 20
-7.6171589556
 10
-10.3129683375
 20
-7.6138829532
 10
-10.3107532707
 20
-7.6107475638
 10
-10.3084287532
 20
-7.6077511894
 10
-10.3059893699
 20
-7.6048897318
 10
-10.3034308881
 20
-7.6021608596
 10
-10.3007538057
 20
-7.5995693099
 10
-10.2979598033
 20
-7.5971215864
 10
-10.2950505614
 20
-7.5948241931
 10
-10.2920277607
 20
-7.5926836337
 10
-10.2888930815
 20
-7.5907064123
 10
-10.2856488241
 20
-7.5888978012
 10
-10.2822997668
 20
-7.5872581471
 10
-10.2788513074
 20
-7.5857865652
 10
-10.2753088438
 20
-7.5844821708
 10
-10.2716777739
 20
-7.583344079
 10
-10.2679634957
 20
-7.582371405
 10
-10.2641693458
 20
-7.581563156
 10
-10.2602904175
 20
-7.5809179065
 10
-10.2563197425
 20
-7.5804341228
 10
-10.2522542427
 20
-7.5801106612
 10
-10.248106399
 20
-7.5799479379
 10
-10.2438925821
 20
-7.5799467586
 10
-10.238769122
 20
-7.5801584645
 10
-10.2335854526
 20
-7.5805978364
 10
-10.2283527923
 20
-7.5812587562
 10
-10.2230823595
 20
-7.5821351059
 10
-10.2177853725
 20
-7.5832207674
 10
-10.2124714817
 20
-7.5845099962
 10
-10.207144065
 20
-7.5859985424
 10
-10.2018049323
 20
-7.5876825295
 10
-10.1964558934
 20
-7.5895580811
 10
-10.1910987581
 20
-7.5916213208
 10
-10.1857326517
 20
-7.5938709065
 10
-10.1803459613
 20
-7.5963156337
 10
-10.1749243891
 20
-7.5989668319
 10
-10.1694536377
 20
-7.6018358309
 10
-10.1639194093
 20
-7.6049339603
  0
LWPOLYLINE
  5
271
100
AcDbEntity
  8
0
100
AcDbPolyline
 62
253
  6
CONTINUOUS
 90
55
 70
0
 10
-10.4359302245
 20
-5.4833149755
 10
-10.4356397425
 20
-5.4895918123
 10
-10.4351765364
 20
-5.4959098644
 10
-10.4345428888
 20
-5.5022830533
 10
-10.4337410822
 20
-5.5087253008
 10
-10.4327733992
 20
-5.5152505286
 10
-10.4316415034
 20
-5.5218699137
 10
-10.4303445829
 20
-5.5285836537
 10
-10.4288812069
 20
-5.5353892019
 10
-10.4272499446
 20
-5.5422840114
 10
-10.4254493653
 20
-5.549265535
 10
-10.4234783367
 20
-5.5563300511
 10
-10.4213369206
 20
-5.5634691378
 10
-10.4190254776
 20
-5.5706731983
 10
-10.416544368
 20
-5.5779326359
 10
-10.4138939522
 20
-5.585237854
 10
-10.41155736
 20
-5.5913513747
 10
-10.4091106049
 20
-5.5974712185
 10
-10.4065608474
 20
-5.6035785808
 10
-10.4039130415
 20
-5.6096596208
 10
-10.4011633158
 20
-5.6157203515
 10
-10.3983055923
 20
-5.6217717499
 10
-10.3953352088
 20
-5.6278214642
 10
-10.392253167
 20
-5.6338638292
 10
-10.3890618846
 20
-5.6398898513
 10
-10.3857637791
 20
-5.6458905367
 10
-10.3823612683
 20
-5.6518568917
 10
-10.3788567695
 20
-5.6577799227
 10
-10.3752532363
 20
-5.663651217
 10
-10.371555765
 20
-5.6694646859
 10
-10.3677699876
 20
-5.6752148217
 10
-10.3639015361
 20
-5.6808961167
 10
-10.3599560427
 20
-5.6865030633
 10
-10.3559391394
 20
-5.6920301538
 10
-10.3518542718
 20
-5.6974744743
 10
-10.3476961401
 20
-5.7028434862
 10
-10.3434572577
 20
-5.708147245
 10
-10.3391342674
 20
-5.71339072
 10
-10.3347403275
 20
-5.7185585374
 10
-10.3302927252
 20
-5.7236302375
 10
-10.3249059947
 20
-5.7295653539
 10
-10.3194780729
 20
-5.7353257953
 10
-10.3140201484
 20
-5.7409047576
 10
-10.30854341
 20
-5.7462954366
 10
-10.3030590463
 20
-5.7514910283
 10
-10.2975766384
 20
-5.7564861973
 10
-10.2920993368
 20
-5.761281483
 10
-10.2866286845
 20
-5.7658788933
 10
-10.2811662244
 20
-5.7702804365
 10
-10.2757134995
 20
-5.7744881206
 10
-10.2702694703
 20
-5.7785044348
 10
-10.2648227681
 20
-5.7823337931
 10
-10.2593594419
 20
-5.7859810906
 10
-10.2538655408
 20
-5.7894512225
 10
-10.2483271136
 20
-5.7927490839
  0
LWPOLYLINE
  5
272
100
AcDbEntity
  8
0
100
AcDbPolyline
 62
253
  6
CONTINUOUS
 90
55
 70
0
 10
-10.0869097925
 20
-5.2688162287
 10
-10.0871668515
 20
-5.2625311806
 10
-10.0875952178
 20
-5.2562045784
 10
-10.0881926064
 20
-5.2498223201
 10
-10.0889567323
 20
-5.2433703038
 10
-10.0898853107
 20
-5.2368344278
 10
-10.0909766817
 20
-5.2302033844
 10
-10.0922316848
 20
-5.2234770429
 10
-10.0936517849
 20
-5.2166580666
 10
-10.0952384464
 20
-5.2097491192
 10
-10.0969931342
 20
-5.202752864
 10
-10.0989170354
 20
-5.1956731071
 10
-10.1010102276
 20
-5.1885182247
 10
-10.1032725112
 20
-5.1812977357
 10
-10.1057036862
 20
-5.1740211589
 10
-10.1083035528
 20
-5.1666980131
 10
-10.1105977044
 20
-5.1605688724
 10
-10.1130020192
 20
-5.1544326333
 10
-10.1155096521
 20
-5.1483079265
 10
-10.1181159218
 20
-5.1422084382
 10
-10.1208248023
 20
-5.1361280756
 10
-10.1236424311
 20
-5.1300558013
 10
-10.1265735393
 20
-5.1239839515
 10
-10.1296172323
 20
-5.1179183578
 10
-10.132771209
 20
-5.1118682257
 10
-10.1360331683
 20
-5.1058427606
 10
-10.1394008091
 20
-5.0998511679
 10
-10.1428718302
 20
-5.093902653
 10
-10.1464433909
 20
-5.0880058055
 10
-10.150110491
 20
-5.0821667516
 10
-10.1538675909
 20
-5.0763910014
 10
-10.1577091508
 20
-5.0706840655
 10
-10.1616296309
 20
-5.065051454
 10
-10.1656234914
 20
-5.0594986772
 10
-10.1696873648
 20
-5.0540286423
 10
-10.1738265722
 20
-5.0486338442
 10
-10.1780486067
 20
-5.0433041742
 10
-10.1823568209
 20
-5.0380346661
 10
-10.1867380047
 20
-5.0328409209
 10
-10.1911748074
 20
-5.027743682
 10
-10.1965510736
 20
-5.0217787618
 10
-10.2019711594
 20
-5.0159895557
 10
-10.2074237785
 20
-5.0103829389
 10
-10.2128976445
 20
-5.0049657864
 10
-10.2183814708
 20
-4.9997449732
 10
-10.2238655923
 20
-4.9947258838
 10
-10.2293468281
 20
-4.9899079404
 10
-10.2348236183
 20
-4.985289075
 10
-10.2402944034
 20
-4.9808672191
 10
-10.2457576235
 20
-4.9766403047
 10
-10.2512143367
 20
-4.9726057828
 10
-10.2566760722
 20
-4.9687591818
 10
-10.262156977
 20
-4.9650955491
 10
-10.2676711981
 20
-4.9616099325
 10
-10.2732328824
 20
-4.9582973795
  0
LWPOLYLINE
  5
273
100
AcDbEntity
  8
0
100
AcDbPolyline
 62
253
  6
CONTINUOUS
 90
55
 70
0
 10
-10.6054493837
 20
-6.4743007831
 10
-10.605877848
 20
-6.4612302046
 10
-10.6059335964
 20
-6.4484665408
 10
-10.6056216243
 20
-6.4359729607
 10
-10.6049469266
 20
-6.4237126336
 10
-10.6039144986
 20
-6.4116487284
 10
-10.6025271529
 20
-6.3997519404
 10
-10.6007789715
 20
-6.388023068
 10
-10.5986618541
 20
-6.3764704357
 10
-10.5961677001
 20
-6.365102368
 10
-10.5932884091
 20
-6.3539271893
 10
-10.5900167631
 20
-6.3429566909
 10
-10.5863490732
 20
-6.3322165306
 10
-10.5822825334
 20
-6.3217358332
 10
-10.5778143373
 20
-6.3115437233
 10
-10.5729416786
 20
-6.3016693257
 10
-10.5685734277
 20
-6.2937068329
 10
-10.56394045
 20
-6.2860168317
 10
-10.5590608442
 20
-6.2786309544
 10
-10.5539469583
 20
-6.2715732842
 10
-10.5485881376
 20
-6.2648377058
 10
-10.5429679766
 20
-6.2584105543
 10
-10.537073763
 20
-6.2522832231
 10
-10.530907558
 20
-6.2464673371
 10
-10.524475116
 20
-6.2409795794
 10
-10.5177821912
 20
-6.235836633
 10
-10.510834538
 20
-6.2310551809
 10
-10.5036379109
 20
-6.2266519062
 10
-10.4962000372
 20
-6.2226401602
 10
-10.4885365371
 20
-6.2190199679
 10
-10.4806650038
 20
-6.2157880223
 10
-10.4726030303
 20
-6.2129410167
 10
-10.4643682099
 20
-6.2104756442
 10
-10.4559781358
 20
-6.2083885982
 10
-10.447444007
 20
-6.2066759647
 10
-10.4387514461
 20
-6.2053314015
 10
-10.4298796815
 20
-6.2043479596
 10
-10.420818031
 20
-6.2037199199
 10
-10.4115961691
 20
-6.2034464839
 10
-10.4022538594
 20
-6.2035280834
 10
-10.3909331673
 20
-6.2040921695
 10
-10.3795235017
 20
-6.2051503478
 10
-10.3680520737
 20
-6.206684838
 10
-10.3565460949
 20
-6.2086778595
 10
-10.3450327765
 20
-6.211111632
 10
-10.3335352282
 20
-6.2139693913
 10
-10.3220601528
 20
-6.2172384381
 10
-10.3106101515
 20
-6.2209070893
 10
-10.2991878252
 20
-6.2249636618
 10
-10.2877957751
 20
-6.2293964726
 10
-10.2764309968
 20
-6.2341992208
 10
-10.2650680637
 20
-6.2393871345
 10
-10.2536759438
 20
-6.244980824
 10
-10.2422236049
 20
-6.2510008996
 10
-10.230680015
 20
-6.2574679715
  0
LWPOLYLINE
  5
274
100
AcDbEntity
  8
0
100
AcDbPolyline
 62
253
  6
CONTINUOUS
 90
55
 70
0
 10
-9.8169568571
 20
-6.9295664858
 10
-9.8165272388
 20
-6.9426135517
 10
-9.816465932
 20
-6.9553519213
 10
-9.8167679605
 20
-6.9678183742
 10
-9.8174283482
 20
-6.9800496901
 10
-9.8184421189
 20
-6.9920826486
 10
-9.8198064696
 20
-7.0039465094
 10
-9.8215272896
 20
-7.0156404535
 10
-9.8236126418
 20
-7.0271561422
 10
-9.8260705885
 20
-7.0384852367
 10
-9.8289091925
 20
-7.0496193982
 10
-9.8321356654
 20
-7.0605468422
 10
-9.8357538154
 20
-7.0712420009
 10
-9.8397665999
 20
-7.081675861
 10
-9.8441769759
 20
-7.0918194089
 10
-9.848987901
 20
-7.1016436312
 10
-9.8533018731
 20
-7.10956319
 10
-9.8578783268
 20
-7.1172094633
 10
-9.8626995308
 20
-7.124551068
 10
-9.8677534463
 20
-7.1315641243
 10
-9.8730508044
 20
-7.1382547672
 10
-9.8786080282
 20
-7.1446366354
 10
-9.8844378909
 20
-7.1507183347
 10
-9.8905385638
 20
-7.156488341
 10
-9.896904568
 20
-7.1619300975
 10
-9.9035304244
 20
-7.1670270473
 10
-9.9104106542
 20
-7.1717626337
 10
-9.9175397784
 20
-7.1761202998
 10
-9.9249103429
 20
-7.1800868184
 10
-9.9325069937
 20
-7.1836622801
 10
-9.9403124015
 20
-7.1868501054
 10
-9.9483092371
 20
-7.1896537143
 10
-9.9564801713
 20
-7.1920765272
 10
-9.9648078748
 20
-7.1941219643
 10
-9.9732813674
 20
-7.1957940223
 10
-9.9819150637
 20
-7.1970990033
 10
-9.9907297272
 20
-7.1980437856
 10
-9.9997360853
 20
-7.1986340634
 10
-10.0089047198
 20
-7.198870794
 10
-10.0181961764
 20
-7.1987537504
 10
-10.029459349
 20
-7.1981490416
 10
-10.0408155018
 20
-7.1970524497
 10
-10.0522375657
 20
-7.1954818536
 10
-10.0636984713
 20
-7.1934551321
 10
-10.0751711494
 20
-7.1909901639
 10
-10.0866326087
 20
-7.1881037905
 10
-10.0980761698
 20
-7.1848087043
 10
-10.1094992314
 20
-7.1811165603
 10
-10.120899192
 20
-7.1770390135
 10
-10.1322734503
 20
-7.1725877189
 10
-10.1436250179
 20
-7.1677689588
 10
-10.1549793588
 20
-7.1625675246
 10
-10.16636755
 20
-7.1569628346
 10
-10.1778206685
 20
-7.1509343073
 10
-10.1893697913
 20
-7.1444613614
  0
LINE
  5
275
100
AcDbEntity
  8
0
100
AcDbLine
 62
253
  6
CONTINUOUS
 10
-10.4485646534
 20
-5.0600012446
 11
-10.435930225
 21
-5.4833149621
  0
LINE
  5
276
100
AcDbEntity
  8
0
100
AcDbLine
 62
253
  6
CONTINUOUS
 10
-10.0742753636
 20
-5.6921299596
 11
-10.0869097922
 21
-5.2688162421
  0
LWPOLYLINE
  5
277
100
AcDbEntity
  8
0
100
AcDbPolyline
 62
253
  6
CONTINUOUS
 90
3
 70
0
 10
-10.437636921
 20
11.5157728318
 10
-10.426374378
 20
12.0351131901
 10
-10.4165465508
 20
12.4031083026
  0
LWPOLYLINE
  5
278
100
AcDbEntity
  8
0
100
AcDbPolyline
 62
253
  6
CONTINUOUS
 90
3
 70
0
 10
-10.0548916898
 20
12.1942933233
 10
-10.0620059389
 20
11.933815644
 10
-10.07598206
 20
11.3069578526
  0
LWPOLYLINE
  5
279
100
AcDbEntity
  8
0
100
AcDbPolyline
 62
253
  6
CONTINUOUS
 90
55
 70
0
 10
-10.0759820601
 20
11.3069578477
 10
-10.076190674
 20
11.3005912418
 10
-10.0765730282
 20
11.2943873344
 10
-10.0771265627
 20
11.2883285633
 10
-10.0778487173
 20
11.2823973662
 10
-10.0787369321
 20
11.2765761807
 10
-10.0797893114
 20
11.270851096
 10
-10.081006617
 20
11.2652228077
 10
-10.082390275
 20
11.2596956626
 10
-10.0839417117
 20
11.2542740076
 10
-10.0856623532
 20
11.2489621898
 10
-10.0875533406
 20
11.2437654651
 10
-10.0896146752
 20
11.2386927256
 10
-10.091846073
 20
11.2337537725
 10
-10.09424725
 20
11.2289584068
 10
-10.0968179224
 20
11.2243164296
 10
-10.0990882788
 20
11.220573338
 10
-10.1014691306
 20
11.2169551234
 10
-10.1039534653
 20
11.2134733367
 10
-10.1065364232
 20
11.2101368564
 10
-10.1092217565
 20
11.2069438709
 10
-10.1120153703
 20
11.2038898962
 10
-10.1149218012
 20
11.200972297
 10
-10.1179401107
 20
11.1981958317
 10
-10.1210679919
 20
11.1955671072
 10
-10.1243031377
 20
11.1930927305
 10
-10.1276432411
 20
11.1907793086
 10
-10.1310859952
 20
11.1886334484
 10
-10.1346285512
 20
11.18666052
 10
-10.1382658938
 20
11.1848609453
 10
-10.141992466
 20
11.1832339091
 10
-10.1458027108
 20
11.1817785965
 10
-10.1496910711
 20
11.1804941924
 10
-10.1536519899
 20
11.1793798818
 10
-10.1576820684
 20
11.1784346921
 10
-10.1617865402
 20
11.1776570207
 10
-10.1659727973
 20
11.1770451074
 10
-10.170244174
 20
11.176597698
 10
-10.174587774
 20
11.1763155611
 10
-10.1789866436
 20
11.1761999714
 10
-10.1843174143
 20
11.1762815387
 10
-10.1896923176
 20
11.1765988005
 10
-10.1951003116
 20
11.1771457879
 10
-10.2005303541
 20
11.1779165321
 10
-10.205971403
 20
11.1789050643
 10
-10.211413998
 20
11.180105758
 10
-10.2168550053
 20
11.1815143567
 10
-10.2222928727
 20
11.1831269465
 10
-10.2277260482
 20
11.1849396133
 10
-10.2331529797
 20
11.186948443
 10
-10.2385746867
 20
11.1891520691
 10
-10.244002475
 20
11.1915593156
 10
-10.2494502223
 20
11.1941815536
 10
-10.2549318059
 20
11.1970301545
 10
-10.2604611035
 20
11.2001164897
  0
LWPOLYLINE
  5
27A
100
AcDbEntity
  8
0
100
AcDbPolyline
 62
253
  6
CONTINUOUS
 90
55
 70
0
 10
-10.4165465507
 20
12.4031083074
 10
-10.4162733609
 20
12.4094747913
 10
-10.4158267671
 20
12.4156800241
 10
-10.415209143
 20
12.4217416074
 10
-10.4144228621
 20
12.4276771427
 10
-10.4134702982
 20
12.4335042315
 10
-10.412353208
 20
12.4392367989
 10
-10.4110708801
 20
12.4448740639
 10
-10.4096219867
 20
12.450411569
 10
-10.4080051996
 20
12.4558448568
 10
-10.4062191908
 20
12.4611694697
 10
-10.4042629162
 20
12.4663800816
 10
-10.4021364685
 20
12.4714678912
 10
-10.3998402244
 20
12.4764232284
 10
-10.3973745607
 20
12.4812364232
 10
-10.3947398541
 20
12.4858978056
 10
-10.3924165364
 20
12.4896583684
 10
-10.3899830833
 20
12.4932953253
 10
-10.3874464887
 20
12.4967972109
 10
-10.3848115688
 20
12.5001552087
 10
-10.3820744292
 20
12.5033710972
 10
-10.379228998
 20
12.5064493036
 10
-10.3762706209
 20
12.5093923672
 10
-10.3732003144
 20
12.5121952751
 10
-10.3700205129
 20
12.5148511261
 10
-10.3667336508
 20
12.5173530193
 10
-10.3633421623
 20
12.5196940537
 10
-10.3598484817
 20
12.5218673281
 10
-10.3562555538
 20
12.5238672084
 10
-10.352568365
 20
12.525693128
 10
-10.348792412
 20
12.5273457869
 10
-10.3449331918
 20
12.5288258855
 10
-10.3409962012
 20
12.5301341237
 10
-10.3369869369
 20
12.5312712019
 10
-10.3329087292
 20
12.5322379923
 10
-10.328756242
 20
12.5330360556
 10
-10.3245219723
 20
12.5336671248
 10
-10.320202565
 20
12.5341324087
 10
-10.3158112543
 20
12.534431021
 10
-10.3113654217
 20
12.5345615511
 10
-10.3059797968
 20
12.5344957498
 10
-10.3005519424
 20
12.5341919437
 10
-10.2950931105
 20
12.5336561972
 10
-10.2896145532
 20
12.5328945749
 10
-10.2841275228
 20
12.5319131411
 10
-10.2786416413
 20
12.5307176126
 10
-10.2731600114
 20
12.5293123136
 10
-10.2676841057
 20
12.5277012208
 10
-10.2622153969
 20
12.5258883106
 10
-10.2567553576
 20
12.5238775597
 10
-10.2513028986
 20
12.5216703731
 10
-10.2458466823
 20
12.5192578709
 10
-10.2403728092
 20
12.5166286016
 10
-10.23486738
 20
12.513771114
 10
-10.2293164949
 20
12.5106739566
  0
LWPOLYLINE
  5
27B
100
AcDbEntity
  8
0
100
AcDbPolyline
 62
253
  6
CONTINUOUS
 90
55
 70
0
 10
-10.2935880606
 20
15.1879170679
 10
-10.2938882704
 20
15.1813116455
 10
-10.2940099351
 20
15.1746677081
 10
-10.2939568298
 20
15.1679705948
 10
-10.2937327299
 20
15.1612056447
 10
-10.2933414106
 20
15.1543581968
 10
-10.2927857318
 20
15.1474164928
 10
-10.2920648916
 20
15.140380385
 10
-10.2911771726
 20
15.1332526281
 10
-10.2901208577
 20
15.1260359772
 10
-10.2888942294
 20
15.118733187
 10
-10.2874957675
 20
15.1113482263
 10
-10.2859247397
 20
15.1038899198
 10
-10.2841806108
 20
15.0963683059
 10
-10.2822628456
 20
15.0887934232
 10
-10.2801709089
 20
15.0811753101
 10
-10.2782951948
 20
15.07480338
 10
-10.2763038489
 20
15.0684278787
 10
-10.2742025635
 20
15.0620682848
 10
-10.2719951846
 20
15.0557389297
 10
-10.2696781739
 20
15.0494335557
 10
-10.2672461468
 20
15.0431407575
 10
-10.2646948963
 20
15.036852613
 10
-10.2620249256
 20
15.0305751306
 10
-10.2592379157
 20
15.0243178017
 10
-10.2563355474
 20
15.0180901177
 10
-10.2533195015
 20
15.01190157
 10
-10.2501914589
 20
15.0057616498
 10
-10.2469537135
 20
14.999679203
 10
-10.243611012
 20
14.9936604933
 10
-10.2401687141
 20
14.9877111385
 10
-10.2366321793
 20
14.9818367569
 10
-10.2330067673
 20
14.9760429665
 10
-10.229297838
 20
14.9703353853
 10
-10.2255086963
 20
14.9647169644
 10
-10.2216344296
 20
14.9591799868
 10
-10.2176680703
 20
14.9537140688
 10
-10.2136065393
 20
14.9483140863
 10
-10.2094623095
 20
14.9429959562
 10
-10.2052517422
 20
14.9377808551
 10
-10.2001316906
 20
14.931683593
 10
-10.1949508955
 20
14.9257720451
 10
-10.1897205794
 20
14.9200530692
 10
-10.1844519647
 20
14.914533523
 10
-10.1791562741
 20
14.9092202644
 10
-10.1738431573
 20
14.9041186367
 10
-10.1685159738
 20
14.8992279247
 10
-10.1631765101
 20
14.8945458987
 10
-10.1578265529
 20
14.8900703292
 10
-10.1524678888
 20
14.8857989865
 10
-10.1470996297
 20
14.8817292241
 10
-10.1417101883
 20
14.8778567292
 10
-10.1362853026
 20
14.8741767721
 10
-10.1308107104
 20
14.8706846232
 10
-10.1252721498
 20
14.8673755528
  0
LWPOLYLINE
  5
27C
100
AcDbEntity
  8
0
100
AcDbPolyline
 62
253
  6
CONTINUOUS
 90
55
 70
0
 10
-9.8736976151
 20
15.8873662819
 10
-9.8733308375
 20
15.8940043464
 10
-9.8731410722
 20
15.9006806932
 10
-9.8731244588
 20
15.9074101972
 10
-9.8732771373
 20
15.9142077336
 10
-9.8735952476
 20
15.9210881773
 10
-9.8740758763
 20
15.9280634599
 10
-9.8747198963
 20
15.9351337382
 10
-9.8755291275
 20
15.9422962257
 10
-9.8765053894
 20
15.9495481359
 10
-9.877650502
 20
15.9568866822
 10
-9.8789661084
 20
15.9643078637
 10
-9.8804531466
 20
15.9718028233
 10
-9.882112378
 20
15.9793614893
 10
-9.8839445641
 20
15.9869737903
 10
-9.8859504664
 20
15.9946296547
 10
-9.8877543328
 20
16.0010332707
 10
-9.8896739964
 20
16.0074406213
 10
-9.8917040891
 20
16.0138321831
 10
-9.8938410364
 20
16.0201936085
 10
-9.896088436
 20
16.0265312557
 10
-9.8984516785
 20
16.0328566588
 10
-9.9009350082
 20
16.0391778193
 10
-9.903538082
 20
16.0454886085
 10
-9.90625941
 20
16.0517793649
 10
-9.9090975024
 20
16.0580404272
 10
-9.9120508694
 20
16.0642621339
 10
-9.9151180212
 20
16.0704348236
 10
-9.9182968313
 20
16.0765495021
 10
-9.9215826264
 20
16.0825998444
 10
-9.924970097
 20
16.0885801927
 10
-9.9284539329
 20
16.0944848893
 10
-9.9320288246
 20
16.1003082762
 10
-9.9356894621
 20
16.1060446957
 10
-9.9394325753
 20
16.1116911813
 10
-9.9432630525
 20
16.1172555316
 10
-9.9471878218
 20
16.1227482365
 10
-9.9512099417
 20
16.128174471
 10
-9.9553169935
 20
16.1335181499
 10
-9.959492689
 20
16.1387578731
 10
-9.96457401
 20
16.1448832019
 10
-9.9697194399
 20
16.1508211206
 10
-9.9749176956
 20
16.1565647316
 10
-9.980157494
 20
16.162107137
 10
-9.9854275521
 20
16.167441439
 10
-9.9907181597
 20
16.1725622703
 10
-9.996025899
 20
16.1774703851
 10
-10.0013489249
 20
16.1821680682
 10
-10.0066853925
 20
16.1866576042
 10
-10.012033457
 20
16.1909412778
 10
-10.0173939917
 20
16.1950217908
 10
-10.022778744
 20
16.1989035133
 10
-10.0282021795
 20
16.2025912324
 10
-10.0336787638
 20
16.2060897353
 10
-10.0392229627
 20
16.2094038091
  0
LWPOLYLINE
  5
27D
100
AcDbEntity
  8
0
100
AcDbPolyline
 62
253
  6
CONTINUOUS
 90
57
 70
0
 10
-9.6101988426
 20
13.35286821
 10
-9.6111932978
 20
13.3351987135
 10
-9.6126030154
 20
13.3178059425
 10
-9.6144275429
 20
13.3006541679
 10
-9.6166664274
 20
13.2837076607
 10
-9.6193202767
 20
13.2669379685
 10
-9.6223939408
 20
13.2503457456
 10
-9.62589333
 20
13.2339389228
 10
-9.6298243546
 20
13.2177254308
 10
-9.6341914431
 20
13.2017172306
 10
-9.6389930958
 20
13.1859424023
 10
-9.6442263309
 20
13.1704330563
 10
-9.6498881668
 20
13.1552213029
 10
-9.6559763409
 20
13.1403364942
 10
-9.6624914667
 20
13.1257969508
 10
-9.6694348769
 20
13.1116182351
 10
-9.6768079041
 20
13.0978159096
 10
-9.6846107391
 20
13.0844071567
 10
-9.6928390047
 20
13.0714156392
 10
-9.7014871817
 20
13.0588666399
 10
-9.7105497511
 20
13.0467854415
 10
-9.7200236832
 20
13.0351952018
 10
-9.7299159062
 20
13.0241105776
 10
-9.7402358379
 20
13.0135441005
 10
-9.750992896
 20
13.0035083023
 10
-9.7621919102
 20
12.9940197958
 10
-9.7738193588
 20
12.9851115184
 10
-9.7858571321
 20
12.9768204889
 10
-9.7982871204
 20
12.9691837257
 10
-9.8110869001
 20
12.9622317331
 10
-9.8242167917
 20
12.9559689579
 10
-9.8376328021
 20
12.9503933324
 10
-9.8512909377
 20
12.945502789
 10
-9.8651541883
 20
12.9412926738
 10
-9.8792134755
 20
12.9377479881
 10
-9.8934667036
 20
12.9348511468
 10
-9.9079117774
 20
12.932584565
 10
-9.9225457531
 20
12.9309328466
 10
-9.9373622953
 20
12.9298893512
 10
-9.9523542202
 20
12.9294496275
 10
-9.9675143441
 20
12.929609224
 10
-9.9828317724
 20
12.9303632653
 10
-9.9982807663
 20
12.9317051806
 10
-10.0138318762
 20
12.9336279751
 10
-10.0294556523
 20
12.9361246539
 10
-10.0451205327
 20
12.9391856484
 10
-10.0607865061
 20
12.942791095
 10
-10.0764114491
 20
12.9469185564
 10
-10.0919532382
 20
12.9515455952
 10
-10.1073777085
 20
12.9566517976
 10
-10.1226825298
 20
12.9622248449
 10
-10.1378733303
 20
12.968254442
 10
-10.1529557383
 20
12.9747302938
 10
-10.1679390439
 20
12.9816465074
 10
-10.1828471846
 20
12.9890147984
 10
-10.1977077595
 20
12.9968512848
 10
-10.2125483679
 20
13.0051720845
  0
LWPOLYLINE
  5
27E
100
AcDbEntity
  8
0
100
AcDbPolyline
 62
253
  6
CONTINUOUS
 90
53
 70
0
 10
-9.1907959473
 20
13.1107102346
 10
-9.19041926
 20
13.1171726814
 10
-9.1898689732
 20
13.1234718493
 10
-9.1891472787
 20
13.129625479
 10
-9.1882563682
 20
13.1356513118
 10
-9.1871984337
 20
13.1415670885
 10
-9.1859750846
 20
13.1473868677
 10
-9.1845856014
 20
13.1531099778
 10
-9.1830286822
 20
13.1587320646
 10
-9.1813030249
 20
13.1642487741
 10
-9.1794073277
 20
13.1696557521
 10
-9.1773406059
 20
13.1749477169
 10
-9.1751031431
 20
13.1801156764
 10
-9.1726955403
 20
13.1851497108
 10
-9.1701183984
 20
13.1900399003
 10
-9.1673723184
 20
13.1947763253
 10
-9.1649564925
 20
13.1985977233
 10
-9.1624312567
 20
13.2022936692
 10
-9.1598041019
 20
13.2058523805
 10
-9.1570802519
 20
13.2092648067
 10
-9.1542558617
 20
13.2125328257
 10
-9.1513248192
 20
13.2156610473
 10
-9.1476606844
 20
13.2192335974
 10
-9.1438386272
 20
13.2225998001
 10
-9.139863106
 20
13.2257479776
 10
-9.1357385791
 20
13.2286664524
 10
-9.131469505
 20
13.2313435471
 10
-9.1270612229
 20
13.2337697405
 10
-9.122522595
 20
13.235944138
 10
-9.1178633644
 20
13.2378680011
 10
-9.113093274
 20
13.2395425917
 10
-9.1082220669
 20
13.2409691714
 10
-9.1040903126
 20
13.241969628
 10
-9.0998875297
 20
13.2428005569
 10
-9.0956061437
 20
13.2434637839
 10
-9.0912427355
 20
13.2439605806
 10
-9.0868105084
 20
13.2442900009
 10
-9.0823268213
 20
13.2444505445
 10
-9.0768997649
 20
13.2444195905
 10
-9.0714347226
 20
13.2441492415
 10
-9.0659428144
 20
13.2436454453
 10
-9.06043516
 20
13.24291415
 10
-9.0549228792
 20
13.2419613033
 10
-9.04941548
 20
13.2407925201
 10
-9.043916022
 20
13.2394120832
 10
-9.0384259533
 20
13.2378239423
 10
-9.0329467217
 20
13.2360320472
 10
-9.027479775
 20
13.2340403475
 10
-9.0220240299
 20
13.2318502324
 10
-9.0165682775
 20
13.2294528479
 10
-9.0110987777
 20
13.2268367793
 10
-9.0056017906
 20
13.2239906121
 10
-9.0000635761
 20
13.2209029314
  0
LWPOLYLINE
  5
27F
100
AcDbEntity
  8
0
100
AcDbPolyline
 62
253
  6
CONTINUOUS
 90
3
 70
0
 10
-9.9319331997
 20
14.9791020838
 10
-9.8989747257
 20
15.5097207614
 10
-9.8736976151
 20
15.8873662819
  0
LWPOLYLINE
  5
280
100
AcDbEntity
  8
0
100
AcDbPolyline
 62
253
  6
CONTINUOUS
 90
55
 70
0
 10
-10.2732328824
 20
-4.9582973795
 10
-10.2786972004
 20
-4.9552408225
 10
-10.2841051548
 20
-4.9524117004
 10
-10.2894705563
 20
-4.9497989609
 10
-10.294807216
 20
-4.9473915513
 10
-10.3001289446
 20
-4.9451784192
 10
-10.3054467129
 20
-4.9431509425
 10
-10.3107601311
 20
-4.9413102203
 10
-10.3160659691
 20
-4.939659782
 10
-10.321360997
 20
-4.938203157
 10
-10.3266419848
 20
-4.9369438748
 10
-10.3319048602
 20
-4.935885673
 10
-10.337142182
 20
-4.9350331215
 10
-10.3423456665
 20
-4.9343909983
 10
-10.3475070302
 20
-4.9339640816
 10
-10.3526179894
 20
-4.9337571494
 10
-10.3568313173
 20
-4.9337557644
 10
-10.3609911442
 20
-4.9339106359
 10
-10.3650847245
 20
-4.9342219351
 10
-10.369102515
 20
-4.9346902909
 10
-10.3730477803
 20
-4.9353181614
 10
-10.3769269875
 20
-4.9361084622
 10
-10.3807443574
 20
-4.9370638948
 10
-10.3844951267
 20
-4.9381863036
 10
-10.3881722863
 20
-4.9394773189
 10
-10.3917688271
 20
-4.9409385707
 10
-10.3952777396
 20
-4.9425716895
 10
-10.3986920148
 20
-4.9443783053
 10
-10.4020054956
 20
-4.9463589437
 10
-10.4052154333
 20
-4.9485097109
 10
-10.4083199312
 20
-4.9508256088
 10
-10.4113170928
 20
-4.9533016388
 10
-10.4142050215
 20
-4.9559328027
 10
-10.4169818208
 20
-4.958714102
 10
-10.4196467238
 20
-4.9616422725
 10
-10.4222034832
 20
-4.9647209864
 10
-10.4246569812
 20
-4.9679556501
 10
-10.4270097684
 20
-4.9713484384
 10
-10.4292550672
 20
-4.9748886009
 10
-10.4313837683
 20
-4.9785621554
 10
-10.4337741011
 20
-4.9831287214
 10
-10.4359834336
 20
-4.9878545352
 10
-10.4380117837
 20
-4.9927268937
 10
-10.4398591694
 20
-4.9977330942
 10
-10.4415256085
 20
-5.0028604338
 10
-10.4430115673
 20
-5.0080977692
 10
-10.4443193053
 20
-5.0134401957
 10
-10.4454515302
 20
-5.0188843682
 10
-10.4464109498
 20
-5.0244269415
 10
-10.4472002718
 20
-5.0300645704
 10
-10.4478211997
 20
-5.0357974282
 10
-10.4482714197
 20
-5.0416397605
 10
-10.448547614
 20
-5.0476093313
 10
-10.4486464646
 20
-5.0537239047
 10
-10.4485646534
 20
-5.0600012446
  0
LWPOLYLINE
  5
281
100
AcDbEntity
  8
0
100
AcDbPolyline
 62
253
  6
CONTINUOUS
 90
55
 70
0
 10
-10.2483271136
 20
-5.7927490839
 10
-10.2428512951
 20
-5.7958132855
 10
-10.2374340627
 20
-5.7986507592
 10
-10.2320615677
 20
-5.8012725515
 10
-10.2267199617
 20
-5.8036897092
 10
-10.2213953962
 20
-5.8059132786
 10
-10.2160768617
 20
-5.8079518779
 10
-10.2107647048
 20
-5.8098044112
 10
-10.2054621111
 20
-5.8114673543
 10
-10.2001722662
 20
-5.8129371829
 10
-10.1948983557
 20
-5.8142103726
 10
-10.1896444201
 20
-5.8152831837
 10
-10.1844179196
 20
-5.8161510148
 10
-10.1792271691
 20
-5.8168090489
 10
-10.1740804836
 20
-5.8172524692
 10
-10.1689861782
 20
-5.8174764586
 10
-10.1647882593
 20
-5.8174924531
 10
-10.1606452468
 20
-5.8173525275
 10
-10.1565698979
 20
-5.8170564891
 10
-10.1525717663
 20
-5.8166037045
 10
-10.1486475918
 20
-5.8159917767
 10
-10.1447909111
 20
-5.8152178675
 10
-10.1409974885
 20
-5.81427934
 10
-10.1372720007
 20
-5.8131743618
 10
-10.133621352
 20
-5.8119013017
 10
-10.1300524467
 20
-5.8104585281
 10
-10.1265721894
 20
-5.80884441
 10
-10.1231874845
 20
-5.8070573158
 10
-10.1199043896
 20
-5.8050967166
 10
-10.1167255751
 20
-5.8029664921
 10
-10.1136528647
 20
-5.8006716242
 10
-10.110688082
 20
-5.7982170949
 10
-10.1078330507
 20
-5.7956078861
 10
-10.1050895944
 20
-5.79284898
 10
-10.1024584211
 20
-5.7899436345
 10
-10.099935776
 20
-5.7868882129
 10
-10.0975167886
 20
-5.7836773545
 10
-10.0951988847
 20
-5.7803088966
 10
-10.0929886747
 20
-5.7767934688
 10
-10.090895065
 20
-5.7731448987
 10
-10.0885466017
 20
-5.7686084527
 10
-10.0863787516
 20
-5.7639127885
 10
-10.0843913981
 20
-5.759070501
 10
-10.0825844245
 20
-5.7540941852
 10
-10.080957714
 20
-5.7489964362
 10
-10.0795107189
 20
-5.7437883056
 10
-10.0782411677
 20
-5.7384746721
 10
-10.0771463576
 20
-5.7330588713
 10
-10.0762235861
 20
-5.7275442384
 10
-10.0754701503
 20
-5.7219341089
 10
-10.0748843633
 20
-5.7162283159
 10
-10.0744686003
 20
-5.7104126831
 10
-10.0742262522
 20
-5.7044695319
 10
-10.0741607097
 20
-5.6983811836
 10
-10.0742753636
 20
-5.6921299596
  0
LINE
  5
282
100
AcDbEntity
  8
ASSI
100
AcDbLine
 62
253
  6
CONTINUOUS
 10
12.9847731948
 20
-17.7354224587
 11
-17.6630108955
 21
-0.039776032
  0
LWPOLYLINE
  5
283
100
AcDbEntity
  8
0
100
AcDbPolyline
 62
253
  6
CONTINUOUS
 90
29
 70
0
 10
-11.0815889597
 20
-5.8564094763
 10
-11.0849667452
 20
-5.8544220277
 10
-11.0883395315
 20
-5.8523637108
 10
-11.0917077576
 20
-5.8502351124
 10
-11.0950718625
 20
-5.8480368194
 10
-11.0984322852
 20
-5.8457694185
 10
-11.1017894645
 20
-5.8434334966
 10
-11.1051438396
 20
-5.8410296406
 10
-11.1084955359
 20
-5.8385585431
 10
-11.1118434244
 20
-5.8360213192
 10
-11.1151860627
 20
-5.8334191902
 10
-11.1185220084
 20
-5.830753377
 10
-11.121849819
 20
-5.8280251007
 10
-11.1251680522
 20
-5.8252355822
 10
-11.1284752653
 20
-5.8223860426
 10
-11.1317700418
 20
-5.8194776671
 10
-11.1350510677
 20
-5.8165114967
 10
-11.1383170551
 20
-5.8134885366
 10
-11.1415667157
 20
-5.8104097921
 10
-11.1447987615
 20
-5.8072762684
 10
-11.1480119044
 20
-5.8040889706
 10
-11.1512048563
 20
-5.800848904
 10
-11.1543765283
 20
-5.797556724
 10
-11.1575266292
 20
-5.7942116864
 10
-11.160655067
 20
-5.7908126974
 10
-11.1637617495
 20
-5.7873586631
 10
-11.1668465847
 20
-5.7838484897
 10
-11.1699094808
 20
-5.7802810833
 10
-11.1729503455
 20
-5.7766553499
  0
LWPOLYLINE
  5
284
100
AcDbEntity
  8
0
100
AcDbPolyline
 62
253
  6
CONTINUOUS
 90
42
 70
0
 10
-9.3720226345
 20
-6.8434916465
 10
-9.3758667857
 20
-6.8412169042
 10
-9.3796959283
 20
-6.8388419802
 10
-9.3835145709
 20
-6.8363665335
 10
-9.3873272217
 20
-6.8337902231
 10
-9.391138389
 20
-6.8311127077
 10
-9.3949525812
 20
-6.8283336465
 10
-9.399538548
 20
-6.8248644301
 10
-9.4041347272
 20
-6.8212489754
 10
-9.4087404834
 20
-6.8174877612
 10
-9.4133551812
 20
-6.8135812666
 10
-9.417978185
 20
-6.8095299705
 10
-9.4226075584
 20
-6.8053356509
 10
-9.4272361605
 20
-6.8010052821
 10
-9.4318555493
 20
-6.7965471377
 10
-9.4364572828
 20
-6.791969491
 10
-9.441032919
 20
-6.7872806155
 10
-9.4455747497
 20
-6.7824882666
 10
-9.4500780014
 20
-6.777598127
 10
-9.4545386344
 20
-6.7726153615
 10
-9.4589526089
 20
-6.7675451347
 10
-9.4633158851
 20
-6.7623926115
 10
-9.467624373
 20
-6.757162941
 10
-9.4718737812
 20
-6.7518612113
 10
-9.4760597678
 20
-6.7464924947
 10
-9.480177991
 20
-6.7410618639
 10
-9.484224109
 20
-6.7355743913
 10
-9.4881933344
 20
-6.7300360772
 10
-9.4920790978
 20
-6.7244566325
 10
-9.4958743839
 20
-6.7188466961
 10
-9.4995721778
 20
-6.7132169067
 10
-9.5031654644
 20
-6.7075779031
 10
-9.5066484129
 20
-6.7019386295
 10
-9.5100199304
 20
-6.6963012515
 10
-9.5132801081
 20
-6.6906662402
 10
-9.5164290374
 20
-6.6850340667
 10
-9.5194668097
 20
-6.6794052021
 10
-9.5223937736
 20
-6.673778374
 10
-9.5252113067
 20
-6.6681453364
 10
-9.5279210439
 20
-6.6624960998
 10
-9.53052462
 20
-6.6568206747
 10
-9.53302367
 20
-6.6511090716
  0
LWPOLYLINE
  5
285
100
AcDbEntity
  8
0
100
AcDbPolyline
 62
253
  6
CONTINUOUS
 90
55
 70
0
 10
-10.230680015
 20
-6.2574679715
 10
-10.2189859569
 20
-6.2644222849
 10
-10.2073599553
 20
-6.2717395153
 10
-10.1957710229
 20
-6.2794339398
 10
-10.1841881726
 20
-6.2875198357
 10
-10.1725804172
 20
-6.2960114801
 10
-10.1609224388
 20
-6.3049219277
 10
-10.149211597
 20
-6.314259343
 10
-10.1374509208
 20
-6.3240306681
 10
-10.1256434393
 20
-6.334242845
 10
-10.1137921813
 20
-6.344902816
 10
-10.1019038127
 20
-6.3560142534
 10
-10.0899995461
 20
-6.3675677516
 10
-10.078104231
 20
-6.3795506354
 10
-10.0662427169
 20
-6.3919502297
 10
-10.0544398532
 20
-6.4047538592
 10
-10.044670968
 20
-6.4157168712
 10
-10.0349990763
 20
-6.4269072893
 10
-10.0254631858
 20
-6.4382807418
 10
-10.0160921315
 20
-6.4498055843
 10
-10.0068740599
 20
-6.461501082
 10
-9.9977869451
 20
-6.4733992273
 10
-9.9888155211
 20
-6.4855236794
 10
-9.9799715629
 20
-6.4978647645
 10
-9.9712736051
 20
-6.5104044757
 10
-9.9627401827
 20
-6.5231248059
 10
-9.9543898305
 20
-6.5360077483
 10
-9.9462410833
 20
-6.5490352958
 10
-9.9383105463
 20
-6.5621885075
 10
-9.9306071054
 20
-6.5754447069
 10
-9.9231377169
 20
-6.5887802836
 10
-9.9159093369
 20
-6.6021716269
 10
-9.9089289218
 20
-6.6155951265
 10
-9.9022034277
 20
-6.629027172
 10
-9.8957355818
 20
-6.6424538101
 10
-9.8895111956
 20
-6.6558997171
 10
-9.8835118515
 20
-6.6693992266
 10
-9.8777260419
 20
-6.6829712998
 10
-9.8721699002
 20
-6.6965734078
 10
-9.8668664699
 20
-6.7101476494
 10
-9.8608616389
 20
-6.7263302531
 10
-9.8552532809
 20
-6.7423602321
 10
-9.8500407822
 20
-6.7582084672
 10
-9.8452235288
 20
-6.773845839
 10
-9.840800907
 20
-6.7892432283
 10
-9.8367709079
 20
-6.8043768358
 10
-9.8331259423
 20
-6.8192441412
 10
-9.8298570262
 20
-6.8338479442
 10
-9.8269551753
 20
-6.8481910447
 10
-9.8244114056
 20
-6.8622762423
 10
-9.8222183932
 20
-6.8761114152
 10
-9.8203754549
 20
-6.8897247555
 10
-9.8188835681
 20
-6.9031495337
 10
-9.8177437097
 20
-6.9164190203
 10
-9.8169568571
 20
-6.9295664858
  0
LWPOLYLINE
  5
286
100
AcDbEntity
  8
0
100
AcDbPolyline
 62
253
  6
CONTINUOUS
 90
53
 70
0
 10
-8.9122584856
 20
-6.6038044292
 10
-8.9094149645
 20
-6.6107380278
 10
-8.9067455414
 20
-6.6176177184
 10
-8.9042406061
 20
-6.624460522
 10
-8.9018905487
 20
-6.6312834595
 10
-8.8996857591
 20
-6.6381035519
 10
-8.8976187061
 20
-6.6449343422
 10
-8.8956901735
 20
-6.6517754616
 10
-8.8939030241
 20
-6.6586230633
 10
-8.8922601206
 20
-6.6654733007
 10
-8.8907643256
 20
-6.672322327
 10
-8.88941875
 20
-6.6791651963
 10
-8.8882274962
 20
-6.6859925668
 10
-8.8871949146
 20
-6.6927939972
 10
-8.8863253558
 20
-6.6995590465
 10
-8.8856231701
 20
-6.7062772737
 10
-8.885168832
 20
-6.7118307103
 10
-8.8848352045
 20
-6.7173276209
 10
-8.8846237456
 20
-6.7227512453
 10
-8.884535903
 20
-6.7280890809
 10
-8.8845730829
 20
-6.7333456545
 10
-8.8847366809
 20
-6.73852975
 10
-8.8851019831
 20
-6.7446622566
 10
-8.8856546327
 20
-6.7506875932
 10
-8.8863979251
 20
-6.7565903091
 10
-8.8873351556
 20
-6.7623549537
 10
-8.8884696196
 20
-6.7679660761
 10
-8.8898030745
 20
-6.7734099546
 10
-8.8913311261
 20
-6.778679782
 10
-8.8930478425
 20
-6.7837704801
 10
-8.8949472916
 20
-6.7886769706
 10
-8.8970235415
 20
-6.7933941751
 10
-8.8988856748
 20
-6.7971785651
 10
-8.9008699249
 20
-6.8008349014
 10
-8.90297975
 20
-6.8043701058
 10
-8.9052164989
 20
-6.8077877428
 10
-8.9075730848
 20
-6.8110779486
 10
-8.9100403116
 20
-6.8142275025
 10
-8.9131351901
 20
-6.817806306
 10
-8.9163669083
 20
-6.8211623715
 10
-8.9197262254
 20
-6.8242945372
 10
-8.9232039005
 20
-6.8272016417
 10
-8.9267906925
 20
-6.8298825235
 10
-8.9304784518
 20
-6.8323367541
 10
-8.9342633933
 20
-6.8345668384
 10
-8.9381428231
 20
-6.8365760146
 10
-8.9421140475
 20
-6.8383675207
 10
-8.9461743725
 20
-6.8399445948
 10
-8.9503237748
 20
-6.8413094984
 10
-8.9545729131
 20
-6.8424605857
 10
-8.9589351166
 20
-6.8433952345
 10
-8.9634237147
 20
-6.8441108225
 10
-8.9680520365
 20
-6.8446047272
  0
LWPOLYLINE
  5
287
100
AcDbEntity
  8
0
100
AcDbPolyline
 62
253
  6
CONTINUOUS
 90
55
 70
0
 10
-8.0714319955
 20
12.4644035177
 10
-8.0718065218
 20
12.4579562205
 10
-8.0723518003
 20
12.4516711194
 10
-8.0730657761
 20
12.4455304025
 10
-8.073946394
 20
12.4395162579
 10
-8.0749915993
 20
12.4336108735
 10
-8.0761999089
 20
12.427800156
 10
-8.0775721286
 20
12.4220848857
 10
-8.0791096359
 20
12.4164695616
 10
-8.0808138087
 20
12.4109586828
 10
-8.0826860246
 20
12.4055567481
 10
-8.0847273581
 20
12.4002691658
 10
-8.0869376714
 20
12.3951049814
 10
-8.0893165233
 20
12.3900741496
 10
-8.0918634726
 20
12.3851866251
 10
-8.0945780783
 20
12.3804523626
 10
-8.0969668374
 20
12.3766324025
 10
-8.0994644737
 20
12.372937558
 10
-8.1020637425
 20
12.3693795996
 10
-8.1047596414
 20
12.3659675755
 10
-8.107556136
 20
12.3626996449
 10
-8.1104594336
 20
12.3595712446
 10
-8.1134742965
 20
12.3565797272
 10
-8.1165997045
 20
12.3537301091
 10
-8.1198331918
 20
12.3510293229
 10
-8.1231722928
 20
12.3484843007
 10
-8.1266145418
 20
12.3461019751
 10
-8.1301574731
 20
12.3438892783
 10
-8.1337980991
 20
12.3418518601
 10
-8.1375313445
 20
12.3399902392
 10
-8.1413516118
 20
12.3383036516
 10
-8.1452533039
 20
12.3367913334
 10
-8.1492308232
 20
12.3354525206
 10
-8.1532785726
 20
12.3342864492
 10
-8.1573931505
 20
12.3332921683
 10
-8.1615799383
 20
12.3324679787
 10
-8.1658465132
 20
12.3318119944
 10
-8.1701962872
 20
12.3313228816
 10
-8.1746160104
 20
12.3310015162
 10
-8.1790882676
 20
12.3308493265
 10
-8.1845029503
 20
12.3308905939
 10
-8.1899570091
 20
12.3311714332
 10
-8.1954392491
 20
12.3316857465
 10
-8.2009384755
 20
12.3324274361
 10
-8.2064434932
 20
12.3333904041
 10
-8.2119447255
 20
12.3345688945
 10
-8.2174390681
 20
12.3359585171
 10
-8.2229250347
 20
12.3375552232
 10
-8.2284011392
 20
12.3393549642
 10
-8.2338658953
 20
12.3413536917
 10
-8.2393203907
 20
12.3435499495
 10
-8.2447760079
 20
12.345952652
 10
-8.2502467035
 20
12.3485733059
 10
-8.2557464339
 20
12.3514234181
 10
-8.2612891556
 20
12.3545144953
  0
LWPOLYLINE
  5
288
100
AcDbEntity
  8
0
100
AcDbPolyline
 62
253
  6
CONTINUOUS
 90
29
 70
0
 10
-11.249033068
 20
-7.0117849959
 10
-11.2518725264
 20
-7.0119341011
 10
-11.2547423366
 20
-7.0119973966
 10
-11.2576423953
 20
-7.0119760418
 10
-11.2605725991
 20
-7.0118711962
 10
-11.2635328444
 20
-7.0116840194
 10
-11.266523028
 20
-7.0114156708
 10
-11.2695430464
 20
-7.0110673098
 10
-11.2725925683
 20
-7.0106400013
 10
-11.2756703512
 20
-7.0101344304
 10
-11.2787749244
 20
-7.0095511877
 10
-11.2819048175
 20
-7.0088908638
 10
-11.2850585599
 20
-7.0081540492
 10
-11.2882346813
 20
-7.0073413343
 10
-11.291431711
 20
-7.0064533098
 10
-11.2946482385
 20
-7.005490535
 10
-11.2978830924
 20
-7.0044534444
 10
-11.3011351613
 20
-7.0033424414
 10
-11.3044033338
 20
-7.0021579294
 10
-11.3076864985
 20
-7.0009003117
 10
-11.310983544
 20
-6.9995699917
 10
-11.3142933588
 20
-6.9981673728
 10
-11.317615088
 20
-6.9966926157
 10
-11.3209489022
 20
-6.995144911
 10
-11.3242952288
 20
-6.9935232066
 10
-11.3276544948
 20
-6.9918264503
 10
-11.3310271275
 20
-6.9900535902
 10
-11.334413554
 20
-6.988203574
 10
-11.3378142015
 20
-6.9862753497
  0
LWPOLYLINE
  5
289
100
AcDbEntity
  8
0
100
AcDbPolyline
 62
253
  6
CONTINUOUS
 90
29
 70
0
 10
-9.2829395708
 20
-6.8688845518
 10
-9.2858104635
 20
-6.8689854441
 10
-9.2887080582
 20
-6.86900935
 10
-9.2916324887
 20
-6.8689568303
 10
-9.294583889
 20
-6.868828446
 10
-9.2975623928
 20
-6.8686247582
 10
-9.300568134
 20
-6.8683463277
 10
-9.3036012465
 20
-6.8679937155
 10
-9.3066616609
 20
-6.8675673896
 10
-9.3097484955
 20
-6.8670674461
 10
-9.3128606652
 20
-6.8664938882
 10
-9.3159970852
 20
-6.865846719
 10
-9.3191566705
 20
-6.8651259416
 10
-9.3223383361
 20
-6.8643315591
 10
-9.3255409971
 20
-6.8634635747
 10
-9.3287635515
 20
-6.8625219866
 10
-9.3320048292
 20
-6.8615067731
 10
-9.3352636429
 20
-6.8604179076
 10
-9.3385388056
 20
-6.8592553636
 10
-9.3418291302
 20
-6.8580191145
 10
-9.3451334293
 20
-6.8567091337
 10
-9.348450516
 20
-6.8553253946
 10
-9.3517794775
 20
-6.8538676371
 10
-9.3551204998
 20
-6.8523346667
 10
-9.3584740431
 20
-6.8507250557
 10
-9.3618405679
 20
-6.8490373761
 10
-9.3652205344
 20
-6.8472702
 10
-9.3686144032
 20
-6.8454220994
 10
-9.3720226345
 20
-6.8434916465
  0
LINE
  5
28A
100
AcDbEntity
  8
ASSI
100
AcDbLine
 62
253
  6
CONTINUOUS
 10
-4.6711521876
 20
21.7593749993
 11
-4.6711521876
 21
21.6965570107
  0
LWPOLYLINE
  5
28B
100
AcDbEntity
  8
0
100
AcDbPolyline
 62
253
  6
CONTINUOUS
 90
53
 70
0
 10
-11.581240427
 20
-5.0627677065
 10
-11.5786325734
 20
-5.059075198
 10
-11.5758935599
 20
-5.0556031311
 10
-11.573019578
 20
-5.0523391477
 10
-11.5700068189
 20
-5.0492708901
 10
-11.5668514738
 20
-5.0463860005
 10
-11.5635504056
 20
-5.0436747977
 10
-11.5601031627
 20
-5.0411383071
 10
-11.5565099648
 20
-5.0387802308
 10
-11.5527710319
 20
-5.0366042711
 10
-11.5488865836
 20
-5.0346141299
 10
-11.5448574429
 20
-5.0328138295
 10
-11.5406868442
 20
-5.0312086718
 10
-11.536378625
 20
-5.0298042792
 10
-11.5319366227
 20
-5.0286062736
 10
-11.5273646748
 20
-5.0276202772
 10
-11.5234597832
 20
-5.0269644309
 10
-11.5194789009
 20
-5.0264618295
 10
-11.5154336119
 20
-5.026114585
 10
-11.51133219
 20
-5.0259247358
 10
-11.5071696665
 20
-5.0258940245
 10
-11.5029377624
 20
-5.02602412
 10
-11.4977601143
 20
-5.0263951211
 10
-11.4924795886
 20
-5.0270046015
 10
-11.487105138
 20
-5.0278570757
 10
-11.4816457153
 20
-5.0289570579
 10
-11.476110273
 20
-5.0303090627
 10
-11.4705079061
 20
-5.0319156405
 10
-11.4648482788
 20
-5.0337714871
 10
-11.4591411974
 20
-5.0358693345
 10
-11.4533964682
 20
-5.0382019146
 10
-11.4476238978
 20
-5.0407619595
 10
-11.442796808
 20
-5.0430652576
 10
-11.4379483395
 20
-5.0455257434
 10
-11.4330696381
 20
-5.0481476899
 10
-11.4281566043
 20
-5.0509327378
 10
-11.4232241595
 20
-5.0538719974
 10
-11.41829198
 20
-5.0569539464
 10
-11.4123974501
 20
-5.060825764
 10
-11.4065418231
 20
-5.0648746649
 10
-11.4007352857
 20
-5.0690888514
 10
-11.3949880249
 20
-5.073456526
 10
-11.3893102275
 20
-5.0779658914
 10
-11.3837104023
 20
-5.0826065353
 10
-11.3781903455
 20
-5.0873735876
 10
-11.372750175
 20
-5.0922635633
 10
-11.3673900088
 20
-5.0972729777
 10
-11.362109965
 20
-5.102398346
 10
-11.3569082788
 20
-5.1076395817
 10
-11.3517756544
 20
-5.1130101931
 10
-11.3467009132
 20
-5.1185270866
 10
-11.3416728767
 20
-5.1242071688
 10
-11.3366803662
 20
-5.1300673464
  0
LWPOLYLINE
  5
28C
100
AcDbEntity
  8
0
100
AcDbPolyline
 62
253
  6
CONTINUOUS
 90
42
 70
0
 10
-10.928929613
 20
-5.8451304749
 10
-10.9307560168
 20
-5.8477029645
 10
-10.9326604487
 20
-5.8501572368
 10
-10.9346432509
 20
-5.8524985821
 10
-10.9367047652
 20
-5.8547322908
 10
-10.9388453338
 20
-5.8568636532
 10
-10.9410652987
 20
-5.8588979594
 10
-10.9438343861
 20
-5.8612168831
 10
-10.9467179568
 20
-5.8634033348
 10
-10.9497156709
 20
-5.8654569852
 10
-10.9528271886
 20
-5.8673775049
 10
-10.9560521701
 20
-5.8691645648
 10
-10.9593892437
 20
-5.8708174917
 10
-10.9628329102
 20
-5.872334237
 10
-10.9663766389
 20
-5.8737124085
 10
-10.9700138988
 20
-5.8749496138
 10
-10.9737381591
 20
-5.8760434605
 10
-10.9775433048
 20
-5.8769919645
 10
-10.9814248843
 20
-5.8777947741
 10
-10.985378862
 20
-5.8784519455
 10
-10.9894012022
 20
-5.8789635351
 10
-10.9934878693
 20
-5.8793295994
 10
-10.9976348314
 20
-5.8795501166
 10
-11.001838072
 20
-5.8796247526
 10
-11.0060935783
 20
-5.8795530954
 10
-11.0103973375
 20
-5.8793347327
 10
-11.0147453368
 20
-5.8789692526
 10
-11.0191328316
 20
-5.8784566065
 10
-11.0235521504
 20
-5.8777982009
 10
-11.0279948898
 20
-5.8769958061
 10
-11.0324526463
 20
-5.8760511923
 10
-11.0369170166
 20
-5.8749661297
 10
-11.0413809401
 20
-5.8737421926
 10
-11.0458427273
 20
-5.8723801716
 10
-11.0503020317
 20
-5.8708806612
 10
-11.0547585066
 20
-5.8692442562
 10
-11.0592118054
 20
-5.8674715511
 10
-11.0636629448
 20
-5.8655617417
 10
-11.0681183958
 20
-5.8635084282
 10
-11.0725859924
 20
-5.8613038119
 10
-11.077073569
 20
-5.8589400942
 10
-11.0815889597
 20
-5.8564094763
  0
LWPOLYLINE
  5
28D
100
AcDbEntity
  8
0
100
AcDbPolyline
 62
253
  6
CONTINUOUS
 90
53
 70
0
 10
-9.1622111826
 20
-6.3855786005
 10
-9.1575041124
 20
-6.3853672041
 10
-9.1527493398
 20
-6.3853777228
 10
-9.1479366822
 20
-6.3856059781
 10
-9.1430559574
 20
-6.3860477916
 10
-9.1380969827
 20
-6.3866989845
 10
-9.1330515729
 20
-6.3875564375
 10
-9.1279195317
 20
-6.3886212688
 10
-9.1227026599
 20
-6.3898956555
 10
-9.1174027585
 20
-6.3913817748
 10
-9.1120216281
 20
-6.393081804
 10
-9.1065619493
 20
-6.3949976504
 10
-9.1010299201
 20
-6.3971301411
 10
-9.0954326184
 20
-6.3994798333
 10
-9.0897771218
 20
-6.4020472841
 10
-9.084070508
 20
-6.4048330507
 10
-9.0792827862
 20
-6.4073204069
 10
-9.0744789648
 20
-6.4099523585
 10
-9.0696735274
 20
-6.412721506
 10
-9.0648770892
 20
-6.4156228519
 10
-9.0600847933
 20
-6.4186610075
 10
-9.0552879146
 20
-6.4218429864
 10
-9.0495178389
 20
-6.4258584165
 10
-9.0437406014
 20
-6.4300871728
 10
-9.0379682038
 20
-6.4345253764
 10
-9.0322126475
 20
-6.4391691488
 10
-9.0264859343
 20
-6.444014611
 10
-9.0207993919
 20
-6.4490565675
 10
-9.0151616522
 20
-6.4542845552
 10
-9.0095806732
 20
-6.4596867939
 10
-9.0040644131
 20
-6.4652515037
 10
-8.9986208298
 20
-6.4709669045
 10
-8.9941436351
 20
-6.4758389648
 10
-8.9897142409
 20
-6.4808163563
 10
-8.985324451
 20
-6.4859079443
 10
-8.9809702604
 20
-6.4911176506
 10
-8.9766644275
 20
-6.4964296231
 10
-8.9724239019
 20
-6.501823066
 10
-8.967441492
 20
-6.5083770964
 10
-8.9625837225
 20
-6.5150043922
 10
-8.957856784
 20
-6.5216908472
 10
-8.9532668673
 20
-6.528422355
 10
-8.9488201629
 20
-6.5351848092
 10
-8.944521608
 20
-6.5419660783
 10
-8.9403711251
 20
-6.5487619295
 10
-8.9363673828
 20
-6.5555701048
 10
-8.93250905
 20
-6.5623883462
 10
-8.9287947956
 20
-6.5692143957
 10
-8.9252226513
 20
-6.5760493688
 10
-8.9217881012
 20
-6.5829078753
 10
-8.9184859922
 20
-6.5898078987
 10
-8.9153111713
 20
-6.5967674222
 10
-8.9122584856
 20
-6.6038044292
  0
LWPOLYLINE
  5
28E
100
AcDbEntity
  8
0
100
AcDbPolyline
 62
253
  6
CONTINUOUS
 90
53
 70
0
 10
-11.1376572837
 20
-6.5344551721
 10
-11.1329948056
 20
-6.5342593166
 10
-11.1282809179
 20
-6.5342852221
 10
-11.1235057206
 20
-6.5345286536
 10
-11.1186593138
 20
-6.5349853763
 10
-11.1137317975
 20
-6.5356511552
 10
-11.1087152
 20
-6.536522815
 10
-11.1036092633
 20
-6.5376014188
 10
-11.0984156577
 20
-6.5388890893
 10
-11.0931360536
 20
-6.5403879492
 10
-11.0877721213
 20
-6.5421001213
 10
-11.0823264416
 20
-6.5440274447
 10
-11.0768052378
 20
-6.5461706244
 10
-11.0712156436
 20
-6.5485300822
 10
-11.0655647927
 20
-6.5511062395
 10
-11.0598598188
 20
-6.5538995179
 10
-11.0550712455
 20
-6.5563920956
 10
-11.0502647818
 20
-6.5590280994
 10
-11.0454551686
 20
-6.5617998842
 10
-11.0406532336
 20
-6.5647022223
 10
-11.0358541502
 20
-6.5677395564
 10
-11.0310491784
 20
-6.5709187464
 10
-11.0252676143
 20
-6.5749280444
 10
-11.0194767646
 20
-6.5791475152
 10
-11.0136884086
 20
-6.5835731803
 10
-11.0079143256
 20
-6.5882010615
 10
-11.0021662946
 20
-6.5930271804
 10
-10.9964554914
 20
-6.5980462514
 10
-10.9907906768
 20
-6.6032477592
 10
-10.9851800084
 20
-6.6086198813
 10
-10.9796316435
 20
-6.6141507952
 10
-10.9741537395
 20
-6.6198286784
 10
-10.9696463661
 20
-6.6246665914
 10
-10.9651853324
 20
-6.6296071444
 10
-10.9607623822
 20
-6.6346591252
 10
-10.9563734671
 20
-6.639826441
 10
-10.9520313721
 20
-6.6450934752
 10
-10.9477530898
 20
-6.6504397303
 10
-10.9427234701
 20
-6.6569345409
 10
-10.9378165349
 20
-6.6635000545
 10
-10.9330386085
 20
-6.6701224122
 10
-10.9283960154
 20
-6.6767877554
 10
-10.9238950798
 20
-6.6834822254
 10
-10.9195408639
 20
-6.6901939053
 10
-10.9153333816
 20
-6.6969186461
 10
-10.9112713846
 20
-6.7036542403
 10
-10.9073536248
 20
-6.710398481
 10
-10.9035788539
 20
-6.7171491607
 10
-10.8999451489
 20
-6.7239073839
 10
-10.8964478887
 20
-6.7306875018
 10
-10.8930817774
 20
-6.7375071768
 10
-10.8898415191
 20
-6.7443840718
 10
-10.8867218179
 20
-6.7513358495
  0
LINE
  5
28F
100
AcDbEntity
  8
ASSI
100
AcDbLine
 62
7
  6
CONTINUOUS
 10
-4.4909009382
 20
22.1735951581
 11
-4.469695649
 21
21.5571226607
  0
LINE
  5
290
100
AcDbEntity
  8
ASSI
100
AcDbLine
 62
7
  6
CONTINUOUS
 10
3.4994056892
 20
17.5600922535
 11
3.3191544398
 21
17.1458720947
  0
LWPOLYLINE
  5
291
100
AcDbEntity
  8
0
100
AcDbPolyline
 62
253
  6
CONTINUOUS
 90
42
 70
0
 10
-8.8315666798
 20
-8.336103143
 10
-8.8333338897
 20
-8.3386798502
 10
-8.8351831949
 20
-8.3411339543
 10
-8.837114574
 20
-8.343470925
 10
-8.8391280055
 20
-8.3456962318
 10
-8.8412234679
 20
-8.3478153443
 10
-8.8434009399
 20
-8.3498337322
 10
-8.8461220643
 20
-8.3521289695
 10
-8.8489608286
 20
-8.3542870544
 10
-8.8519168096
 20
-8.356308002
 10
-8.8549895845
 20
-8.3581918272
 10
-8.8581787303
 20
-8.359938545
 10
-8.8614827593
 20
-8.3615478113
 10
-8.8648959258
 20
-8.3630178463
 10
-8.8684114193
 20
-8.3643465108
 10
-8.8720224297
 20
-8.3655316659
 10
-8.8757221463
 20
-8.3665711725
 10
-8.8795041011
 20
-8.3674633328
 10
-8.8833631938
 20
-8.3682082122
 10
-8.8872946665
 20
-8.3688063174
 10
-8.8912937612
 20
-8.3692581549
 10
-8.8953557198
 20
-8.3695642314
 10
-8.8994759634
 20
-8.3697249843
 10
-8.9036506286
 20
-8.3697405748
 10
-8.907876031
 20
-8.3696110947
 10
-8.9121484863
 20
-8.369336636
 10
-8.9164643101
 20
-8.3689172907
 10
-8.9208190428
 20
-8.3683534821
 10
-8.9252051243
 20
-8.3676469585
 10
-8.929614219
 20
-8.3667997994
 10
-8.9340379914
 20
-8.3658140845
 10
-8.9384681061
 20
-8.3646918933
 10
-8.9428975309
 20
-8.3634351103
 10
-8.9473244466
 20
-8.3620448391
 10
-8.9517483372
 20
-8.3605219881
 10
-8.9561686868
 20
-8.3588674656
 10
-8.9605849795
 20
-8.3570821801
 10
-8.9649981263
 20
-8.3551656369
 10
-8.9694147463
 20
-8.3531117292
 10
-8.9738428854
 20
-8.3509129471
 10
-8.9782905897
 20
-8.3485617808
 10
-8.9827659051
 20
-8.3460507204
  0
LWPOLYLINE
  5
292
100
AcDbEntity
  8
0
100
AcDbPolyline
 62
253
  6
CONTINUOUS
 90
53
 70
0
 10
-9.490815875
 20
-7.5573144461
 10
-9.488277489
 20
-7.5536902674
 10
-9.4856067395
 20
-7.5502844775
 10
-9.4827999903
 20
-7.5470849555
 10
-9.4798536051
 20
-7.5440795806
 10
-9.4767639477
 20
-7.5412562321
 10
-9.4735280052
 20
-7.5386054224
 10
-9.4701452581
 20
-7.5361281975
 10
-9.4666158103
 20
-7.5338282364
 10
-9.4629397657
 20
-7.5317092186
 10
-9.4591172283
 20
-7.5297748231
 10
-9.4551489063
 20
-7.5280290477
 10
-9.4510379252
 20
-7.5264771643
 10
-9.4467880149
 20
-7.525124763
 10
-9.4424029053
 20
-7.5239774343
 10
-9.4378863261
 20
-7.5230407684
 10
-9.434026332
 20
-7.5224249632
 10
-9.4300891424
 20
-7.5219613306
 10
-9.4260862698
 20
-7.5216518675
 10
-9.4220259413
 20
-7.5214985223
 10
-9.417903242
 20
-7.5215030496
 10
-9.4137099715
 20
-7.521667156
 10
-9.4085771598
 20
-7.5220773611
 10
-9.4033396261
 20
-7.5227241489
 10
-9.3980060796
 20
-7.5236118512
 10
-9.3925852293
 20
-7.5247447995
 10
-9.3870857846
 20
-7.5261273258
 10
-9.3815166497
 20
-7.5277618078
 10
-9.3758875097
 20
-7.5296428079
 10
-9.3702082448
 20
-7.5317629348
 10
-9.3644887353
 20
-7.534114797
 10
-9.3587388612
 20
-7.536691003
 10
-9.3539288137
 20
-7.5390053039
 10
-9.349095746
 20
-7.541474516
 10
-9.3442308633
 20
-7.5441028892
 10
-9.3393300856
 20
-7.5468920516
 10
-9.3344081923
 20
-7.5498331434
 10
-9.329484678
 20
-7.5529146831
 10
-9.3235978525
 20
-7.5567831199
 10
-9.3177469509
 20
-7.5608256125
 10
-9.3119421593
 20
-7.5650305051
 10
-9.3061936638
 20
-7.5693861419
 10
-9.3005116508
 20
-7.5738808671
 10
-9.2949046451
 20
-7.5785043896
 10
-9.2893745275
 20
-7.5832518775
 10
-9.2839215176
 20
-7.5881198634
 10
-9.2785458348
 20
-7.5931048801
 10
-9.2732476988
 20
-7.5982034601
 10
-9.2680254066
 20
-7.6034155085
 10
-9.2628695655
 20
-7.608754419
 10
-9.2577688601
 20
-7.6142369576
 10
-9.2527119753
 20
-7.6198798903
 10
-9.2476875957
 20
-7.625699983
  0
LWPOLYLINE
  5
293
100
AcDbEntity
  8
ASSI
100
AcDbPolyline
 62
253
  6
CONTINUOUS
 90
49
 70
0
 10
14.39936976
 20
7.656078894
 10
14.3876242521
 20
7.6519057327
 10
14.3755414943
 20
7.6479531107
 10
14.3631338628
 20
7.6442250768
 10
14.3504140666
 20
7.6407254494
 10
14.3373951343
 20
7.6374578132
 10
14.3240904012
 20
7.6344255153
 10
14.3105134949
 20
7.6316316615
 10
14.2966783222
 20
7.6290791135
 10
14.2825990543
 20
7.6267704859
 10
14.2682901123
 20
7.6247081434
 10
14.2537661527
 20
7.6228941984
 10
14.2390420522
 20
7.6213305089
 10
14.2241328924
 20
7.6200186766
 10
14.2090539446
 20
7.6189600452
 10
14.1938206539
 20
7.6181556989
 10
14.1784486237
 20
7.6176064617
 10
14.1629535992
 20
7.6173128962
 10
14.1473514518
 20
7.6172753031
 10
14.1316581626
 20
7.6174937208
 10
14.1158898059
 20
7.6179679256
 10
14.1000625331
 20
7.6186974319
 10
14.0841925558
 20
7.6196814923
 10
14.0682961294
 20
7.620919099
 10
14.0523895364
 20
7.6224089843
 10
14.0364890697
 20
7.624149622
 10
14.020611016
 20
7.6261392294
 10
14.0047716388
 20
7.6283757684
 10
13.9889871622
 20
7.6308569482
 10
13.9732737542
 20
7.6335802274
 10
13.9576475096
 20
7.6365428166
 10
13.9421244342
 20
7.6397416812
 10
13.9267204281
 20
7.6431735446
 10
13.9114512694
 20
7.6468348917
 10
13.8963325981
 20
7.6507219722
 10
13.8813799
 20
7.6548308046
 10
13.866608491
 20
7.6591571803
 10
13.8520335012
 20
7.6636966679
 10
13.8376698595
 20
7.6684446175
 10
13.8235322785
 20
7.673396166
 10
13.809635239
 20
7.6785462416
 10
13.7959929756
 20
7.683889569
 10
13.782619462
 20
7.6894206753
 10
13.7695283963
 20
7.6951338949
 10
13.7567331875
 20
7.7010233759
 10
13.7442469417
 20
7.7070830859
 10
13.7320824484
 20
7.7133068178
 10
13.7202521673
 20
7.7196881969
 10
13.7087682162
 20
7.7262206867
  0
LWPOLYLINE
  5
294
100
AcDbEntity
  8
ASSI
100
AcDbPolyline
 62
7
  6
CONTINUOUS
 90
13
 70
0
 10
12.9705663726
 20
-9.8042617759
 10
13.012089665
 20
-9.825725048
 10
13.0599440197
 20
-9.8450762744
 10
13.1094749786
 20
-9.8600900469
 10
13.1606231435
 20
-9.8709946972
 10
13.2130176131
 20
-9.8778192551
 10
13.2657514929
 20
-9.8805334039
 10
13.3185586639
 20
-9.8791789044
 10
13.3711724437
 20
-9.873710912
 10
13.4226753352
 20
-9.8641420755
 10
13.472689164
 20
-9.8504415368
 10
13.5211637421
 20
-9.8323859755
 10
13.5598155192
 20
-9.8139770015
  0
LWPOLYLINE
  5
295
100
AcDbEntity
  8
ASSI
100
AcDbPolyline
 62
253
  6
CONTINUOUS
 90
40
 70
0
 10
12.9188384418
 20
-9.6896898308
 10
12.929644478
 20
-9.6957450996
 10
12.9407613049
 20
-9.7016114922
 10
12.9521788383
 20
-9.7072836926
 10
12.9638866703
 20
-9.7127565444
 10
12.9758742295
 20
-9.7180251101
 10
12.988130802
 20
-9.7230846665
 10
13.0006453843
 20
-9.7279306689
 10
13.0134065348
 20
-9.7325586783
 10
13.0264025333
 20
-9.7369644211
 10
13.039621536
 20
-9.7411439007
 10
13.0530516078
 20
-9.7450933558
 10
13.0666805798
 20
-9.7488091822
 10
13.0804960751
 20
-9.7522880256
 10
13.09448558
 20
-9.7555267487
 10
13.1086364702
 20
-9.7585223934
 10
13.1229359522
 20
-9.7612722695
 10
13.1373710218
 20
-9.7637738887
 10
13.1519285374
 20
-9.7660249305
 10
13.1665952768
 20
-9.7680233766
 10
13.1813579583
 20
-9.7697674378
 10
13.196203201
 20
-9.7712554848
 10
13.2111175525
 20
-9.7724861971
 10
13.2260874765
 20
-9.7734584807
 10
13.2410993723
 20
-9.7741713975
 10
13.2561395997
 20
-9.7746243332
 10
13.2711945444
 20
-9.7748169061
 10
13.286250606
 20
-9.7747488809
 10
13.3012941559
 20
-9.7744203512
 10
13.3163115254
 20
-9.7738316426
 10
13.3312890705
 20
-9.7729832227
 10
13.3462131978
 20
-9.7718758979
 10
13.3610703829
 20
-9.7705107042
 10
13.3758471586
 20
-9.768888807
 10
13.3905301434
 20
-9.7670117124
 10
13.4051060008
 20
-9.7648811592
 10
13.4195614598
 20
-9.7624990123
 10
13.4338833742
 20
-9.7598674818
 10
13.4480587948
 20
-9.7569889876
 10
13.4620749271
 20
-9.7538660485
  0
LINE
  5
296
100
AcDbEntity
  8
ASSI
100
AcDbLine
 62
253
  6
CONTINUOUS
 10
12.9188384414
 20
-10.3392220702
 11
-17.7244966805
 21
7.353855578
  0
LINE
  5
297
100
AcDbEntity
  8
ASSI
100
AcDbLine
 62
253
  6
CONTINUOUS
 10
13.0940743302
 20
-10.033773075
 11
-17.5492645865
 21
7.6593067643
  0
LWPOLYLINE
  5
298
100
AcDbEntity
  8
ASSI
100
AcDbPolyline
 62
253
  6
CONTINUOUS
 90
27
 70
0
 10
-17.7244966802
 20
7.3538555776
 10
-17.7349822062
 20
7.3600959049
 10
-17.7451375684
 20
7.3665174353
 10
-17.7549535604
 20
7.3731143456
 10
-17.7644212439
 20
7.379880631
 10
-17.7735320796
 20
7.3868101809
 10
-17.7822779191
 20
7.3938967904
 10
-17.7906508877
 20
7.4011341087
 10
-17.7986433077
 20
7.4085155234
 10
-17.8062478325
 20
7.4160342355
 10
-17.8134575385
 20
7.4236834077
 10
-17.8202659227
 20
7.4314561422
 10
-17.8266668185
 20
7.4393453693
 10
-17.8326544157
 20
7.4473439429
 10
-17.8382232937
 20
7.4554446304
 10
-17.8433684256
 20
7.4636400871
 10
-17.848085153
 20
7.4719229256
 10
-17.8523691802
 20
7.4802856294
 10
-17.8562166048
 20
7.4887205436
 10
-17.8596239337
 20
7.4972200322
 10
-17.8625880828
 20
7.5057764181
 10
-17.8651063655
 20
7.5143818973
 10
-17.867176499
 20
7.5230287001
 10
-17.8687966038
 20
7.531709002
 10
-17.8699652088
 20
7.5404148615
 10
-17.8706812553
 20
7.5491383997
 10
-17.8709451542
 20
7.5582084601
  0
LWPOLYLINE
  5
299
100
AcDbEntity
  8
ASSI
100
AcDbPolyline
 62
253
  6
CONTINUOUS
 90
46
 70
0
 10
-17.5492645865
 20
7.6593067643
 10
-17.5545135249
 20
7.6624313996
 10
-17.5595887782
 20
7.665641622
 10
-17.5644903462
 20
7.6689374315
 10
-17.5692224574
 20
7.6723220267
 10
-17.5737808833
 20
7.6757922091
 10
-17.5781529392
 20
7.6793383827
 10
-17.582338031
 20
7.6829607058
 10
-17.5863367528
 20
7.6866590203
 10
-17.5901382016
 20
7.690423255
 10
-17.5937418268
 20
7.6942535818
 10
-17.5971481789
 20
7.6981498289
 10
-17.600348007
 20
7.7021014106
 10
-17.6033407472
 20
7.7061084704
 10
-17.6061269633
 20
7.7101708648
 10
-17.6086990955
 20
7.7142775774
 10
-17.6110565686
 20
7.7184287401
 10
-17.6131999579
 20
7.722624221
 10
-17.6151234287
 20
7.7268526083
 10
-17.6168263793
 20
7.731113986
 10
-17.6183094115
 20
7.73540827
 10
-17.6195684956
 20
7.7397237967
 10
-17.6206030231
 20
7.7440606278
 10
-17.6214136026
 20
7.7484187014
 10
-17.6219980306
 20
7.7527861685
 10
-17.6223556916
 20
7.7571630478
 10
-17.622487201
 20
7.7615493206
 10
-17.6223922021
 20
7.7659330818
 10
-17.6220700789
 20
7.7703143308
 10
-17.6215214472
 20
7.7746930683
 10
-17.6207477976
 20
7.7790573915
 10
-17.6197485181
 20
7.7834072581
 10
-17.6185242206
 20
7.7877427104
 10
-17.6170782307
 20
7.7920519725
 10
-17.6154099422
 20
7.7963349788
 10
-17.6135199614
 20
7.8005917949
 10
-17.6114134326
 20
7.8048108414
 10
-17.6090897732
 20
7.8089920041
 10
-17.6065495658
 20
7.8131353973
 10
-17.6037997029
 20
7.817229784
 10
-17.6008396126
 20
7.8212750379
 10
-17.5976698667
 20
7.8252712854
 10
-17.5942990726
 20
7.8292076687
 10
-17.5907266696
 20
7.8330840333
 10
-17.5869532184
 20
7.8369005337
 10
-17.5853987845
 20
7.8383694991
  0
LWPOLYLINE
  5
29A
100
AcDbEntity
  8
0
100
AcDbPolyline
 62
253
  6
CONTINUOUS
 90
53
 70
0
 10
-8.7432108203
 20
11.3605757451
 10
-8.7395327285
 20
11.3537958118
 10
-8.7360166823
 20
11.3470054152
 10
-8.7326512315
 20
11.3401888438
 10
-8.7294249259
 20
11.3333303862
 10
-8.7263263151
 20
11.326414331
 10
-8.7233463903
 20
11.3194281426
 10
-8.7204859075
 20
11.3123719881
 10
-8.717748064
 20
11.3052492108
 10
-8.7151360574
 20
11.2980631534
 10
-8.7126530848
 20
11.2908171592
 10
-8.7103027404
 20
11.2835157078
 10
-8.7080902048
 20
11.2761678259
 10
-8.706021055
 20
11.2687836766
 10
-8.7041008684
 20
11.2613734232
 10
-8.7023352221
 20
11.2539472289
 10
-8.7009860803
 20
11.2477560072
 10
-8.6997522873
 20
11.2415793638
 10
-8.698637999
 20
11.2354358893
 10
-8.6976466378
 20
11.2293392882
 10
-8.6967786906
 20
11.2232837216
 10
-8.6960339104
 20
11.2172584643
 10
-8.6953034219
 20
11.210058937
 10
-8.6947556009
 20
11.2029043209
 10
-8.6943961101
 20
11.1958113257
 10
-8.6942306119
 20
11.188796661
 10
-8.6942647689
 20
11.1818770365
 10
-8.6945025807
 20
11.1750677617
 10
-8.6949413958
 20
11.1683785456
 10
-8.6955768995
 20
11.161817697
 10
-8.6964047773
 20
11.1553935247
 10
-8.6974207146
 20
11.1491143376
 10
-8.6984086019
 20
11.1439960575
 10
-8.6995259664
 20
11.1389748137
 10
-8.7007746846
 20
11.1340411882
 10
-8.7021553414
 20
11.1291905337
 10
-8.7036633544
 20
11.1244372855
 10
-8.7052928492
 20
11.1198006496
 10
-8.7074006864
 20
11.1144129887
 10
-8.7096669961
 20
11.1092260861
 10
-8.7120837756
 20
11.104245122
 10
-8.7146430222
 20
11.0994752763
 10
-8.7173367332
 20
11.0949217292
 10
-8.7201577508
 20
11.0905883544
 10
-8.7231022963
 20
11.0864738004
 10
-8.726167436
 20
11.0825754094
 10
-8.7293502361
 20
11.0788905236
 10
-8.7326477628
 20
11.0754164853
 10
-8.7360596164
 20
11.0721506784
 10
-8.7395955334
 20
11.0690906533
 10
-8.7432677842
 20
11.0662340023
 10
-8.7470886393
 20
11.0635783178
 10
-8.7510703692
 20
11.0611211918
  0
LWPOLYLINE
  5
29B
100
AcDbEntity
  8
0
100
AcDbPolyline
 62
253
  6
CONTINUOUS
 90
53
 70
0
 10
-11.7404478848
 20
12.7871503036
 10
-11.7441504221
 20
12.793989173
 10
-11.7476898467
 20
12.8008360198
 10
-11.7510775569
 20
12.8077066316
 10
-11.7543249514
 20
12.8146167957
 10
-11.7574434285
 20
12.8215822996
 10
-11.760441952
 20
12.8286157956
 10
-11.7633197462
 20
12.8357173941
 10
-11.7660736005
 20
12.8428840707
 10
-11.7687003043
 20
12.8501128004
 10
-11.7711966473
 20
12.8574005587
 10
-11.7735589823
 20
12.8647430626
 10
-11.775781917
 20
12.8721309971
 10
-11.7778596225
 20
12.8795537888
 10
-11.7797862698
 20
12.8870008644
 10
-11.7815560301
 20
12.8944616505
 10
-11.7829066406
 20
12.9006796164
 10
-11.7841400396
 20
12.9068804357
 10
-11.7852520128
 20
12.9130447832
 10
-11.7862391117
 20
12.9191583451
 10
-11.787100951
 20
12.9252268545
 10
-11.7878379115
 20
12.9312610558
 10
-11.7885569669
 20
12.9384661758
 10
-11.7890914438
 20
12.9456213503
 10
-11.7894360412
 20
12.9527105655
 10
-11.789585458
 20
12.9597178072
 10
-11.7895343931
 20
12.9666270614
 10
-11.7892792013
 20
12.9734235793
 10
-11.7888228613
 20
12.9800976732
 10
-11.7881700075
 20
12.9866409206
 10
-11.7873252743
 20
12.9930448989
 10
-11.7862932962
 20
12.9993011857
 10
-11.7852928816
 20
13.0043982457
 10
-11.7841638829
 20
13.0093963236
 10
-11.782904529
 20
13.0143048497
 10
-11.7815143187
 20
13.0191285782
 10
-11.7799978315
 20
13.0238535589
 10
-11.7783609169
 20
13.0284611654
 10
-11.7762455206
 20
13.0338136546
 10
-11.773973014
 20
13.0389652447
 10
-11.7715512792
 20
13.0439108777
 10
-11.7689881979
 20
13.0486454953
 10
-11.7662916518
 20
13.0531640395
 10
-11.7634687072
 20
13.0574627077
 10
-11.7605231674
 20
13.0615427198
 10
-11.7574580203
 20
13.0654065512
 10
-11.7542762535
 20
13.0690566774
 10
-11.7509808549
 20
13.0724955738
 10
-11.7475722872
 20
13.0757256887
 10
-11.7440409134
 20
13.0787493619
 10
-11.7403745716
 20
13.081568906
 10
-11.7365610997
 20
13.0841866334
 10
-11.7325883358
 20
13.0866048569
  0
LWPOLYLINE
  5
29C
100
AcDbEntity
  8
0
100
AcDbPolyline
 62
253
  6
CONTINUOUS
 90
53
 70
0
 10
-9.524768191
 20
12.1466753104
 10
-9.5284311718
 20
12.1534960989
 10
-9.5319315067
 20
12.1603268103
 10
-9.5352805323
 20
12.1671833105
 10
-9.5384895852
 20
12.1740814653
 10
-9.5415700022
 20
12.1810371405
 10
-9.5445306843
 20
12.1880630168
 10
-9.5473707909
 20
12.1951590332
 10
-9.5500870458
 20
12.2023219437
 10
-9.5526761731
 20
12.2095485022
 10
-9.5551348964
 20
12.2168354626
 10
-9.557459538
 20
12.2241784064
 10
-9.5596448133
 20
12.2315682255
 10
-9.561685036
 20
12.2389946395
 10
-9.5635745199
 20
12.2464473679
 10
-9.5653075787
 20
12.2539161303
 10
-9.5666280636
 20
12.2601427837
 10
-9.5678318582
 20
12.2663546038
 10
-9.5689148494
 20
12.2725327618
 10
-9.5698736398
 20
12.2786633678
 10
-9.5707076935
 20
12.2847522881
 10
-9.5714171904
 20
12.2908103282
 10
-9.5721034457
 20
12.298048544
 10
-9.5726050359
 20
12.3052412192
 10
-9.5729163989
 20
12.3123717212
 10
-9.5730319728
 20
12.3194234172
 10
-9.5729461956
 20
12.3263796746
 10
-9.5726551846
 20
12.333225235
 10
-9.5721617744
 20
12.3399503366
 10
-9.5714704788
 20
12.3465465915
 10
-9.5705858115
 20
12.3530056122
 10
-9.5695122864
 20
12.3593190108
 10
-9.5684759183
 20
12.3644652785
 10
-9.5673096217
 20
12.369514096
 10
-9.566011485
 20
12.3744749641
 10
-9.5645809286
 20
12.3793526028
 10
-9.563022702
 20
12.3841326075
 10
-9.5613428868
 20
12.3887957925
 10
-9.5591747783
 20
12.3942150559
 10
-9.5568484715
 20
12.3994332595
 10
-9.5543720983
 20
12.4044451912
 10
-9.5517537904
 20
12.4092456391
 10
-9.5490016797
 20
12.4138293911
 10
-9.5461230437
 20
12.4181925385
 10
-9.5431217427
 20
12.4223363864
 10
-9.5400007829
 20
12.4262635434
 10
-9.5367631703
 20
12.4299766179
 10
-9.533411911
 20
12.4334782186
 10
-9.5299474547
 20
12.43677093
 10
-9.5263600256
 20
12.4398572423
 10
-9.5226372911
 20
12.4427396214
 10
-9.5187669191
 20
12.4454205337
 10
-9.5147365772
 20
12.4479024454
  0
LWPOLYLINE
  5
29D
100
AcDbEntity
  8
0
100
AcDbPolyline
 62
253
  6
CONTINUOUS
 90
53
 70
0
 10
-10.9212941014
 20
13.2600311315
 10
-10.917643654
 20
13.2531821529
 10
-10.9141558912
 20
13.2463240863
 10
-10.9108194718
 20
13.2394410358
 10
-10.9076230545
 20
13.2325171051
 10
-10.904555298
 20
13.2255363983
 10
-10.9016072873
 20
13.2184862007
 10
-10.898779812
 20
13.2113665247
 10
-10.8960760877
 20
13.2041805642
 10
-10.8934993301
 20
13.1969315133
 10
-10.8910527551
 20
13.189622566
 10
-10.8887399906
 20
13.1822581248
 10
-10.8865663136
 20
13.1748474273
 10
-10.8845374134
 20
13.1674009199
 10
-10.8826589795
 20
13.1599290486
 10
-10.880936701
 20
13.1524422598
 10
-10.8796249923
 20
13.1462015815
 10
-10.8784297693
 20
13.1399768711
 10
-10.877355125
 20
13.1337872015
 10
-10.876404434
 20
13.1276466632
 10
-10.8755781947
 20
13.1215494161
 10
-10.8748761865
 20
13.1154846379
 10
-10.8741984227
 20
13.1082403882
 10
-10.8737046814
 20
13.1010437884
 10
-10.8734004098
 20
13.0939113174
 10
-10.873291055
 20
13.0868594545
 10
-10.8733820643
 20
13.0799046787
 10
-10.873677212
 20
13.0730621253
 10
-10.874173582
 20
13.0663415547
 10
-10.8748665853
 20
13.0597513835
 10
-10.8757516332
 20
13.0533000283
 10
-10.8768241366
 20
13.0469959058
 10
-10.87785853
 20
13.0418586148
 10
-10.879021795
 20
13.0368199011
 10
-10.8803158121
 20
13.0318702525
 10
-10.8817411431
 20
13.0270049111
 10
-10.8832930743
 20
13.0222381365
 10
-10.8849655726
 20
13.0175889428
 10
-10.8871236262
 20
13.0121872676
 10
-10.889438591
 20
13.006987418
 10
-10.891902449
 20
13.0019945225
 10
-10.8945071818
 20
12.9972137099
 10
-10.8972447714
 20
12.9926501089
 10
-10.9001080427
 20
12.98830756
 10
-10.9030931936
 20
12.9841847503
 10
-10.9061972651
 20
12.9802790788
 10
-10.9094172985
 20
12.9765879444
 10
-10.9127503346
 20
12.973108746
 10
-10.9161959645
 20
12.9698389084
 10
-10.9197639779
 20
12.9667759603
 10
-10.9234667144
 20
12.963917456
 10
-10.9273165136
 20
12.9612609499
 10
-10.9313257152
 20
12.9588039966
  0
LWPOLYLINE
  5
29E
100
AcDbEntity
  8
0
100
AcDbPolyline
 62
253
  6
CONTINUOUS
 90
53
 70
0
 10
-10.8309765837
 20
15.2315995761
 10
-10.8274295469
 20
15.2246907033
 10
-10.8240474188
 20
15.2177713487
 10
-10.8208190774
 20
15.2108255292
 10
-10.817733401
 20
15.203837261
 10
-10.8147792677
 20
15.1967905609
 10
-10.8119479386
 20
15.189672638
 10
-10.8092402071
 20
15.1824834719
 10
-10.8066592498
 20
15.1752262347
 10
-10.804208243
 20
15.1679040987
 10
-10.8018903633
 20
15.1605202359
 10
-10.7997091822
 20
15.1530790495
 10
-10.7976698513
 20
15.1455898656
 10
-10.7957779175
 20
15.1380632415
 10
-10.7940389273
 20
15.1305097343
 10
-10.7924584277
 20
15.122939901
 10
-10.7912665025
 20
15.1166290561
 10
-10.790192224
 20
15.1103335408
 10
-10.7892393245
 20
15.1040726907
 10
-10.7884109149
 20
15.0978607842
 10
-10.7877076226
 20
15.0916918698
 10
-10.7871294541
 20
15.0855549385
 10
-10.7866016817
 20
15.0782232873
 10
-10.7862592521
 20
15.0709385107
 10
-10.7861073205
 20
15.0637172804
 10
-10.7861510423
 20
15.0565762682
 10
-10.7863955728
 20
15.0495321458
 10
-10.7868444009
 20
15.0426002364
 10
-10.7874943498
 20
15.0357904699
 10
-10.7883405764
 20
15.0291114273
 10
-10.7893782374
 20
15.02257169
 10
-10.7906024897
 20
15.0161798391
 10
-10.791762562
 20
15.0109700139
 10
-10.7930509716
 20
15.0058591575
 10
-10.7944698422
 20
15.0008375806
 10
-10.7960198542
 20
14.9959004317
 10
-10.7976959157
 20
14.9910622106
 10
-10.7994914918
 20
14.9863422547
 10
-10.8017952486
 20
14.9808569519
 10
-10.8042534468
 20
14.9755750532
 10
-10.8068578368
 20
14.9705018144
 10
-10.8096001692
 20
14.9656424916
 10
-10.8124721944
 20
14.9610023406
 10
-10.8154665499
 20
14.9565853015
 10
-10.8185794208
 20
14.9523900502
 10
-10.8218078792
 20
14.9484139468
 10
-10.8251489972
 20
14.9446543512
 10
-10.8285998469
 20
14.9411086236
 10
-10.8321600763
 20
14.937774138
 10
-10.8358396372
 20
14.9346483252
 10
-10.8396510573
 20
14.9317286297
 10
-10.8436068641
 20
14.9290124963
 10
-10.8477195855
 20
14.9264973698
  0
LWPOLYLINE
  5
29F
100
AcDbEntity
  8
0
100
AcDbPolyline
 62
253
  6
CONTINUOUS
 90
53
 70
0
 10
-11.6029299508
 20
16.0231003676
 10
-11.6064505528
 20
16.0299707514
 10
-11.609805345
 20
16.0368538595
 10
-11.6130053708
 20
16.043765509
 10
-11.6160616736
 20
16.0507215168
 10
-11.6189852968
 20
16.0577377001
 10
-11.6217849154
 20
16.0648266946
 10
-11.6244597303
 20
16.0719884099
 10
-11.6270065744
 20
16.0792195745
 10
-11.6294222803
 20
16.0865169168
 10
-11.6317036806
 20
16.093877165
 10
-11.6338472382
 20
16.1012958774
 10
-11.6358479375
 20
16.108763931
 10
-11.6377003929
 20
16.1162710327
 10
-11.6393992189
 20
16.1238068892
 10
-11.64093903
 20
16.1313612075
 10
-11.6420967725
 20
16.1376609818
 10
-11.6431367609
 20
16.1439474663
 10
-11.6440554081
 20
16.1502016984
 10
-11.6448497039
 20
16.1564097078
 10
-11.6455189466
 20
16.1625774939
 10
-11.6460630115
 20
16.168716048
 10
-11.6465496562
 20
16.176053215
 10
-11.646850713
 20
16.1833471831
 10
-11.6469610295
 20
16.1905810197
 10
-11.6468754536
 20
16.1977377922
 10
-11.6465888328
 20
16.204800568
 10
-11.6460976617
 20
16.2117538104
 10
-11.6454050219
 20
16.2185875657
 10
-11.6445156417
 20
16.2252932759
 10
-11.6434342494
 20
16.2318623832
 10
-11.6421655735
 20
16.2382863297
 10
-11.6409678566
 20
16.2435249965
 10
-11.639641096
 20
16.248666595
 10
-11.6381830225
 20
16.2537208061
 10
-11.6365928649
 20
16.2586924144
 10
-11.6348758438
 20
16.2635666184
 10
-11.633038678
 20
16.2683237205
 10
-11.6306844159
 20
16.2738547037
 10
-11.6281752391
 20
16.2791832747
 10
-11.6255195664
 20
16.2843040127
 10
-11.6227258166
 20
16.2892114971
 10
-11.6198024087
 20
16.293900307
 10
-11.6167568443
 20
16.2983663721
 10
-11.6135929568
 20
16.3026110236
 10
-11.6103136624
 20
16.306636943
 10
-11.6069218773
 20
16.3104468119
 10
-11.6034205179
 20
16.314043312
 10
-11.5998099314
 20
16.3174291106
 10
-11.5960801891
 20
16.3206068181
 10
-11.5922187931
 20
16.3235790308
 10
-11.5882132459
 20
16.3263483449
 10
-11.5840510497
 20
16.3289173566
  0
LINE
  5
2A0
100
AcDbEntity
  8
ASSI
100
AcDbLine
 62
253
  6
CONTINUOUS
 10
16.4951341952
 20
10.0565214888
 11
14.3825280595
 21
8.7955195702
  0
LINE
  5
2A1
100
AcDbEntity
  8
ASSI
100
AcDbLine
 62
7
  6
CONTINUOUS
 10
-17.6727279785
 20
7.8887922813
 11
12.9706109381
 21
-9.804287558
  0
LINE
  5
2A2
100
AcDbEntity
  8
ASSI
100
AcDbLine
 62
253
  6
CONTINUOUS
 10
-17.7244966806
 20
8.0033878166
 11
12.9188384414
 21
-9.6896898316
  0
LWPOLYLINE
  5
2A3
100
AcDbEntity
  8
0
100
AcDbPolyline
 62
253
  6
CONTINUOUS
 90
53
 70
0
 10
-9.4411620613
 20
14.1143686837
 10
-9.4447220433
 20
14.1212473012
 10
-9.4481171281
 20
14.1281373221
 10
-9.4513584376
 20
14.1350546971
 10
-9.4544570935
 20
14.142015377
 10
-9.4574242179
 20
14.1490353125
 10
-9.4602685395
 20
14.1561272563
 10
-9.4629892153
 20
14.1632911687
 10
-9.4655830094
 20
14.1705238118
 10
-9.4680466856
 20
14.177821948
 10
-9.470377008
 20
14.1851823393
 10
-9.4725703569
 20
14.192600558
 10
-9.4746215775
 20
14.200067416
 10
-9.4765251313
 20
14.2075725351
 10
-9.47827548
 20
14.2151055371
 10
-9.4798670851
 20
14.2226560438
 10
-9.4810680729
 20
14.2289518404
 10
-9.4821512214
 20
14.2352335196
 10
-9.4831127759
 20
14.2414820151
 10
-9.4839495995
 20
14.2476832695
 10
-9.484661024
 20
14.2538432614
 10
-9.4852469989
 20
14.259972978
 10
-9.4857836397
 20
14.2672981735
 10
-9.4861342864
 20
14.2745787524
 10
-9.4862936652
 20
14.2817978724
 10
-9.4862565022
 20
14.2889386911
 10
-9.4860175236
 20
14.2959843664
 10
-9.4855731277
 20
14.3029194389
 10
-9.4849264012
 20
14.3097339811
 10
-9.4840821031
 20
14.3164194486
 10
-9.4830449922
 20
14.3229672966
 10
-9.4818198274
 20
14.3293689807
 10
-9.4806578192
 20
14.3345883369
 10
-9.4793663656
 20
14.3397099337
 10
-9.4779433095
 20
14.3447434483
 10
-9.4763879514
 20
14.3496936911
 10
-9.4747054225
 20
14.3545460061
 10
-9.4729023118
 20
14.3592808705
 10
-9.4705881853
 20
14.3647849177
 10
-9.4681182777
 20
14.3700863818
 10
-9.4655009579
 20
14.3751799213
 10
-9.4627445947
 20
14.3800601945
 10
-9.4598575569
 20
14.3847218597
 10
-9.4568473139
 20
14.3891609077
 10
-9.4537177374
 20
14.3933786596
 10
-9.4504717995
 20
14.3973777687
 10
-9.4471124724
 20
14.4011608885
 10
-9.4436427285
 20
14.4047306726
 10
-9.4400629581
 20
14.4080897619
 10
-9.4363632245
 20
14.4112407487
 10
-9.4325310092
 20
14.4141862124
 10
-9.4285537937
 20
14.416928733
 10
-9.4244190595
 20
14.41947089
  0
LWPOLYLINE
  5
2A4
100
AcDbEntity
  8
0
100
AcDbPolyline
 62
253
  6
CONTINUOUS
 90
53
 70
0
 10
-8.5946735342
 20
14.6028882449
 10
-8.5911625522
 20
14.5959614109
 10
-8.5878171661
 20
14.5890236103
 10
-8.5846263486
 20
14.5820588759
 10
-8.5815790728
 20
14.5750512405
 10
-8.5786643114
 20
14.5679847372
 10
-8.5758733997
 20
14.5608465857
 10
-8.5732071227
 20
14.5536367539
 10
-8.5706686275
 20
14.5463583967
 10
-8.5682610613
 20
14.5390146689
 10
-8.5659875715
 20
14.5316087253
 10
-8.5638516939
 20
14.5241449579
 10
-8.5618585198
 20
14.5166327072
 10
-8.5600135288
 20
14.5090825508
 10
-8.5583222008
 20
14.5015050664
 10
-8.5567900157
 20
14.4939108315
 10
-8.5556387869
 20
14.4875793509
 10
-8.5546054786
 20
14.4812629813
 10
-8.5536936898
 20
14.4749811204
 10
-8.5529064324
 20
14.4687480906
 10
-8.5522443688
 20
14.4625579144
 10
-8.5517075744
 20
14.4563995389
 10
-8.5512296995
 20
14.4490418695
 10
-8.5509373551
 20
14.4417307769
 10
-8.5508355757
 20
14.4344829604
 10
-8.5509293961
 20
14.4273151199
 10
-8.5512238509
 20
14.4202439548
 10
-8.5517223181
 20
14.4132848191
 10
-8.5524215489
 20
14.4064476845
 10
-8.553316638
 20
14.3997411772
 10
-8.5544026797
 20
14.3931739231
 10
-8.5556747688
 20
14.3867545485
 10
-8.556874264
 20
14.3815218026
 10
-8.558201756
 20
14.37638801
 10
-8.5596594488
 20
14.3713434399
 10
-8.5612480657
 20
14.3663832207
 10
-8.5629624081
 20
14.3615219197
 10
-8.5647957967
 20
14.3567789637
 10
-8.5671441394
 20
14.3512662734
 10
-8.5696459877
 20
14.3459572744
 10
-8.5722930383
 20
14.3408572668
 10
-8.5750769884
 20
14.3359715505
 10
-8.5779895347
 20
14.3313054255
 10
-8.5810232743
 20
14.3268628668
 10
-8.5841744034
 20
14.32264255
 10
-8.5874400183
 20
14.3186418256
 10
-8.5908172153
 20
14.3148580441
 10
-8.5943030906
 20
14.3112885563
 10
-8.5978973157
 20
14.3079307222
 10
-8.6016098634
 20
14.3047819408
 10
-8.6054532815
 20
14.3018396206
 10
-8.6094401181
 20
14.2991011703
 10
-8.613582921
 20
14.2965639984
  0
LWPOLYLINE
  5
2A5
100
AcDbEntity
  8
ASSI
100
AcDbPolyline
 62
253
  6
CONTINUOUS
 90
52
 70
0
 10
14.3825280595
 20
8.7955195702
 10
14.3632586066
 20
8.7833354066
 10
14.3440307598
 20
8.7705875411
 10
14.3248581329
 20
8.7572853051
 10
14.3057541185
 20
8.7434385996
 10
14.2867324231
 20
8.7290573783
 10
14.2678070603
 20
8.7141516267
 10
14.2489913374
 20
8.6987321403
 10
14.2302986714
 20
8.6828102294
 10
14.2117431234
 20
8.6663972025
 10
14.1933378987
 20
8.649505074
 10
14.175095956
 20
8.6321461039
 10
14.1570308257
 20
8.6143324907
 10
14.1391552749
 20
8.5960771664
 10
14.1214819816
 20
8.5773934427
 10
14.1040241416
 20
8.5582945599
 10
14.0867941258
 20
8.5387944045
 10
14.0698041177
 20
8.518907152
 10
14.0530667882
 20
8.4986469097
 10
14.0365939933
 20
8.4780283907
 10
14.0203973825
 20
8.4570665756
 10
14.0044890347
 20
8.4357763593
 10
13.9888802324
 20
8.4141732088
 10
13.9735819961
 20
8.3922727902
 10
13.9586056948
 20
8.3700906308
 10
13.9439619222
 20
8.347642785
 10
13.9296610471
 20
8.3249455629
 10
13.9157137464
 20
8.3020151576
 10
13.9021299179
 20
8.2788682109
 10
13.8889191402
 20
8.2555214747
 10
13.8760912251
 20
8.2319915374
 10
13.8636552536
 20
8.2082954132
 10
13.8516200203
 20
8.1844502874
 10
13.8399944924
 20
8.1604731788
 10
13.8287869113
 20
8.1363814365
 10
13.8180051873
 20
8.1121924991
 10
13.8076573467
 20
8.0879236393
 10
13.7977507233
 20
8.063592399
 10
13.7882923085
 20
8.0392163857
 10
13.7792891457
 20
8.0148130318
 10
13.7707476309
 20
7.990400004
 10
13.7626737713
 20
7.9659949189
 10
13.755073542
 20
7.9416151388
 10
13.7479523148
 20
7.9172781863
 10
13.7413151381
 20
7.8930017292
 10
13.7351669904
 20
7.8688032955
 10
13.729512261
 20
7.8447004649
 10
13.7243548896
 20
7.820710522
 10
13.7196986628
 20
7.7968504441
 10
13.7155469302
 20
7.773137338
 10
13.7119025869
 20
7.7495884233
 10
13.708768216
 20
7.7262206867
  0
LWPOLYLINE
  5
2A6
100
AcDbEntity
  8
ASSI
100
AcDbPolyline
 62
253
  6
CONTINUOUS
 90
52
 70
0
 10
14.7420307943
 20
8.1873903938
 10
14.732222818
 20
8.1813881844
 10
14.722448838
 20
8.1751128454
 10
14.7127088545
 20
8.1685643768
 10
14.702995606
 20
8.1617374921
 10
14.693316354
 20
8.1546374777
 10
14.6836928821
 20
8.1472801934
 10
14.6741255862
 20
8.1396652437
 10
14.6646140704
 20
8.1317930241
 10
14.6551789311
 20
8.1236805801
 10
14.6458203653
 20
8.1153274161
 10
14.636538176
 20
8.1067340278
 10
14.6273523692
 20
8.0979189475
 10
14.6182631387
 20
8.088881684
 10
14.6092702908
 20
8.0796227285
 10
14.60039325
 20
8.0701620873
 10
14.5916322695
 20
8.060499326
 10
14.5829870963
 20
8.0506348788
 10
14.5744763955
 20
8.0405900553
 10
14.5661004585
 20
8.0303644654
 10
14.5578589941
 20
8.0199584992
 10
14.549769794
 20
8.009394636
 10
14.5418331941
 20
7.9986725447
 10
14.5340488586
 20
7.9877925565
 10
14.5264335713
 20
7.9767781449
 10
14.5189876892
 20
7.965629007
 10
14.5117108554
 20
7.9543454457
 10
14.5046187833
 20
7.9429518432
 10
14.4977118806
 20
7.9314479755
 10
14.4909897397
 20
7.9198340665
 10
14.4844668509
 20
7.9081351703
 10
14.4781436396
 20
7.8963510947
 10
14.4720196803
 20
7.8844820319
 10
14.4661081874
 20
7.8725536121
 10
14.4604096219
 20
7.8605657105
 10
14.4549235227
 20
7.8485184519
 10
14.4496617211
 20
7.8364378411
 10
14.4446247017
 20
7.8243238053
 10
14.4398119799
 20
7.8121764172
 10
14.4352339335
 20
7.8000218996
 10
14.4308910741
 20
7.787860256
 10
14.4267828901
 20
7.7756914831
 10
14.4229182242
 20
7.763541793
 10
14.4192975923
 20
7.7514111879
 10
14.4159204785
 20
7.7392996658
 10
14.4127941781
 20
7.7272334323
 10
14.4099192072
 20
7.7152123567
 10
14.4072950496
 20
7.7032365698
 10
14.4049274515
 20
7.6913326702
 10
14.4028183282
 20
7.6795095242
 10
14.4009657644
 20
7.6677582654
 10
14.39936976
 20
7.656078894
  0
LINE
  5
2A7
100
AcDbEntity
  8
ASSI
100
AcDbLine
 62
253
  6
CONTINUOUS
 10
16.8801083536
 20
9.4635960523
 11
14.7420307943
 21
8.1873903938
  0
LINE
  5
2A8
100
AcDbEntity
  8
ASSI
100
AcDbLine
 62
7
  6
CONTINUOUS
 10
17.2545736364
 20
-7.9453009709
 11
17.1780049908
 21
-7.9010911946
  0
LINE
  5
2A9
100
AcDbEntity
  8
ASSI
100
AcDbLine
 62
7
  6
CONTINUOUS
 10
3.4994056892
 20
17.5600922535
 11
3.5206109784
 21
16.9436197561
  0
LINE
  5
2AA
100
AcDbEntity
  8
ASSI
100
AcDbLine
 62
253
  6
CONTINUOUS
 10
3.3191544398
 20
17.1458720947
 11
3.3191544398
 21
17.0830541061
  0
LINE
  5
2AB
100
AcDbEntity
  8
ASSI
100
AcDbLine
 62
253
  6
CONTINUOUS
 10
-17.6630108955
 20
15.4731592271
 11
12.9847731948
 21
-2.2224871997
  0
LWPOLYLINE
  5
2AC
100
AcDbEntity
  8
0
100
AcDbPolyline
 62
253
  6
CONTINUOUS
 90
53
 70
0
 10
-10.2604611035
 20
11.2001164897
 10
-10.2659446382
 20
11.2033872369
 10
-10.2713727765
 20
11.2068329751
 10
-10.2767591321
 20
11.2104581592
 10
-10.2821173184
 20
11.2142672442
 10
-10.2874609488
 20
11.2182646852
 10
-10.2928008583
 20
11.2224541793
 10
-10.2981367671
 20
11.2268363924
 10
-10.3034656169
 20
11.2314112325
 10
-10.3087843494
 20
11.2361786075
 10
-10.3140899062
 20
11.2411384255
 10
-10.3193783468
 20
11.2462897786
 10
-10.3246422013
 20
11.2516284956
 10
-10.329873118
 20
11.2571495892
 10
-10.3350627448
 20
11.2628480725
 10
-10.3402027298
 20
11.2687189583
 10
-10.3444407475
 20
11.2737373846
 10
-10.3486255184
 20
11.2788567237
 10
-10.352744069
 20
11.2840616278
 10
-10.3567866789
 20
11.2893410703
 10
-10.3607566395
 20
11.2947013098
 10
-10.3646604953
 20
11.3001529259
 10
-10.3692632368
 20
11.3068254586
 10
-10.3737684699
 20
11.3136335688
 10
-10.3781644531
 20
11.3205660167
 10
-10.382439445
 20
11.3276115623
 10
-10.3865817041
 20
11.3347589659
 10
-10.3905808769
 20
11.341996694
 10
-10.3944321613
 20
11.3493120386
 10
-10.3981321432
 20
11.3566919979
 10
-10.4016774085
 20
11.3641235704
 10
-10.4050645432
 20
11.3715937544
 10
-10.407765046
 20
11.3778421874
 10
-10.4103582771
 20
11.3841198701
 10
-10.4128491486
 20
11.3904382677
 10
-10.4152402235
 20
11.3968027344
 10
-10.4175246679
 20
11.4031941814
 10
-10.419693299
 20
11.409587409
 10
-10.4221324723
 20
11.4172312104
 10
-10.424391499
 20
11.4248280967
 10
-10.4264702272
 20
11.4323648765
 10
-10.4283685049
 20
11.4398283582
 10
-10.4300861802
 20
11.4472053501
 10
-10.4316235623
 20
11.4544848078
 10
-10.4329828046
 20
11.4616642743
 10
-10.4341665215
 20
11.4687434398
 10
-10.4351773274
 20
11.4757219945
 10
-10.4360178367
 20
11.4825996286
 10
-10.4366896998
 20
11.4893785098
 10
-10.4371907102
 20
11.4960707155
 10
-10.4375176976
 20
11.502690801
 10
-10.4376674913
 20
11.5092533214
 10
-10.437636921
 20
11.5157728318
  0
LINE
  5
2AD
100
AcDbEntity
  8
ASSI
100
AcDbLine
 62
7
  6
CONTINUOUS
 10
11.4190016385
 20
12.9874168082
 11
11.2387503891
 21
12.5731966494
  0
LINE
  5
2AE
100
AcDbEntity
  8
0
100
AcDbLine
 62
253
  6
CONTINUOUS
 10
-8.2612891556
 20
12.3545144953
 11
-9.0189982464
 21
12.792006228
  0
LINE
  5
2AF
100
AcDbEntity
  8
0
100
AcDbLine
 62
253
  6
CONTINUOUS
 10
-11.3697548423
 20
14.1493036246
 11
-12.1271396461
 21
14.586608118
  0
LWPOLYLINE
  5
2B0
100
AcDbEntity
  8
0
100
AcDbPolyline
 62
253
  6
CONTINUOUS
 90
36
 70
0
 10
-8.8804993362
 20
11.0725841447
 10
-8.8845571834
 20
11.0749888032
 10
-8.8885968517
 20
11.0775047917
 10
-8.892619312
 20
11.0801302852
 10
-8.8966255353
 20
11.0828634584
 10
-8.9006164926
 20
11.0857024865
 10
-8.9045931547
 20
11.0886455441
 10
-8.9085564927
 20
11.0916908064
 10
-8.9125068686
 20
11.0948361971
 10
-8.9164422087
 20
11.0980786363
 10
-8.9203598307
 20
11.1014147929
 10
-8.9242570518
 20
11.1048413359
 10
-8.9281311898
 20
11.1083549342
 10
-8.9319795619
 20
11.1119522569
 10
-8.9357994858
 20
11.1156299728
 10
-8.9395885547
 20
11.119385092
 10
-8.9433454649
 20
11.123215988
 10
-8.9470691885
 20
11.1271213756
 10
-8.9507586978
 20
11.1310999694
 10
-8.9544129647
 20
11.1351504841
 10
-8.9580309615
 20
11.1392716342
 10
-8.9616116603
 20
11.1434621345
 10
-8.9651538573
 20
11.1477206654
 10
-8.968655646
 20
11.1520457705
 10
-8.9721149439
 20
11.1564359592
 10
-8.9755296684
 20
11.1608897411
 10
-8.9788977372
 20
11.1654056254
 10
-8.9822170678
 20
11.1699821218
 10
-8.9854855778
 20
11.1746177396
 10
-8.988701301
 20
11.1793115223
 10
-8.9918627375
 20
11.1840646494
 10
-8.9949685036
 20
11.1888788346
 10
-8.9980172156
 20
11.1937557914
 10
-9.0010074899
 20
11.1986972335
 10
-9.0039379429
 20
11.2037048743
 10
-9.006807191
 20
11.2087804276
  0
LWPOLYLINE
  5
2B1
100
AcDbEntity
  8
0
100
AcDbPolyline
 62
253
  6
CONTINUOUS
 90
36
 70
0
 10
-11.6139395588
 20
12.6508382712
 10
-11.6180048497
 20
12.6532475765
 10
-11.6220517256
 20
12.6557687502
 10
-11.6260811793
 20
12.6583999449
 10
-11.6300942036
 20
12.6611393137
 10
-11.6340917913
 20
12.6639850092
 10
-11.6380749353
 20
12.6669351844
 10
-11.6420446284
 20
12.669987992
 10
-11.646001241
 20
12.6731413145
 10
-11.6499426535
 20
12.676391953
 10
-11.6538661239
 20
12.679736438
 10
-11.65776891
 20
12.6831713003
 10
-11.6616482698
 20
12.6866930703
 10
-11.6655014613
 20
12.6902982789
 10
-11.6693257423
 20
12.6939834566
 10
-11.673118674
 20
12.6977454987
 10
-11.67687903
 20
12.7015827588
 10
-11.6806058874
 20
12.7054939553
 10
-11.6842983231
 20
12.7094778063
 10
-11.6879554139
 20
12.7135330301
 10
-11.6915762368
 20
12.717658345
 10
-11.6951598687
 20
12.7218524693
 10
-11.6987052032
 20
12.7261140813
 10
-11.7022104007
 20
12.7304416992
 10
-11.7056734381
 20
12.7348338014
 10
-11.7090922924
 20
12.7392888664
 10
-11.7124649408
 20
12.7438053724
 10
-11.7157893601
 20
12.7483817978
 10
-11.7190635275
 20
12.7530166209
 10
-11.7222855428
 20
12.7577088525
 10
-11.7254539979
 20
12.7624596328
 10
-11.7285676075
 20
12.7672706343
 10
-11.7316250862
 20
12.7721435296
 10
-11.7346251489
 20
12.7770799912
 10
-11.7375665101
 20
12.7820816917
 10
-11.7404478848
 20
12.7871503036
  0
LWPOLYLINE
  5
2B2
100
AcDbEntity
  8
0
100
AcDbPolyline
 62
253
  6
CONTINUOUS
 90
57
 70
0
 10
-10.2125483679
 20
13.0051720845
 10
-10.227542101
 20
13.0140826067
 10
-10.2424917516
 20
13.0234728632
 10
-10.2574266154
 20
13.0333575639
 10
-10.2723759882
 20
13.0437514189
 10
-10.287363628
 20
13.0546675758
 10
-10.3023911405
 20
13.0661129341
 10
-10.3174545937
 20
13.0780928312
 10
-10.3325500555
 20
13.0906126044
 10
-10.3476695672
 20
13.1036737036
 10
-10.362789063
 20
13.1172620292
 10
-10.3778804505
 20
13.131359594
 10
-10.3929156373
 20
13.1459484112
 10
-10.407869123
 20
13.1610126869
 10
-10.4227257756
 20
13.1765454015
 10
-10.4374730549
 20
13.1925417283
 10
-10.4520984209
 20
13.2089968411
 10
-10.4665874856
 20
13.2259035718
 10
-10.4809184693
 20
13.2432453863
 10
-10.4950677442
 20
13.2610034087
 10
-10.5090116827
 20
13.2791587634
 10
-10.5227294765
 20
13.2976970196
 10
-10.5362115948
 20
13.3166215269
 10
-10.5494513263
 20
13.33594008
 10
-10.5624419594
 20
13.3556604736
 10
-10.5751714207
 20
13.3757821917
 10
-10.5876061872
 20
13.3962714754
 10
-10.5997073737
 20
13.4170862555
 10
-10.6114360952
 20
13.4381844624
 10
-10.622756992
 20
13.4595206558
 10
-10.6336488072
 20
13.4810359111
 10
-10.6440938094
 20
13.5026679327
 10
-10.6540742673
 20
13.5243544251
 10
-10.6635776225
 20
13.5460441965
 10
-10.672612009
 20
13.5677304707
 10
-10.6811907339
 20
13.5894175755
 10
-10.6893271042
 20
13.6111098384
 10
-10.6970322551
 20
13.6328094459
 10
-10.7043086352
 20
13.6545100187
 10
-10.7111565214
 20
13.676203036
 10
-10.7175761904
 20
13.6978799773
 10
-10.7235666793
 20
13.719527183
 10
-10.7291220664
 20
13.7411104384
 10
-10.7342351902
 20
13.7625903898
 10
-10.7388988891
 20
13.7839276836
 10
-10.7431072624
 20
13.8050810553
 10
-10.7468594519
 20
13.8260015971
 10
-10.75015586
 20
13.8466384904
 10
-10.7529968894
 20
13.8669409165
 10
-10.7553847007
 20
13.8868686016
 10
-10.7573284875
 20
13.9064234509
 10
-10.7588392014
 20
13.9256179143
 10
-10.7599277941
 20
13.9444644418
 10
-10.7606031168
 20
13.962978809
 10
-10.7608656187
 20
13.9811900936
 10
-10.7607136485
 20
13.9991306992
 10
-10.7601455548
 20
14.0168330293
  0
LWPOLYLINE
  5
2B3
100
AcDbEntity
  8
0
100
AcDbPolyline
 62
253
  6
CONTINUOUS
 90
55
 70
0
 10
-10.2293164949
 20
12.5106739566
 10
-10.2238381361
 20
12.5074056465
 10
-10.2184181353
 20
12.5039629
 10
-10.2130426965
 20
12.5003410773
 10
-10.2076980238
 20
12.4965355388
 10
-10.202370321
 20
12.4925416446
 10
-10.1970486087
 20
12.4883555239
 10
-10.1917331728
 20
12.4839763811
 10
-10.1864271159
 20
12.4794041893
 10
-10.1811335403
 20
12.4746389219
 10
-10.1758555485
 20
12.469680552
 10
-10.1705971255
 20
12.4645298756
 10
-10.1653657865
 20
12.4591909791
 10
-10.1601699293
 20
12.4536687716
 10
-10.1550179516
 20
12.4479681622
 10
-10.1499182511
 20
12.4420940599
 10
-10.1457158341
 20
12.4370720743
 10
-10.1415684574
 20
12.43194838
 10
-10.1374890257
 20
12.4267383405
 10
-10.1334872108
 20
12.4214529746
 10
-10.1295597527
 20
12.4160859217
 10
-10.1257001585
 20
12.4106264768
 10
-10.1219041467
 20
12.4050668006
 10
-10.1181762827
 20
12.3994105177
 10
-10.1145233433
 20
12.3936641187
 10
-10.1109521056
 20
12.3878340942
 10
-10.1074693463
 20
12.3819269345
 10
-10.1040818425
 20
12.3759491304
 10
-10.1007955474
 20
12.3699073669
 10
-10.09761312
 20
12.3638091079
 10
-10.0945363955
 20
12.3576620116
 10
-10.0915672094
 20
12.3514737365
 10
-10.0887073969
 20
12.345251941
 10
-10.0859587933
 20
12.3390042834
 10
-10.0833221121
 20
12.3327352254
 10
-10.0807935788
 20
12.3264364411
 10
-10.078368297
 20
12.320096408
 10
-10.0760436623
 20
12.3137097456
 10
-10.0738262374
 20
12.307295642
 10
-10.0717248768
 20
12.300879427
 10
-10.0693663553
 20
12.2932077677
 10
-10.0671876519
 20
12.2855828381
 10
-10.0651887015
 20
12.278017933
 10
-10.0633694392
 20
12.2705263471
 10
-10.0617297998
 20
12.2631213752
 10
-10.060269287
 20
12.2558141619
 10
-10.058985679
 20
12.2486072524
 10
-10.057876323
 20
12.2415010414
 10
-10.0569385661
 20
12.2344959241
 10
-10.0561697551
 20
12.2275922955
 10
-10.0555682345
 20
12.2207880146
 10
-10.0551363374
 20
12.2140707971
 10
-10.0548773939
 20
12.2074258229
 10
-10.0547947346
 20
12.2008382717
 10
-10.0548916898
 20
12.1942933233
  0
LWPOLYLINE
  5
2B4
100
AcDbEntity
  8
0
100
AcDbPolyline
 62
253
  6
CONTINUOUS
 90
55
 70
0
 10
-12.1271396461
 20
14.586608118
 10
-12.1326097173
 20
14.5898725635
 10
-12.1380196445
 20
14.5933122812
 10
-12.143383323
 20
14.596932008
 10
-12.148714648
 20
14.6007364804
 10
-12.1540275149
 20
14.6047304351
 10
-12.1593329632
 20
14.6089178197
 10
-12.1646306087
 20
14.6132994256
 10
-12.1699172112
 20
14.617875255
 10
-12.1751895307
 20
14.6226453101
 10
-12.1804443272
 20
14.6276095932
 10
-12.1856775084
 20
14.6327673126
 10
-12.190881574
 20
14.6381145008
 10
-12.1960481716
 20
14.643646396
 10
-12.2011689485
 20
14.6493582369
 10
-12.2062355524
 20
14.6552452619
 10
-12.2104090034
 20
14.6602794425
 10
-12.2145263347
 20
14.6654168593
 10
-12.2185748473
 20
14.6706423994
 10
-12.2225450208
 20
14.6759452838
 10
-12.2264400498
 20
14.6813320672
 10
-12.230266308
 20
14.6868136382
 10
-12.2340279491
 20
14.6923979766
 10
-12.2377202478
 20
14.6980814276
 10
-12.2413362592
 20
14.7038574278
 10
-12.2448690382
 20
14.7097194137
 10
-12.24831164
 20
14.7156608219
 10
-12.2516571195
 20
14.7216750891
 10
-12.2548993922
 20
14.7277554741
 10
-12.2580358147
 20
14.7338945246
 10
-12.2610646041
 20
14.740084611
 10
-12.2639839775
 20
14.7463181033
 10
-12.2667921519
 20
14.7525873716
 10
-12.2694873445
 20
14.758884786
 10
-12.2720688628
 20
14.765205934
 10
-12.2745403765
 20
14.7715592713
 10
-12.2769066458
 20
14.7779564712
 10
-12.2791701836
 20
14.7844029627
 10
-12.2813245137
 20
14.7908791986
 10
-12.283360913
 20
14.7973593879
 10
-12.285639197
 20
14.8051096872
 10
-12.2877353628
 20
14.8128149798
 10
-12.2896496742
 20
14.8204617054
 10
-12.2913823952
 20
14.8280363038
 10
-12.2929337896
 20
14.8355252147
 10
-12.2943045338
 20
14.8429170773
 10
-12.2954969532
 20
14.8502093287
 10
-12.2965137858
 20
14.8574016052
 10
-12.2973577694
 20
14.8644935434
 10
-12.2980316419
 20
14.8714847796
 10
-12.2985370808
 20
14.8783775296
 10
-12.2988715223
 20
14.8851843258
 10
-12.2990313423
 20
14.89192028
 10
-12.2990129167
 20
14.898600504
 10
-12.2988126212
 20
14.9052401095
  0
LWPOLYLINE
  5
2B5
100
AcDbEntity
  8
0
100
AcDbPolyline
 62
253
  6
CONTINUOUS
 90
55
 70
0
 10
-9.0189982464
 20
12.792006228
 10
-9.0244784208
 20
12.7952770181
 10
-9.0298980889
 20
12.79872385
 10
-9.0352711017
 20
12.8023513693
 10
-9.04061131
 20
12.8061642213
 10
-9.0459325649
 20
12.8101670513
 10
-9.0512458788
 20
12.8143637335
 10
-9.0565509117
 20
12.8187550566
 10
-9.0618444849
 20
12.823341038
 10
-9.06712342
 20
12.8281216954
 10
-9.0723845384
 20
12.8330970461
 10
-9.0776237916
 20
12.8382662951
 10
-9.0828336503
 20
12.843625398
 10
-9.0880057149
 20
12.8491694977
 10
-9.0931315861
 20
12.8548937372
 10
-9.0982028643
 20
12.8607932595
 10
-9.1023798461
 20
12.8658378374
 10
-9.106500298
 20
12.8709854564
 10
-9.1105514346
 20
12.8762208064
 10
-9.1145236653
 20
12.8815329316
 10
-9.1184201771
 20
12.8869282947
 10
-9.1222473514
 20
12.8924177127
 10
-9.1260093661
 20
12.8980091105
 10
-9.1297015833
 20
12.903698843
 10
-9.1333171613
 20
12.9094803731
 10
-9.1368492586
 20
12.9153471635
 10
-9.1402910334
 20
12.9212926769
 10
-9.1436356442
 20
12.927310376
 10
-9.1468770925
 20
12.9333935358
 10
-9.1500127528
 20
12.9395346799
 10
-9.1530408428
 20
12.945726144
 10
-9.1559595804
 20
12.9519602639
 10
-9.1587671833
 20
12.9582293753
 10
-9.1614618692
 20
12.9645258141
 10
-9.164042944
 20
12.9708451339
 10
-9.1665140664
 20
12.9771957613
 10
-9.1688799833
 20
12.9835893405
 10
-9.1711432048
 20
12.9900313052
 10
-9.1732972933
 20
12.9965022452
 10
-9.1753335746
 20
13.0029765397
 10
-9.1776119309
 20
13.0107191812
 10
-9.1797083897
 20
13.0184162933
 10
-9.1816231869
 20
13.0260544101
 10
-9.1833565584
 20
13.0336200661
 10
-9.18490874
 20
13.0410997955
 10
-9.1862803783
 20
13.0484823139
 10
-9.1874737617
 20
13.0557650625
 10
-9.1884915892
 20
13.0629476639
 10
-9.1893365599
 20
13.0700297405
 10
-9.1900113729
 20
13.0770109149
 10
-9.1905176744
 20
13.0838933713
 10
-9.1908528999
 20
13.0906895397
 10
-9.1910134321
 20
13.0974144119
 10
-9.1909956536
 20
13.1040829796
 10
-9.1907959473
 20
13.1107102346
  0
LWPOLYLINE
  5
2B6
100
AcDbEntity
  8
0
100
AcDbPolyline
 62
253
  6
CONTINUOUS
 90
55
 70
0
 10
-11.3508201719
 20
14.5782003279
 10
-11.3453414415
 20
14.5749291836
 10
-11.3399242183
 20
14.5714802698
 10
-11.334554712
 20
14.567849082
 10
-11.3292191324
 20
14.5640311159
 10
-11.3239036891
 20
14.5600218669
 10
-11.3185974126
 20
14.5558175892
 10
-11.3133006165
 20
14.5514175718
 10
-11.3080164352
 20
14.5468218625
 10
-11.3027480029
 20
14.542030509
 10
-11.2974984541
 20
14.5370435588
 10
-11.2922717868
 20
14.5318618744
 10
-11.2870754544
 20
14.5264895767
 10
-11.2819177739
 20
14.520931601
 10
-11.2768070625
 20
14.5151928829
 10
-11.2717516374
 20
14.5092783578
 10
-11.2675883299
 20
14.5042209392
 10
-11.2634818888
 20
14.4990602472
 10
-11.2594450112
 20
14.4938116693
 10
-11.2554872142
 20
14.4884862336
 10
-11.2516052932
 20
14.483077531
 10
-11.2477928636
 20
14.4775747933
 10
-11.2440457335
 20
14.4719701439
 10
-11.2403684822
 20
14.4662672743
 10
-11.2367678821
 20
14.4604727676
 10
-11.2332507054
 20
14.4545932071
 10
-11.2298237242
 20
14.4486351761
 10
-11.226493711
 20
14.4426052578
 10
-11.2232666022
 20
14.4365102132
 10
-11.2201449916
 20
14.4303575142
 10
-11.217130637
 20
14.4241548104
 10
-11.2142252966
 20
14.4179097515
 10
-11.2114307283
 20
14.4116299872
 10
-11.20874869
 20
14.4053231671
 10
-11.2061798578
 20
14.3989937259
 10
-11.2037205797
 20
14.3926332394
 10
-11.2013661218
 20
14.3862300683
 10
-11.1991139771
 20
14.3797787931
 10
-11.1969705467
 20
14.3732988737
 10
-11.1949444585
 20
14.3668159899
 10
-11.1926776655
 20
14.3590636249
 10
-11.1905920162
 20
14.3513574535
 10
-11.1886872572
 20
14.3437109595
 10
-11.1869631352
 20
14.3361376265
 10
-11.1854193968
 20
14.3286509381
 10
-11.1840553827
 20
14.3212621834
 10
-11.18286881
 20
14.3139738735
 10
-11.1818569899
 20
14.3067863247
 10
-11.1810172336
 20
14.2996998535
 10
-11.1803468524
 20
14.2927147764
 10
-11.1798442059
 20
14.285828878
 10
-11.1795118487
 20
14.2790298164
 10
-11.1793533836
 20
14.2723027178
 10
-11.1793724136
 20
14.2656327086
 10
-11.1795725417
 20
14.259004915
  0
LWPOLYLINE
  5
2B7
100
AcDbEntity
  8
0
100
AcDbPolyline
 62
253
  6
CONTINUOUS
 90
53
 70
0
 10
-8.2423544852
 20
12.7834111987
 10
-8.23688591
 20
12.7801456488
 10
-8.2314787901
 20
12.7767017921
 10
-8.2261193946
 20
12.7730752042
 10
-8.2207939922
 20
12.7692614605
 10
-8.2154888518
 20
12.7652561364
 10
-8.2101930528
 20
12.761055563
 10
-8.204906917
 20
12.7566590939
 10
-8.1996335768
 20
12.7520668383
 10
-8.1943761645
 20
12.7472789054
 10
-8.1891378124
 20
12.7422954045
 10
-8.1839225061
 20
12.7371172505
 10
-8.1787376429
 20
12.7317485821
 10
-8.1735914734
 20
12.7261943436
 10
-8.1684922482
 20
12.7204594793
 10
-8.1634482177
 20
12.7145489336
 10
-8.1592942808
 20
12.7094949232
 10
-8.1551970192
 20
12.7043376761
 10
-8.1511690489
 20
12.6990925232
 10
-8.1472198241
 20
12.6937704518
 10
-8.1433461521
 20
12.6883650753
 10
-8.1395416784
 20
12.6828656639
 10
-8.1350624812
 20
12.6761321286
 10
-8.1306854598
 20
12.6692591443
 10
-8.1264222949
 20
12.6622581234
 10
-8.1222846673
 20
12.6551404782
 10
-8.1182842578
 20
12.6479176211
 10
-8.1144313066
 20
12.6406012508
 10
-8.1107302914
 20
12.6332042117
 10
-8.1071842492
 20
12.6257396345
 10
-8.1037962168
 20
12.6182206498
 10
-8.1005692314
 20
12.6106603886
 10
-8.0980042145
 20
12.6043349098
 10
-8.0955484499
 20
12.5979782634
 10
-8.0931972427
 20
12.5915788276
 10
-8.0909481201
 20
12.5851311972
 10
-8.0888074967
 20
12.5786548337
 10
-8.0867840095
 20
12.5721754149
 10
-8.0845200778
 20
12.5644270843
 10
-8.0824370191
 20
12.5567248033
 10
-8.0805345937
 20
12.5490820444
 10
-8.0788125617
 20
12.5415122806
 10
-8.0772706834
 20
12.5340289844
 10
-8.0759083124
 20
12.5266434306
 10
-8.0747231771
 20
12.5193581017
 10
-8.0737125993
 20
12.512173282
 10
-8.0728739009
 20
12.5050892559
 10
-8.0722044037
 20
12.4981063078
 10
-8.0717024761
 20
12.4912222087
 10
-8.0713706716
 20
12.484424676
 10
-8.07121259
 20
12.4776989139
 10
-8.0712318314
 20
12.4710301265
 10
-8.0714319955
 20
12.4644035177
  0
LWPOLYLINE
  5
2B8
100
AcDbEntity
  8
ASSI
100
AcDbPolyline
 62
253
  6
CONTINUOUS
 90
49
 70
0
 10
13.6792619432
 20
-2.2372804514
 10
13.6673906339
 20
-2.243221871
 10
13.655182372
 20
-2.2489410511
 10
13.642649656
 20
-2.2544321366
 10
13.6298053166
 20
-2.2596895058
 10
13.6166625035
 20
-2.2647077764
 10
13.603234672
 20
-2.2694818108
 10
13.5895355692
 20
-2.2740067215
 10
13.5755792197
 20
-2.2782778759
 10
13.5613799118
 20
-2.2822909015
 10
13.5469521824
 20
-2.2860416897
 10
13.5323108022
 20
-2.2895264005
 10
13.5174707606
 20
-2.2927414665
 10
13.5024472505
 20
-2.2956835962
 10
13.4872556526
 20
-2.2983497774
 10
13.4719115197
 20
-2.3007372806
 10
13.4564305606
 20
-2.3028436615
 10
13.4408286244
 20
-2.3046667637
 10
13.425121684
 20
-2.3062047208
 10
13.4093258196
 20
-2.3074559581
 10
13.3934572027
 20
-2.3084191947
 10
13.3775320792
 20
-2.3090934446
 10
13.3615667528
 20
-2.3094780173
 10
13.3455775683
 20
-2.3095725193
 10
13.3295808952
 20
-2.3093768536
 10
13.3135931103
 20
-2.3088912208
 10
13.2976305816
 20
-2.3081161178
 10
13.281709651
 20
-2.3070523384
 10
13.2658466181
 20
-2.3057009714
 10
13.2500577229
 20
-2.3040634005
 10
13.2343591297
 20
-2.3021413022
 10
13.2187669104
 20
-2.2999366441
 10
13.2032970279
 20
-2.2974516835
 10
13.1879653197
 20
-2.2946889643
 10
13.1727874822
 20
-2.291651315
 10
13.157779054
 20
-2.2883418453
 10
13.1429554003
 20
-2.2847639435
 10
13.1283316973
 20
-2.2809212725
 10
13.1139229162
 20
-2.2768177664
 10
13.0997438084
 20
-2.2724576261
 10
13.0858088901
 20
-2.2678453156
 10
13.0721324276
 20
-2.2629855567
 10
13.0587284223
 20
-2.2578833249
 10
13.0456105971
 20
-2.2525438435
 10
13.0327923816
 20
-2.246972579
 10
13.0202868987
 20
-2.2411752351
 10
13.0081069513
 20
-2.2351577471
 10
12.9962650088
 20
-2.2289262754
 10
12.9847731948
 20
-2.2224871997
  0
LINE
  5
2B9
100
AcDbEntity
  8
ASSI
100
AcDbLine
 62
7
  6
CONTINUOUS
 10
14.5386912803
 20
11.1861471079
 11
13.8659844595
 21
11.0562646242
  0
LWPOLYLINE
  5
2BA
100
AcDbEntity
  8
0
100
AcDbPolyline
 62
253
  6
CONTINUOUS
 90
55
 70
0
 10
-10.1252721498
 20
14.8673755528
 10
-10.1197940823
 20
14.8643207379
 10
-10.1143557951
 20
14.8615029487
 10
-10.1089437442
 20
14.8589109928
 10
-10.1035443858
 20
14.8565336777
 10
-10.098144176
 20
14.8543598111
 10
-10.0927323325
 20
14.8523806703
 10
-10.0873091197
 20
14.8505974127
 10
-10.0818775638
 20
14.8490136653
 10
-10.0764406907
 20
14.8476330553
 10
-10.0710015266
 20
14.8464592099
 10
-10.0655639769
 20
14.8454959555
 10
-10.0601354643
 20
14.8447479163
 10
-10.054724291
 20
14.8442199158
 10
-10.0493387592
 20
14.8439167775
 10
-10.0439871711
 20
14.8438433248
 10
-10.0395608692
 20
14.8439605508
 10
-10.0351773269
 20
14.8442404359
 10
-10.0308499662
 20
14.8446827855
 10
-10.0265887898
 20
14.8452879742
 10
-10.0223901234
 20
14.8460586532
 10
-10.0182468729
 20
14.8469980429
 10
-10.0141543172
 20
14.8481090773
 10
-10.0101172257
 20
14.8493935444
 10
-10.0061427406
 20
14.8508529457
 10
-10.002238004
 20
14.8524887829
 10
-9.9984101579
 20
14.8543025574
 10
-9.9946663446
 20
14.8562957709
 10
-9.9910129159
 20
14.8584687886
 10
-9.9874530624
 20
14.8608174309
 10
-9.9839891846
 20
14.8633363819
 10
-9.9806236829
 20
14.8660203255
 10
-9.9773589578
 20
14.8688639459
 10
-9.9741974097
 20
14.8718619271
 10
-9.9711400964
 20
14.8750108096
 10
-9.9681827049
 20
14.8783145598
 10
-9.9653195799
 20
14.8817790008
 10
-9.9625478001
 20
14.8854065041
 10
-9.9598753815
 20
14.8891856362
 10
-9.9573130743
 20
14.8931015123
 10
-9.9543958764
 20
14.8979621806
 10
-9.9516538189
 20
14.9029850413
 10
-9.9490880017
 20
14.9081568097
 10
-9.9466995242
 20
14.9134642009
 10
-9.9444894862
 20
14.9188939302
 10
-9.9424583832
 20
14.9244343618
 10
-9.940604295
 20
14.9300804561
 10
-9.9389246969
 20
14.9358288228
 10
-9.9374170647
 20
14.9416760715
 10
-9.9360788737
 20
14.9476188116
 10
-9.9349083359
 20
14.9536572996
 10
-9.9339066072
 20
14.9598063798
 10
-9.9330755801
 20
14.9660845432
 10
-9.9324171468
 20
14.9725102808
 10
-9.9319331997
 20
14.9791020838
  0
LINE
  5
2BB
100
AcDbEntity
  8
0
100
AcDbLine
 62
253
  6
CONTINUOUS
 10
-12.1082049758
 20
15.0155048214
 11
-11.3508201719
 21
14.5782003279
  0
LINE
  5
2BC
100
AcDbEntity
  8
0
100
AcDbLine
 62
253
  6
CONTINUOUS
 10
-9.0000635761
 20
13.2209029314
 11
-8.2423544852
 21
12.7834111987
  0
LWPOLYLINE
  5
2BD
100
AcDbEntity
  8
0
100
AcDbPolyline
 62
253
  6
CONTINUOUS
 90
36
 70
0
 10
-10.9788841348
 20
14.9365549597
 10
-10.9829508967
 20
14.9389673858
 10
-10.9869956105
 20
14.941494064
 10
-10.9910193375
 20
14.9441330942
 10
-10.9950231389
 20
14.9468825761
 10
-10.9990080759
 20
14.9497406097
 10
-11.0029752096
 20
14.9527052947
 10
-11.0069256013
 20
14.9557747311
 10
-11.0108596887
 20
14.9589467572
 10
-11.0147754156
 20
14.9622181653
 10
-11.0186701025
 20
14.9655854864
 10
-11.0225410699
 20
14.9690452513
 10
-11.026385638
 20
14.9725939909
 10
-11.0302011275
 20
14.9762282362
 10
-11.0339848586
 20
14.979944518
 10
-11.0377344395
 20
14.9837397277
 10
-11.0414486287
 20
14.9876121982
 10
-11.0451264725
 20
14.9915606228
 10
-11.0487670172
 20
14.9955836952
 10
-11.0523693089
 20
14.9996801085
 10
-11.0559323939
 20
15.0038485563
 10
-11.0594553186
 20
15.0080877319
 10
-11.0629369451
 20
15.0123962912
 10
-11.0663754002
 20
15.0167727401
 10
-11.0697686268
 20
15.021215547
 10
-11.0731145676
 20
15.0257231801
 10
-11.0764111655
 20
15.0302941079
 10
-11.0796563633
 20
15.0349267987
 10
-11.0828481039
 20
15.0396197209
 10
-11.0859844361
 20
15.0443718872
 10
-11.0890638338
 20
15.0491844884
 10
-11.0920848766
 20
15.0540592593
 10
-11.0950461446
 20
15.0589979352
 10
-11.0979462176
 20
15.0640022511
 10
-11.1007836754
 20
15.069073942
 10
-11.1035570978
 20
15.074214743
  0
LWPOLYLINE
  5
2BE
100
AcDbEntity
  8
0
100
AcDbPolyline
 62
253
  6
CONTINUOUS
 90
36
 70
0
 10
-9.316588879
 20
13.9767665124
 10
-9.3206514261
 20
13.979176239
 10
-9.3246921162
 20
13.9816998137
 10
-9.3287119932
 20
13.9843353536
 10
-9.3327121012
 20
13.9870809756
 10
-9.3366934842
 20
13.9899347966
 10
-9.3406571862
 20
13.9928949337
 10
-9.3446042512
 20
13.9959595037
 10
-9.3485351098
 20
13.9991263766
 10
-9.3524477382
 20
14.0023924338
 10
-9.3563394994
 20
14.0057543097
 10
-9.3602077562
 20
14.0092086388
 10
-9.3640498714
 20
14.0127520556
 10
-9.3678632079
 20
14.0163811943
 10
-9.3716451285
 20
14.0200926896
 10
-9.3753932638
 20
14.0238835185
 10
-9.3791063148
 20
14.02775203
 10
-9.3827832505
 20
14.0316969155
 10
-9.3864230396
 20
14.0357168667
 10
-9.390024651
 20
14.0398105753
 10
-9.3935870536
 20
14.0439767328
 10
-9.3971092161
 20
14.0482140308
 10
-9.400589929
 20
14.0525211276
 10
-9.4040272688
 20
14.0568965474
 10
-9.4074191339
 20
14.0613387813
 10
-9.4107634224
 20
14.0658463203
 10
-9.4140580325
 20
14.0704176553
 10
-9.4173008624
 20
14.0750512773
 10
-9.4204898103
 20
14.0797456772
 10
-9.4236228761
 20
14.0844998918
 10
-9.4266984661
 20
14.0893151405
 10
-9.4297150884
 20
14.0941931889
 10
-9.4326712511
 20
14.099135802
 10
-9.4355654621
 20
14.1041447453
 10
-9.4383962295
 20
14.1092217841
 10
-9.4411620613
 20
14.1143686837
  0
LWPOLYLINE
  5
2BF
100
AcDbEntity
  8
0
100
AcDbPolyline
 62
253
  6
CONTINUOUS
 90
57
 70
0
 10
-10.1524087493
 20
14.3674092575
 10
-10.1374462923
 20
14.358512698
 10
-10.1225337933
 20
14.3491315783
 10
-10.1076420404
 20
14.3392511967
 10
-10.0927418218
 20
14.3288568518
 10
-10.0778094165
 20
14.3179353533
 10
-10.0628430676
 20
14.3064795572
 10
-10.0478465091
 20
14.2944838307
 10
-10.032823475
 20
14.281942541
 10
-10.0177817689
 20
14.2688540355
 10
-10.0027454729
 20
14.2552325814
 10
-9.9877427387
 20
14.2410964262
 10
-9.9728017181
 20
14.2264638172
 10
-9.9579479443
 20
14.2113508131
 10
-9.9431964772
 20
14.1957647188
 10
-9.9285597582
 20
14.1797106505
 10
-9.9140502286
 20
14.1631937245
 10
-9.8996821209
 20
14.1462213829
 10
-9.8854768316
 20
14.1288103722
 10
-9.8714575482
 20
14.1109797648
 10
-9.8576474584
 20
14.092748633
 10
-9.8440669756
 20
14.0741316348
 10
-9.8307254168
 20
14.0551257709
 10
-9.8176293251
 20
14.0357236272
 10
-9.8047852435
 20
14.0159177901
 10
-9.7922049755
 20
13.9957091471
 10
-9.779921367
 20
13.9751317923
 10
-9.7679725246
 20
13.9542281211
 10
-9.7563965547
 20
13.933040529
 10
-9.7452280277
 20
13.9116147708
 10
-9.7344873702
 20
13.8900100381
 10
-9.7241914729
 20
13.8682888819
 10
-9.7143572262
 20
13.8465138531
 10
-9.7049964654
 20
13.8247364238
 10
-9.6961008048
 20
13.8029637509
 10
-9.6876568034
 20
13.7811919123
 10
-9.6796510201
 20
13.7594169862
 10
-9.6720721564
 20
13.7376371555
 10
-9.664917484
 20
13.7158590233
 10
-9.6581864172
 20
13.6940912978
 10
-9.6518783702
 20
13.6723426869
 10
-9.6459939951
 20
13.6506270637
 10
-9.6405388953
 20
13.6289789602
 10
-9.6355199121
 20
13.6074380732
 10
-9.6309438866
 20
13.5860440996
 10
-9.6268164289
 20
13.5648386532
 10
-9.6231382239
 20
13.543871016
 10
-9.6199087254
 20
13.5231923869
 10
-9.6171273868
 20
13.5028539648
 10
-9.6147919438
 20
13.4828962826
 10
-9.6128932589
 20
13.4633172088
 10
-9.6114204766
 20
13.4441039462
 10
-9.6103627411
 20
13.4252436972
 10
-9.6097112859
 20
13.4067204039
 10
-9.6094656994
 20
13.3885049657
 10
-9.6096276592
 20
13.3705650214
 10
-9.6101988426
 20
13.35286821
  0
LWPOLYLINE
  5
2C0
100
AcDbEntity
  8
0
100
AcDbPolyline
 62
253
  6
CONTINUOUS
 90
55
 70
0
 10
-10.0392229627
 20
16.2094038091
 10
-10.0447086666
 20
16.2124611973
 10
-10.0501574933
 20
16.2152796084
 10
-10.0555829479
 20
16.2178702782
 10
-10.060998536
 20
16.2202444429
 10
-10.0664177628
 20
16.2224133383
 10
-10.0718513823
 20
16.2243857208
 10
-10.0772991434
 20
16.2261604275
 10
-10.0827580434
 20
16.2277338158
 10
-10.0882250799
 20
16.2291022433
 10
-10.0936972503
 20
16.2302620672
 10
-10.0991706559
 20
16.2312094474
 10
-10.104637814
 20
16.2319397521
 10
-10.1100903455
 20
16.2324481522
 10
-10.1155198716
 20
16.2327298183
 10
-10.1209180132
 20
16.2327799211
 10
-10.125384984
 20
16.2326418141
 10
-10.1298107239
 20
16.2323398315
 10
-10.1341816156
 20
16.2318742592
 10
-10.1384875077
 20
16.2312447928
 10
-10.1427321126
 20
16.2304487671
 10
-10.1469226089
 20
16.2294829266
 10
-10.1510637814
 20
16.2283443184
 10
-10.1551508403
 20
16.2270312002
 10
-10.1591766022
 20
16.2255421324
 10
-10.1631338836
 20
16.2238756755
 10
-10.167015501
 20
16.22203039
 10
-10.170814271
 20
16.2200048361
 10
-10.1745237896
 20
16.2177987192
 10
-10.1781407705
 20
16.2154163239
 10
-10.1816627066
 20
16.2128630795
 10
-10.1850870913
 20
16.2101444157
 10
-10.1884114175
 20
16.2072657617
 10
-10.1916331784
 20
16.2042325471
 10
-10.1947512432
 20
16.2010483176
 10
-10.1977699851
 20
16.1977090836
 10
-10.2006951535
 20
16.194208972
 10
-10.2035297062
 20
16.1905455918
 10
-10.2062654334
 20
16.1867304805
 10
-10.2088913341
 20
16.1827786581
 10
-10.2118849104
 20
16.1778750588
 10
-10.2147032224
 20
16.1728095687
 10
-10.2173449983
 20
16.1675955326
 10
-10.219808966
 20
16.1622462952
 10
-10.2220938535
 20
16.1567752014
 10
-10.224199016
 20
16.151193936
 10
-10.2261263178
 20
16.1455075451
 10
-10.2278782503
 20
16.1397194148
 10
-10.2294573049
 20
16.1338329313
 10
-10.2308659732
 20
16.1278514807
 10
-10.2321060406
 20
16.1217747934
 10
-10.2331764689
 20
16.1155879767
 10
-10.2340755137
 20
16.1092724823
 10
-10.2348014308
 20
16.1028097615
 10
-10.235352476
 20
16.096181266
  0
LWPOLYLINE
  5
2C1
100
AcDbEntity
  8
ASSI
100
AcDbPolyline
 62
253
  6
CONTINUOUS
 90
52
 70
0
 10
14.39936976
 20
-26.8526175848
 10
14.4009657644
 20
-26.8625783067
 10
14.4028183282
 20
-26.8723346412
 10
14.4049274515
 20
-26.8818865883
 10
14.4072950496
 20
-26.8912409516
 10
14.4099192072
 20
-26.9003909274
 10
14.4127941781
 20
-26.9093161049
 10
14.4159204785
 20
-26.9180157972
 10
14.4192975923
 20
-26.9264906911
 10
14.4229182242
 20
-26.9347224366
 10
14.4267828901
 20
-26.9427104804
 10
14.4308910741
 20
-26.9504553758
 10
14.4352339335
 20
-26.9579404327
 10
14.4398119799
 20
-26.9651651037
 10
14.4446247017
 20
-26.9721299362
 10
14.4496617211
 20
-26.9788198826
 10
14.4549235227
 20
-26.9852343485
 10
14.4604096219
 20
-26.9913739283
 10
14.4661081874
 20
-26.9972253577
 10
14.4720196803
 20
-27.0027880157
 10
14.4781436396
 20
-27.0080625234
 10
14.4844668509
 20
-27.0130374802
 10
14.4909897397
 20
-27.0177122359
 10
14.4977118806
 20
-27.0220874407
 10
14.5046187833
 20
-27.0261536445
 10
14.5117108554
 20
-27.0299101843
 10
14.5189876892
 20
-27.0333577231
 10
14.5264335713
 20
-27.0364887997
 10
14.5340488586
 20
-27.039302727
 10
14.5418331941
 20
-27.041800192
 10
14.549769794
 20
-27.0439757951
 10
14.5578589941
 20
-27.0458288431
 10
14.5661004585
 20
-27.0473600292
 10
14.5744763955
 20
-27.0485660328
 10
14.5829870963
 20
-27.0494461504
 10
14.5916322695
 20
-27.0500010855
 10
14.60039325
 20
-27.0502296285
 10
14.6092702908
 20
-27.0501310723
 10
14.6182631387
 20
-27.049706124
 10
14.6273523692
 20
-27.0489556946
 10
14.636538176
 20
-27.0478790844
 10
14.6458203653
 20
-27.0464769932
 10
14.6551789311
 20
-27.0447524319
 10
14.6646140704
 20
-27.0427046929
 10
14.6741255862
 20
-27.0403344838
 10
14.6836928821
 20
-27.0376469382
 10
14.693316354
 20
-27.0346412345
 10
14.702995606
 20
-27.0313181943
 10
14.7127088545
 20
-27.0276854156
 10
14.722448838
 20
-27.0237454311
 10
14.732222818
 20
-27.0194957082
 10
14.7420307943
 20
-27.0149362469
  0
LWPOLYLINE
  5
2C2
100
AcDbEntity
  8
ASSI
100
AcDbPolyline
 62
253
  6
CONTINUOUS
 90
25
 70
0
 10
13.708768216
 20
-26.9041969629
 10
13.7119025869
 20
-26.9240696315
 10
13.7155469302
 20
-26.9435545555
 10
13.7196986628
 20
-26.9626377314
 10
13.7243548896
 20
-26.9813054269
 10
13.729512261
 20
-26.9995442591
 10
13.7351669904
 20
-27.0173411906
 10
13.7413151381
 20
-27.0346835341
 10
13.7479523148
 20
-27.0515587307
 10
13.755073542
 20
-27.0679544275
 10
13.7626737713
 20
-27.0838588234
 10
13.7707476309
 20
-27.099260562
 10
13.7792891457
 20
-27.1141484946
 10
13.7882923085
 20
-27.1285119833
 10
13.7977507233
 20
-27.1423407059
 10
13.8076573467
 20
-27.1556245533
 10
13.8180051873
 20
-27.1683540287
 10
13.8287869113
 20
-27.1805200218
 10
13.8399944924
 20
-27.1921136072
 10
13.8516200203
 20
-27.2031265171
 10
13.8636552536
 20
-27.2135508833
 10
13.8760912251
 20
-27.223379012
 10
13.8889191402
 20
-27.2326039069
 10
13.9021299179
 20
-27.2412190073
 10
13.9106421477
 20
-27.2463289393
  0
LINE
  5
2C3
100
AcDbEntity
  8
ASSI
100
AcDbLine
 62
7
  6
CONTINUOUS
 10
11.4190016385
 20
12.9874168082
 11
11.4402069277
 21
12.3709443108
  0
LWPOLYLINE
  5
2C4
100
AcDbEntity
  8
ASSI
100
AcDbPolyline
 62
253
  6
CONTINUOUS
 90
22
 70
0
 10
12.9847731948
 20
-17.7354224587
 10
12.9938303213
 20
-18.1875564651
 10
13.0054349348
 20
-18.6382466405
 10
13.0195866026
 20
-19.0874755513
 10
13.0362848214
 20
-19.5352258279
 10
13.0555289432
 20
-19.981480149
 10
13.0773181762
 20
-20.4262212424
 10
13.1016517174
 20
-20.8694319215
 10
13.1285286485
 20
-21.3110950419
 10
13.1579478625
 20
-21.7511934863
 10
13.1899082707
 20
-22.1897102445
 10
13.2244086704
 20
-22.6266283682
 10
13.2614476417
 20
-23.0619309272
 10
13.3010238124
 20
-23.4956011122
 10
13.3431356944
 20
-23.9276221576
 10
13.3877815534
 20
-24.3579772956
 10
13.4349597317
 20
-24.7866499055
 10
13.4846684583
 20
-25.2136234288
 10
13.5369056867
 20
-25.6388812908
 10
13.5916694031
 20
-26.0624070423
 10
13.648957626
 20
-26.4841843604
 10
13.708768216
 20
-26.9041969629
  0
LWPOLYLINE
  5
2C5
100
AcDbEntity
  8
ASSI
100
AcDbPolyline
 62
253
  6
CONTINUOUS
 90
23
 70
0
 10
12.9188403388
 20
-9.6896909271
 10
12.9189574809
 20
-9.697217083
 10
12.919319209
 20
-9.7045917292
 10
12.9199250221
 20
-9.7118046555
 10
12.9207740816
 20
-9.7188458756
 10
12.9218652118
 20
-9.7257056409
 10
12.9231969022
 20
-9.7323744541
 10
12.924767309
 20
-9.738843082
 10
12.9265742579
 20
-9.7451025688
 10
12.9286152473
 20
-9.7511442483
 10
12.9308874513
 20
-9.7569597558
 10
12.9333877241
 20
-9.7625410395
 10
12.936112604
 20
-9.7678803723
 10
12.9390583184
 20
-9.7729703618
 10
12.9422207891
 20
-9.7778039609
 10
12.9455956374
 20
-9.7823744774
 10
12.949178191
 20
-9.7866755834
 10
12.9529634897
 20
-9.7907013241
 10
12.9569462927
 20
-9.7944461258
 10
12.961121086
 20
-9.7979048038
 10
12.9654820894
 20
-9.8010725695
 10
12.9700232651
 20
-9.8039450372
 10
12.9705663587
 20
-9.8042618
  0
LINE
  5
2C6
100
AcDbEntity
  8
ASSI
100
AcDbLine
 62
253
  6
CONTINUOUS
 10
12.9596418278
 20
-16.0975879213
 11
12.9847731948
 21
-17.7354224587
  0
LINE
  5
2C7
100
AcDbEntity
  8
ASSI
100
AcDbLine
 62
253
  6
CONTINUOUS
 10
12.9404988377
 20
-14.4564481104
 11
12.9596418278
 21
-16.0975879213
  0
LINE
  5
2C8
100
AcDbEntity
  8
ASSI
100
AcDbLine
 62
253
  6
CONTINUOUS
 10
12.9273440694
 20
-12.8120220162
 11
12.9404988377
 21
-14.4564481104
  0
LWPOLYLINE
  5
2C9
100
AcDbEntity
  8
ASSI
100
AcDbPolyline
 62
253
  6
CONTINUOUS
 90
3
 70
0
 10
12.9188384414
 20
-10.3392220702
 10
12.9201766955
 20
-11.1643046193
 10
12.9273440694
 20
-12.8120220162
  0
LINE
  5
2CA
100
AcDbEntity
  8
ASSI
100
AcDbLine
 62
253
  6
CONTINUOUS
 10
11.2387503891
 20
12.5731966494
 11
11.2387503891
 21
12.5103786608
  0
LINE
  5
2CB
100
AcDbEntity
  8
ASSI
100
AcDbLine
 62
253
  6
CONTINUOUS
 10
12.9230119152
 20
-8.035848312
 11
12.9188384414
 21
-9.6896898316
  0
LINE
  5
2CC
100
AcDbEntity
  8
ASSI
100
AcDbLine
 62
253
  6
CONTINUOUS
 10
12.9331730308
 20
-6.3788317495
 11
12.9230119152
 21
-8.035848312
  0
LINE
  5
2CD
100
AcDbEntity
  8
ASSI
100
AcDbLine
 62
253
  6
CONTINUOUS
 10
12.9493217397
 20
-4.7186595563
 11
12.9331730308
 21
-6.3788317495
  0
LWPOLYLINE
  5
2CE
100
AcDbEntity
  8
ASSI
100
AcDbPolyline
 62
253
  6
CONTINUOUS
 90
43
 70
0
 10
12.9188403388
 20
-10.3392231657
 10
12.9189574809
 20
-10.3315617375
 10
12.9193192089
 20
-10.3237693773
 10
12.919925022
 20
-10.3158568737
 10
12.9207740813
 20
-10.3078351815
 10
12.9218652114
 20
-10.2997154069
 10
12.9231969016
 20
-10.2915087917
 10
12.9247673082
 20
-10.2832266979
 10
12.9265742569
 20
-10.2748805923
 10
12.928615246
 20
-10.2664820299
 10
12.9308874498
 20
-10.2580426387
 10
12.9333877223
 20
-10.249574103
 10
12.9361126019
 20
-10.2410881476
 10
12.9390583161
 20
-10.2325965213
 10
12.9422207864
 20
-10.2241109807
 10
12.9455956345
 20
-10.2156432743
 10
12.9491781877
 20
-10.2072051254
 10
12.9529634862
 20
-10.1988082169
 10
12.956946289
 20
-10.1904641742
 10
12.961121082
 20
-10.1821845497
 10
12.9654820851
 20
-10.1739808066
 10
12.9700232607
 20
-10.165864303
 10
12.9747383212
 20
-10.1578462762
 10
12.9796207388
 20
-10.1499378273
 10
12.9846637538
 20
-10.1421499055
 10
12.9898603839
 20
-10.1344932933
 10
12.9952034345
 20
-10.1269785912
 10
13.0006855082
 20
-10.1196162034
 10
13.0062990148
 20
-10.1124163231
 10
13.0120361826
 20
-10.1053889186
 10
13.0178890684
 20
-10.0985437194
 10
13.0238495688
 20
-10.0918902027
 10
13.0299094315
 20
-10.0854375803
 10
13.0360602666
 20
-10.079194786
 10
13.0422935583
 20
-10.0731704628
 10
13.0486006764
 20
-10.0673729514
 10
13.0549728889
 20
-10.0618102787
 10
13.0614013732
 20
-10.056490146
 10
13.0678772292
 20
-10.0514199192
 10
13.074391491
 20
-10.046606618
 10
13.0809351396
 20
-10.0420569065
 10
13.0874991153
 20
-10.0377770836
 10
13.0940743302
 20
-10.033773075
  0
LWPOLYLINE
  5
2CF
100
AcDbEntity
  8
ASSI
100
AcDbPolyline
 62
253
  6
CONTINUOUS
 90
3
 70
0
 10
12.9847731948
 20
-2.2224871997
 10
12.9714589879
 20
-3.0553276324
 10
12.9493217397
 20
-4.7186595563
  0
LWPOLYLINE
  5
2D0
100
AcDbEntity
  8
ASSI
100
AcDbPolyline
 62
253
  6
CONTINUOUS
 90
22
 70
0
 10
13.708768216
 20
7.7262206867
 10
13.648957626
 20
7.2417765852
 10
13.5916694031
 20
6.7582847026
 10
13.5369056867
 20
6.2757637915
 10
13.4846684583
 20
5.7942326118
 10
13.4349597317
 20
5.3137097896
 10
13.3877815534
 20
4.8342138163
 10
13.3431356944
 20
4.355763273
 10
13.3010238124
 20
3.878376717
 10
13.2614476417
 20
3.402072541
 10
13.2244086704
 20
2.9268692061
 10
13.1899082707
 20
2.452785129
 10
13.1579478625
 20
1.9798385698
 10
13.1285286485
 20
1.5080478428
 10
13.1016517174
 20
1.0374312385
 10
13.0773181762
 20
0.568006911
 10
13.0555289432
 20
0.0997930422
 10
13.0362848214
 20
-0.3671922311
 10
13.0195866026
 20
-0.8329308948
 10
13.0054349348
 20
-1.2974049373
 10
12.9938303213
 20
-1.76059635
 10
12.9847731948
 20
-2.2224871997
  0
LWPOLYLINE
  5
2D1
100
AcDbEntity
  8
ASSI
100
AcDbPolyline
 62
253
  6
CONTINUOUS
 90
49
 70
0
 10
14.7420307943
 20
8.1873903938
 10
14.7412235719
 20
8.2004899147
 10
14.7400529101
 20
8.2138010066
 10
14.7385200594
 20
8.2273094486
 10
14.7366266577
 20
8.2410008092
 10
14.7343747275
 20
8.2548604615
 10
14.7317666748
 20
8.2688735987
 10
14.7288052858
 20
8.28302525
 10
14.7254937242
 20
8.2973002968
 10
14.721835528
 20
8.3116834884
 10
14.7178346053
 20
8.3261594588
 10
14.7134952304
 20
8.3407127428
 10
14.7088220393
 20
8.3553277925
 10
14.7038200244
 20
8.3699889943
 10
14.6984945297
 20
8.3846806849
 10
14.6928512444
 20
8.3993871688
 10
14.6868961977
 20
8.4140927344
 10
14.6806357514
 20
8.4287816713
 10
14.6740765938
 20
8.4434382868
 10
14.6672257322
 20
8.4580469226
 10
14.6600904858
 20
8.4725919718
 10
14.6526784774
 20
8.4870578954
 10
14.6449976254
 20
8.501429239
 10
14.6370561356
 20
8.515690649
 10
14.6288624921
 20
8.5298268895
 10
14.6204254487
 20
8.5438228583
 10
14.6117540188
 20
8.557663603
 10
14.6028574664
 20
8.5713343369
 10
14.5937452961
 20
8.5848204551
 10
14.5844272427
 20
8.59810755
 10
14.574913261
 20
8.6111814263
 10
14.5652135153
 20
8.6240281169
 10
14.5553383679
 20
8.6366338971
 10
14.5452983691
 20
8.6489852997
 10
14.5351042447
 20
8.6610691293
 10
14.5247668857
 20
8.6728724762
 10
14.5142973357
 20
8.6843827305
 10
14.5037067798
 20
8.6955875954
 10
14.4930065323
 20
8.7064751003
 10
14.4822080246
 20
8.7170336137
 10
14.4713227931
 20
8.7272518556
 10
14.460362467
 20
8.7371189093
 10
14.4493387556
 20
8.7466242336
 10
14.4382634359
 20
8.7557576736
 10
14.42714834
 20
8.7645094717
 10
14.4160053427
 20
8.772870278
 10
14.4048463484
 20
8.7808311604
 10
14.3936832787
 20
8.788383614
 10
14.3825280595
 20
8.7955195702
  0
LWPOLYLINE
  5
2D2
100
AcDbEntity
  8
ASSI
100
AcDbPolyline
 62
253
  6
CONTINUOUS
 90
43
 70
0
 10
13.6133916905
 20
-10.3443422481
 10
13.6132128956
 20
-10.336670118
 10
13.6127959841
 20
-10.3288611238
 10
13.6121415386
 20
-10.320926183
 10
13.6112504742
 20
-10.3128763889
 10
13.6101240367
 20
-10.3047229956
 10
13.6087638008
 20
-10.2964774019
 10
13.6071716682
 20
-10.2881511356
 10
13.6053498648
 20
-10.2797558371
 10
13.6033009377
 20
-10.2713032436
 10
13.6010277511
 20
-10.2628051722
 10
13.5985334833
 20
-10.2542735035
 10
13.5958216214
 20
-10.2457201653
 10
13.5928959565
 20
-10.2371571156
 10
13.5897605791
 20
-10.2285963259
 10
13.5864198724
 20
-10.2200497646
 10
13.5828785069
 20
-10.2115293803
 10
13.5791414338
 20
-10.2030470848
 10
13.5752138775
 20
-10.1946147368
 10
13.571101329
 20
-10.1862441251
 10
13.5668095378
 20
-10.1779469523
 10
13.5623445042
 20
-10.1697348182
 10
13.5577124703
 20
-10.1616192037
 10
13.5529199121
 20
-10.153611455
 10
13.5479735297
 20
-10.1457227671
 10
13.5428802385
 20
-10.1379641689
 10
13.537647159
 20
-10.1303465072
 10
13.5322816075
 20
-10.1228804319
 10
13.5267910853
 20
-10.115576381
 10
13.5211832682
 20
-10.1084445658
 10
13.5154659964
 20
-10.101494957
 10
13.5096472628
 20
-10.0947372704
 10
13.5037352024
 20
-10.0881809536
 10
13.4977380804
 20
-10.0818351727
 10
13.4916642812
 20
-10.0757087993
 10
13.4855222962
 20
-10.0698103983
 10
13.4793207121
 20
-10.0641482162
 10
13.4730681992
 20
-10.0587301687
 10
13.4667734986
 20
-10.0535638307
 10
13.4604454108
 20
-10.0486564249
 10
13.4540927826
 20
-10.0440148121
 10
13.4477244954
 20
-10.0396454814
 10
13.4413494523
 20
-10.0355545414
  0
LWPOLYLINE
  5
2D3
100
AcDbEntity
  8
ASSI
100
AcDbPolyline
 62
253
  6
CONTINUOUS
 90
22
 70
0
 10
13.6792619432
 20
-17.7347027752
 10
13.6882713016
 20
-18.1843542404
 10
13.6998134543
 20
-18.6325357345
 10
13.7138884012
 20
-19.0792472575
 10
13.7304968821
 20
-19.5245060215
 10
13.7496381572
 20
-19.9682948143
 10
13.7713100079
 20
-20.4105619996
 10
13.7955127268
 20
-20.8513073578
 10
13.8222460213
 20
-21.2905311083
 10
13.8515067949
 20
-21.728182274
 10
13.8832953401
 20
-22.1642606673
 10
13.9176113644
 20
-22.5987664758
 10
13.9544508936
 20
-23.0316492838
 10
13.9938142205
 20
-23.4629089085
 10
14.0357010524
 20
-23.8925455328
 10
14.0801065363
 20
-24.32050929
 10
14.1270309683
 20
-24.746800014
 10
14.1764740524
 20
-25.1714178709
 10
14.2284300477
 20
-25.5943134932
 10
14.2828970406
 20
-26.015470425
 10
14.3398769447
 20
-26.4349051222
 10
14.39936976
 20
-26.8526175848
  0
LINE
  5
2D4
100
AcDbEntity
  8
ASSI
100
AcDbLine
 62
253
  6
CONTINUOUS
 10
13.6541501897
 20
-16.0981569031
 11
13.6792619432
 21
-17.7347027752
  0
LINE
  5
2D5
100
AcDbEntity
  8
ASSI
100
AcDbLine
 62
253
  6
CONTINUOUS
 10
13.6350234318
 20
-14.4583177904
 11
13.6541501897
 21
-16.0981569031
  0
LINE
  5
2D6
100
AcDbEntity
  8
ASSI
100
AcDbLine
 62
253
  6
CONTINUOUS
 10
13.6218819127
 20
-12.8151879365
 11
13.6350234318
 21
-14.4583177904
  0
LWPOLYLINE
  5
2D7
100
AcDbEntity
  8
ASSI
100
AcDbPolyline
 62
253
  6
CONTINUOUS
 90
3
 70
0
 10
13.613393719
 20
-10.3443411362
 10
13.6147266046
 20
-11.1687773388
 10
13.6218819127
 20
-12.8151879365
  0
LINE
  5
2D8
100
AcDbEntity
  8
ASSI
100
AcDbLine
 62
253
  6
CONTINUOUS
 10
13.6175560025
 20
-8.0460380243
 11
13.613393719
 21
-9.6985719615
  0
LINE
  5
2D9
100
AcDbEntity
  8
ASSI
100
AcDbLine
 62
253
  6
CONTINUOUS
 10
13.6277044161
 20
-6.3903395296
 11
13.6175560025
 21
-8.0460380243
  0
LINE
  5
2DA
100
AcDbEntity
  8
ASSI
100
AcDbLine
 62
253
  6
CONTINUOUS
 10
13.6438387167
 20
-4.7314792385
 11
13.6277044161
 21
-6.3903395296
  0
LINE
  5
2DB
100
AcDbEntity
  8
ASSI
100
AcDbLine
 62
253
  6
CONTINUOUS
 10
13.6659579319
 20
-3.0694681953
 11
13.6438387167
 21
-4.7314792385
  0
LWPOLYLINE
  5
2DC
100
AcDbEntity
  8
ASSI
100
AcDbPolyline
 62
253
  6
CONTINUOUS
 90
23
 70
0
 10
13.6133916905
 20
-9.698573034
 10
13.6132128957
 20
-9.7061617655
 10
13.6127959842
 20
-9.7135922977
 10
13.6121415389
 20
-9.7208542422
 10
13.6112504747
 20
-9.7279374464
 10
13.6101240374
 20
-9.7348320078
 10
13.6087638018
 20
-9.7415282874
 10
13.6071716695
 20
-9.7480169234
 10
13.6053498665
 20
-9.7542888445
 10
13.6033009397
 20
-9.7603352822
 10
13.6010277537
 20
-9.7661477833
 10
13.5985334863
 20
-9.7717182216
 10
13.5958216248
 20
-9.7770388094
 10
13.5928959604
 20
-9.7821021082
 10
13.5897605834
 20
-9.7869010393
 10
13.5864198772
 20
-9.7914288937
 10
13.5828785123
 20
-9.795679341
 10
13.5791414395
 20
-9.799646439
 10
13.5752138837
 20
-9.8033246416
 10
13.5711013356
 20
-9.8067088063
 10
13.5668095448
 20
-9.809794202
 10
13.5623445115
 20
-9.8125765151
 10
13.5598155336
 20
-9.8139770287
  0
LWPOLYLINE
  5
2DD
100
AcDbEntity
  8
ASSI
100
AcDbPolyline
 62
253
  6
CONTINUOUS
 90
22
 70
0
 10
14.39936976
 20
7.656078894
 10
14.3398769447
 20
7.1743018879
 10
14.2828970406
 20
6.6935086632
 10
14.2284300477
 20
6.2136992199
 10
14.1764740524
 20
5.7348550414
 10
14.1270309683
 20
5.2569946442
 10
14.0801065363
 20
4.7801735781
 10
14.0357010524
 20
4.3043919954
 10
13.9938142205
 20
3.8296497437
 10
13.9544508936
 20
3.3560019154
 10
13.9176113644
 20
2.8834486428
 10
13.8832953401
 20
2.4119897936
 10
13.8515067949
 20
1.9416800627
 10
13.8222460213
 20
1.472519578
 10
13.7955127268
 20
1.0045082117
 10
13.7713100079
 20
0.5377002756
 10
13.7496381572
 20
0.0720958652
 10
13.7304968821
 20
-0.392305115
 10
13.7138884012
 20
-0.8554486393
 10
13.6998134543
 20
-1.3173166992
 10
13.6882713016
 20
-1.7779273033
 10
13.6659579319
 20
-3.0694681953
  0
LINE
  5
2DE
100
AcDbEntity
  8
ASSI
100
AcDbLine
 62
253
  6
CONTINUOUS
 10
17.2545736364
 20
-7.9453009709
 11
13.4413494523
 21
-10.0355545414
  0
LWPOLYLINE
  5
2DF
100
AcDbEntity
  8
ASSI
100
AcDbPolyline
 62
253
  6
CONTINUOUS
 90
52
 70
0
 10
13.4413494523
 20
-10.0355545414
 10
13.4357593381
 20
-10.0385279667
 10
13.4300299107
 20
-10.0413980451
 10
13.4241611702
 20
-10.0441647765
 10
13.4181474388
 20
-10.0468305407
 10
13.4119943943
 20
-10.0493929579
 10
13.40571907
 20
-10.0518448887
 10
13.399321225
 20
-10.0541859807
 10
13.3928011002
 20
-10.0564165862
 10
13.3861764522
 20
-10.0585306227
 10
13.3794470104
 20
-10.0605277649
 10
13.3726130452
 20
-10.0624083382
 10
13.3656931246
 20
-10.0641672356
 10
13.3586870263
 20
-10.0658041255
 10
13.3515949725
 20
-10.0673193395
 10
13.3444361967
 20
-10.0687087667
 10
13.3372104979
 20
-10.0699720685
 10
13.3299180771
 20
-10.0711095835
 10
13.322578771
 20
-10.0721182153
 10
13.3151924618
 20
-10.0729976114
 10
13.3077592674
 20
-10.0737481245
 10
13.3002993777
 20
-10.0743677158
 10
13.2928127149
 20
-10.0748560293
 10
13.2852993568
 20
-10.075213421
 10
13.2777797272
 20
-10.07543892
 10
13.2702538193
 20
-10.0755321676
 10
13.2627216399
 20
-10.0754935225
 10
13.2552036324
 20
-10.0753230895
 10
13.2476998235
 20
-10.07502051
 10
13.2402101864
 20
-10.0745861426
 10
13.2327550847
 20
-10.0740211681
 10
13.2253346192
 20
-10.0733252316
 10
13.217948689
 20
-10.072498688
 10
13.2106173553
 20
-10.0715437831
 10
13.203340757
 20
-10.0704601658
 10
13.1961187551
 20
-10.0692481873
 10
13.1889709938
 20
-10.0679111467
 10
13.1818976945
 20
-10.066448708
 10
13.1748986357
 20
-10.0648612073
 10
13.1679927975
 20
-10.063152952
 10
13.1611804214
 20
-10.0613236125
 10
13.1544612658
 20
-10.0593735183
 10
13.1478535861
 20
-10.0573079657
 10
13.1413576722
 20
-10.0551266323
 10
13.1349732342
 20
-10.0528298404
 10
13.1287176577
 20
-10.0504238525
 10
13.1225912095
 20
-10.0479083214
 10
13.1165936227
 20
-10.0452835943
 10
13.1107414829
 20
-10.0425569757
 10
13.1050403184
 20
-10.0397309003
 10
13.0994846008
 20
-10.0368029334
 10
13.0940743302
 20
-10.033773075
  0
LINE
  5
2E0
100
AcDbEntity
  8
ASSI
100
AcDbLine
 62
253
  6
CONTINUOUS
 10
13.613393719
 20
-9.6985719615
 11
17.4314042145
 21
-7.6800435002
  0
LINE
  5
2E1
100
AcDbEntity
  8
ASSI
100
AcDbLine
 62
7
  6
CONTINUOUS
 10
13.5597387129
 20
-9.8140176969
 11
17.3769361587
 21
-7.7959190835
  0
LINE
  5
2E2
100
AcDbEntity
  8
ASSI
100
AcDbLine
 62
7
  6
CONTINUOUS
 10
6.619095331
 20
15.7588225532
 11
5.9463885102
 21
15.6289400694
  0
LINE
  5
2E3
100
AcDbEntity
  8
ASSI
100
AcDbLine
 62
253
  6
CONTINUOUS
 10
13.708768216
 20
7.7262206867
 11
-16.9876122882
 21
25.4499260738
  0
LINE
  5
2E4
100
AcDbEntity
  8
ASSI
100
AcDbLine
 62
253
  6
CONTINUOUS
 10
14.3825280595
 20
8.7955195702
 11
-16.3369768951
 21
26.5325767251
  0
LINE
  5
2E5
100
AcDbEntity
  8
ASSI
100
AcDbLine
 62
7
  6
CONTINUOUS
 10
17.4314042145
 20
-8.2514639054
 11
17.4314042145
 21
-18.6615143288
  0
LINE
  5
2E6
100
AcDbEntity
  8
ASSI
100
AcDbLine
 62
7
  6
CONTINUOUS
 10
17.4314042145
 20
-7.6800435002
 11
17.4314042145
 21
2.7300069232
  0
LWPOLYLINE
  5
2E7
100
AcDbEntity
  8
ASSI
100
AcDbPolyline
 62
253
  6
CONTINUOUS
 90
27
 70
0
 10
14.7420307943
 20
-27.0149362469
 10
14.7412235718
 20
-27.0284833082
 10
14.7400529099
 20
-27.0417903311
 10
14.7385200592
 20
-27.0548430992
 10
14.7366266572
 20
-27.0676276677
 10
14.7343747269
 20
-27.0801303785
 10
14.7317666739
 20
-27.0923378745
 10
14.7288052847
 20
-27.1042371138
 10
14.7254937229
 20
-27.1158153842
 10
14.7218355263
 20
-27.1270603161
 10
14.7178346033
 20
-27.1379598963
 10
14.7134952281
 20
-27.1485024801
 10
14.7088220367
 20
-27.1586768047
 10
14.7038200215
 20
-27.1684720004
 10
14.6984945264
 20
-27.1778776027
 10
14.6928512409
 20
-27.1868835632
 10
14.6868961938
 20
-27.1954802606
 10
14.6806357472
 20
-27.2036585105
 10
14.6740765893
 20
-27.2114095761
 10
14.6672257275
 20
-27.2187251764
 10
14.6600904808
 20
-27.2255974959
 10
14.6526784721
 20
-27.2320191928
 10
14.6449976199
 20
-27.2379834065
 10
14.6370561299
 20
-27.2434837651
 10
14.6288624864
 20
-27.2485143925
 10
14.6204254428
 20
-27.2530699143
 10
14.6173792149
 20
-27.2545691524
  0
LINE
  5
2E8
100
AcDbEntity
  8
ASSI
100
AcDbLine
 62
253
  6
CONTINUOUS
 10
17.4314042145
 20
-8.2514639054
 11
13.613393719
 21
-10.3443411362
  0
LWPOLYLINE
  5
2E9
100
AcDbEntity
  8
ASSI
100
AcDbPolyline
 62
253
  6
CONTINUOUS
 90
52
 70
0
 10
13.613393719
 20
-10.3443411452
 10
13.6022282559
 20
-10.3502324761
 10
13.5907637103
 20
-10.3559268255
 10
13.5790104822
 20
-10.3614190754
 10
13.5669792867
 20
-10.3667043113
 10
13.5546809863
 20
-10.3717777676
 10
13.5421265692
 20
-10.376634823
 10
13.5293273041
 20
-10.3812711481
 10
13.5162948968
 20
-10.3856825325
 10
13.5030413234
 20
-10.3898648326
 10
13.4895786648
 20
-10.3938142805
 10
13.4759190743
 20
-10.3975273589
 10
13.4620749271
 20
-10.4010006234
 10
13.4480587948
 20
-10.4042309613
 10
13.4338833742
 20
-10.4072154899
 10
13.4195614598
 20
-10.4099514348
 10
13.4051060008
 20
-10.4124363563
 10
13.3905301434
 20
-10.4146680318
 10
13.3758471586
 20
-10.4166443527
 10
13.3610703829
 20
-10.4183635602
 10
13.3462131979
 20
-10.4198241374
 10
13.3312890706
 20
-10.4210246892
 10
13.3163115254
 20
-10.4219641602
 10
13.301294156
 20
-10.4226417343
 10
13.286250606
 20
-10.4230567303
 10
13.2711945444
 20
-10.4232088031
 10
13.2561395997
 20
-10.4230978513
 10
13.2410993723
 20
-10.4227239144
 10
13.2260874765
 20
-10.4220873556
 10
13.2111175525
 20
-10.4211887827
 10
13.196203201
 20
-10.4200289568
 10
13.1813579583
 20
-10.418608954
 10
13.1665952769
 20
-10.4169300902
 10
13.1519285374
 20
-10.4149938382
 10
13.1373710219
 20
-10.4128019706
 10
13.1229359522
 20
-10.4103565025
 10
13.1086364702
 20
-10.40765962
 10
13.09448558
 20
-10.4047137954
 10
13.0804960751
 20
-10.4015217178
 10
13.0666805798
 20
-10.3980862339
 10
13.0530516078
 20
-10.3944104663
 10
13.0396215361
 20
-10.3904977701
 10
13.0264025333
 20
-10.3863516619
 10
13.0134065348
 20
-10.38197589
 10
13.0006453843
 20
-10.3773744531
 10
12.988130802
 20
-10.3725515613
 10
12.9758742295
 20
-10.3675116415
 10
12.9638866703
 20
-10.3622592425
 10
12.9521788383
 20
-10.3567990507
 10
12.9407613049
 20
-10.3511359895
 10
12.929644478
 20
-10.3452752245
 10
12.9188384418
 20
-10.3392220706
  0
LINE
  5
2EA
100
AcDbEntity
  8
ASSI
100
AcDbLine
 62
7
  6
CONTINUOUS
 10
-12.5389843279
 20
26.2162288119
 11
-10.1566992318
 21
24.8407272545
  0
LINE
  5
2EB
100
AcDbEntity
  8
ASSI
100
AcDbLine
 62
7
  6
CONTINUOUS
 10
-4.6193883786
 20
21.6435533666
 11
-2.2371032825
 21
20.2680518092
  0
LINE
  5
2EC
100
AcDbEntity
  8
ASSI
100
AcDbLine
 62
7
  6
CONTINUOUS
 10
3.3709182488
 20
17.030050462
 11
5.7532033449
 21
15.6545489046
  0
LINE
  5
2ED
100
AcDbEntity
  8
ASSI
100
AcDbLine
 62
7
  6
CONTINUOUS
 10
11.2905141981
 20
12.4573750168
 11
13.6727992942
 21
11.0818734593
  0
LINE
  5
2EE
100
AcDbEntity
  8
ASSI
100
AcDbLine
 62
7
  6
CONTINUOUS
 10
-14.3669398025
 20
27.8758962225
 11
-12.4104968875
 21
26.7462706034
  0
LINE
  5
2EF
100
AcDbEntity
  8
ASSI
100
AcDbLine
 62
7
  6
CONTINUOUS
 10
-9.2908072457
 20
24.9450009031
 11
-4.4909009382
 21
22.1735951581
  0
LINE
  5
2F0
100
AcDbEntity
  8
ASSI
100
AcDbLine
 62
7
  6
CONTINUOUS
 10
-1.3712112964
 20
20.3723254578
 11
3.4994056892
 21
17.5600922535
  0
LINE
  5
2F1
100
AcDbEntity
  8
ASSI
100
AcDbLine
 62
7
  6
CONTINUOUS
 10
6.619095331
 20
15.7588225532
 11
11.4190016385
 21
12.9874168082
  0
LINE
  5
2F2
100
AcDbEntity
  8
ASSI
100
AcDbLine
 62
7
  6
CONTINUOUS
 10
14.5386912803
 20
11.1861471079
 11
16.4951341952
 21
10.0565214888
  0
LINE
  5
2F3
100
AcDbEntity
  8
ASSI
100
AcDbLine
 62
7
  6
CONTINUOUS
 10
16.8801083536
 20
9.4635960523
 11
17.4314042145
 21
2.7300069232
  0
LINE
  5
2F4
100
AcDbEntity
  8
ASSI
100
AcDbLine
 62
7
  6
CONTINUOUS
 10
16.8801083536
 20
-25.9887636752
 11
17.4314042145
 21
-18.6615143288
  0
LINE
  5
2F5
100
AcDbEntity
  8
ASSI
100
AcDbLine
 62
7
  6
CONTINUOUS
 10
-1.3712112964
 20
20.3723254578
 11
-2.0439181172
 21
20.242442974
  0
LWPOLYLINE
  5
2F6
100
AcDbEntity
  8
ASSI
100
AcDbPolyline
 62
253
  6
CONTINUOUS
 90
49
 70
0
 10
13.6792619432
 20
-17.7347027752
 10
13.6673906339
 20
-17.7411407928
 10
13.655182372
 20
-17.7473560626
 10
13.642649656
 20
-17.7533422214
 10
13.6298053166
 20
-17.7590931408
 10
13.6166625035
 20
-17.7646029332
 10
13.603234672
 20
-17.7698659578
 10
13.5895355692
 20
-17.7748768264
 10
13.5755792197
 20
-17.779630409
 10
13.5613799118
 20
-17.7841218391
 10
13.5469521824
 20
-17.7883465184
 10
13.5323108022
 20
-17.7923001218
 10
13.5174707606
 20
-17.7959786017
 10
13.5024472505
 20
-17.7993781922
 10
13.4872556527
 20
-17.8024954129
 10
13.4719115197
 20
-17.8053270724
 10
13.4564305606
 20
-17.8078702718
 10
13.4408286245
 20
-17.8101224073
 10
13.425121684
 20
-17.8120811734
 10
13.4093258196
 20
-17.8137445647
 10
13.3934572028
 20
-17.8151108783
 10
13.3775320793
 20
-17.8161787153
 10
13.3615667528
 20
-17.8169469825
 10
13.3455775684
 20
-17.8174148934
 10
13.3295808953
 20
-17.817581969
 10
13.3135931104
 20
-17.8174480382
 10
13.2976305817
 20
-17.8170132381
 10
13.2817096511
 20
-17.8162780139
 10
13.2658466182
 20
-17.8152431183
 10
13.250057723
 20
-17.8139096107
 10
13.2343591299
 20
-17.8122788565
 10
13.2187669106
 20
-17.810352525
 10
13.203297028
 20
-17.8081325885
 10
13.1879653199
 20
-17.8056213196
 10
13.1727874824
 20
-17.8028212893
 10
13.1577790542
 20
-17.7997353643
 10
13.1429554005
 20
-17.7963667037
 10
13.1283316974
 20
-17.7927187564
 10
13.1139229164
 20
-17.7887952571
 10
13.0997438086
 20
-17.7846002224
 10
13.0858088903
 20
-17.7801379472
 10
13.0721324278
 20
-17.7754129999
 10
13.0587284226
 20
-17.7704302176
 10
13.0456105974
 20
-17.7651947017
 10
13.0327923819
 20
-17.7597118122
 10
13.020286899
 20
-17.7539871622
 10
13.0081069516
 20
-17.7480266126
 10
12.9962650091
 20
-17.7418362655
 10
12.984773195
 20
-17.7354224586
  0
LINE
  5
2F7
100
AcDbEntity
  8
ASSI
100
AcDbLine
 62
7
  6
CONTINUOUS
 10
-9.2908072457
 20
24.9450009031
 11
-9.9635140665
 21
24.8151184193
  0
LWPOLYLINE
  5
2F8
100
AcDbEntity
  8
ASSI
100
AcDbPolyline
 62
253
  6
CONTINUOUS
 90
49
 70
0
 10
14.39936976
 20
-26.8526175848
 10
14.3876242521
 20
-26.8606881894
 10
14.3755414943
 20
-26.8685342626
 10
14.3631338629
 20
-26.8761477677
 10
14.3504140667
 20
-26.8835209062
 10
14.3373951346
 20
-26.890646126
 10
14.3240904016
 20
-26.8975161288
 10
14.3105134955
 20
-26.9041238778
 10
14.296678323
 20
-26.9104626047
 10
14.2825990553
 20
-26.9165258169
 10
14.2682901135
 20
-26.922307304
 10
14.2537661541
 20
-26.9278011439
 10
14.2390420539
 20
-26.9330017095
 10
14.2241328944
 20
-26.9379036739
 10
14.2090539469
 20
-26.942502016
 10
14.1938206566
 20
-26.9467920259
 10
14.1784486267
 20
-26.9507693094
 10
14.1629536026
 20
-26.9544297926
 10
14.1473514555
 20
-26.957769726
 10
14.1316581667
 20
-26.9607856887
 10
14.1158898104
 20
-26.9634745915
 10
14.100062538
 20
-26.9658336801
 10
14.0841925611
 20
-26.9678605382
 10
14.0682961351
 20
-26.9695530897
 10
14.0523895426
 20
-26.9709096009
 10
14.0364890764
 20
-26.9719286824
 10
14.020611023
 20
-26.9726092903
 10
14.0047716463
 20
-26.9729507275
 10
13.9889871703
 20
-26.9729526443
 10
13.9732737626
 20
-26.9726150387
 10
13.9576475185
 20
-26.9719382565
 10
13.9421244436
 20
-26.9709229909
 10
13.926720438
 20
-26.9695702819
 10
13.9114512797
 20
-26.967881515
 10
13.8963326089
 20
-26.9658584201
 10
13.8813799112
 20
-26.9635030692
 10
13.8666085026
 20
-26.960817875
 10
13.8520335132
 20
-26.9578055879
 10
13.837669872
 20
-26.9544692933
 10
13.8235322914
 20
-26.9508124086
 10
13.8096352523
 20
-26.9468386794
 10
13.7959929893
 20
-26.942552176
 10
13.782619476
 20
-26.937957289
 10
13.7695284107
 20
-26.9330587248
 10
13.7567332024
 20
-26.927861501
 10
13.7442469569
 20
-26.9223709411
 10
13.7320824638
 20
-26.9165926689
 10
13.7202521831
 20
-26.910532603
 10
13.7087682323
 20
-26.9041969507
  0
LINE
  5
2F9
100
AcDbEntity
  8
ASSI
100
AcDbLine
 62
253
  6
CONTINUOUS
 10
14.7420307943
 20
-27.0149362469
 11
16.8801083536
 21
-25.9887636752
  0
LINE
  5
2FA
100
AcDbEntity
  8
ASSI
100
AcDbLine
 62
7
  6
CONTINUOUS
 10
14.6173792149
 20
-27.2545691524
 11
16.7419132751
 21
-26.2348967974
  0
ELLIPSE
  5
2FB
100
AcDbEntity
  8
ASSI
100
AcDbEllipse
 62
7
  6
CONTINUOUS
 10
17.2545197659
 20
-8.1493952085
 30
0.0
 11
-0.1251346745
 21
0.2164781009
 31
0.0
 40
0.577507303
 41
-2.3566621664
 42
-0.7861703913
  0
ELLIPSE
  5
2FC
100
AcDbEntity
  8
ASSI
100
AcDbEllipse
 62
7
  6
CONTINUOUS
 10
16.5263977396
 20
-25.7837273106
 30
0.0
 11
-0.2149783503
 21
0.4514263066
 31
0.0
 40
0.6262155472
 41
-3.1396910161
 42
-2.3109372224
  0
ELLIPSE
  5
2FD
100
AcDbEntity
  8
0
100
AcDbEllipse
 62
253
  6
CONTINUOUS
 10
58.7360758629
 20
30.7206737125
 30
0.0
 11
126.9785990347
 21
28.1860061117
 31
0.0
 40
0.2015246598
 41
-2.181984409
 42
-2.1790468727
  0
ELLIPSE
  5
2FE
100
AcDbEntity
  8
0
100
AcDbEllipse
 62
253
  6
CONTINUOUS
 10
47.2029904559
 20
37.3797326831
 30
0.0
 11
-115.055453504
 21
134.0541312573
 31
0.0
 40
0.4100391468
 41
1.5380263896
 42
1.5409543479
  0
ELLIPSE
  5
2FF
100
AcDbEntity
  8
0
100
AcDbEllipse
 62
253
  6
CONTINUOUS
 10
47.9453463147
 20
36.9511057141
 30
0.0
 11
-114.6101086275
 21
133.8141653289
 31
0.0
 40
0.4112102578
 41
1.5333133729
 42
1.5362509091
  0
ELLIPSE
  5
300
100
AcDbEntity
  8
0
100
AcDbEllipse
 62
253
  6
CONTINUOUS
 10
47.9260676002
 20
36.9622370022
 30
0.0
 11
-114.9976351439
 21
134.0229584088
 31
0.0
 40
0.4101908956
 41
1.5515869203
 42
1.5545204887
  0
ELLIPSE
  5
301
100
AcDbEntity
  8
0
100
AcDbEllipse
 62
253
  6
CONTINUOUS
 10
59.4604932455
 20
30.3024041949
 30
0.0
 11
127.0039836579
 21
28.1682626691
 31
0.0
 40
0.2015865937
 41
-2.1867808741
 42
-2.1838391815
  0
ELLIPSE
  5
302
100
AcDbEntity
  8
0
100
AcDbEllipse
 62
253
  6
CONTINUOUS
 10
59.4735275892
 20
30.2948783282
 30
0.0
 11
127.2259433618
 21
28.0130607009
 31
0.0
 40
0.2021251212
 41
-2.204033625
 42
-2.2010991639
  0
ELLIPSE
  5
303
100
AcDbEntity
  8
0
100
AcDbEllipse
 62
253
  6
CONTINUOUS
 10
58.7521456306
 20
30.7113952301
 30
0.0
 11
127.2704062044
 21
27.9819587651
 31
0.0
 40
0.2022323502
 41
-2.1988553186
 42
-2.1959217502
  0
ELLIPSE
  5
304
100
AcDbEntity
  8
0
100
AcDbEllipse
 62
253
  6
CONTINUOUS
 10
47.2278405208
 20
37.3653845671
 30
0.0
 11
-114.5752662614
 21
133.7954050237
 31
0.0
 40
0.411302102
 41
1.5567226867
 42
1.5596638244
  0
ELLIPSE
  5
305
100
AcDbEntity
  8
ASSI
100
AcDbEllipse
 62
7
  6
CONTINUOUS
 10
-14.3365373649
 20
27.4870178302
 30
0.0
 11
-0.2807337341
 21
0.4137505634
 31
0.0
 40
0.5254492115
 41
-0.8261225424
 42
0.0012090728
  0
ELLIPSE
  5
306
100
AcDbEntity
  8
ASSI
100
AcDbEllipse
 62
7
  6
CONTINUOUS
 10
17.2545197659
 20
-7.5778504698
 30
0.0
 11
-0.1251726487
 21
0.2165441215
 31
0.0
 40
0.5771556487
 41
-3.163409671
 42
-2.3569659634
  0
ELLIPSE
  5
307
100
AcDbEntity
  8
ASSI
100
AcDbEllipse
 62
7
  6
CONTINUOUS
 10
13.8142206504
 20
11.1720862568
 30
0.0
 11
0.1999154856
 21
0.0095814127
 31
0.0
 40
0.6067642562
 41
-2.385266879
 42
-1.3380693278
  0
ELLIPSE
  5
308
100
AcDbEntity
  8
ASSI
100
AcDbEllipse
 62
7
  6
CONTINUOUS
 10
5.8946247011
 20
15.7447617021
 30
0.0
 11
0.1999154856
 21
0.0095814127
 31
0.0
 40
0.6067642562
 41
-2.385266879
 42
-1.3380693278
  0
ELLIPSE
  5
309
100
AcDbEntity
  8
ASSI
100
AcDbEllipse
 62
7
  6
CONTINUOUS
 10
-2.0956819263
 20
20.3582646067
 30
0.0
 11
0.1999154856
 21
0.0095814127
 31
0.0
 40
0.6067642562
 41
-2.385266879
 42
-1.3380693278
  0
ELLIPSE
  5
30A
100
AcDbEntity
  8
ASSI
100
AcDbEllipse
 62
7
  6
CONTINUOUS
 10
-10.0152778756
 20
24.930940052
 30
0.0
 11
0.1999154856
 21
0.0095814127
 31
0.0
 40
0.6067642562
 41
-2.385266879
 42
-1.3380693278
  0
ELLIPSE
  5
30B
100
AcDbEntity
  8
ASSI
100
AcDbEllipse
 62
7
  6
CONTINUOUS
 10
16.5263977396
 20
9.6671459043
 30
0.0
 11
-0.2810161013
 21
0.4142924366
 31
0.0
 40
0.524175859
 41
-2.3937039903
 42
-0.8247341631
  0
ELLIPSE
  5
30C
100
AcDbEntity
  8
ASSI
100
AcDbEllipse
 62
7
  6
CONTINUOUS
 10
3.5123396051
 20
17.1202632595
 30
0.0
 11
0.1999154856
 21
0.0095814127
 31
0.0
 40
0.6067642562
 41
2.850720877
 42
3.8979184282
  0
ELLIPSE
  5
30D
100
AcDbEntity
  8
ASSI
100
AcDbEllipse
 62
7
  6
CONTINUOUS
 10
11.4319355543
 20
12.5475878142
 30
0.0
 11
0.1999154856
 21
0.0095814127
 31
0.0
 40
0.6067642562
 41
2.850720877
 42
3.8979184282
  0
ELLIPSE
  5
30E
100
AcDbEntity
  8
ASSI
100
AcDbEllipse
 62
7
  6
CONTINUOUS
 10
-4.4779670224
 20
21.7337661641
 30
0.0
 11
0.1999154856
 21
0.0095814127
 31
0.0
 40
0.6067642562
 41
2.850720877
 42
3.8979184282
  0
ELLIPSE
  5
30F
100
AcDbEntity
  8
ASSI
100
AcDbEllipse
 62
7
  6
CONTINUOUS
 10
-12.3975629716
 20
26.3064416094
 30
0.0
 11
0.1999154856
 21
0.0095814127
 31
0.0
 40
0.6067642562
 41
2.850720877
 42
3.8979184282
  0
ELLIPSE
  5
310
100
AcDbEntity
  8
0
100
AcDbEllipse
 62
253
  6
CONTINUOUS
 10
56.9460569654
 20
44.4748151022
 30
0.0
 11
-63.5899357352
 21
110.2112574481
 31
0.0
 40
0.5775342425
 41
1.5297731103
 42
1.5382020567
  0
ELLIPSE
  5
311
100
AcDbEntity
  8
0
100
AcDbEllipse
 62
253
  6
CONTINUOUS
 10
56.4362564185
 20
44.7691675487
 30
0.0
 11
-63.6419108564
 21
110.2292557184
 31
0.0
 40
0.5773456408
 41
1.5336332319
 42
1.5420539335
  0
ELLIPSE
  5
312
100
AcDbEntity
  8
0
100
AcDbEllipse
 62
253
  6
CONTINUOUS
 10
56.4345673703
 20
44.770142784
 30
0.0
 11
-63.6084390228
 21
110.217662994
 31
0.0
 40
0.5774671019
 41
1.4991449667
 42
1.5075838669
  0
ELLIPSE
  5
313
100
AcDbEntity
  8
0
100
AcDbEllipse
 62
253
  6
CONTINUOUS
 10
56.9487652884
 20
44.4732513504
 30
0.0
 11
-63.6566023802
 21
110.2343461772
 31
0.0
 40
0.5772923264
 41
1.4949691815
 42
1.503403376
  0
ENDSEC
  0
SECTION
  2
OBJECTS
  0
DICTIONARY
  5
C
100
AcDbDictionary
280
0
281
1
  3
ACAD_GROUP
350
D
  3
ACAD_MLINESTYLE
350
17
  3
ACAD_LAYOUT
350
1A
  3
ACAD_PLOTSETTINGS
350
19
  3
ACAD_PLOTSTYLENAME
350
E
  0
DICTIONARY
  5
D
102
{ACAD_REACTORS
330
C
102
}
100
AcDbDictionary
280
0
281
1
  0
ACDBDICTIONARYWDFLT
  5
E
102
{ACAD_REACTORS
330
C
102
}
100
AcDbDictionary
281
1
  3
Normal
350
F
100
AcDbDictionaryWithDefault
340
F
  0
DICTIONARY
  5
17
102
{ACAD_REACTORS
330
C
102
}
100
AcDbDictionary
280
0
281
1
  3
Standard
350
18
  0
DICTIONARY
  5
19
102
{ACAD_REACTORS
330
C
102
}
100
AcDbDictionary
281
1
  0
DICTIONARY
  5
1A
102
{ACAD_REACTORS
330
C
102
}
100
AcDbDictionary
281
1
  3
Model
350
314
  3
Layout1
350
315
  0
ACDBPLACEHOLDER
  5
F
102
{ACAD_REACTORS
330
E
102
}
  0
MLINESTYLE
  5
18
102
{ACAD_REACTORS
330
17
102
}
100
AcDbMlineStyle
  2
STANDARD
 70
0
  3

 62
256
 51
90.0
 52
90.0
 71
2
 49
0.5
 62
256
  6
BYLAYER
 49
-0.5
 62
256
  6
BYLAYER
  0
LAYOUT
  5
314
102
{ACAD_REACTORS
330
1A
102
}
100
AcDbPlotSettings
  1

  2
none_device
  4
ISO_A4_(297.00_x_210.00_MM)
  6

 40
0.0
 41
0.0
 42
0.0
 43
0.0
 44
297.0
 45
210.0
 46
0.0
 47
0.0
 48
0.0
 49
0.0
140
0.0
141
0.0
142
1.0
143
1.0
 70
1024
 72
1
 73
0
 74
0
  7

 75
0
147
1.0
148
0.0
149
0.0
100
AcDbLayout
  1
Model
 70
0
 71
0
 10
0.0
 20
0.0
 11
297.0
 21
210.0
 12
0.0
 22
0.0
 32
0.0
 14
0.0
 24
0.0
 34
0.0
 15
0.0
 25
0.0
 35
0.0
146
0.0
 13
0.0
 23
0.0
 33
0.0
 16
1.0
 26
0.0
 36
0.0
 17
0.0
 27
1.0
 37
0.0
 76
0
330
219
345
0
346
0
  0
LAYOUT
  5
315
102
{ACAD_REACTORS
330
1A
102
}
100
AcDbPlotSettings
  1

  2
none_device
  4
ISO_A4_(297.00_x_210.00_MM)
  6

 40
0.0
 41
0.0
 42
0.0
 43
0.0
 44
297.0
 45
210.0
 46
0.0
 47
0.0
 48
0.0
 49
0.0
140
0.0
141
0.0
142
1.0
143
1.0
 70
0
 72
1
 73
0
 74
0
  7

 75
0
147
1.0
148
0.0
149
0.0
100
AcDbLayout
  1
Layout1
 70
0
 71
1
 10
0.0
 20
0.0
 11
297.0
 21
210.0
 12
0.0
 22
0.0
 32
0.0
 14
0.0
 24
0.0
 34
0.0
 15
0.0
 25
0.0
 35
0.0
146
0.0
 13
0.0
 23
0.0
 33
0.0
 16
1.0
 26
0.0
 36
0.0
 17
0.0
 27
1.0
 37
0.0
 76
0
330
21A
345
0
346
0
  0
ENDSEC
  0
EOF
