  0
SECTION
  2
HEADER
  9
$ACADVER
  1
AC1024
  9
$DWGCODEPAGE
  3
ANSI_1252
  9
$EXTMAX
 10
210.0
 20
297.0
 30
0.0
  9
$EXTMIN
 10
0.0
 20
0.0
 30
0.0
  9
$LIMMIN
 10
0.0
 20
0.0
  9
$LIMMAX
 10
210.0
 20
297.0
  9
$VIEWCTR
 10
105.0
 20
148.5
  9
$VIEWSIZE
 40
297.0
  9
$CLAYER
  8
0
  9
$LTSCALE
 40
19.36
  9
$CELTYPE
  6
BYLAYER
  9
$DIMSCALE
 40
1.0
  9
$DIMASZ
 40
3.0
  9
$DIMEXO
 40
0.5
  9
$DIMDLI
 40
13.376
  9
$DIMEXE
 40
1.5
  9
$DIMCEN
 40
3.168
  9
$DIMLFAC
 40
1.0
  9
$DIMBLK
  1
_FILLED
  9
$DIMALT
 70
0
  9
$DIMALTF
 40
0.0393700787
  9
$DIMTXT
 40
3.0
  9
$DIMTOL
 70
1
  9
$DIMLIM
 70
0
  9
$DIMTFAC
 40
1.0
  9
$DIMTP
 40
0.01
  9
$DIMTM
 40
0.01
  9
$DIMGAP
 40
0.625
  9
$DIMDSEP
 70
44
  9
$AUNITS
 70
0
  9
$PDMODE
 70
3
  9
$PDSIZE
 40
3.0
  9
$HANDSEED
  5
2D0
  9
$TILEMODE
 70
1
  9
$MEASUREMENT
 70
1
  9
$INSUNITS
 70
4
  0
ENDSEC
  0
SECTION
  2
CLASSES
  0
CLASS
  1
ACDBDICTIONARYWDFLT
  2
AcDbDictionaryWithDefault
  3
AutoCAD 2000
 90
0
 91
1
280
0
281
0
  0
CLASS
  1
ACDBPLACEHOLDER
  2
AcDbPlaceHolder
  3
AutoCAD 2000
 90
0
 91
1
280
0
281
0
  0
CLASS
  1
LAYOUT
  2
AcDbLayout
  3
AutoCAD 2000
 90
0
 91
0
280
0
281
0
  0
ENDSEC
  0
SECTION
  2
TABLES
  0
TABLE
  2
VPORT
  5
8
100
AcDbSymbolTable
 70
2
  0
VPORT
  5
1F4
100
AcDbSymbolTableRecord
100
AcDbViewportTableRecord
  2
*ACTIVE
 70
0
 10
0.0
 20
0.0
 11
1.0
 21
1.0
 12
105.0
 22
148.5
 13
0.0
 23
0.0
 14
1.0
 24
1.0
 15
0.0
 25
0.0
 16
0.0
 26
0.0
 36
1.0
 17
0.0
 27
0.0
 37
0.0
 40
297.0
 41
0.7070707071
 42
50.0
 43
0.0
 44
0.0
 50
0.0
 51
0.0
 71
0
 72
100
 73
1
 74
1
 75
0
 76
0
 77
0
 78
0
  0
ENDTAB
  0
TABLE
  2
LTYPE
  5
5
100
AcDbSymbolTable
 70
6
  0
LTYPE
  5
14
100
AcDbSymbolTableRecord
100
AcDbLinetypeTableRecord
  2
BYBLOCK
 70
0
  3

 72
65
 73
0
 40
0.0
  0
LTYPE
  5
15
100
AcDbSymbolTableRecord
100
AcDbLinetypeTableRecord
  2
BYLAYER
 70
0
  3

 72
65
 73
0
 40
0.0
  0
LTYPE
  5
16
100
AcDbSymbolTableRecord
100
AcDbLinetypeTableRecord
  2
CONTINUOUS
 70
64
  3
Solid line
 72
65
 73
0
 40
0.0
  0
LTYPE
  5
1F5
100
AcDbSymbolTableRecord
100
AcDbLinetypeTableRecord
  2
CENTER
 70
64
  3
____ _ ____ _ ____ _ ____ _ ____ _ ____ _ ____
 72
65
 73
4
 40
0.6
 49
0.375
 74
0
 49
-0.075
 74
0
 49
0.075
 74
0
 49
-0.075
 74
0
  0
LTYPE
  5
1F6
100
AcDbSymbolTableRecord
100
AcDbLinetypeTableRecord
  2
HIDDEN
 70
64
  3
- - - - - - - - - - - - - - - - - - - -
 72
65
 73
2
 40
0.2
 49
0.1
 74
0
 49
-0.1
 74
0
  0
LTYPE
  5
1F7
100
AcDbSymbolTableRecord
100
AcDbLinetypeTableRecord
  2
PHANTOM
 70
64
  3
_____ _ _ _____ _ _ _____ _ _ _____
 72
65
 73
6
 40
0.8
 49
0.45
 74
0
 49
-0.05
 74
0
 49
0.1
 74
0
 49
-0.05
 74
0
 49
0.1
 74
0
 49
-0.05
 74
0
  0
LTYPE
  5
1F8
100
AcDbSymbolTableRecord
100
AcDbLinetypeTableRecord
  2
DOT
 70
64
  3
. . . . . . . . . . . . . . . . . . . .
 72
65
 73
2
 40
0.2
 49
0.1
 74
0
 49
-0.1
 74
0
  0
LTYPE
  5
1F9
100
AcDbSymbolTableRecord
100
AcDbLinetypeTableRecord
  2
DASHED
 70
64
  3
- - - - - - - - - - - - - - - - - - - -
 72
65
 73
2
 40
0.2
 49
0.1
 74
0
 49
-0.1
 74
0
  0
ENDTAB
  0
TABLE
  2
LAYER
  5
2
100
AcDbSymbolTable
 70
36
  0
LAYER
  5
10
100
AcDbSymbolTableRecord
100
AcDbLayerTableRecord
  2
0
 70
0
 62
7
  6
CONTINUOUS
370
-3
390
F
  0
LAYER
  5
1FA
100
AcDbSymbolTableRecord
100
AcDbLayerTableRecord
  2
DEFAULT_1
 70
0
 62
7
  6
CENTER
370
-3
390
F
  0
LAYER
  5
1FB
100
AcDbSymbolTableRecord
100
AcDbLayerTableRecord
  2
DEFAULT_2
 70
0
 62
7
  6
HIDDEN
370
-3
390
F
  0
LAYER
  5
1FC
100
AcDbSymbolTableRecord
100
AcDbLayerTableRecord
  2
DEFAULT_3
 70
0
 62
7
  6
PHANTOM
370
-3
390
F
  0
LAYER
  5
1FD
100
AcDbSymbolTableRecord
100
AcDbLayerTableRecord
  2
ASSI
 70
0
 62
7
  6
CONTINUOUS
370
-3
390
F
  0
LAYER
  5
1FE
100
AcDbSymbolTableRecord
100
AcDbLayerTableRecord
  2
COLOR6
 70
0
 62
7
  6
CONTINUOUS
370
-3
390
F
  0
LAYER
  5
1FF
100
AcDbSymbolTableRecord
100
AcDbLayerTableRecord
  2
COLOR9
 70
0
 62
7
  6
CONTINUOUS
370
-3
390
F
  0
LAYER
  5
200
100
AcDbSymbolTableRecord
100
AcDbLayerTableRecord
  2
COORDINATE
 70
0
 62
7
  6
CONTINUOUS
370
-3
390
F
  0
LAYER
  5
201
100
AcDbSymbolTableRecord
100
AcDbLayerTableRecord
  2
COORD_ORIGINE
 70
0
 62
7
  6
CONTINUOUS
370
-3
390
F
  0
LAYER
  5
202
100
AcDbSymbolTableRecord
100
AcDbLayerTableRecord
  2
COPY_GEOMETRY
 70
0
 62
7
  6
CONTINUOUS
370
-3
390
F
  0
LAYER
  5
203
100
AcDbSymbolTableRecord
100
AcDbLayerTableRecord
  2
COPY_PUBLISH
 70
0
 62
7
  6
CONTINUOUS
370
-3
390
F
  0
LAYER
  5
204
100
AcDbSymbolTableRecord
100
AcDbLayerTableRecord
  2
COSMETIC
 70
0
 62
7
  6
CONTINUOUS
370
-3
390
F
  0
LAYER
  5
205
100
AcDbSymbolTableRecord
100
AcDbLayerTableRecord
  2
COSMETICI
 70
0
 62
7
  6
CONTINUOUS
370
-3
390
F
  0
LAYER
  5
206
100
AcDbSymbolTableRecord
100
AcDbLayerTableRecord
  2
CURVE
 70
0
 62
7
  6
CONTINUOUS
370
-3
390
F
  0
LAYER
  5
207
100
AcDbSymbolTableRecord
100
AcDbLayerTableRecord
  2
DRAFT
 70
0
 62
7
  6
CONTINUOUS
370
-3
390
F
  0
LAYER
  5
208
100
AcDbSymbolTableRecord
100
AcDbLayerTableRecord
  2
IGES
 70
0
 62
7
  6
CONTINUOUS
370
-3
390
F
  0
LAYER
  5
209
100
AcDbSymbolTableRecord
100
AcDbLayerTableRecord
  2
IGS_SCRITTE
 70
0
 62
7
  6
CONTINUOUS
370
-3
390
F
  0
LAYER
  5
20A
100
AcDbSymbolTableRecord
100
AcDbLayerTableRecord
  2
IMPORT_IGES
 70
0
 62
7
  6
CONTINUOUS
370
-3
390
F
  0
LAYER
  5
20B
100
AcDbSymbolTableRecord
100
AcDbLayerTableRecord
  2
INTFCLR_13457
 70
0
 62
7
  6
CONTINUOUS
370
-3
390
F
  0
LAYER
  5
20C
100
AcDbSymbolTableRecord
100
AcDbLayerTableRecord
  2
INTFCLR_20107
 70
0
 62
7
  6
CONTINUOUS
370
-3
390
F
  0
LAYER
  5
20D
100
AcDbSymbolTableRecord
100
AcDbLayerTableRecord
  2
INTF_11
 70
0
 62
7
  6
CONTINUOUS
370
-3
390
F
  0
LAYER
  5
20E
100
AcDbSymbolTableRecord
100
AcDbLayerTableRecord
  2
INTF_2
 70
0
 62
7
  6
CONTINUOUS
370
-3
390
F
  0
LAYER
  5
20F
100
AcDbSymbolTableRecord
100
AcDbLayerTableRecord
  2
INTF_20
 70
0
 62
7
  6
CONTINUOUS
370
-3
390
F
  0
LAYER
  5
210
100
AcDbSymbolTableRecord
100
AcDbLayerTableRecord
  2
INTF_YELLOW
 70
0
 62
7
  6
CONTINUOUS
370
-3
390
F
  0
LAYER
  5
211
100
AcDbSymbolTableRecord
100
AcDbLayerTableRecord
  2
NOTE
 70
0
 62
7
  6
CONTINUOUS
370
-3
390
F
  0
LAYER
  5
212
100
AcDbSymbolTableRecord
100
AcDbLayerTableRecord
  2
PIANI
 70
0
 62
7
  6
CONTINUOUS
370
-3
390
F
  0
LAYER
  5
213
100
AcDbSymbolTableRecord
100
AcDbLayerTableRecord
  2
PIANI_ORIGINE
 70
0
 62
7
  6
CONTINUOUS
370
-3
390
F
  0
LAYER
  5
214
100
AcDbSymbolTableRecord
100
AcDbLayerTableRecord
  2
PIANI_RIFERIMENTO
 70
0
 62
7
  6
CONTINUOUS
370
-3
390
F
  0
LAYER
  5
215
100
AcDbSymbolTableRecord
100
AcDbLayerTableRecord
  2
PUBLISH_GEOMETRY
 70
0
 62
7
  6
CONTINUOUS
370
-3
390
F
  0
LAYER
  5
216
100
AcDbSymbolTableRecord
100
AcDbLayerTableRecord
  2
PUNTI
 70
0
 62
7
  6
CONTINUOUS
370
-3
390
F
  0
LAYER
  5
217
100
AcDbSymbolTableRecord
100
AcDbLayerTableRecord
  2
RACCORDO
 70
0
 62
7
  6
CONTINUOUS
370
-3
390
F
  0
LAYER
  5
218
100
AcDbSymbolTableRecord
100
AcDbLayerTableRecord
  2
SIMBOLI
 70
0
 62
7
  6
CONTINUOUS
370
-3
390
F
  0
LAYER
  5
219
100
AcDbSymbolTableRecord
100
AcDbLayerTableRecord
  2
SMUSSO
 70
0
 62
7
  6
CONTINUOUS
370
-3
390
F
  0
LAYER
  5
21A
100
AcDbSymbolTableRecord
100
AcDbLayerTableRecord
  2
SNAPLINE
 70
0
 62
7
  6
CONTINUOUS
370
-3
390
F
  0
LAYER
  5
21B
100
AcDbSymbolTableRecord
100
AcDbLayerTableRecord
  2
SOLIDO
 70
0
 62
7
  6
CONTINUOUS
370
-3
390
F
  0
LAYER
  5
21C
100
AcDbSymbolTableRecord
100
AcDbLayerTableRecord
  2
SUPERFICI
 70
0
 62
7
  6
CONTINUOUS
370
-3
390
F
  0
LAYER
  5
21D
100
AcDbSymbolTableRecord
100
AcDbLayerTableRecord
  2
TRASH
 70
0
 62
7
  6
CONTINUOUS
370
-3
390
F
  0
LAYER
  5
21E
100
AcDbSymbolTableRecord
100
AcDbLayerTableRecord
  2
WHITE
 70
0
 62
7
  6
CONTINUOUS
370
-3
390
F
  0
LAYER
  5
21F
100
AcDbSymbolTableRecord
100
AcDbLayerTableRecord
  2
XSEC_DATUMS
 70
0
 62
7
  6
CONTINUOUS
370
-3
390
F
  0
LAYER
  5
220
100
AcDbSymbolTableRecord
100
AcDbLayerTableRecord
  2
___SHELL
 70
0
 62
7
  6
CONTINUOUS
370
-3
390
F
  0
ENDTAB
  0
TABLE
  2
STYLE
  5
3
100
AcDbSymbolTable
 70
1
  0
STYLE
  5
11
100
AcDbSymbolTableRecord
100
AcDbTextStyleTableRecord
  2
STANDARD
 70
0
 40
0.0
 41
0.8
 50
0.0
 71
0
 42
0.2
  3
txt
  4

  0
STYLE
  5
221
100
AcDbSymbolTableRecord
100
AcDbTextStyleTableRecord
  2
TEXTSTYLE_1
 70
0
 40
0.0
 41
0.8
 50
0.0
 71
0
 42
0.2
  3
gdt
  4

  0
ENDTAB
  0
TABLE
  2
VIEW
  5
6
100
AcDbSymbolTable
 70
0
  0
ENDTAB
  0
TABLE
  2
UCS
  5
7
100
AcDbSymbolTable
 70
0
  0
ENDTAB
  0
TABLE
  2
APPID
  5
9
100
AcDbSymbolTable
 70
1
  0
APPID
  5
222
100
AcDbSymbolTableRecord
100
AcDbRegAppTableRecord
  2
ACAD
 70
0
  0
ENDTAB
  0
TABLE
  2
BLOCK_RECORD
  5
1
100
AcDbSymbolTable
 70
0
  0
BLOCK_RECORD
  5
223
100
AcDbSymbolTableRecord
100
AcDbBlockTableRecord
  2
*Model_Space
  0
BLOCK_RECORD
  5
224
100
AcDbSymbolTableRecord
100
AcDbBlockTableRecord
  2
*Paper_Space
  0
BLOCK_RECORD
  5
225
100
AcDbSymbolTableRecord
100
AcDbBlockTableRecord
  2
_FILLED
  0
ENDTAB
  0
TABLE
  2
DIMSTYLE
  5
A
100
AcDbSymbolTable
 70
1
100
AcDbDimStyleTable
 71
0
  0
DIMSTYLE
105
226
100
AcDbSymbolTableRecord
100
AcDbDimStyleTableRecord
  2
STANDARD
 70
0
  3

  4

 40
1.0
 41
3.0
 42
0.5
 43
0.38
 44
1.5
 45
0.0
 46
0.0
 47
0.01
 48
0.01
140
3.0
141
0.09
142
0.0
143
25.4
144
1.0
145
0.0
146
1.0
147
0.625
 71
1
 72
0
 73
0
 74
0
 75
0
 76
0
 77
1
 78
8
 79
2
170
0
171
1
172
0
173
0
174
0
175
0
176
0
177
0
178
0
270
2
179
2
271
2
272
2
273
2
274
2
275
0
280
0
281
0
282
0
283
1
284
8
285
0
286
0
287
3
288
0
340
11
278
44
341
225
342
225
343
225
344
225
  0
ENDTAB
  0
ENDSEC
  0
SECTION
  2
BLOCKS
  0
BLOCK
  5
20
100
AcDbEntity
  8
0
100
AcDbBlockBegin
  2
*Model_Space
 70
0
 10
0.0
 20
0.0
 30
0.0
  3
*Model_Space
  1

  0
ENDBLK
  5
21
100
AcDbEntity
  8
0
100
AcDbBlockEnd
  0
BLOCK
  5
1C
100
AcDbEntity
  8
0
100
AcDbBlockBegin
  2
*Paper_Space
 70
0
 10
0.0
 20
0.0
 30
0.0
  3
*Paper_Space
  1

  0
ENDBLK
  5
1D
100
AcDbEntity
  8
0
100
AcDbBlockEnd
  0
BLOCK
  5
227
100
AcDbEntity
  8
0
100
AcDbBlockBegin
  2
_FILLED
 70
64
 10
0.0
 20
0.0
  3
_FILLED
  1

  0
SOLID
  5
228
100
AcDbEntity
  8
0
  6
BYBLOCK
 62
0
100
AcDbTrace
 10
0.0
 20
0.0
 11
-1.0
 21
0.3166666667
 12
-1.0
 22
-0.3166666667
 13
-1.0
 23
-0.3166666667
  0
ENDBLK
  5
229
100
AcDbEntity
  8
0
  6
BYBLOCK
 62
0
100
AcDbBlockEnd
  0
ENDSEC
  0
SECTION
  2
ENTITIES
  0
LWPOLYLINE
  5
22A
100
AcDbEntity
  8
0
100
AcDbPolyline
 62
7
  6
CONTINUOUS
 90
43
 70
0
 10
-9.9456915758
 20
20.8510962085
 10
-9.9617530034
 20
20.8399147129
 10
-9.9824545805
 20
20.8248139927
 10
-10.0028258283
 20
20.8091748324
 10
-10.0228793931
 20
20.7929991812
 10
-10.0426067982
 20
20.7763046729
 10
-10.0619767268
 20
20.7591296427
 10
-10.0809921887
 20
20.7414844185
 10
-10.0996550258
 20
20.7233785889
 10
-10.1179321575
 20
20.7048565994
 10
-10.1358260507
 20
20.6859295591
 10
-10.1533392852
 20
20.6666065678
 10
-10.1704397927
 20
20.6469363816
 10
-10.1871255785
 20
20.6269356849
 10
-10.2034037924
 20
20.606609172
 10
-10.2192562246
 20
20.5859928673
 10
-10.2346773095
 20
20.5651078123
 10
-10.2496768405
 20
20.5439538496
 10
-10.264257831
 20
20.5225372041
 10
-10.2784194678
 20
20.5008685206
 10
-10.2921625506
 20
20.4789547162
 10
-10.3054901161
 20
20.4567969293
 10
-10.3184000243
 20
20.4344035161
 10
-10.3308901616
 20
20.4117808622
 10
-10.3429621286
 20
20.3889271706
 10
-10.3546120994
 20
20.3658483534
 10
-10.3658351868
 20
20.3425507628
 10
-10.3766299603
 20
20.3190321411
 10
-10.3869924285
 20
20.2952920227
 10
-10.3969132072
 20
20.2713410322
 10
-10.4063817547
 20
20.2471916572
 10
-10.4153917394
 20
20.2228443189
 10
-10.4239331124
 20
20.1983075952
 10
-10.4319906217
 20
20.1736039784
 10
-10.4395557571
 20
20.1487366645
 10
-10.4466183618
 20
20.123710348
 10
-10.4531632444
 20
20.0985468583
 10
-10.4591801389
 20
20.073249715
 10
-10.4646573722
 20
20.0478226654
 10
-10.4695800161
 20
20.0222834707
 10
-10.473934913
 20
19.9966384657
 10
-10.4777091823
 20
19.9708876434
 10
-10.480165468
 20
19.9513750793
  0
LINE
  5
22B
100
AcDbEntity
  8
0
100
AcDbLine
 62
7
  6
CONTINUOUS
 10
-9.945694239
 20
20.8510944228
 11
-7.9630701506
 21
22.2029966808
  0
LINE
  5
22C
100
AcDbEntity
  8
0
100
AcDbLine
 62
250
  6
CONTINUOUS
 10
-9.6825132936
 20
20.8349836665
 11
-7.712476201
 21
22.1783031639
  0
LWPOLYLINE
  5
22D
100
AcDbEntity
  8
0
100
AcDbPolyline
 62
250
  6
CONTINUOUS
 90
27
 70
0
 10
-9.9456915899
 20
20.8510962291
 10
-9.9433037421
 20
20.8526932099
 10
-9.935418558
 20
20.8575457367
 10
-9.9272434179
 20
20.8619500386
 10
-9.9187870557
 20
20.8659014105
 10
-9.9100585056
 20
20.8693956308
 10
-9.9010670927
 20
20.8724289667
 10
-9.8918224227
 20
20.8749981773
 10
-9.8823343721
 20
20.8771005181
 10
-9.8726130774
 20
20.8787337429
 10
-9.8626689242
 20
20.879896107
 10
-9.852512536
 20
20.8805863685
 10
-9.8421547635
 20
20.8808037901
 10
-9.8316066722
 20
20.8805481393
 10
-9.8208795309
 20
20.8798196894
 10
-9.8099848
 20
20.8786192186
 10
-9.7989341185
 20
20.8769480094
 10
-9.7877392925
 20
20.8748078472
 10
-9.7764122816
 20
20.8722010184
 10
-9.764965187
 20
20.869130308
 10
-9.753410238
 20
20.8655989965
 10
-9.7417597793
 20
20.8616108566
 10
-9.7300262573
 20
20.857170149
 10
-9.7182222074
 20
20.8522816177
 10
-9.7063602404
 20
20.8469504855
 10
-9.6944530288
 20
20.8411824477
 10
-9.6825132936
 20
20.8349836665
  0
LWPOLYLINE
  5
22E
100
AcDbEntity
  8
0
100
AcDbPolyline
 62
7
  6
CONTINUOUS
 90
36
 70
0
 10
4.7266796507
 20
-23.799014623
 10
4.7352085886
 20
-23.8038576543
 10
4.7526753153
 20
-23.8132773341
 10
4.7704123821
 20
-23.8221840714
 10
4.7884118652
 20
-23.8305741555
 10
4.8066811718
 20
-23.8384498997
 10
4.8252058461
 20
-23.8458029417
 10
4.8439708293
 20
-23.8526255403
 10
4.8629841313
 20
-23.8589181761
 10
4.8822317875
 20
-23.8646728486
 10
4.9016981991
 20
-23.869881696
 10
4.9213903879
 20
-23.8745426318
 10
4.9412937254
 20
-23.8786476998
 10
4.961393171
 20
-23.8821896016
 10
4.9816964815
 20
-23.8851646541
 10
5.0021904748
 20
-23.8875649549
 10
5.0228588872
 20
-23.8893830285
 10
5.0437063217
 20
-23.8906133012
 10
5.0647201157
 20
-23.8912482322
 10
5.0858838212
 20
-23.8912806133
 10
5.1071979593
 20
-23.8907035176
 10
5.1286484729
 20
-23.8895100884
 10
5.1502210061
 20
-23.8876939029
 10
5.1719174882
 20
-23.8852469096
 10
5.1937264692
 20
-23.8821620868
 10
5.2156322758
 20
-23.8784334883
 10
5.2376326958
 20
-23.8740527989
 10
5.2597157716
 20
-23.8690132136
 10
5.281867983
 20
-23.8633089425
 10
5.3040872197
 20
-23.8569310048
 10
5.3263614319
 20
-23.8498725803
 10
5.3486792224
 20
-23.8421271354
 10
5.3710418788
 20
-23.8336831969
 10
5.3934430557
 20
-23.8245308383
 10
5.415865907
 20
-23.814664764
 10
5.4326463537
 20
-23.8068134802
  0
LINE
  5
22F
100
AcDbEntity
  8
0
100
AcDbLine
 62
7
  6
CONTINUOUS
 10
-10.1374459195
 20
-15.2166548328
 11
4.7266982872
 21
-23.7990254063
  0
LINE
  5
230
100
AcDbEntity
  8
0
100
AcDbLine
 62
250
  6
CONTINUOUS
 10
-10.3331486867
 20
-14.8780846343
 11
4.5240399189
 21
-23.4564391309
  0
LWPOLYLINE
  5
231
100
AcDbEntity
  8
0
100
AcDbPolyline
 62
250
  6
CONTINUOUS
 90
25
 70
0
 10
-10.1374459478
 20
-15.2166548165
 10
-10.1464235738
 20
-15.2112747955
 10
-10.1591807227
 20
-15.2029216146
 10
-10.1715684547
 20
-15.193950876
 10
-10.1835777174
 20
-15.1843691236
 10
-10.1951996874
 20
-15.1741833705
 10
-10.2064262895
 20
-15.1634007953
 10
-10.2172493135
 20
-15.1520292483
 10
-10.2276608179
 20
-15.1400770153
 10
-10.2376535742
 20
-15.1275525611
 10
-10.2472202807
 20
-15.1144649774
 10
-10.256353914
 20
-15.1008237796
 10
-10.2650481322
 20
-15.0866386717
 10
-10.2732965751
 20
-15.0719199551
 10
-10.2810931996
 20
-15.0566782886
 10
-10.2884326248
 20
-15.0409244777
 10
-10.2953095109
 20
-15.0246698603
 10
-10.3017187776
 20
-15.0079262561
 10
-10.3076559434
 20
-14.9907057309
 10
-10.3131166603
 20
-14.9730208197
 10
-10.3180969474
 20
-14.9548842337
 10
-10.3225933927
 20
-14.936308794
 10
-10.3266027716
 20
-14.9173078115
 10
-10.330122064
 20
-14.8978950904
 10
-10.3331486867
 20
-14.8780846343
  0
LWPOLYLINE
  5
232
100
AcDbEntity
  8
0
100
AcDbPolyline
 62
7
  6
CONTINUOUS
 90
22
 70
0
 10
-10.4801649849
 20
19.9513793293
 10
-10.53534925
 20
19.4699457164
 10
-10.5888151587
 20
18.9841135678
 10
-10.639925464
 20
18.499332943
 10
-10.6886777227
 20
18.0156248171
 10
-10.7350699906
 20
17.5330073352
 10
-10.7791004784
 20
17.0514974848
 10
-10.820767336
 20
16.5711132043
 10
-10.860068811
 20
16.0918730859
 10
-10.8970032341
 20
15.613795099
 10
-10.9315689522
 20
15.1368974075
 10
-10.9637644506
 20
14.6611987107
 10
-10.9935882622
 20
14.186717771
 10
-11.0210389791
 20
13.7134732316
 10
-11.0461154177
 20
13.2414830087
 10
-11.06881644
 20
12.7707647651
 10
-11.0891409076
 20
12.3013367738
 10
-11.1070878788
 20
11.8332164931
 10
-11.1226564817
 20
11.3664203655
 10
-11.1358458454
 20
10.9009659367
 10
-11.1466552353
 20
10.4368733033
 10
-11.1549958897
 20
9.9797734648
  0
LWPOLYLINE
  5
233
100
AcDbEntity
  8
0
100
AcDbPolyline
 62
250
  6
CONTINUOUS
 90
52
 70
0
 10
-10.3331486867
 20
19.7523330152
 10
-10.330122064
 20
19.7757629641
 10
-10.3266027716
 20
19.7993840815
 10
-10.3225933927
 20
19.8231793808
 10
-10.3180969474
 20
19.8471317145
 10
-10.3131166603
 20
19.8712239036
 10
-10.3076559434
 20
19.8954387545
 10
-10.3017187776
 20
19.9197590066
 10
-10.2953095109
 20
19.9441670562
 10
-10.2884326248
 20
19.9686450883
 10
-10.2810931996
 20
19.9931754534
 10
-10.2732965751
 20
20.0177406106
 10
-10.2650481322
 20
20.0423228544
 10
-10.256353914
 20
20.0669045891
 10
-10.2472202807
 20
20.0914681273
 10
-10.2376535742
 20
20.1159956313
 10
-10.2276608179
 20
20.1404695125
 10
-10.2172493135
 20
20.1648722101
 10
-10.2064262895
 20
20.1891859909
 10
-10.1951996874
 20
20.2133934343
 10
-10.1835777174
 20
20.2374771732
 10
-10.1715684547
 20
20.2614196738
 10
-10.1591807227
 20
20.2852037673
 10
-10.1464235738
 20
20.308812423
 10
-10.133305842
 20
20.3322284882
 10
-10.1198371335
 20
20.3554352267
 10
-10.1060273188
 20
20.378415981
 10
-10.0918860143
 20
20.4011539456
 10
-10.0774236127
 20
20.4236328243
 10
-10.0626506838
 20
20.4458365488
 10
-10.0475774641
 20
20.4677489381
 10
-10.032214997
 20
20.489354339
 10
-10.0165745421
 20
20.5106372715
 10
-10.0006669773
 20
20.5315821475
 10
-9.9845039718
 20
20.5521739972
 10
-9.968097362
 20
20.5723980966
 10
-9.9514585602
 20
20.5922396116
 10
-9.9345997681
 20
20.6116843772
 10
-9.9175333384
 20
20.6307184964
 10
-9.9002711537
 20
20.6493279707
 10
-9.8828259022
 20
20.6674994942
 10
-9.8652103408
 20
20.6852201289
 10
-9.8474366566
 20
20.702476901
 10
-9.8295178292
 20
20.7192575624
 10
-9.8114670432
 20
20.7355500868
 10
-9.7932969534
 20
20.7513423536
 10
-9.77502097
 20
20.7666230488
 10
-9.7566524074
 20
20.7813813808
 10
-9.7382038938
 20
20.7956065642
 10
-9.7196886742
 20
20.8092883787
 10
-9.7011206029
 20
20.8224171899
 10
-9.6825132936
 20
20.8349836665
  0
LINE
  5
234
100
AcDbEntity
  8
RACCORDO
100
AcDbLine
 62
7
  6
CONTINUOUS
 10
-5.720677947
 20
21.0282638151
 11
-5.9009291963
 21
20.6140436563
  0
LWPOLYLINE
  5
235
100
AcDbEntity
  8
0
100
AcDbPolyline
 62
250
  6
CONTINUOUS
 90
23
 70
0
 10
-10.4789394695
 20
-14.6830853045
 10
-10.4774180927
 20
-14.6926303965
 10
-10.4752711265
 20
-14.7029857038
 10
-10.4726204934
 20
-14.7132512656
 10
-10.4694689086
 20
-14.723416567
 10
-10.4658196001
 20
-14.7334711958
 10
-10.4616763059
 20
-14.7434048531
 10
-10.4570432699
 20
-14.7532073642
 10
-10.4519252377
 20
-14.7628686883
 10
-10.4463274515
 20
-14.7723789296
 10
-10.4402556451
 20
-14.7817283469
 10
-10.4337160378
 20
-14.7909073636
 10
-10.4267153281
 20
-14.7999065778
 10
-10.4192606865
 20
-14.8087167718
 10
-10.4113597489
 20
-14.8173289214
 10
-10.403020608
 20
-14.8257342053
 10
-10.3942518055
 20
-14.8339240141
 10
-10.3850623232
 20
-14.8418899591
 10
-10.3754615737
 20
-14.8496238809
 10
-10.3654593909
 20
-14.8571178576
 10
-10.35506602
 20
-14.8643642135
 10
-10.3442921066
 20
-14.871355526
 10
-10.3331486865
 20
-14.8780846342
  0
LWPOLYLINE
  5
236
100
AcDbEntity
  8
0
100
AcDbPolyline
 62
250
  6
CONTINUOUS
 90
25
 70
0
 10
-11.154938733
 20
-5.535916374
 10
-11.1544022097
 20
-5.5453233717
 10
-11.1533544705
 20
-5.5547100872
 10
-11.151796588
 20
-5.5640669106
 10
-11.1497301571
 20
-5.5733842626
 10
-11.1471572935
 20
-5.5826526045
 10
-11.1440806311
 20
-5.5918624475
 10
-11.1405033197
 20
-5.6010043628
 10
-11.1364290217
 20
-5.6100689911
 10
-11.1318619083
 20
-5.6190470524
 10
-11.1268066552
 20
-5.6279293551
 10
-11.1212684377
 20
-5.6367068058
 10
-11.1152529258
 20
-5.6453704182
 10
-11.108766278
 20
-5.653911323
 10
-11.1018151352
 20
-5.662320776
 10
-11.0944066137
 20
-5.6705901679
 10
-11.0865482982
 20
-5.6787110327
 10
-11.0782482339
 20
-5.6866750565
 10
-11.0695149182
 20
-5.694474086
 10
-11.0603572919
 20
-5.7021001366
 10
-11.0507847304
 20
-5.7095454011
 10
-11.0408070339
 20
-5.7168022571
 10
-11.0304344173
 20
-5.7238632753
 10
-11.0196774998
 20
-5.7307212268
 10
-11.008547294
 20
-5.7373690906
  0
LWPOLYLINE
  5
237
100
AcDbEntity
  8
0
100
AcDbPolyline
 62
250
  6
CONTINUOUS
 90
27
 70
0
 10
-11.2165071806
 20
2.4688339129
 10
-11.216242908
 20
2.4594037186
 10
-11.2155268591
 20
2.4507655017
 10
-11.2143582644
 20
2.4421421053
 10
-11.2127381824
 20
2.4335414065
 10
-11.2106680846
 20
2.424971156
 10
-11.2081498512
 20
2.4164391617
 10
-11.2051857645
 20
2.407953188
 10
-11.2017785107
 20
2.399520866
 10
-11.1979311724
 20
2.3911498527
 10
-11.1936472436
 20
2.3828477849
 10
-11.1889306306
 20
2.3746221773
 10
-11.1837856343
 20
2.3664805351
 10
-11.1782169104
 20
2.3584302396
 10
-11.1722294794
 20
2.3504785035
 10
-11.1658287584
 20
2.3426325409
 10
-11.1590205595
 20
2.3348995026
 10
-11.1518110481
 20
2.3272863622
 10
-11.1442067216
 20
2.3197999989
 10
-11.1362145073
 20
2.3124472583
 10
-11.1278417683
 20
2.3052348836
 10
-11.1190963214
 20
2.2981695817
 10
-11.1099859159
 20
2.2912575949
 10
-11.1005182729
 20
2.2845047892
 10
-11.090701739
 20
2.2779171853
 10
-11.0805453475
 20
2.271500923
 10
-11.0700582647
 20
2.2652618486
  0
LWPOLYLINE
  5
238
100
AcDbEntity
  8
0
100
AcDbPolyline
 62
7
  6
CONTINUOUS
 90
22
 70
0
 10
-11.1549934091
 20
-5.5335316534
 10
-11.1466386543
 20
-5.9809852111
 10
-11.1358198601
 20
-6.4319643425
 10
-11.1226181036
 20
-6.88140108
 10
-11.1070336799
 20
-7.329275942
 10
-11.0890670186
 20
-7.7755722195
 10
-11.0687185455
 20
-8.2202743771
 10
-11.0459887591
 20
-8.6633658535
 10
-11.0208783536
 20
-9.1048295263
 10
-10.9933880128
 20
-9.5446490129
 10
-10.9635184727
 20
-9.9828076007
 10
-10.9312706919
 20
-10.4192881315
 10
-10.8966456737
 20
-10.8540735623
 10
-10.8596444794
 20
-11.2871468043
 10
-10.8202683067
 20
-11.7184914862
 10
-10.7785183481
 20
-12.1480916485
 10
-10.7343958947
 20
-12.5759306094
 10
-10.6879023341
 20
-13.0019924628
 10
-10.6390389645
 20
-13.4262624024
 10
-10.5878072507
 20
-13.8487245089
 10
-10.5342091742
 20
-14.2693604883
 10
-10.4789406285
 20
-14.683076826
  0
LWPOLYLINE
  5
239
100
AcDbEntity
  8
0
100
AcDbPolyline
 62
250
  6
CONTINUOUS
 90
21
 70
0
 10
-11.0700602374
 20
2.2652629867
 10
-11.0699506587
 20
2.2587845739
 10
-11.0696142091
 20
2.2524474735
 10
-11.0690514287
 20
2.2462618593
 10
-11.0682632211
 20
2.2402376622
 10
-11.0672508517
 20
2.2343845539
 10
-11.0660159459
 20
2.2287119312
 10
-11.0645604862
 20
2.2232289013
 10
-11.0628868093
 20
2.2179442672
 10
-11.0609976022
 20
2.212866513
 10
-11.058895898
 20
2.2080037909
 10
-11.0565850709
 20
2.2033639078
 10
-11.0540688309
 20
2.1989543129
 10
-11.0513512177
 20
2.1947820857
 10
-11.0484365943
 20
2.1908539245
 10
-11.0453296401
 20
2.1871761358
 10
-11.042035343
 20
2.1837546242
 10
-11.0385589922
 20
2.1805948828
 10
-11.0349061685
 20
2.1777019844
 10
-11.0310827367
 20
2.1750805736
 10
-11.0286449782
 20
2.1736026056
  0
LWPOLYLINE
  5
23A
100
AcDbEntity
  8
0
100
AcDbPolyline
 62
250
  6
CONTINUOUS
 90
10
 70
0
 10
-11.008547294
 20
-5.7373690906
 10
-11.0210277215
 20
-4.9149236075
 10
-11.0320967724
 20
-4.091579765
 10
-11.041754421
 20
-3.2673409829
 10
-11.0500006955
 20
-2.4422132847
 10
-11.0568355439
 20
-1.6161975025
 10
-11.0622587869
 20
-0.7892892498
 10
-11.0662703192
 20
0.0385106725
 10
-11.0688701557
 20
0.867196249
 10
-11.0700582649
 20
1.6967640632
  0
LWPOLYLINE
  5
23B
100
AcDbEntity
  8
0
100
AcDbPolyline
 62
7
  6
CONTINUOUS
 90
30
 70
0
 10
-11.2165070922
 20
2.4688640546
 10
-11.2163828918
 20
2.4600520304
 10
-11.2158253316
 20
2.4485004635
 10
-11.2148212166
 20
2.4369786221
 10
-11.2133713245
 20
2.4254924199
 10
-11.2114723189
 20
2.4140278574
 10
-11.2091236296
 20
2.4026002366
 10
-11.2063256737
 20
2.3912260044
 10
-11.2030710597
 20
2.3798931715
 10
-11.1993584735
 20
2.3686171289
 10
-11.195187812
 20
2.3574143125
 10
-11.1905482258
 20
2.3462746994
 10
-11.1854363073
 20
2.3352115614
 10
-11.1798522113
 20
2.3242436945
 10
-11.1737855476
 20
2.3133694362
 10
-11.1672324946
 20
2.3026019853
 10
-11.160193052
 20
2.291959542
 10
-11.1526589929
 20
2.2814470756
 10
-11.1446272489
 20
2.2710782342
 10
-11.1360969756
 20
2.2608689223
 10
-11.1270601781
 20
2.2508258895
 10
-11.1175045836
 20
2.2409532887
 10
-11.1074366368
 20
2.2312751105
 10
-11.0968764963
 20
2.2218238104
 10
-11.0858197083
 20
2.2126068254
 10
-11.0742692839
 20
2.2036382024
 10
-11.0622601696
 20
2.1949531627
 10
-11.0498056295
 20
2.1865664409
 10
-11.036896456
 20
2.1784770804
 10
-11.0286449627
 20
2.1736026324
  0
LWPOLYLINE
  5
23C
100
AcDbEntity
  8
0
100
AcDbPolyline
 62
250
  6
CONTINUOUS
 90
26
 70
0
 10
-11.1549958897
 20
9.9797734628
 10
-11.1549387327
 20
9.9722887415
 10
-11.1544022094
 20
9.9632334459
 10
-11.1533544702
 20
9.9541870334
 10
-11.1517965877
 20
9.9451587652
 10
-11.1497301568
 20
9.9361578845
 10
-11.1471572932
 20
9.927193606
 10
-11.1440806308
 20
9.9182751071
 10
-11.1405033194
 20
9.9094115183
 10
-11.1364290214
 20
9.9006119141
 10
-11.131861908
 20
9.8918853031
 10
-11.1268066548
 20
9.8832406195
 10
-11.1212684374
 20
9.8746867135
 10
-11.1152529255
 20
9.8662323423
 10
-11.1087662777
 20
9.8578861612
 10
-11.1018151349
 20
9.849656715
 10
-11.0944066134
 20
9.8415524287
 10
-11.0865482979
 20
9.8335815992
 10
-11.0782482336
 20
9.8257523869
 10
-11.0695149179
 20
9.8180728071
 10
-11.0603572916
 20
9.810550722
 10
-11.0507847301
 20
9.8031938325
 10
-11.0408070336
 20
9.7960096703
 10
-11.030434417
 20
9.7890055905
 10
-11.0196774995
 20
9.7821887637
 10
-11.0085472937
 20
9.7755661686
  0
LWPOLYLINE
  5
23D
100
AcDbEntity
  8
0
100
AcDbPolyline
 62
7
  6
CONTINUOUS
 90
10
 70
0
 10
-11.21650718
 20
1.9014672089
 10
-11.2153306126
 20
1.0768965243
 10
-11.2127341319
 20
0.2467932714
 10
-11.2087214235
 20
-0.5824275
 10
-11.2032924942
 20
-1.4107619541
 10
-11.1964473601
 20
-2.2382068877
 10
-11.1881860375
 20
-3.0647592928
 10
-11.1785085485
 20
-3.8904158969
 10
-11.1674149348
 20
-4.7151728038
 10
-11.1549934094
 20
-5.5335316513
  0
LWPOLYLINE
  5
23E
100
AcDbEntity
  8
0
100
AcDbPolyline
 62
250
  6
CONTINUOUS
 90
10
 70
0
 10
-11.0700582649
 20
2.2652618479
 10
-11.0688701557
 20
3.0963029507
 10
-11.0662703192
 20
3.9282093678
 10
-11.0622587869
 20
4.7609776464
 10
-11.0568355439
 20
5.5946016198
 10
-11.0500006955
 20
6.4290805339
 10
-11.041754421
 20
7.2644190729
 10
-11.0320967724
 20
8.1006165128
 10
-11.0210277215
 20
8.9376666945
 10
-11.008547294
 20
9.7755661685
  0
LWPOLYLINE
  5
23F
100
AcDbEntity
  8
0
100
AcDbPolyline
 62
7
  6
CONTINUOUS
 90
10
 70
0
 10
-11.15499589
 20
9.9797734628
 10
-11.1674232349
 20
9.1456159231
 10
-11.1785155129
 20
8.3071633738
 10
-11.1881917944
 20
7.4695596237
 10
-11.1964520206
 20
6.6328086307
 10
-11.2032961527
 20
5.7969137053
 10
-11.2087241578
 20
4.9618778868
 10
-11.212736003
 20
4.127704409
 10
-11.2153316647
 20
3.2943971268
 10
-11.2165071806
 20
2.468833924
  0
LWPOLYLINE
  5
240
100
AcDbEntity
  8
0
100
AcDbPolyline
 62
250
  6
CONTINUOUS
 90
40
 70
0
 10
-11.0700602374
 20
1.6967652021
 10
-11.0699506587
 20
1.7033701542
 10
-11.069614209
 20
1.7100957788
 10
-11.0690514286
 20
1.7169312782
 10
-11.0682632208
 20
1.7238656783
 10
-11.0672508513
 20
1.7308878461
 10
-11.0660159452
 20
1.7379865077
 10
-11.0645604853
 20
1.7451502666
 10
-11.0628868081
 20
1.7523676215
 10
-11.0609976007
 20
1.7596269852
 10
-11.0588958963
 20
1.7669167031
 10
-11.0565850689
 20
1.7742250719
 10
-11.0540688285
 20
1.7815403581
 10
-11.051351215
 20
1.7888508173
 10
-11.0484365912
 20
1.7961447129
 10
-11.0453296366
 20
1.8034103348
 10
-11.0420353393
 20
1.8106360182
 10
-11.0385589881
 20
1.8178101627
 10
-11.0349061642
 20
1.8249212503
 10
-11.031082732
 20
1.8319578645
 10
-11.0270948301
 20
1.8389087082
 10
-11.0229488607
 20
1.8457626222
 10
-11.0186514801
 20
1.8525086026
 10
-11.0142095877
 20
1.8591358191
 10
-11.0096303146
 20
1.865633632
 10
-11.0049210128
 20
1.8719916091
 10
-11.0000892429
 20
1.8781995431
 10
-10.9951427621
 20
1.8842474672
 10
-10.9900895119
 20
1.8901256719
 10
-10.9849376049
 20
1.8958247198
 10
-10.9796953125
 20
1.9013354613
 10
-10.974371051
 20
1.9066490492
 10
-10.9689733682
 20
1.9117569526
 10
-10.9635109299
 20
1.9166509711
 10
-10.957992506
 20
1.9213232474
 10
-10.9524269559
 20
1.9257662804
 10
-10.9468232151
 20
1.929972937
 10
-10.9411902801
 20
1.9339364635
 10
-10.9355371944
 20
1.9376504967
 10
-10.9298730338
 20
1.9411090738
  0
LWPOLYLINE
  5
241
100
AcDbEntity
  8
0
100
AcDbPolyline
 62
250
  6
CONTINUOUS
 90
22
 70
0
 10
-11.008547294
 20
9.7755661685
 10
-11.0000981642
 20
10.2378080679
 10
-10.9892724726
 20
10.7014492203
 10
-10.9760706518
 20
11.1664716926
 10
-10.9604932552
 20
11.632857505
 10
-10.9425408807
 20
12.1005886169
 10
-10.9222141705
 20
12.5696469281
 10
-10.8995139475
 20
13.0400143131
 10
-10.8744411103
 20
13.5116725786
 10
-10.8469965568
 20
13.9846034498
 10
-10.8171813954
 20
14.4587886477
 10
-10.7849968092
 20
14.9342098464
 10
-10.7504439498
 20
15.4108486312
 10
-10.7135242093
 20
15.8886865966
 10
-10.6742390558
 20
16.3677052702
 10
-10.6325898963
 20
16.8478860703
 10
-10.5885784081
 20
17.3292104508
 10
-10.5422063425
 20
17.8116598193
 10
-10.4934753596
 20
18.2952154611
 10
-10.4423873442
 20
18.7798586759
 10
-10.3889444068
 20
19.2655707781
 10
-10.3331486867
 20
19.7523330152
  0
LWPOLYLINE
  5
242
100
AcDbEntity
  8
0
100
AcDbPolyline
 62
250
  6
CONTINUOUS
 90
28
 70
0
 10
-10.480165468
 20
19.9513750793
 10
-10.4805391072
 20
19.9476605206
 10
-10.4809330754
 20
19.9399472027
 10
-10.4808175774
 20
19.9321861338
 10
-10.4801927314
 20
19.9243852636
 10
-10.4790591776
 20
19.9165525823
 10
-10.4774180769
 20
19.9086961128
 10
-10.4752711103
 20
19.9008239025
 10
-10.472620477
 20
19.8929440148
 10
-10.469468892
 20
19.8850645208
 10
-10.4658195833
 20
19.8771934914
 10
-10.4616762889
 20
19.8693389889
 10
-10.4570432528
 20
19.8615090584
 10
-10.4519252204
 20
19.8537117201
 10
-10.4463274341
 20
19.8459549606
 10
-10.4402556277
 20
19.8382467252
 10
-10.4337160204
 20
19.8305949092
 10
-10.4267153106
 20
19.8230073503
 10
-10.4192606691
 20
19.8154918203
 10
-10.4113597315
 20
19.8080560173
 10
-10.4030205907
 20
19.8007075576
 10
-10.3942517883
 20
19.7934539682
 10
-10.385062306
 20
19.7863026788
 10
-10.3754615567
 20
19.7792610145
 10
-10.3654593741
 20
19.7723361878
 10
-10.3550660033
 20
19.7655352917
 10
-10.3442920902
 20
19.7588652924
 10
-10.3331486702
 20
19.7523330218
  0
LWPOLYLINE
  5
243
100
AcDbEntity
  8
0
100
AcDbPolyline
 62
7
  6
CONTINUOUS
 90
33
 70
0
 10
-10.4789394534
 20
-14.6830853023
 10
-10.4763620058
 20
-14.7006176084
 10
-10.4723461283
 20
-14.7240239381
 10
-10.4677432323
 20
-14.7470046147
 10
-10.4625691681
 20
-14.7695463974
 10
-10.4568370588
 20
-14.7916516147
 10
-10.4505558904
 20
-14.8133337959
 10
-10.4437391241
 20
-14.8345863414
 10
-10.4364006789
 20
-14.8554030259
 10
-10.4285485707
 20
-14.8757933445
 10
-10.4201971131
 20
-14.8957478432
 10
-10.4113597278
 20
-14.9152605639
 10
-10.4020418916
 20
-14.9343425621
 10
-10.3922583158
 20
-14.9529838278
 10
-10.3820224899
 20
-14.9711777601
 10
-10.3713364492
 20
-14.9889369827
 10
-10.3602142252
 20
-15.0062524134
 10
-10.348670147
 20
-15.0231155865
 10
-10.336705013
 20
-15.0395369279
 10
-10.3243332227
 20
-15.0555064555
 10
-10.3115689153
 20
-15.0710160726
 10
-10.2984105879
 20
-15.0860759424
 10
-10.2848731172
 20
-15.1006757267
 10
-10.2709702
 20
-15.1148073712
 10
-10.2566965435
 20
-15.1284814408
 10
-10.2420664092
 20
-15.1416881229
 10
-10.2270940296
 20
-15.1544185475
 10
-10.2117719333
 20
-15.1666814886
 10
-10.1961139183
 20
-15.1784668998
 10
-10.180134422
 20
-15.1897653973
 10
-10.1638248487
 20
-15.2005833461
 10
-10.1471912355
 20
-15.2109152378
 10
-10.1374215534
 20
-15.2166688788
  0
LWPOLYLINE
  5
244
100
AcDbEntity
  8
0
100
AcDbPolyline
 62
250
  6
CONTINUOUS
 90
22
 70
0
 10
-10.3331486867
 20
-14.8780846343
 10
-10.3889444068
 20
-14.4603901674
 10
-10.4423873442
 20
-14.040833069
 10
-10.4934753596
 20
-13.6194296212
 10
-10.5422063425
 20
-13.1961962213
 10
-10.5885784081
 20
-12.7711492443
 10
-10.6325898963
 20
-12.3443050416
 10
-10.6742390558
 20
-11.9156801604
 10
-10.7135242093
 20
-11.4852912326
 10
-10.7504439498
 20
-11.053154837
 10
-10.7849968092
 20
-10.6192877279
 10
-10.8171813954
 20
-10.1837067259
 10
-10.8469965568
 20
-9.7464286064
 10
-10.8744411103
 20
-9.3074703061
 10
-10.8995139475
 20
-8.8668488469
 10
-10.9222141705
 20
-8.4245812253
 10
-10.9425408807
 20
-7.9806845743
 10
-10.9604932552
 20
-7.5351760919
 10
-10.9760706518
 20
-7.0880729639
 10
-10.9892724726
 20
-6.6393924829
 10
-11.0000981642
 20
-6.1891520473
 10
-11.008547294
 20
-5.7373690906
  0
LWPOLYLINE
  5
245
100
AcDbEntity
  8
0
100
AcDbPolyline
 62
250
  6
CONTINUOUS
 90
49
 70
0
 10
5.2146414629
 20
11.103836726
 10
5.202895955
 20
11.0996635646
 10
5.1908131972
 20
11.0957109427
 10
5.1784055657
 20
11.0919829087
 10
5.1656857695
 20
11.0884832814
 10
5.1526668372
 20
11.0852156452
 10
5.1393621041
 20
11.0821833473
 10
5.1257851978
 20
11.0793894934
 10
5.1119500252
 20
11.0768369455
 10
5.0978707572
 20
11.0745283179
 10
5.0835618152
 20
11.0724659754
 10
5.0690378556
 20
11.0706520304
 10
5.0543137551
 20
11.0690883409
 10
5.0394045953
 20
11.0677765086
 10
5.0243256475
 20
11.0667178771
 10
5.0090923569
 20
11.0659135309
 10
4.9937203266
 20
11.0653642937
 10
4.9782253021
 20
11.0650707282
 10
4.9626231547
 20
11.065033135
 10
4.9469298655
 20
11.0652515527
 10
4.9311615088
 20
11.0657257576
 10
4.915334236
 20
11.0664552638
 10
4.8994642587
 20
11.0674393243
 10
4.8835678323
 20
11.068676931
 10
4.8676612393
 20
11.0701668162
 10
4.8517607726
 20
11.071907454
 10
4.8358827189
 20
11.0738970613
 10
4.8200433417
 20
11.0761336004
 10
4.8042588652
 20
11.0786147802
 10
4.7885454571
 20
11.0813380594
 10
4.7729192125
 20
11.0843006486
 10
4.7573961371
 20
11.0874995131
 10
4.741992131
 20
11.0909313766
 10
4.7267229723
 20
11.0945927237
 10
4.711604301
 20
11.0984798042
 10
4.6966516029
 20
11.1025886366
 10
4.6818801939
 20
11.1069150123
 10
4.6673052041
 20
11.1114544998
 10
4.6529415624
 20
11.1162024495
 10
4.6388039814
 20
11.121153998
 10
4.6249069419
 20
11.1263040735
 10
4.6112646785
 20
11.131647401
 10
4.5978911649
 20
11.1371785072
 10
4.5848000992
 20
11.1428917269
 10
4.5720048905
 20
11.1487812079
 10
4.5595186447
 20
11.1548409178
 10
4.5473541513
 20
11.1610646498
 10
4.5355238703
 20
11.1674460289
 10
4.5240399191
 20
11.1739785187
  0
LINE
  5
246
100
AcDbEntity
  8
0
100
AcDbLine
 62
250
  6
CONTINUOUS
 10
3.8000448977
 20
-14.2876646268
 11
-11.008547294
 21
-5.7373690906
  0
LWPOLYLINE
  5
247
100
AcDbEntity
  8
0
100
AcDbPolyline
 62
7
  6
CONTINUOUS
 90
31
 70
0
 10
-11.0491623483
 20
2.1861633374
 10
-11.0496183573
 20
2.1858703959
 10
-11.0613566718
 20
2.1779141997
 10
-11.072643997
 20
2.1697354544
 10
-11.0834787764
 20
2.1613473452
 10
-11.0938669873
 20
2.1527577838
 10
-11.1038185726
 20
2.1439699437
 10
-11.1133348153
 20
2.1349935354
 10
-11.1224169698
 20
2.1258386362
 10
-11.131071576
 20
2.1165092192
 10
-11.139297856
 20
2.1070164431
 10
-11.1470971932
 20
2.0973698543
 10
-11.1544761962
 20
2.087571679
 10
-11.1614341178
 20
2.0776327123
 10
-11.1679706747
 20
2.0675642044
 10
-11.1740903452
 20
2.0573699675
 10
-11.179792157
 20
2.0470619454
 10
-11.1850757036
 20
2.0366521738
 10
-11.1899444888
 20
2.026145682
 10
-11.1943976391
 20
2.01555651
 10
-11.1984358106
 20
2.0048964338
 10
-11.2020631421
 20
1.9941678772
 10
-11.2052797986
 20
1.9833844505
 10
-11.2080866842
 20
1.9725593499
 10
-11.2104874536
 20
1.9616947964
 10
-11.2124828969
 20
1.9508043914
 10
-11.2140747253
 20
1.9399016637
 10
-11.2152663095
 20
1.9289888503
 10
-11.2160595659
 20
1.9180756695
 10
-11.2164563974
 20
1.9071792368
 10
-11.2165071022
 20
1.9014556303
  0
LWPOLYLINE
  5
248
100
AcDbEntity
  8
0
100
AcDbPolyline
 62
250
  6
CONTINUOUS
 90
52
 70
0
 10
5.1977997624
 20
12.2432774021
 10
5.1785303099
 20
12.2310932387
 10
5.1593024634
 20
12.2183453733
 10
5.1401298367
 20
12.2050431375
 10
5.1210258223
 20
12.1911964321
 10
5.1020041269
 20
12.1768152108
 10
5.083078764
 20
12.1619094592
 10
5.064263041
 20
12.1464899728
 10
5.0455703751
 20
12.1305680619
 10
5.0270148271
 20
12.114155035
 10
5.0086096023
 20
12.0972629065
 10
4.9903676596
 20
12.0799039365
 10
4.9723025293
 20
12.0620903232
 10
4.9544269785
 20
12.0438349989
 10
4.9367536851
 20
12.0251512752
 10
4.9192958451
 20
12.0060523923
 10
4.9020658292
 20
11.9865522369
 10
4.8850758211
 20
11.9666649844
 10
4.8683384916
 20
11.9464047421
 10
4.8518656966
 20
11.925786223
 10
4.8356690858
 20
11.904824408
 10
4.819760738
 20
11.8835341917
 10
4.8041519356
 20
11.8619310412
 10
4.7888536994
 20
11.8400306226
 10
4.773877398
 20
11.8178484631
 10
4.7592336254
 20
11.7954006173
 10
4.7449327503
 20
11.7727033951
 10
4.7309854495
 20
11.7497729898
 10
4.7174016209
 20
11.7266260431
 10
4.7041908432
 20
11.7032793069
 10
4.6913629281
 20
11.6797493696
 10
4.6789269566
 20
11.6560532454
 10
4.6668917232
 20
11.6322081195
 10
4.6552661954
 20
11.6082310109
 10
4.6440586142
 20
11.5841392686
 10
4.6332768902
 20
11.5599503311
 10
4.6229290496
 20
11.5356814712
 10
4.6130224262
 20
11.5113502309
 10
4.6035640114
 20
11.4869742175
 10
4.5945608485
 20
11.4625708635
 10
4.5860193337
 20
11.4381578358
 10
4.5779454741
 20
11.4137527507
 10
4.5703452448
 20
11.3893729706
 10
4.5632240177
 20
11.365036018
 10
4.5565868409
 20
11.3407595608
 10
4.5504386932
 20
11.316561127
 10
4.5447839638
 20
11.2924582965
 10
4.5396265925
 20
11.2684683536
 10
4.5349703657
 20
11.2446082757
 10
4.5308186331
 20
11.2208951697
 10
4.5271742898
 20
11.1973462551
 10
4.5240399189
 20
11.1739785186
  0
LWPOLYLINE
  5
249
100
AcDbEntity
  8
0
100
AcDbPolyline
 62
250
  6
CONTINUOUS
 90
52
 70
0
 10
5.5573024972
 20
11.6351482258
 10
5.5474945421
 20
11.6291460306
 10
5.5377205777
 20
11.6228707023
 10
5.527980604
 20
11.6163222408
 10
5.5182673578
 20
11.6094953586
 10
5.5085881023
 20
11.6023953433
 10
5.4989646269
 20
11.5950380579
 10
5.4893973293
 20
11.5874231082
 10
5.4798858117
 20
11.5795508884
 10
5.4704506707
 20
11.5714384441
 10
5.4610921031
 20
11.5630852797
 10
5.451809912
 20
11.5544918908
 10
5.4426241033
 20
11.5456768099
 10
5.433534871
 20
11.5366395456
 10
5.4245420211
 20
11.5273805892
 10
5.4156649784
 20
11.5179199469
 10
5.406903996
 20
11.5082571844
 10
5.3982588208
 20
11.4983927359
 10
5.3897481182
 20
11.4883479109
 10
5.3813721793
 20
11.4781223195
 10
5.3731307129
 20
11.4677163516
 10
5.3650415109
 20
11.4571524866
 10
5.3571049092
 20
11.4464303934
 10
5.3493205718
 20
11.4355504032
 10
5.3417052828
 20
11.4245359894
 10
5.3342593989
 20
11.4133868493
 10
5.3269825633
 20
11.4021032856
 10
5.3198904895
 20
11.3907096806
 10
5.3129835852
 20
11.3792058103
 10
5.3062614427
 20
11.3675918987
 10
5.2997385524
 20
11.3558929997
 10
5.2934153397
 20
11.3441089214
 10
5.2872913791
 20
11.3322398557
 10
5.2813798851
 20
11.3203114331
 10
5.2756813185
 20
11.3083235288
 10
5.2701952183
 20
11.2962762676
 10
5.2649334159
 20
11.2841956541
 10
5.2598963958
 20
11.2720816156
 10
5.2550836735
 20
11.259934225
 10
5.2505056266
 20
11.2477797049
 10
5.2461627669
 20
11.235618059
 10
5.2420545827
 20
11.2234492837
 10
5.2381899168
 20
11.2112995913
 10
5.2345692849
 20
11.199168984
 10
5.2311921713
 20
11.1870574597
 10
5.228065871
 20
11.1749912242
 10
5.2251909003
 20
11.1629701448
 10
5.2225667429
 20
11.1509943542
 10
5.2201991458
 20
11.1390904566
 10
5.2180900246
 20
11.12726732
 10
5.2162374636
 20
11.1155160765
 10
5.2146414629
 20
11.103836726
  0
LINE
  5
24A
100
AcDbEntity
  8
0
100
AcDbLine
 62
250
  6
CONTINUOUS
 10
7.3104058981
 20
13.5042793208
 11
5.1977997624
 21
12.2432774021
  0
LINE
  5
24B
100
AcDbEntity
  8
0
100
AcDbLine
 62
250
  6
CONTINUOUS
 10
7.6953800565
 20
12.9113538842
 11
5.5573024972
 21
11.6351482258
  0
LWPOLYLINE
  5
24C
100
AcDbEntity
  8
0
100
AcDbPolyline
 62
250
  6
CONTINUOUS
 90
40
 70
0
 10
-6.8497965435
 20
-0.5779637941
 10
-6.8499603406
 20
-0.5713508213
 10
-6.8503512255
 20
-0.5646149914
 10
-6.8509685642
 20
-0.5577672289
 10
-6.8518113554
 20
-0.5508186397
 10
-6.8528782324
 20
-0.5437804934
 10
-6.8541674648
 20
-0.5366642048
 10
-6.8556769617
 20
-0.5294813154
 10
-6.8574042749
 20
-0.5222434748
 10
-6.859346603
 20
-0.5149624217
 10
-6.8615007957
 20
-0.5076499647
 10
-6.8638633594
 20
-0.5003179636
 10
-6.8664304623
 20
-0.4929783097
 10
-6.869197941
 20
-0.4856429069
 10
-6.872161307
 20
-0.478323652
 10
-6.8753157543
 20
-0.4710324158
 10
-6.8786561667
 20
-0.4637810234
 10
-6.8821771267
 20
-0.4565812356
 10
-6.8858729238
 20
-0.4494447293
 10
-6.889737564
 20
-0.4423830789
 10
-6.8937647795
 20
-0.4354077372
 10
-6.8979480386
 20
-0.4285300171
 10
-6.9022805568
 20
-0.4217610733
 10
-6.9067553075
 20
-0.415111884
 10
-6.9113650333
 20
-0.408593233
 10
-6.9161022578
 20
-0.4022156928
 10
-6.9209592981
 20
-0.3959896066
 10
-6.9259282768
 20
-0.3899250723
 10
-6.9310011349
 20
-0.3840319255
 10
-6.9361696451
 20
-0.378319724
 10
-6.9414254248
 20
-0.3727977322
 10
-6.94675995
 20
-0.3674749059
 10
-6.9521645688
 20
-0.3623598778
 10
-6.9576305159
 20
-0.3574609438
 10
-6.9631489263
 20
-0.3527860493
 10
-6.9687108499
 20
-0.348342776
 10
-6.9743072663
 20
-0.3441383305
 10
-6.9799290988
 20
-0.3401795315
 10
-6.9855672297
 20
-0.3364727998
 10
-6.9912125149
 20
-0.333024147
  0
LWPOLYLINE
  5
24D
100
AcDbEntity
  8
0
100
AcDbPolyline
 62
250
  6
CONTINUOUS
 90
21
 70
0
 10
-7.1313997184
 20
-0.0088702341
 10
-7.1312901251
 20
-0.0153490652
 10
-7.130953631
 20
-0.0216865695
 10
-7.1303907759
 20
-0.0278725707
 10
-7.1296024627
 20
-0.0338971373
 10
-7.128589957
 20
-0.0397505939
 10
-7.127354885
 20
-0.0454235364
 10
-7.1258992303
 20
-0.0509068547
 10
-7.1242253301
 20
-0.0561917459
 10
-7.1223358724
 20
-0.0612697232
 10
-7.1202338913
 20
-0.0661326335
 10
-7.1179227619
 20
-0.0707726685
 10
-7.1154061961
 20
-0.0751823768
 10
-7.1126882349
 20
-0.0793546782
 10
-7.1097732429
 20
-0.0832828736
 10
-7.1066659013
 20
-0.0869606555
 10
-7.1033711999
 20
-0.090382119
 10
-7.0998944293
 20
-0.0935417708
 10
-7.0962411735
 20
-0.0964345374
 10
-7.0924172994
 20
-0.0990557743
 10
-7.0899832284
 20
-0.1005313257
  0
LWPOLYLINE
  5
24E
100
AcDbEntity
  8
0
100
AcDbPolyline
 62
250
  6
CONTINUOUS
 90
21
 70
0
 10
-6.6349284237
 20
0.6455096763
 10
-6.6348315713
 20
0.6390140145
 10
-6.6345071601
 20
0.6326595035
 10
-6.6339557123
 20
0.6264563755
 10
-6.6331781159
 20
0.6204146186
 10
-6.6321756231
 20
0.6145439613
 10
-6.6309498479
 20
0.6088538564
 10
-6.6295027642
 20
0.6033534662
 10
-6.627836702
 20
0.5980516473
 10
-6.625954344
 20
0.5929569366
 10
-6.6238587211
 20
0.5880775377
 10
-6.6215532078
 20
0.5834213074
 10
-6.6190415164
 20
0.578995743
 10
-6.6163276911
 20
0.5748079706
 10
-6.6134161018
 20
0.5708647334
 10
-6.6103114366
 20
0.5671723806
 10
-6.6070186948
 20
0.5637368578
 10
-6.6035431781
 20
0.5605636967
 10
-6.599890483
 20
0.5576580068
 10
-6.596066491
 20
0.5550244667
 10
-6.5935143141
 20
0.5534735447
  0
LINE
  5
24F
100
AcDbEntity
  8
0
100
AcDbLine
 62
250
  6
CONTINUOUS
 10
-7.1310315596
 20
-0.9447358659
 11
-7.1313997184
 21
-0.5773680185
  0
LINE
  5
250
100
AcDbEntity
  8
0
100
AcDbLine
 62
250
  6
CONTINUOUS
 10
-6.8494285337
 20
-0.9451823593
 11
-6.8497965435
 21
-0.5779637941
  0
LINE
  5
251
100
AcDbEntity
  8
RACCORDO
100
AcDbLine
 62
250
  6
CONTINUOUS
 10
-5.9009291963
 20
20.6140436563
 11
-5.9009291963
 21
20.5512256677
  0
LINE
  5
252
100
AcDbEntity
  8
0
100
AcDbLine
 62
7
  6
CONTINUOUS
 10
-5.8855072433
 20
-0.0211961685
 11
-5.8855072433
 21
-0.3886295551
  0
LINE
  5
253
100
AcDbEntity
  8
DRAFT
100
AcDbLine
 62
7
  6
CONTINUOUS
 10
-5.5419063158
 20
-0.0537117339
 11
-5.5419063158
 21
-0.5984059007
  0
LINE
  5
254
100
AcDbEntity
  8
0
100
AcDbLine
 62
250
  6
CONTINUOUS
 10
-7.1313997184
 20
-0.0088702341
 11
-7.1310315596
 21
0.3589154007
  0
LINE
  5
255
100
AcDbEntity
  8
0
100
AcDbLine
 62
250
  6
CONTINUOUS
 10
-6.8497965435
 20
-0.0096934088
 11
-6.8494285338
 21
0.3579427197
  0
LWPOLYLINE
  5
256
100
AcDbEntity
  8
0
100
AcDbPolyline
 62
250
  6
CONTINUOUS
 90
29
 70
0
 10
-6.8494285295
 20
0.3579427221
 10
-6.8492936491
 20
0.3696304394
 10
-6.8488615454
 20
0.3811611181
 10
-6.8481309955
 20
0.3925240122
 10
-6.8471007305
 20
0.4037119248
 10
-6.8457701362
 20
0.41471058
 10
-6.8441401948
 20
0.4254993294
 10
-6.8422115271
 20
0.4360682822
 10
-6.8399850419
 20
0.4464078524
 10
-6.8374641896
 20
0.4564993791
 10
-6.8346514843
 20
0.4663331378
 10
-6.8315491254
 20
0.4759019103
 10
-6.8281617579
 20
0.485192283
 10
-6.8244940086
 20
0.4941939604
 10
-6.8205484719
 20
0.5029028407
 10
-6.8163272508
 20
0.5113153241
 10
-6.8118341206
 20
0.519424397
 10
-6.8070730412
 20
0.5272234034
 10
-6.802046077
 20
0.5347089396
 10
-6.7967562872
 20
0.5418757753
 10
-6.7912089336
 20
0.5487161546
 10
-6.7854095092
 20
0.5552230496
 10
-6.7793627923
 20
0.5613909488
 10
-6.7730739406
 20
0.5672144625
 10
-6.7665495739
 20
0.5726875306
 10
-6.75979596
 20
0.5778051628
 10
-6.7528182666
 20
0.5825637079
 10
-6.7456218077
 20
0.5869596537
 10
-6.7434868772
 20
0.5881705229
  0
LWPOLYLINE
  5
257
100
AcDbEntity
  8
0
100
AcDbPolyline
 62
250
  6
CONTINUOUS
 90
55
 70
0
 10
-7.1310315596
 20
0.3589154007
 10
-7.1308053495
 20
0.3753201844
 10
-7.1301618655
 20
0.3914774469
 10
-7.1291011084
 20
0.4073871877
 10
-7.1276226165
 20
0.4230696642
 10
-7.1257268517
 20
0.4385046189
 10
-7.1234152062
 20
0.4536312748
 10
-7.1206850904
 20
0.4684466037
 10
-7.1175391084
 20
0.4829536255
 10
-7.1139864556
 20
0.4971006292
 10
-7.1100253153
 20
0.5108840047
 10
-7.1056575301
 20
0.5243073472
 10
-7.1008977959
 20
0.5373297472
 10
-7.0957466134
 20
0.5499458332
 10
-7.0902035172
 20
0.5621609565
 10
-7.0842817607
 20
0.5739502879
 10
-7.0779810666
 20
0.5853133171
 10
-7.0713017521
 20
0.5962505315
 10
-7.0642579682
 20
0.6067385945
 10
-7.0568476304
 20
0.6167785307
 10
-7.0490728669
 20
0.6263692906
 10
-7.0409541528
 20
0.6354844225
 10
-7.0324903022
 20
0.644122487
 10
-7.0236825492
 20
0.6522848959
 10
-7.0145550043
 20
0.659949472
 10
-7.0051077487
 20
0.6671141204
 10
-6.9953407521
 20
0.6737809067
 10
-6.9852779625
 20
0.6799338917
 10
-6.9749187492
 20
0.6855719825
 10
-6.9642637942
 20
0.6906962426
 10
-6.9533390166
 20
0.6952939657
 10
-6.9421426082
 20
0.6993641235
 10
-6.9306764276
 20
0.7029077153
 10
-6.918971897
 20
0.7059150758
 10
-6.9070285368
 20
0.70838441
 10
-6.8948468751
 20
0.7103174851
 10
-6.882459847
 20
0.7117099777
 10
-6.8698694818
 20
0.7125606138
 10
-6.857073795
 20
0.7128706418
 10
-6.844099702
 20
0.7126395225
 10
-6.8309467299
 20
0.7118667326
 10
-6.8176153907
 20
0.710552773
 10
-6.8041340771
 20
0.7086986413
 10
-6.7904977883
 20
0.7063019607
 10
-6.7767115579
 20
0.7033650892
 10
-6.7628188289
 20
0.6998961261
 10
-6.7488176404
 20
0.6958916793
 10
-6.7347099791
 20
0.6913551262
 10
-6.7205452082
 20
0.6863047212
 10
-6.7063223066
 20
0.680736842
 10
-6.692042313
 20
0.6746551008
 10
-6.6777576791
 20
0.6680886051
 10
-6.6634858915
 20
0.6610470556
 10
-6.6492094723
 20
0.6535207464
 10
-6.6349284237
 20
0.6455096763
  0
LWPOLYLINE
  5
258
100
AcDbEntity
  8
0
100
AcDbPolyline
 62
250
  6
CONTINUOUS
 90
40
 70
0
 10
-6.6349284237
 20
-1.801590922
 10
-6.6348315712
 20
-1.7949834146
 10
-6.6345071597
 20
-1.7882542788
 10
-6.6339557115
 20
-1.78141435
 10
-6.6331781145
 20
-1.7744746418
 10
-6.632175621
 20
-1.7674463284
 10
-6.630949845
 20
-1.7603407268
 10
-6.6295027603
 20
-1.7531692785
 10
-6.6278366972
 20
-1.7459435308
 10
-6.6259543381
 20
-1.7386751186
 10
-6.6238587143
 20
-1.7313757456
 10
-6.6215531999
 20
-1.724057165
 10
-6.6190415074
 20
-1.7167311613
 10
-6.6163276811
 20
-1.7094095307
 10
-6.6134160909
 20
-1.7021040625
 10
-6.6103114248
 20
-1.6948265198
 10
-6.6070186821
 20
-1.6875886211
 10
-6.6035431647
 20
-1.6804020206
 10
-6.599890469
 20
-1.6732782901
 10
-6.5960664764
 20
-1.6662289004
 10
-6.5920773443
 20
-1.6592652022
 10
-6.5879294961
 20
-1.6523984084
 10
-6.5836296105
 20
-1.6456395759
 10
-6.5791846112
 20
-1.6389995878
 10
-6.5746016556
 20
-1.6324891356
 10
-6.5698881231
 20
-1.6261187025
 10
-6.5650516034
 20
-1.619898546
 10
-6.5600998842
 20
-1.6138386819
 10
-6.5550409387
 20
-1.6079488676
 10
-6.5498829129
 20
-1.6022385869
 10
-6.5446341122
 20
-1.5967170344
 10
-6.5393029881
 20
-1.591393101
 10
-6.5338981247
 20
-1.586275359
 10
-6.5284282251
 20
-1.5813720492
 10
-6.5229020967
 20
-1.5766910667
 10
-6.5173286376
 20
-1.5722399489
 10
-6.5117168223
 20
-1.5680258628
 10
-6.5060756868
 20
-1.564055594
 10
-6.5004143144
 20
-1.5603355354
 10
-6.4947418211
 20
-1.5568716769
  0
LWPOLYLINE
  5
259
100
AcDbEntity
  8
0
100
AcDbPolyline
 62
250
  6
CONTINUOUS
 90
40
 70
0
 10
-7.1313997184
 20
-0.5773680185
 10
-7.1312901251
 20
-0.5707626317
 10
-7.130953631
 20
-0.5640365523
 10
-7.1303907758
 20
-0.5572005799
 10
-7.1296024626
 20
-0.5502656887
 10
-7.1285899568
 20
-0.5432430157
 10
-7.1273548848
 20
-0.536143843
 10
-7.1258992302
 20
-0.5289795717
 10
-7.1242253302
 20
-0.5217617035
 10
-7.1223358728
 20
-0.5145018286
 10
-7.1202338919
 20
-0.5072116038
 10
-7.1179227628
 20
-0.4999027352
 10
-7.1154061972
 20
-0.4925869603
 10
-7.1126882364
 20
-0.485276026
 10
-7.1097732446
 20
-0.4779816712
 10
-7.1066659032
 20
-0.4707156095
 10
-7.103371202
 20
-0.4634895076
 10
-7.0998944316
 20
-0.4563149683
 10
-7.096241176
 20
-0.4492035136
 10
-7.0924173019
 20
-0.4421665625
 10
-7.0884289494
 20
-0.4352154132
 10
-7.0842825229
 20
-0.4283612265
 10
-7.0799846796
 20
-0.4216150063
 10
-7.0755423216
 20
-0.4149875857
 10
-7.0709625847
 20
-0.408489609
 10
-7.066252829
 20
-0.4021315173
 10
-7.0614206114
 20
-0.3959235101
 10
-7.0564736743
 20
-0.3898755344
 10
-7.0514199354
 20
-0.3839972741
 10
-7.0462675322
 20
-0.3782981981
 10
-7.0410247955
 20
-0.372787518
 10
-7.0357001813
 20
-0.3674741114
 10
-7.0303022061
 20
-0.3623664667
 10
-7.0248394894
 20
-0.3574727356
 10
-7.0193203379
 20
-0.3528003939
 10
-7.013754069
 20
-0.3483573631
 10
-7.008150982
 20
-0.344151767
 10
-7.0025205501
 20
-0.3401904916
 10
-6.9968713716
 20
-0.3364793627
 10
-6.9912125149
 20
-0.333024147
  0
LINE
  5
25A
100
AcDbEntity
  8
DRAFT
100
AcDbLine
 62
7
  6
CONTINUOUS
 10
-5.720677947
 20
21.0282638151
 11
-5.6994726577
 21
20.4117913177
  0
LINE
  5
25B
100
AcDbEntity
  8
RACCORDO
100
AcDbLine
 62
7
  6
CONTINUOUS
 10
2.1989180023
 20
16.4555883698
 11
2.0186667529
 21
16.041368211
  0
LWPOLYLINE
  5
25C
100
AcDbEntity
  8
0
100
AcDbPolyline
 62
250
  6
CONTINUOUS
 90
21
 70
0
 10
-6.8926026644
 20
-0.102022958
 10
-6.889737564
 20
-0.1003308796
 10
-6.8858729238
 20
-0.0977254829
 10
-6.8821771267
 20
-0.0948437293
 10
-6.8786561667
 20
-0.0916902926
 10
-6.8753157543
 20
-0.0882702872
 10
-6.872161307
 20
-0.0845892598
 10
-6.869197941
 20
-0.0806531804
 10
-6.8664304623
 20
-0.0764684329
 10
-6.8638633594
 20
-0.0720418041
 10
-6.8615007957
 20
-0.0673804735
 10
-6.859346603
 20
-0.062492001
 10
-6.8574042749
 20
-0.0573843148
 10
-6.8556769617
 20
-0.052065699
 10
-6.8541674648
 20
-0.0465447795
 10
-6.8528782324
 20
-0.0408305103
 10
-6.8518113554
 20
-0.0349321592
 10
-6.8509685642
 20
-0.0288592923
 10
-6.8503512255
 20
-0.022621759
 10
-6.8499603406
 20
-0.0162296755
 10
-6.8497965435
 20
-0.0096934088
  0
LINE
  5
25D
100
AcDbEntity
  8
0
100
AcDbLine
 62
250
  6
CONTINUOUS
 10
-6.5469142489
 20
0.526567251
 11
-6.8494285338
 21
0.3579427197
  0
LWPOLYLINE
  5
25E
100
AcDbEntity
  8
0
100
AcDbPolyline
 62
7
  6
CONTINUOUS
 90
28
 70
0
 10
-6.7434880678
 20
0.588169841
 10
-6.7419589672
 20
0.5889740985
 10
-6.7399899064
 20
0.5898762398
 10
-6.7378182673
 20
0.5907201945
 10
-6.7354376815
 20
0.5914921699
 10
-6.7328042472
 20
0.5921902994
 10
-6.7298324279
 20
0.5928135479
 10
-6.7264916257
 20
0.5933392731
 10
-6.7227878637
 20
0.593738718
 10
-6.7186944165
 20
0.5939878026
 10
-6.714202117
 20
0.5940598503
 10
-6.709324393
 20
0.5939288727
 10
-6.7040721376
 20
0.5935717083
 10
-6.6984517862
 20
0.5929671468
 10
-6.6924802489
 20
0.5920966907
 10
-6.6861843583
 20
0.5909461772
 10
-6.6795799131
 20
0.5895026613
 10
-6.6726833771
 20
0.5877550122
 10
-6.6655196165
 20
0.5856962012
 10
-6.6581074646
 20
0.5833200289
 10
-6.6504621585
 20
0.580620678
 10
-6.6425984115
 20
0.5775931573
 10
-6.6345334407
 20
0.5742346958
 10
-6.6262814739
 20
0.5705425602
 10
-6.6178476514
 20
0.5665103677
 10
-6.6092423667
 20
0.562134311
 10
-6.6004847096
 20
0.5574160127
 10
-6.5935143284
 20
0.5534735199
  0
LWPOLYLINE
  5
25F
100
AcDbEntity
  8
0
100
AcDbPolyline
 62
250
  6
CONTINUOUS
 90
21
 70
0
 10
-0.0643883611
 20
-4.3324855999
 10
-0.0701310182
 20
-4.3293589975
 10
-0.0758623601
 20
-4.3265011382
 10
-0.0815730913
 20
-4.3239166568
 10
-0.08725395
 20
-4.3216097451
 10
-0.0928957227
 20
-4.3195841445
 10
-0.0984892593
 20
-4.3178431402
 10
-0.1040254878
 20
-4.3163895558
 10
-0.1094954296
 20
-4.3152257489
 10
-0.114890213
 20
-4.3143536069
 10
-0.1202010886
 20
-4.3137745443
 10
-0.125419443
 20
-4.3134895004
 10
-0.1305368128
 20
-4.3134989373
 10
-0.1355448984
 20
-4.3138028398
 10
-0.1404355775
 20
-4.3144007149
 10
-0.1452009182
 20
-4.3152915931
 10
-0.1498331917
 20
-4.3164740295
 10
-0.1543248853
 20
-4.3179461063
 10
-0.1586687141
 20
-4.319705436
 10
-0.1628576332
 20
-4.3217491653
 10
-0.1657653286
 20
-4.3233897774
  0
LWPOLYLINE
  5
260
100
AcDbEntity
  8
0
100
AcDbPolyline
 62
250
  6
CONTINUOUS
 90
40
 70
0
 10
-7.1310315596
 20
-0.9447358659
 10
-7.1252552926
 20
-0.9479397329
 10
-7.1192614466
 20
-0.9510070655
 10
-7.1130596358
 20
-0.9539329436
 10
-7.1066598083
 20
-0.9567126739
 10
-7.1000722296
 20
-0.9593417977
 10
-7.0933074662
 20
-0.9618160978
 10
-7.0863763693
 20
-0.9641316054
 10
-7.0792900564
 20
-0.9662846061
 10
-7.0720598944
 20
-0.9682716467
 10
-7.0646974805
 20
-0.9700895398
 10
-7.0572146243
 20
-0.9717353694
 10
-7.0496233287
 20
-0.9732064956
 10
-7.0419357702
 20
-0.9745005586
 10
-7.0341642801
 20
-0.9756154827
 10
-7.026321324
 20
-0.9765494796
 10
-7.0184194823
 20
-0.977301051
 10
-7.0104714299
 20
-0.9778689915
 10
-7.0024899156
 20
-0.97825239
 10
-6.9944877421
 20
-0.9784506316
 10
-6.9864777452
 20
-0.9784633982
 10
-6.9784727731
 20
-0.9782906694
 10
-6.9704856661
 20
-0.9779327223
 10
-6.9625292358
 20
-0.9773901309
 10
-6.9546162447
 20
-0.9766637658
 10
-6.9467593852
 20
-0.9757547918
 10
-6.9389712603
 20
-0.9746646672
 10
-6.9312643622
 20
-0.9733951404
 10
-6.9236510531
 20
-0.9719482479
 10
-6.916143545
 20
-0.9703263105
 10
-6.9087538802
 20
-0.9685319298
 10
-6.901493912
 20
-0.9665679841
 10
-6.8943752856
 20
-0.9644376237
 10
-6.8874094195
 20
-0.9621442657
 10
-6.8806074872
 20
-0.9596915887
 10
-6.8739803993
 20
-0.9570835269
 10
-6.8675387857
 20
-0.9543242637
 10
-6.8612929792
 20
-0.9514182251
 10
-6.8552529981
 20
-0.9483700725
 10
-6.8494285308
 20
-0.9451846951
  0
LWPOLYLINE
  5
261
100
AcDbEntity
  8
0
100
AcDbPolyline
 62
250
  6
CONTINUOUS
 90
40
 70
0
 10
-7.1313997184
 20
-0.5773680185
 10
-7.1256273937
 20
-0.5805832479
 10
-7.1196328841
 20
-0.5836488281
 10
-7.1134278077
 20
-0.5865663028
 10
-7.1070271141
 20
-0.5893447727
 10
-7.1004413239
 20
-0.5919797327
 10
-7.0936756507
 20
-0.5944527677
 10
-7.0867435869
 20
-0.5967676478
 10
-7.0796592281
 20
-0.5989275735
 10
-7.0724280892
 20
-0.6009136837
 10
-7.0650645853
 20
-0.6027314739
 10
-7.0575837997
 20
-0.6043854161
 10
-7.04999153
 20
-0.6058558787
 10
-7.0423027313
 20
-0.6071502375
 10
-7.0345333087
 20
-0.6082745022
 10
-7.0266895265
 20
-0.6092080814
 10
-7.0187862718
 20
-0.6099602062
 10
-7.010840043
 20
-0.6105386485
 10
-7.0028581127
 20
-0.6109219496
 10
-6.9948543584
 20
-0.6111208568
 10
-6.9868455197
 20
-0.6111450422
 10
-6.9788409579
 20
-0.6109727669
 10
-6.9708521839
 20
-0.6106154815
 10
-6.9628956014
 20
-0.6100847208
 10
-6.9549844103
 20
-0.6093597996
 10
-6.9471260418
 20
-0.6084514696
 10
-6.9393356256
 20
-0.6073727646
 10
-6.9316325027
 20
-0.6061063072
 10
-6.9240183491
 20
-0.6046602453
 10
-6.9165056118
 20
-0.6030482271
 10
-6.909121991
 20
-0.6012592072
 10
-6.9018626113
 20
-0.5992968045
 10
-6.8947354815
 20
-0.5971737488
 10
-6.8877774977
 20
-0.5948883986
 10
-6.8809783251
 20
-0.5924387626
 10
-6.8743400727
 20
-0.5898346694
 10
-6.8679068306
 20
-0.5870857538
 10
-6.8616847766
 20
-0.5841930218
 10
-6.8556498839
 20
-0.5811527664
 10
-6.8497965435
 20
-0.5779637941
  0
LWPOLYLINE
  5
262
100
AcDbEntity
  8
0
100
AcDbPolyline
 62
250
  6
CONTINUOUS
 90
52
 70
0
 10
3.7340829822
 20
-6.2824637678
 10
3.7448906673
 20
-6.2885200256
 10
3.7560087538
 20
-6.2943873803
 10
3.767427115
 20
-6.3000605387
 10
3.7791351277
 20
-6.3055342912
 10
3.7911223503
 20
-6.3108038104
 10
3.8033785848
 20
-6.3158646161
 10
3.8158930254
 20
-6.3207122372
 10
3.828654045
 20
-6.3253421537
 10
3.841649899
 20
-6.3297500764
 10
3.8548687351
 20
-6.3339320079
 10
3.868298627
 20
-6.3378841896
 10
3.8819274063
 20
-6.3416030093
 10
3.8957426907
 20
-6.345085113
 10
3.9097319726
 20
-6.3483273649
 10
3.9238826451
 20
-6.3513268001
 10
3.9381819258
 20
-6.3540807311
 10
3.9526168016
 20
-6.3565866665
 10
3.9671741183
 20
-6.3588422704
 10
3.9818406493
 20
-6.3608455252
 10
3.9966031185
 20
-6.3625946427
 10
4.0114481475
 20
-6.3640879785
 10
4.0263622873
 20
-6.3653242139
 10
4.0413319996
 20
-6.3663022545
 10
4.0563436778
 20
-6.3670211448
 10
4.0713836756
 20
-6.3674802719
 10
4.0864383862
 20
-6.3676792549
 10
4.101494223
 20
-6.3676178397
 10
4.1165375647
 20
-6.3672961205
 10
4.1315547365
 20
-6.3667144229
 10
4.1465320888
 20
-6.3658731935
 10
4.1614560257
 20
-6.3647732403
 10
4.1763130261
 20
-6.3634155991
 10
4.1910896252
 20
-6.3618014129
 10
4.2057724469
 20
-6.3599321882
 10
4.2203481501
 20
-6.3578096645
 10
4.2348034502
 20
-6.3554356849
 10
4.249125192
 20
-6.3528124634
 10
4.2633004373
 20
-6.3499424193
 10
4.2773164082
 20
-6.3468280433
 10
4.2911604136
 20
-6.3434722039
 10
4.3048198767
 20
-6.3398779954
 10
4.318282422
 20
-6.3360485719
 10
4.3315359055
 20
-6.3319874356
 10
4.3445682369
 20
-6.3276983358
 10
4.3573674149
 20
-6.3231851216
 10
4.3699215376
 20
-6.3184520637
 10
4.3822195435
 20
-6.3135034067
 10
4.3942509888
 20
-6.3083432313
 10
4.406005151
 20
-6.3029760806
 10
4.4174710903
 20
-6.2974069987
 10
4.428638364
 20
-6.2916410621
  0
LWPOLYLINE
  5
263
100
AcDbEntity
  8
0
100
AcDbPolyline
 62
7
  6
CONTINUOUS
 90
43
 70
0
 10
3.7754994794
 20
-6.3741248289
 10
3.785685527
 20
-6.379845071
 10
3.7989027351
 20
-6.3868103483
 10
3.8123678169
 20
-6.3934119832
 10
3.8260758807
 20
-6.3996563769
 10
3.8400132422
 20
-6.405545156
 10
3.8541535257
 20
-6.4110748385
 10
3.868487046
 20
-6.4162493975
 10
3.8830046044
 20
-6.4210719651
 10
3.8976756825
 20
-6.4255390245
 10
3.9124900716
 20
-6.4296541509
 10
3.9274387888
 20
-6.4334204797
 10
3.9424889906
 20
-6.4368357317
 10
3.9576263697
 20
-6.4399025969
 10
3.9728451595
 20
-6.4426253147
 10
3.9881226025
 20
-6.4450047848
 10
4.0034417896
 20
-6.4470432296
 10
4.0187995918
 20
-6.448744716
 10
4.0341925588
 20
-6.4501120129
 10
4.0496101483
 20
-6.4511468289
 10
4.0650435361
 20
-6.4518505754
 10
4.0804911669
 20
-6.4522243034
 10
4.0959434195
 20
-6.4522683473
 10
4.1113908064
 20
-6.4519824522
 10
4.1268319121
 20
-6.4513659061
 10
4.1422578248
 20
-6.4504173774
 10
4.1576582032
 20
-6.4491352646
 10
4.1730300351
 20
-6.4475170132
 10
4.1883696458
 20
-6.4455589219
 10
4.2036609016
 20
-6.443258645
 10
4.2188832981
 20
-6.4406145941
 10
4.2340308997
 20
-6.4376227311
 10
4.2490897131
 20
-6.4342801737
 10
4.2640296854
 20
-6.4305878192
 10
4.278841828
 20
-6.4265423949
 10
4.2935158593
 20
-6.4221401313
 10
4.3080237007
 20
-6.4173829307
 10
4.3223559475
 20
-6.4122673176
 10
4.3365028779
 20
-6.4067889688
 10
4.3504404591
 20
-6.4009493685
 10
4.3641555213
 20
-6.3947457764
 10
4.3776419182
 20
-6.3881719028
 10
4.385717763
 20
-6.3839958195
  0
LINE
  5
264
100
AcDbEntity
  8
0
100
AcDbLine
 62
250
  6
CONTINUOUS
 10
-0.6980422794
 20
-5.229474575
 11
-6.6349284237
 21
-1.801590922
  0
LINE
  5
265
100
AcDbEntity
  8
0
100
AcDbLine
 62
250
  6
CONTINUOUS
 10
-0.557857701
 20
-4.9847541612
 11
-6.4947397521
 21
-1.5568728715
  0
LINE
  5
266
100
AcDbEntity
  8
0
100
AcDbLine
 62
250
  6
CONTINUOUS
 10
3.734082982
 20
-6.8509615533
 11
-0.2045755646
 21
-4.5768294714
  0
LINE
  5
267
100
AcDbEntity
  8
0
100
AcDbLine
 62
250
  6
CONTINUOUS
 10
-7.1313997184
 20
-0.5773680185
 11
-11.0700582649
 21
1.6967640632
  0
LINE
  5
268
100
AcDbEntity
  8
0
100
AcDbLine
 62
250
  6
CONTINUOUS
 10
3.874272158
 20
-6.6066188205
 11
-0.0643883611
 21
-4.3324855999
  0
LINE
  5
269
100
AcDbEntity
  8
0
100
AcDbLine
 62
250
  6
CONTINUOUS
 10
-6.9912125149
 20
-0.333024147
 11
-10.9298730338
 21
1.9411090738
  0
LINE
  5
26A
100
AcDbEntity
  8
0
100
AcDbLine
 62
7
  6
CONTINUOUS
 10
-5.531967315
 20
-1.0009786729
 11
0.0248840522
 21
-4.2094350086
  0
LINE
  5
26B
100
AcDbEntity
  8
0
100
AcDbLine
 62
7
  6
CONTINUOUS
 10
-11.0286437475
 20
2.173601895
 11
-7.0899832284
 21
-0.1005313257
  0
LINE
  5
26C
100
AcDbEntity
  8
0
100
AcDbLine
 62
7
  6
CONTINUOUS
 10
-0.1631590747
 20
-4.0999927786
 11
3.7755014444
 21
-6.3741259993
  0
LWPOLYLINE
  5
26D
100
AcDbEntity
  8
0
100
AcDbPolyline
 62
250
  6
CONTINUOUS
 90
55
 70
0
 10
-6.4947397456
 20
-1.5568728677
 10
-6.5049727471
 20
-1.550836522
 10
-6.5152166833
 20
-1.5444530911
 10
-6.5254630438
 20
-1.5377260701
 10
-6.5357066068
 20
-1.530657052
 10
-6.5459353032
 20
-1.5232522386
 10
-6.5561303379
 20
-1.5155234525
 10
-6.5662829439
 20
-1.5074764807
 10
-6.5763845556
 20
-1.4991172822
 10
-6.5864169444
 20
-1.4904601256
 10
-6.5963705033
 20
-1.481513454
 10
-6.606238037
 20
-1.4722839302
 10
-6.6160053494
 20
-1.4627848304
 10
-6.6256612599
 20
-1.4530279261
 10
-6.6352010297
 20
-1.4430189323
 10
-6.6446203102
 20
-1.4327625137
 10
-6.6539111981
 20
-1.4222675797
 10
-6.6630660275
 20
-1.4115430957
 10
-6.6720806733
 20
-1.4005935187
 10
-6.6809491249
 20
-1.3894258414
 10
-6.6896620974
 20
-1.3780514591
 10
-6.6982106258
 20
-1.3664815294
 10
-6.7065875559
 20
-1.3547256758
 10
-6.7147856891
 20
-1.3427939825
 10
-6.7227963746
 20
-1.3306987216
 10
-6.7306121368
 20
-1.3184514171
 10
-6.7382272508
 20
-1.3060613235
 10
-6.7456359741
 20
-1.2935375446
 10
-6.7528320547
 20
-1.2808906573
 10
-6.7598093976
 20
-1.268131419
 10
-6.7665626312
 20
-1.2552692833
 10
-6.7730865902
 20
-1.2423138263
 10
-6.7793750074
 20
-1.2292772849
 10
-6.7854212127
 20
-1.2161732379
 10
-6.79122001
 20
-1.2030130592
 10
-6.7967666803
 20
-1.1898076633
 10
-6.8020558226
 20
-1.1765700588
 10
-6.8070821624
 20
-1.1633140006
 10
-6.8118426478
 20
-1.1500481838
 10
-6.8163353065
 20
-1.136778042
 10
-6.8205562222
 20
-1.1235144993
 10
-6.8245015238
 20
-1.1102690773
 10
-6.8281689937
 20
-1.0970481395
 10
-6.8315560657
 20
-1.0838585396
 10
-6.8346580763
 20
-1.0707159884
 10
-6.8374702356
 20
-1.0576400471
 10
-6.8399903525
 20
-1.0446404702
 10
-6.8422160052
 20
-1.0317296128
 10
-6.8441437789
 20
-1.0189304401
 10
-6.8457728077
 20
-1.0062534249
 10
-6.8471025412
 20
-0.9937089584
 10
-6.8481320673
 20
-0.9813190127
 10
-6.8488620451
 20
-0.9690970613
 10
-6.849293778
 20
-0.957048476
 10
-6.8494285295
 20
-0.9451823568
  0
LWPOLYLINE
  5
26E
100
AcDbEntity
  8
0
100
AcDbPolyline
 62
250
  6
CONTINUOUS
 90
55
 70
0
 10
-6.6349284237
 20
-1.801590922
 10
-6.6492140693
 20
-1.7931091568
 10
-6.6634948461
 20
-1.7841507441
 10
-6.6777707521
 20
-1.7747156825
 10
-6.6920594867
 20
-1.7647932705
 10
-6.7063433416
 20
-1.7543942045
 10
-6.7205692007
 20
-1.7435505792
 10
-6.7347357534
 20
-1.732260158
 10
-6.7488442926
 20
-1.7205251672
 10
-6.7628456055
 20
-1.708384395
 10
-6.7767374968
 20
-1.6958369874
 10
-6.7905221359
 20
-1.6828837834
 10
-6.8041568555
 20
-1.6695661102
 10
-6.8176367716
 20
-1.6558873173
 10
-6.8309667354
 20
-1.6418440361
 10
-6.8441186815
 20
-1.6274675155
 10
-6.857092309
 20
-1.6127575719
 10
-6.8698878796
 20
-1.5977143663
 10
-6.8824781713
 20
-1.5823696638
 10
-6.8948651276
 20
-1.5667198965
 10
-6.9070467604
 20
-1.5507686065
 10
-6.9189899501
 20
-1.5345582243
 10
-6.9306940634
 20
-1.5180876851
 10
-6.9421596853
 20
-1.5013580256
 10
-6.9533555246
 20
-1.4844148303
 10
-6.9642797399
 20
-1.4672591856
 10
-6.9749341224
 20
-1.4498899759
 10
-6.9852928326
 20
-1.4323494835
 10
-6.9953552457
 20
-1.4146372794
 10
-7.0051219352
 20
-1.3967537628
 10
-7.0145688626
 20
-1.378742461
 10
-7.0236960522
 20
-1.360601209
 10
-7.0325034288
 20
-1.3423321423
 10
-7.0409668084
 20
-1.3239852406
 10
-7.0490848887
 20
-1.3055606254
 10
-7.056858924
 20
-1.2870581474
 10
-7.0642685698
 20
-1.2685273834
 10
-7.0713117108
 20
-1.2499718206
 10
-7.0779904187
 20
-1.2313879465
 10
-7.0842906366
 20
-1.2128148422
 10
-7.0902121427
 20
-1.1942520445
 10
-7.0957551189
 20
-1.1756999934
 10
-7.1009061189
 20
-1.1571991275
 10
-7.105665591
 20
-1.1387433777
 10
-7.1100330516
 20
-1.1203387927
 10
-7.1139936646
 20
-1.102043993
 10
-7.1175454794
 20
-1.0838577935
 10
-7.1206904209
 20
-1.0657813643
 10
-7.1234194767
 20
-1.0478768652
 10
-7.1257300251
 20
-1.0301445964
 10
-7.1276246736
 20
-1.0125842494
 10
-7.1291022663
 20
-0.9952570771
 10
-7.1301624202
 20
-0.9781834987
 10
-7.1308055182
 20
-0.9613430951
 10
-7.1310315596
 20
-0.9447358659
  0
LWPOLYLINE
  5
26F
100
AcDbEntity
  8
0
100
AcDbPolyline
 62
250
  6
CONTINUOUS
 90
27
 70
0
 10
-11.0700582647
 20
1.6967640627
 10
-11.0805453475
 20
1.7030054321
 10
-11.090701739
 20
1.7094280575
 10
-11.1005182729
 20
1.7160260909
 10
-11.1099859159
 20
1.7227934048
 10
-11.1190963214
 20
1.7297239621
 10
-11.1278417682
 20
1.7368118526
 10
-11.1362145073
 20
1.7440508403
 10
-11.1442067216
 20
1.7514342052
 10
-11.1518110481
 20
1.7589551283
 10
-11.1590205594
 20
1.7666067686
 10
-11.1658287584
 20
1.7743822328
 10
-11.1722294794
 20
1.7822744428
 10
-11.1782169104
 20
1.7902762509
 10
-11.1837856343
 20
1.7983804275
 10
-11.1889306306
 20
1.8065796273
 10
-11.1936472435
 20
1.8148664705
 10
-11.1979311724
 20
1.8232334354
 10
-11.2017785107
 20
1.8316728466
 10
-11.2051857645
 20
1.8401770671
 10
-11.2081498512
 20
1.8487384227
 10
-11.2106680846
 20
1.8573490958
 10
-11.2127381824
 20
1.8660013201
 10
-11.2143582644
 20
1.8746872699
 10
-11.2155268591
 20
1.8833989831
 10
-11.216242908
 20
1.8921285788
 10
-11.2165071719
 20
1.9014541772
  0
LWPOLYLINE
  5
270
100
AcDbEntity
  8
0
100
AcDbPolyline
 62
250
  6
CONTINUOUS
 90
44
 70
0
 10
-10.9298730338
 20
1.9411090738
 10
-10.9361701931
 20
1.9448575923
 10
-10.9422593801
 20
1.9487090849
 10
-10.9481405946
 20
1.9526635518
 10
-10.9538190606
 20
1.9567249165
 10
-10.9592895543
 20
1.9608892554
 10
-10.9645364041
 20
1.9651447973
 10
-10.9695587514
 20
1.9694916497
 10
-10.9743574549
 20
1.9739297051
 10
-10.978919419
 20
1.9784468695
 10
-10.9832439791
 20
1.9830433463
 10
-10.9873317999
 20
1.9877189321
 10
-10.9911717795
 20
1.9924609229
 10
-10.9947632404
 20
1.9972694889
 10
-10.9981068603
 20
2.0021444598
 10
-11.0011935695
 20
2.0070726211
 10
-11.0040226804
 20
2.0120541345
 10
-11.0065948807
 20
2.0170888383
 10
-11.0089031649
 20
2.0221630329
 10
-11.0109468098
 20
2.0272768173
 10
-11.0127265386
 20
2.0324300924
 10
-11.0142375155
 20
2.0376088613
 10
-11.0154790101
 20
2.0428131991
 10
-11.0164517529
 20
2.0480430307
 10
-11.0171530991
 20
2.0532841337
 10
-11.0175823101
 20
2.0585365283
 10
-11.0177401245
 20
2.0638001943
 10
-11.0176261139
 20
2.0690608493
 10
-11.0172395393
 20
2.0743184947
 10
-11.0165811396
 20
2.079573129
 10
-11.0156527029
 20
2.0848104655
 10
-11.0144534951
 20
2.0900304526
 10
-11.0129842502
 20
2.0952331418
 10
-11.011248959
 20
2.1004044014
 10
-11.0092468926
 20
2.1055441546
 10
-11.0069787799
 20
2.1106524782
 10
-11.0044507973
 20
2.1157154711
 10
-11.0016622477
 20
2.1207329928
 10
-10.9986138282
 20
2.1257051838
 10
-10.9953138075
 20
2.1306185645
 10
-10.9917614985
 20
2.1354729854
 10
-10.9879575882
 20
2.1402685959
 10
-10.9839124057
 20
2.1449923655
 10
-10.9822388295
 20
2.146808277
  0
LWPOLYLINE
  5
271
100
AcDbEntity
  8
0
100
AcDbPolyline
 62
250
  6
CONTINUOUS
 90
21
 70
0
 10
-0.2045755646
 20
-4.5768294714
 10
-0.2101213362
 20
-4.5735097737
 10
-0.2154358673
 20
-4.5700456549
 10
-0.2205080711
 20
-4.5664517683
 10
-0.2253257082
 20
-4.5627529134
 10
-0.2298813478
 20
-4.5589549497
 10
-0.2341713982
 20
-4.5550445464
 10
-0.2381870618
 20
-4.5510383436
 10
-0.2419203953
 20
-4.5469522667
 10
-0.245368509
 20
-4.5427723076
 10
-0.2485242951
 20
-4.5385163886
 10
-0.2513814992
 20
-4.5342013021
 10
-0.2539379313
 20
-4.5298120283
 10
-0.2561883251
 20
-4.5253676188
 10
-0.2581282176
 20
-4.5208858435
 10
-0.2597560866
 20
-4.5163506071
 10
-0.2610686155
 20
-4.5117816511
 10
-0.2620632223
 20
-4.5071977643
 10
-0.2627390719
 20
-4.5025821694
 10
-0.2630947751
 20
-4.4979544285
 10
-0.2631542069
 20
-4.4951804668
  0
LWPOLYLINE
  5
272
100
AcDbEntity
  8
0
100
AcDbPolyline
 62
250
  6
CONTINUOUS
 90
21
 70
0
 10
-0.2042137335
 20
-4.9441936191
 10
-0.2097631612
 20
-4.9408581759
 10
-0.2150768431
 20
-4.9373966875
 10
-0.2201462558
 20
-4.9338147062
 10
-0.2249632678
 20
-4.9301179775
 10
-0.2295201526
 20
-4.9263124312
 10
-0.2338096006
 20
-4.9224041714
 10
-0.2378247315
 20
-4.9183994673
 10
-0.2415591048
 20
-4.9143047424
 10
-0.2450067306
 20
-4.9101265649
 10
-0.2481620785
 20
-4.9058716367
 10
-0.2510200875
 20
-4.9015467828
 10
-0.2535761731
 20
-4.8971589405
 10
-0.2558262353
 20
-4.8927151481
 10
-0.2577666648
 20
-4.8882225334
 10
-0.2593943493
 20
-4.8836883029
 10
-0.2607066778
 20
-4.8791197295
 10
-0.2617015453
 20
-4.8745241415
 10
-0.2623773559
 20
-4.8699089104
 10
-0.2627330258
 20
-4.865281439
 10
-0.2627924482
 20
-4.8625546332
  0
LINE
  5
273
100
AcDbEntity
  8
0
100
AcDbLine
 62
7
  6
CONTINUOUS
 10
-5.5419063158
 20
-0.5984059007
 11
-5.9601807857
 21
-0.8399761001
  0
LINE
  5
274
100
AcDbEntity
  8
0
100
AcDbLine
 62
250
  6
CONTINUOUS
 10
-6.9912125149
 20
-0.333024147
 11
-6.0246825456
 21
0.2250372107
  0
LINE
  5
275
100
AcDbEntity
  8
0
100
AcDbLine
 62
250
  6
CONTINUOUS
 10
-6.8497965435
 20
-0.5779637941
 11
-5.8855072433
 21
-0.0211961685
  0
LINE
  5
276
100
AcDbEntity
  8
0
100
AcDbLine
 62
250
  6
CONTINUOUS
 10
-5.8855072433
 20
-0.3886295551
 11
-6.8494285337
 21
-0.9451823593
  0
LINE
  5
277
100
AcDbEntity
  8
0
100
AcDbLine
 62
250
  6
CONTINUOUS
 10
-5.531967315
 20
-1.0009786729
 11
-6.4947397521
 21
-1.5568728715
  0
LINE
  5
278
100
AcDbEntity
  8
0
100
AcDbLine
 62
250
  6
CONTINUOUS
 10
-6.223127394
 20
0.339616779
 11
-6.8497965435
 21
-0.0096934088
  0
LINE
  5
279
100
AcDbEntity
  8
0
100
AcDbLine
 62
7
  6
CONTINUOUS
 10
-6.1627913145
 20
0.3047794829
 11
-6.8926026644
 21
-0.102022958
  0
LWPOLYLINE
  5
27A
100
AcDbEntity
  8
0
100
AcDbPolyline
 62
250
  6
CONTINUOUS
 90
40
 70
0
 10
-7.1313997184
 20
-0.0088702341
 10
-7.1256273892
 20
-0.0120591203
 10
-7.1196328747
 20
-0.0151306252
 10
-7.1134277933
 20
-0.0180704024
 10
-7.1070270946
 20
-0.0208552174
 10
-7.100441299
 20
-0.0234809945
 10
-7.0936756204
 20
-0.0259620012
 10
-7.0867435513
 20
-0.0282843078
 10
-7.0796591872
 20
-0.0304355417
 10
-7.0724280432
 20
-0.0324312266
 10
-7.0650645344
 20
-0.0342576592
 10
-7.0575837441
 20
-0.035903145
 10
-7.0499914702
 20
-0.0373847868
 10
-7.0423026676
 20
-0.0386891273
 10
-7.0345332415
 20
-0.0398050029
 10
-7.0266894564
 20
-0.0407512472
 10
-7.0187861993
 20
-0.0415147994
 10
-7.0108399687
 20
-0.0420849057
 10
-7.0028580371
 20
-0.0424820605
 10
-6.9948542822
 20
-0.0426939122
 10
-6.9868454434
 20
-0.0427100326
 10
-6.9788408822
 20
-0.0425522668
 10
-6.9708521094
 20
-0.042209434
 10
-6.9628955288
 20
-0.0416713913
 10
-6.95498434
 20
-0.0409608536
 10
-6.9471259744
 20
-0.0400683144
 10
-6.9393355616
 20
-0.0389839046
 10
-6.9316324425
 20
-0.0377307707
 10
-6.9240182931
 20
-0.036301416
 10
-6.9165055605
 20
-0.0346861924
 10
-6.9091219445
 20
-0.0329085985
 10
-6.90186257
 20
-0.0309631311
 10
-6.8947354455
 20
-0.0288401322
 10
-6.887777467
 20
-0.026563877
 10
-6.8809782999
 20
-0.0241306129
 10
-6.8743400529
 20
-0.021530182
 10
-6.867906816
 20
-0.0187881026
 10
-6.861684767
 20
-0.0159124795
 10
-6.8556498792
 20
-0.0128845401
 10
-6.8497965435
 20
-0.0096934088
  0
LWPOLYLINE
  5
27B
100
AcDbEntity
  8
0
100
AcDbPolyline
 62
250
  6
CONTINUOUS
 90
40
 70
0
 10
-7.1310315197
 20
0.3589154237
 10
-7.1252552548
 20
0.3557109535
 10
-7.1192614107
 20
0.3526421822
 10
-7.1130596017
 20
0.3497140323
 10
-7.1066597756
 20
0.3469312006
 10
-7.100072198
 20
0.3442981509
 10
-7.0933074357
 20
0.3418191066
 10
-7.0863763395
 20
0.3394980443
 10
-7.0792900272
 20
0.337338687
 10
-7.0720598654
 20
0.3353444984
 10
-7.0646974516
 20
0.3335186772
 10
-7.0572145954
 20
0.3318641522
 10
-7.0496232995
 20
0.3303835772
 10
-7.0419357407
 20
0.3290793272
 10
-7.0341642499
 20
0.3279534941
 10
-7.0263212931
 20
0.3270078839
 10
-7.0184194506
 20
0.3262440135
 10
-7.0104713971
 20
0.3256631079
 10
-7.0024898817
 20
0.3252660991
 10
-6.994487707
 20
0.3250536238
 10
-6.9864777088
 20
0.3250260229
 10
-6.9784727353
 20
0.3251833407
 10
-6.9704856269
 20
0.3255253247
 10
-6.9625291952
 20
0.3260514265
 10
-6.9546162024
 20
0.3267608022
 10
-6.9467593414
 20
0.3276523138
 10
-6.9389712149
 20
0.3287245315
 10
-6.9312643152
 20
0.3299757352
 10
-6.9236510045
 20
0.3314039181
 10
-6.9161434948
 20
0.3330067892
 10
-6.9087538285
 20
0.3347817776
 10
-6.9014938588
 20
0.336726036
 10
-6.8943752309
 20
0.3388364458
 10
-6.8874093635
 20
0.3411096219
 10
-6.8806074299
 20
0.343541918
 10
-6.8739803407
 20
0.3461294326
 10
-6.8675387261
 20
0.3488680152
 10
-6.8612929186
 20
0.351753273
 10
-6.8552529366
 20
0.354780578
 10
-6.8494284685
 20
0.3579450744
  0
LINE
  5
27C
100
AcDbEntity
  8
0
100
AcDbLine
 62
250
  6
CONTINUOUS
 10
-11.0700582649
 20
2.2652618479
 11
-7.1313997184
 21
-0.0088702341
  0
LINE
  5
27D
100
AcDbEntity
  8
0
100
AcDbLine
 62
250
  6
CONTINUOUS
 10
-0.2045755646
 20
-4.008331687
 11
3.734082982
 21
-6.2824637686
  0
LINE
  5
27E
100
AcDbEntity
  8
0
100
AcDbLine
 62
7
  6
CONTINUOUS
 10
-5.5419063158
 20
-0.5984059007
 11
-0.2629039833
 21
-3.646435686
  0
LINE
  5
27F
100
AcDbEntity
  8
0
100
AcDbLine
 62
7
  6
CONTINUOUS
 10
-6.5935125347
 20
0.5534725172
 11
-0.6566263904
 21
-2.8744111358
  0
LINE
  5
280
100
AcDbEntity
  8
0
100
AcDbLine
 62
250
  6
CONTINUOUS
 10
-6.6349284237
 20
0.6455096763
 11
-0.6980422794
 21
-2.7823739767
  0
LWPOLYLINE
  5
281
100
AcDbEntity
  8
0
100
AcDbPolyline
 62
7
  6
CONTINUOUS
 90
61
 70
0
 10
-0.6566247434
 20
-2.874412136
 10
-0.6519640079
 20
-2.8771396469
 10
-0.642965176
 20
-2.8826102284
 10
-0.6338083466
 20
-2.8884503258
 10
-0.62450305
 20
-2.8946649958
 10
-0.6150653087
 20
-2.9012542814
 10
-0.605517382
 20
-2.9082125541
 10
-0.5958718276
 20
-2.9155400085
 10
-0.5861413256
 20
-2.9232361347
 10
-0.5763477921
 20
-2.9312920503
 10
-0.5665047746
 20
-2.9397044878
 10
-0.5566245983
 20
-2.9484706245
 10
-0.5467265687
 20
-2.9575804507
 10
-0.5368240521
 20
-2.9670282808
 10
-0.5269290978
 20
-2.9768091183
 10
-0.5170582655
 20
-2.9869126696
 10
-0.5072241733
 20
-2.9973316744
 10
-0.497438987
 20
-3.0080587958
 10
-0.4877178593
 20
-3.0190826285
 10
-0.4780725621
 20
-3.0303946257
 10
-0.4685151501
 20
-3.0419853384
 10
-0.4590604669
 20
-3.0538411049
 10
-0.4497193981
 20
-3.06595218
 10
-0.4405035981
 20
-3.0783072077
 10
-0.431428227
 20
-3.0908891746
 10
-0.422503782
 20
-3.1036862848
 10
-0.4137405207
 20
-3.11668637
 10
-0.4051522866
 20
-3.1298709953
 10
-0.3967485513
 20
-3.1432271712
 10
-0.388538466
 20
-3.1567416082
 10
-0.3805343912
 20
-3.1703947178
 10
-0.3727445934
 20
-3.1841725919
 10
-0.3651769709
 20
-3.1980610729
 10
-0.357842293
 20
-3.2120396047
 10
-0.3507474697
 20
-3.2260935993
 10
-0.3438989896
 20
-3.2402083242
 10
-0.3373058893
 20
-3.2543624979
 10
-0.3309735703
 20
-3.2685411149
 10
-0.3249069747
 20
-3.2827291537
 10
-0.319113249
 20
-3.2969049051
 10
-0.3135964031
 20
-3.3110525501
 10
-0.3083594238
 20
-3.3251577471
 10
-0.3034067181
 20
-3.3392007366
 10
-0.2987404581
 20
-3.3531662946
 10
-0.2943621669
 20
-3.3670398992
 10
-0.2902741396
 20
-3.3808026634
 10
-0.2864766721
 20
-3.3944403296
 10
-0.2829697718
 20
-3.4079382599
 10
-0.2797540763
 20
-3.4212768815
 10
-0.2768278931
 20
-3.4344433285
 10
-0.2741895342
 20
-3.4474229746
 10
-0.2718380932
 20
-3.4601936173
 10
-0.2697698454
 20
-3.4727432047
 10
-0.2679808866
 20
-3.4850582348
 10
-0.2664680246
 20
-3.4971146377
 10
-0.2652253217
 20
-3.5089012449
 10
-0.2642463328
 20
-3.5204072646
 10
-0.2635248295
 20
-3.5316100071
 10
-0.2630527105
 20
-3.5424953564
 10
-0.2628207938
 20
-3.5530577697
 10
-0.2627924357
 20
-3.5588725536
  0
LWPOLYLINE
  5
282
100
AcDbEntity
  8
0
100
AcDbPolyline
 62
250
  6
CONTINUOUS
 90
55
 70
0
 10
-0.6980422794
 20
-2.7823739767
 10
-0.6837578491
 20
-2.7908564436
 10
-0.6694807824
 20
-2.7998169985
 10
-0.6552110771
 20
-2.8092556403
 10
-0.6409310288
 20
-2.8191830677
 10
-0.6266583332
 20
-2.8295885768
 10
-0.6124460856
 20
-2.8404400612
 10
-0.598295596
 20
-2.8517397571
 10
-0.5842055369
 20
-2.8634854182
 10
-0.5702250461
 20
-2.8756382128
 10
-0.5563563053
 20
-2.8881989871
 10
-0.542597107
 20
-2.9011668803
 10
-0.5289900042
 20
-2.9145004991
 10
-0.5155398467
 20
-2.9281964742
 10
-0.5022417519
 20
-2.9422581562
 10
-0.4891236738
 20
-2.9566542318
 10
-0.4761858769
 20
-2.9713848635
 10
-0.4634280576
 20
-2.9864498663
 10
-0.4508773167
 20
-3.0018174049
 10
-0.438531679
 20
-3.0174910291
 10
-0.4263930752
 20
-3.0334671635
 10
-0.4144944657
 20
-3.0497032856
 10
-0.402836443
 20
-3.066200437
 10
-0.3914183662
 20
-3.0829575484
 10
-0.3802713473
 20
-3.0999289321
 10
-0.3693971782
 20
-3.1171134728
 10
-0.3587940166
 20
-3.1345122568
 10
-0.3484875259
 20
-3.1520829001
 10
-0.3384782839
 20
-3.1698258045
 10
-0.3287656614
 20
-3.1877405387
 10
-0.3193735149
 20
-3.2057834703
 10
-0.3103017788
 20
-3.2239567404
 10
-0.3015504678
 20
-3.2422581788
 10
-0.2931435632
 20
-3.2606376884
 10
-0.2850823219
 20
-3.2790951218
 10
-0.2773654389
 20
-3.2976305988
 10
-0.270013058
 20
-3.3161944268
 10
-0.2630272423
 20
-3.3347830885
 10
-0.2564058851
 20
-3.3534000761
 10
-0.2501628808
 20
-3.3720062149
 10
-0.2442984137
 20
-3.3906019463
 10
-0.2388122597
 20
-3.4091868058
 10
-0.2337177065
 20
-3.4277202633
 10
-0.2290142917
 20
-3.4462083799
 10
-0.2247024425
 20
-3.4646450742
 10
-0.2207967895
 20
-3.4829716072
 10
-0.2172992655
 20
-3.5011891535
 10
-0.2142079119
 20
-3.5192965236
 10
-0.2115315333
 20
-3.537231438
 10
-0.2092727413
 20
-3.5549935902
 10
-0.2074289102
 20
-3.5725832786
 10
-0.2060010011
 20
-3.5899391375
 10
-0.2049893368
 20
-3.6070407132
 10
-0.2043935945
 20
-3.6239084594
 10
-0.2042137735
 20
-3.6405423756
  0
LWPOLYLINE
  5
283
100
AcDbEntity
  8
0
100
AcDbPolyline
 62
250
  6
CONTINUOUS
 90
21
 70
0
 10
-0.2042137735
 20
-3.6405423756
 10
-0.2097631964
 20
-3.6372075317
 10
-0.2150768735
 20
-3.6337474781
 10
-0.2201462814
 20
-3.6301677648
 10
-0.2249632887
 20
-3.6264741339
 10
-0.2295201687
 20
-3.6226725101
 10
-0.2338096121
 20
-3.6187689913
 10
-0.2378247383
 20
-3.6147698388
 10
-0.2415591071
 20
-3.6106814675
 10
-0.2450067284
 20
-3.6065104353
 10
-0.248162072
 20
-3.6022634326
 10
-0.2510200766
 20
-3.5979472717
 10
-0.2535761581
 20
-3.5935688759
 10
-0.2558262162
 20
-3.5891352684
 10
-0.2577666419
 20
-3.5846535607
 10
-0.2593943226
 20
-3.5801309417
 10
-0.2607066474
 20
-3.5755746658
 10
-0.2617015115
 20
-3.5709920415
 10
-0.2623773189
 20
-3.5663904194
 10
-0.2627329856
 20
-3.5617771807
 10
-0.2627924099
 20
-3.5588743614
  0
LWPOLYLINE
  5
284
100
AcDbEntity
  8
0
100
AcDbPolyline
 62
250
  6
CONTINUOUS
 90
21
 70
0
 10
-0.2045755646
 20
-4.008331687
 10
-0.210121332
 20
-4.0049856462
 10
-0.2154358593
 20
-4.0015274528
 10
-0.2205080598
 20
-3.9979558697
 10
-0.2253256941
 20
-3.9942633612
 10
-0.2298813313
 20
-3.9904562163
 10
-0.2341713799
 20
-3.9865537867
 10
-0.2381870421
 20
-3.9825550129
 10
-0.2419203748
 20
-3.9784602467
 10
-0.2453684882
 20
-3.974289865
 10
-0.2485242745
 20
-3.9700425914
 10
-0.2513814793
 20
-3.9657190516
 10
-0.2539379125
 20
-3.9613409601
 10
-0.2561883078
 20
-3.9569065354
 10
-0.2581282022
 20
-3.9524163741
 10
-0.2597560735
 20
-3.9478938058
 10
-0.261068605
 20
-3.94333628
 10
-0.2620632145
 20
-3.9387440599
 10
-0.262739067
 20
-3.9341423211
 10
-0.2630947733
 20
-3.9295275268
 10
-0.2631542085
 20
-3.9266737151
  0
LWPOLYLINE
  5
285
100
AcDbEntity
  8
0
100
AcDbPolyline
 62
250
  6
CONTINUOUS
 90
21
 70
0
 10
-0.2045755646
 20
-4.008331687
 10
-0.2044659713
 20
-4.0148105182
 10
-0.2041294772
 20
-4.0211480226
 10
-0.2035666221
 20
-4.027334024
 10
-0.2027783089
 20
-4.0333585909
 10
-0.201765803
 20
-4.0392120476
 10
-0.200530731
 20
-4.04488499
 10
-0.1990750765
 20
-4.0503683079
 10
-0.1974011764
 20
-4.0556531984
 10
-0.195511719
 20
-4.0607311752
 10
-0.1934097381
 20
-4.0655940851
 10
-0.191098609
 20
-4.0702341198
 10
-0.1885820435
 20
-4.0746438278
 10
-0.1858640826
 20
-4.078816129
 10
-0.1829490908
 20
-4.0827443244
 10
-0.1798417495
 20
-4.0864221062
 10
-0.1765470483
 20
-4.0898435698
 10
-0.1730702778
 20
-4.0930032217
 10
-0.1694170222
 20
-4.0958959884
 10
-0.1655931482
 20
-4.0985172255
 10
-0.1631590747
 20
-4.0999927786
  0
LWPOLYLINE
  5
286
100
AcDbEntity
  8
0
100
AcDbPolyline
 62
250
  6
CONTINUOUS
 90
21
 70
0
 10
-0.6980422794
 20
-2.7823739767
 10
-0.697945427
 20
-2.7888696414
 10
-0.6976210154
 20
-2.7952241548
 10
-0.6970695672
 20
-2.801427285
 10
-0.6962919703
 20
-2.8074690438
 10
-0.6952894767
 20
-2.8133397027
 10
-0.6940637007
 20
-2.8190298089
 10
-0.6926166161
 20
-2.8245302002
 10
-0.6909505529
 20
-2.8298320198
 10
-0.6890681939
 20
-2.834926731
 10
-0.68697257
 20
-2.8398061302
 10
-0.6846670556
 20
-2.8444623605
 10
-0.6821553632
 20
-2.8488879248
 10
-0.6794415369
 20
-2.8530756968
 10
-0.6765299466
 20
-2.8570189335
 10
-0.6734252805
 20
-2.8607112856
 10
-0.6701325378
 20
-2.8641468076
 10
-0.6666570205
 20
-2.8673199678
 10
-0.6630043247
 20
-2.8702256567
 10
-0.6591803321
 20
-2.8728591957
 10
-0.6566263904
 20
-2.8744111358
  0
LINE
  5
287
100
AcDbEntity
  8
0
100
AcDbLine
 62
7
  6
CONTINUOUS
 10
-0.2631542069
 20
-4.4951804668
 11
-0.2627924093
 21
-4.8625524689
  0
LINE
  5
288
100
AcDbEntity
  8
0
100
AcDbLine
 62
250
  6
CONTINUOUS
 10
-0.2045755646
 20
-4.5768294714
 11
-0.2042137735
 21
-4.9441936422
  0
LINE
  5
289
100
AcDbEntity
  8
0
100
AcDbLine
 62
7
  6
CONTINUOUS
 10
-0.2627924099
 20
-3.5588743614
 11
-0.2631542069
 21
-3.9266709778
  0
LINE
  5
28A
100
AcDbEntity
  8
0
100
AcDbLine
 62
250
  6
CONTINUOUS
 10
-0.2042137735
 20
-3.6405423756
 11
-0.2045755646
 21
-4.008331687
  0
LWPOLYLINE
  5
28B
100
AcDbEntity
  8
0
100
AcDbPolyline
 62
7
  6
CONTINUOUS
 90
28
 70
0
 10
-0.2627924482
 20
-4.8625546332
 10
-0.2628500345
 20
-4.8704273359
 10
-0.2631270482
 20
-4.8804275653
 10
-0.2636256984
 20
-4.8901141799
 10
-0.264337317
 20
-4.8994699207
 10
-0.2652529086
 20
-4.908488411
 10
-0.2663639932
 20
-4.9171693915
 10
-0.2676606607
 20
-4.9255021446
 10
-0.269131429
 20
-4.9334733647
 10
-0.2707643104
 20
-4.9410735567
 10
-0.272546276
 20
-4.94829271
 10
-0.2744620775
 20
-4.955117849
 10
-0.2764928307
 20
-4.9615313287
 10
-0.2786202782
 20
-4.9675247185
 10
-0.2808248155
 20
-4.9730910565
 10
-0.2830802188
 20
-4.9782142919
 10
-0.2853615419
 20
-4.9828893084
 10
-0.2876466391
 20
-4.9871215445
 10
-0.2899092527
 20
-4.9909132826
 10
-0.292119538
 20
-4.9942662368
 10
-0.2942584051
 20
-4.997202453
 10
-0.2963176705
 20
-4.9997577675
 10
-0.2982686834
 20
-5.0019418456
 10
-0.3001067828
 20
-5.0037937969
 10
-0.3018739882
 20
-5.00538982
 10
-0.3035906586
 20
-5.0067700337
 10
-0.3052477621
 20
-5.0079479
 10
-0.3066116131
 20
-5.0088088773
  0
LWPOLYLINE
  5
28C
100
AcDbEntity
  8
0
100
AcDbPolyline
 62
250
  6
CONTINUOUS
 90
55
 70
0
 10
-0.2042137735
 20
-4.9441936422
 10
-0.2043937483
 20
-4.9605717303
 10
-0.2049898616
 20
-4.9767016415
 10
-0.2060021143
 20
-4.9925833764
 10
-0.2074309071
 20
-5.0082371573
 10
-0.2092758392
 20
-5.0236427618
 10
-0.2115357158
 20
-5.0387395271
 10
-0.2142131457
 20
-5.0535244358
 10
-0.2173055344
 20
-5.0680005135
 10
-0.2208038938
 20
-5.0821161689
 10
-0.2247100754
 20
-5.0958678119
 10
-0.2290222536
 20
-5.1092590476
 10
-0.2337259352
 20
-5.1222490836
 10
-0.238820675
 20
-5.1348325803
 10
-0.2443069534
 20
-5.1470148977
 10
-0.2501716739
 20
-5.1587712971
 10
-0.256415155
 20
-5.1701012923
 10
-0.263037118
 20
-5.1810053926
 10
-0.2700235757
 20
-5.1914603562
 10
-0.2773766475
 20
-5.2014672278
 10
-0.2850942577
 20
-5.211024988
 10
-0.2931561323
 20
-5.2201073016
 10
-0.3015635088
 20
-5.2287127586
 10
-0.3103151978
 20
-5.2368427969
 10
-0.3193872909
 20
-5.2444753558
 10
-0.3287797675
 20
-5.2516083755
 10
-0.338492699
 20
-5.2582439452
 10
-0.3485023193
 20
-5.264366231
 10
-0.3588093141
 20
-5.2699741715
 10
-0.3694130491
 20
-5.2750688578
 10
-0.3802877815
 20
-5.2796376855
 10
-0.3914353707
 20
-5.2836796556
 10
-0.4028540076
 20
-5.2871957963
 10
-0.4145124495
 20
-5.2901765458
 10
-0.4264112325
 20
-5.2926201417
 10
-0.4385498688
 20
-5.2945283744
 10
-0.4508955816
 20
-5.2958970121
 10
-0.4634463992
 20
-5.2967248139
 10
-0.4762043378
 20
-5.2970130465
 10
-0.4891426025
 20
-5.2967612405
 10
-0.5022617079
 20
-5.2959688964
 10
-0.5155611784
 20
-5.2946365362
 10
-0.5290127343
 20
-5.2927652227
 10
-0.5426214076
 20
-5.2903525973
 10
-0.556382199
 20
-5.2874010376
 10
-0.5702517805
 20
-5.2839187095
 10
-0.5842321517
 20
-5.279902243
 10
-0.5983213389
 20
-5.2753550231
 10
-0.6124700529
 20
-5.2702953471
 10
-0.6266793494
 20
-5.2647196125
 10
-0.6409481904
 20
-5.258631432
 10
-0.6552241433
 20
-5.2520599239
 10
-0.6694897338
 20
-5.2450147963
 10
-0.6837624451
 20
-5.2374863462
 10
-0.6980422794
 20
-5.229474575
  0
LWPOLYLINE
  5
28D
100
AcDbEntity
  8
0
100
AcDbPolyline
 62
250
  6
CONTINUOUS
 90
40
 70
0
 10
-0.6980422794
 20
-5.229474575
 10
-0.6979454271
 20
-5.2228670705
 10
-0.6976210158
 20
-5.2161379376
 10
-0.697069568
 20
-5.2092980115
 10
-0.6962919717
 20
-5.2023583058
 10
-0.6952894788
 20
-5.1953299948
 10
-0.6940637036
 20
-5.1882243955
 10
-0.6926166199
 20
-5.1810529493
 10
-0.6909505577
 20
-5.1738272035
 10
-0.6890681997
 20
-5.166558793
 10
-0.6869725769
 20
-5.1592594214
 10
-0.6846670636
 20
-5.1519408421
 10
-0.6821553721
 20
-5.1446148394
 10
-0.6794415468
 20
-5.1372932096
 10
-0.6765299575
 20
-5.129987742
 10
-0.6734252924
 20
-5.1227101997
 10
-0.6701325505
 20
-5.1154723011
 10
-0.6666570339
 20
-5.1082857005
 10
-0.6630043388
 20
-5.1011619698
 10
-0.6591803467
 20
-5.0941125796
 10
-0.6551912151
 20
-5.0871488808
 10
-0.6510433671
 20
-5.0802820862
 10
-0.6467434817
 20
-5.0735232527
 10
-0.6422984825
 20
-5.0668832635
 10
-0.6377155268
 20
-5.0603728101
 10
-0.633001994
 20
-5.0540023756
 10
-0.6281654739
 20
-5.0477822177
 10
-0.6232137542
 20
-5.041722352
 10
-0.6181548082
 20
-5.0358325362
 10
-0.6129967816
 20
-5.0301222539
 10
-0.60774798
 20
-5.0246006998
 10
-0.6024168548
 20
-5.0192767648
 10
-0.5970119904
 20
-5.0141590212
 10
-0.5915420895
 20
-5.0092557099
 10
-0.5860159598
 20
-5.0045747259
 10
-0.5804424994
 20
-5.0001236066
 10
-0.5748306826
 20
-4.9959095192
 10
-0.5691895456
 20
-4.9919392492
 10
-0.5635281717
 20
-4.9882191894
 10
-0.5578556769
 20
-4.9847553299
  0
LWPOLYLINE
  5
28E
100
AcDbEntity
  8
0
100
AcDbPolyline
 62
250
  6
CONTINUOUS
 90
40
 70
0
 10
-0.2045755646
 20
-4.5768294714
 10
-0.2044659713
 20
-4.5702240847
 10
-0.2041294772
 20
-4.5634980055
 10
-0.2035666221
 20
-4.5566620333
 10
-0.202778309
 20
-4.5497271424
 10
-0.2017658032
 20
-4.5427044695
 10
-0.2005307312
 20
-4.5356052968
 10
-0.1990750765
 20
-4.528441025
 10
-0.1974011763
 20
-4.5212231558
 10
-0.1955117187
 20
-4.5139632801
 10
-0.1934097375
 20
-4.5066730546
 10
-0.1910986081
 20
-4.4993641854
 10
-0.1885820423
 20
-4.49204841
 10
-0.1858640812
 20
-4.4847374752
 10
-0.1829490891
 20
-4.47744312
 10
-0.1798417475
 20
-4.470177058
 10
-0.1765470461
 20
-4.4629509559
 10
-0.1730702755
 20
-4.4557764165
 10
-0.1694170197
 20
-4.4486649617
 10
-0.1655931456
 20
-4.4416280108
 10
-0.1616047931
 20
-4.4346768617
 10
-0.1574583665
 20
-4.4278226752
 10
-0.1531605233
 20
-4.4210764554
 10
-0.1487181655
 20
-4.4144490352
 10
-0.1441384288
 20
-4.407951059
 10
-0.1394286736
 20
-4.401592968
 10
-0.1345964564
 20
-4.3953849615
 10
-0.1296495196
 20
-4.3893369862
 10
-0.1245957808
 20
-4.3834587261
 10
-0.1194433776
 20
-4.3777596501
 10
-0.1142006408
 20
-4.37224897
 10
-0.1088760267
 20
-4.3669355636
 10
-0.1034780517
 20
-4.361827919
 10
-0.0980153352
 20
-4.3569341881
 10
-0.0924961837
 20
-4.3522618465
 10
-0.0869299149
 20
-4.3478188157
 10
-0.081326828
 20
-4.3436132197
 10
-0.0756963962
 20
-4.3396519443
 10
-0.0700472178
 20
-4.3359408156
 10
-0.0643883611
 20
-4.3324855999
  0
LWPOLYLINE
  5
28F
100
AcDbEntity
  8
0
100
AcDbPolyline
 62
250
  6
CONTINUOUS
 90
49
 70
0
 10
4.4945336462
 20
1.2104773806
 10
4.4826623368
 20
1.2045359609
 10
4.4704540749
 20
1.1988167808
 10
4.4579213589
 20
1.1933256953
 10
4.4450770195
 20
1.1880683261
 10
4.4319342065
 20
1.1830500555
 10
4.4185063749
 20
1.1782760211
 10
4.4048072721
 20
1.1737511105
 10
4.3908509226
 20
1.169479956
 10
4.3766516148
 20
1.1654669305
 10
4.3622238853
 20
1.1617161423
 10
4.3475825051
 20
1.1582314314
 10
4.3327424635
 20
1.1550163654
 10
4.3177189534
 20
1.1520742358
 10
4.3025273556
 20
1.1494080546
 10
4.2871832226
 20
1.1470205514
 10
4.2717022635
 20
1.1449141704
 10
4.2561003273
 20
1.1430910682
 10
4.2403933869
 20
1.1415531112
 10
4.2245975225
 20
1.1403018739
 10
4.2087289056
 20
1.1393386372
 10
4.1928037821
 20
1.1386643874
 10
4.1768384557
 20
1.1382798146
 10
4.1608492712
 20
1.1381853127
 10
4.1448525981
 20
1.1383809783
 10
4.1288648132
 20
1.1388666112
 10
4.1129022845
 20
1.1396417141
 10
4.0969813539
 20
1.1407054936
 10
4.081118321
 20
1.1420568605
 10
4.0653294258
 20
1.1436944314
 10
4.0496308326
 20
1.1456165298
 10
4.0340386133
 20
1.1478211878
 10
4.0185687308
 20
1.1503061485
 10
4.0032370227
 20
1.1530688676
 10
3.9880591851
 20
1.156106517
 10
3.9730507569
 20
1.1594159867
 10
3.9582271032
 20
1.1629938885
 10
3.9436034002
 20
1.1668365594
 10
3.9291946191
 20
1.1709400656
 10
3.9150155113
 20
1.1753002058
 10
3.901080593
 20
1.1799125164
 10
3.8874041305
 20
1.1847722752
 10
3.8740001253
 20
1.1898745071
 10
3.8608823001
 20
1.1952139885
 10
3.8480640845
 20
1.200785253
 10
3.8355586017
 20
1.2065825968
 10
3.8233786542
 20
1.2126000849
 10
3.8115367117
 20
1.2188315566
 10
3.8000448977
 20
1.2252706323
  0
LINE
  5
290
100
AcDbEntity
  8
RACCORDO
100
AcDbLine
 62
7
  6
CONTINUOUS
 10
8.1052114549
 20
-4.5179630909
 11
8.0144297359
 21
-4.4655468641
  0
LWPOLYLINE
  5
291
100
AcDbEntity
  8
0
100
AcDbPolyline
 62
250
  6
CONTINUOUS
 90
52
 70
0
 10
5.2146414629
 20
-23.4048597528
 10
5.2162374636
 20
-23.4148204579
 10
5.2180900246
 20
-23.4245767803
 10
5.2201991458
 20
-23.4341287201
 10
5.2225667429
 20
-23.4434830824
 10
5.2251909003
 20
-23.4526330622
 10
5.228065871
 20
-23.4615582436
 10
5.2311921713
 20
-23.4702579382
 10
5.2345692849
 20
-23.4787328344
 10
5.2381899168
 20
-23.4869645822
 10
5.2420545827
 20
-23.4949526282
 10
5.2461627669
 20
-23.5026975257
 10
5.2505056266
 20
-23.5101825846
 10
5.2550836735
 20
-23.5174072576
 10
5.2598963958
 20
-23.5243720921
 10
5.2649334159
 20
-23.5310620403
 10
5.2701952183
 20
-23.537476508
 10
5.2756813185
 20
-23.5436160895
 10
5.2813798851
 20
-23.5494675206
 10
5.2872913791
 20
-23.5550301801
 10
5.2934153397
 20
-23.5603046891
 10
5.2997385524
 20
-23.5652796472
 10
5.3062614427
 20
-23.569954404
 10
5.3129835852
 20
-23.5743296098
 10
5.3198904895
 20
-23.5783958144
 10
5.3269825633
 20
-23.5821523549
 10
5.3342593989
 20
-23.5855998942
 10
5.3417052828
 20
-23.5887309711
 10
5.3493205718
 20
-23.5915448986
 10
5.3571049092
 20
-23.5940423637
 10
5.3650415109
 20
-23.5962179667
 10
5.3731307129
 20
-23.5980710145
 10
5.3813721793
 20
-23.5996022002
 10
5.3897481182
 20
-23.6008082033
 10
5.3982588208
 20
-23.6016883202
 10
5.406903996
 20
-23.6022432546
 10
5.4156649784
 20
-23.6024717967
 10
5.4245420211
 20
-23.6023732395
 10
5.433534871
 20
-23.60194829
 10
5.4426241033
 20
-23.6011978595
 10
5.451809912
 20
-23.600121248
 10
5.4610921031
 20
-23.5987191553
 10
5.4704506707
 20
-23.5969945925
 10
5.4798858117
 20
-23.5949468519
 10
5.4893973293
 20
-23.5925766411
 10
5.4989646269
 20
-23.5898890937
 10
5.5085881023
 20
-23.5868833873
 10
5.5182673578
 20
-23.5835603443
 10
5.527980604
 20
-23.5799275655
 10
5.5377205777
 20
-23.5759875844
 10
5.5474945421
 20
-23.5717378676
 10
5.5573024972
 20
-23.5671784149
  0
LWPOLYLINE
  5
292
100
AcDbEntity
  8
0
100
AcDbPolyline
 62
250
  6
CONTINUOUS
 90
25
 70
0
 10
4.5240399189
 20
-23.4564391309
 10
4.5271742898
 20
-23.4763117994
 10
4.5308186331
 20
-23.4957967233
 10
4.5349703657
 20
-23.5148798991
 10
4.5396265925
 20
-23.5335475946
 10
4.5447839638
 20
-23.5517864268
 10
4.5504386932
 20
-23.5695833584
 10
4.5565868409
 20
-23.5869257019
 10
4.5632240177
 20
-23.6038008986
 10
4.5703452448
 20
-23.6201965954
 10
4.5779454741
 20
-23.6361009913
 10
4.5860193337
 20
-23.6515027299
 10
4.5945608485
 20
-23.6663906625
 10
4.6035640114
 20
-23.6807541512
 10
4.6130224262
 20
-23.6945828739
 10
4.6229290496
 20
-23.7078667213
 10
4.6332768902
 20
-23.7205961967
 10
4.6440586142
 20
-23.7327621898
 10
4.6552661954
 20
-23.7443557753
 10
4.6668917232
 20
-23.7553686852
 10
4.6789269566
 20
-23.7657930514
 10
4.6913629281
 20
-23.7756211801
 10
4.7041908432
 20
-23.784846075
 10
4.7174016209
 20
-23.7934611754
 10
4.7266778913
 20
-23.7990136291
  0
LINE
  5
293
100
AcDbEntity
  8
DRAFT
100
AcDbLine
 62
7
  6
CONTINUOUS
 10
2.1989180023
 20
16.4555883698
 11
2.2201232916
 21
15.8391158724
  0
LINE
  5
294
100
AcDbEntity
  8
RACCORDO
100
AcDbLine
 62
250
  6
CONTINUOUS
 10
2.0186667529
 20
16.041368211
 11
2.0186667529
 21
15.9785502224
  0
LWPOLYLINE
  5
295
100
AcDbEntity
  8
0
100
AcDbPolyline
 62
250
  6
CONTINUOUS
 90
22
 70
0
 10
4.5240399189
 20
11.1739785186
 10
4.4642293289
 20
10.6895344171
 10
4.406941106
 20
10.2060425345
 10
4.3521773896
 20
9.7235216234
 10
4.2999401612
 20
9.2419904438
 10
4.2502314346
 20
8.7614676216
 10
4.2030532563
 20
8.2819716483
 10
4.1584073973
 20
7.8035211049
 10
4.1162955153
 20
7.3261345489
 10
4.0767193446
 20
6.8498303729
 10
4.0396803733
 20
6.374627038
 10
4.0051799737
 20
5.900542961
 10
3.9732195654
 20
5.4275964018
 10
3.9438003514
 20
4.9558056748
 10
3.9169234203
 20
4.4851890705
 10
3.8925898791
 20
4.015764743
 10
3.8708006461
 20
3.5475508742
 10
3.8515565243
 20
3.0805656009
 10
3.8348583055
 20
2.6148269371
 10
3.8207066377
 20
2.1503528946
 10
3.8091020242
 20
1.687161482
 10
3.8000448977
 20
1.2252706323
  0
LINE
  5
296
100
AcDbEntity
  8
0
100
AcDbLine
 62
7
  6
CONTINUOUS
 10
0.0256231217
 20
-4.2089932527
 11
-0.1657653286
 21
-4.3233897774
  0
LINE
  5
297
100
AcDbEntity
  8
0
100
AcDbLine
 62
250
  6
CONTINUOUS
 10
0.084929037
 20
-4.2432357449
 11
-0.0643883611
 21
-4.3324855999
  0
LINE
  5
298
100
AcDbEntity
  8
0
100
AcDbLine
 62
250
  6
CONTINUOUS
 10
-11.008547294
 20
9.7755661685
 11
3.8000448977
 21
1.2252706323
  0
LWPOLYLINE
  5
299
100
AcDbEntity
  8
0
100
AcDbPolyline
 62
250
  6
CONTINUOUS
 90
40
 70
0
 10
4.4286362625
 20
-6.8557866532
 10
4.4284743293
 20
-6.8491721723
 10
4.4280915036
 20
-6.8424314828
 10
4.4274884061
 20
-6.8355755141
 10
4.4266660146
 20
-6.8286153822
 10
4.4256256626
 20
-6.821562372
 10
4.4243690369
 20
-6.8144279192
 10
4.4228981749
 20
-6.8072235913
 10
4.4212154614
 20
-6.7999610694
 10
4.4193236248
 20
-6.7926521286
 10
4.4172257325
 20
-6.7853086196
 10
4.4149251859
 20
-6.7779424489
 10
4.412425715
 20
-6.7705655599
 10
4.4097313726
 20
-6.7631899132
 10
4.406846527
 20
-6.7558274676
 10
4.4037758558
 20
-6.7484901603
 10
4.4005243376
 20
-6.7411898879
 10
4.3970972444
 20
-6.7339384868
 10
4.3935001328
 20
-6.7267477144
 10
4.3897388351
 20
-6.7196292294
 10
4.3858194497
 20
-6.7125945738
 10
4.3817483314
 20
-6.7056551532
 10
4.3775320812
 20
-6.698822219
 10
4.373177535
 20
-6.6921068501
 10
4.3686917533
 20
-6.6855199346
 10
4.3640820091
 20
-6.6790721522
 10
4.3593557767
 20
-6.6727739573
 10
4.3545207189
 20
-6.6666355616
 10
4.3495846754
 20
-6.6606669178
 10
4.3445556491
 20
-6.6548777032
 10
4.3394417941
 20
-6.6492773042
 10
4.3342514019
 20
-6.6438748013
 10
4.328992888
 20
-6.638678954
 10
4.3236747784
 20
-6.6336981865
 10
4.3183056958
 20
-6.6289405747
 10
4.3128943455
 20
-6.6244138323
 10
4.3074495012
 20
-6.620125299
 10
4.3019799912
 20
-6.6160819279
 10
4.2964946836
 20
-6.612290275
 10
4.291002472
 20
-6.6087564878
  0
LWPOLYLINE
  5
29A
100
AcDbEntity
  8
0
100
AcDbPolyline
 62
250
  6
CONTINUOUS
 90
22
 70
0
 10
3.8000448977
 20
-14.2876646268
 10
3.8091020242
 20
-14.7397986332
 10
3.8207066377
 20
-15.1904888085
 10
3.8348583055
 20
-15.6397177194
 10
3.8515565243
 20
-16.087467996
 10
3.8708006461
 20
-16.5337223171
 10
3.8925898791
 20
-16.9784634105
 10
3.9169234203
 20
-17.4216740895
 10
3.9438003514
 20
-17.8633372099
 10
3.9732195654
 20
-18.3034356544
 10
4.0051799737
 20
-18.7419524126
 10
4.0396803733
 20
-19.1788705362
 10
4.0767193446
 20
-19.6141730952
 10
4.1162955153
 20
-20.0478432802
 10
4.1584073973
 20
-20.4798643257
 10
4.2030532563
 20
-20.9102194637
 10
4.2502314346
 20
-21.3388920735
 10
4.2999401612
 20
-21.7658655968
 10
4.3521773896
 20
-22.1911234588
 10
4.406941106
 20
-22.6146492104
 10
4.4642293289
 20
-23.0364265284
 10
4.5240399189
 20
-23.4564391309
  0
LWPOLYLINE
  5
29B
100
AcDbEntity
  8
0
100
AcDbPolyline
 62
250
  6
CONTINUOUS
 90
22
 70
0
 10
4.4945336462
 20
-14.2869449433
 10
4.5035430044
 20
-14.7365964051
 10
4.515085157
 20
-15.1847778968
 10
4.5291601039
 20
-15.6314894184
 10
4.5457685847
 20
-16.0767481825
 10
4.5649098599
 20
-16.5205369765
 10
4.5865817106
 20
-16.9628041629
 10
4.6107844295
 20
-17.4035495218
 10
4.637517724
 20
-17.8427732731
 10
4.6667784976
 20
-18.2804244395
 10
4.6985670429
 20
-18.7165028337
 10
4.7328830672
 20
-19.1510086428
 10
4.7697225965
 20
-19.5838914516
 10
4.8090859235
 20
-20.015151077
 10
4.8509727554
 20
-20.4447877021
 10
4.8953782394
 20
-20.8727514601
 10
4.9423026715
 20
-21.2990421849
 10
4.9917457558
 20
-21.7236600428
 10
5.0437017511
 20
-22.1465556653
 10
5.0981687439
 20
-22.5677125965
 10
5.1551486478
 20
-22.9871472923
 10
5.2146414629
 20
-23.4048597528
  0
LWPOLYLINE
  5
29C
100
AcDbEntity
  8
0
100
AcDbPolyline
 62
250
  6
CONTINUOUS
 90
21
 70
0
 10
3.7340849544
 20
-6.2824649075
 10
3.7341945332
 20
-6.2889433208
 10
3.7345309828
 20
-6.2952804218
 10
3.7350937633
 20
-6.3014660365
 10
3.735881971
 20
-6.307490234
 10
3.7368943406
 20
-6.3133433429
 10
3.7381292466
 20
-6.3190159659
 10
3.7395847066
 20
-6.3244989961
 10
3.7412583838
 20
-6.3297836306
 10
3.7431475912
 20
-6.334861385
 10
3.7452492956
 20
-6.3397241072
 10
3.747560123
 20
-6.3443639904
 10
3.7500763634
 20
-6.3487735853
 10
3.7527939769
 20
-6.3529458126
 10
3.7557086007
 20
-6.3568739737
 10
3.7588155553
 20
-6.3605517623
 10
3.7621098526
 20
-6.3639732738
 10
3.7655862038
 20
-6.367133015
 10
3.7692390278
 20
-6.3700259131
 10
3.7730624599
 20
-6.3726473237
 10
3.775499464
 20
-6.3741248557
  0
LWPOLYLINE
  5
29D
100
AcDbEntity
  8
0
100
AcDbPolyline
 62
250
  6
CONTINUOUS
 90
10
 70
0
 10
3.734082982
 20
-6.8509615533
 10
3.7353588052
 20
-7.6805800125
 10
3.7381479553
 20
-8.5093748962
 10
3.7424504008
 20
-9.3373427882
 10
3.7482660109
 20
-10.1644775887
 10
3.7555948259
 20
-10.9907785811
 10
3.7644371037
 20
-11.8162504041
 10
3.774792938
 20
-12.6408923099
 10
3.7866622112
 20
-13.4646981907
 10
3.8000448977
 20
-14.2876646268
  0
LWPOLYLINE
  5
29E
100
AcDbEntity
  8
0
100
AcDbPolyline
 62
250
  6
CONTINUOUS
 90
10
 70
0
 10
4.428638364
 20
-6.8557855012
 10
4.4299082655
 20
-7.6847909619
 10
4.4326911793
 20
-8.5129667834
 10
4.4369871052
 20
-9.3403129657
 10
4.4427961275
 20
-10.1668303493
 10
4.450118162
 20
-10.9925180938
 10
4.4589529563
 20
-11.8173736776
 10
4.4693004264
 20
-12.6413962602
 10
4.4811606564
 20
-13.4645866821
 10
4.4945336462
 20
-14.2869449433
  0
LWPOLYLINE
  5
29F
100
AcDbEntity
  8
0
100
AcDbPolyline
 62
250
  6
CONTINUOUS
 90
10
 70
0
 10
3.8000448977
 20
1.2252706323
 10
3.7866622112
 20
0.3878921113
 10
3.774792938
 20
-0.448696032
 10
3.7644371037
 20
-1.2844903483
 10
3.7555948259
 20
-2.1194847625
 10
3.7482660109
 20
-2.9536784664
 10
3.7424504008
 20
-3.787075892
 10
3.7381479553
 20
-4.619676201
 10
3.7353588052
 20
-5.4514733108
 10
3.734082982
 20
-6.2824637686
  0
LWPOLYLINE
  5
2A0
100
AcDbEntity
  8
0
100
AcDbPolyline
 62
250
  6
CONTINUOUS
 90
10
 70
0
 10
4.4945336462
 20
1.2104773806
 10
4.4811606564
 20
0.3737184815
 10
4.4693004264
 20
-0.4622435702
 10
4.4589529563
 20
-1.2974087747
 10
4.450118162
 20
-2.131778063
 10
4.4427961275
 20
-2.965350504
 10
4.4369871052
 20
-3.7981233046
 10
4.4326911793
 20
-4.6300955335
 10
4.4299082655
 20
-5.4612681218
 10
4.428638364
 20
-6.2916410697
  0
LWPOLYLINE
  5
2A1
100
AcDbEntity
  8
0
100
AcDbPolyline
 62
250
  6
CONTINUOUS
 90
40
 70
0
 10
3.7340849544
 20
-6.8509626922
 10
3.7341945331
 20
-6.8443577407
 10
3.7345309827
 20
-6.8376321166
 10
3.7350937631
 20
-6.8307966178
 10
3.7358819707
 20
-6.8238622184
 10
3.7368943401
 20
-6.8168400512
 10
3.7381292459
 20
-6.8097413902
 10
3.7395847057
 20
-6.8025776319
 10
3.7412583826
 20
-6.7953602776
 10
3.7431475896
 20
-6.7881009145
 10
3.7452492938
 20
-6.7808111971
 10
3.7475601209
 20
-6.7735028288
 10
3.7500763609
 20
-6.7661875431
 10
3.7527939741
 20
-6.7588770842
 10
3.7557085975
 20
-6.7515831889
 10
3.7588155518
 20
-6.7443175673
 10
3.7621098488
 20
-6.7370918841
 10
3.7655861997
 20
-6.7299177398
 10
3.7692390233
 20
-6.7228066523
 10
3.7730624551
 20
-6.7157700382
 10
3.7770503569
 20
-6.7088191944
 10
3.781196326
 20
-6.7019652804
 10
3.7854937064
 20
-6.6952192998
 10
3.7899355987
 20
-6.6885920831
 10
3.7945148717
 20
-6.68209427
 10
3.7992241735
 20
-6.6757362925
 10
3.8040559434
 20
-6.6695283582
 10
3.8090024242
 20
-6.6634804336
 10
3.8140556746
 20
-6.6576022285
 10
3.8192075817
 20
-6.6519031801
 10
3.8244498744
 20
-6.6463924381
 10
3.8297741362
 20
-6.6410788496
 10
3.8351718194
 20
-6.6359709456
 10
3.8406342581
 20
-6.6310769266
 10
3.8461526825
 20
-6.6264046496
 10
3.8517182331
 20
-6.621961616
 10
3.8573219745
 20
-6.6177549589
 10
3.8629549102
 20
-6.6137914318
 10
3.8686079966
 20
-6.6100773981
 10
3.874272158
 20
-6.6066188205
  0
LWPOLYLINE
  5
2A2
100
AcDbEntity
  8
0
100
AcDbPolyline
 62
250
  6
CONTINUOUS
 90
21
 70
0
 10
4.4286362625
 20
-6.2916421807
 10
4.4284743293
 20
-6.2981750298
 10
4.4280915037
 20
-6.3045603536
 10
4.4274884064
 20
-6.3107877991
 10
4.4266660152
 20
-6.3168472694
 10
4.4256256634
 20
-6.3227289398
 10
4.424369038
 20
-6.3284232739
 10
4.4228981764
 20
-6.3339210389
 10
4.4212154633
 20
-6.3392133211
 10
4.4193236272
 20
-6.3442915395
 10
4.4172257353
 20
-6.3491474606
 10
4.4149251892
 20
-6.3537732111
 10
4.4124257188
 20
-6.3581612908
 10
4.4097313769
 20
-6.362304585
 10
4.4068465318
 20
-6.366196376
 10
4.4037758611
 20
-6.3698303536
 10
4.4005243434
 20
-6.3732006259
 10
4.3970972507
 20
-6.3763017283
 10
4.3935001395
 20
-6.3791286328
 10
4.3897388422
 20
-6.381676756
 10
4.385717779
 20
-6.3839958498
  0
LWPOLYLINE
  5
2A3
100
AcDbEntity
  8
0
100
AcDbPolyline
 62
250
  6
CONTINUOUS
 90
22
 70
0
 10
5.2146414629
 20
11.103836726
 10
5.1551486478
 20
10.6220597222
 10
5.0981687439
 20
10.1412664991
 10
5.0437017511
 20
9.6614570565
 10
4.9917457558
 20
9.1826128777
 10
4.9423026715
 20
8.7047524795
 10
4.8953782394
 20
8.2279314123
 10
4.8509727554
 20
7.7521498288
 10
4.8090859235
 20
7.2774075763
 10
4.7697225965
 20
6.8037597471
 10
4.7328830672
 20
6.3312064737
 10
4.6985670429
 20
5.8597476237
 10
4.6667784976
 20
5.389437892
 10
4.637517724
 20
4.9202774065
 10
4.6107844295
 20
4.4522660394
 10
4.5865817106
 20
3.9854581025
 10
4.5649098599
 20
3.5198536909
 10
4.5457685847
 20
3.0554527096
 10
4.5291601039
 20
2.5923091853
 10
4.515085157
 20
2.1304411267
 10
4.5035430044
 20
1.6698305252
 10
4.4945336462
 20
1.2104773806
  0
LINE
  5
2A4
100
AcDbEntity
  8
0
100
AcDbLine
 62
250
  6
CONTINUOUS
 10
-0.2628631197
 20
-4.8084310188
 11
-0.557857701
 21
-4.9847541612
  0
LWPOLYLINE
  5
2A5
100
AcDbEntity
  8
0
100
AcDbPolyline
 62
250
  6
CONTINUOUS
 90
29
 70
0
 10
-0.3066107986
 20
-5.0088083967
 10
-0.308807177
 20
-5.0100980551
 10
-0.3161626725
 20
-5.0140967233
 10
-0.3237225885
 20
-5.017724541
 10
-0.3314814256
 20
-5.0209788287
 10
-0.3394334172
 20
-5.0238569699
 10
-0.3475710942
 20
-5.02635607
 10
-0.3558861007
 20
-5.0284736193
 10
-0.3643711007
 20
-5.0302078818
 10
-0.3730189838
 20
-5.0315575381
 10
-0.3818213393
 20
-5.032521569
 10
-0.3907688087
 20
-5.0330993289
 10
-0.3998553352
 20
-5.0332908008
 10
-0.4090774023
 20
-5.0330960452
 10
-0.4184274359
 20
-5.0325149455
 10
-0.4278973246
 20
-5.0315477289
 10
-0.4374828853
 20
-5.0301945257
 10
-0.4471793564
 20
-5.0284551386
 10
-0.4569754231
 20
-5.0263307427
 10
-0.4668568506
 20
-5.0238243126
 10
-0.4768161318
 20
-5.0209376847
 10
-0.4868437276
 20
-5.0176735766
 10
-0.4969218898
 20
-5.0140385328
 10
-0.5070418049
 20
-5.0100366789
 10
-0.517194661
 20
-5.0056724583
 10
-0.5273624124
 20
-5.0009553992
 10
-0.5375331243
 20
-4.9958932107
 10
-0.54770111
 20
-4.9904906387
 10
-0.5578576948
 20
-4.9847541574
  0
LWPOLYLINE
  5
2A6
100
AcDbEntity
  8
0
100
AcDbPolyline
 62
250
  6
CONTINUOUS
 90
49
 70
0
 10
5.5573024972
 20
11.6351482258
 10
5.5564952748
 20
11.6482477467
 10
5.555324613
 20
11.6615588385
 10
5.5537917624
 20
11.6750672805
 10
5.5518983606
 20
11.6887586412
 10
5.5496464304
 20
11.7026182934
 10
5.5470383777
 20
11.7166314306
 10
5.5440769887
 20
11.7307830819
 10
5.5407654272
 20
11.7450581287
 10
5.5371072309
 20
11.7594413203
 10
5.5331063082
 20
11.7739172907
 10
5.5287669333
 20
11.7884705746
 10
5.5240937422
 20
11.8030856244
 10
5.5190917274
 20
11.8177468261
 10
5.5137662326
 20
11.8324385168
 10
5.5081229474
 20
11.8471450006
 10
5.5021679007
 20
11.8618505663
 10
5.4959074543
 20
11.8765395032
 10
5.4893482967
 20
11.8911961186
 10
5.4824974352
 20
11.9058047544
 10
5.4753621888
 20
11.9203498036
 10
5.4679501803
 20
11.9348157272
 10
5.4602693283
 20
11.9491870708
 10
5.4523278386
 20
11.9634484808
 10
5.4441341951
 20
11.9775847214
 10
5.4356971517
 20
11.9915806902
 10
5.4270257218
 20
12.0054214348
 10
5.4181291694
 20
12.0190921687
 10
5.4090169991
 20
12.032578287
 10
5.3996989457
 20
12.0458653818
 10
5.390184964
 20
12.0589392582
 10
5.3804852182
 20
12.0717859488
 10
5.3706100709
 20
12.084391729
 10
5.360570072
 20
12.0967431316
 10
5.3503759477
 20
12.1088269612
 10
5.3400385887
 20
12.1206303081
 10
5.3295690387
 20
12.1321405624
 10
5.3189784828
 20
12.1433454273
 10
5.3082782353
 20
12.1542329322
 10
5.2974797275
 20
12.1647914456
 10
5.2865944961
 20
12.1750096875
 10
5.27563417
 20
12.1848767412
 10
5.2646104586
 20
12.1943820655
 10
5.2535351388
 20
12.2035155055
 10
5.242420043
 20
12.2122673036
 10
5.2312770457
 20
12.22062811
 10
5.2201180514
 20
12.2285889924
 10
5.2089549817
 20
12.2361414459
 10
5.1977997624
 20
12.2432774021
  0
LWPOLYLINE
  5
2A7
100
AcDbEntity
  8
0
100
AcDbPolyline
 62
250
  6
CONTINUOUS
 90
27
 70
0
 10
5.5573024972
 20
-23.5671784149
 10
5.5564952748
 20
-23.5807254762
 10
5.5553246128
 20
-23.5940324991
 10
5.5537917621
 20
-23.6070852672
 10
5.5518983601
 20
-23.6198698358
 10
5.5496464298
 20
-23.6323725466
 10
5.5470383768
 20
-23.6445800425
 10
5.5440769876
 20
-23.6564792819
 10
5.5407654258
 20
-23.6680575522
 10
5.5371072293
 20
-23.6793024842
 10
5.5331063062
 20
-23.6902020643
 10
5.528766931
 20
-23.7007446482
 10
5.5240937396
 20
-23.7109189728
 10
5.5190917244
 20
-23.7207141685
 10
5.5137662293
 20
-23.7301197708
 10
5.5081229438
 20
-23.7391257313
 10
5.5021678967
 20
-23.7477224286
 10
5.4959074501
 20
-23.7559006786
 10
5.4893482922
 20
-23.7636517441
 10
5.4824974304
 20
-23.7709673444
 10
5.4753621837
 20
-23.777839664
 10
5.467950175
 20
-23.7842613608
 10
5.4602693228
 20
-23.7902255745
 10
5.4523278328
 20
-23.7957259332
 10
5.4441341893
 20
-23.8007565606
 10
5.4356971457
 20
-23.8053120824
 10
5.4326509178
 20
-23.8068113205
  0
LINE
  5
2A8
100
AcDbEntity
  8
0
100
AcDbLine
 62
7
  6
CONTINUOUS
 10
7.6953800565
 20
12.9113538842
 11
8.2466759174
 21
6.1777647551
  0
LINE
  5
2A9
100
AcDbEntity
  8
0
100
AcDbLine
 62
7
  6
CONTINUOUS
 10
8.2466759174
 20
-4.7628934385
 11
8.2466759174
 21
-15.2137564968
  0
LINE
  5
2AA
100
AcDbEntity
  8
0
100
AcDbLine
 62
7
  6
CONTINUOUS
 10
8.2466759174
 20
-4.2730983032
 11
8.2466759174
 21
6.1777647551
  0
LINE
  5
2AB
100
AcDbEntity
  8
0
100
AcDbLine
 62
250
  6
CONTINUOUS
 10
8.1052114549
 20
-4.5179630909
 11
4.291002472
 21
-6.6087564878
  0
LINE
  5
2AC
100
AcDbEntity
  8
0
100
AcDbLine
 62
250
  6
CONTINUOUS
 10
8.2466759174
 20
-4.7628934385
 11
4.428638364
 21
-6.8557855012
  0
LWPOLYLINE
  5
2AD
100
AcDbEntity
  8
0
100
AcDbPolyline
 62
250
  6
CONTINUOUS
 90
52
 70
0
 10
4.291002472
 20
-6.6087564878
 10
4.2842963333
 20
-6.6123236486
 10
4.277422494
 20
-6.6157670693
 10
4.2703809541
 20
-6.6190867501
 10
4.2631647331
 20
-6.6222856393
 10
4.2557808115
 20
-6.6253607886
 10
4.2482501307
 20
-6.6283033525
 10
4.2405725633
 20
-6.631112818
 10
4.2327482367
 20
-6.6337896982
 10
4.2247984751
 20
-6.6363266872
 10
4.2167229588
 20
-6.6387233926
 10
4.2085220076
 20
-6.6409802068
 10
4.2002179051
 20
-6.6430910016
 10
4.1918103885
 20
-6.6450553782
 10
4.1832997208
 20
-6.6468737355
 10
4.1747089741
 20
-6.6485411414
 10
4.1660379014
 20
-6.650057191
 10
4.1572867498
 20
-6.6514222892
 10
4.1484793335
 20
-6.6526327186
 10
4.1396155142
 20
-6.6536880555
 10
4.1306954302
 20
-6.6545887236
 10
4.1217433107
 20
-6.6553322766
 10
4.1127590605
 20
-6.6559182874
 10
4.1037427748
 20
-6.656347183
 10
4.0947189678
 20
-6.6566177987
 10
4.0856876356
 20
-6.6567297039
 10
4.076648782
 20
-6.6566833292
 10
4.0676269334
 20
-6.6564788004
 10
4.0586221178
 20
-6.6561156872
 10
4.0496343071
 20
-6.65559442
 10
4.0406879432
 20
-6.654916416
 10
4.0317831488
 20
-6.6540812491
 10
4.0229198014
 20
-6.6530893454
 10
4.0141219748
 20
-6.6519434
 10
4.005389833
 20
-6.650642991
 10
3.996723212
 20
-6.6491885402
 10
3.9881456943
 20
-6.6475840093
 10
3.9796575515
 20
-6.6458289961
 10
3.9712585119
 20
-6.6439239026
 10
3.9629713427
 20
-6.6418738964
 10
3.9547963305
 20
-6.6396785815
 10
3.9467331888
 20
-6.6373383539
 10
3.9388038259
 20
-6.6348595691
 10
3.9310085854
 20
-6.6322418384
 10
3.9233471237
 20
-6.6294855506
 10
3.915840319
 20
-6.6265982276
 10
3.9084883484
 20
-6.6235793685
 10
3.9012910348
 20
-6.6204294743
 10
3.8942687243
 20
-6.6171575699
 10
3.887428199
 20
-6.6137666636
 10
3.880762677
 20
-6.6102537471
 10
3.874272158
 20
-6.6066188205
  0
LINE
  5
2AE
100
AcDbEntity
  8
0
100
AcDbLine
 62
250
  6
CONTINUOUS
 10
4.428638364
 20
-6.2916410697
 11
8.2466759174
 21
-4.2730983032
  0
LINE
  5
2AF
100
AcDbEntity
  8
0
100
AcDbLine
 62
7
  6
CONTINUOUS
 10
4.3857138804
 20
-6.3839979111
 11
8.2031014727
 21
-4.3657987699
  0
LWPOLYLINE
  5
2B0
100
AcDbEntity
  8
0
100
AcDbPolyline
 62
250
  6
CONTINUOUS
 90
52
 70
0
 10
4.428638364
 20
-6.8557855088
 10
4.4174710903
 20
-6.8616870351
 10
4.4060051511
 20
-6.8673912307
 10
4.3942509888
 20
-6.8728930034
 10
4.3822195435
 20
-6.8781873964
 10
4.3699215376
 20
-6.8832697485
 10
4.3573674149
 20
-6.8881356564
 10
4.344568237
 20
-6.892780863
 10
4.3315359055
 20
-6.8972010794
 10
4.318282422
 20
-6.9013921269
 10
4.3048198767
 20
-6.9053502367
 10
4.2911604136
 20
-6.9090718958
 10
4.2773164082
 20
-6.9125536345
 10
4.2633004373
 20
-6.9157923402
 10
4.249125192
 20
-6.9187851332
 10
4.2348034502
 20
-6.9215292184
 10
4.2203481501
 20
-6.9240221578
 10
4.205772447
 20
-6.9262617278
 10
4.1910896252
 20
-6.9282457941
 10
4.1763130262
 20
-6.9299725981
 10
4.1614560257
 20
-6.9314406252
 10
4.1465320888
 20
-6.9326484589
 10
4.1315547365
 20
-6.9335950442
 10
4.1165375647
 20
-6.9342795664
 10
4.101494223
 20
-6.9347013239
 10
4.0864383862
 20
-6.934859972
 10
4.0713836756
 20
-6.9347554117
 10
4.0563436778
 20
-6.9343876634
 10
4.0413319996
 20
-6.9337570899
 10
4.0263622874
 20
-6.9328643003
 10
4.0114481475
 20
-6.9317100387
 10
3.9966031185
 20
-6.9302953817
 10
3.9818406494
 20
-6.9286216461
 10
3.9671741183
 20
-6.9266902898
 10
3.9526168016
 20
-6.9245030838
 10
3.9381819258
 20
-6.9220620455
 10
3.9238826451
 20
-6.9193693501
 10
3.9097319726
 20
-6.9164274725
 10
3.8957426907
 20
-6.9132391017
 10
3.8819274063
 20
-6.90980707
 10
3.868298627
 20
-6.9061344977
 10
3.8548687351
 20
-6.9022247418
 10
3.841649899
 20
-6.8980813103
 10
3.8286540451
 20
-6.8937079474
 10
3.8158930254
 20
-6.8891086552
 10
3.8033785848
 20
-6.8842876471
 10
3.7911223503
 20
-6.87924943
 10
3.7791351277
 20
-6.8739984813
 10
3.767427115
 20
-6.868539237
 10
3.7560087538
 20
-6.8628765081
 10
3.7448906673
 20
-6.8570155164
 10
3.7340829822
 20
-6.8509615538
  0
LINE
  5
2B1
100
AcDbEntity
  8
0
100
AcDbLine
 62
7
  6
CONTINUOUS
 10
7.6953800565
 20
-22.5410058432
 11
8.2466759174
 21
-15.2137564968
  0
LINE
  5
2B2
100
AcDbEntity
  8
0
100
AcDbLine
 62
250
  6
CONTINUOUS
 10
4.5240399189
 20
11.1739785186
 11
-10.3331486867
 21
19.7523330152
  0
LINE
  5
2B3
100
AcDbEntity
  8
RACCORDO
100
AcDbLine
 62
7
  6
CONTINUOUS
 10
5.3186076441
 20
14.6543186696
 11
4.6459008233
 21
14.5244361858
  0
LINE
  5
2B4
100
AcDbEntity
  8
0
100
AcDbLine
 62
250
  6
CONTINUOUS
 10
5.1977997624
 20
12.2432774021
 11
-9.6825132936
 21
20.8349836665
  0
LWPOLYLINE
  5
2B5
100
AcDbEntity
  8
0
100
AcDbPolyline
 62
250
  6
CONTINUOUS
 90
49
 70
0
 10
4.4945336462
 20
-14.2869449433
 10
4.4826623368
 20
-14.2933829609
 10
4.4704540749
 20
-14.2995982306
 10
4.4579213589
 20
-14.3055843895
 10
4.4450770195
 20
-14.3113353089
 10
4.4319342064
 20
-14.3168451013
 10
4.4185063749
 20
-14.3221081258
 10
4.4048072721
 20
-14.3271189944
 10
4.3908509226
 20
-14.3318725771
 10
4.3766516148
 20
-14.3363640071
 10
4.3622238853
 20
-14.3405886864
 10
4.3475825051
 20
-14.3445422898
 10
4.3327424635
 20
-14.3482207697
 10
4.3177189535
 20
-14.3516203602
 10
4.3025273556
 20
-14.3547375809
 10
4.2871832226
 20
-14.3575692404
 10
4.2717022636
 20
-14.3601124398
 10
4.2561003274
 20
-14.3623645754
 10
4.2403933869
 20
-14.3643233415
 10
4.2245975226
 20
-14.3659867328
 10
4.2087289057
 20
-14.3673530463
 10
4.1928037822
 20
-14.3684208833
 10
4.1768384558
 20
-14.3691891505
 10
4.1608492713
 20
-14.3696570614
 10
4.1448525982
 20
-14.369824137
 10
4.1288648133
 20
-14.3696902062
 10
4.1129022846
 20
-14.3692554062
 10
4.096981354
 20
-14.368520182
 10
4.0811183211
 20
-14.3674852863
 10
4.0653294259
 20
-14.3661517788
 10
4.0496308328
 20
-14.3645210245
 10
4.0340386135
 20
-14.362594693
 10
4.0185687309
 20
-14.3603747565
 10
4.0032370228
 20
-14.3578634876
 10
3.9880591853
 20
-14.3550634573
 10
3.9730507571
 20
-14.3519775323
 10
3.9582271034
 20
-14.3486088717
 10
3.9436034004
 20
-14.3449609245
 10
3.9291946193
 20
-14.3410374251
 10
3.9150155115
 20
-14.3368423904
 10
3.9010805932
 20
-14.3323801152
 10
3.8874041307
 20
-14.3276551679
 10
3.8740001255
 20
-14.3226723856
 10
3.8608823003
 20
-14.3174368698
 10
3.8480640848
 20
-14.3119539802
 10
3.8355586019
 20
-14.3062293303
 10
3.8233786545
 20
-14.3002687806
 10
3.811536712
 20
-14.2940784336
 10
3.800044898
 20
-14.2876646266
  0
LINE
  5
2B6
100
AcDbEntity
  8
RACCORDO
100
AcDbLine
 62
7
  6
CONTINUOUS
 10
4.4527156581
 20
14.550045021
 11
2.070430562
 21
15.9255465784
  0
LINE
  5
2B7
100
AcDbEntity
  8
RACCORDO
100
AcDbLine
 62
7
  6
CONTINUOUS
 10
-3.4668802912
 20
19.1227204662
 11
-5.8491653873
 21
20.4982220237
  0
LINE
  5
2B8
100
AcDbEntity
  8
0
100
AcDbLine
 62
7
  6
CONTINUOUS
 10
-7.712476201
 20
22.1783031639
 11
-5.720677947
 21
21.0282638151
  0
LINE
  5
2B9
100
AcDbEntity
  8
DRAFT
100
AcDbLine
 62
7
  6
CONTINUOUS
 10
-2.6009883052
 20
19.2269941148
 11
2.1989180023
 21
16.4555883698
  0
LINE
  5
2BA
100
AcDbEntity
  8
0
100
AcDbLine
 62
7
  6
CONTINUOUS
 10
5.3186076441
 20
14.6543186696
 11
7.3104058981
 21
13.5042793208
  0
LINE
  5
2BB
100
AcDbEntity
  8
RACCORDO
100
AcDbLine
 62
7
  6
CONTINUOUS
 10
-2.6009883052
 20
19.2269941148
 11
-3.273695126
 21
19.0971116311
  0
LWPOLYLINE
  5
2BC
100
AcDbEntity
  8
0
100
AcDbPolyline
 62
250
  6
CONTINUOUS
 90
49
 70
0
 10
5.2146414629
 20
-23.4048597528
 10
5.202895955
 20
-23.4129303575
 10
5.1908131972
 20
-23.4207764306
 10
5.1784055658
 20
-23.4283899357
 10
5.1656857697
 20
-23.4357630742
 10
5.1526668375
 20
-23.442888294
 10
5.1393621045
 20
-23.4497582968
 10
5.1257851984
 20
-23.4563660458
 10
5.1119500259
 20
-23.4627047727
 10
5.0978707582
 20
-23.4687679849
 10
5.0835618164
 20
-23.4745494719
 10
5.0690378571
 20
-23.4800433119
 10
5.0543137568
 20
-23.4852438775
 10
5.0394045973
 20
-23.4901458418
 10
5.0243256498
 20
-23.494744184
 10
5.0090923595
 20
-23.4990341939
 10
4.9937203296
 20
-23.5030114773
 10
4.9782253055
 20
-23.5066719605
 10
4.9626231585
 20
-23.510011894
 10
4.9469298696
 20
-23.5130278567
 10
4.9311615134
 20
-23.5157167595
 10
4.915334241
 20
-23.5180758481
 10
4.8994642641
 20
-23.5201027062
 10
4.8835678381
 20
-23.5217952576
 10
4.8676612456
 20
-23.5231517688
 10
4.8517607794
 20
-23.5241708503
 10
4.8358827261
 20
-23.5248514582
 10
4.8200433493
 20
-23.5251928954
 10
4.8042588733
 20
-23.5251948122
 10
4.7885454657
 20
-23.5248572066
 10
4.7729192215
 20
-23.5241804244
 10
4.7573961466
 20
-23.5231651588
 10
4.741992141
 20
-23.5218124498
 10
4.7267229828
 20
-23.5201236829
 10
4.7116043119
 20
-23.518100588
 10
4.6966516143
 20
-23.5157452371
 10
4.6818802057
 20
-23.5130600429
 10
4.6673052163
 20
-23.5100477558
 10
4.6529415751
 20
-23.5067114612
 10
4.6388039945
 20
-23.5030545765
 10
4.6249069554
 20
-23.4990808473
 10
4.6112646924
 20
-23.4947943439
 10
4.5978911791
 20
-23.4901994569
 10
4.5848001138
 20
-23.4853008927
 10
4.5720049055
 20
-23.4801036689
 10
4.55951866
 20
-23.474613109
 10
4.547354167
 20
-23.4688348367
 10
4.5355238862
 20
-23.4627747709
 10
4.5240399354
 20
-23.4564391186
  0
LINE
  5
2BD
100
AcDbEntity
  8
0
100
AcDbLine
 62
250
  6
CONTINUOUS
 10
5.5573024972
 20
-23.5671784149
 11
7.6953800565
 21
-22.5410058432
  0
LINE
  5
2BE
100
AcDbEntity
  8
0
100
AcDbLine
 62
7
  6
CONTINUOUS
 10
5.4326509178
 20
-23.8068113205
 11
7.557184978
 21
-22.7871389654
  0
ARC
  5
2BF
100
AcDbEntity
  8
0
100
AcDbCircle
 62
7
  6
CONTINUOUS
 10
-0.0631542426
 20
-4.4950608729
 40
0.2
100
AcDbArc
 50
120.867565563
 51
180.0339563172
  0
ARC
  5
2C0
100
AcDbEntity
  8
0
100
AcDbCircle
 62
7
  6
CONTINUOUS
 10
-6.9899783964
 20
0.0726709652
 40
0.2
100
AcDbArc
 50
239.9991847121
 51
299.1356305765
  0
ARC
  5
2C1
100
AcDbEntity
  8
0
100
AcDbCircle
 62
7
  6
CONTINUOUS
 10
-0.0631542426
 20
-3.9267904877
 40
0.2
100
AcDbArc
 50
179.9660195317
 51
239.9992007504
  0
ELLIPSE
  5
2C2
100
AcDbEntity
  8
0
100
AcDbEllipse
 62
7
  6
CONTINUOUS
 10
8.1051683586
 20
-4.6812384809
 30
0.0
 11
-0.1001077396
 21
0.1731824807
 31
0.0
 40
0.577507303
 41
-2.3566621664
 42
-0.7861703913
  0
ELLIPSE
  5
2C3
100
AcDbEntity
  8
0
100
AcDbEllipse
 62
7
  6
CONTINUOUS
 10
7.3416694425
 20
-22.3359694787
 30
0.0
 11
-0.2149783503
 21
0.4514263066
 31
0.0
 40
0.6262155472
 41
-3.1396910161
 42
-2.3109372224
  0
ELLIPSE
  5
2C4
100
AcDbEntity
  8
0
100
AcDbEllipse
 62
7
  6
CONTINUOUS
 10
-5.7835172997
 20
0.2009949319
 30
0.0
 11
0.0857878533
 21
0.2752094472
 31
0.0
 40
0.2004214992
 41
-4.3952454116
 42
-3.7130006985
  0
ELLIPSE
  5
2C5
100
AcDbEntity
  8
0
100
AcDbEllipse
 62
7
  6
CONTINUOUS
 10
-6.1404821024
 20
-0.9441073061
 30
0.0
 11
0.7030599084
 21
-0.1582479458
 31
0.0
 40
0.2004820271
 41
0.5714508469
 42
1.356810934
  0
ELLIPSE
  5
2C6
100
AcDbEntity
  8
0
100
AcDbEllipse
 62
7
  6
CONTINUOUS
 10
-6.1404821024
 20
-0.9441073061
 30
0.0
 11
0.2144696332
 21
0.6880236181
 31
0.0
 40
0.2004214992
 41
-1.3567681321
 42
-0.5714080449
  0
ELLIPSE
  5
2C7
100
AcDbEntity
  8
0
100
AcDbEllipse
 62
7
  6
CONTINUOUS
 10
8.1051683586
 20
-4.1913438789
 30
0.0
 11
-0.100138119
 21
0.1732352972
 31
0.0
 40
0.5771556487
 41
-3.1634096716
 42
-2.3569659634
  0
ELLIPSE
  5
2C8
100
AcDbEntity
  8
0
100
AcDbEllipse
 62
7
  6
CONTINUOUS
 10
-7.6820737634
 20
21.7894247716
 30
0.0
 11
-0.2807337341
 21
0.4137505634
 31
0.0
 40
0.5254492115
 41
-0.8261225424
 42
0.0012090728
  0
ELLIPSE
  5
2C9
100
AcDbEntity
  8
RACCORDO
100
AcDbEllipse
 62
7
  6
CONTINUOUS
 10
4.5941370143
 20
14.6402578184
 30
0.0
 11
0.1999154856
 21
0.0095814127
 31
0.0
 40
0.6067642562
 41
-2.385266879
 42
-1.3380693278
  0
ELLIPSE
  5
2CA
100
AcDbEntity
  8
RACCORDO
100
AcDbEllipse
 62
7
  6
CONTINUOUS
 10
-3.325458935
 20
19.2129332637
 30
0.0
 11
0.1999154856
 21
0.0095814127
 31
0.0
 40
0.6067642562
 41
-2.385266879
 42
-1.3380693278
  0
ELLIPSE
  5
2CB
100
AcDbEntity
  8
0
100
AcDbEllipse
 62
7
  6
CONTINUOUS
 10
7.3416694425
 20
13.1149037363
 30
0.0
 11
-0.2810161013
 21
0.4142924366
 31
0.0
 40
0.524175859
 41
-2.3937039903
 42
-0.8247341631
  0
ELLIPSE
  5
2CC
100
AcDbEntity
  8
RACCORDO
100
AcDbEllipse
 62
7
  6
CONTINUOUS
 10
2.2118519182
 20
16.0157593759
 30
0.0
 11
0.1999154856
 21
0.0095814127
 31
0.0
 40
0.6067642562
 41
2.850720877
 42
3.8979184282
  0
ELLIPSE
  5
2CD
100
AcDbEntity
  8
RACCORDO
100
AcDbEllipse
 62
7
  6
CONTINUOUS
 10
-5.7077440311
 20
20.5884348211
 30
0.0
 11
0.1999154856
 21
0.0095814127
 31
0.0
 40
0.6067642562
 41
2.850720877
 42
3.8979184282
  0
ENDSEC
  0
SECTION
  2
OBJECTS
  0
DICTIONARY
  5
C
100
AcDbDictionary
280
0
281
1
  3
ACAD_GROUP
350
D
  3
ACAD_MLINESTYLE
350
17
  3
ACAD_LAYOUT
350
1A
  3
ACAD_PLOTSETTINGS
350
19
  3
ACAD_PLOTSTYLENAME
350
E
  0
DICTIONARY
  5
D
102
{ACAD_REACTORS
330
C
102
}
100
AcDbDictionary
280
0
281
1
  0
ACDBDICTIONARYWDFLT
  5
E
102
{ACAD_REACTORS
330
C
102
}
100
AcDbDictionary
281
1
  3
Normal
350
F
100
AcDbDictionaryWithDefault
340
F
  0
DICTIONARY
  5
17
102
{ACAD_REACTORS
330
C
102
}
100
AcDbDictionary
280
0
281
1
  3
Standard
350
18
  0
DICTIONARY
  5
19
102
{ACAD_REACTORS
330
C
102
}
100
AcDbDictionary
281
1
  0
DICTIONARY
  5
1A
102
{ACAD_REACTORS
330
C
102
}
100
AcDbDictionary
281
1
  3
Model
350
2CE
  3
Layout1
350
2CF
  0
ACDBPLACEHOLDER
  5
F
102
{ACAD_REACTORS
330
E
102
}
  0
MLINESTYLE
  5
18
102
{ACAD_REACTORS
330
17
102
}
100
AcDbMlineStyle
  2
STANDARD
 70
0
  3

 62
256
 51
90.0
 52
90.0
 71
2
 49
0.5
 62
256
  6
BYLAYER
 49
-0.5
 62
256
  6
BYLAYER
  0
LAYOUT
  5
2CE
102
{ACAD_REACTORS
330
1A
102
}
100
AcDbPlotSettings
  1

  2
none_device
  4

  6

 40
0.0
 41
0.0
 42
0.0
 43
0.0
 44
210.0
 45
297.0
 46
0.0
 47
0.0
 48
0.0
 49
0.0
140
0.0
141
0.0
142
1.0
143
1.0
 70
1024
 72
1
 73
0
 74
0
  7

 75
0
147
1.0
148
0.0
149
0.0
100
AcDbLayout
  1
Model
 70
0
 71
0
 10
0.0
 20
0.0
 11
210.0
 21
297.0
 12
0.0
 22
0.0
 32
0.0
 14
0.0
 24
0.0
 34
0.0
 15
0.0
 25
0.0
 35
0.0
146
0.0
 13
0.0
 23
0.0
 33
0.0
 16
1.0
 26
0.0
 36
0.0
 17
0.0
 27
1.0
 37
0.0
 76
0
330
223
345
0
346
0
  0
LAYOUT
  5
2CF
102
{ACAD_REACTORS
330
1A
102
}
100
AcDbPlotSettings
  1

  2
none_device
  4

  6

 40
0.0
 41
0.0
 42
0.0
 43
0.0
 44
210.0
 45
297.0
 46
0.0
 47
0.0
 48
0.0
 49
0.0
140
0.0
141
0.0
142
1.0
143
1.0
 70
0
 72
1
 73
0
 74
0
  7

 75
0
147
1.0
148
0.0
149
0.0
100
AcDbLayout
  1
Layout1
 70
0
 71
1
 10
0.0
 20
0.0
 11
210.0
 21
297.0
 12
0.0
 22
0.0
 32
0.0
 14
0.0
 24
0.0
 34
0.0
 15
0.0
 25
0.0
 35
0.0
146
0.0
 13
0.0
 23
0.0
 33
0.0
 16
1.0
 26
0.0
 36
0.0
 17
0.0
 27
1.0
 37
0.0
 76
0
330
224
345
0
346
0
  0
ENDSEC
  0
EOF
