  0
SECTION
  2
HEADER
  9
$ACADVER
  1
AC1024
  9
$DWGCODEPAGE
  3
ANSI_1252
  9
$EXTMAX
 10
210.0
 20
297.0
 30
0.0
  9
$EXTMIN
 10
0.0
 20
0.0
 30
0.0
  9
$LIMMIN
 10
0.0
 20
0.0
  9
$LIMMAX
 10
210.0
 20
297.0
  9
$VIEWCTR
 10
105.0
 20
148.5
  9
$VIEWSIZE
 40
297.0
  9
$CLAYER
  8
0
  9
$LTSCALE
 40
19.36
  9
$CELTYPE
  6
BYLAYER
  9
$DIMSCALE
 40
1.0
  9
$DIMASZ
 40
3.0
  9
$DIMEXO
 40
0.5
  9
$DIMDLI
 40
13.376
  9
$DIMEXE
 40
1.5
  9
$DIMCEN
 40
3.168
  9
$DIMLFAC
 40
1.0
  9
$DIMBLK
  1
_FILLED
  9
$DIMALT
 70
0
  9
$DIMALTF
 40
0.0393700787
  9
$DIMTXT
 40
3.0
  9
$DIMTOL
 70
1
  9
$DIMLIM
 70
0
  9
$DIMTFAC
 40
1.0
  9
$DIMTP
 40
0.01
  9
$DIMTM
 40
0.01
  9
$DIMGAP
 40
0.625
  9
$DIMDSEP
 70
44
  9
$AUNITS
 70
0
  9
$PDMODE
 70
3
  9
$PDSIZE
 40
3.0
  9
$HANDSEED
  5
4C1
  9
$TILEMODE
 70
1
  9
$MEASUREMENT
 70
1
  9
$INSUNITS
 70
4
  0
ENDSEC
  0
SECTION
  2
CLASSES
  0
CLASS
  1
ACDBDICTIONARYWDFLT
  2
AcDbDictionaryWithDefault
  3
AutoCAD 2000
 90
0
 91
1
280
0
281
0
  0
CLASS
  1
ACDBPLACEHOLDER
  2
AcDbPlaceHolder
  3
AutoCAD 2000
 90
0
 91
1
280
0
281
0
  0
CLASS
  1
LAYOUT
  2
AcDbLayout
  3
AutoCAD 2000
 90
0
 91
0
280
0
281
0
  0
ENDSEC
  0
SECTION
  2
TABLES
  0
TABLE
  2
VPORT
  5
8
100
AcDbSymbolTable
 70
2
  0
VPORT
  5
1F4
100
AcDbSymbolTableRecord
100
AcDbViewportTableRecord
  2
*ACTIVE
 70
0
 10
0.0
 20
0.0
 11
1.0
 21
1.0
 12
105.0
 22
148.5
 13
0.0
 23
0.0
 14
1.0
 24
1.0
 15
0.0
 25
0.0
 16
0.0
 26
0.0
 36
1.0
 17
0.0
 27
0.0
 37
0.0
 40
297.0
 41
0.7070707071
 42
50.0
 43
0.0
 44
0.0
 50
0.0
 51
0.0
 71
0
 72
100
 73
1
 74
1
 75
0
 76
0
 77
0
 78
0
  0
ENDTAB
  0
TABLE
  2
LTYPE
  5
5
100
AcDbSymbolTable
 70
6
  0
LTYPE
  5
14
100
AcDbSymbolTableRecord
100
AcDbLinetypeTableRecord
  2
BYBLOCK
 70
0
  3

 72
65
 73
0
 40
0.0
  0
LTYPE
  5
15
100
AcDbSymbolTableRecord
100
AcDbLinetypeTableRecord
  2
BYLAYER
 70
0
  3

 72
65
 73
0
 40
0.0
  0
LTYPE
  5
16
100
AcDbSymbolTableRecord
100
AcDbLinetypeTableRecord
  2
CONTINUOUS
 70
64
  3
Solid line
 72
65
 73
0
 40
0.0
  0
LTYPE
  5
1F5
100
AcDbSymbolTableRecord
100
AcDbLinetypeTableRecord
  2
CENTER
 70
64
  3
____ _ ____ _ ____ _ ____ _ ____ _ ____ _ ____
 72
65
 73
4
 40
0.6
 49
0.375
 74
0
 49
-0.075
 74
0
 49
0.075
 74
0
 49
-0.075
 74
0
  0
LTYPE
  5
1F6
100
AcDbSymbolTableRecord
100
AcDbLinetypeTableRecord
  2
HIDDEN
 70
64
  3
- - - - - - - - - - - - - - - - - - - -
 72
65
 73
2
 40
0.2
 49
0.1
 74
0
 49
-0.1
 74
0
  0
LTYPE
  5
1F7
100
AcDbSymbolTableRecord
100
AcDbLinetypeTableRecord
  2
PHANTOM
 70
64
  3
_____ _ _ _____ _ _ _____ _ _ _____
 72
65
 73
6
 40
0.8
 49
0.45
 74
0
 49
-0.05
 74
0
 49
0.1
 74
0
 49
-0.05
 74
0
 49
0.1
 74
0
 49
-0.05
 74
0
  0
LTYPE
  5
1F8
100
AcDbSymbolTableRecord
100
AcDbLinetypeTableRecord
  2
DOT
 70
64
  3
. . . . . . . . . . . . . . . . . . . .
 72
65
 73
2
 40
0.2
 49
0.1
 74
0
 49
-0.1
 74
0
  0
LTYPE
  5
1F9
100
AcDbSymbolTableRecord
100
AcDbLinetypeTableRecord
  2
DASHED
 70
64
  3
- - - - - - - - - - - - - - - - - - - -
 72
65
 73
2
 40
0.2
 49
0.1
 74
0
 49
-0.1
 74
0
  0
ENDTAB
  0
TABLE
  2
LAYER
  5
2
100
AcDbSymbolTable
 70
36
  0
LAYER
  5
10
100
AcDbSymbolTableRecord
100
AcDbLayerTableRecord
  2
0
 70
0
 62
7
  6
CONTINUOUS
370
-3
390
F
  0
LAYER
  5
1FA
100
AcDbSymbolTableRecord
100
AcDbLayerTableRecord
  2
DEFAULT_1
 70
0
 62
7
  6
CENTER
370
-3
390
F
  0
LAYER
  5
1FB
100
AcDbSymbolTableRecord
100
AcDbLayerTableRecord
  2
DEFAULT_2
 70
0
 62
7
  6
HIDDEN
370
-3
390
F
  0
LAYER
  5
1FC
100
AcDbSymbolTableRecord
100
AcDbLayerTableRecord
  2
DEFAULT_3
 70
0
 62
7
  6
PHANTOM
370
-3
390
F
  0
LAYER
  5
1FD
100
AcDbSymbolTableRecord
100
AcDbLayerTableRecord
  2
ASSI
 70
0
 62
7
  6
CONTINUOUS
370
-3
390
F
  0
LAYER
  5
1FE
100
AcDbSymbolTableRecord
100
AcDbLayerTableRecord
  2
COLOR6
 70
0
 62
7
  6
CONTINUOUS
370
-3
390
F
  0
LAYER
  5
1FF
100
AcDbSymbolTableRecord
100
AcDbLayerTableRecord
  2
COLOR9
 70
0
 62
7
  6
CONTINUOUS
370
-3
390
F
  0
LAYER
  5
200
100
AcDbSymbolTableRecord
100
AcDbLayerTableRecord
  2
COORDINATE
 70
0
 62
7
  6
CONTINUOUS
370
-3
390
F
  0
LAYER
  5
201
100
AcDbSymbolTableRecord
100
AcDbLayerTableRecord
  2
COORD_ORIGINE
 70
0
 62
7
  6
CONTINUOUS
370
-3
390
F
  0
LAYER
  5
202
100
AcDbSymbolTableRecord
100
AcDbLayerTableRecord
  2
COPY_GEOMETRY
 70
0
 62
7
  6
CONTINUOUS
370
-3
390
F
  0
LAYER
  5
203
100
AcDbSymbolTableRecord
100
AcDbLayerTableRecord
  2
COPY_PUBLISH
 70
0
 62
7
  6
CONTINUOUS
370
-3
390
F
  0
LAYER
  5
204
100
AcDbSymbolTableRecord
100
AcDbLayerTableRecord
  2
COSMETIC
 70
0
 62
7
  6
CONTINUOUS
370
-3
390
F
  0
LAYER
  5
205
100
AcDbSymbolTableRecord
100
AcDbLayerTableRecord
  2
COSMETICI
 70
0
 62
7
  6
CONTINUOUS
370
-3
390
F
  0
LAYER
  5
206
100
AcDbSymbolTableRecord
100
AcDbLayerTableRecord
  2
CURVE
 70
0
 62
7
  6
CONTINUOUS
370
-3
390
F
  0
LAYER
  5
207
100
AcDbSymbolTableRecord
100
AcDbLayerTableRecord
  2
DRAFT
 70
0
 62
7
  6
CONTINUOUS
370
-3
390
F
  0
LAYER
  5
208
100
AcDbSymbolTableRecord
100
AcDbLayerTableRecord
  2
IGES
 70
0
 62
7
  6
CONTINUOUS
370
-3
390
F
  0
LAYER
  5
209
100
AcDbSymbolTableRecord
100
AcDbLayerTableRecord
  2
IGS_SCRITTE
 70
0
 62
7
  6
CONTINUOUS
370
-3
390
F
  0
LAYER
  5
20A
100
AcDbSymbolTableRecord
100
AcDbLayerTableRecord
  2
IMPORT_IGES
 70
0
 62
7
  6
CONTINUOUS
370
-3
390
F
  0
LAYER
  5
20B
100
AcDbSymbolTableRecord
100
AcDbLayerTableRecord
  2
INTFCLR_13457
 70
0
 62
7
  6
CONTINUOUS
370
-3
390
F
  0
LAYER
  5
20C
100
AcDbSymbolTableRecord
100
AcDbLayerTableRecord
  2
INTFCLR_20107
 70
0
 62
7
  6
CONTINUOUS
370
-3
390
F
  0
LAYER
  5
20D
100
AcDbSymbolTableRecord
100
AcDbLayerTableRecord
  2
INTF_11
 70
0
 62
7
  6
CONTINUOUS
370
-3
390
F
  0
LAYER
  5
20E
100
AcDbSymbolTableRecord
100
AcDbLayerTableRecord
  2
INTF_2
 70
0
 62
7
  6
CONTINUOUS
370
-3
390
F
  0
LAYER
  5
20F
100
AcDbSymbolTableRecord
100
AcDbLayerTableRecord
  2
INTF_20
 70
0
 62
7
  6
CONTINUOUS
370
-3
390
F
  0
LAYER
  5
210
100
AcDbSymbolTableRecord
100
AcDbLayerTableRecord
  2
INTF_YELLOW
 70
0
 62
7
  6
CONTINUOUS
370
-3
390
F
  0
LAYER
  5
211
100
AcDbSymbolTableRecord
100
AcDbLayerTableRecord
  2
NOTE
 70
0
 62
7
  6
CONTINUOUS
370
-3
390
F
  0
LAYER
  5
212
100
AcDbSymbolTableRecord
100
AcDbLayerTableRecord
  2
PIANI
 70
0
 62
7
  6
CONTINUOUS
370
-3
390
F
  0
LAYER
  5
213
100
AcDbSymbolTableRecord
100
AcDbLayerTableRecord
  2
PIANI_ORIGINE
 70
0
 62
7
  6
CONTINUOUS
370
-3
390
F
  0
LAYER
  5
214
100
AcDbSymbolTableRecord
100
AcDbLayerTableRecord
  2
PIANI_RIFERIMENTO
 70
0
 62
7
  6
CONTINUOUS
370
-3
390
F
  0
LAYER
  5
215
100
AcDbSymbolTableRecord
100
AcDbLayerTableRecord
  2
PUBLISH_GEOMETRY
 70
0
 62
7
  6
CONTINUOUS
370
-3
390
F
  0
LAYER
  5
216
100
AcDbSymbolTableRecord
100
AcDbLayerTableRecord
  2
PUNTI
 70
0
 62
7
  6
CONTINUOUS
370
-3
390
F
  0
LAYER
  5
217
100
AcDbSymbolTableRecord
100
AcDbLayerTableRecord
  2
RACCORDO
 70
0
 62
7
  6
CONTINUOUS
370
-3
390
F
  0
LAYER
  5
218
100
AcDbSymbolTableRecord
100
AcDbLayerTableRecord
  2
SIMBOLI
 70
0
 62
7
  6
CONTINUOUS
370
-3
390
F
  0
LAYER
  5
219
100
AcDbSymbolTableRecord
100
AcDbLayerTableRecord
  2
SMUSSO
 70
0
 62
7
  6
CONTINUOUS
370
-3
390
F
  0
LAYER
  5
21A
100
AcDbSymbolTableRecord
100
AcDbLayerTableRecord
  2
SNAPLINE
 70
0
 62
7
  6
CONTINUOUS
370
-3
390
F
  0
LAYER
  5
21B
100
AcDbSymbolTableRecord
100
AcDbLayerTableRecord
  2
SOLIDO
 70
0
 62
7
  6
CONTINUOUS
370
-3
390
F
  0
LAYER
  5
21C
100
AcDbSymbolTableRecord
100
AcDbLayerTableRecord
  2
SUPERFICI
 70
0
 62
7
  6
CONTINUOUS
370
-3
390
F
  0
LAYER
  5
21D
100
AcDbSymbolTableRecord
100
AcDbLayerTableRecord
  2
TRASH
 70
0
 62
7
  6
CONTINUOUS
370
-3
390
F
  0
LAYER
  5
21E
100
AcDbSymbolTableRecord
100
AcDbLayerTableRecord
  2
WHITE
 70
0
 62
7
  6
CONTINUOUS
370
-3
390
F
  0
LAYER
  5
21F
100
AcDbSymbolTableRecord
100
AcDbLayerTableRecord
  2
XSEC_DATUMS
 70
0
 62
7
  6
CONTINUOUS
370
-3
390
F
  0
LAYER
  5
220
100
AcDbSymbolTableRecord
100
AcDbLayerTableRecord
  2
___SHELL
 70
0
 62
7
  6
CONTINUOUS
370
-3
390
F
  0
ENDTAB
  0
TABLE
  2
STYLE
  5
3
100
AcDbSymbolTable
 70
1
  0
STYLE
  5
11
100
AcDbSymbolTableRecord
100
AcDbTextStyleTableRecord
  2
STANDARD
 70
0
 40
0.0
 41
0.8
 50
0.0
 71
0
 42
0.2
  3
txt
  4

  0
STYLE
  5
221
100
AcDbSymbolTableRecord
100
AcDbTextStyleTableRecord
  2
TEXTSTYLE_1
 70
0
 40
0.0
 41
0.8
 50
0.0
 71
0
 42
0.2
  3
gdt
  4

  0
ENDTAB
  0
TABLE
  2
VIEW
  5
6
100
AcDbSymbolTable
 70
0
  0
ENDTAB
  0
TABLE
  2
UCS
  5
7
100
AcDbSymbolTable
 70
0
  0
ENDTAB
  0
TABLE
  2
APPID
  5
9
100
AcDbSymbolTable
 70
1
  0
APPID
  5
222
100
AcDbSymbolTableRecord
100
AcDbRegAppTableRecord
  2
ACAD
 70
0
  0
ENDTAB
  0
TABLE
  2
BLOCK_RECORD
  5
1
100
AcDbSymbolTable
 70
0
  0
BLOCK_RECORD
  5
223
100
AcDbSymbolTableRecord
100
AcDbBlockTableRecord
  2
*Model_Space
  0
BLOCK_RECORD
  5
224
100
AcDbSymbolTableRecord
100
AcDbBlockTableRecord
  2
*Paper_Space
  0
BLOCK_RECORD
  5
225
100
AcDbSymbolTableRecord
100
AcDbBlockTableRecord
  2
_FILLED
  0
ENDTAB
  0
TABLE
  2
DIMSTYLE
  5
A
100
AcDbSymbolTable
 70
1
100
AcDbDimStyleTable
 71
0
  0
DIMSTYLE
105
226
100
AcDbSymbolTableRecord
100
AcDbDimStyleTableRecord
  2
STANDARD
 70
0
  3

  4

 40
1.0
 41
3.0
 42
0.5
 43
0.38
 44
1.5
 45
0.0
 46
0.0
 47
0.01
 48
0.01
140
3.0
141
0.09
142
0.0
143
25.4
144
1.0
145
0.0
146
1.0
147
0.625
 71
1
 72
0
 73
0
 74
0
 75
0
 76
0
 77
1
 78
8
 79
2
170
0
171
1
172
0
173
0
174
0
175
0
176
0
177
0
178
0
270
2
179
2
271
2
272
2
273
2
274
2
275
0
280
0
281
0
282
0
283
1
284
8
285
0
286
0
287
3
288
0
340
11
278
44
341
225
342
225
343
225
344
225
  0
ENDTAB
  0
ENDSEC
  0
SECTION
  2
BLOCKS
  0
BLOCK
  5
20
100
AcDbEntity
  8
0
100
AcDbBlockBegin
  2
*Model_Space
 70
0
 10
0.0
 20
0.0
 30
0.0
  3
*Model_Space
  1

  0
ENDBLK
  5
21
100
AcDbEntity
  8
0
100
AcDbBlockEnd
  0
BLOCK
  5
1C
100
AcDbEntity
  8
0
100
AcDbBlockBegin
  2
*Paper_Space
 70
0
 10
0.0
 20
0.0
 30
0.0
  3
*Paper_Space
  1

  0
ENDBLK
  5
1D
100
AcDbEntity
  8
0
100
AcDbBlockEnd
  0
BLOCK
  5
227
100
AcDbEntity
  8
0
100
AcDbBlockBegin
  2
_FILLED
 70
64
 10
0.0
 20
0.0
  3
_FILLED
  1

  0
SOLID
  5
228
100
AcDbEntity
  8
0
  6
BYBLOCK
 62
0
100
AcDbTrace
 10
0.0
 20
0.0
 11
-1.0
 21
0.3166666667
 12
-1.0
 22
-0.3166666667
 13
-1.0
 23
-0.3166666667
  0
ENDBLK
  5
229
100
AcDbEntity
  8
0
  6
BYBLOCK
 62
0
100
AcDbBlockEnd
  0
ENDSEC
  0
SECTION
  2
ENTITIES
  0
LWPOLYLINE
  5
22A
100
AcDbEntity
  8
0
100
AcDbPolyline
 62
7
  6
CONTINUOUS
 90
43
 70
0
 10
-9.9107987879
 20
21.1589888889
 10
-9.9268602997
 20
21.1478073334
 10
-9.9475618715
 20
21.1327066139
 10
-9.9679331141
 20
21.1170674546
 10
-9.9879866738
 20
21.1008918048
 10
-10.0077140737
 20
21.0841972982
 10
-10.0270839973
 20
21.06702227
 10
-10.0460994542
 20
21.0493770481
 10
-10.0647622864
 20
21.031271221
 10
-10.0830394134
 20
21.0127492343
 10
-10.100933302
 20
20.993822197
 10
-10.118446532
 20
20.974499209
 10
-10.1355470352
 20
20.9548290263
 10
-10.1522328168
 20
20.9348283332
 10
-10.1685110267
 20
20.914501824
 10
-10.184363455
 20
20.8938855232
 10
-10.1997845363
 20
20.8730004723
 10
-10.2147840638
 20
20.8518465138
 10
-10.229365051
 20
20.8304298726
 10
-10.2435266846
 20
20.8087611935
 10
-10.2572697645
 20
20.7868473936
 10
-10.2705973272
 20
20.7646896112
 10
-10.2835072327
 20
20.7422962028
 10
-10.2959973676
 20
20.7196735537
 10
-10.3080693323
 20
20.696819867
 10
-10.3197193011
 20
20.6737410547
 10
-10.3309423866
 20
20.6504434692
 10
-10.3417371584
 20
20.6269248527
 10
-10.352099625
 20
20.6031847395
 10
-10.3620204024
 20
20.5792337543
 10
-10.3714889487
 20
20.5550843848
 10
-10.3804989325
 20
20.530737052
 10
-10.3890403048
 20
20.5062003338
 10
-10.3970978136
 20
20.4814967226
 10
-10.4046629488
 20
20.4566294143
 10
-10.4117255534
 20
20.4316031034
 10
-10.4182704364
 20
20.4064396194
 10
-10.4242873313
 20
20.3811424817
 10
-10.4297645655
 20
20.3557154378
 10
-10.4346872104
 20
20.3301762486
 10
-10.4390421087
 20
20.3045312492
 10
-10.4428163797
 20
20.2787804324
 10
-10.44527268
 20
20.2592677598
  0
LINE
  5
22B
100
AcDbEntity
  8
0
100
AcDbLine
 62
7
  6
CONTINUOUS
 10
-9.9108014511
 20
21.1589871031
 11
-7.9281773626
 21
22.5108893611
  0
LINE
  5
22C
100
AcDbEntity
  8
0
100
AcDbLine
 62
250
  6
CONTINUOUS
 10
-9.6476205056
 20
21.1428763469
 11
-7.677583413
 21
22.4861958443
  0
LWPOLYLINE
  5
22D
100
AcDbEntity
  8
0
100
AcDbPolyline
 62
250
  6
CONTINUOUS
 90
27
 70
0
 10
-9.9107988019
 20
21.1589889095
 10
-9.9084109541
 20
21.1605858902
 10
-9.90052577
 20
21.1654384171
 10
-9.8923506299
 20
21.169842719
 10
-9.8838942677
 20
21.1737940909
 10
-9.8751657176
 20
21.1772883112
 10
-9.8661743047
 20
21.180321647
 10
-9.8569296347
 20
21.1828908577
 10
-9.8474415841
 20
21.1849931985
 10
-9.8377202894
 20
21.1866264233
 10
-9.8277761362
 20
21.1877887874
 10
-9.8176197481
 20
21.1884790489
 10
-9.8072619755
 20
21.1886964704
 10
-9.7967138842
 20
21.1884408197
 10
-9.785986743
 20
21.1877123698
 10
-9.775092012
 20
21.186511899
 10
-9.7640413305
 20
21.1848406898
 10
-9.7528465045
 20
21.1827005276
 10
-9.7415194936
 20
21.1800936988
 10
-9.730072399
 20
21.1770229884
 10
-9.71851745
 20
21.1734916769
 10
-9.7068669913
 20
21.169503537
 10
-9.6951334693
 20
21.1650628293
 10
-9.6833294194
 20
21.1601742981
 10
-9.6714674524
 20
21.1548431659
 10
-9.6595602409
 20
21.1490751281
 10
-9.6476205056
 20
21.1428763469
  0
LWPOLYLINE
  5
22E
100
AcDbEntity
  8
0
100
AcDbPolyline
 62
7
  6
CONTINUOUS
 90
36
 70
0
 10
4.7615724386
 20
-23.4911219426
 10
4.7701013766
 20
-23.4959649739
 10
4.7875681033
 20
-23.5053846538
 10
4.8053051701
 20
-23.514291391
 10
4.8233046532
 20
-23.5226814751
 10
4.8415739598
 20
-23.5305572193
 10
4.8600986341
 20
-23.5379102613
 10
4.8788636173
 20
-23.5447328599
 10
4.8978769193
 20
-23.5510254957
 10
4.9171245755
 20
-23.5567801682
 10
4.9365909871
 20
-23.5619890156
 10
4.9562831759
 20
-23.5666499514
 10
4.9761865134
 20
-23.5707550194
 10
4.996285959
 20
-23.5742969212
 10
5.0165892695
 20
-23.5772719738
 10
5.0370832627
 20
-23.5796722746
 10
5.0577516752
 20
-23.5814903481
 10
5.0785991097
 20
-23.5827206208
 10
5.0996129036
 20
-23.5833555518
 10
5.1207766092
 20
-23.5833879329
 10
5.1420907473
 20
-23.5828108372
 10
5.1635412609
 20
-23.581617408
 10
5.1851137941
 20
-23.5798012225
 10
5.2068102762
 20
-23.5773542292
 10
5.2286192571
 20
-23.5742694065
 10
5.2505250638
 20
-23.5705408079
 10
5.2725254837
 20
-23.5661601185
 10
5.2946085596
 20
-23.5611205332
 10
5.316760771
 20
-23.5554162621
 10
5.3389800077
 20
-23.5490383244
 10
5.3612542199
 20
-23.5419798999
 10
5.3835720104
 20
-23.534234455
 10
5.4059346668
 20
-23.5257905165
 10
5.4283358437
 20
-23.5166381579
 10
5.450758695
 20
-23.5067720837
 10
5.4675391417
 20
-23.4989207998
  0
LINE
  5
22F
100
AcDbEntity
  8
0
100
AcDbLine
 62
7
  6
CONTINUOUS
 10
-10.1025531315
 20
-14.9087621525
 11
4.7615910752
 21
-23.4911327259
  0
LINE
  5
230
100
AcDbEntity
  8
0
100
AcDbLine
 62
250
  6
CONTINUOUS
 10
-10.2982558987
 20
-14.5701919539
 11
4.5589327069
 21
-23.1485464505
  0
LWPOLYLINE
  5
231
100
AcDbEntity
  8
0
100
AcDbPolyline
 62
250
  6
CONTINUOUS
 90
25
 70
0
 10
-10.1025531598
 20
-14.9087621361
 10
-10.1115307858
 20
-14.9033821151
 10
-10.1242879347
 20
-14.8950289343
 10
-10.1366756667
 20
-14.8860581956
 10
-10.1486849294
 20
-14.8764764432
 10
-10.1603068994
 20
-14.8662906901
 10
-10.1715335015
 20
-14.8555081149
 10
-10.1823565256
 20
-14.8441365679
 10
-10.1927680299
 20
-14.8321843349
 10
-10.2027607862
 20
-14.8196598807
 10
-10.2123274927
 20
-14.8065722971
 10
-10.221461126
 20
-14.7929310992
 10
-10.2301553442
 20
-14.7787459913
 10
-10.2384037871
 20
-14.7640272747
 10
-10.2462004116
 20
-14.7487856082
 10
-10.2535398368
 20
-14.7330317974
 10
-10.2604167229
 20
-14.71677718
 10
-10.2668259896
 20
-14.7000335757
 10
-10.2727631554
 20
-14.6828130505
 10
-10.2782238723
 20
-14.6651281393
 10
-10.2832041594
 20
-14.6469915533
 10
-10.2877006048
 20
-14.6284161137
 10
-10.2917099836
 20
-14.6094151311
 10
-10.295229276
 20
-14.59000241
 10
-10.2982558987
 20
-14.5701919539
  0
LINE
  5
232
100
AcDbEntity
  8
0
100
AcDbLine
 62
7
  6
CONTINUOUS
 10
-1.3770056192
 20
-15.2542343364
 11
-1.3827446967
 21
-15.2558043216
  0
LINE
  5
233
100
AcDbEntity
  8
0
100
AcDbLine
 62
7
  6
CONTINUOUS
 10
-1.3825849294
 20
-15.2557657739
 11
-1.3884781819
 21
-15.2570035835
  0
LWPOLYLINE
  5
234
100
AcDbEntity
  8
0
100
AcDbPolyline
 62
7
  6
CONTINUOUS
 90
7
 70
0
 10
-1.3883398404
 20
-15.2569761401
 10
-1.3942671138
 20
-15.257867361
 10
-1.4003328584
 20
-15.2584323669
 10
-1.4065333637
 20
-15.2586686195
 10
-1.4128724222
 20
-15.258578712
 10
-1.4193273999
 20
-15.2581632739
 10
-1.4258917233
 20
-15.257421129
  0
LWPOLYLINE
  5
235
100
AcDbEntity
  8
0
100
AcDbPolyline
 62
7
  6
CONTINUOUS
 90
9
 70
0
 10
-1.4258594893
 20
-15.2574229052
 10
-1.4325566494
 20
-15.2563539217
 10
-1.4393559479
 20
-15.2549667793
 10
-1.4462562508
 20
-15.2532607501
 10
-1.4532587447
 20
-15.2512365972
 10
-1.4603392248
 20
-15.2489038776
 10
-1.4675006089
 20
-15.2462619845
 10
-1.4747400151
 20
-15.2433115487
 10
-1.4820245361
 20
-15.2400639814
  0
LWPOLYLINE
  5
236
100
AcDbEntity
  8
0
100
AcDbPolyline
 62
7
  6
CONTINUOUS
 90
4
 70
0
 10
-1.4820245361
 20
-15.2400639814
 10
-1.4893432092
 20
-15.2365230908
 10
-1.4967070158
 20
-15.2326850812
 10
-1.5041159608
 20
-15.228549956
  0
LWPOLYLINE
  5
237
100
AcDbEntity
  8
0
100
AcDbPolyline
 62
7
  6
CONTINUOUS
 90
22
 70
0
 10
-10.4452721969
 20
20.2592720096
 10
-10.5004564718
 20
19.7778383091
 10
-10.5539223791
 20
19.2920061704
 10
-10.605032683
 20
18.8072255554
 10
-10.6537849404
 20
18.3235174393
 10
-10.7001772071
 20
17.8408999671
 10
-10.7442076939
 20
17.3593901264
 10
-10.7858745505
 20
16.8790058555
 10
-10.8251760245
 20
16.3997657467
 10
-10.8621104469
 20
15.9216877694
 10
-10.8966761643
 20
15.4447900874
 10
-10.928871662
 20
14.9690914001
 10
-10.958695473
 20
14.4946104698
 10
-10.9861461896
 20
14.0213659397
 10
-11.0112226278
 20
13.5493757262
 10
-11.0339236499
 20
13.0786574919
 10
-11.0542481174
 20
12.6092295098
 10
-11.0721950885
 20
12.1411092382
 10
-11.0877636915
 20
11.6743131197
 10
-11.1009530553
 20
11.2088586999
 10
-11.1117624454
 20
10.7447660756
 10
-11.1201031017
 20
10.2876661451
  0
LWPOLYLINE
  5
238
100
AcDbEntity
  8
0
100
AcDbPolyline
 62
250
  6
CONTINUOUS
 90
52
 70
0
 10
-10.2982558987
 20
20.0602256956
 10
-10.295229276
 20
20.0836556445
 10
-10.2917099836
 20
20.1072767619
 10
-10.2877006048
 20
20.1310720612
 10
-10.2832041594
 20
20.1550243948
 10
-10.2782238723
 20
20.179116584
 10
-10.2727631554
 20
20.2033314349
 10
-10.2668259896
 20
20.227651687
 10
-10.2604167229
 20
20.2520597366
 10
-10.2535398368
 20
20.2765377687
 10
-10.2462004116
 20
20.3010681338
 10
-10.2384037871
 20
20.325633291
 10
-10.2301553442
 20
20.3502155348
 10
-10.221461126
 20
20.3747972695
 10
-10.2123274927
 20
20.3993608077
 10
-10.2027607862
 20
20.4238883117
 10
-10.1927680299
 20
20.4483621929
 10
-10.1823565256
 20
20.4727648905
 10
-10.1715335015
 20
20.4970786713
 10
-10.1603068994
 20
20.5212861146
 10
-10.1486849294
 20
20.5453698536
 10
-10.1366756667
 20
20.5693123541
 10
-10.1242879347
 20
20.5930964477
 10
-10.1115307858
 20
20.6167051034
 10
-10.098413054
 20
20.6401211686
 10
-10.0849443456
 20
20.6633279071
 10
-10.0711345308
 20
20.6863086614
 10
-10.0569932263
 20
20.709046626
 10
-10.0425308247
 20
20.7315255047
 10
-10.0277578958
 20
20.7537292292
 10
-10.0126846761
 20
20.7756416184
 10
-9.997322209
 20
20.7972470194
 10
-9.9816817541
 20
20.8185299519
 10
-9.9657741893
 20
20.8394748278
 10
-9.9496111838
 20
20.8600666776
 10
-9.933204574
 20
20.880290777
 10
-9.9165657722
 20
20.900132292
 10
-9.8997069801
 20
20.9195770576
 10
-9.8826405504
 20
20.9386111768
 10
-9.8653783657
 20
20.9572206511
 10
-9.8479331142
 20
20.9753921745
 10
-9.8303175528
 20
20.9931128093
 10
-9.8125438686
 20
21.0103695814
 10
-9.7946250412
 20
21.0271502428
 10
-9.7765742552
 20
21.0434427671
 10
-9.7584041654
 20
21.059235034
 10
-9.740128182
 20
21.0745157292
 10
-9.7217596194
 20
21.0892740612
 10
-9.7033111058
 20
21.1034992446
 10
-9.6847958863
 20
21.1171810591
 10
-9.6662278149
 20
21.1303098703
 10
-9.6476205056
 20
21.1428763469
  0
LINE
  5
239
100
AcDbEntity
  8
RACCORDO
100
AcDbLine
 62
7
  6
CONTINUOUS
 10
-5.685785159
 20
21.3361564955
 11
-5.8660364084
 21
20.9219363367
  0
LINE
  5
23A
100
AcDbEntity
  8
0
100
AcDbLine
 62
7
  6
CONTINUOUS
 10
-1.5041159608
 20
-15.228549956
 11
-5.8074735993
 21
-12.7438451893
  0
LINE
  5
23B
100
AcDbEntity
  8
0
100
AcDbLine
 62
7
  6
CONTINUOUS
 10
-1.537259932
 20
-14.7567405343
 11
-5.6280247225
 21
-12.3947842136
  0
LWPOLYLINE
  5
23C
100
AcDbEntity
  8
0
100
AcDbPolyline
 62
7
  6
CONTINUOUS
 90
3
 70
0
 10
-5.8074735993
 20
-12.7438451893
 10
-5.8148486632
 20
-12.7394494789
 10
-5.822237526
 20
-12.7347737265
  0
LWPOLYLINE
  5
23D
100
AcDbEntity
  8
0
100
AcDbPolyline
 62
7
  6
CONTINUOUS
 90
3
 70
0
 10
-1.537259932
 20
-14.7567405343
 10
-1.529882949
 20
-14.7611385005
 10
-1.522494096
 20
-14.7658175363
  0
LINE
  5
23E
100
AcDbEntity
  8
0
100
AcDbLine
 62
7
  6
CONTINUOUS
 10
-5.822237526
 20
-12.7347737265
 11
-5.8297572668
 21
-12.7297373698
  0
LINE
  5
23F
100
AcDbEntity
  8
0
100
AcDbLine
 62
7
  6
CONTINUOUS
 10
-1.522494096
 20
-14.7658175363
 11
-1.5149764829
 21
-14.7708581695
  0
LINE
  5
240
100
AcDbEntity
  8
0
100
AcDbLine
 62
7
  6
CONTINUOUS
 10
-5.8296401831
 20
-12.7298179292
 11
-5.8371892723
 21
-12.7244876281
  0
LINE
  5
241
100
AcDbEntity
  8
0
100
AcDbLine
 62
7
  6
CONTINUOUS
 10
-1.5150933685
 20
-14.7707776383
 11
-1.5075481397
 21
-14.7761134122
  0
LWPOLYLINE
  5
242
100
AcDbEntity
  8
0
100
AcDbPolyline
 62
7
  6
CONTINUOUS
 90
8
 70
0
 10
-5.8370725097
 20
-12.7245707913
 10
-5.8445186117
 20
-12.7190435958
 10
-5.8519308264
 20
-12.7132702041
 10
-5.8593066704
 20
-12.707250821
 10
-5.8666485908
 20
-12.7009852172
 10
-5.8739163177
 20
-12.6945066016
 10
-5.8810971381
 20
-12.6878265241
 10
-5.8882037136
 20
-12.6809334001
  0
LWPOLYLINE
  5
243
100
AcDbEntity
  8
0
100
AcDbPolyline
 62
7
  6
CONTINUOUS
 90
10
 70
0
 10
-1.5076648894
 20
-14.776030117
 10
-1.5002245169
 20
-14.7815636495
 10
-1.4928198446
 20
-14.7873442804
 10
-1.4854533381
 20
-14.7933717754
 10
-1.4781224954
 20
-14.7996463447
 10
-1.4708674548
 20
-14.8061346971
 10
-1.4637008556
 20
-14.8128252319
 10
-1.456610007
 20
-14.8197295157
 10
-1.4495970491
 20
-14.8268490055
 10
-1.4426543177
 20
-14.8341932912
  0
LINE
  5
244
100
AcDbEntity
  8
0
100
AcDbLine
 62
7
  6
CONTINUOUS
 10
-5.8666662523
 20
-12.7009712846
 11
-5.8739140126
 21
-12.6945087009
  0
LWPOLYLINE
  5
245
100
AcDbEntity
  8
0
100
AcDbPolyline
 62
7
  6
CONTINUOUS
 90
5
 70
0
 10
-5.8882256878
 20
-12.6809091207
 10
-5.8952584167
 20
-12.6738003637
 10
-5.9021926708
 20
-12.6664982424
 10
-5.9090349817
 20
-12.6589986803
 10
-5.9157756296
 20
-12.6513152598
  0
LINE
  5
246
100
AcDbEntity
  8
0
100
AcDbLine
 62
7
  6
CONTINUOUS
 10
-5.9157756296
 20
-12.6513152598
 11
-5.9225485985
 21
-12.6432854464
  0
LINE
  5
247
100
AcDbEntity
  8
0
100
AcDbLine
 62
7
  6
CONTINUOUS
 10
-5.9224180776
 20
-12.6434447326
 11
-5.9291325088
 21
-12.6351697063
  0
LINE
  5
248
100
AcDbEntity
  8
0
100
AcDbLine
 62
7
  6
CONTINUOUS
 10
-5.9289587829
 20
-12.6353902935
 11
-5.9355765328
 21
-12.6269153796
  0
LINE
  5
249
100
AcDbEntity
  8
0
100
AcDbLine
 62
7
  6
CONTINUOUS
 10
-5.9353775155
 20
-12.6271751889
 11
-5.9418771267
 21
-12.618524659
  0
LWPOLYLINE
  5
24A
100
AcDbEntity
  8
0
100
AcDbPolyline
 62
250
  6
CONTINUOUS
 90
23
 70
0
 10
-10.4440466815
 20
-14.3751926241
 10
-10.4425253047
 20
-14.3847377161
 10
-10.4403783385
 20
-14.3950930234
 10
-10.4377277054
 20
-14.4053585852
 10
-10.4345761206
 20
-14.4155238866
 10
-10.4309268121
 20
-14.4255785154
 10
-10.4267835179
 20
-14.4355121727
 10
-10.4221504819
 20
-14.4453146838
 10
-10.4170324497
 20
-14.4549760079
 10
-10.4114346635
 20
-14.4644862492
 10
-10.4053628571
 20
-14.4738356665
 10
-10.3988232499
 20
-14.4830146832
 10
-10.3918225401
 20
-14.4920138974
 10
-10.3843678985
 20
-14.5008240914
 10
-10.3764669609
 20
-14.509436241
 10
-10.36812782
 20
-14.5178415249
 10
-10.3593590175
 20
-14.5260313337
 10
-10.3501695352
 20
-14.5339972787
 10
-10.3405687857
 20
-14.5417312005
 10
-10.3305666029
 20
-14.5492251773
 10
-10.320173232
 20
-14.5564715331
 10
-10.3093993187
 20
-14.5634628456
 10
-10.2982558985
 20
-14.5701919538
  0
LWPOLYLINE
  5
24B
100
AcDbEntity
  8
0
100
AcDbPolyline
 62
250
  6
CONTINUOUS
 90
25
 70
0
 10
-11.120045945
 20
-5.2280236937
 10
-11.1195094217
 20
-5.2374306913
 10
-11.1184616825
 20
-5.2468174068
 10
-11.1169038
 20
-5.2561742302
 10
-11.1148373691
 20
-5.2654915822
 10
-11.1122645055
 20
-5.2747599241
 10
-11.1091878431
 20
-5.2839697671
 10
-11.1056105317
 20
-5.2931116824
 10
-11.1015362337
 20
-5.3021763107
 10
-11.0969691203
 20
-5.311154372
 10
-11.0919138672
 20
-5.3200366747
 10
-11.0863756497
 20
-5.3288141254
 10
-11.0803601378
 20
-5.3374777379
 10
-11.07387349
 20
-5.3460186426
 10
-11.0669223472
 20
-5.3544280956
 10
-11.0595138257
 20
-5.3626974875
 10
-11.0516555102
 20
-5.3708183523
 10
-11.0433554459
 20
-5.3787823762
 10
-11.0346221302
 20
-5.3865814056
 10
-11.0254645039
 20
-5.3942074562
 10
-11.0158919424
 20
-5.4016527207
 10
-11.0059142459
 20
-5.4089095767
 10
-10.9955416293
 20
-5.4159705949
 10
-10.9847847118
 20
-5.4228285464
 10
-10.973654506
 20
-5.4294764102
  0
LWPOLYLINE
  5
24C
100
AcDbEntity
  8
0
100
AcDbPolyline
 62
250
  6
CONTINUOUS
 90
27
 70
0
 10
-11.1816143926
 20
2.7767265933
 10
-11.18135012
 20
2.767296399
 10
-11.1806340711
 20
2.7586581821
 10
-11.1794654764
 20
2.7500347857
 10
-11.1778453944
 20
2.7414340869
 10
-11.1757752966
 20
2.7328638364
 10
-11.1732570632
 20
2.7243318421
 10
-11.1702929765
 20
2.7158458684
 10
-11.1668857228
 20
2.7074135464
 10
-11.1630383844
 20
2.6990425331
 10
-11.1587544556
 20
2.6907404653
 10
-11.1540378426
 20
2.6825148577
 10
-11.1488928463
 20
2.6743732155
 10
-11.1433241224
 20
2.66632292
 10
-11.1373366914
 20
2.6583711839
 10
-11.1309359705
 20
2.6505252213
 10
-11.1241277715
 20
2.6427921829
 10
-11.1169182601
 20
2.6351790426
 10
-11.1093139336
 20
2.6276926793
 10
-11.1013217193
 20
2.6203399386
 10
-11.0929489803
 20
2.613127564
 10
-11.0842035334
 20
2.6060622621
 10
-11.0750931279
 20
2.5991502752
 10
-11.0656254849
 20
2.5923974695
 10
-11.055808951
 20
2.5858098657
 10
-11.0456525595
 20
2.5793936034
 10
-11.0351654767
 20
2.573154529
  0
LWPOLYLINE
  5
24D
100
AcDbEntity
  8
0
100
AcDbPolyline
 62
7
  6
CONTINUOUS
 90
22
 70
0
 10
-11.1201006211
 20
-5.225638973
 10
-11.1117458663
 20
-5.6730925307
 10
-11.1009270721
 20
-6.1240716621
 10
-11.0877253156
 20
-6.5735083996
 10
-11.0721408919
 20
-7.0213832616
 10
-11.0541742306
 20
-7.4676795391
 10
-11.0338257575
 20
-7.9123816967
 10
-11.0110959711
 20
-8.3554731731
 10
-10.9859855656
 20
-8.7969368459
 10
-10.9584952249
 20
-9.2367563325
 10
-10.9286256847
 20
-9.6749149203
 10
-10.8963779039
 20
-10.1113954511
 10
-10.8617528857
 20
-10.5461808819
 10
-10.8247516914
 20
-10.9792541239
 10
-10.7853755187
 20
-11.4105988058
 10
-10.7436255601
 20
-11.8401989681
 10
-10.6995031067
 20
-12.268037929
 10
-10.6530095461
 20
-12.6940997824
 10
-10.6041461766
 20
-13.1183697221
 10
-10.5529144627
 20
-13.5408318285
 10
-10.4993163862
 20
-13.9614678079
 10
-10.4440478405
 20
-14.3751841456
  0
LWPOLYLINE
  5
24E
100
AcDbEntity
  8
0
100
AcDbPolyline
 62
250
  6
CONTINUOUS
 90
21
 70
0
 10
-11.0351674494
 20
2.5731556671
 10
-11.0350578707
 20
2.5666772543
 10
-11.0347214211
 20
2.5603401539
 10
-11.0341586407
 20
2.5541545397
 10
-11.0333704331
 20
2.5481303426
 10
-11.0323580638
 20
2.5422772343
 10
-11.0311231579
 20
2.5366046116
 10
-11.0296676982
 20
2.5311215817
 10
-11.0279940213
 20
2.5258369476
 10
-11.0261048142
 20
2.5207591934
 10
-11.02400311
 20
2.5158964713
 10
-11.021692283
 20
2.5112565882
 10
-11.0191760429
 20
2.5068469933
 10
-11.0164584297
 20
2.5026747661
 10
-11.0135438063
 20
2.4987466049
 10
-11.0104368521
 20
2.4950688162
 10
-11.0071425551
 20
2.4916473046
 10
-11.0036662042
 20
2.4884875632
 10
-11.0000133805
 20
2.4855946648
 10
-10.9961899487
 20
2.4829732539
 10
-10.9937521902
 20
2.481495286
  0
LWPOLYLINE
  5
24F
100
AcDbEntity
  8
0
100
AcDbPolyline
 62
250
  6
CONTINUOUS
 90
10
 70
0
 10
-10.973654506
 20
-5.4294764102
 10
-10.9861349335
 20
-4.6070309271
 10
-10.9972039844
 20
-3.7836870846
 10
-11.006861633
 20
-2.9594483025
 10
-11.0151079075
 20
-2.1343206043
 10
-11.0219427559
 20
-1.3083048221
 10
-11.0273659989
 20
-0.4813965695
 10
-11.0313775312
 20
0.3464033529
 10
-11.0339773677
 20
1.1750889294
 10
-11.0351654769
 20
2.0046567436
  0
LWPOLYLINE
  5
250
100
AcDbEntity
  8
0
100
AcDbPolyline
 62
7
  6
CONTINUOUS
 90
30
 70
0
 10
-11.1816143042
 20
2.776756735
 10
-11.181490098
 20
2.7679445087
 10
-11.1809325306
 20
2.7563929519
 10
-11.1799284092
 20
2.7448711208
 10
-11.1784785115
 20
2.7333849291
 10
-11.1765795011
 20
2.7219203769
 10
-11.1742308077
 20
2.7104927667
 10
-11.1714328485
 20
2.699118545
 10
-11.1681782319
 20
2.6877857226
 10
-11.1644656439
 20
2.6765096906
 10
-11.1602949813
 20
2.6653068847
 10
-11.1556553949
 20
2.654167282
 10
-11.1505434768
 20
2.6431041543
 10
-11.144959382
 20
2.6321362975
 10
-11.1388927204
 20
2.6212620492
 10
-11.1323396702
 20
2.6104946082
 10
-11.1253002312
 20
2.5998521748
 10
-11.1177661765
 20
2.5893397179
 10
-11.1097344379
 20
2.578970886
 10
-11.1012041707
 20
2.5687615833
 10
-11.0921673803
 20
2.5587185594
 10
-11.0826117938
 20
2.5488459673
 10
-11.072543856
 20
2.5391677975
 10
-11.0619837252
 20
2.5297165054
 10
-11.0509269479
 20
2.520499528
 10
-11.039376535
 20
2.5115309121
 10
-11.027367433
 20
2.5028458789
 10
-11.0149129057
 20
2.494459163
 10
-11.0020037458
 20
2.4863698078
 10
-10.9937521747
 20
2.4814953128
  0
LWPOLYLINE
  5
251
100
AcDbEntity
  8
0
100
AcDbPolyline
 62
250
  6
CONTINUOUS
 90
26
 70
0
 10
-11.1201031017
 20
10.2876661432
 10
-11.1200459447
 20
10.2801814219
 10
-11.1195094214
 20
10.2711261263
 10
-11.1184616822
 20
10.2620797137
 10
-11.1169037997
 20
10.2530514456
 10
-11.1148373688
 20
10.2440505649
 10
-11.1122645052
 20
10.2350862863
 10
-11.1091878428
 20
10.2261677874
 10
-11.1056105314
 20
10.2173041987
 10
-11.1015362334
 20
10.2085045945
 10
-11.09696912
 20
10.1997779835
 10
-11.0919138668
 20
10.1911332999
 10
-11.0863756494
 20
10.1825793939
 10
-11.0803601375
 20
10.1741250226
 10
-11.0738734897
 20
10.1657788416
 10
-11.0669223469
 20
10.1575493954
 10
-11.0595138254
 20
10.1494451091
 10
-11.0516555099
 20
10.1414742796
 10
-11.0433554456
 20
10.1336450673
 10
-11.0346221299
 20
10.1259654875
 10
-11.0254645036
 20
10.1184434024
 10
-11.0158919421
 20
10.1110865128
 10
-11.0059142456
 20
10.1039023507
 10
-10.995541629
 20
10.0968982709
 10
-10.9847847115
 20
10.090081444
 10
-10.9736545057
 20
10.083458849
  0
LWPOLYLINE
  5
252
100
AcDbEntity
  8
0
100
AcDbPolyline
 62
7
  6
CONTINUOUS
 90
10
 70
0
 10
-11.181614392
 20
2.2093598893
 10
-11.1804378246
 20
1.3847892047
 10
-11.1778413439
 20
0.5546859518
 10
-11.1738286355
 20
-0.2745348196
 10
-11.1683997062
 20
-1.1028692737
 10
-11.1615545721
 20
-1.9303142073
 10
-11.1532932495
 20
-2.7568666125
 10
-11.1436157605
 20
-3.5825232165
 10
-11.1325221468
 20
-4.4072801234
 10
-11.1201006214
 20
-5.2256389709
  0
LWPOLYLINE
  5
253
100
AcDbEntity
  8
0
100
AcDbPolyline
 62
250
  6
CONTINUOUS
 90
10
 70
0
 10
-11.0351654769
 20
2.5731545282
 10
-11.0339773677
 20
3.4041956311
 10
-11.0313775312
 20
4.2361020482
 10
-11.0273659989
 20
5.0688703267
 10
-11.0219427559
 20
5.9024943002
 10
-11.0151079075
 20
6.7369732143
 10
-11.006861633
 20
7.5723117533
 10
-10.9972039844
 20
8.4085091932
 10
-10.9861349335
 20
9.2455593749
 10
-10.973654506
 20
10.0834588489
  0
LWPOLYLINE
  5
254
100
AcDbEntity
  8
0
100
AcDbPolyline
 62
7
  6
CONTINUOUS
 90
10
 70
0
 10
-11.120103102
 20
10.2876661432
 10
-11.1325304479
 20
9.4535085326
 10
-11.1436227255
 20
8.6150560048
 10
-11.1532990067
 20
7.7774522762
 10
-11.1615592327
 20
6.9407013045
 10
-11.1684033646
 20
6.1048064005
 10
-11.1738313696
 20
5.2697706033
 10
-11.1778432148
 20
4.4355971468
 10
-11.1804388765
 20
3.6022898858
 10
-11.1816143926
 20
2.7767266044
  0
LWPOLYLINE
  5
255
100
AcDbEntity
  8
0
100
AcDbPolyline
 62
250
  6
CONTINUOUS
 90
40
 70
0
 10
-11.0351674494
 20
2.0046578825
 10
-11.0350578707
 20
2.0112628345
 10
-11.034721421
 20
2.0179884592
 10
-11.0341586406
 20
2.0248239586
 10
-11.0333704329
 20
2.0317583587
 10
-11.0323580633
 20
2.0387805265
 10
-11.0311231572
 20
2.0458791881
 10
-11.0296676973
 20
2.053042947
 10
-11.0279940201
 20
2.0602603019
 10
-11.0261048127
 20
2.0675196656
 10
-11.0240031083
 20
2.0748093835
 10
-11.0216922809
 20
2.0821177522
 10
-11.0191760405
 20
2.0894330384
 10
-11.016458427
 20
2.0967434977
 10
-11.0135438032
 20
2.1040373933
 10
-11.0104368486
 20
2.1113030152
 10
-11.0071425513
 20
2.1185286986
 10
-11.0036662001
 20
2.1257028431
 10
-11.0000133762
 20
2.1328139307
 10
-10.996189944
 20
2.1398505449
 10
-10.9922020421
 20
2.1468013886
 10
-10.9880560727
 20
2.1536553025
 10
-10.9837586921
 20
2.160401283
 10
-10.9793167997
 20
2.1670284995
 10
-10.9747375266
 20
2.1735263123
 10
-10.9700282248
 20
2.1798842895
 10
-10.9651964549
 20
2.1860922234
 10
-10.9602499741
 20
2.1921401476
 10
-10.9551967239
 20
2.1980183523
 10
-10.9500448169
 20
2.2037174002
 10
-10.9448025245
 20
2.2092281417
 10
-10.939478263
 20
2.2145417296
 10
-10.9340805802
 20
2.219649633
 10
-10.9286181419
 20
2.2245436514
 10
-10.923099718
 20
2.2292159278
 10
-10.9175341679
 20
2.2336589608
 10
-10.9119304271
 20
2.2378656174
 10
-10.9062974921
 20
2.2418291439
 10
-10.9006444064
 20
2.2455431771
 10
-10.8949802458
 20
2.2490017542
  0
LWPOLYLINE
  5
256
100
AcDbEntity
  8
0
100
AcDbPolyline
 62
250
  6
CONTINUOUS
 90
22
 70
0
 10
-10.973654506
 20
10.0834588489
 10
-10.9652053762
 20
10.5457007483
 10
-10.9543796846
 20
11.0093419007
 10
-10.9411778639
 20
11.474364373
 10
-10.9256004672
 20
11.9407501854
 10
-10.9076480927
 20
12.4084812973
 10
-10.8873213825
 20
12.8775396085
 10
-10.8646211595
 20
13.3479069935
 10
-10.8395483223
 20
13.819565259
 10
-10.8121037688
 20
14.2924961302
 10
-10.7822886074
 20
14.766681328
 10
-10.7501040212
 20
15.2421025268
 10
-10.7155511618
 20
15.7187413115
 10
-10.6786314213
 20
16.196579277
 10
-10.6393462678
 20
16.6755979506
 10
-10.5976971083
 20
17.1557787507
 10
-10.5536856201
 20
17.6371031312
 10
-10.5073135545
 20
18.1195524997
 10
-10.4585825716
 20
18.6031081415
 10
-10.4074945562
 20
19.0877513563
 10
-10.3540516188
 20
19.5734634585
 10
-10.2982558987
 20
20.0602256956
  0
LWPOLYLINE
  5
257
100
AcDbEntity
  8
0
100
AcDbPolyline
 62
250
  6
CONTINUOUS
 90
28
 70
0
 10
-10.44527268
 20
20.2592677598
 10
-10.4456463192
 20
20.255553201
 10
-10.4460402874
 20
20.2478398831
 10
-10.4459247894
 20
20.2400788142
 10
-10.4452999434
 20
20.2322779439
 10
-10.4441663896
 20
20.2244452626
 10
-10.4425252889
 20
20.2165887932
 10
-10.4403783224
 20
20.2087165829
 10
-10.4377276891
 20
20.2008366951
 10
-10.434576104
 20
20.1929572011
 10
-10.4309267953
 20
20.1850861718
 10
-10.4267835009
 20
20.1772316692
 10
-10.4221504648
 20
20.1694017388
 10
-10.4170324324
 20
20.1616044005
 10
-10.4114346462
 20
20.153847641
 10
-10.4053628397
 20
20.1461394056
 10
-10.3988232324
 20
20.1384875896
 10
-10.3918225226
 20
20.1309000307
 10
-10.3843678811
 20
20.1233845007
 10
-10.3764669435
 20
20.1159486976
 10
-10.3681278027
 20
20.108600238
 10
-10.3593590003
 20
20.1013466486
 10
-10.3501695181
 20
20.0941953592
 10
-10.3405687687
 20
20.0871536948
 10
-10.3305665861
 20
20.0802288681
 10
-10.3201732153
 20
20.0734279721
 10
-10.3093993022
 20
20.0667579728
 10
-10.2982558823
 20
20.0602257022
  0
LWPOLYLINE
  5
258
100
AcDbEntity
  8
0
100
AcDbPolyline
 62
7
  6
CONTINUOUS
 90
5
 70
0
 10
-6.0629962812
 20
10.707772379
 10
-6.0582985923
 20
10.712749393
 10
-6.0533137227
 20
10.7174818164
 10
-6.0481189452
 20
10.7218864724
 10
-6.0432055915
 20
10.7255922274
  0
LWPOLYLINE
  5
259
100
AcDbEntity
  8
0
100
AcDbPolyline
 62
7
  6
CONTINUOUS
 90
5
 70
0
 10
-6.0587563721
 20
10.7122874216
 10
-6.0543432583
 20
10.7165464401
 10
-6.049771204
 20
10.7205400043
 10
-6.0450341545
 20
10.7242714996
 10
-6.0419406199
 20
10.7265058865
  0
LINE
  5
25A
100
AcDbEntity
  8
0
100
AcDbLine
 62
7
  6
CONTINUOUS
 10
-6.020992173
 20
10.7411210905
 11
-6.0419420334
 21
10.7265049003
  0
LWPOLYLINE
  5
25B
100
AcDbEntity
  8
0
100
AcDbPolyline
 62
7
  6
CONTINUOUS
 90
3
 70
0
 10
-6.0419406199
 20
10.7265058865
 10
-6.0401382349
 20
10.727737505
 10
-6.0351159894
 20
10.7309183757
  0
LWPOLYLINE
  5
25C
100
AcDbEntity
  8
0
100
AcDbPolyline
 62
7
  6
CONTINUOUS
 90
5
 70
0
 10
-6.0419425446
 20
10.7265058365
 10
-6.037132841
 20
10.7296851069
 10
-6.0313774227
 20
10.7330511166
 10
-6.0254411965
 20
10.7360662053
 10
-6.0193242122
 20
10.738730348
  0
LWPOLYLINE
  5
25D
100
AcDbEntity
  8
0
100
AcDbPolyline
 62
7
  6
CONTINUOUS
 90
4
 70
0
 10
-6.0351159894
 20
10.7309183757
 10
-6.029978296
 20
10.7338075483
 10
-6.0247143577
 20
10.7364115454
 10
-6.019324212
 20
10.7387303481
  0
LINE
  5
25E
100
AcDbEntity
  8
0
100
AcDbLine
 62
7
  6
CONTINUOUS
 10
-3.4177428619
 20
11.7943026543
 11
-4.0008420183
 21
11.5567313066
  0
LINE
  5
25F
100
AcDbEntity
  8
0
100
AcDbLine
 62
7
  6
CONTINUOUS
 10
-4.0008420183
 20
11.5567313066
 11
-4.5811243774
 21
11.3208568187
  0
LINE
  5
260
100
AcDbEntity
  8
0
100
AcDbLine
 62
7
  6
CONTINUOUS
 10
-4.5811243774
 20
11.3208568187
 11
-5.1585725042
 21
11.0867035791
  0
LWPOLYLINE
  5
261
100
AcDbEntity
  8
0
100
AcDbPolyline
 62
7
  6
CONTINUOUS
 90
3
 70
0
 10
-5.1585725042
 20
11.0867035791
 10
-5.733128437
 20
10.8542817708
 10
-6.0193242122
 20
10.738730348
  0
LINE
  5
262
100
AcDbEntity
  8
0
100
AcDbLine
 62
7
  6
CONTINUOUS
 10
-3.4177428619
 20
11.7943026543
 11
-3.4116158982
 21
11.7966388882
  0
LWPOLYLINE
  5
263
100
AcDbEntity
  8
0
100
AcDbPolyline
 62
7
  6
CONTINUOUS
 90
12
 70
0
 10
-3.4118115486
 20
11.7965497714
 10
-3.4052745008
 20
11.7986323304
 10
-3.3987187062
 20
11.8002829638
 10
-3.3919236074
 20
11.8015997421
 10
-3.384914178
 20
11.8025736805
 10
-3.3777652842
 20
11.8031778512
 10
-3.3704800685
 20
11.8034036534
 10
-3.3630554675
 20
11.803259651
 10
-3.3555570503
 20
11.8027446581
 10
-3.3479810586
 20
11.8018510898
 10
-3.3403313217
 20
11.8005864981
 10
-3.3326847922
 20
11.7989724011
  0
LWPOLYLINE
  5
264
100
AcDbEntity
  8
0
100
AcDbPolyline
 62
7
  6
CONTINUOUS
 90
3
 70
0
 10
-3.3928974599
 20
-11.651231743
 10
-3.3867440271
 20
-11.650033231
 10
-3.3804461201
 20
-11.6491830541
  0
LWPOLYLINE
  5
265
100
AcDbEntity
  8
0
100
AcDbPolyline
 62
7
  6
CONTINUOUS
 90
3
 70
0
 10
-2.2207218305
 20
-11.2173143984
 10
-2.214237759
 20
-11.2166934458
 10
-2.2076039183
 20
-11.2164270621
  0
LWPOLYLINE
  5
266
100
AcDbEntity
  8
0
100
AcDbPolyline
 62
7
  6
CONTINUOUS
 90
34
 70
0
 10
-2.2076189933
 20
-11.2164273547
 10
-2.2008406621
 20
-11.2165133759
 10
-2.193951665
 20
-11.2169516362
 10
-2.1869583211
 20
-11.2177432285
 10
-2.1798543851
 20
-11.2188871051
 10
-2.1726551368
 20
-11.2203791827
 10
-2.1653555989
 20
-11.2222206781
 10
-2.157960804
 20
-11.2244104082
 10
-2.1505010428
 20
-11.2269406881
 10
-2.1429796225
 20
-11.2298105854
 10
-2.135393273
 20
-11.233021055
 10
-2.1277624149
 20
-11.23656724
 10
-2.120075772
 20
-11.2404573935
 10
-2.1123446369
 20
-11.2446832726
 10
-2.104623278
 20
-11.249215273
 10
-2.0969191159
 20
-11.2540524915
 10
-2.0892247245
 20
-11.259195828
 10
-2.0815720971
 20
-11.2646183806
 10
-2.0739629286
 20
-11.2703188322
 10
-2.0663954978
 20
-11.2762984838
 10
-2.0588966694
 20
-11.2825343572
 10
-2.0514706192
 20
-11.2890215568
 10
-2.044113126
 20
-11.2957649505
 10
-2.0368384534
 20
-11.302756203
 10
-2.0296422897
 20
-11.3100023414
 10
-2.0225288812
 20
-11.3174962985
 10
-2.0155253251
 20
-11.3252085947
 10
-2.0086342901
 20
-11.3331376038
 10
-2.0018530268
 20
-11.3412849026
 10
-1.9952005055
 20
-11.349625816
 10
-1.9886729176
 20
-11.3581638467
 10
-1.9822739782
 20
-11.3668954348
 10
-1.9760339441
 20
-11.3757853116
 10
-1.9699628686
 20
-11.3848217009
  0
LINE
  5
267
100
AcDbEntity
  8
0
100
AcDbLine
 62
7
  6
CONTINUOUS
 10
-1.6776431274
 20
-11.0138424265
 11
-1.6857985757
 21
-11.0098546611
  0
LWPOLYLINE
  5
268
100
AcDbEntity
  8
0
100
AcDbPolyline
 62
7
  6
CONTINUOUS
 90
3
 70
0
 10
-3.2876983563
 20
-11.6698701163
 10
-3.280010385
 20
-11.6738423204
 10
-3.2722669926
 20
-11.6781497869
  0
LINE
  5
269
100
AcDbEntity
  8
0
100
AcDbLine
 62
7
  6
CONTINUOUS
 10
-1.6853672851
 20
-11.010075995
 11
-1.6931029991
 21
-11.0059826619
  0
LINE
  5
26A
100
AcDbEntity
  8
0
100
AcDbLine
 62
7
  6
CONTINUOUS
 10
-1.5752760349
 20
-13.1254870928
 11
-3.2519770329
 21
-12.1573809505
  0
LINE
  5
26B
100
AcDbEntity
  8
0
100
AcDbLine
 62
7
  6
CONTINUOUS
 10
-1.5955659974
 20
-12.6462559276
 11
-3.2722669955
 21
-11.6781497853
  0
LWPOLYLINE
  5
26C
100
AcDbEntity
  8
0
100
AcDbPolyline
 62
7
  6
CONTINUOUS
 90
42
 70
0
 10
-3.2519770329
 20
-12.1573809505
 10
-3.2597169276
 20
-12.1527509461
 10
-3.2674346041
 20
-12.1478329251
 10
-3.275130057
 20
-12.1426268841
 10
-3.2828144473
 20
-12.1371230982
 10
-3.2904765922
 20
-12.1313312784
 10
-3.2980829655
 20
-12.1252805719
 10
-3.3056298933
 20
-12.1189749648
 10
-3.3131210083
 20
-12.1124104448
 10
-3.32053374
 20
-12.1056041578
 10
-3.3278709105
 20
-12.0985518781
 10
-3.3351296373
 20
-12.091257793
 10
-3.3422787892
 20
-12.083751666
 10
-3.3493118502
 20
-12.076037272
 10
-3.3562352603
 20
-12.0681107878
 10
-3.3630373208
 20
-12.0599905789
 10
-3.3697222865
 20
-12.0516726331
 10
-3.376285813
 20
-12.0431609057
 10
-3.3827033031
 20
-12.0344857143
 10
-3.388975622
 20
-12.0256459525
 10
-3.3951018055
 20
-12.0166426639
 10
-3.401054516
 20
-12.0075093923
 10
-3.4068378315
 20
-11.9982352125
 10
-3.412447568
 20
-11.9888309823
 10
-3.4178440055
 20
-11.9793629279
 10
-3.4230180308
 20
-11.9698431349
 10
-3.4279786642
 20
-11.9602594586
 10
-3.4327134002
 20
-11.9506417885
 10
-3.4372238643
 20
-11.9409856972
 10
-3.4415083409
 20
-11.9312955551
 10
-3.4455493267
 20
-11.9216144565
 10
-3.449343127
 20
-11.9119514505
 10
-3.452893362
 20
-11.9022974408
 10
-3.4561935125
 20
-11.8926683111
 10
-3.459245579
 20
-11.8830562505
 10
-3.4620474875
 20
-11.8734690234
 10
-3.4645866195
 20
-11.8639458846
 10
-3.4668613264
 20
-11.8544916336
 10
-3.4688732029
 20
-11.845101437
 10
-3.4706145112
 20
-11.8358001104
 10
-3.472084564
 20
-11.8265776042
 10
-3.4732840032
 20
-11.8174439395
  0
LWPOLYLINE
  5
26D
100
AcDbEntity
  8
0
100
AcDbPolyline
 62
7
  6
CONTINUOUS
 90
6
 70
0
 10
-1.4636942895
 20
-14.812833814
 10
-1.4565850333
 20
-14.8197568961
 10
-1.4495691164
 20
-14.8268779548
 10
-1.4426530771
 20
-14.8341929118
 10
-1.4358303104
 20
-14.841705801
 10
-1.4291104261
 20
-14.8494028949
  0
LWPOLYLINE
  5
26E
100
AcDbEntity
  8
0
100
AcDbPolyline
 62
7
  6
CONTINUOUS
 90
5
 70
0
 10
-3.3351689318
 20
-12.0912175358
 10
-3.342311696
 20
-12.0837163434
 10
-3.349338732
 20
-12.0760072375
 10
-3.3562562288
 20
-12.0680864128
 10
-3.3630534956
 20
-12.0599708611
  0
LINE
  5
26F
100
AcDbEntity
  8
0
100
AcDbLine
 62
7
  6
CONTINUOUS
 10
-1.4291104261
 20
-14.8494028949
 11
-1.4223638028
 21
-14.8574421314
  0
LINE
  5
270
100
AcDbEntity
  8
0
100
AcDbLine
 62
7
  6
CONTINUOUS
 10
-5.9416757881
 20
-12.6187976023
 11
-5.9480377491
 21
-12.6099952944
  0
LINE
  5
271
100
AcDbEntity
  8
0
100
AcDbLine
 62
7
  6
CONTINUOUS
 10
-5.9478519985
 20
-12.6102592901
 11
-5.9540307863
 21
-12.6013694502
  0
LWPOLYLINE
  5
272
100
AcDbEntity
  8
0
100
AcDbPolyline
 62
7
  6
CONTINUOUS
 90
4
 70
0
 10
-5.9538812459
 20
-12.6015888593
 10
-5.9597692871
 20
-12.5927740579
 10
-5.9655102677
 20
-12.5838270725
 10
-5.9710618803
 20
-12.574813174
  0
LINE
  5
273
100
AcDbEntity
  8
0
100
AcDbLine
 62
7
  6
CONTINUOUS
 10
-5.959846375
 20
-12.5926623018
 11
-5.965494295
 21
-12.5838586177
  0
LINE
  5
274
100
AcDbEntity
  8
0
100
AcDbLine
 62
7
  6
CONTINUOUS
 10
-5.9709764006
 20
-12.5749549533
 11
-5.9764154212
 21
-12.5657425471
  0
LINE
  5
275
100
AcDbEntity
  8
0
100
AcDbLine
 62
7
  6
CONTINUOUS
 10
-5.9763024879
 20
-12.5659357205
 11
-5.981579508
 21
-12.5566049497
  0
LINE
  5
276
100
AcDbEntity
  8
0
100
AcDbLine
 62
7
  6
CONTINUOUS
 10
-5.9814626636
 20
-12.5568164424
 11
-5.9865378301
 21
-12.5474350211
  0
LINE
  5
277
100
AcDbEntity
  8
0
100
AcDbLine
 62
7
  6
CONTINUOUS
 10
-5.9864292527
 20
-12.547640344
 11
-5.9912893195
 21
-12.5382349241
  0
LWPOLYLINE
  5
278
100
AcDbEntity
  8
0
100
AcDbPolyline
 62
7
  6
CONTINUOUS
 90
3
 70
0
 10
-5.9912025731
 20
-12.5384035513
 10
-5.9957822162
 20
-12.5291098778
 10
-6.0001394335
 20
-12.5198140899
  0
LWPOLYLINE
  5
279
100
AcDbEntity
  8
0
100
AcDbPolyline
 62
7
  6
CONTINUOUS
 90
33
 70
0
 10
-10.4440466654
 20
-14.3751926219
 10
-10.4414692178
 20
-14.392724928
 10
-10.4374533403
 20
-14.4161312577
 10
-10.4328504443
 20
-14.4391119343
 10
-10.4276763801
 20
-14.461653717
 10
-10.4219442708
 20
-14.4837589344
 10
-10.4156631024
 20
-14.5054411156
 10
-10.4088463361
 20
-14.526693661
 10
-10.4015078909
 20
-14.5475103455
 10
-10.3936557827
 20
-14.5679006641
 10
-10.3853043251
 20
-14.5878551628
 10
-10.3764669398
 20
-14.6073678835
 10
-10.3671491036
 20
-14.6264498817
 10
-10.3573655278
 20
-14.6450911474
 10
-10.3471297019
 20
-14.6632850797
 10
-10.3364436612
 20
-14.6810443023
 10
-10.3253214372
 20
-14.698359733
 10
-10.313777359
 20
-14.7152229061
 10
-10.301812225
 20
-14.7316442475
 10
-10.2894404347
 20
-14.7476137751
 10
-10.2766761273
 20
-14.7631233923
 10
-10.2635177999
 20
-14.7781832621
 10
-10.2499803292
 20
-14.7927830463
 10
-10.236077412
 20
-14.8069146908
 10
-10.2218037555
 20
-14.8205887604
 10
-10.2071736212
 20
-14.8337954425
 10
-10.1922012417
 20
-14.8465258671
 10
-10.1768791453
 20
-14.8587888082
 10
-10.1612211303
 20
-14.8705742194
 10
-10.145241634
 20
-14.8818727169
 10
-10.1289320607
 20
-14.8926906658
 10
-10.1122984476
 20
-14.9030225574
 10
-10.1025287655
 20
-14.9087761984
  0
LWPOLYLINE
  5
27A
100
AcDbEntity
  8
0
100
AcDbPolyline
 62
250
  6
CONTINUOUS
 90
22
 70
0
 10
-10.2982558987
 20
-14.5701919539
 10
-10.3540516188
 20
-14.152497487
 10
-10.4074945562
 20
-13.7329403886
 10
-10.4585825716
 20
-13.3115369408
 10
-10.5073135545
 20
-12.888303541
 10
-10.5536856201
 20
-12.463256564
 10
-10.5976971083
 20
-12.0364123613
 10
-10.6393462678
 20
-11.60778748
 10
-10.6786314213
 20
-11.1773985522
 10
-10.7155511618
 20
-10.7452621566
 10
-10.7501040212
 20
-10.3113950475
 10
-10.7822886074
 20
-9.8758140455
 10
-10.8121037688
 20
-9.438535926
 10
-10.8395483223
 20
-8.9995776257
 10
-10.8646211595
 20
-8.5589561665
 10
-10.8873213825
 20
-8.116688545
 10
-10.9076480927
 20
-7.6727918939
 10
-10.9256004672
 20
-7.2272834115
 10
-10.9411778639
 20
-6.7801802835
 10
-10.9543796846
 20
-6.3314998025
 10
-10.9652053762
 20
-5.8812593669
 10
-10.973654506
 20
-5.4294764102
  0
LWPOLYLINE
  5
27B
100
AcDbEntity
  8
0
100
AcDbPolyline
 62
7
  6
CONTINUOUS
 90
9
 70
0
 10
-6.09273241
 20
10.6561033564
 10
-6.0898762476
 20
10.6636478067
 10
-6.0868004333
 20
10.6708037681
 10
-6.0834629721
 20
10.6776989503
 10
-6.0798753893
 20
10.6843004354
 10
-6.0760344846
 20
10.6906043782
 10
-6.0719435394
 20
10.6966145829
 10
-6.0676238205
 20
10.7023095964
 10
-6.0630755465
 20
10.7076871139
  0
LWPOLYLINE
  5
27C
100
AcDbEntity
  8
0
100
AcDbPolyline
 62
7
  6
CONTINUOUS
 90
8
 70
0
 10
-6.0902437487
 20
10.6627279388
 10
-6.0875446931
 20
10.6691581951
 10
-6.0846368307
 20
10.6753727474
 10
-6.0815137853
 20
10.6813761051
 10
-6.0781819788
 20
10.6871637357
 10
-6.0746622127
 20
10.6927006896
 10
-6.0709565872
 20
10.6979770568
 10
-6.0670630709
 20
10.7030027126
  0
LWPOLYLINE
  5
27D
100
AcDbEntity
  8
0
100
AcDbPolyline
 62
250
  6
CONTINUOUS
 90
49
 70
0
 10
5.2495342509
 20
11.4117294064
 10
5.237788743
 20
11.407556245
 10
5.2257059852
 20
11.403603623
 10
5.2132983537
 20
11.3998755891
 10
5.2005785575
 20
11.3963759617
 10
5.1875596252
 20
11.3931083256
 10
5.1742548921
 20
11.3900760276
 10
5.1606779858
 20
11.3872821738
 10
5.1468428132
 20
11.3847296259
 10
5.1327635452
 20
11.3824209983
 10
5.1184546032
 20
11.3803586558
 10
5.1039306436
 20
11.3785447108
 10
5.0892065431
 20
11.3769810213
 10
5.0742973833
 20
11.375669189
 10
5.0592184355
 20
11.3746105575
 10
5.0439851448
 20
11.3738062112
 10
5.0286131146
 20
11.3732569741
 10
5.0131180901
 20
11.3729634086
 10
4.9975159427
 20
11.3729258154
 10
4.9818226535
 20
11.3731442331
 10
4.9660542968
 20
11.3736184379
 10
4.950227024
 20
11.3743479442
 10
4.9343570467
 20
11.3753320047
 10
4.9184606203
 20
11.3765696113
 10
4.9025540273
 20
11.3780594966
 10
4.8866535606
 20
11.3798001344
 10
4.8707755069
 20
11.3817897417
 10
4.8549361297
 20
11.3840262807
 10
4.8391516532
 20
11.3865074606
 10
4.8234382451
 20
11.3892307398
 10
4.8078120005
 20
11.3921933289
 10
4.7922889251
 20
11.3953921935
 10
4.776884919
 20
11.398824057
 10
4.7616157603
 20
11.4024854041
 10
4.746497089
 20
11.4063724846
 10
4.7315443909
 20
11.410481317
 10
4.7167729819
 20
11.4148076927
 10
4.7021979921
 20
11.4193471802
 10
4.6878343504
 20
11.4240951298
 10
4.6736967694
 20
11.4290466783
 10
4.6597997299
 20
11.4341967539
 10
4.6461574665
 20
11.4395400814
 10
4.6327839529
 20
11.4450711876
 10
4.6196928872
 20
11.4507844073
 10
4.6068976784
 20
11.4566738883
 10
4.5944114327
 20
11.4627335982
 10
4.5822469393
 20
11.4689573302
 10
4.5704166582
 20
11.4753387092
 10
4.5589327071
 20
11.4818711991
  0
LINE
  5
27E
100
AcDbEntity
  8
0
100
AcDbLine
 62
7
  6
CONTINUOUS
 10
-1.6931727013
 20
-11.0059458186
 11
-1.7008525639
 21
-11.0015640603
  0
LINE
  5
27F
100
AcDbEntity
  8
0
100
AcDbLine
 62
250
  6
CONTINUOUS
 10
3.8349376857
 20
-13.9797719464
 11
-10.973654506
 21
-5.4294764102
  0
LINE
  5
280
100
AcDbEntity
  8
0
100
AcDbLine
 62
7
  6
CONTINUOUS
 10
-1.7005309646
 20
-11.0017561206
 11
-1.7085756387
 21
-10.9968479775
  0
LWPOLYLINE
  5
281
100
AcDbEntity
  8
0
100
AcDbPolyline
 62
7
  6
CONTINUOUS
 90
15
 70
0
 10
-1.7078831469
 20
-10.997282618
 10
-1.7162664966
 20
-10.9918371257
 10
-1.7239308549
 20
-10.9865287869
 10
-1.7315455348
 20
-10.9809426006
 10
-1.739107975
 20
-10.9750826402
 10
-1.7466207064
 20
-10.9689448141
 10
-1.7540681832
 20
-10.962536511
 10
-1.7614541655
 20
-10.955850946
 10
-1.7687748413
 20
-10.9488948728
 10
-1.7760033029
 20
-10.941695986
 10
-1.7831377959
 20
-10.9342549285
 10
-1.7901800052
 20
-10.9265710156
 10
-1.7971081789
 20
-10.9186699495
 10
-1.8039251486
 20
-10.9105493312
 10
-1.8106279981
 20
-10.9022115087
  0
LWPOLYLINE
  5
282
100
AcDbEntity
  8
0
100
AcDbPolyline
 62
7
  6
CONTINUOUS
 90
15
 70
0
 10
-1.7152066003
 20
-10.9925445604
 10
-1.7225015251
 20
-10.9875424672
 10
-1.7297677077
 20
-10.9822758108
 10
-1.7369818743
 20
-10.9767622676
 10
-1.7441389872
 20
-10.9710067932
 10
-1.751244054
 20
-10.9650044137
 10
-1.7582888654
 20
-10.9587579084
 10
-1.7652795971
 20
-10.9522587586
 10
-1.7722100253
 20
-10.9455154539
 10
-1.7790533384
 20
-10.9385562841
 10
-1.7858056612
 20
-10.931384712
 10
-1.7924708073
 20
-10.9239972375
 10
-1.7990334957
 20
-10.916411705
 10
-1.8054983017
 20
-10.908623854
 10
-1.8118605754
 20
-10.9006378998
  0
LINE
  5
283
100
AcDbEntity
  8
0
100
AcDbLine
 62
7
  6
CONTINUOUS
 10
-2.0663763362
 20
-11.2763139705
 11
-2.0588741491
 21
-11.2825535539
  0
LINE
  5
284
100
AcDbEntity
  8
0
100
AcDbLine
 62
7
  6
CONTINUOUS
 10
-2.0514432553
 20
-11.2890461891
 11
-2.0440797778
 21
-11.2957963439
  0
LINE
  5
285
100
AcDbEntity
  8
0
100
AcDbLine
 62
7
  6
CONTINUOUS
 10
-1.4224899029
 20
-14.8572873788
 11
-1.4158030266
 21
-14.8655720261
  0
LINE
  5
286
100
AcDbEntity
  8
0
100
AcDbLine
 62
7
  6
CONTINUOUS
 10
-1.4159721824
 20
-14.8653560143
 11
-1.4093828979
 21
-14.8738406586
  0
LINE
  5
287
100
AcDbEntity
  8
0
100
AcDbLine
 62
7
  6
CONTINUOUS
 10
-1.4095773192
 20
-14.8735854373
 11
-1.4031068851
 21
-14.8822457678
  0
LINE
  5
288
100
AcDbEntity
  8
0
100
AcDbLine
 62
7
  6
CONTINUOUS
 10
-1.4033037271
 20
-14.8819773947
 11
-1.3969714346
 21
-14.8907895583
  0
LINE
  5
289
100
AcDbEntity
  8
0
100
AcDbLine
 62
7
  6
CONTINUOUS
 10
-1.3971529026
 20
-14.89053008
 11
-1.391003903
 21
-14.8994297488
  0
LWPOLYLINE
  5
28A
100
AcDbEntity
  8
0
100
AcDbPolyline
 62
7
  6
CONTINUOUS
 90
15
 70
0
 10
-2.1343994388
 20
-13.8276631858
 10
-2.1405771113
 20
-13.8186523878
 10
-2.1465781257
 20
-13.8095260731
 10
-2.1524084904
 20
-13.8002759065
 10
-2.1580466956
 20
-13.7909351719
 10
-2.1634974549
 20
-13.7814948539
 10
-2.1687559526
 20
-13.7719639013
 10
-2.1737863975
 20
-13.7624025525
 10
-2.1785797847
 20
-13.7528224395
 10
-2.1831450322
 20
-13.7432118737
 10
-2.1874732477
 20
-13.733596123
 10
-2.1915658885
 20
-13.7239713262
 10
-2.1954214145
 20
-13.7143412906
 10
-2.1990264503
 20
-13.7047427941
 10
-2.2023778605
 20
-13.6951834666
  0
LWPOLYLINE
  5
28B
100
AcDbEntity
  8
0
100
AcDbPolyline
 62
7
  6
CONTINUOUS
 90
4
 70
0
 10
-1.3911495262
 20
-14.8992148002
 10
-1.3852877977
 20
-14.9080437501
 10
-1.3795734199
 20
-14.9170046701
 10
-1.3740483375
 20
-14.9260321922
  0
LINE
  5
28C
100
AcDbEntity
  8
0
100
AcDbLine
 62
7
  6
CONTINUOUS
 10
-1.3852140285
 20
-14.9081510774
 11
-1.3795919894
 21
-14.9169687505
  0
LWPOLYLINE
  5
28D
100
AcDbEntity
  8
0
100
AcDbPolyline
 62
7
  6
CONTINUOUS
 90
11
 70
0
 10
-6.0001615467
 20
-12.5197656541
 10
-6.00426768
 20
-12.5105287914
 10
-6.008154678
 20
-12.5012875729
 10
-6.0118133852
 20
-12.492057311
 10
-6.0152444236
 20
-12.4828307982
 10
-6.0184470976
 20
-12.473615193
 10
-6.0214102861
 20
-12.4644473646
 10
-6.0241324558
 20
-12.4553294114
 10
-6.026615084
 20
-12.4462591978
 10
-6.028851583
 20
-12.4372672541
 10
-6.0308431191
 20
-12.4283497067
  0
LINE
  5
28E
100
AcDbEntity
  8
0
100
AcDbLine
 62
7
  6
CONTINUOUS
 10
-6.0081769564
 20
-12.5012299662
 11
-6.0118474682
 21
-12.4919685973
  0
LWPOLYLINE
  5
28F
100
AcDbEntity
  8
0
100
AcDbPolyline
 62
7
  6
CONTINUOUS
 90
3
 70
0
 10
-3.463303793
 20
7.5265329616
 10
-3.4592970039
 20
7.5319778513
 10
-3.4550794941
 20
7.5371338626
  0
LWPOLYLINE
  5
290
100
AcDbEntity
  8
0
100
AcDbPolyline
 62
7
  6
CONTINUOUS
 90
5
 70
0
 10
-3.4593190758
 20
7.5319517626
 10
-3.4551181406
 20
7.5370890593
 10
-3.4507034354
 20
7.5419446996
 10
-3.4460767764
 20
7.5465159073
 10
-3.4412586452
 20
7.5507789746
  0
LWPOLYLINE
  5
291
100
AcDbEntity
  8
0
100
AcDbPolyline
 62
7
  6
CONTINUOUS
 90
3
 70
0
 10
-3.4412586452
 20
7.5507789746
 10
-3.4362559026
 20
7.5547259811
 10
-3.4334885566
 20
7.5567261826
  0
LWPOLYLINE
  5
292
100
AcDbEntity
  8
0
100
AcDbPolyline
 62
7
  6
CONTINUOUS
 90
4
 70
0
 10
-1.4023332742
 20
8.2944118407
 10
-1.407672344
 20
8.2902952829
 10
-1.4132051148
 20
8.2865170472
 10
-1.4189374393
 20
8.2830751375
  0
LINE
  5
293
100
AcDbEntity
  8
0
100
AcDbLine
 62
7
  6
CONTINUOUS
 10
-2.0884183239
 20
7.6404572838
 11
-2.0938709002
 21
7.6366168878
  0
LWPOLYLINE
  5
294
100
AcDbEntity
  8
0
100
AcDbPolyline
 62
7
  6
CONTINUOUS
 90
3
 70
0
 10
-2.0884007725
 20
7.6404712382
 10
-2.0938593688
 20
7.6366253001
 10
-2.099532995
 20
7.6331046053
  0
LINE
  5
295
100
AcDbEntity
  8
0
100
AcDbLine
 62
7
  6
CONTINUOUS
 10
-3.425902111
 20
7.5620190431
 11
-3.4334920026
 21
7.5567237785
  0
LWPOLYLINE
  5
296
100
AcDbEntity
  8
0
100
AcDbPolyline
 62
7
  6
CONTINUOUS
 90
3
 70
0
 10
-3.4334888033
 20
7.5567260105
 10
-3.4310256676
 20
7.5583936044
 10
-3.4256763392
 20
7.5616953916
  0
LWPOLYLINE
  5
297
100
AcDbEntity
  8
0
100
AcDbPolyline
 62
7
  6
CONTINUOUS
 90
31
 70
0
 10
-11.0142695593
 20
2.4940560184
 10
-11.0147255693
 20
2.4937630763
 10
-11.0264638838
 20
2.4858068801
 10
-11.037751209
 20
2.4776281348
 10
-11.0485859884
 20
2.4692400256
 10
-11.0589741994
 20
2.4606504642
 10
-11.0689257846
 20
2.451862624
 10
-11.0784420273
 20
2.4428862158
 10
-11.0875241818
 20
2.4337313166
 10
-11.096178788
 20
2.4244018996
 10
-11.104405068
 20
2.4149091235
 10
-11.1122044052
 20
2.4052625347
 10
-11.1195834082
 20
2.3954643594
 10
-11.1265413298
 20
2.3855253927
 10
-11.1330778867
 20
2.3754568848
 10
-11.1391975572
 20
2.3652626478
 10
-11.144899369
 20
2.3549546258
 10
-11.1501829156
 20
2.3445448542
 10
-11.1550517009
 20
2.3340383624
 10
-11.1595048511
 20
2.3234491904
 10
-11.1635430226
 20
2.3127891142
 10
-11.1671703541
 20
2.3020605576
 10
-11.1703870106
 20
2.2912771309
 10
-11.1731938962
 20
2.2804520302
 10
-11.1755946656
 20
2.2695874767
 10
-11.1775901089
 20
2.2586970718
 10
-11.1791819373
 20
2.2477943441
 10
-11.1803735215
 20
2.2368815307
 10
-11.1811667779
 20
2.2259683499
 10
-11.1815636094
 20
2.2150719172
 10
-11.1816143142
 20
2.2093483107
  0
LWPOLYLINE
  5
298
100
AcDbEntity
  8
0
100
AcDbPolyline
 62
250
  6
CONTINUOUS
 90
52
 70
0
 10
5.2326925504
 20
12.5511700825
 10
5.2134230979
 20
12.5389859191
 10
5.1941952514
 20
12.5262380537
 10
5.1750226247
 20
12.5129358179
 10
5.1559186103
 20
12.4990891125
 10
5.1368969149
 20
12.4847078912
 10
5.117971552
 20
12.4698021395
 10
5.099155829
 20
12.4543826532
 10
5.0804631631
 20
12.4384607423
 10
5.0619076151
 20
12.4220477154
 10
5.0435023903
 20
12.4051555869
 10
5.0252604476
 20
12.3877966168
 10
5.0071953173
 20
12.3699830036
 10
4.9893197665
 20
12.3517276793
 10
4.9716464731
 20
12.3330439556
 10
4.9541886331
 20
12.3139450727
 10
4.9369586172
 20
12.2944449173
 10
4.9199686091
 20
12.2745576648
 10
4.9032312796
 20
12.2542974225
 10
4.8867584846
 20
12.2336789034
 10
4.8705618737
 20
12.2127170883
 10
4.854653526
 20
12.191426872
 10
4.8390447236
 20
12.1698237215
 10
4.8237464874
 20
12.1479233029
 10
4.8087701859
 20
12.1257411435
 10
4.7941264134
 20
12.1032932977
 10
4.7798255383
 20
12.0805960755
 10
4.7658782375
 20
12.0576656702
 10
4.7522944089
 20
12.0345187235
 10
4.7390836312
 20
12.0111719873
 10
4.7262557161
 20
11.98764205
 10
4.7138197446
 20
11.9639459258
 10
4.7017845112
 20
11.9401007999
 10
4.6901589834
 20
11.9161236913
 10
4.6789514022
 20
11.8920319489
 10
4.6681696782
 20
11.8678430115
 10
4.6578218376
 20
11.8435741516
 10
4.6479152142
 20
11.8192429113
 10
4.6384567994
 20
11.7948668979
 10
4.6294536365
 20
11.7704635439
 10
4.6209121217
 20
11.7460505162
 10
4.6128382621
 20
11.7216454311
 10
4.6052380328
 20
11.697265651
 10
4.5981168056
 20
11.6729286984
 10
4.5914796289
 20
11.6486522412
 10
4.5853314812
 20
11.6244538074
 10
4.5796767518
 20
11.6003509769
 10
4.5745193804
 20
11.576361034
 10
4.5698631537
 20
11.5525009561
 10
4.5657114211
 20
11.5287878501
 10
4.5620670778
 20
11.5052389355
 10
4.5589327069
 20
11.481871199
  0
LWPOLYLINE
  5
299
100
AcDbEntity
  8
0
100
AcDbPolyline
 62
250
  6
CONTINUOUS
 90
52
 70
0
 10
5.5921952852
 20
11.9430409061
 10
5.5823873301
 20
11.9370387109
 10
5.5726133656
 20
11.9307633826
 10
5.5628733919
 20
11.9242149212
 10
5.5531601457
 20
11.9173880389
 10
5.5434808902
 20
11.9102880236
 10
5.5338574148
 20
11.9029307382
 10
5.5242901172
 20
11.8953157885
 10
5.5147785996
 20
11.8874435687
 10
5.5053434586
 20
11.8793311244
 10
5.495984891
 20
11.8709779601
 10
5.4867026999
 20
11.8623845711
 10
5.4775168913
 20
11.8535694902
 10
5.4684276589
 20
11.8445322259
 10
5.459434809
 20
11.8352732695
 10
5.4505577664
 20
11.8258126273
 10
5.441796784
 20
11.8161498647
 10
5.4331516088
 20
11.8062854162
 10
5.4246409061
 20
11.7962405913
 10
5.4162649672
 20
11.7860149998
 10
5.4080235009
 20
11.7756090319
 10
5.3999342989
 20
11.765045167
 10
5.3919976972
 20
11.7543230737
 10
5.3842133598
 20
11.7434430835
 10
5.3765980707
 20
11.7324286698
 10
5.3691521868
 20
11.7212795296
 10
5.3618753513
 20
11.709995966
 10
5.3547832775
 20
11.698602361
 10
5.3478763732
 20
11.6870984907
 10
5.3411542307
 20
11.675484579
 10
5.3346313404
 20
11.6637856801
 10
5.3283081277
 20
11.6520016018
 10
5.3221841671
 20
11.6401325361
 10
5.3162726731
 20
11.6282041135
 10
5.3105741065
 20
11.6162162092
 10
5.3050880063
 20
11.604168948
 10
5.299826204
 20
11.5920883345
 10
5.2947891839
 20
11.5799742961
 10
5.2899764615
 20
11.5678269054
 10
5.2853984147
 20
11.5556723854
 10
5.281055555
 20
11.5435107394
 10
5.2769473707
 20
11.5313419641
 10
5.2730827048
 20
11.5191922717
 10
5.2694620729
 20
11.5070616645
 10
5.2660849593
 20
11.4949501402
 10
5.2629586591
 20
11.4828839047
 10
5.2600836883
 20
11.4708628253
 10
5.2574595309
 20
11.4588870347
 10
5.2550919338
 20
11.4469831371
 10
5.2529828126
 20
11.4351600005
 10
5.2511302516
 20
11.4234087569
 10
5.2495342509
 20
11.4117294064
  0
LINE
  5
29A
100
AcDbEntity
  8
0
100
AcDbLine
 62
250
  6
CONTINUOUS
 10
7.3452986861
 20
13.8121720012
 11
5.2326925504
 21
12.5511700825
  0
LINE
  5
29B
100
AcDbEntity
  8
0
100
AcDbLine
 62
250
  6
CONTINUOUS
 10
7.7302728445
 20
13.2192465646
 11
5.5921952852
 21
11.9430409061
  0
LINE
  5
29C
100
AcDbEntity
  8
0
100
AcDbLine
 62
7
  6
CONTINUOUS
 10
-2.099532995
 20
7.6331046053
 11
-2.7594152659
 21
7.2517442635
  0
LINE
  5
29D
100
AcDbEntity
  8
0
100
AcDbLine
 62
7
  6
CONTINUOUS
 10
-2.3832978324
 20
8.1637228381
 11
-3.4256763176
 21
7.5616954054
  0
LWPOLYLINE
  5
29E
100
AcDbEntity
  8
0
100
AcDbPolyline
 62
7
  6
CONTINUOUS
 90
16
 70
0
 10
-2.3832978522
 20
8.163722828
 10
-2.3774487285
 20
8.1668615306
 10
-2.3714417724
 20
8.1696438125
 10
-2.3652770363
 20
8.1720696469
 10
-2.3589446629
 20
8.1741400997
 10
-2.352454607
 20
8.1758540554
 10
-2.3458366392
 20
8.1772082154
 10
-2.339094736
 20
8.1782034013
 10
-2.332225012
 20
8.178838745
 10
-2.3252454465
 20
8.1791084125
 10
-2.3181523854
 20
8.1790109003
 10
-2.3109495619
 20
8.1785476716
 10
-2.3036660371
 20
8.1777173426
 10
-2.2963065893
 20
8.1765170034
 10
-2.2888665055
 20
8.1749495306
 10
-2.2813606062
 20
8.1730222216
  0
LINE
  5
29F
100
AcDbEntity
  8
0
100
AcDbLine
 62
7
  6
CONTINUOUS
 10
-1.4189295237
 20
8.2830796237
 11
-1.424853357
 21
8.2799764846
  0
LINE
  5
2A0
100
AcDbEntity
  8
0
100
AcDbLine
 62
7
  6
CONTINUOUS
 10
-1.4248635604
 20
8.2799715022
 11
-1.4264436564
 21
8.2792171111
  0
LWPOLYLINE
  5
2A1
100
AcDbEntity
  8
0
100
AcDbPolyline
 62
7
  6
CONTINUOUS
 90
40
 70
0
 10
-1.4264436666
 20
8.2792171064
 10
-1.4309409213
 20
8.2772261599
 10
-1.4371874205
 20
8.2748303512
 10
-1.4435977495
 20
8.2727873076
 10
-1.4501562705
 20
8.2711068463
 10
-1.4568711447
 20
8.2697900879
 10
-1.4637343022
 20
8.2688358662
 10
-1.4707057629
 20
8.2682505652
 10
-1.4777784677
 20
8.2680371993
 10
-1.4849595613
 20
8.2681927114
 10
-1.4922303703
 20
8.2687143783
 10
-1.4995949555
 20
8.2696027988
 10
-1.507049325
 20
8.2708573396
 10
-1.5145627239
 20
8.2724734316
 10
-1.5221317221
 20
8.2744504872
 10
-1.529759802
 20
8.2767890678
 10
-1.5374265746
 20
8.2794863285
 10
-1.5451440068
 20
8.2825498748
 10
-1.5529001646
 20
8.2859720849
 10
-1.5606388025
 20
8.2897272743
 10
-1.5683514791
 20
8.293815094
 10
-1.5760466475
 20
8.2982358874
 10
-1.583693399
 20
8.3029650117
 10
-1.5912901886
 20
8.3080012226
 10
-1.5988385512
 20
8.3133457695
 10
-1.6063121932
 20
8.3189777524
 10
-1.6137065742
 20
8.3248921425
 10
-1.6210262042
 20
8.3310939838
 10
-1.6282583599
 20
8.3375774876
 10
-1.6354079105
 20
8.3443503695
 10
-1.6424699354
 20
8.3514049397
 10
-1.6494170235
 20
8.3587123032
 10
-1.6562460002
 20
8.3662705825
 10
-1.6629599715
 20
8.3740816896
 10
-1.6695409451
 20
8.3821224139
 10
-1.6759929368
 20
8.3903962836
 10
-1.682311847
 20
8.3988998125
 10
-1.6884675097
 20
8.4075992691
 10
-1.694449839
 20
8.4164834249
 10
-1.7002688261
 20
8.4255635557
  0
LINE
  5
2A2
100
AcDbEntity
  8
0
100
AcDbLine
 62
7
  6
CONTINUOUS
 10
-3.6557990641
 20
-7.6144061185
 11
-3.6484394966
 21
-7.616477505
  0
LWPOLYLINE
  5
2A3
100
AcDbEntity
  8
0
100
AcDbPolyline
 62
7
  6
CONTINUOUS
 90
13
 70
0
 10
-3.6489567596
 20
-7.6163225178
 10
-3.6409984819
 20
-7.6188954375
 10
-3.6335508671
 20
-7.6216296765
 10
-3.6261011312
 20
-7.6246761575
 10
-3.618644801
 20
-7.6280389484
 10
-3.611190543
 20
-7.6317144238
 10
-3.6037451455
 20
-7.6356991316
 10
-3.5963018222
 20
-7.639996525
 10
-3.5888488763
 20
-7.6446133353
 10
-3.5813796522
 20
-7.6495538269
 10
-3.5739008036
 20
-7.6548137342
 10
-3.5664205971
 20
-7.6603869932
 10
-3.5589344244
 20
-7.666274784
  0
LWPOLYLINE
  5
2A4
100
AcDbEntity
  8
0
100
AcDbPolyline
 62
7
  6
CONTINUOUS
 90
13
 70
0
 10
-3.6420627363
 20
-7.6185300691
 10
-3.6351151626
 20
-7.6210308138
 10
-3.6281158758
 20
-7.6238227138
 10
-3.6211006943
 20
-7.6268985653
 10
-3.6140774221
 20
-7.6302562962
 10
-3.6070382582
 20
-7.6338979804
 10
-3.599995614
 20
-7.6378226326
 10
-3.5929492946
 20
-7.6420345105
 10
-3.5858994948
 20
-7.6465293565
 10
-3.5788592096
 20
-7.6512934112
 10
-3.5718205915
 20
-7.6563336913
 10
-3.564791485
 20
-7.6616431784
 10
-3.5578084226
 20
-7.6671870594
  0
LINE
  5
2A5
100
AcDbEntity
  8
0
100
AcDbLine
 62
7
  6
CONTINUOUS
 10
-3.5589344244
 20
-7.666274784
 11
-3.5508736261
 21
-7.672964894
  0
LINE
  5
2A6
100
AcDbEntity
  8
0
100
AcDbLine
 62
7
  6
CONTINUOUS
 10
-3.5514468879
 20
-7.672475923
 11
-3.5439800695
 21
-7.6789808004
  0
LINE
  5
2A7
100
AcDbEntity
  8
0
100
AcDbLine
 62
7
  6
CONTINUOUS
 10
-3.5439848681
 20
-7.6789771192
 11
-3.5365161538
 21
-7.6858076746
  0
LWPOLYLINE
  5
2A8
100
AcDbEntity
  8
0
100
AcDbPolyline
 62
7
  6
CONTINUOUS
 90
8
 70
0
 10
-3.5371720066
 20
-7.6851902382
 10
-3.5290729464
 20
-7.6929382814
 10
-3.5217259595
 20
-7.7003082268
 10
-3.5144791312
 20
-7.7079202846
 10
-3.5073285107
 20
-7.7157716734
 10
-3.5003377777
 20
-7.723789667
 10
-3.4935047491
 20
-7.7319847892
 10
-3.4868315939
 20
-7.7403465076
  0
LWPOLYLINE
  5
2A9
100
AcDbEntity
  8
0
100
AcDbPolyline
 62
7
  6
CONTINUOUS
 90
8
 70
0
 10
-3.5304458026
 20
-7.6915923715
 10
-3.5237954875
 20
-7.6981953939
 10
-3.517218624
 20
-7.7050014401
 10
-3.510704048
 20
-7.7120202026
 10
-3.5042629135
 20
-7.7192419828
 10
-3.4979262608
 20
-7.7266398275
 10
-3.4916915532
 20
-7.7342180181
 10
-3.4855613153
 20
-7.741972266
  0
LINE
  5
2AA
100
AcDbEntity
  8
0
100
AcDbLine
 62
7
  6
CONTINUOUS
 10
-1.8106279981
 20
-10.9022115087
 11
-1.8180911979
 21
-10.8924844006
  0
LINE
  5
2AB
100
AcDbEntity
  8
0
100
AcDbLine
 62
7
  6
CONTINUOUS
 10
-3.4868315939
 20
-7.7403465076
 11
-3.4795741795
 21
-7.7498627637
  0
LINE
  5
2AC
100
AcDbEntity
  8
0
100
AcDbLine
 62
7
  6
CONTINUOUS
 10
-1.8171863546
 20
-10.8936893048
 11
-1.824180436
 21
-10.8841735261
  0
LINE
  5
2AD
100
AcDbEntity
  8
0
100
AcDbLine
 62
7
  6
CONTINUOUS
 10
-3.4803885216
 20
-7.748770513
 11
-3.4737430189
 21
-7.7578762396
  0
LINE
  5
2AE
100
AcDbEntity
  8
0
100
AcDbLine
 62
7
  6
CONTINUOUS
 10
-1.8235900626
 20
-10.8849936416
 11
-1.8301379393
 21
-10.8756950562
  0
LWPOLYLINE
  5
2AF
100
AcDbEntity
  8
0
100
AcDbPolyline
 62
7
  6
CONTINUOUS
 90
4
 70
0
 10
-1.9822317415
 20
-11.3669544697
 10
-1.9759999436
 20
-11.3758347973
 10
-1.9699385911
 20
-11.3848580718
 10
-1.9640376523
 20
-11.3940361944
  0
LINE
  5
2B0
100
AcDbEntity
  8
0
100
AcDbLine
 62
7
  6
CONTINUOUS
 10
-3.4741989321
 20
-7.7572220336
 11
-3.4680549474
 21
-7.7660259576
  0
LINE
  5
2B1
100
AcDbEntity
  8
0
100
AcDbLine
 62
7
  6
CONTINUOUS
 10
-1.829849182
 20
-10.8761135394
 11
-1.8359636607
 21
-10.867048967
  0
LINE
  5
2B2
100
AcDbEntity
  8
0
100
AcDbLine
 62
7
  6
CONTINUOUS
 10
-3.4682394137
 20
-7.765735834
 11
-3.46250996
 21
-7.7743119105
  0
LINE
  5
2B3
100
AcDbEntity
  8
0
100
AcDbLine
 62
7
  6
CONTINUOUS
 10
-1.8359636628
 20
-10.8670489638
 11
-1.8551606647
 21
-10.8380297925
  0
LINE
  5
2B4
100
AcDbEntity
  8
0
100
AcDbLine
 62
7
  6
CONTINUOUS
 10
-1.8551606647
 20
-10.8380297925
 11
-1.9319103364
 21
-10.7219283399
  0
LINE
  5
2B5
100
AcDbEntity
  8
0
100
AcDbLine
 62
7
  6
CONTINUOUS
 10
-1.9319103364
 20
-10.7219283399
 11
-2.18486242
 21
-10.3386282762
  0
LINE
  5
2B6
100
AcDbEntity
  8
0
100
AcDbLine
 62
7
  6
CONTINUOUS
 10
-2.18486242
 20
-10.3386282762
 11
-2.5372139389
 21
-9.8041982088
  0
LINE
  5
2B7
100
AcDbEntity
  8
0
100
AcDbLine
 62
7
  6
CONTINUOUS
 10
-1.5686426379
 20
-10.6532657473
 11
-1.9900906149
 21
-10.0138708481
  0
LINE
  5
2B8
100
AcDbEntity
  8
0
100
AcDbLine
 62
7
  6
CONTINUOUS
 10
-2.5372139389
 20
-9.8041982088
 11
-2.889330783
 21
-9.2696189979
  0
LINE
  5
2B9
100
AcDbEntity
  8
0
100
AcDbLine
 62
7
  6
CONTINUOUS
 10
-1.9900906149
 20
-10.0138708481
 11
-2.4112025649
 21
-9.3742624693
  0
LINE
  5
2BA
100
AcDbEntity
  8
0
100
AcDbLine
 62
7
  6
CONTINUOUS
 10
-2.889330783
 20
-9.2696189979
 11
-3.2412128112
 21
-8.7348907404
  0
LINE
  5
2BB
100
AcDbEntity
  8
0
100
AcDbLine
 62
7
  6
CONTINUOUS
 10
-2.4112025649
 20
-9.3742624693
 11
-2.8319782798
 21
-8.7344411547
  0
LINE
  5
2BC
100
AcDbEntity
  8
0
100
AcDbLine
 62
7
  6
CONTINUOUS
 10
-3.2412128112
 20
-8.7348907404
 11
-3.5928599832
 21
-8.2000136299
  0
LWPOLYLINE
  5
2BD
100
AcDbEntity
  8
0
100
AcDbPolyline
 62
7
  6
CONTINUOUS
 90
3
 70
0
 10
-2.8319782798
 20
-8.7344411547
 10
-3.2524169609
 20
-8.0944079177
 10
-3.46250996
 20
-7.7743119105
  0
LWPOLYLINE
  5
2BE
100
AcDbEntity
  8
0
100
AcDbPolyline
 62
7
  6
CONTINUOUS
 90
3
 70
0
 10
-1.568642638
 20
-10.6532657471
 10
-1.5628845999
 20
-10.6621839186
 10
-1.5573037468
 20
-10.6712215271
  0
LWPOLYLINE
  5
2BF
100
AcDbEntity
  8
0
100
AcDbPolyline
 62
7
  6
CONTINUOUS
 90
3
 70
0
 10
-1.969959411
 20
-11.3848270782
 10
-1.9640505976
 20
-11.3940163173
 10
-1.9582970767
 20
-11.4033691272
  0
LINE
  5
2C0
100
AcDbEntity
  8
0
100
AcDbLine
 62
7
  6
CONTINUOUS
 10
-1.5955659974
 20
-12.6462559276
 11
-1.7413291721
 21
-12.4077768408
  0
LINE
  5
2C1
100
AcDbEntity
  8
0
100
AcDbLine
 62
7
  6
CONTINUOUS
 10
-1.2739038072
 20
-12.5353296517
 11
-0.9292545481
 21
-13.0996080549
  0
LINE
  5
2C2
100
AcDbEntity
  8
0
100
AcDbLine
 62
7
  6
CONTINUOUS
 10
-1.7413291721
 20
-12.4077768408
 11
-1.8868009264
 21
-12.1690936331
  0
LINE
  5
2C3
100
AcDbEntity
  8
0
100
AcDbLine
 62
7
  6
CONTINUOUS
 10
-1.2739038072
 20
-12.5353296517
 11
-1.3884248654
 21
-12.3469824971
  0
LINE
  5
2C4
100
AcDbEntity
  8
0
100
AcDbLine
 62
7
  6
CONTINUOUS
 10
-1.8868009264
 20
-12.1690936331
 11
-2.0319811025
 21
-11.9302069704
  0
LWPOLYLINE
  5
2C5
100
AcDbEntity
  8
0
100
AcDbPolyline
 62
7
  6
CONTINUOUS
 90
3
 70
0
 10
-2.0319811025
 20
-11.9302069704
 10
-2.1768692056
 20
-11.6911172614
 10
-2.2492037431
 20
-11.5714965206
  0
LINE
  5
2C6
100
AcDbEntity
  8
0
100
AcDbLine
 62
7
  6
CONTINUOUS
 10
-1.6720194547
 20
-11.8786778102
 11
-1.3884248654
 21
-12.3469824971
  0
LINE
  5
2C7
100
AcDbEntity
  8
0
100
AcDbLine
 62
7
  6
CONTINUOUS
 10
-1.8446879436
 20
-11.5923402522
 11
-1.6169219266
 21
-11.9699103627
  0
LINE
  5
2C8
100
AcDbEntity
  8
0
100
AcDbLine
 62
7
  6
CONTINUOUS
 10
-1.8446879436
 20
-11.5923402522
 11
-1.9582970735
 21
-11.4033691322
  0
LINE
  5
2C9
100
AcDbEntity
  8
0
100
AcDbLine
 62
7
  6
CONTINUOUS
 10
-0.9292545427
 20
-13.099608064
 11
-0.9238996642
 21
-13.108538512
  0
LWPOLYLINE
  5
2CA
100
AcDbEntity
  8
0
100
AcDbPolyline
 62
7
  6
CONTINUOUS
 90
43
 70
0
 10
-2.2492037323
 20
-11.5714965392
 10
-2.2547581806
 20
-11.5620798422
 10
-2.2600986826
 20
-11.5525968538
 10
-2.2652251923
 20
-11.5430475456
 10
-2.2701438134
 20
-11.5334172078
 10
-2.2748483443
 20
-11.52372049
 10
-2.2793202882
 20
-11.5140014075
 10
-2.2835581242
 20
-11.5042649938
 10
-2.2875632886
 20
-11.4945061634
 10
-2.2913217339
 20
-11.4847537607
 10
-2.2948338129
 20
-11.475003468
 10
-2.2980990936
 20
-11.4652595544
 10
-2.3011023656
 20
-11.4555637537
 10
-2.3038388761
 20
-11.445923931
 10
-2.306313317
 20
-11.436332184
 10
-2.3085246595
 20
-11.4268066044
 10
-2.3104749758
 20
-11.4173415208
 10
-2.3121621396
 20
-11.4079425716
 10
-2.3135788386
 20
-11.3986448226
 10
-2.31472533
 20
-11.3894470493
 10
-2.3156013217
 20
-11.380350455
 10
-2.316198698
 20
-11.3713937594
 10
-2.3165148401
 20
-11.3625693518
 10
-2.3165523518
 20
-11.3538848341
 10
-2.316310982
 20
-11.3454017637
 10
-2.3157887123
 20
-11.3371334863
 10
-2.3149875907
 20
-11.3290666746
 10
-2.3139134941
 20
-11.3212228936
 10
-2.312565478
 20
-11.313599128
 10
-2.3109445283
 20
-11.3061984188
 10
-2.3090594369
 20
-11.2990514274
 10
-2.3069117941
 20
-11.2921638948
 10
-2.3045000739
 20
-11.2855301197
 10
-2.3018284086
 20
-11.279163609
 10
-2.2988933245
 20
-11.2730597669
 10
-2.2956983639
 20
-11.2672232315
 10
-2.2922581976
 20
-11.2616813697
 10
-2.2885746943
 20
-11.2564391961
 10
-2.2846460728
 20
-11.2514917499
 10
-2.2804815425
 20
-11.2468514438
 10
-2.2760758371
 20
-11.2425152303
 10
-2.2714343116
 20
-11.2384862114
 10
-2.2665821198
 20
-11.2347860316
  0
LWPOLYLINE
  5
2CB
100
AcDbEntity
  8
0
100
AcDbPolyline
 62
7
  6
CONTINUOUS
 90
3
 70
0
 10
-2.2492037431
 20
-11.5714965206
 10
-2.25476878
 20
-11.5620607952
 10
-2.2601178654
 20
-11.5525614058
  0
LINE
  5
2CC
100
AcDbEntity
  8
0
100
AcDbLine
 62
7
  6
CONTINUOUS
 10
-1.3741358059
 20
-14.9258861912
 11
-1.3687211448
 21
-14.9351160522
  0
LWPOLYLINE
  5
2CD
100
AcDbEntity
  8
0
100
AcDbPolyline
 62
7
  6
CONTINUOUS
 90
3
 70
0
 10
-0.9238996642
 20
-13.108538512
 10
-0.9186508644
 20
-13.1176925697
 10
-0.9136337234
 20
-13.1268419624
  0
LINE
  5
2CE
100
AcDbEntity
  8
0
100
AcDbLine
 62
7
  6
CONTINUOUS
 10
-1.3688356314
 20
-14.9349189392
 11
-1.3635831616
 21
-14.9442664571
  0
LINE
  5
2CF
100
AcDbEntity
  8
0
100
AcDbLine
 62
7
  6
CONTINUOUS
 10
-0.9187221295
 20
-13.1175616418
 11
-0.9137218929
 21
-13.1266774244
  0
LINE
  5
2D0
100
AcDbEntity
  8
0
100
AcDbLine
 62
7
  6
CONTINUOUS
 10
-1.3637012154
 20
-14.94405139
 11
-1.3586504359
 21
-14.953448756
  0
LINE
  5
2D1
100
AcDbEntity
  8
0
100
AcDbLine
 62
7
  6
CONTINUOUS
 10
-3.4230294581
 20
-11.9698217376
 11
-3.4279883104
 21
-11.9602404349
  0
LINE
  5
2D2
100
AcDbEntity
  8
0
100
AcDbLine
 62
7
  6
CONTINUOUS
 10
-1.3587599763
 20
-14.9532402528
 11
-1.3539239446
 21
-14.9626607275
  0
LINE
  5
2D3
100
AcDbEntity
  8
0
100
AcDbLine
 62
7
  6
CONTINUOUS
 10
-2.2652509537
 20
-11.5429983243
 11
-2.2701739851
 21
-11.5333567409
  0
LWPOLYLINE
  5
2D4
100
AcDbEntity
  8
0
100
AcDbPolyline
 62
7
  6
CONTINUOUS
 90
3
 70
0
 10
-1.3540115222
 20
-14.9624893388
 10
-1.3494561545
 20
-14.9717947763
 10
-1.3451223469
 20
-14.9811017612
  0
LWPOLYLINE
  5
2D5
100
AcDbEntity
  8
0
100
AcDbPolyline
 62
7
  6
CONTINUOUS
 90
11
 70
0
 10
-1.3450995015
 20
-14.9811521321
 10
-1.3410158551
 20
-14.9903992181
 10
-1.3371503202
 20
-14.9996500357
 10
-1.3335119084
 20
-15.0088893171
 10
-1.3300999326
 20
-15.018124241
 10
-1.3269150065
 20
-15.0273475794
 10
-1.3239681041
 20
-15.0365224627
 10
-1.3212606931
 20
-15.0456467586
 10
-1.3187912499
 20
-15.0547225618
 10
-1.3165662796
 20
-15.0637193542
 10
-1.3145845735
 20
-15.072640981
  0
LINE
  5
2D6
100
AcDbEntity
  8
0
100
AcDbLine
 62
7
  6
CONTINUOUS
 10
-6.0308431191
 20
-12.4283497067
 11
-6.0326147545
 21
-12.4193613377
  0
LINE
  5
2D7
100
AcDbEntity
  8
0
100
AcDbLine
 62
7
  6
CONTINUOUS
 10
-6.0325884846
 20
-12.4195104018
 11
-6.0341000963
 21
-12.4106479598
  0
LWPOLYLINE
  5
2D8
100
AcDbEntity
  8
0
100
AcDbPolyline
 62
7
  6
CONTINUOUS
 90
4
 70
0
 10
-6.0340775505
 20
-12.4107914628
 10
-6.0353069399
 20
-12.4022069307
 10
-6.0362800148
 20
-12.3937427549
 10
-6.0369967665
 20
-12.3853989297
  0
LINE
  5
2D9
100
AcDbEntity
  8
0
100
AcDbLine
 62
7
  6
CONTINUOUS
 10
-6.2257966743
 20
6.6958071987
 11
-6.2265863976
 21
6.7050750829
  0
LINE
  5
2DA
100
AcDbEntity
  8
0
100
AcDbLine
 62
7
  6
CONTINUOUS
 10
-6.0369967665
 20
-12.3853989297
 11
-6.0643153118
 21
-11.9809656828
  0
LWPOLYLINE
  5
2DB
100
AcDbEntity
  8
0
100
AcDbPolyline
 62
7
  6
CONTINUOUS
 90
7
 70
0
 10
-5.6280247225
 20
-12.3947842136
 10
-5.6517335521
 20
-12.0281117021
 10
-5.6737325317
 20
-11.6603150015
 10
-5.6940210688
 20
-11.2914040172
 10
-5.712598617
 20
-10.9213886847
 10
-5.7294646759
 20
-10.5502789695
 10
-5.7446187913
 20
-10.1780848668
  0
LWPOLYLINE
  5
2DC
100
AcDbEntity
  8
0
100
AcDbPolyline
 62
7
  6
CONTINUOUS
 90
4
 70
0
 10
-6.0643151486
 20
-11.9809681997
 10
-6.0895461937
 20
-11.5751582788
 10
-6.1126890722
 20
-11.1679825122
 10
-6.1337430228
 20
-10.7594542892
  0
LWPOLYLINE
  5
2DD
100
AcDbEntity
  8
0
100
AcDbPolyline
 62
7
  6
CONTINUOUS
 90
4
 70
0
 10
-6.2265751462
 20
6.7049182258
 10
-6.2270942562
 20
6.7138955496
 10
-6.2273562485
 20
6.7227537067
 10
-6.2273611215
 20
6.7314926982
  0
LWPOLYLINE
  5
2DE
100
AcDbEntity
  8
0
100
AcDbPolyline
 62
7
  6
CONTINUOUS
 90
6
 70
0
 10
-6.1337431063
 20
-10.7594525804
 10
-6.15270728
 20
-10.3495887207
 10
-6.1695812932
 20
-9.9383980668
 10
-6.1843646
 20
-9.5258932755
 10
-6.1970566578
 20
-9.1120887471
 10
-6.2076570298
 20
-8.6969980777
  0
LINE
  5
2DF
100
AcDbEntity
  8
0
100
AcDbLine
 62
7
  6
CONTINUOUS
 10
-5.7580604594
 20
-9.8048192384
 11
-5.7446186828
 21
-10.1780876942
  0
LWPOLYLINE
  5
2E0
100
AcDbEntity
  8
0
100
AcDbPolyline
 62
7
  6
CONTINUOUS
 90
3
 70
0
 10
-5.7580605549
 20
-9.8048164007
 10
-5.7697896048
 20
-9.430483624
 10
-5.7798056251
 20
-9.0550966183
  0
LWPOLYLINE
  5
2E1
100
AcDbEntity
  8
0
100
AcDbPolyline
 62
250
  6
CONTINUOUS
 90
40
 70
0
 10
-6.8149037555
 20
-0.2700711137
 10
-6.8150675526
 20
-0.2634581409
 10
-6.8154584375
 20
-0.256722311
 10
-6.8160757762
 20
-0.2498745485
 10
-6.8169185674
 20
-0.2429259593
 10
-6.8179854444
 20
-0.235887813
 10
-6.8192746769
 20
-0.2287715244
 10
-6.8207841737
 20
-0.221588635
 10
-6.8225114869
 20
-0.2143507944
 10
-6.824453815
 20
-0.2070697413
 10
-6.8266080077
 20
-0.1997572843
 10
-6.8289705714
 20
-0.1924252832
 10
-6.8315376743
 20
-0.1850856293
 10
-6.834305153
 20
-0.1777502265
 10
-6.837268519
 20
-0.1704309716
 10
-6.8404229663
 20
-0.1631397354
 10
-6.8437633787
 20
-0.155888343
 10
-6.8472843387
 20
-0.1486885552
 10
-6.8509801358
 20
-0.141552049
 10
-6.854844776
 20
-0.1344903985
 10
-6.8588719915
 20
-0.1275150568
 10
-6.8630552506
 20
-0.1206373367
 10
-6.8673877689
 20
-0.1138683929
 10
-6.8718625195
 20
-0.1072192036
 10
-6.8764722453
 20
-0.1007005527
 10
-6.8812094698
 20
-0.0943230124
 10
-6.8860665101
 20
-0.0880969262
 10
-6.8910354888
 20
-0.0820323919
 10
-6.8961083469
 20
-0.0761392451
 10
-6.9012768571
 20
-0.0704270436
 10
-6.9065326368
 20
-0.0649050518
 10
-6.911867162
 20
-0.0595822255
 10
-6.9172717808
 20
-0.0544671974
 10
-6.9227377279
 20
-0.0495682635
 10
-6.9282561383
 20
-0.0448933689
 10
-6.9338180619
 20
-0.0404500957
 10
-6.9394144783
 20
-0.0362456501
 10
-6.9450363108
 20
-0.0322868511
 10
-6.9506744417
 20
-0.0285801194
 10
-6.9563197269
 20
-0.0251314666
  0
LWPOLYLINE
  5
2E2
100
AcDbEntity
  8
0
100
AcDbPolyline
 62
250
  6
CONTINUOUS
 90
21
 70
0
 10
-7.0965069304
 20
0.2990224463
 10
-7.0963973371
 20
0.2925436152
 10
-7.096060843
 20
0.2862061109
 10
-7.0954979879
 20
0.2800201097
 10
-7.0947096747
 20
0.273995543
 10
-7.093697169
 20
0.2681420865
 10
-7.092462097
 20
0.262469144
 10
-7.0910064423
 20
0.2569858256
 10
-7.0893325421
 20
0.2517009345
 10
-7.0874430844
 20
0.2466229572
 10
-7.0853411033
 20
0.2417600468
 10
-7.0830299739
 20
0.2371200119
 10
-7.0805134081
 20
0.2327103036
 10
-7.0777954469
 20
0.2285380022
 10
-7.0748804549
 20
0.2246098068
 10
-7.0717731133
 20
0.2209320249
 10
-7.0684784119
 20
0.2175105614
 10
-7.0650016413
 20
0.2143509095
 10
-7.0613483855
 20
0.211458143
 10
-7.0575245114
 20
0.2088369061
 10
-7.0550904404
 20
0.2073613547
  0
LWPOLYLINE
  5
2E3
100
AcDbEntity
  8
0
100
AcDbPolyline
 62
250
  6
CONTINUOUS
 90
21
 70
0
 10
-6.6000356357
 20
0.9534023567
 10
-6.5999387833
 20
0.9469066949
 10
-6.5996143721
 20
0.9405521839
 10
-6.5990629243
 20
0.9343490559
 10
-6.5982853279
 20
0.928307299
 10
-6.5972828351
 20
0.9224366417
 10
-6.5960570599
 20
0.9167465368
 10
-6.5946099762
 20
0.9112461466
 10
-6.592943914
 20
0.9059443276
 10
-6.591061556
 20
0.900849617
 10
-6.5889659331
 20
0.8959702181
 10
-6.5866604198
 20
0.8913139878
 10
-6.5841487284
 20
0.8868884234
 10
-6.5814349031
 20
0.882700651
 10
-6.5785233138
 20
0.8787574138
 10
-6.5754186486
 20
0.875065061
 10
-6.5721259068
 20
0.8716295382
 10
-6.5686503902
 20
0.8684563771
 10
-6.564997695
 20
0.8655506871
 10
-6.561173703
 20
0.8629171471
 10
-6.5586215261
 20
0.8613662251
  0
LWPOLYLINE
  5
2E4
100
AcDbEntity
  8
0
100
AcDbPolyline
 62
7
  6
CONTINUOUS
 90
9
 70
0
 10
-6.2076570298
 20
-8.6969980777
 10
-6.2077122184
 20
-8.6882827067
 10
-6.2074870677
 20
-8.679755332
 10
-6.2069815865
 20
-8.6714159591
 10
-6.2061936119
 20
-8.6632517884
 10
-6.2051253212
 20
-8.6552756285
 10
-6.2037832473
 20
-8.6475259047
 10
-6.202168238
 20
-8.640005687
 10
-6.2002794901
 20
-8.6327119328
  0
LINE
  5
2E5
100
AcDbEntity
  8
0
100
AcDbLine
 62
250
  6
CONTINUOUS
 10
-7.0961387716
 20
-0.6368431855
 11
-7.0965069304
 21
-0.2694753381
  0
LINE
  5
2E6
100
AcDbEntity
  8
0
100
AcDbLine
 62
250
  6
CONTINUOUS
 10
-6.8145357458
 20
-0.6372896789
 11
-6.8149037555
 21
-0.2700711137
  0
LINE
  5
2E7
100
AcDbEntity
  8
RACCORDO
100
AcDbLine
 62
250
  6
CONTINUOUS
 10
-5.8660364084
 20
20.9219363367
 11
-5.8660364084
 21
20.8591183481
  0
LINE
  5
2E8
100
AcDbEntity
  8
0
100
AcDbLine
 62
7
  6
CONTINUOUS
 10
-5.8506144553
 20
0.2866965119
 11
-5.8506144553
 21
-0.0807368748
  0
LINE
  5
2E9
100
AcDbEntity
  8
DRAFT
100
AcDbLine
 62
7
  6
CONTINUOUS
 10
-5.5070135278
 20
0.2541809465
 11
-5.5070135278
 21
-0.2905132203
  0
LINE
  5
2EA
100
AcDbEntity
  8
0
100
AcDbLine
 62
250
  6
CONTINUOUS
 10
-7.0965069304
 20
0.2990224463
 11
-7.0961387716
 21
0.6668080811
  0
LINE
  5
2EB
100
AcDbEntity
  8
0
100
AcDbLine
 62
250
  6
CONTINUOUS
 10
-6.8149037555
 20
0.2981992716
 11
-6.8145357458
 21
0.6658354001
  0
LWPOLYLINE
  5
2EC
100
AcDbEntity
  8
0
100
AcDbPolyline
 62
250
  6
CONTINUOUS
 90
29
 70
0
 10
-6.8145357415
 20
0.6658354025
 10
-6.8144008611
 20
0.6775231196
 10
-6.8139687574
 20
0.6890537981
 10
-6.8132382076
 20
0.7004166921
 10
-6.8122079426
 20
0.7116046045
 10
-6.8108773483
 20
0.7226032596
 10
-6.809247407
 20
0.733392009
 10
-6.8073187392
 20
0.7439609617
 10
-6.8050922541
 20
0.754300532
 10
-6.8025714018
 20
0.7643920587
 10
-6.7997586966
 20
0.7742258174
 10
-6.7966563377
 20
0.78379459
 10
-6.7932689702
 20
0.7930849628
 10
-6.7896012208
 20
0.8020866403
 10
-6.7856556841
 20
0.8107955206
 10
-6.781434463
 20
0.8192080041
 10
-6.7769413328
 20
0.827317077
 10
-6.7721802534
 20
0.8351160834
 10
-6.7671532892
 20
0.8426016197
 10
-6.7618634994
 20
0.8497684554
 10
-6.7563161459
 20
0.8566088347
 10
-6.7505167214
 20
0.8631157298
 10
-6.7444700045
 20
0.8692836289
 10
-6.7381811528
 20
0.8751071427
 10
-6.7316567861
 20
0.8805802109
 10
-6.7249031721
 20
0.8856978431
 10
-6.7179254787
 20
0.8904563882
 10
-6.7107290198
 20
0.894852334
 10
-6.7085940889
 20
0.8960632035
  0
LWPOLYLINE
  5
2ED
100
AcDbEntity
  8
0
100
AcDbPolyline
 62
250
  6
CONTINUOUS
 90
55
 70
0
 10
-7.0961387716
 20
0.6668080811
 10
-7.0959125615
 20
0.6832128646
 10
-7.0952690775
 20
0.699370127
 10
-7.0942083204
 20
0.7152798675
 10
-7.0927298286
 20
0.7309623439
 10
-7.0908340638
 20
0.7463972984
 10
-7.0885224184
 20
0.7615239543
 10
-7.0857923026
 20
0.7763392831
 10
-7.0826463206
 20
0.7908463049
 10
-7.0790936679
 20
0.8049933086
 10
-7.0751325276
 20
0.8187766842
 10
-7.0707647424
 20
0.8322000268
 10
-7.0660050081
 20
0.8452224269
 10
-7.0608538257
 20
0.857838513
 10
-7.0553107294
 20
0.8700536364
 10
-7.0493889729
 20
0.8818429678
 10
-7.0430882789
 20
0.8932059971
 10
-7.0364089644
 20
0.9041432115
 10
-7.0293651804
 20
0.9146312745
 10
-7.0219548427
 20
0.9246712108
 10
-7.0141800791
 20
0.9342619707
 10
-7.006061365
 20
0.9433771027
 10
-6.9975975144
 20
0.9520151672
 10
-6.9887897614
 20
0.9601775761
 10
-6.9796622165
 20
0.9678421523
 10
-6.9702149609
 20
0.9750068007
 10
-6.9604479643
 20
0.9816735869
 10
-6.9503851746
 20
0.987826572
 10
-6.9400259614
 20
0.9934646628
 10
-6.9293710063
 20
0.9985889229
 10
-6.9184462287
 20
1.0031866461
 10
-6.9072498203
 20
1.0072568038
 10
-6.8957836397
 20
1.0108003957
 10
-6.8840791091
 20
1.0138077562
 10
-6.8721357489
 20
1.0162770904
 10
-6.8599540871
 20
1.0182101655
 10
-6.847567059
 20
1.0196026581
 10
-6.8349766938
 20
1.0204532941
 10
-6.8221810069
 20
1.0207633222
 10
-6.8092069139
 20
1.0205322029
 10
-6.7960539417
 20
1.019759413
 10
-6.7827226025
 20
1.0184454534
 10
-6.7692412888
 20
1.0165913216
 10
-6.755605
 20
1.0141946411
 10
-6.7418187695
 20
1.0112577695
 10
-6.7279260405
 20
1.0077888064
 10
-6.713924852
 20
1.0037843596
 10
-6.6998171907
 20
0.9992478064
 10
-6.6856524199
 20
0.9941974014
 10
-6.6714295183
 20
0.9886295222
 10
-6.6571495248
 20
0.9825477811
 10
-6.642864891
 20
0.9759812854
 10
-6.6285931034
 20
0.9689397359
 10
-6.6143166843
 20
0.9614134267
 10
-6.6000356357
 20
0.9534023567
  0
LWPOLYLINE
  5
2EE
100
AcDbEntity
  8
0
100
AcDbPolyline
 62
250
  6
CONTINUOUS
 90
40
 70
0
 10
-6.6000356357
 20
-1.4936982416
 10
-6.5999387832
 20
-1.4870907342
 10
-6.5996143717
 20
-1.4803615985
 10
-6.5990629235
 20
-1.4735216697
 10
-6.5982853265
 20
-1.4665819614
 10
-6.597282833
 20
-1.459553648
 10
-6.596057057
 20
-1.4524480465
 10
-6.5946099723
 20
-1.4452765981
 10
-6.5929439092
 20
-1.4380508504
 10
-6.5910615501
 20
-1.4307824383
 10
-6.5889659263
 20
-1.4234830652
 10
-6.5866604119
 20
-1.4161644846
 10
-6.5841487194
 20
-1.4088384809
 10
-6.5814348932
 20
-1.4015168503
 10
-6.5785233029
 20
-1.3942113821
 10
-6.5754186368
 20
-1.3869338395
 10
-6.5721258941
 20
-1.3796959407
 10
-6.5686503767
 20
-1.3725093402
 10
-6.564997681
 20
-1.3653856098
 10
-6.5611736884
 20
-1.35833622
 10
-6.5571845563
 20
-1.3513725218
 10
-6.5530367081
 20
-1.344505728
 10
-6.5487368225
 20
-1.3377468955
 10
-6.5442918232
 20
-1.3311069074
 10
-6.5397088676
 20
-1.3245964552
 10
-6.5349953351
 20
-1.3182260221
 10
-6.5301588154
 20
-1.3120058656
 10
-6.5252070962
 20
-1.3059460015
 10
-6.5201481507
 20
-1.3000561872
 10
-6.5149901249
 20
-1.2943459065
 10
-6.5097413242
 20
-1.2888243541
 10
-6.5044102001
 20
-1.2835004206
 10
-6.4990053368
 20
-1.2783826787
 10
-6.4935354371
 20
-1.2734793688
 10
-6.4880093087
 20
-1.2687983863
 10
-6.4824358496
 20
-1.2643472685
 10
-6.4768240343
 20
-1.2601331824
 10
-6.4711828988
 20
-1.2561629136
 10
-6.4655215265
 20
-1.252442855
 10
-6.4598490331
 20
-1.2489789965
  0
LINE
  5
2EF
100
AcDbEntity
  8
0
100
AcDbLine
 62
7
  6
CONTINUOUS
 10
-5.792674429
 20
7.0920258854
 11
-5.7983843822
 21
6.7336578747
  0
LINE
  5
2F0
100
AcDbEntity
  8
0
100
AcDbLine
 62
7
  6
CONTINUOUS
 10
-6.217860125
 20
7.3375227774
 11
-6.2273611215
 21
6.7314926982
  0
LWPOLYLINE
  5
2F1
100
AcDbEntity
  8
0
100
AcDbPolyline
 62
250
  6
CONTINUOUS
 90
40
 70
0
 10
-7.0965069304
 20
-0.2694753381
 10
-7.0963973371
 20
-0.2628699513
 10
-7.096060843
 20
-0.2561438719
 10
-7.0954979879
 20
-0.2493078996
 10
-7.0947096747
 20
-0.2423730084
 10
-7.0936971688
 20
-0.2353503353
 10
-7.0924620968
 20
-0.2282511626
 10
-7.0910064422
 20
-0.2210868913
 10
-7.0893325422
 20
-0.2138690231
 10
-7.0874430848
 20
-0.2066091482
 10
-7.0853411039
 20
-0.1993189234
 10
-7.0830299748
 20
-0.1920100548
 10
-7.0805134092
 20
-0.1846942799
 10
-7.0777954484
 20
-0.1773833456
 10
-7.0748804566
 20
-0.1700889908
 10
-7.0717731153
 20
-0.1628229291
 10
-7.068478414
 20
-0.1555968272
 10
-7.0650016436
 20
-0.1484222879
 10
-7.061348388
 20
-0.1413108332
 10
-7.0575245139
 20
-0.1342738822
 10
-7.0535361615
 20
-0.1273227328
 10
-7.0493897349
 20
-0.1204685461
 10
-7.0450918916
 20
-0.1137223259
 10
-7.0406495336
 20
-0.1070949053
 10
-7.0360697967
 20
-0.1005969286
 10
-7.031360041
 20
-0.0942388369
 10
-7.0265278235
 20
-0.0880308298
 10
-7.0215808863
 20
-0.081982854
 10
-7.0165271474
 20
-0.0761045937
 10
-7.0113747442
 20
-0.0704055177
 10
-7.0061320075
 20
-0.0648948376
 10
-7.0008073933
 20
-0.0595814311
 10
-6.9954094181
 20
-0.0544737863
 10
-6.9899467014
 20
-0.0495800553
 10
-6.9844275499
 20
-0.0449077135
 10
-6.978861281
 20
-0.0404646827
 10
-6.973258194
 20
-0.0362590866
 10
-6.9676277621
 20
-0.0322978112
 10
-6.9619785836
 20
-0.0285866823
 10
-6.9563197269
 20
-0.0251314666
  0
LINE
  5
2F2
100
AcDbEntity
  8
0
100
AcDbLine
 62
7
  6
CONTINUOUS
 10
-6.2112891667
 20
7.6956009696
 11
-6.217860125
 21
7.3375227774
  0
LWPOLYLINE
  5
2F3
100
AcDbEntity
  8
0
100
AcDbPolyline
 62
7
  6
CONTINUOUS
 90
8
 70
0
 10
-6.2077245231
 20
-8.6893255421
 10
-6.207570244
 20
-8.6817774643
 10
-6.2071941918
 20
-8.6743538437
 10
-6.206595112
 20
-8.6670392141
 10
-6.2057742544
 20
-8.6598490392
 10
-6.2047353882
 20
-8.6528297217
 10
-6.2034790242
 20
-8.6459901068
 10
-6.2020046792
 20
-8.6393213662
  0
LWPOLYLINE
  5
2F4
100
AcDbEntity
  8
0
100
AcDbPolyline
 62
7
  6
CONTINUOUS
 90
4
 70
0
 10
-5.7696191936
 20
8.1299606981
 10
-5.7786792781
 20
7.7832408562
 10
-5.7863643566
 20
7.4372625853
 10
-5.792674429
 20
7.0920258854
  0
LWPOLYLINE
  5
2F5
100
AcDbEntity
  8
0
100
AcDbPolyline
 62
7
  6
CONTINUOUS
 90
3
 70
0
 10
-6.193708752
 20
8.4141874096
 10
-6.2032386642
 20
8.0544911775
 10
-6.2112891667
 20
7.6956009696
  0
LINE
  5
2F6
100
AcDbEntity
  8
0
100
AcDbLine
 62
7
  6
CONTINUOUS
 10
-6.1937086847
 20
8.4141897698
 11
-6.1826996353
 21
8.7746815622
  0
LWPOLYLINE
  5
2F7
100
AcDbEntity
  8
0
100
AcDbPolyline
 62
7
  6
CONTINUOUS
 90
5
 70
0
 10
-6.1238773074
 20
10.2244529348
 10
-6.1408001306
 20
9.8608571505
 10
-6.156245051
 20
9.4980237976
 10
-6.1702116721
 20
9.1359621127
 10
-6.1826996693
 20
8.7746805159
  0
LWPOLYLINE
  5
2F8
100
AcDbEntity
  8
0
100
AcDbPolyline
 62
7
  6
CONTINUOUS
 90
7
 70
0
 10
-5.6863906542
 20
10.2256456357
 10
-5.703697622
 20
9.8745684144
 10
-5.7196303719
 20
9.5242097525
 10
-5.7341889041
 20
9.1745696499
 10
-5.7473734811
 20
8.8256404361
 10
-5.7591838404
 20
8.4774297816
 10
-5.7696191936
 20
8.1299606981
  0
LWPOLYLINE
  5
2F9
100
AcDbEntity
  8
ASSI
100
AcDbPolyline
 62
7
  6
CONTINUOUS
 90
10
 70
0
 10
-5.6863906542
 20
10.2256456357
 10
-5.703697622
 20
9.8745684144
 10
-5.7196303719
 20
9.5242097525
 10
-5.7341889041
 20
9.1745696499
 10
-5.7473734811
 20
8.8256404361
 10
-5.7591838404
 20
8.4774297816
 10
-5.7696191936
 20
8.1299606981
 10
-5.7786792781
 20
7.7832408562
 10
-5.7863643566
 20
7.4372625853
 10
-5.792674429
 20
7.0920258854
  0
LINE
  5
2FA
100
AcDbEntity
  8
0
100
AcDbLine
 62
7
  6
CONTINUOUS
 10
-6.1054768635
 20
10.5888050905
 11
-6.1238773074
 21
10.2244529348
  0
LWPOLYLINE
  5
2FB
100
AcDbEntity
  8
0
100
AcDbPolyline
 62
7
  6
CONTINUOUS
 90
9
 70
0
 10
-6.1054768635
 20
10.5888050904
 10
-6.1048469945
 20
10.5979192367
 10
-6.1039387389
 20
10.6068439442
 10
-6.1027521055
 20
10.6155792084
 10
-6.1012837997
 20
10.6241385183
 10
-6.0995371305
 20
10.6325083773
 10
-6.0975220255
 20
10.6406482961
 10
-6.0952395965
 20
10.6485550243
 10
-6.0926887764
 20
10.6562317894
  0
LWPOLYLINE
  5
2FC
100
AcDbEntity
  8
0
100
AcDbPolyline
 62
7
  6
CONTINUOUS
 90
8
 70
0
 10
-6.1049419021
 20
10.596830569
 10
-6.1041847541
 20
10.6047311905
 10
-6.103205419
 20
10.6125069551
 10
-6.102001349
 20
10.620174015
 10
-6.1005750874
 20
10.6277162201
 10
-6.0989342833
 20
10.6350851102
 10
-6.0970801459
 20
10.6422715141
 10
-6.0950114938
 20
10.6492845888
  0
LWPOLYLINE
  5
2FD
100
AcDbEntity
  8
0
100
AcDbPolyline
 62
7
  6
CONTINUOUS
 90
3
 70
0
 10
-3.4706044294
 20
7.5148773457
 10
-3.4670697115
 20
7.5208394314
 10
-3.4633079786
 20
7.526530075
  0
LWPOLYLINE
  5
2FE
100
AcDbEntity
  8
0
100
AcDbPolyline
 62
7
  6
CONTINUOUS
 90
4
 70
0
 10
-1.3875550776
 20
8.3087417843
 10
-1.3922760593
 20
8.303634052
 10
-1.3972030816
 20
8.2988555461
 10
-1.4023332233
 20
8.2944118177
  0
LWPOLYLINE
  5
2FF
100
AcDbEntity
  8
0
100
AcDbPolyline
 62
7
  6
CONTINUOUS
 90
3
 70
0
 10
-2.1627274718
 20
5.3073111262
 10
-2.1678858651
 20
5.3034340076
 10
-2.1732400664
 20
5.2998965859
  0
LINE
  5
300
100
AcDbEntity
  8
0
100
AcDbLine
 62
7
  6
CONTINUOUS
 10
-2.1732392738
 20
5.2998971635
 11
-2.1787953782
 21
5.2966934277
  0
LINE
  5
301
100
AcDbEntity
  8
0
100
AcDbLine
 62
7
  6
CONTINUOUS
 10
-2.1787937434
 20
5.2966942304
 11
-2.1839212686
 21
5.2941188727
  0
LINE
  5
302
100
AcDbEntity
  8
0
100
AcDbLine
 62
7
  6
CONTINUOUS
 10
-0.9517704597
 20
5.7667774062
 11
-0.9556548912
 21
5.7648623559
  0
LINE
  5
303
100
AcDbEntity
  8
0
100
AcDbLine
 62
7
  6
CONTINUOUS
 10
-2.1839204121
 20
5.2941192739
 11
-2.18453123
 21
5.2938355057
  0
LINE
  5
304
100
AcDbEntity
  8
0
100
AcDbLine
 62
7
  6
CONTINUOUS
 10
-0.9556548912
 20
5.7648623559
 11
-0.9576501212
 21
5.7639531732
  0
LINE
  5
305
100
AcDbEntity
  8
0
100
AcDbLine
 62
7
  6
CONTINUOUS
 10
-2.1845348613
 20
5.2938338187
 11
-2.1904637365
 21
5.2913169479
  0
LINE
  5
306
100
AcDbEntity
  8
0
100
AcDbLine
 62
7
  6
CONTINUOUS
 10
-0.9576609104
 20
5.7639482567
 11
-0.9637266909
 21
5.7614718868
  0
LWPOLYLINE
  5
307
100
AcDbEntity
  8
0
100
AcDbPolyline
 62
7
  6
CONTINUOUS
 90
3
 70
0
 10
-2.1904574745
 20
5.2913193894
 10
-2.1965676252
 20
5.2891468508
 10
-2.2028270647
 20
5.287331246
  0
LWPOLYLINE
  5
308
100
AcDbEntity
  8
0
100
AcDbPolyline
 62
7
  6
CONTINUOUS
 90
20
 70
0
 10
-0.9637178564
 20
5.761475398
 10
-0.969931783
 20
5.7593549013
 10
-0.9762911883
 20
5.7575917949
 10
-0.9827975837
 20
5.7561856284
 10
-0.9894267034
 20
5.7551393241
 10
-0.9961740692
 20
5.7544519214
 10
-1.0030442492
 20
5.7541243331
 10
-1.0100265475
 20
5.7541622915
 10
-1.0171268562
 20
5.7545691125
 10
-1.0243393591
 20
5.7553414396
 10
-1.0316357962
 20
5.7564749976
 10
-1.0390141419
 20
5.7579708309
 10
-1.046476482
 20
5.7598278629
 10
-1.0540007206
 20
5.7620386386
 10
-1.0615904976
 20
5.7646031278
 10
-1.0692422142
 20
5.7675213387
 10
-1.0769229126
 20
5.770785876
 10
-1.0846216144
 20
5.7743942706
 10
-1.0923493199
 20
5.77834898
 10
-1.1001060345
 20
5.7826500012
  0
LWPOLYLINE
  5
309
100
AcDbEntity
  8
0
100
AcDbPolyline
 62
7
  6
CONTINUOUS
 90
11
 70
0
 10
-3.7251295477
 20
-7.6127244696
 10
-3.7194098395
 20
-7.6113783691
 10
-3.7135283674
 20
-7.6103387201
 10
-3.707498113
 20
-7.6096039967
 10
-3.7013580083
 20
-7.6091696129
 10
-3.6951110118
 20
-7.6090369873
 10
-3.6887541771
 20
-7.6092047086
 10
-3.6823175798
 20
-7.6096639464
 10
-3.6758120136
 20
-7.6104115239
 10
-3.6692266949
 20
-7.6114506238
 10
-3.6625593334
 20
-7.6127819554
  0
LINE
  5
30A
100
AcDbEntity
  8
0
100
AcDbLine
 62
7
  6
CONTINUOUS
 10
-1.5573037468
 20
-10.6712215271
 11
-1.5518123275
 21
-10.6805307904
  0
LINE
  5
30B
100
AcDbEntity
  8
0
100
AcDbLine
 62
7
  6
CONTINUOUS
 10
-1.5519000699
 20
-10.6803785674
 11
-1.5465665474
 21
-10.6898477053
  0
LINE
  5
30C
100
AcDbEntity
  8
0
100
AcDbLine
 62
7
  6
CONTINUOUS
 10
-1.5466623554
 20
-10.6896754053
 11
-1.541506973
 21
-10.6992711607
  0
LINE
  5
30D
100
AcDbEntity
  8
0
100
AcDbLine
 62
7
  6
CONTINUOUS
 10
-0.9137218929
 20
-13.1266774244
 11
-0.9087995414
 21
-13.1360773312
  0
LINE
  5
30E
100
AcDbEntity
  8
0
100
AcDbLine
 62
7
  6
CONTINUOUS
 10
-1.5416017988
 20
-10.6990916641
 11
-1.5366579494
 21
-10.7087547463
  0
LINE
  5
30F
100
AcDbEntity
  8
0
100
AcDbLine
 62
7
  6
CONTINUOUS
 10
-0.908888655
 20
-13.1359053405
 11
-0.9041550543
 21
-13.1453840569
  0
LINE
  5
310
100
AcDbEntity
  8
0
100
AcDbLine
 62
7
  6
CONTINUOUS
 10
-1.5367520072
 20
-10.7085662254
 11
-1.5320226885
 21
-10.7182911649
  0
LINE
  5
311
100
AcDbEntity
  8
0
100
AcDbLine
 62
7
  6
CONTINUOUS
 10
-0.9042326166
 20
-13.1452258472
 11
-0.89972057
 21
-13.1547183456
  0
LINE
  5
312
100
AcDbEntity
  8
0
100
AcDbLine
 62
7
  6
CONTINUOUS
 10
-1.5321196824
 20
-10.7180861811
 11
-1.5275979623
 21
-10.7278877041
  0
LWPOLYLINE
  5
313
100
AcDbEntity
  8
0
100
AcDbPolyline
 62
7
  6
CONTINUOUS
 90
10
 70
0
 10
-0.8997844901
 20
-13.1545803858
 10
-0.8955465549
 20
-13.1639671132
 10
-0.8915164491
 20
-13.1733878202
 10
-0.8877179433
 20
-13.1827894117
 10
-0.8841577125
 20
-13.1921550116
 10
-0.880829019
 20
-13.2015014562
 10
-0.8777355242
 20
-13.210826226
 10
-0.8748752114
 20
-13.2201396217
 10
-0.8722500275
 20
-13.2294312983
 10
-0.8698695864
 20
-13.2386677718
  0
LINE
  5
314
100
AcDbEntity
  8
0
100
AcDbLine
 62
7
  6
CONTINUOUS
 10
-1.5276981067
 20
-10.7276644297
 11
-1.5233984574
 21
-10.7375198322
  0
LINE
  5
315
100
AcDbEntity
  8
0
100
AcDbLine
 62
7
  6
CONTINUOUS
 10
-1.5235007611
 20
-10.7372785645
 11
-1.5194217444
 21
-10.7471956031
  0
LINE
  5
316
100
AcDbEntity
  8
0
100
AcDbLine
 62
7
  6
CONTINUOUS
 10
-1.3371287193
 20
-14.99970636
 11
-1.3334784454
 21
-15.0089769859
  0
LINE
  5
317
100
AcDbEntity
  8
0
100
AcDbLine
 62
7
  6
CONTINUOUS
 10
-1.5195267622
 20
-10.7469301338
 11
-1.5156702364
 21
-10.7569069532
  0
LINE
  5
318
100
AcDbEntity
  8
0
100
AcDbLine
 62
7
  6
CONTINUOUS
 10
-2.2948576474
 20
-11.4749353519
 11
-2.2981184847
 21
-11.4651996803
  0
LINE
  5
319
100
AcDbEntity
  8
0
100
AcDbLine
 62
7
  6
CONTINUOUS
 10
-2.2023777
 20
-13.6951838765
 11
-2.2054784612
 21
-13.6856565219
  0
LWPOLYLINE
  5
31A
100
AcDbEntity
  8
0
100
AcDbPolyline
 62
7
  6
CONTINUOUS
 90
31
 70
0
 10
-2.2054787129
 20
-13.6856556344
 10
-2.2083249477
 20
-13.6761731281
 10
-2.2109193156
 20
-13.6667265273
 10
-2.2132589998
 20
-13.6573252095
 10
-2.2153316044
 20
-13.6480112117
 10
-2.2171358279
 20
-13.6387886592
 10
-2.2186729291
 20
-13.6296533991
 10
-2.2199343712
 20
-13.6206350632
 10
-2.22091904
 20
-13.6117226268
 10
-2.2216280194
 20
-13.6029270953
 10
-2.2220560986
 20
-13.594311164
 10
-2.2221997448
 20
-13.5858849432
 10
-2.222062505
 20
-13.5776383324
 10
-2.2216498203
 20
-13.5696037316
 10
-2.2209617818
 20
-13.5617831106
 10
-2.2199983348
 20
-13.5541745236
 10
-2.218764724
 20
-13.5468045117
 10
-2.217262839
 20
-13.5396765202
 10
-2.2154908454
 20
-13.5327871399
 10
-2.2134484157
 20
-13.5261526395
 10
-2.2111317087
 20
-13.5197708226
 10
-2.2085446272
 20
-13.5136439258
 10
-2.2056984731
 20
-13.5077948754
 10
-2.2025931818
 20
-13.5022267676
 10
-2.1992288958
 20
-13.4969365571
 10
-2.1956172425
 20
-13.4919379672
 10
-2.1917571521
 20
-13.4872275673
 10
-2.187649778
 20
-13.4828088426
 10
-2.1833100955
 20
-13.4787058993
 10
-2.1787431322
 20
-13.474926796
 10
-2.1752114088
 20
-13.4723215912
  0
LINE
  5
31B
100
AcDbEntity
  8
0
100
AcDbLine
 62
7
  6
CONTINUOUS
 10
-6.2247610874
 20
6.6865770035
 11
-6.2258116175
 21
6.6959711497
  0
LWPOLYLINE
  5
31C
100
AcDbEntity
  8
0
100
AcDbPolyline
 62
7
  6
CONTINUOUS
 90
24
 70
0
 10
-3.4732840742
 20
-11.81744328
 10
-3.4742069472
 20
-11.8084558902
 10
-3.4748521861
 20
-11.7996211125
 10
-3.4752212187
 20
-11.7909303474
 10
-3.4753127543
 20
-11.7824126316
 10
-3.4751260357
 20
-11.7740606274
 10
-3.4746618276
 20
-11.7658816776
 10
-3.4739211472
 20
-11.7579268569
 10
-3.4729024378
 20
-11.7502074266
 10
-3.4716073011
 20
-11.742712154
 10
-3.4700415163
 20
-11.7354583871
 10
-3.4682036542
 20
-11.7284427903
 10
-3.4660951977
 20
-11.7216687333
 10
-3.4637263101
 20
-11.7151636317
 10
-3.4610985162
 20
-11.7089336435
 10
-3.4582103654
 20
-11.7029726578
 10
-3.455067572
 20
-11.697289695
 10
-3.4516673134
 20
-11.6918797782
 10
-3.4480124871
 20
-11.6867479319
 10
-3.4441174001
 20
-11.681918186
 10
-3.4399835403
 20
-11.6773930461
 10
-3.4356095096
 20
-11.6731700634
 10
-3.4310052984
 20
-11.6692658456
 10
-3.426460288
 20
-11.665882564
  0
LINE
  5
31D
100
AcDbEntity
  8
DRAFT
100
AcDbLine
 62
7
  6
CONTINUOUS
 10
-5.685785159
 20
21.3361564955
 11
-5.6645798697
 21
20.7196839981
  0
LINE
  5
31E
100
AcDbEntity
  8
0
100
AcDbLine
 62
7
  6
CONTINUOUS
 10
-3.4940473447
 20
7.4246574241
 11
-3.493469977
 21
7.4334527627
  0
LINE
  5
31F
100
AcDbEntity
  8
0
100
AcDbLine
 62
7
  6
CONTINUOUS
 10
-3.4934885962
 20
7.4332237404
 11
-3.4926417087
 21
7.4419308373
  0
LINE
  5
320
100
AcDbEntity
  8
0
100
AcDbLine
 62
7
  6
CONTINUOUS
 10
-3.4926710941
 20
7.4416585298
 11
-3.4915538744
 21
7.450226714
  0
LINE
  5
321
100
AcDbEntity
  8
0
100
AcDbLine
 62
7
  6
CONTINUOUS
 10
-3.4915954295
 20
7.4499468221
 11
-3.4902146039
 21
7.4583128936
  0
LINE
  5
322
100
AcDbEntity
  8
0
100
AcDbLine
 62
7
  6
CONTINUOUS
 10
-3.4902633062
 20
7.4580467526
 11
-3.488624395
 21
7.4661876581
  0
LINE
  5
323
100
AcDbEntity
  8
0
100
AcDbLine
 62
7
  6
CONTINUOUS
 10
-3.4886722472
 20
7.4659601681
 11
-3.486782788
 21
7.4738527052
  0
LWPOLYLINE
  5
324
100
AcDbEntity
  8
0
100
AcDbPolyline
 62
7
  6
CONTINUOUS
 90
15
 70
0
 10
-2.0360272031
 20
7.7261539879
 10
-2.0381438494
 20
7.7182745812
 10
-2.0405172979
 20
7.7106435351
 10
-2.04314993
 20
7.7032571369
 10
-2.046040412
 20
7.6961326348
 10
-2.0491931168
 20
7.6892675202
 10
-2.0526037328
 20
7.6826642705
 10
-2.0562579127
 20
7.6763476055
 10
-2.060155487
 20
7.6703207508
 10
-2.064296703
 20
7.664580441
 10
-2.0686678522
 20
7.6591416527
 10
-2.0732705192
 20
7.6540006581
 10
-2.0781032029
 20
7.6491611422
 10
-2.0831475802
 20
7.644649193
 10
-2.0883975791
 20
7.6404734881
  0
LWPOLYLINE
  5
325
100
AcDbEntity
  8
0
100
AcDbPolyline
 62
7
  6
CONTINUOUS
 90
7
 70
0
 10
-3.4868247528
 20
7.4736852093
 10
-3.4847300202
 20
7.4811744371
 10
-3.482387905
 20
7.4884206981
 10
-3.479798606
 20
7.4954311168
 10
-3.4769718589
 20
7.5021796589
 10
-3.4739097064
 20
7.5086570613
 10
-3.4706101757
 20
7.5148725499
  0
LINE
  5
326
100
AcDbEntity
  8
0
100
AcDbLine
 62
7
  6
CONTINUOUS
 10
-2.1211131072
 20
5.370186719
 11
-2.123662075
 21
5.363067179
  0
LWPOLYLINE
  5
327
100
AcDbEntity
  8
0
100
AcDbPolyline
 62
7
  6
CONTINUOUS
 90
4
 70
0
 10
-2.1236669738
 20
5.3630544125
 10
-2.1264734573
 20
5.3561936023
 10
-2.1295326208
 20
5.3496039554
 10
-2.1328485045
 20
5.3432804486
  0
LINE
  5
328
100
AcDbEntity
  8
RACCORDO
100
AcDbLine
 62
7
  6
CONTINUOUS
 10
2.2338107903
 20
16.7634810502
 11
2.0535595409
 21
16.3492608914
  0
LINE
  5
329
100
AcDbEntity
  8
0
100
AcDbLine
 62
7
  6
CONTINUOUS
 10
-2.1328426833
 20
5.3432907536
 11
-2.136410653
 21
5.3372382855
  0
LINE
  5
32A
100
AcDbEntity
  8
0
100
AcDbLine
 62
7
  6
CONTINUOUS
 10
-0.9041444215
 20
5.8133210153
 11
-0.9078723376
 21
5.8072948598
  0
LINE
  5
32B
100
AcDbEntity
  8
0
100
AcDbLine
 62
7
  6
CONTINUOUS
 10
-2.1364171366
 20
5.3372280677
 11
-2.1402218049
 21
5.3314757769
  0
LWPOLYLINE
  5
32C
100
AcDbEntity
  8
0
100
AcDbPolyline
 62
7
  6
CONTINUOUS
 90
4
 70
0
 10
-0.9078759228
 20
5.8072893814
 10
-0.9118503577
 20
5.8015435695
 10
-0.9160675155
 20
5.7960833838
 10
-0.9205105049
 20
5.7909342026
  0
LINE
  5
32D
100
AcDbEntity
  8
0
100
AcDbLine
 62
7
  6
CONTINUOUS
 10
-2.1402149358
 20
5.3314855876
 11
-2.1442534581
 21
5.3260377908
  0
LINE
  5
32E
100
AcDbEntity
  8
0
100
AcDbLine
 62
7
  6
CONTINUOUS
 10
-2.144260295
 20
5.3260290093
 11
-2.1485349091
 21
5.3208822837
  0
LINE
  5
32F
100
AcDbEntity
  8
0
100
AcDbLine
 62
7
  6
CONTINUOUS
 10
-1.5329535605
 20
3.8888273179
 11
-1.537221308
 21
3.8837891759
  0
LWPOLYLINE
  5
330
100
AcDbEntity
  8
0
100
AcDbPolyline
 62
7
  6
CONTINUOUS
 90
4
 70
0
 10
-2.1485283809
 20
5.3208897162
 10
-2.1530297555
 20
5.3160542346
 10
-2.1577632334
 20
5.3115280749
 10
-2.1627232518
 20
5.3073144594
  0
LINE
  5
331
100
AcDbEntity
  8
0
100
AcDbLine
 62
7
  6
CONTINUOUS
 10
-1.5371005069
 20
3.8839201918
 11
-1.5416063209
 21
3.8791576046
  0
LINE
  5
332
100
AcDbEntity
  8
0
100
AcDbLine
 62
7
  6
CONTINUOUS
 10
-0.9205033383
 20
5.7909420615
 11
-0.9251689838
 21
5.7861071269
  0
LINE
  5
333
100
AcDbEntity
  8
0
100
AcDbLine
 62
7
  6
CONTINUOUS
 10
-1.5414618324
 20
3.8793020286
 11
-1.5461939194
 21
3.8748324748
  0
LWPOLYLINE
  5
334
100
AcDbEntity
  8
0
100
AcDbPolyline
 62
7
  6
CONTINUOUS
 90
3
 70
0
 10
-0.9251777729
 20
5.786098624
 10
-0.9300709628
 20
5.7815740019
 10
-0.9351779914
 20
5.7773778416
  0
LINE
  5
335
100
AcDbEntity
  8
0
100
AcDbLine
 62
7
  6
CONTINUOUS
 10
-1.546038397
 20
3.8749716111
 11
-1.5509844518
 21
3.8708097558
  0
LINE
  5
336
100
AcDbEntity
  8
0
100
AcDbLine
 62
7
  6
CONTINUOUS
 10
-1.5508293549
 20
3.8709301485
 11
-1.5559526078
 21
3.8671044132
  0
LWPOLYLINE
  5
337
100
AcDbEntity
  8
0
100
AcDbPolyline
 62
7
  6
CONTINUOUS
 90
4
 70
0
 10
-0.9351663132
 20
5.7773868711
 10
-0.940495843
 20
5.7735160744
 10
-0.9460398666
 20
5.7699731977
 10
-0.951759329
 20
5.7667831746
  0
LWPOLYLINE
  5
338
100
AcDbEntity
  8
0
100
AcDbPolyline
 62
7
  6
CONTINUOUS
 90
4
 70
0
 10
-1.5558205199
 20
3.8671971874
 10
-1.5610203205
 20
3.8637716271
 10
-1.5664203435
 20
3.8606545597
 10
-1.5715690486
 20
3.8580607791
  0
LWPOLYLINE
  5
339
100
AcDbEntity
  8
0
100
AcDbPolyline
 62
250
  6
CONTINUOUS
 90
21
 70
0
 10
-6.8577098764
 20
0.2058697224
 10
-6.854844776
 20
0.2075618008
 10
-6.8509801358
 20
0.2101671975
 10
-6.8472843387
 20
0.2130489511
 10
-6.8437633787
 20
0.2162023878
 10
-6.8404229663
 20
0.2196223932
 10
-6.837268519
 20
0.2233034206
 10
-6.834305153
 20
0.2272394999
 10
-6.8315376743
 20
0.2314242475
 10
-6.8289705714
 20
0.2358508762
 10
-6.8266080077
 20
0.2405122069
 10
-6.824453815
 20
0.2454006794
 10
-6.8225114869
 20
0.2505083656
 10
-6.8207841737
 20
0.2558269814
 10
-6.8192746769
 20
0.2613479009
 10
-6.8179854444
 20
0.2670621701
 10
-6.8169185674
 20
0.2729605212
 10
-6.8160757762
 20
0.279033388
 10
-6.8154584375
 20
0.2852709214
 10
-6.8150675526
 20
0.2916630049
 10
-6.8149037555
 20
0.2981992716
  0
LINE
  5
33A
100
AcDbEntity
  8
0
100
AcDbLine
 62
250
  6
CONTINUOUS
 10
-6.5120214609
 20
0.8344599314
 11
-6.8145357458
 21
0.6658354001
  0
LWPOLYLINE
  5
33B
100
AcDbEntity
  8
0
100
AcDbPolyline
 62
7
  6
CONTINUOUS
 90
28
 70
0
 10
-6.7085952795
 20
0.8960625216
 10
-6.7070661742
 20
0.8968667814
 10
-6.7050971135
 20
0.8977689223
 10
-6.7029254744
 20
0.8986128766
 10
-6.7005448885
 20
0.8993848518
 10
-6.6979114542
 20
0.900082981
 10
-6.694939635
 20
0.9007062292
 10
-6.6915988331
 20
0.9012319541
 10
-6.6878950714
 20
0.9016313988
 10
-6.6838016248
 20
0.9018804831
 10
-6.6793093261
 20
0.9019525306
 10
-6.6744316031
 20
0.901821553
 10
-6.6691793489
 20
0.9014643887
 10
-6.663558999
 20
0.9008598273
 10
-6.6575874633
 20
0.8999893715
 10
-6.6512915745
 20
0.8988388584
 10
-6.6446871312
 20
0.8973953431
 10
-6.6377905974
 20
0.8956476949
 10
-6.6306268391
 20
0.8935888848
 10
-6.6232146895
 20
0.8912127136
 10
-6.6155693859
 20
0.8885133641
 10
-6.6077056415
 20
0.8854858449
 10
-6.5996406733
 20
0.8821273851
 10
-6.5913887093
 20
0.8784352513
 10
-6.5829548895
 20
0.8744030609
 10
-6.5743496077
 20
0.8700270066
 10
-6.5655919533
 20
0.8653087107
 10
-6.5586215404
 20
0.8613662003
  0
LWPOLYLINE
  5
33C
100
AcDbEntity
  8
0
100
AcDbPolyline
 62
7
  6
CONTINUOUS
 90
8
 70
0
 10
-1.5715700431
 20
3.8580603132
 10
-1.5775807411
 20
3.8554695582
 10
-1.583443575
 20
3.853347772
 10
-1.5894596055
 20
3.8515567499
 10
-1.5956321474
 20
3.8500983998
 10
-1.6019579014
 20
3.8489708052
 10
-1.6084004654
 20
3.8481827712
 10
-1.6149556894
 20
3.8477371281
  0
LWPOLYLINE
  5
33D
100
AcDbEntity
  8
0
100
AcDbPolyline
 62
250
  6
CONTINUOUS
 90
21
 70
0
 10
-0.0294955731
 20
-4.0245929195
 10
-0.0352382302
 20
-4.0214663171
 10
-0.0409695721
 20
-4.0186084578
 10
-0.0466803033
 20
-4.0160239765
 10
-0.052361162
 20
-4.0137170647
 10
-0.0580029347
 20
-4.0116914641
 10
-0.0635964713
 20
-4.0099504598
 10
-0.0691326999
 20
-4.0084968754
 10
-0.0746026416
 20
-4.0073330685
 10
-0.079997425
 20
-4.0064609265
 10
-0.0853083006
 20
-4.005881864
 10
-0.090526655
 20
-4.00559682
 10
-0.0956440248
 20
-4.0056062569
 10
-0.1006521104
 20
-4.0059101594
 10
-0.1055427895
 20
-4.0065080345
 10
-0.1103081302
 20
-4.0073989127
 10
-0.1149404037
 20
-4.0085813491
 10
-0.1194320973
 20
-4.0100534259
 10
-0.1237759262
 20
-4.0118127556
 10
-0.1279648452
 20
-4.013856485
 10
-0.1308725406
 20
-4.015497097
  0
LWPOLYLINE
  5
33E
100
AcDbEntity
  8
0
100
AcDbPolyline
 62
250
  6
CONTINUOUS
 90
40
 70
0
 10
-7.0961387716
 20
-0.6368431855
 10
-7.0903625046
 20
-0.6400470525
 10
-7.0843686586
 20
-0.6431143851
 10
-7.0781668478
 20
-0.6460402632
 10
-7.0717670203
 20
-0.6488199935
 10
-7.0651794416
 20
-0.6514491174
 10
-7.0584146783
 20
-0.6539234175
 10
-7.0514835813
 20
-0.656238925
 10
-7.0443972685
 20
-0.6583919258
 10
-7.0371671064
 20
-0.6603789663
 10
-7.0298046925
 20
-0.6621968594
 10
-7.0223218363
 20
-0.663842689
 10
-7.0147305407
 20
-0.6653138152
 10
-7.0070429822
 20
-0.6666078782
 10
-6.9992714921
 20
-0.6677228023
 10
-6.991428536
 20
-0.6686567992
 10
-6.9835266943
 20
-0.6694083706
 10
-6.9755786419
 20
-0.6699763111
 10
-6.9675971276
 20
-0.6703597096
 10
-6.9595949541
 20
-0.6705579512
 10
-6.9515849572
 20
-0.6705707178
 10
-6.9435799851
 20
-0.670397989
 10
-6.9355928781
 20
-0.6700400419
 10
-6.9276364479
 20
-0.6694974506
 10
-6.9197234567
 20
-0.6687710854
 10
-6.9118665972
 20
-0.6678621114
 10
-6.9040784723
 20
-0.6667719868
 10
-6.8963715742
 20
-0.66550246
 10
-6.8887582651
 20
-0.6640555675
 10
-6.881250757
 20
-0.6624336301
 10
-6.8738610922
 20
-0.6606392494
 10
-6.866601124
 20
-0.6586753038
 10
-6.8594824976
 20
-0.6565449433
 10
-6.8525166315
 20
-0.6542515853
 10
-6.8457146992
 20
-0.6517989083
 10
-6.8390876113
 20
-0.6491908465
 10
-6.8326459977
 20
-0.6464315833
 10
-6.8264001912
 20
-0.6435255447
 10
-6.8203602101
 20
-0.6404773921
 10
-6.8145357428
 20
-0.6372920147
  0
LWPOLYLINE
  5
33F
100
AcDbEntity
  8
0
100
AcDbPolyline
 62
250
  6
CONTINUOUS
 90
40
 70
0
 10
-7.0965069304
 20
-0.2694753381
 10
-7.0907346058
 20
-0.2726905676
 10
-7.0847400961
 20
-0.2757561477
 10
-7.0785350197
 20
-0.2786736224
 10
-7.0721343261
 20
-0.2814520924
 10
-7.0655485359
 20
-0.2840870523
 10
-7.0587828627
 20
-0.2865600873
 10
-7.0518507989
 20
-0.2888749674
 10
-7.0447664401
 20
-0.2910348931
 10
-7.0375353012
 20
-0.2930210033
 10
-7.0301717973
 20
-0.2948387935
 10
-7.0226910117
 20
-0.2964927357
 10
-7.015098742
 20
-0.2979631983
 10
-7.0074099433
 20
-0.2992575571
 10
-6.9996405207
 20
-0.3003818218
 10
-6.9917967385
 20
-0.3013154011
 10
-6.9838934838
 20
-0.3020675258
 10
-6.9759472551
 20
-0.3026459681
 10
-6.9679653247
 20
-0.3030292693
 10
-6.9599615705
 20
-0.3032281764
 10
-6.9519527317
 20
-0.3032523618
 10
-6.9439481699
 20
-0.3030800866
 10
-6.9359593959
 20
-0.3027228011
 10
-6.9280028135
 20
-0.3021920404
 10
-6.9200916223
 20
-0.3014671192
 10
-6.9122332538
 20
-0.3005587892
 10
-6.9044428377
 20
-0.2994800843
 10
-6.8967397147
 20
-0.2982136268
 10
-6.8891255611
 20
-0.296767565
 10
-6.8816128239
 20
-0.2951555467
 10
-6.874229203
 20
-0.2933665268
 10
-6.8669698233
 20
-0.2914041242
 10
-6.8598426935
 20
-0.2892810684
 10
-6.8528847097
 20
-0.2869957182
 10
-6.8460855371
 20
-0.2845460822
 10
-6.8394472847
 20
-0.281941989
 10
-6.8330140426
 20
-0.2791930735
 10
-6.8267919886
 20
-0.2763003414
 10
-6.8207570959
 20
-0.273260086
 10
-6.8149037555
 20
-0.2700711137
  0
LWPOLYLINE
  5
340
100
AcDbEntity
  8
0
100
AcDbPolyline
 62
250
  6
CONTINUOUS
 90
52
 70
0
 10
3.7689757702
 20
-5.9745710875
 10
3.7797834553
 20
-5.9806273452
 10
3.7909015418
 20
-5.9864946999
 10
3.8023199029
 20
-5.9921678583
 10
3.8140279156
 20
-5.9976416108
 10
3.8260151383
 20
-6.00291113
 10
3.8382713727
 20
-6.0079719357
 10
3.8507858134
 20
-6.0128195568
 10
3.863546833
 20
-6.0174494733
 10
3.876542687
 20
-6.0218573961
 10
3.8897615231
 20
-6.0260393275
 10
3.903191415
 20
-6.0299915092
 10
3.9168201942
 20
-6.0337103289
 10
3.9306354787
 20
-6.0371924326
 10
3.9446247606
 20
-6.0404346845
 10
3.9587754331
 20
-6.0434341197
 10
3.9730747138
 20
-6.0461880507
 10
3.9875095895
 20
-6.0486939861
 10
4.0020669063
 20
-6.05094959
 10
4.0167334373
 20
-6.0529528449
 10
4.0314959065
 20
-6.0547019623
 10
4.0463409355
 20
-6.0561952981
 10
4.0612550753
 20
-6.0574315336
 10
4.0762247876
 20
-6.0584095741
 10
4.0912364657
 20
-6.0591284644
 10
4.1062764636
 20
-6.0595875915
 10
4.1213311742
 20
-6.0597865745
 10
4.136387011
 20
-6.0597251593
 10
4.1514303527
 20
-6.0594034401
 10
4.1664475245
 20
-6.0588217425
 10
4.1814248767
 20
-6.0579805131
 10
4.1963488137
 20
-6.0568805599
 10
4.2112058141
 20
-6.0555229187
 10
4.2259824132
 20
-6.0539087325
 10
4.2406652349
 20
-6.0520395078
 10
4.2552409381
 20
-6.0499169841
 10
4.2696962382
 20
-6.0475430045
 10
4.28401798
 20
-6.044919783
 10
4.2981932253
 20
-6.0420497389
 10
4.3122091962
 20
-6.0389353629
 10
4.3260532016
 20
-6.0355795235
 10
4.3397126647
 20
-6.0319853151
 10
4.35317521
 20
-6.0281558915
 10
4.3664286935
 20
-6.0240947552
 10
4.3794610249
 20
-6.0198056554
 10
4.3922602029
 20
-6.0152924412
 10
4.4048143256
 20
-6.0105593833
 10
4.4171123315
 20
-6.0056107263
 10
4.4291437768
 20
-6.0004505509
 10
4.440897939
 20
-5.9950834003
 10
4.4523638783
 20
-5.9895143183
 10
4.463531152
 20
-5.9837483818
  0
LWPOLYLINE
  5
341
100
AcDbEntity
  8
0
100
AcDbPolyline
 62
7
  6
CONTINUOUS
 90
43
 70
0
 10
3.8103922675
 20
-6.0662321486
 10
3.8205783626
 20
-6.0719524166
 10
3.8337955683
 20
-6.0789176909
 10
3.8472606474
 20
-6.085519323
 10
3.8609687085
 20
-6.091763714
 10
3.874906067
 20
-6.0976524905
 10
3.8890463473
 20
-6.1031821707
 10
3.9033798643
 20
-6.1083567276
 10
3.9178974192
 20
-6.1131792933
 10
3.9325684937
 20
-6.1176463509
 10
3.9473828791
 20
-6.1217614757
 10
3.9623315925
 20
-6.125527803
 10
3.9773817904
 20
-6.1289430538
 10
3.9925191656
 20
-6.132009918
 10
4.0077379513
 20
-6.134732635
 10
4.0230153903
 20
-6.1371121044
 10
4.0383345733
 20
-6.1391505487
 10
4.0536923715
 20
-6.1408520348
 10
4.0690853344
 20
-6.1422193315
 10
4.0845029198
 20
-6.1432541476
 10
4.0999363035
 20
-6.1439578943
 10
4.1153839302
 20
-6.1443316227
 10
4.1308361786
 20
-6.1443756672
 10
4.1462835615
 20
-6.1440897727
 10
4.1617246631
 20
-6.1434732276
 10
4.1771505718
 20
-6.1425247
 10
4.1925509463
 20
-6.1412425884
 10
4.2079227741
 20
-6.1396243385
 10
4.2232623809
 20
-6.1376662489
 10
4.2385536329
 20
-6.1353659738
 10
4.2537760255
 20
-6.1327219249
 10
4.2689236235
 20
-6.1297300641
 10
4.2839824332
 20
-6.1263875092
 10
4.2989224021
 20
-6.1226951574
 10
4.3137345414
 20
-6.1186497359
 10
4.3284085696
 20
-6.1142474753
 10
4.3429164081
 20
-6.1094902779
 10
4.3572486522
 20
-6.1043746682
 10
4.3713955802
 20
-6.098896323
 10
4.3853331592
 20
-6.0930567264
 10
4.3990482196
 20
-6.0868531382
 10
4.4125346148
 20
-6.0802792687
 10
4.420610551
 20
-6.0761031392
  0
LINE
  5
342
100
AcDbEntity
  8
0
100
AcDbLine
 62
250
  6
CONTINUOUS
 10
-0.6631494914
 20
-4.9215818946
 11
-6.6000356357
 21
-1.4936982416
  0
LINE
  5
343
100
AcDbEntity
  8
0
100
AcDbLine
 62
250
  6
CONTINUOUS
 10
-0.522964913
 20
-4.6768614808
 11
-6.4598469641
 21
-1.2489801911
  0
LINE
  5
344
100
AcDbEntity
  8
0
100
AcDbLine
 62
250
  6
CONTINUOUS
 10
3.76897577
 20
-6.5430688729
 11
-0.1696827766
 21
-4.268936791
  0
LINE
  5
345
100
AcDbEntity
  8
0
100
AcDbLine
 62
250
  6
CONTINUOUS
 10
-7.0965069304
 20
-0.2694753381
 11
-11.0351654769
 21
2.0046567436
  0
LINE
  5
346
100
AcDbEntity
  8
0
100
AcDbLine
 62
250
  6
CONTINUOUS
 10
3.909164946
 20
-6.2987261401
 11
-0.0294955731
 21
-4.0245929195
  0
LINE
  5
347
100
AcDbEntity
  8
0
100
AcDbLine
 62
250
  6
CONTINUOUS
 10
-6.9563197269
 20
-0.0251314666
 11
-10.8949802458
 21
2.2490017542
  0
LINE
  5
348
100
AcDbEntity
  8
0
100
AcDbLine
 62
7
  6
CONTINUOUS
 10
-5.497074527
 20
-0.6930859926
 11
0.0597768402
 21
-3.9015423282
  0
LINE
  5
349
100
AcDbEntity
  8
0
100
AcDbLine
 62
7
  6
CONTINUOUS
 10
-10.9937509595
 20
2.4814945754
 11
-7.0550904404
 21
0.2073613547
  0
LINE
  5
34A
100
AcDbEntity
  8
0
100
AcDbLine
 62
7
  6
CONTINUOUS
 10
-0.1282662867
 20
-3.7921000982
 11
3.8103942324
 21
-6.0662333189
  0
LWPOLYLINE
  5
34B
100
AcDbEntity
  8
0
100
AcDbPolyline
 62
250
  6
CONTINUOUS
 90
55
 70
0
 10
-6.4598469576
 20
-1.2489801874
 10
-6.4700799592
 20
-1.2429438416
 10
-6.4803238953
 20
-1.2365604107
 10
-6.4905702558
 20
-1.2298333897
 10
-6.5008138188
 20
-1.2227643716
 10
-6.5110425152
 20
-1.2153595583
 10
-6.5212375499
 20
-1.2076307721
 10
-6.5313901559
 20
-1.1995838003
 10
-6.5414917676
 20
-1.1912246018
 10
-6.5515241564
 20
-1.1825674453
 10
-6.5614777153
 20
-1.1736207736
 10
-6.571345249
 20
-1.1643912498
 10
-6.5811125614
 20
-1.15489215
 10
-6.590768472
 20
-1.1451352457
 10
-6.6003082417
 20
-1.1351262519
 10
-6.6097275222
 20
-1.1248698334
 10
-6.6190184101
 20
-1.1143748993
 10
-6.6281732395
 20
-1.1036504153
 10
-6.6371878854
 20
-1.0927008383
 10
-6.6460563369
 20
-1.081533161
 10
-6.6547693094
 20
-1.0701587788
 10
-6.6633178378
 20
-1.058588849
 10
-6.6716947679
 20
-1.0468329955
 10
-6.6798929011
 20
-1.0349013021
 10
-6.6879035866
 20
-1.0228060413
 10
-6.6957193488
 20
-1.0105587367
 10
-6.7033344628
 20
-0.9981686431
 10
-6.7107431862
 20
-0.9856448642
 10
-6.7179392667
 20
-0.9729979769
 10
-6.7249166096
 20
-0.9602387386
 10
-6.7316698432
 20
-0.9473766029
 10
-6.7381938022
 20
-0.9344211459
 10
-6.7444822194
 20
-0.9213846045
 10
-6.7505284247
 20
-0.9082805575
 10
-6.756327222
 20
-0.8951203788
 10
-6.7618738923
 20
-0.8819149829
 10
-6.7671630346
 20
-0.8686773785
 10
-6.7721893744
 20
-0.8554213203
 10
-6.7769498598
 20
-0.8421555034
 10
-6.7814425185
 20
-0.8288853616
 10
-6.7856634342
 20
-0.8156218189
 10
-6.7896087358
 20
-0.8023763969
 10
-6.7932762057
 20
-0.7891554591
 10
-6.7966632777
 20
-0.7759658592
 10
-6.7997652883
 20
-0.762823308
 10
-6.8025774476
 20
-0.7497473667
 10
-6.8050975645
 20
-0.7367477898
 10
-6.8073232172
 20
-0.7238369324
 10
-6.8092509909
 20
-0.7110377597
 10
-6.8108800197
 20
-0.6983607445
 10
-6.8122097532
 20
-0.6858162781
 10
-6.8132392794
 20
-0.6734263323
 10
-6.8139692571
 20
-0.6612043809
 10
-6.81440099
 20
-0.6491557956
 10
-6.8145357415
 20
-0.6372896765
  0
LWPOLYLINE
  5
34C
100
AcDbEntity
  8
0
100
AcDbPolyline
 62
250
  6
CONTINUOUS
 90
55
 70
0
 10
-6.6000356357
 20
-1.4936982416
 10
-6.6143212813
 20
-1.4852164764
 10
-6.6286020582
 20
-1.4762580637
 10
-6.6428779641
 20
-1.4668230021
 10
-6.6571666987
 20
-1.4569005901
 10
-6.6714505536
 20
-1.4465015241
 10
-6.6856764127
 20
-1.4356578988
 10
-6.6998429654
 20
-1.4243674776
 10
-6.7139515047
 20
-1.4126324868
 10
-6.7279528175
 20
-1.4004917146
 10
-6.7418447088
 20
-1.387944307
 10
-6.7556293479
 20
-1.374991103
 10
-6.7692640675
 20
-1.3616734298
 10
-6.7827439836
 20
-1.3479946369
 10
-6.7960739474
 20
-1.3339513557
 10
-6.8092258935
 20
-1.3195748351
 10
-6.822199521
 20
-1.3048648915
 10
-6.8349950916
 20
-1.2898216859
 10
-6.8475853833
 20
-1.2744769834
 10
-6.8599723397
 20
-1.2588272161
 10
-6.8721539724
 20
-1.2428759261
 10
-6.8840971621
 20
-1.2266655439
 10
-6.8958012754
 20
-1.2101950047
 10
-6.9072668973
 20
-1.1934653452
 10
-6.9184627366
 20
-1.1765221499
 10
-6.9293869519
 20
-1.1593665052
 10
-6.9400413344
 20
-1.1419972955
 10
-6.9504000446
 20
-1.1244568031
 10
-6.9604624577
 20
-1.106744599
 10
-6.9702291472
 20
-1.0888610824
 10
-6.9796760746
 20
-1.0708497806
 10
-6.9888032642
 20
-1.0527085287
 10
-6.9976106409
 20
-1.0344394619
 10
-7.0060740204
 20
-1.0160925602
 10
-7.0141921007
 20
-0.997667945
 10
-7.021966136
 20
-0.979165467
 10
-7.0293757818
 20
-0.960634703
 10
-7.0364189228
 20
-0.9420791402
 10
-7.0430976307
 20
-0.9234952662
 10
-7.0493978486
 20
-0.9049221618
 10
-7.0553193548
 20
-0.8863593641
 10
-7.0608623309
 20
-0.867807313
 10
-7.0660133309
 20
-0.8493064471
 10
-7.070772803
 20
-0.8308506973
 10
-7.0751402636
 20
-0.8124461123
 10
-7.0791008766
 20
-0.7941513126
 10
-7.0826526915
 20
-0.7759651131
 10
-7.0857976329
 20
-0.757888684
 10
-7.0885266887
 20
-0.7399841848
 10
-7.0908372371
 20
-0.722251916
 10
-7.0927318857
 20
-0.704691569
 10
-7.0942094783
 20
-0.6873643967
 10
-7.0952696322
 20
-0.6702908183
 10
-7.0959127302
 20
-0.6534504147
 10
-7.0961387716
 20
-0.6368431855
  0
LWPOLYLINE
  5
34D
100
AcDbEntity
  8
0
100
AcDbPolyline
 62
250
  6
CONTINUOUS
 90
27
 70
0
 10
-11.0351654767
 20
2.0046567431
 10
-11.0456525595
 20
2.0108981125
 10
-11.055808951
 20
2.0173207379
 10
-11.0656254849
 20
2.0239187713
 10
-11.0750931279
 20
2.0306860851
 10
-11.0842035334
 20
2.0376166425
 10
-11.0929489803
 20
2.0447045329
 10
-11.1013217193
 20
2.0519435207
 10
-11.1093139336
 20
2.0593268856
 10
-11.1169182601
 20
2.0668478087
 10
-11.1241277715
 20
2.074499449
 10
-11.1309359704
 20
2.0822749132
 10
-11.1373366914
 20
2.0901671232
 10
-11.1433241224
 20
2.0981689313
 10
-11.1488928463
 20
2.1062731079
 10
-11.1540378426
 20
2.1144723077
 10
-11.1587544556
 20
2.1227591509
 10
-11.1630383844
 20
2.1311261158
 10
-11.1668857227
 20
2.139565527
 10
-11.1702929765
 20
2.1480697475
 10
-11.1732570632
 20
2.1566311031
 10
-11.1757752966
 20
2.1652417762
 10
-11.1778453944
 20
2.1738940005
 10
-11.1794654764
 20
2.1825799502
 10
-11.1806340711
 20
2.1912916635
 10
-11.18135012
 20
2.2000212591
 10
-11.1816143839
 20
2.2093468576
  0
LWPOLYLINE
  5
34E
100
AcDbEntity
  8
0
100
AcDbPolyline
 62
250
  6
CONTINUOUS
 90
44
 70
0
 10
-10.8949802458
 20
2.2490017542
 10
-10.9012774051
 20
2.2527502726
 10
-10.9073665921
 20
2.2566017653
 10
-10.9132478067
 20
2.2605562321
 10
-10.9189262727
 20
2.2646175969
 10
-10.9243967663
 20
2.2687819358
 10
-10.9296436161
 20
2.2730374777
 10
-10.9346659634
 20
2.2773843301
 10
-10.9394646669
 20
2.2818223855
 10
-10.944026631
 20
2.2863395499
 10
-10.9483511911
 20
2.2909360267
 10
-10.9524390119
 20
2.2956116125
 10
-10.9562789915
 20
2.3003536033
 10
-10.9598704524
 20
2.3051621693
 10
-10.9632140723
 20
2.3100371402
 10
-10.9663007815
 20
2.3149653015
 10
-10.9691298924
 20
2.3199468149
 10
-10.9717020927
 20
2.3249815187
 10
-10.9740103769
 20
2.3300557133
 10
-10.9760540218
 20
2.3351694976
 10
-10.9778337506
 20
2.3403227728
 10
-10.9793447275
 20
2.3455015417
 10
-10.9805862221
 20
2.3507058795
 10
-10.9815589649
 20
2.355935711
 10
-10.9822603111
 20
2.3611768141
 10
-10.9826895221
 20
2.3664292087
 10
-10.9828473365
 20
2.3716928747
 10
-10.9827333259
 20
2.3769535297
 10
-10.9823467513
 20
2.3822111751
 10
-10.9816883516
 20
2.3874658094
 10
-10.980759915
 20
2.3927031459
 10
-10.9795607071
 20
2.3979231329
 10
-10.9780914622
 20
2.4031258221
 10
-10.976356171
 20
2.4082970818
 10
-10.9743541046
 20
2.413436835
 10
-10.9720859919
 20
2.4185451585
 10
-10.9695580093
 20
2.4236081514
 10
-10.9667694597
 20
2.4286256732
 10
-10.9637210403
 20
2.4335978642
 10
-10.9604210195
 20
2.4385112449
 10
-10.9568687105
 20
2.4433656657
 10
-10.9530648002
 20
2.4481612763
 10
-10.9490196177
 20
2.4528850459
 10
-10.9473460415
 20
2.4547009574
  0
LWPOLYLINE
  5
34F
100
AcDbEntity
  8
0
100
AcDbPolyline
 62
250
  6
CONTINUOUS
 90
21
 70
0
 10
-0.1696827766
 20
-4.268936791
 10
-0.1752285482
 20
-4.2656170933
 10
-0.1805430793
 20
-4.2621529745
 10
-0.1856152831
 20
-4.2585590879
 10
-0.1904329202
 20
-4.254860233
 10
-0.1949885598
 20
-4.2510622693
 10
-0.1992786103
 20
-4.247151866
 10
-0.2032942738
 20
-4.2431456633
 10
-0.2070276073
 20
-4.2390595864
 10
-0.210475721
 20
-4.2348796272
 10
-0.2136315071
 20
-4.2306237082
 10
-0.2164887112
 20
-4.2263086217
 10
-0.2190451433
 20
-4.2219193479
 10
-0.2212955371
 20
-4.2174749384
 10
-0.2232354296
 20
-4.2129931632
 10
-0.2248632986
 20
-4.2084579267
 10
-0.2261758275
 20
-4.2038889707
 10
-0.2271704343
 20
-4.1993050839
 10
-0.2278462839
 20
-4.194689489
 10
-0.2282019872
 20
-4.1900617481
 10
-0.2282614189
 20
-4.1872877864
  0
LWPOLYLINE
  5
350
100
AcDbEntity
  8
0
100
AcDbPolyline
 62
250
  6
CONTINUOUS
 90
21
 70
0
 10
-0.1693209455
 20
-4.6363009387
 10
-0.1748703732
 20
-4.6329654956
 10
-0.1801840551
 20
-4.6295040071
 10
-0.1852534678
 20
-4.6259220258
 10
-0.1900704799
 20
-4.6222252971
 10
-0.1946273646
 20
-4.6184197508
 10
-0.1989168126
 20
-4.6145114911
 10
-0.2029319435
 20
-4.6105067869
 10
-0.2066663169
 20
-4.6064120621
 10
-0.2101139426
 20
-4.6022338846
 10
-0.2132692906
 20
-4.5979789563
 10
-0.2161272995
 20
-4.5936541025
 10
-0.2186833851
 20
-4.5892662602
 10
-0.2209334473
 20
-4.5848224677
 10
-0.2228738769
 20
-4.580329853
 10
-0.2245015613
 20
-4.5757956225
 10
-0.2258138898
 20
-4.5712270491
 10
-0.2268087573
 20
-4.5666314611
 10
-0.227484568
 20
-4.56201623
 10
-0.2278402378
 20
-4.5573887587
 10
-0.2278996602
 20
-4.5546619528
  0
LINE
  5
351
100
AcDbEntity
  8
0
100
AcDbLine
 62
7
  6
CONTINUOUS
 10
-1.5157769774
 20
-10.7566175796
 11
-1.5121658864
 21
-10.7666051763
  0
LWPOLYLINE
  5
352
100
AcDbEntity
  8
0
100
AcDbPolyline
 62
7
  6
CONTINUOUS
 90
3
 70
0
 10
-6.2043069492
 20
6.6010316166
 10
-6.2075481228
 20
6.6106290738
 10
-6.2105509809
 20
6.6202206011
  0
LINE
  5
353
100
AcDbEntity
  8
0
100
AcDbLine
 62
7
  6
CONTINUOUS
 10
-1.5122675143
 20
-10.7663138358
 11
-1.5089151426
 21
-10.7762810545
  0
LWPOLYLINE
  5
354
100
AcDbEntity
  8
0
100
AcDbPolyline
 62
7
  6
CONTINUOUS
 90
3
 70
0
 10
-0.880798567
 20
-13.2015957113
 10
-0.8777030787
 20
-13.2109278214
 10
-0.8748532385
 20
-13.220209848
  0
LWPOLYLINE
  5
355
100
AcDbEntity
  8
0
100
AcDbPolyline
 62
7
  6
CONTINUOUS
 90
3
 70
0
 10
-6.2075694046
 20
6.610698536
 10
-6.2105815084
 20
6.6203221304
 10
-6.2133434123
 20
6.6299072159
  0
LINE
  5
356
100
AcDbEntity
  8
0
100
AcDbLine
 62
7
  6
CONTINUOUS
 10
-1.5089989104
 20
-10.7760285726
 11
-1.5059115437
 21
-10.7859437979
  0
LINE
  5
357
100
AcDbEntity
  8
0
100
AcDbLine
 62
7
  6
CONTINUOUS
 10
-1.5059706128
 20
-10.7857521104
 11
-1.5031576816
 21
-10.7955723437
  0
LWPOLYLINE
  5
358
100
AcDbEntity
  8
0
100
AcDbPolyline
 62
7
  6
CONTINUOUS
 90
6
 70
0
 10
-6.2133155868
 20
6.6298137665
 10
-6.2158418641
 20
6.6394010093
 10
-6.2181217655
 20
6.6489441904
 10
-6.2201539319
 20
6.6584411019
 10
-6.2219397126
 20
6.6678939571
 10
-6.2234751254
 20
6.6772712465
  0
LWPOLYLINE
  5
359
100
AcDbEntity
  8
0
100
AcDbPolyline
 62
7
  6
CONTINUOUS
 90
7
 70
0
 10
-1.5031970972
 20
-10.7954283605
 10
-1.5006816846
 20
-10.8050465493
 10
-1.4984210437
 20
-10.8146174441
 10
-1.4964196754
 20
-10.8241172694
 10
-1.4946761644
 20
-10.8335493514
 10
-1.4931919171
 20
-10.8429103586
 10
-1.4919756703
 20
-10.8521665305
  0
LINE
  5
35A
100
AcDbEntity
  8
0
100
AcDbLine
 62
7
  6
CONTINUOUS
 10
-2.3038507744
 20
-11.4458802739
 11
-2.306322166
 21
-11.4362965017
  0
LWPOLYLINE
  5
35B
100
AcDbEntity
  8
0
100
AcDbPolyline
 62
7
  6
CONTINUOUS
 90
3
 70
0
 10
-0.8722443906
 20
-13.2294495609
 10
-0.869878257
 20
-13.2386324091
 10
-0.8677531172
 20
-13.2477628377
  0
LWPOLYLINE
  5
35C
100
AcDbEntity
  8
0
100
AcDbPolyline
 62
7
  6
CONTINUOUS
 90
5
 70
0
 10
-2.3085310484
 20
-11.4267774331
 10
-2.3104796852
 20
-11.4173169037
 10
-2.3121657579
 20
-11.4079210442
 10
-2.3135815988
 20
-11.398624922
 10
-2.3147274564
 20
-11.3894267741
  0
LINE
  5
35D
100
AcDbEntity
  8
0
100
AcDbLine
 62
7
  6
CONTINUOUS
 10
-1.3145845735
 20
-15.072640981
 11
-1.312821231
 21
-15.0816322438
  0
LINE
  5
35E
100
AcDbEntity
  8
0
100
AcDbLine
 62
7
  6
CONTINUOUS
 10
-1.3128472987
 20
-15.0814835691
 11
-1.3113421425
 21
-15.0903482221
  0
LWPOLYLINE
  5
35F
100
AcDbEntity
  8
0
100
AcDbPolyline
 62
7
  6
CONTINUOUS
 90
4
 70
0
 10
-2.2171374986
 20
-13.6387791878
 10
-2.2186747317
 20
-13.6296411709
 10
-2.219936117
 20
-13.6206211337
 10
-2.220920443
 20
-13.6117086977
  0
LINE
  5
360
100
AcDbEntity
  8
0
100
AcDbLine
 62
7
  6
CONTINUOUS
 10
-6.2234751254
 20
6.6772712465
 11
-6.2247794216
 21
6.6867277819
  0
LINE
  5
361
100
AcDbEntity
  8
0
100
AcDbLine
 62
7
  6
CONTINUOUS
 10
-3.4919588824
 20
7.3700424764
 11
-3.4929696607
 21
7.3795947661
  0
LWPOLYLINE
  5
362
100
AcDbEntity
  8
0
100
AcDbPolyline
 62
7
  6
CONTINUOUS
 90
4
 70
0
 10
-1.4919729665
 20
-10.8521895009
 10
-1.4910282836
 20
-10.8613192647
 10
-1.4903498125
 20
-10.8703475421
 10
-1.4899448121
 20
-10.8792339413
  0
LINE
  5
363
100
AcDbEntity
  8
0
100
AcDbLine
 62
7
  6
CONTINUOUS
 10
-0.8617190021
 20
-13.2835524458
 11
-0.8608421686
 21
-13.2922542029
  0
LINE
  5
364
100
AcDbEntity
  8
0
100
AcDbLine
 62
7
  6
CONTINUOUS
 10
-3.4929515398
 20
7.3793990424
 11
-3.4937020025
 21
7.3888778416
  0
LWPOLYLINE
  5
365
100
AcDbEntity
  8
0
100
AcDbPolyline
 62
7
  6
CONTINUOUS
 90
3
 70
0
 10
-0.8608315062
 20
-13.2923774109
 10
-0.8602197402
 20
-13.300863827
 10
-0.8598645027
 20
-13.3091997564
  0
LINE
  5
366
100
AcDbEntity
  8
0
100
AcDbLine
 62
7
  6
CONTINUOUS
 10
-2.3156030461
 20
-11.3803283417
 11
-2.3161999214
 21
-11.3713699611
  0
LWPOLYLINE
  5
367
100
AcDbEntity
  8
0
100
AcDbPolyline
 62
7
  6
CONTINUOUS
 90
12
 70
0
 10
-1.308453432
 20
-15.1156005885
 10
-1.3080074407
 20
-15.1237287837
 10
-1.3078194214
 20
-15.1316982604
 10
-1.3078893769
 20
-15.1395090204
 10
-1.3082181882
 20
-15.1471774197
 10
-1.3088049765
 20
-15.1546871035
 10
-1.3096471213
 20
-15.1619890172
 10
-1.310745982
 20
-15.1690795989
 10
-1.3121002383
 20
-15.1759624365
 10
-1.3137032807
 20
-15.1825992202
 10
-1.3155521454
 20
-15.18897851
 10
-1.3176498626
 20
-15.19511179
  0
LINE
  5
368
100
AcDbEntity
  8
0
100
AcDbLine
 62
7
  6
CONTINUOUS
 10
-3.4936886501
 20
7.3886767878
 11
-3.4941752655
 21
7.3980548165
  0
LWPOLYLINE
  5
369
100
AcDbEntity
  8
0
100
AcDbPolyline
 62
7
  6
CONTINUOUS
 90
4
 70
0
 10
-2.2216288916
 20
-13.6029142224
 10
-2.2220564879
 20
-13.5942995288
 10
-2.2221998452
 20
-13.5858749194
 10
-2.2220623646
 20
-13.5776301014
  0
LINE
  5
36A
100
AcDbEntity
  8
0
100
AcDbLine
 62
7
  6
CONTINUOUS
 10
-3.4941698513
 20
7.3978733936
 11
-3.4943891871
 21
7.4069528878
  0
LWPOLYLINE
  5
36B
100
AcDbEntity
  8
0
100
AcDbPolyline
 62
7
  6
CONTINUOUS
 90
10
 70
0
 10
-2.1102661896
 20
5.4539698027
 10
-2.1101132889
 20
5.4447569723
 10
-2.1102411958
 20
5.4356766073
 10
-2.1106468255
 20
5.4267365945
 10
-2.1113272996
 20
5.4180002834
 10
-2.1122840458
 20
5.4094813589
 10
-2.1135156658
 20
5.4011661202
 10
-2.1150150703
 20
5.3930768226
 10
-2.1167834248
 20
5.3852103165
 10
-2.1188196053
 20
5.3775697288
  0
LWPOLYLINE
  5
36C
100
AcDbEntity
  8
0
100
AcDbPolyline
 62
7
  6
CONTINUOUS
 90
3
 70
0
 10
-3.4943904531
 20
7.4070822404
 10
-3.4943479347
 20
7.4159446088
 10
-3.4940473447
 20
7.4246574241
  0
LINE
  5
36D
100
AcDbEntity
  8
0
100
AcDbLine
 62
7
  6
CONTINUOUS
 10
-2.1101132546
 20
5.4447324803
 11
-2.1102420034
 21
5.4356508047
  0
LINE
  5
36E
100
AcDbEntity
  8
0
100
AcDbLine
 62
7
  6
CONTINUOUS
 10
-2.0287022234
 20
7.7873698284
 11
-2.0289249724
 21
7.7780403635
  0
LINE
  5
36F
100
AcDbEntity
  8
0
100
AcDbLine
 62
7
  6
CONTINUOUS
 10
-3.4751255648
 20
-11.7740483226
 11
-3.4746608045
 21
-11.7658683252
  0
LINE
  5
370
100
AcDbEntity
  8
0
100
AcDbLine
 62
7
  6
CONTINUOUS
 10
-1.3453622889
 20
8.4278321437
 11
-1.3460174193
 21
8.4186729801
  0
LINE
  5
371
100
AcDbEntity
  8
0
100
AcDbLine
 62
7
  6
CONTINUOUS
 10
-2.1106485683
 20
5.4267096364
 11
-2.1113298775
 21
5.4179731517
  0
LWPOLYLINE
  5
372
100
AcDbEntity
  8
0
100
AcDbPolyline
 62
7
  6
CONTINUOUS
 90
7
 70
0
 10
-2.0294244419
 20
7.7688927891
 10
-2.0302031077
 20
7.7599379095
 10
-2.0312585086
 20
7.7511649133
 10
-2.0325817056
 20
7.7426068938
 10
-2.0341724193
 20
7.7342652817
 10
-2.0360309645
 20
7.7261386284
 10
-2.0381493149
 20
7.7182556974
  0
LWPOLYLINE
  5
373
100
AcDbEntity
  8
0
100
AcDbPolyline
 62
7
  6
CONTINUOUS
 90
3
 70
0
 10
-3.4739195949
 20
-11.7579130276
 10
-3.4729003752
 20
-11.750193716
 10
-3.4716047515
 20
-11.7426991329
  0
LWPOLYLINE
  5
374
100
AcDbEntity
  8
0
100
AcDbPolyline
 62
7
  6
CONTINUOUS
 90
3
 70
0
 10
-1.3469509152
 20
8.4096927357
 10
-1.3481567055
 20
8.4009148911
 10
-1.3496356476
 20
8.3923359035
  0
LINE
  5
375
100
AcDbEntity
  8
0
100
AcDbLine
 62
7
  6
CONTINUOUS
 10
-2.1122873071
 20
5.4094556216
 11
-2.1135195111
 21
5.4011427587
  0
LINE
  5
376
100
AcDbEntity
  8
0
100
AcDbLine
 62
7
  6
CONTINUOUS
 10
-2.0312569533
 20
7.7511773164
 11
-2.0325797064
 21
7.7426184776
  0
LINE
  5
377
100
AcDbEntity
  8
0
100
AcDbLine
 62
7
  6
CONTINUOUS
 10
-0.8833708716
 20
5.8712701146
 11
-0.8850523148
 21
5.8631589782
  0
LINE
  5
378
100
AcDbEntity
  8
0
100
AcDbLine
 62
7
  6
CONTINUOUS
 10
-1.5042501935
 20
3.9524464621
 11
-1.5060368806
 21
3.9449883877
  0
LINE
  5
379
100
AcDbEntity
  8
0
100
AcDbLine
 62
7
  6
CONTINUOUS
 10
-0.8850553059
 20
5.8631457191
 11
-0.8870066813
 21
5.8552615585
  0
LWPOLYLINE
  5
37A
100
AcDbEntity
  8
0
100
AcDbPolyline
 62
7
  6
CONTINUOUS
 90
4
 70
0
 10
-1.5060274323
 20
3.9450296338
 10
-1.5080700815
 20
3.9377530253
 10
-1.5103526448
 20
3.9307263173
 10
-1.5128709559
 20
3.9239615237
  0
LWPOLYLINE
  5
37B
100
AcDbEntity
  8
0
100
AcDbPolyline
 62
7
  6
CONTINUOUS
 90
4
 70
0
 10
-0.8870032122
 20
5.8552743908
 10
-0.8892163773
 20
5.8476363879
 10
-0.8916938039
 20
5.8402416733
 10
-0.8944335519
 20
5.8330935149
  0
LWPOLYLINE
  5
37C
100
AcDbEntity
  8
0
100
AcDbPolyline
 62
7
  6
CONTINUOUS
 90
9
 70
0
 10
-6.2003146509
 20
-8.6328434039
 10
-6.1981210839
 20
-8.6256739121
 10
-6.1956915784
 20
-8.6188909819
 10
-6.1929924762
 20
-8.6123638227
 10
-6.1900322926
 20
-8.6061237021
 10
-6.1868076917
 20
-8.6001743577
 10
-6.1833220902
 20
-8.594512101
 10
-6.1795941507
 20
-8.589157072
 10
-6.175623925
 20
-8.5841114686
  0
LINE
  5
37D
100
AcDbEntity
  8
0
100
AcDbLine
 62
7
  6
CONTINUOUS
 10
-2.1188242609
 20
5.3775534313
 11
-2.1211178791
 21
5.370172427
  0
LWPOLYLINE
  5
37E
100
AcDbEntity
  8
0
100
AcDbPolyline
 62
7
  6
CONTINUOUS
 90
8
 70
0
 10
-6.1984097793
 20
-8.6265560547
 10
-6.1962892615
 20
-8.6204595065
 10
-6.193952942
 20
-8.6145741999
 10
-6.1913950416
 20
-8.6088959307
 10
-6.1886213849
 20
-8.6034289309
 10
-6.1856492382
 20
-8.5982063046
 10
-6.1824799002
 20
-8.5932375048
 10
-6.1791121406
 20
-8.5885131201
  0
LWPOLYLINE
  5
37F
100
AcDbEntity
  8
0
100
AcDbPolyline
 62
7
  6
CONTINUOUS
 90
4
 70
0
 10
-1.5128718031
 20
3.9239662968
 10
-1.5156375649
 20
3.9174349277
 10
-1.5186374344
 20
3.9111705051
 10
-1.5218710848
 20
3.9051805229
  0
LWPOLYLINE
  5
380
100
AcDbEntity
  8
0
100
AcDbPolyline
 62
7
  6
CONTINUOUS
 90
4
 70
0
 10
-0.8944367439
 20
5.8330854413
 10
-0.8974255187
 20
5.8262153698
 10
-0.9006617852
 20
5.8196275638
 10
-0.9041475303
 20
5.8133156395
  0
LINE
  5
381
100
AcDbEntity
  8
0
100
AcDbLine
 62
7
  6
CONTINUOUS
 10
-1.521877323
 20
3.9051735371
 11
-1.5253672268
 21
3.8994153439
  0
LWPOLYLINE
  5
382
100
AcDbEntity
  8
0
100
AcDbPolyline
 62
7
  6
CONTINUOUS
 90
3
 70
0
 10
-1.525338856
 20
3.8994574799
 10
-1.5290326229
 20
3.8940074999
 10
-1.5329535605
 20
3.8888273179
  0
LINE
  5
383
100
AcDbEntity
  8
0
100
AcDbLine
 62
7
  6
CONTINUOUS
 10
-5.5070135278
 20
-0.2905132203
 11
-5.9252879977
 21
-0.5320834197
  0
LINE
  5
384
100
AcDbEntity
  8
0
100
AcDbLine
 62
250
  6
CONTINUOUS
 10
-6.9563197269
 20
-0.0251314666
 11
-5.9897897577
 21
0.5329298911
  0
LINE
  5
385
100
AcDbEntity
  8
0
100
AcDbLine
 62
250
  6
CONTINUOUS
 10
-6.8149037555
 20
-0.2700711137
 11
-5.8506144553
 21
0.2866965119
  0
LINE
  5
386
100
AcDbEntity
  8
0
100
AcDbLine
 62
250
  6
CONTINUOUS
 10
-5.8506144553
 20
-0.0807368748
 11
-6.8145357458
 21
-0.6372896789
  0
LINE
  5
387
100
AcDbEntity
  8
0
100
AcDbLine
 62
250
  6
CONTINUOUS
 10
-5.497074527
 20
-0.6930859926
 11
-6.4598469641
 21
-1.2489801911
  0
LINE
  5
388
100
AcDbEntity
  8
0
100
AcDbLine
 62
250
  6
CONTINUOUS
 10
-6.188234606
 20
0.6475094594
 11
-6.8149037555
 21
0.2981992716
  0
LINE
  5
389
100
AcDbEntity
  8
0
100
AcDbLine
 62
7
  6
CONTINUOUS
 10
-6.1278985265
 20
0.6126721633
 11
-6.8577098764
 21
0.2058697224
  0
LWPOLYLINE
  5
38A
100
AcDbEntity
  8
0
100
AcDbPolyline
 62
250
  6
CONTINUOUS
 90
40
 70
0
 10
-7.0965069304
 20
0.2990224463
 10
-7.0907346012
 20
0.2958335601
 10
-7.0847400868
 20
0.2927620552
 10
-7.0785350053
 20
0.289822278
 10
-7.0721343066
 20
0.287037463
 10
-7.065548511
 20
0.2844116859
 10
-7.0587828324
 20
0.2819306792
 10
-7.0518507633
 20
0.2796083725
 10
-7.0447663992
 20
0.2774571387
 10
-7.0375352552
 20
0.2754614538
 10
-7.0301717464
 20
0.2736350212
 10
-7.0226909561
 20
0.2719895354
 10
-7.0150986822
 20
0.2705078936
 10
-7.0074098796
 20
0.2692035531
 10
-6.9996404535
 20
0.2680876775
 10
-6.9917966684
 20
0.2671414332
 10
-6.9838934113
 20
0.2663778809
 10
-6.9759471807
 20
0.2658077747
 10
-6.9679652491
 20
0.2654106199
 10
-6.9599614943
 20
0.2651987681
 10
-6.9519526554
 20
0.2651826478
 10
-6.9439480942
 20
0.2653404136
 10
-6.9359593214
 20
0.2656832464
 10
-6.9280027408
 20
0.2662212891
 10
-6.920091552
 20
0.2669318267
 10
-6.9122331864
 20
0.2678243659
 10
-6.9044427736
 20
0.2689087758
 10
-6.8967396545
 20
0.2701619097
 10
-6.8891255051
 20
0.2715912644
 10
-6.8816127725
 20
0.2732064879
 10
-6.8742291565
 20
0.2749840819
 10
-6.866969782
 20
0.2769295493
 10
-6.8598426575
 20
0.2790525482
 10
-6.8528846791
 20
0.2813288034
 10
-6.8460855119
 20
0.2837620675
 10
-6.8394472649
 20
0.2863624984
 10
-6.833014028
 20
0.2891045777
 10
-6.826791979
 20
0.2919802009
 10
-6.8207570912
 20
0.2950081403
 10
-6.8149037555
 20
0.2981992716
  0
LWPOLYLINE
  5
38B
100
AcDbEntity
  8
0
100
AcDbPolyline
 62
250
  6
CONTINUOUS
 90
40
 70
0
 10
-7.0961387317
 20
0.666808104
 10
-7.0903624668
 20
0.6636036338
 10
-7.0843686227
 20
0.6605348626
 10
-7.0781668137
 20
0.6576067127
 10
-7.0717669876
 20
0.654823881
 10
-7.06517941
 20
0.6521908312
 10
-7.0584146477
 20
0.649711787
 10
-7.0514835515
 20
0.6473907247
 10
-7.0443972392
 20
0.6452313674
 10
-7.0371670774
 20
0.6432371788
 10
-7.0298046636
 20
0.6414113576
 10
-7.0223218074
 20
0.6397568326
 10
-7.0147305115
 20
0.6382762576
 10
-7.0070429527
 20
0.6369720075
 10
-6.999271462
 20
0.6358461745
 10
-6.9914285051
 20
0.6349005643
 10
-6.9835266626
 20
0.6341366938
 10
-6.9755786091
 20
0.6335557883
 10
-6.9675970937
 20
0.6331587795
 10
-6.9595949191
 20
0.6329463042
 10
-6.9515849208
 20
0.6329187033
 10
-6.9435799474
 20
0.633076021
 10
-6.9355928389
 20
0.6334180051
 10
-6.9276364072
 20
0.6339441069
 10
-6.9197234144
 20
0.6346534826
 10
-6.9118665534
 20
0.6355449942
 10
-6.9040784269
 20
0.6366172118
 10
-6.8963715272
 20
0.6378684156
 10
-6.8887582165
 20
0.6392965984
 10
-6.8812507069
 20
0.6408994696
 10
-6.8738610405
 20
0.642674458
 10
-6.8666010708
 20
0.6446187164
 10
-6.859482443
 20
0.6467291262
 10
-6.8525165755
 20
0.6490023023
 10
-6.8457146419
 20
0.6514345984
 10
-6.8390875528
 20
0.6540221129
 10
-6.8326459381
 20
0.6567606955
 10
-6.8264001306
 20
0.6596459534
 10
-6.8203601486
 20
0.6626732584
 10
-6.8145356806
 20
0.6658377548
  0
LINE
  5
38C
100
AcDbEntity
  8
0
100
AcDbLine
 62
250
  6
CONTINUOUS
 10
-11.0351654769
 20
2.5731545282
 11
-7.0965069304
 21
0.2990224463
  0
LINE
  5
38D
100
AcDbEntity
  8
0
100
AcDbLine
 62
250
  6
CONTINUOUS
 10
-0.1696827766
 20
-3.7004390066
 11
3.76897577
 21
-5.9745710883
  0
LINE
  5
38E
100
AcDbEntity
  8
0
100
AcDbLine
 62
7
  6
CONTINUOUS
 10
-5.5070135278
 20
-0.2905132203
 11
-0.2280111953
 21
-3.3385430056
  0
LINE
  5
38F
100
AcDbEntity
  8
0
100
AcDbLine
 62
7
  6
CONTINUOUS
 10
-6.5586197467
 20
0.8613651976
 11
-0.6217336024
 21
-2.5665184554
  0
LINE
  5
390
100
AcDbEntity
  8
0
100
AcDbLine
 62
250
  6
CONTINUOUS
 10
-6.6000356357
 20
0.9534023567
 11
-0.6631494914
 21
-2.4744812963
  0
LWPOLYLINE
  5
391
100
AcDbEntity
  8
0
100
AcDbPolyline
 62
7
  6
CONTINUOUS
 90
61
 70
0
 10
-0.6217319554
 20
-2.5665194556
 10
-0.6170711464
 20
-2.5692470101
 10
-0.6080723158
 20
-2.574717593
 10
-0.5989154879
 20
-2.5805576916
 10
-0.5896101929
 20
-2.5867723627
 10
-0.5801724532
 20
-2.5933616492
 10
-0.5706245283
 20
-2.6003199226
 10
-0.560978976
 20
-2.6076473774
 10
-0.5512484761
 20
-2.615343504
 10
-0.5414549449
 20
-2.6233994196
 10
-0.5316119297
 20
-2.6318118569
 10
-0.5217317559
 20
-2.6405779933
 10
-0.5118337289
 20
-2.6496878189
 10
-0.501931215
 20
-2.6591356481
 10
-0.4920362635
 20
-2.6689164846
 10
-0.4821654339
 20
-2.6790200345
 10
-0.4723313447
 20
-2.6894390378
 10
-0.4625461612
 20
-2.7001661575
 10
-0.4528250365
 20
-2.7111899883
 10
-0.4431797422
 20
-2.7225019834
 10
-0.4336223331
 20
-2.7340926938
 10
-0.4241676528
 20
-2.7459484578
 10
-0.4148265869
 20
-2.7580595302
 10
-0.4056107897
 20
-2.7704145551
 10
-0.3965354214
 20
-2.782996519
 10
-0.3876109791
 20
-2.7957936262
 10
-0.3788477204
 20
-2.8087937081
 10
-0.3702594889
 20
-2.8219783301
 10
-0.3618557561
 20
-2.8353345026
 10
-0.3536456731
 20
-2.848848936
 10
-0.3456416006
 20
-2.8625020419
 10
-0.3378518049
 20
-2.8762799124
 10
-0.3302841845
 20
-2.8901683896
 10
-0.3229495084
 20
-2.9041469176
 10
-0.3158546869
 20
-2.9182009084
 10
-0.3090062085
 20
-2.9323156294
 10
-0.3024131096
 20
-2.9464697992
 10
-0.296080792
 20
-2.9606484124
 10
-0.2900141976
 20
-2.9748364473
 10
-0.2842204729
 20
-2.989012195
 10
-0.2787036279
 20
-3.0031598361
 10
-0.2734666493
 20
-3.0172650294
 10
-0.2685139442
 20
-3.0313080153
 10
-0.2638476845
 20
-3.0452735698
 10
-0.2594693936
 20
-3.0591471709
 10
-0.2553813664
 20
-3.0729099318
 10
-0.2515838987
 20
-3.0865475949
 10
-0.2480769982
 20
-3.1000455221
 10
-0.2448613023
 20
-3.1133841408
 10
-0.2419351185
 20
-3.1265505851
 10
-0.2392967589
 20
-3.1395302288
 10
-0.236945317
 20
-3.1523008691
 10
-0.2348770682
 20
-3.1648504544
 10
-0.2330881083
 20
-3.1771654827
 10
-0.2315752451
 20
-3.1892218839
 10
-0.2303325408
 20
-3.2010084896
 10
-0.2293535505
 20
-3.2125145081
 10
-0.2286320457
 20
-3.2237172496
 10
-0.2281599251
 20
-3.234602598
 10
-0.2279280066
 20
-3.2451650109
 10
-0.2278996477
 20
-3.2509798732
  0
LWPOLYLINE
  5
392
100
AcDbEntity
  8
0
100
AcDbPolyline
 62
250
  6
CONTINUOUS
 90
55
 70
0
 10
-0.6631494914
 20
-2.4744812963
 10
-0.6488650613
 20
-2.4829637631
 10
-0.6345879947
 20
-2.4919243179
 10
-0.6203182896
 20
-2.5013629596
 10
-0.6060382414
 20
-2.5112903868
 10
-0.5917655459
 20
-2.5216958959
 10
-0.5775532985
 20
-2.5325473802
 10
-0.563402809
 20
-2.543847076
 10
-0.5493127499
 20
-2.555592737
 10
-0.5353322591
 20
-2.5677455315
 10
-0.5214635182
 20
-2.5803063059
 10
-0.5077043198
 20
-2.5932741991
 10
-0.4940972169
 20
-2.606607818
 10
-0.4806470593
 20
-2.6203037932
 10
-0.4673489645
 20
-2.6343654752
 10
-0.4542308863
 20
-2.6487615508
 10
-0.4412930894
 20
-2.6634921825
 10
-0.42853527
 20
-2.6785571854
 10
-0.4159845291
 20
-2.693924724
 10
-0.4036388914
 20
-2.7095983482
 10
-0.3915002876
 20
-2.7255744826
 10
-0.379601678
 20
-2.7418106048
 10
-0.3679436553
 20
-2.7583077562
 10
-0.3565255785
 20
-2.7750648677
 10
-0.3453785596
 20
-2.7920362513
 10
-0.3345043904
 20
-2.8092207921
 10
-0.3239012288
 20
-2.8266195762
 10
-0.3135947381
 20
-2.8441902195
 10
-0.303585496
 20
-2.8619331239
 10
-0.2938728735
 20
-2.8798478581
 10
-0.2844807269
 20
-2.8978907898
 10
-0.2754089908
 20
-2.91606406
 10
-0.2666576799
 20
-2.9343654983
 10
-0.2582507752
 20
-2.952745008
 10
-0.2501895339
 20
-2.9712024414
 10
-0.2424726509
 20
-2.9897379184
 10
-0.23512027
 20
-3.0083017465
 10
-0.2281344543
 20
-3.0268904082
 10
-0.2215130971
 20
-3.0455073959
 10
-0.2152700928
 20
-3.0641135348
 10
-0.2094056256
 20
-3.0827092661
 10
-0.2039194716
 20
-3.1012941257
 10
-0.1988249184
 20
-3.1198275833
 10
-0.1941215036
 20
-3.1383157
 10
-0.1898096544
 20
-3.1567523943
 10
-0.1859040014
 20
-3.1750789273
 10
-0.1824064774
 20
-3.1932964736
 10
-0.1793151238
 20
-3.2114038437
 10
-0.1766387453
 20
-3.229338758
 10
-0.1743799533
 20
-3.2471009102
 10
-0.1725361222
 20
-3.2646905984
 10
-0.1711082131
 20
-3.2820464573
 10
-0.1700965488
 20
-3.2991480329
 10
-0.1695008065
 20
-3.316015779
 10
-0.1693209855
 20
-3.3326496953
  0
LWPOLYLINE
  5
393
100
AcDbEntity
  8
0
100
AcDbPolyline
 62
250
  6
CONTINUOUS
 90
21
 70
0
 10
-0.1693209855
 20
-3.3326496953
 10
-0.1748704084
 20
-3.3293148513
 10
-0.1801840855
 20
-3.3258547977
 10
-0.1852534934
 20
-3.3222750844
 10
-0.1900705007
 20
-3.3185814535
 10
-0.1946273807
 20
-3.3147798297
 10
-0.1989168241
 20
-3.3108763109
 10
-0.2029319504
 20
-3.3068771585
 10
-0.2066663191
 20
-3.3027887872
 10
-0.2101139404
 20
-3.2986177549
 10
-0.213269284
 20
-3.2943707522
 10
-0.2161272887
 20
-3.2900545913
 10
-0.2186833701
 20
-3.2856761955
 10
-0.2209334282
 20
-3.281242588
 10
-0.2228738539
 20
-3.2767608803
 10
-0.2245015346
 20
-3.2722382613
 10
-0.2258138594
 20
-3.2676819855
 10
-0.2268087235
 20
-3.2630993611
 10
-0.2274845309
 20
-3.258497739
 10
-0.2278401976
 20
-3.2538845003
 10
-0.2278996219
 20
-3.250981681
  0
LWPOLYLINE
  5
394
100
AcDbEntity
  8
0
100
AcDbPolyline
 62
250
  6
CONTINUOUS
 90
21
 70
0
 10
-0.1696827766
 20
-3.7004390066
 10
-0.1752285441
 20
-3.6970929659
 10
-0.1805430714
 20
-3.6936347724
 10
-0.1856152718
 20
-3.6900631894
 10
-0.1904329061
 20
-3.6863706808
 10
-0.1949885433
 20
-3.6825635359
 10
-0.1992785919
 20
-3.6786611063
 10
-0.2032942541
 20
-3.6746623325
 10
-0.2070275868
 20
-3.6705675663
 10
-0.2104757002
 20
-3.6663971846
 10
-0.2136314865
 20
-3.662149911
 10
-0.2164886913
 20
-3.6578263712
 10
-0.2190451245
 20
-3.6534482797
 10
-0.2212955199
 20
-3.649013855
 10
-0.2232354142
 20
-3.6445236938
 10
-0.2248632855
 20
-3.6400011254
 10
-0.226175817
 20
-3.6354435997
 10
-0.2271704265
 20
-3.6308513796
 10
-0.227846279
 20
-3.6262496407
 10
-0.2282019853
 20
-3.6216348465
 10
-0.2282614205
 20
-3.6187810347
  0
LWPOLYLINE
  5
395
100
AcDbEntity
  8
0
100
AcDbPolyline
 62
7
  6
CONTINUOUS
 90
4
 70
0
 10
-6.1541134561
 20
6.4977798737
 10
-6.1598039177
 20
6.506964926
 10
-6.1651235963
 20
6.5159595687
 10
-6.1702573688
 20
6.5250594138
  0
LWPOLYLINE
  5
396
100
AcDbEntity
  8
0
100
AcDbPolyline
 62
7
  6
CONTINUOUS
 90
4
 70
0
 10
-6.1596623958
 20
6.5067312232
 10
-6.1650486668
 20
6.5158371383
 10
-6.1702673246
 20
6.5250849857
 10
-6.1752801542
 20
6.5344071852
  0
LINE
  5
397
100
AcDbEntity
  8
0
100
AcDbLine
 62
7
  6
CONTINUOUS
 10
-6.175207139
 20
6.5342679312
 11
-6.1800789542
 21
6.5437931813
  0
LINE
  5
398
100
AcDbEntity
  8
0
100
AcDbLine
 62
7
  6
CONTINUOUS
 10
-6.1799818623
 20
6.5436012758
 11
-6.1846719106
 21
6.5532535381
  0
LINE
  5
399
100
AcDbEntity
  8
0
100
AcDbLine
 62
7
  6
CONTINUOUS
 10
-6.1845725659
 20
6.5530433024
 11
-6.1890453927
 21
6.5627523526
  0
LINE
  5
39A
100
AcDbEntity
  8
0
100
AcDbLine
 62
7
  6
CONTINUOUS
 10
-6.1889542627
 20
6.5625490305
 11
-6.1931985084
 21
6.5722873135
  0
LWPOLYLINE
  5
39B
100
AcDbEntity
  8
0
100
AcDbPolyline
 62
7
  6
CONTINUOUS
 90
4
 70
0
 10
-6.1931268931
 20
6.5721223306
 10
-6.1970905005
 20
6.5817593411
 10
-6.2008202543
 20
6.5914034813
 10
-6.2043117628
 20
6.6010474401
  0
LINE
  5
39C
100
AcDbEntity
  8
0
100
AcDbLine
 62
7
  6
CONTINUOUS
 10
-0.8677531172
 20
-13.2477628377
 11
-0.8658428206
 21
-13.2569884549
  0
LWPOLYLINE
  5
39D
100
AcDbEntity
  8
0
100
AcDbPolyline
 62
7
  6
CONTINUOUS
 90
3
 70
0
 10
-3.4874619686
 20
7.3415773554
 10
-3.4892109002
 20
7.3511148416
 10
-3.4907103543
 20
7.3606047507
  0
LINE
  5
39E
100
AcDbEntity
  8
0
100
AcDbLine
 62
7
  6
CONTINUOUS
 10
-0.8658706393
 20
-13.2568363686
 11
-0.8642061098
 21
-13.2660123483
  0
LINE
  5
39F
100
AcDbEntity
  8
0
100
AcDbLine
 62
7
  6
CONTINUOUS
 10
-0.8642376394
 20
-13.2658250733
 11
-0.8628261977
 21
-13.2749234286
  0
LWPOLYLINE
  5
3A0
100
AcDbEntity
  8
0
100
AcDbPolyline
 62
7
  6
CONTINUOUS
 90
4
 70
0
 10
-1.3113645439
 20
-15.090205036
 10
-1.3101396713
 20
-15.0987913536
 10
-1.3091693036
 20
-15.1072565398
 10
-1.308453432
 20
-15.1156005885
  0
LINE
  5
3A1
100
AcDbEntity
  8
0
100
AcDbLine
 62
7
  6
CONTINUOUS
 10
-3.4907103543
 20
7.3606047507
 11
-3.4919759753
 21
7.3702014862
  0
LINE
  5
3A2
100
AcDbEntity
  8
0
100
AcDbLine
 62
7
  6
CONTINUOUS
 10
-0.8628536009
 20
-13.2747311849
 11
-0.8617005897
 21
-13.2837256642
  0
LINE
  5
3A3
100
AcDbEntity
  8
0
100
AcDbLine
 62
7
  6
CONTINUOUS
 10
-1.3472965191
 20
8.4858844167
 11
-1.3462816545
 21
8.4759617505
  0
LINE
  5
3A4
100
AcDbEntity
  8
0
100
AcDbLine
 62
7
  6
CONTINUOUS
 10
-1.5003797649
 20
4.0369780764
 11
-1.4995910475
 21
4.0277083213
  0
LWPOLYLINE
  5
3A5
100
AcDbEntity
  8
0
100
AcDbPolyline
 62
7
  6
CONTINUOUS
 90
4
 70
0
 10
-1.4996023683
 20
4.0278663835
 10
-1.4990840292
 20
4.0188885816
 10
-1.4988225027
 20
4.0100301332
 10
-1.4988177871
 20
4.0012910394
  0
LINE
  5
3A6
100
AcDbEntity
  8
0
100
AcDbLine
 62
7
  6
CONTINUOUS
 10
-1.3455378012
 20
8.4661053192
 11
-1.3450731319
 21
8.4563596813
  0
LWPOLYLINE
  5
3A7
100
AcDbEntity
  8
0
100
AcDbPolyline
 62
7
  6
CONTINUOUS
 90
5
 70
0
 10
-2.0290948194
 20
7.8063849525
 10
-2.0287581693
 20
7.7968354464
 10
-2.0287021249
 20
7.7873893519
 10
-2.0289242957
 20
7.7780585123
 10
-2.0294232707
 20
7.768909366
  0
LWPOLYLINE
  5
3A8
100
AcDbEntity
  8
0
100
AcDbPolyline
 62
250
  6
CONTINUOUS
 90
21
 70
0
 10
-0.1696827766
 20
-3.7004390066
 10
-0.1695731833
 20
-3.7069178378
 10
-0.1692366892
 20
-3.7132553423
 10
-0.1686738341
 20
-3.7194413436
 10
-0.1678855209
 20
-3.7254659105
 10
-0.1668730151
 20
-3.7313193672
 10
-0.165637943
 20
-3.7369923096
 10
-0.1641822885
 20
-3.7424756275
 10
-0.1625083885
 20
-3.747760518
 10
-0.160618931
 20
-3.7528384948
 10
-0.1585169501
 20
-3.7577014047
 10
-0.156205821
 20
-3.7623414394
 10
-0.1536892555
 20
-3.7667511475
 10
-0.1509712946
 20
-3.7709234487
 10
-0.1480563028
 20
-3.774851644
 10
-0.1449489615
 20
-3.7785294258
 10
-0.1416542603
 20
-3.7819508894
 10
-0.1381774899
 20
-3.7851105414
 10
-0.1345242342
 20
-3.788003308
 10
-0.1307003602
 20
-3.7906245452
 10
-0.1282662867
 20
-3.7921000982
  0
LWPOLYLINE
  5
3A9
100
AcDbEntity
  8
0
100
AcDbPolyline
 62
7
  6
CONTINUOUS
 90
3
 70
0
 10
-1.4899436469
 20
-10.8792722604
 10
-1.4898143653
 20
-10.8880016117
 10
-1.4899591129
 20
-10.8965780167
  0
LWPOLYLINE
  5
3AA
100
AcDbEntity
  8
0
100
AcDbPolyline
 62
250
  6
CONTINUOUS
 90
21
 70
0
 10
-0.6631494914
 20
-2.4744812963
 10
-0.663052639
 20
-2.480976961
 10
-0.6627282274
 20
-2.4873314744
 10
-0.6621767792
 20
-2.4935346046
 10
-0.6613991823
 20
-2.4995763634
 10
-0.6603966887
 20
-2.5054470223
 10
-0.6591709127
 20
-2.5111371285
 10
-0.6577238281
 20
-2.5166375198
 10
-0.6560577649
 20
-2.5219393395
 10
-0.6541754059
 20
-2.5270340506
 10
-0.652079782
 20
-2.5319134498
 10
-0.6497742677
 20
-2.5365696802
 10
-0.6472625752
 20
-2.5409952444
 10
-0.6445487489
 20
-2.5451830164
 10
-0.6416371586
 20
-2.5491262531
 10
-0.6385324925
 20
-2.5528186052
 10
-0.6352397498
 20
-2.5562541272
 10
-0.6317642325
 20
-2.5594272874
 10
-0.6281115367
 20
-2.5623329763
 10
-0.6242875441
 20
-2.5649665153
 10
-0.6217336024
 20
-2.5665184554
  0
LINE
  5
3AB
100
AcDbEntity
  8
0
100
AcDbLine
 62
7
  6
CONTINUOUS
 10
-0.8598645027
 20
-13.3091997564
 11
-0.8597665165
 21
-13.3176077524
  0
LINE
  5
3AC
100
AcDbEntity
  8
0
100
AcDbLine
 62
7
  6
CONTINUOUS
 10
-0.2282614189
 20
-4.1872877864
 11
-0.2278996213
 21
-4.5546597885
  0
LINE
  5
3AD
100
AcDbEntity
  8
0
100
AcDbLine
 62
250
  6
CONTINUOUS
 10
-0.1696827766
 20
-4.268936791
 11
-0.1693209855
 21
-4.6363009618
  0
LINE
  5
3AE
100
AcDbEntity
  8
0
100
AcDbLine
 62
7
  6
CONTINUOUS
 10
-0.2278996219
 20
-3.250981681
 11
-0.2282614189
 21
-3.6187782974
  0
LINE
  5
3AF
100
AcDbEntity
  8
0
100
AcDbLine
 62
250
  6
CONTINUOUS
 10
-0.1693209855
 20
-3.3326496953
 11
-0.1696827766
 21
-3.7004390066
  0
LINE
  5
3B0
100
AcDbEntity
  8
0
100
AcDbLine
 62
7
  6
CONTINUOUS
 10
-0.8789990303
 20
5.9241581667
 11
-0.8790409963
 21
5.9149320815
  0
LWPOLYLINE
  5
3B1
100
AcDbEntity
  8
0
100
AcDbPolyline
 62
7
  6
CONTINUOUS
 90
28
 70
0
 10
-0.2278996602
 20
-4.5546619528
 10
-0.2279572465
 20
-4.5625346555
 10
-0.2282342602
 20
-4.5725348849
 10
-0.2287329104
 20
-4.5822214995
 10
-0.2294445291
 20
-4.5915772403
 10
-0.2303601206
 20
-4.6005957306
 10
-0.2314712052
 20
-4.6092767111
 10
-0.2327678727
 20
-4.6176094642
 10
-0.234238641
 20
-4.6255806843
 10
-0.2358715224
 20
-4.6331808763
 10
-0.237653488
 20
-4.6404000296
 10
-0.2395692895
 20
-4.6472251686
 10
-0.2416000427
 20
-4.6536386483
 10
-0.2437274902
 20
-4.6596320382
 10
-0.2459320275
 20
-4.6651983761
 10
-0.2481874308
 20
-4.6703216115
 10
-0.2504687539
 20
-4.6749966281
 10
-0.2527538511
 20
-4.6792288641
 10
-0.2550164647
 20
-4.6830206022
 10
-0.2572267501
 20
-4.6863735565
 10
-0.2593656171
 20
-4.6893097726
 10
-0.2614248825
 20
-4.6918650871
 10
-0.2633758954
 20
-4.6940491652
 10
-0.2652139949
 20
-4.6959011165
 10
-0.2669812002
 20
-4.6974971396
 10
-0.2686978706
 20
-4.6988773533
 10
-0.2703549741
 20
-4.7000552196
 10
-0.2717188251
 20
-4.7009161969
  0
LINE
  5
3B2
100
AcDbEntity
  8
0
100
AcDbLine
 62
7
  6
CONTINUOUS
 10
-1.3448906321
 20
8.4467169873
 11
-1.3449872842
 21
8.4371851029
  0
LWPOLYLINE
  5
3B3
100
AcDbEntity
  8
0
100
AcDbPolyline
 62
250
  6
CONTINUOUS
 90
55
 70
0
 10
-0.1693209855
 20
-4.6363009618
 10
-0.1695009603
 20
-4.6526790499
 10
-0.1700970736
 20
-4.6688089611
 10
-0.1711093263
 20
-4.684690696
 10
-0.1725381191
 20
-4.7003444769
 10
-0.1743830512
 20
-4.7157500815
 10
-0.1766429278
 20
-4.7308468467
 10
-0.1793203577
 20
-4.7456317554
 10
-0.1824127464
 20
-4.7601078331
 10
-0.1859111058
 20
-4.7742234885
 10
-0.1898172874
 20
-4.7879751315
 10
-0.1941294656
 20
-4.8013663672
 10
-0.1988331472
 20
-4.8143564032
 10
-0.203927887
 20
-4.8269398999
 10
-0.2094141654
 20
-4.8391222173
 10
-0.2152788859
 20
-4.8508786167
 10
-0.221522367
 20
-4.8622086119
 10
-0.22814433
 20
-4.8731127122
 10
-0.2351307877
 20
-4.8835676758
 10
-0.2424838595
 20
-4.8935745475
 10
-0.2502014697
 20
-4.9031323077
 10
-0.2582633444
 20
-4.9122146212
 10
-0.2666707209
 20
-4.9208200783
 10
-0.2754224099
 20
-4.9289501165
 10
-0.2844945029
 20
-4.9365826754
 10
-0.2938869795
 20
-4.9437156951
 10
-0.303599911
 20
-4.9503512649
 10
-0.3136095313
 20
-4.9564735506
 10
-0.3239165261
 20
-4.9620814911
 10
-0.3345202611
 20
-4.9671761774
 10
-0.3453949935
 20
-4.9717450051
 10
-0.3565425827
 20
-4.9757869752
 10
-0.3679612196
 20
-4.9793031159
 10
-0.3796196615
 20
-4.9822838654
 10
-0.3915184445
 20
-4.9847274613
 10
-0.4036570808
 20
-4.986635694
 10
-0.4160027936
 20
-4.9880043317
 10
-0.4285536112
 20
-4.9888321335
 10
-0.4413115498
 20
-4.9891203661
 10
-0.4542498145
 20
-4.9888685601
 10
-0.4673689199
 20
-4.988076216
 10
-0.4806683905
 20
-4.9867438558
 10
-0.4941199463
 20
-4.9848725423
 10
-0.5077286196
 20
-4.982459917
 10
-0.521489411
 20
-4.9795083572
 10
-0.5353589925
 20
-4.9760260291
 10
-0.5493393637
 20
-4.9720095626
 10
-0.5634285509
 20
-4.9674623428
 10
-0.5775772649
 20
-4.9624026667
 10
-0.5917865614
 20
-4.9568269321
 10
-0.6060554024
 20
-4.9507387516
 10
-0.6203313553
 20
-4.9441672435
 10
-0.6345969458
 20
-4.9371221159
 10
-0.6488696571
 20
-4.9295936658
 10
-0.6631494914
 20
-4.9215818946
  0
LWPOLYLINE
  5
3B4
100
AcDbEntity
  8
0
100
AcDbPolyline
 62
250
  6
CONTINUOUS
 90
40
 70
0
 10
-0.6631494914
 20
-4.9215818946
 10
-0.6630526391
 20
-4.9149743901
 10
-0.6627282278
 20
-4.9082452572
 10
-0.66217678
 20
-4.9014053311
 10
-0.6613991837
 20
-4.8944656254
 10
-0.6603966908
 20
-4.8874373145
 10
-0.6591709156
 20
-4.8803317151
 10
-0.6577238319
 20
-4.8731602689
 10
-0.6560577697
 20
-4.8659345231
 10
-0.6541754117
 20
-4.8586661126
 10
-0.6520797889
 20
-4.851366741
 10
-0.6497742756
 20
-4.8440481617
 10
-0.6472625841
 20
-4.836722159
 10
-0.6445487588
 20
-4.8294005292
 10
-0.6416371695
 20
-4.8220950616
 10
-0.6385325044
 20
-4.8148175193
 10
-0.6352397625
 20
-4.8075796207
 10
-0.6317642459
 20
-4.8003930201
 10
-0.6281115508
 20
-4.7932692895
 10
-0.6242875587
 20
-4.7862198992
 10
-0.6202984271
 20
-4.7792562004
 10
-0.6161505791
 20
-4.7723894058
 10
-0.6118506937
 20
-4.7656305724
 10
-0.6074056945
 20
-4.7589905831
 10
-0.6028227388
 20
-4.7524801297
 10
-0.5981092061
 20
-4.7461096952
 10
-0.593272686
 20
-4.7398895373
 10
-0.5883209663
 20
-4.7338296717
 10
-0.5832620202
 20
-4.7279398558
 10
-0.5781039936
 20
-4.7222295735
 10
-0.572855192
 20
-4.7167080195
 10
-0.5675240669
 20
-4.7113840844
 10
-0.5621192024
 20
-4.7062663409
 10
-0.5566493015
 20
-4.7013630295
 10
-0.5511231718
 20
-4.6966820455
 10
-0.5455497114
 20
-4.6922309262
 10
-0.5399378946
 20
-4.6880168388
 10
-0.5342967577
 20
-4.6840465688
 10
-0.5286353838
 20
-4.680326509
 10
-0.5229628889
 20
-4.6768626495
  0
LWPOLYLINE
  5
3B5
100
AcDbEntity
  8
0
100
AcDbPolyline
 62
250
  6
CONTINUOUS
 90
40
 70
0
 10
-0.1696827766
 20
-4.268936791
 10
-0.1695731833
 20
-4.2623314044
 10
-0.1692366892
 20
-4.2556053251
 10
-0.1686738341
 20
-4.2487693529
 10
-0.167885521
 20
-4.241834462
 10
-0.1668730152
 20
-4.2348117892
 10
-0.1656379432
 20
-4.2277126165
 10
-0.1641822885
 20
-4.2205483446
 10
-0.1625083883
 20
-4.2133304755
 10
-0.1606189307
 20
-4.2060705997
 10
-0.1585169495
 20
-4.1987803743
 10
-0.1562058201
 20
-4.191471505
 10
-0.1536892543
 20
-4.1841557296
 10
-0.1509712932
 20
-4.1768447948
 10
-0.1480563011
 20
-4.1695504396
 10
-0.1449489596
 20
-4.1622843777
 10
-0.1416542581
 20
-4.1550582755
 10
-0.1381774875
 20
-4.1478837361
 10
-0.1345242317
 20
-4.1407722814
 10
-0.1307003576
 20
-4.1337353304
 10
-0.1267120051
 20
-4.1267841813
 10
-0.1225655785
 20
-4.1199299948
 10
-0.1182677353
 20
-4.113183775
 10
-0.1138253776
 20
-4.1065563548
 10
-0.1092456409
 20
-4.1000583787
 10
-0.1045358856
 20
-4.0937002876
 10
-0.0997036685
 20
-4.0874922811
 10
-0.0947567316
 20
-4.0814443059
 10
-0.0897029928
 20
-4.0755660457
 10
-0.0845505896
 20
-4.0698669697
 10
-0.0793078529
 20
-4.0643562896
 10
-0.0739832387
 20
-4.0590428832
 10
-0.0685852637
 20
-4.0539352386
 10
-0.0631225472
 20
-4.0490415077
 10
-0.0576033957
 20
-4.0443691661
 10
-0.0520371269
 20
-4.0399261353
 10
-0.04643404
 20
-4.0357205393
 10
-0.0408036082
 20
-4.031759264
 10
-0.0351544298
 20
-4.0280481352
 10
-0.0294955731
 20
-4.0245929195
  0
LWPOLYLINE
  5
3B6
100
AcDbEntity
  8
0
100
AcDbPolyline
 62
7
  6
CONTINUOUS
 90
3
 70
0
 10
-1.4898157022
 20
-10.8879649985
 10
-1.4899600617
 20
-10.8965541767
 10
-1.4903778895
 20
-10.9050014752
  0
LINE
  5
3B7
100
AcDbEntity
  8
0
100
AcDbLine
 62
7
  6
CONTINUOUS
 10
-0.8597656537
 20
-13.3173880899
 11
-0.8599305942
 21
-13.3257040072
  0
LWPOLYLINE
  5
3B8
100
AcDbEntity
  8
0
100
AcDbPolyline
 62
7
  6
CONTINUOUS
 90
7
 70
0
 10
-1.4988177871
 20
4.0012910394
 10
-1.4990775207
 20
3.9927665416
 10
-1.4995945044
 20
3.9844001643
 10
-1.5003687388
 20
3.9761919071
 10
-1.5014025885
 20
3.9681246042
 10
-1.5026936893
 20
3.9602154213
 10
-1.5042349507
 20
3.9525158537
  0
LINE
  5
3B9
100
AcDbEntity
  8
0
100
AcDbLine
 62
7
  6
CONTINUOUS
 10
-0.8790408771
 20
5.9149351968
 11
-0.8793583954
 21
5.9058533268
  0
LINE
  5
3BA
100
AcDbEntity
  8
0
100
AcDbLine
 62
7
  6
CONTINUOUS
 10
-0.8599226525
 20
-13.3254431365
 11
-0.8603550446
 21
-13.3336184488
  0
LINE
  5
3BB
100
AcDbEntity
  8
0
100
AcDbLine
 62
7
  6
CONTINUOUS
 10
-2.3163097788
 20
-11.3453754464
 11
-2.3157867737
 21
-11.3371085408
  0
LWPOLYLINE
  5
3BC
100
AcDbEntity
  8
0
100
AcDbPolyline
 62
7
  6
CONTINUOUS
 90
5
 70
0
 10
-0.8793587797
 20
5.9058469248
 10
-0.8799510345
 20
5.8969337371
 10
-0.8808190298
 20
5.888184466
 10
-0.8819615023
 20
5.8796071612
 10
-0.8833733349
 20
5.8712570023
  0
LINE
  5
3BD
100
AcDbEntity
  8
0
100
AcDbLine
 62
7
  6
CONTINUOUS
 10
-1.4903778895
 20
-10.9050014752
 11
-1.4910864145
 21
-10.9133548866
  0
LWPOLYLINE
  5
3BE
100
AcDbEntity
  8
0
100
AcDbPolyline
 62
7
  6
CONTINUOUS
 90
3
 70
0
 10
-2.2216492835
 20
-13.5695960234
 10
-2.2209607583
 20
-13.5617740382
 10
-2.219996668
 20
-13.5541628164
  0
LWPOLYLINE
  5
3BF
100
AcDbEntity
  8
0
100
AcDbPolyline
 62
7
  6
CONTINUOUS
 90
18
 70
0
 10
-1.4910349979
 20
-10.9128727415
 10
-1.4920696377
 20
-10.9214749124
 10
-1.4933275826
 20
-10.9293615667
 10
-1.4948628026
 20
-10.9370240798
 10
-1.4966727886
 20
-10.9444532476
 10
-1.4987499796
 20
-10.9516214382
 10
-1.5010952764
 20
-10.9585262408
 10
-1.5037078432
 20
-10.9651701051
 10
-1.5065775316
 20
-10.9715327002
 10
-1.5097046956
 20
-10.9776128764
 10
-1.5130890587
 20
-10.9834118297
 10
-1.5167195398
 20
-10.9889127564
 10
-1.5205985835
 20
-10.9941179808
 10
-1.5247238305
 20
-10.9990252296
 10
-1.5290770085
 20
-11.0036108105
 10
-1.5336586342
 20
-11.0078723681
 10
-1.5384682891
 20
-11.0118123168
 10
-1.543486312
 20
-11.0154141278
  0
LWPOLYLINE
  5
3C0
100
AcDbEntity
  8
0
100
AcDbPolyline
 62
7
  6
CONTINUOUS
 90
4
 70
0
 10
-6.0909307713
 20
6.4180257123
 10
-6.0978048179
 20
6.4251008135
 10
-6.104562879
 20
6.4323862803
 10
-6.1111984052
 20
6.4398780763
  0
LINE
  5
3C1
100
AcDbEntity
  8
0
100
AcDbLine
 62
7
  6
CONTINUOUS
 10
-6.11120726
 20
6.4398902962
 11
-6.1177671885
 21
6.4476409214
  0
LINE
  5
3C2
100
AcDbEntity
  8
0
100
AcDbLine
 62
7
  6
CONTINUOUS
 10
-6.117717934
 20
6.4475802447
 11
-6.1242016183
 21
6.4555909383
  0
LINE
  5
3C3
100
AcDbEntity
  8
0
100
AcDbLine
 62
7
  6
CONTINUOUS
 10
-6.1241123915
 20
6.4554782335
 11
-6.1305143135
 21
6.4637476893
  0
LINE
  5
3C4
100
AcDbEntity
  8
0
100
AcDbLine
 62
7
  6
CONTINUOUS
 10
-6.1303851078
 20
6.4635752796
 11
-6.1367014953
 21
6.4721038402
  0
LINE
  5
3C5
100
AcDbEntity
  8
0
100
AcDbLine
 62
7
  6
CONTINUOUS
 10
-6.1365327385
 20
6.4718681541
 11
-6.1427276089
 21
6.4806087043
  0
LINE
  5
3C6
100
AcDbEntity
  8
0
100
AcDbLine
 62
7
  6
CONTINUOUS
 10
-6.1425361984
 20
6.4803326068
 11
-6.1485890646
 21
6.489259899
  0
LINE
  5
3C7
100
AcDbEntity
  8
0
100
AcDbLine
 62
7
  6
CONTINUOUS
 10
-6.1483969208
 20
6.4889704467
 11
-6.1542894367
 21
6.4980598155
  0
LINE
  5
3C8
100
AcDbEntity
  8
0
100
AcDbLine
 62
7
  6
CONTINUOUS
 10
-3.4475935327
 20
7.2258846156
 11
-3.4521166803
 21
7.2352762381
  0
LINE
  5
3C9
100
AcDbEntity
  8
0
100
AcDbLine
 62
7
  6
CONTINUOUS
 10
-3.4521166803
 20
7.2352762381
 11
-3.4565352125
 21
7.2449663504
  0
LINE
  5
3CA
100
AcDbEntity
  8
0
100
AcDbLine
 62
7
  6
CONTINUOUS
 10
-3.4564556382
 20
7.2447896245
 11
-3.4606696813
 21
7.2545672231
  0
LINE
  5
3CB
100
AcDbEntity
  8
0
100
AcDbLine
 62
7
  6
CONTINUOUS
 10
-3.460601161
 20
7.2544046924
 11
-3.4645814232
 21
7.2642028026
  0
LWPOLYLINE
  5
3CC
100
AcDbEntity
  8
0
100
AcDbPolyline
 62
7
  6
CONTINUOUS
 90
9
 70
0
 10
-3.4645256228
 20
7.2640611356
 10
-3.4682266966
 20
7.2737571195
 10
-3.4717066269
 20
7.2834945225
 10
-3.474944665
 20
7.2932185973
 10
-3.4779350874
 20
7.3029119281
 10
-3.4806835551
 20
7.3125919638
 10
-3.4831864065
 20
7.3222562496
 10
-3.485444875
 20
7.3319155514
 10
-3.4874576575
 20
7.3415591402
  0
LINE
  5
3CD
100
AcDbEntity
  8
0
100
AcDbLine
 62
7
  6
CONTINUOUS
 10
-1.5218441078
 20
4.1317691975
 11
-1.5186064762
 21
4.1221695826
  0
LWPOLYLINE
  5
3CE
100
AcDbEntity
  8
0
100
AcDbPolyline
 62
7
  6
CONTINUOUS
 90
3
 70
0
 10
-1.5185841385
 20
4.1220967759
 10
-1.515575524
 20
4.1124712682
 10
-1.5128168961
 20
4.1028844085
  0
LWPOLYLINE
  5
3CF
100
AcDbEntity
  8
0
100
AcDbPolyline
 62
7
  6
CONTINUOUS
 90
6
 70
0
 10
-1.5128455296
 20
4.1029809135
 10
-1.5103222016
 20
4.0933918666
 10
-1.508045014
 20
4.0838470241
 10
-1.506015316
 20
4.0743485996
 10
-1.5042317485
 20
4.0648943851
 10
-1.5026982764
 20
4.0555159024
  0
LWPOLYLINE
  5
3D0
100
AcDbEntity
  8
0
100
AcDbPolyline
 62
7
  6
CONTINUOUS
 90
7
 70
0
 10
-2.1168946833
 20
5.5114427715
 10
-2.1151223574
 20
5.5016722263
 10
-2.1136133091
 20
5.4919584806
 10
-2.1123695482
 20
5.4823078446
 10
-2.1113970762
 20
5.4727563187
 10
-2.11069569
 20
5.4633021196
 10
-2.1102655568
 20
5.4539470505
  0
LINE
  5
3D1
100
AcDbEntity
  8
0
100
AcDbLine
 62
7
  6
CONTINUOUS
 10
-1.3501389453
 20
8.5059237537
 11
-1.3485822001
 21
8.495870981
  0
LINE
  5
3D2
100
AcDbEntity
  8
0
100
AcDbLine
 62
7
  6
CONTINUOUS
 10
-1.5026982764
 20
4.0555159024
 11
-1.5013954371
 21
4.0460564893
  0
LINE
  5
3D3
100
AcDbEntity
  8
0
100
AcDbLine
 62
7
  6
CONTINUOUS
 10
-1.5014139766
 20
4.0462091215
 11
-1.5003646941
 21
4.0368125794
  0
LINE
  5
3D4
100
AcDbEntity
  8
0
100
AcDbLine
 62
7
  6
CONTINUOUS
 10
-0.8603360359
 20
-13.3333505845
 11
-0.8610341505
 21
-13.3413249421
  0
LINE
  5
3D5
100
AcDbEntity
  8
0
100
AcDbLine
 62
7
  6
CONTINUOUS
 10
-0.8610072924
 20
-13.3410704002
 11
-0.861967603
 21
-13.3488218711
  0
LWPOLYLINE
  5
3D6
100
AcDbEntity
  8
0
100
AcDbPolyline
 62
7
  6
CONTINUOUS
 90
18
 70
0
 10
-1.4919398337
 20
-10.9205482044
 10
-1.4930924124
 20
-10.9280278732
 10
-1.4944944629
 20
-10.93532242
 10
-1.4961442851
 20
-10.9424211897
 10
-1.4980367612
 20
-10.9492922068
 10
-1.5001726175
 20
-10.9559312196
 10
-1.502551179
 20
-10.9623425103
 10
-1.5051652436
 20
-10.9685069147
 10
-1.508015173
 20
-10.9744240612
 10
-1.5111006673
 20
-10.9800943583
 10
-1.5144135432
 20
-10.9854998184
 10
-1.5179528337
 20
-10.9906384639
 10
-1.5217195772
 20
-10.9955123152
 10
-1.5257086081
 20
-11.0001093876
 10
-1.5299243449
 20
-11.0044357243
 10
-1.5343624419
 20
-11.0084853257
 10
-1.5390045996
 20
-11.0122281511
 10
-1.5438555385
 20
-11.0156577223
  0
LINE
  5
3D7
100
AcDbEntity
  8
0
100
AcDbLine
 62
7
  6
CONTINUOUS
 10
-0.8619386786
 20
-13.3486043048
 11
-0.8631557489
 21
-13.3561108755
  0
LWPOLYLINE
  5
3D8
100
AcDbEntity
  8
0
100
AcDbPolyline
 62
7
  6
CONTINUOUS
 90
3
 70
0
 10
-2.3125619508
 20
-11.313581124
 10
-2.3109407815
 20
-11.3061827034
 10
-2.3090554838
 20
-11.299037669
  0
LINE
  5
3D9
100
AcDbEntity
  8
0
100
AcDbLine
 62
7
  6
CONTINUOUS
 10
-2.217258048
 20
-13.5396566254
 11
-2.2154835727
 21
-13.5327616919
  0
LINE
  5
3DA
100
AcDbEntity
  8
0
100
AcDbLine
 62
7
  6
CONTINUOUS
 10
-3.4682008903
 20
-11.728432768
 11
-3.466092707
 21
-11.7216610205
  0
LWPOLYLINE
  5
3DB
100
AcDbEntity
  8
0
100
AcDbPolyline
 62
7
  6
CONTINUOUS
 90
4
 70
0
 10
-3.4637239799
 20
-11.7151576929
 10
-3.4610961947
 20
-11.7089285655
 10
-3.4582079396
 20
-11.7029679048
 10
-3.4550647327
 20
-11.6972848825
  0
LWPOLYLINE
  5
3DC
100
AcDbEntity
  8
0
100
AcDbPolyline
 62
7
  6
CONTINUOUS
 90
5
 70
0
 10
-6.1755594464
 20
-8.5840379668
 10
-6.1714114544
 20
-8.5793731495
 10
-6.1669754001
 20
-8.5749557542
 10
-6.1623140173
 20
-8.5708573164
 10
-6.1581264625
 20
-8.5676190926
  0
LWPOLYLINE
  5
3DD
100
AcDbEntity
  8
0
100
AcDbPolyline
 62
7
  6
CONTINUOUS
 90
5
 70
0
 10
-6.1718220703
 20
-8.5798107292
 10
-6.167899828
 20
-8.5758327646
 10
-6.1638055565
 20
-8.5721129028
 10
-6.1595337487
 20
-8.5686480505
 10
-6.1560673753
 20
-8.5661135607
  0
LWPOLYLINE
  5
3DE
100
AcDbEntity
  8
0
100
AcDbPolyline
 62
250
  6
CONTINUOUS
 90
49
 70
0
 10
4.5294264341
 20
1.5183700609
 10
4.5175551248
 20
1.5124286413
 10
4.5053468629
 20
1.5067094612
 10
4.4928141469
 20
1.5012183757
 10
4.4799698075
 20
1.4959610065
 10
4.4668269944
 20
1.4909427359
 10
4.4533991629
 20
1.4861687015
 10
4.4397000601
 20
1.4816437908
 10
4.4257437106
 20
1.4773726364
 10
4.4115444027
 20
1.4733596109
 10
4.3971166733
 20
1.4696088227
 10
4.3824752931
 20
1.4661241118
 10
4.3676352515
 20
1.4629090458
 10
4.3526117414
 20
1.4599669161
 10
4.3374201435
 20
1.4573007349
 10
4.3220760106
 20
1.4549132317
 10
4.3065950515
 20
1.4528068508
 10
4.2909931153
 20
1.4509837486
 10
4.2752861749
 20
1.4494457916
 10
4.2594903105
 20
1.4481945542
 10
4.2436216936
 20
1.4472313176
 10
4.2276965701
 20
1.4465570678
 10
4.2117312437
 20
1.446172495
 10
4.1957420592
 20
1.4460779931
 10
4.1797453861
 20
1.4462736587
 10
4.1637576012
 20
1.4467592916
 10
4.1477950725
 20
1.4475343945
 10
4.1318741419
 20
1.448598174
 10
4.116011109
 20
1.4499495409
 10
4.1002222138
 20
1.4515871118
 10
4.0845236206
 20
1.4535092102
 10
4.0689314013
 20
1.4557138682
 10
4.0534615188
 20
1.4581988288
 10
4.0381298106
 20
1.460961548
 10
4.0229519731
 20
1.4639991974
 10
4.0079435449
 20
1.467308667
 10
3.9931198912
 20
1.4708865688
 10
3.9784961882
 20
1.4747292398
 10
3.9640874071
 20
1.478832746
 10
3.9499082993
 20
1.4831928862
 10
3.935973381
 20
1.4878051967
 10
3.9222969185
 20
1.4926649556
 10
3.9088929133
 20
1.4977671875
 10
3.895775088
 20
1.5031066689
 10
3.8829568725
 20
1.5086779334
 10
3.8704513897
 20
1.5144752772
 10
3.8582714422
 20
1.5204927653
 10
3.8464294997
 20
1.5267242369
 10
3.8349376857
 20
1.5331633127
  0
LINE
  5
3DF
100
AcDbEntity
  8
RACCORDO
100
AcDbLine
 62
7
  6
CONTINUOUS
 10
8.1401042429
 20
-4.2100704105
 11
8.0493225239
 21
-4.1576541837
  0
LINE
  5
3E0
100
AcDbEntity
  8
0
100
AcDbLine
 62
7
  6
CONTINUOUS
 10
-6.0697880759
 20
6.3982278366
 11
-6.0769223956
 21
6.4045892265
  0
LWPOLYLINE
  5
3E1
100
AcDbEntity
  8
0
100
AcDbPolyline
 62
7
  6
CONTINUOUS
 90
4
 70
0
 10
-1.6351360013
 20
4.3148240996
 10
-1.6282649717
 20
4.3077473719
 10
-1.6215101386
 20
4.3004601461
 10
-1.6148780392
 20
4.2929664649
  0
LINE
  5
3E2
100
AcDbEntity
  8
0
100
AcDbLine
 62
7
  6
CONTINUOUS
 10
-1.6148676964
 20
4.2929525132
 11
-1.6083112938
 21
4.2851996563
  0
LINE
  5
3E3
100
AcDbEntity
  8
0
100
AcDbLine
 62
7
  6
CONTINUOUS
 10
-1.6083621243
 20
4.2852622922
 11
-1.6018805775
 21
4.2772473095
  0
LINE
  5
3E4
100
AcDbEntity
  8
0
100
AcDbLine
 62
7
  6
CONTINUOUS
 10
-1.6019714457
 20
4.2773621893
 11
-1.5955717777
 21
4.2690881399
  0
LINE
  5
3E5
100
AcDbEntity
  8
0
100
AcDbLine
 62
7
  6
CONTINUOUS
 10
-1.5957026602
 20
4.2692629257
 11
-1.5893886496
 21
4.2607294886
  0
LINE
  5
3E6
100
AcDbEntity
  8
0
100
AcDbLine
 62
7
  6
CONTINUOUS
 10
-1.5895590966
 20
4.2609677398
 11
-1.5833667045
 21
4.2522220663
  0
LINE
  5
3E7
100
AcDbEntity
  8
0
100
AcDbLine
 62
7
  6
CONTINUOUS
 10
-1.583559815
 20
4.252500896
 11
-1.577509519
 21
4.2435682688
  0
LINE
  5
3E8
100
AcDbEntity
  8
0
100
AcDbLine
 62
7
  6
CONTINUOUS
 10
-1.5777033669
 20
4.2438605927
 11
-1.5718135011
 21
4.2347657087
  0
LWPOLYLINE
  5
3E9
100
AcDbEntity
  8
0
100
AcDbPolyline
 62
7
  6
CONTINUOUS
 90
3
 70
0
 10
-2.4597455287
 20
5.4437847224
 10
-2.4655490384
 20
5.4529576906
 10
-2.4711796475
 20
5.4622925467
  0
LINE
  5
3EA
100
AcDbEntity
  8
0
100
AcDbLine
 62
7
  6
CONTINUOUS
 10
-1.5719911846
 20
4.2350486403
 11
-1.5663034108
 21
4.2258579214
  0
LINE
  5
3EB
100
AcDbEntity
  8
0
100
AcDbLine
 62
7
  6
CONTINUOUS
 10
-1.5664466498
 20
4.226094721
 11
-1.5609881297
 21
4.2168605699
  0
LINE
  5
3EC
100
AcDbEntity
  8
0
100
AcDbLine
 62
7
  6
CONTINUOUS
 10
-2.4711673325
 20
5.4622724105
 11
-2.4766372991
 21
5.471789315
  0
LWPOLYLINE
  5
3ED
100
AcDbEntity
  8
0
100
AcDbPolyline
 62
7
  6
CONTINUOUS
 90
3
 70
0
 10
-1.5610648252
 20
4.216986196
 10
-1.5558506305
 20
4.2077357137
 10
-1.5508422347
 20
4.1984108855
  0
LWPOLYLINE
  5
3EE
100
AcDbEntity
  8
0
100
AcDbPolyline
 62
7
  6
CONTINUOUS
 90
4
 70
0
 10
-2.6916533929
 20
5.8567974738
 10
-2.7988643323
 20
6.0494492559
 10
-2.9058773838
 20
6.2421988668
 10
-3.0126924066
 20
6.4350460304
  0
LINE
  5
3EF
100
AcDbEntity
  8
0
100
AcDbLine
 62
7
  6
CONTINUOUS
 10
-2.7434062569
 20
5.9497943408
 11
-2.4766372991
 21
5.471789315
  0
LINE
  5
3F0
100
AcDbEntity
  8
0
100
AcDbLine
 62
7
  6
CONTINUOUS
 10
-2.3042012679
 20
5.8942237546
 11
-2.1684527265
 21
5.6498506426
  0
LINE
  5
3F1
100
AcDbEntity
  8
0
100
AcDbLine
 62
7
  6
CONTINUOUS
 10
-2.4396307014
 20
6.1387531443
 11
-2.3042012679
 21
5.8942237546
  0
LINE
  5
3F2
100
AcDbEntity
  8
0
100
AcDbLine
 62
7
  6
CONTINUOUS
 10
-2.5747409448
 20
6.3834381022
 11
-2.4396307014
 21
6.1387531443
  0
LINE
  5
3F3
100
AcDbEntity
  8
0
100
AcDbLine
 62
7
  6
CONTINUOUS
 10
-3.2257268345
 20
6.8210326173
 11
-3.0126929027
 21
6.4350469272
  0
LWPOLYLINE
  5
3F4
100
AcDbEntity
  8
0
100
AcDbPolyline
 62
7
  6
CONTINUOUS
 90
3
 70
0
 10
-3.2257268345
 20
6.8210326173
 10
-3.3319462735
 20
7.0141712575
 10
-3.4379672734
 20
7.2074062336
  0
LWPOLYLINE
  5
3F5
100
AcDbEntity
  8
0
100
AcDbPolyline
 62
7
  6
CONTINUOUS
 90
3
 70
0
 10
-2.7768070297
 20
6.7507561418
 10
-2.7095315495
 20
6.6282781937
 10
-2.5747409448
 20
6.3834381022
  0
LINE
  5
3F6
100
AcDbEntity
  8
0
100
AcDbLine
 62
7
  6
CONTINUOUS
 10
-2.1684527265
 20
5.6498506426
 11
-2.1632338086
 21
5.6402147387
  0
LINE
  5
3F7
100
AcDbEntity
  8
0
100
AcDbLine
 62
7
  6
CONTINUOUS
 10
-3.4379672734
 20
7.2074062336
 11
-3.4428770484
 21
7.2165946222
  0
LWPOLYLINE
  5
3F8
100
AcDbEntity
  8
0
100
AcDbPolyline
 62
7
  6
CONTINUOUS
 90
15
 70
0
 10
-2.16324363
 20
5.6402340818
 10
-2.1582580301
 20
5.6305458148
 10
-2.1534958911
 20
5.6207858857
 10
-2.1489516365
 20
5.6109392916
 10
-2.1446307449
 20
5.601021089
 10
-2.1405497599
 20
5.5910763883
 10
-2.1367098869
 20
5.5811104034
 10
-2.1331098361
 20
5.5711179667
 10
-2.1297624215
 20
5.5611286088
 10
-2.1266674312
 20
5.5511379319
 10
-2.123824998
 20
5.5411503772
 10
-2.1212484685
 20
5.5312087253
 10
-2.1189422579
 20
5.5213210383
 10
-2.11690189
 20
5.5114792875
 10
-2.1151273889
 20
5.5017021097
  0
LINE
  5
3F9
100
AcDbEntity
  8
0
100
AcDbLine
 62
7
  6
CONTINUOUS
 10
-1.5509133981
 20
4.1985467693
 11
-1.5460478203
 21
4.189022277
  0
LWPOLYLINE
  5
3FA
100
AcDbEntity
  8
0
100
AcDbPolyline
 62
7
  6
CONTINUOUS
 90
3
 70
0
 10
-3.4428770484
 20
7.2165946222
 10
-3.4476577589
 20
7.2260191677
 10
-3.4521558707
 20
7.2353621651
  0
LINE
  5
3FB
100
AcDbEntity
  8
0
100
AcDbLine
 62
7
  6
CONTINUOUS
 10
-2.0802748359
 20
7.9855900838
 11
-2.0753524727
 21
7.9758661588
  0
LINE
  5
3FC
100
AcDbEntity
  8
0
100
AcDbLine
 62
7
  6
CONTINUOUS
 10
-1.5461430778
 20
4.1892107299
 11
-1.5414591894
 21
4.1795593311
  0
LWPOLYLINE
  5
3FD
100
AcDbEntity
  8
0
100
AcDbPolyline
 62
7
  6
CONTINUOUS
 90
18
 70
0
 10
-2.0753427618
 20
7.9758464461
 10
-2.0706271615
 20
7.9660033473
 10
-2.0661235736
 20
7.9560535472
 10
-2.0618639675
 20
7.9460612678
 10
-2.0578564916
 20
7.9360386333
 10
-2.05409291
 20
7.9259735641
 10
-2.0505806298
 20
7.9158939695
 10
-2.047318717
 20
7.905796359
 10
-2.0443080226
 20
7.8956842655
 10
-2.0415586443
 20
7.8855961268
 10
-2.0390729151
 20
7.8755396725
 10
-2.0368484339
 20
7.8655072079
 10
-2.0348882091
 20
7.8555140285
 10
-2.0331903696
 20
7.8455502684
 10
-2.0317567204
 20
7.8356258275
 10
-2.0305957982
 20
7.8257856427
 10
-2.0297085575
 20
7.8160340126
 10
-2.0290940012
 20
7.8063666606
  0
LINE
  5
3FE
100
AcDbEntity
  8
0
100
AcDbLine
 62
7
  6
CONTINUOUS
 10
-0.9238493128
 20
6.1014693259
 11
-0.9192287098
 21
6.0916312364
  0
LINE
  5
3FF
100
AcDbEntity
  8
0
100
AcDbLine
 62
7
  6
CONTINUOUS
 10
-1.5415567457
 20
4.1797660403
 11
-1.5370899427
 21
4.1700579738
  0
LINE
  5
400
100
AcDbEntity
  8
0
100
AcDbLine
 62
7
  6
CONTINUOUS
 10
-0.9192189819
 20
6.0916100965
 11
-0.9148284773
 21
6.0817031639
  0
LINE
  5
401
100
AcDbEntity
  8
0
100
AcDbLine
 62
7
  6
CONTINUOUS
 10
-1.5371793583
 20
4.1702577218
 11
-1.5329409573
 21
4.1605205248
  0
LINE
  5
402
100
AcDbEntity
  8
0
100
AcDbLine
 62
7
  6
CONTINUOUS
 10
-0.9148365462
 20
6.0817218169
 11
-0.9106834079
 21
6.0717727146
  0
LWPOLYLINE
  5
403
100
AcDbEntity
  8
0
100
AcDbPolyline
 62
7
  6
CONTINUOUS
 90
4
 70
0
 10
-1.5330109649
 20
4.1606819171
 10
-1.5290515
 20
4.1510424924
 10
-1.5253257503
 20
4.1413960516
 10
-1.5218380933
 20
4.1317499181
  0
LWPOLYLINE
  5
404
100
AcDbEntity
  8
0
100
AcDbPolyline
 62
7
  6
CONTINUOUS
 90
3
 70
0
 10
-0.9106769392
 20
6.071756721
 10
-0.9067628558
 20
6.0617661192
 10
-0.9030876498
 20
6.0517360544
  0
LINE
  5
405
100
AcDbEntity
  8
0
100
AcDbLine
 62
7
  6
CONTINUOUS
 10
-0.9030913604
 20
6.0517464165
 11
-0.8996683438
 21
6.041719164
  0
LWPOLYLINE
  5
406
100
AcDbEntity
  8
0
100
AcDbPolyline
 62
7
  6
CONTINUOUS
 90
3
 70
0
 10
-0.8996657095
 20
6.0417111532
 10
-0.8965001127
 20
6.0317010664
 10
-0.8935877082
 20
6.0216961822
  0
LINE
  5
407
100
AcDbEntity
  8
0
100
AcDbLine
 62
7
  6
CONTINUOUS
 10
-0.8935892229
 20
6.02170154
 11
-0.8909348139
 21
6.0117172112
  0
LWPOLYLINE
  5
408
100
AcDbEntity
  8
0
100
AcDbPolyline
 62
7
  6
CONTINUOUS
 90
10
 70
0
 10
-0.8909335523
 20
6.0117122274
 10
-0.8885360212
 20
6.0017409423
 10
-0.8863966658
 20
5.9917906253
 10
-0.8845253169
 20
5.9819018332
 10
-0.8829231882
 20
5.9720801139
 10
-0.8815890126
 20
5.962319948
 10
-0.8805289152
 20
5.9526452834
 10
-0.8797443717
 20
5.9430455291
 10
-0.8792338603
 20
5.9335313007
 10
-0.8789990321
 20
5.9241583451
  0
LWPOLYLINE
  5
409
100
AcDbEntity
  8
0
100
AcDbPolyline
 62
250
  6
CONTINUOUS
 90
52
 70
0
 10
5.2495342509
 20
-23.0969670724
 10
5.2511302516
 20
-23.1069277775
 10
5.2529828126
 20
-23.1166840999
 10
5.2550919338
 20
-23.1262360397
 10
5.2574595309
 20
-23.1355904021
 10
5.2600836883
 20
-23.1447403818
 10
5.262958659
 20
-23.1536655632
 10
5.2660849593
 20
-23.1623652578
 10
5.2694620729
 20
-23.170840154
 10
5.2730827047
 20
-23.1790719018
 10
5.2769473707
 20
-23.1870599478
 10
5.2810555549
 20
-23.1948048453
 10
5.2853984146
 20
-23.2022899043
 10
5.2899764615
 20
-23.2095145772
 10
5.2947891838
 20
-23.2164794117
 10
5.2998262039
 20
-23.22316936
 10
5.3050880063
 20
-23.2295838276
 10
5.3105741064
 20
-23.2357234091
 10
5.316272673
 20
-23.2415748402
 10
5.3221841671
 20
-23.2471374997
 10
5.3283081277
 20
-23.2524120087
 10
5.3346313404
 20
-23.2573869668
 10
5.3411542307
 20
-23.2620617236
 10
5.3478763732
 20
-23.2664369294
 10
5.3547832775
 20
-23.270503134
 10
5.3618753513
 20
-23.2742596745
 10
5.3691521869
 20
-23.2777072138
 10
5.3765980708
 20
-23.2808382908
 10
5.3842133598
 20
-23.2836522182
 10
5.3919976972
 20
-23.2861496833
 10
5.3999342989
 20
-23.2883252863
 10
5.4080235009
 20
-23.2901783341
 10
5.4162649673
 20
-23.2917095198
 10
5.4246409062
 20
-23.2929155229
 10
5.4331516088
 20
-23.2937956398
 10
5.441796784
 20
-23.2943505742
 10
5.4505577664
 20
-23.2945791163
 10
5.4594348091
 20
-23.2944805591
 10
5.468427659
 20
-23.2940556097
 10
5.4775168913
 20
-23.2933051791
 10
5.4867026999
 20
-23.2922285676
 10
5.495984891
 20
-23.290826475
 10
5.5053434587
 20
-23.2891019121
 10
5.5147785997
 20
-23.2870541715
 10
5.5242901173
 20
-23.2846839607
 10
5.5338574149
 20
-23.2819964133
 10
5.5434808903
 20
-23.2789907069
 10
5.5531601458
 20
-23.2756676639
 10
5.562873392
 20
-23.2720348851
 10
5.5726133657
 20
-23.2680949041
 10
5.5823873301
 20
-23.2638451872
 10
5.5921952852
 20
-23.2592857345
  0
LWPOLYLINE
  5
40A
100
AcDbEntity
  8
0
100
AcDbPolyline
 62
250
  6
CONTINUOUS
 90
25
 70
0
 10
4.5589327069
 20
-23.1485464505
 10
4.5620670778
 20
-23.168419119
 10
4.5657114211
 20
-23.1879040429
 10
4.5698631537
 20
-23.2069872187
 10
4.5745193804
 20
-23.2256549142
 10
4.5796767518
 20
-23.2438937464
 10
4.5853314812
 20
-23.261690678
 10
4.5914796289
 20
-23.2790330215
 10
4.5981168056
 20
-23.2959082182
 10
4.6052380328
 20
-23.3123039151
 10
4.6128382621
 20
-23.328208311
 10
4.6209121217
 20
-23.3436100495
 10
4.6294536365
 20
-23.3584979822
 10
4.6384567994
 20
-23.3728614708
 10
4.6479152142
 20
-23.3866901935
 10
4.6578218376
 20
-23.3999740409
 10
4.6681696782
 20
-23.4127035163
 10
4.6789514022
 20
-23.4248695095
 10
4.6901589834
 20
-23.4364630949
 10
4.7017845112
 20
-23.4474760049
 10
4.7138197446
 20
-23.457900371
 10
4.7262557161
 20
-23.4677284997
 10
4.7390836312
 20
-23.4769533946
 10
4.7522944089
 20
-23.485568495
 10
4.7615706793
 20
-23.4911209487
  0
LINE
  5
40B
100
AcDbEntity
  8
DRAFT
100
AcDbLine
 62
7
  6
CONTINUOUS
 10
2.2338107903
 20
16.7634810502
 11
2.2550160796
 21
16.1470085528
  0
LINE
  5
40C
100
AcDbEntity
  8
RACCORDO
100
AcDbLine
 62
250
  6
CONTINUOUS
 10
2.0535595409
 20
16.3492608914
 11
2.0535595409
 21
16.2864429028
  0
LWPOLYLINE
  5
40D
100
AcDbEntity
  8
0
100
AcDbPolyline
 62
250
  6
CONTINUOUS
 90
22
 70
0
 10
4.5589327069
 20
11.481871199
 10
4.4991221169
 20
10.9974270975
 10
4.441833894
 20
10.5139352149
 10
4.3870701776
 20
10.0314143038
 10
4.3348329492
 20
9.5498831242
 10
4.2851242226
 20
9.069360302
 10
4.2379460443
 20
8.5898643287
 10
4.1933001853
 20
8.1114137853
 10
4.1511883033
 20
7.6340272293
 10
4.1116121326
 20
7.1577230533
 10
4.0745731613
 20
6.6825197184
 10
4.0400727617
 20
6.2084356414
 10
4.0081123534
 20
5.7354890822
 10
3.9786931394
 20
5.2636983552
 10
3.9518162083
 20
4.7930817508
 10
3.9274826671
 20
4.3236574233
 10
3.9056934341
 20
3.8554435545
 10
3.8864493123
 20
3.3884582813
 10
3.8697510935
 20
2.9227196175
 10
3.8555994257
 20
2.458245575
 10
3.8439948122
 20
1.9950541624
 10
3.8349376857
 20
1.5331633127
  0
LWPOLYLINE
  5
40E
100
AcDbEntity
  8
0
100
AcDbPolyline
 62
7
  6
CONTINUOUS
 90
6
 70
0
 10
-0.8631279611
 20
-13.3559505915
 10
-0.86456992
 20
-13.3630641015
 10
-0.8662652854
 20
-13.3699380161
 10
-0.8682133816
 20
-13.3765791882
 10
-0.8704069037
 20
-13.3829629808
 10
-0.8728446708
 20
-13.3890806252
  0
LINE
  5
40F
100
AcDbEntity
  8
0
100
AcDbLine
 62
7
  6
CONTINUOUS
 10
-2.3044957461
 20
-11.2855190022
 11
-2.3018237968
 21
-11.2791533533
  0
LINE
  5
410
100
AcDbEntity
  8
0
100
AcDbLine
 62
7
  6
CONTINUOUS
 10
-2.2988881665
 20
-11.2730498927
 11
-2.2956925562
 21
-11.2672134459
  0
LINE
  5
411
100
AcDbEntity
  8
0
100
AcDbLine
 62
7
  6
CONTINUOUS
 10
0.0605159096
 20
-3.9011005723
 11
-0.1308725406
 21
-4.015497097
  0
LINE
  5
412
100
AcDbEntity
  8
0
100
AcDbLine
 62
250
  6
CONTINUOUS
 10
0.119821825
 20
-3.9353430645
 11
-0.0294955731
 21
-4.0245929195
  0
LWPOLYLINE
  5
413
100
AcDbEntity
  8
0
100
AcDbPolyline
 62
7
  6
CONTINUOUS
 90
3
 70
0
 10
-1.6149435891
 20
3.8477365832
 10
-1.6215777509
 20
3.8476286813
 10
-1.6283197481
 20
3.8478604806
  0
LINE
  5
414
100
AcDbEntity
  8
0
100
AcDbLine
 62
7
  6
CONTINUOUS
 10
-1.6283926828
 20
3.8478648013
 11
-1.6352433718
 21
3.8484398862
  0
LWPOLYLINE
  5
415
100
AcDbEntity
  8
0
100
AcDbPolyline
 62
7
  6
CONTINUOUS
 90
7
 70
0
 10
-1.635175996
 20
3.8484354631
 10
-1.6421400913
 20
3.8493501401
 10
-1.6491833876
 20
3.8505979546
 10
-1.656304646
 20
3.8521797966
 10
-1.6635051149
 20
3.8540947709
 10
-1.6707598779
 20
3.8563336429
 10
-1.6780719344
 20
3.8588969967
  0
LINE
  5
416
100
AcDbEntity
  8
0
100
AcDbLine
 62
7
  6
CONTINUOUS
 10
-1.6780719344
 20
3.8588969967
 11
-1.6855717935
 21
3.861840914
  0
LINE
  5
417
100
AcDbEntity
  8
0
100
AcDbLine
 62
7
  6
CONTINUOUS
 10
-1.6854382916
 20
3.8617842445
 11
-1.6929540917
 21
3.8650429681
  0
LWPOLYLINE
  5
418
100
AcDbEntity
  8
0
100
AcDbPolyline
 62
7
  6
CONTINUOUS
 90
4
 70
0
 10
-1.6928250445
 20
3.8649843947
 10
-1.7002208925
 20
3.8684937828
 10
-1.7076371397
 20
3.8723160713
 10
-1.7150737867
 20
3.8764512599
  0
LWPOLYLINE
  5
419
100
AcDbEntity
  8
0
100
AcDbPolyline
 62
7
  6
CONTINUOUS
 90
4
 70
0
 10
-2.3103650022
 20
5.3031341429
 10
-2.3180770155
 20
5.3070115297
 10
-2.3258186801
 20
5.3112324439
 10
-2.3335362198
 20
5.3157674315
  0
LINE
  5
41A
100
AcDbEntity
  8
0
100
AcDbLine
 62
7
  6
CONTINUOUS
 10
-2.3180527472
 20
5.3069988946
 11
-2.3257957871
 21
5.3112195083
  0
LINE
  5
41B
100
AcDbEntity
  8
0
100
AcDbLine
 62
7
  6
CONTINUOUS
 10
-6.0184314252
 20
6.3611560266
 11
-1.7150737867
 21
3.8764512599
  0
LINE
  5
41C
100
AcDbEntity
  8
0
100
AcDbLine
 62
7
  6
CONTINUOUS
 10
-5.7983843822
 20
6.7336578747
 11
-1.7076195917
 21
4.371701554
  0
LINE
  5
41D
100
AcDbEntity
  8
0
100
AcDbLine
 62
250
  6
CONTINUOUS
 10
-10.973654506
 20
10.0834588489
 11
3.8349376857
 21
1.5331633127
  0
LWPOLYLINE
  5
41E
100
AcDbEntity
  8
0
100
AcDbPolyline
 62
7
  6
CONTINUOUS
 90
11
 70
0
 10
-6.0184314251
 20
6.3611560266
 10
-6.0258109749
 20
6.3655699016
 10
-6.033178214
 20
6.3702789822
 10
-6.0405331418
 20
6.3752832689
 10
-6.0478914893
 20
6.3805942924
 10
-6.0552375221
 20
6.3862005239
 10
-6.0625240396
 20
6.3920673747
 10
-6.0697483674
 20
6.398194601
 10
-6.0769131735
 20
6.4045824503
 10
-6.0839792702
 20
6.4111970711
 10
-6.0909344323
 20
6.4180267556
  0
LWPOLYLINE
  5
41F
100
AcDbEntity
  8
0
100
AcDbPolyline
 62
7
  6
CONTINUOUS
 90
7
 70
0
 10
-1.7076195917
 20
4.371701554
 10
-1.7002402183
 20
4.3672876025
 10
-1.6928734546
 20
4.3625782597
 10
-1.6855192999
 20
4.357573526
 10
-1.678162022
 20
4.3522618716
 10
-1.6708173496
 20
4.3466548282
 10
-1.6635324723
 20
4.3407869894
  0
LINE
  5
420
100
AcDbEntity
  8
0
100
AcDbLine
 62
7
  6
CONTINUOUS
 10
-2.333514922
 20
5.3157544566
 11
-2.3412025696
 21
5.3206029238
  0
LWPOLYLINE
  5
421
100
AcDbEntity
  8
0
100
AcDbPolyline
 62
7
  6
CONTINUOUS
 90
3
 70
0
 10
-2.341221743
 20
5.3206153052
 10
-2.3488831358
 20
5.3257772553
 10
-2.3564902837
 20
5.3312273972
  0
LINE
  5
422
100
AcDbEntity
  8
0
100
AcDbLine
 62
7
  6
CONTINUOUS
 10
-2.3564744879
 20
5.3312157369
 11
-2.3640254082
 21
5.3369516363
  0
LINE
  5
423
100
AcDbEntity
  8
0
100
AcDbLine
 62
7
  6
CONTINUOUS
 10
-2.3640420606
 20
5.3369647163
 11
-2.3715395663
 21
5.3429902418
  0
LWPOLYLINE
  5
424
100
AcDbEntity
  8
0
100
AcDbPolyline
 62
7
  6
CONTINUOUS
 90
14
 70
0
 10
-2.371520746
 20
5.342974754
 10
-2.3789339254
 20
5.3492619198
 10
-2.3862608377
 20
5.3558081974
 10
-2.3935055461
 20
5.3626185482
 10
-2.4006537284
 20
5.3696846506
 10
-2.4077094318
 20
5.3770137022
 10
-2.4146685434
 20
5.3845985417
 10
-2.4215044978
 20
5.3924093102
 10
-2.4282145431
 20
5.4004444151
 10
-2.4348013506
 20
5.4087054935
 10
-2.4412464891
 20
5.4171675311
 10
-2.4475536199
 20
5.4258341313
 10
-2.4537189883
 20
5.4347017423
 10
-2.4597130412
 20
5.443734616
  0
LWPOLYLINE
  5
425
100
AcDbEntity
  8
0
100
AcDbPolyline
 62
7
  6
CONTINUOUS
 90
3
 70
0
 10
-1.6634666287
 20
4.3407325332
 10
-1.6562710811
 20
4.3346259867
 10
-1.6491390513
 20
4.3282634097
  0
LWPOLYLINE
  5
426
100
AcDbEntity
  8
0
100
AcDbPolyline
 62
7
  6
CONTINUOUS
 90
3
 70
0
 10
-1.6491474418
 20
4.328269429
 10
-1.6420837695
 20
4.3216533112
 10
-1.6351312489
 20
4.3148219576
  0
LINE
  5
427
100
AcDbEntity
  8
0
100
AcDbLine
 62
7
  6
CONTINUOUS
 10
-0.994208231
 20
6.2088615191
 11
-0.9874930375
 21
6.2009658149
  0
LWPOLYLINE
  5
428
100
AcDbEntity
  8
0
100
AcDbPolyline
 62
7
  6
CONTINUOUS
 90
3
 70
0
 10
-0.9809107887
 20
6.1928448308
 10
-0.974471331
 20
6.1845163859
 10
-0.9681701031
 20
6.175976075
  0
LINE
  5
429
100
AcDbEntity
  8
0
100
AcDbLine
 62
7
  6
CONTINUOUS
 10
-0.9681820987
 20
6.17599278
 11
-0.9620214074
 21
6.1672425797
  0
LWPOLYLINE
  5
42A
100
AcDbEntity
  8
0
100
AcDbPolyline
 62
7
  6
CONTINUOUS
 90
4
 70
0
 10
-1.688497509
 20
8.4076427042
 10
-1.6944710651
 20
8.4165152231
 10
-1.7002800515
 20
8.4255808743
 10
-1.705924417
 20
8.4348396832
  0
LWPOLYLINE
  5
42B
100
AcDbEntity
  8
0
100
AcDbPolyline
 62
7
  6
CONTINUOUS
 90
8
 70
0
 10
-0.9620115764
 20
6.1672283508
 10
-0.9560191473
 20
6.1583043183
 10
-0.9501916283
 20
6.149202303
 10
-0.9445301076
 20
6.1399240319
 10
-0.9390613977
 20
6.1305057111
 10
-0.93378226
 20
6.1209361626
 10
-0.9286958272
 20
6.1112266203
 10
-0.9238384806
 20
6.101446902
  0
LINE
  5
42C
100
AcDbEntity
  8
0
100
AcDbLine
 62
7
  6
CONTINUOUS
 10
-2.1019822965
 20
8.0232246478
 11
-2.0962625857
 21
8.0140239367
  0
LINE
  5
42D
100
AcDbEntity
  8
0
100
AcDbLine
 62
7
  6
CONTINUOUS
 10
-3.1548221289
 20
11.6540242424
 11
-3.1491849242
 21
11.6449091758
  0
LWPOLYLINE
  5
42E
100
AcDbEntity
  8
0
100
AcDbPolyline
 62
7
  6
CONTINUOUS
 90
6
 70
0
 10
-1.7059244194
 20
8.4348396873
 10
-1.8873752844
 20
8.7395413425
 10
-2.0683644849
 20
9.0444078019
 10
-2.2488921742
 20
9.3494377656
 10
-2.4289593147
 20
9.6546299075
 10
-2.6085652602
 20
9.9599829507
  0
LWPOLYLINE
  5
42F
100
AcDbEntity
  8
0
100
AcDbPolyline
 62
7
  6
CONTINUOUS
 90
4
 70
0
 10
-2.0962572063
 20
8.0140150815
 10
-2.0907301432
 20
8.0046710702
 10
-2.085401442
 20
7.995192897
 10
-2.0802660443
 20
7.9855730484
  0
LINE
  5
430
100
AcDbEntity
  8
0
100
AcDbLine
 62
7
  6
CONTINUOUS
 10
-3.1493522557
 20
11.6452110441
 11
-3.1441302527
 21
11.6363221629
  0
LINE
  5
431
100
AcDbEntity
  8
0
100
AcDbLine
 62
7
  6
CONTINUOUS
 10
-2.7877106993
 20
10.2655007181
 11
-2.6085662087
 21
9.959984567
  0
LWPOLYLINE
  5
432
100
AcDbEntity
  8
0
100
AcDbPolyline
 62
7
  6
CONTINUOUS
 90
4
 70
0
 10
-2.7877077456
 20
10.2654956728
 10
-2.9663861159
 20
10.5711668023
 10
-3.1446013363
 20
10.8769950134
 10
-3.3223535665
 20
11.1829790055
  0
LWPOLYLINE
  5
433
100
AcDbEntity
  8
0
100
AcDbPolyline
 62
7
  6
CONTINUOUS
 90
6
 70
0
 10
-2.378634986
 20
10.3141175897
 10
-2.185900957
 20
9.9840114039
 10
-1.9926250205
 20
9.6540850657
 10
-1.7988077411
 20
9.3243397939
 10
-1.6044481193
 20
8.9947776621
 10
-1.409545945
 20
8.665400314
  0
LINE
  5
434
100
AcDbEntity
  8
0
100
AcDbLine
 62
7
  6
CONTINUOUS
 10
-1.409545945
 20
8.665400314
 11
-1.4040807304
 21
8.6559375972
  0
LWPOLYLINE
  5
435
100
AcDbEntity
  8
0
100
AcDbPolyline
 62
7
  6
CONTINUOUS
 90
41
 70
0
 10
-1.4095459432
 20
8.6654003109
 10
-1.4040934578
 20
8.6559611413
 10
-1.3988574657
 20
8.6464132164
 10
-1.3938379197
 20
8.6367565593
 10
-1.3890287043
 20
8.6269760712
 10
-1.384435834
 20
8.6170869011
 10
-1.3800774617
 20
8.607134441
 10
-1.3759548965
 20
8.5971238904
 10
-1.3720667375
 20
8.5870500954
 10
-1.3684270842
 20
8.5769429133
 10
-1.3650356577
 20
8.5667979494
 10
-1.3618926475
 20
8.5566196427
 10
-1.3590128685
 20
8.5464510944
 10
-1.3564008528
 20
8.5362998774
 10
-1.3540519933
 20
8.526158456
 10
-1.3519674093
 20
8.516047262
 10
-1.3501450785
 20
8.5059605389
 10
-1.3485869539
 20
8.4959040776
 10
-1.3473001309
 20
8.4859156239
 10
-1.3462843474
 20
8.4759936274
 10
-1.3455398138
 20
8.4661396645
 10
-1.3450743544
 20
8.4563961614
 10
-1.3448907878
 20
8.4467547278
 10
-1.344986263
 20
8.4372237702
 10
-1.3453601315
 20
8.4278708951
 10
-1.3460142006
 20
8.4187105388
 10
-1.3469466753
 20
8.409728259
 10
-1.3481515314
 20
8.40094833
 10
-1.3496296642
 20
8.3923674004
 10
-1.3513802035
 20
8.3839888094
 10
-1.3533944968
 20
8.3758468575
 10
-1.3556714978
 20
8.3679466019
 10
-1.3582123016
 20
8.3602829613
 10
-1.3610114856
 20
8.3528750205
 10
-1.3640735648
 20
8.3457169415
 10
-1.3673940814
 20
8.3388145341
 10
-1.3709541716
 20
8.3322043454
 10
-1.3747516447
 20
8.3258946135
 10
-1.3787887746
 20
8.319877059
 10
-1.3830534123
 20
8.3141634445
 10
-1.3875486474
 20
8.3087491477
  0
LWPOLYLINE
  5
436
100
AcDbEntity
  8
0
100
AcDbPolyline
 62
7
  6
CONTINUOUS
 90
5
 70
0
 10
-3.1441302527
 20
11.6363221629
 10
-2.9535751618
 20
11.305512911
 10
-2.7624749693
 20
10.9748753056
 10
-2.570829448
 20
10.6444109945
 10
-2.3786363882
 20
10.3141199976
  0
LINE
  5
437
100
AcDbEntity
  8
0
100
AcDbLine
 62
7
  6
CONTINUOUS
 10
-1.3988344662
 20
8.6463693427
 11
-1.3938071054
 21
8.6366955736
  0
LWPOLYLINE
  5
438
100
AcDbEntity
  8
0
100
AcDbPolyline
 62
250
  6
CONTINUOUS
 90
40
 70
0
 10
4.4635290505
 20
-6.5478939728
 10
4.4633671173
 20
-6.5412794919
 10
4.4629842916
 20
-6.5345388025
 10
4.4623811941
 20
-6.5276828337
 10
4.4615588026
 20
-6.5207227018
 10
4.4605184506
 20
-6.5136696916
 10
4.4592618249
 20
-6.5065352388
 10
4.4577909629
 20
-6.4993309109
 10
4.4561082494
 20
-6.492068389
 10
4.4542164128
 20
-6.4847594483
 10
4.4521185205
 20
-6.4774159393
 10
4.4498179739
 20
-6.4700497686
 10
4.447318503
 20
-6.4626728795
 10
4.4446241606
 20
-6.4552972329
 10
4.441739315
 20
-6.4479347872
 10
4.4386686438
 20
-6.4405974799
 10
4.4354171256
 20
-6.4332972075
 10
4.4319900324
 20
-6.4260458065
 10
4.4283929208
 20
-6.418855034
 10
4.424631623
 20
-6.411736549
 10
4.4207122377
 20
-6.4047018934
 10
4.4166411194
 20
-6.3977624728
 10
4.4124248692
 20
-6.3909295386
 10
4.408070323
 20
-6.3842141697
 10
4.4035845412
 20
-6.3776272542
 10
4.3989747971
 20
-6.3711794718
 10
4.3942485647
 20
-6.364881277
 10
4.3894135069
 20
-6.3587428813
 10
4.3844774634
 20
-6.3527742374
 10
4.3794484371
 20
-6.3469850228
 10
4.3743345821
 20
-6.3413846238
 10
4.3691441899
 20
-6.335982121
 10
4.363885676
 20
-6.3307862736
 10
4.3585675664
 20
-6.3258055062
 10
4.3531984838
 20
-6.3210478943
 10
4.3477871335
 20
-6.316521152
 10
4.3423422892
 20
-6.3122326186
 10
4.3368727792
 20
-6.3081892475
 10
4.3313874716
 20
-6.3043975946
 10
4.32589526
 20
-6.3008638075
  0
LWPOLYLINE
  5
439
100
AcDbEntity
  8
0
100
AcDbPolyline
 62
250
  6
CONTINUOUS
 90
22
 70
0
 10
3.8349376857
 20
-13.9797719464
 10
3.8439948122
 20
-14.4319059528
 10
3.8555994257
 20
-14.8825961282
 10
3.8697510935
 20
-15.331825039
 10
3.8864493123
 20
-15.7795753156
 10
3.9056934341
 20
-16.2258296367
 10
3.9274826671
 20
-16.6705707301
 10
3.9518162083
 20
-17.1137814091
 10
3.9786931394
 20
-17.5554445296
 10
4.0081123534
 20
-17.995542974
 10
4.0400727617
 20
-18.4340597322
 10
4.0745731613
 20
-18.8709778558
 10
4.1116121326
 20
-19.3062804148
 10
4.1511883033
 20
-19.7399505999
 10
4.1933001853
 20
-20.1719716453
 10
4.2379460443
 20
-20.6023267833
 10
4.2851242226
 20
-21.0309993932
 10
4.3348329492
 20
-21.4579729164
 10
4.3870701776
 20
-21.8832307785
 10
4.441833894
 20
-22.30675653
 10
4.4991221169
 20
-22.7285338481
 10
4.5589327069
 20
-23.1485464505
  0
LWPOLYLINE
  5
43A
100
AcDbEntity
  8
0
100
AcDbPolyline
 62
250
  6
CONTINUOUS
 90
22
 70
0
 10
4.5294264341
 20
-13.9790522629
 10
4.5384357924
 20
-14.4287037247
 10
4.549977945
 20
-14.8768852164
 10
4.5640528919
 20
-15.323596738
 10
4.5806613727
 20
-15.7688555021
 10
4.5998026478
 20
-16.2126442961
 10
4.6214744986
 20
-16.6549114825
 10
4.6456772175
 20
-17.0956568414
 10
4.672410512
 20
-17.5348805927
 10
4.7016712856
 20
-17.9725317591
 10
4.7334598309
 20
-18.4086101533
 10
4.7677758552
 20
-18.8431159625
 10
4.8046153845
 20
-19.2759987712
 10
4.8439787115
 20
-19.7072583967
 10
4.8858655434
 20
-20.1368950217
 10
4.9302710274
 20
-20.5648587797
 10
4.9771954595
 20
-20.9911495046
 10
5.0266385438
 20
-21.4157673624
 10
5.0785945391
 20
-21.838662985
 10
5.1330615319
 20
-22.2598199161
 10
5.1900414358
 20
-22.6792546119
 10
5.2495342509
 20
-23.0969670724
  0
LWPOLYLINE
  5
43B
100
AcDbEntity
  8
0
100
AcDbPolyline
 62
250
  6
CONTINUOUS
 90
21
 70
0
 10
3.7689777424
 20
-5.9745722271
 10
3.7690873211
 20
-5.9810506405
 10
3.7694237708
 20
-5.9873877414
 10
3.7699865513
 20
-5.9935733561
 10
3.770774759
 20
-5.9995975537
 10
3.7717871286
 20
-6.0054506625
 10
3.7730220346
 20
-6.0111232856
 10
3.7744774946
 20
-6.0166063157
 10
3.7761511718
 20
-6.0218909502
 10
3.7780403791
 20
-6.0269687046
 10
3.7801420836
 20
-6.0318314269
 10
3.782452911
 20
-6.03647131
 10
3.7849691514
 20
-6.040880905
 10
3.7876867649
 20
-6.0450531322
 10
3.7906013887
 20
-6.0489812933
 10
3.7937083433
 20
-6.0526590819
 10
3.7970026406
 20
-6.0560805934
 10
3.8004789918
 20
-6.0592403346
 10
3.8041318157
 20
-6.0621332327
 10
3.8079552479
 20
-6.0647546433
 10
3.810392252
 20
-6.0662321754
  0
LWPOLYLINE
  5
43C
100
AcDbEntity
  8
0
100
AcDbPolyline
 62
250
  6
CONTINUOUS
 90
10
 70
0
 10
3.76897577
 20
-6.5430688729
 10
3.7702515932
 20
-7.3726873321
 10
3.7730407433
 20
-8.2014822158
 10
3.7773431888
 20
-9.0294501078
 10
3.7831587989
 20
-9.8565849083
 10
3.7904876139
 20
-10.6828859007
 10
3.7993298917
 20
-11.5083577238
 10
3.809685726
 20
-12.3329996295
 10
3.8215549992
 20
-13.1568055103
 10
3.8349376857
 20
-13.9797719464
  0
LWPOLYLINE
  5
43D
100
AcDbEntity
  8
0
100
AcDbPolyline
 62
250
  6
CONTINUOUS
 90
10
 70
0
 10
4.463531152
 20
-6.5478928208
 10
4.4648010535
 20
-7.3768982815
 10
4.4675839673
 20
-8.205074103
 10
4.4718798932
 20
-9.0324202853
 10
4.4776889155
 20
-9.858937669
 10
4.48501095
 20
-10.6846254134
 10
4.4938457443
 20
-11.5094809972
 10
4.5041932144
 20
-12.3335035798
 10
4.5160534443
 20
-13.1566940017
 10
4.5294264341
 20
-13.9790522629
  0
LWPOLYLINE
  5
43E
100
AcDbEntity
  8
0
100
AcDbPolyline
 62
250
  6
CONTINUOUS
 90
10
 70
0
 10
3.8349376857
 20
1.5331633127
 10
3.8215549992
 20
0.6957847917
 10
3.809685726
 20
-0.1408033517
 10
3.7993298917
 20
-0.9765976679
 10
3.7904876139
 20
-1.8115920821
 10
3.7831587989
 20
-2.645785786
 10
3.7773431888
 20
-3.4791832116
 10
3.7730407433
 20
-4.3117835206
 10
3.7702515932
 20
-5.1435806304
 10
3.76897577
 20
-5.9745710883
  0
LWPOLYLINE
  5
43F
100
AcDbEntity
  8
0
100
AcDbPolyline
 62
250
  6
CONTINUOUS
 90
10
 70
0
 10
4.5294264341
 20
1.5183700609
 10
4.5160534443
 20
0.6816111619
 10
4.5041932144
 20
-0.1543508898
 10
4.4938457443
 20
-0.9895160943
 10
4.48501095
 20
-1.8238853826
 10
4.4776889155
 20
-2.6574578237
 10
4.4718798932
 20
-3.4902306242
 10
4.4675839673
 20
-4.3222028531
 10
4.4648010535
 20
-5.1533754415
 10
4.463531152
 20
-5.9837483893
  0
LWPOLYLINE
  5
440
100
AcDbEntity
  8
0
100
AcDbPolyline
 62
250
  6
CONTINUOUS
 90
40
 70
0
 10
3.7689777424
 20
-6.5430700118
 10
3.7690873211
 20
-6.5364650603
 10
3.7694237707
 20
-6.5297394362
 10
3.7699865511
 20
-6.5229039374
 10
3.7707747587
 20
-6.515969538
 10
3.7717871281
 20
-6.5089473708
 10
3.7730220339
 20
-6.5018487098
 10
3.7744774936
 20
-6.4946849516
 10
3.7761511706
 20
-6.4874675972
 10
3.7780403776
 20
-6.4802082341
 10
3.7801420818
 20
-6.4729185167
 10
3.7824529089
 20
-6.4656101484
 10
3.7849691489
 20
-6.4582948627
 10
3.7876867621
 20
-6.4509844038
 10
3.7906013855
 20
-6.4436905086
 10
3.7937083398
 20
-6.436424887
 10
3.7970026368
 20
-6.4291992037
 10
3.8004789877
 20
-6.4220250595
 10
3.8041318113
 20
-6.4149139719
 10
3.8079552431
 20
-6.4078773578
 10
3.8119431449
 20
-6.4009265141
 10
3.816089114
 20
-6.3940726
 10
3.8203864944
 20
-6.3873266194
 10
3.8248283867
 20
-6.3806994027
 10
3.8294076597
 20
-6.3742015896
 10
3.8341169614
 20
-6.3678436122
 10
3.8389487314
 20
-6.3616356778
 10
3.8438952122
 20
-6.3555877532
 10
3.8489484626
 20
-6.3497095481
 10
3.8541003697
 20
-6.3440104997
 10
3.8593426624
 20
-6.3384997577
 10
3.8646669242
 20
-6.3331861692
 10
3.8700646074
 20
-6.3280782652
 10
3.8755270461
 20
-6.3231842462
 10
3.8810454705
 20
-6.3185119693
 10
3.8866110211
 20
-6.3140689357
 10
3.8922147625
 20
-6.3098622785
 10
3.8978476982
 20
-6.3058987514
 10
3.9035007846
 20
-6.3021847177
 10
3.909164946
 20
-6.2987261401
  0
LWPOLYLINE
  5
441
100
AcDbEntity
  8
0
100
AcDbPolyline
 62
250
  6
CONTINUOUS
 90
21
 70
0
 10
4.4635290505
 20
-5.9837495003
 10
4.4633671173
 20
-5.9902823494
 10
4.4629842917
 20
-5.9966676732
 10
4.4623811944
 20
-6.0028951188
 10
4.4615588031
 20
-6.0089545891
 10
4.4605184514
 20
-6.0148362594
 10
4.459261826
 20
-6.0205305935
 10
4.4577909644
 20
-6.0260283585
 10
4.4561082513
 20
-6.0313206407
 10
4.4542164152
 20
-6.0363988592
 10
4.4521185233
 20
-6.0412547802
 10
4.4498179772
 20
-6.0458805307
 10
4.4473185068
 20
-6.0502686104
 10
4.4446241649
 20
-6.0544119046
 10
4.4417393198
 20
-6.0583036956
 10
4.4386686491
 20
-6.0619376732
 10
4.4354171314
 20
-6.0653079455
 10
4.4319900387
 20
-6.0684090479
 10
4.4283929275
 20
-6.0712359524
 10
4.4246316301
 20
-6.0737840756
 10
4.4206105669
 20
-6.0761031694
  0
LWPOLYLINE
  5
442
100
AcDbEntity
  8
0
100
AcDbPolyline
 62
250
  6
CONTINUOUS
 90
22
 70
0
 10
5.2495342509
 20
11.4117294064
 10
5.1900414358
 20
10.9299524026
 10
5.1330615319
 20
10.4491591795
 10
5.0785945391
 20
9.9693497369
 10
5.0266385438
 20
9.4905055581
 10
4.9771954595
 20
9.0126451599
 10
4.9302710274
 20
8.5358240927
 10
4.8858655434
 20
8.0600425091
 10
4.8439787115
 20
7.5853002566
 10
4.8046153845
 20
7.1116524275
 10
4.7677758552
 20
6.6390991541
 10
4.7334598309
 20
6.1676403041
 10
4.7016712856
 20
5.6973305724
 10
4.672410512
 20
5.2281700869
 10
4.6456772175
 20
4.7601587198
 10
4.6214744986
 20
4.2933507829
 10
4.5998026478
 20
3.8277463713
 10
4.5806613727
 20
3.36334539
 10
4.5640528919
 20
2.9002018657
 10
4.549977945
 20
2.4383338071
 10
4.5384357924
 20
1.9777232056
 10
4.5294264341
 20
1.5183700609
  0
LINE
  5
443
100
AcDbEntity
  8
0
100
AcDbLine
 62
7
  6
CONTINUOUS
 10
-1.3176675442
 20
-15.1951513657
 11
-1.3200178657
 21
-15.201039419
  0
LWPOLYLINE
  5
444
100
AcDbEntity
  8
0
100
AcDbPolyline
 62
7
  6
CONTINUOUS
 90
12
 70
0
 10
-0.8728437265
 20
-13.3890712423
 10
-0.8755334146
 20
-13.3949460923
 10
-0.8784594624
 20
-13.4005571897
 10
-0.8816219158
 20
-13.4059021624
 10
-0.885020801
 20
-13.410983428
 10
-0.8886428705
 20
-13.4157866749
 10
-0.8924896552
 20
-13.4203145157
 10
-0.8965597029
 20
-13.4245643876
 10
-0.9008353055
 20
-13.4285142247
 10
-0.9053105936
 20
-13.4321566928
 10
-0.9099915279
 20
-13.4354991839
 10
-0.9148781512
 20
-13.4385417253
  0
LWPOLYLINE
  5
445
100
AcDbEntity
  8
0
100
AcDbPolyline
 62
7
  6
CONTINUOUS
 90
4
 70
0
 10
-1.3199988272
 20
-15.2009951463
 10
-1.3226034753
 20
-15.2066339183
 10
-1.3254594319
 20
-15.2120228072
 10
-1.3285558827
 20
-15.2171419465
  0
LINE
  5
446
100
AcDbEntity
  8
0
100
AcDbLine
 62
7
  6
CONTINUOUS
 10
-2.2922519964
 20
-11.2616719813
 11
-2.2885684799
 21
-11.2564308072
  0
LWPOLYLINE
  5
447
100
AcDbEntity
  8
0
100
AcDbPolyline
 62
7
  6
CONTINUOUS
 90
4
 70
0
 10
-3.4516636208
 20
-11.6918743996
 10
-3.4480076318
 20
-11.6867416024
 10
-3.4441112682
 20
-11.6819110385
 10
-3.4399758789
 20
-11.6773852761
  0
LINE
  5
448
100
AcDbEntity
  8
0
100
AcDbLine
 62
7
  6
CONTINUOUS
 10
-6.1374867643
 20
-8.5531503239
 11
-6.1560678873
 21
-8.5661139179
  0
LWPOLYLINE
  5
449
100
AcDbEntity
  8
0
100
AcDbPolyline
 62
7
  6
CONTINUOUS
 90
3
 70
0
 10
-6.1560673753
 20
-8.5661135607
 10
-6.1550899819
 20
-8.5654413437
 10
-6.1505037293
 20
-8.562510961
  0
LWPOLYLINE
  5
44A
100
AcDbEntity
  8
0
100
AcDbPolyline
 62
7
  6
CONTINUOUS
 90
5
 70
0
 10
-6.1560702103
 20
-8.5661141607
 10
-6.1523448487
 20
-8.5636430262
 10
-6.1470691738
 20
-8.5605533777
 10
-6.141594174
 20
-8.5578044126
 10
-6.1359198989
 20
-8.5553961609
  0
LINE
  5
44B
100
AcDbEntity
  8
0
100
AcDbLine
 62
250
  6
CONTINUOUS
 10
-0.2279703317
 20
-4.5005383384
 11
-0.522964913
 21
-4.6768614808
  0
LWPOLYLINE
  5
44C
100
AcDbEntity
  8
0
100
AcDbPolyline
 62
250
  6
CONTINUOUS
 90
29
 70
0
 10
-0.2717180106
 20
-4.7009157164
 10
-0.273914389
 20
-4.7022053747
 10
-0.2812698845
 20
-4.7062040429
 10
-0.2888298005
 20
-4.7098318606
 10
-0.2965886376
 20
-4.7130861483
 10
-0.3045406292
 20
-4.7159642895
 10
-0.3126783063
 20
-4.7184633896
 10
-0.3209933127
 20
-4.720580939
 10
-0.3294783127
 20
-4.7223152014
 10
-0.3381261959
 20
-4.7236648577
 10
-0.3469285513
 20
-4.7246288886
 10
-0.3558760207
 20
-4.7252066485
 10
-0.3649625473
 20
-4.7253981204
 10
-0.3741846143
 20
-4.7252033648
 10
-0.3835346479
 20
-4.7246222651
 10
-0.3930045366
 20
-4.7236550486
 10
-0.4025900973
 20
-4.7223018453
 10
-0.4122865684
 20
-4.7205624583
 10
-0.4220826351
 20
-4.7184380623
 10
-0.4319640626
 20
-4.7159316322
 10
-0.4419233439
 20
-4.7130450043
 10
-0.4519509396
 20
-4.7097808962
 10
-0.4620291018
 20
-4.7061458524
 10
-0.4721490169
 20
-4.7021439985
 10
-0.482301873
 20
-4.6977797779
 10
-0.4924696245
 20
-4.6930627188
 10
-0.5026403363
 20
-4.6880005303
 10
-0.512808322
 20
-4.6825979583
 10
-0.5229649068
 20
-4.6768614771
  0
LWPOLYLINE
  5
44D
100
AcDbEntity
  8
0
100
AcDbPolyline
 62
7
  6
CONTINUOUS
 90
4
 70
0
 10
-6.1505037293
 20
-8.562510961
 10
-6.1457848451
 20
-8.5598629803
 10
-6.1409235558
 20
-8.5574913727
 10
-6.1359198988
 20
-8.5553961608
  0
LINE
  5
44E
100
AcDbEntity
  8
0
100
AcDbLine
 62
7
  6
CONTINUOUS
 10
-2.20283752
 20
5.2873285445
 11
-2.2092425161
 21
5.2858732849
  0
LWPOLYLINE
  5
44F
100
AcDbEntity
  8
0
100
AcDbPolyline
 62
7
  6
CONTINUOUS
 90
3
 70
0
 10
-2.2092302267
 20
5.2858757029
 10
-2.2157827749
 20
5.2847770398
 10
-2.2224673295
 20
5.2840389809
  0
LINE
  5
450
100
AcDbEntity
  8
0
100
AcDbLine
 62
7
  6
CONTINUOUS
 10
-2.2224823633
 20
5.2840377425
 11
-2.229305087
 21
5.2836623517
  0
LWPOLYLINE
  5
451
100
AcDbEntity
  8
0
100
AcDbPolyline
 62
7
  6
CONTINUOUS
 90
3
 70
0
 10
-2.2292897805
 20
5.283662878
 10
-2.2362443232
 20
5.2836473322
 10
-2.2432960367
 20
5.2839919408
  0
LWPOLYLINE
  5
452
100
AcDbEntity
  8
0
100
AcDbPolyline
 62
7
  6
CONTINUOUS
 90
6
 70
0
 10
-2.2433110492
 20
5.283993053
 10
-2.2504537975
 20
5.2846997688
 10
-2.2576939729
 20
5.2857666157
 10
-2.265016246
 20
5.2871897268
 10
-2.2724258826
 20
5.2889702964
 10
-2.2799176723
 20
5.2911070997
  0
LWPOLYLINE
  5
453
100
AcDbEntity
  8
0
100
AcDbPolyline
 62
7
  6
CONTINUOUS
 90
5
 70
0
 10
-2.2798982391
 20
5.2911011
 10
-2.2874396325
 20
5.2935852908
 10
-2.2950288705
 20
5.2964172003
 10
-2.3026692971
 20
5.299597736
 10
-2.3103401818
 20
5.3031222028
  0
LINE
  5
454
100
AcDbEntity
  8
0
100
AcDbLine
 62
7
  6
CONTINUOUS
 10
-2.2874605676
 20
5.2935926442
 11
-2.2950514057
 21
5.2964261511
  0
LINE
  5
455
100
AcDbEntity
  8
0
100
AcDbLine
 62
7
  6
CONTINUOUS
 10
-2.7768070297
 20
6.7507561418
 11
-1.1001060316
 21
5.7826499995
  0
LINE
  5
456
100
AcDbEntity
  8
0
100
AcDbLine
 62
7
  6
CONTINUOUS
 10
-2.7594152659
 20
7.2517442635
 11
-1.0827142678
 21
6.2836381212
  0
LWPOLYLINE
  5
457
100
AcDbEntity
  8
0
100
AcDbPolyline
 62
7
  6
CONTINUOUS
 90
3
 70
0
 10
-1.0827142706
 20
6.2836381228
 10
-1.0749725345
 20
6.2789897476
 10
-1.0672852838
 20
6.2740413448
  0
LINE
  5
458
100
AcDbEntity
  8
0
100
AcDbLine
 62
7
  6
CONTINUOUS
 10
-1.0672810416
 20
6.274038614
 11
-1.0596397862
 21
6.2687847248
  0
LWPOLYLINE
  5
459
100
AcDbEntity
  8
0
100
AcDbPolyline
 62
7
  6
CONTINUOUS
 90
12
 70
0
 10
-1.0596761294
 20
6.26881054
 10
-1.052081866
 20
6.2632510492
 10
-1.0445356126
 20
6.257388038
 10
-1.0370701744
 20
6.2512512251
 10
-1.0296890325
 20
6.2448446993
 10
-1.0223886646
 20
6.2381643935
 10
-1.0151913666
 20
6.2312277946
 10
-1.0080944883
 20
6.2240305703
 10
-1.0011006194
 20
6.2165770846
 10
-0.994239913
 20
6.2088978708
 10
-0.9875187845
 20
6.2009967152
 10
-0.9809307424
 20
6.1928698714
  0
LWPOLYLINE
  5
45A
100
AcDbEntity
  8
0
100
AcDbPolyline
 62
7
  6
CONTINUOUS
 90
3
 70
0
 10
-1.6063394978
 20
8.3189989552
 10
-1.613737692
 20
8.3249179192
 10
-1.6210621746
 20
8.3311254472
  0
LINE
  5
45B
100
AcDbEntity
  8
0
100
AcDbLine
 62
7
  6
CONTINUOUS
 10
-2.1601470706
 20
8.0964994812
 11
-2.153157623
 21
8.0892738293
  0
LWPOLYLINE
  5
45C
100
AcDbEntity
  8
0
100
AcDbPolyline
 62
7
  6
CONTINUOUS
 90
9
 70
0
 10
-2.1531478712
 20
8.0892634624
 10
-2.1462810032
 20
8.0817982249
 10
-2.1395318156
 20
8.07408858
 10
-2.1329049158
 20
8.0661397271
 10
-2.1264219319
 20
8.0579760251
 10
-2.1200847472
 20
8.0496004547
 10
-2.1138913925
 20
8.0410100789
 10
-2.1078577154
 20
8.0322203811
 10
-2.1019776729
 20
8.0232173664
  0
LINE
  5
45D
100
AcDbEntity
  8
0
100
AcDbLine
 62
7
  6
CONTINUOUS
 10
-1.6695898955
 20
8.3821837053
 11
-1.6760371103
 21
8.3904542245
  0
LINE
  5
45E
100
AcDbEntity
  8
0
100
AcDbLine
 62
7
  6
CONTINUOUS
 10
-3.1665269463
 20
11.6714592259
 11
-3.1597844589
 21
11.6616311864
  0
LINE
  5
45F
100
AcDbEntity
  8
0
100
AcDbLine
 62
7
  6
CONTINUOUS
 10
-3.1605399088
 20
11.6627617407
 11
-3.1544029806
 21
11.6533455243
  0
LWPOLYLINE
  5
460
100
AcDbEntity
  8
0
100
AcDbPolyline
 62
250
  6
CONTINUOUS
 90
49
 70
0
 10
5.5921952852
 20
11.9430409061
 10
5.5913880628
 20
11.9561404271
 10
5.590217401
 20
11.9694515189
 10
5.5886845504
 20
11.9829599609
 10
5.5867911486
 20
11.9966513215
 10
5.5845392184
 20
12.0105109738
 10
5.5819311657
 20
12.024524111
 10
5.5789697767
 20
12.0386757623
 10
5.5756582151
 20
12.052950809
 10
5.5720000189
 20
12.0673340006
 10
5.5679990962
 20
12.081809971
 10
5.5636597213
 20
12.096363255
 10
5.5589865302
 20
12.1109783048
 10
5.5539845154
 20
12.1256395065
 10
5.5486590206
 20
12.1403311971
 10
5.5430157354
 20
12.155037681
 10
5.5370606886
 20
12.1697432467
 10
5.5308002423
 20
12.1844321836
 10
5.5242410847
 20
12.199088799
 10
5.5173902232
 20
12.2136974348
 10
5.5102549768
 20
12.228242484
 10
5.5028429683
 20
12.2427084076
 10
5.4951621163
 20
12.2570797512
 10
5.4872206265
 20
12.2713411612
 10
5.4790269831
 20
12.2854774017
 10
5.4705899397
 20
12.2994733705
 10
5.4619185097
 20
12.3133141152
 10
5.4530219574
 20
12.3269848491
 10
5.4439097871
 20
12.3404709673
 10
5.4345917337
 20
12.3537580622
 10
5.425077752
 20
12.3668319386
 10
5.4153780062
 20
12.3796786292
 10
5.4055028589
 20
12.3922844094
 10
5.39546286
 20
12.404635812
 10
5.3852687357
 20
12.4167196416
 10
5.3749313767
 20
12.4285229885
 10
5.3644618267
 20
12.4400332428
 10
5.3538712708
 20
12.4512381077
 10
5.3431710233
 20
12.4621256126
 10
5.3323725155
 20
12.472684126
 10
5.3214872841
 20
12.4829023679
 10
5.310526958
 20
12.4927694216
 10
5.2995032465
 20
12.5022747459
 10
5.2884279268
 20
12.5114081859
 10
5.277312831
 20
12.520159984
 10
5.2661698337
 20
12.5285207903
 10
5.2550108394
 20
12.5364816727
 10
5.2438477696
 20
12.5440341263
 10
5.2326925504
 20
12.5511700825
  0
LWPOLYLINE
  5
461
100
AcDbEntity
  8
0
100
AcDbPolyline
 62
250
  6
CONTINUOUS
 90
27
 70
0
 10
5.5921952852
 20
-23.2592857345
 10
5.5913880628
 20
-23.2728327958
 10
5.5902174008
 20
-23.2861398187
 10
5.5886845501
 20
-23.2991925868
 10
5.5867911481
 20
-23.3119771554
 10
5.5845392178
 20
-23.3244798662
 10
5.5819311648
 20
-23.3366873621
 10
5.5789697756
 20
-23.3485866015
 10
5.5756582138
 20
-23.3601648719
 10
5.5720000172
 20
-23.3714098038
 10
5.5679990942
 20
-23.3823093839
 10
5.563659719
 20
-23.3928519678
 10
5.5589865276
 20
-23.4030262924
 10
5.5539845124
 20
-23.4128214881
 10
5.5486590173
 20
-23.4222270904
 10
5.5430157318
 20
-23.4312330509
 10
5.5370606847
 20
-23.4398297482
 10
5.5308002381
 20
-23.4480079982
 10
5.5242410802
 20
-23.4557590637
 10
5.5173902184
 20
-23.463074664
 10
5.5102549717
 20
-23.4699469836
 10
5.502842963
 20
-23.4763686805
 10
5.4951621108
 20
-23.4823328941
 10
5.4872206208
 20
-23.4878332528
 10
5.4790269773
 20
-23.4928638802
 10
5.4705899337
 20
-23.497419402
 10
5.4675437058
 20
-23.4989186401
  0
LWPOLYLINE
  5
462
100
AcDbEntity
  8
0
100
AcDbPolyline
 62
7
  6
CONTINUOUS
 90
4
 70
0
 10
-1.3254533757
 20
-15.2120144034
 10
-1.3285307131
 20
-15.2171029417
 10
-1.3318461256
 20
-15.2219267068
 10
-1.335398813
 20
-15.2264826977
  0
LWPOLYLINE
  5
463
100
AcDbEntity
  8
0
100
AcDbPolyline
 62
7
  6
CONTINUOUS
 90
3
 70
0
 10
-2.2846401015
 20
-11.2514846694
 10
-2.2804760591
 20
-11.2468457014
 10
-2.2760710306
 20
-11.2425107835
  0
LWPOLYLINE
  5
464
100
AcDbEntity
  8
0
100
AcDbPolyline
 62
7
  6
CONTINUOUS
 90
3
 70
0
 10
-3.435600205
 20
-11.6731618038
 10
-3.4309948513
 20
-11.6692575589
 10
-3.4264602691
 20
-11.6658825508
  0
LINE
  5
465
100
AcDbEntity
  8
0
100
AcDbLine
 62
7
  6
CONTINUOUS
 10
-3.9650235259
 20
-7.7060075513
 11
-3.7361225712
 21
-7.6163314199
  0
LINE
  5
466
100
AcDbEntity
  8
0
100
AcDbLine
 62
7
  6
CONTINUOUS
 10
-4.422494994
 20
-7.8851708416
 11
-3.9650235259
 21
-7.7060075513
  0
LWPOLYLINE
  5
467
100
AcDbEntity
  8
0
100
AcDbPolyline
 62
7
  6
CONTINUOUS
 90
3
 70
0
 10
-5.1078761211
 20
-8.1534423361
 10
-4.8795259423
 20
-8.0640816053
 10
-4.422494994
 20
-7.8851708416
  0
LINE
  5
468
100
AcDbEntity
  8
0
100
AcDbLine
 62
7
  6
CONTINUOUS
 10
-3.5928599832
 20
-8.2000136299
 11
-4.4486211068
 21
-8.5349755577
  0
LINE
  5
469
100
AcDbEntity
  8
0
100
AcDbLine
 62
7
  6
CONTINUOUS
 10
-5.5642457568
 20
-8.331974445
 11
-5.1078761211
 21
-8.1534423361
  0
LINE
  5
46A
100
AcDbEntity
  8
0
100
AcDbLine
 62
7
  6
CONTINUOUS
 10
-4.4486211068
 20
-8.5349755577
 11
-4.7904924912
 21
-8.6687123699
  0
LINE
  5
46B
100
AcDbEntity
  8
0
100
AcDbLine
 62
7
  6
CONTINUOUS
 10
-4.7904924912
 20
-8.6687123699
 11
-5.1321163258
 21
-8.8023073438
  0
LINE
  5
46C
100
AcDbEntity
  8
0
100
AcDbLine
 62
7
  6
CONTINUOUS
 10
-6.1359198989
 20
-8.5553961609
 11
-5.5642457568
 21
-8.331974445
  0
LINE
  5
46D
100
AcDbEntity
  8
0
100
AcDbLine
 62
7
  6
CONTINUOUS
 10
-5.1321163258
 20
-8.8023073438
 11
-5.3485714274
 21
-8.8868894713
  0
LWPOLYLINE
  5
46E
100
AcDbEntity
  8
0
100
AcDbPolyline
 62
7
  6
CONTINUOUS
 90
3
 70
0
 10
-5.3485714274
 20
-8.8868894713
 10
-5.7080885659
 20
-9.0271508724
 10
-5.7798056251
 20
-9.0550966183
  0
LINE
  5
46F
100
AcDbEntity
  8
0
100
AcDbLine
 62
7
  6
CONTINUOUS
 10
-3.7361225692
 20
-7.6163314192
 11
-3.7305227275
 21
-7.6142966202
  0
LWPOLYLINE
  5
470
100
AcDbEntity
  8
0
100
AcDbPolyline
 62
7
  6
CONTINUOUS
 90
12
 70
0
 10
-3.7307004606
 20
-7.614375488
 10
-3.7246882089
 20
-7.612592601
 10
-3.7186190199
 20
-7.6112193652
 10
-3.7122922671
 20
-7.6101689073
 10
-3.7057308557
 20
-7.6094492398
 10
-3.6990034916
 20
-7.6090843953
 10
-3.6921123519
 20
-7.6090825061
 10
-3.6850552737
 20
-7.6094354482
 10
-3.6778944553
 20
-7.6101428706
 10
-3.6706256289
 20
-7.6112121146
 10
-3.663253075
 20
-7.6126358465
 10
-3.6558518153
 20
-7.6143917024
  0
LWPOLYLINE
  5
471
100
AcDbEntity
  8
0
100
AcDbPolyline
 62
7
  6
CONTINUOUS
 90
5
 70
0
 10
-2.2813507178
 20
8.1730194567
 10
-2.2737791368
 20
8.1707331527
 10
-2.2661408084
 20
8.1680871853
 10
-2.2584637721
 20
8.1650887758
 10
-2.2507453431
 20
8.1617364973
  0
LWPOLYLINE
  5
472
100
AcDbEntity
  8
0
100
AcDbPolyline
 62
7
  6
CONTINUOUS
 90
3
 70
0
 10
-2.2507437878
 20
8.1617359216
 10
-2.2429870338
 20
8.1580312428
 10
-2.2352277925
 20
8.1539856346
  0
LINE
  5
473
100
AcDbEntity
  8
0
100
AcDbLine
 62
7
  6
CONTINUOUS
 10
-1.5606679095
 20
8.2897420551
 11
-1.5683783864
 21
8.2938298516
  0
LWPOLYLINE
  5
474
100
AcDbEntity
  8
0
100
AcDbPolyline
 62
7
  6
CONTINUOUS
 90
3
 70
0
 10
-2.2352285702
 20
8.1539860572
 10
-2.2274580488
 20
8.1495908329
 10
-2.219684981
 20
8.1448546339
  0
LINE
  5
475
100
AcDbEntity
  8
0
100
AcDbLine
 62
7
  6
CONTINUOUS
 10
-1.5760712043
 20
8.2982503926
 11
-1.5837166962
 21
8.3029799443
  0
LWPOLYLINE
  5
476
100
AcDbEntity
  8
0
100
AcDbPolyline
 62
7
  6
CONTINUOUS
 90
9
 70
0
 10
-2.2196849816
 20
8.1448547185
 10
-2.2119701844
 20
8.1398144221
 10
-2.2043250193
 20
8.1344740485
 10
-2.1967376871
 20
8.1288293109
 10
-2.1892331393
 20
8.1229038987
 10
-2.1818090185
 20
8.1166948618
 10
-2.1744676457
 20
8.1102051688
 10
-2.1672409857
 20
8.1034673891
 10
-2.1601370989
 20
8.0964894554
  0
LINE
  5
477
100
AcDbEntity
  8
0
100
AcDbLine
 62
7
  6
CONTINUOUS
 10
-3.2354402445
 20
11.747358289
 11
-3.2275757895
 21
11.7405502445
  0
LINE
  5
478
100
AcDbEntity
  8
0
100
AcDbLine
 62
7
  6
CONTINUOUS
 10
-3.2281418928
 20
11.7410556294
 11
-3.2208944203
 21
11.7344307789
  0
LINE
  5
479
100
AcDbEntity
  8
0
100
AcDbLine
 62
7
  6
CONTINUOUS
 10
-3.2208910142
 20
11.7344269262
 11
-3.2136807099
 21
11.7274650282
  0
LWPOLYLINE
  5
47A
100
AcDbEntity
  8
0
100
AcDbPolyline
 62
7
  6
CONTINUOUS
 90
8
 70
0
 10
-3.2143056214
 20
11.728088543
 10
-3.206517824
 20
11.7201771119
 10
-3.1994791104
 20
11.7126321152
 10
-3.1925689691
 20
11.7048270321
 10
-3.1857829289
 20
11.6967649017
 10
-3.179181033
 20
11.6885198761
 10
-3.1727619571
 20
11.6800809802
 10
-3.1665269463
 20
11.6714592259
  0
LWPOLYLINE
  5
47B
100
AcDbEntity
  8
0
100
AcDbPolyline
 62
7
  6
CONTINUOUS
 90
8
 70
0
 10
-3.2078299144
 20
11.7215474773
 10
-3.2014535474
 20
11.7147913664
 10
-3.1951736631
 20
11.707817237
 10
-3.1889792425
 20
11.7006151321
 10
-3.1828812479
 20
11.6931950349
 10
-3.1769097913
 20
11.685583884
 10
-3.1710625352
 20
11.6777772399
 10
-3.1653417498
 20
11.6697795732
  0
LINE
  5
47C
100
AcDbEntity
  8
0
100
AcDbLine
 62
7
  6
CONTINUOUS
 10
7.7302728445
 20
13.2192465646
 11
8.2815687054
 21
6.4856574355
  0
LINE
  5
47D
100
AcDbEntity
  8
0
100
AcDbLine
 62
7
  6
CONTINUOUS
 10
8.2815687054
 20
-4.4550007581
 11
8.2815687054
 21
-14.9058638165
  0
LINE
  5
47E
100
AcDbEntity
  8
0
100
AcDbLine
 62
7
  6
CONTINUOUS
 10
8.2815687054
 20
-3.9652056228
 11
8.2815687054
 21
6.4856574355
  0
LINE
  5
47F
100
AcDbEntity
  8
0
100
AcDbLine
 62
7
  6
CONTINUOUS
 10
-2.2665795567
 20
-11.2347842039
 11
-2.2657835057
 21
-11.2342227376
  0
LWPOLYLINE
  5
480
100
AcDbEntity
  8
0
100
AcDbPolyline
 62
7
  6
CONTINUOUS
 90
9
 70
0
 10
-2.2657835057
 20
-11.2342227376
 10
-2.2615217907
 20
-11.2314185886
 10
-2.2562538595
 20
-11.2283818423
 10
-2.2507911223
 20
-11.2256822564
 10
-2.2451277927
 20
-11.2233184991
 10
-2.2392697538
 20
-11.2212919612
 10
-2.2332498767
 20
-11.2196150218
 10
-2.2270735482
 20
-11.2182907044
 10
-2.2207354791
 20
-11.2173160451
  0
LWPOLYLINE
  5
481
100
AcDbEntity
  8
0
100
AcDbPolyline
 62
7
  6
CONTINUOUS
 90
22
 70
0
 10
-3.426460288
 20
-11.665882564
 10
-3.4210892525
 20
-11.6624094218
 10
-3.4158220035
 20
-11.65948266
 10
-3.4103634654
 20
-11.6569045308
 10
-3.4047108512
 20
-11.6546685068
 10
-3.3988915576
 20
-11.6527781279
 10
-3.3929070003
 20
-11.6512338307
 10
-3.3867558631
 20
-11.6500352413
 10
-3.3804614482
 20
-11.6491846862
 10
-3.3740282033
 20
-11.6486812169
 10
-3.3674517705
 20
-11.6485258385
 10
-3.3607422445
 20
-11.6487238071
 10
-3.3538938277
 20
-11.6492784892
 10
-3.3469123936
 20
-11.6501865661
 10
-3.3398255429
 20
-11.6514432659
 10
-3.3326352214
 20
-11.6530495822
 10
-3.3253395434
 20
-11.6550045593
 10
-3.3179603591
 20
-11.6573004987
 10
-3.310494199
 20
-11.6599375013
 10
-3.3029445736
 20
-11.6629154921
 10
-3.2953437994
 20
-11.6662265067
 10
-3.2877026558
 20
-11.6698678948
  0
LINE
  5
482
100
AcDbEntity
  8
0
100
AcDbLine
 62
7
  6
CONTINUOUS
 10
-1.543486312
 20
-11.0154141278
 11
-1.5489106265
 21
-11.0187805706
  0
LINE
  5
483
100
AcDbEntity
  8
0
100
AcDbLine
 62
250
  6
CONTINUOUS
 10
8.1401042429
 20
-4.2100704105
 11
4.32589526
 21
-6.3008638075
  0
LINE
  5
484
100
AcDbEntity
  8
0
100
AcDbLine
 62
250
  6
CONTINUOUS
 10
8.2815687054
 20
-4.4550007581
 11
4.463531152
 21
-6.5478928208
  0
LWPOLYLINE
  5
485
100
AcDbEntity
  8
0
100
AcDbPolyline
 62
250
  6
CONTINUOUS
 90
52
 70
0
 10
4.32589526
 20
-6.3008638075
 10
4.3191891213
 20
-6.3044309682
 10
4.312315282
 20
-6.3078743889
 10
4.3052737421
 20
-6.3111940697
 10
4.2980575211
 20
-6.3143929589
 10
4.2906735995
 20
-6.3174681082
 10
4.2831429187
 20
-6.3204106721
 10
4.2754653512
 20
-6.3232201376
 10
4.2676410246
 20
-6.3258970178
 10
4.2596912631
 20
-6.3284340068
 10
4.2516157468
 20
-6.3308307122
 10
4.2434147955
 20
-6.3330875264
 10
4.2351106931
 20
-6.3351983212
 10
4.2267031765
 20
-6.3371626979
 10
4.2181925088
 20
-6.3389810552
 10
4.2096017621
 20
-6.340648461
 10
4.2009306894
 20
-6.3421645106
 10
4.1921795378
 20
-6.3435296089
 10
4.1833721215
 20
-6.3447400383
 10
4.1745083022
 20
-6.3457953751
 10
4.1655882182
 20
-6.3466960432
 10
4.1566360987
 20
-6.3474395962
 10
4.1476518485
 20
-6.348025607
 10
4.1386355628
 20
-6.3484545027
 10
4.1296117558
 20
-6.3487251183
 10
4.1205804235
 20
-6.3488370236
 10
4.11154157
 20
-6.3487906488
 10
4.1025197214
 20
-6.34858612
 10
4.0935149058
 20
-6.3482230068
 10
4.084527095
 20
-6.3477017396
 10
4.0755807312
 20
-6.3470237356
 10
4.0666759368
 20
-6.3461885687
 10
4.0578125893
 20
-6.345196665
 10
4.0490147627
 20
-6.3440507196
 10
4.0402826209
 20
-6.3427503106
 10
4.031616
 20
-6.3412958599
 10
4.0230384823
 20
-6.3396913289
 10
4.0145503395
 20
-6.3379363157
 10
4.0061512998
 20
-6.3360312222
 10
3.9978641307
 20
-6.333981216
 10
3.9896891185
 20
-6.3317859011
 10
3.9816259767
 20
-6.3294456735
 10
3.9736966139
 20
-6.3269668887
 10
3.9659013734
 20
-6.324349158
 10
3.9582399117
 20
-6.3215928702
 10
3.950733107
 20
-6.3187055472
 10
3.9433811364
 20
-6.3156866882
 10
3.9361838228
 20
-6.3125367939
 10
3.9291615123
 20
-6.3092648895
 10
3.922320987
 20
-6.3058739832
 10
3.9156554649
 20
-6.3023610668
 10
3.909164946
 20
-6.2987261401
  0
LINE
  5
486
100
AcDbEntity
  8
0
100
AcDbLine
 62
250
  6
CONTINUOUS
 10
4.463531152
 20
-5.9837483893
 11
8.2815687054
 21
-3.9652056228
  0
LINE
  5
487
100
AcDbEntity
  8
0
100
AcDbLine
 62
7
  6
CONTINUOUS
 10
4.4206066684
 20
-6.0761052307
 11
8.2379942607
 21
-4.0579060895
  0
LWPOLYLINE
  5
488
100
AcDbEntity
  8
0
100
AcDbPolyline
 62
250
  6
CONTINUOUS
 90
52
 70
0
 10
4.463531152
 20
-6.5478928284
 10
4.4523638783
 20
-6.5537943547
 10
4.440897939
 20
-6.5594985503
 10
4.4291437768
 20
-6.5650003231
 10
4.4171123315
 20
-6.570294716
 10
4.4048143256
 20
-6.5753770681
 10
4.3922602029
 20
-6.5802429761
 10
4.379461025
 20
-6.5848881826
 10
4.3664286935
 20
-6.589308399
 10
4.35317521
 20
-6.5934994465
 10
4.3397126647
 20
-6.5974575563
 10
4.3260532016
 20
-6.6011792154
 10
4.3122091962
 20
-6.6046609542
 10
4.2981932253
 20
-6.6078996598
 10
4.28401798
 20
-6.6108924529
 10
4.2696962382
 20
-6.613636538
 10
4.2552409381
 20
-6.6161294774
 10
4.240665235
 20
-6.6183690474
 10
4.2259824132
 20
-6.6203531137
 10
4.2112058142
 20
-6.6220799177
 10
4.1963488137
 20
-6.6235479448
 10
4.1814248768
 20
-6.6247557785
 10
4.1664475245
 20
-6.6257023638
 10
4.1514303527
 20
-6.626386886
 10
4.136387011
 20
-6.6268086435
 10
4.1213311742
 20
-6.6269672916
 10
4.1062764636
 20
-6.6268627313
 10
4.0912364658
 20
-6.626494983
 10
4.0762247876
 20
-6.6258644095
 10
4.0612550754
 20
-6.6249716199
 10
4.0463409355
 20
-6.6238173583
 10
4.0314959065
 20
-6.6224027013
 10
4.0167334374
 20
-6.6207289657
 10
4.0020669063
 20
-6.6187976094
 10
3.9875095896
 20
-6.6166104034
 10
3.9730747138
 20
-6.6141693651
 10
3.9587754331
 20
-6.6114766697
 10
3.9446247606
 20
-6.6085347921
 10
3.9306354787
 20
-6.6053464213
 10
3.9168201943
 20
-6.6019143897
 10
3.903191415
 20
-6.5982418173
 10
3.8897615231
 20
-6.5943320615
 10
3.876542687
 20
-6.5901886299
 10
3.863546833
 20
-6.585815267
 10
3.8507858134
 20
-6.5812159748
 10
3.8382713728
 20
-6.5763949667
 10
3.8260151383
 20
-6.5713567496
 10
3.8140279157
 20
-6.5661058009
 10
3.802319903
 20
-6.5606465566
 10
3.7909015418
 20
-6.5549838277
 10
3.7797834553
 20
-6.5491228361
 10
3.7689757702
 20
-6.5430688734
  0
LINE
  5
489
100
AcDbEntity
  8
0
100
AcDbLine
 62
7
  6
CONTINUOUS
 10
-2.3036367281
 20
8.1777132735
 11
-2.2962837998
 21
8.1765128648
  0
LINE
  5
48A
100
AcDbEntity
  8
0
100
AcDbLine
 62
7
  6
CONTINUOUS
 10
7.7302728445
 20
-22.2331131628
 11
8.2815687054
 21
-14.9058638165
  0
LINE
  5
48B
100
AcDbEntity
  8
0
100
AcDbLine
 62
7
  6
CONTINUOUS
 10
-1.335398813
 20
-15.2264826977
 11
-1.3392777364
 21
-15.2308612342
  0
LWPOLYLINE
  5
48C
100
AcDbEntity
  8
0
100
AcDbPolyline
 62
7
  6
CONTINUOUS
 90
3
 70
0
 10
-1.3391787111
 20
-15.2307562796
 10
-1.3432944264
 20
-15.2348495837
 10
-1.3475287
 20
-15.2385433808
  0
LWPOLYLINE
  5
48D
100
AcDbEntity
  8
0
100
AcDbPolyline
 62
7
  6
CONTINUOUS
 90
3
 70
0
 10
-1.3431865732
 20
-15.2347485769
 10
-1.3474217262
 20
-15.2384585188
 10
-1.3518719778
 20
-15.2418681862
  0
LWPOLYLINE
  5
48E
100
AcDbEntity
  8
0
100
AcDbPolyline
 62
7
  6
CONTINUOUS
 90
3
 70
0
 10
-2.1752114088
 20
-13.4723215912
 10
-2.1739439578
 20
-13.4714635375
 10
-2.1689126182
 20
-13.4683161533
  0
LINE
  5
48F
100
AcDbEntity
  8
0
100
AcDbLine
 62
7
  6
CONTINUOUS
 10
-2.1689126182
 20
-13.4683161533
 11
-1.5752760349
 21
-13.1254870928
  0
LINE
  5
490
100
AcDbEntity
  8
0
100
AcDbLine
 62
7
  6
CONTINUOUS
 10
-1.5487134679
 20
-11.0186742264
 11
-1.5541490949
 21
-11.0215962493
  0
LINE
  5
491
100
AcDbEntity
  8
0
100
AcDbLine
 62
7
  6
CONTINUOUS
 10
-1.5541375494
 20
-11.0215861778
 11
-1.5562675318
 21
-11.022615221
  0
LINE
  5
492
100
AcDbEntity
  8
0
100
AcDbLine
 62
7
  6
CONTINUOUS
 10
-1.5562675318
 20
-11.022615221
 11
-1.5597713993
 21
-11.024174489
  0
LWPOLYLINE
  5
493
100
AcDbEntity
  8
0
100
AcDbPolyline
 62
7
  6
CONTINUOUS
 90
18
 70
0
 10
-1.5595336569
 20
-11.0240739271
 10
-1.5655788165
 20
-11.0264109728
 10
-1.5715730103
 20
-11.028303733
 10
-1.5777370357
 20
-11.0298410742
 10
-1.584075142
 20
-11.0310206006
 10
-1.5905831743
 20
-11.0318447646
 10
-1.5972315849
 20
-11.0323091462
 10
-1.6040203394
 20
-11.032411886
 10
-1.610949558
 20
-11.032154895
 10
-1.6179899271
 20
-11.0315394094
 10
-1.6251400692
 20
-11.0305638233
 10
-1.6324014337
 20
-11.029229786
 10
-1.6397489453
 20
-11.0275434147
 10
-1.6471826705
 20
-11.0255053968
 10
-1.6547025966
 20
-11.0231150774
 10
-1.6622835259
 20
-11.0203765582
 10
-1.6699328079
 20
-11.0172835818
 10
-1.6776431274
 20
-11.0138424265
  0
LWPOLYLINE
  5
494
100
AcDbEntity
  8
0
100
AcDbPolyline
 62
7
  6
CONTINUOUS
 90
3
 70
0
 10
-2.2451216649
 20
-11.2233161616
 10
-2.2392614846
 20
-11.2212894107
 10
-2.2332396562
 20
-11.2196125062
  0
LINE
  5
495
100
AcDbEntity
  8
0
100
AcDbLine
 62
7
  6
CONTINUOUS
 10
-3.404702536
 20
-11.654665316
 11
-3.3988833041
 21
-11.6527757298
  0
LWPOLYLINE
  5
496
100
AcDbEntity
  8
0
100
AcDbPolyline
 62
7
  6
CONTINUOUS
 90
18
 70
0
 10
-1.5651016912
 20
-11.0262444908
 10
-1.5708174357
 20
-11.028089289
 10
-1.576675737
 20
-11.0296053074
 10
-1.5826818382
 20
-11.0307956144
 10
-1.5888271185
 20
-11.031660756
 10
-1.5951191346
 20
-11.0322011461
 10
-1.601550407
 20
-11.0324164172
 10
-1.6080897604
 20
-11.0323059433
 10
-1.6147315178
 20
-11.0318684079
 10
-1.6214814254
 20
-11.0311051692
 10
-1.6283254426
 20
-11.0300196133
 10
-1.6352683546
 20
-11.0286111162
 10
-1.6423054302
 20
-11.0268803344
 10
-1.6494083518
 20
-11.024832573
 10
-1.6565743697
 20
-11.0224679344
 10
-1.663806273
 20
-11.01978634
 10
-1.6710840493
 20
-11.0167928221
 10
-1.6784183647
 20
-11.0134796966
  0
LWPOLYLINE
  5
497
100
AcDbEntity
  8
0
100
AcDbPolyline
 62
7
  6
CONTINUOUS
 90
14
 70
0
 10
-3.3326263737
 20
11.7989579591
 10
-3.3250599921
 20
11.797010578
 10
-3.3174384542
 20
11.7946992243
 10
-3.3098416437
 20
11.7920544843
 10
-3.3022739124
 20
11.7890805509
 10
-3.2947309407
 20
11.7857732164
 10
-3.2872211813
 20
11.782136027
 10
-3.2797515195
 20
11.7781725014
 10
-3.2723150807
 20
11.7738791159
 10
-3.2648996733
 20
11.7692488559
 10
-3.2574986233
 20
11.7642774714
 10
-3.2501185937
 20
11.7589692174
 10
-3.2427673928
 20
11.7533298397
 10
-3.2354402445
 20
11.747358289
  0
LWPOLYLINE
  5
498
100
AcDbEntity
  8
0
100
AcDbPolyline
 62
7
  6
CONTINUOUS
 90
14
 70
0
 10
-3.3255865633
 20
11.7971560967
 10
-3.318521375
 20
11.7950487575
 10
-3.3114291418
 20
11.7926338778
 10
-3.304311562
 20
11.7899135068
 10
-3.2972055314
 20
11.7868941641
 10
-3.2901191487
 20
11.7835778488
 10
-3.2830443319
 20
11.779962554
 10
-3.2759937022
 20
11.7760487917
 10
-3.2689674349
 20
11.7718321081
 10
-3.2619653547
 20
11.7673169571
 10
-3.2549995528
 20
11.7625172149
 10
-3.2480623721
 20
11.7574257246
 10
-3.2411614528
 20
11.7520496509
 10
-3.234331829
 20
11.7464243533
  0
LWPOLYLINE
  5
499
100
AcDbEntity
  8
0
100
AcDbPolyline
 62
7
  6
CONTINUOUS
 90
3
 70
0
 10
-1.3519574493
 20
-15.2419292873
 10
-1.356572463
 20
-15.245002446
 10
-1.3613820495
 20
-15.2477677791
  0
LINE
  5
49A
100
AcDbEntity
  8
0
100
AcDbLine
 62
7
  6
CONTINUOUS
 10
-0.9148781316
 20
-13.4385417127
 11
-1.8491181851
 21
-13.9781313728
  0
LWPOLYLINE
  5
49B
100
AcDbEntity
  8
0
100
AcDbPolyline
 62
7
  6
CONTINUOUS
 90
3
 70
0
 10
-1.8491182029
 20
-13.9781313818
 10
-1.8543448547
 20
-13.9809082095
 10
-1.8557486405
 20
-13.9815902375
  0
LWPOLYLINE
  5
49C
100
AcDbEntity
  8
0
100
AcDbPolyline
 62
7
  6
CONTINUOUS
 90
41
 70
0
 10
-1.8557486944
 20
-13.9815902628
 10
-1.8597345621
 20
-13.9833334367
 10
-1.8653169134
 20
-13.9854197698
 10
-1.8710916776
 20
-13.9871635897
 10
-1.877049334
 20
-13.9885643534
 10
-1.8831612252
 20
-13.9896203702
 10
-1.8894237506
 20
-13.9903323683
 10
-1.8958406034
 20
-13.99069968
 10
-1.9023940689
 20
-13.9907185215
 10
-1.9090877365
 20
-13.9903871826
 10
-1.915918097
 20
-13.989707426
 10
-1.9228567877
 20
-13.9886806771
 10
-1.9298996113
 20
-13.9873045099
 10
-1.937050831
 20
-13.9855813935
 10
-1.9442947723
 20
-13.9835200943
 10
-1.9516352966
 20
-13.9811205303
 10
-1.9590685882
 20
-13.9783828133
 10
-1.9665674522
 20
-13.9753159978
 10
-1.9741328702
 20
-13.9719197677
 10
-1.9817638872
 20
-13.9681944564
 10
-1.9894303984
 20
-13.964150089
 10
-1.9971406531
 20
-13.9597789238
 10
-2.0048864076
 20
-13.9550887063
 10
-2.0126128122
 20
-13.9501126896
 10
-2.0203092309
 20
-13.9448551305
 10
-2.0279862836
 20
-13.9393117617
 10
-2.0356209993
 20
-13.9335030475
 10
-2.0432165914
 20
-13.9274258694
 10
-2.05076981
 20
-13.9210833219
 10
-2.0582479856
 20
-13.914505186
 10
-2.0656434964
 20
-13.9076984786
 10
-2.07296391
 20
-13.9006561473
 10
-2.0801993369
 20
-13.8933868667
 10
-2.0873551874
 20
-13.885884723
 10
-2.0944259785
 20
-13.8781555825
 10
-2.1013854778
 20
-13.8702257884
 10
-2.108231268
 20
-13.8620979772
 10
-2.1149656796
 20
-13.8537694556
 10
-2.1215696006
 20
-13.8452585715
 10
-2.1280498945
 20
-13.8365519829
 10
-2.1343995955
 20
-13.8276629648
  0
LWPOLYLINE
  5
49D
100
AcDbEntity
  8
0
100
AcDbPolyline
 62
7
  6
CONTINUOUS
 90
11
 70
0
 10
-3.4057538627
 20
11.7984786582
 10
-3.3995698458
 20
11.8000892953
 10
-3.3932459619
 20
11.8013802599
 10
-3.3867958197
 20
11.802352941
 10
-3.3802601755
 20
11.8030115387
 10
-3.3736424557
 20
11.8033545144
 10
-3.3669393012
 20
11.8033833753
 10
-3.3601812909
 20
11.8031068888
 10
-3.353379469
 20
11.8025281089
 10
-3.3465228478
 20
11.8016439553
 10
-3.339608956
 20
11.8004539955
  0
LINE
  5
49E
100
AcDbEntity
  8
0
100
AcDbLine
 62
250
  6
CONTINUOUS
 10
4.5589327069
 20
11.481871199
 11
-10.2982558987
 21
20.0602256956
  0
LWPOLYLINE
  5
49F
100
AcDbEntity
  8
0
100
AcDbPolyline
 62
7
  6
CONTINUOUS
 90
3
 70
0
 10
-1.3565452928
 20
-15.2449783642
 10
-1.3614337921
 20
-15.247788325
 10
-1.3653105622
 20
-15.2497308484
  0
LINE
  5
4A0
100
AcDbEntity
  8
0
100
AcDbLine
 62
7
  6
CONTINUOUS
 10
-1.3653106832
 20
-15.2497309051
 11
-1.366387884
 21
-15.2502266198
  0
LINE
  5
4A1
100
AcDbEntity
  8
0
100
AcDbLine
 62
7
  6
CONTINUOUS
 10
-1.366387884
 20
-15.2502266198
 11
-1.371744207
 21
-15.2524407923
  0
LINE
  5
4A2
100
AcDbEntity
  8
0
100
AcDbLine
 62
7
  6
CONTINUOUS
 10
-1.3715985858
 20
-15.2523836963
 11
-1.3771662202
 21
-15.254283364
  0
LINE
  5
4A3
100
AcDbEntity
  8
RACCORDO
100
AcDbLine
 62
7
  6
CONTINUOUS
 10
5.3535004321
 20
14.9622113499
 11
4.6807936113
 21
14.8323288662
  0
LINE
  5
4A4
100
AcDbEntity
  8
0
100
AcDbLine
 62
250
  6
CONTINUOUS
 10
5.2326925504
 20
12.5511700825
 11
-9.6476205056
 21
21.1428763469
  0
LWPOLYLINE
  5
4A5
100
AcDbEntity
  8
0
100
AcDbPolyline
 62
250
  6
CONTINUOUS
 90
49
 70
0
 10
4.5294264341
 20
-13.9790522629
 10
4.5175551248
 20
-13.9854902805
 10
4.5053468629
 20
-13.9917055503
 10
4.4928141469
 20
-13.9976917091
 10
4.4799698075
 20
-14.0034426285
 10
4.4668269944
 20
-14.0089524209
 10
4.4533991629
 20
-14.0142154455
 10
4.4397000601
 20
-14.019226314
 10
4.4257437106
 20
-14.0239798967
 10
4.4115444027
 20
-14.0284713267
 10
4.3971166733
 20
-14.032696006
 10
4.3824752931
 20
-14.0366496094
 10
4.3676352515
 20
-14.0403280894
 10
4.3526117414
 20
-14.0437276799
 10
4.3374201436
 20
-14.0468449005
 10
4.3220760106
 20
-14.0496765601
 10
4.3065950516
 20
-14.0522197594
 10
4.2909931154
 20
-14.054471895
 10
4.2752861749
 20
-14.0564306611
 10
4.2594903105
 20
-14.0580940524
 10
4.2436216937
 20
-14.0594603659
 10
4.2276965702
 20
-14.0605282029
 10
4.2117312437
 20
-14.0612964701
 10
4.1957420593
 20
-14.0617643811
 10
4.1797453862
 20
-14.0619314566
 10
4.1637576013
 20
-14.0617975259
 10
4.1477950726
 20
-14.0613627258
 10
4.131874142
 20
-14.0606275016
 10
4.1160111091
 20
-14.059592606
 10
4.1002222139
 20
-14.0582590984
 10
4.0845236208
 20
-14.0566283441
 10
4.0689314015
 20
-14.0547020127
 10
4.0534615189
 20
-14.0524820761
 10
4.0381298108
 20
-14.0499708072
 10
4.0229519733
 20
-14.047170777
 10
4.0079435451
 20
-14.0440848519
 10
3.9931198914
 20
-14.0407161914
 10
3.9784961884
 20
-14.0370682441
 10
3.9640874073
 20
-14.0331447447
 10
3.9499082995
 20
-14.02894971
 10
3.9359733812
 20
-14.0244874349
 10
3.9222969187
 20
-14.0197624875
 10
3.9088929135
 20
-14.0147797053
 10
3.8957750883
 20
-14.0095441894
 10
3.8829568728
 20
-14.0040612998
 10
3.8704513899
 20
-13.9983366499
 10
3.8582714425
 20
-13.9923761002
 10
3.8464295
 20
-13.9861857532
 10
3.8349376859
 20
-13.9797719462
  0
LINE
  5
4A6
100
AcDbEntity
  8
RACCORDO
100
AcDbLine
 62
7
  6
CONTINUOUS
 10
4.487608446
 20
14.8579377013
 11
2.10532335
 21
16.2334392588
  0
LINE
  5
4A7
100
AcDbEntity
  8
RACCORDO
100
AcDbLine
 62
7
  6
CONTINUOUS
 10
-3.4319875032
 20
19.4306131466
 11
-5.8142725993
 21
20.806114704
  0
LINE
  5
4A8
100
AcDbEntity
  8
0
100
AcDbLine
 62
7
  6
CONTINUOUS
 10
-7.677583413
 20
22.4861958443
 11
-5.685785159
 21
21.3361564955
  0
LINE
  5
4A9
100
AcDbEntity
  8
DRAFT
100
AcDbLine
 62
7
  6
CONTINUOUS
 10
-2.5660955172
 20
19.5348867952
 11
2.2338107903
 21
16.7634810502
  0
LINE
  5
4AA
100
AcDbEntity
  8
0
100
AcDbLine
 62
7
  6
CONTINUOUS
 10
5.3535004321
 20
14.9622113499
 11
7.3452986861
 21
13.8121720012
  0
LINE
  5
4AB
100
AcDbEntity
  8
RACCORDO
100
AcDbLine
 62
7
  6
CONTINUOUS
 10
-2.5660955172
 20
19.5348867952
 11
-3.238802338
 21
19.4050043114
  0
LWPOLYLINE
  5
4AC
100
AcDbEntity
  8
0
100
AcDbPolyline
 62
250
  6
CONTINUOUS
 90
49
 70
0
 10
5.2495342509
 20
-23.0969670724
 10
5.237788743
 20
-23.1050376771
 10
5.2257059852
 20
-23.1128837502
 10
5.2132983538
 20
-23.1204972553
 10
5.2005785577
 20
-23.1278703938
 10
5.1875596255
 20
-23.1349956136
 10
5.1742548925
 20
-23.1418656164
 10
5.1606779864
 20
-23.1484733654
 10
5.1468428139
 20
-23.1548120923
 10
5.1327635462
 20
-23.1608753045
 10
5.1184546044
 20
-23.1666567916
 10
5.1039306451
 20
-23.1721506315
 10
5.0892065448
 20
-23.1773511971
 10
5.0742973853
 20
-23.1822531614
 10
5.0592184378
 20
-23.1868515036
 10
5.0439851475
 20
-23.1911415135
 10
5.0286131176
 20
-23.195118797
 10
5.0131180935
 20
-23.1987792801
 10
4.9975159465
 20
-23.2021192136
 10
4.9818226576
 20
-23.2051351763
 10
4.9660543014
 20
-23.2078240791
 10
4.950227029
 20
-23.2101831677
 10
4.9343570521
 20
-23.2122100258
 10
4.9184606261
 20
-23.2139025772
 10
4.9025540336
 20
-23.2152590884
 10
4.8866535674
 20
-23.2162781699
 10
4.8707755141
 20
-23.2169587778
 10
4.8549361373
 20
-23.217300215
 10
4.8391516613
 20
-23.2173021318
 10
4.8234382537
 20
-23.2169645262
 10
4.8078120095
 20
-23.216287744
 10
4.7922889346
 20
-23.2152724784
 10
4.776884929
 20
-23.2139197694
 10
4.7616157708
 20
-23.2122310026
 10
4.7464970999
 20
-23.2102079076
 10
4.7315444023
 20
-23.2078525567
 10
4.7167729937
 20
-23.2051673625
 10
4.7021980043
 20
-23.2021550754
 10
4.6878343631
 20
-23.1988187808
 10
4.6736967824
 20
-23.1951618961
 10
4.6597997434
 20
-23.1911881669
 10
4.6461574804
 20
-23.1869016635
 10
4.6327839671
 20
-23.1823067765
 10
4.6196929018
 20
-23.1774082123
 10
4.6068976934
 20
-23.1722109885
 10
4.594411448
 20
-23.1667204286
 10
4.5822469549
 20
-23.1609421564
 10
4.5704166742
 20
-23.1548820905
 10
4.5589327234
 20
-23.1485464382
  0
LINE
  5
4AD
100
AcDbEntity
  8
0
100
AcDbLine
 62
250
  6
CONTINUOUS
 10
5.5921952852
 20
-23.2592857345
 11
7.7302728445
 21
-22.2331131628
  0
LINE
  5
4AE
100
AcDbEntity
  8
0
100
AcDbLine
 62
7
  6
CONTINUOUS
 10
5.4675437058
 20
-23.4989186401
 11
7.592077766
 21
-22.479246285
  0
ARC
  5
4AF
100
AcDbEntity
  8
0
100
AcDbCircle
 62
7
  6
CONTINUOUS
 10
-0.0282614546
 20
-4.1871681925
 40
0.2
100
AcDbArc
 50
120.867565563
 51
180.0339563172
  0
ARC
  5
4B0
100
AcDbEntity
  8
0
100
AcDbCircle
 62
7
  6
CONTINUOUS
 10
-6.9550856084
 20
0.3805636456
 40
0.2
100
AcDbArc
 50
239.9991847121
 51
299.1356305765
  0
ARC
  5
4B1
100
AcDbEntity
  8
0
100
AcDbCircle
 62
7
  6
CONTINUOUS
 10
-0.0282614546
 20
-3.6188978073
 40
0.2
100
AcDbArc
 50
179.9660195317
 51
239.9992007504
  0
ELLIPSE
  5
4B2
100
AcDbEntity
  8
0
100
AcDbEllipse
 62
7
  6
CONTINUOUS
 10
8.1400611465
 20
-4.3733458005
 30
0.0
 11
-0.1001077396
 21
0.1731824807
 31
0.0
 40
0.577507303
 41
-2.3566621664
 42
-0.7861703913
  0
ELLIPSE
  5
4B3
100
AcDbEntity
  8
0
100
AcDbEllipse
 62
7
  6
CONTINUOUS
 10
7.3765622305
 20
-22.0280767983
 30
0.0
 11
-0.2149783503
 21
0.4514263066
 31
0.0
 40
0.6262155472
 41
-3.1396910161
 42
-2.3109372224
  0
ELLIPSE
  5
4B4
100
AcDbEntity
  8
0
100
AcDbEllipse
 62
7
  6
CONTINUOUS
 10
-5.7486245117
 20
0.5088876123
 30
0.0
 11
0.0857878533
 21
0.2752094472
 31
0.0
 40
0.2004214992
 41
-4.3952454116
 42
-3.7130006985
  0
ELLIPSE
  5
4B5
100
AcDbEntity
  8
0
100
AcDbEllipse
 62
7
  6
CONTINUOUS
 10
-6.1055893144
 20
-0.6362146257
 30
0.0
 11
0.7030599084
 21
-0.1582479458
 31
0.0
 40
0.2004820271
 41
0.5714508469
 42
1.356810934
  0
ELLIPSE
  5
4B6
100
AcDbEntity
  8
0
100
AcDbEllipse
 62
7
  6
CONTINUOUS
 10
-6.1055893144
 20
-0.6362146257
 30
0.0
 11
0.2144696332
 21
0.6880236181
 31
0.0
 40
0.2004214992
 41
-1.3567681321
 42
-0.5714080449
  0
ELLIPSE
  5
4B7
100
AcDbEntity
  8
0
100
AcDbEllipse
 62
7
  6
CONTINUOUS
 10
8.1400611465
 20
-3.8834511985
 30
0.0
 11
-0.100138119
 21
0.1732352972
 31
0.0
 40
0.5771556487
 41
-3.1634096716
 42
-2.3569659634
  0
ELLIPSE
  5
4B8
100
AcDbEntity
  8
0
100
AcDbEllipse
 62
7
  6
CONTINUOUS
 10
-7.6471809754
 20
22.097317452
 30
0.0
 11
-0.2807337341
 21
0.4137505634
 31
0.0
 40
0.5254492115
 41
-0.8261225424
 42
0.0012090728
  0
ELLIPSE
  5
4B9
100
AcDbEntity
  8
RACCORDO
100
AcDbEllipse
 62
7
  6
CONTINUOUS
 10
4.6290298023
 20
14.9481504988
 30
0.0
 11
0.1999154856
 21
0.0095814127
 31
0.0
 40
0.6067642562
 41
-2.385266879
 42
-1.3380693278
  0
ELLIPSE
  5
4BA
100
AcDbEntity
  8
RACCORDO
100
AcDbEllipse
 62
7
  6
CONTINUOUS
 10
-3.290566147
 20
19.5208259441
 30
0.0
 11
0.1999154856
 21
0.0095814127
 31
0.0
 40
0.6067642562
 41
-2.385266879
 42
-1.3380693278
  0
ELLIPSE
  5
4BB
100
AcDbEntity
  8
0
100
AcDbEllipse
 62
7
  6
CONTINUOUS
 10
7.3765622305
 20
13.4227964166
 30
0.0
 11
-0.2810161013
 21
0.4142924366
 31
0.0
 40
0.524175859
 41
-2.3937039903
 42
-0.8247341631
  0
ELLIPSE
  5
4BC
100
AcDbEntity
  8
0
100
AcDbEllipse
 62
7
  6
CONTINUOUS
 10
53.2352835414
 20
45.0900193341
 30
0.0
 11
98.7968383027
 21
46.7450362287
 31
0.0
 40
0.0739170581
 41
-2.2443006011
 42
-2.2148367829
  0
ELLIPSE
  5
4BD
100
AcDbEntity
  8
RACCORDO
100
AcDbEllipse
 62
7
  6
CONTINUOUS
 10
2.2467447062
 20
16.3236520563
 30
0.0
 11
0.1999154856
 21
0.0095814127
 31
0.0
 40
0.6067642562
 41
2.850720877
 42
3.8979184282
  0
ELLIPSE
  5
4BE
100
AcDbEntity
  8
RACCORDO
100
AcDbEllipse
 62
7
  6
CONTINUOUS
 10
-5.6728512431
 20
20.8963275015
 30
0.0
 11
0.1999154856
 21
0.0095814127
 31
0.0
 40
0.6067642562
 41
2.850720877
 42
3.8979184282
  0
ENDSEC
  0
SECTION
  2
OBJECTS
  0
DICTIONARY
  5
C
100
AcDbDictionary
280
0
281
1
  3
ACAD_GROUP
350
D
  3
ACAD_MLINESTYLE
350
17
  3
ACAD_LAYOUT
350
1A
  3
ACAD_PLOTSETTINGS
350
19
  3
ACAD_PLOTSTYLENAME
350
E
  0
DICTIONARY
  5
D
102
{ACAD_REACTORS
330
C
102
}
100
AcDbDictionary
280
0
281
1
  0
ACDBDICTIONARYWDFLT
  5
E
102
{ACAD_REACTORS
330
C
102
}
100
AcDbDictionary
281
1
  3
Normal
350
F
100
AcDbDictionaryWithDefault
340
F
  0
DICTIONARY
  5
17
102
{ACAD_REACTORS
330
C
102
}
100
AcDbDictionary
280
0
281
1
  3
Standard
350
18
  0
DICTIONARY
  5
19
102
{ACAD_REACTORS
330
C
102
}
100
AcDbDictionary
281
1
  0
DICTIONARY
  5
1A
102
{ACAD_REACTORS
330
C
102
}
100
AcDbDictionary
281
1
  3
Model
350
4BF
  3
Layout1
350
4C0
  0
ACDBPLACEHOLDER
  5
F
102
{ACAD_REACTORS
330
E
102
}
  0
MLINESTYLE
  5
18
102
{ACAD_REACTORS
330
17
102
}
100
AcDbMlineStyle
  2
STANDARD
 70
0
  3

 62
256
 51
90.0
 52
90.0
 71
2
 49
0.5
 62
256
  6
BYLAYER
 49
-0.5
 62
256
  6
BYLAYER
  0
LAYOUT
  5
4BF
102
{ACAD_REACTORS
330
1A
102
}
100
AcDbPlotSettings
  1

  2
none_device
  4

  6

 40
0.0
 41
0.0
 42
0.0
 43
0.0
 44
210.0
 45
297.0
 46
0.0
 47
0.0
 48
0.0
 49
0.0
140
0.0
141
0.0
142
1.0
143
1.0
 70
1024
 72
1
 73
0
 74
0
  7

 75
0
147
1.0
148
0.0
149
0.0
100
AcDbLayout
  1
Model
 70
0
 71
0
 10
0.0
 20
0.0
 11
210.0
 21
297.0
 12
0.0
 22
0.0
 32
0.0
 14
0.0
 24
0.0
 34
0.0
 15
0.0
 25
0.0
 35
0.0
146
0.0
 13
0.0
 23
0.0
 33
0.0
 16
1.0
 26
0.0
 36
0.0
 17
0.0
 27
1.0
 37
0.0
 76
0
330
223
345
0
346
0
  0
LAYOUT
  5
4C0
102
{ACAD_REACTORS
330
1A
102
}
100
AcDbPlotSettings
  1

  2
none_device
  4

  6

 40
0.0
 41
0.0
 42
0.0
 43
0.0
 44
210.0
 45
297.0
 46
0.0
 47
0.0
 48
0.0
 49
0.0
140
0.0
141
0.0
142
1.0
143
1.0
 70
0
 72
1
 73
0
 74
0
  7

 75
0
147
1.0
148
0.0
149
0.0
100
AcDbLayout
  1
Layout1
 70
0
 71
1
 10
0.0
 20
0.0
 11
210.0
 21
297.0
 12
0.0
 22
0.0
 32
0.0
 14
0.0
 24
0.0
 34
0.0
 15
0.0
 25
0.0
 35
0.0
146
0.0
 13
0.0
 23
0.0
 33
0.0
 16
1.0
 26
0.0
 36
0.0
 17
0.0
 27
1.0
 37
0.0
 76
0
330
224
345
0
346
0
  0
ENDSEC
  0
EOF
