  0
SECTION
  2
HEADER
  9
$ACADVER
  1
AC1015
  9
$DWGCODEPAGE
  3
ANSI_1252
  9
$EXTMAX
 10
297.0
 20
210.0
 30
0.0
  9
$EXTMIN
 10
0.0
 20
0.0
 30
0.0
  9
$LIMMIN
 10
0.0
 20
0.0
  9
$LIMMAX
 10
297.0
 20
210.0
  9
$VIEWCTR
 10
148.5
 20
105.0
  9
$VIEWSIZE
 40
210.0
  9
$CLAYER
  8
0
  9
$LTSCALE
 40
16.335
  9
$CELTYPE
  6
BYLAYER
  9
$DIMSCALE
 40
1.0
  9
$DIMASZ
 40
3.0
  9
$DIMEXO
 40
1.85625
  9
$DIMDLI
 40
11.286
  9
$DIMEXE
 40
5.346
  9
$DIMCEN
 40
2.673
  9
$DIMLFAC
 40
1.0
  9
$DIMBLK
  1
_FILLED
  9
$DIMTXT
 40
3.0
  9
$DIMTOL
 70
1
  9
$DIMLIM
 70
0
  9
$DIMTFAC
 40
1.0
  9
$DIMTP
 40
0.01
  9
$DIMTM
 40
0.01
  9
$PDMODE
 70
3
  9
$PDSIZE
 40
3.0
  9
$HANDSEED
  5
2E0
  9
$TILEMODE
 70
1
  9
$MEASUREMENT
 70
1
  9
$INSUNITS
 70
4
  0
ENDSEC
  0
SECTION
  2
CLASSES
  0
CLASS
  1
ACDBDICTIONARYWDFLT
  2
AcDbDictionaryWithDefault
  3
AutoCAD 2000
 90
0
280
0
281
0
  0
CLASS
  1
ACDBPLACEHOLDER
  2
AcDbPlaceHolder
  3
AutoCAD 2000
 90
0
280
0
281
0
  0
CLASS
  1
LAYOUT
  2
AcDbLayout
  3
AutoCAD 2000
 90
0
280
0
281
0
  0
ENDSEC
  0
SECTION
  2
TABLES
  0
TABLE
  2
VPORT
  5
8
100
AcDbSymbolTable
 70
2
  0
VPORT
  5
1F4
100
AcDbSymbolTableRecord
100
AcDbViewportTableRecord
  2
*ACTIVE
 70
0
 10
0.0
 20
0.0
 11
1.0
 21
1.0
 12
148.5
 22
105.0
 13
0.0
 23
0.0
 14
1.0
 24
1.0
 15
0.0
 25
0.0
 16
0.0
 26
0.0
 36
1.0
 17
0.0
 27
0.0
 37
0.0
 40
210.0
 41
1.4142857143
 42
50.0
 43
0.0
 44
0.0
 50
0.0
 51
0.0
 71
0
 72
100
 73
1
 74
1
 75
0
 76
0
 77
0
 78
0
  0
ENDTAB
  0
TABLE
  2
LTYPE
  5
5
100
AcDbSymbolTable
 70
6
  0
LTYPE
  5
14
100
AcDbSymbolTableRecord
100
AcDbLinetypeTableRecord
  2
BYBLOCK
 70
0
  3

 72
65
 73
0
 40
0.0
  0
LTYPE
  5
15
100
AcDbSymbolTableRecord
100
AcDbLinetypeTableRecord
  2
BYLAYER
 70
0
  3

 72
65
 73
0
 40
0.0
  0
LTYPE
  5
16
100
AcDbSymbolTableRecord
100
AcDbLinetypeTableRecord
  2
CONTINUOUS
 70
64
  3
Solid line
 72
65
 73
0
 40
0.0
  0
LTYPE
  5
1F5
100
AcDbSymbolTableRecord
100
AcDbLinetypeTableRecord
  2
CENTER
 70
64
  3
____ _ ____ _ ____ _ ____ _ ____ _ ____ _ ____
 72
65
 73
4
 40
0.6
 49
0.375
 74
0
 49
-0.075
 74
0
 49
0.075
 74
0
 49
-0.075
 74
0
  0
LTYPE
  5
1F6
100
AcDbSymbolTableRecord
100
AcDbLinetypeTableRecord
  2
HIDDEN
 70
64
  3
- - - - - - - - - - - - - - - - - - - -
 72
65
 73
2
 40
0.2
 49
0.1
 74
0
 49
-0.1
 74
0
  0
LTYPE
  5
1F7
100
AcDbSymbolTableRecord
100
AcDbLinetypeTableRecord
  2
PHANTOM
 70
64
  3
_____ _ _ _____ _ _ _____ _ _ _____
 72
65
 73
6
 40
0.8
 49
0.45
 74
0
 49
-0.05
 74
0
 49
0.1
 74
0
 49
-0.05
 74
0
 49
0.1
 74
0
 49
-0.05
 74
0
  0
LTYPE
  5
1F8
100
AcDbSymbolTableRecord
100
AcDbLinetypeTableRecord
  2
DOT
 70
64
  3
. . . . . . . . . . . . . . . . . . . .
 72
65
 73
2
 40
0.2
 49
0.1
 74
0
 49
-0.1
 74
0
  0
LTYPE
  5
1F9
100
AcDbSymbolTableRecord
100
AcDbLinetypeTableRecord
  2
DASHED
 70
64
  3
- - - - - - - - - - - - - - - - - - - -
 72
65
 73
2
 40
0.2
 49
0.1
 74
0
 49
-0.1
 74
0
  0
ENDTAB
  0
TABLE
  2
LAYER
  5
2
100
AcDbSymbolTable
 70
36
  0
LAYER
  5
10
100
AcDbSymbolTableRecord
100
AcDbLayerTableRecord
  2
0
 70
0
 62
7
  6
CONTINUOUS
370
-3
390
F
  0
LAYER
  5
1FA
100
AcDbSymbolTableRecord
100
AcDbLayerTableRecord
  2
DEFAULT_1
 70
0
 62
7
  6
CENTER
370
-3
390
F
  0
LAYER
  5
1FB
100
AcDbSymbolTableRecord
100
AcDbLayerTableRecord
  2
DEFAULT_2
 70
0
 62
7
  6
HIDDEN
370
-3
390
F
  0
LAYER
  5
1FC
100
AcDbSymbolTableRecord
100
AcDbLayerTableRecord
  2
DEFAULT_3
 70
0
 62
7
  6
PHANTOM
370
-3
390
F
  0
LAYER
  5
1FD
100
AcDbSymbolTableRecord
100
AcDbLayerTableRecord
  2
ASSI
 70
0
 62
7
  6
CONTINUOUS
370
-3
390
F
  0
LAYER
  5
1FE
100
AcDbSymbolTableRecord
100
AcDbLayerTableRecord
  2
COLOR9
 70
0
 62
7
  6
CONTINUOUS
370
-3
390
F
  0
LAYER
  5
1FF
100
AcDbSymbolTableRecord
100
AcDbLayerTableRecord
  2
COORDINATE
 70
0
 62
7
  6
CONTINUOUS
370
-3
390
F
  0
LAYER
  5
200
100
AcDbSymbolTableRecord
100
AcDbLayerTableRecord
  2
COORD_ORIGINE
 70
0
 62
7
  6
CONTINUOUS
370
-3
390
F
  0
LAYER
  5
201
100
AcDbSymbolTableRecord
100
AcDbLayerTableRecord
  2
COPY_PUBLISH
 70
0
 62
7
  6
CONTINUOUS
370
-3
390
F
  0
LAYER
  5
202
100
AcDbSymbolTableRecord
100
AcDbLayerTableRecord
  2
COSMETIC
 70
0
 62
7
  6
CONTINUOUS
370
-3
390
F
  0
LAYER
  5
203
100
AcDbSymbolTableRecord
100
AcDbLayerTableRecord
  2
CURVE
 70
0
 62
7
  6
CONTINUOUS
370
-3
390
F
  0
LAYER
  5
204
100
AcDbSymbolTableRecord
100
AcDbLayerTableRecord
  2
DRAFT
 70
0
 62
7
  6
CONTINUOUS
370
-3
390
F
  0
LAYER
  5
205
100
AcDbSymbolTableRecord
100
AcDbLayerTableRecord
  2
IGES
 70
0
 62
7
  6
CONTINUOUS
370
-3
390
F
  0
LAYER
  5
206
100
AcDbSymbolTableRecord
100
AcDbLayerTableRecord
  2
IGS_SCRITTE
 70
0
 62
7
  6
CONTINUOUS
370
-3
390
F
  0
LAYER
  5
207
100
AcDbSymbolTableRecord
100
AcDbLayerTableRecord
  2
IMPORT_IGES
 70
0
 62
7
  6
CONTINUOUS
370
-3
390
F
  0
LAYER
  5
208
100
AcDbSymbolTableRecord
100
AcDbLayerTableRecord
  2
INTF_12
 70
0
 62
7
  6
CONTINUOUS
370
-3
390
F
  0
LAYER
  5
209
100
AcDbSymbolTableRecord
100
AcDbLayerTableRecord
  2
INTF_15
 70
0
 62
7
  6
CONTINUOUS
370
-3
390
F
  0
LAYER
  5
20A
100
AcDbSymbolTableRecord
100
AcDbLayerTableRecord
  2
INTF_3
 70
0
 62
7
  6
CONTINUOUS
370
-3
390
F
  0
LAYER
  5
20B
100
AcDbSymbolTableRecord
100
AcDbLayerTableRecord
  2
INTF_4
 70
0
 62
7
  6
CONTINUOUS
370
-3
390
F
  0
LAYER
  5
20C
100
AcDbSymbolTableRecord
100
AcDbLayerTableRecord
  2
INTF_YELLOW
 70
0
 62
7
  6
CONTINUOUS
370
-3
390
F
  0
LAYER
  5
20D
100
AcDbSymbolTableRecord
100
AcDbLayerTableRecord
  2
PIANI
 70
0
 62
7
  6
CONTINUOUS
370
-3
390
F
  0
LAYER
  5
20E
100
AcDbSymbolTableRecord
100
AcDbLayerTableRecord
  2
PIANI_ORIGINE
 70
0
 62
7
  6
CONTINUOUS
370
-3
390
F
  0
LAYER
  5
20F
100
AcDbSymbolTableRecord
100
AcDbLayerTableRecord
  2
PIANI_RIFERIMENTO
 70
0
 62
7
  6
CONTINUOUS
370
-3
390
F
  0
LAYER
  5
210
100
AcDbSymbolTableRecord
100
AcDbLayerTableRecord
  2
RACCORDO
 70
0
 62
7
  6
CONTINUOUS
370
-3
390
F
  0
LAYER
  5
211
100
AcDbSymbolTableRecord
100
AcDbLayerTableRecord
  2
SMUSSO
 70
0
 62
7
  6
CONTINUOUS
370
-3
390
F
  0
LAYER
  5
212
100
AcDbSymbolTableRecord
100
AcDbLayerTableRecord
  2
SOLIDO
 70
0
 62
7
  6
CONTINUOUS
370
-3
390
F
  0
LAYER
  5
213
100
AcDbSymbolTableRecord
100
AcDbLayerTableRecord
  2
SUPERFICI
 70
0
 62
7
  6
CONTINUOUS
370
-3
390
F
  0
LAYER
  5
214
100
AcDbSymbolTableRecord
100
AcDbLayerTableRecord
  2
TRASH
 70
0
 62
7
  6
CONTINUOUS
370
-3
390
F
  0
LAYER
  5
215
100
AcDbSymbolTableRecord
100
AcDbLayerTableRecord
  2
WHITE
 70
0
 62
7
  6
CONTINUOUS
370
-3
390
F
  0
LAYER
  5
216
100
AcDbSymbolTableRecord
100
AcDbLayerTableRecord
  2
XSEC_DATUMS
 70
0
 62
7
  6
CONTINUOUS
370
-3
390
F
  0
ENDTAB
  0
TABLE
  2
STYLE
  5
3
100
AcDbSymbolTable
 70
1
  0
STYLE
  5
11
100
AcDbSymbolTableRecord
100
AcDbTextStyleTableRecord
  2
STANDARD
 70
0
 40
0.0
 41
0.8
 50
0.0
 71
0
 42
0.2
  3
txt
  4

  0
STYLE
  5
217
100
AcDbSymbolTableRecord
100
AcDbTextStyleTableRecord
  2
TEXTSTYLE_1
 70
0
 40
0.0
 41
0.8
 50
0.0
 71
0
 42
0.2
  3
gdt
  4

  0
ENDTAB
  0
TABLE
  2
VIEW
  5
6
100
AcDbSymbolTable
 70
0
  0
ENDTAB
  0
TABLE
  2
UCS
  5
7
100
AcDbSymbolTable
 70
0
  0
ENDTAB
  0
TABLE
  2
APPID
  5
9
100
AcDbSymbolTable
 70
1
  0
APPID
  5
218
100
AcDbSymbolTableRecord
100
AcDbRegAppTableRecord
  2
ACAD
 70
0
  0
ENDTAB
  0
TABLE
  2
BLOCK_RECORD
  5
1
100
AcDbSymbolTable
 70
0
  0
BLOCK_RECORD
  5
219
100
AcDbSymbolTableRecord
100
AcDbBlockTableRecord
  2
*Model_Space
  0
BLOCK_RECORD
  5
21A
100
AcDbSymbolTableRecord
100
AcDbBlockTableRecord
  2
*Paper_Space
  0
ENDTAB
  0
TABLE
  2
DIMSTYLE
  5
A
100
AcDbSymbolTable
 70
1
100
AcDbDimStyleTable
 71
0
  0
DIMSTYLE
105
21B
100
AcDbSymbolTableRecord
100
AcDbDimStyleTableRecord
  2
STANDARD
 70
0
  3

  4

 40
1.0
 41
3.0
 42
0.0625
 43
0.38
 44
0.18
 45
0.0
 46
0.0
 47
0.01
 48
0.01
140
3.0
141
0.09
142
0.0
143
25.4
144
1.0
145
0.0
146
1.0
147
0.09
 71
1.0
 72
0.0
 73
0
 74
0
 75
0
 76
0
 77
1
 78
8
170
0
171
2
172
0
173
0
174
0
175
0
176
0
177
0
178
0
270
2
271
2
272
2
273
2
274
2
275
0
280
0
281
0
282
0
283
1
284
8
285
0
286
0
287
3
288
0
340
11
  0
ENDTAB
  0
ENDSEC
  0
SECTION
  2
BLOCKS
  0
BLOCK
  5
20
100
AcDbEntity
  8
0
100
AcDbBlockBegin
  2
*Model_Space
 70
0
 10
0.0
 20
0.0
 30
0.0
  3
*Model_Space
  1

  0
ENDBLK
  5
21
100
AcDbEntity
  8
0
100
AcDbBlockEnd
  0
BLOCK
  5
1C
100
AcDbEntity
  8
0
100
AcDbBlockBegin
  2
*Paper_Space
 70
0
 10
0.0
 20
0.0
 30
0.0
  3
*Paper_Space
  1

  0
ENDBLK
  5
1D
100
AcDbEntity
  8
0
100
AcDbBlockEnd
  0
ENDSEC
  0
SECTION
  2
ENTITIES
  0
LWPOLYLINE
  5
21C
100
AcDbEntity
  8
ASSI
100
AcDbPolyline
 62
7
  6
CONTINUOUS
 90
11
 70
0
 10
-9.3150495699
 20
12.1810882997
 10
-9.3320876296
 20
12.1712923246
 10
-9.3664849993
 20
12.1483163844
 10
-9.3974057944
 20
12.1230669861
 10
-9.4248522227
 20
12.0956491676
 10
-9.4487258883
 20
12.0662535952
 10
-9.4688555791
 20
12.0352248516
 10
-9.4851948979
 20
12.0028149961
 10
-9.4977078712
 20
11.9692664512
 10
-9.5063264274
 20
11.9349614558
 10
-9.5110322616
 20
11.9003608955
  0
LWPOLYLINE
  5
21D
100
AcDbEntity
  8
RACCORDO
100
AcDbPolyline
 62
7
  6
CONTINUOUS
 90
33
 70
0
 10
-9.3148921231
 20
12.1811746594
 10
-9.3232713171
 20
12.176479128
 10
-9.3346171665
 20
12.1697555755
 10
-9.3455753496
 20
12.1628327453
 10
-9.3561490042
 20
12.1557189027
 10
-9.3663434444
 20
12.1484209396
 10
-9.3761630732
 20
12.1409458572
 10
-9.3856102111
 20
12.1333021757
 10
-9.3946886214
 20
12.1254974092
 10
-9.403401799
 20
12.1175389665
 10
-9.4117508152
 20
12.1094365604
 10
-9.419738876
 20
12.1011983741
 10
-9.4273700904
 20
12.092831457
 10
-9.4346423227
 20
12.0843499772
 10
-9.441561447
 20
12.0757596656
 10
-9.4481405484
 20
12.0670557645
 10
-9.4543792586
 20
12.0582494768
 10
-9.4602795726
 20
12.04934929
 10
-9.4658543638
 20
12.0403459862
 10
-9.4711034681
 20
12.0312488537
 10
-9.4760267483
 20
12.022067795
 10
-9.4806334708
 20
12.0127938967
 10
-9.4849233968
 20
12.00343448
 10
-9.4888948414
 20
11.9940011123
 10
-9.4925521246
 20
11.9844909338
 10
-9.4958942344
 20
11.9749130343
 10
-9.4989202008
 20
11.9652775571
 10
-9.501632623
 20
11.9555832088
 10
-9.5040304711
 20
11.9458403395
 10
-9.5061134434
 20
11.9360581795
 10
-9.5078835837
 20
11.9262337137
 10
-9.509339994
 20
11.9163768051
 10
-9.5104822608
 20
11.9064972478
  0
LINE
  5
21E
100
AcDbEntity
  8
RACCORDO
100
AcDbLine
 62
7
  6
CONTINUOUS
 10
-9.3148880499
 20
12.1811769027
 11
-5.7554905679
 21
14.1290902299
  0
LINE
  5
21F
100
AcDbEntity
  8
ASSI
100
AcDbLine
 62
7
  6
CONTINUOUS
 10
-9.3150495759
 20
12.1810883105
 11
-5.7554905679
 21
14.1290902299
  0
LINE
  5
220
100
AcDbEntity
  8
RACCORDO
100
AcDbLine
 62
253
  6
CONTINUOUS
 10
-9.1964127431
 20
12.1775963888
 11
-5.6405236646
 21
14.1235897095
  0
LINE
  5
221
100
AcDbEntity
  8
ASSI
100
AcDbLine
 62
253
  6
CONTINUOUS
 10
-9.1964127431
 20
12.1775963888
 11
-5.6405236646
 21
14.1235897095
  0
LINE
  5
222
100
AcDbEntity
  8
DRAFT
100
AcDbLine
 62
7
  6
CONTINUOUS
 10
-3.952336059
 20
12.2402654222
 11
-4.9393444863
 21
11.6290067092
  0
LINE
  5
223
100
AcDbEntity
  8
ASSI
100
AcDbLine
 62
7
  6
CONTINUOUS
 10
-3.952336059
 20
12.2402654222
 11
-4.9393444863
 21
11.6290067092
  0
LINE
  5
224
100
AcDbEntity
  8
DRAFT
100
AcDbLine
 62
7
  6
CONTINUOUS
 10
-3.952336059
 20
13.2794959067
 11
-5.8880649208
 21
12.1033669264
  0
LINE
  5
225
100
AcDbEntity
  8
ASSI
100
AcDbLine
 62
7
  6
CONTINUOUS
 10
-3.952336059
 20
13.2794959067
 11
-5.8880649208
 21
12.1033669264
  0
LWPOLYLINE
  5
226
100
AcDbEntity
  8
RACCORDO
100
AcDbPolyline
 62
7
  6
CONTINUOUS
 90
5
 70
0
 10
-9.5104822608
 20
11.9064972478
 10
-9.5113113788
 20
11.896591855
 10
-9.5118268044
 20
11.8866661505
 10
-9.5120278263
 20
11.8767344056
 10
-9.512030814
 20
11.8751409948
  0
LWPOLYLINE
  5
227
100
AcDbEntity
  8
0
100
AcDbPolyline
 62
7
  6
CONTINUOUS
 90
28
 70
0
 10
6.5318816754
 20
-13.7967392885
 10
6.5498566985
 20
-13.8038414427
 10
6.5680437187
 20
-13.8104555384
 10
6.5864294004
 20
-13.8165757863
 10
6.6050003448
 20
-13.8221969263
 10
6.6237641786
 20
-13.8273196448
 10
6.6427079151
 20
-13.8319380952
 10
6.6618180353
 20
-13.8360470493
 10
6.6811024883
 20
-13.8396455196
 10
6.7005488704
 20
-13.8427276708
 10
6.7201432722
 20
-13.8452880297
 10
6.7398923813
 20
-13.8473237596
 10
6.7597833505
 20
-13.8488291053
 10
6.7798028026
 20
-13.8497987057
 10
6.7999576075
 20
-13.8502280178
 10
6.8202370371
 20
-13.8501113279
 10
6.8406257208
 20
-13.8494432909
 10
6.8611245764
 20
-13.8482180353
 10
6.8817222006
 20
-13.8464301061
 10
6.9024042734
 20
-13.8440747456
 10
6.9231685273
 20
-13.8411458074
 10
6.9440029312
 20
-13.8376382834
 10
6.9648944345
 20
-13.8335479312
 10
6.985840621
 20
-13.8288683004
 10
7.0068301848
 20
-13.8235944811
 10
7.0278505589
 20
-13.8177224047
 10
7.0488989757
 20
-13.8112451459
 10
7.0699672691
 20
-13.8041568288
  0
LWPOLYLINE
  5
228
100
AcDbEntity
  8
0
100
AcDbPolyline
 62
7
  6
CONTINUOUS
 90
23
 70
0
 10
-9.4364533736
 20
3.2821924921
 10
-9.4272200522
 20
2.9100252107
 10
-9.4165475932
 20
2.5386793722
 10
-9.4044361685
 20
2.1681634322
 10
-9.3908859514
 20
1.7984853597
 10
-9.3758971292
 20
1.4296532433
 10
-9.3594699815
 20
1.061675976
 10
-9.34160482
 20
0.6945627293
 10
-9.3223019556
 20
0.3283221978
 10
-9.3015617582
 20
-0.0370371701
 10
-9.2793846348
 20
-0.4015065808
 10
-9.2557709929
 20
-0.7650775565
 10
-9.2307213075
 20
-1.1277416319
 10
-9.2042360922
 20
-1.4894900402
 10
-9.1763158562
 20
-1.8503143418
 10
-9.1469611728
 20
-2.2102061632
 10
-9.1161726563
 20
-2.569156845
 10
-9.0839509102
 20
-2.9271580897
 10
-9.050296624
 20
-3.2842014484
 10
-9.0152105484
 20
-3.6402780438
 10
-8.9786934276
 20
-3.9953792838
 10
-8.9407459834
 20
-4.3494974295
 10
-8.9013689316
 20
-4.7026248879
  0
LWPOLYLINE
  5
229
100
AcDbEntity
  8
ASSI
100
AcDbPolyline
 62
7
  6
CONTINUOUS
 90
9
 70
0
 10
-9.450549708
 20
4.0254759474
 10
-9.4284361357
 20
2.9558627103
 10
-9.3921071867
 20
1.830228186
 10
-9.3425073838
 20
0.7124056377
 10
-9.279645095
 20
-0.3973639089
 10
-9.2035313561
 20
-1.4988431282
 10
-9.1141797133
 20
-2.5917988014
 10
-9.0116065289
 20
-3.6759972775
 10
-8.8958311072
 20
-4.7512045532
  0
LWPOLYLINE
  5
22A
100
AcDbEntity
  8
0
100
AcDbPolyline
 62
7
  6
CONTINUOUS
 90
3
 70
0
 10
-9.4505497055
 20
4.0254757773
 10
-9.4442474334
 20
3.655171496
 10
-9.4364533736
 20
3.2821924921
  0
LINE
  5
22B
100
AcDbEntity
  8
ASSI
100
AcDbLine
 62
7
  6
CONTINUOUS
 10
-9.4625549713
 20
4.8656900058
 11
-9.4505497056
 21
4.0254757777
  0
LWPOLYLINE
  5
22C
100
AcDbEntity
  8
ASSI
100
AcDbPolyline
 62
7
  6
CONTINUOUS
 90
8
 70
0
 10
-9.5108935804
 20
11.050058509
 10
-9.5082748986
 20
10.1605700935
 10
-9.5042117503
 20
9.2718629941
 10
-9.4987041449
 20
8.3839414021
 10
-9.4917521015
 20
7.496808815
 10
-9.4833556392
 20
6.6104685144
 10
-9.4735147837
 20
5.7249240983
 10
-9.4625549713
 20
4.8656900058
  0
LINE
  5
22D
100
AcDbEntity
  8
ASSI
100
AcDbLine
 62
7
  6
CONTINUOUS
 10
-9.5120308509
 20
11.8751540133
 11
-9.5108935804
 21
11.050058509
  0
LWPOLYLINE
  5
22E
100
AcDbEntity
  8
0
100
AcDbPolyline
 62
7
  6
CONTINUOUS
 90
10
 70
0
 10
-9.5120308509
 20
11.8751540175
 10
-9.5107926826
 20
11.0036371222
 10
-9.5081523766
 20
10.1282190037
 10
-9.5041128325
 20
9.2535578775
 10
-9.4986740595
 20
8.3796577216
 10
-9.491836076
 20
7.5065218694
 10
-9.4835989001
 20
6.6341534674
 10
-9.4739625561
 20
5.7625559395
 10
-9.4629270875
 20
4.8917333537
 10
-9.4505497056
 20
4.0254757784
  0
LINE
  5
22F
100
AcDbEntity
  8
ASSI
100
AcDbLine
 62
7
  6
CONTINUOUS
 10
-9.5110322616
 20
11.9003608955
 11
-9.512030456
 21
11.8749167009
  0
LWPOLYLINE
  5
230
100
AcDbEntity
  8
0
100
AcDbPolyline
 62
7
  6
CONTINUOUS
 90
3
 70
0
 10
6.4965549526
 20
-13.7810664257
 10
6.5141120619
 20
-13.78914682
 10
6.5318816754
 20
-13.7967392885
  0
LWPOLYLINE
  5
231
100
AcDbEntity
  8
ASSI
100
AcDbPolyline
 62
7
  6
CONTINUOUS
 90
9
 70
0
 10
6.4836692115
 20
-13.7747555583
 10
6.5100621819
 20
-13.787332971
 10
6.5855205717
 20
-13.8162852555
 10
6.664970003
 20
-13.8366725373
 10
6.7472679786
 20
-13.8479453022
 10
6.8315975256
 20
-13.8498069421
 10
6.917677601
 20
-13.8419753406
 10
7.0049051191
 20
-13.8241017552
 10
7.0919952595
 20
-13.7960798788
  0
LINE
  5
232
100
AcDbEntity
  8
0
100
AcDbLine
 62
7
  6
CONTINUOUS
 10
6.484859469
 20
-13.775353324
 11
6.4965549526
 21
-13.7810664257
  0
LINE
  5
233
100
AcDbEntity
  8
ASSI
100
AcDbLine
 62
7
  6
CONTINUOUS
 10
-8.3811063491
 20
-6.3423704501
 11
6.4848854279
 21
-13.7753663386
  0
LINE
  5
234
100
AcDbEntity
  8
0
100
AcDbLine
 62
7
  6
CONTINUOUS
 10
-8.3811098101
 20
-6.3423687196
 11
6.4848854279
 21
-13.7753663386
  0
LINE
  5
235
100
AcDbEntity
  8
0
100
AcDbLine
 62
253
  6
CONTINUOUS
 10
-8.6286976263
 20
-5.9288545078
 11
6.2284909794
 21
-13.3574488106
  0
LINE
  5
236
100
AcDbEntity
  8
ASSI
100
AcDbLine
 62
253
  6
CONTINUOUS
 10
-8.6286976263
 20
-5.9288545078
 11
6.2284909794
 21
-13.3574488106
  0
LINE
  5
237
100
AcDbEntity
  8
ASSI
100
AcDbLine
 62
7
  6
CONTINUOUS
 10
6.4836707758
 20
-13.7747563675
 11
6.4848818745
 21
-13.7753645619
  0
LINE
  5
238
100
AcDbEntity
  8
ASSI
100
AcDbLine
 62
7
  6
CONTINUOUS
 10
-8.4466481808
 20
-6.3048801819
 11
-8.3802011649
 21
-6.3428214169
  0
LWPOLYLINE
  5
239
100
AcDbEntity
  8
0
100
AcDbPolyline
 62
7
  6
CONTINUOUS
 90
4
 70
0
 10
-8.4240637719
 20
-6.3189075017
 10
-8.4083172883
 20
-6.3279800507
 10
-8.3923375698
 20
-6.3366229541
 10
-8.3810904153
 20
-6.3423783818
  0
LWPOLYLINE
  5
23A
100
AcDbEntity
  8
0
100
AcDbPolyline
 62
7
  6
CONTINUOUS
 90
3
 70
0
 10
-8.4548412925
 20
-6.2994811363
 10
-8.4395706648
 20
-6.3094088918
 10
-8.4240637719
 20
-6.3189075017
  0
LWPOLYLINE
  5
23B
100
AcDbEntity
  8
0
100
AcDbPolyline
 62
7
  6
CONTINUOUS
 90
32
 70
0
 10
-8.7690217929
 20
-5.7932552103
 10
-8.7649662483
 20
-5.8151918756
 10
-8.760417094
 20
-5.8367997585
 10
-8.7553827456
 20
-5.8580736762
 10
-8.7498726343
 20
-5.8790045512
 10
-8.7438956387
 20
-5.8995868658
 10
-8.7374604975
 20
-5.9198165931
 10
-8.7305775552
 20
-5.9396848368
 10
-8.7232565986
 20
-5.959185598
 10
-8.7155073901
 20
-5.9783142839
 10
-8.707341566
 20
-5.9970622916
 10
-8.6987718726
 20
-6.0154199363
 10
-8.6898077021
 20
-6.0333862118
 10
-8.6804563182
 20
-6.0509636667
 10
-8.6707316362
 20
-6.0681420448
 10
-8.6606428556
 20
-6.0849205587
 10
-8.6501892131
 20
-6.1013136182
 10
-8.6393815832
 20
-6.1173151252
 10
-8.6282312379
 20
-6.132918991
 10
-8.6167362685
 20
-6.1481369905
 10
-8.6049066247
 20
-6.1629636094
 10
-8.5927541704
 20
-6.1773914923
 10
-8.5802785763
 20
-6.1914274254
 10
-8.5674905171
 20
-6.2050648979
 10
-8.5544014445
 20
-6.2182974308
 10
-8.5410112247
 20
-6.2311299747
 10
-8.527331092
 20
-6.2435557087
 10
-8.5133722722
 20
-6.2555685419
 10
-8.4991337725
 20
-6.2671728627
 10
-8.4846272765
 20
-6.2783619513
 10
-8.4698639968
 20
-6.2891300365
 10
-8.4548412925
 20
-6.2994811363
  0
LWPOLYLINE
  5
23C
100
AcDbEntity
  8
ASSI
100
AcDbPolyline
 62
7
  6
CONTINUOUS
 90
10
 70
0
 10
-8.7750735908
 20
-5.7527859535
 10
-8.7673284222
 20
-5.8027803774
 10
-8.7481641323
 20
-5.8850874473
 10
-8.7220490828
 20
-5.9622616022
 10
-8.6896507118
 20
-6.0336905421
 10
-8.6514311045
 20
-6.0994151869
 10
-8.6074934982
 20
-6.1597897313
 10
-8.558460533
 20
-6.2142689753
 10
-8.5049017909
 20
-6.2625483032
 10
-8.4466481808
 20
-6.3048801819
  0
LWPOLYLINE
  5
23D
100
AcDbEntity
  8
0
100
AcDbPolyline
 62
7
  6
CONTINUOUS
 90
3
 70
0
 10
-8.7751179836
 20
-5.7524389288
 10
-8.7725758544
 20
-5.7709936726
 10
-8.7690217929
 20
-5.7932552103
  0
LINE
  5
23E
100
AcDbEntity
  8
ASSI
100
AcDbLine
 62
7
  6
CONTINUOUS
 10
-8.7751182706
 20
-5.7524367156
 11
-8.7750735968
 21
-5.7527859543
  0
LINE
  5
23F
100
AcDbEntity
  8
ASSI
100
AcDbLine
 62
7
  6
CONTINUOUS
 10
-8.8958311072
 20
-4.7512045532
 11
-8.7751182706
 21
-5.7524367156
  0
LWPOLYLINE
  5
240
100
AcDbEntity
  8
0
100
AcDbPolyline
 62
7
  6
CONTINUOUS
 90
4
 70
0
 10
-8.9013689316
 20
-4.7026248879
 10
-8.8605630559
 20
-5.054753607
 10
-8.8183293524
 20
-5.4058744186
 10
-8.7751182999
 20
-5.7524364843
  0
LINE
  5
241
100
AcDbEntity
  8
DRAFT
100
AcDbLine
 62
7
  6
CONTINUOUS
 10
-3.952336059
 20
13.2794959067
 11
-3.952336059
 21
12.2402654222
  0
LINE
  5
242
100
AcDbEntity
  8
ASSI
100
AcDbLine
 62
7
  6
CONTINUOUS
 10
-3.952336059
 20
13.2794959067
 11
-3.952336059
 21
12.2402654222
  0
LINE
  5
243
100
AcDbEntity
  8
DRAFT
100
AcDbLine
 62
7
  6
CONTINUOUS
 10
8.0861087941
 20
7.2602734801
 11
5.7791969688
 21
6.2697359816
  0
LINE
  5
244
100
AcDbEntity
  8
ASSI
100
AcDbLine
 62
7
  6
CONTINUOUS
 10
8.0861087941
 20
7.2602734801
 11
5.7791969688
 21
6.2697359816
  0
LINE
  5
245
100
AcDbEntity
  8
RACCORDO
100
AcDbLine
 62
253
  6
CONTINUOUS
 10
9.7742963997
 20
6.4161796773
 11
5.9610722157
 21
4.5988539094
  0
LINE
  5
246
100
AcDbEntity
  8
ASSI
100
AcDbLine
 62
253
  6
CONTINUOUS
 10
9.7742963997
 20
6.4161796773
 11
5.9610722157
 21
4.5988539094
  0
LINE
  5
247
100
AcDbEntity
  8
RACCORDO
100
AcDbLine
 62
253
  6
CONTINUOUS
 10
9.9511269778
 20
6.111315733
 11
6.1331158564
 21
4.2917085822
  0
LINE
  5
248
100
AcDbEntity
  8
ASSI
100
AcDbLine
 62
253
  6
CONTINUOUS
 10
9.9511269778
 20
6.111315733
 11
6.1331158564
 21
4.2917085822
  0
LINE
  5
249
100
AcDbEntity
  8
0
100
AcDbLine
 62
253
  6
CONTINUOUS
 10
5.5044959581
 20
-3.5562454027
 11
-9.3040962336
 21
3.8480506931
  0
LINE
  5
24A
100
AcDbEntity
  8
ASSI
100
AcDbLine
 62
253
  6
CONTINUOUS
 10
5.5044959581
 20
-3.5562454027
 11
-9.3040962336
 21
3.8480506931
  0
LINE
  5
24B
100
AcDbEntity
  8
0
100
AcDbLine
 62
7
  6
CONTINUOUS
 10
0.9943888938
 20
2.0346606208
 11
-4.877282336
 21
4.9704962357
  0
LINE
  5
24C
100
AcDbEntity
  8
RACCORDO
100
AcDbLine
 62
7
  6
CONTINUOUS
 10
0.9943888938
 20
2.0346606208
 11
-4.877282336
 21
4.9704962357
  0
LINE
  5
24D
100
AcDbEntity
  8
ASSI
100
AcDbLine
 62
7
  6
CONTINUOUS
 10
0.9943888938
 20
2.0346606208
 11
-4.877282336
 21
4.9704962357
  0
LINE
  5
24E
100
AcDbEntity
  8
0
100
AcDbLine
 62
7
  6
CONTINUOUS
 10
0.9799438883
 20
3.9331376967
 11
-4.890839961
 21
6.8685296213
  0
LINE
  5
24F
100
AcDbEntity
  8
RACCORDO
100
AcDbLine
 62
7
  6
CONTINUOUS
 10
0.9799438883
 20
3.9331376967
 11
-4.890839961
 21
6.8685296213
  0
LINE
  5
250
100
AcDbEntity
  8
ASSI
100
AcDbLine
 62
7
  6
CONTINUOUS
 10
0.9799438883
 20
3.9331376967
 11
-4.890839961
 21
6.8685296213
  0
LINE
  5
251
100
AcDbEntity
  8
RACCORDO
100
AcDbLine
 62
253
  6
CONTINUOUS
 10
5.4385618078
 20
4.2957751537
 11
-9.3655826217
 21
11.6978473684
  0
LINE
  5
252
100
AcDbEntity
  8
ASSI
100
AcDbLine
 62
253
  6
CONTINUOUS
 10
5.4385618078
 20
4.2957751537
 11
-9.3655826217
 21
11.6978473684
  0
LINE
  5
253
100
AcDbEntity
  8
RACCORDO
100
AcDbLine
 62
253
  6
CONTINUOUS
 10
5.6137970935
 20
4.6000618483
 11
-9.1903499246
 21
12.0021353573
  0
LINE
  5
254
100
AcDbEntity
  8
ASSI
100
AcDbLine
 62
253
  6
CONTINUOUS
 10
5.6137970935
 20
4.6000618483
 11
-9.1903499246
 21
12.0021353573
  0
LINE
  5
255
100
AcDbEntity
  8
DRAFT
100
AcDbLine
 62
7
  6
CONTINUOUS
 10
5.7791969688
 20
6.2697359816
 11
-5.8880649208
 21
12.1033669264
  0
LINE
  5
256
100
AcDbEntity
  8
ASSI
100
AcDbLine
 62
7
  6
CONTINUOUS
 10
5.7791969688
 20
6.2697359816
 11
-5.8880649208
 21
12.1033669264
  0
LINE
  5
257
100
AcDbEntity
  8
RACCORDO
100
AcDbLine
 62
7
  6
CONTINUOUS
 10
9.9511269778
 20
6.111315733
 11
9.9511269778
 21
-4.9305658609
  0
LINE
  5
258
100
AcDbEntity
  8
ASSI
100
AcDbLine
 62
7
  6
CONTINUOUS
 10
9.9511269778
 20
6.111315733
 11
9.9511269778
 21
-4.9305658609
  0
LINE
  5
259
100
AcDbEntity
  8
0
100
AcDbLine
 62
7
  6
CONTINUOUS
 10
9.3998311169
 20
-12.6447376285
 11
9.9511269778
 21
-4.9305658609
  0
LINE
  5
25A
100
AcDbEntity
  8
ASSI
100
AcDbLine
 62
7
  6
CONTINUOUS
 10
9.3998311169
 20
-12.6447376285
 11
9.9511269778
 21
-4.9305658609
  0
LINE
  5
25B
100
AcDbEntity
  8
RACCORDO
100
AcDbLine
 62
7
  6
CONTINUOUS
 10
9.7742963997
 20
6.4161796773
 11
8.0861087941
 21
7.2602734801
  0
LINE
  5
25C
100
AcDbEntity
  8
ASSI
100
AcDbLine
 62
7
  6
CONTINUOUS
 10
9.7742963997
 20
6.4161796773
 11
8.0861087941
 21
7.2602734801
  0
LINE
  5
25D
100
AcDbEntity
  8
RACCORDO
100
AcDbLine
 62
7
  6
CONTINUOUS
 10
-3.952336059
 20
13.2794959067
 11
-5.6405236646
 21
14.1235897095
  0
LINE
  5
25E
100
AcDbEntity
  8
ASSI
100
AcDbLine
 62
7
  6
CONTINUOUS
 10
-3.952336059
 20
13.2794959067
 11
-5.6405236646
 21
14.1235897095
  0
LINE
  5
25F
100
AcDbEntity
  8
0
100
AcDbLine
 62
253
  6
CONTINUOUS
 10
7.2617535576
 20
-13.5090280779
 11
9.3998311169
 21
-12.6447376285
  0
LINE
  5
260
100
AcDbEntity
  8
ASSI
100
AcDbLine
 62
253
  6
CONTINUOUS
 10
7.2617535576
 20
-13.5090280779
 11
9.3998311169
 21
-12.6447376285
  0
LINE
  5
261
100
AcDbEntity
  8
0
100
AcDbLine
 62
7
  6
CONTINUOUS
 10
7.1081417391
 20
-13.7897476065
 11
9.230790669
 21
-12.9316939829
  0
LINE
  5
262
100
AcDbEntity
  8
ASSI
100
AcDbLine
 62
7
  6
CONTINUOUS
 10
9.230790669
 20
-12.9316939829
 11
7.1075060602
 21
-13.7900032371
  0
LINE
  5
263
100
AcDbEntity
  8
0
100
AcDbLine
 62
7
  6
CONTINUOUS
 10
7.0919952595
 20
-13.7960798788
 11
7.1081382781
 21
-13.7897489932
  0
LINE
  5
264
100
AcDbEntity
  8
ASSI
100
AcDbLine
 62
7
  6
CONTINUOUS
 10
7.0919952595
 20
-13.7960798788
 11
7.1075060559
 21
-13.7900032264
  0
LINE
  5
265
100
AcDbEntity
  8
0
100
AcDbLine
 62
7
  6
CONTINUOUS
 10
7.0699672691
 20
-13.8041568288
 11
7.0919952595
 21
-13.7960798788
  0
ARC
  5
266
100
AcDbEntity
  8
RACCORDO
100
AcDbCircle
 62
253
  6
CONTINUOUS
 10
533.9000637844
 20
12.0273624615
 40
543.2657495646
100
AcDbArc
 50
180.0347524677
 51
180.8626676024
  0
ARC
  5
267
100
AcDbEntity
  8
ASSI
100
AcDbCircle
 62
253
  6
CONTINUOUS
 10
533.9000637844
 20
12.0273624615
 40
543.2657495646
100
AcDbArc
 50
180.0347524677
 51
180.8626676024
  0
ARC
  5
268
100
AcDbEntity
  8
0
100
AcDbCircle
 62
7
  6
CONTINUOUS
 10
519.404923772
 20
9.9292767782
 40
524.5858329041
100
AcDbArc
 50
180.3564848358
 51
180.488709561
  0
ARC
  5
269
100
AcDbEntity
  8
RACCORDO
100
AcDbCircle
 62
7
  6
CONTINUOUS
 10
525.7383057709
 20
6.7112093626
 40
524.4845405911
100
AcDbArc
 50
180.3564737649
 51
180.4887240263
  0
ARC
  5
26A
100
AcDbEntity
  8
ASSI
100
AcDbCircle
 62
7
  6
CONTINUOUS
 10
525.7383057709
 20
6.7112093626
 40
524.4845405911
100
AcDbArc
 50
180.3564737649
 51
180.4887240263
  0
ARC
  5
26B
100
AcDbEntity
  8
RACCORDO
100
AcDbCircle
 62
253
  6
CONTINUOUS
 10
511.2970877218
 20
4.6165906494
 40
505.8586143969
100
AcDbArc
 50
180.0363369806
 51
180.9257317565
  0
ARC
  5
26C
100
AcDbEntity
  8
ASSI
100
AcDbCircle
 62
253
  6
CONTINUOUS
 10
511.2970877218
 20
4.6165906494
 40
505.8586143969
100
AcDbArc
 50
180.0363369806
 51
180.9257317565
  0
ARC
  5
26D
100
AcDbEntity
  8
RACCORDO
100
AcDbCircle
 62
253
  6
CONTINUOUS
 10
511.4364925405
 20
4.6101280711
 40
505.3034641267
100
AcDbArc
 50
180.0361052216
 51
180.9257740598
  0
ARC
  5
26E
100
AcDbEntity
  8
ASSI
100
AcDbCircle
 62
253
  6
CONTINUOUS
 10
511.4364925405
 20
4.6101280711
 40
505.3034641267
100
AcDbArc
 50
180.0361052216
 51
180.9257740598
  0
ARC
  5
26F
100
AcDbEntity
  8
CURVE
100
AcDbCircle
 62
253
  6
CONTINUOUS
 10
-2.5522927996
 20
-3.3965148482
 40
2.4147125237
100
AcDbArc
 50
358.6813159731
 51
2.5779387351
  0
ARC
  5
270
100
AcDbEntity
  8
CURVE
100
AcDbCircle
 62
253
  6
CONTINUOUS
 10
-1.3043217908
 20
-3.610125934
 40
1.1384113592
100
AcDbArc
 50
333.2575580567
 51
335.9603494962
  0
ARC
  5
271
100
AcDbEntity
  8
0
100
AcDbCircle
 62
7
  6
CONTINUOUS
 10
0.824653174
 20
3.4452290418
 40
0.439272286
100
AcDbArc
 50
0.3713343587
 51
3.0207856874
  0
ARC
  5
272
100
AcDbEntity
  8
0
100
AcDbCircle
 62
7
  6
CONTINUOUS
 10
0.8634828615
 20
2.23387143
 40
0.4093785016
100
AcDbArc
 50
357.7290130548
 51
0.5068209702
  0
ARC
  5
273
100
AcDbEntity
  8
0
100
AcDbCircle
 62
253
  6
CONTINUOUS
 10
6.6588340681
 20
-13.4274644781
 40
0.388964861
100
AcDbArc
 50
235.3376941519
 51
243.3033768423
  0
ARC
  5
274
100
AcDbEntity
  8
0
100
AcDbCircle
 62
253
  6
CONTINUOUS
 10
6.6584770618
 20
-13.4281429817
 40
0.3881982966
100
AcDbArc
 50
243.3054608346
 51
243.4335835094
  0
ARC
  5
275
100
AcDbEntity
  8
0
100
AcDbCircle
 62
253
  6
CONTINUOUS
 10
-8.2157386588
 20
-6.0128034758
 40
0.3687510883
100
AcDbArc
 50
235.0937080222
 51
237.0589444559
  0
ARC
  5
276
100
AcDbEntity
  8
0
100
AcDbCircle
 62
253
  6
CONTINUOUS
 10
-8.2187167539
 20
-6.0175958246
 40
0.3631098025
100
AcDbArc
 50
237.0421150118
 51
243.4346266922
  0
ARC
  5
277
100
AcDbEntity
  8
ASSI
100
AcDbCircle
 62
253
  6
CONTINUOUS
 10
-8.2187167539
 20
-6.0175958246
 40
0.3631098025
100
AcDbArc
 50
237.0421150118
 51
243.4346266922
  0
ARC
  5
278
100
AcDbEntity
  8
0
100
AcDbCircle
 62
7
  6
CONTINUOUS
 10
0.8278487394
 20
3.6292334765
 40
0.3398392404
100
AcDbArc
 50
60.2657070727
 51
63.4133789192
  0
ARC
  5
279
100
AcDbEntity
  8
0
100
AcDbCircle
 62
7
  6
CONTINUOUS
 10
-5.0304415658
 20
6.5896284998
 40
0.3118885116
100
AcDbArc
 50
63.4101305226
 51
66.7432273266
  0
ARC
  5
27A
100
AcDbEntity
  8
0
100
AcDbCircle
 62
253
  6
CONTINUOUS
 10
-8.6027012815
 20
-5.7305662646
 40
0.1737979583
100
AcDbArc
 50
187.2298840298
 51
187.3639784981
  0
ARC
  5
27B
100
AcDbEntity
  8
0
100
AcDbCircle
 62
253
  6
CONTINUOUS
 10
-8.6028771056
 20
-5.7305899747
 40
0.1736205455
100
AcDbArc
 50
187.3636554945
 51
189.2806106291
  0
ARC
  5
27C
100
AcDbEntity
  8
RACCORDO
100
AcDbCircle
 62
7
  6
CONTINUOUS
 10
-5.0004690849
 20
6.7445592334
 40
0.1520395851
100
AcDbArc
 50
125.5040224764
 51
131.3670801135
  0
ARC
  5
27D
100
AcDbEntity
  8
ASSI
100
AcDbCircle
 62
7
  6
CONTINUOUS
 10
-5.0004690849
 20
6.7445592334
 40
0.1520395851
100
AcDbArc
 50
125.5040224764
 51
131.3670801135
  0
ARC
  5
27E
100
AcDbEntity
  8
0
100
AcDbCircle
 62
7
  6
CONTINUOUS
 10
1.1055066307
 20
2.1560302358
 40
0.1488190549
100
AcDbArc
 50
287.7951541958
 51
289.6181607913
  0
SPLINE
  5
27F
100
AcDbEntity
  8
0
100
AcDbSpline
 62
7
  6
CONTINUOUS
 70
0
 71
3
 72
14
 73
10
 74
8
 42
0.0000001
 43
0.0000001
 44
0.0000000001
 12
-0.1542207178
 22
-0.0495065853
 32
0.0
 13
-0.144755623
 23
0.0723778115
 33
0.0
 40
0.0
 40
0.0
 40
0.0
 40
0.0
 40
0.1023200679
 40
0.2374372834
 40
0.376996687
 40
0.5218828048
 40
0.6739155465
 40
0.8334144111
 40
1.0
 40
1.0
 40
1.0
 40
1.0
 10
1.150987933
 20
2.0143313924
 30
0.0
 10
1.1457279749
 20
2.0126428867
 30
0.0
 10
1.1333052318
 20
2.0093996703
 30
0.0
 10
1.1130844976
 20
2.0067064727
 30
0.0
 10
1.0903908707
 20
2.0066569235
 30
0.0
 10
1.0669570076
 20
2.00944259
 30
0.0
 10
1.042932013
 20
2.0150419362
 30
0.0
 10
1.0184958376
 20
2.023417787
 30
0.0
 10
1.0024269607
 20
2.0306415873
 30
0.0
 10
0.9943888938
 20
2.0346606208
 30
0.0
 11
1.150987933
 21
2.0143313924
 31
0.0
 11
1.1349631433
 21
2.0101349419
 31
0.0
 11
1.1132926922
 21
2.007205179
 31
0.0
 11
1.0907063929
 21
2.0071026432
 31
0.0
 11
1.0674149567
 21
2.009813108
 31
0.0
 11
1.0434384593
 21
2.015339891
 31
0.0
 11
1.0190008748
 21
2.0236552249
 31
0.0
 11
0.9943888938
 21
2.0346606208
 31
0.0
  0
SPLINE
  5
280
100
AcDbEntity
  8
0
100
AcDbSpline
 62
7
  6
CONTINUOUS
 70
0
 71
3
 72
17
 73
13
 74
11
 42
0.0000001
 43
0.0000001
 44
0.0000000001
 12
-0.0014136376
 22
0.227185663
 32
0.0
 13
0.1851112433
 23
0.1320421938
 33
0.0
 40
0.0
 40
0.0
 40
0.0
 40
0.0
 40
0.1300572035
 40
0.2552847793
 40
0.3750093211
 40
0.4890287605
 40
0.5982816005
 40
0.7029314772
 40
0.8031622927
 40
0.8998537876
 40
0.9944866023
 40
1.0
 40
1.0
 40
1.0
 40
1.0
 10
-5.1707554741
 20
6.6654118031
 30
0.0
 10
-5.1708167587
 20
6.6752608471
 30
0.0
 10
-5.1702640206
 20
6.6946061411
 30
0.0
 10
-5.1672782271
 20
6.7228774516
 30
0.0
 10
-5.162175162
 20
6.749614337
 30
0.0
 10
-5.1549996733
 20
6.7746191129
 30
0.0
 10
-5.145797139
 20
6.7977330131
 30
0.0
 10
-5.1346186076
 20
6.8187907946
 30
0.0
 10
-5.1215601339
 20
6.837597969
 30
0.0
 10
-5.1067112414
 20
6.8540252364
 30
0.0
 10
-5.0952687365
 20
6.8636545027
 30
0.0
 10
-5.0891078083
 20
6.8680881532
 30
0.0
 10
-5.088767611
 20
6.8683308203
 30
0.0
 11
-5.1707554741
 21
6.6654118031
 31
0.0
 11
-5.1698694785
 21
6.6949462208
 31
0.0
 11
-5.1668340366
 21
6.7232342889
 31
0.0
 11
-5.1616829358
 21
6.7499423112
 31
0.0
 11
-5.1544840315
 21
6.7748259868
 31
0.0
 11
-5.1452482166
 21
6.79786486
 31
0.0
 11
-5.1340489048
 21
6.8188373568
 31
0.0
 11
-5.1210176926
 21
6.8375115695
 31
0.0
 11
-5.1062544747
 21
6.8537784597
 31
0.0
 11
-5.0897851411
 21
6.8675985666
 31
0.0
 11
-5.088767611
 21
6.8683308203
 31
0.0
  0
SPLINE
  5
281
100
AcDbEntity
  8
0
100
AcDbSpline
 62
7
  6
CONTINUOUS
 70
0
 71
3
 72
25
 73
21
 74
19
 42
0.0000001
 43
0.0000001
 44
0.0000000001
 12
-0.5245274336
 22
0.2622637168
 32
0.0
 13
-0.0050025685
 23
0.5864181615
 33
0.0
 40
0.0
 40
0.0
 40
0.0
 40
0.0
 40
0.0480002932
 40
0.0980590819
 40
0.1498717826
 40
0.2031749175
 40
0.2581430781
 40
0.3144923273
 40
0.3717784855
 40
0.4297960057
 40
0.4886066784
 40
0.5477370808
 40
0.6067006057
 40
0.6655412348
 40
0.7240391648
 40
0.7817066167
 40
0.8381979445
 40
0.893647016
 40
0.9477181013
 40
1.0
 40
1.0
 40
1.0
 40
1.0
 10
-4.877282336
 20
4.9704962357
 30
0.0
 10
-4.8856748262
 20
4.9746924808
 30
0.0
 10
-4.9024572752
 20
4.9840060508
 30
0.0
 10
-4.9269151347
 20
5.0001806805
 30
0.0
 10
-4.9509682195
 20
5.0187029886
 30
0.0
 10
-4.974445429
 20
5.0394260135
 30
0.0
 10
-4.9971972891
 20
5.0622121748
 30
0.0
 10
-5.0190592927
 20
5.0869015564
 30
0.0
 10
-5.0398386612
 20
5.1132705296
 30
0.0
 10
-5.0594043052
 20
5.1411411689
 30
0.0
 10
-5.0776268218
 20
5.1703334032
 30
0.0
 10
-5.0943567552
 20
5.200617071
 30
0.0
 10
-5.1094633639
 20
5.231748656
 30
0.0
 10
-5.1228486976
 20
5.2635243866
 30
0.0
 10
-5.1344166087
 20
5.2957374103
 30
0.0
 10
-5.1440586736
 20
5.3281001651
 30
0.0
 10
-5.1517079904
 20
5.3603795384
 30
0.0
 10
-5.1573101008
 20
5.3923649415
 30
0.0
 10
-5.1608121279
 20
5.4238201626
 30
0.0
 10
-5.1617391805
 20
5.4446087894
 30
0.0
 10
-5.1618263617
 20
5.4548284744
 30
0.0
 11
-4.877282336
 21
4.9704962357
 31
0.0
 11
-4.9019180719
 21
4.9841146718
 31
0.0
 11
-4.9264275639
 21
5.0002728281
 31
0.0
 11
-4.9505239162
 21
5.0187826875
 31
0.0
 11
-4.9739795624
 21
5.0394457397
 31
0.0
 11
-4.9967745345
 21
5.0622386497
 31
0.0
 11
-5.0186972087
 21
5.0869650829
 31
0.0
 11
-5.0395030197
 21
5.1133418386
 31
0.0
 11
-5.0590613161
 21
5.1411822707
 31
0.0
 11
-5.0773300429
 21
5.1704352695
 31
0.0
 11
-5.0941004271
 21
5.2007866645
 31
0.0
 11
-5.1091947591
 21
5.2318967363
 31
0.0
 11
-5.122584887
 21
5.2636992658
 31
0.0
 11
-5.1341694173
 21
5.2959896013
 31
0.0
 11
-5.1438113362
 21
5.32840445
 31
0.0
 11
-5.1514312891
 21
5.3606449545
 31
0.0
 11
-5.1570168738
 21
5.3926791662
 31
0.0
 11
-5.160495481
 21
5.4241972026
 31
0.0
 11
-5.1618263617
 21
5.4548284744
 31
0.0
  0
SPLINE
  5
282
100
AcDbEntity
  8
0
100
AcDbSpline
 62
7
  6
CONTINUOUS
 70
0
 71
3
 72
16
 73
12
 74
10
 42
0.0000001
 43
0.0000001
 44
0.0000000001
 12
0.1548355564
 22
0.110446163
 32
0.0
 13
0.1746969933
 23
-0.0749889637
 33
0.0
 40
0.0
 40
0.0
 40
0.0
 40
0.0
 40
0.1049978016
 40
0.2160721982
 40
0.3286658053
 40
0.4442432496
 40
0.5635640949
 40
0.6873708907
 40
0.8172089711
 40
0.9533450901
 40
1.0
 40
1.0
 40
1.0
 40
1.0
 10
-5.088767611
 20
6.8683308203
 30
0.0
 10
-5.08334848
 20
6.872196355
 30
0.0
 10
-5.0716656731
 20
6.8794091993
 30
0.0
 10
-5.0525329691
 20
6.8877970675
 30
0.0
 10
-5.0317579974
 20
6.8935616062
 30
0.0
 10
-5.0098750406
 20
6.8964877148
 30
0.0
 10
-4.9870937168
 20
6.8965531506
 30
0.0
 10
-4.9635798398
 20
6.8937748601
 30
0.0
 10
-4.9394851267
 20
6.8881746133
 30
0.0
 10
-4.9207209739
 20
6.8817515009
 30
0.0
 10
-4.910008444
 20
6.8773405689
 30
0.0
 10
-4.9072916199
 20
6.8761743678
 30
0.0
 11
-5.088767611
 21
6.8683308203
 31
0.0
 11
-5.0717827785
 21
6.8788052815
 31
0.0
 11
-5.0524545199
 21
6.8872878514
 31
0.0
 11
-5.0318443128
 21
6.8930346619
 31
0.0
 11
-5.0100803025
 21
6.895987703
 31
0.0
 11
-4.9874058036
 21
6.8961054282
 31
0.0
 11
-4.9640343957
 21
6.8934016939
 31
0.0
 11
-4.9399882508
 21
6.8878735416
 31
0.0
 11
-4.9154937492
 21
6.8795495323
 31
0.0
 11
-4.9072916199
 21
6.8761743678
 31
0.0
  0
LINE
  5
283
100
AcDbEntity
  8
0
100
AcDbLine
 62
7
  6
CONTINUOUS
 10
1.2639162346
 20
3.4480759487
 11
1.2650633867
 21
3.2686424742
  0
LINE
  5
284
100
AcDbEntity
  8
0
100
AcDbLine
 62
7
  6
CONTINUOUS
 10
1.2650633867
 20
3.2686424742
 11
1.2653597249
 21
3.2237884953
  0
LINE
  5
285
100
AcDbEntity
  8
0
100
AcDbLine
 62
7
  6
CONTINUOUS
 10
1.2653597249
 20
3.2237884953
 11
1.2678679091
 21
2.8650268045
  0
LINE
  5
286
100
AcDbEntity
  8
0
100
AcDbLine
 62
7
  6
CONTINUOUS
 10
1.2678679091
 20
2.8650268045
 11
1.268198617
 21
2.820190351
  0
LINE
  5
287
100
AcDbEntity
  8
0
100
AcDbLine
 62
7
  6
CONTINUOUS
 10
1.268198617
 20
2.820190351
 11
1.270981757
 21
2.4615692028
  0
LINE
  5
288
100
AcDbEntity
  8
0
100
AcDbLine
 62
7
  6
CONTINUOUS
 10
1.270981757
 20
2.4615692028
 11
1.2713468342
 21
2.416750358
  0
LINE
  5
289
100
AcDbEntity
  8
0
100
AcDbLine
 62
7
  6
CONTINUOUS
 10
1.2713468342
 20
2.416750358
 11
1.272845347
 21
2.23749262
  0
SPLINE
  5
28A
100
AcDbEntity
  8
0
100
AcDbSpline
 62
7
  6
CONTINUOUS
 70
0
 71
3
 72
25
 73
21
 74
19
 42
0.0000001
 43
0.0000001
 44
0.0000000001
 12
0.4760651431
 22
-0.2716862358
 32
0.0
 13
0.028742675
 23
-0.5473191178
 33
0.0
 40
0.0
 40
0.0
 40
0.0
 40
0.0
 40
0.0173798543
 40
0.0710354597
 40
0.1265740146
 40
0.183712675
 40
0.2426367666
 40
0.3030389801
 40
0.3644410988
 40
0.4266233133
 40
0.4896463532
 40
0.5529995242
 40
0.6161603136
 40
0.6791775961
 40
0.7418114536
 40
0.8035396236
 40
0.8639953254
 40
0.9233222358
 40
0.981159128
 40
1.0
 40
1.0
 40
1.0
 40
1.0
 10
0.9964016882
 20
3.9243277204
 30
0.0
 10
0.9991596692
 20
3.9227537647
 30
0.0
 10
1.0103460278
 20
3.9161687973
 30
0.0
 10
1.0296398862
 20
3.9033971626
 30
0.0
 10
1.0537162154
 20
3.8848295675
 30
0.0
 10
1.0772096177
 20
3.8640514854
 30
0.0
 10
1.0999691186
 20
3.8412022241
 30
0.0
 10
1.121828917
 20
3.8164439666
 30
0.0
 10
1.1425957213
 20
3.7900026395
 30
0.0
 10
1.1621380111
 20
3.7620587447
 30
0.0
 10
1.1803262068
 20
3.732795173
 30
0.0
 10
1.1970110437
 20
3.7024453297
 30
0.0
 10
1.2120630214
 20
3.6712547956
 30
0.0
 10
1.2253854543
 20
3.6394293214
 30
0.0
 10
1.2368837512
 20
3.607177376
 30
0.0
 10
1.2464515057
 20
3.574787812
 30
0.0
 10
1.2540239813
 20
3.5424938629
 30
0.0
 10
1.2595486639
 20
3.5105063111
 30
0.0
 10
1.2622409142
 20
3.4857962842
 30
0.0
 10
1.2631345713
 20
3.4718152388
 30
0.0
 10
1.2633150836
 20
3.4683779157
 30
0.0
 11
0.9964016882
 21
3.9243277204
 31
0.0
 11
1.0046120292
 21
3.9194966692
 31
0.0
 11
1.0291502882
 21
3.9033043463
 31
0.0
 11
1.053269956
 21
3.8847493751
 31
0.0
 11
1.0767420461
 21
3.8640313866
 31
0.0
 11
1.0995450975
 21
3.8411751486
 31
0.0
 11
1.1214658772
 21
3.8163796036
 31
0.0
 11
1.1422591215
 21
3.7899306801
 31
0.0
 11
1.1617947172
 21
3.7620163686
 31
0.0
 11
1.180029422
 21
3.732691465
 31
0.0
 11
1.196754747
 21
3.7022736507
 31
0.0
 11
1.2117943738
 21
3.6711050375
 31
0.0
 11
1.2251218858
 21
3.6392520315
 31
0.0
 11
1.2366366485
 21
3.6069227451
 31
0.0
 11
1.2462039824
 21
3.5744816654
 31
0.0
 11
1.2537471775
 21
3.5422267335
 31
0.0
 11
1.2592552866
 21
3.5101900638
 31
0.0
 11
1.2626577148
 21
3.4786829333
 31
0.0
 11
1.2633150836
 21
3.4683779157
 31
0.0
  0
SPLINE
  5
28B
100
AcDbEntity
  8
0
100
AcDbSpline
 62
7
  6
CONTINUOUS
 70
0
 71
3
 72
18
 73
14
 74
12
 42
0.0000001
 43
0.0000001
 44
0.0000000001
 12
-0.0099005647
 22
-0.2476557594
 32
0.0
 13
-0.2335873972
 23
-0.0832697719
 33
0.0
 40
0.0
 40
0.0
 40
0.0
 40
0.0
 40
0.0392494446
 40
0.1540753989
 40
0.2637785377
 40
0.3681814313
 40
0.4681473846
 40
0.5638276364
 40
0.6554002396
 40
0.7436879507
 40
0.8300547987
 40
0.9152162534
 40
1.0
 40
1.0
 40
1.0
 40
1.0
 10
1.2725398326
 20
2.2176494704
 30
0.0
 10
1.272410302
 20
2.2144093534
 30
0.0
 10
1.2717446879
 20
2.2016962043
 30
0.0
 10
1.2695100165
 20
2.1800022759
 30
0.0
 10
1.2644822331
 20
2.1532686846
 30
0.0
 10
1.2573850788
 20
2.1282777327
 30
0.0
 10
1.2482642761
 20
2.1051866628
 30
0.0
 10
1.2371711635
 20
2.084159237
 30
0.0
 10
1.2242015858
 20
2.0653878038
 30
0.0
 10
1.2094447022
 20
2.0489994993
 30
0.0
 10
1.1929912901
 20
2.0351138965
 30
0.0
 10
1.1749724197
 20
2.0238621021
 30
0.0
 10
1.1620741226
 20
2.0182032743
 30
0.0
 10
1.1554726511
 20
2.0158499665
 30
0.0
 11
1.2725398326
 21
2.2176494704
 31
0.0
 11
1.2720296717
 21
2.2079349075
 31
0.0
 11
1.2690665143
 21
2.1796378655
 31
0.0
 11
1.263990212
 21
2.1529336455
 31
0.0
 11
1.2568687796
 21
2.1280640531
 31
0.0
 11
1.2477138947
 21
2.1050482424
 31
0.0
 11
1.2365995426
 21
2.0841070996
 31
0.0
 11
1.2236571987
 21
2.0654702459
 31
0.0
 11
1.2089857692
 21
2.0492433609
 31
0.0
 11
1.1926117066
 21
2.0354645653
 31
0.0
 11
1.1747070433
 21
2.0242979165
 31
0.0
 11
1.1554726511
 21
2.0158499665
 31
0.0
  0
SPLINE
  5
28C
100
AcDbEntity
  8
RACCORDO
100
AcDbSpline
 62
7
  6
CONTINUOUS
 70
0
 71
3
 72
16
 73
12
 74
10
 42
0.0000001
 43
0.0000001
 44
0.0000000001
 12
0.1696147045
 22
0.1209883165
 32
0.0
 13
0.1861936725
 23
-0.0930968362
 33
0.0
 40
0.0
 40
0.0
 40
0.0
 40
0.0
 40
0.0958690123
 40
0.1972796348
 40
0.3000767723
 40
0.4055993299
 40
0.5145435844
 40
0.6275877901
 40
0.7461181251
 40
0.8703585636
 40
1.0
 40
1.0
 40
1.0
 40
1.0
 10
-5.088767611
 20
6.8683308203
 30
0.0
 10
-5.0833473463
 20
6.8721971638
 30
0.0
 10
-5.0716623774
 20
6.8794111165
 30
0.0
 10
-5.0525262211
 20
6.8877996131
 30
0.0
 10
-5.0317479191
 20
6.8935637947
 30
0.0
 10
-5.0098612725
 20
6.89648878
 30
0.0
 10
-4.9870756767
 20
6.8965522547
 30
0.0
 10
-4.9635585532
 20
6.8937711918
 30
0.0
 10
-4.9394646214
 20
6.8881685645
 30
0.0
 10
-4.9149793812
 20
6.8797850038
 30
0.0
 10
-4.8988860994
 20
6.8725526905
 30
0.0
 10
-4.890839961
 20
6.8685296213
 30
0.0
 11
-5.088767611
 21
6.8683308203
 31
0.0
 11
-5.0717790823
 21
6.8788072297
 31
0.0
 11
-5.0524477301
 21
6.8872902713
 31
0.0
 11
-5.0318343509
 21
6.8930367088
 31
0.0
 11
-5.0100668753
 21
6.8959886295
 31
0.0
 11
-4.9873881524
 21
6.8961044333
 31
0.0
 11
-4.9640118184
 21
6.8933977783
 31
0.0
 11
-4.9399651178
 21
6.8878669412
 31
0.0
 11
-4.9154778979
 21
6.879543291
 31
0.0
 11
-4.890839961
 21
6.8685296213
 31
0.0
  0
SPLINE
  5
28D
100
AcDbEntity
  8
RACCORDO
100
AcDbSpline
 62
7
  6
CONTINUOUS
 70
0
 71
3
 72
19
 73
15
 74
13
 42
0.0000001
 43
0.0000001
 44
0.0000000001
 12
0.0023233124
 22
-0.2723466015
 32
0.0
 13
-0.2595315173
 23
-0.0833125346
 33
0.0
 40
0.0
 40
0.0
 40
0.0
 40
0.0
 40
0.1085012282
 40
0.2129420887
 40
0.312754366
 40
0.4077593882
 40
0.4987226518
 40
0.5857825686
 40
0.6691038925
 40
0.7494370233
 40
0.8280230385
 40
0.9055121163
 40
0.9826399433
 40
1.0
 40
1.0
 40
1.0
 40
1.0
 10
1.272845347
 20
2.23749262
 30
0.0
 10
1.2729293745
 20
2.2276426398
 30
0.0
 10
1.2724237215
 20
2.2082968525
 30
0.0
 10
1.2695130226
 20
2.1800237739
 30
0.0
 10
1.2644871548
 20
2.1532892834
 30
0.0
 10
1.2573906144
 20
2.128293661
 30
0.0
 10
1.2482694229
 20
2.1051975823
 30
0.0
 10
1.2371755521
 20
2.0841662671
 30
0.0
 10
1.2242047885
 20
2.06539166
 30
0.0
 10
1.2094461022
 20
2.0490006534
 30
0.0
 10
1.1929902217
 20
2.0351129228
 30
0.0
 10
1.1749697035
 20
2.0238606217
 30
0.0
 10
1.1606224958
 20
2.0175665759
 30
0.0
 10
1.1524897608
 20
2.0148134955
 30
0.0
 10
1.1509879335
 20
2.0143313921
 30
0.0
 11
1.272845347
 21
2.23749262
 31
0.0
 11
1.2720308405
 21
2.2079528312
 31
0.0
 11
1.2690700711
 21
2.1796621912
 31
0.0
 11
1.2639953905
 21
2.1529555265
 31
0.0
 11
1.2568740438
 21
2.1280795485
 31
0.0
 11
1.2477187731
 21
2.1050588241
 31
0.0
 11
1.2366037629
 21
2.0841140404
 31
0.0
 11
1.2236603183
 21
2.0654741837
 31
0.0
 11
1.2089870924
 21
2.0492446404
 31
0.0
 11
1.1926105258
 21
2.035463706
 31
0.0
 11
1.1747029063
 21
2.024295733
 31
0.0
 11
1.1554697395
 21
2.0158489288
 31
0.0
 11
1.1509879335
 21
2.0143313921
 31
0.0
  0
SPLINE
  5
28E
100
AcDbEntity
  8
RACCORDO
100
AcDbSpline
 62
7
  6
CONTINUOUS
 70
0
 71
3
 72
25
 73
21
 74
19
 42
0.0000001
 43
0.0000001
 44
0.0000000001
 12
0.524939942
 22
-0.262469971
 32
0.0
 13
0.0036518538
 23
-0.5868893357
 33
0.0
 40
0.0
 40
0.0
 40
0.0
 40
0.0
 40
0.0480002896
 40
0.0980777546
 40
0.1499276073
 40
0.2032806204
 40
0.2582997211
 40
0.3146977562
 40
0.3720294192
 40
0.4300903448
 40
0.4889371177
 40
0.5480921557
 40
0.6070668692
 40
0.6659068303
 40
0.7243887663
 40
0.7820262864
 40
0.838476684
 40
0.8938625151
 40
0.9478403938
 40
1.0
 40
1.0
 40
1.0
 40
1.0
 10
0.9799438883
 20
3.9331376967
 30
0.0
 10
0.9883429781
 20
3.9289381518
 30
0.0
 10
1.0051408172
 20
3.919613365
 30
0.0
 10
1.0296210234
 20
3.9034105664
 30
0.0
 10
1.0536974411
 20
3.8848451923
 30
0.0
 10
1.0771942751
 20
3.8640661177
 30
0.0
 10
1.0999578986
 20
3.8412143363
 30
0.0
 10
1.1218212084
 20
3.8164533573
 30
0.0
 10
1.1425911597
 20
3.7900089369
 30
0.0
 10
1.1621364251
 20
3.7620613152
 30
0.0
 10
1.1803273519
 20
3.7327934019
 30
0.0
 10
1.1970144567
 20
3.702438908
 30
0.0
 10
1.2120680879
 20
3.6712437464
 30
0.0
 10
1.225391575
 20
3.6394137468
 30
0.0
 10
1.2368904599
 20
3.6071570867
 30
0.0
 10
1.2464583682
 20
3.5747623411
 30
0.0
 10
1.2540299661
 20
3.542464797
 30
0.0
 10
1.2595524389
 20
3.5104788411
 30
0.0
 10
1.2629756219
 20
3.4790448123
 30
0.0
 10
1.2638527416
 20
3.458279921
 30
0.0
 10
1.2639162346
 20
3.4480759488
 30
0.0
 11
0.9799438883
 21
3.9331376967
 31
0.0
 11
1.0045973474
 21
3.9195055683
 31
0.0
 11
1.0291291699
 21
3.9033194283
 31
0.0
 11
1.0532497281
 21
3.8847660709
 31
0.0
 11
1.0767267298
 21
3.8640458059
 31
0.0
 11
1.0995339423
 21
3.841187033
 31
0.0
 11
1.1214580876
 21
3.8163889502
 31
0.0
 11
1.1422543784
 21
3.7899370746
 31
0.0
 11
1.1617929623
 21
3.7620190274
 31
0.0
 11
1.1800304799
 21
3.7326896571
 31
0.0
 11
1.1967581426
 21
3.7022670657
 31
0.0
 11
1.2117994233
 21
3.6710938205
 31
0.0
 11
1.2251279286
 21
3.6392364222
 31
0.0
 11
1.2366431901
 21
3.6069026443
 31
0.0
 11
1.2462106789
 21
3.5744563353
 31
0.0
 11
1.2537534981
 21
3.5421956114
 31
0.0
 11
1.2592595939
 21
3.5101593533
 31
0.0
 11
1.2626592356
 21
3.4786626399
 31
0.0
 11
1.2639162346
 21
3.4480759488
 31
0.0
  0
SPLINE
  5
28F
100
AcDbEntity
  8
0
100
AcDbSpline
 62
253
  6
CONTINUOUS
 70
0
 71
3
 72
17
 73
13
 74
11
 42
0.0000001
 43
0.0000001
 44
0.0000000001
 12
0.0036245442
 22
-0.2417804495
 32
0.0
 13
0.2159671725
 23
-0.1081563273
 33
0.0
 40
0.0
 40
0.0
 40
0.0
 40
0.0
 40
0.0103943541
 40
0.1011450801
 40
0.1939167887
 40
0.2903486394
 40
0.3918036089
 40
0.4993198327
 40
0.6136097523
 40
0.7350873343
 40
0.8639064207
 40
1.0
 40
1.0
 40
1.0
 40
1.0
 10
-9.4505495508
 20
4.0254757796
 30
0.0
 10
-9.4505369926
 20
4.0246380624
 30
0.0
 10
-9.4503363817
 20
4.0164876603
 30
0.0
 10
-9.4484835497
 20
4.000912474
 30
0.0
 10
-9.4421813498
 20
3.9791726197
 30
0.0
 10
-9.4322693102
 20
3.9578811853
 30
0.0
 10
-9.4188476892
 20
3.9371933152
 30
0.0
 10
-9.4020338828
 20
3.9172487031
 30
0.0
 10
-9.3819604146
 20
3.8981782956
 30
0.0
 10
-9.3587758194
 20
3.8801076832
 30
0.0
 10
-9.3326493183
 20
3.863159181
 30
0.0
 10
-9.3138934821
 20
3.8529571537
 30
0.0
 10
-9.3040962336
 20
3.8480506931
 30
0.0
 11
-9.4505495508
 21
4.0254757796
 31
0.0
 11
-9.4504876726
 21
4.0229631616
 31
0.0
 11
-9.4479214166
 21
4.0011943415
 31
0.0
 11
-9.4417365116
 21
3.9796571166
 31
0.0
 11
-9.4319779613
 21
3.9585081999
 31
0.0
 11
-9.4187167726
 21
3.9379014788
 31
0.0
 11
-9.4020494388
 21
3.9179868957
 31
0.0
 11
-9.3820972378
 21
3.8989093563
 31
0.0
 11
-9.3590053493
 21
3.8808076763
 31
0.0
 11
-9.3329417985
 21
3.86381357
 31
0.0
 11
-9.3040962336
 21
3.8480506931
 31
0.0
  0
SPLINE
  5
290
100
AcDbEntity
  8
0
100
AcDbSpline
 62
253
  6
CONTINUOUS
 70
0
 71
3
 72
10
 73
6
 74
4
 42
0.0000001
 43
0.0000001
 44
0.0000000001
 12
0.0074485003
 22
-0.0455801443
 32
0.0
 13
0.0188271118
 23
-0.0421704433
 33
0.0
 40
0.0
 40
0.0
 40
0.0
 40
0.0
 40
0.0823660372
 40
0.6298019949
 40
1.0
 40
1.0
 40
1.0
 40
1.0
 10
-8.7742250185
 20
-5.7585897343
 30
0.0
 10
-8.7740205174
 20
-5.7598411529
 30
0.0
 10
-8.7723518811
 20
-5.7693927554
 30
0.0
 10
-8.768430674
 20
-5.7843212176
 30
0.0
 10
-8.763255396
 20
-5.7974806463
 30
0.0
 10
-8.760932143
 20
-5.802684451
 30
0.0
 11
-8.7742250185
 21
-5.7585897343
 31
0.0
 11
-8.7735703669
 21
-5.7623369271
 31
0.0
 11
-8.7671744173
 21
-5.7867751228
 31
0.0
 11
-8.760932143
 21
-5.802684451
 31
0.0
  0
SPLINE
  5
291
100
AcDbEntity
  8
0
100
AcDbSpline
 62
253
  6
CONTINUOUS
 70
0
 71
3
 72
14
 73
10
 74
8
 42
0.0000001
 43
0.0000001
 44
0.0000000001
 12
0.0759880624
 22
-0.1702040287
 32
0.0
 13
0.1662134973
 23
-0.084024983
 33
0.0
 40
0.0
 40
0.0
 40
0.0
 40
0.0
 40
0.0464367482
 40
0.188742367
 40
0.3365678636
 40
0.4909883586
 40
0.6527687187
 40
0.8223750858
 40
1.0
 40
1.0
 40
1.0
 40
1.0
 10
-8.760932143
 20
-5.802684451
 30
0.0
 10
-8.7597559301
 20
-5.8053190249
 30
0.0
 10
-8.7547299587
 20
-5.8159178102
 30
0.0
 10
-8.7440713219
 20
-5.8339584091
 30
0.0
 10
-8.7271215394
 20
-5.8558235983
 30
0.0
 10
-8.7069217161
 20
-5.8764442542
 30
0.0
 10
-8.6836258985
 20
-5.8956796881
 30
0.0
 10
-8.6574090502
 20
-5.9133977947
 30
0.0
 10
-8.6385388456
 20
-5.923879531
 30
0.0
 10
-8.6286976262
 20
-5.9288545078
 30
0.0
 11
-8.760932143
 21
-5.802684451
 31
0.0
 11
-8.7572252457
 21
-5.8105051461
 31
0.0
 11
-8.7437952821
 21
-5.8333542422
 31
0.0
 11
-8.7269822968
 21
-5.8551560692
 31
0.0
 11
-8.7069086886
 21
-5.8757519097
 31
0.0
 11
-8.6837205937
 21
-5.8949918257
 31
0.0
 11
-8.6575868215
 21
-5.9127357504
 31
0.0
 11
-8.6286976262
 21
-5.9288545078
 31
0.0
  0
SPLINE
  5
292
100
AcDbEntity
  8
0
100
AcDbSpline
 62
253
  6
CONTINUOUS
 70
0
 71
3
 72
16
 73
12
 74
10
 42
0.0000001
 43
0.0000001
 44
0.0000000001
 12
-0.3681161601
 22
0.2568535911
 32
0.0
 13
-0.0574103684
 23
0.4449243082
 33
0.0
 40
0.0
 40
0.0
 40
0.0
 40
0.0
 40
0.098066609
 40
0.1981064048
 40
0.3008454355
 40
0.4069003075
 40
0.5167665536
 40
0.6308152716
 40
0.7492972807
 40
0.8723474246
 40
1.0
 40
1.0
 40
1.0
 40
1.0
 10
-8.4267512828
 20
-6.315212202
 30
0.0
 10
-8.438784584
 20
-6.3068159484
 30
0.0
 10
-8.4620815329
 20
-6.2884085049
 30
0.0
 10
-8.4940320935
 20
-6.2566042325
 30
0.0
 10
-8.5230759673
 20
-6.2205869225
 30
0.0
 10
-8.5490684982
 20
-6.1805550962
 30
0.0
 10
-8.5718832854
 20
-6.1367240769
 30
0.0
 10
-8.5914109674
 20
-6.0893251775
 30
0.0
 10
-8.6075584457
 20
-6.0386043812
 30
0.0
 10
-8.6202484701
 20
-5.9848264143
 30
0.0
 10
-8.6262547658
 20
-5.9477864191
 30
0.0
 10
-8.6286976263
 20
-5.9288545078
 30
0.0
 11
-8.4267512828
 21
-6.315212202
 31
0.0
 11
-8.461296292
 21
-6.2879705031
 31
0.0
 11
-8.4931453393
 21
-6.256351265
 31
0.0
 11
-8.522133448
 21
-6.2205185527
 31
0.0
 11
-8.5481103157
 21
-6.1806584291
 31
0.0
 11
-8.5709412999
 21
-6.1369778139
 31
0.0
 11
-8.5905080956
 21
-6.0897034222
 31
0.0
 11
-8.6067094387
 21
-6.0390801898
 31
0.0
 11
-8.6194612344
 21
-5.985371342
 31
0.0
 11
-8.6286976263
 21
-5.9288545078
 31
0.0
  0
SPLINE
  5
293
100
AcDbEntity
  8
RACCORDO
100
AcDbSpline
 62
253
  6
CONTINUOUS
 70
0
 71
3
 72
25
 73
21
 74
19
 42
0.0000001
 43
0.0000001
 44
0.0000000001
 12
-0.322542062
 22
-0.153715816
 32
0.0
 13
-0.3195783395
 23
0.1597861657
 33
0.0
 40
0.0
 40
0.0
 40
0.0
 40
0.0
 40
0.0494954376
 40
0.1011644218
 40
0.1547958882
 40
0.2101520197
 40
0.2669695962
 40
0.3249641445
 40
0.3838344909
 40
0.4432679998
 40
0.5029448047
 40
0.5625417143
 40
0.6217365154
 40
0.6802124479
 40
0.7376621202
 40
0.7937918312
 40
0.8483269394
 40
0.9010166122
 40
0.9516383009
 40
1.0
 40
1.0
 40
1.0
 40
1.0
 10
5.9610722157
 20
4.5988539094
 30
0.0
 10
5.9557507622
 20
4.5963178322
 30
0.0
 10
5.9446980929
 20
4.5914975812
 30
0.0
 10
5.9273803527
 20
4.5851467737
 30
0.0
 10
5.9090714546
 20
4.579556534
 30
0.0
 10
5.8899051313
 20
4.5747679872
 30
0.0
 10
5.8700195551
 20
4.5708156035
 30
0.0
 10
5.8495585694
 20
4.5677280774
 30
0.0
 10
5.8286702574
 20
4.5655278111
 30
0.0
 10
5.8075059246
 20
4.5642307956
 30
0.0
 10
5.7862189025
 20
4.5638464559
 30
0.0
 10
5.7649634497
 20
4.5643775831
 30
0.0
 10
5.7438935879
 20
4.5658203073
 30
0.0
 10
5.7231619446
 20
4.5681641348
 30
0.0
 10
5.7029186453
 20
4.5713920271
 30
0.0
 10
5.683310127
 20
4.5754805717
 30
0.0
 10
5.6644781442
 20
4.5804001081
 30
0.0
 10
5.6465583125
 20
4.586115288
 30
0.0
 10
5.6296814251
 20
4.5925841386
 30
0.0
 10
5.6189488773
 20
4.5974860048
 30
0.0
 10
5.6137970935
 20
4.6000618483
 30
0.0
 11
5.9610722157
 21
4.5988539094
 31
0.0
 11
5.9448721126
 21
4.5917614729
 31
0.0
 11
5.9275469608
 21
4.5853852572
 31
0.0
 11
5.9092249187
 21
4.5797726679
 31
0.0
 11
5.8900395693
 21
4.574964654
 31
0.0
 11
5.8701304235
 21
4.5709961664
 31
0.0
 11
5.8496422934
 21
4.5678960791
 31
0.0
 11
5.8287243574
 21
4.5656869675
 31
0.0
 11
5.8075288334
 21
4.5643849037
 31
0.0
 11
5.7862099102
 21
4.5639993589
 31
0.0
 11
5.7649227388
 21
4.5645331396
 31
0.0
 11
5.7438222575
 21
4.565982357
 31
0.0
 11
5.7230619632
 21
4.5683364655
 31
0.0
 11
5.7027929225
 21
4.571578334
 31
0.0
 11
5.6831627107
 21
4.5756843519
 31
0.0
 11
5.6643141015
 21
4.5806246437
 31
0.0
 11
5.6463841502
 21
4.5863632948
 31
0.0
 11
5.6295035731
 21
4.5928584383
 31
0.0
 11
5.6137970935
 21
4.6000618483
 31
0.0
  0
SPLINE
  5
294
100
AcDbEntity
  8
RACCORDO
100
AcDbSpline
 62
253
  6
CONTINUOUS
 70
0
 71
3
 72
25
 73
21
 74
19
 42
0.0000001
 43
0.0000001
 44
0.0000000001
 12
-0.2109794759
 22
0.1054917212
 32
0.0
 13
0.2069226435
 23
0.1132424924
 33
0.0
 40
0.0
 40
0.0
 40
0.0
 40
0.0
 40
0.0696259316
 40
0.1354941003
 40
0.1975520195
 40
0.2558682771
 40
0.3106467485
 40
0.3622458225
 40
0.411194015
 40
0.4581922643
 40
0.5040904017
 40
0.549831955
 40
0.5963745027
 40
0.6446058402
 40
0.6952792112
 40
0.7489797848
 40
0.8061199722
 40
0.8669516448
 40
0.9315844569
 40
1.0
 40
1.0
 40
1.0
 40
1.0
 10
-9.1903499246
 20
12.0021353573
 30
0.0
 10
-9.1952464721
 20
12.0045836771
 30
0.0
 10
-9.2046202086
 20
12.0096693208
 30
0.0
 10
-9.2176815766
 20
12.0181063099
 30
0.0
 10
-9.2292726322
 20
12.0270887874
 30
0.0
 10
-9.2393082718
 20
12.0365556467
 30
0.0
 10
-9.2477144552
 20
12.0464446293
 30
0.0
 10
-9.2544251473
 20
12.0566911946
 30
0.0
 10
-9.2593816547
 20
12.0672267118
 30
0.0
 10
-9.262533413
 20
12.0779749468
 30
0.0
 10
-9.2638426763
 20
12.0888489275
 30
0.0
 10
-9.2632920919
 20
12.099752303
 30
0.0
 10
-9.2608896111
 20
12.1105869771
 30
0.0
 10
-9.256665904
 20
12.121262013
 30
0.0
 10
-9.2506669477
 20
12.1316972375
 30
0.0
 10
-9.2429480169
 20
12.1418211896
 30
0.0
 10
-9.233571775
 20
12.151567386
 30
0.0
 10
-9.2226085307
 20
12.1608719214
 30
0.0
 10
-9.2101394361
 20
12.1696717864
 30
0.0
 10
-9.2011316514
 20
12.1750138732
 30
0.0
 10
-9.1964127431
 20
12.1775963888
 30
0.0
 11
-9.1903499246
 21
12.0021353573
 31
0.0
 11
-9.2047704886
 21
12.0099954691
 31
0.0
 11
-9.2178019159
 21
12.0184563279
 31
0.0
 11
-9.229347456
 21
12.0274554224
 31
0.0
 11
-9.2393228779
 21
12.0369271462
 31
0.0
 11
-9.2476556627
 21
12.0468026266
 31
0.0
 11
-9.2542851814
 21
12.0570100379
 31
0.0
 11
-9.2591631517
 21
12.0674750616
 31
0.0
 11
-9.2622540761
 21
12.078121547
 31
0.0
 11
-9.2635354629
 21
12.0888720455
 31
0.0
 11
-9.2629979787
 21
12.0996483098
 31
0.0
 11
-9.2606455362
 21
12.1103719143
 31
0.0
 11
-9.2564952468
 21
12.1209648492
 31
0.0
 11
-9.2505773052
 21
12.1313500308
 31
0.0
 11
-9.2429348073
 21
12.1414518422
 31
0.0
 11
-9.2336233585
 21
12.1511968065
 31
0.0
 11
-9.2227106463
 21
12.1605140608
 31
0.0
 11
-9.2102762902
 21
12.1693356743
 31
0.0
 11
-9.1964127431
 21
12.1775963888
 31
0.0
  0
SPLINE
  5
295
100
AcDbEntity
  8
RACCORDO
100
AcDbSpline
 62
253
  6
CONTINUOUS
 70
0
 71
3
 72
14
 73
10
 74
8
 42
0.0000001
 43
0.0000001
 44
0.0000000001
 12
0.1079825595
 22
0.0590789721
 32
0.0
 13
0.1114448285
 23
-0.0519220795
 33
0.0
 40
0.0
 40
0.0
 40
0.0
 40
0.0
 40
0.1015894819
 40
0.2371899148
 40
0.3765345955
 40
0.5213745949
 40
0.6730463026
 40
0.8324372892
 40
1.0
 40
1.0
 40
1.0
 40
1.0
 10
-9.314887892
 20
12.1811766142
 30
0.0
 10
-9.3112312613
 20
12.1831772149
 30
0.0
 10
-9.3023983371
 20
12.1873090928
 30
0.0
 10
-9.2875521516
 20
12.1917623012
 30
0.0
 10
-9.2704311611
 20
12.1940402936
 30
0.0
 10
-9.2525109853
 20
12.1937495697
 30
0.0
 10
-9.2339911453
 20
12.1909085902
 30
0.0
 10
-9.2150738608
 20
12.1855621718
 30
0.0
 10
-9.2026374089
 20
12.1804964569
 30
0.0
 10
-9.1964127431
 20
12.1775963888
 30
0.0
 11
-9.314887892
 21
12.1811766142
 31
0.0
 11
-9.3035696724
 21
12.1864732465
 31
0.0
 11
-9.2876090528
 21
12.1912899893
 31
0.0
 11
-9.2706327594
 21
12.1935941282
 31
0.0
 11
-9.2528267159
 21
12.1933604281
 31
0.0
 11
-9.2343859335
 21
12.1905914487
 31
0.0
 11
-9.2155123751
 21
12.1853175156
 31
0.0
 11
-9.1964127431
 21
12.1775963888
 31
0.0
  0
SPLINE
  5
296
100
AcDbEntity
  8
RACCORDO
100
AcDbSpline
 62
7
  6
CONTINUOUS
 70
0
 71
3
 72
25
 73
21
 74
19
 42
0.0000001
 43
0.0000001
 44
0.0000000001
 12
-0.5245274405
 22
0.2622637203
 32
0.0
 13
-0.0050025686
 23
0.5864181692
 33
0.0
 40
0.0
 40
0.0
 40
0.0
 40
0.0
 40
0.0479689405
 40
0.0980125495
 40
0.1498255404
 40
0.2031382304
 40
0.2581145878
 40
0.3144706373
 40
0.3717636343
 40
0.4297891306
 40
0.4886088045
 40
0.5477482898
 40
0.6067200463
 40
0.6655679539
 40
0.7240731896
 40
0.7817494485
 40
0.8382510683
 40
0.8937000221
 40
0.9477535516
 40
1.0
 40
1.0
 40
1.0
 40
1.0
 10
-4.877282336
 20
4.9704962357
 30
0.0
 10
-4.8856693446
 20
4.97468974
 30
0.0
 10
-4.902444062
 20
4.983998406
 30
0.0
 10
-4.9268953187
 20
5.0001666046
 30
0.0
 10
-4.9509487298
 20
5.018686787
 30
0.0
 10
-4.9744296325
 20
5.0394109792
 30
0.0
 10
-4.9971857166
 20
5.0621997208
 30
0.0
 10
-5.0190511971
 20
5.0868917364
 30
0.0
 10
-5.0398336564
 20
5.1132636631
 30
0.0
 10
-5.0594022625
 20
5.1411379205
 30
0.0
 10
-5.0776275428
 20
5.1703344443
 30
0.0
 10
-5.0943597856
 20
5.2006227222
 30
0.0
 10
-5.1094680684
 20
5.2317588464
 30
0.0
 10
-5.1228544711
 20
5.2635389738
 30
0.0
 10
-5.1344230195
 20
5.295756635
 30
0.0
 10
-5.1440653563
 20
5.3281247045
 30
0.0
 10
-5.1517139489
 20
5.3604080746
 30
0.0
 10
-5.157313949
 20
5.3923923848
 30
0.0
 10
-5.1608131558
 20
5.4238374564
 30
0.0
 10
-5.1617392396
 20
5.4446157189
 30
0.0
 10
-5.1618263617
 20
5.4548284744
 30
0.0
 11
-4.877282336
 21
4.9704962357
 31
0.0
 11
-4.9019023335
 21
4.9841051385
 31
0.0
 11
-4.9264053328
 21
5.0002569706
 31
0.0
 11
-4.9505029741
 21
5.0187654319
 31
0.0
 11
-4.9739638719
 21
5.0394310003
 31
0.0
 11
-4.9967630771
 21
5.0622264756
 31
0.0
 11
-5.0186890455
 21
5.0869553184
 31
0.0
 11
-5.039497816
 21
5.1133348483
 31
0.0
 11
-5.0590590873
 21
5.1411789075
 31
0.0
 11
-5.0773306745
 21
5.1704363439
 31
0.0
 11
-5.094103453
 21
5.2007925021
 31
0.0
 11
-5.1091994636
 21
5.2319071255
 31
0.0
 11
-5.1225905793
 21
5.2637138709
 31
0.0
 11
-5.1341756387
 21
5.2960085687
 31
0.0
 11
-5.143817816
 21
5.3284287295
 31
0.0
 11
-5.1514375646
 21
5.3606754845
 31
0.0
 11
-5.1570212662
 21
5.3927099549
 31
0.0
 11
-5.1604970839
 21
5.4242179417
 31
0.0
 11
-5.1618263617
 21
5.4548284744
 31
0.0
  0
SPLINE
  5
297
100
AcDbEntity
  8
RACCORDO
100
AcDbSpline
 62
7
  6
CONTINUOUS
 70
0
 71
3
 72
16
 73
12
 74
10
 42
0.0000001
 43
0.0000001
 44
0.0000000001
 12
-0.0013169092
 22
0.211640437
 32
0.0
 13
0.1590675193
 23
0.1398736643
 33
0.0
 40
0.0
 40
0.0
 40
0.0
 40
0.0
 40
0.1395272774
 40
0.2739201021
 40
0.402445843
 40
0.5248674379
 40
0.6421671143
 40
0.7545208464
 40
0.8621290013
 40
0.9659378976
 40
1.0
 40
1.0
 40
1.0
 40
1.0
 10
-5.1707554741
 20
6.6654118031
 30
0.0
 10
-5.1708167224
 20
6.6752550078
 30
0.0
 10
-5.1702646149
 20
6.6945921232
 30
0.0
 10
-5.1672812753
 20
6.7228559804
 30
0.0
 10
-5.1621802167
 20
6.7495933688
 30
0.0
 10
-5.1550054712
 20
6.7746025354
 30
0.0
 10
-5.1458026435
 20
6.7977213954
 30
0.0
 10
-5.1346233855
 20
6.8187831706
 30
0.0
 10
-5.1215637221
 20
6.8375936481
 30
0.0
 10
-5.109917251
 20
6.8504787213
 30
0.0
 10
-5.1027551813
 20
6.8570754295
 30
0.0
 10
-5.1009491233
 20
6.8586635599
 30
0.0
 11
-5.1707554741
 21
6.6654118031
 31
0.0
 11
-5.1698706627
 21
6.69492873
 31
0.0
 11
-5.1668376435
 21
6.7232100644
 31
0.0
 11
-5.1616882812
 21
6.7499199949
 31
0.0
 11
-5.1544895971
 21
6.7748097491
 31
0.0
 11
-5.1452534733
 21
6.7978535361
 31
0.0
 11
-5.134053515
 21
6.8188298158
 31
0.0
 11
-5.1210211797
 21
6.8375071867
 31
0.0
 11
-5.1062561706
 21
6.8537768251
 31
0.0
 11
-5.1009491233
 21
6.8586635599
 31
0.0
  0
LINE
  5
298
100
AcDbEntity
  8
RACCORDO
100
AcDbLine
 62
7
  6
CONTINUOUS
 10
-5.1618263617
 20
5.4548284744
 11
-5.1633248746
 21
5.6340862191
  0
LINE
  5
299
100
AcDbEntity
  8
RACCORDO
100
AcDbLine
 62
7
  6
CONTINUOUS
 10
-5.1633248746
 20
5.6340862191
 11
-5.1636899517
 21
5.6789050571
  0
LINE
  5
29A
100
AcDbEntity
  8
RACCORDO
100
AcDbLine
 62
7
  6
CONTINUOUS
 10
-5.1636899517
 20
5.6789050571
 11
-5.1664730918
 21
6.0375262174
  0
LINE
  5
29B
100
AcDbEntity
  8
RACCORDO
100
AcDbLine
 62
7
  6
CONTINUOUS
 10
-5.1664730918
 20
6.0375262174
 11
-5.1668037997
 21
6.0823626598
  0
LINE
  5
29C
100
AcDbEntity
  8
RACCORDO
100
AcDbLine
 62
7
  6
CONTINUOUS
 10
-5.1668037997
 20
6.0823626598
 11
-5.1693119839
 21
6.4411243566
  0
LINE
  5
29D
100
AcDbEntity
  8
RACCORDO
100
AcDbLine
 62
7
  6
CONTINUOUS
 10
-5.1693119839
 20
6.4411243566
 11
-5.169608322
 21
6.4859783296
  0
LINE
  5
29E
100
AcDbEntity
  8
RACCORDO
100
AcDbLine
 62
7
  6
CONTINUOUS
 10
-5.169608322
 20
6.4859783296
 11
-5.1707554741
 21
6.6654118031
  0
SPLINE
  5
29F
100
AcDbEntity
  8
RACCORDO
100
AcDbSpline
 62
7
  6
CONTINUOUS
 70
0
 71
3
 72
14
 73
10
 74
8
 42
0.0000001
 43
0.0000001
 44
0.0000000001
 12
-0.1527487844
 22
-0.0464479534
 32
0.0
 13
-0.1426836499
 23
0.071341825
 33
0.0
 40
0.0
 40
0.0
 40
0.0
 40
0.0
 40
0.0893502555
 40
0.2264496758
 40
0.3680625496
 40
0.5150875753
 40
0.6693379792
 40
0.8311090423
 40
1.0
 40
1.0
 40
1.0
 40
1.0
 10
1.1487750911
 20
2.0136398424
 30
0.0
 10
1.1442257101
 20
2.0122564636
 30
0.0
 10
1.1325295894
 20
2.0092956787
 30
0.0
 10
1.1130704169
 20
2.006705396
 30
0.0
 10
1.0903724048
 20
2.00665785
 30
0.0
 10
1.0669350181
 20
2.0094463842
 30
0.0
 10
1.0429105711
 20
2.0150482612
 30
0.0
 10
1.0184825368
 20
2.0234235075
 30
0.0
 10
1.0024215533
 20
2.0306442911
 30
0.0
 10
0.9943888938
 20
2.0346606208
 30
0.0
 11
1.1487750911
 21
2.0136398424
 31
0.0
 11
1.1349528491
 21
2.0101328302
 31
0.0
 11
1.1132790024
 21
2.0072042424
 31
0.0
 11
1.0906884085
 21
2.0071036692
 31
0.0
 11
1.0673917106
 21
2.009817155
 31
0.0
 11
1.0434142506
 21
2.0153468112
 31
0.0
 11
1.0189839832
 21
2.0236618812
 31
0.0
 11
0.9943888938
 21
2.0346606208
 31
0.0
  0
SPLINE
  5
2A0
100
AcDbEntity
  8
RACCORDO
100
AcDbSpline
 62
253
  6
CONTINUOUS
 70
0
 71
3
 72
22
 73
18
 74
16
 42
0.0000001
 43
0.0000001
 44
0.0000000001
 12
-0.0027087752
 22
0.3665121304
 32
0.0
 13
-0.322967055
 23
0.1732938562
 33
0.0
 40
0.0
 40
0.0
 40
0.0
 40
0.0
 40
0.0629566414
 40
0.1283834588
 40
0.195913743
 40
0.2651259748
 40
0.3355575138
 40
0.4067172398
 40
0.4780975125
 40
0.5491857568
 40
0.6194759385
 40
0.6884801858
 40
0.7557408241
 40
0.8208431402
 40
0.8834292511
 40
0.9432135227
 40
1.0
 40
1.0
 40
1.0
 40
1.0
 10
6.1331144538
 20
4.2917079137
 30
0.0
 10
6.1330576087
 20
4.2993993713
 30
0.0
 10
6.1322830691
 20
4.31508481
 30
0.0
 10
6.1293000537
 20
4.3388536856
 30
0.0
 10
6.1245045044
 20
4.3631035097
 30
0.0
 10
6.1179487365
 20
4.3875694676
 30
0.0
 10
6.1097040144
 20
4.4119867906
 30
0.0
 10
6.0998599479
 20
4.4360901085
 30
0.0
 10
6.0885235427
 20
4.4596175063
 30
0.0
 10
6.0758180329
 20
4.482313213
 30
0.0
 10
6.0618814784
 20
4.5039305692
 30
0.0
 10
6.0468651964
 20
4.524234756
 30
0.0
 10
6.0309318649
 20
4.5430054637
 30
0.0
 10
6.0142539273
 20
4.5600390885
 30
0.0
 10
5.9970100952
 20
4.5751515762
 30
0.0
 10
5.9793877836
 20
4.5881776578
 30
0.0
 10
5.9671856028
 20
4.5955736602
 30
0.0
 10
5.9610722157
 20
4.5988539094
 30
0.0
 11
6.1331144538
 21
4.2917079137
 31
0.0
 11
6.1320141547
 21
4.3147566686
 31
0.0
 11
6.1290586004
 21
4.3385542144
 31
0.0
 11
6.1242801599
 21
4.3628399211
 31
0.0
 11
6.1177311667
 21
4.3873478125
 31
0.0
 11
6.109483345
 21
4.411809479
 31
0.0
 11
6.0996270249
 21
4.4359570171
 31
0.0
 11
6.0882701523
 21
4.4595259639
 31
0.0
 11
6.0755371076
 21
4.4822581931
 31
0.0
 11
6.0615673425
 21
4.5039047421
 31
0.0
 11
6.0465138534
 21
4.5242285387
 31
0.0
 11
6.0305415057
 21
4.5430069974
 31
0.0
 11
6.0138252281
 21
4.5600344573
 31
0.0
 11
5.9965480964
 21
4.5751244342
 31
0.0
 11
5.9788993294
 21
4.5881116635
 31
0.0
 11
5.9610722157
 21
4.5988539094
 31
0.0
  0
SPLINE
  5
2A1
100
AcDbEntity
  8
RACCORDO
100
AcDbSpline
 62
253
  6
CONTINUOUS
 70
0
 71
3
 72
22
 73
18
 74
16
 42
0.0000001
 43
0.0000001
 44
0.0000000001
 12
-0.000238189
 22
0.366577057
 32
0.0
 13
0.326468929
 23
0.166723825
 33
0.0
 40
0.0
 40
0.0
 40
0.0
 40
0.0
 40
0.0627686171
 40
0.1278905369
 40
0.1950351148
 40
0.2638167547
 40
0.3338081528
 40
0.4045525959
 40
0.4755756192
 40
0.5463962937
 40
0.6165383804
 40
0.6855415807
 40
0.7529731191
 40
0.8184399196
 40
0.8816016779
 40
0.9421851557
 40
1.0
 40
1.0
 40
1.0
 40
1.0
 10
5.4385631021
 20
4.2957745065
 30
0.0
 10
5.4385581185
 20
4.3034443515
 30
0.0
 10
5.4392253392
 20
4.3190781052
 30
0.0
 10
5.4421045889
 20
4.3427567621
 30
0.0
 10
5.4468502871
 20
4.3668821127
 30
0.0
 10
5.4534110016
 20
4.3911931645
 30
0.0
 10
5.4617159866
 20
4.4154295202
 30
0.0
 10
5.4716758002
 20
4.439330413
 30
0.0
 10
5.4831832164
 20
4.4626387285
 30
0.0
 10
5.4961143754
 20
4.4851035851
 30
0.0
 10
5.5103301679
 20
4.506483215
 30
0.0
 10
5.5256777886
 20
4.5265476013
 30
0.0
 10
5.5419926127
 20
4.5450810519
 30
0.0
 10
5.5590997739
 20
4.5618843201
 30
0.0
 10
5.5768175986
 20
4.5767773191
 30
0.0
 10
5.5949551546
 20
4.5895984567
 30
0.0
 10
5.6075055101
 20
4.5968488109
 30
0.0
 10
5.6137970935
 20
4.6000618483
 30
0.0
 11
5.4385631021
 21
4.2957745065
 31
0.0
 11
5.4395071313
 21
4.3187646725
 31
0.0
 11
5.4423582322
 21
4.3424660116
 31
0.0
 11
5.4470854821
 21
4.3666214605
 31
0.0
 11
5.4536376093
 21
4.3909690302
 31
0.0
 11
5.4619435498
 21
4.4152446483
 31
0.0
 11
5.4719132178
 21
4.4391850226
 31
0.0
 11
5.4834384827
 21
4.4625304969
 31
0.0
 11
5.4963943422
 21
4.4850278675
 31
0.0
 11
5.5106402776
 21
4.5064331289
 31
0.0
 11
5.5260217782
 21
4.5265141208
 31
0.0
 11
5.542372017
 21
4.5450530457
 31
0.0
 11
5.5595136601
 21
4.5618488313
 31
0.0
 11
5.5772607901
 21
4.5767193115
 31
0.0
 11
5.5954209225
 21
4.5895032016
 31
0.0
 11
5.6137970935
 21
4.6000618483
 31
0.0
  0
SPLINE
  5
2A2
100
AcDbEntity
  8
0
100
AcDbSpline
 62
253
  6
CONTINUOUS
 70
0
 71
3
 72
16
 73
12
 74
10
 42
0.0000001
 43
0.0000001
 44
0.0000000001
 12
-1.2344583664
 22
9.7271614722
 32
0.0
 13
-0.1480278181
 23
9.8040627053
 33
0.0
 40
0.0
 40
0.0
 40
0.0
 40
0.0
 40
0.1080730282
 40
0.216918925
 40
0.3265327533
 40
0.4369090339
 40
0.5480417747
 40
0.6599244812
 40
0.7725501569
 40
0.8859113138
 40
1.0
 40
1.0
 40
1.0
 40
1.0
 10
-8.6286976263
 20
-5.9288545078
 30
0.0
 10
-8.6731681776
 20
-5.578439909
 30
0.0
 10
-8.757792964
 20
-4.8745081477
 30
0.0
 10
-8.8714506466
 20
-3.8133119794
 30
0.0
 10
-8.9722601347
 20
-2.743255482
 30
0.0
 10
-9.0601999963
 20
-1.6645663831
 30
0.0
 10
-9.1352518974
 20
-0.5774710707
 30
0.0
 10
-9.1974001009
 20
0.5178013258
 30
0.0
 10
-9.2466316114
 20
1.6210208099
 30
0.0
 10
-9.2829361025
 20
2.7319531315
 30
0.0
 10
-9.2984668005
 20
3.4752064819
 30
0.0
 10
-9.3040962336
 20
3.8480506931
 30
0.0
 11
-8.6286976263
 21
-5.9288545078
 31
0.0
 11
-8.7552274538
 21
-4.8767602194
 31
0.0
 11
-8.868932208
 21
-3.8155809073
 31
0.0
 11
-8.9697879799
 21
-2.7455401018
 31
0.0
 11
-9.0577735606
 21
-1.6668632436
 31
0.0
 11
-9.1328704569
 21
-0.5797774938
 31
0.0
 11
-9.1950628883
 21
0.5154882842
 31
0.0
 11
-9.2443377816
 21
1.6187034458
 31
0.0
 11
-9.280684776
 21
2.7296355775
 31
0.0
 11
-9.3040962336
 21
3.8480506931
 31
0.0
  0
SPLINE
  5
2A3
100
AcDbEntity
  8
RACCORDO
100
AcDbSpline
 62
253
  6
CONTINUOUS
 70
0
 71
3
 72
22
 73
18
 74
16
 42
0.0000001
 43
0.0000001
 44
0.0000000001
 12
-0.0002381892
 22
0.366577057
 32
0.0
 13
0.3264689291
 23
0.1667238248
 33
0.0
 40
0.0
 40
0.0
 40
0.0
 40
0.0
 40
0.0627686184
 40
0.1278905402
 40
0.1950351199
 40
0.2638167614
 40
0.333808161
 40
0.4045526051
 40
0.4755756292
 40
0.5463963039
 40
0.6165383904
 40
0.68554159
 40
0.7529731272
 40
0.8184399262
 40
0.8816016825
 40
0.9421851581
 40
1.0
 40
1.0
 40
1.0
 40
1.0
 10
-9.365583916
 20
11.6978480155
 30
0.0
 10
-9.3655888996
 20
11.7055178607
 30
0.0
 10
-9.3649216788
 20
11.7211516148
 30
0.0
 10
-9.362042429
 20
11.7448302723
 30
0.0
 10
-9.3572967305
 20
11.7689556235
 30
0.0
 10
-9.3507360158
 20
11.7932666759
 30
0.0
 10
-9.3424310304
 20
11.817503032
 30
0.0
 10
-9.3324712165
 20
11.8414039251
 30
0.0
 10
-9.3209638
 20
11.8647122407
 30
0.0
 10
-9.3080326407
 20
11.8871770973
 30
0.0
 10
-9.2938168481
 20
11.908556727
 30
0.0
 10
-9.2784692273
 20
11.9286211129
 30
0.0
 10
-9.2621544033
 20
11.9471545631
 30
0.0
 10
-9.2450472424
 20
11.9639578307
 30
0.0
 10
-9.2273294182
 20
11.9788508291
 30
0.0
 10
-9.2091918627
 20
11.9916719662
 30
0.0
 10
-9.1966415077
 20
11.9989223201
 30
0.0
 10
-9.1903499246
 20
12.0021353573
 30
0.0
 11
-9.365583916
 21
11.6978480155
 31
0.0
 11
-9.3646398867
 21
11.720838182
 31
0.0
 11
-9.3617887857
 21
11.7445395218
 31
0.0
 11
-9.3570615356
 21
11.7686949713
 31
0.0
 11
-9.3505094081
 21
11.7930425416
 31
0.0
 11
-9.3422034673
 21
11.8173181601
 31
0.0
 11
-9.3322337989
 21
11.8412585347
 31
0.0
 11
-9.3207085336
 21
11.8646040092
 31
0.0
 11
-9.3077526739
 21
11.8871013797
 31
0.0
 11
-9.2935067384
 21
11.908506641
 31
0.0
 11
-9.2781252377
 21
11.9285876325
 31
0.0
 11
-9.2617749991
 21
11.9471265569
 31
0.0
 11
-9.2446333562
 21
11.963922342
 31
0.0
 11
-9.2268862266
 21
11.9787928215
 31
0.0
 11
-9.2087260948
 21
11.9915767111
 31
0.0
 11
-9.1903499246
 21
12.0021353573
 31
0.0
  0
SPLINE
  5
2A4
100
AcDbEntity
  8
RACCORDO
100
AcDbSpline
 62
253
  6
CONTINUOUS
 70
0
 71
3
 72
17
 73
13
 74
11
 42
0.0000001
 43
0.0000001
 44
0.0000000001
 12
-0.2161832152
 22
0.1080956977
 32
0.0
 13
-0.0001406965
 23
0.2419871049
 33
0.0
 40
0.0
 40
0.0
 40
0.0
 40
0.0
 40
0.1359048809
 40
0.2644265655
 40
0.3854754164
 40
0.4991772678
 40
0.6059234234
 40
0.7064077239
 40
0.8016586374
 40
0.8930453274
 40
0.9822330742
 40
1.0
 40
1.0
 40
1.0
 40
1.0
 10
-9.3655826214
 20
11.6978473681
 30
0.0
 10
-9.3753760727
 20
11.702744279
 30
0.0
 10
-9.3941221965
 20
11.7129112701
 30
0.0
 10
-9.4202450203
 20
11.7297672623
 30
0.0
 10
-9.4434260168
 20
11.747700913
 30
0.0
 10
-9.4634965011
 20
11.7665909504
 30
0.0
 10
-9.4803085088
 20
11.7863132373
 30
0.0
 10
-9.4937301985
 20
11.8067392946
 30
0.0
 10
-9.5036442365
 20
11.8277327384
 30
0.0
 10
-9.5099492246
 20
11.8491421089
 30
0.0
 10
-9.5118778941
 20
11.865082159
 30
0.0
 10
-9.5120296062
 20
11.8737091531
 30
0.0
 10
-9.5120304394
 20
11.8751422754
 30
0.0
 11
-9.3655826214
 21
11.6978473681
 31
0.0
 11
-9.3944272884
 21
11.7135638569
 31
0.0
 11
-9.4204895971
 21
11.7304672601
 31
0.0
 11
-9.4435802805
 21
11.7484349065
 31
0.0
 11
-9.4635307271
 21
11.7673356512
 31
0.0
 11
-9.4801959368
 21
11.7870320983
 31
0.0
 11
-9.4934546616
 21
11.8073809827
 31
0.0
 11
-9.5032103488
 21
11.82823415
 31
0.0
 11
-9.5093920156
 21
11.8494398582
 31
0.0
 11
-9.5119546897
 21
11.8708438489
 31
0.0
 11
-9.5120304394
 21
11.8751422754
 31
0.0
  0
SPLINE
  5
2A5
100
AcDbEntity
  8
RACCORDO
100
AcDbSpline
 62
253
  6
CONTINUOUS
 70
0
 71
3
 72
25
 73
21
 74
19
 42
0.0000001
 43
0.0000001
 44
0.0000000001
 12
-0.6460963923
 22
-0.3048847509
 32
0.0
 13
-0.6390010858
 23
0.3194884534
 33
0.0
 40
0.0
 40
0.0
 40
0.0
 40
0.0
 40
0.0494328262
 40
0.1010447089
 40
0.1546315361
 40
0.2099543778
 40
0.2667494203
 40
0.3247313615
 40
0.3835981563
 40
0.4430362134
 40
0.5027246367
 40
0.5623391465
 40
0.6215564156
 40
0.6800584166
 40
0.7375363898
 40
0.7936951737
 40
0.8482585284
 40
0.9009740369
 40
0.9516168911
 40
1.0
 40
1.0
 40
1.0
 40
1.0
 10
6.1331158564
 20
4.2917085756
 30
0.0
 10
6.1224697328
 20
4.2866848039
 30
0.0
 10
6.1003596322
 20
4.277142069
 30
0.0
 10
6.0657230327
 20
4.2645847173
 30
0.0
 10
6.0291057116
 20
4.2535464276
 30
0.0
 10
5.9907735615
 20
4.2441077649
 30
0.0
 10
5.9510029968
 20
4.2363367393
 30
0.0
 10
5.9100816791
 20
4.2302897588
 30
0.0
 10
5.8683057748
 20
4.2260107089
 30
0.0
 10
5.8259778894
 20
4.2235306925
 30
0.0
 10
5.7834046772
 20
4.2228677332
 30
0.0
 10
5.7408946282
 20
4.2240266472
 30
0.0
 10
5.6987557582
 20
4.2269989969
 30
0.0
 10
5.6572933012
 20
4.2317631685
 30
0.0
 10
5.6168075064
 20
4.2382845353
 30
0.0
 10
5.5775912536
 20
4.246515786
 30
0.0
 10
5.5399280414
 20
4.2563972284
 30
0.0
 10
5.5040891729
 20
4.2678577649
 30
0.0
 10
5.4703348076
 20
4.2808138906
 30
0.0
 10
5.4488674278
 20
4.2906225385
 30
0.0
 10
5.4385618081
 20
4.2957751533
 30
0.0
 11
6.1331158564
 21
4.2917085756
 31
0.0
 11
6.1007111875
 21
4.2776678675
 31
0.0
 11
6.0660610781
 21
4.2650601757
 31
0.0
 11
6.0294169966
 21
4.2539770441
 31
0.0
 11
5.9910464468
 21
4.2444994275
 31
0.0
 11
5.9512283628
 21
4.2366961999
 31
0.0
 11
5.9102523861
 21
4.2306241353
 31
0.0
 11
5.8684168638
 21
4.2263274478
 31
0.0
 11
5.8260262259
 21
4.2238373942
 31
0.0
 11
5.7833888412
 21
4.2231720834
 31
0.0
 11
5.7408149881
 21
4.2243363563
 31
0.0
 11
5.69861448
 21
4.2273217356
 31
0.0
 11
5.6570942962
 21
4.2321065038
 31
0.0
 11
5.6165565632
 21
4.2386558483
 31
0.0
 11
5.5772964226
 21
4.2469220763
 31
0.0
 11
5.5395994358
 21
4.2568450483
 31
0.0
 11
5.5037396352
 21
4.268352644
 31
0.0
 11
5.4699787552
 21
4.2813608351
 31
0.0
 11
5.4385618081
 21
4.2957751533
 31
0.0
  0
SPLINE
  5
2A6
100
AcDbEntity
  8
0
100
AcDbSpline
 62
253
  6
CONTINUOUS
 70
0
 71
3
 72
16
 73
12
 74
10
 42
0.0000001
 43
0.0000001
 44
0.0000000001
 12
-0.0122254801
 22
-0.2821001809
 32
0.0
 13
-0.2216191132
 23
-0.1753040056
 33
0.0
 40
0.0
 40
0.0
 40
0.0
 40
0.0
 40
0.1340190606
 40
0.2631878752
 40
0.3872848552
 40
0.5062238358
 40
0.6200739375
 40
0.7290788238
 40
0.8336726683
 40
0.9344884836
 40
1.0
 40
1.0
 40
1.0
 40
1.0
 10
7.2617535576
 20
-13.5090280779
 30
0.0
 10
7.2612074085
 20
-13.521630345
 30
0.0
 10
7.2592990619
 20
-13.5463529139
 30
0.0
 10
7.253823835
 20
-13.5824256935
 30
0.0
 10
7.2458241084
 20
-13.6165740531
 30
0.0
 10
7.2353557616
 20
-13.6485396562
 30
0.0
 10
7.2224913665
 20
-13.6780824147
 30
0.0
 10
7.2073197792
 20
-13.7049776858
 30
0.0
 10
7.1899461426
 20
-13.729017368
 30
0.0
 10
7.1725681917
 20
-13.7477704686
 30
0.0
 10
7.1607201496
 20
-13.7580454081
 30
0.0
 10
7.1558806149
 20
-13.7618735519
 30
0.0
 11
7.2617535576
 21
-13.5090280779
 31
0.0
 11
7.2587939228
 21
-13.5467544518
 31
0.0
 11
7.2532675786
 21
-13.5828060935
 31
0.0
 11
7.2452164862
 21
-13.6169092655
 31
0.0
 11
7.2347017769
 21
-13.6488050248
 31
0.0
 11
7.2218032881
 21
-13.6782511894
 31
0.0
 11
7.2066189571
 21
-13.7050241767
 31
0.0
 11
7.1892640775
 21
-13.7289207014
 31
0.0
 11
7.1698704235
 21
-13.7497593189
 31
0.0
 11
7.1558806149
 21
-13.7618735519
 31
0.0
  0
SPLINE
  5
2A7
100
AcDbEntity
  8
0
100
AcDbSpline
 62
253
  6
CONTINUOUS
 70
0
 71
3
 72
10
 73
6
 74
4
 42
0.0000001
 43
0.0000001
 44
0.0000000001
 12
-0.0435010632
 22
-0.0344099862
 32
0.0
 13
-0.0514266981
 23
-0.0207923361
 33
0.0
 40
0.0
 40
0.0
 40
0.0
 40
0.0
 40
0.1648244353
 40
0.6534394098
 40
1.0
 40
1.0
 40
1.0
 40
1.0
 10
7.1558806149
 20
-13.7618735519
 30
0.0
 10
7.1534906021
 20
-13.7637640874
 30
0.0
 10
7.1438482908
 20
-13.7710474236
 30
0.0
 10
7.1281065326
 20
-13.7808321692
 30
0.0
 10
7.11408241
 20
-13.7873452974
 30
0.0
 10
7.1081415877
 20
-13.7897472322
 30
0.0
 11
7.1558806149
 21
-13.7618735519
 31
0.0
 11
7.1485852497
 21
-13.7673818032
 31
0.0
 11
7.1255701729
 21
-13.7816543479
 31
0.0
 11
7.1081415877
 21
-13.7897472322
 31
0.0
  0
SPLINE
  5
2A8
100
AcDbEntity
  8
0
100
AcDbSpline
 62
253
  6
CONTINUOUS
 70
0
 71
3
 72
26
 73
22
 74
20
 42
0.0000001
 43
0.0000001
 44
0.0000000001
 12
0.0639075782
 22
-0.4718179908
 32
0.0
 13
0.4414253651
 23
0.1784377821
 33
0.0
 40
0.0
 40
0.0
 40
0.0
 40
0.0
 40
0.0604714473
 40
0.1189577881
 40
0.1754896565
 40
0.2301507618
 40
0.2830756018
 40
0.3344495457
 40
0.3845087349
 40
0.4335365193
 40
0.4818566178
 40
0.5298216896
 40
0.5777998971
 40
0.6261586397
 40
0.6752493941
 40
0.7253932963
 40
0.7768707761
 40
0.8299146356
 40
0.8847072271
 40
0.9413785448
 40
1.0
 40
1.0
 40
1.0
 40
1.0
 10
6.9190925233
 20
-13.3009315754
 30
0.0
 10
6.9203807179
 20
-13.310442081
 30
0.0
 10
6.9235510202
 20
-13.3290726822
 30
0.0
 10
6.9302392479
 20
-13.356136147
 30
0.0
 10
6.938749866
 20
-13.3817173663
 30
0.0
 10
6.949041592
 20
-13.4056808113
 30
0.0
 10
6.9610647484
 20
-13.4279015033
 30
0.0
 10
6.974760704
 20
-13.4482616321
 30
0.0
 10
6.9900615006
 20
-13.4666515327
 30
0.0
 10
7.0068894551
 20
-13.4829703419
 30
0.0
 10
7.0251567955
 20
-13.4971271689
 30
0.0
 10
7.0447657855
 20
-13.5090426622
 30
0.0
 10
7.0656094559
 20
-13.5186506084
 30
0.0
 10
7.0875731952
 20
-13.5258992412
 30
0.0
 10
7.1105365718
 20
-13.530751714
 30
0.0
 10
7.1343751351
 20
-13.5331858444
 30
0.0
 10
7.158961714
 20
-13.5331932963
 30
0.0
 10
7.1841671123
 20
-13.5307787664
 30
0.0
 10
7.2098609781
 20
-13.5259588662
 30
0.0
 10
7.2359079346
 20
-13.5187633434
 30
0.0
 10
7.2531278919
 20
-13.5125148387
 30
0.0
 10
7.2617535576
 20
-13.5090280779
 30
0.0
 11
6.9190925233
 21
-13.3009315754
 31
0.0
 11
6.9239562438
 21
-13.3293098538
 31
0.0
 11
6.9306719638
 21
-13.3563348162
 31
0.0
 11
6.9392044699
 21
-13.3818629282
 31
0.0
 11
6.9495094769
 21
-13.4057614339
 31
0.0
 11
6.9615336531
 21
-13.4279065138
 31
0.0
 11
6.9752146904
 21
-13.4481832236
 31
0.0
 11
6.9904816771
 21
-13.4664863024
 31
0.0
 11
7.0072554525
 21
-13.4827207085
 31
0.0
 11
7.0254491211
 21
-13.4968022
 31
0.0
 11
7.044968299
 21
-13.5086575924
 31
0.0
 11
7.0657118057
 21
-13.5182253124
 31
0.0
 11
7.0875719937
 21
-13.5254556035
 31
0.0
 11
7.1104355528
 21
-13.5303108896
 31
0.0
 11
7.1341838353
 21
-13.5327658785
 31
0.0
 11
7.1586935891
 21
-13.5328077541
 31
0.0
 11
7.1838375847
 21
-13.5304362498
 31
0.0
 11
7.2094855084
 21
-13.5256635885
 31
0.0
 11
7.2355039374
 21
-13.518514591
 31
0.0
 11
7.2617535576
 21
-13.5090280779
 31
0.0
  0
SPLINE
  5
2A9
100
AcDbEntity
  8
0
100
AcDbSpline
 62
253
  6
CONTINUOUS
 70
0
 71
3
 72
16
 73
12
 74
10
 42
0.0000001
 43
0.0000001
 44
0.0000000001
 12
0.0601822657
 22
-0.4514343891
 32
0.0
 13
0.374886556
 23
-0.2590342016
 33
0.0
 40
0.0
 40
0.0
 40
0.0
 40
0.0
 40
0.1262159384
 40
0.2481416421
 40
0.3658424431
 40
0.4794793895
 40
0.5893225707
 40
0.6957525652
 40
0.7992616344
 40
0.9004475236
 40
1.0
 40
1.0
 40
1.0
 40
1.0
 10
6.2284909794
 20
-13.3574488106
 30
0.0
 10
6.2310229664
 20
-13.376441549
 30
0.0
 10
6.237252359
 20
-13.4136301221
 30
0.0
 10
6.2504003811
 20
-13.4676416639
 30
0.0
 10
6.2671303473
 20
-13.5186562047
 30
0.0
 10
6.2873617659
 20
-13.5664065164
 30
0.0
 10
6.3109974525
 20
-13.6106439366
 30
0.0
 10
6.3379227693
 20
-13.6511342633
 30
0.0
 10
6.3680049692
 20
-13.687659459
 30
0.0
 10
6.4010922105
 20
-13.7200188427
 30
0.0
 10
6.4251744728
 20
-13.7387993952
 30
0.0
 10
6.4376147678
 20
-13.7473952273
 30
0.0
 11
6.2284909794
 21
-13.3574488106
 31
0.0
 11
6.238055649
 21
-13.4141297837
 31
0.0
 11
6.251260647
 21
-13.4680652327
 31
0.0
 11
6.2680378151
 21
-13.5189763776
 31
0.0
 11
6.2883000373
 21
-13.5665984825
 31
0.0
 11
6.3119424673
 21
-13.6106848206
 31
0.0
 11
6.3388425878
 21
-13.6510065706
 31
0.0
 11
6.3688609741
 21
-13.6873544218
 31
0.0
 11
6.4018419808
 21
-13.7195396395
 31
0.0
 11
6.4376147678
 21
-13.7473952273
 31
0.0
  0
SPLINE
  5
2AA
100
AcDbEntity
  8
0
100
AcDbSpline
 62
253
  6
CONTINUOUS
 70
0
 71
3
 72
25
 73
21
 74
19
 42
0.0000001
 43
0.0000001
 44
0.0000000001
 12
-0.604709483
 22
-0.3899745273
 32
0.0
 13
-0.6450072096
 23
0.3189347744
 33
0.0
 40
0.0
 40
0.0
 40
0.0
 40
0.0
 40
0.0519489921
 40
0.1056337261
 40
0.1608610208
 40
0.2174103325
 40
0.2750390332
 40
0.3334872945
 40
0.392482682
 40
0.4517445493
 40
0.5109883064
 40
0.56992963
 40
0.6282886781
 40
0.6857943707
 40
0.7421888042
 40
0.7972318777
 40
0.8507062212
 40
0.9024225311
 40
0.9522254347
 40
1.0
 40
1.0
 40
1.0
 40
1.0
 10
6.9190925233
 20
-13.3009315754
 30
0.0
 10
6.9086211739
 20
-13.3076845033
 30
0.0
 10
6.8868547694
 20
-13.3206930089
 30
0.0
 10
6.8525461088
 20
-13.3383914049
 30
0.0
 10
6.8162493866
 20
-13.3544932896
 30
0.0
 10
6.7782288393
 20
-13.3688814286
 30
0.0
 10
6.7387588323
 20
-13.3814523305
 30
0.0
 10
6.6981251401
 20
-13.3921150183
 30
0.0
 10
6.6566219217
 20
-13.4007923544
 30
0.0
 10
6.6145497943
 20
-13.4074214941
 30
0.0
 10
6.5722135335
 20
-13.4119544191
 30
0.0
 10
6.5299198271
 20
-13.4143582886
 30
0.0
 10
6.4879749929
 20
-13.4146156791
 30
0.0
 10
6.4466826919
 20
-13.4127246849
 30
0.0
 10
6.406341696
 20
-13.4086989015
 30
0.0
 10
6.3672435606
 20
-13.402567203
 30
0.0
 10
6.3296708332
 20
-13.3943736028
 30
0.0
 10
6.2938936573
 20
-13.3841761166
 30
0.0
 10
6.2601725288
 20
-13.372048431
 30
0.0
 10
6.2387626317
 20
-13.3625277966
 30
0.0
 10
6.2284909854
 20
-13.3574488065
 30
0.0
 11
6.9190925233
 21
-13.3009315754
 31
0.0
 11
6.8870278225
 21
-13.3201439595
 31
0.0
 11
6.8527140752
 21
-13.3378854113
 31
0.0
 11
6.8164010857
 21
-13.3540267729
 31
0.0
 11
6.7783532131
 21
-13.3684505348
 31
0.0
 11
6.7388474464
 21
-13.3810516921
 31
0.0
 11
6.6981713879
 21
-13.391738508
 31
0.0
 11
6.65662116
 21
-13.4004331825
 31
0.0
 11
6.6144992486
 21
-13.4070724183
 31
0.0
 11
6.5721123018
 21
-13.4116078815
 31
0.0
 11
6.5297688971
 21
-13.4140065541
 31
0.0
 11
6.4877772951
 21
-13.4142509736
 31
0.0
 11
6.4464431949
 21
-13.4123393606
 31
0.0
 11
6.4060675094
 21
-13.4082856317
 31
0.0
 11
6.366944174
 21
-13.4021192981
 31
0.0
 11
6.3293580071
 21
-13.3938852509
 31
0.0
 11
6.2935826364
 21
-13.3836434338
 31
0.0
 11
6.259878507
 21
-13.3714684076
 31
0.0
 11
6.2284909854
 21
-13.3574488065
 31
0.0
  0
SPLINE
  5
2AB
100
AcDbEntity
  8
0
100
AcDbSpline
 62
253
  6
CONTINUOUS
 70
0
 71
3
 72
16
 73
12
 74
10
 42
0.0000001
 43
0.0000001
 44
0.0000000001
 12
0.158196343
 22
-9.7777422745
 32
0.0
 13
1.3125357896
 23
-9.6905376461
 33
0.0
 40
0.0
 40
0.0
 40
0.0
 40
0.0
 40
0.1138478936
 40
0.2270231241
 40
0.3395199846
 40
0.4513332902
 40
0.562458351
 40
0.672890981
 40
0.7826274966
 40
0.891664726
 40
1.0
 40
1.0
 40
1.0
 40
1.0
 10
6.1989847066
 20
-3.5541118026
 30
0.0
 10
6.2049881467
 20
-3.9251702566
 30
0.0
 10
6.2215530123
 20
-4.6650290664
 30
0.0
 10
6.2602645775
 20
-5.7711045288
 30
0.0
 10
6.3127592759
 20
-6.8699742765
 30
0.0
 10
6.3790261024
 20
-7.9614045122
 30
0.0
 10
6.4590512146
 20
-9.0451661185
 30
0.0
 10
6.5528178416
 20
-10.1210306154
 30
0.0
 10
6.6603064593
 20
-11.1887722802
 30
0.0
 10
6.7814941701
 20
-12.2481634507
 30
0.0
 10
6.8716945485
 20
-12.950989225
 30
0.0
 10
6.9190925233
 20
-13.3009315754
 30
0.0
 11
6.1989847066
 21
-3.5541118026
 31
0.0
 11
6.223945915
 21
-4.6671529952
 31
0.0
 11
6.2626989621
 21
-5.7732173722
 31
0.0
 11
6.3152356956
 21
-6.8720714535
 31
0.0
 11
6.3815450691
 21
-7.9634837452
 31
0.0
 11
6.4616131439
 21
-9.0472244148
 31
0.0
 11
6.5554230948
 21
-10.1230653041
 31
0.0
 11
6.6629552046
 21
-11.1907798502
 31
0.0
 11
6.7841868601
 21
-12.2501431041
 31
0.0
 11
6.9190925233
 21
-13.3009315754
 31
0.0
  0
SPLINE
  5
2AC
100
AcDbEntity
  8
0
100
AcDbSpline
 62
253
  6
CONTINUOUS
 70
0
 71
3
 72
16
 73
12
 74
10
 42
0.0000001
 43
0.0000001
 44
0.0000000001
 12
0.159049173
 22
-9.8322873465
 32
0.0
 13
1.3196312823
 23
-9.7446264363
 33
0.0
 40
0.0
 40
0.0
 40
0.0
 40
0.0
 40
0.113848609
 40
0.2270243491
 40
0.33952156
 40
0.4513350501
 40
0.562460123
 40
0.672892586
 40
0.7826287491
 40
0.8916654339
 40
1.0
 40
1.0
 40
1.0
 40
1.0
 10
5.5044959581
 20
-3.5562454027
 30
0.0
 10
5.5105318005
 20
-3.9293761486
 30
0.0
 10
5.5271860768
 20
-4.6733662949
 30
0.0
 10
5.5661066045
 20
-5.7856173392
 30
0.0
 10
5.6188846615
 20
-6.8906209403
 30
0.0
 10
5.6855091852
 20
-7.9881421709
 30
0.0
 10
5.7659662596
 20
-9.077950635
 30
0.0
 10
5.8602390233
 20
-10.1598165779
 30
0.0
 10
5.9683078458
 20
-11.233513018
 30
0.0
 10
6.0901497228
 20
-12.2988111392
 30
0.0
 10
6.1808370852
 20
-13.0055555183
 30
0.0
 10
6.2284909794
 20
-13.3574488106
 30
0.0
 11
5.5044959581
 21
-3.5562454027
 31
0.0
 11
5.5295919215
 21
-4.6755027712
 31
0.0
 11
5.568554162
 21
-5.787742526
 31
0.0
 11
5.6213744921
 21
-6.892730406
 31
0.0
 11
5.6880418057
 21
-7.9902336251
 31
0.0
 11
5.7685420887
 21
-9.0800210683
 31
0.0
 11
5.8628584252
 21
-10.1618633044
 31
0.0
 11
5.9709709916
 21
-11.2355325071
 31
0.0
 11
6.0928570527
 21
-12.3008024727
 31
0.0
 11
6.2284909794
 21
-13.3574488106
 31
0.0
  0
SPLINE
  5
2AD
100
AcDbEntity
  8
0
100
AcDbSpline
 62
253
  6
CONTINUOUS
 70
0
 71
3
 72
25
 73
21
 74
19
 42
0.0000001
 43
0.0000001
 44
0.0000000001
 12
-0.6423647763
 22
-0.3139711931
 32
0.0
 13
-0.6397108624
 23
0.3193437466
 33
0.0
 40
0.0
 40
0.0
 40
0.0
 40
0.0
 40
0.0496825043
 40
0.1014998182
 40
0.1552483517
 40
0.2106923844
 40
0.2675699993
 40
0.3255983861
 40
0.3844786963
 40
0.4439005886
 40
0.5035465721
 40
0.5630962312
 40
0.6222304052
 40
0.6806353868
 40
0.7380072088
 40
0.7940560977
 40
0.8485111903
 40
0.9011256391
 40
0.9516822694
 40
1.0
 40
1.0
 40
1.0
 40
1.0
 10
6.1989847066
 20
-3.5541118026
 30
0.0
 10
6.1883466096
 20
-3.5593114276
 30
0.0
 10
6.1662516745
 20
-3.5692065198
 30
0.0
 10
6.1316193793
 20
-3.5822847818
 30
0.0
 10
6.0950063035
 20
-3.5938365097
 30
0.0
 10
6.0566784141
 20
-3.6037775373
 30
0.0
 10
6.0169119211
 20
-3.6120362791
 30
0.0
 10
5.9759945215
 20
-3.6185528293
 30
0.0
 10
5.9342223031
 20
-3.6232799303
 30
0.0
 10
5.8918977856
 20
-3.6261832518
 30
0.0
 10
5.8493275873
 20
-3.6272417083
 30
0.0
 10
5.806820156
 20
-3.6264476212
 30
0.0
 10
5.7646834666
 20
-3.6238067805
 30
0.0
 10
5.7232227188
 20
-3.61933839
 30
0.0
 10
5.682738079
 20
-3.6130749133
 30
0.0
 10
5.643522351
 20
-3.6050617532
 30
0.0
 10
5.6058590646
 20
-3.5953569867
 30
0.0
 10
5.5700193081
 20
-3.5840303246
 30
0.0
 10
5.5362633439
 20
-3.5711641866
 30
0.0
 10
5.5147990839
 20
-3.5613887244
 30
0.0
 10
5.5044959582
 20
-3.5562454027
 30
0.0
 11
6.1989847066
 21
-3.5541118026
 31
0.0
 11
6.1665852564
 21
-3.5686762281
 31
0.0
 11
6.1319403187
 21
-3.5818042763
 31
0.0
 11
6.095301983
 21
-3.5934004226
 31
0.0
 11
6.0569368436
 21
-3.6033802891
 31
0.0
 11
6.0171240597
 21
-3.6116712584
 31
0.0
 11
5.976153324
 21
-3.6182130025
 31
0.0
 11
5.9343227549
 21
-3.622957921
 31
0.0
 11
5.8919367276
 21
-3.6258714882
 31
0.0
 11
5.8493036585
 21
-3.6269325039
 31
0.0
 11
5.806733762
 21
-3.6261332478
 31
0.0
 11
5.7645367926
 21
-3.6234795354
 31
0.0
 11
5.7230197912
 21
-3.6189906763
 31
0.0
 11
5.6824848513
 21
-3.612699333
 31
0.0
 11
5.6432269203
 21
-3.6046512838
 31
0.0
 11
5.6055316535
 21
-3.5949050892
 31
0.0
 11
5.569673336
 21
-3.5835316663
 31
0.0
 11
5.5359128863
 21
-3.5706137723
 31
0.0
 11
5.5044959582
 21
-3.5562454027
 31
0.0
  0
SPLINE
  5
2AE
100
AcDbEntity
  8
ASSI
100
AcDbSpline
 62
7
  6
CONTINUOUS
 70
0
 71
3
 72
16
 73
12
 74
10
 42
0.0000001
 43
0.0000001
 44
0.0000000001
 12
0.1696147045
 22
0.1209883165
 32
0.0
 13
0.1861936725
 23
-0.0930968362
 33
0.0
 40
0.0
 40
0.0
 40
0.0
 40
0.0
 40
0.0958690123
 40
0.1972796348
 40
0.3000767723
 40
0.4055993299
 40
0.5145435844
 40
0.6275877901
 40
0.7461181251
 40
0.8703585636
 40
1.0
 40
1.0
 40
1.0
 40
1.0
 10
-5.088767611
 20
6.8683308203
 30
0.0
 10
-5.0833473463
 20
6.8721971638
 30
0.0
 10
-5.0716623774
 20
6.8794111165
 30
0.0
 10
-5.0525262211
 20
6.8877996131
 30
0.0
 10
-5.0317479191
 20
6.8935637947
 30
0.0
 10
-5.0098612725
 20
6.89648878
 30
0.0
 10
-4.9870756767
 20
6.8965522547
 30
0.0
 10
-4.9635585532
 20
6.8937711918
 30
0.0
 10
-4.9394646214
 20
6.8881685645
 30
0.0
 10
-4.9149793812
 20
6.8797850038
 30
0.0
 10
-4.8988860994
 20
6.8725526905
 30
0.0
 10
-4.890839961
 20
6.8685296213
 30
0.0
 11
-5.088767611
 21
6.8683308203
 31
0.0
 11
-5.0717790823
 21
6.8788072297
 31
0.0
 11
-5.0524477301
 21
6.8872902713
 31
0.0
 11
-5.0318343509
 21
6.8930367088
 31
0.0
 11
-5.0100668753
 21
6.8959886295
 31
0.0
 11
-4.9873881524
 21
6.8961044333
 31
0.0
 11
-4.9640118184
 21
6.8933977783
 31
0.0
 11
-4.9399651178
 21
6.8878669412
 31
0.0
 11
-4.9154778979
 21
6.879543291
 31
0.0
 11
-4.890839961
 21
6.8685296213
 31
0.0
  0
SPLINE
  5
2AF
100
AcDbEntity
  8
ASSI
100
AcDbSpline
 62
7
  6
CONTINUOUS
 70
0
 71
3
 72
19
 73
15
 74
13
 42
0.0000001
 43
0.0000001
 44
0.0000000001
 12
0.0023233124
 22
-0.2723466015
 32
0.0
 13
-0.2595315173
 23
-0.0833125346
 33
0.0
 40
0.0
 40
0.0
 40
0.0
 40
0.0
 40
0.1085012282
 40
0.2129420887
 40
0.312754366
 40
0.4077593882
 40
0.4987226518
 40
0.5857825686
 40
0.6691038925
 40
0.7494370233
 40
0.8280230385
 40
0.9055121163
 40
0.9826399433
 40
1.0
 40
1.0
 40
1.0
 40
1.0
 10
1.272845347
 20
2.23749262
 30
0.0
 10
1.2729293745
 20
2.2276426398
 30
0.0
 10
1.2724237215
 20
2.2082968525
 30
0.0
 10
1.2695130226
 20
2.1800237739
 30
0.0
 10
1.2644871548
 20
2.1532892834
 30
0.0
 10
1.2573906144
 20
2.128293661
 30
0.0
 10
1.2482694229
 20
2.1051975823
 30
0.0
 10
1.2371755521
 20
2.0841662671
 30
0.0
 10
1.2242047885
 20
2.06539166
 30
0.0
 10
1.2094461022
 20
2.0490006534
 30
0.0
 10
1.1929902217
 20
2.0351129228
 30
0.0
 10
1.1749697035
 20
2.0238606217
 30
0.0
 10
1.1606224958
 20
2.0175665759
 30
0.0
 10
1.1524897608
 20
2.0148134955
 30
0.0
 10
1.1509879335
 20
2.0143313921
 30
0.0
 11
1.272845347
 21
2.23749262
 31
0.0
 11
1.2720308405
 21
2.2079528312
 31
0.0
 11
1.2690700711
 21
2.1796621912
 31
0.0
 11
1.2639953905
 21
2.1529555265
 31
0.0
 11
1.2568740438
 21
2.1280795485
 31
0.0
 11
1.2477187731
 21
2.1050588241
 31
0.0
 11
1.2366037629
 21
2.0841140404
 31
0.0
 11
1.2236603183
 21
2.0654741837
 31
0.0
 11
1.2089870924
 21
2.0492446404
 31
0.0
 11
1.1926105258
 21
2.035463706
 31
0.0
 11
1.1747029063
 21
2.024295733
 31
0.0
 11
1.1554697395
 21
2.0158489288
 31
0.0
 11
1.1509879335
 21
2.0143313921
 31
0.0
  0
SPLINE
  5
2B0
100
AcDbEntity
  8
ASSI
100
AcDbSpline
 62
7
  6
CONTINUOUS
 70
0
 71
3
 72
25
 73
21
 74
19
 42
0.0000001
 43
0.0000001
 44
0.0000000001
 12
0.524939942
 22
-0.262469971
 32
0.0
 13
0.0036518538
 23
-0.5868893357
 33
0.0
 40
0.0
 40
0.0
 40
0.0
 40
0.0
 40
0.0480002896
 40
0.0980777546
 40
0.1499276073
 40
0.2032806204
 40
0.2582997211
 40
0.3146977562
 40
0.3720294192
 40
0.4300903448
 40
0.4889371177
 40
0.5480921557
 40
0.6070668692
 40
0.6659068303
 40
0.7243887663
 40
0.7820262864
 40
0.838476684
 40
0.8938625151
 40
0.9478403938
 40
1.0
 40
1.0
 40
1.0
 40
1.0
 10
0.9799438883
 20
3.9331376967
 30
0.0
 10
0.9883429781
 20
3.9289381518
 30
0.0
 10
1.0051408172
 20
3.919613365
 30
0.0
 10
1.0296210234
 20
3.9034105664
 30
0.0
 10
1.0536974411
 20
3.8848451923
 30
0.0
 10
1.0771942751
 20
3.8640661177
 30
0.0
 10
1.0999578986
 20
3.8412143363
 30
0.0
 10
1.1218212084
 20
3.8164533573
 30
0.0
 10
1.1425911597
 20
3.7900089369
 30
0.0
 10
1.1621364251
 20
3.7620613152
 30
0.0
 10
1.1803273519
 20
3.7327934019
 30
0.0
 10
1.1970144567
 20
3.702438908
 30
0.0
 10
1.2120680879
 20
3.6712437464
 30
0.0
 10
1.225391575
 20
3.6394137468
 30
0.0
 10
1.2368904599
 20
3.6071570867
 30
0.0
 10
1.2464583682
 20
3.5747623411
 30
0.0
 10
1.2540299661
 20
3.542464797
 30
0.0
 10
1.2595524389
 20
3.5104788411
 30
0.0
 10
1.2629756219
 20
3.4790448123
 30
0.0
 10
1.2638527416
 20
3.458279921
 30
0.0
 10
1.2639162346
 20
3.4480759488
 30
0.0
 11
0.9799438883
 21
3.9331376967
 31
0.0
 11
1.0045973474
 21
3.9195055683
 31
0.0
 11
1.0291291699
 21
3.9033194283
 31
0.0
 11
1.0532497281
 21
3.8847660709
 31
0.0
 11
1.0767267298
 21
3.8640458059
 31
0.0
 11
1.0995339423
 21
3.841187033
 31
0.0
 11
1.1214580876
 21
3.8163889502
 31
0.0
 11
1.1422543784
 21
3.7899370746
 31
0.0
 11
1.1617929623
 21
3.7620190274
 31
0.0
 11
1.1800304799
 21
3.7326896571
 31
0.0
 11
1.1967581426
 21
3.7022670657
 31
0.0
 11
1.2117994233
 21
3.6710938205
 31
0.0
 11
1.2251279286
 21
3.6392364222
 31
0.0
 11
1.2366431901
 21
3.6069026443
 31
0.0
 11
1.2462106789
 21
3.5744563353
 31
0.0
 11
1.2537534981
 21
3.5421956114
 31
0.0
 11
1.2592595939
 21
3.5101593533
 31
0.0
 11
1.2626592356
 21
3.4786626399
 31
0.0
 11
1.2639162346
 21
3.4480759488
 31
0.0
  0
SPLINE
  5
2B1
100
AcDbEntity
  8
ASSI
100
AcDbSpline
 62
253
  6
CONTINUOUS
 70
0
 71
3
 72
14
 73
10
 74
8
 42
0.0000001
 43
0.0000001
 44
0.0000000001
 12
0.1079825595
 22
0.0590789721
 32
0.0
 13
0.1114448285
 23
-0.0519220795
 33
0.0
 40
0.0
 40
0.0
 40
0.0
 40
0.0
 40
0.1015894819
 40
0.2371899148
 40
0.3765345955
 40
0.5213745949
 40
0.6730463026
 40
0.8324372892
 40
1.0
 40
1.0
 40
1.0
 40
1.0
 10
-9.314887892
 20
12.1811766142
 30
0.0
 10
-9.3112312613
 20
12.1831772149
 30
0.0
 10
-9.3023983371
 20
12.1873090928
 30
0.0
 10
-9.2875521516
 20
12.1917623012
 30
0.0
 10
-9.2704311611
 20
12.1940402936
 30
0.0
 10
-9.2525109853
 20
12.1937495697
 30
0.0
 10
-9.2339911453
 20
12.1909085902
 30
0.0
 10
-9.2150738608
 20
12.1855621718
 30
0.0
 10
-9.2026374089
 20
12.1804964569
 30
0.0
 10
-9.1964127431
 20
12.1775963888
 30
0.0
 11
-9.314887892
 21
12.1811766142
 31
0.0
 11
-9.3035696724
 21
12.1864732465
 31
0.0
 11
-9.2876090528
 21
12.1912899893
 31
0.0
 11
-9.2706327594
 21
12.1935941282
 31
0.0
 11
-9.2528267159
 21
12.1933604281
 31
0.0
 11
-9.2343859335
 21
12.1905914487
 31
0.0
 11
-9.2155123751
 21
12.1853175156
 31
0.0
 11
-9.1964127431
 21
12.1775963888
 31
0.0
  0
SPLINE
  5
2B2
100
AcDbEntity
  8
ASSI
100
AcDbSpline
 62
7
  6
CONTINUOUS
 70
0
 71
3
 72
14
 73
10
 74
8
 42
0.0000001
 43
0.0000001
 44
0.0000000001
 12
-0.1542207444
 22
-0.0495065927
 32
0.0
 13
-0.1447556237
 23
0.0723778119
 33
0.0
 40
0.0
 40
0.0
 40
0.0
 40
0.0
 40
0.1023849299
 40
0.2375219642
 40
0.3771078483
 40
0.5220284168
 40
0.6740709424
 40
0.8335264796
 40
1.0
 40
1.0
 40
1.0
 40
1.0
 10
1.1509879335
 20
2.0143313921
 30
0.0
 10
1.1457246401
 20
2.0126418157
 30
0.0
 10
1.133297327
 20
2.0093978751
 30
0.0
 10
1.1130704169
 20
2.006705396
 30
0.0
 10
1.0903724048
 20
2.00665785
 30
0.0
 10
1.0669350181
 20
2.0094463842
 30
0.0
 10
1.0429105711
 20
2.0150482612
 30
0.0
 10
1.0184825368
 20
2.0234235075
 30
0.0
 10
1.0024215533
 20
2.0306442911
 30
0.0
 10
0.9943888938
 20
2.0346606208
 30
0.0
 11
1.1509879335
 21
2.0143313921
 31
0.0
 11
1.1349528491
 21
2.0101328302
 31
0.0
 11
1.1132790024
 21
2.0072042424
 31
0.0
 11
1.0906884085
 21
2.0071036692
 31
0.0
 11
1.0673917106
 21
2.009817155
 31
0.0
 11
1.0434142506
 21
2.0153468112
 31
0.0
 11
1.0189839832
 21
2.0236618812
 31
0.0
 11
0.9943888938
 21
2.0346606208
 31
0.0
  0
SPLINE
  5
2B3
100
AcDbEntity
  8
ASSI
100
AcDbSpline
 62
253
  6
CONTINUOUS
 70
0
 71
3
 72
17
 73
13
 74
11
 42
0.0000001
 43
0.0000001
 44
0.0000000001
 12
0.0036245435
 22
-0.2417804499
 32
0.0
 13
0.2159671729
 23
-0.1081563275
 33
0.0
 40
0.0
 40
0.0
 40
0.0
 40
0.0
 40
0.0103943558
 40
0.1011450817
 40
0.1939167901
 40
0.2903486406
 40
0.3918036099
 40
0.4993198336
 40
0.613609753
 40
0.7350873348
 40
0.8639064209
 40
1.0
 40
1.0
 40
1.0
 40
1.0
 10
-9.4505495508
 20
4.0254757801
 30
0.0
 10
-9.4505369926
 20
4.0246380627
 30
0.0
 10
-9.4503363817
 20
4.0164876604
 30
0.0
 10
-9.4484835497
 20
4.000912474
 30
0.0
 10
-9.4421813498
 20
3.9791726197
 30
0.0
 10
-9.4322693102
 20
3.9578811853
 30
0.0
 10
-9.4188476892
 20
3.9371933152
 30
0.0
 10
-9.4020338828
 20
3.9172487031
 30
0.0
 10
-9.3819604146
 20
3.8981782956
 30
0.0
 10
-9.3587758194
 20
3.8801076832
 30
0.0
 10
-9.3326493183
 20
3.863159181
 30
0.0
 10
-9.3138934821
 20
3.8529571537
 30
0.0
 10
-9.3040962336
 20
3.8480506931
 30
0.0
 11
-9.4505495508
 21
4.0254757801
 31
0.0
 11
-9.4504876726
 21
4.0229631616
 31
0.0
 11
-9.4479214166
 21
4.0011943415
 31
0.0
 11
-9.4417365116
 21
3.9796571166
 31
0.0
 11
-9.4319779613
 21
3.9585081999
 31
0.0
 11
-9.4187167726
 21
3.9379014788
 31
0.0
 11
-9.4020494388
 21
3.9179868957
 31
0.0
 11
-9.3820972378
 21
3.8989093563
 31
0.0
 11
-9.3590053493
 21
3.8808076763
 31
0.0
 11
-9.3329417985
 21
3.86381357
 31
0.0
 11
-9.3040962336
 21
3.8480506931
 31
0.0
  0
SPLINE
  5
2B4
100
AcDbEntity
  8
ASSI
100
AcDbSpline
 62
253
  6
CONTINUOUS
 70
0
 71
3
 72
16
 73
12
 74
10
 42
0.0000001
 43
0.0000001
 44
0.0000000001
 12
0.0304865542
 22
-0.2365036487
 32
0.0
 13
0.2126255254
 23
-0.107487397
 33
0.0
 40
0.0
 40
0.0
 40
0.0
 40
0.0
 40
0.0405514404
 40
0.1465799212
 40
0.254581111
 40
0.3658241733
 40
0.4813822312
 40
0.6020957272
 40
0.7285625726
 40
0.8611471594
 40
1.0
 40
1.0
 40
1.0
 40
1.0
 10
-8.7750730279
 20
-5.752785881
 30
0.0
 10
-8.7746609367
 20
-5.7559827355
 30
0.0
 10
-8.7728498949
 20
-5.7674967627
 30
0.0
 10
-8.7676957486
 20
-5.7871191585
 30
0.0
 10
-8.7576346596
 20
-5.8110013706
 30
0.0
 10
-8.7440713219
 20
-5.8339584091
 30
0.0
 10
-8.7271215394
 20
-5.8558235983
 30
0.0
 10
-8.7069217161
 20
-5.8764442542
 30
0.0
 10
-8.6836258985
 20
-5.8956796881
 30
0.0
 10
-8.6574090502
 20
-5.9133977947
 30
0.0
 10
-8.6385388456
 20
-5.923879531
 30
0.0
 10
-8.6286976262
 20
-5.9288545078
 30
0.0
 11
-8.7750730279
 21
-5.752785881
 31
0.0
 11
-8.7735703669
 21
-5.7623369271
 31
0.0
 11
-8.7671744173
 21
-5.7867751228
 31
0.0
 11
-8.7572252457
 21
-5.8105051461
 31
0.0
 11
-8.7437952821
 21
-5.8333542422
 31
0.0
 11
-8.7269822968
 21
-5.8551560692
 31
0.0
 11
-8.7069086886
 21
-5.8757519097
 31
0.0
 11
-8.6837205937
 21
-5.8949918257
 31
0.0
 11
-8.6575868215
 21
-5.9127357504
 31
0.0
 11
-8.6286976262
 21
-5.9288545078
 31
0.0
  0
SPLINE
  5
2B5
100
AcDbEntity
  8
ASSI
100
AcDbSpline
 62
253
  6
CONTINUOUS
 70
0
 71
3
 72
17
 73
13
 74
11
 42
0.0000001
 43
0.0000001
 44
0.0000000001
 12
-0.387332328
 22
0.2509619442
 32
0.0
 13
-0.0590280372
 23
0.4574610712
 33
0.0
 40
0.0
 40
0.0
 40
0.0
 40
0.0
 40
0.0274050924
 40
0.1227841769
 40
0.2200823729
 40
0.3200058309
 40
0.4231542594
 40
0.5300096108
 40
0.6409328132
 40
0.7561678119
 40
0.8758457552
 40
1.0
 40
1.0
 40
1.0
 40
1.0
 10
-8.4162566299
 20
-6.3222706121
 30
0.0
 10
-8.4197949226
 20
-6.319978067
 30
0.0
 10
-8.4354709861
 20
-6.3094340967
 30
0.0
 10
-8.4620815329
 20
-6.2884085049
 30
0.0
 10
-8.4940320935
 20
-6.2566042325
 30
0.0
 10
-8.5230759673
 20
-6.2205869225
 30
0.0
 10
-8.5490684982
 20
-6.1805550962
 30
0.0
 10
-8.5718832854
 20
-6.1367240769
 30
0.0
 10
-8.5914109674
 20
-6.0893251775
 30
0.0
 10
-8.6075584457
 20
-6.0386043812
 30
0.0
 10
-8.6202484701
 20
-5.9848264143
 30
0.0
 10
-8.6262547658
 20
-5.9477864191
 30
0.0
 10
-8.6286976263
 20
-5.9288545078
 30
0.0
 11
-8.4162566299
 21
-6.3222706121
 31
0.0
 11
-8.4267512828
 21
-6.315212202
 31
0.0
 11
-8.461296292
 21
-6.2879705031
 31
0.0
 11
-8.4931453393
 21
-6.256351265
 31
0.0
 11
-8.522133448
 21
-6.2205185527
 31
0.0
 11
-8.5481103157
 21
-6.1806584291
 31
0.0
 11
-8.5709412999
 21
-6.1369778139
 31
0.0
 11
-8.5905080956
 21
-6.0897034222
 31
0.0
 11
-8.6067094387
 21
-6.0390801898
 31
0.0
 11
-8.6194612344
 21
-5.985371342
 31
0.0
 11
-8.6286976263
 21
-5.9288545078
 31
0.0
  0
SPLINE
  5
2B6
100
AcDbEntity
  8
ASSI
100
AcDbSpline
 62
253
  6
CONTINUOUS
 70
0
 71
3
 72
25
 73
21
 74
19
 42
0.0000001
 43
0.0000001
 44
0.0000000001
 12
-0.322542062
 22
-0.153715816
 32
0.0
 13
-0.3195783395
 23
0.1597861657
 33
0.0
 40
0.0
 40
0.0
 40
0.0
 40
0.0
 40
0.0494954376
 40
0.1011644218
 40
0.1547958882
 40
0.2101520197
 40
0.2669695962
 40
0.3249641445
 40
0.3838344909
 40
0.4432679998
 40
0.5029448047
 40
0.5625417143
 40
0.6217365154
 40
0.6802124479
 40
0.7376621202
 40
0.7937918312
 40
0.8483269394
 40
0.9010166122
 40
0.9516383009
 40
1.0
 40
1.0
 40
1.0
 40
1.0
 10
5.9610722157
 20
4.5988539094
 30
0.0
 10
5.9557507622
 20
4.5963178322
 30
0.0
 10
5.9446980929
 20
4.5914975812
 30
0.0
 10
5.9273803527
 20
4.5851467737
 30
0.0
 10
5.9090714546
 20
4.579556534
 30
0.0
 10
5.8899051313
 20
4.5747679872
 30
0.0
 10
5.8700195551
 20
4.5708156035
 30
0.0
 10
5.8495585694
 20
4.5677280774
 30
0.0
 10
5.8286702574
 20
4.5655278111
 30
0.0
 10
5.8075059246
 20
4.5642307956
 30
0.0
 10
5.7862189025
 20
4.5638464559
 30
0.0
 10
5.7649634497
 20
4.5643775831
 30
0.0
 10
5.7438935879
 20
4.5658203073
 30
0.0
 10
5.7231619446
 20
4.5681641348
 30
0.0
 10
5.7029186453
 20
4.5713920271
 30
0.0
 10
5.683310127
 20
4.5754805717
 30
0.0
 10
5.6644781442
 20
4.5804001081
 30
0.0
 10
5.6465583125
 20
4.586115288
 30
0.0
 10
5.6296814251
 20
4.5925841386
 30
0.0
 10
5.6189488773
 20
4.5974860048
 30
0.0
 10
5.6137970935
 20
4.6000618483
 30
0.0
 11
5.9610722157
 21
4.5988539094
 31
0.0
 11
5.9448721126
 21
4.5917614729
 31
0.0
 11
5.9275469608
 21
4.5853852572
 31
0.0
 11
5.9092249187
 21
4.5797726679
 31
0.0
 11
5.8900395693
 21
4.574964654
 31
0.0
 11
5.8701304235
 21
4.5709961664
 31
0.0
 11
5.8496422934
 21
4.5678960791
 31
0.0
 11
5.8287243574
 21
4.5656869675
 31
0.0
 11
5.8075288334
 21
4.5643849037
 31
0.0
 11
5.7862099102
 21
4.5639993589
 31
0.0
 11
5.7649227388
 21
4.5645331396
 31
0.0
 11
5.7438222575
 21
4.565982357
 31
0.0
 11
5.7230619632
 21
4.5683364655
 31
0.0
 11
5.7027929225
 21
4.571578334
 31
0.0
 11
5.6831627107
 21
4.5756843519
 31
0.0
 11
5.6643141015
 21
4.5806246437
 31
0.0
 11
5.6463841502
 21
4.5863632948
 31
0.0
 11
5.6295035731
 21
4.5928584383
 31
0.0
 11
5.6137970935
 21
4.6000618483
 31
0.0
  0
SPLINE
  5
2B7
100
AcDbEntity
  8
ASSI
100
AcDbSpline
 62
253
  6
CONTINUOUS
 70
0
 71
3
 72
25
 73
21
 74
19
 42
0.0000001
 43
0.0000001
 44
0.0000000001
 12
-0.2109794759
 22
0.1054917212
 32
0.0
 13
0.2069226435
 23
0.1132424924
 33
0.0
 40
0.0
 40
0.0
 40
0.0
 40
0.0
 40
0.0696259316
 40
0.1354941003
 40
0.1975520195
 40
0.2558682771
 40
0.3106467485
 40
0.3622458225
 40
0.411194015
 40
0.4581922643
 40
0.5040904017
 40
0.549831955
 40
0.5963745027
 40
0.6446058402
 40
0.6952792112
 40
0.7489797848
 40
0.8061199722
 40
0.8669516448
 40
0.9315844569
 40
1.0
 40
1.0
 40
1.0
 40
1.0
 10
-9.1903499246
 20
12.0021353573
 30
0.0
 10
-9.1952464721
 20
12.0045836771
 30
0.0
 10
-9.2046202086
 20
12.0096693208
 30
0.0
 10
-9.2176815766
 20
12.0181063099
 30
0.0
 10
-9.2292726322
 20
12.0270887874
 30
0.0
 10
-9.2393082718
 20
12.0365556467
 30
0.0
 10
-9.2477144552
 20
12.0464446293
 30
0.0
 10
-9.2544251473
 20
12.0566911946
 30
0.0
 10
-9.2593816547
 20
12.0672267118
 30
0.0
 10
-9.262533413
 20
12.0779749468
 30
0.0
 10
-9.2638426763
 20
12.0888489275
 30
0.0
 10
-9.2632920919
 20
12.099752303
 30
0.0
 10
-9.2608896111
 20
12.1105869771
 30
0.0
 10
-9.256665904
 20
12.121262013
 30
0.0
 10
-9.2506669477
 20
12.1316972375
 30
0.0
 10
-9.2429480169
 20
12.1418211896
 30
0.0
 10
-9.233571775
 20
12.151567386
 30
0.0
 10
-9.2226085307
 20
12.1608719214
 30
0.0
 10
-9.2101394361
 20
12.1696717864
 30
0.0
 10
-9.2011316514
 20
12.1750138732
 30
0.0
 10
-9.1964127431
 20
12.1775963888
 30
0.0
 11
-9.1903499246
 21
12.0021353573
 31
0.0
 11
-9.2047704886
 21
12.0099954691
 31
0.0
 11
-9.2178019159
 21
12.0184563279
 31
0.0
 11
-9.229347456
 21
12.0274554224
 31
0.0
 11
-9.2393228779
 21
12.0369271462
 31
0.0
 11
-9.2476556627
 21
12.0468026266
 31
0.0
 11
-9.2542851814
 21
12.0570100379
 31
0.0
 11
-9.2591631517
 21
12.0674750616
 31
0.0
 11
-9.2622540761
 21
12.078121547
 31
0.0
 11
-9.2635354629
 21
12.0888720455
 31
0.0
 11
-9.2629979787
 21
12.0996483098
 31
0.0
 11
-9.2606455362
 21
12.1103719143
 31
0.0
 11
-9.2564952468
 21
12.1209648492
 31
0.0
 11
-9.2505773052
 21
12.1313500308
 31
0.0
 11
-9.2429348073
 21
12.1414518422
 31
0.0
 11
-9.2336233585
 21
12.1511968065
 31
0.0
 11
-9.2227106463
 21
12.1605140608
 31
0.0
 11
-9.2102762902
 21
12.1693356743
 31
0.0
 11
-9.1964127431
 21
12.1775963888
 31
0.0
  0
LINE
  5
2B8
100
AcDbEntity
  8
ASSI
100
AcDbLine
 62
7
  6
CONTINUOUS
 10
-5.1618263617
 20
5.4548284744
 11
-5.1633248746
 21
5.6340862191
  0
LINE
  5
2B9
100
AcDbEntity
  8
ASSI
100
AcDbLine
 62
7
  6
CONTINUOUS
 10
-5.1633248746
 20
5.6340862191
 11
-5.1636899517
 21
5.6789050571
  0
LINE
  5
2BA
100
AcDbEntity
  8
ASSI
100
AcDbLine
 62
7
  6
CONTINUOUS
 10
-5.1636899517
 20
5.6789050571
 11
-5.1664730918
 21
6.0375262174
  0
LINE
  5
2BB
100
AcDbEntity
  8
ASSI
100
AcDbLine
 62
7
  6
CONTINUOUS
 10
-5.1664730918
 20
6.0375262174
 11
-5.1668037997
 21
6.0823626598
  0
LINE
  5
2BC
100
AcDbEntity
  8
ASSI
100
AcDbLine
 62
7
  6
CONTINUOUS
 10
-5.1668037997
 20
6.0823626598
 11
-5.1693119839
 21
6.4411243566
  0
LINE
  5
2BD
100
AcDbEntity
  8
ASSI
100
AcDbLine
 62
7
  6
CONTINUOUS
 10
-5.1693119839
 20
6.4411243566
 11
-5.169608322
 21
6.4859783296
  0
LINE
  5
2BE
100
AcDbEntity
  8
ASSI
100
AcDbLine
 62
7
  6
CONTINUOUS
 10
-5.169608322
 20
6.4859783296
 11
-5.1707554741
 21
6.6654118031
  0
SPLINE
  5
2BF
100
AcDbEntity
  8
ASSI
100
AcDbSpline
 62
7
  6
CONTINUOUS
 70
0
 71
3
 72
25
 73
21
 74
19
 42
0.0000001
 43
0.0000001
 44
0.0000000001
 12
-0.5245274405
 22
0.2622637203
 32
0.0
 13
-0.0050025686
 23
0.5864181692
 33
0.0
 40
0.0
 40
0.0
 40
0.0
 40
0.0
 40
0.0479689405
 40
0.0980125495
 40
0.1498255404
 40
0.2031382304
 40
0.2581145878
 40
0.3144706373
 40
0.3717636343
 40
0.4297891306
 40
0.4886088045
 40
0.5477482898
 40
0.6067200463
 40
0.6655679539
 40
0.7240731896
 40
0.7817494485
 40
0.8382510683
 40
0.8937000221
 40
0.9477535516
 40
1.0
 40
1.0
 40
1.0
 40
1.0
 10
-4.877282336
 20
4.9704962357
 30
0.0
 10
-4.8856693446
 20
4.97468974
 30
0.0
 10
-4.902444062
 20
4.983998406
 30
0.0
 10
-4.9268953187
 20
5.0001666046
 30
0.0
 10
-4.9509487298
 20
5.018686787
 30
0.0
 10
-4.9744296325
 20
5.0394109792
 30
0.0
 10
-4.9971857166
 20
5.0621997208
 30
0.0
 10
-5.0190511971
 20
5.0868917364
 30
0.0
 10
-5.0398336564
 20
5.1132636631
 30
0.0
 10
-5.0594022625
 20
5.1411379205
 30
0.0
 10
-5.0776275428
 20
5.1703344443
 30
0.0
 10
-5.0943597856
 20
5.2006227222
 30
0.0
 10
-5.1094680684
 20
5.2317588464
 30
0.0
 10
-5.1228544711
 20
5.2635389738
 30
0.0
 10
-5.1344230195
 20
5.295756635
 30
0.0
 10
-5.1440653563
 20
5.3281247045
 30
0.0
 10
-5.1517139489
 20
5.3604080746
 30
0.0
 10
-5.157313949
 20
5.3923923848
 30
0.0
 10
-5.1608131558
 20
5.4238374564
 30
0.0
 10
-5.1617392396
 20
5.4446157189
 30
0.0
 10
-5.1618263617
 20
5.4548284744
 30
0.0
 11
-4.877282336
 21
4.9704962357
 31
0.0
 11
-4.9019023335
 21
4.9841051385
 31
0.0
 11
-4.9264053328
 21
5.0002569706
 31
0.0
 11
-4.9505029741
 21
5.0187654319
 31
0.0
 11
-4.9739638719
 21
5.0394310003
 31
0.0
 11
-4.9967630771
 21
5.0622264756
 31
0.0
 11
-5.0186890455
 21
5.0869553184
 31
0.0
 11
-5.039497816
 21
5.1133348483
 31
0.0
 11
-5.0590590873
 21
5.1411789075
 31
0.0
 11
-5.0773306745
 21
5.1704363439
 31
0.0
 11
-5.094103453
 21
5.2007925021
 31
0.0
 11
-5.1091994636
 21
5.2319071255
 31
0.0
 11
-5.1225905793
 21
5.2637138709
 31
0.0
 11
-5.1341756387
 21
5.2960085687
 31
0.0
 11
-5.143817816
 21
5.3284287295
 31
0.0
 11
-5.1514375646
 21
5.3606754845
 31
0.0
 11
-5.1570212662
 21
5.3927099549
 31
0.0
 11
-5.1604970839
 21
5.4242179417
 31
0.0
 11
-5.1618263617
 21
5.4548284744
 31
0.0
  0
SPLINE
  5
2C0
100
AcDbEntity
  8
ASSI
100
AcDbSpline
 62
7
  6
CONTINUOUS
 70
0
 71
3
 72
16
 73
12
 74
10
 42
0.0000001
 43
0.0000001
 44
0.0000000001
 12
-0.0013169092
 22
0.211640437
 32
0.0
 13
0.1590675193
 23
0.1398736643
 33
0.0
 40
0.0
 40
0.0
 40
0.0
 40
0.0
 40
0.1395272774
 40
0.2739201021
 40
0.402445843
 40
0.5248674379
 40
0.6421671143
 40
0.7545208464
 40
0.8621290013
 40
0.9659378976
 40
1.0
 40
1.0
 40
1.0
 40
1.0
 10
-5.1707554741
 20
6.6654118031
 30
0.0
 10
-5.1708167224
 20
6.6752550078
 30
0.0
 10
-5.1702646149
 20
6.6945921232
 30
0.0
 10
-5.1672812753
 20
6.7228559804
 30
0.0
 10
-5.1621802167
 20
6.7495933688
 30
0.0
 10
-5.1550054712
 20
6.7746025354
 30
0.0
 10
-5.1458026435
 20
6.7977213954
 30
0.0
 10
-5.1346233855
 20
6.8187831706
 30
0.0
 10
-5.1215637221
 20
6.8375936481
 30
0.0
 10
-5.109917251
 20
6.8504787213
 30
0.0
 10
-5.1027551813
 20
6.8570754295
 30
0.0
 10
-5.1009491233
 20
6.8586635599
 30
0.0
 11
-5.1707554741
 21
6.6654118031
 31
0.0
 11
-5.1698706627
 21
6.69492873
 31
0.0
 11
-5.1668376435
 21
6.7232100644
 31
0.0
 11
-5.1616882812
 21
6.7499199949
 31
0.0
 11
-5.1544895971
 21
6.7748097491
 31
0.0
 11
-5.1452534733
 21
6.7978535361
 31
0.0
 11
-5.134053515
 21
6.8188298158
 31
0.0
 11
-5.1210211797
 21
6.8375071867
 31
0.0
 11
-5.1062561706
 21
6.8537768251
 31
0.0
 11
-5.1009491233
 21
6.8586635599
 31
0.0
  0
SPLINE
  5
2C1
100
AcDbEntity
  8
ASSI
100
AcDbSpline
 62
253
  6
CONTINUOUS
 70
0
 71
3
 72
16
 73
12
 74
10
 42
0.0000001
 43
0.0000001
 44
0.0000000001
 12
-1.2344583664
 22
9.7271614722
 32
0.0
 13
-0.1480278181
 23
9.8040627053
 33
0.0
 40
0.0
 40
0.0
 40
0.0
 40
0.0
 40
0.1080730282
 40
0.216918925
 40
0.3265327533
 40
0.4369090339
 40
0.5480417747
 40
0.6599244812
 40
0.7725501569
 40
0.8859113138
 40
1.0
 40
1.0
 40
1.0
 40
1.0
 10
-8.6286976263
 20
-5.9288545078
 30
0.0
 10
-8.6731681776
 20
-5.578439909
 30
0.0
 10
-8.757792964
 20
-4.8745081477
 30
0.0
 10
-8.8714506466
 20
-3.8133119794
 30
0.0
 10
-8.9722601347
 20
-2.743255482
 30
0.0
 10
-9.0601999963
 20
-1.6645663831
 30
0.0
 10
-9.1352518974
 20
-0.5774710707
 30
0.0
 10
-9.1974001009
 20
0.5178013258
 30
0.0
 10
-9.2466316114
 20
1.6210208099
 30
0.0
 10
-9.2829361025
 20
2.7319531315
 30
0.0
 10
-9.2984668005
 20
3.4752064819
 30
0.0
 10
-9.3040962336
 20
3.8480506931
 30
0.0
 11
-8.6286976263
 21
-5.9288545078
 31
0.0
 11
-8.7552274538
 21
-4.8767602194
 31
0.0
 11
-8.868932208
 21
-3.8155809073
 31
0.0
 11
-8.9697879799
 21
-2.7455401018
 31
0.0
 11
-9.0577735606
 21
-1.6668632436
 31
0.0
 11
-9.1328704569
 21
-0.5797774938
 31
0.0
 11
-9.1950628883
 21
0.5154882842
 31
0.0
 11
-9.2443377816
 21
1.6187034458
 31
0.0
 11
-9.280684776
 21
2.7296355775
 31
0.0
 11
-9.3040962336
 21
3.8480506931
 31
0.0
  0
SPLINE
  5
2C2
100
AcDbEntity
  8
ASSI
100
AcDbSpline
 62
253
  6
CONTINUOUS
 70
0
 71
3
 72
17
 73
13
 74
11
 42
0.0000001
 43
0.0000001
 44
0.0000000001
 12
-0.2159827681
 22
0.1079954703
 32
0.0
 13
-0.0005697064
 23
0.2417616987
 33
0.0
 40
0.0
 40
0.0
 40
0.0
 40
0.0
 40
0.13603101
 40
0.2646719717
 40
0.3858331644
 40
0.499640539
 40
0.6064857625
 40
0.7070633195
 40
0.8024026324
 40
0.8938741356
 40
0.9831446548
 40
1.0
 40
1.0
 40
1.0
 40
1.0
 10
-9.3655826214
 20
11.6978473681
 30
0.0
 10
-9.3753760727
 20
11.702744279
 30
0.0
 10
-9.3941221965
 20
11.7129112701
 30
0.0
 10
-9.4202450203
 20
11.7297672623
 30
0.0
 10
-9.4434260168
 20
11.747700913
 30
0.0
 10
-9.4634965011
 20
11.7665909504
 30
0.0
 10
-9.4803085088
 20
11.7863132373
 30
0.0
 10
-9.4937301985
 20
11.8067392946
 30
0.0
 10
-9.5036442365
 20
11.8277327384
 30
0.0
 10
-9.5099492246
 20
11.8491421089
 30
0.0
 10
-9.5118688779
 20
11.8650076422
 30
0.0
 10
-9.512026909
 20
11.8735595775
 30
0.0
 10
-9.5120301098
 20
11.8749179032
 30
0.0
 11
-9.3655826214
 21
11.6978473681
 31
0.0
 11
-9.3944272884
 21
11.7135638569
 31
0.0
 11
-9.4204895971
 21
11.7304672601
 31
0.0
 11
-9.4435802805
 21
11.7484349065
 31
0.0
 11
-9.4635307271
 21
11.7673356512
 31
0.0
 11
-9.4801959368
 21
11.7870320983
 31
0.0
 11
-9.4934546616
 21
11.8073809827
 31
0.0
 11
-9.5032103488
 21
11.82823415
 31
0.0
 11
-9.5093920156
 21
11.8494398582
 31
0.0
 11
-9.5119546897
 21
11.8708438489
 31
0.0
 11
-9.5120301098
 21
11.8749179032
 31
0.0
  0
SPLINE
  5
2C3
100
AcDbEntity
  8
ASSI
100
AcDbSpline
 62
253
  6
CONTINUOUS
 70
0
 71
3
 72
22
 73
18
 74
16
 42
0.0000001
 43
0.0000001
 44
0.0000000001
 12
-0.0027087752
 22
0.3665121304
 32
0.0
 13
-0.322967055
 23
0.1732938562
 33
0.0
 40
0.0
 40
0.0
 40
0.0
 40
0.0
 40
0.0629566414
 40
0.1283834588
 40
0.195913743
 40
0.2651259748
 40
0.3355575138
 40
0.4067172398
 40
0.4780975125
 40
0.5491857568
 40
0.6194759385
 40
0.6884801858
 40
0.7557408241
 40
0.8208431402
 40
0.8834292511
 40
0.9432135227
 40
1.0
 40
1.0
 40
1.0
 40
1.0
 10
6.1331144538
 20
4.2917079137
 30
0.0
 10
6.1330576087
 20
4.2993993713
 30
0.0
 10
6.1322830691
 20
4.31508481
 30
0.0
 10
6.1293000537
 20
4.3388536856
 30
0.0
 10
6.1245045044
 20
4.3631035097
 30
0.0
 10
6.1179487365
 20
4.3875694676
 30
0.0
 10
6.1097040144
 20
4.4119867906
 30
0.0
 10
6.0998599479
 20
4.4360901085
 30
0.0
 10
6.0885235427
 20
4.4596175063
 30
0.0
 10
6.0758180329
 20
4.482313213
 30
0.0
 10
6.0618814784
 20
4.5039305692
 30
0.0
 10
6.0468651964
 20
4.524234756
 30
0.0
 10
6.0309318649
 20
4.5430054637
 30
0.0
 10
6.0142539273
 20
4.5600390885
 30
0.0
 10
5.9970100952
 20
4.5751515762
 30
0.0
 10
5.9793877836
 20
4.5881776578
 30
0.0
 10
5.9671856028
 20
4.5955736602
 30
0.0
 10
5.9610722157
 20
4.5988539094
 30
0.0
 11
6.1331144538
 21
4.2917079137
 31
0.0
 11
6.1320141547
 21
4.3147566686
 31
0.0
 11
6.1290586004
 21
4.3385542144
 31
0.0
 11
6.1242801599
 21
4.3628399211
 31
0.0
 11
6.1177311667
 21
4.3873478125
 31
0.0
 11
6.109483345
 21
4.411809479
 31
0.0
 11
6.0996270249
 21
4.4359570171
 31
0.0
 11
6.0882701523
 21
4.4595259639
 31
0.0
 11
6.0755371076
 21
4.4822581931
 31
0.0
 11
6.0615673425
 21
4.5039047421
 31
0.0
 11
6.0465138534
 21
4.5242285387
 31
0.0
 11
6.0305415057
 21
4.5430069974
 31
0.0
 11
6.0138252281
 21
4.5600344573
 31
0.0
 11
5.9965480964
 21
4.5751244342
 31
0.0
 11
5.9788993294
 21
4.5881116635
 31
0.0
 11
5.9610722157
 21
4.5988539094
 31
0.0
  0
SPLINE
  5
2C4
100
AcDbEntity
  8
ASSI
100
AcDbSpline
 62
253
  6
CONTINUOUS
 70
0
 71
3
 72
18
 73
14
 74
12
 42
0.0000001
 43
0.0000001
 44
0.0000000001
 12
-0.0146251891
 22
-0.3374729221
 32
0.0
 13
-0.3134234949
 23
-0.1267203006
 33
0.0
 40
0.0
 40
0.0
 40
0.0
 40
0.0
 40
0.11202914
 40
0.220003865
 40
0.3237389448
 40
0.4231623526
 40
0.5183318675
 40
0.6094511725
 40
0.696883202
 40
0.7811571033
 40
0.8629639376
 40
0.9431361493
 40
1.0
 40
1.0
 40
1.0
 40
1.0
 10
7.2617535576
 20
-13.5090280779
 30
0.0
 10
7.2612074085
 20
-13.521630345
 30
0.0
 10
7.2592990619
 20
-13.5463529139
 30
0.0
 10
7.253823835
 20
-13.5824256935
 30
0.0
 10
7.2458241084
 20
-13.6165740531
 30
0.0
 10
7.2353557616
 20
-13.6485396562
 30
0.0
 10
7.2224913665
 20
-13.6780824147
 30
0.0
 10
7.2073197792
 20
-13.7049776858
 30
0.0
 10
7.1899461426
 20
-13.729017368
 30
0.0
 10
7.1704929443
 20
-13.7500099342
 30
0.0
 10
7.1491021475
 20
-13.7677817368
 30
0.0
 10
7.1281065326
 20
-13.7808321692
 30
0.0
 10
7.11408241
 20
-13.7873452974
 30
0.0
 10
7.1081415877
 20
-13.7897472322
 30
0.0
 11
7.2617535576
 21
-13.5090280779
 31
0.0
 11
7.2587939228
 21
-13.5467544518
 31
0.0
 11
7.2532675786
 21
-13.5828060935
 31
0.0
 11
7.2452164862
 21
-13.6169092655
 31
0.0
 11
7.2347017769
 21
-13.6488050248
 31
0.0
 11
7.2218032881
 21
-13.6782511894
 31
0.0
 11
7.2066189571
 21
-13.7050241767
 31
0.0
 11
7.1892640775
 21
-13.7289207014
 31
0.0
 11
7.1698704235
 21
-13.7497593189
 31
0.0
 11
7.1485852497
 21
-13.7673818032
 31
0.0
 11
7.1255701729
 21
-13.7816543479
 31
0.0
 11
7.1081415877
 21
-13.7897472322
 31
0.0
  0
SPLINE
  5
2C5
100
AcDbEntity
  8
ASSI
100
AcDbSpline
 62
253
  6
CONTINUOUS
 70
0
 71
3
 72
26
 73
22
 74
20
 42
0.0000001
 43
0.0000001
 44
0.0000000001
 12
0.0639075782
 22
-0.4718179908
 32
0.0
 13
0.4414253651
 23
0.1784377821
 33
0.0
 40
0.0
 40
0.0
 40
0.0
 40
0.0
 40
0.0604714473
 40
0.1189577881
 40
0.1754896565
 40
0.2301507618
 40
0.2830756018
 40
0.3344495457
 40
0.3845087349
 40
0.4335365193
 40
0.4818566178
 40
0.5298216896
 40
0.5777998971
 40
0.6261586397
 40
0.6752493941
 40
0.7253932963
 40
0.7768707761
 40
0.8299146356
 40
0.8847072271
 40
0.9413785448
 40
1.0
 40
1.0
 40
1.0
 40
1.0
 10
6.9190925233
 20
-13.3009315754
 30
0.0
 10
6.9203807179
 20
-13.310442081
 30
0.0
 10
6.9235510202
 20
-13.3290726822
 30
0.0
 10
6.9302392479
 20
-13.356136147
 30
0.0
 10
6.938749866
 20
-13.3817173663
 30
0.0
 10
6.949041592
 20
-13.4056808113
 30
0.0
 10
6.9610647484
 20
-13.4279015033
 30
0.0
 10
6.974760704
 20
-13.4482616321
 30
0.0
 10
6.9900615006
 20
-13.4666515327
 30
0.0
 10
7.0068894551
 20
-13.4829703419
 30
0.0
 10
7.0251567955
 20
-13.4971271689
 30
0.0
 10
7.0447657855
 20
-13.5090426622
 30
0.0
 10
7.0656094559
 20
-13.5186506084
 30
0.0
 10
7.0875731952
 20
-13.5258992412
 30
0.0
 10
7.1105365718
 20
-13.530751714
 30
0.0
 10
7.1343751351
 20
-13.5331858444
 30
0.0
 10
7.158961714
 20
-13.5331932963
 30
0.0
 10
7.1841671123
 20
-13.5307787664
 30
0.0
 10
7.2098609781
 20
-13.5259588662
 30
0.0
 10
7.2359079346
 20
-13.5187633434
 30
0.0
 10
7.2531278919
 20
-13.5125148387
 30
0.0
 10
7.2617535576
 20
-13.5090280779
 30
0.0
 11
6.9190925233
 21
-13.3009315754
 31
0.0
 11
6.9239562438
 21
-13.3293098538
 31
0.0
 11
6.9306719638
 21
-13.3563348162
 31
0.0
 11
6.9392044699
 21
-13.3818629282
 31
0.0
 11
6.9495094769
 21
-13.4057614339
 31
0.0
 11
6.9615336531
 21
-13.4279065138
 31
0.0
 11
6.9752146904
 21
-13.4481832236
 31
0.0
 11
6.9904816771
 21
-13.4664863024
 31
0.0
 11
7.0072554525
 21
-13.4827207085
 31
0.0
 11
7.0254491211
 21
-13.4968022
 31
0.0
 11
7.044968299
 21
-13.5086575924
 31
0.0
 11
7.0657118057
 21
-13.5182253124
 31
0.0
 11
7.0875719937
 21
-13.5254556035
 31
0.0
 11
7.1104355528
 21
-13.5303108896
 31
0.0
 11
7.1341838353
 21
-13.5327658785
 31
0.0
 11
7.1586935891
 21
-13.5328077541
 31
0.0
 11
7.1838375847
 21
-13.5304362498
 31
0.0
 11
7.2094855084
 21
-13.5256635885
 31
0.0
 11
7.2355039374
 21
-13.518514591
 31
0.0
 11
7.2617535576
 21
-13.5090280779
 31
0.0
  0
SPLINE
  5
2C6
100
AcDbEntity
  8
ASSI
100
AcDbSpline
 62
253
  6
CONTINUOUS
 70
0
 71
3
 72
18
 73
14
 74
12
 42
0.0000001
 43
0.0000001
 44
0.0000000001
 12
0.0672629585
 22
-0.5045475144
 32
0.0
 13
0.45473559
 23
-0.229335339
 33
0.0
 40
0.0
 40
0.0
 40
0.0
 40
0.0
 40
0.1129293346
 40
0.2220200623
 40
0.3273306381
 40
0.4290051563
 40
0.5272852747
 40
0.6225115084
 40
0.7151242992
 40
0.8056584685
 40
0.8947311725
 40
0.9830205113
 40
1.0
 40
1.0
 40
1.0
 40
1.0
 10
6.2284909794
 20
-13.3574488106
 30
0.0
 10
6.2310229664
 20
-13.376441549
 30
0.0
 10
6.237252359
 20
-13.4136301221
 30
0.0
 10
6.2504003811
 20
-13.4676416639
 30
0.0
 10
6.2671303473
 20
-13.5186562047
 30
0.0
 10
6.2873617659
 20
-13.5664065164
 30
0.0
 10
6.3109974525
 20
-13.6106439366
 30
0.0
 10
6.3379227693
 20
-13.6511342633
 30
0.0
 10
6.3680049692
 20
-13.687659459
 30
0.0
 10
6.4010922105
 20
-13.7200188427
 30
0.0
 10
6.4370125888
 20
-13.7480313501
 30
0.0
 10
6.4652303443
 20
-13.7652331446
 30
0.0
 10
6.4810971423
 20
-13.7734581853
 30
0.0
 10
6.4836708682
 20
-13.7747561842
 30
0.0
 11
6.2284909794
 21
-13.3574488106
 31
0.0
 11
6.238055649
 21
-13.4141297837
 31
0.0
 11
6.251260647
 21
-13.4680652327
 31
0.0
 11
6.2680378151
 21
-13.5189763776
 31
0.0
 11
6.2883000373
 21
-13.5665984825
 31
0.0
 11
6.3119424673
 21
-13.6106848206
 31
0.0
 11
6.3388425878
 21
-13.6510065706
 31
0.0
 11
6.3688609741
 21
-13.6873544218
 31
0.0
 11
6.4018419808
 21
-13.7195396395
 31
0.0
 11
6.4376147678
 21
-13.7473952273
 31
0.0
 11
6.4759937702
 21
-13.7707764187
 31
0.0
 11
6.4836708682
 21
-13.7747561842
 31
0.0
  0
SPLINE
  5
2C7
100
AcDbEntity
  8
ASSI
100
AcDbSpline
 62
253
  6
CONTINUOUS
 70
0
 71
3
 72
25
 73
21
 74
19
 42
0.0000001
 43
0.0000001
 44
0.0000000001
 12
-0.604709483
 22
-0.3899745273
 32
0.0
 13
-0.6450072096
 23
0.3189347744
 33
0.0
 40
0.0
 40
0.0
 40
0.0
 40
0.0
 40
0.0519489921
 40
0.1056337261
 40
0.1608610208
 40
0.2174103325
 40
0.2750390332
 40
0.3334872945
 40
0.392482682
 40
0.4517445493
 40
0.5109883064
 40
0.56992963
 40
0.6282886781
 40
0.6857943707
 40
0.7421888042
 40
0.7972318777
 40
0.8507062212
 40
0.9024225311
 40
0.9522254347
 40
1.0
 40
1.0
 40
1.0
 40
1.0
 10
6.9190925233
 20
-13.3009315754
 30
0.0
 10
6.9086211739
 20
-13.3076845033
 30
0.0
 10
6.8868547694
 20
-13.3206930089
 30
0.0
 10
6.8525461088
 20
-13.3383914049
 30
0.0
 10
6.8162493866
 20
-13.3544932896
 30
0.0
 10
6.7782288393
 20
-13.3688814286
 30
0.0
 10
6.7387588323
 20
-13.3814523305
 30
0.0
 10
6.6981251401
 20
-13.3921150183
 30
0.0
 10
6.6566219217
 20
-13.4007923544
 30
0.0
 10
6.6145497943
 20
-13.4074214941
 30
0.0
 10
6.5722135335
 20
-13.4119544191
 30
0.0
 10
6.5299198271
 20
-13.4143582886
 30
0.0
 10
6.4879749929
 20
-13.4146156791
 30
0.0
 10
6.4466826919
 20
-13.4127246849
 30
0.0
 10
6.406341696
 20
-13.4086989015
 30
0.0
 10
6.3672435606
 20
-13.402567203
 30
0.0
 10
6.3296708332
 20
-13.3943736028
 30
0.0
 10
6.2938936573
 20
-13.3841761166
 30
0.0
 10
6.2601725288
 20
-13.372048431
 30
0.0
 10
6.2387626317
 20
-13.3625277966
 30
0.0
 10
6.2284909854
 20
-13.3574488065
 30
0.0
 11
6.9190925233
 21
-13.3009315754
 31
0.0
 11
6.8870278225
 21
-13.3201439595
 31
0.0
 11
6.8527140752
 21
-13.3378854113
 31
0.0
 11
6.8164010857
 21
-13.3540267729
 31
0.0
 11
6.7783532131
 21
-13.3684505348
 31
0.0
 11
6.7388474464
 21
-13.3810516921
 31
0.0
 11
6.6981713879
 21
-13.391738508
 31
0.0
 11
6.65662116
 21
-13.4004331825
 31
0.0
 11
6.6144992486
 21
-13.4070724183
 31
0.0
 11
6.5721123018
 21
-13.4116078815
 31
0.0
 11
6.5297688971
 21
-13.4140065541
 31
0.0
 11
6.4877772951
 21
-13.4142509736
 31
0.0
 11
6.4464431949
 21
-13.4123393606
 31
0.0
 11
6.4060675094
 21
-13.4082856317
 31
0.0
 11
6.366944174
 21
-13.4021192981
 31
0.0
 11
6.3293580071
 21
-13.3938852509
 31
0.0
 11
6.2935826364
 21
-13.3836434338
 31
0.0
 11
6.259878507
 21
-13.3714684076
 31
0.0
 11
6.2284909854
 21
-13.3574488065
 31
0.0
  0
SPLINE
  5
2C8
100
AcDbEntity
  8
ASSI
100
AcDbSpline
 62
253
  6
CONTINUOUS
 70
0
 71
3
 72
10
 73
6
 74
4
 42
0.0000001
 43
0.0000001
 44
0.0000000001
 12
0.0500555655
 22
-3.093816266
 32
0.0
 13
0.1594497296
 23
-3.0901317943
 33
0.0
 40
0.0
 40
0.0
 40
0.0
 40
0.0
 40
0.3598065517
 40
0.7174872089
 40
1.0
 40
1.0
 40
1.0
 40
1.0
 10
6.1989847066
 20
-3.5541118026
 30
0.0
 10
6.2049881467
 20
-3.9251702566
 30
0.0
 10
6.2215530123
 20
-4.6650290664
 30
0.0
 10
6.2576300874
 20
-5.695831293
 30
0.0
 10
6.288277284
 20
-6.3554329813
 30
0.0
 10
6.3032928134
 20
-6.6464335673
 30
0.0
 11
6.1989847066
 21
-3.5541118026
 31
0.0
 11
6.223945915
 21
-4.6671529952
 31
0.0
 11
6.2626989621
 21
-5.7732173722
 31
0.0
 11
6.3032928134
 21
-6.6464335673
 31
0.0
  0
SPLINE
  5
2C9
100
AcDbEntity
  8
ASSI
100
AcDbSpline
 62
253
  6
CONTINUOUS
 70
0
 71
3
 72
14
 73
10
 74
8
 42
0.0000001
 43
0.0000001
 44
0.0000000001
 12
0.344477533
 22
-6.6759660218
 32
0.0
 13
0.8972308591
 23
-6.6243141608
 33
0.0
 40
0.0
 40
0.0
 40
0.0
 40
0.0
 40
0.033800889
 40
0.1973696782
 40
0.3599316521
 40
0.5214806867
 40
0.6820113937
 40
0.841519133
 40
1.0
 40
1.0
 40
1.0
 40
1.0
 10
6.3032928134
 20
-6.6464335673
 30
0.0
 10
6.307174029
 20
-6.7216514294
 30
0.0
 10
6.3304189039
 20
-7.1608325083
 30
0.0
 10
6.3790261024
 20
-7.9614045122
 30
0.0
 10
6.4590512146
 20
-9.0451661185
 30
0.0
 10
6.5528178416
 20
-10.1210306154
 30
0.0
 10
6.6603064593
 20
-11.1887722802
 30
0.0
 10
6.7814941701
 20
-12.2481634507
 30
0.0
 10
6.8716945485
 20
-12.950989225
 30
0.0
 10
6.9190925233
 20
-13.3009315754
 30
0.0
 11
6.3032928134
 21
-6.6464335673
 31
0.0
 11
6.3152356956
 21
-6.8720714535
 31
0.0
 11
6.3815450691
 21
-7.9634837452
 31
0.0
 11
6.4616131439
 21
-9.0472244148
 31
0.0
 11
6.5554230948
 21
-10.1230653041
 31
0.0
 11
6.6629552046
 21
-11.1907798502
 31
0.0
 11
6.7841868601
 21
-12.2501431041
 31
0.0
 11
6.9190925233
 21
-13.3009315754
 31
0.0
  0
SPLINE
  5
2CA
100
AcDbEntity
  8
ASSI
100
AcDbSpline
 62
253
  6
CONTINUOUS
 70
0
 71
3
 72
16
 73
12
 74
10
 42
0.0000001
 43
0.0000001
 44
0.0000000001
 12
0.159049173
 22
-9.8322873465
 32
0.0
 13
1.3196312823
 23
-9.7446264363
 33
0.0
 40
0.0
 40
0.0
 40
0.0
 40
0.0
 40
0.113848609
 40
0.2270243491
 40
0.33952156
 40
0.4513350501
 40
0.562460123
 40
0.672892586
 40
0.7826287491
 40
0.8916654339
 40
1.0
 40
1.0
 40
1.0
 40
1.0
 10
5.5044959581
 20
-3.5562454027
 30
0.0
 10
5.5105318005
 20
-3.9293761486
 30
0.0
 10
5.5271860768
 20
-4.6733662949
 30
0.0
 10
5.5661066045
 20
-5.7856173392
 30
0.0
 10
5.6188846615
 20
-6.8906209403
 30
0.0
 10
5.6855091852
 20
-7.9881421709
 30
0.0
 10
5.7659662596
 20
-9.077950635
 30
0.0
 10
5.8602390233
 20
-10.1598165779
 30
0.0
 10
5.9683078458
 20
-11.233513018
 30
0.0
 10
6.0901497228
 20
-12.2988111392
 30
0.0
 10
6.1808370852
 20
-13.0055555183
 30
0.0
 10
6.2284909794
 20
-13.3574488106
 30
0.0
 11
5.5044959581
 21
-3.5562454027
 31
0.0
 11
5.5295919215
 21
-4.6755027712
 31
0.0
 11
5.568554162
 21
-5.787742526
 31
0.0
 11
5.6213744921
 21
-6.892730406
 31
0.0
 11
5.6880418057
 21
-7.9902336251
 31
0.0
 11
5.7685420887
 21
-9.0800210683
 31
0.0
 11
5.8628584252
 21
-10.1618633044
 31
0.0
 11
5.9709709916
 21
-11.2355325071
 31
0.0
 11
6.0928570527
 21
-12.3008024727
 31
0.0
 11
6.2284909794
 21
-13.3574488106
 31
0.0
  0
SPLINE
  5
2CB
100
AcDbEntity
  8
ASSI
100
AcDbSpline
 62
253
  6
CONTINUOUS
 70
0
 71
3
 72
25
 73
21
 74
19
 42
0.0000001
 43
0.0000001
 44
0.0000000001
 12
-0.6423647763
 22
-0.3139711931
 32
0.0
 13
-0.6397108624
 23
0.3193437466
 33
0.0
 40
0.0
 40
0.0
 40
0.0
 40
0.0
 40
0.0496825043
 40
0.1014998182
 40
0.1552483517
 40
0.2106923844
 40
0.2675699993
 40
0.3255983861
 40
0.3844786963
 40
0.4439005886
 40
0.5035465721
 40
0.5630962312
 40
0.6222304052
 40
0.6806353868
 40
0.7380072088
 40
0.7940560977
 40
0.8485111903
 40
0.9011256391
 40
0.9516822694
 40
1.0
 40
1.0
 40
1.0
 40
1.0
 10
6.1989847066
 20
-3.5541118026
 30
0.0
 10
6.1883466096
 20
-3.5593114276
 30
0.0
 10
6.1662516745
 20
-3.5692065198
 30
0.0
 10
6.1316193793
 20
-3.5822847818
 30
0.0
 10
6.0950063035
 20
-3.5938365097
 30
0.0
 10
6.0566784141
 20
-3.6037775373
 30
0.0
 10
6.0169119211
 20
-3.6120362791
 30
0.0
 10
5.9759945215
 20
-3.6185528293
 30
0.0
 10
5.9342223031
 20
-3.6232799303
 30
0.0
 10
5.8918977856
 20
-3.6261832518
 30
0.0
 10
5.8493275873
 20
-3.6272417083
 30
0.0
 10
5.806820156
 20
-3.6264476212
 30
0.0
 10
5.7646834666
 20
-3.6238067805
 30
0.0
 10
5.7232227188
 20
-3.61933839
 30
0.0
 10
5.682738079
 20
-3.6130749133
 30
0.0
 10
5.643522351
 20
-3.6050617532
 30
0.0
 10
5.6058590646
 20
-3.5953569867
 30
0.0
 10
5.5700193081
 20
-3.5840303246
 30
0.0
 10
5.5362633439
 20
-3.5711641866
 30
0.0
 10
5.5147990839
 20
-3.5613887244
 30
0.0
 10
5.5044959582
 20
-3.5562454027
 30
0.0
 11
6.1989847066
 21
-3.5541118026
 31
0.0
 11
6.1665852564
 21
-3.5686762281
 31
0.0
 11
6.1319403187
 21
-3.5818042763
 31
0.0
 11
6.095301983
 21
-3.5934004226
 31
0.0
 11
6.0569368436
 21
-3.6033802891
 31
0.0
 11
6.0171240597
 21
-3.6116712584
 31
0.0
 11
5.976153324
 21
-3.6182130025
 31
0.0
 11
5.9343227549
 21
-3.622957921
 31
0.0
 11
5.8919367276
 21
-3.6258714882
 31
0.0
 11
5.8493036585
 21
-3.6269325039
 31
0.0
 11
5.806733762
 21
-3.6261332478
 31
0.0
 11
5.7645367926
 21
-3.6234795354
 31
0.0
 11
5.7230197912
 21
-3.6189906763
 31
0.0
 11
5.6824848513
 21
-3.612699333
 31
0.0
 11
5.6432269203
 21
-3.6046512838
 31
0.0
 11
5.6055316535
 21
-3.5949050892
 31
0.0
 11
5.569673336
 21
-3.5835316663
 31
0.0
 11
5.5359128863
 21
-3.5706137723
 31
0.0
 11
5.5044959582
 21
-3.5562454027
 31
0.0
  0
SPLINE
  5
2CC
100
AcDbEntity
  8
ASSI
100
AcDbSpline
 62
253
  6
CONTINUOUS
 70
0
 71
3
 72
25
 73
21
 74
19
 42
0.0000001
 43
0.0000001
 44
0.0000000001
 12
-0.6460963923
 22
-0.3048847509
 32
0.0
 13
-0.6390010858
 23
0.3194884534
 33
0.0
 40
0.0
 40
0.0
 40
0.0
 40
0.0
 40
0.0494328262
 40
0.1010447089
 40
0.1546315361
 40
0.2099543778
 40
0.2667494203
 40
0.3247313615
 40
0.3835981563
 40
0.4430362134
 40
0.5027246367
 40
0.5623391465
 40
0.6215564156
 40
0.6800584166
 40
0.7375363898
 40
0.7936951737
 40
0.8482585284
 40
0.9009740369
 40
0.9516168911
 40
1.0
 40
1.0
 40
1.0
 40
1.0
 10
6.1331158564
 20
4.2917085756
 30
0.0
 10
6.1224697328
 20
4.2866848039
 30
0.0
 10
6.1003596322
 20
4.277142069
 30
0.0
 10
6.0657230327
 20
4.2645847173
 30
0.0
 10
6.0291057116
 20
4.2535464276
 30
0.0
 10
5.9907735615
 20
4.2441077649
 30
0.0
 10
5.9510029968
 20
4.2363367393
 30
0.0
 10
5.9100816791
 20
4.2302897588
 30
0.0
 10
5.8683057748
 20
4.2260107089
 30
0.0
 10
5.8259778894
 20
4.2235306925
 30
0.0
 10
5.7834046772
 20
4.2228677332
 30
0.0
 10
5.7408946282
 20
4.2240266472
 30
0.0
 10
5.6987557582
 20
4.2269989969
 30
0.0
 10
5.6572933012
 20
4.2317631685
 30
0.0
 10
5.6168075064
 20
4.2382845353
 30
0.0
 10
5.5775912536
 20
4.246515786
 30
0.0
 10
5.5399280414
 20
4.2563972284
 30
0.0
 10
5.5040891729
 20
4.2678577649
 30
0.0
 10
5.4703348076
 20
4.2808138906
 30
0.0
 10
5.4488674278
 20
4.2906225385
 30
0.0
 10
5.4385618081
 20
4.2957751533
 30
0.0
 11
6.1331158564
 21
4.2917085756
 31
0.0
 11
6.1007111875
 21
4.2776678675
 31
0.0
 11
6.0660610781
 21
4.2650601757
 31
0.0
 11
6.0294169966
 21
4.2539770441
 31
0.0
 11
5.9910464468
 21
4.2444994275
 31
0.0
 11
5.9512283628
 21
4.2366961999
 31
0.0
 11
5.9102523861
 21
4.2306241353
 31
0.0
 11
5.8684168638
 21
4.2263274478
 31
0.0
 11
5.8260262259
 21
4.2238373942
 31
0.0
 11
5.7833888412
 21
4.2231720834
 31
0.0
 11
5.7408149881
 21
4.2243363563
 31
0.0
 11
5.69861448
 21
4.2273217356
 31
0.0
 11
5.6570942962
 21
4.2321065038
 31
0.0
 11
5.6165565632
 21
4.2386558483
 31
0.0
 11
5.5772964226
 21
4.2469220763
 31
0.0
 11
5.5395994358
 21
4.2568450483
 31
0.0
 11
5.5037396352
 21
4.268352644
 31
0.0
 11
5.4699787552
 21
4.2813608351
 31
0.0
 11
5.4385618081
 21
4.2957751533
 31
0.0
  0
SPLINE
  5
2CD
100
AcDbEntity
  8
ASSI
100
AcDbSpline
 62
253
  6
CONTINUOUS
 70
0
 71
3
 72
22
 73
18
 74
16
 42
0.0000001
 43
0.0000001
 44
0.0000000001
 12
-0.000238189
 22
0.366577057
 32
0.0
 13
0.326468929
 23
0.166723825
 33
0.0
 40
0.0
 40
0.0
 40
0.0
 40
0.0
 40
0.0627686171
 40
0.1278905369
 40
0.1950351148
 40
0.2638167547
 40
0.3338081528
 40
0.4045525959
 40
0.4755756192
 40
0.5463962937
 40
0.6165383804
 40
0.6855415807
 40
0.7529731191
 40
0.8184399196
 40
0.8816016779
 40
0.9421851557
 40
1.0
 40
1.0
 40
1.0
 40
1.0
 10
5.4385631021
 20
4.2957745065
 30
0.0
 10
5.4385581185
 20
4.3034443515
 30
0.0
 10
5.4392253392
 20
4.3190781052
 30
0.0
 10
5.4421045889
 20
4.3427567621
 30
0.0
 10
5.4468502871
 20
4.3668821127
 30
0.0
 10
5.4534110016
 20
4.3911931645
 30
0.0
 10
5.4617159866
 20
4.4154295202
 30
0.0
 10
5.4716758002
 20
4.439330413
 30
0.0
 10
5.4831832164
 20
4.4626387285
 30
0.0
 10
5.4961143754
 20
4.4851035851
 30
0.0
 10
5.5103301679
 20
4.506483215
 30
0.0
 10
5.5256777886
 20
4.5265476013
 30
0.0
 10
5.5419926127
 20
4.5450810519
 30
0.0
 10
5.5590997739
 20
4.5618843201
 30
0.0
 10
5.5768175986
 20
4.5767773191
 30
0.0
 10
5.5949551546
 20
4.5895984567
 30
0.0
 10
5.6075055101
 20
4.5968488109
 30
0.0
 10
5.6137970935
 20
4.6000618483
 30
0.0
 11
5.4385631021
 21
4.2957745065
 31
0.0
 11
5.4395071313
 21
4.3187646725
 31
0.0
 11
5.4423582322
 21
4.3424660116
 31
0.0
 11
5.4470854821
 21
4.3666214605
 31
0.0
 11
5.4536376093
 21
4.3909690302
 31
0.0
 11
5.4619435498
 21
4.4152446483
 31
0.0
 11
5.4719132178
 21
4.4391850226
 31
0.0
 11
5.4834384827
 21
4.4625304969
 31
0.0
 11
5.4963943422
 21
4.4850278675
 31
0.0
 11
5.5106402776
 21
4.5064331289
 31
0.0
 11
5.5260217782
 21
4.5265141208
 31
0.0
 11
5.542372017
 21
4.5450530457
 31
0.0
 11
5.5595136601
 21
4.5618488313
 31
0.0
 11
5.5772607901
 21
4.5767193115
 31
0.0
 11
5.5954209225
 21
4.5895032016
 31
0.0
 11
5.6137970935
 21
4.6000618483
 31
0.0
  0
SPLINE
  5
2CE
100
AcDbEntity
  8
ASSI
100
AcDbSpline
 62
253
  6
CONTINUOUS
 70
0
 71
3
 72
22
 73
18
 74
16
 42
0.0000001
 43
0.0000001
 44
0.0000000001
 12
-0.0002381892
 22
0.366577057
 32
0.0
 13
0.3264689291
 23
0.1667238248
 33
0.0
 40
0.0
 40
0.0
 40
0.0
 40
0.0
 40
0.0627686184
 40
0.1278905402
 40
0.1950351199
 40
0.2638167614
 40
0.333808161
 40
0.4045526051
 40
0.4755756292
 40
0.5463963039
 40
0.6165383904
 40
0.68554159
 40
0.7529731272
 40
0.8184399262
 40
0.8816016825
 40
0.9421851581
 40
1.0
 40
1.0
 40
1.0
 40
1.0
 10
-9.365583916
 20
11.6978480155
 30
0.0
 10
-9.3655888996
 20
11.7055178607
 30
0.0
 10
-9.3649216788
 20
11.7211516148
 30
0.0
 10
-9.362042429
 20
11.7448302723
 30
0.0
 10
-9.3572967305
 20
11.7689556235
 30
0.0
 10
-9.3507360158
 20
11.7932666759
 30
0.0
 10
-9.3424310304
 20
11.817503032
 30
0.0
 10
-9.3324712165
 20
11.8414039251
 30
0.0
 10
-9.3209638
 20
11.8647122407
 30
0.0
 10
-9.3080326407
 20
11.8871770973
 30
0.0
 10
-9.2938168481
 20
11.908556727
 30
0.0
 10
-9.2784692273
 20
11.9286211129
 30
0.0
 10
-9.2621544033
 20
11.9471545631
 30
0.0
 10
-9.2450472424
 20
11.9639578307
 30
0.0
 10
-9.2273294182
 20
11.9788508291
 30
0.0
 10
-9.2091918627
 20
11.9916719662
 30
0.0
 10
-9.1966415077
 20
11.9989223201
 30
0.0
 10
-9.1903499246
 20
12.0021353573
 30
0.0
 11
-9.365583916
 21
11.6978480155
 31
0.0
 11
-9.3646398867
 21
11.720838182
 31
0.0
 11
-9.3617887857
 21
11.7445395218
 31
0.0
 11
-9.3570615356
 21
11.7686949713
 31
0.0
 11
-9.3505094081
 21
11.7930425416
 31
0.0
 11
-9.3422034673
 21
11.8173181601
 31
0.0
 11
-9.3322337989
 21
11.8412585347
 31
0.0
 11
-9.3207085336
 21
11.8646040092
 31
0.0
 11
-9.3077526739
 21
11.8871013797
 31
0.0
 11
-9.2935067384
 21
11.908506641
 31
0.0
 11
-9.2781252377
 21
11.9285876325
 31
0.0
 11
-9.2617749991
 21
11.9471265569
 31
0.0
 11
-9.2446333562
 21
11.963922342
 31
0.0
 11
-9.2268862266
 21
11.9787928215
 31
0.0
 11
-9.2087260948
 21
11.9915767111
 31
0.0
 11
-9.1903499246
 21
12.0021353573
 31
0.0
  0
SPLINE
  5
2CF
100
AcDbEntity
  8
CURVE
100
AcDbSpline
 62
253
  6
CONTINUOUS
 70
0
 71
3
 72
25
 73
21
 74
19
 42
0.0000001
 43
0.0000001
 44
0.0000000001
 12
6.1819117923
 22
-3.0909558962
 32
0.0
 13
-6.185702801
 23
3.0928514005
 33
0.0
 40
0.0
 40
0.0
 40
0.0
 40
0.0
 40
0.0666666667
 40
0.1333333333
 40
0.2
 40
0.2666666667
 40
0.3333333333
 40
0.4
 40
0.4333333333
 40
0.4666666667
 40
0.5
 40
0.5333333333
 40
0.5666666667
 40
0.6
 40
0.6666666667
 40
0.7333333333
 40
0.8
 40
0.8666666667
 40
0.9333333333
 40
1.0
 40
1.0
 40
1.0
 40
1.0
 10
-1.6691555944
 20
-4.772330538
 30
0.0
 10
-1.5317797768
 20
-4.8410184468
 30
0.0
 10
-1.2659028409
 20
-4.9421185087
 30
0.0
 10
-0.8856515318
 20
-4.9881786528
 30
0.0
 10
-0.5469045682
 20
-4.9218432336
 30
0.0
 10
-0.2645196794
 20
-4.7497099109
 30
0.0
 10
-0.0457805835
 20
-4.4751342226
 30
0.0
 10
0.0721012484
 20
-4.1749130653
 30
0.0
 10
0.1267932083
 20
-3.8952804526
 30
0.0
 10
0.1468281725
 20
-3.6692768991
 30
0.0
 10
0.1461575245
 20
-3.4314076028
 30
0.0
 10
0.1254338262
 20
-3.1828763422
 30
0.0
 10
0.0841137904
 20
-2.9243828975
 30
0.0
 10
0.0016961323
 20
-2.5721506422
 30
0.0
 10
-0.1486579165
 20
-2.1301411609
 30
0.0
 10
-0.4024918213
 20
-1.6067897411
 30
0.0
 10
-0.7136820671
 20
-1.1249329352
 30
0.0
 10
-1.0746066819
 20
-0.6972040401
 30
0.0
 10
-1.4682616531
 20
-0.3487407757
 30
0.0
 10
-1.7372563398
 20
-0.1806158875
 30
0.0
 10
-1.8747164021
 20
-0.1118858564
 30
0.0
 11
-1.6691555944
 21
-4.772330538
 31
0.0
 11
-1.2689968567
 21
-4.9245201839
 31
0.0
 11
-0.8925689227
 21
-4.9694460589
 31
0.0
 11
-0.5562982473
 21
-4.9042102497
 31
0.0
 11
-0.2751273115
 21
-4.7326361833
 31
0.0
 11
-0.0586607331
 21
-4.4608526058
 31
0.0
 11
0.0824731129
 21
-4.1017169382
 31
0.0
 11
0.123295874
 21
-3.8925672702
 31
0.0
 11
0.1433772371
 21
-3.6672992753
 31
0.0
 11
0.1428153494
 21
-3.4296306088
 31
0.0
 11
0.1220011032
 21
-3.1812159782
 31
0.0
 11
0.0806982557
 21
-2.9234361063
 31
0.0
 11
0.0191450818
 21
-2.6600940952
 31
0.0
 11
-0.1608927575
 21
-2.1313178205
 31
0.0
 11
-0.4120512115
 21
-1.6137055101
 31
0.0
 11
-0.7219711286
 21
-1.1339542537
 31
0.0
 11
-1.0800617413
 21
-0.7104149786
 31
0.0
 11
-1.4699011629
 21
-0.3647867644
 31
0.0
 11
-1.8747164021
 21
-0.1118858564
 31
0.0
  0
SPLINE
  5
2D0
100
AcDbEntity
  8
CURVE
100
AcDbSpline
 62
253
  6
CONTINUOUS
 70
0
 71
3
 72
137
 73
133
 74
131
 42
0.0000001
 43
0.0000001
 44
0.0000000001
 12
-0.0859551109
 22
1.5860430279
 32
0.0
 13
-0.0976038391
 23
2.7745903231
 33
0.0
 40
0.0
 40
0.0
 40
0.0
 40
0.0
 40
0.0625
 40
0.125
 40
0.15625
 40
0.1875
 40
0.21875
 40
0.25
 40
0.28125
 40
0.3125
 40
0.34375
 40
0.375
 40
0.390625
 40
0.40625
 40
0.421875
 40
0.4375
 40
0.4453125
 40
0.453125
 40
0.4609375
 40
0.46875
 40
0.4765625
 40
0.48046875
 40
0.484375
 40
0.48828125
 40
0.490234375
 40
0.4921875
 40
0.494140625
 40
0.49609375
 40
0.4970703125
 40
0.498046875
 40
0.4985351562
 40
0.4990234375
 40
0.4995117188
 40
0.4997558594
 40
0.4998779297
 40
0.5
 40
0.5001220703
 40
0.5002441406
 40
0.5004882812
 40
0.5009765625
 40
0.5014648438
 40
0.501953125
 40
0.5029296875
 40
0.50390625
 40
0.505859375
 40
0.5078125
 40
0.509765625
 40
0.51171875
 40
0.515625
 40
0.51953125
 40
0.5234375
 40
0.53125
 40
0.5390625
 40
0.546875
 40
0.5546875
 40
0.5625
 40
0.578125
 40
0.59375
 40
0.609375
 40
0.625
 40
0.6328125
 40
0.640625
 40
0.64453125
 40
0.6484375
 40
0.65234375
 40
0.65625
 40
0.66015625
 40
0.662109375
 40
0.6630859375
 40
0.6640625
 40
0.6650390625
 40
0.666015625
 40
0.6662597656
 40
0.6665039062
 40
0.6666259766
 40
0.6667480469
 40
0.6669921875
 40
0.6674804688
 40
0.66796875
 40
0.6689453125
 40
0.669921875
 40
0.671875
 40
0.673828125
 40
0.67578125
 40
0.6796875
 40
0.68359375
 40
0.6875
 40
0.6953125
 40
0.703125
 40
0.7109375
 40
0.71875
 40
0.734375
 40
0.75
 40
0.765625
 40
0.78125
 40
0.7890625
 40
0.796875
 40
0.8046875
 40
0.8125
 40
0.81640625
 40
0.8203125
 40
0.82421875
 40
0.826171875
 40
0.828125
 40
0.830078125
 40
0.8310546875
 40
0.83203125
 40
0.8325195312
 40
0.8330078125
 40
0.8332519531
 40
0.8334960938
 40
0.8337402344
 40
0.833984375
 40
0.8349609375
 40
0.8359375
 40
0.8369140625
 40
0.837890625
 40
0.83984375
 40
0.84375
 40
0.84765625
 40
0.8515625
 40
0.85546875
 40
0.859375
 40
0.8671875
 40
0.875
 40
0.890625
 40
0.90625
 40
0.921875
 40
0.9375
 40
0.953125
 40
0.96875
 40
1.0
 40
1.0
 40
1.0
 40
1.0
 10
-1.6092572748
 20
-3.5523884996
 30
0.0
 10
-1.6110480063
 20
-3.5193459365
 30
0.0
 10
-1.6146344388
 20
-3.4532636778
 30
0.0
 10
-1.6190926319
 20
-3.3706465173
 30
0.0
 10
-1.622711366
 20
-3.3045828967
 30
0.0
 10
-1.6252837863
 20
-3.2549534602
 30
0.0
 10
-1.6278162124
 20
-3.2053009478
 30
0.0
 10
-1.6303600328
 20
-3.1556550068
 30
0.0
 10
-1.6328982704
 20
-3.1060058563
 30
0.0
 10
-1.6354474447
 20
-3.0563629726
 30
0.0
 10
-1.6379584549
 20
-3.006698231
 30
0.0
 10
-1.6399271679
 20
-2.9652400477
 30
0.0
 10
-1.6415280549
 20
-2.9320883436
 30
0.0
 10
-1.6427252475
 20
-2.9072225769
 30
0.0
 10
-1.6439233722
 20
-2.8823573438
 30
0.0
 10
-1.6449215967
 20
-2.8616361945
 30
0.0
 10
-1.6457202208
 20
-2.8450593005
 30
0.0
 10
-1.6463191829
 20
-2.8326266266
 30
0.0
 10
-1.6469181467
 20
-2.8201939536
 30
0.0
 10
-1.6475171099
 20
-2.8077612804
 30
0.0
 10
-1.6480162461
 20
-2.7974007193
 30
0.0
 10
-1.648415555
 20
-2.7891122707
 30
0.0
 10
-1.6487150368
 20
-2.7828959337
 30
0.0
 10
-1.6489646048
 20
-2.7777156543
 30
0.0
 10
-1.6491642593
 20
-2.7735714277
 30
0.0
 10
-1.6493139999
 20
-2.7704632662
 30
0.0
 10
-1.6494637418
 20
-2.7673550725
 30
0.0
 10
-1.6495885227
 20
-2.7647650114
 30
0.0
 10
-1.6496883563
 20
-2.7626927377
 30
0.0
 10
-1.6497507322
 20
-2.7613980785
 30
0.0
 10
-1.6498006789
 20
-2.7603611789
 30
0.0
 10
-1.649838013
 20
-2.7595867139
 30
0.0
 10
-1.6498695253
 20
-2.7589311158
 30
0.0
 10
-1.6498907979
 20
-2.7584922351
 30
0.0
 10
-1.6499041809
 20
-2.7582101586
 30
0.0
 10
-1.649910761
 20
-2.7580867387
 30
0.0
 10
-1.649930556
 20
-2.7576264124
 30
0.0
 10
-1.6499523399
 20
-2.7571301607
 30
0.0
 10
-1.6499926092
 20
-2.7562069671
 30
0.0
 10
-1.650049014
 20
-2.7549167446
 30
0.0
 10
-1.6501171804
 20
-2.7533562249
 30
0.0
 10
-1.6502079011
 20
-2.7512798117
 30
0.0
 10
-1.6503213594
 20
-2.7486828298
 30
0.0
 10
-1.6505028606
 20
-2.7445284777
 30
0.0
 10
-1.6507297481
 20
-2.7393352566
 30
0.0
 10
-1.6510020083
 20
-2.7331035117
 30
0.0
 10
-1.6512742699
 20
-2.7268717346
 30
0.0
 10
-1.6516372848
 20
-2.7185627097
 30
0.0
 10
-1.6520910536
 20
-2.7081764247
 30
0.0
 10
-1.6526355761
 20
-2.6957128844
 30
0.0
 10
-1.6533616061
 20
-2.67909483
 30
0.0
 10
-1.6542691437
 20
-2.6583222623
 30
0.0
 10
-1.6553581887
 20
-2.6333951809
 30
0.0
 10
-1.6564472337
 20
-2.6084680996
 30
0.0
 10
-1.6575362788
 20
-2.5835410182
 30
0.0
 10
-1.6589883388
 20
-2.5503049098
 30
0.0
 10
-1.6608034139
 20
-2.5087597742
 30
0.0
 10
-1.662981504
 20
-2.4589056115
 30
0.0
 10
-1.6651595941
 20
-2.4090514488
 30
0.0
 10
-1.6669746691
 20
-2.3675063133
 30
0.0
 10
-1.6684267292
 20
-2.3342702047
 30
0.0
 10
-1.6693342667
 20
-2.3134976373
 30
0.0
 10
-1.6700602968
 20
-2.2968795822
 30
0.0
 10
-1.6706048191
 20
-2.2844160441
 30
0.0
 10
-1.6711493421
 20
-2.2719524938
 30
0.0
 10
-1.6716938629
 20
-2.2594889892
 30
0.0
 10
-1.6721476371
 20
-2.2491025931
 30
0.0
 10
-1.6724652656
 20
-2.2418323946
 30
0.0
 10
-1.6726467885
 20
-2.2376775603
 30
0.0
 10
-1.6727828717
 20
-2.2345626603
 30
0.0
 10
-1.6729191806
 20
-2.2314430749
 30
0.0
 10
-1.6730207794
 20
-2.2291165227
 30
0.0
 10
-1.6730894962
 20
-2.2275450574
 30
0.0
 10
-1.6731166635
 20
-2.226920682
 30
0.0
 10
-1.6731418141
 20
-2.2263502603
 30
0.0
 10
-1.6731544695
 20
-2.2260392025
 30
0.0
 10
-1.6731708109
 20
-2.2256153577
 30
0.0
 10
-1.6731971847
 20
-2.2249469909
 30
0.0
 10
-1.6732376901
 20
-2.2239127411
 30
0.0
 10
-1.6732889014
 20
-2.222607898
 30
0.0
 10
-1.6733705156
 20
-2.220526873
 30
0.0
 10
-1.6734726445
 20
-2.2179232847
 30
0.0
 10
-1.6735951516
 20
-2.2147999663
 30
0.0
 10
-1.673758511
 20
-2.2106351968
 30
0.0
 10
-1.6739627046
 20
-2.2054293533
 30
0.0
 10
-1.6742077393
 20
-2.1991822904
 30
0.0
 10
-1.6745344514
 20
-2.190852891
 30
0.0
 10
-1.6749428418
 20
-2.1804411356
 30
0.0
 10
-1.6754329101
 20
-2.1679470317
 30
0.0
 10
-1.6759229785
 20
-2.1554529271
 30
0.0
 10
-1.676576403
 20
-2.1387941212
 30
0.0
 10
-1.6773931836
 20
-2.1179706138
 30
0.0
 10
-1.6783733204
 20
-2.0929824049
 30
0.0
 10
-1.6793534572
 20
-2.0679941961
 30
0.0
 10
-1.6801702378
 20
-2.0471706887
 30
0.0
 10
-1.6808236623
 20
-2.0305118828
 30
0.0
 10
-1.6813137307
 20
-2.0180177781
 30
0.0
 10
-1.681803799
 20
-2.0055236748
 30
0.0
 10
-1.6822121895
 20
-1.9951119176
 30
0.0
 10
-1.6825389015
 20
-1.9867825217
 30
0.0
 10
-1.6827839363
 20
-1.9805354479
 30
0.0
 10
-1.6829881295
 20
-1.9753296388
 30
0.0
 10
-1.6831514897
 20
-1.971164799
 30
0.0
 10
-1.6832739943
 20
-1.9680416953
 30
0.0
 10
-1.6833761311
 20
-1.9654374352
 30
0.0
 10
-1.6834577291
 20
-1.963357781
 30
0.0
 10
-1.6835089815
 20
-1.9620494494
 30
0.0
 10
-1.6835494026
 20
-1.9610223601
 30
0.0
 10
-1.6835759911
 20
-1.9603357632
 30
0.0
 10
-1.6835942263
 20
-1.9598887903
 30
0.0
 10
-1.6836162143
 20
-1.9592734464
 30
0.0
 10
-1.6836405314
 20
-1.9585796092
 30
0.0
 10
-1.6836879675
 20
-1.957232312
 30
0.0
 10
-1.6837596248
 20
-1.9551944074
 30
0.0
 10
-1.6838548803
 20
-1.9524868941
 30
0.0
 10
-1.6839502127
 20
-1.9497767881
 30
0.0
 10
-1.6840772958
 20
-1.9461642178
 30
0.0
 10
-1.6842997037
 20
-1.9398417983
 30
0.0
 10
-1.6846174227
 20
-1.9308099908
 30
0.0
 10
-1.6849986882
 20
-1.9199717274
 30
0.0
 10
-1.6853799531
 20
-1.9091334893
 30
0.0
 10
-1.6857612181
 20
-1.8982952445
 30
0.0
 10
-1.6862695714
 20
-1.8838442537
 30
0.0
 10
-1.6869050131
 20
-1.8657805144
 30
0.0
 10
-1.6879217198
 20
-1.8368785319
 30
0.0
 10
-1.6891926031
 20
-1.8007510537
 30
0.0
 10
-1.6907176631
 20
-1.7573980799
 30
0.0
 10
-1.6922427231
 20
-1.7140451061
 30
0.0
 10
-1.693767783
 20
-1.6706921323
 30
0.0
 10
-1.695292843
 20
-1.6273391585
 30
0.0
 10
-1.6973262563
 20
-1.5695351935
 30
0.0
 10
-1.6988513163
 20
-1.5261822197
 30
0.0
 10
-1.699868023
 20
-1.4972802371
 30
0.0
 11
-1.6092572748
 21
-3.5523884996
 31
0.0
 11
-1.6146294693
 21
-3.4532608104
 31
0.0
 11
-1.6200016637
 21
-3.3541331211
 31
0.0
 11
-1.6226877609
 21
-3.3045692765
 31
0.0
 11
-1.6252771206
 21
-3.2549496142
 31
0.0
 11
-1.6278181114
 21
-3.205302043
 31
0.0
 11
-1.6303591023
 21
-3.1556544719
 31
0.0
 11
-1.6329000932
 21
-3.1060069008
 31
0.0
 11
-1.635441084
 21
-3.0563593296
 31
0.0
 11
-1.6379336958
 21
-3.0066840513
 31
0.0
 11
-1.6403295493
 21
-2.9569533586
 31
0.0
 11
-1.6415274761
 21
-2.9320880122
 31
0.0
 11
-1.6427254029
 21
-2.9072226658
 31
0.0
 11
-1.6439233296
 21
-2.8823573195
 31
0.0
 11
-1.6451212564
 21
-2.8574919731
 31
0.0
 11
-1.6457202198
 21
-2.8450592999
 31
0.0
 11
-1.6463191832
 21
-2.8326266267
 31
0.0
 11
-1.6469181466
 21
-2.8201939536
 31
0.0
 11
-1.64751711
 21
-2.8077612804
 31
0.0
 11
-1.6481160734
 21
-2.7953286072
 31
0.0
 11
-1.6484155551
 21
-2.7891122706
 31
0.0
 11
-1.6487150367
 21
-2.782895934
 31
0.0
 11
-1.6490145184
 21
-2.7766795974
 31
0.0
 11
-1.6491642593
 21
-2.7735714291
 31
0.0
 11
-1.6493140001
 21
-2.7704632608
 31
0.0
 11
-1.649463741
 21
-2.7673550925
 31
0.0
 11
-1.6496134818
 21
-2.7642469242
 31
0.0
 11
-1.6496883522
 21
-2.7626928401
 31
0.0
 11
-1.6497632227
 21
-2.7611387559
 31
0.0
 11
-1.6498006579
 21
-2.7603617139
 31
0.0
 11
-1.6498380931
 21
-2.7595846718
 31
0.0
 11
-1.6498755283
 21
-2.7588076297
 31
0.0
 11
-1.6498942459
 21
-2.7584191087
 31
0.0
 11
-1.6499036047
 21
-2.7582248482
 31
0.0
 11
-1.6499129635
 21
-2.7580305876
 31
0.0
 11
-1.6499299798
 21
-2.757641102
 31
0.0
 11
-1.6499469962
 21
-2.7572516164
 31
0.0
 11
-1.6499810288
 21
-2.7564726451
 31
0.0
 11
-1.6500490941
 21
-2.7549147025
 31
0.0
 11
-1.6501171595
 21
-2.7533567599
 31
0.0
 11
-1.6501852248
 21
-2.7517988173
 31
0.0
 11
-1.6503213554
 21
-2.7486829321
 31
0.0
 11
-1.650457486
 21
-2.745567047
 31
0.0
 11
-1.6507297473
 21
-2.7393352766
 31
0.0
 11
-1.6510020086
 21
-2.7331035063
 31
0.0
 11
-1.6512742698
 21
-2.726871736
 31
0.0
 11
-1.6515465311
 21
-2.7206399656
 31
0.0
 11
-1.6520910536
 21
-2.708176425
 31
0.0
 11
-1.6526355761
 21
-2.6957128843
 31
0.0
 11
-1.6531800986
 21
-2.6832493436
 31
0.0
 11
-1.6542691437
 21
-2.6583222623
 31
0.0
 11
-1.6553581887
 21
-2.6333951809
 31
0.0
 11
-1.6564472337
 21
-2.6084680996
 31
0.0
 11
-1.6575362788
 21
-2.5835410182
 31
0.0
 11
-1.6586253238
 21
-2.5586139369
 31
0.0
 11
-1.6608034139
 21
-2.5087597742
 31
0.0
 11
-1.662981504
 21
-2.4589056115
 31
0.0
 11
-1.6651595941
 21
-2.4090514488
 31
0.0
 11
-1.6673376841
 21
-2.3591972861
 31
0.0
 11
-1.6684267292
 21
-2.3342702048
 31
0.0
 11
-1.6695157742
 21
-2.3093431234
 31
0.0
 11
-1.6700602967
 21
-2.2968795827
 31
0.0
 11
-1.6706048192
 21
-2.2844160421
 31
0.0
 11
-1.6711493418
 21
-2.2719525014
 31
0.0
 11
-1.6716938643
 21
-2.2594889607
 31
0.0
 11
-1.6722383868
 21
-2.2470254201
 31
0.0
 11
-1.6725106481
 21
-2.2407936497
 31
0.0
 11
-1.6726467787
 21
-2.2376777645
 31
0.0
 11
-1.6727829093
 21
-2.2345618794
 31
0.0
 11
-1.67291904
 21
-2.2314459942
 31
0.0
 11
-1.6730551706
 21
-2.228330109
 31
0.0
 11
-1.6730892032
 21
-2.2275511378
 31
0.0
 11
-1.6731232359
 21
-2.2267721665
 31
0.0
 11
-1.6731402522
 21
-2.2263826808
 31
0.0
 11
-1.6731510292
 21
-2.2261227053
 31
0.0
 11
-1.6731663438
 21
-2.2257322646
 31
0.0
 11
-1.6731969731
 21
-2.2249513831
 31
0.0
 11
-1.6732276024
 21
-2.2241705015
 31
0.0
 11
-1.6732888609
 21
-2.2226087385
 31
0.0
 11
-1.6733501195
 21
-2.2210469754
 31
0.0
 11
-1.6734726366
 21
-2.2179234493
 31
0.0
 11
-1.6735951537
 21
-2.2147999232
 31
0.0
 11
-1.6737176708
 21
-2.2116763971
 31
0.0
 11
-1.673962705
 21
-2.2054293449
 31
0.0
 11
-1.6742077392
 21
-2.1991822927
 31
0.0
 11
-1.6744527734
 21
-2.1929352404
 31
0.0
 11
-1.6749428417
 21
-2.180441136
 31
0.0
 11
-1.6754329101
 21
-2.1679470316
 31
0.0
 11
-1.6759229785
 21
-2.1554529271
 31
0.0
 11
-1.6764130469
 21
-2.1429588227
 31
0.0
 11
-1.6773931836
 21
-2.1179706138
 31
0.0
 11
-1.6783733204
 21
-2.092982405
 31
0.0
 11
-1.6793534572
 21
-2.0679941961
 31
0.0
 11
-1.6803335939
 21
-2.0430059872
 31
0.0
 11
-1.6808236623
 21
-2.0305118828
 31
0.0
 11
-1.6813137307
 21
-2.0180177783
 31
0.0
 11
-1.6818037991
 21
-2.0055236739
 31
0.0
 11
-1.6822938675
 21
-1.9930295695
 31
0.0
 11
-1.6825389016
 21
-1.9867825172
 31
0.0
 11
-1.6827839358
 21
-1.980535465
 31
0.0
 11
-1.68302897
 21
-1.9742884128
 31
0.0
 11
-1.6831514871
 21
-1.9711648867
 31
0.0
 11
-1.6832740042
 21
-1.9680413606
 31
0.0
 11
-1.6833965213
 21
-1.9649178345
 31
0.0
 11
-1.6834577799
 21
-1.9633560714
 31
0.0
 11
-1.6835190384
 21
-1.9617943084
 31
0.0
 11
-1.6835496677
 21
-1.9610134268
 31
0.0
 11
-1.683580297
 21
-1.9602325453
 31
0.0
 11
-1.6835956116
 21
-1.9598421046
 31
0.0
 11
-1.6836166025
 21
-1.9592603642
 31
0.0
 11
-1.6836404316
 21
-1.9585829739
 31
0.0
 11
-1.6836642606
 21
-1.9579055837
 31
0.0
 11
-1.6837595769
 21
-1.9551960229
 31
0.0
 11
-1.6838548931
 21
-1.952486462
 31
0.0
 11
-1.6839502094
 21
-1.9497769011
 31
0.0
 11
-1.6840455256
 21
-1.9470673403
 31
0.0
 11
-1.6842361581
 21
-1.9416482186
 31
0.0
 11
-1.6846174231
 21
-1.9308099751
 31
0.0
 11
-1.6849986881
 21
-1.9199717317
 31
0.0
 11
-1.6853799531
 21
-1.9091334882
 31
0.0
 11
-1.6857612181
 21
-1.8982952448
 31
0.0
 11
-1.6861424831
 21
-1.8874570013
 31
0.0
 11
-1.6869050131
 21
-1.8657805144
 31
0.0
 11
-1.6876675431
 21
-1.8441040275
 31
0.0
 11
-1.6891926031
 21
-1.8007510537
 31
0.0
 11
-1.6907176631
 21
-1.7573980799
 31
0.0
 11
-1.6922427231
 21
-1.7140451061
 31
0.0
 11
-1.693767783
 21
-1.6706921323
 31
0.0
 11
-1.695292843
 21
-1.6273391585
 31
0.0
 11
-1.696817903
 21
-1.5839861847
 31
0.0
 11
-1.699868023
 21
-1.4972802371
 31
0.0
  0
SPLINE
  5
2D1
100
AcDbEntity
  8
CURVE
100
AcDbSpline
 62
253
  6
CONTINUOUS
 70
0
 71
3
 72
31
 73
27
 74
25
 42
0.0000001
 43
0.0000001
 44
0.0000000001
 12
0.0339881203
 22
-0.6101384883
 32
0.0
 13
-0.0366408064
 23
0.6577582417
 33
0.0
 40
0.0
 40
0.0
 40
0.0
 40
0.0
 40
0.0357142857
 40
0.0714285714
 40
0.1071428571
 40
0.1428571429
 40
0.1785714286
 40
0.2142857143
 40
0.2857142857
 40
0.3571428571
 40
0.4285714286
 40
0.5
 40
0.5357142857
 40
0.5714285714
 40
0.6071428571
 40
0.6428571429
 40
0.6785714286
 40
0.7142857143
 40
0.75
 40
0.7857142857
 40
0.8214285714
 40
0.8571428571
 40
0.8928571429
 40
0.9285714286
 40
0.9642857143
 40
1.0
 40
1.0
 40
1.0
 40
1.0
 10
-1.8920829105
 20
-3.4109756818
 30
0.0
 10
-1.89167829
 20
-3.4182392352
 30
0.0
 10
-1.890340623
 20
-3.432095374
 30
0.0
 10
-1.8866986038
 20
-3.4532424277
 30
0.0
 10
-1.8815494431
 20
-3.473815814
 30
0.0
 10
-1.8749198635
 20
-3.4938958079
 30
0.0
 10
-1.8669765435
 20
-3.5130965601
 30
0.0
 10
-1.8549174321
 20
-3.5374981031
 30
0.0
 10
-1.8371883123
 20
-3.5661695578
 30
0.0
 10
-1.8103371469
 20
-3.5986401734
 30
0.0
 10
-1.7805477898
 20
-3.6258862176
 30
0.0
 10
-1.7539664397
 20
-3.6438305161
 30
0.0
 10
-1.7323075416
 20
-3.6545445916
 30
0.0
 10
-1.7166883737
 20
-3.6603842273
 30
0.0
 10
-1.7016843216
 20
-3.6641918675
 30
0.0
 10
-1.687112697
 20
-3.6659997355
 30
0.0
 10
-1.6732294178
 20
-3.665680319
 30
0.0
 10
-1.6602338365
 20
-3.6631549369
 30
0.0
 10
-1.6480189124
 20
-3.6581734469
 30
0.0
 10
-1.636913785
 20
-3.6503624248
 30
0.0
 10
-1.6274029604
 20
-3.6398578434
 30
0.0
 10
-1.6197576145
 20
-3.6269948332
 30
0.0
 10
-1.6140933716
 20
-3.6118064613
 30
0.0
 10
-1.6103988822
 20
-3.5942538056
 30
0.0
 10
-1.608678148
 20
-3.5743214308
 30
0.0
 10
-1.6088210748
 20
-3.5602189549
 30
0.0
 10
-1.6092572748
 20
-3.5523884996
 30
0.0
 11
-1.8920829105
 21
-3.4109756818
 31
0.0
 11
-1.8900680366
 21
-3.4321558483
 31
0.0
 11
-1.8864474136
 21
-3.4531468164
 31
0.0
 11
-1.8813027066
 21
-3.4737335819
 31
0.0
 11
-1.8747009067
 21
-3.4937492676
 31
0.0
 11
-1.8667930412
 21
-3.5129466276
 31
0.0
 11
-1.8577551946
 21
-3.5312756858
 31
0.0
 11
-1.836258942
 21
-3.5658470361
 31
0.0
 11
-1.8098474483
 21
-3.5977694115
 31
0.0
 11
-1.7801964126
 21
-3.6249340699
 31
0.0
 11
-1.748518897
 21
-3.646205588
 31
0.0
 11
-1.7324117092
 21
-3.6541786048
 31
0.0
 11
-1.716790893
 21
-3.6600455614
 31
0.0
 11
-1.7017563928
 21
-3.6638585722
 31
0.0
 11
-1.6872274212
 21
-3.6656451881
 31
0.0
 11
-1.6733773674
 21
-3.6653126581
 31
0.0
 11
-1.660363946
 21
-3.6627455856
 31
0.0
 11
-1.6482038785
 21
-3.6577018582
 31
0.0
 11
-1.6371795021
 21
-3.6499134983
 31
0.0
 11
-1.6277138735
 21
-3.6394647719
 31
0.0
 11
-1.6200877983
 21
-3.6266072729
 31
0.0
 11
-1.6144216638
 21
-3.611412414
 31
0.0
 11
-1.6107278414
 21
-3.5938571857
 31
0.0
 11
-1.6090006687
 21
-3.5741178742
 31
0.0
 11
-1.6092572748
 21
-3.5523884996
 31
0.0
  0
SPLINE
  5
2D2
100
AcDbEntity
  8
CURVE
100
AcDbSpline
 62
253
  6
CONTINUOUS
 70
0
 71
3
 72
136
 73
132
 74
130
 42
0.0000001
 43
0.0000001
 44
0.0000000001
 12
0.0546823823
 22
-1.6037030259
 32
0.0
 13
0.1458607848
 23
-2.7473391811
 33
0.0
 40
0.0
 40
0.0
 40
0.0
 40
0.0
 40
0.0625
 40
0.125
 40
0.1875
 40
0.21875
 40
0.25
 40
0.28125
 40
0.3125
 40
0.34375
 40
0.375
 40
0.390625
 40
0.40625
 40
0.421875
 40
0.4375
 40
0.4453125
 40
0.453125
 40
0.4609375
 40
0.46875
 40
0.4765625
 40
0.48046875
 40
0.484375
 40
0.48828125
 40
0.490234375
 40
0.4921875
 40
0.494140625
 40
0.49609375
 40
0.4970703125
 40
0.498046875
 40
0.4985351562
 40
0.4990234375
 40
0.4995117188
 40
0.4997558594
 40
0.4998779297
 40
0.5
 40
0.5001220703
 40
0.5002441406
 40
0.5004882812
 40
0.5009765625
 40
0.5014648438
 40
0.501953125
 40
0.5029296875
 40
0.50390625
 40
0.505859375
 40
0.5078125
 40
0.509765625
 40
0.51171875
 40
0.515625
 40
0.51953125
 40
0.5234375
 40
0.53125
 40
0.5390625
 40
0.546875
 40
0.5546875
 40
0.5625
 40
0.578125
 40
0.59375
 40
0.609375
 40
0.625
 40
0.6328125
 40
0.640625
 40
0.64453125
 40
0.6484375
 40
0.65234375
 40
0.65625
 40
0.66015625
 40
0.662109375
 40
0.6630859375
 40
0.6640625
 40
0.6650390625
 40
0.666015625
 40
0.6662597656
 40
0.6665039062
 40
0.6666259766
 40
0.6667480469
 40
0.6669921875
 40
0.6674804688
 40
0.66796875
 40
0.6689453125
 40
0.669921875
 40
0.671875
 40
0.673828125
 40
0.67578125
 40
0.6796875
 40
0.68359375
 40
0.6875
 40
0.6953125
 40
0.703125
 40
0.7109375
 40
0.71875
 40
0.734375
 40
0.75
 40
0.765625
 40
0.78125
 40
0.7890625
 40
0.796875
 40
0.8046875
 40
0.8125
 40
0.81640625
 40
0.8203125
 40
0.82421875
 40
0.826171875
 40
0.828125
 40
0.830078125
 40
0.8310546875
 40
0.83203125
 40
0.8325195312
 40
0.8330078125
 40
0.8332519531
 40
0.8334960938
 40
0.8337402344
 40
0.833984375
 40
0.8349609375
 40
0.8359375
 40
0.8369140625
 40
0.837890625
 40
0.83984375
 40
0.84375
 40
0.84765625
 40
0.8515625
 40
0.85546875
 40
0.859375
 40
0.8671875
 40
0.875
 40
0.890625
 40
0.90625
 40
0.921875
 40
0.9375
 40
0.953125
 40
0.96875
 40
1.0
 40
1.0
 40
1.0
 40
1.0
 10
-1.9826936604
 20
-1.3558673642
 30
0.0
 10
-1.9815544441
 20
-1.3892778439
 30
0.0
 10
-1.9792735339
 20
-1.4560974346
 30
0.0
 10
-1.9758670342
 20
-1.5563350328
 30
0.0
 10
-1.9729849265
 20
-1.6398424128
 30
0.0
 10
-1.9704853471
 20
-1.7065412032
 30
0.0
 10
-1.9686373176
 20
-1.7565800242
 30
0.0
 10
-1.9667796145
 20
-1.8066134894
 30
0.0
 10
-1.9649339509
 20
-1.8566536492
 30
0.0
 10
-1.9630498029
 20
-1.9066723864
 30
0.0
 10
-1.9613558659
 20
-1.9482857381
 30
0.0
 10
-1.9600266368
 20
-1.9815908499
 30
0.0
 10
-1.9590262418
 20
-2.0065677502
 30
0.0
 10
-1.958026779
 20
-2.0315451694
 30
0.0
 10
-1.9571936805
 20
-2.0523595669
 30
0.0
 10
-1.9565272463
 20
-2.0690111097
 30
0.0
 10
-1.9560274147
 20
-2.0814997636
 30
0.0
 10
-1.9555275846
 20
-2.0939884183
 30
0.0
 10
-1.9550277542
 20
-2.1064770727
 30
0.0
 10
-1.9546112289
 20
-2.1168842849
 30
0.0
 10
-1.9542780087
 20
-2.1252100544
 30
0.0
 10
-1.9540280934
 20
-2.131454382
 30
0.0
 10
-1.9538198308
 20
-2.136657987
 30
0.0
 10
-1.9536532206
 20
-2.140820874
 30
0.0
 10
-1.9535282634
 20
-2.1439430309
 30
0.0
 10
-1.9534033045
 20
-2.1470652198
 30
0.0
 10
-1.9532991771
 20
-2.1496669441
 30
0.0
 10
-1.9532158641
 20
-2.1517485471
 30
0.0
 10
-1.9531638185
 20
-2.1530490399
 30
0.0
 10
-1.9531221249
 20
-2.1540906001
 30
0.0
 10
-1.953091011
 20
-2.1548685778
 30
0.0
 10
-1.9530645853
 20
-2.1555270483
 30
0.0
 10
-1.9530470636
 20
-2.1559680472
 30
0.0
 10
-1.9530355269
 20
-2.1562511664
 30
0.0
 10
-1.9530311684
 20
-2.1563758408
 30
0.0
 10
-1.9530103957
 20
-2.156835615
 30
0.0
 10
-1.9529884243
 20
-2.1573317607
 30
0.0
 10
-1.9529473066
 20
-2.1582544753
 30
0.0
 10
-1.9528899617
 20
-2.159544167
 30
0.0
 10
-1.9528205509
 20
-2.1611039839
 30
0.0
 10
-1.9527282117
 20
-2.1631794831
 30
0.0
 10
-1.9526127163
 20
-2.1657753147
 30
0.0
 10
-1.9524279635
 20
-2.1699278305
 30
0.0
 10
-1.9521970089
 20
-2.1751187549
 30
0.0
 10
-1.9519198691
 20
-2.1813477443
 30
0.0
 10
-1.9516427278
 20
-2.1875767658
 30
0.0
 10
-1.9512732067
 20
-2.1958821165
 30
0.0
 10
-1.950811305
 20
-2.2062638088
 30
0.0
 10
-1.9502570231
 20
-2.2187218379
 30
0.0
 10
-1.9495179805
 20
-2.235332544
 30
0.0
 10
-1.9485941773
 20
-2.2560959263
 30
0.0
 10
-1.9474856134
 20
-2.2810119852
 30
0.0
 10
-1.9463770496
 20
-2.3059280441
 30
0.0
 10
-1.9452684857
 20
-2.330844103
 30
0.0
 10
-1.9437904006
 20
-2.3640655148
 30
0.0
 10
-1.9419427942
 20
-2.4055922797
 30
0.0
 10
-1.9397256665
 20
-2.4554243974
 30
0.0
 10
-1.9375085387
 20
-2.5052565152
 30
0.0
 10
-1.9356609323
 20
-2.54678328
 30
0.0
 10
-1.9341828472
 20
-2.580004692
 30
0.0
 10
-1.933259044
 20
-2.600768074
 30
0.0
 10
-1.9325200014
 20
-2.6173787808
 30
0.0
 10
-1.9319657196
 20
-2.6298368076
 30
0.0
 10
-1.9314114372
 20
-2.6422948468
 30
0.0
 10
-1.9308571568
 20
-2.65475284
 30
0.0
 10
-1.9303952506
 20
-2.6651346439
 30
0.0
 10
-1.9300719276
 20
-2.6724016266
 30
0.0
 10
-1.929887154
 20
-2.6765546253
 30
0.0
 10
-1.9297486232
 20
-2.679668143
 30
0.0
 10
-1.9296099039
 20
-2.6827863673
 30
0.0
 10
-1.9295063926
 20
-2.6851118394
 30
0.0
 10
-1.9294365637
 20
-2.6866826768
 30
0.0
 10
-1.9294086906
 20
-2.6873066536
 30
0.0
 10
-1.9293835408
 20
-2.6878770757
 30
0.0
 10
-1.9293688183
 20
-2.6881869663
 30
0.0
 10
-1.9293478986
 20
-2.6886082256
 30
0.0
 10
-1.9293154856
 20
-2.689273182
 30
0.0
 10
-1.9292650373
 20
-2.6903018169
 30
0.0
 10
-1.9292014934
 20
-2.6915996958
 30
0.0
 10
-1.9291000933
 20
-2.6936695475
 30
0.0
 10
-1.9289732505
 20
-2.6962591796
 30
0.0
 10
-1.9288210789
 20
-2.6993657462
 30
0.0
 10
-1.9286181695
 20
-2.7035081814
 30
0.0
 10
-1.9283645375
 20
-2.7086861066
 30
0.0
 10
-1.9280601771
 20
-2.7148996677
 30
0.0
 10
-1.9276543639
 20
-2.723184398
 30
0.0
 10
-1.9271470972
 20
-2.7335403171
 30
0.0
 10
-1.9265383773
 20
-2.7459674173
 30
0.0
 10
-1.9259296573
 20
-2.7583945182
 30
0.0
 10
-1.9251180306
 20
-2.7749639859
 30
0.0
 10
-1.9241034973
 20
-2.7956758206
 30
0.0
 10
-1.9228860574
 20
-2.8205300221
 30
0.0
 10
-1.9216686174
 20
-2.8453842237
 30
0.0
 10
-1.9206540841
 20
-2.8660960584
 30
0.0
 10
-1.9198424575
 20
-2.882665526
 30
0.0
 10
-1.9192337375
 20
-2.8950926271
 30
0.0
 10
-1.9186250176
 20
-2.9075197268
 30
0.0
 10
-1.9181177508
 20
-2.9178756475
 30
0.0
 10
-1.9177119378
 20
-2.9261603744
 30
0.0
 10
-1.9174075766
 20
-2.9323739461
 30
0.0
 10
-1.9171539472
 20
-2.937551838
 30
0.0
 10
-1.9169510325
 20
-2.9416943411
 30
0.0
 10
-1.916798877
 20
-2.9448007006
 30
0.0
 10
-1.9166719839
 20
-2.9473909806
 30
0.0
 10
-1.9165706865
 20
-2.9494595104
 30
0.0
 10
-1.9165068814
 20
-2.9507607534
 30
0.0
 10
-1.916456969
 20
-2.9517824829
 30
0.0
 10
-1.9164231917
 20
-2.9524650202
 30
0.0
 10
-1.916402084
 20
-2.952910371
 30
0.0
 10
-1.9163700602
 20
-2.9535200476
 30
0.0
 10
-1.9163334989
 20
-2.9542069703
 30
0.0
 10
-1.9162627104
 20
-2.9555410802
 30
0.0
 10
-1.9161555473
 20
-2.9575589344
 30
0.0
 10
-1.9160132235
 20
-2.9602398677
 30
0.0
 10
-1.9158707498
 20
-2.9629233526
 30
0.0
 10
-1.9156808372
 20
-2.9665004425
 30
0.0
 10
-1.9153484657
 20
-2.9727607645
 30
0.0
 10
-1.914873662
 20
-2.9817038648
 30
0.0
 10
-1.9143038922
 20
-2.9924356782
 30
0.0
 10
-1.9137341238
 20
-3.0031674666
 30
0.0
 10
-1.913164355
 20
-3.0138992616
 30
0.0
 10
-1.9124046635
 20
-3.0282083194
 30
0.0
 10
-1.911455049
 20
-3.0460946424
 30
0.0
 10
-1.9099356658
 20
-3.0747127588
 30
0.0
 10
-1.9080364368
 20
-3.1104854044
 30
0.0
 10
-1.9057573621
 20
-3.1534125791
 30
0.0
 10
-1.9034782873
 20
-3.1963397538
 30
0.0
 10
-1.9011992126
 20
-3.2392669285
 30
0.0
 10
-1.8989201378
 20
-3.2821941033
 30
0.0
 10
-1.8958813714
 20
-3.3394303362
 30
0.0
 10
-1.8936022967
 20
-3.3823575109
 30
0.0
 10
-1.8920829135
 20
-3.4109756274
 30
0.0
 11
-1.9826936604
 21
-1.3558673642
 31
0.0
 11
-1.9792760115
 21
-1.4560988033
 31
0.0
 11
-1.9758583626
 21
-1.5563302424
 31
0.0
 11
-1.9723438739
 21
-1.6565081843
 31
0.0
 11
-1.9704897896
 21
-1.7065436579
 31
0.0
 11
-1.9686357053
 21
-1.7565791315
 31
0.0
 11
-1.9667816211
 21
-1.8066146052
 31
0.0
 11
-1.9649275368
 21
-1.8566500788
 31
0.0
 11
-1.9630250401
 21
-1.9066586006
 31
0.0
 11
-1.9610257187
 21
-1.9566132186
 31
0.0
 11
-1.9600260579
 21
-1.9815905276
 31
0.0
 11
-1.9590263972
 21
-2.0065678366
 31
0.0
 11
-1.9580267364
 21
-2.0315451457
 31
0.0
 11
-1.9570270757
 21
-2.0565224547
 31
0.0
 11
-1.9565272453
 21
-2.0690111092
 31
0.0
 11
-1.9560274149
 21
-2.0814997637
 31
0.0
 11
-1.9555275846
 21
-2.0939884182
 31
0.0
 11
-1.9550277542
 21
-2.1064770727
 31
0.0
 11
-1.9545279238
 21
-2.1189657272
 31
0.0
 11
-1.9542780086
 21
-2.1252100545
 31
0.0
 11
-1.9540280935
 21
-2.1314543817
 31
0.0
 11
-1.9537781783
 21
-2.137698709
 31
0.0
 11
-1.9536532207
 21
-2.1408208726
 31
0.0
 11
-1.9535282631
 21
-2.1439430363
 31
0.0
 11
-1.9534033055
 21
-2.1470651999
 31
0.0
 11
-1.9532783479
 21
-2.1501873635
 31
0.0
 11
-1.9532158691
 21
-2.1517484453
 31
0.0
 11
-1.9531533903
 21
-2.1533095271
 31
0.0
 11
-1.9531221509
 21
-2.154090068
 31
0.0
 11
-1.9530909115
 21
-2.1548706089
 31
0.0
 11
-1.9530596721
 21
-2.1556511499
 31
0.0
 11
-1.9530440524
 21
-2.1560414203
 31
0.0
 11
-1.9530362426
 21
-2.1562365555
 31
0.0
 11
-1.9530284327
 21
-2.1564316908
 31
0.0
 11
-1.9530111114
 21
-2.1568210042
 31
0.0
 11
-1.9529937901
 21
-2.1572103176
 31
0.0
 11
-1.9529591475
 21
-2.1579889444
 31
0.0
 11
-1.9528898622
 21
-2.1595461981
 31
0.0
 11
-1.952820577
 21
-2.1611034518
 31
0.0
 11
-1.9527512918
 21
-2.1626607055
 31
0.0
 11
-1.9526127213
 21
-2.1657752128
 31
0.0
 11
-1.9524741508
 21
-2.1688897202
 31
0.0
 11
-1.9521970098
 21
-2.1751187349
 31
0.0
 11
-1.9519198689
 21
-2.1813477496
 31
0.0
 11
-1.9516427279
 21
-2.1875767644
 31
0.0
 11
-1.9513655869
 21
-2.1938057791
 31
0.0
 11
-1.950811305
 21
-2.2062638085
 31
0.0
 11
-1.9502570231
 21
-2.218721838
 31
0.0
 11
-1.9497027412
 21
-2.2311798674
 31
0.0
 11
-1.9485941773
 21
-2.2560959263
 31
0.0
 11
-1.9474856134
 21
-2.2810119852
 31
0.0
 11
-1.9463770496
 21
-2.3059280441
 31
0.0
 11
-1.9452684857
 21
-2.330844103
 31
0.0
 11
-1.9441599219
 21
-2.3557601619
 31
0.0
 11
-1.9419427942
 21
-2.4055922797
 31
0.0
 11
-1.9397256665
 21
-2.4554243974
 31
0.0
 11
-1.9375085387
 21
-2.5052565152
 31
0.0
 11
-1.935291411
 21
-2.555088633
 31
0.0
 11
-1.9341828472
 21
-2.5800046919
 31
0.0
 11
-1.9330742833
 21
-2.6049207508
 31
0.0
 11
-1.9325200014
 21
-2.6173787802
 31
0.0
 11
-1.9319657195
 21
-2.6298368097
 31
0.0
 11
-1.9314114375
 21
-2.6422948391
 31
0.0
 11
-1.9308571556
 21
-2.6547528686
 31
0.0
 11
-1.9303028737
 21
-2.667210898
 31
0.0
 11
-1.9300257327
 21
-2.6734399127
 31
0.0
 11
-1.9298871622
 21
-2.6765544201
 31
0.0
 11
-1.9297485918
 21
-2.6796689275
 31
0.0
 11
-1.9296100213
 21
-2.6827834348
 31
0.0
 11
-1.9294714508
 21
-2.6858979422
 31
0.0
 11
-1.9294368082
 21
-2.686676569
 31
0.0
 11
-1.9294021656
 21
-2.6874551959
 31
0.0
 11
-1.9293848442
 21
-2.6878445093
 31
0.0
 11
-1.9293727296
 21
-2.6881037294
 31
0.0
 11
-1.9293537071
 21
-2.6884920763
 31
0.0
 11
-1.9293156621
 21
-2.6892687701
 31
0.0
 11
-1.9292776171
 21
-2.6900454639
 31
0.0
 11
-1.9292015272
 21
-2.6915988515
 31
0.0
 11
-1.9291254372
 21
-2.6931522391
 31
0.0
 11
-1.9289732572
 21
-2.6962590143
 31
0.0
 11
-1.9288210772
 21
-2.6993657895
 31
0.0
 11
-1.9286688972
 21
-2.7024725647
 31
0.0
 11
-1.9283645372
 21
-2.7086861151
 31
0.0
 11
-1.9280601772
 21
-2.7148996655
 31
0.0
 11
-1.9277558172
 21
-2.7211132158
 31
0.0
 11
-1.9271470972
 21
-2.7335403166
 31
0.0
 11
-1.9265383773
 21
-2.7459674174
 31
0.0
 11
-1.9259296573
 21
-2.7583945182
 31
0.0
 11
-1.9253209373
 21
-2.770821619
 31
0.0
 11
-1.9241034973
 21
-2.7956758206
 31
0.0
 11
-1.9228860574
 21
-2.8205300221
 31
0.0
 11
-1.9216686174
 21
-2.8453842237
 31
0.0
 11
-1.9204511775
 21
-2.8702384253
 31
0.0
 11
-1.9198424575
 21
-2.8826655261
 31
0.0
 11
-1.9192337375
 21
-2.8950926269
 31
0.0
 11
-1.9186250176
 21
-2.9075197276
 31
0.0
 11
-1.9180162976
 21
-2.9199468284
 31
0.0
 11
-1.9177119376
 21
-2.9261603788
 31
0.0
 11
-1.9174075776
 21
-2.9323739292
 31
0.0
 11
-1.9171032176
 21
-2.9385874796
 31
0.0
 11
-1.9169510376
 21
-2.9416942548
 31
0.0
 11
-1.9167988576
 21
-2.94480103
 31
0.0
 11
-1.9166466776
 21
-2.9479078052
 31
0.0
 11
-1.9165705876
 21
-2.9494611928
 31
0.0
 11
-1.9164944976
 21
-2.9510145804
 31
0.0
 11
-1.9164564526
 21
-2.9517912742
 31
0.0
 11
-1.9164184076
 21
-2.952567968
 31
0.0
 11
-1.9163993851
 21
-2.9529563149
 31
0.0
 11
-1.9163693039
 21
-2.9535329219
 31
0.0
 11
-1.9163336934
 21
-2.954203659
 31
0.0
 11
-1.9162980829
 21
-2.9548743961
 31
0.0
 11
-1.9161556407
 21
-2.9575573446
 31
0.0
 11
-1.9160131985
 21
-2.960240293
 31
0.0
 11
-1.9158707563
 21
-2.9629232414
 31
0.0
 11
-1.9157283142
 21
-2.9656061898
 31
0.0
 11
-1.9154434298
 21
-2.9709720866
 31
0.0
 11
-1.9148736611
 21
-2.9817038803
 31
0.0
 11
-1.9143038924
 21
-2.992435674
 31
0.0
 11
-1.9137341237
 21
-3.0031674677
 31
0.0
 11
-1.9131643551
 21
-3.0138992614
 31
0.0
 11
-1.9125945864
 21
-3.024631055
 31
0.0
 11
-1.911455049
 21
-3.0460946424
 31
0.0
 11
-1.9103155116
 21
-3.0675582297
 31
0.0
 11
-1.9080364368
 21
-3.1104854044
 31
0.0
 11
-1.9057573621
 21
-3.1534125791
 31
0.0
 11
-1.9034782873
 21
-3.1963397538
 31
0.0
 11
-1.9011992126
 21
-3.2392669285
 31
0.0
 11
-1.8989201378
 21
-3.2821941033
 31
0.0
 11
-1.896641063
 21
-3.325121278
 31
0.0
 11
-1.8920829135
 21
-3.4109756274
 31
0.0
  0
SPLINE
  5
2D3
100
AcDbEntity
  8
CURVE
100
AcDbSpline
 62
253
  6
CONTINUOUS
 70
0
 71
3
 72
33
 73
29
 74
27
 42
0.0000001
 43
0.0000001
 44
0.0000000001
 12
-0.0201371087
 22
0.6172823015
 32
0.0
 13
0.0216846351
 23
-0.6647201266
 33
0.0
 40
0.0
 40
0.0
 40
0.0
 40
0.0
 40
0.0357142857
 40
0.0714285714
 40
0.1071428571
 40
0.1428571429
 40
0.1785714286
 40
0.2142857143
 40
0.25
 40
0.2857142857
 40
0.3214285714
 40
0.3571428571
 40
0.4285714286
 40
0.5
 40
0.5357142857
 40
0.5714285714
 40
0.6071428571
 40
0.6428571429
 40
0.6785714286
 40
0.7142857143
 40
0.75
 40
0.7857142857
 40
0.8214285714
 40
0.8571428571
 40
0.8928571429
 40
0.9285714286
 40
0.9642857143
 40
1.0
 40
1.0
 40
1.0
 40
1.0
 10
-1.6998680248
 20
-1.497280182
 30
0.0
 10
-1.7001077523
 20
-1.4899315832
 30
0.0
 10
-1.7011344125
 20
-1.4759159308
 30
0.0
 10
-1.7043126949
 20
-1.4545297173
 30
0.0
 10
-1.7090226634
 20
-1.4337311624
 30
0.0
 10
-1.7152356614
 20
-1.4134401503
 30
0.0
 10
-1.7227960484
 20
-1.3940484791
 30
0.0
 10
-1.7314733597
 20
-1.3755864142
 30
0.0
 10
-1.7412878476
 20
-1.3578363145
 30
0.0
 10
-1.7523016668
 20
-1.3407447754
 30
0.0
 10
-1.7646899499
 20
-1.3241875158
 30
0.0
 10
-1.7828725082
 20
-1.3031778122
 30
0.0
 10
-1.8073727332
 20
-1.280366825
 30
0.0
 10
-1.8338538384
 20
-1.2623412366
 30
0.0
 10
-1.8555244256
 20
-1.2516285827
 30
0.0
 10
-1.8712027243
 20
-1.2458171198
 30
0.0
 10
-1.8863086113
 20
-1.2420633884
 30
0.0
 10
-1.9010284254
 20
-1.2403340777
 30
0.0
 10
-1.9151059159
 20
-1.2407560868
 30
0.0
 10
-1.9283408975
 20
-1.2434071336
 30
0.0
 10
-1.9408479527
 20
-1.2485414035
 30
0.0
 10
-1.9523012777
 20
-1.2565345099
 30
0.0
 10
-1.9622035805
 20
-1.2672432542
 30
0.0
 10
-1.9702689423
 20
-1.2803234127
 30
0.0
 10
-1.9763785282
 20
-1.2957381066
 30
0.0
 10
-1.9805452001
 20
-1.3135250102
 30
0.0
 10
-1.9827638158
 20
-1.3336982389
 30
0.0
 10
-1.9829518108
 20
-1.3479540294
 30
0.0
 10
-1.9826936604
 20
-1.3558673642
 30
0.0
 11
-1.6998680248
 21
-1.497280182
 31
0.0
 11
-1.7014074612
 21
-1.475855475
 31
0.0
 11
-1.7045679759
 21
-1.4546276604
 31
0.0
 11
-1.7092731683
 21
-1.4338157529
 31
0.0
 11
-1.7154602262
 21
-1.4135900404
 31
0.0
 11
-1.7229822025
 21
-1.3942034135
 31
0.0
 11
-1.7316628892
 21
-1.375705075
 31
0.0
 11
-1.7414877361
 21
-1.3579460746
 31
0.0
 11
-1.7525307441
 21
-1.340833822
 31
0.0
 11
-1.7648980558
 21
-1.3243208461
 31
0.0
 11
-1.7784450038
 21
-1.3086603143
 31
0.0
 11
-1.8077689092
 21
-1.2813239048
 31
0.0
 11
-1.8393119604
 21
-1.2599720579
 31
0.0
 11
-1.855428652
 21
-1.2519990873
 31
0.0
 11
-1.8711073223
 21
-1.246160075
 31
0.0
 11
-1.8862442659
 21
-1.2424007919
 31
0.0
 11
-1.9009213715
 21
-1.240692631
 31
0.0
 11
-1.9149654977
 21
-1.2411275931
 31
0.0
 11
-1.9282195764
 21
-1.2438210041
 31
0.0
 11
-1.940672331
 21
-1.2490178763
 31
0.0
 11
-1.952042774
 21
-1.2569871162
 31
0.0
 11
-1.9618974237
 21
-1.2676384899
 31
0.0
 11
-1.9699429797
 21
-1.2807125019
 31
0.0
 11
-1.9760547092
 21
-1.2961334749
 31
0.0
 11
-1.9802205241
 21
-1.3139227311
 31
0.0
 11
-1.9824410453
 21
-1.3338999817
 31
0.0
 11
-1.9826936604
 21
-1.3558673642
 31
0.0
  0
SPLINE
  5
2D4
100
AcDbEntity
  8
CURVE
100
AcDbSpline
 62
253
  6
CONTINUOUS
 70
0
 71
3
 72
10
 73
6
 74
4
 42
0.0000001
 43
0.0000001
 44
0.0000000001
 12
-0.0169103394
 22
-0.7058698946
 32
0.0
 13
-0.2343097795
 23
-0.5249986822
 33
0.0
 40
0.0
 40
0.0
 40
0.0
 40
0.0
 40
0.3396226415
 40
0.9056603774
 40
1.0
 40
1.0
 40
1.0
 40
1.0
 10
-0.1382197936
 20
-3.4520854635
 30
0.0
 10
-0.1401341716
 20
-3.5319952629
 30
0.0
 10
-0.1565115626
 20
-3.7365360026
 30
0.0
 10
-0.2078699222
 20
-3.9394477974
 30
0.0
 10
-0.2572837156
 20
-4.0573697517
 30
0.0
 10
-0.2646519477
 20
-4.0738791443
 30
0.0
 11
-0.1382197936
 21
-3.4520854635
 31
0.0
 11
-0.1566550674
 21
-3.682479816
 31
0.0
 11
-0.2434817725
 21
-4.023349675
 31
0.0
 11
-0.2646519477
 21
-4.0738791443
 31
0.0
  0
SPLINE
  5
2D5
100
AcDbEntity
  8
CURVE
100
AcDbSpline
 62
253
  6
CONTINUOUS
 70
0
 71
3
 72
23
 73
19
 74
17
 42
0.0000001
 43
0.0000001
 44
0.0000000001
 12
-1.8192814476
 22
-3.6087109133
 32
0.0
 13
-0.2360060043
 23
5.3483794997
 33
0.0
 40
0.0
 40
0.0
 40
0.0
 40
0.0
 40
0.0526315789
 40
0.1315789474
 40
0.2105263158
 40
0.2894736842
 40
0.3289473684
 40
0.3684210526
 40
0.4078947368
 40
0.4473684211
 40
0.4868421053
 40
0.5263157895
 40
0.6052631579
 40
0.6842105263
 40
0.7631578947
 40
0.8421052632
 40
0.9210526316
 40
1.0
 40
1.0
 40
1.0
 40
1.0
 10
-0.2876768351
 20
-4.1223890078
 30
0.0
 10
-0.3195940535
 20
-4.1856997256
 30
0.0
 10
-0.4114652526
 20
-4.3301720354
 30
0.0
 10
-0.6021862619
 20
-4.5006626549
 30
0.0
 10
-0.8711199916
 20
-4.6047873727
 30
0.0
 10
-1.1268293331
 20
-4.6126805268
 30
0.0
 10
-1.3476112052
 20
-4.5717534163
 30
0.0
 10
-1.5184249271
 20
-4.5174790537
 30
0.0
 10
-1.691361138
 20
-4.4412340113
 30
0.0
 10
-1.8657093534
 20
-4.3439711662
 30
0.0
 10
-2.0408453578
 20
-4.225403054
 30
0.0
 10
-2.2711809167
 20
-4.0409285416
 30
0.0
 10
-2.5451647821
 20
-3.7684345307
 30
0.0
 10
-2.8452166148
 20
-3.3799296695
 30
0.0
 10
-3.0965360677
 20
-2.9553903068
 30
0.0
 10
-3.2925810252
 20
-2.505647207
 30
0.0
 10
-3.4206652103
 20
-2.0533664775
 30
0.0
 10
-3.4573148114
 20
-1.7669962139
 30
0.0
 10
-3.4635254957
 20
-1.626249385
 30
0.0
 11
-0.2876768351
 21
-4.1223890078
 31
0.0
 11
-0.3974637218
 21
-4.2952110658
 31
0.0
 11
-0.6112483609
 21
-4.4860497834
 31
0.0
 11
-0.8774395716
 21
-4.5890118839
 31
0.0
 11
-1.183376001
 21
-4.5985119464
 31
0.0
 11
-1.3484824248
 21
-4.567823578
 31
0.0
 11
-1.5187786752
 21
-4.5138172737
 31
0.0
 11
-1.6915964721
 21
-4.4377310442
 31
0.0
 11
-1.8658406516
 21
-4.3404202883
 31
0.0
 11
-2.0404479686
 21
-4.2221050919
 31
0.0
 11
-2.2126679881
 21
-4.0842537783
 31
0.0
 11
-2.5403766478
 21
-3.7581825227
 31
0.0
 11
-2.8370945515
 21
-3.3739239193
 31
0.0
 11
-3.0873236518
 21
-2.951189684
 31
0.0
 11
-3.2812542298
 21
-2.5052242687
 31
0.0
 11
-3.4084802464
 21
-2.0571540332
 31
0.0
 11
-3.4635254957
 21
-1.626249385
 31
0.0
  0
SPLINE
  5
2D6
100
AcDbEntity
  8
CURVE
100
AcDbSpline
 62
253
  6
CONTINUOUS
 70
0
 71
3
 72
25
 73
21
 74
19
 42
0.0000001
 43
0.0000001
 44
0.0000000001
 12
-0.2788135741
 22
6.31848672
 32
0.0
 13
0.278946772
 23
-6.3272757925
 33
0.0
 40
0.0
 40
0.0
 40
0.0
 40
0.0
 40
0.0666666667
 40
0.1333333333
 40
0.2
 40
0.2666666667
 40
0.3333333333
 40
0.4
 40
0.4333333333
 40
0.4666666667
 40
0.5
 40
0.5333333333
 40
0.5666666667
 40
0.6
 40
0.6666666667
 40
0.7333333333
 40
0.8
 40
0.8666666667
 40
0.9333333333
 40
1.0
 40
1.0
 40
1.0
 40
1.0
 10
-3.4635254957
 20
-1.626249385
 30
0.0
 10
-3.4697213529
 20
-1.485838569
 30
0.0
 10
-3.4574310589
 20
-1.2231324193
 30
0.0
 10
-3.3647882214
 20
-0.8756864364
 30
0.0
 10
-3.2010582627
 20
-0.5977532343
 30
0.0
 10
-2.9770804484
 20
-0.4012881292
 30
0.0
 10
-2.6990702483
 20
-0.2928015484
 30
0.0
 10
-2.4375860955
 20
-0.2821487501
 30
0.0
 10
-2.2137964953
 20
-0.3215932056
 30
0.0
 10
-2.0416492739
 20
-0.3751736347
 30
0.0
 10
-1.8683349731
 20
-0.4511661064
 30
0.0
 10
-1.6945433542
 20
-0.5486152908
 30
0.0
 10
-1.5209071748
 20
-0.667816798
 30
0.0
 10
-1.2937384691
 20
-0.8537228945
 30
0.0
 10
-1.0255130808
 20
-1.1290205796
 30
0.0
 10
-0.7342962556
 20
-1.522060954
 30
0.0
 10
-0.4920670121
 20
-1.9514348763
 30
0.0
 10
-0.3040649176
 20
-2.4054592601
 30
0.0
 10
-0.1815179063
 20
-2.8604899067
 30
0.0
 10
-0.146222873
 20
-3.1472989599
 30
0.0
 10
-0.1400240559
 20
-3.2879050886
 30
0.0
 11
-3.4635254957
 21
-1.626249385
 31
0.0
 11
-3.4450631595
 21
-1.2309012929
 31
0.0
 11
-3.3529403679
 21
-0.8872718999
 31
0.0
 11
-3.1910169534
 21
-0.6113312505
 31
0.0
 11
-2.9680750507
 21
-0.4159512166
 31
0.0
 11
-2.6931084511
 21
-0.3087520856
 31
0.0
 11
-2.3804218389
 21
-0.2960070885
 31
0.0
 11
-2.2130789918
 21
-0.3255927202
 31
0.0
 11
-2.0414547607
 21
-0.3789089752
 31
0.0
 11
-1.8682554201
 21
-0.4547422252
 31
0.0
 11
-1.6945692608
 21
-0.552240678
 31
0.0
 11
-1.5214504499
 21
-0.6711881422
 31
0.0
 11
-1.3515796784
 21
-0.8101073747
 31
0.0
 11
-1.0306220209
 21
-1.1394677717
 31
0.0
 11
-0.7424608525
 21
-1.5281165453
 31
0.0
 11
-0.5011048703
 21
-1.9555432865
 31
0.0
 11
-0.3149740981
 21
-2.4056269705
 31
0.0
 11
-0.1931186499
 21
-2.8563537289
 31
0.0
 11
-0.1400240559
 21
-3.2879050886
 31
0.0
  0
SPLINE
  5
2D7
100
AcDbEntity
  8
CURVE
100
AcDbSpline
 62
253
  6
CONTINUOUS
 70
0
 71
3
 72
25
 73
21
 74
19
 42
0.0000001
 43
0.0000001
 44
0.0000000001
 12
-6.1809622897
 22
3.0904811448
 32
0.0
 13
6.1871052061
 23
-3.093552603
 33
0.0
 40
0.0
 40
0.0
 40
0.0
 40
0.0
 40
0.0666666667
 40
0.1333333333
 40
0.2
 40
0.2666666667
 40
0.3333333333
 40
0.4
 40
0.4333333333
 40
0.4666666667
 40
0.5
 40
0.5333333333
 40
0.5666666667
 40
0.6
 40
0.6666666667
 40
0.7333333333
 40
0.8
 40
0.8666666667
 40
0.9333333333
 40
1.0
 40
1.0
 40
1.0
 40
1.0
 10
-1.8747164021
 20
-0.1118858564
 30
0.0
 10
-2.0120711196
 20
-0.0432084976
 30
0.0
 10
-2.279716091
 20
0.0570596827
 30
0.0
 10
-2.6678533447
 20
0.0993837998
 30
0.0
 10
-3.0181274487
 20
0.027190423
 30
0.0
 10
-3.3132226671
 20
-0.1517418078
 30
0.0
 10
-3.543919916
 20
-0.4327504337
 30
0.0
 10
-3.6693897224
 20
-0.7369403335
 30
0.0
 10
-3.7281206029
 20
-1.0186469201
 30
0.0
 10
-3.7499921394
 20
-1.2455781366
 30
0.0
 10
-3.7498816477
 20
-1.4838114789
 30
0.0
 10
-3.7284165009
 20
-1.7320736552
 30
0.0
 10
-3.6850334803
 20
-1.9897536518
 30
0.0
 10
-3.5982174206
 20
-2.3400894006
 30
0.0
 10
-3.4397308781
 20
-2.7783851964
 30
0.0
 10
-3.1734842622
 20
-3.2955002116
 30
0.0
 10
-2.8497496744
 20
-3.7704755903
 30
0.0
 10
-2.4781304224
 20
-4.1919482367
 30
0.0
 10
-2.0773588009
 20
-4.5363169446
 30
0.0
 10
-1.8066468212
 20
-4.7035849246
 30
0.0
 10
-1.6691555944
 20
-4.772330538
 30
0.0
 11
-1.8747164021
 21
-0.1118858564
 31
0.0
 11
-2.2774943905
 21
0.0390466571
 31
0.0
 11
-2.6615428198
 21
0.0802975508
 31
0.0
 11
-3.0089309677
 21
0.009400614
 31
0.0
 11
-3.3024896722
 21
-0.1687545403
 31
0.0
 11
-3.5305643358
 21
-0.4467536427
 31
0.0
 11
-3.6806020288
 21
-0.8105632024
 31
0.0
 11
-3.7244244989
 21
-1.0212554662
 31
0.0
 11
-3.746328468
 21
-1.2474618242
 31
0.0
 11
-3.7463225385
 21
-1.4854829512
 31
0.0
 11
-3.7247635219
 21
-1.7336432919
 31
0.0
 11
-3.6814119763
 21
-1.9905989543
 31
0.0
 11
-3.6165903377
 21
-2.2525305374
 31
0.0
 11
-3.4270537506
 21
-2.7769118731
 31
0.0
 11
-3.1639029335
 21
-3.2884769388
 31
0.0
 11
-2.841768897
 21
-3.7615584682
 31
0.0
 11
-2.4732716942
 21
-4.1790975803
 31
0.0
 11
-2.0764760763
 21
-4.5207391549
 31
0.0
 11
-1.6691555944
 21
-4.772330538
 31
0.0
  0
ELLIPSE
  5
2D8
100
AcDbEntity
  8
RACCORDO
100
AcDbEllipse
 62
7
  6
CONTINUOUS
 10
-5.6404697942
 20
13.9070481791
 30
0.0
 11
-0.1119858744
 21
0.2236318019
 31
0.0
 40
0.6122594231
 41
-0.6852493493
 42
0.0223275232
  0
ELLIPSE
  5
2D9
100
AcDbEntity
  8
RACCORDO
100
AcDbEllipse
 62
7
  6
CONTINUOUS
 10
9.7742425293
 20
6.1996920174
 30
0.0
 11
-0.1119259236
 21
0.2235783474
 31
0.0
 40
0.6126250184
 41
-2.2559124555
 42
-0.6854206804
  0
ELLIPSE
  5
2DA
100
AcDbEntity
  8
0
100
AcDbEllipse
 62
7
  6
CONTINUOUS
 10
9.0461205029
 20
-12.4670376374
 30
0.0
 11
-0.1826272431
 21
0.4654700168
 31
0.0
 40
0.6543766329
 41
-3.1348682827
 42
-2.2008763123
  0
ELLIPSE
  5
2DB
100
AcDbEntity
  8
ASSI
100
AcDbEllipse
 62
7
  6
CONTINUOUS
 10
-5.6404697942
 20
13.9070481791
 30
0.0
 11
-0.1119858744
 21
0.2236318019
 31
0.0
 40
0.6122594231
 41
-0.6852493493
 42
0.0223275232
  0
ELLIPSE
  5
2DC
100
AcDbEntity
  8
ASSI
100
AcDbEllipse
 62
7
  6
CONTINUOUS
 10
9.7742425293
 20
6.1996920174
 30
0.0
 11
-0.1119259236
 21
0.2235783474
 31
0.0
 40
0.6126250184
 41
-2.2559124555
 42
-0.6854206804
  0
ELLIPSE
  5
2DD
100
AcDbEntity
  8
ASSI
100
AcDbEllipse
 62
7
  6
CONTINUOUS
 10
9.0461205029
 20
-12.4670376374
 30
0.0
 11
-0.1826272431
 21
0.4654700168
 31
0.0
 40
0.6543766329
 41
-3.1348682827
 42
-2.2008763123
  0
ENDSEC
  0
SECTION
  2
OBJECTS
  0
DICTIONARY
  5
C
100
AcDbDictionary
280
0
281
1
  3
ACAD_GROUP
350
D
  3
ACAD_MLINESTYLE
350
17
  3
ACAD_LAYOUT
350
1A
  3
ACAD_PLOTSETTINGS
350
19
  3
ACAD_PLOTSTYLENAME
350
E
  0
DICTIONARY
  5
D
102
{ACAD_REACTORS
330
C
102
}
100
AcDbDictionary
280
0
281
1
  0
ACDBDICTIONARYWDFLT
  5
E
102
{ACAD_REACTORS
330
C
102
}
100
AcDbDictionary
281
1
  3
Normal
350
F
100
AcDbDictionaryWithDefault
340
F
  0
DICTIONARY
  5
17
102
{ACAD_REACTORS
330
C
102
}
100
AcDbDictionary
280
0
281
1
  3
Standard
350
18
  0
DICTIONARY
  5
19
102
{ACAD_REACTORS
330
C
102
}
100
AcDbDictionary
281
1
  0
DICTIONARY
  5
1A
102
{ACAD_REACTORS
330
C
102
}
100
AcDbDictionary
281
1
  3
Model
350
2DE
  3
Layout1
350
2DF
  0
ACDBPLACEHOLDER
  5
F
102
{ACAD_REACTORS
330
E
102
}
  0
MLINESTYLE
  5
18
102
{ACAD_REACTORS
330
17
102
}
100
AcDbMlineStyle
  2
STANDARD
 70
0
  3

 62
256
 51
90.0
 52
90.0
 71
2
 49
0.5
 62
256
  6
BYLAYER
 49
-0.5
 62
256
  6
BYLAYER
  0
LAYOUT
  5
2DE
102
{ACAD_REACTORS
330
1A
102
}
100
AcDbPlotSettings
  1

  2
none_device
  4
ISO_A4_(297.00_x_210.00_MM)
  6

 40
0.0
 41
0.0
 42
0.0
 43
0.0
 44
297.0
 45
210.0
 46
0.0
 47
0.0
 48
0.0
 49
0.0
140
0.0
141
0.0
142
1.0
143
1.0
 70
1024
 72
1
 73
0
 74
0
  7

 75
0
147
1.0
148
0.0
149
0.0
100
AcDbLayout
  1
Model
 70
0
 71
0
 10
0.0
 20
0.0
 11
297.0
 21
210.0
 12
0.0
 22
0.0
 32
0.0
 14
0.0
 24
0.0
 34
0.0
 15
0.0
 25
0.0
 35
0.0
146
0.0
 13
0.0
 23
0.0
 33
0.0
 16
1.0
 26
0.0
 36
0.0
 17
0.0
 27
1.0
 37
0.0
 76
0
330
219
345
0
346
0
  0
LAYOUT
  5
2DF
102
{ACAD_REACTORS
330
1A
102
}
100
AcDbPlotSettings
  1

  2
none_device
  4
ISO_A4_(297.00_x_210.00_MM)
  6

 40
0.0
 41
0.0
 42
0.0
 43
0.0
 44
297.0
 45
210.0
 46
0.0
 47
0.0
 48
0.0
 49
0.0
140
0.0
141
0.0
142
1.0
143
1.0
 70
0
 72
1
 73
0
 74
0
  7

 75
0
147
1.0
148
0.0
149
0.0
100
AcDbLayout
  1
Layout1
 70
0
 71
1
 10
0.0
 20
0.0
 11
297.0
 21
210.0
 12
0.0
 22
0.0
 32
0.0
 14
0.0
 24
0.0
 34
0.0
 15
0.0
 25
0.0
 35
0.0
146
0.0
 13
0.0
 23
0.0
 33
0.0
 16
1.0
 26
0.0
 36
0.0
 17
0.0
 27
1.0
 37
0.0
 76
0
330
21A
345
0
346
0
  0
ENDSEC
  0
EOF
