  0
SECTION
  2
HEADER
  9
$ACADVER
  1
AC1015
  9
$DWGCODEPAGE
  3
ANSI_1252
  9
$EXTMAX
 10
297.0
 20
210.0
 30
0.0
  9
$EXTMIN
 10
0.0
 20
0.0
 30
0.0
  9
$LIMMIN
 10
0.0
 20
0.0
  9
$LIMMAX
 10
297.0
 20
210.0
  9
$VIEWCTR
 10
148.5
 20
105.0
  9
$VIEWSIZE
 40
210.0
  9
$CLAYER
  8
0
  9
$LTSCALE
 40
16.335
  9
$CELTYPE
  6
BYLAYER
  9
$DIMSCALE
 40
1.0
  9
$DIMASZ
 40
3.0
  9
$DIMEXO
 40
1.85625
  9
$DIMDLI
 40
11.286
  9
$DIMEXE
 40
5.346
  9
$DIMCEN
 40
2.673
  9
$DIMLFAC
 40
1.0
  9
$DIMBLK
  1
_FILLED
  9
$DIMTXT
 40
3.0
  9
$DIMTOL
 70
1
  9
$DIMLIM
 70
0
  9
$DIMTFAC
 40
1.0
  9
$DIMTP
 40
0.01
  9
$DIMTM
 40
0.01
  9
$PDMODE
 70
3
  9
$PDSIZE
 40
3.0
  9
$HANDSEED
  5
2DE
  9
$TILEMODE
 70
1
  9
$MEASUREMENT
 70
1
  9
$INSUNITS
 70
4
  0
ENDSEC
  0
SECTION
  2
CLASSES
  0
CLASS
  1
ACDBDICTIONARYWDFLT
  2
AcDbDictionaryWithDefault
  3
AutoCAD 2000
 90
0
280
0
281
0
  0
CLASS
  1
ACDBPLACEHOLDER
  2
AcDbPlaceHolder
  3
AutoCAD 2000
 90
0
280
0
281
0
  0
CLASS
  1
LAYOUT
  2
AcDbLayout
  3
AutoCAD 2000
 90
0
280
0
281
0
  0
ENDSEC
  0
SECTION
  2
TABLES
  0
TABLE
  2
VPORT
  5
8
100
AcDbSymbolTable
 70
2
  0
VPORT
  5
1F4
100
AcDbSymbolTableRecord
100
AcDbViewportTableRecord
  2
*ACTIVE
 70
0
 10
0.0
 20
0.0
 11
1.0
 21
1.0
 12
148.5
 22
105.0
 13
0.0
 23
0.0
 14
1.0
 24
1.0
 15
0.0
 25
0.0
 16
0.0
 26
0.0
 36
1.0
 17
0.0
 27
0.0
 37
0.0
 40
210.0
 41
1.4142857143
 42
50.0
 43
0.0
 44
0.0
 50
0.0
 51
0.0
 71
0
 72
100
 73
1
 74
1
 75
0
 76
0
 77
0
 78
0
  0
ENDTAB
  0
TABLE
  2
LTYPE
  5
5
100
AcDbSymbolTable
 70
6
  0
LTYPE
  5
14
100
AcDbSymbolTableRecord
100
AcDbLinetypeTableRecord
  2
BYBLOCK
 70
0
  3

 72
65
 73
0
 40
0.0
  0
LTYPE
  5
15
100
AcDbSymbolTableRecord
100
AcDbLinetypeTableRecord
  2
BYLAYER
 70
0
  3

 72
65
 73
0
 40
0.0
  0
LTYPE
  5
16
100
AcDbSymbolTableRecord
100
AcDbLinetypeTableRecord
  2
CONTINUOUS
 70
64
  3
Solid line
 72
65
 73
0
 40
0.0
  0
LTYPE
  5
1F5
100
AcDbSymbolTableRecord
100
AcDbLinetypeTableRecord
  2
CENTER
 70
64
  3
____ _ ____ _ ____ _ ____ _ ____ _ ____ _ ____
 72
65
 73
4
 40
0.6
 49
0.375
 74
0
 49
-0.075
 74
0
 49
0.075
 74
0
 49
-0.075
 74
0
  0
LTYPE
  5
1F6
100
AcDbSymbolTableRecord
100
AcDbLinetypeTableRecord
  2
HIDDEN
 70
64
  3
- - - - - - - - - - - - - - - - - - - -
 72
65
 73
2
 40
0.2
 49
0.1
 74
0
 49
-0.1
 74
0
  0
LTYPE
  5
1F7
100
AcDbSymbolTableRecord
100
AcDbLinetypeTableRecord
  2
PHANTOM
 70
64
  3
_____ _ _ _____ _ _ _____ _ _ _____
 72
65
 73
6
 40
0.8
 49
0.45
 74
0
 49
-0.05
 74
0
 49
0.1
 74
0
 49
-0.05
 74
0
 49
0.1
 74
0
 49
-0.05
 74
0
  0
LTYPE
  5
1F8
100
AcDbSymbolTableRecord
100
AcDbLinetypeTableRecord
  2
DOT
 70
64
  3
. . . . . . . . . . . . . . . . . . . .
 72
65
 73
2
 40
0.2
 49
0.1
 74
0
 49
-0.1
 74
0
  0
LTYPE
  5
1F9
100
AcDbSymbolTableRecord
100
AcDbLinetypeTableRecord
  2
DASHED
 70
64
  3
- - - - - - - - - - - - - - - - - - - -
 72
65
 73
2
 40
0.2
 49
0.1
 74
0
 49
-0.1
 74
0
  0
ENDTAB
  0
TABLE
  2
LAYER
  5
2
100
AcDbSymbolTable
 70
36
  0
LAYER
  5
10
100
AcDbSymbolTableRecord
100
AcDbLayerTableRecord
  2
0
 70
0
 62
7
  6
CONTINUOUS
370
-3
390
F
  0
LAYER
  5
1FA
100
AcDbSymbolTableRecord
100
AcDbLayerTableRecord
  2
DEFAULT_1
 70
0
 62
7
  6
CENTER
370
-3
390
F
  0
LAYER
  5
1FB
100
AcDbSymbolTableRecord
100
AcDbLayerTableRecord
  2
DEFAULT_2
 70
0
 62
7
  6
HIDDEN
370
-3
390
F
  0
LAYER
  5
1FC
100
AcDbSymbolTableRecord
100
AcDbLayerTableRecord
  2
DEFAULT_3
 70
0
 62
7
  6
PHANTOM
370
-3
390
F
  0
LAYER
  5
1FD
100
AcDbSymbolTableRecord
100
AcDbLayerTableRecord
  2
ASSI
 70
0
 62
7
  6
CONTINUOUS
370
-3
390
F
  0
LAYER
  5
1FE
100
AcDbSymbolTableRecord
100
AcDbLayerTableRecord
  2
COLOR9
 70
0
 62
7
  6
CONTINUOUS
370
-3
390
F
  0
LAYER
  5
1FF
100
AcDbSymbolTableRecord
100
AcDbLayerTableRecord
  2
COORDINATE
 70
0
 62
7
  6
CONTINUOUS
370
-3
390
F
  0
LAYER
  5
200
100
AcDbSymbolTableRecord
100
AcDbLayerTableRecord
  2
COORD_ORIGINE
 70
0
 62
7
  6
CONTINUOUS
370
-3
390
F
  0
LAYER
  5
201
100
AcDbSymbolTableRecord
100
AcDbLayerTableRecord
  2
COPY_PUBLISH
 70
0
 62
7
  6
CONTINUOUS
370
-3
390
F
  0
LAYER
  5
202
100
AcDbSymbolTableRecord
100
AcDbLayerTableRecord
  2
COSMETIC
 70
0
 62
7
  6
CONTINUOUS
370
-3
390
F
  0
LAYER
  5
203
100
AcDbSymbolTableRecord
100
AcDbLayerTableRecord
  2
CURVE
 70
0
 62
7
  6
CONTINUOUS
370
-3
390
F
  0
LAYER
  5
204
100
AcDbSymbolTableRecord
100
AcDbLayerTableRecord
  2
DRAFT
 70
0
 62
7
  6
CONTINUOUS
370
-3
390
F
  0
LAYER
  5
205
100
AcDbSymbolTableRecord
100
AcDbLayerTableRecord
  2
IGES
 70
0
 62
7
  6
CONTINUOUS
370
-3
390
F
  0
LAYER
  5
206
100
AcDbSymbolTableRecord
100
AcDbLayerTableRecord
  2
IGS_SCRITTE
 70
0
 62
7
  6
CONTINUOUS
370
-3
390
F
  0
LAYER
  5
207
100
AcDbSymbolTableRecord
100
AcDbLayerTableRecord
  2
IMPORT_IGES
 70
0
 62
7
  6
CONTINUOUS
370
-3
390
F
  0
LAYER
  5
208
100
AcDbSymbolTableRecord
100
AcDbLayerTableRecord
  2
INTF_12
 70
0
 62
7
  6
CONTINUOUS
370
-3
390
F
  0
LAYER
  5
209
100
AcDbSymbolTableRecord
100
AcDbLayerTableRecord
  2
INTF_15
 70
0
 62
7
  6
CONTINUOUS
370
-3
390
F
  0
LAYER
  5
20A
100
AcDbSymbolTableRecord
100
AcDbLayerTableRecord
  2
INTF_3
 70
0
 62
7
  6
CONTINUOUS
370
-3
390
F
  0
LAYER
  5
20B
100
AcDbSymbolTableRecord
100
AcDbLayerTableRecord
  2
INTF_4
 70
0
 62
7
  6
CONTINUOUS
370
-3
390
F
  0
LAYER
  5
20C
100
AcDbSymbolTableRecord
100
AcDbLayerTableRecord
  2
INTF_YELLOW
 70
0
 62
7
  6
CONTINUOUS
370
-3
390
F
  0
LAYER
  5
20D
100
AcDbSymbolTableRecord
100
AcDbLayerTableRecord
  2
PIANI
 70
0
 62
7
  6
CONTINUOUS
370
-3
390
F
  0
LAYER
  5
20E
100
AcDbSymbolTableRecord
100
AcDbLayerTableRecord
  2
PIANI_ORIGINE
 70
0
 62
7
  6
CONTINUOUS
370
-3
390
F
  0
LAYER
  5
20F
100
AcDbSymbolTableRecord
100
AcDbLayerTableRecord
  2
PIANI_RIFERIMENTO
 70
0
 62
7
  6
CONTINUOUS
370
-3
390
F
  0
LAYER
  5
210
100
AcDbSymbolTableRecord
100
AcDbLayerTableRecord
  2
RACCORDO
 70
0
 62
7
  6
CONTINUOUS
370
-3
390
F
  0
LAYER
  5
211
100
AcDbSymbolTableRecord
100
AcDbLayerTableRecord
  2
SMUSSO
 70
0
 62
7
  6
CONTINUOUS
370
-3
390
F
  0
LAYER
  5
212
100
AcDbSymbolTableRecord
100
AcDbLayerTableRecord
  2
SOLIDO
 70
0
 62
7
  6
CONTINUOUS
370
-3
390
F
  0
LAYER
  5
213
100
AcDbSymbolTableRecord
100
AcDbLayerTableRecord
  2
SUPERFICI
 70
0
 62
7
  6
CONTINUOUS
370
-3
390
F
  0
LAYER
  5
214
100
AcDbSymbolTableRecord
100
AcDbLayerTableRecord
  2
TRASH
 70
0
 62
7
  6
CONTINUOUS
370
-3
390
F
  0
LAYER
  5
215
100
AcDbSymbolTableRecord
100
AcDbLayerTableRecord
  2
WHITE
 70
0
 62
7
  6
CONTINUOUS
370
-3
390
F
  0
LAYER
  5
216
100
AcDbSymbolTableRecord
100
AcDbLayerTableRecord
  2
XSEC_DATUMS
 70
0
 62
7
  6
CONTINUOUS
370
-3
390
F
  0
ENDTAB
  0
TABLE
  2
STYLE
  5
3
100
AcDbSymbolTable
 70
1
  0
STYLE
  5
11
100
AcDbSymbolTableRecord
100
AcDbTextStyleTableRecord
  2
STANDARD
 70
0
 40
0.0
 41
0.8
 50
0.0
 71
0
 42
0.2
  3
txt
  4

  0
STYLE
  5
217
100
AcDbSymbolTableRecord
100
AcDbTextStyleTableRecord
  2
TEXTSTYLE_1
 70
0
 40
0.0
 41
0.8
 50
0.0
 71
0
 42
0.2
  3
gdt
  4

  0
ENDTAB
  0
TABLE
  2
VIEW
  5
6
100
AcDbSymbolTable
 70
0
  0
ENDTAB
  0
TABLE
  2
UCS
  5
7
100
AcDbSymbolTable
 70
0
  0
ENDTAB
  0
TABLE
  2
APPID
  5
9
100
AcDbSymbolTable
 70
1
  0
APPID
  5
218
100
AcDbSymbolTableRecord
100
AcDbRegAppTableRecord
  2
ACAD
 70
0
  0
ENDTAB
  0
TABLE
  2
BLOCK_RECORD
  5
1
100
AcDbSymbolTable
 70
0
  0
BLOCK_RECORD
  5
219
100
AcDbSymbolTableRecord
100
AcDbBlockTableRecord
  2
*Model_Space
  0
BLOCK_RECORD
  5
21A
100
AcDbSymbolTableRecord
100
AcDbBlockTableRecord
  2
*Paper_Space
  0
ENDTAB
  0
TABLE
  2
DIMSTYLE
  5
A
100
AcDbSymbolTable
 70
1
100
AcDbDimStyleTable
 71
0
  0
DIMSTYLE
105
21B
100
AcDbSymbolTableRecord
100
AcDbDimStyleTableRecord
  2
STANDARD
 70
0
  3

  4

 40
1.0
 41
3.0
 42
0.0625
 43
0.38
 44
0.18
 45
0.0
 46
0.0
 47
0.01
 48
0.01
140
3.0
141
0.09
142
0.0
143
25.4
144
1.0
145
0.0
146
1.0
147
0.09
 71
1.0
 72
0.0
 73
0
 74
0
 75
0
 76
0
 77
1
 78
8
170
0
171
2
172
0
173
0
174
0
175
0
176
0
177
0
178
0
270
2
271
2
272
2
273
2
274
2
275
0
280
0
281
0
282
0
283
1
284
8
285
0
286
0
287
3
288
0
340
11
  0
ENDTAB
  0
ENDSEC
  0
SECTION
  2
BLOCKS
  0
BLOCK
  5
20
100
AcDbEntity
  8
0
100
AcDbBlockBegin
  2
*Model_Space
 70
0
 10
0.0
 20
0.0
 30
0.0
  3
*Model_Space
  1

  0
ENDBLK
  5
21
100
AcDbEntity
  8
0
100
AcDbBlockEnd
  0
BLOCK
  5
1C
100
AcDbEntity
  8
0
100
AcDbBlockBegin
  2
*Paper_Space
 70
0
 10
0.0
 20
0.0
 30
0.0
  3
*Paper_Space
  1

  0
ENDBLK
  5
1D
100
AcDbEntity
  8
0
100
AcDbBlockEnd
  0
ENDSEC
  0
SECTION
  2
ENTITIES
  0
LWPOLYLINE
  5
21C
100
AcDbEntity
  8
ASSI
100
AcDbPolyline
 62
7
  6
CONTINUOUS
 90
11
 70
0
 10
-9.5290656648
 20
12.2014869368
 10
-9.5461037244
 20
12.1916909617
 10
-9.5805010941
 20
12.1687150215
 10
-9.6114218892
 20
12.1434656232
 10
-9.6388683175
 20
12.1160478047
 10
-9.6627419832
 20
12.0866522323
 10
-9.682871674
 20
12.0556234887
 10
-9.6992109928
 20
12.0232136332
 10
-9.7117239661
 20
11.9896650883
 10
-9.7203425222
 20
11.9553600929
 10
-9.7250483565
 20
11.9207595326
  0
LWPOLYLINE
  5
21D
100
AcDbEntity
  8
RACCORDO
100
AcDbPolyline
 62
7
  6
CONTINUOUS
 90
33
 70
0
 10
-9.5289082179
 20
12.2015732965
 10
-9.5372874119
 20
12.1968777651
 10
-9.5486332613
 20
12.1901542126
 10
-9.5595914445
 20
12.1832313824
 10
-9.5701650991
 20
12.1761175398
 10
-9.5803595393
 20
12.1688195767
 10
-9.590179168
 20
12.1613444943
 10
-9.599626306
 20
12.1537008128
 10
-9.6087047162
 20
12.1458960463
 10
-9.6174178938
 20
12.1379376036
 10
-9.6257669101
 20
12.1298351975
 10
-9.6337549708
 20
12.1215970112
 10
-9.6413861852
 20
12.1132300941
 10
-9.6486584175
 20
12.1047486143
 10
-9.6555775418
 20
12.0961583027
 10
-9.6621566432
 20
12.0874544016
 10
-9.6683953534
 20
12.0786481139
 10
-9.6742956674
 20
12.0697479271
 10
-9.6798704586
 20
12.0607446233
 10
-9.6851195629
 20
12.0516474908
 10
-9.6900428432
 20
12.0424664321
 10
-9.6946495656
 20
12.0331925338
 10
-9.6989394916
 20
12.0238331171
 10
-9.7029109362
 20
12.0143997494
 10
-9.7065682194
 20
12.0048895709
 10
-9.7099103292
 20
11.9953116714
 10
-9.7129362957
 20
11.9856761942
 10
-9.7156487178
 20
11.9759818459
 10
-9.718046566
 20
11.9662389766
 10
-9.7201295382
 20
11.9564568166
 10
-9.7218996785
 20
11.9466323508
 10
-9.7233560888
 20
11.9367754422
 10
-9.7244983557
 20
11.9268958849
  0
LINE
  5
21E
100
AcDbEntity
  8
RACCORDO
100
AcDbLine
 62
7
  6
CONTINUOUS
 10
-9.5289041447
 20
12.2015755398
 11
-5.9695066627
 21
14.149488867
  0
LINE
  5
21F
100
AcDbEntity
  8
ASSI
100
AcDbLine
 62
7
  6
CONTINUOUS
 10
-9.5290656707
 20
12.2014869476
 11
-5.9695066627
 21
14.149488867
  0
LINE
  5
220
100
AcDbEntity
  8
RACCORDO
100
AcDbLine
 62
253
  6
CONTINUOUS
 10
-9.4104288379
 20
12.1979950259
 11
-5.8545397595
 21
14.1439883466
  0
LINE
  5
221
100
AcDbEntity
  8
ASSI
100
AcDbLine
 62
253
  6
CONTINUOUS
 10
-9.4104288379
 20
12.1979950259
 11
-5.8545397595
 21
14.1439883466
  0
LINE
  5
222
100
AcDbEntity
  8
DRAFT
100
AcDbLine
 62
7
  6
CONTINUOUS
 10
-4.1663521538
 20
12.2606640593
 11
-5.1533605811
 21
11.6494053463
  0
LINE
  5
223
100
AcDbEntity
  8
ASSI
100
AcDbLine
 62
7
  6
CONTINUOUS
 10
-4.1663521538
 20
12.2606640593
 11
-5.1533605811
 21
11.6494053463
  0
LINE
  5
224
100
AcDbEntity
  8
DRAFT
100
AcDbLine
 62
7
  6
CONTINUOUS
 10
-4.1663521538
 20
13.2998945438
 11
-6.1020810156
 21
12.1237655635
  0
LINE
  5
225
100
AcDbEntity
  8
ASSI
100
AcDbLine
 62
7
  6
CONTINUOUS
 10
-4.1663521538
 20
13.2998945438
 11
-6.1020810156
 21
12.1237655635
  0
LWPOLYLINE
  5
226
100
AcDbEntity
  8
RACCORDO
100
AcDbPolyline
 62
7
  6
CONTINUOUS
 90
5
 70
0
 10
-9.7244983557
 20
11.9268958849
 10
-9.7253274736
 20
11.9169904921
 10
-9.7258428993
 20
11.9070647876
 10
-9.7260439212
 20
11.8971330427
 10
-9.7260469088
 20
11.8955396319
  0
LWPOLYLINE
  5
227
100
AcDbEntity
  8
0
100
AcDbPolyline
 62
7
  6
CONTINUOUS
 90
28
 70
0
 10
6.3178655805
 20
-13.7763406514
 10
6.3358406037
 20
-13.7834428056
 10
6.3540276239
 20
-13.7900569013
 10
6.3724133056
 20
-13.7961771492
 10
6.3909842499
 20
-13.8017982892
 10
6.4097480837
 20
-13.8069210077
 10
6.4286918203
 20
-13.8115394581
 10
6.4478019405
 20
-13.8156484122
 10
6.4670863934
 20
-13.8192468825
 10
6.4865327756
 20
-13.8223290337
 10
6.5061271773
 20
-13.8248893926
 10
6.5258762865
 20
-13.8269251225
 10
6.5457672556
 20
-13.8284304683
 10
6.5657867077
 20
-13.8294000686
 10
6.5859415126
 20
-13.8298293807
 10
6.6062209423
 20
-13.8297126908
 10
6.626609626
 20
-13.8290446538
 10
6.6471084816
 20
-13.8278193982
 10
6.6677061057
 20
-13.8260314691
 10
6.6883881786
 20
-13.8236761085
 10
6.7091524324
 20
-13.8207471703
 10
6.7299868364
 20
-13.8172396463
 10
6.7508783396
 20
-13.8131492941
 10
6.7718245262
 20
-13.8084696633
 10
6.79281409
 20
-13.803195844
 10
6.8138344641
 20
-13.7973237676
 10
6.8348828808
 20
-13.7908465088
 10
6.8559511743
 20
-13.7837581917
  0
LWPOLYLINE
  5
228
100
AcDbEntity
  8
0
100
AcDbPolyline
 62
7
  6
CONTINUOUS
 90
23
 70
0
 10
-9.6504694685
 20
3.3025911292
 10
-9.6412361471
 20
2.9304238478
 10
-9.6305636881
 20
2.5590780093
 10
-9.6184522633
 20
2.1885620693
 10
-9.6049020462
 20
1.8188839968
 10
-9.589913224
 20
1.4500518804
 10
-9.5734860763
 20
1.0820746131
 10
-9.5556209148
 20
0.7149613664
 10
-9.5363180505
 20
0.3487208349
 10
-9.515577853
 20
-0.016638533
 10
-9.4934007296
 20
-0.3811079437
 10
-9.4697870877
 20
-0.7446789194
 10
-9.4447374023
 20
-1.1073429948
 10
-9.418252187
 20
-1.4690914031
 10
-9.3903319511
 20
-1.8299157047
 10
-9.3609772676
 20
-2.1898075261
 10
-9.3301887511
 20
-2.5487582079
 10
-9.297967005
 20
-2.9067594526
 10
-9.2643127189
 20
-3.2638028113
 10
-9.2292266432
 20
-3.6198794067
 10
-9.1927095224
 20
-3.9749806467
 10
-9.1547620782
 20
-4.3290987924
 10
-9.1153850265
 20
-4.6822262508
  0
LWPOLYLINE
  5
229
100
AcDbEntity
  8
ASSI
100
AcDbPolyline
 62
7
  6
CONTINUOUS
 90
9
 70
0
 10
-9.6645658029
 20
4.0458745845
 10
-9.6424522306
 20
2.9762613474
 10
-9.6061232815
 20
1.8506268231
 10
-9.5565234786
 20
0.7328042748
 10
-9.4936611899
 20
-0.3769652718
 10
-9.417547451
 20
-1.4784444911
 10
-9.3281958081
 20
-2.5714001643
 10
-9.2256226237
 20
-3.6555986404
 10
-9.1098472021
 20
-4.7308059161
  0
LWPOLYLINE
  5
22A
100
AcDbEntity
  8
0
100
AcDbPolyline
 62
7
  6
CONTINUOUS
 90
3
 70
0
 10
-9.6645658003
 20
4.0458744144
 10
-9.6582635283
 20
3.6755701331
 10
-9.6504694685
 20
3.3025911292
  0
LINE
  5
22B
100
AcDbEntity
  8
ASSI
100
AcDbLine
 62
7
  6
CONTINUOUS
 10
-9.6765710662
 20
4.8860886429
 11
-9.6645658004
 21
4.0458744148
  0
LWPOLYLINE
  5
22C
100
AcDbEntity
  8
ASSI
100
AcDbPolyline
 62
7
  6
CONTINUOUS
 90
8
 70
0
 10
-9.7249096753
 20
11.0704571461
 10
-9.7222909935
 20
10.1809687306
 10
-9.7182278451
 20
9.2922616312
 10
-9.7127202397
 20
8.4043400392
 10
-9.7057681964
 20
7.5172074521
 10
-9.697371734
 20
6.6308671515
 10
-9.6875308785
 20
5.7453227354
 10
-9.6765710662
 20
4.8860886429
  0
LINE
  5
22D
100
AcDbEntity
  8
ASSI
100
AcDbLine
 62
7
  6
CONTINUOUS
 10
-9.7260469458
 20
11.8955526504
 11
-9.7249096753
 21
11.0704571461
  0
LWPOLYLINE
  5
22E
100
AcDbEntity
  8
0
100
AcDbPolyline
 62
7
  6
CONTINUOUS
 90
10
 70
0
 10
-9.7260469458
 20
11.8955526546
 10
-9.7248087774
 20
11.0240357593
 10
-9.7221684714
 20
10.1486176407
 10
-9.7181289273
 20
9.2739565146
 10
-9.7126901544
 20
8.4000563587
 10
-9.7058521708
 20
7.5269205065
 10
-9.6976149949
 20
6.6545521045
 10
-9.6879786509
 20
5.7829545766
 10
-9.6769431823
 20
4.9121319908
 10
-9.6645658004
 20
4.0458744155
  0
LINE
  5
22F
100
AcDbEntity
  8
ASSI
100
AcDbLine
 62
7
  6
CONTINUOUS
 10
-9.7250483565
 20
11.9207595326
 11
-9.7260465508
 21
11.895315338
  0
LWPOLYLINE
  5
230
100
AcDbEntity
  8
0
100
AcDbPolyline
 62
7
  6
CONTINUOUS
 90
3
 70
0
 10
6.2825388577
 20
-13.7606677886
 10
6.3000959671
 20
-13.7687481829
 10
6.3178655805
 20
-13.7763406514
  0
LWPOLYLINE
  5
231
100
AcDbEntity
  8
ASSI
100
AcDbPolyline
 62
7
  6
CONTINUOUS
 90
9
 70
0
 10
6.2696531167
 20
-13.7543569212
 10
6.296046087
 20
-13.7669343339
 10
6.3715044769
 20
-13.7958866184
 10
6.4509539082
 20
-13.8162739002
 10
6.5332518838
 20
-13.8275466651
 10
6.6175814307
 20
-13.829408305
 10
6.7036615061
 20
-13.8215767035
 10
6.7908890243
 20
-13.8037031182
 10
6.8779791647
 20
-13.7756812417
  0
LINE
  5
232
100
AcDbEntity
  8
0
100
AcDbLine
 62
7
  6
CONTINUOUS
 10
6.2708433741
 20
-13.7549546869
 11
6.2825388577
 21
-13.7606677886
  0
LINE
  5
233
100
AcDbEntity
  8
ASSI
100
AcDbLine
 62
7
  6
CONTINUOUS
 10
-8.5951224439
 20
-6.321971813
 11
6.270869333
 21
-13.7549677015
  0
LINE
  5
234
100
AcDbEntity
  8
0
100
AcDbLine
 62
7
  6
CONTINUOUS
 10
-8.595125905
 20
-6.3219700825
 11
6.270869333
 21
-13.7549677015
  0
LINE
  5
235
100
AcDbEntity
  8
0
100
AcDbLine
 62
253
  6
CONTINUOUS
 10
-8.8427137211
 20
-5.9084558707
 11
6.0144748845
 21
-13.3370501735
  0
LINE
  5
236
100
AcDbEntity
  8
ASSI
100
AcDbLine
 62
253
  6
CONTINUOUS
 10
-8.8427137211
 20
-5.9084558707
 11
6.0144748845
 21
-13.3370501735
  0
LINE
  5
237
100
AcDbEntity
  8
ASSI
100
AcDbLine
 62
7
  6
CONTINUOUS
 10
6.269654681
 20
-13.7543577304
 11
6.2708657797
 21
-13.7549659248
  0
LINE
  5
238
100
AcDbEntity
  8
ASSI
100
AcDbLine
 62
7
  6
CONTINUOUS
 10
-8.6606642757
 20
-6.2844815448
 11
-8.5942172598
 21
-6.3224227798
  0
LWPOLYLINE
  5
239
100
AcDbEntity
  8
0
100
AcDbPolyline
 62
7
  6
CONTINUOUS
 90
4
 70
0
 10
-8.6380798667
 20
-6.2985088647
 10
-8.6223333831
 20
-6.3075814136
 10
-8.6063536646
 20
-6.316224317
 10
-8.5951065102
 20
-6.3219797447
  0
LWPOLYLINE
  5
23A
100
AcDbEntity
  8
0
100
AcDbPolyline
 62
7
  6
CONTINUOUS
 90
3
 70
0
 10
-8.6688573873
 20
-6.2790824992
 10
-8.6535867597
 20
-6.2890102547
 10
-8.6380798667
 20
-6.2985088647
  0
LWPOLYLINE
  5
23B
100
AcDbEntity
  8
0
100
AcDbPolyline
 62
7
  6
CONTINUOUS
 90
32
 70
0
 10
-8.9830378877
 20
-5.7728565732
 10
-8.9789823431
 20
-5.7947932385
 10
-8.9744331889
 20
-5.8164011214
 10
-8.9693988404
 20
-5.8376750391
 10
-8.9638887291
 20
-5.8586059141
 10
-8.9579117335
 20
-5.8791882287
 10
-8.9514765923
 20
-5.899417956
 10
-8.9445936501
 20
-5.9192861997
 10
-8.9372726935
 20
-5.9387869609
 10
-8.929523485
 20
-5.9579156468
 10
-8.9213576609
 20
-5.9766636545
 10
-8.9127879674
 20
-5.9950212992
 10
-8.9038237969
 20
-6.0129875747
 10
-8.8944724131
 20
-6.0305650296
 10
-8.8847477311
 20
-6.0477434077
 10
-8.8746589504
 20
-6.0645219216
 10
-8.864205308
 20
-6.0809149811
 10
-8.853397678
 20
-6.0969164881
 10
-8.8422473328
 20
-6.1125203539
 10
-8.8307523633
 20
-6.1277383534
 10
-8.8189227195
 20
-6.1425649723
 10
-8.8067702653
 20
-6.1569928552
 10
-8.7942946712
 20
-6.1710287883
 10
-8.7815066119
 20
-6.1846662608
 10
-8.7684175393
 20
-6.1978987937
 10
-8.7550273195
 20
-6.2107313376
 10
-8.7413471868
 20
-6.2231570716
 10
-8.727388367
 20
-6.2351699048
 10
-8.7131498674
 20
-6.2467742256
 10
-8.6986433713
 20
-6.2579633142
 10
-8.6838800916
 20
-6.2687313994
 10
-8.6688573873
 20
-6.2790824992
  0
LWPOLYLINE
  5
23C
100
AcDbEntity
  8
ASSI
100
AcDbPolyline
 62
7
  6
CONTINUOUS
 90
10
 70
0
 10
-8.9890896856
 20
-5.7323873164
 10
-8.981344517
 20
-5.7823817403
 10
-8.9621802271
 20
-5.8646888102
 10
-8.9360651776
 20
-5.9418629651
 10
-8.9036668066
 20
-6.013291905
 10
-8.8654471994
 20
-6.0790165498
 10
-8.821509593
 20
-6.1393910942
 10
-8.7724766278
 20
-6.1938703382
 10
-8.7189178858
 20
-6.2421496661
 10
-8.6606642757
 20
-6.2844815448
  0
LWPOLYLINE
  5
23D
100
AcDbEntity
  8
0
100
AcDbPolyline
 62
7
  6
CONTINUOUS
 90
3
 70
0
 10
-8.9891340785
 20
-5.7320402917
 10
-8.9865919492
 20
-5.7505950355
 10
-8.9830378877
 20
-5.7728565732
  0
LINE
  5
23E
100
AcDbEntity
  8
ASSI
100
AcDbLine
 62
7
  6
CONTINUOUS
 10
-8.9891343654
 20
-5.7320380785
 11
-8.9890896916
 21
-5.7323873172
  0
LINE
  5
23F
100
AcDbEntity
  8
ASSI
100
AcDbLine
 62
7
  6
CONTINUOUS
 10
-9.1098472021
 20
-4.7308059161
 11
-8.9891343654
 21
-5.7320380785
  0
LWPOLYLINE
  5
240
100
AcDbEntity
  8
0
100
AcDbPolyline
 62
7
  6
CONTINUOUS
 90
4
 70
0
 10
-9.1153850265
 20
-4.6822262508
 10
-9.0745791507
 20
-5.0343549699
 10
-9.0323454472
 20
-5.3854757815
 10
-8.9891343947
 20
-5.7320378472
  0
LINE
  5
241
100
AcDbEntity
  8
DRAFT
100
AcDbLine
 62
7
  6
CONTINUOUS
 10
-4.1663521538
 20
13.2998945438
 11
-4.1663521538
 21
12.2606640593
  0
LINE
  5
242
100
AcDbEntity
  8
ASSI
100
AcDbLine
 62
7
  6
CONTINUOUS
 10
-4.1663521538
 20
13.2998945438
 11
-4.1663521538
 21
12.2606640593
  0
LINE
  5
243
100
AcDbEntity
  8
DRAFT
100
AcDbLine
 62
7
  6
CONTINUOUS
 10
7.8720926993
 20
7.2806721172
 11
5.5651808739
 21
6.2901346187
  0
LINE
  5
244
100
AcDbEntity
  8
ASSI
100
AcDbLine
 62
7
  6
CONTINUOUS
 10
7.8720926993
 20
7.2806721172
 11
5.5651808739
 21
6.2901346187
  0
LINE
  5
245
100
AcDbEntity
  8
RACCORDO
100
AcDbLine
 62
253
  6
CONTINUOUS
 10
9.5602803049
 20
6.4365783144
 11
5.7470561208
 21
4.6192525465
  0
LINE
  5
246
100
AcDbEntity
  8
ASSI
100
AcDbLine
 62
253
  6
CONTINUOUS
 10
9.5602803049
 20
6.4365783144
 11
5.7470561208
 21
4.6192525465
  0
LINE
  5
247
100
AcDbEntity
  8
RACCORDO
100
AcDbLine
 62
253
  6
CONTINUOUS
 10
9.7371108829
 20
6.1317143701
 11
5.9190997615
 21
4.3121072193
  0
LINE
  5
248
100
AcDbEntity
  8
ASSI
100
AcDbLine
 62
253
  6
CONTINUOUS
 10
9.7371108829
 20
6.1317143701
 11
5.9190997615
 21
4.3121072193
  0
LINE
  5
249
100
AcDbEntity
  8
CURVE
100
AcDbLine
 62
253
  6
CONTINUOUS
 10
-3.9464518176
 20
-0.5309298835
 11
-0.1057631518
 21
-2.4512742164
  0
LINE
  5
24A
100
AcDbEntity
  8
CURVE
100
AcDbLine
 62
253
  6
CONTINUOUS
 10
-4.29960365
 20
-0.0186975642
 11
0.2258804567
 21
-2.2814396176
  0
LINE
  5
24B
100
AcDbEntity
  8
0
100
AcDbLine
 62
253
  6
CONTINUOUS
 10
5.2904798632
 20
-3.5358467656
 11
-9.5181123284
 21
3.8684493302
  0
LINE
  5
24C
100
AcDbEntity
  8
ASSI
100
AcDbLine
 62
253
  6
CONTINUOUS
 10
5.2904798632
 20
-3.5358467656
 11
-9.5181123284
 21
3.8684493302
  0
LINE
  5
24D
100
AcDbEntity
  8
0
100
AcDbLine
 62
7
  6
CONTINUOUS
 10
0.780372799
 20
2.0550592579
 11
-5.0912984309
 21
4.9908948728
  0
LINE
  5
24E
100
AcDbEntity
  8
RACCORDO
100
AcDbLine
 62
7
  6
CONTINUOUS
 10
0.780372799
 20
2.0550592579
 11
-5.0912984309
 21
4.9908948728
  0
LINE
  5
24F
100
AcDbEntity
  8
ASSI
100
AcDbLine
 62
7
  6
CONTINUOUS
 10
0.780372799
 20
2.0550592579
 11
-5.0912984309
 21
4.9908948728
  0
LINE
  5
250
100
AcDbEntity
  8
0
100
AcDbLine
 62
7
  6
CONTINUOUS
 10
0.7659277935
 20
3.9535363338
 11
-5.1048560558
 21
6.8889282584
  0
LINE
  5
251
100
AcDbEntity
  8
RACCORDO
100
AcDbLine
 62
7
  6
CONTINUOUS
 10
0.7659277935
 20
3.9535363338
 11
-5.1048560558
 21
6.8889282584
  0
LINE
  5
252
100
AcDbEntity
  8
ASSI
100
AcDbLine
 62
7
  6
CONTINUOUS
 10
0.7659277935
 20
3.9535363338
 11
-5.1048560558
 21
6.8889282584
  0
LINE
  5
253
100
AcDbEntity
  8
RACCORDO
100
AcDbLine
 62
253
  6
CONTINUOUS
 10
5.224545713
 20
4.3161737908
 11
-9.5795987165
 21
11.7182460055
  0
LINE
  5
254
100
AcDbEntity
  8
ASSI
100
AcDbLine
 62
253
  6
CONTINUOUS
 10
5.224545713
 20
4.3161737908
 11
-9.5795987165
 21
11.7182460055
  0
LINE
  5
255
100
AcDbEntity
  8
RACCORDO
100
AcDbLine
 62
253
  6
CONTINUOUS
 10
5.3997809987
 20
4.6204604854
 11
-9.4043660194
 21
12.0225339944
  0
LINE
  5
256
100
AcDbEntity
  8
ASSI
100
AcDbLine
 62
253
  6
CONTINUOUS
 10
5.3997809987
 20
4.6204604854
 11
-9.4043660194
 21
12.0225339944
  0
LINE
  5
257
100
AcDbEntity
  8
DRAFT
100
AcDbLine
 62
7
  6
CONTINUOUS
 10
5.5651808739
 20
6.2901346187
 11
-6.1020810156
 21
12.1237655635
  0
LINE
  5
258
100
AcDbEntity
  8
ASSI
100
AcDbLine
 62
7
  6
CONTINUOUS
 10
5.5651808739
 20
6.2901346187
 11
-6.1020810156
 21
12.1237655635
  0
LINE
  5
259
100
AcDbEntity
  8
RACCORDO
100
AcDbLine
 62
7
  6
CONTINUOUS
 10
9.7371108829
 20
6.1317143701
 11
9.7371108829
 21
-4.9101672238
  0
LINE
  5
25A
100
AcDbEntity
  8
ASSI
100
AcDbLine
 62
7
  6
CONTINUOUS
 10
9.7371108829
 20
6.1317143701
 11
9.7371108829
 21
-4.9101672238
  0
LINE
  5
25B
100
AcDbEntity
  8
0
100
AcDbLine
 62
7
  6
CONTINUOUS
 10
9.1858150221
 20
-12.6243389914
 11
9.7371108829
 21
-4.9101672238
  0
LINE
  5
25C
100
AcDbEntity
  8
ASSI
100
AcDbLine
 62
7
  6
CONTINUOUS
 10
9.1858150221
 20
-12.6243389914
 11
9.7371108829
 21
-4.9101672238
  0
LINE
  5
25D
100
AcDbEntity
  8
RACCORDO
100
AcDbLine
 62
7
  6
CONTINUOUS
 10
9.5602803049
 20
6.4365783144
 11
7.8720926993
 21
7.2806721172
  0
LINE
  5
25E
100
AcDbEntity
  8
ASSI
100
AcDbLine
 62
7
  6
CONTINUOUS
 10
9.5602803049
 20
6.4365783144
 11
7.8720926993
 21
7.2806721172
  0
LINE
  5
25F
100
AcDbEntity
  8
RACCORDO
100
AcDbLine
 62
7
  6
CONTINUOUS
 10
-4.1663521538
 20
13.2998945438
 11
-5.8545397595
 21
14.1439883466
  0
LINE
  5
260
100
AcDbEntity
  8
ASSI
100
AcDbLine
 62
7
  6
CONTINUOUS
 10
-4.1663521538
 20
13.2998945438
 11
-5.8545397595
 21
14.1439883466
  0
LINE
  5
261
100
AcDbEntity
  8
0
100
AcDbLine
 62
253
  6
CONTINUOUS
 10
7.0477374628
 20
-13.4886294408
 11
9.1858150221
 21
-12.6243389914
  0
LINE
  5
262
100
AcDbEntity
  8
ASSI
100
AcDbLine
 62
253
  6
CONTINUOUS
 10
7.0477374628
 20
-13.4886294408
 11
9.1858150221
 21
-12.6243389914
  0
LINE
  5
263
100
AcDbEntity
  8
0
100
AcDbLine
 62
7
  6
CONTINUOUS
 10
6.8941256442
 20
-13.7693489694
 11
9.0167745742
 21
-12.9112953458
  0
LINE
  5
264
100
AcDbEntity
  8
ASSI
100
AcDbLine
 62
7
  6
CONTINUOUS
 10
9.0167745742
 20
-12.9112953458
 11
6.8934899653
 21
-13.7696046
  0
LINE
  5
265
100
AcDbEntity
  8
0
100
AcDbLine
 62
7
  6
CONTINUOUS
 10
6.8779791647
 20
-13.7756812417
 11
6.8941221833
 21
-13.7693503561
  0
LINE
  5
266
100
AcDbEntity
  8
ASSI
100
AcDbLine
 62
7
  6
CONTINUOUS
 10
6.8779791647
 20
-13.7756812417
 11
6.8934899611
 21
-13.7696045893
  0
LINE
  5
267
100
AcDbEntity
  8
0
100
AcDbLine
 62
7
  6
CONTINUOUS
 10
6.8559511743
 20
-13.7837581917
 11
6.8779791647
 21
-13.7756812417
  0
ARC
  5
268
100
AcDbEntity
  8
RACCORDO
100
AcDbCircle
 62
253
  6
CONTINUOUS
 10
533.6860476895
 20
12.0477610986
 40
543.2657495646
100
AcDbArc
 50
180.0347524677
 51
180.8626676024
  0
ARC
  5
269
100
AcDbEntity
  8
ASSI
100
AcDbCircle
 62
253
  6
CONTINUOUS
 10
533.6860476895
 20
12.0477610986
 40
543.2657495646
100
AcDbArc
 50
180.0347524677
 51
180.8626676024
  0
ARC
  5
26A
100
AcDbEntity
  8
0
100
AcDbCircle
 62
7
  6
CONTINUOUS
 10
519.1909076737
 20
9.9496754153
 40
524.5858329006
100
AcDbArc
 50
180.3564848358
 51
180.488709561
  0
ARC
  5
26B
100
AcDbEntity
  8
RACCORDO
100
AcDbCircle
 62
7
  6
CONTINUOUS
 10
525.5242896776
 20
6.7316079997
 40
524.4845405927
100
AcDbArc
 50
180.3564737649
 51
180.4887240263
  0
ARC
  5
26C
100
AcDbEntity
  8
ASSI
100
AcDbCircle
 62
7
  6
CONTINUOUS
 10
525.5242896776
 20
6.7316079997
 40
524.4845405927
100
AcDbArc
 50
180.3564737649
 51
180.4887240263
  0
ARC
  5
26D
100
AcDbEntity
  8
RACCORDO
100
AcDbCircle
 62
253
  6
CONTINUOUS
 10
511.0830716269
 20
4.6369892865
 40
505.8586143969
100
AcDbArc
 50
180.0363369806
 51
180.9257317565
  0
ARC
  5
26E
100
AcDbEntity
  8
ASSI
100
AcDbCircle
 62
253
  6
CONTINUOUS
 10
511.0830716269
 20
4.6369892865
 40
505.8586143969
100
AcDbArc
 50
180.0363369806
 51
180.9257317565
  0
ARC
  5
26F
100
AcDbEntity
  8
RACCORDO
100
AcDbCircle
 62
253
  6
CONTINUOUS
 10
511.2224764456
 20
4.6305267082
 40
505.3034641267
100
AcDbArc
 50
180.0361052216
 51
180.9257740598
  0
ARC
  5
270
100
AcDbEntity
  8
ASSI
100
AcDbCircle
 62
253
  6
CONTINUOUS
 10
511.2224764456
 20
4.6305267082
 40
505.3034641267
100
AcDbArc
 50
180.0361052216
 51
180.9257740598
  0
ARC
  5
271
100
AcDbEntity
  8
0
100
AcDbCircle
 62
7
  6
CONTINUOUS
 10
0.6106370792
 20
3.4656276789
 40
0.439272286
100
AcDbArc
 50
0.3713343587
 51
3.0207856875
  0
ARC
  5
272
100
AcDbEntity
  8
0
100
AcDbCircle
 62
7
  6
CONTINUOUS
 10
0.6494667666
 20
2.2542700671
 40
0.4093785016
100
AcDbArc
 50
357.7290130548
 51
0.5068209702
  0
ARC
  5
273
100
AcDbEntity
  8
0
100
AcDbCircle
 62
253
  6
CONTINUOUS
 10
6.4448179732
 20
-13.407065841
 40
0.388964861
100
AcDbArc
 50
235.3376941519
 51
243.3033768423
  0
ARC
  5
274
100
AcDbEntity
  8
0
100
AcDbCircle
 62
253
  6
CONTINUOUS
 10
6.4444609665
 20
-13.4077443457
 40
0.3881982955
100
AcDbArc
 50
243.3054608345
 51
243.4335835096
  0
ARC
  5
275
100
AcDbEntity
  8
0
100
AcDbCircle
 62
253
  6
CONTINUOUS
 10
-8.4297547537
 20
-5.9924048387
 40
0.3687510883
100
AcDbArc
 50
235.0937080222
 51
237.0589444559
  0
ARC
  5
276
100
AcDbEntity
  8
0
100
AcDbCircle
 62
253
  6
CONTINUOUS
 10
-8.4327328488
 20
-5.9971971875
 40
0.3631098025
100
AcDbArc
 50
237.0421150118
 51
243.4346266922
  0
ARC
  5
277
100
AcDbEntity
  8
ASSI
100
AcDbCircle
 62
253
  6
CONTINUOUS
 10
-8.4327328488
 20
-5.9971971875
 40
0.3631098025
100
AcDbArc
 50
237.0421150118
 51
243.4346266922
  0
ARC
  5
278
100
AcDbEntity
  8
0
100
AcDbCircle
 62
7
  6
CONTINUOUS
 10
0.6138326445
 20
3.6496321136
 40
0.3398392404
100
AcDbArc
 50
60.2657070727
 51
63.4133789192
  0
ARC
  5
279
100
AcDbEntity
  8
0
100
AcDbCircle
 62
7
  6
CONTINUOUS
 10
-5.2444576607
 20
6.6100271369
 40
0.3118885116
100
AcDbArc
 50
63.4101305226
 51
66.7432273266
  0
ARC
  5
27A
100
AcDbEntity
  8
0
100
AcDbCircle
 62
253
  6
CONTINUOUS
 10
-8.8167173767
 20
-5.7101676276
 40
0.173797958
100
AcDbArc
 50
187.2298840299
 51
187.3639784985
  0
ARC
  5
27B
100
AcDbEntity
  8
0
100
AcDbCircle
 62
253
  6
CONTINUOUS
 10
-8.8168932004
 20
-5.7101913376
 40
0.1736205455
100
AcDbArc
 50
187.3636554946
 51
189.280610629
  0
ARC
  5
27C
100
AcDbEntity
  8
RACCORDO
100
AcDbCircle
 62
7
  6
CONTINUOUS
 10
-5.2144851797
 20
6.7649578705
 40
0.1520395851
100
AcDbArc
 50
125.5040224764
 51
131.3670801136
  0
ARC
  5
27D
100
AcDbEntity
  8
ASSI
100
AcDbCircle
 62
7
  6
CONTINUOUS
 10
-5.2144851797
 20
6.7649578705
 40
0.1520395851
100
AcDbArc
 50
125.5040224762
 51
131.3670801137
  0
ARC
  5
27E
100
AcDbEntity
  8
0
100
AcDbCircle
 62
7
  6
CONTINUOUS
 10
0.8914905358
 20
2.176428873
 40
0.1488190549
100
AcDbArc
 50
287.795154196
 51
289.6181607911
  0
SPLINE
  5
27F
100
AcDbEntity
  8
0
100
AcDbSpline
 62
7
  6
CONTINUOUS
 70
0
 71
3
 72
14
 73
10
 74
8
 42
0.0000001
 43
0.0000001
 44
0.0000000001
 12
-0.1542207178
 22
-0.0495065853
 32
0.0
 13
-0.144755623
 23
0.0723778115
 33
0.0
 40
0.0
 40
0.0
 40
0.0
 40
0.0
 40
0.1023200679
 40
0.2374372834
 40
0.376996687
 40
0.5218828048
 40
0.6739155465
 40
0.8334144111
 40
1.0
 40
1.0
 40
1.0
 40
1.0
 10
0.9369718381
 20
2.0347300295
 30
0.0
 10
0.93171188
 20
2.0330415238
 30
0.0
 10
0.9192891369
 20
2.0297983074
 30
0.0
 10
0.8990684028
 20
2.0271051098
 30
0.0
 10
0.8763747759
 20
2.0270555606
 30
0.0
 10
0.8529409128
 20
2.0298412271
 30
0.0
 10
0.8289159181
 20
2.0354405733
 30
0.0
 10
0.8044797428
 20
2.0438164241
 30
0.0
 10
0.7884108659
 20
2.0510402244
 30
0.0
 10
0.780372799
 20
2.0550592579
 30
0.0
 11
0.9369718381
 21
2.0347300295
 31
0.0
 11
0.9209470485
 21
2.030533579
 31
0.0
 11
0.8992765973
 21
2.0276038161
 31
0.0
 11
0.876690298
 21
2.0275012803
 31
0.0
 11
0.8533988618
 21
2.0302117451
 31
0.0
 11
0.8294223645
 21
2.0357385281
 31
0.0
 11
0.80498478
 21
2.044053862
 31
0.0
 11
0.780372799
 21
2.0550592579
 31
0.0
  0
SPLINE
  5
280
100
AcDbEntity
  8
0
100
AcDbSpline
 62
7
  6
CONTINUOUS
 70
0
 71
3
 72
17
 73
13
 74
11
 42
0.0000001
 43
0.0000001
 44
0.0000000001
 12
-0.0014136376
 22
0.227185663
 32
0.0
 13
0.1851112433
 23
0.1320421938
 33
0.0
 40
0.0
 40
0.0
 40
0.0
 40
0.0
 40
0.1300572035
 40
0.2552847793
 40
0.3750093211
 40
0.4890287605
 40
0.5982816005
 40
0.7029314772
 40
0.8031622927
 40
0.8998537876
 40
0.9944866023
 40
1.0
 40
1.0
 40
1.0
 40
1.0
 10
-5.384771569
 20
6.6858104402
 30
0.0
 10
-5.3848328536
 20
6.6956594842
 30
0.0
 10
-5.3842801154
 20
6.7150047782
 30
0.0
 10
-5.381294322
 20
6.7432760887
 30
0.0
 10
-5.3761912569
 20
6.7700129741
 30
0.0
 10
-5.3690157682
 20
6.79501775
 30
0.0
 10
-5.3598132338
 20
6.8181316502
 30
0.0
 10
-5.3486347025
 20
6.8391894317
 30
0.0
 10
-5.3355762287
 20
6.8579966061
 30
0.0
 10
-5.3207273362
 20
6.8744238735
 30
0.0
 10
-5.3092848314
 20
6.8840531398
 30
0.0
 10
-5.3031239031
 20
6.8884867903
 30
0.0
 10
-5.3027837058
 20
6.8887294574
 30
0.0
 11
-5.384771569
 21
6.6858104402
 31
0.0
 11
-5.3838855734
 21
6.7153448578
 31
0.0
 11
-5.3808501314
 21
6.743632926
 31
0.0
 11
-5.3756990306
 21
6.7703409483
 31
0.0
 11
-5.3685001263
 21
6.7952246239
 31
0.0
 11
-5.3592643115
 21
6.8182634971
 31
0.0
 11
-5.3480649996
 21
6.8392359939
 31
0.0
 11
-5.3350337874
 21
6.8579102066
 31
0.0
 11
-5.3202705695
 21
6.8741770968
 31
0.0
 11
-5.303801236
 21
6.8879972037
 31
0.0
 11
-5.3027837058
 21
6.8887294574
 31
0.0
  0
SPLINE
  5
281
100
AcDbEntity
  8
0
100
AcDbSpline
 62
7
  6
CONTINUOUS
 70
0
 71
3
 72
25
 73
21
 74
19
 42
0.0000001
 43
0.0000001
 44
0.0000000001
 12
-0.5245274336
 22
0.2622637168
 32
0.0
 13
-0.0050025685
 23
0.5864181615
 33
0.0
 40
0.0
 40
0.0
 40
0.0
 40
0.0
 40
0.0480002932
 40
0.0980590819
 40
0.1498717826
 40
0.2031749175
 40
0.2581430781
 40
0.3144923273
 40
0.3717784855
 40
0.4297960057
 40
0.4886066784
 40
0.5477370808
 40
0.6067006057
 40
0.6655412348
 40
0.7240391648
 40
0.7817066167
 40
0.8381979445
 40
0.893647016
 40
0.9477181013
 40
1.0
 40
1.0
 40
1.0
 40
1.0
 10
-5.0912984309
 20
4.9908948728
 30
0.0
 10
-5.0996909211
 20
4.9950911179
 30
0.0
 10
-5.11647337
 20
5.0044046879
 30
0.0
 10
-5.1409312295
 20
5.0205793176
 30
0.0
 10
-5.1649843143
 20
5.0391016257
 30
0.0
 10
-5.1884615238
 20
5.0598246506
 30
0.0
 10
-5.2112133839
 20
5.0826108119
 30
0.0
 10
-5.2330753875
 20
5.1073001935
 30
0.0
 10
-5.2538547561
 20
5.1336691667
 30
0.0
 10
-5.2734204
 20
5.161539806
 30
0.0
 10
-5.2916429166
 20
5.1907320403
 30
0.0
 10
-5.3083728501
 20
5.2210157081
 30
0.0
 10
-5.3234794587
 20
5.2521472931
 30
0.0
 10
-5.3368647924
 20
5.2839230237
 30
0.0
 10
-5.3484327036
 20
5.3161360474
 30
0.0
 10
-5.3580747685
 20
5.3484988022
 30
0.0
 10
-5.3657240853
 20
5.3807781755
 30
0.0
 10
-5.3713261957
 20
5.4127635786
 30
0.0
 10
-5.3748282228
 20
5.4442187997
 30
0.0
 10
-5.3757552753
 20
5.4650074265
 30
0.0
 10
-5.3758424566
 20
5.4752271115
 30
0.0
 11
-5.0912984309
 21
4.9908948728
 31
0.0
 11
-5.1159341667
 21
5.0045133089
 31
0.0
 11
-5.1404436588
 21
5.0206714652
 31
0.0
 11
-5.1645400111
 21
5.0391813246
 31
0.0
 11
-5.1879956573
 21
5.0598443768
 31
0.0
 11
-5.2107906293
 21
5.0826372868
 31
0.0
 11
-5.2327133035
 21
5.10736372
 31
0.0
 11
-5.2535191145
 21
5.1337404757
 31
0.0
 11
-5.2730774109
 21
5.1615809078
 31
0.0
 11
-5.2913461378
 21
5.1908339066
 31
0.0
 11
-5.308116522
 21
5.2211853016
 31
0.0
 11
-5.323210854
 21
5.2522953734
 31
0.0
 11
-5.3366009819
 21
5.2840979029
 31
0.0
 11
-5.3481855121
 21
5.3163882384
 31
0.0
 11
-5.357827431
 21
5.3488030871
 31
0.0
 11
-5.3654473839
 21
5.3810435916
 31
0.0
 11
-5.3710329686
 21
5.4130778033
 31
0.0
 11
-5.3745115758
 21
5.4445958397
 31
0.0
 11
-5.3758424566
 21
5.4752271115
 31
0.0
  0
SPLINE
  5
282
100
AcDbEntity
  8
0
100
AcDbSpline
 62
7
  6
CONTINUOUS
 70
0
 71
3
 72
16
 73
12
 74
10
 42
0.0000001
 43
0.0000001
 44
0.0000000001
 12
0.1548355564
 22
0.110446163
 32
0.0
 13
0.1746969933
 23
-0.0749889637
 33
0.0
 40
0.0
 40
0.0
 40
0.0
 40
0.0
 40
0.1049978016
 40
0.2160721982
 40
0.3286658053
 40
0.4442432496
 40
0.5635640949
 40
0.6873708907
 40
0.8172089711
 40
0.9533450901
 40
1.0
 40
1.0
 40
1.0
 40
1.0
 10
-5.3027837058
 20
6.8887294574
 30
0.0
 10
-5.2973645748
 20
6.8925949921
 30
0.0
 10
-5.2856817679
 20
6.8998078364
 30
0.0
 10
-5.2665490639
 20
6.9081957046
 30
0.0
 10
-5.2457740923
 20
6.9139602433
 30
0.0
 10
-5.2238911354
 20
6.9168863519
 30
0.0
 10
-5.2011098116
 20
6.9169517877
 30
0.0
 10
-5.1775959347
 20
6.9141734972
 30
0.0
 10
-5.1535012216
 20
6.9085732504
 30
0.0
 10
-5.1347370687
 20
6.902150138
 30
0.0
 10
-5.1240245389
 20
6.897739206
 30
0.0
 10
-5.1213077147
 20
6.8965730049
 30
0.0
 11
-5.3027837058
 21
6.8887294574
 31
0.0
 11
-5.2857988733
 21
6.8992039186
 31
0.0
 11
-5.2664706148
 21
6.9076864885
 31
0.0
 11
-5.2458604076
 21
6.913433299
 31
0.0
 11
-5.2240963973
 21
6.9163863401
 31
0.0
 11
-5.2014218985
 21
6.9165040653
 31
0.0
 11
-5.1780504906
 21
6.913800331
 31
0.0
 11
-5.1540043457
 21
6.9082721787
 31
0.0
 11
-5.129509844
 21
6.8999481694
 31
0.0
 11
-5.1213077147
 21
6.8965730049
 31
0.0
  0
LINE
  5
283
100
AcDbEntity
  8
0
100
AcDbLine
 62
7
  6
CONTINUOUS
 10
1.0499001398
 20
3.4684745858
 11
1.0510472919
 21
3.2890411113
  0
LINE
  5
284
100
AcDbEntity
  8
0
100
AcDbLine
 62
7
  6
CONTINUOUS
 10
1.0510472919
 20
3.2890411113
 11
1.0513436301
 21
3.2441871324
  0
LINE
  5
285
100
AcDbEntity
  8
0
100
AcDbLine
 62
7
  6
CONTINUOUS
 10
1.0513436301
 20
3.2441871324
 11
1.0538518142
 21
2.8854254416
  0
LINE
  5
286
100
AcDbEntity
  8
0
100
AcDbLine
 62
7
  6
CONTINUOUS
 10
1.0538518142
 20
2.8854254416
 11
1.0541825222
 21
2.8405889881
  0
LINE
  5
287
100
AcDbEntity
  8
0
100
AcDbLine
 62
7
  6
CONTINUOUS
 10
1.0541825222
 20
2.8405889881
 11
1.0569656622
 21
2.4819678399
  0
LINE
  5
288
100
AcDbEntity
  8
0
100
AcDbLine
 62
7
  6
CONTINUOUS
 10
1.0569656622
 20
2.4819678399
 11
1.0573307393
 21
2.4371489951
  0
LINE
  5
289
100
AcDbEntity
  8
0
100
AcDbLine
 62
7
  6
CONTINUOUS
 10
1.0573307393
 20
2.4371489951
 11
1.0588292522
 21
2.2578912571
  0
SPLINE
  5
28A
100
AcDbEntity
  8
0
100
AcDbSpline
 62
7
  6
CONTINUOUS
 70
0
 71
3
 72
25
 73
21
 74
19
 42
0.0000001
 43
0.0000001
 44
0.0000000001
 12
0.4760651431
 22
-0.2716862358
 32
0.0
 13
0.028742675
 23
-0.5473191178
 33
0.0
 40
0.0
 40
0.0
 40
0.0
 40
0.0
 40
0.0173798543
 40
0.0710354597
 40
0.1265740146
 40
0.183712675
 40
0.2426367666
 40
0.3030389801
 40
0.3644410988
 40
0.4266233133
 40
0.4896463532
 40
0.5529995242
 40
0.6161603136
 40
0.6791775961
 40
0.7418114536
 40
0.8035396236
 40
0.8639953254
 40
0.9233222358
 40
0.981159128
 40
1.0
 40
1.0
 40
1.0
 40
1.0
 10
0.7823855934
 20
3.9447263575
 30
0.0
 10
0.7851435744
 20
3.9431524018
 30
0.0
 10
0.796329933
 20
3.9365674344
 30
0.0
 10
0.8156237913
 20
3.9237957997
 30
0.0
 10
0.8397001205
 20
3.9052282046
 30
0.0
 10
0.8631935229
 20
3.8844501225
 30
0.0
 10
0.8859530238
 20
3.8616008612
 30
0.0
 10
0.9078128222
 20
3.8368426037
 30
0.0
 10
0.9285796264
 20
3.8104012766
 30
0.0
 10
0.9481219162
 20
3.7824573818
 30
0.0
 10
0.966310112
 20
3.7531938101
 30
0.0
 10
0.9829949488
 20
3.7228439668
 30
0.0
 10
0.9980469265
 20
3.6916534327
 30
0.0
 10
1.0113693595
 20
3.6598279585
 30
0.0
 10
1.0228676564
 20
3.6275760131
 30
0.0
 10
1.0324354109
 20
3.5951864491
 30
0.0
 10
1.0400078865
 20
3.5628925
 30
0.0
 10
1.045532569
 20
3.5309049482
 30
0.0
 10
1.0482248193
 20
3.5061949213
 30
0.0
 10
1.0491184764
 20
3.4922138759
 30
0.0
 10
1.0492989888
 20
3.4887765528
 30
0.0
 11
0.7823855934
 21
3.9447263575
 31
0.0
 11
0.7905959343
 21
3.9398953063
 31
0.0
 11
0.8151341933
 21
3.9237029833
 31
0.0
 11
0.8392538612
 21
3.9051480122
 31
0.0
 11
0.8627259512
 21
3.8844300237
 31
0.0
 11
0.8855290026
 21
3.8615737857
 31
0.0
 11
0.9074497823
 21
3.8367782407
 31
0.0
 11
0.9282430267
 21
3.8103293172
 31
0.0
 11
0.9477786224
 21
3.7824150057
 31
0.0
 11
0.9660133272
 21
3.7530901021
 31
0.0
 11
0.9827386522
 21
3.7226722878
 31
0.0
 11
0.997778279
 21
3.6915036746
 31
0.0
 11
1.011105791
 21
3.6596506686
 31
0.0
 11
1.0226205537
 21
3.6273213822
 31
0.0
 11
1.0321878876
 21
3.5948803025
 31
0.0
 11
1.0397310827
 21
3.5626253706
 31
0.0
 11
1.0452391918
 21
3.5305887009
 31
0.0
 11
1.04864162
 21
3.4990815704
 31
0.0
 11
1.0492989888
 21
3.4887765528
 31
0.0
  0
SPLINE
  5
28B
100
AcDbEntity
  8
0
100
AcDbSpline
 62
7
  6
CONTINUOUS
 70
0
 71
3
 72
18
 73
14
 74
12
 42
0.0000001
 43
0.0000001
 44
0.0000000001
 12
-0.0099005647
 22
-0.2476557594
 32
0.0
 13
-0.2335873972
 23
-0.0832697719
 33
0.0
 40
0.0
 40
0.0
 40
0.0
 40
0.0
 40
0.0392494446
 40
0.1540753989
 40
0.2637785377
 40
0.3681814313
 40
0.4681473846
 40
0.5638276364
 40
0.6554002396
 40
0.7436879507
 40
0.8300547987
 40
0.9152162534
 40
1.0
 40
1.0
 40
1.0
 40
1.0
 10
1.0585237378
 20
2.2380481075
 30
0.0
 10
1.0583942072
 20
2.2348079905
 30
0.0
 10
1.0577285931
 20
2.2220948414
 30
0.0
 10
1.0554939216
 20
2.200400913
 30
0.0
 10
1.0504661383
 20
2.1736673217
 30
0.0
 10
1.043368984
 20
2.1486763698
 30
0.0
 10
1.0342481813
 20
2.1255852999
 30
0.0
 10
1.0231550687
 20
2.1045578741
 30
0.0
 10
1.010185491
 20
2.0857864409
 30
0.0
 10
0.9954286074
 20
2.0693981364
 30
0.0
 10
0.9789751953
 20
2.0555125336
 30
0.0
 10
0.9609563249
 20
2.0442607392
 30
0.0
 10
0.9480580278
 20
2.0386019114
 30
0.0
 10
0.9414565562
 20
2.0362486036
 30
0.0
 11
1.0585237378
 21
2.2380481075
 31
0.0
 11
1.0580135769
 21
2.2283335446
 31
0.0
 11
1.0550504194
 21
2.2000365026
 31
0.0
 11
1.0499741172
 21
2.1733322826
 31
0.0
 11
1.0428526848
 21
2.1484626902
 31
0.0
 11
1.0336977998
 21
2.1254468795
 31
0.0
 11
1.0225834478
 21
2.1045057367
 31
0.0
 11
1.0096411039
 21
2.085868883
 31
0.0
 11
0.9949696744
 21
2.069641998
 31
0.0
 11
0.9785956117
 21
2.0558632024
 31
0.0
 11
0.9606909485
 21
2.0446965536
 31
0.0
 11
0.9414565562
 21
2.0362486036
 31
0.0
  0
SPLINE
  5
28C
100
AcDbEntity
  8
RACCORDO
100
AcDbSpline
 62
7
  6
CONTINUOUS
 70
0
 71
3
 72
16
 73
12
 74
10
 42
0.0000001
 43
0.0000001
 44
0.0000000001
 12
0.1696147045
 22
0.1209883165
 32
0.0
 13
0.1861936725
 23
-0.0930968362
 33
0.0
 40
0.0
 40
0.0
 40
0.0
 40
0.0
 40
0.0958690123
 40
0.1972796348
 40
0.3000767723
 40
0.4055993299
 40
0.5145435844
 40
0.6275877901
 40
0.7461181251
 40
0.8703585636
 40
1.0
 40
1.0
 40
1.0
 40
1.0
 10
-5.3027837058
 20
6.8887294574
 30
0.0
 10
-5.2973634411
 20
6.8925958009
 30
0.0
 10
-5.2856784722
 20
6.8998097536
 30
0.0
 10
-5.2665423159
 20
6.9081982502
 30
0.0
 10
-5.2457640139
 20
6.9139624318
 30
0.0
 10
-5.2238773673
 20
6.9168874171
 30
0.0
 10
-5.2010917716
 20
6.9169508918
 30
0.0
 10
-5.177574648
 20
6.9141698289
 30
0.0
 10
-5.1534807162
 20
6.9085672016
 30
0.0
 10
-5.1289954761
 20
6.9001836409
 30
0.0
 10
-5.1129021942
 20
6.8929513276
 30
0.0
 10
-5.1048560558
 20
6.8889282584
 30
0.0
 11
-5.3027837058
 21
6.8887294574
 31
0.0
 11
-5.2857951771
 21
6.8992058668
 31
0.0
 11
-5.266463825
 21
6.9076889084
 31
0.0
 11
-5.2458504457
 21
6.9134353459
 31
0.0
 11
-5.2240829701
 21
6.9163872666
 31
0.0
 11
-5.2014042473
 21
6.9165030704
 31
0.0
 11
-5.1780279132
 21
6.9137964154
 31
0.0
 11
-5.1539812127
 21
6.9082655783
 31
0.0
 11
-5.1294939928
 21
6.8999419281
 31
0.0
 11
-5.1048560558
 21
6.8889282584
 31
0.0
  0
SPLINE
  5
28D
100
AcDbEntity
  8
RACCORDO
100
AcDbSpline
 62
7
  6
CONTINUOUS
 70
0
 71
3
 72
19
 73
15
 74
13
 42
0.0000001
 43
0.0000001
 44
0.0000000001
 12
0.0023233124
 22
-0.2723466015
 32
0.0
 13
-0.2595315173
 23
-0.0833125346
 33
0.0
 40
0.0
 40
0.0
 40
0.0
 40
0.0
 40
0.1085012282
 40
0.2129420887
 40
0.312754366
 40
0.4077593882
 40
0.4987226518
 40
0.5857825686
 40
0.6691038925
 40
0.7494370233
 40
0.8280230385
 40
0.9055121163
 40
0.9826399433
 40
1.0
 40
1.0
 40
1.0
 40
1.0
 10
1.0588292522
 20
2.2578912571
 30
0.0
 10
1.0589132796
 20
2.2480412769
 30
0.0
 10
1.0584076267
 20
2.2286954896
 30
0.0
 10
1.0554969278
 20
2.200422411
 30
0.0
 10
1.05047106
 20
2.1736879205
 30
0.0
 10
1.0433745196
 20
2.1486922981
 30
0.0
 10
1.034253328
 20
2.1255962194
 30
0.0
 10
1.0231594572
 20
2.1045649042
 30
0.0
 10
1.0101886936
 20
2.0857902971
 30
0.0
 10
0.9954300073
 20
2.0693992905
 30
0.0
 10
0.9789741269
 20
2.0555115599
 30
0.0
 10
0.9609536086
 20
2.0442592588
 30
0.0
 10
0.9466064009
 20
2.037965213
 30
0.0
 10
0.938473666
 20
2.0352121326
 30
0.0
 10
0.9369718387
 20
2.0347300292
 30
0.0
 11
1.0588292522
 21
2.2578912571
 31
0.0
 11
1.0580147457
 21
2.2283514683
 31
0.0
 11
1.0550539763
 21
2.2000608283
 31
0.0
 11
1.0499792957
 21
2.1733541636
 31
0.0
 11
1.042857949
 21
2.1484781856
 31
0.0
 11
1.0337026783
 21
2.1254574612
 31
0.0
 11
1.0225876681
 21
2.1045126775
 31
0.0
 11
1.0096442235
 21
2.0858728208
 31
0.0
 11
0.9949709976
 21
2.0696432775
 31
0.0
 11
0.978594431
 21
2.0558623431
 31
0.0
 11
0.9606868115
 21
2.0446943701
 31
0.0
 11
0.9414536447
 21
2.0362475659
 31
0.0
 11
0.9369718387
 21
2.0347300292
 31
0.0
  0
SPLINE
  5
28E
100
AcDbEntity
  8
RACCORDO
100
AcDbSpline
 62
7
  6
CONTINUOUS
 70
0
 71
3
 72
25
 73
21
 74
19
 42
0.0000001
 43
0.0000001
 44
0.0000000001
 12
0.524939942
 22
-0.262469971
 32
0.0
 13
0.0036518538
 23
-0.5868893357
 33
0.0
 40
0.0
 40
0.0
 40
0.0
 40
0.0
 40
0.0480002896
 40
0.0980777546
 40
0.1499276073
 40
0.2032806204
 40
0.2582997211
 40
0.3146977562
 40
0.3720294192
 40
0.4300903448
 40
0.4889371177
 40
0.5480921557
 40
0.6070668692
 40
0.6659068303
 40
0.7243887663
 40
0.7820262864
 40
0.838476684
 40
0.8938625151
 40
0.9478403938
 40
1.0
 40
1.0
 40
1.0
 40
1.0
 10
0.7659277935
 20
3.9535363338
 30
0.0
 10
0.7743268832
 20
3.9493367889
 30
0.0
 10
0.7911247224
 20
3.9400120021
 30
0.0
 10
0.8156049285
 20
3.9238092035
 30
0.0
 10
0.8396813463
 20
3.9052438294
 30
0.0
 10
0.8631781803
 20
3.8844647548
 30
0.0
 10
0.8859418038
 20
3.8616129734
 30
0.0
 10
0.9078051136
 20
3.8368519944
 30
0.0
 10
0.9285750649
 20
3.810407574
 30
0.0
 10
0.9481203303
 20
3.7824599523
 30
0.0
 10
0.9663112571
 20
3.753192039
 30
0.0
 10
0.9829983619
 20
3.7228375451
 30
0.0
 10
0.9980519931
 20
3.6916423835
 30
0.0
 10
1.0113754802
 20
3.6598123839
 30
0.0
 10
1.0228743651
 20
3.6275557238
 30
0.0
 10
1.0324422734
 20
3.5951609782
 30
0.0
 10
1.0400138713
 20
3.5628634341
 30
0.0
 10
1.045536344
 20
3.5308774782
 30
0.0
 10
1.0489595271
 20
3.4994434494
 30
0.0
 10
1.0498366467
 20
3.4786785581
 30
0.0
 10
1.0499001398
 20
3.4684745859
 30
0.0
 11
0.7659277935
 21
3.9535363338
 31
0.0
 11
0.7905812526
 21
3.9399042054
 31
0.0
 11
0.815113075
 21
3.9237180654
 31
0.0
 11
0.8392336332
 21
3.905164708
 31
0.0
 11
0.862710635
 21
3.884444443
 31
0.0
 11
0.8855178475
 21
3.8615856701
 31
0.0
 11
0.9074419928
 21
3.8367875873
 31
0.0
 11
0.9282382835
 21
3.8103357117
 31
0.0
 11
0.9477768675
 21
3.7824176645
 31
0.0
 11
0.9660143851
 21
3.7530882942
 31
0.0
 11
0.9827420478
 21
3.7226657028
 31
0.0
 11
0.9977833285
 21
3.6914924576
 31
0.0
 11
1.0111118337
 21
3.6596350593
 31
0.0
 11
1.0226270952
 21
3.6273012814
 31
0.0
 11
1.0321945841
 21
3.5948549724
 31
0.0
 11
1.0397374033
 21
3.5625942485
 31
0.0
 11
1.0452434991
 21
3.5305579904
 31
0.0
 11
1.0486431407
 21
3.499061277
 31
0.0
 11
1.0499001398
 21
3.4684745859
 31
0.0
  0
SPLINE
  5
28F
100
AcDbEntity
  8
0
100
AcDbSpline
 62
253
  6
CONTINUOUS
 70
0
 71
3
 72
17
 73
13
 74
11
 42
0.0000001
 43
0.0000001
 44
0.0000000001
 12
0.0036245442
 22
-0.2417804495
 32
0.0
 13
0.2159671725
 23
-0.1081563273
 33
0.0
 40
0.0
 40
0.0
 40
0.0
 40
0.0
 40
0.0103943541
 40
0.1011450801
 40
0.1939167887
 40
0.2903486394
 40
0.3918036089
 40
0.4993198327
 40
0.6136097523
 40
0.7350873343
 40
0.8639064207
 40
1.0
 40
1.0
 40
1.0
 40
1.0
 10
-9.6645656457
 20
4.0458744167
 30
0.0
 10
-9.6645530874
 20
4.0450366995
 30
0.0
 10
-9.6643524765
 20
4.0368862974
 30
0.0
 10
-9.6624996445
 20
4.0213111111
 30
0.0
 10
-9.6561974446
 20
3.9995712568
 30
0.0
 10
-9.6462854051
 20
3.9782798224
 30
0.0
 10
-9.632863784
 20
3.9575919523
 30
0.0
 10
-9.6160499776
 20
3.9376473402
 30
0.0
 10
-9.5959765094
 20
3.9185769327
 30
0.0
 10
-9.5727919142
 20
3.9005063203
 30
0.0
 10
-9.5466654131
 20
3.8835578181
 30
0.0
 10
-9.5279095769
 20
3.8733557908
 30
0.0
 10
-9.5181123284
 20
3.8684493302
 30
0.0
 11
-9.6645656457
 21
4.0458744167
 31
0.0
 11
-9.6645037674
 21
4.0433617987
 31
0.0
 11
-9.6619375114
 21
4.0215929786
 31
0.0
 11
-9.6557526064
 21
4.0000557537
 31
0.0
 11
-9.6459940561
 21
3.978906837
 31
0.0
 11
-9.6327328674
 21
3.9583001159
 31
0.0
 11
-9.6160655337
 21
3.9383855327
 31
0.0
 11
-9.5961133327
 21
3.9193079934
 31
0.0
 11
-9.5730214441
 21
3.9012063134
 31
0.0
 11
-9.5469578933
 21
3.8842122071
 31
0.0
 11
-9.5181123284
 21
3.8684493302
 31
0.0
  0
SPLINE
  5
290
100
AcDbEntity
  8
0
100
AcDbSpline
 62
253
  6
CONTINUOUS
 70
0
 71
3
 72
10
 73
6
 74
4
 42
0.0000001
 43
0.0000001
 44
0.0000000001
 12
0.0074485003
 22
-0.0455801443
 32
0.0
 13
0.0188271118
 23
-0.0421704433
 33
0.0
 40
0.0
 40
0.0
 40
0.0
 40
0.0
 40
0.0823660372
 40
0.6298019949
 40
1.0
 40
1.0
 40
1.0
 40
1.0
 10
-8.9882411134
 20
-5.7381910972
 30
0.0
 10
-8.9880366122
 20
-5.7394425158
 30
0.0
 10
-8.986367976
 20
-5.7489941183
 30
0.0
 10
-8.9824467688
 20
-5.7639225805
 30
0.0
 10
-8.9772714909
 20
-5.7770820092
 30
0.0
 10
-8.9749482378
 20
-5.7822858139
 30
0.0
 11
-8.9882411134
 21
-5.7381910972
 31
0.0
 11
-8.9875864618
 21
-5.74193829
 31
0.0
 11
-8.9811905122
 21
-5.7663764857
 31
0.0
 11
-8.9749482378
 21
-5.7822858139
 31
0.0
  0
SPLINE
  5
291
100
AcDbEntity
  8
0
100
AcDbSpline
 62
253
  6
CONTINUOUS
 70
0
 71
3
 72
14
 73
10
 74
8
 42
0.0000001
 43
0.0000001
 44
0.0000000001
 12
0.0759880624
 22
-0.1702040287
 32
0.0
 13
0.1662134973
 23
-0.084024983
 33
0.0
 40
0.0
 40
0.0
 40
0.0
 40
0.0
 40
0.0464367482
 40
0.188742367
 40
0.3365678636
 40
0.4909883586
 40
0.6527687187
 40
0.8223750858
 40
1.0
 40
1.0
 40
1.0
 40
1.0
 10
-8.9749482378
 20
-5.7822858139
 30
0.0
 10
-8.973772025
 20
-5.7849203878
 30
0.0
 10
-8.9687460535
 20
-5.7955191731
 30
0.0
 10
-8.9580874168
 20
-5.813559772
 30
0.0
 10
-8.9411376343
 20
-5.8354249612
 30
0.0
 10
-8.9209378109
 20
-5.8560456171
 30
0.0
 10
-8.8976419933
 20
-5.875281051
 30
0.0
 10
-8.8714251451
 20
-5.8929991576
 30
0.0
 10
-8.8525549405
 20
-5.9034808939
 30
0.0
 10
-8.8427137211
 20
-5.9084558707
 30
0.0
 11
-8.9749482378
 21
-5.7822858139
 31
0.0
 11
-8.9712413405
 21
-5.790106509
 31
0.0
 11
-8.9578113769
 21
-5.8129556051
 31
0.0
 11
-8.9409983917
 21
-5.8347574321
 31
0.0
 11
-8.9209247835
 21
-5.8553532726
 31
0.0
 11
-8.8977366885
 21
-5.8745931886
 31
0.0
 11
-8.8716029163
 21
-5.8923371133
 31
0.0
 11
-8.8427137211
 21
-5.9084558707
 31
0.0
  0
SPLINE
  5
292
100
AcDbEntity
  8
0
100
AcDbSpline
 62
253
  6
CONTINUOUS
 70
0
 71
3
 72
16
 73
12
 74
10
 42
0.0000001
 43
0.0000001
 44
0.0000000001
 12
-0.3681161601
 22
0.2568535911
 32
0.0
 13
-0.0574103684
 23
0.4449243082
 33
0.0
 40
0.0
 40
0.0
 40
0.0
 40
0.0
 40
0.098066609
 40
0.1981064048
 40
0.3008454355
 40
0.4069003075
 40
0.5167665536
 40
0.6308152716
 40
0.7492972807
 40
0.8723474246
 40
1.0
 40
1.0
 40
1.0
 40
1.0
 10
-8.6407673777
 20
-6.2948135649
 30
0.0
 10
-8.6528006789
 20
-6.2864173113
 30
0.0
 10
-8.6760976277
 20
-6.2680098678
 30
0.0
 10
-8.7080481884
 20
-6.2362055954
 30
0.0
 10
-8.7370920622
 20
-6.2001882854
 30
0.0
 10
-8.7630845931
 20
-6.1601564591
 30
0.0
 10
-8.7858993803
 20
-6.1163254398
 30
0.0
 10
-8.8054270623
 20
-6.0689265404
 30
0.0
 10
-8.8215745405
 20
-6.0182057441
 30
0.0
 10
-8.8342645649
 20
-5.9644277772
 30
0.0
 10
-8.8402708607
 20
-5.927387782
 30
0.0
 10
-8.8427137211
 20
-5.9084558707
 30
0.0
 11
-8.6407673777
 21
-6.2948135649
 31
0.0
 11
-8.6753123869
 21
-6.267571866
 31
0.0
 11
-8.7071614342
 21
-6.2359526279
 31
0.0
 11
-8.7361495429
 21
-6.2001199156
 31
0.0
 11
-8.7621264105
 21
-6.160259792
 31
0.0
 11
-8.7849573947
 21
-6.1165791768
 31
0.0
 11
-8.8045241905
 21
-6.0693047851
 31
0.0
 11
-8.8207255336
 21
-6.0186815527
 31
0.0
 11
-8.8334773292
 21
-5.9649727049
 31
0.0
 11
-8.8427137211
 21
-5.9084558707
 31
0.0
  0
SPLINE
  5
293
100
AcDbEntity
  8
RACCORDO
100
AcDbSpline
 62
253
  6
CONTINUOUS
 70
0
 71
3
 72
25
 73
21
 74
19
 42
0.0000001
 43
0.0000001
 44
0.0000000001
 12
-0.322542062
 22
-0.153715816
 32
0.0
 13
-0.3195783395
 23
0.1597861657
 33
0.0
 40
0.0
 40
0.0
 40
0.0
 40
0.0
 40
0.0494954376
 40
0.1011644218
 40
0.1547958882
 40
0.2101520197
 40
0.2669695962
 40
0.3249641445
 40
0.3838344909
 40
0.4432679998
 40
0.5029448047
 40
0.5625417143
 40
0.6217365154
 40
0.6802124479
 40
0.7376621202
 40
0.7937918312
 40
0.8483269394
 40
0.9010166122
 40
0.9516383009
 40
1.0
 40
1.0
 40
1.0
 40
1.0
 10
5.7470561208
 20
4.6192525465
 30
0.0
 10
5.7417346673
 20
4.6167164693
 30
0.0
 10
5.7306819981
 20
4.6118962183
 30
0.0
 10
5.7133642579
 20
4.6055454108
 30
0.0
 10
5.6950553598
 20
4.5999551711
 30
0.0
 10
5.6758890365
 20
4.5951666243
 30
0.0
 10
5.6560034603
 20
4.5912142406
 30
0.0
 10
5.6355424745
 20
4.5881267145
 30
0.0
 10
5.6146541625
 20
4.5859264481
 30
0.0
 10
5.5934898297
 20
4.5846294327
 30
0.0
 10
5.5722028077
 20
4.584245093
 30
0.0
 10
5.5509473549
 20
4.5847762202
 30
0.0
 10
5.529877493
 20
4.5862189444
 30
0.0
 10
5.5091458497
 20
4.5885627719
 30
0.0
 10
5.4889025505
 20
4.5917906642
 30
0.0
 10
5.4692940322
 20
4.5958792088
 30
0.0
 10
5.4504620493
 20
4.6007987452
 30
0.0
 10
5.4325422177
 20
4.6065139251
 30
0.0
 10
5.4156653303
 20
4.6129827757
 30
0.0
 10
5.4049327825
 20
4.6178846419
 30
0.0
 10
5.3997809987
 20
4.6204604854
 30
0.0
 11
5.7470561208
 21
4.6192525465
 31
0.0
 11
5.7308560178
 21
4.61216011
 31
0.0
 11
5.7135308659
 21
4.6057838943
 31
0.0
 11
5.6952088238
 21
4.600171305
 31
0.0
 11
5.6760234745
 21
4.595363291
 31
0.0
 11
5.6561143287
 21
4.5913948035
 31
0.0
 11
5.6356261986
 21
4.5882947162
 31
0.0
 11
5.6147082626
 21
4.5860856046
 31
0.0
 11
5.5935127386
 21
4.5847835408
 31
0.0
 11
5.5721938153
 21
4.584397996
 31
0.0
 11
5.5509066439
 21
4.5849317767
 31
0.0
 11
5.5298061627
 21
4.5863809941
 31
0.0
 11
5.5090458684
 21
4.5887351026
 31
0.0
 11
5.4887768276
 21
4.5919769711
 31
0.0
 11
5.4691466158
 21
4.596082989
 31
0.0
 11
5.4502980066
 21
4.6010232808
 31
0.0
 11
5.4323680554
 21
4.6067619319
 31
0.0
 11
5.4154874782
 21
4.6132570754
 31
0.0
 11
5.3997809987
 21
4.6204604854
 31
0.0
  0
SPLINE
  5
294
100
AcDbEntity
  8
RACCORDO
100
AcDbSpline
 62
253
  6
CONTINUOUS
 70
0
 71
3
 72
25
 73
21
 74
19
 42
0.0000001
 43
0.0000001
 44
0.0000000001
 12
-0.2109794759
 22
0.1054917212
 32
0.0
 13
0.2069226435
 23
0.1132424924
 33
0.0
 40
0.0
 40
0.0
 40
0.0
 40
0.0
 40
0.0696259316
 40
0.1354941003
 40
0.1975520195
 40
0.2558682771
 40
0.3106467485
 40
0.3622458225
 40
0.411194015
 40
0.4581922643
 40
0.5040904017
 40
0.549831955
 40
0.5963745027
 40
0.6446058402
 40
0.6952792112
 40
0.7489797848
 40
0.8061199722
 40
0.8669516448
 40
0.9315844569
 40
1.0
 40
1.0
 40
1.0
 40
1.0
 10
-9.4043660194
 20
12.0225339944
 30
0.0
 10
-9.4092625669
 20
12.0249823142
 30
0.0
 10
-9.4186363034
 20
12.0300679579
 30
0.0
 10
-9.4316976714
 20
12.0385049469
 30
0.0
 10
-9.443288727
 20
12.0474874245
 30
0.0
 10
-9.4533243667
 20
12.0569542838
 30
0.0
 10
-9.4617305501
 20
12.0668432664
 30
0.0
 10
-9.4684412422
 20
12.0770898317
 30
0.0
 10
-9.4733977495
 20
12.0876253489
 30
0.0
 10
-9.4765495079
 20
12.0983735839
 30
0.0
 10
-9.4778587711
 20
12.1092475646
 30
0.0
 10
-9.4773081868
 20
12.1201509401
 30
0.0
 10
-9.474905706
 20
12.1309856142
 30
0.0
 10
-9.4706819989
 20
12.1416606501
 30
0.0
 10
-9.4646830425
 20
12.1520958746
 30
0.0
 10
-9.4569641117
 20
12.1622198267
 30
0.0
 10
-9.4475878698
 20
12.1719660231
 30
0.0
 10
-9.4366246256
 20
12.1812705585
 30
0.0
 10
-9.4241555309
 20
12.1900704235
 30
0.0
 10
-9.4151477463
 20
12.1954125103
 30
0.0
 10
-9.4104288379
 20
12.1979950259
 30
0.0
 11
-9.4043660194
 21
12.0225339944
 31
0.0
 11
-9.4187865835
 21
12.0303941062
 31
0.0
 11
-9.4318180108
 21
12.038854965
 31
0.0
 11
-9.4433635508
 21
12.0478540595
 31
0.0
 11
-9.4533389727
 21
12.0573257833
 31
0.0
 11
-9.4616717575
 21
12.0672012637
 31
0.0
 11
-9.4683012763
 21
12.077408675
 31
0.0
 11
-9.4731792465
 21
12.0878736987
 31
0.0
 11
-9.4762701709
 21
12.0985201841
 31
0.0
 11
-9.4775515577
 21
12.1092706826
 31
0.0
 11
-9.4770140735
 21
12.1200469469
 31
0.0
 11
-9.474661631
 21
12.1307705514
 31
0.0
 11
-9.4705113416
 21
12.1413634863
 31
0.0
 11
-9.4645934001
 21
12.1517486679
 31
0.0
 11
-9.4569509021
 21
12.1618504793
 31
0.0
 11
-9.4476394533
 21
12.1715954436
 31
0.0
 11
-9.4367267412
 21
12.1809126979
 31
0.0
 11
-9.424292385
 21
12.1897343114
 31
0.0
 11
-9.4104288379
 21
12.1979950259
 31
0.0
  0
SPLINE
  5
295
100
AcDbEntity
  8
RACCORDO
100
AcDbSpline
 62
253
  6
CONTINUOUS
 70
0
 71
3
 72
14
 73
10
 74
8
 42
0.0000001
 43
0.0000001
 44
0.0000000001
 12
0.1079825595
 22
0.0590789721
 32
0.0
 13
0.1114448285
 23
-0.0519220795
 33
0.0
 40
0.0
 40
0.0
 40
0.0
 40
0.0
 40
0.1015894819
 40
0.2371899148
 40
0.3765345955
 40
0.5213745949
 40
0.6730463026
 40
0.8324372892
 40
1.0
 40
1.0
 40
1.0
 40
1.0
 10
-9.5289039868
 20
12.2015752513
 30
0.0
 10
-9.5252473561
 20
12.203575852
 30
0.0
 10
-9.516414432
 20
12.2077077299
 30
0.0
 10
-9.5015682464
 20
12.2121609383
 30
0.0
 10
-9.484447256
 20
12.2144389307
 30
0.0
 10
-9.4665270802
 20
12.2141482068
 30
0.0
 10
-9.4480072401
 20
12.2113072273
 30
0.0
 10
-9.4290899556
 20
12.2059608089
 30
0.0
 10
-9.4166535038
 20
12.200895094
 30
0.0
 10
-9.4104288379
 20
12.1979950259
 30
0.0
 11
-9.5289039868
 21
12.2015752513
 31
0.0
 11
-9.5175857672
 21
12.2068718836
 31
0.0
 11
-9.5016251476
 21
12.2116886264
 31
0.0
 11
-9.4846488542
 21
12.2139927653
 31
0.0
 11
-9.4668428107
 21
12.2137590652
 31
0.0
 11
-9.4484020284
 21
12.2109900858
 31
0.0
 11
-9.4295284699
 21
12.2057161527
 31
0.0
 11
-9.4104288379
 21
12.1979950259
 31
0.0
  0
SPLINE
  5
296
100
AcDbEntity
  8
RACCORDO
100
AcDbSpline
 62
7
  6
CONTINUOUS
 70
0
 71
3
 72
25
 73
21
 74
19
 42
0.0000001
 43
0.0000001
 44
0.0000000001
 12
-0.5245274405
 22
0.2622637203
 32
0.0
 13
-0.0050025686
 23
0.5864181692
 33
0.0
 40
0.0
 40
0.0
 40
0.0
 40
0.0
 40
0.0479689405
 40
0.0980125495
 40
0.1498255404
 40
0.2031382304
 40
0.2581145878
 40
0.3144706373
 40
0.3717636343
 40
0.4297891306
 40
0.4886088045
 40
0.5477482898
 40
0.6067200463
 40
0.6655679539
 40
0.7240731896
 40
0.7817494485
 40
0.8382510683
 40
0.8937000221
 40
0.9477535516
 40
1.0
 40
1.0
 40
1.0
 40
1.0
 10
-5.0912984309
 20
4.9908948728
 30
0.0
 10
-5.0996854394
 20
4.9950883771
 30
0.0
 10
-5.1164601568
 20
5.0043970431
 30
0.0
 10
-5.1409114136
 20
5.0205652417
 30
0.0
 10
-5.1649648247
 20
5.0390854241
 30
0.0
 10
-5.1884457273
 20
5.0598096163
 30
0.0
 10
-5.2112018115
 20
5.0825983579
 30
0.0
 10
-5.2330672919
 20
5.1072903735
 30
0.0
 10
-5.2538497512
 20
5.1336623002
 30
0.0
 10
-5.2734183573
 20
5.1615365576
 30
0.0
 10
-5.2916436377
 20
5.1907330814
 30
0.0
 10
-5.3083758805
 20
5.2210213593
 30
0.0
 10
-5.3234841633
 20
5.2521574835
 30
0.0
 10
-5.3368705659
 20
5.2839376109
 30
0.0
 10
-5.3484391143
 20
5.3161552721
 30
0.0
 10
-5.3580814512
 20
5.3485233415
 30
0.0
 10
-5.3657300437
 20
5.3808067117
 30
0.0
 10
-5.3713300438
 20
5.4127910219
 30
0.0
 10
-5.3748292506
 20
5.4442360935
 30
0.0
 10
-5.3757553344
 20
5.465014356
 30
0.0
 10
-5.3758424566
 20
5.4752271115
 30
0.0
 11
-5.0912984309
 21
4.9908948728
 31
0.0
 11
-5.1159184284
 21
5.0045037756
 31
0.0
 11
-5.1404214277
 21
5.0206556077
 31
0.0
 11
-5.1645190689
 21
5.039164069
 31
0.0
 11
-5.1879799667
 21
5.0598296374
 31
0.0
 11
-5.210779172
 21
5.0826251127
 31
0.0
 11
-5.2327051403
 21
5.1073539555
 31
0.0
 11
-5.2535139109
 21
5.1337334854
 31
0.0
 11
-5.2730751821
 21
5.1615775446
 31
0.0
 11
-5.2913467694
 21
5.190834981
 31
0.0
 11
-5.3081195478
 21
5.2211911392
 31
0.0
 11
-5.3232155584
 21
5.2523057626
 31
0.0
 11
-5.3366066741
 21
5.284112508
 31
0.0
 11
-5.3481917336
 21
5.3164072058
 31
0.0
 11
-5.3578339109
 21
5.3488273666
 31
0.0
 11
-5.3654536594
 21
5.3810741216
 31
0.0
 11
-5.371037361
 21
5.413108592
 31
0.0
 11
-5.3745131788
 21
5.4446165787
 31
0.0
 11
-5.3758424566
 21
5.4752271115
 31
0.0
  0
SPLINE
  5
297
100
AcDbEntity
  8
RACCORDO
100
AcDbSpline
 62
7
  6
CONTINUOUS
 70
0
 71
3
 72
16
 73
12
 74
10
 42
0.0000001
 43
0.0000001
 44
0.0000000001
 12
-0.0013169092
 22
0.211640437
 32
0.0
 13
0.1590675193
 23
0.1398736643
 33
0.0
 40
0.0
 40
0.0
 40
0.0
 40
0.0
 40
0.1395272774
 40
0.2739201021
 40
0.402445843
 40
0.5248674379
 40
0.6421671143
 40
0.7545208464
 40
0.8621290013
 40
0.9659378976
 40
1.0
 40
1.0
 40
1.0
 40
1.0
 10
-5.384771569
 20
6.6858104402
 30
0.0
 10
-5.3848328172
 20
6.6956536449
 30
0.0
 10
-5.3842807098
 20
6.7149907603
 30
0.0
 10
-5.3812973701
 20
6.7432546175
 30
0.0
 10
-5.3761963116
 20
6.7699920059
 30
0.0
 10
-5.369021566
 20
6.7950011725
 30
0.0
 10
-5.3598187383
 20
6.8181200325
 30
0.0
 10
-5.3486394803
 20
6.8391818077
 30
0.0
 10
-5.335579817
 20
6.8579922852
 30
0.0
 10
-5.3239333458
 20
6.8708773584
 30
0.0
 10
-5.3167712762
 20
6.8774740666
 30
0.0
 10
-5.3149652181
 20
6.879062197
 30
0.0
 11
-5.384771569
 21
6.6858104402
 31
0.0
 11
-5.3838867575
 21
6.7153273671
 31
0.0
 11
-5.3808537383
 21
6.7436087015
 31
0.0
 11
-5.375704376
 21
6.770318632
 31
0.0
 11
-5.3685056919
 21
6.7952083862
 31
0.0
 11
-5.3592695681
 21
6.8182521732
 31
0.0
 11
-5.3480696098
 21
6.8392284529
 31
0.0
 11
-5.3350372745
 21
6.8579058238
 31
0.0
 11
-5.3202722654
 21
6.8741754622
 31
0.0
 11
-5.3149652181
 21
6.879062197
 31
0.0
  0
LINE
  5
298
100
AcDbEntity
  8
RACCORDO
100
AcDbLine
 62
7
  6
CONTINUOUS
 10
-5.3758424566
 20
5.4752271115
 11
-5.3773409695
 21
5.6544848562
  0
LINE
  5
299
100
AcDbEntity
  8
RACCORDO
100
AcDbLine
 62
7
  6
CONTINUOUS
 10
-5.3773409695
 20
5.6544848562
 11
-5.3777060466
 21
5.6993036942
  0
LINE
  5
29A
100
AcDbEntity
  8
RACCORDO
100
AcDbLine
 62
7
  6
CONTINUOUS
 10
-5.3777060466
 20
5.6993036942
 11
-5.3804891866
 21
6.0579248545
  0
LINE
  5
29B
100
AcDbEntity
  8
RACCORDO
100
AcDbLine
 62
7
  6
CONTINUOUS
 10
-5.3804891866
 20
6.0579248545
 11
-5.3808198945
 21
6.1027612969
  0
LINE
  5
29C
100
AcDbEntity
  8
RACCORDO
100
AcDbLine
 62
7
  6
CONTINUOUS
 10
-5.3808198945
 20
6.1027612969
 11
-5.3833280788
 21
6.4615229937
  0
LINE
  5
29D
100
AcDbEntity
  8
RACCORDO
100
AcDbLine
 62
7
  6
CONTINUOUS
 10
-5.3833280788
 20
6.4615229937
 11
-5.3836244169
 21
6.5063769667
  0
LINE
  5
29E
100
AcDbEntity
  8
RACCORDO
100
AcDbLine
 62
7
  6
CONTINUOUS
 10
-5.3836244169
 20
6.5063769667
 11
-5.384771569
 21
6.6858104402
  0
SPLINE
  5
29F
100
AcDbEntity
  8
RACCORDO
100
AcDbSpline
 62
7
  6
CONTINUOUS
 70
0
 71
3
 72
14
 73
10
 74
8
 42
0.0000001
 43
0.0000001
 44
0.0000000001
 12
-0.1527487844
 22
-0.0464479534
 32
0.0
 13
-0.1426836499
 23
0.071341825
 33
0.0
 40
0.0
 40
0.0
 40
0.0
 40
0.0
 40
0.0893502555
 40
0.2264496758
 40
0.3680625496
 40
0.5150875753
 40
0.6693379792
 40
0.8311090423
 40
1.0
 40
1.0
 40
1.0
 40
1.0
 10
0.9347589963
 20
2.0340384795
 30
0.0
 10
0.9302096153
 20
2.0326551007
 30
0.0
 10
0.9185134946
 20
2.0296943158
 30
0.0
 10
0.899054322
 20
2.0271040331
 30
0.0
 10
0.8763563099
 20
2.0270564871
 30
0.0
 10
0.8529189232
 20
2.0298450213
 30
0.0
 10
0.8288944763
 20
2.0354468983
 30
0.0
 10
0.804466442
 20
2.0438221446
 30
0.0
 10
0.7884054584
 20
2.0510429282
 30
0.0
 10
0.780372799
 20
2.0550592579
 30
0.0
 11
0.9347589963
 21
2.0340384795
 31
0.0
 11
0.9209367543
 21
2.0305314673
 31
0.0
 11
0.8992629075
 21
2.0276028795
 31
0.0
 11
0.8766723136
 21
2.0275023063
 31
0.0
 11
0.8533756158
 21
2.0302157921
 31
0.0
 11
0.8293981558
 21
2.0357454483
 31
0.0
 11
0.8049678884
 21
2.0440605183
 31
0.0
 11
0.780372799
 21
2.0550592579
 31
0.0
  0
SPLINE
  5
2A0
100
AcDbEntity
  8
RACCORDO
100
AcDbSpline
 62
253
  6
CONTINUOUS
 70
0
 71
3
 72
22
 73
18
 74
16
 42
0.0000001
 43
0.0000001
 44
0.0000000001
 12
-0.0027087752
 22
0.3665121304
 32
0.0
 13
-0.322967055
 23
0.1732938562
 33
0.0
 40
0.0
 40
0.0
 40
0.0
 40
0.0
 40
0.0629566414
 40
0.1283834588
 40
0.195913743
 40
0.2651259748
 40
0.3355575138
 40
0.4067172398
 40
0.4780975125
 40
0.5491857568
 40
0.6194759385
 40
0.6884801858
 40
0.7557408241
 40
0.8208431402
 40
0.8834292511
 40
0.9432135227
 40
1.0
 40
1.0
 40
1.0
 40
1.0
 10
5.9190983589
 20
4.3121065508
 30
0.0
 10
5.9190415138
 20
4.3197980084
 30
0.0
 10
5.9182669743
 20
4.3354834471
 30
0.0
 10
5.9152839588
 20
4.3592523227
 30
0.0
 10
5.9104884095
 20
4.3835021468
 30
0.0
 10
5.9039326417
 20
4.4079681047
 30
0.0
 10
5.8956879196
 20
4.4323854277
 30
0.0
 10
5.8858438531
 20
4.4564887456
 30
0.0
 10
5.8745074478
 20
4.4800161434
 30
0.0
 10
5.8618019381
 20
4.5027118501
 30
0.0
 10
5.8478653836
 20
4.5243292063
 30
0.0
 10
5.8328491015
 20
4.5446333931
 30
0.0
 10
5.8169157701
 20
4.5634041008
 30
0.0
 10
5.8002378324
 20
4.5804377256
 30
0.0
 10
5.7829940003
 20
4.5955502133
 30
0.0
 10
5.7653716888
 20
4.6085762949
 30
0.0
 10
5.7531695079
 20
4.6159722973
 30
0.0
 10
5.7470561208
 20
4.6192525465
 30
0.0
 11
5.9190983589
 21
4.3121065508
 31
0.0
 11
5.9179980599
 21
4.3351553057
 31
0.0
 11
5.9150425055
 21
4.3589528515
 31
0.0
 11
5.9102640651
 21
4.3832385582
 31
0.0
 11
5.9037150718
 21
4.4077464496
 31
0.0
 11
5.8954672502
 21
4.4322081161
 31
0.0
 11
5.88561093
 21
4.4563556542
 31
0.0
 11
5.8742540575
 21
4.479924601
 31
0.0
 11
5.8615210127
 21
4.5026568302
 31
0.0
 11
5.8475512476
 21
4.5243033792
 31
0.0
 11
5.8324977586
 21
4.5446271758
 31
0.0
 11
5.8165254109
 21
4.5634056345
 31
0.0
 11
5.7998091332
 21
4.5804330944
 31
0.0
 11
5.7825320016
 21
4.5955230713
 31
0.0
 11
5.7648832346
 21
4.6085103006
 31
0.0
 11
5.7470561208
 21
4.6192525465
 31
0.0
  0
SPLINE
  5
2A1
100
AcDbEntity
  8
RACCORDO
100
AcDbSpline
 62
253
  6
CONTINUOUS
 70
0
 71
3
 72
22
 73
18
 74
16
 42
0.0000001
 43
0.0000001
 44
0.0000000001
 12
-0.000238189
 22
0.366577057
 32
0.0
 13
0.326468929
 23
0.166723825
 33
0.0
 40
0.0
 40
0.0
 40
0.0
 40
0.0
 40
0.0627686171
 40
0.1278905369
 40
0.1950351148
 40
0.2638167547
 40
0.3338081528
 40
0.4045525959
 40
0.4755756192
 40
0.5463962937
 40
0.6165383804
 40
0.6855415807
 40
0.7529731191
 40
0.8184399196
 40
0.8816016779
 40
0.9421851557
 40
1.0
 40
1.0
 40
1.0
 40
1.0
 10
5.2245470072
 20
4.3161731436
 30
0.0
 10
5.2245420236
 20
4.3238429886
 30
0.0
 10
5.2252092444
 20
4.3394767423
 30
0.0
 10
5.2280884941
 20
4.3631553992
 30
0.0
 10
5.2328341923
 20
4.3872807498
 30
0.0
 10
5.2393949068
 20
4.4115918016
 30
0.0
 10
5.2476998918
 20
4.4358281573
 30
0.0
 10
5.2576597054
 20
4.4597290501
 30
0.0
 10
5.2691671216
 20
4.4830373656
 30
0.0
 10
5.2820982806
 20
4.5055022222
 30
0.0
 10
5.296314073
 20
4.5268818521
 30
0.0
 10
5.3116616938
 20
4.5469462384
 30
0.0
 10
5.3279765179
 20
4.565479689
 30
0.0
 10
5.3450836791
 20
4.5822829572
 30
0.0
 10
5.3628015037
 20
4.5971759562
 30
0.0
 10
5.3809390598
 20
4.6099970938
 30
0.0
 10
5.3934894152
 20
4.617247448
 30
0.0
 10
5.3997809987
 20
4.6204604854
 30
0.0
 11
5.2245470072
 21
4.3161731436
 31
0.0
 11
5.2254910364
 21
4.3391633096
 31
0.0
 11
5.2283421374
 21
4.3628646487
 31
0.0
 11
5.2330693872
 21
4.3870200976
 31
0.0
 11
5.2396215144
 21
4.4113676673
 31
0.0
 11
5.2479274549
 21
4.4356432854
 31
0.0
 11
5.2578971229
 21
4.4595836597
 31
0.0
 11
5.2694223879
 21
4.482929134
 31
0.0
 11
5.2823782474
 21
4.5054265046
 31
0.0
 11
5.2966241827
 21
4.526831766
 31
0.0
 11
5.3120056833
 21
4.5469127579
 31
0.0
 11
5.3283559221
 21
4.5654516828
 31
0.0
 11
5.3454975652
 21
4.5822474684
 31
0.0
 11
5.3632446952
 21
4.5971179486
 31
0.0
 11
5.3814048277
 21
4.6099018387
 31
0.0
 11
5.3997809987
 21
4.6204604854
 31
0.0
  0
SPLINE
  5
2A2
100
AcDbEntity
  8
0
100
AcDbSpline
 62
253
  6
CONTINUOUS
 70
0
 71
3
 72
16
 73
12
 74
10
 42
0.0000001
 43
0.0000001
 44
0.0000000001
 12
-1.2344583664
 22
9.7271614722
 32
0.0
 13
-0.1480278181
 23
9.8040627053
 33
0.0
 40
0.0
 40
0.0
 40
0.0
 40
0.0
 40
0.1080730282
 40
0.216918925
 40
0.3265327533
 40
0.4369090339
 40
0.5480417747
 40
0.6599244812
 40
0.7725501569
 40
0.8859113138
 40
1.0
 40
1.0
 40
1.0
 40
1.0
 10
-8.8427137211
 20
-5.9084558707
 30
0.0
 10
-8.8871842724
 20
-5.5580412719
 30
0.0
 10
-8.9718090589
 20
-4.8541095106
 30
0.0
 10
-9.0854667414
 20
-3.7929133423
 30
0.0
 10
-9.1862762296
 20
-2.7228568449
 30
0.0
 10
-9.2742160911
 20
-1.644167746
 30
0.0
 10
-9.3492679923
 20
-0.5570724336
 30
0.0
 10
-9.4114161957
 20
0.5381999629
 30
0.0
 10
-9.4606477063
 20
1.641419447
 30
0.0
 10
-9.4969521973
 20
2.7523517686
 30
0.0
 10
-9.5124828953
 20
3.495605119
 30
0.0
 10
-9.5181123284
 20
3.8684493302
 30
0.0
 11
-8.8427137211
 21
-5.9084558707
 31
0.0
 11
-8.9692435486
 21
-4.8563615823
 31
0.0
 11
-9.0829483028
 21
-3.7951822702
 31
0.0
 11
-9.1838040748
 21
-2.7251414647
 31
0.0
 11
-9.2717896554
 21
-1.6464646065
 31
0.0
 11
-9.3468865517
 21
-0.5593788567
 31
0.0
 11
-9.4090789832
 21
0.5358869213
 31
0.0
 11
-9.4583538764
 21
1.6391020829
 31
0.0
 11
-9.4947008708
 21
2.7500342146
 31
0.0
 11
-9.5181123284
 21
3.8684493302
 31
0.0
  0
SPLINE
  5
2A3
100
AcDbEntity
  8
RACCORDO
100
AcDbSpline
 62
253
  6
CONTINUOUS
 70
0
 71
3
 72
22
 73
18
 74
16
 42
0.0000001
 43
0.0000001
 44
0.0000000001
 12
-0.0002381892
 22
0.366577057
 32
0.0
 13
0.3264689291
 23
0.1667238248
 33
0.0
 40
0.0
 40
0.0
 40
0.0
 40
0.0
 40
0.0627686184
 40
0.1278905402
 40
0.1950351199
 40
0.2638167614
 40
0.333808161
 40
0.4045526051
 40
0.4755756292
 40
0.5463963039
 40
0.6165383904
 40
0.68554159
 40
0.7529731272
 40
0.8184399262
 40
0.8816016825
 40
0.9421851581
 40
1.0
 40
1.0
 40
1.0
 40
1.0
 10
-9.5796000108
 20
11.7182466526
 30
0.0
 10
-9.5796049944
 20
11.7259164978
 30
0.0
 10
-9.5789377736
 20
11.7415502519
 30
0.0
 10
-9.5760585238
 20
11.7652289094
 30
0.0
 10
-9.5713128254
 20
11.7893542606
 30
0.0
 10
-9.5647521106
 20
11.813665313
 30
0.0
 10
-9.5564471253
 20
11.8379016691
 30
0.0
 10
-9.5464873113
 20
11.8618025622
 30
0.0
 10
-9.5349798948
 20
11.8851108778
 30
0.0
 10
-9.5220487356
 20
11.9075757344
 30
0.0
 10
-9.5078329429
 20
11.9289553641
 30
0.0
 10
-9.4924853222
 20
11.94901975
 30
0.0
 10
-9.4761704981
 20
11.9675532002
 30
0.0
 10
-9.4590633372
 20
11.9843564678
 30
0.0
 10
-9.441345513
 20
11.9992494662
 30
0.0
 10
-9.4232079575
 20
12.0120706033
 30
0.0
 10
-9.4106576026
 20
12.0193209572
 30
0.0
 10
-9.4043660194
 20
12.0225339944
 30
0.0
 11
-9.5796000108
 21
11.7182466526
 31
0.0
 11
-9.5786559816
 21
11.7412368191
 31
0.0
 11
-9.5758048805
 21
11.7649381589
 31
0.0
 11
-9.5710776304
 21
11.7890936084
 31
0.0
 11
-9.5645255029
 21
11.8134411787
 31
0.0
 11
-9.5562195621
 21
11.8377167972
 31
0.0
 11
-9.5462498938
 21
11.8616571718
 31
0.0
 11
-9.5347246285
 21
11.8850026463
 31
0.0
 11
-9.5217687687
 21
11.9075000168
 31
0.0
 11
-9.5075228332
 21
11.9289052781
 31
0.0
 11
-9.4921413326
 21
11.9489862696
 31
0.0
 11
-9.4757910939
 21
11.967525194
 31
0.0
 11
-9.458649451
 21
11.9843209791
 31
0.0
 11
-9.4409023215
 21
11.9991914586
 31
0.0
 11
-9.4227421896
 21
12.0119753482
 31
0.0
 11
-9.4043660194
 21
12.0225339944
 31
0.0
  0
SPLINE
  5
2A4
100
AcDbEntity
  8
RACCORDO
100
AcDbSpline
 62
253
  6
CONTINUOUS
 70
0
 71
3
 72
17
 73
13
 74
11
 42
0.0000001
 43
0.0000001
 44
0.0000000001
 12
-0.2161832152
 22
0.1080956977
 32
0.0
 13
-0.0001406965
 23
0.2419871049
 33
0.0
 40
0.0
 40
0.0
 40
0.0
 40
0.0
 40
0.1359048809
 40
0.2644265655
 40
0.3854754164
 40
0.4991772678
 40
0.6059234234
 40
0.7064077239
 40
0.8016586374
 40
0.8930453274
 40
0.9822330742
 40
1.0
 40
1.0
 40
1.0
 40
1.0
 10
-9.5795987162
 20
11.7182460052
 30
0.0
 10
-9.5893921676
 20
11.7231429161
 30
0.0
 10
-9.6081382914
 20
11.7333099072
 30
0.0
 10
-9.6342611151
 20
11.7501658994
 30
0.0
 10
-9.6574421117
 20
11.7680995501
 30
0.0
 10
-9.6775125959
 20
11.7869895875
 30
0.0
 10
-9.6943246037
 20
11.8067118744
 30
0.0
 10
-9.7077462933
 20
11.8271379317
 30
0.0
 10
-9.7176603314
 20
11.8481313755
 30
0.0
 10
-9.7239653194
 20
11.869540746
 30
0.0
 10
-9.725893989
 20
11.8854807961
 30
0.0
 10
-9.726045701
 20
11.8941077902
 30
0.0
 10
-9.7260465343
 20
11.8955409125
 30
0.0
 11
-9.5795987162
 21
11.7182460052
 31
0.0
 11
-9.6084433833
 21
11.733962494
 31
0.0
 11
-9.6345056919
 21
11.7508658972
 31
0.0
 11
-9.6575963754
 21
11.7688335436
 31
0.0
 11
-9.6775468219
 21
11.7877342883
 31
0.0
 11
-9.6942120316
 21
11.8074307354
 31
0.0
 11
-9.7074707565
 21
11.8277796198
 31
0.0
 11
-9.7172264436
 21
11.8486327871
 31
0.0
 11
-9.7234081104
 21
11.8698384953
 31
0.0
 11
-9.7259707846
 21
11.891242486
 31
0.0
 11
-9.7260465343
 21
11.8955409125
 31
0.0
  0
SPLINE
  5
2A5
100
AcDbEntity
  8
RACCORDO
100
AcDbSpline
 62
253
  6
CONTINUOUS
 70
0
 71
3
 72
25
 73
21
 74
19
 42
0.0000001
 43
0.0000001
 44
0.0000000001
 12
-0.6460963923
 22
-0.3048847509
 32
0.0
 13
-0.6390010858
 23
0.3194884534
 33
0.0
 40
0.0
 40
0.0
 40
0.0
 40
0.0
 40
0.0494328262
 40
0.1010447089
 40
0.1546315361
 40
0.2099543778
 40
0.2667494203
 40
0.3247313615
 40
0.3835981563
 40
0.4430362134
 40
0.5027246367
 40
0.5623391465
 40
0.6215564156
 40
0.6800584166
 40
0.7375363898
 40
0.7936951737
 40
0.8482585284
 40
0.9009740369
 40
0.9516168911
 40
1.0
 40
1.0
 40
1.0
 40
1.0
 10
5.9190997616
 20
4.3121072127
 30
0.0
 10
5.908453638
 20
4.307083441
 30
0.0
 10
5.8863435373
 20
4.2975407061
 30
0.0
 10
5.8517069379
 20
4.2849833544
 30
0.0
 10
5.8150896168
 20
4.2739450647
 30
0.0
 10
5.7767574667
 20
4.264506402
 30
0.0
 10
5.7369869019
 20
4.2567353764
 30
0.0
 10
5.6960655843
 20
4.2506883959
 30
0.0
 10
5.65428968
 20
4.246409346
 30
0.0
 10
5.6119617946
 20
4.2439293295
 30
0.0
 10
5.5693885824
 20
4.2432663703
 30
0.0
 10
5.5268785333
 20
4.2444252843
 30
0.0
 10
5.4847396633
 20
4.247397634
 30
0.0
 10
5.4432772063
 20
4.2521618056
 30
0.0
 10
5.4027914116
 20
4.2586831724
 30
0.0
 10
5.3635751587
 20
4.2669144231
 30
0.0
 10
5.3259119466
 20
4.2767958655
 30
0.0
 10
5.290073078
 20
4.288256402
 30
0.0
 10
5.2563187128
 20
4.3012125276
 30
0.0
 10
5.234851333
 20
4.3110211756
 30
0.0
 10
5.2245457133
 20
4.3161737904
 30
0.0
 11
5.9190997616
 21
4.3121072127
 31
0.0
 11
5.8866950926
 21
4.2980665046
 31
0.0
 11
5.8520449832
 21
4.2854588128
 31
0.0
 11
5.8154009018
 21
4.2743756812
 31
0.0
 11
5.777030352
 21
4.2648980646
 31
0.0
 11
5.737212268
 21
4.257094837
 31
0.0
 11
5.6962362913
 21
4.2510227724
 31
0.0
 11
5.654400769
 21
4.2467260849
 31
0.0
 11
5.6120101311
 21
4.2442360313
 31
0.0
 11
5.5693727464
 21
4.2435707205
 31
0.0
 11
5.5267988933
 21
4.2447349934
 31
0.0
 11
5.4845983851
 21
4.2477203727
 31
0.0
 11
5.4430782013
 21
4.2525051409
 31
0.0
 11
5.4025404684
 21
4.2590544854
 31
0.0
 11
5.3632803278
 21
4.2673207134
 31
0.0
 11
5.325583341
 21
4.2772436854
 31
0.0
 11
5.2897235403
 21
4.2887512811
 31
0.0
 11
5.2559626604
 21
4.3017594722
 31
0.0
 11
5.2245457133
 21
4.3161737904
 31
0.0
  0
SPLINE
  5
2A6
100
AcDbEntity
  8
0
100
AcDbSpline
 62
253
  6
CONTINUOUS
 70
0
 71
3
 72
16
 73
12
 74
10
 42
0.0000001
 43
0.0000001
 44
0.0000000001
 12
-0.0122254801
 22
-0.2821001809
 32
0.0
 13
-0.2216191132
 23
-0.1753040056
 33
0.0
 40
0.0
 40
0.0
 40
0.0
 40
0.0
 40
0.1340190606
 40
0.2631878752
 40
0.3872848552
 40
0.5062238358
 40
0.6200739375
 40
0.7290788238
 40
0.8336726683
 40
0.9344884836
 40
1.0
 40
1.0
 40
1.0
 40
1.0
 10
7.0477374628
 20
-13.4886294408
 30
0.0
 10
7.0471913137
 20
-13.5012317079
 30
0.0
 10
7.0452829671
 20
-13.5259542768
 30
0.0
 10
7.0398077402
 20
-13.5620270564
 30
0.0
 10
7.0318080136
 20
-13.596175416
 30
0.0
 10
7.0213396667
 20
-13.6281410191
 30
0.0
 10
7.0084752716
 20
-13.6576837776
 30
0.0
 10
6.9933036844
 20
-13.6845790487
 30
0.0
 10
6.9759300478
 20
-13.7086187309
 30
0.0
 10
6.9585520968
 20
-13.7273718315
 30
0.0
 10
6.9467040547
 20
-13.737646771
 30
0.0
 10
6.94186452
 20
-13.7414749148
 30
0.0
 11
7.0477374628
 21
-13.4886294408
 31
0.0
 11
7.044777828
 21
-13.5263558147
 31
0.0
 11
7.0392514838
 21
-13.5624074564
 31
0.0
 11
7.0312003913
 21
-13.5965106284
 31
0.0
 11
7.020685682
 21
-13.6284063877
 31
0.0
 11
7.0077871933
 21
-13.6578525523
 31
0.0
 11
6.9926028623
 21
-13.6846255396
 31
0.0
 11
6.9752479826
 21
-13.7085220643
 31
0.0
 11
6.9558543286
 21
-13.7293606818
 31
0.0
 11
6.94186452
 21
-13.7414749148
 31
0.0
  0
SPLINE
  5
2A7
100
AcDbEntity
  8
0
100
AcDbSpline
 62
253
  6
CONTINUOUS
 70
0
 71
3
 72
10
 73
6
 74
4
 42
0.0000001
 43
0.0000001
 44
0.0000000001
 12
-0.0435010632
 22
-0.0344099862
 32
0.0
 13
-0.0514266981
 23
-0.0207923361
 33
0.0
 40
0.0
 40
0.0
 40
0.0
 40
0.0
 40
0.1648244353
 40
0.6534394098
 40
1.0
 40
1.0
 40
1.0
 40
1.0
 10
6.94186452
 20
-13.7414749148
 30
0.0
 10
6.9394745073
 20
-13.7433654503
 30
0.0
 10
6.9298321959
 20
-13.7506487865
 30
0.0
 10
6.9140904378
 20
-13.7604335321
 30
0.0
 10
6.9000663151
 20
-13.7669466603
 30
0.0
 10
6.8941254929
 20
-13.7693485951
 30
0.0
 11
6.94186452
 21
-13.7414749148
 31
0.0
 11
6.9345691548
 21
-13.7469831661
 31
0.0
 11
6.911554078
 21
-13.7612557108
 31
0.0
 11
6.8941254929
 21
-13.7693485951
 31
0.0
  0
SPLINE
  5
2A8
100
AcDbEntity
  8
0
100
AcDbSpline
 62
253
  6
CONTINUOUS
 70
0
 71
3
 72
26
 73
22
 74
20
 42
0.0000001
 43
0.0000001
 44
0.0000000001
 12
0.0639075782
 22
-0.4718179908
 32
0.0
 13
0.4414253651
 23
0.1784377821
 33
0.0
 40
0.0
 40
0.0
 40
0.0
 40
0.0
 40
0.0604714473
 40
0.1189577881
 40
0.1754896565
 40
0.2301507618
 40
0.2830756018
 40
0.3344495457
 40
0.3845087349
 40
0.4335365193
 40
0.4818566178
 40
0.5298216896
 40
0.5777998971
 40
0.6261586397
 40
0.6752493941
 40
0.7253932963
 40
0.7768707761
 40
0.8299146356
 40
0.8847072271
 40
0.9413785448
 40
1.0
 40
1.0
 40
1.0
 40
1.0
 10
6.7050764285
 20
-13.2805329383
 30
0.0
 10
6.7063646231
 20
-13.2900434439
 30
0.0
 10
6.7095349254
 20
-13.3086740451
 30
0.0
 10
6.7162231531
 20
-13.3357375099
 30
0.0
 10
6.7247337712
 20
-13.3613187292
 30
0.0
 10
6.7350254971
 20
-13.3852821742
 30
0.0
 10
6.7470486535
 20
-13.4075028662
 30
0.0
 10
6.7607446091
 20
-13.427862995
 30
0.0
 10
6.7760454058
 20
-13.4462528956
 30
0.0
 10
6.7928733602
 20
-13.4625717048
 30
0.0
 10
6.8111407006
 20
-13.4767285318
 30
0.0
 10
6.8307496906
 20
-13.4886440251
 30
0.0
 10
6.851593361
 20
-13.4982519713
 30
0.0
 10
6.8735571004
 20
-13.5055006041
 30
0.0
 10
6.8965204769
 20
-13.5103530769
 30
0.0
 10
6.9203590403
 20
-13.5127872073
 30
0.0
 10
6.9449456191
 20
-13.5127946592
 30
0.0
 10
6.9701510175
 20
-13.5103801293
 30
0.0
 10
6.9958448833
 20
-13.5055602291
 30
0.0
 10
7.0218918397
 20
-13.4983647063
 30
0.0
 10
7.0391117971
 20
-13.4921162016
 30
0.0
 10
7.0477374628
 20
-13.4886294408
 30
0.0
 11
6.7050764285
 21
-13.2805329383
 31
0.0
 11
6.7099401489
 21
-13.3089112167
 31
0.0
 11
6.716655869
 21
-13.3359361791
 31
0.0
 11
6.7251883751
 21
-13.3614642911
 31
0.0
 11
6.7354933821
 21
-13.3853627968
 31
0.0
 11
6.7475175583
 21
-13.4075078767
 31
0.0
 11
6.7611985955
 21
-13.4277845865
 31
0.0
 11
6.7764655822
 21
-13.4460876653
 31
0.0
 11
6.7932393577
 21
-13.4623220714
 31
0.0
 11
6.8114330263
 21
-13.4764035629
 31
0.0
 11
6.8309522042
 21
-13.4882589553
 31
0.0
 11
6.8516957108
 21
-13.4978266753
 31
0.0
 11
6.8735558989
 21
-13.5050569664
 31
0.0
 11
6.8964194579
 21
-13.5099122525
 31
0.0
 11
6.9201677404
 21
-13.5123672414
 31
0.0
 11
6.9446774943
 21
-13.512409117
 31
0.0
 11
6.9698214899
 21
-13.5100376127
 31
0.0
 11
6.9954694135
 21
-13.5052649514
 31
0.0
 11
7.0214878425
 21
-13.4981159539
 31
0.0
 11
7.0477374628
 21
-13.4886294408
 31
0.0
  0
SPLINE
  5
2A9
100
AcDbEntity
  8
0
100
AcDbSpline
 62
253
  6
CONTINUOUS
 70
0
 71
3
 72
16
 73
12
 74
10
 42
0.0000001
 43
0.0000001
 44
0.0000000001
 12
0.0601822657
 22
-0.4514343891
 32
0.0
 13
0.374886556
 23
-0.2590342016
 33
0.0
 40
0.0
 40
0.0
 40
0.0
 40
0.0
 40
0.1262159384
 40
0.2481416421
 40
0.3658424431
 40
0.4794793895
 40
0.5893225707
 40
0.6957525652
 40
0.7992616344
 40
0.9004475236
 40
1.0
 40
1.0
 40
1.0
 40
1.0
 10
6.0144748845
 20
-13.3370501735
 30
0.0
 10
6.0170068716
 20
-13.3560429119
 30
0.0
 10
6.0232362641
 20
-13.393231485
 30
0.0
 10
6.0363842863
 20
-13.4472430268
 30
0.0
 10
6.0531142524
 20
-13.4982575676
 30
0.0
 10
6.073345671
 20
-13.5460078793
 30
0.0
 10
6.0969813577
 20
-13.5902452995
 30
0.0
 10
6.1239066745
 20
-13.6307356262
 30
0.0
 10
6.1539888743
 20
-13.6672608219
 30
0.0
 10
6.1870761156
 20
-13.6996202056
 30
0.0
 10
6.2111583779
 20
-13.7184007581
 30
0.0
 10
6.2235986729
 20
-13.7269965902
 30
0.0
 11
6.0144748845
 21
-13.3370501735
 31
0.0
 11
6.0240395542
 21
-13.3937311466
 31
0.0
 11
6.0372445522
 21
-13.4476665956
 31
0.0
 11
6.0540217203
 21
-13.4985777405
 31
0.0
 11
6.0742839424
 21
-13.5461998454
 31
0.0
 11
6.0979263724
 21
-13.5902861835
 31
0.0
 11
6.1248264929
 21
-13.6306079335
 31
0.0
 11
6.1548448793
 21
-13.6669557847
 31
0.0
 11
6.1878258859
 21
-13.6991410024
 31
0.0
 11
6.2235986729
 21
-13.7269965902
 31
0.0
  0
SPLINE
  5
2AA
100
AcDbEntity
  8
0
100
AcDbSpline
 62
253
  6
CONTINUOUS
 70
0
 71
3
 72
25
 73
21
 74
19
 42
0.0000001
 43
0.0000001
 44
0.0000000001
 12
-0.604709483
 22
-0.3899745273
 32
0.0
 13
-0.6450072096
 23
0.3189347744
 33
0.0
 40
0.0
 40
0.0
 40
0.0
 40
0.0
 40
0.0519489921
 40
0.1056337261
 40
0.1608610208
 40
0.2174103325
 40
0.2750390332
 40
0.3334872945
 40
0.392482682
 40
0.4517445493
 40
0.5109883064
 40
0.56992963
 40
0.6282886781
 40
0.6857943707
 40
0.7421888042
 40
0.7972318777
 40
0.8507062212
 40
0.9024225311
 40
0.9522254347
 40
1.0
 40
1.0
 40
1.0
 40
1.0
 10
6.7050764285
 20
-13.2805329383
 30
0.0
 10
6.6946050791
 20
-13.2872858662
 30
0.0
 10
6.6728386746
 20
-13.3002943718
 30
0.0
 10
6.638530014
 20
-13.3179927678
 30
0.0
 10
6.6022332917
 20
-13.3340946525
 30
0.0
 10
6.5642127444
 20
-13.3484827915
 30
0.0
 10
6.5247427375
 20
-13.3610536934
 30
0.0
 10
6.4841090452
 20
-13.3717163812
 30
0.0
 10
6.4426058268
 20
-13.3803937173
 30
0.0
 10
6.4005336995
 20
-13.387022857
 30
0.0
 10
6.3581974386
 20
-13.391555782
 30
0.0
 10
6.3159037323
 20
-13.3939596515
 30
0.0
 10
6.273958898
 20
-13.394217042
 30
0.0
 10
6.2326665971
 20
-13.3923260478
 30
0.0
 10
6.1923256011
 20
-13.3883002644
 30
0.0
 10
6.1532274658
 20
-13.3821685659
 30
0.0
 10
6.1156547383
 20
-13.3739749657
 30
0.0
 10
6.0798775625
 20
-13.3637774795
 30
0.0
 10
6.046156434
 20
-13.3516497939
 30
0.0
 10
6.0247465369
 20
-13.3421291595
 30
0.0
 10
6.0144748906
 20
-13.3370501694
 30
0.0
 11
6.7050764285
 21
-13.2805329383
 31
0.0
 11
6.6730117277
 21
-13.2997453224
 31
0.0
 11
6.6386979804
 21
-13.3174867742
 31
0.0
 11
6.6023849909
 21
-13.3336281358
 31
0.0
 11
6.5643371183
 21
-13.3480518977
 31
0.0
 11
6.5248313516
 21
-13.360653055
 31
0.0
 11
6.4841552931
 21
-13.3713398709
 31
0.0
 11
6.4426050651
 21
-13.3800345454
 31
0.0
 11
6.4004831537
 21
-13.3866737812
 31
0.0
 11
6.358096207
 21
-13.3912092444
 31
0.0
 11
6.3157528023
 21
-13.393607917
 31
0.0
 11
6.2737612002
 21
-13.3938523365
 31
0.0
 11
6.2324271001
 21
-13.3919407235
 31
0.0
 11
6.1920514145
 21
-13.3878869946
 31
0.0
 11
6.1529280792
 21
-13.381720661
 31
0.0
 11
6.1153419123
 21
-13.3734866138
 31
0.0
 11
6.0795665416
 21
-13.3632447967
 31
0.0
 11
6.0458624122
 21
-13.3510697705
 31
0.0
 11
6.0144748906
 21
-13.3370501694
 31
0.0
  0
SPLINE
  5
2AB
100
AcDbEntity
  8
0
100
AcDbSpline
 62
253
  6
CONTINUOUS
 70
0
 71
3
 72
16
 73
12
 74
10
 42
0.0000001
 43
0.0000001
 44
0.0000000001
 12
0.158196343
 22
-9.7777422745
 32
0.0
 13
1.3125357896
 23
-9.6905376461
 33
0.0
 40
0.0
 40
0.0
 40
0.0
 40
0.0
 40
0.1138478936
 40
0.2270231241
 40
0.3395199846
 40
0.4513332902
 40
0.562458351
 40
0.672890981
 40
0.7826274966
 40
0.891664726
 40
1.0
 40
1.0
 40
1.0
 40
1.0
 10
5.9849686117
 20
-3.5337131655
 30
0.0
 10
5.9909720519
 20
-3.9047716195
 30
0.0
 10
6.0075369175
 20
-4.6446304293
 30
0.0
 10
6.0462484826
 20
-5.7507058917
 30
0.0
 10
6.0987431811
 20
-6.8495756394
 30
0.0
 10
6.1650100076
 20
-7.9410058751
 30
0.0
 10
6.2450351197
 20
-9.0247674814
 30
0.0
 10
6.3388017468
 20
-10.1006319783
 30
0.0
 10
6.4462903644
 20
-11.1683736431
 30
0.0
 10
6.5674780753
 20
-12.2277648136
 30
0.0
 10
6.6576784537
 20
-12.9305905879
 30
0.0
 10
6.7050764285
 20
-13.2805329383
 30
0.0
 11
5.9849686117
 21
-3.5337131655
 31
0.0
 11
6.0099298202
 21
-4.6467543581
 31
0.0
 11
6.0486828673
 21
-5.7528187351
 31
0.0
 11
6.1012196008
 21
-6.8516728164
 31
0.0
 11
6.1675289743
 21
-7.9430851081
 31
0.0
 11
6.247597049
 21
-9.0268257777
 31
0.0
 11
6.3414069999
 21
-10.102666667
 31
0.0
 11
6.4489391097
 21
-11.1703812131
 31
0.0
 11
6.5701707652
 21
-12.229744467
 31
0.0
 11
6.7050764285
 21
-13.2805329383
 31
0.0
  0
SPLINE
  5
2AC
100
AcDbEntity
  8
0
100
AcDbSpline
 62
253
  6
CONTINUOUS
 70
0
 71
3
 72
16
 73
12
 74
10
 42
0.0000001
 43
0.0000001
 44
0.0000000001
 12
0.159049173
 22
-9.8322873465
 32
0.0
 13
1.3196312823
 23
-9.7446264363
 33
0.0
 40
0.0
 40
0.0
 40
0.0
 40
0.0
 40
0.113848609
 40
0.2270243491
 40
0.33952156
 40
0.4513350501
 40
0.562460123
 40
0.672892586
 40
0.7826287491
 40
0.8916654339
 40
1.0
 40
1.0
 40
1.0
 40
1.0
 10
5.2904798632
 20
-3.5358467656
 30
0.0
 10
5.2965157056
 20
-3.9089775115
 30
0.0
 10
5.3131699819
 20
-4.6529676578
 30
0.0
 10
5.3520905097
 20
-5.7652187021
 30
0.0
 10
5.4048685666
 20
-6.8702223032
 30
0.0
 10
5.4714930904
 20
-7.9677435338
 30
0.0
 10
5.5519501648
 20
-9.0575519979
 30
0.0
 10
5.6462229285
 20
-10.1394179408
 30
0.0
 10
5.7542917509
 20
-11.2131143809
 30
0.0
 10
5.876133628
 20
-12.2784125021
 30
0.0
 10
5.9668209904
 20
-12.9851568812
 30
0.0
 10
6.0144748845
 20
-13.3370501735
 30
0.0
 11
5.2904798632
 21
-3.5358467656
 31
0.0
 11
5.3155758266
 21
-4.6551041341
 31
0.0
 11
5.3545380671
 21
-5.7673438889
 31
0.0
 11
5.4073583973
 21
-6.8723317689
 31
0.0
 11
5.4740257108
 21
-7.969834988
 31
0.0
 11
5.5545259938
 21
-9.0596224312
 31
0.0
 11
5.6488423304
 21
-10.1414646673
 31
0.0
 11
5.7569548968
 21
-11.21513387
 31
0.0
 11
5.8788409579
 21
-12.2804038356
 31
0.0
 11
6.0144748845
 21
-13.3370501735
 31
0.0
  0
SPLINE
  5
2AD
100
AcDbEntity
  8
0
100
AcDbSpline
 62
253
  6
CONTINUOUS
 70
0
 71
3
 72
25
 73
21
 74
19
 42
0.0000001
 43
0.0000001
 44
0.0000000001
 12
-0.6423647763
 22
-0.3139711931
 32
0.0
 13
-0.6397108624
 23
0.3193437466
 33
0.0
 40
0.0
 40
0.0
 40
0.0
 40
0.0
 40
0.0496825043
 40
0.1014998182
 40
0.1552483517
 40
0.2106923844
 40
0.2675699993
 40
0.3255983861
 40
0.3844786963
 40
0.4439005886
 40
0.5035465721
 40
0.5630962312
 40
0.6222304052
 40
0.6806353868
 40
0.7380072088
 40
0.7940560977
 40
0.8485111903
 40
0.9011256391
 40
0.9516822694
 40
1.0
 40
1.0
 40
1.0
 40
1.0
 10
5.9849686117
 20
-3.5337131655
 30
0.0
 10
5.9743305148
 20
-3.5389127905
 30
0.0
 10
5.9522355797
 20
-3.5488078827
 30
0.0
 10
5.9176032845
 20
-3.5618861447
 30
0.0
 10
5.8809902086
 20
-3.5734378726
 30
0.0
 10
5.8426623192
 20
-3.5833789002
 30
0.0
 10
5.8028958263
 20
-3.591637642
 30
0.0
 10
5.7619784266
 20
-3.5981541922
 30
0.0
 10
5.7202062082
 20
-3.6028812932
 30
0.0
 10
5.6778816908
 20
-3.6057846147
 30
0.0
 10
5.6353114924
 20
-3.6068430712
 30
0.0
 10
5.5928040612
 20
-3.6060489841
 30
0.0
 10
5.5506673718
 20
-3.6034081434
 30
0.0
 10
5.509206624
 20
-3.5989397529
 30
0.0
 10
5.4687219841
 20
-3.5926762762
 30
0.0
 10
5.4295062561
 20
-3.5846631161
 30
0.0
 10
5.3918429698
 20
-3.5749583496
 30
0.0
 10
5.3560032133
 20
-3.5636316875
 30
0.0
 10
5.3222472491
 20
-3.5507655495
 30
0.0
 10
5.300782989
 20
-3.5409900873
 30
0.0
 10
5.2904798633
 20
-3.5358467656
 30
0.0
 11
5.9849686117
 21
-3.5337131655
 31
0.0
 11
5.9525691616
 21
-3.548277591
 31
0.0
 11
5.9179242239
 21
-3.5614056392
 31
0.0
 11
5.8812858882
 21
-3.5730017855
 31
0.0
 11
5.8429207488
 21
-3.582981652
 31
0.0
 11
5.8031079648
 21
-3.5912726213
 31
0.0
 11
5.7621372291
 21
-3.5978143654
 31
0.0
 11
5.7203066601
 21
-3.6025592839
 31
0.0
 11
5.6779206327
 21
-3.6054728511
 31
0.0
 11
5.6352875637
 21
-3.6065338668
 31
0.0
 11
5.5927176672
 21
-3.6057346107
 31
0.0
 11
5.5505206977
 21
-3.6030808983
 31
0.0
 11
5.5090036964
 21
-3.5985920392
 31
0.0
 11
5.4684687565
 21
-3.592300696
 31
0.0
 11
5.4292108254
 21
-3.5842526467
 31
0.0
 11
5.3915155587
 21
-3.5745064521
 31
0.0
 11
5.3556572411
 21
-3.5631330292
 31
0.0
 11
5.3218967915
 21
-3.5502151352
 31
0.0
 11
5.2904798633
 21
-3.5358467656
 31
0.0
  0
SPLINE
  5
2AE
100
AcDbEntity
  8
ASSI
100
AcDbSpline
 62
7
  6
CONTINUOUS
 70
0
 71
3
 72
16
 73
12
 74
10
 42
0.0000001
 43
0.0000001
 44
0.0000000001
 12
0.1696147045
 22
0.1209883165
 32
0.0
 13
0.1861936725
 23
-0.0930968362
 33
0.0
 40
0.0
 40
0.0
 40
0.0
 40
0.0
 40
0.0958690123
 40
0.1972796348
 40
0.3000767723
 40
0.4055993299
 40
0.5145435844
 40
0.6275877901
 40
0.7461181251
 40
0.8703585636
 40
1.0
 40
1.0
 40
1.0
 40
1.0
 10
-5.3027837058
 20
6.8887294574
 30
0.0
 10
-5.2973634411
 20
6.8925958009
 30
0.0
 10
-5.2856784722
 20
6.8998097536
 30
0.0
 10
-5.2665423159
 20
6.9081982502
 30
0.0
 10
-5.2457640139
 20
6.9139624318
 30
0.0
 10
-5.2238773673
 20
6.9168874171
 30
0.0
 10
-5.2010917716
 20
6.9169508918
 30
0.0
 10
-5.177574648
 20
6.9141698289
 30
0.0
 10
-5.1534807162
 20
6.9085672016
 30
0.0
 10
-5.1289954761
 20
6.9001836409
 30
0.0
 10
-5.1129021942
 20
6.8929513276
 30
0.0
 10
-5.1048560558
 20
6.8889282584
 30
0.0
 11
-5.3027837058
 21
6.8887294574
 31
0.0
 11
-5.2857951771
 21
6.8992058668
 31
0.0
 11
-5.266463825
 21
6.9076889084
 31
0.0
 11
-5.2458504457
 21
6.9134353459
 31
0.0
 11
-5.2240829701
 21
6.9163872666
 31
0.0
 11
-5.2014042473
 21
6.9165030704
 31
0.0
 11
-5.1780279132
 21
6.9137964154
 31
0.0
 11
-5.1539812127
 21
6.9082655783
 31
0.0
 11
-5.1294939928
 21
6.8999419281
 31
0.0
 11
-5.1048560558
 21
6.8889282584
 31
0.0
  0
SPLINE
  5
2AF
100
AcDbEntity
  8
ASSI
100
AcDbSpline
 62
7
  6
CONTINUOUS
 70
0
 71
3
 72
19
 73
15
 74
13
 42
0.0000001
 43
0.0000001
 44
0.0000000001
 12
0.0023233124
 22
-0.2723466015
 32
0.0
 13
-0.2595315173
 23
-0.0833125346
 33
0.0
 40
0.0
 40
0.0
 40
0.0
 40
0.0
 40
0.1085012282
 40
0.2129420887
 40
0.312754366
 40
0.4077593882
 40
0.4987226518
 40
0.5857825686
 40
0.6691038925
 40
0.7494370233
 40
0.8280230385
 40
0.9055121163
 40
0.9826399433
 40
1.0
 40
1.0
 40
1.0
 40
1.0
 10
1.0588292522
 20
2.2578912571
 30
0.0
 10
1.0589132796
 20
2.2480412769
 30
0.0
 10
1.0584076267
 20
2.2286954896
 30
0.0
 10
1.0554969278
 20
2.200422411
 30
0.0
 10
1.05047106
 20
2.1736879205
 30
0.0
 10
1.0433745196
 20
2.1486922981
 30
0.0
 10
1.034253328
 20
2.1255962194
 30
0.0
 10
1.0231594572
 20
2.1045649042
 30
0.0
 10
1.0101886936
 20
2.0857902971
 30
0.0
 10
0.9954300073
 20
2.0693992905
 30
0.0
 10
0.9789741269
 20
2.0555115599
 30
0.0
 10
0.9609536086
 20
2.0442592588
 30
0.0
 10
0.9466064009
 20
2.037965213
 30
0.0
 10
0.938473666
 20
2.0352121326
 30
0.0
 10
0.9369718387
 20
2.0347300292
 30
0.0
 11
1.0588292522
 21
2.2578912571
 31
0.0
 11
1.0580147457
 21
2.2283514683
 31
0.0
 11
1.0550539763
 21
2.2000608283
 31
0.0
 11
1.0499792957
 21
2.1733541636
 31
0.0
 11
1.042857949
 21
2.1484781856
 31
0.0
 11
1.0337026783
 21
2.1254574612
 31
0.0
 11
1.0225876681
 21
2.1045126775
 31
0.0
 11
1.0096442235
 21
2.0858728208
 31
0.0
 11
0.9949709976
 21
2.0696432775
 31
0.0
 11
0.978594431
 21
2.0558623431
 31
0.0
 11
0.9606868115
 21
2.0446943701
 31
0.0
 11
0.9414536447
 21
2.0362475659
 31
0.0
 11
0.9369718387
 21
2.0347300292
 31
0.0
  0
SPLINE
  5
2B0
100
AcDbEntity
  8
ASSI
100
AcDbSpline
 62
7
  6
CONTINUOUS
 70
0
 71
3
 72
25
 73
21
 74
19
 42
0.0000001
 43
0.0000001
 44
0.0000000001
 12
0.524939942
 22
-0.262469971
 32
0.0
 13
0.0036518538
 23
-0.5868893357
 33
0.0
 40
0.0
 40
0.0
 40
0.0
 40
0.0
 40
0.0480002896
 40
0.0980777546
 40
0.1499276073
 40
0.2032806204
 40
0.2582997211
 40
0.3146977562
 40
0.3720294192
 40
0.4300903448
 40
0.4889371177
 40
0.5480921557
 40
0.6070668692
 40
0.6659068303
 40
0.7243887663
 40
0.7820262864
 40
0.838476684
 40
0.8938625151
 40
0.9478403938
 40
1.0
 40
1.0
 40
1.0
 40
1.0
 10
0.7659277935
 20
3.9535363338
 30
0.0
 10
0.7743268832
 20
3.9493367889
 30
0.0
 10
0.7911247224
 20
3.9400120021
 30
0.0
 10
0.8156049285
 20
3.9238092035
 30
0.0
 10
0.8396813463
 20
3.9052438294
 30
0.0
 10
0.8631781803
 20
3.8844647548
 30
0.0
 10
0.8859418038
 20
3.8616129734
 30
0.0
 10
0.9078051136
 20
3.8368519944
 30
0.0
 10
0.9285750649
 20
3.810407574
 30
0.0
 10
0.9481203303
 20
3.7824599523
 30
0.0
 10
0.9663112571
 20
3.753192039
 30
0.0
 10
0.9829983619
 20
3.7228375451
 30
0.0
 10
0.9980519931
 20
3.6916423835
 30
0.0
 10
1.0113754802
 20
3.6598123839
 30
0.0
 10
1.0228743651
 20
3.6275557238
 30
0.0
 10
1.0324422734
 20
3.5951609782
 30
0.0
 10
1.0400138713
 20
3.5628634341
 30
0.0
 10
1.045536344
 20
3.5308774782
 30
0.0
 10
1.0489595271
 20
3.4994434494
 30
0.0
 10
1.0498366467
 20
3.4786785581
 30
0.0
 10
1.0499001398
 20
3.4684745859
 30
0.0
 11
0.7659277935
 21
3.9535363338
 31
0.0
 11
0.7905812526
 21
3.9399042054
 31
0.0
 11
0.815113075
 21
3.9237180654
 31
0.0
 11
0.8392336332
 21
3.905164708
 31
0.0
 11
0.862710635
 21
3.884444443
 31
0.0
 11
0.8855178475
 21
3.8615856701
 31
0.0
 11
0.9074419928
 21
3.8367875873
 31
0.0
 11
0.9282382835
 21
3.8103357117
 31
0.0
 11
0.9477768675
 21
3.7824176645
 31
0.0
 11
0.9660143851
 21
3.7530882942
 31
0.0
 11
0.9827420478
 21
3.7226657028
 31
0.0
 11
0.9977833285
 21
3.6914924576
 31
0.0
 11
1.0111118337
 21
3.6596350593
 31
0.0
 11
1.0226270952
 21
3.6273012814
 31
0.0
 11
1.0321945841
 21
3.5948549724
 31
0.0
 11
1.0397374033
 21
3.5625942485
 31
0.0
 11
1.0452434991
 21
3.5305579904
 31
0.0
 11
1.0486431407
 21
3.499061277
 31
0.0
 11
1.0499001398
 21
3.4684745859
 31
0.0
  0
SPLINE
  5
2B1
100
AcDbEntity
  8
ASSI
100
AcDbSpline
 62
253
  6
CONTINUOUS
 70
0
 71
3
 72
14
 73
10
 74
8
 42
0.0000001
 43
0.0000001
 44
0.0000000001
 12
0.1079825595
 22
0.0590789721
 32
0.0
 13
0.1114448285
 23
-0.0519220795
 33
0.0
 40
0.0
 40
0.0
 40
0.0
 40
0.0
 40
0.1015894819
 40
0.2371899148
 40
0.3765345955
 40
0.5213745949
 40
0.6730463026
 40
0.8324372892
 40
1.0
 40
1.0
 40
1.0
 40
1.0
 10
-9.5289039868
 20
12.2015752513
 30
0.0
 10
-9.5252473561
 20
12.203575852
 30
0.0
 10
-9.516414432
 20
12.2077077299
 30
0.0
 10
-9.5015682464
 20
12.2121609383
 30
0.0
 10
-9.484447256
 20
12.2144389307
 30
0.0
 10
-9.4665270802
 20
12.2141482068
 30
0.0
 10
-9.4480072401
 20
12.2113072273
 30
0.0
 10
-9.4290899556
 20
12.2059608089
 30
0.0
 10
-9.4166535038
 20
12.200895094
 30
0.0
 10
-9.4104288379
 20
12.1979950259
 30
0.0
 11
-9.5289039868
 21
12.2015752513
 31
0.0
 11
-9.5175857672
 21
12.2068718836
 31
0.0
 11
-9.5016251476
 21
12.2116886264
 31
0.0
 11
-9.4846488542
 21
12.2139927653
 31
0.0
 11
-9.4668428107
 21
12.2137590652
 31
0.0
 11
-9.4484020284
 21
12.2109900858
 31
0.0
 11
-9.4295284699
 21
12.2057161527
 31
0.0
 11
-9.4104288379
 21
12.1979950259
 31
0.0
  0
SPLINE
  5
2B2
100
AcDbEntity
  8
ASSI
100
AcDbSpline
 62
253
  6
CONTINUOUS
 70
0
 71
3
 72
17
 73
13
 74
11
 42
0.0000001
 43
0.0000001
 44
0.0000000001
 12
0.0036245435
 22
-0.2417804499
 32
0.0
 13
0.2159671729
 23
-0.1081563275
 33
0.0
 40
0.0
 40
0.0
 40
0.0
 40
0.0
 40
0.0103943558
 40
0.1011450817
 40
0.1939167901
 40
0.2903486406
 40
0.3918036099
 40
0.4993198336
 40
0.613609753
 40
0.7350873348
 40
0.8639064209
 40
1.0
 40
1.0
 40
1.0
 40
1.0
 10
-9.6645656457
 20
4.0458744172
 30
0.0
 10
-9.6645530874
 20
4.0450366998
 30
0.0
 10
-9.6643524765
 20
4.0368862975
 30
0.0
 10
-9.6624996445
 20
4.0213111111
 30
0.0
 10
-9.6561974446
 20
3.9995712568
 30
0.0
 10
-9.6462854051
 20
3.9782798224
 30
0.0
 10
-9.632863784
 20
3.9575919523
 30
0.0
 10
-9.6160499776
 20
3.9376473402
 30
0.0
 10
-9.5959765094
 20
3.9185769327
 30
0.0
 10
-9.5727919142
 20
3.9005063203
 30
0.0
 10
-9.5466654131
 20
3.8835578181
 30
0.0
 10
-9.5279095769
 20
3.8733557908
 30
0.0
 10
-9.5181123284
 20
3.8684493302
 30
0.0
 11
-9.6645656457
 21
4.0458744172
 31
0.0
 11
-9.6645037674
 21
4.0433617987
 31
0.0
 11
-9.6619375114
 21
4.0215929786
 31
0.0
 11
-9.6557526064
 21
4.0000557537
 31
0.0
 11
-9.6459940561
 21
3.978906837
 31
0.0
 11
-9.6327328674
 21
3.9583001159
 31
0.0
 11
-9.6160655337
 21
3.9383855327
 31
0.0
 11
-9.5961133327
 21
3.9193079934
 31
0.0
 11
-9.5730214441
 21
3.9012063134
 31
0.0
 11
-9.5469578933
 21
3.8842122071
 31
0.0
 11
-9.5181123284
 21
3.8684493302
 31
0.0
  0
SPLINE
  5
2B3
100
AcDbEntity
  8
ASSI
100
AcDbSpline
 62
7
  6
CONTINUOUS
 70
0
 71
3
 72
14
 73
10
 74
8
 42
0.0000001
 43
0.0000001
 44
0.0000000001
 12
-0.1542207444
 22
-0.0495065927
 32
0.0
 13
-0.1447556237
 23
0.0723778119
 33
0.0
 40
0.0
 40
0.0
 40
0.0
 40
0.0
 40
0.1023849299
 40
0.2375219642
 40
0.3771078483
 40
0.5220284168
 40
0.6740709424
 40
0.8335264796
 40
1.0
 40
1.0
 40
1.0
 40
1.0
 10
0.9369718387
 20
2.0347300292
 30
0.0
 10
0.9317085453
 20
2.0330404528
 30
0.0
 10
0.9192812321
 20
2.0297965122
 30
0.0
 10
0.899054322
 20
2.0271040331
 30
0.0
 10
0.8763563099
 20
2.0270564871
 30
0.0
 10
0.8529189232
 20
2.0298450213
 30
0.0
 10
0.8288944763
 20
2.0354468983
 30
0.0
 10
0.804466442
 20
2.0438221446
 30
0.0
 10
0.7884054584
 20
2.0510429282
 30
0.0
 10
0.780372799
 20
2.0550592579
 30
0.0
 11
0.9369718387
 21
2.0347300292
 31
0.0
 11
0.9209367543
 21
2.0305314673
 31
0.0
 11
0.8992629075
 21
2.0276028795
 31
0.0
 11
0.8766723136
 21
2.0275023063
 31
0.0
 11
0.8533756158
 21
2.0302157921
 31
0.0
 11
0.8293981558
 21
2.0357454483
 31
0.0
 11
0.8049678884
 21
2.0440605183
 31
0.0
 11
0.780372799
 21
2.0550592579
 31
0.0
  0
SPLINE
  5
2B4
100
AcDbEntity
  8
ASSI
100
AcDbSpline
 62
253
  6
CONTINUOUS
 70
0
 71
3
 72
16
 73
12
 74
10
 42
0.0000001
 43
0.0000001
 44
0.0000000001
 12
0.0304865542
 22
-0.2365036487
 32
0.0
 13
0.2126255254
 23
-0.107487397
 33
0.0
 40
0.0
 40
0.0
 40
0.0
 40
0.0
 40
0.0405514404
 40
0.1465799212
 40
0.254581111
 40
0.3658241733
 40
0.4813822312
 40
0.6020957272
 40
0.7285625726
 40
0.8611471594
 40
1.0
 40
1.0
 40
1.0
 40
1.0
 10
-8.9890891227
 20
-5.7323872439
 30
0.0
 10
-8.9886770315
 20
-5.7355840984
 30
0.0
 10
-8.9868659898
 20
-5.7470981256
 30
0.0
 10
-8.9817118435
 20
-5.7667205214
 30
0.0
 10
-8.9716507544
 20
-5.7906027335
 30
0.0
 10
-8.9580874168
 20
-5.813559772
 30
0.0
 10
-8.9411376343
 20
-5.8354249612
 30
0.0
 10
-8.9209378109
 20
-5.8560456171
 30
0.0
 10
-8.8976419933
 20
-5.875281051
 30
0.0
 10
-8.8714251451
 20
-5.8929991576
 30
0.0
 10
-8.8525549405
 20
-5.9034808939
 30
0.0
 10
-8.8427137211
 20
-5.9084558707
 30
0.0
 11
-8.9890891227
 21
-5.7323872439
 31
0.0
 11
-8.9875864618
 21
-5.74193829
 31
0.0
 11
-8.9811905122
 21
-5.7663764857
 31
0.0
 11
-8.9712413405
 21
-5.790106509
 31
0.0
 11
-8.9578113769
 21
-5.8129556051
 31
0.0
 11
-8.9409983917
 21
-5.8347574321
 31
0.0
 11
-8.9209247835
 21
-5.8553532726
 31
0.0
 11
-8.8977366885
 21
-5.8745931886
 31
0.0
 11
-8.8716029163
 21
-5.8923371133
 31
0.0
 11
-8.8427137211
 21
-5.9084558707
 31
0.0
  0
SPLINE
  5
2B5
100
AcDbEntity
  8
ASSI
100
AcDbSpline
 62
253
  6
CONTINUOUS
 70
0
 71
3
 72
17
 73
13
 74
11
 42
0.0000001
 43
0.0000001
 44
0.0000000001
 12
-0.387332328
 22
0.2509619442
 32
0.0
 13
-0.0590280372
 23
0.4574610712
 33
0.0
 40
0.0
 40
0.0
 40
0.0
 40
0.0
 40
0.0274050924
 40
0.1227841769
 40
0.2200823729
 40
0.3200058309
 40
0.4231542594
 40
0.5300096108
 40
0.6409328132
 40
0.7561678119
 40
0.8758457552
 40
1.0
 40
1.0
 40
1.0
 40
1.0
 10
-8.6302727247
 20
-6.301871975
 30
0.0
 10
-8.6338110175
 20
-6.2995794299
 30
0.0
 10
-8.6494870809
 20
-6.2890354596
 30
0.0
 10
-8.6760976277
 20
-6.2680098678
 30
0.0
 10
-8.7080481884
 20
-6.2362055954
 30
0.0
 10
-8.7370920622
 20
-6.2001882854
 30
0.0
 10
-8.7630845931
 20
-6.1601564591
 30
0.0
 10
-8.7858993803
 20
-6.1163254398
 30
0.0
 10
-8.8054270623
 20
-6.0689265404
 30
0.0
 10
-8.8215745405
 20
-6.0182057441
 30
0.0
 10
-8.8342645649
 20
-5.9644277772
 30
0.0
 10
-8.8402708607
 20
-5.927387782
 30
0.0
 10
-8.8427137211
 20
-5.9084558707
 30
0.0
 11
-8.6302727247
 21
-6.301871975
 31
0.0
 11
-8.6407673777
 21
-6.2948135649
 31
0.0
 11
-8.6753123869
 21
-6.267571866
 31
0.0
 11
-8.7071614342
 21
-6.2359526279
 31
0.0
 11
-8.7361495429
 21
-6.2001199156
 31
0.0
 11
-8.7621264105
 21
-6.160259792
 31
0.0
 11
-8.7849573947
 21
-6.1165791768
 31
0.0
 11
-8.8045241905
 21
-6.0693047851
 31
0.0
 11
-8.8207255336
 21
-6.0186815527
 31
0.0
 11
-8.8334773292
 21
-5.9649727049
 31
0.0
 11
-8.8427137211
 21
-5.9084558707
 31
0.0
  0
SPLINE
  5
2B6
100
AcDbEntity
  8
ASSI
100
AcDbSpline
 62
253
  6
CONTINUOUS
 70
0
 71
3
 72
25
 73
21
 74
19
 42
0.0000001
 43
0.0000001
 44
0.0000000001
 12
-0.322542062
 22
-0.153715816
 32
0.0
 13
-0.3195783395
 23
0.1597861657
 33
0.0
 40
0.0
 40
0.0
 40
0.0
 40
0.0
 40
0.0494954376
 40
0.1011644218
 40
0.1547958882
 40
0.2101520197
 40
0.2669695962
 40
0.3249641445
 40
0.3838344909
 40
0.4432679998
 40
0.5029448047
 40
0.5625417143
 40
0.6217365154
 40
0.6802124479
 40
0.7376621202
 40
0.7937918312
 40
0.8483269394
 40
0.9010166122
 40
0.9516383009
 40
1.0
 40
1.0
 40
1.0
 40
1.0
 10
5.7470561208
 20
4.6192525465
 30
0.0
 10
5.7417346673
 20
4.6167164693
 30
0.0
 10
5.7306819981
 20
4.6118962183
 30
0.0
 10
5.7133642579
 20
4.6055454108
 30
0.0
 10
5.6950553598
 20
4.5999551711
 30
0.0
 10
5.6758890365
 20
4.5951666243
 30
0.0
 10
5.6560034603
 20
4.5912142406
 30
0.0
 10
5.6355424745
 20
4.5881267145
 30
0.0
 10
5.6146541625
 20
4.5859264481
 30
0.0
 10
5.5934898297
 20
4.5846294327
 30
0.0
 10
5.5722028077
 20
4.584245093
 30
0.0
 10
5.5509473549
 20
4.5847762202
 30
0.0
 10
5.529877493
 20
4.5862189444
 30
0.0
 10
5.5091458497
 20
4.5885627719
 30
0.0
 10
5.4889025505
 20
4.5917906642
 30
0.0
 10
5.4692940322
 20
4.5958792088
 30
0.0
 10
5.4504620493
 20
4.6007987452
 30
0.0
 10
5.4325422177
 20
4.6065139251
 30
0.0
 10
5.4156653303
 20
4.6129827757
 30
0.0
 10
5.4049327825
 20
4.6178846419
 30
0.0
 10
5.3997809987
 20
4.6204604854
 30
0.0
 11
5.7470561208
 21
4.6192525465
 31
0.0
 11
5.7308560178
 21
4.61216011
 31
0.0
 11
5.7135308659
 21
4.6057838943
 31
0.0
 11
5.6952088238
 21
4.600171305
 31
0.0
 11
5.6760234745
 21
4.595363291
 31
0.0
 11
5.6561143287
 21
4.5913948035
 31
0.0
 11
5.6356261986
 21
4.5882947162
 31
0.0
 11
5.6147082626
 21
4.5860856046
 31
0.0
 11
5.5935127386
 21
4.5847835408
 31
0.0
 11
5.5721938153
 21
4.584397996
 31
0.0
 11
5.5509066439
 21
4.5849317767
 31
0.0
 11
5.5298061627
 21
4.5863809941
 31
0.0
 11
5.5090458684
 21
4.5887351026
 31
0.0
 11
5.4887768276
 21
4.5919769711
 31
0.0
 11
5.4691466158
 21
4.596082989
 31
0.0
 11
5.4502980066
 21
4.6010232808
 31
0.0
 11
5.4323680554
 21
4.6067619319
 31
0.0
 11
5.4154874782
 21
4.6132570754
 31
0.0
 11
5.3997809987
 21
4.6204604854
 31
0.0
  0
SPLINE
  5
2B7
100
AcDbEntity
  8
ASSI
100
AcDbSpline
 62
253
  6
CONTINUOUS
 70
0
 71
3
 72
25
 73
21
 74
19
 42
0.0000001
 43
0.0000001
 44
0.0000000001
 12
-0.2109794759
 22
0.1054917212
 32
0.0
 13
0.2069226435
 23
0.1132424924
 33
0.0
 40
0.0
 40
0.0
 40
0.0
 40
0.0
 40
0.0696259316
 40
0.1354941003
 40
0.1975520195
 40
0.2558682771
 40
0.3106467485
 40
0.3622458225
 40
0.411194015
 40
0.4581922643
 40
0.5040904017
 40
0.549831955
 40
0.5963745027
 40
0.6446058402
 40
0.6952792112
 40
0.7489797848
 40
0.8061199722
 40
0.8669516448
 40
0.9315844569
 40
1.0
 40
1.0
 40
1.0
 40
1.0
 10
-9.4043660194
 20
12.0225339944
 30
0.0
 10
-9.4092625669
 20
12.0249823142
 30
0.0
 10
-9.4186363034
 20
12.0300679579
 30
0.0
 10
-9.4316976714
 20
12.0385049469
 30
0.0
 10
-9.443288727
 20
12.0474874245
 30
0.0
 10
-9.4533243667
 20
12.0569542838
 30
0.0
 10
-9.4617305501
 20
12.0668432664
 30
0.0
 10
-9.4684412422
 20
12.0770898317
 30
0.0
 10
-9.4733977495
 20
12.0876253489
 30
0.0
 10
-9.4765495079
 20
12.0983735839
 30
0.0
 10
-9.4778587711
 20
12.1092475646
 30
0.0
 10
-9.4773081868
 20
12.1201509401
 30
0.0
 10
-9.474905706
 20
12.1309856142
 30
0.0
 10
-9.4706819989
 20
12.1416606501
 30
0.0
 10
-9.4646830425
 20
12.1520958746
 30
0.0
 10
-9.4569641117
 20
12.1622198267
 30
0.0
 10
-9.4475878698
 20
12.1719660231
 30
0.0
 10
-9.4366246256
 20
12.1812705585
 30
0.0
 10
-9.4241555309
 20
12.1900704235
 30
0.0
 10
-9.4151477463
 20
12.1954125103
 30
0.0
 10
-9.4104288379
 20
12.1979950259
 30
0.0
 11
-9.4043660194
 21
12.0225339944
 31
0.0
 11
-9.4187865835
 21
12.0303941062
 31
0.0
 11
-9.4318180108
 21
12.038854965
 31
0.0
 11
-9.4433635508
 21
12.0478540595
 31
0.0
 11
-9.4533389727
 21
12.0573257833
 31
0.0
 11
-9.4616717575
 21
12.0672012637
 31
0.0
 11
-9.4683012763
 21
12.077408675
 31
0.0
 11
-9.4731792465
 21
12.0878736987
 31
0.0
 11
-9.4762701709
 21
12.0985201841
 31
0.0
 11
-9.4775515577
 21
12.1092706826
 31
0.0
 11
-9.4770140735
 21
12.1200469469
 31
0.0
 11
-9.474661631
 21
12.1307705514
 31
0.0
 11
-9.4705113416
 21
12.1413634863
 31
0.0
 11
-9.4645934001
 21
12.1517486679
 31
0.0
 11
-9.4569509021
 21
12.1618504793
 31
0.0
 11
-9.4476394533
 21
12.1715954436
 31
0.0
 11
-9.4367267412
 21
12.1809126979
 31
0.0
 11
-9.424292385
 21
12.1897343114
 31
0.0
 11
-9.4104288379
 21
12.1979950259
 31
0.0
  0
LINE
  5
2B8
100
AcDbEntity
  8
ASSI
100
AcDbLine
 62
7
  6
CONTINUOUS
 10
-5.3758424566
 20
5.4752271115
 11
-5.3773409695
 21
5.6544848562
  0
LINE
  5
2B9
100
AcDbEntity
  8
ASSI
100
AcDbLine
 62
7
  6
CONTINUOUS
 10
-5.3773409695
 20
5.6544848562
 11
-5.3777060466
 21
5.6993036942
  0
LINE
  5
2BA
100
AcDbEntity
  8
ASSI
100
AcDbLine
 62
7
  6
CONTINUOUS
 10
-5.3777060466
 20
5.6993036942
 11
-5.3804891866
 21
6.0579248545
  0
LINE
  5
2BB
100
AcDbEntity
  8
ASSI
100
AcDbLine
 62
7
  6
CONTINUOUS
 10
-5.3804891866
 20
6.0579248545
 11
-5.3808198945
 21
6.1027612969
  0
LINE
  5
2BC
100
AcDbEntity
  8
ASSI
100
AcDbLine
 62
7
  6
CONTINUOUS
 10
-5.3808198945
 20
6.1027612969
 11
-5.3833280788
 21
6.4615229937
  0
LINE
  5
2BD
100
AcDbEntity
  8
ASSI
100
AcDbLine
 62
7
  6
CONTINUOUS
 10
-5.3833280788
 20
6.4615229937
 11
-5.3836244169
 21
6.5063769667
  0
LINE
  5
2BE
100
AcDbEntity
  8
ASSI
100
AcDbLine
 62
7
  6
CONTINUOUS
 10
-5.3836244169
 20
6.5063769667
 11
-5.384771569
 21
6.6858104402
  0
SPLINE
  5
2BF
100
AcDbEntity
  8
ASSI
100
AcDbSpline
 62
7
  6
CONTINUOUS
 70
0
 71
3
 72
25
 73
21
 74
19
 42
0.0000001
 43
0.0000001
 44
0.0000000001
 12
-0.5245274405
 22
0.2622637203
 32
0.0
 13
-0.0050025686
 23
0.5864181692
 33
0.0
 40
0.0
 40
0.0
 40
0.0
 40
0.0
 40
0.0479689405
 40
0.0980125495
 40
0.1498255404
 40
0.2031382304
 40
0.2581145878
 40
0.3144706373
 40
0.3717636343
 40
0.4297891306
 40
0.4886088045
 40
0.5477482898
 40
0.6067200463
 40
0.6655679539
 40
0.7240731896
 40
0.7817494485
 40
0.8382510683
 40
0.8937000221
 40
0.9477535516
 40
1.0
 40
1.0
 40
1.0
 40
1.0
 10
-5.0912984309
 20
4.9908948728
 30
0.0
 10
-5.0996854394
 20
4.9950883771
 30
0.0
 10
-5.1164601568
 20
5.0043970431
 30
0.0
 10
-5.1409114136
 20
5.0205652417
 30
0.0
 10
-5.1649648247
 20
5.0390854241
 30
0.0
 10
-5.1884457273
 20
5.0598096163
 30
0.0
 10
-5.2112018115
 20
5.0825983579
 30
0.0
 10
-5.2330672919
 20
5.1072903735
 30
0.0
 10
-5.2538497512
 20
5.1336623002
 30
0.0
 10
-5.2734183573
 20
5.1615365576
 30
0.0
 10
-5.2916436377
 20
5.1907330814
 30
0.0
 10
-5.3083758805
 20
5.2210213593
 30
0.0
 10
-5.3234841633
 20
5.2521574835
 30
0.0
 10
-5.3368705659
 20
5.2839376109
 30
0.0
 10
-5.3484391143
 20
5.3161552721
 30
0.0
 10
-5.3580814512
 20
5.3485233415
 30
0.0
 10
-5.3657300437
 20
5.3808067117
 30
0.0
 10
-5.3713300438
 20
5.4127910219
 30
0.0
 10
-5.3748292506
 20
5.4442360935
 30
0.0
 10
-5.3757553344
 20
5.465014356
 30
0.0
 10
-5.3758424566
 20
5.4752271115
 30
0.0
 11
-5.0912984309
 21
4.9908948728
 31
0.0
 11
-5.1159184284
 21
5.0045037756
 31
0.0
 11
-5.1404214277
 21
5.0206556077
 31
0.0
 11
-5.1645190689
 21
5.039164069
 31
0.0
 11
-5.1879799667
 21
5.0598296374
 31
0.0
 11
-5.210779172
 21
5.0826251127
 31
0.0
 11
-5.2327051403
 21
5.1073539555
 31
0.0
 11
-5.2535139109
 21
5.1337334854
 31
0.0
 11
-5.2730751821
 21
5.1615775446
 31
0.0
 11
-5.2913467694
 21
5.190834981
 31
0.0
 11
-5.3081195478
 21
5.2211911392
 31
0.0
 11
-5.3232155584
 21
5.2523057626
 31
0.0
 11
-5.3366066741
 21
5.284112508
 31
0.0
 11
-5.3481917336
 21
5.3164072058
 31
0.0
 11
-5.3578339109
 21
5.3488273666
 31
0.0
 11
-5.3654536594
 21
5.3810741216
 31
0.0
 11
-5.371037361
 21
5.413108592
 31
0.0
 11
-5.3745131788
 21
5.4446165787
 31
0.0
 11
-5.3758424566
 21
5.4752271115
 31
0.0
  0
SPLINE
  5
2C0
100
AcDbEntity
  8
ASSI
100
AcDbSpline
 62
7
  6
CONTINUOUS
 70
0
 71
3
 72
16
 73
12
 74
10
 42
0.0000001
 43
0.0000001
 44
0.0000000001
 12
-0.0013169092
 22
0.211640437
 32
0.0
 13
0.1590675193
 23
0.1398736643
 33
0.0
 40
0.0
 40
0.0
 40
0.0
 40
0.0
 40
0.1395272774
 40
0.2739201021
 40
0.402445843
 40
0.5248674379
 40
0.6421671143
 40
0.7545208464
 40
0.8621290013
 40
0.9659378976
 40
1.0
 40
1.0
 40
1.0
 40
1.0
 10
-5.384771569
 20
6.6858104402
 30
0.0
 10
-5.3848328172
 20
6.6956536449
 30
0.0
 10
-5.3842807098
 20
6.7149907603
 30
0.0
 10
-5.3812973701
 20
6.7432546175
 30
0.0
 10
-5.3761963116
 20
6.7699920059
 30
0.0
 10
-5.369021566
 20
6.7950011725
 30
0.0
 10
-5.3598187383
 20
6.8181200325
 30
0.0
 10
-5.3486394803
 20
6.8391818077
 30
0.0
 10
-5.335579817
 20
6.8579922852
 30
0.0
 10
-5.3239333458
 20
6.8708773584
 30
0.0
 10
-5.3167712762
 20
6.8774740666
 30
0.0
 10
-5.3149652181
 20
6.879062197
 30
0.0
 11
-5.384771569
 21
6.6858104402
 31
0.0
 11
-5.3838867575
 21
6.7153273671
 31
0.0
 11
-5.3808537383
 21
6.7436087015
 31
0.0
 11
-5.375704376
 21
6.770318632
 31
0.0
 11
-5.3685056919
 21
6.7952083862
 31
0.0
 11
-5.3592695681
 21
6.8182521732
 31
0.0
 11
-5.3480696098
 21
6.8392284529
 31
0.0
 11
-5.3350372745
 21
6.8579058238
 31
0.0
 11
-5.3202722654
 21
6.8741754622
 31
0.0
 11
-5.3149652181
 21
6.879062197
 31
0.0
  0
SPLINE
  5
2C1
100
AcDbEntity
  8
ASSI
100
AcDbSpline
 62
253
  6
CONTINUOUS
 70
0
 71
3
 72
16
 73
12
 74
10
 42
0.0000001
 43
0.0000001
 44
0.0000000001
 12
-1.2344583664
 22
9.7271614722
 32
0.0
 13
-0.1480278181
 23
9.8040627053
 33
0.0
 40
0.0
 40
0.0
 40
0.0
 40
0.0
 40
0.1080730282
 40
0.216918925
 40
0.3265327533
 40
0.4369090339
 40
0.5480417747
 40
0.6599244812
 40
0.7725501569
 40
0.8859113138
 40
1.0
 40
1.0
 40
1.0
 40
1.0
 10
-8.8427137211
 20
-5.9084558707
 30
0.0
 10
-8.8871842724
 20
-5.5580412719
 30
0.0
 10
-8.9718090589
 20
-4.8541095106
 30
0.0
 10
-9.0854667414
 20
-3.7929133423
 30
0.0
 10
-9.1862762296
 20
-2.7228568449
 30
0.0
 10
-9.2742160911
 20
-1.644167746
 30
0.0
 10
-9.3492679923
 20
-0.5570724336
 30
0.0
 10
-9.4114161957
 20
0.5381999629
 30
0.0
 10
-9.4606477063
 20
1.641419447
 30
0.0
 10
-9.4969521973
 20
2.7523517686
 30
0.0
 10
-9.5124828953
 20
3.495605119
 30
0.0
 10
-9.5181123284
 20
3.8684493302
 30
0.0
 11
-8.8427137211
 21
-5.9084558707
 31
0.0
 11
-8.9692435486
 21
-4.8563615823
 31
0.0
 11
-9.0829483028
 21
-3.7951822702
 31
0.0
 11
-9.1838040748
 21
-2.7251414647
 31
0.0
 11
-9.2717896554
 21
-1.6464646065
 31
0.0
 11
-9.3468865517
 21
-0.5593788567
 31
0.0
 11
-9.4090789832
 21
0.5358869213
 31
0.0
 11
-9.4583538764
 21
1.6391020829
 31
0.0
 11
-9.4947008708
 21
2.7500342146
 31
0.0
 11
-9.5181123284
 21
3.8684493302
 31
0.0
  0
SPLINE
  5
2C2
100
AcDbEntity
  8
ASSI
100
AcDbSpline
 62
253
  6
CONTINUOUS
 70
0
 71
3
 72
17
 73
13
 74
11
 42
0.0000001
 43
0.0000001
 44
0.0000000001
 12
-0.2159827681
 22
0.1079954703
 32
0.0
 13
-0.0005697064
 23
0.2417616987
 33
0.0
 40
0.0
 40
0.0
 40
0.0
 40
0.0
 40
0.13603101
 40
0.2646719717
 40
0.3858331644
 40
0.499640539
 40
0.6064857625
 40
0.7070633195
 40
0.8024026324
 40
0.8938741356
 40
0.9831446548
 40
1.0
 40
1.0
 40
1.0
 40
1.0
 10
-9.5795987162
 20
11.7182460052
 30
0.0
 10
-9.5893921676
 20
11.7231429161
 30
0.0
 10
-9.6081382914
 20
11.7333099072
 30
0.0
 10
-9.6342611151
 20
11.7501658994
 30
0.0
 10
-9.6574421117
 20
11.7680995501
 30
0.0
 10
-9.6775125959
 20
11.7869895875
 30
0.0
 10
-9.6943246037
 20
11.8067118744
 30
0.0
 10
-9.7077462933
 20
11.8271379317
 30
0.0
 10
-9.7176603314
 20
11.8481313755
 30
0.0
 10
-9.7239653194
 20
11.869540746
 30
0.0
 10
-9.7258849728
 20
11.8854062793
 30
0.0
 10
-9.7260430038
 20
11.8939582146
 30
0.0
 10
-9.7260462047
 20
11.8953165403
 30
0.0
 11
-9.5795987162
 21
11.7182460052
 31
0.0
 11
-9.6084433833
 21
11.733962494
 31
0.0
 11
-9.6345056919
 21
11.7508658972
 31
0.0
 11
-9.6575963754
 21
11.7688335436
 31
0.0
 11
-9.6775468219
 21
11.7877342883
 31
0.0
 11
-9.6942120316
 21
11.8074307354
 31
0.0
 11
-9.7074707565
 21
11.8277796198
 31
0.0
 11
-9.7172264436
 21
11.8486327871
 31
0.0
 11
-9.7234081104
 21
11.8698384953
 31
0.0
 11
-9.7259707846
 21
11.891242486
 31
0.0
 11
-9.7260462047
 21
11.8953165403
 31
0.0
  0
SPLINE
  5
2C3
100
AcDbEntity
  8
ASSI
100
AcDbSpline
 62
253
  6
CONTINUOUS
 70
0
 71
3
 72
18
 73
14
 74
12
 42
0.0000001
 43
0.0000001
 44
0.0000000001
 12
-0.0146251891
 22
-0.3374729221
 32
0.0
 13
-0.3134234949
 23
-0.1267203006
 33
0.0
 40
0.0
 40
0.0
 40
0.0
 40
0.0
 40
0.11202914
 40
0.220003865
 40
0.3237389448
 40
0.4231623526
 40
0.5183318675
 40
0.6094511725
 40
0.696883202
 40
0.7811571033
 40
0.8629639376
 40
0.9431361493
 40
1.0
 40
1.0
 40
1.0
 40
1.0
 10
7.0477374628
 20
-13.4886294408
 30
0.0
 10
7.0471913137
 20
-13.5012317079
 30
0.0
 10
7.0452829671
 20
-13.5259542768
 30
0.0
 10
7.0398077402
 20
-13.5620270564
 30
0.0
 10
7.0318080136
 20
-13.596175416
 30
0.0
 10
7.0213396667
 20
-13.6281410191
 30
0.0
 10
7.0084752716
 20
-13.6576837776
 30
0.0
 10
6.9933036844
 20
-13.6845790487
 30
0.0
 10
6.9759300478
 20
-13.7086187309
 30
0.0
 10
6.9564768495
 20
-13.7296112971
 30
0.0
 10
6.9350860527
 20
-13.7473830998
 30
0.0
 10
6.9140904378
 20
-13.7604335321
 30
0.0
 10
6.9000663151
 20
-13.7669466603
 30
0.0
 10
6.8941254929
 20
-13.7693485951
 30
0.0
 11
7.0477374628
 21
-13.4886294408
 31
0.0
 11
7.044777828
 21
-13.5263558147
 31
0.0
 11
7.0392514838
 21
-13.5624074564
 31
0.0
 11
7.0312003913
 21
-13.5965106284
 31
0.0
 11
7.020685682
 21
-13.6284063877
 31
0.0
 11
7.0077871933
 21
-13.6578525523
 31
0.0
 11
6.9926028623
 21
-13.6846255396
 31
0.0
 11
6.9752479826
 21
-13.7085220643
 31
0.0
 11
6.9558543286
 21
-13.7293606818
 31
0.0
 11
6.9345691548
 21
-13.7469831661
 31
0.0
 11
6.911554078
 21
-13.7612557108
 31
0.0
 11
6.8941254929
 21
-13.7693485951
 31
0.0
  0
SPLINE
  5
2C4
100
AcDbEntity
  8
ASSI
100
AcDbSpline
 62
253
  6
CONTINUOUS
 70
0
 71
3
 72
26
 73
22
 74
20
 42
0.0000001
 43
0.0000001
 44
0.0000000001
 12
0.0639075782
 22
-0.4718179908
 32
0.0
 13
0.4414253651
 23
0.1784377821
 33
0.0
 40
0.0
 40
0.0
 40
0.0
 40
0.0
 40
0.0604714473
 40
0.1189577881
 40
0.1754896565
 40
0.2301507618
 40
0.2830756018
 40
0.3344495457
 40
0.3845087349
 40
0.4335365193
 40
0.4818566178
 40
0.5298216896
 40
0.5777998971
 40
0.6261586397
 40
0.6752493941
 40
0.7253932963
 40
0.7768707761
 40
0.8299146356
 40
0.8847072271
 40
0.9413785448
 40
1.0
 40
1.0
 40
1.0
 40
1.0
 10
6.7050764285
 20
-13.2805329383
 30
0.0
 10
6.7063646231
 20
-13.2900434439
 30
0.0
 10
6.7095349254
 20
-13.3086740451
 30
0.0
 10
6.7162231531
 20
-13.3357375099
 30
0.0
 10
6.7247337712
 20
-13.3613187292
 30
0.0
 10
6.7350254971
 20
-13.3852821742
 30
0.0
 10
6.7470486535
 20
-13.4075028662
 30
0.0
 10
6.7607446091
 20
-13.427862995
 30
0.0
 10
6.7760454058
 20
-13.4462528956
 30
0.0
 10
6.7928733602
 20
-13.4625717048
 30
0.0
 10
6.8111407006
 20
-13.4767285318
 30
0.0
 10
6.8307496906
 20
-13.4886440251
 30
0.0
 10
6.851593361
 20
-13.4982519713
 30
0.0
 10
6.8735571004
 20
-13.5055006041
 30
0.0
 10
6.8965204769
 20
-13.5103530769
 30
0.0
 10
6.9203590403
 20
-13.5127872073
 30
0.0
 10
6.9449456191
 20
-13.5127946592
 30
0.0
 10
6.9701510175
 20
-13.5103801293
 30
0.0
 10
6.9958448833
 20
-13.5055602291
 30
0.0
 10
7.0218918397
 20
-13.4983647063
 30
0.0
 10
7.0391117971
 20
-13.4921162016
 30
0.0
 10
7.0477374628
 20
-13.4886294408
 30
0.0
 11
6.7050764285
 21
-13.2805329383
 31
0.0
 11
6.7099401489
 21
-13.3089112167
 31
0.0
 11
6.716655869
 21
-13.3359361791
 31
0.0
 11
6.7251883751
 21
-13.3614642911
 31
0.0
 11
6.7354933821
 21
-13.3853627968
 31
0.0
 11
6.7475175583
 21
-13.4075078767
 31
0.0
 11
6.7611985955
 21
-13.4277845865
 31
0.0
 11
6.7764655822
 21
-13.4460876653
 31
0.0
 11
6.7932393577
 21
-13.4623220714
 31
0.0
 11
6.8114330263
 21
-13.4764035629
 31
0.0
 11
6.8309522042
 21
-13.4882589553
 31
0.0
 11
6.8516957108
 21
-13.4978266753
 31
0.0
 11
6.8735558989
 21
-13.5050569664
 31
0.0
 11
6.8964194579
 21
-13.5099122525
 31
0.0
 11
6.9201677404
 21
-13.5123672414
 31
0.0
 11
6.9446774943
 21
-13.512409117
 31
0.0
 11
6.9698214899
 21
-13.5100376127
 31
0.0
 11
6.9954694135
 21
-13.5052649514
 31
0.0
 11
7.0214878425
 21
-13.4981159539
 31
0.0
 11
7.0477374628
 21
-13.4886294408
 31
0.0
  0
SPLINE
  5
2C5
100
AcDbEntity
  8
ASSI
100
AcDbSpline
 62
253
  6
CONTINUOUS
 70
0
 71
3
 72
18
 73
14
 74
12
 42
0.0000001
 43
0.0000001
 44
0.0000000001
 12
0.0672629585
 22
-0.5045475144
 32
0.0
 13
0.45473559
 23
-0.229335339
 33
0.0
 40
0.0
 40
0.0
 40
0.0
 40
0.0
 40
0.1129293346
 40
0.2220200623
 40
0.3273306381
 40
0.4290051563
 40
0.5272852747
 40
0.6225115084
 40
0.7151242992
 40
0.8056584685
 40
0.8947311725
 40
0.9830205113
 40
1.0
 40
1.0
 40
1.0
 40
1.0
 10
6.0144748845
 20
-13.3370501735
 30
0.0
 10
6.0170068716
 20
-13.3560429119
 30
0.0
 10
6.0232362641
 20
-13.393231485
 30
0.0
 10
6.0363842863
 20
-13.4472430268
 30
0.0
 10
6.0531142524
 20
-13.4982575676
 30
0.0
 10
6.073345671
 20
-13.5460078793
 30
0.0
 10
6.0969813577
 20
-13.5902452995
 30
0.0
 10
6.1239066745
 20
-13.6307356262
 30
0.0
 10
6.1539888743
 20
-13.6672608219
 30
0.0
 10
6.1870761156
 20
-13.6996202056
 30
0.0
 10
6.222996494
 20
-13.727632713
 30
0.0
 10
6.2512142495
 20
-13.7448345075
 30
0.0
 10
6.2670810474
 20
-13.7530595482
 30
0.0
 10
6.2696547734
 20
-13.7543575471
 30
0.0
 11
6.0144748845
 21
-13.3370501735
 31
0.0
 11
6.0240395542
 21
-13.3937311466
 31
0.0
 11
6.0372445522
 21
-13.4476665956
 31
0.0
 11
6.0540217203
 21
-13.4985777405
 31
0.0
 11
6.0742839424
 21
-13.5461998454
 31
0.0
 11
6.0979263724
 21
-13.5902861835
 31
0.0
 11
6.1248264929
 21
-13.6306079335
 31
0.0
 11
6.1548448793
 21
-13.6669557847
 31
0.0
 11
6.1878258859
 21
-13.6991410024
 31
0.0
 11
6.2235986729
 21
-13.7269965902
 31
0.0
 11
6.2619776754
 21
-13.7503777816
 31
0.0
 11
6.2696547734
 21
-13.7543575471
 31
0.0
  0
SPLINE
  5
2C6
100
AcDbEntity
  8
ASSI
100
AcDbSpline
 62
253
  6
CONTINUOUS
 70
0
 71
3
 72
25
 73
21
 74
19
 42
0.0000001
 43
0.0000001
 44
0.0000000001
 12
-0.604709483
 22
-0.3899745273
 32
0.0
 13
-0.6450072096
 23
0.3189347744
 33
0.0
 40
0.0
 40
0.0
 40
0.0
 40
0.0
 40
0.0519489921
 40
0.1056337261
 40
0.1608610208
 40
0.2174103325
 40
0.2750390332
 40
0.3334872945
 40
0.392482682
 40
0.4517445493
 40
0.5109883064
 40
0.56992963
 40
0.6282886781
 40
0.6857943707
 40
0.7421888042
 40
0.7972318777
 40
0.8507062212
 40
0.9024225311
 40
0.9522254347
 40
1.0
 40
1.0
 40
1.0
 40
1.0
 10
6.7050764285
 20
-13.2805329383
 30
0.0
 10
6.6946050791
 20
-13.2872858662
 30
0.0
 10
6.6728386746
 20
-13.3002943718
 30
0.0
 10
6.638530014
 20
-13.3179927678
 30
0.0
 10
6.6022332917
 20
-13.3340946525
 30
0.0
 10
6.5642127444
 20
-13.3484827915
 30
0.0
 10
6.5247427375
 20
-13.3610536934
 30
0.0
 10
6.4841090452
 20
-13.3717163812
 30
0.0
 10
6.4426058268
 20
-13.3803937173
 30
0.0
 10
6.4005336995
 20
-13.387022857
 30
0.0
 10
6.3581974386
 20
-13.391555782
 30
0.0
 10
6.3159037323
 20
-13.3939596515
 30
0.0
 10
6.273958898
 20
-13.394217042
 30
0.0
 10
6.2326665971
 20
-13.3923260478
 30
0.0
 10
6.1923256011
 20
-13.3883002644
 30
0.0
 10
6.1532274658
 20
-13.3821685659
 30
0.0
 10
6.1156547383
 20
-13.3739749657
 30
0.0
 10
6.0798775625
 20
-13.3637774795
 30
0.0
 10
6.046156434
 20
-13.3516497939
 30
0.0
 10
6.0247465369
 20
-13.3421291595
 30
0.0
 10
6.0144748906
 20
-13.3370501694
 30
0.0
 11
6.7050764285
 21
-13.2805329383
 31
0.0
 11
6.6730117277
 21
-13.2997453224
 31
0.0
 11
6.6386979804
 21
-13.3174867742
 31
0.0
 11
6.6023849909
 21
-13.3336281358
 31
0.0
 11
6.5643371183
 21
-13.3480518977
 31
0.0
 11
6.5248313516
 21
-13.360653055
 31
0.0
 11
6.4841552931
 21
-13.3713398709
 31
0.0
 11
6.4426050651
 21
-13.3800345454
 31
0.0
 11
6.4004831537
 21
-13.3866737812
 31
0.0
 11
6.358096207
 21
-13.3912092444
 31
0.0
 11
6.3157528023
 21
-13.393607917
 31
0.0
 11
6.2737612002
 21
-13.3938523365
 31
0.0
 11
6.2324271001
 21
-13.3919407235
 31
0.0
 11
6.1920514145
 21
-13.3878869946
 31
0.0
 11
6.1529280792
 21
-13.381720661
 31
0.0
 11
6.1153419123
 21
-13.3734866138
 31
0.0
 11
6.0795665416
 21
-13.3632447967
 31
0.0
 11
6.0458624122
 21
-13.3510697705
 31
0.0
 11
6.0144748906
 21
-13.3370501694
 31
0.0
  0
SPLINE
  5
2C7
100
AcDbEntity
  8
ASSI
100
AcDbSpline
 62
253
  6
CONTINUOUS
 70
0
 71
3
 72
10
 73
6
 74
4
 42
0.0000001
 43
0.0000001
 44
0.0000000001
 12
0.0500555655
 22
-3.093816266
 32
0.0
 13
0.1594497296
 23
-3.0901317943
 33
0.0
 40
0.0
 40
0.0
 40
0.0
 40
0.0
 40
0.3598065517
 40
0.7174872089
 40
1.0
 40
1.0
 40
1.0
 40
1.0
 10
5.9849686117
 20
-3.5337131655
 30
0.0
 10
5.9909720519
 20
-3.9047716195
 30
0.0
 10
6.0075369175
 20
-4.6446304293
 30
0.0
 10
6.0436139926
 20
-5.6754326559
 30
0.0
 10
6.0742611892
 20
-6.3350343442
 30
0.0
 10
6.0892767186
 20
-6.6260349302
 30
0.0
 11
5.9849686117
 21
-3.5337131655
 31
0.0
 11
6.0099298202
 21
-4.6467543581
 31
0.0
 11
6.0486828673
 21
-5.7528187351
 31
0.0
 11
6.0892767186
 21
-6.6260349302
 31
0.0
  0
SPLINE
  5
2C8
100
AcDbEntity
  8
ASSI
100
AcDbSpline
 62
253
  6
CONTINUOUS
 70
0
 71
3
 72
14
 73
10
 74
8
 42
0.0000001
 43
0.0000001
 44
0.0000000001
 12
0.344477533
 22
-6.6759660218
 32
0.0
 13
0.8972308591
 23
-6.6243141608
 33
0.0
 40
0.0
 40
0.0
 40
0.0
 40
0.0
 40
0.033800889
 40
0.1973696782
 40
0.3599316521
 40
0.5214806867
 40
0.6820113937
 40
0.841519133
 40
1.0
 40
1.0
 40
1.0
 40
1.0
 10
6.0892767186
 20
-6.6260349302
 30
0.0
 10
6.0931579342
 20
-6.7012527923
 30
0.0
 10
6.1164028091
 20
-7.1404338712
 30
0.0
 10
6.1650100076
 20
-7.9410058751
 30
0.0
 10
6.2450351197
 20
-9.0247674814
 30
0.0
 10
6.3388017468
 20
-10.1006319783
 30
0.0
 10
6.4462903644
 20
-11.1683736431
 30
0.0
 10
6.5674780753
 20
-12.2277648136
 30
0.0
 10
6.6576784537
 20
-12.9305905879
 30
0.0
 10
6.7050764285
 20
-13.2805329383
 30
0.0
 11
6.0892767186
 21
-6.6260349302
 31
0.0
 11
6.1012196008
 21
-6.8516728164
 31
0.0
 11
6.1675289743
 21
-7.9430851081
 31
0.0
 11
6.247597049
 21
-9.0268257777
 31
0.0
 11
6.3414069999
 21
-10.102666667
 31
0.0
 11
6.4489391097
 21
-11.1703812131
 31
0.0
 11
6.5701707652
 21
-12.229744467
 31
0.0
 11
6.7050764285
 21
-13.2805329383
 31
0.0
  0
SPLINE
  5
2C9
100
AcDbEntity
  8
ASSI
100
AcDbSpline
 62
253
  6
CONTINUOUS
 70
0
 71
3
 72
16
 73
12
 74
10
 42
0.0000001
 43
0.0000001
 44
0.0000000001
 12
0.159049173
 22
-9.8322873465
 32
0.0
 13
1.3196312823
 23
-9.7446264363
 33
0.0
 40
0.0
 40
0.0
 40
0.0
 40
0.0
 40
0.113848609
 40
0.2270243491
 40
0.33952156
 40
0.4513350501
 40
0.562460123
 40
0.672892586
 40
0.7826287491
 40
0.8916654339
 40
1.0
 40
1.0
 40
1.0
 40
1.0
 10
5.2904798632
 20
-3.5358467656
 30
0.0
 10
5.2965157056
 20
-3.9089775115
 30
0.0
 10
5.3131699819
 20
-4.6529676578
 30
0.0
 10
5.3520905097
 20
-5.7652187021
 30
0.0
 10
5.4048685666
 20
-6.8702223032
 30
0.0
 10
5.4714930904
 20
-7.9677435338
 30
0.0
 10
5.5519501648
 20
-9.0575519979
 30
0.0
 10
5.6462229285
 20
-10.1394179408
 30
0.0
 10
5.7542917509
 20
-11.2131143809
 30
0.0
 10
5.876133628
 20
-12.2784125021
 30
0.0
 10
5.9668209904
 20
-12.9851568812
 30
0.0
 10
6.0144748845
 20
-13.3370501735
 30
0.0
 11
5.2904798632
 21
-3.5358467656
 31
0.0
 11
5.3155758266
 21
-4.6551041341
 31
0.0
 11
5.3545380671
 21
-5.7673438889
 31
0.0
 11
5.4073583973
 21
-6.8723317689
 31
0.0
 11
5.4740257108
 21
-7.969834988
 31
0.0
 11
5.5545259938
 21
-9.0596224312
 31
0.0
 11
5.6488423304
 21
-10.1414646673
 31
0.0
 11
5.7569548968
 21
-11.21513387
 31
0.0
 11
5.8788409579
 21
-12.2804038356
 31
0.0
 11
6.0144748845
 21
-13.3370501735
 31
0.0
  0
SPLINE
  5
2CA
100
AcDbEntity
  8
ASSI
100
AcDbSpline
 62
253
  6
CONTINUOUS
 70
0
 71
3
 72
25
 73
21
 74
19
 42
0.0000001
 43
0.0000001
 44
0.0000000001
 12
-0.6423647763
 22
-0.3139711931
 32
0.0
 13
-0.6397108624
 23
0.3193437466
 33
0.0
 40
0.0
 40
0.0
 40
0.0
 40
0.0
 40
0.0496825043
 40
0.1014998182
 40
0.1552483517
 40
0.2106923844
 40
0.2675699993
 40
0.3255983861
 40
0.3844786963
 40
0.4439005886
 40
0.5035465721
 40
0.5630962312
 40
0.6222304052
 40
0.6806353868
 40
0.7380072088
 40
0.7940560977
 40
0.8485111903
 40
0.9011256391
 40
0.9516822694
 40
1.0
 40
1.0
 40
1.0
 40
1.0
 10
5.9849686117
 20
-3.5337131655
 30
0.0
 10
5.9743305148
 20
-3.5389127905
 30
0.0
 10
5.9522355797
 20
-3.5488078827
 30
0.0
 10
5.9176032845
 20
-3.5618861447
 30
0.0
 10
5.8809902086
 20
-3.5734378726
 30
0.0
 10
5.8426623192
 20
-3.5833789002
 30
0.0
 10
5.8028958263
 20
-3.591637642
 30
0.0
 10
5.7619784266
 20
-3.5981541922
 30
0.0
 10
5.7202062082
 20
-3.6028812932
 30
0.0
 10
5.6778816908
 20
-3.6057846147
 30
0.0
 10
5.6353114924
 20
-3.6068430712
 30
0.0
 10
5.5928040612
 20
-3.6060489841
 30
0.0
 10
5.5506673718
 20
-3.6034081434
 30
0.0
 10
5.509206624
 20
-3.5989397529
 30
0.0
 10
5.4687219841
 20
-3.5926762762
 30
0.0
 10
5.4295062561
 20
-3.5846631161
 30
0.0
 10
5.3918429698
 20
-3.5749583496
 30
0.0
 10
5.3560032133
 20
-3.5636316875
 30
0.0
 10
5.3222472491
 20
-3.5507655495
 30
0.0
 10
5.300782989
 20
-3.5409900873
 30
0.0
 10
5.2904798633
 20
-3.5358467656
 30
0.0
 11
5.9849686117
 21
-3.5337131655
 31
0.0
 11
5.9525691616
 21
-3.548277591
 31
0.0
 11
5.9179242239
 21
-3.5614056392
 31
0.0
 11
5.8812858882
 21
-3.5730017855
 31
0.0
 11
5.8429207488
 21
-3.582981652
 31
0.0
 11
5.8031079648
 21
-3.5912726213
 31
0.0
 11
5.7621372291
 21
-3.5978143654
 31
0.0
 11
5.7203066601
 21
-3.6025592839
 31
0.0
 11
5.6779206327
 21
-3.6054728511
 31
0.0
 11
5.6352875637
 21
-3.6065338668
 31
0.0
 11
5.5927176672
 21
-3.6057346107
 31
0.0
 11
5.5505206977
 21
-3.6030808983
 31
0.0
 11
5.5090036964
 21
-3.5985920392
 31
0.0
 11
5.4684687565
 21
-3.592300696
 31
0.0
 11
5.4292108254
 21
-3.5842526467
 31
0.0
 11
5.3915155587
 21
-3.5745064521
 31
0.0
 11
5.3556572411
 21
-3.5631330292
 31
0.0
 11
5.3218967915
 21
-3.5502151352
 31
0.0
 11
5.2904798633
 21
-3.5358467656
 31
0.0
  0
SPLINE
  5
2CB
100
AcDbEntity
  8
ASSI
100
AcDbSpline
 62
253
  6
CONTINUOUS
 70
0
 71
3
 72
25
 73
21
 74
19
 42
0.0000001
 43
0.0000001
 44
0.0000000001
 12
-0.6460963923
 22
-0.3048847509
 32
0.0
 13
-0.6390010858
 23
0.3194884534
 33
0.0
 40
0.0
 40
0.0
 40
0.0
 40
0.0
 40
0.0494328262
 40
0.1010447089
 40
0.1546315361
 40
0.2099543778
 40
0.2667494203
 40
0.3247313615
 40
0.3835981563
 40
0.4430362134
 40
0.5027246367
 40
0.5623391465
 40
0.6215564156
 40
0.6800584166
 40
0.7375363898
 40
0.7936951737
 40
0.8482585284
 40
0.9009740369
 40
0.9516168911
 40
1.0
 40
1.0
 40
1.0
 40
1.0
 10
5.9190997616
 20
4.3121072127
 30
0.0
 10
5.908453638
 20
4.307083441
 30
0.0
 10
5.8863435373
 20
4.2975407061
 30
0.0
 10
5.8517069379
 20
4.2849833544
 30
0.0
 10
5.8150896168
 20
4.2739450647
 30
0.0
 10
5.7767574667
 20
4.264506402
 30
0.0
 10
5.7369869019
 20
4.2567353764
 30
0.0
 10
5.6960655843
 20
4.2506883959
 30
0.0
 10
5.65428968
 20
4.246409346
 30
0.0
 10
5.6119617946
 20
4.2439293295
 30
0.0
 10
5.5693885824
 20
4.2432663703
 30
0.0
 10
5.5268785333
 20
4.2444252843
 30
0.0
 10
5.4847396633
 20
4.247397634
 30
0.0
 10
5.4432772063
 20
4.2521618056
 30
0.0
 10
5.4027914116
 20
4.2586831724
 30
0.0
 10
5.3635751587
 20
4.2669144231
 30
0.0
 10
5.3259119466
 20
4.2767958655
 30
0.0
 10
5.290073078
 20
4.288256402
 30
0.0
 10
5.2563187128
 20
4.3012125276
 30
0.0
 10
5.234851333
 20
4.3110211756
 30
0.0
 10
5.2245457133
 20
4.3161737904
 30
0.0
 11
5.9190997616
 21
4.3121072127
 31
0.0
 11
5.8866950926
 21
4.2980665046
 31
0.0
 11
5.8520449832
 21
4.2854588128
 31
0.0
 11
5.8154009018
 21
4.2743756812
 31
0.0
 11
5.777030352
 21
4.2648980646
 31
0.0
 11
5.737212268
 21
4.257094837
 31
0.0
 11
5.6962362913
 21
4.2510227724
 31
0.0
 11
5.654400769
 21
4.2467260849
 31
0.0
 11
5.6120101311
 21
4.2442360313
 31
0.0
 11
5.5693727464
 21
4.2435707205
 31
0.0
 11
5.5267988933
 21
4.2447349934
 31
0.0
 11
5.4845983851
 21
4.2477203727
 31
0.0
 11
5.4430782013
 21
4.2525051409
 31
0.0
 11
5.4025404684
 21
4.2590544854
 31
0.0
 11
5.3632803278
 21
4.2673207134
 31
0.0
 11
5.325583341
 21
4.2772436854
 31
0.0
 11
5.2897235403
 21
4.2887512811
 31
0.0
 11
5.2559626604
 21
4.3017594722
 31
0.0
 11
5.2245457133
 21
4.3161737904
 31
0.0
  0
SPLINE
  5
2CC
100
AcDbEntity
  8
ASSI
100
AcDbSpline
 62
253
  6
CONTINUOUS
 70
0
 71
3
 72
22
 73
18
 74
16
 42
0.0000001
 43
0.0000001
 44
0.0000000001
 12
-0.0027087752
 22
0.3665121304
 32
0.0
 13
-0.322967055
 23
0.1732938562
 33
0.0
 40
0.0
 40
0.0
 40
0.0
 40
0.0
 40
0.0629566414
 40
0.1283834588
 40
0.195913743
 40
0.2651259748
 40
0.3355575138
 40
0.4067172398
 40
0.4780975125
 40
0.5491857568
 40
0.6194759385
 40
0.6884801858
 40
0.7557408241
 40
0.8208431402
 40
0.8834292511
 40
0.9432135227
 40
1.0
 40
1.0
 40
1.0
 40
1.0
 10
5.9190983589
 20
4.3121065508
 30
0.0
 10
5.9190415138
 20
4.3197980084
 30
0.0
 10
5.9182669743
 20
4.3354834471
 30
0.0
 10
5.9152839588
 20
4.3592523227
 30
0.0
 10
5.9104884095
 20
4.3835021468
 30
0.0
 10
5.9039326417
 20
4.4079681047
 30
0.0
 10
5.8956879196
 20
4.4323854277
 30
0.0
 10
5.8858438531
 20
4.4564887456
 30
0.0
 10
5.8745074478
 20
4.4800161434
 30
0.0
 10
5.8618019381
 20
4.5027118501
 30
0.0
 10
5.8478653836
 20
4.5243292063
 30
0.0
 10
5.8328491015
 20
4.5446333931
 30
0.0
 10
5.8169157701
 20
4.5634041008
 30
0.0
 10
5.8002378324
 20
4.5804377256
 30
0.0
 10
5.7829940003
 20
4.5955502133
 30
0.0
 10
5.7653716888
 20
4.6085762949
 30
0.0
 10
5.7531695079
 20
4.6159722973
 30
0.0
 10
5.7470561208
 20
4.6192525465
 30
0.0
 11
5.9190983589
 21
4.3121065508
 31
0.0
 11
5.9179980599
 21
4.3351553057
 31
0.0
 11
5.9150425055
 21
4.3589528515
 31
0.0
 11
5.9102640651
 21
4.3832385582
 31
0.0
 11
5.9037150718
 21
4.4077464496
 31
0.0
 11
5.8954672502
 21
4.4322081161
 31
0.0
 11
5.88561093
 21
4.4563556542
 31
0.0
 11
5.8742540575
 21
4.479924601
 31
0.0
 11
5.8615210127
 21
4.5026568302
 31
0.0
 11
5.8475512476
 21
4.5243033792
 31
0.0
 11
5.8324977586
 21
4.5446271758
 31
0.0
 11
5.8165254109
 21
4.5634056345
 31
0.0
 11
5.7998091332
 21
4.5804330944
 31
0.0
 11
5.7825320016
 21
4.5955230713
 31
0.0
 11
5.7648832346
 21
4.6085103006
 31
0.0
 11
5.7470561208
 21
4.6192525465
 31
0.0
  0
SPLINE
  5
2CD
100
AcDbEntity
  8
ASSI
100
AcDbSpline
 62
253
  6
CONTINUOUS
 70
0
 71
3
 72
22
 73
18
 74
16
 42
0.0000001
 43
0.0000001
 44
0.0000000001
 12
-0.0002381892
 22
0.366577057
 32
0.0
 13
0.3264689291
 23
0.1667238248
 33
0.0
 40
0.0
 40
0.0
 40
0.0
 40
0.0
 40
0.0627686184
 40
0.1278905402
 40
0.1950351199
 40
0.2638167614
 40
0.333808161
 40
0.4045526051
 40
0.4755756292
 40
0.5463963039
 40
0.6165383904
 40
0.68554159
 40
0.7529731272
 40
0.8184399262
 40
0.8816016825
 40
0.9421851581
 40
1.0
 40
1.0
 40
1.0
 40
1.0
 10
-9.5796000108
 20
11.7182466526
 30
0.0
 10
-9.5796049944
 20
11.7259164978
 30
0.0
 10
-9.5789377736
 20
11.7415502519
 30
0.0
 10
-9.5760585238
 20
11.7652289094
 30
0.0
 10
-9.5713128254
 20
11.7893542606
 30
0.0
 10
-9.5647521106
 20
11.813665313
 30
0.0
 10
-9.5564471253
 20
11.8379016691
 30
0.0
 10
-9.5464873113
 20
11.8618025622
 30
0.0
 10
-9.5349798948
 20
11.8851108778
 30
0.0
 10
-9.5220487356
 20
11.9075757344
 30
0.0
 10
-9.5078329429
 20
11.9289553641
 30
0.0
 10
-9.4924853222
 20
11.94901975
 30
0.0
 10
-9.4761704981
 20
11.9675532002
 30
0.0
 10
-9.4590633372
 20
11.9843564678
 30
0.0
 10
-9.441345513
 20
11.9992494662
 30
0.0
 10
-9.4232079575
 20
12.0120706033
 30
0.0
 10
-9.4106576026
 20
12.0193209572
 30
0.0
 10
-9.4043660194
 20
12.0225339944
 30
0.0
 11
-9.5796000108
 21
11.7182466526
 31
0.0
 11
-9.5786559816
 21
11.7412368191
 31
0.0
 11
-9.5758048805
 21
11.7649381589
 31
0.0
 11
-9.5710776304
 21
11.7890936084
 31
0.0
 11
-9.5645255029
 21
11.8134411787
 31
0.0
 11
-9.5562195621
 21
11.8377167972
 31
0.0
 11
-9.5462498938
 21
11.8616571718
 31
0.0
 11
-9.5347246285
 21
11.8850026463
 31
0.0
 11
-9.5217687687
 21
11.9075000168
 31
0.0
 11
-9.5075228332
 21
11.9289052781
 31
0.0
 11
-9.4921413326
 21
11.9489862696
 31
0.0
 11
-9.4757910939
 21
11.967525194
 31
0.0
 11
-9.458649451
 21
11.9843209791
 31
0.0
 11
-9.4409023215
 21
11.9991914586
 31
0.0
 11
-9.4227421896
 21
12.0119753482
 31
0.0
 11
-9.4043660194
 21
12.0225339944
 31
0.0
  0
SPLINE
  5
2CE
100
AcDbEntity
  8
ASSI
100
AcDbSpline
 62
253
  6
CONTINUOUS
 70
0
 71
3
 72
22
 73
18
 74
16
 42
0.0000001
 43
0.0000001
 44
0.0000000001
 12
-0.000238189
 22
0.366577057
 32
0.0
 13
0.326468929
 23
0.166723825
 33
0.0
 40
0.0
 40
0.0
 40
0.0
 40
0.0
 40
0.0627686171
 40
0.1278905369
 40
0.1950351148
 40
0.2638167547
 40
0.3338081528
 40
0.4045525959
 40
0.4755756192
 40
0.5463962937
 40
0.6165383804
 40
0.6855415807
 40
0.7529731191
 40
0.8184399196
 40
0.8816016779
 40
0.9421851557
 40
1.0
 40
1.0
 40
1.0
 40
1.0
 10
5.2245470072
 20
4.3161731436
 30
0.0
 10
5.2245420236
 20
4.3238429886
 30
0.0
 10
5.2252092444
 20
4.3394767423
 30
0.0
 10
5.2280884941
 20
4.3631553992
 30
0.0
 10
5.2328341923
 20
4.3872807498
 30
0.0
 10
5.2393949068
 20
4.4115918016
 30
0.0
 10
5.2476998918
 20
4.4358281573
 30
0.0
 10
5.2576597054
 20
4.4597290501
 30
0.0
 10
5.2691671216
 20
4.4830373656
 30
0.0
 10
5.2820982806
 20
4.5055022222
 30
0.0
 10
5.296314073
 20
4.5268818521
 30
0.0
 10
5.3116616938
 20
4.5469462384
 30
0.0
 10
5.3279765179
 20
4.565479689
 30
0.0
 10
5.3450836791
 20
4.5822829572
 30
0.0
 10
5.3628015037
 20
4.5971759562
 30
0.0
 10
5.3809390598
 20
4.6099970938
 30
0.0
 10
5.3934894152
 20
4.617247448
 30
0.0
 10
5.3997809987
 20
4.6204604854
 30
0.0
 11
5.2245470072
 21
4.3161731436
 31
0.0
 11
5.2254910364
 21
4.3391633096
 31
0.0
 11
5.2283421374
 21
4.3628646487
 31
0.0
 11
5.2330693872
 21
4.3870200976
 31
0.0
 11
5.2396215144
 21
4.4113676673
 31
0.0
 11
5.2479274549
 21
4.4356432854
 31
0.0
 11
5.2578971229
 21
4.4595836597
 31
0.0
 11
5.2694223879
 21
4.482929134
 31
0.0
 11
5.2823782474
 21
4.5054265046
 31
0.0
 11
5.2966241827
 21
4.526831766
 31
0.0
 11
5.3120056833
 21
4.5469127579
 31
0.0
 11
5.3283559221
 21
4.5654516828
 31
0.0
 11
5.3454975652
 21
4.5822474684
 31
0.0
 11
5.3632446952
 21
4.5971179486
 31
0.0
 11
5.3814048277
 21
4.6099018387
 31
0.0
 11
5.3997809987
 21
4.6204604854
 31
0.0
  0
SPLINE
  5
2CF
100
AcDbEntity
  8
CURVE
100
AcDbSpline
 62
253
  6
CONTINUOUS
 70
0
 71
3
 72
19
 73
15
 74
13
 42
0.0000001
 43
0.0000001
 44
0.0000000001
 12
-0.2737802815
 22
0.394399478
 32
0.0
 13
0.3382082269
 23
-0.1691021029
 33
0.0
 40
0.0
 40
0.0
 40
0.0
 40
0.0
 40
0.0833333333
 40
0.1666666667
 40
0.25
 40
0.3333333333
 40
0.4166666667
 40
0.5
 40
0.5833333333
 40
0.6666666667
 40
0.75
 40
0.8333333333
 40
0.9166666667
 40
1.0
 40
1.0
 40
1.0
 40
1.0
 10
-4.3797761584
 20
-0.2763070363
 30
0.0
 10
-4.3873811662
 20
-0.2653514952
 30
0.0
 10
-4.4005204142
 20
-0.2435673336
 30
0.0
 10
-4.4170527412
 20
-0.2079648986
 30
0.0
 10
-4.4293562667
 20
-0.1700621855
 30
0.0
 10
-4.4358928238
 20
-0.1327807237
 30
0.0
 10
-4.4363841807
 20
-0.0965940558
 30
0.0
 10
-4.4304037023
 20
-0.0643680643
 30
0.0
 10
-4.4181497244
 20
-0.0380056072
 30
0.0
 10
-4.4004299656
 20
-0.0185694819
 30
0.0
 10
-4.378475062
 20
-0.0069759941
 30
0.0
 10
-4.3529608047
 20
-0.0035189789
 30
0.0
 10
-4.3266313717
 20
-0.0074094257
 30
0.0
 10
-4.308998323
 20
-0.0140002836
 30
0.0
 10
-4.29960365
 20
-0.0186975642
 30
0.0
 11
-4.3797761584
 21
-0.2763070363
 31
0.0
 11
-4.3999909901
 21
-0.2430796348
 31
0.0
 11
-4.416347941
 21
-0.2075815189
 31
0.0
 11
-4.4283951053
 21
-0.1701657274
 31
0.0
 11
-4.4348852904
 21
-0.1329631894
 31
0.0
 11
-4.4353055415
 21
-0.0972541685
 31
0.0
 11
-4.429358119
 21
-0.06534532
 31
0.0
 11
-4.4172387609
 21
-0.0391599958
 31
0.0
 11
-4.3997241081
 21
-0.0198765882
 31
0.0
 11
-4.3778818364
 21
-0.0083320729
 31
0.0
 11
-4.3528249421
 21
-0.0047435559
 31
0.0
 11
-4.3266113484
 21
-0.0084087324
 31
0.0
 11
-4.29960365
 21
-0.0186975642
 31
0.0
  0
SPLINE
  5
2D0
100
AcDbEntity
  8
CURVE
100
AcDbSpline
 62
253
  6
CONTINUOUS
 70
0
 71
3
 72
19
 73
15
 74
13
 42
0.0000001
 43
0.0000001
 44
0.0000000001
 12
0.3424234879
 22
-0.1712117439
 32
0.0
 13
-0.2551601642
 23
-0.1285766716
 33
0.0
 40
0.0
 40
0.0
 40
0.0
 40
0.0
 40
0.0833333333
 40
0.1666666667
 40
0.25
 40
0.3333333333
 40
0.4166666667
 40
0.5
 40
0.5833333333
 40
0.6666666667
 40
0.75
 40
0.8333333333
 40
0.9166666667
 40
1.0
 40
1.0
 40
1.0
 40
1.0
 10
0.225880491
 20
-2.2814407761
 30
0.0
 10
0.2353922546
 20
-2.2861966579
 30
0.0
 10
0.2533490847
 20
-2.2974560819
 30
0.0
 10
0.2803099866
 20
-2.3203450611
 30
0.0
 10
0.3064574613
 20
-2.3495136101
 30
0.0
 10
0.3295007066
 20
-2.3832483744
 30
0.0
 10
0.3490598264
 20
-2.4212947946
 30
0.0
 10
0.3634088184
 20
-2.4609961602
 30
0.0
 10
0.3716284643
 20
-2.5001343896
 30
0.0
 10
0.373547708
 20
-2.5368920135
 30
0.0
 10
0.369260238
 20
-2.5691735841
 30
0.0
 10
0.3589143304
 20
-2.596093755
 30
0.0
 10
0.3441622389
 20
-2.6160220444
 30
0.0
 10
0.3320853554
 20
-2.6251214479
 30
0.0
 10
0.324997573
 20
-2.6286930222
 30
0.0
 11
0.225880491
 21
-2.2814407761
 31
0.0
 11
0.2533533608
 21
-2.2984560558
 31
0.0
 11
0.2801744154
 21
-2.3213916561
 31
0.0
 11
0.3059400897
 21
-2.350274646
 31
0.0
 11
0.328920019
 21
-2.3839669837
 31
0.0
 11
0.3481914718
 21
-2.4215706188
 31
0.0
 11
0.3623872607
 21
-2.4609023042
 31
0.0
 11
0.3705783973
 21
-2.499737622
 31
0.0
 11
0.3725132557
 21
-2.5361460046
 31
0.0
 11
0.3682504984
 21
-2.5682800175
 31
0.0
 11
0.3581799664
 21
-2.5949284414
 31
0.0
 11
0.3436017
 21
-2.6149755137
 31
0.0
 11
0.324997573
 21
-2.6286930222
 31
0.0
  0
SPLINE
  5
2D1
100
AcDbEntity
  8
CURVE
100
AcDbSpline
 62
253
  6
CONTINUOUS
 70
0
 71
3
 72
15
 73
11
 74
9
 42
0.0000001
 43
0.0000001
 44
0.0000000001
 12
-0.147268283
 22
-0.1094264054
 32
0.0
 13
-0.1714524221
 23
0.2689939228
 33
0.0
 40
0.0
 40
0.0
 40
0.0
 40
0.0
 40
0.125
 40
0.25
 40
0.375
 40
0.5
 40
0.625
 40
0.75
 40
0.875
 40
1.0
 40
1.0
 40
1.0
 40
1.0
 10
-1.7978504621
 20
-4.1963294278
 30
0.0
 10
-1.8039866406
 20
-4.2008888613
 30
0.0
 10
-1.816972137
 20
-4.2073526106
 30
0.0
 10
-1.8398609949
 20
-4.2109756138
 30
0.0
 10
-1.8664283915
 20
-4.2074275947
 30
0.0
 10
-1.8945939845
 20
-4.1966543263
 30
0.0
 10
-1.9232190241
 20
-4.1790527638
 30
0.0
 10
-1.9511032854
 20
-4.1553792807
 30
0.0
 10
-1.9760018813
 20
-4.1278578335
 30
0.0
 10
-1.9907061074
 20
-4.1075377598
 30
0.0
 10
-1.9978499583
 20
-4.0963296796
 30
0.0
 11
-1.7978504621
 21
-4.1963294278
 31
0.0
 11
-1.8175405725
 21
-4.2063405071
 31
0.0
 11
-1.8404740847
 21
-4.2097804434
 31
0.0
 11
-1.8666947576
 21
-4.2062233864
 31
0.0
 11
-1.8946705589
 21
-4.1955162773
 31
0.0
 11
-1.923095561
 21
-4.178040777
 31
0.0
 11
-1.9506056745
 21
-4.1547379534
 31
0.0
 11
-1.9755281718
 21
-4.127364723
 31
0.0
 11
-1.9978499583
 21
-4.0963296796
 31
0.0
  0
ELLIPSE
  5
2D2
100
AcDbEntity
  8
RACCORDO
100
AcDbEllipse
 62
7
  6
CONTINUOUS
 10
-5.854485889
 20
13.9274468162
 30
0.0
 11
-0.1119858744
 21
0.2236318019
 31
0.0
 40
0.6122594231
 41
-0.6852493493
 42
0.0223275232
  0
ELLIPSE
  5
2D3
100
AcDbEntity
  8
RACCORDO
100
AcDbEllipse
 62
7
  6
CONTINUOUS
 10
9.5602264344
 20
6.2200906545
 30
0.0
 11
-0.1119259236
 21
0.2235783474
 31
0.0
 40
0.6126250184
 41
-2.2559124555
 42
-0.6854206804
  0
ELLIPSE
  5
2D4
100
AcDbEntity
  8
0
100
AcDbEllipse
 62
7
  6
CONTINUOUS
 10
8.8321044081
 20
-12.4466390003
 30
0.0
 11
-0.1826272431
 21
0.4654700168
 31
0.0
 40
0.6543766329
 41
-3.1348682827
 42
-2.2008763123
  0
ELLIPSE
  5
2D5
100
AcDbEntity
  8
ASSI
100
AcDbEllipse
 62
7
  6
CONTINUOUS
 10
-5.854485889
 20
13.9274468162
 30
0.0
 11
-0.1119858744
 21
0.2236318019
 31
0.0
 40
0.6122594231
 41
-0.6852493493
 42
0.0223275232
  0
ELLIPSE
  5
2D6
100
AcDbEntity
  8
ASSI
100
AcDbEllipse
 62
7
  6
CONTINUOUS
 10
9.5602264344
 20
6.2200906545
 30
0.0
 11
-0.1119259236
 21
0.2235783474
 31
0.0
 40
0.6126250184
 41
-2.2559124555
 42
-0.6854206804
  0
ELLIPSE
  5
2D7
100
AcDbEntity
  8
ASSI
100
AcDbEllipse
 62
7
  6
CONTINUOUS
 10
8.8321044081
 20
-12.4466390003
 30
0.0
 11
-0.1826272431
 21
0.4654700168
 31
0.0
 40
0.6543766329
 41
-3.1348682827
 42
-2.2008763123
  0
ELLIPSE
  5
2D8
100
AcDbEntity
  8
CURVE
100
AcDbEllipse
 62
253
  6
CONTINUOUS
 10
57.0824141627
 20
35.6772118454
 30
0.0
 11
-66.7611980531
 21
108.0219238896
 31
0.0
 40
0.5587455388
 41
1.5606827248
 42
1.5909054466
  0
ELLIPSE
  5
2D9
100
AcDbEntity
  8
CURVE
100
AcDbEllipse
 62
253
  6
CONTINUOUS
 10
56.6824128137
 20
35.8772125199
 30
0.0
 11
-66.7612259932
 21
108.0219327877
 31
0.0
 40
0.5587454355
 41
1.5601787582
 42
1.5956319438
  0
ELLIPSE
  5
2DA
100
AcDbEntity
  8
CURVE
100
AcDbEllipse
 62
253
  6
CONTINUOUS
 10
66.0416291438
 20
31.1976043548
 30
0.0
 11
89.8859741893
 21
55.5526058341
 31
0.0
 40
0.0815200097
 41
2.3460808882
 42
2.37630361
  0
ELLIPSE
  5
2DB
100
AcDbEntity
  8
CURVE
100
AcDbEllipse
 62
253
  6
CONTINUOUS
 10
66.4416304928
 20
30.9976036803
 30
0.0
 11
89.8859912315
 21
55.5525976935
 31
0.0
 40
0.0815198604
 41
2.3455769216
 42
2.3810301072
  0
ENDSEC
  0
SECTION
  2
OBJECTS
  0
DICTIONARY
  5
C
100
AcDbDictionary
280
0
281
1
  3
ACAD_GROUP
350
D
  3
ACAD_MLINESTYLE
350
17
  3
ACAD_LAYOUT
350
1A
  3
ACAD_PLOTSETTINGS
350
19
  3
ACAD_PLOTSTYLENAME
350
E
  0
DICTIONARY
  5
D
102
{ACAD_REACTORS
330
C
102
}
100
AcDbDictionary
280
0
281
1
  0
ACDBDICTIONARYWDFLT
  5
E
102
{ACAD_REACTORS
330
C
102
}
100
AcDbDictionary
281
1
  3
Normal
350
F
100
AcDbDictionaryWithDefault
340
F
  0
DICTIONARY
  5
17
102
{ACAD_REACTORS
330
C
102
}
100
AcDbDictionary
280
0
281
1
  3
Standard
350
18
  0
DICTIONARY
  5
19
102
{ACAD_REACTORS
330
C
102
}
100
AcDbDictionary
281
1
  0
DICTIONARY
  5
1A
102
{ACAD_REACTORS
330
C
102
}
100
AcDbDictionary
281
1
  3
Model
350
2DC
  3
Layout1
350
2DD
  0
ACDBPLACEHOLDER
  5
F
102
{ACAD_REACTORS
330
E
102
}
  0
MLINESTYLE
  5
18
102
{ACAD_REACTORS
330
17
102
}
100
AcDbMlineStyle
  2
STANDARD
 70
0
  3

 62
256
 51
90.0
 52
90.0
 71
2
 49
0.5
 62
256
  6
BYLAYER
 49
-0.5
 62
256
  6
BYLAYER
  0
LAYOUT
  5
2DC
102
{ACAD_REACTORS
330
1A
102
}
100
AcDbPlotSettings
  1

  2
none_device
  4
ISO_A4_(297.00_x_210.00_MM)
  6

 40
0.0
 41
0.0
 42
0.0
 43
0.0
 44
297.0
 45
210.0
 46
0.0
 47
0.0
 48
0.0
 49
0.0
140
0.0
141
0.0
142
1.0
143
1.0
 70
1024
 72
1
 73
0
 74
0
  7

 75
0
147
1.0
148
0.0
149
0.0
100
AcDbLayout
  1
Model
 70
0
 71
0
 10
0.0
 20
0.0
 11
297.0
 21
210.0
 12
0.0
 22
0.0
 32
0.0
 14
0.0
 24
0.0
 34
0.0
 15
0.0
 25
0.0
 35
0.0
146
0.0
 13
0.0
 23
0.0
 33
0.0
 16
1.0
 26
0.0
 36
0.0
 17
0.0
 27
1.0
 37
0.0
 76
0
330
219
345
0
346
0
  0
LAYOUT
  5
2DD
102
{ACAD_REACTORS
330
1A
102
}
100
AcDbPlotSettings
  1

  2
none_device
  4
ISO_A4_(297.00_x_210.00_MM)
  6

 40
0.0
 41
0.0
 42
0.0
 43
0.0
 44
297.0
 45
210.0
 46
0.0
 47
0.0
 48
0.0
 49
0.0
140
0.0
141
0.0
142
1.0
143
1.0
 70
0
 72
1
 73
0
 74
0
  7

 75
0
147
1.0
148
0.0
149
0.0
100
AcDbLayout
  1
Layout1
 70
0
 71
1
 10
0.0
 20
0.0
 11
297.0
 21
210.0
 12
0.0
 22
0.0
 32
0.0
 14
0.0
 24
0.0
 34
0.0
 15
0.0
 25
0.0
 35
0.0
146
0.0
 13
0.0
 23
0.0
 33
0.0
 16
1.0
 26
0.0
 36
0.0
 17
0.0
 27
1.0
 37
0.0
 76
0
330
21A
345
0
346
0
  0
ENDSEC
  0
EOF
