  0
SECTION
  2
HEADER
  9
$ACADVER
  1
AC1015
  9
$DWGCODEPAGE
  3
ANSI_1252
  9
$EXTMAX
 10
297.0
 20
210.0
 30
0.0
  9
$EXTMIN
 10
0.0
 20
0.0
 30
0.0
  9
$LIMMIN
 10
0.0
 20
0.0
  9
$LIMMAX
 10
297.0
 20
210.0
  9
$VIEWCTR
 10
148.5
 20
105.0
  9
$VIEWSIZE
 40
210.0
  9
$CLAYER
  8
0
  9
$LTSCALE
 40
16.335
  9
$CELTYPE
  6
BYLAYER
  9
$DIMSCALE
 40
1.0
  9
$DIMASZ
 40
3.0
  9
$DIMEXO
 40
1.85625
  9
$DIMDLI
 40
11.286
  9
$DIMEXE
 40
5.346
  9
$DIMCEN
 40
2.673
  9
$DIMLFAC
 40
1.0
  9
$DIMBLK
  1
_FILLED
  9
$DIMTXT
 40
3.0
  9
$DIMTOL
 70
1
  9
$DIMLIM
 70
0
  9
$DIMTFAC
 40
1.0
  9
$DIMTP
 40
0.01
  9
$DIMTM
 40
0.01
  9
$PDMODE
 70
3
  9
$PDSIZE
 40
3.0
  9
$HANDSEED
  5
2E5
  9
$TILEMODE
 70
1
  9
$MEASUREMENT
 70
1
  9
$INSUNITS
 70
4
  0
ENDSEC
  0
SECTION
  2
CLASSES
  0
CLASS
  1
ACDBDICTIONARYWDFLT
  2
AcDbDictionaryWithDefault
  3
AutoCAD 2000
 90
0
280
0
281
0
  0
CLASS
  1
ACDBPLACEHOLDER
  2
AcDbPlaceHolder
  3
AutoCAD 2000
 90
0
280
0
281
0
  0
CLASS
  1
LAYOUT
  2
AcDbLayout
  3
AutoCAD 2000
 90
0
280
0
281
0
  0
ENDSEC
  0
SECTION
  2
TABLES
  0
TABLE
  2
VPORT
  5
8
100
AcDbSymbolTable
 70
2
  0
VPORT
  5
1F4
100
AcDbSymbolTableRecord
100
AcDbViewportTableRecord
  2
*ACTIVE
 70
0
 10
0.0
 20
0.0
 11
1.0
 21
1.0
 12
148.5
 22
105.0
 13
0.0
 23
0.0
 14
1.0
 24
1.0
 15
0.0
 25
0.0
 16
0.0
 26
0.0
 36
1.0
 17
0.0
 27
0.0
 37
0.0
 40
210.0
 41
1.4142857143
 42
50.0
 43
0.0
 44
0.0
 50
0.0
 51
0.0
 71
0
 72
100
 73
1
 74
1
 75
0
 76
0
 77
0
 78
0
  0
ENDTAB
  0
TABLE
  2
LTYPE
  5
5
100
AcDbSymbolTable
 70
6
  0
LTYPE
  5
14
100
AcDbSymbolTableRecord
100
AcDbLinetypeTableRecord
  2
BYBLOCK
 70
0
  3

 72
65
 73
0
 40
0.0
  0
LTYPE
  5
15
100
AcDbSymbolTableRecord
100
AcDbLinetypeTableRecord
  2
BYLAYER
 70
0
  3

 72
65
 73
0
 40
0.0
  0
LTYPE
  5
16
100
AcDbSymbolTableRecord
100
AcDbLinetypeTableRecord
  2
CONTINUOUS
 70
64
  3
Solid line
 72
65
 73
0
 40
0.0
  0
LTYPE
  5
1F5
100
AcDbSymbolTableRecord
100
AcDbLinetypeTableRecord
  2
CENTER
 70
64
  3
____ _ ____ _ ____ _ ____ _ ____ _ ____ _ ____
 72
65
 73
4
 40
0.6
 49
0.375
 74
0
 49
-0.075
 74
0
 49
0.075
 74
0
 49
-0.075
 74
0
  0
LTYPE
  5
1F6
100
AcDbSymbolTableRecord
100
AcDbLinetypeTableRecord
  2
HIDDEN
 70
64
  3
- - - - - - - - - - - - - - - - - - - -
 72
65
 73
2
 40
0.2
 49
0.1
 74
0
 49
-0.1
 74
0
  0
LTYPE
  5
1F7
100
AcDbSymbolTableRecord
100
AcDbLinetypeTableRecord
  2
PHANTOM
 70
64
  3
_____ _ _ _____ _ _ _____ _ _ _____
 72
65
 73
6
 40
0.8
 49
0.45
 74
0
 49
-0.05
 74
0
 49
0.1
 74
0
 49
-0.05
 74
0
 49
0.1
 74
0
 49
-0.05
 74
0
  0
LTYPE
  5
1F8
100
AcDbSymbolTableRecord
100
AcDbLinetypeTableRecord
  2
DOT
 70
64
  3
. . . . . . . . . . . . . . . . . . . .
 72
65
 73
2
 40
0.2
 49
0.1
 74
0
 49
-0.1
 74
0
  0
LTYPE
  5
1F9
100
AcDbSymbolTableRecord
100
AcDbLinetypeTableRecord
  2
DASHED
 70
64
  3
- - - - - - - - - - - - - - - - - - - -
 72
65
 73
2
 40
0.2
 49
0.1
 74
0
 49
-0.1
 74
0
  0
ENDTAB
  0
TABLE
  2
LAYER
  5
2
100
AcDbSymbolTable
 70
36
  0
LAYER
  5
10
100
AcDbSymbolTableRecord
100
AcDbLayerTableRecord
  2
0
 70
0
 62
7
  6
CONTINUOUS
370
-3
390
F
  0
LAYER
  5
1FA
100
AcDbSymbolTableRecord
100
AcDbLayerTableRecord
  2
DEFAULT_1
 70
0
 62
7
  6
CENTER
370
-3
390
F
  0
LAYER
  5
1FB
100
AcDbSymbolTableRecord
100
AcDbLayerTableRecord
  2
DEFAULT_2
 70
0
 62
7
  6
HIDDEN
370
-3
390
F
  0
LAYER
  5
1FC
100
AcDbSymbolTableRecord
100
AcDbLayerTableRecord
  2
DEFAULT_3
 70
0
 62
7
  6
PHANTOM
370
-3
390
F
  0
LAYER
  5
1FD
100
AcDbSymbolTableRecord
100
AcDbLayerTableRecord
  2
ASSI
 70
0
 62
7
  6
CONTINUOUS
370
-3
390
F
  0
LAYER
  5
1FE
100
AcDbSymbolTableRecord
100
AcDbLayerTableRecord
  2
COLOR9
 70
0
 62
7
  6
CONTINUOUS
370
-3
390
F
  0
LAYER
  5
1FF
100
AcDbSymbolTableRecord
100
AcDbLayerTableRecord
  2
COORDINATE
 70
0
 62
7
  6
CONTINUOUS
370
-3
390
F
  0
LAYER
  5
200
100
AcDbSymbolTableRecord
100
AcDbLayerTableRecord
  2
COORD_ORIGINE
 70
0
 62
7
  6
CONTINUOUS
370
-3
390
F
  0
LAYER
  5
201
100
AcDbSymbolTableRecord
100
AcDbLayerTableRecord
  2
COPY_PUBLISH
 70
0
 62
7
  6
CONTINUOUS
370
-3
390
F
  0
LAYER
  5
202
100
AcDbSymbolTableRecord
100
AcDbLayerTableRecord
  2
COSMETIC
 70
0
 62
7
  6
CONTINUOUS
370
-3
390
F
  0
LAYER
  5
203
100
AcDbSymbolTableRecord
100
AcDbLayerTableRecord
  2
CURVE
 70
0
 62
7
  6
CONTINUOUS
370
-3
390
F
  0
LAYER
  5
204
100
AcDbSymbolTableRecord
100
AcDbLayerTableRecord
  2
DRAFT
 70
0
 62
7
  6
CONTINUOUS
370
-3
390
F
  0
LAYER
  5
205
100
AcDbSymbolTableRecord
100
AcDbLayerTableRecord
  2
IGES
 70
0
 62
7
  6
CONTINUOUS
370
-3
390
F
  0
LAYER
  5
206
100
AcDbSymbolTableRecord
100
AcDbLayerTableRecord
  2
IGS_SCRITTE
 70
0
 62
7
  6
CONTINUOUS
370
-3
390
F
  0
LAYER
  5
207
100
AcDbSymbolTableRecord
100
AcDbLayerTableRecord
  2
IMPORT_IGES
 70
0
 62
7
  6
CONTINUOUS
370
-3
390
F
  0
LAYER
  5
208
100
AcDbSymbolTableRecord
100
AcDbLayerTableRecord
  2
INTF_12
 70
0
 62
7
  6
CONTINUOUS
370
-3
390
F
  0
LAYER
  5
209
100
AcDbSymbolTableRecord
100
AcDbLayerTableRecord
  2
INTF_15
 70
0
 62
7
  6
CONTINUOUS
370
-3
390
F
  0
LAYER
  5
20A
100
AcDbSymbolTableRecord
100
AcDbLayerTableRecord
  2
INTF_3
 70
0
 62
7
  6
CONTINUOUS
370
-3
390
F
  0
LAYER
  5
20B
100
AcDbSymbolTableRecord
100
AcDbLayerTableRecord
  2
INTF_4
 70
0
 62
7
  6
CONTINUOUS
370
-3
390
F
  0
LAYER
  5
20C
100
AcDbSymbolTableRecord
100
AcDbLayerTableRecord
  2
INTF_YELLOW
 70
0
 62
7
  6
CONTINUOUS
370
-3
390
F
  0
LAYER
  5
20D
100
AcDbSymbolTableRecord
100
AcDbLayerTableRecord
  2
PIANI
 70
0
 62
7
  6
CONTINUOUS
370
-3
390
F
  0
LAYER
  5
20E
100
AcDbSymbolTableRecord
100
AcDbLayerTableRecord
  2
PIANI_ORIGINE
 70
0
 62
7
  6
CONTINUOUS
370
-3
390
F
  0
LAYER
  5
20F
100
AcDbSymbolTableRecord
100
AcDbLayerTableRecord
  2
PIANI_RIFERIMENTO
 70
0
 62
7
  6
CONTINUOUS
370
-3
390
F
  0
LAYER
  5
210
100
AcDbSymbolTableRecord
100
AcDbLayerTableRecord
  2
RACCORDO
 70
0
 62
7
  6
CONTINUOUS
370
-3
390
F
  0
LAYER
  5
211
100
AcDbSymbolTableRecord
100
AcDbLayerTableRecord
  2
SMUSSO
 70
0
 62
7
  6
CONTINUOUS
370
-3
390
F
  0
LAYER
  5
212
100
AcDbSymbolTableRecord
100
AcDbLayerTableRecord
  2
SOLIDO
 70
0
 62
7
  6
CONTINUOUS
370
-3
390
F
  0
LAYER
  5
213
100
AcDbSymbolTableRecord
100
AcDbLayerTableRecord
  2
SUPERFICI
 70
0
 62
7
  6
CONTINUOUS
370
-3
390
F
  0
LAYER
  5
214
100
AcDbSymbolTableRecord
100
AcDbLayerTableRecord
  2
TRASH
 70
0
 62
7
  6
CONTINUOUS
370
-3
390
F
  0
LAYER
  5
215
100
AcDbSymbolTableRecord
100
AcDbLayerTableRecord
  2
WHITE
 70
0
 62
7
  6
CONTINUOUS
370
-3
390
F
  0
LAYER
  5
216
100
AcDbSymbolTableRecord
100
AcDbLayerTableRecord
  2
XSEC_DATUMS
 70
0
 62
7
  6
CONTINUOUS
370
-3
390
F
  0
ENDTAB
  0
TABLE
  2
STYLE
  5
3
100
AcDbSymbolTable
 70
1
  0
STYLE
  5
11
100
AcDbSymbolTableRecord
100
AcDbTextStyleTableRecord
  2
STANDARD
 70
0
 40
0.0
 41
0.8
 50
0.0
 71
0
 42
0.2
  3
txt
  4

  0
STYLE
  5
217
100
AcDbSymbolTableRecord
100
AcDbTextStyleTableRecord
  2
TEXTSTYLE_1
 70
0
 40
0.0
 41
0.8
 50
0.0
 71
0
 42
0.2
  3
gdt
  4

  0
ENDTAB
  0
TABLE
  2
VIEW
  5
6
100
AcDbSymbolTable
 70
0
  0
ENDTAB
  0
TABLE
  2
UCS
  5
7
100
AcDbSymbolTable
 70
0
  0
ENDTAB
  0
TABLE
  2
APPID
  5
9
100
AcDbSymbolTable
 70
1
  0
APPID
  5
218
100
AcDbSymbolTableRecord
100
AcDbRegAppTableRecord
  2
ACAD
 70
0
  0
ENDTAB
  0
TABLE
  2
BLOCK_RECORD
  5
1
100
AcDbSymbolTable
 70
0
  0
BLOCK_RECORD
  5
219
100
AcDbSymbolTableRecord
100
AcDbBlockTableRecord
  2
*Model_Space
  0
BLOCK_RECORD
  5
21A
100
AcDbSymbolTableRecord
100
AcDbBlockTableRecord
  2
*Paper_Space
  0
ENDTAB
  0
TABLE
  2
DIMSTYLE
  5
A
100
AcDbSymbolTable
 70
1
100
AcDbDimStyleTable
 71
0
  0
DIMSTYLE
105
21B
100
AcDbSymbolTableRecord
100
AcDbDimStyleTableRecord
  2
STANDARD
 70
0
  3

  4

 40
1.0
 41
3.0
 42
0.0625
 43
0.38
 44
0.18
 45
0.0
 46
0.0
 47
0.01
 48
0.01
140
3.0
141
0.09
142
0.0
143
25.4
144
1.0
145
0.0
146
1.0
147
0.09
 71
1.0
 72
0.0
 73
0
 74
0
 75
0
 76
0
 77
1
 78
8
170
0
171
2
172
0
173
0
174
0
175
0
176
0
177
0
178
0
270
2
271
2
272
2
273
2
274
2
275
0
280
0
281
0
282
0
283
1
284
8
285
0
286
0
287
3
288
0
340
11
  0
ENDTAB
  0
ENDSEC
  0
SECTION
  2
BLOCKS
  0
BLOCK
  5
20
100
AcDbEntity
  8
0
100
AcDbBlockBegin
  2
*Model_Space
 70
0
 10
0.0
 20
0.0
 30
0.0
  3
*Model_Space
  1

  0
ENDBLK
  5
21
100
AcDbEntity
  8
0
100
AcDbBlockEnd
  0
BLOCK
  5
1C
100
AcDbEntity
  8
0
100
AcDbBlockBegin
  2
*Paper_Space
 70
0
 10
0.0
 20
0.0
 30
0.0
  3
*Paper_Space
  1

  0
ENDBLK
  5
1D
100
AcDbEntity
  8
0
100
AcDbBlockEnd
  0
ENDSEC
  0
SECTION
  2
ENTITIES
  0
LWPOLYLINE
  5
21C
100
AcDbEntity
  8
ASSI
100
AcDbPolyline
 62
7
  6
CONTINUOUS
 90
11
 70
0
 10
-9.4902666927
 20
12.184172914
 10
-9.5073047524
 20
12.1743769389
 10
-9.5417021221
 20
12.1514009987
 10
-9.5726229172
 20
12.1261516004
 10
-9.6000693455
 20
12.0987337819
 10
-9.6239430111
 20
12.0693382095
 10
-9.6440727019
 20
12.0383094659
 10
-9.6604120207
 20
12.0058996104
 10
-9.672924994
 20
11.9723510655
 10
-9.6815435502
 20
11.9380460701
 10
-9.6862493845
 20
11.9034455098
  0
LWPOLYLINE
  5
21D
100
AcDbEntity
  8
RACCORDO
100
AcDbPolyline
 62
7
  6
CONTINUOUS
 90
33
 70
0
 10
-9.4901092459
 20
12.1842592737
 10
-9.4984884399
 20
12.1795637423
 10
-9.5098342893
 20
12.1728401898
 10
-9.5207924724
 20
12.1659173596
 10
-9.5313661271
 20
12.158803517
 10
-9.5415605673
 20
12.1515055539
 10
-9.551380196
 20
12.1440304715
 10
-9.560827334
 20
12.13638679
 10
-9.5699057442
 20
12.1285820235
 10
-9.5786189218
 20
12.1206235808
 10
-9.586967938
 20
12.1125211747
 10
-9.5949559988
 20
12.1042829884
 10
-9.6025872132
 20
12.0959160713
 10
-9.6098594455
 20
12.0874345915
 10
-9.6167785698
 20
12.0788442799
 10
-9.6233576712
 20
12.0701403788
 10
-9.6295963814
 20
12.0613340911
 10
-9.6354966954
 20
12.0524339043
 10
-9.6410714866
 20
12.0434306005
 10
-9.6463205909
 20
12.034333468
 10
-9.6512438712
 20
12.0251524093
 10
-9.6558505936
 20
12.015878511
 10
-9.6601405196
 20
12.0065190943
 10
-9.6641119642
 20
11.9970857266
 10
-9.6677692474
 20
11.9875755481
 10
-9.6711113572
 20
11.9779976486
 10
-9.6741373237
 20
11.9683621714
 10
-9.6768497458
 20
11.9586678231
 10
-9.6792475939
 20
11.9489249538
 10
-9.6813305662
 20
11.9391427938
 10
-9.6831007065
 20
11.929318328
 10
-9.6845571168
 20
11.9194614194
 10
-9.6856993837
 20
11.9095818621
  0
LINE
  5
21E
100
AcDbEntity
  8
RACCORDO
100
AcDbLine
 62
7
  6
CONTINUOUS
 10
-9.4901051727
 20
12.184261517
 11
-5.9307076907
 21
14.1321748442
  0
LINE
  5
21F
100
AcDbEntity
  8
ASSI
100
AcDbLine
 62
7
  6
CONTINUOUS
 10
-9.4902666987
 20
12.1841729248
 11
-5.9307076907
 21
14.1321748442
  0
LINE
  5
220
100
AcDbEntity
  8
RACCORDO
100
AcDbLine
 62
253
  6
CONTINUOUS
 10
-9.3716298659
 20
12.1806810031
 11
-5.8157407874
 21
14.1266743238
  0
LINE
  5
221
100
AcDbEntity
  8
ASSI
100
AcDbLine
 62
253
  6
CONTINUOUS
 10
-9.3716298659
 20
12.1806810031
 11
-5.8157407874
 21
14.1266743238
  0
LINE
  5
222
100
AcDbEntity
  8
DRAFT
100
AcDbLine
 62
7
  6
CONTINUOUS
 10
-4.1275531818
 20
12.2433500365
 11
-5.1145616091
 21
11.6320913235
  0
LINE
  5
223
100
AcDbEntity
  8
ASSI
100
AcDbLine
 62
7
  6
CONTINUOUS
 10
-4.1275531818
 20
12.2433500365
 11
-5.1145616091
 21
11.6320913235
  0
LINE
  5
224
100
AcDbEntity
  8
DRAFT
100
AcDbLine
 62
7
  6
CONTINUOUS
 10
-4.1275531818
 20
13.282580521
 11
-6.0632820436
 21
12.1064515407
  0
LINE
  5
225
100
AcDbEntity
  8
ASSI
100
AcDbLine
 62
7
  6
CONTINUOUS
 10
-4.1275531818
 20
13.282580521
 11
-6.0632820436
 21
12.1064515407
  0
LWPOLYLINE
  5
226
100
AcDbEntity
  8
RACCORDO
100
AcDbPolyline
 62
7
  6
CONTINUOUS
 90
5
 70
0
 10
-9.6856993837
 20
11.9095818621
 10
-9.6865285016
 20
11.8996764693
 10
-9.6870439273
 20
11.8897507648
 10
-9.6872449491
 20
11.8798190199
 10
-9.6872479368
 20
11.8782256091
  0
LWPOLYLINE
  5
227
100
AcDbEntity
  8
0
100
AcDbPolyline
 62
7
  6
CONTINUOUS
 90
28
 70
0
 10
6.3566645526
 20
-13.7936546742
 10
6.3746395757
 20
-13.8007568284
 10
6.3928265959
 20
-13.8073709241
 10
6.4112122776
 20
-13.813491172
 10
6.4297832219
 20
-13.819112312
 10
6.4485470557
 20
-13.8242350305
 10
6.4674907923
 20
-13.8288534809
 10
6.4866009125
 20
-13.832962435
 10
6.5058853654
 20
-13.8365609053
 10
6.5253317476
 20
-13.8396430565
 10
6.5449261494
 20
-13.8422034154
 10
6.5646752585
 20
-13.8442391453
 10
6.5845662277
 20
-13.845744491
 10
6.6045856798
 20
-13.8467140914
 10
6.6247404846
 20
-13.8471434035
 10
6.6450199143
 20
-13.8470267136
 10
6.665408598
 20
-13.8463586766
 10
6.6859074536
 20
-13.845133421
 10
6.7065050777
 20
-13.8433454918
 10
6.7271871506
 20
-13.8409901313
 10
6.7479514045
 20
-13.8380611931
 10
6.7687858084
 20
-13.8345536691
 10
6.7896773116
 20
-13.8304633169
 10
6.8106234982
 20
-13.8257836861
 10
6.831613062
 20
-13.8205098668
 10
6.8526334361
 20
-13.8146377904
 10
6.8736818528
 20
-13.8081605316
 10
6.8947501463
 20
-13.8010722145
  0
LWPOLYLINE
  5
228
100
AcDbEntity
  8
0
100
AcDbPolyline
 62
7
  6
CONTINUOUS
 90
23
 70
0
 10
-9.6116704964
 20
3.2852771064
 10
-9.602437175
 20
2.913109825
 10
-9.5917647161
 20
2.5417639865
 10
-9.5796532913
 20
2.1712480465
 10
-9.5661030742
 20
1.801569974
 10
-9.551114252
 20
1.4327378576
 10
-9.5346871043
 20
1.0647605903
 10
-9.5168219428
 20
0.6976473436
 10
-9.4975190785
 20
0.3314068121
 10
-9.476778881
 20
-0.0339525558
 10
-9.4546017576
 20
-0.3984219665
 10
-9.4309881157
 20
-0.7619929422
 10
-9.4059384303
 20
-1.1246570176
 10
-9.379453215
 20
-1.4864054259
 10
-9.3515329791
 20
-1.8472297275
 10
-9.3221782956
 20
-2.2071215489
 10
-9.2913897791
 20
-2.5660722307
 10
-9.259168033
 20
-2.9240734754
 10
-9.2255137468
 20
-3.2811168341
 10
-9.1904276712
 20
-3.6371934295
 10
-9.1539105504
 20
-3.9922946695
 10
-9.1159631062
 20
-4.3464128152
 10
-9.0765860544
 20
-4.6995402736
  0
LWPOLYLINE
  5
229
100
AcDbEntity
  8
ASSI
100
AcDbPolyline
 62
7
  6
CONTINUOUS
 90
9
 70
0
 10
-9.6257668309
 20
4.0285605617
 10
-9.6036532585
 20
2.9589473246
 10
-9.5673243095
 20
1.8333128003
 10
-9.5177245066
 20
0.715490252
 10
-9.4548622179
 20
-0.3942792946
 10
-9.3787484789
 20
-1.4957585139
 10
-9.2893968361
 20
-2.5887141871
 10
-9.1868236517
 20
-3.6729126632
 10
-9.0710482301
 20
-4.7481199389
  0
LWPOLYLINE
  5
22A
100
AcDbEntity
  8
0
100
AcDbPolyline
 62
7
  6
CONTINUOUS
 90
3
 70
0
 10
-9.6257668283
 20
4.0285603916
 10
-9.6194645562
 20
3.6582561103
 10
-9.6116704964
 20
3.2852771064
  0
LINE
  5
22B
100
AcDbEntity
  8
ASSI
100
AcDbLine
 62
7
  6
CONTINUOUS
 10
-9.6377720941
 20
4.8687746201
 11
-9.6257668284
 21
4.028560392
  0
LWPOLYLINE
  5
22C
100
AcDbEntity
  8
ASSI
100
AcDbPolyline
 62
7
  6
CONTINUOUS
 90
8
 70
0
 10
-9.6861107032
 20
11.0531431233
 10
-9.6834920215
 20
10.1636547078
 10
-9.6794288731
 20
9.2749476084
 10
-9.6739212677
 20
8.3870260164
 10
-9.6669692243
 20
7.4998934293
 10
-9.658572762
 20
6.6135531287
 10
-9.6487319065
 20
5.7280087126
 10
-9.6377720941
 20
4.8687746201
  0
LINE
  5
22D
100
AcDbEntity
  8
ASSI
100
AcDbLine
 62
7
  6
CONTINUOUS
 10
-9.6872479738
 20
11.8782386276
 11
-9.6861107032
 21
11.0531431233
  0
LWPOLYLINE
  5
22E
100
AcDbEntity
  8
0
100
AcDbPolyline
 62
7
  6
CONTINUOUS
 90
10
 70
0
 10
-9.6872479738
 20
11.8782386318
 10
-9.6860098054
 20
11.0067217365
 10
-9.6833694994
 20
10.131303618
 10
-9.6793299553
 20
9.2566424918
 10
-9.6738911824
 20
8.3827423359
 10
-9.6670531988
 20
7.5096064837
 10
-9.6588160229
 20
6.6372380817
 10
-9.6491796789
 20
5.7656405538
 10
-9.6381442103
 20
4.894817968
 10
-9.6257668284
 20
4.0285603927
  0
LINE
  5
22F
100
AcDbEntity
  8
ASSI
100
AcDbLine
 62
7
  6
CONTINUOUS
 10
-9.6862493845
 20
11.9034455098
 11
-9.6872475788
 21
11.8780013152
  0
LWPOLYLINE
  5
230
100
AcDbEntity
  8
0
100
AcDbPolyline
 62
7
  6
CONTINUOUS
 90
3
 70
0
 10
6.3213378297
 20
-13.7779818114
 10
6.3388949391
 20
-13.7860622057
 10
6.3566645526
 20
-13.7936546742
  0
LWPOLYLINE
  5
231
100
AcDbEntity
  8
ASSI
100
AcDbPolyline
 62
7
  6
CONTINUOUS
 90
9
 70
0
 10
6.3084520887
 20
-13.771670944
 10
6.3348450591
 20
-13.7842483567
 10
6.4103034489
 20
-13.8132006412
 10
6.4897528802
 20
-13.833587923
 10
6.5720508558
 20
-13.8448606879
 10
6.6563804028
 20
-13.8467223278
 10
6.7424604782
 20
-13.8388907263
 10
6.8296879963
 20
-13.8210171409
 10
6.9167781367
 20
-13.7929952645
  0
LINE
  5
232
100
AcDbEntity
  8
0
100
AcDbLine
 62
7
  6
CONTINUOUS
 10
6.3096423461
 20
-13.7722687097
 11
6.3213378297
 21
-13.7779818114
  0
LINE
  5
233
100
AcDbEntity
  8
ASSI
100
AcDbLine
 62
7
  6
CONTINUOUS
 10
-8.5563234719
 20
-6.3392858358
 11
6.3096683051
 21
-13.7722817242
  0
LINE
  5
234
100
AcDbEntity
  8
0
100
AcDbLine
 62
7
  6
CONTINUOUS
 10
-8.5563269329
 20
-6.3392841053
 11
6.3096683051
 21
-13.7722817242
  0
LINE
  5
235
100
AcDbEntity
  8
0
100
AcDbLine
 62
253
  6
CONTINUOUS
 10
-8.8039147491
 20
-5.9257698935
 11
6.0532738565
 21
-13.3543641963
  0
LINE
  5
236
100
AcDbEntity
  8
ASSI
100
AcDbLine
 62
253
  6
CONTINUOUS
 10
-8.8039147491
 20
-5.9257698935
 11
6.0532738565
 21
-13.3543641963
  0
LINE
  5
237
100
AcDbEntity
  8
ASSI
100
AcDbLine
 62
7
  6
CONTINUOUS
 10
6.308453653
 20
-13.7716717532
 11
6.3096647517
 21
-13.7722799476
  0
LINE
  5
238
100
AcDbEntity
  8
ASSI
100
AcDbLine
 62
7
  6
CONTINUOUS
 10
-8.6218653036
 20
-6.3017955676
 11
-8.5554182877
 21
-6.3397368026
  0
LWPOLYLINE
  5
239
100
AcDbEntity
  8
0
100
AcDbPolyline
 62
7
  6
CONTINUOUS
 90
4
 70
0
 10
-8.5992808947
 20
-6.3158228874
 10
-8.5835344111
 20
-6.3248954364
 10
-8.5675546926
 20
-6.3335383398
 10
-8.5563075381
 20
-6.3392937675
  0
LWPOLYLINE
  5
23A
100
AcDbEntity
  8
0
100
AcDbPolyline
 62
7
  6
CONTINUOUS
 90
3
 70
0
 10
-8.6300584153
 20
-6.296396522
 10
-8.6147877877
 20
-6.3063242775
 10
-8.5992808947
 20
-6.3158228874
  0
LWPOLYLINE
  5
23B
100
AcDbEntity
  8
0
100
AcDbPolyline
 62
7
  6
CONTINUOUS
 90
32
 70
0
 10
-8.9442389157
 20
-5.790170596
 10
-8.9401833711
 20
-5.8121072613
 10
-8.9356342168
 20
-5.8337151442
 10
-8.9305998684
 20
-5.8549890619
 10
-8.9250897571
 20
-5.8759199369
 10
-8.9191127615
 20
-5.8965022515
 10
-8.9126776203
 20
-5.9167319788
 10
-8.9057946781
 20
-5.9366002225
 10
-8.8984737215
 20
-5.9561009837
 10
-8.8907245129
 20
-5.9752296696
 10
-8.8825586888
 20
-5.9939776773
 10
-8.8739889954
 20
-6.012335322
 10
-8.8650248249
 20
-6.0303015975
 10
-8.855673441
 20
-6.0478790524
 10
-8.845948759
 20
-6.0650574305
 10
-8.8358599784
 20
-6.0818359444
 10
-8.825406336
 20
-6.0982290039
 10
-8.814598706
 20
-6.1142305109
 10
-8.8034483607
 20
-6.1298343767
 10
-8.7919533913
 20
-6.1450523762
 10
-8.7801237475
 20
-6.1598789951
 10
-8.7679712933
 20
-6.174306878
 10
-8.7554956992
 20
-6.1883428111
 10
-8.7427076399
 20
-6.2019802836
 10
-8.7296185673
 20
-6.2152128165
 10
-8.7162283475
 20
-6.2280453604
 10
-8.7025482148
 20
-6.2404710944
 10
-8.688589395
 20
-6.2524839276
 10
-8.6743508953
 20
-6.2640882484
 10
-8.6598443993
 20
-6.275277337
 10
-8.6450811196
 20
-6.2860454222
 10
-8.6300584153
 20
-6.296396522
  0
LWPOLYLINE
  5
23C
100
AcDbEntity
  8
ASSI
100
AcDbPolyline
 62
7
  6
CONTINUOUS
 90
10
 70
0
 10
-8.9502907136
 20
-5.7497013392
 10
-8.942545545
 20
-5.7996957631
 10
-8.9233812551
 20
-5.882002833
 10
-8.8972662056
 20
-5.9591769879
 10
-8.8648678346
 20
-6.0306059278
 10
-8.8266482273
 20
-6.0963305726
 10
-8.782710621
 20
-6.156705117
 10
-8.7336776558
 20
-6.211184361
 10
-8.6801189137
 20
-6.2594636889
 10
-8.6218653036
 20
-6.3017955676
  0
LWPOLYLINE
  5
23D
100
AcDbEntity
  8
0
100
AcDbPolyline
 62
7
  6
CONTINUOUS
 90
3
 70
0
 10
-8.9503351065
 20
-5.7493543145
 10
-8.9477929772
 20
-5.7679090583
 10
-8.9442389157
 20
-5.790170596
  0
LINE
  5
23E
100
AcDbEntity
  8
ASSI
100
AcDbLine
 62
7
  6
CONTINUOUS
 10
-8.9503353934
 20
-5.7493521013
 11
-8.9502907196
 21
-5.74970134
  0
LINE
  5
23F
100
AcDbEntity
  8
ASSI
100
AcDbLine
 62
7
  6
CONTINUOUS
 10
-9.0710482301
 20
-4.7481199389
 11
-8.9503353934
 21
-5.7493521013
  0
LWPOLYLINE
  5
240
100
AcDbEntity
  8
0
100
AcDbPolyline
 62
7
  6
CONTINUOUS
 90
4
 70
0
 10
-9.0765860544
 20
-4.6995402736
 10
-9.0357801787
 20
-5.0516689927
 10
-8.9935464752
 20
-5.4027898043
 10
-8.9503354227
 20
-5.74935187
  0
LINE
  5
241
100
AcDbEntity
  8
DRAFT
100
AcDbLine
 62
7
  6
CONTINUOUS
 10
-4.1275531818
 20
13.282580521
 11
-4.1275531818
 21
12.2433500365
  0
LINE
  5
242
100
AcDbEntity
  8
ASSI
100
AcDbLine
 62
7
  6
CONTINUOUS
 10
-4.1275531818
 20
13.282580521
 11
-4.1275531818
 21
12.2433500365
  0
LINE
  5
243
100
AcDbEntity
  8
DRAFT
100
AcDbLine
 62
7
  6
CONTINUOUS
 10
7.9108916713
 20
7.2633580944
 11
5.603979846
 21
6.2728205959
  0
LINE
  5
244
100
AcDbEntity
  8
ASSI
100
AcDbLine
 62
7
  6
CONTINUOUS
 10
7.9108916713
 20
7.2633580944
 11
5.603979846
 21
6.2728205959
  0
LINE
  5
245
100
AcDbEntity
  8
RACCORDO
100
AcDbLine
 62
253
  6
CONTINUOUS
 10
9.5990792769
 20
6.4192642916
 11
5.7858550928
 21
4.6019385237
  0
LINE
  5
246
100
AcDbEntity
  8
ASSI
100
AcDbLine
 62
253
  6
CONTINUOUS
 10
9.5990792769
 20
6.4192642916
 11
5.7858550928
 21
4.6019385237
  0
LINE
  5
247
100
AcDbEntity
  8
RACCORDO
100
AcDbLine
 62
253
  6
CONTINUOUS
 10
9.775909855
 20
6.1144003473
 11
5.9578987336
 21
4.2947931965
  0
LINE
  5
248
100
AcDbEntity
  8
ASSI
100
AcDbLine
 62
253
  6
CONTINUOUS
 10
9.775909855
 20
6.1144003473
 11
5.9578987336
 21
4.2947931965
  0
LINE
  5
249
100
AcDbEntity
  8
CURVE
100
AcDbLine
 62
253
  6
CONTINUOUS
 10
-3.8283972879
 20
-0.1602393322
 11
-0.2685993133
 21
-1.9401383195
  0
LINE
  5
24A
100
AcDbEntity
  8
CURVE
100
AcDbLine
 62
253
  6
CONTINUOUS
 10
-4.1789686987
 20
0.3523064802
 11
0.0636719884
 21
-1.7690138634
  0
LINE
  5
24B
100
AcDbEntity
  8
0
100
AcDbLine
 62
253
  6
CONTINUOUS
 10
5.3292788353
 20
-3.5531607884
 11
-9.4793133564
 21
3.8511353074
  0
LINE
  5
24C
100
AcDbEntity
  8
ASSI
100
AcDbLine
 62
253
  6
CONTINUOUS
 10
5.3292788353
 20
-3.5531607884
 11
-9.4793133564
 21
3.8511353074
  0
LINE
  5
24D
100
AcDbEntity
  8
0
100
AcDbLine
 62
7
  6
CONTINUOUS
 10
0.819171771
 20
2.0377452351
 11
-5.0524994589
 21
4.97358085
  0
LINE
  5
24E
100
AcDbEntity
  8
RACCORDO
100
AcDbLine
 62
7
  6
CONTINUOUS
 10
0.819171771
 20
2.0377452351
 11
-5.0524994589
 21
4.97358085
  0
LINE
  5
24F
100
AcDbEntity
  8
ASSI
100
AcDbLine
 62
7
  6
CONTINUOUS
 10
0.819171771
 20
2.0377452351
 11
-5.0524994589
 21
4.97358085
  0
LINE
  5
250
100
AcDbEntity
  8
0
100
AcDbLine
 62
7
  6
CONTINUOUS
 10
0.8047267655
 20
3.936222311
 11
-5.0660570838
 21
6.8716142356
  0
LINE
  5
251
100
AcDbEntity
  8
RACCORDO
100
AcDbLine
 62
7
  6
CONTINUOUS
 10
0.8047267655
 20
3.936222311
 11
-5.0660570838
 21
6.8716142356
  0
LINE
  5
252
100
AcDbEntity
  8
ASSI
100
AcDbLine
 62
7
  6
CONTINUOUS
 10
0.8047267655
 20
3.936222311
 11
-5.0660570838
 21
6.8716142356
  0
LINE
  5
253
100
AcDbEntity
  8
RACCORDO
100
AcDbLine
 62
253
  6
CONTINUOUS
 10
5.263344685
 20
4.298859768
 11
-9.5407997445
 21
11.7009319827
  0
LINE
  5
254
100
AcDbEntity
  8
ASSI
100
AcDbLine
 62
253
  6
CONTINUOUS
 10
5.263344685
 20
4.298859768
 11
-9.5407997445
 21
11.7009319827
  0
LINE
  5
255
100
AcDbEntity
  8
RACCORDO
100
AcDbLine
 62
253
  6
CONTINUOUS
 10
5.4385799707
 20
4.6031464626
 11
-9.3655670474
 21
12.0052199716
  0
LINE
  5
256
100
AcDbEntity
  8
ASSI
100
AcDbLine
 62
253
  6
CONTINUOUS
 10
5.4385799707
 20
4.6031464626
 11
-9.3655670474
 21
12.0052199716
  0
LINE
  5
257
100
AcDbEntity
  8
DRAFT
100
AcDbLine
 62
7
  6
CONTINUOUS
 10
5.603979846
 20
6.2728205959
 11
-6.0632820436
 21
12.1064515407
  0
LINE
  5
258
100
AcDbEntity
  8
ASSI
100
AcDbLine
 62
7
  6
CONTINUOUS
 10
5.603979846
 20
6.2728205959
 11
-6.0632820436
 21
12.1064515407
  0
LINE
  5
259
100
AcDbEntity
  8
RACCORDO
100
AcDbLine
 62
7
  6
CONTINUOUS
 10
9.775909855
 20
6.1144003473
 11
9.775909855
 21
-4.9274812466
  0
LINE
  5
25A
100
AcDbEntity
  8
ASSI
100
AcDbLine
 62
7
  6
CONTINUOUS
 10
9.775909855
 20
6.1144003473
 11
9.775909855
 21
-4.9274812466
  0
LINE
  5
25B
100
AcDbEntity
  8
0
100
AcDbLine
 62
7
  6
CONTINUOUS
 10
9.2246139941
 20
-12.6416530142
 11
9.775909855
 21
-4.9274812466
  0
LINE
  5
25C
100
AcDbEntity
  8
ASSI
100
AcDbLine
 62
7
  6
CONTINUOUS
 10
9.2246139941
 20
-12.6416530142
 11
9.775909855
 21
-4.9274812466
  0
LINE
  5
25D
100
AcDbEntity
  8
RACCORDO
100
AcDbLine
 62
7
  6
CONTINUOUS
 10
9.5990792769
 20
6.4192642916
 11
7.9108916713
 21
7.2633580944
  0
LINE
  5
25E
100
AcDbEntity
  8
ASSI
100
AcDbLine
 62
7
  6
CONTINUOUS
 10
9.5990792769
 20
6.4192642916
 11
7.9108916713
 21
7.2633580944
  0
LINE
  5
25F
100
AcDbEntity
  8
RACCORDO
100
AcDbLine
 62
7
  6
CONTINUOUS
 10
-4.1275531818
 20
13.282580521
 11
-5.8157407874
 21
14.1266743238
  0
LINE
  5
260
100
AcDbEntity
  8
ASSI
100
AcDbLine
 62
7
  6
CONTINUOUS
 10
-4.1275531818
 20
13.282580521
 11
-5.8157407874
 21
14.1266743238
  0
LINE
  5
261
100
AcDbEntity
  8
0
100
AcDbLine
 62
253
  6
CONTINUOUS
 10
7.0865364348
 20
-13.5059434636
 11
9.2246139941
 21
-12.6416530142
  0
LINE
  5
262
100
AcDbEntity
  8
ASSI
100
AcDbLine
 62
253
  6
CONTINUOUS
 10
7.0865364348
 20
-13.5059434636
 11
9.2246139941
 21
-12.6416530142
  0
LINE
  5
263
100
AcDbEntity
  8
0
100
AcDbLine
 62
7
  6
CONTINUOUS
 10
6.9329246162
 20
-13.7866629922
 11
9.0555735462
 21
-12.9286093686
  0
LINE
  5
264
100
AcDbEntity
  8
ASSI
100
AcDbLine
 62
7
  6
CONTINUOUS
 10
9.0555735462
 20
-12.9286093686
 11
6.9322889374
 21
-13.7869186228
  0
LINE
  5
265
100
AcDbEntity
  8
0
100
AcDbLine
 62
7
  6
CONTINUOUS
 10
6.9167781367
 20
-13.7929952645
 11
6.9329211553
 21
-13.7866643789
  0
LINE
  5
266
100
AcDbEntity
  8
ASSI
100
AcDbLine
 62
7
  6
CONTINUOUS
 10
6.9167781367
 20
-13.7929952645
 11
6.9322889331
 21
-13.7869186121
  0
LINE
  5
267
100
AcDbEntity
  8
0
100
AcDbLine
 62
7
  6
CONTINUOUS
 10
6.8947501463
 20
-13.8010722145
 11
6.9167781367
 21
-13.7929952645
  0
ARC
  5
268
100
AcDbEntity
  8
RACCORDO
100
AcDbCircle
 62
253
  6
CONTINUOUS
 10
533.7248466615
 20
12.0304470758
 40
543.2657495646
100
AcDbArc
 50
180.0347524677
 51
180.8626676024
  0
ARC
  5
269
100
AcDbEntity
  8
ASSI
100
AcDbCircle
 62
253
  6
CONTINUOUS
 10
533.7248466615
 20
12.0304470758
 40
543.2657495646
100
AcDbArc
 50
180.0347524677
 51
180.8626676024
  0
ARC
  5
26A
100
AcDbEntity
  8
0
100
AcDbCircle
 62
7
  6
CONTINUOUS
 10
519.2297066456
 20
9.9323613925
 40
524.5858329006
100
AcDbArc
 50
180.3564848358
 51
180.488709561
  0
ARC
  5
26B
100
AcDbEntity
  8
RACCORDO
100
AcDbCircle
 62
7
  6
CONTINUOUS
 10
525.5630886496
 20
6.7142939769
 40
524.4845405927
100
AcDbArc
 50
180.3564737649
 51
180.4887240263
  0
ARC
  5
26C
100
AcDbEntity
  8
ASSI
100
AcDbCircle
 62
7
  6
CONTINUOUS
 10
525.5630886496
 20
6.7142939769
 40
524.4845405927
100
AcDbArc
 50
180.3564737649
 51
180.4887240263
  0
ARC
  5
26D
100
AcDbEntity
  8
RACCORDO
100
AcDbCircle
 62
253
  6
CONTINUOUS
 10
511.121870599
 20
4.6196752637
 40
505.8586143969
100
AcDbArc
 50
180.0363369806
 51
180.9257317565
  0
ARC
  5
26E
100
AcDbEntity
  8
ASSI
100
AcDbCircle
 62
253
  6
CONTINUOUS
 10
511.121870599
 20
4.6196752637
 40
505.8586143969
100
AcDbArc
 50
180.0363369806
 51
180.9257317565
  0
ARC
  5
26F
100
AcDbEntity
  8
RACCORDO
100
AcDbCircle
 62
253
  6
CONTINUOUS
 10
511.2612754177
 20
4.6132126854
 40
505.3034641267
100
AcDbArc
 50
180.0361052216
 51
180.9257740598
  0
ARC
  5
270
100
AcDbEntity
  8
ASSI
100
AcDbCircle
 62
253
  6
CONTINUOUS
 10
511.2612754177
 20
4.6132126854
 40
505.3034641267
100
AcDbArc
 50
180.0361052216
 51
180.9257740598
  0
ARC
  5
271
100
AcDbEntity
  8
0
100
AcDbCircle
 62
7
  6
CONTINUOUS
 10
0.6494360512
 20
3.4483136561
 40
0.439272286
100
AcDbArc
 50
0.3713343587
 51
3.0207856875
  0
ARC
  5
272
100
AcDbEntity
  8
0
100
AcDbCircle
 62
7
  6
CONTINUOUS
 10
0.6882657386
 20
2.2369560443
 40
0.4093785016
100
AcDbArc
 50
357.7290130548
 51
0.5068209702
  0
ARC
  5
273
100
AcDbEntity
  8
0
100
AcDbCircle
 62
253
  6
CONTINUOUS
 10
6.4836169452
 20
-13.4243798638
 40
0.388964861
100
AcDbArc
 50
235.3376941519
 51
243.3033768423
  0
ARC
  5
274
100
AcDbEntity
  8
0
100
AcDbCircle
 62
253
  6
CONTINUOUS
 10
6.4832599385
 20
-13.4250583685
 40
0.3881982955
100
AcDbArc
 50
243.3054608345
 51
243.4335835096
  0
ARC
  5
275
100
AcDbEntity
  8
0
100
AcDbCircle
 62
253
  6
CONTINUOUS
 10
-8.3909557816
 20
-6.0097188615
 40
0.3687510883
100
AcDbArc
 50
235.0937080222
 51
237.0589444559
  0
ARC
  5
276
100
AcDbEntity
  8
0
100
AcDbCircle
 62
253
  6
CONTINUOUS
 10
-8.3939338768
 20
-6.0145112103
 40
0.3631098025
100
AcDbArc
 50
237.0421150118
 51
243.4346266922
  0
ARC
  5
277
100
AcDbEntity
  8
ASSI
100
AcDbCircle
 62
253
  6
CONTINUOUS
 10
-8.3939338768
 20
-6.0145112103
 40
0.3631098025
100
AcDbArc
 50
237.0421150118
 51
243.4346266922
  0
ARC
  5
278
100
AcDbEntity
  8
0
100
AcDbCircle
 62
7
  6
CONTINUOUS
 10
0.6526316166
 20
3.6323180908
 40
0.3398392404
100
AcDbArc
 50
60.2657070727
 51
63.4133789192
  0
ARC
  5
279
100
AcDbEntity
  8
0
100
AcDbCircle
 62
7
  6
CONTINUOUS
 10
-5.2056586887
 20
6.5927131141
 40
0.3118885116
100
AcDbArc
 50
63.4101305226
 51
66.7432273266
  0
ARC
  5
27A
100
AcDbEntity
  8
0
100
AcDbCircle
 62
253
  6
CONTINUOUS
 10
-8.7779184048
 20
-5.7274816504
 40
0.1737979578
100
AcDbArc
 50
187.2298840297
 51
187.3639784985
  0
ARC
  5
27B
100
AcDbEntity
  8
0
100
AcDbCircle
 62
253
  6
CONTINUOUS
 10
-8.7780942284
 20
-5.7275053604
 40
0.1736205455
100
AcDbArc
 50
187.3636554946
 51
189.280610629
  0
ARC
  5
27C
100
AcDbEntity
  8
RACCORDO
100
AcDbCircle
 62
7
  6
CONTINUOUS
 10
-5.1756862077
 20
6.7476438477
 40
0.1520395851
100
AcDbArc
 50
125.5040224762
 51
131.3670801137
  0
ARC
  5
27D
100
AcDbEntity
  8
ASSI
100
AcDbCircle
 62
7
  6
CONTINUOUS
 10
-5.1756862077
 20
6.7476438477
 40
0.1520395851
100
AcDbArc
 50
125.5040224764
 51
131.3670801135
  0
ARC
  5
27E
100
AcDbEntity
  8
0
100
AcDbCircle
 62
7
  6
CONTINUOUS
 10
0.9302895078
 20
2.1591148502
 40
0.1488190549
100
AcDbArc
 50
287.7951541961
 51
289.618160791
  0
SPLINE
  5
27F
100
AcDbEntity
  8
0
100
AcDbSpline
 62
7
  6
CONTINUOUS
 70
0
 71
3
 72
14
 73
10
 74
8
 42
0.0000001
 43
0.0000001
 44
0.0000000001
 12
-0.1542207178
 22
-0.0495065853
 32
0.0
 13
-0.144755623
 23
0.0723778115
 33
0.0
 40
0.0
 40
0.0
 40
0.0
 40
0.0
 40
0.1023200679
 40
0.2374372834
 40
0.376996687
 40
0.5218828048
 40
0.6739155465
 40
0.8334144111
 40
1.0
 40
1.0
 40
1.0
 40
1.0
 10
0.9757708102
 20
2.0174160067
 30
0.0
 10
0.970510852
 20
2.015727501
 30
0.0
 10
0.958088109
 20
2.0124842846
 30
0.0
 10
0.9378673748
 20
2.009791087
 30
0.0
 10
0.9151737479
 20
2.0097415378
 30
0.0
 10
0.8917398848
 20
2.0125272043
 30
0.0
 10
0.8677148902
 20
2.0181265505
 30
0.0
 10
0.8432787148
 20
2.0265024013
 30
0.0
 10
0.8272098379
 20
2.0337262017
 30
0.0
 10
0.819171771
 20
2.0377452351
 30
0.0
 11
0.9757708102
 21
2.0174160067
 31
0.0
 11
0.9597460205
 21
2.0132195562
 31
0.0
 11
0.9380755694
 21
2.0102897933
 31
0.0
 11
0.91548927
 21
2.0101872575
 31
0.0
 11
0.8921978339
 21
2.0128977223
 31
0.0
 11
0.8682213365
 21
2.0184245053
 31
0.0
 11
0.843783752
 21
2.0267398392
 31
0.0
 11
0.819171771
 21
2.0377452351
 31
0.0
  0
SPLINE
  5
280
100
AcDbEntity
  8
0
100
AcDbSpline
 62
7
  6
CONTINUOUS
 70
0
 71
3
 72
17
 73
13
 74
11
 42
0.0000001
 43
0.0000001
 44
0.0000000001
 12
-0.0014136376
 22
0.227185663
 32
0.0
 13
0.1851112433
 23
0.1320421938
 33
0.0
 40
0.0
 40
0.0
 40
0.0
 40
0.0
 40
0.1300572035
 40
0.2552847793
 40
0.3750093211
 40
0.4890287605
 40
0.5982816005
 40
0.7029314772
 40
0.8031622927
 40
0.8998537876
 40
0.9944866023
 40
1.0
 40
1.0
 40
1.0
 40
1.0
 10
-5.345972597
 20
6.6684964174
 30
0.0
 10
-5.3460338815
 20
6.6783454614
 30
0.0
 10
-5.3454811434
 20
6.6976907554
 30
0.0
 10
-5.34249535
 20
6.7259620659
 30
0.0
 10
-5.3373922848
 20
6.7526989513
 30
0.0
 10
-5.3302167962
 20
6.7777037272
 30
0.0
 10
-5.3210142618
 20
6.8008176274
 30
0.0
 10
-5.3098357305
 20
6.8218754089
 30
0.0
 10
-5.2967772567
 20
6.8406825833
 30
0.0
 10
-5.2819283642
 20
6.8571098507
 30
0.0
 10
-5.2704858594
 20
6.866739117
 30
0.0
 10
-5.2643249311
 20
6.8711727675
 30
0.0
 10
-5.2639847338
 20
6.8714154346
 30
0.0
 11
-5.345972597
 21
6.6684964174
 31
0.0
 11
-5.3450866013
 21
6.6980308351
 31
0.0
 11
-5.3420511594
 21
6.7263189032
 31
0.0
 11
-5.3369000586
 21
6.7530269255
 31
0.0
 11
-5.3297011543
 21
6.7779106011
 31
0.0
 11
-5.3204653394
 21
6.8009494743
 31
0.0
 11
-5.3092660276
 21
6.8219219711
 31
0.0
 11
-5.2962348154
 21
6.8405961838
 31
0.0
 11
-5.2814715975
 21
6.856863074
 31
0.0
 11
-5.2650022639
 21
6.8706831809
 31
0.0
 11
-5.2639847338
 21
6.8714154346
 31
0.0
  0
SPLINE
  5
281
100
AcDbEntity
  8
0
100
AcDbSpline
 62
7
  6
CONTINUOUS
 70
0
 71
3
 72
25
 73
21
 74
19
 42
0.0000001
 43
0.0000001
 44
0.0000000001
 12
-0.5245274336
 22
0.2622637168
 32
0.0
 13
-0.0050025685
 23
0.5864181615
 33
0.0
 40
0.0
 40
0.0
 40
0.0
 40
0.0
 40
0.0480002932
 40
0.0980590819
 40
0.1498717826
 40
0.2031749175
 40
0.2581430781
 40
0.3144923273
 40
0.3717784855
 40
0.4297960057
 40
0.4886066784
 40
0.5477370808
 40
0.6067006057
 40
0.6655412348
 40
0.7240391648
 40
0.7817066167
 40
0.8381979445
 40
0.893647016
 40
0.9477181013
 40
1.0
 40
1.0
 40
1.0
 40
1.0
 10
-5.0524994589
 20
4.97358085
 30
0.0
 10
-5.0608919491
 20
4.9777770951
 30
0.0
 10
-5.077674398
 20
4.9870906651
 30
0.0
 10
-5.1021322575
 20
5.0032652948
 30
0.0
 10
-5.1261853423
 20
5.0217876029
 30
0.0
 10
-5.1496625518
 20
5.0425106278
 30
0.0
 10
-5.1724144119
 20
5.0652967891
 30
0.0
 10
-5.1942764155
 20
5.0899861707
 30
0.0
 10
-5.215055784
 20
5.1163551439
 30
0.0
 10
-5.234621428
 20
5.1442257832
 30
0.0
 10
-5.2528439446
 20
5.1734180175
 30
0.0
 10
-5.2695738781
 20
5.2037016853
 30
0.0
 10
-5.2846804867
 20
5.2348332703
 30
0.0
 10
-5.2980658204
 20
5.2666090009
 30
0.0
 10
-5.3096337316
 20
5.2988220246
 30
0.0
 10
-5.3192757965
 20
5.3311847794
 30
0.0
 10
-5.3269251132
 20
5.3634641527
 30
0.0
 10
-5.3325272237
 20
5.3954495558
 30
0.0
 10
-5.3360292508
 20
5.4269047769
 30
0.0
 10
-5.3369563033
 20
5.4476934037
 30
0.0
 10
-5.3370434846
 20
5.4579130887
 30
0.0
 11
-5.0524994589
 21
4.97358085
 31
0.0
 11
-5.0771351947
 21
4.9871992861
 31
0.0
 11
-5.1016446867
 21
5.0033574424
 31
0.0
 11
-5.125741039
 21
5.0218673018
 31
0.0
 11
-5.1491966852
 21
5.042530354
 31
0.0
 11
-5.1719916573
 21
5.065323264
 31
0.0
 11
-5.1939143315
 21
5.0900496972
 31
0.0
 11
-5.2147201425
 21
5.1164264529
 31
0.0
 11
-5.2342784389
 21
5.144266885
 31
0.0
 11
-5.2525471657
 21
5.1735198838
 31
0.0
 11
-5.26931755
 21
5.2038712788
 31
0.0
 11
-5.284411882
 21
5.2349813506
 31
0.0
 11
-5.2978020099
 21
5.2667838801
 31
0.0
 11
-5.3093865401
 21
5.2990742156
 31
0.0
 11
-5.319028459
 21
5.3314890643
 31
0.0
 11
-5.3266484119
 21
5.3637295688
 31
0.0
 11
-5.3322339966
 21
5.3957637805
 31
0.0
 11
-5.3357126038
 21
5.4272818169
 31
0.0
 11
-5.3370434846
 21
5.4579130887
 31
0.0
  0
SPLINE
  5
282
100
AcDbEntity
  8
0
100
AcDbSpline
 62
7
  6
CONTINUOUS
 70
0
 71
3
 72
16
 73
12
 74
10
 42
0.0000001
 43
0.0000001
 44
0.0000000001
 12
0.1548355564
 22
0.110446163
 32
0.0
 13
0.1746969933
 23
-0.0749889637
 33
0.0
 40
0.0
 40
0.0
 40
0.0
 40
0.0
 40
0.1049978016
 40
0.2160721982
 40
0.3286658053
 40
0.4442432496
 40
0.5635640949
 40
0.6873708907
 40
0.8172089711
 40
0.9533450901
 40
1.0
 40
1.0
 40
1.0
 40
1.0
 10
-5.2639847338
 20
6.8714154346
 30
0.0
 10
-5.2585656028
 20
6.8752809694
 30
0.0
 10
-5.2468827959
 20
6.8824938136
 30
0.0
 10
-5.2277500919
 20
6.8908816818
 30
0.0
 10
-5.2069751203
 20
6.8966462205
 30
0.0
 10
-5.1850921634
 20
6.8995723291
 30
0.0
 10
-5.1623108396
 20
6.8996377649
 30
0.0
 10
-5.1387969626
 20
6.8968594744
 30
0.0
 10
-5.1147022495
 20
6.8912592276
 30
0.0
 10
-5.0959380967
 20
6.8848361152
 30
0.0
 10
-5.0852255668
 20
6.8804251832
 30
0.0
 10
-5.0825087427
 20
6.8792589821
 30
0.0
 11
-5.2639847338
 21
6.8714154346
 31
0.0
 11
-5.2469999013
 21
6.8818898958
 31
0.0
 11
-5.2276716427
 21
6.8903724657
 31
0.0
 11
-5.2070614356
 21
6.8961192762
 31
0.0
 11
-5.1852974253
 21
6.8990723173
 31
0.0
 11
-5.1626229265
 21
6.8991900425
 31
0.0
 11
-5.1392515186
 21
6.8964863082
 31
0.0
 11
-5.1152053737
 21
6.8909581559
 31
0.0
 11
-5.090710872
 21
6.8826341466
 31
0.0
 11
-5.0825087427
 21
6.8792589821
 31
0.0
  0
LINE
  5
283
100
AcDbEntity
  8
0
100
AcDbLine
 62
7
  6
CONTINUOUS
 10
1.0886991118
 20
3.451160563
 11
1.0898462639
 21
3.2717270885
  0
LINE
  5
284
100
AcDbEntity
  8
0
100
AcDbLine
 62
7
  6
CONTINUOUS
 10
1.0898462639
 20
3.2717270885
 11
1.0901426021
 21
3.2268731096
  0
LINE
  5
285
100
AcDbEntity
  8
0
100
AcDbLine
 62
7
  6
CONTINUOUS
 10
1.0901426021
 20
3.2268731096
 11
1.0926507862
 21
2.8681114188
  0
LINE
  5
286
100
AcDbEntity
  8
0
100
AcDbLine
 62
7
  6
CONTINUOUS
 10
1.0926507862
 20
2.8681114188
 11
1.0929814942
 21
2.8232749653
  0
LINE
  5
287
100
AcDbEntity
  8
0
100
AcDbLine
 62
7
  6
CONTINUOUS
 10
1.0929814942
 20
2.8232749653
 11
1.0957646342
 21
2.4646538171
  0
LINE
  5
288
100
AcDbEntity
  8
0
100
AcDbLine
 62
7
  6
CONTINUOUS
 10
1.0957646342
 20
2.4646538171
 11
1.0961297114
 21
2.4198349723
  0
LINE
  5
289
100
AcDbEntity
  8
0
100
AcDbLine
 62
7
  6
CONTINUOUS
 10
1.0961297114
 20
2.4198349723
 11
1.0976282242
 21
2.2405772343
  0
SPLINE
  5
28A
100
AcDbEntity
  8
0
100
AcDbSpline
 62
7
  6
CONTINUOUS
 70
0
 71
3
 72
25
 73
21
 74
19
 42
0.0000001
 43
0.0000001
 44
0.0000000001
 12
0.4760651431
 22
-0.2716862358
 32
0.0
 13
0.028742675
 23
-0.5473191178
 33
0.0
 40
0.0
 40
0.0
 40
0.0
 40
0.0
 40
0.0173798543
 40
0.0710354597
 40
0.1265740146
 40
0.183712675
 40
0.2426367666
 40
0.3030389801
 40
0.3644410988
 40
0.4266233133
 40
0.4896463532
 40
0.5529995242
 40
0.6161603136
 40
0.6791775961
 40
0.7418114536
 40
0.8035396236
 40
0.8639953254
 40
0.9233222358
 40
0.981159128
 40
1.0
 40
1.0
 40
1.0
 40
1.0
 10
0.8211845654
 20
3.9274123347
 30
0.0
 10
0.8239425464
 20
3.925838379
 30
0.0
 10
0.835128905
 20
3.9192534116
 30
0.0
 10
0.8544227634
 20
3.9064817769
 30
0.0
 10
0.8784990925
 20
3.8879141818
 30
0.0
 10
0.9019924949
 20
3.8671360997
 30
0.0
 10
0.9247519958
 20
3.8442868384
 30
0.0
 10
0.9466117942
 20
3.8195285809
 30
0.0
 10
0.9673785984
 20
3.7930872538
 30
0.0
 10
0.9869208883
 20
3.765143359
 30
0.0
 10
1.005109084
 20
3.7358797873
 30
0.0
 10
1.0217939209
 20
3.705529944
 30
0.0
 10
1.0368458986
 20
3.6743394099
 30
0.0
 10
1.0501683315
 20
3.6425139357
 30
0.0
 10
1.0616666284
 20
3.6102619903
 30
0.0
 10
1.0712343829
 20
3.5778724263
 30
0.0
 10
1.0788068585
 20
3.5455784772
 30
0.0
 10
1.0843315411
 20
3.5135909254
 30
0.0
 10
1.0870237913
 20
3.4888808985
 30
0.0
 10
1.0879174485
 20
3.4748998531
 30
0.0
 10
1.0880979608
 20
3.47146253
 30
0.0
 11
0.8211845654
 21
3.9274123347
 31
0.0
 11
0.8293949064
 21
3.9225812835
 31
0.0
 11
0.8539331654
 21
3.9063889606
 31
0.0
 11
0.8780528332
 21
3.8878339894
 31
0.0
 11
0.9015249232
 21
3.8671160009
 31
0.0
 11
0.9243279746
 21
3.8442597629
 31
0.0
 11
0.9462487543
 21
3.8194642179
 31
0.0
 11
0.9670419987
 21
3.7930152944
 31
0.0
 11
0.9865775944
 21
3.7651009829
 31
0.0
 11
1.0048122992
 21
3.7357760793
 31
0.0
 11
1.0215376242
 21
3.705358265
 31
0.0
 11
1.036577251
 21
3.6741896518
 31
0.0
 11
1.049904763
 21
3.6423366458
 31
0.0
 11
1.0614195257
 21
3.6100073594
 31
0.0
 11
1.0709868596
 21
3.5775662797
 31
0.0
 11
1.0785300547
 21
3.5453113479
 31
0.0
 11
1.0840381638
 21
3.5132746781
 31
0.0
 11
1.087440592
 21
3.4817675476
 31
0.0
 11
1.0880979608
 21
3.47146253
 31
0.0
  0
SPLINE
  5
28B
100
AcDbEntity
  8
0
100
AcDbSpline
 62
7
  6
CONTINUOUS
 70
0
 71
3
 72
18
 73
14
 74
12
 42
0.0000001
 43
0.0000001
 44
0.0000000001
 12
-0.0099005647
 22
-0.2476557594
 32
0.0
 13
-0.2335873972
 23
-0.0832697719
 33
0.0
 40
0.0
 40
0.0
 40
0.0
 40
0.0
 40
0.0392494446
 40
0.1540753989
 40
0.2637785377
 40
0.3681814313
 40
0.4681473846
 40
0.5638276364
 40
0.6554002396
 40
0.7436879507
 40
0.8300547987
 40
0.9152162534
 40
1.0
 40
1.0
 40
1.0
 40
1.0
 10
1.0973227098
 20
2.2207340847
 30
0.0
 10
1.0971931792
 20
2.2174939677
 30
0.0
 10
1.0965275651
 20
2.2047808186
 30
0.0
 10
1.0942928937
 20
2.1830868902
 30
0.0
 10
1.0892651103
 20
2.1563532989
 30
0.0
 10
1.082167956
 20
2.131362347
 30
0.0
 10
1.0730471533
 20
2.1082712771
 30
0.0
 10
1.0619540407
 20
2.0872438513
 30
0.0
 10
1.048984463
 20
2.0684724181
 30
0.0
 10
1.0342275794
 20
2.0520841136
 30
0.0
 10
1.0177741673
 20
2.0381985108
 30
0.0
 10
0.9997552969
 20
2.0269467164
 30
0.0
 10
0.9868569998
 20
2.0212878886
 30
0.0
 10
0.9802555282
 20
2.0189345808
 30
0.0
 11
1.0973227098
 21
2.2207340847
 31
0.0
 11
1.0968125489
 21
2.2110195218
 31
0.0
 11
1.0938493914
 21
2.1827224798
 31
0.0
 11
1.0887730892
 21
2.1560182598
 31
0.0
 11
1.0816516568
 21
2.1311486674
 31
0.0
 11
1.0724967718
 21
2.1081328567
 31
0.0
 11
1.0613824198
 21
2.0871917139
 31
0.0
 11
1.0484400759
 21
2.0685548602
 31
0.0
 11
1.0337686464
 21
2.0523279752
 31
0.0
 11
1.0173945837
 21
2.0385491796
 31
0.0
 11
0.9994899205
 21
2.0273825308
 31
0.0
 11
0.9802555282
 21
2.0189345808
 31
0.0
  0
SPLINE
  5
28C
100
AcDbEntity
  8
RACCORDO
100
AcDbSpline
 62
7
  6
CONTINUOUS
 70
0
 71
3
 72
16
 73
12
 74
10
 42
0.0000001
 43
0.0000001
 44
0.0000000001
 12
0.1696147045
 22
0.1209883165
 32
0.0
 13
0.1861936725
 23
-0.0930968362
 33
0.0
 40
0.0
 40
0.0
 40
0.0
 40
0.0
 40
0.0958690123
 40
0.1972796348
 40
0.3000767723
 40
0.4055993299
 40
0.5145435844
 40
0.6275877901
 40
0.7461181251
 40
0.8703585636
 40
1.0
 40
1.0
 40
1.0
 40
1.0
 10
-5.2639847338
 20
6.8714154346
 30
0.0
 10
-5.2585644691
 20
6.8752817781
 30
0.0
 10
-5.2468795002
 20
6.8824957308
 30
0.0
 10
-5.2277433439
 20
6.8908842274
 30
0.0
 10
-5.2069650419
 20
6.896648409
 30
0.0
 10
-5.1850783953
 20
6.8995733943
 30
0.0
 10
-5.1622927995
 20
6.899636869
 30
0.0
 10
-5.138775676
 20
6.8968558061
 30
0.0
 10
-5.1146817442
 20
6.8912531788
 30
0.0
 10
-5.0901965041
 20
6.8828696181
 30
0.0
 10
-5.0741032222
 20
6.8756373048
 30
0.0
 10
-5.0660570838
 20
6.8716142356
 30
0.0
 11
-5.2639847338
 21
6.8714154346
 31
0.0
 11
-5.2469962051
 21
6.881891844
 31
0.0
 11
-5.227664853
 21
6.8903748856
 31
0.0
 11
-5.2070514737
 21
6.8961213231
 31
0.0
 11
-5.1852839981
 21
6.8990732438
 31
0.0
 11
-5.1626052752
 21
6.8991890476
 31
0.0
 11
-5.1392289412
 21
6.8964823926
 31
0.0
 11
-5.1151822407
 21
6.8909515555
 31
0.0
 11
-5.0906950207
 21
6.8826279053
 31
0.0
 11
-5.0660570838
 21
6.8716142356
 31
0.0
  0
SPLINE
  5
28D
100
AcDbEntity
  8
RACCORDO
100
AcDbSpline
 62
7
  6
CONTINUOUS
 70
0
 71
3
 72
19
 73
15
 74
13
 42
0.0000001
 43
0.0000001
 44
0.0000000001
 12
0.0023233124
 22
-0.2723466015
 32
0.0
 13
-0.2595315173
 23
-0.0833125346
 33
0.0
 40
0.0
 40
0.0
 40
0.0
 40
0.0
 40
0.1085012282
 40
0.2129420887
 40
0.312754366
 40
0.4077593882
 40
0.4987226518
 40
0.5857825686
 40
0.6691038925
 40
0.7494370233
 40
0.8280230385
 40
0.9055121163
 40
0.9826399433
 40
1.0
 40
1.0
 40
1.0
 40
1.0
 10
1.0976282242
 20
2.2405772343
 30
0.0
 10
1.0977122516
 20
2.2307272541
 30
0.0
 10
1.0972065987
 20
2.2113814668
 30
0.0
 10
1.0942958998
 20
2.1831083882
 30
0.0
 10
1.089270032
 20
2.1563738977
 30
0.0
 10
1.0821734916
 20
2.1313782753
 30
0.0
 10
1.0730523
 20
2.1082821966
 30
0.0
 10
1.0619584292
 20
2.0872508814
 30
0.0
 10
1.0489876657
 20
2.0684762743
 30
0.0
 10
1.0342289794
 20
2.0520852677
 30
0.0
 10
1.0177730989
 20
2.0381975371
 30
0.0
 10
0.9997525806
 20
2.026945236
 30
0.0
 10
0.985405373
 20
2.0206511902
 30
0.0
 10
0.977272638
 20
2.0178981098
 30
0.0
 10
0.9757708107
 20
2.0174160064
 30
0.0
 11
1.0976282242
 21
2.2405772343
 31
0.0
 11
1.0968137177
 21
2.2110374455
 31
0.0
 11
1.0938529483
 21
2.1827468055
 31
0.0
 11
1.0887782677
 21
2.1560401408
 31
0.0
 11
1.081656921
 21
2.1311641628
 31
0.0
 11
1.0725016503
 21
2.1081434384
 31
0.0
 11
1.0613866401
 21
2.0871986547
 31
0.0
 11
1.0484431955
 21
2.068558798
 31
0.0
 11
1.0337699696
 21
2.0523292547
 31
0.0
 11
1.017393403
 21
2.0385483203
 31
0.0
 11
0.9994857835
 21
2.0273803473
 31
0.0
 11
0.9802526167
 21
2.0189335431
 31
0.0
 11
0.9757708107
 21
2.0174160064
 31
0.0
  0
SPLINE
  5
28E
100
AcDbEntity
  8
RACCORDO
100
AcDbSpline
 62
7
  6
CONTINUOUS
 70
0
 71
3
 72
25
 73
21
 74
19
 42
0.0000001
 43
0.0000001
 44
0.0000000001
 12
0.524939942
 22
-0.262469971
 32
0.0
 13
0.0036518538
 23
-0.5868893357
 33
0.0
 40
0.0
 40
0.0
 40
0.0
 40
0.0
 40
0.0480002896
 40
0.0980777546
 40
0.1499276073
 40
0.2032806204
 40
0.2582997211
 40
0.3146977562
 40
0.3720294192
 40
0.4300903448
 40
0.4889371177
 40
0.5480921557
 40
0.6070668692
 40
0.6659068303
 40
0.7243887663
 40
0.7820262864
 40
0.838476684
 40
0.8938625151
 40
0.9478403938
 40
1.0
 40
1.0
 40
1.0
 40
1.0
 10
0.8047267655
 20
3.936222311
 30
0.0
 10
0.8131258552
 20
3.9320227661
 30
0.0
 10
0.8299236944
 20
3.9226979793
 30
0.0
 10
0.8544039006
 20
3.9064951807
 30
0.0
 10
0.8784803183
 20
3.8879298066
 30
0.0
 10
0.9019771523
 20
3.867150732
 30
0.0
 10
0.9247407758
 20
3.8442989506
 30
0.0
 10
0.9466040856
 20
3.8195379716
 30
0.0
 10
0.9673740369
 20
3.7930935512
 30
0.0
 10
0.9869193023
 20
3.7651459295
 30
0.0
 10
1.0051102291
 20
3.7358780162
 30
0.0
 10
1.0217973339
 20
3.7055235223
 30
0.0
 10
1.0368509651
 20
3.6743283607
 30
0.0
 10
1.0501744522
 20
3.6424983611
 30
0.0
 10
1.0616733371
 20
3.610241701
 30
0.0
 10
1.0712412454
 20
3.5778469554
 30
0.0
 10
1.0788128433
 20
3.5455494113
 30
0.0
 10
1.084335316
 20
3.5135634554
 30
0.0
 10
1.0877584991
 20
3.4821294266
 30
0.0
 10
1.0886356187
 20
3.4613645353
 30
0.0
 10
1.0886991118
 20
3.4511605631
 30
0.0
 11
0.8047267655
 21
3.936222311
 31
0.0
 11
0.8293802246
 21
3.9225901826
 31
0.0
 11
0.853912047
 21
3.9064040426
 31
0.0
 11
0.8780326052
 21
3.8878506852
 31
0.0
 11
0.901509607
 21
3.8671304202
 31
0.0
 11
0.9243168195
 21
3.8442716473
 31
0.0
 11
0.9462409648
 21
3.8194735645
 31
0.0
 11
0.9670372556
 21
3.7930216889
 31
0.0
 11
0.9865758395
 21
3.7651036417
 31
0.0
 11
1.0048133571
 21
3.7357742714
 31
0.0
 11
1.0215410198
 21
3.70535168
 31
0.0
 11
1.0365823005
 21
3.6741784348
 31
0.0
 11
1.0499108058
 21
3.6423210365
 31
0.0
 11
1.0614260673
 21
3.6099872586
 31
0.0
 11
1.0709935561
 21
3.5775409497
 31
0.0
 11
1.0785363753
 21
3.5452802257
 31
0.0
 11
1.0840424711
 21
3.5132439676
 31
0.0
 11
1.0874421127
 21
3.4817472542
 31
0.0
 11
1.0886991118
 21
3.4511605631
 31
0.0
  0
SPLINE
  5
28F
100
AcDbEntity
  8
0
100
AcDbSpline
 62
253
  6
CONTINUOUS
 70
0
 71
3
 72
17
 73
13
 74
11
 42
0.0000001
 43
0.0000001
 44
0.0000000001
 12
0.0036245442
 22
-0.2417804495
 32
0.0
 13
0.2159671725
 23
-0.1081563273
 33
0.0
 40
0.0
 40
0.0
 40
0.0
 40
0.0
 40
0.0103943541
 40
0.1011450801
 40
0.1939167887
 40
0.2903486394
 40
0.3918036089
 40
0.4993198327
 40
0.6136097523
 40
0.7350873343
 40
0.8639064207
 40
1.0
 40
1.0
 40
1.0
 40
1.0
 10
-9.6257666737
 20
4.0285603939
 30
0.0
 10
-9.6257541154
 20
4.0277226767
 30
0.0
 10
-9.6255535045
 20
4.0195722746
 30
0.0
 10
-9.6237006725
 20
4.0039970883
 30
0.0
 10
-9.6173984726
 20
3.982257234
 30
0.0
 10
-9.6074864331
 20
3.9609657996
 30
0.0
 10
-9.594064812
 20
3.9402779295
 30
0.0
 10
-9.5772510056
 20
3.9203333174
 30
0.0
 10
-9.5571775374
 20
3.9012629099
 30
0.0
 10
-9.5339929422
 20
3.8831922975
 30
0.0
 10
-9.5078664411
 20
3.8662437953
 30
0.0
 10
-9.4891106049
 20
3.856041768
 30
0.0
 10
-9.4793133564
 20
3.8511353074
 30
0.0
 11
-9.6257666737
 21
4.0285603939
 31
0.0
 11
-9.6257047954
 21
4.0260477759
 31
0.0
 11
-9.6231385394
 21
4.0042789558
 31
0.0
 11
-9.6169536344
 21
3.9827417309
 31
0.0
 11
-9.6071950841
 21
3.9615928142
 31
0.0
 11
-9.5939338954
 21
3.9409860931
 31
0.0
 11
-9.5772665617
 21
3.92107151
 31
0.0
 11
-9.5573143607
 21
3.9019939706
 31
0.0
 11
-9.5342224721
 21
3.8838922906
 31
0.0
 11
-9.5081589213
 21
3.8668981843
 31
0.0
 11
-9.4793133564
 21
3.8511353074
 31
0.0
  0
SPLINE
  5
290
100
AcDbEntity
  8
0
100
AcDbSpline
 62
253
  6
CONTINUOUS
 70
0
 71
3
 72
10
 73
6
 74
4
 42
0.0000001
 43
0.0000001
 44
0.0000000001
 12
0.0074485003
 22
-0.0455801443
 32
0.0
 13
0.0188271118
 23
-0.0421704433
 33
0.0
 40
0.0
 40
0.0
 40
0.0
 40
0.0
 40
0.0823660372
 40
0.6298019949
 40
1.0
 40
1.0
 40
1.0
 40
1.0
 10
-8.9494421413
 20
-5.75550512
 30
0.0
 10
-8.9492376402
 20
-5.7567565386
 30
0.0
 10
-8.947569004
 20
-5.7663081411
 30
0.0
 10
-8.9436477968
 20
-5.7812366033
 30
0.0
 10
-8.9384725189
 20
-5.794396032
 30
0.0
 10
-8.9361492658
 20
-5.7995998367
 30
0.0
 11
-8.9494421413
 21
-5.75550512
 31
0.0
 11
-8.9487874898
 21
-5.7592523128
 31
0.0
 11
-8.9423915401
 21
-5.7836905085
 31
0.0
 11
-8.9361492658
 21
-5.7995998367
 31
0.0
  0
SPLINE
  5
291
100
AcDbEntity
  8
0
100
AcDbSpline
 62
253
  6
CONTINUOUS
 70
0
 71
3
 72
14
 73
10
 74
8
 42
0.0000001
 43
0.0000001
 44
0.0000000001
 12
0.0759880624
 22
-0.1702040287
 32
0.0
 13
0.1662134973
 23
-0.084024983
 33
0.0
 40
0.0
 40
0.0
 40
0.0
 40
0.0
 40
0.0464367482
 40
0.188742367
 40
0.3365678636
 40
0.4909883586
 40
0.6527687187
 40
0.8223750858
 40
1.0
 40
1.0
 40
1.0
 40
1.0
 10
-8.9361492658
 20
-5.7995998367
 30
0.0
 10
-8.9349730529
 20
-5.8022344106
 30
0.0
 10
-8.9299470815
 20
-5.8128331959
 30
0.0
 10
-8.9192884448
 20
-5.8308737948
 30
0.0
 10
-8.9023386623
 20
-5.852738984
 30
0.0
 10
-8.8821388389
 20
-5.8733596399
 30
0.0
 10
-8.8588430213
 20
-5.8925950738
 30
0.0
 10
-8.8326261731
 20
-5.9103131804
 30
0.0
 10
-8.8137559684
 20
-5.9207949167
 30
0.0
 10
-8.803914749
 20
-5.9257698935
 30
0.0
 11
-8.9361492658
 21
-5.7995998367
 31
0.0
 11
-8.9324423685
 21
-5.8074205318
 31
0.0
 11
-8.9190124049
 21
-5.8302696279
 31
0.0
 11
-8.9021994196
 21
-5.8520714549
 31
0.0
 11
-8.8821258115
 21
-5.8726672954
 31
0.0
 11
-8.8589377165
 21
-5.8919072114
 31
0.0
 11
-8.8328039443
 21
-5.9096511361
 31
0.0
 11
-8.803914749
 21
-5.9257698935
 31
0.0
  0
SPLINE
  5
292
100
AcDbEntity
  8
0
100
AcDbSpline
 62
253
  6
CONTINUOUS
 70
0
 71
3
 72
16
 73
12
 74
10
 42
0.0000001
 43
0.0000001
 44
0.0000000001
 12
-0.3681161601
 22
0.2568535911
 32
0.0
 13
-0.0574103684
 23
0.4449243082
 33
0.0
 40
0.0
 40
0.0
 40
0.0
 40
0.0
 40
0.098066609
 40
0.1981064048
 40
0.3008454355
 40
0.4069003075
 40
0.5167665536
 40
0.6308152716
 40
0.7492972807
 40
0.8723474246
 40
1.0
 40
1.0
 40
1.0
 40
1.0
 10
-8.6019684057
 20
-6.3121275876
 30
0.0
 10
-8.6140017068
 20
-6.3037313341
 30
0.0
 10
-8.6372986557
 20
-6.2853238906
 30
0.0
 10
-8.6692492164
 20
-6.2535196182
 30
0.0
 10
-8.6982930902
 20
-6.2175023082
 30
0.0
 10
-8.724285621
 20
-6.1774704819
 30
0.0
 10
-8.7471004083
 20
-6.1336394626
 30
0.0
 10
-8.7666280903
 20
-6.0862405632
 30
0.0
 10
-8.7827755685
 20
-6.0355197669
 30
0.0
 10
-8.7954655929
 20
-5.9817418
 30
0.0
 10
-8.8014718886
 20
-5.9447018048
 30
0.0
 10
-8.8039147491
 20
-5.9257698935
 30
0.0
 11
-8.6019684057
 21
-6.3121275876
 31
0.0
 11
-8.6365134148
 21
-6.2848858888
 31
0.0
 11
-8.6683624622
 21
-6.2532666507
 31
0.0
 11
-8.6973505709
 21
-6.2174339384
 31
0.0
 11
-8.7233274385
 21
-6.1775738148
 31
0.0
 11
-8.7461584227
 21
-6.1338931996
 31
0.0
 11
-8.7657252185
 21
-6.0866188079
 31
0.0
 11
-8.7819265616
 21
-6.0359955755
 31
0.0
 11
-8.7946783572
 21
-5.9822867277
 31
0.0
 11
-8.8039147491
 21
-5.9257698935
 31
0.0
  0
SPLINE
  5
293
100
AcDbEntity
  8
RACCORDO
100
AcDbSpline
 62
253
  6
CONTINUOUS
 70
0
 71
3
 72
25
 73
21
 74
19
 42
0.0000001
 43
0.0000001
 44
0.0000000001
 12
-0.322542062
 22
-0.153715816
 32
0.0
 13
-0.3195783395
 23
0.1597861657
 33
0.0
 40
0.0
 40
0.0
 40
0.0
 40
0.0
 40
0.0494954376
 40
0.1011644218
 40
0.1547958882
 40
0.2101520197
 40
0.2669695962
 40
0.3249641445
 40
0.3838344909
 40
0.4432679998
 40
0.5029448047
 40
0.5625417143
 40
0.6217365154
 40
0.6802124479
 40
0.7376621202
 40
0.7937918312
 40
0.8483269394
 40
0.9010166122
 40
0.9516383009
 40
1.0
 40
1.0
 40
1.0
 40
1.0
 10
5.7858550928
 20
4.6019385237
 30
0.0
 10
5.7805336393
 20
4.5994024465
 30
0.0
 10
5.7694809701
 20
4.5945821955
 30
0.0
 10
5.7521632299
 20
4.588231388
 30
0.0
 10
5.7338543318
 20
4.5826411484
 30
0.0
 10
5.7146880085
 20
4.5778526015
 30
0.0
 10
5.6948024323
 20
4.5739002178
 30
0.0
 10
5.6743414466
 20
4.5708126917
 30
0.0
 10
5.6534531346
 20
4.5686124254
 30
0.0
 10
5.6322888018
 20
4.5673154099
 30
0.0
 10
5.6110017797
 20
4.5669310702
 30
0.0
 10
5.5897463269
 20
4.5674621974
 30
0.0
 10
5.568676465
 20
4.5689049216
 30
0.0
 10
5.5479448218
 20
4.5712487491
 30
0.0
 10
5.5277015225
 20
4.5744766414
 30
0.0
 10
5.5080930042
 20
4.578565186
 30
0.0
 10
5.4892610213
 20
4.5834847224
 30
0.0
 10
5.4713411897
 20
4.5891999023
 30
0.0
 10
5.4544643023
 20
4.5956687529
 30
0.0
 10
5.4437317545
 20
4.6005706191
 30
0.0
 10
5.4385799707
 20
4.6031464626
 30
0.0
 11
5.7858550928
 21
4.6019385237
 31
0.0
 11
5.7696549898
 21
4.5948460872
 31
0.0
 11
5.752329838
 21
4.5884698715
 31
0.0
 11
5.7340077959
 21
4.5828572822
 31
0.0
 11
5.7148224465
 21
4.5780492683
 31
0.0
 11
5.6949133007
 21
4.5740807807
 31
0.0
 11
5.6744251706
 21
4.5709806934
 31
0.0
 11
5.6535072346
 21
4.5687715818
 31
0.0
 11
5.6323117106
 21
4.567469518
 31
0.0
 11
5.6109927874
 21
4.5670839732
 31
0.0
 11
5.589705616
 21
4.5676177539
 31
0.0
 11
5.5686051347
 21
4.5690669713
 31
0.0
 11
5.5478448404
 21
4.5714210798
 31
0.0
 11
5.5275757997
 21
4.5746629483
 31
0.0
 11
5.5079455879
 21
4.5787689662
 31
0.0
 11
5.4890969786
 21
4.583709258
 31
0.0
 11
5.4711670274
 21
4.5894479091
 31
0.0
 11
5.4542864503
 21
4.5959430526
 31
0.0
 11
5.4385799707
 21
4.6031464626
 31
0.0
  0
SPLINE
  5
294
100
AcDbEntity
  8
RACCORDO
100
AcDbSpline
 62
253
  6
CONTINUOUS
 70
0
 71
3
 72
25
 73
21
 74
19
 42
0.0000001
 43
0.0000001
 44
0.0000000001
 12
-0.2109794759
 22
0.1054917212
 32
0.0
 13
0.2069226435
 23
0.1132424924
 33
0.0
 40
0.0
 40
0.0
 40
0.0
 40
0.0
 40
0.0696259316
 40
0.1354941003
 40
0.1975520195
 40
0.2558682771
 40
0.3106467485
 40
0.3622458225
 40
0.411194015
 40
0.4581922643
 40
0.5040904017
 40
0.549831955
 40
0.5963745027
 40
0.6446058402
 40
0.6952792112
 40
0.7489797848
 40
0.8061199722
 40
0.8669516448
 40
0.9315844569
 40
1.0
 40
1.0
 40
1.0
 40
1.0
 10
-9.3655670474
 20
12.0052199716
 30
0.0
 10
-9.3704635949
 20
12.0076682914
 30
0.0
 10
-9.3798373314
 20
12.0127539351
 30
0.0
 10
-9.3928986994
 20
12.0211909242
 30
0.0
 10
-9.404489755
 20
12.0301734017
 30
0.0
 10
-9.4145253947
 20
12.039640261
 30
0.0
 10
-9.422931578
 20
12.0495292436
 30
0.0
 10
-9.4296422702
 20
12.0597758089
 30
0.0
 10
-9.4345987775
 20
12.0703113261
 30
0.0
 10
-9.4377505359
 20
12.0810595611
 30
0.0
 10
-9.4390597991
 20
12.0919335418
 30
0.0
 10
-9.4385092147
 20
12.1028369173
 30
0.0
 10
-9.4361067339
 20
12.1136715914
 30
0.0
 10
-9.4318830268
 20
12.1243466273
 30
0.0
 10
-9.4258840705
 20
12.1347818518
 30
0.0
 10
-9.4181651397
 20
12.1449058039
 30
0.0
 10
-9.4087888978
 20
12.1546520003
 30
0.0
 10
-9.3978256536
 20
12.1639565357
 30
0.0
 10
-9.3853565589
 20
12.1727564007
 30
0.0
 10
-9.3763487742
 20
12.1780984875
 30
0.0
 10
-9.3716298659
 20
12.1806810031
 30
0.0
 11
-9.3655670474
 21
12.0052199716
 31
0.0
 11
-9.3799876114
 21
12.0130800834
 31
0.0
 11
-9.3930190388
 21
12.0215409422
 31
0.0
 11
-9.4045645788
 21
12.0305400367
 31
0.0
 11
-9.4145400007
 21
12.0400117605
 31
0.0
 11
-9.4228727855
 21
12.0498872409
 31
0.0
 11
-9.4295023043
 21
12.0600946522
 31
0.0
 11
-9.4343802745
 21
12.0705596759
 31
0.0
 11
-9.4374711989
 21
12.0812061613
 31
0.0
 11
-9.4387525857
 21
12.0919566598
 31
0.0
 11
-9.4382151015
 21
12.1027329241
 31
0.0
 11
-9.435862659
 21
12.1134565286
 31
0.0
 11
-9.4317123696
 21
12.1240494635
 31
0.0
 11
-9.425794428
 21
12.1344346451
 31
0.0
 11
-9.4181519301
 21
12.1445364565
 31
0.0
 11
-9.4088404813
 21
12.1542814208
 31
0.0
 11
-9.3979277692
 21
12.1635986751
 31
0.0
 11
-9.385493413
 21
12.1724202886
 31
0.0
 11
-9.3716298659
 21
12.1806810031
 31
0.0
  0
SPLINE
  5
295
100
AcDbEntity
  8
RACCORDO
100
AcDbSpline
 62
253
  6
CONTINUOUS
 70
0
 71
3
 72
14
 73
10
 74
8
 42
0.0000001
 43
0.0000001
 44
0.0000000001
 12
0.1079825595
 22
0.0590789721
 32
0.0
 13
0.1114448285
 23
-0.0519220795
 33
0.0
 40
0.0
 40
0.0
 40
0.0
 40
0.0
 40
0.1015894819
 40
0.2371899148
 40
0.3765345955
 40
0.5213745949
 40
0.6730463026
 40
0.8324372892
 40
1.0
 40
1.0
 40
1.0
 40
1.0
 10
-9.4901050148
 20
12.1842612285
 30
0.0
 10
-9.4864483841
 20
12.1862618292
 30
0.0
 10
-9.4776154599
 20
12.1903937071
 30
0.0
 10
-9.4627692744
 20
12.1948469155
 30
0.0
 10
-9.4456482839
 20
12.1971249079
 30
0.0
 10
-9.4277281081
 20
12.196834184
 30
0.0
 10
-9.4092082681
 20
12.1939932045
 30
0.0
 10
-9.3902909836
 20
12.1886467861
 30
0.0
 10
-9.3778545317
 20
12.1835810712
 30
0.0
 10
-9.3716298659
 20
12.1806810031
 30
0.0
 11
-9.4901050148
 21
12.1842612285
 31
0.0
 11
-9.4787867952
 21
12.1895578608
 31
0.0
 11
-9.4628261756
 21
12.1943746036
 31
0.0
 11
-9.4458498822
 21
12.1966787425
 31
0.0
 11
-9.4280438387
 21
12.1964450424
 31
0.0
 11
-9.4096030563
 21
12.193676063
 31
0.0
 11
-9.3907294979
 21
12.1884021299
 31
0.0
 11
-9.3716298659
 21
12.1806810031
 31
0.0
  0
SPLINE
  5
296
100
AcDbEntity
  8
RACCORDO
100
AcDbSpline
 62
7
  6
CONTINUOUS
 70
0
 71
3
 72
25
 73
21
 74
19
 42
0.0000001
 43
0.0000001
 44
0.0000000001
 12
-0.5245274405
 22
0.2622637203
 32
0.0
 13
-0.0050025686
 23
0.5864181692
 33
0.0
 40
0.0
 40
0.0
 40
0.0
 40
0.0
 40
0.0479689405
 40
0.0980125495
 40
0.1498255404
 40
0.2031382304
 40
0.2581145878
 40
0.3144706373
 40
0.3717636343
 40
0.4297891306
 40
0.4886088045
 40
0.5477482898
 40
0.6067200463
 40
0.6655679539
 40
0.7240731896
 40
0.7817494485
 40
0.8382510683
 40
0.8937000221
 40
0.9477535516
 40
1.0
 40
1.0
 40
1.0
 40
1.0
 10
-5.0524994589
 20
4.97358085
 30
0.0
 10
-5.0608864674
 20
4.9777743543
 30
0.0
 10
-5.0776611848
 20
4.9870830203
 30
0.0
 10
-5.1021124416
 20
5.0032512189
 30
0.0
 10
-5.1261658526
 20
5.0217714013
 30
0.0
 10
-5.1496467553
 20
5.0424955935
 30
0.0
 10
-5.1724028395
 20
5.0652843351
 30
0.0
 10
-5.1942683199
 20
5.0899763507
 30
0.0
 10
-5.2150507792
 20
5.1163482774
 30
0.0
 10
-5.2346193853
 20
5.1442225348
 30
0.0
 10
-5.2528446656
 20
5.1734190586
 30
0.0
 10
-5.2695769084
 20
5.2037073365
 30
0.0
 10
-5.2846851913
 20
5.2348434607
 30
0.0
 10
-5.2980715939
 20
5.2666235881
 30
0.0
 10
-5.3096401423
 20
5.2988412493
 30
0.0
 10
-5.3192824791
 20
5.3312093188
 30
0.0
 10
-5.3269310717
 20
5.3634926889
 30
0.0
 10
-5.3325310718
 20
5.3954769991
 30
0.0
 10
-5.3360302786
 20
5.4269220707
 30
0.0
 10
-5.3369563624
 20
5.4477003332
 30
0.0
 10
-5.3370434846
 20
5.4579130887
 30
0.0
 11
-5.0524994589
 21
4.97358085
 31
0.0
 11
-5.0771194564
 21
4.9871897528
 31
0.0
 11
-5.1016224556
 21
5.0033415849
 31
0.0
 11
-5.1257200969
 21
5.0218500462
 31
0.0
 11
-5.1491809947
 21
5.0425156146
 31
0.0
 11
-5.1719801999
 21
5.0653110899
 31
0.0
 11
-5.1939061683
 21
5.0900399327
 31
0.0
 11
-5.2147149389
 21
5.1164194626
 31
0.0
 11
-5.2342762101
 21
5.1442635218
 31
0.0
 11
-5.2525477973
 21
5.1735209582
 31
0.0
 11
-5.2693205758
 21
5.2038771164
 31
0.0
 11
-5.2844165864
 21
5.2349917398
 31
0.0
 11
-5.2978077021
 21
5.2667984852
 31
0.0
 11
-5.3093927616
 21
5.299093183
 31
0.0
 11
-5.3190349388
 21
5.3315133438
 31
0.0
 11
-5.3266546874
 21
5.3637600988
 31
0.0
 11
-5.332238389
 21
5.3957945692
 31
0.0
 11
-5.3357142068
 21
5.427302556
 31
0.0
 11
-5.3370434846
 21
5.4579130887
 31
0.0
  0
SPLINE
  5
297
100
AcDbEntity
  8
RACCORDO
100
AcDbSpline
 62
7
  6
CONTINUOUS
 70
0
 71
3
 72
16
 73
12
 74
10
 42
0.0000001
 43
0.0000001
 44
0.0000000001
 12
-0.0013169092
 22
0.211640437
 32
0.0
 13
0.1590675193
 23
0.1398736643
 33
0.0
 40
0.0
 40
0.0
 40
0.0
 40
0.0
 40
0.1395272774
 40
0.2739201021
 40
0.402445843
 40
0.5248674379
 40
0.6421671143
 40
0.7545208464
 40
0.8621290013
 40
0.9659378976
 40
1.0
 40
1.0
 40
1.0
 40
1.0
 10
-5.345972597
 20
6.6684964174
 30
0.0
 10
-5.3460338452
 20
6.6783396221
 30
0.0
 10
-5.3454817378
 20
6.6976767375
 30
0.0
 10
-5.3424983981
 20
6.7259405947
 30
0.0
 10
-5.3373973395
 20
6.7526779831
 30
0.0
 10
-5.330222594
 20
6.7776871497
 30
0.0
 10
-5.3210197663
 20
6.8008060097
 30
0.0
 10
-5.3098405083
 20
6.8218677849
 30
0.0
 10
-5.2967808449
 20
6.8406782624
 30
0.0
 10
-5.2851343738
 20
6.8535633356
 30
0.0
 10
-5.2779723041
 20
6.8601600438
 30
0.0
 10
-5.2761662461
 20
6.8617481742
 30
0.0
 11
-5.345972597
 21
6.6684964174
 31
0.0
 11
-5.3450877855
 21
6.6980133443
 31
0.0
 11
-5.3420547663
 21
6.7262946787
 31
0.0
 11
-5.336905404
 21
6.7530046092
 31
0.0
 11
-5.3297067199
 21
6.7778943634
 31
0.0
 11
-5.3204705961
 21
6.8009381504
 31
0.0
 11
-5.3092706378
 21
6.8219144301
 31
0.0
 11
-5.2962383025
 21
6.840591801
 31
0.0
 11
-5.2814732934
 21
6.8568614394
 31
0.0
 11
-5.2761662461
 21
6.8617481742
 31
0.0
  0
LINE
  5
298
100
AcDbEntity
  8
RACCORDO
100
AcDbLine
 62
7
  6
CONTINUOUS
 10
-5.3370434846
 20
5.4579130887
 11
-5.3385419975
 21
5.6371708334
  0
LINE
  5
299
100
AcDbEntity
  8
RACCORDO
100
AcDbLine
 62
7
  6
CONTINUOUS
 10
-5.3385419975
 20
5.6371708334
 11
-5.3389070745
 21
5.6819896714
  0
LINE
  5
29A
100
AcDbEntity
  8
RACCORDO
100
AcDbLine
 62
7
  6
CONTINUOUS
 10
-5.3389070745
 20
5.6819896714
 11
-5.3416902146
 21
6.0406108317
  0
LINE
  5
29B
100
AcDbEntity
  8
RACCORDO
100
AcDbLine
 62
7
  6
CONTINUOUS
 10
-5.3416902146
 20
6.0406108317
 11
-5.3420209225
 21
6.0854472741
  0
LINE
  5
29C
100
AcDbEntity
  8
RACCORDO
100
AcDbLine
 62
7
  6
CONTINUOUS
 10
-5.3420209225
 20
6.0854472741
 11
-5.3445291067
 21
6.4442089709
  0
LINE
  5
29D
100
AcDbEntity
  8
RACCORDO
100
AcDbLine
 62
7
  6
CONTINUOUS
 10
-5.3445291067
 20
6.4442089709
 11
-5.3448254449
 21
6.4890629439
  0
LINE
  5
29E
100
AcDbEntity
  8
RACCORDO
100
AcDbLine
 62
7
  6
CONTINUOUS
 10
-5.3448254449
 20
6.4890629439
 11
-5.345972597
 21
6.6684964174
  0
SPLINE
  5
29F
100
AcDbEntity
  8
RACCORDO
100
AcDbSpline
 62
7
  6
CONTINUOUS
 70
0
 71
3
 72
14
 73
10
 74
8
 42
0.0000001
 43
0.0000001
 44
0.0000000001
 12
-0.1527487844
 22
-0.0464479534
 32
0.0
 13
-0.1426836499
 23
0.071341825
 33
0.0
 40
0.0
 40
0.0
 40
0.0
 40
0.0
 40
0.0893502555
 40
0.2264496758
 40
0.3680625496
 40
0.5150875753
 40
0.6693379792
 40
0.8311090423
 40
1.0
 40
1.0
 40
1.0
 40
1.0
 10
0.9735579683
 20
2.0167244567
 30
0.0
 10
0.9690085873
 20
2.0153410779
 30
0.0
 10
0.9573124666
 20
2.012380293
 30
0.0
 10
0.9378532941
 20
2.0097900103
 30
0.0
 10
0.9151552819
 20
2.0097424643
 30
0.0
 10
0.8917178952
 20
2.0125309985
 30
0.0
 10
0.8676934483
 20
2.0181328755
 30
0.0
 10
0.843265414
 20
2.0265081218
 30
0.0
 10
0.8272044304
 20
2.0337289054
 30
0.0
 10
0.819171771
 20
2.0377452351
 30
0.0
 11
0.9735579683
 21
2.0167244567
 31
0.0
 11
0.9597357263
 21
2.0132174445
 31
0.0
 11
0.9380618796
 21
2.0102888567
 31
0.0
 11
0.9154712856
 21
2.0101882835
 31
0.0
 11
0.8921745878
 21
2.0129017693
 31
0.0
 11
0.8681971278
 21
2.0184314255
 31
0.0
 11
0.8437668604
 21
2.0267464955
 31
0.0
 11
0.819171771
 21
2.0377452351
 31
0.0
  0
SPLINE
  5
2A0
100
AcDbEntity
  8
RACCORDO
100
AcDbSpline
 62
253
  6
CONTINUOUS
 70
0
 71
3
 72
22
 73
18
 74
16
 42
0.0000001
 43
0.0000001
 44
0.0000000001
 12
-0.0027087752
 22
0.3665121304
 32
0.0
 13
-0.322967055
 23
0.1732938562
 33
0.0
 40
0.0
 40
0.0
 40
0.0
 40
0.0
 40
0.0629566414
 40
0.1283834588
 40
0.195913743
 40
0.2651259748
 40
0.3355575138
 40
0.4067172398
 40
0.4780975125
 40
0.5491857568
 40
0.6194759385
 40
0.6884801858
 40
0.7557408241
 40
0.8208431402
 40
0.8834292511
 40
0.9432135227
 40
1.0
 40
1.0
 40
1.0
 40
1.0
 10
5.957897331
 20
4.294792528
 30
0.0
 10
5.9578404858
 20
4.3024839856
 30
0.0
 10
5.9570659463
 20
4.3181694243
 30
0.0
 10
5.9540829308
 20
4.3419382999
 30
0.0
 10
5.9492873815
 20
4.366188124
 30
0.0
 10
5.9427316137
 20
4.3906540819
 30
0.0
 10
5.9344868916
 20
4.415071405
 30
0.0
 10
5.9246428251
 20
4.4391747228
 30
0.0
 10
5.9133064199
 20
4.4627021206
 30
0.0
 10
5.9006009101
 20
4.4853978273
 30
0.0
 10
5.8866643556
 20
4.5070151835
 30
0.0
 10
5.8716480735
 20
4.5273193703
 30
0.0
 10
5.8557147421
 20
4.546090078
 30
0.0
 10
5.8390368045
 20
4.5631237028
 30
0.0
 10
5.8217929723
 20
4.5782361905
 30
0.0
 10
5.8041706608
 20
4.5912622721
 30
0.0
 10
5.79196848
 20
4.5986582745
 30
0.0
 10
5.7858550928
 20
4.6019385237
 30
0.0
 11
5.957897331
 21
4.294792528
 31
0.0
 11
5.9567970319
 21
4.3178412829
 31
0.0
 11
5.9538414776
 21
4.3416388287
 31
0.0
 11
5.9490630371
 21
4.3659245354
 31
0.0
 11
5.9425140438
 21
4.3904324268
 31
0.0
 11
5.9342662222
 21
4.4148940933
 31
0.0
 11
5.924409902
 21
4.4390416314
 31
0.0
 11
5.9130530295
 21
4.4626105782
 31
0.0
 11
5.9003199848
 21
4.4853428074
 31
0.0
 11
5.8863502196
 21
4.5069893564
 31
0.0
 11
5.8712967306
 21
4.527313153
 31
0.0
 11
5.8553243829
 21
4.5460916117
 31
0.0
 11
5.8386081052
 21
4.5631190716
 31
0.0
 11
5.8213309736
 21
4.5782090485
 31
0.0
 11
5.8036822066
 21
4.5911962778
 31
0.0
 11
5.7858550928
 21
4.6019385237
 31
0.0
  0
SPLINE
  5
2A1
100
AcDbEntity
  8
RACCORDO
100
AcDbSpline
 62
253
  6
CONTINUOUS
 70
0
 71
3
 72
22
 73
18
 74
16
 42
0.0000001
 43
0.0000001
 44
0.0000000001
 12
-0.000238189
 22
0.366577057
 32
0.0
 13
0.326468929
 23
0.166723825
 33
0.0
 40
0.0
 40
0.0
 40
0.0
 40
0.0
 40
0.0627686171
 40
0.1278905369
 40
0.1950351148
 40
0.2638167547
 40
0.3338081528
 40
0.4045525959
 40
0.4755756192
 40
0.5463962937
 40
0.6165383804
 40
0.6855415807
 40
0.7529731191
 40
0.8184399196
 40
0.8816016779
 40
0.9421851557
 40
1.0
 40
1.0
 40
1.0
 40
1.0
 10
5.2633459793
 20
4.2988591208
 30
0.0
 10
5.2633409957
 20
4.3065289658
 30
0.0
 10
5.2640082164
 20
4.3221627195
 30
0.0
 10
5.2668874661
 20
4.3458413764
 30
0.0
 10
5.2716331643
 20
4.369966727
 30
0.0
 10
5.2781938788
 20
4.3942777788
 30
0.0
 10
5.2864988638
 20
4.4185141345
 30
0.0
 10
5.2964586774
 20
4.4424150273
 30
0.0
 10
5.3079660936
 20
4.4657233428
 30
0.0
 10
5.3208972526
 20
4.4881881994
 30
0.0
 10
5.3351130451
 20
4.5095678293
 30
0.0
 10
5.3504606658
 20
4.5296322156
 30
0.0
 10
5.3667754899
 20
4.5481656662
 30
0.0
 10
5.3838826511
 20
4.5649689344
 30
0.0
 10
5.4016004757
 20
4.5798619334
 30
0.0
 10
5.4197380318
 20
4.592683071
 30
0.0
 10
5.4322883872
 20
4.5999334253
 30
0.0
 10
5.4385799707
 20
4.6031464626
 30
0.0
 11
5.2633459793
 21
4.2988591208
 31
0.0
 11
5.2642900084
 21
4.3218492868
 31
0.0
 11
5.2671411094
 21
4.3455506259
 31
0.0
 11
5.2718683592
 21
4.3697060748
 31
0.0
 11
5.2784204864
 21
4.3940536445
 31
0.0
 11
5.2867264269
 21
4.4183292626
 31
0.0
 11
5.2966960949
 21
4.4422696369
 31
0.0
 11
5.3082213599
 21
4.4656151112
 31
0.0
 11
5.3211772194
 21
4.4881124818
 31
0.0
 11
5.3354231548
 21
4.5095177432
 31
0.0
 11
5.3508046554
 21
4.5295987351
 31
0.0
 11
5.3671548941
 21
4.54813766
 31
0.0
 11
5.3842965372
 21
4.5649334456
 31
0.0
 11
5.4020436673
 21
4.5798039258
 31
0.0
 11
5.4202037997
 21
4.5925878159
 31
0.0
 11
5.4385799707
 21
4.6031464626
 31
0.0
  0
SPLINE
  5
2A2
100
AcDbEntity
  8
0
100
AcDbSpline
 62
253
  6
CONTINUOUS
 70
0
 71
3
 72
16
 73
12
 74
10
 42
0.0000001
 43
0.0000001
 44
0.0000000001
 12
-1.2344583664
 22
9.7271614722
 32
0.0
 13
-0.1480278181
 23
9.8040627053
 33
0.0
 40
0.0
 40
0.0
 40
0.0
 40
0.0
 40
0.1080730282
 40
0.216918925
 40
0.3265327533
 40
0.4369090339
 40
0.5480417747
 40
0.6599244812
 40
0.7725501569
 40
0.8859113138
 40
1.0
 40
1.0
 40
1.0
 40
1.0
 10
-8.8039147491
 20
-5.9257698935
 30
0.0
 10
-8.8483853004
 20
-5.5753552947
 30
0.0
 10
-8.9330100868
 20
-4.8714235334
 30
0.0
 10
-9.0466677694
 20
-3.8102273651
 30
0.0
 10
-9.1474772575
 20
-2.7401708677
 30
0.0
 10
-9.2354171191
 20
-1.6614817688
 30
0.0
 10
-9.3104690203
 20
-0.5743864564
 30
0.0
 10
-9.3726172237
 20
0.5208859401
 30
0.0
 10
-9.4218487342
 20
1.6241054242
 30
0.0
 10
-9.4581532253
 20
2.7350377458
 30
0.0
 10
-9.4736839233
 20
3.4782910962
 30
0.0
 10
-9.4793133564
 20
3.8511353074
 30
0.0
 11
-8.8039147491
 21
-5.9257698935
 31
0.0
 11
-8.9304445766
 21
-4.8736756051
 31
0.0
 11
-9.0441493308
 21
-3.812496293
 31
0.0
 11
-9.1450051028
 21
-2.7424554875
 31
0.0
 11
-9.2329906834
 21
-1.6637786293
 31
0.0
 11
-9.3080875797
 21
-0.5766928795
 31
0.0
 11
-9.3702800112
 21
0.5185728985
 31
0.0
 11
-9.4195549044
 21
1.6217880601
 31
0.0
 11
-9.4559018988
 21
2.7327201918
 31
0.0
 11
-9.4793133564
 21
3.8511353074
 31
0.0
  0
SPLINE
  5
2A3
100
AcDbEntity
  8
RACCORDO
100
AcDbSpline
 62
253
  6
CONTINUOUS
 70
0
 71
3
 72
22
 73
18
 74
16
 42
0.0000001
 43
0.0000001
 44
0.0000000001
 12
-0.0002381892
 22
0.366577057
 32
0.0
 13
0.3264689291
 23
0.1667238248
 33
0.0
 40
0.0
 40
0.0
 40
0.0
 40
0.0
 40
0.0627686184
 40
0.1278905402
 40
0.1950351199
 40
0.2638167614
 40
0.333808161
 40
0.4045526051
 40
0.4755756292
 40
0.5463963039
 40
0.6165383904
 40
0.68554159
 40
0.7529731272
 40
0.8184399262
 40
0.8816016825
 40
0.9421851581
 40
1.0
 40
1.0
 40
1.0
 40
1.0
 10
-9.5408010388
 20
11.7009326298
 30
0.0
 10
-9.5408060224
 20
11.708602475
 30
0.0
 10
-9.5401388016
 20
11.7242362291
 30
0.0
 10
-9.5372595518
 20
11.7479148866
 30
0.0
 10
-9.5325138533
 20
11.7720402378
 30
0.0
 10
-9.5259531386
 20
11.7963512902
 30
0.0
 10
-9.5176481532
 20
11.8205876463
 30
0.0
 10
-9.5076883393
 20
11.8444885394
 30
0.0
 10
-9.4961809228
 20
11.867796855
 30
0.0
 10
-9.4832497636
 20
11.8902617116
 30
0.0
 10
-9.4690339709
 20
11.9116413413
 30
0.0
 10
-9.4536863501
 20
11.9317057272
 30
0.0
 10
-9.4373715261
 20
11.9502391774
 30
0.0
 10
-9.4202643652
 20
11.967042445
 30
0.0
 10
-9.402546541
 20
11.9819354434
 30
0.0
 10
-9.3844089855
 20
11.9947565805
 30
0.0
 10
-9.3718586305
 20
12.0020069344
 30
0.0
 10
-9.3655670474
 20
12.0052199716
 30
0.0
 11
-9.5408010388
 21
11.7009326298
 31
0.0
 11
-9.5398570096
 21
11.7239227963
 31
0.0
 11
-9.5370059085
 21
11.7476241361
 31
0.0
 11
-9.5322786584
 21
11.7717795856
 31
0.0
 11
-9.5257265309
 21
11.7961271559
 31
0.0
 11
-9.5174205901
 21
11.8204027745
 31
0.0
 11
-9.5074509217
 21
11.844343149
 31
0.0
 11
-9.4959256565
 21
11.8676886235
 31
0.0
 11
-9.4829697967
 21
11.890185994
 31
0.0
 11
-9.4687238612
 21
11.9115912553
 31
0.0
 11
-9.4533423606
 21
11.9316722468
 31
0.0
 11
-9.4369921219
 21
11.9502111712
 31
0.0
 11
-9.419850479
 21
11.9670069563
 31
0.0
 11
-9.4021033494
 21
11.9818774358
 31
0.0
 11
-9.3839432176
 21
11.9946613254
 31
0.0
 11
-9.3655670474
 21
12.0052199716
 31
0.0
  0
SPLINE
  5
2A4
100
AcDbEntity
  8
RACCORDO
100
AcDbSpline
 62
253
  6
CONTINUOUS
 70
0
 71
3
 72
17
 73
13
 74
11
 42
0.0000001
 43
0.0000001
 44
0.0000000001
 12
-0.2161832152
 22
0.1080956977
 32
0.0
 13
-0.0001406965
 23
0.2419871049
 33
0.0
 40
0.0
 40
0.0
 40
0.0
 40
0.0
 40
0.1359048809
 40
0.2644265655
 40
0.3854754164
 40
0.4991772678
 40
0.6059234234
 40
0.7064077239
 40
0.8016586374
 40
0.8930453274
 40
0.9822330742
 40
1.0
 40
1.0
 40
1.0
 40
1.0
 10
-9.5407997442
 20
11.7009319824
 30
0.0
 10
-9.5505931955
 20
11.7058288933
 30
0.0
 10
-9.5693393194
 20
11.7159958844
 30
0.0
 10
-9.5954621431
 20
11.7328518766
 30
0.0
 10
-9.6186431397
 20
11.7507855273
 30
0.0
 10
-9.6387136239
 20
11.7696755647
 30
0.0
 10
-9.6555256317
 20
11.7893978516
 30
0.0
 10
-9.6689473213
 20
11.8098239089
 30
0.0
 10
-9.6788613594
 20
11.8308173527
 30
0.0
 10
-9.6851663474
 20
11.8522267232
 30
0.0
 10
-9.6870950169
 20
11.8681667733
 30
0.0
 10
-9.687246729
 20
11.8767937674
 30
0.0
 10
-9.6872475622
 20
11.8782268897
 30
0.0
 11
-9.5407997442
 21
11.7009319824
 31
0.0
 11
-9.5696444113
 21
11.7166484712
 31
0.0
 11
-9.5957067199
 21
11.7335518744
 31
0.0
 11
-9.6187974034
 21
11.7515195208
 31
0.0
 11
-9.6387478499
 21
11.7704202655
 31
0.0
 11
-9.6554130596
 21
11.7901167126
 31
0.0
 11
-9.6686717845
 21
11.810465597
 31
0.0
 11
-9.6784274716
 21
11.8313187643
 31
0.0
 11
-9.6846091384
 21
11.8525244725
 31
0.0
 11
-9.6871718125
 21
11.8739284632
 31
0.0
 11
-9.6872475622
 21
11.8782268897
 31
0.0
  0
SPLINE
  5
2A5
100
AcDbEntity
  8
RACCORDO
100
AcDbSpline
 62
253
  6
CONTINUOUS
 70
0
 71
3
 72
25
 73
21
 74
19
 42
0.0000001
 43
0.0000001
 44
0.0000000001
 12
-0.6460963923
 22
-0.3048847509
 32
0.0
 13
-0.6390010858
 23
0.3194884534
 33
0.0
 40
0.0
 40
0.0
 40
0.0
 40
0.0
 40
0.0494328262
 40
0.1010447089
 40
0.1546315361
 40
0.2099543778
 40
0.2667494203
 40
0.3247313615
 40
0.3835981563
 40
0.4430362134
 40
0.5027246367
 40
0.5623391465
 40
0.6215564156
 40
0.6800584166
 40
0.7375363898
 40
0.7936951737
 40
0.8482585284
 40
0.9009740369
 40
0.9516168911
 40
1.0
 40
1.0
 40
1.0
 40
1.0
 10
5.9578987336
 20
4.2947931899
 30
0.0
 10
5.94725261
 20
4.2897694182
 30
0.0
 10
5.9251425094
 20
4.2802266833
 30
0.0
 10
5.8905059099
 20
4.2676693316
 30
0.0
 10
5.8538885888
 20
4.2566310419
 30
0.0
 10
5.8155564387
 20
4.2471923792
 30
0.0
 10
5.775785874
 20
4.2394213536
 30
0.0
 10
5.7348645563
 20
4.2333743731
 30
0.0
 10
5.693088652
 20
4.2290953232
 30
0.0
 10
5.6507607666
 20
4.2266153068
 30
0.0
 10
5.6081875544
 20
4.2259523475
 30
0.0
 10
5.5656775054
 20
4.2271112615
 30
0.0
 10
5.5235386353
 20
4.2300836112
 30
0.0
 10
5.4820761784
 20
4.2348477828
 30
0.0
 10
5.4415903836
 20
4.2413691496
 30
0.0
 10
5.4023741307
 20
4.2496004003
 30
0.0
 10
5.3647109186
 20
4.2594818427
 30
0.0
 10
5.32887205
 20
4.2709423792
 30
0.0
 10
5.2951176848
 20
4.2838985049
 30
0.0
 10
5.273650305
 20
4.2937071528
 30
0.0
 10
5.2633446853
 20
4.2988597676
 30
0.0
 11
5.9578987336
 21
4.2947931899
 31
0.0
 11
5.9254940646
 21
4.2807524818
 31
0.0
 11
5.8908439552
 21
4.26814479
 31
0.0
 11
5.8541998738
 21
4.2570616584
 31
0.0
 11
5.815829324
 21
4.2475840418
 31
0.0
 11
5.77601124
 21
4.2397808142
 31
0.0
 11
5.7350352633
 21
4.2337087496
 31
0.0
 11
5.693199741
 21
4.2294120621
 31
0.0
 11
5.6508091031
 21
4.2269220085
 31
0.0
 11
5.6081717184
 21
4.2262566977
 31
0.0
 11
5.5655978653
 21
4.2274209706
 31
0.0
 11
5.5233973571
 21
4.2304063499
 31
0.0
 11
5.4818771734
 21
4.2351911181
 31
0.0
 11
5.4413394404
 21
4.2417404626
 31
0.0
 11
5.4020792998
 21
4.2500066906
 31
0.0
 11
5.364382313
 21
4.2599296626
 31
0.0
 11
5.3285225124
 21
4.2714372583
 31
0.0
 11
5.2947616324
 21
4.2844454494
 31
0.0
 11
5.2633446853
 21
4.2988597676
 31
0.0
  0
SPLINE
  5
2A6
100
AcDbEntity
  8
0
100
AcDbSpline
 62
253
  6
CONTINUOUS
 70
0
 71
3
 72
16
 73
12
 74
10
 42
0.0000001
 43
0.0000001
 44
0.0000000001
 12
-0.0122254801
 22
-0.2821001809
 32
0.0
 13
-0.2216191132
 23
-0.1753040056
 33
0.0
 40
0.0
 40
0.0
 40
0.0
 40
0.0
 40
0.1340190606
 40
0.2631878752
 40
0.3872848552
 40
0.5062238358
 40
0.6200739375
 40
0.7290788238
 40
0.8336726683
 40
0.9344884836
 40
1.0
 40
1.0
 40
1.0
 40
1.0
 10
7.0865364348
 20
-13.5059434636
 30
0.0
 10
7.0859902857
 20
-13.5185457307
 30
0.0
 10
7.0840819391
 20
-13.5432682996
 30
0.0
 10
7.0786067122
 20
-13.5793410792
 30
0.0
 10
7.0706069856
 20
-13.6134894388
 30
0.0
 10
7.0601386387
 20
-13.6454550419
 30
0.0
 10
7.0472742436
 20
-13.6749978004
 30
0.0
 10
7.0321026564
 20
-13.7018930715
 30
0.0
 10
7.0147290198
 20
-13.7259327537
 30
0.0
 10
6.9973510688
 20
-13.7446858543
 30
0.0
 10
6.9855030268
 20
-13.7549607938
 30
0.0
 10
6.980663492
 20
-13.7587889376
 30
0.0
 11
7.0865364348
 21
-13.5059434636
 31
0.0
 11
7.0835768
 21
-13.5436698375
 31
0.0
 11
7.0780504558
 21
-13.5797214792
 31
0.0
 11
7.0699993634
 21
-13.6138246512
 31
0.0
 11
7.0594846541
 21
-13.6457204105
 31
0.0
 11
7.0465861653
 21
-13.6751665751
 31
0.0
 11
7.0314018343
 21
-13.7019395624
 31
0.0
 11
7.0140469547
 21
-13.7258360871
 31
0.0
 11
6.9946533006
 21
-13.7466747046
 31
0.0
 11
6.980663492
 21
-13.7587889376
 31
0.0
  0
SPLINE
  5
2A7
100
AcDbEntity
  8
0
100
AcDbSpline
 62
253
  6
CONTINUOUS
 70
0
 71
3
 72
10
 73
6
 74
4
 42
0.0000001
 43
0.0000001
 44
0.0000000001
 12
-0.0435010632
 22
-0.0344099862
 32
0.0
 13
-0.0514266981
 23
-0.0207923361
 33
0.0
 40
0.0
 40
0.0
 40
0.0
 40
0.0
 40
0.1648244353
 40
0.6534394098
 40
1.0
 40
1.0
 40
1.0
 40
1.0
 10
6.980663492
 20
-13.7587889376
 30
0.0
 10
6.9782734793
 20
-13.7606794731
 30
0.0
 10
6.9686311679
 20
-13.7679628093
 30
0.0
 10
6.9528894098
 20
-13.7777475549
 30
0.0
 10
6.9388652872
 20
-13.7842606831
 30
0.0
 10
6.9329244649
 20
-13.7866626179
 30
0.0
 11
6.980663492
 21
-13.7587889376
 31
0.0
 11
6.9733681269
 21
-13.7642971889
 31
0.0
 11
6.95035305
 21
-13.7785697336
 31
0.0
 11
6.9329244649
 21
-13.7866626179
 31
0.0
  0
SPLINE
  5
2A8
100
AcDbEntity
  8
0
100
AcDbSpline
 62
253
  6
CONTINUOUS
 70
0
 71
3
 72
26
 73
22
 74
20
 42
0.0000001
 43
0.0000001
 44
0.0000000001
 12
0.0639075782
 22
-0.4718179908
 32
0.0
 13
0.4414253651
 23
0.1784377821
 33
0.0
 40
0.0
 40
0.0
 40
0.0
 40
0.0
 40
0.0604714473
 40
0.1189577881
 40
0.1754896565
 40
0.2301507618
 40
0.2830756018
 40
0.3344495457
 40
0.3845087349
 40
0.4335365193
 40
0.4818566178
 40
0.5298216896
 40
0.5777998971
 40
0.6261586397
 40
0.6752493941
 40
0.7253932963
 40
0.7768707761
 40
0.8299146356
 40
0.8847072271
 40
0.9413785448
 40
1.0
 40
1.0
 40
1.0
 40
1.0
 10
6.7438754005
 20
-13.2978469611
 30
0.0
 10
6.7451635951
 20
-13.3073574667
 30
0.0
 10
6.7483338974
 20
-13.3259880679
 30
0.0
 10
6.7550221251
 20
-13.3530515327
 30
0.0
 10
6.7635327432
 20
-13.378632752
 30
0.0
 10
6.7738244692
 20
-13.402596197
 30
0.0
 10
6.7858476255
 20
-13.424816889
 30
0.0
 10
6.7995435811
 20
-13.4451770178
 30
0.0
 10
6.8148443778
 20
-13.4635669184
 30
0.0
 10
6.8316723322
 20
-13.4798857276
 30
0.0
 10
6.8499396727
 20
-13.4940425546
 30
0.0
 10
6.8695486627
 20
-13.5059580479
 30
0.0
 10
6.8903923331
 20
-13.5155659941
 30
0.0
 10
6.9123560724
 20
-13.5228146269
 30
0.0
 10
6.935319449
 20
-13.5276670997
 30
0.0
 10
6.9591580123
 20
-13.5301012301
 30
0.0
 10
6.9837445911
 20
-13.530108682
 30
0.0
 10
7.0089499895
 20
-13.5276941521
 30
0.0
 10
7.0346438553
 20
-13.5228742519
 30
0.0
 10
7.0606908118
 20
-13.5156787291
 30
0.0
 10
7.0779107691
 20
-13.5094302244
 30
0.0
 10
7.0865364348
 20
-13.5059434636
 30
0.0
 11
6.7438754005
 21
-13.2978469611
 31
0.0
 11
6.7487391209
 21
-13.3262252395
 31
0.0
 11
6.755454841
 21
-13.3532502019
 31
0.0
 11
6.7639873471
 21
-13.3787783139
 31
0.0
 11
6.7742923541
 21
-13.4026768196
 31
0.0
 11
6.7863165303
 21
-13.4248218995
 31
0.0
 11
6.7999975676
 21
-13.4450986093
 31
0.0
 11
6.8152645543
 21
-13.4634016881
 31
0.0
 11
6.8320383297
 21
-13.4796360942
 31
0.0
 11
6.8502319983
 21
-13.4937175857
 31
0.0
 11
6.8697511762
 21
-13.5055729781
 31
0.0
 11
6.8904946829
 21
-13.5151406981
 31
0.0
 11
6.9123548709
 21
-13.5223709892
 31
0.0
 11
6.93521843
 21
-13.5272262753
 31
0.0
 11
6.9589667125
 21
-13.5296812642
 31
0.0
 11
6.9834764663
 21
-13.5297231398
 31
0.0
 11
7.0086204619
 21
-13.5273516355
 31
0.0
 11
7.0342683855
 21
-13.5225789742
 31
0.0
 11
7.0602868146
 21
-13.5154299767
 31
0.0
 11
7.0865364348
 21
-13.5059434636
 31
0.0
  0
SPLINE
  5
2A9
100
AcDbEntity
  8
0
100
AcDbSpline
 62
253
  6
CONTINUOUS
 70
0
 71
3
 72
16
 73
12
 74
10
 42
0.0000001
 43
0.0000001
 44
0.0000000001
 12
0.0601822657
 22
-0.4514343891
 32
0.0
 13
0.374886556
 23
-0.2590342016
 33
0.0
 40
0.0
 40
0.0
 40
0.0
 40
0.0
 40
0.1262159384
 40
0.2481416421
 40
0.3658424431
 40
0.4794793895
 40
0.5893225707
 40
0.6957525652
 40
0.7992616344
 40
0.9004475236
 40
1.0
 40
1.0
 40
1.0
 40
1.0
 10
6.0532738565
 20
-13.3543641963
 30
0.0
 10
6.0558058436
 20
-13.3733569347
 30
0.0
 10
6.0620352362
 20
-13.4105455078
 30
0.0
 10
6.0751832583
 20
-13.4645570496
 30
0.0
 10
6.0919132245
 20
-13.5155715904
 30
0.0
 10
6.1121446431
 20
-13.5633219021
 30
0.0
 10
6.1357803297
 20
-13.6075593223
 30
0.0
 10
6.1627056465
 20
-13.648049649
 30
0.0
 10
6.1927878464
 20
-13.6845748447
 30
0.0
 10
6.2258750876
 20
-13.7169342284
 30
0.0
 10
6.2499573499
 20
-13.7357147809
 30
0.0
 10
6.2623976449
 20
-13.744310613
 30
0.0
 11
6.0532738565
 21
-13.3543641963
 31
0.0
 11
6.0628385262
 21
-13.4110451694
 31
0.0
 11
6.0760435242
 21
-13.4649806184
 31
0.0
 11
6.0928206923
 21
-13.5158917633
 31
0.0
 11
6.1130829144
 21
-13.5635138682
 31
0.0
 11
6.1367253444
 21
-13.6076002063
 31
0.0
 11
6.163625465
 21
-13.6479219563
 31
0.0
 11
6.1936438513
 21
-13.6842698075
 31
0.0
 11
6.226624858
 21
-13.7164550252
 31
0.0
 11
6.2623976449
 21
-13.744310613
 31
0.0
  0
SPLINE
  5
2AA
100
AcDbEntity
  8
0
100
AcDbSpline
 62
253
  6
CONTINUOUS
 70
0
 71
3
 72
25
 73
21
 74
19
 42
0.0000001
 43
0.0000001
 44
0.0000000001
 12
-0.604709483
 22
-0.3899745273
 32
0.0
 13
-0.6450072096
 23
0.3189347744
 33
0.0
 40
0.0
 40
0.0
 40
0.0
 40
0.0
 40
0.0519489921
 40
0.1056337261
 40
0.1608610208
 40
0.2174103325
 40
0.2750390332
 40
0.3334872945
 40
0.392482682
 40
0.4517445493
 40
0.5109883064
 40
0.56992963
 40
0.6282886781
 40
0.6857943707
 40
0.7421888042
 40
0.7972318777
 40
0.8507062212
 40
0.9024225311
 40
0.9522254347
 40
1.0
 40
1.0
 40
1.0
 40
1.0
 10
6.7438754005
 20
-13.2978469611
 30
0.0
 10
6.7334040511
 20
-13.304599889
 30
0.0
 10
6.7116376466
 20
-13.3176083946
 30
0.0
 10
6.677328986
 20
-13.3353067906
 30
0.0
 10
6.6410322638
 20
-13.3514086753
 30
0.0
 10
6.6030117164
 20
-13.3657968143
 30
0.0
 10
6.5635417095
 20
-13.3783677162
 30
0.0
 10
6.5229080172
 20
-13.389030404
 30
0.0
 10
6.4814047988
 20
-13.3977077401
 30
0.0
 10
6.4393326715
 20
-13.4043368798
 30
0.0
 10
6.3969964106
 20
-13.4088698048
 30
0.0
 10
6.3547027043
 20
-13.4112736743
 30
0.0
 10
6.3127578701
 20
-13.4115310648
 30
0.0
 10
6.2714655691
 20
-13.4096400705
 30
0.0
 10
6.2311245731
 20
-13.4056142872
 30
0.0
 10
6.1920264378
 20
-13.3994825887
 30
0.0
 10
6.1544537104
 20
-13.3912889885
 30
0.0
 10
6.1186765345
 20
-13.3810915023
 30
0.0
 10
6.084955406
 20
-13.3689638167
 30
0.0
 10
6.0635455089
 20
-13.3594431823
 30
0.0
 10
6.0532738626
 20
-13.3543641922
 30
0.0
 11
6.7438754005
 21
-13.2978469611
 31
0.0
 11
6.7118106997
 21
-13.3170593452
 31
0.0
 11
6.6774969524
 21
-13.334800797
 31
0.0
 11
6.6411839629
 21
-13.3509421586
 31
0.0
 11
6.6031360903
 21
-13.3653659205
 31
0.0
 11
6.5636303236
 21
-13.3779670778
 31
0.0
 11
6.5229542651
 21
-13.3886538937
 31
0.0
 11
6.4814040371
 21
-13.3973485682
 31
0.0
 11
6.4392821258
 21
-13.403987804
 31
0.0
 11
6.396895179
 21
-13.4085232672
 31
0.0
 11
6.3545517743
 21
-13.4109219398
 31
0.0
 11
6.3125601722
 21
-13.4111663593
 31
0.0
 11
6.2712260721
 21
-13.4092547463
 31
0.0
 11
6.2308503866
 21
-13.4052010174
 31
0.0
 11
6.1917270512
 21
-13.3990346838
 31
0.0
 11
6.1541408843
 21
-13.3908006366
 31
0.0
 11
6.1183655136
 21
-13.3805588195
 31
0.0
 11
6.0846613842
 21
-13.3683837933
 31
0.0
 11
6.0532738626
 21
-13.3543641922
 31
0.0
  0
SPLINE
  5
2AB
100
AcDbEntity
  8
0
100
AcDbSpline
 62
253
  6
CONTINUOUS
 70
0
 71
3
 72
16
 73
12
 74
10
 42
0.0000001
 43
0.0000001
 44
0.0000000001
 12
0.158196343
 22
-9.7777422745
 32
0.0
 13
1.3125357896
 23
-9.6905376461
 33
0.0
 40
0.0
 40
0.0
 40
0.0
 40
0.0
 40
0.1138478936
 40
0.2270231241
 40
0.3395199846
 40
0.4513332902
 40
0.562458351
 40
0.672890981
 40
0.7826274966
 40
0.891664726
 40
1.0
 40
1.0
 40
1.0
 40
1.0
 10
6.0237675837
 20
-3.5510271883
 30
0.0
 10
6.0297710239
 20
-3.9220856423
 30
0.0
 10
6.0463358895
 20
-4.6619444521
 30
0.0
 10
6.0850474546
 20
-5.7680199145
 30
0.0
 10
6.1375421531
 20
-6.8668896622
 30
0.0
 10
6.2038089796
 20
-7.9583198979
 30
0.0
 10
6.2838340918
 20
-9.0420815042
 30
0.0
 10
6.3776007188
 20
-10.1179460011
 30
0.0
 10
6.4850893365
 20
-11.1856876659
 30
0.0
 10
6.6062770473
 20
-12.2450788364
 30
0.0
 10
6.6964774257
 20
-12.9479046107
 30
0.0
 10
6.7438754005
 20
-13.2978469611
 30
0.0
 11
6.0237675837
 21
-3.5510271883
 31
0.0
 11
6.0487287922
 21
-4.6640683809
 31
0.0
 11
6.0874818393
 21
-5.7701327579
 31
0.0
 11
6.1400185728
 21
-6.8689868392
 31
0.0
 11
6.2063279463
 21
-7.9603991309
 31
0.0
 11
6.2863960211
 21
-9.0441398005
 31
0.0
 11
6.3802059719
 21
-10.1199806898
 31
0.0
 11
6.4877380818
 21
-11.1876952359
 31
0.0
 11
6.6089697373
 21
-12.2470584898
 31
0.0
 11
6.7438754005
 21
-13.2978469611
 31
0.0
  0
SPLINE
  5
2AC
100
AcDbEntity
  8
0
100
AcDbSpline
 62
253
  6
CONTINUOUS
 70
0
 71
3
 72
16
 73
12
 74
10
 42
0.0000001
 43
0.0000001
 44
0.0000000001
 12
0.159049173
 22
-9.8322873465
 32
0.0
 13
1.3196312823
 23
-9.7446264363
 33
0.0
 40
0.0
 40
0.0
 40
0.0
 40
0.0
 40
0.113848609
 40
0.2270243491
 40
0.33952156
 40
0.4513350501
 40
0.562460123
 40
0.672892586
 40
0.7826287491
 40
0.8916654339
 40
1.0
 40
1.0
 40
1.0
 40
1.0
 10
5.3292788353
 20
-3.5531607884
 30
0.0
 10
5.3353146776
 20
-3.9262915343
 30
0.0
 10
5.3519689539
 20
-4.6702816806
 30
0.0
 10
5.3908894817
 20
-5.7825327249
 30
0.0
 10
5.4436675386
 20
-6.887536326
 30
0.0
 10
5.5102920624
 20
-7.9850575566
 30
0.0
 10
5.5907491368
 20
-9.0748660207
 30
0.0
 10
5.6850219005
 20
-10.1567319636
 30
0.0
 10
5.793090723
 20
-11.2304284037
 30
0.0
 10
5.9149326
 20
-12.2957265249
 30
0.0
 10
6.0056199624
 20
-13.002470904
 30
0.0
 10
6.0532738565
 20
-13.3543641963
 30
0.0
 11
5.3292788353
 21
-3.5531607884
 31
0.0
 11
5.3543747987
 21
-4.6724181569
 31
0.0
 11
5.3933370392
 21
-5.7846579117
 31
0.0
 11
5.4461573693
 21
-6.8896457917
 31
0.0
 11
5.5128246829
 21
-7.9871490108
 31
0.0
 11
5.5933249659
 21
-9.076936454
 31
0.0
 11
5.6876413024
 21
-10.1587786901
 31
0.0
 11
5.7957538688
 21
-11.2324478928
 31
0.0
 11
5.9176399299
 21
-12.2977178584
 31
0.0
 11
6.0532738565
 21
-13.3543641963
 31
0.0
  0
SPLINE
  5
2AD
100
AcDbEntity
  8
0
100
AcDbSpline
 62
253
  6
CONTINUOUS
 70
0
 71
3
 72
25
 73
21
 74
19
 42
0.0000001
 43
0.0000001
 44
0.0000000001
 12
-0.6423647763
 22
-0.3139711931
 32
0.0
 13
-0.6397108624
 23
0.3193437466
 33
0.0
 40
0.0
 40
0.0
 40
0.0
 40
0.0
 40
0.0496825043
 40
0.1014998182
 40
0.1552483517
 40
0.2106923844
 40
0.2675699993
 40
0.3255983861
 40
0.3844786963
 40
0.4439005886
 40
0.5035465721
 40
0.5630962312
 40
0.6222304052
 40
0.6806353868
 40
0.7380072088
 40
0.7940560977
 40
0.8485111903
 40
0.9011256391
 40
0.9516822694
 40
1.0
 40
1.0
 40
1.0
 40
1.0
 10
6.0237675837
 20
-3.5510271883
 30
0.0
 10
6.0131294868
 20
-3.5562268133
 30
0.0
 10
5.9910345517
 20
-3.5661219055
 30
0.0
 10
5.9564022565
 20
-3.5792001675
 30
0.0
 10
5.9197891807
 20
-3.5907518954
 30
0.0
 10
5.8814612912
 20
-3.600692923
 30
0.0
 10
5.8416947983
 20
-3.6089516648
 30
0.0
 10
5.8007773986
 20
-3.615468215
 30
0.0
 10
5.7590051802
 20
-3.620195316
 30
0.0
 10
5.7166806628
 20
-3.6230986375
 30
0.0
 10
5.6741104645
 20
-3.624157094
 30
0.0
 10
5.6316030332
 20
-3.6233630069
 30
0.0
 10
5.5894663438
 20
-3.6207221662
 30
0.0
 10
5.548005596
 20
-3.6162537757
 30
0.0
 10
5.5075209561
 20
-3.609990299
 30
0.0
 10
5.4683052281
 20
-3.6019771389
 30
0.0
 10
5.4306419418
 20
-3.5922723724
 30
0.0
 10
5.3948021853
 20
-3.5809457103
 30
0.0
 10
5.3610462211
 20
-3.5680795723
 30
0.0
 10
5.3395819611
 20
-3.5583041101
 30
0.0
 10
5.3292788353
 20
-3.5531607884
 30
0.0
 11
6.0237675837
 21
-3.5510271883
 31
0.0
 11
5.9913681336
 21
-3.5655916138
 31
0.0
 11
5.9567231959
 21
-3.578719662
 31
0.0
 11
5.9200848602
 21
-3.5903158083
 31
0.0
 11
5.8817197208
 21
-3.6002956748
 31
0.0
 11
5.8419069369
 21
-3.6085866441
 31
0.0
 11
5.8009362011
 21
-3.6151283882
 31
0.0
 11
5.7591056321
 21
-3.6198733067
 31
0.0
 11
5.7167196048
 21
-3.6227868739
 31
0.0
 11
5.6740865357
 21
-3.6238478896
 31
0.0
 11
5.6315166392
 21
-3.6230486335
 31
0.0
 11
5.5893196698
 21
-3.6203949211
 31
0.0
 11
5.5478026684
 21
-3.615906062
 31
0.0
 11
5.5072677285
 21
-3.6096147187
 31
0.0
 11
5.4680097974
 21
-3.6015666695
 31
0.0
 11
5.4303145307
 21
-3.5918204749
 31
0.0
 11
5.3944562132
 21
-3.580447052
 31
0.0
 11
5.3606957635
 21
-3.567529158
 31
0.0
 11
5.3292788353
 21
-3.5531607884
 31
0.0
  0
SPLINE
  5
2AE
100
AcDbEntity
  8
ASSI
100
AcDbSpline
 62
7
  6
CONTINUOUS
 70
0
 71
3
 72
16
 73
12
 74
10
 42
0.0000001
 43
0.0000001
 44
0.0000000001
 12
0.1696147045
 22
0.1209883165
 32
0.0
 13
0.1861936725
 23
-0.0930968362
 33
0.0
 40
0.0
 40
0.0
 40
0.0
 40
0.0
 40
0.0958690123
 40
0.1972796348
 40
0.3000767723
 40
0.4055993299
 40
0.5145435844
 40
0.6275877901
 40
0.7461181251
 40
0.8703585636
 40
1.0
 40
1.0
 40
1.0
 40
1.0
 10
-5.2639847338
 20
6.8714154346
 30
0.0
 10
-5.2585644691
 20
6.8752817781
 30
0.0
 10
-5.2468795002
 20
6.8824957308
 30
0.0
 10
-5.2277433439
 20
6.8908842274
 30
0.0
 10
-5.2069650419
 20
6.896648409
 30
0.0
 10
-5.1850783953
 20
6.8995733943
 30
0.0
 10
-5.1622927995
 20
6.899636869
 30
0.0
 10
-5.138775676
 20
6.8968558061
 30
0.0
 10
-5.1146817442
 20
6.8912531788
 30
0.0
 10
-5.0901965041
 20
6.8828696181
 30
0.0
 10
-5.0741032222
 20
6.8756373048
 30
0.0
 10
-5.0660570838
 20
6.8716142356
 30
0.0
 11
-5.2639847338
 21
6.8714154346
 31
0.0
 11
-5.2469962051
 21
6.881891844
 31
0.0
 11
-5.227664853
 21
6.8903748856
 31
0.0
 11
-5.2070514737
 21
6.8961213231
 31
0.0
 11
-5.1852839981
 21
6.8990732438
 31
0.0
 11
-5.1626052752
 21
6.8991890476
 31
0.0
 11
-5.1392289412
 21
6.8964823926
 31
0.0
 11
-5.1151822407
 21
6.8909515555
 31
0.0
 11
-5.0906950207
 21
6.8826279053
 31
0.0
 11
-5.0660570838
 21
6.8716142356
 31
0.0
  0
SPLINE
  5
2AF
100
AcDbEntity
  8
ASSI
100
AcDbSpline
 62
7
  6
CONTINUOUS
 70
0
 71
3
 72
19
 73
15
 74
13
 42
0.0000001
 43
0.0000001
 44
0.0000000001
 12
0.0023233124
 22
-0.2723466015
 32
0.0
 13
-0.2595315173
 23
-0.0833125346
 33
0.0
 40
0.0
 40
0.0
 40
0.0
 40
0.0
 40
0.1085012282
 40
0.2129420887
 40
0.312754366
 40
0.4077593882
 40
0.4987226518
 40
0.5857825686
 40
0.6691038925
 40
0.7494370233
 40
0.8280230385
 40
0.9055121163
 40
0.9826399433
 40
1.0
 40
1.0
 40
1.0
 40
1.0
 10
1.0976282242
 20
2.2405772343
 30
0.0
 10
1.0977122516
 20
2.2307272541
 30
0.0
 10
1.0972065987
 20
2.2113814668
 30
0.0
 10
1.0942958998
 20
2.1831083882
 30
0.0
 10
1.089270032
 20
2.1563738977
 30
0.0
 10
1.0821734916
 20
2.1313782753
 30
0.0
 10
1.0730523
 20
2.1082821966
 30
0.0
 10
1.0619584292
 20
2.0872508814
 30
0.0
 10
1.0489876657
 20
2.0684762743
 30
0.0
 10
1.0342289794
 20
2.0520852677
 30
0.0
 10
1.0177730989
 20
2.0381975371
 30
0.0
 10
0.9997525806
 20
2.026945236
 30
0.0
 10
0.985405373
 20
2.0206511902
 30
0.0
 10
0.977272638
 20
2.0178981098
 30
0.0
 10
0.9757708107
 20
2.0174160064
 30
0.0
 11
1.0976282242
 21
2.2405772343
 31
0.0
 11
1.0968137177
 21
2.2110374455
 31
0.0
 11
1.0938529483
 21
2.1827468055
 31
0.0
 11
1.0887782677
 21
2.1560401408
 31
0.0
 11
1.081656921
 21
2.1311641628
 31
0.0
 11
1.0725016503
 21
2.1081434384
 31
0.0
 11
1.0613866401
 21
2.0871986547
 31
0.0
 11
1.0484431955
 21
2.068558798
 31
0.0
 11
1.0337699696
 21
2.0523292547
 31
0.0
 11
1.017393403
 21
2.0385483203
 31
0.0
 11
0.9994857835
 21
2.0273803473
 31
0.0
 11
0.9802526167
 21
2.0189335431
 31
0.0
 11
0.9757708107
 21
2.0174160064
 31
0.0
  0
SPLINE
  5
2B0
100
AcDbEntity
  8
ASSI
100
AcDbSpline
 62
7
  6
CONTINUOUS
 70
0
 71
3
 72
25
 73
21
 74
19
 42
0.0000001
 43
0.0000001
 44
0.0000000001
 12
0.524939942
 22
-0.262469971
 32
0.0
 13
0.0036518538
 23
-0.5868893357
 33
0.0
 40
0.0
 40
0.0
 40
0.0
 40
0.0
 40
0.0480002896
 40
0.0980777546
 40
0.1499276073
 40
0.2032806204
 40
0.2582997211
 40
0.3146977562
 40
0.3720294192
 40
0.4300903448
 40
0.4889371177
 40
0.5480921557
 40
0.6070668692
 40
0.6659068303
 40
0.7243887663
 40
0.7820262864
 40
0.838476684
 40
0.8938625151
 40
0.9478403938
 40
1.0
 40
1.0
 40
1.0
 40
1.0
 10
0.8047267655
 20
3.936222311
 30
0.0
 10
0.8131258552
 20
3.9320227661
 30
0.0
 10
0.8299236944
 20
3.9226979793
 30
0.0
 10
0.8544039006
 20
3.9064951807
 30
0.0
 10
0.8784803183
 20
3.8879298066
 30
0.0
 10
0.9019771523
 20
3.867150732
 30
0.0
 10
0.9247407758
 20
3.8442989506
 30
0.0
 10
0.9466040856
 20
3.8195379716
 30
0.0
 10
0.9673740369
 20
3.7930935512
 30
0.0
 10
0.9869193023
 20
3.7651459295
 30
0.0
 10
1.0051102291
 20
3.7358780162
 30
0.0
 10
1.0217973339
 20
3.7055235223
 30
0.0
 10
1.0368509651
 20
3.6743283607
 30
0.0
 10
1.0501744522
 20
3.6424983611
 30
0.0
 10
1.0616733371
 20
3.610241701
 30
0.0
 10
1.0712412454
 20
3.5778469554
 30
0.0
 10
1.0788128433
 20
3.5455494113
 30
0.0
 10
1.084335316
 20
3.5135634554
 30
0.0
 10
1.0877584991
 20
3.4821294266
 30
0.0
 10
1.0886356187
 20
3.4613645353
 30
0.0
 10
1.0886991118
 20
3.4511605631
 30
0.0
 11
0.8047267655
 21
3.936222311
 31
0.0
 11
0.8293802246
 21
3.9225901826
 31
0.0
 11
0.853912047
 21
3.9064040426
 31
0.0
 11
0.8780326052
 21
3.8878506852
 31
0.0
 11
0.901509607
 21
3.8671304202
 31
0.0
 11
0.9243168195
 21
3.8442716473
 31
0.0
 11
0.9462409648
 21
3.8194735645
 31
0.0
 11
0.9670372556
 21
3.7930216889
 31
0.0
 11
0.9865758395
 21
3.7651036417
 31
0.0
 11
1.0048133571
 21
3.7357742714
 31
0.0
 11
1.0215410198
 21
3.70535168
 31
0.0
 11
1.0365823005
 21
3.6741784348
 31
0.0
 11
1.0499108058
 21
3.6423210365
 31
0.0
 11
1.0614260673
 21
3.6099872586
 31
0.0
 11
1.0709935561
 21
3.5775409497
 31
0.0
 11
1.0785363753
 21
3.5452802257
 31
0.0
 11
1.0840424711
 21
3.5132439676
 31
0.0
 11
1.0874421127
 21
3.4817472542
 31
0.0
 11
1.0886991118
 21
3.4511605631
 31
0.0
  0
SPLINE
  5
2B1
100
AcDbEntity
  8
ASSI
100
AcDbSpline
 62
253
  6
CONTINUOUS
 70
0
 71
3
 72
14
 73
10
 74
8
 42
0.0000001
 43
0.0000001
 44
0.0000000001
 12
0.1079825595
 22
0.0590789721
 32
0.0
 13
0.1114448285
 23
-0.0519220795
 33
0.0
 40
0.0
 40
0.0
 40
0.0
 40
0.0
 40
0.1015894819
 40
0.2371899148
 40
0.3765345955
 40
0.5213745949
 40
0.6730463026
 40
0.8324372892
 40
1.0
 40
1.0
 40
1.0
 40
1.0
 10
-9.4901050148
 20
12.1842612285
 30
0.0
 10
-9.4864483841
 20
12.1862618292
 30
0.0
 10
-9.4776154599
 20
12.1903937071
 30
0.0
 10
-9.4627692744
 20
12.1948469155
 30
0.0
 10
-9.4456482839
 20
12.1971249079
 30
0.0
 10
-9.4277281081
 20
12.196834184
 30
0.0
 10
-9.4092082681
 20
12.1939932045
 30
0.0
 10
-9.3902909836
 20
12.1886467861
 30
0.0
 10
-9.3778545317
 20
12.1835810712
 30
0.0
 10
-9.3716298659
 20
12.1806810031
 30
0.0
 11
-9.4901050148
 21
12.1842612285
 31
0.0
 11
-9.4787867952
 21
12.1895578608
 31
0.0
 11
-9.4628261756
 21
12.1943746036
 31
0.0
 11
-9.4458498822
 21
12.1966787425
 31
0.0
 11
-9.4280438387
 21
12.1964450424
 31
0.0
 11
-9.4096030563
 21
12.193676063
 31
0.0
 11
-9.3907294979
 21
12.1884021299
 31
0.0
 11
-9.3716298659
 21
12.1806810031
 31
0.0
  0
SPLINE
  5
2B2
100
AcDbEntity
  8
ASSI
100
AcDbSpline
 62
253
  6
CONTINUOUS
 70
0
 71
3
 72
25
 73
21
 74
19
 42
0.0000001
 43
0.0000001
 44
0.0000000001
 12
-0.322542062
 22
-0.153715816
 32
0.0
 13
-0.3195783395
 23
0.1597861657
 33
0.0
 40
0.0
 40
0.0
 40
0.0
 40
0.0
 40
0.0494954376
 40
0.1011644218
 40
0.1547958882
 40
0.2101520197
 40
0.2669695962
 40
0.3249641445
 40
0.3838344909
 40
0.4432679998
 40
0.5029448047
 40
0.5625417143
 40
0.6217365154
 40
0.6802124479
 40
0.7376621202
 40
0.7937918312
 40
0.8483269394
 40
0.9010166122
 40
0.9516383009
 40
1.0
 40
1.0
 40
1.0
 40
1.0
 10
5.7858550928
 20
4.6019385237
 30
0.0
 10
5.7805336393
 20
4.5994024465
 30
0.0
 10
5.7694809701
 20
4.5945821955
 30
0.0
 10
5.7521632299
 20
4.588231388
 30
0.0
 10
5.7338543318
 20
4.5826411484
 30
0.0
 10
5.7146880085
 20
4.5778526015
 30
0.0
 10
5.6948024323
 20
4.5739002178
 30
0.0
 10
5.6743414466
 20
4.5708126917
 30
0.0
 10
5.6534531346
 20
4.5686124254
 30
0.0
 10
5.6322888018
 20
4.5673154099
 30
0.0
 10
5.6110017797
 20
4.5669310702
 30
0.0
 10
5.5897463269
 20
4.5674621974
 30
0.0
 10
5.568676465
 20
4.5689049216
 30
0.0
 10
5.5479448218
 20
4.5712487491
 30
0.0
 10
5.5277015225
 20
4.5744766414
 30
0.0
 10
5.5080930042
 20
4.578565186
 30
0.0
 10
5.4892610213
 20
4.5834847224
 30
0.0
 10
5.4713411897
 20
4.5891999023
 30
0.0
 10
5.4544643023
 20
4.5956687529
 30
0.0
 10
5.4437317545
 20
4.6005706191
 30
0.0
 10
5.4385799707
 20
4.6031464626
 30
0.0
 11
5.7858550928
 21
4.6019385237
 31
0.0
 11
5.7696549898
 21
4.5948460872
 31
0.0
 11
5.752329838
 21
4.5884698715
 31
0.0
 11
5.7340077959
 21
4.5828572822
 31
0.0
 11
5.7148224465
 21
4.5780492683
 31
0.0
 11
5.6949133007
 21
4.5740807807
 31
0.0
 11
5.6744251706
 21
4.5709806934
 31
0.0
 11
5.6535072346
 21
4.5687715818
 31
0.0
 11
5.6323117106
 21
4.567469518
 31
0.0
 11
5.6109927874
 21
4.5670839732
 31
0.0
 11
5.589705616
 21
4.5676177539
 31
0.0
 11
5.5686051347
 21
4.5690669713
 31
0.0
 11
5.5478448404
 21
4.5714210798
 31
0.0
 11
5.5275757997
 21
4.5746629483
 31
0.0
 11
5.5079455879
 21
4.5787689662
 31
0.0
 11
5.4890969786
 21
4.583709258
 31
0.0
 11
5.4711670274
 21
4.5894479091
 31
0.0
 11
5.4542864503
 21
4.5959430526
 31
0.0
 11
5.4385799707
 21
4.6031464626
 31
0.0
  0
SPLINE
  5
2B3
100
AcDbEntity
  8
ASSI
100
AcDbSpline
 62
253
  6
CONTINUOUS
 70
0
 71
3
 72
25
 73
21
 74
19
 42
0.0000001
 43
0.0000001
 44
0.0000000001
 12
-0.2109794759
 22
0.1054917212
 32
0.0
 13
0.2069226435
 23
0.1132424924
 33
0.0
 40
0.0
 40
0.0
 40
0.0
 40
0.0
 40
0.0696259316
 40
0.1354941003
 40
0.1975520195
 40
0.2558682771
 40
0.3106467485
 40
0.3622458225
 40
0.411194015
 40
0.4581922643
 40
0.5040904017
 40
0.549831955
 40
0.5963745027
 40
0.6446058402
 40
0.6952792112
 40
0.7489797848
 40
0.8061199722
 40
0.8669516448
 40
0.9315844569
 40
1.0
 40
1.0
 40
1.0
 40
1.0
 10
-9.3655670474
 20
12.0052199716
 30
0.0
 10
-9.3704635949
 20
12.0076682914
 30
0.0
 10
-9.3798373314
 20
12.0127539351
 30
0.0
 10
-9.3928986994
 20
12.0211909242
 30
0.0
 10
-9.404489755
 20
12.0301734017
 30
0.0
 10
-9.4145253947
 20
12.039640261
 30
0.0
 10
-9.422931578
 20
12.0495292436
 30
0.0
 10
-9.4296422702
 20
12.0597758089
 30
0.0
 10
-9.4345987775
 20
12.0703113261
 30
0.0
 10
-9.4377505359
 20
12.0810595611
 30
0.0
 10
-9.4390597991
 20
12.0919335418
 30
0.0
 10
-9.4385092147
 20
12.1028369173
 30
0.0
 10
-9.4361067339
 20
12.1136715914
 30
0.0
 10
-9.4318830268
 20
12.1243466273
 30
0.0
 10
-9.4258840705
 20
12.1347818518
 30
0.0
 10
-9.4181651397
 20
12.1449058039
 30
0.0
 10
-9.4087888978
 20
12.1546520003
 30
0.0
 10
-9.3978256536
 20
12.1639565357
 30
0.0
 10
-9.3853565589
 20
12.1727564007
 30
0.0
 10
-9.3763487742
 20
12.1780984875
 30
0.0
 10
-9.3716298659
 20
12.1806810031
 30
0.0
 11
-9.3655670474
 21
12.0052199716
 31
0.0
 11
-9.3799876114
 21
12.0130800834
 31
0.0
 11
-9.3930190388
 21
12.0215409422
 31
0.0
 11
-9.4045645788
 21
12.0305400367
 31
0.0
 11
-9.4145400007
 21
12.0400117605
 31
0.0
 11
-9.4228727855
 21
12.0498872409
 31
0.0
 11
-9.4295023043
 21
12.0600946522
 31
0.0
 11
-9.4343802745
 21
12.0705596759
 31
0.0
 11
-9.4374711989
 21
12.0812061613
 31
0.0
 11
-9.4387525857
 21
12.0919566598
 31
0.0
 11
-9.4382151015
 21
12.1027329241
 31
0.0
 11
-9.435862659
 21
12.1134565286
 31
0.0
 11
-9.4317123696
 21
12.1240494635
 31
0.0
 11
-9.425794428
 21
12.1344346451
 31
0.0
 11
-9.4181519301
 21
12.1445364565
 31
0.0
 11
-9.4088404813
 21
12.1542814208
 31
0.0
 11
-9.3979277692
 21
12.1635986751
 31
0.0
 11
-9.385493413
 21
12.1724202886
 31
0.0
 11
-9.3716298659
 21
12.1806810031
 31
0.0
  0
SPLINE
  5
2B4
100
AcDbEntity
  8
ASSI
100
AcDbSpline
 62
253
  6
CONTINUOUS
 70
0
 71
3
 72
17
 73
13
 74
11
 42
0.0000001
 43
0.0000001
 44
0.0000000001
 12
0.0036245435
 22
-0.2417804499
 32
0.0
 13
0.2159671729
 23
-0.1081563275
 33
0.0
 40
0.0
 40
0.0
 40
0.0
 40
0.0
 40
0.0103943558
 40
0.1011450817
 40
0.1939167901
 40
0.2903486406
 40
0.3918036099
 40
0.4993198336
 40
0.613609753
 40
0.7350873348
 40
0.8639064209
 40
1.0
 40
1.0
 40
1.0
 40
1.0
 10
-9.6257666737
 20
4.0285603944
 30
0.0
 10
-9.6257541154
 20
4.027722677
 30
0.0
 10
-9.6255535045
 20
4.0195722747
 30
0.0
 10
-9.6237006725
 20
4.0039970883
 30
0.0
 10
-9.6173984726
 20
3.982257234
 30
0.0
 10
-9.6074864331
 20
3.9609657996
 30
0.0
 10
-9.594064812
 20
3.9402779295
 30
0.0
 10
-9.5772510056
 20
3.9203333174
 30
0.0
 10
-9.5571775374
 20
3.9012629099
 30
0.0
 10
-9.5339929422
 20
3.8831922975
 30
0.0
 10
-9.5078664411
 20
3.8662437953
 30
0.0
 10
-9.4891106049
 20
3.856041768
 30
0.0
 10
-9.4793133564
 20
3.8511353074
 30
0.0
 11
-9.6257666737
 21
4.0285603944
 31
0.0
 11
-9.6257047954
 21
4.0260477759
 31
0.0
 11
-9.6231385394
 21
4.0042789558
 31
0.0
 11
-9.6169536344
 21
3.9827417309
 31
0.0
 11
-9.6071950841
 21
3.9615928142
 31
0.0
 11
-9.5939338954
 21
3.9409860931
 31
0.0
 11
-9.5772665617
 21
3.92107151
 31
0.0
 11
-9.5573143607
 21
3.9019939706
 31
0.0
 11
-9.5342224721
 21
3.8838922906
 31
0.0
 11
-9.5081589213
 21
3.8668981843
 31
0.0
 11
-9.4793133564
 21
3.8511353074
 31
0.0
  0
SPLINE
  5
2B5
100
AcDbEntity
  8
ASSI
100
AcDbSpline
 62
253
  6
CONTINUOUS
 70
0
 71
3
 72
16
 73
12
 74
10
 42
0.0000001
 43
0.0000001
 44
0.0000000001
 12
0.0304865542
 22
-0.2365036487
 32
0.0
 13
0.2126255254
 23
-0.107487397
 33
0.0
 40
0.0
 40
0.0
 40
0.0
 40
0.0
 40
0.0405514404
 40
0.1465799212
 40
0.254581111
 40
0.3658241733
 40
0.4813822312
 40
0.6020957272
 40
0.7285625726
 40
0.8611471594
 40
1.0
 40
1.0
 40
1.0
 40
1.0
 10
-8.9502901507
 20
-5.7497012667
 30
0.0
 10
-8.9498780595
 20
-5.7528981212
 30
0.0
 10
-8.9480670177
 20
-5.7644121484
 30
0.0
 10
-8.9429128714
 20
-5.7840345442
 30
0.0
 10
-8.9328517824
 20
-5.8079167563
 30
0.0
 10
-8.9192884448
 20
-5.8308737948
 30
0.0
 10
-8.9023386623
 20
-5.852738984
 30
0.0
 10
-8.8821388389
 20
-5.8733596399
 30
0.0
 10
-8.8588430213
 20
-5.8925950738
 30
0.0
 10
-8.8326261731
 20
-5.9103131804
 30
0.0
 10
-8.8137559684
 20
-5.9207949167
 30
0.0
 10
-8.803914749
 20
-5.9257698935
 30
0.0
 11
-8.9502901507
 21
-5.7497012667
 31
0.0
 11
-8.9487874898
 21
-5.7592523128
 31
0.0
 11
-8.9423915401
 21
-5.7836905085
 31
0.0
 11
-8.9324423685
 21
-5.8074205318
 31
0.0
 11
-8.9190124049
 21
-5.8302696279
 31
0.0
 11
-8.9021994196
 21
-5.8520714549
 31
0.0
 11
-8.8821258115
 21
-5.8726672954
 31
0.0
 11
-8.8589377165
 21
-5.8919072114
 31
0.0
 11
-8.8328039443
 21
-5.9096511361
 31
0.0
 11
-8.803914749
 21
-5.9257698935
 31
0.0
  0
SPLINE
  5
2B6
100
AcDbEntity
  8
ASSI
100
AcDbSpline
 62
253
  6
CONTINUOUS
 70
0
 71
3
 72
17
 73
13
 74
11
 42
0.0000001
 43
0.0000001
 44
0.0000000001
 12
-0.387332328
 22
0.2509619442
 32
0.0
 13
-0.0590280372
 23
0.4574610712
 33
0.0
 40
0.0
 40
0.0
 40
0.0
 40
0.0
 40
0.0274050924
 40
0.1227841769
 40
0.2200823729
 40
0.3200058309
 40
0.4231542594
 40
0.5300096108
 40
0.6409328132
 40
0.7561678119
 40
0.8758457552
 40
1.0
 40
1.0
 40
1.0
 40
1.0
 10
-8.5914737527
 20
-6.3191859978
 30
0.0
 10
-8.5950120455
 20
-6.3168934527
 30
0.0
 10
-8.6106881089
 20
-6.3063494824
 30
0.0
 10
-8.6372986557
 20
-6.2853238906
 30
0.0
 10
-8.6692492164
 20
-6.2535196182
 30
0.0
 10
-8.6982930902
 20
-6.2175023082
 30
0.0
 10
-8.724285621
 20
-6.1774704819
 30
0.0
 10
-8.7471004083
 20
-6.1336394626
 30
0.0
 10
-8.7666280903
 20
-6.0862405632
 30
0.0
 10
-8.7827755685
 20
-6.0355197669
 30
0.0
 10
-8.7954655929
 20
-5.9817418
 30
0.0
 10
-8.8014718886
 20
-5.9447018048
 30
0.0
 10
-8.8039147491
 20
-5.9257698935
 30
0.0
 11
-8.5914737527
 21
-6.3191859978
 31
0.0
 11
-8.6019684057
 21
-6.3121275876
 31
0.0
 11
-8.6365134148
 21
-6.2848858888
 31
0.0
 11
-8.6683624622
 21
-6.2532666507
 31
0.0
 11
-8.6973505709
 21
-6.2174339384
 31
0.0
 11
-8.7233274385
 21
-6.1775738148
 31
0.0
 11
-8.7461584227
 21
-6.1338931996
 31
0.0
 11
-8.7657252185
 21
-6.0866188079
 31
0.0
 11
-8.7819265616
 21
-6.0359955755
 31
0.0
 11
-8.7946783572
 21
-5.9822867277
 31
0.0
 11
-8.8039147491
 21
-5.9257698935
 31
0.0
  0
SPLINE
  5
2B7
100
AcDbEntity
  8
ASSI
100
AcDbSpline
 62
7
  6
CONTINUOUS
 70
0
 71
3
 72
14
 73
10
 74
8
 42
0.0000001
 43
0.0000001
 44
0.0000000001
 12
-0.1542207444
 22
-0.0495065927
 32
0.0
 13
-0.1447556237
 23
0.0723778119
 33
0.0
 40
0.0
 40
0.0
 40
0.0
 40
0.0
 40
0.1023849299
 40
0.2375219642
 40
0.3771078483
 40
0.5220284168
 40
0.6740709424
 40
0.8335264796
 40
1.0
 40
1.0
 40
1.0
 40
1.0
 10
0.9757708107
 20
2.0174160064
 30
0.0
 10
0.9705075173
 20
2.01572643
 30
0.0
 10
0.9580802042
 20
2.0124824894
 30
0.0
 10
0.9378532941
 20
2.0097900103
 30
0.0
 10
0.9151552819
 20
2.0097424643
 30
0.0
 10
0.8917178952
 20
2.0125309985
 30
0.0
 10
0.8676934483
 20
2.0181328755
 30
0.0
 10
0.843265414
 20
2.0265081218
 30
0.0
 10
0.8272044304
 20
2.0337289054
 30
0.0
 10
0.819171771
 20
2.0377452351
 30
0.0
 11
0.9757708107
 21
2.0174160064
 31
0.0
 11
0.9597357263
 21
2.0132174445
 31
0.0
 11
0.9380618796
 21
2.0102888567
 31
0.0
 11
0.9154712856
 21
2.0101882835
 31
0.0
 11
0.8921745878
 21
2.0129017693
 31
0.0
 11
0.8681971278
 21
2.0184314255
 31
0.0
 11
0.8437668604
 21
2.0267464955
 31
0.0
 11
0.819171771
 21
2.0377452351
 31
0.0
  0
LINE
  5
2B8
100
AcDbEntity
  8
ASSI
100
AcDbLine
 62
7
  6
CONTINUOUS
 10
-5.3370434846
 20
5.4579130887
 11
-5.3385419975
 21
5.6371708334
  0
LINE
  5
2B9
100
AcDbEntity
  8
ASSI
100
AcDbLine
 62
7
  6
CONTINUOUS
 10
-5.3385419975
 20
5.6371708334
 11
-5.3389070745
 21
5.6819896714
  0
LINE
  5
2BA
100
AcDbEntity
  8
ASSI
100
AcDbLine
 62
7
  6
CONTINUOUS
 10
-5.3389070745
 20
5.6819896714
 11
-5.3416902146
 21
6.0406108317
  0
LINE
  5
2BB
100
AcDbEntity
  8
ASSI
100
AcDbLine
 62
7
  6
CONTINUOUS
 10
-5.3416902146
 20
6.0406108317
 11
-5.3420209225
 21
6.0854472741
  0
LINE
  5
2BC
100
AcDbEntity
  8
ASSI
100
AcDbLine
 62
7
  6
CONTINUOUS
 10
-5.3420209225
 20
6.0854472741
 11
-5.3445291067
 21
6.4442089709
  0
LINE
  5
2BD
100
AcDbEntity
  8
ASSI
100
AcDbLine
 62
7
  6
CONTINUOUS
 10
-5.3445291067
 20
6.4442089709
 11
-5.3448254449
 21
6.4890629439
  0
LINE
  5
2BE
100
AcDbEntity
  8
ASSI
100
AcDbLine
 62
7
  6
CONTINUOUS
 10
-5.3448254449
 20
6.4890629439
 11
-5.345972597
 21
6.6684964174
  0
SPLINE
  5
2BF
100
AcDbEntity
  8
ASSI
100
AcDbSpline
 62
7
  6
CONTINUOUS
 70
0
 71
3
 72
25
 73
21
 74
19
 42
0.0000001
 43
0.0000001
 44
0.0000000001
 12
-0.5245274405
 22
0.2622637203
 32
0.0
 13
-0.0050025686
 23
0.5864181692
 33
0.0
 40
0.0
 40
0.0
 40
0.0
 40
0.0
 40
0.0479689405
 40
0.0980125495
 40
0.1498255404
 40
0.2031382304
 40
0.2581145878
 40
0.3144706373
 40
0.3717636343
 40
0.4297891306
 40
0.4886088045
 40
0.5477482898
 40
0.6067200463
 40
0.6655679539
 40
0.7240731896
 40
0.7817494485
 40
0.8382510683
 40
0.8937000221
 40
0.9477535516
 40
1.0
 40
1.0
 40
1.0
 40
1.0
 10
-5.0524994589
 20
4.97358085
 30
0.0
 10
-5.0608864674
 20
4.9777743543
 30
0.0
 10
-5.0776611848
 20
4.9870830203
 30
0.0
 10
-5.1021124416
 20
5.0032512189
 30
0.0
 10
-5.1261658526
 20
5.0217714013
 30
0.0
 10
-5.1496467553
 20
5.0424955935
 30
0.0
 10
-5.1724028395
 20
5.0652843351
 30
0.0
 10
-5.1942683199
 20
5.0899763507
 30
0.0
 10
-5.2150507792
 20
5.1163482774
 30
0.0
 10
-5.2346193853
 20
5.1442225348
 30
0.0
 10
-5.2528446656
 20
5.1734190586
 30
0.0
 10
-5.2695769084
 20
5.2037073365
 30
0.0
 10
-5.2846851913
 20
5.2348434607
 30
0.0
 10
-5.2980715939
 20
5.2666235881
 30
0.0
 10
-5.3096401423
 20
5.2988412493
 30
0.0
 10
-5.3192824791
 20
5.3312093188
 30
0.0
 10
-5.3269310717
 20
5.3634926889
 30
0.0
 10
-5.3325310718
 20
5.3954769991
 30
0.0
 10
-5.3360302786
 20
5.4269220707
 30
0.0
 10
-5.3369563624
 20
5.4477003332
 30
0.0
 10
-5.3370434846
 20
5.4579130887
 30
0.0
 11
-5.0524994589
 21
4.97358085
 31
0.0
 11
-5.0771194564
 21
4.9871897528
 31
0.0
 11
-5.1016224556
 21
5.0033415849
 31
0.0
 11
-5.1257200969
 21
5.0218500462
 31
0.0
 11
-5.1491809947
 21
5.0425156146
 31
0.0
 11
-5.1719801999
 21
5.0653110899
 31
0.0
 11
-5.1939061683
 21
5.0900399327
 31
0.0
 11
-5.2147149389
 21
5.1164194626
 31
0.0
 11
-5.2342762101
 21
5.1442635218
 31
0.0
 11
-5.2525477973
 21
5.1735209582
 31
0.0
 11
-5.2693205758
 21
5.2038771164
 31
0.0
 11
-5.2844165864
 21
5.2349917398
 31
0.0
 11
-5.2978077021
 21
5.2667984852
 31
0.0
 11
-5.3093927616
 21
5.299093183
 31
0.0
 11
-5.3190349388
 21
5.3315133438
 31
0.0
 11
-5.3266546874
 21
5.3637600988
 31
0.0
 11
-5.332238389
 21
5.3957945692
 31
0.0
 11
-5.3357142068
 21
5.427302556
 31
0.0
 11
-5.3370434846
 21
5.4579130887
 31
0.0
  0
SPLINE
  5
2C0
100
AcDbEntity
  8
ASSI
100
AcDbSpline
 62
7
  6
CONTINUOUS
 70
0
 71
3
 72
16
 73
12
 74
10
 42
0.0000001
 43
0.0000001
 44
0.0000000001
 12
-0.0013169092
 22
0.211640437
 32
0.0
 13
0.1590675193
 23
0.1398736643
 33
0.0
 40
0.0
 40
0.0
 40
0.0
 40
0.0
 40
0.1395272774
 40
0.2739201021
 40
0.402445843
 40
0.5248674379
 40
0.6421671143
 40
0.7545208464
 40
0.8621290013
 40
0.9659378976
 40
1.0
 40
1.0
 40
1.0
 40
1.0
 10
-5.345972597
 20
6.6684964174
 30
0.0
 10
-5.3460338452
 20
6.6783396221
 30
0.0
 10
-5.3454817378
 20
6.6976767375
 30
0.0
 10
-5.3424983981
 20
6.7259405947
 30
0.0
 10
-5.3373973395
 20
6.7526779831
 30
0.0
 10
-5.330222594
 20
6.7776871497
 30
0.0
 10
-5.3210197663
 20
6.8008060097
 30
0.0
 10
-5.3098405083
 20
6.8218677849
 30
0.0
 10
-5.2967808449
 20
6.8406782624
 30
0.0
 10
-5.2851343738
 20
6.8535633356
 30
0.0
 10
-5.2779723041
 20
6.8601600438
 30
0.0
 10
-5.2761662461
 20
6.8617481742
 30
0.0
 11
-5.345972597
 21
6.6684964174
 31
0.0
 11
-5.3450877855
 21
6.6980133443
 31
0.0
 11
-5.3420547663
 21
6.7262946787
 31
0.0
 11
-5.336905404
 21
6.7530046092
 31
0.0
 11
-5.3297067199
 21
6.7778943634
 31
0.0
 11
-5.3204705961
 21
6.8009381504
 31
0.0
 11
-5.3092706378
 21
6.8219144301
 31
0.0
 11
-5.2962383025
 21
6.840591801
 31
0.0
 11
-5.2814732934
 21
6.8568614394
 31
0.0
 11
-5.2761662461
 21
6.8617481742
 31
0.0
  0
SPLINE
  5
2C1
100
AcDbEntity
  8
ASSI
100
AcDbSpline
 62
253
  6
CONTINUOUS
 70
0
 71
3
 72
16
 73
12
 74
10
 42
0.0000001
 43
0.0000001
 44
0.0000000001
 12
-1.2344583664
 22
9.7271614722
 32
0.0
 13
-0.1480278181
 23
9.8040627053
 33
0.0
 40
0.0
 40
0.0
 40
0.0
 40
0.0
 40
0.1080730282
 40
0.216918925
 40
0.3265327533
 40
0.4369090339
 40
0.5480417747
 40
0.6599244812
 40
0.7725501569
 40
0.8859113138
 40
1.0
 40
1.0
 40
1.0
 40
1.0
 10
-8.8039147491
 20
-5.9257698935
 30
0.0
 10
-8.8483853004
 20
-5.5753552947
 30
0.0
 10
-8.9330100868
 20
-4.8714235334
 30
0.0
 10
-9.0466677694
 20
-3.8102273651
 30
0.0
 10
-9.1474772575
 20
-2.7401708677
 30
0.0
 10
-9.2354171191
 20
-1.6614817688
 30
0.0
 10
-9.3104690203
 20
-0.5743864564
 30
0.0
 10
-9.3726172237
 20
0.5208859401
 30
0.0
 10
-9.4218487342
 20
1.6241054242
 30
0.0
 10
-9.4581532253
 20
2.7350377458
 30
0.0
 10
-9.4736839233
 20
3.4782910962
 30
0.0
 10
-9.4793133564
 20
3.8511353074
 30
0.0
 11
-8.8039147491
 21
-5.9257698935
 31
0.0
 11
-8.9304445766
 21
-4.8736756051
 31
0.0
 11
-9.0441493308
 21
-3.812496293
 31
0.0
 11
-9.1450051028
 21
-2.7424554875
 31
0.0
 11
-9.2329906834
 21
-1.6637786293
 31
0.0
 11
-9.3080875797
 21
-0.5766928795
 31
0.0
 11
-9.3702800112
 21
0.5185728985
 31
0.0
 11
-9.4195549044
 21
1.6217880601
 31
0.0
 11
-9.4559018988
 21
2.7327201918
 31
0.0
 11
-9.4793133564
 21
3.8511353074
 31
0.0
  0
SPLINE
  5
2C2
100
AcDbEntity
  8
ASSI
100
AcDbSpline
 62
253
  6
CONTINUOUS
 70
0
 71
3
 72
17
 73
13
 74
11
 42
0.0000001
 43
0.0000001
 44
0.0000000001
 12
-0.2159827681
 22
0.1079954703
 32
0.0
 13
-0.0005697064
 23
0.2417616987
 33
0.0
 40
0.0
 40
0.0
 40
0.0
 40
0.0
 40
0.13603101
 40
0.2646719717
 40
0.3858331644
 40
0.499640539
 40
0.6064857625
 40
0.7070633195
 40
0.8024026324
 40
0.8938741356
 40
0.9831446548
 40
1.0
 40
1.0
 40
1.0
 40
1.0
 10
-9.5407997442
 20
11.7009319824
 30
0.0
 10
-9.5505931955
 20
11.7058288933
 30
0.0
 10
-9.5693393194
 20
11.7159958844
 30
0.0
 10
-9.5954621431
 20
11.7328518766
 30
0.0
 10
-9.6186431397
 20
11.7507855273
 30
0.0
 10
-9.6387136239
 20
11.7696755647
 30
0.0
 10
-9.6555256317
 20
11.7893978516
 30
0.0
 10
-9.6689473213
 20
11.8098239089
 30
0.0
 10
-9.6788613594
 20
11.8308173527
 30
0.0
 10
-9.6851663474
 20
11.8522267232
 30
0.0
 10
-9.6870860008
 20
11.8680922565
 30
0.0
 10
-9.6872440318
 20
11.8766441918
 30
0.0
 10
-9.6872472327
 20
11.8780025175
 30
0.0
 11
-9.5407997442
 21
11.7009319824
 31
0.0
 11
-9.5696444113
 21
11.7166484712
 31
0.0
 11
-9.5957067199
 21
11.7335518744
 31
0.0
 11
-9.6187974034
 21
11.7515195208
 31
0.0
 11
-9.6387478499
 21
11.7704202655
 31
0.0
 11
-9.6554130596
 21
11.7901167126
 31
0.0
 11
-9.6686717845
 21
11.810465597
 31
0.0
 11
-9.6784274716
 21
11.8313187643
 31
0.0
 11
-9.6846091384
 21
11.8525244725
 31
0.0
 11
-9.6871718125
 21
11.8739284632
 31
0.0
 11
-9.6872472327
 21
11.8780025175
 31
0.0
  0
SPLINE
  5
2C3
100
AcDbEntity
  8
ASSI
100
AcDbSpline
 62
253
  6
CONTINUOUS
 70
0
 71
3
 72
18
 73
14
 74
12
 42
0.0000001
 43
0.0000001
 44
0.0000000001
 12
-0.0146251891
 22
-0.3374729221
 32
0.0
 13
-0.3134234949
 23
-0.1267203006
 33
0.0
 40
0.0
 40
0.0
 40
0.0
 40
0.0
 40
0.11202914
 40
0.220003865
 40
0.3237389448
 40
0.4231623526
 40
0.5183318675
 40
0.6094511725
 40
0.696883202
 40
0.7811571033
 40
0.8629639376
 40
0.9431361493
 40
1.0
 40
1.0
 40
1.0
 40
1.0
 10
7.0865364348
 20
-13.5059434636
 30
0.0
 10
7.0859902857
 20
-13.5185457307
 30
0.0
 10
7.0840819391
 20
-13.5432682996
 30
0.0
 10
7.0786067122
 20
-13.5793410792
 30
0.0
 10
7.0706069856
 20
-13.6134894388
 30
0.0
 10
7.0601386387
 20
-13.6454550419
 30
0.0
 10
7.0472742436
 20
-13.6749978004
 30
0.0
 10
7.0321026564
 20
-13.7018930715
 30
0.0
 10
7.0147290198
 20
-13.7259327537
 30
0.0
 10
6.9952758215
 20
-13.7469253199
 30
0.0
 10
6.9738850247
 20
-13.7646971225
 30
0.0
 10
6.9528894098
 20
-13.7777475549
 30
0.0
 10
6.9388652872
 20
-13.7842606831
 30
0.0
 10
6.9329244649
 20
-13.7866626179
 30
0.0
 11
7.0865364348
 21
-13.5059434636
 31
0.0
 11
7.0835768
 21
-13.5436698375
 31
0.0
 11
7.0780504558
 21
-13.5797214792
 31
0.0
 11
7.0699993634
 21
-13.6138246512
 31
0.0
 11
7.0594846541
 21
-13.6457204105
 31
0.0
 11
7.0465861653
 21
-13.6751665751
 31
0.0
 11
7.0314018343
 21
-13.7019395624
 31
0.0
 11
7.0140469547
 21
-13.7258360871
 31
0.0
 11
6.9946533006
 21
-13.7466747046
 31
0.0
 11
6.9733681269
 21
-13.7642971889
 31
0.0
 11
6.95035305
 21
-13.7785697336
 31
0.0
 11
6.9329244649
 21
-13.7866626179
 31
0.0
  0
SPLINE
  5
2C4
100
AcDbEntity
  8
ASSI
100
AcDbSpline
 62
253
  6
CONTINUOUS
 70
0
 71
3
 72
26
 73
22
 74
20
 42
0.0000001
 43
0.0000001
 44
0.0000000001
 12
0.0639075782
 22
-0.4718179908
 32
0.0
 13
0.4414253651
 23
0.1784377821
 33
0.0
 40
0.0
 40
0.0
 40
0.0
 40
0.0
 40
0.0604714473
 40
0.1189577881
 40
0.1754896565
 40
0.2301507618
 40
0.2830756018
 40
0.3344495457
 40
0.3845087349
 40
0.4335365193
 40
0.4818566178
 40
0.5298216896
 40
0.5777998971
 40
0.6261586397
 40
0.6752493941
 40
0.7253932963
 40
0.7768707761
 40
0.8299146356
 40
0.8847072271
 40
0.9413785448
 40
1.0
 40
1.0
 40
1.0
 40
1.0
 10
6.7438754005
 20
-13.2978469611
 30
0.0
 10
6.7451635951
 20
-13.3073574667
 30
0.0
 10
6.7483338974
 20
-13.3259880679
 30
0.0
 10
6.7550221251
 20
-13.3530515327
 30
0.0
 10
6.7635327432
 20
-13.378632752
 30
0.0
 10
6.7738244692
 20
-13.402596197
 30
0.0
 10
6.7858476255
 20
-13.424816889
 30
0.0
 10
6.7995435811
 20
-13.4451770178
 30
0.0
 10
6.8148443778
 20
-13.4635669184
 30
0.0
 10
6.8316723322
 20
-13.4798857276
 30
0.0
 10
6.8499396727
 20
-13.4940425546
 30
0.0
 10
6.8695486627
 20
-13.5059580479
 30
0.0
 10
6.8903923331
 20
-13.5155659941
 30
0.0
 10
6.9123560724
 20
-13.5228146269
 30
0.0
 10
6.935319449
 20
-13.5276670997
 30
0.0
 10
6.9591580123
 20
-13.5301012301
 30
0.0
 10
6.9837445911
 20
-13.530108682
 30
0.0
 10
7.0089499895
 20
-13.5276941521
 30
0.0
 10
7.0346438553
 20
-13.5228742519
 30
0.0
 10
7.0606908118
 20
-13.5156787291
 30
0.0
 10
7.0779107691
 20
-13.5094302244
 30
0.0
 10
7.0865364348
 20
-13.5059434636
 30
0.0
 11
6.7438754005
 21
-13.2978469611
 31
0.0
 11
6.7487391209
 21
-13.3262252395
 31
0.0
 11
6.755454841
 21
-13.3532502019
 31
0.0
 11
6.7639873471
 21
-13.3787783139
 31
0.0
 11
6.7742923541
 21
-13.4026768196
 31
0.0
 11
6.7863165303
 21
-13.4248218995
 31
0.0
 11
6.7999975676
 21
-13.4450986093
 31
0.0
 11
6.8152645543
 21
-13.4634016881
 31
0.0
 11
6.8320383297
 21
-13.4796360942
 31
0.0
 11
6.8502319983
 21
-13.4937175857
 31
0.0
 11
6.8697511762
 21
-13.5055729781
 31
0.0
 11
6.8904946829
 21
-13.5151406981
 31
0.0
 11
6.9123548709
 21
-13.5223709892
 31
0.0
 11
6.93521843
 21
-13.5272262753
 31
0.0
 11
6.9589667125
 21
-13.5296812642
 31
0.0
 11
6.9834764663
 21
-13.5297231398
 31
0.0
 11
7.0086204619
 21
-13.5273516355
 31
0.0
 11
7.0342683855
 21
-13.5225789742
 31
0.0
 11
7.0602868146
 21
-13.5154299767
 31
0.0
 11
7.0865364348
 21
-13.5059434636
 31
0.0
  0
SPLINE
  5
2C5
100
AcDbEntity
  8
ASSI
100
AcDbSpline
 62
253
  6
CONTINUOUS
 70
0
 71
3
 72
18
 73
14
 74
12
 42
0.0000001
 43
0.0000001
 44
0.0000000001
 12
0.0672629585
 22
-0.5045475144
 32
0.0
 13
0.45473559
 23
-0.229335339
 33
0.0
 40
0.0
 40
0.0
 40
0.0
 40
0.0
 40
0.1129293346
 40
0.2220200623
 40
0.3273306381
 40
0.4290051563
 40
0.5272852747
 40
0.6225115084
 40
0.7151242992
 40
0.8056584685
 40
0.8947311725
 40
0.9830205113
 40
1.0
 40
1.0
 40
1.0
 40
1.0
 10
6.0532738565
 20
-13.3543641963
 30
0.0
 10
6.0558058436
 20
-13.3733569347
 30
0.0
 10
6.0620352362
 20
-13.4105455078
 30
0.0
 10
6.0751832583
 20
-13.4645570496
 30
0.0
 10
6.0919132245
 20
-13.5155715904
 30
0.0
 10
6.1121446431
 20
-13.5633219021
 30
0.0
 10
6.1357803297
 20
-13.6075593223
 30
0.0
 10
6.1627056465
 20
-13.648049649
 30
0.0
 10
6.1927878464
 20
-13.6845748447
 30
0.0
 10
6.2258750876
 20
-13.7169342284
 30
0.0
 10
6.261795466
 20
-13.7449467358
 30
0.0
 10
6.2900132215
 20
-13.7621485303
 30
0.0
 10
6.3058800195
 20
-13.770373571
 30
0.0
 10
6.3084537454
 20
-13.7716715699
 30
0.0
 11
6.0532738565
 21
-13.3543641963
 31
0.0
 11
6.0628385262
 21
-13.4110451694
 31
0.0
 11
6.0760435242
 21
-13.4649806184
 31
0.0
 11
6.0928206923
 21
-13.5158917633
 31
0.0
 11
6.1130829144
 21
-13.5635138682
 31
0.0
 11
6.1367253444
 21
-13.6076002063
 31
0.0
 11
6.163625465
 21
-13.6479219563
 31
0.0
 11
6.1936438513
 21
-13.6842698075
 31
0.0
 11
6.226624858
 21
-13.7164550252
 31
0.0
 11
6.2623976449
 21
-13.744310613
 31
0.0
 11
6.3007766474
 21
-13.7676918044
 31
0.0
 11
6.3084537454
 21
-13.7716715699
 31
0.0
  0
SPLINE
  5
2C6
100
AcDbEntity
  8
ASSI
100
AcDbSpline
 62
253
  6
CONTINUOUS
 70
0
 71
3
 72
25
 73
21
 74
19
 42
0.0000001
 43
0.0000001
 44
0.0000000001
 12
-0.604709483
 22
-0.3899745273
 32
0.0
 13
-0.6450072096
 23
0.3189347744
 33
0.0
 40
0.0
 40
0.0
 40
0.0
 40
0.0
 40
0.0519489921
 40
0.1056337261
 40
0.1608610208
 40
0.2174103325
 40
0.2750390332
 40
0.3334872945
 40
0.392482682
 40
0.4517445493
 40
0.5109883064
 40
0.56992963
 40
0.6282886781
 40
0.6857943707
 40
0.7421888042
 40
0.7972318777
 40
0.8507062212
 40
0.9024225311
 40
0.9522254347
 40
1.0
 40
1.0
 40
1.0
 40
1.0
 10
6.7438754005
 20
-13.2978469611
 30
0.0
 10
6.7334040511
 20
-13.304599889
 30
0.0
 10
6.7116376466
 20
-13.3176083946
 30
0.0
 10
6.677328986
 20
-13.3353067906
 30
0.0
 10
6.6410322638
 20
-13.3514086753
 30
0.0
 10
6.6030117164
 20
-13.3657968143
 30
0.0
 10
6.5635417095
 20
-13.3783677162
 30
0.0
 10
6.5229080172
 20
-13.389030404
 30
0.0
 10
6.4814047988
 20
-13.3977077401
 30
0.0
 10
6.4393326715
 20
-13.4043368798
 30
0.0
 10
6.3969964106
 20
-13.4088698048
 30
0.0
 10
6.3547027043
 20
-13.4112736743
 30
0.0
 10
6.3127578701
 20
-13.4115310648
 30
0.0
 10
6.2714655691
 20
-13.4096400705
 30
0.0
 10
6.2311245731
 20
-13.4056142872
 30
0.0
 10
6.1920264378
 20
-13.3994825887
 30
0.0
 10
6.1544537104
 20
-13.3912889885
 30
0.0
 10
6.1186765345
 20
-13.3810915023
 30
0.0
 10
6.084955406
 20
-13.3689638167
 30
0.0
 10
6.0635455089
 20
-13.3594431823
 30
0.0
 10
6.0532738626
 20
-13.3543641922
 30
0.0
 11
6.7438754005
 21
-13.2978469611
 31
0.0
 11
6.7118106997
 21
-13.3170593452
 31
0.0
 11
6.6774969524
 21
-13.334800797
 31
0.0
 11
6.6411839629
 21
-13.3509421586
 31
0.0
 11
6.6031360903
 21
-13.3653659205
 31
0.0
 11
6.5636303236
 21
-13.3779670778
 31
0.0
 11
6.5229542651
 21
-13.3886538937
 31
0.0
 11
6.4814040371
 21
-13.3973485682
 31
0.0
 11
6.4392821258
 21
-13.403987804
 31
0.0
 11
6.396895179
 21
-13.4085232672
 31
0.0
 11
6.3545517743
 21
-13.4109219398
 31
0.0
 11
6.3125601722
 21
-13.4111663593
 31
0.0
 11
6.2712260721
 21
-13.4092547463
 31
0.0
 11
6.2308503866
 21
-13.4052010174
 31
0.0
 11
6.1917270512
 21
-13.3990346838
 31
0.0
 11
6.1541408843
 21
-13.3908006366
 31
0.0
 11
6.1183655136
 21
-13.3805588195
 31
0.0
 11
6.0846613842
 21
-13.3683837933
 31
0.0
 11
6.0532738626
 21
-13.3543641922
 31
0.0
  0
SPLINE
  5
2C7
100
AcDbEntity
  8
ASSI
100
AcDbSpline
 62
253
  6
CONTINUOUS
 70
0
 71
3
 72
10
 73
6
 74
4
 42
0.0000001
 43
0.0000001
 44
0.0000000001
 12
0.0500555655
 22
-3.093816266
 32
0.0
 13
0.1594497296
 23
-3.0901317943
 33
0.0
 40
0.0
 40
0.0
 40
0.0
 40
0.0
 40
0.3598065517
 40
0.7174872089
 40
1.0
 40
1.0
 40
1.0
 40
1.0
 10
6.0237675837
 20
-3.5510271883
 30
0.0
 10
6.0297710239
 20
-3.9220856423
 30
0.0
 10
6.0463358895
 20
-4.6619444521
 30
0.0
 10
6.0824129646
 20
-5.6927466787
 30
0.0
 10
6.1130601612
 20
-6.352348367
 30
0.0
 10
6.1280756906
 20
-6.643348953
 30
0.0
 11
6.0237675837
 21
-3.5510271883
 31
0.0
 11
6.0487287922
 21
-4.6640683809
 31
0.0
 11
6.0874818393
 21
-5.7701327579
 31
0.0
 11
6.1280756906
 21
-6.643348953
 31
0.0
  0
SPLINE
  5
2C8
100
AcDbEntity
  8
ASSI
100
AcDbSpline
 62
253
  6
CONTINUOUS
 70
0
 71
3
 72
14
 73
10
 74
8
 42
0.0000001
 43
0.0000001
 44
0.0000000001
 12
0.344477533
 22
-6.6759660218
 32
0.0
 13
0.8972308591
 23
-6.6243141608
 33
0.0
 40
0.0
 40
0.0
 40
0.0
 40
0.0
 40
0.033800889
 40
0.1973696782
 40
0.3599316521
 40
0.5214806867
 40
0.6820113937
 40
0.841519133
 40
1.0
 40
1.0
 40
1.0
 40
1.0
 10
6.1280756906
 20
-6.643348953
 30
0.0
 10
6.1319569062
 20
-6.7185668151
 30
0.0
 10
6.1552017811
 20
-7.157747894
 30
0.0
 10
6.2038089796
 20
-7.9583198979
 30
0.0
 10
6.2838340918
 20
-9.0420815042
 30
0.0
 10
6.3776007188
 20
-10.1179460011
 30
0.0
 10
6.4850893365
 20
-11.1856876659
 30
0.0
 10
6.6062770473
 20
-12.2450788364
 30
0.0
 10
6.6964774257
 20
-12.9479046107
 30
0.0
 10
6.7438754005
 20
-13.2978469611
 30
0.0
 11
6.1280756906
 21
-6.643348953
 31
0.0
 11
6.1400185728
 21
-6.8689868392
 31
0.0
 11
6.2063279463
 21
-7.9603991309
 31
0.0
 11
6.2863960211
 21
-9.0441398005
 31
0.0
 11
6.3802059719
 21
-10.1199806898
 31
0.0
 11
6.4877380818
 21
-11.1876952359
 31
0.0
 11
6.6089697373
 21
-12.2470584898
 31
0.0
 11
6.7438754005
 21
-13.2978469611
 31
0.0
  0
SPLINE
  5
2C9
100
AcDbEntity
  8
ASSI
100
AcDbSpline
 62
253
  6
CONTINUOUS
 70
0
 71
3
 72
16
 73
12
 74
10
 42
0.0000001
 43
0.0000001
 44
0.0000000001
 12
0.159049173
 22
-9.8322873465
 32
0.0
 13
1.3196312823
 23
-9.7446264363
 33
0.0
 40
0.0
 40
0.0
 40
0.0
 40
0.0
 40
0.113848609
 40
0.2270243491
 40
0.33952156
 40
0.4513350501
 40
0.562460123
 40
0.672892586
 40
0.7826287491
 40
0.8916654339
 40
1.0
 40
1.0
 40
1.0
 40
1.0
 10
5.3292788353
 20
-3.5531607884
 30
0.0
 10
5.3353146776
 20
-3.9262915343
 30
0.0
 10
5.3519689539
 20
-4.6702816806
 30
0.0
 10
5.3908894817
 20
-5.7825327249
 30
0.0
 10
5.4436675386
 20
-6.887536326
 30
0.0
 10
5.5102920624
 20
-7.9850575566
 30
0.0
 10
5.5907491368
 20
-9.0748660207
 30
0.0
 10
5.6850219005
 20
-10.1567319636
 30
0.0
 10
5.793090723
 20
-11.2304284037
 30
0.0
 10
5.9149326
 20
-12.2957265249
 30
0.0
 10
6.0056199624
 20
-13.002470904
 30
0.0
 10
6.0532738565
 20
-13.3543641963
 30
0.0
 11
5.3292788353
 21
-3.5531607884
 31
0.0
 11
5.3543747987
 21
-4.6724181569
 31
0.0
 11
5.3933370392
 21
-5.7846579117
 31
0.0
 11
5.4461573693
 21
-6.8896457917
 31
0.0
 11
5.5128246829
 21
-7.9871490108
 31
0.0
 11
5.5933249659
 21
-9.076936454
 31
0.0
 11
5.6876413024
 21
-10.1587786901
 31
0.0
 11
5.7957538688
 21
-11.2324478928
 31
0.0
 11
5.9176399299
 21
-12.2977178584
 31
0.0
 11
6.0532738565
 21
-13.3543641963
 31
0.0
  0
SPLINE
  5
2CA
100
AcDbEntity
  8
ASSI
100
AcDbSpline
 62
253
  6
CONTINUOUS
 70
0
 71
3
 72
25
 73
21
 74
19
 42
0.0000001
 43
0.0000001
 44
0.0000000001
 12
-0.6423647763
 22
-0.3139711931
 32
0.0
 13
-0.6397108624
 23
0.3193437466
 33
0.0
 40
0.0
 40
0.0
 40
0.0
 40
0.0
 40
0.0496825043
 40
0.1014998182
 40
0.1552483517
 40
0.2106923844
 40
0.2675699993
 40
0.3255983861
 40
0.3844786963
 40
0.4439005886
 40
0.5035465721
 40
0.5630962312
 40
0.6222304052
 40
0.6806353868
 40
0.7380072088
 40
0.7940560977
 40
0.8485111903
 40
0.9011256391
 40
0.9516822694
 40
1.0
 40
1.0
 40
1.0
 40
1.0
 10
6.0237675837
 20
-3.5510271883
 30
0.0
 10
6.0131294868
 20
-3.5562268133
 30
0.0
 10
5.9910345517
 20
-3.5661219055
 30
0.0
 10
5.9564022565
 20
-3.5792001675
 30
0.0
 10
5.9197891807
 20
-3.5907518954
 30
0.0
 10
5.8814612912
 20
-3.600692923
 30
0.0
 10
5.8416947983
 20
-3.6089516648
 30
0.0
 10
5.8007773986
 20
-3.615468215
 30
0.0
 10
5.7590051802
 20
-3.620195316
 30
0.0
 10
5.7166806628
 20
-3.6230986375
 30
0.0
 10
5.6741104645
 20
-3.624157094
 30
0.0
 10
5.6316030332
 20
-3.6233630069
 30
0.0
 10
5.5894663438
 20
-3.6207221662
 30
0.0
 10
5.548005596
 20
-3.6162537757
 30
0.0
 10
5.5075209561
 20
-3.609990299
 30
0.0
 10
5.4683052281
 20
-3.6019771389
 30
0.0
 10
5.4306419418
 20
-3.5922723724
 30
0.0
 10
5.3948021853
 20
-3.5809457103
 30
0.0
 10
5.3610462211
 20
-3.5680795723
 30
0.0
 10
5.3395819611
 20
-3.5583041101
 30
0.0
 10
5.3292788353
 20
-3.5531607884
 30
0.0
 11
6.0237675837
 21
-3.5510271883
 31
0.0
 11
5.9913681336
 21
-3.5655916138
 31
0.0
 11
5.9567231959
 21
-3.578719662
 31
0.0
 11
5.9200848602
 21
-3.5903158083
 31
0.0
 11
5.8817197208
 21
-3.6002956748
 31
0.0
 11
5.8419069369
 21
-3.6085866441
 31
0.0
 11
5.8009362011
 21
-3.6151283882
 31
0.0
 11
5.7591056321
 21
-3.6198733067
 31
0.0
 11
5.7167196048
 21
-3.6227868739
 31
0.0
 11
5.6740865357
 21
-3.6238478896
 31
0.0
 11
5.6315166392
 21
-3.6230486335
 31
0.0
 11
5.5893196698
 21
-3.6203949211
 31
0.0
 11
5.5478026684
 21
-3.615906062
 31
0.0
 11
5.5072677285
 21
-3.6096147187
 31
0.0
 11
5.4680097974
 21
-3.6015666695
 31
0.0
 11
5.4303145307
 21
-3.5918204749
 31
0.0
 11
5.3944562132
 21
-3.580447052
 31
0.0
 11
5.3606957635
 21
-3.567529158
 31
0.0
 11
5.3292788353
 21
-3.5531607884
 31
0.0
  0
SPLINE
  5
2CB
100
AcDbEntity
  8
ASSI
100
AcDbSpline
 62
253
  6
CONTINUOUS
 70
0
 71
3
 72
25
 73
21
 74
19
 42
0.0000001
 43
0.0000001
 44
0.0000000001
 12
-0.6460963923
 22
-0.3048847509
 32
0.0
 13
-0.6390010858
 23
0.3194884534
 33
0.0
 40
0.0
 40
0.0
 40
0.0
 40
0.0
 40
0.0494328262
 40
0.1010447089
 40
0.1546315361
 40
0.2099543778
 40
0.2667494203
 40
0.3247313615
 40
0.3835981563
 40
0.4430362134
 40
0.5027246367
 40
0.5623391465
 40
0.6215564156
 40
0.6800584166
 40
0.7375363898
 40
0.7936951737
 40
0.8482585284
 40
0.9009740369
 40
0.9516168911
 40
1.0
 40
1.0
 40
1.0
 40
1.0
 10
5.9578987336
 20
4.2947931899
 30
0.0
 10
5.94725261
 20
4.2897694182
 30
0.0
 10
5.9251425094
 20
4.2802266833
 30
0.0
 10
5.8905059099
 20
4.2676693316
 30
0.0
 10
5.8538885888
 20
4.2566310419
 30
0.0
 10
5.8155564387
 20
4.2471923792
 30
0.0
 10
5.775785874
 20
4.2394213536
 30
0.0
 10
5.7348645563
 20
4.2333743731
 30
0.0
 10
5.693088652
 20
4.2290953232
 30
0.0
 10
5.6507607666
 20
4.2266153068
 30
0.0
 10
5.6081875544
 20
4.2259523475
 30
0.0
 10
5.5656775054
 20
4.2271112615
 30
0.0
 10
5.5235386353
 20
4.2300836112
 30
0.0
 10
5.4820761784
 20
4.2348477828
 30
0.0
 10
5.4415903836
 20
4.2413691496
 30
0.0
 10
5.4023741307
 20
4.2496004003
 30
0.0
 10
5.3647109186
 20
4.2594818427
 30
0.0
 10
5.32887205
 20
4.2709423792
 30
0.0
 10
5.2951176848
 20
4.2838985049
 30
0.0
 10
5.273650305
 20
4.2937071528
 30
0.0
 10
5.2633446853
 20
4.2988597676
 30
0.0
 11
5.9578987336
 21
4.2947931899
 31
0.0
 11
5.9254940646
 21
4.2807524818
 31
0.0
 11
5.8908439552
 21
4.26814479
 31
0.0
 11
5.8541998738
 21
4.2570616584
 31
0.0
 11
5.815829324
 21
4.2475840418
 31
0.0
 11
5.77601124
 21
4.2397808142
 31
0.0
 11
5.7350352633
 21
4.2337087496
 31
0.0
 11
5.693199741
 21
4.2294120621
 31
0.0
 11
5.6508091031
 21
4.2269220085
 31
0.0
 11
5.6081717184
 21
4.2262566977
 31
0.0
 11
5.5655978653
 21
4.2274209706
 31
0.0
 11
5.5233973571
 21
4.2304063499
 31
0.0
 11
5.4818771734
 21
4.2351911181
 31
0.0
 11
5.4413394404
 21
4.2417404626
 31
0.0
 11
5.4020792998
 21
4.2500066906
 31
0.0
 11
5.364382313
 21
4.2599296626
 31
0.0
 11
5.3285225124
 21
4.2714372583
 31
0.0
 11
5.2947616324
 21
4.2844454494
 31
0.0
 11
5.2633446853
 21
4.2988597676
 31
0.0
  0
SPLINE
  5
2CC
100
AcDbEntity
  8
ASSI
100
AcDbSpline
 62
253
  6
CONTINUOUS
 70
0
 71
3
 72
22
 73
18
 74
16
 42
0.0000001
 43
0.0000001
 44
0.0000000001
 12
-0.0002381892
 22
0.366577057
 32
0.0
 13
0.3264689291
 23
0.1667238248
 33
0.0
 40
0.0
 40
0.0
 40
0.0
 40
0.0
 40
0.0627686184
 40
0.1278905402
 40
0.1950351199
 40
0.2638167614
 40
0.333808161
 40
0.4045526051
 40
0.4755756292
 40
0.5463963039
 40
0.6165383904
 40
0.68554159
 40
0.7529731272
 40
0.8184399262
 40
0.8816016825
 40
0.9421851581
 40
1.0
 40
1.0
 40
1.0
 40
1.0
 10
-9.5408010388
 20
11.7009326298
 30
0.0
 10
-9.5408060224
 20
11.708602475
 30
0.0
 10
-9.5401388016
 20
11.7242362291
 30
0.0
 10
-9.5372595518
 20
11.7479148866
 30
0.0
 10
-9.5325138533
 20
11.7720402378
 30
0.0
 10
-9.5259531386
 20
11.7963512902
 30
0.0
 10
-9.5176481532
 20
11.8205876463
 30
0.0
 10
-9.5076883393
 20
11.8444885394
 30
0.0
 10
-9.4961809228
 20
11.867796855
 30
0.0
 10
-9.4832497636
 20
11.8902617116
 30
0.0
 10
-9.4690339709
 20
11.9116413413
 30
0.0
 10
-9.4536863501
 20
11.9317057272
 30
0.0
 10
-9.4373715261
 20
11.9502391774
 30
0.0
 10
-9.4202643652
 20
11.967042445
 30
0.0
 10
-9.402546541
 20
11.9819354434
 30
0.0
 10
-9.3844089855
 20
11.9947565805
 30
0.0
 10
-9.3718586305
 20
12.0020069344
 30
0.0
 10
-9.3655670474
 20
12.0052199716
 30
0.0
 11
-9.5408010388
 21
11.7009326298
 31
0.0
 11
-9.5398570096
 21
11.7239227963
 31
0.0
 11
-9.5370059085
 21
11.7476241361
 31
0.0
 11
-9.5322786584
 21
11.7717795856
 31
0.0
 11
-9.5257265309
 21
11.7961271559
 31
0.0
 11
-9.5174205901
 21
11.8204027745
 31
0.0
 11
-9.5074509217
 21
11.844343149
 31
0.0
 11
-9.4959256565
 21
11.8676886235
 31
0.0
 11
-9.4829697967
 21
11.890185994
 31
0.0
 11
-9.4687238612
 21
11.9115912553
 31
0.0
 11
-9.4533423606
 21
11.9316722468
 31
0.0
 11
-9.4369921219
 21
11.9502111712
 31
0.0
 11
-9.419850479
 21
11.9670069563
 31
0.0
 11
-9.4021033494
 21
11.9818774358
 31
0.0
 11
-9.3839432176
 21
11.9946613254
 31
0.0
 11
-9.3655670474
 21
12.0052199716
 31
0.0
  0
SPLINE
  5
2CD
100
AcDbEntity
  8
ASSI
100
AcDbSpline
 62
253
  6
CONTINUOUS
 70
0
 71
3
 72
22
 73
18
 74
16
 42
0.0000001
 43
0.0000001
 44
0.0000000001
 12
-0.000238189
 22
0.366577057
 32
0.0
 13
0.326468929
 23
0.166723825
 33
0.0
 40
0.0
 40
0.0
 40
0.0
 40
0.0
 40
0.0627686171
 40
0.1278905369
 40
0.1950351148
 40
0.2638167547
 40
0.3338081528
 40
0.4045525959
 40
0.4755756192
 40
0.5463962937
 40
0.6165383804
 40
0.6855415807
 40
0.7529731191
 40
0.8184399196
 40
0.8816016779
 40
0.9421851557
 40
1.0
 40
1.0
 40
1.0
 40
1.0
 10
5.2633459793
 20
4.2988591208
 30
0.0
 10
5.2633409957
 20
4.3065289658
 30
0.0
 10
5.2640082164
 20
4.3221627195
 30
0.0
 10
5.2668874661
 20
4.3458413764
 30
0.0
 10
5.2716331643
 20
4.369966727
 30
0.0
 10
5.2781938788
 20
4.3942777788
 30
0.0
 10
5.2864988638
 20
4.4185141345
 30
0.0
 10
5.2964586774
 20
4.4424150273
 30
0.0
 10
5.3079660936
 20
4.4657233428
 30
0.0
 10
5.3208972526
 20
4.4881881994
 30
0.0
 10
5.3351130451
 20
4.5095678293
 30
0.0
 10
5.3504606658
 20
4.5296322156
 30
0.0
 10
5.3667754899
 20
4.5481656662
 30
0.0
 10
5.3838826511
 20
4.5649689344
 30
0.0
 10
5.4016004757
 20
4.5798619334
 30
0.0
 10
5.4197380318
 20
4.592683071
 30
0.0
 10
5.4322883872
 20
4.5999334253
 30
0.0
 10
5.4385799707
 20
4.6031464626
 30
0.0
 11
5.2633459793
 21
4.2988591208
 31
0.0
 11
5.2642900084
 21
4.3218492868
 31
0.0
 11
5.2671411094
 21
4.3455506259
 31
0.0
 11
5.2718683592
 21
4.3697060748
 31
0.0
 11
5.2784204864
 21
4.3940536445
 31
0.0
 11
5.2867264269
 21
4.4183292626
 31
0.0
 11
5.2966960949
 21
4.4422696369
 31
0.0
 11
5.3082213599
 21
4.4656151112
 31
0.0
 11
5.3211772194
 21
4.4881124818
 31
0.0
 11
5.3354231548
 21
4.5095177432
 31
0.0
 11
5.3508046554
 21
4.5295987351
 31
0.0
 11
5.3671548941
 21
4.54813766
 31
0.0
 11
5.3842965372
 21
4.5649334456
 31
0.0
 11
5.4020436673
 21
4.5798039258
 31
0.0
 11
5.4202037997
 21
4.5925878159
 31
0.0
 11
5.4385799707
 21
4.6031464626
 31
0.0
  0
SPLINE
  5
2CE
100
AcDbEntity
  8
ASSI
100
AcDbSpline
 62
253
  6
CONTINUOUS
 70
0
 71
3
 72
22
 73
18
 74
16
 42
0.0000001
 43
0.0000001
 44
0.0000000001
 12
-0.0027087752
 22
0.3665121304
 32
0.0
 13
-0.322967055
 23
0.1732938562
 33
0.0
 40
0.0
 40
0.0
 40
0.0
 40
0.0
 40
0.0629566414
 40
0.1283834588
 40
0.195913743
 40
0.2651259748
 40
0.3355575138
 40
0.4067172398
 40
0.4780975125
 40
0.5491857568
 40
0.6194759385
 40
0.6884801858
 40
0.7557408241
 40
0.8208431402
 40
0.8834292511
 40
0.9432135227
 40
1.0
 40
1.0
 40
1.0
 40
1.0
 10
5.957897331
 20
4.294792528
 30
0.0
 10
5.9578404858
 20
4.3024839856
 30
0.0
 10
5.9570659463
 20
4.3181694243
 30
0.0
 10
5.9540829308
 20
4.3419382999
 30
0.0
 10
5.9492873815
 20
4.366188124
 30
0.0
 10
5.9427316137
 20
4.3906540819
 30
0.0
 10
5.9344868916
 20
4.415071405
 30
0.0
 10
5.9246428251
 20
4.4391747228
 30
0.0
 10
5.9133064199
 20
4.4627021206
 30
0.0
 10
5.9006009101
 20
4.4853978273
 30
0.0
 10
5.8866643556
 20
4.5070151835
 30
0.0
 10
5.8716480735
 20
4.5273193703
 30
0.0
 10
5.8557147421
 20
4.546090078
 30
0.0
 10
5.8390368045
 20
4.5631237028
 30
0.0
 10
5.8217929723
 20
4.5782361905
 30
0.0
 10
5.8041706608
 20
4.5912622721
 30
0.0
 10
5.79196848
 20
4.5986582745
 30
0.0
 10
5.7858550928
 20
4.6019385237
 30
0.0
 11
5.957897331
 21
4.294792528
 31
0.0
 11
5.9567970319
 21
4.3178412829
 31
0.0
 11
5.9538414776
 21
4.3416388287
 31
0.0
 11
5.9490630371
 21
4.3659245354
 31
0.0
 11
5.9425140438
 21
4.3904324268
 31
0.0
 11
5.9342662222
 21
4.4148940933
 31
0.0
 11
5.924409902
 21
4.4390416314
 31
0.0
 11
5.9130530295
 21
4.4626105782
 31
0.0
 11
5.9003199848
 21
4.4853428074
 31
0.0
 11
5.8863502196
 21
4.5069893564
 31
0.0
 11
5.8712967306
 21
4.527313153
 31
0.0
 11
5.8553243829
 21
4.5460916117
 31
0.0
 11
5.8386081052
 21
4.5631190716
 31
0.0
 11
5.8213309736
 21
4.5782090485
 31
0.0
 11
5.8036822066
 21
4.5911962778
 31
0.0
 11
5.7858550928
 21
4.6019385237
 31
0.0
  0
SPLINE
  5
2CF
100
AcDbEntity
  8
CURVE
100
AcDbSpline
 62
253
  6
CONTINUOUS
 70
0
 71
3
 72
17
 73
13
 74
11
 42
0.0000001
 43
0.0000001
 44
0.0000000001
 12
-0.2637180263
 22
0.4355958685
 32
0.0
 13
0.3606414748
 23
-0.1803207374
 33
0.0
 40
0.0
 40
0.0
 40
0.0
 40
0.0
 40
0.1
 40
0.2
 40
0.3
 40
0.4
 40
0.5
 40
0.6
 40
0.7
 40
0.8
 40
0.9
 40
1.0
 40
1.0
 40
1.0
 40
1.0
 10
-4.2712373336
 20
0.1104925949
 30
0.0
 10
-4.2800279344
 20
0.1250124572
 30
0.0
 10
-4.2942496529
 20
0.1532373304
 30
0.0
 10
-4.3090248543
 20
0.1965253363
 30
0.0
 10
-4.3165609741
 20
0.2397049561
 30
0.0
 10
-4.3161645924
 20
0.2792874628
 30
0.0
 10
-4.3081257805
 20
0.3132509708
 30
0.0
 10
-4.2929081598
 20
0.3401426132
 30
0.0
 10
-4.271120793
 20
0.3586403497
 30
0.0
 10
-4.2437583001
 20
0.3674219151
 30
0.0
 10
-4.2130674332
 20
0.3658903693
 30
0.0
 10
-4.1909900812
 20
0.3583171715
 30
0.0
 10
-4.1789686987
 20
0.3523064802
 30
0.0
 11
-4.2712373336
 21
0.1104925949
 31
0.0
 11
-4.2931567569
 21
0.1533957798
 31
0.0
 11
-4.3078183407
 21
0.196507272
 31
0.0
 11
-4.3152388905
 21
0.2391054372
 31
0.0
 11
-4.314890854
 21
0.278350963
 31
0.0
 11
-4.3069293124
 21
0.3120723265
 31
0.0
 11
-4.2918132021
 21
0.3387436289
 31
0.0
 11
-4.2701916053
 21
0.3570209879
 31
0.0
 11
-4.2432035711
 21
0.3657030633
 31
0.0
 11
-4.2126632397
 21
0.3642523275
 31
0.0
 11
-4.1789686987
 21
0.3523064802
 31
0.0
  0
SPLINE
  5
2D0
100
AcDbEntity
  8
CURVE
100
AcDbSpline
 62
253
  6
CONTINUOUS
 70
0
 71
3
 72
15
 73
11
 74
9
 42
0.0000001
 43
0.0000001
 44
0.0000000001
 12
-0.1541249968
 22
-0.1142043069
 32
0.0
 13
-0.1763990409
 23
0.279466159
 33
0.0
 40
0.0
 40
0.0
 40
0.0
 40
0.0
 40
0.125
 40
0.25
 40
0.375
 40
0.5
 40
0.625
 40
0.75
 40
0.875
 40
1.0
 40
1.0
 40
1.0
 40
1.0
 10
-1.8424865179
 20
-3.5945285522
 30
0.0
 10
-1.8489083927
 20
-3.599287065
 30
0.0
 10
-1.8624844597
 20
-3.6059580654
 30
0.0
 10
-1.8859243463
 20
-3.6092686712
 30
0.0
 10
-1.9121175572
 20
-3.6055500978
 30
0.0
 10
-1.9396200991
 20
-3.5949316521
 30
0.0
 10
-1.9674913655
 20
-3.5778631866
 30
0.0
 10
-1.9947868418
 20
-3.5548374072
 30
0.0
 10
-2.0199886209
 20
-3.5272059692
 30
0.0
 10
-2.0351365578
 20
-3.5061729755
 30
0.0
 10
-2.0424865179
 20
-3.4945285522
 30
0.0
 11
-1.8424865179
 21
-3.5945285522
 31
0.0
 11
-1.8629970908
 21
-3.604842083
 31
0.0
 11
-1.8863832337
 21
-3.6080971414
 31
0.0
 11
-1.912335779
 21
-3.6044001191
 31
0.0
 11
-1.9396815531
 21
-3.5938566488
 31
0.0
 11
-1.9673954005
 21
-3.576870301
 31
0.0
 11
-1.9944378923
 21
-3.5540697974
 31
0.0
 11
-2.0195753086
 21
-3.5265529604
 31
0.0
 11
-2.0424865179
 21
-3.4945285522
 31
0.0
  0
SPLINE
  5
2D1
100
AcDbEntity
  8
CURVE
100
AcDbSpline
 62
253
  6
CONTINUOUS
 70
0
 71
3
 72
17
 73
13
 74
11
 42
0.0000001
 43
0.0000001
 44
0.0000000001
 12
0.360646459
 22
-0.1803232295
 32
0.0
 13
-0.2464088584
 23
-0.1805282193
 33
0.0
 40
0.0
 40
0.0
 40
0.0
 40
0.0
 40
0.1
 40
0.2
 40
0.3
 40
0.4
 40
0.5
 40
0.6
 40
0.7
 40
0.8
 40
0.9
 40
1.0
 40
1.0
 40
1.0
 40
1.0
 10
0.0636719884
 20
-1.7690138634
 30
0.0
 10
0.0756935371
 20
-1.7750246377
 30
0.0
 10
0.0979457868
 20
-1.7896163343
 30
0.0
 10
0.1293360289
 20
-1.8191256783
 30
0.0
 10
0.1578450515
 20
-1.8558437905
 30
0.0
 10
0.1811497382
 20
-1.8968885649
 30
0.0
 10
0.1981732472
 20
-1.9399011636
 30
0.0
 10
0.2082318764
 20
-1.9829135041
 30
0.0
 10
0.2107793796
 20
-2.0239671618
 30
0.0
 10
0.2054112006
 20
-2.0606936702
 30
0.0
 10
0.1926424181
 20
-2.0902091381
 30
0.0
 10
0.1796169822
 20
-2.1048101414
 30
0.0
 10
0.1714033536
 20
-2.1108277487
 30
0.0
 11
0.0636719884
 21
-1.7690138634
 31
0.0
 11
0.0976144314
 21
-1.7908866341
 31
0.0
 11
0.1288558257
 21
-1.8203271397
 31
0.0
 11
0.1569776622
 21
-1.8565649009
 31
0.0
 11
0.1801028753
 21
-1.8972165356
 31
0.0
 11
0.1970124339
 21
-1.9399011206
 31
0.0
 11
0.206980022
 21
-1.982587057
 31
0.0
 11
0.2094600992
 21
-2.0232459702
 31
0.0
 11
0.2041777667
 21
-2.0594918301
 31
0.0
 11
0.1915141895
 21
-2.0889401443
 31
0.0
 11
0.1714033536
 21
-2.1108277487
 31
0.0
  0
SPLINE
  5
2D2
100
AcDbEntity
  8
CURVE
100
AcDbSpline
 62
253
  6
CONTINUOUS
 70
0
 71
3
 72
23
 73
19
 74
17
 42
0.0000001
 43
0.0000001
 44
0.0000000001
 12
-0.3386905057
 22
0.5514897188
 32
0.0
 13
0.3364026017
 23
-0.5499295563
 33
0.0
 40
0.0
 40
0.0
 40
0.0
 40
0.0
 40
0.0416666667
 40
0.0833333333
 40
0.125
 40
0.1666666667
 40
0.25
 40
0.3333333333
 40
0.4166666667
 40
0.5
 40
0.5833333333
 40
0.6666666667
 40
0.75
 40
0.8333333333
 40
0.875
 40
0.9166666667
 40
0.9583333333
 40
1.0
 40
1.0
 40
1.0
 40
1.0
 10
-4.4193609648
 20
-0.6725565588
 30
0.0
 10
-4.4240649996
 20
-0.6648969793
 30
0.0
 10
-4.4326482419
 20
-0.6495742996
 30
0.0
 10
-4.4436387732
 20
-0.6258469758
 30
0.0
 10
-4.4526121624
 20
-0.6015718044
 30
0.0
 10
-4.4615688163
 20
-0.5693184651
 30
0.0
 10
-4.4668903075
 20
-0.5301273805
 30
0.0
 10
-4.4634759706
 20
-0.4881522789
 30
0.0
 10
-4.4505915599
 20
-0.454021845
 30
0.0
 10
-4.429149761
 20
-0.4299306689
 30
0.0
 10
-4.4005381192
 20
-0.4174674453
 30
0.0
 10
-4.3667422695
 20
-0.4175280421
 30
0.0
 10
-4.3300081609
 20
-0.4301185454
 30
0.0
 10
-4.2990406145
 20
-0.450367303
 30
0.0
 10
-4.275288974
 20
-0.4716134382
 30
0.0
 10
-4.2582580741
 20
-0.4898406671
 30
0.0
 10
-4.2424390303
 20
-0.5098957237
 30
0.0
 10
-4.2327811282
 20
-0.5243436265
 30
0.0
 10
-4.2281088699
 20
-0.531981537
 30
0.0
 11
-4.4193609648
 21
-0.6725565588
 31
0.0
 11
-4.4323341865
 21
-0.6494504156
 31
0.0
 11
-4.4433025828
 21
-0.6257556679
 31
0.0
 11
-4.4522361792
 21
-0.6015859989
 31
0.0
 11
-4.458938031
 21
-0.5774568392
 31
0.0
 11
-4.4652569531
 21
-0.5309697472
 31
0.0
 11
-4.461897625
 21
-0.4894597235
 31
0.0
 11
-4.4491653286
 21
-0.4556950546
 31
0.0
 11
-4.4279547872
 21
-0.431868661
 31
0.0
 11
-4.3996740845
 21
-0.4195547487
 31
0.0
 11
-4.3662525597
 21
-0.4196163599
 31
0.0
 11
-4.3299370031
 21
-0.4320698797
 31
0.0
 11
-4.2931879041
 21
-0.4560994309
 31
0.0
 11
-4.2754194457
 21
-0.4719955428
 31
0.0
 11
-4.2584600501
 21
-0.490145305
 31
0.0
 11
-4.2426610621
 21
-0.51016519
 31
0.0
 11
-4.2281088699
 21
-0.531981537
 31
0.0
  0
SPLINE
  5
2D3
100
AcDbEntity
  8
CURVE
100
AcDbSpline
 62
253
  6
CONTINUOUS
 70
0
 71
3
 72
15
 73
11
 74
9
 42
0.0000001
 43
0.0000001
 44
0.0000000001
 12
-0.1518075303
 22
-0.1130551781
 32
0.0
 13
-0.1788019688
 23
0.2783597554
 33
0.0
 40
0.0
 40
0.0
 40
0.0
 40
0.0
 40
0.125
 40
0.25
 40
0.375
 40
0.5
 40
0.625
 40
0.75
 40
0.875
 40
1.0
 40
1.0
 40
1.0
 40
1.0
 10
-1.7754212345
 20
-4.6632662947
 30
0.0
 10
-1.7817465482
 20
-4.6679769272
 30
0.0
 10
-1.7951606497
 20
-4.6745659656
 30
0.0
 10
-1.8184185004
 20
-4.6777815369
 30
0.0
 10
-1.844492704
 20
-4.674003455
 30
0.0
 10
-1.8719512382
 20
-4.6633671727
 30
0.0
 10
-1.8998555824
 20
-4.6463220085
 30
0.0
 10
-1.9272628181
 20
-4.6233593613
 30
0.0
 10
-1.9526530219
 20
-4.5958197632
 30
0.0
 10
-1.9679711524
 20
-4.5748646179
 30
0.0
 10
-1.9754212345
 20
-4.5632662947
 30
0.0
 11
-1.7754212345
 21
-4.6632662947
 31
0.0
 11
-1.7956834327
 21
-4.6734546345
 31
0.0
 11
-1.8188878925
 21
-4.6766159281
 31
0.0
 11
-1.8447234258
 21
-4.6728604216
 31
0.0
 11
-1.8720255399
 21
-4.6622990257
 31
0.0
 11
-1.899772731
 21
-4.6453357613
 31
0.0
 11
-1.9269266461
 21
-4.6225965361
 31
0.0
 11
-1.9522508539
 21
-4.5951709099
 31
0.0
 11
-1.9754212345
 21
-4.5632662947
 31
0.0
  0
SPLINE
  5
2D4
100
AcDbEntity
  8
CURVE
100
AcDbSpline
 62
253
  6
CONTINUOUS
 70
0
 71
3
 72
21
 73
17
 74
15
 42
0.0000001
 43
0.0000001
 44
0.0000000001
 12
0.3244611268
 22
0.2383615053
 32
0.0
 13
-0.3190752098
 23
-0.2346519664
 33
0.0
 40
0.0
 40
0.0
 40
0.0
 40
0.0
 40
0.0714285714
 40
0.1428571429
 40
0.2142857143
 40
0.2857142857
 40
0.3571428571
 40
0.4285714286
 40
0.5
 40
0.5714285714
 40
0.6428571429
 40
0.7142857143
 40
0.7857142857
 40
0.8571428571
 40
0.9285714286
 40
1.0
 40
1.0
 40
1.0
 40
1.0
 10
0.1680852078
 20
-2.7300785759
 30
0.0
 10
0.1758104727
 20
-2.7244033019
 30
0.0
 10
0.1920743317
 20
-2.7170286125
 30
0.0
 10
0.2203090701
 20
-2.7148551489
 30
0.0
 10
0.2525647358
 20
-2.7225538519
 30
0.0
 10
0.2856596387
 20
-2.7399783093
 30
0.0
 10
0.3166240922
 20
-2.7646826798
 30
0.0
 10
0.3453046414
 20
-2.795808214
 30
0.0
 10
0.3706585449
 20
-2.8324222176
 30
0.0
 10
0.3910525023
 20
-2.8723005027
 30
0.0
 10
0.4054476802
 20
-2.9130028277
 30
0.0
 10
0.4134848665
 20
-2.9531068094
 30
0.0
 10
0.4147472152
 20
-2.9909144389
 30
0.0
 10
0.4089853367
 20
-3.0245261971
 30
0.0
 10
0.3966634379
 20
-3.0516064895
 30
0.0
 10
0.3844301417
 20
-3.065066646
 30
0.0
 10
0.3768331129
 20
-3.0706535976
 30
0.0
 11
0.1680852078
 21
-2.7300785759
 31
0.0
 11
0.1927141567
 21
-2.7185100409
 31
0.0
 11
0.2209792246
 21
-2.71650051
 31
0.0
 11
0.2527046087
 21
-2.724174811
 31
0.0
 11
0.2853045638
 21
-2.7411916281
 31
0.0
 11
0.3162434415
 21
-2.7657528737
 31
0.0
 11
0.3447502005
 21
-2.7967229589
 31
0.0
 11
0.3698318872
 21
-2.8329662645
 31
0.0
 11
0.3900527057
 21
-2.8724378427
 31
0.0
 11
0.404388015
 21
-2.9129031038
 31
0.0
 11
0.4123557269
 21
-2.9527240841
 31
0.0
 11
0.4135765107
 21
-2.990215127
 31
0.0
 11
0.407892
 21
-3.0234376195
 31
0.0
 11
0.3956587637
 21
-3.0504581466
 31
0.0
 11
0.3768331129
 21
-3.0706535976
 31
0.0
  0
ELLIPSE
  5
2D5
100
AcDbEntity
  8
RACCORDO
100
AcDbEllipse
 62
7
  6
CONTINUOUS
 10
-5.815686917
 20
13.9101327934
 30
0.0
 11
-0.1119858744
 21
0.2236318019
 31
0.0
 40
0.6122594231
 41
-0.6852493493
 42
0.0223275232
  0
ELLIPSE
  5
2D6
100
AcDbEntity
  8
RACCORDO
100
AcDbEllipse
 62
7
  6
CONTINUOUS
 10
9.5990254064
 20
6.2027766317
 30
0.0
 11
-0.1119259236
 21
0.2235783474
 31
0.0
 40
0.6126250184
 41
-2.2559124555
 42
-0.6854206804
  0
ELLIPSE
  5
2D7
100
AcDbEntity
  8
0
100
AcDbEllipse
 62
7
  6
CONTINUOUS
 10
8.8709033801
 20
-12.4639530231
 30
0.0
 11
-0.1826272431
 21
0.4654700168
 31
0.0
 40
0.6543766329
 41
-3.1348682827
 42
-2.2008763123
  0
ELLIPSE
  5
2D8
100
AcDbEntity
  8
ASSI
100
AcDbEllipse
 62
7
  6
CONTINUOUS
 10
-5.815686917
 20
13.9101327934
 30
0.0
 11
-0.1119858744
 21
0.2236318019
 31
0.0
 40
0.6122594231
 41
-0.6852493493
 42
0.0223275232
  0
ELLIPSE
  5
2D9
100
AcDbEntity
  8
ASSI
100
AcDbEllipse
 62
7
  6
CONTINUOUS
 10
9.5990254064
 20
6.2027766317
 30
0.0
 11
-0.1119259236
 21
0.2235783474
 31
0.0
 40
0.6126250184
 41
-2.2559124555
 42
-0.6854206804
  0
ELLIPSE
  5
2DA
100
AcDbEntity
  8
ASSI
100
AcDbEllipse
 62
7
  6
CONTINUOUS
 10
8.8709033801
 20
-12.4639530231
 30
0.0
 11
-0.1826272431
 21
0.4654700168
 31
0.0
 40
0.6543766329
 41
-3.1348682827
 42
-2.2008763123
  0
ELLIPSE
  5
2DB
100
AcDbEntity
  8
CURVE
100
AcDbEllipse
 62
253
  6
CONTINUOUS
 10
57.5741039829
 20
35.4334523985
 30
0.0
 11
-66.7612259932
 21
108.0219327877
 31
0.0
 40
0.5587454355
 41
1.5550192829
 42
1.5830216252
  0
ELLIPSE
  5
2DC
100
AcDbEntity
  8
CURVE
100
AcDbEllipse
 62
253
  6
CONTINUOUS
 10
65.5321061365
 20
31.4544513217
 30
0.0
 11
89.8859912315
 21
55.5525976935
 31
0.0
 40
0.0815198604
 41
2.3404174463
 42
2.3684197886
  0
ELLIPSE
  5
2DD
100
AcDbEntity
  8
CURVE
100
AcDbEllipse
 62
253
  6
CONTINUOUS
 10
57.1741039829
 20
35.6334523985
 30
0.0
 11
-66.7612259932
 21
108.0219327877
 31
0.0
 40
0.5587454355
 41
1.5543680274
 42
1.5877456283
  0
ELLIPSE
  5
2DE
100
AcDbEntity
  8
CURVE
100
AcDbEllipse
 62
253
  6
CONTINUOUS
 10
65.9321061365
 20
31.2544513217
 30
0.0
 11
89.8859912315
 21
55.5525976935
 31
0.0
 40
0.0815198604
 41
2.3397661908
 42
2.3731437917
  0
ELLIPSE
  5
2DF
100
AcDbEntity
  8
CURVE
100
AcDbEllipse
 62
253
  6
CONTINUOUS
 10
56.6741039829
 20
35.8834523985
 30
0.0
 11
-66.7612259932
 21
108.0219327877
 31
0.0
 40
0.5587454355
 41
1.5625956591
 42
1.5971982547
  0
ELLIPSE
  5
2E0
100
AcDbEntity
  8
CURVE
100
AcDbEllipse
 62
253
  6
CONTINUOUS
 10
56.2741039829
 20
36.0834523985
 30
0.0
 11
-66.7612259932
 21
108.0219327877
 31
0.0
 40
0.5587454355
 41
1.565741362
 42
1.6019270925
  0
ELLIPSE
  5
2E1
100
AcDbEntity
  8
CURVE
100
AcDbEllipse
 62
253
  6
CONTINUOUS
 10
66.8321061365
 20
30.8044513217
 30
0.0
 11
89.8859912315
 21
55.5525976935
 31
0.0
 40
0.0815198604
 41
8.6343248326
 42
8.6705105631
  0
ELLIPSE
  5
2E2
100
AcDbEntity
  8
CURVE
100
AcDbEllipse
 62
253
  6
CONTINUOUS
 10
66.4321061365
 20
31.0044513217
 30
0.0
 11
89.8859912315
 21
55.5525976935
 31
0.0
 40
0.0815198604
 41
2.3479938225
 42
2.3825964181
  0
ENDSEC
  0
SECTION
  2
OBJECTS
  0
DICTIONARY
  5
C
100
AcDbDictionary
280
0
281
1
  3
ACAD_GROUP
350
D
  3
ACAD_MLINESTYLE
350
17
  3
ACAD_LAYOUT
350
1A
  3
ACAD_PLOTSETTINGS
350
19
  3
ACAD_PLOTSTYLENAME
350
E
  0
DICTIONARY
  5
D
102
{ACAD_REACTORS
330
C
102
}
100
AcDbDictionary
280
0
281
1
  0
ACDBDICTIONARYWDFLT
  5
E
102
{ACAD_REACTORS
330
C
102
}
100
AcDbDictionary
281
1
  3
Normal
350
F
100
AcDbDictionaryWithDefault
340
F
  0
DICTIONARY
  5
17
102
{ACAD_REACTORS
330
C
102
}
100
AcDbDictionary
280
0
281
1
  3
Standard
350
18
  0
DICTIONARY
  5
19
102
{ACAD_REACTORS
330
C
102
}
100
AcDbDictionary
281
1
  0
DICTIONARY
  5
1A
102
{ACAD_REACTORS
330
C
102
}
100
AcDbDictionary
281
1
  3
Model
350
2E3
  3
Layout1
350
2E4
  0
ACDBPLACEHOLDER
  5
F
102
{ACAD_REACTORS
330
E
102
}
  0
MLINESTYLE
  5
18
102
{ACAD_REACTORS
330
17
102
}
100
AcDbMlineStyle
  2
STANDARD
 70
0
  3

 62
256
 51
90.0
 52
90.0
 71
2
 49
0.5
 62
256
  6
BYLAYER
 49
-0.5
 62
256
  6
BYLAYER
  0
LAYOUT
  5
2E3
102
{ACAD_REACTORS
330
1A
102
}
100
AcDbPlotSettings
  1

  2
none_device
  4
ISO_A4_(297.00_x_210.00_MM)
  6

 40
0.0
 41
0.0
 42
0.0
 43
0.0
 44
297.0
 45
210.0
 46
0.0
 47
0.0
 48
0.0
 49
0.0
140
0.0
141
0.0
142
1.0
143
1.0
 70
1024
 72
1
 73
0
 74
0
  7

 75
0
147
1.0
148
0.0
149
0.0
100
AcDbLayout
  1
Model
 70
0
 71
0
 10
0.0
 20
0.0
 11
297.0
 21
210.0
 12
0.0
 22
0.0
 32
0.0
 14
0.0
 24
0.0
 34
0.0
 15
0.0
 25
0.0
 35
0.0
146
0.0
 13
0.0
 23
0.0
 33
0.0
 16
1.0
 26
0.0
 36
0.0
 17
0.0
 27
1.0
 37
0.0
 76
0
330
219
345
0
346
0
  0
LAYOUT
  5
2E4
102
{ACAD_REACTORS
330
1A
102
}
100
AcDbPlotSettings
  1

  2
none_device
  4
ISO_A4_(297.00_x_210.00_MM)
  6

 40
0.0
 41
0.0
 42
0.0
 43
0.0
 44
297.0
 45
210.0
 46
0.0
 47
0.0
 48
0.0
 49
0.0
140
0.0
141
0.0
142
1.0
143
1.0
 70
0
 72
1
 73
0
 74
0
  7

 75
0
147
1.0
148
0.0
149
0.0
100
AcDbLayout
  1
Layout1
 70
0
 71
1
 10
0.0
 20
0.0
 11
297.0
 21
210.0
 12
0.0
 22
0.0
 32
0.0
 14
0.0
 24
0.0
 34
0.0
 15
0.0
 25
0.0
 35
0.0
146
0.0
 13
0.0
 23
0.0
 33
0.0
 16
1.0
 26
0.0
 36
0.0
 17
0.0
 27
1.0
 37
0.0
 76
0
330
21A
345
0
346
0
  0
ENDSEC
  0
EOF
