  0
SECTION
  2
HEADER
  9
$ACADVER
  1
AC1015
  9
$DWGCODEPAGE
  3
ANSI_1252
  9
$EXTMAX
 10
297.0
 20
210.0
 30
0.0
  9
$EXTMIN
 10
0.0
 20
0.0
 30
0.0
  9
$LIMMIN
 10
0.0
 20
0.0
  9
$LIMMAX
 10
297.0
 20
210.0
  9
$VIEWCTR
 10
148.5
 20
105.0
  9
$VIEWSIZE
 40
210.0
  9
$CLAYER
  8
0
  9
$LTSCALE
 40
16.335
  9
$CELTYPE
  6
BYLAYER
  9
$DIMSCALE
 40
1.0
  9
$DIMASZ
 40
3.0
  9
$DIMEXO
 40
1.85625
  9
$DIMDLI
 40
11.286
  9
$DIMEXE
 40
5.346
  9
$DIMCEN
 40
2.673
  9
$DIMLFAC
 40
1.0
  9
$DIMBLK
  1
_FILLED
  9
$DIMTXT
 40
3.0
  9
$DIMTOL
 70
1
  9
$DIMLIM
 70
0
  9
$DIMTFAC
 40
1.0
  9
$DIMTP
 40
0.01
  9
$DIMTM
 40
0.01
  9
$PDMODE
 70
3
  9
$PDSIZE
 40
3.0
  9
$HANDSEED
  5
27B
  9
$TILEMODE
 70
1
  9
$MEASUREMENT
 70
1
  9
$INSUNITS
 70
4
  0
ENDSEC
  0
SECTION
  2
CLASSES
  0
CLASS
  1
ACDBDICTIONARYWDFLT
  2
AcDbDictionaryWithDefault
  3
AutoCAD 2000
 90
0
280
0
281
0
  0
CLASS
  1
ACDBPLACEHOLDER
  2
AcDbPlaceHolder
  3
AutoCAD 2000
 90
0
280
0
281
0
  0
CLASS
  1
LAYOUT
  2
AcDbLayout
  3
AutoCAD 2000
 90
0
280
0
281
0
  0
ENDSEC
  0
SECTION
  2
TABLES
  0
TABLE
  2
VPORT
  5
8
100
AcDbSymbolTable
 70
2
  0
VPORT
  5
1F4
100
AcDbSymbolTableRecord
100
AcDbViewportTableRecord
  2
*ACTIVE
 70
0
 10
0.0
 20
0.0
 11
1.0
 21
1.0
 12
148.5
 22
105.0
 13
0.0
 23
0.0
 14
1.0
 24
1.0
 15
0.0
 25
0.0
 16
0.0
 26
0.0
 36
1.0
 17
0.0
 27
0.0
 37
0.0
 40
210.0
 41
1.4142857143
 42
50.0
 43
0.0
 44
0.0
 50
0.0
 51
0.0
 71
0
 72
100
 73
1
 74
1
 75
0
 76
0
 77
0
 78
0
  0
ENDTAB
  0
TABLE
  2
LTYPE
  5
5
100
AcDbSymbolTable
 70
6
  0
LTYPE
  5
14
100
AcDbSymbolTableRecord
100
AcDbLinetypeTableRecord
  2
BYBLOCK
 70
0
  3

 72
65
 73
0
 40
0.0
  0
LTYPE
  5
15
100
AcDbSymbolTableRecord
100
AcDbLinetypeTableRecord
  2
BYLAYER
 70
0
  3

 72
65
 73
0
 40
0.0
  0
LTYPE
  5
16
100
AcDbSymbolTableRecord
100
AcDbLinetypeTableRecord
  2
CONTINUOUS
 70
64
  3
Solid line
 72
65
 73
0
 40
0.0
  0
LTYPE
  5
1F5
100
AcDbSymbolTableRecord
100
AcDbLinetypeTableRecord
  2
CENTER
 70
64
  3
____ _ ____ _ ____ _ ____ _ ____ _ ____ _ ____
 72
65
 73
4
 40
0.6
 49
0.375
 74
0
 49
-0.075
 74
0
 49
0.075
 74
0
 49
-0.075
 74
0
  0
LTYPE
  5
1F6
100
AcDbSymbolTableRecord
100
AcDbLinetypeTableRecord
  2
HIDDEN
 70
64
  3
- - - - - - - - - - - - - - - - - - - -
 72
65
 73
2
 40
0.2
 49
0.1
 74
0
 49
-0.1
 74
0
  0
LTYPE
  5
1F7
100
AcDbSymbolTableRecord
100
AcDbLinetypeTableRecord
  2
PHANTOM
 70
64
  3
_____ _ _ _____ _ _ _____ _ _ _____
 72
65
 73
6
 40
0.8
 49
0.45
 74
0
 49
-0.05
 74
0
 49
0.1
 74
0
 49
-0.05
 74
0
 49
0.1
 74
0
 49
-0.05
 74
0
  0
LTYPE
  5
1F8
100
AcDbSymbolTableRecord
100
AcDbLinetypeTableRecord
  2
DOT
 70
64
  3
. . . . . . . . . . . . . . . . . . . .
 72
65
 73
2
 40
0.2
 49
0.1
 74
0
 49
-0.1
 74
0
  0
LTYPE
  5
1F9
100
AcDbSymbolTableRecord
100
AcDbLinetypeTableRecord
  2
DASHED
 70
64
  3
- - - - - - - - - - - - - - - - - - - -
 72
65
 73
2
 40
0.2
 49
0.1
 74
0
 49
-0.1
 74
0
  0
ENDTAB
  0
TABLE
  2
LAYER
  5
2
100
AcDbSymbolTable
 70
36
  0
LAYER
  5
10
100
AcDbSymbolTableRecord
100
AcDbLayerTableRecord
  2
0
 70
0
 62
7
  6
CONTINUOUS
370
-3
390
F
  0
LAYER
  5
1FA
100
AcDbSymbolTableRecord
100
AcDbLayerTableRecord
  2
DEFAULT_1
 70
0
 62
7
  6
CENTER
370
-3
390
F
  0
LAYER
  5
1FB
100
AcDbSymbolTableRecord
100
AcDbLayerTableRecord
  2
DEFAULT_2
 70
0
 62
7
  6
HIDDEN
370
-3
390
F
  0
LAYER
  5
1FC
100
AcDbSymbolTableRecord
100
AcDbLayerTableRecord
  2
DEFAULT_3
 70
0
 62
7
  6
PHANTOM
370
-3
390
F
  0
LAYER
  5
1FD
100
AcDbSymbolTableRecord
100
AcDbLayerTableRecord
  2
ASSI
 70
0
 62
7
  6
CONTINUOUS
370
-3
390
F
  0
LAYER
  5
1FE
100
AcDbSymbolTableRecord
100
AcDbLayerTableRecord
  2
COLOR9
 70
0
 62
7
  6
CONTINUOUS
370
-3
390
F
  0
LAYER
  5
1FF
100
AcDbSymbolTableRecord
100
AcDbLayerTableRecord
  2
COORDINATE
 70
0
 62
7
  6
CONTINUOUS
370
-3
390
F
  0
LAYER
  5
200
100
AcDbSymbolTableRecord
100
AcDbLayerTableRecord
  2
COORD_ORIGINE
 70
0
 62
7
  6
CONTINUOUS
370
-3
390
F
  0
LAYER
  5
201
100
AcDbSymbolTableRecord
100
AcDbLayerTableRecord
  2
COPY_PUBLISH
 70
0
 62
7
  6
CONTINUOUS
370
-3
390
F
  0
LAYER
  5
202
100
AcDbSymbolTableRecord
100
AcDbLayerTableRecord
  2
COSMETIC
 70
0
 62
7
  6
CONTINUOUS
370
-3
390
F
  0
LAYER
  5
203
100
AcDbSymbolTableRecord
100
AcDbLayerTableRecord
  2
CURVE
 70
0
 62
7
  6
CONTINUOUS
370
-3
390
F
  0
LAYER
  5
204
100
AcDbSymbolTableRecord
100
AcDbLayerTableRecord
  2
DRAFT
 70
0
 62
7
  6
CONTINUOUS
370
-3
390
F
  0
LAYER
  5
205
100
AcDbSymbolTableRecord
100
AcDbLayerTableRecord
  2
IGS_SCRITTE
 70
0
 62
7
  6
CONTINUOUS
370
-3
390
F
  0
LAYER
  5
206
100
AcDbSymbolTableRecord
100
AcDbLayerTableRecord
  2
IMPORT_IGES
 70
0
 62
7
  6
CONTINUOUS
370
-3
390
F
  0
LAYER
  5
207
100
AcDbSymbolTableRecord
100
AcDbLayerTableRecord
  2
INTF_YELLOW
 70
0
 62
7
  6
CONTINUOUS
370
-3
390
F
  0
LAYER
  5
208
100
AcDbSymbolTableRecord
100
AcDbLayerTableRecord
  2
PIANI
 70
0
 62
7
  6
CONTINUOUS
370
-3
390
F
  0
LAYER
  5
209
100
AcDbSymbolTableRecord
100
AcDbLayerTableRecord
  2
PIANI_ORIGINE
 70
0
 62
7
  6
CONTINUOUS
370
-3
390
F
  0
LAYER
  5
20A
100
AcDbSymbolTableRecord
100
AcDbLayerTableRecord
  2
PIANI_RIFERIMENTO
 70
0
 62
7
  6
CONTINUOUS
370
-3
390
F
  0
LAYER
  5
20B
100
AcDbSymbolTableRecord
100
AcDbLayerTableRecord
  2
RACCORDO
 70
0
 62
7
  6
CONTINUOUS
370
-3
390
F
  0
LAYER
  5
20C
100
AcDbSymbolTableRecord
100
AcDbLayerTableRecord
  2
SMUSSO
 70
0
 62
7
  6
CONTINUOUS
370
-3
390
F
  0
LAYER
  5
20D
100
AcDbSymbolTableRecord
100
AcDbLayerTableRecord
  2
SOLIDO
 70
0
 62
7
  6
CONTINUOUS
370
-3
390
F
  0
LAYER
  5
20E
100
AcDbSymbolTableRecord
100
AcDbLayerTableRecord
  2
SUPERFICI
 70
0
 62
7
  6
CONTINUOUS
370
-3
390
F
  0
LAYER
  5
20F
100
AcDbSymbolTableRecord
100
AcDbLayerTableRecord
  2
TRASH
 70
0
 62
7
  6
CONTINUOUS
370
-3
390
F
  0
LAYER
  5
210
100
AcDbSymbolTableRecord
100
AcDbLayerTableRecord
  2
WHITE
 70
0
 62
7
  6
CONTINUOUS
370
-3
390
F
  0
LAYER
  5
211
100
AcDbSymbolTableRecord
100
AcDbLayerTableRecord
  2
XSEC_DATUMS
 70
0
 62
7
  6
CONTINUOUS
370
-3
390
F
  0
ENDTAB
  0
TABLE
  2
STYLE
  5
3
100
AcDbSymbolTable
 70
1
  0
STYLE
  5
11
100
AcDbSymbolTableRecord
100
AcDbTextStyleTableRecord
  2
STANDARD
 70
0
 40
0.0
 41
0.8
 50
0.0
 71
0
 42
0.2
  3
txt
  4

  0
STYLE
  5
212
100
AcDbSymbolTableRecord
100
AcDbTextStyleTableRecord
  2
TEXTSTYLE_1
 70
0
 40
0.0
 41
0.8
 50
0.0
 71
0
 42
0.2
  3
gdt
  4

  0
ENDTAB
  0
TABLE
  2
VIEW
  5
6
100
AcDbSymbolTable
 70
0
  0
ENDTAB
  0
TABLE
  2
UCS
  5
7
100
AcDbSymbolTable
 70
0
  0
ENDTAB
  0
TABLE
  2
APPID
  5
9
100
AcDbSymbolTable
 70
1
  0
APPID
  5
213
100
AcDbSymbolTableRecord
100
AcDbRegAppTableRecord
  2
ACAD
 70
0
  0
ENDTAB
  0
TABLE
  2
BLOCK_RECORD
  5
1
100
AcDbSymbolTable
 70
0
  0
BLOCK_RECORD
  5
214
100
AcDbSymbolTableRecord
100
AcDbBlockTableRecord
  2
*Model_Space
  0
BLOCK_RECORD
  5
215
100
AcDbSymbolTableRecord
100
AcDbBlockTableRecord
  2
*Paper_Space
  0
ENDTAB
  0
TABLE
  2
DIMSTYLE
  5
A
100
AcDbSymbolTable
 70
1
100
AcDbDimStyleTable
 71
0
  0
DIMSTYLE
105
216
100
AcDbSymbolTableRecord
100
AcDbDimStyleTableRecord
  2
STANDARD
 70
0
  3

  4

 40
1.0
 41
3.0
 42
0.0625
 43
0.38
 44
0.18
 45
0.0
 46
0.0
 47
0.01
 48
0.01
140
3.0
141
0.09
142
0.0
143
25.4
144
1.0
145
0.0
146
1.0
147
0.09
 71
1.0
 72
0.0
 73
0
 74
0
 75
0
 76
0
 77
1
 78
8
170
0
171
2
172
0
173
0
174
0
175
0
176
0
177
0
178
0
270
2
271
2
272
2
273
2
274
2
275
0
280
0
281
0
282
0
283
1
284
8
285
0
286
0
287
3
288
0
340
11
  0
ENDTAB
  0
ENDSEC
  0
SECTION
  2
BLOCKS
  0
BLOCK
  5
20
100
AcDbEntity
  8
0
100
AcDbBlockBegin
  2
*Model_Space
 70
0
 10
0.0
 20
0.0
 30
0.0
  3
*Model_Space
  1

  0
ENDBLK
  5
21
100
AcDbEntity
  8
0
100
AcDbBlockEnd
  0
BLOCK
  5
1C
100
AcDbEntity
  8
0
100
AcDbBlockBegin
  2
*Paper_Space
 70
0
 10
0.0
 20
0.0
 30
0.0
  3
*Paper_Space
  1

  0
ENDBLK
  5
1D
100
AcDbEntity
  8
0
100
AcDbBlockEnd
  0
ENDSEC
  0
SECTION
  2
ENTITIES
  0
LWPOLYLINE
  5
217
100
AcDbEntity
  8
RACCORDO
100
AcDbPolyline
 62
7
  6
CONTINUOUS
 90
34
 70
0
 10
-17.5948582231
 20
16.2217545998
 10
-17.6024978003
 20
16.2174824372
 10
-17.6148734417
 20
16.2101576053
 10
-17.6267918671
 20
16.2025940585
 10
-17.6382573836
 20
16.1948018839
 10
-17.6492761471
 20
16.1867899639
 10
-17.6598521419
 20
16.1785681475
 10
-17.669988303
 20
16.1701472482
 10
-17.6796888596
 20
16.1615371801
 10
-17.6889558859
 20
16.1527495674
 10
-17.6977889158
 20
16.1437992348
 10
-17.7061939032
 20
16.134695377
 10
-17.7141790717
 20
16.1254438086
 10
-17.7217418127
 20
16.1160627663
 10
-17.7288890238
 20
16.1065600973
 10
-17.7356384982
 20
16.0969266513
 10
-17.7419900919
 20
16.0871756152
 10
-17.7479449466
 20
16.0773191453
 10
-17.7535175419
 20
16.0673458226
 10
-17.7587077348
 20
16.0572665623
 10
-17.7635143544
 20
16.0470952688
 10
-17.7679458497
 20
16.0368243941
 10
-17.7720013039
 20
16.0264648408
 10
-17.7756793123
 20
16.0160306003
 10
-17.7789843485
 20
16.0055185127
 10
-17.7819149824
 20
15.9949413841
 10
-17.7844705011
 20
15.9843116606
 10
-17.7866539051
 20
15.9736255414
 10
-17.7884639684
 20
15.962896368
 10
-17.7899002922
 20
15.9521362953
 10
-17.7909644309
 20
15.9413396276
 10
-17.7916553923
 20
15.9305129782
 10
-17.7919718693
 20
15.9196753701
 10
-17.7919941081
 20
15.9157250272
  0
LINE
  5
218
100
AcDbEntity
  8
RACCORDO
100
AcDbLine
 62
7
  6
CONTINUOUS
 10
-17.5948513846
 20
16.221758375
 11
-14.0354566458
 21
18.1696702009
  0
LINE
  5
219
100
AcDbEntity
  8
RACCORDO
100
AcDbLine
 62
253
  6
CONTINUOUS
 10
-17.4763760778
 20
16.218177861
 11
-13.9204869993
 21
18.1641711817
  0
LINE
  5
21A
100
AcDbEntity
  8
DRAFT
100
AcDbLine
 62
7
  6
CONTINUOUS
 10
-12.2676547328
 20
16.2985245639
 11
-13.2546631601
 21
15.6872658509
  0
LINE
  5
21B
100
AcDbEntity
  8
DRAFT
100
AcDbLine
 62
7
  6
CONTINUOUS
 10
-12.2676547328
 20
17.3377550484
 11
-14.2033835946
 21
16.1616260682
  0
LWPOLYLINE
  5
21C
100
AcDbEntity
  8
0
100
AcDbPolyline
 62
7
  6
CONTINUOUS
 90
22
 70
0
 10
-17.73051304
 20
8.0660572489
 10
-17.7221648335
 20
7.5908054256
 10
-17.7113543334
 20
7.1115065001
 10
-17.6981628879
 20
6.6335608221
 10
-17.6825908373
 20
6.1569890897
 10
-17.6646386604
 20
5.6818091676
 10
-17.6443068382
 20
5.2080377683
 10
-17.6215959212
 20
4.7356925603
 10
-17.5965066566
 20
4.2647918339
 10
-17.5690397915
 20
3.7953532395
 10
-17.5391961189
 20
3.3273946359
 10
-17.506976656
 20
2.8609343801
 10
-17.4723824773
 20
2.3959908632
 10
-17.4354147066
 20
1.9325823777
 10
-17.3960746059
 20
1.4707264755
 10
-17.3543634477
 20
1.0104404297
 10
-17.3102825919
 20
0.5517421304
 10
-17.2638334959
 20
0.094648653
 10
-17.2150175466
 20
-0.3608239436
 10
-17.1638362895
 20
-0.8146585069
 10
-17.1102917762
 20
-1.2668354132
 10
-17.0550816346
 20
-1.7118550109
  0
LWPOLYLINE
  5
21D
100
AcDbEntity
  8
0
100
AcDbPolyline
 62
7
  6
CONTINUOUS
 90
10
 70
0
 10
-17.7919941857
 20
15.9157355032
 10
-17.7907592718
 20
15.045688204
 10
-17.7881196195
 20
14.1698246526
 10
-17.7840793082
 20
13.2947188589
 10
-17.7786383472
 20
12.4203748066
 10
-17.7717967548
 20
11.5467958339
 10
-17.7635545493
 20
10.6739850922
 10
-17.7539117549
 20
9.8019460109
 10
-17.7428684153
 20
8.9306826644
 10
-17.7305130403
 20
8.0660572506
  0
LWPOLYLINE
  5
21E
100
AcDbEntity
  8
0
100
AcDbPolyline
 62
7
  6
CONTINUOUS
 90
36
 70
0
 10
-17.0550809986
 20
-1.7118598977
 10
-17.0525478105
 20
-1.7303533168
 10
-17.0486398061
 20
-1.754665303
 10
-17.044139706
 20
-1.7785598929
 10
-17.039061652
 20
-1.8020255983
 10
-17.0334177946
 20
-1.8250632155
 10
-17.0272171813
 20
-1.847681548
 10
-17.020471795
 20
-1.8698748743
 10
-17.0131942364
 20
-1.8916370265
 10
-17.0053931828
 20
-1.9129722532
 10
-16.9970810569
 20
-1.9338726138
 10
-16.9882703579
 20
-1.9543318135
 10
-16.9789693151
 20
-1.9743531219
 10
-16.9691917513
 20
-1.9939265926
 10
-16.958949972
 20
-2.0130466344
 10
-16.9482495165
 20
-2.0317200223
 10
-16.9371038825
 20
-2.0499380983
 10
-16.925526622
 20
-2.067692951
 10
-16.9135227776
 20
-2.0849897615
 10
-16.901107392
 20
-2.1018187601
 10
-16.888293973
 20
-2.1181732064
 10
-16.8750845054
 20
-2.1340603335
 10
-16.8614941425
 20
-2.1494706053
 10
-16.8475369858
 20
-2.1643970228
 10
-16.8332121158
 20
-2.1788479269
 10
-16.818534068
 20
-2.1928145692
 10
-16.8035176726
 20
-2.2062889362
 10
-16.7881610633
 20
-2.2192779142
 10
-16.7724796037
 20
-2.2317725985
 10
-16.7564878107
 20
-2.2437656065
 10
-16.7401810363
 20
-2.2552633421
 10
-16.7235742041
 20
-2.2662573196
 10
-16.7066824566
 20
-2.2767399185
 10
-16.6894999703
 20
-2.2867160216
 10
-16.6720343993
 20
-2.2961809504
 10
-16.6610487439
 20
-2.3017994229
  0
LINE
  5
21F
100
AcDbEntity
  8
RACCORDO
100
AcDbLine
 62
7
  6
CONTINUOUS
 10
-13.24878944
 20
15.6909034719
 11
-13.24878944
 21
15.6843289909
  0
LINE
  5
220
100
AcDbEntity
  8
DRAFT
100
AcDbLine
 62
7
  6
CONTINUOUS
 10
-12.2676547328
 20
17.3377550484
 11
-12.2676547328
 21
16.2985245639
  0
LWPOLYLINE
  5
221
100
AcDbEntity
  8
0
100
AcDbPolyline
 62
7
  6
CONTINUOUS
 90
30
 70
0
 10
14.0440799927
 20
-17.6543637911
 10
14.0560340638
 20
-17.6602003539
 10
14.0755554002
 20
-17.6691392467
 10
14.0953365024
 20
-17.6774750837
 10
14.1153675368
 20
-17.6852046921
 10
14.1356574666
 20
-17.6923308483
 10
14.1561879953
 20
-17.6988456367
 10
14.1769407737
 20
-17.7047420543
 10
14.1979263776
 20
-17.7100206768
 10
14.219127414
 20
-17.7146735005
 10
14.2405250424
 20
-17.7186933527
 10
14.2621293499
 20
-17.7220781238
 10
14.2839230533
 20
-17.7248199032
 10
14.3058874443
 20
-17.7269113451
 10
14.3280319421
 20
-17.7283477079
 10
14.3503403644
 20
-17.7291212637
 10
14.3727930567
 20
-17.7292247427
 10
14.3953957532
 20
-17.7286508099
 10
14.4181337608
 20
-17.727391826
 10
14.4409863337
 20
-17.72544105
 10
14.4639517961
 20
-17.7227901462
 10
14.4870137132
 20
-17.7194321228
 10
14.5101538744
 20
-17.7153610935
 10
14.5333699126
 20
-17.7105681734
 10
14.556646336
 20
-17.7050464986
 10
14.5799657295
 20
-17.698790476
 10
14.6033251291
 20
-17.6917904195
 10
14.6267136302
 20
-17.6840380375
 10
14.6501096519
 20
-17.6755293229
 10
14.6673639801
 20
-17.6687646065
  0
LINE
  5
222
100
AcDbEntity
  8
0
100
AcDbLine
 62
7
  6
CONTINUOUS
 10
-16.6610727906
 20
-2.3017874244
 11
14.0441136375
 21
-17.6543806385
  0
LINE
  5
223
100
AcDbEntity
  8
0
100
AcDbLine
 62
7
  6
CONTINUOUS
 10
14.044081957
 20
-17.6543647968
 11
14.0441104355
 21
-17.6543790375
  0
LINE
  5
224
100
AcDbEntity
  8
0
100
AcDbLine
 62
253
  6
CONTINUOUS
 10
-16.908660961
 20
-1.8882730356
 11
13.7877195432
 21
-17.2364632877
  0
LINE
  5
225
100
AcDbEntity
  8
0
100
AcDbLine
 62
253
  6
CONTINUOUS
 10
13.0637245219
 20
-7.4352598798
 11
-17.5840595683
 21
7.8886321653
  0
LINE
  5
226
100
AcDbEntity
  8
DRAFT
100
AcDbLine
 62
7
  6
CONTINUOUS
 10
15.680692697
 20
3.3635813335
 11
13.3737808717
 21
2.373043835
  0
LINE
  5
227
100
AcDbEntity
  8
SUPERFICI
100
AcDbLine
 62
7
  6
CONTINUOUS
 10
-5.2376497215
 20
5.0512797333
 11
0.6340215084
 21
2.1154441184
  0
LINE
  5
228
100
AcDbEntity
  8
RACCORDO
100
AcDbLine
 62
7
  6
CONTINUOUS
 10
0.6340215084
 20
2.1154441184
 11
-5.2376497215
 21
5.0512797333
  0
LINE
  5
229
100
AcDbEntity
  8
SUPERFICI
100
AcDbLine
 62
7
  6
CONTINUOUS
 10
-5.2512073464
 20
6.9493131189
 11
0.6195765029
 21
4.0139211942
  0
LINE
  5
22A
100
AcDbEntity
  8
RACCORDO
100
AcDbLine
 62
7
  6
CONTINUOUS
 10
0.6195765029
 20
4.0139211942
 11
-5.2512073464
 21
6.9493131189
  0
LINE
  5
22B
100
AcDbEntity
  8
RACCORDO
100
AcDbLine
 62
253
  6
CONTINUOUS
 10
17.3335249636
 20
2.5371652003
 11
13.5203007795
 21
0.7198394323
  0
LINE
  5
22C
100
AcDbEntity
  8
RACCORDO
100
AcDbLine
 62
253
  6
CONTINUOUS
 10
17.5103555416
 20
2.232301256
 11
13.6923450461
 21
0.4126944034
  0
LINE
  5
22D
100
AcDbEntity
  8
RACCORDO
100
AcDbLine
 62
253
  6
CONTINUOUS
 10
12.9977897686
 20
0.4167609781
 11
-17.6455453534
 21
15.7384285391
  0
LINE
  5
22E
100
AcDbEntity
  8
RACCORDO
100
AcDbLine
 62
253
  6
CONTINUOUS
 10
13.1730256573
 20
0.7210473712
 11
-17.4703132593
 21
16.0427168295
  0
LINE
  5
22F
100
AcDbEntity
  8
DRAFT
100
AcDbLine
 62
7
  6
CONTINUOUS
 10
13.3737808717
 20
2.373043835
 11
-14.2033835946
 21
16.1616260682
  0
LINE
  5
230
100
AcDbEntity
  8
RACCORDO
100
AcDbLine
 62
7
  6
CONTINUOUS
 10
17.3335249636
 20
2.5371652003
 11
15.680692697
 21
3.3635813335
  0
LINE
  5
231
100
AcDbEntity
  8
RACCORDO
100
AcDbLine
 62
7
  6
CONTINUOUS
 10
-12.2676547328
 20
17.3377550484
 11
-13.9204869993
 21
18.1641711817
  0
LINE
  5
232
100
AcDbEntity
  8
RACCORDO
100
AcDbLine
 62
7
  6
CONTINUOUS
 10
17.5103555416
 20
2.232301256
 11
17.5103555416
 21
-8.809580338
  0
LINE
  5
233
100
AcDbEntity
  8
0
100
AcDbLine
 62
7
  6
CONTINUOUS
 10
16.9590596808
 20
-16.5237521056
 11
17.5103555416
 21
-8.809580338
  0
LINE
  5
234
100
AcDbEntity
  8
0
100
AcDbLine
 62
253
  6
CONTINUOUS
 10
14.8209821215
 20
-17.3880425549
 11
16.9590596808
 21
-16.5237521056
  0
LINE
  5
235
100
AcDbEntity
  8
0
100
AcDbLine
 62
7
  6
CONTINUOUS
 10
14.6673703029
 20
-17.6687620836
 11
16.790018513
 21
-16.8107087509
  0
ARC
  5
236
100
AcDbEntity
  8
RACCORDO
100
AcDbCircle
 62
253
  6
CONTINUOUS
 10
525.6028231088
 20
16.0677710604
 40
543.2484714993
100
AcDbArc
 50
180.034735372
 51
180.8626768068
  0
ARC
  5
237
100
AcDbEntity
  8
RACCORDO
100
AcDbCircle
 62
7
  6
CONTINUOUS
 10
525.3779383822
 20
6.7919928601
 40
524.4845405879
100
AcDbArc
 50
180.3564737649
 51
180.4887240263
  0
ARC
  5
238
100
AcDbEntity
  8
SUPERFICI
100
AcDbCircle
 62
7
  6
CONTINUOUS
 10
518.8420838377
 20
10.0085668755
 40
524.3833549227
100
AcDbArc
 50
180.3564593088
 51
180.4887350894
  0
ARC
  5
239
100
AcDbEntity
  8
RACCORDO
100
AcDbCircle
 62
253
  6
CONTINUOUS
 10
518.86381243
 20
0.7376740858
 40
505.8661111247
100
AcDbArc
 50
180.0363474979
 51
180.9257291277
  0
ARC
  5
23A
100
AcDbEntity
  8
RACCORDO
100
AcDbCircle
 62
253
  6
CONTINUOUS
 10
518.9879410785
 20
0.7310119745
 40
505.2956834954
100
AcDbArc
 50
180.0360942211
 51
180.9257767921
  0
ARC
  5
23B
100
AcDbEntity
  8
RACCORDO
100
AcDbCircle
 62
7
  6
CONTINUOUS
 10
-5.0809527867
 20
5.5395187576
 40
0.4412582556
100
AcDbArc
 50
180.5072885362
 51
183.4774390387
  0
ARC
  5
23C
100
AcDbEntity
  8
SUPERFICI
100
AcDbCircle
 62
7
  6
CONTINUOUS
 10
0.4624741004
 20
3.5259723162
 40
0.4410841978
100
AcDbArc
 50
0.3750339476
 51
3.3435235644
  0
ARC
  5
23D
100
AcDbEntity
  8
SUPERFICI
100
AcDbCircle
 62
7
  6
CONTINUOUS
 10
0.5050965773
 20
2.3146371213
 40
0.407397637
100
AcDbArc
 50
357.3798448687
 51
0.5117896884
  0
ARC
  5
23E
100
AcDbEntity
  8
RACCORDO
100
AcDbCircle
 62
7
  6
CONTINUOUS
 10
-5.1250429232
 20
6.7488838898
 40
0.4060888367
100
AcDbArc
 50
177.2398448364
 51
180.3793404826
  0
ARC
  5
23F
100
AcDbEntity
  8
RACCORDO
100
AcDbCircle
 62
7
  6
CONTINUOUS
 10
-5.0844302851
 20
5.3573581275
 40
0.3422866913
100
AcDbArc
 50
239.8947612402
 51
243.407963524
  0
ARC
  5
240
100
AcDbEntity
  8
SUPERFICI
100
AcDbCircle
 62
7
  6
CONTINUOUS
 10
0.466681187
 20
3.7084909428
 40
0.3415620238
100
AcDbArc
 50
59.8824320464
 51
63.407913679
  0
ARC
  5
241
100
AcDbEntity
  8
RACCORDO
100
AcDbCircle
 62
7
  6
CONTINUOUS
 10
0.7731055422
 20
2.3932272727
 40
0.3106571249
100
AcDbArc
 50
243.4032006114
 51
247.1501180889
  0
ARC
  5
242
100
AcDbEntity
  8
SUPERFICI
100
AcDbCircle
 62
7
  6
CONTINUOUS
 10
-5.3900721982
 20
6.6719651548
 40
0.3101698571
100
AcDbArc
 50
63.4034129207
 51
67.1620608765
  0
ARC
  5
243
100
AcDbEntity
  8
SUPERFICI
100
AcDbCircle
 62
7
  6
CONTINUOUS
 10
0.7451563349
 20
2.2367034641
 40
0.1487090013
100
AcDbArc
 50
287.8018857967
 51
290.6464901584
  0
SPLINE
  5
244
100
AcDbEntity
  8
SUPERFICI
100
AcDbSpline
 62
7
  6
CONTINUOUS
 70
0
 71
3
 72
16
 73
12
 74
10
 42
0.0000001
 43
0.0000001
 44
0.0000000001
 12
-0.1851281172
 22
-0.1320498313
 32
0.0
 13
0.0014134633
 23
-0.2271576449
 33
0.0
 40
0.0
 40
0.0
 40
0.0
 40
0.0
 40
0.0055110613
 40
0.1116735965
 40
0.221590849
 40
0.3361220045
 40
0.4556415103
 40
0.5812985291
 40
0.7142391868
 40
0.8541405301
 40
1.0
 40
1.0
 40
1.0
 40
1.0
 10
-5.4491349833
 20
6.9491143096
 30
0.0
 10
-5.4494750675
 20
6.9488717314
 30
0.0
 10
-5.4563457537
 20
6.9439274481
 30
0.0
 10
-5.4691403412
 20
6.9329669918
 30
0.0
 10
-5.4855165255
 20
6.9139118093
 30
0.0
 10
-5.4995662488
 20
6.8918853991
 30
0.0
 10
-5.5111547957
 20
6.8671606475
 30
0.0
 10
-5.5202183886
 20
6.8399400734
 30
0.0
 10
-5.5266873092
 20
6.8104144199
 30
0.0
 10
-5.5304818658
 20
6.7788951895
 30
0.0
 10
-5.5311915819
 20
6.7572396651
 30
0.0
 10
-5.5311228596
 20
6.7461953006
 30
0.0
 11
-5.4491349833
 21
6.9491143096
 31
0.0
 11
-5.450152171
 21
6.9483823223
 31
0.0
 11
-5.468495498
 21
6.9327263793
 31
0.0
 11
-5.4848203695
 21
6.9138332348
 31
0.0
 11
-5.4988788558
 21
6.8919414536
 31
0.0
 11
-5.5104766089
 21
6.8673929172
 31
0.0
 11
-5.5195713779
 21
6.8403360522
 31
0.0
 11
-5.5261098465
 21
6.8108533057
 31
0.0
 11
-5.5299772538
 21
6.779309225
 31
0.0
 11
-5.5311228596
 21
6.7461953006
 31
0.0
  0
SPLINE
  5
245
100
AcDbEntity
  8
SUPERFICI
100
AcDbSpline
 62
7
  6
CONTINUOUS
 70
0
 71
3
 72
14
 73
10
 74
8
 42
0.0000001
 43
0.0000001
 44
0.0000000001
 12
0.1447349143
 22
-0.0723674572
 32
0.0
 13
0.154230483
 23
0.0495274309
 33
0.0
 40
0.0
 40
0.0
 40
0.0
 40
0.0
 40
0.1867059931
 40
0.3647459152
 40
0.5335907996
 40
0.6935574546
 40
0.8470006131
 40
0.9964630539
 40
1.0
 40
1.0
 40
1.0
 40
1.0
 10
0.6340215083
 20
2.1154441184
 30
0.0
 10
0.6430291336
 20
2.1109403058
 30
0.0
 10
0.6610476864
 20
2.1029466495
 30
0.0
 10
0.6884880861
 20
2.0940769578
 30
0.0
 10
0.7153717269
 20
2.0887390597
 30
0.0
 10
0.7414037541
 20
2.0869859933
 30
0.0
 10
0.7663924358
 20
2.0888283899
 30
0.0
 10
0.7825682634
 20
2.0925455929
 30
0.0
 10
0.7904388036
 20
2.0950563573
 30
0.0
 10
0.7906206386
 20
2.0951147493
 30
0.0
 11
0.6340215083
 21
2.1154441184
 31
0.0
 11
0.6616693849
 21
2.1032625874
 31
0.0
 11
0.6891084863
 21
2.0944807203
 31
0.0
 11
0.7159240766
 21
2.0892434846
 31
0.0
 11
0.7417564056
 21
2.0875840711
 31
0.0
 11
0.7665140411
 21
2.089477719
 31
0.0
 11
0.7900748011
 21
2.0949406227
 31
0.0
 11
0.7906206386
 21
2.0951147493
 31
0.0
  0
SPLINE
  5
246
100
AcDbEntity
  8
SUPERFICI
100
AcDbSpline
 62
7
  6
CONTINUOUS
 70
0
 71
3
 72
23
 73
19
 74
17
 42
0.0000001
 43
0.0000001
 44
0.0000000001
 12
0.0050023624
 22
-0.5863939961
 32
0.0
 13
0.5245058187
 23
-0.2622529093
 33
0.0
 40
0.0
 40
0.0
 40
0.0
 40
0.0
 40
0.0588746881
 40
0.1200732194
 40
0.182993635
 40
0.2470407248
 40
0.312222504
 40
0.3784863542
 40
0.4451159188
 40
0.5113866937
 40
0.57724911
 40
0.6426682154
 40
0.706973736
 40
0.7694897191
 40
0.8301887206
 40
0.8891436894
 40
0.945904789
 40
1.0
 40
1.0
 40
1.0
 40
1.0
 10
-5.5221937472
 20
5.5356119721
 30
0.0
 10
-5.5220955763
 20
5.5241040509
 30
0.0
 10
-5.520942607
 20
5.5006339515
 30
0.0
 10
-5.5165485249
 20
5.4651058357
 30
0.0
 10
-5.5095077275
 20
5.4289759047
 30
0.0
 10
-5.4999161418
 20
5.3926351516
 30
0.0
 10
-5.4878588928
 20
5.3563482609
 30
0.0
 10
-5.4734221698
 20
5.3203967978
 30
0.0
 10
-5.4567617317
 20
5.2851851393
 30
0.0
 10
-5.4380731092
 20
5.2510965286
 30
0.0
 10
-5.4175088245
 20
5.2183841946
 30
0.0
 10
-5.3952141663
 20
5.1872958714
 30
0.0
 10
-5.3714218121
 20
5.1581764572
 30
0.0
 10
-5.3464042844
 20
5.1313488553
 30
0.0
 10
-5.3203644469
 20
5.1070169119
 30
0.0
 10
-5.293480607
 20
5.0853656061
 30
0.0
 10
-5.2660280949
 20
5.0666435461
 30
0.0
 10
-5.2471074724
 20
5.0560086088
 30
0.0
 10
-5.2376497214
 20
5.0512797333
 30
0.0
 11
-5.5221937472
 21
5.5356119721
 31
0.0
 11
-5.5205489387
 21
5.5011261548
 31
0.0
 11
-5.5161853545
 21
5.465504669
 31
0.0
 11
-5.5091601424
 21
5.4292821396
 31
0.0
 11
-5.4995995291
 21
5.3929611716
 31
0.0
 11
-5.4875633314
 21
5.356682071
 31
0.0
 11
-5.4730930847
 21
5.3206186986
 31
0.0
 11
-5.4563852113
 21
5.2852985216
 31
0.0
 11
-5.437699988
 21
5.2512231213
 31
0.0
 11
-5.4171357885
 21
5.2185301705
 31
0.0
 11
-5.3947647502
 21
5.187365471
 31
0.0
 11
-5.3708857193
 21
5.1581795734
 31
0.0
 11
-5.3458595851
 21
5.1313901637
 31
0.0
 11
-5.319824255
 21
5.1071176862
 31
0.0
 11
-5.2928676929
 21
5.0854711231
 31
0.0
 11
-5.2653351934
 21
5.0667657429
 31
0.0
 11
-5.2376497214
 21
5.0512797333
 31
0.0
  0
SPLINE
  5
247
100
AcDbEntity
  8
SUPERFICI
100
AcDbSpline
 62
7
  6
CONTINUOUS
 70
0
 71
3
 72
15
 73
11
 74
9
 42
0.0000001
 43
0.0000001
 44
0.0000000001
 12
-0.1732073616
 22
0.0728301409
 32
0.0
 13
-0.1530469811
 23
-0.109166713
 33
0.0
 40
0.0
 40
0.0
 40
0.0
 40
0.0
 40
0.0528334565
 40
0.2065929842
 40
0.3525055554
 40
0.4908344317
 40
0.6236048922
 40
0.7529890011
 40
0.8801971703
 40
1.0
 40
1.0
 40
1.0
 40
1.0
 10
-5.2696872355
 20
6.957819665
 30
0.0
 10
-5.2727376167
 20
6.9591022877
 30
0.0
 10
-5.2847501786
 20
6.9639170868
 30
0.0
 10
-5.3057915958
 20
6.9707079109
 30
0.0
 10
-5.3327565969
 20
6.9760438561
 30
0.0
 10
-5.3588818279
 20
6.9777845847
 30
0.0
 10
-5.3839719673
 20
6.9759195735
 30
0.0
 10
-5.4078222484
 20
6.9704315211
 30
0.0
 10
-5.4297440632
 20
6.9615161437
 30
0.0
 10
-5.4430231629
 20
6.9534738033
 30
0.0
 10
-5.4491349833
 20
6.9491143096
 30
0.0
 11
-5.2696872355
 21
6.957819665
 31
0.0
 11
-5.2789026034
 21
6.961510328
 31
0.0
 11
-5.3064077368
 21
6.9703003629
 31
0.0
 11
-5.3333047364
 21
6.9755364075
 31
0.0
 11
-5.3592301246
 21
6.9771844594
 31
0.0
 11
-5.3840903192
 21
6.9752691624
 31
0.0
 11
-5.4077589544
 21
6.9697751112
 31
0.0
 11
-5.4298817181
 21
6.9607594993
 31
0.0
 11
-5.4491349833
 21
6.9491143096
 31
0.0
  0
SPLINE
  5
248
100
AcDbEntity
  8
SUPERFICI
100
AcDbSpline
 62
7
  6
CONTINUOUS
 70
0
 71
3
 72
17
 73
13
 74
11
 42
0.0000001
 43
0.0000001
 44
0.0000000001
 12
0.2273417316
 22
0.0856693656
 32
0.0
 13
0.0111970305
 23
0.2425098177
 33
0.0
 40
0.0
 40
0.0
 40
0.0
 40
0.0
 40
0.0652126785
 40
0.1626072031
 40
0.2615230591
 40
0.3639946412
 40
0.4708459654
 40
0.5824429105
 40
0.6998578759
 40
0.8241796903
 40
0.9551183871
 40
1.0
 40
1.0
 40
1.0
 40
1.0
 10
0.797591286
 20
2.0975454856
 30
0.0
 10
0.8025331404
 20
2.0994077285
 30
0.0
 10
0.8146076486
 20
2.1047097997
 30
0.0
 10
0.8327259566
 20
2.1158096736
 30
0.0
 10
0.8511329874
 20
2.1316255854
 30
0.0
 10
0.8674054696
 20
2.1506385983
 30
0.0
 10
0.8813554311
 20
2.1726274586
 30
0.0
 10
0.8928484299
 20
2.1973213962
 30
0.0
 10
0.9018209067
 20
2.224520349
 30
0.0
 10
0.9082030511
 20
2.2540362771
 30
0.0
 10
0.9110459329
 20
2.2781812601
 30
0.0
 10
0.911900787
 20
2.2923851069
 30
0.0
 10
0.9120683006
 20
2.2960131841
 30
0.0
 11
0.797591286
 21
2.0975454856
 31
0.0
 11
0.8120878331
 21
2.1039177161
 31
0.0
 11
0.8322497974
 21
2.1162520482
 31
0.0
 11
0.8504856517
 21
2.1318623889
 31
0.0
 11
0.8667065717
 21
2.1507113375
 31
0.0
 11
0.8806657253
 21
2.1725639127
 31
0.0
 11
0.8921694022
 21
2.197081481
 31
0.0
 11
0.9011739584
 21
2.2241153938
 31
0.0
 11
0.9076263243
 21
2.2535876088
 31
0.0
 11
0.9114115372
 21
2.2851373877
 31
0.0
 11
0.9120683006
 21
2.2960131841
 31
0.0
  0
SPLINE
  5
249
100
AcDbEntity
  8
SUPERFICI
100
AcDbSpline
 62
7
  6
CONTINUOUS
 70
0
 71
3
 72
23
 73
19
 74
17
 42
0.0000001
 43
0.0000001
 44
0.0000000001
 12
-0.0315079352
 22
0.5422869819
 32
0.0
 13
-0.4700604437
 23
0.2723853472
 33
0.0
 40
0.0
 40
0.0
 40
0.0
 40
0.0
 40
0.0214483204
 40
0.0875044768
 40
0.1554419972
 40
0.2246157097
 40
0.2950273187
 40
0.366626824
 40
0.4386400292
 40
0.5102828191
 40
0.5814928787
 40
0.6522353554
 40
0.7217819344
 40
0.7893981303
 40
0.8550476592
 40
0.9188089648
 40
0.9801943443
 40
1.0
 40
1.0
 40
1.0
 40
1.0
 10
0.9028074852
 20
3.5516973964
 30
0.0
 10
0.9025822211
 20
3.5555744448
 30
0.0
 10
0.9014619358
 20
3.5713807475
 30
0.0
 10
0.8980713994
 20
3.5993343667
 30
0.0
 10
0.8911169436
 20
3.6354742249
 30
0.0
 10
0.8816094843
 20
3.6718402865
 30
0.0
 10
0.8696318337
 20
3.7081666011
 30
0.0
 10
0.8552678089
 20
3.7441704316
 30
0.0
 10
0.8386700889
 20
3.7794466361
 30
0.0
 10
0.8200325292
 20
3.8136083256
 30
0.0
 10
0.7995064849
 20
3.8463992328
 30
0.0
 10
0.7772367417
 20
3.8775681075
 30
0.0
 10
0.7534552747
 20
3.9067669362
 30
0.0
 10
0.7284356928
 20
3.9336684389
 30
0.0
 10
0.7023824518
 20
3.9580654293
 30
0.0
 10
0.6754757983
 20
3.9797702937
 30
0.0
 10
0.6537833475
 20
3.9945795806
 30
0.0
 10
0.6411720931
 20
4.0021430193
 30
0.0
 10
0.638068808
 20
4.0039412761
 30
0.0
 11
0.9028074852
 21
3.5516973964
 31
0.0
 11
0.9019856667
 21
3.5633188344
 31
0.0
 11
0.8977080538
 21
3.5989325041
 31
0.0
 11
0.890769317
 21
3.6351653468
 31
0.0
 11
0.8812924617
 21
3.671512741
 31
0.0
 11
0.8693362148
 21
3.7078299942
 31
0.0
 11
0.8549388547
 21
3.7439458265
 31
0.0
 11
0.8382937705
 21
3.7793308141
 31
0.0
 11
0.8196587817
 21
3.8134805248
 31
0.0
 11
0.799133016
 21
3.8462514069
 31
0.0
 11
0.7767865065
 21
3.8774971995
 31
0.0
 11
0.7529179073
 21
3.9067629749
 31
0.0
 11
0.727888824
 21
3.9336268255
 31
0.0
 11
0.7018399896
 21
3.9579639982
 31
0.0
 11
0.6748604073
 21
3.9796639745
 31
0.0
 11
0.6472974231
 21
3.9984094516
 31
0.0
 11
0.638068808
 21
4.0039412761
 31
0.0
  0
LINE
  5
24A
100
AcDbEntity
  8
SUPERFICI
100
AcDbLine
 62
7
  6
CONTINUOUS
 10
0.9124779616
 20
2.3182761177
 11
0.9109794485
 21
2.4975338797
  0
LINE
  5
24B
100
AcDbEntity
  8
SUPERFICI
100
AcDbLine
 62
7
  6
CONTINUOUS
 10
0.9109794485
 20
2.4975338797
 11
0.9106143713
 21
2.5423527341
  0
LINE
  5
24C
100
AcDbEntity
  8
SUPERFICI
100
AcDbLine
 62
7
  6
CONTINUOUS
 10
0.9106143713
 20
2.5423527341
 11
0.9091922656
 21
2.721645767
  0
LINE
  5
24D
100
AcDbEntity
  8
SUPERFICI
100
AcDbLine
 62
7
  6
CONTINUOUS
 10
0.9091922656
 20
2.721645767
 11
0.9078312312
 21
2.9009738991
  0
LINE
  5
24E
100
AcDbEntity
  8
SUPERFICI
100
AcDbLine
 62
7
  6
CONTINUOUS
 10
0.9078312312
 20
2.9009738991
 11
0.9075005234
 21
2.9458103358
  0
LINE
  5
24F
100
AcDbEntity
  8
SUPERFICI
100
AcDbLine
 62
7
  6
CONTINUOUS
 10
0.9075005234
 20
2.9458103358
 11
0.906215894
 21
3.1251736518
  0
LINE
  5
250
100
AcDbEntity
  8
SUPERFICI
100
AcDbLine
 62
7
  6
CONTINUOUS
 10
0.906215894
 20
3.1251736518
 11
0.9049923393
 21
3.3045720097
  0
LINE
  5
251
100
AcDbEntity
  8
SUPERFICI
100
AcDbLine
 62
7
  6
CONTINUOUS
 10
0.9049923393
 20
3.3045720097
 11
0.9046960012
 21
3.3494259917
  0
LINE
  5
252
100
AcDbEntity
  8
SUPERFICI
100
AcDbLine
 62
7
  6
CONTINUOUS
 10
0.9046960012
 20
3.3494259917
 11
0.9035488492
 21
3.5288594462
  0
SPLINE
  5
253
100
AcDbEntity
  8
RACCORDO
100
AcDbSpline
 62
7
  6
CONTINUOUS
 70
0
 71
3
 72
15
 73
11
 74
9
 42
0.0000001
 43
0.0000001
 44
0.0000000001
 12
0.1696235192
 22
0.1209906019
 32
0.0
 13
0.18616337
 23
-0.093081685
 33
0.0
 40
0.0
 40
0.0
 40
0.0
 40
0.0
 40
0.1081411329
 40
0.2229400458
 40
0.3397312535
 40
0.459601248
 40
0.584464367
 40
0.7161066524
 40
0.8547623222
 40
1.0
 40
1.0
 40
1.0
 40
1.0
 10
-5.4491349819
 20
6.949114311
 30
0.0
 10
-5.4430205554
 20
6.9534756646
 30
0.0
 10
-5.4297370911
 20
6.9615200583
 30
0.0
 10
-5.4078068163
 20
6.9704368065
 30
0.0
 10
-5.3839457218
 20
6.9759241502
 30
0.0
 10
-5.3588427627
 20
6.9777852145
 30
0.0
 10
-5.3327098682
 20
6.9760376914
 30
0.0
 10
-5.3057485917
 20
6.970696202
 30
0.0
 10
-5.2782598184
 20
6.9618198898
 30
0.0
 10
-5.2602199916
 20
6.9538194415
 30
0.0
 10
-5.2512073464
 20
6.9493131189
 30
0.0
 11
-5.4491349819
 21
6.949114311
 31
0.0
 11
-5.4298731448
 21
6.9607638299
 31
0.0
 11
-5.4077453863
 21
6.9697794102
 31
0.0
 11
-5.3840656913
 21
6.9752729117
 31
0.0
 11
-5.3591896656
 21
6.9771846681
 31
0.0
 11
-5.3332537768
 21
6.9755297788
 31
0.0
 11
-5.3063602008
 21
6.9702881062
 31
0.0
 11
-5.2788718672
 21
6.9614986324
 31
0.0
 11
-5.2512073464
 21
6.9493131189
 31
0.0
  0
SPLINE
  5
254
100
AcDbEntity
  8
RACCORDO
100
AcDbSpline
 62
7
  6
CONTINUOUS
 70
0
 71
3
 72
17
 73
13
 74
11
 42
0.0000001
 43
0.0000001
 44
0.0000000001
 12
0.002322982
 22
-0.2723078731
 32
0.0
 13
-0.2595482812
 23
-0.0833478641
 33
0.0
 40
0.0
 40
0.0
 40
0.0
 40
0.0
 40
0.1215910421
 40
0.2382115935
 40
0.3490473415
 40
0.4537496329
 40
0.5532322124
 40
0.6484805119
 40
0.7398428647
 40
0.8280303749
 40
0.9148420727
 40
1.0
 40
1.0
 40
1.0
 40
1.0
 10
0.9124779616
 20
2.3182761176
 30
0.0
 10
0.9125721129
 20
2.3072393849
 30
0.0
 10
0.911916534
 20
2.2855973271
 30
0.0
 10
0.9082114351
 20
2.2540882747
 30
0.0
 10
0.9018340206
 20
2.2245671164
 30
0.0
 10
0.8928618745
 20
2.1973542322
 30
0.0
 10
0.8813672155
 20
2.1726484678
 30
0.0
 10
0.8674145789
 20
2.1506502455
 30
0.0
 10
0.8511368434
 20
2.1316286572
 30
0.0
 10
0.8327228321
 20
2.115806883
 30
0.0
 10
0.8124971252
 20
2.1034175391
 30
0.0
 10
0.7979881707
 20
2.0974806607
 30
0.0
 10
0.7906206394
 20
2.0951147502
 30
0.0
 11
0.9124779616
 21
2.3182761176
 31
0.0
 11
0.9114148572
 21
2.2851817857
 31
0.0
 11
0.9076367038
 21
2.2536494755
 31
0.0
 11
0.9011872762
 21
2.2241640401
 31
0.0
 11
0.8921813141
 21
2.1971114311
 31
0.0
 11
0.8806770528
 21
2.1725845581
 31
0.0
 11
0.8667162641
 21
2.1507244086
 31
0.0
 11
0.850488708
 21
2.1318654431
 31
0.0
 11
0.8322449745
 21
2.1162485383
 31
0.0
 11
0.812078221
 21
2.1039128544
 31
0.0
 11
0.7906206394
 21
2.0951147502
 31
0.0
  0
SPLINE
  5
255
100
AcDbEntity
  8
RACCORDO
100
AcDbSpline
 62
7
  6
CONTINUOUS
 70
0
 71
3
 72
23
 73
19
 74
17
 42
0.0000001
 43
0.0000001
 44
0.0000000001
 12
0.5249182302
 22
-0.2624591151
 32
0.0
 13
0.0036517027
 23
-0.5868650616
 33
0.0
 40
0.0
 40
0.0
 40
0.0
 40
0.0
 40
0.0540534394
 40
0.1108095711
 40
0.1698178519
 40
0.2305904547
 40
0.293167576
 40
0.3575314641
 40
0.4230178089
 40
0.4889353731
 40
0.5552387648
 40
0.6218827833
 40
0.6881587177
 40
0.7533442148
 40
0.8173672924
 40
0.8802128772
 40
0.9412902139
 40
1.0
 40
1.0
 40
1.0
 40
1.0
 10
0.6195765029
 20
4.0139211942
 30
0.0
 10
0.6290343815
 20
4.009192255
 30
0.0
 10
0.6479609691
 20
3.9985514706
 30
0.0
 10
0.6754298326
 20
3.9798043013
 30
0.0
 10
0.702339509
 20
3.9581032735
 30
0.0
 10
0.7284032012
 20
3.9337015251
 30
0.0
 10
0.7534324566
 20
3.9067934753
 30
0.0
 10
0.7772228084
 20
3.8775868514
 30
0.0
 10
0.7995019272
 20
3.8464066913
 30
0.0
 10
0.8200357153
 20
3.8136033852
 30
0.0
 10
0.8386778921
 20
3.7794316092
 30
0.0
 10
0.8552790232
 20
3.7441452079
 30
0.0
 10
0.8696467217
 20
3.7081268484
 30
0.0
 10
0.8816264206
 20
3.6717842473
 30
0.0
 10
0.8911317081
 20
3.6354094808
 30
0.0
 10
0.8980802132
 20
3.5992760797
 30
0.0
 10
0.9023818745
 20
3.5637795173
 30
0.0
 10
0.9034773856
 20
3.5403443537
 30
0.0
 10
0.9035488492
 20
3.5288594463
 30
0.0
 11
0.6195765029
 21
4.0139211942
 31
0.0
 11
0.6472607693
 21
3.998432153
 31
0.0
 11
0.674806085
 21
3.9797042564
 31
0.0
 11
0.7017942708
 21
3.9580037007
 31
0.0
 11
0.727858192
 21
3.9336575281
 31
0.0
 11
0.752894846
 21
3.9067894373
 31
0.0
 11
0.7767704506
 21
3.8775182224
 31
0.0
 11
0.7991283145
 21
3.8462584295
 31
0.0
 11
0.8196631841
 21
3.8134730016
 31
0.0
 11
0.8383016154
 21
3.7793153578
 31
0.0
 11
0.8549486962
 21
3.7439231574
 31
0.0
 11
0.8693501317
 21
3.7077917222
 31
0.0
 11
0.8813099521
 21
3.6714534321
 31
0.0
 11
0.8907854169
 21
3.6350942022
 31
0.0
 11
0.897717967
 21
3.5988689991
 31
0.0
 11
0.901988937
 21
3.5632795062
 31
0.0
 11
0.9035488492
 21
3.5288594463
 31
0.0
  0
SPLINE
  5
256
100
AcDbEntity
  8
RACCORDO
100
AcDbSpline
 62
253
  6
CONTINUOUS
 70
0
 71
3
 72
24
 73
20
 74
18
 42
0.0000001
 43
0.0000001
 44
0.0000000001
 12
-0.3225383182
 22
-0.1537130115
 32
0.0
 13
-0.3195746748
 23
0.1597832403
 33
0.0
 40
0.0
 40
0.0
 40
0.0
 40
0.0
 40
0.0524730889
 40
0.1073724184
 40
0.164442622
 40
0.2233961642
 40
0.283914619
 40
0.3456553533
 40
0.4082554946
 40
0.4713401437
 40
0.5345269365
 40
0.5974328202
 40
0.6596779188
 40
0.7208925822
 40
0.7807219467
 40
0.8388342871
 40
0.894925227
 40
0.9487248433
 40
1.0
 40
1.0
 40
1.0
 40
1.0
 10
13.5203007795
 20
0.7198394323
 30
0.0
 10
13.5146592522
 20
0.7171508335
 30
0.0
 10
13.5029172228
 20
0.7120578461
 30
0.0
 10
13.4844848826
 20
0.7054062181
 30
0.0
 10
13.4649590099
 20
0.6996123458
 30
0.0
 10
13.4444995465
 20
0.6947241229
 30
0.0
 10
13.423271745
 20
0.6907809679
 30
0.0
 10
13.4014476719
 20
0.6878149903
 30
0.0
 10
13.3792042763
 20
0.685850315
 30
0.0
 10
13.3567221944
 20
0.6849029633
 30
0.0
 10
13.3341839194
 20
0.6849806476
 30
0.0
 10
13.3117724767
 20
0.6860827286
 30
0.0
 10
13.2896697749
 20
0.6882002201
 30
0.0
 10
13.2680552704
 20
0.6913158466
 30
0.0
 10
13.2471041288
 20
0.6954042713
 30
0.0
 10
13.2269860707
 20
0.7004322257
 30
0.0
 10
13.207863409
 20
0.7063592391
 30
0.0
 10
13.1898926581
 20
0.713136404
 30
0.0
 10
13.1784877379
 20
0.718316401
 30
0.0
 10
13.1730256573
 20
0.7210473712
 30
0.0
 11
13.5203007795
 21
0.7198394323
 31
0.0
 11
13.5031124974
 21
0.7123520095
 31
0.0
 11
13.4846703972
 21
0.7056703921
 31
0.0
 11
13.4651277793
 21
0.6998504806
 31
0.0
 11
13.4446444517
 21
0.6949399284
 31
0.0
 11
13.4233875239
 21
0.6909787761
 31
0.0
 11
13.4015300981
 21
0.6879992957
 31
0.0
 11
13.3792507049
 21
0.6860258386
 31
0.0
 11
13.3567310544
 21
0.6850745014
 31
0.0
 11
13.3341549596
 21
0.6851530448
 31
0.0
 11
13.3117064119
 21
0.6862608289
 31
0.0
 11
13.2895686824
 21
0.6883888111
 31
0.0
 11
13.267922321
 21
0.6915196298
 31
0.0
 11
13.2469441247
 21
0.6956276936
 31
0.0
 11
13.2268049133
 21
0.7006795326
 31
0.0
 11
13.2076689849
 21
0.70663395
 31
0.0
 11
13.1896928101
 21
0.7134421943
 31
0.0
 11
13.1730256573
 21
0.7210473712
 31
0.0
  0
SPLINE
  5
257
100
AcDbEntity
  8
RACCORDO
100
AcDbSpline
 62
253
  6
CONTINUOUS
 70
0
 71
3
 72
24
 73
20
 74
18
 42
0.0000001
 43
0.0000001
 44
0.0000000001
 12
-0.2109636275
 22
0.1054845185
 32
0.0
 13
0.206907066
 23
0.11323472
 33
0.0
 40
0.0
 40
0.0
 40
0.0
 40
0.0
 40
0.073604999
 40
0.1429946744
 40
0.2081158634
 40
0.2690715761
 40
0.326139588
 40
0.3797983211
 40
0.4307418959
 40
0.4798748912
 40
0.5282642816
 40
0.5770507795
 40
0.6273350143
 40
0.6800785173
 40
0.7360420195
 40
0.7957693816
 40
0.8595969972
 40
0.9276778407
 40
1.0
 40
1.0
 40
1.0
 40
1.0
 10
-17.4703132593
 20
16.0427168295
 30
0.0
 10
-17.4754892518
 20
16.0453048922
 30
0.0
 10
-17.4853722785
 20
16.0506910352
 30
0.0
 10
-17.499071704
 20
16.0596742538
 30
0.0
 10
-17.5111135503
 20
16.0692622794
 30
0.0
 10
-17.5213983115
 20
16.0793829074
 30
0.0
 10
-17.529839904
 20
16.0899627215
 30
0.0
 10
-17.5363613434
 20
16.100925155
 30
0.0
 10
-17.5408940532
 20
16.1121869744
 30
0.0
 10
-17.5433805986
 20
16.1236525371
 30
0.0
 10
-17.5437838991
 20
16.1352110657
 30
0.0
 10
-17.5420978536
 20
16.1467428738
 30
0.0
 10
-17.538349323
 20
16.1581329075
 30
0.0
 10
-17.5325892867
 20
16.1692801057
 30
0.0
 10
-17.5248822282
 20
16.1800971333
 30
0.0
 10
-17.5153014452
 20
16.190504826
 30
0.0
 10
-17.5039288537
 20
16.2004278295
 30
0.0
 10
-17.4908593876
 20
16.2097917996
 30
0.0
 10
-17.4813640664
 20
16.2154480678
 30
0.0
 10
-17.4763760778
 20
16.218177861
 30
0.0
 11
-17.4703132593
 21
16.0427168295
 31
0.0
 11
-17.4855390191
 21
16.0510581088
 31
0.0
 11
-17.499201612
 21
16.0600692484
 31
0.0
 11
-17.5111868744
 21
16.0696754264
 31
0.0
 11
-17.5213966798
 21
16.0797980958
 31
0.0
 11
-17.5297477683
 21
16.0903546744
 31
0.0
 11
-17.5361721015
 21
16.1012592031
 31
0.0
 11
-17.5406171684
 21
16.112422619
 31
0.0
 11
-17.5430467034
 21
16.1237538764
 31
0.0
 11
-17.5434408749
 21
16.135160466
 31
0.0
 11
-17.5417964704
 21
16.1465494262
 31
0.0
 11
-17.5381269035
 21
16.1578277965
 31
0.0
 11
-17.5324621054
 21
16.1689035907
 31
0.0
 11
-17.5248483757
 21
16.1796863421
 31
0.0
 11
-17.5153477454
 21
16.190088243
 31
0.0
 11
-17.5040376817
 21
16.2000244315
 31
0.0
 11
-17.4910107933
 21
16.2094136548
 31
0.0
 11
-17.4763760778
 21
16.218177861
 31
0.0
  0
LINE
  5
258
100
AcDbEntity
  8
RACCORDO
100
AcDbLine
 62
7
  6
CONTINUOUS
 10
-5.5221937472
 20
5.535611972
 11
-5.5236922603
 21
5.7148697368
  0
LINE
  5
259
100
AcDbEntity
  8
RACCORDO
100
AcDbLine
 62
7
  6
CONTINUOUS
 10
-5.5236922603
 20
5.7148697368
 11
-5.5240573374
 21
5.7596885852
  0
LINE
  5
25A
100
AcDbEntity
  8
RACCORDO
100
AcDbLine
 62
7
  6
CONTINUOUS
 10
-5.5240573374
 20
5.7596885852
 11
-5.5254794431
 21
5.9389816169
  0
LINE
  5
25B
100
AcDbEntity
  8
RACCORDO
100
AcDbLine
 62
7
  6
CONTINUOUS
 10
-5.5254794431
 20
5.9389816169
 11
-5.5268404776
 21
6.1183097593
  0
LINE
  5
25C
100
AcDbEntity
  8
RACCORDO
100
AcDbLine
 62
7
  6
CONTINUOUS
 10
-5.5268404776
 20
6.1183097593
 11
-5.5271711853
 21
6.1631461847
  0
LINE
  5
25D
100
AcDbEntity
  8
RACCORDO
100
AcDbLine
 62
7
  6
CONTINUOUS
 10
-5.5271711853
 20
6.1631461847
 11
-5.5284558148
 21
6.3425095108
  0
LINE
  5
25E
100
AcDbEntity
  8
RACCORDO
100
AcDbLine
 62
7
  6
CONTINUOUS
 10
-5.5284558148
 20
6.3425095108
 11
-5.5296793694
 21
6.5219078677
  0
LINE
  5
25F
100
AcDbEntity
  8
RACCORDO
100
AcDbLine
 62
7
  6
CONTINUOUS
 10
-5.5296793694
 20
6.5219078677
 11
-5.5299757076
 21
6.566761843
  0
LINE
  5
260
100
AcDbEntity
  8
RACCORDO
100
AcDbLine
 62
7
  6
CONTINUOUS
 10
-5.5299757076
 20
6.566761843
 11
-5.5311228596
 21
6.7461953007
  0
SPLINE
  5
261
100
AcDbEntity
  8
RACCORDO
100
AcDbSpline
 62
7
  6
CONTINUOUS
 70
0
 71
3
 72
14
 73
10
 74
8
 42
0.0000001
 43
0.0000001
 44
0.0000000001
 12
-0.1348742279
 22
-0.0433117058
 32
0.0
 13
-0.1305045418
 23
0.0549059436
 33
0.0
 40
0.0
 40
0.0
 40
0.0
 40
0.0
 40
0.0041519654
 40
0.1751397287
 40
0.3507158298
 40
0.5337212842
 40
0.7267852074
 40
0.9302596416
 40
1.0
 40
1.0
 40
1.0
 40
1.0
 10
0.7906206394
 20
2.0951147502
 30
0.0
 10
0.7904339751
 20
2.0950548073
 30
0.0
 10
0.7825550796
 20
2.0925418159
 30
0.0
 10
0.7663651058
 20
2.0888236566
 30
0.0
 10
0.7413632906
 20
2.0869853703
 30
0.0
 10
0.7153231524
 20
2.0887454872
 30
0.0
 10
0.6884430412
 20
2.0940892295
 30
0.0
 10
0.6674748046
 20
2.1008706698
 30
0.0
 10
0.6555055947
 20
2.1056724454
 30
0.0
 10
0.6524717835
 20
2.1069488321
 30
0.0
 11
0.7906206394
 21
2.0951147502
 31
0.0
 11
0.7900602958
 21
2.0949360272
 31
0.0
 11
0.7664884245
 21
2.0894738304
 31
0.0
 11
0.7417146544
 21
2.0875838824
 31
0.0
 11
0.715871248
 21
2.089250392
 31
0.0
 11
0.689058638
 21
2.0944936017
 31
0.0
 11
0.6616367358
 21
2.1032750222
 31
0.0
 11
0.6524717835
 21
2.1069488321
 31
0.0
  0
SPLINE
  5
262
100
AcDbEntity
  8
RACCORDO
100
AcDbSpline
 62
253
  6
CONTINUOUS
 70
0
 71
3
 72
14
 73
10
 74
8
 42
0.0000001
 43
0.0000001
 44
0.0000000001
 12
0.1079759423
 22
0.059107575
 32
0.0
 13
0.1114318115
 23
-0.0519160149
 33
0.0
 40
0.0
 40
0.0
 40
0.0
 40
0.0
 40
0.0441160084
 40
0.1884254707
 40
0.3362174592
 40
0.4897860629
 40
0.6509086686
 40
0.8207758232
 40
1.0
 40
1.0
 40
1.0
 40
1.0
 10
-17.594851098
 20
16.2217578515
 30
0.0
 10
-17.5932632755
 20
16.2226270482
 30
0.0
 10
-17.586379925
 20
16.2261536579
 30
0.0
 10
-17.5733981376
 20
16.2309792864
 30
0.0
 10
-17.5553521976
 20
16.2343013886
 30
0.0
 10
-17.5363277864
 20
16.2346689315
 30
0.0
 10
-17.516571877
 20
16.2320990621
 30
0.0
 10
-17.4963328761
 20
16.226644212
 30
0.0
 10
-17.4830331694
 20
16.221279396
 30
0.0
 10
-17.4763760778
 20
16.218177861
 30
0.0
 11
-17.594851098
 21
16.2217578515
 31
0.0
 11
-17.5900185931
 21
16.2242333466
 31
0.0
 11
-17.5733985387
 21
16.2304374759
 31
0.0
 11
-17.555539451
 21
16.2337756543
 31
0.0
 11
-17.5366658313
 21
16.2342059188
 31
0.0
 11
-17.5170149344
 21
16.2317228605
 31
0.0
 11
-17.4968337862
 21
16.2263576932
 31
0.0
 11
-17.4763760778
 21
16.218177861
 31
0.0
  0
SPLINE
  5
263
100
AcDbEntity
  8
0
100
AcDbSpline
 62
253
  6
CONTINUOUS
 70
0
 71
3
 72
16
 73
12
 74
10
 42
0.0000001
 43
0.0000001
 44
0.0000000001
 12
0.0036161431
 22
-0.2418106431
 32
0.0
 13
0.2159330074
 23
-0.1081392174
 33
0.0
 40
0.0
 40
0.0
 40
0.0
 40
0.0
 40
0.0103930778
 40
0.112579259
 40
0.2175952946
 40
0.3277075654
 40
0.4447150983
 40
0.5698908686
 40
0.7040051974
 40
0.8473880294
 40
1.0
 40
1.0
 40
1.0
 40
1.0
 10
-17.7305128337
 20
8.066057252
 30
0.0
 10
-17.7305003061
 20
8.065219533
 30
0.0
 10
-17.7302771956
 20
8.0561466371
 30
0.0
 10
-17.72800794
 20
8.0386742559
 30
0.0
 10
-17.720111161
 20
8.0142416086
 30
0.0
 10
-17.7076661042
 20
7.9904486539
 30
0.0
 10
-17.6908342268
 20
7.9675071116
 30
0.0
 10
-17.6697983313
 20
7.9456047663
 30
0.0
 10
-17.6447616964
 20
7.9249180799
 30
0.0
 10
-17.6159569199
 20
7.9056189392
 30
0.0
 10
-17.5950442222
 20
7.8941332784
 30
0.0
 10
-17.5840595683
 20
7.8886321653
 30
0.0
 11
-17.7305128337
 21
8.066057252
 31
0.0
 11
-17.7304510073
 21
8.0635446338
 31
0.0
 11
-17.7273088623
 21
8.0390677605
 31
0.0
 11
-17.7195929054
 21
8.0149088875
 31
0.0
 11
-17.7073741826
 21
7.9912904621
 31
0.0
 11
-17.6907652001
 21
7.968429955
 31
0.0
 11
-17.669918888
 21
7.9465378585
 31
0.0
 11
-17.6450271925
 21
7.925815748
 31
0.0
 11
-17.6163193082
 21
7.906454426
 31
0.0
 11
-17.5840595683
 21
7.8886321653
 31
0.0
  0
SPLINE
  5
264
100
AcDbEntity
  8
0
100
AcDbSpline
 62
253
  6
CONTINUOUS
 70
0
 71
3
 72
15
 73
11
 74
9
 42
0.0000001
 43
0.0000001
 44
0.0000000001
 12
0.0300647321
 22
-0.2369298603
 32
0.0
 13
0.2129033963
 23
-0.1076278675
 33
0.0
 40
0.0
 40
0.0
 40
0.0
 40
0.0
 40
0.055116003
 40
0.174531732
 40
0.2968588569
 40
0.4238212248
 40
0.5568031287
 40
0.6968053806
 40
0.8444479137
 40
1.0
 40
1.0
 40
1.0
 40
1.0
 10
-17.0550799841
 20
-1.711859769
 30
0.0
 10
-17.0545276348
 20
-1.7162126446
 30
0.0
 10
-17.0522571484
 20
-1.7299303368
 30
0.0
 10
-17.0456108368
 20
-1.7526887632
 30
0.0
 10
-17.0330129451
 20
-1.7792915527
 30
0.0
 10
-17.016030009
 20
-1.8046269989
 30
0.0
 10
-16.9948466711
 20
-1.8284679877
 30
0.0
 10
-16.9696750445
 20
-1.8506104014
 30
0.0
 10
-16.9407580694
 20
-1.8708653462
 30
0.0
 10
-16.91970015
 20
-1.8826924557
 30
0.0
 10
-16.9086609608
 20
-1.8882730355
 30
0.0
 11
-17.0550799841
 21
-1.711859769
 31
0.0
 11
-17.0529303671
 21
-1.724842919
 31
0.0
 11
-17.0449811829
 21
-1.7521993937
 31
0.0
 11
-17.0325555442
 21
-1.7786044056
 31
0.0
 11
-17.0157679194
 21
-1.8038147044
 31
0.0
 11
-16.9947729608
 21
-1.8275980457
 31
0.0
 11
-16.9697640798
 21
-1.8497353308
 31
0.0
 11
-16.9409716652
 21
-1.8700226248
 31
0.0
 11
-16.9086609608
 21
-1.8882730355
 31
0.0
  0
LINE
  5
265
100
AcDbEntity
  8
0
100
AcDbLine
 62
253
  6
CONTINUOUS
 10
-16.6610695511
 20
-2.3017887768
 11
-16.6613651973
 21
-2.3016408048
  0
SPLINE
  5
266
100
AcDbEntity
  8
0
100
AcDbSpline
 62
253
  6
CONTINUOUS
 70
0
 71
3
 72
17
 73
13
 74
11
 42
0.0000001
 43
0.0000001
 44
0.0000000001
 12
-0.4485713169
 22
0.2247679878
 32
0.0
 13
-0.0641616014
 23
0.497241459
 33
0.0
 40
0.0
 40
0.0
 40
0.0
 40
0.0
 40
0.0135139503
 40
0.1104191897
 40
0.2086770229
 40
0.3092905824
 40
0.4131356342
 40
0.5209299671
 40
0.6332192301
 40
0.7503785924
 40
0.8726169518
 40
1.0
 40
1.0
 40
1.0
 40
1.0
 10
-16.6613651973
 20
-2.3016408048
 30
0.0
 10
-16.6633858541
 20
-2.3006283037
 30
0.0
 10
-16.679818516
 20
-2.292200637
 30
0.0
 10
-16.7096278551
 20
-2.2739010374
 30
0.0
 10
-16.7480895086
 20
-2.2426306872
 30
0.0
 10
-16.783073435
 20
-2.2059077518
 30
0.0
 10
-16.8143574612
 20
-2.1639947497
 30
0.0
 10
-16.8417511959
 20
-2.1171811889
 30
0.0
 10
-16.865092664
 20
-2.0657805868
 30
0.0
 10
-16.884245584
 20
-2.0101284058
 30
0.0
 10
-16.8990980743
 20
-1.9505878316
 30
0.0
 10
-16.9059365942
 20
-1.9093864132
 30
0.0
 10
-16.908660961
 20
-1.8882730356
 30
0.0
 11
-16.6613651973
 21
-2.3016408048
 31
0.0
 11
-16.6673982888
 21
-2.2985466144
 31
0.0
 11
-16.7088181164
 21
-2.2731521314
 31
0.0
 11
-16.7470807291
 21
-2.2421229681
 31
0.0
 11
-16.7819385638
 21
-2.2056602563
 31
0.0
 11
-16.8131658485
 21
-2.1640005195
 31
0.0
 11
-16.8405604065
 21
-2.1174139057
 31
0.0
 11
-16.8639448991
 21
-2.0662025192
 31
0.0
 11
-16.8831682177
 21
-2.0106976529
 31
0.0
 11
-16.898105667
 21
-1.9512600005
 31
0.0
 11
-16.908660961
 21
-1.8882730356
 31
0.0
  0
SPLINE
  5
267
100
AcDbEntity
  8
RACCORDO
100
AcDbSpline
 62
7
  6
CONTINUOUS
 70
0
 71
3
 72
23
 73
19
 74
17
 42
0.0000001
 43
0.0000001
 44
0.0000000001
 12
-0.4697235934
 22
0.2720556507
 32
0.0
 13
-0.0327478609
 23
0.5417582291
 33
0.0
 40
0.0
 40
0.0
 40
0.0
 40
0.0
 40
0.0197112377
 40
0.0810136604
 40
0.1447474378
 40
0.2103855487
 40
0.2779702474
 40
0.3474889991
 40
0.4182279689
 40
0.4894443216
 40
0.5610860775
 40
0.6331136178
 40
0.7047627447
 40
0.7752532483
 40
0.8445006569
 40
0.9124937506
 40
0.9785939253
 40
1.0
 40
1.0
 40
1.0
 40
1.0
 10
-5.2561178115
 20
5.061244007
 30
0.0
 10
-5.2592040893
 20
5.0630315249
 30
0.0
 10
-5.27177968
 20
5.0705679061
 30
0.0
 10
-5.2934325001
 20
5.0853300519
 30
0.0
 10
-5.3203196478
 20
5.1069775044
 30
0.0
 10
-5.3463704411
 20
5.1313144745
 30
0.0
 10
-5.3713979819
 20
5.15814883
 30
0.0
 10
-5.395199281
 20
5.187275956
 30
0.0
 10
-5.4175032243
 20
5.2183752305
 30
0.0
 10
-5.4380751099
 20
5.2510994515
 30
0.0
 10
-5.4567682495
 20
5.2851975921
 30
0.0
 10
-5.4734321424
 20
5.3204190404
 30
0.0
 10
-5.4878728174
 20
5.3563850825
 30
0.0
 10
-5.4999326121
 20
5.392689058
 30
0.0
 10
-5.5095225226
 20
5.4290399151
 30
0.0
 10
-5.5165576067
 20
5.4651647499
 30
0.0
 10
-5.5200092725
 20
5.4930976029
 30
0.0
 10
-5.5211649121
 20
5.5088883757
 30
0.0
 10
-5.5213985799
 20
5.5127540148
 30
0.0
 11
-5.2561178115
 21
5.061244007
 31
0.0
 11
-5.2652965247
 21
5.066741811
 31
0.0
 11
-5.2928109345
 21
5.085429091
 31
0.0
 11
-5.319776568
 21
5.1070763526
 31
0.0
 11
-5.345827701
 21
5.1313582828
 31
0.0
 11
-5.370861741
 21
5.1581521389
 31
0.0
 11
-5.3947478088
 21
5.1873433648
 31
0.0
 11
-5.4171300761
 21
5.2185216718
 31
0.0
 11
-5.4377032395
 21
5.2512286524
 31
0.0
 11
-5.4563917596
 21
5.2853113561
 31
0.0
 11
-5.4731016154
 21
5.3206382301
 31
0.0
 11
-5.4875761821
 21
5.3567171618
 31
0.0
 11
-5.4996164481
 21
5.3930180553
 31
0.0
 11
-5.5091762573
 21
5.4293525814
 31
0.0
 11
-5.5161955813
 21
5.465569184
 31
0.0
 11
-5.5205524388
 21
5.5011670842
 31
0.0
 11
-5.5213985799
 21
5.5127540148
 31
0.0
  0
SPLINE
  5
268
100
AcDbEntity
  8
RACCORDO
100
AcDbSpline
 62
7
  6
CONTINUOUS
 70
0
 71
3
 72
15
 73
11
 74
9
 42
0.0000001
 43
0.0000001
 44
0.0000000001
 12
0.0098937155
 22
0.203503376
 32
0.0
 13
0.1649862835
 23
0.1197703097
 33
0.0
 40
0.0
 40
0.0
 40
0.0
 40
0.0
 40
0.0532447951
 40
0.2091906884
 40
0.3575194669
 40
0.4977555399
 40
0.6311027592
 40
0.7588815841
 40
0.88153854
 40
1.0
 40
1.0
 40
1.0
 40
1.0
 10
-5.5306606428
 20
6.7684391647
 30
0.0
 10
-5.5304850465
 20
6.7720509965
 30
0.0
 10
-5.5295971556
 20
6.7862320079
 30
0.0
 10
-5.5266957933
 20
6.8103624692
 30
0.0
 10
-5.5202318738
 20
6.8398922895
 30
0.0
 10
-5.5111690508
 20
6.8671259527
 30
0.0
 10
-5.4995792546
 20
6.8918622703
 30
0.0
 10
-5.4855270872
 20
6.9138982681
 30
0.0
 10
-5.4691456583
 20
6.9329624956
 30
0.0
 10
-5.4566634429
 20
6.9436555232
 30
0.0
 10
-5.4501486042
 20
6.9483849118
 30
0.0
 11
-5.5306606428
 21
6.7684391647
 31
0.0
 11
-5.5299806023
 21
6.7792659047
 31
0.0
 11
-5.5261203497
 21
6.8107917048
 31
0.0
 11
-5.5195851554
 21
6.8402862621
 31
0.0
 11
-5.5104894389
 21
6.8673609116
 31
0.0
 11
-5.4988914896
 21
6.8919185653
 31
0.0
 11
-5.4848315686
 21
6.9138182016
 31
0.0
 11
-5.4685000255
 21
6.9327218707
 31
0.0
 11
-5.4501486042
 21
6.9483849118
 31
0.0
  0
SPLINE
  5
269
100
AcDbEntity
  8
RACCORDO
100
AcDbSpline
 62
253
  6
CONTINUOUS
 70
0
 71
3
 72
21
 73
17
 74
15
 42
0.0000001
 43
0.0000001
 44
0.0000000001
 12
-0.0027086902
 22
0.3665006289
 32
0.0
 13
-0.3229569199
 23
0.1732884182
 33
0.0
 40
0.0
 40
0.0
 40
0.0
 40
0.0
 40
0.0675515957
 40
0.1379106427
 40
0.210618269
 40
0.2851460241
 40
0.3609149144
 40
0.4373129777
 40
0.5137119661
 40
0.5894836079
 40
0.6640158694
 40
0.7367296356
 40
0.8070962814
 40
0.8746567015
 40
0.9390424875
 40
1.0
 40
1.0
 40
1.0
 40
1.0
 10
13.6923430176
 20
0.4126934366
 30
0.0
 10
13.6922820255
 20
0.4209460041
 30
0.0
 10
13.6913986806
 20
0.4377952554
 30
0.0
 10
13.6879885455
 20
0.463323737
 30
0.0
 10
13.6825069492
 20
0.4893602591
 30
0.0
 10
13.675022419
 20
0.5155788632
 30
0.0
 10
13.6656282195
 20
0.5416542127
 30
0.0
 10
13.6544414181
 20
0.567261331
 30
0.0
 10
13.6416014434
 20
0.59208115
 30
0.0
 10
13.6272682986
 20
0.6158043314
 30
0.0
 10
13.6116204824
 20
0.6381353541
 30
0.0
 10
13.5948524353
 20
0.658796355
 30
0.0
 10
13.5771722956
 20
0.6775303904
 30
0.0
 10
13.5587972165
 20
0.6941054473
 30
0.0
 10
13.5399560067
 20
0.7083138785
 30
0.0
 10
13.5268629964
 20
0.7163183554
 30
0.0
 10
13.5203007795
 20
0.7198394323
 30
0.0
 11
13.6923430176
 21
0.4126934366
 31
0.0
 11
13.6910928658
 21
0.4374202323
 31
0.0
 11
13.687715128
 21
0.4629853991
 31
0.0
 11
13.6822522648
 21
0.4890675644
 31
0.0
 11
13.6747729485
 21
0.5153388568
 31
0.0
 11
13.6653711995
 21
0.5414690273
 31
0.0
 11
13.6541652047
 21
0.567129601
 31
0.0
 11
13.6412958313
 21
0.5919980063
 31
0.0
 11
13.6269248569
 21
0.6157616298
 31
0.0
 11
13.6112329347
 21
0.6381217458
 31
0.0
 11
13.5944173236
 21
0.6587972719
 31
0.0
 11
13.5766894076
 21
0.6775283025
 31
0.0
 11
13.5582720393
 21
0.6940793752
 31
0.0
 11
13.539396738
 21
0.7082424316
 31
0.0
 11
13.5203007795
 21
0.7198394323
 31
0.0
  0
SPLINE
  5
26A
100
AcDbEntity
  8
RACCORDO
100
AcDbSpline
 62
253
  6
CONTINUOUS
 70
0
 71
3
 72
21
 73
17
 74
15
 42
0.0000001
 43
0.0000001
 44
0.0000000001
 12
-0.0002381811
 22
0.3665649359
 32
0.0
 13
0.3264581342
 23
0.1667183122
 33
0.0
 40
0.0
 40
0.0
 40
0.0
 40
0.0
 40
0.0673451676
 40
0.1373665829
 40
0.2096497344
 40
0.2837102531
 40
0.3590123512
 40
0.4349859312
 40
0.5110428482
 40
0.5865927408
 40
0.6610588114
 40
0.7338939267
 40
0.8045974427
 40
0.8727332169
 40
0.9379493261
 40
1.0
 40
1.0
 40
1.0
 40
1.0
 10
12.9977916659
 20
0.4167600295
 30
0.0
 10
12.9977863192
 20
0.4249888218
 30
0.0
 10
12.9985557536
 20
0.44178123
 30
0.0
 10
13.0018609857
 20
0.467209882
 30
0.0
 10
13.0072998318
 20
0.4931078295
 30
0.0
 10
13.0148047474
 20
0.5191539022
 30
0.0
 10
13.0242829758
 20
0.5450282353
 30
0.0
 10
13.0356174958
 20
0.5704115978
 30
0.0
 10
13.04866841
 20
0.5949908791
 30
0.0
 10
13.0632747074
 20
0.6184627586
 30
0.0
 10
13.0792563165
 20
0.6405376699
 30
0.0
 10
13.0964166299
 20
0.660943502
 30
0.0
 10
13.114544723
 20
0.679428749
 30
0.0
 10
13.1334199502
 20
0.6957663365
 30
0.0
 10
13.152809275
 20
0.7097531663
 30
0.0
 10
13.1662733416
 20
0.7175990433
 30
0.0
 10
13.1730256573
 20
0.7210473712
 30
0.0
 11
12.9977916659
 21
0.4167600295
 31
0.0
 11
12.9988763491
 21
0.4414225705
 31
0.0
 11
13.0021482288
 21
0.4668805806
 31
0.0
 11
13.0075665732
 21
0.492817132
 31
0.0
 11
13.0150639291
 21
0.5189093395
 31
0.0
 11
13.0245469617
 21
0.54483238
 31
0.0
 11
13.0358976161
 21
0.5702635365
 31
0.0
 11
13.0489745878
 21
0.5948862156
 31
0.0
 11
13.0636150809
 21
0.6183938885
 31
0.0
 11
13.0796368354
 21
0.6404939071
 31
0.0
 11
13.0968403956
 21
0.6609111475
 31
0.0
 11
13.1150115938
 21
0.6793914345
 31
0.0
 11
13.133924216
 21
0.6957047062
 31
0.0
 11
13.1533428182
 21
0.7096478782
 31
0.0
 11
13.1730256573
 21
0.7210473712
 31
0.0
  0
SPLINE
  5
26B
100
AcDbEntity
  8
RACCORDO
100
AcDbSpline
 62
253
  6
CONTINUOUS
 70
0
 71
3
 72
21
 73
17
 74
15
 42
0.0000001
 43
0.0000001
 44
0.0000000001
 12
-0.0002381814
 22
0.366564936
 32
0.0
 13
0.3264581343
 23
0.1667183119
 33
0.0
 40
0.0
 40
0.0
 40
0.0
 40
0.0
 40
0.0673451718
 40
0.1373665919
 40
0.2096497479
 40
0.2837102706
 40
0.3590123719
 40
0.4349859543
 40
0.5110428723
 40
0.5865927648
 40
0.661058834
 40
0.7338939467
 40
0.804597459
 40
0.8727332284
 40
0.9379493321
 40
1.0
 40
1.0
 40
1.0
 40
1.0
 10
-17.6455472507
 20
15.7384294878
 30
0.0
 10
-17.6455525975
 20
15.7466582806
 30
0.0
 10
-17.6447831629
 20
15.7634506899
 30
0.0
 10
-17.6414779304
 20
15.7888793435
 30
0.0
 10
-17.6360390837
 20
15.8147772925
 30
0.0
 10
-17.6285341674
 20
15.8408233666
 30
0.0
 10
-17.619055938
 20
15.8666977006
 30
0.0
 10
-17.6077214172
 20
15.8920810636
 30
0.0
 10
-17.5946705023
 20
15.916660345
 30
0.0
 10
-17.5800642044
 20
15.9401322241
 30
0.0
 10
-17.5640825951
 20
15.9622071347
 30
0.0
 10
-17.5469222819
 20
15.9826129657
 30
0.0
 10
-17.5287941894
 20
16.0010982113
 30
0.0
 10
-17.5099189632
 20
16.0174357974
 30
0.0
 10
-17.4905296398
 20
16.0314226258
 30
0.0
 10
-17.4770655744
 20
16.039268502
 30
0.0
 10
-17.4703132593
 20
16.0427168295
 30
0.0
 11
-17.6455472507
 21
15.7384294878
 31
0.0
 11
-17.6444625674
 21
15.7630920304
 31
0.0
 11
-17.6411906873
 21
15.7885500422
 31
0.0
 11
-17.6357723423
 21
15.8144865952
 31
0.0
 11
-17.6282749856
 21
15.8405788039
 31
0.0
 11
-17.6187919522
 21
15.8665018454
 31
0.0
 11
-17.6074412968
 21
15.8919330025
 31
0.0
 11
-17.5943643244
 21
15.9165556816
 31
0.0
 11
-17.5797238308
 21
15.9400633541
 31
0.0
 11
-17.5637020762
 21
15.962163372
 31
0.0
 11
-17.5464985161
 21
15.9825806112
 31
0.0
 11
-17.5283273185
 21
16.0010608969
 31
0.0
 11
-17.5094146973
 21
16.0173741672
 31
0.0
 11
-17.4899960966
 21
16.0313173377
 31
0.0
 11
-17.4703132593
 21
16.0427168295
 31
0.0
  0
SPLINE
  5
26C
100
AcDbEntity
  8
RACCORDO
100
AcDbSpline
 62
253
  6
CONTINUOUS
 70
0
 71
3
 72
24
 73
20
 74
18
 42
0.0000001
 43
0.0000001
 44
0.0000000001
 12
-0.6460894983
 22
-0.3048812545
 32
0.0
 13
-0.6389944042
 23
0.3194845389
 33
0.0
 40
0.0
 40
0.0
 40
0.0
 40
0.0
 40
0.0524100356
 40
0.1072497924
 40
0.1642744396
 40
0.2231948714
 40
0.2836919856
 40
0.345422123
 40
0.4080213494
 40
0.471113599
 40
0.5343152536
 40
0.5972420897
 40
0.6595128813
 40
0.7207563994
 40
0.7806160868
 40
0.8387583409
 40
0.8948769789
 40
0.9486992022
 40
1.0
 40
1.0
 40
1.0
 40
1.0
 10
13.6923450461
 20
0.4126943938
 30
0.0
 10
13.6810578549
 20
0.4073681147
 30
0.0
 10
13.6575679324
 20
0.397285493
 30
0.0
 10
13.6207014731
 20
0.3841346364
 30
0.0
 10
13.5816503305
 20
0.3726970631
 30
0.0
 10
13.5407320664
 20
0.3630663406
 30
0.0
 10
13.4982773064
 20
0.3553202438
 30
0.0
 10
13.4546301495
 20
0.3495218181
 30
0.0
 10
13.4101444956
 20
0.3457182386
 30
0.0
 10
13.3651816078
 20
0.3439405161
 30
0.0
 10
13.3201064183
 20
0.344203119
 30
0.0
 10
13.2752848962
 20
0.3465038966
 30
0.0
 10
13.2310807806
 20
0.3508241021
 30
0.0
 10
13.1878529548
 20
0.3571285088
 30
0.0
 10
13.1459517585
 20
0.3653658409
 30
0.0
 10
13.1057166173
 20
0.3754691148
 30
0.0
 10
13.0674722787
 20
0.3873568645
 30
0.0
 10
13.0315296253
 20
0.4009320022
 30
0.0
 10
13.0087167432
 20
0.4112977071
 30
0.0
 10
12.997789769
 20
0.4167609776
 30
0.0
 11
13.6923450461
 21
0.4126943938
 31
0.0
 11
13.6579618094
 21
0.3978713563
 31
0.0
 11
13.6210778964
 21
0.3846612878
 31
0.0
 11
13.5819926506
 21
0.3731714544
 31
0.0
 11
13.5410262543
 21
0.3634960707
 31
0.0
 11
13.498512787
 21
0.3557139936
 31
0.0
 11
13.4547984858
 21
0.3498886173
 31
0.0
 11
13.4102403978
 21
0.3460675411
 31
0.0
 11
13.3652019332
 21
0.3442819196
 31
0.0
 11
13.3200506995
 21
0.3445463066
 31
0.0
 11
13.2751545282
 21
0.3468585453
 31
0.0
 11
13.2308798646
 21
0.3511997769
 31
0.0
 11
13.1875877974
 21
0.3575345991
 31
0.0
 11
13.145631907
 21
0.3658112468
 31
0.0
 11
13.1053538605
 21
0.3759623013
 31
0.0
 11
13.0670821292
 21
0.3879050137
 31
0.0
 11
13.0311301655
 21
0.4015414907
 31
0.0
 11
12.997789769
 21
0.4167609776
 31
0.0
  0
SPLINE
  5
26D
100
AcDbEntity
  8
0
100
AcDbSpline
 62
253
  6
CONTINUOUS
 70
0
 71
3
 72
23
 73
19
 74
17
 42
0.0000001
 43
0.0000001
 44
0.0000000001
 12
-0.6423463248
 22
-0.3139621741
 32
0.0
 13
-0.6396924869
 23
0.3193345735
 33
0.0
 40
0.0
 40
0.0
 40
0.0
 40
0.0
 40
0.0560459375
 40
0.1147633706
 40
0.1758533728
 40
0.2389680004
 40
0.3037206074
 40
0.3696950256
 40
0.4364539816
 40
0.5035470265
 40
0.5705181849
 40
0.6369134918
 40
0.7022885703
 40
0.7662164078
 40
0.8282955157
 40
0.8881587155
 40
0.9454828706
 40
1.0
 40
1.0
 40
1.0
 40
1.0
 10
13.7582132704
 20
-7.4331262796
 30
0.0
 10
13.7462129698
 20
-7.4389917144
 30
0.0
 10
13.7211790096
 20
-7.4500750561
 30
0.0
 10
13.6817861964
 20
-7.4644578604
 30
0.0
 10
13.6399729424
 20
-7.4768831199
 30
0.0
 10
13.5961229522
 20
-7.487236341
 30
0.0
 10
13.5506355998
 20
-7.495423254
 30
0.0
 10
13.5039269126
 20
-7.5013687019
 30
0.0
 10
13.4564242302
 20
-7.5050181307
 30
0.0
 10
13.408562507
 20
-7.5063380078
 30
0.0
 10
13.3607800747
 20
-7.505316227
 30
0.0
 10
13.3135144999
 20
-7.5019622117
 30
0.0
 10
13.267198452
 20
-7.4963068233
 30
0.0
 10
13.2222554657
 20
-7.4884019553
 30
0.0
 10
13.179096312
 20
-7.4783201353
 30
0.0
 10
13.1381135477
 20
-7.4661529257
 30
0.0
 10
13.0996830507
 20
-7.4520122776
 30
0.0
 10
13.0753492549
 20
-7.4410629477
 30
0.0
 10
13.0637245222
 20
-7.4352598796
 30
0.0
 11
13.7582132704
 21
-7.4331262796
 31
0.0
 11
13.7216009832
 21
-7.4494123255
 31
0.0
 11
13.6821859992
 21
-7.4638648973
 31
0.0
 11
13.640331239
 21
-7.4763509202
 31
0.0
 11
13.5964220878
 21
-7.486755427
 31
0.0
 11
13.5508628469
 21
-7.4949826164
 31
0.0
 11
13.5040730112
 21
-7.500956735
 31
0.0
 11
13.4564834064
 21
-7.5046227751
 31
0.0
 11
13.4085322224
 21
-7.5059469809
 31
0.0
 11
13.3606609783
 21
-7.5049171596
 31
0.0
 11
13.313310457
 21
-7.5015427935
 31
0.0
 11
13.2669166471
 21
-7.4958549525
 31
0.0
 11
13.2219067277
 21
-7.4879060086
 31
0.0
 11
13.1786951358
 21
-7.4777691531
 31
0.0
 11
13.1376797498
 21
-7.4655377228
 31
0.0
 11
13.0992382262
 21
-7.4513243409
 31
0.0
 11
13.0637245222
 21
-7.4352598796
 31
0.0
  0
SPLINE
  5
26E
100
AcDbEntity
  8
0
100
AcDbSpline
 62
253
  6
CONTINUOUS
 70
0
 71
3
 72
14
 73
10
 74
8
 42
0.0000001
 43
0.0000001
 44
0.0000000001
 12
0.1590485282
 22
-9.8322410214
 32
0.0
 13
1.3196249534
 23
-9.744580541
 33
0.0
 40
0.0
 40
0.0
 40
0.0
 40
0.0
 40
0.1462535095
 40
0.2913919944
 40
0.4354038616
 40
0.5782788199
 40
0.7200079478
 40
0.860583705
 40
1.0
 40
1.0
 40
1.0
 40
1.0
 10
13.0637245219
 20
-7.4352598798
 30
0.0
 10
13.0714783237
 20
-7.9145931317
 30
0.0
 10
13.0945415161
 20
-8.8695005913
 30
0.0
 10
13.1521838816
 20
-10.2955821539
 30
0.0
 10
13.2327229401
 20
-11.7094671977
 30
0.0
 10
13.3361308315
 20
-13.1106585854
 30
0.0
 10
13.4623721296
 20
-14.4986715965
 30
0.0
 10
13.6114024611
 20
-15.87301713
 30
0.0
 10
13.7263938026
 20
-16.7836121827
 30
0.0
 10
13.7877195432
 20
-17.2364632877
 30
0.0
 11
13.0637245219
 21
-7.4352598798
 31
0.0
 11
13.0985379298
 21
-8.873026348
 31
0.0
 11
13.1562695034
 21
-10.2990815006
 31
0.0
 11
13.2368991897
 21
-11.7129289025
 31
0.0
 11
13.3403989689
 21
-13.114076257
 31
0.0
 11
13.4667328805
 21
-14.5020358304
 31
0.0
 11
13.6158570139
 21
-15.8763243247
 31
0.0
 11
13.7877195432
 21
-17.2364632877
 31
0.0
  0
SPLINE
  5
26F
100
AcDbEntity
  8
0
100
AcDbSpline
 62
253
  6
CONTINUOUS
 70
0
 71
3
 72
14
 73
10
 74
8
 42
0.0000001
 43
0.0000001
 44
0.0000000001
 12
0.1581958
 22
-9.7776961891
 32
0.0
 13
1.3125293863
 23
-9.6904920044
 33
0.0
 40
0.0
 40
0.0
 40
0.0
 40
0.0
 40
0.1462525689
 40
0.2913905064
 40
0.4354020953
 40
0.5782770586
 40
0.7200064886
 40
0.860582859
 40
1.0
 40
1.0
 40
1.0
 40
1.0
 10
13.7582132704
 20
-7.4331262796
 30
0.0
 10
13.7659254511
 20
-7.9097973415
 30
0.0
 10
13.7888648229
 20
-8.8594025181
 30
0.0
 10
13.8461977119
 20
-10.2775667369
 30
0.0
 10
13.9263043827
 20
-11.6836047768
 30
0.0
 10
14.0291571167
 20
-13.0770218077
 30
0.0
 10
14.1547206776
 20
-14.4573357983
 30
0.0
 10
14.3029508885
 20
-15.8240600602
 30
0.0
 10
14.4173247223
 20
-16.7296058225
 30
0.0
 10
14.4783210872
 20
-17.1799460525
 30
0.0
 11
13.7582132704
 21
-7.4331262796
 31
0.0
 11
13.7928397284
 21
-8.8629073885
 31
0.0
 11
13.8502613351
 21
-10.2810457256
 31
0.0
 11
13.9304581221
 21
-11.6870462632
 31
0.0
 11
14.0334022207
 21
-13.0804194366
 31
0.0
 11
14.1590578635
 21
-14.4606802171
 31
0.0
 11
14.3073813748
 21
-15.8273479866
 31
0.0
 11
14.4783210872
 21
-17.1799460525
 31
0.0
  0
SPLINE
  5
270
100
AcDbEntity
  8
0
100
AcDbSpline
 62
253
  6
CONTINUOUS
 70
0
 71
3
 72
23
 73
19
 74
17
 42
0.0000001
 43
0.0000001
 44
0.0000000001
 12
-0.6046875015
 22
-0.3899603372
 32
0.0
 13
-0.6449837558
 23
0.3189231783
 33
0.0
 40
0.0
 40
0.0
 40
0.0
 40
0.0
 40
0.0585677629
 40
0.1193033505
 40
0.1819239888
 40
0.2461052335
 40
0.3114902464
 40
0.377698354
 40
0.4443331115
 40
0.5109900572
 40
0.5772643152
 40
0.6427581907
 40
0.7070889007
 40
0.7698965953
 40
0.8308528525
 40
0.8896698636
 40
0.9461105666
 40
1.0
 40
1.0
 40
1.0
 40
1.0
 10
14.4783210872
 20
-17.1799460525
 30
0.0
 10
14.4665160224
 20
-17.1875590874
 30
0.0
 10
14.4418653309
 20
-17.2021472014
 30
0.0
 10
14.4028328074
 20
-17.2217171171
 30
0.0
 10
14.3613696857
 20
-17.2392298995
 30
0.0
 10
14.3178572909
 20
-17.2545244273
 30
0.0
 10
14.2726924197
 20
-17.2674617103
 30
0.0
 10
14.2262883847
 20
-17.2779233801
 30
0.0
 10
14.1790698067
 20
-17.2858137653
 30
0.0
 10
14.1314689732
 20
-17.2910606279
 30
0.0
 10
14.0839216577
 20
-17.2936159324
 30
0.0
 10
14.0368630134
 20
-17.2934562601
 30
0.0
 10
13.9907234855
 20
-17.2905829969
 30
0.0
 10
13.945924583
 20
-17.2850221328
 30
0.0
 10
13.9028754279
 20
-17.2768240973
 30
0.0
 10
13.8619669927
 20
-17.2660620419
 30
0.0
 10
13.823575309
 20
-17.2528340721
 30
0.0
 10
13.7993054958
 20
-17.2421921397
 30
0.0
 10
13.7877195595
 20
-17.2364632766
 30
0.0
 11
14.4783210872
 21
-17.1799460525
 31
0.0
 11
14.4420851901
 21
-17.2014593145
 31
0.0
 11
14.4030417287
 21
-17.2210900317
 31
0.0
 11
14.3615503824
 21
-17.2386573605
 31
0.0
 11
14.317993381
 21
-17.2539994657
 31
0.0
 11
14.2727719837
 21
-17.2669750115
 31
0.0
 11
14.2263027827
 21
-17.2774644637
 31
0.0
 11
14.1790138652
 21
-17.2853711905
 31
0.0
 11
14.1313408698
 21
-17.2906223528
 31
0.0
 11
14.0837229735
 21
-17.2931695756
 31
0.0
 11
14.0365988457
 21
-17.2929893931
 31
0.0
 11
13.9904026069
 21
-17.2900834651
 31
0.0
 11
13.9455598298
 21
-17.284478562
 31
0.0
 11
13.9024836186
 21
-17.2762263176
 31
0.0
 11
13.8615708032
 21
-17.2654027539
 31
0.0
 11
13.8231982841
 21
-17.2521075806
 31
0.0
 11
13.7877195595
 21
-17.2364632766
 31
0.0
  0
SPLINE
  5
271
100
AcDbEntity
  8
0
100
AcDbSpline
 62
253
  6
CONTINUOUS
 70
0
 71
3
 72
17
 73
13
 74
11
 42
0.0000001
 43
0.0000001
 44
0.0000000001
 12
0.0674319763
 22
-0.5058107866
 32
0.0
 13
0.4567187149
 23
-0.2283798676
 33
0.0
 40
0.0
 40
0.0
 40
0.0
 40
0.0
 40
0.1256416646
 40
0.2465040713
 40
0.3626904901
 40
0.4744396265
 40
0.5821450675
 40
0.6863548453
 40
0.7877685642
 40
0.8872197306
 40
0.9856444521
 40
1.0
 40
1.0
 40
1.0
 40
1.0
 10
13.7877195432
 20
-17.2364632877
 30
0.0
 10
13.7905436318
 20
-17.2576469241
 30
0.0
 10
13.7976380486
 20
-17.2990233238
 30
0.0
 10
13.8130285451
 20
-17.3588388439
 30
0.0
 10
13.8328747154
 20
-17.4148400613
 30
0.0
 10
13.8570596825
 20
-17.4666598149
 30
0.0
 10
13.8854405696
 20
-17.5139584484
 30
0.0
 10
13.9178467453
 20
-17.5564182719
 30
0.0
 10
13.9540775225
 20
-17.5937464988
 30
0.0
 10
13.9938997237
 20
-17.6256788618
 30
0.0
 10
14.0248081334
 20
-17.6445239406
 30
0.0
 10
14.0418965663
 20
-17.6532717738
 30
0.0
 10
14.0440820488
 20
-17.6543646131
 30
0.0
 11
13.7877195432
 21
-17.2364632877
 31
0.0
 11
13.79864999
 21
-17.2996378291
 31
0.0
 11
13.8141183176
 21
-17.3593409205
 31
0.0
 11
13.8340248692
 21
-17.4151874033
 31
0.0
 11
13.8582404729
 21
-17.4668143454
 31
0.0
 11
13.8866086739
 21
-17.5138877807
 31
0.0
 11
13.9189458196
 21
-17.556102448
 31
0.0
 11
13.9550425523
 21
-17.5931846088
 31
0.0
 11
13.9946650736
 21
-17.6248937264
 31
0.0
 11
14.0375570219
 21
-17.6510242698
 31
0.0
 11
14.0440820488
 21
-17.6543646131
 31
0.0
  0
SPLINE
  5
272
100
AcDbEntity
  8
0
100
AcDbSpline
 62
253
  6
CONTINUOUS
 70
0
 71
3
 72
24
 73
20
 74
18
 42
0.0000001
 43
0.0000001
 44
0.0000000001
 12
0.0639027533
 22
-0.4717728467
 32
0.0
 13
0.4413838546
 23
0.1784193758
 33
0.0
 40
0.0
 40
0.0
 40
0.0
 40
0.0
 40
0.0674522603
 40
0.1324328803
 40
0.1949921921
 40
0.2552669519
 40
0.3134744861
 40
0.3699113309
 40
0.4249505657
 40
0.4790314766
 40
0.5326426374
 40
0.5862971832
 40
0.6405065485
 40
0.6957524301
 40
0.7524643122
 40
0.8110030704
 40
0.8716529464
 40
0.9346161818
 40
1.0
 40
1.0
 40
1.0
 40
1.0
 10
14.4783210872
 20
-17.1799460525
 30
0.0
 10
14.4797578822
 20
-17.1905534341
 30
0.0
 10
14.4833686892
 20
-17.2112838359
 30
0.0
 10
14.4911978219
 20
-17.2412591282
 30
0.0
 10
14.5012942328
 20
-17.2693480704
 30
0.0
 10
14.5135977585
 20
-17.2953636679
 30
0.0
 10
14.5280352092
 20
-17.3191350842
 30
0.0
 10
14.5445191309
 20
-17.3405024555
 30
0.0
 10
14.5629466348
 20
-17.3593186062
 30
0.0
 10
14.5831984543
 20
-17.3754509478
 30
0.0
 10
14.6051386307
 20
-17.388784479
 30
0.0
 10
14.6286159289
 20
-17.399225226
 30
0.0
 10
14.6534667683
 20
-17.4067027539
 30
0.0
 10
14.6795191478
 20
-17.4111710058
 30
0.0
 10
14.7065960076
 20
-17.4126072486
 30
0.0
 10
14.7345173335
 20
-17.411010307
 30
0.0
 10
14.7631017042
 20
-17.4063981069
 30
0.0
 10
14.7921602494
 20
-17.3988090376
 30
0.0
 10
14.8113623343
 20
-17.391931135
 30
0.0
 10
14.8209821215
 20
-17.3880425549
 30
0.0
 11
14.4783210872
 21
-17.1799460525
 31
0.0
 11
14.4838787787
 21
-17.2115742106
 31
0.0
 11
14.4917455052
 21
-17.2414933243
 31
0.0
 11
14.5018695514
 21
-17.2695031239
 31
0.0
 11
14.5141852607
 21
-17.2954215515
 31
0.0
 11
14.5286130483
 21
-17.3190809354
 31
0.0
 11
14.5450595146
 21
-17.3403278351
 31
0.0
 11
14.5634181781
 21
-17.3590244629
 31
0.0
 11
14.5835701104
 21
-17.3750495171
 31
0.0
 11
14.6053848985
 21
-17.3882991114
 31
0.0
 11
14.6287211211
 21
-17.3986871922
 31
0.0
 11
14.6534277227
 21
-17.4061463748
 31
0.0
 11
14.6793445772
 21
-17.4106281727
 31
0.0
 11
14.7063036964
 21
-17.4121034251
 31
0.0
 11
14.7341302583
 21
-17.4105625012
 31
0.0
 11
14.7626442093
 21
-17.4060152661
 31
0.0
 11
14.7916601816
 21
-17.3984912913
 31
0.0
 11
14.8209821215
 21
-17.3880425549
 31
0.0
  0
SPLINE
  5
273
100
AcDbEntity
  8
0
100
AcDbSpline
 62
253
  6
CONTINUOUS
 70
0
 71
3
 72
17
 73
13
 74
11
 42
0.0000001
 43
0.0000001
 44
0.0000000001
 12
-0.0146233495
 22
-0.3374304751
 32
0.0
 13
-0.3134643983
 23
-0.1267186416
 33
0.0
 40
0.0
 40
0.0
 40
0.0
 40
0.0
 40
0.1257612106
 40
0.2463557878
 40
0.361548946
 40
0.4712938634
 40
0.5757615065
 40
0.6753678851
 40
0.7707922496
 40
0.8629762818
 40
0.9530928601
 40
1.0
 40
1.0
 40
1.0
 40
1.0
 10
14.8209821215
 20
-17.3880425549
 30
0.0
 10
14.8203691048
 20
-17.4021877766
 30
0.0
 10
14.8181181681
 20
-17.4298665848
 30
0.0
 10
14.8114381189
 20
-17.4700689419
 30
0.0
 10
14.8015788633
 20
-17.5077613318
 30
0.0
 10
14.7886252952
 20
-17.542583727
 30
0.0
 10
14.7726878661
 20
-17.5742045602
 30
0.0
 10
14.7539023276
 20
-17.6023160216
 30
0.0
 10
14.7324313769
 20
-17.6266348914
 30
0.0
 10
14.7084692697
 20
-17.6469034728
 30
0.0
 10
14.6863474125
 20
-17.6603954225
 30
0.0
 10
14.6722711693
 20
-17.6667798244
 30
0.0
 10
14.6673699299
 20
-17.6687611608
 30
0.0
 11
14.8209821215
 21
-17.3880425549
 31
0.0
 11
14.8174713864
 21
-17.4303727157
 31
0.0
 11
14.8107180011
 21
-17.4705394159
 31
0.0
 11
14.8007868535
 21
-17.5081567267
 31
0.0
 11
14.7877733638
 21
-17.542863214
 31
0.0
 11
14.7718025681
 21
-17.5743254117
 31
0.0
 11
14.7530279165
 21
-17.6022410252
 31
0.0
 11
14.7316297993
 21
-17.6263418364
 31
0.0
 11
14.7078138135
 21
-17.6463962802
 31
0.0
 11
14.6818087875
 21
-17.66221167
 31
0.0
 11
14.6673699299
 21
-17.6687611608
 31
0.0
  0
SPLINE
  5
274
100
AcDbEntity
  8
RACCORDO
100
AcDbSpline
 62
253
  6
CONTINUOUS
 70
0
 71
3
 72
16
 73
12
 74
10
 42
0.0000001
 43
0.0000001
 44
0.0000000001
 12
-0.2161676901
 22
0.108088129
 32
0.0
 13
-0.0002081162
 23
0.2420109618
 33
0.0
 40
0.0
 40
0.0
 40
0.0
 40
0.0
 40
0.1436783147
 40
0.279066529
 40
0.4060825254
 40
0.5249174698
 40
0.6361059662
 40
0.7405757101
 40
0.8396792241
 40
0.9351856859
 40
1.0
 40
1.0
 40
1.0
 40
1.0
 10
-17.645545353
 20
15.7384285386
 30
0.0
 10
-17.6558982228
 20
15.7436051787
 30
0.0
 10
-17.675663118
 20
15.7543728617
 30
0.0
 10
-17.7030623351
 20
15.7723193584
 30
0.0
 10
-17.7271445619
 20
15.7914602067
 30
0.0
 10
-17.7477130758
 20
15.8116523729
 30
0.0
 10
-17.7645958596
 20
15.83274954
 30
0.0
 10
-17.7776392444
 20
15.8545994038
 30
0.0
 10
-17.7867060437
 20
15.8770366821
 30
0.0
 10
-17.7911777238
 20
15.8975619622
 30
0.0
 10
-17.7919887457
 20
15.9104951725
 30
0.0
 10
-17.791993242
 20
15.915723764
 30
0.0
 11
-17.645545353
 21
15.7384285386
 31
0.0
 11
-17.6760022332
 21
15.7551076901
 31
0.0
 11
-17.7033265919
 21
15.7731093742
 31
0.0
 11
-17.7272965054
 21
15.7922874842
 31
0.0
 11
-17.7477154913
 21
15.8124849459
 31
0.0
 11
-17.7644170984
 21
15.833537047
 31
0.0
 11
-17.7772652776
 21
15.855272348
 31
0.0
 11
-17.7861550383
 21
15.8775133286
 31
0.0
 11
-17.7910138816
 21
15.9000785972
 31
0.0
 11
-17.791993242
 21
15.915723764
 31
0.0
  0
SPLINE
  5
275
100
AcDbEntity
  8
0
100
AcDbSpline
 62
253
  6
CONTINUOUS
 70
0
 71
3
 72
14
 73
10
 74
8
 42
0.0000001
 43
0.0000001
 44
0.0000000001
 12
-1.2344531456
 22
9.7271211268
 32
0.0
 13
-0.1480272948
 23
9.8040220269
 33
0.0
 40
0.0
 40
0.0
 40
0.0
 40
0.0
 40
0.1390931295
 40
0.2794615902
 40
0.4210944051
 40
0.5639791418
 40
0.7081019866
 40
0.8534477621
 40
1.0
 40
1.0
 40
1.0
 40
1.0
 10
-16.908660961
 20
-1.8882730356
 30
0.0
 10
-16.9658956114
 20
-1.4372811294
 30
0.0
 10
-17.0732062247
 20
-0.5301692885
 30
0.0
 10
-17.2122211919
 20
0.839147423
 30
0.0
 10
-17.3299778171
 20
2.2228959761
 30
0.0
 10
-17.4264347506
 20
3.6205894958
 30
0.0
 10
-17.5015588816
 20
5.0317441804
 30
0.0
 10
-17.5553241959
 20
6.4558645418
 30
0.0
 10
-17.5768283245
 20
7.4096983758
 30
0.0
 10
-17.5840595683
 20
7.8886321653
 30
0.0
 11
-16.908660961
 21
-1.8882730356
 31
0.0
 11
-17.0689876339
 21
-0.5339020008
 31
0.0
 11
-17.2081021706
 21
0.8353816951
 31
0.0
 11
-17.3259562241
 21
2.2191013395
 31
0.0
 11
-17.4225088311
 21
3.6167751079
 31
0.0
 11
-17.4977264448
 21
5.0279164735
 31
0.0
 11
-17.5515829262
 21
6.45203408
 31
0.0
 11
-17.5840595683
 21
7.8886321653
 31
0.0
  0
ELLIPSE
  5
276
100
AcDbEntity
  8
RACCORDO
100
AcDbEllipse
 62
7
  6
CONTINUOUS
 10
-13.9204331289
 20
17.9476296513
 30
0.0
 11
-0.1119858744
 21
0.2236318019
 31
0.0
 40
0.6122594231
 41
-0.6852493493
 42
0.0223236952
  0
ELLIPSE
  5
277
100
AcDbEntity
  8
RACCORDO
100
AcDbEllipse
 62
7
  6
CONTINUOUS
 10
17.3334710931
 20
2.3206775403
 30
0.0
 11
-0.1119259236
 21
0.2235783474
 31
0.0
 40
0.6126250184
 41
-2.2559124555
 42
-0.6854206804
  0
ELLIPSE
  5
278
100
AcDbEntity
  8
0
100
AcDbEllipse
 62
7
  6
CONTINUOUS
 10
16.6053490668
 20
-16.3460521145
 30
0.0
 11
-0.1826272431
 21
0.4654700168
 31
0.0
 40
0.6543766329
 41
-3.1348732976
 42
-2.2008763123
  0
ENDSEC
  0
SECTION
  2
OBJECTS
  0
DICTIONARY
  5
C
100
AcDbDictionary
280
0
281
1
  3
ACAD_GROUP
350
D
  3
ACAD_MLINESTYLE
350
17
  3
ACAD_LAYOUT
350
1A
  3
ACAD_PLOTSETTINGS
350
19
  3
ACAD_PLOTSTYLENAME
350
E
  0
DICTIONARY
  5
D
102
{ACAD_REACTORS
330
C
102
}
100
AcDbDictionary
280
0
281
1
  0
ACDBDICTIONARYWDFLT
  5
E
102
{ACAD_REACTORS
330
C
102
}
100
AcDbDictionary
281
1
  3
Normal
350
F
100
AcDbDictionaryWithDefault
340
F
  0
DICTIONARY
  5
17
102
{ACAD_REACTORS
330
C
102
}
100
AcDbDictionary
280
0
281
1
  3
Standard
350
18
  0
DICTIONARY
  5
19
102
{ACAD_REACTORS
330
C
102
}
100
AcDbDictionary
281
1
  0
DICTIONARY
  5
1A
102
{ACAD_REACTORS
330
C
102
}
100
AcDbDictionary
281
1
  3
Model
350
279
  3
Layout1
350
27A
  0
ACDBPLACEHOLDER
  5
F
102
{ACAD_REACTORS
330
E
102
}
  0
MLINESTYLE
  5
18
102
{ACAD_REACTORS
330
17
102
}
100
AcDbMlineStyle
  2
STANDARD
 70
0
  3

 62
256
 51
90.0
 52
90.0
 71
2
 49
0.5
 62
256
  6
BYLAYER
 49
-0.5
 62
256
  6
BYLAYER
  0
LAYOUT
  5
279
102
{ACAD_REACTORS
330
1A
102
}
100
AcDbPlotSettings
  1

  2
none_device
  4
ISO_A4_(297.00_x_210.00_MM)
  6

 40
0.0
 41
0.0
 42
0.0
 43
0.0
 44
297.0
 45
210.0
 46
0.0
 47
0.0
 48
0.0
 49
0.0
140
0.0
141
0.0
142
1.0
143
1.0
 70
1024
 72
1
 73
0
 74
0
  7

 75
0
147
1.0
148
0.0
149
0.0
100
AcDbLayout
  1
Model
 70
0
 71
0
 10
0.0
 20
0.0
 11
297.0
 21
210.0
 12
0.0
 22
0.0
 32
0.0
 14
0.0
 24
0.0
 34
0.0
 15
0.0
 25
0.0
 35
0.0
146
0.0
 13
0.0
 23
0.0
 33
0.0
 16
1.0
 26
0.0
 36
0.0
 17
0.0
 27
1.0
 37
0.0
 76
0
330
214
345
0
346
0
  0
LAYOUT
  5
27A
102
{ACAD_REACTORS
330
1A
102
}
100
AcDbPlotSettings
  1

  2
none_device
  4
ISO_A4_(297.00_x_210.00_MM)
  6

 40
0.0
 41
0.0
 42
0.0
 43
0.0
 44
297.0
 45
210.0
 46
0.0
 47
0.0
 48
0.0
 49
0.0
140
0.0
141
0.0
142
1.0
143
1.0
 70
0
 72
1
 73
0
 74
0
  7

 75
0
147
1.0
148
0.0
149
0.0
100
AcDbLayout
  1
Layout1
 70
0
 71
1
 10
0.0
 20
0.0
 11
297.0
 21
210.0
 12
0.0
 22
0.0
 32
0.0
 14
0.0
 24
0.0
 34
0.0
 15
0.0
 25
0.0
 35
0.0
146
0.0
 13
0.0
 23
0.0
 33
0.0
 16
1.0
 26
0.0
 36
0.0
 17
0.0
 27
1.0
 37
0.0
 76
0
330
215
345
0
346
0
  0
ENDSEC
  0
EOF
