  0
SECTION
  2
HEADER
  9
$ACADVER
  1
AC1015
  9
$DWGCODEPAGE
  3
ANSI_1252
  9
$EXTMAX
 10
297.0
 20
210.0
 30
0.0
  9
$EXTMIN
 10
0.0
 20
0.0
 30
0.0
  9
$LIMMIN
 10
0.0
 20
0.0
  9
$LIMMAX
 10
297.0
 20
210.0
  9
$VIEWCTR
 10
148.5
 20
105.0
  9
$VIEWSIZE
 40
210.0
  9
$CLAYER
  8
0
  9
$LTSCALE
 40
16.335
  9
$CELTYPE
  6
BYLAYER
  9
$DIMSCALE
 40
1.0
  9
$DIMASZ
 40
3.0
  9
$DIMEXO
 40
1.85625
  9
$DIMDLI
 40
11.286
  9
$DIMEXE
 40
5.346
  9
$DIMCEN
 40
2.673
  9
$DIMLFAC
 40
1.0
  9
$DIMBLK
  1
_FILLED
  9
$DIMTXT
 40
3.0
  9
$DIMTOL
 70
1
  9
$DIMLIM
 70
0
  9
$DIMTFAC
 40
1.0
  9
$DIMTP
 40
0.01
  9
$DIMTM
 40
0.01
  9
$PDMODE
 70
3
  9
$PDSIZE
 40
3.0
  9
$HANDSEED
  5
2F9
  9
$TILEMODE
 70
1
  9
$MEASUREMENT
 70
1
  9
$INSUNITS
 70
4
  0
ENDSEC
  0
SECTION
  2
CLASSES
  0
CLASS
  1
ACDBDICTIONARYWDFLT
  2
AcDbDictionaryWithDefault
  3
AutoCAD 2000
 90
0
280
0
281
0
  0
CLASS
  1
ACDBPLACEHOLDER
  2
AcDbPlaceHolder
  3
AutoCAD 2000
 90
0
280
0
281
0
  0
CLASS
  1
LAYOUT
  2
AcDbLayout
  3
AutoCAD 2000
 90
0
280
0
281
0
  0
ENDSEC
  0
SECTION
  2
TABLES
  0
TABLE
  2
VPORT
  5
8
100
AcDbSymbolTable
 70
2
  0
VPORT
  5
1F4
100
AcDbSymbolTableRecord
100
AcDbViewportTableRecord
  2
*ACTIVE
 70
0
 10
0.0
 20
0.0
 11
1.0
 21
1.0
 12
148.5
 22
105.0
 13
0.0
 23
0.0
 14
1.0
 24
1.0
 15
0.0
 25
0.0
 16
0.0
 26
0.0
 36
1.0
 17
0.0
 27
0.0
 37
0.0
 40
210.0
 41
1.4142857143
 42
50.0
 43
0.0
 44
0.0
 50
0.0
 51
0.0
 71
0
 72
100
 73
1
 74
1
 75
0
 76
0
 77
0
 78
0
  0
ENDTAB
  0
TABLE
  2
LTYPE
  5
5
100
AcDbSymbolTable
 70
6
  0
LTYPE
  5
14
100
AcDbSymbolTableRecord
100
AcDbLinetypeTableRecord
  2
BYBLOCK
 70
0
  3

 72
65
 73
0
 40
0.0
  0
LTYPE
  5
15
100
AcDbSymbolTableRecord
100
AcDbLinetypeTableRecord
  2
BYLAYER
 70
0
  3

 72
65
 73
0
 40
0.0
  0
LTYPE
  5
16
100
AcDbSymbolTableRecord
100
AcDbLinetypeTableRecord
  2
CONTINUOUS
 70
64
  3
Solid line
 72
65
 73
0
 40
0.0
  0
LTYPE
  5
1F5
100
AcDbSymbolTableRecord
100
AcDbLinetypeTableRecord
  2
CENTER
 70
64
  3
____ _ ____ _ ____ _ ____ _ ____ _ ____ _ ____
 72
65
 73
4
 40
0.6
 49
0.375
 74
0
 49
-0.075
 74
0
 49
0.075
 74
0
 49
-0.075
 74
0
  0
LTYPE
  5
1F6
100
AcDbSymbolTableRecord
100
AcDbLinetypeTableRecord
  2
HIDDEN
 70
64
  3
- - - - - - - - - - - - - - - - - - - -
 72
65
 73
2
 40
0.2
 49
0.1
 74
0
 49
-0.1
 74
0
  0
LTYPE
  5
1F7
100
AcDbSymbolTableRecord
100
AcDbLinetypeTableRecord
  2
PHANTOM
 70
64
  3
_____ _ _ _____ _ _ _____ _ _ _____
 72
65
 73
6
 40
0.8
 49
0.45
 74
0
 49
-0.05
 74
0
 49
0.1
 74
0
 49
-0.05
 74
0
 49
0.1
 74
0
 49
-0.05
 74
0
  0
LTYPE
  5
1F8
100
AcDbSymbolTableRecord
100
AcDbLinetypeTableRecord
  2
DOT
 70
64
  3
. . . . . . . . . . . . . . . . . . . .
 72
65
 73
2
 40
0.2
 49
0.1
 74
0
 49
-0.1
 74
0
  0
LTYPE
  5
1F9
100
AcDbSymbolTableRecord
100
AcDbLinetypeTableRecord
  2
DASHED
 70
64
  3
- - - - - - - - - - - - - - - - - - - -
 72
65
 73
2
 40
0.2
 49
0.1
 74
0
 49
-0.1
 74
0
  0
ENDTAB
  0
TABLE
  2
LAYER
  5
2
100
AcDbSymbolTable
 70
36
  0
LAYER
  5
10
100
AcDbSymbolTableRecord
100
AcDbLayerTableRecord
  2
0
 70
0
 62
7
  6
CONTINUOUS
370
-3
390
F
  0
LAYER
  5
1FA
100
AcDbSymbolTableRecord
100
AcDbLayerTableRecord
  2
DEFAULT_1
 70
0
 62
7
  6
CENTER
370
-3
390
F
  0
LAYER
  5
1FB
100
AcDbSymbolTableRecord
100
AcDbLayerTableRecord
  2
DEFAULT_2
 70
0
 62
7
  6
HIDDEN
370
-3
390
F
  0
LAYER
  5
1FC
100
AcDbSymbolTableRecord
100
AcDbLayerTableRecord
  2
DEFAULT_3
 70
0
 62
7
  6
PHANTOM
370
-3
390
F
  0
LAYER
  5
1FD
100
AcDbSymbolTableRecord
100
AcDbLayerTableRecord
  2
ASSI
 70
0
 62
7
  6
CONTINUOUS
370
-3
390
F
  0
LAYER
  5
1FE
100
AcDbSymbolTableRecord
100
AcDbLayerTableRecord
  2
COLOR9
 70
0
 62
7
  6
CONTINUOUS
370
-3
390
F
  0
LAYER
  5
1FF
100
AcDbSymbolTableRecord
100
AcDbLayerTableRecord
  2
COORDINATE
 70
0
 62
7
  6
CONTINUOUS
370
-3
390
F
  0
LAYER
  5
200
100
AcDbSymbolTableRecord
100
AcDbLayerTableRecord
  2
COORD_ORIGINE
 70
0
 62
7
  6
CONTINUOUS
370
-3
390
F
  0
LAYER
  5
201
100
AcDbSymbolTableRecord
100
AcDbLayerTableRecord
  2
COPY_PUBLISH
 70
0
 62
7
  6
CONTINUOUS
370
-3
390
F
  0
LAYER
  5
202
100
AcDbSymbolTableRecord
100
AcDbLayerTableRecord
  2
COSMETIC
 70
0
 62
7
  6
CONTINUOUS
370
-3
390
F
  0
LAYER
  5
203
100
AcDbSymbolTableRecord
100
AcDbLayerTableRecord
  2
CURVE
 70
0
 62
7
  6
CONTINUOUS
370
-3
390
F
  0
LAYER
  5
204
100
AcDbSymbolTableRecord
100
AcDbLayerTableRecord
  2
DRAFT
 70
0
 62
7
  6
CONTINUOUS
370
-3
390
F
  0
LAYER
  5
205
100
AcDbSymbolTableRecord
100
AcDbLayerTableRecord
  2
IGS_SCRITTE
 70
0
 62
7
  6
CONTINUOUS
370
-3
390
F
  0
LAYER
  5
206
100
AcDbSymbolTableRecord
100
AcDbLayerTableRecord
  2
IMPORT_IGES
 70
0
 62
7
  6
CONTINUOUS
370
-3
390
F
  0
LAYER
  5
207
100
AcDbSymbolTableRecord
100
AcDbLayerTableRecord
  2
INTF_15
 70
0
 62
7
  6
CONTINUOUS
370
-3
390
F
  0
LAYER
  5
208
100
AcDbSymbolTableRecord
100
AcDbLayerTableRecord
  2
INTF_3
 70
0
 62
7
  6
CONTINUOUS
370
-3
390
F
  0
LAYER
  5
209
100
AcDbSymbolTableRecord
100
AcDbLayerTableRecord
  2
INTF_4
 70
0
 62
7
  6
CONTINUOUS
370
-3
390
F
  0
LAYER
  5
20A
100
AcDbSymbolTableRecord
100
AcDbLayerTableRecord
  2
INTF_YELLOW
 70
0
 62
7
  6
CONTINUOUS
370
-3
390
F
  0
LAYER
  5
20B
100
AcDbSymbolTableRecord
100
AcDbLayerTableRecord
  2
PIANI
 70
0
 62
7
  6
CONTINUOUS
370
-3
390
F
  0
LAYER
  5
20C
100
AcDbSymbolTableRecord
100
AcDbLayerTableRecord
  2
PIANI_ORIGINE
 70
0
 62
7
  6
CONTINUOUS
370
-3
390
F
  0
LAYER
  5
20D
100
AcDbSymbolTableRecord
100
AcDbLayerTableRecord
  2
PIANI_RIFERIMENTO
 70
0
 62
7
  6
CONTINUOUS
370
-3
390
F
  0
LAYER
  5
20E
100
AcDbSymbolTableRecord
100
AcDbLayerTableRecord
  2
RACCORDO
 70
0
 62
7
  6
CONTINUOUS
370
-3
390
F
  0
LAYER
  5
20F
100
AcDbSymbolTableRecord
100
AcDbLayerTableRecord
  2
SMUSSO
 70
0
 62
7
  6
CONTINUOUS
370
-3
390
F
  0
LAYER
  5
210
100
AcDbSymbolTableRecord
100
AcDbLayerTableRecord
  2
SOLIDO
 70
0
 62
7
  6
CONTINUOUS
370
-3
390
F
  0
LAYER
  5
211
100
AcDbSymbolTableRecord
100
AcDbLayerTableRecord
  2
SUPERFICI
 70
0
 62
7
  6
CONTINUOUS
370
-3
390
F
  0
LAYER
  5
212
100
AcDbSymbolTableRecord
100
AcDbLayerTableRecord
  2
TRASH
 70
0
 62
7
  6
CONTINUOUS
370
-3
390
F
  0
LAYER
  5
213
100
AcDbSymbolTableRecord
100
AcDbLayerTableRecord
  2
WHITE
 70
0
 62
7
  6
CONTINUOUS
370
-3
390
F
  0
LAYER
  5
214
100
AcDbSymbolTableRecord
100
AcDbLayerTableRecord
  2
XSEC_DATUMS
 70
0
 62
7
  6
CONTINUOUS
370
-3
390
F
  0
ENDTAB
  0
TABLE
  2
STYLE
  5
3
100
AcDbSymbolTable
 70
1
  0
STYLE
  5
11
100
AcDbSymbolTableRecord
100
AcDbTextStyleTableRecord
  2
STANDARD
 70
0
 40
0.0
 41
0.8
 50
0.0
 71
0
 42
0.2
  3
txt
  4

  0
STYLE
  5
215
100
AcDbSymbolTableRecord
100
AcDbTextStyleTableRecord
  2
TEXTSTYLE_1
 70
0
 40
0.0
 41
0.8
 50
0.0
 71
0
 42
0.2
  3
gdt
  4

  0
ENDTAB
  0
TABLE
  2
VIEW
  5
6
100
AcDbSymbolTable
 70
0
  0
ENDTAB
  0
TABLE
  2
UCS
  5
7
100
AcDbSymbolTable
 70
0
  0
ENDTAB
  0
TABLE
  2
APPID
  5
9
100
AcDbSymbolTable
 70
1
  0
APPID
  5
216
100
AcDbSymbolTableRecord
100
AcDbRegAppTableRecord
  2
ACAD
 70
0
  0
ENDTAB
  0
TABLE
  2
BLOCK_RECORD
  5
1
100
AcDbSymbolTable
 70
0
  0
BLOCK_RECORD
  5
217
100
AcDbSymbolTableRecord
100
AcDbBlockTableRecord
  2
*Model_Space
  0
BLOCK_RECORD
  5
218
100
AcDbSymbolTableRecord
100
AcDbBlockTableRecord
  2
*Paper_Space
  0
ENDTAB
  0
TABLE
  2
DIMSTYLE
  5
A
100
AcDbSymbolTable
 70
1
100
AcDbDimStyleTable
 71
0
  0
DIMSTYLE
105
219
100
AcDbSymbolTableRecord
100
AcDbDimStyleTableRecord
  2
STANDARD
 70
0
  3

  4

 40
1.0
 41
3.0
 42
0.0625
 43
0.38
 44
0.18
 45
0.0
 46
0.0
 47
0.01
 48
0.01
140
3.0
141
0.09
142
0.0
143
25.4
144
1.0
145
0.0
146
1.0
147
0.09
 71
1.0
 72
0.0
 73
0
 74
0
 75
0
 76
0
 77
1
 78
8
170
0
171
2
172
0
173
0
174
0
175
0
176
0
177
0
178
0
270
2
271
2
272
2
273
2
274
2
275
0
280
0
281
0
282
0
283
1
284
8
285
0
286
0
287
3
288
0
340
11
  0
ENDTAB
  0
ENDSEC
  0
SECTION
  2
BLOCKS
  0
BLOCK
  5
20
100
AcDbEntity
  8
0
100
AcDbBlockBegin
  2
*Model_Space
 70
0
 10
0.0
 20
0.0
 30
0.0
  3
*Model_Space
  1

  0
ENDBLK
  5
21
100
AcDbEntity
  8
0
100
AcDbBlockEnd
  0
BLOCK
  5
1C
100
AcDbEntity
  8
0
100
AcDbBlockBegin
  2
*Paper_Space
 70
0
 10
0.0
 20
0.0
 30
0.0
  3
*Paper_Space
  1

  0
ENDBLK
  5
1D
100
AcDbEntity
  8
0
100
AcDbBlockEnd
  0
ENDSEC
  0
SECTION
  2
ENTITIES
  0
LWPOLYLINE
  5
21A
100
AcDbEntity
  8
ASSI
100
AcDbPolyline
 62
7
  6
CONTINUOUS
 90
11
 70
0
 10
-17.4828841929
 20
16.1846204627
 10
-17.4999441298
 20
16.1748111405
 10
-17.5343429092
 20
16.1518308442
 10
-17.5652588889
 20
16.1265814965
 10
-17.5926974745
 20
16.0991680265
 10
-17.6165643109
 20
16.0697782829
 10
-17.6366884892
 20
16.0387568623
 10
-17.6530237614
 20
16.0063557881
 10
-17.6655357682
 20
15.9728128433
 10
-17.6741558656
 20
15.9385080669
 10
-17.6788635418
 20
15.9039034061
  0
LWPOLYLINE
  5
21B
100
AcDbEntity
  8
RACCORDO
100
AcDbPolyline
 62
7
  6
CONTINUOUS
 90
31
 70
0
 10
-17.4827268301
 20
16.1847067827
 10
-17.4903664074
 20
16.1804346201
 10
-17.5027420488
 20
16.1731097883
 10
-17.5146604742
 20
16.1655462415
 10
-17.5261259907
 20
16.1577540669
 10
-17.5371447542
 20
16.1497421468
 10
-17.547720749
 20
16.1415203305
 10
-17.5578569101
 20
16.1330994312
 10
-17.5675574666
 20
16.124489363
 10
-17.5768244929
 20
16.1157017503
 10
-17.5856575229
 20
16.1067514177
 10
-17.5940625103
 20
16.0976475599
 10
-17.6020476788
 20
16.0883959915
 10
-17.6096104198
 20
16.0790149492
 10
-17.6167576309
 20
16.0695122803
 10
-17.6235071052
 20
16.0598788342
 10
-17.629858699
 20
16.0501277981
 10
-17.6358135537
 20
16.0402713282
 10
-17.641386149
 20
16.0302980055
 10
-17.6465763418
 20
16.0202187452
 10
-17.6513829615
 20
16.0100474518
 10
-17.6558144568
 20
15.9997765771
 10
-17.6598699109
 20
15.9894170238
 10
-17.6635479193
 20
15.9789827832
 10
-17.6668529556
 20
15.9684706957
 10
-17.6697835894
 20
15.9578935671
 10
-17.6723391082
 20
15.9472638435
 10
-17.6745225121
 20
15.9365777243
 10
-17.6763325754
 20
15.9258485509
 10
-17.6777688993
 20
15.9150884783
 10
-17.6788330379
 20
15.9042918105
  0
LINE
  5
21C
100
AcDbEntity
  8
RACCORDO
100
AcDbLine
 62
7
  6
CONTINUOUS
 10
-17.4827199917
 20
16.1847105579
 11
-13.9233252529
 21
18.1326223838
  0
LINE
  5
21D
100
AcDbEntity
  8
ASSI
100
AcDbLine
 62
7
  6
CONTINUOUS
 10
-17.4828842065
 20
16.1846204876
 11
-13.9233252529
 21
18.1326223838
  0
LINE
  5
21E
100
AcDbEntity
  8
RACCORDO
100
AcDbLine
 62
253
  6
CONTINUOUS
 10
-17.3642446849
 20
16.1811300439
 11
-13.8083556064
 21
18.1271233647
  0
LINE
  5
21F
100
AcDbEntity
  8
ASSI
100
AcDbLine
 62
253
  6
CONTINUOUS
 10
-17.3642446849
 20
16.1811300439
 11
-13.8083556064
 21
18.1271233647
  0
LINE
  5
220
100
AcDbEntity
  8
DRAFT
100
AcDbLine
 62
7
  6
CONTINUOUS
 10
-12.1555233399
 20
16.2614767469
 11
-13.1425317671
 21
15.6502180339
  0
LINE
  5
221
100
AcDbEntity
  8
ASSI
100
AcDbLine
 62
7
  6
CONTINUOUS
 10
-12.1555233399
 20
16.2614767469
 11
-13.1425317671
 21
15.6502180339
  0
LINE
  5
222
100
AcDbEntity
  8
DRAFT
100
AcDbLine
 62
7
  6
CONTINUOUS
 10
-12.1555233399
 20
17.3007072314
 11
-14.0912522017
 21
16.1245782511
  0
LINE
  5
223
100
AcDbEntity
  8
ASSI
100
AcDbLine
 62
7
  6
CONTINUOUS
 10
-12.1555233399
 20
17.3007072314
 11
-14.0912522017
 21
16.1245782511
  0
LWPOLYLINE
  5
224
100
AcDbEntity
  8
RACCORDO
100
AcDbPolyline
 62
7
  6
CONTINUOUS
 90
4
 70
0
 10
-17.6788330379
 20
15.9042918105
 10
-17.6795239994
 20
15.8934651611
 10
-17.6798404764
 20
15.8826275531
 10
-17.6798627152
 20
15.8786772101
  0
LWPOLYLINE
  5
225
100
AcDbEntity
  8
0
100
AcDbPolyline
 62
7
  6
CONTINUOUS
 90
17
 70
0
 10
-17.5992229405
 20
7.0744586831
 10
-17.5860314949
 20
6.5965130051
 10
-17.5704594443
 20
6.1199412727
 10
-17.5525072674
 20
5.6447613506
 10
-17.5321754453
 20
5.1709899512
 10
-17.5094645283
 20
4.6986447433
 10
-17.4843752637
 20
4.2277440168
 10
-17.4569083985
 20
3.7583054225
 10
-17.427064726
 20
3.2903468189
 10
-17.3948452631
 20
2.8238865631
 10
-17.3602510844
 20
2.3589430461
 10
-17.3232833137
 20
1.8955345607
 10
-17.283943213
 20
1.4336786585
 10
-17.2422320547
 20
0.9733926126
 10
-17.198151199
 20
0.5146943134
 10
-17.151702103
 20
0.0576008359
 10
-17.1028861536
 20
-0.3978717607
  0
LWPOLYLINE
  5
226
100
AcDbEntity
  8
ASSI
100
AcDbPolyline
 62
7
  6
CONTINUOUS
 90
9
 70
0
 10
-17.6183816496
 20
8.0290096011
 10
-17.5962680719
 20
6.9593972506
 10
-17.5599390909
 20
5.8337609484
 10
-17.5103393171
 20
4.715939581
 10
-17.4474771108
 20
3.60617094
 10
-17.3713634973
 20
2.5046931843
 10
-17.282011912
 20
1.4117380307
 10
-17.1794388218
 20
0.3275398846
 10
-17.063663095
 20
-0.7476702255
  0
LWPOLYLINE
  5
227
100
AcDbEntity
  8
0
100
AcDbPolyline
 62
7
  6
CONTINUOUS
 90
3
 70
0
 10
-17.6183816471
 20
8.0290094318
 10
-17.6100334405
 20
7.5537576086
 10
-17.5992229405
 20
7.0744586831
  0
LINE
  5
228
100
AcDbEntity
  8
ASSI
100
AcDbLine
 62
7
  6
CONTINUOUS
 10
-17.6303762999
 20
8.8683915984
 11
-17.6183816473
 21
8.0290094329
  0
LWPOLYLINE
  5
229
100
AcDbEntity
  8
ASSI
100
AcDbPolyline
 62
7
  6
CONTINUOUS
 90
8
 70
0
 10
-17.6787255222
 20
15.0535921642
 10
-17.6761068404
 20
14.1641037468
 10
-17.6720436921
 20
13.2753966467
 10
-17.6665360867
 20
12.3874750541
 10
-17.6595840433
 20
11.5003424665
 10
-17.6511875809
 20
10.614002166
 10
-17.6413467254
 20
9.7284577508
 10
-17.6303762999
 20
8.8683915984
  0
LINE
  5
22A
100
AcDbEntity
  8
ASSI
100
AcDbLine
 62
7
  6
CONTINUOUS
 10
-17.6798627928
 20
15.8786876934
 11
-17.6787255222
 21
15.0535921642
  0
LWPOLYLINE
  5
22B
100
AcDbEntity
  8
0
100
AcDbPolyline
 62
7
  6
CONTINUOUS
 90
10
 70
0
 10
-17.6798627927
 20
15.8786876862
 10
-17.6786278789
 20
15.008640387
 10
-17.6759882266
 20
14.1327768355
 10
-17.6719479153
 20
13.2576710419
 10
-17.6665069543
 20
12.3833269895
 10
-17.6596653619
 20
11.5097480168
 10
-17.6514231563
 20
10.6369372751
 10
-17.6417803619
 20
9.7648981939
 10
-17.6307370223
 20
8.8936348473
 10
-17.6183816474
 20
8.0290094336
  0
LINE
  5
22C
100
AcDbEntity
  8
ASSI
100
AcDbLine
 62
7
  6
CONTINUOUS
 10
-17.6788635418
 20
15.9039034061
 11
-17.6798623573
 21
15.8784546556
  0
LWPOLYLINE
  5
22D
100
AcDbEntity
  8
ASSI
100
AcDbPolyline
 62
7
  6
CONTINUOUS
 90
10
 70
0
 10
-16.9429054627
 20
-1.7492527626
 10
-16.9351573935
 20
-1.79926264
 10
-16.9159882573
 20
-1.8815813529
 10
-16.8898678337
 20
-1.9587614615
 10
-16.8574651869
 20
-2.0301908565
 10
-16.8192433674
 20
-2.095911822
 10
-16.7753048568
 20
-2.1562815493
 10
-16.7262722271
 20
-2.2107555758
 10
-16.6727156671
 20
-2.2590292341
 10
-16.6144653324
 20
-2.3013560797
  0
LWPOLYLINE
  5
22E
100
AcDbEntity
  8
0
100
AcDbPolyline
 62
7
  6
CONTINUOUS
 90
31
 70
0
 10
-16.9429496056
 20
-1.7489077148
 10
-16.9404164176
 20
-1.7674011339
 10
-16.9365084131
 20
-1.79171312
 10
-16.9320083131
 20
-1.8156077099
 10
-16.9269302591
 20
-1.8390734154
 10
-16.9212864017
 20
-1.8621110326
 10
-16.9150857884
 20
-1.884729365
 10
-16.9083404021
 20
-1.9069226913
 10
-16.9010628435
 20
-1.9286848435
 10
-16.8932617898
 20
-1.9500200703
 10
-16.8849496639
 20
-1.9709204309
 10
-16.8761389649
 20
-1.9913796306
 10
-16.8668379222
 20
-2.011400939
 10
-16.8570603584
 20
-2.0309744096
 10
-16.8468185791
 20
-2.0500944514
 10
-16.8361181235
 20
-2.0687678394
 10
-16.8249724896
 20
-2.0869859153
 10
-16.8133952291
 20
-2.1047407681
 10
-16.8013913847
 20
-2.1220375786
 10
-16.7889759991
 20
-2.1388665771
 10
-16.7761625801
 20
-2.1552210235
 10
-16.7629531125
 20
-2.1711081505
 10
-16.7493627496
 20
-2.1865184223
 10
-16.7354055929
 20
-2.2014448399
 10
-16.7210807229
 20
-2.215895744
 10
-16.7064026751
 20
-2.2298623862
 10
-16.6913862797
 20
-2.2433367532
 10
-16.6760296704
 20
-2.2563257312
 10
-16.6603482108
 20
-2.2688204155
 10
-16.6443564178
 20
-2.2808134235
 10
-16.6280496433
 20
-2.2923111591
  0
LINE
  5
22F
100
AcDbEntity
  8
ASSI
100
AcDbLine
 62
7
  6
CONTINUOUS
 10
-16.9429502125
 20
-1.7489030582
 11
-16.9429054784
 21
-1.7492527646
  0
LINE
  5
230
100
AcDbEntity
  8
ASSI
100
AcDbLine
 62
7
  6
CONTINUOUS
 10
-17.063663095
 20
-0.7476702255
 11
-16.9429502125
 21
-1.7489030582
  0
LWPOLYLINE
  5
231
100
AcDbEntity
  8
0
100
AcDbPolyline
 62
7
  6
CONTINUOUS
 90
4
 70
0
 10
-17.1028861536
 20
-0.3978717607
 10
-17.0517048965
 20
-0.851706324
 10
-16.9981603833
 20
-1.3038832303
 10
-16.9429502417
 20
-1.7489028279
  0
LINE
  5
232
100
AcDbEntity
  8
DRAFT
100
AcDbLine
 62
7
  6
CONTINUOUS
 10
-12.1555233399
 20
17.3007072314
 11
-12.1555233399
 21
16.2614767469
  0
LINE
  5
233
100
AcDbEntity
  8
ASSI
100
AcDbLine
 62
7
  6
CONTINUOUS
 10
-12.1555233399
 20
17.3007072314
 11
-12.1555233399
 21
16.2614767469
  0
LWPOLYLINE
  5
234
100
AcDbEntity
  8
0
100
AcDbPolyline
 62
7
  6
CONTINUOUS
 90
27
 70
0
 10
14.2074678953
 20
-17.7145229007
 10
14.2274989297
 20
-17.7222525092
 10
14.2477888595
 20
-17.7293786654
 10
14.2683193882
 20
-17.7358934537
 10
14.2890721666
 20
-17.7417898714
 10
14.3100577706
 20
-17.7470684939
 10
14.3312588069
 20
-17.7517213175
 10
14.3526564353
 20
-17.7557411698
 10
14.3742607428
 20
-17.7591259408
 10
14.3960544462
 20
-17.7618677203
 10
14.4180188372
 20
-17.7639591622
 10
14.4401633351
 20
-17.765395525
 10
14.4624717573
 20
-17.7661690808
 10
14.4849244496
 20
-17.7662725598
 10
14.5075271461
 20
-17.7656986269
 10
14.5302651538
 20
-17.764439643
 10
14.5531177266
 20
-17.7624888671
 10
14.576083189
 20
-17.7598379633
 10
14.5991451061
 20
-17.7564799399
 10
14.6222852673
 20
-17.7524089105
 10
14.6455013055
 20
-17.7476159905
 10
14.6687777289
 20
-17.7420943157
 10
14.6920971224
 20
-17.7358382931
 10
14.715456522
 20
-17.7288382365
 10
14.7388450232
 20
-17.7210858545
 10
14.7622410449
 20
-17.71257714
 10
14.779495373
 20
-17.7058124236
  0
LINE
  5
235
100
AcDbEntity
  8
0
100
AcDbLine
 62
7
  6
CONTINUOUS
 10
14.1876867932
 20
-17.7061870638
 11
14.2074678953
 21
-17.7145229007
  0
LINE
  5
236
100
AcDbEntity
  8
ASSI
100
AcDbLine
 62
7
  6
CONTINUOUS
 10
-16.6144653324
 20
-2.3013560797
 11
-16.5480349235
 21
-2.3392868674
  0
LWPOLYLINE
  5
237
100
AcDbEntity
  8
0
100
AcDbPolyline
 62
7
  6
CONTINUOUS
 90
4
 70
0
 10
-16.5945510637
 20
-2.3137877355
 10
-16.5773685774
 20
-2.3237638386
 10
-16.5599030064
 20
-2.3332287675
 10
-16.548917351
 20
-2.33884724
  0
LWPOLYLINE
  5
238
100
AcDbEntity
  8
0
100
AcDbPolyline
 62
7
  6
CONTINUOUS
 90
3
 70
0
 10
-16.6280496433
 20
-2.2923111591
 10
-16.6114428112
 20
-2.3033051366
 10
-16.5945510637
 20
-2.3137877355
  0
LWPOLYLINE
  5
239
100
AcDbEntity
  8
0
100
AcDbPolyline
 62
7
  6
CONTINUOUS
 90
3
 70
0
 10
14.1562113856
 20
-17.6914116082
 10
14.1681654567
 20
-17.697248171
 10
14.1876867932
 20
-17.7061870638
  0
LWPOLYLINE
  5
23A
100
AcDbEntity
  8
ASSI
100
AcDbPolyline
 62
7
  6
CONTINUOUS
 90
12
 70
0
 10
14.1556543383
 20
-17.691132472
 10
14.1634452407
 20
-17.6949767614
 10
14.2188487866
 20
-17.7190004927
 10
14.2766553184
 20
-17.7383439661
 10
14.336382031
 20
-17.7527450286
 10
14.3977047705
 20
-17.7620481461
 10
14.4605162311
 20
-17.7661281016
 10
14.5244473636
 20
-17.7648266227
 10
14.5890555167
 20
-17.7580348894
 10
14.6542197649
 20
-17.7456320261
 10
14.7196948448
 20
-17.7274887213
 10
14.7792311286
 20
-17.7059189992
  0
LINE
  5
23B
100
AcDbEntity
  8
ASSI
100
AcDbLine
 62
7
  6
CONTINUOUS
 10
-16.5489382651
 20
-2.3388368078
 11
14.1562450305
 21
-17.6914284556
  0
LINE
  5
23C
100
AcDbEntity
  8
0
100
AcDbLine
 62
7
  6
CONTINUOUS
 10
-16.5489413977
 20
-2.3388352415
 11
14.1562450305
 21
-17.6914284556
  0
LINE
  5
23D
100
AcDbEntity
  8
0
100
AcDbLine
 62
7
  6
CONTINUOUS
 10
14.1562133499
 20
-17.6914126138
 11
14.1562418285
 21
-17.6914268546
  0
LINE
  5
23E
100
AcDbEntity
  8
0
100
AcDbLine
 62
253
  6
CONTINUOUS
 10
-16.7965295681
 20
-1.9253208526
 11
13.8998509361
 21
-17.2735111047
  0
LINE
  5
23F
100
AcDbEntity
  8
ASSI
100
AcDbLine
 62
253
  6
CONTINUOUS
 10
-16.7965295681
 20
-1.9253208526
 11
13.8998509361
 21
-17.2735111047
  0
LINE
  5
240
100
AcDbEntity
  8
ASSI
100
AcDbLine
 62
7
  6
CONTINUOUS
 10
14.1556561682
 20
-17.6911334064
 11
14.1562418285
 21
-17.6914268546
  0
LINE
  5
241
100
AcDbEntity
  8
0
100
AcDbLine
 62
253
  6
CONTINUOUS
 10
13.1758559149
 20
-7.4723076968
 11
-17.4719281754
 21
7.8515843483
  0
LINE
  5
242
100
AcDbEntity
  8
ASSI
100
AcDbLine
 62
253
  6
CONTINUOUS
 10
13.1758559149
 20
-7.4723076968
 11
-17.4719281754
 21
7.8515843483
  0
LINE
  5
243
100
AcDbEntity
  8
DRAFT
100
AcDbLine
 62
7
  6
CONTINUOUS
 10
15.79282409
 20
3.3265335165
 11
13.4859122646
 21
2.335996018
  0
LINE
  5
244
100
AcDbEntity
  8
ASSI
100
AcDbLine
 62
7
  6
CONTINUOUS
 10
15.79282409
 20
3.3265335165
 11
13.4859122646
 21
2.335996018
  0
LINE
  5
245
100
AcDbEntity
  8
SUPERFICI
100
AcDbLine
 62
7
  6
CONTINUOUS
 10
-5.1255183286
 20
5.0142319163
 11
0.7461529013
 21
2.0783963013
  0
LINE
  5
246
100
AcDbEntity
  8
RACCORDO
100
AcDbLine
 62
7
  6
CONTINUOUS
 10
0.7461529013
 20
2.0783963013
 11
-5.1255183286
 21
5.0142319163
  0
LINE
  5
247
100
AcDbEntity
  8
ASSI
100
AcDbLine
 62
7
  6
CONTINUOUS
 10
0.7461529013
 20
2.0783963013
 11
-5.1255183286
 21
5.0142319163
  0
LINE
  5
248
100
AcDbEntity
  8
SUPERFICI
100
AcDbLine
 62
7
  6
CONTINUOUS
 10
-5.1390759535
 20
6.9122653018
 11
0.7317078958
 21
3.9768733772
  0
LINE
  5
249
100
AcDbEntity
  8
RACCORDO
100
AcDbLine
 62
7
  6
CONTINUOUS
 10
0.7317078958
 20
3.9768733772
 11
-5.1390759535
 21
6.9122653018
  0
LINE
  5
24A
100
AcDbEntity
  8
ASSI
100
AcDbLine
 62
7
  6
CONTINUOUS
 10
0.7317078958
 20
3.9768733772
 11
-5.1390759535
 21
6.9122653018
  0
LINE
  5
24B
100
AcDbEntity
  8
RACCORDO
100
AcDbLine
 62
253
  6
CONTINUOUS
 10
17.4456563565
 20
2.5001173832
 11
13.6324321725
 21
0.6827916153
  0
LINE
  5
24C
100
AcDbEntity
  8
ASSI
100
AcDbLine
 62
253
  6
CONTINUOUS
 10
17.4456563565
 20
2.5001173832
 11
13.6324321725
 21
0.6827916153
  0
LINE
  5
24D
100
AcDbEntity
  8
RACCORDO
100
AcDbLine
 62
253
  6
CONTINUOUS
 10
17.6224869346
 20
2.1952534389
 11
13.8044764391
 21
0.3756465863
  0
LINE
  5
24E
100
AcDbEntity
  8
ASSI
100
AcDbLine
 62
253
  6
CONTINUOUS
 10
17.6224869346
 20
2.1952534389
 11
13.8044764391
 21
0.3756465863
  0
LINE
  5
24F
100
AcDbEntity
  8
RACCORDO
100
AcDbLine
 62
253
  6
CONTINUOUS
 10
13.1099211616
 20
0.3797131611
 11
-17.5334139604
 21
15.7013807221
  0
LINE
  5
250
100
AcDbEntity
  8
ASSI
100
AcDbLine
 62
253
  6
CONTINUOUS
 10
13.1099211616
 20
0.3797131611
 11
-17.5334139604
 21
15.7013807221
  0
LINE
  5
251
100
AcDbEntity
  8
RACCORDO
100
AcDbLine
 62
253
  6
CONTINUOUS
 10
13.2851570503
 20
0.6839995542
 11
-17.3581818663
 21
16.0056690125
  0
LINE
  5
252
100
AcDbEntity
  8
ASSI
100
AcDbLine
 62
253
  6
CONTINUOUS
 10
13.2851570503
 20
0.6839995542
 11
-17.3581818663
 21
16.0056690125
  0
LINE
  5
253
100
AcDbEntity
  8
DRAFT
100
AcDbLine
 62
7
  6
CONTINUOUS
 10
13.4859122646
 20
2.335996018
 11
-14.0912522017
 21
16.1245782511
  0
LINE
  5
254
100
AcDbEntity
  8
ASSI
100
AcDbLine
 62
7
  6
CONTINUOUS
 10
13.4859122646
 20
2.335996018
 11
-14.0912522017
 21
16.1245782511
  0
LINE
  5
255
100
AcDbEntity
  8
RACCORDO
100
AcDbLine
 62
7
  6
CONTINUOUS
 10
17.4456563565
 20
2.5001173832
 11
15.79282409
 21
3.3265335165
  0
LINE
  5
256
100
AcDbEntity
  8
ASSI
100
AcDbLine
 62
7
  6
CONTINUOUS
 10
17.4456563565
 20
2.5001173832
 11
15.79282409
 21
3.3265335165
  0
LINE
  5
257
100
AcDbEntity
  8
RACCORDO
100
AcDbLine
 62
7
  6
CONTINUOUS
 10
-12.1555233399
 20
17.3007072314
 11
-13.8083556064
 21
18.1271233647
  0
LINE
  5
258
100
AcDbEntity
  8
ASSI
100
AcDbLine
 62
7
  6
CONTINUOUS
 10
-12.1555233399
 20
17.3007072314
 11
-13.8083556064
 21
18.1271233647
  0
LINE
  5
259
100
AcDbEntity
  8
RACCORDO
100
AcDbLine
 62
7
  6
CONTINUOUS
 10
17.6224869346
 20
2.1952534389
 11
17.6224869346
 21
-8.846628155
  0
LINE
  5
25A
100
AcDbEntity
  8
ASSI
100
AcDbLine
 62
7
  6
CONTINUOUS
 10
17.6224869346
 20
2.1952534389
 11
17.6224869346
 21
-8.846628155
  0
LINE
  5
25B
100
AcDbEntity
  8
0
100
AcDbLine
 62
7
  6
CONTINUOUS
 10
17.0711910737
 20
-16.5607999227
 11
17.6224869346
 21
-8.846628155
  0
LINE
  5
25C
100
AcDbEntity
  8
ASSI
100
AcDbLine
 62
7
  6
CONTINUOUS
 10
17.0711910737
 20
-16.5607999227
 11
17.6224869346
 21
-8.846628155
  0
LINE
  5
25D
100
AcDbEntity
  8
0
100
AcDbLine
 62
253
  6
CONTINUOUS
 10
14.9331135144
 20
-17.425090372
 11
17.0711910737
 21
-16.5607999227
  0
LINE
  5
25E
100
AcDbEntity
  8
ASSI
100
AcDbLine
 62
253
  6
CONTINUOUS
 10
14.9331135144
 20
-17.425090372
 11
17.0711910737
 21
-16.5607999227
  0
LINE
  5
25F
100
AcDbEntity
  8
0
100
AcDbLine
 62
7
  6
CONTINUOUS
 10
14.7795016958
 20
-17.7058099007
 11
16.9021499059
 21
-16.847756568
  0
LINE
  5
260
100
AcDbEntity
  8
ASSI
100
AcDbLine
 62
7
  6
CONTINUOUS
 10
16.9021499059
 20
-16.847756568
 11
14.77923114
 21
-17.7059190274
  0
ARC
  5
261
100
AcDbEntity
  8
RACCORDO
100
AcDbCircle
 62
253
  6
CONTINUOUS
 10
525.7149545017
 20
16.0307232434
 40
543.2484714993
100
AcDbArc
 50
180.034735372
 51
180.8626768068
  0
ARC
  5
262
100
AcDbEntity
  8
ASSI
100
AcDbCircle
 62
253
  6
CONTINUOUS
 10
525.7149545017
 20
16.0307232434
 40
543.2484714993
100
AcDbArc
 50
180.034735372
 51
180.8626768068
  0
ARC
  5
263
100
AcDbEntity
  8
RACCORDO
100
AcDbCircle
 62
7
  6
CONTINUOUS
 10
525.4900697752
 20
6.7549450431
 40
524.4845405879
100
AcDbArc
 50
180.3564737649
 51
180.4887240263
  0
ARC
  5
264
100
AcDbEntity
  8
ASSI
100
AcDbCircle
 62
7
  6
CONTINUOUS
 10
525.4900697752
 20
6.7549450431
 40
524.4845405879
100
AcDbArc
 50
180.3564737649
 51
180.4887240263
  0
ARC
  5
265
100
AcDbEntity
  8
SUPERFICI
100
AcDbCircle
 62
7
  6
CONTINUOUS
 10
518.9542152306
 20
9.9715190584
 40
524.3833549227
100
AcDbArc
 50
180.3564593088
 51
180.4887350894
  0
ARC
  5
266
100
AcDbEntity
  8
RACCORDO
100
AcDbCircle
 62
253
  6
CONTINUOUS
 10
518.9759438229
 20
0.7006262688
 40
505.8661111247
100
AcDbArc
 50
180.0363474979
 51
180.9257291277
  0
ARC
  5
267
100
AcDbEntity
  8
ASSI
100
AcDbCircle
 62
253
  6
CONTINUOUS
 10
518.9759438229
 20
0.7006262688
 40
505.8661111247
100
AcDbArc
 50
180.0363474979
 51
180.9257291277
  0
ARC
  5
268
100
AcDbEntity
  8
RACCORDO
100
AcDbCircle
 62
253
  6
CONTINUOUS
 10
519.1000724714
 20
0.6939641574
 40
505.2956834954
100
AcDbArc
 50
180.0360942211
 51
180.9257767921
  0
ARC
  5
269
100
AcDbEntity
  8
ASSI
100
AcDbCircle
 62
253
  6
CONTINUOUS
 10
519.1000724714
 20
0.6939641574
 40
505.2956834954
100
AcDbArc
 50
180.0360942211
 51
180.9257767921
  0
ARC
  5
26A
100
AcDbEntity
  8
RACCORDO
100
AcDbCircle
 62
7
  6
CONTINUOUS
 10
-4.9688213938
 20
5.5024709406
 40
0.4412582556
100
AcDbArc
 50
180.5072885362
 51
183.4774390387
  0
ARC
  5
26B
100
AcDbEntity
  8
ASSI
100
AcDbCircle
 62
7
  6
CONTINUOUS
 10
-4.9688213938
 20
5.5024709406
 40
0.4412582556
100
AcDbArc
 50
180.5072885362
 51
183.4774390387
  0
ARC
  5
26C
100
AcDbEntity
  8
SUPERFICI
100
AcDbCircle
 62
7
  6
CONTINUOUS
 10
0.5746054933
 20
3.4889244991
 40
0.4410841978
100
AcDbArc
 50
0.3750339476
 51
3.3435235644
  0
ARC
  5
26D
100
AcDbEntity
  8
SUPERFICI
100
AcDbCircle
 62
7
  6
CONTINUOUS
 10
0.6172279702
 20
2.2775893042
 40
0.407397637
100
AcDbArc
 50
357.3798448687
 51
0.5117896884
  0
ARC
  5
26E
100
AcDbEntity
  8
RACCORDO
100
AcDbCircle
 62
7
  6
CONTINUOUS
 10
-5.0129115302
 20
6.7118360728
 40
0.4060888367
100
AcDbArc
 50
177.2398448364
 51
180.3793404826
  0
ARC
  5
26F
100
AcDbEntity
  8
ASSI
100
AcDbCircle
 62
7
  6
CONTINUOUS
 10
-5.0129115302
 20
6.7118360728
 40
0.4060888367
100
AcDbArc
 50
177.2398448364
 51
180.3793404826
  0
ARC
  5
270
100
AcDbEntity
  8
0
100
AcDbCircle
 62
253
  6
CONTINUOUS
 10
14.330200279
 20
-17.3435033693
 40
0.3889886042
100
AcDbArc
 50
234.9479967939
 51
243.4306925951
  0
ARC
  5
271
100
AcDbEntity
  8
0
100
AcDbCircle
 62
253
  6
CONTINUOUS
 10
-16.3833669197
 20
-2.0089534383
 40
0.3691270765
100
AcDbArc
 50
234.6967841757
 51
237.0375563961
  0
ARC
  5
272
100
AcDbEntity
  8
0
100
AcDbCircle
 62
253
  6
CONTINUOUS
 10
-16.3866149474
 20
-2.0141835275
 40
0.3629716916
100
AcDbArc
 50
237.0185430155
 51
243.3832306157
  0
ARC
  5
273
100
AcDbEntity
  8
ASSI
100
AcDbCircle
 62
253
  6
CONTINUOUS
 10
-16.3866217311
 20
-2.0141951205
 40
0.362958274
100
AcDbArc
 50
237.0184450862
 51
243.4355573046
  0
ARC
  5
274
100
AcDbEntity
  8
RACCORDO
100
AcDbCircle
 62
7
  6
CONTINUOUS
 10
-4.9722988921
 20
5.3203103104
 40
0.3422866913
100
AcDbArc
 50
239.8947612401
 51
243.407963524
  0
ARC
  5
275
100
AcDbEntity
  8
ASSI
100
AcDbCircle
 62
7
  6
CONTINUOUS
 10
-4.9722988921
 20
5.3203103104
 40
0.3422866913
100
AcDbArc
 50
239.8947612401
 51
243.407963524
  0
ARC
  5
276
100
AcDbEntity
  8
SUPERFICI
100
AcDbCircle
 62
7
  6
CONTINUOUS
 10
0.57881258
 20
3.6714431257
 40
0.3415620238
100
AcDbArc
 50
59.8824320464
 51
63.407913679
  0
ARC
  5
277
100
AcDbEntity
  8
RACCORDO
100
AcDbCircle
 62
7
  6
CONTINUOUS
 10
0.8852369351
 20
2.3561794556
 40
0.3106571249
100
AcDbArc
 50
243.4032006113
 51
247.1501180889
  0
ARC
  5
278
100
AcDbEntity
  8
ASSI
100
AcDbCircle
 62
7
  6
CONTINUOUS
 10
0.8852369351
 20
2.3561794556
 40
0.3106571249
100
AcDbArc
 50
243.4032006113
 51
247.1501180889
  0
ARC
  5
279
100
AcDbEntity
  8
SUPERFICI
100
AcDbCircle
 62
7
  6
CONTINUOUS
 10
-5.2779408052
 20
6.6349173377
 40
0.3101698571
100
AcDbArc
 50
63.4034129207
 51
67.1620608765
  0
ARC
  5
27A
100
AcDbEntity
  8
0
100
AcDbCircle
 62
253
  6
CONTINUOUS
 10
-16.7704396291
 20
-1.727018246
 40
0.1738921633
100
AcDbArc
 50
187.2317806837
 51
189.2872379919
  0
ARC
  5
27B
100
AcDbEntity
  8
SUPERFICI
100
AcDbCircle
 62
7
  6
CONTINUOUS
 10
0.8572877279
 20
2.199655647
 40
0.1487090013
100
AcDbArc
 50
287.8018857967
 51
290.6464901584
  0
SPLINE
  5
27C
100
AcDbEntity
  8
SUPERFICI
100
AcDbSpline
 62
7
  6
CONTINUOUS
 70
0
 71
3
 72
16
 73
12
 74
10
 42
0.0000001
 43
0.0000001
 44
0.0000000001
 12
-0.1851281172
 22
-0.1320498313
 32
0.0
 13
0.0014134633
 23
-0.2271576449
 33
0.0
 40
0.0
 40
0.0
 40
0.0
 40
0.0
 40
0.0055110613
 40
0.1116735965
 40
0.221590849
 40
0.3361220045
 40
0.4556415103
 40
0.5812985291
 40
0.7142391868
 40
0.8541405301
 40
1.0
 40
1.0
 40
1.0
 40
1.0
 10
-5.3370035904
 20
6.9120664926
 30
0.0
 10
-5.3373436745
 20
6.9118239143
 30
0.0
 10
-5.3442143608
 20
6.906879631
 30
0.0
 10
-5.3570089483
 20
6.8959191747
 30
0.0
 10
-5.3733851326
 20
6.8768639922
 30
0.0
 10
-5.3874348559
 20
6.8548375821
 30
0.0
 10
-5.3990234028
 20
6.8301128305
 30
0.0
 10
-5.4080869957
 20
6.8028922564
 30
0.0
 10
-5.4145559162
 20
6.7733666029
 30
0.0
 10
-5.4183504729
 20
6.7418473724
 30
0.0
 10
-5.419060189
 20
6.7201918481
 30
0.0
 10
-5.4189914666
 20
6.7091474835
 30
0.0
 11
-5.3370035904
 21
6.9120664926
 31
0.0
 11
-5.3380207781
 21
6.9113345053
 31
0.0
 11
-5.3563641051
 21
6.8956785622
 31
0.0
 11
-5.3726889766
 21
6.8767854177
 31
0.0
 11
-5.3867474628
 21
6.8548936366
 31
0.0
 11
-5.398345216
 21
6.8303451001
 31
0.0
 11
-5.407439985
 21
6.8032882351
 31
0.0
 11
-5.4139784535
 21
6.7738054887
 31
0.0
 11
-5.4178458609
 21
6.7422614079
 31
0.0
 11
-5.4189914666
 21
6.7091474835
 31
0.0
  0
SPLINE
  5
27D
100
AcDbEntity
  8
SUPERFICI
100
AcDbSpline
 62
7
  6
CONTINUOUS
 70
0
 71
3
 72
14
 73
10
 74
8
 42
0.0000001
 43
0.0000001
 44
0.0000000001
 12
0.1447349143
 22
-0.0723674572
 32
0.0
 13
0.154230483
 23
0.0495274309
 33
0.0
 40
0.0
 40
0.0
 40
0.0
 40
0.0
 40
0.1867059931
 40
0.3647459152
 40
0.5335907996
 40
0.6935574546
 40
0.8470006131
 40
0.9964630539
 40
1.0
 40
1.0
 40
1.0
 40
1.0
 10
0.7461529013
 20
2.0783963014
 30
0.0
 10
0.7551605266
 20
2.0738924887
 30
0.0
 10
0.7731790793
 20
2.0658988324
 30
0.0
 10
0.800619479
 20
2.0570291407
 30
0.0
 10
0.8275031198
 20
2.0516912427
 30
0.0
 10
0.8535351471
 20
2.0499381762
 30
0.0
 10
0.8785238287
 20
2.0517805729
 30
0.0
 10
0.8946996563
 20
2.0554977759
 30
0.0
 10
0.9025701966
 20
2.0580085403
 30
0.0
 10
0.9027520315
 20
2.0580669322
 30
0.0
 11
0.7461529013
 21
2.0783963014
 31
0.0
 11
0.7738007778
 21
2.0662147703
 31
0.0
 11
0.8012398792
 21
2.0574329033
 31
0.0
 11
0.8280554696
 21
2.0521956675
 31
0.0
 11
0.8538877986
 21
2.0505362541
 31
0.0
 11
0.878645434
 21
2.052429902
 31
0.0
 11
0.902206194
 21
2.0578928056
 31
0.0
 11
0.9027520315
 21
2.0580669322
 31
0.0
  0
SPLINE
  5
27E
100
AcDbEntity
  8
SUPERFICI
100
AcDbSpline
 62
7
  6
CONTINUOUS
 70
0
 71
3
 72
23
 73
19
 74
17
 42
0.0000001
 43
0.0000001
 44
0.0000000001
 12
0.0050023624
 22
-0.5863939961
 32
0.0
 13
0.5245058187
 23
-0.2622529093
 33
0.0
 40
0.0
 40
0.0
 40
0.0
 40
0.0
 40
0.0588746881
 40
0.1200732194
 40
0.182993635
 40
0.2470407248
 40
0.312222504
 40
0.3784863542
 40
0.4451159188
 40
0.5113866937
 40
0.57724911
 40
0.6426682154
 40
0.706973736
 40
0.7694897191
 40
0.8301887206
 40
0.8891436894
 40
0.945904789
 40
1.0
 40
1.0
 40
1.0
 40
1.0
 10
-5.4100623542
 20
5.498564155
 30
0.0
 10
-5.4099641834
 20
5.4870562338
 30
0.0
 10
-5.4088112141
 20
5.4635861345
 30
0.0
 10
-5.4044171319
 20
5.4280580186
 30
0.0
 10
-5.3973763346
 20
5.3919280877
 30
0.0
 10
-5.3877847489
 20
5.3555873345
 30
0.0
 10
-5.3757274999
 20
5.3193004438
 30
0.0
 10
-5.3612907769
 20
5.2833489808
 30
0.0
 10
-5.3446303388
 20
5.2481373223
 30
0.0
 10
-5.3259417163
 20
5.2140487116
 30
0.0
 10
-5.3053774316
 20
5.1813363776
 30
0.0
 10
-5.2830827734
 20
5.1502480543
 30
0.0
 10
-5.2592904192
 20
5.1211286401
 30
0.0
 10
-5.2342728915
 20
5.0943010383
 30
0.0
 10
-5.208233054
 20
5.0699690949
 30
0.0
 10
-5.1813492141
 20
5.048317789
 30
0.0
 10
-5.1538967019
 20
5.0295957291
 30
0.0
 10
-5.1349760794
 20
5.0189607917
 30
0.0
 10
-5.1255183285
 20
5.0142319162
 30
0.0
 11
-5.4100623542
 21
5.498564155
 31
0.0
 11
-5.4084175458
 21
5.4640783377
 31
0.0
 11
-5.4040539616
 21
5.428456852
 31
0.0
 11
-5.3970287495
 21
5.3922343226
 31
0.0
 11
-5.3874681362
 21
5.3559133545
 31
0.0
 11
-5.3754319385
 21
5.319634254
 31
0.0
 11
-5.3609616918
 21
5.2835708816
 31
0.0
 11
-5.3442538184
 21
5.2482507045
 31
0.0
 11
-5.3255685951
 21
5.2141753043
 31
0.0
 11
-5.3050043956
 21
5.1814823535
 31
0.0
 11
-5.2826333573
 21
5.150317654
 31
0.0
 11
-5.2587543264
 21
5.1211317564
 31
0.0
 11
-5.2337281922
 21
5.0943423466
 31
0.0
 11
-5.207692862
 21
5.0700698691
 31
0.0
 11
-5.1807362999
 21
5.048423306
 31
0.0
 11
-5.1532038004
 21
5.0297179258
 31
0.0
 11
-5.1255183285
 21
5.0142319162
 31
0.0
  0
SPLINE
  5
27F
100
AcDbEntity
  8
SUPERFICI
100
AcDbSpline
 62
7
  6
CONTINUOUS
 70
0
 71
3
 72
15
 73
11
 74
9
 42
0.0000001
 43
0.0000001
 44
0.0000000001
 12
-0.1732073616
 22
0.0728301409
 32
0.0
 13
-0.1530469811
 23
-0.109166713
 33
0.0
 40
0.0
 40
0.0
 40
0.0
 40
0.0
 40
0.0528334565
 40
0.2065929842
 40
0.3525055554
 40
0.4908344317
 40
0.6236048922
 40
0.7529890011
 40
0.8801971703
 40
1.0
 40
1.0
 40
1.0
 40
1.0
 10
-5.1575558426
 20
6.920771848
 30
0.0
 10
-5.1606062238
 20
6.9220544707
 30
0.0
 10
-5.1726187857
 20
6.9268692697
 30
0.0
 10
-5.1936602028
 20
6.9336600939
 30
0.0
 10
-5.2206252039
 20
6.9389960391
 30
0.0
 10
-5.246750435
 20
6.9407367677
 30
0.0
 10
-5.2718405744
 20
6.9388717564
 30
0.0
 10
-5.2956908555
 20
6.933383704
 30
0.0
 10
-5.3176126703
 20
6.9244683267
 30
0.0
 10
-5.3308917699
 20
6.9164259863
 30
0.0
 10
-5.3370035904
 20
6.9120664926
 30
0.0
 11
-5.1575558426
 21
6.920771848
 31
0.0
 11
-5.1667712104
 21
6.924462511
 31
0.0
 11
-5.1942763439
 21
6.9332525458
 31
0.0
 11
-5.2211733435
 21
6.9384885904
 31
0.0
 11
-5.2470987317
 21
6.9401366424
 31
0.0
 11
-5.2719589263
 21
6.9382213453
 31
0.0
 11
-5.2956275614
 21
6.9327272942
 31
0.0
 11
-5.3177503252
 21
6.9237116822
 31
0.0
 11
-5.3370035904
 21
6.9120664926
 31
0.0
  0
SPLINE
  5
280
100
AcDbEntity
  8
SUPERFICI
100
AcDbSpline
 62
7
  6
CONTINUOUS
 70
0
 71
3
 72
17
 73
13
 74
11
 42
0.0000001
 43
0.0000001
 44
0.0000000001
 12
0.2273417316
 22
0.0856693656
 32
0.0
 13
0.0111970305
 23
0.2425098177
 33
0.0
 40
0.0
 40
0.0
 40
0.0
 40
0.0
 40
0.0652126785
 40
0.1626072031
 40
0.2615230591
 40
0.3639946412
 40
0.4708459654
 40
0.5824429105
 40
0.6998578759
 40
0.8241796903
 40
0.9551183871
 40
1.0
 40
1.0
 40
1.0
 40
1.0
 10
0.9097226789
 20
2.0604976685
 30
0.0
 10
0.9146645333
 20
2.0623599115
 30
0.0
 10
0.9267390415
 20
2.0676619826
 30
0.0
 10
0.9448573495
 20
2.0787618566
 30
0.0
 10
0.9632643804
 20
2.0945777683
 30
0.0
 10
0.9795368626
 20
2.1135907813
 30
0.0
 10
0.993486824
 20
2.1355796415
 30
0.0
 10
1.0049798229
 20
2.1602735792
 30
0.0
 10
1.0139522996
 20
2.1874725319
 30
0.0
 10
1.020334444
 20
2.21698846
 30
0.0
 10
1.0231773258
 20
2.2411334431
 30
0.0
 10
1.0240321799
 20
2.2553372898
 30
0.0
 10
1.0241996935
 20
2.2589653671
 30
0.0
 11
0.9097226789
 21
2.0604976685
 31
0.0
 11
0.924219226
 21
2.066869899
 31
0.0
 11
0.9443811903
 21
2.0792042311
 31
0.0
 11
0.9626170446
 21
2.0948145719
 31
0.0
 11
0.9788379646
 21
2.1136635204
 31
0.0
 11
0.9927971183
 21
2.1355160957
 31
0.0
 11
1.0043007951
 21
2.1600336639
 31
0.0
 11
1.0133053514
 21
2.1870675768
 31
0.0
 11
1.0197577172
 21
2.2165397918
 31
0.0
 11
1.0235429301
 21
2.2480895707
 31
0.0
 11
1.0241996935
 21
2.2589653671
 31
0.0
  0
SPLINE
  5
281
100
AcDbEntity
  8
SUPERFICI
100
AcDbSpline
 62
7
  6
CONTINUOUS
 70
0
 71
3
 72
23
 73
19
 74
17
 42
0.0000001
 43
0.0000001
 44
0.0000000001
 12
-0.0315079352
 22
0.5422869819
 32
0.0
 13
-0.4700604437
 23
0.2723853472
 33
0.0
 40
0.0
 40
0.0
 40
0.0
 40
0.0
 40
0.0214483204
 40
0.0875044768
 40
0.1554419972
 40
0.2246157097
 40
0.2950273187
 40
0.366626824
 40
0.4386400292
 40
0.5102828191
 40
0.5814928787
 40
0.6522353554
 40
0.7217819344
 40
0.7893981303
 40
0.8550476592
 40
0.9188089648
 40
0.9801943443
 40
1.0
 40
1.0
 40
1.0
 40
1.0
 10
1.0149388782
 20
3.5146495794
 30
0.0
 10
1.0147136141
 20
3.5185266277
 30
0.0
 10
1.0135933287
 20
3.5343329304
 30
0.0
 10
1.0102027924
 20
3.5622865496
 30
0.0
 10
1.0032483366
 20
3.5984264079
 30
0.0
 10
0.9937408772
 20
3.6347924695
 30
0.0
 10
0.9817632266
 20
3.671118784
 30
0.0
 10
0.9673992019
 20
3.7071226146
 30
0.0
 10
0.9508014818
 20
3.742398819
 30
0.0
 10
0.9321639222
 20
3.7765605085
 30
0.0
 10
0.9116378778
 20
3.8093514157
 30
0.0
 10
0.8893681347
 20
3.8405202905
 30
0.0
 10
0.8655866677
 20
3.8697191191
 30
0.0
 10
0.8405670857
 20
3.8966206219
 30
0.0
 10
0.8145138447
 20
3.9210176122
 30
0.0
 10
0.7876071912
 20
3.9427224767
 30
0.0
 10
0.7659147404
 20
3.9575317635
 30
0.0
 10
0.7533034861
 20
3.9650952023
 30
0.0
 10
0.750200201
 20
3.9668934591
 30
0.0
 11
1.0149388782
 21
3.5146495794
 31
0.0
 11
1.0141170597
 21
3.5262710173
 31
0.0
 11
1.0098394468
 21
3.561884687
 31
0.0
 11
1.00290071
 21
3.5981175298
 31
0.0
 11
0.9934238547
 21
3.6344649239
 31
0.0
 11
0.9814676078
 21
3.6707821772
 31
0.0
 11
0.9670702476
 21
3.7068980094
 31
0.0
 11
0.9504251635
 21
3.7422829971
 31
0.0
 11
0.9317901746
 21
3.7764327077
 31
0.0
 11
0.9112644089
 21
3.8092035899
 31
0.0
 11
0.8889178995
 21
3.8404493824
 31
0.0
 11
0.8650493002
 21
3.8697151578
 31
0.0
 11
0.8400202169
 21
3.8965790084
 31
0.0
 11
0.8139713825
 21
3.9209161811
 31
0.0
 11
0.7869918003
 21
3.9426161574
 31
0.0
 11
0.7594288161
 21
3.9613616346
 31
0.0
 11
0.750200201
 21
3.9668934591
 31
0.0
  0
LINE
  5
282
100
AcDbEntity
  8
SUPERFICI
100
AcDbLine
 62
7
  6
CONTINUOUS
 10
1.0246093545
 20
2.2812283006
 11
1.0231108415
 21
2.4604860627
  0
LINE
  5
283
100
AcDbEntity
  8
SUPERFICI
100
AcDbLine
 62
7
  6
CONTINUOUS
 10
1.0231108415
 20
2.4604860627
 11
1.0227457643
 21
2.5053049171
  0
LINE
  5
284
100
AcDbEntity
  8
SUPERFICI
100
AcDbLine
 62
7
  6
CONTINUOUS
 10
1.0227457643
 20
2.5053049171
 11
1.0213236586
 21
2.6845979499
  0
LINE
  5
285
100
AcDbEntity
  8
SUPERFICI
100
AcDbLine
 62
7
  6
CONTINUOUS
 10
1.0213236586
 20
2.6845979499
 11
1.0199626241
 21
2.8639260821
  0
LINE
  5
286
100
AcDbEntity
  8
SUPERFICI
100
AcDbLine
 62
7
  6
CONTINUOUS
 10
1.0199626241
 20
2.8639260821
 11
1.0196319163
 21
2.9087625188
  0
LINE
  5
287
100
AcDbEntity
  8
SUPERFICI
100
AcDbLine
 62
7
  6
CONTINUOUS
 10
1.0196319163
 20
2.9087625188
 11
1.018347287
 21
3.0881258348
  0
LINE
  5
288
100
AcDbEntity
  8
SUPERFICI
100
AcDbLine
 62
7
  6
CONTINUOUS
 10
1.018347287
 20
3.0881258348
 11
1.0171237323
 21
3.2675241926
  0
LINE
  5
289
100
AcDbEntity
  8
SUPERFICI
100
AcDbLine
 62
7
  6
CONTINUOUS
 10
1.0171237323
 20
3.2675241926
 11
1.0168273941
 21
3.3123781746
  0
LINE
  5
28A
100
AcDbEntity
  8
SUPERFICI
100
AcDbLine
 62
7
  6
CONTINUOUS
 10
1.0168273941
 20
3.3123781746
 11
1.0156802421
 21
3.4918116292
  0
SPLINE
  5
28B
100
AcDbEntity
  8
RACCORDO
100
AcDbSpline
 62
7
  6
CONTINUOUS
 70
0
 71
3
 72
15
 73
11
 74
9
 42
0.0000001
 43
0.0000001
 44
0.0000000001
 12
0.1696235192
 22
0.1209906019
 32
0.0
 13
0.18616337
 23
-0.093081685
 33
0.0
 40
0.0
 40
0.0
 40
0.0
 40
0.0
 40
0.1081411329
 40
0.2229400458
 40
0.3397312535
 40
0.459601248
 40
0.584464367
 40
0.7161066524
 40
0.8547623222
 40
1.0
 40
1.0
 40
1.0
 40
1.0
 10
-5.337003589
 20
6.9120664939
 30
0.0
 10
-5.3308891625
 20
6.9164278475
 30
0.0
 10
-5.3176056982
 20
6.9244722413
 30
0.0
 10
-5.2956754234
 20
6.9333889894
 30
0.0
 10
-5.2718143289
 20
6.9388763331
 30
0.0
 10
-5.2467113698
 20
6.9407373974
 30
0.0
 10
-5.2205784753
 20
6.9389898744
 30
0.0
 10
-5.1936171988
 20
6.933648385
 30
0.0
 10
-5.1661284254
 20
6.9247720728
 30
0.0
 10
-5.1480885987
 20
6.9167716244
 30
0.0
 10
-5.1390759535
 20
6.9122653018
 30
0.0
 11
-5.337003589
 21
6.9120664939
 31
0.0
 11
-5.3177417518
 21
6.9237160128
 31
0.0
 11
-5.2956139933
 21
6.9327315932
 31
0.0
 11
-5.2719342984
 21
6.9382250946
 31
0.0
 11
-5.2470582727
 21
6.940136851
 31
0.0
 11
-5.2211223839
 21
6.9384819617
 31
0.0
 11
-5.1942288079
 21
6.9332402892
 31
0.0
 11
-5.1667404742
 21
6.9244508154
 31
0.0
 11
-5.1390759535
 21
6.9122653018
 31
0.0
  0
SPLINE
  5
28C
100
AcDbEntity
  8
RACCORDO
100
AcDbSpline
 62
7
  6
CONTINUOUS
 70
0
 71
3
 72
17
 73
13
 74
11
 42
0.0000001
 43
0.0000001
 44
0.0000000001
 12
0.002322982
 22
-0.2723078731
 32
0.0
 13
-0.2595482812
 23
-0.0833478641
 33
0.0
 40
0.0
 40
0.0
 40
0.0
 40
0.0
 40
0.1215910421
 40
0.2382115935
 40
0.3490473415
 40
0.4537496329
 40
0.5532322124
 40
0.6484805119
 40
0.7398428647
 40
0.8280303749
 40
0.9148420727
 40
1.0
 40
1.0
 40
1.0
 40
1.0
 10
1.0246093545
 20
2.2812283005
 30
0.0
 10
1.0247035058
 20
2.2701915679
 30
0.0
 10
1.0240479269
 20
2.24854951
 30
0.0
 10
1.0203428281
 20
2.2170404576
 30
0.0
 10
1.0139654135
 20
2.1875192994
 30
0.0
 10
1.0049932674
 20
2.1603064151
 30
0.0
 10
0.9934986084
 20
2.1356006508
 30
0.0
 10
0.9795459719
 20
2.1136024285
 30
0.0
 10
0.9632682363
 20
2.0945808401
 30
0.0
 10
0.9448542251
 20
2.078759066
 30
0.0
 10
0.9246285182
 20
2.066369722
 30
0.0
 10
0.9101195636
 20
2.0604328436
 30
0.0
 10
0.9027520324
 20
2.0580669332
 30
0.0
 11
1.0246093545
 21
2.2812283005
 31
0.0
 11
1.0235462501
 21
2.2481339686
 31
0.0
 11
1.0197680967
 21
2.2166016585
 31
0.0
 11
1.0133186691
 21
2.187116223
 31
0.0
 11
1.004312707
 21
2.1600636141
 31
0.0
 11
0.9928084458
 21
2.1355367411
 31
0.0
 11
0.9788476571
 21
2.1136765915
 31
0.0
 11
0.9626201009
 21
2.094817626
 31
0.0
 11
0.9443763674
 21
2.0792007213
 31
0.0
 11
0.9242096139
 21
2.0668650373
 31
0.0
 11
0.9027520324
 21
2.0580669332
 31
0.0
  0
SPLINE
  5
28D
100
AcDbEntity
  8
RACCORDO
100
AcDbSpline
 62
7
  6
CONTINUOUS
 70
0
 71
3
 72
23
 73
19
 74
17
 42
0.0000001
 43
0.0000001
 44
0.0000000001
 12
0.5249182302
 22
-0.2624591151
 32
0.0
 13
0.0036517027
 23
-0.5868650616
 33
0.0
 40
0.0
 40
0.0
 40
0.0
 40
0.0
 40
0.0540534394
 40
0.1108095711
 40
0.1698178519
 40
0.2305904547
 40
0.293167576
 40
0.3575314641
 40
0.4230178089
 40
0.4889353731
 40
0.5552387648
 40
0.6218827833
 40
0.6881587177
 40
0.7533442148
 40
0.8173672924
 40
0.8802128772
 40
0.9412902139
 40
1.0
 40
1.0
 40
1.0
 40
1.0
 10
0.7317078958
 20
3.9768733772
 30
0.0
 10
0.7411657744
 20
3.9721444379
 30
0.0
 10
0.760092362
 20
3.9615036536
 30
0.0
 10
0.7875612255
 20
3.9427564842
 30
0.0
 10
0.814470902
 20
3.9210554564
 30
0.0
 10
0.8405345941
 20
3.8966537081
 30
0.0
 10
0.8655638495
 20
3.8697456583
 30
0.0
 10
0.8893542014
 20
3.8405390344
 30
0.0
 10
0.9116333201
 20
3.8093588742
 30
0.0
 10
0.9321671083
 20
3.7765555681
 30
0.0
 10
0.950809285
 20
3.7423837921
 30
0.0
 10
0.9674104161
 20
3.7070973909
 30
0.0
 10
0.9817781147
 20
3.6710790314
 30
0.0
 10
0.9937578135
 20
3.6347364303
 30
0.0
 10
1.0032631011
 20
3.5983616637
 30
0.0
 10
1.0102116061
 20
3.5622282626
 30
0.0
 10
1.0145132674
 20
3.5267317003
 30
0.0
 10
1.0156087786
 20
3.5032965367
 30
0.0
 10
1.0156802421
 20
3.4918116293
 30
0.0
 11
0.7317078958
 21
3.9768733772
 31
0.0
 11
0.7593921622
 21
3.9613843359
 31
0.0
 11
0.7869374779
 21
3.9426564394
 31
0.0
 11
0.8139256637
 21
3.9209558836
 31
0.0
 11
0.8399895849
 21
3.8966097111
 31
0.0
 11
0.865026239
 21
3.8697416202
 31
0.0
 11
0.8889018435
 21
3.8404704054
 31
0.0
 11
0.9112597075
 21
3.8092106124
 31
0.0
 11
0.931794577
 21
3.7764251846
 31
0.0
 11
0.9504330083
 21
3.7422675407
 31
0.0
 11
0.9670800891
 21
3.7068753404
 31
0.0
 11
0.9814815246
 21
3.6707439051
 31
0.0
 11
0.9934413451
 21
3.634405615
 31
0.0
 11
1.0029168098
 21
3.5980463852
 31
0.0
 11
1.00984936
 21
3.5618211821
 31
0.0
 11
1.01412033
 21
3.5262316892
 31
0.0
 11
1.0156802421
 21
3.4918116293
 31
0.0
  0
SPLINE
  5
28E
100
AcDbEntity
  8
RACCORDO
100
AcDbSpline
 62
253
  6
CONTINUOUS
 70
0
 71
3
 72
14
 73
10
 74
8
 42
0.0000001
 43
0.0000001
 44
0.0000000001
 12
0.1079759423
 22
0.059107575
 32
0.0
 13
0.1114318115
 23
-0.0519160149
 33
0.0
 40
0.0
 40
0.0
 40
0.0
 40
0.0
 40
0.0441160084
 40
0.1884254707
 40
0.3362174592
 40
0.4897860629
 40
0.6509086686
 40
0.8207758232
 40
1.0
 40
1.0
 40
1.0
 40
1.0
 10
-17.4827197051
 20
16.1847100344
 30
0.0
 10
-17.4811318826
 20
16.1855792312
 30
0.0
 10
-17.4742485321
 20
16.1891058408
 30
0.0
 10
-17.4612667447
 20
16.1939314693
 30
0.0
 10
-17.4432208047
 20
16.1972535715
 30
0.0
 10
-17.4241963935
 20
16.1976211145
 30
0.0
 10
-17.4044404841
 20
16.1950512451
 30
0.0
 10
-17.3842014832
 20
16.189596395
 30
0.0
 10
-17.3709017764
 20
16.184231579
 30
0.0
 10
-17.3642446849
 20
16.1811300439
 30
0.0
 11
-17.4827197051
 21
16.1847100344
 31
0.0
 11
-17.4778872002
 21
16.1871855296
 31
0.0
 11
-17.4612671458
 21
16.1933896588
 31
0.0
 11
-17.443408058
 21
16.1967278373
 31
0.0
 11
-17.4245344384
 21
16.1971581018
 31
0.0
 11
-17.4048835415
 21
16.1946750434
 31
0.0
 11
-17.3847023932
 21
16.1893098762
 31
0.0
 11
-17.3642446849
 21
16.1811300439
 31
0.0
  0
SPLINE
  5
28F
100
AcDbEntity
  8
0
100
AcDbSpline
 62
253
  6
CONTINUOUS
 70
0
 71
3
 72
16
 73
12
 74
10
 42
0.0000001
 43
0.0000001
 44
0.0000000001
 12
0.0036161431
 22
-0.2418106431
 32
0.0
 13
0.2159330074
 23
-0.1081392174
 33
0.0
 40
0.0
 40
0.0
 40
0.0
 40
0.0
 40
0.0103930778
 40
0.112579259
 40
0.2175952946
 40
0.3277075654
 40
0.4447150983
 40
0.5698908686
 40
0.7040051974
 40
0.8473880294
 40
1.0
 40
1.0
 40
1.0
 40
1.0
 10
-17.6183814408
 20
8.0290094349
 30
0.0
 10
-17.6183689132
 20
8.028171716
 30
0.0
 10
-17.6181458027
 20
8.0190988201
 30
0.0
 10
-17.6158765471
 20
8.0016264389
 30
0.0
 10
-17.6079797681
 20
7.9771937915
 30
0.0
 10
-17.5955347113
 20
7.9534008369
 30
0.0
 10
-17.5787028338
 20
7.9304592946
 30
0.0
 10
-17.5576669384
 20
7.9085569493
 30
0.0
 10
-17.5326303034
 20
7.8878702628
 30
0.0
 10
-17.5038255269
 20
7.8685711221
 30
0.0
 10
-17.4829128293
 20
7.8570854613
 30
0.0
 10
-17.4719281754
 20
7.8515843483
 30
0.0
 11
-17.6183814408
 21
8.0290094349
 31
0.0
 11
-17.6183196144
 21
8.0264968167
 31
0.0
 11
-17.6151774694
 21
8.0020199434
 31
0.0
 11
-17.6074615124
 21
7.9778610705
 31
0.0
 11
-17.5952427897
 21
7.954242645
 31
0.0
 11
-17.5786338072
 21
7.931382138
 31
0.0
 11
-17.5577874951
 21
7.9094900415
 31
0.0
 11
-17.5328957996
 21
7.888767931
 31
0.0
 11
-17.5041879153
 21
7.8694066089
 31
0.0
 11
-17.4719281754
 21
7.8515843483
 31
0.0
  0
SPLINE
  5
290
100
AcDbEntity
  8
0
100
AcDbSpline
 62
253
  6
CONTINUOUS
 70
0
 71
3
 72
15
 73
11
 74
9
 42
0.0000001
 43
0.0000001
 44
0.0000000001
 12
0.0375366471
 22
-0.2295377124
 32
0.0
 13
0.2073415345
 23
-0.1048162105
 33
0.0
 40
0.0
 40
0.0
 40
0.0
 40
0.0
 40
0.029769831
 40
0.1523888438
 40
0.2779973496
 40
0.4083654372
 40
0.5449145327
 40
0.6886722944
 40
0.8402752851
 40
1.0
 40
1.0
 40
1.0
 40
1.0
 10
-16.9420523595
 20
-1.7550816599
 30
0.0
 10
-16.941679873
 20
-1.7573594262
 30
0.0
 10
-16.9395408735
 20
-1.7689809181
 30
0.0
 10
-16.9334794439
 20
-1.7897365802
 30
0.0
 10
-16.9208815521
 20
-1.8163393698
 30
0.0
 10
-16.903898616
 20
-1.841674816
 30
0.0
 10
-16.8827152781
 20
-1.8655158047
 30
0.0
 10
-16.8575436516
 20
-1.8876582185
 30
0.0
 10
-16.8286266765
 20
-1.9079131633
 30
0.0
 10
-16.807568757
 20
-1.9197402727
 30
0.0
 10
-16.7965295679
 20
-1.9253208525
 30
0.0
 11
-16.9420523595
 21
-1.7550816599
 31
0.0
 11
-16.9407989741
 21
-1.761890736
 31
0.0
 11
-16.93284979
 21
-1.7892472107
 31
0.0
 11
-16.9204241513
 21
-1.8156522227
 31
0.0
 11
-16.9036365265
 21
-1.8408625214
 31
0.0
 11
-16.8826415679
 21
-1.8646458627
 31
0.0
 11
-16.8576326869
 21
-1.8867831478
 31
0.0
 11
-16.8288402723
 21
-1.9070704418
 31
0.0
 11
-16.7965295679
 21
-1.9253208525
 31
0.0
  0
LINE
  5
291
100
AcDbEntity
  8
0
100
AcDbLine
 62
253
  6
CONTINUOUS
 10
-16.5489381582
 20
-2.3388365938
 11
-16.5492338044
 21
-2.3386886219
  0
SPLINE
  5
292
100
AcDbEntity
  8
0
100
AcDbSpline
 62
253
  6
CONTINUOUS
 70
0
 71
3
 72
15
 73
11
 74
9
 42
0.0000001
 43
0.0000001
 44
0.0000000001
 12
-0.3642488031
 22
0.2579223609
 32
0.0
 13
-0.0570769293
 23
0.44233646
 33
0.0
 40
0.0
 40
0.0
 40
0.0
 40
0.0
 40
0.1104540836
 40
0.223556298
 40
0.3402911134
 40
0.4614654145
 40
0.5876925787
 40
0.7193943431
 40
0.856805535
 40
1.0
 40
1.0
 40
1.0
 40
1.0
 10
-16.5966867235
 20
-2.3101999485
 30
0.0
 10
-16.6100976461
 20
-2.3007037558
 30
0.0
 10
-16.6359581157
 20
-2.2796785043
 30
0.0
 10
-16.6709420421
 20
-2.2429555688
 30
0.0
 10
-16.7022260682
 20
-2.2010425668
 30
0.0
 10
-16.7296198029
 20
-2.1542290059
 30
0.0
 10
-16.752961271
 20
-2.1028284039
 30
0.0
 10
-16.772114191
 20
-2.0471762229
 30
0.0
 10
-16.7869666814
 20
-1.9876356487
 30
0.0
 10
-16.7938052013
 20
-1.9464342302
 30
0.0
 10
-16.7965295681
 20
-1.9253208526
 30
0.0
 11
-16.5966867235
 21
-2.3101999485
 31
0.0
 11
-16.6349493362
 21
-2.2791707852
 31
0.0
 11
-16.6698071709
 21
-2.2427080733
 31
0.0
 11
-16.7010344556
 21
-2.2010483365
 31
0.0
 11
-16.7284290136
 21
-2.1544617227
 31
0.0
 11
-16.7518135062
 21
-2.1032503363
 31
0.0
 11
-16.7710368247
 21
-2.0477454699
 31
0.0
 11
-16.7859742741
 21
-1.9883078176
 31
0.0
 11
-16.7965295681
 21
-1.9253208526
 31
0.0
  0
SPLINE
  5
293
100
AcDbEntity
  8
RACCORDO
100
AcDbSpline
 62
253
  6
CONTINUOUS
 70
0
 71
3
 72
24
 73
20
 74
18
 42
0.0000001
 43
0.0000001
 44
0.0000000001
 12
-0.3225383182
 22
-0.1537130115
 32
0.0
 13
-0.3195746748
 23
0.1597832403
 33
0.0
 40
0.0
 40
0.0
 40
0.0
 40
0.0
 40
0.0524730889
 40
0.1073724184
 40
0.164442622
 40
0.2233961642
 40
0.283914619
 40
0.3456553533
 40
0.4082554946
 40
0.4713401437
 40
0.5345269365
 40
0.5974328202
 40
0.6596779188
 40
0.7208925822
 40
0.7807219467
 40
0.8388342871
 40
0.894925227
 40
0.9487248433
 40
1.0
 40
1.0
 40
1.0
 40
1.0
 10
13.6324321725
 20
0.6827916153
 30
0.0
 10
13.6267906452
 20
0.6801030165
 30
0.0
 10
13.6150486158
 20
0.6750100291
 30
0.0
 10
13.5966162756
 20
0.6683584011
 30
0.0
 10
13.5770904029
 20
0.6625645287
 30
0.0
 10
13.5566309394
 20
0.6576763059
 30
0.0
 10
13.535403138
 20
0.6537331509
 30
0.0
 10
13.5135790649
 20
0.6507671732
 30
0.0
 10
13.4913356692
 20
0.648802498
 30
0.0
 10
13.4688535873
 20
0.6478551462
 30
0.0
 10
13.4463153123
 20
0.6479328306
 30
0.0
 10
13.4239038696
 20
0.6490349115
 30
0.0
 10
13.4018011679
 20
0.651152403
 30
0.0
 10
13.3801866634
 20
0.6542680295
 30
0.0
 10
13.3592355218
 20
0.6583564542
 30
0.0
 10
13.3391174637
 20
0.6633844086
 30
0.0
 10
13.3199948019
 20
0.669311422
 30
0.0
 10
13.3020240511
 20
0.676088587
 30
0.0
 10
13.2906191308
 20
0.6812685839
 30
0.0
 10
13.2851570503
 20
0.6839995542
 30
0.0
 11
13.6324321725
 21
0.6827916153
 31
0.0
 11
13.6152438903
 21
0.6753041925
 31
0.0
 11
13.5968017901
 21
0.668622575
 31
0.0
 11
13.5772591723
 21
0.6628026636
 31
0.0
 11
13.5567758447
 21
0.6578921114
 31
0.0
 11
13.5355189168
 21
0.6539309591
 31
0.0
 11
13.5136614911
 21
0.6509514787
 31
0.0
 11
13.4913820978
 21
0.6489780216
 31
0.0
 11
13.4688624473
 21
0.6480266843
 31
0.0
 11
13.4462863525
 21
0.6481052278
 31
0.0
 11
13.4238378049
 21
0.6492130118
 31
0.0
 11
13.4017000754
 21
0.651340994
 31
0.0
 11
13.3800537139
 21
0.6544718127
 31
0.0
 11
13.3590755176
 21
0.6585798765
 31
0.0
 11
13.3389363062
 21
0.6636317155
 31
0.0
 11
13.3198003779
 21
0.6695861329
 31
0.0
 11
13.301824203
 21
0.6763943772
 31
0.0
 11
13.2851570503
 21
0.6839995542
 31
0.0
  0
SPLINE
  5
294
100
AcDbEntity
  8
RACCORDO
100
AcDbSpline
 62
253
  6
CONTINUOUS
 70
0
 71
3
 72
24
 73
20
 74
18
 42
0.0000001
 43
0.0000001
 44
0.0000000001
 12
-0.2109636275
 22
0.1054845185
 32
0.0
 13
0.206907066
 23
0.11323472
 33
0.0
 40
0.0
 40
0.0
 40
0.0
 40
0.0
 40
0.073604999
 40
0.1429946744
 40
0.2081158634
 40
0.2690715761
 40
0.326139588
 40
0.3797983211
 40
0.4307418959
 40
0.4798748912
 40
0.5282642816
 40
0.5770507795
 40
0.6273350143
 40
0.6800785173
 40
0.7360420195
 40
0.7957693816
 40
0.8595969972
 40
0.9276778407
 40
1.0
 40
1.0
 40
1.0
 40
1.0
 10
-17.3581818663
 20
16.0056690125
 30
0.0
 10
-17.3633578589
 20
16.0082570751
 30
0.0
 10
-17.3732408856
 20
16.0136432182
 30
0.0
 10
-17.386940311
 20
16.0226264368
 30
0.0
 10
-17.3989821573
 20
16.0322144623
 30
0.0
 10
-17.4092669186
 20
16.0423350903
 30
0.0
 10
-17.417708511
 20
16.0529149044
 30
0.0
 10
-17.4242299505
 20
16.063877338
 30
0.0
 10
-17.4287626603
 20
16.0751391573
 30
0.0
 10
-17.4312492057
 20
16.0866047201
 30
0.0
 10
-17.4316525062
 20
16.0981632486
 30
0.0
 10
-17.4299664606
 20
16.1096950567
 30
0.0
 10
-17.4262179301
 20
16.1210850905
 30
0.0
 10
-17.4204578938
 20
16.1322322887
 30
0.0
 10
-17.4127508352
 20
16.1430493162
 30
0.0
 10
-17.4031700522
 20
16.1534570089
 30
0.0
 10
-17.3917974607
 20
16.1633800124
 30
0.0
 10
-17.3787279946
 20
16.1727439826
 30
0.0
 10
-17.3692326735
 20
16.1784002508
 30
0.0
 10
-17.3642446849
 20
16.1811300439
 30
0.0
 11
-17.3581818663
 21
16.0056690125
 31
0.0
 11
-17.3734076261
 21
16.0140102918
 31
0.0
 11
-17.3870702191
 21
16.0230214314
 31
0.0
 11
-17.3990554815
 21
16.0326276094
 31
0.0
 11
-17.4092652869
 21
16.0427502788
 31
0.0
 11
-17.4176163753
 21
16.0533068574
 31
0.0
 11
-17.4240407086
 21
16.064211386
 31
0.0
 11
-17.4284857755
 21
16.075374802
 31
0.0
 11
-17.4309153105
 21
16.0867060593
 31
0.0
 11
-17.431309482
 21
16.098112649
 31
0.0
 11
-17.4296650775
 21
16.1095016092
 31
0.0
 11
-17.4259955106
 21
16.1207799795
 31
0.0
 11
-17.4203307124
 21
16.1318557737
 31
0.0
 11
-17.4127169828
 21
16.1426385251
 31
0.0
 11
-17.4032163525
 21
16.153040426
 31
0.0
 11
-17.3919062888
 21
16.1629766145
 31
0.0
 11
-17.3788794004
 21
16.1723658378
 31
0.0
 11
-17.3642446849
 21
16.1811300439
 31
0.0
  0
SPLINE
  5
295
100
AcDbEntity
  8
RACCORDO
100
AcDbSpline
 62
7
  6
CONTINUOUS
 70
0
 71
3
 72
23
 73
19
 74
17
 42
0.0000001
 43
0.0000001
 44
0.0000000001
 12
-0.4697235934
 22
0.2720556507
 32
0.0
 13
-0.0327478609
 23
0.5417582291
 33
0.0
 40
0.0
 40
0.0
 40
0.0
 40
0.0
 40
0.0197112377
 40
0.0810136604
 40
0.1447474378
 40
0.2103855487
 40
0.2779702474
 40
0.3474889991
 40
0.4182279689
 40
0.4894443216
 40
0.5610860775
 40
0.6331136178
 40
0.7047627447
 40
0.7752532483
 40
0.8445006569
 40
0.9124937506
 40
0.9785939253
 40
1.0
 40
1.0
 40
1.0
 40
1.0
 10
-5.1439864185
 20
5.0241961899
 30
0.0
 10
-5.1470726963
 20
5.0259837078
 30
0.0
 10
-5.1596482871
 20
5.0335200891
 30
0.0
 10
-5.1813011072
 20
5.0482822348
 30
0.0
 10
-5.2081882549
 20
5.0699296873
 30
0.0
 10
-5.2342390482
 20
5.0942666575
 30
0.0
 10
-5.259266589
 20
5.121101013
 30
0.0
 10
-5.283067888
 20
5.150228139
 30
0.0
 10
-5.3053718314
 20
5.1813274134
 30
0.0
 10
-5.325943717
 20
5.2140516344
 30
0.0
 10
-5.3446368565
 20
5.248149775
 30
0.0
 10
-5.3613007494
 20
5.2833712234
 30
0.0
 10
-5.3757414245
 20
5.3193372655
 30
0.0
 10
-5.3878012192
 20
5.3556412409
 30
0.0
 10
-5.3973911297
 20
5.3919920981
 30
0.0
 10
-5.4044262138
 20
5.4281169329
 30
0.0
 10
-5.4078778796
 20
5.4560497858
 30
0.0
 10
-5.4090335192
 20
5.4718405587
 30
0.0
 10
-5.4092671869
 20
5.4757061977
 30
0.0
 11
-5.1439864185
 21
5.0241961899
 31
0.0
 11
-5.1531651317
 21
5.0296939939
 31
0.0
 11
-5.1806795416
 21
5.048381274
 31
0.0
 11
-5.2076451751
 21
5.0700285355
 31
0.0
 11
-5.2336963081
 21
5.0943104657
 31
0.0
 11
-5.2587303481
 21
5.1211043218
 31
0.0
 11
-5.2826164159
 21
5.1502955478
 31
0.0
 11
-5.3049986832
 21
5.1814738547
 31
0.0
 11
-5.3255718466
 21
5.2141808354
 31
0.0
 11
-5.3442603667
 21
5.248263539
 31
0.0
 11
-5.3609702225
 21
5.2835904131
 31
0.0
 11
-5.3754447891
 21
5.3196693447
 31
0.0
 11
-5.3874850551
 21
5.3559702383
 31
0.0
 11
-5.3970448644
 21
5.3923047644
 31
0.0
 11
-5.4040641884
 21
5.428521367
 31
0.0
 11
-5.4084210459
 21
5.4641192672
 31
0.0
 11
-5.4092671869
 21
5.4757061977
 31
0.0
  0
SPLINE
  5
296
100
AcDbEntity
  8
RACCORDO
100
AcDbSpline
 62
7
  6
CONTINUOUS
 70
0
 71
3
 72
15
 73
11
 74
9
 42
0.0000001
 43
0.0000001
 44
0.0000000001
 12
0.0098937155
 22
0.203503376
 32
0.0
 13
0.1649862835
 23
0.1197703097
 33
0.0
 40
0.0
 40
0.0
 40
0.0
 40
0.0
 40
0.0532447951
 40
0.2091906884
 40
0.3575194669
 40
0.4977555399
 40
0.6311027592
 40
0.7588815841
 40
0.88153854
 40
1.0
 40
1.0
 40
1.0
 40
1.0
 10
-5.4185292499
 20
6.7313913476
 30
0.0
 10
-5.4183536536
 20
6.7350031795
 30
0.0
 10
-5.4174657626
 20
6.7491841909
 30
0.0
 10
-5.4145644004
 20
6.7733146522
 30
0.0
 10
-5.4081004808
 20
6.8028444724
 30
0.0
 10
-5.3990376578
 20
6.8300781356
 30
0.0
 10
-5.3874478616
 20
6.8548144533
 30
0.0
 10
-5.3733956943
 20
6.8768504511
 30
0.0
 10
-5.3570142654
 20
6.8959146785
 30
0.0
 10
-5.3445320499
 20
6.9066077062
 30
0.0
 10
-5.3380172113
 20
6.9113370947
 30
0.0
 11
-5.4185292499
 21
6.7313913476
 31
0.0
 11
-5.4178492094
 21
6.7422180877
 31
0.0
 11
-5.4139889568
 21
6.7737438877
 31
0.0
 11
-5.4074537624
 21
6.8032384451
 31
0.0
 11
-5.398358046
 21
6.8303130945
 31
0.0
 11
-5.3867600967
 21
6.8548707483
 31
0.0
 11
-5.3727001756
 21
6.8767703846
 31
0.0
 11
-5.3563686325
 21
6.8956740537
 31
0.0
 11
-5.3380172113
 21
6.9113370947
 31
0.0
  0
LINE
  5
297
100
AcDbEntity
  8
RACCORDO
100
AcDbLine
 62
7
  6
CONTINUOUS
 10
-5.4100623542
 20
5.4985641549
 11
-5.4115608673
 21
5.6778219198
  0
LINE
  5
298
100
AcDbEntity
  8
RACCORDO
100
AcDbLine
 62
7
  6
CONTINUOUS
 10
-5.4115608673
 20
5.6778219198
 11
-5.4119259445
 21
5.7226407682
  0
LINE
  5
299
100
AcDbEntity
  8
RACCORDO
100
AcDbLine
 62
7
  6
CONTINUOUS
 10
-5.4119259445
 20
5.7226407682
 11
-5.4133480502
 21
5.9019337998
  0
LINE
  5
29A
100
AcDbEntity
  8
RACCORDO
100
AcDbLine
 62
7
  6
CONTINUOUS
 10
-5.4133480502
 20
5.9019337998
 11
-5.4147090846
 21
6.0812619423
  0
LINE
  5
29B
100
AcDbEntity
  8
RACCORDO
100
AcDbLine
 62
7
  6
CONTINUOUS
 10
-5.4147090846
 20
6.0812619423
 11
-5.4150397924
 21
6.1260983676
  0
LINE
  5
29C
100
AcDbEntity
  8
RACCORDO
100
AcDbLine
 62
7
  6
CONTINUOUS
 10
-5.4150397924
 20
6.1260983676
 11
-5.4163244218
 21
6.3054616938
  0
LINE
  5
29D
100
AcDbEntity
  8
RACCORDO
100
AcDbLine
 62
7
  6
CONTINUOUS
 10
-5.4163244218
 20
6.3054616938
 11
-5.4175479765
 21
6.4848600506
  0
LINE
  5
29E
100
AcDbEntity
  8
RACCORDO
100
AcDbLine
 62
7
  6
CONTINUOUS
 10
-5.4175479765
 20
6.4848600506
 11
-5.4178443146
 21
6.529714026
  0
LINE
  5
29F
100
AcDbEntity
  8
RACCORDO
100
AcDbLine
 62
7
  6
CONTINUOUS
 10
-5.4178443146
 20
6.529714026
 11
-5.4189914666
 21
6.7091474837
  0
SPLINE
  5
2A0
100
AcDbEntity
  8
RACCORDO
100
AcDbSpline
 62
7
  6
CONTINUOUS
 70
0
 71
3
 72
14
 73
10
 74
8
 42
0.0000001
 43
0.0000001
 44
0.0000000001
 12
-0.1348742279
 22
-0.0433117058
 32
0.0
 13
-0.1305045418
 23
0.0549059436
 33
0.0
 40
0.0
 40
0.0
 40
0.0
 40
0.0
 40
0.0041519654
 40
0.1751397287
 40
0.3507158298
 40
0.5337212842
 40
0.7267852074
 40
0.9302596416
 40
1.0
 40
1.0
 40
1.0
 40
1.0
 10
0.9027520324
 20
2.0580669332
 30
0.0
 10
0.902565368
 20
2.0580069903
 30
0.0
 10
0.8946864725
 20
2.0554939988
 30
0.0
 10
0.8784964987
 20
2.0517758396
 30
0.0
 10
0.8534946835
 20
2.0499375532
 30
0.0
 10
0.8274545453
 20
2.0516976701
 30
0.0
 10
0.8005744342
 20
2.0570414125
 30
0.0
 10
0.7796061975
 20
2.0638228528
 30
0.0
 10
0.7676369876
 20
2.0686246283
 30
0.0
 10
0.7646031765
 20
2.0699010151
 30
0.0
 11
0.9027520324
 21
2.0580669332
 31
0.0
 11
0.9021916887
 21
2.0578882102
 31
0.0
 11
0.8786198174
 21
2.0524260134
 31
0.0
 11
0.8538460473
 21
2.0505360653
 31
0.0
 11
0.828002641
 21
2.0522025749
 31
0.0
 11
0.8011900309
 21
2.0574457847
 31
0.0
 11
0.7737681288
 21
2.0662272051
 31
0.0
 11
0.7646031765
 21
2.0699010151
 31
0.0
  0
SPLINE
  5
2A1
100
AcDbEntity
  8
RACCORDO
100
AcDbSpline
 62
253
  6
CONTINUOUS
 70
0
 71
3
 72
21
 73
17
 74
15
 42
0.0000001
 43
0.0000001
 44
0.0000000001
 12
-0.0027086902
 22
0.3665006289
 32
0.0
 13
-0.3229569199
 23
0.1732884182
 33
0.0
 40
0.0
 40
0.0
 40
0.0
 40
0.0
 40
0.0675515957
 40
0.1379106427
 40
0.210618269
 40
0.2851460241
 40
0.3609149144
 40
0.4373129777
 40
0.5137119661
 40
0.5894836079
 40
0.6640158694
 40
0.7367296356
 40
0.8070962814
 40
0.8746567015
 40
0.9390424875
 40
1.0
 40
1.0
 40
1.0
 40
1.0
 10
13.8044744106
 20
0.3756456196
 30
0.0
 10
13.8044134185
 20
0.383898187
 30
0.0
 10
13.8035300736
 20
0.4007474384
 30
0.0
 10
13.8001199385
 20
0.42627592
 30
0.0
 10
13.7946383421
 20
0.452312442
 30
0.0
 10
13.7871538119
 20
0.4785310461
 30
0.0
 10
13.7777596125
 20
0.5046063956
 30
0.0
 10
13.766572811
 20
0.530213514
 30
0.0
 10
13.7537328364
 20
0.555033333
 30
0.0
 10
13.7393996916
 20
0.5787565143
 30
0.0
 10
13.7237518754
 20
0.6010875371
 30
0.0
 10
13.7069838282
 20
0.6217485379
 30
0.0
 10
13.6893036886
 20
0.6404825734
 30
0.0
 10
13.6709286094
 20
0.6570576302
 30
0.0
 10
13.6520873996
 20
0.6712660615
 30
0.0
 10
13.6389943893
 20
0.6792705383
 30
0.0
 10
13.6324321725
 20
0.6827916153
 30
0.0
 11
13.8044744106
 21
0.3756456196
 31
0.0
 11
13.8032242587
 21
0.4003724153
 31
0.0
 11
13.7998465209
 21
0.425937582
 31
0.0
 11
13.7943836578
 21
0.4520197473
 31
0.0
 11
13.7869043415
 21
0.4782910397
 31
0.0
 11
13.7775025925
 21
0.5044212102
 31
0.0
 11
13.7662965976
 21
0.530081784
 31
0.0
 11
13.7534272243
 21
0.5549501893
 31
0.0
 11
13.7390562498
 21
0.5787138127
 31
0.0
 11
13.7233643277
 21
0.6010739287
 31
0.0
 11
13.7065487165
 21
0.6217494549
 31
0.0
 11
13.6888208005
 21
0.6404804854
 31
0.0
 11
13.6704034322
 21
0.6570315581
 31
0.0
 11
13.6515281309
 21
0.6711946146
 31
0.0
 11
13.6324321725
 21
0.6827916153
 31
0.0
  0
SPLINE
  5
2A2
100
AcDbEntity
  8
RACCORDO
100
AcDbSpline
 62
253
  6
CONTINUOUS
 70
0
 71
3
 72
21
 73
17
 74
15
 42
0.0000001
 43
0.0000001
 44
0.0000000001
 12
-0.0002381811
 22
0.3665649359
 32
0.0
 13
0.3264581342
 23
0.1667183122
 33
0.0
 40
0.0
 40
0.0
 40
0.0
 40
0.0
 40
0.0673451676
 40
0.1373665829
 40
0.2096497344
 40
0.2837102531
 40
0.3590123512
 40
0.4349859312
 40
0.5110428482
 40
0.5865927408
 40
0.6610588114
 40
0.7338939267
 40
0.8045974427
 40
0.8727332169
 40
0.9379493261
 40
1.0
 40
1.0
 40
1.0
 40
1.0
 10
13.1099230589
 20
0.3797122124
 30
0.0
 10
13.1099177121
 20
0.3879410048
 30
0.0
 10
13.1106871465
 20
0.4047334129
 30
0.0
 10
13.1139923786
 20
0.4301620649
 30
0.0
 10
13.1194312247
 20
0.4560600124
 30
0.0
 10
13.1269361403
 20
0.4821060851
 30
0.0
 10
13.1364143688
 20
0.5079804182
 30
0.0
 10
13.1477488887
 20
0.5333637808
 30
0.0
 10
13.1607998029
 20
0.557943062
 30
0.0
 10
13.1754061004
 20
0.5814149415
 30
0.0
 10
13.1913877094
 20
0.6034898529
 30
0.0
 10
13.2085480228
 20
0.623895685
 30
0.0
 10
13.226676116
 20
0.642380932
 30
0.0
 10
13.2455513432
 20
0.6587185195
 30
0.0
 10
13.2649406679
 20
0.6727053493
 30
0.0
 10
13.2784047345
 20
0.6805512263
 30
0.0
 10
13.2851570503
 20
0.6839995542
 30
0.0
 11
13.1099230589
 21
0.3797122124
 31
0.0
 11
13.1110077421
 21
0.4043747535
 31
0.0
 11
13.1142796217
 21
0.4298327636
 31
0.0
 11
13.1196979661
 21
0.455769315
 31
0.0
 11
13.127195322
 21
0.4818615224
 31
0.0
 11
13.1366783546
 21
0.5077845629
 31
0.0
 11
13.1480290091
 21
0.5332157195
 31
0.0
 11
13.1611059808
 21
0.5578383986
 31
0.0
 11
13.1757464739
 21
0.5813460714
 31
0.0
 11
13.1917682283
 21
0.6034460901
 31
0.0
 11
13.2089717885
 21
0.6238633304
 31
0.0
 11
13.2271429868
 21
0.6423436174
 31
0.0
 11
13.246055609
 21
0.6586568892
 31
0.0
 11
13.2654742111
 21
0.6726000612
 31
0.0
 11
13.2851570503
 21
0.6839995542
 31
0.0
  0
SPLINE
  5
2A3
100
AcDbEntity
  8
RACCORDO
100
AcDbSpline
 62
253
  6
CONTINUOUS
 70
0
 71
3
 72
21
 73
17
 74
15
 42
0.0000001
 43
0.0000001
 44
0.0000000001
 12
-0.0002381814
 22
0.366564936
 32
0.0
 13
0.3264581343
 23
0.1667183119
 33
0.0
 40
0.0
 40
0.0
 40
0.0
 40
0.0
 40
0.0673451718
 40
0.1373665919
 40
0.2096497479
 40
0.2837102706
 40
0.3590123719
 40
0.4349859543
 40
0.5110428723
 40
0.5865927648
 40
0.661058834
 40
0.7338939467
 40
0.804597459
 40
0.8727332284
 40
0.9379493321
 40
1.0
 40
1.0
 40
1.0
 40
1.0
 10
-17.5334158578
 20
15.7013816707
 30
0.0
 10
-17.5334212045
 20
15.7096104636
 30
0.0
 10
-17.53265177
 20
15.7264028728
 30
0.0
 10
-17.5293465375
 20
15.7518315265
 30
0.0
 10
-17.5239076908
 20
15.7777294755
 30
0.0
 10
-17.5164027744
 20
15.8037755495
 30
0.0
 10
-17.5069245451
 20
15.8296498835
 30
0.0
 10
-17.4955900243
 20
15.8550332466
 30
0.0
 10
-17.4825391094
 20
15.8796125279
 30
0.0
 10
-17.4679328115
 20
15.9030844071
 30
0.0
 10
-17.4519512022
 20
15.9251593177
 30
0.0
 10
-17.434790889
 20
15.9455651486
 30
0.0
 10
-17.4166627964
 20
15.9640503943
 30
0.0
 10
-17.3977875702
 20
15.9803879803
 30
0.0
 10
-17.3783982469
 20
15.9943748087
 30
0.0
 10
-17.3649341814
 20
16.0022206849
 30
0.0
 10
-17.3581818663
 20
16.0056690125
 30
0.0
 11
-17.5334158578
 21
15.7013816707
 31
0.0
 11
-17.5323311744
 21
15.7260442133
 31
0.0
 11
-17.5290592944
 21
15.7515022252
 31
0.0
 11
-17.5236409493
 21
15.7774387781
 31
0.0
 11
-17.5161435926
 21
15.8035309869
 31
0.0
 11
-17.5066605592
 21
15.8294540283
 31
0.0
 11
-17.4953099039
 21
15.8548851854
 31
0.0
 11
-17.4822329315
 21
15.8795078646
 31
0.0
 11
-17.4675924379
 21
15.9030155371
 31
0.0
 11
-17.4515706833
 21
15.9251155549
 31
0.0
 11
-17.4343671232
 21
15.9455327942
 31
0.0
 11
-17.4161959256
 21
15.9640130798
 31
0.0
 11
-17.3972833044
 21
15.9803263501
 31
0.0
 11
-17.3778647036
 21
15.9942695207
 31
0.0
 11
-17.3581818663
 21
16.0056690125
 31
0.0
  0
SPLINE
  5
2A4
100
AcDbEntity
  8
RACCORDO
100
AcDbSpline
 62
253
  6
CONTINUOUS
 70
0
 71
3
 72
24
 73
20
 74
18
 42
0.0000001
 43
0.0000001
 44
0.0000000001
 12
-0.6460894983
 22
-0.3048812545
 32
0.0
 13
-0.6389944042
 23
0.3194845389
 33
0.0
 40
0.0
 40
0.0
 40
0.0
 40
0.0
 40
0.0524100356
 40
0.1072497924
 40
0.1642744396
 40
0.2231948714
 40
0.2836919856
 40
0.345422123
 40
0.4080213494
 40
0.471113599
 40
0.5343152536
 40
0.5972420897
 40
0.6595128813
 40
0.7207563994
 40
0.7806160868
 40
0.8387583409
 40
0.8948769789
 40
0.9486992022
 40
1.0
 40
1.0
 40
1.0
 40
1.0
 10
13.8044764391
 20
0.3756465768
 30
0.0
 10
13.7931892479
 20
0.3703202977
 30
0.0
 10
13.7696993254
 20
0.360237676
 30
0.0
 10
13.732832866
 20
0.3470868193
 30
0.0
 10
13.6937817234
 20
0.3356492461
 30
0.0
 10
13.6528634594
 20
0.3260185236
 30
0.0
 10
13.6104086993
 20
0.3182724267
 30
0.0
 10
13.5667615425
 20
0.3124740011
 30
0.0
 10
13.5222758885
 20
0.3086704215
 30
0.0
 10
13.4773130008
 20
0.3068926991
 30
0.0
 10
13.4322378112
 20
0.3071553019
 30
0.0
 10
13.3874162891
 20
0.3094560796
 30
0.0
 10
13.3432121736
 20
0.3137762851
 30
0.0
 10
13.2999843477
 20
0.3200806918
 30
0.0
 10
13.2580831514
 20
0.3283180239
 30
0.0
 10
13.2178480103
 20
0.3384212977
 30
0.0
 10
13.1796036716
 20
0.3503090474
 30
0.0
 10
13.1436610183
 20
0.3638841851
 30
0.0
 10
13.1208481361
 20
0.37424989
 30
0.0
 10
13.1099211619
 20
0.3797131606
 30
0.0
 11
13.8044764391
 21
0.3756465768
 31
0.0
 11
13.7700932023
 21
0.3608235392
 31
0.0
 11
13.7332092893
 21
0.3476134707
 31
0.0
 11
13.6941240435
 21
0.3361236374
 31
0.0
 11
13.6531576472
 21
0.3264482536
 31
0.0
 11
13.6106441799
 21
0.3186661765
 31
0.0
 11
13.5669298787
 21
0.3128408003
 31
0.0
 11
13.5223717907
 21
0.309019724
 31
0.0
 11
13.4773333261
 21
0.3072341025
 31
0.0
 11
13.4321820924
 21
0.3074984896
 31
0.0
 11
13.3872859211
 21
0.3098107283
 31
0.0
 11
13.3430112576
 21
0.3141519598
 31
0.0
 11
13.2997191903
 21
0.320486782
 31
0.0
 11
13.2577632999
 21
0.3287634297
 31
0.0
 11
13.2174852534
 21
0.3389144842
 31
0.0
 11
13.1792135221
 21
0.3508571966
 31
0.0
 11
13.1432615584
 21
0.3644936737
 31
0.0
 11
13.1099211619
 21
0.3797131606
 31
0.0
  0
SPLINE
  5
2A5
100
AcDbEntity
  8
0
100
AcDbSpline
 62
253
  6
CONTINUOUS
 70
0
 71
3
 72
23
 73
19
 74
17
 42
0.0000001
 43
0.0000001
 44
0.0000000001
 12
-0.6423463248
 22
-0.3139621741
 32
0.0
 13
-0.6396924869
 23
0.3193345735
 33
0.0
 40
0.0
 40
0.0
 40
0.0
 40
0.0
 40
0.0560459375
 40
0.1147633706
 40
0.1758533728
 40
0.2389680004
 40
0.3037206074
 40
0.3696950256
 40
0.4364539816
 40
0.5035470265
 40
0.5705181849
 40
0.6369134918
 40
0.7022885703
 40
0.7662164078
 40
0.8282955157
 40
0.8881587155
 40
0.9454828706
 40
1.0
 40
1.0
 40
1.0
 40
1.0
 10
13.8703446633
 20
-7.4701740967
 30
0.0
 10
13.8583443627
 20
-7.4760395315
 30
0.0
 10
13.8333104025
 20
-7.4871228732
 30
0.0
 10
13.7939175893
 20
-7.5015056774
 30
0.0
 10
13.7521043353
 20
-7.5139309369
 30
0.0
 10
13.7082543452
 20
-7.5242841581
 30
0.0
 10
13.6627669928
 20
-7.532471071
 30
0.0
 10
13.6160583056
 20
-7.5384165189
 30
0.0
 10
13.5685556231
 20
-7.5420659477
 30
0.0
 10
13.5206938999
 20
-7.5433858249
 30
0.0
 10
13.4729114676
 20
-7.5423640441
 30
0.0
 10
13.4256458929
 20
-7.5390100287
 30
0.0
 10
13.3793298449
 20
-7.5333546404
 30
0.0
 10
13.3343868586
 20
-7.5254497724
 30
0.0
 10
13.291227705
 20
-7.5153679523
 30
0.0
 10
13.2502449406
 20
-7.5032007428
 30
0.0
 10
13.2118144437
 20
-7.4890600946
 30
0.0
 10
13.1874806478
 20
-7.4781107648
 30
0.0
 10
13.1758559151
 20
-7.4723076967
 30
0.0
 11
13.8703446633
 21
-7.4701740967
 31
0.0
 11
13.8337323761
 21
-7.4864601426
 31
0.0
 11
13.7943173921
 21
-7.5009127143
 31
0.0
 11
13.7524626319
 21
-7.5133987373
 31
0.0
 11
13.7085534807
 21
-7.5238032441
 31
0.0
 11
13.6629942398
 21
-7.5320304335
 31
0.0
 11
13.6162044041
 21
-7.5380045521
 31
0.0
 11
13.5686147994
 21
-7.5416705921
 31
0.0
 11
13.5206636154
 21
-7.542994798
 31
0.0
 11
13.4727923712
 21
-7.5419649767
 31
0.0
 11
13.42544185
 21
-7.5385906105
 31
0.0
 11
13.37904804
 21
-7.5329027696
 31
0.0
 11
13.3340381206
 21
-7.5249538257
 31
0.0
 11
13.2908265287
 21
-7.5148169702
 31
0.0
 11
13.2498111427
 21
-7.5025855399
 31
0.0
 11
13.2113696191
 21
-7.488372158
 31
0.0
 11
13.1758559151
 21
-7.4723076967
 31
0.0
  0
SPLINE
  5
2A6
100
AcDbEntity
  8
0
100
AcDbSpline
 62
253
  6
CONTINUOUS
 70
0
 71
3
 72
14
 73
10
 74
8
 42
0.0000001
 43
0.0000001
 44
0.0000000001
 12
0.1590485282
 22
-9.8322410214
 32
0.0
 13
1.3196249534
 23
-9.744580541
 33
0.0
 40
0.0
 40
0.0
 40
0.0
 40
0.0
 40
0.1462535095
 40
0.2913919944
 40
0.4354038616
 40
0.5782788199
 40
0.7200079478
 40
0.860583705
 40
1.0
 40
1.0
 40
1.0
 40
1.0
 10
13.1758559149
 20
-7.4723076968
 30
0.0
 10
13.1836097167
 20
-7.9516409487
 30
0.0
 10
13.206672909
 20
-8.9065484083
 30
0.0
 10
13.2643152745
 20
-10.3326299709
 30
0.0
 10
13.344854333
 20
-11.7465150147
 30
0.0
 10
13.4482622245
 20
-13.1477064024
 30
0.0
 10
13.5745035225
 20
-14.5357194136
 30
0.0
 10
13.7235338541
 20
-15.910064947
 30
0.0
 10
13.8385251956
 20
-16.8206599998
 30
0.0
 10
13.8998509361
 20
-17.2735111047
 30
0.0
 11
13.1758559149
 21
-7.4723076968
 31
0.0
 11
13.2106693227
 21
-8.910074165
 31
0.0
 11
13.2684008963
 21
-10.3361293177
 31
0.0
 11
13.3490305826
 21
-11.7499767195
 31
0.0
 11
13.4525303618
 21
-13.1511240741
 31
0.0
 11
13.5788642735
 21
-14.5390836475
 31
0.0
 11
13.7279884068
 21
-15.9133721418
 31
0.0
 11
13.8998509361
 21
-17.2735111047
 31
0.0
  0
SPLINE
  5
2A7
100
AcDbEntity
  8
0
100
AcDbSpline
 62
253
  6
CONTINUOUS
 70
0
 71
3
 72
14
 73
10
 74
8
 42
0.0000001
 43
0.0000001
 44
0.0000000001
 12
0.1581958
 22
-9.7776961891
 32
0.0
 13
1.3125293863
 23
-9.6904920044
 33
0.0
 40
0.0
 40
0.0
 40
0.0
 40
0.0
 40
0.1462525689
 40
0.2913905064
 40
0.4354020953
 40
0.5782770586
 40
0.7200064886
 40
0.860582859
 40
1.0
 40
1.0
 40
1.0
 40
1.0
 10
13.8703446633
 20
-7.4701740967
 30
0.0
 10
13.8780568441
 20
-7.9468451586
 30
0.0
 10
13.9009962158
 20
-8.8964503352
 30
0.0
 10
13.9583291048
 20
-10.314614554
 30
0.0
 10
14.0384357756
 20
-11.7206525938
 30
0.0
 10
14.1412885097
 20
-13.1140696247
 30
0.0
 10
14.2668520705
 20
-14.4943836153
 30
0.0
 10
14.4150822815
 20
-15.8611078773
 30
0.0
 10
14.5294561153
 20
-16.7666536396
 30
0.0
 10
14.5904524801
 20
-17.2169938696
 30
0.0
 11
13.8703446633
 21
-7.4701740967
 31
0.0
 11
13.9049711213
 21
-8.8999552055
 31
0.0
 11
13.962392728
 21
-10.3180935426
 31
0.0
 11
14.042589515
 21
-11.7240940802
 31
0.0
 11
14.1455336137
 21
-13.1174672536
 31
0.0
 11
14.2711892564
 21
-14.4977280341
 31
0.0
 11
14.4195127678
 21
-15.8643958036
 31
0.0
 11
14.5904524801
 21
-17.2169938696
 31
0.0
  0
SPLINE
  5
2A8
100
AcDbEntity
  8
0
100
AcDbSpline
 62
253
  6
CONTINUOUS
 70
0
 71
3
 72
23
 73
19
 74
17
 42
0.0000001
 43
0.0000001
 44
0.0000000001
 12
-0.6046875015
 22
-0.3899603372
 32
0.0
 13
-0.6449837558
 23
0.3189231783
 33
0.0
 40
0.0
 40
0.0
 40
0.0
 40
0.0
 40
0.0585677629
 40
0.1193033505
 40
0.1819239888
 40
0.2461052335
 40
0.3114902464
 40
0.377698354
 40
0.4443331115
 40
0.5109900572
 40
0.5772643152
 40
0.6427581907
 40
0.7070889007
 40
0.7698965953
 40
0.8308528525
 40
0.8896698636
 40
0.9461105666
 40
1.0
 40
1.0
 40
1.0
 40
1.0
 10
14.5904524801
 20
-17.2169938696
 30
0.0
 10
14.5786474153
 20
-17.2246069044
 30
0.0
 10
14.5539967238
 20
-17.2391950184
 30
0.0
 10
14.5149642003
 20
-17.2587649342
 30
0.0
 10
14.4735010786
 20
-17.2762777166
 30
0.0
 10
14.4299886838
 20
-17.2915722443
 30
0.0
 10
14.3848238126
 20
-17.3045095274
 30
0.0
 10
14.3384197777
 20
-17.3149711972
 30
0.0
 10
14.2912011997
 20
-17.3228615823
 30
0.0
 10
14.2436003661
 20
-17.3281084449
 30
0.0
 10
14.1960530507
 20
-17.3306637494
 30
0.0
 10
14.1489944063
 20
-17.3305040771
 30
0.0
 10
14.1028548784
 20
-17.3276308139
 30
0.0
 10
14.0580559759
 20
-17.3220699498
 30
0.0
 10
14.0150068208
 20
-17.3138719143
 30
0.0
 10
13.9740983856
 20
-17.303109859
 30
0.0
 10
13.935706702
 20
-17.2898818891
 30
0.0
 10
13.9114368888
 20
-17.2792399567
 30
0.0
 10
13.8998509524
 20
-17.2735110936
 30
0.0
 11
14.5904524801
 21
-17.2169938696
 31
0.0
 11
14.554216583
 21
-17.2385071316
 31
0.0
 11
14.5151731217
 21
-17.2581378488
 31
0.0
 11
14.4736817754
 21
-17.2757051776
 31
0.0
 11
14.430124774
 21
-17.2910472827
 31
0.0
 11
14.3849033767
 21
-17.3040228286
 31
0.0
 11
14.3384341756
 21
-17.3145122808
 31
0.0
 11
14.2911452581
 21
-17.3224190075
 31
0.0
 11
14.2434722627
 21
-17.3276701699
 31
0.0
 11
14.1958543664
 21
-17.3302173926
 31
0.0
 11
14.1487302386
 21
-17.3300372101
 31
0.0
 11
14.1025339998
 21
-17.3271312822
 31
0.0
 11
14.0576912227
 21
-17.321526379
 31
0.0
 11
14.0146150115
 21
-17.3132741346
 31
0.0
 11
13.9737021962
 21
-17.3024505709
 31
0.0
 11
13.935329677
 21
-17.2891553977
 31
0.0
 11
13.8998509524
 21
-17.2735110936
 31
0.0
  0
SPLINE
  5
2A9
100
AcDbEntity
  8
0
100
AcDbSpline
 62
253
  6
CONTINUOUS
 70
0
 71
3
 72
15
 73
11
 74
9
 42
0.0000001
 43
0.0000001
 44
0.0000000001
 12
0.0598269799
 22
-0.4487653098
 32
0.0
 13
0.3709772629
 23
-0.2600387225
 33
0.0
 40
0.0
 40
0.0
 40
0.0
 40
0.0
 40
0.1416127936
 40
0.2778388068
 40
0.4087944368
 40
0.5347487326
 40
0.6561453127
 40
0.773601873
 40
0.8879069491
 40
1.0
 40
1.0
 40
1.0
 40
1.0
 10
13.8998509361
 20
-17.2735111047
 30
0.0
 10
13.9026750247
 20
-17.2946947411
 30
0.0
 10
13.9097694415
 20
-17.3360711409
 30
0.0
 10
13.925159938
 20
-17.395886661
 30
0.0
 10
13.9450061084
 20
-17.4518878783
 30
0.0
 10
13.9691910754
 20
-17.5037076319
 30
0.0
 10
13.9975719625
 20
-17.5510062655
 30
0.0
 10
14.0299781382
 20
-17.593466089
 30
0.0
 10
14.0662089154
 20
-17.6307943158
 30
0.0
 10
14.0929351421
 20
-17.6522253655
 30
0.0
 10
14.1067964665
 20
-17.6619415435
 30
0.0
 11
13.8998509361
 21
-17.2735111047
 31
0.0
 11
13.910781383
 21
-17.3366856461
 31
0.0
 11
13.9262497105
 21
-17.3963887375
 31
0.0
 11
13.9461562621
 21
-17.4522352204
 31
0.0
 11
13.9703718658
 21
-17.5038621624
 31
0.0
 11
13.9987400668
 21
-17.5509355977
 31
0.0
 11
14.0310772125
 21
-17.593150265
 31
0.0
 11
14.0671739452
 21
-17.6302324258
 31
0.0
 11
14.1067964665
 21
-17.6619415435
 31
0.0
  0
SPLINE
  5
2AA
100
AcDbEntity
  8
0
100
AcDbSpline
 62
253
  6
CONTINUOUS
 70
0
 71
3
 72
24
 73
20
 74
18
 42
0.0000001
 43
0.0000001
 44
0.0000000001
 12
0.0639027533
 22
-0.4717728467
 32
0.0
 13
0.4413838546
 23
0.1784193758
 33
0.0
 40
0.0
 40
0.0
 40
0.0
 40
0.0
 40
0.0674522603
 40
0.1324328803
 40
0.1949921921
 40
0.2552669519
 40
0.3134744861
 40
0.3699113309
 40
0.4249505657
 40
0.4790314766
 40
0.5326426374
 40
0.5862971832
 40
0.6405065485
 40
0.6957524301
 40
0.7524643122
 40
0.8110030704
 40
0.8716529464
 40
0.9346161818
 40
1.0
 40
1.0
 40
1.0
 40
1.0
 10
14.5904524801
 20
-17.2169938696
 30
0.0
 10
14.5918892751
 20
-17.2276012512
 30
0.0
 10
14.5955000822
 20
-17.248331653
 30
0.0
 10
14.6033292148
 20
-17.2783069452
 30
0.0
 10
14.6134256257
 20
-17.3063958874
 30
0.0
 10
14.6257291514
 20
-17.332411485
 30
0.0
 10
14.6401666021
 20
-17.3561829012
 30
0.0
 10
14.6566505238
 20
-17.3775502726
 30
0.0
 10
14.6750780277
 20
-17.3963664232
 30
0.0
 10
14.6953298472
 20
-17.4124987649
 30
0.0
 10
14.7172700237
 20
-17.425832296
 30
0.0
 10
14.7407473218
 20
-17.4362730431
 30
0.0
 10
14.7655981613
 20
-17.4437505709
 30
0.0
 10
14.7916505408
 20
-17.4482188229
 30
0.0
 10
14.8187274005
 20
-17.4496550657
 30
0.0
 10
14.8466487264
 20
-17.448058124
 30
0.0
 10
14.8752330971
 20
-17.4434459239
 30
0.0
 10
14.9042916424
 20
-17.4358568546
 30
0.0
 10
14.9234937272
 20
-17.428978952
 30
0.0
 10
14.9331135144
 20
-17.425090372
 30
0.0
 11
14.5904524801
 21
-17.2169938696
 31
0.0
 11
14.5960101716
 21
-17.2486220277
 31
0.0
 11
14.6038768982
 21
-17.2785411413
 31
0.0
 11
14.6140009443
 21
-17.3065509409
 31
0.0
 11
14.6263166536
 21
-17.3324693685
 31
0.0
 11
14.6407444412
 21
-17.3561287525
 31
0.0
 11
14.6571909075
 21
-17.3773756521
 31
0.0
 11
14.675549571
 21
-17.39607228
 31
0.0
 11
14.6957015034
 21
-17.4120973342
 31
0.0
 11
14.7175162914
 21
-17.4253469285
 31
0.0
 11
14.7408525141
 21
-17.4357350093
 31
0.0
 11
14.7655591156
 21
-17.4431941919
 31
0.0
 11
14.7914759701
 21
-17.4476759898
 31
0.0
 11
14.8184350893
 21
-17.4491512421
 31
0.0
 11
14.8462616512
 21
-17.4476103182
 31
0.0
 11
14.8747756022
 21
-17.4430630832
 31
0.0
 11
14.9037915746
 21
-17.4355391083
 31
0.0
 11
14.9331135144
 21
-17.425090372
 31
0.0
  0
SPLINE
  5
2AB
100
AcDbEntity
  8
0
100
AcDbSpline
 62
253
  6
CONTINUOUS
 70
0
 71
3
 72
17
 73
13
 74
11
 42
0.0000001
 43
0.0000001
 44
0.0000000001
 12
-0.0146233495
 22
-0.3374304751
 32
0.0
 13
-0.3134643983
 23
-0.1267186416
 33
0.0
 40
0.0
 40
0.0
 40
0.0
 40
0.0
 40
0.1257612106
 40
0.2463557878
 40
0.361548946
 40
0.4712938634
 40
0.5757615065
 40
0.6753678851
 40
0.7707922496
 40
0.8629762818
 40
0.9530928601
 40
1.0
 40
1.0
 40
1.0
 40
1.0
 10
14.9331135144
 20
-17.425090372
 30
0.0
 10
14.9325004977
 20
-17.4392355937
 30
0.0
 10
14.930249561
 20
-17.4669144018
 30
0.0
 10
14.9235695119
 20
-17.5071167589
 30
0.0
 10
14.9137102562
 20
-17.5448091488
 30
0.0
 10
14.9007566881
 20
-17.5796315441
 30
0.0
 10
14.884819259
 20
-17.6112523772
 30
0.0
 10
14.8660337205
 20
-17.6393638387
 30
0.0
 10
14.8445627698
 20
-17.6636827085
 30
0.0
 10
14.8206006627
 20
-17.6839512898
 30
0.0
 10
14.7984788054
 20
-17.6974432395
 30
0.0
 10
14.7844025622
 20
-17.7038276415
 30
0.0
 10
14.7795013228
 20
-17.7058089778
 30
0.0
 11
14.9331135144
 21
-17.425090372
 31
0.0
 11
14.9296027793
 21
-17.4674205328
 31
0.0
 11
14.922849394
 21
-17.507587233
 31
0.0
 11
14.9129182465
 21
-17.5452045437
 31
0.0
 11
14.8999047568
 21
-17.579911031
 31
0.0
 11
14.883933961
 21
-17.6113732287
 31
0.0
 11
14.8651593094
 21
-17.6392888423
 31
0.0
 11
14.8437611922
 21
-17.6633896535
 31
0.0
 11
14.8199452065
 21
-17.6834440973
 31
0.0
 11
14.7939401804
 21
-17.699259487
 31
0.0
 11
14.7795013228
 21
-17.7058089778
 31
0.0
  0
SPLINE
  5
2AC
100
AcDbEntity
  8
0
100
AcDbSpline
 62
253
  6
CONTINUOUS
 70
0
 71
3
 72
14
 73
10
 74
8
 42
0.0000001
 43
0.0000001
 44
0.0000000001
 12
-1.2344531456
 22
9.7271211268
 32
0.0
 13
-0.1480272948
 23
9.8040220269
 33
0.0
 40
0.0
 40
0.0
 40
0.0
 40
0.0
 40
0.1390931295
 40
0.2794615902
 40
0.4210944051
 40
0.5639791418
 40
0.7081019866
 40
0.8534477621
 40
1.0
 40
1.0
 40
1.0
 40
1.0
 10
-16.7965295681
 20
-1.9253208526
 30
0.0
 10
-16.8537642185
 20
-1.4743289465
 30
0.0
 10
-16.9610748318
 20
-0.5672171056
 30
0.0
 10
-17.1000897989
 20
0.8020996059
 30
0.0
 10
-17.2178464241
 20
2.185848159
 30
0.0
 10
-17.3143033577
 20
3.5835416788
 30
0.0
 10
-17.3894274887
 20
4.9946963633
 30
0.0
 10
-17.443192803
 20
6.4188167247
 30
0.0
 10
-17.4646969316
 20
7.3726505587
 30
0.0
 10
-17.4719281754
 20
7.8515843483
 30
0.0
 11
-16.7965295681
 21
-1.9253208526
 31
0.0
 11
-16.956856241
 21
-0.5709498179
 31
0.0
 11
-17.0959707777
 21
0.7983338781
 31
0.0
 11
-17.2138248312
 21
2.1820535224
 31
0.0
 11
-17.3103774382
 21
3.5797272909
 31
0.0
 11
-17.3855950519
 21
4.9908686564
 31
0.0
 11
-17.4394515332
 21
6.414986263
 31
0.0
 11
-17.4719281754
 21
7.8515843483
 31
0.0
  0
SPLINE
  5
2AD
100
AcDbEntity
  8
RACCORDO
100
AcDbSpline
 62
253
  6
CONTINUOUS
 70
0
 71
3
 72
16
 73
12
 74
10
 42
0.0000001
 43
0.0000001
 44
0.0000000001
 12
-0.2161676901
 22
0.108088129
 32
0.0
 13
-0.0002081162
 23
0.2420109618
 33
0.0
 40
0.0
 40
0.0
 40
0.0
 40
0.0
 40
0.1436783147
 40
0.279066529
 40
0.4060825254
 40
0.5249174698
 40
0.6361059662
 40
0.7405757101
 40
0.8396792241
 40
0.9351856859
 40
1.0
 40
1.0
 40
1.0
 40
1.0
 10
-17.5334139601
 20
15.7013807216
 30
0.0
 10
-17.5437668299
 20
15.7065573616
 30
0.0
 10
-17.563531725
 20
15.7173250446
 30
0.0
 10
-17.5909309422
 20
15.7352715413
 30
0.0
 10
-17.6150131689
 20
15.7544123896
 30
0.0
 10
-17.6355816829
 20
15.7746045559
 30
0.0
 10
-17.6524644666
 20
15.795701723
 30
0.0
 10
-17.6655078514
 20
15.8175515868
 30
0.0
 10
-17.6745746507
 20
15.8399888651
 30
0.0
 10
-17.6790463308
 20
15.8605141451
 30
0.0
 10
-17.6798573528
 20
15.8734473554
 30
0.0
 10
-17.6798618491
 20
15.8786759469
 30
0.0
 11
-17.5334139601
 21
15.7013807216
 31
0.0
 11
-17.5638708402
 21
15.718059873
 31
0.0
 11
-17.591195199
 21
15.7360615572
 31
0.0
 11
-17.6151651124
 21
15.7552396672
 31
0.0
 11
-17.6355840984
 21
15.7754371289
 31
0.0
 11
-17.6522857055
 21
15.7964892299
 31
0.0
 11
-17.6651338847
 21
15.818224531
 31
0.0
 11
-17.6740236454
 21
15.8404655115
 31
0.0
 11
-17.6788824887
 21
15.8630307801
 31
0.0
 11
-17.6798618491
 21
15.8786759469
 31
0.0
  0
SPLINE
  5
2AE
100
AcDbEntity
  8
ASSI
100
AcDbSpline
 62
7
  6
CONTINUOUS
 70
0
 71
3
 72
15
 73
11
 74
9
 42
0.0000001
 43
0.0000001
 44
0.0000000001
 12
0.1696235192
 22
0.1209906019
 32
0.0
 13
0.18616337
 23
-0.093081685
 33
0.0
 40
0.0
 40
0.0
 40
0.0
 40
0.0
 40
0.1081411329
 40
0.2229400458
 40
0.3397312535
 40
0.459601248
 40
0.584464367
 40
0.7161066524
 40
0.8547623222
 40
1.0
 40
1.0
 40
1.0
 40
1.0
 10
-5.337003589
 20
6.9120664939
 30
0.0
 10
-5.3308891625
 20
6.9164278475
 30
0.0
 10
-5.3176056982
 20
6.9244722413
 30
0.0
 10
-5.2956754234
 20
6.9333889894
 30
0.0
 10
-5.2718143289
 20
6.9388763331
 30
0.0
 10
-5.2467113698
 20
6.9407373974
 30
0.0
 10
-5.2205784753
 20
6.9389898744
 30
0.0
 10
-5.1936171988
 20
6.933648385
 30
0.0
 10
-5.1661284254
 20
6.9247720728
 30
0.0
 10
-5.1480885987
 20
6.9167716244
 30
0.0
 10
-5.1390759535
 20
6.9122653018
 30
0.0
 11
-5.337003589
 21
6.9120664939
 31
0.0
 11
-5.3177417518
 21
6.9237160128
 31
0.0
 11
-5.2956139933
 21
6.9327315932
 31
0.0
 11
-5.2719342984
 21
6.9382250946
 31
0.0
 11
-5.2470582727
 21
6.940136851
 31
0.0
 11
-5.2211223839
 21
6.9384819617
 31
0.0
 11
-5.1942288079
 21
6.9332402892
 31
0.0
 11
-5.1667404742
 21
6.9244508154
 31
0.0
 11
-5.1390759535
 21
6.9122653018
 31
0.0
  0
SPLINE
  5
2AF
100
AcDbEntity
  8
ASSI
100
AcDbSpline
 62
7
  6
CONTINUOUS
 70
0
 71
3
 72
17
 73
13
 74
11
 42
0.0000001
 43
0.0000001
 44
0.0000000001
 12
0.002322982
 22
-0.2723078731
 32
0.0
 13
-0.2595482812
 23
-0.0833478641
 33
0.0
 40
0.0
 40
0.0
 40
0.0
 40
0.0
 40
0.1215910421
 40
0.2382115935
 40
0.3490473415
 40
0.4537496329
 40
0.5532322124
 40
0.6484805119
 40
0.7398428647
 40
0.8280303749
 40
0.9148420727
 40
1.0
 40
1.0
 40
1.0
 40
1.0
 10
1.0246093545
 20
2.2812283005
 30
0.0
 10
1.0247035058
 20
2.2701915679
 30
0.0
 10
1.0240479269
 20
2.24854951
 30
0.0
 10
1.0203428281
 20
2.2170404576
 30
0.0
 10
1.0139654135
 20
2.1875192994
 30
0.0
 10
1.0049932674
 20
2.1603064151
 30
0.0
 10
0.9934986084
 20
2.1356006508
 30
0.0
 10
0.9795459719
 20
2.1136024285
 30
0.0
 10
0.9632682363
 20
2.0945808401
 30
0.0
 10
0.9448542251
 20
2.078759066
 30
0.0
 10
0.9246285182
 20
2.066369722
 30
0.0
 10
0.9101195636
 20
2.0604328436
 30
0.0
 10
0.9027520324
 20
2.0580669332
 30
0.0
 11
1.0246093545
 21
2.2812283005
 31
0.0
 11
1.0235462501
 21
2.2481339686
 31
0.0
 11
1.0197680967
 21
2.2166016585
 31
0.0
 11
1.0133186691
 21
2.187116223
 31
0.0
 11
1.004312707
 21
2.1600636141
 31
0.0
 11
0.9928084458
 21
2.1355367411
 31
0.0
 11
0.9788476571
 21
2.1136765915
 31
0.0
 11
0.9626201009
 21
2.094817626
 31
0.0
 11
0.9443763674
 21
2.0792007213
 31
0.0
 11
0.9242096139
 21
2.0668650373
 31
0.0
 11
0.9027520324
 21
2.0580669332
 31
0.0
  0
SPLINE
  5
2B0
100
AcDbEntity
  8
ASSI
100
AcDbSpline
 62
7
  6
CONTINUOUS
 70
0
 71
3
 72
23
 73
19
 74
17
 42
0.0000001
 43
0.0000001
 44
0.0000000001
 12
0.5249182302
 22
-0.2624591151
 32
0.0
 13
0.0036517027
 23
-0.5868650616
 33
0.0
 40
0.0
 40
0.0
 40
0.0
 40
0.0
 40
0.0540534394
 40
0.1108095711
 40
0.1698178519
 40
0.2305904547
 40
0.293167576
 40
0.3575314641
 40
0.4230178089
 40
0.4889353731
 40
0.5552387648
 40
0.6218827833
 40
0.6881587177
 40
0.7533442148
 40
0.8173672924
 40
0.8802128772
 40
0.9412902139
 40
1.0
 40
1.0
 40
1.0
 40
1.0
 10
0.7317078958
 20
3.9768733772
 30
0.0
 10
0.7411657744
 20
3.9721444379
 30
0.0
 10
0.760092362
 20
3.9615036536
 30
0.0
 10
0.7875612255
 20
3.9427564842
 30
0.0
 10
0.814470902
 20
3.9210554564
 30
0.0
 10
0.8405345941
 20
3.8966537081
 30
0.0
 10
0.8655638495
 20
3.8697456583
 30
0.0
 10
0.8893542014
 20
3.8405390344
 30
0.0
 10
0.9116333201
 20
3.8093588742
 30
0.0
 10
0.9321671083
 20
3.7765555681
 30
0.0
 10
0.950809285
 20
3.7423837921
 30
0.0
 10
0.9674104161
 20
3.7070973909
 30
0.0
 10
0.9817781147
 20
3.6710790314
 30
0.0
 10
0.9937578135
 20
3.6347364303
 30
0.0
 10
1.0032631011
 20
3.5983616637
 30
0.0
 10
1.0102116061
 20
3.5622282626
 30
0.0
 10
1.0145132674
 20
3.5267317003
 30
0.0
 10
1.0156087786
 20
3.5032965367
 30
0.0
 10
1.0156802421
 20
3.4918116293
 30
0.0
 11
0.7317078958
 21
3.9768733772
 31
0.0
 11
0.7593921622
 21
3.9613843359
 31
0.0
 11
0.7869374779
 21
3.9426564394
 31
0.0
 11
0.8139256637
 21
3.9209558836
 31
0.0
 11
0.8399895849
 21
3.8966097111
 31
0.0
 11
0.865026239
 21
3.8697416202
 31
0.0
 11
0.8889018435
 21
3.8404704054
 31
0.0
 11
0.9112597075
 21
3.8092106124
 31
0.0
 11
0.931794577
 21
3.7764251846
 31
0.0
 11
0.9504330083
 21
3.7422675407
 31
0.0
 11
0.9670800891
 21
3.7068753404
 31
0.0
 11
0.9814815246
 21
3.6707439051
 31
0.0
 11
0.9934413451
 21
3.634405615
 31
0.0
 11
1.0029168098
 21
3.5980463852
 31
0.0
 11
1.00984936
 21
3.5618211821
 31
0.0
 11
1.01412033
 21
3.5262316892
 31
0.0
 11
1.0156802421
 21
3.4918116293
 31
0.0
  0
SPLINE
  5
2B1
100
AcDbEntity
  8
ASSI
100
AcDbSpline
 62
253
  6
CONTINUOUS
 70
0
 71
3
 72
24
 73
20
 74
18
 42
0.0000001
 43
0.0000001
 44
0.0000000001
 12
-0.2109636275
 22
0.1054845185
 32
0.0
 13
0.206907066
 23
0.11323472
 33
0.0
 40
0.0
 40
0.0
 40
0.0
 40
0.0
 40
0.073604999
 40
0.1429946744
 40
0.2081158634
 40
0.2690715761
 40
0.326139588
 40
0.3797983211
 40
0.4307418959
 40
0.4798748912
 40
0.5282642816
 40
0.5770507795
 40
0.6273350143
 40
0.6800785173
 40
0.7360420195
 40
0.7957693816
 40
0.8595969972
 40
0.9276778407
 40
1.0
 40
1.0
 40
1.0
 40
1.0
 10
-17.3581818663
 20
16.0056690125
 30
0.0
 10
-17.3633578589
 20
16.0082570751
 30
0.0
 10
-17.3732408856
 20
16.0136432182
 30
0.0
 10
-17.386940311
 20
16.0226264368
 30
0.0
 10
-17.3989821573
 20
16.0322144623
 30
0.0
 10
-17.4092669186
 20
16.0423350903
 30
0.0
 10
-17.417708511
 20
16.0529149044
 30
0.0
 10
-17.4242299505
 20
16.063877338
 30
0.0
 10
-17.4287626603
 20
16.0751391573
 30
0.0
 10
-17.4312492057
 20
16.0866047201
 30
0.0
 10
-17.4316525062
 20
16.0981632486
 30
0.0
 10
-17.4299664606
 20
16.1096950567
 30
0.0
 10
-17.4262179301
 20
16.1210850905
 30
0.0
 10
-17.4204578938
 20
16.1322322887
 30
0.0
 10
-17.4127508352
 20
16.1430493162
 30
0.0
 10
-17.4031700522
 20
16.1534570089
 30
0.0
 10
-17.3917974607
 20
16.1633800124
 30
0.0
 10
-17.3787279946
 20
16.1727439826
 30
0.0
 10
-17.3692326735
 20
16.1784002508
 30
0.0
 10
-17.3642446849
 20
16.1811300439
 30
0.0
 11
-17.3581818663
 21
16.0056690125
 31
0.0
 11
-17.3734076261
 21
16.0140102918
 31
0.0
 11
-17.3870702191
 21
16.0230214314
 31
0.0
 11
-17.3990554815
 21
16.0326276094
 31
0.0
 11
-17.4092652869
 21
16.0427502788
 31
0.0
 11
-17.4176163753
 21
16.0533068574
 31
0.0
 11
-17.4240407086
 21
16.064211386
 31
0.0
 11
-17.4284857755
 21
16.075374802
 31
0.0
 11
-17.4309153105
 21
16.0867060593
 31
0.0
 11
-17.431309482
 21
16.098112649
 31
0.0
 11
-17.4296650775
 21
16.1095016092
 31
0.0
 11
-17.4259955106
 21
16.1207799795
 31
0.0
 11
-17.4203307124
 21
16.1318557737
 31
0.0
 11
-17.4127169828
 21
16.1426385251
 31
0.0
 11
-17.4032163525
 21
16.153040426
 31
0.0
 11
-17.3919062888
 21
16.1629766145
 31
0.0
 11
-17.3788794004
 21
16.1723658378
 31
0.0
 11
-17.3642446849
 21
16.1811300439
 31
0.0
  0
SPLINE
  5
2B2
100
AcDbEntity
  8
ASSI
100
AcDbSpline
 62
253
  6
CONTINUOUS
 70
0
 71
3
 72
14
 73
10
 74
8
 42
0.0000001
 43
0.0000001
 44
0.0000000001
 12
0.1079759423
 22
0.059107575
 32
0.0
 13
0.1114318115
 23
-0.0519160149
 33
0.0
 40
0.0
 40
0.0
 40
0.0
 40
0.0
 40
0.0441160084
 40
0.1884254707
 40
0.3362174592
 40
0.4897860629
 40
0.6509086686
 40
0.8207758232
 40
1.0
 40
1.0
 40
1.0
 40
1.0
 10
-17.4827197051
 20
16.1847100344
 30
0.0
 10
-17.4811318826
 20
16.1855792312
 30
0.0
 10
-17.4742485321
 20
16.1891058408
 30
0.0
 10
-17.4612667447
 20
16.1939314693
 30
0.0
 10
-17.4432208047
 20
16.1972535715
 30
0.0
 10
-17.4241963935
 20
16.1976211145
 30
0.0
 10
-17.4044404841
 20
16.1950512451
 30
0.0
 10
-17.3842014832
 20
16.189596395
 30
0.0
 10
-17.3709017764
 20
16.184231579
 30
0.0
 10
-17.3642446849
 20
16.1811300439
 30
0.0
 11
-17.4827197051
 21
16.1847100344
 31
0.0
 11
-17.4778872002
 21
16.1871855296
 31
0.0
 11
-17.4612671458
 21
16.1933896588
 31
0.0
 11
-17.443408058
 21
16.1967278373
 31
0.0
 11
-17.4245344384
 21
16.1971581018
 31
0.0
 11
-17.4048835415
 21
16.1946750434
 31
0.0
 11
-17.3847023932
 21
16.1893098762
 31
0.0
 11
-17.3642446849
 21
16.1811300439
 31
0.0
  0
LINE
  5
2B3
100
AcDbEntity
  8
ASSI
100
AcDbLine
 62
7
  6
CONTINUOUS
 10
-5.4100623542
 20
5.4985641549
 11
-5.4115608673
 21
5.6778219198
  0
LINE
  5
2B4
100
AcDbEntity
  8
ASSI
100
AcDbLine
 62
7
  6
CONTINUOUS
 10
-5.4115608673
 20
5.6778219198
 11
-5.4119259445
 21
5.7226407682
  0
LINE
  5
2B5
100
AcDbEntity
  8
ASSI
100
AcDbLine
 62
7
  6
CONTINUOUS
 10
-5.4119259445
 20
5.7226407682
 11
-5.4133480502
 21
5.9019337998
  0
LINE
  5
2B6
100
AcDbEntity
  8
ASSI
100
AcDbLine
 62
7
  6
CONTINUOUS
 10
-5.4133480502
 20
5.9019337998
 11
-5.4147090846
 21
6.0812619423
  0
LINE
  5
2B7
100
AcDbEntity
  8
ASSI
100
AcDbLine
 62
7
  6
CONTINUOUS
 10
-5.4147090846
 20
6.0812619423
 11
-5.4150397924
 21
6.1260983676
  0
LINE
  5
2B8
100
AcDbEntity
  8
ASSI
100
AcDbLine
 62
7
  6
CONTINUOUS
 10
-5.4150397924
 20
6.1260983676
 11
-5.4163244218
 21
6.3054616938
  0
LINE
  5
2B9
100
AcDbEntity
  8
ASSI
100
AcDbLine
 62
7
  6
CONTINUOUS
 10
-5.4163244218
 20
6.3054616938
 11
-5.4175479765
 21
6.4848600506
  0
LINE
  5
2BA
100
AcDbEntity
  8
ASSI
100
AcDbLine
 62
7
  6
CONTINUOUS
 10
-5.4175479765
 20
6.4848600506
 11
-5.4178443146
 21
6.529714026
  0
LINE
  5
2BB
100
AcDbEntity
  8
ASSI
100
AcDbLine
 62
7
  6
CONTINUOUS
 10
-5.4178443146
 20
6.529714026
 11
-5.4189914666
 21
6.7091474837
  0
SPLINE
  5
2BC
100
AcDbEntity
  8
ASSI
100
AcDbSpline
 62
7
  6
CONTINUOUS
 70
0
 71
3
 72
14
 73
10
 74
8
 42
0.0000001
 43
0.0000001
 44
0.0000000001
 12
-0.1348742279
 22
-0.0433117058
 32
0.0
 13
-0.1305045418
 23
0.0549059436
 33
0.0
 40
0.0
 40
0.0
 40
0.0
 40
0.0
 40
0.0041519654
 40
0.1751397287
 40
0.3507158298
 40
0.5337212842
 40
0.7267852074
 40
0.9302596416
 40
1.0
 40
1.0
 40
1.0
 40
1.0
 10
0.9027520324
 20
2.0580669332
 30
0.0
 10
0.902565368
 20
2.0580069903
 30
0.0
 10
0.8946864725
 20
2.0554939988
 30
0.0
 10
0.8784964987
 20
2.0517758396
 30
0.0
 10
0.8534946835
 20
2.0499375532
 30
0.0
 10
0.8274545453
 20
2.0516976701
 30
0.0
 10
0.8005744342
 20
2.0570414125
 30
0.0
 10
0.7796061975
 20
2.0638228528
 30
0.0
 10
0.7676369876
 20
2.0686246283
 30
0.0
 10
0.7646031765
 20
2.0699010151
 30
0.0
 11
0.9027520324
 21
2.0580669332
 31
0.0
 11
0.9021916887
 21
2.0578882102
 31
0.0
 11
0.8786198174
 21
2.0524260134
 31
0.0
 11
0.8538460473
 21
2.0505360653
 31
0.0
 11
0.828002641
 21
2.0522025749
 31
0.0
 11
0.8011900309
 21
2.0574457847
 31
0.0
 11
0.7737681288
 21
2.0662272051
 31
0.0
 11
0.7646031765
 21
2.0699010151
 31
0.0
  0
SPLINE
  5
2BD
100
AcDbEntity
  8
ASSI
100
AcDbSpline
 62
253
  6
CONTINUOUS
 70
0
 71
3
 72
16
 73
12
 74
10
 42
0.0000001
 43
0.0000001
 44
0.0000000001
 12
0.0036161411
 22
-0.2418106442
 32
0.0
 13
0.2159330084
 23
-0.1081392179
 33
0.0
 40
0.0
 40
0.0
 40
0.0
 40
0.0
 40
0.0103930823
 40
0.112579263
 40
0.2175952981
 40
0.3277075684
 40
0.4447151008
 40
0.5698908706
 40
0.7040051987
 40
0.8473880301
 40
1.0
 40
1.0
 40
1.0
 40
1.0
 10
-17.6183814408
 20
8.029009436
 30
0.0
 10
-17.6183689132
 20
8.0281717167
 30
0.0
 10
-17.6181458027
 20
8.0190988204
 30
0.0
 10
-17.6158765471
 20
8.0016264389
 30
0.0
 10
-17.6079797681
 20
7.9771937915
 30
0.0
 10
-17.5955347113
 20
7.9534008369
 30
0.0
 10
-17.5787028338
 20
7.9304592946
 30
0.0
 10
-17.5576669384
 20
7.9085569493
 30
0.0
 10
-17.5326303034
 20
7.8878702628
 30
0.0
 10
-17.5038255269
 20
7.8685711221
 30
0.0
 10
-17.4829128293
 20
7.8570854613
 30
0.0
 10
-17.4719281754
 20
7.8515843483
 30
0.0
 11
-17.6183814408
 21
8.029009436
 31
0.0
 11
-17.6183196144
 21
8.0264968167
 31
0.0
 11
-17.6151774694
 21
8.0020199434
 31
0.0
 11
-17.6074615124
 21
7.9778610705
 31
0.0
 11
-17.5952427897
 21
7.954242645
 31
0.0
 11
-17.5786338072
 21
7.931382138
 31
0.0
 11
-17.5577874951
 21
7.9094900415
 31
0.0
 11
-17.5328957996
 21
7.888767931
 31
0.0
 11
-17.5041879153
 21
7.8694066089
 31
0.0
 11
-17.4719281754
 21
7.8515843483
 31
0.0
  0
SPLINE
  5
2BE
100
AcDbEntity
  8
ASSI
100
AcDbSpline
 62
253
  6
CONTINUOUS
 70
0
 71
3
 72
15
 73
11
 74
9
 42
0.0000001
 43
0.0000001
 44
0.0000000001
 12
0.030493881
 22
-0.236524202
 32
0.0
 13
0.2125933002
 23
-0.1074711064
 33
0.0
 40
0.0
 40
0.0
 40
0.0
 40
0.0
 40
0.0537377621
 40
0.1733276751
 40
0.2958332306
 40
0.4229807903
 40
0.5561566662
 40
0.6963631303
 40
0.84422102
 40
1.0
 40
1.0
 40
1.0
 40
1.0
 10
-16.9429044566
 20
-1.7492526328
 30
0.0
 10
-16.9423582323
 20
-1.7534893932
 30
0.0
 10
-16.940093146
 20
-1.767089816
 30
0.0
 10
-16.9334794439
 20
-1.7897365802
 30
0.0
 10
-16.9208815521
 20
-1.8163393698
 30
0.0
 10
-16.903898616
 20
-1.841674816
 30
0.0
 10
-16.8827152781
 20
-1.8655158047
 30
0.0
 10
-16.8575436516
 20
-1.8876582185
 30
0.0
 10
-16.8286266765
 20
-1.9079131633
 30
0.0
 10
-16.807568757
 20
-1.9197402727
 30
0.0
 10
-16.7965295679
 20
-1.9253208525
 30
0.0
 11
-16.9429044566
 21
-1.7492526328
 31
0.0
 11
-16.9407989741
 21
-1.761890736
 31
0.0
 11
-16.93284979
 21
-1.7892472107
 31
0.0
 11
-16.9204241513
 21
-1.8156522227
 31
0.0
 11
-16.9036365265
 21
-1.8408625214
 31
0.0
 11
-16.8826415679
 21
-1.8646458627
 31
0.0
 11
-16.8576326869
 21
-1.8867831478
 31
0.0
 11
-16.8288402723
 21
-1.9070704418
 31
0.0
 11
-16.7965295679
 21
-1.9253208525
 31
0.0
  0
SPLINE
  5
2BF
100
AcDbEntity
  8
ASSI
100
AcDbSpline
 62
253
  6
CONTINUOUS
 70
0
 71
3
 72
16
 73
12
 74
10
 42
0.0000001
 43
0.0000001
 44
0.0000000001
 12
-0.3871466113
 22
0.2510434959
 32
0.0
 13
-0.0590054171
 23
0.4572819109
 33
0.0
 40
0.0
 40
0.0
 40
0.0
 40
0.0
 40
0.0326832322
 40
0.1395273194
 40
0.2489329878
 40
0.3618525322
 40
0.4790664654
 40
0.6011681179
 40
0.7285654429
 40
0.861485593
 40
1.0
 40
1.0
 40
1.0
 40
1.0
 10
-16.5842049695
 20
-2.3186611656
 30
0.0
 10
-16.5884227037
 20
-2.3159261946
 30
0.0
 10
-16.6061891851
 20
-2.3038814388
 30
0.0
 10
-16.6359581157
 20
-2.2796785043
 30
0.0
 10
-16.6709420421
 20
-2.2429555688
 30
0.0
 10
-16.7022260682
 20
-2.2010425668
 30
0.0
 10
-16.7296198029
 20
-2.1542290059
 30
0.0
 10
-16.752961271
 20
-2.1028284039
 30
0.0
 10
-16.772114191
 20
-2.0471762229
 30
0.0
 10
-16.7869666814
 20
-1.9876356487
 30
0.0
 10
-16.7938052013
 20
-1.9464342302
 30
0.0
 10
-16.7965295681
 20
-1.9253208526
 30
0.0
 11
-16.5842049695
 21
-2.3186611656
 31
0.0
 11
-16.5966867235
 21
-2.3101999485
 31
0.0
 11
-16.6349493362
 21
-2.2791707852
 31
0.0
 11
-16.6698071709
 21
-2.2427080733
 31
0.0
 11
-16.7010344556
 21
-2.2010483365
 31
0.0
 11
-16.7284290136
 21
-2.1544617227
 31
0.0
 11
-16.7518135062
 21
-2.1032503363
 31
0.0
 11
-16.7710368247
 21
-2.0477454699
 31
0.0
 11
-16.7859742741
 21
-1.9883078176
 31
0.0
 11
-16.7965295681
 21
-1.9253208526
 31
0.0
  0
SPLINE
  5
2C0
100
AcDbEntity
  8
ASSI
100
AcDbSpline
 62
7
  6
CONTINUOUS
 70
0
 71
3
 72
23
 73
19
 74
17
 42
0.0000001
 43
0.0000001
 44
0.0000000001
 12
-0.4697235934
 22
0.2720556507
 32
0.0
 13
-0.0327478609
 23
0.5417582291
 33
0.0
 40
0.0
 40
0.0
 40
0.0
 40
0.0
 40
0.0197112377
 40
0.0810136604
 40
0.1447474378
 40
0.2103855487
 40
0.2779702474
 40
0.3474889991
 40
0.4182279689
 40
0.4894443216
 40
0.5610860775
 40
0.6331136178
 40
0.7047627447
 40
0.7752532483
 40
0.8445006569
 40
0.9124937506
 40
0.9785939253
 40
1.0
 40
1.0
 40
1.0
 40
1.0
 10
-5.1439864185
 20
5.0241961899
 30
0.0
 10
-5.1470726963
 20
5.0259837078
 30
0.0
 10
-5.1596482871
 20
5.0335200891
 30
0.0
 10
-5.1813011072
 20
5.0482822348
 30
0.0
 10
-5.2081882549
 20
5.0699296873
 30
0.0
 10
-5.2342390482
 20
5.0942666575
 30
0.0
 10
-5.259266589
 20
5.121101013
 30
0.0
 10
-5.283067888
 20
5.150228139
 30
0.0
 10
-5.3053718314
 20
5.1813274134
 30
0.0
 10
-5.325943717
 20
5.2140516344
 30
0.0
 10
-5.3446368565
 20
5.248149775
 30
0.0
 10
-5.3613007494
 20
5.2833712234
 30
0.0
 10
-5.3757414245
 20
5.3193372655
 30
0.0
 10
-5.3878012192
 20
5.3556412409
 30
0.0
 10
-5.3973911297
 20
5.3919920981
 30
0.0
 10
-5.4044262138
 20
5.4281169329
 30
0.0
 10
-5.4078778796
 20
5.4560497858
 30
0.0
 10
-5.4090335192
 20
5.4718405587
 30
0.0
 10
-5.4092671869
 20
5.4757061977
 30
0.0
 11
-5.1439864185
 21
5.0241961899
 31
0.0
 11
-5.1531651317
 21
5.0296939939
 31
0.0
 11
-5.1806795416
 21
5.048381274
 31
0.0
 11
-5.2076451751
 21
5.0700285355
 31
0.0
 11
-5.2336963081
 21
5.0943104657
 31
0.0
 11
-5.2587303481
 21
5.1211043218
 31
0.0
 11
-5.2826164159
 21
5.1502955478
 31
0.0
 11
-5.3049986832
 21
5.1814738547
 31
0.0
 11
-5.3255718466
 21
5.2141808354
 31
0.0
 11
-5.3442603667
 21
5.248263539
 31
0.0
 11
-5.3609702225
 21
5.2835904131
 31
0.0
 11
-5.3754447891
 21
5.3196693447
 31
0.0
 11
-5.3874850551
 21
5.3559702383
 31
0.0
 11
-5.3970448644
 21
5.3923047644
 31
0.0
 11
-5.4040641884
 21
5.428521367
 31
0.0
 11
-5.4084210459
 21
5.4641192672
 31
0.0
 11
-5.4092671869
 21
5.4757061977
 31
0.0
  0
SPLINE
  5
2C1
100
AcDbEntity
  8
ASSI
100
AcDbSpline
 62
7
  6
CONTINUOUS
 70
0
 71
3
 72
16
 73
12
 74
10
 42
0.0000001
 43
0.0000001
 44
0.0000000001
 12
0.0099543161
 22
0.2047498668
 32
0.0
 13
0.1669985182
 23
0.1191182173
 33
0.0
 40
0.0
 40
0.0
 40
0.0
 40
0.0
 40
0.0529206477
 40
0.2079171624
 40
0.3553429345
 40
0.4947252683
 40
0.627260687
 40
0.7542616108
 40
0.876171847
 40
0.9939121289
 40
1.0
 40
1.0
 40
1.0
 40
1.0
 10
-5.4185292499
 20
6.7313913476
 30
0.0
 10
-5.4183536536
 20
6.7350031795
 30
0.0
 10
-5.4174657626
 20
6.7491841909
 30
0.0
 10
-5.4145644004
 20
6.7733146522
 30
0.0
 10
-5.4081004808
 20
6.8028444724
 30
0.0
 10
-5.3990376578
 20
6.8300781356
 30
0.0
 10
-5.3874478616
 20
6.8548144533
 30
0.0
 10
-5.3733956943
 20
6.8768504511
 30
0.0
 10
-5.3570142654
 20
6.8959146785
 30
0.0
 10
-5.3442149627
 20
6.9068793424
 30
0.0
 10
-5.3373424775
 20
6.9118247685
 30
0.0
 10
-5.337003589
 20
6.9120664939
 30
0.0
 11
-5.4185292499
 21
6.7313913476
 31
0.0
 11
-5.4178492094
 21
6.7422180877
 31
0.0
 11
-5.4139889568
 21
6.7737438877
 31
0.0
 11
-5.4074537624
 21
6.8032384451
 31
0.0
 11
-5.398358046
 21
6.8303130945
 31
0.0
 11
-5.3867600967
 21
6.8548707483
 31
0.0
 11
-5.3727001756
 21
6.8767703846
 31
0.0
 11
-5.3563686325
 21
6.8956740537
 31
0.0
 11
-5.3380172113
 21
6.9113370947
 31
0.0
 11
-5.337003589
 21
6.9120664939
 31
0.0
  0
SPLINE
  5
2C2
100
AcDbEntity
  8
ASSI
100
AcDbSpline
 62
253
  6
CONTINUOUS
 70
0
 71
3
 72
24
 73
20
 74
18
 42
0.0000001
 43
0.0000001
 44
0.0000000001
 12
-0.3225383182
 22
-0.1537130115
 32
0.0
 13
-0.3195746748
 23
0.1597832403
 33
0.0
 40
0.0
 40
0.0
 40
0.0
 40
0.0
 40
0.0524730889
 40
0.1073724184
 40
0.164442622
 40
0.2233961642
 40
0.283914619
 40
0.3456553533
 40
0.4082554946
 40
0.4713401437
 40
0.5345269365
 40
0.5974328202
 40
0.6596779188
 40
0.7208925822
 40
0.7807219467
 40
0.8388342871
 40
0.894925227
 40
0.9487248433
 40
1.0
 40
1.0
 40
1.0
 40
1.0
 10
13.6324321725
 20
0.6827916153
 30
0.0
 10
13.6267906452
 20
0.6801030165
 30
0.0
 10
13.6150486158
 20
0.6750100291
 30
0.0
 10
13.5966162756
 20
0.6683584011
 30
0.0
 10
13.5770904029
 20
0.6625645287
 30
0.0
 10
13.5566309394
 20
0.6576763059
 30
0.0
 10
13.535403138
 20
0.6537331509
 30
0.0
 10
13.5135790649
 20
0.6507671732
 30
0.0
 10
13.4913356692
 20
0.648802498
 30
0.0
 10
13.4688535873
 20
0.6478551462
 30
0.0
 10
13.4463153123
 20
0.6479328306
 30
0.0
 10
13.4239038696
 20
0.6490349115
 30
0.0
 10
13.4018011679
 20
0.651152403
 30
0.0
 10
13.3801866634
 20
0.6542680295
 30
0.0
 10
13.3592355218
 20
0.6583564542
 30
0.0
 10
13.3391174637
 20
0.6633844086
 30
0.0
 10
13.3199948019
 20
0.669311422
 30
0.0
 10
13.3020240511
 20
0.676088587
 30
0.0
 10
13.2906191308
 20
0.6812685839
 30
0.0
 10
13.2851570503
 20
0.6839995542
 30
0.0
 11
13.6324321725
 21
0.6827916153
 31
0.0
 11
13.6152438903
 21
0.6753041925
 31
0.0
 11
13.5968017901
 21
0.668622575
 31
0.0
 11
13.5772591723
 21
0.6628026636
 31
0.0
 11
13.5567758447
 21
0.6578921114
 31
0.0
 11
13.5355189168
 21
0.6539309591
 31
0.0
 11
13.5136614911
 21
0.6509514787
 31
0.0
 11
13.4913820978
 21
0.6489780216
 31
0.0
 11
13.4688624473
 21
0.6480266843
 31
0.0
 11
13.4462863525
 21
0.6481052278
 31
0.0
 11
13.4238378049
 21
0.6492130118
 31
0.0
 11
13.4017000754
 21
0.651340994
 31
0.0
 11
13.3800537139
 21
0.6544718127
 31
0.0
 11
13.3590755176
 21
0.6585798765
 31
0.0
 11
13.3389363062
 21
0.6636317155
 31
0.0
 11
13.3198003779
 21
0.6695861329
 31
0.0
 11
13.301824203
 21
0.6763943772
 31
0.0
 11
13.2851570503
 21
0.6839995542
 31
0.0
  0
SPLINE
  5
2C3
100
AcDbEntity
  8
ASSI
100
AcDbSpline
 62
253
  6
CONTINUOUS
 70
0
 71
3
 72
14
 73
10
 74
8
 42
0.0000001
 43
0.0000001
 44
0.0000000001
 12
-1.2344531456
 22
9.7271211268
 32
0.0
 13
-0.1480272948
 23
9.8040220269
 33
0.0
 40
0.0
 40
0.0
 40
0.0
 40
0.0
 40
0.1390931295
 40
0.2794615902
 40
0.4210944051
 40
0.5639791418
 40
0.7081019866
 40
0.8534477621
 40
1.0
 40
1.0
 40
1.0
 40
1.0
 10
-16.7965295681
 20
-1.9253208526
 30
0.0
 10
-16.8537642185
 20
-1.4743289465
 30
0.0
 10
-16.9610748318
 20
-0.5672171056
 30
0.0
 10
-17.1000897989
 20
0.8020996059
 30
0.0
 10
-17.2178464241
 20
2.185848159
 30
0.0
 10
-17.3143033577
 20
3.5835416788
 30
0.0
 10
-17.3894274887
 20
4.9946963633
 30
0.0
 10
-17.443192803
 20
6.4188167247
 30
0.0
 10
-17.4646969316
 20
7.3726505587
 30
0.0
 10
-17.4719281754
 20
7.8515843483
 30
0.0
 11
-16.7965295681
 21
-1.9253208526
 31
0.0
 11
-16.956856241
 21
-0.5709498179
 31
0.0
 11
-17.0959707777
 21
0.7983338781
 31
0.0
 11
-17.2138248312
 21
2.1820535224
 31
0.0
 11
-17.3103774382
 21
3.5797272909
 31
0.0
 11
-17.3855950519
 21
4.9908686564
 31
0.0
 11
-17.4394515332
 21
6.414986263
 31
0.0
 11
-17.4719281754
 21
7.8515843483
 31
0.0
  0
SPLINE
  5
2C4
100
AcDbEntity
  8
ASSI
100
AcDbSpline
 62
253
  6
CONTINUOUS
 70
0
 71
3
 72
16
 73
12
 74
10
 42
0.0000001
 43
0.0000001
 44
0.0000000001
 12
-0.2159690029
 22
0.1079887814
 32
0.0
 13
-0.0006320221
 23
0.241788186
 33
0.0
 40
0.0
 40
0.0
 40
0.0
 40
0.0
 40
0.1438104959
 40
0.2793232648
 40
0.4064561134
 40
0.5254003835
 40
0.6366911712
 40
0.7412570252
 40
0.8404517125
 40
0.9360460384
 40
1.0
 40
1.0
 40
1.0
 40
1.0
 10
-17.5334139601
 20
15.7013807216
 30
0.0
 10
-17.5437668299
 20
15.7065573616
 30
0.0
 10
-17.563531725
 20
15.7173250446
 30
0.0
 10
-17.5909309422
 20
15.7352715413
 30
0.0
 10
-17.6150131689
 20
15.7544123896
 30
0.0
 10
-17.6355816829
 20
15.7746045559
 30
0.0
 10
-17.6524644666
 20
15.795701723
 30
0.0
 10
-17.6655078514
 20
15.8175515868
 30
0.0
 10
-17.6745746507
 20
15.8399888651
 30
0.0
 10
-17.6790304878
 20
15.8604414245
 30
0.0
 10
-17.6798479893
 20
15.8732990689
 30
0.0
 10
-17.6798614627
 20
15.8784535063
 30
0.0
 11
-17.5334139601
 21
15.7013807216
 31
0.0
 11
-17.5638708402
 21
15.718059873
 31
0.0
 11
-17.591195199
 21
15.7360615572
 31
0.0
 11
-17.6151651124
 21
15.7552396672
 31
0.0
 11
-17.6355840984
 21
15.7754371289
 31
0.0
 11
-17.6522857055
 21
15.7964892299
 31
0.0
 11
-17.6651338847
 21
15.818224531
 31
0.0
 11
-17.6740236454
 21
15.8404655115
 31
0.0
 11
-17.6788824887
 21
15.8630307801
 31
0.0
 11
-17.6798614627
 21
15.8784535063
 31
0.0
  0
SPLINE
  5
2C5
100
AcDbEntity
  8
ASSI
100
AcDbSpline
 62
253
  6
CONTINUOUS
 70
0
 71
3
 72
17
 73
13
 74
11
 42
0.0000001
 43
0.0000001
 44
0.0000000001
 12
-0.0146233495
 22
-0.3374304751
 32
0.0
 13
-0.3134643983
 23
-0.1267186416
 33
0.0
 40
0.0
 40
0.0
 40
0.0
 40
0.0
 40
0.1257612106
 40
0.2463557878
 40
0.361548946
 40
0.4712938634
 40
0.5757615065
 40
0.6753678851
 40
0.7707922496
 40
0.8629762818
 40
0.9530928601
 40
1.0
 40
1.0
 40
1.0
 40
1.0
 10
14.9331135144
 20
-17.425090372
 30
0.0
 10
14.9325004977
 20
-17.4392355937
 30
0.0
 10
14.930249561
 20
-17.4669144018
 30
0.0
 10
14.9235695119
 20
-17.5071167589
 30
0.0
 10
14.9137102562
 20
-17.5448091488
 30
0.0
 10
14.9007566881
 20
-17.5796315441
 30
0.0
 10
14.884819259
 20
-17.6112523772
 30
0.0
 10
14.8660337205
 20
-17.6393638387
 30
0.0
 10
14.8445627698
 20
-17.6636827085
 30
0.0
 10
14.8206006627
 20
-17.6839512898
 30
0.0
 10
14.7984788054
 20
-17.6974432395
 30
0.0
 10
14.7844025622
 20
-17.7038276415
 30
0.0
 10
14.7795013228
 20
-17.7058089778
 30
0.0
 11
14.9331135144
 21
-17.425090372
 31
0.0
 11
14.9296027793
 21
-17.4674205328
 31
0.0
 11
14.922849394
 21
-17.507587233
 31
0.0
 11
14.9129182465
 21
-17.5452045437
 31
0.0
 11
14.8999047568
 21
-17.579911031
 31
0.0
 11
14.883933961
 21
-17.6113732287
 31
0.0
 11
14.8651593094
 21
-17.6392888423
 31
0.0
 11
14.8437611922
 21
-17.6633896535
 31
0.0
 11
14.8199452065
 21
-17.6834440973
 31
0.0
 11
14.7939401804
 21
-17.699259487
 31
0.0
 11
14.7795013228
 21
-17.7058089778
 31
0.0
  0
SPLINE
  5
2C6
100
AcDbEntity
  8
ASSI
100
AcDbSpline
 62
253
  6
CONTINUOUS
 70
0
 71
3
 72
24
 73
20
 74
18
 42
0.0000001
 43
0.0000001
 44
0.0000000001
 12
0.0639027533
 22
-0.4717728467
 32
0.0
 13
0.4413838546
 23
0.1784193758
 33
0.0
 40
0.0
 40
0.0
 40
0.0
 40
0.0
 40
0.0674522603
 40
0.1324328803
 40
0.1949921921
 40
0.2552669519
 40
0.3134744861
 40
0.3699113309
 40
0.4249505657
 40
0.4790314766
 40
0.5326426374
 40
0.5862971832
 40
0.6405065485
 40
0.6957524301
 40
0.7524643122
 40
0.8110030704
 40
0.8716529464
 40
0.9346161818
 40
1.0
 40
1.0
 40
1.0
 40
1.0
 10
14.5904524801
 20
-17.2169938696
 30
0.0
 10
14.5918892751
 20
-17.2276012512
 30
0.0
 10
14.5955000822
 20
-17.248331653
 30
0.0
 10
14.6033292148
 20
-17.2783069452
 30
0.0
 10
14.6134256257
 20
-17.3063958874
 30
0.0
 10
14.6257291514
 20
-17.332411485
 30
0.0
 10
14.6401666021
 20
-17.3561829012
 30
0.0
 10
14.6566505238
 20
-17.3775502726
 30
0.0
 10
14.6750780277
 20
-17.3963664232
 30
0.0
 10
14.6953298472
 20
-17.4124987649
 30
0.0
 10
14.7172700237
 20
-17.425832296
 30
0.0
 10
14.7407473218
 20
-17.4362730431
 30
0.0
 10
14.7655981613
 20
-17.4437505709
 30
0.0
 10
14.7916505408
 20
-17.4482188229
 30
0.0
 10
14.8187274005
 20
-17.4496550657
 30
0.0
 10
14.8466487264
 20
-17.448058124
 30
0.0
 10
14.8752330971
 20
-17.4434459239
 30
0.0
 10
14.9042916424
 20
-17.4358568546
 30
0.0
 10
14.9234937272
 20
-17.428978952
 30
0.0
 10
14.9331135144
 20
-17.425090372
 30
0.0
 11
14.5904524801
 21
-17.2169938696
 31
0.0
 11
14.5960101716
 21
-17.2486220277
 31
0.0
 11
14.6038768982
 21
-17.2785411413
 31
0.0
 11
14.6140009443
 21
-17.3065509409
 31
0.0
 11
14.6263166536
 21
-17.3324693685
 31
0.0
 11
14.6407444412
 21
-17.3561287525
 31
0.0
 11
14.6571909075
 21
-17.3773756521
 31
0.0
 11
14.675549571
 21
-17.39607228
 31
0.0
 11
14.6957015034
 21
-17.4120973342
 31
0.0
 11
14.7175162914
 21
-17.4253469285
 31
0.0
 11
14.7408525141
 21
-17.4357350093
 31
0.0
 11
14.7655591156
 21
-17.4431941919
 31
0.0
 11
14.7914759701
 21
-17.4476759898
 31
0.0
 11
14.8184350893
 21
-17.4491512421
 31
0.0
 11
14.8462616512
 21
-17.4476103182
 31
0.0
 11
14.8747756022
 21
-17.4430630832
 31
0.0
 11
14.9037915746
 21
-17.4355391083
 31
0.0
 11
14.9331135144
 21
-17.425090372
 31
0.0
  0
SPLINE
  5
2C7
100
AcDbEntity
  8
ASSI
100
AcDbSpline
 62
253
  6
CONTINUOUS
 70
0
 71
3
 72
17
 73
13
 74
11
 42
0.0000001
 43
0.0000001
 44
0.0000000001
 12
0.0673496766
 22
-0.505193452
 32
0.0
 13
0.4557939012
 23
-0.2288339109
 33
0.0
 40
0.0
 40
0.0
 40
0.0
 40
0.0
 40
0.1257951957
 40
0.2468052935
 40
0.3631336894
 40
0.4750193806
 40
0.5828564352
 40
0.6871935549
 40
0.7887311989
 40
0.8883038923
 40
0.9868488866
 40
1.0
 40
1.0
 40
1.0
 40
1.0
 10
13.8998509361
 20
-17.2735111047
 30
0.0
 10
13.9026750247
 20
-17.2946947411
 30
0.0
 10
13.9097694415
 20
-17.3360711409
 30
0.0
 10
13.925159938
 20
-17.395886661
 30
0.0
 10
13.9450061084
 20
-17.4518878783
 30
0.0
 10
13.9691910754
 20
-17.5037076319
 30
0.0
 10
13.9975719625
 20
-17.5510062655
 30
0.0
 10
14.0299781382
 20
-17.593466089
 30
0.0
 10
14.0662089154
 20
-17.6307943158
 30
0.0
 10
14.1060311166
 20
-17.6627266789
 30
0.0
 10
14.1367617805
 20
-17.6814633848
 30
0.0
 10
14.1536581819
 20
-17.6901301079
 30
0.0
 10
14.1556562476
 20
-17.6911332482
 30
0.0
 11
13.8998509361
 21
-17.2735111047
 31
0.0
 11
13.910781383
 21
-17.3366856461
 31
0.0
 11
13.9262497105
 21
-17.3963887375
 31
0.0
 11
13.9461562621
 21
-17.4522352204
 31
0.0
 11
13.9703718658
 21
-17.5038621624
 31
0.0
 11
13.9987400668
 21
-17.5509355977
 31
0.0
 11
14.0310772125
 21
-17.593150265
 31
0.0
 11
14.0671739452
 21
-17.6302324258
 31
0.0
 11
14.1067964665
 21
-17.6619415435
 31
0.0
 11
14.1496884149
 21
-17.6880720868
 31
0.0
 11
14.1556562476
 21
-17.6911332482
 31
0.0
  0
SPLINE
  5
2C8
100
AcDbEntity
  8
ASSI
100
AcDbSpline
 62
253
  6
CONTINUOUS
 70
0
 71
3
 72
23
 73
19
 74
17
 42
0.0000001
 43
0.0000001
 44
0.0000000001
 12
-0.6046875015
 22
-0.3899603372
 32
0.0
 13
-0.6449837558
 23
0.3189231783
 33
0.0
 40
0.0
 40
0.0
 40
0.0
 40
0.0
 40
0.0585677629
 40
0.1193033505
 40
0.1819239888
 40
0.2461052335
 40
0.3114902464
 40
0.377698354
 40
0.4443331115
 40
0.5109900572
 40
0.5772643152
 40
0.6427581907
 40
0.7070889007
 40
0.7698965953
 40
0.8308528525
 40
0.8896698636
 40
0.9461105666
 40
1.0
 40
1.0
 40
1.0
 40
1.0
 10
14.5904524801
 20
-17.2169938696
 30
0.0
 10
14.5786474153
 20
-17.2246069044
 30
0.0
 10
14.5539967238
 20
-17.2391950184
 30
0.0
 10
14.5149642003
 20
-17.2587649342
 30
0.0
 10
14.4735010786
 20
-17.2762777166
 30
0.0
 10
14.4299886838
 20
-17.2915722443
 30
0.0
 10
14.3848238126
 20
-17.3045095274
 30
0.0
 10
14.3384197777
 20
-17.3149711972
 30
0.0
 10
14.2912011997
 20
-17.3228615823
 30
0.0
 10
14.2436003661
 20
-17.3281084449
 30
0.0
 10
14.1960530507
 20
-17.3306637494
 30
0.0
 10
14.1489944063
 20
-17.3305040771
 30
0.0
 10
14.1028548784
 20
-17.3276308139
 30
0.0
 10
14.0580559759
 20
-17.3220699498
 30
0.0
 10
14.0150068208
 20
-17.3138719143
 30
0.0
 10
13.9740983856
 20
-17.303109859
 30
0.0
 10
13.935706702
 20
-17.2898818891
 30
0.0
 10
13.9114368888
 20
-17.2792399567
 30
0.0
 10
13.8998509524
 20
-17.2735110936
 30
0.0
 11
14.5904524801
 21
-17.2169938696
 31
0.0
 11
14.554216583
 21
-17.2385071316
 31
0.0
 11
14.5151731217
 21
-17.2581378488
 31
0.0
 11
14.4736817754
 21
-17.2757051776
 31
0.0
 11
14.430124774
 21
-17.2910472827
 31
0.0
 11
14.3849033767
 21
-17.3040228286
 31
0.0
 11
14.3384341756
 21
-17.3145122808
 31
0.0
 11
14.2911452581
 21
-17.3224190075
 31
0.0
 11
14.2434722627
 21
-17.3276701699
 31
0.0
 11
14.1958543664
 21
-17.3302173926
 31
0.0
 11
14.1487302386
 21
-17.3300372101
 31
0.0
 11
14.1025339998
 21
-17.3271312822
 31
0.0
 11
14.0576912227
 21
-17.321526379
 31
0.0
 11
14.0146150115
 21
-17.3132741346
 31
0.0
 11
13.9737021962
 21
-17.3024505709
 31
0.0
 11
13.935329677
 21
-17.2891553977
 31
0.0
 11
13.8998509524
 21
-17.2735110936
 31
0.0
  0
SPLINE
  5
2C9
100
AcDbEntity
  8
ASSI
100
AcDbSpline
 62
253
  6
CONTINUOUS
 70
0
 71
3
 72
14
 73
10
 74
8
 42
0.0000001
 43
0.0000001
 44
0.0000000001
 12
0.1581958
 22
-9.7776961891
 32
0.0
 13
1.3125293863
 23
-9.6904920044
 33
0.0
 40
0.0
 40
0.0
 40
0.0
 40
0.0
 40
0.1462525689
 40
0.2913905064
 40
0.4354020953
 40
0.5782770586
 40
0.7200064886
 40
0.860582859
 40
1.0
 40
1.0
 40
1.0
 40
1.0
 10
13.8703446633
 20
-7.4701740967
 30
0.0
 10
13.8780568441
 20
-7.9468451586
 30
0.0
 10
13.9009962158
 20
-8.8964503352
 30
0.0
 10
13.9583291048
 20
-10.314614554
 30
0.0
 10
14.0384357756
 20
-11.7206525938
 30
0.0
 10
14.1412885097
 20
-13.1140696247
 30
0.0
 10
14.2668520705
 20
-14.4943836153
 30
0.0
 10
14.4150822815
 20
-15.8611078773
 30
0.0
 10
14.5294561153
 20
-16.7666536396
 30
0.0
 10
14.5904524801
 20
-17.2169938696
 30
0.0
 11
13.8703446633
 21
-7.4701740967
 31
0.0
 11
13.9049711213
 21
-8.8999552055
 31
0.0
 11
13.962392728
 21
-10.3180935426
 31
0.0
 11
14.042589515
 21
-11.7240940802
 31
0.0
 11
14.1455336137
 21
-13.1174672536
 31
0.0
 11
14.2711892564
 21
-14.4977280341
 31
0.0
 11
14.4195127678
 21
-15.8643958036
 31
0.0
 11
14.5904524801
 21
-17.2169938696
 31
0.0
  0
SPLINE
  5
2CA
100
AcDbEntity
  8
ASSI
100
AcDbSpline
 62
253
  6
CONTINUOUS
 70
0
 71
3
 72
14
 73
10
 74
8
 42
0.0000001
 43
0.0000001
 44
0.0000000001
 12
0.1590485282
 22
-9.8322410214
 32
0.0
 13
1.3196249534
 23
-9.744580541
 33
0.0
 40
0.0
 40
0.0
 40
0.0
 40
0.0
 40
0.1462535095
 40
0.2913919944
 40
0.4354038616
 40
0.5782788199
 40
0.7200079478
 40
0.860583705
 40
1.0
 40
1.0
 40
1.0
 40
1.0
 10
13.1758559149
 20
-7.4723076968
 30
0.0
 10
13.1836097167
 20
-7.9516409487
 30
0.0
 10
13.206672909
 20
-8.9065484083
 30
0.0
 10
13.2643152745
 20
-10.3326299709
 30
0.0
 10
13.344854333
 20
-11.7465150147
 30
0.0
 10
13.4482622245
 20
-13.1477064024
 30
0.0
 10
13.5745035225
 20
-14.5357194136
 30
0.0
 10
13.7235338541
 20
-15.910064947
 30
0.0
 10
13.8385251956
 20
-16.8206599998
 30
0.0
 10
13.8998509361
 20
-17.2735111047
 30
0.0
 11
13.1758559149
 21
-7.4723076968
 31
0.0
 11
13.2106693227
 21
-8.910074165
 31
0.0
 11
13.2684008963
 21
-10.3361293177
 31
0.0
 11
13.3490305826
 21
-11.7499767195
 31
0.0
 11
13.4525303618
 21
-13.1511240741
 31
0.0
 11
13.5788642735
 21
-14.5390836475
 31
0.0
 11
13.7279884068
 21
-15.9133721418
 31
0.0
 11
13.8998509361
 21
-17.2735111047
 31
0.0
  0
SPLINE
  5
2CB
100
AcDbEntity
  8
ASSI
100
AcDbSpline
 62
253
  6
CONTINUOUS
 70
0
 71
3
 72
23
 73
19
 74
17
 42
0.0000001
 43
0.0000001
 44
0.0000000001
 12
-0.6423463248
 22
-0.3139621741
 32
0.0
 13
-0.6396924869
 23
0.3193345735
 33
0.0
 40
0.0
 40
0.0
 40
0.0
 40
0.0
 40
0.0560459375
 40
0.1147633706
 40
0.1758533728
 40
0.2389680004
 40
0.3037206074
 40
0.3696950256
 40
0.4364539816
 40
0.5035470265
 40
0.5705181849
 40
0.6369134918
 40
0.7022885703
 40
0.7662164078
 40
0.8282955157
 40
0.8881587155
 40
0.9454828706
 40
1.0
 40
1.0
 40
1.0
 40
1.0
 10
13.8703446633
 20
-7.4701740967
 30
0.0
 10
13.8583443627
 20
-7.4760395315
 30
0.0
 10
13.8333104025
 20
-7.4871228732
 30
0.0
 10
13.7939175893
 20
-7.5015056774
 30
0.0
 10
13.7521043353
 20
-7.5139309369
 30
0.0
 10
13.7082543452
 20
-7.5242841581
 30
0.0
 10
13.6627669928
 20
-7.532471071
 30
0.0
 10
13.6160583056
 20
-7.5384165189
 30
0.0
 10
13.5685556231
 20
-7.5420659477
 30
0.0
 10
13.5206938999
 20
-7.5433858249
 30
0.0
 10
13.4729114676
 20
-7.5423640441
 30
0.0
 10
13.4256458929
 20
-7.5390100287
 30
0.0
 10
13.3793298449
 20
-7.5333546404
 30
0.0
 10
13.3343868586
 20
-7.5254497724
 30
0.0
 10
13.291227705
 20
-7.5153679523
 30
0.0
 10
13.2502449406
 20
-7.5032007428
 30
0.0
 10
13.2118144437
 20
-7.4890600946
 30
0.0
 10
13.1874806478
 20
-7.4781107648
 30
0.0
 10
13.1758559151
 20
-7.4723076967
 30
0.0
 11
13.8703446633
 21
-7.4701740967
 31
0.0
 11
13.8337323761
 21
-7.4864601426
 31
0.0
 11
13.7943173921
 21
-7.5009127143
 31
0.0
 11
13.7524626319
 21
-7.5133987373
 31
0.0
 11
13.7085534807
 21
-7.5238032441
 31
0.0
 11
13.6629942398
 21
-7.5320304335
 31
0.0
 11
13.6162044041
 21
-7.5380045521
 31
0.0
 11
13.5686147994
 21
-7.5416705921
 31
0.0
 11
13.5206636154
 21
-7.542994798
 31
0.0
 11
13.4727923712
 21
-7.5419649767
 31
0.0
 11
13.42544185
 21
-7.5385906105
 31
0.0
 11
13.37904804
 21
-7.5329027696
 31
0.0
 11
13.3340381206
 21
-7.5249538257
 31
0.0
 11
13.2908265287
 21
-7.5148169702
 31
0.0
 11
13.2498111427
 21
-7.5025855399
 31
0.0
 11
13.2113696191
 21
-7.488372158
 31
0.0
 11
13.1758559151
 21
-7.4723076967
 31
0.0
  0
SPLINE
  5
2CC
100
AcDbEntity
  8
ASSI
100
AcDbSpline
 62
253
  6
CONTINUOUS
 70
0
 71
3
 72
24
 73
20
 74
18
 42
0.0000001
 43
0.0000001
 44
0.0000000001
 12
-0.6460894983
 22
-0.3048812545
 32
0.0
 13
-0.6389944042
 23
0.3194845389
 33
0.0
 40
0.0
 40
0.0
 40
0.0
 40
0.0
 40
0.0524100356
 40
0.1072497924
 40
0.1642744396
 40
0.2231948714
 40
0.2836919856
 40
0.345422123
 40
0.4080213494
 40
0.471113599
 40
0.5343152536
 40
0.5972420897
 40
0.6595128813
 40
0.7207563994
 40
0.7806160868
 40
0.8387583409
 40
0.8948769789
 40
0.9486992022
 40
1.0
 40
1.0
 40
1.0
 40
1.0
 10
13.8044764391
 20
0.3756465768
 30
0.0
 10
13.7931892479
 20
0.3703202977
 30
0.0
 10
13.7696993254
 20
0.360237676
 30
0.0
 10
13.732832866
 20
0.3470868193
 30
0.0
 10
13.6937817234
 20
0.3356492461
 30
0.0
 10
13.6528634594
 20
0.3260185236
 30
0.0
 10
13.6104086993
 20
0.3182724267
 30
0.0
 10
13.5667615425
 20
0.3124740011
 30
0.0
 10
13.5222758885
 20
0.3086704215
 30
0.0
 10
13.4773130008
 20
0.3068926991
 30
0.0
 10
13.4322378112
 20
0.3071553019
 30
0.0
 10
13.3874162891
 20
0.3094560796
 30
0.0
 10
13.3432121736
 20
0.3137762851
 30
0.0
 10
13.2999843477
 20
0.3200806918
 30
0.0
 10
13.2580831514
 20
0.3283180239
 30
0.0
 10
13.2178480103
 20
0.3384212977
 30
0.0
 10
13.1796036716
 20
0.3503090474
 30
0.0
 10
13.1436610183
 20
0.3638841851
 30
0.0
 10
13.1208481361
 20
0.37424989
 30
0.0
 10
13.1099211619
 20
0.3797131606
 30
0.0
 11
13.8044764391
 21
0.3756465768
 31
0.0
 11
13.7700932023
 21
0.3608235392
 31
0.0
 11
13.7332092893
 21
0.3476134707
 31
0.0
 11
13.6941240435
 21
0.3361236374
 31
0.0
 11
13.6531576472
 21
0.3264482536
 31
0.0
 11
13.6106441799
 21
0.3186661765
 31
0.0
 11
13.5669298787
 21
0.3128408003
 31
0.0
 11
13.5223717907
 21
0.309019724
 31
0.0
 11
13.4773333261
 21
0.3072341025
 31
0.0
 11
13.4321820924
 21
0.3074984896
 31
0.0
 11
13.3872859211
 21
0.3098107283
 31
0.0
 11
13.3430112576
 21
0.3141519598
 31
0.0
 11
13.2997191903
 21
0.320486782
 31
0.0
 11
13.2577632999
 21
0.3287634297
 31
0.0
 11
13.2174852534
 21
0.3389144842
 31
0.0
 11
13.1792135221
 21
0.3508571966
 31
0.0
 11
13.1432615584
 21
0.3644936737
 31
0.0
 11
13.1099211619
 21
0.3797131606
 31
0.0
  0
SPLINE
  5
2CD
100
AcDbEntity
  8
ASSI
100
AcDbSpline
 62
253
  6
CONTINUOUS
 70
0
 71
3
 72
21
 73
17
 74
15
 42
0.0000001
 43
0.0000001
 44
0.0000000001
 12
-0.0002381814
 22
0.366564936
 32
0.0
 13
0.3264581343
 23
0.1667183119
 33
0.0
 40
0.0
 40
0.0
 40
0.0
 40
0.0
 40
0.0673451718
 40
0.1373665919
 40
0.2096497479
 40
0.2837102706
 40
0.3590123719
 40
0.4349859543
 40
0.5110428723
 40
0.5865927648
 40
0.661058834
 40
0.7338939467
 40
0.804597459
 40
0.8727332284
 40
0.9379493321
 40
1.0
 40
1.0
 40
1.0
 40
1.0
 10
-17.5334158578
 20
15.7013816707
 30
0.0
 10
-17.5334212045
 20
15.7096104636
 30
0.0
 10
-17.53265177
 20
15.7264028728
 30
0.0
 10
-17.5293465375
 20
15.7518315265
 30
0.0
 10
-17.5239076908
 20
15.7777294755
 30
0.0
 10
-17.5164027744
 20
15.8037755495
 30
0.0
 10
-17.5069245451
 20
15.8296498835
 30
0.0
 10
-17.4955900243
 20
15.8550332466
 30
0.0
 10
-17.4825391094
 20
15.8796125279
 30
0.0
 10
-17.4679328115
 20
15.9030844071
 30
0.0
 10
-17.4519512022
 20
15.9251593177
 30
0.0
 10
-17.434790889
 20
15.9455651486
 30
0.0
 10
-17.4166627964
 20
15.9640503943
 30
0.0
 10
-17.3977875702
 20
15.9803879803
 30
0.0
 10
-17.3783982469
 20
15.9943748087
 30
0.0
 10
-17.3649341814
 20
16.0022206849
 30
0.0
 10
-17.3581818663
 20
16.0056690125
 30
0.0
 11
-17.5334158578
 21
15.7013816707
 31
0.0
 11
-17.5323311744
 21
15.7260442133
 31
0.0
 11
-17.5290592944
 21
15.7515022252
 31
0.0
 11
-17.5236409493
 21
15.7774387781
 31
0.0
 11
-17.5161435926
 21
15.8035309869
 31
0.0
 11
-17.5066605592
 21
15.8294540283
 31
0.0
 11
-17.4953099039
 21
15.8548851854
 31
0.0
 11
-17.4822329315
 21
15.8795078646
 31
0.0
 11
-17.4675924379
 21
15.9030155371
 31
0.0
 11
-17.4515706833
 21
15.9251155549
 31
0.0
 11
-17.4343671232
 21
15.9455327942
 31
0.0
 11
-17.4161959256
 21
15.9640130798
 31
0.0
 11
-17.3972833044
 21
15.9803263501
 31
0.0
 11
-17.3778647036
 21
15.9942695207
 31
0.0
 11
-17.3581818663
 21
16.0056690125
 31
0.0
  0
SPLINE
  5
2CE
100
AcDbEntity
  8
ASSI
100
AcDbSpline
 62
253
  6
CONTINUOUS
 70
0
 71
3
 72
21
 73
17
 74
15
 42
0.0000001
 43
0.0000001
 44
0.0000000001
 12
-0.0002381811
 22
0.3665649359
 32
0.0
 13
0.3264581342
 23
0.1667183122
 33
0.0
 40
0.0
 40
0.0
 40
0.0
 40
0.0
 40
0.0673451676
 40
0.1373665829
 40
0.2096497344
 40
0.2837102531
 40
0.3590123512
 40
0.4349859312
 40
0.5110428482
 40
0.5865927408
 40
0.6610588114
 40
0.7338939267
 40
0.8045974427
 40
0.8727332169
 40
0.9379493261
 40
1.0
 40
1.0
 40
1.0
 40
1.0
 10
13.1099230589
 20
0.3797122124
 30
0.0
 10
13.1099177121
 20
0.3879410048
 30
0.0
 10
13.1106871465
 20
0.4047334129
 30
0.0
 10
13.1139923786
 20
0.4301620649
 30
0.0
 10
13.1194312247
 20
0.4560600124
 30
0.0
 10
13.1269361403
 20
0.4821060851
 30
0.0
 10
13.1364143688
 20
0.5079804182
 30
0.0
 10
13.1477488887
 20
0.5333637808
 30
0.0
 10
13.1607998029
 20
0.557943062
 30
0.0
 10
13.1754061004
 20
0.5814149415
 30
0.0
 10
13.1913877094
 20
0.6034898529
 30
0.0
 10
13.2085480228
 20
0.623895685
 30
0.0
 10
13.226676116
 20
0.642380932
 30
0.0
 10
13.2455513432
 20
0.6587185195
 30
0.0
 10
13.2649406679
 20
0.6727053493
 30
0.0
 10
13.2784047345
 20
0.6805512263
 30
0.0
 10
13.2851570503
 20
0.6839995542
 30
0.0
 11
13.1099230589
 21
0.3797122124
 31
0.0
 11
13.1110077421
 21
0.4043747535
 31
0.0
 11
13.1142796217
 21
0.4298327636
 31
0.0
 11
13.1196979661
 21
0.455769315
 31
0.0
 11
13.127195322
 21
0.4818615224
 31
0.0
 11
13.1366783546
 21
0.5077845629
 31
0.0
 11
13.1480290091
 21
0.5332157195
 31
0.0
 11
13.1611059808
 21
0.5578383986
 31
0.0
 11
13.1757464739
 21
0.5813460714
 31
0.0
 11
13.1917682283
 21
0.6034460901
 31
0.0
 11
13.2089717885
 21
0.6238633304
 31
0.0
 11
13.2271429868
 21
0.6423436174
 31
0.0
 11
13.246055609
 21
0.6586568892
 31
0.0
 11
13.2654742111
 21
0.6726000612
 31
0.0
 11
13.2851570503
 21
0.6839995542
 31
0.0
  0
SPLINE
  5
2CF
100
AcDbEntity
  8
ASSI
100
AcDbSpline
 62
253
  6
CONTINUOUS
 70
0
 71
3
 72
21
 73
17
 74
15
 42
0.0000001
 43
0.0000001
 44
0.0000000001
 12
-0.0027086902
 22
0.3665006289
 32
0.0
 13
-0.3229569199
 23
0.1732884182
 33
0.0
 40
0.0
 40
0.0
 40
0.0
 40
0.0
 40
0.0675515957
 40
0.1379106427
 40
0.210618269
 40
0.2851460241
 40
0.3609149144
 40
0.4373129777
 40
0.5137119661
 40
0.5894836079
 40
0.6640158694
 40
0.7367296356
 40
0.8070962814
 40
0.8746567015
 40
0.9390424875
 40
1.0
 40
1.0
 40
1.0
 40
1.0
 10
13.8044744106
 20
0.3756456196
 30
0.0
 10
13.8044134185
 20
0.383898187
 30
0.0
 10
13.8035300736
 20
0.4007474384
 30
0.0
 10
13.8001199385
 20
0.42627592
 30
0.0
 10
13.7946383421
 20
0.452312442
 30
0.0
 10
13.7871538119
 20
0.4785310461
 30
0.0
 10
13.7777596125
 20
0.5046063956
 30
0.0
 10
13.766572811
 20
0.530213514
 30
0.0
 10
13.7537328364
 20
0.555033333
 30
0.0
 10
13.7393996916
 20
0.5787565143
 30
0.0
 10
13.7237518754
 20
0.6010875371
 30
0.0
 10
13.7069838282
 20
0.6217485379
 30
0.0
 10
13.6893036886
 20
0.6404825734
 30
0.0
 10
13.6709286094
 20
0.6570576302
 30
0.0
 10
13.6520873996
 20
0.6712660615
 30
0.0
 10
13.6389943893
 20
0.6792705383
 30
0.0
 10
13.6324321725
 20
0.6827916153
 30
0.0
 11
13.8044744106
 21
0.3756456196
 31
0.0
 11
13.8032242587
 21
0.4003724153
 31
0.0
 11
13.7998465209
 21
0.425937582
 31
0.0
 11
13.7943836578
 21
0.4520197473
 31
0.0
 11
13.7869043415
 21
0.4782910397
 31
0.0
 11
13.7775025925
 21
0.5044212102
 31
0.0
 11
13.7662965976
 21
0.530081784
 31
0.0
 11
13.7534272243
 21
0.5549501893
 31
0.0
 11
13.7390562498
 21
0.5787138127
 31
0.0
 11
13.7233643277
 21
0.6010739287
 31
0.0
 11
13.7065487165
 21
0.6217494549
 31
0.0
 11
13.6888208005
 21
0.6404804854
 31
0.0
 11
13.6704034322
 21
0.6570315581
 31
0.0
 11
13.6515281309
 21
0.6711946146
 31
0.0
 11
13.6324321725
 21
0.6827916153
 31
0.0
  0
SPLINE
  5
2D0
100
AcDbEntity
  8
CURVE
100
AcDbSpline
 62
253
  6
CONTINUOUS
 70
0
 71
3
 72
15
 73
11
 74
9
 42
0.0000001
 43
0.0000001
 44
0.0000000001
 12
-1.2146637064
 22
0.3880502908
 32
0.0
 13
-0.1898087522
 23
-1.3438496514
 33
0.0
 40
0.0
 40
0.0
 40
0.0
 40
0.0
 40
0.125
 40
0.25
 40
0.375
 40
0.5
 40
0.625
 40
0.75
 40
0.875
 40
1.0
 40
1.0
 40
1.0
 40
1.0
 10
-2.5785722364
 20
0.0335729509
 30
0.0
 10
-2.6291832241
 20
0.049741713
 30
0.0
 10
-2.7277428938
 20
0.0716589823
 30
0.0
 10
-2.8693486518
 20
0.0734379658
 30
0.0
 10
-2.9993133963
 20
0.0439055129
 30
0.0
 10
-3.1149255041
 20
-0.0161552285
 30
0.0
 10
-3.2132832642
 20
-0.1051467776
 30
0.0
 10
-3.2920798947
 20
-0.2206076397
 30
0.0
 10
-3.3494218709
 20
-0.3601597305
 30
0.0
 10
-3.3726618199
 20
-0.4653999296
 30
0.0
 10
-3.3805705179
 20
-0.5213936651
 30
0.0
 11
-2.5785722364
 21
0.0335729509
 31
0.0
 11
-2.7267039361
 21
0.0664761622
 31
0.0
 11
-2.8674084829
 21
0.0682193931
 31
0.0
 11
-2.9969212902
 21
0.0388174648
 31
0.0
 11
-3.1120497795
 21
-0.0209770298
 31
0.0
 11
-3.2100230759
 21
-0.1095583298
 31
0.0
 11
-3.288504119
 21
-0.2246228445
 31
0.0
 11
-3.3456748621
 21
-0.3632110985
 31
0.0
 11
-3.3805705179
 21
-0.5213936651
 31
0.0
  0
SPLINE
  5
2D1
100
AcDbEntity
  8
CURVE
100
AcDbSpline
 62
253
  6
CONTINUOUS
 70
0
 71
3
 72
10
 73
6
 74
4
 42
0.0000001
 43
0.0000001
 44
0.0000000001
 12
-0.1386568516
 22
-0.9962828254
 32
0.0
 13
0.0262271097
 23
-1.0774624928
 33
0.0
 40
0.0
 40
0.0
 40
0.0
 40
0.0
 40
0.3333333333
 40
0.6666666667
 40
1.0
 40
1.0
 40
1.0
 40
1.0
 10
-3.3805705179
 20
-0.5213936651
 30
0.0
 10
-3.3959768348
 20
-0.6320917568
 30
0.0
 10
-3.420643382
 20
-0.8566674218
 30
0.0
 10
-3.4393178591
 20
-1.2037110988
 30
0.0
 10
-3.4395794418
 20
-1.4402897591
 30
0.0
 10
-3.4366653185
 20
-1.5600078138
 30
0.0
 11
-3.3805705179
 21
-0.5213936651
 31
0.0
 11
-3.417589158
 21
-0.8583641184
 31
0.0
 11
-3.4362708419
 21
-1.205015151
 31
0.0
 11
-3.4366653185
 21
-1.5600078138
 31
0.0
  0
SPLINE
  5
2D2
100
AcDbEntity
  8
CURVE
100
AcDbSpline
 62
253
  6
CONTINUOUS
 70
0
 71
3
 72
14
 73
10
 74
8
 42
0.0000001
 43
0.0000001
 44
0.0000000001
 12
0.8702910181
 22
-0.590435359
 32
0.0
 13
0.1978979428
 23
-1.1199312528
 33
0.0
 40
0.0
 40
0.0
 40
0.0
 40
0.0
 40
0.1428571429
 40
0.2857142857
 40
0.4285714286
 40
0.5714285714
 40
0.7142857143
 40
0.8571428571
 40
1.0
 40
1.0
 40
1.0
 40
1.0
 10
-1.7064159993
 20
-0.7381664603
 30
0.0
 10
-1.6649735698
 20
-0.7662824298
 30
0.0
 10
-1.5843901385
 20
-0.8297857975
 30
0.0
 10
-1.4684518619
 20
-0.9475611605
 30
0.0
 10
-1.3629611941
 20
-1.0832750197
 30
0.0
 10
-1.2704892445
 20
-1.2327773255
 30
0.0
 10
-1.1939236742
 20
-1.3911853641
 30
0.0
 10
-1.1355964326
 20
-1.5542845535
 30
0.0
 10
-1.1100925037
 20
-1.6611174606
 30
0.0
 10
-1.1006687922
 20
-1.7144475203
 30
0.0
 11
-1.7064159993
 21
-0.7381664603
 31
0.0
 11
-1.5852129502
 21
-0.8335391828
 31
0.0
 11
-1.47019313
 21
-0.9505509099
 31
0.0
 11
-1.3651309804
 21
-1.0855730941
 31
0.0
 11
-1.2731403077
 21
-1.2342616143
 31
0.0
 11
-1.1969633956
 21
-1.3919672226
 31
0.0
 11
-1.1389416573
 21
-1.5538095821
 31
0.0
 11
-1.1006687922
 21
-1.7144475203
 31
0.0
  0
SPLINE
  5
2D3
100
AcDbEntity
  8
CURVE
100
AcDbSpline
 62
253
  6
CONTINUOUS
 70
0
 71
3
 72
10
 73
6
 74
4
 42
0.0000001
 43
0.0000001
 44
0.0000000001
 12
0.7118690086
 22
-0.2437548284
 32
0.0
 13
0.7044725923
 23
-0.4620876901
 33
0.0
 40
0.0
 40
0.0
 40
0.0
 40
0.0
 40
0.3333333333
 40
0.6666666667
 40
1.0
 40
1.0
 40
1.0
 40
1.0
 10
-2.4744219341
 20
-0.3446902308
 30
0.0
 10
-2.3953253776
 20
-0.3717741007
 30
0.0
 10
-2.2371699845
 20
-0.4343412633
 30
0.0
 10
-1.9988247753
 20
-0.5538891592
 30
0.0
 10
-1.8417957956
 20
-0.6487975897
 30
0.0
 10
-1.7635210632
 20
-0.7001406663
 30
0.0
 11
-2.4744219341
 21
-0.3446902308
 31
0.0
 11
-2.2369846313
 21
-0.4386241219
 31
0.0
 11
-1.9992917319
 21
-0.5576916175
 31
0.0
 11
-1.7635210632
 21
-0.7001406663
 31
0.0
  0
SPLINE
  5
2D4
100
AcDbEntity
  8
CURVE
100
AcDbSpline
 62
253
  6
CONTINUOUS
 70
0
 71
3
 72
9
 73
5
 74
3
 42
0.0000001
 43
0.0000001
 44
0.0000000001
 12
0.0893943864
 22
-0.0134502083
 32
0.0
 13
0.0889958301
 23
-0.0286874113
 33
0.0
 40
0.0
 40
0.0
 40
0.0
 40
0.0
 40
0.5
 40
1.0
 40
1.0
 40
1.0
 40
1.0
 10
-2.6201090904
 20
-0.3047802099
 30
0.0
 10
-2.605210026
 20
-0.3070219113
 30
0.0
 10
-2.5754334414
 20
-0.3128222074
 30
0.0
 10
-2.5457304325
 20
-0.3211443277
 30
0.0
 10
-2.5308977941
 20
-0.3259255629
 30
0.0
 11
-2.6201090904
 21
-0.3047802099
 31
0.0
 11
-2.5754518353
 21
-0.3134526635
 31
0.0
 11
-2.5308977941
 21
-0.3259255629
 31
0.0
  0
SPLINE
  5
2D5
100
AcDbEntity
  8
CURVE
100
AcDbSpline
 62
253
  6
CONTINUOUS
 70
0
 71
3
 72
14
 73
10
 74
8
 42
0.0000001
 43
0.0000001
 44
0.0000000001
 12
0.120670115
 22
0.8584988973
 32
0.0
 13
0.7514585355
 23
-0.1128817503
 33
0.0
 40
0.0
 40
0.0
 40
0.0
 40
0.0
 40
0.1428571429
 40
0.2857142857
 40
0.4285714286
 40
0.5714285714
 40
0.7142857143
 40
0.8571428571
 40
1.0
 40
1.0
 40
1.0
 40
1.0
 10
-3.1007764478
 20
-0.7245187557
 30
0.0
 10
-3.0950302518
 20
-0.6836378558
 30
0.0
 10
-3.0776788568
 20
-0.6072547727
 30
0.0
 10
-3.0349503022
 20
-0.5067568812
 30
0.0
 10
-2.9770523286
 20
-0.4236292804
 30
0.0
 10
-2.9048082149
 20
-0.3599297549
 30
0.0
 10
-2.8200478206
 20
-0.3175067382
 30
0.0
 10
-2.7244568207
 20
-0.2972175038
 30
0.0
 10
-2.6558928302
 20
-0.2994048885
 30
0.0
 10
-2.6201090904
 20
-0.3047802099
 30
0.0
 11
-3.1007764478
 21
-0.7245187557
 31
0.0
 11
-3.0748952798
 21
-0.6096008949
 31
0.0
 11
-3.0324220657
 21
-0.5096519296
 31
0.0
 11
-2.9746613052
 21
-0.426867293
 31
0.0
 11
-2.9027221681
 21
-0.3634758397
 31
0.0
 11
-2.8182427197
 21
-0.3211957019
 31
0.0
 11
-2.7232476564
 21
-0.3011458891
 31
0.0
 11
-2.6201090904
 21
-0.3047802099
 31
0.0
  0
SPLINE
  5
2D6
100
AcDbEntity
  8
CURVE
100
AcDbSpline
 62
253
  6
CONTINUOUS
 70
0
 71
3
 72
10
 73
6
 74
4
 42
0.0000001
 43
0.0000001
 44
0.0000000001
 12
-0.0250665181
 22
1.0233870875
 32
0.0
 13
0.130628002
 23
0.9420653929
 33
0.0
 40
0.0
 40
0.0
 40
0.0
 40
0.0
 40
0.3333333333
 40
0.6666666667
 40
1.0
 40
1.0
 40
1.0
 40
1.0
 10
-3.1535245665
 20
-1.708871106
 30
0.0
 10
-3.1563097352
 20
-1.5951614296
 30
0.0
 10
-3.1561116903
 20
-1.3706193004
 30
0.0
 10
-3.1385334995
 20
-1.0417073681
 30
0.0
 10
-3.1152906702
 20
-0.8291926882
 30
0.0
 10
-3.1007764478
 20
-0.7245187557
 30
0.0
 11
-3.1535245665
 21
-1.708871106
 31
0.0
 11
-3.1532315031
 21
-1.3719361773
 31
0.0
 11
-3.1356524907
 21
-1.0433973535
 31
0.0
 11
-3.1007764478
 21
-0.7245187557
 31
0.0
  0
SPLINE
  5
2D7
100
AcDbEntity
  8
CURVE
100
AcDbSpline
 62
253
  6
CONTINUOUS
 70
0
 71
3
 72
10
 73
6
 74
4
 42
0.0000001
 43
0.0000001
 44
0.0000000001
 12
-0.2496579462
 22
1.2321562966
 32
0.0
 13
-0.0524975775
 23
1.1610555269
 33
0.0
 40
0.0
 40
0.0
 40
0.0
 40
0.0
 40
0.3333333333
 40
0.6666666667
 40
1.0
 40
1.0
 40
1.0
 40
1.0
 10
-2.9984737267
 20
-3.0266396741
 30
0.0
 10
-3.0262134985
 20
-2.8897334189
 30
0.0
 10
-3.0743388058
 20
-2.618401703
 30
0.0
 10
-3.1247434239
 20
-2.2177179501
 30
0.0
 10
-3.1437048481
 20
-1.956902876
 30
0.0
 10
-3.1495379123
 20
-1.8278967063
 30
0.0
 11
-2.9984737267
 21
-3.0266396741
 31
0.0
 11
-3.0707082487
 21
-2.6194540065
 31
0.0
 11
-3.1210830103
 21
-2.2192948071
 31
0.0
 11
-3.1495379123
 21
-1.8278967063
 31
0.0
  0
SPLINE
  5
2D8
100
AcDbEntity
  8
CURVE
100
AcDbSpline
 62
253
  6
CONTINUOUS
 70
0
 71
3
 72
10
 73
6
 74
4
 42
0.0000001
 43
0.0000001
 44
0.0000000001
 12
0.0553172448
 22
-1.2256190903
 32
0.0
 13
0.2645430375
 23
-1.3005029638
 33
0.0
 40
0.0
 40
0.0
 40
0.0
 40
0.0
 40
0.3333333333
 40
0.6666666667
 40
1.0
 40
1.0
 40
1.0
 40
1.0
 10
-3.4324244492
 20
-1.6864534379
 30
0.0
 10
-3.4262780887
 20
-1.8226333368
 30
0.0
 10
-3.406249212
 20
-2.0979417862
 30
0.0
 10
-3.3529058614
 20
-2.5208586566
 30
0.0
 10
-3.3019241581
 20
-2.8072449036
 30
0.0
 10
-3.2725304873
 20
-2.9517452329
 30
0.0
 11
-3.4324244492
 21
-1.6864534379
 31
0.0
 11
-3.4023658728
 21
-2.0996008189
 31
0.0
 11
-3.349050994
 21
-2.5219690733
 31
0.0
 11
-3.2725304873
 21
-2.9517452329
 31
0.0
  0
SPLINE
  5
2D9
100
AcDbEntity
  8
CURVE
100
AcDbSpline
 62
253
  6
CONTINUOUS
 70
0
 71
3
 72
15
 73
11
 74
9
 42
0.0000001
 43
0.0000001
 44
0.0000000001
 12
0.314449904
 22
-1.5466733323
 32
0.0
 13
1.2265865131
 23
-0.8212786561
 33
0.0
 40
0.0
 40
0.0
 40
0.0
 40
0.0
 40
0.125
 40
0.25
 40
0.375
 40
0.5
 40
0.625
 40
0.75
 40
0.875
 40
1.0
 40
1.0
 40
1.0
 40
1.0
 10
-3.2725304873
 20
-2.9517452329
 30
0.0
 10
-3.259428408
 20
-3.0161899551
 30
0.0
 10
-3.2258416582
 20
-3.1454602918
 30
0.0
 10
-3.1534556817
 20
-3.3427000076
 30
0.0
 10
-3.060906846
 20
-3.5362517436
 30
0.0
 10
-2.9505406673
 20
-3.7223766062
 30
0.0
 10
-2.824893604
 20
-3.8966427471
 30
0.0
 10
-2.6872226312
 20
-4.0548002081
 30
0.0
 10
-2.5401960213
 20
-4.193174408
 30
0.0
 10
-2.4398072135
 20
-4.2693896654
 30
0.0
 10
-2.3886994421
 20
-4.3036096094
 30
0.0
 11
-3.2725304873
 21
-2.9517452329
 31
0.0
 11
-3.2221740162
 21
-3.1460159936
 31
0.0
 11
-3.1500952052
 21
-3.3420853443
 31
0.0
 11
-3.0579372888
 21
-3.5350139313
 31
0.0
 11
-2.9479938532
 21
-3.7204001525
 31
0.0
 11
-2.8228896191
 21
-3.8939579671
 31
0.0
 11
-2.6856633583
 21
-4.0515029979
 31
0.0
 11
-2.5396032543
 21
-4.1891658557
 31
0.0
 11
-2.3886994421
 21
-4.3036096094
 31
0.0
  0
SPLINE
  5
2DA
100
AcDbEntity
  8
CURVE
100
AcDbSpline
 62
253
  6
CONTINUOUS
 70
0
 71
3
 72
14
 73
10
 74
8
 42
0.0000001
 43
0.0000001
 44
0.0000000001
 12
-0.8771784164
 22
0.5880941984
 32
0.0
 13
-0.2242576262
 23
1.107330688
 33
0.0
 40
0.0
 40
0.0
 40
0.0
 40
0.0
 40
0.1428571429
 40
0.2857142857
 40
0.4285714286
 40
0.5714285714
 40
0.7142857143
 40
0.8571428571
 40
1.0
 40
1.0
 40
1.0
 40
1.0
 10
-2.3704258299
 20
-3.9919804675
 30
0.0
 10
-2.4121962306
 20
-3.9639759819
 30
0.0
 10
-2.4937592305
 20
-3.9008758315
 30
0.0
 10
-2.6120669232
 20
-3.7842183436
 30
0.0
 10
-2.7206750145
 20
-3.6500535353
 30
0.0
 10
-2.816801976
 20
-3.5024045791
 30
0.0
 10
-2.897330771
 20
-3.3460071416
 30
0.0
 10
-2.9597119166
 20
-3.1849501248
 30
0.0
 10
-2.9877947921
 20
-3.0793697068
 30
0.0
 10
-2.9984737267
 20
-3.0266396741
 30
0.0
 11
-2.3704258299
 21
-3.9919804675
 31
0.0
 11
-2.4930864293
 21
-3.8972079544
 31
0.0
 11
-2.610450323
 21
-3.7813004569
 31
0.0
 11
-2.7185948262
 21
-3.6478061773
 31
0.0
 11
-2.8142022816
 21
-3.5009464989
 31
0.0
 11
-2.8943061628
 21
-3.345230545
 31
0.0
 11
-2.9563357779
 21
-3.1853978565
 31
0.0
 11
-2.9984737267
 21
-3.0266396741
 31
0.0
  0
SPLINE
  5
2DB
100
AcDbEntity
  8
CURVE
100
AcDbSpline
 62
253
  6
CONTINUOUS
 70
0
 71
3
 72
10
 73
6
 74
4
 42
0.0000001
 43
0.0000001
 44
0.0000000001
 12
-0.7104608732
 22
0.2471216119
 32
0.0
 13
-0.7056981579
 23
0.4581750492
 33
0.0
 40
0.0
 40
0.0
 40
0.0
 40
0.0
 40
0.3333333333
 40
0.6666666667
 40
1.0
 40
1.0
 40
1.0
 40
1.0
 10
-1.6021069588
 20
-4.3850901505
 30
0.0
 10
-1.6810470558
 20
-4.3576321936
 30
0.0
 10
-1.8389961424
 20
-4.2945207417
 30
0.0
 10
-2.0773743549
 20
-4.1749095787
 30
0.0
 10
-2.2345969233
 20
-4.0805480538
 30
0.0
 10
-2.3130078298
 20
-4.029639715
 30
0.0
 11
-1.6021069588
 21
-4.3850901505
 31
0.0
 11
-1.8392385729
 21
-4.2903634109
 31
0.0
 11
-2.0769502949
 21
-4.1712543913
 31
0.0
 11
-2.3130078298
 21
-4.029639715
 31
0.0
  0
SPLINE
  5
2DC
100
AcDbEntity
  8
CURVE
100
AcDbSpline
 62
253
  6
CONTINUOUS
 70
0
 71
3
 72
14
 73
10
 74
8
 42
0.0000001
 43
0.0000001
 44
0.0000000001
 12
-0.1093527809
 22
-0.9525921608
 32
0.0
 13
-0.8632560249
 23
0.2794449196
 33
0.0
 40
0.0
 40
0.0
 40
0.0
 40
0.0
 40
0.1428571429
 40
0.2857142857
 40
0.4285714286
 40
0.5714285714
 40
0.7142857143
 40
0.8571428571
 40
1.0
 40
1.0
 40
1.0
 40
1.0
 10
-0.9986161903
 20
-4.0168426754
 30
0.0
 10
-1.0038234655
 20
-4.0622042068
 30
0.0
 10
-1.021715573
 20
-4.1456775876
 30
0.0
 10
-1.0687838716
 20
-4.252536219
 30
0.0
 10
-1.1339616727
 20
-4.3373915228
 30
0.0
 10
-1.2167173171
 20
-4.3973987653
 30
0.0
 10
-1.3147739824
 20
-4.4303697939
 30
0.0
 10
-1.4257999561
 20
-4.4345099814
 30
0.0
 10
-1.5048975066
 20
-4.4174978152
 30
0.0
 10
-1.5460049363
 20
-4.4041909143
 30
0.0
 11
-0.9986161903
 21
-4.0168426754
 31
0.0
 11
-1.0250872625
 21
-4.1426190143
 31
0.0
 11
-1.071802122
 21
-4.2488689977
 31
0.0
 11
-1.1368913132
 21
-4.3332501793
 31
0.0
 11
-1.2192674873
 21
-4.3928927297
 31
0.0
 11
-1.3169355338
 21
-4.4255646537
 31
0.0
 11
-1.4270700148
 21
-4.4295669086
 31
0.0
 11
-1.5460049363
 21
-4.4041909143
 31
0.0
  0
SPLINE
  5
2DD
100
AcDbEntity
  8
CURVE
100
AcDbSpline
 62
253
  6
CONTINUOUS
 70
0
 71
3
 72
10
 73
6
 74
4
 42
0.0000001
 43
0.0000001
 44
0.0000000001
 12
0.0277045826
 22
-1.0193029935
 32
0.0
 13
-0.1053194391
 23
-0.9317737198
 33
0.0
 40
0.0
 40
0.0
 40
0.0
 40
0.0
 40
0.3333333333
 40
0.6666666667
 40
1.0
 40
1.0
 40
1.0
 40
1.0
 10
-0.9600663406
 20
-3.0396503609
 30
0.0
 10
-0.9569880537
 20
-3.152906249
 30
0.0
 10
-0.955717813
 20
-3.3763198377
 30
0.0
 10
-0.9685072282
 20
-3.7028466563
 30
0.0
 10
-0.9869140304
 20
-3.9133122621
 30
0.0
 10
-0.9986161903
 20
-4.0168426754
 30
0.0
 11
-0.9600663406
 21
-3.0396503609
 31
0.0
 11
-0.9581669423
 21
-3.3748875769
 31
0.0
 11
-0.9709773595
 21
-3.7010419213
 31
0.0
 11
-0.9986161903
 21
-4.0168426754
 31
0.0
  0
SPLINE
  5
2DE
100
AcDbEntity
  8
CURVE
100
AcDbSpline
 62
253
  6
CONTINUOUS
 70
0
 71
3
 72
10
 73
6
 74
4
 42
0.0000001
 43
0.0000001
 44
0.0000000001
 12
0.792918253
 22
-0.5137533271
 32
0.0
 13
0.7739351055
 23
-0.2697164615
 33
0.0
 40
0.0
 40
0.0
 40
0.0
 40
0.0
 40
0.3333333333
 40
0.6666666667
 40
1.0
 40
1.0
 40
1.0
 40
1.0
 10
-2.3285885673
 20
-4.3431378839
 30
0.0
 10
-2.2404865392
 20
-4.4002215869
 30
0.0
 10
-2.0647372284
 20
-4.5053066956
 30
0.0
 10
-1.801171593
 20
-4.6370851183
 30
0.0
 10
-1.6282237756
 20
-4.7063481788
 30
0.0
 10
-1.5422309861
 20
-4.7363166745
 30
0.0
 11
-2.3285885673
 21
-4.3431378839
 31
0.0
 11
-2.0647469502
 21
-4.5009984889
 31
0.0
 11
-1.8018622445
 21
-4.632437813
 31
0.0
 11
-1.5422309861
 21
-4.7363166745
 31
0.0
  0
SPLINE
  5
2DF
100
AcDbEntity
  8
CURVE
100
AcDbSpline
 62
253
  6
CONTINUOUS
 70
0
 71
3
 72
10
 73
6
 74
4
 42
0.0000001
 43
0.0000001
 44
0.0000000001
 12
0.2204731732
 22
-1.2457908722
 32
0.0
 13
0.052538627
 23
-1.1619484895
 33
0.0
 40
0.0
 40
0.0
 40
0.0
 40
0.0
 40
0.3333333333
 40
0.6666666667
 40
1.0
 40
1.0
 40
1.0
 40
1.0
 10
-1.1006687922
 20
-1.7144475203
 30
0.0
 10
-1.0761717729
 20
-1.8528687283
 30
0.0
 10
-1.0334611303
 20
-2.1267807579
 30
0.0
 10
-0.987943726
 20
-2.5299497949
 30
0.0
 10
-0.9700542017
 20
-2.7914519865
 30
0.0
 10
-0.9642165765
 20
-2.9205573742
 30
0.0
 11
-1.1006687922
 21
-1.7144475203
 31
0.0
 11
-1.0365525569
 21
-2.12549759
 31
0.0
 11
-0.991057579
 21
-2.5281305033
 31
0.0
 11
-0.9642165765
 21
-2.9205573742
 31
0.0
  0
SPLINE
  5
2E0
100
AcDbEntity
  8
CURVE
100
AcDbSpline
 62
253
  6
CONTINUOUS
 70
0
 71
3
 72
15
 73
11
 74
9
 42
0.0000001
 43
0.0000001
 44
0.0000000001
 12
1.2050857138
 22
-0.3935431076
 32
0.0
 13
0.1513794294
 23
1.3250052655
 33
0.0
 40
0.0
 40
0.0
 40
0.0
 40
0.0
 40
0.125
 40
0.25
 40
0.375
 40
0.5
 40
0.625
 40
0.75
 40
0.875
 40
1.0
 40
1.0
 40
1.0
 40
1.0
 10
-1.4835843265
 20
-4.7561671672
 30
0.0
 10
-1.4333724218
 20
-4.7725647967
 30
0.0
 10
-1.336060937
 20
-4.7951464348
 30
0.0
 10
-1.1976646204
 20
-4.7984122699
 30
0.0
 10
-1.0719488676
 20
-4.7709456367
 30
0.0
 10
-0.9613025336
 20
-4.7134830239
 30
0.0
 10
-0.8683564206
 20
-4.6273351096
 30
0.0
 10
-0.7951401027
 20
-4.5147576162
 30
0.0
 10
-0.7433290334
 20
-4.3779462575
 30
0.0
 10
-0.7234791902
 20
-4.2743511156
 30
0.0
 10
-0.717171714
 20
-4.2191425628
 30
0.0
 11
-1.4835843265
 21
-4.7561671672
 31
0.0
 11
-1.3373227554
 21
-4.7900453311
 31
0.0
 11
-1.1997780477
 21
-4.7932901918
 31
0.0
 11
-1.0744604374
 21
-4.7659463068
 31
0.0
 11
-0.9642525704
 21
-4.7087021403
 31
0.0
 11
-0.8716447198
 21
-4.6229301797
 31
0.0
 11
-0.7987076441
 21
-4.5107186386
 31
0.0
 11
-0.7470017508
 21
-4.3748493651
 31
0.0
 11
-0.717171714
 21
-4.2191425628
 31
0.0
  0
SPLINE
  5
2E1
100
AcDbEntity
  8
CURVE
100
AcDbSpline
 62
253
  6
CONTINUOUS
 70
0
 71
3
 72
10
 73
6
 74
4
 42
0.0000001
 43
0.0000001
 44
0.0000000001
 12
0.1103318973
 22
0.9823646215
 32
0.0
 13
-0.0294354503
 23
1.0758304367
 33
0.0
 40
0.0
 40
0.0
 40
0.0
 40
0.0
 40
0.3333333333
 40
0.6666666667
 40
1.0
 40
1.0
 40
1.0
 40
1.0
 10
-0.717171714
 20
-4.2191425628
 30
0.0
 10
-0.7049126142
 20
-4.1099909382
 30
0.0
 10
-0.6856431169
 20
-3.888057238
 30
0.0
 10
-0.6723013187
 20
-3.5436224385
 30
0.0
 10
-0.673702289
 20
-3.3078639428
 30
0.0
 10
-0.6769728946
 20
-3.1883272276
 30
0.0
 11
-0.717171714
 21
-4.2191425628
 31
0.0
 11
-0.6882368582
 21
-3.8861348631
 31
0.0
 11
-0.6748751943
 21
-3.5420886145
 31
0.0
 11
-0.6769728946
 21
-3.1883272276
 31
0.0
  0
SPLINE
  5
2E2
100
AcDbEntity
  8
CURVE
100
AcDbSpline
 62
253
  6
CONTINUOUS
 70
0
 71
3
 72
10
 73
6
 74
4
 42
0.0000001
 43
0.0000001
 44
0.0000000001
 12
-0.0555772137
 22
1.2274050667
 32
0.0
 13
-0.2317059
 23
1.3145845356
 33
0.0
 40
0.0
 40
0.0
 40
0.0
 40
0.0
 40
0.3333333333
 40
0.6666666667
 40
1.0
 40
1.0
 40
1.0
 40
1.0
 10
-0.6813300396
 20
-3.0620006427
 30
0.0
 10
-0.6875052855
 20
-2.925622302
 30
0.0
 10
-0.7063763292
 20
-2.6494383681
 30
0.0
 10
-0.754278131
 20
-2.2238011603
 30
0.0
 10
-0.7991822293
 20
-1.9347137358
 30
0.0
 10
-0.8249273293
 20
-1.7886487874
 30
0.0
 11
-0.6813300396
 21
-3.0620006427
 31
0.0
 11
-0.7096422019
 21
-2.6475448169
 31
0.0
 11
-0.757520522
 21
-2.2224688388
 31
0.0
 11
-0.8249273293
 21
-1.7886487874
 31
0.0
  0
SPLINE
  5
2E3
100
AcDbEntity
  8
CURVE
100
AcDbSpline
 62
253
  6
CONTINUOUS
 70
0
 71
3
 72
15
 73
11
 74
9
 42
0.0000001
 43
0.0000001
 44
0.0000000001
 12
-0.275753485
 22
1.5658122453
 32
0.0
 13
-1.2151899625
 23
0.8257532658
 33
0.0
 40
0.0
 40
0.0
 40
0.0
 40
0.0
 40
0.125
 40
0.25
 40
0.375
 40
0.5
 40
0.625
 40
0.75
 40
0.875
 40
1.0
 40
1.0
 40
1.0
 40
1.0
 10
-0.8249273293
 20
-1.7886487874
 30
0.0
 10
-0.8364170578
 20
-1.7234066105
 30
0.0
 10
-0.8666298593
 20
-1.5924424932
 30
0.0
 10
-0.9335815682
 20
-1.392341921
 30
0.0
 10
-1.0206439543
 20
-1.1958649928
 30
0.0
 10
-1.1257051013
 20
-1.0069413006
 30
0.0
 10
-1.2464845359
 20
-0.830200995
 30
0.0
 10
-1.3799896327
 20
-0.67002306
 30
0.0
 10
-1.5237991313
 20
-0.5301877601
 30
0.0
 10
-1.6228242057
 20
-0.453390993
 30
0.0
 10
-1.6734571208
 20
-0.4189846069
 30
0.0
 11
-0.8249273293
 21
-1.7886487874
 31
0.0
 11
-0.8702352771
 21
-1.5918334272
 31
0.0
 11
-0.9369333478
 21
-1.3929458617
 31
0.0
 11
-1.0236437478
 21
-1.1971238655
 31
0.0
 11
-1.1283248159
 21
-1.008971865
 31
0.0
 11
-1.2486054796
 21
-0.8329613901
 31
0.0
 11
-1.381707033
 21
-0.6734134991
 31
0.0
 11
-1.5245871501
 21
-0.5342944516
 31
0.0
 11
-1.6734571208
 21
-0.4189846069
 31
0.0
  0
SPLINE
  5
2E4
100
AcDbEntity
  8
CURVE
100
AcDbSpline
 62
253
  6
CONTINUOUS
 70
0
 71
3
 72
10
 73
6
 74
4
 42
0.0000001
 43
0.0000001
 44
0.0000000001
 12
-0.7837770098
 22
0.5149944228
 32
0.0
 13
-0.7830787944
 23
0.2679197831
 33
0.0
 40
0.0
 40
0.0
 40
0.0
 40
0.0
 40
0.3333333333
 40
0.6666666667
 40
1.0
 40
1.0
 40
1.0
 40
1.0
 10
-1.7330909477
 20
-0.3793669856
 30
0.0
 10
-1.8201772821
 20
-0.3221453831
 30
0.0
 10
-1.9945664734
 20
-0.2168362021
 30
0.0
 10
-2.2581292029
 20
-0.0849983175
 30
0.0
 10
-2.432439774
 20
-0.0159570598
 30
0.0
 10
-2.5194485289
 20
0.013811805
 30
0.0
 11
-1.7330909477
 21
-0.3793669856
 31
0.0
 11
-1.9948962972
 21
-0.2211905166
 31
0.0
 11
-2.2577797241
 21
-0.0897109839
 31
0.0
 11
-2.5194485289
 21
0.013811805
 31
0.0
  0
ELLIPSE
  5
2E5
100
AcDbEntity
  8
RACCORDO
100
AcDbEllipse
 62
7
  6
CONTINUOUS
 10
-13.8083017359
 20
17.9105818343
 30
0.0
 11
-0.1119858744
 21
0.2236318019
 31
0.0
 40
0.6122594231
 41
-0.6852493493
 42
0.0223236952
  0
ELLIPSE
  5
2E6
100
AcDbEntity
  8
RACCORDO
100
AcDbEllipse
 62
7
  6
CONTINUOUS
 10
17.445602486
 20
2.2836297233
 30
0.0
 11
-0.1119259236
 21
0.2235783474
 31
0.0
 40
0.6126250184
 41
-2.2559124555
 42
-0.6854206804
  0
ELLIPSE
  5
2E7
100
AcDbEntity
  8
0
100
AcDbEllipse
 62
7
  6
CONTINUOUS
 10
16.7174804597
 20
-16.3830999315
 30
0.0
 11
-0.1826272431
 21
0.4654700168
 31
0.0
 40
0.6543766329
 41
-3.1348732976
 42
-2.2008763123
  0
ELLIPSE
  5
2E8
100
AcDbEntity
  8
ASSI
100
AcDbEllipse
 62
7
  6
CONTINUOUS
 10
-13.8083017359
 20
17.9105818343
 30
0.0
 11
-0.1119858744
 21
0.2236318019
 31
0.0
 40
0.6122594231
 41
-0.6852493493
 42
0.0223236952
  0
ELLIPSE
  5
2E9
100
AcDbEntity
  8
ASSI
100
AcDbEllipse
 62
7
  6
CONTINUOUS
 10
17.445602486
 20
2.2836297233
 30
0.0
 11
-0.1119259236
 21
0.2235783474
 31
0.0
 40
0.6126250184
 41
-2.2559124555
 42
-0.6854206804
  0
ELLIPSE
  5
2EA
100
AcDbEntity
  8
ASSI
100
AcDbEllipse
 62
7
  6
CONTINUOUS
 10
16.7174804597
 20
-16.3830999315
 30
0.0
 11
-0.1826272431
 21
0.4654700168
 31
0.0
 40
0.6543766329
 41
-3.1348732976
 42
-2.2008763123
  0
ELLIPSE
  5
2EB
100
AcDbEntity
  8
CURVE
100
AcDbEllipse
 62
253
  6
CONTINUOUS
 10
72.0749011596
 20
28.1871954415
 30
0.0
 11
466.6837030704
 21
-149.2069471741
 31
0.0
 40
0.1019670536
 41
-1.6987772682
 42
-1.6986489977
  0
ELLIPSE
  5
2EC
100
AcDbEntity
  8
CURVE
100
AcDbEllipse
 62
253
  6
CONTINUOUS
 10
48.9915196885
 20
39.7288861771
 30
0.0
 11
460.3791626223
 21
-303.8640822002
 31
0.0
 40
0.1119286367
 41
-1.6072233
 42
-1.6070988442
  0
ELLIPSE
  5
2ED
100
AcDbEntity
  8
CURVE
100
AcDbEllipse
 62
253
  6
CONTINUOUS
 10
73.9581044793
 20
27.2455937817
 30
0.0
 11
459.9329656908
 21
-145.7273058791
 31
0.0
 40
0.1032930371
 41
-1.7050708705
 42
-1.7049464147
  0
ELLIPSE
  5
2EE
100
AcDbEntity
  8
CURVE
100
AcDbEllipse
 62
253
  6
CONTINUOUS
 10
60.4416387336
 20
34.0038266545
 30
0.0
 11
41.1528701914
 21
80.0442867273
 31
0.0
 40
0.6065242656
 41
-3.97012105
 42
-3.9685514479
  0
ELLIPSE
  5
2EF
100
AcDbEntity
  8
CURVE
100
AcDbEllipse
 62
253
  6
CONTINUOUS
 10
60.1584020009
 20
34.1454450209
 30
0.0
 11
41.144769852
 21
80.0483782475
 31
0.0
 40
0.6065777606
 41
-3.9702793497
 42
-3.968612011
  0
ELLIPSE
  5
2F0
100
AcDbEntity
  8
CURVE
100
AcDbEllipse
 62
253
  6
CONTINUOUS
 10
25.6853528957
 20
51.3819695735
 30
0.0
 11
466.9891787955
 21
-307.2160167348
 31
0.0
 40
0.110352866
 41
-1.5582823597
 42
-1.5581595085
  0
ELLIPSE
  5
2F1
100
AcDbEntity
  8
CURVE
100
AcDbEllipse
 62
253
  6
CONTINUOUS
 10
24.1831112415
 20
52.1330904006
 30
0.0
 11
459.8637479613
 21
-303.6026747316
 31
0.0
 40
0.1120533725
 41
-1.5546094426
 42
-1.5544788678
  0
ELLIPSE
  5
2F2
100
AcDbEntity
  8
CURVE
100
AcDbEllipse
 62
253
  6
CONTINUOUS
 10
97.2304258263
 20
15.6094331082
 30
0.0
 11
466.9850417227
 21
-149.3621934169
 31
0.0
 40
0.1019085944
 41
-1.7513503783
 42
-1.7512275272
  0
ELLIPSE
  5
2F3
100
AcDbEntity
  8
CURVE
100
AcDbEllipse
 62
253
  6
CONTINUOUS
 10
62.6269130065
 20
32.9111895181
 30
0.0
 11
41.1517816897
 21
80.0448365558
 31
0.0
 40
0.6065314552
 41
-3.9685595856
 42
-3.9669879378
  0
ELLIPSE
  5
2F4
100
AcDbEntity
  8
CURVE
100
AcDbEllipse
 62
253
  6
CONTINUOUS
 10
98.7330757309
 20
14.8581081559
 30
0.0
 11
459.9472217747
 21
-145.7346576856
 31
0.0
 40
0.1032902035
 41
-1.7577407684
 42
-1.7576101936
  0
ELLIPSE
  5
2F5
100
AcDbEntity
  8
CURVE
100
AcDbEllipse
 62
253
  6
CONTINUOUS
 10
62.9114084797
 20
32.7689417815
 30
0.0
 11
41.1889757648
 21
80.0260452265
 31
0.0
 40
0.6062855849
 41
-3.9682816206
 42
-3.9666141364
  0
ELLIPSE
  5
2F6
100
AcDbEntity
  8
CURVE
100
AcDbEllipse
 62
253
  6
CONTINUOUS
 10
50.8934352724
 20
38.7779283851
 30
0.0
 11
466.6423263298
 21
-307.0401521525
 31
0.0
 40
0.1104344647
 41
-1.6109794125
 42
-1.6108511421
  0
ENDSEC
  0
SECTION
  2
OBJECTS
  0
DICTIONARY
  5
C
100
AcDbDictionary
280
0
281
1
  3
ACAD_GROUP
350
D
  3
ACAD_MLINESTYLE
350
17
  3
ACAD_LAYOUT
350
1A
  3
ACAD_PLOTSETTINGS
350
19
  3
ACAD_PLOTSTYLENAME
350
E
  0
DICTIONARY
  5
D
102
{ACAD_REACTORS
330
C
102
}
100
AcDbDictionary
280
0
281
1
  0
ACDBDICTIONARYWDFLT
  5
E
102
{ACAD_REACTORS
330
C
102
}
100
AcDbDictionary
281
1
  3
Normal
350
F
100
AcDbDictionaryWithDefault
340
F
  0
DICTIONARY
  5
17
102
{ACAD_REACTORS
330
C
102
}
100
AcDbDictionary
280
0
281
1
  3
Standard
350
18
  0
DICTIONARY
  5
19
102
{ACAD_REACTORS
330
C
102
}
100
AcDbDictionary
281
1
  0
DICTIONARY
  5
1A
102
{ACAD_REACTORS
330
C
102
}
100
AcDbDictionary
281
1
  3
Model
350
2F7
  3
Layout1
350
2F8
  0
ACDBPLACEHOLDER
  5
F
102
{ACAD_REACTORS
330
E
102
}
  0
MLINESTYLE
  5
18
102
{ACAD_REACTORS
330
17
102
}
100
AcDbMlineStyle
  2
STANDARD
 70
0
  3

 62
256
 51
90.0
 52
90.0
 71
2
 49
0.5
 62
256
  6
BYLAYER
 49
-0.5
 62
256
  6
BYLAYER
  0
LAYOUT
  5
2F7
102
{ACAD_REACTORS
330
1A
102
}
100
AcDbPlotSettings
  1

  2
none_device
  4
ISO_A4_(297.00_x_210.00_MM)
  6

 40
0.0
 41
0.0
 42
0.0
 43
0.0
 44
297.0
 45
210.0
 46
0.0
 47
0.0
 48
0.0
 49
0.0
140
0.0
141
0.0
142
1.0
143
1.0
 70
1024
 72
1
 73
0
 74
0
  7

 75
0
147
1.0
148
0.0
149
0.0
100
AcDbLayout
  1
Model
 70
0
 71
0
 10
0.0
 20
0.0
 11
297.0
 21
210.0
 12
0.0
 22
0.0
 32
0.0
 14
0.0
 24
0.0
 34
0.0
 15
0.0
 25
0.0
 35
0.0
146
0.0
 13
0.0
 23
0.0
 33
0.0
 16
1.0
 26
0.0
 36
0.0
 17
0.0
 27
1.0
 37
0.0
 76
0
330
217
345
0
346
0
  0
LAYOUT
  5
2F8
102
{ACAD_REACTORS
330
1A
102
}
100
AcDbPlotSettings
  1

  2
none_device
  4
ISO_A4_(297.00_x_210.00_MM)
  6

 40
0.0
 41
0.0
 42
0.0
 43
0.0
 44
297.0
 45
210.0
 46
0.0
 47
0.0
 48
0.0
 49
0.0
140
0.0
141
0.0
142
1.0
143
1.0
 70
0
 72
1
 73
0
 74
0
  7

 75
0
147
1.0
148
0.0
149
0.0
100
AcDbLayout
  1
Layout1
 70
0
 71
1
 10
0.0
 20
0.0
 11
297.0
 21
210.0
 12
0.0
 22
0.0
 32
0.0
 14
0.0
 24
0.0
 34
0.0
 15
0.0
 25
0.0
 35
0.0
146
0.0
 13
0.0
 23
0.0
 33
0.0
 16
1.0
 26
0.0
 36
0.0
 17
0.0
 27
1.0
 37
0.0
 76
0
330
218
345
0
346
0
  0
ENDSEC
  0
EOF
