  0
SECTION
  2
HEADER
  9
$ACADVER
  1
AC1015
  9
$DWGCODEPAGE
  3
ANSI_1252
  9
$EXTMAX
 10
297.0
 20
210.0
 30
0.0
  9
$EXTMIN
 10
0.0
 20
0.0
 30
0.0
  9
$LIMMIN
 10
0.0
 20
0.0
  9
$LIMMAX
 10
297.0
 20
210.0
  9
$VIEWCTR
 10
148.5
 20
105.0
  9
$VIEWSIZE
 40
210.0
  9
$CLAYER
  8
0
  9
$LTSCALE
 40
16.335
  9
$CELTYPE
  6
BYLAYER
  9
$DIMSCALE
 40
1.0
  9
$DIMASZ
 40
3.0
  9
$DIMEXO
 40
1.85625
  9
$DIMDLI
 40
11.286
  9
$DIMEXE
 40
5.346
  9
$DIMCEN
 40
2.673
  9
$DIMLFAC
 40
1.0
  9
$DIMBLK
  1
_FILLED
  9
$DIMTXT
 40
3.0
  9
$DIMTOL
 70
1
  9
$DIMLIM
 70
0
  9
$DIMTFAC
 40
1.0
  9
$DIMTP
 40
0.01
  9
$DIMTM
 40
0.01
  9
$PDMODE
 70
3
  9
$PDSIZE
 40
3.0
  9
$HANDSEED
  5
2DC
  9
$TILEMODE
 70
1
  9
$MEASUREMENT
 70
1
  9
$INSUNITS
 70
4
  0
ENDSEC
  0
SECTION
  2
CLASSES
  0
CLASS
  1
ACDBDICTIONARYWDFLT
  2
AcDbDictionaryWithDefault
  3
AutoCAD 2000
 90
0
280
0
281
0
  0
CLASS
  1
ACDBPLACEHOLDER
  2
AcDbPlaceHolder
  3
AutoCAD 2000
 90
0
280
0
281
0
  0
CLASS
  1
LAYOUT
  2
AcDbLayout
  3
AutoCAD 2000
 90
0
280
0
281
0
  0
ENDSEC
  0
SECTION
  2
TABLES
  0
TABLE
  2
VPORT
  5
8
100
AcDbSymbolTable
 70
2
  0
VPORT
  5
1F4
100
AcDbSymbolTableRecord
100
AcDbViewportTableRecord
  2
*ACTIVE
 70
0
 10
0.0
 20
0.0
 11
1.0
 21
1.0
 12
148.5
 22
105.0
 13
0.0
 23
0.0
 14
1.0
 24
1.0
 15
0.0
 25
0.0
 16
0.0
 26
0.0
 36
1.0
 17
0.0
 27
0.0
 37
0.0
 40
210.0
 41
1.4142857143
 42
50.0
 43
0.0
 44
0.0
 50
0.0
 51
0.0
 71
0
 72
100
 73
1
 74
1
 75
0
 76
0
 77
0
 78
0
  0
ENDTAB
  0
TABLE
  2
LTYPE
  5
5
100
AcDbSymbolTable
 70
6
  0
LTYPE
  5
14
100
AcDbSymbolTableRecord
100
AcDbLinetypeTableRecord
  2
BYBLOCK
 70
0
  3

 72
65
 73
0
 40
0.0
  0
LTYPE
  5
15
100
AcDbSymbolTableRecord
100
AcDbLinetypeTableRecord
  2
BYLAYER
 70
0
  3

 72
65
 73
0
 40
0.0
  0
LTYPE
  5
16
100
AcDbSymbolTableRecord
100
AcDbLinetypeTableRecord
  2
CONTINUOUS
 70
64
  3
Solid line
 72
65
 73
0
 40
0.0
  0
LTYPE
  5
1F5
100
AcDbSymbolTableRecord
100
AcDbLinetypeTableRecord
  2
CENTER
 70
64
  3
____ _ ____ _ ____ _ ____ _ ____ _ ____ _ ____
 72
65
 73
4
 40
0.6
 49
0.375
 74
0
 49
-0.075
 74
0
 49
0.075
 74
0
 49
-0.075
 74
0
  0
LTYPE
  5
1F6
100
AcDbSymbolTableRecord
100
AcDbLinetypeTableRecord
  2
HIDDEN
 70
64
  3
- - - - - - - - - - - - - - - - - - - -
 72
65
 73
2
 40
0.2
 49
0.1
 74
0
 49
-0.1
 74
0
  0
LTYPE
  5
1F7
100
AcDbSymbolTableRecord
100
AcDbLinetypeTableRecord
  2
PHANTOM
 70
64
  3
_____ _ _ _____ _ _ _____ _ _ _____
 72
65
 73
6
 40
0.8
 49
0.45
 74
0
 49
-0.05
 74
0
 49
0.1
 74
0
 49
-0.05
 74
0
 49
0.1
 74
0
 49
-0.05
 74
0
  0
LTYPE
  5
1F8
100
AcDbSymbolTableRecord
100
AcDbLinetypeTableRecord
  2
DOT
 70
64
  3
. . . . . . . . . . . . . . . . . . . .
 72
65
 73
2
 40
0.2
 49
0.1
 74
0
 49
-0.1
 74
0
  0
LTYPE
  5
1F9
100
AcDbSymbolTableRecord
100
AcDbLinetypeTableRecord
  2
DASHED
 70
64
  3
- - - - - - - - - - - - - - - - - - - -
 72
65
 73
2
 40
0.2
 49
0.1
 74
0
 49
-0.1
 74
0
  0
ENDTAB
  0
TABLE
  2
LAYER
  5
2
100
AcDbSymbolTable
 70
36
  0
LAYER
  5
10
100
AcDbSymbolTableRecord
100
AcDbLayerTableRecord
  2
0
 70
0
 62
7
  6
CONTINUOUS
370
-3
390
F
  0
LAYER
  5
1FA
100
AcDbSymbolTableRecord
100
AcDbLayerTableRecord
  2
DEFAULT_1
 70
0
 62
7
  6
CENTER
370
-3
390
F
  0
LAYER
  5
1FB
100
AcDbSymbolTableRecord
100
AcDbLayerTableRecord
  2
DEFAULT_2
 70
0
 62
7
  6
HIDDEN
370
-3
390
F
  0
LAYER
  5
1FC
100
AcDbSymbolTableRecord
100
AcDbLayerTableRecord
  2
DEFAULT_3
 70
0
 62
7
  6
PHANTOM
370
-3
390
F
  0
LAYER
  5
1FD
100
AcDbSymbolTableRecord
100
AcDbLayerTableRecord
  2
ASSI
 70
0
 62
7
  6
CONTINUOUS
370
-3
390
F
  0
LAYER
  5
1FE
100
AcDbSymbolTableRecord
100
AcDbLayerTableRecord
  2
COLOR9
 70
0
 62
7
  6
CONTINUOUS
370
-3
390
F
  0
LAYER
  5
1FF
100
AcDbSymbolTableRecord
100
AcDbLayerTableRecord
  2
COORDINATE
 70
0
 62
7
  6
CONTINUOUS
370
-3
390
F
  0
LAYER
  5
200
100
AcDbSymbolTableRecord
100
AcDbLayerTableRecord
  2
COORD_ORIGINE
 70
0
 62
7
  6
CONTINUOUS
370
-3
390
F
  0
LAYER
  5
201
100
AcDbSymbolTableRecord
100
AcDbLayerTableRecord
  2
COPY_PUBLISH
 70
0
 62
7
  6
CONTINUOUS
370
-3
390
F
  0
LAYER
  5
202
100
AcDbSymbolTableRecord
100
AcDbLayerTableRecord
  2
COSMETIC
 70
0
 62
7
  6
CONTINUOUS
370
-3
390
F
  0
LAYER
  5
203
100
AcDbSymbolTableRecord
100
AcDbLayerTableRecord
  2
CURVE
 70
0
 62
7
  6
CONTINUOUS
370
-3
390
F
  0
LAYER
  5
204
100
AcDbSymbolTableRecord
100
AcDbLayerTableRecord
  2
DRAFT
 70
0
 62
7
  6
CONTINUOUS
370
-3
390
F
  0
LAYER
  5
205
100
AcDbSymbolTableRecord
100
AcDbLayerTableRecord
  2
IGS_SCRITTE
 70
0
 62
7
  6
CONTINUOUS
370
-3
390
F
  0
LAYER
  5
206
100
AcDbSymbolTableRecord
100
AcDbLayerTableRecord
  2
IMPORT_IGES
 70
0
 62
7
  6
CONTINUOUS
370
-3
390
F
  0
LAYER
  5
207
100
AcDbSymbolTableRecord
100
AcDbLayerTableRecord
  2
INTF_15
 70
0
 62
7
  6
CONTINUOUS
370
-3
390
F
  0
LAYER
  5
208
100
AcDbSymbolTableRecord
100
AcDbLayerTableRecord
  2
INTF_3
 70
0
 62
7
  6
CONTINUOUS
370
-3
390
F
  0
LAYER
  5
209
100
AcDbSymbolTableRecord
100
AcDbLayerTableRecord
  2
INTF_4
 70
0
 62
7
  6
CONTINUOUS
370
-3
390
F
  0
LAYER
  5
20A
100
AcDbSymbolTableRecord
100
AcDbLayerTableRecord
  2
INTF_YELLOW
 70
0
 62
7
  6
CONTINUOUS
370
-3
390
F
  0
LAYER
  5
20B
100
AcDbSymbolTableRecord
100
AcDbLayerTableRecord
  2
PIANI
 70
0
 62
7
  6
CONTINUOUS
370
-3
390
F
  0
LAYER
  5
20C
100
AcDbSymbolTableRecord
100
AcDbLayerTableRecord
  2
PIANI_ORIGINE
 70
0
 62
7
  6
CONTINUOUS
370
-3
390
F
  0
LAYER
  5
20D
100
AcDbSymbolTableRecord
100
AcDbLayerTableRecord
  2
PIANI_RIFERIMENTO
 70
0
 62
7
  6
CONTINUOUS
370
-3
390
F
  0
LAYER
  5
20E
100
AcDbSymbolTableRecord
100
AcDbLayerTableRecord
  2
RACCORDO
 70
0
 62
7
  6
CONTINUOUS
370
-3
390
F
  0
LAYER
  5
20F
100
AcDbSymbolTableRecord
100
AcDbLayerTableRecord
  2
SMUSSO
 70
0
 62
7
  6
CONTINUOUS
370
-3
390
F
  0
LAYER
  5
210
100
AcDbSymbolTableRecord
100
AcDbLayerTableRecord
  2
SOLIDO
 70
0
 62
7
  6
CONTINUOUS
370
-3
390
F
  0
LAYER
  5
211
100
AcDbSymbolTableRecord
100
AcDbLayerTableRecord
  2
SUPERFICI
 70
0
 62
7
  6
CONTINUOUS
370
-3
390
F
  0
LAYER
  5
212
100
AcDbSymbolTableRecord
100
AcDbLayerTableRecord
  2
TRASH
 70
0
 62
7
  6
CONTINUOUS
370
-3
390
F
  0
LAYER
  5
213
100
AcDbSymbolTableRecord
100
AcDbLayerTableRecord
  2
WHITE
 70
0
 62
7
  6
CONTINUOUS
370
-3
390
F
  0
LAYER
  5
214
100
AcDbSymbolTableRecord
100
AcDbLayerTableRecord
  2
XSEC_DATUMS
 70
0
 62
7
  6
CONTINUOUS
370
-3
390
F
  0
ENDTAB
  0
TABLE
  2
STYLE
  5
3
100
AcDbSymbolTable
 70
1
  0
STYLE
  5
11
100
AcDbSymbolTableRecord
100
AcDbTextStyleTableRecord
  2
STANDARD
 70
0
 40
0.0
 41
0.8
 50
0.0
 71
0
 42
0.2
  3
txt
  4

  0
STYLE
  5
215
100
AcDbSymbolTableRecord
100
AcDbTextStyleTableRecord
  2
TEXTSTYLE_1
 70
0
 40
0.0
 41
0.8
 50
0.0
 71
0
 42
0.2
  3
gdt
  4

  0
ENDTAB
  0
TABLE
  2
VIEW
  5
6
100
AcDbSymbolTable
 70
0
  0
ENDTAB
  0
TABLE
  2
UCS
  5
7
100
AcDbSymbolTable
 70
0
  0
ENDTAB
  0
TABLE
  2
APPID
  5
9
100
AcDbSymbolTable
 70
1
  0
APPID
  5
216
100
AcDbSymbolTableRecord
100
AcDbRegAppTableRecord
  2
ACAD
 70
0
  0
ENDTAB
  0
TABLE
  2
BLOCK_RECORD
  5
1
100
AcDbSymbolTable
 70
0
  0
BLOCK_RECORD
  5
217
100
AcDbSymbolTableRecord
100
AcDbBlockTableRecord
  2
*Model_Space
  0
BLOCK_RECORD
  5
218
100
AcDbSymbolTableRecord
100
AcDbBlockTableRecord
  2
*Paper_Space
  0
ENDTAB
  0
TABLE
  2
DIMSTYLE
  5
A
100
AcDbSymbolTable
 70
1
100
AcDbDimStyleTable
 71
0
  0
DIMSTYLE
105
219
100
AcDbSymbolTableRecord
100
AcDbDimStyleTableRecord
  2
STANDARD
 70
0
  3

  4

 40
1.0
 41
3.0
 42
0.0625
 43
0.38
 44
0.18
 45
0.0
 46
0.0
 47
0.01
 48
0.01
140
3.0
141
0.09
142
0.0
143
25.4
144
1.0
145
0.0
146
1.0
147
0.09
 71
1.0
 72
0.0
 73
0
 74
0
 75
0
 76
0
 77
1
 78
8
170
0
171
2
172
0
173
0
174
0
175
0
176
0
177
0
178
0
270
2
271
2
272
2
273
2
274
2
275
0
280
0
281
0
282
0
283
1
284
8
285
0
286
0
287
3
288
0
340
11
  0
ENDTAB
  0
ENDSEC
  0
SECTION
  2
BLOCKS
  0
BLOCK
  5
20
100
AcDbEntity
  8
0
100
AcDbBlockBegin
  2
*Model_Space
 70
0
 10
0.0
 20
0.0
 30
0.0
  3
*Model_Space
  1

  0
ENDBLK
  5
21
100
AcDbEntity
  8
0
100
AcDbBlockEnd
  0
BLOCK
  5
1C
100
AcDbEntity
  8
0
100
AcDbBlockBegin
  2
*Paper_Space
 70
0
 10
0.0
 20
0.0
 30
0.0
  3
*Paper_Space
  1

  0
ENDBLK
  5
1D
100
AcDbEntity
  8
0
100
AcDbBlockEnd
  0
ENDSEC
  0
SECTION
  2
ENTITIES
  0
LWPOLYLINE
  5
21A
100
AcDbEntity
  8
ASSI
100
AcDbPolyline
 62
7
  6
CONTINUOUS
 90
11
 70
0
 10
-17.3228224714
 20
16.1927534247
 10
-17.3398824083
 20
16.1829441025
 10
-17.3742811877
 20
16.1599638062
 10
-17.4051971674
 20
16.1347144586
 10
-17.432635753
 20
16.1073009885
 10
-17.4565025894
 20
16.0779112449
 10
-17.4766267677
 20
16.0468898243
 10
-17.4929620399
 20
16.0144887502
 10
-17.5054740467
 20
15.9809458053
 10
-17.5140941441
 20
15.946641029
 10
-17.5188018203
 20
15.9120363681
  0
LWPOLYLINE
  5
21B
100
AcDbEntity
  8
RACCORDO
100
AcDbPolyline
 62
7
  6
CONTINUOUS
 90
31
 70
0
 10
-17.3226651086
 20
16.1928397448
 10
-17.3303046859
 20
16.1885675821
 10
-17.3426803273
 20
16.1812427503
 10
-17.3545987527
 20
16.1736792035
 10
-17.3660642692
 20
16.1658870289
 10
-17.3770830327
 20
16.1578751089
 10
-17.3876590275
 20
16.1496532925
 10
-17.3977951886
 20
16.1412323932
 10
-17.4074957451
 20
16.132622325
 10
-17.4167627714
 20
16.1238347124
 10
-17.4255958014
 20
16.1148843797
 10
-17.4340007888
 20
16.105780522
 10
-17.4419859573
 20
16.0965289536
 10
-17.4495486983
 20
16.0871479112
 10
-17.4566959094
 20
16.0776452423
 10
-17.4634453837
 20
16.0680117963
 10
-17.4697969775
 20
16.0582607601
 10
-17.4757518322
 20
16.0484042902
 10
-17.4813244275
 20
16.0384309676
 10
-17.4865146203
 20
16.0283517073
 10
-17.49132124
 20
16.0181804138
 10
-17.4957527353
 20
16.0079095391
 10
-17.4998081894
 20
15.9975499858
 10
-17.5034861978
 20
15.9871157452
 10
-17.5067912341
 20
15.9766036577
 10
-17.5097218679
 20
15.9660265291
 10
-17.5122773867
 20
15.9553968055
 10
-17.5144607906
 20
15.9447106864
 10
-17.5162708539
 20
15.933981513
 10
-17.5177071778
 20
15.9232214403
 10
-17.5187713164
 20
15.9124247725
  0
LINE
  5
21C
100
AcDbEntity
  8
RACCORDO
100
AcDbLine
 62
7
  6
CONTINUOUS
 10
-17.3226582702
 20
16.1928435199
 11
-13.7632635314
 21
18.1407553459
  0
LINE
  5
21D
100
AcDbEntity
  8
ASSI
100
AcDbLine
 62
7
  6
CONTINUOUS
 10
-17.322822485
 20
16.1927534497
 11
-13.7632635314
 21
18.1407553459
  0
LINE
  5
21E
100
AcDbEntity
  8
RACCORDO
100
AcDbLine
 62
253
  6
CONTINUOUS
 10
-17.2041829634
 20
16.189263006
 11
-13.6482938849
 21
18.1352563267
  0
LINE
  5
21F
100
AcDbEntity
  8
ASSI
100
AcDbLine
 62
253
  6
CONTINUOUS
 10
-17.2041829634
 20
16.189263006
 11
-13.6482938849
 21
18.1352563267
  0
LINE
  5
220
100
AcDbEntity
  8
DRAFT
100
AcDbLine
 62
7
  6
CONTINUOUS
 10
-11.9954616184
 20
16.2696097089
 11
-12.9824700456
 21
15.6583509959
  0
LINE
  5
221
100
AcDbEntity
  8
ASSI
100
AcDbLine
 62
7
  6
CONTINUOUS
 10
-11.9954616184
 20
16.2696097089
 11
-12.9824700456
 21
15.6583509959
  0
LINE
  5
222
100
AcDbEntity
  8
DRAFT
100
AcDbLine
 62
7
  6
CONTINUOUS
 10
-11.9954616184
 20
17.3088401934
 11
-13.9311904802
 21
16.1327112132
  0
LINE
  5
223
100
AcDbEntity
  8
ASSI
100
AcDbLine
 62
7
  6
CONTINUOUS
 10
-11.9954616184
 20
17.3088401934
 11
-13.9311904802
 21
16.1327112132
  0
LWPOLYLINE
  5
224
100
AcDbEntity
  8
RACCORDO
100
AcDbPolyline
 62
7
  6
CONTINUOUS
 90
4
 70
0
 10
-17.5187713164
 20
15.9124247725
 10
-17.5194622779
 20
15.9015981231
 10
-17.5197787549
 20
15.8907605151
 10
-17.5198009937
 20
15.8868101721
  0
LWPOLYLINE
  5
225
100
AcDbEntity
  8
0
100
AcDbPolyline
 62
7
  6
CONTINUOUS
 90
17
 70
0
 10
-17.439161219
 20
7.0825916451
 10
-17.4259697734
 20
6.6046459671
 10
-17.4103977228
 20
6.1280742347
 10
-17.3924455459
 20
5.6528943126
 10
-17.3721137238
 20
5.1791229133
 10
-17.3494028068
 20
4.7067777053
 10
-17.3243135422
 20
4.2358769789
 10
-17.296846677
 20
3.7664383845
 10
-17.2670030045
 20
3.2984797809
 10
-17.2347835416
 20
2.8320195251
 10
-17.2001893629
 20
2.3670760082
 10
-17.1632215922
 20
1.9036675227
 10
-17.1238814915
 20
1.4418116205
 10
-17.0821703332
 20
0.9815255747
 10
-17.0380894775
 20
0.5228272754
 10
-16.9916403815
 20
0.0657337979
 10
-16.9428244321
 20
-0.3897387987
  0
LWPOLYLINE
  5
226
100
AcDbEntity
  8
ASSI
100
AcDbPolyline
 62
7
  6
CONTINUOUS
 90
9
 70
0
 10
-17.4583199281
 20
8.0371425631
 10
-17.4362063504
 20
6.9675302127
 10
-17.3998773694
 20
5.8418939104
 10
-17.3502775956
 20
4.724072543
 10
-17.2874153893
 20
3.614303902
 10
-17.2113017758
 20
2.5128261463
 10
-17.1219501905
 20
1.4198709927
 10
-17.0193771003
 20
0.3356728467
 10
-16.9036013735
 20
-0.7395372635
  0
LWPOLYLINE
  5
227
100
AcDbEntity
  8
0
100
AcDbPolyline
 62
7
  6
CONTINUOUS
 90
3
 70
0
 10
-17.4583199256
 20
8.0371423939
 10
-17.449971719
 20
7.5618905706
 10
-17.439161219
 20
7.0825916451
  0
LINE
  5
228
100
AcDbEntity
  8
ASSI
100
AcDbLine
 62
7
  6
CONTINUOUS
 10
-17.4703145784
 20
8.8765245604
 11
-17.4583199258
 21
8.0371423949
  0
LWPOLYLINE
  5
229
100
AcDbEntity
  8
ASSI
100
AcDbPolyline
 62
7
  6
CONTINUOUS
 90
8
 70
0
 10
-17.5186638007
 20
15.0617251263
 10
-17.5160451189
 20
14.1722367088
 10
-17.5119819706
 20
13.2835296087
 10
-17.5064743652
 20
12.3956080162
 10
-17.4995223218
 20
11.5084754285
 10
-17.4911258594
 20
10.622135128
 10
-17.4812850039
 20
9.7365907128
 10
-17.4703145784
 20
8.8765245604
  0
LINE
  5
22A
100
AcDbEntity
  8
ASSI
100
AcDbLine
 62
7
  6
CONTINUOUS
 10
-17.5198010713
 20
15.8868206555
 11
-17.5186638007
 21
15.0617251263
  0
LWPOLYLINE
  5
22B
100
AcDbEntity
  8
0
100
AcDbPolyline
 62
7
  6
CONTINUOUS
 90
10
 70
0
 10
-17.5198010712
 20
15.8868206482
 10
-17.5185661574
 20
15.016773349
 10
-17.5159265051
 20
14.1409097976
 10
-17.5118861938
 20
13.2658040039
 10
-17.5064452328
 20
12.3914599516
 10
-17.4996036404
 20
11.5178809789
 10
-17.4913614348
 20
10.6450702371
 10
-17.4817186404
 20
9.7730311559
 10
-17.4706753008
 20
8.9017678093
 10
-17.4583199259
 20
8.0371423956
  0
LINE
  5
22C
100
AcDbEntity
  8
ASSI
100
AcDbLine
 62
7
  6
CONTINUOUS
 10
-17.5188018203
 20
15.9120363681
 11
-17.5198006358
 21
15.8865876176
  0
LWPOLYLINE
  5
22D
100
AcDbEntity
  8
ASSI
100
AcDbPolyline
 62
7
  6
CONTINUOUS
 90
10
 70
0
 10
-16.7828437412
 20
-1.7411198005
 10
-16.775095672
 20
-1.791129678
 10
-16.7559265358
 20
-1.8734483908
 10
-16.7298061122
 20
-1.9506284995
 10
-16.6974034654
 20
-2.0220578944
 10
-16.6591816459
 20
-2.08777886
 10
-16.6152431353
 20
-2.1481485873
 10
-16.5662105056
 20
-2.2026226138
 10
-16.5126539456
 20
-2.2508962721
 10
-16.4544036109
 20
-2.2932231177
  0
LWPOLYLINE
  5
22E
100
AcDbEntity
  8
0
100
AcDbPolyline
 62
7
  6
CONTINUOUS
 90
31
 70
0
 10
-16.7828878841
 20
-1.7407747527
 10
-16.7803546961
 20
-1.7592681718
 10
-16.7764466916
 20
-1.783580158
 10
-16.7719465916
 20
-1.8074747479
 10
-16.7668685376
 20
-1.8309404534
 10
-16.7612246802
 20
-1.8539780705
 10
-16.7550240669
 20
-1.876596403
 10
-16.7482786806
 20
-1.8987897293
 10
-16.741001122
 20
-1.9205518815
 10
-16.7332000683
 20
-1.9418871082
 10
-16.7248879424
 20
-1.9627874688
 10
-16.7160772434
 20
-1.9832466685
 10
-16.7067762007
 20
-2.003267977
 10
-16.6969986369
 20
-2.0228414476
 10
-16.6867568576
 20
-2.0419614894
 10
-16.676056402
 20
-2.0606348774
 10
-16.6649107681
 20
-2.0788529533
 10
-16.6533335076
 20
-2.096607806
 10
-16.6413296632
 20
-2.1139046166
 10
-16.6289142776
 20
-2.1307336151
 10
-16.6161008586
 20
-2.1470880615
 10
-16.602891391
 20
-2.1629751885
 10
-16.5893010281
 20
-2.1783854603
 10
-16.5753438714
 20
-2.1933118779
 10
-16.5610190014
 20
-2.207762782
 10
-16.5463409536
 20
-2.2217294242
 10
-16.5313245582
 20
-2.2352037912
 10
-16.5159679489
 20
-2.2481927692
 10
-16.5002864893
 20
-2.2606874535
 10
-16.4842946963
 20
-2.2726804615
 10
-16.4679879218
 20
-2.2841781971
  0
LINE
  5
22F
100
AcDbEntity
  8
ASSI
100
AcDbLine
 62
7
  6
CONTINUOUS
 10
-16.782888491
 20
-1.7407700962
 11
-16.7828437569
 21
-1.7411198025
  0
LINE
  5
230
100
AcDbEntity
  8
ASSI
100
AcDbLine
 62
7
  6
CONTINUOUS
 10
-16.9036013735
 20
-0.7395372635
 11
-16.782888491
 21
-1.7407700962
  0
LWPOLYLINE
  5
231
100
AcDbEntity
  8
0
100
AcDbPolyline
 62
7
  6
CONTINUOUS
 90
4
 70
0
 10
-16.9428244321
 20
-0.3897387987
 10
-16.891643175
 20
-0.8435733619
 10
-16.8380986618
 20
-1.2957502682
 10
-16.7828885202
 20
-1.7407698659
  0
LINE
  5
232
100
AcDbEntity
  8
DRAFT
100
AcDbLine
 62
7
  6
CONTINUOUS
 10
-11.9954616184
 20
17.3088401934
 11
-11.9954616184
 21
16.2696097089
  0
LINE
  5
233
100
AcDbEntity
  8
ASSI
100
AcDbLine
 62
7
  6
CONTINUOUS
 10
-11.9954616184
 20
17.3088401934
 11
-11.9954616184
 21
16.2696097089
  0
LWPOLYLINE
  5
234
100
AcDbEntity
  8
0
100
AcDbPolyline
 62
7
  6
CONTINUOUS
 90
27
 70
0
 10
14.3675296168
 20
-17.7063899387
 10
14.3875606512
 20
-17.7141195471
 10
14.407850581
 20
-17.7212457034
 10
14.4283811097
 20
-17.7277604917
 10
14.4491338881
 20
-17.7336569093
 10
14.4701194921
 20
-17.7389355319
 10
14.4913205284
 20
-17.7435883555
 10
14.5127181568
 20
-17.7476082077
 10
14.5343224643
 20
-17.7509929788
 10
14.5561161677
 20
-17.7537347582
 10
14.5780805587
 20
-17.7558262001
 10
14.6002250566
 20
-17.7572625629
 10
14.6225334788
 20
-17.7580361187
 10
14.6449861711
 20
-17.7581395977
 10
14.6675888676
 20
-17.7575656649
 10
14.6903268753
 20
-17.756306681
 10
14.7131794481
 20
-17.7543559051
 10
14.7361449105
 20
-17.7517050013
 10
14.7592068276
 20
-17.7483469779
 10
14.7823469888
 20
-17.7442759485
 10
14.805563027
 20
-17.7394830284
 10
14.8288394504
 20
-17.7339613537
 10
14.8521588439
 20
-17.7277053311
 10
14.8755182435
 20
-17.7207052745
 10
14.8989067447
 20
-17.7129528925
 10
14.9223027664
 20
-17.704444178
 10
14.9395570945
 20
-17.6976794616
  0
LINE
  5
235
100
AcDbEntity
  8
0
100
AcDbLine
 62
7
  6
CONTINUOUS
 10
14.3477485147
 20
-17.6980541018
 11
14.3675296168
 21
-17.7063899387
  0
LINE
  5
236
100
AcDbEntity
  8
ASSI
100
AcDbLine
 62
7
  6
CONTINUOUS
 10
-16.4544036109
 20
-2.2932231177
 11
-16.387973202
 21
-2.3311539053
  0
LWPOLYLINE
  5
237
100
AcDbEntity
  8
0
100
AcDbPolyline
 62
7
  6
CONTINUOUS
 90
4
 70
0
 10
-16.4344893422
 20
-2.3056547735
 10
-16.4173068559
 20
-2.3156308766
 10
-16.3998412849
 20
-2.3250958054
 10
-16.3888556295
 20
-2.330714278
  0
LWPOLYLINE
  5
238
100
AcDbEntity
  8
0
100
AcDbPolyline
 62
7
  6
CONTINUOUS
 90
3
 70
0
 10
-16.4679879218
 20
-2.2841781971
 10
-16.4513810897
 20
-2.2951721746
 10
-16.4344893422
 20
-2.3056547735
  0
LWPOLYLINE
  5
239
100
AcDbEntity
  8
0
100
AcDbPolyline
 62
7
  6
CONTINUOUS
 90
3
 70
0
 10
14.3162731071
 20
-17.6832786462
 10
14.3282271782
 20
-17.6891152089
 10
14.3477485147
 20
-17.6980541018
  0
LWPOLYLINE
  5
23A
100
AcDbEntity
  8
ASSI
100
AcDbPolyline
 62
7
  6
CONTINUOUS
 90
12
 70
0
 10
14.3157160598
 20
-17.68299951
 10
14.3235069622
 20
-17.6868437994
 10
14.3789105081
 20
-17.7108675307
 10
14.4367170399
 20
-17.7302110041
 10
14.4964437525
 20
-17.7446120666
 10
14.557766492
 20
-17.7539151841
 10
14.6205779526
 20
-17.7579951396
 10
14.6845090851
 20
-17.7566936607
 10
14.7491172382
 20
-17.7499019274
 10
14.8142814864
 20
-17.7374990641
 10
14.8797565663
 20
-17.7193557592
 10
14.9392928501
 20
-17.6977860371
  0
LINE
  5
23B
100
AcDbEntity
  8
ASSI
100
AcDbLine
 62
7
  6
CONTINUOUS
 10
-16.3888765436
 20
-2.3307038457
 11
14.316306752
 21
-17.6832954935
  0
LINE
  5
23C
100
AcDbEntity
  8
0
100
AcDbLine
 62
7
  6
CONTINUOUS
 10
-16.3888796762
 20
-2.3307022795
 11
14.316306752
 21
-17.6832954935
  0
LINE
  5
23D
100
AcDbEntity
  8
0
100
AcDbLine
 62
7
  6
CONTINUOUS
 10
14.3162750714
 20
-17.6832796518
 11
14.31630355
 21
-17.6832938925
  0
LINE
  5
23E
100
AcDbEntity
  8
0
100
AcDbLine
 62
253
  6
CONTINUOUS
 10
-16.6364678466
 20
-1.9171878906
 11
14.0599126576
 21
-17.2653781427
  0
LINE
  5
23F
100
AcDbEntity
  8
ASSI
100
AcDbLine
 62
253
  6
CONTINUOUS
 10
-16.6364678466
 20
-1.9171878906
 11
14.0599126576
 21
-17.2653781427
  0
LINE
  5
240
100
AcDbEntity
  8
ASSI
100
AcDbLine
 62
7
  6
CONTINUOUS
 10
14.3157178897
 20
-17.6830004444
 11
14.31630355
 21
-17.6832938925
  0
LINE
  5
241
100
AcDbEntity
  8
0
100
AcDbLine
 62
253
  6
CONTINUOUS
 10
13.3359176364
 20
-7.4641747348
 11
-17.3118664539
 21
7.8597173103
  0
LINE
  5
242
100
AcDbEntity
  8
ASSI
100
AcDbLine
 62
253
  6
CONTINUOUS
 10
13.3359176364
 20
-7.4641747348
 11
-17.3118664539
 21
7.8597173103
  0
LINE
  5
243
100
AcDbEntity
  8
DRAFT
100
AcDbLine
 62
7
  6
CONTINUOUS
 10
15.9528858115
 20
3.3346664785
 11
13.6459739861
 21
2.34412898
  0
LINE
  5
244
100
AcDbEntity
  8
ASSI
100
AcDbLine
 62
7
  6
CONTINUOUS
 10
15.9528858115
 20
3.3346664785
 11
13.6459739861
 21
2.34412898
  0
LINE
  5
245
100
AcDbEntity
  8
SUPERFICI
100
AcDbLine
 62
7
  6
CONTINUOUS
 10
-4.9654566071
 20
5.0223648783
 11
0.9062146228
 21
2.0865292634
  0
LINE
  5
246
100
AcDbEntity
  8
RACCORDO
100
AcDbLine
 62
7
  6
CONTINUOUS
 10
0.9062146228
 20
2.0865292634
 11
-4.9654566071
 21
5.0223648783
  0
LINE
  5
247
100
AcDbEntity
  8
ASSI
100
AcDbLine
 62
7
  6
CONTINUOUS
 10
0.9062146228
 20
2.0865292634
 11
-4.9654566071
 21
5.0223648783
  0
LINE
  5
248
100
AcDbEntity
  8
SUPERFICI
100
AcDbLine
 62
7
  6
CONTINUOUS
 10
-4.979014232
 20
6.9203982639
 11
0.8917696173
 21
3.9850063392
  0
LINE
  5
249
100
AcDbEntity
  8
RACCORDO
100
AcDbLine
 62
7
  6
CONTINUOUS
 10
0.8917696173
 20
3.9850063392
 11
-4.979014232
 21
6.9203982639
  0
LINE
  5
24A
100
AcDbEntity
  8
ASSI
100
AcDbLine
 62
7
  6
CONTINUOUS
 10
0.8917696173
 20
3.9850063392
 11
-4.979014232
 21
6.9203982639
  0
LINE
  5
24B
100
AcDbEntity
  8
RACCORDO
100
AcDbLine
 62
253
  6
CONTINUOUS
 10
17.605718078
 20
2.5082503452
 11
13.792493894
 21
0.6909245773
  0
LINE
  5
24C
100
AcDbEntity
  8
ASSI
100
AcDbLine
 62
253
  6
CONTINUOUS
 10
17.605718078
 20
2.5082503452
 11
13.792493894
 21
0.6909245773
  0
LINE
  5
24D
100
AcDbEntity
  8
RACCORDO
100
AcDbLine
 62
253
  6
CONTINUOUS
 10
17.7825486561
 20
2.2033864009
 11
13.9645381606
 21
0.3837795484
  0
LINE
  5
24E
100
AcDbEntity
  8
ASSI
100
AcDbLine
 62
253
  6
CONTINUOUS
 10
17.7825486561
 20
2.2033864009
 11
13.9645381606
 21
0.3837795484
  0
LINE
  5
24F
100
AcDbEntity
  8
RACCORDO
100
AcDbLine
 62
253
  6
CONTINUOUS
 10
13.2699828831
 20
0.3878461231
 11
-17.3733522389
 21
15.7095136841
  0
LINE
  5
250
100
AcDbEntity
  8
ASSI
100
AcDbLine
 62
253
  6
CONTINUOUS
 10
13.2699828831
 20
0.3878461231
 11
-17.3733522389
 21
15.7095136841
  0
LINE
  5
251
100
AcDbEntity
  8
RACCORDO
100
AcDbLine
 62
253
  6
CONTINUOUS
 10
13.4452187718
 20
0.6921325162
 11
-17.1981201448
 21
16.0138019745
  0
LINE
  5
252
100
AcDbEntity
  8
ASSI
100
AcDbLine
 62
253
  6
CONTINUOUS
 10
13.4452187718
 20
0.6921325162
 11
-17.1981201448
 21
16.0138019745
  0
LINE
  5
253
100
AcDbEntity
  8
DRAFT
100
AcDbLine
 62
7
  6
CONTINUOUS
 10
13.6459739861
 20
2.34412898
 11
-13.9311904802
 21
16.1327112132
  0
LINE
  5
254
100
AcDbEntity
  8
ASSI
100
AcDbLine
 62
7
  6
CONTINUOUS
 10
13.6459739861
 20
2.34412898
 11
-13.9311904802
 21
16.1327112132
  0
LINE
  5
255
100
AcDbEntity
  8
RACCORDO
100
AcDbLine
 62
7
  6
CONTINUOUS
 10
17.605718078
 20
2.5082503452
 11
15.9528858115
 21
3.3346664785
  0
LINE
  5
256
100
AcDbEntity
  8
ASSI
100
AcDbLine
 62
7
  6
CONTINUOUS
 10
17.605718078
 20
2.5082503452
 11
15.9528858115
 21
3.3346664785
  0
LINE
  5
257
100
AcDbEntity
  8
RACCORDO
100
AcDbLine
 62
7
  6
CONTINUOUS
 10
-11.9954616184
 20
17.3088401934
 11
-13.6482938849
 21
18.1352563267
  0
LINE
  5
258
100
AcDbEntity
  8
ASSI
100
AcDbLine
 62
7
  6
CONTINUOUS
 10
-11.9954616184
 20
17.3088401934
 11
-13.6482938849
 21
18.1352563267
  0
LINE
  5
259
100
AcDbEntity
  8
RACCORDO
100
AcDbLine
 62
7
  6
CONTINUOUS
 10
17.7825486561
 20
2.2033864009
 11
17.7825486561
 21
-8.838495193
  0
LINE
  5
25A
100
AcDbEntity
  8
ASSI
100
AcDbLine
 62
7
  6
CONTINUOUS
 10
17.7825486561
 20
2.2033864009
 11
17.7825486561
 21
-8.838495193
  0
LINE
  5
25B
100
AcDbEntity
  8
0
100
AcDbLine
 62
7
  6
CONTINUOUS
 10
17.2312527952
 20
-16.5526669606
 11
17.7825486561
 21
-8.838495193
  0
LINE
  5
25C
100
AcDbEntity
  8
ASSI
100
AcDbLine
 62
7
  6
CONTINUOUS
 10
17.2312527952
 20
-16.5526669606
 11
17.7825486561
 21
-8.838495193
  0
LINE
  5
25D
100
AcDbEntity
  8
0
100
AcDbLine
 62
253
  6
CONTINUOUS
 10
15.0931752359
 20
-17.41695741
 11
17.2312527952
 21
-16.5526669606
  0
LINE
  5
25E
100
AcDbEntity
  8
ASSI
100
AcDbLine
 62
253
  6
CONTINUOUS
 10
15.0931752359
 20
-17.41695741
 11
17.2312527952
 21
-16.5526669606
  0
LINE
  5
25F
100
AcDbEntity
  8
0
100
AcDbLine
 62
7
  6
CONTINUOUS
 10
14.9395634173
 20
-17.6976769386
 11
17.0622116274
 21
-16.839623606
  0
LINE
  5
260
100
AcDbEntity
  8
ASSI
100
AcDbLine
 62
7
  6
CONTINUOUS
 10
17.0622116274
 20
-16.839623606
 11
14.9392928615
 21
-17.6977860654
  0
ARC
  5
261
100
AcDbEntity
  8
RACCORDO
100
AcDbCircle
 62
253
  6
CONTINUOUS
 10
525.8750162232
 20
16.0388562054
 40
543.2484714993
100
AcDbArc
 50
180.034735372
 51
180.8626768068
  0
ARC
  5
262
100
AcDbEntity
  8
ASSI
100
AcDbCircle
 62
253
  6
CONTINUOUS
 10
525.8750162232
 20
16.0388562054
 40
543.2484714993
100
AcDbArc
 50
180.034735372
 51
180.8626768068
  0
ARC
  5
263
100
AcDbEntity
  8
RACCORDO
100
AcDbCircle
 62
7
  6
CONTINUOUS
 10
525.6501314967
 20
6.7630780051
 40
524.4845405879
100
AcDbArc
 50
180.3564737649
 51
180.4887240263
  0
ARC
  5
264
100
AcDbEntity
  8
ASSI
100
AcDbCircle
 62
7
  6
CONTINUOUS
 10
525.6501314967
 20
6.7630780051
 40
524.4845405879
100
AcDbArc
 50
180.3564737649
 51
180.4887240263
  0
ARC
  5
265
100
AcDbEntity
  8
SUPERFICI
100
AcDbCircle
 62
7
  6
CONTINUOUS
 10
519.1142769521
 20
9.9796520205
 40
524.3833549227
100
AcDbArc
 50
180.3564593088
 51
180.4887350894
  0
ARC
  5
266
100
AcDbEntity
  8
RACCORDO
100
AcDbCircle
 62
253
  6
CONTINUOUS
 10
519.1360055444
 20
0.7087592308
 40
505.8661111247
100
AcDbArc
 50
180.0363474979
 51
180.9257291277
  0
ARC
  5
267
100
AcDbEntity
  8
ASSI
100
AcDbCircle
 62
253
  6
CONTINUOUS
 10
519.1360055444
 20
0.7087592308
 40
505.8661111247
100
AcDbArc
 50
180.0363474979
 51
180.9257291277
  0
ARC
  5
268
100
AcDbEntity
  8
RACCORDO
100
AcDbCircle
 62
253
  6
CONTINUOUS
 10
519.2601341929
 20
0.7020971195
 40
505.2956834954
100
AcDbArc
 50
180.0360942211
 51
180.9257767921
  0
ARC
  5
269
100
AcDbEntity
  8
ASSI
100
AcDbCircle
 62
253
  6
CONTINUOUS
 10
519.2601341929
 20
0.7020971195
 40
505.2956834954
100
AcDbArc
 50
180.0360942211
 51
180.9257767921
  0
ARC
  5
26A
100
AcDbEntity
  8
RACCORDO
100
AcDbCircle
 62
7
  6
CONTINUOUS
 10
-4.8087596723
 20
5.5106039026
 40
0.4412582556
100
AcDbArc
 50
180.5072885362
 51
183.4774390387
  0
ARC
  5
26B
100
AcDbEntity
  8
ASSI
100
AcDbCircle
 62
7
  6
CONTINUOUS
 10
-4.8087596723
 20
5.5106039026
 40
0.4412582556
100
AcDbArc
 50
180.5072885362
 51
183.4774390387
  0
ARC
  5
26C
100
AcDbEntity
  8
SUPERFICI
100
AcDbCircle
 62
7
  6
CONTINUOUS
 10
0.7346672148
 20
3.4970574611
 40
0.4410841978
100
AcDbArc
 50
0.3750339476
 51
3.3435235644
  0
ARC
  5
26D
100
AcDbEntity
  8
SUPERFICI
100
AcDbCircle
 62
7
  6
CONTINUOUS
 10
0.7772896917
 20
2.2857222662
 40
0.407397637
100
AcDbArc
 50
357.3798448687
 51
0.5117896884
  0
ARC
  5
26E
100
AcDbEntity
  8
RACCORDO
100
AcDbCircle
 62
7
  6
CONTINUOUS
 10
-4.8528498087
 20
6.7199690348
 40
0.4060888367
100
AcDbArc
 50
177.2398448364
 51
180.3793404825
  0
ARC
  5
26F
100
AcDbEntity
  8
ASSI
100
AcDbCircle
 62
7
  6
CONTINUOUS
 10
-4.8528498087
 20
6.7199690348
 40
0.4060888367
100
AcDbArc
 50
177.2398448364
 51
180.3793404825
  0
ARC
  5
270
100
AcDbEntity
  8
0
100
AcDbCircle
 62
253
  6
CONTINUOUS
 10
14.4902620005
 20
-17.3353704073
 40
0.3889886042
100
AcDbArc
 50
234.9479967939
 51
243.4306925951
  0
ARC
  5
271
100
AcDbEntity
  8
0
100
AcDbCircle
 62
253
  6
CONTINUOUS
 10
-16.2233051981
 20
-2.0008204762
 40
0.3691270765
100
AcDbArc
 50
234.6967841757
 51
237.0375563961
  0
ARC
  5
272
100
AcDbEntity
  8
0
100
AcDbCircle
 62
253
  6
CONTINUOUS
 10
-16.2265532259
 20
-2.0060505655
 40
0.3629716916
100
AcDbArc
 50
237.0185430155
 51
243.3832306157
  0
ARC
  5
273
100
AcDbEntity
  8
ASSI
100
AcDbCircle
 62
253
  6
CONTINUOUS
 10
-16.2265600096
 20
-2.0060621585
 40
0.362958274
100
AcDbArc
 50
237.0184450862
 51
243.4355573046
  0
ARC
  5
274
100
AcDbEntity
  8
RACCORDO
100
AcDbCircle
 62
7
  6
CONTINUOUS
 10
-4.8122371706
 20
5.3284432724
 40
0.3422866913
100
AcDbArc
 50
239.8947612401
 51
243.407963524
  0
ARC
  5
275
100
AcDbEntity
  8
ASSI
100
AcDbCircle
 62
7
  6
CONTINUOUS
 10
-4.8122371706
 20
5.3284432724
 40
0.3422866913
100
AcDbArc
 50
239.8947612401
 51
243.407963524
  0
ARC
  5
276
100
AcDbEntity
  8
SUPERFICI
100
AcDbCircle
 62
7
  6
CONTINUOUS
 10
0.7388743015
 20
3.6795760877
 40
0.3415620238
100
AcDbArc
 50
59.8824320464
 51
63.407913679
  0
ARC
  5
277
100
AcDbEntity
  8
RACCORDO
100
AcDbCircle
 62
7
  6
CONTINUOUS
 10
1.0452986566
 20
2.3643124176
 40
0.3106571249
100
AcDbArc
 50
243.4032006113
 51
247.1501180889
  0
ARC
  5
278
100
AcDbEntity
  8
ASSI
100
AcDbCircle
 62
7
  6
CONTINUOUS
 10
1.0452986566
 20
2.3643124176
 40
0.3106571249
100
AcDbArc
 50
243.4032006113
 51
247.1501180889
  0
ARC
  5
279
100
AcDbEntity
  8
SUPERFICI
100
AcDbCircle
 62
7
  6
CONTINUOUS
 10
-5.1178790837
 20
6.6430502997
 40
0.3101698571
100
AcDbArc
 50
63.4034129207
 51
67.1620608765
  0
ARC
  5
27A
100
AcDbEntity
  8
0
100
AcDbCircle
 62
253
  6
CONTINUOUS
 10
-16.6103779076
 20
-1.718885284
 40
0.1738921633
100
AcDbArc
 50
187.2317806844
 51
189.2872379918
  0
ARC
  5
27B
100
AcDbEntity
  8
SUPERFICI
100
AcDbCircle
 62
7
  6
CONTINUOUS
 10
1.0173494494
 20
2.207788609
 40
0.1487090013
100
AcDbArc
 50
287.8018857967
 51
290.6464901584
  0
SPLINE
  5
27C
100
AcDbEntity
  8
SUPERFICI
100
AcDbSpline
 62
7
  6
CONTINUOUS
 70
0
 71
3
 72
16
 73
12
 74
10
 42
0.0000001
 43
0.0000001
 44
0.0000000001
 12
-0.1851281172
 22
-0.1320498313
 32
0.0
 13
0.0014134633
 23
-0.2271576449
 33
0.0
 40
0.0
 40
0.0
 40
0.0
 40
0.0
 40
0.0055110613
 40
0.1116735965
 40
0.221590849
 40
0.3361220045
 40
0.4556415103
 40
0.5812985291
 40
0.7142391868
 40
0.8541405301
 40
1.0
 40
1.0
 40
1.0
 40
1.0
 10
-5.1769418689
 20
6.9201994546
 30
0.0
 10
-5.177281953
 20
6.9199568764
 30
0.0
 10
-5.1841526393
 20
6.915012593
 30
0.0
 10
-5.1969472268
 20
6.9040521368
 30
0.0
 10
-5.2133234111
 20
6.8849969543
 30
0.0
 10
-5.2273731344
 20
6.8629705441
 30
0.0
 10
-5.2389616813
 20
6.8382457925
 30
0.0
 10
-5.2480252742
 20
6.8110252184
 30
0.0
 10
-5.2544941947
 20
6.7814995649
 30
0.0
 10
-5.2582887514
 20
6.7499803345
 30
0.0
 10
-5.2589984675
 20
6.7283248101
 30
0.0
 10
-5.2589297451
 20
6.7172804456
 30
0.0
 11
-5.1769418689
 21
6.9201994546
 31
0.0
 11
-5.1779590566
 21
6.9194674673
 31
0.0
 11
-5.1963023836
 21
6.9038115243
 31
0.0
 11
-5.2126272551
 21
6.8849183798
 31
0.0
 11
-5.2266857413
 21
6.8630265986
 31
0.0
 11
-5.2382834945
 21
6.8384780622
 31
0.0
 11
-5.2473782635
 21
6.8114211972
 31
0.0
 11
-5.253916732
 21
6.7819384507
 31
0.0
 11
-5.2577841394
 21
6.75039437
 31
0.0
 11
-5.2589297451
 21
6.7172804456
 31
0.0
  0
SPLINE
  5
27D
100
AcDbEntity
  8
SUPERFICI
100
AcDbSpline
 62
7
  6
CONTINUOUS
 70
0
 71
3
 72
14
 73
10
 74
8
 42
0.0000001
 43
0.0000001
 44
0.0000000001
 12
0.1447349143
 22
-0.0723674572
 32
0.0
 13
0.154230483
 23
0.0495274309
 33
0.0
 40
0.0
 40
0.0
 40
0.0
 40
0.0
 40
0.1867059931
 40
0.3647459152
 40
0.5335907996
 40
0.6935574546
 40
0.8470006131
 40
0.9964630539
 40
1.0
 40
1.0
 40
1.0
 40
1.0
 10
0.9062146228
 20
2.0865292634
 30
0.0
 10
0.9152222481
 20
2.0820254507
 30
0.0
 10
0.9332408008
 20
2.0740317945
 30
0.0
 10
0.9606812005
 20
2.0651621027
 30
0.0
 10
0.9875648413
 20
2.0598242047
 30
0.0
 10
1.0135968686
 20
2.0580711383
 30
0.0
 10
1.0385855502
 20
2.0599135349
 30
0.0
 10
1.0547613778
 20
2.0636307379
 30
0.0
 10
1.0626319181
 20
2.0661415023
 30
0.0
 10
1.062813753
 20
2.0661998943
 30
0.0
 11
0.9062146228
 21
2.0865292634
 31
0.0
 11
0.9338624993
 21
2.0743477323
 31
0.0
 11
0.9613016007
 21
2.0655658653
 31
0.0
 11
0.9881171911
 21
2.0603286295
 31
0.0
 11
1.0139495201
 21
2.0586692161
 31
0.0
 11
1.0387071555
 21
2.060562864
 31
0.0
 11
1.0622679155
 21
2.0660257676
 31
0.0
 11
1.062813753
 21
2.0661998943
 31
0.0
  0
SPLINE
  5
27E
100
AcDbEntity
  8
SUPERFICI
100
AcDbSpline
 62
7
  6
CONTINUOUS
 70
0
 71
3
 72
23
 73
19
 74
17
 42
0.0000001
 43
0.0000001
 44
0.0000000001
 12
0.0050023624
 22
-0.5863939961
 32
0.0
 13
0.5245058187
 23
-0.2622529093
 33
0.0
 40
0.0
 40
0.0
 40
0.0
 40
0.0
 40
0.0588746881
 40
0.1200732194
 40
0.182993635
 40
0.2470407248
 40
0.312222504
 40
0.3784863542
 40
0.4451159188
 40
0.5113866937
 40
0.57724911
 40
0.6426682154
 40
0.706973736
 40
0.7694897191
 40
0.8301887206
 40
0.8891436894
 40
0.945904789
 40
1.0
 40
1.0
 40
1.0
 40
1.0
 10
-5.2500006327
 20
5.506697117
 30
0.0
 10
-5.2499024619
 20
5.4951891958
 30
0.0
 10
-5.2487494926
 20
5.4717190965
 30
0.0
 10
-5.2443554104
 20
5.4361909807
 30
0.0
 10
-5.2373146131
 20
5.4000610497
 30
0.0
 10
-5.2277230274
 20
5.3637202966
 30
0.0
 10
-5.2156657784
 20
5.3274334059
 30
0.0
 10
-5.2012290554
 20
5.2914819428
 30
0.0
 10
-5.1845686173
 20
5.2562702843
 30
0.0
 10
-5.1658799948
 20
5.2221816736
 30
0.0
 10
-5.1453157101
 20
5.1894693396
 30
0.0
 10
-5.1230210519
 20
5.1583810164
 30
0.0
 10
-5.0992286977
 20
5.1292616021
 30
0.0
 10
-5.07421117
 20
5.1024340003
 30
0.0
 10
-5.0481713325
 20
5.0781020569
 30
0.0
 10
-5.0212874926
 20
5.056450751
 30
0.0
 10
-4.9938349804
 20
5.0377286911
 30
0.0
 10
-4.9749143579
 20
5.0270937537
 30
0.0
 10
-4.965456607
 20
5.0223648783
 30
0.0
 11
-5.2500006327
 21
5.506697117
 31
0.0
 11
-5.2483558243
 21
5.4722112997
 31
0.0
 11
-5.2439922401
 21
5.436589814
 31
0.0
 11
-5.236967028
 21
5.4003672846
 31
0.0
 11
-5.2274064147
 21
5.3640463166
 31
0.0
 11
-5.215370217
 21
5.327767216
 31
0.0
 11
-5.2008999703
 21
5.2917038436
 31
0.0
 11
-5.1841920969
 21
5.2563836666
 31
0.0
 11
-5.1655068736
 21
5.2223082663
 31
0.0
 11
-5.1449426741
 21
5.1896153155
 31
0.0
 11
-5.1225716358
 21
5.158450616
 31
0.0
 11
-5.0986926049
 21
5.1292647184
 31
0.0
 11
-5.0736664707
 21
5.1024753086
 31
0.0
 11
-5.0476311405
 21
5.0782028312
 31
0.0
 11
-5.0206745784
 21
5.0565562681
 31
0.0
 11
-4.9931420789
 21
5.0378508878
 31
0.0
 11
-4.965456607
 21
5.0223648783
 31
0.0
  0
SPLINE
  5
27F
100
AcDbEntity
  8
SUPERFICI
100
AcDbSpline
 62
7
  6
CONTINUOUS
 70
0
 71
3
 72
15
 73
11
 74
9
 42
0.0000001
 43
0.0000001
 44
0.0000000001
 12
-0.1732073616
 22
0.0728301409
 32
0.0
 13
-0.1530469811
 23
-0.109166713
 33
0.0
 40
0.0
 40
0.0
 40
0.0
 40
0.0
 40
0.0528334565
 40
0.2065929842
 40
0.3525055554
 40
0.4908344317
 40
0.6236048922
 40
0.7529890011
 40
0.8801971703
 40
1.0
 40
1.0
 40
1.0
 40
1.0
 10
-4.9974941211
 20
6.92890481
 30
0.0
 10
-5.0005445023
 20
6.9301874327
 30
0.0
 10
-5.0125570642
 20
6.9350022317
 30
0.0
 10
-5.0335984813
 20
6.9417930559
 30
0.0
 10
-5.0605634824
 20
6.9471290011
 30
0.0
 10
-5.0866887135
 20
6.9488697297
 30
0.0
 10
-5.1117788529
 20
6.9470047185
 30
0.0
 10
-5.135629134
 20
6.941516666
 30
0.0
 10
-5.1575509488
 20
6.9326012887
 30
0.0
 10
-5.1708300484
 20
6.9245589483
 30
0.0
 10
-5.1769418689
 20
6.9201994546
 30
0.0
 11
-4.9974941211
 21
6.92890481
 31
0.0
 11
-5.0067094889
 21
6.932595473
 31
0.0
 11
-5.0342146224
 21
6.9413855078
 31
0.0
 11
-5.061111622
 21
6.9466215524
 31
0.0
 11
-5.0870370102
 21
6.9482696044
 31
0.0
 11
-5.1118972048
 21
6.9463543074
 31
0.0
 11
-5.1355658399
 21
6.9408602562
 31
0.0
 11
-5.1576886037
 21
6.9318446443
 31
0.0
 11
-5.1769418689
 21
6.9201994546
 31
0.0
  0
SPLINE
  5
280
100
AcDbEntity
  8
SUPERFICI
100
AcDbSpline
 62
7
  6
CONTINUOUS
 70
0
 71
3
 72
17
 73
13
 74
11
 42
0.0000001
 43
0.0000001
 44
0.0000000001
 12
0.2273417316
 22
0.0856693656
 32
0.0
 13
0.0111970305
 23
0.2425098177
 33
0.0
 40
0.0
 40
0.0
 40
0.0
 40
0.0
 40
0.0652126785
 40
0.1626072031
 40
0.2615230591
 40
0.3639946412
 40
0.4708459654
 40
0.5824429105
 40
0.6998578759
 40
0.8241796903
 40
0.9551183871
 40
1.0
 40
1.0
 40
1.0
 40
1.0
 10
1.0697844004
 20
2.0686306306
 30
0.0
 10
1.0747262548
 20
2.0704928735
 30
0.0
 10
1.086800763
 20
2.0757949446
 30
0.0
 10
1.104919071
 20
2.0868948186
 30
0.0
 10
1.1233261019
 20
2.1027107303
 30
0.0
 10
1.1395985841
 20
2.1217237433
 30
0.0
 10
1.1535485455
 20
2.1437126035
 30
0.0
 10
1.1650415444
 20
2.1684065412
 30
0.0
 10
1.1740140211
 20
2.195605494
 30
0.0
 10
1.1803961655
 20
2.2251214221
 30
0.0
 10
1.1832390473
 20
2.2492664051
 30
0.0
 10
1.1840939014
 20
2.2634702518
 30
0.0
 10
1.184261415
 20
2.2670983291
 30
0.0
 11
1.0697844004
 21
2.0686306306
 31
0.0
 11
1.0842809475
 21
2.075002861
 31
0.0
 11
1.1044429118
 21
2.0873371932
 31
0.0
 11
1.1226787661
 21
2.1029475339
 31
0.0
 11
1.1388996861
 21
2.1217964825
 31
0.0
 11
1.1528588398
 21
2.1436490577
 31
0.0
 11
1.1643625166
 21
2.168166626
 31
0.0
 11
1.1733670729
 21
2.1952005388
 31
0.0
 11
1.1798194387
 21
2.2246727538
 31
0.0
 11
1.1836046516
 21
2.2562225327
 31
0.0
 11
1.184261415
 21
2.2670983291
 31
0.0
  0
SPLINE
  5
281
100
AcDbEntity
  8
SUPERFICI
100
AcDbSpline
 62
7
  6
CONTINUOUS
 70
0
 71
3
 72
23
 73
19
 74
17
 42
0.0000001
 43
0.0000001
 44
0.0000000001
 12
-0.0315079352
 22
0.5422869819
 32
0.0
 13
-0.4700604437
 23
0.2723853472
 33
0.0
 40
0.0
 40
0.0
 40
0.0
 40
0.0
 40
0.0214483204
 40
0.0875044768
 40
0.1554419972
 40
0.2246157097
 40
0.2950273187
 40
0.366626824
 40
0.4386400292
 40
0.5102828191
 40
0.5814928787
 40
0.6522353554
 40
0.7217819344
 40
0.7893981303
 40
0.8550476592
 40
0.9188089648
 40
0.9801943443
 40
1.0
 40
1.0
 40
1.0
 40
1.0
 10
1.1750005997
 20
3.5227825414
 30
0.0
 10
1.1747753356
 20
3.5266595897
 30
0.0
 10
1.1736550502
 20
3.5424658925
 30
0.0
 10
1.1702645139
 20
3.5704195116
 30
0.0
 10
1.1633100581
 20
3.6065593699
 30
0.0
 10
1.1538025987
 20
3.6429254315
 30
0.0
 10
1.1418249481
 20
3.6792517461
 30
0.0
 10
1.1274609234
 20
3.7152555766
 30
0.0
 10
1.1108632033
 20
3.750531781
 30
0.0
 10
1.0922256437
 20
3.7846934706
 30
0.0
 10
1.0716995993
 20
3.8174843777
 30
0.0
 10
1.0494298562
 20
3.8486532525
 30
0.0
 10
1.0256483892
 20
3.8778520811
 30
0.0
 10
1.0006288072
 20
3.9047535839
 30
0.0
 10
0.9745755662
 20
3.9291505743
 30
0.0
 10
0.9476689127
 20
3.9508554387
 30
0.0
 10
0.9259764619
 20
3.9656647255
 30
0.0
 10
0.9133652076
 20
3.9732281643
 30
0.0
 10
0.9102619225
 20
3.9750264211
 30
0.0
 11
1.1750005997
 21
3.5227825414
 31
0.0
 11
1.1741787812
 21
3.5344039793
 31
0.0
 11
1.1699011683
 21
3.5700176491
 31
0.0
 11
1.1629624315
 21
3.6062504918
 31
0.0
 11
1.1534855762
 21
3.642597886
 31
0.0
 11
1.1415293293
 21
3.6789151392
 31
0.0
 11
1.1271319691
 21
3.7150309714
 31
0.0
 11
1.110486885
 21
3.7504159591
 31
0.0
 11
1.0918518961
 21
3.7845656698
 31
0.0
 11
1.0713261304
 21
3.8173365519
 31
0.0
 11
1.048979621
 21
3.8485823445
 31
0.0
 11
1.0251110217
 21
3.8778481199
 31
0.0
 11
1.0000819384
 21
3.9047119705
 31
0.0
 11
0.974033104
 21
3.9290491431
 31
0.0
 11
0.9470535218
 21
3.9507491195
 31
0.0
 11
0.9194905376
 21
3.9694945966
 31
0.0
 11
0.9102619225
 21
3.9750264211
 31
0.0
  0
LINE
  5
282
100
AcDbEntity
  8
SUPERFICI
100
AcDbLine
 62
7
  6
CONTINUOUS
 10
1.184671076
 20
2.2893612627
 11
1.183172563
 21
2.4686190247
  0
LINE
  5
283
100
AcDbEntity
  8
SUPERFICI
100
AcDbLine
 62
7
  6
CONTINUOUS
 10
1.183172563
 20
2.4686190247
 11
1.1828074858
 21
2.5134378791
  0
LINE
  5
284
100
AcDbEntity
  8
SUPERFICI
100
AcDbLine
 62
7
  6
CONTINUOUS
 10
1.1828074858
 20
2.5134378791
 11
1.1813853801
 21
2.692730912
  0
LINE
  5
285
100
AcDbEntity
  8
SUPERFICI
100
AcDbLine
 62
7
  6
CONTINUOUS
 10
1.1813853801
 20
2.692730912
 11
1.1800243456
 21
2.8720590441
  0
LINE
  5
286
100
AcDbEntity
  8
SUPERFICI
100
AcDbLine
 62
7
  6
CONTINUOUS
 10
1.1800243456
 20
2.8720590441
 11
1.1796936378
 21
2.9168954808
  0
LINE
  5
287
100
AcDbEntity
  8
SUPERFICI
100
AcDbLine
 62
7
  6
CONTINUOUS
 10
1.1796936378
 20
2.9168954808
 11
1.1784090085
 21
3.0962587968
  0
LINE
  5
288
100
AcDbEntity
  8
SUPERFICI
100
AcDbLine
 62
7
  6
CONTINUOUS
 10
1.1784090085
 20
3.0962587968
 11
1.1771854538
 21
3.2756571546
  0
LINE
  5
289
100
AcDbEntity
  8
SUPERFICI
100
AcDbLine
 62
7
  6
CONTINUOUS
 10
1.1771854538
 20
3.2756571546
 11
1.1768891156
 21
3.3205111367
  0
LINE
  5
28A
100
AcDbEntity
  8
SUPERFICI
100
AcDbLine
 62
7
  6
CONTINUOUS
 10
1.1768891156
 20
3.3205111367
 11
1.1757419636
 21
3.4999445912
  0
SPLINE
  5
28B
100
AcDbEntity
  8
RACCORDO
100
AcDbSpline
 62
7
  6
CONTINUOUS
 70
0
 71
3
 72
15
 73
11
 74
9
 42
0.0000001
 43
0.0000001
 44
0.0000000001
 12
0.1696235192
 22
0.1209906019
 32
0.0
 13
0.18616337
 23
-0.093081685
 33
0.0
 40
0.0
 40
0.0
 40
0.0
 40
0.0
 40
0.1081411329
 40
0.2229400458
 40
0.3397312535
 40
0.459601248
 40
0.584464367
 40
0.7161066524
 40
0.8547623222
 40
1.0
 40
1.0
 40
1.0
 40
1.0
 10
-5.1769418675
 20
6.920199456
 30
0.0
 10
-5.170827441
 20
6.9245608095
 30
0.0
 10
-5.1575439767
 20
6.9326052033
 30
0.0
 10
-5.1356137019
 20
6.9415219515
 30
0.0
 10
-5.1117526074
 20
6.9470092952
 30
0.0
 10
-5.0866496483
 20
6.9488703595
 30
0.0
 10
-5.0605167538
 20
6.9471228364
 30
0.0
 10
-5.0335554773
 20
6.941781347
 30
0.0
 10
-5.0060667039
 20
6.9329050348
 30
0.0
 10
-4.9880268772
 20
6.9249045865
 30
0.0
 10
-4.979014232
 20
6.9203982639
 30
0.0
 11
-5.1769418675
 21
6.920199456
 31
0.0
 11
-5.1576800303
 21
6.9318489749
 31
0.0
 11
-5.1355522718
 21
6.9408645552
 31
0.0
 11
-5.1118725769
 21
6.9463580567
 31
0.0
 11
-5.0869965512
 21
6.9482698131
 31
0.0
 11
-5.0610606624
 21
6.9466149238
 31
0.0
 11
-5.0341670864
 21
6.9413732512
 31
0.0
 11
-5.0066787527
 21
6.9325837774
 31
0.0
 11
-4.979014232
 21
6.9203982639
 31
0.0
  0
SPLINE
  5
28C
100
AcDbEntity
  8
RACCORDO
100
AcDbSpline
 62
7
  6
CONTINUOUS
 70
0
 71
3
 72
17
 73
13
 74
11
 42
0.0000001
 43
0.0000001
 44
0.0000000001
 12
0.002322982
 22
-0.2723078731
 32
0.0
 13
-0.2595482812
 23
-0.0833478641
 33
0.0
 40
0.0
 40
0.0
 40
0.0
 40
0.0
 40
0.1215910421
 40
0.2382115935
 40
0.3490473415
 40
0.4537496329
 40
0.5532322124
 40
0.6484805119
 40
0.7398428647
 40
0.8280303749
 40
0.9148420727
 40
1.0
 40
1.0
 40
1.0
 40
1.0
 10
1.184671076
 20
2.2893612626
 30
0.0
 10
1.1847652273
 20
2.2783245299
 30
0.0
 10
1.1841096484
 20
2.256682472
 30
0.0
 10
1.1804045496
 20
2.2251734196
 30
0.0
 10
1.174027135
 20
2.1956522614
 30
0.0
 10
1.1650549889
 20
2.1684393772
 30
0.0
 10
1.1535603299
 20
2.1437336128
 30
0.0
 10
1.1396076934
 20
2.1217353905
 30
0.0
 10
1.1233299578
 20
2.1027138022
 30
0.0
 10
1.1049159466
 20
2.086892028
 30
0.0
 10
1.0846902397
 20
2.074502684
 30
0.0
 10
1.0701812851
 20
2.0685658056
 30
0.0
 10
1.0628137539
 20
2.0661998952
 30
0.0
 11
1.184671076
 21
2.2893612626
 31
0.0
 11
1.1836079716
 21
2.2562669306
 31
0.0
 11
1.1798298182
 21
2.2247346205
 31
0.0
 11
1.1733803906
 21
2.195249185
 31
0.0
 11
1.1643744285
 21
2.1681965761
 31
0.0
 11
1.1528701673
 21
2.1436697031
 31
0.0
 11
1.1389093786
 21
2.1218095535
 31
0.0
 11
1.1226818224
 21
2.1029505881
 31
0.0
 11
1.1044380889
 21
2.0873336833
 31
0.0
 11
1.0842713354
 21
2.0749979994
 31
0.0
 11
1.0628137539
 21
2.0661998952
 31
0.0
  0
SPLINE
  5
28D
100
AcDbEntity
  8
RACCORDO
100
AcDbSpline
 62
7
  6
CONTINUOUS
 70
0
 71
3
 72
23
 73
19
 74
17
 42
0.0000001
 43
0.0000001
 44
0.0000000001
 12
0.5249182302
 22
-0.2624591151
 32
0.0
 13
0.0036517027
 23
-0.5868650616
 33
0.0
 40
0.0
 40
0.0
 40
0.0
 40
0.0
 40
0.0540534394
 40
0.1108095711
 40
0.1698178519
 40
0.2305904547
 40
0.293167576
 40
0.3575314641
 40
0.4230178089
 40
0.4889353731
 40
0.5552387648
 40
0.6218827833
 40
0.6881587177
 40
0.7533442148
 40
0.8173672924
 40
0.8802128772
 40
0.9412902139
 40
1.0
 40
1.0
 40
1.0
 40
1.0
 10
0.8917696173
 20
3.9850063392
 30
0.0
 10
0.9012274959
 20
3.9802773999
 30
0.0
 10
0.9201540835
 20
3.9696366156
 30
0.0
 10
0.947622947
 20
3.9508894463
 30
0.0
 10
0.9745326235
 20
3.9291884185
 30
0.0
 10
1.0005963156
 20
3.9047866701
 30
0.0
 10
1.025625571
 20
3.8778786203
 30
0.0
 10
1.0494159229
 20
3.8486719964
 30
0.0
 10
1.0716950416
 20
3.8174918363
 30
0.0
 10
1.0922288298
 20
3.7846885302
 30
0.0
 10
1.1108710065
 20
3.7505167541
 30
0.0
 10
1.1274721376
 20
3.7152303529
 30
0.0
 10
1.1418398362
 20
3.6792119934
 30
0.0
 10
1.153819535
 20
3.6428693923
 30
0.0
 10
1.1633248226
 20
3.6064946258
 30
0.0
 10
1.1702733276
 20
3.5703612247
 30
0.0
 10
1.1745749889
 20
3.5348646623
 30
0.0
 10
1.1756705001
 20
3.5114294987
 30
0.0
 10
1.1757419636
 20
3.4999445913
 30
0.0
 11
0.8917696173
 21
3.9850063392
 31
0.0
 11
0.9194538837
 21
3.9695172979
 31
0.0
 11
0.9469991994
 21
3.9507894014
 31
0.0
 11
0.9739873852
 21
3.9290888457
 31
0.0
 11
1.0000513064
 21
3.9047426731
 31
0.0
 11
1.0250879605
 21
3.8778745823
 31
0.0
 11
1.048963565
 21
3.8486033674
 31
0.0
 11
1.071321429
 21
3.8173435745
 31
0.0
 11
1.0918562985
 21
3.7845581466
 31
0.0
 11
1.1104947298
 21
3.7504005028
 31
0.0
 11
1.1271418106
 21
3.7150083024
 31
0.0
 11
1.1415432461
 21
3.6788768671
 31
0.0
 11
1.1535030666
 21
3.6425385771
 31
0.0
 11
1.1629785313
 21
3.6061793472
 31
0.0
 11
1.1699110815
 21
3.5699541441
 31
0.0
 11
1.1741820515
 21
3.5343646512
 31
0.0
 11
1.1757419636
 21
3.4999445913
 31
0.0
  0
SPLINE
  5
28E
100
AcDbEntity
  8
RACCORDO
100
AcDbSpline
 62
253
  6
CONTINUOUS
 70
0
 71
3
 72
14
 73
10
 74
8
 42
0.0000001
 43
0.0000001
 44
0.0000000001
 12
0.1079759423
 22
0.059107575
 32
0.0
 13
0.1114318115
 23
-0.0519160149
 33
0.0
 40
0.0
 40
0.0
 40
0.0
 40
0.0
 40
0.0441160084
 40
0.1884254707
 40
0.3362174592
 40
0.4897860629
 40
0.6509086686
 40
0.8207758232
 40
1.0
 40
1.0
 40
1.0
 40
1.0
 10
-17.3226579836
 20
16.1928429964
 30
0.0
 10
-17.3210701611
 20
16.1937121932
 30
0.0
 10
-17.3141868106
 20
16.1972388029
 30
0.0
 10
-17.3012050232
 20
16.2020644313
 30
0.0
 10
-17.2831590832
 20
16.2053865335
 30
0.0
 10
-17.264134672
 20
16.2057540765
 30
0.0
 10
-17.2443787626
 20
16.2031842071
 30
0.0
 10
-17.2241397617
 20
16.197729357
 30
0.0
 10
-17.2108400549
 20
16.192364541
 30
0.0
 10
-17.2041829634
 20
16.189263006
 30
0.0
 11
-17.3226579836
 21
16.1928429964
 31
0.0
 11
-17.3178254787
 21
16.1953184916
 31
0.0
 11
-17.3012054243
 21
16.2015226208
 31
0.0
 11
-17.2833463365
 21
16.2048607993
 31
0.0
 11
-17.2644727169
 21
16.2052910638
 31
0.0
 11
-17.24482182
 21
16.2028080055
 31
0.0
 11
-17.2246406717
 21
16.1974428382
 31
0.0
 11
-17.2041829634
 21
16.189263006
 31
0.0
  0
SPLINE
  5
28F
100
AcDbEntity
  8
0
100
AcDbSpline
 62
253
  6
CONTINUOUS
 70
0
 71
3
 72
16
 73
12
 74
10
 42
0.0000001
 43
0.0000001
 44
0.0000000001
 12
0.0036161431
 22
-0.2418106431
 32
0.0
 13
0.2159330074
 23
-0.1081392174
 33
0.0
 40
0.0
 40
0.0
 40
0.0
 40
0.0
 40
0.0103930778
 40
0.112579259
 40
0.2175952946
 40
0.3277075654
 40
0.4447150983
 40
0.5698908686
 40
0.7040051974
 40
0.8473880294
 40
1.0
 40
1.0
 40
1.0
 40
1.0
 10
-17.4583197193
 20
8.0371423969
 30
0.0
 10
-17.4583071917
 20
8.036304678
 30
0.0
 10
-17.4580840812
 20
8.0272317821
 30
0.0
 10
-17.4558148256
 20
8.0097594009
 30
0.0
 10
-17.4479180466
 20
7.9853267535
 30
0.0
 10
-17.4354729898
 20
7.9615337989
 30
0.0
 10
-17.4186411123
 20
7.9385922566
 30
0.0
 10
-17.3976052169
 20
7.9166899113
 30
0.0
 10
-17.3725685819
 20
7.8960032248
 30
0.0
 10
-17.3437638054
 20
7.8767040841
 30
0.0
 10
-17.3228511078
 20
7.8652184233
 30
0.0
 10
-17.3118664539
 20
7.8597173103
 30
0.0
 11
-17.4583197193
 21
8.0371423969
 31
0.0
 11
-17.4582578929
 21
8.0346297788
 31
0.0
 11
-17.4551157479
 21
8.0101529055
 31
0.0
 11
-17.4473997909
 21
7.9859940325
 31
0.0
 11
-17.4351810682
 21
7.9623756071
 31
0.0
 11
-17.4185720857
 21
7.9395151
 31
0.0
 11
-17.3977257736
 21
7.9176230035
 31
0.0
 11
-17.3728340781
 21
7.896900893
 31
0.0
 11
-17.3441261938
 21
7.877539571
 31
0.0
 11
-17.3118664539
 21
7.8597173103
 31
0.0
  0
SPLINE
  5
290
100
AcDbEntity
  8
0
100
AcDbSpline
 62
253
  6
CONTINUOUS
 70
0
 71
3
 72
15
 73
11
 74
9
 42
0.0000001
 43
0.0000001
 44
0.0000000001
 12
0.0375366471
 22
-0.2295377124
 32
0.0
 13
0.2073415345
 23
-0.1048162105
 33
0.0
 40
0.0
 40
0.0
 40
0.0
 40
0.0
 40
0.029769831
 40
0.1523888438
 40
0.2779973496
 40
0.4083654372
 40
0.5449145327
 40
0.6886722944
 40
0.8402752851
 40
1.0
 40
1.0
 40
1.0
 40
1.0
 10
-16.781990638
 20
-1.7469486979
 30
0.0
 10
-16.7816181515
 20
-1.7492264642
 30
0.0
 10
-16.779479152
 20
-1.760847956
 30
0.0
 10
-16.7734177224
 20
-1.7816036182
 30
0.0
 10
-16.7608198306
 20
-1.8082064078
 30
0.0
 10
-16.7438368945
 20
-1.8335418539
 30
0.0
 10
-16.7226535566
 20
-1.8573828427
 30
0.0
 10
-16.6974819301
 20
-1.8795252565
 30
0.0
 10
-16.668564955
 20
-1.8997802012
 30
0.0
 10
-16.6475070355
 20
-1.9116073107
 30
0.0
 10
-16.6364678464
 20
-1.9171878905
 30
0.0
 11
-16.781990638
 21
-1.7469486979
 31
0.0
 11
-16.7807372526
 21
-1.753757774
 31
0.0
 11
-16.7727880685
 21
-1.7811142487
 31
0.0
 11
-16.7603624298
 21
-1.8075192606
 31
0.0
 11
-16.743574805
 21
-1.8327295594
 31
0.0
 11
-16.7225798464
 21
-1.8565129007
 31
0.0
 11
-16.6975709654
 21
-1.8786501858
 31
0.0
 11
-16.6687785508
 21
-1.8989374798
 31
0.0
 11
-16.6364678464
 21
-1.9171878905
 31
0.0
  0
LINE
  5
291
100
AcDbEntity
  8
0
100
AcDbLine
 62
253
  6
CONTINUOUS
 10
-16.3888764367
 20
-2.3307036318
 11
-16.3891720829
 21
-2.3305556598
  0
SPLINE
  5
292
100
AcDbEntity
  8
0
100
AcDbSpline
 62
253
  6
CONTINUOUS
 70
0
 71
3
 72
15
 73
11
 74
9
 42
0.0000001
 43
0.0000001
 44
0.0000000001
 12
-0.3642488031
 22
0.2579223609
 32
0.0
 13
-0.0570769293
 23
0.44233646
 33
0.0
 40
0.0
 40
0.0
 40
0.0
 40
0.0
 40
0.1104540836
 40
0.223556298
 40
0.3402911134
 40
0.4614654145
 40
0.5876925787
 40
0.7193943431
 40
0.856805535
 40
1.0
 40
1.0
 40
1.0
 40
1.0
 10
-16.436625002
 20
-2.3020669864
 30
0.0
 10
-16.4500359246
 20
-2.2925707938
 30
0.0
 10
-16.4758963942
 20
-2.2715455422
 30
0.0
 10
-16.5108803206
 20
-2.2348226068
 30
0.0
 10
-16.5421643467
 20
-2.1929096047
 30
0.0
 10
-16.5695580814
 20
-2.1460960439
 30
0.0
 10
-16.5928995495
 20
-2.0946954418
 30
0.0
 10
-16.6120524695
 20
-2.0390432608
 30
0.0
 10
-16.6269049599
 20
-1.9795026867
 30
0.0
 10
-16.6337434798
 20
-1.9383012682
 30
0.0
 10
-16.6364678466
 20
-1.9171878906
 30
0.0
 11
-16.436625002
 21
-2.3020669864
 31
0.0
 11
-16.4748876147
 21
-2.2710378231
 31
0.0
 11
-16.5097454494
 21
-2.2345751113
 31
0.0
 11
-16.5409727341
 21
-2.1929153745
 31
0.0
 11
-16.5683672921
 21
-2.1463287607
 31
0.0
 11
-16.5917517847
 21
-2.0951173742
 31
0.0
 11
-16.6109751032
 21
-2.0396125079
 31
0.0
 11
-16.6259125526
 21
-1.9801748556
 31
0.0
 11
-16.6364678466
 21
-1.9171878906
 31
0.0
  0
SPLINE
  5
293
100
AcDbEntity
  8
RACCORDO
100
AcDbSpline
 62
253
  6
CONTINUOUS
 70
0
 71
3
 72
24
 73
20
 74
18
 42
0.0000001
 43
0.0000001
 44
0.0000000001
 12
-0.3225383182
 22
-0.1537130115
 32
0.0
 13
-0.3195746748
 23
0.1597832403
 33
0.0
 40
0.0
 40
0.0
 40
0.0
 40
0.0
 40
0.0524730889
 40
0.1073724184
 40
0.164442622
 40
0.2233961642
 40
0.283914619
 40
0.3456553533
 40
0.4082554946
 40
0.4713401437
 40
0.5345269365
 40
0.5974328202
 40
0.6596779188
 40
0.7208925822
 40
0.7807219467
 40
0.8388342871
 40
0.894925227
 40
0.9487248433
 40
1.0
 40
1.0
 40
1.0
 40
1.0
 10
13.792493894
 20
0.6909245773
 30
0.0
 10
13.7868523667
 20
0.6882359785
 30
0.0
 10
13.7751103373
 20
0.6831429911
 30
0.0
 10
13.7566779971
 20
0.6764913631
 30
0.0
 10
13.7371521244
 20
0.6706974908
 30
0.0
 10
13.7166926609
 20
0.6658092679
 30
0.0
 10
13.6954648595
 20
0.6618661129
 30
0.0
 10
13.6736407864
 20
0.6589001352
 30
0.0
 10
13.6513973907
 20
0.65693546
 30
0.0
 10
13.6289153088
 20
0.6559881082
 30
0.0
 10
13.6063770338
 20
0.6560657926
 30
0.0
 10
13.5839655911
 20
0.6571678735
 30
0.0
 10
13.5618628894
 20
0.6592853651
 30
0.0
 10
13.5402483849
 20
0.6624009916
 30
0.0
 10
13.5192972433
 20
0.6664894162
 30
0.0
 10
13.4991791852
 20
0.6715173706
 30
0.0
 10
13.4800565234
 20
0.677444384
 30
0.0
 10
13.4620857726
 20
0.684221549
 30
0.0
 10
13.4506808523
 20
0.689401546
 30
0.0
 10
13.4452187718
 20
0.6921325162
 30
0.0
 11
13.792493894
 21
0.6909245773
 31
0.0
 11
13.7753056118
 21
0.6834371545
 31
0.0
 11
13.7568635116
 21
0.6767555371
 31
0.0
 11
13.7373208938
 21
0.6709356256
 31
0.0
 11
13.7168375662
 21
0.6660250734
 31
0.0
 11
13.6955806383
 21
0.6620639211
 31
0.0
 11
13.6737232126
 21
0.6590844407
 31
0.0
 11
13.6514438193
 21
0.6571109836
 31
0.0
 11
13.6289241688
 21
0.6561596464
 31
0.0
 11
13.606348074
 21
0.6562381898
 31
0.0
 11
13.5838995264
 21
0.6573459739
 31
0.0
 11
13.5617617969
 21
0.6594739561
 31
0.0
 11
13.5401154354
 21
0.6626047748
 31
0.0
 11
13.5191372391
 21
0.6667128386
 31
0.0
 11
13.4989980277
 21
0.6717646776
 31
0.0
 11
13.4798620994
 21
0.6777190949
 31
0.0
 11
13.4618859245
 21
0.6845273392
 31
0.0
 11
13.4452187718
 21
0.6921325162
 31
0.0
  0
SPLINE
  5
294
100
AcDbEntity
  8
RACCORDO
100
AcDbSpline
 62
253
  6
CONTINUOUS
 70
0
 71
3
 72
24
 73
20
 74
18
 42
0.0000001
 43
0.0000001
 44
0.0000000001
 12
-0.2109636275
 22
0.1054845185
 32
0.0
 13
0.206907066
 23
0.11323472
 33
0.0
 40
0.0
 40
0.0
 40
0.0
 40
0.0
 40
0.073604999
 40
0.1429946744
 40
0.2081158634
 40
0.2690715761
 40
0.326139588
 40
0.3797983211
 40
0.4307418959
 40
0.4798748912
 40
0.5282642816
 40
0.5770507795
 40
0.6273350143
 40
0.6800785173
 40
0.7360420195
 40
0.7957693816
 40
0.8595969972
 40
0.9276778407
 40
1.0
 40
1.0
 40
1.0
 40
1.0
 10
-17.1981201448
 20
16.0138019745
 30
0.0
 10
-17.2032961374
 20
16.0163900371
 30
0.0
 10
-17.2131791641
 20
16.0217761802
 30
0.0
 10
-17.2268785895
 20
16.0307593988
 30
0.0
 10
-17.2389204358
 20
16.0403474244
 30
0.0
 10
-17.2492051971
 20
16.0504680524
 30
0.0
 10
-17.2576467895
 20
16.0610478665
 30
0.0
 10
-17.264168229
 20
16.0720103
 30
0.0
 10
-17.2687009388
 20
16.0832721193
 30
0.0
 10
-17.2711874842
 20
16.0947376821
 30
0.0
 10
-17.2715907847
 20
16.1062962107
 30
0.0
 10
-17.2699047391
 20
16.1178280187
 30
0.0
 10
-17.2661562086
 20
16.1292180525
 30
0.0
 10
-17.2603961723
 20
16.1403652507
 30
0.0
 10
-17.2526891137
 20
16.1511822783
 30
0.0
 10
-17.2431083307
 20
16.161589971
 30
0.0
 10
-17.2317357392
 20
16.1715129745
 30
0.0
 10
-17.2186662731
 20
16.1808769446
 30
0.0
 10
-17.209170952
 20
16.1865332128
 30
0.0
 10
-17.2041829634
 20
16.189263006
 30
0.0
 11
-17.1981201448
 21
16.0138019745
 31
0.0
 11
-17.2133459046
 21
16.0221432538
 31
0.0
 11
-17.2270084976
 21
16.0311543934
 31
0.0
 11
-17.23899376
 21
16.0407605714
 31
0.0
 11
-17.2492035654
 21
16.0508832408
 31
0.0
 11
-17.2575546538
 21
16.0614398194
 31
0.0
 11
-17.2639789871
 21
16.072344348
 31
0.0
 11
-17.268424054
 21
16.083507764
 31
0.0
 11
-17.270853589
 21
16.0948390213
 31
0.0
 11
-17.2712477605
 21
16.106245611
 31
0.0
 11
-17.269603356
 21
16.1176345712
 31
0.0
 11
-17.2659337891
 21
16.1289129415
 31
0.0
 11
-17.2602689909
 21
16.1399887357
 31
0.0
 11
-17.2526552613
 21
16.1507714871
 31
0.0
 11
-17.243154631
 21
16.161173388
 31
0.0
 11
-17.2318445673
 21
16.1711095765
 31
0.0
 11
-17.2188176789
 21
16.1804987998
 31
0.0
 11
-17.2041829634
 21
16.189263006
 31
0.0
  0
SPLINE
  5
295
100
AcDbEntity
  8
RACCORDO
100
AcDbSpline
 62
7
  6
CONTINUOUS
 70
0
 71
3
 72
23
 73
19
 74
17
 42
0.0000001
 43
0.0000001
 44
0.0000000001
 12
-0.4697235934
 22
0.2720556507
 32
0.0
 13
-0.0327478609
 23
0.5417582291
 33
0.0
 40
0.0
 40
0.0
 40
0.0
 40
0.0
 40
0.0197112377
 40
0.0810136604
 40
0.1447474378
 40
0.2103855487
 40
0.2779702474
 40
0.3474889991
 40
0.4182279689
 40
0.4894443216
 40
0.5610860775
 40
0.6331136178
 40
0.7047627447
 40
0.7752532483
 40
0.8445006569
 40
0.9124937506
 40
0.9785939253
 40
1.0
 40
1.0
 40
1.0
 40
1.0
 10
-4.983924697
 20
5.032329152
 30
0.0
 10
-4.9870109748
 20
5.0341166698
 30
0.0
 10
-4.9995865656
 20
5.0416530511
 30
0.0
 10
-5.0212393857
 20
5.0564151969
 30
0.0
 10
-5.0481265334
 20
5.0780626494
 30
0.0
 10
-5.0741773267
 20
5.1023996195
 30
0.0
 10
-5.0992048675
 20
5.129233975
 30
0.0
 10
-5.1230061665
 20
5.158361101
 30
0.0
 10
-5.1453101099
 20
5.1894603754
 30
0.0
 10
-5.1658819955
 20
5.2221845964
 30
0.0
 10
-5.184575135
 20
5.256282737
 30
0.0
 10
-5.2012390279
 20
5.2915041854
 30
0.0
 10
-5.215679703
 20
5.3274702275
 30
0.0
 10
-5.2277394977
 20
5.3637742029
 30
0.0
 10
-5.2373294082
 20
5.4001250601
 30
0.0
 10
-5.2443644923
 20
5.4362498949
 30
0.0
 10
-5.2478161581
 20
5.4641827478
 30
0.0
 10
-5.2489717977
 20
5.4799735207
 30
0.0
 10
-5.2492054654
 20
5.4838391598
 30
0.0
 11
-4.983924697
 21
5.032329152
 31
0.0
 11
-4.9931034102
 21
5.037826956
 31
0.0
 11
-5.0206178201
 21
5.056514236
 31
0.0
 11
-5.0475834536
 21
5.0781614975
 31
0.0
 11
-5.0736345866
 21
5.1024434278
 31
0.0
 11
-5.0986686266
 21
5.1292372838
 31
0.0
 11
-5.1225546944
 21
5.1584285098
 31
0.0
 11
-5.1449369617
 21
5.1896068168
 31
0.0
 11
-5.1655101251
 21
5.2223137974
 31
0.0
 11
-5.1841986452
 21
5.2563965011
 31
0.0
 11
-5.200908501
 21
5.2917233751
 31
0.0
 11
-5.2153830676
 21
5.3278023068
 31
0.0
 11
-5.2274233336
 21
5.3641032003
 31
0.0
 11
-5.2369831429
 21
5.4004377264
 31
0.0
 11
-5.2440024669
 21
5.436654329
 31
0.0
 11
-5.2483593244
 21
5.4722522292
 31
0.0
 11
-5.2492054654
 21
5.4838391598
 31
0.0
  0
SPLINE
  5
296
100
AcDbEntity
  8
RACCORDO
100
AcDbSpline
 62
7
  6
CONTINUOUS
 70
0
 71
3
 72
15
 73
11
 74
9
 42
0.0000001
 43
0.0000001
 44
0.0000000001
 12
0.0098937155
 22
0.203503376
 32
0.0
 13
0.1649862835
 23
0.1197703097
 33
0.0
 40
0.0
 40
0.0
 40
0.0
 40
0.0
 40
0.0532447951
 40
0.2091906884
 40
0.3575194669
 40
0.4977555399
 40
0.6311027592
 40
0.7588815841
 40
0.88153854
 40
1.0
 40
1.0
 40
1.0
 40
1.0
 10
-5.2584675284
 20
6.7395243096
 30
0.0
 10
-5.2582919321
 20
6.7431361415
 30
0.0
 10
-5.2574040411
 20
6.7573171529
 30
0.0
 10
-5.2545026789
 20
6.7814476142
 30
0.0
 10
-5.2480387593
 20
6.8109774344
 30
0.0
 10
-5.2389759363
 20
6.8382110977
 30
0.0
 10
-5.2273861401
 20
6.8629474153
 30
0.0
 10
-5.2133339728
 20
6.8849834131
 30
0.0
 10
-5.1969525439
 20
6.9040476406
 30
0.0
 10
-5.1844703284
 20
6.9147406682
 30
0.0
 10
-5.1779554898
 20
6.9194700568
 30
0.0
 11
-5.2584675284
 21
6.7395243096
 31
0.0
 11
-5.2577874879
 21
6.7503510497
 31
0.0
 11
-5.2539272353
 21
6.7818768497
 31
0.0
 11
-5.2473920409
 21
6.8113714071
 31
0.0
 11
-5.2382963245
 21
6.8384460566
 31
0.0
 11
-5.2266983752
 21
6.8630037103
 31
0.0
 11
-5.2126384541
 21
6.8849033466
 31
0.0
 11
-5.196306911
 21
6.9038070157
 31
0.0
 11
-5.1779554898
 21
6.9194700568
 31
0.0
  0
LINE
  5
297
100
AcDbEntity
  8
RACCORDO
100
AcDbLine
 62
7
  6
CONTINUOUS
 10
-5.2500006327
 20
5.506697117
 11
-5.2514991458
 21
5.6859548818
  0
LINE
  5
298
100
AcDbEntity
  8
RACCORDO
100
AcDbLine
 62
7
  6
CONTINUOUS
 10
-5.2514991458
 20
5.6859548818
 11
-5.251864223
 21
5.7307737302
  0
LINE
  5
299
100
AcDbEntity
  8
RACCORDO
100
AcDbLine
 62
7
  6
CONTINUOUS
 10
-5.251864223
 20
5.7307737302
 11
-5.2532863287
 21
5.9100667619
  0
LINE
  5
29A
100
AcDbEntity
  8
RACCORDO
100
AcDbLine
 62
7
  6
CONTINUOUS
 10
-5.2532863287
 20
5.9100667619
 11
-5.2546473631
 21
6.0893949043
  0
LINE
  5
29B
100
AcDbEntity
  8
RACCORDO
100
AcDbLine
 62
7
  6
CONTINUOUS
 10
-5.2546473631
 20
6.0893949043
 11
-5.2549780709
 21
6.1342313297
  0
LINE
  5
29C
100
AcDbEntity
  8
RACCORDO
100
AcDbLine
 62
7
  6
CONTINUOUS
 10
-5.2549780709
 20
6.1342313297
 11
-5.2562627003
 21
6.3135946558
  0
LINE
  5
29D
100
AcDbEntity
  8
RACCORDO
100
AcDbLine
 62
7
  6
CONTINUOUS
 10
-5.2562627003
 20
6.3135946558
 11
-5.257486255
 21
6.4929930127
  0
LINE
  5
29E
100
AcDbEntity
  8
RACCORDO
100
AcDbLine
 62
7
  6
CONTINUOUS
 10
-5.257486255
 20
6.4929930127
 11
-5.2577825931
 21
6.537846988
  0
LINE
  5
29F
100
AcDbEntity
  8
RACCORDO
100
AcDbLine
 62
7
  6
CONTINUOUS
 10
-5.2577825931
 20
6.537846988
 11
-5.2589297451
 21
6.7172804457
  0
SPLINE
  5
2A0
100
AcDbEntity
  8
RACCORDO
100
AcDbSpline
 62
7
  6
CONTINUOUS
 70
0
 71
3
 72
14
 73
10
 74
8
 42
0.0000001
 43
0.0000001
 44
0.0000000001
 12
-0.1348742279
 22
-0.0433117058
 32
0.0
 13
-0.1305045418
 23
0.0549059436
 33
0.0
 40
0.0
 40
0.0
 40
0.0
 40
0.0
 40
0.0041519654
 40
0.1751397287
 40
0.3507158298
 40
0.5337212842
 40
0.7267852074
 40
0.9302596416
 40
1.0
 40
1.0
 40
1.0
 40
1.0
 10
1.0628137539
 20
2.0661998952
 30
0.0
 10
1.0626270895
 20
2.0661399523
 30
0.0
 10
1.054748194
 20
2.0636269609
 30
0.0
 10
1.0385582202
 20
2.0599088016
 30
0.0
 10
1.013556405
 20
2.0580705153
 30
0.0
 10
0.9875162668
 20
2.0598306322
 30
0.0
 10
0.9606361557
 20
2.0651743745
 30
0.0
 10
0.939667919
 20
2.0719558148
 30
0.0
 10
0.9276987091
 20
2.0767575904
 30
0.0
 10
0.924664898
 20
2.0780339771
 30
0.0
 11
1.0628137539
 21
2.0661998952
 31
0.0
 11
1.0622534102
 21
2.0660211722
 31
0.0
 11
1.0386815389
 21
2.0605589754
 31
0.0
 11
1.0139077688
 21
2.0586690273
 31
0.0
 11
0.9880643625
 21
2.060335537
 31
0.0
 11
0.9612517524
 21
2.0655787467
 31
0.0
 11
0.9338298503
 21
2.0743601671
 31
0.0
 11
0.924664898
 21
2.0780339771
 31
0.0
  0
SPLINE
  5
2A1
100
AcDbEntity
  8
RACCORDO
100
AcDbSpline
 62
253
  6
CONTINUOUS
 70
0
 71
3
 72
21
 73
17
 74
15
 42
0.0000001
 43
0.0000001
 44
0.0000000001
 12
-0.0027086902
 22
0.3665006289
 32
0.0
 13
-0.3229569199
 23
0.1732884182
 33
0.0
 40
0.0
 40
0.0
 40
0.0
 40
0.0
 40
0.0675515957
 40
0.1379106427
 40
0.210618269
 40
0.2851460241
 40
0.3609149144
 40
0.4373129777
 40
0.5137119661
 40
0.5894836079
 40
0.6640158694
 40
0.7367296356
 40
0.8070962814
 40
0.8746567015
 40
0.9390424875
 40
1.0
 40
1.0
 40
1.0
 40
1.0
 10
13.9645361321
 20
0.3837785816
 30
0.0
 10
13.96447514
 20
0.3920311491
 30
0.0
 10
13.9635917951
 20
0.4088804004
 30
0.0
 10
13.96018166
 20
0.434408882
 30
0.0
 10
13.9547000636
 20
0.4604454041
 30
0.0
 10
13.9472155334
 20
0.4866640082
 30
0.0
 10
13.937821334
 20
0.5127393576
 30
0.0
 10
13.9266345325
 20
0.538346476
 30
0.0
 10
13.9137945579
 20
0.563166295
 30
0.0
 10
13.8994614131
 20
0.5868894764
 30
0.0
 10
13.8838135969
 20
0.6092204991
 30
0.0
 10
13.8670455497
 20
0.6298815
 30
0.0
 10
13.8493654101
 20
0.6486155354
 30
0.0
 10
13.8309903309
 20
0.6651905923
 30
0.0
 10
13.8121491211
 20
0.6793990235
 30
0.0
 10
13.7990561108
 20
0.6874035003
 30
0.0
 10
13.792493894
 20
0.6909245773
 30
0.0
 11
13.9645361321
 21
0.3837785816
 31
0.0
 11
13.9632859802
 21
0.4085053773
 31
0.0
 11
13.9599082424
 21
0.434070544
 31
0.0
 11
13.9544453793
 21
0.4601527094
 31
0.0
 11
13.946966063
 21
0.4864240017
 31
0.0
 11
13.937564314
 21
0.5125541722
 31
0.0
 11
13.9263583191
 21
0.538214746
 31
0.0
 11
13.9134889458
 21
0.5630831513
 31
0.0
 11
13.8991179713
 21
0.5868467747
 31
0.0
 11
13.8834260492
 21
0.6092068907
 31
0.0
 11
13.866610438
 21
0.6298824169
 31
0.0
 11
13.848882522
 21
0.6486134474
 31
0.0
 11
13.8304651537
 21
0.6651645202
 31
0.0
 11
13.8115898524
 21
0.6793275766
 31
0.0
 11
13.792493894
 21
0.6909245773
 31
0.0
  0
SPLINE
  5
2A2
100
AcDbEntity
  8
RACCORDO
100
AcDbSpline
 62
253
  6
CONTINUOUS
 70
0
 71
3
 72
21
 73
17
 74
15
 42
0.0000001
 43
0.0000001
 44
0.0000000001
 12
-0.0002381811
 22
0.3665649359
 32
0.0
 13
0.3264581342
 23
0.1667183122
 33
0.0
 40
0.0
 40
0.0
 40
0.0
 40
0.0
 40
0.0673451676
 40
0.1373665829
 40
0.2096497344
 40
0.2837102531
 40
0.3590123512
 40
0.4349859312
 40
0.5110428482
 40
0.5865927408
 40
0.6610588114
 40
0.7338939267
 40
0.8045974427
 40
0.8727332169
 40
0.9379493261
 40
1.0
 40
1.0
 40
1.0
 40
1.0
 10
13.2699847804
 20
0.3878451744
 30
0.0
 10
13.2699794336
 20
0.3960739668
 30
0.0
 10
13.270748868
 20
0.4128663749
 30
0.0
 10
13.2740541001
 20
0.4382950269
 30
0.0
 10
13.2794929462
 20
0.4641929744
 30
0.0
 10
13.2869978618
 20
0.4902390472
 30
0.0
 10
13.2964760903
 20
0.5161133802
 30
0.0
 10
13.3078106102
 20
0.5414967428
 30
0.0
 10
13.3208615244
 20
0.566076024
 30
0.0
 10
13.3354678219
 20
0.5895479036
 30
0.0
 10
13.3514494309
 20
0.6116228149
 30
0.0
 10
13.3686097443
 20
0.632028647
 30
0.0
 10
13.3867378375
 20
0.650513894
 30
0.0
 10
13.4056130647
 20
0.6668514815
 30
0.0
 10
13.4250023894
 20
0.6808383113
 30
0.0
 10
13.438466456
 20
0.6886841883
 30
0.0
 10
13.4452187718
 20
0.6921325162
 30
0.0
 11
13.2699847804
 21
0.3878451744
 31
0.0
 11
13.2710694636
 21
0.4125077155
 31
0.0
 11
13.2743413432
 21
0.4379657256
 31
0.0
 11
13.2797596876
 21
0.463902277
 31
0.0
 11
13.2872570435
 21
0.4899944844
 31
0.0
 11
13.2967400761
 21
0.5159175249
 31
0.0
 11
13.3080907306
 21
0.5413486815
 31
0.0
 11
13.3211677023
 21
0.5659713606
 31
0.0
 11
13.3358081954
 21
0.5894790335
 31
0.0
 11
13.3518299498
 21
0.6115790521
 31
0.0
 11
13.36903351
 21
0.6319962924
 31
0.0
 11
13.3872047083
 21
0.6504765794
 31
0.0
 11
13.4061173305
 21
0.6667898512
 31
0.0
 11
13.4255359326
 21
0.6807330232
 31
0.0
 11
13.4452187718
 21
0.6921325162
 31
0.0
  0
SPLINE
  5
2A3
100
AcDbEntity
  8
RACCORDO
100
AcDbSpline
 62
253
  6
CONTINUOUS
 70
0
 71
3
 72
21
 73
17
 74
15
 42
0.0000001
 43
0.0000001
 44
0.0000000001
 12
-0.0002381814
 22
0.366564936
 32
0.0
 13
0.3264581343
 23
0.1667183119
 33
0.0
 40
0.0
 40
0.0
 40
0.0
 40
0.0
 40
0.0673451718
 40
0.1373665919
 40
0.2096497479
 40
0.2837102706
 40
0.3590123719
 40
0.4349859543
 40
0.5110428723
 40
0.5865927648
 40
0.661058834
 40
0.7338939467
 40
0.804597459
 40
0.8727332284
 40
0.9379493321
 40
1.0
 40
1.0
 40
1.0
 40
1.0
 10
-17.3733541363
 20
15.7095146328
 30
0.0
 10
-17.373359483
 20
15.7177434256
 30
0.0
 10
-17.3725900485
 20
15.7345358349
 30
0.0
 10
-17.369284816
 20
15.7599644885
 30
0.0
 10
-17.3638459693
 20
15.7858624375
 30
0.0
 10
-17.3563410529
 20
15.8119085115
 30
0.0
 10
-17.3468628236
 20
15.8377828456
 30
0.0
 10
-17.3355283028
 20
15.8631662086
 30
0.0
 10
-17.3224773879
 20
15.8877454899
 30
0.0
 10
-17.30787109
 20
15.9112173691
 30
0.0
 10
-17.2918894807
 20
15.9332922797
 30
0.0
 10
-17.2747291675
 20
15.9536981107
 30
0.0
 10
-17.2566010749
 20
15.9721833563
 30
0.0
 10
-17.2377258487
 20
15.9885209424
 30
0.0
 10
-17.2183365254
 20
16.0025077708
 30
0.0
 10
-17.2048724599
 20
16.010353647
 30
0.0
 10
-17.1981201448
 20
16.0138019745
 30
0.0
 11
-17.3733541363
 21
15.7095146328
 31
0.0
 11
-17.3722694529
 21
15.7341771754
 31
0.0
 11
-17.3689975729
 21
15.7596351872
 31
0.0
 11
-17.3635792278
 21
15.7855717402
 31
0.0
 11
-17.3560818711
 21
15.8116639489
 31
0.0
 11
-17.3465988377
 21
15.8375869903
 31
0.0
 11
-17.3352481824
 21
15.8630181474
 31
0.0
 11
-17.32217121
 21
15.8876408266
 31
0.0
 11
-17.3075307164
 21
15.9111484991
 31
0.0
 11
-17.2915089618
 21
15.933248517
 31
0.0
 11
-17.2743054017
 21
15.9536657562
 31
0.0
 11
-17.2561342041
 21
15.9721460419
 31
0.0
 11
-17.2372215829
 21
15.9884593122
 31
0.0
 11
-17.2178029821
 21
16.0024024827
 31
0.0
 11
-17.1981201448
 21
16.0138019745
 31
0.0
  0
SPLINE
  5
2A4
100
AcDbEntity
  8
RACCORDO
100
AcDbSpline
 62
253
  6
CONTINUOUS
 70
0
 71
3
 72
24
 73
20
 74
18
 42
0.0000001
 43
0.0000001
 44
0.0000000001
 12
-0.6460894983
 22
-0.3048812545
 32
0.0
 13
-0.6389944042
 23
0.3194845389
 33
0.0
 40
0.0
 40
0.0
 40
0.0
 40
0.0
 40
0.0524100356
 40
0.1072497924
 40
0.1642744396
 40
0.2231948714
 40
0.2836919856
 40
0.345422123
 40
0.4080213494
 40
0.471113599
 40
0.5343152536
 40
0.5972420897
 40
0.6595128813
 40
0.7207563994
 40
0.7806160868
 40
0.8387583409
 40
0.8948769789
 40
0.9486992022
 40
1.0
 40
1.0
 40
1.0
 40
1.0
 10
13.9645381606
 20
0.3837795388
 30
0.0
 10
13.9532509694
 20
0.3784532597
 30
0.0
 10
13.9297610469
 20
0.368370638
 30
0.0
 10
13.8928945875
 20
0.3552197814
 30
0.0
 10
13.8538434449
 20
0.3437822081
 30
0.0
 10
13.8129251809
 20
0.3341514856
 30
0.0
 10
13.7704704208
 20
0.3264053887
 30
0.0
 10
13.726823264
 20
0.3206069631
 30
0.0
 10
13.68233761
 20
0.3168033836
 30
0.0
 10
13.6373747223
 20
0.3150256611
 30
0.0
 10
13.5922995327
 20
0.3152882639
 30
0.0
 10
13.5474780106
 20
0.3175890416
 30
0.0
 10
13.5032738951
 20
0.3219092471
 30
0.0
 10
13.4600460692
 20
0.3282136538
 30
0.0
 10
13.4181448729
 20
0.3364509859
 30
0.0
 10
13.3779097318
 20
0.3465542598
 30
0.0
 10
13.3396653931
 20
0.3584420094
 30
0.0
 10
13.3037227398
 20
0.3720171472
 30
0.0
 10
13.2809098576
 20
0.382382852
 30
0.0
 10
13.2699828834
 20
0.3878461226
 30
0.0
 11
13.9645381606
 21
0.3837795388
 31
0.0
 11
13.9301549238
 21
0.3689565012
 31
0.0
 11
13.8932710108
 21
0.3557464328
 31
0.0
 11
13.854185765
 21
0.3442565994
 31
0.0
 11
13.8132193687
 21
0.3345812157
 31
0.0
 11
13.7707059014
 21
0.3267991386
 31
0.0
 11
13.7269916002
 21
0.3209737623
 31
0.0
 11
13.6824335122
 21
0.3171526861
 31
0.0
 11
13.6373950476
 21
0.3153670645
 31
0.0
 11
13.5922438139
 21
0.3156314516
 31
0.0
 11
13.5473476426
 21
0.3179436903
 31
0.0
 11
13.5030729791
 21
0.3222849219
 31
0.0
 11
13.4597809118
 21
0.3286197441
 31
0.0
 11
13.4178250214
 21
0.3368963918
 31
0.0
 11
13.3775469749
 21
0.3470474463
 31
0.0
 11
13.3392752436
 21
0.3589901587
 31
0.0
 11
13.3033232799
 21
0.3726266357
 31
0.0
 11
13.2699828834
 21
0.3878461226
 31
0.0
  0
SPLINE
  5
2A5
100
AcDbEntity
  8
0
100
AcDbSpline
 62
253
  6
CONTINUOUS
 70
0
 71
3
 72
23
 73
19
 74
17
 42
0.0000001
 43
0.0000001
 44
0.0000000001
 12
-0.6423463248
 22
-0.3139621741
 32
0.0
 13
-0.6396924869
 23
0.3193345735
 33
0.0
 40
0.0
 40
0.0
 40
0.0
 40
0.0
 40
0.0560459375
 40
0.1147633706
 40
0.1758533728
 40
0.2389680004
 40
0.3037206074
 40
0.3696950256
 40
0.4364539816
 40
0.5035470265
 40
0.5705181849
 40
0.6369134918
 40
0.7022885703
 40
0.7662164078
 40
0.8282955157
 40
0.8881587155
 40
0.9454828706
 40
1.0
 40
1.0
 40
1.0
 40
1.0
 10
14.0304063848
 20
-7.4620411346
 30
0.0
 10
14.0184060842
 20
-7.4679065694
 30
0.0
 10
13.993372124
 20
-7.4789899111
 30
0.0
 10
13.9539793108
 20
-7.4933727154
 30
0.0
 10
13.9121660568
 20
-7.5057979749
 30
0.0
 10
13.8683160667
 20
-7.516151196
 30
0.0
 10
13.8228287143
 20
-7.524338109
 30
0.0
 10
13.7761200271
 20
-7.5302835569
 30
0.0
 10
13.7286173446
 20
-7.5339329857
 30
0.0
 10
13.6807556214
 20
-7.5352528629
 30
0.0
 10
13.6329731891
 20
-7.534231082
 30
0.0
 10
13.5857076144
 20
-7.5308770667
 30
0.0
 10
13.5393915664
 20
-7.5252216784
 30
0.0
 10
13.4944485801
 20
-7.5173168103
 30
0.0
 10
13.4512894265
 20
-7.5072349903
 30
0.0
 10
13.4103066621
 20
-7.4950677807
 30
0.0
 10
13.3718761652
 20
-7.4809271326
 30
0.0
 10
13.3475423693
 20
-7.4699778027
 30
0.0
 10
13.3359176366
 20
-7.4641747347
 30
0.0
 11
14.0304063848
 21
-7.4620411346
 31
0.0
 11
13.9937940976
 21
-7.4783271806
 31
0.0
 11
13.9543791136
 21
-7.4927797523
 31
0.0
 11
13.9125243534
 21
-7.5052657752
 31
0.0
 11
13.8686152022
 21
-7.5156702821
 31
0.0
 11
13.8230559613
 21
-7.5238974714
 31
0.0
 11
13.7762661256
 21
-7.52987159
 31
0.0
 11
13.7286765209
 21
-7.5335376301
 31
0.0
 11
13.6807253369
 21
-7.5348618359
 31
0.0
 11
13.6328540927
 21
-7.5338320146
 31
0.0
 11
13.5855035715
 21
-7.5304576485
 31
0.0
 11
13.5391097615
 21
-7.5247698075
 31
0.0
 11
13.4940998421
 21
-7.5168208637
 31
0.0
 11
13.4508882502
 21
-7.5066840081
 31
0.0
 11
13.4098728642
 21
-7.4944525779
 31
0.0
 11
13.3714313406
 21
-7.480239196
 31
0.0
 11
13.3359176366
 21
-7.4641747347
 31
0.0
  0
SPLINE
  5
2A6
100
AcDbEntity
  8
0
100
AcDbSpline
 62
253
  6
CONTINUOUS
 70
0
 71
3
 72
14
 73
10
 74
8
 42
0.0000001
 43
0.0000001
 44
0.0000000001
 12
0.1590485282
 22
-9.8322410214
 32
0.0
 13
1.3196249534
 23
-9.744580541
 33
0.0
 40
0.0
 40
0.0
 40
0.0
 40
0.0
 40
0.1462535095
 40
0.2913919944
 40
0.4354038616
 40
0.5782788199
 40
0.7200079478
 40
0.860583705
 40
1.0
 40
1.0
 40
1.0
 40
1.0
 10
13.3359176364
 20
-7.4641747348
 30
0.0
 10
13.3436714382
 20
-7.9435079867
 30
0.0
 10
13.3667346305
 20
-8.8984154463
 30
0.0
 10
13.424376996
 20
-10.3244970089
 30
0.0
 10
13.5049160545
 20
-11.7383820527
 30
0.0
 10
13.608323946
 20
-13.1395734404
 30
0.0
 10
13.734565244
 20
-14.5275864515
 30
0.0
 10
13.8835955756
 20
-15.901931985
 30
0.0
 10
13.9985869171
 20
-16.8125270377
 30
0.0
 10
14.0599126576
 20
-17.2653781427
 30
0.0
 11
13.3359176364
 21
-7.4641747348
 31
0.0
 11
13.3707310442
 21
-8.901941203
 31
0.0
 11
13.4284626178
 21
-10.3279963556
 31
0.0
 11
13.5090923041
 21
-11.7418437575
 31
0.0
 11
13.6125920833
 21
-13.1429911121
 31
0.0
 11
13.738925995
 21
-14.5309506855
 31
0.0
 11
13.8880501283
 21
-15.9052391797
 31
0.0
 11
14.0599126576
 21
-17.2653781427
 31
0.0
  0
SPLINE
  5
2A7
100
AcDbEntity
  8
0
100
AcDbSpline
 62
253
  6
CONTINUOUS
 70
0
 71
3
 72
14
 73
10
 74
8
 42
0.0000001
 43
0.0000001
 44
0.0000000001
 12
0.1581958
 22
-9.7776961891
 32
0.0
 13
1.3125293863
 23
-9.6904920044
 33
0.0
 40
0.0
 40
0.0
 40
0.0
 40
0.0
 40
0.1462525689
 40
0.2913905064
 40
0.4354020953
 40
0.5782770586
 40
0.7200064886
 40
0.860582859
 40
1.0
 40
1.0
 40
1.0
 40
1.0
 10
14.0304063848
 20
-7.4620411346
 30
0.0
 10
14.0381185656
 20
-7.9387121965
 30
0.0
 10
14.0610579373
 20
-8.8883173731
 30
0.0
 10
14.1183908263
 20
-10.3064815919
 30
0.0
 10
14.1984974971
 20
-11.7125196318
 30
0.0
 10
14.3013502312
 20
-13.1059366627
 30
0.0
 10
14.426913792
 20
-14.4862506533
 30
0.0
 10
14.575144003
 20
-15.8529749152
 30
0.0
 10
14.6895178368
 20
-16.7585206776
 30
0.0
 10
14.7505142016
 20
-17.2088609075
 30
0.0
 11
14.0304063848
 21
-7.4620411346
 31
0.0
 11
14.0650328428
 21
-8.8918222435
 31
0.0
 11
14.1224544495
 21
-10.3099605806
 31
0.0
 11
14.2026512365
 21
-11.7159611182
 31
0.0
 11
14.3055953352
 21
-13.1093342916
 31
0.0
 11
14.4312509779
 21
-14.4895950721
 31
0.0
 11
14.5795744893
 21
-15.8562628416
 31
0.0
 11
14.7505142016
 21
-17.2088609075
 31
0.0
  0
SPLINE
  5
2A8
100
AcDbEntity
  8
0
100
AcDbSpline
 62
253
  6
CONTINUOUS
 70
0
 71
3
 72
23
 73
19
 74
17
 42
0.0000001
 43
0.0000001
 44
0.0000000001
 12
-0.6046875015
 22
-0.3899603372
 32
0.0
 13
-0.6449837558
 23
0.3189231783
 33
0.0
 40
0.0
 40
0.0
 40
0.0
 40
0.0
 40
0.0585677629
 40
0.1193033505
 40
0.1819239888
 40
0.2461052335
 40
0.3114902464
 40
0.377698354
 40
0.4443331115
 40
0.5109900572
 40
0.5772643152
 40
0.6427581907
 40
0.7070889007
 40
0.7698965953
 40
0.8308528525
 40
0.8896698636
 40
0.9461105666
 40
1.0
 40
1.0
 40
1.0
 40
1.0
 10
14.7505142016
 20
-17.2088609075
 30
0.0
 10
14.7387091368
 20
-17.2164739424
 30
0.0
 10
14.7140584453
 20
-17.2310620564
 30
0.0
 10
14.6750259218
 20
-17.2506319721
 30
0.0
 10
14.6335628001
 20
-17.2681447545
 30
0.0
 10
14.5900504053
 20
-17.2834392823
 30
0.0
 10
14.5448855341
 20
-17.2963765653
 30
0.0
 10
14.4984814992
 20
-17.3068382351
 30
0.0
 10
14.4512629212
 20
-17.3147286203
 30
0.0
 10
14.4036620876
 20
-17.3199754829
 30
0.0
 10
14.3561147722
 20
-17.3225307874
 30
0.0
 10
14.3090561278
 20
-17.3223711151
 30
0.0
 10
14.2629165999
 20
-17.3194978519
 30
0.0
 10
14.2181176974
 20
-17.3139369878
 30
0.0
 10
14.1750685423
 20
-17.3057389523
 30
0.0
 10
14.1341601071
 20
-17.2949768969
 30
0.0
 10
14.0957684235
 20
-17.2817489271
 30
0.0
 10
14.0714986103
 20
-17.2711069947
 30
0.0
 10
14.0599126739
 20
-17.2653781316
 30
0.0
 11
14.7505142016
 21
-17.2088609075
 31
0.0
 11
14.7142783045
 21
-17.2303741695
 31
0.0
 11
14.6752348432
 21
-17.2500048868
 31
0.0
 11
14.6337434969
 21
-17.2675722155
 31
0.0
 11
14.5901864955
 21
-17.2829143207
 31
0.0
 11
14.5449650982
 21
-17.2958898666
 31
0.0
 11
14.4984958971
 21
-17.3063793188
 31
0.0
 11
14.4512069796
 21
-17.3142860455
 31
0.0
 11
14.4035339842
 21
-17.3195372078
 31
0.0
 11
14.3559160879
 21
-17.3220844306
 31
0.0
 11
14.3087919601
 21
-17.3219042481
 31
0.0
 11
14.2625957213
 21
-17.3189983201
 31
0.0
 11
14.2177529442
 21
-17.313393417
 31
0.0
 11
14.174676733
 21
-17.3051411726
 31
0.0
 11
14.1337639177
 21
-17.2943176089
 31
0.0
 11
14.0953913985
 21
-17.2810224356
 31
0.0
 11
14.0599126739
 21
-17.2653781316
 31
0.0
  0
SPLINE
  5
2A9
100
AcDbEntity
  8
0
100
AcDbSpline
 62
253
  6
CONTINUOUS
 70
0
 71
3
 72
15
 73
11
 74
9
 42
0.0000001
 43
0.0000001
 44
0.0000000001
 12
0.0598269799
 22
-0.4487653098
 32
0.0
 13
0.3709772629
 23
-0.2600387225
 33
0.0
 40
0.0
 40
0.0
 40
0.0
 40
0.0
 40
0.1416127936
 40
0.2778388068
 40
0.4087944368
 40
0.5347487326
 40
0.6561453127
 40
0.773601873
 40
0.8879069491
 40
1.0
 40
1.0
 40
1.0
 40
1.0
 10
14.0599126576
 20
-17.2653781427
 30
0.0
 10
14.0627367462
 20
-17.2865617791
 30
0.0
 10
14.069831163
 20
-17.3279381789
 30
0.0
 10
14.0852216595
 20
-17.3877536989
 30
0.0
 10
14.1050678299
 20
-17.4437549163
 30
0.0
 10
14.1292527969
 20
-17.4955746699
 30
0.0
 10
14.157633684
 20
-17.5428733034
 30
0.0
 10
14.1900398597
 20
-17.5853331269
 30
0.0
 10
14.2262706369
 20
-17.6226613538
 30
0.0
 10
14.2529968636
 20
-17.6440924035
 30
0.0
 10
14.266858188
 20
-17.6538085814
 30
0.0
 11
14.0599126576
 21
-17.2653781427
 31
0.0
 11
14.0708431045
 21
-17.3285526841
 31
0.0
 11
14.086311432
 21
-17.3882557755
 31
0.0
 11
14.1062179836
 21
-17.4441022584
 31
0.0
 11
14.1304335873
 21
-17.4957292004
 31
0.0
 11
14.1588017883
 21
-17.5428026357
 31
0.0
 11
14.191138934
 21
-17.585017303
 31
0.0
 11
14.2272356667
 21
-17.6220994638
 31
0.0
 11
14.266858188
 21
-17.6538085814
 31
0.0
  0
SPLINE
  5
2AA
100
AcDbEntity
  8
0
100
AcDbSpline
 62
253
  6
CONTINUOUS
 70
0
 71
3
 72
24
 73
20
 74
18
 42
0.0000001
 43
0.0000001
 44
0.0000000001
 12
0.0639027533
 22
-0.4717728467
 32
0.0
 13
0.4413838546
 23
0.1784193758
 33
0.0
 40
0.0
 40
0.0
 40
0.0
 40
0.0
 40
0.0674522603
 40
0.1324328803
 40
0.1949921921
 40
0.2552669519
 40
0.3134744861
 40
0.3699113309
 40
0.4249505657
 40
0.4790314766
 40
0.5326426374
 40
0.5862971832
 40
0.6405065485
 40
0.6957524301
 40
0.7524643122
 40
0.8110030704
 40
0.8716529464
 40
0.9346161818
 40
1.0
 40
1.0
 40
1.0
 40
1.0
 10
14.7505142016
 20
-17.2088609075
 30
0.0
 10
14.7519509966
 20
-17.2194682891
 30
0.0
 10
14.7555618037
 20
-17.240198691
 30
0.0
 10
14.7633909363
 20
-17.2701739832
 30
0.0
 10
14.7734873472
 20
-17.2982629254
 30
0.0
 10
14.7857908729
 20
-17.3242785229
 30
0.0
 10
14.8002283236
 20
-17.3480499392
 30
0.0
 10
14.8167122453
 20
-17.3694173105
 30
0.0
 10
14.8351397492
 20
-17.3882334612
 30
0.0
 10
14.8553915687
 20
-17.4043658028
 30
0.0
 10
14.8773317452
 20
-17.417699334
 30
0.0
 10
14.9008090433
 20
-17.4281400811
 30
0.0
 10
14.9256598828
 20
-17.4356176089
 30
0.0
 10
14.9517122623
 20
-17.4400858608
 30
0.0
 10
14.978789122
 20
-17.4415221036
 30
0.0
 10
15.0067104479
 20
-17.439925162
 30
0.0
 10
15.0352948186
 20
-17.4353129619
 30
0.0
 10
15.0643533639
 20
-17.4277238926
 30
0.0
 10
15.0835554487
 20
-17.42084599
 30
0.0
 10
15.0931752359
 20
-17.41695741
 30
0.0
 11
14.7505142016
 21
-17.2088609075
 31
0.0
 11
14.7560718931
 21
-17.2404890657
 31
0.0
 11
14.7639386197
 21
-17.2704081793
 31
0.0
 11
14.7740626658
 21
-17.2984179789
 31
0.0
 11
14.7863783751
 21
-17.3243364065
 31
0.0
 11
14.8008061627
 21
-17.3479957904
 31
0.0
 11
14.817252629
 21
-17.3692426901
 31
0.0
 11
14.8356112925
 21
-17.387939318
 31
0.0
 11
14.8557632249
 21
-17.4039643721
 31
0.0
 11
14.8775780129
 21
-17.4172139664
 31
0.0
 11
14.9009142356
 21
-17.4276020472
 31
0.0
 11
14.9256208371
 21
-17.4350612298
 31
0.0
 11
14.9515376916
 21
-17.4395430278
 31
0.0
 11
14.9784968108
 21
-17.4410182801
 31
0.0
 11
15.0063233727
 21
-17.4394773562
 31
0.0
 11
15.0348373237
 21
-17.4349301211
 31
0.0
 11
15.0638532961
 21
-17.4274061463
 31
0.0
 11
15.0931752359
 21
-17.41695741
 31
0.0
  0
SPLINE
  5
2AB
100
AcDbEntity
  8
0
100
AcDbSpline
 62
253
  6
CONTINUOUS
 70
0
 71
3
 72
17
 73
13
 74
11
 42
0.0000001
 43
0.0000001
 44
0.0000000001
 12
-0.0146233495
 22
-0.3374304751
 32
0.0
 13
-0.3134643983
 23
-0.1267186416
 33
0.0
 40
0.0
 40
0.0
 40
0.0
 40
0.0
 40
0.1257612106
 40
0.2463557878
 40
0.361548946
 40
0.4712938634
 40
0.5757615065
 40
0.6753678851
 40
0.7707922496
 40
0.8629762818
 40
0.9530928601
 40
1.0
 40
1.0
 40
1.0
 40
1.0
 10
15.0931752359
 20
-17.41695741
 30
0.0
 10
15.0925622192
 20
-17.4311026316
 30
0.0
 10
15.0903112825
 20
-17.4587814398
 30
0.0
 10
15.0836312334
 20
-17.4989837969
 30
0.0
 10
15.0737719777
 20
-17.5366761868
 30
0.0
 10
15.0608184096
 20
-17.571498582
 30
0.0
 10
15.0448809805
 20
-17.6031194152
 30
0.0
 10
15.026095442
 20
-17.6312308766
 30
0.0
 10
15.0046244913
 20
-17.6555497464
 30
0.0
 10
14.9806623842
 20
-17.6758183278
 30
0.0
 10
14.9585405269
 20
-17.6893102775
 30
0.0
 10
14.9444642837
 20
-17.6956946794
 30
0.0
 10
14.9395630443
 20
-17.6976760158
 30
0.0
 11
15.0931752359
 21
-17.41695741
 31
0.0
 11
15.0896645008
 21
-17.4592875707
 31
0.0
 11
15.0829111155
 21
-17.499454271
 31
0.0
 11
15.072979968
 21
-17.5370715817
 31
0.0
 11
15.0599664783
 21
-17.571778069
 31
0.0
 11
15.0439956825
 21
-17.6032402667
 31
0.0
 11
15.0252210309
 21
-17.6311558803
 31
0.0
 11
15.0038229137
 21
-17.6552566914
 31
0.0
 11
14.980006928
 21
-17.6753111352
 31
0.0
 11
14.9540019019
 21
-17.691126525
 31
0.0
 11
14.9395630443
 21
-17.6976760158
 31
0.0
  0
SPLINE
  5
2AC
100
AcDbEntity
  8
0
100
AcDbSpline
 62
253
  6
CONTINUOUS
 70
0
 71
3
 72
14
 73
10
 74
8
 42
0.0000001
 43
0.0000001
 44
0.0000000001
 12
-1.2344531456
 22
9.7271211268
 32
0.0
 13
-0.1480272948
 23
9.8040220269
 33
0.0
 40
0.0
 40
0.0
 40
0.0
 40
0.0
 40
0.1390931295
 40
0.2794615902
 40
0.4210944051
 40
0.5639791418
 40
0.7081019866
 40
0.8534477621
 40
1.0
 40
1.0
 40
1.0
 40
1.0
 10
-16.6364678466
 20
-1.9171878906
 30
0.0
 10
-16.693702497
 20
-1.4661959844
 30
0.0
 10
-16.8010131103
 20
-0.5590841436
 30
0.0
 10
-16.9400280774
 20
0.8102325679
 30
0.0
 10
-17.0577847026
 20
2.1939811211
 30
0.0
 10
-17.1542416362
 20
3.5916746408
 30
0.0
 10
-17.2293657672
 20
5.0028293253
 30
0.0
 10
-17.2831310815
 20
6.4269496867
 30
0.0
 10
-17.3046352101
 20
7.3807835208
 30
0.0
 10
-17.3118664539
 20
7.8597173103
 30
0.0
 11
-16.6364678466
 21
-1.9171878906
 31
0.0
 11
-16.7967945195
 21
-0.5628168559
 31
0.0
 11
-16.9359090562
 21
0.8064668401
 31
0.0
 11
-17.0537631097
 21
2.1901864845
 31
0.0
 11
-17.1503157167
 21
3.5878602529
 31
0.0
 11
-17.2255333304
 21
4.9990016185
 31
0.0
 11
-17.2793898117
 21
6.423119225
 31
0.0
 11
-17.3118664539
 21
7.8597173103
 31
0.0
  0
SPLINE
  5
2AD
100
AcDbEntity
  8
RACCORDO
100
AcDbSpline
 62
253
  6
CONTINUOUS
 70
0
 71
3
 72
16
 73
12
 74
10
 42
0.0000001
 43
0.0000001
 44
0.0000000001
 12
-0.2161676901
 22
0.108088129
 32
0.0
 13
-0.0002081162
 23
0.2420109618
 33
0.0
 40
0.0
 40
0.0
 40
0.0
 40
0.0
 40
0.1436783147
 40
0.279066529
 40
0.4060825254
 40
0.5249174698
 40
0.6361059662
 40
0.7405757101
 40
0.8396792241
 40
0.9351856859
 40
1.0
 40
1.0
 40
1.0
 40
1.0
 10
-17.3733522386
 20
15.7095136836
 30
0.0
 10
-17.3837051084
 20
15.7146903237
 30
0.0
 10
-17.4034700035
 20
15.7254580067
 30
0.0
 10
-17.4308692207
 20
15.7434045034
 30
0.0
 10
-17.4549514474
 20
15.7625453517
 30
0.0
 10
-17.4755199614
 20
15.7827375179
 30
0.0
 10
-17.4924027451
 20
15.803834685
 30
0.0
 10
-17.5054461299
 20
15.8256845488
 30
0.0
 10
-17.5145129292
 20
15.8481218271
 30
0.0
 10
-17.5189846093
 20
15.8686471072
 30
0.0
 10
-17.5197956313
 20
15.8815803175
 30
0.0
 10
-17.5198001276
 20
15.886808909
 30
0.0
 11
-17.3733522386
 21
15.7095136836
 31
0.0
 11
-17.4038091187
 21
15.726192835
 31
0.0
 11
-17.4311334775
 21
15.7441945192
 31
0.0
 11
-17.4551033909
 21
15.7633726292
 31
0.0
 11
-17.4755223769
 21
15.7835700909
 31
0.0
 11
-17.492223984
 21
15.804622192
 31
0.0
 11
-17.5050721632
 21
15.826357493
 31
0.0
 11
-17.5139619239
 21
15.8485984735
 31
0.0
 11
-17.5188207672
 21
15.8711637421
 31
0.0
 11
-17.5198001276
 21
15.886808909
 31
0.0
  0
SPLINE
  5
2AE
100
AcDbEntity
  8
ASSI
100
AcDbSpline
 62
7
  6
CONTINUOUS
 70
0
 71
3
 72
15
 73
11
 74
9
 42
0.0000001
 43
0.0000001
 44
0.0000000001
 12
0.1696235192
 22
0.1209906019
 32
0.0
 13
0.18616337
 23
-0.093081685
 33
0.0
 40
0.0
 40
0.0
 40
0.0
 40
0.0
 40
0.1081411329
 40
0.2229400458
 40
0.3397312535
 40
0.459601248
 40
0.584464367
 40
0.7161066524
 40
0.8547623222
 40
1.0
 40
1.0
 40
1.0
 40
1.0
 10
-5.1769418675
 20
6.920199456
 30
0.0
 10
-5.170827441
 20
6.9245608095
 30
0.0
 10
-5.1575439767
 20
6.9326052033
 30
0.0
 10
-5.1356137019
 20
6.9415219515
 30
0.0
 10
-5.1117526074
 20
6.9470092952
 30
0.0
 10
-5.0866496483
 20
6.9488703595
 30
0.0
 10
-5.0605167538
 20
6.9471228364
 30
0.0
 10
-5.0335554773
 20
6.941781347
 30
0.0
 10
-5.0060667039
 20
6.9329050348
 30
0.0
 10
-4.9880268772
 20
6.9249045865
 30
0.0
 10
-4.979014232
 20
6.9203982639
 30
0.0
 11
-5.1769418675
 21
6.920199456
 31
0.0
 11
-5.1576800303
 21
6.9318489749
 31
0.0
 11
-5.1355522718
 21
6.9408645552
 31
0.0
 11
-5.1118725769
 21
6.9463580567
 31
0.0
 11
-5.0869965512
 21
6.9482698131
 31
0.0
 11
-5.0610606624
 21
6.9466149238
 31
0.0
 11
-5.0341670864
 21
6.9413732512
 31
0.0
 11
-5.0066787527
 21
6.9325837774
 31
0.0
 11
-4.979014232
 21
6.9203982639
 31
0.0
  0
SPLINE
  5
2AF
100
AcDbEntity
  8
ASSI
100
AcDbSpline
 62
7
  6
CONTINUOUS
 70
0
 71
3
 72
17
 73
13
 74
11
 42
0.0000001
 43
0.0000001
 44
0.0000000001
 12
0.002322982
 22
-0.2723078731
 32
0.0
 13
-0.2595482812
 23
-0.0833478641
 33
0.0
 40
0.0
 40
0.0
 40
0.0
 40
0.0
 40
0.1215910421
 40
0.2382115935
 40
0.3490473415
 40
0.4537496329
 40
0.5532322124
 40
0.6484805119
 40
0.7398428647
 40
0.8280303749
 40
0.9148420727
 40
1.0
 40
1.0
 40
1.0
 40
1.0
 10
1.184671076
 20
2.2893612626
 30
0.0
 10
1.1847652273
 20
2.2783245299
 30
0.0
 10
1.1841096484
 20
2.256682472
 30
0.0
 10
1.1804045496
 20
2.2251734196
 30
0.0
 10
1.174027135
 20
2.1956522614
 30
0.0
 10
1.1650549889
 20
2.1684393772
 30
0.0
 10
1.1535603299
 20
2.1437336128
 30
0.0
 10
1.1396076934
 20
2.1217353905
 30
0.0
 10
1.1233299578
 20
2.1027138022
 30
0.0
 10
1.1049159466
 20
2.086892028
 30
0.0
 10
1.0846902397
 20
2.074502684
 30
0.0
 10
1.0701812851
 20
2.0685658056
 30
0.0
 10
1.0628137539
 20
2.0661998952
 30
0.0
 11
1.184671076
 21
2.2893612626
 31
0.0
 11
1.1836079716
 21
2.2562669306
 31
0.0
 11
1.1798298182
 21
2.2247346205
 31
0.0
 11
1.1733803906
 21
2.195249185
 31
0.0
 11
1.1643744285
 21
2.1681965761
 31
0.0
 11
1.1528701673
 21
2.1436697031
 31
0.0
 11
1.1389093786
 21
2.1218095535
 31
0.0
 11
1.1226818224
 21
2.1029505881
 31
0.0
 11
1.1044380889
 21
2.0873336833
 31
0.0
 11
1.0842713354
 21
2.0749979994
 31
0.0
 11
1.0628137539
 21
2.0661998952
 31
0.0
  0
SPLINE
  5
2B0
100
AcDbEntity
  8
ASSI
100
AcDbSpline
 62
7
  6
CONTINUOUS
 70
0
 71
3
 72
23
 73
19
 74
17
 42
0.0000001
 43
0.0000001
 44
0.0000000001
 12
0.5249182302
 22
-0.2624591151
 32
0.0
 13
0.0036517027
 23
-0.5868650616
 33
0.0
 40
0.0
 40
0.0
 40
0.0
 40
0.0
 40
0.0540534394
 40
0.1108095711
 40
0.1698178519
 40
0.2305904547
 40
0.293167576
 40
0.3575314641
 40
0.4230178089
 40
0.4889353731
 40
0.5552387648
 40
0.6218827833
 40
0.6881587177
 40
0.7533442148
 40
0.8173672924
 40
0.8802128772
 40
0.9412902139
 40
1.0
 40
1.0
 40
1.0
 40
1.0
 10
0.8917696173
 20
3.9850063392
 30
0.0
 10
0.9012274959
 20
3.9802773999
 30
0.0
 10
0.9201540835
 20
3.9696366156
 30
0.0
 10
0.947622947
 20
3.9508894463
 30
0.0
 10
0.9745326235
 20
3.9291884185
 30
0.0
 10
1.0005963156
 20
3.9047866701
 30
0.0
 10
1.025625571
 20
3.8778786203
 30
0.0
 10
1.0494159229
 20
3.8486719964
 30
0.0
 10
1.0716950416
 20
3.8174918363
 30
0.0
 10
1.0922288298
 20
3.7846885302
 30
0.0
 10
1.1108710065
 20
3.7505167541
 30
0.0
 10
1.1274721376
 20
3.7152303529
 30
0.0
 10
1.1418398362
 20
3.6792119934
 30
0.0
 10
1.153819535
 20
3.6428693923
 30
0.0
 10
1.1633248226
 20
3.6064946258
 30
0.0
 10
1.1702733276
 20
3.5703612247
 30
0.0
 10
1.1745749889
 20
3.5348646623
 30
0.0
 10
1.1756705001
 20
3.5114294987
 30
0.0
 10
1.1757419636
 20
3.4999445913
 30
0.0
 11
0.8917696173
 21
3.9850063392
 31
0.0
 11
0.9194538837
 21
3.9695172979
 31
0.0
 11
0.9469991994
 21
3.9507894014
 31
0.0
 11
0.9739873852
 21
3.9290888457
 31
0.0
 11
1.0000513064
 21
3.9047426731
 31
0.0
 11
1.0250879605
 21
3.8778745823
 31
0.0
 11
1.048963565
 21
3.8486033674
 31
0.0
 11
1.071321429
 21
3.8173435745
 31
0.0
 11
1.0918562985
 21
3.7845581466
 31
0.0
 11
1.1104947298
 21
3.7504005028
 31
0.0
 11
1.1271418106
 21
3.7150083024
 31
0.0
 11
1.1415432461
 21
3.6788768671
 31
0.0
 11
1.1535030666
 21
3.6425385771
 31
0.0
 11
1.1629785313
 21
3.6061793472
 31
0.0
 11
1.1699110815
 21
3.5699541441
 31
0.0
 11
1.1741820515
 21
3.5343646512
 31
0.0
 11
1.1757419636
 21
3.4999445913
 31
0.0
  0
SPLINE
  5
2B1
100
AcDbEntity
  8
ASSI
100
AcDbSpline
 62
253
  6
CONTINUOUS
 70
0
 71
3
 72
24
 73
20
 74
18
 42
0.0000001
 43
0.0000001
 44
0.0000000001
 12
-0.3225383182
 22
-0.1537130115
 32
0.0
 13
-0.3195746748
 23
0.1597832403
 33
0.0
 40
0.0
 40
0.0
 40
0.0
 40
0.0
 40
0.0524730889
 40
0.1073724184
 40
0.164442622
 40
0.2233961642
 40
0.283914619
 40
0.3456553533
 40
0.4082554946
 40
0.4713401437
 40
0.5345269365
 40
0.5974328202
 40
0.6596779188
 40
0.7208925822
 40
0.7807219467
 40
0.8388342871
 40
0.894925227
 40
0.9487248433
 40
1.0
 40
1.0
 40
1.0
 40
1.0
 10
13.792493894
 20
0.6909245773
 30
0.0
 10
13.7868523667
 20
0.6882359785
 30
0.0
 10
13.7751103373
 20
0.6831429911
 30
0.0
 10
13.7566779971
 20
0.6764913631
 30
0.0
 10
13.7371521244
 20
0.6706974908
 30
0.0
 10
13.7166926609
 20
0.6658092679
 30
0.0
 10
13.6954648595
 20
0.6618661129
 30
0.0
 10
13.6736407864
 20
0.6589001352
 30
0.0
 10
13.6513973907
 20
0.65693546
 30
0.0
 10
13.6289153088
 20
0.6559881082
 30
0.0
 10
13.6063770338
 20
0.6560657926
 30
0.0
 10
13.5839655911
 20
0.6571678735
 30
0.0
 10
13.5618628894
 20
0.6592853651
 30
0.0
 10
13.5402483849
 20
0.6624009916
 30
0.0
 10
13.5192972433
 20
0.6664894162
 30
0.0
 10
13.4991791852
 20
0.6715173706
 30
0.0
 10
13.4800565234
 20
0.677444384
 30
0.0
 10
13.4620857726
 20
0.684221549
 30
0.0
 10
13.4506808523
 20
0.689401546
 30
0.0
 10
13.4452187718
 20
0.6921325162
 30
0.0
 11
13.792493894
 21
0.6909245773
 31
0.0
 11
13.7753056118
 21
0.6834371545
 31
0.0
 11
13.7568635116
 21
0.6767555371
 31
0.0
 11
13.7373208938
 21
0.6709356256
 31
0.0
 11
13.7168375662
 21
0.6660250734
 31
0.0
 11
13.6955806383
 21
0.6620639211
 31
0.0
 11
13.6737232126
 21
0.6590844407
 31
0.0
 11
13.6514438193
 21
0.6571109836
 31
0.0
 11
13.6289241688
 21
0.6561596464
 31
0.0
 11
13.606348074
 21
0.6562381898
 31
0.0
 11
13.5838995264
 21
0.6573459739
 31
0.0
 11
13.5617617969
 21
0.6594739561
 31
0.0
 11
13.5401154354
 21
0.6626047748
 31
0.0
 11
13.5191372391
 21
0.6667128386
 31
0.0
 11
13.4989980277
 21
0.6717646776
 31
0.0
 11
13.4798620994
 21
0.6777190949
 31
0.0
 11
13.4618859245
 21
0.6845273392
 31
0.0
 11
13.4452187718
 21
0.6921325162
 31
0.0
  0
SPLINE
  5
2B2
100
AcDbEntity
  8
ASSI
100
AcDbSpline
 62
253
  6
CONTINUOUS
 70
0
 71
3
 72
24
 73
20
 74
18
 42
0.0000001
 43
0.0000001
 44
0.0000000001
 12
-0.2109636275
 22
0.1054845185
 32
0.0
 13
0.206907066
 23
0.11323472
 33
0.0
 40
0.0
 40
0.0
 40
0.0
 40
0.0
 40
0.073604999
 40
0.1429946744
 40
0.2081158634
 40
0.2690715761
 40
0.326139588
 40
0.3797983211
 40
0.4307418959
 40
0.4798748912
 40
0.5282642816
 40
0.5770507795
 40
0.6273350143
 40
0.6800785173
 40
0.7360420195
 40
0.7957693816
 40
0.8595969972
 40
0.9276778407
 40
1.0
 40
1.0
 40
1.0
 40
1.0
 10
-17.1981201448
 20
16.0138019745
 30
0.0
 10
-17.2032961374
 20
16.0163900371
 30
0.0
 10
-17.2131791641
 20
16.0217761802
 30
0.0
 10
-17.2268785895
 20
16.0307593988
 30
0.0
 10
-17.2389204358
 20
16.0403474244
 30
0.0
 10
-17.2492051971
 20
16.0504680524
 30
0.0
 10
-17.2576467895
 20
16.0610478665
 30
0.0
 10
-17.264168229
 20
16.0720103
 30
0.0
 10
-17.2687009388
 20
16.0832721193
 30
0.0
 10
-17.2711874842
 20
16.0947376821
 30
0.0
 10
-17.2715907847
 20
16.1062962107
 30
0.0
 10
-17.2699047391
 20
16.1178280187
 30
0.0
 10
-17.2661562086
 20
16.1292180525
 30
0.0
 10
-17.2603961723
 20
16.1403652507
 30
0.0
 10
-17.2526891137
 20
16.1511822783
 30
0.0
 10
-17.2431083307
 20
16.161589971
 30
0.0
 10
-17.2317357392
 20
16.1715129745
 30
0.0
 10
-17.2186662731
 20
16.1808769446
 30
0.0
 10
-17.209170952
 20
16.1865332128
 30
0.0
 10
-17.2041829634
 20
16.189263006
 30
0.0
 11
-17.1981201448
 21
16.0138019745
 31
0.0
 11
-17.2133459046
 21
16.0221432538
 31
0.0
 11
-17.2270084976
 21
16.0311543934
 31
0.0
 11
-17.23899376
 21
16.0407605714
 31
0.0
 11
-17.2492035654
 21
16.0508832408
 31
0.0
 11
-17.2575546538
 21
16.0614398194
 31
0.0
 11
-17.2639789871
 21
16.072344348
 31
0.0
 11
-17.268424054
 21
16.083507764
 31
0.0
 11
-17.270853589
 21
16.0948390213
 31
0.0
 11
-17.2712477605
 21
16.106245611
 31
0.0
 11
-17.269603356
 21
16.1176345712
 31
0.0
 11
-17.2659337891
 21
16.1289129415
 31
0.0
 11
-17.2602689909
 21
16.1399887357
 31
0.0
 11
-17.2526552613
 21
16.1507714871
 31
0.0
 11
-17.243154631
 21
16.161173388
 31
0.0
 11
-17.2318445673
 21
16.1711095765
 31
0.0
 11
-17.2188176789
 21
16.1804987998
 31
0.0
 11
-17.2041829634
 21
16.189263006
 31
0.0
  0
SPLINE
  5
2B3
100
AcDbEntity
  8
ASSI
100
AcDbSpline
 62
253
  6
CONTINUOUS
 70
0
 71
3
 72
14
 73
10
 74
8
 42
0.0000001
 43
0.0000001
 44
0.0000000001
 12
0.1079759423
 22
0.059107575
 32
0.0
 13
0.1114318115
 23
-0.0519160149
 33
0.0
 40
0.0
 40
0.0
 40
0.0
 40
0.0
 40
0.0441160084
 40
0.1884254707
 40
0.3362174592
 40
0.4897860629
 40
0.6509086686
 40
0.8207758232
 40
1.0
 40
1.0
 40
1.0
 40
1.0
 10
-17.3226579836
 20
16.1928429964
 30
0.0
 10
-17.3210701611
 20
16.1937121932
 30
0.0
 10
-17.3141868106
 20
16.1972388029
 30
0.0
 10
-17.3012050232
 20
16.2020644313
 30
0.0
 10
-17.2831590832
 20
16.2053865335
 30
0.0
 10
-17.264134672
 20
16.2057540765
 30
0.0
 10
-17.2443787626
 20
16.2031842071
 30
0.0
 10
-17.2241397617
 20
16.197729357
 30
0.0
 10
-17.2108400549
 20
16.192364541
 30
0.0
 10
-17.2041829634
 20
16.189263006
 30
0.0
 11
-17.3226579836
 21
16.1928429964
 31
0.0
 11
-17.3178254787
 21
16.1953184916
 31
0.0
 11
-17.3012054243
 21
16.2015226208
 31
0.0
 11
-17.2833463365
 21
16.2048607993
 31
0.0
 11
-17.2644727169
 21
16.2052910638
 31
0.0
 11
-17.24482182
 21
16.2028080055
 31
0.0
 11
-17.2246406717
 21
16.1974428382
 31
0.0
 11
-17.2041829634
 21
16.189263006
 31
0.0
  0
SPLINE
  5
2B4
100
AcDbEntity
  8
ASSI
100
AcDbSpline
 62
253
  6
CONTINUOUS
 70
0
 71
3
 72
16
 73
12
 74
10
 42
0.0000001
 43
0.0000001
 44
0.0000000001
 12
0.0036161411
 22
-0.2418106442
 32
0.0
 13
0.2159330084
 23
-0.1081392179
 33
0.0
 40
0.0
 40
0.0
 40
0.0
 40
0.0
 40
0.0103930823
 40
0.112579263
 40
0.2175952981
 40
0.3277075684
 40
0.4447151008
 40
0.5698908706
 40
0.7040051987
 40
0.8473880301
 40
1.0
 40
1.0
 40
1.0
 40
1.0
 10
-17.4583197193
 20
8.037142398
 30
0.0
 10
-17.4583071917
 20
8.0363046787
 30
0.0
 10
-17.4580840812
 20
8.0272317825
 30
0.0
 10
-17.4558148256
 20
8.0097594009
 30
0.0
 10
-17.4479180466
 20
7.9853267535
 30
0.0
 10
-17.4354729898
 20
7.9615337989
 30
0.0
 10
-17.4186411123
 20
7.9385922566
 30
0.0
 10
-17.3976052169
 20
7.9166899113
 30
0.0
 10
-17.3725685819
 20
7.8960032248
 30
0.0
 10
-17.3437638054
 20
7.8767040841
 30
0.0
 10
-17.3228511078
 20
7.8652184233
 30
0.0
 10
-17.3118664539
 20
7.8597173103
 30
0.0
 11
-17.4583197193
 21
8.037142398
 31
0.0
 11
-17.4582578929
 21
8.0346297788
 31
0.0
 11
-17.4551157479
 21
8.0101529055
 31
0.0
 11
-17.4473997909
 21
7.9859940325
 31
0.0
 11
-17.4351810682
 21
7.9623756071
 31
0.0
 11
-17.4185720857
 21
7.9395151
 31
0.0
 11
-17.3977257736
 21
7.9176230035
 31
0.0
 11
-17.3728340781
 21
7.896900893
 31
0.0
 11
-17.3441261938
 21
7.877539571
 31
0.0
 11
-17.3118664539
 21
7.8597173103
 31
0.0
  0
SPLINE
  5
2B5
100
AcDbEntity
  8
ASSI
100
AcDbSpline
 62
253
  6
CONTINUOUS
 70
0
 71
3
 72
15
 73
11
 74
9
 42
0.0000001
 43
0.0000001
 44
0.0000000001
 12
0.030493881
 22
-0.236524202
 32
0.0
 13
0.2125933002
 23
-0.1074711064
 33
0.0
 40
0.0
 40
0.0
 40
0.0
 40
0.0
 40
0.0537377621
 40
0.1733276751
 40
0.2958332306
 40
0.4229807903
 40
0.5561566662
 40
0.6963631303
 40
0.84422102
 40
1.0
 40
1.0
 40
1.0
 40
1.0
 10
-16.7828427351
 20
-1.7411196708
 30
0.0
 10
-16.7822965108
 20
-1.7453564312
 30
0.0
 10
-16.7800314245
 20
-1.7589568539
 30
0.0
 10
-16.7734177224
 20
-1.7816036182
 30
0.0
 10
-16.7608198306
 20
-1.8082064078
 30
0.0
 10
-16.7438368945
 20
-1.8335418539
 30
0.0
 10
-16.7226535566
 20
-1.8573828427
 30
0.0
 10
-16.6974819301
 20
-1.8795252565
 30
0.0
 10
-16.668564955
 20
-1.8997802012
 30
0.0
 10
-16.6475070355
 20
-1.9116073107
 30
0.0
 10
-16.6364678464
 20
-1.9171878905
 30
0.0
 11
-16.7828427351
 21
-1.7411196708
 31
0.0
 11
-16.7807372526
 21
-1.753757774
 31
0.0
 11
-16.7727880685
 21
-1.7811142487
 31
0.0
 11
-16.7603624298
 21
-1.8075192606
 31
0.0
 11
-16.743574805
 21
-1.8327295594
 31
0.0
 11
-16.7225798464
 21
-1.8565129007
 31
0.0
 11
-16.6975709654
 21
-1.8786501858
 31
0.0
 11
-16.6687785508
 21
-1.8989374798
 31
0.0
 11
-16.6364678464
 21
-1.9171878905
 31
0.0
  0
SPLINE
  5
2B6
100
AcDbEntity
  8
ASSI
100
AcDbSpline
 62
253
  6
CONTINUOUS
 70
0
 71
3
 72
16
 73
12
 74
10
 42
0.0000001
 43
0.0000001
 44
0.0000000001
 12
-0.3871466113
 22
0.2510434959
 32
0.0
 13
-0.0590054171
 23
0.4572819109
 33
0.0
 40
0.0
 40
0.0
 40
0.0
 40
0.0
 40
0.0326832322
 40
0.1395273194
 40
0.2489329878
 40
0.3618525322
 40
0.4790664654
 40
0.6011681179
 40
0.7285654429
 40
0.861485593
 40
1.0
 40
1.0
 40
1.0
 40
1.0
 10
-16.424143248
 20
-2.3105282035
 30
0.0
 10
-16.4283609822
 20
-2.3077932326
 30
0.0
 10
-16.4461274636
 20
-2.2957484768
 30
0.0
 10
-16.4758963942
 20
-2.2715455422
 30
0.0
 10
-16.5108803206
 20
-2.2348226068
 30
0.0
 10
-16.5421643467
 20
-2.1929096047
 30
0.0
 10
-16.5695580814
 20
-2.1460960439
 30
0.0
 10
-16.5928995495
 20
-2.0946954418
 30
0.0
 10
-16.6120524695
 20
-2.0390432608
 30
0.0
 10
-16.6269049599
 20
-1.9795026867
 30
0.0
 10
-16.6337434798
 20
-1.9383012682
 30
0.0
 10
-16.6364678466
 20
-1.9171878906
 30
0.0
 11
-16.424143248
 21
-2.3105282035
 31
0.0
 11
-16.436625002
 21
-2.3020669864
 31
0.0
 11
-16.4748876147
 21
-2.2710378231
 31
0.0
 11
-16.5097454494
 21
-2.2345751113
 31
0.0
 11
-16.5409727341
 21
-2.1929153745
 31
0.0
 11
-16.5683672921
 21
-2.1463287607
 31
0.0
 11
-16.5917517847
 21
-2.0951173742
 31
0.0
 11
-16.6109751032
 21
-2.0396125079
 31
0.0
 11
-16.6259125526
 21
-1.9801748556
 31
0.0
 11
-16.6364678466
 21
-1.9171878906
 31
0.0
  0
LINE
  5
2B7
100
AcDbEntity
  8
ASSI
100
AcDbLine
 62
7
  6
CONTINUOUS
 10
-5.2500006327
 20
5.506697117
 11
-5.2514991458
 21
5.6859548818
  0
LINE
  5
2B8
100
AcDbEntity
  8
ASSI
100
AcDbLine
 62
7
  6
CONTINUOUS
 10
-5.2514991458
 20
5.6859548818
 11
-5.251864223
 21
5.7307737302
  0
LINE
  5
2B9
100
AcDbEntity
  8
ASSI
100
AcDbLine
 62
7
  6
CONTINUOUS
 10
-5.251864223
 20
5.7307737302
 11
-5.2532863287
 21
5.9100667619
  0
LINE
  5
2BA
100
AcDbEntity
  8
ASSI
100
AcDbLine
 62
7
  6
CONTINUOUS
 10
-5.2532863287
 20
5.9100667619
 11
-5.2546473631
 21
6.0893949043
  0
LINE
  5
2BB
100
AcDbEntity
  8
ASSI
100
AcDbLine
 62
7
  6
CONTINUOUS
 10
-5.2546473631
 20
6.0893949043
 11
-5.2549780709
 21
6.1342313297
  0
LINE
  5
2BC
100
AcDbEntity
  8
ASSI
100
AcDbLine
 62
7
  6
CONTINUOUS
 10
-5.2549780709
 20
6.1342313297
 11
-5.2562627003
 21
6.3135946558
  0
LINE
  5
2BD
100
AcDbEntity
  8
ASSI
100
AcDbLine
 62
7
  6
CONTINUOUS
 10
-5.2562627003
 20
6.3135946558
 11
-5.257486255
 21
6.4929930127
  0
LINE
  5
2BE
100
AcDbEntity
  8
ASSI
100
AcDbLine
 62
7
  6
CONTINUOUS
 10
-5.257486255
 20
6.4929930127
 11
-5.2577825931
 21
6.537846988
  0
LINE
  5
2BF
100
AcDbEntity
  8
ASSI
100
AcDbLine
 62
7
  6
CONTINUOUS
 10
-5.2577825931
 20
6.537846988
 11
-5.2589297451
 21
6.7172804457
  0
SPLINE
  5
2C0
100
AcDbEntity
  8
ASSI
100
AcDbSpline
 62
7
  6
CONTINUOUS
 70
0
 71
3
 72
14
 73
10
 74
8
 42
0.0000001
 43
0.0000001
 44
0.0000000001
 12
-0.1348742279
 22
-0.0433117058
 32
0.0
 13
-0.1305045418
 23
0.0549059436
 33
0.0
 40
0.0
 40
0.0
 40
0.0
 40
0.0
 40
0.0041519654
 40
0.1751397287
 40
0.3507158298
 40
0.5337212842
 40
0.7267852074
 40
0.9302596416
 40
1.0
 40
1.0
 40
1.0
 40
1.0
 10
1.0628137539
 20
2.0661998952
 30
0.0
 10
1.0626270895
 20
2.0661399523
 30
0.0
 10
1.054748194
 20
2.0636269609
 30
0.0
 10
1.0385582202
 20
2.0599088016
 30
0.0
 10
1.013556405
 20
2.0580705153
 30
0.0
 10
0.9875162668
 20
2.0598306322
 30
0.0
 10
0.9606361557
 20
2.0651743745
 30
0.0
 10
0.939667919
 20
2.0719558148
 30
0.0
 10
0.9276987091
 20
2.0767575904
 30
0.0
 10
0.924664898
 20
2.0780339771
 30
0.0
 11
1.0628137539
 21
2.0661998952
 31
0.0
 11
1.0622534102
 21
2.0660211722
 31
0.0
 11
1.0386815389
 21
2.0605589754
 31
0.0
 11
1.0139077688
 21
2.0586690273
 31
0.0
 11
0.9880643625
 21
2.060335537
 31
0.0
 11
0.9612517524
 21
2.0655787467
 31
0.0
 11
0.9338298503
 21
2.0743601671
 31
0.0
 11
0.924664898
 21
2.0780339771
 31
0.0
  0
SPLINE
  5
2C1
100
AcDbEntity
  8
ASSI
100
AcDbSpline
 62
7
  6
CONTINUOUS
 70
0
 71
3
 72
23
 73
19
 74
17
 42
0.0000001
 43
0.0000001
 44
0.0000000001
 12
-0.4697235934
 22
0.2720556507
 32
0.0
 13
-0.0327478609
 23
0.5417582291
 33
0.0
 40
0.0
 40
0.0
 40
0.0
 40
0.0
 40
0.0197112377
 40
0.0810136604
 40
0.1447474378
 40
0.2103855487
 40
0.2779702474
 40
0.3474889991
 40
0.4182279689
 40
0.4894443216
 40
0.5610860775
 40
0.6331136178
 40
0.7047627447
 40
0.7752532483
 40
0.8445006569
 40
0.9124937506
 40
0.9785939253
 40
1.0
 40
1.0
 40
1.0
 40
1.0
 10
-4.983924697
 20
5.032329152
 30
0.0
 10
-4.9870109748
 20
5.0341166698
 30
0.0
 10
-4.9995865656
 20
5.0416530511
 30
0.0
 10
-5.0212393857
 20
5.0564151969
 30
0.0
 10
-5.0481265334
 20
5.0780626494
 30
0.0
 10
-5.0741773267
 20
5.1023996195
 30
0.0
 10
-5.0992048675
 20
5.129233975
 30
0.0
 10
-5.1230061665
 20
5.158361101
 30
0.0
 10
-5.1453101099
 20
5.1894603754
 30
0.0
 10
-5.1658819955
 20
5.2221845964
 30
0.0
 10
-5.184575135
 20
5.256282737
 30
0.0
 10
-5.2012390279
 20
5.2915041854
 30
0.0
 10
-5.215679703
 20
5.3274702275
 30
0.0
 10
-5.2277394977
 20
5.3637742029
 30
0.0
 10
-5.2373294082
 20
5.4001250601
 30
0.0
 10
-5.2443644923
 20
5.4362498949
 30
0.0
 10
-5.2478161581
 20
5.4641827478
 30
0.0
 10
-5.2489717977
 20
5.4799735207
 30
0.0
 10
-5.2492054654
 20
5.4838391598
 30
0.0
 11
-4.983924697
 21
5.032329152
 31
0.0
 11
-4.9931034102
 21
5.037826956
 31
0.0
 11
-5.0206178201
 21
5.056514236
 31
0.0
 11
-5.0475834536
 21
5.0781614975
 31
0.0
 11
-5.0736345866
 21
5.1024434278
 31
0.0
 11
-5.0986686266
 21
5.1292372838
 31
0.0
 11
-5.1225546944
 21
5.1584285098
 31
0.0
 11
-5.1449369617
 21
5.1896068168
 31
0.0
 11
-5.1655101251
 21
5.2223137974
 31
0.0
 11
-5.1841986452
 21
5.2563965011
 31
0.0
 11
-5.200908501
 21
5.2917233751
 31
0.0
 11
-5.2153830676
 21
5.3278023068
 31
0.0
 11
-5.2274233336
 21
5.3641032003
 31
0.0
 11
-5.2369831429
 21
5.4004377264
 31
0.0
 11
-5.2440024669
 21
5.436654329
 31
0.0
 11
-5.2483593244
 21
5.4722522292
 31
0.0
 11
-5.2492054654
 21
5.4838391598
 31
0.0
  0
SPLINE
  5
2C2
100
AcDbEntity
  8
ASSI
100
AcDbSpline
 62
7
  6
CONTINUOUS
 70
0
 71
3
 72
16
 73
12
 74
10
 42
0.0000001
 43
0.0000001
 44
0.0000000001
 12
0.0099543161
 22
0.2047498668
 32
0.0
 13
0.1669985182
 23
0.1191182173
 33
0.0
 40
0.0
 40
0.0
 40
0.0
 40
0.0
 40
0.0529206477
 40
0.2079171624
 40
0.3553429345
 40
0.4947252683
 40
0.627260687
 40
0.7542616108
 40
0.876171847
 40
0.9939121289
 40
1.0
 40
1.0
 40
1.0
 40
1.0
 10
-5.2584675284
 20
6.7395243096
 30
0.0
 10
-5.2582919321
 20
6.7431361415
 30
0.0
 10
-5.2574040411
 20
6.7573171529
 30
0.0
 10
-5.2545026789
 20
6.7814476142
 30
0.0
 10
-5.2480387593
 20
6.8109774344
 30
0.0
 10
-5.2389759363
 20
6.8382110977
 30
0.0
 10
-5.2273861401
 20
6.8629474153
 30
0.0
 10
-5.2133339728
 20
6.8849834131
 30
0.0
 10
-5.1969525439
 20
6.9040476406
 30
0.0
 10
-5.1841532412
 20
6.9150123045
 30
0.0
 10
-5.177280756
 20
6.9199577305
 30
0.0
 10
-5.1769418675
 20
6.920199456
 30
0.0
 11
-5.2584675284
 21
6.7395243096
 31
0.0
 11
-5.2577874879
 21
6.7503510497
 31
0.0
 11
-5.2539272353
 21
6.7818768497
 31
0.0
 11
-5.2473920409
 21
6.8113714071
 31
0.0
 11
-5.2382963245
 21
6.8384460566
 31
0.0
 11
-5.2266983752
 21
6.8630037103
 31
0.0
 11
-5.2126384541
 21
6.8849033466
 31
0.0
 11
-5.196306911
 21
6.9038070157
 31
0.0
 11
-5.1779554898
 21
6.9194700568
 31
0.0
 11
-5.1769418675
 21
6.920199456
 31
0.0
  0
SPLINE
  5
2C3
100
AcDbEntity
  8
ASSI
100
AcDbSpline
 62
253
  6
CONTINUOUS
 70
0
 71
3
 72
21
 73
17
 74
15
 42
0.0000001
 43
0.0000001
 44
0.0000000001
 12
-0.0027086902
 22
0.3665006289
 32
0.0
 13
-0.3229569199
 23
0.1732884182
 33
0.0
 40
0.0
 40
0.0
 40
0.0
 40
0.0
 40
0.0675515957
 40
0.1379106427
 40
0.210618269
 40
0.2851460241
 40
0.3609149144
 40
0.4373129777
 40
0.5137119661
 40
0.5894836079
 40
0.6640158694
 40
0.7367296356
 40
0.8070962814
 40
0.8746567015
 40
0.9390424875
 40
1.0
 40
1.0
 40
1.0
 40
1.0
 10
13.9645361321
 20
0.3837785816
 30
0.0
 10
13.96447514
 20
0.3920311491
 30
0.0
 10
13.9635917951
 20
0.4088804004
 30
0.0
 10
13.96018166
 20
0.434408882
 30
0.0
 10
13.9547000636
 20
0.4604454041
 30
0.0
 10
13.9472155334
 20
0.4866640082
 30
0.0
 10
13.937821334
 20
0.5127393576
 30
0.0
 10
13.9266345325
 20
0.538346476
 30
0.0
 10
13.9137945579
 20
0.563166295
 30
0.0
 10
13.8994614131
 20
0.5868894764
 30
0.0
 10
13.8838135969
 20
0.6092204991
 30
0.0
 10
13.8670455497
 20
0.6298815
 30
0.0
 10
13.8493654101
 20
0.6486155354
 30
0.0
 10
13.8309903309
 20
0.6651905923
 30
0.0
 10
13.8121491211
 20
0.6793990235
 30
0.0
 10
13.7990561108
 20
0.6874035003
 30
0.0
 10
13.792493894
 20
0.6909245773
 30
0.0
 11
13.9645361321
 21
0.3837785816
 31
0.0
 11
13.9632859802
 21
0.4085053773
 31
0.0
 11
13.9599082424
 21
0.434070544
 31
0.0
 11
13.9544453793
 21
0.4601527094
 31
0.0
 11
13.946966063
 21
0.4864240017
 31
0.0
 11
13.937564314
 21
0.5125541722
 31
0.0
 11
13.9263583191
 21
0.538214746
 31
0.0
 11
13.9134889458
 21
0.5630831513
 31
0.0
 11
13.8991179713
 21
0.5868467747
 31
0.0
 11
13.8834260492
 21
0.6092068907
 31
0.0
 11
13.866610438
 21
0.6298824169
 31
0.0
 11
13.848882522
 21
0.6486134474
 31
0.0
 11
13.8304651537
 21
0.6651645202
 31
0.0
 11
13.8115898524
 21
0.6793275766
 31
0.0
 11
13.792493894
 21
0.6909245773
 31
0.0
  0
SPLINE
  5
2C4
100
AcDbEntity
  8
ASSI
100
AcDbSpline
 62
253
  6
CONTINUOUS
 70
0
 71
3
 72
21
 73
17
 74
15
 42
0.0000001
 43
0.0000001
 44
0.0000000001
 12
-0.0002381811
 22
0.3665649359
 32
0.0
 13
0.3264581342
 23
0.1667183122
 33
0.0
 40
0.0
 40
0.0
 40
0.0
 40
0.0
 40
0.0673451676
 40
0.1373665829
 40
0.2096497344
 40
0.2837102531
 40
0.3590123512
 40
0.4349859312
 40
0.5110428482
 40
0.5865927408
 40
0.6610588114
 40
0.7338939267
 40
0.8045974427
 40
0.8727332169
 40
0.9379493261
 40
1.0
 40
1.0
 40
1.0
 40
1.0
 10
13.2699847804
 20
0.3878451744
 30
0.0
 10
13.2699794336
 20
0.3960739668
 30
0.0
 10
13.270748868
 20
0.4128663749
 30
0.0
 10
13.2740541001
 20
0.4382950269
 30
0.0
 10
13.2794929462
 20
0.4641929744
 30
0.0
 10
13.2869978618
 20
0.4902390472
 30
0.0
 10
13.2964760903
 20
0.5161133802
 30
0.0
 10
13.3078106102
 20
0.5414967428
 30
0.0
 10
13.3208615244
 20
0.566076024
 30
0.0
 10
13.3354678219
 20
0.5895479036
 30
0.0
 10
13.3514494309
 20
0.6116228149
 30
0.0
 10
13.3686097443
 20
0.632028647
 30
0.0
 10
13.3867378375
 20
0.650513894
 30
0.0
 10
13.4056130647
 20
0.6668514815
 30
0.0
 10
13.4250023894
 20
0.6808383113
 30
0.0
 10
13.438466456
 20
0.6886841883
 30
0.0
 10
13.4452187718
 20
0.6921325162
 30
0.0
 11
13.2699847804
 21
0.3878451744
 31
0.0
 11
13.2710694636
 21
0.4125077155
 31
0.0
 11
13.2743413432
 21
0.4379657256
 31
0.0
 11
13.2797596876
 21
0.463902277
 31
0.0
 11
13.2872570435
 21
0.4899944844
 31
0.0
 11
13.2967400761
 21
0.5159175249
 31
0.0
 11
13.3080907306
 21
0.5413486815
 31
0.0
 11
13.3211677023
 21
0.5659713606
 31
0.0
 11
13.3358081954
 21
0.5894790335
 31
0.0
 11
13.3518299498
 21
0.6115790521
 31
0.0
 11
13.36903351
 21
0.6319962924
 31
0.0
 11
13.3872047083
 21
0.6504765794
 31
0.0
 11
13.4061173305
 21
0.6667898512
 31
0.0
 11
13.4255359326
 21
0.6807330232
 31
0.0
 11
13.4452187718
 21
0.6921325162
 31
0.0
  0
SPLINE
  5
2C5
100
AcDbEntity
  8
ASSI
100
AcDbSpline
 62
253
  6
CONTINUOUS
 70
0
 71
3
 72
21
 73
17
 74
15
 42
0.0000001
 43
0.0000001
 44
0.0000000001
 12
-0.0002381814
 22
0.366564936
 32
0.0
 13
0.3264581343
 23
0.1667183119
 33
0.0
 40
0.0
 40
0.0
 40
0.0
 40
0.0
 40
0.0673451718
 40
0.1373665919
 40
0.2096497479
 40
0.2837102706
 40
0.3590123719
 40
0.4349859543
 40
0.5110428723
 40
0.5865927648
 40
0.661058834
 40
0.7338939467
 40
0.804597459
 40
0.8727332284
 40
0.9379493321
 40
1.0
 40
1.0
 40
1.0
 40
1.0
 10
-17.3733541363
 20
15.7095146328
 30
0.0
 10
-17.373359483
 20
15.7177434256
 30
0.0
 10
-17.3725900485
 20
15.7345358349
 30
0.0
 10
-17.369284816
 20
15.7599644885
 30
0.0
 10
-17.3638459693
 20
15.7858624375
 30
0.0
 10
-17.3563410529
 20
15.8119085115
 30
0.0
 10
-17.3468628236
 20
15.8377828456
 30
0.0
 10
-17.3355283028
 20
15.8631662086
 30
0.0
 10
-17.3224773879
 20
15.8877454899
 30
0.0
 10
-17.30787109
 20
15.9112173691
 30
0.0
 10
-17.2918894807
 20
15.9332922797
 30
0.0
 10
-17.2747291675
 20
15.9536981107
 30
0.0
 10
-17.2566010749
 20
15.9721833563
 30
0.0
 10
-17.2377258487
 20
15.9885209424
 30
0.0
 10
-17.2183365254
 20
16.0025077708
 30
0.0
 10
-17.2048724599
 20
16.010353647
 30
0.0
 10
-17.1981201448
 20
16.0138019745
 30
0.0
 11
-17.3733541363
 21
15.7095146328
 31
0.0
 11
-17.3722694529
 21
15.7341771754
 31
0.0
 11
-17.3689975729
 21
15.7596351872
 31
0.0
 11
-17.3635792278
 21
15.7855717402
 31
0.0
 11
-17.3560818711
 21
15.8116639489
 31
0.0
 11
-17.3465988377
 21
15.8375869903
 31
0.0
 11
-17.3352481824
 21
15.8630181474
 31
0.0
 11
-17.32217121
 21
15.8876408266
 31
0.0
 11
-17.3075307164
 21
15.9111484991
 31
0.0
 11
-17.2915089618
 21
15.933248517
 31
0.0
 11
-17.2743054017
 21
15.9536657562
 31
0.0
 11
-17.2561342041
 21
15.9721460419
 31
0.0
 11
-17.2372215829
 21
15.9884593122
 31
0.0
 11
-17.2178029821
 21
16.0024024827
 31
0.0
 11
-17.1981201448
 21
16.0138019745
 31
0.0
  0
SPLINE
  5
2C6
100
AcDbEntity
  8
ASSI
100
AcDbSpline
 62
253
  6
CONTINUOUS
 70
0
 71
3
 72
24
 73
20
 74
18
 42
0.0000001
 43
0.0000001
 44
0.0000000001
 12
-0.6460894983
 22
-0.3048812545
 32
0.0
 13
-0.6389944042
 23
0.3194845389
 33
0.0
 40
0.0
 40
0.0
 40
0.0
 40
0.0
 40
0.0524100356
 40
0.1072497924
 40
0.1642744396
 40
0.2231948714
 40
0.2836919856
 40
0.345422123
 40
0.4080213494
 40
0.471113599
 40
0.5343152536
 40
0.5972420897
 40
0.6595128813
 40
0.7207563994
 40
0.7806160868
 40
0.8387583409
 40
0.8948769789
 40
0.9486992022
 40
1.0
 40
1.0
 40
1.0
 40
1.0
 10
13.9645381606
 20
0.3837795388
 30
0.0
 10
13.9532509694
 20
0.3784532597
 30
0.0
 10
13.9297610469
 20
0.368370638
 30
0.0
 10
13.8928945875
 20
0.3552197814
 30
0.0
 10
13.8538434449
 20
0.3437822081
 30
0.0
 10
13.8129251809
 20
0.3341514856
 30
0.0
 10
13.7704704208
 20
0.3264053887
 30
0.0
 10
13.726823264
 20
0.3206069631
 30
0.0
 10
13.68233761
 20
0.3168033836
 30
0.0
 10
13.6373747223
 20
0.3150256611
 30
0.0
 10
13.5922995327
 20
0.3152882639
 30
0.0
 10
13.5474780106
 20
0.3175890416
 30
0.0
 10
13.5032738951
 20
0.3219092471
 30
0.0
 10
13.4600460692
 20
0.3282136538
 30
0.0
 10
13.4181448729
 20
0.3364509859
 30
0.0
 10
13.3779097318
 20
0.3465542598
 30
0.0
 10
13.3396653931
 20
0.3584420094
 30
0.0
 10
13.3037227398
 20
0.3720171472
 30
0.0
 10
13.2809098576
 20
0.382382852
 30
0.0
 10
13.2699828834
 20
0.3878461226
 30
0.0
 11
13.9645381606
 21
0.3837795388
 31
0.0
 11
13.9301549238
 21
0.3689565012
 31
0.0
 11
13.8932710108
 21
0.3557464328
 31
0.0
 11
13.854185765
 21
0.3442565994
 31
0.0
 11
13.8132193687
 21
0.3345812157
 31
0.0
 11
13.7707059014
 21
0.3267991386
 31
0.0
 11
13.7269916002
 21
0.3209737623
 31
0.0
 11
13.6824335122
 21
0.3171526861
 31
0.0
 11
13.6373950476
 21
0.3153670645
 31
0.0
 11
13.5922438139
 21
0.3156314516
 31
0.0
 11
13.5473476426
 21
0.3179436903
 31
0.0
 11
13.5030729791
 21
0.3222849219
 31
0.0
 11
13.4597809118
 21
0.3286197441
 31
0.0
 11
13.4178250214
 21
0.3368963918
 31
0.0
 11
13.3775469749
 21
0.3470474463
 31
0.0
 11
13.3392752436
 21
0.3589901587
 31
0.0
 11
13.3033232799
 21
0.3726266357
 31
0.0
 11
13.2699828834
 21
0.3878461226
 31
0.0
  0
SPLINE
  5
2C7
100
AcDbEntity
  8
ASSI
100
AcDbSpline
 62
253
  6
CONTINUOUS
 70
0
 71
3
 72
23
 73
19
 74
17
 42
0.0000001
 43
0.0000001
 44
0.0000000001
 12
-0.6423463248
 22
-0.3139621741
 32
0.0
 13
-0.6396924869
 23
0.3193345735
 33
0.0
 40
0.0
 40
0.0
 40
0.0
 40
0.0
 40
0.0560459375
 40
0.1147633706
 40
0.1758533728
 40
0.2389680004
 40
0.3037206074
 40
0.3696950256
 40
0.4364539816
 40
0.5035470265
 40
0.5705181849
 40
0.6369134918
 40
0.7022885703
 40
0.7662164078
 40
0.8282955157
 40
0.8881587155
 40
0.9454828706
 40
1.0
 40
1.0
 40
1.0
 40
1.0
 10
14.0304063848
 20
-7.4620411346
 30
0.0
 10
14.0184060842
 20
-7.4679065694
 30
0.0
 10
13.993372124
 20
-7.4789899111
 30
0.0
 10
13.9539793108
 20
-7.4933727154
 30
0.0
 10
13.9121660568
 20
-7.5057979749
 30
0.0
 10
13.8683160667
 20
-7.516151196
 30
0.0
 10
13.8228287143
 20
-7.524338109
 30
0.0
 10
13.7761200271
 20
-7.5302835569
 30
0.0
 10
13.7286173446
 20
-7.5339329857
 30
0.0
 10
13.6807556214
 20
-7.5352528629
 30
0.0
 10
13.6329731891
 20
-7.534231082
 30
0.0
 10
13.5857076144
 20
-7.5308770667
 30
0.0
 10
13.5393915664
 20
-7.5252216784
 30
0.0
 10
13.4944485801
 20
-7.5173168103
 30
0.0
 10
13.4512894265
 20
-7.5072349903
 30
0.0
 10
13.4103066621
 20
-7.4950677807
 30
0.0
 10
13.3718761652
 20
-7.4809271326
 30
0.0
 10
13.3475423693
 20
-7.4699778027
 30
0.0
 10
13.3359176366
 20
-7.4641747347
 30
0.0
 11
14.0304063848
 21
-7.4620411346
 31
0.0
 11
13.9937940976
 21
-7.4783271806
 31
0.0
 11
13.9543791136
 21
-7.4927797523
 31
0.0
 11
13.9125243534
 21
-7.5052657752
 31
0.0
 11
13.8686152022
 21
-7.5156702821
 31
0.0
 11
13.8230559613
 21
-7.5238974714
 31
0.0
 11
13.7762661256
 21
-7.52987159
 31
0.0
 11
13.7286765209
 21
-7.5335376301
 31
0.0
 11
13.6807253369
 21
-7.5348618359
 31
0.0
 11
13.6328540927
 21
-7.5338320146
 31
0.0
 11
13.5855035715
 21
-7.5304576485
 31
0.0
 11
13.5391097615
 21
-7.5247698075
 31
0.0
 11
13.4940998421
 21
-7.5168208637
 31
0.0
 11
13.4508882502
 21
-7.5066840081
 31
0.0
 11
13.4098728642
 21
-7.4944525779
 31
0.0
 11
13.3714313406
 21
-7.480239196
 31
0.0
 11
13.3359176366
 21
-7.4641747347
 31
0.0
  0
SPLINE
  5
2C8
100
AcDbEntity
  8
ASSI
100
AcDbSpline
 62
253
  6
CONTINUOUS
 70
0
 71
3
 72
14
 73
10
 74
8
 42
0.0000001
 43
0.0000001
 44
0.0000000001
 12
0.1590485282
 22
-9.8322410214
 32
0.0
 13
1.3196249534
 23
-9.744580541
 33
0.0
 40
0.0
 40
0.0
 40
0.0
 40
0.0
 40
0.1462535095
 40
0.2913919944
 40
0.4354038616
 40
0.5782788199
 40
0.7200079478
 40
0.860583705
 40
1.0
 40
1.0
 40
1.0
 40
1.0
 10
13.3359176364
 20
-7.4641747348
 30
0.0
 10
13.3436714382
 20
-7.9435079867
 30
0.0
 10
13.3667346305
 20
-8.8984154463
 30
0.0
 10
13.424376996
 20
-10.3244970089
 30
0.0
 10
13.5049160545
 20
-11.7383820527
 30
0.0
 10
13.608323946
 20
-13.1395734404
 30
0.0
 10
13.734565244
 20
-14.5275864515
 30
0.0
 10
13.8835955756
 20
-15.901931985
 30
0.0
 10
13.9985869171
 20
-16.8125270377
 30
0.0
 10
14.0599126576
 20
-17.2653781427
 30
0.0
 11
13.3359176364
 21
-7.4641747348
 31
0.0
 11
13.3707310442
 21
-8.901941203
 31
0.0
 11
13.4284626178
 21
-10.3279963556
 31
0.0
 11
13.5090923041
 21
-11.7418437575
 31
0.0
 11
13.6125920833
 21
-13.1429911121
 31
0.0
 11
13.738925995
 21
-14.5309506855
 31
0.0
 11
13.8880501283
 21
-15.9052391797
 31
0.0
 11
14.0599126576
 21
-17.2653781427
 31
0.0
  0
SPLINE
  5
2C9
100
AcDbEntity
  8
ASSI
100
AcDbSpline
 62
253
  6
CONTINUOUS
 70
0
 71
3
 72
14
 73
10
 74
8
 42
0.0000001
 43
0.0000001
 44
0.0000000001
 12
0.1581958
 22
-9.7776961891
 32
0.0
 13
1.3125293863
 23
-9.6904920044
 33
0.0
 40
0.0
 40
0.0
 40
0.0
 40
0.0
 40
0.1462525689
 40
0.2913905064
 40
0.4354020953
 40
0.5782770586
 40
0.7200064886
 40
0.860582859
 40
1.0
 40
1.0
 40
1.0
 40
1.0
 10
14.0304063848
 20
-7.4620411346
 30
0.0
 10
14.0381185656
 20
-7.9387121965
 30
0.0
 10
14.0610579373
 20
-8.8883173731
 30
0.0
 10
14.1183908263
 20
-10.3064815919
 30
0.0
 10
14.1984974971
 20
-11.7125196318
 30
0.0
 10
14.3013502312
 20
-13.1059366627
 30
0.0
 10
14.426913792
 20
-14.4862506533
 30
0.0
 10
14.575144003
 20
-15.8529749152
 30
0.0
 10
14.6895178368
 20
-16.7585206776
 30
0.0
 10
14.7505142016
 20
-17.2088609075
 30
0.0
 11
14.0304063848
 21
-7.4620411346
 31
0.0
 11
14.0650328428
 21
-8.8918222435
 31
0.0
 11
14.1224544495
 21
-10.3099605806
 31
0.0
 11
14.2026512365
 21
-11.7159611182
 31
0.0
 11
14.3055953352
 21
-13.1093342916
 31
0.0
 11
14.4312509779
 21
-14.4895950721
 31
0.0
 11
14.5795744893
 21
-15.8562628416
 31
0.0
 11
14.7505142016
 21
-17.2088609075
 31
0.0
  0
SPLINE
  5
2CA
100
AcDbEntity
  8
ASSI
100
AcDbSpline
 62
253
  6
CONTINUOUS
 70
0
 71
3
 72
23
 73
19
 74
17
 42
0.0000001
 43
0.0000001
 44
0.0000000001
 12
-0.6046875015
 22
-0.3899603372
 32
0.0
 13
-0.6449837558
 23
0.3189231783
 33
0.0
 40
0.0
 40
0.0
 40
0.0
 40
0.0
 40
0.0585677629
 40
0.1193033505
 40
0.1819239888
 40
0.2461052335
 40
0.3114902464
 40
0.377698354
 40
0.4443331115
 40
0.5109900572
 40
0.5772643152
 40
0.6427581907
 40
0.7070889007
 40
0.7698965953
 40
0.8308528525
 40
0.8896698636
 40
0.9461105666
 40
1.0
 40
1.0
 40
1.0
 40
1.0
 10
14.7505142016
 20
-17.2088609075
 30
0.0
 10
14.7387091368
 20
-17.2164739424
 30
0.0
 10
14.7140584453
 20
-17.2310620564
 30
0.0
 10
14.6750259218
 20
-17.2506319721
 30
0.0
 10
14.6335628001
 20
-17.2681447545
 30
0.0
 10
14.5900504053
 20
-17.2834392823
 30
0.0
 10
14.5448855341
 20
-17.2963765653
 30
0.0
 10
14.4984814992
 20
-17.3068382351
 30
0.0
 10
14.4512629212
 20
-17.3147286203
 30
0.0
 10
14.4036620876
 20
-17.3199754829
 30
0.0
 10
14.3561147722
 20
-17.3225307874
 30
0.0
 10
14.3090561278
 20
-17.3223711151
 30
0.0
 10
14.2629165999
 20
-17.3194978519
 30
0.0
 10
14.2181176974
 20
-17.3139369878
 30
0.0
 10
14.1750685423
 20
-17.3057389523
 30
0.0
 10
14.1341601071
 20
-17.2949768969
 30
0.0
 10
14.0957684235
 20
-17.2817489271
 30
0.0
 10
14.0714986103
 20
-17.2711069947
 30
0.0
 10
14.0599126739
 20
-17.2653781316
 30
0.0
 11
14.7505142016
 21
-17.2088609075
 31
0.0
 11
14.7142783045
 21
-17.2303741695
 31
0.0
 11
14.6752348432
 21
-17.2500048868
 31
0.0
 11
14.6337434969
 21
-17.2675722155
 31
0.0
 11
14.5901864955
 21
-17.2829143207
 31
0.0
 11
14.5449650982
 21
-17.2958898666
 31
0.0
 11
14.4984958971
 21
-17.3063793188
 31
0.0
 11
14.4512069796
 21
-17.3142860455
 31
0.0
 11
14.4035339842
 21
-17.3195372078
 31
0.0
 11
14.3559160879
 21
-17.3220844306
 31
0.0
 11
14.3087919601
 21
-17.3219042481
 31
0.0
 11
14.2625957213
 21
-17.3189983201
 31
0.0
 11
14.2177529442
 21
-17.313393417
 31
0.0
 11
14.174676733
 21
-17.3051411726
 31
0.0
 11
14.1337639177
 21
-17.2943176089
 31
0.0
 11
14.0953913985
 21
-17.2810224356
 31
0.0
 11
14.0599126739
 21
-17.2653781316
 31
0.0
  0
SPLINE
  5
2CB
100
AcDbEntity
  8
ASSI
100
AcDbSpline
 62
253
  6
CONTINUOUS
 70
0
 71
3
 72
14
 73
10
 74
8
 42
0.0000001
 43
0.0000001
 44
0.0000000001
 12
-1.2344531456
 22
9.7271211268
 32
0.0
 13
-0.1480272948
 23
9.8040220269
 33
0.0
 40
0.0
 40
0.0
 40
0.0
 40
0.0
 40
0.1390931295
 40
0.2794615902
 40
0.4210944051
 40
0.5639791418
 40
0.7081019866
 40
0.8534477621
 40
1.0
 40
1.0
 40
1.0
 40
1.0
 10
-16.6364678466
 20
-1.9171878906
 30
0.0
 10
-16.693702497
 20
-1.4661959844
 30
0.0
 10
-16.8010131103
 20
-0.5590841436
 30
0.0
 10
-16.9400280774
 20
0.8102325679
 30
0.0
 10
-17.0577847026
 20
2.1939811211
 30
0.0
 10
-17.1542416362
 20
3.5916746408
 30
0.0
 10
-17.2293657672
 20
5.0028293253
 30
0.0
 10
-17.2831310815
 20
6.4269496867
 30
0.0
 10
-17.3046352101
 20
7.3807835208
 30
0.0
 10
-17.3118664539
 20
7.8597173103
 30
0.0
 11
-16.6364678466
 21
-1.9171878906
 31
0.0
 11
-16.7967945195
 21
-0.5628168559
 31
0.0
 11
-16.9359090562
 21
0.8064668401
 31
0.0
 11
-17.0537631097
 21
2.1901864845
 31
0.0
 11
-17.1503157167
 21
3.5878602529
 31
0.0
 11
-17.2255333304
 21
4.9990016185
 31
0.0
 11
-17.2793898117
 21
6.423119225
 31
0.0
 11
-17.3118664539
 21
7.8597173103
 31
0.0
  0
SPLINE
  5
2CC
100
AcDbEntity
  8
ASSI
100
AcDbSpline
 62
253
  6
CONTINUOUS
 70
0
 71
3
 72
17
 73
13
 74
11
 42
0.0000001
 43
0.0000001
 44
0.0000000001
 12
0.0673496766
 22
-0.505193452
 32
0.0
 13
0.4557939012
 23
-0.2288339109
 33
0.0
 40
0.0
 40
0.0
 40
0.0
 40
0.0
 40
0.1257951957
 40
0.2468052935
 40
0.3631336894
 40
0.4750193806
 40
0.5828564352
 40
0.6871935549
 40
0.7887311989
 40
0.8883038923
 40
0.9868488866
 40
1.0
 40
1.0
 40
1.0
 40
1.0
 10
14.0599126576
 20
-17.2653781427
 30
0.0
 10
14.0627367462
 20
-17.2865617791
 30
0.0
 10
14.069831163
 20
-17.3279381789
 30
0.0
 10
14.0852216595
 20
-17.3877536989
 30
0.0
 10
14.1050678299
 20
-17.4437549163
 30
0.0
 10
14.1292527969
 20
-17.4955746699
 30
0.0
 10
14.157633684
 20
-17.5428733034
 30
0.0
 10
14.1900398597
 20
-17.5853331269
 30
0.0
 10
14.2262706369
 20
-17.6226613538
 30
0.0
 10
14.2660928381
 20
-17.6545937168
 30
0.0
 10
14.296823502
 20
-17.6733304227
 30
0.0
 10
14.3137199034
 20
-17.6819971459
 30
0.0
 10
14.3157179691
 20
-17.6830002862
 30
0.0
 11
14.0599126576
 21
-17.2653781427
 31
0.0
 11
14.0708431045
 21
-17.3285526841
 31
0.0
 11
14.086311432
 21
-17.3882557755
 31
0.0
 11
14.1062179836
 21
-17.4441022584
 31
0.0
 11
14.1304335873
 21
-17.4957292004
 31
0.0
 11
14.1588017883
 21
-17.5428026357
 31
0.0
 11
14.191138934
 21
-17.585017303
 31
0.0
 11
14.2272356667
 21
-17.6220994638
 31
0.0
 11
14.266858188
 21
-17.6538085814
 31
0.0
 11
14.3097501364
 21
-17.6799391248
 31
0.0
 11
14.3157179691
 21
-17.6830002862
 31
0.0
  0
SPLINE
  5
2CD
100
AcDbEntity
  8
ASSI
100
AcDbSpline
 62
253
  6
CONTINUOUS
 70
0
 71
3
 72
16
 73
12
 74
10
 42
0.0000001
 43
0.0000001
 44
0.0000000001
 12
-0.2159690029
 22
0.1079887814
 32
0.0
 13
-0.0006320221
 23
0.241788186
 33
0.0
 40
0.0
 40
0.0
 40
0.0
 40
0.0
 40
0.1438104959
 40
0.2793232648
 40
0.4064561134
 40
0.5254003835
 40
0.6366911712
 40
0.7412570252
 40
0.8404517125
 40
0.9360460384
 40
1.0
 40
1.0
 40
1.0
 40
1.0
 10
-17.3733522386
 20
15.7095136836
 30
0.0
 10
-17.3837051084
 20
15.7146903237
 30
0.0
 10
-17.4034700035
 20
15.7254580067
 30
0.0
 10
-17.4308692207
 20
15.7434045034
 30
0.0
 10
-17.4549514474
 20
15.7625453517
 30
0.0
 10
-17.4755199614
 20
15.7827375179
 30
0.0
 10
-17.4924027451
 20
15.803834685
 30
0.0
 10
-17.5054461299
 20
15.8256845488
 30
0.0
 10
-17.5145129292
 20
15.8481218271
 30
0.0
 10
-17.5189687663
 20
15.8685743865
 30
0.0
 10
-17.5197862678
 20
15.8814320309
 30
0.0
 10
-17.5197997412
 20
15.8865864684
 30
0.0
 11
-17.3733522386
 21
15.7095136836
 31
0.0
 11
-17.4038091187
 21
15.726192835
 31
0.0
 11
-17.4311334775
 21
15.7441945192
 31
0.0
 11
-17.4551033909
 21
15.7633726292
 31
0.0
 11
-17.4755223769
 21
15.7835700909
 31
0.0
 11
-17.492223984
 21
15.804622192
 31
0.0
 11
-17.5050721632
 21
15.826357493
 31
0.0
 11
-17.5139619239
 21
15.8485984735
 31
0.0
 11
-17.5188207672
 21
15.8711637421
 31
0.0
 11
-17.5197997412
 21
15.8865864684
 31
0.0
  0
SPLINE
  5
2CE
100
AcDbEntity
  8
ASSI
100
AcDbSpline
 62
253
  6
CONTINUOUS
 70
0
 71
3
 72
24
 73
20
 74
18
 42
0.0000001
 43
0.0000001
 44
0.0000000001
 12
0.0639027533
 22
-0.4717728467
 32
0.0
 13
0.4413838546
 23
0.1784193758
 33
0.0
 40
0.0
 40
0.0
 40
0.0
 40
0.0
 40
0.0674522603
 40
0.1324328803
 40
0.1949921921
 40
0.2552669519
 40
0.3134744861
 40
0.3699113309
 40
0.4249505657
 40
0.4790314766
 40
0.5326426374
 40
0.5862971832
 40
0.6405065485
 40
0.6957524301
 40
0.7524643122
 40
0.8110030704
 40
0.8716529464
 40
0.9346161818
 40
1.0
 40
1.0
 40
1.0
 40
1.0
 10
14.7505142016
 20
-17.2088609075
 30
0.0
 10
14.7519509966
 20
-17.2194682891
 30
0.0
 10
14.7555618037
 20
-17.240198691
 30
0.0
 10
14.7633909363
 20
-17.2701739832
 30
0.0
 10
14.7734873472
 20
-17.2982629254
 30
0.0
 10
14.7857908729
 20
-17.3242785229
 30
0.0
 10
14.8002283236
 20
-17.3480499392
 30
0.0
 10
14.8167122453
 20
-17.3694173105
 30
0.0
 10
14.8351397492
 20
-17.3882334612
 30
0.0
 10
14.8553915687
 20
-17.4043658028
 30
0.0
 10
14.8773317452
 20
-17.417699334
 30
0.0
 10
14.9008090433
 20
-17.4281400811
 30
0.0
 10
14.9256598828
 20
-17.4356176089
 30
0.0
 10
14.9517122623
 20
-17.4400858608
 30
0.0
 10
14.978789122
 20
-17.4415221036
 30
0.0
 10
15.0067104479
 20
-17.439925162
 30
0.0
 10
15.0352948186
 20
-17.4353129619
 30
0.0
 10
15.0643533639
 20
-17.4277238926
 30
0.0
 10
15.0835554487
 20
-17.42084599
 30
0.0
 10
15.0931752359
 20
-17.41695741
 30
0.0
 11
14.7505142016
 21
-17.2088609075
 31
0.0
 11
14.7560718931
 21
-17.2404890657
 31
0.0
 11
14.7639386197
 21
-17.2704081793
 31
0.0
 11
14.7740626658
 21
-17.2984179789
 31
0.0
 11
14.7863783751
 21
-17.3243364065
 31
0.0
 11
14.8008061627
 21
-17.3479957904
 31
0.0
 11
14.817252629
 21
-17.3692426901
 31
0.0
 11
14.8356112925
 21
-17.387939318
 31
0.0
 11
14.8557632249
 21
-17.4039643721
 31
0.0
 11
14.8775780129
 21
-17.4172139664
 31
0.0
 11
14.9009142356
 21
-17.4276020472
 31
0.0
 11
14.9256208371
 21
-17.4350612298
 31
0.0
 11
14.9515376916
 21
-17.4395430278
 31
0.0
 11
14.9784968108
 21
-17.4410182801
 31
0.0
 11
15.0063233727
 21
-17.4394773562
 31
0.0
 11
15.0348373237
 21
-17.4349301211
 31
0.0
 11
15.0638532961
 21
-17.4274061463
 31
0.0
 11
15.0931752359
 21
-17.41695741
 31
0.0
  0
SPLINE
  5
2CF
100
AcDbEntity
  8
ASSI
100
AcDbSpline
 62
253
  6
CONTINUOUS
 70
0
 71
3
 72
17
 73
13
 74
11
 42
0.0000001
 43
0.0000001
 44
0.0000000001
 12
-0.0146233495
 22
-0.3374304751
 32
0.0
 13
-0.3134643983
 23
-0.1267186416
 33
0.0
 40
0.0
 40
0.0
 40
0.0
 40
0.0
 40
0.1257612106
 40
0.2463557878
 40
0.361548946
 40
0.4712938634
 40
0.5757615065
 40
0.6753678851
 40
0.7707922496
 40
0.8629762818
 40
0.9530928601
 40
1.0
 40
1.0
 40
1.0
 40
1.0
 10
15.0931752359
 20
-17.41695741
 30
0.0
 10
15.0925622192
 20
-17.4311026316
 30
0.0
 10
15.0903112825
 20
-17.4587814398
 30
0.0
 10
15.0836312334
 20
-17.4989837969
 30
0.0
 10
15.0737719777
 20
-17.5366761868
 30
0.0
 10
15.0608184096
 20
-17.571498582
 30
0.0
 10
15.0448809805
 20
-17.6031194152
 30
0.0
 10
15.026095442
 20
-17.6312308766
 30
0.0
 10
15.0046244913
 20
-17.6555497464
 30
0.0
 10
14.9806623842
 20
-17.6758183278
 30
0.0
 10
14.9585405269
 20
-17.6893102775
 30
0.0
 10
14.9444642837
 20
-17.6956946794
 30
0.0
 10
14.9395630443
 20
-17.6976760158
 30
0.0
 11
15.0931752359
 21
-17.41695741
 31
0.0
 11
15.0896645008
 21
-17.4592875707
 31
0.0
 11
15.0829111155
 21
-17.499454271
 31
0.0
 11
15.072979968
 21
-17.5370715817
 31
0.0
 11
15.0599664783
 21
-17.571778069
 31
0.0
 11
15.0439956825
 21
-17.6032402667
 31
0.0
 11
15.0252210309
 21
-17.6311558803
 31
0.0
 11
15.0038229137
 21
-17.6552566914
 31
0.0
 11
14.980006928
 21
-17.6753111352
 31
0.0
 11
14.9540019019
 21
-17.691126525
 31
0.0
 11
14.9395630443
 21
-17.6976760158
 31
0.0
  0
SPLINE
  5
2D0
100
AcDbEntity
  8
CURVE
100
AcDbSpline
 62
253
  6
CONTINUOUS
 70
0
 71
3
 72
127
 73
123
 74
121
 42
0.0000001
 43
0.0000001
 44
0.0000000001
 12
-0.1953894969
 22
3.1583556008
 32
0.0
 13
-0.1337869692
 23
4.8705012078
 33
0.0
 40
0.0
 40
0.0
 40
0.0
 40
0.0
 40
0.0625
 40
0.09375
 40
0.125
 40
0.15625
 40
0.171875
 40
0.1875
 40
0.21875
 40
0.234375
 40
0.25
 40
0.265625
 40
0.28125
 40
0.2890625
 40
0.296875
 40
0.3046875
 40
0.3125
 40
0.3203125
 40
0.32421875
 40
0.326171875
 40
0.328125
 40
0.330078125
 40
0.3310546875
 40
0.33203125
 40
0.3325195312
 40
0.3330078125
 40
0.3332519531
 40
0.3334960938
 40
0.333984375
 40
0.3349609375
 40
0.3359375
 40
0.337890625
 40
0.33984375
 40
0.34375
 40
0.34765625
 40
0.3515625
 40
0.359375
 40
0.3671875
 40
0.375
 40
0.390625
 40
0.40625
 40
0.421875
 40
0.4375
 40
0.453125
 40
0.4609375
 40
0.46875
 40
0.4765625
 40
0.48046875
 40
0.484375
 40
0.48828125
 40
0.4921875
 40
0.494140625
 40
0.49609375
 40
0.4970703125
 40
0.498046875
 40
0.4990234375
 40
0.4995117188
 40
0.4997558594
 40
0.5
 40
0.5002441406
 40
0.5004882812
 40
0.5009765625
 40
0.501953125
 40
0.5029296875
 40
0.50390625
 40
0.505859375
 40
0.5078125
 40
0.51171875
 40
0.515625
 40
0.51953125
 40
0.5234375
 40
0.53125
 40
0.5390625
 40
0.546875
 40
0.5625
 40
0.578125
 40
0.59375
 40
0.609375
 40
0.625
 40
0.65625
 40
0.671875
 40
0.6875
 40
0.71875
 40
0.734375
 40
0.75
 40
0.765625
 40
0.78125
 40
0.7890625
 40
0.796875
 40
0.8046875
 40
0.8125
 40
0.81640625
 40
0.8203125
 40
0.82421875
 40
0.826171875
 40
0.828125
 40
0.830078125
 40
0.8310546875
 40
0.83203125
 40
0.8325195312
 40
0.8330078125
 40
0.8332519531
 40
0.8334960938
 40
0.833984375
 40
0.8349609375
 40
0.8359375
 40
0.837890625
 40
0.83984375
 40
0.84375
 40
0.84765625
 40
0.8515625
 40
0.85546875
 40
0.859375
 40
0.8671875
 40
0.875
 40
0.890625
 40
0.90625
 40
0.921875
 40
0.9375
 40
0.953125
 40
0.96875
 40
1.0
 40
1.0
 40
1.0
 40
1.0
 10
-1.9530342556
 20
-4.1466693791
 30
0.0
 10
-1.9571048701
 20
-4.0808703041
 30
0.0
 10
-1.963209299
 20
-3.9821708171
 30
0.0
 10
-1.9713545091
 20
-3.8505749989
 30
0.0
 10
-1.9774484876
 20
-3.751869391
 30
0.0
 10
-1.9825740787
 20
-3.6696424079
 30
0.0
 10
-1.9865685543
 20
-3.6037987371
 30
0.0
 10
-1.9901756645
 20
-3.5377281807
 30
0.0
 10
-1.9938923617
 20
-3.471721811
 30
0.0
 10
-1.9975708221
 20
-3.4056930454
 30
0.0
 10
-2.0003347908
 20
-3.356174472
 30
0.0
 10
-2.0030973844
 20
-3.3066550933
 30
0.0
 10
-2.0053998596
 20
-3.2653891284
 30
0.0
 10
-2.0072417741
 20
-3.2323763173
 30
0.0
 10
-2.0086232187
 20
-3.2076167161
 30
0.0
 10
-2.0100046612
 20
-3.1828571061
 30
0.0
 10
-2.0113861034
 20
-3.158097524
 30
0.0
 10
-2.012537308
 20
-3.1374644534
 30
0.0
 10
-2.0133431456
 20
-3.1230214713
 30
0.0
 10
-2.013803633
 20
-3.1147680775
 30
0.0
 10
-2.0141489739
 20
-3.108578768
 30
0.0
 10
-2.0144368363
 20
-3.1034186661
 30
0.0
 10
-2.0146669507
 20
-3.0992958421
 30
0.0
 10
-2.0148111719
 20
-3.0967071055
 30
0.0
 10
-2.0149256333
 20
-3.0946635336
 30
0.0
 10
-2.0149992607
 20
-3.0933237435
 30
0.0
 10
-2.015053378
 20
-3.0923951954
 30
0.0
 10
-2.0151249628
 20
-3.0909435575
 30
0.0
 10
-2.0152583506
 20
-3.0881601936
 30
0.0
 10
-2.0154446709
 20
-3.0843107433
 30
0.0
 10
-2.0157451495
 20
-3.0780807702
 30
0.0
 10
-2.0161199376
 20
-3.0703175638
 30
0.0
 10
-2.0167200513
 20
-3.0578828746
 30
0.0
 10
-2.017470038
 20
-3.0423441651
 30
0.0
 10
-2.0183700886
 20
-3.0236957225
 30
0.0
 10
-2.0195701329
 20
-2.998831828
 30
0.0
 10
-2.0210701962
 20
-2.9677517212
 30
0.0
 10
-2.0228702687
 20
-2.9304556951
 30
0.0
 10
-2.0252703666
 20
-2.8807276247
 30
0.0
 10
-2.0282704886
 20
-2.818567549
 30
0.0
 10
-2.0318706352
 20
-2.7439754528
 30
0.0
 10
-2.0354707817
 20
-2.669383358
 30
0.0
 10
-2.0390709282
 20
-2.5947912629
 30
0.0
 10
-2.0420710503
 20
-2.5326311838
 30
0.0
 10
-2.044471148
 20
-2.4829031202
 30
0.0
 10
-2.0462712212
 20
-2.4456070733
 30
0.0
 10
-2.0477712824
 20
-2.4145270316
 30
0.0
 10
-2.0489713309
 20
-2.3896630043
 30
0.0
 10
-2.0498713684
 20
-2.3710149671
 30
0.0
 10
-2.0507714019
 20
-2.3523669936
 30
0.0
 10
-2.0515214423
 20
-2.3368268175
 30
0.0
 10
-2.0521214465
 20
-2.3243951204
 30
0.0
 10
-2.0524965132
 20
-2.3166242994
 30
0.0
 10
-2.0527964199
 20
-2.3104099563
 30
0.0
 10
-2.0530217514
 20
-2.3057428643
 30
0.0
 10
-2.0532082504
 20
-2.3018737723
 30
0.0
 10
-2.0533413063
 20
-2.2991258615
 30
0.0
 10
-2.0534134244
 20
-2.2976173753
 30
0.0
 10
-2.0534785386
 20
-2.2963120641
 30
0.0
 10
-2.0535015069
 20
-2.2956716646
 30
0.0
 10
-2.0535468324
 20
-2.2945858701
 30
0.0
 10
-2.0536193025
 20
-2.2927937894
 30
0.0
 10
-2.0537264121
 20
-2.2901771794
 30
0.0
 10
-2.0538534109
 20
-2.2870614289
 30
0.0
 10
-2.0540232781
 20
-2.2828986487
 30
0.0
 10
-2.0542354286
 20
-2.2776980655
 30
0.0
 10
-2.054574972
 20
-2.2693755161
 30
0.0
 10
-2.0549993661
 20
-2.2589728839
 30
0.0
 10
-2.0555086541
 20
-2.2464894876
 30
0.0
 10
-2.0560179381
 20
-2.2340061548
 30
0.0
 10
-2.0566969847
 20
-2.217361689
 30
0.0
 10
-2.0575457927
 20
-2.1965561143
 30
0.0
 10
-2.0585643618
 20
-2.1715894211
 30
0.0
 10
-2.059922457
 20
-2.1383004997
 30
0.0
 10
-2.0616200541
 20
-2.0966893353
 30
0.0
 10
-2.0636572715
 20
-2.0467559943
 30
0.0
 10
-2.0656941205
 20
-1.9968224486
 30
0.0
 10
-2.0677323421
 20
-1.9468896656
 30
0.0
 10
-2.0704431415
 20
-1.8803088266
 30
0.0
 10
-2.0731921723
 20
-1.8137492323
 30
0.0
 10
-2.075831631
 20
-1.7471287501
 30
0.0
 10
-2.0780837768
 20
-1.6802930429
 30
0.0
 10
-2.0804454946
 20
-1.6135182236
 30
0.0
 10
-2.0827689809
 20
-1.5467221595
 30
0.0
 10
-2.0845167183
 20
-1.496627958
 30
0.0
 10
-2.0862630809
 20
-1.4465329926
 30
0.0
 10
-2.0877186968
 20
-1.4047873623
 30
0.0
 10
-2.0888831239
 20
-1.3713908218
 30
0.0
 10
-2.089756453
 20
-1.3463434208
 30
0.0
 10
-2.0906297797
 20
-1.3212960205
 30
0.0
 10
-2.0913575525
 20
-1.3004231808
 30
0.0
 10
-2.0919397705
 20
-1.2837249234
 30
0.0
 10
-2.0923764346
 20
-1.2712011911
 30
0.0
 10
-2.0927403196
 20
-1.2607648722
 30
0.0
 10
-2.0930314314
 20
-1.2524155374
 30
0.0
 10
-2.0932497551
 20
-1.2461543007
 30
0.0
 10
-2.0934317236
 20
-1.240934172
 30
0.0
 10
-2.0935772264
 20
-1.2367635223
 30
0.0
 10
-2.0936683297
 20
-1.2341444487
 30
0.0
 10
-2.0937408365
 20
-1.2320776285
 30
0.0
 10
-2.0937870109
 20
-1.2307209781
 30
0.0
 10
-2.093821986
 20
-1.2297842787
 30
0.0
 10
-2.0938641329
 20
-1.2283050059
 30
0.0
 10
-2.0939412218
 20
-1.2254642301
 30
0.0
 10
-2.0940496104
 20
-1.221537485
 30
0.0
 10
-2.0942240037
 20
-1.2151812012
 30
0.0
 10
-2.0944416626
 20
-1.2072610101
 30
0.0
 10
-2.0947901029
 20
-1.1945746402
 30
0.0
 10
-2.0952255893
 20
-1.1787215039
 30
0.0
 10
-2.0957482005
 20
-1.1596956713
 30
0.0
 10
-2.0962708043
 20
-1.1406703931
 30
0.0
 10
-2.09679341
 20
-1.1216449665
 30
0.0
 10
-2.097490217
 20
-1.096277783
 30
0.0
 10
-2.098361226
 20
-1.0645687858
 30
0.0
 10
-2.0997548402
 20
-1.0138344001
 30
0.0
 10
-2.1014968581
 20
-0.9504164147
 30
0.0
 10
-2.1035872795
 20
-0.8743148336
 30
0.0
 10
-2.1056777009
 20
-0.7982132522
 30
0.0
 10
-2.1077681223
 20
-0.7221116708
 30
0.0
 10
-2.1098585436
 20
-0.6460100894
 30
0.0
 10
-2.1126457722
 20
-0.5445413143
 30
0.0
 10
-2.1147361936
 20
-0.4684397329
 30
0.0
 10
-2.1161298078
 20
-0.4177053453
 30
0.0
 11
-1.9530342556
 21
-4.1466693791
 31
0.0
 11
-1.9652460992
 21
-3.9492721541
 31
0.0
 11
-1.9713520209
 21
-3.8505735415
 31
0.0
 11
-1.9774579427
 21
-3.751874929
 31
0.0
 11
-1.9835638645
 21
-3.6531763165
 31
0.0
 11
-1.9865201336
 21
-3.6037703764
 31
0.0
 11
-1.9892830192
 21
-3.5542511687
 31
0.0
 11
-1.9948087904
 21
-3.4552127532
 31
0.0
 11
-1.997571676
 21
-3.4056935455
 31
0.0
 11
-2.0003345616
 21
-3.3561743378
 31
0.0
 11
-2.0030974472
 21
-3.3066551301
 31
0.0
 11
-2.0058603328
 21
-3.2571359224
 31
0.0
 11
-2.0072417756
 21
-3.2323763185
 31
0.0
 11
-2.0086232184
 21
-3.2076167146
 31
0.0
 11
-2.0100046612
 21
-3.1828571108
 31
0.0
 11
-2.011386104
 21
-3.1580975069
 31
0.0
 11
-2.0127675468
 21
-3.1333379031
 31
0.0
 11
-2.0134582682
 21
-3.1209581011
 31
0.0
 11
-2.0138036289
 21
-3.1147682002
 31
0.0
 11
-2.0141489896
 21
-3.1085782992
 31
0.0
 11
-2.0144943503
 21
-3.1023883982
 31
0.0
 11
-2.0146670306
 21
-3.0992934477
 31
0.0
 11
-2.014839711
 21
-3.0961984973
 31
0.0
 11
-2.0149260511
 21
-3.094651022
 31
0.0
 11
-2.0150123913
 21
-3.0931035468
 31
0.0
 11
-2.0150555614
 21
-3.0923298092
 31
0.0
 11
-2.015107453
 21
-3.0912948956
 31
0.0
 11
-2.0152199575
 21
-3.0889638927
 31
0.0
 11
-2.0154449667
 21
-3.0843018867
 31
0.0
 11
-2.0156699759
 21
-3.0796398808
 31
0.0
 11
-2.0161199942
 21
-3.0703158689
 31
0.0
 11
-2.0165700125
 21
-3.060991857
 31
0.0
 11
-2.0174700491
 21
-3.0423438333
 31
0.0
 11
-2.0183700857
 21
-3.0236958095
 31
0.0
 11
-2.0192701224
 21
-3.0050477857
 31
0.0
 11
-2.0210701956
 21
-2.9677517382
 31
0.0
 11
-2.0228702689
 21
-2.9304556907
 31
0.0
 11
-2.0246703421
 21
-2.8931596431
 31
0.0
 11
-2.0282704887
 21
-2.8185675481
 31
0.0
 11
-2.0318706352
 21
-2.743975453
 31
0.0
 11
-2.0354707817
 21
-2.669383358
 31
0.0
 11
-2.0390709282
 21
-2.5947912629
 31
0.0
 11
-2.0426710747
 21
-2.5201991679
 31
0.0
 11
-2.044471148
 21
-2.4829031203
 31
0.0
 11
-2.0462712212
 21
-2.4456070728
 31
0.0
 11
-2.0480712945
 21
-2.4083110253
 31
0.0
 11
-2.0489713311
 21
-2.3896630015
 31
0.0
 11
-2.0498713677
 21
-2.3710149777
 31
0.0
 11
-2.0507714044
 21
-2.352366954
 31
0.0
 11
-2.051671441
 21
-2.3337189302
 31
0.0
 11
-2.0521214593
 21
-2.3243949183
 31
0.0
 11
-2.0525714776
 21
-2.3150709065
 31
0.0
 11
-2.0527964868
 21
-2.3104089005
 31
0.0
 11
-2.053021496
 21
-2.3057468946
 31
0.0
 11
-2.0532465051
 21
-2.3010848886
 31
0.0
 11
-2.0533590097
 21
-2.2987538857
 31
0.0
 11
-2.053415262
 21
-2.2975883842
 31
0.0
 11
-2.0534715143
 21
-2.2964228827
 31
0.0
 11
-2.0535033446
 21
-2.2956426736
 31
0.0
 11
-2.0535351749
 21
-2.2948624644
 31
0.0
 11
-2.0535988355
 21
-2.2933020462
 31
0.0
 11
-2.0537261567
 21
-2.2901812096
 31
0.0
 11
-2.0538534779
 21
-2.2870603731
 31
0.0
 11
-2.0539807991
 21
-2.2839395366
 31
0.0
 11
-2.0542354415
 21
-2.2776978635
 31
0.0
 11
-2.0544900838
 21
-2.2714561904
 31
0.0
 11
-2.0549993686
 21
-2.2589728443
 31
0.0
 11
-2.0555086534
 21
-2.2464894982
 31
0.0
 11
-2.0560179382
 21
-2.2340061521
 31
0.0
 11
-2.056527223
 21
-2.2215228059
 31
0.0
 11
-2.0575457926
 21
-2.1965561137
 31
0.0
 11
-2.0585643622
 21
-2.1715894214
 31
0.0
 11
-2.0595829318
 21
-2.1466227292
 31
0.0
 11
-2.0616200709
 21
-2.0966893447
 31
0.0
 11
-2.0636572101
 21
-2.0467559602
 31
0.0
 11
-2.0656943493
 21
-1.9968225757
 31
0.0
 11
-2.0677314884
 21
-1.9468891912
 31
0.0
 11
-2.0697686276
 21
-1.8969558067
 31
0.0
 11
-2.0738429059
 21
-1.7970890377
 31
0.0
 11
-2.0757832169
 21
-1.747101847
 31
0.0
 11
-2.0775298713
 21
-1.6970070437
 31
0.0
 11
-2.0810231803
 21
-1.5968174372
 31
0.0
 11
-2.0827698347
 21
-1.5467226339
 31
0.0
 11
-2.0845164892
 21
-1.4966278307
 31
0.0
 11
-2.0862631436
 21
-1.4465330274
 31
0.0
 11
-2.0880097981
 21
-1.3964382242
 31
0.0
 11
-2.0888831253
 21
-1.3713908225
 31
0.0
 11
-2.0897564526
 21
-1.3463434209
 31
0.0
 11
-2.0906297798
 21
-1.3212960193
 31
0.0
 11
-2.091503107
 21
-1.2962486176
 31
0.0
 11
-2.0919397706
 21
-1.2837249168
 31
0.0
 11
-2.0923764342
 21
-1.271201216
 31
0.0
 11
-2.0928130979
 21
-1.2586775152
 31
0.0
 11
-2.0930314297
 21
-1.2524156648
 31
0.0
 11
-2.0932497615
 21
-1.2461538144
 31
0.0
 11
-2.0934680933
 21
-1.239891964
 31
0.0
 11
-2.0935772592
 21
-1.2367610388
 31
0.0
 11
-2.0936864251
 21
-1.2336301136
 31
0.0
 11
-2.093741008
 21
-1.232064651
 31
0.0
 11
-2.093795591
 21
-1.2304991884
 31
0.0
 11
-2.0938228825
 21
-1.2297164571
 31
0.0
 11
-2.0938537549
 21
-1.2286628218
 31
0.0
 11
-2.0939190805
 21
-1.2262846474
 31
0.0
 11
-2.0940497319
 21
-1.2215282986
 31
0.0
 11
-2.0941803832
 21
-1.2167719497
 31
0.0
 11
-2.0944416859
 21
-1.2072592521
 31
0.0
 11
-2.0947029885
 21
-1.1977465544
 31
0.0
 11
-2.0952255939
 21
-1.1787211591
 31
0.0
 11
-2.0957481992
 21
-1.1596957637
 31
0.0
 11
-2.0962708046
 21
-1.1406703684
 31
0.0
 11
-2.0967934099
 21
-1.121644973
 31
0.0
 11
-2.0973160153
 21
-1.1026195777
 31
0.0
 11
-2.098361226
 21
-1.064568787
 31
0.0
 11
-2.0994064367
 21
-1.0265179963
 31
0.0
 11
-2.1014968581
 21
-0.9504164149
 31
0.0
 11
-2.1035872795
 21
-0.8743148336
 31
0.0
 11
-2.1056777009
 21
-0.7982132522
 31
0.0
 11
-2.1077681223
 21
-0.7221116708
 31
0.0
 11
-2.1098585436
 21
-0.6460100894
 31
0.0
 11
-2.111948965
 21
-0.5699085081
 31
0.0
 11
-2.1161298078
 21
-0.4177053453
 31
0.0
  0
SPLINE
  5
2D1
100
AcDbEntity
  8
CURVE
100
AcDbSpline
 62
253
  6
CONTINUOUS
 70
0
 71
3
 72
23
 73
19
 74
17
 42
0.0000001
 43
0.0000001
 44
0.0000000001
 12
0.0353884986
 22
-0.5451502103
 32
0.0
 13
-0.0352573875
 23
0.5431304796
 33
0.0
 40
0.0
 40
0.0
 40
0.0
 40
0.0
 40
0.0416666667
 40
0.0833333333
 40
0.125
 40
0.1666666667
 40
0.25
 40
0.3333333333
 40
0.4166666667
 40
0.5
 40
0.5833333333
 40
0.6666666667
 40
0.75
 40
0.8333333333
 40
0.875
 40
0.9166666667
 40
0.9583333333
 40
1.0
 40
1.0
 40
1.0
 40
1.0
 10
-1.6701915431
 20
-4.2880907354
 30
0.0
 10
-1.6697000362
 20
-4.2956622661
 30
0.0
 10
-1.6695895971
 20
-4.3099668806
 30
0.0
 10
-1.671842052
 20
-4.3297741144
 30
0.0
 10
-1.6765337164
 20
-4.3477278964
 30
0.0
 10
-1.6858807814
 20
-4.3685730388
 30
0.0
 10
-1.7030807725
 20
-4.3882711468
 30
0.0
 10
-1.7310439582
 20
-4.4001405162
 30
0.0
 10
-1.7643696527
 20
-4.3995927293
 30
0.0
 10
-1.8008290123
 20
-4.3867728395
 30
0.0
 10
-1.8381107513
 20
-4.36247094
 30
0.0
 10
-1.8735538264
 20
-4.3284037498
 30
0.0
 10
-1.9048402106
 20
-4.2868169335
 30
0.0
 10
-1.9256551813
 20
-4.2482459362
 30
0.0
 10
-1.9383379056
 20
-4.2165280567
 30
0.0
 10
-1.94570737
 20
-4.1926635442
 30
0.0
 10
-1.9507487366
 20
-4.1693055698
 30
0.0
 10
-1.9525445697
 20
-4.154212858
 30
0.0
 10
-1.9530342556
 20
-4.1466693791
 30
0.0
 11
-1.6701915431
 21
-4.2880907354
 31
0.0
 11
-1.669992616
 21
-4.3096919326
 31
0.0
 11
-1.6722485869
 21
-4.3294652057
 31
0.0
 11
-1.6769201555
 21
-4.3473412422
 31
0.0
 11
-1.6839117591
 21
-4.3629378652
 31
0.0
 11
-1.7043013052
 21
-4.3863097535
 31
0.0
 11
-1.7319377097
 21
-4.3980709902
 31
0.0
 11
-1.7648919302
 21
-4.3975473788
 31
0.0
 11
-1.8009660756
 21
-4.3848591712
 31
0.0
 11
-1.8378043073
 21
-4.3608433915
 31
0.0
 11
-1.8728610446
 21
-4.3271504788
 31
0.0
 11
-1.9037888074
 21
-4.2860338701
 31
0.0
 11
-1.9284950914
 21
-4.2402447095
 31
0.0
 11
-1.9379808092
 21
-4.2165153729
 31
0.0
 11
-1.9453193537
 21
-4.1927479672
 31
0.0
 11
-1.9503574671
 21
-4.1694253876
 31
0.0
 11
-1.9530342556
 21
-4.1466693791
 31
0.0
  0
SPLINE
  5
2D2
100
AcDbEntity
  8
CURVE
100
AcDbSpline
 62
253
  6
CONTINUOUS
 70
0
 71
3
 72
126
 73
122
 74
120
 42
0.0000001
 43
0.0000001
 44
0.0000000001
 12
0.0836451323
 22
-3.2214020198
 32
0.0
 13
0.2884436627
 23
-4.7832435576
 33
0.0
 40
0.0
 40
0.0
 40
0.0
 40
0.0
 40
0.0625
 40
0.09375
 40
0.125
 40
0.15625
 40
0.171875
 40
0.1875
 40
0.21875
 40
0.234375
 40
0.25
 40
0.265625
 40
0.28125
 40
0.2890625
 40
0.296875
 40
0.3046875
 40
0.3125
 40
0.3203125
 40
0.32421875
 40
0.326171875
 40
0.328125
 40
0.330078125
 40
0.3310546875
 40
0.33203125
 40
0.3325195312
 40
0.3330078125
 40
0.3332519531
 40
0.3334960938
 40
0.333984375
 40
0.3349609375
 40
0.3359375
 40
0.337890625
 40
0.33984375
 40
0.34375
 40
0.34765625
 40
0.3515625
 40
0.359375
 40
0.3671875
 40
0.375
 40
0.390625
 40
0.40625
 40
0.421875
 40
0.4375
 40
0.453125
 40
0.4609375
 40
0.46875
 40
0.4765625
 40
0.48046875
 40
0.484375
 40
0.48828125
 40
0.4921875
 40
0.494140625
 40
0.49609375
 40
0.4970703125
 40
0.498046875
 40
0.4990234375
 40
0.4995117188
 40
0.4997558594
 40
0.5
 40
0.5002441406
 40
0.5004882812
 40
0.5009765625
 40
0.501953125
 40
0.5029296875
 40
0.50390625
 40
0.505859375
 40
0.5078125
 40
0.51171875
 40
0.515625
 40
0.51953125
 40
0.5234375
 40
0.53125
 40
0.5390625
 40
0.546875
 40
0.5625
 40
0.578125
 40
0.59375
 40
0.609375
 40
0.625
 40
0.640625
 40
0.65625
 40
0.671875
 40
0.6875
 40
0.71875
 40
0.734375
 40
0.75
 40
0.765625
 40
0.78125
 40
0.7890625
 40
0.796875
 40
0.8046875
 40
0.8125
 40
0.8203125
 40
0.82421875
 40
0.826171875
 40
0.828125
 40
0.830078125
 40
0.8310546875
 40
0.83203125
 40
0.8325195312
 40
0.8330078125
 40
0.8332519531
 40
0.8334960938
 40
0.833984375
 40
0.8349609375
 40
0.8359375
 40
0.837890625
 40
0.83984375
 40
0.84375
 40
0.84765625
 40
0.8515625
 40
0.859375
 40
0.8671875
 40
0.875
 40
0.890625
 40
0.90625
 40
0.921875
 40
0.9375
 40
0.953125
 40
0.96875
 40
1.0
 40
1.0
 40
1.0
 40
1.0
 10
-1.8332870946
 20
-0.5591267344
 30
0.0
 10
-1.8315444877
 20
-0.6262392765
 30
0.0
 10
-1.8289290816
 20
-0.7269072779
 30
0.0
 10
-1.8254478562
 20
-0.8611345267
 30
0.0
 10
-1.8228219805
 20
-0.9617968459
 30
0.0
 10
-1.8206811134
 20
-1.045707817
 30
0.0
 10
-1.8188622277
 20
-1.1127789603
 30
0.0
 10
-1.8166552653
 20
-1.1796394833
 30
0.0
 10
-1.8145580911
 20
-1.2465595914
 30
0.0
 10
-1.8124226098
 20
-1.3134589093
 30
0.0
 10
-1.8108261317
 20
-1.3636361834
 30
0.0
 10
-1.809228276
 20
-1.4138127099
 30
0.0
 10
-1.807897044
 20
-1.4556266524
 30
0.0
 10
-1.8068319925
 20
-1.4890777713
 30
0.0
 10
-1.8060332129
 20
-1.5141661134
 30
0.0
 10
-1.8052344305
 20
-1.5392544615
 30
0.0
 10
-1.8044356502
 20
-1.5643427827
 30
0.0
 10
-1.8037699952
 20
-1.5852498014
 30
0.0
 10
-1.8033040457
 20
-1.5998845492
 30
0.0
 10
-1.8030377748
 20
-1.6082475204
 30
0.0
 10
-1.8028381111
 20
-1.6145190213
 30
0.0
 10
-1.8026715991
 20
-1.6197475893
 30
0.0
 10
-1.8025386712
 20
-1.6239252462
 30
0.0
 10
-1.8024549498
 20
-1.6265481169
 30
0.0
 10
-1.8023894418
 20
-1.6286193085
 30
0.0
 10
-1.8023451472
 20
-1.6299756482
 30
0.0
 10
-1.8023173892
 20
-1.6309190682
 30
0.0
 10
-1.8022616021
 20
-1.6323796193
 30
0.0
 10
-1.8021509541
 20
-1.635175813
 30
0.0
 10
-1.801999679
 20
-1.6390450359
 30
0.0
 10
-1.8017538423
 20
-1.6453058381
 30
0.0
 10
-1.8014478464
 20
-1.6531078572
 30
0.0
 10
-1.8009575264
 20
-1.6656044922
 30
0.0
 10
-1.8003448756
 20
-1.6812206869
 30
0.0
 10
-1.799609588
 20
-1.6999620892
 30
0.0
 10
-1.7986292418
 20
-1.7249499378
 30
0.0
 10
-1.7974037962
 20
-1.7561849846
 30
0.0
 10
-1.7959332671
 20
-1.7936669398
 30
0.0
 10
-1.7939725596
 20
-1.8436429152
 30
0.0
 10
-1.7915216759
 20
-1.9061128724
 30
0.0
 10
-1.7885806152
 20
-1.9810768263
 30
0.0
 10
-1.7856395545
 20
-2.0560407787
 30
0.0
 10
-1.7826984938
 20
-2.1310047316
 30
0.0
 10
-1.78024761
 20
-2.1934746921
 30
0.0
 10
-1.7782869028
 20
-2.2434506609
 30
0.0
 10
-1.7768163725
 20
-2.2809326365
 30
0.0
 10
-1.7755909305
 20
-2.3121676191
 30
0.0
 10
-1.7746105771
 20
-2.3371555988
 30
0.0
 10
-1.7738753116
 20
-2.3558966007
 30
0.0
 10
-1.7731400477
 20
-2.3746375376
 30
0.0
 10
-1.7725273228
 20
-2.3902551874
 30
0.0
 10
-1.772037154
 20
-2.4027488539
 30
0.0
 10
-1.7717307732
 20
-2.4105584276
 30
0.0
 10
-1.7714857265
 20
-2.4168037229
 30
0.0
 10
-1.7713017829
 20
-2.421494166
 30
0.0
 10
-1.771149001
 20
-2.4253822812
 30
0.0
 10
-1.7710410636
 20
-2.428144364
 30
0.0
 10
-1.7709809311
 20
-2.4296596125
 30
0.0
 10
-1.7709314768
 20
-2.430973759
 30
0.0
 10
-1.770898669
 20
-2.4316086071
 30
0.0
 10
-1.7708491188
 20
-2.432692018
 30
0.0
 10
-1.7707651114
 20
-2.4344775892
 30
0.0
 10
-1.7706436863
 20
-2.4370861225
 30
0.0
 10
-1.7704985817
 20
-2.4401916577
 30
0.0
 10
-1.7703048974
 20
-2.4443410001
 30
0.0
 10
-1.7700628644
 20
-2.4495247236
 30
0.0
 10
-1.7696755711
 20
-2.4578203324
 30
0.0
 10
-1.7691914684
 20
-2.4681892769
 30
0.0
 10
-1.7686105393
 20
-2.4806322531
 30
0.0
 10
-1.7680296117
 20
-2.4930751644
 30
0.0
 10
-1.767255041
 20
-2.5096657354
 30
0.0
 10
-1.7662868279
 20
-2.5304039414
 30
0.0
 10
-1.7651249722
 20
-2.555289792
 30
0.0
 10
-1.7635758304
 20
-2.5884709245
 30
0.0
 10
-1.7616394096
 20
-2.6299473442
 30
0.0
 10
-1.7593156746
 20
-2.6797190304
 30
0.0
 10
-1.7569920497
 20
-2.7294907798
 30
0.0
 10
-1.7546680147
 20
-2.7792622943
 30
0.0
 10
-1.7523455096
 20
-2.8290346849
 30
0.0
 10
-1.7500172952
 20
-2.8788038057
 30
0.0
 10
-1.7477103881
 20
-2.9285851298
 30
0.0
 10
-1.7453239609
 20
-2.9783209108
 30
0.0
 10
-1.7417636931
 20
-3.0444185872
 30
0.0
 10
-1.7383104659
 20
-3.1105775683
 30
0.0
 10
-1.7348198904
 20
-3.1767151591
 30
0.0
 10
-1.7322069631
 20
-3.2263212183
 30
0.0
 10
-1.7295926927
 20
-3.2759265084
 30
0.0
 10
-1.7274144407
 20
-3.3172644254
 30
0.0
 10
-1.7256717748
 20
-3.350334723
 30
0.0
 10
-1.7243647841
 20
-3.3751374491
 30
0.0
 10
-1.7230577906
 20
-3.3999401813
 30
0.0
 10
-1.7217507997
 20
-3.4247428863
 30
0.0
 10
-1.7206616341
 20
-3.4454118927
 30
0.0
 10
-1.7198992309
 20
-3.4598800295
 30
0.0
 10
-1.7194635521
 20
-3.468147798
 30
0.0
 10
-1.7191368486
 20
-3.4743478869
 30
0.0
 10
-1.7188644187
 20
-3.4795169771
 30
0.0
 10
-1.7186468718
 20
-3.4836469793
 30
0.0
 10
-1.7185100011
 20
-3.4862402307
 30
0.0
 10
-1.7184025745
 20
-3.4882873491
 30
0.0
 10
-1.7183307099
 20
-3.4896295051
 30
0.0
 10
-1.7182840358
 20
-3.4905596039
 30
0.0
 10
-1.7181978697
 20
-3.4920140409
 30
0.0
 10
-1.7180287331
 20
-3.4948028833
 30
0.0
 10
-1.7177966814
 20
-3.4986598573
 30
0.0
 10
-1.7174200493
 20
-3.5049020376
 30
0.0
 10
-1.7169510909
 20
-3.512680445
 30
0.0
 10
-1.7161997337
 20
-3.5251394881
 30
0.0
 10
-1.7152608884
 20
-3.5407086289
 30
0.0
 10
-1.7141341237
 20
-3.5593935939
 30
0.0
 10
-1.7126318233
 20
-3.5843061833
 30
0.0
 10
-1.7107539298
 20
-3.6154471593
 30
0.0
 10
-1.7085004653
 20
-3.652816228
 30
0.0
 10
-1.7054958433
 20
-3.7026416888
 30
0.0
 10
-1.7017400667
 20
-3.7649235025
 30
0.0
 10
-1.6972331344
 20
-3.8396616842
 30
0.0
 10
-1.6927262022
 20
-3.9143998645
 30
0.0
 10
-1.68821927
 20
-3.9891380451
 30
0.0
 10
-1.6837123377
 20
-4.0638762257
 30
0.0
 10
-1.6777030948
 20
-4.1635271332
 30
0.0
 10
-1.6731961625
 20
-4.2382653138
 30
0.0
 10
-1.670191541
 20
-4.2880907675
 30
0.0
 11
-1.8332870946
 21
-0.5591267344
 31
0.0
 11
-1.8280592738
 21
-0.7604643607
 31
0.0
 11
-1.8254453634
 21
-0.8611331738
 31
0.0
 11
-1.8228314531
 21
-0.9618019869
 31
0.0
 11
-1.8202175427
 21
-1.0624708
 31
0.0
 11
-1.8188137181
 21
-1.1127526328
 31
0.0
 11
-1.8172161549
 21
-1.162929318
 31
0.0
 11
-1.8140210285
 21
-1.2632826884
 31
0.0
 11
-1.8124234653
 21
-1.3134593736
 31
0.0
 11
-1.8108259021
 21
-1.3636360588
 31
0.0
 11
-1.8092283389
 21
-1.413812744
 31
0.0
 11
-1.8076307756
 21
-1.4639894292
 31
0.0
 11
-1.806831994
 21
-1.4890777718
 31
0.0
 11
-1.8060332124
 21
-1.5141661144
 31
0.0
 11
-1.8052344308
 21
-1.539254457
 31
0.0
 11
-1.8044356492
 21
-1.5643427996
 31
0.0
 11
-1.8036368676
 21
-1.5894311422
 31
0.0
 11
-1.8032374768
 21
-1.6019753135
 31
0.0
 11
-1.8030377814
 21
-1.6082473991
 31
0.0
 11
-1.802838086
 21
-1.6145194848
 31
0.0
 11
-1.8026383906
 21
-1.6207915704
 31
0.0
 11
-1.8025385429
 21
-1.6239276133
 31
0.0
 11
-1.8024386952
 21
-1.6270636561
 31
0.0
 11
-1.8023887713
 21
-1.6286316775
 31
0.0
 11
-1.8023388475
 21
-1.6301996989
 31
0.0
 11
-1.8023138856
 21
-1.6309837096
 31
0.0
 11
-1.8022749289
 21
-1.632025921
 31
0.0
 11
-1.8021830207
 21
-1.6343685445
 31
0.0
 11
-1.8019992044
 21
-1.6390537916
 31
0.0
 11
-1.8018153882
 21
-1.6437390386
 31
0.0
 11
-1.8014477556
 21
-1.6531095327
 31
0.0
 11
-1.801080123
 21
-1.6624800268
 31
0.0
 11
-1.8003448578
 21
-1.681221015
 31
0.0
 11
-1.7996095927
 21
-1.6999620032
 31
0.0
 11
-1.7988743275
 21
-1.7187029914
 31
0.0
 11
-1.7974037972
 21
-1.7561849678
 31
0.0
 11
-1.7959332668
 21
-1.7936669442
 31
0.0
 11
-1.7944627365
 21
-1.8311489205
 31
0.0
 11
-1.7915216758
 21
-1.9061128733
 31
0.0
 11
-1.7885806152
 21
-1.9810768261
 31
0.0
 11
-1.7856395545
 21
-2.0560407788
 31
0.0
 11
-1.7826984938
 21
-2.1310047316
 31
0.0
 11
-1.7797574332
 21
-2.2059686843
 31
0.0
 11
-1.7782869028
 21
-2.2434506607
 31
0.0
 11
-1.7768163725
 21
-2.2809326371
 31
0.0
 11
-1.7753458422
 21
-2.3184146135
 31
0.0
 11
-1.774610577
 21
-2.3371556017
 31
0.0
 11
-1.7738753118
 21
-2.3558965899
 31
0.0
 11
-1.7731400467
 21
-2.374637578
 31
0.0
 11
-1.7724047815
 21
-2.3933785662
 31
0.0
 11
-1.7720371489
 21
-2.4027490603
 31
0.0
 11
-1.7716695164
 21
-2.4121195544
 31
0.0
 11
-1.7714857001
 21
-2.4168048015
 31
0.0
 11
-1.7713018838
 21
-2.4214900485
 31
0.0
 11
-1.7711180675
 21
-2.4261752956
 31
0.0
 11
-1.7710261593
 21
-2.4285179191
 31
0.0
 11
-1.7709802053
 21
-2.4296892309
 31
0.0
 11
-1.7709342512
 21
-2.4308605426
 31
0.0
 11
-1.7708979432
 21
-2.4316382254
 31
0.0
 11
-1.7708616352
 21
-2.4324159082
 31
0.0
 11
-1.7707890192
 21
-2.4339712738
 31
0.0
 11
-1.7706437872
 21
-2.4370820051
 31
0.0
 11
-1.7704985553
 21
-2.4401927363
 31
0.0
 11
-1.7703533233
 21
-2.4433034675
 31
0.0
 11
-1.7700628593
 21
-2.44952493
 31
0.0
 11
-1.7697723954
 21
-2.4557463925
 31
0.0
 11
-1.7691914675
 21
-2.4681893174
 31
0.0
 11
-1.7686105395
 21
-2.4806322423
 31
0.0
 11
-1.7680296116
 21
-2.4930751672
 31
0.0
 11
-1.7674486837
 21
-2.5055180921
 31
0.0
 11
-1.7662868279
 21
-2.530403942
 31
0.0
 11
-1.7651249721
 21
-2.5552897918
 31
0.0
 11
-1.7639631163
 21
-2.5801756416
 31
0.0
 11
-1.7616394046
 21
-2.6299473413
 31
0.0
 11
-1.759315693
 21
-2.679719041
 31
0.0
 11
-1.7569919813
 21
-2.7294907406
 31
0.0
 11
-1.7546682697
 21
-2.7792624403
 31
0.0
 11
-1.752344558
 21
-2.82903414
 31
0.0
 11
-1.7500208464
 21
-2.8788058396
 31
0.0
 11
-1.7476971348
 21
-2.9285775393
 31
0.0
 11
-1.7452766653
 21
-2.9782938235
 31
0.0
 11
-1.7426626801
 21
-3.0278992768
 31
0.0
 11
-1.7374347097
 21
-3.1271101835
 31
0.0
 11
-1.7348207244
 21
-3.1767156368
 31
0.0
 11
-1.7322067392
 21
-3.2263210901
 31
0.0
 11
-1.729592754
 21
-3.2759265435
 31
0.0
 11
-1.7269787688
 21
-3.3255319968
 31
0.0
 11
-1.7256717762
 21
-3.3503347235
 31
0.0
 11
-1.7243647836
 21
-3.3751374501
 31
0.0
 11
-1.723057791
 21
-3.3999401768
 31
0.0
 11
-1.7217507984
 21
-3.4247429034
 31
0.0
 11
-1.7204438058
 21
-3.4495456301
 31
0.0
 11
-1.7197903095
 21
-3.4619469934
 31
0.0
 11
-1.7194635614
 21
-3.4681476751
 31
0.0
 11
-1.7191368132
 21
-3.4743483568
 31
0.0
 11
-1.7188100651
 21
-3.4805490384
 31
0.0
 11
-1.718646691
 21
-3.4836493793
 31
0.0
 11
-1.7184833169
 21
-3.4867497201
 31
0.0
 11
-1.7184016299
 21
-3.4882998905
 31
0.0
 11
-1.7183199429
 21
-3.4898500609
 31
0.0
 11
-1.7182790993
 21
-3.4906251461
 31
0.0
 11
-1.7182185376
 21
-3.4916620306
 31
0.0
 11
-1.718077696
 21
-3.4939975987
 31
0.0
 11
-1.7177960127
 21
-3.498668735
 31
0.0
 11
-1.7175143295
 21
-3.5033398713
 31
0.0
 11
-1.7169509629
 21
-3.5126821439
 31
0.0
 11
-1.7163875964
 21
-3.5220244165
 31
0.0
 11
-1.7152608633
 21
-3.5407089616
 31
0.0
 11
-1.7141341303
 21
-3.5593935068
 31
0.0
 11
-1.7130073972
 21
-3.5780780519
 31
0.0
 11
-1.7107539311
 21
-3.6154471422
 31
0.0
 11
-1.708500465
 21
-3.6528162325
 31
0.0
 11
-1.7062469989
 21
-3.6901853228
 31
0.0
 11
-1.7017400667
 21
-3.7649235034
 31
0.0
 11
-1.6972331344
 21
-3.839661684
 31
0.0
 11
-1.6927262022
 21
-3.9143998645
 31
0.0
 11
-1.68821927
 21
-3.9891380451
 31
0.0
 11
-1.6837123377
 21
-4.0638762257
 31
0.0
 11
-1.6792054055
 21
-4.1386144063
 31
0.0
 11
-1.670191541
 21
-4.2880907675
 31
0.0
  0
SPLINE
  5
2D3
100
AcDbEntity
  8
CURVE
100
AcDbSpline
 62
253
  6
CONTINUOUS
 70
0
 71
3
 72
23
 73
19
 74
17
 42
0.0000001
 43
0.0000001
 44
0.0000000001
 12
-0.0127970234
 22
0.5553661567
 32
0.0
 13
0.0127617945
 23
-0.5538372915
 33
0.0
 40
0.0
 40
0.0
 40
0.0
 40
0.0
 40
0.0416666667
 40
0.0833333333
 40
0.125
 40
0.1666666667
 40
0.25
 40
0.3333333333
 40
0.4166666667
 40
0.5
 40
0.5833333333
 40
0.6666666667
 40
0.75
 40
0.8333333333
 40
0.875
 40
0.9166666667
 40
0.9583333333
 40
1.0
 40
1.0
 40
1.0
 40
1.0
 10
-2.1161298071
 20
-0.4177053782
 30
0.0
 10
-2.1163075435
 20
-0.4099919594
 30
0.0
 10
-2.1158071482
 20
-0.3954055243
 30
0.0
 10
-2.1126531186
 20
-0.3751641012
 30
0.0
 10
-2.1070801159
 20
-0.3567708105
 30
0.0
 10
-2.0966148605
 20
-0.3353561362
 30
0.0
 10
-2.0781621838
 20
-0.3150038292
 30
0.0
 10
-2.049029213
 20
-0.3025024716
 30
0.0
 10
-2.0149626072
 20
-0.3026367608
 30
0.0
 10
-1.9782448749
 20
-0.3153002616
 30
0.0
 10
-1.9412373929
 20
-0.3396958032
 30
0.0
 10
-1.9065328932
 20
-0.3741274422
 30
0.0
 10
-1.8763996668
 20
-0.4163342291
 30
0.0
 10
-1.8568255878
 20
-0.4555941424
 30
0.0
 10
-1.8452604105
 20
-0.4879125954
 30
0.0
 10
-1.8387772478
 20
-0.5122402156
 30
0.0
 10
-1.8346470377
 20
-0.5360488665
 30
0.0
 10
-1.8334643417
 20
-0.5514345498
 30
0.0
 10
-1.8332870946
 20
-0.5591267344
 30
0.0
 11
-2.1161298071
 21
-0.4177053782
 31
0.0
 11
-2.1154065754
 21
-0.3956785626
 31
0.0
 11
-2.1122499564
 21
-0.3754721232
 31
0.0
 11
-2.1067007928
 21
-0.3571595246
 31
0.0
 11
-2.0988731005
 21
-0.3411375405
 31
0.0
 11
-2.076997224
 21
-0.316990731
 31
0.0
 11
-2.0482069405
 21
-0.3046084127
 31
0.0
 11
-2.0145207528
 21
-0.3047249627
 31
0.0
 11
-1.9781965833
 21
-0.3172556017
 31
0.0
 11
-1.9416212233
 21
-0.3413684861
 31
0.0
 11
-1.9072947721
 21
-0.3754233002
 31
0.0
 11
-1.8775070554
 21
-0.4171517473
 31
0.0
 11
-1.8542754673
 21
-0.4637496325
 31
0.0
 11
-1.8456255306
 21
-0.4879273921
 31
0.0
 11
-1.8391694066
 21
-0.5121537207
 31
0.0
 11
-1.8350397321
 21
-0.5359271789
 31
0.0
 11
-1.8332870946
 21
-0.5591267344
 31
0.0
  0
ELLIPSE
  5
2D4
100
AcDbEntity
  8
RACCORDO
100
AcDbEllipse
 62
7
  6
CONTINUOUS
 10
-13.6482400144
 20
17.9187147963
 30
0.0
 11
-0.1119858744
 21
0.2236318019
 31
0.0
 40
0.6122594231
 41
-0.6852493493
 42
0.0223236952
  0
ELLIPSE
  5
2D5
100
AcDbEntity
  8
RACCORDO
100
AcDbEllipse
 62
7
  6
CONTINUOUS
 10
17.6056642075
 20
2.2917626853
 30
0.0
 11
-0.1119259236
 21
0.2235783474
 31
0.0
 40
0.6126250184
 41
-2.2559124555
 42
-0.6854206804
  0
ELLIPSE
  5
2D6
100
AcDbEntity
  8
0
100
AcDbEllipse
 62
7
  6
CONTINUOUS
 10
16.8775421812
 20
-16.3749669695
 30
0.0
 11
-0.1826272431
 21
0.4654700168
 31
0.0
 40
0.6543766329
 41
-3.1348732976
 42
-2.2008763123
  0
ELLIPSE
  5
2D7
100
AcDbEntity
  8
ASSI
100
AcDbEllipse
 62
7
  6
CONTINUOUS
 10
-13.6482400144
 20
17.9187147963
 30
0.0
 11
-0.1119858744
 21
0.2236318019
 31
0.0
 40
0.6122594231
 41
-0.6852493493
 42
0.0223236952
  0
ELLIPSE
  5
2D8
100
AcDbEntity
  8
ASSI
100
AcDbEllipse
 62
7
  6
CONTINUOUS
 10
17.6056642075
 20
2.2917626853
 30
0.0
 11
-0.1119259236
 21
0.2235783474
 31
0.0
 40
0.6126250184
 41
-2.2559124555
 42
-0.6854206804
  0
ELLIPSE
  5
2D9
100
AcDbEntity
  8
ASSI
100
AcDbEllipse
 62
7
  6
CONTINUOUS
 10
16.8775421812
 20
-16.3749669695
 30
0.0
 11
-0.1826272431
 21
0.4654700168
 31
0.0
 40
0.6543766329
 41
-3.1348732976
 42
-2.2008763123
  0
ENDSEC
  0
SECTION
  2
OBJECTS
  0
DICTIONARY
  5
C
100
AcDbDictionary
280
0
281
1
  3
ACAD_GROUP
350
D
  3
ACAD_MLINESTYLE
350
17
  3
ACAD_LAYOUT
350
1A
  3
ACAD_PLOTSETTINGS
350
19
  3
ACAD_PLOTSTYLENAME
350
E
  0
DICTIONARY
  5
D
102
{ACAD_REACTORS
330
C
102
}
100
AcDbDictionary
280
0
281
1
  0
ACDBDICTIONARYWDFLT
  5
E
102
{ACAD_REACTORS
330
C
102
}
100
AcDbDictionary
281
1
  3
Normal
350
F
100
AcDbDictionaryWithDefault
340
F
  0
DICTIONARY
  5
17
102
{ACAD_REACTORS
330
C
102
}
100
AcDbDictionary
280
0
281
1
  3
Standard
350
18
  0
DICTIONARY
  5
19
102
{ACAD_REACTORS
330
C
102
}
100
AcDbDictionary
281
1
  0
DICTIONARY
  5
1A
102
{ACAD_REACTORS
330
C
102
}
100
AcDbDictionary
281
1
  3
Model
350
2DA
  3
Layout1
350
2DB
  0
ACDBPLACEHOLDER
  5
F
102
{ACAD_REACTORS
330
E
102
}
  0
MLINESTYLE
  5
18
102
{ACAD_REACTORS
330
17
102
}
100
AcDbMlineStyle
  2
STANDARD
 70
0
  3

 62
256
 51
90.0
 52
90.0
 71
2
 49
0.5
 62
256
  6
BYLAYER
 49
-0.5
 62
256
  6
BYLAYER
  0
LAYOUT
  5
2DA
102
{ACAD_REACTORS
330
1A
102
}
100
AcDbPlotSettings
  1

  2
none_device
  4
ISO_A4_(297.00_x_210.00_MM)
  6

 40
0.0
 41
0.0
 42
0.0
 43
0.0
 44
297.0
 45
210.0
 46
0.0
 47
0.0
 48
0.0
 49
0.0
140
0.0
141
0.0
142
1.0
143
1.0
 70
1024
 72
1
 73
0
 74
0
  7

 75
0
147
1.0
148
0.0
149
0.0
100
AcDbLayout
  1
Model
 70
0
 71
0
 10
0.0
 20
0.0
 11
297.0
 21
210.0
 12
0.0
 22
0.0
 32
0.0
 14
0.0
 24
0.0
 34
0.0
 15
0.0
 25
0.0
 35
0.0
146
0.0
 13
0.0
 23
0.0
 33
0.0
 16
1.0
 26
0.0
 36
0.0
 17
0.0
 27
1.0
 37
0.0
 76
0
330
217
345
0
346
0
  0
LAYOUT
  5
2DB
102
{ACAD_REACTORS
330
1A
102
}
100
AcDbPlotSettings
  1

  2
none_device
  4
ISO_A4_(297.00_x_210.00_MM)
  6

 40
0.0
 41
0.0
 42
0.0
 43
0.0
 44
297.0
 45
210.0
 46
0.0
 47
0.0
 48
0.0
 49
0.0
140
0.0
141
0.0
142
1.0
143
1.0
 70
0
 72
1
 73
0
 74
0
  7

 75
0
147
1.0
148
0.0
149
0.0
100
AcDbLayout
  1
Layout1
 70
0
 71
1
 10
0.0
 20
0.0
 11
297.0
 21
210.0
 12
0.0
 22
0.0
 32
0.0
 14
0.0
 24
0.0
 34
0.0
 15
0.0
 25
0.0
 35
0.0
146
0.0
 13
0.0
 23
0.0
 33
0.0
 16
1.0
 26
0.0
 36
0.0
 17
0.0
 27
1.0
 37
0.0
 76
0
330
218
345
0
346
0
  0
ENDSEC
  0
EOF
