  0
SECTION
  2
HEADER
  9
$ACADVER
  1
AC1015
  9
$DWGCODEPAGE
  3
ANSI_1252
  9
$EXTMAX
 10
297.0
 20
210.0
 30
0.0
  9
$EXTMIN
 10
0.0
 20
0.0
 30
0.0
  9
$LIMMIN
 10
0.0
 20
0.0
  9
$LIMMAX
 10
297.0
 20
210.0
  9
$VIEWCTR
 10
148.5
 20
105.0
  9
$VIEWSIZE
 40
210.0
  9
$CLAYER
  8
0
  9
$LTSCALE
 40
16.335
  9
$CELTYPE
  6
BYLAYER
  9
$DIMSCALE
 40
1.0
  9
$DIMASZ
 40
3.0
  9
$DIMEXO
 40
1.85625
  9
$DIMDLI
 40
11.286
  9
$DIMEXE
 40
5.346
  9
$DIMCEN
 40
2.673
  9
$DIMLFAC
 40
1.0
  9
$DIMBLK
  1
_FILLED
  9
$DIMTXT
 40
3.0
  9
$DIMTOL
 70
1
  9
$DIMLIM
 70
0
  9
$DIMTFAC
 40
1.0
  9
$DIMTP
 40
0.01
  9
$DIMTM
 40
0.01
  9
$PDMODE
 70
3
  9
$PDSIZE
 40
3.0
  9
$HANDSEED
  5
2E0
  9
$TILEMODE
 70
1
  9
$MEASUREMENT
 70
1
  9
$INSUNITS
 70
4
  0
ENDSEC
  0
SECTION
  2
CLASSES
  0
CLASS
  1
ACDBDICTIONARYWDFLT
  2
AcDbDictionaryWithDefault
  3
AutoCAD 2000
 90
0
280
0
281
0
  0
CLASS
  1
ACDBPLACEHOLDER
  2
AcDbPlaceHolder
  3
AutoCAD 2000
 90
0
280
0
281
0
  0
CLASS
  1
LAYOUT
  2
AcDbLayout
  3
AutoCAD 2000
 90
0
280
0
281
0
  0
ENDSEC
  0
SECTION
  2
TABLES
  0
TABLE
  2
VPORT
  5
8
100
AcDbSymbolTable
 70
2
  0
VPORT
  5
1F4
100
AcDbSymbolTableRecord
100
AcDbViewportTableRecord
  2
*ACTIVE
 70
0
 10
0.0
 20
0.0
 11
1.0
 21
1.0
 12
148.5
 22
105.0
 13
0.0
 23
0.0
 14
1.0
 24
1.0
 15
0.0
 25
0.0
 16
0.0
 26
0.0
 36
1.0
 17
0.0
 27
0.0
 37
0.0
 40
210.0
 41
1.4142857143
 42
50.0
 43
0.0
 44
0.0
 50
0.0
 51
0.0
 71
0
 72
100
 73
1
 74
1
 75
0
 76
0
 77
0
 78
0
  0
ENDTAB
  0
TABLE
  2
LTYPE
  5
5
100
AcDbSymbolTable
 70
6
  0
LTYPE
  5
14
100
AcDbSymbolTableRecord
100
AcDbLinetypeTableRecord
  2
BYBLOCK
 70
0
  3

 72
65
 73
0
 40
0.0
  0
LTYPE
  5
15
100
AcDbSymbolTableRecord
100
AcDbLinetypeTableRecord
  2
BYLAYER
 70
0
  3

 72
65
 73
0
 40
0.0
  0
LTYPE
  5
16
100
AcDbSymbolTableRecord
100
AcDbLinetypeTableRecord
  2
CONTINUOUS
 70
64
  3
Solid line
 72
65
 73
0
 40
0.0
  0
LTYPE
  5
1F5
100
AcDbSymbolTableRecord
100
AcDbLinetypeTableRecord
  2
CENTER
 70
64
  3
____ _ ____ _ ____ _ ____ _ ____ _ ____ _ ____
 72
65
 73
4
 40
0.6
 49
0.375
 74
0
 49
-0.075
 74
0
 49
0.075
 74
0
 49
-0.075
 74
0
  0
LTYPE
  5
1F6
100
AcDbSymbolTableRecord
100
AcDbLinetypeTableRecord
  2
HIDDEN
 70
64
  3
- - - - - - - - - - - - - - - - - - - -
 72
65
 73
2
 40
0.2
 49
0.1
 74
0
 49
-0.1
 74
0
  0
LTYPE
  5
1F7
100
AcDbSymbolTableRecord
100
AcDbLinetypeTableRecord
  2
PHANTOM
 70
64
  3
_____ _ _ _____ _ _ _____ _ _ _____
 72
65
 73
6
 40
0.8
 49
0.45
 74
0
 49
-0.05
 74
0
 49
0.1
 74
0
 49
-0.05
 74
0
 49
0.1
 74
0
 49
-0.05
 74
0
  0
LTYPE
  5
1F8
100
AcDbSymbolTableRecord
100
AcDbLinetypeTableRecord
  2
DOT
 70
64
  3
. . . . . . . . . . . . . . . . . . . .
 72
65
 73
2
 40
0.2
 49
0.1
 74
0
 49
-0.1
 74
0
  0
LTYPE
  5
1F9
100
AcDbSymbolTableRecord
100
AcDbLinetypeTableRecord
  2
DASHED
 70
64
  3
- - - - - - - - - - - - - - - - - - - -
 72
65
 73
2
 40
0.2
 49
0.1
 74
0
 49
-0.1
 74
0
  0
ENDTAB
  0
TABLE
  2
LAYER
  5
2
100
AcDbSymbolTable
 70
36
  0
LAYER
  5
10
100
AcDbSymbolTableRecord
100
AcDbLayerTableRecord
  2
0
 70
0
 62
7
  6
CONTINUOUS
370
-3
390
F
  0
LAYER
  5
1FA
100
AcDbSymbolTableRecord
100
AcDbLayerTableRecord
  2
DEFAULT_1
 70
0
 62
7
  6
CENTER
370
-3
390
F
  0
LAYER
  5
1FB
100
AcDbSymbolTableRecord
100
AcDbLayerTableRecord
  2
DEFAULT_2
 70
0
 62
7
  6
HIDDEN
370
-3
390
F
  0
LAYER
  5
1FC
100
AcDbSymbolTableRecord
100
AcDbLayerTableRecord
  2
DEFAULT_3
 70
0
 62
7
  6
PHANTOM
370
-3
390
F
  0
LAYER
  5
1FD
100
AcDbSymbolTableRecord
100
AcDbLayerTableRecord
  2
ASSI
 70
0
 62
7
  6
CONTINUOUS
370
-3
390
F
  0
LAYER
  5
1FE
100
AcDbSymbolTableRecord
100
AcDbLayerTableRecord
  2
COLOR9
 70
0
 62
7
  6
CONTINUOUS
370
-3
390
F
  0
LAYER
  5
1FF
100
AcDbSymbolTableRecord
100
AcDbLayerTableRecord
  2
COORDINATE
 70
0
 62
7
  6
CONTINUOUS
370
-3
390
F
  0
LAYER
  5
200
100
AcDbSymbolTableRecord
100
AcDbLayerTableRecord
  2
COORD_ORIGINE
 70
0
 62
7
  6
CONTINUOUS
370
-3
390
F
  0
LAYER
  5
201
100
AcDbSymbolTableRecord
100
AcDbLayerTableRecord
  2
COPY_PUBLISH
 70
0
 62
7
  6
CONTINUOUS
370
-3
390
F
  0
LAYER
  5
202
100
AcDbSymbolTableRecord
100
AcDbLayerTableRecord
  2
COSMETIC
 70
0
 62
7
  6
CONTINUOUS
370
-3
390
F
  0
LAYER
  5
203
100
AcDbSymbolTableRecord
100
AcDbLayerTableRecord
  2
CURVE
 70
0
 62
7
  6
CONTINUOUS
370
-3
390
F
  0
LAYER
  5
204
100
AcDbSymbolTableRecord
100
AcDbLayerTableRecord
  2
DRAFT
 70
0
 62
7
  6
CONTINUOUS
370
-3
390
F
  0
LAYER
  5
205
100
AcDbSymbolTableRecord
100
AcDbLayerTableRecord
  2
IGS_SCRITTE
 70
0
 62
7
  6
CONTINUOUS
370
-3
390
F
  0
LAYER
  5
206
100
AcDbSymbolTableRecord
100
AcDbLayerTableRecord
  2
IMPORT_IGES
 70
0
 62
7
  6
CONTINUOUS
370
-3
390
F
  0
LAYER
  5
207
100
AcDbSymbolTableRecord
100
AcDbLayerTableRecord
  2
INTF_15
 70
0
 62
7
  6
CONTINUOUS
370
-3
390
F
  0
LAYER
  5
208
100
AcDbSymbolTableRecord
100
AcDbLayerTableRecord
  2
INTF_3
 70
0
 62
7
  6
CONTINUOUS
370
-3
390
F
  0
LAYER
  5
209
100
AcDbSymbolTableRecord
100
AcDbLayerTableRecord
  2
INTF_4
 70
0
 62
7
  6
CONTINUOUS
370
-3
390
F
  0
LAYER
  5
20A
100
AcDbSymbolTableRecord
100
AcDbLayerTableRecord
  2
INTF_YELLOW
 70
0
 62
7
  6
CONTINUOUS
370
-3
390
F
  0
LAYER
  5
20B
100
AcDbSymbolTableRecord
100
AcDbLayerTableRecord
  2
PIANI
 70
0
 62
7
  6
CONTINUOUS
370
-3
390
F
  0
LAYER
  5
20C
100
AcDbSymbolTableRecord
100
AcDbLayerTableRecord
  2
PIANI_ORIGINE
 70
0
 62
7
  6
CONTINUOUS
370
-3
390
F
  0
LAYER
  5
20D
100
AcDbSymbolTableRecord
100
AcDbLayerTableRecord
  2
PIANI_RIFERIMENTO
 70
0
 62
7
  6
CONTINUOUS
370
-3
390
F
  0
LAYER
  5
20E
100
AcDbSymbolTableRecord
100
AcDbLayerTableRecord
  2
RACCORDO
 70
0
 62
7
  6
CONTINUOUS
370
-3
390
F
  0
LAYER
  5
20F
100
AcDbSymbolTableRecord
100
AcDbLayerTableRecord
  2
SMUSSO
 70
0
 62
7
  6
CONTINUOUS
370
-3
390
F
  0
LAYER
  5
210
100
AcDbSymbolTableRecord
100
AcDbLayerTableRecord
  2
SOLIDO
 70
0
 62
7
  6
CONTINUOUS
370
-3
390
F
  0
LAYER
  5
211
100
AcDbSymbolTableRecord
100
AcDbLayerTableRecord
  2
SUPERFICI
 70
0
 62
7
  6
CONTINUOUS
370
-3
390
F
  0
LAYER
  5
212
100
AcDbSymbolTableRecord
100
AcDbLayerTableRecord
  2
TRASH
 70
0
 62
7
  6
CONTINUOUS
370
-3
390
F
  0
LAYER
  5
213
100
AcDbSymbolTableRecord
100
AcDbLayerTableRecord
  2
WHITE
 70
0
 62
7
  6
CONTINUOUS
370
-3
390
F
  0
LAYER
  5
214
100
AcDbSymbolTableRecord
100
AcDbLayerTableRecord
  2
XSEC_DATUMS
 70
0
 62
7
  6
CONTINUOUS
370
-3
390
F
  0
ENDTAB
  0
TABLE
  2
STYLE
  5
3
100
AcDbSymbolTable
 70
1
  0
STYLE
  5
11
100
AcDbSymbolTableRecord
100
AcDbTextStyleTableRecord
  2
STANDARD
 70
0
 40
0.0
 41
0.8
 50
0.0
 71
0
 42
0.2
  3
txt
  4

  0
STYLE
  5
215
100
AcDbSymbolTableRecord
100
AcDbTextStyleTableRecord
  2
TEXTSTYLE_1
 70
0
 40
0.0
 41
0.8
 50
0.0
 71
0
 42
0.2
  3
gdt
  4

  0
ENDTAB
  0
TABLE
  2
VIEW
  5
6
100
AcDbSymbolTable
 70
0
  0
ENDTAB
  0
TABLE
  2
UCS
  5
7
100
AcDbSymbolTable
 70
0
  0
ENDTAB
  0
TABLE
  2
APPID
  5
9
100
AcDbSymbolTable
 70
1
  0
APPID
  5
216
100
AcDbSymbolTableRecord
100
AcDbRegAppTableRecord
  2
ACAD
 70
0
  0
ENDTAB
  0
TABLE
  2
BLOCK_RECORD
  5
1
100
AcDbSymbolTable
 70
0
  0
BLOCK_RECORD
  5
217
100
AcDbSymbolTableRecord
100
AcDbBlockTableRecord
  2
*Model_Space
  0
BLOCK_RECORD
  5
218
100
AcDbSymbolTableRecord
100
AcDbBlockTableRecord
  2
*Paper_Space
  0
ENDTAB
  0
TABLE
  2
DIMSTYLE
  5
A
100
AcDbSymbolTable
 70
1
100
AcDbDimStyleTable
 71
0
  0
DIMSTYLE
105
219
100
AcDbSymbolTableRecord
100
AcDbDimStyleTableRecord
  2
STANDARD
 70
0
  3

  4

 40
1.0
 41
3.0
 42
0.0625
 43
0.38
 44
0.18
 45
0.0
 46
0.0
 47
0.01
 48
0.01
140
3.0
141
0.09
142
0.0
143
25.4
144
1.0
145
0.0
146
1.0
147
0.09
 71
1.0
 72
0.0
 73
0
 74
0
 75
0
 76
0
 77
1
 78
8
170
0
171
2
172
0
173
0
174
0
175
0
176
0
177
0
178
0
270
2
271
2
272
2
273
2
274
2
275
0
280
0
281
0
282
0
283
1
284
8
285
0
286
0
287
3
288
0
340
11
  0
ENDTAB
  0
ENDSEC
  0
SECTION
  2
BLOCKS
  0
BLOCK
  5
20
100
AcDbEntity
  8
0
100
AcDbBlockBegin
  2
*Model_Space
 70
0
 10
0.0
 20
0.0
 30
0.0
  3
*Model_Space
  1

  0
ENDBLK
  5
21
100
AcDbEntity
  8
0
100
AcDbBlockEnd
  0
BLOCK
  5
1C
100
AcDbEntity
  8
0
100
AcDbBlockBegin
  2
*Paper_Space
 70
0
 10
0.0
 20
0.0
 30
0.0
  3
*Paper_Space
  1

  0
ENDBLK
  5
1D
100
AcDbEntity
  8
0
100
AcDbBlockEnd
  0
ENDSEC
  0
SECTION
  2
ENTITIES
  0
LWPOLYLINE
  5
21A
100
AcDbEntity
  8
ASSI
100
AcDbPolyline
 62
7
  6
CONTINUOUS
 90
11
 70
0
 10
-17.4775456216
 20
16.1962004713
 10
-17.4946055585
 20
16.1863911491
 10
-17.5290043379
 20
16.1634108528
 10
-17.5599203177
 20
16.1381615052
 10
-17.5873589033
 20
16.1107480352
 10
-17.6112257397
 20
16.0813582915
 10
-17.6313499179
 20
16.0503368709
 10
-17.6476851901
 20
16.0179357968
 10
-17.6601971969
 20
15.984392852
 10
-17.6688172944
 20
15.9500880756
 10
-17.6735249705
 20
15.9154834147
  0
LWPOLYLINE
  5
21B
100
AcDbEntity
  8
RACCORDO
100
AcDbPolyline
 62
7
  6
CONTINUOUS
 90
31
 70
0
 10
-17.4773882589
 20
16.1962867914
 10
-17.4850278362
 20
16.1920146288
 10
-17.4974034775
 20
16.1846897969
 10
-17.509321903
 20
16.1771262502
 10
-17.5207874194
 20
16.1693340755
 10
-17.5318061829
 20
16.1613221555
 10
-17.5423821778
 20
16.1531003392
 10
-17.5525183389
 20
16.1446794398
 10
-17.5622188954
 20
16.1360693717
 10
-17.5714859217
 20
16.127281759
 10
-17.5803189516
 20
16.1183314264
 10
-17.5887239391
 20
16.1092275686
 10
-17.5967091075
 20
16.0999760002
 10
-17.6042718485
 20
16.0905949579
 10
-17.6114190596
 20
16.0810922889
 10
-17.618168534
 20
16.0714588429
 10
-17.6245201277
 20
16.0617078068
 10
-17.6304749824
 20
16.0518513369
 10
-17.6360475777
 20
16.0418780142
 10
-17.6412377706
 20
16.0317987539
 10
-17.6460443902
 20
16.0216274604
 10
-17.6504758855
 20
16.0113565857
 10
-17.6545313397
 20
16.0009970324
 10
-17.6582093481
 20
15.9905627919
 10
-17.6615143843
 20
15.9800507044
 10
-17.6644450182
 20
15.9694735757
 10
-17.6670005369
 20
15.9588438522
 10
-17.6691839409
 20
15.948157733
 10
-17.6709940042
 20
15.9374285596
 10
-17.672430328
 20
15.9266684869
 10
-17.6734944667
 20
15.9158718192
  0
LINE
  5
21C
100
AcDbEntity
  8
RACCORDO
100
AcDbLine
 62
7
  6
CONTINUOUS
 10
-17.4773814204
 20
16.1962905666
 11
-13.9179866816
 21
18.1442023925
  0
LINE
  5
21D
100
AcDbEntity
  8
ASSI
100
AcDbLine
 62
7
  6
CONTINUOUS
 10
-17.4775456353
 20
16.1962004963
 11
-13.9179866816
 21
18.1442023925
  0
LINE
  5
21E
100
AcDbEntity
  8
RACCORDO
100
AcDbLine
 62
253
  6
CONTINUOUS
 10
-17.3589061136
 20
16.1927100526
 11
-13.8030170352
 21
18.1387033733
  0
LINE
  5
21F
100
AcDbEntity
  8
ASSI
100
AcDbLine
 62
253
  6
CONTINUOUS
 10
-17.3589061136
 20
16.1927100526
 11
-13.8030170352
 21
18.1387033733
  0
LINE
  5
220
100
AcDbEntity
  8
DRAFT
100
AcDbLine
 62
7
  6
CONTINUOUS
 10
-12.1501847686
 20
16.2730567555
 11
-13.1371931959
 21
15.6617980425
  0
LINE
  5
221
100
AcDbEntity
  8
ASSI
100
AcDbLine
 62
7
  6
CONTINUOUS
 10
-12.1501847686
 20
16.2730567555
 11
-13.1371931959
 21
15.6617980425
  0
LINE
  5
222
100
AcDbEntity
  8
DRAFT
100
AcDbLine
 62
7
  6
CONTINUOUS
 10
-12.1501847686
 20
17.3122872401
 11
-14.0859136304
 21
16.1361582598
  0
LINE
  5
223
100
AcDbEntity
  8
ASSI
100
AcDbLine
 62
7
  6
CONTINUOUS
 10
-12.1501847686
 20
17.3122872401
 11
-14.0859136304
 21
16.1361582598
  0
LWPOLYLINE
  5
224
100
AcDbEntity
  8
RACCORDO
100
AcDbPolyline
 62
7
  6
CONTINUOUS
 90
4
 70
0
 10
-17.6734944667
 20
15.9158718192
 10
-17.6741854282
 20
15.9050451698
 10
-17.6745019051
 20
15.8942075617
 10
-17.6745241439
 20
15.8902572188
  0
LWPOLYLINE
  5
225
100
AcDbEntity
  8
0
100
AcDbPolyline
 62
7
  6
CONTINUOUS
 90
17
 70
0
 10
-17.5938843693
 20
7.0860386917
 10
-17.5806929237
 20
6.6080930137
 10
-17.5651208731
 20
6.1315212814
 10
-17.5471686962
 20
5.6563413592
 10
-17.5268368741
 20
5.1825699599
 10
-17.504125957
 20
4.7102247519
 10
-17.4790366925
 20
4.2393240255
 10
-17.4515698273
 20
3.7698854312
 10
-17.4217261548
 20
3.3019268275
 10
-17.3895066919
 20
2.8354665717
 10
-17.3549125131
 20
2.3705230548
 10
-17.3179447424
 20
1.9071145693
 10
-17.2786046417
 20
1.4452586671
 10
-17.2368934835
 20
0.9849726213
 10
-17.1928126277
 20
0.526274322
 10
-17.1463635318
 20
0.0691808446
 10
-17.0975475824
 20
-0.386291752
  0
LWPOLYLINE
  5
226
100
AcDbEntity
  8
ASSI
100
AcDbPolyline
 62
7
  6
CONTINUOUS
 90
9
 70
0
 10
-17.6130430784
 20
8.0405896097
 10
-17.5909295007
 20
6.9709772593
 10
-17.5546005197
 20
5.845340957
 10
-17.5050007458
 20
4.7275195897
 10
-17.4421385395
 20
3.6177509487
 10
-17.3660249261
 20
2.5162731929
 10
-17.2766733407
 20
1.4233180394
 10
-17.1741002505
 20
0.3391198933
 10
-17.0583245237
 20
-0.7360902169
  0
LWPOLYLINE
  5
227
100
AcDbEntity
  8
0
100
AcDbPolyline
 62
7
  6
CONTINUOUS
 90
3
 70
0
 10
-17.6130430758
 20
8.0405894405
 10
-17.6046948693
 20
7.5653376172
 10
-17.5938843693
 20
7.0860386917
  0
LINE
  5
228
100
AcDbEntity
  8
ASSI
100
AcDbLine
 62
7
  6
CONTINUOUS
 10
-17.6250377286
 20
8.8799716071
 11
-17.6130430761
 21
8.0405894416
  0
LWPOLYLINE
  5
229
100
AcDbEntity
  8
ASSI
100
AcDbPolyline
 62
7
  6
CONTINUOUS
 90
8
 70
0
 10
-17.673386951
 20
15.0651721729
 10
-17.6707682692
 20
14.1756837554
 10
-17.6667051208
 20
13.2869766553
 10
-17.6611975154
 20
12.3990550628
 10
-17.6542454721
 20
11.5119224751
 10
-17.6458490097
 20
10.6255821747
 10
-17.6360081542
 20
9.7400377595
 10
-17.6250377286
 20
8.8799716071
  0
LINE
  5
22A
100
AcDbEntity
  8
ASSI
100
AcDbLine
 62
7
  6
CONTINUOUS
 10
-17.6745242215
 20
15.8902677021
 11
-17.673386951
 21
15.0651721729
  0
LWPOLYLINE
  5
22B
100
AcDbEntity
  8
0
100
AcDbPolyline
 62
7
  6
CONTINUOUS
 90
10
 70
0
 10
-17.6745242215
 20
15.8902676949
 10
-17.6732893077
 20
15.0202203956
 10
-17.6706496553
 20
14.1443568442
 10
-17.666609344
 20
13.2692510506
 10
-17.6611683831
 20
12.3949069982
 10
-17.6543267907
 20
11.5213280255
 10
-17.6460845851
 20
10.6485172838
 10
-17.6364417907
 20
9.7764782025
 10
-17.6253984511
 20
8.905214856
 10
-17.6130430761
 20
8.0405894422
  0
LINE
  5
22C
100
AcDbEntity
  8
ASSI
100
AcDbLine
 62
7
  6
CONTINUOUS
 10
-17.6735249705
 20
15.9154834147
 11
-17.6745237861
 21
15.8900346643
  0
LWPOLYLINE
  5
22D
100
AcDbEntity
  8
ASSI
100
AcDbPolyline
 62
7
  6
CONTINUOUS
 90
10
 70
0
 10
-16.9375668915
 20
-1.7376727539
 10
-16.9298188223
 20
-1.7876826314
 10
-16.9106496861
 20
-1.8700013442
 10
-16.8845292624
 20
-1.9471814528
 10
-16.8521266157
 20
-2.0186108478
 10
-16.8139047961
 20
-2.0843318133
 10
-16.7699662855
 20
-2.1447015406
 10
-16.7209336558
 20
-2.1991755672
 10
-16.6673770958
 20
-2.2474492254
 10
-16.6091267612
 20
-2.2897760711
  0
LWPOLYLINE
  5
22E
100
AcDbEntity
  8
0
100
AcDbPolyline
 62
7
  6
CONTINUOUS
 90
31
 70
0
 10
-16.9376110344
 20
-1.7373277061
 10
-16.9350778463
 20
-1.7558211252
 10
-16.9311698419
 20
-1.7801331114
 10
-16.9266697419
 20
-1.8040277012
 10
-16.9215916878
 20
-1.8274934067
 10
-16.9159478304
 20
-1.8505310239
 10
-16.9097472171
 20
-1.8731493564
 10
-16.9030018309
 20
-1.8953426827
 10
-16.8957242722
 20
-1.9171048349
 10
-16.8879232186
 20
-1.9384400616
 10
-16.8796110927
 20
-1.9593404222
 10
-16.8708003937
 20
-1.9797996219
 10
-16.8614993509
 20
-1.9998209303
 10
-16.8517217871
 20
-2.0193944009
 10
-16.8414800079
 20
-2.0385144428
 10
-16.8307795523
 20
-2.0571878307
 10
-16.8196339183
 20
-2.0754059066
 10
-16.8080566578
 20
-2.0931607594
 10
-16.7960528134
 20
-2.1104575699
 10
-16.7836374278
 20
-2.1272865685
 10
-16.7708240089
 20
-2.1436410148
 10
-16.7576145413
 20
-2.1595281419
 10
-16.7440241783
 20
-2.1749384137
 10
-16.7300670216
 20
-2.1898648312
 10
-16.7157421517
 20
-2.2043157353
 10
-16.7010641039
 20
-2.2182823775
 10
-16.6860477085
 20
-2.2317567446
 10
-16.6706910991
 20
-2.2447457226
 10
-16.6550096395
 20
-2.2572404069
 10
-16.6390178466
 20
-2.2692334148
 10
-16.6227110721
 20
-2.2807311505
  0
LINE
  5
22F
100
AcDbEntity
  8
ASSI
100
AcDbLine
 62
7
  6
CONTINUOUS
 10
-16.9376116412
 20
-1.7373230496
 11
-16.9375669072
 21
-1.7376727559
  0
LINE
  5
230
100
AcDbEntity
  8
ASSI
100
AcDbLine
 62
7
  6
CONTINUOUS
 10
-17.0583245237
 20
-0.7360902169
 11
-16.9376116412
 21
-1.7373230496
  0
LWPOLYLINE
  5
231
100
AcDbEntity
  8
0
100
AcDbPolyline
 62
7
  6
CONTINUOUS
 90
4
 70
0
 10
-17.0975475824
 20
-0.386291752
 10
-17.0463663253
 20
-0.8401263153
 10
-16.992821812
 20
-1.2923032216
 10
-16.9376116705
 20
-1.7373228192
  0
LINE
  5
232
100
AcDbEntity
  8
DRAFT
100
AcDbLine
 62
7
  6
CONTINUOUS
 10
-12.1501847686
 20
17.3122872401
 11
-12.1501847686
 21
16.2730567555
  0
LINE
  5
233
100
AcDbEntity
  8
ASSI
100
AcDbLine
 62
7
  6
CONTINUOUS
 10
-12.1501847686
 20
17.3122872401
 11
-12.1501847686
 21
16.2730567555
  0
LWPOLYLINE
  5
234
100
AcDbEntity
  8
0
100
AcDbPolyline
 62
7
  6
CONTINUOUS
 90
27
 70
0
 10
14.2128064665
 20
-17.7029428921
 10
14.232837501
 20
-17.7106725005
 10
14.2531274308
 20
-17.7177986567
 10
14.2736579595
 20
-17.7243134451
 10
14.2944107378
 20
-17.7302098627
 10
14.3153963418
 20
-17.7354884852
 10
14.3365973782
 20
-17.7401413089
 10
14.3579950066
 20
-17.7441611611
 10
14.3795993141
 20
-17.7475459322
 10
14.4013930174
 20
-17.7502877116
 10
14.4233574085
 20
-17.7523791535
 10
14.4455019063
 20
-17.7538155163
 10
14.4678103286
 20
-17.7545890721
 10
14.4902630208
 20
-17.7546925511
 10
14.5128657173
 20
-17.7541186182
 10
14.535603725
 20
-17.7528596344
 10
14.5584562978
 20
-17.7509088584
 10
14.5814217603
 20
-17.7482579546
 10
14.6044836773
 20
-17.7448999312
 10
14.6276238386
 20
-17.7408289019
 10
14.6508398768
 20
-17.7360359818
 10
14.6741163002
 20
-17.730514307
 10
14.6974356936
 20
-17.7242582844
 10
14.7207950932
 20
-17.7172582279
 10
14.7441835944
 20
-17.7095058459
 10
14.7675796161
 20
-17.7009971313
 10
14.7848339443
 20
-17.6942324149
  0
LINE
  5
235
100
AcDbEntity
  8
0
100
AcDbLine
 62
7
  6
CONTINUOUS
 10
14.1930253644
 20
-17.6946070551
 11
14.2128064665
 21
-17.7029428921
  0
LINE
  5
236
100
AcDbEntity
  8
ASSI
100
AcDbLine
 62
7
  6
CONTINUOUS
 10
-16.6091267612
 20
-2.2897760711
 11
-16.5426963523
 21
-2.3277068587
  0
LWPOLYLINE
  5
237
100
AcDbEntity
  8
0
100
AcDbPolyline
 62
7
  6
CONTINUOUS
 90
4
 70
0
 10
-16.5892124924
 20
-2.3022077268
 10
-16.5720300061
 20
-2.31218383
 10
-16.5545644351
 20
-2.3216487588
 10
-16.5435787797
 20
-2.3272672313
  0
LWPOLYLINE
  5
238
100
AcDbEntity
  8
0
100
AcDbPolyline
 62
7
  6
CONTINUOUS
 90
3
 70
0
 10
-16.6227110721
 20
-2.2807311505
 10
-16.60610424
 20
-2.2917251279
 10
-16.5892124924
 20
-2.3022077268
  0
LWPOLYLINE
  5
239
100
AcDbEntity
  8
0
100
AcDbPolyline
 62
7
  6
CONTINUOUS
 90
3
 70
0
 10
14.1615499568
 20
-17.6798315995
 10
14.173504028
 20
-17.6856681623
 10
14.1930253644
 20
-17.6946070551
  0
LWPOLYLINE
  5
23A
100
AcDbEntity
  8
ASSI
100
AcDbPolyline
 62
7
  6
CONTINUOUS
 90
12
 70
0
 10
14.1609929096
 20
-17.6795524634
 10
14.1687838119
 20
-17.6833967527
 10
14.2241873578
 20
-17.7074204841
 10
14.2819938897
 20
-17.7267639574
 10
14.3417206022
 20
-17.74116502
 10
14.4030433418
 20
-17.7504681375
 10
14.4658548023
 20
-17.754548093
 10
14.5297859348
 20
-17.7532466141
 10
14.5943940879
 20
-17.7464548807
 10
14.6595583361
 20
-17.7340520175
 10
14.725033416
 20
-17.7159087126
 10
14.7845696998
 20
-17.6943389905
  0
LINE
  5
23B
100
AcDbEntity
  8
ASSI
100
AcDbLine
 62
7
  6
CONTINUOUS
 10
-16.5435996939
 20
-2.3272567991
 11
14.1615836017
 21
-17.6798484469
  0
LINE
  5
23C
100
AcDbEntity
  8
0
100
AcDbLine
 62
7
  6
CONTINUOUS
 10
-16.5436028265
 20
-2.3272552328
 11
14.1615836017
 21
-17.6798484469
  0
LINE
  5
23D
100
AcDbEntity
  8
0
100
AcDbLine
 62
7
  6
CONTINUOUS
 10
14.1615519211
 20
-17.6798326052
 11
14.1615803997
 21
-17.6798468459
  0
LINE
  5
23E
100
AcDbEntity
  8
0
100
AcDbLine
 62
253
  6
CONTINUOUS
 10
-16.7911909968
 20
-1.913740844
 11
13.9051895074
 21
-17.2619310961
  0
LINE
  5
23F
100
AcDbEntity
  8
ASSI
100
AcDbLine
 62
253
  6
CONTINUOUS
 10
-16.7911909968
 20
-1.913740844
 11
13.9051895074
 21
-17.2619310961
  0
LINE
  5
240
100
AcDbEntity
  8
ASSI
100
AcDbLine
 62
7
  6
CONTINUOUS
 10
14.1609947394
 20
-17.6795533978
 11
14.1615803997
 21
-17.6798468459
  0
LINE
  5
241
100
AcDbEntity
  8
0
100
AcDbLine
 62
253
  6
CONTINUOUS
 10
13.1811944861
 20
-7.4607276882
 11
-17.4665896041
 21
7.8631643569
  0
LINE
  5
242
100
AcDbEntity
  8
ASSI
100
AcDbLine
 62
253
  6
CONTINUOUS
 10
13.1811944861
 20
-7.4607276882
 11
-17.4665896041
 21
7.8631643569
  0
LINE
  5
243
100
AcDbEntity
  8
DRAFT
100
AcDbLine
 62
7
  6
CONTINUOUS
 10
15.7981626612
 20
3.3381135252
 11
13.4912508359
 21
2.3475760267
  0
LINE
  5
244
100
AcDbEntity
  8
ASSI
100
AcDbLine
 62
7
  6
CONTINUOUS
 10
15.7981626612
 20
3.3381135252
 11
13.4912508359
 21
2.3475760267
  0
LINE
  5
245
100
AcDbEntity
  8
SUPERFICI
100
AcDbLine
 62
7
  6
CONTINUOUS
 10
-5.1201797573
 20
5.0258119249
 11
0.7514914726
 21
2.08997631
  0
LINE
  5
246
100
AcDbEntity
  8
RACCORDO
100
AcDbLine
 62
7
  6
CONTINUOUS
 10
0.7514914726
 20
2.08997631
 11
-5.1201797573
 21
5.0258119249
  0
LINE
  5
247
100
AcDbEntity
  8
ASSI
100
AcDbLine
 62
7
  6
CONTINUOUS
 10
0.7514914726
 20
2.08997631
 11
-5.1201797573
 21
5.0258119249
  0
LINE
  5
248
100
AcDbEntity
  8
SUPERFICI
100
AcDbLine
 62
7
  6
CONTINUOUS
 10
-5.1337373822
 20
6.9238453105
 11
0.7370464671
 21
3.9884533859
  0
LINE
  5
249
100
AcDbEntity
  8
RACCORDO
100
AcDbLine
 62
7
  6
CONTINUOUS
 10
0.7370464671
 20
3.9884533859
 11
-5.1337373822
 21
6.9238453105
  0
LINE
  5
24A
100
AcDbEntity
  8
ASSI
100
AcDbLine
 62
7
  6
CONTINUOUS
 10
0.7370464671
 20
3.9884533859
 11
-5.1337373822
 21
6.9238453105
  0
LINE
  5
24B
100
AcDbEntity
  8
RACCORDO
100
AcDbLine
 62
253
  6
CONTINUOUS
 10
17.4509949277
 20
2.5116973919
 11
13.6377707437
 21
0.694371624
  0
LINE
  5
24C
100
AcDbEntity
  8
ASSI
100
AcDbLine
 62
253
  6
CONTINUOUS
 10
17.4509949277
 20
2.5116973919
 11
13.6377707437
 21
0.694371624
  0
LINE
  5
24D
100
AcDbEntity
  8
RACCORDO
100
AcDbLine
 62
253
  6
CONTINUOUS
 10
17.6278255058
 20
2.2068334476
 11
13.8098150103
 21
0.387226595
  0
LINE
  5
24E
100
AcDbEntity
  8
ASSI
100
AcDbLine
 62
253
  6
CONTINUOUS
 10
17.6278255058
 20
2.2068334476
 11
13.8098150103
 21
0.387226595
  0
LINE
  5
24F
100
AcDbEntity
  8
RACCORDO
100
AcDbLine
 62
253
  6
CONTINUOUS
 10
13.1152597328
 20
0.3912931697
 11
-17.5280753892
 21
15.7129607307
  0
LINE
  5
250
100
AcDbEntity
  8
ASSI
100
AcDbLine
 62
253
  6
CONTINUOUS
 10
13.1152597328
 20
0.3912931697
 11
-17.5280753892
 21
15.7129607307
  0
LINE
  5
251
100
AcDbEntity
  8
RACCORDO
100
AcDbLine
 62
253
  6
CONTINUOUS
 10
13.2904956215
 20
0.6955795628
 11
-17.3528432951
 21
16.0172490211
  0
LINE
  5
252
100
AcDbEntity
  8
ASSI
100
AcDbLine
 62
253
  6
CONTINUOUS
 10
13.2904956215
 20
0.6955795628
 11
-17.3528432951
 21
16.0172490211
  0
LINE
  5
253
100
AcDbEntity
  8
DRAFT
100
AcDbLine
 62
7
  6
CONTINUOUS
 10
13.4912508359
 20
2.3475760267
 11
-14.0859136304
 21
16.1361582598
  0
LINE
  5
254
100
AcDbEntity
  8
ASSI
100
AcDbLine
 62
7
  6
CONTINUOUS
 10
13.4912508359
 20
2.3475760267
 11
-14.0859136304
 21
16.1361582598
  0
LINE
  5
255
100
AcDbEntity
  8
RACCORDO
100
AcDbLine
 62
7
  6
CONTINUOUS
 10
17.4509949277
 20
2.5116973919
 11
15.7981626612
 21
3.3381135252
  0
LINE
  5
256
100
AcDbEntity
  8
ASSI
100
AcDbLine
 62
7
  6
CONTINUOUS
 10
17.4509949277
 20
2.5116973919
 11
15.7981626612
 21
3.3381135252
  0
LINE
  5
257
100
AcDbEntity
  8
RACCORDO
100
AcDbLine
 62
7
  6
CONTINUOUS
 10
-12.1501847686
 20
17.3122872401
 11
-13.8030170352
 21
18.1387033733
  0
LINE
  5
258
100
AcDbEntity
  8
ASSI
100
AcDbLine
 62
7
  6
CONTINUOUS
 10
-12.1501847686
 20
17.3122872401
 11
-13.8030170352
 21
18.1387033733
  0
LINE
  5
259
100
AcDbEntity
  8
RACCORDO
100
AcDbLine
 62
7
  6
CONTINUOUS
 10
17.6278255058
 20
2.2068334476
 11
17.6278255058
 21
-8.8350481464
  0
LINE
  5
25A
100
AcDbEntity
  8
ASSI
100
AcDbLine
 62
7
  6
CONTINUOUS
 10
17.6278255058
 20
2.2068334476
 11
17.6278255058
 21
-8.8350481464
  0
LINE
  5
25B
100
AcDbEntity
  8
0
100
AcDbLine
 62
7
  6
CONTINUOUS
 10
17.076529645
 20
-16.549219914
 11
17.6278255058
 21
-8.8350481464
  0
LINE
  5
25C
100
AcDbEntity
  8
ASSI
100
AcDbLine
 62
7
  6
CONTINUOUS
 10
17.076529645
 20
-16.549219914
 11
17.6278255058
 21
-8.8350481464
  0
LINE
  5
25D
100
AcDbEntity
  8
0
100
AcDbLine
 62
253
  6
CONTINUOUS
 10
14.9384520857
 20
-17.4135103633
 11
17.076529645
 21
-16.549219914
  0
LINE
  5
25E
100
AcDbEntity
  8
ASSI
100
AcDbLine
 62
253
  6
CONTINUOUS
 10
14.9384520857
 20
-17.4135103633
 11
17.076529645
 21
-16.549219914
  0
LINE
  5
25F
100
AcDbEntity
  8
0
100
AcDbLine
 62
7
  6
CONTINUOUS
 10
14.7848402671
 20
-17.694229892
 11
16.9074884771
 21
-16.8361765593
  0
LINE
  5
260
100
AcDbEntity
  8
ASSI
100
AcDbLine
 62
7
  6
CONTINUOUS
 10
16.9074884771
 20
-16.8361765593
 11
14.7845697112
 21
-17.6943390188
  0
ARC
  5
261
100
AcDbEntity
  8
RACCORDO
100
AcDbCircle
 62
253
  6
CONTINUOUS
 10
525.720293073
 20
16.0423032521
 40
543.2484714993
100
AcDbArc
 50
180.034735372
 51
180.8626768068
  0
ARC
  5
262
100
AcDbEntity
  8
ASSI
100
AcDbCircle
 62
253
  6
CONTINUOUS
 10
525.720293073
 20
16.0423032521
 40
543.2484714993
100
AcDbArc
 50
180.034735372
 51
180.8626768068
  0
ARC
  5
263
100
AcDbEntity
  8
RACCORDO
100
AcDbCircle
 62
7
  6
CONTINUOUS
 10
525.4954083464
 20
6.7665250518
 40
524.4845405879
100
AcDbArc
 50
180.3564737649
 51
180.4887240263
  0
ARC
  5
264
100
AcDbEntity
  8
ASSI
100
AcDbCircle
 62
7
  6
CONTINUOUS
 10
525.4954083464
 20
6.7665250518
 40
524.4845405879
100
AcDbArc
 50
180.3564737649
 51
180.4887240263
  0
ARC
  5
265
100
AcDbEntity
  8
SUPERFICI
100
AcDbCircle
 62
7
  6
CONTINUOUS
 10
518.9595538019
 20
9.9830990671
 40
524.3833549227
100
AcDbArc
 50
180.3564593088
 51
180.4887350894
  0
ARC
  5
266
100
AcDbEntity
  8
RACCORDO
100
AcDbCircle
 62
253
  6
CONTINUOUS
 10
518.9812823942
 20
0.7122062774
 40
505.8661111247
100
AcDbArc
 50
180.0363474979
 51
180.9257291277
  0
ARC
  5
267
100
AcDbEntity
  8
ASSI
100
AcDbCircle
 62
253
  6
CONTINUOUS
 10
518.9812823942
 20
0.7122062774
 40
505.8661111247
100
AcDbArc
 50
180.0363474979
 51
180.9257291277
  0
ARC
  5
268
100
AcDbEntity
  8
RACCORDO
100
AcDbCircle
 62
253
  6
CONTINUOUS
 10
519.1054110427
 20
0.7055441661
 40
505.2956834954
100
AcDbArc
 50
180.0360942211
 51
180.9257767921
  0
ARC
  5
269
100
AcDbEntity
  8
ASSI
100
AcDbCircle
 62
253
  6
CONTINUOUS
 10
519.1054110427
 20
0.7055441661
 40
505.2956834954
100
AcDbArc
 50
180.0360942211
 51
180.9257767921
  0
ARC
  5
26A
100
AcDbEntity
  8
RACCORDO
100
AcDbCircle
 62
7
  6
CONTINUOUS
 10
-4.9634828225
 20
5.5140509493
 40
0.4412582556
100
AcDbArc
 50
180.5072885362
 51
183.4774390387
  0
ARC
  5
26B
100
AcDbEntity
  8
ASSI
100
AcDbCircle
 62
7
  6
CONTINUOUS
 10
-4.9634828225
 20
5.5140509493
 40
0.4412582556
100
AcDbArc
 50
180.5072885362
 51
183.4774390387
  0
ARC
  5
26C
100
AcDbEntity
  8
SUPERFICI
100
AcDbCircle
 62
7
  6
CONTINUOUS
 10
0.5799440645
 20
3.5005045078
 40
0.4410841978
100
AcDbArc
 50
0.3750339476
 51
3.3435235644
  0
ARC
  5
26D
100
AcDbEntity
  8
SUPERFICI
100
AcDbCircle
 62
7
  6
CONTINUOUS
 10
0.6225665414
 20
2.2891693129
 40
0.407397637
100
AcDbArc
 50
357.3798448687
 51
0.5117896884
  0
ARC
  5
26E
100
AcDbEntity
  8
RACCORDO
100
AcDbCircle
 62
7
  6
CONTINUOUS
 10
-5.007572959
 20
6.7234160815
 40
0.4060888367
100
AcDbArc
 50
177.2398448364
 51
180.3793404826
  0
ARC
  5
26F
100
AcDbEntity
  8
ASSI
100
AcDbCircle
 62
7
  6
CONTINUOUS
 10
-5.007572959
 20
6.7234160815
 40
0.4060888367
100
AcDbArc
 50
177.2398448364
 51
180.3793404826
  0
ARC
  5
270
100
AcDbEntity
  8
0
100
AcDbCircle
 62
253
  6
CONTINUOUS
 10
14.3355388502
 20
-17.3319233607
 40
0.3889886042
100
AcDbArc
 50
234.9479967939
 51
243.4306925951
  0
ARC
  5
271
100
AcDbEntity
  8
0
100
AcDbCircle
 62
253
  6
CONTINUOUS
 10
-16.3780283484
 20
-1.9973734296
 40
0.3691270765
100
AcDbArc
 50
234.6967841757
 51
237.0375563961
  0
ARC
  5
272
100
AcDbEntity
  8
0
100
AcDbCircle
 62
253
  6
CONTINUOUS
 10
-16.3812763762
 20
-2.0026035188
 40
0.3629716916
100
AcDbArc
 50
237.0185430155
 51
243.3832306157
  0
ARC
  5
273
100
AcDbEntity
  8
ASSI
100
AcDbCircle
 62
253
  6
CONTINUOUS
 10
-16.3812831599
 20
-2.0026151118
 40
0.362958274
100
AcDbArc
 50
237.0184450862
 51
243.4355573046
  0
ARC
  5
274
100
AcDbEntity
  8
RACCORDO
100
AcDbCircle
 62
7
  6
CONTINUOUS
 10
-4.9669603209
 20
5.3318903191
 40
0.3422866913
100
AcDbArc
 50
239.8947612401
 51
243.407963524
  0
ARC
  5
275
100
AcDbEntity
  8
ASSI
100
AcDbCircle
 62
7
  6
CONTINUOUS
 10
-4.9669603209
 20
5.3318903191
 40
0.3422866913
100
AcDbArc
 50
239.8947612401
 51
243.407963524
  0
ARC
  5
276
100
AcDbEntity
  8
SUPERFICI
100
AcDbCircle
 62
7
  6
CONTINUOUS
 10
0.5841511512
 20
3.6830231344
 40
0.3415620238
100
AcDbArc
 50
59.8824320464
 51
63.4079136789
  0
ARC
  5
277
100
AcDbEntity
  8
RACCORDO
100
AcDbCircle
 62
7
  6
CONTINUOUS
 10
0.8905755064
 20
2.3677594643
 40
0.3106571249
100
AcDbArc
 50
243.4032006113
 51
247.1501180889
  0
ARC
  5
278
100
AcDbEntity
  8
ASSI
100
AcDbCircle
 62
7
  6
CONTINUOUS
 10
0.8905755064
 20
2.3677594643
 40
0.3106571249
100
AcDbArc
 50
243.4032006113
 51
247.1501180889
  0
ARC
  5
279
100
AcDbEntity
  8
SUPERFICI
100
AcDbCircle
 62
7
  6
CONTINUOUS
 10
-5.272602234
 20
6.6464973464
 40
0.3101698571
100
AcDbArc
 50
63.4034129207
 51
67.1620608765
  0
ARC
  5
27A
100
AcDbEntity
  8
0
100
AcDbCircle
 62
253
  6
CONTINUOUS
 10
-16.7651010578
 20
-1.7154382373
 40
0.1738921633
100
AcDbArc
 50
187.2317806838
 51
189.2872379918
  0
ARC
  5
27B
100
AcDbEntity
  8
SUPERFICI
100
AcDbCircle
 62
7
  6
CONTINUOUS
 10
0.8626262991
 20
2.2112356557
 40
0.1487090013
100
AcDbArc
 50
287.8018857967
 51
290.6464901582
  0
SPLINE
  5
27C
100
AcDbEntity
  8
SUPERFICI
100
AcDbSpline
 62
7
  6
CONTINUOUS
 70
0
 71
3
 72
16
 73
12
 74
10
 42
0.0000001
 43
0.0000001
 44
0.0000000001
 12
-0.1851281172
 22
-0.1320498313
 32
0.0
 13
0.0014134633
 23
-0.2271576449
 33
0.0
 40
0.0
 40
0.0
 40
0.0
 40
0.0
 40
0.0055110613
 40
0.1116735965
 40
0.221590849
 40
0.3361220045
 40
0.4556415103
 40
0.5812985291
 40
0.7142391868
 40
0.8541405301
 40
1.0
 40
1.0
 40
1.0
 40
1.0
 10
-5.3316650192
 20
6.9236465012
 30
0.0
 10
-5.3320051033
 20
6.923403923
 30
0.0
 10
-5.3388757896
 20
6.9184596397
 30
0.0
 10
-5.351670377
 20
6.9074991834
 30
0.0
 10
-5.3680465613
 20
6.8884440009
 30
0.0
 10
-5.3820962846
 20
6.8664175908
 30
0.0
 10
-5.3936848315
 20
6.8416928391
 30
0.0
 10
-5.4027484244
 20
6.814472265
 30
0.0
 10
-5.409217345
 20
6.7849466115
 30
0.0
 10
-5.4130119016
 20
6.7534273811
 30
0.0
 10
-5.4137216177
 20
6.7317718567
 30
0.0
 10
-5.4136528954
 20
6.7207274922
 30
0.0
 11
-5.3316650192
 21
6.9236465012
 31
0.0
 11
-5.3326822068
 21
6.9229145139
 31
0.0
 11
-5.3510255339
 21
6.9072585709
 31
0.0
 11
-5.3673504054
 21
6.8883654264
 31
0.0
 11
-5.3814088916
 21
6.8664736453
 31
0.0
 11
-5.3930066448
 21
6.8419251088
 31
0.0
 11
-5.4021014137
 21
6.8148682438
 31
0.0
 11
-5.4086398823
 21
6.7853854974
 31
0.0
 11
-5.4125072897
 21
6.7538414166
 31
0.0
 11
-5.4136528954
 21
6.7207274922
 31
0.0
  0
SPLINE
  5
27D
100
AcDbEntity
  8
SUPERFICI
100
AcDbSpline
 62
7
  6
CONTINUOUS
 70
0
 71
3
 72
14
 73
10
 74
8
 42
0.0000001
 43
0.0000001
 44
0.0000000001
 12
0.1447349143
 22
-0.0723674572
 32
0.0
 13
0.154230483
 23
0.0495274309
 33
0.0
 40
0.0
 40
0.0
 40
0.0
 40
0.0
 40
0.1867059931
 40
0.3647459152
 40
0.5335907996
 40
0.6935574546
 40
0.8470006131
 40
0.9964630539
 40
1.0
 40
1.0
 40
1.0
 40
1.0
 10
0.7514914725
 20
2.08997631
 30
0.0
 10
0.7604990978
 20
2.0854724974
 30
0.0
 10
0.7785176505
 20
2.0774788411
 30
0.0
 10
0.8059580503
 20
2.0686091494
 30
0.0
 10
0.8328416911
 20
2.0632712513
 30
0.0
 10
0.8588737183
 20
2.0615181849
 30
0.0
 10
0.8838624
 20
2.0633605816
 30
0.0
 10
0.9000382276
 20
2.0670777846
 30
0.0
 10
0.9079087678
 20
2.0695885489
 30
0.0
 10
0.9080906028
 20
2.0696469409
 30
0.0
 11
0.7514914725
 21
2.08997631
 31
0.0
 11
0.7791393491
 21
2.077794779
 31
0.0
 11
0.8065784504
 21
2.0690129119
 31
0.0
 11
0.8333940408
 21
2.0637756762
 31
0.0
 11
0.8592263698
 21
2.0621162628
 31
0.0
 11
0.8839840053
 21
2.0640099106
 31
0.0
 11
0.9075447653
 21
2.0694728143
 31
0.0
 11
0.9080906028
 21
2.0696469409
 31
0.0
  0
SPLINE
  5
27E
100
AcDbEntity
  8
SUPERFICI
100
AcDbSpline
 62
7
  6
CONTINUOUS
 70
0
 71
3
 72
23
 73
19
 74
17
 42
0.0000001
 43
0.0000001
 44
0.0000000001
 12
0.0050023624
 22
-0.5863939961
 32
0.0
 13
0.5245058187
 23
-0.2622529093
 33
0.0
 40
0.0
 40
0.0
 40
0.0
 40
0.0
 40
0.0588746881
 40
0.1200732194
 40
0.182993635
 40
0.2470407248
 40
0.312222504
 40
0.3784863542
 40
0.4451159188
 40
0.5113866937
 40
0.57724911
 40
0.6426682154
 40
0.706973736
 40
0.7694897191
 40
0.8301887206
 40
0.8891436894
 40
0.945904789
 40
1.0
 40
1.0
 40
1.0
 40
1.0
 10
-5.404723783
 20
5.5101441637
 30
0.0
 10
-5.4046256122
 20
5.4986362425
 30
0.0
 10
-5.4034726428
 20
5.4751661431
 30
0.0
 10
-5.3990785607
 20
5.4396380273
 30
0.0
 10
-5.3920377634
 20
5.4035080963
 30
0.0
 10
-5.3824461777
 20
5.3671673432
 30
0.0
 10
-5.3703889286
 20
5.3308804525
 30
0.0
 10
-5.3559522056
 20
5.2949289894
 30
0.0
 10
-5.3392917676
 20
5.2597173309
 30
0.0
 10
-5.3206031451
 20
5.2256287202
 30
0.0
 10
-5.3000388603
 20
5.1929163862
 30
0.0
 10
-5.2777442022
 20
5.161828063
 30
0.0
 10
-5.2539518479
 20
5.1327086488
 30
0.0
 10
-5.2289343202
 20
5.1058810469
 30
0.0
 10
-5.2028944827
 20
5.0815491035
 30
0.0
 10
-5.1760106429
 20
5.0598977977
 30
0.0
 10
-5.1485581307
 20
5.0411757377
 30
0.0
 10
-5.1296375082
 20
5.0305408004
 30
0.0
 10
-5.1201797572
 20
5.0258119249
 30
0.0
 11
-5.404723783
 21
5.5101441637
 31
0.0
 11
-5.4030789746
 21
5.4756583464
 31
0.0
 11
-5.3987153904
 21
5.4400368607
 31
0.0
 11
-5.3916901782
 21
5.4038143313
 31
0.0
 11
-5.3821295649
 21
5.3674933632
 31
0.0
 11
-5.3700933672
 21
5.3312142626
 31
0.0
 11
-5.3556231205
 21
5.2951508902
 31
0.0
 11
-5.3389152471
 21
5.2598307132
 31
0.0
 11
-5.3202300239
 21
5.2257553129
 31
0.0
 11
-5.2996658243
 21
5.1930623621
 31
0.0
 11
-5.277294786
 21
5.1618976626
 31
0.0
 11
-5.2534157551
 21
5.132711765
 31
0.0
 11
-5.2283896209
 21
5.1059223553
 31
0.0
 11
-5.2023542908
 21
5.0816498778
 31
0.0
 11
-5.1753977287
 21
5.0600033147
 31
0.0
 11
-5.1478652292
 21
5.0412979345
 31
0.0
 11
-5.1201797572
 21
5.0258119249
 31
0.0
  0
SPLINE
  5
27F
100
AcDbEntity
  8
SUPERFICI
100
AcDbSpline
 62
7
  6
CONTINUOUS
 70
0
 71
3
 72
15
 73
11
 74
9
 42
0.0000001
 43
0.0000001
 44
0.0000000001
 12
-0.1732073616
 22
0.0728301409
 32
0.0
 13
-0.1530469811
 23
-0.109166713
 33
0.0
 40
0.0
 40
0.0
 40
0.0
 40
0.0
 40
0.0528334565
 40
0.2065929842
 40
0.3525055554
 40
0.4908344317
 40
0.6236048922
 40
0.7529890011
 40
0.8801971703
 40
1.0
 40
1.0
 40
1.0
 40
1.0
 10
-5.1522172714
 20
6.9323518566
 30
0.0
 10
-5.1552676526
 20
6.9336344793
 30
0.0
 10
-5.1672802144
 20
6.9384492784
 30
0.0
 10
-5.1883216316
 20
6.9452401026
 30
0.0
 10
-5.2152866327
 20
6.9505760478
 30
0.0
 10
-5.2414118637
 20
6.9523167763
 30
0.0
 10
-5.2665020031
 20
6.9504517651
 30
0.0
 10
-5.2903522843
 20
6.9449637127
 30
0.0
 10
-5.312274099
 20
6.9360483353
 30
0.0
 10
-5.3255531987
 20
6.9280059949
 30
0.0
 10
-5.3316650192
 20
6.9236465012
 30
0.0
 11
-5.1522172714
 21
6.9323518566
 31
0.0
 11
-5.1614326392
 21
6.9360425196
 31
0.0
 11
-5.1889377726
 21
6.9448325545
 31
0.0
 11
-5.2158347722
 21
6.9500685991
 31
0.0
 11
-5.2417601604
 21
6.951716651
 31
0.0
 11
-5.2666203551
 21
6.949801354
 31
0.0
 11
-5.2902889902
 21
6.9443073029
 31
0.0
 11
-5.3124117539
 21
6.9352916909
 31
0.0
 11
-5.3316650192
 21
6.9236465012
 31
0.0
  0
SPLINE
  5
280
100
AcDbEntity
  8
SUPERFICI
100
AcDbSpline
 62
7
  6
CONTINUOUS
 70
0
 71
3
 72
17
 73
13
 74
11
 42
0.0000001
 43
0.0000001
 44
0.0000000001
 12
0.2273417316
 22
0.0856693656
 32
0.0
 13
0.0111970305
 23
0.2425098177
 33
0.0
 40
0.0
 40
0.0
 40
0.0
 40
0.0
 40
0.0652126785
 40
0.1626072031
 40
0.2615230591
 40
0.3639946412
 40
0.4708459654
 40
0.5824429105
 40
0.6998578759
 40
0.8241796903
 40
0.9551183871
 40
1.0
 40
1.0
 40
1.0
 40
1.0
 10
0.9150612502
 20
2.0720776772
 30
0.0
 10
0.9200031046
 20
2.0739399201
 30
0.0
 10
0.9320776127
 20
2.0792419913
 30
0.0
 10
0.9501959207
 20
2.0903418652
 30
0.0
 10
0.9686029516
 20
2.106157777
 30
0.0
 10
0.9848754338
 20
2.1251707899
 30
0.0
 10
0.9988253953
 20
2.1471596502
 30
0.0
 10
1.0103183941
 20
2.1718535878
 30
0.0
 10
1.0192908708
 20
2.1990525406
 30
0.0
 10
1.0256730153
 20
2.2285684687
 30
0.0
 10
1.0285158971
 20
2.2527134517
 30
0.0
 10
1.0293707511
 20
2.2669172985
 30
0.0
 10
1.0295382647
 20
2.2705453757
 30
0.0
 11
0.9150612502
 21
2.0720776772
 31
0.0
 11
0.9295577972
 21
2.0784499077
 31
0.0
 11
0.9497197615
 21
2.0907842398
 31
0.0
 11
0.9679556158
 21
2.1063945806
 31
0.0
 11
0.9841765359
 21
2.1252435291
 31
0.0
 11
0.9981356895
 21
2.1470961043
 31
0.0
 11
1.0096393664
 21
2.1716136726
 31
0.0
 11
1.0186439226
 21
2.1986475854
 31
0.0
 11
1.0250962885
 21
2.2281198004
 31
0.0
 11
1.0288815014
 21
2.2596695793
 31
0.0
 11
1.0295382647
 21
2.2705453757
 31
0.0
  0
SPLINE
  5
281
100
AcDbEntity
  8
SUPERFICI
100
AcDbSpline
 62
7
  6
CONTINUOUS
 70
0
 71
3
 72
23
 73
19
 74
17
 42
0.0000001
 43
0.0000001
 44
0.0000000001
 12
-0.0315079352
 22
0.5422869819
 32
0.0
 13
-0.4700604437
 23
0.2723853472
 33
0.0
 40
0.0
 40
0.0
 40
0.0
 40
0.0
 40
0.0214483204
 40
0.0875044768
 40
0.1554419972
 40
0.2246157097
 40
0.2950273187
 40
0.366626824
 40
0.4386400292
 40
0.5102828191
 40
0.5814928787
 40
0.6522353554
 40
0.7217819344
 40
0.7893981303
 40
0.8550476592
 40
0.9188089648
 40
0.9801943443
 40
1.0
 40
1.0
 40
1.0
 40
1.0
 10
1.0202774494
 20
3.5262295881
 30
0.0
 10
1.0200521853
 20
3.5301066364
 30
0.0
 10
1.0189318999
 20
3.5459129391
 30
0.0
 10
1.0155413636
 20
3.5738665583
 30
0.0
 10
1.0085869078
 20
3.6100064165
 30
0.0
 10
0.9990794484
 20
3.6463724782
 30
0.0
 10
0.9871017978
 20
3.6826987927
 30
0.0
 10
0.9727377731
 20
3.7187026232
 30
0.0
 10
0.9561400531
 20
3.7539788277
 30
0.0
 10
0.9375024934
 20
3.7881405172
 30
0.0
 10
0.916976449
 20
3.8209314244
 30
0.0
 10
0.8947067059
 20
3.8521002991
 30
0.0
 10
0.8709252389
 20
3.8812991278
 30
0.0
 10
0.845905657
 20
3.9082006305
 30
0.0
 10
0.819852416
 20
3.9325976209
 30
0.0
 10
0.7929457625
 20
3.9543024853
 30
0.0
 10
0.7712533116
 20
3.9691117722
 30
0.0
 10
0.7586420573
 20
3.976675211
 30
0.0
 10
0.7555387722
 20
3.9784734678
 30
0.0
 11
1.0202774494
 21
3.5262295881
 31
0.0
 11
1.0194556309
 21
3.537851026
 31
0.0
 11
1.015178018
 21
3.5734646957
 31
0.0
 11
1.0082392812
 21
3.6096975385
 31
0.0
 11
0.9987624259
 21
3.6460449326
 31
0.0
 11
0.986806179
 21
3.6823621858
 31
0.0
 11
0.9724088188
 21
3.7184780181
 31
0.0
 11
0.9557637347
 21
3.7538630057
 31
0.0
 11
0.9371287458
 21
3.7880127164
 31
0.0
 11
0.9166029802
 21
3.8207835986
 31
0.0
 11
0.8942564707
 21
3.8520293911
 31
0.0
 11
0.8703878715
 21
3.8812951665
 31
0.0
 11
0.8453587882
 21
3.9081590171
 31
0.0
 11
0.8193099537
 21
3.9324961898
 31
0.0
 11
0.7923303715
 21
3.9541961661
 31
0.0
 11
0.7647673873
 21
3.9729416432
 31
0.0
 11
0.7555387722
 21
3.9784734678
 31
0.0
  0
LINE
  5
282
100
AcDbEntity
  8
SUPERFICI
100
AcDbLine
 62
7
  6
CONTINUOUS
 10
1.0299479258
 20
2.2928083093
 11
1.0284494127
 21
2.4720660713
  0
LINE
  5
283
100
AcDbEntity
  8
SUPERFICI
100
AcDbLine
 62
7
  6
CONTINUOUS
 10
1.0284494127
 20
2.4720660713
 11
1.0280843355
 21
2.5168849257
  0
LINE
  5
284
100
AcDbEntity
  8
SUPERFICI
100
AcDbLine
 62
7
  6
CONTINUOUS
 10
1.0280843355
 20
2.5168849257
 11
1.0266622298
 21
2.6961779586
  0
LINE
  5
285
100
AcDbEntity
  8
SUPERFICI
100
AcDbLine
 62
7
  6
CONTINUOUS
 10
1.0266622298
 20
2.6961779586
 11
1.0253011954
 21
2.8755060908
  0
LINE
  5
286
100
AcDbEntity
  8
SUPERFICI
100
AcDbLine
 62
7
  6
CONTINUOUS
 10
1.0253011954
 20
2.8755060908
 11
1.0249704875
 21
2.9203425274
  0
LINE
  5
287
100
AcDbEntity
  8
SUPERFICI
100
AcDbLine
 62
7
  6
CONTINUOUS
 10
1.0249704875
 20
2.9203425274
 11
1.0236858582
 21
3.0997058434
  0
LINE
  5
288
100
AcDbEntity
  8
SUPERFICI
100
AcDbLine
 62
7
  6
CONTINUOUS
 10
1.0236858582
 20
3.0997058434
 11
1.0224623035
 21
3.2791042013
  0
LINE
  5
289
100
AcDbEntity
  8
SUPERFICI
100
AcDbLine
 62
7
  6
CONTINUOUS
 10
1.0224623035
 20
3.2791042013
 11
1.0221659653
 21
3.3239581833
  0
LINE
  5
28A
100
AcDbEntity
  8
SUPERFICI
100
AcDbLine
 62
7
  6
CONTINUOUS
 10
1.0221659653
 20
3.3239581833
 11
1.0210188134
 21
3.5033916378
  0
SPLINE
  5
28B
100
AcDbEntity
  8
RACCORDO
100
AcDbSpline
 62
7
  6
CONTINUOUS
 70
0
 71
3
 72
15
 73
11
 74
9
 42
0.0000001
 43
0.0000001
 44
0.0000000001
 12
0.1696235192
 22
0.1209906019
 32
0.0
 13
0.18616337
 23
-0.093081685
 33
0.0
 40
0.0
 40
0.0
 40
0.0
 40
0.0
 40
0.1081411329
 40
0.2229400458
 40
0.3397312535
 40
0.459601248
 40
0.584464367
 40
0.7161066524
 40
0.8547623222
 40
1.0
 40
1.0
 40
1.0
 40
1.0
 10
-5.3316650178
 20
6.9236465026
 30
0.0
 10
-5.3255505913
 20
6.9280078562
 30
0.0
 10
-5.312267127
 20
6.9360522499
 30
0.0
 10
-5.2903368522
 20
6.9449689981
 30
0.0
 10
-5.2664757576
 20
6.9504563418
 30
0.0
 10
-5.2413727985
 20
6.9523174061
 30
0.0
 10
-5.215239904
 20
6.9505698831
 30
0.0
 10
-5.1882786276
 20
6.9452283936
 30
0.0
 10
-5.1607898542
 20
6.9363520814
 30
0.0
 10
-5.1427500274
 20
6.9283516331
 30
0.0
 10
-5.1337373822
 20
6.9238453105
 30
0.0
 11
-5.3316650178
 21
6.9236465026
 31
0.0
 11
-5.3124031806
 21
6.9352960215
 31
0.0
 11
-5.2902754221
 21
6.9443116018
 31
0.0
 11
-5.2665957271
 21
6.9498051033
 31
0.0
 11
-5.2417197015
 21
6.9517168597
 31
0.0
 11
-5.2157838126
 21
6.9500619704
 31
0.0
 11
-5.1888902366
 21
6.9448202978
 31
0.0
 11
-5.161401903
 21
6.936030824
 31
0.0
 11
-5.1337373822
 21
6.9238453105
 31
0.0
  0
SPLINE
  5
28C
100
AcDbEntity
  8
RACCORDO
100
AcDbSpline
 62
7
  6
CONTINUOUS
 70
0
 71
3
 72
17
 73
13
 74
11
 42
0.0000001
 43
0.0000001
 44
0.0000000001
 12
0.002322982
 22
-0.2723078731
 32
0.0
 13
-0.2595482812
 23
-0.0833478641
 33
0.0
 40
0.0
 40
0.0
 40
0.0
 40
0.0
 40
0.1215910421
 40
0.2382115935
 40
0.3490473415
 40
0.4537496329
 40
0.5532322124
 40
0.6484805119
 40
0.7398428647
 40
0.8280303749
 40
0.9148420727
 40
1.0
 40
1.0
 40
1.0
 40
1.0
 10
1.0299479258
 20
2.2928083092
 30
0.0
 10
1.030042077
 20
2.2817715765
 30
0.0
 10
1.0293864982
 20
2.2601295187
 30
0.0
 10
1.0256813993
 20
2.2286204663
 30
0.0
 10
1.0193039848
 20
2.199099308
 30
0.0
 10
1.0103318386
 20
2.1718864238
 30
0.0
 10
0.9988371796
 20
2.1471806594
 30
0.0
 10
0.9848845431
 20
2.1251824371
 30
0.0
 10
0.9686068076
 20
2.1061608488
 30
0.0
 10
0.9501927963
 20
2.0903390747
 30
0.0
 10
0.9299670894
 20
2.0779497307
 30
0.0
 10
0.9154581348
 20
2.0720128523
 30
0.0
 10
0.9080906036
 20
2.0696469418
 30
0.0
 11
1.0299479258
 21
2.2928083092
 31
0.0
 11
1.0288848214
 21
2.2597139773
 31
0.0
 11
1.025106668
 21
2.2281816672
 31
0.0
 11
1.0186572404
 21
2.1986962317
 31
0.0
 11
1.0096512783
 21
2.1716436227
 31
0.0
 11
0.998147017
 21
2.1471167497
 31
0.0
 11
0.9841862283
 21
2.1252566002
 31
0.0
 11
0.9679586722
 21
2.1063976347
 31
0.0
 11
0.9497149386
 21
2.0907807299
 31
0.0
 11
0.9295481852
 21
2.078445046
 31
0.0
 11
0.9080906036
 21
2.0696469418
 31
0.0
  0
SPLINE
  5
28D
100
AcDbEntity
  8
RACCORDO
100
AcDbSpline
 62
7
  6
CONTINUOUS
 70
0
 71
3
 72
23
 73
19
 74
17
 42
0.0000001
 43
0.0000001
 44
0.0000000001
 12
0.5249182302
 22
-0.2624591151
 32
0.0
 13
0.0036517027
 23
-0.5868650616
 33
0.0
 40
0.0
 40
0.0
 40
0.0
 40
0.0
 40
0.0540534394
 40
0.1108095711
 40
0.1698178519
 40
0.2305904547
 40
0.293167576
 40
0.3575314641
 40
0.4230178089
 40
0.4889353731
 40
0.5552387648
 40
0.6218827833
 40
0.6881587177
 40
0.7533442148
 40
0.8173672924
 40
0.8802128772
 40
0.9412902139
 40
1.0
 40
1.0
 40
1.0
 40
1.0
 10
0.7370464671
 20
3.9884533859
 30
0.0
 10
0.7465043456
 20
3.9837244466
 30
0.0
 10
0.7654309333
 20
3.9730836623
 30
0.0
 10
0.7928997968
 20
3.9543364929
 30
0.0
 10
0.8198094732
 20
3.9326354651
 30
0.0
 10
0.8458731654
 20
3.9082337167
 30
0.0
 10
0.8709024208
 20
3.881325667
 30
0.0
 10
0.8946927726
 20
3.852119043
 30
0.0
 10
0.9169718913
 20
3.8209388829
 30
0.0
 10
0.9375056795
 20
3.7881355768
 30
0.0
 10
0.9561478562
 20
3.7539638008
 30
0.0
 10
0.9727489874
 20
3.7186773995
 30
0.0
 10
0.9871166859
 20
3.68265904
 30
0.0
 10
0.9990963848
 20
3.6463164389
 30
0.0
 10
1.0086016723
 20
3.6099416724
 30
0.0
 10
1.0155501774
 20
3.5738082713
 30
0.0
 10
1.0198518387
 20
3.538311709
 30
0.0
 10
1.0209473498
 20
3.5148765454
 30
0.0
 10
1.0210188134
 20
3.5033916379
 30
0.0
 11
0.7370464671
 21
3.9884533859
 31
0.0
 11
0.7647307335
 21
3.9729643446
 31
0.0
 11
0.7922760491
 21
3.954236448
 31
0.0
 11
0.8192642349
 21
3.9325358923
 31
0.0
 11
0.8453281562
 21
3.9081897197
 31
0.0
 11
0.8703648102
 21
3.8813216289
 31
0.0
 11
0.8942404147
 21
3.8520504141
 31
0.0
 11
0.9165982787
 21
3.8207906211
 31
0.0
 11
0.9371331482
 21
3.7880051932
 31
0.0
 11
0.9557715796
 21
3.7538475494
 31
0.0
 11
0.9724186604
 21
3.718455349
 31
0.0
 11
0.9868200958
 21
3.6823239138
 31
0.0
 11
0.9987799163
 21
3.6459856237
 31
0.0
 11
1.0082553811
 21
3.6096263939
 31
0.0
 11
1.0151879312
 21
3.5734011907
 31
0.0
 11
1.0194589012
 21
3.5378116978
 31
0.0
 11
1.0210188134
 21
3.5033916379
 31
0.0
  0
SPLINE
  5
28E
100
AcDbEntity
  8
RACCORDO
100
AcDbSpline
 62
253
  6
CONTINUOUS
 70
0
 71
3
 72
14
 73
10
 74
8
 42
0.0000001
 43
0.0000001
 44
0.0000000001
 12
0.1079759423
 22
0.059107575
 32
0.0
 13
0.1114318115
 23
-0.0519160149
 33
0.0
 40
0.0
 40
0.0
 40
0.0
 40
0.0
 40
0.0441160084
 40
0.1884254707
 40
0.3362174592
 40
0.4897860629
 40
0.6509086686
 40
0.8207758232
 40
1.0
 40
1.0
 40
1.0
 40
1.0
 10
-17.4773811338
 20
16.1962900431
 30
0.0
 10
-17.4757933113
 20
16.1971592398
 30
0.0
 10
-17.4689099608
 20
16.2006858495
 30
0.0
 10
-17.4559281734
 20
16.205511478
 30
0.0
 10
-17.4378822334
 20
16.2088335802
 30
0.0
 10
-17.4188578222
 20
16.2092011231
 30
0.0
 10
-17.3991019128
 20
16.2066312537
 30
0.0
 10
-17.3788629119
 20
16.2011764036
 30
0.0
 10
-17.3655632052
 20
16.1958115876
 30
0.0
 10
-17.3589061136
 20
16.1927100526
 30
0.0
 11
-17.4773811338
 21
16.1962900431
 31
0.0
 11
-17.472548629
 21
16.1987655382
 31
0.0
 11
-17.4559285746
 21
16.2049696675
 31
0.0
 11
-17.4380694868
 21
16.208307846
 31
0.0
 11
-17.4191958671
 21
16.2087381104
 31
0.0
 11
-17.3995449703
 21
16.2062550521
 31
0.0
 11
-17.379363822
 21
16.2008898849
 31
0.0
 11
-17.3589061136
 21
16.1927100526
 31
0.0
  0
SPLINE
  5
28F
100
AcDbEntity
  8
0
100
AcDbSpline
 62
253
  6
CONTINUOUS
 70
0
 71
3
 72
16
 73
12
 74
10
 42
0.0000001
 43
0.0000001
 44
0.0000000001
 12
0.0036161431
 22
-0.2418106431
 32
0.0
 13
0.2159330074
 23
-0.1081392174
 33
0.0
 40
0.0
 40
0.0
 40
0.0
 40
0.0
 40
0.0103930778
 40
0.112579259
 40
0.2175952946
 40
0.3277075654
 40
0.4447150983
 40
0.5698908686
 40
0.7040051974
 40
0.8473880294
 40
1.0
 40
1.0
 40
1.0
 40
1.0
 10
-17.6130428695
 20
8.0405894436
 30
0.0
 10
-17.6130303419
 20
8.0397517246
 30
0.0
 10
-17.6128072314
 20
8.0306788287
 30
0.0
 10
-17.6105379759
 20
8.0132064475
 30
0.0
 10
-17.6026411969
 20
7.9887738002
 30
0.0
 10
-17.59019614
 20
7.9649808456
 30
0.0
 10
-17.5733642626
 20
7.9420393033
 30
0.0
 10
-17.5523283672
 20
7.9201369579
 30
0.0
 10
-17.5272917322
 20
7.8994502715
 30
0.0
 10
-17.4984869557
 20
7.8801511308
 30
0.0
 10
-17.477574258
 20
7.86866547
 30
0.0
 10
-17.4665896041
 20
7.8631643569
 30
0.0
 11
-17.6130428695
 21
8.0405894436
 31
0.0
 11
-17.6129810431
 21
8.0380768254
 31
0.0
 11
-17.6098388981
 21
8.0135999521
 31
0.0
 11
-17.6021229412
 21
7.9894410791
 31
0.0
 11
-17.5899042185
 21
7.9658226537
 31
0.0
 11
-17.5732952359
 21
7.9429621466
 31
0.0
 11
-17.5524489238
 21
7.9210700501
 31
0.0
 11
-17.5275572283
 21
7.9003479396
 31
0.0
 11
-17.4988493441
 21
7.8809866176
 31
0.0
 11
-17.4665896041
 21
7.8631643569
 31
0.0
  0
SPLINE
  5
290
100
AcDbEntity
  8
0
100
AcDbSpline
 62
253
  6
CONTINUOUS
 70
0
 71
3
 72
15
 73
11
 74
9
 42
0.0000001
 43
0.0000001
 44
0.0000000001
 12
0.0375366471
 22
-0.2295377124
 32
0.0
 13
0.2073415345
 23
-0.1048162105
 33
0.0
 40
0.0
 40
0.0
 40
0.0
 40
0.0
 40
0.029769831
 40
0.1523888438
 40
0.2779973496
 40
0.4083654372
 40
0.5449145327
 40
0.6886722944
 40
0.8402752851
 40
1.0
 40
1.0
 40
1.0
 40
1.0
 10
-16.9367137883
 20
-1.7435016512
 30
0.0
 10
-16.9363413018
 20
-1.7457794175
 30
0.0
 10
-16.9342023022
 20
-1.7574009094
 30
0.0
 10
-16.9281408726
 20
-1.7781565716
 30
0.0
 10
-16.9155429809
 20
-1.8047593611
 30
0.0
 10
-16.8985600448
 20
-1.8300948073
 30
0.0
 10
-16.8773767069
 20
-1.853935796
 30
0.0
 10
-16.8522050803
 20
-1.8760782098
 30
0.0
 10
-16.8232881052
 20
-1.8963331546
 30
0.0
 10
-16.8022301858
 20
-1.9081602641
 30
0.0
 10
-16.7911909966
 20
-1.9137408438
 30
0.0
 11
-16.9367137883
 21
-1.7435016512
 31
0.0
 11
-16.9354604029
 21
-1.7503107274
 31
0.0
 11
-16.9275112188
 21
-1.7776672021
 31
0.0
 11
-16.9150855801
 21
-1.804072214
 31
0.0
 11
-16.8982979553
 21
-1.8292825128
 31
0.0
 11
-16.8773029967
 21
-1.8530658541
 31
0.0
 11
-16.8522941157
 21
-1.8752031392
 31
0.0
 11
-16.8235017011
 21
-1.8954904332
 31
0.0
 11
-16.7911909966
 21
-1.9137408438
 31
0.0
  0
LINE
  5
291
100
AcDbEntity
  8
0
100
AcDbLine
 62
253
  6
CONTINUOUS
 10
-16.5435995869
 20
-2.3272565852
 11
-16.5438952331
 21
-2.3271086132
  0
SPLINE
  5
292
100
AcDbEntity
  8
0
100
AcDbSpline
 62
253
  6
CONTINUOUS
 70
0
 71
3
 72
15
 73
11
 74
9
 42
0.0000001
 43
0.0000001
 44
0.0000000001
 12
-0.3642488031
 22
0.2579223609
 32
0.0
 13
-0.0570769293
 23
0.44233646
 33
0.0
 40
0.0
 40
0.0
 40
0.0
 40
0.0
 40
0.1104540836
 40
0.223556298
 40
0.3402911134
 40
0.4614654145
 40
0.5876925787
 40
0.7193943431
 40
0.856805535
 40
1.0
 40
1.0
 40
1.0
 40
1.0
 10
-16.5913481523
 20
-2.2986199398
 30
0.0
 10
-16.6047590748
 20
-2.2891237471
 30
0.0
 10
-16.6306195445
 20
-2.2680984956
 30
0.0
 10
-16.6656034708
 20
-2.2313755602
 30
0.0
 10
-16.696887497
 20
-2.1894625581
 30
0.0
 10
-16.7242812317
 20
-2.1426489973
 30
0.0
 10
-16.7476226998
 20
-2.0912483952
 30
0.0
 10
-16.7667756198
 20
-2.0355962142
 30
0.0
 10
-16.7816281101
 20
-1.97605564
 30
0.0
 10
-16.78846663
 20
-1.9348542216
 30
0.0
 10
-16.7911909968
 20
-1.913740844
 30
0.0
 11
-16.5913481523
 21
-2.2986199398
 31
0.0
 11
-16.6296107649
 21
-2.2675907765
 31
0.0
 11
-16.6644685997
 21
-2.2311280647
 31
0.0
 11
-16.6956958844
 21
-2.1894683279
 31
0.0
 11
-16.7230904423
 21
-2.1428817141
 31
0.0
 11
-16.7464749349
 21
-2.0916703276
 31
0.0
 11
-16.7656982535
 21
-2.0361654612
 31
0.0
 11
-16.7806357029
 21
-1.9767278089
 31
0.0
 11
-16.7911909968
 21
-1.913740844
 31
0.0
  0
SPLINE
  5
293
100
AcDbEntity
  8
RACCORDO
100
AcDbSpline
 62
253
  6
CONTINUOUS
 70
0
 71
3
 72
24
 73
20
 74
18
 42
0.0000001
 43
0.0000001
 44
0.0000000001
 12
-0.3225383182
 22
-0.1537130115
 32
0.0
 13
-0.3195746748
 23
0.1597832403
 33
0.0
 40
0.0
 40
0.0
 40
0.0
 40
0.0
 40
0.0524730889
 40
0.1073724184
 40
0.164442622
 40
0.2233961642
 40
0.283914619
 40
0.3456553533
 40
0.4082554946
 40
0.4713401437
 40
0.5345269365
 40
0.5974328202
 40
0.6596779188
 40
0.7208925822
 40
0.7807219467
 40
0.8388342871
 40
0.894925227
 40
0.9487248433
 40
1.0
 40
1.0
 40
1.0
 40
1.0
 10
13.6377707437
 20
0.694371624
 30
0.0
 10
13.6321292164
 20
0.6916830251
 30
0.0
 10
13.620387187
 20
0.6865900377
 30
0.0
 10
13.6019548468
 20
0.6799384098
 30
0.0
 10
13.5824289741
 20
0.6741445374
 30
0.0
 10
13.5619695107
 20
0.6692563146
 30
0.0
 10
13.5407417092
 20
0.6653131595
 30
0.0
 10
13.5189176361
 20
0.6623471819
 30
0.0
 10
13.4966742405
 20
0.6603825066
 30
0.0
 10
13.4741921586
 20
0.6594351549
 30
0.0
 10
13.4516538835
 20
0.6595128392
 30
0.0
 10
13.4292424409
 20
0.6606149202
 30
0.0
 10
13.4071397391
 20
0.6627324117
 30
0.0
 10
13.3855252346
 20
0.6658480382
 30
0.0
 10
13.364574093
 20
0.6699364629
 30
0.0
 10
13.3444560349
 20
0.6749644173
 30
0.0
 10
13.3253333731
 20
0.6808914307
 30
0.0
 10
13.3073626223
 20
0.6876685956
 30
0.0
 10
13.295957702
 20
0.6928485926
 30
0.0
 10
13.2904956215
 20
0.6955795628
 30
0.0
 11
13.6377707437
 21
0.694371624
 31
0.0
 11
13.6205824615
 21
0.6868842011
 31
0.0
 11
13.6021403614
 21
0.6802025837
 31
0.0
 11
13.5825977435
 21
0.6743826722
 31
0.0
 11
13.5621144159
 21
0.66947212
 31
0.0
 11
13.5408574881
 21
0.6655109677
 31
0.0
 11
13.5190000623
 21
0.6625314873
 31
0.0
 11
13.4967206691
 21
0.6605580302
 31
0.0
 11
13.4742010185
 21
0.659606693
 31
0.0
 11
13.4516249238
 21
0.6596852365
 31
0.0
 11
13.4291763761
 21
0.6607930205
 31
0.0
 11
13.4070386466
 21
0.6629210027
 31
0.0
 11
13.3853922852
 21
0.6660518214
 31
0.0
 11
13.3644140889
 21
0.6701598852
 31
0.0
 11
13.3442748774
 21
0.6752117242
 31
0.0
 11
13.3251389491
 21
0.6811661416
 31
0.0
 11
13.3071627742
 21
0.6879743859
 31
0.0
 11
13.2904956215
 21
0.6955795628
 31
0.0
  0
SPLINE
  5
294
100
AcDbEntity
  8
RACCORDO
100
AcDbSpline
 62
253
  6
CONTINUOUS
 70
0
 71
3
 72
24
 73
20
 74
18
 42
0.0000001
 43
0.0000001
 44
0.0000000001
 12
-0.2109636275
 22
0.1054845185
 32
0.0
 13
0.206907066
 23
0.11323472
 33
0.0
 40
0.0
 40
0.0
 40
0.0
 40
0.0
 40
0.073604999
 40
0.1429946744
 40
0.2081158634
 40
0.2690715761
 40
0.326139588
 40
0.3797983211
 40
0.4307418959
 40
0.4798748912
 40
0.5282642816
 40
0.5770507795
 40
0.6273350143
 40
0.6800785173
 40
0.7360420195
 40
0.7957693816
 40
0.8595969972
 40
0.9276778407
 40
1.0
 40
1.0
 40
1.0
 40
1.0
 10
-17.3528432951
 20
16.0172490211
 30
0.0
 10
-17.3580192876
 20
16.0198370838
 30
0.0
 10
-17.3679023143
 20
16.0252232268
 30
0.0
 10
-17.3816017398
 20
16.0342064454
 30
0.0
 10
-17.3936435861
 20
16.043794471
 30
0.0
 10
-17.4039283473
 20
16.053915099
 30
0.0
 10
-17.4123699398
 20
16.0644949131
 30
0.0
 10
-17.4188913792
 20
16.0754573466
 30
0.0
 10
-17.423424089
 20
16.086719166
 30
0.0
 10
-17.4259106344
 20
16.0981847287
 30
0.0
 10
-17.4263139349
 20
16.1097432573
 30
0.0
 10
-17.4246278894
 20
16.1212750654
 30
0.0
 10
-17.4208793589
 20
16.1326650991
 30
0.0
 10
-17.4151193225
 20
16.1438122973
 30
0.0
 10
-17.407412264
 20
16.1546293249
 30
0.0
 10
-17.397831481
 20
16.1650370176
 30
0.0
 10
-17.3864588895
 20
16.1749600211
 30
0.0
 10
-17.3733894234
 20
16.1843239913
 30
0.0
 10
-17.3638941022
 20
16.1899802595
 30
0.0
 10
-17.3589061136
 20
16.1927100526
 30
0.0
 11
-17.3528432951
 21
16.0172490211
 31
0.0
 11
-17.3680690549
 21
16.0255903004
 31
0.0
 11
-17.3817316478
 21
16.03460144
 31
0.0
 11
-17.3937169103
 21
16.044207618
 31
0.0
 11
-17.4039267156
 21
16.0543302874
 31
0.0
 11
-17.4122778041
 21
16.064886866
 31
0.0
 11
-17.4187021374
 21
16.0757913947
 31
0.0
 11
-17.4231472043
 21
16.0869548107
 31
0.0
 11
-17.4255767393
 21
16.098286068
 31
0.0
 11
-17.4259709107
 21
16.1096926576
 31
0.0
 11
-17.4243265062
 21
16.1210816179
 31
0.0
 11
-17.4206569393
 21
16.1323599881
 31
0.0
 11
-17.4149921412
 21
16.1434357824
 31
0.0
 11
-17.4073784115
 21
16.1542185338
 31
0.0
 11
-17.3978777813
 21
16.1646204346
 31
0.0
 11
-17.3865677176
 21
16.1745566232
 31
0.0
 11
-17.3735408291
 21
16.1839458465
 31
0.0
 11
-17.3589061136
 21
16.1927100526
 31
0.0
  0
SPLINE
  5
295
100
AcDbEntity
  8
RACCORDO
100
AcDbSpline
 62
7
  6
CONTINUOUS
 70
0
 71
3
 72
23
 73
19
 74
17
 42
0.0000001
 43
0.0000001
 44
0.0000000001
 12
-0.4697235934
 22
0.2720556507
 32
0.0
 13
-0.0327478609
 23
0.5417582291
 33
0.0
 40
0.0
 40
0.0
 40
0.0
 40
0.0
 40
0.0197112377
 40
0.0810136604
 40
0.1447474378
 40
0.2103855487
 40
0.2779702474
 40
0.3474889991
 40
0.4182279689
 40
0.4894443216
 40
0.5610860775
 40
0.6331136178
 40
0.7047627447
 40
0.7752532483
 40
0.8445006569
 40
0.9124937506
 40
0.9785939253
 40
1.0
 40
1.0
 40
1.0
 40
1.0
 10
-5.1386478473
 20
5.0357761986
 30
0.0
 10
-5.1417341251
 20
5.0375637165
 30
0.0
 10
-5.1543097158
 20
5.0451000977
 30
0.0
 10
-5.1759625359
 20
5.0598622435
 30
0.0
 10
-5.2028496837
 20
5.081509696
 30
0.0
 10
-5.228900477
 20
5.1058466661
 30
0.0
 10
-5.2539280177
 20
5.1326810216
 30
0.0
 10
-5.2777293168
 20
5.1618081476
 30
0.0
 10
-5.3000332601
 20
5.1929074221
 30
0.0
 10
-5.3206051458
 20
5.2256316431
 30
0.0
 10
-5.3392982853
 20
5.2597297837
 30
0.0
 10
-5.3559621782
 20
5.2949512321
 30
0.0
 10
-5.3704028532
 20
5.3309172741
 30
0.0
 10
-5.3824626479
 20
5.3672212496
 30
0.0
 10
-5.3920525584
 20
5.4035721068
 30
0.0
 10
-5.3990876426
 20
5.4396969415
 30
0.0
 10
-5.4025393083
 20
5.4676297945
 30
0.0
 10
-5.403694948
 20
5.4834205674
 30
0.0
 10
-5.4039286157
 20
5.4872862064
 30
0.0
 11
-5.1386478473
 21
5.0357761986
 31
0.0
 11
-5.1478265605
 21
5.0412740026
 31
0.0
 11
-5.1753409703
 21
5.0599612826
 31
0.0
 11
-5.2023066039
 21
5.0816085442
 31
0.0
 11
-5.2283577368
 21
5.1058904744
 31
0.0
 11
-5.2533917768
 21
5.1326843305
 31
0.0
 11
-5.2772778447
 21
5.1618755565
 31
0.0
 11
-5.2996601119
 21
5.1930538634
 31
0.0
 11
-5.3202332753
 21
5.225760844
 31
0.0
 11
-5.3389217954
 21
5.2598435477
 31
0.0
 11
-5.3556316512
 21
5.2951704217
 31
0.0
 11
-5.3701062179
 21
5.3312493534
 31
0.0
 11
-5.3821464839
 21
5.3675502469
 31
0.0
 11
-5.3917062932
 21
5.403884773
 31
0.0
 11
-5.3987256171
 21
5.4401013757
 31
0.0
 11
-5.4030824747
 21
5.4756992758
 31
0.0
 11
-5.4039286157
 21
5.4872862064
 31
0.0
  0
SPLINE
  5
296
100
AcDbEntity
  8
RACCORDO
100
AcDbSpline
 62
7
  6
CONTINUOUS
 70
0
 71
3
 72
15
 73
11
 74
9
 42
0.0000001
 43
0.0000001
 44
0.0000000001
 12
0.0098937155
 22
0.203503376
 32
0.0
 13
0.1649862835
 23
0.1197703097
 33
0.0
 40
0.0
 40
0.0
 40
0.0
 40
0.0
 40
0.0532447951
 40
0.2091906884
 40
0.3575194669
 40
0.4977555399
 40
0.6311027592
 40
0.7588815841
 40
0.88153854
 40
1.0
 40
1.0
 40
1.0
 40
1.0
 10
-5.4131906786
 20
6.7429713563
 30
0.0
 10
-5.4130150824
 20
6.7465831881
 30
0.0
 10
-5.4121271914
 20
6.7607641995
 30
0.0
 10
-5.4092258292
 20
6.7848946608
 30
0.0
 10
-5.4027619096
 20
6.8144244811
 30
0.0
 10
-5.3936990866
 20
6.8416581443
 30
0.0
 10
-5.3821092904
 20
6.8663944619
 30
0.0
 10
-5.368057123
 20
6.8884304598
 30
0.0
 10
-5.3516756941
 20
6.9074946872
 30
0.0
 10
-5.3391934787
 20
6.9181877148
 30
0.0
 10
-5.33267864
 20
6.9229171034
 30
0.0
 11
-5.4131906786
 21
6.7429713563
 31
0.0
 11
-5.4125106382
 21
6.7537980963
 31
0.0
 11
-5.4086503855
 21
6.7853238964
 31
0.0
 11
-5.4021151912
 21
6.8148184537
 31
0.0
 11
-5.3930194748
 21
6.8418931032
 31
0.0
 11
-5.3814215255
 21
6.8664507569
 31
0.0
 11
-5.3673616044
 21
6.8883503932
 31
0.0
 11
-5.3510300613
 21
6.9072540624
 31
0.0
 11
-5.33267864
 21
6.9229171034
 31
0.0
  0
LINE
  5
297
100
AcDbEntity
  8
RACCORDO
100
AcDbLine
 62
7
  6
CONTINUOUS
 10
-5.404723783
 20
5.5101441636
 11
-5.4062222961
 21
5.6894019284
  0
LINE
  5
298
100
AcDbEntity
  8
RACCORDO
100
AcDbLine
 62
7
  6
CONTINUOUS
 10
-5.4062222961
 20
5.6894019284
 11
-5.4065873732
 21
5.7342207768
  0
LINE
  5
299
100
AcDbEntity
  8
RACCORDO
100
AcDbLine
 62
7
  6
CONTINUOUS
 10
-5.4065873732
 20
5.7342207768
 11
-5.4080094789
 21
5.9135138085
  0
LINE
  5
29A
100
AcDbEntity
  8
RACCORDO
100
AcDbLine
 62
7
  6
CONTINUOUS
 10
-5.4080094789
 20
5.9135138085
 11
-5.4093705134
 21
6.0928419509
  0
LINE
  5
29B
100
AcDbEntity
  8
RACCORDO
100
AcDbLine
 62
7
  6
CONTINUOUS
 10
-5.4093705134
 20
6.0928419509
 11
-5.4097012211
 21
6.1376783763
  0
LINE
  5
29C
100
AcDbEntity
  8
RACCORDO
100
AcDbLine
 62
7
  6
CONTINUOUS
 10
-5.4097012211
 20
6.1376783763
 11
-5.4109858506
 21
6.3170417024
  0
LINE
  5
29D
100
AcDbEntity
  8
RACCORDO
100
AcDbLine
 62
7
  6
CONTINUOUS
 10
-5.4109858506
 20
6.3170417024
 11
-5.4122094053
 21
6.4964400593
  0
LINE
  5
29E
100
AcDbEntity
  8
RACCORDO
100
AcDbLine
 62
7
  6
CONTINUOUS
 10
-5.4122094053
 20
6.4964400593
 11
-5.4125057434
 21
6.5412940346
  0
LINE
  5
29F
100
AcDbEntity
  8
RACCORDO
100
AcDbLine
 62
7
  6
CONTINUOUS
 10
-5.4125057434
 20
6.5412940346
 11
-5.4136528954
 21
6.7207274923
  0
SPLINE
  5
2A0
100
AcDbEntity
  8
RACCORDO
100
AcDbSpline
 62
7
  6
CONTINUOUS
 70
0
 71
3
 72
14
 73
10
 74
8
 42
0.0000001
 43
0.0000001
 44
0.0000000001
 12
-0.1348742279
 22
-0.0433117058
 32
0.0
 13
-0.1305045418
 23
0.0549059436
 33
0.0
 40
0.0
 40
0.0
 40
0.0
 40
0.0
 40
0.0041519654
 40
0.1751397287
 40
0.3507158298
 40
0.5337212842
 40
0.7267852074
 40
0.9302596416
 40
1.0
 40
1.0
 40
1.0
 40
1.0
 10
0.9080906036
 20
2.0696469418
 30
0.0
 10
0.9079039392
 20
2.0695869989
 30
0.0
 10
0.9000250437
 20
2.0670740075
 30
0.0
 10
0.8838350699
 20
2.0633558482
 30
0.0
 10
0.8588332548
 20
2.0615175619
 30
0.0
 10
0.8327931166
 20
2.0632776788
 30
0.0
 10
0.8059130054
 20
2.0686214211
 30
0.0
 10
0.7849447687
 20
2.0754028614
 30
0.0
 10
0.7729755589
 20
2.080204637
 30
0.0
 10
0.7699417477
 20
2.0814810237
 30
0.0
 11
0.9080906036
 21
2.0696469418
 31
0.0
 11
0.90753026
 21
2.0694682188
 31
0.0
 11
0.8839583887
 21
2.064006022
 31
0.0
 11
0.8591846186
 21
2.062116074
 31
0.0
 11
0.8333412122
 21
2.0637825836
 31
0.0
 11
0.8065286021
 21
2.0690257934
 31
0.0
 11
0.7791067
 21
2.0778072138
 31
0.0
 11
0.7699417477
 21
2.0814810237
 31
0.0
  0
SPLINE
  5
2A1
100
AcDbEntity
  8
RACCORDO
100
AcDbSpline
 62
253
  6
CONTINUOUS
 70
0
 71
3
 72
21
 73
17
 74
15
 42
0.0000001
 43
0.0000001
 44
0.0000000001
 12
-0.0027086902
 22
0.3665006289
 32
0.0
 13
-0.3229569199
 23
0.1732884182
 33
0.0
 40
0.0
 40
0.0
 40
0.0
 40
0.0
 40
0.0675515957
 40
0.1379106427
 40
0.210618269
 40
0.2851460241
 40
0.3609149144
 40
0.4373129777
 40
0.5137119661
 40
0.5894836079
 40
0.6640158694
 40
0.7367296356
 40
0.8070962814
 40
0.8746567015
 40
0.9390424875
 40
1.0
 40
1.0
 40
1.0
 40
1.0
 10
13.8098129818
 20
0.3872256283
 30
0.0
 10
13.8097519897
 20
0.3954781957
 30
0.0
 10
13.8088686448
 20
0.4123274471
 30
0.0
 10
13.8054585097
 20
0.4378559286
 30
0.0
 10
13.7999769134
 20
0.4638924507
 30
0.0
 10
13.7924923831
 20
0.4901110548
 30
0.0
 10
13.7830981837
 20
0.5161864043
 30
0.0
 10
13.7719113823
 20
0.5417935226
 30
0.0
 10
13.7590714076
 20
0.5666133416
 30
0.0
 10
13.7447382628
 20
0.590336523
 30
0.0
 10
13.7290904466
 20
0.6126675457
 30
0.0
 10
13.7123223995
 20
0.6333285466
 30
0.0
 10
13.6946422598
 20
0.652062582
 30
0.0
 10
13.6762671807
 20
0.6686376389
 30
0.0
 10
13.6574259708
 20
0.6828460701
 30
0.0
 10
13.6443329605
 20
0.690850547
 30
0.0
 10
13.6377707437
 20
0.694371624
 30
0.0
 11
13.8098129818
 21
0.3872256283
 31
0.0
 11
13.80856283
 21
0.4119524239
 31
0.0
 11
13.8051850921
 21
0.4375175907
 31
0.0
 11
13.799722229
 21
0.463599756
 31
0.0
 11
13.7922429127
 21
0.4898710484
 31
0.0
 11
13.7828411637
 21
0.5160012189
 31
0.0
 11
13.7716351688
 21
0.5416617926
 31
0.0
 11
13.7587657955
 21
0.566530198
 31
0.0
 11
13.744394821
 21
0.5902938214
 31
0.0
 11
13.7287028989
 21
0.6126539374
 31
0.0
 11
13.7118872877
 21
0.6333294636
 31
0.0
 11
13.6941593718
 21
0.6520604941
 31
0.0
 11
13.6757420035
 21
0.6686115668
 31
0.0
 11
13.6568667022
 21
0.6827746232
 31
0.0
 11
13.6377707437
 21
0.694371624
 31
0.0
  0
SPLINE
  5
2A2
100
AcDbEntity
  8
RACCORDO
100
AcDbSpline
 62
253
  6
CONTINUOUS
 70
0
 71
3
 72
21
 73
17
 74
15
 42
0.0000001
 43
0.0000001
 44
0.0000000001
 12
-0.0002381811
 22
0.3665649359
 32
0.0
 13
0.3264581342
 23
0.1667183122
 33
0.0
 40
0.0
 40
0.0
 40
0.0
 40
0.0
 40
0.0673451676
 40
0.1373665829
 40
0.2096497344
 40
0.2837102531
 40
0.3590123512
 40
0.4349859312
 40
0.5110428482
 40
0.5865927408
 40
0.6610588114
 40
0.7338939267
 40
0.8045974427
 40
0.8727332169
 40
0.9379493261
 40
1.0
 40
1.0
 40
1.0
 40
1.0
 10
13.1152616301
 20
0.3912922211
 30
0.0
 10
13.1152562833
 20
0.3995210134
 30
0.0
 10
13.1160257178
 20
0.4163134216
 30
0.0
 10
13.1193309499
 20
0.4417420736
 30
0.0
 10
13.124769796
 20
0.4676400211
 30
0.0
 10
13.1322747116
 20
0.4936860938
 30
0.0
 10
13.14175294
 20
0.5195604269
 30
0.0
 10
13.15308746
 20
0.5449437894
 30
0.0
 10
13.1661383742
 20
0.5695230707
 30
0.0
 10
13.1807446716
 20
0.5929949502
 30
0.0
 10
13.1967262807
 20
0.6150698615
 30
0.0
 10
13.213886594
 20
0.6354756936
 30
0.0
 10
13.2320146872
 20
0.6539609406
 30
0.0
 10
13.2508899144
 20
0.6702985281
 30
0.0
 10
13.2702792392
 20
0.6842853579
 30
0.0
 10
13.2837433058
 20
0.692131235
 30
0.0
 10
13.2904956215
 20
0.6955795628
 30
0.0
 11
13.1152616301
 21
0.3912922211
 31
0.0
 11
13.1163463133
 21
0.4159547621
 31
0.0
 11
13.119618193
 21
0.4414127723
 31
0.0
 11
13.1250365374
 21
0.4673493236
 31
0.0
 11
13.1325338933
 21
0.4934415311
 31
0.0
 11
13.1420169258
 21
0.5193645716
 31
0.0
 11
13.1533675803
 21
0.5447957281
 31
0.0
 11
13.166444552
 21
0.5694184072
 31
0.0
 11
13.1810850451
 21
0.5929260801
 31
0.0
 11
13.1971067995
 21
0.6150260987
 31
0.0
 11
13.2143103598
 21
0.6354433391
 31
0.0
 11
13.232481558
 21
0.6539236261
 31
0.0
 11
13.2513941802
 21
0.6702368979
 31
0.0
 11
13.2708127824
 21
0.6841800698
 31
0.0
 11
13.2904956215
 21
0.6955795628
 31
0.0
  0
SPLINE
  5
2A3
100
AcDbEntity
  8
RACCORDO
100
AcDbSpline
 62
253
  6
CONTINUOUS
 70
0
 71
3
 72
21
 73
17
 74
15
 42
0.0000001
 43
0.0000001
 44
0.0000000001
 12
-0.0002381814
 22
0.366564936
 32
0.0
 13
0.3264581343
 23
0.1667183119
 33
0.0
 40
0.0
 40
0.0
 40
0.0
 40
0.0
 40
0.0673451718
 40
0.1373665919
 40
0.2096497479
 40
0.2837102706
 40
0.3590123719
 40
0.4349859543
 40
0.5110428723
 40
0.5865927648
 40
0.661058834
 40
0.7338939467
 40
0.804597459
 40
0.8727332284
 40
0.9379493321
 40
1.0
 40
1.0
 40
1.0
 40
1.0
 10
-17.5280772865
 20
15.7129616794
 30
0.0
 10
-17.5280826333
 20
15.7211904722
 30
0.0
 10
-17.5273131987
 20
15.7379828815
 30
0.0
 10
-17.5240079663
 20
15.7634115351
 30
0.0
 10
-17.5185691196
 20
15.7893094842
 30
0.0
 10
-17.5110642032
 20
15.8153555582
 30
0.0
 10
-17.5015859739
 20
15.8412298922
 30
0.0
 10
-17.4902514531
 20
15.8666132552
 30
0.0
 10
-17.4772005382
 20
15.8911925366
 30
0.0
 10
-17.4625942403
 20
15.9146644158
 30
0.0
 10
-17.446612631
 20
15.9367393263
 30
0.0
 10
-17.4294523178
 20
15.9571451573
 30
0.0
 10
-17.4113242252
 20
15.9756304029
 30
0.0
 10
-17.392448999
 20
15.991967989
 30
0.0
 10
-17.3730596756
 20
16.0059548174
 30
0.0
 10
-17.3595956102
 20
16.0138006936
 30
0.0
 10
-17.3528432951
 20
16.0172490211
 30
0.0
 11
-17.5280772865
 21
15.7129616794
 31
0.0
 11
-17.5269926032
 21
15.737624222
 31
0.0
 11
-17.5237207231
 21
15.7630822338
 31
0.0
 11
-17.5183023781
 21
15.7890187868
 31
0.0
 11
-17.5108050214
 21
15.8151109955
 31
0.0
 11
-17.501321988
 21
15.841034037
 31
0.0
 11
-17.4899713327
 21
15.8664651941
 31
0.0
 11
-17.4768943603
 21
15.8910878732
 31
0.0
 11
-17.4622538667
 21
15.9145955457
 31
0.0
 11
-17.446232112
 21
15.9366955636
 31
0.0
 11
-17.429028552
 21
15.9571128028
 31
0.0
 11
-17.4108573543
 21
15.9755930885
 31
0.0
 11
-17.3919447331
 21
15.9919063588
 31
0.0
 11
-17.3725261324
 21
16.0058495293
 31
0.0
 11
-17.3528432951
 21
16.0172490211
 31
0.0
  0
SPLINE
  5
2A4
100
AcDbEntity
  8
RACCORDO
100
AcDbSpline
 62
253
  6
CONTINUOUS
 70
0
 71
3
 72
24
 73
20
 74
18
 42
0.0000001
 43
0.0000001
 44
0.0000000001
 12
-0.6460894983
 22
-0.3048812545
 32
0.0
 13
-0.6389944042
 23
0.3194845389
 33
0.0
 40
0.0
 40
0.0
 40
0.0
 40
0.0
 40
0.0524100356
 40
0.1072497924
 40
0.1642744396
 40
0.2231948714
 40
0.2836919856
 40
0.345422123
 40
0.4080213494
 40
0.471113599
 40
0.5343152536
 40
0.5972420897
 40
0.6595128813
 40
0.7207563994
 40
0.7806160868
 40
0.8387583409
 40
0.8948769789
 40
0.9486992022
 40
1.0
 40
1.0
 40
1.0
 40
1.0
 10
13.8098150103
 20
0.3872265855
 30
0.0
 10
13.7985278191
 20
0.3819003063
 30
0.0
 10
13.7750378966
 20
0.3718176846
 30
0.0
 10
13.7381714372
 20
0.358666828
 30
0.0
 10
13.6991202946
 20
0.3472292548
 30
0.0
 10
13.6582020306
 20
0.3375985323
 30
0.0
 10
13.6157472706
 20
0.3298524354
 30
0.0
 10
13.5721001137
 20
0.3240540098
 30
0.0
 10
13.5276144598
 20
0.3202504302
 30
0.0
 10
13.482651572
 20
0.3184727078
 30
0.0
 10
13.4375763825
 20
0.3187353106
 30
0.0
 10
13.3927548604
 20
0.3210360883
 30
0.0
 10
13.3485507448
 20
0.3253562937
 30
0.0
 10
13.305322919
 20
0.3316607004
 30
0.0
 10
13.2634217226
 20
0.3398980325
 30
0.0
 10
13.2231865815
 20
0.3500013064
 30
0.0
 10
13.1849422429
 20
0.3618890561
 30
0.0
 10
13.1489995895
 20
0.3754641938
 30
0.0
 10
13.1261867074
 20
0.3858298987
 30
0.0
 10
13.1152597331
 20
0.3912931692
 30
0.0
 11
13.8098150103
 21
0.3872265855
 31
0.0
 11
13.7754317735
 21
0.3724035479
 31
0.0
 11
13.7385478605
 21
0.3591934794
 31
0.0
 11
13.6994626147
 21
0.347703646
 31
0.0
 11
13.6584962185
 21
0.3380282623
 31
0.0
 11
13.6159827512
 21
0.3302461852
 31
0.0
 11
13.57226845
 21
0.3244208089
 31
0.0
 11
13.5277103619
 21
0.3205997327
 31
0.0
 11
13.4826718974
 21
0.3188141112
 31
0.0
 11
13.4375206637
 21
0.3190784982
 31
0.0
 11
13.3926244924
 21
0.3213907369
 31
0.0
 11
13.3483498288
 21
0.3257319685
 31
0.0
 11
13.3050577616
 21
0.3320667907
 31
0.0
 11
13.2631018712
 21
0.3403434384
 31
0.0
 11
13.2228238247
 21
0.3504944929
 31
0.0
 11
13.1845520933
 21
0.3624372053
 31
0.0
 11
13.1486001296
 21
0.3760736823
 31
0.0
 11
13.1152597331
 21
0.3912931692
 31
0.0
  0
SPLINE
  5
2A5
100
AcDbEntity
  8
0
100
AcDbSpline
 62
253
  6
CONTINUOUS
 70
0
 71
3
 72
23
 73
19
 74
17
 42
0.0000001
 43
0.0000001
 44
0.0000000001
 12
-0.6423463248
 22
-0.3139621741
 32
0.0
 13
-0.6396924869
 23
0.3193345735
 33
0.0
 40
0.0
 40
0.0
 40
0.0
 40
0.0
 40
0.0560459375
 40
0.1147633706
 40
0.1758533728
 40
0.2389680004
 40
0.3037206074
 40
0.3696950256
 40
0.4364539816
 40
0.5035470265
 40
0.5705181849
 40
0.6369134918
 40
0.7022885703
 40
0.7662164078
 40
0.8282955157
 40
0.8881587155
 40
0.9454828706
 40
1.0
 40
1.0
 40
1.0
 40
1.0
 10
13.8756832346
 20
-7.458594088
 30
0.0
 10
13.8636829339
 20
-7.4644595228
 30
0.0
 10
13.8386489738
 20
-7.4755428645
 30
0.0
 10
13.7992561605
 20
-7.4899256688
 30
0.0
 10
13.7574429066
 20
-7.5023509283
 30
0.0
 10
13.7135929164
 20
-7.5127041494
 30
0.0
 10
13.668105564
 20
-7.5208910624
 30
0.0
 10
13.6213968768
 20
-7.5268365102
 30
0.0
 10
13.5738941944
 20
-7.530485939
 30
0.0
 10
13.5260324712
 20
-7.5318058162
 30
0.0
 10
13.4782500388
 20
-7.5307840354
 30
0.0
 10
13.4309844641
 20
-7.5274300201
 30
0.0
 10
13.3846684162
 20
-7.5217746317
 30
0.0
 10
13.3397254299
 20
-7.5138697637
 30
0.0
 10
13.2965662762
 20
-7.5037879437
 30
0.0
 10
13.2555835118
 20
-7.4916207341
 30
0.0
 10
13.2171530149
 20
-7.477480086
 30
0.0
 10
13.1928192191
 20
-7.4665307561
 30
0.0
 10
13.1811944864
 20
-7.460727688
 30
0.0
 11
13.8756832346
 21
-7.458594088
 31
0.0
 11
13.8390709473
 21
-7.4748801339
 31
0.0
 11
13.7996559634
 21
-7.4893327057
 31
0.0
 11
13.7578012032
 21
-7.5018187286
 31
0.0
 11
13.713892052
 21
-7.5122232354
 31
0.0
 11
13.6683328111
 21
-7.5204504248
 31
0.0
 11
13.6215429754
 21
-7.5264245434
 31
0.0
 11
13.5739533706
 21
-7.5300905835
 31
0.0
 11
13.5260021866
 21
-7.5314147893
 31
0.0
 11
13.4781309425
 21
-7.530384968
 31
0.0
 11
13.4307804212
 21
-7.5270106018
 31
0.0
 11
13.3843866112
 21
-7.5213227609
 31
0.0
 11
13.3393766919
 21
-7.513373817
 31
0.0
 11
13.2961650999
 21
-7.5032369615
 31
0.0
 11
13.2551497139
 21
-7.4910055312
 31
0.0
 11
13.2167081904
 21
-7.4767921493
 31
0.0
 11
13.1811944864
 21
-7.460727688
 31
0.0
  0
SPLINE
  5
2A6
100
AcDbEntity
  8
0
100
AcDbSpline
 62
253
  6
CONTINUOUS
 70
0
 71
3
 72
14
 73
10
 74
8
 42
0.0000001
 43
0.0000001
 44
0.0000000001
 12
0.1590485282
 22
-9.8322410214
 32
0.0
 13
1.3196249534
 23
-9.744580541
 33
0.0
 40
0.0
 40
0.0
 40
0.0
 40
0.0
 40
0.1462535095
 40
0.2913919944
 40
0.4354038616
 40
0.5782788199
 40
0.7200079478
 40
0.860583705
 40
1.0
 40
1.0
 40
1.0
 40
1.0
 10
13.1811944861
 20
-7.4607276882
 30
0.0
 10
13.1889482879
 20
-7.9400609401
 30
0.0
 10
13.2120114803
 20
-8.8949683997
 30
0.0
 10
13.2696538458
 20
-10.3210499623
 30
0.0
 10
13.3501929042
 20
-11.7349350061
 30
0.0
 10
13.4536007957
 20
-13.1361263938
 30
0.0
 10
13.5798420938
 20
-14.5241394049
 30
0.0
 10
13.7288724253
 20
-15.8984849383
 30
0.0
 10
13.8438637668
 20
-16.8090799911
 30
0.0
 10
13.9051895074
 20
-17.2619310961
 30
0.0
 11
13.1811944861
 21
-7.4607276882
 31
0.0
 11
13.216007894
 21
-8.8984941563
 31
0.0
 11
13.2737394676
 21
-10.324549309
 31
0.0
 11
13.3543691538
 21
-11.7383967108
 31
0.0
 11
13.4578689331
 21
-13.1395440654
 31
0.0
 11
13.5842028447
 21
-14.5275036388
 31
0.0
 11
13.733326978
 21
-15.9017921331
 31
0.0
 11
13.9051895074
 21
-17.2619310961
 31
0.0
  0
SPLINE
  5
2A7
100
AcDbEntity
  8
0
100
AcDbSpline
 62
253
  6
CONTINUOUS
 70
0
 71
3
 72
14
 73
10
 74
8
 42
0.0000001
 43
0.0000001
 44
0.0000000001
 12
0.1581958
 22
-9.7776961891
 32
0.0
 13
1.3125293863
 23
-9.6904920044
 33
0.0
 40
0.0
 40
0.0
 40
0.0
 40
0.0
 40
0.1462525689
 40
0.2913905064
 40
0.4354020953
 40
0.5782770586
 40
0.7200064886
 40
0.860582859
 40
1.0
 40
1.0
 40
1.0
 40
1.0
 10
13.8756832346
 20
-7.458594088
 30
0.0
 10
13.8833954153
 20
-7.9352651499
 30
0.0
 10
13.9063347871
 20
-8.8848703265
 30
0.0
 10
13.963667676
 20
-10.3030345453
 30
0.0
 10
14.0437743468
 20
-11.7090725852
 30
0.0
 10
14.1466270809
 20
-13.1024896161
 30
0.0
 10
14.2721906417
 20
-14.4828036067
 30
0.0
 10
14.4204208527
 20
-15.8495278686
 30
0.0
 10
14.5347946865
 20
-16.7550736309
 30
0.0
 10
14.5957910513
 20
-17.2054138609
 30
0.0
 11
13.8756832346
 21
-7.458594088
 31
0.0
 11
13.9103096926
 21
-8.8883751969
 31
0.0
 11
13.9677312993
 21
-10.3065135339
 31
0.0
 11
14.0479280862
 21
-11.7125140716
 31
0.0
 11
14.1508721849
 21
-13.105887245
 31
0.0
 11
14.2765278276
 21
-14.4861480255
 31
0.0
 11
14.424851339
 21
-15.852815795
 31
0.0
 11
14.5957910513
 21
-17.2054138609
 31
0.0
  0
SPLINE
  5
2A8
100
AcDbEntity
  8
0
100
AcDbSpline
 62
253
  6
CONTINUOUS
 70
0
 71
3
 72
23
 73
19
 74
17
 42
0.0000001
 43
0.0000001
 44
0.0000000001
 12
-0.6046875015
 22
-0.3899603372
 32
0.0
 13
-0.6449837558
 23
0.3189231783
 33
0.0
 40
0.0
 40
0.0
 40
0.0
 40
0.0
 40
0.0585677629
 40
0.1193033505
 40
0.1819239888
 40
0.2461052335
 40
0.3114902464
 40
0.377698354
 40
0.4443331115
 40
0.5109900572
 40
0.5772643152
 40
0.6427581907
 40
0.7070889007
 40
0.7698965953
 40
0.8308528525
 40
0.8896698636
 40
0.9461105666
 40
1.0
 40
1.0
 40
1.0
 40
1.0
 10
14.5957910513
 20
-17.2054138609
 30
0.0
 10
14.5839859866
 20
-17.2130268958
 30
0.0
 10
14.559335295
 20
-17.2276150097
 30
0.0
 10
14.5203027716
 20
-17.2471849255
 30
0.0
 10
14.4788396498
 20
-17.2646977079
 30
0.0
 10
14.4353272551
 20
-17.2799922356
 30
0.0
 10
14.3901623839
 20
-17.2929295187
 30
0.0
 10
14.3437583489
 20
-17.3033911885
 30
0.0
 10
14.2965397709
 20
-17.3112815737
 30
0.0
 10
14.2489389374
 20
-17.3165284363
 30
0.0
 10
14.2013916219
 20
-17.3190837407
 30
0.0
 10
14.1543329776
 20
-17.3189240684
 30
0.0
 10
14.1081934497
 20
-17.3160508052
 30
0.0
 10
14.0633945472
 20
-17.3104899411
 30
0.0
 10
14.0203453921
 20
-17.3022919057
 30
0.0
 10
13.9794369569
 20
-17.2915298503
 30
0.0
 10
13.9410452732
 20
-17.2783018805
 30
0.0
 10
13.91677546
 20
-17.2676599481
 30
0.0
 10
13.9051895236
 20
-17.261931085
 30
0.0
 11
14.5957910513
 21
-17.2054138609
 31
0.0
 11
14.5595551542
 21
-17.2269271229
 31
0.0
 11
14.5205116929
 21
-17.2465578401
 31
0.0
 11
14.4790203466
 21
-17.2641251689
 31
0.0
 11
14.4354633452
 21
-17.2794672741
 31
0.0
 11
14.3902419479
 21
-17.2924428199
 31
0.0
 11
14.3437727469
 21
-17.3029322721
 31
0.0
 11
14.2964838293
 21
-17.3108389989
 31
0.0
 11
14.248810834
 21
-17.3160901612
 31
0.0
 11
14.2011929377
 21
-17.318637384
 31
0.0
 11
14.1540688099
 21
-17.3184572015
 31
0.0
 11
14.1078725711
 21
-17.3155512735
 31
0.0
 11
14.063029794
 21
-17.3099463704
 31
0.0
 11
14.0199535827
 21
-17.301694126
 31
0.0
 11
13.9790407674
 21
-17.2908705623
 31
0.0
 11
13.9406682482
 21
-17.277575389
 31
0.0
 11
13.9051895236
 21
-17.261931085
 31
0.0
  0
SPLINE
  5
2A9
100
AcDbEntity
  8
0
100
AcDbSpline
 62
253
  6
CONTINUOUS
 70
0
 71
3
 72
15
 73
11
 74
9
 42
0.0000001
 43
0.0000001
 44
0.0000000001
 12
0.0598269799
 22
-0.4487653098
 32
0.0
 13
0.3709772629
 23
-0.2600387225
 33
0.0
 40
0.0
 40
0.0
 40
0.0
 40
0.0
 40
0.1416127936
 40
0.2778388068
 40
0.4087944368
 40
0.5347487326
 40
0.6561453127
 40
0.773601873
 40
0.8879069491
 40
1.0
 40
1.0
 40
1.0
 40
1.0
 10
13.9051895074
 20
-17.2619310961
 30
0.0
 10
13.908013596
 20
-17.2831147325
 30
0.0
 10
13.9151080128
 20
-17.3244911322
 30
0.0
 10
13.9304985093
 20
-17.3843066523
 30
0.0
 10
13.9503446796
 20
-17.4403078697
 30
0.0
 10
13.9745296466
 20
-17.4921276232
 30
0.0
 10
14.0029105338
 20
-17.5394262568
 30
0.0
 10
14.0353167095
 20
-17.5818860803
 30
0.0
 10
14.0715474867
 20
-17.6192143072
 30
0.0
 10
14.0982737133
 20
-17.6406453569
 30
0.0
 10
14.1121350377
 20
-17.6503615348
 30
0.0
 11
13.9051895074
 21
-17.2619310961
 31
0.0
 11
13.9161199542
 21
-17.3251056374
 31
0.0
 11
13.9315882817
 21
-17.3848087288
 31
0.0
 11
13.9514948334
 21
-17.4406552117
 31
0.0
 11
13.9757104371
 21
-17.4922821538
 31
0.0
 11
14.0040786381
 21
-17.5393555891
 31
0.0
 11
14.0364157838
 21
-17.5815702564
 31
0.0
 11
14.0725125164
 21
-17.6186524172
 31
0.0
 11
14.1121350377
 21
-17.6503615348
 31
0.0
  0
SPLINE
  5
2AA
100
AcDbEntity
  8
0
100
AcDbSpline
 62
253
  6
CONTINUOUS
 70
0
 71
3
 72
24
 73
20
 74
18
 42
0.0000001
 43
0.0000001
 44
0.0000000001
 12
0.0639027533
 22
-0.4717728467
 32
0.0
 13
0.4413838546
 23
0.1784193758
 33
0.0
 40
0.0
 40
0.0
 40
0.0
 40
0.0
 40
0.0674522603
 40
0.1324328803
 40
0.1949921921
 40
0.2552669519
 40
0.3134744861
 40
0.3699113309
 40
0.4249505657
 40
0.4790314766
 40
0.5326426374
 40
0.5862971832
 40
0.6405065485
 40
0.6957524301
 40
0.7524643122
 40
0.8110030704
 40
0.8716529464
 40
0.9346161818
 40
1.0
 40
1.0
 40
1.0
 40
1.0
 10
14.5957910513
 20
-17.2054138609
 30
0.0
 10
14.5972278464
 20
-17.2160212425
 30
0.0
 10
14.6008386534
 20
-17.2367516443
 30
0.0
 10
14.6086677861
 20
-17.2667269366
 30
0.0
 10
14.618764197
 20
-17.2948158787
 30
0.0
 10
14.6310677227
 20
-17.3208314763
 30
0.0
 10
14.6455051733
 20
-17.3446028926
 30
0.0
 10
14.6619890951
 20
-17.3659702639
 30
0.0
 10
14.680416599
 20
-17.3847864145
 30
0.0
 10
14.7006684184
 20
-17.4009187562
 30
0.0
 10
14.7226085949
 20
-17.4142522874
 30
0.0
 10
14.746085893
 20
-17.4246930344
 30
0.0
 10
14.7709367325
 20
-17.4321705622
 30
0.0
 10
14.796989112
 20
-17.4366388142
 30
0.0
 10
14.8240659718
 20
-17.438075057
 30
0.0
 10
14.8519872976
 20
-17.4364781154
 30
0.0
 10
14.8805716683
 20
-17.4318659152
 30
0.0
 10
14.9096302136
 20
-17.424276846
 30
0.0
 10
14.9288322984
 20
-17.4173989433
 30
0.0
 10
14.9384520857
 20
-17.4135103633
 30
0.0
 11
14.5957910513
 21
-17.2054138609
 31
0.0
 11
14.6013487429
 21
-17.237042019
 31
0.0
 11
14.6092154694
 21
-17.2669611327
 31
0.0
 11
14.6193395155
 21
-17.2949709323
 31
0.0
 11
14.6316552248
 21
-17.3208893598
 31
0.0
 11
14.6460830125
 21
-17.3445487438
 31
0.0
 11
14.6625294788
 21
-17.3657956435
 31
0.0
 11
14.6808881423
 21
-17.3844922713
 31
0.0
 11
14.7010400746
 21
-17.4005173255
 31
0.0
 11
14.7228548627
 21
-17.4137669198
 31
0.0
 11
14.7461910853
 21
-17.4241550006
 31
0.0
 11
14.7708976869
 21
-17.4316141832
 31
0.0
 11
14.7968145414
 21
-17.4360959811
 31
0.0
 11
14.8237736606
 21
-17.4375712335
 31
0.0
 11
14.8516002225
 21
-17.4360303096
 31
0.0
 11
14.8801141735
 21
-17.4314830745
 31
0.0
 11
14.9091301458
 21
-17.4239590997
 31
0.0
 11
14.9384520857
 21
-17.4135103633
 31
0.0
  0
SPLINE
  5
2AB
100
AcDbEntity
  8
0
100
AcDbSpline
 62
253
  6
CONTINUOUS
 70
0
 71
3
 72
17
 73
13
 74
11
 42
0.0000001
 43
0.0000001
 44
0.0000000001
 12
-0.0146233495
 22
-0.3374304751
 32
0.0
 13
-0.3134643983
 23
-0.1267186416
 33
0.0
 40
0.0
 40
0.0
 40
0.0
 40
0.0
 40
0.1257612106
 40
0.2463557878
 40
0.361548946
 40
0.4712938634
 40
0.5757615065
 40
0.6753678851
 40
0.7707922496
 40
0.8629762818
 40
0.9530928601
 40
1.0
 40
1.0
 40
1.0
 40
1.0
 10
14.9384520857
 20
-17.4135103633
 30
0.0
 10
14.937839069
 20
-17.427655585
 30
0.0
 10
14.9355881322
 20
-17.4553343932
 30
0.0
 10
14.9289080831
 20
-17.4955367502
 30
0.0
 10
14.9190488274
 20
-17.5332291402
 30
0.0
 10
14.9060952594
 20
-17.5680515354
 30
0.0
 10
14.8901578302
 20
-17.5996723686
 30
0.0
 10
14.8713722918
 20
-17.62778383
 30
0.0
 10
14.8499013411
 20
-17.6521026998
 30
0.0
 10
14.8259392339
 20
-17.6723712811
 30
0.0
 10
14.8038173767
 20
-17.6858632308
 30
0.0
 10
14.7897411335
 20
-17.6922476328
 30
0.0
 10
14.784839894
 20
-17.6942289692
 30
0.0
 11
14.9384520857
 21
-17.4135103633
 31
0.0
 11
14.9349413505
 21
-17.4558405241
 31
0.0
 11
14.9281879653
 21
-17.4960072243
 31
0.0
 11
14.9182568177
 21
-17.5336245351
 31
0.0
 11
14.905243328
 21
-17.5683310224
 31
0.0
 11
14.8892725322
 21
-17.5997932201
 31
0.0
 11
14.8704978806
 21
-17.6277088336
 31
0.0
 11
14.8490997635
 21
-17.6518096448
 31
0.0
 11
14.8252837777
 21
-17.6718640886
 31
0.0
 11
14.7992787517
 21
-17.6876794784
 31
0.0
 11
14.784839894
 21
-17.6942289692
 31
0.0
  0
SPLINE
  5
2AC
100
AcDbEntity
  8
0
100
AcDbSpline
 62
253
  6
CONTINUOUS
 70
0
 71
3
 72
14
 73
10
 74
8
 42
0.0000001
 43
0.0000001
 44
0.0000000001
 12
-1.2344531456
 22
9.7271211268
 32
0.0
 13
-0.1480272948
 23
9.8040220269
 33
0.0
 40
0.0
 40
0.0
 40
0.0
 40
0.0
 40
0.1390931295
 40
0.2794615902
 40
0.4210944051
 40
0.5639791418
 40
0.7081019866
 40
0.8534477621
 40
1.0
 40
1.0
 40
1.0
 40
1.0
 10
-16.7911909968
 20
-1.913740844
 30
0.0
 10
-16.8484256472
 20
-1.4627489378
 30
0.0
 10
-16.9557362605
 20
-0.5556370969
 30
0.0
 10
-17.0947512277
 20
0.8136796146
 30
0.0
 10
-17.2125078529
 20
2.1974281677
 30
0.0
 10
-17.3089647865
 20
3.5951216874
 30
0.0
 10
-17.3840889174
 20
5.006276372
 30
0.0
 10
-17.4378542317
 20
6.4303967334
 30
0.0
 10
-17.4593583603
 20
7.3842305674
 30
0.0
 10
-17.4665896041
 20
7.8631643569
 30
0.0
 11
-16.7911909968
 21
-1.913740844
 31
0.0
 11
-16.9515176697
 21
-0.5593698092
 31
0.0
 11
-17.0906322065
 21
0.8099138868
 31
0.0
 11
-17.2084862599
 21
2.1936335311
 31
0.0
 11
-17.3050388669
 21
3.5913072995
 31
0.0
 11
-17.3802564806
 21
5.0024486651
 31
0.0
 11
-17.434112962
 21
6.4265662716
 31
0.0
 11
-17.4665896041
 21
7.8631643569
 31
0.0
  0
SPLINE
  5
2AD
100
AcDbEntity
  8
RACCORDO
100
AcDbSpline
 62
253
  6
CONTINUOUS
 70
0
 71
3
 72
16
 73
12
 74
10
 42
0.0000001
 43
0.0000001
 44
0.0000000001
 12
-0.2161676901
 22
0.108088129
 32
0.0
 13
-0.0002081162
 23
0.2420109618
 33
0.0
 40
0.0
 40
0.0
 40
0.0
 40
0.0
 40
0.1436783147
 40
0.279066529
 40
0.4060825254
 40
0.5249174698
 40
0.6361059662
 40
0.7405757101
 40
0.8396792241
 40
0.9351856859
 40
1.0
 40
1.0
 40
1.0
 40
1.0
 10
-17.5280753889
 20
15.7129607302
 30
0.0
 10
-17.5384282587
 20
15.7181373703
 30
0.0
 10
-17.5581931538
 20
15.7289050533
 30
0.0
 10
-17.5855923709
 20
15.74685155
 30
0.0
 10
-17.6096745977
 20
15.7659923983
 30
0.0
 10
-17.6302431116
 20
15.7861845646
 30
0.0
 10
-17.6471258954
 20
15.8072817316
 30
0.0
 10
-17.6601692802
 20
15.8291315954
 30
0.0
 10
-17.6692360795
 20
15.8515688737
 30
0.0
 10
-17.6737077596
 20
15.8720941538
 30
0.0
 10
-17.6745187816
 20
15.8850273641
 30
0.0
 10
-17.6745232779
 20
15.8902559556
 30
0.0
 11
-17.5280753889
 21
15.7129607302
 31
0.0
 11
-17.558532269
 21
15.7296398817
 31
0.0
 11
-17.5858566278
 21
15.7476415658
 31
0.0
 11
-17.6098265412
 21
15.7668196758
 31
0.0
 11
-17.6302455271
 21
15.7870171375
 31
0.0
 11
-17.6469471342
 21
15.8080692386
 31
0.0
 11
-17.6597953134
 21
15.8298045396
 31
0.0
 11
-17.6686850742
 21
15.8520455202
 31
0.0
 11
-17.6735439174
 21
15.8746107888
 31
0.0
 11
-17.6745232779
 21
15.8902559556
 31
0.0
  0
SPLINE
  5
2AE
100
AcDbEntity
  8
ASSI
100
AcDbSpline
 62
7
  6
CONTINUOUS
 70
0
 71
3
 72
15
 73
11
 74
9
 42
0.0000001
 43
0.0000001
 44
0.0000000001
 12
0.1696235192
 22
0.1209906019
 32
0.0
 13
0.18616337
 23
-0.093081685
 33
0.0
 40
0.0
 40
0.0
 40
0.0
 40
0.0
 40
0.1081411329
 40
0.2229400458
 40
0.3397312535
 40
0.459601248
 40
0.584464367
 40
0.7161066524
 40
0.8547623222
 40
1.0
 40
1.0
 40
1.0
 40
1.0
 10
-5.3316650178
 20
6.9236465026
 30
0.0
 10
-5.3255505913
 20
6.9280078562
 30
0.0
 10
-5.312267127
 20
6.9360522499
 30
0.0
 10
-5.2903368522
 20
6.9449689981
 30
0.0
 10
-5.2664757576
 20
6.9504563418
 30
0.0
 10
-5.2413727985
 20
6.9523174061
 30
0.0
 10
-5.215239904
 20
6.9505698831
 30
0.0
 10
-5.1882786276
 20
6.9452283936
 30
0.0
 10
-5.1607898542
 20
6.9363520814
 30
0.0
 10
-5.1427500274
 20
6.9283516331
 30
0.0
 10
-5.1337373822
 20
6.9238453105
 30
0.0
 11
-5.3316650178
 21
6.9236465026
 31
0.0
 11
-5.3124031806
 21
6.9352960215
 31
0.0
 11
-5.2902754221
 21
6.9443116018
 31
0.0
 11
-5.2665957271
 21
6.9498051033
 31
0.0
 11
-5.2417197015
 21
6.9517168597
 31
0.0
 11
-5.2157838126
 21
6.9500619704
 31
0.0
 11
-5.1888902366
 21
6.9448202978
 31
0.0
 11
-5.161401903
 21
6.936030824
 31
0.0
 11
-5.1337373822
 21
6.9238453105
 31
0.0
  0
SPLINE
  5
2AF
100
AcDbEntity
  8
ASSI
100
AcDbSpline
 62
7
  6
CONTINUOUS
 70
0
 71
3
 72
17
 73
13
 74
11
 42
0.0000001
 43
0.0000001
 44
0.0000000001
 12
0.002322982
 22
-0.2723078731
 32
0.0
 13
-0.2595482812
 23
-0.0833478641
 33
0.0
 40
0.0
 40
0.0
 40
0.0
 40
0.0
 40
0.1215910421
 40
0.2382115935
 40
0.3490473415
 40
0.4537496329
 40
0.5532322124
 40
0.6484805119
 40
0.7398428647
 40
0.8280303749
 40
0.9148420727
 40
1.0
 40
1.0
 40
1.0
 40
1.0
 10
1.0299479258
 20
2.2928083092
 30
0.0
 10
1.030042077
 20
2.2817715765
 30
0.0
 10
1.0293864982
 20
2.2601295187
 30
0.0
 10
1.0256813993
 20
2.2286204663
 30
0.0
 10
1.0193039848
 20
2.199099308
 30
0.0
 10
1.0103318386
 20
2.1718864238
 30
0.0
 10
0.9988371796
 20
2.1471806594
 30
0.0
 10
0.9848845431
 20
2.1251824371
 30
0.0
 10
0.9686068076
 20
2.1061608488
 30
0.0
 10
0.9501927963
 20
2.0903390747
 30
0.0
 10
0.9299670894
 20
2.0779497307
 30
0.0
 10
0.9154581348
 20
2.0720128523
 30
0.0
 10
0.9080906036
 20
2.0696469418
 30
0.0
 11
1.0299479258
 21
2.2928083092
 31
0.0
 11
1.0288848214
 21
2.2597139773
 31
0.0
 11
1.025106668
 21
2.2281816672
 31
0.0
 11
1.0186572404
 21
2.1986962317
 31
0.0
 11
1.0096512783
 21
2.1716436227
 31
0.0
 11
0.998147017
 21
2.1471167497
 31
0.0
 11
0.9841862283
 21
2.1252566002
 31
0.0
 11
0.9679586722
 21
2.1063976347
 31
0.0
 11
0.9497149386
 21
2.0907807299
 31
0.0
 11
0.9295481852
 21
2.078445046
 31
0.0
 11
0.9080906036
 21
2.0696469418
 31
0.0
  0
SPLINE
  5
2B0
100
AcDbEntity
  8
ASSI
100
AcDbSpline
 62
7
  6
CONTINUOUS
 70
0
 71
3
 72
23
 73
19
 74
17
 42
0.0000001
 43
0.0000001
 44
0.0000000001
 12
0.5249182302
 22
-0.2624591151
 32
0.0
 13
0.0036517027
 23
-0.5868650616
 33
0.0
 40
0.0
 40
0.0
 40
0.0
 40
0.0
 40
0.0540534394
 40
0.1108095711
 40
0.1698178519
 40
0.2305904547
 40
0.293167576
 40
0.3575314641
 40
0.4230178089
 40
0.4889353731
 40
0.5552387648
 40
0.6218827833
 40
0.6881587177
 40
0.7533442148
 40
0.8173672924
 40
0.8802128772
 40
0.9412902139
 40
1.0
 40
1.0
 40
1.0
 40
1.0
 10
0.7370464671
 20
3.9884533859
 30
0.0
 10
0.7465043456
 20
3.9837244466
 30
0.0
 10
0.7654309333
 20
3.9730836623
 30
0.0
 10
0.7928997968
 20
3.9543364929
 30
0.0
 10
0.8198094732
 20
3.9326354651
 30
0.0
 10
0.8458731654
 20
3.9082337167
 30
0.0
 10
0.8709024208
 20
3.881325667
 30
0.0
 10
0.8946927726
 20
3.852119043
 30
0.0
 10
0.9169718913
 20
3.8209388829
 30
0.0
 10
0.9375056795
 20
3.7881355768
 30
0.0
 10
0.9561478562
 20
3.7539638008
 30
0.0
 10
0.9727489874
 20
3.7186773995
 30
0.0
 10
0.9871166859
 20
3.68265904
 30
0.0
 10
0.9990963848
 20
3.6463164389
 30
0.0
 10
1.0086016723
 20
3.6099416724
 30
0.0
 10
1.0155501774
 20
3.5738082713
 30
0.0
 10
1.0198518387
 20
3.538311709
 30
0.0
 10
1.0209473498
 20
3.5148765454
 30
0.0
 10
1.0210188134
 20
3.5033916379
 30
0.0
 11
0.7370464671
 21
3.9884533859
 31
0.0
 11
0.7647307335
 21
3.9729643446
 31
0.0
 11
0.7922760491
 21
3.954236448
 31
0.0
 11
0.8192642349
 21
3.9325358923
 31
0.0
 11
0.8453281562
 21
3.9081897197
 31
0.0
 11
0.8703648102
 21
3.8813216289
 31
0.0
 11
0.8942404147
 21
3.8520504141
 31
0.0
 11
0.9165982787
 21
3.8207906211
 31
0.0
 11
0.9371331482
 21
3.7880051932
 31
0.0
 11
0.9557715796
 21
3.7538475494
 31
0.0
 11
0.9724186604
 21
3.718455349
 31
0.0
 11
0.9868200958
 21
3.6823239138
 31
0.0
 11
0.9987799163
 21
3.6459856237
 31
0.0
 11
1.0082553811
 21
3.6096263939
 31
0.0
 11
1.0151879312
 21
3.5734011907
 31
0.0
 11
1.0194589012
 21
3.5378116978
 31
0.0
 11
1.0210188134
 21
3.5033916379
 31
0.0
  0
SPLINE
  5
2B1
100
AcDbEntity
  8
ASSI
100
AcDbSpline
 62
253
  6
CONTINUOUS
 70
0
 71
3
 72
24
 73
20
 74
18
 42
0.0000001
 43
0.0000001
 44
0.0000000001
 12
-0.2109636275
 22
0.1054845185
 32
0.0
 13
0.206907066
 23
0.11323472
 33
0.0
 40
0.0
 40
0.0
 40
0.0
 40
0.0
 40
0.073604999
 40
0.1429946744
 40
0.2081158634
 40
0.2690715761
 40
0.326139588
 40
0.3797983211
 40
0.4307418959
 40
0.4798748912
 40
0.5282642816
 40
0.5770507795
 40
0.6273350143
 40
0.6800785173
 40
0.7360420195
 40
0.7957693816
 40
0.8595969972
 40
0.9276778407
 40
1.0
 40
1.0
 40
1.0
 40
1.0
 10
-17.3528432951
 20
16.0172490211
 30
0.0
 10
-17.3580192876
 20
16.0198370838
 30
0.0
 10
-17.3679023143
 20
16.0252232268
 30
0.0
 10
-17.3816017398
 20
16.0342064454
 30
0.0
 10
-17.3936435861
 20
16.043794471
 30
0.0
 10
-17.4039283473
 20
16.053915099
 30
0.0
 10
-17.4123699398
 20
16.0644949131
 30
0.0
 10
-17.4188913792
 20
16.0754573466
 30
0.0
 10
-17.423424089
 20
16.086719166
 30
0.0
 10
-17.4259106344
 20
16.0981847287
 30
0.0
 10
-17.4263139349
 20
16.1097432573
 30
0.0
 10
-17.4246278894
 20
16.1212750654
 30
0.0
 10
-17.4208793589
 20
16.1326650991
 30
0.0
 10
-17.4151193225
 20
16.1438122973
 30
0.0
 10
-17.407412264
 20
16.1546293249
 30
0.0
 10
-17.397831481
 20
16.1650370176
 30
0.0
 10
-17.3864588895
 20
16.1749600211
 30
0.0
 10
-17.3733894234
 20
16.1843239913
 30
0.0
 10
-17.3638941022
 20
16.1899802595
 30
0.0
 10
-17.3589061136
 20
16.1927100526
 30
0.0
 11
-17.3528432951
 21
16.0172490211
 31
0.0
 11
-17.3680690549
 21
16.0255903004
 31
0.0
 11
-17.3817316478
 21
16.03460144
 31
0.0
 11
-17.3937169103
 21
16.044207618
 31
0.0
 11
-17.4039267156
 21
16.0543302874
 31
0.0
 11
-17.4122778041
 21
16.064886866
 31
0.0
 11
-17.4187021374
 21
16.0757913947
 31
0.0
 11
-17.4231472043
 21
16.0869548107
 31
0.0
 11
-17.4255767393
 21
16.098286068
 31
0.0
 11
-17.4259709107
 21
16.1096926576
 31
0.0
 11
-17.4243265062
 21
16.1210816179
 31
0.0
 11
-17.4206569393
 21
16.1323599881
 31
0.0
 11
-17.4149921412
 21
16.1434357824
 31
0.0
 11
-17.4073784115
 21
16.1542185338
 31
0.0
 11
-17.3978777813
 21
16.1646204346
 31
0.0
 11
-17.3865677176
 21
16.1745566232
 31
0.0
 11
-17.3735408291
 21
16.1839458465
 31
0.0
 11
-17.3589061136
 21
16.1927100526
 31
0.0
  0
SPLINE
  5
2B2
100
AcDbEntity
  8
ASSI
100
AcDbSpline
 62
253
  6
CONTINUOUS
 70
0
 71
3
 72
14
 73
10
 74
8
 42
0.0000001
 43
0.0000001
 44
0.0000000001
 12
0.1079759423
 22
0.059107575
 32
0.0
 13
0.1114318115
 23
-0.0519160149
 33
0.0
 40
0.0
 40
0.0
 40
0.0
 40
0.0
 40
0.0441160084
 40
0.1884254707
 40
0.3362174592
 40
0.4897860629
 40
0.6509086686
 40
0.8207758232
 40
1.0
 40
1.0
 40
1.0
 40
1.0
 10
-17.4773811338
 20
16.1962900431
 30
0.0
 10
-17.4757933113
 20
16.1971592398
 30
0.0
 10
-17.4689099608
 20
16.2006858495
 30
0.0
 10
-17.4559281734
 20
16.205511478
 30
0.0
 10
-17.4378822334
 20
16.2088335802
 30
0.0
 10
-17.4188578222
 20
16.2092011231
 30
0.0
 10
-17.3991019128
 20
16.2066312537
 30
0.0
 10
-17.3788629119
 20
16.2011764036
 30
0.0
 10
-17.3655632052
 20
16.1958115876
 30
0.0
 10
-17.3589061136
 20
16.1927100526
 30
0.0
 11
-17.4773811338
 21
16.1962900431
 31
0.0
 11
-17.472548629
 21
16.1987655382
 31
0.0
 11
-17.4559285746
 21
16.2049696675
 31
0.0
 11
-17.4380694868
 21
16.208307846
 31
0.0
 11
-17.4191958671
 21
16.2087381104
 31
0.0
 11
-17.3995449703
 21
16.2062550521
 31
0.0
 11
-17.379363822
 21
16.2008898849
 31
0.0
 11
-17.3589061136
 21
16.1927100526
 31
0.0
  0
SPLINE
  5
2B3
100
AcDbEntity
  8
ASSI
100
AcDbSpline
 62
253
  6
CONTINUOUS
 70
0
 71
3
 72
16
 73
12
 74
10
 42
0.0000001
 43
0.0000001
 44
0.0000000001
 12
0.0036161411
 22
-0.2418106442
 32
0.0
 13
0.2159330084
 23
-0.1081392179
 33
0.0
 40
0.0
 40
0.0
 40
0.0
 40
0.0
 40
0.0103930823
 40
0.112579263
 40
0.2175952981
 40
0.3277075684
 40
0.4447151008
 40
0.5698908706
 40
0.7040051987
 40
0.8473880301
 40
1.0
 40
1.0
 40
1.0
 40
1.0
 10
-17.6130428696
 20
8.0405894447
 30
0.0
 10
-17.6130303419
 20
8.0397517254
 30
0.0
 10
-17.6128072315
 20
8.0306788291
 30
0.0
 10
-17.6105379759
 20
8.0132064475
 30
0.0
 10
-17.6026411969
 20
7.9887738002
 30
0.0
 10
-17.59019614
 20
7.9649808456
 30
0.0
 10
-17.5733642626
 20
7.9420393033
 30
0.0
 10
-17.5523283672
 20
7.9201369579
 30
0.0
 10
-17.5272917322
 20
7.8994502715
 30
0.0
 10
-17.4984869557
 20
7.8801511308
 30
0.0
 10
-17.477574258
 20
7.86866547
 30
0.0
 10
-17.4665896041
 20
7.8631643569
 30
0.0
 11
-17.6130428696
 21
8.0405894447
 31
0.0
 11
-17.6129810431
 21
8.0380768254
 31
0.0
 11
-17.6098388981
 21
8.0135999521
 31
0.0
 11
-17.6021229412
 21
7.9894410791
 31
0.0
 11
-17.5899042185
 21
7.9658226537
 31
0.0
 11
-17.5732952359
 21
7.9429621466
 31
0.0
 11
-17.5524489238
 21
7.9210700501
 31
0.0
 11
-17.5275572283
 21
7.9003479396
 31
0.0
 11
-17.4988493441
 21
7.8809866176
 31
0.0
 11
-17.4665896041
 21
7.8631643569
 31
0.0
  0
SPLINE
  5
2B4
100
AcDbEntity
  8
ASSI
100
AcDbSpline
 62
253
  6
CONTINUOUS
 70
0
 71
3
 72
15
 73
11
 74
9
 42
0.0000001
 43
0.0000001
 44
0.0000000001
 12
0.030493881
 22
-0.236524202
 32
0.0
 13
0.2125933002
 23
-0.1074711064
 33
0.0
 40
0.0
 40
0.0
 40
0.0
 40
0.0
 40
0.0537377621
 40
0.1733276751
 40
0.2958332306
 40
0.4229807903
 40
0.5561566662
 40
0.6963631303
 40
0.84422102
 40
1.0
 40
1.0
 40
1.0
 40
1.0
 10
-16.9375658854
 20
-1.7376726242
 30
0.0
 10
-16.9370196611
 20
-1.7419093846
 30
0.0
 10
-16.9347545747
 20
-1.7555098073
 30
0.0
 10
-16.9281408726
 20
-1.7781565716
 30
0.0
 10
-16.9155429809
 20
-1.8047593611
 30
0.0
 10
-16.8985600448
 20
-1.8300948073
 30
0.0
 10
-16.8773767069
 20
-1.853935796
 30
0.0
 10
-16.8522050803
 20
-1.8760782098
 30
0.0
 10
-16.8232881052
 20
-1.8963331546
 30
0.0
 10
-16.8022301858
 20
-1.9081602641
 30
0.0
 10
-16.7911909966
 20
-1.9137408438
 30
0.0
 11
-16.9375658854
 21
-1.7376726242
 31
0.0
 11
-16.9354604029
 21
-1.7503107274
 31
0.0
 11
-16.9275112188
 21
-1.7776672021
 31
0.0
 11
-16.9150855801
 21
-1.804072214
 31
0.0
 11
-16.8982979553
 21
-1.8292825128
 31
0.0
 11
-16.8773029967
 21
-1.8530658541
 31
0.0
 11
-16.8522941157
 21
-1.8752031392
 31
0.0
 11
-16.8235017011
 21
-1.8954904332
 31
0.0
 11
-16.7911909966
 21
-1.9137408438
 31
0.0
  0
SPLINE
  5
2B5
100
AcDbEntity
  8
ASSI
100
AcDbSpline
 62
253
  6
CONTINUOUS
 70
0
 71
3
 72
16
 73
12
 74
10
 42
0.0000001
 43
0.0000001
 44
0.0000000001
 12
-0.3871466113
 22
0.2510434959
 32
0.0
 13
-0.0590054171
 23
0.4572819109
 33
0.0
 40
0.0
 40
0.0
 40
0.0
 40
0.0
 40
0.0326832322
 40
0.1395273194
 40
0.2489329878
 40
0.3618525322
 40
0.4790664654
 40
0.6011681179
 40
0.7285654429
 40
0.861485593
 40
1.0
 40
1.0
 40
1.0
 40
1.0
 10
-16.5788663982
 20
-2.3070811569
 30
0.0
 10
-16.5830841324
 20
-2.304346186
 30
0.0
 10
-16.6008506139
 20
-2.2923014302
 30
0.0
 10
-16.6306195445
 20
-2.2680984956
 30
0.0
 10
-16.6656034708
 20
-2.2313755602
 30
0.0
 10
-16.696887497
 20
-2.1894625581
 30
0.0
 10
-16.7242812317
 20
-2.1426489973
 30
0.0
 10
-16.7476226998
 20
-2.0912483952
 30
0.0
 10
-16.7667756198
 20
-2.0355962142
 30
0.0
 10
-16.7816281101
 20
-1.97605564
 30
0.0
 10
-16.78846663
 20
-1.9348542216
 30
0.0
 10
-16.7911909968
 20
-1.913740844
 30
0.0
 11
-16.5788663982
 21
-2.3070811569
 31
0.0
 11
-16.5913481523
 21
-2.2986199398
 31
0.0
 11
-16.6296107649
 21
-2.2675907765
 31
0.0
 11
-16.6644685997
 21
-2.2311280647
 31
0.0
 11
-16.6956958844
 21
-2.1894683279
 31
0.0
 11
-16.7230904423
 21
-2.1428817141
 31
0.0
 11
-16.7464749349
 21
-2.0916703276
 31
0.0
 11
-16.7656982535
 21
-2.0361654612
 31
0.0
 11
-16.7806357029
 21
-1.9767278089
 31
0.0
 11
-16.7911909968
 21
-1.913740844
 31
0.0
  0
SPLINE
  5
2B6
100
AcDbEntity
  8
ASSI
100
AcDbSpline
 62
7
  6
CONTINUOUS
 70
0
 71
3
 72
23
 73
19
 74
17
 42
0.0000001
 43
0.0000001
 44
0.0000000001
 12
-0.4697235934
 22
0.2720556507
 32
0.0
 13
-0.0327478609
 23
0.5417582291
 33
0.0
 40
0.0
 40
0.0
 40
0.0
 40
0.0
 40
0.0197112377
 40
0.0810136604
 40
0.1447474378
 40
0.2103855487
 40
0.2779702474
 40
0.3474889991
 40
0.4182279689
 40
0.4894443216
 40
0.5610860775
 40
0.6331136178
 40
0.7047627447
 40
0.7752532483
 40
0.8445006569
 40
0.9124937506
 40
0.9785939253
 40
1.0
 40
1.0
 40
1.0
 40
1.0
 10
-5.1386478473
 20
5.0357761986
 30
0.0
 10
-5.1417341251
 20
5.0375637165
 30
0.0
 10
-5.1543097158
 20
5.0451000977
 30
0.0
 10
-5.1759625359
 20
5.0598622435
 30
0.0
 10
-5.2028496837
 20
5.081509696
 30
0.0
 10
-5.228900477
 20
5.1058466661
 30
0.0
 10
-5.2539280177
 20
5.1326810216
 30
0.0
 10
-5.2777293168
 20
5.1618081476
 30
0.0
 10
-5.3000332601
 20
5.1929074221
 30
0.0
 10
-5.3206051458
 20
5.2256316431
 30
0.0
 10
-5.3392982853
 20
5.2597297837
 30
0.0
 10
-5.3559621782
 20
5.2949512321
 30
0.0
 10
-5.3704028532
 20
5.3309172741
 30
0.0
 10
-5.3824626479
 20
5.3672212496
 30
0.0
 10
-5.3920525584
 20
5.4035721068
 30
0.0
 10
-5.3990876426
 20
5.4396969415
 30
0.0
 10
-5.4025393083
 20
5.4676297945
 30
0.0
 10
-5.403694948
 20
5.4834205674
 30
0.0
 10
-5.4039286157
 20
5.4872862064
 30
0.0
 11
-5.1386478473
 21
5.0357761986
 31
0.0
 11
-5.1478265605
 21
5.0412740026
 31
0.0
 11
-5.1753409703
 21
5.0599612826
 31
0.0
 11
-5.2023066039
 21
5.0816085442
 31
0.0
 11
-5.2283577368
 21
5.1058904744
 31
0.0
 11
-5.2533917768
 21
5.1326843305
 31
0.0
 11
-5.2772778447
 21
5.1618755565
 31
0.0
 11
-5.2996601119
 21
5.1930538634
 31
0.0
 11
-5.3202332753
 21
5.225760844
 31
0.0
 11
-5.3389217954
 21
5.2598435477
 31
0.0
 11
-5.3556316512
 21
5.2951704217
 31
0.0
 11
-5.3701062179
 21
5.3312493534
 31
0.0
 11
-5.3821464839
 21
5.3675502469
 31
0.0
 11
-5.3917062932
 21
5.403884773
 31
0.0
 11
-5.3987256171
 21
5.4401013757
 31
0.0
 11
-5.4030824747
 21
5.4756992758
 31
0.0
 11
-5.4039286157
 21
5.4872862064
 31
0.0
  0
SPLINE
  5
2B7
100
AcDbEntity
  8
ASSI
100
AcDbSpline
 62
7
  6
CONTINUOUS
 70
0
 71
3
 72
16
 73
12
 74
10
 42
0.0000001
 43
0.0000001
 44
0.0000000001
 12
0.0099543161
 22
0.2047498668
 32
0.0
 13
0.1669985182
 23
0.1191182173
 33
0.0
 40
0.0
 40
0.0
 40
0.0
 40
0.0
 40
0.0529206477
 40
0.2079171624
 40
0.3553429345
 40
0.4947252683
 40
0.627260687
 40
0.7542616108
 40
0.876171847
 40
0.9939121289
 40
1.0
 40
1.0
 40
1.0
 40
1.0
 10
-5.4131906786
 20
6.7429713563
 30
0.0
 10
-5.4130150824
 20
6.7465831881
 30
0.0
 10
-5.4121271914
 20
6.7607641995
 30
0.0
 10
-5.4092258292
 20
6.7848946608
 30
0.0
 10
-5.4027619096
 20
6.8144244811
 30
0.0
 10
-5.3936990866
 20
6.8416581443
 30
0.0
 10
-5.3821092904
 20
6.8663944619
 30
0.0
 10
-5.368057123
 20
6.8884304598
 30
0.0
 10
-5.3516756941
 20
6.9074946872
 30
0.0
 10
-5.3388763915
 20
6.9184593511
 30
0.0
 10
-5.3320039062
 20
6.9234047771
 30
0.0
 10
-5.3316650178
 20
6.9236465026
 30
0.0
 11
-5.4131906786
 21
6.7429713563
 31
0.0
 11
-5.4125106382
 21
6.7537980963
 31
0.0
 11
-5.4086503855
 21
6.7853238964
 31
0.0
 11
-5.4021151912
 21
6.8148184537
 31
0.0
 11
-5.3930194748
 21
6.8418931032
 31
0.0
 11
-5.3814215255
 21
6.8664507569
 31
0.0
 11
-5.3673616044
 21
6.8883503932
 31
0.0
 11
-5.3510300613
 21
6.9072540624
 31
0.0
 11
-5.33267864
 21
6.9229171034
 31
0.0
 11
-5.3316650178
 21
6.9236465026
 31
0.0
  0
SPLINE
  5
2B8
100
AcDbEntity
  8
ASSI
100
AcDbSpline
 62
253
  6
CONTINUOUS
 70
0
 71
3
 72
24
 73
20
 74
18
 42
0.0000001
 43
0.0000001
 44
0.0000000001
 12
-0.3225383182
 22
-0.1537130115
 32
0.0
 13
-0.3195746748
 23
0.1597832403
 33
0.0
 40
0.0
 40
0.0
 40
0.0
 40
0.0
 40
0.0524730889
 40
0.1073724184
 40
0.164442622
 40
0.2233961642
 40
0.283914619
 40
0.3456553533
 40
0.4082554946
 40
0.4713401437
 40
0.5345269365
 40
0.5974328202
 40
0.6596779188
 40
0.7208925822
 40
0.7807219467
 40
0.8388342871
 40
0.894925227
 40
0.9487248433
 40
1.0
 40
1.0
 40
1.0
 40
1.0
 10
13.6377707437
 20
0.694371624
 30
0.0
 10
13.6321292164
 20
0.6916830251
 30
0.0
 10
13.620387187
 20
0.6865900377
 30
0.0
 10
13.6019548468
 20
0.6799384098
 30
0.0
 10
13.5824289741
 20
0.6741445374
 30
0.0
 10
13.5619695107
 20
0.6692563146
 30
0.0
 10
13.5407417092
 20
0.6653131595
 30
0.0
 10
13.5189176361
 20
0.6623471819
 30
0.0
 10
13.4966742405
 20
0.6603825066
 30
0.0
 10
13.4741921586
 20
0.6594351549
 30
0.0
 10
13.4516538835
 20
0.6595128392
 30
0.0
 10
13.4292424409
 20
0.6606149202
 30
0.0
 10
13.4071397391
 20
0.6627324117
 30
0.0
 10
13.3855252346
 20
0.6658480382
 30
0.0
 10
13.364574093
 20
0.6699364629
 30
0.0
 10
13.3444560349
 20
0.6749644173
 30
0.0
 10
13.3253333731
 20
0.6808914307
 30
0.0
 10
13.3073626223
 20
0.6876685956
 30
0.0
 10
13.295957702
 20
0.6928485926
 30
0.0
 10
13.2904956215
 20
0.6955795628
 30
0.0
 11
13.6377707437
 21
0.694371624
 31
0.0
 11
13.6205824615
 21
0.6868842011
 31
0.0
 11
13.6021403614
 21
0.6802025837
 31
0.0
 11
13.5825977435
 21
0.6743826722
 31
0.0
 11
13.5621144159
 21
0.66947212
 31
0.0
 11
13.5408574881
 21
0.6655109677
 31
0.0
 11
13.5190000623
 21
0.6625314873
 31
0.0
 11
13.4967206691
 21
0.6605580302
 31
0.0
 11
13.4742010185
 21
0.659606693
 31
0.0
 11
13.4516249238
 21
0.6596852365
 31
0.0
 11
13.4291763761
 21
0.6607930205
 31
0.0
 11
13.4070386466
 21
0.6629210027
 31
0.0
 11
13.3853922852
 21
0.6660518214
 31
0.0
 11
13.3644140889
 21
0.6701598852
 31
0.0
 11
13.3442748774
 21
0.6752117242
 31
0.0
 11
13.3251389491
 21
0.6811661416
 31
0.0
 11
13.3071627742
 21
0.6879743859
 31
0.0
 11
13.2904956215
 21
0.6955795628
 31
0.0
  0
LINE
  5
2B9
100
AcDbEntity
  8
ASSI
100
AcDbLine
 62
7
  6
CONTINUOUS
 10
-5.404723783
 20
5.5101441636
 11
-5.4062222961
 21
5.6894019284
  0
LINE
  5
2BA
100
AcDbEntity
  8
ASSI
100
AcDbLine
 62
7
  6
CONTINUOUS
 10
-5.4062222961
 20
5.6894019284
 11
-5.4065873732
 21
5.7342207768
  0
LINE
  5
2BB
100
AcDbEntity
  8
ASSI
100
AcDbLine
 62
7
  6
CONTINUOUS
 10
-5.4065873732
 20
5.7342207768
 11
-5.4080094789
 21
5.9135138085
  0
LINE
  5
2BC
100
AcDbEntity
  8
ASSI
100
AcDbLine
 62
7
  6
CONTINUOUS
 10
-5.4080094789
 20
5.9135138085
 11
-5.4093705134
 21
6.0928419509
  0
LINE
  5
2BD
100
AcDbEntity
  8
ASSI
100
AcDbLine
 62
7
  6
CONTINUOUS
 10
-5.4093705134
 20
6.0928419509
 11
-5.4097012211
 21
6.1376783763
  0
LINE
  5
2BE
100
AcDbEntity
  8
ASSI
100
AcDbLine
 62
7
  6
CONTINUOUS
 10
-5.4097012211
 20
6.1376783763
 11
-5.4109858506
 21
6.3170417024
  0
LINE
  5
2BF
100
AcDbEntity
  8
ASSI
100
AcDbLine
 62
7
  6
CONTINUOUS
 10
-5.4109858506
 20
6.3170417024
 11
-5.4122094053
 21
6.4964400593
  0
LINE
  5
2C0
100
AcDbEntity
  8
ASSI
100
AcDbLine
 62
7
  6
CONTINUOUS
 10
-5.4122094053
 20
6.4964400593
 11
-5.4125057434
 21
6.5412940346
  0
LINE
  5
2C1
100
AcDbEntity
  8
ASSI
100
AcDbLine
 62
7
  6
CONTINUOUS
 10
-5.4125057434
 20
6.5412940346
 11
-5.4136528954
 21
6.7207274923
  0
SPLINE
  5
2C2
100
AcDbEntity
  8
ASSI
100
AcDbSpline
 62
7
  6
CONTINUOUS
 70
0
 71
3
 72
14
 73
10
 74
8
 42
0.0000001
 43
0.0000001
 44
0.0000000001
 12
-0.1348742279
 22
-0.0433117058
 32
0.0
 13
-0.1305045418
 23
0.0549059436
 33
0.0
 40
0.0
 40
0.0
 40
0.0
 40
0.0
 40
0.0041519654
 40
0.1751397287
 40
0.3507158298
 40
0.5337212842
 40
0.7267852074
 40
0.9302596416
 40
1.0
 40
1.0
 40
1.0
 40
1.0
 10
0.9080906036
 20
2.0696469418
 30
0.0
 10
0.9079039392
 20
2.0695869989
 30
0.0
 10
0.9000250437
 20
2.0670740075
 30
0.0
 10
0.8838350699
 20
2.0633558482
 30
0.0
 10
0.8588332548
 20
2.0615175619
 30
0.0
 10
0.8327931166
 20
2.0632776788
 30
0.0
 10
0.8059130054
 20
2.0686214211
 30
0.0
 10
0.7849447687
 20
2.0754028614
 30
0.0
 10
0.7729755589
 20
2.080204637
 30
0.0
 10
0.7699417477
 20
2.0814810237
 30
0.0
 11
0.9080906036
 21
2.0696469418
 31
0.0
 11
0.90753026
 21
2.0694682188
 31
0.0
 11
0.8839583887
 21
2.064006022
 31
0.0
 11
0.8591846186
 21
2.062116074
 31
0.0
 11
0.8333412122
 21
2.0637825836
 31
0.0
 11
0.8065286021
 21
2.0690257934
 31
0.0
 11
0.7791067
 21
2.0778072138
 31
0.0
 11
0.7699417477
 21
2.0814810237
 31
0.0
  0
SPLINE
  5
2C3
100
AcDbEntity
  8
ASSI
100
AcDbSpline
 62
253
  6
CONTINUOUS
 70
0
 71
3
 72
21
 73
17
 74
15
 42
0.0000001
 43
0.0000001
 44
0.0000000001
 12
-0.0027086902
 22
0.3665006289
 32
0.0
 13
-0.3229569199
 23
0.1732884182
 33
0.0
 40
0.0
 40
0.0
 40
0.0
 40
0.0
 40
0.0675515957
 40
0.1379106427
 40
0.210618269
 40
0.2851460241
 40
0.3609149144
 40
0.4373129777
 40
0.5137119661
 40
0.5894836079
 40
0.6640158694
 40
0.7367296356
 40
0.8070962814
 40
0.8746567015
 40
0.9390424875
 40
1.0
 40
1.0
 40
1.0
 40
1.0
 10
13.8098129818
 20
0.3872256283
 30
0.0
 10
13.8097519897
 20
0.3954781957
 30
0.0
 10
13.8088686448
 20
0.4123274471
 30
0.0
 10
13.8054585097
 20
0.4378559286
 30
0.0
 10
13.7999769134
 20
0.4638924507
 30
0.0
 10
13.7924923831
 20
0.4901110548
 30
0.0
 10
13.7830981837
 20
0.5161864043
 30
0.0
 10
13.7719113823
 20
0.5417935226
 30
0.0
 10
13.7590714076
 20
0.5666133416
 30
0.0
 10
13.7447382628
 20
0.590336523
 30
0.0
 10
13.7290904466
 20
0.6126675457
 30
0.0
 10
13.7123223995
 20
0.6333285466
 30
0.0
 10
13.6946422598
 20
0.652062582
 30
0.0
 10
13.6762671807
 20
0.6686376389
 30
0.0
 10
13.6574259708
 20
0.6828460701
 30
0.0
 10
13.6443329605
 20
0.690850547
 30
0.0
 10
13.6377707437
 20
0.694371624
 30
0.0
 11
13.8098129818
 21
0.3872256283
 31
0.0
 11
13.80856283
 21
0.4119524239
 31
0.0
 11
13.8051850921
 21
0.4375175907
 31
0.0
 11
13.799722229
 21
0.463599756
 31
0.0
 11
13.7922429127
 21
0.4898710484
 31
0.0
 11
13.7828411637
 21
0.5160012189
 31
0.0
 11
13.7716351688
 21
0.5416617926
 31
0.0
 11
13.7587657955
 21
0.566530198
 31
0.0
 11
13.744394821
 21
0.5902938214
 31
0.0
 11
13.7287028989
 21
0.6126539374
 31
0.0
 11
13.7118872877
 21
0.6333294636
 31
0.0
 11
13.6941593718
 21
0.6520604941
 31
0.0
 11
13.6757420035
 21
0.6686115668
 31
0.0
 11
13.6568667022
 21
0.6827746232
 31
0.0
 11
13.6377707437
 21
0.694371624
 31
0.0
  0
SPLINE
  5
2C4
100
AcDbEntity
  8
ASSI
100
AcDbSpline
 62
253
  6
CONTINUOUS
 70
0
 71
3
 72
21
 73
17
 74
15
 42
0.0000001
 43
0.0000001
 44
0.0000000001
 12
-0.0002381811
 22
0.3665649359
 32
0.0
 13
0.3264581342
 23
0.1667183122
 33
0.0
 40
0.0
 40
0.0
 40
0.0
 40
0.0
 40
0.0673451676
 40
0.1373665829
 40
0.2096497344
 40
0.2837102531
 40
0.3590123512
 40
0.4349859312
 40
0.5110428482
 40
0.5865927408
 40
0.6610588114
 40
0.7338939267
 40
0.8045974427
 40
0.8727332169
 40
0.9379493261
 40
1.0
 40
1.0
 40
1.0
 40
1.0
 10
13.1152616301
 20
0.3912922211
 30
0.0
 10
13.1152562833
 20
0.3995210134
 30
0.0
 10
13.1160257178
 20
0.4163134216
 30
0.0
 10
13.1193309499
 20
0.4417420736
 30
0.0
 10
13.124769796
 20
0.4676400211
 30
0.0
 10
13.1322747116
 20
0.4936860938
 30
0.0
 10
13.14175294
 20
0.5195604269
 30
0.0
 10
13.15308746
 20
0.5449437894
 30
0.0
 10
13.1661383742
 20
0.5695230707
 30
0.0
 10
13.1807446716
 20
0.5929949502
 30
0.0
 10
13.1967262807
 20
0.6150698615
 30
0.0
 10
13.213886594
 20
0.6354756936
 30
0.0
 10
13.2320146872
 20
0.6539609406
 30
0.0
 10
13.2508899144
 20
0.6702985281
 30
0.0
 10
13.2702792392
 20
0.6842853579
 30
0.0
 10
13.2837433058
 20
0.692131235
 30
0.0
 10
13.2904956215
 20
0.6955795628
 30
0.0
 11
13.1152616301
 21
0.3912922211
 31
0.0
 11
13.1163463133
 21
0.4159547621
 31
0.0
 11
13.119618193
 21
0.4414127723
 31
0.0
 11
13.1250365374
 21
0.4673493236
 31
0.0
 11
13.1325338933
 21
0.4934415311
 31
0.0
 11
13.1420169258
 21
0.5193645716
 31
0.0
 11
13.1533675803
 21
0.5447957281
 31
0.0
 11
13.166444552
 21
0.5694184072
 31
0.0
 11
13.1810850451
 21
0.5929260801
 31
0.0
 11
13.1971067995
 21
0.6150260987
 31
0.0
 11
13.2143103598
 21
0.6354433391
 31
0.0
 11
13.232481558
 21
0.6539236261
 31
0.0
 11
13.2513941802
 21
0.6702368979
 31
0.0
 11
13.2708127824
 21
0.6841800698
 31
0.0
 11
13.2904956215
 21
0.6955795628
 31
0.0
  0
SPLINE
  5
2C5
100
AcDbEntity
  8
ASSI
100
AcDbSpline
 62
253
  6
CONTINUOUS
 70
0
 71
3
 72
21
 73
17
 74
15
 42
0.0000001
 43
0.0000001
 44
0.0000000001
 12
-0.0002381814
 22
0.366564936
 32
0.0
 13
0.3264581343
 23
0.1667183119
 33
0.0
 40
0.0
 40
0.0
 40
0.0
 40
0.0
 40
0.0673451718
 40
0.1373665919
 40
0.2096497479
 40
0.2837102706
 40
0.3590123719
 40
0.4349859543
 40
0.5110428723
 40
0.5865927648
 40
0.661058834
 40
0.7338939467
 40
0.804597459
 40
0.8727332284
 40
0.9379493321
 40
1.0
 40
1.0
 40
1.0
 40
1.0
 10
-17.5280772865
 20
15.7129616794
 30
0.0
 10
-17.5280826333
 20
15.7211904722
 30
0.0
 10
-17.5273131987
 20
15.7379828815
 30
0.0
 10
-17.5240079663
 20
15.7634115351
 30
0.0
 10
-17.5185691196
 20
15.7893094842
 30
0.0
 10
-17.5110642032
 20
15.8153555582
 30
0.0
 10
-17.5015859739
 20
15.8412298922
 30
0.0
 10
-17.4902514531
 20
15.8666132552
 30
0.0
 10
-17.4772005382
 20
15.8911925366
 30
0.0
 10
-17.4625942403
 20
15.9146644158
 30
0.0
 10
-17.446612631
 20
15.9367393263
 30
0.0
 10
-17.4294523178
 20
15.9571451573
 30
0.0
 10
-17.4113242252
 20
15.9756304029
 30
0.0
 10
-17.392448999
 20
15.991967989
 30
0.0
 10
-17.3730596756
 20
16.0059548174
 30
0.0
 10
-17.3595956102
 20
16.0138006936
 30
0.0
 10
-17.3528432951
 20
16.0172490211
 30
0.0
 11
-17.5280772865
 21
15.7129616794
 31
0.0
 11
-17.5269926032
 21
15.737624222
 31
0.0
 11
-17.5237207231
 21
15.7630822338
 31
0.0
 11
-17.5183023781
 21
15.7890187868
 31
0.0
 11
-17.5108050214
 21
15.8151109955
 31
0.0
 11
-17.501321988
 21
15.841034037
 31
0.0
 11
-17.4899713327
 21
15.8664651941
 31
0.0
 11
-17.4768943603
 21
15.8910878732
 31
0.0
 11
-17.4622538667
 21
15.9145955457
 31
0.0
 11
-17.446232112
 21
15.9366955636
 31
0.0
 11
-17.429028552
 21
15.9571128028
 31
0.0
 11
-17.4108573543
 21
15.9755930885
 31
0.0
 11
-17.3919447331
 21
15.9919063588
 31
0.0
 11
-17.3725261324
 21
16.0058495293
 31
0.0
 11
-17.3528432951
 21
16.0172490211
 31
0.0
  0
SPLINE
  5
2C6
100
AcDbEntity
  8
ASSI
100
AcDbSpline
 62
253
  6
CONTINUOUS
 70
0
 71
3
 72
24
 73
20
 74
18
 42
0.0000001
 43
0.0000001
 44
0.0000000001
 12
-0.6460894983
 22
-0.3048812545
 32
0.0
 13
-0.6389944042
 23
0.3194845389
 33
0.0
 40
0.0
 40
0.0
 40
0.0
 40
0.0
 40
0.0524100356
 40
0.1072497924
 40
0.1642744396
 40
0.2231948714
 40
0.2836919856
 40
0.345422123
 40
0.4080213494
 40
0.471113599
 40
0.5343152536
 40
0.5972420897
 40
0.6595128813
 40
0.7207563994
 40
0.7806160868
 40
0.8387583409
 40
0.8948769789
 40
0.9486992022
 40
1.0
 40
1.0
 40
1.0
 40
1.0
 10
13.8098150103
 20
0.3872265855
 30
0.0
 10
13.7985278191
 20
0.3819003063
 30
0.0
 10
13.7750378966
 20
0.3718176846
 30
0.0
 10
13.7381714372
 20
0.358666828
 30
0.0
 10
13.6991202946
 20
0.3472292548
 30
0.0
 10
13.6582020306
 20
0.3375985323
 30
0.0
 10
13.6157472706
 20
0.3298524354
 30
0.0
 10
13.5721001137
 20
0.3240540098
 30
0.0
 10
13.5276144598
 20
0.3202504302
 30
0.0
 10
13.482651572
 20
0.3184727078
 30
0.0
 10
13.4375763825
 20
0.3187353106
 30
0.0
 10
13.3927548604
 20
0.3210360883
 30
0.0
 10
13.3485507448
 20
0.3253562937
 30
0.0
 10
13.305322919
 20
0.3316607004
 30
0.0
 10
13.2634217226
 20
0.3398980325
 30
0.0
 10
13.2231865815
 20
0.3500013064
 30
0.0
 10
13.1849422429
 20
0.3618890561
 30
0.0
 10
13.1489995895
 20
0.3754641938
 30
0.0
 10
13.1261867074
 20
0.3858298987
 30
0.0
 10
13.1152597331
 20
0.3912931692
 30
0.0
 11
13.8098150103
 21
0.3872265855
 31
0.0
 11
13.7754317735
 21
0.3724035479
 31
0.0
 11
13.7385478605
 21
0.3591934794
 31
0.0
 11
13.6994626147
 21
0.347703646
 31
0.0
 11
13.6584962185
 21
0.3380282623
 31
0.0
 11
13.6159827512
 21
0.3302461852
 31
0.0
 11
13.57226845
 21
0.3244208089
 31
0.0
 11
13.5277103619
 21
0.3205997327
 31
0.0
 11
13.4826718974
 21
0.3188141112
 31
0.0
 11
13.4375206637
 21
0.3190784982
 31
0.0
 11
13.3926244924
 21
0.3213907369
 31
0.0
 11
13.3483498288
 21
0.3257319685
 31
0.0
 11
13.3050577616
 21
0.3320667907
 31
0.0
 11
13.2631018712
 21
0.3403434384
 31
0.0
 11
13.2228238247
 21
0.3504944929
 31
0.0
 11
13.1845520933
 21
0.3624372053
 31
0.0
 11
13.1486001296
 21
0.3760736823
 31
0.0
 11
13.1152597331
 21
0.3912931692
 31
0.0
  0
SPLINE
  5
2C7
100
AcDbEntity
  8
ASSI
100
AcDbSpline
 62
253
  6
CONTINUOUS
 70
0
 71
3
 72
14
 73
10
 74
8
 42
0.0000001
 43
0.0000001
 44
0.0000000001
 12
-1.2344531456
 22
9.7271211268
 32
0.0
 13
-0.1480272948
 23
9.8040220269
 33
0.0
 40
0.0
 40
0.0
 40
0.0
 40
0.0
 40
0.1390931295
 40
0.2794615902
 40
0.4210944051
 40
0.5639791418
 40
0.7081019866
 40
0.8534477621
 40
1.0
 40
1.0
 40
1.0
 40
1.0
 10
-16.7911909968
 20
-1.913740844
 30
0.0
 10
-16.8484256472
 20
-1.4627489378
 30
0.0
 10
-16.9557362605
 20
-0.5556370969
 30
0.0
 10
-17.0947512277
 20
0.8136796146
 30
0.0
 10
-17.2125078529
 20
2.1974281677
 30
0.0
 10
-17.3089647865
 20
3.5951216874
 30
0.0
 10
-17.3840889174
 20
5.006276372
 30
0.0
 10
-17.4378542317
 20
6.4303967334
 30
0.0
 10
-17.4593583603
 20
7.3842305674
 30
0.0
 10
-17.4665896041
 20
7.8631643569
 30
0.0
 11
-16.7911909968
 21
-1.913740844
 31
0.0
 11
-16.9515176697
 21
-0.5593698092
 31
0.0
 11
-17.0906322065
 21
0.8099138868
 31
0.0
 11
-17.2084862599
 21
2.1936335311
 31
0.0
 11
-17.3050388669
 21
3.5913072995
 31
0.0
 11
-17.3802564806
 21
5.0024486651
 31
0.0
 11
-17.434112962
 21
6.4265662716
 31
0.0
 11
-17.4665896041
 21
7.8631643569
 31
0.0
  0
SPLINE
  5
2C8
100
AcDbEntity
  8
ASSI
100
AcDbSpline
 62
253
  6
CONTINUOUS
 70
0
 71
3
 72
23
 73
19
 74
17
 42
0.0000001
 43
0.0000001
 44
0.0000000001
 12
-0.6423463248
 22
-0.3139621741
 32
0.0
 13
-0.6396924869
 23
0.3193345735
 33
0.0
 40
0.0
 40
0.0
 40
0.0
 40
0.0
 40
0.0560459375
 40
0.1147633706
 40
0.1758533728
 40
0.2389680004
 40
0.3037206074
 40
0.3696950256
 40
0.4364539816
 40
0.5035470265
 40
0.5705181849
 40
0.6369134918
 40
0.7022885703
 40
0.7662164078
 40
0.8282955157
 40
0.8881587155
 40
0.9454828706
 40
1.0
 40
1.0
 40
1.0
 40
1.0
 10
13.8756832346
 20
-7.458594088
 30
0.0
 10
13.8636829339
 20
-7.4644595228
 30
0.0
 10
13.8386489738
 20
-7.4755428645
 30
0.0
 10
13.7992561605
 20
-7.4899256688
 30
0.0
 10
13.7574429066
 20
-7.5023509283
 30
0.0
 10
13.7135929164
 20
-7.5127041494
 30
0.0
 10
13.668105564
 20
-7.5208910624
 30
0.0
 10
13.6213968768
 20
-7.5268365102
 30
0.0
 10
13.5738941944
 20
-7.530485939
 30
0.0
 10
13.5260324712
 20
-7.5318058162
 30
0.0
 10
13.4782500388
 20
-7.5307840354
 30
0.0
 10
13.4309844641
 20
-7.5274300201
 30
0.0
 10
13.3846684162
 20
-7.5217746317
 30
0.0
 10
13.3397254299
 20
-7.5138697637
 30
0.0
 10
13.2965662762
 20
-7.5037879437
 30
0.0
 10
13.2555835118
 20
-7.4916207341
 30
0.0
 10
13.2171530149
 20
-7.477480086
 30
0.0
 10
13.1928192191
 20
-7.4665307561
 30
0.0
 10
13.1811944864
 20
-7.460727688
 30
0.0
 11
13.8756832346
 21
-7.458594088
 31
0.0
 11
13.8390709473
 21
-7.4748801339
 31
0.0
 11
13.7996559634
 21
-7.4893327057
 31
0.0
 11
13.7578012032
 21
-7.5018187286
 31
0.0
 11
13.713892052
 21
-7.5122232354
 31
0.0
 11
13.6683328111
 21
-7.5204504248
 31
0.0
 11
13.6215429754
 21
-7.5264245434
 31
0.0
 11
13.5739533706
 21
-7.5300905835
 31
0.0
 11
13.5260021866
 21
-7.5314147893
 31
0.0
 11
13.4781309425
 21
-7.530384968
 31
0.0
 11
13.4307804212
 21
-7.5270106018
 31
0.0
 11
13.3843866112
 21
-7.5213227609
 31
0.0
 11
13.3393766919
 21
-7.513373817
 31
0.0
 11
13.2961650999
 21
-7.5032369615
 31
0.0
 11
13.2551497139
 21
-7.4910055312
 31
0.0
 11
13.2167081904
 21
-7.4767921493
 31
0.0
 11
13.1811944864
 21
-7.460727688
 31
0.0
  0
SPLINE
  5
2C9
100
AcDbEntity
  8
ASSI
100
AcDbSpline
 62
253
  6
CONTINUOUS
 70
0
 71
3
 72
16
 73
12
 74
10
 42
0.0000001
 43
0.0000001
 44
0.0000000001
 12
-0.2159690029
 22
0.1079887814
 32
0.0
 13
-0.0006320221
 23
0.241788186
 33
0.0
 40
0.0
 40
0.0
 40
0.0
 40
0.0
 40
0.1438104959
 40
0.2793232648
 40
0.4064561134
 40
0.5254003835
 40
0.6366911712
 40
0.7412570252
 40
0.8404517125
 40
0.9360460384
 40
1.0
 40
1.0
 40
1.0
 40
1.0
 10
-17.5280753889
 20
15.7129607302
 30
0.0
 10
-17.5384282587
 20
15.7181373703
 30
0.0
 10
-17.5581931538
 20
15.7289050533
 30
0.0
 10
-17.5855923709
 20
15.74685155
 30
0.0
 10
-17.6096745977
 20
15.7659923983
 30
0.0
 10
-17.6302431116
 20
15.7861845646
 30
0.0
 10
-17.6471258954
 20
15.8072817316
 30
0.0
 10
-17.6601692802
 20
15.8291315954
 30
0.0
 10
-17.6692360795
 20
15.8515688737
 30
0.0
 10
-17.6736919165
 20
15.8720214332
 30
0.0
 10
-17.6745094181
 20
15.8848790776
 30
0.0
 10
-17.6745228915
 20
15.890033515
 30
0.0
 11
-17.5280753889
 21
15.7129607302
 31
0.0
 11
-17.558532269
 21
15.7296398817
 31
0.0
 11
-17.5858566278
 21
15.7476415658
 31
0.0
 11
-17.6098265412
 21
15.7668196758
 31
0.0
 11
-17.6302455271
 21
15.7870171375
 31
0.0
 11
-17.6469471342
 21
15.8080692386
 31
0.0
 11
-17.6597953134
 21
15.8298045396
 31
0.0
 11
-17.6686850742
 21
15.8520455202
 31
0.0
 11
-17.6735439174
 21
15.8746107888
 31
0.0
 11
-17.6745228915
 21
15.890033515
 31
0.0
  0
SPLINE
  5
2CA
100
AcDbEntity
  8
ASSI
100
AcDbSpline
 62
253
  6
CONTINUOUS
 70
0
 71
3
 72
14
 73
10
 74
8
 42
0.0000001
 43
0.0000001
 44
0.0000000001
 12
0.1590485282
 22
-9.8322410214
 32
0.0
 13
1.3196249534
 23
-9.744580541
 33
0.0
 40
0.0
 40
0.0
 40
0.0
 40
0.0
 40
0.1462535095
 40
0.2913919944
 40
0.4354038616
 40
0.5782788199
 40
0.7200079478
 40
0.860583705
 40
1.0
 40
1.0
 40
1.0
 40
1.0
 10
13.1811944861
 20
-7.4607276882
 30
0.0
 10
13.1889482879
 20
-7.9400609401
 30
0.0
 10
13.2120114803
 20
-8.8949683997
 30
0.0
 10
13.2696538458
 20
-10.3210499623
 30
0.0
 10
13.3501929042
 20
-11.7349350061
 30
0.0
 10
13.4536007957
 20
-13.1361263938
 30
0.0
 10
13.5798420938
 20
-14.5241394049
 30
0.0
 10
13.7288724253
 20
-15.8984849383
 30
0.0
 10
13.8438637668
 20
-16.8090799911
 30
0.0
 10
13.9051895074
 20
-17.2619310961
 30
0.0
 11
13.1811944861
 21
-7.4607276882
 31
0.0
 11
13.216007894
 21
-8.8984941563
 31
0.0
 11
13.2737394676
 21
-10.324549309
 31
0.0
 11
13.3543691538
 21
-11.7383967108
 31
0.0
 11
13.4578689331
 21
-13.1395440654
 31
0.0
 11
13.5842028447
 21
-14.5275036388
 31
0.0
 11
13.733326978
 21
-15.9017921331
 31
0.0
 11
13.9051895074
 21
-17.2619310961
 31
0.0
  0
SPLINE
  5
2CB
100
AcDbEntity
  8
ASSI
100
AcDbSpline
 62
253
  6
CONTINUOUS
 70
0
 71
3
 72
14
 73
10
 74
8
 42
0.0000001
 43
0.0000001
 44
0.0000000001
 12
0.1581958
 22
-9.7776961891
 32
0.0
 13
1.3125293863
 23
-9.6904920044
 33
0.0
 40
0.0
 40
0.0
 40
0.0
 40
0.0
 40
0.1462525689
 40
0.2913905064
 40
0.4354020953
 40
0.5782770586
 40
0.7200064886
 40
0.860582859
 40
1.0
 40
1.0
 40
1.0
 40
1.0
 10
13.8756832346
 20
-7.458594088
 30
0.0
 10
13.8833954153
 20
-7.9352651499
 30
0.0
 10
13.9063347871
 20
-8.8848703265
 30
0.0
 10
13.963667676
 20
-10.3030345453
 30
0.0
 10
14.0437743468
 20
-11.7090725852
 30
0.0
 10
14.1466270809
 20
-13.1024896161
 30
0.0
 10
14.2721906417
 20
-14.4828036067
 30
0.0
 10
14.4204208527
 20
-15.8495278686
 30
0.0
 10
14.5347946865
 20
-16.7550736309
 30
0.0
 10
14.5957910513
 20
-17.2054138609
 30
0.0
 11
13.8756832346
 21
-7.458594088
 31
0.0
 11
13.9103096926
 21
-8.8883751969
 31
0.0
 11
13.9677312993
 21
-10.3065135339
 31
0.0
 11
14.0479280862
 21
-11.7125140716
 31
0.0
 11
14.1508721849
 21
-13.105887245
 31
0.0
 11
14.2765278276
 21
-14.4861480255
 31
0.0
 11
14.424851339
 21
-15.852815795
 31
0.0
 11
14.5957910513
 21
-17.2054138609
 31
0.0
  0
SPLINE
  5
2CC
100
AcDbEntity
  8
ASSI
100
AcDbSpline
 62
253
  6
CONTINUOUS
 70
0
 71
3
 72
23
 73
19
 74
17
 42
0.0000001
 43
0.0000001
 44
0.0000000001
 12
-0.6046875015
 22
-0.3899603372
 32
0.0
 13
-0.6449837558
 23
0.3189231783
 33
0.0
 40
0.0
 40
0.0
 40
0.0
 40
0.0
 40
0.0585677629
 40
0.1193033505
 40
0.1819239888
 40
0.2461052335
 40
0.3114902464
 40
0.377698354
 40
0.4443331115
 40
0.5109900572
 40
0.5772643152
 40
0.6427581907
 40
0.7070889007
 40
0.7698965953
 40
0.8308528525
 40
0.8896698636
 40
0.9461105666
 40
1.0
 40
1.0
 40
1.0
 40
1.0
 10
14.5957910513
 20
-17.2054138609
 30
0.0
 10
14.5839859866
 20
-17.2130268958
 30
0.0
 10
14.559335295
 20
-17.2276150097
 30
0.0
 10
14.5203027716
 20
-17.2471849255
 30
0.0
 10
14.4788396498
 20
-17.2646977079
 30
0.0
 10
14.4353272551
 20
-17.2799922356
 30
0.0
 10
14.3901623839
 20
-17.2929295187
 30
0.0
 10
14.3437583489
 20
-17.3033911885
 30
0.0
 10
14.2965397709
 20
-17.3112815737
 30
0.0
 10
14.2489389374
 20
-17.3165284363
 30
0.0
 10
14.2013916219
 20
-17.3190837407
 30
0.0
 10
14.1543329776
 20
-17.3189240684
 30
0.0
 10
14.1081934497
 20
-17.3160508052
 30
0.0
 10
14.0633945472
 20
-17.3104899411
 30
0.0
 10
14.0203453921
 20
-17.3022919057
 30
0.0
 10
13.9794369569
 20
-17.2915298503
 30
0.0
 10
13.9410452732
 20
-17.2783018805
 30
0.0
 10
13.91677546
 20
-17.2676599481
 30
0.0
 10
13.9051895236
 20
-17.261931085
 30
0.0
 11
14.5957910513
 21
-17.2054138609
 31
0.0
 11
14.5595551542
 21
-17.2269271229
 31
0.0
 11
14.5205116929
 21
-17.2465578401
 31
0.0
 11
14.4790203466
 21
-17.2641251689
 31
0.0
 11
14.4354633452
 21
-17.2794672741
 31
0.0
 11
14.3902419479
 21
-17.2924428199
 31
0.0
 11
14.3437727469
 21
-17.3029322721
 31
0.0
 11
14.2964838293
 21
-17.3108389989
 31
0.0
 11
14.248810834
 21
-17.3160901612
 31
0.0
 11
14.2011929377
 21
-17.318637384
 31
0.0
 11
14.1540688099
 21
-17.3184572015
 31
0.0
 11
14.1078725711
 21
-17.3155512735
 31
0.0
 11
14.063029794
 21
-17.3099463704
 31
0.0
 11
14.0199535827
 21
-17.301694126
 31
0.0
 11
13.9790407674
 21
-17.2908705623
 31
0.0
 11
13.9406682482
 21
-17.277575389
 31
0.0
 11
13.9051895236
 21
-17.261931085
 31
0.0
  0
SPLINE
  5
2CD
100
AcDbEntity
  8
ASSI
100
AcDbSpline
 62
253
  6
CONTINUOUS
 70
0
 71
3
 72
17
 73
13
 74
11
 42
0.0000001
 43
0.0000001
 44
0.0000000001
 12
-0.0146233495
 22
-0.3374304751
 32
0.0
 13
-0.3134643983
 23
-0.1267186416
 33
0.0
 40
0.0
 40
0.0
 40
0.0
 40
0.0
 40
0.1257612106
 40
0.2463557878
 40
0.361548946
 40
0.4712938634
 40
0.5757615065
 40
0.6753678851
 40
0.7707922496
 40
0.8629762818
 40
0.9530928601
 40
1.0
 40
1.0
 40
1.0
 40
1.0
 10
14.9384520857
 20
-17.4135103633
 30
0.0
 10
14.937839069
 20
-17.427655585
 30
0.0
 10
14.9355881322
 20
-17.4553343932
 30
0.0
 10
14.9289080831
 20
-17.4955367502
 30
0.0
 10
14.9190488274
 20
-17.5332291402
 30
0.0
 10
14.9060952594
 20
-17.5680515354
 30
0.0
 10
14.8901578302
 20
-17.5996723686
 30
0.0
 10
14.8713722918
 20
-17.62778383
 30
0.0
 10
14.8499013411
 20
-17.6521026998
 30
0.0
 10
14.8259392339
 20
-17.6723712811
 30
0.0
 10
14.8038173767
 20
-17.6858632308
 30
0.0
 10
14.7897411335
 20
-17.6922476328
 30
0.0
 10
14.784839894
 20
-17.6942289692
 30
0.0
 11
14.9384520857
 21
-17.4135103633
 31
0.0
 11
14.9349413505
 21
-17.4558405241
 31
0.0
 11
14.9281879653
 21
-17.4960072243
 31
0.0
 11
14.9182568177
 21
-17.5336245351
 31
0.0
 11
14.905243328
 21
-17.5683310224
 31
0.0
 11
14.8892725322
 21
-17.5997932201
 31
0.0
 11
14.8704978806
 21
-17.6277088336
 31
0.0
 11
14.8490997635
 21
-17.6518096448
 31
0.0
 11
14.8252837777
 21
-17.6718640886
 31
0.0
 11
14.7992787517
 21
-17.6876794784
 31
0.0
 11
14.784839894
 21
-17.6942289692
 31
0.0
  0
SPLINE
  5
2CE
100
AcDbEntity
  8
ASSI
100
AcDbSpline
 62
253
  6
CONTINUOUS
 70
0
 71
3
 72
24
 73
20
 74
18
 42
0.0000001
 43
0.0000001
 44
0.0000000001
 12
0.0639027533
 22
-0.4717728467
 32
0.0
 13
0.4413838546
 23
0.1784193758
 33
0.0
 40
0.0
 40
0.0
 40
0.0
 40
0.0
 40
0.0674522603
 40
0.1324328803
 40
0.1949921921
 40
0.2552669519
 40
0.3134744861
 40
0.3699113309
 40
0.4249505657
 40
0.4790314766
 40
0.5326426374
 40
0.5862971832
 40
0.6405065485
 40
0.6957524301
 40
0.7524643122
 40
0.8110030704
 40
0.8716529464
 40
0.9346161818
 40
1.0
 40
1.0
 40
1.0
 40
1.0
 10
14.5957910513
 20
-17.2054138609
 30
0.0
 10
14.5972278464
 20
-17.2160212425
 30
0.0
 10
14.6008386534
 20
-17.2367516443
 30
0.0
 10
14.6086677861
 20
-17.2667269366
 30
0.0
 10
14.618764197
 20
-17.2948158787
 30
0.0
 10
14.6310677227
 20
-17.3208314763
 30
0.0
 10
14.6455051733
 20
-17.3446028926
 30
0.0
 10
14.6619890951
 20
-17.3659702639
 30
0.0
 10
14.680416599
 20
-17.3847864145
 30
0.0
 10
14.7006684184
 20
-17.4009187562
 30
0.0
 10
14.7226085949
 20
-17.4142522874
 30
0.0
 10
14.746085893
 20
-17.4246930344
 30
0.0
 10
14.7709367325
 20
-17.4321705622
 30
0.0
 10
14.796989112
 20
-17.4366388142
 30
0.0
 10
14.8240659718
 20
-17.438075057
 30
0.0
 10
14.8519872976
 20
-17.4364781154
 30
0.0
 10
14.8805716683
 20
-17.4318659152
 30
0.0
 10
14.9096302136
 20
-17.424276846
 30
0.0
 10
14.9288322984
 20
-17.4173989433
 30
0.0
 10
14.9384520857
 20
-17.4135103633
 30
0.0
 11
14.5957910513
 21
-17.2054138609
 31
0.0
 11
14.6013487429
 21
-17.237042019
 31
0.0
 11
14.6092154694
 21
-17.2669611327
 31
0.0
 11
14.6193395155
 21
-17.2949709323
 31
0.0
 11
14.6316552248
 21
-17.3208893598
 31
0.0
 11
14.6460830125
 21
-17.3445487438
 31
0.0
 11
14.6625294788
 21
-17.3657956435
 31
0.0
 11
14.6808881423
 21
-17.3844922713
 31
0.0
 11
14.7010400746
 21
-17.4005173255
 31
0.0
 11
14.7228548627
 21
-17.4137669198
 31
0.0
 11
14.7461910853
 21
-17.4241550006
 31
0.0
 11
14.7708976869
 21
-17.4316141832
 31
0.0
 11
14.7968145414
 21
-17.4360959811
 31
0.0
 11
14.8237736606
 21
-17.4375712335
 31
0.0
 11
14.8516002225
 21
-17.4360303096
 31
0.0
 11
14.8801141735
 21
-17.4314830745
 31
0.0
 11
14.9091301458
 21
-17.4239590997
 31
0.0
 11
14.9384520857
 21
-17.4135103633
 31
0.0
  0
SPLINE
  5
2CF
100
AcDbEntity
  8
ASSI
100
AcDbSpline
 62
253
  6
CONTINUOUS
 70
0
 71
3
 72
17
 73
13
 74
11
 42
0.0000001
 43
0.0000001
 44
0.0000000001
 12
0.0673496766
 22
-0.505193452
 32
0.0
 13
0.4557939012
 23
-0.2288339109
 33
0.0
 40
0.0
 40
0.0
 40
0.0
 40
0.0
 40
0.1257951957
 40
0.2468052935
 40
0.3631336894
 40
0.4750193806
 40
0.5828564352
 40
0.6871935549
 40
0.7887311989
 40
0.8883038923
 40
0.9868488866
 40
1.0
 40
1.0
 40
1.0
 40
1.0
 10
13.9051895074
 20
-17.2619310961
 30
0.0
 10
13.908013596
 20
-17.2831147325
 30
0.0
 10
13.9151080128
 20
-17.3244911322
 30
0.0
 10
13.9304985093
 20
-17.3843066523
 30
0.0
 10
13.9503446796
 20
-17.4403078697
 30
0.0
 10
13.9745296466
 20
-17.4921276232
 30
0.0
 10
14.0029105338
 20
-17.5394262568
 30
0.0
 10
14.0353167095
 20
-17.5818860803
 30
0.0
 10
14.0715474867
 20
-17.6192143072
 30
0.0
 10
14.1113696878
 20
-17.6511466702
 30
0.0
 10
14.1421003517
 20
-17.6698833761
 30
0.0
 10
14.1589967531
 20
-17.6785500993
 30
0.0
 10
14.1609948189
 20
-17.6795532395
 30
0.0
 11
13.9051895074
 21
-17.2619310961
 31
0.0
 11
13.9161199542
 21
-17.3251056374
 31
0.0
 11
13.9315882817
 21
-17.3848087288
 31
0.0
 11
13.9514948334
 21
-17.4406552117
 31
0.0
 11
13.9757104371
 21
-17.4922821538
 31
0.0
 11
14.0040786381
 21
-17.5393555891
 31
0.0
 11
14.0364157838
 21
-17.5815702564
 31
0.0
 11
14.0725125164
 21
-17.6186524172
 31
0.0
 11
14.1121350377
 21
-17.6503615348
 31
0.0
 11
14.1550269861
 21
-17.6764920782
 31
0.0
 11
14.1609948189
 21
-17.6795532395
 31
0.0
  0
SPLINE
  5
2D0
100
AcDbEntity
  8
CURVE
100
AcDbSpline
 62
253
  6
CONTINUOUS
 70
0
 71
3
 72
28
 73
24
 74
22
 42
0.0000001
 43
0.0000001
 44
0.0000000001
 12
-0.0237659534
 22
0.7285207933
 32
0.0
 13
0.0147385349
 23
-0.4517945897
 33
0.0
 40
0.0
 40
0.0
 40
0.0
 40
0.0
 40
0.0454545455
 40
0.0909090909
 40
0.1136363636
 40
0.1363636364
 40
0.1590909091
 40
0.1818181818
 40
0.2045454545
 40
0.2272727273
 40
0.2727272727
 40
0.3181818182
 40
0.3636363636
 40
0.4545454545
 40
0.5454545455
 40
0.6363636364
 40
0.7272727273
 40
0.7727272727
 40
0.8181818182
 40
0.8636363636
 40
0.9090909091
 40
0.9545454545
 40
1.0
 40
1.0
 40
1.0
 40
1.0
 10
-1.942765446
 20
-1.4419644928
 30
0.0
 10
-1.9431255362
 20
-1.430926299
 30
0.0
 10
-1.9451226192
 20
-1.4094788016
 30
0.0
 10
-1.9508298211
 20
-1.3821333523
 30
0.0
 10
-1.9573874114
 20
-1.3605812695
 30
0.0
 10
-1.9633349501
 20
-1.3445665091
 30
0.0
 10
-1.9702382751
 20
-1.3288222033
 30
0.0
 10
-1.9780033346
 20
-1.313505158
 30
0.0
 10
-1.9867313288
 20
-1.2984397997
 30
0.0
 10
-1.9997314031
 20
-1.2788039615
 30
0.0
 10
-2.0174978533
 20
-1.2566271856
 30
0.0
 10
-2.0403666225
 20
-1.2339085822
 30
0.0
 10
-2.0716883167
 20
-1.2092906005
 30
0.0
 10
-2.1088369447
 20
-1.1903207612
 30
0.0
 10
-2.1468290883
 20
-1.1833165098
 30
0.0
 10
-2.1765118261
 20
-1.188313627
 30
0.0
 10
-2.1953718848
 20
-1.2005752239
 30
0.0
 10
-2.2075310098
 20
-1.2153773041
 30
0.0
 10
-2.2148886462
 20
-1.2287020751
 30
0.0
 10
-2.220392431
 20
-1.2443525703
 30
0.0
 10
-2.2239680297
 20
-1.2618747448
 30
0.0
 10
-2.2257264124
 20
-1.2805803368
 30
0.0
 10
-2.2258143928
 20
-1.2937063024
 30
0.0
 10
-2.2255910817
 20
-1.300551675
 30
0.0
 11
-1.942765446
 21
-1.4419644928
 31
0.0
 11
-1.9457647888
 21
-1.4093715861
 31
0.0
 11
-1.9526352044
 21
-1.3767723547
 31
0.0
 11
-1.9575589691
 21
-1.3606061531
 31
0.0
 11
-1.9634942478
 21
-1.3446115849
 31
0.0
 11
-1.9703818975
 21
-1.3288934134
 31
0.0
 11
-1.9781638237
 21
-1.3135471059
 31
0.0
 11
-1.9869016724
 21
-1.298496213
 31
0.0
 11
-1.996582475
 21
-1.2838707892
 31
0.0
 11
-2.0177560248
 21
-1.2572761069
 31
0.0
 11
-2.0404703727
 21
-1.2346177684
 31
0.0
 11
-2.0637243272
 21
-1.2162319384
 31
0.0
 11
-2.107739243
 21
-1.1929473538
 31
0.0
 11
-2.1454441874
 21
-1.1853167379
 31
0.0
 11
-2.1753367149
 21
-1.1899330935
 31
0.0
 11
-2.1981675892
 21
-1.2046918108
 31
0.0
 11
-2.2072373919
 21
-1.2157478393
 31
0.0
 11
-2.214579671
 21
-1.2290896958
 31
0.0
 11
-2.2200710667
 21
-1.2446645168
 31
0.0
 11
-2.2236651604
 21
-1.2620719811
 31
0.0
 11
-2.2254553437
 21
-1.2807442296
 31
0.0
 11
-2.2255910817
 21
-1.300551675
 31
0.0
  0
SPLINE
  5
2D1
100
AcDbEntity
  8
CURVE
100
AcDbSpline
 62
253
  6
CONTINUOUS
 70
0
 71
3
 72
116
 73
112
 74
110
 42
0.0000001
 43
0.0000001
 44
0.0000000001
 12
0.0546823823
 22
-1.6037030259
 32
0.0
 13
0.1458607848
 23
-2.7473391811
 33
0.0
 40
0.0
 40
0.0
 40
0.0
 40
0.0
 40
0.0625
 40
0.125
 40
0.1875
 40
0.25
 40
0.28125
 40
0.3125
 40
0.34375
 40
0.375
 40
0.390625
 40
0.40625
 40
0.421875
 40
0.4375
 40
0.453125
 40
0.4609375
 40
0.46875
 40
0.4765625
 40
0.48046875
 40
0.484375
 40
0.48828125
 40
0.4921875
 40
0.494140625
 40
0.49609375
 40
0.4970703125
 40
0.498046875
 40
0.4990234375
 40
0.4995117188
 40
0.4997558594
 40
0.5
 40
0.5002441406
 40
0.5004882812
 40
0.5009765625
 40
0.501953125
 40
0.5029296875
 40
0.50390625
 40
0.505859375
 40
0.5078125
 40
0.51171875
 40
0.515625
 40
0.51953125
 40
0.5234375
 40
0.53125
 40
0.5390625
 40
0.546875
 40
0.5625
 40
0.578125
 40
0.59375
 40
0.609375
 40
0.625
 40
0.6328125
 40
0.640625
 40
0.6484375
 40
0.65234375
 40
0.65625
 40
0.66015625
 40
0.662109375
 40
0.6640625
 40
0.6650390625
 40
0.666015625
 40
0.6665039062
 40
0.6667480469
 40
0.6669921875
 40
0.6674804688
 40
0.66796875
 40
0.6689453125
 40
0.669921875
 40
0.671875
 40
0.673828125
 40
0.67578125
 40
0.6796875
 40
0.6875
 40
0.6953125
 40
0.703125
 40
0.7109375
 40
0.71875
 40
0.734375
 40
0.75
 40
0.765625
 40
0.78125
 40
0.7890625
 40
0.796875
 40
0.8046875
 40
0.8125
 40
0.8203125
 40
0.82421875
 40
0.826171875
 40
0.828125
 40
0.830078125
 40
0.83203125
 40
0.8325195312
 40
0.8330078125
 40
0.8332519531
 40
0.8334960938
 40
0.833984375
 40
0.8349609375
 40
0.8359375
 40
0.837890625
 40
0.83984375
 40
0.84375
 40
0.84765625
 40
0.8515625
 40
0.859375
 40
0.8671875
 40
0.875
 40
0.890625
 40
0.90625
 40
0.921875
 40
0.9375
 40
0.96875
 40
1.0
 40
1.0
 40
1.0
 40
1.0
 10
-2.2255910817
 20
-1.300551675
 30
0.0
 10
-2.2244518654
 20
-1.3339621547
 30
0.0
 10
-2.2221697709
 20
-1.4007810911
 30
0.0
 10
-2.2187686003
 20
-1.5010216338
 30
0.0
 10
-2.2152905311
 20
-1.6012196931
 30
0.0
 10
-2.2121459603
 20
-1.6845820857
 30
0.0
 10
-2.2096785451
 20
-1.7512986342
 30
0.0
 10
-2.2078309671
 20
-1.8013377362
 30
0.0
 10
-2.2059473351
 20
-1.8513567585
 30
0.0
 10
-2.2042532734
 20
-1.8929700414
 30
0.0
 10
-2.2029240606
 20
-1.9262751621
 30
0.0
 10
-2.2019236626
 20
-1.9512520607
 30
0.0
 10
-2.2009241995
 20
-1.9762294798
 30
0.0
 10
-2.1999244855
 20
-2.0012067591
 30
0.0
 10
-2.1990914478
 20
-2.0220211905
 30
0.0
 10
-2.1984250056
 20
-2.0386727287
 30
0.0
 10
-2.1979251755
 20
-2.0511613841
 30
0.0
 10
-2.1975086502
 20
-2.061568594
 30
0.0
 10
-2.1971754298
 20
-2.0698943681
 30
0.0
 10
-2.1969255153
 20
-2.0761386819
 30
0.0
 10
-2.1966755976
 20
-2.0823830597
 30
0.0
 10
-2.1964673426
 20
-2.0875865083
 30
0.0
 10
-2.1963007168
 20
-2.0917497143
 30
0.0
 10
-2.1961966255
 20
-2.0943506999
 30
0.0
 10
-2.1961132382
 20
-2.0964338203
 30
0.0
 10
-2.1960510106
 20
-2.0979897756
 30
0.0
 10
-2.1959981592
 20
-2.0993067167
 30
0.0
 10
-2.1959631158
 20
-2.1001887145
 30
0.0
 10
-2.1959400423
 20
-2.1007549528
 30
0.0
 10
-2.1959313254
 20
-2.1010043017
 30
0.0
 10
-2.19588978
 20
-2.10192385
 30
0.0
 10
-2.1958458371
 20
-2.1029161415
 30
0.0
 10
-2.1957636017
 20
-2.1047615707
 30
0.0
 10
-2.195648912
 20
-2.107340954
 30
0.0
 10
-2.1955100904
 20
-2.1104605878
 30
0.0
 10
-2.195325412
 20
-2.1146115863
 30
0.0
 10
-2.1950944211
 20
-2.1198032494
 30
0.0
 10
-2.1947249156
 20
-2.1281082811
 30
0.0
 10
-2.1942630062
 20
-2.1384901298
 30
0.0
 10
-2.1937087268
 20
-2.1509481087
 30
0.0
 10
-2.1931544442
 20
-2.1634061516
 30
0.0
 10
-2.1924154019
 20
-2.1800168531
 30
0.0
 10
-2.1914915985
 20
-2.2007802377
 30
0.0
 10
-2.1903830347
 20
-2.2256962959
 30
0.0
 10
-2.1889049496
 20
-2.258917708
 30
0.0
 10
-2.1870573431
 20
-2.3004444726
 30
0.0
 10
-2.1848402154
 20
-2.3502765905
 30
0.0
 10
-2.1826230877
 20
-2.400108708
 30
0.0
 10
-2.18040596
 20
-2.4499408269
 30
0.0
 10
-2.1785583537
 20
-2.4914675883
 30
0.0
 10
-2.1770802683
 20
-2.5246890071
 30
0.0
 10
-2.1759717053
 20
-2.5496050446
 30
0.0
 10
-2.1750478994
 20
-2.570368494
 30
0.0
 10
-2.1743088623
 20
-2.5869790633
 30
0.0
 10
-2.1737545636
 20
-2.59943751
 30
0.0
 10
-2.1732927143
 20
-2.6098178958
 30
0.0
 10
-2.1729230864
 20
-2.618125912
 30
0.0
 10
-2.1726924069
 20
-2.6233099798
 30
0.0
 10
-2.1725070894
 20
-2.6274765687
 30
0.0
 10
-2.1723930316
 20
-2.6300365715
 30
0.0
 10
-2.1723096527
 20
-2.6319169859
 30
0.0
 10
-2.1722675439
 20
-2.6328531788
 30
0.0
 10
-2.1722462914
 20
-2.6332682631
 30
0.0
 10
-2.1722125846
 20
-2.633965545
 30
0.0
 10
-2.1721626445
 20
-2.6349814831
 30
0.0
 10
-2.172098853
 20
-2.6362855475
 30
0.0
 10
-2.1719975502
 20
-2.6383529687
 30
0.0
 10
-2.1718706597
 20
-2.6409437921
 30
0.0
 10
-2.1717185033
 20
-2.6440499781
 30
0.0
 10
-2.171515589
 20
-2.6481925368
 30
0.0
 10
-2.1711605071
 20
-2.6554415593
 30
0.0
 10
-2.1706532378
 20
-2.6657975437
 30
0.0
 10
-2.1700445187
 20
-2.6782246229
 30
0.0
 10
-2.1694357985
 20
-2.6906517294
 30
0.0
 10
-2.1688270786
 20
-2.7030788287
 30
0.0
 10
-2.1680154519
 20
-2.7196482969
 30
0.0
 10
-2.1670009186
 20
-2.7403601313
 30
0.0
 10
-2.1657834787
 20
-2.765214333
 30
0.0
 10
-2.1645660387
 20
-2.7900685344
 30
0.0
 10
-2.1635515054
 20
-2.8107803696
 30
0.0
 10
-2.1627398788
 20
-2.8273498361
 30
0.0
 10
-2.1621311586
 20
-2.8397769406
 30
0.0
 10
-2.1615224395
 20
-2.8522040274
 30
0.0
 10
-2.1609137164
 20
-2.8646311806
 30
0.0
 10
-2.1604064593
 20
-2.8749869348
 30
0.0
 10
-2.1600513556
 20
-2.8822363679
 30
0.0
 10
-2.1598484763
 20
-2.8863782686
 30
0.0
 10
-2.1596962122
 20
-2.8894864759
 30
0.0
 10
-2.1595443482
 20
-2.8925878724
 30
0.0
 10
-2.1594293284
 20
-2.8949330159
 30
0.0
 10
-2.1593543931
 20
-2.8964667464
 30
0.0
 10
-2.1593205741
 20
-2.8971499938
 30
0.0
 10
-2.1592995747
 20
-2.8975934983
 30
0.0
 10
-2.1592564287
 20
-2.8984140222
 30
0.0
 10
-2.1591706332
 20
-2.9000251111
 30
0.0
 10
-2.159053437
 20
-2.9022352708
 30
0.0
 10
-2.1588629227
 20
-2.9058226026
 30
0.0
 10
-2.1586258072
 20
-2.9102892788
 30
0.0
 10
-2.1582458482
 20
-2.9174457351
 30
0.0
 10
-2.1577710964
 20
-2.9263879519
 30
0.0
 10
-2.15720131
 20
-2.9371200475
 30
0.0
 10
-2.1564416242
 20
-2.9514290069
 30
0.0
 10
-2.1554920069
 20
-2.9693153781
 30
0.0
 10
-2.1543524704
 20
-2.99077895
 30
0.0
 10
-2.152833087
 20
-3.0193970715
 30
0.0
 10
-2.1509338581
 20
-3.0551697146
 30
0.0
 10
-2.1486547833
 20
-3.0980968901
 30
0.0
 10
-2.1463757086
 20
-3.1410240646
 30
0.0
 10
-2.1433369422
 20
-3.1982602976
 30
0.0
 10
-2.1395384843
 20
-3.2698055888
 30
0.0
 10
-2.136499718
 20
-3.3270418217
 30
0.0
 10
-2.1349803348
 20
-3.3556599382
 30
0.0
 11
-2.2255910817
 21
-1.300551675
 31
0.0
 11
-2.2221734328
 21
-1.4007831141
 31
0.0
 11
-2.2187557839
 21
-1.5010145532
 31
0.0
 11
-2.2152412951
 21
-1.6011924951
 31
0.0
 11
-2.2115331266
 21
-1.7012634423
 31
0.0
 11
-2.2096790423
 21
-1.751298916
 31
0.0
 11
-2.2078249581
 21
-1.8013343896
 31
0.0
 11
-2.2059224614
 21
-1.8513429114
 31
0.0
 11
-2.2039231399
 21
-1.9012975294
 31
0.0
 11
-2.2029234792
 21
-1.9262748384
 31
0.0
 11
-2.2019238184
 21
-1.9512521475
 31
0.0
 11
-2.2009241577
 21
-1.9762294565
 31
0.0
 11
-2.199924497
 21
-2.0012067655
 31
0.0
 11
-2.1989248362
 21
-2.0261840745
 31
0.0
 11
-2.1984250058
 21
-2.038672729
 31
0.0
 11
-2.1979251755
 21
-2.0511613835
 31
0.0
 11
-2.1974253451
 21
-2.063650038
 31
0.0
 11
-2.1971754299
 21
-2.0698943653
 31
0.0
 11
-2.1969255147
 21
-2.0761386925
 31
0.0
 11
-2.1966755995
 21
-2.0823830198
 31
0.0
 11
-2.1964256844
 21
-2.0886273471
 31
0.0
 11
-2.1963007268
 21
-2.0917495107
 31
0.0
 11
-2.1961757692
 21
-2.0948716743
 31
0.0
 11
-2.1961132904
 21
-2.0964327561
 31
0.0
 11
-2.1960508116
 21
-2.0979938379
 31
0.0
 11
-2.1959883328
 21
-2.0995549198
 31
0.0
 11
-2.1959570934
 21
-2.1003354607
 31
0.0
 11
-2.1959414737
 21
-2.1007257311
 31
0.0
 11
-2.195925854
 21
-2.1011160016
 31
0.0
 11
-2.1958912114
 21
-2.1018946284
 31
0.0
 11
-2.1958565687
 21
-2.1026732552
 31
0.0
 11
-2.1957872835
 21
-2.1042305089
 31
0.0
 11
-2.195648713
 21
-2.1073450163
 31
0.0
 11
-2.1955101425
 21
-2.1104595237
 31
0.0
 11
-2.1953715721
 21
-2.113574031
 31
0.0
 11
-2.1950944311
 21
-2.1198030457
 31
0.0
 11
-2.1948172901
 21
-2.1260320605
 31
0.0
 11
-2.1942630082
 21
-2.1384900899
 31
0.0
 11
-2.1937087263
 21
-2.1509481193
 31
0.0
 11
-2.1931544443
 21
-2.1634061488
 31
0.0
 11
-2.1926001624
 21
-2.1758641782
 31
0.0
 11
-2.1914915986
 21
-2.2007802371
 31
0.0
 11
-2.1903830347
 21
-2.225696296
 31
0.0
 11
-2.1892744709
 21
-2.2506123549
 31
0.0
 11
-2.1870573431
 21
-2.3004444727
 31
0.0
 11
-2.1848402154
 21
-2.3502765905
 31
0.0
 11
-2.1826230877
 21
-2.4001087082
 31
0.0
 11
-2.18040596
 21
-2.449940826
 31
0.0
 11
-2.1781888323
 21
-2.4997729438
 31
0.0
 11
-2.1770802684
 21
-2.5246890027
 31
0.0
 11
-2.1759717046
 21
-2.5496050616
 31
0.0
 11
-2.1748631407
 21
-2.5745211205
 31
0.0
 11
-2.1743088588
 21
-2.5869791499
 31
0.0
 11
-2.1737545769
 21
-2.5994371794
 31
0.0
 11
-2.173200295
 21
-2.6118952088
 31
0.0
 11
-2.172923154
 21
-2.6181242235
 31
0.0
 11
-2.172646013
 21
-2.6243532383
 31
0.0
 11
-2.1725074425
 21
-2.6274677456
 31
0.0
 11
-2.1723688721
 21
-2.630582253
 31
0.0
 11
-2.1722995868
 21
-2.6321395067
 31
0.0
 11
-2.1722701509
 21
-2.6327880402
 31
0.0
 11
-2.1722511284
 21
-2.6331763871
 31
0.0
 11
-2.1722130834
 21
-2.6339530809
 31
0.0
 11
-2.1721750384
 21
-2.6347297747
 31
0.0
 11
-2.1720989484
 21
-2.6362831623
 31
0.0
 11
-2.1720228584
 21
-2.6378365499
 31
0.0
 11
-2.1718706784
 21
-2.6409433251
 31
0.0
 11
-2.1717184984
 21
-2.6440501003
 31
0.0
 11
-2.1715663184
 21
-2.6471568755
 31
0.0
 11
-2.1712619584
 21
-2.6533704259
 31
0.0
 11
-2.1706532385
 21
-2.6657975267
 31
0.0
 11
-2.1700445185
 21
-2.6782246274
 31
0.0
 11
-2.1694357985
 21
-2.6906517282
 31
0.0
 11
-2.1688270785
 21
-2.703078829
 31
0.0
 11
-2.1682183586
 21
-2.7155059298
 31
0.0
 11
-2.1670009186
 21
-2.7403601314
 31
0.0
 11
-2.1657834787
 21
-2.7652143329
 31
0.0
 11
-2.1645660387
 21
-2.7900685345
 31
0.0
 11
-2.1633485987
 21
-2.8149227361
 31
0.0
 11
-2.1627398788
 21
-2.8273498369
 31
0.0
 11
-2.1621311588
 21
-2.8397769377
 31
0.0
 11
-2.1615224388
 21
-2.8522040384
 31
0.0
 11
-2.1609137188
 21
-2.8646311392
 31
0.0
 11
-2.1603049989
 21
-2.87705824
 31
0.0
 11
-2.1600006389
 21
-2.8832717904
 31
0.0
 11
-2.1598484589
 21
-2.8863785656
 31
0.0
 11
-2.1596962789
 21
-2.8894853408
 31
0.0
 11
-2.1595440989
 21
-2.892592116
 31
0.0
 11
-2.1593919189
 21
-2.8956988912
 31
0.0
 11
-2.1593538739
 21
-2.896475585
 31
0.0
 11
-2.1593158289
 21
-2.8972522788
 31
0.0
 11
-2.1592968064
 21
-2.8976406257
 31
0.0
 11
-2.1592667252
 21
-2.8982172327
 31
0.0
 11
-2.1591955041
 21
-2.8995587069
 31
0.0
 11
-2.1590530619
 21
-2.9022416554
 31
0.0
 11
-2.1589106198
 21
-2.9049246038
 31
0.0
 11
-2.1586257354
 21
-2.9102905006
 31
0.0
 11
-2.1583408511
 21
-2.9156563975
 31
0.0
 11
-2.1577710824
 21
-2.9263881911
 31
0.0
 11
-2.1572013137
 21
-2.9371199848
 31
0.0
 11
-2.156631545
 21
-2.9478517785
 31
0.0
 11
-2.1554920076
 21
-2.9693153658
 31
0.0
 11
-2.1543524703
 21
-2.9907789532
 31
0.0
 11
-2.1532129329
 21
-3.0122425405
 31
0.0
 11
-2.1509338581
 21
-3.0551697152
 31
0.0
 11
-2.1486547833
 21
-3.0980968899
 31
0.0
 11
-2.1463757086
 21
-3.1410240647
 31
0.0
 11
-2.1440966338
 21
-3.1839512394
 31
0.0
 11
-2.1395384843
 21
-3.2698055888
 31
0.0
 11
-2.1349803348
 21
-3.3556599382
 31
0.0
  0
SPLINE
  5
2D2
100
AcDbEntity
  8
CURVE
100
AcDbSpline
 62
253
  6
CONTINUOUS
 70
0
 71
3
 72
117
 73
113
 74
111
 42
0.0000001
 43
0.0000001
 44
0.0000000001
 12
-0.0859551109
 22
1.5860430279
 32
0.0
 13
-0.0976038391
 23
2.7745903231
 33
0.0
 40
0.0
 40
0.0
 40
0.0
 40
0.0
 40
0.0625
 40
0.125
 40
0.1875
 40
0.21875
 40
0.25
 40
0.28125
 40
0.3125
 40
0.34375
 40
0.375
 40
0.390625
 40
0.40625
 40
0.421875
 40
0.4375
 40
0.453125
 40
0.4609375
 40
0.46875
 40
0.4765625
 40
0.48046875
 40
0.484375
 40
0.48828125
 40
0.4921875
 40
0.494140625
 40
0.49609375
 40
0.4970703125
 40
0.498046875
 40
0.4990234375
 40
0.4995117188
 40
0.4997558594
 40
0.5
 40
0.5002441406
 40
0.5004882812
 40
0.5009765625
 40
0.501953125
 40
0.5029296875
 40
0.50390625
 40
0.505859375
 40
0.5078125
 40
0.51171875
 40
0.515625
 40
0.51953125
 40
0.5234375
 40
0.53125
 40
0.5390625
 40
0.546875
 40
0.5625
 40
0.578125
 40
0.59375
 40
0.609375
 40
0.625
 40
0.6328125
 40
0.640625
 40
0.6484375
 40
0.65234375
 40
0.65625
 40
0.66015625
 40
0.662109375
 40
0.6640625
 40
0.6650390625
 40
0.666015625
 40
0.6665039062
 40
0.6667480469
 40
0.6669921875
 40
0.6674804688
 40
0.66796875
 40
0.6689453125
 40
0.669921875
 40
0.671875
 40
0.673828125
 40
0.67578125
 40
0.6796875
 40
0.6875
 40
0.6953125
 40
0.703125
 40
0.7109375
 40
0.71875
 40
0.734375
 40
0.75
 40
0.765625
 40
0.78125
 40
0.7890625
 40
0.796875
 40
0.8046875
 40
0.8125
 40
0.8203125
 40
0.82421875
 40
0.826171875
 40
0.828125
 40
0.830078125
 40
0.83203125
 40
0.8325195312
 40
0.8330078125
 40
0.8332519531
 40
0.8334960938
 40
0.833984375
 40
0.8349609375
 40
0.8359375
 40
0.837890625
 40
0.83984375
 40
0.84375
 40
0.84765625
 40
0.8515625
 40
0.859375
 40
0.8671875
 40
0.875
 40
0.890625
 40
0.90625
 40
0.921875
 40
0.9375
 40
0.96875
 40
1.0
 40
1.0
 40
1.0
 40
1.0
 10
-1.8521546961
 20
-3.4970728104
 30
0.0
 10
-1.8539454276
 20
-3.4640302473
 30
0.0
 10
-1.8575244156
 20
-3.3979436931
 30
0.0
 10
-1.8629077474
 20
-3.2988224303
 30
0.0
 10
-1.8673505451
 20
-3.2161963862
 30
0.0
 10
-1.8707110948
 20
-3.1499837937
 30
0.0
 10
-1.8732581343
 20
-3.1003397102
 30
0.0
 10
-1.8757955093
 20
-3.0506900619
 30
0.0
 10
-1.8783449149
 20
-3.0010473116
 30
0.0
 10
-1.8808558627
 20
-2.9513825341
 30
0.0
 10
-1.8828245908
 20
-2.9099243595
 30
0.0
 10
-1.8844254757
 20
-2.8767726542
 30
0.0
 10
-1.8856226691
 20
-2.8519068879
 30
0.0
 10
-1.8868207925
 20
-2.8270416541
 30
0.0
 10
-1.8880186663
 20
-2.8021762774
 30
0.0
 10
-1.8890169514
 20
-2.7814551627
 30
0.0
 10
-1.8898155676
 20
-2.7648782644
 30
0.0
 10
-1.8904145313
 20
-2.7524455907
 30
0.0
 10
-1.8909136673
 20
-2.7420850318
 30
0.0
 10
-1.8913129764
 20
-2.7337965786
 30
0.0
 10
-1.8916124576
 20
-2.7275802556
 30
0.0
 10
-1.8919119413
 20
-2.7213638681
 30
0.0
 10
-1.8921615031
 20
-2.7161837459
 30
0.0
 10
-1.8923611703
 20
-2.7120391986
 30
0.0
 10
-1.8924859221
 20
-2.7094498802
 30
0.0
 10
-1.8925858155
 20
-2.707376081
 30
0.0
 10
-1.8926604837
 20
-2.705827151
 30
0.0
 10
-1.8927235083
 20
-2.7045159548
 30
0.0
 10
-1.8927660535
 20
-2.7036381934
 30
0.0
 10
-1.8927928195
 20
-2.7030740403
 30
0.0
 10
-1.8928059798
 20
-2.7028272006
 30
0.0
 10
-1.8928455698
 20
-2.701906548
 30
0.0
 10
-1.8928891375
 20
-2.7009140446
 30
0.0
 10
-1.8929696762
 20
-2.6990676573
 30
0.0
 10
-1.8930824858
 20
-2.6964872123
 30
0.0
 10
-1.8932188186
 20
-2.693366173
 30
0.0
 10
-1.89340026
 20
-2.6892133465
 30
0.0
 10
-1.8936271766
 20
-2.6840193827
 30
0.0
 10
-1.8939901789
 20
-2.6757106785
 30
0.0
 10
-1.8944439539
 20
-2.6653242363
 30
0.0
 10
-1.8949884744
 20
-2.6528607465
 30
0.0
 10
-1.8955329975
 20
-2.6403971923
 30
0.0
 10
-1.8962590273
 20
-2.6237791425
 30
0.0
 10
-1.897166565
 20
-2.6030065725
 30
0.0
 10
-1.89825561
 20
-2.5780794919
 30
0.0
 10
-1.89970767
 20
-2.5448433832
 30
0.0
 10
-1.9015227451
 20
-2.5032982477
 30
0.0
 10
-1.9037008352
 20
-2.4534440849
 30
0.0
 10
-1.9058789252
 20
-2.4035899225
 30
0.0
 10
-1.9080570154
 20
-2.3537357587
 30
0.0
 10
-1.9098720903
 20
-2.3121906266
 30
0.0
 10
-1.9113241506
 20
-2.2789545111
 30
0.0
 10
-1.9124131947
 20
-2.2540274511
 30
0.0
 10
-1.9133207354
 20
-2.2332548167
 30
0.0
 10
-1.9140467589
 20
-2.2166368984
 30
0.0
 10
-1.9145913014
 20
-2.2041729424
 30
0.0
 10
-1.9150450076
 20
-2.193787958
 30
0.0
 10
-1.9154081503
 20
-2.1854762796
 30
0.0
 10
-1.9156347096
 20
-2.1802898851
 30
0.0
 10
-1.9158168844
 20
-2.1761215215
 30
0.0
 10
-1.9159286278
 20
-2.1735602118
 30
0.0
 10
-1.9160110885
 20
-2.1716792788
 30
0.0
 10
-1.9160515746
 20
-2.1707421696
 30
0.0
 10
-1.916067068
 20
-2.170323833
 30
0.0
 10
-1.9160949922
 20
-2.1696232856
 30
0.0
 10
-1.9161348886
 20
-2.1686016758
 30
0.0
 10
-1.9161863966
 20
-2.1672906747
 30
0.0
 10
-1.9162678942
 20
-2.1652120694
 30
0.0
 10
-1.9163700802
 20
-2.1626072952
 30
0.0
 10
-1.9164925691
 20
-2.1594843556
 30
0.0
 10
-1.9166559344
 20
-2.1553194632
 30
0.0
 10
-1.9169418019
 20
-2.1480313548
 30
0.0
 10
-1.9173501954
 20
-2.1376195343
 30
0.0
 10
-1.9178402628
 20
-2.1251254513
 30
0.0
 10
-1.9183303314
 20
-2.1126313412
 30
0.0
 10
-1.9188203997
 20
-2.1001372383
 30
0.0
 10
-1.9194738243
 20
-2.0834784318
 30
0.0
 10
-1.9202906049
 20
-2.0626549247
 30
0.0
 10
-1.9212707417
 20
-2.0376667157
 30
0.0
 10
-1.9222508784
 20
-2.012678507
 30
0.0
 10
-1.9230676591
 20
-1.991854999
 30
0.0
 10
-1.9237210835
 20
-1.9751961944
 30
0.0
 10
-1.924211152
 20
-1.9627020861
 30
0.0
 10
-1.92470122
 20
-1.950207996
 30
0.0
 10
-1.92519129
 20
-1.9377138382
 30
0.0
 10
-1.9255996754
 20
-1.9273022503
 30
0.0
 10
-1.9258855574
 20
-1.920013727
 30
0.0
 10
-1.9260488994
 20
-1.9158494993
 30
0.0
 10
-1.9261714597
 20
-1.9127245179
 30
0.0
 10
-1.9262938146
 20
-1.9096064574
 30
0.0
 10
-1.9263861566
 20
-1.9072485075
 30
0.0
 10
-1.9264468224
 20
-1.905706719
 30
0.0
 10
-1.9264734324
 20
-1.9050194005
 30
0.0
 10
-1.9264916119
 20
-1.9045743037
 30
0.0
 10
-1.9265211591
 20
-1.9037461003
 30
0.0
 10
-1.9265781482
 20
-1.9021187442
 30
0.0
 10
-1.9266568056
 20
-1.8998868213
 30
0.0
 10
-1.9267841975
 20
-1.8962638437
 30
0.0
 10
-1.9269429101
 20
-1.8917528926
 30
0.0
 10
-1.9271971448
 20
-1.8845254387
 30
0.0
 10
-1.9275148372
 20
-1.875494529
 30
0.0
 10
-1.9278961113
 20
-1.8646559788
 30
0.0
 10
-1.9284044616
 20
-1.850205088
 30
0.0
 10
-1.9290399047
 20
-1.8321412996
 30
0.0
 10
-1.9298024343
 20
-1.8104648285
 30
0.0
 10
-1.9308191411
 20
-1.7815628408
 30
0.0
 10
-1.9320900243
 20
-1.7454353652
 30
0.0
 10
-1.9336150843
 20
-1.7020823905
 30
0.0
 10
-1.9351401443
 20
-1.658729417
 30
0.0
 10
-1.9371735576
 20
-1.6009254518
 30
0.0
 10
-1.9397153243
 20
-1.5286704955
 30
0.0
 10
-1.9417487376
 20
-1.4708665305
 30
0.0
 10
-1.9427654442
 20
-1.4419645479
 30
0.0
 11
-1.8521546961
 21
-3.4970728104
 31
0.0
 11
-1.8575268905
 21
-3.3979451212
 31
0.0
 11
-1.862899085
 21
-3.2988174319
 31
0.0
 11
-1.8681745418
 21
-3.199633925
 31
0.0
 11
-1.8707155327
 21
-3.1499863539
 31
0.0
 11
-1.8732565236
 21
-3.1003387827
 31
0.0
 11
-1.8757975144
 21
-3.0506912116
 31
0.0
 11
-1.8783385053
 21
-3.0010436404
 31
0.0
 11
-1.880831117
 21
-2.9513683621
 31
0.0
 11
-1.8832269706
 21
-2.9016376694
 31
0.0
 11
-1.8844248974
 21
-2.876772323
 31
0.0
 11
-1.8856228241
 21
-2.8519069766
 31
0.0
 11
-1.8868207509
 21
-2.8270416303
 31
0.0
 11
-1.8880186777
 21
-2.8021762839
 31
0.0
 11
-1.8892166045
 21
-2.7773109375
 31
0.0
 11
-1.8898155678
 21
-2.7648782644
 31
0.0
 11
-1.8904145312
 21
-2.7524455912
 31
0.0
 11
-1.8910134946
 21
-2.740012918
 31
0.0
 11
-1.8913129763
 21
-2.7337965814
 31
0.0
 11
-1.891612458
 21
-2.7275802448
 31
0.0
 11
-1.8919119397
 21
-2.7213639082
 31
0.0
 11
-1.8922114214
 21
-2.7151475716
 31
0.0
 11
-1.8923611622
 21
-2.7120394033
 31
0.0
 11
-1.8925109031
 21
-2.708931235
 31
0.0
 11
-1.8925857735
 21
-2.7073771509
 31
0.0
 11
-1.8926606439
 21
-2.7058230667
 31
0.0
 11
-1.8927355144
 21
-2.7042689826
 31
0.0
 11
-1.8927729496
 21
-2.7034919405
 31
0.0
 11
-1.8927916672
 21
-2.7031034195
 31
0.0
 11
-1.8928103848
 21
-2.7027148985
 31
0.0
 11
-1.8928444174
 21
-2.7019359272
 31
0.0
 11
-1.8928784501
 21
-2.7011569559
 31
0.0
 11
-1.8929465154
 21
-2.6995990133
 31
0.0
 11
-1.893082646
 21
-2.6964831281
 31
0.0
 11
-1.8932187767
 21
-2.6933672429
 31
0.0
 11
-1.8933549073
 21
-2.6902513578
 31
0.0
 11
-1.8936271686
 21
-2.6840195874
 31
0.0
 11
-1.8938994298
 21
-2.6777878171
 31
0.0
 11
-1.8944439523
 21
-2.6653242764
 31
0.0
 11
-1.8949884749
 21
-2.6528607358
 31
0.0
 11
-1.8955329974
 21
-2.6403971951
 31
0.0
 11
-1.8960775199
 21
-2.6279336544
 31
0.0
 11
-1.8971665649
 21
-2.6030065731
 31
0.0
 11
-1.89825561
 21
-2.5780794917
 31
0.0
 11
-1.899344655
 21
-2.5531524104
 31
0.0
 11
-1.9015227451
 21
-2.5032982477
 31
0.0
 11
-1.9037008352
 21
-2.453444085
 31
0.0
 11
-1.9058789252
 21
-2.4035899223
 31
0.0
 11
-1.9080570153
 21
-2.3537357596
 31
0.0
 11
-1.9102351054
 21
-2.3038815969
 31
0.0
 11
-1.9113241504
 21
-2.2789545156
 31
0.0
 11
-1.9124131955
 21
-2.2540274342
 31
0.0
 11
-1.9135022405
 21
-2.2291003529
 31
0.0
 11
-1.914046763
 21
-2.2166368122
 31
0.0
 11
-1.9145912855
 21
-2.2041732715
 31
0.0
 11
-1.9151358081
 21
-2.1917097309
 31
0.0
 11
-1.9154080693
 21
-2.1854779605
 31
0.0
 11
-1.9156803306
 21
-2.1792461902
 31
0.0
 11
-1.9158164612
 21
-2.176130305
 31
0.0
 11
-1.9159525918
 21
-2.1730144199
 31
0.0
 11
-1.9160206572
 21
-2.1714564773
 31
0.0
 11
-1.9160484505
 21
-2.1708070162
 31
0.0
 11
-1.9160637651
 21
-2.1704165754
 31
0.0
 11
-1.9160943944
 21
-2.1696356939
 31
0.0
 11
-1.9161250237
 21
-2.1688548123
 31
0.0
 11
-1.9161862822
 21
-2.1672930493
 31
0.0
 11
-1.9162475408
 21
-2.1657312862
 31
0.0
 11
-1.9163700579
 21
-2.1626077601
 31
0.0
 11
-1.9164925749
 21
-2.159484234
 31
0.0
 11
-1.916615092
 21
-2.1563607079
 31
0.0
 11
-1.9168601262
 21
-2.1501136557
 31
0.0
 11
-1.9173501946
 21
-2.1376195512
 31
0.0
 11
-1.917840263
 21
-2.1251254468
 31
0.0
 11
-1.9183303314
 21
-2.1126313424
 31
0.0
 11
-1.9188203998
 21
-2.1001372379
 31
0.0
 11
-1.9193104681
 21
-2.0876431335
 31
0.0
 11
-1.9202906049
 21
-2.0626549246
 31
0.0
 11
-1.9212707417
 21
-2.0376667158
 31
0.0
 11
-1.9222508784
 21
-2.0126785069
 31
0.0
 11
-1.9232310152
 21
-1.987690298
 31
0.0
 11
-1.9237210836
 21
-1.9751961936
 31
0.0
 11
-1.924211152
 21
-1.9627020891
 31
0.0
 11
-1.9247012203
 21
-1.9502079847
 31
0.0
 11
-1.9251912887
 21
-1.9377138803
 31
0.0
 11
-1.9256813571
 21
-1.9252197758
 31
0.0
 11
-1.9259263913
 21
-1.9189727236
 31
0.0
 11
-1.9260489084
 21
-1.9158491975
 31
0.0
 11
-1.9261714255
 21
-1.9127256714
 31
0.0
 11
-1.9262939426
 21
-1.9096021453
 31
0.0
 11
-1.9264164597
 21
-1.9064786192
 31
0.0
 11
-1.9264470889
 21
-1.9056977377
 31
0.0
 11
-1.9264777182
 21
-1.9049168561
 31
0.0
 11
-1.9264930329
 21
-1.9045264154
 31
0.0
 11
-1.9265140238
 21
-1.903944675
 31
0.0
 11
-1.9265616819
 21
-1.9025898945
 31
0.0
 11
-1.9266569981
 21
-1.8998803337
 31
0.0
 11
-1.9267523144
 21
-1.8971707728
 31
0.0
 11
-1.9269429469
 21
-1.8917516511
 31
0.0
 11
-1.9271335794
 21
-1.8863325294
 31
0.0
 11
-1.9275148444
 21
-1.8754942859
 31
0.0
 11
-1.9278961094
 21
-1.8646560425
 31
0.0
 11
-1.9282773744
 21
-1.853817799
 31
0.0
 11
-1.9290399044
 21
-1.8321413121
 31
0.0
 11
-1.9298024344
 21
-1.8104648252
 31
0.0
 11
-1.9305649644
 21
-1.7887883383
 31
0.0
 11
-1.9320900243
 21
-1.7454353645
 31
0.0
 11
-1.9336150843
 21
-1.7020823907
 31
0.0
 11
-1.9351401443
 21
-1.6587294169
 31
0.0
 11
-1.9366652043
 21
-1.6153764431
 31
0.0
 11
-1.9397153243
 21
-1.5286704955
 31
0.0
 11
-1.9427654442
 21
-1.4419645479
 31
0.0
  0
SPLINE
  5
2D3
100
AcDbEntity
  8
CURVE
100
AcDbSpline
 62
253
  6
CONTINUOUS
 70
0
 71
3
 72
28
 73
24
 74
22
 42
0.0000001
 43
0.0000001
 44
0.0000000001
 12
0.0401022117
 22
-0.7198957355
 32
0.0
 13
-0.0248722875
 23
0.4464954154
 33
0.0
 40
0.0
 40
0.0
 40
0.0
 40
0.0
 40
0.0454545455
 40
0.0909090909
 40
0.1136363636
 40
0.1363636364
 40
0.1590909091
 40
0.1818181818
 40
0.2045454545
 40
0.2272727273
 40
0.2727272727
 40
0.3181818182
 40
0.3636363636
 40
0.4545454545
 40
0.5454545455
 40
0.6363636364
 40
0.7272727273
 40
0.7727272727
 40
0.8181818182
 40
0.8636363636
 40
0.9090909091
 40
0.9545454545
 40
1.0
 40
1.0
 40
1.0
 40
1.0
 10
-2.1349803317
 20
-3.3556599926
 30
0.0
 10
-2.1343727225
 20
-3.3665675037
 30
0.0
 10
-2.1319032321
 20
-3.3877666669
 30
0.0
 10
-2.1256184092
 20
-3.4148021563
 30
0.0
 10
-2.1186245382
 20
-3.4361185892
 30
0.0
 10
-2.1123633271
 20
-3.4519631674
 30
0.0
 10
-2.1051620113
 20
-3.467545963
 30
0.0
 10
-2.0971174929
 20
-3.4827127719
 30
0.0
 10
-2.0881258871
 20
-3.4976379273
 30
0.0
 10
-2.0748001092
 20
-3.5171024934
 30
0.0
 10
-2.0566989344
 20
-3.5391093911
 30
0.0
 10
-2.0335384313
 20
-3.5616914316
 30
0.0
 10
-2.0019753986
 20
-3.5862130498
 30
0.0
 10
-1.9647815542
 20
-3.6052134989
 30
0.0
 10
-1.9270602126
 20
-3.6123889244
 30
0.0
 10
-1.8978808259
 20
-3.6076389366
 30
0.0
 10
-1.8795798758
 20
-3.5956437238
 30
0.0
 10
-1.8679508951
 20
-3.5810987387
 30
0.0
 10
-1.861019185
 20
-3.5679831349
 30
0.0
 10
-1.8559686395
 20
-3.5525593489
 30
0.0
 10
-1.8528585748
 20
-3.5352741777
 30
0.0
 10
-1.851562009
 20
-3.5168064181
 30
0.0
 10
-1.8517778433
 20
-3.5038378925
 30
0.0
 10
-1.8521546961
 20
-3.4970728104
 30
0.0
 11
-2.1349803317
 21
-3.3556599926
 31
0.0
 11
-2.1312636401
 21
-3.387873974
 31
0.0
 11
-2.1237061071
 21
-3.420105268
 31
0.0
 11
-2.1184552369
 21
-3.4360947981
 31
0.0
 11
-2.112206643
 21
-3.451919537
 31
0.0
 11
-2.1050214776
 21
-3.4674766318
 31
0.0
 11
-2.096959645
 21
-3.4826724963
 31
0.0
 11
-2.0879587658
 21
-3.4975834722
 31
0.0
 11
-2.0780352901
 21
-3.5120814312
 31
0.0
 11
-2.0564590855
 21
-3.5384716849
 31
0.0
 11
-2.0334531361
 21
-3.5609929604
 31
0.0
 11
-2.0100168199
 21
-3.5793058737
 31
0.0
 11
-1.9659334328
 21
-3.6026093133
 31
0.0
 11
-1.9284838718
 21
-3.6104013555
 31
0.0
 11
-1.899083867
 21
-3.6060315587
 31
0.0
 11
-1.8769236122
 21
-3.5915950763
 31
0.0
 11
-1.8682492327
 21
-3.5807309279
 31
0.0
 11
-1.8613327124
 21
-3.5675984378
 31
0.0
 11
-1.856292053
 21
-3.552249118
 31
0.0
 11
-1.8531608246
 21
-3.5350770796
 31
0.0
 11
-1.8518320619
 21
-3.5166422466
 31
0.0
 11
-1.8521546961
 21
-3.4970728104
 31
0.0
  0
SPLINE
  5
2D4
100
AcDbEntity
  8
CURVE
100
AcDbSpline
 62
253
  6
CONTINUOUS
 70
0
 71
3
 72
23
 73
19
 74
17
 42
0.0000001
 43
0.0000001
 44
0.0000000001
 12
-6.170505157
 22
3.0852525785
 32
0.0
 13
6.1746853287
 23
-3.0873426644
 33
0.0
 40
0.0
 40
0.0
 40
0.0
 40
0.0
 40
0.0625
 40
0.125
 40
0.1875
 40
0.25
 40
0.3125
 40
0.375
 40
0.4375
 40
0.5
 40
0.5625
 40
0.625
 40
0.6875
 40
0.75
 40
0.8125
 40
0.875
 40
0.9375
 40
1.0
 40
1.0
 40
1.0
 40
1.0
 10
-2.1176138233
 20
-0.0565701672
 30
0.0
 10
-2.2461660141
 20
0.0077059282
 30
0.0
 10
-2.4974147239
 20
0.1039412252
 30
0.0
 10
-2.863972136
 20
0.1533147758
 30
0.0
 10
-3.1976939634
 20
0.1024221181
 30
0.0
 10
-3.4873572658
 20
-0.0445203847
 30
0.0
 10
-3.7210058469
 20
-0.2811497492
 30
0.0
 10
-3.8891012997
 20
-0.5982647689
 30
0.0
 10
-3.9841521157
 20
-0.9845460223
 30
0.0
 10
-4.0019057979
 20
-1.4242241341
 30
0.0
 10
-3.9435333502
 20
-1.8998112752
 30
0.0
 10
-3.8093246528
 20
-2.3941451775
 30
0.0
 10
-3.6050880913
 20
-2.8875286645
 30
0.0
 10
-3.3399008317
 20
-3.3614801403
 30
0.0
 10
-3.0246604043
 20
-3.7985073487
 30
0.0
 10
-2.6723436742
 20
-4.1818800967
 30
0.0
 10
-2.2945665087
 20
-4.4978351872
 30
0.0
 10
-2.0406922933
 20
-4.65269521
 30
0.0
 10
-1.9120530157
 20
-4.7170148488
 30
0.0
 11
-2.1176138233
 21
-0.0565701672
 31
0.0
 11
-2.4956954485
 21
0.088111326
 31
0.0
 11
-2.8584995386
 21
0.1366037411
 31
0.0
 11
-3.1903508759
 21
0.0864138106
 31
0.0
 11
-3.4780214789
 21
-0.059468195
 31
0.0
 11
-3.7100803255
 21
-0.2945640251
 31
0.0
 11
-3.8769271936
 21
-0.6097924745
 31
0.0
 11
-3.9712692601
 21
-0.9934454987
 31
0.0
 11
-3.9892181096
 21
-1.4302089723
 31
0.0
 11
-3.9308939753
 21
-1.9029357354
 31
0.0
 11
-3.7976533421
 21
-2.393986775
 31
0.0
 11
-3.5949296416
 21
-2.8842899959
 31
0.0
 11
-3.3315586371
 21
-3.3553260957
 31
0.0
 11
-3.0184810205
 21
-3.7895649386
 31
0.0
 11
-2.6681002683
 21
-4.1706438204
 31
0.0
 11
-2.2940608158
 21
-4.4838910111
 31
0.0
 11
-1.9120530157
 21
-4.7170148488
 31
0.0
  0
SPLINE
  5
2D5
100
AcDbEntity
  8
CURVE
100
AcDbSpline
 62
253
  6
CONTINUOUS
 70
0
 71
3
 72
23
 73
19
 74
17
 42
0.0000001
 43
0.0000001
 44
0.0000000001
 12
6.1714418185
 22
-3.0857209093
 32
0.0
 13
-6.1732851122
 23
3.0866425561
 33
0.0
 40
0.0
 40
0.0
 40
0.0
 40
0.0
 40
0.0625
 40
0.125
 40
0.1875
 40
0.25
 40
0.3125
 40
0.375
 40
0.4375
 40
0.5
 40
0.5625
 40
0.625
 40
0.6875
 40
0.75
 40
0.8125
 40
0.875
 40
0.9375
 40
1.0
 40
1.0
 40
1.0
 40
1.0
 10
-1.9120530157
 20
-4.7170148488
 30
0.0
 10
-1.7834813111
 20
-4.7813007011
 30
0.0
 10
-1.5337853876
 20
-4.8782621267
 30
0.0
 10
-1.1742301726
 20
-4.9309331567
 30
0.0
 10
-0.8508790342
 20
-4.8852625572
 30
0.0
 10
-0.5730598104
 20
-4.7446269214
 30
0.0
 10
-0.3509415762
 20
-4.5142304655
 30
0.0
 10
-0.1924433011
 20
-4.2021825393
 30
0.0
 10
-0.1037659896
 20
-3.81915234
 30
0.0
 10
-0.0881783581
 20
-3.3805278275
 30
0.0
 10
-0.144037501
 20
-2.9040692048
 30
0.0
 10
-0.2713151999
 20
-2.4067547667
 30
0.0
 10
-0.4653025458
 20
-1.9086014888
 30
0.0
 10
-0.7186524459
 20
-1.4285472764
 30
0.0
 10
-1.0223381223
 20
-0.9850717756
 30
0.0
 10
-1.3651414554
 20
-0.5960719726
 30
0.0
 10
-1.7366272552
 20
-0.2764870545
 30
0.0
 10
-1.9890037168
 20
-0.1208752205
 30
0.0
 10
-2.1176138233
 20
-0.0565701672
 30
0.0
 11
-1.9120530157
 21
-4.7170148488
 31
0.0
 11
-1.5362834993
 21
-4.8628002753
 31
0.0
 11
-1.1802641854
 21
-4.9145428851
 31
0.0
 11
-0.8584676866
 21
-4.8694350512
 31
0.0
 11
-0.5823433087
 21
-4.7296667847
 31
0.0
 11
-0.3615449027
 21
-4.5006218871
 31
0.0
 11
-0.2040801283
 21
-4.1903521605
 31
0.0
 11
-0.1159476029
 21
-3.8098866211
 31
0.0
 11
-0.1000861538
 21
-3.3742221424
 31
0.0
 11
-0.1559405936
 21
-2.9005932356
 31
0.0
 11
-0.2824334744
 21
-2.4066149601
 31
0.0
 11
-0.4751963048
 21
-1.9116179997
 31
0.0
 11
-0.727041742
 21
-1.4346437283
 31
0.0
 11
-1.0288577317
 21
-0.9941510586
 31
0.0
 11
-1.3699218665
 21
-0.6076411201
 31
0.0
 11
-1.7378070706
 21
-0.290848249
 31
0.0
 11
-2.1176138233
 21
-0.0565701672
 31
0.0
  0
SPLINE
  5
2D6
100
AcDbEntity
  8
CURVE
100
AcDbSpline
 62
253
  6
CONTINUOUS
 70
0
 71
3
 72
23
 73
19
 74
17
 42
0.0000001
 43
0.0000001
 44
0.0000000001
 12
0.2786394824
 22
-6.3203056241
 32
0.0
 13
-0.2789791405
 23
6.3222387945
 33
0.0
 40
0.0
 40
0.0
 40
0.0
 40
0.0
 40
0.0625
 40
0.125
 40
0.1875
 40
0.25
 40
0.3125
 40
0.375
 40
0.4375
 40
0.5
 40
0.5625
 40
0.625
 40
0.6875
 40
0.75
 40
0.8125
 40
0.875
 40
0.9375
 40
1.0
 40
1.0
 40
1.0
 40
1.0
 10
-0.3829214771
 20
-3.2325893994
 30
0.0
 10
-0.3771164879
 20
-3.3642624333
 30
0.0
 10
-0.38606396
 20
-3.6114478021
 30
0.0
 10
-0.4622713647
 20
-3.9408212932
 30
0.0
 10
-0.5986260399
 20
-4.2079058885
 30
0.0
 10
-0.7894222541
 20
-4.4051777572
 30
0.0
 10
-1.0273757209
 20
-4.525453235
 30
0.0
 10
-1.3041810496
 20
-4.564570343
 30
0.0
 10
-1.6106888179
 20
-4.5203139483
 30
0.0
 10
-1.9345507498
 20
-4.3944247275
 30
0.0
 10
-2.2633594495
 20
-4.1938357792
 30
0.0
 10
-2.5845613494
 20
-3.9241900773
 30
0.0
 10
-2.8848891836
 20
-3.5964684211
 30
0.0
 10
-3.1532809479
 20
-3.2230052109
 30
0.0
 10
-3.3793202009
 20
-2.8173504173
 30
0.0
 10
-3.553394607
 20
-2.3951998147
 30
0.0
 10
-3.6677672138
 20
-1.9707518513
 30
0.0
 10
-3.7006108516
 20
-1.702647004
 30
0.0
 10
-3.706422917
 20
-1.5709336958
 30
0.0
 11
-0.3829214771
 21
-3.2325893994
 31
0.0
 11
-0.3965283261
 21
-3.6045470417
 31
0.0
 11
-0.4722959098
 21
-3.9304398106
 31
0.0
 11
-0.6076996297
 21
-4.1962704341
 31
0.0
 11
-0.7972817962
 21
-4.3923450254
 31
0.0
 11
-1.0338510312
 21
-4.51192684
 31
0.0
 11
-1.3091314562
 21
-4.5506747592
 31
0.0
 11
-1.6135811785
 21
-4.5067084772
 31
0.0
 11
-1.9353752111
 21
-4.3819747729
 31
0.0
 11
-2.2620916496
 21
-4.1823263203
 31
0.0
 11
-2.5810823385
 21
-3.9145107516
 31
0.0
 11
-2.8795665053
 21
-3.5888448287
 31
0.0
 11
-3.146222196
 21
-3.217639947
 31
0.0
 11
-3.3706593931
 21
-2.8146011158
 31
0.0
 11
-3.5434443071
 21
-2.3948169212
 31
0.0
 11
-3.6569160221
 21
-1.9744669667
 31
0.0
 11
-3.706422917
 21
-1.5709336958
 31
0.0
  0
SPLINE
  5
2D7
100
AcDbEntity
  8
CURVE
100
AcDbSpline
 62
253
  6
CONTINUOUS
 70
0
 71
3
 72
23
 73
19
 74
17
 42
0.0000001
 43
0.0000001
 44
0.0000000001
 12
-0.2785686156
 22
6.3129354586
 32
0.0
 13
0.2783971022
 23
-6.3148077795
 33
0.0
 40
0.0
 40
0.0
 40
0.0
 40
0.0
 40
0.0625
 40
0.125
 40
0.1875
 40
0.25
 40
0.3125
 40
0.375
 40
0.4375
 40
0.5
 40
0.5625
 40
0.625
 40
0.6875
 40
0.75
 40
0.8125
 40
0.875
 40
0.9375
 40
1.0
 40
1.0
 40
1.0
 40
1.0
 10
-3.706422917
 20
-1.5709336958
 30
0.0
 10
-3.7122264298
 20
-1.439414207
 30
0.0
 10
-3.7021999264
 20
-1.191893477
 30
0.0
 10
-3.6213177252
 20
-0.8602945673
 30
0.0
 10
-3.4778925714
 20
-0.5895314026
 30
0.0
 10
-3.2785996347
 20
-0.3877469839
 30
0.0
 10
-3.0319469977
 20
-0.2629659803
 30
0.0
 10
-2.7476253594
 20
-0.2201517282
 30
0.0
 10
-2.4362088196
 20
-0.2620145443
 30
0.0
 10
-2.1106907649
 20
-0.387065939
 30
0.0
 10
-1.7835544853
 20
-0.5884759912
 30
0.0
 10
-1.4670992663
 20
-0.8606001066
 30
0.0
 10
-1.1737372207
 20
-1.1923080109
 30
0.0
 10
-0.9137314535
 20
-1.5704396192
 30
0.0
 10
-0.6962927704
 20
-1.9805405321
 30
0.0
 10
-0.5296842303
 20
-2.4061616146
 30
0.0
 10
-0.4203714022
 20
-2.8326411916
 30
0.0
 10
-0.3887214168
 20
-3.101030904
 30
0.0
 10
-0.3829214771
 20
-3.2325893994
 30
0.0
 11
-3.706422917
 21
-1.5709336958
 31
0.0
 11
-3.6912261854
 21
-1.1985071746
 31
0.0
 11
-3.6108938998
 21
-0.8704338581
 31
0.0
 11
-3.4685812742
 21
-0.6010278602
 31
0.0
 11
-3.2707063513
 21
-0.4005808864
 31
0.0
 11
-3.0256688308
 21
-0.2766271056
 31
0.0
 11
-2.7431095425
 21
-0.2342645729
 31
0.0
 11
-2.4338585671
 21
-0.2758793074
 31
0.0
 11
-2.1104210607
 21
-0.3997923819
 31
0.0
 11
-1.785334662
 21
-0.6002616684
 31
0.0
 11
-1.4709481285
 21
-0.8705307381
 31
0.0
 11
-1.1792966005
 21
-1.2000452949
 31
0.0
 11
-0.9208259675
 21
-1.5757678366
 31
0.0
 11
-0.7047644609
 21
-1.983127227
 31
0.0
 11
-0.5392335156
 21
-2.406304697
 31
0.0
 11
-0.4306777105
 21
-2.8286586902
 31
0.0
 11
-0.3829214771
 21
-3.2325893994
 31
0.0
  0
ELLIPSE
  5
2D8
100
AcDbEntity
  8
RACCORDO
100
AcDbEllipse
 62
7
  6
CONTINUOUS
 10
-13.8029631647
 20
17.9221618429
 30
0.0
 11
-0.1119858744
 21
0.2236318019
 31
0.0
 40
0.6122594231
 41
-0.6852493493
 42
0.0223236952
  0
ELLIPSE
  5
2D9
100
AcDbEntity
  8
RACCORDO
100
AcDbEllipse
 62
7
  6
CONTINUOUS
 10
17.4509410573
 20
2.2952097319
 30
0.0
 11
-0.1119259236
 21
0.2235783474
 31
0.0
 40
0.6126250184
 41
-2.2559124555
 42
-0.6854206804
  0
ELLIPSE
  5
2DA
100
AcDbEntity
  8
0
100
AcDbEllipse
 62
7
  6
CONTINUOUS
 10
16.722819031
 20
-16.3715199229
 30
0.0
 11
-0.1826272431
 21
0.4654700168
 31
0.0
 40
0.6543766329
 41
-3.1348732976
 42
-2.2008763123
  0
ELLIPSE
  5
2DB
100
AcDbEntity
  8
ASSI
100
AcDbEllipse
 62
7
  6
CONTINUOUS
 10
-13.8029631647
 20
17.9221618429
 30
0.0
 11
-0.1119858744
 21
0.2236318019
 31
0.0
 40
0.6122594231
 41
-0.6852493493
 42
0.0223236952
  0
ELLIPSE
  5
2DC
100
AcDbEntity
  8
ASSI
100
AcDbEllipse
 62
7
  6
CONTINUOUS
 10
17.4509410573
 20
2.2952097319
 30
0.0
 11
-0.1119259236
 21
0.2235783474
 31
0.0
 40
0.6126250184
 41
-2.2559124555
 42
-0.6854206804
  0
ELLIPSE
  5
2DD
100
AcDbEntity
  8
ASSI
100
AcDbEllipse
 62
7
  6
CONTINUOUS
 10
16.722819031
 20
-16.3715199229
 30
0.0
 11
-0.1826272431
 21
0.4654700168
 31
0.0
 40
0.6543766329
 41
-3.1348732976
 42
-2.2008763123
  0
ENDSEC
  0
SECTION
  2
OBJECTS
  0
DICTIONARY
  5
C
100
AcDbDictionary
280
0
281
1
  3
ACAD_GROUP
350
D
  3
ACAD_MLINESTYLE
350
17
  3
ACAD_LAYOUT
350
1A
  3
ACAD_PLOTSETTINGS
350
19
  3
ACAD_PLOTSTYLENAME
350
E
  0
DICTIONARY
  5
D
102
{ACAD_REACTORS
330
C
102
}
100
AcDbDictionary
280
0
281
1
  0
ACDBDICTIONARYWDFLT
  5
E
102
{ACAD_REACTORS
330
C
102
}
100
AcDbDictionary
281
1
  3
Normal
350
F
100
AcDbDictionaryWithDefault
340
F
  0
DICTIONARY
  5
17
102
{ACAD_REACTORS
330
C
102
}
100
AcDbDictionary
280
0
281
1
  3
Standard
350
18
  0
DICTIONARY
  5
19
102
{ACAD_REACTORS
330
C
102
}
100
AcDbDictionary
281
1
  0
DICTIONARY
  5
1A
102
{ACAD_REACTORS
330
C
102
}
100
AcDbDictionary
281
1
  3
Model
350
2DE
  3
Layout1
350
2DF
  0
ACDBPLACEHOLDER
  5
F
102
{ACAD_REACTORS
330
E
102
}
  0
MLINESTYLE
  5
18
102
{ACAD_REACTORS
330
17
102
}
100
AcDbMlineStyle
  2
STANDARD
 70
0
  3

 62
256
 51
90.0
 52
90.0
 71
2
 49
0.5
 62
256
  6
BYLAYER
 49
-0.5
 62
256
  6
BYLAYER
  0
LAYOUT
  5
2DE
102
{ACAD_REACTORS
330
1A
102
}
100
AcDbPlotSettings
  1

  2
none_device
  4
ISO_A4_(297.00_x_210.00_MM)
  6

 40
0.0
 41
0.0
 42
0.0
 43
0.0
 44
297.0
 45
210.0
 46
0.0
 47
0.0
 48
0.0
 49
0.0
140
0.0
141
0.0
142
1.0
143
1.0
 70
1024
 72
1
 73
0
 74
0
  7

 75
0
147
1.0
148
0.0
149
0.0
100
AcDbLayout
  1
Model
 70
0
 71
0
 10
0.0
 20
0.0
 11
297.0
 21
210.0
 12
0.0
 22
0.0
 32
0.0
 14
0.0
 24
0.0
 34
0.0
 15
0.0
 25
0.0
 35
0.0
146
0.0
 13
0.0
 23
0.0
 33
0.0
 16
1.0
 26
0.0
 36
0.0
 17
0.0
 27
1.0
 37
0.0
 76
0
330
217
345
0
346
0
  0
LAYOUT
  5
2DF
102
{ACAD_REACTORS
330
1A
102
}
100
AcDbPlotSettings
  1

  2
none_device
  4
ISO_A4_(297.00_x_210.00_MM)
  6

 40
0.0
 41
0.0
 42
0.0
 43
0.0
 44
297.0
 45
210.0
 46
0.0
 47
0.0
 48
0.0
 49
0.0
140
0.0
141
0.0
142
1.0
143
1.0
 70
0
 72
1
 73
0
 74
0
  7

 75
0
147
1.0
148
0.0
149
0.0
100
AcDbLayout
  1
Layout1
 70
0
 71
1
 10
0.0
 20
0.0
 11
297.0
 21
210.0
 12
0.0
 22
0.0
 32
0.0
 14
0.0
 24
0.0
 34
0.0
 15
0.0
 25
0.0
 35
0.0
146
0.0
 13
0.0
 23
0.0
 33
0.0
 16
1.0
 26
0.0
 36
0.0
 17
0.0
 27
1.0
 37
0.0
 76
0
330
218
345
0
346
0
  0
ENDSEC
  0
EOF
