  0
SECTION
  2
HEADER
  9
$ACADVER
  1
AC1015
  9
$DWGCODEPAGE
  3
ANSI_1252
  9
$EXTMAX
 10
297.0
 20
210.0
 30
0.0
  9
$EXTMIN
 10
0.0
 20
0.0
 30
0.0
  9
$LIMMIN
 10
0.0
 20
0.0
  9
$LIMMAX
 10
297.0
 20
210.0
  9
$VIEWCTR
 10
148.5
 20
105.0
  9
$VIEWSIZE
 40
210.0
  9
$CLAYER
  8
0
  9
$LTSCALE
 40
16.335
  9
$CELTYPE
  6
BYLAYER
  9
$DIMSCALE
 40
1.0
  9
$DIMASZ
 40
3.0
  9
$DIMEXO
 40
1.85625
  9
$DIMDLI
 40
11.286
  9
$DIMEXE
 40
5.346
  9
$DIMCEN
 40
2.673
  9
$DIMLFAC
 40
1.0
  9
$DIMBLK
  1
_FILLED
  9
$DIMTXT
 40
3.0
  9
$DIMTOL
 70
1
  9
$DIMLIM
 70
0
  9
$DIMTFAC
 40
1.0
  9
$DIMTP
 40
0.01
  9
$DIMTM
 40
0.01
  9
$PDMODE
 70
3
  9
$PDSIZE
 40
3.0
  9
$HANDSEED
  5
2E1
  9
$TILEMODE
 70
1
  9
$MEASUREMENT
 70
1
  9
$INSUNITS
 70
4
  0
ENDSEC
  0
SECTION
  2
CLASSES
  0
CLASS
  1
ACDBDICTIONARYWDFLT
  2
AcDbDictionaryWithDefault
  3
AutoCAD 2000
 90
0
280
0
281
0
  0
CLASS
  1
ACDBPLACEHOLDER
  2
AcDbPlaceHolder
  3
AutoCAD 2000
 90
0
280
0
281
0
  0
CLASS
  1
LAYOUT
  2
AcDbLayout
  3
AutoCAD 2000
 90
0
280
0
281
0
  0
ENDSEC
  0
SECTION
  2
TABLES
  0
TABLE
  2
VPORT
  5
8
100
AcDbSymbolTable
 70
2
  0
VPORT
  5
1F4
100
AcDbSymbolTableRecord
100
AcDbViewportTableRecord
  2
*ACTIVE
 70
0
 10
0.0
 20
0.0
 11
1.0
 21
1.0
 12
148.5
 22
105.0
 13
0.0
 23
0.0
 14
1.0
 24
1.0
 15
0.0
 25
0.0
 16
0.0
 26
0.0
 36
1.0
 17
0.0
 27
0.0
 37
0.0
 40
210.0
 41
1.4142857143
 42
50.0
 43
0.0
 44
0.0
 50
0.0
 51
0.0
 71
0
 72
100
 73
1
 74
1
 75
0
 76
0
 77
0
 78
0
  0
ENDTAB
  0
TABLE
  2
LTYPE
  5
5
100
AcDbSymbolTable
 70
6
  0
LTYPE
  5
14
100
AcDbSymbolTableRecord
100
AcDbLinetypeTableRecord
  2
BYBLOCK
 70
0
  3

 72
65
 73
0
 40
0.0
  0
LTYPE
  5
15
100
AcDbSymbolTableRecord
100
AcDbLinetypeTableRecord
  2
BYLAYER
 70
0
  3

 72
65
 73
0
 40
0.0
  0
LTYPE
  5
16
100
AcDbSymbolTableRecord
100
AcDbLinetypeTableRecord
  2
CONTINUOUS
 70
64
  3
Solid line
 72
65
 73
0
 40
0.0
  0
LTYPE
  5
1F5
100
AcDbSymbolTableRecord
100
AcDbLinetypeTableRecord
  2
CENTER
 70
64
  3
____ _ ____ _ ____ _ ____ _ ____ _ ____ _ ____
 72
65
 73
4
 40
0.6
 49
0.375
 74
0
 49
-0.075
 74
0
 49
0.075
 74
0
 49
-0.075
 74
0
  0
LTYPE
  5
1F6
100
AcDbSymbolTableRecord
100
AcDbLinetypeTableRecord
  2
HIDDEN
 70
64
  3
- - - - - - - - - - - - - - - - - - - -
 72
65
 73
2
 40
0.2
 49
0.1
 74
0
 49
-0.1
 74
0
  0
LTYPE
  5
1F7
100
AcDbSymbolTableRecord
100
AcDbLinetypeTableRecord
  2
PHANTOM
 70
64
  3
_____ _ _ _____ _ _ _____ _ _ _____
 72
65
 73
6
 40
0.8
 49
0.45
 74
0
 49
-0.05
 74
0
 49
0.1
 74
0
 49
-0.05
 74
0
 49
0.1
 74
0
 49
-0.05
 74
0
  0
LTYPE
  5
1F8
100
AcDbSymbolTableRecord
100
AcDbLinetypeTableRecord
  2
DOT
 70
64
  3
. . . . . . . . . . . . . . . . . . . .
 72
65
 73
2
 40
0.2
 49
0.1
 74
0
 49
-0.1
 74
0
  0
LTYPE
  5
1F9
100
AcDbSymbolTableRecord
100
AcDbLinetypeTableRecord
  2
DASHED
 70
64
  3
- - - - - - - - - - - - - - - - - - - -
 72
65
 73
2
 40
0.2
 49
0.1
 74
0
 49
-0.1
 74
0
  0
ENDTAB
  0
TABLE
  2
LAYER
  5
2
100
AcDbSymbolTable
 70
36
  0
LAYER
  5
10
100
AcDbSymbolTableRecord
100
AcDbLayerTableRecord
  2
0
 70
0
 62
7
  6
CONTINUOUS
370
-3
390
F
  0
LAYER
  5
1FA
100
AcDbSymbolTableRecord
100
AcDbLayerTableRecord
  2
DEFAULT_1
 70
0
 62
7
  6
CENTER
370
-3
390
F
  0
LAYER
  5
1FB
100
AcDbSymbolTableRecord
100
AcDbLayerTableRecord
  2
DEFAULT_2
 70
0
 62
7
  6
HIDDEN
370
-3
390
F
  0
LAYER
  5
1FC
100
AcDbSymbolTableRecord
100
AcDbLayerTableRecord
  2
DEFAULT_3
 70
0
 62
7
  6
PHANTOM
370
-3
390
F
  0
LAYER
  5
1FD
100
AcDbSymbolTableRecord
100
AcDbLayerTableRecord
  2
ASSI
 70
0
 62
7
  6
CONTINUOUS
370
-3
390
F
  0
LAYER
  5
1FE
100
AcDbSymbolTableRecord
100
AcDbLayerTableRecord
  2
COLOR9
 70
0
 62
7
  6
CONTINUOUS
370
-3
390
F
  0
LAYER
  5
1FF
100
AcDbSymbolTableRecord
100
AcDbLayerTableRecord
  2
COORDINATE
 70
0
 62
7
  6
CONTINUOUS
370
-3
390
F
  0
LAYER
  5
200
100
AcDbSymbolTableRecord
100
AcDbLayerTableRecord
  2
COORD_ORIGINE
 70
0
 62
7
  6
CONTINUOUS
370
-3
390
F
  0
LAYER
  5
201
100
AcDbSymbolTableRecord
100
AcDbLayerTableRecord
  2
COPY_PUBLISH
 70
0
 62
7
  6
CONTINUOUS
370
-3
390
F
  0
LAYER
  5
202
100
AcDbSymbolTableRecord
100
AcDbLayerTableRecord
  2
COSMETIC
 70
0
 62
7
  6
CONTINUOUS
370
-3
390
F
  0
LAYER
  5
203
100
AcDbSymbolTableRecord
100
AcDbLayerTableRecord
  2
CURVE
 70
0
 62
7
  6
CONTINUOUS
370
-3
390
F
  0
LAYER
  5
204
100
AcDbSymbolTableRecord
100
AcDbLayerTableRecord
  2
DRAFT
 70
0
 62
7
  6
CONTINUOUS
370
-3
390
F
  0
LAYER
  5
205
100
AcDbSymbolTableRecord
100
AcDbLayerTableRecord
  2
IGS_SCRITTE
 70
0
 62
7
  6
CONTINUOUS
370
-3
390
F
  0
LAYER
  5
206
100
AcDbSymbolTableRecord
100
AcDbLayerTableRecord
  2
IMPORT_IGES
 70
0
 62
7
  6
CONTINUOUS
370
-3
390
F
  0
LAYER
  5
207
100
AcDbSymbolTableRecord
100
AcDbLayerTableRecord
  2
INTF_15
 70
0
 62
7
  6
CONTINUOUS
370
-3
390
F
  0
LAYER
  5
208
100
AcDbSymbolTableRecord
100
AcDbLayerTableRecord
  2
INTF_3
 70
0
 62
7
  6
CONTINUOUS
370
-3
390
F
  0
LAYER
  5
209
100
AcDbSymbolTableRecord
100
AcDbLayerTableRecord
  2
INTF_4
 70
0
 62
7
  6
CONTINUOUS
370
-3
390
F
  0
LAYER
  5
20A
100
AcDbSymbolTableRecord
100
AcDbLayerTableRecord
  2
INTF_YELLOW
 70
0
 62
7
  6
CONTINUOUS
370
-3
390
F
  0
LAYER
  5
20B
100
AcDbSymbolTableRecord
100
AcDbLayerTableRecord
  2
PIANI
 70
0
 62
7
  6
CONTINUOUS
370
-3
390
F
  0
LAYER
  5
20C
100
AcDbSymbolTableRecord
100
AcDbLayerTableRecord
  2
PIANI_ORIGINE
 70
0
 62
7
  6
CONTINUOUS
370
-3
390
F
  0
LAYER
  5
20D
100
AcDbSymbolTableRecord
100
AcDbLayerTableRecord
  2
PIANI_RIFERIMENTO
 70
0
 62
7
  6
CONTINUOUS
370
-3
390
F
  0
LAYER
  5
20E
100
AcDbSymbolTableRecord
100
AcDbLayerTableRecord
  2
RACCORDO
 70
0
 62
7
  6
CONTINUOUS
370
-3
390
F
  0
LAYER
  5
20F
100
AcDbSymbolTableRecord
100
AcDbLayerTableRecord
  2
SMUSSO
 70
0
 62
7
  6
CONTINUOUS
370
-3
390
F
  0
LAYER
  5
210
100
AcDbSymbolTableRecord
100
AcDbLayerTableRecord
  2
SOLIDO
 70
0
 62
7
  6
CONTINUOUS
370
-3
390
F
  0
LAYER
  5
211
100
AcDbSymbolTableRecord
100
AcDbLayerTableRecord
  2
SUPERFICI
 70
0
 62
7
  6
CONTINUOUS
370
-3
390
F
  0
LAYER
  5
212
100
AcDbSymbolTableRecord
100
AcDbLayerTableRecord
  2
TRASH
 70
0
 62
7
  6
CONTINUOUS
370
-3
390
F
  0
LAYER
  5
213
100
AcDbSymbolTableRecord
100
AcDbLayerTableRecord
  2
WHITE
 70
0
 62
7
  6
CONTINUOUS
370
-3
390
F
  0
LAYER
  5
214
100
AcDbSymbolTableRecord
100
AcDbLayerTableRecord
  2
XSEC_DATUMS
 70
0
 62
7
  6
CONTINUOUS
370
-3
390
F
  0
ENDTAB
  0
TABLE
  2
STYLE
  5
3
100
AcDbSymbolTable
 70
1
  0
STYLE
  5
11
100
AcDbSymbolTableRecord
100
AcDbTextStyleTableRecord
  2
STANDARD
 70
0
 40
0.0
 41
0.8
 50
0.0
 71
0
 42
0.2
  3
txt
  4

  0
STYLE
  5
215
100
AcDbSymbolTableRecord
100
AcDbTextStyleTableRecord
  2
TEXTSTYLE_1
 70
0
 40
0.0
 41
0.8
 50
0.0
 71
0
 42
0.2
  3
gdt
  4

  0
ENDTAB
  0
TABLE
  2
VIEW
  5
6
100
AcDbSymbolTable
 70
0
  0
ENDTAB
  0
TABLE
  2
UCS
  5
7
100
AcDbSymbolTable
 70
0
  0
ENDTAB
  0
TABLE
  2
APPID
  5
9
100
AcDbSymbolTable
 70
1
  0
APPID
  5
216
100
AcDbSymbolTableRecord
100
AcDbRegAppTableRecord
  2
ACAD
 70
0
  0
ENDTAB
  0
TABLE
  2
BLOCK_RECORD
  5
1
100
AcDbSymbolTable
 70
0
  0
BLOCK_RECORD
  5
217
100
AcDbSymbolTableRecord
100
AcDbBlockTableRecord
  2
*Model_Space
  0
BLOCK_RECORD
  5
218
100
AcDbSymbolTableRecord
100
AcDbBlockTableRecord
  2
*Paper_Space
  0
ENDTAB
  0
TABLE
  2
DIMSTYLE
  5
A
100
AcDbSymbolTable
 70
1
100
AcDbDimStyleTable
 71
0
  0
DIMSTYLE
105
219
100
AcDbSymbolTableRecord
100
AcDbDimStyleTableRecord
  2
STANDARD
 70
0
  3

  4

 40
1.0
 41
3.0
 42
0.0625
 43
0.38
 44
0.18
 45
0.0
 46
0.0
 47
0.01
 48
0.01
140
3.0
141
0.09
142
0.0
143
25.4
144
1.0
145
0.0
146
1.0
147
0.09
 71
1.0
 72
0.0
 73
0
 74
0
 75
0
 76
0
 77
1
 78
8
170
0
171
2
172
0
173
0
174
0
175
0
176
0
177
0
178
0
270
2
271
2
272
2
273
2
274
2
275
0
280
0
281
0
282
0
283
1
284
8
285
0
286
0
287
3
288
0
340
11
  0
ENDTAB
  0
ENDSEC
  0
SECTION
  2
BLOCKS
  0
BLOCK
  5
20
100
AcDbEntity
  8
0
100
AcDbBlockBegin
  2
*Model_Space
 70
0
 10
0.0
 20
0.0
 30
0.0
  3
*Model_Space
  1

  0
ENDBLK
  5
21
100
AcDbEntity
  8
0
100
AcDbBlockEnd
  0
BLOCK
  5
1C
100
AcDbEntity
  8
0
100
AcDbBlockBegin
  2
*Paper_Space
 70
0
 10
0.0
 20
0.0
 30
0.0
  3
*Paper_Space
  1

  0
ENDBLK
  5
1D
100
AcDbEntity
  8
0
100
AcDbBlockEnd
  0
ENDSEC
  0
SECTION
  2
ENTITIES
  0
LWPOLYLINE
  5
21A
100
AcDbEntity
  8
ASSI
100
AcDbPolyline
 62
7
  6
CONTINUOUS
 90
11
 70
0
 10
-17.2928421804
 20
16.1861096719
 10
-17.3099021173
 20
16.1763003497
 10
-17.3443008967
 20
16.1533200534
 10
-17.3752168765
 20
16.1280707058
 10
-17.4026554621
 20
16.1006572357
 10
-17.4265222985
 20
16.0712674921
 10
-17.4466464767
 20
16.0402460715
 10
-17.4629817489
 20
16.0078449974
 10
-17.4754937557
 20
15.9743020525
 10
-17.4841138532
 20
15.9399972762
 10
-17.4888215293
 20
15.9053926153
  0
LWPOLYLINE
  5
21B
100
AcDbEntity
  8
RACCORDO
100
AcDbPolyline
 62
7
  6
CONTINUOUS
 90
31
 70
0
 10
-17.2926848177
 20
16.186195992
 10
-17.300324395
 20
16.1819238293
 10
-17.3127000363
 20
16.1745989975
 10
-17.3246184617
 20
16.1670354507
 10
-17.3360839782
 20
16.1592432761
 10
-17.3471027417
 20
16.1512313561
 10
-17.3576787365
 20
16.1430095397
 10
-17.3678148976
 20
16.1345886404
 10
-17.3775154542
 20
16.1259785722
 10
-17.3867824805
 20
16.1171909596
 10
-17.3956155104
 20
16.1082406269
 10
-17.4040204979
 20
16.0991367692
 10
-17.4120056663
 20
16.0898852007
 10
-17.4195684073
 20
16.0805041584
 10
-17.4267156184
 20
16.0710014895
 10
-17.4334650928
 20
16.0613680435
 10
-17.4398166865
 20
16.0516170073
 10
-17.4457715412
 20
16.0417605374
 10
-17.4513441365
 20
16.0317872148
 10
-17.4565343294
 20
16.0217079545
 10
-17.461340949
 20
16.011536661
 10
-17.4657724443
 20
16.0012657863
 10
-17.4698278985
 20
15.990906233
 10
-17.4735059069
 20
15.9804719924
 10
-17.4768109431
 20
15.9699599049
 10
-17.479741577
 20
15.9593827763
 10
-17.4822970957
 20
15.9487530527
 10
-17.4844804997
 20
15.9380669336
 10
-17.486290563
 20
15.9273377601
 10
-17.4877268868
 20
15.9165776875
 10
-17.4887910255
 20
15.9057810197
  0
LINE
  5
21C
100
AcDbEntity
  8
RACCORDO
100
AcDbLine
 62
7
  6
CONTINUOUS
 10
-17.2926779792
 20
16.1861997671
 11
-13.7332832404
 21
18.134111593
  0
LINE
  5
21D
100
AcDbEntity
  8
ASSI
100
AcDbLine
 62
7
  6
CONTINUOUS
 10
-17.2928421941
 20
16.1861096969
 11
-13.7332832404
 21
18.134111593
  0
LINE
  5
21E
100
AcDbEntity
  8
RACCORDO
100
AcDbLine
 62
253
  6
CONTINUOUS
 10
-17.1742026724
 20
16.1826192532
 11
-13.618313594
 21
18.1286125739
  0
LINE
  5
21F
100
AcDbEntity
  8
ASSI
100
AcDbLine
 62
253
  6
CONTINUOUS
 10
-17.1742026724
 20
16.1826192532
 11
-13.618313594
 21
18.1286125739
  0
LINE
  5
220
100
AcDbEntity
  8
DRAFT
100
AcDbLine
 62
7
  6
CONTINUOUS
 10
-11.9654813274
 20
16.2629659561
 11
-12.9524897547
 21
15.6517072431
  0
LINE
  5
221
100
AcDbEntity
  8
ASSI
100
AcDbLine
 62
7
  6
CONTINUOUS
 10
-11.9654813274
 20
16.2629659561
 11
-12.9524897547
 21
15.6517072431
  0
LINE
  5
222
100
AcDbEntity
  8
DRAFT
100
AcDbLine
 62
7
  6
CONTINUOUS
 10
-11.9654813274
 20
17.3021964406
 11
-13.9012101892
 21
16.1260674604
  0
LINE
  5
223
100
AcDbEntity
  8
ASSI
100
AcDbLine
 62
7
  6
CONTINUOUS
 10
-11.9654813274
 20
17.3021964406
 11
-13.9012101892
 21
16.1260674604
  0
LWPOLYLINE
  5
224
100
AcDbEntity
  8
RACCORDO
100
AcDbPolyline
 62
7
  6
CONTINUOUS
 90
4
 70
0
 10
-17.4887910255
 20
15.9057810197
 10
-17.489481987
 20
15.8949543703
 10
-17.4897984639
 20
15.8841167623
 10
-17.4898207027
 20
15.8801664193
  0
LWPOLYLINE
  5
225
100
AcDbEntity
  8
0
100
AcDbPolyline
 62
7
  6
CONTINUOUS
 90
17
 70
0
 10
-17.4091809281
 20
7.0759478923
 10
-17.3959894825
 20
6.5980022143
 10
-17.3804174319
 20
6.1214304819
 10
-17.362465255
 20
5.6462505598
 10
-17.3421334328
 20
5.1724791605
 10
-17.3194225158
 20
4.7001339525
 10
-17.2943332512
 20
4.2292332261
 10
-17.2668663861
 20
3.7597946317
 10
-17.2370227135
 20
3.2918360281
 10
-17.2048032507
 20
2.8253757723
 10
-17.1702090719
 20
2.3604322554
 10
-17.1332413012
 20
1.8970237699
 10
-17.0939012005
 20
1.4351678677
 10
-17.0521900423
 20
0.9748818219
 10
-17.0081091865
 20
0.5161835226
 10
-16.9616600906
 20
0.0590900451
 10
-16.9128441412
 20
-0.3963825515
  0
LWPOLYLINE
  5
226
100
AcDbEntity
  8
ASSI
100
AcDbPolyline
 62
7
  6
CONTINUOUS
 90
9
 70
0
 10
-17.4283396372
 20
8.0304988103
 10
-17.4062260595
 20
6.9608864599
 10
-17.3698970785
 20
5.8352501576
 10
-17.3202973046
 20
4.7174287902
 10
-17.2574350983
 20
3.6076601492
 10
-17.1813214849
 20
2.5061823935
 10
-17.0919698995
 20
1.4132272399
 10
-16.9893968093
 20
0.3290290939
 10
-16.8736210825
 20
-0.7461810163
  0
LWPOLYLINE
  5
227
100
AcDbEntity
  8
0
100
AcDbPolyline
 62
7
  6
CONTINUOUS
 90
3
 70
0
 10
-17.4283396346
 20
8.0304986411
 10
-17.4199914281
 20
7.5552468178
 10
-17.4091809281
 20
7.0759478923
  0
LINE
  5
228
100
AcDbEntity
  8
ASSI
100
AcDbLine
 62
7
  6
CONTINUOUS
 10
-17.4403342874
 20
8.8698808076
 11
-17.4283396349
 21
8.0304986421
  0
LWPOLYLINE
  5
229
100
AcDbEntity
  8
ASSI
100
AcDbPolyline
 62
7
  6
CONTINUOUS
 90
8
 70
0
 10
-17.4886835098
 20
15.0550813735
 10
-17.486064828
 20
14.165592956
 10
-17.4820016796
 20
13.2768858559
 10
-17.4764940742
 20
12.3889642634
 10
-17.4695420308
 20
11.5018316757
 10
-17.4611455685
 20
10.6154913752
 10
-17.451304713
 20
9.72994696
 10
-17.4403342874
 20
8.8698808076
  0
LINE
  5
22A
100
AcDbEntity
  8
ASSI
100
AcDbLine
 62
7
  6
CONTINUOUS
 10
-17.4898207803
 20
15.8801769026
 11
-17.4886835098
 21
15.0550813735
  0
LWPOLYLINE
  5
22B
100
AcDbEntity
  8
0
100
AcDbPolyline
 62
7
  6
CONTINUOUS
 90
10
 70
0
 10
-17.4898207803
 20
15.8801768954
 10
-17.4885858665
 20
15.0101295962
 10
-17.4859462141
 20
14.1342660448
 10
-17.4819059028
 20
13.2591602511
 10
-17.4764649419
 20
12.3848161988
 10
-17.4696233494
 20
11.5112372261
 10
-17.4613811439
 20
10.6384264843
 10
-17.4517383495
 20
9.7663874031
 10
-17.4406950099
 20
8.8951240565
 10
-17.4283396349
 20
8.0304986428
  0
LINE
  5
22C
100
AcDbEntity
  8
ASSI
100
AcDbLine
 62
7
  6
CONTINUOUS
 10
-17.4888215293
 20
15.9053926153
 11
-17.4898203449
 21
15.8799438648
  0
LWPOLYLINE
  5
22D
100
AcDbEntity
  8
ASSI
100
AcDbPolyline
 62
7
  6
CONTINUOUS
 90
10
 70
0
 10
-16.7528634503
 20
-1.7477635533
 10
-16.7451153811
 20
-1.7977734308
 10
-16.7259462449
 20
-1.8800921436
 10
-16.6998258212
 20
-1.9572722523
 10
-16.6674231745
 20
-2.0287016473
 10
-16.6292013549
 20
-2.0944226128
 10
-16.5852628443
 20
-2.1547923401
 10
-16.5362302146
 20
-2.2092663666
 10
-16.4826736546
 20
-2.2575400249
 10
-16.42442332
 20
-2.2998668705
  0
LWPOLYLINE
  5
22E
100
AcDbEntity
  8
0
100
AcDbPolyline
 62
7
  6
CONTINUOUS
 90
31
 70
0
 10
-16.7529075932
 20
-1.7474185056
 10
-16.7503744051
 20
-1.7659119246
 10
-16.7464664007
 20
-1.7902239108
 10
-16.7419663006
 20
-1.8141185007
 10
-16.7368882466
 20
-1.8375842062
 10
-16.7312443892
 20
-1.8606218233
 10
-16.7250437759
 20
-1.8832401558
 10
-16.7182983896
 20
-1.9054334821
 10
-16.711020831
 20
-1.9271956343
 10
-16.7032197774
 20
-1.948530861
 10
-16.6949076515
 20
-1.9694312216
 10
-16.6860969525
 20
-1.9898904213
 10
-16.6767959097
 20
-2.0099117298
 10
-16.6670183459
 20
-2.0294852004
 10
-16.6567765667
 20
-2.0486052422
 10
-16.6460761111
 20
-2.0672786302
 10
-16.6349304771
 20
-2.0854967061
 10
-16.6233532166
 20
-2.1032515589
 10
-16.6113493722
 20
-2.1205483694
 10
-16.5989339866
 20
-2.1373773679
 10
-16.5861205676
 20
-2.1537318143
 10
-16.5729111001
 20
-2.1696189413
 10
-16.5593207371
 20
-2.1850292131
 10
-16.5453635804
 20
-2.1999556307
 10
-16.5310387104
 20
-2.2144065348
 10
-16.5163606627
 20
-2.228373177
 10
-16.5013442673
 20
-2.241847544
 10
-16.4859876579
 20
-2.254836522
 10
-16.4703061983
 20
-2.2673312063
 10
-16.4543144054
 20
-2.2793242143
 10
-16.4380076309
 20
-2.2908219499
  0
LINE
  5
22F
100
AcDbEntity
  8
ASSI
100
AcDbLine
 62
7
  6
CONTINUOUS
 10
-16.7529082
 20
-1.747413849
 11
-16.752863466
 21
-1.7477635553
  0
LINE
  5
230
100
AcDbEntity
  8
ASSI
100
AcDbLine
 62
7
  6
CONTINUOUS
 10
-16.8736210825
 20
-0.7461810163
 11
-16.7529082
 21
-1.747413849
  0
LWPOLYLINE
  5
231
100
AcDbEntity
  8
0
100
AcDbPolyline
 62
7
  6
CONTINUOUS
 90
4
 70
0
 10
-16.9128441412
 20
-0.3963825515
 10
-16.8616628841
 20
-0.8502171147
 10
-16.8081183708
 20
-1.302394021
 10
-16.7529082293
 20
-1.7474136187
  0
LINE
  5
232
100
AcDbEntity
  8
DRAFT
100
AcDbLine
 62
7
  6
CONTINUOUS
 10
-11.9654813274
 20
17.3021964406
 11
-11.9654813274
 21
16.2629659561
  0
LINE
  5
233
100
AcDbEntity
  8
ASSI
100
AcDbLine
 62
7
  6
CONTINUOUS
 10
-11.9654813274
 20
17.3021964406
 11
-11.9654813274
 21
16.2629659561
  0
LWPOLYLINE
  5
234
100
AcDbEntity
  8
0
100
AcDbPolyline
 62
7
  6
CONTINUOUS
 90
27
 70
0
 10
14.3975099077
 20
-17.7130336915
 10
14.4175409422
 20
-17.7207632999
 10
14.437830872
 20
-17.7278894562
 10
14.4583614007
 20
-17.7344042445
 10
14.479114179
 20
-17.7403006621
 10
14.500099783
 20
-17.7455792847
 10
14.5213008194
 20
-17.7502321083
 10
14.5426984478
 20
-17.7542519605
 10
14.5643027553
 20
-17.7576367316
 10
14.5860964586
 20
-17.760378511
 10
14.6080608497
 20
-17.7624699529
 10
14.6302053475
 20
-17.7639063157
 10
14.6525137698
 20
-17.7646798715
 10
14.674966462
 20
-17.7647833505
 10
14.6975691585
 20
-17.7642094177
 10
14.7203071662
 20
-17.7629504338
 10
14.7431597391
 20
-17.7609996579
 10
14.7661252015
 20
-17.7583487541
 10
14.7891871186
 20
-17.7549907307
 10
14.8123272798
 20
-17.7509197013
 10
14.835543318
 20
-17.7461267812
 10
14.8588197414
 20
-17.7406051065
 10
14.8821391348
 20
-17.7343490839
 10
14.9054985344
 20
-17.7273490273
 10
14.9288870356
 20
-17.7195966453
 10
14.9522830573
 20
-17.7110879308
 10
14.9695373855
 20
-17.7043232144
  0
LINE
  5
235
100
AcDbEntity
  8
0
100
AcDbLine
 62
7
  6
CONTINUOUS
 10
14.3777288056
 20
-17.7046978546
 11
14.3975099077
 21
-17.7130336915
  0
LINE
  5
236
100
AcDbEntity
  8
ASSI
100
AcDbLine
 62
7
  6
CONTINUOUS
 10
-16.42442332
 20
-2.2998668705
 11
-16.357992911
 21
-2.3377976581
  0
LWPOLYLINE
  5
237
100
AcDbEntity
  8
0
100
AcDbPolyline
 62
7
  6
CONTINUOUS
 90
4
 70
0
 10
-16.4045090512
 20
-2.3122985263
 10
-16.3873265649
 20
-2.3222746294
 10
-16.3698609939
 20
-2.3317395582
 10
-16.3588753385
 20
-2.3373580308
  0
LWPOLYLINE
  5
238
100
AcDbEntity
  8
0
100
AcDbPolyline
 62
7
  6
CONTINUOUS
 90
3
 70
0
 10
-16.4380076309
 20
-2.2908219499
 10
-16.4214007988
 20
-2.3018159274
 10
-16.4045090512
 20
-2.3122985263
  0
LWPOLYLINE
  5
239
100
AcDbEntity
  8
0
100
AcDbPolyline
 62
7
  6
CONTINUOUS
 90
3
 70
0
 10
14.346253398
 20
-17.689922399
 10
14.3582074692
 20
-17.6957589617
 10
14.3777288056
 20
-17.7046978546
  0
LWPOLYLINE
  5
23A
100
AcDbEntity
  8
ASSI
100
AcDbPolyline
 62
7
  6
CONTINUOUS
 90
12
 70
0
 10
14.3456963508
 20
-17.6896432628
 10
14.3534872531
 20
-17.6934875522
 10
14.408890799
 20
-17.7175112835
 10
14.4666973309
 20
-17.7368547569
 10
14.5264240434
 20
-17.7512558194
 10
14.587746783
 20
-17.7605589369
 10
14.6505582435
 20
-17.7646388924
 10
14.7144893761
 20
-17.7633374135
 10
14.7790975291
 20
-17.7565456802
 10
14.8442617774
 20
-17.7441428169
 10
14.9097368572
 20
-17.725999512
 10
14.969273141
 20
-17.7044297899
  0
LINE
  5
23B
100
AcDbEntity
  8
ASSI
100
AcDbLine
 62
7
  6
CONTINUOUS
 10
-16.3588962527
 20
-2.3373475985
 11
14.3462870429
 21
-17.6899392463
  0
LINE
  5
23C
100
AcDbEntity
  8
0
100
AcDbLine
 62
7
  6
CONTINUOUS
 10
-16.3588993852
 20
-2.3373460323
 11
14.3462870429
 21
-17.6899392463
  0
LINE
  5
23D
100
AcDbEntity
  8
0
100
AcDbLine
 62
7
  6
CONTINUOUS
 10
14.3462553624
 20
-17.6899234046
 11
14.3462838409
 21
-17.6899376453
  0
LINE
  5
23E
100
AcDbEntity
  8
0
100
AcDbLine
 62
253
  6
CONTINUOUS
 10
-16.6064875556
 20
-1.9238316434
 11
14.0898929486
 21
-17.2720218955
  0
LINE
  5
23F
100
AcDbEntity
  8
ASSI
100
AcDbLine
 62
253
  6
CONTINUOUS
 10
-16.6064875556
 20
-1.9238316434
 11
14.0898929486
 21
-17.2720218955
  0
LINE
  5
240
100
AcDbEntity
  8
ASSI
100
AcDbLine
 62
7
  6
CONTINUOUS
 10
14.3456981806
 20
-17.6896441972
 11
14.3462838409
 21
-17.6899376453
  0
LINE
  5
241
100
AcDbEntity
  8
CURVE
100
AcDbLine
 62
253
  6
CONTINUOUS
 10
0.0030537715
 20
-2.3951171312
 11
-3.8395869156
 21
-0.4737967876
  0
LINE
  5
242
100
AcDbEntity
  8
CURVE
100
AcDbLine
 62
253
  6
CONTINUOUS
 10
-4.191732595
 20
0.0379618905
 11
0.3337508046
 21
-2.2247798093
  0
LINE
  5
243
100
AcDbEntity
  8
0
100
AcDbLine
 62
253
  6
CONTINUOUS
 10
13.3658979273
 20
-7.4708184876
 11
-17.2818861629
 21
7.8530735575
  0
LINE
  5
244
100
AcDbEntity
  8
ASSI
100
AcDbLine
 62
253
  6
CONTINUOUS
 10
13.3658979273
 20
-7.4708184876
 11
-17.2818861629
 21
7.8530735575
  0
LINE
  5
245
100
AcDbEntity
  8
DRAFT
100
AcDbLine
 62
7
  6
CONTINUOUS
 10
15.9828661024
 20
3.3280227257
 11
13.6759542771
 21
2.3374852272
  0
LINE
  5
246
100
AcDbEntity
  8
ASSI
100
AcDbLine
 62
7
  6
CONTINUOUS
 10
15.9828661024
 20
3.3280227257
 11
13.6759542771
 21
2.3374852272
  0
LINE
  5
247
100
AcDbEntity
  8
SUPERFICI
100
AcDbLine
 62
7
  6
CONTINUOUS
 10
-4.9354763161
 20
5.0157211255
 11
0.9361949138
 21
2.0798855106
  0
LINE
  5
248
100
AcDbEntity
  8
RACCORDO
100
AcDbLine
 62
7
  6
CONTINUOUS
 10
0.9361949138
 20
2.0798855106
 11
-4.9354763161
 21
5.0157211255
  0
LINE
  5
249
100
AcDbEntity
  8
ASSI
100
AcDbLine
 62
7
  6
CONTINUOUS
 10
0.9361949138
 20
2.0798855106
 11
-4.9354763161
 21
5.0157211255
  0
LINE
  5
24A
100
AcDbEntity
  8
SUPERFICI
100
AcDbLine
 62
7
  6
CONTINUOUS
 10
-4.949033941
 20
6.9137545111
 11
0.9217499083
 21
3.9783625864
  0
LINE
  5
24B
100
AcDbEntity
  8
RACCORDO
100
AcDbLine
 62
7
  6
CONTINUOUS
 10
0.9217499083
 20
3.9783625864
 11
-4.949033941
 21
6.9137545111
  0
LINE
  5
24C
100
AcDbEntity
  8
ASSI
100
AcDbLine
 62
7
  6
CONTINUOUS
 10
0.9217499083
 20
3.9783625864
 11
-4.949033941
 21
6.9137545111
  0
LINE
  5
24D
100
AcDbEntity
  8
RACCORDO
100
AcDbLine
 62
253
  6
CONTINUOUS
 10
17.635698369
 20
2.5016065924
 11
13.8224741849
 21
0.6842808245
  0
LINE
  5
24E
100
AcDbEntity
  8
ASSI
100
AcDbLine
 62
253
  6
CONTINUOUS
 10
17.635698369
 20
2.5016065924
 11
13.8224741849
 21
0.6842808245
  0
LINE
  5
24F
100
AcDbEntity
  8
RACCORDO
100
AcDbLine
 62
253
  6
CONTINUOUS
 10
17.812528947
 20
2.1967426481
 11
13.9945184515
 21
0.3771357956
  0
LINE
  5
250
100
AcDbEntity
  8
ASSI
100
AcDbLine
 62
253
  6
CONTINUOUS
 10
17.812528947
 20
2.1967426481
 11
13.9945184515
 21
0.3771357956
  0
LINE
  5
251
100
AcDbEntity
  8
RACCORDO
100
AcDbLine
 62
253
  6
CONTINUOUS
 10
13.299963174
 20
0.3812023703
 11
-17.343371948
 21
15.7028699313
  0
LINE
  5
252
100
AcDbEntity
  8
ASSI
100
AcDbLine
 62
253
  6
CONTINUOUS
 10
13.299963174
 20
0.3812023703
 11
-17.343371948
 21
15.7028699313
  0
LINE
  5
253
100
AcDbEntity
  8
RACCORDO
100
AcDbLine
 62
253
  6
CONTINUOUS
 10
13.4751990627
 20
0.6854887634
 11
-17.1681398539
 21
16.0071582217
  0
LINE
  5
254
100
AcDbEntity
  8
ASSI
100
AcDbLine
 62
253
  6
CONTINUOUS
 10
13.4751990627
 20
0.6854887634
 11
-17.1681398539
 21
16.0071582217
  0
LINE
  5
255
100
AcDbEntity
  8
DRAFT
100
AcDbLine
 62
7
  6
CONTINUOUS
 10
13.6759542771
 20
2.3374852272
 11
-13.9012101892
 21
16.1260674604
  0
LINE
  5
256
100
AcDbEntity
  8
ASSI
100
AcDbLine
 62
7
  6
CONTINUOUS
 10
13.6759542771
 20
2.3374852272
 11
-13.9012101892
 21
16.1260674604
  0
LINE
  5
257
100
AcDbEntity
  8
RACCORDO
100
AcDbLine
 62
7
  6
CONTINUOUS
 10
17.635698369
 20
2.5016065924
 11
15.9828661024
 21
3.3280227257
  0
LINE
  5
258
100
AcDbEntity
  8
ASSI
100
AcDbLine
 62
7
  6
CONTINUOUS
 10
17.635698369
 20
2.5016065924
 11
15.9828661024
 21
3.3280227257
  0
LINE
  5
259
100
AcDbEntity
  8
RACCORDO
100
AcDbLine
 62
7
  6
CONTINUOUS
 10
-11.9654813274
 20
17.3021964406
 11
-13.618313594
 21
18.1286125739
  0
LINE
  5
25A
100
AcDbEntity
  8
ASSI
100
AcDbLine
 62
7
  6
CONTINUOUS
 10
-11.9654813274
 20
17.3021964406
 11
-13.618313594
 21
18.1286125739
  0
LINE
  5
25B
100
AcDbEntity
  8
RACCORDO
100
AcDbLine
 62
7
  6
CONTINUOUS
 10
17.812528947
 20
2.1967426481
 11
17.812528947
 21
-8.8451389458
  0
LINE
  5
25C
100
AcDbEntity
  8
ASSI
100
AcDbLine
 62
7
  6
CONTINUOUS
 10
17.812528947
 20
2.1967426481
 11
17.812528947
 21
-8.8451389458
  0
LINE
  5
25D
100
AcDbEntity
  8
0
100
AcDbLine
 62
7
  6
CONTINUOUS
 10
17.2612330862
 20
-16.5593107134
 11
17.812528947
 21
-8.8451389458
  0
LINE
  5
25E
100
AcDbEntity
  8
ASSI
100
AcDbLine
 62
7
  6
CONTINUOUS
 10
17.2612330862
 20
-16.5593107134
 11
17.812528947
 21
-8.8451389458
  0
LINE
  5
25F
100
AcDbEntity
  8
0
100
AcDbLine
 62
253
  6
CONTINUOUS
 10
15.1231555269
 20
-17.4236011628
 11
17.2612330862
 21
-16.5593107134
  0
LINE
  5
260
100
AcDbEntity
  8
ASSI
100
AcDbLine
 62
253
  6
CONTINUOUS
 10
15.1231555269
 20
-17.4236011628
 11
17.2612330862
 21
-16.5593107134
  0
LINE
  5
261
100
AcDbEntity
  8
0
100
AcDbLine
 62
7
  6
CONTINUOUS
 10
14.9695437083
 20
-17.7043206914
 11
17.0921919183
 21
-16.8462673588
  0
LINE
  5
262
100
AcDbEntity
  8
ASSI
100
AcDbLine
 62
7
  6
CONTINUOUS
 10
17.0921919183
 20
-16.8462673588
 11
14.9692731524
 21
-17.7044298182
  0
ARC
  5
263
100
AcDbEntity
  8
RACCORDO
100
AcDbCircle
 62
253
  6
CONTINUOUS
 10
525.9049965142
 20
16.0322124526
 40
543.2484714993
100
AcDbArc
 50
180.034735372
 51
180.8626768068
  0
ARC
  5
264
100
AcDbEntity
  8
ASSI
100
AcDbCircle
 62
253
  6
CONTINUOUS
 10
525.9049965142
 20
16.0322124526
 40
543.2484714993
100
AcDbArc
 50
180.034735372
 51
180.8626768068
  0
ARC
  5
265
100
AcDbEntity
  8
RACCORDO
100
AcDbCircle
 62
7
  6
CONTINUOUS
 10
525.6801117876
 20
6.7564342523
 40
524.4845405879
100
AcDbArc
 50
180.3564737649
 51
180.4887240263
  0
ARC
  5
266
100
AcDbEntity
  8
ASSI
100
AcDbCircle
 62
7
  6
CONTINUOUS
 10
525.6801117876
 20
6.7564342523
 40
524.4845405879
100
AcDbArc
 50
180.3564737649
 51
180.4887240263
  0
ARC
  5
267
100
AcDbEntity
  8
SUPERFICI
100
AcDbCircle
 62
7
  6
CONTINUOUS
 10
519.1442572431
 20
9.9730082677
 40
524.3833549227
100
AcDbArc
 50
180.3564593088
 51
180.4887350894
  0
ARC
  5
268
100
AcDbEntity
  8
RACCORDO
100
AcDbCircle
 62
253
  6
CONTINUOUS
 10
519.1659858354
 20
0.702115478
 40
505.8661111247
100
AcDbArc
 50
180.0363474979
 51
180.9257291277
  0
ARC
  5
269
100
AcDbEntity
  8
ASSI
100
AcDbCircle
 62
253
  6
CONTINUOUS
 10
519.1659858354
 20
0.702115478
 40
505.8661111247
100
AcDbArc
 50
180.0363474979
 51
180.9257291277
  0
ARC
  5
26A
100
AcDbEntity
  8
RACCORDO
100
AcDbCircle
 62
253
  6
CONTINUOUS
 10
519.2901144838
 20
0.6954533667
 40
505.2956834954
100
AcDbArc
 50
180.0360942211
 51
180.9257767921
  0
ARC
  5
26B
100
AcDbEntity
  8
ASSI
100
AcDbCircle
 62
253
  6
CONTINUOUS
 10
519.2901144838
 20
0.6954533667
 40
505.2956834954
100
AcDbArc
 50
180.0360942211
 51
180.9257767921
  0
ARC
  5
26C
100
AcDbEntity
  8
RACCORDO
100
AcDbCircle
 62
7
  6
CONTINUOUS
 10
-4.7787793813
 20
5.5039601498
 40
0.4412582556
100
AcDbArc
 50
180.5072885362
 51
183.4774390387
  0
ARC
  5
26D
100
AcDbEntity
  8
ASSI
100
AcDbCircle
 62
7
  6
CONTINUOUS
 10
-4.7787793813
 20
5.5039601498
 40
0.4412582556
100
AcDbArc
 50
180.5072885362
 51
183.4774390387
  0
ARC
  5
26E
100
AcDbEntity
  8
SUPERFICI
100
AcDbCircle
 62
7
  6
CONTINUOUS
 10
0.7646475057
 20
3.4904137083
 40
0.4410841978
100
AcDbArc
 50
0.3750339476
 51
3.3435235644
  0
ARC
  5
26F
100
AcDbEntity
  8
SUPERFICI
100
AcDbCircle
 62
7
  6
CONTINUOUS
 10
0.8072699827
 20
2.2790785134
 40
0.407397637
100
AcDbArc
 50
357.3798448687
 51
0.5117896884
  0
ARC
  5
270
100
AcDbEntity
  8
RACCORDO
100
AcDbCircle
 62
7
  6
CONTINUOUS
 10
-4.8228695178
 20
6.713325282
 40
0.4060888367
100
AcDbArc
 50
177.2398448364
 51
180.3793404825
  0
ARC
  5
271
100
AcDbEntity
  8
ASSI
100
AcDbCircle
 62
7
  6
CONTINUOUS
 10
-4.8228695178
 20
6.713325282
 40
0.4060888367
100
AcDbArc
 50
177.2398448364
 51
180.3793404825
  0
ARC
  5
272
100
AcDbEntity
  8
0
100
AcDbCircle
 62
253
  6
CONTINUOUS
 10
14.5202422914
 20
-17.3420141601
 40
0.3889886042
100
AcDbArc
 50
234.9479967939
 51
243.4306925951
  0
ARC
  5
273
100
AcDbEntity
  8
0
100
AcDbCircle
 62
253
  6
CONTINUOUS
 10
-16.1933249072
 20
-2.007464229
 40
0.3691270765
100
AcDbArc
 50
234.6967841757
 51
237.0375563961
  0
ARC
  5
274
100
AcDbEntity
  8
0
100
AcDbCircle
 62
253
  6
CONTINUOUS
 10
-16.1965729349
 20
-2.0126943183
 40
0.3629716916
100
AcDbArc
 50
237.0185430155
 51
243.3832306157
  0
ARC
  5
275
100
AcDbEntity
  8
ASSI
100
AcDbCircle
 62
253
  6
CONTINUOUS
 10
-16.1965797187
 20
-2.0127059113
 40
0.362958274
100
AcDbArc
 50
237.0184450862
 51
243.4355573046
  0
ARC
  5
276
100
AcDbEntity
  8
RACCORDO
100
AcDbCircle
 62
7
  6
CONTINUOUS
 10
-4.7822568797
 20
5.3217995196
 40
0.3422866913
100
AcDbArc
 50
239.8947612401
 51
243.407963524
  0
ARC
  5
277
100
AcDbEntity
  8
ASSI
100
AcDbCircle
 62
7
  6
CONTINUOUS
 10
-4.7822568797
 20
5.3217995196
 40
0.3422866913
100
AcDbArc
 50
239.8947612401
 51
243.407963524
  0
ARC
  5
278
100
AcDbEntity
  8
SUPERFICI
100
AcDbCircle
 62
7
  6
CONTINUOUS
 10
0.7688545924
 20
3.6729323349
 40
0.3415620238
100
AcDbArc
 50
59.8824320464
 51
63.4079136789
  0
ARC
  5
279
100
AcDbEntity
  8
RACCORDO
100
AcDbCircle
 62
7
  6
CONTINUOUS
 10
1.0752789476
 20
2.3576686648
 40
0.3106571249
100
AcDbArc
 50
243.4032006113
 51
247.1501180889
  0
ARC
  5
27A
100
AcDbEntity
  8
ASSI
100
AcDbCircle
 62
7
  6
CONTINUOUS
 10
1.0752789476
 20
2.3576686648
 40
0.3106571249
100
AcDbArc
 50
243.4032006113
 51
247.1501180889
  0
ARC
  5
27B
100
AcDbEntity
  8
SUPERFICI
100
AcDbCircle
 62
7
  6
CONTINUOUS
 10
-5.0878987928
 20
6.6364065469
 40
0.3101698571
100
AcDbArc
 50
63.4034129207
 51
67.1620608765
  0
ARC
  5
27C
100
AcDbEntity
  8
0
100
AcDbCircle
 62
253
  6
CONTINUOUS
 10
-16.5803976166
 20
-1.7255290368
 40
0.1738921633
100
AcDbArc
 50
187.2317806836
 51
189.2872379917
  0
ARC
  5
27D
100
AcDbEntity
  8
SUPERFICI
100
AcDbCircle
 62
7
  6
CONTINUOUS
 10
1.0473297403
 20
2.2011448562
 40
0.1487090013
100
AcDbArc
 50
287.8018857967
 51
290.6464901583
  0
SPLINE
  5
27E
100
AcDbEntity
  8
SUPERFICI
100
AcDbSpline
 62
7
  6
CONTINUOUS
 70
0
 71
3
 72
16
 73
12
 74
10
 42
0.0000001
 43
0.0000001
 44
0.0000000001
 12
-0.1851281172
 22
-0.1320498313
 32
0.0
 13
0.0014134633
 23
-0.2271576449
 33
0.0
 40
0.0
 40
0.0
 40
0.0
 40
0.0
 40
0.0055110613
 40
0.1116735965
 40
0.221590849
 40
0.3361220045
 40
0.4556415103
 40
0.5812985291
 40
0.7142391868
 40
0.8541405301
 40
1.0
 40
1.0
 40
1.0
 40
1.0
 10
-5.146961578
 20
6.9135557018
 30
0.0
 10
-5.1473016621
 20
6.9133131236
 30
0.0
 10
-5.1541723483
 20
6.9083688402
 30
0.0
 10
-5.1669669358
 20
6.897408384
 30
0.0
 10
-5.1833431201
 20
6.8783532015
 30
0.0
 10
-5.1973928434
 20
6.8563267913
 30
0.0
 10
-5.2089813903
 20
6.8316020397
 30
0.0
 10
-5.2180449832
 20
6.8043814656
 30
0.0
 10
-5.2245139038
 20
6.7748558121
 30
0.0
 10
-5.2283084604
 20
6.7433365817
 30
0.0
 10
-5.2290181765
 20
6.7216810573
 30
0.0
 10
-5.2289494542
 20
6.7106366928
 30
0.0
 11
-5.146961578
 21
6.9135557018
 31
0.0
 11
-5.1479787656
 21
6.9128237145
 31
0.0
 11
-5.1663220927
 21
6.8971677715
 31
0.0
 11
-5.1826469642
 21
6.8782746269
 31
0.0
 11
-5.1967054504
 21
6.8563828458
 31
0.0
 11
-5.2083032036
 21
6.8318343094
 31
0.0
 11
-5.2173979725
 21
6.8047774444
 31
0.0
 11
-5.2239364411
 21
6.7752946979
 31
0.0
 11
-5.2278038485
 21
6.7437506171
 31
0.0
 11
-5.2289494542
 21
6.7106366928
 31
0.0
  0
SPLINE
  5
27F
100
AcDbEntity
  8
SUPERFICI
100
AcDbSpline
 62
7
  6
CONTINUOUS
 70
0
 71
3
 72
14
 73
10
 74
8
 42
0.0000001
 43
0.0000001
 44
0.0000000001
 12
0.1447349143
 22
-0.0723674572
 32
0.0
 13
0.154230483
 23
0.0495274309
 33
0.0
 40
0.0
 40
0.0
 40
0.0
 40
0.0
 40
0.1867059931
 40
0.3647459152
 40
0.5335907996
 40
0.6935574546
 40
0.8470006131
 40
0.9964630539
 40
1.0
 40
1.0
 40
1.0
 40
1.0
 10
0.9361949137
 20
2.0798855106
 30
0.0
 10
0.945202539
 20
2.0753816979
 30
0.0
 10
0.9632210918
 20
2.0673880416
 30
0.0
 10
0.9906614915
 20
2.0585183499
 30
0.0
 10
1.0175451323
 20
2.0531804519
 30
0.0
 10
1.0435771595
 20
2.0514273855
 30
0.0
 10
1.0685658412
 20
2.0532697821
 30
0.0
 10
1.0847416688
 20
2.0569869851
 30
0.0
 10
1.092612209
 20
2.0594977495
 30
0.0
 10
1.092794044
 20
2.0595561415
 30
0.0
 11
0.9361949137
 21
2.0798855106
 31
0.0
 11
0.9638427903
 21
2.0677039795
 31
0.0
 11
0.9912818917
 21
2.0589221125
 31
0.0
 11
1.018097482
 21
2.0536848767
 31
0.0
 11
1.043929811
 21
2.0520254633
 31
0.0
 11
1.0686874465
 21
2.0539191112
 31
0.0
 11
1.0922482065
 21
2.0593820148
 31
0.0
 11
1.092794044
 21
2.0595561415
 31
0.0
  0
SPLINE
  5
280
100
AcDbEntity
  8
SUPERFICI
100
AcDbSpline
 62
7
  6
CONTINUOUS
 70
0
 71
3
 72
23
 73
19
 74
17
 42
0.0000001
 43
0.0000001
 44
0.0000000001
 12
0.0050023624
 22
-0.5863939961
 32
0.0
 13
0.5245058187
 23
-0.2622529093
 33
0.0
 40
0.0
 40
0.0
 40
0.0
 40
0.0
 40
0.0588746881
 40
0.1200732194
 40
0.182993635
 40
0.2470407248
 40
0.312222504
 40
0.3784863542
 40
0.4451159188
 40
0.5113866937
 40
0.57724911
 40
0.6426682154
 40
0.706973736
 40
0.7694897191
 40
0.8301887206
 40
0.8891436894
 40
0.945904789
 40
1.0
 40
1.0
 40
1.0
 40
1.0
 10
-5.2200203418
 20
5.5000533642
 30
0.0
 10
-5.2199221709
 20
5.488545443
 30
0.0
 10
-5.2187692016
 20
5.4650753437
 30
0.0
 10
-5.2143751195
 20
5.4295472279
 30
0.0
 10
-5.2073343222
 20
5.3934172969
 30
0.0
 10
-5.1977427365
 20
5.3570765438
 30
0.0
 10
-5.1856854874
 20
5.3207896531
 30
0.0
 10
-5.1712487644
 20
5.28483819
 30
0.0
 10
-5.1545883264
 20
5.2496265315
 30
0.0
 10
-5.1358997039
 20
5.2155379208
 30
0.0
 10
-5.1153354191
 20
5.1828255868
 30
0.0
 10
-5.093040761
 20
5.1517372636
 30
0.0
 10
-5.0692484067
 20
5.1226178493
 30
0.0
 10
-5.044230879
 20
5.0957902475
 30
0.0
 10
-5.0181910415
 20
5.0714583041
 30
0.0
 10
-4.9913072017
 20
5.0498069982
 30
0.0
 10
-4.9638546895
 20
5.0310849383
 30
0.0
 10
-4.944934067
 20
5.0204500009
 30
0.0
 10
-4.935476316
 20
5.0157211254
 30
0.0
 11
-5.2200203418
 21
5.5000533642
 31
0.0
 11
-5.2183755333
 21
5.4655675469
 31
0.0
 11
-5.2140119491
 21
5.4299460612
 31
0.0
 11
-5.206986737
 21
5.3937235318
 31
0.0
 11
-5.1974261237
 21
5.3574025638
 31
0.0
 11
-5.185389926
 21
5.3211234632
 31
0.0
 11
-5.1709196793
 21
5.2850600908
 31
0.0
 11
-5.1542118059
 21
5.2497399137
 31
0.0
 11
-5.1355265826
 21
5.2156645135
 31
0.0
 11
-5.1149623831
 21
5.1829715627
 31
0.0
 11
-5.0925913448
 21
5.1518068632
 31
0.0
 11
-5.0687123139
 21
5.1226209656
 31
0.0
 11
-5.0436861797
 21
5.0958315558
 31
0.0
 11
-5.0176508496
 21
5.0715590784
 31
0.0
 11
-4.9906942875
 21
5.0499125153
 31
0.0
 11
-4.963161788
 21
5.031207135
 31
0.0
 11
-4.935476316
 21
5.0157211254
 31
0.0
  0
SPLINE
  5
281
100
AcDbEntity
  8
SUPERFICI
100
AcDbSpline
 62
7
  6
CONTINUOUS
 70
0
 71
3
 72
15
 73
11
 74
9
 42
0.0000001
 43
0.0000001
 44
0.0000000001
 12
-0.1732073616
 22
0.0728301409
 32
0.0
 13
-0.1530469811
 23
-0.109166713
 33
0.0
 40
0.0
 40
0.0
 40
0.0
 40
0.0
 40
0.0528334565
 40
0.2065929842
 40
0.3525055554
 40
0.4908344317
 40
0.6236048922
 40
0.7529890011
 40
0.8801971703
 40
1.0
 40
1.0
 40
1.0
 40
1.0
 10
-4.9675138302
 20
6.9222610572
 30
0.0
 10
-4.9705642114
 20
6.9235436799
 30
0.0
 10
-4.9825767732
 20
6.9283584789
 30
0.0
 10
-5.0036181904
 20
6.9351493031
 30
0.0
 10
-5.0305831915
 20
6.9404852483
 30
0.0
 10
-5.0567084225
 20
6.9422259769
 30
0.0
 10
-5.0817985619
 20
6.9403609657
 30
0.0
 10
-5.105648843
 20
6.9348729132
 30
0.0
 10
-5.1275706578
 20
6.9259575359
 30
0.0
 10
-5.1408497575
 20
6.9179151955
 30
0.0
 10
-5.146961578
 20
6.9135557018
 30
0.0
 11
-4.9675138302
 21
6.9222610572
 31
0.0
 11
-4.976729198
 21
6.9259517202
 31
0.0
 11
-5.0042343314
 21
6.934741755
 31
0.0
 11
-5.031131331
 21
6.9399777996
 31
0.0
 11
-5.0570567192
 21
6.9416258516
 31
0.0
 11
-5.0819169139
 21
6.9397105546
 31
0.0
 11
-5.105585549
 21
6.9342165034
 31
0.0
 11
-5.1277083127
 21
6.9252008915
 31
0.0
 11
-5.146961578
 21
6.9135557018
 31
0.0
  0
SPLINE
  5
282
100
AcDbEntity
  8
SUPERFICI
100
AcDbSpline
 62
7
  6
CONTINUOUS
 70
0
 71
3
 72
17
 73
13
 74
11
 42
0.0000001
 43
0.0000001
 44
0.0000000001
 12
0.2273417316
 22
0.0856693656
 32
0.0
 13
0.0111970305
 23
0.2425098177
 33
0.0
 40
0.0
 40
0.0
 40
0.0
 40
0.0
 40
0.0652126785
 40
0.1626072031
 40
0.2615230591
 40
0.3639946412
 40
0.4708459654
 40
0.5824429105
 40
0.6998578759
 40
0.8241796903
 40
0.9551183871
 40
1.0
 40
1.0
 40
1.0
 40
1.0
 10
1.0997646914
 20
2.0619868778
 30
0.0
 10
1.1047065458
 20
2.0638491207
 30
0.0
 10
1.1167810539
 20
2.0691511918
 30
0.0
 10
1.134899362
 20
2.0802510658
 30
0.0
 10
1.1533063928
 20
2.0960669775
 30
0.0
 10
1.169578875
 20
2.1150799905
 30
0.0
 10
1.1835288365
 20
2.1370688507
 30
0.0
 10
1.1950218353
 20
2.1617627884
 30
0.0
 10
1.2039943121
 20
2.1889617412
 30
0.0
 10
1.2103764565
 20
2.2184776693
 30
0.0
 10
1.2132193383
 20
2.2426226523
 30
0.0
 10
1.2140741924
 20
2.256826499
 30
0.0
 10
1.2142417059
 20
2.2604545763
 30
0.0
 11
1.0997646914
 21
2.0619868778
 31
0.0
 11
1.1142612384
 21
2.0683591082
 31
0.0
 11
1.1344232027
 21
2.0806934404
 31
0.0
 11
1.1526590571
 21
2.0963037811
 31
0.0
 11
1.1688799771
 21
2.1151527297
 31
0.0
 11
1.1828391307
 21
2.1370053049
 31
0.0
 11
1.1943428076
 21
2.1615228732
 31
0.0
 11
1.2033473638
 21
2.188556786
 31
0.0
 11
1.2097997297
 21
2.218029001
 31
0.0
 11
1.2135849426
 21
2.2495787799
 31
0.0
 11
1.2142417059
 21
2.2604545763
 31
0.0
  0
SPLINE
  5
283
100
AcDbEntity
  8
SUPERFICI
100
AcDbSpline
 62
7
  6
CONTINUOUS
 70
0
 71
3
 72
23
 73
19
 74
17
 42
0.0000001
 43
0.0000001
 44
0.0000000001
 12
-0.0315079352
 22
0.5422869819
 32
0.0
 13
-0.4700604437
 23
0.2723853472
 33
0.0
 40
0.0
 40
0.0
 40
0.0
 40
0.0
 40
0.0214483204
 40
0.0875044768
 40
0.1554419972
 40
0.2246157097
 40
0.2950273187
 40
0.366626824
 40
0.4386400292
 40
0.5102828191
 40
0.5814928787
 40
0.6522353554
 40
0.7217819344
 40
0.7893981303
 40
0.8550476592
 40
0.9188089648
 40
0.9801943443
 40
1.0
 40
1.0
 40
1.0
 40
1.0
 10
1.2049808906
 20
3.5161387886
 30
0.0
 10
1.2047556265
 20
3.5200158369
 30
0.0
 10
1.2036353411
 20
3.5358221397
 30
0.0
 10
1.2002448048
 20
3.5637757588
 30
0.0
 10
1.193290349
 20
3.5999156171
 30
0.0
 10
1.1837828896
 20
3.6362816787
 30
0.0
 10
1.171805239
 20
3.6726079933
 30
0.0
 10
1.1574412143
 20
3.7086118238
 30
0.0
 10
1.1408434943
 20
3.7438880282
 30
0.0
 10
1.1222059346
 20
3.7780497178
 30
0.0
 10
1.1016798902
 20
3.8108406249
 30
0.0
 10
1.0794101471
 20
3.8420094997
 30
0.0
 10
1.0556286801
 20
3.8712083283
 30
0.0
 10
1.0306090982
 20
3.8981098311
 30
0.0
 10
1.0045558572
 20
3.9225068215
 30
0.0
 10
0.9776492037
 20
3.9442116859
 30
0.0
 10
0.9559567529
 20
3.9590209727
 30
0.0
 10
0.9433454985
 20
3.9665844115
 30
0.0
 10
0.9402422134
 20
3.9683826683
 30
0.0
 11
1.2049808906
 21
3.5161387886
 31
0.0
 11
1.2041590721
 21
3.5277602265
 31
0.0
 11
1.1998814592
 21
3.5633738963
 31
0.0
 11
1.1929427224
 21
3.599606739
 31
0.0
 11
1.1834658671
 21
3.6359541332
 31
0.0
 11
1.1715096202
 21
3.6722713864
 31
0.0
 11
1.1571122601
 21
3.7083872186
 31
0.0
 11
1.1404671759
 21
3.7437722063
 31
0.0
 11
1.121832187
 21
3.777921917
 31
0.0
 11
1.1013064214
 21
3.8106927991
 31
0.0
 11
1.0789599119
 21
3.8419385917
 31
0.0
 11
1.0550913127
 21
3.8712043671
 31
0.0
 11
1.0300622294
 21
3.8980682177
 31
0.0
 11
1.004013395
 21
3.9224053903
 31
0.0
 11
0.9770338127
 21
3.9441053667
 31
0.0
 11
0.9494708285
 21
3.9628508438
 31
0.0
 11
0.9402422134
 21
3.9683826683
 31
0.0
  0
LINE
  5
284
100
AcDbEntity
  8
SUPERFICI
100
AcDbLine
 62
7
  6
CONTINUOUS
 10
1.214651367
 20
2.2827175099
 11
1.2131528539
 21
2.4619752719
  0
LINE
  5
285
100
AcDbEntity
  8
SUPERFICI
100
AcDbLine
 62
7
  6
CONTINUOUS
 10
1.2131528539
 20
2.4619752719
 11
1.2127877767
 21
2.5067941263
  0
LINE
  5
286
100
AcDbEntity
  8
SUPERFICI
100
AcDbLine
 62
7
  6
CONTINUOUS
 10
1.2127877767
 20
2.5067941263
 11
1.211365671
 21
2.6860871592
  0
LINE
  5
287
100
AcDbEntity
  8
SUPERFICI
100
AcDbLine
 62
7
  6
CONTINUOUS
 10
1.211365671
 20
2.6860871592
 11
1.2100046366
 21
2.8654152913
  0
LINE
  5
288
100
AcDbEntity
  8
SUPERFICI
100
AcDbLine
 62
7
  6
CONTINUOUS
 10
1.2100046366
 20
2.8654152913
 11
1.2096739288
 21
2.910251728
  0
LINE
  5
289
100
AcDbEntity
  8
SUPERFICI
100
AcDbLine
 62
7
  6
CONTINUOUS
 10
1.2096739288
 20
2.910251728
 11
1.2083892994
 21
3.089615044
  0
LINE
  5
28A
100
AcDbEntity
  8
SUPERFICI
100
AcDbLine
 62
7
  6
CONTINUOUS
 10
1.2083892994
 20
3.089615044
 11
1.2071657447
 21
3.2690134018
  0
LINE
  5
28B
100
AcDbEntity
  8
SUPERFICI
100
AcDbLine
 62
7
  6
CONTINUOUS
 10
1.2071657447
 20
3.2690134018
 11
1.2068694065
 21
3.3138673839
  0
LINE
  5
28C
100
AcDbEntity
  8
SUPERFICI
100
AcDbLine
 62
7
  6
CONTINUOUS
 10
1.2068694065
 20
3.3138673839
 11
1.2057222546
 21
3.4933008384
  0
SPLINE
  5
28D
100
AcDbEntity
  8
RACCORDO
100
AcDbSpline
 62
7
  6
CONTINUOUS
 70
0
 71
3
 72
15
 73
11
 74
9
 42
0.0000001
 43
0.0000001
 44
0.0000000001
 12
0.1696235192
 22
0.1209906019
 32
0.0
 13
0.18616337
 23
-0.093081685
 33
0.0
 40
0.0
 40
0.0
 40
0.0
 40
0.0
 40
0.1081411329
 40
0.2229400458
 40
0.3397312535
 40
0.459601248
 40
0.584464367
 40
0.7161066524
 40
0.8547623222
 40
1.0
 40
1.0
 40
1.0
 40
1.0
 10
-5.1469615765
 20
6.9135557032
 30
0.0
 10
-5.14084715
 20
6.9179170567
 30
0.0
 10
-5.1275636858
 20
6.9259614505
 30
0.0
 10
-5.105633411
 20
6.9348781986
 30
0.0
 10
-5.0817723164
 20
6.9403655424
 30
0.0
 10
-5.0566693573
 20
6.9422266067
 30
0.0
 10
-5.0305364628
 20
6.9404790836
 30
0.0
 10
-5.0035751863
 20
6.9351375942
 30
0.0
 10
-4.976086413
 20
6.926261282
 30
0.0
 10
-4.9580465862
 20
6.9182608337
 30
0.0
 10
-4.949033941
 20
6.9137545111
 30
0.0
 11
-5.1469615765
 21
6.9135557032
 31
0.0
 11
-5.1276997394
 21
6.9252052221
 31
0.0
 11
-5.1055719809
 21
6.9342208024
 31
0.0
 11
-5.0818922859
 21
6.9397143039
 31
0.0
 11
-5.0570162603
 21
6.9416260603
 31
0.0
 11
-5.0310803714
 21
6.9399711709
 31
0.0
 11
-5.0041867954
 21
6.9347294984
 31
0.0
 11
-4.9766984618
 21
6.9259400246
 31
0.0
 11
-4.949033941
 21
6.9137545111
 31
0.0
  0
SPLINE
  5
28E
100
AcDbEntity
  8
RACCORDO
100
AcDbSpline
 62
7
  6
CONTINUOUS
 70
0
 71
3
 72
17
 73
13
 74
11
 42
0.0000001
 43
0.0000001
 44
0.0000000001
 12
0.002322982
 22
-0.2723078731
 32
0.0
 13
-0.2595482812
 23
-0.0833478641
 33
0.0
 40
0.0
 40
0.0
 40
0.0
 40
0.0
 40
0.1215910421
 40
0.2382115935
 40
0.3490473415
 40
0.4537496329
 40
0.5532322124
 40
0.6484805119
 40
0.7398428647
 40
0.8280303749
 40
0.9148420727
 40
1.0
 40
1.0
 40
1.0
 40
1.0
 10
1.214651367
 20
2.2827175098
 30
0.0
 10
1.2147455183
 20
2.2716807771
 30
0.0
 10
1.2140899394
 20
2.2500387192
 30
0.0
 10
1.2103848405
 20
2.2185296668
 30
0.0
 10
1.204007426
 20
2.1890085086
 30
0.0
 10
1.1950352799
 20
2.1617956244
 30
0.0
 10
1.1835406208
 20
2.13708986
 30
0.0
 10
1.1695879843
 20
2.1150916377
 30
0.0
 10
1.1533102488
 20
2.0960700494
 30
0.0
 10
1.1348962375
 20
2.0802482752
 30
0.0
 10
1.1146705306
 20
2.0678589312
 30
0.0
 10
1.100161576
 20
2.0619220528
 30
0.0
 10
1.0927940448
 20
2.0595561424
 30
0.0
 11
1.214651367
 21
2.2827175098
 31
0.0
 11
1.2135882626
 21
2.2496231778
 31
0.0
 11
1.2098101092
 21
2.2180908677
 31
0.0
 11
1.2033606816
 21
2.1886054322
 31
0.0
 11
1.1943547195
 21
2.1615528233
 31
0.0
 11
1.1828504582
 21
2.1370259503
 31
0.0
 11
1.1688896695
 21
2.1151658007
 31
0.0
 11
1.1526621134
 21
2.0963068352
 31
0.0
 11
1.1344183798
 21
2.0806899305
 31
0.0
 11
1.1142516264
 21
2.0683542466
 31
0.0
 11
1.0927940448
 21
2.0595561424
 31
0.0
  0
SPLINE
  5
28F
100
AcDbEntity
  8
RACCORDO
100
AcDbSpline
 62
7
  6
CONTINUOUS
 70
0
 71
3
 72
23
 73
19
 74
17
 42
0.0000001
 43
0.0000001
 44
0.0000000001
 12
0.5249182302
 22
-0.2624591151
 32
0.0
 13
0.0036517027
 23
-0.5868650616
 33
0.0
 40
0.0
 40
0.0
 40
0.0
 40
0.0
 40
0.0540534394
 40
0.1108095711
 40
0.1698178519
 40
0.2305904547
 40
0.293167576
 40
0.3575314641
 40
0.4230178089
 40
0.4889353731
 40
0.5552387648
 40
0.6218827833
 40
0.6881587177
 40
0.7533442148
 40
0.8173672924
 40
0.8802128772
 40
0.9412902139
 40
1.0
 40
1.0
 40
1.0
 40
1.0
 10
0.9217499083
 20
3.9783625864
 30
0.0
 10
0.9312077868
 20
3.9736336471
 30
0.0
 10
0.9501343745
 20
3.9629928628
 30
0.0
 10
0.977603238
 20
3.9442456934
 30
0.0
 10
1.0045129144
 20
3.9225446657
 30
0.0
 10
1.0305766066
 20
3.8981429173
 30
0.0
 10
1.055605862
 20
3.8712348675
 30
0.0
 10
1.0793962138
 20
3.8420282436
 30
0.0
 10
1.1016753325
 20
3.8108480835
 30
0.0
 10
1.1222091207
 20
3.7780447774
 30
0.0
 10
1.1408512974
 20
3.7438730013
 30
0.0
 10
1.1574524286
 20
3.7085866001
 30
0.0
 10
1.1718201271
 20
3.6725682406
 30
0.0
 10
1.183799826
 20
3.6362256395
 30
0.0
 10
1.1933051135
 20
3.5998508729
 30
0.0
 10
1.2002536186
 20
3.5637174719
 30
0.0
 10
1.2045552799
 20
3.5282209095
 30
0.0
 10
1.205650791
 20
3.5047857459
 30
0.0
 10
1.2057222546
 20
3.4933008385
 30
0.0
 11
0.9217499083
 21
3.9783625864
 31
0.0
 11
0.9494341747
 21
3.9628735451
 31
0.0
 11
0.9769794903
 21
3.9441456486
 31
0.0
 11
1.0039676762
 21
3.9224450929
 31
0.0
 11
1.0300315974
 21
3.8980989203
 31
0.0
 11
1.0550682514
 21
3.8712308295
 31
0.0
 11
1.078943856
 21
3.8419596146
 31
0.0
 11
1.1013017199
 21
3.8106998217
 31
0.0
 11
1.1218365894
 21
3.7779143938
 31
0.0
 11
1.1404750208
 21
3.74375675
 31
0.0
 11
1.1571221016
 21
3.7083645496
 31
0.0
 11
1.171523537
 21
3.6722331143
 31
0.0
 11
1.1834833575
 21
3.6358948243
 31
0.0
 11
1.1929588223
 21
3.5995355944
 31
0.0
 11
1.1998913724
 21
3.5633103913
 31
0.0
 11
1.2041623424
 21
3.5277208984
 31
0.0
 11
1.2057222546
 21
3.4933008385
 31
0.0
  0
SPLINE
  5
290
100
AcDbEntity
  8
RACCORDO
100
AcDbSpline
 62
253
  6
CONTINUOUS
 70
0
 71
3
 72
14
 73
10
 74
8
 42
0.0000001
 43
0.0000001
 44
0.0000000001
 12
0.1079759423
 22
0.059107575
 32
0.0
 13
0.1114318115
 23
-0.0519160149
 33
0.0
 40
0.0
 40
0.0
 40
0.0
 40
0.0
 40
0.0441160084
 40
0.1884254707
 40
0.3362174592
 40
0.4897860629
 40
0.6509086686
 40
0.8207758232
 40
1.0
 40
1.0
 40
1.0
 40
1.0
 10
-17.2926776926
 20
16.1861992436
 30
0.0
 10
-17.2910898701
 20
16.1870684404
 30
0.0
 10
-17.2842065196
 20
16.1905950501
 30
0.0
 10
-17.2712247322
 20
16.1954206785
 30
0.0
 10
-17.2531787922
 20
16.1987427807
 30
0.0
 10
-17.234154381
 20
16.1991103237
 30
0.0
 10
-17.2143984716
 20
16.1965404543
 30
0.0
 10
-17.1941594707
 20
16.1910856042
 30
0.0
 10
-17.180859764
 20
16.1857207882
 30
0.0
 10
-17.1742026724
 20
16.1826192532
 30
0.0
 11
-17.2926776926
 21
16.1861992436
 31
0.0
 11
-17.2878451878
 21
16.1886747388
 31
0.0
 11
-17.2712251333
 21
16.194878868
 31
0.0
 11
-17.2533660456
 21
16.1982170465
 31
0.0
 11
-17.2344924259
 21
16.198647311
 31
0.0
 11
-17.2148415291
 21
16.1961642527
 31
0.0
 11
-17.1946603808
 21
16.1907990854
 31
0.0
 11
-17.1742026724
 21
16.1826192532
 31
0.0
  0
SPLINE
  5
291
100
AcDbEntity
  8
0
100
AcDbSpline
 62
253
  6
CONTINUOUS
 70
0
 71
3
 72
16
 73
12
 74
10
 42
0.0000001
 43
0.0000001
 44
0.0000000001
 12
0.0036161431
 22
-0.2418106431
 32
0.0
 13
0.2159330074
 23
-0.1081392174
 33
0.0
 40
0.0
 40
0.0
 40
0.0
 40
0.0
 40
0.0103930778
 40
0.112579259
 40
0.2175952946
 40
0.3277075654
 40
0.4447150983
 40
0.5698908686
 40
0.7040051974
 40
0.8473880294
 40
1.0
 40
1.0
 40
1.0
 40
1.0
 10
-17.4283394283
 20
8.0304986441
 30
0.0
 10
-17.4283269007
 20
8.0296609252
 30
0.0
 10
-17.4281037902
 20
8.0205880293
 30
0.0
 10
-17.4258345346
 20
8.0031156481
 30
0.0
 10
-17.4179377556
 20
7.9786830007
 30
0.0
 10
-17.4054926988
 20
7.9548900461
 30
0.0
 10
-17.3886608214
 20
7.9319485038
 30
0.0
 10
-17.367624926
 20
7.9100461585
 30
0.0
 10
-17.342588291
 20
7.889359472
 30
0.0
 10
-17.3137835145
 20
7.8700603313
 30
0.0
 10
-17.2928708168
 20
7.8585746705
 30
0.0
 10
-17.2818861629
 20
7.8530735575
 30
0.0
 11
-17.4283394283
 21
8.0304986441
 31
0.0
 11
-17.4282776019
 21
8.027986026
 31
0.0
 11
-17.4251354569
 21
8.0035091527
 31
0.0
 11
-17.4174195
 21
7.9793502797
 31
0.0
 11
-17.4052007772
 21
7.9557318543
 31
0.0
 11
-17.3885917947
 21
7.9328713472
 31
0.0
 11
-17.3677454826
 21
7.9109792507
 31
0.0
 11
-17.3428537871
 21
7.8902571402
 31
0.0
 11
-17.3141459029
 21
7.8708958182
 31
0.0
 11
-17.2818861629
 21
7.8530735575
 31
0.0
  0
SPLINE
  5
292
100
AcDbEntity
  8
0
100
AcDbSpline
 62
253
  6
CONTINUOUS
 70
0
 71
3
 72
15
 73
11
 74
9
 42
0.0000001
 43
0.0000001
 44
0.0000000001
 12
0.0375366471
 22
-0.2295377124
 32
0.0
 13
0.2073415345
 23
-0.1048162105
 33
0.0
 40
0.0
 40
0.0
 40
0.0
 40
0.0
 40
0.029769831
 40
0.1523888438
 40
0.2779973496
 40
0.4083654372
 40
0.5449145327
 40
0.6886722944
 40
0.8402752851
 40
1.0
 40
1.0
 40
1.0
 40
1.0
 10
-16.7520103471
 20
-1.7535924507
 30
0.0
 10
-16.7516378605
 20
-1.755870217
 30
0.0
 10
-16.749498861
 20
-1.7674917088
 30
0.0
 10
-16.7434374314
 20
-1.788247371
 30
0.0
 10
-16.7308395397
 20
-1.8148501606
 30
0.0
 10
-16.7138566036
 20
-1.8401856068
 30
0.0
 10
-16.6926732657
 20
-1.8640265955
 30
0.0
 10
-16.6675016391
 20
-1.8861690093
 30
0.0
 10
-16.638584664
 20
-1.906423954
 30
0.0
 10
-16.6175267446
 20
-1.9182510635
 30
0.0
 10
-16.6064875554
 20
-1.9238316433
 30
0.0
 11
-16.7520103471
 21
-1.7535924507
 31
0.0
 11
-16.7507569617
 21
-1.7604015268
 31
0.0
 11
-16.7428077775
 21
-1.7877580015
 31
0.0
 11
-16.7303821389
 21
-1.8141630134
 31
0.0
 11
-16.7135945141
 21
-1.8393733122
 31
0.0
 11
-16.6925995555
 21
-1.8631566535
 31
0.0
 11
-16.6675906745
 21
-1.8852939386
 31
0.0
 11
-16.6387982599
 21
-1.9055812326
 31
0.0
 11
-16.6064875554
 21
-1.9238316433
 31
0.0
  0
LINE
  5
293
100
AcDbEntity
  8
0
100
AcDbLine
 62
253
  6
CONTINUOUS
 10
-16.3588961457
 20
-2.3373473846
 11
-16.3591917919
 21
-2.3371994126
  0
SPLINE
  5
294
100
AcDbEntity
  8
0
100
AcDbSpline
 62
253
  6
CONTINUOUS
 70
0
 71
3
 72
15
 73
11
 74
9
 42
0.0000001
 43
0.0000001
 44
0.0000000001
 12
-0.3642488031
 22
0.2579223609
 32
0.0
 13
-0.0570769293
 23
0.44233646
 33
0.0
 40
0.0
 40
0.0
 40
0.0
 40
0.0
 40
0.1104540836
 40
0.223556298
 40
0.3402911134
 40
0.4614654145
 40
0.5876925787
 40
0.7193943431
 40
0.856805535
 40
1.0
 40
1.0
 40
1.0
 40
1.0
 10
-16.406644711
 20
-2.3087107392
 30
0.0
 10
-16.4200556336
 20
-2.2992145466
 30
0.0
 10
-16.4459161032
 20
-2.278189295
 30
0.0
 10
-16.4809000296
 20
-2.2414663596
 30
0.0
 10
-16.5121840558
 20
-2.1995533575
 30
0.0
 10
-16.5395777905
 20
-2.1527397967
 30
0.0
 10
-16.5629192586
 20
-2.1013391947
 30
0.0
 10
-16.5820721786
 20
-2.0456870136
 30
0.0
 10
-16.5969246689
 20
-1.9861464395
 30
0.0
 10
-16.6037631888
 20
-1.944945021
 30
0.0
 10
-16.6064875556
 20
-1.9238316434
 30
0.0
 11
-16.406644711
 21
-2.3087107392
 31
0.0
 11
-16.4449073237
 21
-2.2776815759
 31
0.0
 11
-16.4797651585
 21
-2.2412188641
 31
0.0
 11
-16.5109924432
 21
-2.1995591273
 31
0.0
 11
-16.5383870011
 21
-2.1529725135
 31
0.0
 11
-16.5617714937
 21
-2.101761127
 31
0.0
 11
-16.5809948123
 21
-2.0462562607
 31
0.0
 11
-16.5959322616
 21
-1.9868186084
 31
0.0
 11
-16.6064875556
 21
-1.9238316434
 31
0.0
  0
SPLINE
  5
295
100
AcDbEntity
  8
RACCORDO
100
AcDbSpline
 62
253
  6
CONTINUOUS
 70
0
 71
3
 72
24
 73
20
 74
18
 42
0.0000001
 43
0.0000001
 44
0.0000000001
 12
-0.3225383182
 22
-0.1537130115
 32
0.0
 13
-0.3195746748
 23
0.1597832403
 33
0.0
 40
0.0
 40
0.0
 40
0.0
 40
0.0
 40
0.0524730889
 40
0.1073724184
 40
0.164442622
 40
0.2233961642
 40
0.283914619
 40
0.3456553533
 40
0.4082554946
 40
0.4713401437
 40
0.5345269365
 40
0.5974328202
 40
0.6596779188
 40
0.7208925822
 40
0.7807219467
 40
0.8388342871
 40
0.894925227
 40
0.9487248433
 40
1.0
 40
1.0
 40
1.0
 40
1.0
 10
13.8224741849
 20
0.6842808245
 30
0.0
 10
13.8168326576
 20
0.6815922257
 30
0.0
 10
13.8050906282
 20
0.6764992383
 30
0.0
 10
13.786658288
 20
0.6698476103
 30
0.0
 10
13.7671324153
 20
0.664053738
 30
0.0
 10
13.7466729519
 20
0.6591655151
 30
0.0
 10
13.7254451504
 20
0.6552223601
 30
0.0
 10
13.7036210773
 20
0.6522563824
 30
0.0
 10
13.6813776817
 20
0.6502917072
 30
0.0
 10
13.6588955998
 20
0.6493443554
 30
0.0
 10
13.6363573247
 20
0.6494220398
 30
0.0
 10
13.6139458821
 20
0.6505241207
 30
0.0
 10
13.5918431803
 20
0.6526416123
 30
0.0
 10
13.5702286758
 20
0.6557572388
 30
0.0
 10
13.5492775342
 20
0.6598456634
 30
0.0
 10
13.5291594761
 20
0.6648736178
 30
0.0
 10
13.5100368144
 20
0.6708006312
 30
0.0
 10
13.4920660635
 20
0.6775777962
 30
0.0
 10
13.4806611432
 20
0.6827577932
 30
0.0
 10
13.4751990627
 20
0.6854887634
 30
0.0
 11
13.8224741849
 21
0.6842808245
 31
0.0
 11
13.8052859028
 21
0.6767934017
 31
0.0
 11
13.7868438026
 21
0.6701117843
 31
0.0
 11
13.7673011847
 21
0.6642918728
 31
0.0
 11
13.7468178571
 21
0.6593813206
 31
0.0
 11
13.7255609293
 21
0.6554201683
 31
0.0
 11
13.7037035035
 21
0.6524406879
 31
0.0
 11
13.6814241103
 21
0.6504672308
 31
0.0
 11
13.6589044597
 21
0.6495158936
 31
0.0
 11
13.636328365
 21
0.649594437
 31
0.0
 11
13.6138798173
 21
0.650702221
 31
0.0
 11
13.5917420878
 21
0.6528302033
 31
0.0
 11
13.5700957264
 21
0.6559610219
 31
0.0
 11
13.5491175301
 21
0.6600690857
 31
0.0
 11
13.5289783186
 21
0.6651209248
 31
0.0
 11
13.5098423903
 21
0.6710753421
 31
0.0
 11
13.4918662155
 21
0.6778835864
 31
0.0
 11
13.4751990627
 21
0.6854887634
 31
0.0
  0
SPLINE
  5
296
100
AcDbEntity
  8
RACCORDO
100
AcDbSpline
 62
253
  6
CONTINUOUS
 70
0
 71
3
 72
24
 73
20
 74
18
 42
0.0000001
 43
0.0000001
 44
0.0000000001
 12
-0.2109636275
 22
0.1054845185
 32
0.0
 13
0.206907066
 23
0.11323472
 33
0.0
 40
0.0
 40
0.0
 40
0.0
 40
0.0
 40
0.073604999
 40
0.1429946744
 40
0.2081158634
 40
0.2690715761
 40
0.326139588
 40
0.3797983211
 40
0.4307418959
 40
0.4798748912
 40
0.5282642816
 40
0.5770507795
 40
0.6273350143
 40
0.6800785173
 40
0.7360420195
 40
0.7957693816
 40
0.8595969972
 40
0.9276778407
 40
1.0
 40
1.0
 40
1.0
 40
1.0
 10
-17.1681398539
 20
16.0071582217
 30
0.0
 10
-17.1733158464
 20
16.0097462843
 30
0.0
 10
-17.1831988731
 20
16.0151324274
 30
0.0
 10
-17.1968982986
 20
16.024115646
 30
0.0
 10
-17.2089401449
 20
16.0337036716
 30
0.0
 10
-17.2192249061
 20
16.0438242996
 30
0.0
 10
-17.2276664986
 20
16.0544041137
 30
0.0
 10
-17.234187938
 20
16.0653665472
 30
0.0
 10
-17.2387206478
 20
16.0766283665
 30
0.0
 10
-17.2412071932
 20
16.0880939293
 30
0.0
 10
-17.2416104937
 20
16.0996524579
 30
0.0
 10
-17.2399244482
 20
16.1111842659
 30
0.0
 10
-17.2361759176
 20
16.1225742997
 30
0.0
 10
-17.2304158813
 20
16.1337214979
 30
0.0
 10
-17.2227088228
 20
16.1445385255
 30
0.0
 10
-17.2131280398
 20
16.1549462182
 30
0.0
 10
-17.2017554483
 20
16.1648692217
 30
0.0
 10
-17.1886859822
 20
16.1742331918
 30
0.0
 10
-17.179190661
 20
16.17988946
 30
0.0
 10
-17.1742026724
 20
16.1826192532
 30
0.0
 11
-17.1681398539
 21
16.0071582217
 31
0.0
 11
-17.1833656137
 21
16.015499501
 31
0.0
 11
-17.1970282066
 21
16.0245106406
 31
0.0
 11
-17.2090134691
 21
16.0341168186
 31
0.0
 11
-17.2192232744
 21
16.044239488
 31
0.0
 11
-17.2275743629
 21
16.0547960666
 31
0.0
 11
-17.2339986961
 21
16.0657005952
 31
0.0
 11
-17.2384437631
 21
16.0768640112
 31
0.0
 11
-17.240873298
 21
16.0881952685
 31
0.0
 11
-17.2412674695
 21
16.0996018582
 31
0.0
 11
-17.239623065
 21
16.1109908184
 31
0.0
 11
-17.2359534981
 21
16.1222691887
 31
0.0
 11
-17.2302887
 21
16.1333449829
 31
0.0
 11
-17.2226749703
 21
16.1441277343
 31
0.0
 11
-17.2131743401
 21
16.1545296352
 31
0.0
 11
-17.2018642764
 21
16.1644658237
 31
0.0
 11
-17.1888373879
 21
16.173855047
 31
0.0
 11
-17.1742026724
 21
16.1826192532
 31
0.0
  0
SPLINE
  5
297
100
AcDbEntity
  8
RACCORDO
100
AcDbSpline
 62
7
  6
CONTINUOUS
 70
0
 71
3
 72
23
 73
19
 74
17
 42
0.0000001
 43
0.0000001
 44
0.0000000001
 12
-0.4697235934
 22
0.2720556507
 32
0.0
 13
-0.0327478609
 23
0.5417582291
 33
0.0
 40
0.0
 40
0.0
 40
0.0
 40
0.0
 40
0.0197112377
 40
0.0810136604
 40
0.1447474378
 40
0.2103855487
 40
0.2779702474
 40
0.3474889991
 40
0.4182279689
 40
0.4894443216
 40
0.5610860775
 40
0.6331136178
 40
0.7047627447
 40
0.7752532483
 40
0.8445006569
 40
0.9124937506
 40
0.9785939253
 40
1.0
 40
1.0
 40
1.0
 40
1.0
 10
-4.9539444061
 20
5.0256853992
 30
0.0
 10
-4.9570306839
 20
5.027472917
 30
0.0
 10
-4.9696062746
 20
5.0350092983
 30
0.0
 10
-4.9912590947
 20
5.0497714441
 30
0.0
 10
-5.0181462425
 20
5.0714188966
 30
0.0
 10
-5.0441970357
 20
5.0957558667
 30
0.0
 10
-5.0692245765
 20
5.1225902222
 30
0.0
 10
-5.0930258756
 20
5.1517173482
 30
0.0
 10
-5.1153298189
 20
5.1828166226
 30
0.0
 10
-5.1359017045
 20
5.2155408436
 30
0.0
 10
-5.1545948441
 20
5.2496389842
 30
0.0
 10
-5.171258737
 20
5.2848604326
 30
0.0
 10
-5.185699412
 20
5.3208264747
 30
0.0
 10
-5.1977592067
 20
5.3571304501
 30
0.0
 10
-5.2073491172
 20
5.3934813073
 30
0.0
 10
-5.2143842014
 20
5.4296061421
 30
0.0
 10
-5.2178358671
 20
5.457538995
 30
0.0
 10
-5.2189915068
 20
5.4733297679
 30
0.0
 10
-5.2192251745
 20
5.477195407
 30
0.0
 11
-4.9539444061
 21
5.0256853992
 31
0.0
 11
-4.9631231193
 21
5.0311832032
 31
0.0
 11
-4.9906375291
 21
5.0498704832
 31
0.0
 11
-5.0176031627
 21
5.0715177447
 31
0.0
 11
-5.0436542956
 21
5.095799675
 31
0.0
 11
-5.0686883356
 21
5.122593531
 31
0.0
 11
-5.0925744034
 21
5.151784757
 31
0.0
 11
-5.1149566707
 21
5.182963064
 31
0.0
 11
-5.1355298341
 21
5.2156700446
 31
0.0
 11
-5.1542183542
 21
5.2497527482
 31
0.0
 11
-5.17092821
 21
5.2850796223
 31
0.0
 11
-5.1854027767
 21
5.321158554
 31
0.0
 11
-5.1974430427
 21
5.3574594475
 31
0.0
 11
-5.207002852
 21
5.3937939736
 31
0.0
 11
-5.2140221759
 21
5.4300105762
 31
0.0
 11
-5.2183790334
 21
5.4656084764
 31
0.0
 11
-5.2192251745
 21
5.477195407
 31
0.0
  0
SPLINE
  5
298
100
AcDbEntity
  8
RACCORDO
100
AcDbSpline
 62
7
  6
CONTINUOUS
 70
0
 71
3
 72
15
 73
11
 74
9
 42
0.0000001
 43
0.0000001
 44
0.0000000001
 12
0.0098937155
 22
0.203503376
 32
0.0
 13
0.1649862835
 23
0.1197703097
 33
0.0
 40
0.0
 40
0.0
 40
0.0
 40
0.0
 40
0.0532447951
 40
0.2091906884
 40
0.3575194669
 40
0.4977555399
 40
0.6311027592
 40
0.7588815841
 40
0.88153854
 40
1.0
 40
1.0
 40
1.0
 40
1.0
 10
-5.2284872374
 20
6.7328805568
 30
0.0
 10
-5.2283116411
 20
6.7364923887
 30
0.0
 10
-5.2274237502
 20
6.7506734001
 30
0.0
 10
-5.2245223879
 20
6.7748038614
 30
0.0
 10
-5.2180584684
 20
6.8043336816
 30
0.0
 10
-5.2089956454
 20
6.8315673449
 30
0.0
 10
-5.1974058492
 20
6.8563036625
 30
0.0
 10
-5.1833536818
 20
6.8783396603
 30
0.0
 10
-5.1669722529
 20
6.8974038878
 30
0.0
 10
-5.1544900375
 20
6.9080969154
 30
0.0
 10
-5.1479751988
 20
6.912826304
 30
0.0
 11
-5.2284872374
 21
6.7328805568
 31
0.0
 11
-5.227807197
 21
6.7437072969
 31
0.0
 11
-5.2239469443
 21
6.7752330969
 31
0.0
 11
-5.21741175
 21
6.8047276543
 31
0.0
 11
-5.2083160336
 21
6.8318023038
 31
0.0
 11
-5.1967180843
 21
6.8563599575
 31
0.0
 11
-5.1826581632
 21
6.8782595938
 31
0.0
 11
-5.1663266201
 21
6.8971632629
 31
0.0
 11
-5.1479751988
 21
6.912826304
 31
0.0
  0
LINE
  5
299
100
AcDbEntity
  8
RACCORDO
100
AcDbLine
 62
7
  6
CONTINUOUS
 10
-5.2200203418
 20
5.5000533642
 11
-5.2215188549
 21
5.679311129
  0
LINE
  5
29A
100
AcDbEntity
  8
RACCORDO
100
AcDbLine
 62
7
  6
CONTINUOUS
 10
-5.2215188549
 20
5.679311129
 11
-5.221883932
 21
5.7241299774
  0
LINE
  5
29B
100
AcDbEntity
  8
RACCORDO
100
AcDbLine
 62
7
  6
CONTINUOUS
 10
-5.221883932
 20
5.7241299774
 11
-5.2233060377
 21
5.9034230091
  0
LINE
  5
29C
100
AcDbEntity
  8
RACCORDO
100
AcDbLine
 62
7
  6
CONTINUOUS
 10
-5.2233060377
 20
5.9034230091
 11
-5.2246670722
 21
6.0827511515
  0
LINE
  5
29D
100
AcDbEntity
  8
RACCORDO
100
AcDbLine
 62
7
  6
CONTINUOUS
 10
-5.2246670722
 20
6.0827511515
 11
-5.2249977799
 21
6.1275875769
  0
LINE
  5
29E
100
AcDbEntity
  8
RACCORDO
100
AcDbLine
 62
7
  6
CONTINUOUS
 10
-5.2249977799
 20
6.1275875769
 11
-5.2262824094
 21
6.306950903
  0
LINE
  5
29F
100
AcDbEntity
  8
RACCORDO
100
AcDbLine
 62
7
  6
CONTINUOUS
 10
-5.2262824094
 20
6.306950903
 11
-5.2275059641
 21
6.4863492599
  0
LINE
  5
2A0
100
AcDbEntity
  8
RACCORDO
100
AcDbLine
 62
7
  6
CONTINUOUS
 10
-5.2275059641
 20
6.4863492599
 11
-5.2278023022
 21
6.5312032352
  0
LINE
  5
2A1
100
AcDbEntity
  8
RACCORDO
100
AcDbLine
 62
7
  6
CONTINUOUS
 10
-5.2278023022
 20
6.5312032352
 11
-5.2289494542
 21
6.7106366929
  0
SPLINE
  5
2A2
100
AcDbEntity
  8
RACCORDO
100
AcDbSpline
 62
7
  6
CONTINUOUS
 70
0
 71
3
 72
14
 73
10
 74
8
 42
0.0000001
 43
0.0000001
 44
0.0000000001
 12
-0.1348742279
 22
-0.0433117058
 32
0.0
 13
-0.1305045418
 23
0.0549059436
 33
0.0
 40
0.0
 40
0.0
 40
0.0
 40
0.0
 40
0.0041519654
 40
0.1751397287
 40
0.3507158298
 40
0.5337212842
 40
0.7267852074
 40
0.9302596416
 40
1.0
 40
1.0
 40
1.0
 40
1.0
 10
1.0927940448
 20
2.0595561424
 30
0.0
 10
1.0926073804
 20
2.0594961995
 30
0.0
 10
1.084728485
 20
2.0569832081
 30
0.0
 10
1.0685385111
 20
2.0532650488
 30
0.0
 10
1.043536696
 20
2.0514267625
 30
0.0
 10
1.0174965578
 20
2.0531868794
 30
0.0
 10
0.9906164466
 20
2.0585306217
 30
0.0
 10
0.9696482099
 20
2.065312062
 30
0.0
 10
0.9576790001
 20
2.0701138376
 30
0.0
 10
0.9546451889
 20
2.0713902243
 30
0.0
 11
1.0927940448
 21
2.0595561424
 31
0.0
 11
1.0922337012
 21
2.0593774194
 31
0.0
 11
1.0686618299
 21
2.0539152226
 31
0.0
 11
1.0438880598
 21
2.0520252745
 31
0.0
 11
1.0180446534
 21
2.0536917842
 31
0.0
 11
0.9912320433
 21
2.0589349939
 31
0.0
 11
0.9638101412
 21
2.0677164143
 31
0.0
 11
0.9546451889
 21
2.0713902243
 31
0.0
  0
SPLINE
  5
2A3
100
AcDbEntity
  8
RACCORDO
100
AcDbSpline
 62
253
  6
CONTINUOUS
 70
0
 71
3
 72
21
 73
17
 74
15
 42
0.0000001
 43
0.0000001
 44
0.0000000001
 12
-0.0027086902
 22
0.3665006289
 32
0.0
 13
-0.3229569199
 23
0.1732884182
 33
0.0
 40
0.0
 40
0.0
 40
0.0
 40
0.0
 40
0.0675515957
 40
0.1379106427
 40
0.210618269
 40
0.2851460241
 40
0.3609149144
 40
0.4373129777
 40
0.5137119661
 40
0.5894836079
 40
0.6640158694
 40
0.7367296356
 40
0.8070962814
 40
0.8746567015
 40
0.9390424875
 40
1.0
 40
1.0
 40
1.0
 40
1.0
 10
13.994516423
 20
0.3771348288
 30
0.0
 10
13.9944554309
 20
0.3853873963
 30
0.0
 10
13.993572086
 20
0.4022366476
 30
0.0
 10
13.9901619509
 20
0.4277651292
 30
0.0
 10
13.9846803546
 20
0.4538016513
 30
0.0
 10
13.9771958243
 20
0.4800202554
 30
0.0
 10
13.9678016249
 20
0.5060956048
 30
0.0
 10
13.9566148235
 20
0.5317027232
 30
0.0
 10
13.9437748488
 20
0.5565225422
 30
0.0
 10
13.929441704
 20
0.5802457236
 30
0.0
 10
13.9137938878
 20
0.6025767463
 30
0.0
 10
13.8970258407
 20
0.6232377472
 30
0.0
 10
13.879345701
 20
0.6419717826
 30
0.0
 10
13.8609706219
 20
0.6585468395
 30
0.0
 10
13.8421294121
 20
0.6727552707
 30
0.0
 10
13.8290364017
 20
0.6807597475
 30
0.0
 10
13.8224741849
 20
0.6842808245
 30
0.0
 11
13.994516423
 21
0.3771348288
 31
0.0
 11
13.9932662712
 21
0.4018616245
 31
0.0
 11
13.9898885334
 21
0.4274267912
 31
0.0
 11
13.9844256702
 21
0.4535089566
 31
0.0
 11
13.9769463539
 21
0.4797802489
 31
0.0
 11
13.9675446049
 21
0.5059104194
 31
0.0
 11
13.95633861
 21
0.5315709932
 31
0.0
 11
13.9434692367
 21
0.5564393985
 31
0.0
 11
13.9290982623
 21
0.5802030219
 31
0.0
 11
13.9134063401
 21
0.6025631379
 31
0.0
 11
13.8965907289
 21
0.6232386641
 31
0.0
 11
13.878862813
 21
0.6419696946
 31
0.0
 11
13.8604454447
 21
0.6585207674
 31
0.0
 11
13.8415701434
 21
0.6726838238
 31
0.0
 11
13.8224741849
 21
0.6842808245
 31
0.0
  0
SPLINE
  5
2A4
100
AcDbEntity
  8
RACCORDO
100
AcDbSpline
 62
253
  6
CONTINUOUS
 70
0
 71
3
 72
21
 73
17
 74
15
 42
0.0000001
 43
0.0000001
 44
0.0000000001
 12
-0.0002381811
 22
0.3665649359
 32
0.0
 13
0.3264581342
 23
0.1667183122
 33
0.0
 40
0.0
 40
0.0
 40
0.0
 40
0.0
 40
0.0673451676
 40
0.1373665829
 40
0.2096497344
 40
0.2837102531
 40
0.3590123512
 40
0.4349859312
 40
0.5110428482
 40
0.5865927408
 40
0.6610588114
 40
0.7338939267
 40
0.8045974427
 40
0.8727332169
 40
0.9379493261
 40
1.0
 40
1.0
 40
1.0
 40
1.0
 10
13.2999650713
 20
0.3812014216
 30
0.0
 10
13.2999597245
 20
0.389430214
 30
0.0
 10
13.300729159
 20
0.4062226221
 30
0.0
 10
13.3040343911
 20
0.4316512741
 30
0.0
 10
13.3094732372
 20
0.4575492216
 30
0.0
 10
13.3169781528
 20
0.4835952944
 30
0.0
 10
13.3264563812
 20
0.5094696274
 30
0.0
 10
13.3377909012
 20
0.53485299
 30
0.0
 10
13.3508418154
 20
0.5594322712
 30
0.0
 10
13.3654481128
 20
0.5829041508
 30
0.0
 10
13.3814297219
 20
0.6049790621
 30
0.0
 10
13.3985900353
 20
0.6253848942
 30
0.0
 10
13.4167181284
 20
0.6438701412
 30
0.0
 10
13.4355933556
 20
0.6602077287
 30
0.0
 10
13.4549826804
 20
0.6741945585
 30
0.0
 10
13.468446747
 20
0.6820404355
 30
0.0
 10
13.4751990627
 20
0.6854887634
 30
0.0
 11
13.2999650713
 21
0.3812014216
 31
0.0
 11
13.3010497545
 21
0.4058639627
 31
0.0
 11
13.3043216342
 21
0.4313219728
 31
0.0
 11
13.3097399786
 21
0.4572585242
 31
0.0
 11
13.3172373345
 21
0.4833507316
 31
0.0
 11
13.326720367
 21
0.5092737721
 31
0.0
 11
13.3380710215
 21
0.5347049287
 31
0.0
 11
13.3511479932
 21
0.5593276078
 31
0.0
 11
13.3657884863
 21
0.5828352806
 31
0.0
 11
13.3818102407
 21
0.6049352993
 31
0.0
 11
13.399013801
 21
0.6253525396
 31
0.0
 11
13.4171849992
 21
0.6438328266
 31
0.0
 11
13.4360976214
 21
0.6601460984
 31
0.0
 11
13.4555162236
 21
0.6740892704
 31
0.0
 11
13.4751990627
 21
0.6854887634
 31
0.0
  0
SPLINE
  5
2A5
100
AcDbEntity
  8
RACCORDO
100
AcDbSpline
 62
253
  6
CONTINUOUS
 70
0
 71
3
 72
21
 73
17
 74
15
 42
0.0000001
 43
0.0000001
 44
0.0000000001
 12
-0.0002381814
 22
0.366564936
 32
0.0
 13
0.3264581343
 23
0.1667183119
 33
0.0
 40
0.0
 40
0.0
 40
0.0
 40
0.0
 40
0.0673451718
 40
0.1373665919
 40
0.2096497479
 40
0.2837102706
 40
0.3590123719
 40
0.4349859543
 40
0.5110428723
 40
0.5865927648
 40
0.661058834
 40
0.7338939467
 40
0.804597459
 40
0.8727332284
 40
0.9379493321
 40
1.0
 40
1.0
 40
1.0
 40
1.0
 10
-17.3433738453
 20
15.7028708799
 30
0.0
 10
-17.3433791921
 20
15.7110996728
 30
0.0
 10
-17.3426097575
 20
15.7278920821
 30
0.0
 10
-17.339304525
 20
15.7533207357
 30
0.0
 10
-17.3338656783
 20
15.7792186847
 30
0.0
 10
-17.326360762
 20
15.8052647587
 30
0.0
 10
-17.3168825326
 20
15.8311390927
 30
0.0
 10
-17.3055480119
 20
15.8565224558
 30
0.0
 10
-17.292497097
 20
15.8811017371
 30
0.0
 10
-17.277890799
 20
15.9045736163
 30
0.0
 10
-17.2619091898
 20
15.9266485269
 30
0.0
 10
-17.2447488766
 20
15.9470543579
 30
0.0
 10
-17.226620784
 20
15.9655396035
 30
0.0
 10
-17.2077455578
 20
15.9818771896
 30
0.0
 10
-17.1883562344
 20
15.995864018
 30
0.0
 10
-17.174892169
 20
16.0037098942
 30
0.0
 10
-17.1681398539
 20
16.0071582217
 30
0.0
 11
-17.3433738453
 21
15.7028708799
 31
0.0
 11
-17.342289162
 21
15.7275334225
 31
0.0
 11
-17.3390172819
 21
15.7529914344
 31
0.0
 11
-17.3335989369
 21
15.7789279874
 31
0.0
 11
-17.3261015802
 21
15.8050201961
 31
0.0
 11
-17.3166185468
 21
15.8309432375
 31
0.0
 11
-17.3052678915
 21
15.8563743946
 31
0.0
 11
-17.2921909191
 21
15.8809970738
 31
0.0
 11
-17.2775504254
 21
15.9045047463
 31
0.0
 11
-17.2615286708
 21
15.9266047642
 31
0.0
 11
-17.2443251108
 21
15.9470220034
 31
0.0
 11
-17.2261539131
 21
15.965502289
 31
0.0
 11
-17.2072412919
 21
15.9818155594
 31
0.0
 11
-17.1878226912
 21
15.9957587299
 31
0.0
 11
-17.1681398539
 21
16.0071582217
 31
0.0
  0
SPLINE
  5
2A6
100
AcDbEntity
  8
RACCORDO
100
AcDbSpline
 62
253
  6
CONTINUOUS
 70
0
 71
3
 72
24
 73
20
 74
18
 42
0.0000001
 43
0.0000001
 44
0.0000000001
 12
-0.6460894983
 22
-0.3048812545
 32
0.0
 13
-0.6389944042
 23
0.3194845389
 33
0.0
 40
0.0
 40
0.0
 40
0.0
 40
0.0
 40
0.0524100356
 40
0.1072497924
 40
0.1642744396
 40
0.2231948714
 40
0.2836919856
 40
0.345422123
 40
0.4080213494
 40
0.471113599
 40
0.5343152536
 40
0.5972420897
 40
0.6595128813
 40
0.7207563994
 40
0.7806160868
 40
0.8387583409
 40
0.8948769789
 40
0.9486992022
 40
1.0
 40
1.0
 40
1.0
 40
1.0
 10
13.9945184515
 20
0.377135786
 30
0.0
 10
13.9832312603
 20
0.3718095069
 30
0.0
 10
13.9597413378
 20
0.3617268852
 30
0.0
 10
13.9228748784
 20
0.3485760286
 30
0.0
 10
13.8838237358
 20
0.3371384553
 30
0.0
 10
13.8429054718
 20
0.3275077328
 30
0.0
 10
13.8004507118
 20
0.3197616359
 30
0.0
 10
13.7568035549
 20
0.3139632103
 30
0.0
 10
13.712317901
 20
0.3101596307
 30
0.0
 10
13.6673550132
 20
0.3083819083
 30
0.0
 10
13.6222798237
 20
0.3086445111
 30
0.0
 10
13.5774583016
 20
0.3109452888
 30
0.0
 10
13.533254186
 20
0.3152654943
 30
0.0
 10
13.4900263602
 20
0.321569901
 30
0.0
 10
13.4481251639
 20
0.3298072331
 30
0.0
 10
13.4078900227
 20
0.339910507
 30
0.0
 10
13.3696456841
 20
0.3517982566
 30
0.0
 10
13.3337030307
 20
0.3653733944
 30
0.0
 10
13.3108901486
 20
0.3757390992
 30
0.0
 10
13.2999631743
 20
0.3812023698
 30
0.0
 11
13.9945184515
 21
0.377135786
 31
0.0
 11
13.9601352148
 21
0.3623127484
 31
0.0
 11
13.9232513017
 21
0.3491026799
 31
0.0
 11
13.8841660559
 21
0.3376128466
 31
0.0
 11
13.8431996597
 21
0.3279374629
 31
0.0
 11
13.8006861924
 21
0.3201553858
 31
0.0
 11
13.7569718912
 21
0.3143300095
 31
0.0
 11
13.7124138031
 21
0.3105089333
 31
0.0
 11
13.6673753386
 21
0.3087233117
 31
0.0
 11
13.6222241049
 21
0.3089876988
 31
0.0
 11
13.5773279336
 21
0.3112999375
 31
0.0
 11
13.53305327
 21
0.3156411691
 31
0.0
 11
13.4897612028
 21
0.3219759913
 31
0.0
 11
13.4478053124
 21
0.330252639
 31
0.0
 11
13.4075272659
 21
0.3404036935
 31
0.0
 11
13.3692555345
 21
0.3523464059
 31
0.0
 11
13.3333035709
 21
0.3659828829
 31
0.0
 11
13.2999631743
 21
0.3812023698
 31
0.0
  0
SPLINE
  5
2A7
100
AcDbEntity
  8
0
100
AcDbSpline
 62
253
  6
CONTINUOUS
 70
0
 71
3
 72
23
 73
19
 74
17
 42
0.0000001
 43
0.0000001
 44
0.0000000001
 12
-0.6423463248
 22
-0.3139621741
 32
0.0
 13
-0.6396924869
 23
0.3193345735
 33
0.0
 40
0.0
 40
0.0
 40
0.0
 40
0.0
 40
0.0560459375
 40
0.1147633706
 40
0.1758533728
 40
0.2389680004
 40
0.3037206074
 40
0.3696950256
 40
0.4364539816
 40
0.5035470265
 40
0.5705181849
 40
0.6369134918
 40
0.7022885703
 40
0.7662164078
 40
0.8282955157
 40
0.8881587155
 40
0.9454828706
 40
1.0
 40
1.0
 40
1.0
 40
1.0
 10
14.0603866758
 20
-7.4686848875
 30
0.0
 10
14.0483863751
 20
-7.4745503222
 30
0.0
 10
14.023352415
 20
-7.4856336639
 30
0.0
 10
13.9839596018
 20
-7.5000164682
 30
0.0
 10
13.9421463478
 20
-7.5124417277
 30
0.0
 10
13.8982963576
 20
-7.5227949488
 30
0.0
 10
13.8528090052
 20
-7.5309818618
 30
0.0
 10
13.806100318
 20
-7.5369273097
 30
0.0
 10
13.7585976356
 20
-7.5405767385
 30
0.0
 10
13.7107359124
 20
-7.5418966157
 30
0.0
 10
13.66295348
 20
-7.5408748348
 30
0.0
 10
13.6156879053
 20
-7.5375208195
 30
0.0
 10
13.5693718574
 20
-7.5318654312
 30
0.0
 10
13.5244288711
 20
-7.5239605631
 30
0.0
 10
13.4812697174
 20
-7.5138787431
 30
0.0
 10
13.440286953
 20
-7.5017115335
 30
0.0
 10
13.4018564561
 20
-7.4875708854
 30
0.0
 10
13.3775226603
 20
-7.4766215556
 30
0.0
 10
13.3658979276
 20
-7.4708184875
 30
0.0
 11
14.0603866758
 21
-7.4686848875
 31
0.0
 11
14.0237743886
 21
-7.4849709334
 31
0.0
 11
13.9843594046
 21
-7.4994235051
 31
0.0
 11
13.9425046444
 21
-7.511909528
 31
0.0
 11
13.8985954932
 21
-7.5223140349
 31
0.0
 11
13.8530362523
 21
-7.5305412242
 31
0.0
 11
13.8062464166
 21
-7.5365153428
 31
0.0
 11
13.7586568118
 21
-7.5401813829
 31
0.0
 11
13.7107056278
 21
-7.5415055887
 31
0.0
 11
13.6628343837
 21
-7.5404757674
 31
0.0
 11
13.6154838624
 21
-7.5371014013
 31
0.0
 11
13.5690900525
 21
-7.5314135603
 31
0.0
 11
13.5240801331
 21
-7.5234646165
 31
0.0
 11
13.4808685412
 21
-7.5133277609
 31
0.0
 11
13.4398531551
 21
-7.5010963307
 31
0.0
 11
13.4014116316
 21
-7.4868829488
 31
0.0
 11
13.3658979276
 21
-7.4708184875
 31
0.0
  0
SPLINE
  5
2A8
100
AcDbEntity
  8
0
100
AcDbSpline
 62
253
  6
CONTINUOUS
 70
0
 71
3
 72
14
 73
10
 74
8
 42
0.0000001
 43
0.0000001
 44
0.0000000001
 12
0.1590485282
 22
-9.8322410214
 32
0.0
 13
1.3196249534
 23
-9.744580541
 33
0.0
 40
0.0
 40
0.0
 40
0.0
 40
0.0
 40
0.1462535095
 40
0.2913919944
 40
0.4354038616
 40
0.5782788199
 40
0.7200079478
 40
0.860583705
 40
1.0
 40
1.0
 40
1.0
 40
1.0
 10
13.3658979273
 20
-7.4708184876
 30
0.0
 10
13.3736517291
 20
-7.9501517395
 30
0.0
 10
13.3967149215
 20
-8.9050591991
 30
0.0
 10
13.454357287
 20
-10.3311407617
 30
0.0
 10
13.5348963454
 20
-11.7450258055
 30
0.0
 10
13.6383042369
 20
-13.1462171932
 30
0.0
 10
13.764545535
 20
-14.5342302043
 30
0.0
 10
13.9135758665
 20
-15.9085757378
 30
0.0
 10
14.028567208
 20
-16.8191707905
 30
0.0
 10
14.0898929486
 20
-17.2720218955
 30
0.0
 11
13.3658979273
 21
-7.4708184876
 31
0.0
 11
13.4007113352
 21
-8.9085849558
 31
0.0
 11
13.4584429088
 21
-10.3346401084
 31
0.0
 11
13.539072595
 21
-11.7484875103
 31
0.0
 11
13.6425723743
 21
-13.1496348649
 31
0.0
 11
13.7689062859
 21
-14.5375944383
 31
0.0
 11
13.9180304192
 21
-15.9118829325
 31
0.0
 11
14.0898929486
 21
-17.2720218955
 31
0.0
  0
SPLINE
  5
2A9
100
AcDbEntity
  8
0
100
AcDbSpline
 62
253
  6
CONTINUOUS
 70
0
 71
3
 72
14
 73
10
 74
8
 42
0.0000001
 43
0.0000001
 44
0.0000000001
 12
0.1581958
 22
-9.7776961891
 32
0.0
 13
1.3125293863
 23
-9.6904920044
 33
0.0
 40
0.0
 40
0.0
 40
0.0
 40
0.0
 40
0.1462525689
 40
0.2913905064
 40
0.4354020953
 40
0.5782770586
 40
0.7200064886
 40
0.860582859
 40
1.0
 40
1.0
 40
1.0
 40
1.0
 10
14.0603866758
 20
-7.4686848875
 30
0.0
 10
14.0680988565
 20
-7.9453559494
 30
0.0
 10
14.0910382283
 20
-8.8949611259
 30
0.0
 10
14.1483711173
 20
-10.3131253447
 30
0.0
 10
14.2284777881
 20
-11.7191633846
 30
0.0
 10
14.3313305221
 20
-13.1125804155
 30
0.0
 10
14.456894083
 20
-14.4928944061
 30
0.0
 10
14.6051242939
 20
-15.859618668
 30
0.0
 10
14.7194981277
 20
-16.7651644304
 30
0.0
 10
14.7804944925
 20
-17.2155046603
 30
0.0
 11
14.0603866758
 21
-7.4686848875
 31
0.0
 11
14.0950131338
 21
-8.8984659963
 31
0.0
 11
14.1524347405
 21
-10.3166043334
 31
0.0
 11
14.2326315274
 21
-11.722604871
 31
0.0
 11
14.3355756261
 21
-13.1159780444
 31
0.0
 11
14.4612312688
 21
-14.4962388249
 31
0.0
 11
14.6095547802
 21
-15.8629065944
 31
0.0
 11
14.7804944925
 21
-17.2155046603
 31
0.0
  0
SPLINE
  5
2AA
100
AcDbEntity
  8
0
100
AcDbSpline
 62
253
  6
CONTINUOUS
 70
0
 71
3
 72
23
 73
19
 74
17
 42
0.0000001
 43
0.0000001
 44
0.0000000001
 12
-0.6046875015
 22
-0.3899603372
 32
0.0
 13
-0.6449837558
 23
0.3189231783
 33
0.0
 40
0.0
 40
0.0
 40
0.0
 40
0.0
 40
0.0585677629
 40
0.1193033505
 40
0.1819239888
 40
0.2461052335
 40
0.3114902464
 40
0.377698354
 40
0.4443331115
 40
0.5109900572
 40
0.5772643152
 40
0.6427581907
 40
0.7070889007
 40
0.7698965953
 40
0.8308528525
 40
0.8896698636
 40
0.9461105666
 40
1.0
 40
1.0
 40
1.0
 40
1.0
 10
14.7804944925
 20
-17.2155046603
 30
0.0
 10
14.7686894278
 20
-17.2231176952
 30
0.0
 10
14.7440387363
 20
-17.2377058092
 30
0.0
 10
14.7050062128
 20
-17.2572757249
 30
0.0
 10
14.6635430911
 20
-17.2747885073
 30
0.0
 10
14.6200306963
 20
-17.2900830351
 30
0.0
 10
14.5748658251
 20
-17.3030203181
 30
0.0
 10
14.5284617901
 20
-17.3134819879
 30
0.0
 10
14.4812432121
 20
-17.3213723731
 30
0.0
 10
14.4336423786
 20
-17.3266192357
 30
0.0
 10
14.3860950631
 20
-17.3291745402
 30
0.0
 10
14.3390364188
 20
-17.3290148679
 30
0.0
 10
14.2928968909
 20
-17.3261416047
 30
0.0
 10
14.2480979884
 20
-17.3205807406
 30
0.0
 10
14.2050488333
 20
-17.3123827051
 30
0.0
 10
14.1641403981
 20
-17.3016206497
 30
0.0
 10
14.1257487144
 20
-17.2883926799
 30
0.0
 10
14.1014789012
 20
-17.2777507475
 30
0.0
 10
14.0898929648
 20
-17.2720218844
 30
0.0
 11
14.7804944925
 21
-17.2155046603
 31
0.0
 11
14.7442585954
 21
-17.2370179224
 31
0.0
 11
14.7052151341
 21
-17.2566486396
 31
0.0
 11
14.6637237878
 21
-17.2742159683
 31
0.0
 11
14.6201667864
 21
-17.2895580735
 31
0.0
 11
14.5749453891
 21
-17.3025336194
 31
0.0
 11
14.5284761881
 21
-17.3130230716
 31
0.0
 11
14.4811872705
 21
-17.3209297983
 31
0.0
 11
14.4335142752
 21
-17.3261809607
 31
0.0
 11
14.3858963789
 21
-17.3287281834
 31
0.0
 11
14.3387722511
 21
-17.3285480009
 31
0.0
 11
14.2925760123
 21
-17.3256420729
 31
0.0
 11
14.2477332352
 21
-17.3200371698
 31
0.0
 11
14.2046570239
 21
-17.3117849254
 31
0.0
 11
14.1637442086
 21
-17.3009613617
 31
0.0
 11
14.1253716895
 21
-17.2876661884
 31
0.0
 11
14.0898929648
 21
-17.2720218844
 31
0.0
  0
SPLINE
  5
2AB
100
AcDbEntity
  8
0
100
AcDbSpline
 62
253
  6
CONTINUOUS
 70
0
 71
3
 72
15
 73
11
 74
9
 42
0.0000001
 43
0.0000001
 44
0.0000000001
 12
0.0598269799
 22
-0.4487653098
 32
0.0
 13
0.3709772629
 23
-0.2600387225
 33
0.0
 40
0.0
 40
0.0
 40
0.0
 40
0.0
 40
0.1416127936
 40
0.2778388068
 40
0.4087944368
 40
0.5347487326
 40
0.6561453127
 40
0.773601873
 40
0.8879069491
 40
1.0
 40
1.0
 40
1.0
 40
1.0
 10
14.0898929486
 20
-17.2720218955
 30
0.0
 10
14.0927170372
 20
-17.2932055319
 30
0.0
 10
14.099811454
 20
-17.3345819317
 30
0.0
 10
14.1152019505
 20
-17.3943974517
 30
0.0
 10
14.1350481208
 20
-17.4503986691
 30
0.0
 10
14.1592330878
 20
-17.5022184227
 30
0.0
 10
14.187613975
 20
-17.5495170562
 30
0.0
 10
14.2200201507
 20
-17.5919768797
 30
0.0
 10
14.2562509279
 20
-17.6293051066
 30
0.0
 10
14.2829771545
 20
-17.6507361563
 30
0.0
 10
14.2968384789
 20
-17.6604523342
 30
0.0
 11
14.0898929486
 21
-17.2720218955
 31
0.0
 11
14.1008233954
 21
-17.3351964369
 31
0.0
 11
14.1162917229
 21
-17.3948995283
 31
0.0
 11
14.1361982746
 21
-17.4507460112
 31
0.0
 11
14.1604138783
 21
-17.5023729532
 31
0.0
 11
14.1887820793
 21
-17.5494463885
 31
0.0
 11
14.221119225
 21
-17.5916610558
 31
0.0
 11
14.2572159577
 21
-17.6287432166
 31
0.0
 11
14.2968384789
 21
-17.6604523342
 31
0.0
  0
SPLINE
  5
2AC
100
AcDbEntity
  8
0
100
AcDbSpline
 62
253
  6
CONTINUOUS
 70
0
 71
3
 72
24
 73
20
 74
18
 42
0.0000001
 43
0.0000001
 44
0.0000000001
 12
0.0639027533
 22
-0.4717728467
 32
0.0
 13
0.4413838546
 23
0.1784193758
 33
0.0
 40
0.0
 40
0.0
 40
0.0
 40
0.0
 40
0.0674522603
 40
0.1324328803
 40
0.1949921921
 40
0.2552669519
 40
0.3134744861
 40
0.3699113309
 40
0.4249505657
 40
0.4790314766
 40
0.5326426374
 40
0.5862971832
 40
0.6405065485
 40
0.6957524301
 40
0.7524643122
 40
0.8110030704
 40
0.8716529464
 40
0.9346161818
 40
1.0
 40
1.0
 40
1.0
 40
1.0
 10
14.7804944925
 20
-17.2155046603
 30
0.0
 10
14.7819312876
 20
-17.2261120419
 30
0.0
 10
14.7855420946
 20
-17.2468424438
 30
0.0
 10
14.7933712273
 20
-17.276817736
 30
0.0
 10
14.8034676382
 20
-17.3049066782
 30
0.0
 10
14.8157711639
 20
-17.3309222757
 30
0.0
 10
14.8302086146
 20
-17.354693692
 30
0.0
 10
14.8466925363
 20
-17.3760610633
 30
0.0
 10
14.8651200402
 20
-17.394877214
 30
0.0
 10
14.8853718597
 20
-17.4110095556
 30
0.0
 10
14.9073120361
 20
-17.4243430868
 30
0.0
 10
14.9307893342
 20
-17.4347838339
 30
0.0
 10
14.9556401737
 20
-17.4422613617
 30
0.0
 10
14.9816925532
 20
-17.4467296136
 30
0.0
 10
15.008769413
 20
-17.4481658564
 30
0.0
 10
15.0366907388
 20
-17.4465689148
 30
0.0
 10
15.0652751096
 20
-17.4419567147
 30
0.0
 10
15.0943336548
 20
-17.4343676454
 30
0.0
 10
15.1135357397
 20
-17.4274897428
 30
0.0
 10
15.1231555269
 20
-17.4236011628
 30
0.0
 11
14.7804944925
 21
-17.2155046603
 31
0.0
 11
14.7860521841
 21
-17.2471328185
 31
0.0
 11
14.7939189106
 21
-17.2770519321
 31
0.0
 11
14.8040429568
 21
-17.3050617317
 31
0.0
 11
14.816358666
 21
-17.3309801593
 31
0.0
 11
14.8307864537
 21
-17.3546395432
 31
0.0
 11
14.84723292
 21
-17.3758864429
 31
0.0
 11
14.8655915835
 21
-17.3945830708
 31
0.0
 11
14.8857435158
 21
-17.4106081249
 31
0.0
 11
14.9075583039
 21
-17.4238577192
 31
0.0
 11
14.9308945265
 21
-17.4342458
 31
0.0
 11
14.9556011281
 21
-17.4417049826
 31
0.0
 11
14.9815179826
 21
-17.4461867806
 31
0.0
 11
15.0084771018
 21
-17.4476620329
 31
0.0
 11
15.0363036637
 21
-17.446121109
 31
0.0
 11
15.0648176147
 21
-17.4415738739
 31
0.0
 11
15.093833587
 21
-17.4340498991
 31
0.0
 11
15.1231555269
 21
-17.4236011628
 31
0.0
  0
SPLINE
  5
2AD
100
AcDbEntity
  8
0
100
AcDbSpline
 62
253
  6
CONTINUOUS
 70
0
 71
3
 72
17
 73
13
 74
11
 42
0.0000001
 43
0.0000001
 44
0.0000000001
 12
-0.0146233495
 22
-0.3374304751
 32
0.0
 13
-0.3134643983
 23
-0.1267186416
 33
0.0
 40
0.0
 40
0.0
 40
0.0
 40
0.0
 40
0.1257612106
 40
0.2463557878
 40
0.361548946
 40
0.4712938634
 40
0.5757615065
 40
0.6753678851
 40
0.7707922496
 40
0.8629762818
 40
0.9530928601
 40
1.0
 40
1.0
 40
1.0
 40
1.0
 10
15.1231555269
 20
-17.4236011628
 30
0.0
 10
15.1225425102
 20
-17.4377463844
 30
0.0
 10
15.1202915734
 20
-17.4654251926
 30
0.0
 10
15.1136115243
 20
-17.5056275497
 30
0.0
 10
15.1037522687
 20
-17.5433199396
 30
0.0
 10
15.0907987006
 20
-17.5781423348
 30
0.0
 10
15.0748612714
 20
-17.609763168
 30
0.0
 10
15.056075733
 20
-17.6378746295
 30
0.0
 10
15.0346047823
 20
-17.6621934992
 30
0.0
 10
15.0106426751
 20
-17.6824620806
 30
0.0
 10
14.9885208179
 20
-17.6959540303
 30
0.0
 10
14.9744445747
 20
-17.7023384322
 30
0.0
 10
14.9695433352
 20
-17.7043197686
 30
0.0
 11
15.1231555269
 21
-17.4236011628
 31
0.0
 11
15.1196447917
 21
-17.4659313235
 31
0.0
 11
15.1128914065
 21
-17.5060980238
 31
0.0
 11
15.1029602589
 21
-17.5437153345
 31
0.0
 11
15.0899467692
 21
-17.5784218218
 31
0.0
 11
15.0739759734
 21
-17.6098840195
 31
0.0
 11
15.0552013218
 21
-17.6377996331
 31
0.0
 11
15.0338032047
 21
-17.6619004442
 31
0.0
 11
15.0099872189
 21
-17.681954888
 31
0.0
 11
14.9839821929
 21
-17.6977702778
 31
0.0
 11
14.9695433352
 21
-17.7043197686
 31
0.0
  0
SPLINE
  5
2AE
100
AcDbEntity
  8
0
100
AcDbSpline
 62
253
  6
CONTINUOUS
 70
0
 71
3
 72
14
 73
10
 74
8
 42
0.0000001
 43
0.0000001
 44
0.0000000001
 12
-1.2344531456
 22
9.7271211268
 32
0.0
 13
-0.1480272948
 23
9.8040220269
 33
0.0
 40
0.0
 40
0.0
 40
0.0
 40
0.0
 40
0.1390931295
 40
0.2794615902
 40
0.4210944051
 40
0.5639791418
 40
0.7081019866
 40
0.8534477621
 40
1.0
 40
1.0
 40
1.0
 40
1.0
 10
-16.6064875556
 20
-1.9238316434
 30
0.0
 10
-16.663722206
 20
-1.4728397372
 30
0.0
 10
-16.7710328193
 20
-0.5657278964
 30
0.0
 10
-16.9100477865
 20
0.8035888151
 30
0.0
 10
-17.0278044117
 20
2.1873373683
 30
0.0
 10
-17.1242613453
 20
3.585030888
 30
0.0
 10
-17.1993854762
 20
4.9961855725
 30
0.0
 10
-17.2531507905
 20
6.4203059339
 30
0.0
 10
-17.2746549191
 20
7.374139768
 30
0.0
 10
-17.2818861629
 20
7.8530735575
 30
0.0
 11
-16.6064875556
 21
-1.9238316434
 31
0.0
 11
-16.7668142285
 21
-0.5694606087
 31
0.0
 11
-16.9059287652
 21
0.7998230873
 31
0.0
 11
-17.0237828187
 21
2.1835427317
 31
0.0
 11
-17.1203354257
 21
3.5812165001
 31
0.0
 11
-17.1955530394
 21
4.9923578657
 31
0.0
 11
-17.2494095208
 21
6.4164754722
 31
0.0
 11
-17.2818861629
 21
7.8530735575
 31
0.0
  0
SPLINE
  5
2AF
100
AcDbEntity
  8
RACCORDO
100
AcDbSpline
 62
253
  6
CONTINUOUS
 70
0
 71
3
 72
16
 73
12
 74
10
 42
0.0000001
 43
0.0000001
 44
0.0000000001
 12
-0.2161676901
 22
0.108088129
 32
0.0
 13
-0.0002081162
 23
0.2420109618
 33
0.0
 40
0.0
 40
0.0
 40
0.0
 40
0.0
 40
0.1436783147
 40
0.279066529
 40
0.4060825254
 40
0.5249174698
 40
0.6361059662
 40
0.7405757101
 40
0.8396792241
 40
0.9351856859
 40
1.0
 40
1.0
 40
1.0
 40
1.0
 10
-17.3433719477
 20
15.7028699308
 30
0.0
 10
-17.3537248175
 20
15.7080465709
 30
0.0
 10
-17.3734897126
 20
15.7188142538
 30
0.0
 10
-17.4008889297
 20
15.7367607506
 30
0.0
 10
-17.4249711565
 20
15.7559015988
 30
0.0
 10
-17.4455396704
 20
15.7760937651
 30
0.0
 10
-17.4624224542
 20
15.7971909322
 30
0.0
 10
-17.475465839
 20
15.819040796
 30
0.0
 10
-17.4845326383
 20
15.8414780743
 30
0.0
 10
-17.4890043184
 20
15.8620033544
 30
0.0
 10
-17.4898153404
 20
15.8749365647
 30
0.0
 10
-17.4898198367
 20
15.8801651562
 30
0.0
 11
-17.3433719477
 21
15.7028699308
 31
0.0
 11
-17.3738288278
 21
15.7195490822
 31
0.0
 11
-17.4011531865
 21
15.7375507664
 31
0.0
 11
-17.4251231
 21
15.7567288764
 31
0.0
 11
-17.4455420859
 21
15.7769263381
 31
0.0
 11
-17.462243693
 21
15.7979784391
 31
0.0
 11
-17.4750918722
 21
15.8197137402
 31
0.0
 11
-17.483981633
 21
15.8419547207
 31
0.0
 11
-17.4888404762
 21
15.8645199893
 31
0.0
 11
-17.4898198367
 21
15.8801651562
 31
0.0
  0
SPLINE
  5
2B0
100
AcDbEntity
  8
ASSI
100
AcDbSpline
 62
7
  6
CONTINUOUS
 70
0
 71
3
 72
15
 73
11
 74
9
 42
0.0000001
 43
0.0000001
 44
0.0000000001
 12
0.1696235192
 22
0.1209906019
 32
0.0
 13
0.18616337
 23
-0.093081685
 33
0.0
 40
0.0
 40
0.0
 40
0.0
 40
0.0
 40
0.1081411329
 40
0.2229400458
 40
0.3397312535
 40
0.459601248
 40
0.584464367
 40
0.7161066524
 40
0.8547623222
 40
1.0
 40
1.0
 40
1.0
 40
1.0
 10
-5.1469615765
 20
6.9135557032
 30
0.0
 10
-5.14084715
 20
6.9179170567
 30
0.0
 10
-5.1275636858
 20
6.9259614505
 30
0.0
 10
-5.105633411
 20
6.9348781986
 30
0.0
 10
-5.0817723164
 20
6.9403655424
 30
0.0
 10
-5.0566693573
 20
6.9422266067
 30
0.0
 10
-5.0305364628
 20
6.9404790836
 30
0.0
 10
-5.0035751863
 20
6.9351375942
 30
0.0
 10
-4.976086413
 20
6.926261282
 30
0.0
 10
-4.9580465862
 20
6.9182608337
 30
0.0
 10
-4.949033941
 20
6.9137545111
 30
0.0
 11
-5.1469615765
 21
6.9135557032
 31
0.0
 11
-5.1276997394
 21
6.9252052221
 31
0.0
 11
-5.1055719809
 21
6.9342208024
 31
0.0
 11
-5.0818922859
 21
6.9397143039
 31
0.0
 11
-5.0570162603
 21
6.9416260603
 31
0.0
 11
-5.0310803714
 21
6.9399711709
 31
0.0
 11
-5.0041867954
 21
6.9347294984
 31
0.0
 11
-4.9766984618
 21
6.9259400246
 31
0.0
 11
-4.949033941
 21
6.9137545111
 31
0.0
  0
SPLINE
  5
2B1
100
AcDbEntity
  8
ASSI
100
AcDbSpline
 62
7
  6
CONTINUOUS
 70
0
 71
3
 72
17
 73
13
 74
11
 42
0.0000001
 43
0.0000001
 44
0.0000000001
 12
0.002322982
 22
-0.2723078731
 32
0.0
 13
-0.2595482812
 23
-0.0833478641
 33
0.0
 40
0.0
 40
0.0
 40
0.0
 40
0.0
 40
0.1215910421
 40
0.2382115935
 40
0.3490473415
 40
0.4537496329
 40
0.5532322124
 40
0.6484805119
 40
0.7398428647
 40
0.8280303749
 40
0.9148420727
 40
1.0
 40
1.0
 40
1.0
 40
1.0
 10
1.214651367
 20
2.2827175098
 30
0.0
 10
1.2147455183
 20
2.2716807771
 30
0.0
 10
1.2140899394
 20
2.2500387192
 30
0.0
 10
1.2103848405
 20
2.2185296668
 30
0.0
 10
1.204007426
 20
2.1890085086
 30
0.0
 10
1.1950352799
 20
2.1617956244
 30
0.0
 10
1.1835406208
 20
2.13708986
 30
0.0
 10
1.1695879843
 20
2.1150916377
 30
0.0
 10
1.1533102488
 20
2.0960700494
 30
0.0
 10
1.1348962375
 20
2.0802482752
 30
0.0
 10
1.1146705306
 20
2.0678589312
 30
0.0
 10
1.100161576
 20
2.0619220528
 30
0.0
 10
1.0927940448
 20
2.0595561424
 30
0.0
 11
1.214651367
 21
2.2827175098
 31
0.0
 11
1.2135882626
 21
2.2496231778
 31
0.0
 11
1.2098101092
 21
2.2180908677
 31
0.0
 11
1.2033606816
 21
2.1886054322
 31
0.0
 11
1.1943547195
 21
2.1615528233
 31
0.0
 11
1.1828504582
 21
2.1370259503
 31
0.0
 11
1.1688896695
 21
2.1151658007
 31
0.0
 11
1.1526621134
 21
2.0963068352
 31
0.0
 11
1.1344183798
 21
2.0806899305
 31
0.0
 11
1.1142516264
 21
2.0683542466
 31
0.0
 11
1.0927940448
 21
2.0595561424
 31
0.0
  0
SPLINE
  5
2B2
100
AcDbEntity
  8
ASSI
100
AcDbSpline
 62
7
  6
CONTINUOUS
 70
0
 71
3
 72
23
 73
19
 74
17
 42
0.0000001
 43
0.0000001
 44
0.0000000001
 12
0.5249182302
 22
-0.2624591151
 32
0.0
 13
0.0036517027
 23
-0.5868650616
 33
0.0
 40
0.0
 40
0.0
 40
0.0
 40
0.0
 40
0.0540534394
 40
0.1108095711
 40
0.1698178519
 40
0.2305904547
 40
0.293167576
 40
0.3575314641
 40
0.4230178089
 40
0.4889353731
 40
0.5552387648
 40
0.6218827833
 40
0.6881587177
 40
0.7533442148
 40
0.8173672924
 40
0.8802128772
 40
0.9412902139
 40
1.0
 40
1.0
 40
1.0
 40
1.0
 10
0.9217499083
 20
3.9783625864
 30
0.0
 10
0.9312077868
 20
3.9736336471
 30
0.0
 10
0.9501343745
 20
3.9629928628
 30
0.0
 10
0.977603238
 20
3.9442456934
 30
0.0
 10
1.0045129144
 20
3.9225446657
 30
0.0
 10
1.0305766066
 20
3.8981429173
 30
0.0
 10
1.055605862
 20
3.8712348675
 30
0.0
 10
1.0793962138
 20
3.8420282436
 30
0.0
 10
1.1016753325
 20
3.8108480835
 30
0.0
 10
1.1222091207
 20
3.7780447774
 30
0.0
 10
1.1408512974
 20
3.7438730013
 30
0.0
 10
1.1574524286
 20
3.7085866001
 30
0.0
 10
1.1718201271
 20
3.6725682406
 30
0.0
 10
1.183799826
 20
3.6362256395
 30
0.0
 10
1.1933051135
 20
3.5998508729
 30
0.0
 10
1.2002536186
 20
3.5637174719
 30
0.0
 10
1.2045552799
 20
3.5282209095
 30
0.0
 10
1.205650791
 20
3.5047857459
 30
0.0
 10
1.2057222546
 20
3.4933008385
 30
0.0
 11
0.9217499083
 21
3.9783625864
 31
0.0
 11
0.9494341747
 21
3.9628735451
 31
0.0
 11
0.9769794903
 21
3.9441456486
 31
0.0
 11
1.0039676762
 21
3.9224450929
 31
0.0
 11
1.0300315974
 21
3.8980989203
 31
0.0
 11
1.0550682514
 21
3.8712308295
 31
0.0
 11
1.078943856
 21
3.8419596146
 31
0.0
 11
1.1013017199
 21
3.8106998217
 31
0.0
 11
1.1218365894
 21
3.7779143938
 31
0.0
 11
1.1404750208
 21
3.74375675
 31
0.0
 11
1.1571221016
 21
3.7083645496
 31
0.0
 11
1.171523537
 21
3.6722331143
 31
0.0
 11
1.1834833575
 21
3.6358948243
 31
0.0
 11
1.1929588223
 21
3.5995355944
 31
0.0
 11
1.1998913724
 21
3.5633103913
 31
0.0
 11
1.2041623424
 21
3.5277208984
 31
0.0
 11
1.2057222546
 21
3.4933008385
 31
0.0
  0
SPLINE
  5
2B3
100
AcDbEntity
  8
ASSI
100
AcDbSpline
 62
253
  6
CONTINUOUS
 70
0
 71
3
 72
14
 73
10
 74
8
 42
0.0000001
 43
0.0000001
 44
0.0000000001
 12
0.1079759423
 22
0.059107575
 32
0.0
 13
0.1114318115
 23
-0.0519160149
 33
0.0
 40
0.0
 40
0.0
 40
0.0
 40
0.0
 40
0.0441160084
 40
0.1884254707
 40
0.3362174592
 40
0.4897860629
 40
0.6509086686
 40
0.8207758232
 40
1.0
 40
1.0
 40
1.0
 40
1.0
 10
-17.2926776926
 20
16.1861992436
 30
0.0
 10
-17.2910898701
 20
16.1870684404
 30
0.0
 10
-17.2842065196
 20
16.1905950501
 30
0.0
 10
-17.2712247322
 20
16.1954206785
 30
0.0
 10
-17.2531787922
 20
16.1987427807
 30
0.0
 10
-17.234154381
 20
16.1991103237
 30
0.0
 10
-17.2143984716
 20
16.1965404543
 30
0.0
 10
-17.1941594707
 20
16.1910856042
 30
0.0
 10
-17.180859764
 20
16.1857207882
 30
0.0
 10
-17.1742026724
 20
16.1826192532
 30
0.0
 11
-17.2926776926
 21
16.1861992436
 31
0.0
 11
-17.2878451878
 21
16.1886747388
 31
0.0
 11
-17.2712251333
 21
16.194878868
 31
0.0
 11
-17.2533660456
 21
16.1982170465
 31
0.0
 11
-17.2344924259
 21
16.198647311
 31
0.0
 11
-17.2148415291
 21
16.1961642527
 31
0.0
 11
-17.1946603808
 21
16.1907990854
 31
0.0
 11
-17.1742026724
 21
16.1826192532
 31
0.0
  0
SPLINE
  5
2B4
100
AcDbEntity
  8
ASSI
100
AcDbSpline
 62
253
  6
CONTINUOUS
 70
0
 71
3
 72
16
 73
12
 74
10
 42
0.0000001
 43
0.0000001
 44
0.0000000001
 12
0.0036161411
 22
-0.2418106442
 32
0.0
 13
0.2159330084
 23
-0.1081392179
 33
0.0
 40
0.0
 40
0.0
 40
0.0
 40
0.0
 40
0.0103930823
 40
0.112579263
 40
0.2175952981
 40
0.3277075684
 40
0.4447151008
 40
0.5698908706
 40
0.7040051987
 40
0.8473880301
 40
1.0
 40
1.0
 40
1.0
 40
1.0
 10
-17.4283394283
 20
8.0304986452
 30
0.0
 10
-17.4283269007
 20
8.0296609259
 30
0.0
 10
-17.4281037903
 20
8.0205880297
 30
0.0
 10
-17.4258345346
 20
8.0031156481
 30
0.0
 10
-17.4179377556
 20
7.9786830007
 30
0.0
 10
-17.4054926988
 20
7.9548900461
 30
0.0
 10
-17.3886608214
 20
7.9319485038
 30
0.0
 10
-17.367624926
 20
7.9100461585
 30
0.0
 10
-17.342588291
 20
7.889359472
 30
0.0
 10
-17.3137835145
 20
7.8700603313
 30
0.0
 10
-17.2928708168
 20
7.8585746705
 30
0.0
 10
-17.2818861629
 20
7.8530735575
 30
0.0
 11
-17.4283394283
 21
8.0304986452
 31
0.0
 11
-17.4282776019
 21
8.027986026
 31
0.0
 11
-17.4251354569
 21
8.0035091527
 31
0.0
 11
-17.4174195
 21
7.9793502797
 31
0.0
 11
-17.4052007772
 21
7.9557318543
 31
0.0
 11
-17.3885917947
 21
7.9328713472
 31
0.0
 11
-17.3677454826
 21
7.9109792507
 31
0.0
 11
-17.3428537871
 21
7.8902571402
 31
0.0
 11
-17.3141459029
 21
7.8708958182
 31
0.0
 11
-17.2818861629
 21
7.8530735575
 31
0.0
  0
SPLINE
  5
2B5
100
AcDbEntity
  8
ASSI
100
AcDbSpline
 62
253
  6
CONTINUOUS
 70
0
 71
3
 72
15
 73
11
 74
9
 42
0.0000001
 43
0.0000001
 44
0.0000000001
 12
0.030493881
 22
-0.236524202
 32
0.0
 13
0.2125933002
 23
-0.1074711064
 33
0.0
 40
0.0
 40
0.0
 40
0.0
 40
0.0
 40
0.0537377621
 40
0.1733276751
 40
0.2958332306
 40
0.4229807903
 40
0.5561566662
 40
0.6963631303
 40
0.84422102
 40
1.0
 40
1.0
 40
1.0
 40
1.0
 10
-16.7528624441
 20
-1.7477634236
 30
0.0
 10
-16.7523162198
 20
-1.752000184
 30
0.0
 10
-16.7500511335
 20
-1.7656006067
 30
0.0
 10
-16.7434374314
 20
-1.788247371
 30
0.0
 10
-16.7308395397
 20
-1.8148501606
 30
0.0
 10
-16.7138566036
 20
-1.8401856068
 30
0.0
 10
-16.6926732657
 20
-1.8640265955
 30
0.0
 10
-16.6675016391
 20
-1.8861690093
 30
0.0
 10
-16.638584664
 20
-1.906423954
 30
0.0
 10
-16.6175267446
 20
-1.9182510635
 30
0.0
 10
-16.6064875554
 20
-1.9238316433
 30
0.0
 11
-16.7528624441
 21
-1.7477634236
 31
0.0
 11
-16.7507569617
 21
-1.7604015268
 31
0.0
 11
-16.7428077775
 21
-1.7877580015
 31
0.0
 11
-16.7303821389
 21
-1.8141630134
 31
0.0
 11
-16.7135945141
 21
-1.8393733122
 31
0.0
 11
-16.6925995555
 21
-1.8631566535
 31
0.0
 11
-16.6675906745
 21
-1.8852939386
 31
0.0
 11
-16.6387982599
 21
-1.9055812326
 31
0.0
 11
-16.6064875554
 21
-1.9238316433
 31
0.0
  0
SPLINE
  5
2B6
100
AcDbEntity
  8
ASSI
100
AcDbSpline
 62
253
  6
CONTINUOUS
 70
0
 71
3
 72
16
 73
12
 74
10
 42
0.0000001
 43
0.0000001
 44
0.0000000001
 12
-0.3871466113
 22
0.2510434959
 32
0.0
 13
-0.0590054171
 23
0.4572819109
 33
0.0
 40
0.0
 40
0.0
 40
0.0
 40
0.0
 40
0.0326832322
 40
0.1395273194
 40
0.2489329878
 40
0.3618525322
 40
0.4790664654
 40
0.6011681179
 40
0.7285654429
 40
0.861485593
 40
1.0
 40
1.0
 40
1.0
 40
1.0
 10
-16.394162957
 20
-2.3171719564
 30
0.0
 10
-16.3983806912
 20
-2.3144369854
 30
0.0
 10
-16.4161471726
 20
-2.3023922296
 30
0.0
 10
-16.4459161032
 20
-2.278189295
 30
0.0
 10
-16.4809000296
 20
-2.2414663596
 30
0.0
 10
-16.5121840558
 20
-2.1995533575
 30
0.0
 10
-16.5395777905
 20
-2.1527397967
 30
0.0
 10
-16.5629192586
 20
-2.1013391947
 30
0.0
 10
-16.5820721786
 20
-2.0456870136
 30
0.0
 10
-16.5969246689
 20
-1.9861464395
 30
0.0
 10
-16.6037631888
 20
-1.944945021
 30
0.0
 10
-16.6064875556
 20
-1.9238316434
 30
0.0
 11
-16.394162957
 21
-2.3171719564
 31
0.0
 11
-16.406644711
 21
-2.3087107392
 31
0.0
 11
-16.4449073237
 21
-2.2776815759
 31
0.0
 11
-16.4797651585
 21
-2.2412188641
 31
0.0
 11
-16.5109924432
 21
-2.1995591273
 31
0.0
 11
-16.5383870011
 21
-2.1529725135
 31
0.0
 11
-16.5617714937
 21
-2.101761127
 31
0.0
 11
-16.5809948123
 21
-2.0462562607
 31
0.0
 11
-16.5959322616
 21
-1.9868186084
 31
0.0
 11
-16.6064875556
 21
-1.9238316434
 31
0.0
  0
SPLINE
  5
2B7
100
AcDbEntity
  8
ASSI
100
AcDbSpline
 62
7
  6
CONTINUOUS
 70
0
 71
3
 72
23
 73
19
 74
17
 42
0.0000001
 43
0.0000001
 44
0.0000000001
 12
-0.4697235934
 22
0.2720556507
 32
0.0
 13
-0.0327478609
 23
0.5417582291
 33
0.0
 40
0.0
 40
0.0
 40
0.0
 40
0.0
 40
0.0197112377
 40
0.0810136604
 40
0.1447474378
 40
0.2103855487
 40
0.2779702474
 40
0.3474889991
 40
0.4182279689
 40
0.4894443216
 40
0.5610860775
 40
0.6331136178
 40
0.7047627447
 40
0.7752532483
 40
0.8445006569
 40
0.9124937506
 40
0.9785939253
 40
1.0
 40
1.0
 40
1.0
 40
1.0
 10
-4.9539444061
 20
5.0256853992
 30
0.0
 10
-4.9570306839
 20
5.027472917
 30
0.0
 10
-4.9696062746
 20
5.0350092983
 30
0.0
 10
-4.9912590947
 20
5.0497714441
 30
0.0
 10
-5.0181462425
 20
5.0714188966
 30
0.0
 10
-5.0441970357
 20
5.0957558667
 30
0.0
 10
-5.0692245765
 20
5.1225902222
 30
0.0
 10
-5.0930258756
 20
5.1517173482
 30
0.0
 10
-5.1153298189
 20
5.1828166226
 30
0.0
 10
-5.1359017045
 20
5.2155408436
 30
0.0
 10
-5.1545948441
 20
5.2496389842
 30
0.0
 10
-5.171258737
 20
5.2848604326
 30
0.0
 10
-5.185699412
 20
5.3208264747
 30
0.0
 10
-5.1977592067
 20
5.3571304501
 30
0.0
 10
-5.2073491172
 20
5.3934813073
 30
0.0
 10
-5.2143842014
 20
5.4296061421
 30
0.0
 10
-5.2178358671
 20
5.457538995
 30
0.0
 10
-5.2189915068
 20
5.4733297679
 30
0.0
 10
-5.2192251745
 20
5.477195407
 30
0.0
 11
-4.9539444061
 21
5.0256853992
 31
0.0
 11
-4.9631231193
 21
5.0311832032
 31
0.0
 11
-4.9906375291
 21
5.0498704832
 31
0.0
 11
-5.0176031627
 21
5.0715177447
 31
0.0
 11
-5.0436542956
 21
5.095799675
 31
0.0
 11
-5.0686883356
 21
5.122593531
 31
0.0
 11
-5.0925744034
 21
5.151784757
 31
0.0
 11
-5.1149566707
 21
5.182963064
 31
0.0
 11
-5.1355298341
 21
5.2156700446
 31
0.0
 11
-5.1542183542
 21
5.2497527482
 31
0.0
 11
-5.17092821
 21
5.2850796223
 31
0.0
 11
-5.1854027767
 21
5.321158554
 31
0.0
 11
-5.1974430427
 21
5.3574594475
 31
0.0
 11
-5.207002852
 21
5.3937939736
 31
0.0
 11
-5.2140221759
 21
5.4300105762
 31
0.0
 11
-5.2183790334
 21
5.4656084764
 31
0.0
 11
-5.2192251745
 21
5.477195407
 31
0.0
  0
SPLINE
  5
2B8
100
AcDbEntity
  8
ASSI
100
AcDbSpline
 62
7
  6
CONTINUOUS
 70
0
 71
3
 72
16
 73
12
 74
10
 42
0.0000001
 43
0.0000001
 44
0.0000000001
 12
0.0099543161
 22
0.2047498668
 32
0.0
 13
0.1669985182
 23
0.1191182173
 33
0.0
 40
0.0
 40
0.0
 40
0.0
 40
0.0
 40
0.0529206477
 40
0.2079171624
 40
0.3553429345
 40
0.4947252683
 40
0.627260687
 40
0.7542616108
 40
0.876171847
 40
0.9939121289
 40
1.0
 40
1.0
 40
1.0
 40
1.0
 10
-5.2284872374
 20
6.7328805568
 30
0.0
 10
-5.2283116411
 20
6.7364923887
 30
0.0
 10
-5.2274237502
 20
6.7506734001
 30
0.0
 10
-5.2245223879
 20
6.7748038614
 30
0.0
 10
-5.2180584684
 20
6.8043336816
 30
0.0
 10
-5.2089956454
 20
6.8315673449
 30
0.0
 10
-5.1974058492
 20
6.8563036625
 30
0.0
 10
-5.1833536818
 20
6.8783396603
 30
0.0
 10
-5.1669722529
 20
6.8974038878
 30
0.0
 10
-5.1541729503
 20
6.9083685517
 30
0.0
 10
-5.147300465
 20
6.9133139777
 30
0.0
 10
-5.1469615765
 20
6.9135557032
 30
0.0
 11
-5.2284872374
 21
6.7328805568
 31
0.0
 11
-5.227807197
 21
6.7437072969
 31
0.0
 11
-5.2239469443
 21
6.7752330969
 31
0.0
 11
-5.21741175
 21
6.8047276543
 31
0.0
 11
-5.2083160336
 21
6.8318023038
 31
0.0
 11
-5.1967180843
 21
6.8563599575
 31
0.0
 11
-5.1826581632
 21
6.8782595938
 31
0.0
 11
-5.1663266201
 21
6.8971632629
 31
0.0
 11
-5.1479751988
 21
6.912826304
 31
0.0
 11
-5.1469615765
 21
6.9135557032
 31
0.0
  0
SPLINE
  5
2B9
100
AcDbEntity
  8
ASSI
100
AcDbSpline
 62
253
  6
CONTINUOUS
 70
0
 71
3
 72
24
 73
20
 74
18
 42
0.0000001
 43
0.0000001
 44
0.0000000001
 12
-0.3225383182
 22
-0.1537130115
 32
0.0
 13
-0.3195746748
 23
0.1597832403
 33
0.0
 40
0.0
 40
0.0
 40
0.0
 40
0.0
 40
0.0524730889
 40
0.1073724184
 40
0.164442622
 40
0.2233961642
 40
0.283914619
 40
0.3456553533
 40
0.4082554946
 40
0.4713401437
 40
0.5345269365
 40
0.5974328202
 40
0.6596779188
 40
0.7208925822
 40
0.7807219467
 40
0.8388342871
 40
0.894925227
 40
0.9487248433
 40
1.0
 40
1.0
 40
1.0
 40
1.0
 10
13.8224741849
 20
0.6842808245
 30
0.0
 10
13.8168326576
 20
0.6815922257
 30
0.0
 10
13.8050906282
 20
0.6764992383
 30
0.0
 10
13.786658288
 20
0.6698476103
 30
0.0
 10
13.7671324153
 20
0.664053738
 30
0.0
 10
13.7466729519
 20
0.6591655151
 30
0.0
 10
13.7254451504
 20
0.6552223601
 30
0.0
 10
13.7036210773
 20
0.6522563824
 30
0.0
 10
13.6813776817
 20
0.6502917072
 30
0.0
 10
13.6588955998
 20
0.6493443554
 30
0.0
 10
13.6363573247
 20
0.6494220398
 30
0.0
 10
13.6139458821
 20
0.6505241207
 30
0.0
 10
13.5918431803
 20
0.6526416123
 30
0.0
 10
13.5702286758
 20
0.6557572388
 30
0.0
 10
13.5492775342
 20
0.6598456634
 30
0.0
 10
13.5291594761
 20
0.6648736178
 30
0.0
 10
13.5100368144
 20
0.6708006312
 30
0.0
 10
13.4920660635
 20
0.6775777962
 30
0.0
 10
13.4806611432
 20
0.6827577932
 30
0.0
 10
13.4751990627
 20
0.6854887634
 30
0.0
 11
13.8224741849
 21
0.6842808245
 31
0.0
 11
13.8052859028
 21
0.6767934017
 31
0.0
 11
13.7868438026
 21
0.6701117843
 31
0.0
 11
13.7673011847
 21
0.6642918728
 31
0.0
 11
13.7468178571
 21
0.6593813206
 31
0.0
 11
13.7255609293
 21
0.6554201683
 31
0.0
 11
13.7037035035
 21
0.6524406879
 31
0.0
 11
13.6814241103
 21
0.6504672308
 31
0.0
 11
13.6589044597
 21
0.6495158936
 31
0.0
 11
13.636328365
 21
0.649594437
 31
0.0
 11
13.6138798173
 21
0.650702221
 31
0.0
 11
13.5917420878
 21
0.6528302033
 31
0.0
 11
13.5700957264
 21
0.6559610219
 31
0.0
 11
13.5491175301
 21
0.6600690857
 31
0.0
 11
13.5289783186
 21
0.6651209248
 31
0.0
 11
13.5098423903
 21
0.6710753421
 31
0.0
 11
13.4918662155
 21
0.6778835864
 31
0.0
 11
13.4751990627
 21
0.6854887634
 31
0.0
  0
SPLINE
  5
2BA
100
AcDbEntity
  8
ASSI
100
AcDbSpline
 62
253
  6
CONTINUOUS
 70
0
 71
3
 72
24
 73
20
 74
18
 42
0.0000001
 43
0.0000001
 44
0.0000000001
 12
-0.2109636275
 22
0.1054845185
 32
0.0
 13
0.206907066
 23
0.11323472
 33
0.0
 40
0.0
 40
0.0
 40
0.0
 40
0.0
 40
0.073604999
 40
0.1429946744
 40
0.2081158634
 40
0.2690715761
 40
0.326139588
 40
0.3797983211
 40
0.4307418959
 40
0.4798748912
 40
0.5282642816
 40
0.5770507795
 40
0.6273350143
 40
0.6800785173
 40
0.7360420195
 40
0.7957693816
 40
0.8595969972
 40
0.9276778407
 40
1.0
 40
1.0
 40
1.0
 40
1.0
 10
-17.1681398539
 20
16.0071582217
 30
0.0
 10
-17.1733158464
 20
16.0097462843
 30
0.0
 10
-17.1831988731
 20
16.0151324274
 30
0.0
 10
-17.1968982986
 20
16.024115646
 30
0.0
 10
-17.2089401449
 20
16.0337036716
 30
0.0
 10
-17.2192249061
 20
16.0438242996
 30
0.0
 10
-17.2276664986
 20
16.0544041137
 30
0.0
 10
-17.234187938
 20
16.0653665472
 30
0.0
 10
-17.2387206478
 20
16.0766283665
 30
0.0
 10
-17.2412071932
 20
16.0880939293
 30
0.0
 10
-17.2416104937
 20
16.0996524579
 30
0.0
 10
-17.2399244482
 20
16.1111842659
 30
0.0
 10
-17.2361759176
 20
16.1225742997
 30
0.0
 10
-17.2304158813
 20
16.1337214979
 30
0.0
 10
-17.2227088228
 20
16.1445385255
 30
0.0
 10
-17.2131280398
 20
16.1549462182
 30
0.0
 10
-17.2017554483
 20
16.1648692217
 30
0.0
 10
-17.1886859822
 20
16.1742331918
 30
0.0
 10
-17.179190661
 20
16.17988946
 30
0.0
 10
-17.1742026724
 20
16.1826192532
 30
0.0
 11
-17.1681398539
 21
16.0071582217
 31
0.0
 11
-17.1833656137
 21
16.015499501
 31
0.0
 11
-17.1970282066
 21
16.0245106406
 31
0.0
 11
-17.2090134691
 21
16.0341168186
 31
0.0
 11
-17.2192232744
 21
16.044239488
 31
0.0
 11
-17.2275743629
 21
16.0547960666
 31
0.0
 11
-17.2339986961
 21
16.0657005952
 31
0.0
 11
-17.2384437631
 21
16.0768640112
 31
0.0
 11
-17.240873298
 21
16.0881952685
 31
0.0
 11
-17.2412674695
 21
16.0996018582
 31
0.0
 11
-17.239623065
 21
16.1109908184
 31
0.0
 11
-17.2359534981
 21
16.1222691887
 31
0.0
 11
-17.2302887
 21
16.1333449829
 31
0.0
 11
-17.2226749703
 21
16.1441277343
 31
0.0
 11
-17.2131743401
 21
16.1545296352
 31
0.0
 11
-17.2018642764
 21
16.1644658237
 31
0.0
 11
-17.1888373879
 21
16.173855047
 31
0.0
 11
-17.1742026724
 21
16.1826192532
 31
0.0
  0
LINE
  5
2BB
100
AcDbEntity
  8
ASSI
100
AcDbLine
 62
7
  6
CONTINUOUS
 10
-5.2200203418
 20
5.5000533642
 11
-5.2215188549
 21
5.679311129
  0
LINE
  5
2BC
100
AcDbEntity
  8
ASSI
100
AcDbLine
 62
7
  6
CONTINUOUS
 10
-5.2215188549
 20
5.679311129
 11
-5.221883932
 21
5.7241299774
  0
LINE
  5
2BD
100
AcDbEntity
  8
ASSI
100
AcDbLine
 62
7
  6
CONTINUOUS
 10
-5.221883932
 20
5.7241299774
 11
-5.2233060377
 21
5.9034230091
  0
LINE
  5
2BE
100
AcDbEntity
  8
ASSI
100
AcDbLine
 62
7
  6
CONTINUOUS
 10
-5.2233060377
 20
5.9034230091
 11
-5.2246670722
 21
6.0827511515
  0
LINE
  5
2BF
100
AcDbEntity
  8
ASSI
100
AcDbLine
 62
7
  6
CONTINUOUS
 10
-5.2246670722
 20
6.0827511515
 11
-5.2249977799
 21
6.1275875769
  0
LINE
  5
2C0
100
AcDbEntity
  8
ASSI
100
AcDbLine
 62
7
  6
CONTINUOUS
 10
-5.2249977799
 20
6.1275875769
 11
-5.2262824094
 21
6.306950903
  0
LINE
  5
2C1
100
AcDbEntity
  8
ASSI
100
AcDbLine
 62
7
  6
CONTINUOUS
 10
-5.2262824094
 20
6.306950903
 11
-5.2275059641
 21
6.4863492599
  0
LINE
  5
2C2
100
AcDbEntity
  8
ASSI
100
AcDbLine
 62
7
  6
CONTINUOUS
 10
-5.2275059641
 20
6.4863492599
 11
-5.2278023022
 21
6.5312032352
  0
LINE
  5
2C3
100
AcDbEntity
  8
ASSI
100
AcDbLine
 62
7
  6
CONTINUOUS
 10
-5.2278023022
 20
6.5312032352
 11
-5.2289494542
 21
6.7106366929
  0
SPLINE
  5
2C4
100
AcDbEntity
  8
ASSI
100
AcDbSpline
 62
7
  6
CONTINUOUS
 70
0
 71
3
 72
14
 73
10
 74
8
 42
0.0000001
 43
0.0000001
 44
0.0000000001
 12
-0.1348742279
 22
-0.0433117058
 32
0.0
 13
-0.1305045418
 23
0.0549059436
 33
0.0
 40
0.0
 40
0.0
 40
0.0
 40
0.0
 40
0.0041519654
 40
0.1751397287
 40
0.3507158298
 40
0.5337212842
 40
0.7267852074
 40
0.9302596416
 40
1.0
 40
1.0
 40
1.0
 40
1.0
 10
1.0927940448
 20
2.0595561424
 30
0.0
 10
1.0926073804
 20
2.0594961995
 30
0.0
 10
1.084728485
 20
2.0569832081
 30
0.0
 10
1.0685385111
 20
2.0532650488
 30
0.0
 10
1.043536696
 20
2.0514267625
 30
0.0
 10
1.0174965578
 20
2.0531868794
 30
0.0
 10
0.9906164466
 20
2.0585306217
 30
0.0
 10
0.9696482099
 20
2.065312062
 30
0.0
 10
0.9576790001
 20
2.0701138376
 30
0.0
 10
0.9546451889
 20
2.0713902243
 30
0.0
 11
1.0927940448
 21
2.0595561424
 31
0.0
 11
1.0922337012
 21
2.0593774194
 31
0.0
 11
1.0686618299
 21
2.0539152226
 31
0.0
 11
1.0438880598
 21
2.0520252745
 31
0.0
 11
1.0180446534
 21
2.0536917842
 31
0.0
 11
0.9912320433
 21
2.0589349939
 31
0.0
 11
0.9638101412
 21
2.0677164143
 31
0.0
 11
0.9546451889
 21
2.0713902243
 31
0.0
  0
SPLINE
  5
2C5
100
AcDbEntity
  8
ASSI
100
AcDbSpline
 62
253
  6
CONTINUOUS
 70
0
 71
3
 72
21
 73
17
 74
15
 42
0.0000001
 43
0.0000001
 44
0.0000000001
 12
-0.0027086902
 22
0.3665006289
 32
0.0
 13
-0.3229569199
 23
0.1732884182
 33
0.0
 40
0.0
 40
0.0
 40
0.0
 40
0.0
 40
0.0675515957
 40
0.1379106427
 40
0.210618269
 40
0.2851460241
 40
0.3609149144
 40
0.4373129777
 40
0.5137119661
 40
0.5894836079
 40
0.6640158694
 40
0.7367296356
 40
0.8070962814
 40
0.8746567015
 40
0.9390424875
 40
1.0
 40
1.0
 40
1.0
 40
1.0
 10
13.994516423
 20
0.3771348288
 30
0.0
 10
13.9944554309
 20
0.3853873963
 30
0.0
 10
13.993572086
 20
0.4022366476
 30
0.0
 10
13.9901619509
 20
0.4277651292
 30
0.0
 10
13.9846803546
 20
0.4538016513
 30
0.0
 10
13.9771958243
 20
0.4800202554
 30
0.0
 10
13.9678016249
 20
0.5060956048
 30
0.0
 10
13.9566148235
 20
0.5317027232
 30
0.0
 10
13.9437748488
 20
0.5565225422
 30
0.0
 10
13.929441704
 20
0.5802457236
 30
0.0
 10
13.9137938878
 20
0.6025767463
 30
0.0
 10
13.8970258407
 20
0.6232377472
 30
0.0
 10
13.879345701
 20
0.6419717826
 30
0.0
 10
13.8609706219
 20
0.6585468395
 30
0.0
 10
13.8421294121
 20
0.6727552707
 30
0.0
 10
13.8290364017
 20
0.6807597475
 30
0.0
 10
13.8224741849
 20
0.6842808245
 30
0.0
 11
13.994516423
 21
0.3771348288
 31
0.0
 11
13.9932662712
 21
0.4018616245
 31
0.0
 11
13.9898885334
 21
0.4274267912
 31
0.0
 11
13.9844256702
 21
0.4535089566
 31
0.0
 11
13.9769463539
 21
0.4797802489
 31
0.0
 11
13.9675446049
 21
0.5059104194
 31
0.0
 11
13.95633861
 21
0.5315709932
 31
0.0
 11
13.9434692367
 21
0.5564393985
 31
0.0
 11
13.9290982623
 21
0.5802030219
 31
0.0
 11
13.9134063401
 21
0.6025631379
 31
0.0
 11
13.8965907289
 21
0.6232386641
 31
0.0
 11
13.878862813
 21
0.6419696946
 31
0.0
 11
13.8604454447
 21
0.6585207674
 31
0.0
 11
13.8415701434
 21
0.6726838238
 31
0.0
 11
13.8224741849
 21
0.6842808245
 31
0.0
  0
SPLINE
  5
2C6
100
AcDbEntity
  8
ASSI
100
AcDbSpline
 62
253
  6
CONTINUOUS
 70
0
 71
3
 72
21
 73
17
 74
15
 42
0.0000001
 43
0.0000001
 44
0.0000000001
 12
-0.0002381811
 22
0.3665649359
 32
0.0
 13
0.3264581342
 23
0.1667183122
 33
0.0
 40
0.0
 40
0.0
 40
0.0
 40
0.0
 40
0.0673451676
 40
0.1373665829
 40
0.2096497344
 40
0.2837102531
 40
0.3590123512
 40
0.4349859312
 40
0.5110428482
 40
0.5865927408
 40
0.6610588114
 40
0.7338939267
 40
0.8045974427
 40
0.8727332169
 40
0.9379493261
 40
1.0
 40
1.0
 40
1.0
 40
1.0
 10
13.2999650713
 20
0.3812014216
 30
0.0
 10
13.2999597245
 20
0.389430214
 30
0.0
 10
13.300729159
 20
0.4062226221
 30
0.0
 10
13.3040343911
 20
0.4316512741
 30
0.0
 10
13.3094732372
 20
0.4575492216
 30
0.0
 10
13.3169781528
 20
0.4835952944
 30
0.0
 10
13.3264563812
 20
0.5094696274
 30
0.0
 10
13.3377909012
 20
0.53485299
 30
0.0
 10
13.3508418154
 20
0.5594322712
 30
0.0
 10
13.3654481128
 20
0.5829041508
 30
0.0
 10
13.3814297219
 20
0.6049790621
 30
0.0
 10
13.3985900353
 20
0.6253848942
 30
0.0
 10
13.4167181284
 20
0.6438701412
 30
0.0
 10
13.4355933556
 20
0.6602077287
 30
0.0
 10
13.4549826804
 20
0.6741945585
 30
0.0
 10
13.468446747
 20
0.6820404355
 30
0.0
 10
13.4751990627
 20
0.6854887634
 30
0.0
 11
13.2999650713
 21
0.3812014216
 31
0.0
 11
13.3010497545
 21
0.4058639627
 31
0.0
 11
13.3043216342
 21
0.4313219728
 31
0.0
 11
13.3097399786
 21
0.4572585242
 31
0.0
 11
13.3172373345
 21
0.4833507316
 31
0.0
 11
13.326720367
 21
0.5092737721
 31
0.0
 11
13.3380710215
 21
0.5347049287
 31
0.0
 11
13.3511479932
 21
0.5593276078
 31
0.0
 11
13.3657884863
 21
0.5828352806
 31
0.0
 11
13.3818102407
 21
0.6049352993
 31
0.0
 11
13.399013801
 21
0.6253525396
 31
0.0
 11
13.4171849992
 21
0.6438328266
 31
0.0
 11
13.4360976214
 21
0.6601460984
 31
0.0
 11
13.4555162236
 21
0.6740892704
 31
0.0
 11
13.4751990627
 21
0.6854887634
 31
0.0
  0
SPLINE
  5
2C7
100
AcDbEntity
  8
ASSI
100
AcDbSpline
 62
253
  6
CONTINUOUS
 70
0
 71
3
 72
21
 73
17
 74
15
 42
0.0000001
 43
0.0000001
 44
0.0000000001
 12
-0.0002381814
 22
0.366564936
 32
0.0
 13
0.3264581343
 23
0.1667183119
 33
0.0
 40
0.0
 40
0.0
 40
0.0
 40
0.0
 40
0.0673451718
 40
0.1373665919
 40
0.2096497479
 40
0.2837102706
 40
0.3590123719
 40
0.4349859543
 40
0.5110428723
 40
0.5865927648
 40
0.661058834
 40
0.7338939467
 40
0.804597459
 40
0.8727332284
 40
0.9379493321
 40
1.0
 40
1.0
 40
1.0
 40
1.0
 10
-17.3433738453
 20
15.7028708799
 30
0.0
 10
-17.3433791921
 20
15.7110996728
 30
0.0
 10
-17.3426097575
 20
15.7278920821
 30
0.0
 10
-17.339304525
 20
15.7533207357
 30
0.0
 10
-17.3338656783
 20
15.7792186847
 30
0.0
 10
-17.326360762
 20
15.8052647587
 30
0.0
 10
-17.3168825326
 20
15.8311390927
 30
0.0
 10
-17.3055480119
 20
15.8565224558
 30
0.0
 10
-17.292497097
 20
15.8811017371
 30
0.0
 10
-17.277890799
 20
15.9045736163
 30
0.0
 10
-17.2619091898
 20
15.9266485269
 30
0.0
 10
-17.2447488766
 20
15.9470543579
 30
0.0
 10
-17.226620784
 20
15.9655396035
 30
0.0
 10
-17.2077455578
 20
15.9818771896
 30
0.0
 10
-17.1883562344
 20
15.995864018
 30
0.0
 10
-17.174892169
 20
16.0037098942
 30
0.0
 10
-17.1681398539
 20
16.0071582217
 30
0.0
 11
-17.3433738453
 21
15.7028708799
 31
0.0
 11
-17.342289162
 21
15.7275334225
 31
0.0
 11
-17.3390172819
 21
15.7529914344
 31
0.0
 11
-17.3335989369
 21
15.7789279874
 31
0.0
 11
-17.3261015802
 21
15.8050201961
 31
0.0
 11
-17.3166185468
 21
15.8309432375
 31
0.0
 11
-17.3052678915
 21
15.8563743946
 31
0.0
 11
-17.2921909191
 21
15.8809970738
 31
0.0
 11
-17.2775504254
 21
15.9045047463
 31
0.0
 11
-17.2615286708
 21
15.9266047642
 31
0.0
 11
-17.2443251108
 21
15.9470220034
 31
0.0
 11
-17.2261539131
 21
15.965502289
 31
0.0
 11
-17.2072412919
 21
15.9818155594
 31
0.0
 11
-17.1878226912
 21
15.9957587299
 31
0.0
 11
-17.1681398539
 21
16.0071582217
 31
0.0
  0
SPLINE
  5
2C8
100
AcDbEntity
  8
ASSI
100
AcDbSpline
 62
253
  6
CONTINUOUS
 70
0
 71
3
 72
14
 73
10
 74
8
 42
0.0000001
 43
0.0000001
 44
0.0000000001
 12
-1.2344531456
 22
9.7271211268
 32
0.0
 13
-0.1480272948
 23
9.8040220269
 33
0.0
 40
0.0
 40
0.0
 40
0.0
 40
0.0
 40
0.1390931295
 40
0.2794615902
 40
0.4210944051
 40
0.5639791418
 40
0.7081019866
 40
0.8534477621
 40
1.0
 40
1.0
 40
1.0
 40
1.0
 10
-16.6064875556
 20
-1.9238316434
 30
0.0
 10
-16.663722206
 20
-1.4728397372
 30
0.0
 10
-16.7710328193
 20
-0.5657278964
 30
0.0
 10
-16.9100477865
 20
0.8035888151
 30
0.0
 10
-17.0278044117
 20
2.1873373683
 30
0.0
 10
-17.1242613453
 20
3.585030888
 30
0.0
 10
-17.1993854762
 20
4.9961855725
 30
0.0
 10
-17.2531507905
 20
6.4203059339
 30
0.0
 10
-17.2746549191
 20
7.374139768
 30
0.0
 10
-17.2818861629
 20
7.8530735575
 30
0.0
 11
-16.6064875556
 21
-1.9238316434
 31
0.0
 11
-16.7668142285
 21
-0.5694606087
 31
0.0
 11
-16.9059287652
 21
0.7998230873
 31
0.0
 11
-17.0237828187
 21
2.1835427317
 31
0.0
 11
-17.1203354257
 21
3.5812165001
 31
0.0
 11
-17.1955530394
 21
4.9923578657
 31
0.0
 11
-17.2494095208
 21
6.4164754722
 31
0.0
 11
-17.2818861629
 21
7.8530735575
 31
0.0
  0
SPLINE
  5
2C9
100
AcDbEntity
  8
ASSI
100
AcDbSpline
 62
253
  6
CONTINUOUS
 70
0
 71
3
 72
24
 73
20
 74
18
 42
0.0000001
 43
0.0000001
 44
0.0000000001
 12
-0.6460894983
 22
-0.3048812545
 32
0.0
 13
-0.6389944042
 23
0.3194845389
 33
0.0
 40
0.0
 40
0.0
 40
0.0
 40
0.0
 40
0.0524100356
 40
0.1072497924
 40
0.1642744396
 40
0.2231948714
 40
0.2836919856
 40
0.345422123
 40
0.4080213494
 40
0.471113599
 40
0.5343152536
 40
0.5972420897
 40
0.6595128813
 40
0.7207563994
 40
0.7806160868
 40
0.8387583409
 40
0.8948769789
 40
0.9486992022
 40
1.0
 40
1.0
 40
1.0
 40
1.0
 10
13.9945184515
 20
0.377135786
 30
0.0
 10
13.9832312603
 20
0.3718095069
 30
0.0
 10
13.9597413378
 20
0.3617268852
 30
0.0
 10
13.9228748784
 20
0.3485760286
 30
0.0
 10
13.8838237358
 20
0.3371384553
 30
0.0
 10
13.8429054718
 20
0.3275077328
 30
0.0
 10
13.8004507118
 20
0.3197616359
 30
0.0
 10
13.7568035549
 20
0.3139632103
 30
0.0
 10
13.712317901
 20
0.3101596307
 30
0.0
 10
13.6673550132
 20
0.3083819083
 30
0.0
 10
13.6222798237
 20
0.3086445111
 30
0.0
 10
13.5774583016
 20
0.3109452888
 30
0.0
 10
13.533254186
 20
0.3152654943
 30
0.0
 10
13.4900263602
 20
0.321569901
 30
0.0
 10
13.4481251639
 20
0.3298072331
 30
0.0
 10
13.4078900227
 20
0.339910507
 30
0.0
 10
13.3696456841
 20
0.3517982566
 30
0.0
 10
13.3337030307
 20
0.3653733944
 30
0.0
 10
13.3108901486
 20
0.3757390992
 30
0.0
 10
13.2999631743
 20
0.3812023698
 30
0.0
 11
13.9945184515
 21
0.377135786
 31
0.0
 11
13.9601352148
 21
0.3623127484
 31
0.0
 11
13.9232513017
 21
0.3491026799
 31
0.0
 11
13.8841660559
 21
0.3376128466
 31
0.0
 11
13.8431996597
 21
0.3279374629
 31
0.0
 11
13.8006861924
 21
0.3201553858
 31
0.0
 11
13.7569718912
 21
0.3143300095
 31
0.0
 11
13.7124138031
 21
0.3105089333
 31
0.0
 11
13.6673753386
 21
0.3087233117
 31
0.0
 11
13.6222241049
 21
0.3089876988
 31
0.0
 11
13.5773279336
 21
0.3112999375
 31
0.0
 11
13.53305327
 21
0.3156411691
 31
0.0
 11
13.4897612028
 21
0.3219759913
 31
0.0
 11
13.4478053124
 21
0.330252639
 31
0.0
 11
13.4075272659
 21
0.3404036935
 31
0.0
 11
13.3692555345
 21
0.3523464059
 31
0.0
 11
13.3333035709
 21
0.3659828829
 31
0.0
 11
13.2999631743
 21
0.3812023698
 31
0.0
  0
SPLINE
  5
2CA
100
AcDbEntity
  8
ASSI
100
AcDbSpline
 62
253
  6
CONTINUOUS
 70
0
 71
3
 72
16
 73
12
 74
10
 42
0.0000001
 43
0.0000001
 44
0.0000000001
 12
-0.2159690029
 22
0.1079887814
 32
0.0
 13
-0.0006320221
 23
0.241788186
 33
0.0
 40
0.0
 40
0.0
 40
0.0
 40
0.0
 40
0.1438104959
 40
0.2793232648
 40
0.4064561134
 40
0.5254003835
 40
0.6366911712
 40
0.7412570252
 40
0.8404517125
 40
0.9360460384
 40
1.0
 40
1.0
 40
1.0
 40
1.0
 10
-17.3433719477
 20
15.7028699308
 30
0.0
 10
-17.3537248175
 20
15.7080465709
 30
0.0
 10
-17.3734897126
 20
15.7188142538
 30
0.0
 10
-17.4008889297
 20
15.7367607506
 30
0.0
 10
-17.4249711565
 20
15.7559015988
 30
0.0
 10
-17.4455396704
 20
15.7760937651
 30
0.0
 10
-17.4624224542
 20
15.7971909322
 30
0.0
 10
-17.475465839
 20
15.819040796
 30
0.0
 10
-17.4845326383
 20
15.8414780743
 30
0.0
 10
-17.4889884753
 20
15.8619306337
 30
0.0
 10
-17.4898059768
 20
15.8747882781
 30
0.0
 10
-17.4898194503
 20
15.8799427156
 30
0.0
 11
-17.3433719477
 21
15.7028699308
 31
0.0
 11
-17.3738288278
 21
15.7195490822
 31
0.0
 11
-17.4011531865
 21
15.7375507664
 31
0.0
 11
-17.4251231
 21
15.7567288764
 31
0.0
 11
-17.4455420859
 21
15.7769263381
 31
0.0
 11
-17.462243693
 21
15.7979784391
 31
0.0
 11
-17.4750918722
 21
15.8197137402
 31
0.0
 11
-17.483981633
 21
15.8419547207
 31
0.0
 11
-17.4888404762
 21
15.8645199893
 31
0.0
 11
-17.4898194503
 21
15.8799427156
 31
0.0
  0
SPLINE
  5
2CB
100
AcDbEntity
  8
ASSI
100
AcDbSpline
 62
253
  6
CONTINUOUS
 70
0
 71
3
 72
23
 73
19
 74
17
 42
0.0000001
 43
0.0000001
 44
0.0000000001
 12
-0.6423463248
 22
-0.3139621741
 32
0.0
 13
-0.6396924869
 23
0.3193345735
 33
0.0
 40
0.0
 40
0.0
 40
0.0
 40
0.0
 40
0.0560459375
 40
0.1147633706
 40
0.1758533728
 40
0.2389680004
 40
0.3037206074
 40
0.3696950256
 40
0.4364539816
 40
0.5035470265
 40
0.5705181849
 40
0.6369134918
 40
0.7022885703
 40
0.7662164078
 40
0.8282955157
 40
0.8881587155
 40
0.9454828706
 40
1.0
 40
1.0
 40
1.0
 40
1.0
 10
14.0603866758
 20
-7.4686848875
 30
0.0
 10
14.0483863751
 20
-7.4745503222
 30
0.0
 10
14.023352415
 20
-7.4856336639
 30
0.0
 10
13.9839596018
 20
-7.5000164682
 30
0.0
 10
13.9421463478
 20
-7.5124417277
 30
0.0
 10
13.8982963576
 20
-7.5227949488
 30
0.0
 10
13.8528090052
 20
-7.5309818618
 30
0.0
 10
13.806100318
 20
-7.5369273097
 30
0.0
 10
13.7585976356
 20
-7.5405767385
 30
0.0
 10
13.7107359124
 20
-7.5418966157
 30
0.0
 10
13.66295348
 20
-7.5408748348
 30
0.0
 10
13.6156879053
 20
-7.5375208195
 30
0.0
 10
13.5693718574
 20
-7.5318654312
 30
0.0
 10
13.5244288711
 20
-7.5239605631
 30
0.0
 10
13.4812697174
 20
-7.5138787431
 30
0.0
 10
13.440286953
 20
-7.5017115335
 30
0.0
 10
13.4018564561
 20
-7.4875708854
 30
0.0
 10
13.3775226603
 20
-7.4766215556
 30
0.0
 10
13.3658979276
 20
-7.4708184875
 30
0.0
 11
14.0603866758
 21
-7.4686848875
 31
0.0
 11
14.0237743886
 21
-7.4849709334
 31
0.0
 11
13.9843594046
 21
-7.4994235051
 31
0.0
 11
13.9425046444
 21
-7.511909528
 31
0.0
 11
13.8985954932
 21
-7.5223140349
 31
0.0
 11
13.8530362523
 21
-7.5305412242
 31
0.0
 11
13.8062464166
 21
-7.5365153428
 31
0.0
 11
13.7586568118
 21
-7.5401813829
 31
0.0
 11
13.7107056278
 21
-7.5415055887
 31
0.0
 11
13.6628343837
 21
-7.5404757674
 31
0.0
 11
13.6154838624
 21
-7.5371014013
 31
0.0
 11
13.5690900525
 21
-7.5314135603
 31
0.0
 11
13.5240801331
 21
-7.5234646165
 31
0.0
 11
13.4808685412
 21
-7.5133277609
 31
0.0
 11
13.4398531551
 21
-7.5010963307
 31
0.0
 11
13.4014116316
 21
-7.4868829488
 31
0.0
 11
13.3658979276
 21
-7.4708184875
 31
0.0
  0
SPLINE
  5
2CC
100
AcDbEntity
  8
ASSI
100
AcDbSpline
 62
253
  6
CONTINUOUS
 70
0
 71
3
 72
14
 73
10
 74
8
 42
0.0000001
 43
0.0000001
 44
0.0000000001
 12
0.1590485282
 22
-9.8322410214
 32
0.0
 13
1.3196249534
 23
-9.744580541
 33
0.0
 40
0.0
 40
0.0
 40
0.0
 40
0.0
 40
0.1462535095
 40
0.2913919944
 40
0.4354038616
 40
0.5782788199
 40
0.7200079478
 40
0.860583705
 40
1.0
 40
1.0
 40
1.0
 40
1.0
 10
13.3658979273
 20
-7.4708184876
 30
0.0
 10
13.3736517291
 20
-7.9501517395
 30
0.0
 10
13.3967149215
 20
-8.9050591991
 30
0.0
 10
13.454357287
 20
-10.3311407617
 30
0.0
 10
13.5348963454
 20
-11.7450258055
 30
0.0
 10
13.6383042369
 20
-13.1462171932
 30
0.0
 10
13.764545535
 20
-14.5342302043
 30
0.0
 10
13.9135758665
 20
-15.9085757378
 30
0.0
 10
14.028567208
 20
-16.8191707905
 30
0.0
 10
14.0898929486
 20
-17.2720218955
 30
0.0
 11
13.3658979273
 21
-7.4708184876
 31
0.0
 11
13.4007113352
 21
-8.9085849558
 31
0.0
 11
13.4584429088
 21
-10.3346401084
 31
0.0
 11
13.539072595
 21
-11.7484875103
 31
0.0
 11
13.6425723743
 21
-13.1496348649
 31
0.0
 11
13.7689062859
 21
-14.5375944383
 31
0.0
 11
13.9180304192
 21
-15.9118829325
 31
0.0
 11
14.0898929486
 21
-17.2720218955
 31
0.0
  0
SPLINE
  5
2CD
100
AcDbEntity
  8
ASSI
100
AcDbSpline
 62
253
  6
CONTINUOUS
 70
0
 71
3
 72
14
 73
10
 74
8
 42
0.0000001
 43
0.0000001
 44
0.0000000001
 12
0.1581958
 22
-9.7776961891
 32
0.0
 13
1.3125293863
 23
-9.6904920044
 33
0.0
 40
0.0
 40
0.0
 40
0.0
 40
0.0
 40
0.1462525689
 40
0.2913905064
 40
0.4354020953
 40
0.5782770586
 40
0.7200064886
 40
0.860582859
 40
1.0
 40
1.0
 40
1.0
 40
1.0
 10
14.0603866758
 20
-7.4686848875
 30
0.0
 10
14.0680988565
 20
-7.9453559494
 30
0.0
 10
14.0910382283
 20
-8.8949611259
 30
0.0
 10
14.1483711173
 20
-10.3131253447
 30
0.0
 10
14.2284777881
 20
-11.7191633846
 30
0.0
 10
14.3313305221
 20
-13.1125804155
 30
0.0
 10
14.456894083
 20
-14.4928944061
 30
0.0
 10
14.6051242939
 20
-15.859618668
 30
0.0
 10
14.7194981277
 20
-16.7651644304
 30
0.0
 10
14.7804944925
 20
-17.2155046603
 30
0.0
 11
14.0603866758
 21
-7.4686848875
 31
0.0
 11
14.0950131338
 21
-8.8984659963
 31
0.0
 11
14.1524347405
 21
-10.3166043334
 31
0.0
 11
14.2326315274
 21
-11.722604871
 31
0.0
 11
14.3355756261
 21
-13.1159780444
 31
0.0
 11
14.4612312688
 21
-14.4962388249
 31
0.0
 11
14.6095547802
 21
-15.8629065944
 31
0.0
 11
14.7804944925
 21
-17.2155046603
 31
0.0
  0
SPLINE
  5
2CE
100
AcDbEntity
  8
ASSI
100
AcDbSpline
 62
253
  6
CONTINUOUS
 70
0
 71
3
 72
17
 73
13
 74
11
 42
0.0000001
 43
0.0000001
 44
0.0000000001
 12
-0.0146233495
 22
-0.3374304751
 32
0.0
 13
-0.3134643983
 23
-0.1267186416
 33
0.0
 40
0.0
 40
0.0
 40
0.0
 40
0.0
 40
0.1257612106
 40
0.2463557878
 40
0.361548946
 40
0.4712938634
 40
0.5757615065
 40
0.6753678851
 40
0.7707922496
 40
0.8629762818
 40
0.9530928601
 40
1.0
 40
1.0
 40
1.0
 40
1.0
 10
15.1231555269
 20
-17.4236011628
 30
0.0
 10
15.1225425102
 20
-17.4377463844
 30
0.0
 10
15.1202915734
 20
-17.4654251926
 30
0.0
 10
15.1136115243
 20
-17.5056275497
 30
0.0
 10
15.1037522687
 20
-17.5433199396
 30
0.0
 10
15.0907987006
 20
-17.5781423348
 30
0.0
 10
15.0748612714
 20
-17.609763168
 30
0.0
 10
15.056075733
 20
-17.6378746295
 30
0.0
 10
15.0346047823
 20
-17.6621934992
 30
0.0
 10
15.0106426751
 20
-17.6824620806
 30
0.0
 10
14.9885208179
 20
-17.6959540303
 30
0.0
 10
14.9744445747
 20
-17.7023384322
 30
0.0
 10
14.9695433352
 20
-17.7043197686
 30
0.0
 11
15.1231555269
 21
-17.4236011628
 31
0.0
 11
15.1196447917
 21
-17.4659313235
 31
0.0
 11
15.1128914065
 21
-17.5060980238
 31
0.0
 11
15.1029602589
 21
-17.5437153345
 31
0.0
 11
15.0899467692
 21
-17.5784218218
 31
0.0
 11
15.0739759734
 21
-17.6098840195
 31
0.0
 11
15.0552013218
 21
-17.6377996331
 31
0.0
 11
15.0338032047
 21
-17.6619004442
 31
0.0
 11
15.0099872189
 21
-17.681954888
 31
0.0
 11
14.9839821929
 21
-17.6977702778
 31
0.0
 11
14.9695433352
 21
-17.7043197686
 31
0.0
  0
SPLINE
  5
2CF
100
AcDbEntity
  8
ASSI
100
AcDbSpline
 62
253
  6
CONTINUOUS
 70
0
 71
3
 72
24
 73
20
 74
18
 42
0.0000001
 43
0.0000001
 44
0.0000000001
 12
0.0639027533
 22
-0.4717728467
 32
0.0
 13
0.4413838546
 23
0.1784193758
 33
0.0
 40
0.0
 40
0.0
 40
0.0
 40
0.0
 40
0.0674522603
 40
0.1324328803
 40
0.1949921921
 40
0.2552669519
 40
0.3134744861
 40
0.3699113309
 40
0.4249505657
 40
0.4790314766
 40
0.5326426374
 40
0.5862971832
 40
0.6405065485
 40
0.6957524301
 40
0.7524643122
 40
0.8110030704
 40
0.8716529464
 40
0.9346161818
 40
1.0
 40
1.0
 40
1.0
 40
1.0
 10
14.7804944925
 20
-17.2155046603
 30
0.0
 10
14.7819312876
 20
-17.2261120419
 30
0.0
 10
14.7855420946
 20
-17.2468424438
 30
0.0
 10
14.7933712273
 20
-17.276817736
 30
0.0
 10
14.8034676382
 20
-17.3049066782
 30
0.0
 10
14.8157711639
 20
-17.3309222757
 30
0.0
 10
14.8302086146
 20
-17.354693692
 30
0.0
 10
14.8466925363
 20
-17.3760610633
 30
0.0
 10
14.8651200402
 20
-17.394877214
 30
0.0
 10
14.8853718597
 20
-17.4110095556
 30
0.0
 10
14.9073120361
 20
-17.4243430868
 30
0.0
 10
14.9307893342
 20
-17.4347838339
 30
0.0
 10
14.9556401737
 20
-17.4422613617
 30
0.0
 10
14.9816925532
 20
-17.4467296136
 30
0.0
 10
15.008769413
 20
-17.4481658564
 30
0.0
 10
15.0366907388
 20
-17.4465689148
 30
0.0
 10
15.0652751096
 20
-17.4419567147
 30
0.0
 10
15.0943336548
 20
-17.4343676454
 30
0.0
 10
15.1135357397
 20
-17.4274897428
 30
0.0
 10
15.1231555269
 20
-17.4236011628
 30
0.0
 11
14.7804944925
 21
-17.2155046603
 31
0.0
 11
14.7860521841
 21
-17.2471328185
 31
0.0
 11
14.7939189106
 21
-17.2770519321
 31
0.0
 11
14.8040429568
 21
-17.3050617317
 31
0.0
 11
14.816358666
 21
-17.3309801593
 31
0.0
 11
14.8307864537
 21
-17.3546395432
 31
0.0
 11
14.84723292
 21
-17.3758864429
 31
0.0
 11
14.8655915835
 21
-17.3945830708
 31
0.0
 11
14.8857435158
 21
-17.4106081249
 31
0.0
 11
14.9075583039
 21
-17.4238577192
 31
0.0
 11
14.9308945265
 21
-17.4342458
 31
0.0
 11
14.9556011281
 21
-17.4417049826
 31
0.0
 11
14.9815179826
 21
-17.4461867806
 31
0.0
 11
15.0084771018
 21
-17.4476620329
 31
0.0
 11
15.0363036637
 21
-17.446121109
 31
0.0
 11
15.0648176147
 21
-17.4415738739
 31
0.0
 11
15.093833587
 21
-17.4340498991
 31
0.0
 11
15.1231555269
 21
-17.4236011628
 31
0.0
  0
SPLINE
  5
2D0
100
AcDbEntity
  8
ASSI
100
AcDbSpline
 62
253
  6
CONTINUOUS
 70
0
 71
3
 72
17
 73
13
 74
11
 42
0.0000001
 43
0.0000001
 44
0.0000000001
 12
0.0673496766
 22
-0.505193452
 32
0.0
 13
0.4557939012
 23
-0.2288339109
 33
0.0
 40
0.0
 40
0.0
 40
0.0
 40
0.0
 40
0.1257951957
 40
0.2468052935
 40
0.3631336894
 40
0.4750193806
 40
0.5828564352
 40
0.6871935549
 40
0.7887311989
 40
0.8883038923
 40
0.9868488866
 40
1.0
 40
1.0
 40
1.0
 40
1.0
 10
14.0898929486
 20
-17.2720218955
 30
0.0
 10
14.0927170372
 20
-17.2932055319
 30
0.0
 10
14.099811454
 20
-17.3345819317
 30
0.0
 10
14.1152019505
 20
-17.3943974517
 30
0.0
 10
14.1350481208
 20
-17.4503986691
 30
0.0
 10
14.1592330878
 20
-17.5022184227
 30
0.0
 10
14.187613975
 20
-17.5495170562
 30
0.0
 10
14.2200201507
 20
-17.5919768797
 30
0.0
 10
14.2562509279
 20
-17.6293051066
 30
0.0
 10
14.296073129
 20
-17.6612374696
 30
0.0
 10
14.326803793
 20
-17.6799741755
 30
0.0
 10
14.3437001943
 20
-17.6886408987
 30
0.0
 10
14.3456982601
 20
-17.689644039
 30
0.0
 11
14.0898929486
 21
-17.2720218955
 31
0.0
 11
14.1008233954
 21
-17.3351964369
 31
0.0
 11
14.1162917229
 21
-17.3948995283
 31
0.0
 11
14.1361982746
 21
-17.4507460112
 31
0.0
 11
14.1604138783
 21
-17.5023729532
 31
0.0
 11
14.1887820793
 21
-17.5494463885
 31
0.0
 11
14.221119225
 21
-17.5916610558
 31
0.0
 11
14.2572159577
 21
-17.6287432166
 31
0.0
 11
14.2968384789
 21
-17.6604523342
 31
0.0
 11
14.3397304273
 21
-17.6865828776
 31
0.0
 11
14.3456982601
 21
-17.689644039
 31
0.0
  0
SPLINE
  5
2D1
100
AcDbEntity
  8
ASSI
100
AcDbSpline
 62
253
  6
CONTINUOUS
 70
0
 71
3
 72
23
 73
19
 74
17
 42
0.0000001
 43
0.0000001
 44
0.0000000001
 12
-0.6046875015
 22
-0.3899603372
 32
0.0
 13
-0.6449837558
 23
0.3189231783
 33
0.0
 40
0.0
 40
0.0
 40
0.0
 40
0.0
 40
0.0585677629
 40
0.1193033505
 40
0.1819239888
 40
0.2461052335
 40
0.3114902464
 40
0.377698354
 40
0.4443331115
 40
0.5109900572
 40
0.5772643152
 40
0.6427581907
 40
0.7070889007
 40
0.7698965953
 40
0.8308528525
 40
0.8896698636
 40
0.9461105666
 40
1.0
 40
1.0
 40
1.0
 40
1.0
 10
14.7804944925
 20
-17.2155046603
 30
0.0
 10
14.7686894278
 20
-17.2231176952
 30
0.0
 10
14.7440387363
 20
-17.2377058092
 30
0.0
 10
14.7050062128
 20
-17.2572757249
 30
0.0
 10
14.6635430911
 20
-17.2747885073
 30
0.0
 10
14.6200306963
 20
-17.2900830351
 30
0.0
 10
14.5748658251
 20
-17.3030203181
 30
0.0
 10
14.5284617901
 20
-17.3134819879
 30
0.0
 10
14.4812432121
 20
-17.3213723731
 30
0.0
 10
14.4336423786
 20
-17.3266192357
 30
0.0
 10
14.3860950631
 20
-17.3291745402
 30
0.0
 10
14.3390364188
 20
-17.3290148679
 30
0.0
 10
14.2928968909
 20
-17.3261416047
 30
0.0
 10
14.2480979884
 20
-17.3205807406
 30
0.0
 10
14.2050488333
 20
-17.3123827051
 30
0.0
 10
14.1641403981
 20
-17.3016206497
 30
0.0
 10
14.1257487144
 20
-17.2883926799
 30
0.0
 10
14.1014789012
 20
-17.2777507475
 30
0.0
 10
14.0898929648
 20
-17.2720218844
 30
0.0
 11
14.7804944925
 21
-17.2155046603
 31
0.0
 11
14.7442585954
 21
-17.2370179224
 31
0.0
 11
14.7052151341
 21
-17.2566486396
 31
0.0
 11
14.6637237878
 21
-17.2742159683
 31
0.0
 11
14.6201667864
 21
-17.2895580735
 31
0.0
 11
14.5749453891
 21
-17.3025336194
 31
0.0
 11
14.5284761881
 21
-17.3130230716
 31
0.0
 11
14.4811872705
 21
-17.3209297983
 31
0.0
 11
14.4335142752
 21
-17.3261809607
 31
0.0
 11
14.3858963789
 21
-17.3287281834
 31
0.0
 11
14.3387722511
 21
-17.3285480009
 31
0.0
 11
14.2925760123
 21
-17.3256420729
 31
0.0
 11
14.2477332352
 21
-17.3200371698
 31
0.0
 11
14.2046570239
 21
-17.3117849254
 31
0.0
 11
14.1637442086
 21
-17.3009613617
 31
0.0
 11
14.1253716895
 21
-17.2876661884
 31
0.0
 11
14.0898929648
 21
-17.2720218844
 31
0.0
  0
SPLINE
  5
2D2
100
AcDbEntity
  8
CURVE
100
AcDbSpline
 62
253
  6
CONTINUOUS
 70
0
 71
3
 72
19
 73
15
 74
13
 42
0.0000001
 43
0.0000001
 44
0.0000000001
 12
-0.2569006402
 22
0.4213749158
 32
0.0
 13
0.3492651431
 23
-0.1746325716
 33
0.0
 40
0.0
 40
0.0
 40
0.0
 40
0.0
 40
0.0833333333
 40
0.1666666667
 40
0.25
 40
0.3333333333
 40
0.4166666667
 40
0.5
 40
0.5833333333
 40
0.6666666667
 40
0.75
 40
0.8333333333
 40
0.9166666667
 40
1.0
 40
1.0
 40
1.0
 40
1.0
 10
-4.2826575544
 20
-0.2031801571
 30
0.0
 10
-4.2897936833
 20
-0.1914752983
 30
0.0
 10
-4.3019616296
 20
-0.168417589
 30
0.0
 10
-4.3159063667
 20
-0.1326511191
 30
0.0
 10
-4.3250804552
 20
-0.0962855041
 30
0.0
 10
-4.328860932
 20
-0.0614705825
 30
0.0
 10
-4.3271736612
 20
-0.0293411659
 30
0.0
 10
-4.3200638485
 20
-0.0011881565
 30
0.0
 10
-4.3078148399
 20
0.0219197443
 30
0.0
 10
-4.2908892678
 20
0.0390879827
 30
0.0
 10
-4.2699803542
 20
0.0496593019
 30
0.0
 10
-4.2457532141
 20
0.0532150389
 30
0.0
 10
-4.2196852306
 20
0.0496593071
 30
0.0
 10
-4.2014344045
 20
0.0428127952
 30
0.0
 10
-4.191732595
 20
0.0379618905
 30
0.0
 11
-4.2826575544
 21
-0.2031801571
 31
0.0
 11
-4.3012437659
 21
-0.168220938
 31
0.0
 11
-4.3151112586
 21
-0.1325512616
 31
0.0
 11
-4.3241815199
 21
-0.096543953
 31
0.0
 11
-4.3279496407
 21
-0.0619181666
 31
0.0
 11
-4.3262699042
 21
-0.0300039004
 31
0.0
 11
-4.3192073159
 21
-0.0020290079
 31
0.0
 11
-4.3070354127
 21
0.0209298005
 31
0.0
 11
-4.2902253775
 21
0.0379884961
 31
0.0
 11
-4.2694273165
 21
0.0484900382
 31
0.0
 11
-4.2454464069
 21
0.0520297941
 31
0.0
 11
-4.219467188
 21
0.0485403011
 31
0.0
 11
-4.191732595
 21
0.0379618905
 31
0.0
  0
SPLINE
  5
2D3
100
AcDbEntity
  8
CURVE
100
AcDbSpline
 62
253
  6
CONTINUOUS
 70
0
 71
3
 72
15
 73
11
 74
9
 42
0.0000001
 43
0.0000001
 44
0.0000000001
 12
-0.1528502783
 22
-0.1135719247
 32
0.0
 13
-0.1777114827
 23
0.2788456192
 33
0.0
 40
0.0
 40
0.0
 40
0.0
 40
0.0
 40
0.125
 40
0.25
 40
0.375
 40
0.5
 40
0.625
 40
0.75
 40
0.875
 40
1.0
 40
1.0
 40
1.0
 40
1.0
 10
-1.6901676906
 20
-4.1409582171
 30
0.0
 10
-1.6965364522
 20
-4.1456903807
 30
0.0
 10
-1.7100233977
 20
-4.1523163146
 30
0.0
 10
-1.733363212
 20
-4.1555747766
 30
0.0
 10
-1.7594913636
 20
-4.1518234613
 30
0.0
 10
-1.7869701323
 20
-4.1411949754
 30
0.0
 10
-1.8148602689
 20
-4.1241387059
 30
0.0
 10
-1.8422175627
 20
-4.1011469011
 30
0.0
 10
-1.8675222576
 20
-4.0735662089
 30
0.0
 10
-1.8827630455
 20
-4.0525767846
 30
0.0
 10
-1.8901676906
 20
-4.0409582171
 30
0.0
 11
-1.6901676906
 21
-4.1409582171
 31
0.0
 11
-1.7105416304
 21
-4.1512029081
 31
0.0
 11
-1.7338279349
 21
-4.1544064804
 31
0.0
 11
-1.7597164665
 21
-4.1506772662
 31
0.0
 11
-1.7870386936
 21
-4.1401236782
 31
0.0
 11
-1.8147714618
 21
-4.12314945
 31
0.0
 11
-1.8418754629
 21
-4.1003820865
 31
0.0
 11
-1.8671150054
 21
-4.0729156349
 31
0.0
 11
-1.8901676906
 21
-4.0409582171
 31
0.0
  0
SPLINE
  5
2D4
100
AcDbEntity
  8
CURVE
100
AcDbSpline
 62
253
  6
CONTINUOUS
 70
0
 71
3
 72
19
 73
15
 74
13
 42
0.0000001
 43
0.0000001
 44
0.0000000001
 12
0.34926513
 22
-0.174632565
 32
0.0
 13
-0.2373809804
 23
-0.1742341214
 33
0.0
 40
0.0
 40
0.0
 40
0.0
 40
0.0
 40
0.0833333333
 40
0.1666666667
 40
0.25
 40
0.3333333333
 40
0.4166666667
 40
0.5
 40
0.5833333333
 40
0.6666666667
 40
0.75
 40
0.8333333333
 40
0.9166666667
 40
1.0
 40
1.0
 40
1.0
 40
1.0
 10
0.3337508046
 20
-2.2247798093
 30
0.0
 10
0.3434526137
 20
-2.2296307139
 30
0.0
 10
0.3618401688
 20
-2.2411033924
 30
0.0
 10
0.3884781969
 20
-2.2639006653
 30
0.0
 10
0.4136522991
 20
-2.2921570172
 30
0.0
 10
0.4358408845
 20
-2.3242770756
 30
0.0
 10
0.4543403315
 20
-2.3591578258
 30
0.0
 10
0.4684030423
 20
-2.3954215924
 30
0.0
 10
0.4775026619
 20
-2.4316793042
 30
0.0
 10
0.481284055
 20
-2.4665430396
 30
0.0
 10
0.4796199357
 20
-2.4986356786
 30
0.0
 10
0.472512663
 20
-2.5268606283
 30
0.0
 10
0.4604611175
 20
-2.5496289609
 30
0.0
 10
0.4494197613
 20
-2.5610820202
 30
0.0
 10
0.4428258452
 20
-2.5659218569
 30
0.0
 11
0.3337508046
 21
-2.2247798093
 31
0.0
 11
0.3616829514
 21
-2.2420347683
 31
0.0
 11
0.3882342092
 21
-2.2648105118
 31
0.0
 11
0.413154713
 21
-2.2928009683
 31
0.0
 11
0.4352260281
 21
-2.3247371909
 31
0.0
 11
0.4536008755
 21
-2.3593883285
 31
0.0
 11
0.4675758604
 21
-2.3954205833
 31
0.0
 11
0.4766162908
 21
-2.4314469748
 31
0.0
 11
0.4803764696
 21
-2.4660811902
 31
0.0
 11
0.4787127435
 21
-2.4979910637
 31
0.0
 11
0.4716886175
 21
-2.5259511922
 31
0.0
 11
0.4597093694
 21
-2.5486975037
 31
0.0
 11
0.4428258452
 21
-2.5659218569
 31
0.0
  0
ELLIPSE
  5
2D5
100
AcDbEntity
  8
RACCORDO
100
AcDbEllipse
 62
7
  6
CONTINUOUS
 10
-13.6182597235
 20
17.9120710435
 30
0.0
 11
-0.1119858744
 21
0.2236318019
 31
0.0
 40
0.6122594231
 41
-0.6852493493
 42
0.0223236952
  0
ELLIPSE
  5
2D6
100
AcDbEntity
  8
RACCORDO
100
AcDbEllipse
 62
7
  6
CONTINUOUS
 10
17.6356444985
 20
2.2851189325
 30
0.0
 11
-0.1119259236
 21
0.2235783474
 31
0.0
 40
0.6126250184
 41
-2.2559124555
 42
-0.6854206804
  0
ELLIPSE
  5
2D7
100
AcDbEntity
  8
0
100
AcDbEllipse
 62
7
  6
CONTINUOUS
 10
16.9075224722
 20
-16.3816107223
 30
0.0
 11
-0.1826272431
 21
0.4654700168
 31
0.0
 40
0.6543766329
 41
-3.1348732976
 42
-2.2008763123
  0
ELLIPSE
  5
2D8
100
AcDbEntity
  8
ASSI
100
AcDbEllipse
 62
7
  6
CONTINUOUS
 10
-13.6182597235
 20
17.9120710435
 30
0.0
 11
-0.1119858744
 21
0.2236318019
 31
0.0
 40
0.6122594231
 41
-0.6852493493
 42
0.0223236952
  0
ELLIPSE
  5
2D9
100
AcDbEntity
  8
ASSI
100
AcDbEllipse
 62
7
  6
CONTINUOUS
 10
17.6356444985
 20
2.2851189325
 30
0.0
 11
-0.1119259236
 21
0.2235783474
 31
0.0
 40
0.6126250184
 41
-2.2559124555
 42
-0.6854206804
  0
ELLIPSE
  5
2DA
100
AcDbEntity
  8
ASSI
100
AcDbEllipse
 62
7
  6
CONTINUOUS
 10
16.9075224722
 20
-16.3816107223
 30
0.0
 11
-0.1826272431
 21
0.4654700168
 31
0.0
 40
0.6543766329
 41
-3.1348732976
 42
-2.2008763123
  0
ELLIPSE
  5
2DB
100
AcDbEntity
  8
CURVE
100
AcDbEllipse
 62
253
  6
CONTINUOUS
 10
57.1961523788
 20
35.7230800474
 30
0.0
 11
-66.7612259932
 21
108.0219327877
 31
0.0
 40
0.5587454355
 41
1.5605787213
 42
1.5908166325
  0
ELLIPSE
  5
2DC
100
AcDbEntity
  8
CURVE
100
AcDbEllipse
 62
253
  6
CONTINUOUS
 10
66.1441040261
 20
31.2491042237
 30
0.0
 11
89.8859912315
 21
55.5525976935
 31
0.0
 40
0.0815198604
 41
2.3459768847
 42
2.3762147959
  0
ELLIPSE
  5
2DD
100
AcDbEntity
  8
CURVE
100
AcDbEllipse
 62
253
  6
CONTINUOUS
 10
56.7961523788
 20
35.9230800474
 30
0.0
 11
-66.7612259932
 21
108.0219327877
 31
0.0
 40
0.5587454355
 41
1.5599273317
 42
1.5955431751
  0
ELLIPSE
  5
2DE
100
AcDbEntity
  8
CURVE
100
AcDbEllipse
 62
253
  6
CONTINUOUS
 10
66.5441040261
 20
31.0491042237
 30
0.0
 11
89.8859912315
 21
55.5525976935
 31
0.0
 40
0.0815198604
 41
2.3453254951
 42
2.3809413385
  0
ENDSEC
  0
SECTION
  2
OBJECTS
  0
DICTIONARY
  5
C
100
AcDbDictionary
280
0
281
1
  3
ACAD_GROUP
350
D
  3
ACAD_MLINESTYLE
350
17
  3
ACAD_LAYOUT
350
1A
  3
ACAD_PLOTSETTINGS
350
19
  3
ACAD_PLOTSTYLENAME
350
E
  0
DICTIONARY
  5
D
102
{ACAD_REACTORS
330
C
102
}
100
AcDbDictionary
280
0
281
1
  0
ACDBDICTIONARYWDFLT
  5
E
102
{ACAD_REACTORS
330
C
102
}
100
AcDbDictionary
281
1
  3
Normal
350
F
100
AcDbDictionaryWithDefault
340
F
  0
DICTIONARY
  5
17
102
{ACAD_REACTORS
330
C
102
}
100
AcDbDictionary
280
0
281
1
  3
Standard
350
18
  0
DICTIONARY
  5
19
102
{ACAD_REACTORS
330
C
102
}
100
AcDbDictionary
281
1
  0
DICTIONARY
  5
1A
102
{ACAD_REACTORS
330
C
102
}
100
AcDbDictionary
281
1
  3
Model
350
2DF
  3
Layout1
350
2E0
  0
ACDBPLACEHOLDER
  5
F
102
{ACAD_REACTORS
330
E
102
}
  0
MLINESTYLE
  5
18
102
{ACAD_REACTORS
330
17
102
}
100
AcDbMlineStyle
  2
STANDARD
 70
0
  3

 62
256
 51
90.0
 52
90.0
 71
2
 49
0.5
 62
256
  6
BYLAYER
 49
-0.5
 62
256
  6
BYLAYER
  0
LAYOUT
  5
2DF
102
{ACAD_REACTORS
330
1A
102
}
100
AcDbPlotSettings
  1

  2
none_device
  4
ISO_A4_(297.00_x_210.00_MM)
  6

 40
0.0
 41
0.0
 42
0.0
 43
0.0
 44
297.0
 45
210.0
 46
0.0
 47
0.0
 48
0.0
 49
0.0
140
0.0
141
0.0
142
1.0
143
1.0
 70
1024
 72
1
 73
0
 74
0
  7

 75
0
147
1.0
148
0.0
149
0.0
100
AcDbLayout
  1
Model
 70
0
 71
0
 10
0.0
 20
0.0
 11
297.0
 21
210.0
 12
0.0
 22
0.0
 32
0.0
 14
0.0
 24
0.0
 34
0.0
 15
0.0
 25
0.0
 35
0.0
146
0.0
 13
0.0
 23
0.0
 33
0.0
 16
1.0
 26
0.0
 36
0.0
 17
0.0
 27
1.0
 37
0.0
 76
0
330
217
345
0
346
0
  0
LAYOUT
  5
2E0
102
{ACAD_REACTORS
330
1A
102
}
100
AcDbPlotSettings
  1

  2
none_device
  4
ISO_A4_(297.00_x_210.00_MM)
  6

 40
0.0
 41
0.0
 42
0.0
 43
0.0
 44
297.0
 45
210.0
 46
0.0
 47
0.0
 48
0.0
 49
0.0
140
0.0
141
0.0
142
1.0
143
1.0
 70
0
 72
1
 73
0
 74
0
  7

 75
0
147
1.0
148
0.0
149
0.0
100
AcDbLayout
  1
Layout1
 70
0
 71
1
 10
0.0
 20
0.0
 11
297.0
 21
210.0
 12
0.0
 22
0.0
 32
0.0
 14
0.0
 24
0.0
 34
0.0
 15
0.0
 25
0.0
 35
0.0
146
0.0
 13
0.0
 23
0.0
 33
0.0
 16
1.0
 26
0.0
 36
0.0
 17
0.0
 27
1.0
 37
0.0
 76
0
330
218
345
0
346
0
  0
ENDSEC
  0
EOF
