  0
SECTION
  2
HEADER
  9
$ACADVER
  1
AC1015
  9
$DWGCODEPAGE
  3
ANSI_1252
  9
$EXTMAX
 10
297.0
 20
210.0
 30
0.0
  9
$EXTMIN
 10
0.0
 20
0.0
 30
0.0
  9
$LIMMIN
 10
0.0
 20
0.0
  9
$LIMMAX
 10
297.0
 20
210.0
  9
$VIEWCTR
 10
148.5
 20
105.0
  9
$VIEWSIZE
 40
210.0
  9
$CLAYER
  8
0
  9
$LTSCALE
 40
16.335
  9
$CELTYPE
  6
BYLAYER
  9
$DIMSCALE
 40
1.0
  9
$DIMASZ
 40
3.0
  9
$DIMEXO
 40
1.85625
  9
$DIMDLI
 40
11.286
  9
$DIMEXE
 40
5.346
  9
$DIMCEN
 40
2.673
  9
$DIMLFAC
 40
1.0
  9
$DIMBLK
  1
_FILLED
  9
$DIMTXT
 40
3.0
  9
$DIMTOL
 70
1
  9
$DIMLIM
 70
0
  9
$DIMTFAC
 40
1.0
  9
$DIMTP
 40
0.01
  9
$DIMTM
 40
0.01
  9
$PDMODE
 70
3
  9
$PDSIZE
 40
3.0
  9
$HANDSEED
  5
2E8
  9
$TILEMODE
 70
1
  9
$MEASUREMENT
 70
1
  9
$INSUNITS
 70
4
  0
ENDSEC
  0
SECTION
  2
CLASSES
  0
CLASS
  1
ACDBDICTIONARYWDFLT
  2
AcDbDictionaryWithDefault
  3
AutoCAD 2000
 90
0
280
0
281
0
  0
CLASS
  1
ACDBPLACEHOLDER
  2
AcDbPlaceHolder
  3
AutoCAD 2000
 90
0
280
0
281
0
  0
CLASS
  1
LAYOUT
  2
AcDbLayout
  3
AutoCAD 2000
 90
0
280
0
281
0
  0
ENDSEC
  0
SECTION
  2
TABLES
  0
TABLE
  2
VPORT
  5
8
100
AcDbSymbolTable
 70
2
  0
VPORT
  5
1F4
100
AcDbSymbolTableRecord
100
AcDbViewportTableRecord
  2
*ACTIVE
 70
0
 10
0.0
 20
0.0
 11
1.0
 21
1.0
 12
148.5
 22
105.0
 13
0.0
 23
0.0
 14
1.0
 24
1.0
 15
0.0
 25
0.0
 16
0.0
 26
0.0
 36
1.0
 17
0.0
 27
0.0
 37
0.0
 40
210.0
 41
1.4142857143
 42
50.0
 43
0.0
 44
0.0
 50
0.0
 51
0.0
 71
0
 72
100
 73
1
 74
1
 75
0
 76
0
 77
0
 78
0
  0
ENDTAB
  0
TABLE
  2
LTYPE
  5
5
100
AcDbSymbolTable
 70
6
  0
LTYPE
  5
14
100
AcDbSymbolTableRecord
100
AcDbLinetypeTableRecord
  2
BYBLOCK
 70
0
  3

 72
65
 73
0
 40
0.0
  0
LTYPE
  5
15
100
AcDbSymbolTableRecord
100
AcDbLinetypeTableRecord
  2
BYLAYER
 70
0
  3

 72
65
 73
0
 40
0.0
  0
LTYPE
  5
16
100
AcDbSymbolTableRecord
100
AcDbLinetypeTableRecord
  2
CONTINUOUS
 70
64
  3
Solid line
 72
65
 73
0
 40
0.0
  0
LTYPE
  5
1F5
100
AcDbSymbolTableRecord
100
AcDbLinetypeTableRecord
  2
CENTER
 70
64
  3
____ _ ____ _ ____ _ ____ _ ____ _ ____ _ ____
 72
65
 73
4
 40
0.6
 49
0.375
 74
0
 49
-0.075
 74
0
 49
0.075
 74
0
 49
-0.075
 74
0
  0
LTYPE
  5
1F6
100
AcDbSymbolTableRecord
100
AcDbLinetypeTableRecord
  2
HIDDEN
 70
64
  3
- - - - - - - - - - - - - - - - - - - -
 72
65
 73
2
 40
0.2
 49
0.1
 74
0
 49
-0.1
 74
0
  0
LTYPE
  5
1F7
100
AcDbSymbolTableRecord
100
AcDbLinetypeTableRecord
  2
PHANTOM
 70
64
  3
_____ _ _ _____ _ _ _____ _ _ _____
 72
65
 73
6
 40
0.8
 49
0.45
 74
0
 49
-0.05
 74
0
 49
0.1
 74
0
 49
-0.05
 74
0
 49
0.1
 74
0
 49
-0.05
 74
0
  0
LTYPE
  5
1F8
100
AcDbSymbolTableRecord
100
AcDbLinetypeTableRecord
  2
DOT
 70
64
  3
. . . . . . . . . . . . . . . . . . . .
 72
65
 73
2
 40
0.2
 49
0.1
 74
0
 49
-0.1
 74
0
  0
LTYPE
  5
1F9
100
AcDbSymbolTableRecord
100
AcDbLinetypeTableRecord
  2
DASHED
 70
64
  3
- - - - - - - - - - - - - - - - - - - -
 72
65
 73
2
 40
0.2
 49
0.1
 74
0
 49
-0.1
 74
0
  0
ENDTAB
  0
TABLE
  2
LAYER
  5
2
100
AcDbSymbolTable
 70
36
  0
LAYER
  5
10
100
AcDbSymbolTableRecord
100
AcDbLayerTableRecord
  2
0
 70
0
 62
7
  6
CONTINUOUS
370
-3
390
F
  0
LAYER
  5
1FA
100
AcDbSymbolTableRecord
100
AcDbLayerTableRecord
  2
DEFAULT_1
 70
0
 62
7
  6
CENTER
370
-3
390
F
  0
LAYER
  5
1FB
100
AcDbSymbolTableRecord
100
AcDbLayerTableRecord
  2
DEFAULT_2
 70
0
 62
7
  6
HIDDEN
370
-3
390
F
  0
LAYER
  5
1FC
100
AcDbSymbolTableRecord
100
AcDbLayerTableRecord
  2
DEFAULT_3
 70
0
 62
7
  6
PHANTOM
370
-3
390
F
  0
LAYER
  5
1FD
100
AcDbSymbolTableRecord
100
AcDbLayerTableRecord
  2
ASSI
 70
0
 62
7
  6
CONTINUOUS
370
-3
390
F
  0
LAYER
  5
1FE
100
AcDbSymbolTableRecord
100
AcDbLayerTableRecord
  2
COLOR9
 70
0
 62
7
  6
CONTINUOUS
370
-3
390
F
  0
LAYER
  5
1FF
100
AcDbSymbolTableRecord
100
AcDbLayerTableRecord
  2
COORDINATE
 70
0
 62
7
  6
CONTINUOUS
370
-3
390
F
  0
LAYER
  5
200
100
AcDbSymbolTableRecord
100
AcDbLayerTableRecord
  2
COORD_ORIGINE
 70
0
 62
7
  6
CONTINUOUS
370
-3
390
F
  0
LAYER
  5
201
100
AcDbSymbolTableRecord
100
AcDbLayerTableRecord
  2
COPY_PUBLISH
 70
0
 62
7
  6
CONTINUOUS
370
-3
390
F
  0
LAYER
  5
202
100
AcDbSymbolTableRecord
100
AcDbLayerTableRecord
  2
COSMETIC
 70
0
 62
7
  6
CONTINUOUS
370
-3
390
F
  0
LAYER
  5
203
100
AcDbSymbolTableRecord
100
AcDbLayerTableRecord
  2
CURVE
 70
0
 62
7
  6
CONTINUOUS
370
-3
390
F
  0
LAYER
  5
204
100
AcDbSymbolTableRecord
100
AcDbLayerTableRecord
  2
DRAFT
 70
0
 62
7
  6
CONTINUOUS
370
-3
390
F
  0
LAYER
  5
205
100
AcDbSymbolTableRecord
100
AcDbLayerTableRecord
  2
IGS_SCRITTE
 70
0
 62
7
  6
CONTINUOUS
370
-3
390
F
  0
LAYER
  5
206
100
AcDbSymbolTableRecord
100
AcDbLayerTableRecord
  2
IMPORT_IGES
 70
0
 62
7
  6
CONTINUOUS
370
-3
390
F
  0
LAYER
  5
207
100
AcDbSymbolTableRecord
100
AcDbLayerTableRecord
  2
INTF_15
 70
0
 62
7
  6
CONTINUOUS
370
-3
390
F
  0
LAYER
  5
208
100
AcDbSymbolTableRecord
100
AcDbLayerTableRecord
  2
INTF_3
 70
0
 62
7
  6
CONTINUOUS
370
-3
390
F
  0
LAYER
  5
209
100
AcDbSymbolTableRecord
100
AcDbLayerTableRecord
  2
INTF_4
 70
0
 62
7
  6
CONTINUOUS
370
-3
390
F
  0
LAYER
  5
20A
100
AcDbSymbolTableRecord
100
AcDbLayerTableRecord
  2
INTF_YELLOW
 70
0
 62
7
  6
CONTINUOUS
370
-3
390
F
  0
LAYER
  5
20B
100
AcDbSymbolTableRecord
100
AcDbLayerTableRecord
  2
PIANI
 70
0
 62
7
  6
CONTINUOUS
370
-3
390
F
  0
LAYER
  5
20C
100
AcDbSymbolTableRecord
100
AcDbLayerTableRecord
  2
PIANI_ORIGINE
 70
0
 62
7
  6
CONTINUOUS
370
-3
390
F
  0
LAYER
  5
20D
100
AcDbSymbolTableRecord
100
AcDbLayerTableRecord
  2
PIANI_RIFERIMENTO
 70
0
 62
7
  6
CONTINUOUS
370
-3
390
F
  0
LAYER
  5
20E
100
AcDbSymbolTableRecord
100
AcDbLayerTableRecord
  2
RACCORDO
 70
0
 62
7
  6
CONTINUOUS
370
-3
390
F
  0
LAYER
  5
20F
100
AcDbSymbolTableRecord
100
AcDbLayerTableRecord
  2
SMUSSO
 70
0
 62
7
  6
CONTINUOUS
370
-3
390
F
  0
LAYER
  5
210
100
AcDbSymbolTableRecord
100
AcDbLayerTableRecord
  2
SOLIDO
 70
0
 62
7
  6
CONTINUOUS
370
-3
390
F
  0
LAYER
  5
211
100
AcDbSymbolTableRecord
100
AcDbLayerTableRecord
  2
SUPERFICI
 70
0
 62
7
  6
CONTINUOUS
370
-3
390
F
  0
LAYER
  5
212
100
AcDbSymbolTableRecord
100
AcDbLayerTableRecord
  2
TRASH
 70
0
 62
7
  6
CONTINUOUS
370
-3
390
F
  0
LAYER
  5
213
100
AcDbSymbolTableRecord
100
AcDbLayerTableRecord
  2
WHITE
 70
0
 62
7
  6
CONTINUOUS
370
-3
390
F
  0
LAYER
  5
214
100
AcDbSymbolTableRecord
100
AcDbLayerTableRecord
  2
XSEC_DATUMS
 70
0
 62
7
  6
CONTINUOUS
370
-3
390
F
  0
ENDTAB
  0
TABLE
  2
STYLE
  5
3
100
AcDbSymbolTable
 70
1
  0
STYLE
  5
11
100
AcDbSymbolTableRecord
100
AcDbTextStyleTableRecord
  2
STANDARD
 70
0
 40
0.0
 41
0.8
 50
0.0
 71
0
 42
0.2
  3
txt
  4

  0
STYLE
  5
215
100
AcDbSymbolTableRecord
100
AcDbTextStyleTableRecord
  2
TEXTSTYLE_1
 70
0
 40
0.0
 41
0.8
 50
0.0
 71
0
 42
0.2
  3
gdt
  4

  0
ENDTAB
  0
TABLE
  2
VIEW
  5
6
100
AcDbSymbolTable
 70
0
  0
ENDTAB
  0
TABLE
  2
UCS
  5
7
100
AcDbSymbolTable
 70
0
  0
ENDTAB
  0
TABLE
  2
APPID
  5
9
100
AcDbSymbolTable
 70
1
  0
APPID
  5
216
100
AcDbSymbolTableRecord
100
AcDbRegAppTableRecord
  2
ACAD
 70
0
  0
ENDTAB
  0
TABLE
  2
BLOCK_RECORD
  5
1
100
AcDbSymbolTable
 70
0
  0
BLOCK_RECORD
  5
217
100
AcDbSymbolTableRecord
100
AcDbBlockTableRecord
  2
*Model_Space
  0
BLOCK_RECORD
  5
218
100
AcDbSymbolTableRecord
100
AcDbBlockTableRecord
  2
*Paper_Space
  0
ENDTAB
  0
TABLE
  2
DIMSTYLE
  5
A
100
AcDbSymbolTable
 70
1
100
AcDbDimStyleTable
 71
0
  0
DIMSTYLE
105
219
100
AcDbSymbolTableRecord
100
AcDbDimStyleTableRecord
  2
STANDARD
 70
0
  3

  4

 40
1.0
 41
3.0
 42
0.0625
 43
0.38
 44
0.18
 45
0.0
 46
0.0
 47
0.01
 48
0.01
140
3.0
141
0.09
142
0.0
143
25.4
144
1.0
145
0.0
146
1.0
147
0.09
 71
1.0
 72
0.0
 73
0
 74
0
 75
0
 76
0
 77
1
 78
8
170
0
171
2
172
0
173
0
174
0
175
0
176
0
177
0
178
0
270
2
271
2
272
2
273
2
274
2
275
0
280
0
281
0
282
0
283
1
284
8
285
0
286
0
287
3
288
0
340
11
  0
ENDTAB
  0
ENDSEC
  0
SECTION
  2
BLOCKS
  0
BLOCK
  5
20
100
AcDbEntity
  8
0
100
AcDbBlockBegin
  2
*Model_Space
 70
0
 10
0.0
 20
0.0
 30
0.0
  3
*Model_Space
  1

  0
ENDBLK
  5
21
100
AcDbEntity
  8
0
100
AcDbBlockEnd
  0
BLOCK
  5
1C
100
AcDbEntity
  8
0
100
AcDbBlockBegin
  2
*Paper_Space
 70
0
 10
0.0
 20
0.0
 30
0.0
  3
*Paper_Space
  1

  0
ENDBLK
  5
1D
100
AcDbEntity
  8
0
100
AcDbBlockEnd
  0
ENDSEC
  0
SECTION
  2
ENTITIES
  0
LWPOLYLINE
  5
21A
100
AcDbEntity
  8
ASSI
100
AcDbPolyline
 62
7
  6
CONTINUOUS
 90
11
 70
0
 10
-17.4758836991
 20
16.0403269336
 10
-17.492943636
 20
16.0305176113
 10
-17.5273424154
 20
16.0075373151
 10
-17.5582583951
 20
15.9822879674
 10
-17.5856969808
 20
15.9548744974
 10
-17.6095638172
 20
15.9254847538
 10
-17.6296879954
 20
15.8944633332
 10
-17.6460232676
 20
15.862062259
 10
-17.6585352744
 20
15.8285193142
 10
-17.6671553719
 20
15.7942145378
 10
-17.671863048
 20
15.759609877
  0
LWPOLYLINE
  5
21B
100
AcDbEntity
  8
RACCORDO
100
AcDbPolyline
 62
7
  6
CONTINUOUS
 90
31
 70
0
 10
-17.4757263364
 20
16.0404132536
 10
-17.4833659136
 20
16.036141091
 10
-17.495741555
 20
16.0288162591
 10
-17.5076599804
 20
16.0212527124
 10
-17.5191254969
 20
16.0134605378
 10
-17.5301442604
 20
16.0054486177
 10
-17.5407202552
 20
15.9972268014
 10
-17.5508564163
 20
15.9888059021
 10
-17.5605569729
 20
15.9801958339
 10
-17.5698239992
 20
15.9714082212
 10
-17.5786570291
 20
15.9624578886
 10
-17.5870620165
 20
15.9533540308
 10
-17.595047185
 20
15.9441024624
 10
-17.602609926
 20
15.9347214201
 10
-17.6097571371
 20
15.9252187512
 10
-17.6165066115
 20
15.9155853051
 10
-17.6228582052
 20
15.905834269
 10
-17.6288130599
 20
15.8959777991
 10
-17.6343856552
 20
15.8860044764
 10
-17.6395758481
 20
15.8759252161
 10
-17.6443824677
 20
15.8657539227
 10
-17.648813963
 20
15.855483048
 10
-17.6528694172
 20
15.8451234946
 10
-17.6565474256
 20
15.8346892541
 10
-17.6598524618
 20
15.8241771666
 10
-17.6627830957
 20
15.813600038
 10
-17.6653386144
 20
15.8029703144
 10
-17.6675220184
 20
15.7922841952
 10
-17.6693320817
 20
15.7815550218
 10
-17.6707684055
 20
15.7707949492
 10
-17.6718325442
 20
15.7599982814
  0
LINE
  5
21C
100
AcDbEntity
  8
RACCORDO
100
AcDbLine
 62
7
  6
CONTINUOUS
 10
-17.4757194979
 20
16.0404170288
 11
-13.9163247591
 21
17.9883288547
  0
LINE
  5
21D
100
AcDbEntity
  8
ASSI
100
AcDbLine
 62
7
  6
CONTINUOUS
 10
-17.4758837128
 20
16.0403269585
 11
-13.9163247591
 21
17.9883288547
  0
LINE
  5
21E
100
AcDbEntity
  8
RACCORDO
100
AcDbLine
 62
253
  6
CONTINUOUS
 10
-17.3572441911
 20
16.0368365148
 11
-13.8013551126
 21
17.9828298356
  0
LINE
  5
21F
100
AcDbEntity
  8
ASSI
100
AcDbLine
 62
253
  6
CONTINUOUS
 10
-17.3572441911
 20
16.0368365148
 11
-13.8013551126
 21
17.9828298356
  0
LINE
  5
220
100
AcDbEntity
  8
DRAFT
100
AcDbLine
 62
7
  6
CONTINUOUS
 10
-12.1485228461
 20
16.1171832178
 11
-13.1355312734
 21
15.5059245048
  0
LINE
  5
221
100
AcDbEntity
  8
ASSI
100
AcDbLine
 62
7
  6
CONTINUOUS
 10
-12.1485228461
 20
16.1171832178
 11
-13.1355312734
 21
15.5059245048
  0
LINE
  5
222
100
AcDbEntity
  8
DRAFT
100
AcDbLine
 62
7
  6
CONTINUOUS
 10
-12.1485228461
 20
17.1564137023
 11
-14.0842517079
 21
15.980284722
  0
LINE
  5
223
100
AcDbEntity
  8
ASSI
100
AcDbLine
 62
7
  6
CONTINUOUS
 10
-12.1485228461
 20
17.1564137023
 11
-14.0842517079
 21
15.980284722
  0
LWPOLYLINE
  5
224
100
AcDbEntity
  8
RACCORDO
100
AcDbPolyline
 62
7
  6
CONTINUOUS
 90
4
 70
0
 10
-17.6718325442
 20
15.7599982814
 10
-17.6725235056
 20
15.749171632
 10
-17.6728399826
 20
15.7383340239
 10
-17.6728622214
 20
15.734383681
  0
LWPOLYLINE
  5
225
100
AcDbEntity
  8
0
100
AcDbPolyline
 62
7
  6
CONTINUOUS
 90
17
 70
0
 10
-17.5922224467
 20
6.930165154
 10
-17.5790310012
 20
6.452219476
 10
-17.5634589506
 20
5.9756477436
 10
-17.5455067737
 20
5.5004678215
 10
-17.5251749515
 20
5.0266964221
 10
-17.5024640345
 20
4.5543512142
 10
-17.4773747699
 20
4.0834504877
 10
-17.4499079048
 20
3.6140118934
 10
-17.4200642322
 20
3.1460532898
 10
-17.3878447693
 20
2.679593034
 10
-17.3532505906
 20
2.214649517
 10
-17.3162828199
 20
1.7512410316
 10
-17.2769427192
 20
1.2893851294
 10
-17.235231561
 20
0.8290990835
 10
-17.1911507052
 20
0.3704007843
 10
-17.1447016092
 20
-0.0866926932
 10
-17.0958856599
 20
-0.5421652898
  0
LWPOLYLINE
  5
226
100
AcDbEntity
  8
ASSI
100
AcDbPolyline
 62
7
  6
CONTINUOUS
 90
9
 70
0
 10
-17.6113811559
 20
7.884716072
 10
-17.5892675782
 20
6.8151037215
 10
-17.5529385972
 20
5.6894674192
 10
-17.5033388233
 20
4.5716460519
 10
-17.440476617
 20
3.4618774109
 10
-17.3643630036
 20
2.3603996551
 10
-17.2750114182
 20
1.2674445016
 10
-17.172438328
 20
0.1832463555
 10
-17.0566626012
 20
-0.8919637546
  0
LWPOLYLINE
  5
227
100
AcDbEntity
  8
0
100
AcDbPolyline
 62
7
  6
CONTINUOUS
 90
3
 70
0
 10
-17.6113811533
 20
7.8847159027
 10
-17.6030329468
 20
7.4094640795
 10
-17.5922224467
 20
6.930165154
  0
LINE
  5
228
100
AcDbEntity
  8
ASSI
100
AcDbLine
 62
7
  6
CONTINUOUS
 10
-17.6233758061
 20
8.7240980693
 11
-17.6113811536
 21
7.8847159038
  0
LWPOLYLINE
  5
229
100
AcDbEntity
  8
ASSI
100
AcDbPolyline
 62
7
  6
CONTINUOUS
 90
8
 70
0
 10
-17.6717250285
 20
14.9092986351
 10
-17.6691063467
 20
14.0198102177
 10
-17.6650431983
 20
13.1311031176
 10
-17.6595355929
 20
12.243181525
 10
-17.6525835495
 20
11.3560489373
 10
-17.6441870872
 20
10.4697086369
 10
-17.6343462316
 20
9.5841642217
 10
-17.6233758061
 20
8.7240980693
  0
LINE
  5
22A
100
AcDbEntity
  8
ASSI
100
AcDbLine
 62
7
  6
CONTINUOUS
 10
-17.672862299
 20
15.7343941643
 11
-17.6717250285
 21
14.9092986351
  0
LWPOLYLINE
  5
22B
100
AcDbEntity
  8
0
100
AcDbPolyline
 62
7
  6
CONTINUOUS
 90
10
 70
0
 10
-17.672862299
 20
15.7343941571
 10
-17.6716273851
 20
14.8643468579
 10
-17.6689877328
 20
13.9884833064
 10
-17.6649474215
 20
13.1133775128
 10
-17.6595064605
 20
12.2390334604
 10
-17.6526648681
 20
11.3654544877
 10
-17.6444226626
 20
10.492643746
 10
-17.6347798682
 20
9.6206046648
 10
-17.6237365286
 20
8.7493413182
 10
-17.6113811536
 20
7.8847159045
  0
LINE
  5
22C
100
AcDbEntity
  8
ASSI
100
AcDbLine
 62
7
  6
CONTINUOUS
 10
-17.671863048
 20
15.759609877
 11
-17.6728618636
 21
15.7341611265
  0
LWPOLYLINE
  5
22D
100
AcDbEntity
  8
ASSI
100
AcDbPolyline
 62
7
  6
CONTINUOUS
 90
10
 70
0
 10
-16.9359049689
 20
-1.8935462917
 10
-16.9281568997
 20
-1.9435561691
 10
-16.9089877636
 20
-2.025874882
 10
-16.8828673399
 20
-2.1030549906
 10
-16.8504646932
 20
-2.1744843856
 10
-16.8122428736
 20
-2.2402053511
 10
-16.768304363
 20
-2.3005750784
 10
-16.7192717333
 20
-2.355049105
 10
-16.6657151733
 20
-2.4033227632
 10
-16.6074648387
 20
-2.4456496088
  0
LWPOLYLINE
  5
22E
100
AcDbEntity
  8
0
100
AcDbPolyline
 62
7
  6
CONTINUOUS
 90
31
 70
0
 10
-16.9359491119
 20
-1.8932012439
 10
-16.9334159238
 20
-1.911694663
 10
-16.9295079194
 20
-1.9360066491
 10
-16.9250078193
 20
-1.959901239
 10
-16.9199297653
 20
-1.9833669445
 10
-16.9142859079
 20
-2.0064045617
 10
-16.9080852946
 20
-2.0290228941
 10
-16.9013399083
 20
-2.0512162204
 10
-16.8940623497
 20
-2.0729783726
 10
-16.8862612961
 20
-2.0943135994
 10
-16.8779491702
 20
-2.11521396
 10
-16.8691384712
 20
-2.1356731597
 10
-16.8598374284
 20
-2.1556944681
 10
-16.8500598646
 20
-2.1752679387
 10
-16.8398180853
 20
-2.1943879806
 10
-16.8291176298
 20
-2.2130613685
 10
-16.8179719958
 20
-2.2312794444
 10
-16.8063947353
 20
-2.2490342972
 10
-16.7943908909
 20
-2.2663311077
 10
-16.7819755053
 20
-2.2831601062
 10
-16.7691620863
 20
-2.2995145526
 10
-16.7559526188
 20
-2.3154016797
 10
-16.7423622558
 20
-2.3308119514
 10
-16.7284050991
 20
-2.345738369
 10
-16.7140802291
 20
-2.3601892731
 10
-16.6994021813
 20
-2.3741559153
 10
-16.684385786
 20
-2.3876302823
 10
-16.6690291766
 20
-2.4006192603
 10
-16.653347717
 20
-2.4131139447
 10
-16.637355924
 20
-2.4251069526
 10
-16.6210491496
 20
-2.4366046882
  0
LINE
  5
22F
100
AcDbEntity
  8
ASSI
100
AcDbLine
 62
7
  6
CONTINUOUS
 10
-16.9359497187
 20
-1.8931965874
 11
-16.9359049846
 21
-1.8935462937
  0
LINE
  5
230
100
AcDbEntity
  8
ASSI
100
AcDbLine
 62
7
  6
CONTINUOUS
 10
-17.0566626012
 20
-0.8919637546
 11
-16.9359497187
 21
-1.8931965874
  0
LWPOLYLINE
  5
231
100
AcDbEntity
  8
0
100
AcDbPolyline
 62
7
  6
CONTINUOUS
 90
4
 70
0
 10
-17.0958856599
 20
-0.5421652898
 10
-17.0447044028
 20
-0.9959998531
 10
-16.9911598895
 20
-1.4481767594
 10
-16.9359497479
 20
-1.893196357
  0
LINE
  5
232
100
AcDbEntity
  8
DRAFT
100
AcDbLine
 62
7
  6
CONTINUOUS
 10
-12.1485228461
 20
17.1564137023
 11
-12.1485228461
 21
16.1171832178
  0
LINE
  5
233
100
AcDbEntity
  8
ASSI
100
AcDbLine
 62
7
  6
CONTINUOUS
 10
-12.1485228461
 20
17.1564137023
 11
-12.1485228461
 21
16.1171832178
  0
LWPOLYLINE
  5
234
100
AcDbEntity
  8
0
100
AcDbPolyline
 62
7
  6
CONTINUOUS
 90
27
 70
0
 10
14.2144683891
 20
-17.8588164299
 10
14.2344994235
 20
-17.8665460383
 10
14.2547893533
 20
-17.8736721945
 10
14.275319882
 20
-17.8801869828
 10
14.2960726603
 20
-17.8860834005
 10
14.3170582643
 20
-17.891362023
 10
14.3382593007
 20
-17.8960148466
 10
14.3596569291
 20
-17.9000346989
 10
14.3812612366
 20
-17.9034194699
 10
14.40305494
 20
-17.9061612494
 10
14.425019331
 20
-17.9082526913
 10
14.4471638288
 20
-17.9096890541
 10
14.4694722511
 20
-17.9104626099
 10
14.4919249433
 20
-17.9105660889
 10
14.5145276399
 20
-17.909992156
 10
14.5372656475
 20
-17.9087331721
 10
14.5601182204
 20
-17.9067823962
 10
14.5830836828
 20
-17.9041314924
 10
14.6061455999
 20
-17.900773469
 10
14.6292857611
 20
-17.8967024396
 10
14.6525017993
 20
-17.8919095196
 10
14.6757782227
 20
-17.8863878448
 10
14.6990976162
 20
-17.8801318222
 10
14.7224570158
 20
-17.8731317657
 10
14.7458455169
 20
-17.8653793836
 10
14.7692415386
 20
-17.8568706691
 10
14.7864958668
 20
-17.8501059527
  0
LINE
  5
235
100
AcDbEntity
  8
0
100
AcDbLine
 62
7
  6
CONTINUOUS
 10
14.1946872869
 20
-17.8504805929
 11
14.2144683891
 21
-17.8588164299
  0
LINE
  5
236
100
AcDbEntity
  8
ASSI
100
AcDbLine
 62
7
  6
CONTINUOUS
 10
-16.6074648387
 20
-2.4456496088
 11
-16.5410344297
 21
-2.4835803965
  0
LWPOLYLINE
  5
237
100
AcDbEntity
  8
0
100
AcDbPolyline
 62
7
  6
CONTINUOUS
 90
4
 70
0
 10
-16.5875505699
 20
-2.4580812646
 10
-16.5703680836
 20
-2.4680573678
 10
-16.5529025126
 20
-2.4775222966
 10
-16.5419168572
 20
-2.4831407691
  0
LWPOLYLINE
  5
238
100
AcDbEntity
  8
0
100
AcDbPolyline
 62
7
  6
CONTINUOUS
 90
3
 70
0
 10
-16.6210491496
 20
-2.4366046882
 10
-16.6044423174
 20
-2.4475986657
 10
-16.5875505699
 20
-2.4580812646
  0
LWPOLYLINE
  5
239
100
AcDbEntity
  8
0
100
AcDbPolyline
 62
7
  6
CONTINUOUS
 90
3
 70
0
 10
14.1632118794
 20
-17.8357051373
 10
14.1751659505
 20
-17.8415417001
 10
14.1946872869
 20
-17.8504805929
  0
LWPOLYLINE
  5
23A
100
AcDbEntity
  8
ASSI
100
AcDbPolyline
 62
7
  6
CONTINUOUS
 90
12
 70
0
 10
14.1626548321
 20
-17.8354260011
 10
14.1704457344
 20
-17.8392702905
 10
14.2258492803
 20
-17.8632940218
 10
14.2836558122
 20
-17.8826374952
 10
14.3433825247
 20
-17.8970385577
 10
14.4047052643
 20
-17.9063416752
 10
14.4675167249
 20
-17.9104216307
 10
14.5314478574
 20
-17.9091201518
 10
14.5960560104
 20
-17.9023284185
 10
14.6612202587
 20
-17.8899255552
 10
14.7266953386
 20
-17.8717822504
 10
14.7862316223
 20
-17.8502125283
  0
LINE
  5
23B
100
AcDbEntity
  8
ASSI
100
AcDbLine
 62
7
  6
CONTINUOUS
 10
-16.5419377714
 20
-2.4831303369
 11
14.1632455242
 21
-17.8357219847
  0
LINE
  5
23C
100
AcDbEntity
  8
0
100
AcDbLine
 62
7
  6
CONTINUOUS
 10
-16.5419409039
 20
-2.4831287706
 11
14.1632455242
 21
-17.8357219847
  0
LINE
  5
23D
100
AcDbEntity
  8
0
100
AcDbLine
 62
7
  6
CONTINUOUS
 10
14.1632138437
 20
-17.8357061429
 11
14.1632423222
 21
-17.8357203837
  0
LINE
  5
23E
100
AcDbEntity
  8
0
100
AcDbLine
 62
253
  6
CONTINUOUS
 10
-16.7895290743
 20
-2.0696143817
 11
13.9068514299
 21
-17.4178046338
  0
LINE
  5
23F
100
AcDbEntity
  8
ASSI
100
AcDbLine
 62
253
  6
CONTINUOUS
 10
-16.7895290743
 20
-2.0696143817
 11
13.9068514299
 21
-17.4178046338
  0
LINE
  5
240
100
AcDbEntity
  8
ASSI
100
AcDbLine
 62
7
  6
CONTINUOUS
 10
14.1626566619
 20
-17.8354269355
 11
14.1632423222
 21
-17.8357203837
  0
LINE
  5
241
100
AcDbEntity
  8
CURVE
100
AcDbLine
 62
253
  6
CONTINUOUS
 10
-0.3346176892
 20
-2.0437807824
 11
-3.8944156639
 21
-0.263881795
  0
LINE
  5
242
100
AcDbEntity
  8
CURVE
100
AcDbLine
 62
253
  6
CONTINUOUS
 10
-4.2449870746
 20
0.2486640173
 11
-0.0023463875
 21
-1.8726563262
  0
LINE
  5
243
100
AcDbEntity
  8
0
100
AcDbLine
 62
253
  6
CONTINUOUS
 10
13.1828564086
 20
-7.6166012259
 11
-17.4649276816
 21
7.7072908192
  0
LINE
  5
244
100
AcDbEntity
  8
ASSI
100
AcDbLine
 62
253
  6
CONTINUOUS
 10
13.1828564086
 20
-7.6166012259
 11
-17.4649276816
 21
7.7072908192
  0
LINE
  5
245
100
AcDbEntity
  8
DRAFT
100
AcDbLine
 62
7
  6
CONTINUOUS
 10
15.7998245837
 20
3.1822399874
 11
13.4929127584
 21
2.1917024889
  0
LINE
  5
246
100
AcDbEntity
  8
ASSI
100
AcDbLine
 62
7
  6
CONTINUOUS
 10
15.7998245837
 20
3.1822399874
 11
13.4929127584
 21
2.1917024889
  0
LINE
  5
247
100
AcDbEntity
  8
SUPERFICI
100
AcDbLine
 62
7
  6
CONTINUOUS
 10
-5.1185178348
 20
4.8699383872
 11
0.7531533951
 21
1.9341027722
  0
LINE
  5
248
100
AcDbEntity
  8
RACCORDO
100
AcDbLine
 62
7
  6
CONTINUOUS
 10
0.7531533951
 20
1.9341027722
 11
-5.1185178348
 21
4.8699383872
  0
LINE
  5
249
100
AcDbEntity
  8
ASSI
100
AcDbLine
 62
7
  6
CONTINUOUS
 10
0.7531533951
 20
1.9341027722
 11
-5.1185178348
 21
4.8699383872
  0
LINE
  5
24A
100
AcDbEntity
  8
SUPERFICI
100
AcDbLine
 62
7
  6
CONTINUOUS
 10
-5.1320754597
 20
6.7679717727
 11
0.7387083896
 21
3.8325798481
  0
LINE
  5
24B
100
AcDbEntity
  8
RACCORDO
100
AcDbLine
 62
7
  6
CONTINUOUS
 10
0.7387083896
 20
3.8325798481
 11
-5.1320754597
 21
6.7679717727
  0
LINE
  5
24C
100
AcDbEntity
  8
ASSI
100
AcDbLine
 62
7
  6
CONTINUOUS
 10
0.7387083896
 20
3.8325798481
 11
-5.1320754597
 21
6.7679717727
  0
LINE
  5
24D
100
AcDbEntity
  8
RACCORDO
100
AcDbLine
 62
253
  6
CONTINUOUS
 10
17.4526568503
 20
2.3558238541
 11
13.6394326662
 21
0.5384980862
  0
LINE
  5
24E
100
AcDbEntity
  8
ASSI
100
AcDbLine
 62
253
  6
CONTINUOUS
 10
17.4526568503
 20
2.3558238541
 11
13.6394326662
 21
0.5384980862
  0
LINE
  5
24F
100
AcDbEntity
  8
RACCORDO
100
AcDbLine
 62
253
  6
CONTINUOUS
 10
17.6294874283
 20
2.0509599098
 11
13.8114769328
 21
0.2313530572
  0
LINE
  5
250
100
AcDbEntity
  8
ASSI
100
AcDbLine
 62
253
  6
CONTINUOUS
 10
17.6294874283
 20
2.0509599098
 11
13.8114769328
 21
0.2313530572
  0
LINE
  5
251
100
AcDbEntity
  8
RACCORDO
100
AcDbLine
 62
253
  6
CONTINUOUS
 10
13.1169216553
 20
0.235419632
 11
-17.5264134667
 21
15.557087193
  0
LINE
  5
252
100
AcDbEntity
  8
ASSI
100
AcDbLine
 62
253
  6
CONTINUOUS
 10
13.1169216553
 20
0.235419632
 11
-17.5264134667
 21
15.557087193
  0
LINE
  5
253
100
AcDbEntity
  8
RACCORDO
100
AcDbLine
 62
253
  6
CONTINUOUS
 10
13.292157544
 20
0.5397060251
 11
-17.3511813726
 21
15.8613754834
  0
LINE
  5
254
100
AcDbEntity
  8
ASSI
100
AcDbLine
 62
253
  6
CONTINUOUS
 10
13.292157544
 20
0.5397060251
 11
-17.3511813726
 21
15.8613754834
  0
LINE
  5
255
100
AcDbEntity
  8
DRAFT
100
AcDbLine
 62
7
  6
CONTINUOUS
 10
13.4929127584
 20
2.1917024889
 11
-14.0842517079
 21
15.980284722
  0
LINE
  5
256
100
AcDbEntity
  8
ASSI
100
AcDbLine
 62
7
  6
CONTINUOUS
 10
13.4929127584
 20
2.1917024889
 11
-14.0842517079
 21
15.980284722
  0
LINE
  5
257
100
AcDbEntity
  8
RACCORDO
100
AcDbLine
 62
7
  6
CONTINUOUS
 10
17.4526568503
 20
2.3558238541
 11
15.7998245837
 21
3.1822399874
  0
LINE
  5
258
100
AcDbEntity
  8
ASSI
100
AcDbLine
 62
7
  6
CONTINUOUS
 10
17.4526568503
 20
2.3558238541
 11
15.7998245837
 21
3.1822399874
  0
LINE
  5
259
100
AcDbEntity
  8
RACCORDO
100
AcDbLine
 62
7
  6
CONTINUOUS
 10
-12.1485228461
 20
17.1564137023
 11
-13.8013551126
 21
17.9828298356
  0
LINE
  5
25A
100
AcDbEntity
  8
ASSI
100
AcDbLine
 62
7
  6
CONTINUOUS
 10
-12.1485228461
 20
17.1564137023
 11
-13.8013551126
 21
17.9828298356
  0
LINE
  5
25B
100
AcDbEntity
  8
RACCORDO
100
AcDbLine
 62
7
  6
CONTINUOUS
 10
17.6294874283
 20
2.0509599098
 11
17.6294874283
 21
-8.9909216841
  0
LINE
  5
25C
100
AcDbEntity
  8
ASSI
100
AcDbLine
 62
7
  6
CONTINUOUS
 10
17.6294874283
 20
2.0509599098
 11
17.6294874283
 21
-8.9909216841
  0
LINE
  5
25D
100
AcDbEntity
  8
0
100
AcDbLine
 62
7
  6
CONTINUOUS
 10
17.0781915675
 20
-16.7050934518
 11
17.6294874283
 21
-8.9909216841
  0
LINE
  5
25E
100
AcDbEntity
  8
ASSI
100
AcDbLine
 62
7
  6
CONTINUOUS
 10
17.0781915675
 20
-16.7050934518
 11
17.6294874283
 21
-8.9909216841
  0
LINE
  5
25F
100
AcDbEntity
  8
0
100
AcDbLine
 62
253
  6
CONTINUOUS
 10
14.9401140082
 20
-17.5693839011
 11
17.0781915675
 21
-16.7050934518
  0
LINE
  5
260
100
AcDbEntity
  8
ASSI
100
AcDbLine
 62
253
  6
CONTINUOUS
 10
14.9401140082
 20
-17.5693839011
 11
17.0781915675
 21
-16.7050934518
  0
LINE
  5
261
100
AcDbEntity
  8
0
100
AcDbLine
 62
7
  6
CONTINUOUS
 10
14.7865021896
 20
-17.8501034298
 11
16.9091503996
 21
-16.9920500971
  0
LINE
  5
262
100
AcDbEntity
  8
ASSI
100
AcDbLine
 62
7
  6
CONTINUOUS
 10
16.9091503996
 20
-16.9920500971
 11
14.7862316338
 21
-17.8502125565
  0
ARC
  5
263
100
AcDbEntity
  8
RACCORDO
100
AcDbCircle
 62
253
  6
CONTINUOUS
 10
525.7219549955
 20
15.8864297143
 40
543.2484714993
100
AcDbArc
 50
180.034735372
 51
180.8626768068
  0
ARC
  5
264
100
AcDbEntity
  8
ASSI
100
AcDbCircle
 62
253
  6
CONTINUOUS
 10
525.7219549955
 20
15.8864297143
 40
543.2484714993
100
AcDbArc
 50
180.034735372
 51
180.8626768068
  0
ARC
  5
265
100
AcDbEntity
  8
RACCORDO
100
AcDbCircle
 62
7
  6
CONTINUOUS
 10
525.4970702689
 20
6.610651514
 40
524.4845405879
100
AcDbArc
 50
180.3564737649
 51
180.4887240263
  0
ARC
  5
266
100
AcDbEntity
  8
ASSI
100
AcDbCircle
 62
7
  6
CONTINUOUS
 10
525.4970702689
 20
6.610651514
 40
524.4845405879
100
AcDbArc
 50
180.3564737649
 51
180.4887240263
  0
ARC
  5
267
100
AcDbEntity
  8
SUPERFICI
100
AcDbCircle
 62
7
  6
CONTINUOUS
 10
518.9612157244
 20
9.8272255293
 40
524.3833549227
100
AcDbArc
 50
180.3564593088
 51
180.4887350894
  0
ARC
  5
268
100
AcDbEntity
  8
RACCORDO
100
AcDbCircle
 62
253
  6
CONTINUOUS
 10
518.9829443167
 20
0.5563327397
 40
505.8661111247
100
AcDbArc
 50
180.0363474979
 51
180.9257291277
  0
ARC
  5
269
100
AcDbEntity
  8
ASSI
100
AcDbCircle
 62
253
  6
CONTINUOUS
 10
518.9829443167
 20
0.5563327397
 40
505.8661111247
100
AcDbArc
 50
180.0363474979
 51
180.9257291277
  0
ARC
  5
26A
100
AcDbEntity
  8
RACCORDO
100
AcDbCircle
 62
253
  6
CONTINUOUS
 10
519.1070729652
 20
0.5496706283
 40
505.2956834954
100
AcDbArc
 50
180.0360942211
 51
180.9257767921
  0
ARC
  5
26B
100
AcDbEntity
  8
ASSI
100
AcDbCircle
 62
253
  6
CONTINUOUS
 10
519.1070729652
 20
0.5496706283
 40
505.2956834954
100
AcDbArc
 50
180.0360942211
 51
180.9257767921
  0
ARC
  5
26C
100
AcDbEntity
  8
RACCORDO
100
AcDbCircle
 62
7
  6
CONTINUOUS
 10
-4.9618209
 20
5.3581774115
 40
0.4412582556
100
AcDbArc
 50
180.5072885362
 51
183.4774390387
  0
ARC
  5
26D
100
AcDbEntity
  8
ASSI
100
AcDbCircle
 62
7
  6
CONTINUOUS
 10
-4.9618209
 20
5.3581774115
 40
0.4412582556
100
AcDbArc
 50
180.5072885362
 51
183.4774390387
  0
ARC
  5
26E
100
AcDbEntity
  8
SUPERFICI
100
AcDbCircle
 62
7
  6
CONTINUOUS
 10
0.5816059871
 20
3.34463097
 40
0.4410841978
100
AcDbArc
 50
0.3750339476
 51
3.3435235644
  0
ARC
  5
26F
100
AcDbEntity
  8
SUPERFICI
100
AcDbCircle
 62
7
  6
CONTINUOUS
 10
0.624228464
 20
2.1332957751
 40
0.407397637
100
AcDbArc
 50
357.3798448687
 51
0.5117896884
  0
ARC
  5
270
100
AcDbEntity
  8
RACCORDO
100
AcDbCircle
 62
7
  6
CONTINUOUS
 10
-5.0059110365
 20
6.5675425437
 40
0.4060888367
100
AcDbArc
 50
177.2398448364
 51
180.3793404826
  0
ARC
  5
271
100
AcDbEntity
  8
ASSI
100
AcDbCircle
 62
7
  6
CONTINUOUS
 10
-5.0059110365
 20
6.5675425437
 40
0.4060888367
100
AcDbArc
 50
177.2398448364
 51
180.3793404826
  0
ARC
  5
272
100
AcDbEntity
  8
0
100
AcDbCircle
 62
253
  6
CONTINUOUS
 10
14.3372007727
 20
-17.4877968984
 40
0.3889886042
100
AcDbArc
 50
234.9479967939
 51
243.4306925951
  0
ARC
  5
273
100
AcDbEntity
  8
0
100
AcDbCircle
 62
253
  6
CONTINUOUS
 10
-16.3763664259
 20
-2.1532469674
 40
0.3691270765
100
AcDbArc
 50
234.6967841757
 51
237.0375563961
  0
ARC
  5
274
100
AcDbEntity
  8
0
100
AcDbCircle
 62
253
  6
CONTINUOUS
 10
-16.3796144536
 20
-2.1584770566
 40
0.3629716916
100
AcDbArc
 50
237.0185430155
 51
243.3832306154
  0
ARC
  5
275
100
AcDbEntity
  8
ASSI
100
AcDbCircle
 62
253
  6
CONTINUOUS
 10
-16.3796212373
 20
-2.1584886496
 40
0.362958274
100
AcDbArc
 50
237.0184450861
 51
243.4355573046
  0
ARC
  5
276
100
AcDbEntity
  8
RACCORDO
100
AcDbCircle
 62
7
  6
CONTINUOUS
 10
-4.9652983984
 20
5.1760167813
 40
0.3422866913
100
AcDbArc
 50
239.8947612401
 51
243.407963524
  0
ARC
  5
277
100
AcDbEntity
  8
ASSI
100
AcDbCircle
 62
7
  6
CONTINUOUS
 10
-4.9652983984
 20
5.1760167813
 40
0.3422866913
100
AcDbArc
 50
239.8947612401
 51
243.407963524
  0
ARC
  5
278
100
AcDbEntity
  8
SUPERFICI
100
AcDbCircle
 62
7
  6
CONTINUOUS
 10
0.5858130737
 20
3.5271495966
 40
0.3415620238
100
AcDbArc
 50
59.8824320464
 51
63.4079136789
  0
ARC
  5
279
100
AcDbEntity
  8
RACCORDO
100
AcDbCircle
 62
7
  6
CONTINUOUS
 10
0.8922374289
 20
2.2118859265
 40
0.3106571249
100
AcDbArc
 50
243.4032006113
 51
247.1501180889
  0
ARC
  5
27A
100
AcDbEntity
  8
ASSI
100
AcDbCircle
 62
7
  6
CONTINUOUS
 10
0.8922374289
 20
2.2118859265
 40
0.3106571249
100
AcDbArc
 50
243.4032006113
 51
247.1501180889
  0
ARC
  5
27B
100
AcDbEntity
  8
SUPERFICI
100
AcDbCircle
 62
7
  6
CONTINUOUS
 10
-5.2709403115
 20
6.4906238086
 40
0.3101698571
100
AcDbArc
 50
63.4034129207
 51
67.1620608765
  0
ARC
  5
27C
100
AcDbEntity
  8
0
100
AcDbCircle
 62
253
  6
CONTINUOUS
 10
-16.7634391353
 20
-1.8713117751
 40
0.1738921633
100
AcDbArc
 50
187.2317806832
 51
189.2872379919
  0
ARC
  5
27D
100
AcDbEntity
  8
SUPERFICI
100
AcDbCircle
 62
7
  6
CONTINUOUS
 10
0.8642882216
 20
2.0553621179
 40
0.1487090013
100
AcDbArc
 50
287.8018857967
 51
290.6464901583
  0
SPLINE
  5
27E
100
AcDbEntity
  8
SUPERFICI
100
AcDbSpline
 62
7
  6
CONTINUOUS
 70
0
 71
3
 72
16
 73
12
 74
10
 42
0.0000001
 43
0.0000001
 44
0.0000000001
 12
-0.1851281172
 22
-0.1320498313
 32
0.0
 13
0.0014134633
 23
-0.2271576449
 33
0.0
 40
0.0
 40
0.0
 40
0.0
 40
0.0
 40
0.0055110613
 40
0.1116735965
 40
0.221590849
 40
0.3361220045
 40
0.4556415103
 40
0.5812985291
 40
0.7142391868
 40
0.8541405301
 40
1.0
 40
1.0
 40
1.0
 40
1.0
 10
-5.3300030967
 20
6.7677729635
 30
0.0
 10
-5.3303431808
 20
6.7675303852
 30
0.0
 10
-5.337213867
 20
6.7625861019
 30
0.0
 10
-5.3500084545
 20
6.7516256456
 30
0.0
 10
-5.3663846388
 20
6.7325704631
 30
0.0
 10
-5.3804343621
 20
6.710544053
 30
0.0
 10
-5.392022909
 20
6.6858193014
 30
0.0
 10
-5.4010865019
 20
6.6585987273
 30
0.0
 10
-5.4075554225
 20
6.6290730737
 30
0.0
 10
-5.4113499791
 20
6.5975538433
 30
0.0
 10
-5.4120596952
 20
6.575898319
 30
0.0
 10
-5.4119909729
 20
6.5648539544
 30
0.0
 11
-5.3300030967
 21
6.7677729635
 31
0.0
 11
-5.3310202843
 21
6.7670409762
 31
0.0
 11
-5.3493636113
 21
6.7513850331
 31
0.0
 11
-5.3656884828
 21
6.7324918886
 31
0.0
 11
-5.3797469691
 21
6.7106001075
 31
0.0
 11
-5.3913447222
 21
6.686051571
 31
0.0
 11
-5.4004394912
 21
6.658994706
 31
0.0
 11
-5.4069779598
 21
6.6295119596
 31
0.0
 11
-5.4108453671
 21
6.5979678788
 31
0.0
 11
-5.4119909729
 21
6.5648539544
 31
0.0
  0
SPLINE
  5
27F
100
AcDbEntity
  8
SUPERFICI
100
AcDbSpline
 62
7
  6
CONTINUOUS
 70
0
 71
3
 72
14
 73
10
 74
8
 42
0.0000001
 43
0.0000001
 44
0.0000000001
 12
0.1447349143
 22
-0.0723674572
 32
0.0
 13
0.154230483
 23
0.0495274309
 33
0.0
 40
0.0
 40
0.0
 40
0.0
 40
0.0
 40
0.1867059931
 40
0.3647459152
 40
0.5335907996
 40
0.6935574546
 40
0.8470006131
 40
0.9964630539
 40
1.0
 40
1.0
 40
1.0
 40
1.0
 10
0.753153395
 20
1.9341027723
 30
0.0
 10
0.7621610203
 20
1.9295989596
 30
0.0
 10
0.7801795731
 20
1.9216053033
 30
0.0
 10
0.8076199728
 20
1.9127356116
 30
0.0
 10
0.8345036136
 20
1.9073977136
 30
0.0
 10
0.8605356408
 20
1.9056446471
 30
0.0
 10
0.8855243225
 20
1.9074870438
 30
0.0
 10
0.9017001501
 20
1.9112042468
 30
0.0
 10
0.9095706903
 20
1.9137150112
 30
0.0
 10
0.9097525253
 20
1.9137734031
 30
0.0
 11
0.753153395
 21
1.9341027723
 31
0.0
 11
0.7808012716
 21
1.9219212412
 31
0.0
 11
0.808240373
 21
1.9131393741
 31
0.0
 11
0.8350559633
 21
1.9079021384
 31
0.0
 11
0.8608882923
 21
1.906242725
 31
0.0
 11
0.8856459278
 21
1.9081363729
 31
0.0
 11
0.9092066878
 21
1.9135992765
 31
0.0
 11
0.9097525253
 21
1.9137734031
 31
0.0
  0
SPLINE
  5
280
100
AcDbEntity
  8
SUPERFICI
100
AcDbSpline
 62
7
  6
CONTINUOUS
 70
0
 71
3
 72
23
 73
19
 74
17
 42
0.0000001
 43
0.0000001
 44
0.0000000001
 12
0.0050023624
 22
-0.5863939961
 32
0.0
 13
0.5245058187
 23
-0.2622529093
 33
0.0
 40
0.0
 40
0.0
 40
0.0
 40
0.0
 40
0.0588746881
 40
0.1200732194
 40
0.182993635
 40
0.2470407248
 40
0.312222504
 40
0.3784863542
 40
0.4451159188
 40
0.5113866937
 40
0.57724911
 40
0.6426682154
 40
0.706973736
 40
0.7694897191
 40
0.8301887206
 40
0.8891436894
 40
0.945904789
 40
1.0
 40
1.0
 40
1.0
 40
1.0
 10
-5.4030618605
 20
5.3542706259
 30
0.0
 10
-5.4029636896
 20
5.3427627047
 30
0.0
 10
-5.4018107203
 20
5.3192926054
 30
0.0
 10
-5.3974166382
 20
5.2837644895
 30
0.0
 10
-5.3903758408
 20
5.2476345586
 30
0.0
 10
-5.3807842551
 20
5.2112938054
 30
0.0
 10
-5.3687270061
 20
5.1750069147
 30
0.0
 10
-5.3542902831
 20
5.1390554516
 30
0.0
 10
-5.337629845
 20
5.1038437932
 30
0.0
 10
-5.3189412226
 20
5.0697551825
 30
0.0
 10
-5.2983769378
 20
5.0370428485
 30
0.0
 10
-5.2760822796
 20
5.0059545252
 30
0.0
 10
-5.2522899254
 20
4.976835111
 30
0.0
 10
-5.2272723977
 20
4.9500075092
 30
0.0
 10
-5.2012325602
 20
4.9256755658
 30
0.0
 10
-5.1743487203
 20
4.9040242599
 30
0.0
 10
-5.1468962082
 20
4.8853022
 30
0.0
 10
-5.1279755857
 20
4.8746672626
 30
0.0
 10
-5.1185178347
 20
4.8699383871
 30
0.0
 11
-5.4030618605
 21
5.3542706259
 31
0.0
 11
-5.401417052
 21
5.3197848086
 31
0.0
 11
-5.3970534678
 21
5.2841633229
 31
0.0
 11
-5.3900282557
 21
5.2479407935
 31
0.0
 11
-5.3804676424
 21
5.2116198254
 31
0.0
 11
-5.3684314447
 21
5.1753407249
 31
0.0
 11
-5.353961198
 21
5.1392773524
 31
0.0
 11
-5.3372533246
 21
5.1039571754
 31
0.0
 11
-5.3185681013
 21
5.0698817752
 31
0.0
 11
-5.2980039018
 21
5.0371888244
 31
0.0
 11
-5.2756328635
 21
5.0060241249
 31
0.0
 11
-5.2517538326
 21
4.9768382273
 31
0.0
 11
-5.2267276984
 21
4.9500488175
 31
0.0
 11
-5.2006923683
 21
4.92577634
 31
0.0
 11
-5.1737358062
 21
4.9041297769
 31
0.0
 11
-5.1462033067
 21
4.8854243967
 31
0.0
 11
-5.1185178347
 21
4.8699383871
 31
0.0
  0
SPLINE
  5
281
100
AcDbEntity
  8
SUPERFICI
100
AcDbSpline
 62
7
  6
CONTINUOUS
 70
0
 71
3
 72
15
 73
11
 74
9
 42
0.0000001
 43
0.0000001
 44
0.0000000001
 12
-0.1732073616
 22
0.0728301409
 32
0.0
 13
-0.1530469811
 23
-0.109166713
 33
0.0
 40
0.0
 40
0.0
 40
0.0
 40
0.0
 40
0.0528334565
 40
0.2065929842
 40
0.3525055554
 40
0.4908344317
 40
0.6236048922
 40
0.7529890011
 40
0.8801971703
 40
1.0
 40
1.0
 40
1.0
 40
1.0
 10
-5.1505553488
 20
6.7764783189
 30
0.0
 10
-5.15360573
 20
6.7777609416
 30
0.0
 10
-5.1656182919
 20
6.7825757406
 30
0.0
 10
-5.1866597091
 20
6.7893665648
 30
0.0
 10
-5.2136247102
 20
6.79470251
 30
0.0
 10
-5.2397499412
 20
6.7964432386
 30
0.0
 10
-5.2648400806
 20
6.7945782273
 30
0.0
 10
-5.2886903617
 20
6.7890901749
 30
0.0
 10
-5.3106121765
 20
6.7801747976
 30
0.0
 10
-5.3238912762
 20
6.7721324572
 30
0.0
 10
-5.3300030967
 20
6.7677729635
 30
0.0
 11
-5.1505553488
 21
6.7764783189
 31
0.0
 11
-5.1597707167
 21
6.7801689819
 31
0.0
 11
-5.1872758501
 21
6.7889590167
 31
0.0
 11
-5.2141728497
 21
6.7941950613
 31
0.0
 11
-5.2400982379
 21
6.7958431133
 31
0.0
 11
-5.2649584325
 21
6.7939278162
 31
0.0
 11
-5.2886270677
 21
6.7884337651
 31
0.0
 11
-5.3107498314
 21
6.7794181531
 31
0.0
 11
-5.3300030967
 21
6.7677729635
 31
0.0
  0
SPLINE
  5
282
100
AcDbEntity
  8
SUPERFICI
100
AcDbSpline
 62
7
  6
CONTINUOUS
 70
0
 71
3
 72
17
 73
13
 74
11
 42
0.0000001
 43
0.0000001
 44
0.0000000001
 12
0.2273417316
 22
0.0856693656
 32
0.0
 13
0.0111970305
 23
0.2425098177
 33
0.0
 40
0.0
 40
0.0
 40
0.0
 40
0.0
 40
0.0652126785
 40
0.1626072031
 40
0.2615230591
 40
0.3639946412
 40
0.4708459654
 40
0.5824429105
 40
0.6998578759
 40
0.8241796903
 40
0.9551183871
 40
1.0
 40
1.0
 40
1.0
 40
1.0
 10
0.9167231727
 20
1.9162041394
 30
0.0
 10
0.9216650271
 20
1.9180663824
 30
0.0
 10
0.9337395353
 20
1.9233684535
 30
0.0
 10
0.9518578433
 20
1.9344683274
 30
0.0
 10
0.9702648741
 20
1.9502842392
 30
0.0
 10
0.9865373563
 20
1.9692972522
 30
0.0
 10
1.0004873178
 20
1.9912861124
 30
0.0
 10
1.0119803166
 20
2.0159800501
 30
0.0
 10
1.0209527934
 20
2.0431790028
 30
0.0
 10
1.0273349378
 20
2.0726949309
 30
0.0
 10
1.0301778196
 20
2.096839914
 30
0.0
 10
1.0310326737
 20
2.1110437607
 30
0.0
 10
1.0312001873
 20
2.114671838
 30
0.0
 11
0.9167231727
 21
1.9162041394
 31
0.0
 11
0.9312197198
 21
1.9225763699
 31
0.0
 11
0.9513816841
 21
1.934910702
 31
0.0
 11
0.9696175384
 21
1.9505210428
 31
0.0
 11
0.9858384584
 21
1.9693699913
 31
0.0
 11
0.999797612
 21
1.9912225666
 31
0.0
 11
1.0113012889
 21
2.0157401348
 31
0.0
 11
1.0203058451
 21
2.0427740477
 31
0.0
 11
1.026758211
 21
2.0722462626
 31
0.0
 11
1.0305434239
 21
2.1037960415
 31
0.0
 11
1.0312001873
 21
2.114671838
 31
0.0
  0
SPLINE
  5
283
100
AcDbEntity
  8
SUPERFICI
100
AcDbSpline
 62
7
  6
CONTINUOUS
 70
0
 71
3
 72
23
 73
19
 74
17
 42
0.0000001
 43
0.0000001
 44
0.0000000001
 12
-0.0315079352
 22
0.5422869819
 32
0.0
 13
-0.4700604437
 23
0.2723853472
 33
0.0
 40
0.0
 40
0.0
 40
0.0
 40
0.0
 40
0.0214483204
 40
0.0875044768
 40
0.1554419972
 40
0.2246157097
 40
0.2950273187
 40
0.366626824
 40
0.4386400292
 40
0.5102828191
 40
0.5814928787
 40
0.6522353554
 40
0.7217819344
 40
0.7893981303
 40
0.8550476592
 40
0.9188089648
 40
0.9801943443
 40
1.0
 40
1.0
 40
1.0
 40
1.0
 10
1.0219393719
 20
3.3703560503
 30
0.0
 10
1.0217141078
 20
3.3742330986
 30
0.0
 10
1.0205938224
 20
3.3900394013
 30
0.0
 10
1.0172032861
 20
3.4179930205
 30
0.0
 10
1.0102488303
 20
3.4541328788
 30
0.0
 10
1.0007413709
 20
3.4904989404
 30
0.0
 10
0.9887637204
 20
3.5268252549
 30
0.0
 10
0.9743996956
 20
3.5628290855
 30
0.0
 10
0.9578019756
 20
3.5981052899
 30
0.0
 10
0.9391644159
 20
3.6322669794
 30
0.0
 10
0.9186383715
 20
3.6650578866
 30
0.0
 10
0.8963686284
 20
3.6962267614
 30
0.0
 10
0.8725871614
 20
3.72542559
 30
0.0
 10
0.8475675795
 20
3.7523270928
 30
0.0
 10
0.8215143385
 20
3.7767240831
 30
0.0
 10
0.794607685
 20
3.7984289475
 30
0.0
 10
0.7729152342
 20
3.8132382344
 30
0.0
 10
0.7603039798
 20
3.8208016732
 30
0.0
 10
0.7572006947
 20
3.82259993
 30
0.0
 11
1.0219393719
 21
3.3703560503
 31
0.0
 11
1.0211175534
 21
3.3819774882
 31
0.0
 11
1.0168399405
 21
3.4175911579
 31
0.0
 11
1.0099012037
 21
3.4538240007
 31
0.0
 11
1.0004243484
 21
3.4901713948
 31
0.0
 11
0.9884681015
 21
3.5264886481
 31
0.0
 11
0.9740707414
 21
3.5626044803
 31
0.0
 11
0.9574256572
 21
3.597989468
 31
0.0
 11
0.9387906684
 21
3.6321391786
 31
0.0
 11
0.9182649027
 21
3.6649100608
 31
0.0
 11
0.8959183932
 21
3.6961558533
 31
0.0
 11
0.872049794
 21
3.7254216287
 31
0.0
 11
0.8470207107
 21
3.7522854793
 31
0.0
 11
0.8209718763
 21
3.776622652
 31
0.0
 11
0.793992294
 21
3.7983226283
 31
0.0
 11
0.7664293098
 21
3.8170681055
 31
0.0
 11
0.7572006947
 21
3.82259993
 31
0.0
  0
LINE
  5
284
100
AcDbEntity
  8
SUPERFICI
100
AcDbLine
 62
7
  6
CONTINUOUS
 10
1.0316098483
 20
2.1369347715
 11
1.0301113352
 21
2.3161925336
  0
LINE
  5
285
100
AcDbEntity
  8
SUPERFICI
100
AcDbLine
 62
7
  6
CONTINUOUS
 10
1.0301113352
 20
2.3161925336
 11
1.029746258
 21
2.361011388
  0
LINE
  5
286
100
AcDbEntity
  8
SUPERFICI
100
AcDbLine
 62
7
  6
CONTINUOUS
 10
1.029746258
 20
2.361011388
 11
1.0283241523
 21
2.5403044208
  0
LINE
  5
287
100
AcDbEntity
  8
SUPERFICI
100
AcDbLine
 62
7
  6
CONTINUOUS
 10
1.0283241523
 20
2.5403044208
 11
1.0269631179
 21
2.719632553
  0
LINE
  5
288
100
AcDbEntity
  8
SUPERFICI
100
AcDbLine
 62
7
  6
CONTINUOUS
 10
1.0269631179
 20
2.719632553
 11
1.0266324101
 21
2.7644689897
  0
LINE
  5
289
100
AcDbEntity
  8
SUPERFICI
100
AcDbLine
 62
7
  6
CONTINUOUS
 10
1.0266324101
 20
2.7644689897
 11
1.0253477807
 21
2.9438323056
  0
LINE
  5
28A
100
AcDbEntity
  8
SUPERFICI
100
AcDbLine
 62
7
  6
CONTINUOUS
 10
1.0253477807
 20
2.9438323056
 11
1.024124226
 21
3.1232306635
  0
LINE
  5
28B
100
AcDbEntity
  8
SUPERFICI
100
AcDbLine
 62
7
  6
CONTINUOUS
 10
1.024124226
 20
3.1232306635
 11
1.0238278879
 21
3.1680846455
  0
LINE
  5
28C
100
AcDbEntity
  8
SUPERFICI
100
AcDbLine
 62
7
  6
CONTINUOUS
 10
1.0238278879
 20
3.1680846455
 11
1.0226807359
 21
3.3475181001
  0
SPLINE
  5
28D
100
AcDbEntity
  8
RACCORDO
100
AcDbSpline
 62
7
  6
CONTINUOUS
 70
0
 71
3
 72
15
 73
11
 74
9
 42
0.0000001
 43
0.0000001
 44
0.0000000001
 12
0.1696235192
 22
0.1209906019
 32
0.0
 13
0.18616337
 23
-0.093081685
 33
0.0
 40
0.0
 40
0.0
 40
0.0
 40
0.0
 40
0.1081411329
 40
0.2229400458
 40
0.3397312535
 40
0.459601248
 40
0.584464367
 40
0.7161066524
 40
0.8547623222
 40
1.0
 40
1.0
 40
1.0
 40
1.0
 10
-5.3300030952
 20
6.7677729648
 30
0.0
 10
-5.3238886687
 20
6.7721343184
 30
0.0
 10
-5.3106052044
 20
6.7801787122
 30
0.0
 10
-5.2886749296
 20
6.7890954603
 30
0.0
 10
-5.2648138351
 20
6.794582804
 30
0.0
 10
-5.239710876
 20
6.7964438683
 30
0.0
 10
-5.2135779815
 20
6.7946963453
 30
0.0
 10
-5.186616705
 20
6.7893548559
 30
0.0
 10
-5.1591279317
 20
6.7804785436
 30
0.0
 10
-5.1410881049
 20
6.7724780953
 30
0.0
 10
-5.1320754597
 20
6.7679717727
 30
0.0
 11
-5.3300030952
 21
6.7677729648
 31
0.0
 11
-5.3107412581
 21
6.7794224837
 31
0.0
 11
-5.2886134996
 21
6.7884380641
 31
0.0
 11
-5.2649338046
 21
6.7939315655
 31
0.0
 11
-5.2400577789
 21
6.7958433219
 31
0.0
 11
-5.2141218901
 21
6.7941884326
 31
0.0
 11
-5.1872283141
 21
6.7889467601
 31
0.0
 11
-5.1597399805
 21
6.7801572863
 31
0.0
 11
-5.1320754597
 21
6.7679717727
 31
0.0
  0
SPLINE
  5
28E
100
AcDbEntity
  8
RACCORDO
100
AcDbSpline
 62
7
  6
CONTINUOUS
 70
0
 71
3
 72
17
 73
13
 74
11
 42
0.0000001
 43
0.0000001
 44
0.0000000001
 12
0.002322982
 22
-0.2723078731
 32
0.0
 13
-0.2595482812
 23
-0.0833478641
 33
0.0
 40
0.0
 40
0.0
 40
0.0
 40
0.0
 40
0.1215910421
 40
0.2382115935
 40
0.3490473415
 40
0.4537496329
 40
0.5532322124
 40
0.6484805119
 40
0.7398428647
 40
0.8280303749
 40
0.9148420727
 40
1.0
 40
1.0
 40
1.0
 40
1.0
 10
1.0316098483
 20
2.1369347714
 30
0.0
 10
1.0317039996
 20
2.1258980387
 30
0.0
 10
1.0310484207
 20
2.1042559809
 30
0.0
 10
1.0273433218
 20
2.0727469285
 30
0.0
 10
1.0209659073
 20
2.0432257703
 30
0.0
 10
1.0119937612
 20
2.016012886
 30
0.0
 10
1.0004991021
 20
1.9913071217
 30
0.0
 10
0.9865464656
 20
1.9693088994
 30
0.0
 10
0.9702687301
 20
1.950287311
 30
0.0
 10
0.9518547188
 20
1.9344655369
 30
0.0
 10
0.9316290119
 20
1.9220761929
 30
0.0
 10
0.9171200573
 20
1.9161393145
 30
0.0
 10
0.9097525261
 20
1.9137734041
 30
0.0
 11
1.0316098483
 21
2.1369347714
 31
0.0
 11
1.0305467439
 21
2.1038404395
 31
0.0
 11
1.0267685905
 21
2.0723081294
 31
0.0
 11
1.0203191629
 21
2.0428226939
 31
0.0
 11
1.0113132008
 21
2.015770085
 31
0.0
 11
0.9998089395
 21
1.991243212
 31
0.0
 11
0.9858481508
 21
1.9693830624
 31
0.0
 11
0.9696205947
 21
1.9505240969
 31
0.0
 11
0.9513768612
 21
1.9349071922
 31
0.0
 11
0.9312101077
 21
1.9225715082
 31
0.0
 11
0.9097525261
 21
1.9137734041
 31
0.0
  0
SPLINE
  5
28F
100
AcDbEntity
  8
RACCORDO
100
AcDbSpline
 62
7
  6
CONTINUOUS
 70
0
 71
3
 72
23
 73
19
 74
17
 42
0.0000001
 43
0.0000001
 44
0.0000000001
 12
0.5249182302
 22
-0.2624591151
 32
0.0
 13
0.0036517027
 23
-0.5868650616
 33
0.0
 40
0.0
 40
0.0
 40
0.0
 40
0.0
 40
0.0540534394
 40
0.1108095711
 40
0.1698178519
 40
0.2305904547
 40
0.293167576
 40
0.3575314641
 40
0.4230178089
 40
0.4889353731
 40
0.5552387648
 40
0.6218827833
 40
0.6881587177
 40
0.7533442148
 40
0.8173672924
 40
0.8802128772
 40
0.9412902139
 40
1.0
 40
1.0
 40
1.0
 40
1.0
 10
0.7387083896
 20
3.8325798481
 30
0.0
 10
0.7481662682
 20
3.8278509088
 30
0.0
 10
0.7670928558
 20
3.8172101245
 30
0.0
 10
0.7945617193
 20
3.7984629551
 30
0.0
 10
0.8214713957
 20
3.7767619273
 30
0.0
 10
0.8475350879
 20
3.752360179
 30
0.0
 10
0.8725643433
 20
3.7254521292
 30
0.0
 10
0.8963546951
 20
3.6962455053
 30
0.0
 10
0.9186338138
 20
3.6650653451
 30
0.0
 10
0.939167602
 20
3.632262039
 30
0.0
 10
0.9578097788
 20
3.598090263
 30
0.0
 10
0.9744109099
 20
3.5628038618
 30
0.0
 10
0.9887786084
 20
3.5267855023
 30
0.0
 10
1.0007583073
 20
3.4904429012
 30
0.0
 10
1.0102635948
 20
3.4540681346
 30
0.0
 10
1.0172120999
 20
3.4179347335
 30
0.0
 10
1.0215137612
 20
3.3824381712
 30
0.0
 10
1.0226092723
 20
3.3590030076
 30
0.0
 10
1.0226807359
 20
3.3475181002
 30
0.0
 11
0.7387083896
 21
3.8325798481
 31
0.0
 11
0.766392656
 21
3.8170908068
 31
0.0
 11
0.7939379717
 21
3.7983629102
 31
0.0
 11
0.8209261575
 21
3.7766623545
 31
0.0
 11
0.8469900787
 21
3.752316182
 31
0.0
 11
0.8720267327
 21
3.7254480911
 31
0.0
 11
0.8959023373
 21
3.6961768763
 31
0.0
 11
0.9182602012
 21
3.6649170833
 31
0.0
 11
0.9387950708
 21
3.6321316554
 31
0.0
 11
0.9574335021
 21
3.5979740116
 31
0.0
 11
0.9740805829
 21
3.5625818113
 31
0.0
 11
0.9884820183
 21
3.526450376
 31
0.0
 11
1.0004418388
 21
3.4901120859
 31
0.0
 11
1.0099173036
 21
3.4537528561
 31
0.0
 11
1.0168498537
 21
3.417527653
 31
0.0
 11
1.0211208237
 21
3.3819381601
 31
0.0
 11
1.0226807359
 21
3.3475181002
 31
0.0
  0
SPLINE
  5
290
100
AcDbEntity
  8
RACCORDO
100
AcDbSpline
 62
253
  6
CONTINUOUS
 70
0
 71
3
 72
14
 73
10
 74
8
 42
0.0000001
 43
0.0000001
 44
0.0000000001
 12
0.1079759423
 22
0.059107575
 32
0.0
 13
0.1114318115
 23
-0.0519160149
 33
0.0
 40
0.0
 40
0.0
 40
0.0
 40
0.0
 40
0.0441160084
 40
0.1884254707
 40
0.3362174592
 40
0.4897860629
 40
0.6509086686
 40
0.8207758232
 40
1.0
 40
1.0
 40
1.0
 40
1.0
 10
-17.4757192113
 20
16.0404165053
 30
0.0
 10
-17.4741313888
 20
16.0412857021
 30
0.0
 10
-17.4672480383
 20
16.0448123117
 30
0.0
 10
-17.4542662509
 20
16.0496379402
 30
0.0
 10
-17.4362203109
 20
16.0529600424
 30
0.0
 10
-17.4171958997
 20
16.0533275854
 30
0.0
 10
-17.3974399903
 20
16.050757716
 30
0.0
 10
-17.3772009894
 20
16.0453028658
 30
0.0
 10
-17.3639012827
 20
16.0399380499
 30
0.0
 10
-17.3572441911
 20
16.0368365148
 30
0.0
 11
-17.4757192113
 21
16.0404165053
 31
0.0
 11
-17.4708867064
 21
16.0428920005
 31
0.0
 11
-17.454266652
 21
16.0490961297
 31
0.0
 11
-17.4364075643
 21
16.0524343082
 31
0.0
 11
-17.4175339446
 21
16.0528645726
 31
0.0
 11
-17.3978830477
 21
16.0503815143
 31
0.0
 11
-17.3777018995
 21
16.0450163471
 31
0.0
 11
-17.3572441911
 21
16.0368365148
 31
0.0
  0
SPLINE
  5
291
100
AcDbEntity
  8
0
100
AcDbSpline
 62
253
  6
CONTINUOUS
 70
0
 71
3
 72
16
 73
12
 74
10
 42
0.0000001
 43
0.0000001
 44
0.0000000001
 12
0.0036161431
 22
-0.2418106431
 32
0.0
 13
0.2159330074
 23
-0.1081392174
 33
0.0
 40
0.0
 40
0.0
 40
0.0
 40
0.0
 40
0.0103930778
 40
0.112579259
 40
0.2175952946
 40
0.3277075654
 40
0.4447150983
 40
0.5698908686
 40
0.7040051974
 40
0.8473880294
 40
1.0
 40
1.0
 40
1.0
 40
1.0
 10
-17.611380947
 20
7.8847159058
 30
0.0
 10
-17.6113684194
 20
7.8838781869
 30
0.0
 10
-17.6111453089
 20
7.874805291
 30
0.0
 10
-17.6088760533
 20
7.8573329098
 30
0.0
 10
-17.6009792743
 20
7.8329002624
 30
0.0
 10
-17.5885342175
 20
7.8091073078
 30
0.0
 10
-17.5717023401
 20
7.7861657655
 30
0.0
 10
-17.5506664446
 20
7.7642634202
 30
0.0
 10
-17.5256298097
 20
7.7435767337
 30
0.0
 10
-17.4968250332
 20
7.724277593
 30
0.0
 10
-17.4759123355
 20
7.7127919322
 30
0.0
 10
-17.4649276816
 20
7.7072908192
 30
0.0
 11
-17.611380947
 21
7.8847159058
 31
0.0
 11
-17.6113191206
 21
7.8822032876
 31
0.0
 11
-17.6081769756
 21
7.8577264143
 31
0.0
 11
-17.6004610187
 21
7.8335675414
 31
0.0
 11
-17.5882422959
 21
7.8099491159
 31
0.0
 11
-17.5716333134
 21
7.7870886089
 31
0.0
 11
-17.5507870013
 21
7.7651965124
 31
0.0
 11
-17.5258953058
 21
7.7444744018
 31
0.0
 11
-17.4971874216
 21
7.7251130798
 31
0.0
 11
-17.4649276816
 21
7.7072908192
 31
0.0
  0
SPLINE
  5
292
100
AcDbEntity
  8
0
100
AcDbSpline
 62
253
  6
CONTINUOUS
 70
0
 71
3
 72
15
 73
11
 74
9
 42
0.0000001
 43
0.0000001
 44
0.0000000001
 12
0.0375366471
 22
-0.2295377124
 32
0.0
 13
0.2073415345
 23
-0.1048162105
 33
0.0
 40
0.0
 40
0.0
 40
0.0
 40
0.0
 40
0.029769831
 40
0.1523888438
 40
0.2779973496
 40
0.4083654372
 40
0.5449145327
 40
0.6886722944
 40
0.8402752851
 40
1.0
 40
1.0
 40
1.0
 40
1.0
 10
-16.9350518658
 20
-1.899375189
 30
0.0
 10
-16.9346793792
 20
-1.9016529553
 30
0.0
 10
-16.9325403797
 20
-1.9132744472
 30
0.0
 10
-16.9264789501
 20
-1.9340301093
 30
0.0
 10
-16.9138810584
 20
-1.9606328989
 30
0.0
 10
-16.8968981223
 20
-1.9859683451
 30
0.0
 10
-16.8757147844
 20
-2.0098093338
 30
0.0
 10
-16.8505431578
 20
-2.0319517476
 30
0.0
 10
-16.8216261827
 20
-2.0522066924
 30
0.0
 10
-16.8005682633
 20
-2.0640338018
 30
0.0
 10
-16.7895290741
 20
-2.0696143816
 30
0.0
 11
-16.9350518658
 21
-1.899375189
 31
0.0
 11
-16.9337984804
 21
-1.9061842651
 31
0.0
 11
-16.9258492962
 21
-1.9335407398
 31
0.0
 11
-16.9134236575
 21
-1.9599457518
 31
0.0
 11
-16.8966360328
 21
-1.9851560505
 31
0.0
 11
-16.8756410741
 21
-2.0089393919
 31
0.0
 11
-16.8506321931
 21
-2.0310766769
 31
0.0
 11
-16.8218397785
 21
-2.0513639709
 31
0.0
 11
-16.7895290741
 21
-2.0696143816
 31
0.0
  0
LINE
  5
293
100
AcDbEntity
  8
0
100
AcDbLine
 62
253
  6
CONTINUOUS
 10
-16.5419376644
 20
-2.4831301229
 11
-16.5422333106
 21
-2.482982151
  0
SPLINE
  5
294
100
AcDbEntity
  8
0
100
AcDbSpline
 62
253
  6
CONTINUOUS
 70
0
 71
3
 72
15
 73
11
 74
9
 42
0.0000001
 43
0.0000001
 44
0.0000000001
 12
-0.3642488031
 22
0.2579223609
 32
0.0
 13
-0.0570769293
 23
0.44233646
 33
0.0
 40
0.0
 40
0.0
 40
0.0
 40
0.0
 40
0.1104540836
 40
0.223556298
 40
0.3402911134
 40
0.4614654145
 40
0.5876925787
 40
0.7193943431
 40
0.856805535
 40
1.0
 40
1.0
 40
1.0
 40
1.0
 10
-16.5896862297
 20
-2.4544934776
 30
0.0
 10
-16.6030971523
 20
-2.4449972849
 30
0.0
 10
-16.6289576219
 20
-2.4239720334
 30
0.0
 10
-16.6639415483
 20
-2.387249098
 30
0.0
 10
-16.6952255745
 20
-2.3453360959
 30
0.0
 10
-16.7226193092
 20
-2.298522535
 30
0.0
 10
-16.7459607773
 20
-2.247121933
 30
0.0
 10
-16.7651136973
 20
-2.191469752
 30
0.0
 10
-16.7799661876
 20
-2.1319291778
 30
0.0
 10
-16.7868047075
 20
-2.0907277593
 30
0.0
 10
-16.7895290743
 20
-2.0696143817
 30
0.0
 11
-16.5896862297
 21
-2.4544934776
 31
0.0
 11
-16.6279488424
 21
-2.4234643143
 31
0.0
 11
-16.6628066771
 21
-2.3870016024
 31
0.0
 11
-16.6940339618
 21
-2.3453418656
 31
0.0
 11
-16.7214285198
 21
-2.2987552518
 31
0.0
 11
-16.7448130124
 21
-2.2475438654
 31
0.0
 11
-16.764036331
 21
-2.192038999
 31
0.0
 11
-16.7789737803
 21
-2.1326013467
 31
0.0
 11
-16.7895290743
 21
-2.0696143817
 31
0.0
  0
SPLINE
  5
295
100
AcDbEntity
  8
RACCORDO
100
AcDbSpline
 62
253
  6
CONTINUOUS
 70
0
 71
3
 72
24
 73
20
 74
18
 42
0.0000001
 43
0.0000001
 44
0.0000000001
 12
-0.3225383182
 22
-0.1537130115
 32
0.0
 13
-0.3195746748
 23
0.1597832403
 33
0.0
 40
0.0
 40
0.0
 40
0.0
 40
0.0
 40
0.0524730889
 40
0.1073724184
 40
0.164442622
 40
0.2233961642
 40
0.283914619
 40
0.3456553533
 40
0.4082554946
 40
0.4713401437
 40
0.5345269365
 40
0.5974328202
 40
0.6596779188
 40
0.7208925822
 40
0.7807219467
 40
0.8388342871
 40
0.894925227
 40
0.9487248433
 40
1.0
 40
1.0
 40
1.0
 40
1.0
 10
13.6394326662
 20
0.5384980862
 30
0.0
 10
13.6337911389
 20
0.5358094873
 30
0.0
 10
13.6220491095
 20
0.5307165
 30
0.0
 10
13.6036167693
 20
0.524064872
 30
0.0
 10
13.5840908966
 20
0.5182709996
 30
0.0
 10
13.5636314332
 20
0.5133827768
 30
0.0
 10
13.5424036317
 20
0.5094396218
 30
0.0
 10
13.5205795586
 20
0.5064736441
 30
0.0
 10
13.498336163
 20
0.5045089689
 30
0.0
 10
13.4758540811
 20
0.5035616171
 30
0.0
 10
13.453315806
 20
0.5036393015
 30
0.0
 10
13.4309043634
 20
0.5047413824
 30
0.0
 10
13.4088016616
 20
0.5068588739
 30
0.0
 10
13.3871871571
 20
0.5099745004
 30
0.0
 10
13.3662360155
 20
0.5140629251
 30
0.0
 10
13.3461179574
 20
0.5190908795
 30
0.0
 10
13.3269952957
 20
0.5250178929
 30
0.0
 10
13.3090245448
 20
0.5317950579
 30
0.0
 10
13.2976196245
 20
0.5369750548
 30
0.0
 10
13.292157544
 20
0.5397060251
 30
0.0
 11
13.6394326662
 21
0.5384980862
 31
0.0
 11
13.6222443841
 21
0.5310106634
 31
0.0
 11
13.6038022839
 21
0.5243290459
 31
0.0
 11
13.584259666
 21
0.5185091345
 31
0.0
 11
13.5637763384
 21
0.5135985823
 31
0.0
 11
13.5425194106
 21
0.50963743
 31
0.0
 11
13.5206619848
 21
0.5066579496
 31
0.0
 11
13.4983825916
 21
0.5046844924
 31
0.0
 11
13.4758629411
 21
0.5037331552
 31
0.0
 11
13.4532868463
 21
0.5038116987
 31
0.0
 11
13.4308382986
 21
0.5049194827
 31
0.0
 11
13.4087005691
 21
0.5070474649
 31
0.0
 11
13.3870542077
 21
0.5101782836
 31
0.0
 11
13.3660760114
 21
0.5142863474
 31
0.0
 11
13.3459367999
 21
0.5193381864
 31
0.0
 11
13.3268008716
 21
0.5252926038
 31
0.0
 11
13.3088246968
 21
0.5321008481
 31
0.0
 11
13.292157544
 21
0.5397060251
 31
0.0
  0
SPLINE
  5
296
100
AcDbEntity
  8
RACCORDO
100
AcDbSpline
 62
253
  6
CONTINUOUS
 70
0
 71
3
 72
24
 73
20
 74
18
 42
0.0000001
 43
0.0000001
 44
0.0000000001
 12
-0.2109636275
 22
0.1054845185
 32
0.0
 13
0.206907066
 23
0.11323472
 33
0.0
 40
0.0
 40
0.0
 40
0.0
 40
0.0
 40
0.073604999
 40
0.1429946744
 40
0.2081158634
 40
0.2690715761
 40
0.326139588
 40
0.3797983211
 40
0.4307418959
 40
0.4798748912
 40
0.5282642816
 40
0.5770507795
 40
0.6273350143
 40
0.6800785173
 40
0.7360420195
 40
0.7957693816
 40
0.8595969972
 40
0.9276778407
 40
1.0
 40
1.0
 40
1.0
 40
1.0
 10
-17.3511813726
 20
15.8613754834
 30
0.0
 10
-17.3563573651
 20
15.863963546
 30
0.0
 10
-17.3662403918
 20
15.8693496891
 30
0.0
 10
-17.3799398173
 20
15.8783329077
 30
0.0
 10
-17.3919816636
 20
15.8879209332
 30
0.0
 10
-17.4022664248
 20
15.8980415612
 30
0.0
 10
-17.4107080173
 20
15.9086213753
 30
0.0
 10
-17.4172294567
 20
15.9195838088
 30
0.0
 10
-17.4217621665
 20
15.9308456282
 30
0.0
 10
-17.4242487119
 20
15.942311191
 30
0.0
 10
-17.4246520124
 20
15.9538697195
 30
0.0
 10
-17.4229659669
 20
15.9654015276
 30
0.0
 10
-17.4192174363
 20
15.9767915614
 30
0.0
 10
-17.4134574
 20
15.9879387596
 30
0.0
 10
-17.4057503415
 20
15.9987557871
 30
0.0
 10
-17.3961695585
 20
16.0091634798
 30
0.0
 10
-17.384796967
 20
16.0190864833
 30
0.0
 10
-17.3717275009
 20
16.0284504535
 30
0.0
 10
-17.3622321797
 20
16.0341067217
 30
0.0
 10
-17.3572441911
 20
16.0368365148
 30
0.0
 11
-17.3511813726
 21
15.8613754834
 31
0.0
 11
-17.3664071324
 21
15.8697167627
 31
0.0
 11
-17.3800697253
 21
15.8787279023
 31
0.0
 11
-17.3920549877
 21
15.8883340803
 31
0.0
 11
-17.4022647931
 21
15.8984567497
 31
0.0
 11
-17.4106158816
 21
15.9090133283
 31
0.0
 11
-17.4170402148
 21
15.9199178569
 31
0.0
 11
-17.4214852817
 21
15.9310812729
 31
0.0
 11
-17.4239148167
 21
15.9424125302
 31
0.0
 11
-17.4243089882
 21
15.9538191198
 31
0.0
 11
-17.4226645837
 21
15.9652080801
 31
0.0
 11
-17.4189950168
 21
15.9764864504
 31
0.0
 11
-17.4133302187
 21
15.9875622446
 31
0.0
 11
-17.405716489
 21
15.998344996
 31
0.0
 11
-17.3962158588
 21
16.0087468969
 31
0.0
 11
-17.3849057951
 21
16.0186830854
 31
0.0
 11
-17.3718789066
 21
16.0280723087
 31
0.0
 11
-17.3572441911
 21
16.0368365148
 31
0.0
  0
SPLINE
  5
297
100
AcDbEntity
  8
RACCORDO
100
AcDbSpline
 62
7
  6
CONTINUOUS
 70
0
 71
3
 72
23
 73
19
 74
17
 42
0.0000001
 43
0.0000001
 44
0.0000000001
 12
-0.4697235934
 22
0.2720556507
 32
0.0
 13
-0.0327478609
 23
0.5417582291
 33
0.0
 40
0.0
 40
0.0
 40
0.0
 40
0.0
 40
0.0197112377
 40
0.0810136604
 40
0.1447474378
 40
0.2103855487
 40
0.2779702474
 40
0.3474889991
 40
0.4182279689
 40
0.4894443216
 40
0.5610860775
 40
0.6331136178
 40
0.7047627447
 40
0.7752532483
 40
0.8445006569
 40
0.9124937506
 40
0.9785939253
 40
1.0
 40
1.0
 40
1.0
 40
1.0
 10
-5.1369859248
 20
4.8799026608
 30
0.0
 10
-5.1400722026
 20
4.8816901787
 30
0.0
 10
-5.1526477933
 20
4.88922656
 30
0.0
 10
-5.1743006134
 20
4.9039887057
 30
0.0
 10
-5.2011877611
 20
4.9256361582
 30
0.0
 10
-5.2272385544
 20
4.9499731284
 30
0.0
 10
-5.2522660952
 20
4.9768074839
 30
0.0
 10
-5.2760673943
 20
5.0059346099
 30
0.0
 10
-5.2983713376
 20
5.0370338843
 30
0.0
 10
-5.3189432232
 20
5.0697581053
 30
0.0
 10
-5.3376363628
 20
5.1038562459
 30
0.0
 10
-5.3543002557
 20
5.1390776943
 30
0.0
 10
-5.3687409307
 20
5.1750437363
 30
0.0
 10
-5.3808007254
 20
5.2113477118
 30
0.0
 10
-5.3903906359
 20
5.247698569
 30
0.0
 10
-5.3974257201
 20
5.2838234038
 30
0.0
 10
-5.4008773858
 20
5.3117562567
 30
0.0
 10
-5.4020330254
 20
5.3275470296
 30
0.0
 10
-5.4022666932
 20
5.3314126686
 30
0.0
 11
-5.1369859248
 21
4.8799026608
 31
0.0
 11
-5.146164638
 21
4.8854004648
 31
0.0
 11
-5.1736790478
 21
4.9040877449
 31
0.0
 11
-5.2006446813
 21
4.9257350064
 31
0.0
 11
-5.2266958143
 21
4.9500169366
 31
0.0
 11
-5.2517298543
 21
4.9768107927
 31
0.0
 11
-5.2756159221
 21
5.0060020187
 31
0.0
 11
-5.2979981894
 21
5.0371803256
 31
0.0
 11
-5.3185713528
 21
5.0698873063
 31
0.0
 11
-5.3372598729
 21
5.1039700099
 31
0.0
 11
-5.3539697287
 21
5.139296884
 31
0.0
 11
-5.3684442954
 21
5.1753758156
 31
0.0
 11
-5.3804845614
 21
5.2116767092
 31
0.0
 11
-5.3900443707
 21
5.2480112353
 31
0.0
 11
-5.3970636946
 21
5.2842278379
 31
0.0
 11
-5.4014205521
 21
5.3198257381
 31
0.0
 11
-5.4022666932
 21
5.3314126686
 31
0.0
  0
SPLINE
  5
298
100
AcDbEntity
  8
RACCORDO
100
AcDbSpline
 62
7
  6
CONTINUOUS
 70
0
 71
3
 72
15
 73
11
 74
9
 42
0.0000001
 43
0.0000001
 44
0.0000000001
 12
0.0098937155
 22
0.203503376
 32
0.0
 13
0.1649862835
 23
0.1197703097
 33
0.0
 40
0.0
 40
0.0
 40
0.0
 40
0.0
 40
0.0532447951
 40
0.2091906884
 40
0.3575194669
 40
0.4977555399
 40
0.6311027592
 40
0.7588815841
 40
0.88153854
 40
1.0
 40
1.0
 40
1.0
 40
1.0
 10
-5.4115287561
 20
6.5870978185
 30
0.0
 10
-5.4113531598
 20
6.5907096504
 30
0.0
 10
-5.4104652689
 20
6.6048906617
 30
0.0
 10
-5.4075639066
 20
6.6290211231
 30
0.0
 10
-5.4010999871
 20
6.6585509433
 30
0.0
 10
-5.3920371641
 20
6.6857846065
 30
0.0
 10
-5.3804473679
 20
6.7105209242
 30
0.0
 10
-5.3663952005
 20
6.732556922
 30
0.0
 10
-5.3500137716
 20
6.7516211494
 30
0.0
 10
-5.3375315562
 20
6.7623141771
 30
0.0
 10
-5.3310167175
 20
6.7670435656
 30
0.0
 11
-5.4115287561
 21
6.5870978185
 31
0.0
 11
-5.4108487156
 21
6.5979245585
 31
0.0
 11
-5.406988463
 21
6.6294503586
 31
0.0
 11
-5.4004532687
 21
6.658944916
 31
0.0
 11
-5.3913575522
 21
6.6860195654
 31
0.0
 11
-5.379759603
 21
6.7105772192
 31
0.0
 11
-5.3656996819
 21
6.7324768554
 31
0.0
 11
-5.3493681388
 21
6.7513805246
 31
0.0
 11
-5.3310167175
 21
6.7670435656
 31
0.0
  0
LINE
  5
299
100
AcDbEntity
  8
RACCORDO
100
AcDbLine
 62
7
  6
CONTINUOUS
 10
-5.4030618605
 20
5.3542706258
 11
-5.4045603736
 21
5.5335283907
  0
LINE
  5
29A
100
AcDbEntity
  8
RACCORDO
100
AcDbLine
 62
7
  6
CONTINUOUS
 10
-5.4045603736
 20
5.5335283907
 11
-5.4049254507
 21
5.5783472391
  0
LINE
  5
29B
100
AcDbEntity
  8
RACCORDO
100
AcDbLine
 62
7
  6
CONTINUOUS
 10
-5.4049254507
 20
5.5783472391
 11
-5.4063475564
 21
5.7576402707
  0
LINE
  5
29C
100
AcDbEntity
  8
RACCORDO
100
AcDbLine
 62
7
  6
CONTINUOUS
 10
-5.4063475564
 20
5.7576402707
 11
-5.4077085909
 21
5.9369684132
  0
LINE
  5
29D
100
AcDbEntity
  8
RACCORDO
100
AcDbLine
 62
7
  6
CONTINUOUS
 10
-5.4077085909
 20
5.9369684132
 11
-5.4080392986
 21
5.9818048385
  0
LINE
  5
29E
100
AcDbEntity
  8
RACCORDO
100
AcDbLine
 62
7
  6
CONTINUOUS
 10
-5.4080392986
 20
5.9818048385
 11
-5.4093239281
 21
6.1611681647
  0
LINE
  5
29F
100
AcDbEntity
  8
RACCORDO
100
AcDbLine
 62
7
  6
CONTINUOUS
 10
-5.4093239281
 20
6.1611681647
 11
-5.4105474827
 21
6.3405665215
  0
LINE
  5
2A0
100
AcDbEntity
  8
RACCORDO
100
AcDbLine
 62
7
  6
CONTINUOUS
 10
-5.4105474827
 20
6.3405665215
 11
-5.4108438209
 21
6.3854204969
  0
LINE
  5
2A1
100
AcDbEntity
  8
RACCORDO
100
AcDbLine
 62
7
  6
CONTINUOUS
 10
-5.4108438209
 20
6.3854204969
 11
-5.4119909729
 21
6.5648539546
  0
SPLINE
  5
2A2
100
AcDbEntity
  8
RACCORDO
100
AcDbSpline
 62
7
  6
CONTINUOUS
 70
0
 71
3
 72
14
 73
10
 74
8
 42
0.0000001
 43
0.0000001
 44
0.0000000001
 12
-0.1348742279
 22
-0.0433117058
 32
0.0
 13
-0.1305045418
 23
0.0549059436
 33
0.0
 40
0.0
 40
0.0
 40
0.0
 40
0.0
 40
0.0041519654
 40
0.1751397287
 40
0.3507158298
 40
0.5337212842
 40
0.7267852074
 40
0.9302596416
 40
1.0
 40
1.0
 40
1.0
 40
1.0
 10
0.9097525261
 20
1.9137734041
 30
0.0
 10
0.9095658618
 20
1.9137134612
 30
0.0
 10
0.9016869663
 20
1.9112004697
 30
0.0
 10
0.8854969925
 20
1.9074823105
 30
0.0
 10
0.8604951773
 20
1.9056440241
 30
0.0
 10
0.8344550391
 20
1.907404141
 30
0.0
 10
0.8075749279
 20
1.9127478834
 30
0.0
 10
0.7866066912
 20
1.9195293237
 30
0.0
 10
0.7746374814
 20
1.9243310992
 30
0.0
 10
0.7716036702
 20
1.9256074859
 30
0.0
 11
0.9097525261
 21
1.9137734041
 31
0.0
 11
0.9091921825
 21
1.913594681
 31
0.0
 11
0.8856203112
 21
1.9081324843
 31
0.0
 11
0.8608465411
 21
1.9062425362
 31
0.0
 11
0.8350031347
 21
1.9079090458
 31
0.0
 11
0.8081905247
 21
1.9131522556
 31
0.0
 11
0.7807686225
 21
1.921933676
 31
0.0
 11
0.7716036702
 21
1.9256074859
 31
0.0
  0
SPLINE
  5
2A3
100
AcDbEntity
  8
RACCORDO
100
AcDbSpline
 62
253
  6
CONTINUOUS
 70
0
 71
3
 72
21
 73
17
 74
15
 42
0.0000001
 43
0.0000001
 44
0.0000000001
 12
-0.0027086902
 22
0.3665006289
 32
0.0
 13
-0.3229569199
 23
0.1732884182
 33
0.0
 40
0.0
 40
0.0
 40
0.0
 40
0.0
 40
0.0675515957
 40
0.1379106427
 40
0.210618269
 40
0.2851460241
 40
0.3609149144
 40
0.4373129777
 40
0.5137119661
 40
0.5894836079
 40
0.6640158694
 40
0.7367296356
 40
0.8070962814
 40
0.8746567015
 40
0.9390424875
 40
1.0
 40
1.0
 40
1.0
 40
1.0
 10
13.8114749043
 20
0.2313520905
 30
0.0
 10
13.8114139122
 20
0.2396046579
 30
0.0
 10
13.8105305673
 20
0.2564539093
 30
0.0
 10
13.8071204322
 20
0.2819823908
 30
0.0
 10
13.8016388359
 20
0.3080189129
 30
0.0
 10
13.7941543056
 20
0.334237517
 30
0.0
 10
13.7847601062
 20
0.3603128665
 30
0.0
 10
13.7735733048
 20
0.3859199849
 30
0.0
 10
13.7607333301
 20
0.4107398039
 30
0.0
 10
13.7464001853
 20
0.4344629852
 30
0.0
 10
13.7307523691
 20
0.456794008
 30
0.0
 10
13.713984322
 20
0.4774550088
 30
0.0
 10
13.6963041823
 20
0.4961890443
 30
0.0
 10
13.6779291032
 20
0.5127641011
 30
0.0
 10
13.6590878934
 20
0.5269725324
 30
0.0
 10
13.645994883
 20
0.5349770092
 30
0.0
 10
13.6394326662
 20
0.5384980862
 30
0.0
 11
13.8114749043
 21
0.2313520905
 31
0.0
 11
13.8102247525
 21
0.2560788862
 31
0.0
 11
13.8068470147
 21
0.2816440529
 31
0.0
 11
13.8013841515
 21
0.3077262182
 31
0.0
 11
13.7939048352
 21
0.3339975106
 31
0.0
 11
13.7845030862
 21
0.3601276811
 31
0.0
 11
13.7732970914
 21
0.3857882549
 31
0.0
 11
13.760427718
 21
0.4106566602
 31
0.0
 11
13.7460567436
 21
0.4344202836
 31
0.0
 11
13.7303648214
 21
0.4567803996
 31
0.0
 11
13.7135492103
 21
0.4774559258
 31
0.0
 11
13.6958212943
 21
0.4961869563
 31
0.0
 11
13.677403926
 21
0.512738029
 31
0.0
 11
13.6585286247
 21
0.5269010855
 31
0.0
 11
13.6394326662
 21
0.5384980862
 31
0.0
  0
SPLINE
  5
2A4
100
AcDbEntity
  8
RACCORDO
100
AcDbSpline
 62
253
  6
CONTINUOUS
 70
0
 71
3
 72
21
 73
17
 74
15
 42
0.0000001
 43
0.0000001
 44
0.0000000001
 12
-0.0002381811
 22
0.3665649359
 32
0.0
 13
0.3264581342
 23
0.1667183122
 33
0.0
 40
0.0
 40
0.0
 40
0.0
 40
0.0
 40
0.0673451676
 40
0.1373665829
 40
0.2096497344
 40
0.2837102531
 40
0.3590123512
 40
0.4349859312
 40
0.5110428482
 40
0.5865927408
 40
0.6610588114
 40
0.7338939267
 40
0.8045974427
 40
0.8727332169
 40
0.9379493261
 40
1.0
 40
1.0
 40
1.0
 40
1.0
 10
13.1169235526
 20
0.2354186833
 30
0.0
 10
13.1169182058
 20
0.2436474757
 30
0.0
 10
13.1176876403
 20
0.2604398838
 30
0.0
 10
13.1209928724
 20
0.2858685358
 30
0.0
 10
13.1264317185
 20
0.3117664833
 30
0.0
 10
13.1339366341
 20
0.337812556
 30
0.0
 10
13.1434148625
 20
0.3636868891
 30
0.0
 10
13.1547493825
 20
0.3890702517
 30
0.0
 10
13.1678002967
 20
0.4136495329
 30
0.0
 10
13.1824065941
 20
0.4371214124
 30
0.0
 10
13.1983882032
 20
0.4591963238
 30
0.0
 10
13.2155485166
 20
0.4796021559
 30
0.0
 10
13.2336766097
 20
0.4980874029
 30
0.0
 10
13.2525518369
 20
0.5144249904
 30
0.0
 10
13.2719411617
 20
0.5284118202
 30
0.0
 10
13.2854052283
 20
0.5362576972
 30
0.0
 10
13.292157544
 20
0.5397060251
 30
0.0
 11
13.1169235526
 21
0.2354186833
 31
0.0
 11
13.1180082358
 21
0.2600812244
 31
0.0
 11
13.1212801155
 21
0.2855392345
 31
0.0
 11
13.1266984599
 21
0.3114757859
 31
0.0
 11
13.1341958158
 21
0.3375679933
 31
0.0
 11
13.1436788483
 21
0.3634910338
 31
0.0
 11
13.1550295028
 21
0.3889221904
 31
0.0
 11
13.1681064745
 21
0.4135448695
 31
0.0
 11
13.1827469676
 21
0.4370525423
 31
0.0
 11
13.198768722
 21
0.459152561
 31
0.0
 11
13.2159722823
 21
0.4795698013
 31
0.0
 11
13.2341434805
 21
0.4980500883
 31
0.0
 11
13.2530561027
 21
0.5143633601
 31
0.0
 11
13.2724747049
 21
0.528306532
 31
0.0
 11
13.292157544
 21
0.5397060251
 31
0.0
  0
SPLINE
  5
2A5
100
AcDbEntity
  8
RACCORDO
100
AcDbSpline
 62
253
  6
CONTINUOUS
 70
0
 71
3
 72
21
 73
17
 74
15
 42
0.0000001
 43
0.0000001
 44
0.0000000001
 12
-0.0002381814
 22
0.366564936
 32
0.0
 13
0.3264581343
 23
0.1667183119
 33
0.0
 40
0.0
 40
0.0
 40
0.0
 40
0.0
 40
0.0673451718
 40
0.1373665919
 40
0.2096497479
 40
0.2837102706
 40
0.3590123719
 40
0.4349859543
 40
0.5110428723
 40
0.5865927648
 40
0.661058834
 40
0.7338939467
 40
0.804597459
 40
0.8727332284
 40
0.9379493321
 40
1.0
 40
1.0
 40
1.0
 40
1.0
 10
-17.526415364
 20
15.5570881416
 30
0.0
 10
-17.5264207108
 20
15.5653169345
 30
0.0
 10
-17.5256512762
 20
15.5821093437
 30
0.0
 10
-17.5223460437
 20
15.6075379974
 30
0.0
 10
-17.516907197
 20
15.6334359464
 30
0.0
 10
-17.5094022807
 20
15.6594820204
 30
0.0
 10
-17.4999240513
 20
15.6853563544
 30
0.0
 10
-17.4885895305
 20
15.7107397175
 30
0.0
 10
-17.4755386156
 20
15.7353189988
 30
0.0
 10
-17.4609323177
 20
15.758790878
 30
0.0
 10
-17.4449507085
 20
15.7808657885
 30
0.0
 10
-17.4277903952
 20
15.8012716195
 30
0.0
 10
-17.4096623027
 20
15.8197568652
 30
0.0
 10
-17.3907870765
 20
15.8360944512
 30
0.0
 10
-17.3713977531
 20
15.8500812796
 30
0.0
 10
-17.3579336877
 20
15.8579271558
 30
0.0
 10
-17.3511813726
 20
15.8613754834
 30
0.0
 11
-17.526415364
 21
15.5570881416
 31
0.0
 11
-17.5253306807
 21
15.5817506842
 31
0.0
 11
-17.5220588006
 21
15.6072086961
 31
0.0
 11
-17.5166404556
 21
15.633145249
 31
0.0
 11
-17.5091430989
 21
15.6592374578
 31
0.0
 11
-17.4996600655
 21
15.6851604992
 31
0.0
 11
-17.4883094101
 21
15.7105916563
 31
0.0
 11
-17.4752324377
 21
15.7352143355
 31
0.0
 11
-17.4605919441
 21
15.758722008
 31
0.0
 11
-17.4445701895
 21
15.7808220258
 31
0.0
 11
-17.4273666294
 21
15.8012392651
 31
0.0
 11
-17.4091954318
 21
15.8197195507
 31
0.0
 11
-17.3902828106
 21
15.836032821
 31
0.0
 11
-17.3708642099
 21
15.8499759916
 31
0.0
 11
-17.3511813726
 21
15.8613754834
 31
0.0
  0
SPLINE
  5
2A6
100
AcDbEntity
  8
RACCORDO
100
AcDbSpline
 62
253
  6
CONTINUOUS
 70
0
 71
3
 72
24
 73
20
 74
18
 42
0.0000001
 43
0.0000001
 44
0.0000000001
 12
-0.6460894983
 22
-0.3048812545
 32
0.0
 13
-0.6389944042
 23
0.3194845389
 33
0.0
 40
0.0
 40
0.0
 40
0.0
 40
0.0
 40
0.0524100356
 40
0.1072497924
 40
0.1642744396
 40
0.2231948714
 40
0.2836919856
 40
0.345422123
 40
0.4080213494
 40
0.471113599
 40
0.5343152536
 40
0.5972420897
 40
0.6595128813
 40
0.7207563994
 40
0.7806160868
 40
0.8387583409
 40
0.8948769789
 40
0.9486992022
 40
1.0
 40
1.0
 40
1.0
 40
1.0
 10
13.8114769328
 20
0.2313530477
 30
0.0
 10
13.8001897416
 20
0.2260267685
 30
0.0
 10
13.7766998191
 20
0.2159441469
 30
0.0
 10
13.7398333598
 20
0.2027932902
 30
0.0
 10
13.7007822171
 20
0.191355717
 30
0.0
 10
13.6598639531
 20
0.1817249945
 30
0.0
 10
13.6174091931
 20
0.1739788976
 30
0.0
 10
13.5737620362
 20
0.168180472
 30
0.0
 10
13.5292763823
 20
0.1643768924
 30
0.0
 10
13.4843134945
 20
0.16259917
 30
0.0
 10
13.439238305
 20
0.1628617728
 30
0.0
 10
13.3944167829
 20
0.1651625505
 30
0.0
 10
13.3502126673
 20
0.169482756
 30
0.0
 10
13.3069848415
 20
0.1757871626
 30
0.0
 10
13.2650836452
 20
0.1840244948
 30
0.0
 10
13.224848504
 20
0.1941277686
 30
0.0
 10
13.1866041654
 20
0.2060155183
 30
0.0
 10
13.150661512
 20
0.219590656
 30
0.0
 10
13.1278486299
 20
0.2299563609
 30
0.0
 10
13.1169216556
 20
0.2354196315
 30
0.0
 11
13.8114769328
 21
0.2313530477
 31
0.0
 11
13.7770936961
 21
0.2165300101
 31
0.0
 11
13.7402097831
 21
0.2033199416
 31
0.0
 11
13.7011245372
 21
0.1918301083
 31
0.0
 11
13.660158141
 21
0.1821547245
 31
0.0
 11
13.6176446737
 21
0.1743726474
 31
0.0
 11
13.5739303725
 21
0.1685472712
 31
0.0
 11
13.5293722845
 21
0.1647261949
 31
0.0
 11
13.4843338199
 21
0.1629405734
 31
0.0
 11
13.4391825862
 21
0.1632049605
 31
0.0
 11
13.3942864149
 21
0.1655171992
 31
0.0
 11
13.3500117513
 21
0.1698584307
 31
0.0
 11
13.3067196841
 21
0.1761932529
 31
0.0
 11
13.2647637937
 21
0.1844699006
 31
0.0
 11
13.2244857472
 21
0.1946209551
 31
0.0
 11
13.1862140159
 21
0.2065636675
 31
0.0
 11
13.1502620522
 21
0.2202001446
 31
0.0
 11
13.1169216556
 21
0.2354196315
 31
0.0
  0
SPLINE
  5
2A7
100
AcDbEntity
  8
0
100
AcDbSpline
 62
253
  6
CONTINUOUS
 70
0
 71
3
 72
23
 73
19
 74
17
 42
0.0000001
 43
0.0000001
 44
0.0000000001
 12
-0.6423463248
 22
-0.3139621741
 32
0.0
 13
-0.6396924869
 23
0.3193345735
 33
0.0
 40
0.0
 40
0.0
 40
0.0
 40
0.0
 40
0.0560459375
 40
0.1147633706
 40
0.1758533728
 40
0.2389680004
 40
0.3037206074
 40
0.3696950256
 40
0.4364539816
 40
0.5035470265
 40
0.5705181849
 40
0.6369134918
 40
0.7022885703
 40
0.7662164078
 40
0.8282955157
 40
0.8881587155
 40
0.9454828706
 40
1.0
 40
1.0
 40
1.0
 40
1.0
 10
13.8773451571
 20
-7.6144676258
 30
0.0
 10
13.8653448565
 20
-7.6203330606
 30
0.0
 10
13.8403108963
 20
-7.6314164023
 30
0.0
 10
13.8009180831
 20
-7.6457992065
 30
0.0
 10
13.7591048291
 20
-7.658224466
 30
0.0
 10
13.7152548389
 20
-7.6685776872
 30
0.0
 10
13.6697674865
 20
-7.6767646002
 30
0.0
 10
13.6230587993
 20
-7.682710048
 30
0.0
 10
13.5755561169
 20
-7.6863594768
 30
0.0
 10
13.5276943937
 20
-7.687679354
 30
0.0
 10
13.4799119613
 20
-7.6866575732
 30
0.0
 10
13.4326463866
 20
-7.6833035578
 30
0.0
 10
13.3863303387
 20
-7.6776481695
 30
0.0
 10
13.3413873524
 20
-7.6697433015
 30
0.0
 10
13.2982281987
 20
-7.6596614814
 30
0.0
 10
13.2572454344
 20
-7.6474942719
 30
0.0
 10
13.2188149374
 20
-7.6333536237
 30
0.0
 10
13.1944811416
 20
-7.6224042939
 30
0.0
 10
13.1828564089
 20
-7.6166012258
 30
0.0
 11
13.8773451571
 21
-7.6144676258
 31
0.0
 11
13.8407328699
 21
-7.6307536717
 31
0.0
 11
13.8013178859
 21
-7.6452062434
 31
0.0
 11
13.7594631257
 21
-7.6576922664
 31
0.0
 11
13.7155539745
 21
-7.6680967732
 31
0.0
 11
13.6699947336
 21
-7.6763239626
 31
0.0
 11
13.6232048979
 21
-7.6822980812
 31
0.0
 11
13.5756152931
 21
-7.6859641212
 31
0.0
 11
13.5276641091
 21
-7.6872883271
 31
0.0
 11
13.479792865
 21
-7.6862585058
 31
0.0
 11
13.4324423437
 21
-7.6828841396
 31
0.0
 11
13.3860485338
 21
-7.6771962987
 31
0.0
 11
13.3410386144
 21
-7.6692473548
 31
0.0
 11
13.2978270225
 21
-7.6591104993
 31
0.0
 11
13.2568116365
 21
-7.646879069
 31
0.0
 11
13.2183701129
 21
-7.6326656871
 31
0.0
 11
13.1828564089
 21
-7.6166012258
 31
0.0
  0
SPLINE
  5
2A8
100
AcDbEntity
  8
0
100
AcDbSpline
 62
253
  6
CONTINUOUS
 70
0
 71
3
 72
14
 73
10
 74
8
 42
0.0000001
 43
0.0000001
 44
0.0000000001
 12
0.1590485282
 22
-9.8322410214
 32
0.0
 13
1.3196249534
 23
-9.744580541
 33
0.0
 40
0.0
 40
0.0
 40
0.0
 40
0.0
 40
0.1462535095
 40
0.2913919944
 40
0.4354038616
 40
0.5782788199
 40
0.7200079478
 40
0.860583705
 40
1.0
 40
1.0
 40
1.0
 40
1.0
 10
13.1828564086
 20
-7.6166012259
 30
0.0
 10
13.1906102104
 20
-8.0959344778
 30
0.0
 10
13.2136734028
 20
-9.0508419374
 30
0.0
 10
13.2713157683
 20
-10.4769235
 30
0.0
 10
13.3518548268
 20
-11.8908085438
 30
0.0
 10
13.4552627182
 20
-13.2919999315
 30
0.0
 10
13.5815040163
 20
-14.6800129427
 30
0.0
 10
13.7305343478
 20
-16.0543584761
 30
0.0
 10
13.8455256893
 20
-16.9649535289
 30
0.0
 10
13.9068514299
 20
-17.4178046338
 30
0.0
 11
13.1828564086
 21
-7.6166012259
 31
0.0
 11
13.2176698165
 21
-9.0543676941
 31
0.0
 11
13.2754013901
 21
-10.4804228468
 31
0.0
 11
13.3560310764
 21
-11.8942702486
 31
0.0
 11
13.4595308556
 21
-13.2954176032
 31
0.0
 11
13.5858647672
 21
-14.6833771766
 31
0.0
 11
13.7349889006
 21
-16.0576656709
 31
0.0
 11
13.9068514299
 21
-17.4178046338
 31
0.0
  0
SPLINE
  5
2A9
100
AcDbEntity
  8
0
100
AcDbSpline
 62
253
  6
CONTINUOUS
 70
0
 71
3
 72
14
 73
10
 74
8
 42
0.0000001
 43
0.0000001
 44
0.0000000001
 12
0.1581958
 22
-9.7776961891
 32
0.0
 13
1.3125293863
 23
-9.6904920044
 33
0.0
 40
0.0
 40
0.0
 40
0.0
 40
0.0
 40
0.1462525689
 40
0.2913905064
 40
0.4354020953
 40
0.5782770586
 40
0.7200064886
 40
0.860582859
 40
1.0
 40
1.0
 40
1.0
 40
1.0
 10
13.8773451571
 20
-7.6144676258
 30
0.0
 10
13.8850573378
 20
-8.0911386877
 30
0.0
 10
13.9079967096
 20
-9.0407438643
 30
0.0
 10
13.9653295986
 20
-10.4589080831
 30
0.0
 10
14.0454362694
 20
-11.8649461229
 30
0.0
 10
14.1482890034
 20
-13.2583631538
 30
0.0
 10
14.2738525643
 20
-14.6386771444
 30
0.0
 10
14.4220827752
 20
-16.0054014064
 30
0.0
 10
14.536456609
 20
-16.9109471687
 30
0.0
 10
14.5974529739
 20
-17.3612873987
 30
0.0
 11
13.8773451571
 21
-7.6144676258
 31
0.0
 11
13.9119716151
 21
-9.0442487346
 31
0.0
 11
13.9693932218
 21
-10.4623870717
 31
0.0
 11
14.0495900088
 21
-11.8683876094
 31
0.0
 11
14.1525341074
 21
-13.2617607827
 31
0.0
 11
14.2781897501
 21
-14.6420215632
 31
0.0
 11
14.4265132615
 21
-16.0086893327
 31
0.0
 11
14.5974529739
 21
-17.3612873987
 31
0.0
  0
SPLINE
  5
2AA
100
AcDbEntity
  8
0
100
AcDbSpline
 62
253
  6
CONTINUOUS
 70
0
 71
3
 72
23
 73
19
 74
17
 42
0.0000001
 43
0.0000001
 44
0.0000000001
 12
-0.6046875015
 22
-0.3899603372
 32
0.0
 13
-0.6449837558
 23
0.3189231783
 33
0.0
 40
0.0
 40
0.0
 40
0.0
 40
0.0
 40
0.0585677629
 40
0.1193033505
 40
0.1819239888
 40
0.2461052335
 40
0.3114902464
 40
0.377698354
 40
0.4443331115
 40
0.5109900572
 40
0.5772643152
 40
0.6427581907
 40
0.7070889007
 40
0.7698965953
 40
0.8308528525
 40
0.8896698636
 40
0.9461105666
 40
1.0
 40
1.0
 40
1.0
 40
1.0
 10
14.5974529739
 20
-17.3612873987
 30
0.0
 10
14.5856479091
 20
-17.3689004335
 30
0.0
 10
14.5609972176
 20
-17.3834885475
 30
0.0
 10
14.5219646941
 20
-17.4030584633
 30
0.0
 10
14.4805015724
 20
-17.4205712457
 30
0.0
 10
14.4369891776
 20
-17.4358657734
 30
0.0
 10
14.3918243064
 20
-17.4488030565
 30
0.0
 10
14.3454202714
 20
-17.4592647263
 30
0.0
 10
14.2982016934
 20
-17.4671551114
 30
0.0
 10
14.2506008599
 20
-17.472401974
 30
0.0
 10
14.2030535444
 20
-17.4749572785
 30
0.0
 10
14.1559949001
 20
-17.4747976062
 30
0.0
 10
14.1098553722
 20
-17.471924343
 30
0.0
 10
14.0650564697
 20
-17.4663634789
 30
0.0
 10
14.0220073146
 20
-17.4581654434
 30
0.0
 10
13.9810988794
 20
-17.4474033881
 30
0.0
 10
13.9427071957
 20
-17.4341754182
 30
0.0
 10
13.9184373825
 20
-17.4235334858
 30
0.0
 10
13.9068514461
 20
-17.4178046227
 30
0.0
 11
14.5974529739
 21
-17.3612873987
 31
0.0
 11
14.5612170768
 21
-17.3828006607
 31
0.0
 11
14.5221736154
 21
-17.4024313779
 31
0.0
 11
14.4806822691
 21
-17.4199987067
 31
0.0
 11
14.4371252677
 21
-17.4353408118
 31
0.0
 11
14.3919038704
 21
-17.4483163577
 31
0.0
 11
14.3454346694
 21
-17.4588058099
 31
0.0
 11
14.2981457518
 21
-17.4667125366
 31
0.0
 11
14.2504727565
 21
-17.471963699
 31
0.0
 11
14.2028548602
 21
-17.4745109218
 31
0.0
 11
14.1557307324
 21
-17.4743307392
 31
0.0
 11
14.1095344936
 21
-17.4714248113
 31
0.0
 11
14.0646917165
 21
-17.4658199081
 31
0.0
 11
14.0216155053
 21
-17.4575676637
 31
0.0
 11
13.9807026899
 21
-17.4467441
 31
0.0
 11
13.9423301708
 21
-17.4334489268
 31
0.0
 11
13.9068514461
 21
-17.4178046227
 31
0.0
  0
SPLINE
  5
2AB
100
AcDbEntity
  8
0
100
AcDbSpline
 62
253
  6
CONTINUOUS
 70
0
 71
3
 72
15
 73
11
 74
9
 42
0.0000001
 43
0.0000001
 44
0.0000000001
 12
0.0598269799
 22
-0.4487653098
 32
0.0
 13
0.3709772629
 23
-0.2600387225
 33
0.0
 40
0.0
 40
0.0
 40
0.0
 40
0.0
 40
0.1416127936
 40
0.2778388068
 40
0.4087944368
 40
0.5347487326
 40
0.6561453127
 40
0.773601873
 40
0.8879069491
 40
1.0
 40
1.0
 40
1.0
 40
1.0
 10
13.9068514299
 20
-17.4178046338
 30
0.0
 10
13.9096755185
 20
-17.4389882702
 30
0.0
 10
13.9167699353
 20
-17.48036467
 30
0.0
 10
13.9321604318
 20
-17.5401801901
 30
0.0
 10
13.9520066021
 20
-17.5961814074
 30
0.0
 10
13.9761915692
 20
-17.648001161
 30
0.0
 10
14.0045724563
 20
-17.6952997946
 30
0.0
 10
14.036978632
 20
-17.7377596181
 30
0.0
 10
14.0732094092
 20
-17.775087845
 30
0.0
 10
14.0999356359
 20
-17.7965188946
 30
0.0
 10
14.1137969603
 20
-17.8062350726
 30
0.0
 11
13.9068514299
 21
-17.4178046338
 31
0.0
 11
13.9177818767
 21
-17.4809791752
 31
0.0
 11
13.9332502043
 21
-17.5406822666
 31
0.0
 11
13.9531567559
 21
-17.5965287495
 31
0.0
 11
13.9773723596
 21
-17.6481556915
 31
0.0
 11
14.0057405606
 21
-17.6952291268
 31
0.0
 11
14.0380777063
 21
-17.7374437941
 31
0.0
 11
14.074174439
 21
-17.774525955
 31
0.0
 11
14.1137969603
 21
-17.8062350726
 31
0.0
  0
SPLINE
  5
2AC
100
AcDbEntity
  8
0
100
AcDbSpline
 62
253
  6
CONTINUOUS
 70
0
 71
3
 72
24
 73
20
 74
18
 42
0.0000001
 43
0.0000001
 44
0.0000000001
 12
0.0639027533
 22
-0.4717728467
 32
0.0
 13
0.4413838546
 23
0.1784193758
 33
0.0
 40
0.0
 40
0.0
 40
0.0
 40
0.0
 40
0.0674522603
 40
0.1324328803
 40
0.1949921921
 40
0.2552669519
 40
0.3134744861
 40
0.3699113309
 40
0.4249505657
 40
0.4790314766
 40
0.5326426374
 40
0.5862971832
 40
0.6405065485
 40
0.6957524301
 40
0.7524643122
 40
0.8110030704
 40
0.8716529464
 40
0.9346161818
 40
1.0
 40
1.0
 40
1.0
 40
1.0
 10
14.5974529739
 20
-17.3612873987
 30
0.0
 10
14.5988897689
 20
-17.3718947803
 30
0.0
 10
14.6025005759
 20
-17.3926251821
 30
0.0
 10
14.6103297086
 20
-17.4226004743
 30
0.0
 10
14.6204261195
 20
-17.4506894165
 30
0.0
 10
14.6327296452
 20
-17.4767050141
 30
0.0
 10
14.6471670959
 20
-17.5004764303
 30
0.0
 10
14.6636510176
 20
-17.5218438017
 30
0.0
 10
14.6820785215
 20
-17.5406599523
 30
0.0
 10
14.702330341
 20
-17.556792294
 30
0.0
 10
14.7242705174
 20
-17.5701258252
 30
0.0
 10
14.7477478156
 20
-17.5805665722
 30
0.0
 10
14.772598655
 20
-17.5880441
 30
0.0
 10
14.7986510345
 20
-17.592512352
 30
0.0
 10
14.8257278943
 20
-17.5939485948
 30
0.0
 10
14.8536492202
 20
-17.5923516532
 30
0.0
 10
14.8822335909
 20
-17.587739453
 30
0.0
 10
14.9112921361
 20
-17.5801503837
 30
0.0
 10
14.930494221
 20
-17.5732724811
 30
0.0
 10
14.9401140082
 20
-17.5693839011
 30
0.0
 11
14.5974529739
 21
-17.3612873987
 31
0.0
 11
14.6030106654
 21
-17.3929155568
 31
0.0
 11
14.6108773919
 21
-17.4228346704
 31
0.0
 11
14.6210014381
 21
-17.45084447
 31
0.0
 11
14.6333171474
 21
-17.4767628976
 31
0.0
 11
14.647744935
 21
-17.5004222816
 31
0.0
 11
14.6641914013
 21
-17.5216691812
 31
0.0
 11
14.6825500648
 21
-17.5403658091
 31
0.0
 11
14.7027019971
 21
-17.5563908633
 31
0.0
 11
14.7245167852
 21
-17.5696404576
 31
0.0
 11
14.7478530078
 21
-17.5800285384
 31
0.0
 11
14.7725596094
 21
-17.587487721
 31
0.0
 11
14.7984764639
 21
-17.5919695189
 31
0.0
 11
14.8254355831
 21
-17.5934447712
 31
0.0
 11
14.853262145
 21
-17.5919038473
 31
0.0
 11
14.881776096
 21
-17.5873566123
 31
0.0
 11
14.9107920683
 21
-17.5798326374
 31
0.0
 11
14.9401140082
 21
-17.5693839011
 31
0.0
  0
SPLINE
  5
2AD
100
AcDbEntity
  8
0
100
AcDbSpline
 62
253
  6
CONTINUOUS
 70
0
 71
3
 72
17
 73
13
 74
11
 42
0.0000001
 43
0.0000001
 44
0.0000000001
 12
-0.0146233495
 22
-0.3374304751
 32
0.0
 13
-0.3134643983
 23
-0.1267186416
 33
0.0
 40
0.0
 40
0.0
 40
0.0
 40
0.0
 40
0.1257612106
 40
0.2463557878
 40
0.361548946
 40
0.4712938634
 40
0.5757615065
 40
0.6753678851
 40
0.7707922496
 40
0.8629762818
 40
0.9530928601
 40
1.0
 40
1.0
 40
1.0
 40
1.0
 10
14.9401140082
 20
-17.5693839011
 30
0.0
 10
14.9395009915
 20
-17.5835291228
 30
0.0
 10
14.9372500548
 20
-17.6112079309
 30
0.0
 10
14.9305700056
 20
-17.651410288
 30
0.0
 10
14.92071075
 20
-17.6891026779
 30
0.0
 10
14.9077571819
 20
-17.7239250732
 30
0.0
 10
14.8918197528
 20
-17.7555459064
 30
0.0
 10
14.8730342143
 20
-17.7836573678
 30
0.0
 10
14.8515632636
 20
-17.8079762376
 30
0.0
 10
14.8276011564
 20
-17.8282448189
 30
0.0
 10
14.8054792992
 20
-17.8417367686
 30
0.0
 10
14.791403056
 20
-17.8481211706
 30
0.0
 10
14.7865018166
 20
-17.8501025069
 30
0.0
 11
14.9401140082
 21
-17.5693839011
 31
0.0
 11
14.936603273
 21
-17.6117140619
 31
0.0
 11
14.9298498878
 21
-17.6518807621
 31
0.0
 11
14.9199187402
 21
-17.6894980728
 31
0.0
 11
14.9069052505
 21
-17.7242045601
 31
0.0
 11
14.8909344548
 21
-17.7556667578
 31
0.0
 11
14.8721598031
 21
-17.7835823714
 31
0.0
 11
14.850761686
 21
-17.8076831826
 31
0.0
 11
14.8269457002
 21
-17.8277376264
 31
0.0
 11
14.8009406742
 21
-17.8435530161
 31
0.0
 11
14.7865018166
 21
-17.8501025069
 31
0.0
  0
SPLINE
  5
2AE
100
AcDbEntity
  8
0
100
AcDbSpline
 62
253
  6
CONTINUOUS
 70
0
 71
3
 72
14
 73
10
 74
8
 42
0.0000001
 43
0.0000001
 44
0.0000000001
 12
-1.2344531456
 22
9.7271211268
 32
0.0
 13
-0.1480272948
 23
9.8040220269
 33
0.0
 40
0.0
 40
0.0
 40
0.0
 40
0.0
 40
0.1390931295
 40
0.2794615902
 40
0.4210944051
 40
0.5639791418
 40
0.7081019866
 40
0.8534477621
 40
1.0
 40
1.0
 40
1.0
 40
1.0
 10
-16.7895290743
 20
-2.0696143817
 30
0.0
 10
-16.8467637247
 20
-1.6186224756
 30
0.0
 10
-16.954074338
 20
-0.7115106347
 30
0.0
 10
-17.0930893052
 20
0.6578060768
 30
0.0
 10
-17.2108459304
 20
2.0415546299
 30
0.0
 10
-17.3073028639
 20
3.4392481497
 30
0.0
 10
-17.3824269949
 20
4.8504028342
 30
0.0
 10
-17.4361923092
 20
6.2745231956
 30
0.0
 10
-17.4576964378
 20
7.2283570296
 30
0.0
 10
-17.4649276816
 20
7.7072908192
 30
0.0
 11
-16.7895290743
 21
-2.0696143817
 31
0.0
 11
-16.9498557472
 21
-0.715243347
 31
0.0
 11
-17.0889702839
 21
0.654040349
 31
0.0
 11
-17.2068243374
 21
2.0377599933
 31
0.0
 11
-17.3033769444
 21
3.4354337618
 31
0.0
 11
-17.3785945581
 21
4.8465751273
 31
0.0
 11
-17.4324510395
 21
6.2706927339
 31
0.0
 11
-17.4649276816
 21
7.7072908192
 31
0.0
  0
SPLINE
  5
2AF
100
AcDbEntity
  8
RACCORDO
100
AcDbSpline
 62
253
  6
CONTINUOUS
 70
0
 71
3
 72
16
 73
12
 74
10
 42
0.0000001
 43
0.0000001
 44
0.0000000001
 12
-0.2161676901
 22
0.108088129
 32
0.0
 13
-0.0002081162
 23
0.2420109618
 33
0.0
 40
0.0
 40
0.0
 40
0.0
 40
0.0
 40
0.1436783147
 40
0.279066529
 40
0.4060825254
 40
0.5249174698
 40
0.6361059662
 40
0.7405757101
 40
0.8396792241
 40
0.9351856859
 40
1.0
 40
1.0
 40
1.0
 40
1.0
 10
-17.5264134663
 20
15.5570871925
 30
0.0
 10
-17.5367663362
 20
15.5622638325
 30
0.0
 10
-17.5565312313
 20
15.5730315155
 30
0.0
 10
-17.5839304484
 20
15.5909780122
 30
0.0
 10
-17.6080126752
 20
15.6101188605
 30
0.0
 10
-17.6285811891
 20
15.6303110268
 30
0.0
 10
-17.6454639729
 20
15.6514081939
 30
0.0
 10
-17.6585073577
 20
15.6732580577
 30
0.0
 10
-17.667574157
 20
15.695695336
 30
0.0
 10
-17.6720458371
 20
15.716220616
 30
0.0
 10
-17.672856859
 20
15.7291538263
 30
0.0
 10
-17.6728613553
 20
15.7343824178
 30
0.0
 11
-17.5264134663
 21
15.5570871925
 31
0.0
 11
-17.5568703465
 21
15.5737663439
 31
0.0
 11
-17.5841947052
 21
15.5917680281
 31
0.0
 11
-17.6081646187
 21
15.6109461381
 31
0.0
 11
-17.6285836046
 21
15.6311435998
 31
0.0
 11
-17.6452852117
 21
15.6521957008
 31
0.0
 11
-17.6581333909
 21
15.6739310018
 31
0.0
 11
-17.6670231516
 21
15.6961719824
 31
0.0
 11
-17.6718819949
 21
15.718737251
 31
0.0
 11
-17.6728613553
 21
15.7343824178
 31
0.0
  0
SPLINE
  5
2B0
100
AcDbEntity
  8
ASSI
100
AcDbSpline
 62
7
  6
CONTINUOUS
 70
0
 71
3
 72
15
 73
11
 74
9
 42
0.0000001
 43
0.0000001
 44
0.0000000001
 12
0.1696235192
 22
0.1209906019
 32
0.0
 13
0.18616337
 23
-0.093081685
 33
0.0
 40
0.0
 40
0.0
 40
0.0
 40
0.0
 40
0.1081411329
 40
0.2229400458
 40
0.3397312535
 40
0.459601248
 40
0.584464367
 40
0.7161066524
 40
0.8547623222
 40
1.0
 40
1.0
 40
1.0
 40
1.0
 10
-5.3300030952
 20
6.7677729648
 30
0.0
 10
-5.3238886687
 20
6.7721343184
 30
0.0
 10
-5.3106052044
 20
6.7801787122
 30
0.0
 10
-5.2886749296
 20
6.7890954603
 30
0.0
 10
-5.2648138351
 20
6.794582804
 30
0.0
 10
-5.239710876
 20
6.7964438683
 30
0.0
 10
-5.2135779815
 20
6.7946963453
 30
0.0
 10
-5.186616705
 20
6.7893548559
 30
0.0
 10
-5.1591279317
 20
6.7804785436
 30
0.0
 10
-5.1410881049
 20
6.7724780953
 30
0.0
 10
-5.1320754597
 20
6.7679717727
 30
0.0
 11
-5.3300030952
 21
6.7677729648
 31
0.0
 11
-5.3107412581
 21
6.7794224837
 31
0.0
 11
-5.2886134996
 21
6.7884380641
 31
0.0
 11
-5.2649338046
 21
6.7939315655
 31
0.0
 11
-5.2400577789
 21
6.7958433219
 31
0.0
 11
-5.2141218901
 21
6.7941884326
 31
0.0
 11
-5.1872283141
 21
6.7889467601
 31
0.0
 11
-5.1597399805
 21
6.7801572863
 31
0.0
 11
-5.1320754597
 21
6.7679717727
 31
0.0
  0
SPLINE
  5
2B1
100
AcDbEntity
  8
ASSI
100
AcDbSpline
 62
7
  6
CONTINUOUS
 70
0
 71
3
 72
17
 73
13
 74
11
 42
0.0000001
 43
0.0000001
 44
0.0000000001
 12
0.002322982
 22
-0.2723078731
 32
0.0
 13
-0.2595482812
 23
-0.0833478641
 33
0.0
 40
0.0
 40
0.0
 40
0.0
 40
0.0
 40
0.1215910421
 40
0.2382115935
 40
0.3490473415
 40
0.4537496329
 40
0.5532322124
 40
0.6484805119
 40
0.7398428647
 40
0.8280303749
 40
0.9148420727
 40
1.0
 40
1.0
 40
1.0
 40
1.0
 10
1.0316098483
 20
2.1369347714
 30
0.0
 10
1.0317039996
 20
2.1258980387
 30
0.0
 10
1.0310484207
 20
2.1042559809
 30
0.0
 10
1.0273433218
 20
2.0727469285
 30
0.0
 10
1.0209659073
 20
2.0432257703
 30
0.0
 10
1.0119937612
 20
2.016012886
 30
0.0
 10
1.0004991021
 20
1.9913071217
 30
0.0
 10
0.9865464656
 20
1.9693088994
 30
0.0
 10
0.9702687301
 20
1.950287311
 30
0.0
 10
0.9518547188
 20
1.9344655369
 30
0.0
 10
0.9316290119
 20
1.9220761929
 30
0.0
 10
0.9171200573
 20
1.9161393145
 30
0.0
 10
0.9097525261
 20
1.9137734041
 30
0.0
 11
1.0316098483
 21
2.1369347714
 31
0.0
 11
1.0305467439
 21
2.1038404395
 31
0.0
 11
1.0267685905
 21
2.0723081294
 31
0.0
 11
1.0203191629
 21
2.0428226939
 31
0.0
 11
1.0113132008
 21
2.015770085
 31
0.0
 11
0.9998089395
 21
1.991243212
 31
0.0
 11
0.9858481508
 21
1.9693830624
 31
0.0
 11
0.9696205947
 21
1.9505240969
 31
0.0
 11
0.9513768612
 21
1.9349071922
 31
0.0
 11
0.9312101077
 21
1.9225715082
 31
0.0
 11
0.9097525261
 21
1.9137734041
 31
0.0
  0
SPLINE
  5
2B2
100
AcDbEntity
  8
ASSI
100
AcDbSpline
 62
7
  6
CONTINUOUS
 70
0
 71
3
 72
23
 73
19
 74
17
 42
0.0000001
 43
0.0000001
 44
0.0000000001
 12
0.5249182302
 22
-0.2624591151
 32
0.0
 13
0.0036517027
 23
-0.5868650616
 33
0.0
 40
0.0
 40
0.0
 40
0.0
 40
0.0
 40
0.0540534394
 40
0.1108095711
 40
0.1698178519
 40
0.2305904547
 40
0.293167576
 40
0.3575314641
 40
0.4230178089
 40
0.4889353731
 40
0.5552387648
 40
0.6218827833
 40
0.6881587177
 40
0.7533442148
 40
0.8173672924
 40
0.8802128772
 40
0.9412902139
 40
1.0
 40
1.0
 40
1.0
 40
1.0
 10
0.7387083896
 20
3.8325798481
 30
0.0
 10
0.7481662682
 20
3.8278509088
 30
0.0
 10
0.7670928558
 20
3.8172101245
 30
0.0
 10
0.7945617193
 20
3.7984629551
 30
0.0
 10
0.8214713957
 20
3.7767619273
 30
0.0
 10
0.8475350879
 20
3.752360179
 30
0.0
 10
0.8725643433
 20
3.7254521292
 30
0.0
 10
0.8963546951
 20
3.6962455053
 30
0.0
 10
0.9186338138
 20
3.6650653451
 30
0.0
 10
0.939167602
 20
3.632262039
 30
0.0
 10
0.9578097788
 20
3.598090263
 30
0.0
 10
0.9744109099
 20
3.5628038618
 30
0.0
 10
0.9887786084
 20
3.5267855023
 30
0.0
 10
1.0007583073
 20
3.4904429012
 30
0.0
 10
1.0102635948
 20
3.4540681346
 30
0.0
 10
1.0172120999
 20
3.4179347335
 30
0.0
 10
1.0215137612
 20
3.3824381712
 30
0.0
 10
1.0226092723
 20
3.3590030076
 30
0.0
 10
1.0226807359
 20
3.3475181002
 30
0.0
 11
0.7387083896
 21
3.8325798481
 31
0.0
 11
0.766392656
 21
3.8170908068
 31
0.0
 11
0.7939379717
 21
3.7983629102
 31
0.0
 11
0.8209261575
 21
3.7766623545
 31
0.0
 11
0.8469900787
 21
3.752316182
 31
0.0
 11
0.8720267327
 21
3.7254480911
 31
0.0
 11
0.8959023373
 21
3.6961768763
 31
0.0
 11
0.9182602012
 21
3.6649170833
 31
0.0
 11
0.9387950708
 21
3.6321316554
 31
0.0
 11
0.9574335021
 21
3.5979740116
 31
0.0
 11
0.9740805829
 21
3.5625818113
 31
0.0
 11
0.9884820183
 21
3.526450376
 31
0.0
 11
1.0004418388
 21
3.4901120859
 31
0.0
 11
1.0099173036
 21
3.4537528561
 31
0.0
 11
1.0168498537
 21
3.417527653
 31
0.0
 11
1.0211208237
 21
3.3819381601
 31
0.0
 11
1.0226807359
 21
3.3475181002
 31
0.0
  0
LINE
  5
2B3
100
AcDbEntity
  8
ASSI
100
AcDbLine
 62
7
  6
CONTINUOUS
 10
-5.4030618605
 20
5.3542706258
 11
-5.4045603736
 21
5.5335283907
  0
LINE
  5
2B4
100
AcDbEntity
  8
ASSI
100
AcDbLine
 62
7
  6
CONTINUOUS
 10
-5.4045603736
 20
5.5335283907
 11
-5.4049254507
 21
5.5783472391
  0
LINE
  5
2B5
100
AcDbEntity
  8
ASSI
100
AcDbLine
 62
7
  6
CONTINUOUS
 10
-5.4049254507
 20
5.5783472391
 11
-5.4063475564
 21
5.7576402707
  0
LINE
  5
2B6
100
AcDbEntity
  8
ASSI
100
AcDbLine
 62
7
  6
CONTINUOUS
 10
-5.4063475564
 20
5.7576402707
 11
-5.4077085909
 21
5.9369684132
  0
LINE
  5
2B7
100
AcDbEntity
  8
ASSI
100
AcDbLine
 62
7
  6
CONTINUOUS
 10
-5.4077085909
 20
5.9369684132
 11
-5.4080392986
 21
5.9818048385
  0
LINE
  5
2B8
100
AcDbEntity
  8
ASSI
100
AcDbLine
 62
7
  6
CONTINUOUS
 10
-5.4080392986
 20
5.9818048385
 11
-5.4093239281
 21
6.1611681647
  0
LINE
  5
2B9
100
AcDbEntity
  8
ASSI
100
AcDbLine
 62
7
  6
CONTINUOUS
 10
-5.4093239281
 20
6.1611681647
 11
-5.4105474827
 21
6.3405665215
  0
LINE
  5
2BA
100
AcDbEntity
  8
ASSI
100
AcDbLine
 62
7
  6
CONTINUOUS
 10
-5.4105474827
 20
6.3405665215
 11
-5.4108438209
 21
6.3854204969
  0
LINE
  5
2BB
100
AcDbEntity
  8
ASSI
100
AcDbLine
 62
7
  6
CONTINUOUS
 10
-5.4108438209
 20
6.3854204969
 11
-5.4119909729
 21
6.5648539546
  0
SPLINE
  5
2BC
100
AcDbEntity
  8
ASSI
100
AcDbSpline
 62
7
  6
CONTINUOUS
 70
0
 71
3
 72
14
 73
10
 74
8
 42
0.0000001
 43
0.0000001
 44
0.0000000001
 12
-0.1348742279
 22
-0.0433117058
 32
0.0
 13
-0.1305045418
 23
0.0549059436
 33
0.0
 40
0.0
 40
0.0
 40
0.0
 40
0.0
 40
0.0041519654
 40
0.1751397287
 40
0.3507158298
 40
0.5337212842
 40
0.7267852074
 40
0.9302596416
 40
1.0
 40
1.0
 40
1.0
 40
1.0
 10
0.9097525261
 20
1.9137734041
 30
0.0
 10
0.9095658618
 20
1.9137134612
 30
0.0
 10
0.9016869663
 20
1.9112004697
 30
0.0
 10
0.8854969925
 20
1.9074823105
 30
0.0
 10
0.8604951773
 20
1.9056440241
 30
0.0
 10
0.8344550391
 20
1.907404141
 30
0.0
 10
0.8075749279
 20
1.9127478834
 30
0.0
 10
0.7866066912
 20
1.9195293237
 30
0.0
 10
0.7746374814
 20
1.9243310992
 30
0.0
 10
0.7716036702
 20
1.9256074859
 30
0.0
 11
0.9097525261
 21
1.9137734041
 31
0.0
 11
0.9091921825
 21
1.913594681
 31
0.0
 11
0.8856203112
 21
1.9081324843
 31
0.0
 11
0.8608465411
 21
1.9062425362
 31
0.0
 11
0.8350031347
 21
1.9079090458
 31
0.0
 11
0.8081905247
 21
1.9131522556
 31
0.0
 11
0.7807686225
 21
1.921933676
 31
0.0
 11
0.7716036702
 21
1.9256074859
 31
0.0
  0
SPLINE
  5
2BD
100
AcDbEntity
  8
ASSI
100
AcDbSpline
 62
253
  6
CONTINUOUS
 70
0
 71
3
 72
14
 73
10
 74
8
 42
0.0000001
 43
0.0000001
 44
0.0000000001
 12
0.1079759423
 22
0.059107575
 32
0.0
 13
0.1114318115
 23
-0.0519160149
 33
0.0
 40
0.0
 40
0.0
 40
0.0
 40
0.0
 40
0.0441160084
 40
0.1884254707
 40
0.3362174592
 40
0.4897860629
 40
0.6509086686
 40
0.8207758232
 40
1.0
 40
1.0
 40
1.0
 40
1.0
 10
-17.4757192113
 20
16.0404165053
 30
0.0
 10
-17.4741313888
 20
16.0412857021
 30
0.0
 10
-17.4672480383
 20
16.0448123117
 30
0.0
 10
-17.4542662509
 20
16.0496379402
 30
0.0
 10
-17.4362203109
 20
16.0529600424
 30
0.0
 10
-17.4171958997
 20
16.0533275854
 30
0.0
 10
-17.3974399903
 20
16.050757716
 30
0.0
 10
-17.3772009894
 20
16.0453028658
 30
0.0
 10
-17.3639012827
 20
16.0399380499
 30
0.0
 10
-17.3572441911
 20
16.0368365148
 30
0.0
 11
-17.4757192113
 21
16.0404165053
 31
0.0
 11
-17.4708867064
 21
16.0428920005
 31
0.0
 11
-17.454266652
 21
16.0490961297
 31
0.0
 11
-17.4364075643
 21
16.0524343082
 31
0.0
 11
-17.4175339446
 21
16.0528645726
 31
0.0
 11
-17.3978830477
 21
16.0503815143
 31
0.0
 11
-17.3777018995
 21
16.0450163471
 31
0.0
 11
-17.3572441911
 21
16.0368365148
 31
0.0
  0
SPLINE
  5
2BE
100
AcDbEntity
  8
ASSI
100
AcDbSpline
 62
253
  6
CONTINUOUS
 70
0
 71
3
 72
16
 73
12
 74
10
 42
0.0000001
 43
0.0000001
 44
0.0000000001
 12
0.0036161411
 22
-0.2418106442
 32
0.0
 13
0.2159330084
 23
-0.1081392179
 33
0.0
 40
0.0
 40
0.0
 40
0.0
 40
0.0
 40
0.0103930823
 40
0.112579263
 40
0.2175952981
 40
0.3277075684
 40
0.4447151008
 40
0.5698908706
 40
0.7040051987
 40
0.8473880301
 40
1.0
 40
1.0
 40
1.0
 40
1.0
 10
-17.611380947
 20
7.8847159069
 30
0.0
 10
-17.6113684194
 20
7.8838781876
 30
0.0
 10
-17.6111453089
 20
7.8748052913
 30
0.0
 10
-17.6088760533
 20
7.8573329098
 30
0.0
 10
-17.6009792743
 20
7.8329002624
 30
0.0
 10
-17.5885342175
 20
7.8091073078
 30
0.0
 10
-17.5717023401
 20
7.7861657655
 30
0.0
 10
-17.5506664446
 20
7.7642634202
 30
0.0
 10
-17.5256298097
 20
7.7435767337
 30
0.0
 10
-17.4968250332
 20
7.724277593
 30
0.0
 10
-17.4759123355
 20
7.7127919322
 30
0.0
 10
-17.4649276816
 20
7.7072908192
 30
0.0
 11
-17.611380947
 21
7.8847159069
 31
0.0
 11
-17.6113191206
 21
7.8822032876
 31
0.0
 11
-17.6081769756
 21
7.8577264143
 31
0.0
 11
-17.6004610187
 21
7.8335675414
 31
0.0
 11
-17.5882422959
 21
7.8099491159
 31
0.0
 11
-17.5716333134
 21
7.7870886089
 31
0.0
 11
-17.5507870013
 21
7.7651965124
 31
0.0
 11
-17.5258953058
 21
7.7444744018
 31
0.0
 11
-17.4971874216
 21
7.7251130798
 31
0.0
 11
-17.4649276816
 21
7.7072908192
 31
0.0
  0
SPLINE
  5
2BF
100
AcDbEntity
  8
ASSI
100
AcDbSpline
 62
253
  6
CONTINUOUS
 70
0
 71
3
 72
15
 73
11
 74
9
 42
0.0000001
 43
0.0000001
 44
0.0000000001
 12
0.030493881
 22
-0.236524202
 32
0.0
 13
0.2125933002
 23
-0.1074711064
 33
0.0
 40
0.0
 40
0.0
 40
0.0
 40
0.0
 40
0.0537377621
 40
0.1733276751
 40
0.2958332306
 40
0.4229807903
 40
0.5561566662
 40
0.6963631303
 40
0.84422102
 40
1.0
 40
1.0
 40
1.0
 40
1.0
 10
-16.9359039628
 20
-1.8935461619
 30
0.0
 10
-16.9353577385
 20
-1.8977829224
 30
0.0
 10
-16.9330926522
 20
-1.9113833451
 30
0.0
 10
-16.9264789501
 20
-1.9340301093
 30
0.0
 10
-16.9138810584
 20
-1.9606328989
 30
0.0
 10
-16.8968981223
 20
-1.9859683451
 30
0.0
 10
-16.8757147844
 20
-2.0098093338
 30
0.0
 10
-16.8505431578
 20
-2.0319517476
 30
0.0
 10
-16.8216261827
 20
-2.0522066924
 30
0.0
 10
-16.8005682633
 20
-2.0640338018
 30
0.0
 10
-16.7895290741
 20
-2.0696143816
 30
0.0
 11
-16.9359039628
 21
-1.8935461619
 31
0.0
 11
-16.9337984804
 21
-1.9061842651
 31
0.0
 11
-16.9258492962
 21
-1.9335407398
 31
0.0
 11
-16.9134236575
 21
-1.9599457518
 31
0.0
 11
-16.8966360328
 21
-1.9851560505
 31
0.0
 11
-16.8756410741
 21
-2.0089393919
 31
0.0
 11
-16.8506321931
 21
-2.0310766769
 31
0.0
 11
-16.8218397785
 21
-2.0513639709
 31
0.0
 11
-16.7895290741
 21
-2.0696143816
 31
0.0
  0
SPLINE
  5
2C0
100
AcDbEntity
  8
ASSI
100
AcDbSpline
 62
253
  6
CONTINUOUS
 70
0
 71
3
 72
16
 73
12
 74
10
 42
0.0000001
 43
0.0000001
 44
0.0000000001
 12
-0.3871466113
 22
0.2510434959
 32
0.0
 13
-0.0590054171
 23
0.4572819109
 33
0.0
 40
0.0
 40
0.0
 40
0.0
 40
0.0
 40
0.0326832322
 40
0.1395273194
 40
0.2489329878
 40
0.3618525322
 40
0.4790664654
 40
0.6011681179
 40
0.7285654429
 40
0.861485593
 40
1.0
 40
1.0
 40
1.0
 40
1.0
 10
-16.5772044757
 20
-2.4629546947
 30
0.0
 10
-16.5814222099
 20
-2.4602197237
 30
0.0
 10
-16.5991886913
 20
-2.4481749679
 30
0.0
 10
-16.6289576219
 20
-2.4239720334
 30
0.0
 10
-16.6639415483
 20
-2.387249098
 30
0.0
 10
-16.6952255745
 20
-2.3453360959
 30
0.0
 10
-16.7226193092
 20
-2.298522535
 30
0.0
 10
-16.7459607773
 20
-2.247121933
 30
0.0
 10
-16.7651136973
 20
-2.191469752
 30
0.0
 10
-16.7799661876
 20
-2.1319291778
 30
0.0
 10
-16.7868047075
 20
-2.0907277593
 30
0.0
 10
-16.7895290743
 20
-2.0696143817
 30
0.0
 11
-16.5772044757
 21
-2.4629546947
 31
0.0
 11
-16.5896862297
 21
-2.4544934776
 31
0.0
 11
-16.6279488424
 21
-2.4234643143
 31
0.0
 11
-16.6628066771
 21
-2.3870016024
 31
0.0
 11
-16.6940339618
 21
-2.3453418656
 31
0.0
 11
-16.7214285198
 21
-2.2987552518
 31
0.0
 11
-16.7448130124
 21
-2.2475438654
 31
0.0
 11
-16.764036331
 21
-2.192038999
 31
0.0
 11
-16.7789737803
 21
-2.1326013467
 31
0.0
 11
-16.7895290743
 21
-2.0696143817
 31
0.0
  0
SPLINE
  5
2C1
100
AcDbEntity
  8
ASSI
100
AcDbSpline
 62
253
  6
CONTINUOUS
 70
0
 71
3
 72
24
 73
20
 74
18
 42
0.0000001
 43
0.0000001
 44
0.0000000001
 12
-0.3225383182
 22
-0.1537130115
 32
0.0
 13
-0.3195746748
 23
0.1597832403
 33
0.0
 40
0.0
 40
0.0
 40
0.0
 40
0.0
 40
0.0524730889
 40
0.1073724184
 40
0.164442622
 40
0.2233961642
 40
0.283914619
 40
0.3456553533
 40
0.4082554946
 40
0.4713401437
 40
0.5345269365
 40
0.5974328202
 40
0.6596779188
 40
0.7208925822
 40
0.7807219467
 40
0.8388342871
 40
0.894925227
 40
0.9487248433
 40
1.0
 40
1.0
 40
1.0
 40
1.0
 10
13.6394326662
 20
0.5384980862
 30
0.0
 10
13.6337911389
 20
0.5358094873
 30
0.0
 10
13.6220491095
 20
0.5307165
 30
0.0
 10
13.6036167693
 20
0.524064872
 30
0.0
 10
13.5840908966
 20
0.5182709996
 30
0.0
 10
13.5636314332
 20
0.5133827768
 30
0.0
 10
13.5424036317
 20
0.5094396218
 30
0.0
 10
13.5205795586
 20
0.5064736441
 30
0.0
 10
13.498336163
 20
0.5045089689
 30
0.0
 10
13.4758540811
 20
0.5035616171
 30
0.0
 10
13.453315806
 20
0.5036393015
 30
0.0
 10
13.4309043634
 20
0.5047413824
 30
0.0
 10
13.4088016616
 20
0.5068588739
 30
0.0
 10
13.3871871571
 20
0.5099745004
 30
0.0
 10
13.3662360155
 20
0.5140629251
 30
0.0
 10
13.3461179574
 20
0.5190908795
 30
0.0
 10
13.3269952957
 20
0.5250178929
 30
0.0
 10
13.3090245448
 20
0.5317950579
 30
0.0
 10
13.2976196245
 20
0.5369750548
 30
0.0
 10
13.292157544
 20
0.5397060251
 30
0.0
 11
13.6394326662
 21
0.5384980862
 31
0.0
 11
13.6222443841
 21
0.5310106634
 31
0.0
 11
13.6038022839
 21
0.5243290459
 31
0.0
 11
13.584259666
 21
0.5185091345
 31
0.0
 11
13.5637763384
 21
0.5135985823
 31
0.0
 11
13.5425194106
 21
0.50963743
 31
0.0
 11
13.5206619848
 21
0.5066579496
 31
0.0
 11
13.4983825916
 21
0.5046844924
 31
0.0
 11
13.4758629411
 21
0.5037331552
 31
0.0
 11
13.4532868463
 21
0.5038116987
 31
0.0
 11
13.4308382986
 21
0.5049194827
 31
0.0
 11
13.4087005691
 21
0.5070474649
 31
0.0
 11
13.3870542077
 21
0.5101782836
 31
0.0
 11
13.3660760114
 21
0.5142863474
 31
0.0
 11
13.3459367999
 21
0.5193381864
 31
0.0
 11
13.3268008716
 21
0.5252926038
 31
0.0
 11
13.3088246968
 21
0.5321008481
 31
0.0
 11
13.292157544
 21
0.5397060251
 31
0.0
  0
SPLINE
  5
2C2
100
AcDbEntity
  8
ASSI
100
AcDbSpline
 62
7
  6
CONTINUOUS
 70
0
 71
3
 72
23
 73
19
 74
17
 42
0.0000001
 43
0.0000001
 44
0.0000000001
 12
-0.4697235934
 22
0.2720556507
 32
0.0
 13
-0.0327478609
 23
0.5417582291
 33
0.0
 40
0.0
 40
0.0
 40
0.0
 40
0.0
 40
0.0197112377
 40
0.0810136604
 40
0.1447474378
 40
0.2103855487
 40
0.2779702474
 40
0.3474889991
 40
0.4182279689
 40
0.4894443216
 40
0.5610860775
 40
0.6331136178
 40
0.7047627447
 40
0.7752532483
 40
0.8445006569
 40
0.9124937506
 40
0.9785939253
 40
1.0
 40
1.0
 40
1.0
 40
1.0
 10
-5.1369859248
 20
4.8799026608
 30
0.0
 10
-5.1400722026
 20
4.8816901787
 30
0.0
 10
-5.1526477933
 20
4.88922656
 30
0.0
 10
-5.1743006134
 20
4.9039887057
 30
0.0
 10
-5.2011877611
 20
4.9256361582
 30
0.0
 10
-5.2272385544
 20
4.9499731284
 30
0.0
 10
-5.2522660952
 20
4.9768074839
 30
0.0
 10
-5.2760673943
 20
5.0059346099
 30
0.0
 10
-5.2983713376
 20
5.0370338843
 30
0.0
 10
-5.3189432232
 20
5.0697581053
 30
0.0
 10
-5.3376363628
 20
5.1038562459
 30
0.0
 10
-5.3543002557
 20
5.1390776943
 30
0.0
 10
-5.3687409307
 20
5.1750437363
 30
0.0
 10
-5.3808007254
 20
5.2113477118
 30
0.0
 10
-5.3903906359
 20
5.247698569
 30
0.0
 10
-5.3974257201
 20
5.2838234038
 30
0.0
 10
-5.4008773858
 20
5.3117562567
 30
0.0
 10
-5.4020330254
 20
5.3275470296
 30
0.0
 10
-5.4022666932
 20
5.3314126686
 30
0.0
 11
-5.1369859248
 21
4.8799026608
 31
0.0
 11
-5.146164638
 21
4.8854004648
 31
0.0
 11
-5.1736790478
 21
4.9040877449
 31
0.0
 11
-5.2006446813
 21
4.9257350064
 31
0.0
 11
-5.2266958143
 21
4.9500169366
 31
0.0
 11
-5.2517298543
 21
4.9768107927
 31
0.0
 11
-5.2756159221
 21
5.0060020187
 31
0.0
 11
-5.2979981894
 21
5.0371803256
 31
0.0
 11
-5.3185713528
 21
5.0698873063
 31
0.0
 11
-5.3372598729
 21
5.1039700099
 31
0.0
 11
-5.3539697287
 21
5.139296884
 31
0.0
 11
-5.3684442954
 21
5.1753758156
 31
0.0
 11
-5.3804845614
 21
5.2116767092
 31
0.0
 11
-5.3900443707
 21
5.2480112353
 31
0.0
 11
-5.3970636946
 21
5.2842278379
 31
0.0
 11
-5.4014205521
 21
5.3198257381
 31
0.0
 11
-5.4022666932
 21
5.3314126686
 31
0.0
  0
SPLINE
  5
2C3
100
AcDbEntity
  8
ASSI
100
AcDbSpline
 62
7
  6
CONTINUOUS
 70
0
 71
3
 72
16
 73
12
 74
10
 42
0.0000001
 43
0.0000001
 44
0.0000000001
 12
0.0099543161
 22
0.2047498668
 32
0.0
 13
0.1669985182
 23
0.1191182173
 33
0.0
 40
0.0
 40
0.0
 40
0.0
 40
0.0
 40
0.0529206477
 40
0.2079171624
 40
0.3553429345
 40
0.4947252683
 40
0.627260687
 40
0.7542616108
 40
0.876171847
 40
0.9939121289
 40
1.0
 40
1.0
 40
1.0
 40
1.0
 10
-5.4115287561
 20
6.5870978185
 30
0.0
 10
-5.4113531598
 20
6.5907096504
 30
0.0
 10
-5.4104652689
 20
6.6048906617
 30
0.0
 10
-5.4075639066
 20
6.6290211231
 30
0.0
 10
-5.4010999871
 20
6.6585509433
 30
0.0
 10
-5.3920371641
 20
6.6857846065
 30
0.0
 10
-5.3804473679
 20
6.7105209242
 30
0.0
 10
-5.3663952005
 20
6.732556922
 30
0.0
 10
-5.3500137716
 20
6.7516211494
 30
0.0
 10
-5.3372144689
 20
6.7625858133
 30
0.0
 10
-5.3303419837
 20
6.7675312394
 30
0.0
 10
-5.3300030952
 20
6.7677729648
 30
0.0
 11
-5.4115287561
 21
6.5870978185
 31
0.0
 11
-5.4108487156
 21
6.5979245585
 31
0.0
 11
-5.406988463
 21
6.6294503586
 31
0.0
 11
-5.4004532687
 21
6.658944916
 31
0.0
 11
-5.3913575522
 21
6.6860195654
 31
0.0
 11
-5.379759603
 21
6.7105772192
 31
0.0
 11
-5.3656996819
 21
6.7324768554
 31
0.0
 11
-5.3493681388
 21
6.7513805246
 31
0.0
 11
-5.3310167175
 21
6.7670435656
 31
0.0
 11
-5.3300030952
 21
6.7677729648
 31
0.0
  0
SPLINE
  5
2C4
100
AcDbEntity
  8
ASSI
100
AcDbSpline
 62
253
  6
CONTINUOUS
 70
0
 71
3
 72
24
 73
20
 74
18
 42
0.0000001
 43
0.0000001
 44
0.0000000001
 12
-0.2109636275
 22
0.1054845185
 32
0.0
 13
0.206907066
 23
0.11323472
 33
0.0
 40
0.0
 40
0.0
 40
0.0
 40
0.0
 40
0.073604999
 40
0.1429946744
 40
0.2081158634
 40
0.2690715761
 40
0.326139588
 40
0.3797983211
 40
0.4307418959
 40
0.4798748912
 40
0.5282642816
 40
0.5770507795
 40
0.6273350143
 40
0.6800785173
 40
0.7360420195
 40
0.7957693816
 40
0.8595969972
 40
0.9276778407
 40
1.0
 40
1.0
 40
1.0
 40
1.0
 10
-17.3511813726
 20
15.8613754834
 30
0.0
 10
-17.3563573651
 20
15.863963546
 30
0.0
 10
-17.3662403918
 20
15.8693496891
 30
0.0
 10
-17.3799398173
 20
15.8783329077
 30
0.0
 10
-17.3919816636
 20
15.8879209332
 30
0.0
 10
-17.4022664248
 20
15.8980415612
 30
0.0
 10
-17.4107080173
 20
15.9086213753
 30
0.0
 10
-17.4172294567
 20
15.9195838088
 30
0.0
 10
-17.4217621665
 20
15.9308456282
 30
0.0
 10
-17.4242487119
 20
15.942311191
 30
0.0
 10
-17.4246520124
 20
15.9538697195
 30
0.0
 10
-17.4229659669
 20
15.9654015276
 30
0.0
 10
-17.4192174363
 20
15.9767915614
 30
0.0
 10
-17.4134574
 20
15.9879387596
 30
0.0
 10
-17.4057503415
 20
15.9987557871
 30
0.0
 10
-17.3961695585
 20
16.0091634798
 30
0.0
 10
-17.384796967
 20
16.0190864833
 30
0.0
 10
-17.3717275009
 20
16.0284504535
 30
0.0
 10
-17.3622321797
 20
16.0341067217
 30
0.0
 10
-17.3572441911
 20
16.0368365148
 30
0.0
 11
-17.3511813726
 21
15.8613754834
 31
0.0
 11
-17.3664071324
 21
15.8697167627
 31
0.0
 11
-17.3800697253
 21
15.8787279023
 31
0.0
 11
-17.3920549877
 21
15.8883340803
 31
0.0
 11
-17.4022647931
 21
15.8984567497
 31
0.0
 11
-17.4106158816
 21
15.9090133283
 31
0.0
 11
-17.4170402148
 21
15.9199178569
 31
0.0
 11
-17.4214852817
 21
15.9310812729
 31
0.0
 11
-17.4239148167
 21
15.9424125302
 31
0.0
 11
-17.4243089882
 21
15.9538191198
 31
0.0
 11
-17.4226645837
 21
15.9652080801
 31
0.0
 11
-17.4189950168
 21
15.9764864504
 31
0.0
 11
-17.4133302187
 21
15.9875622446
 31
0.0
 11
-17.405716489
 21
15.998344996
 31
0.0
 11
-17.3962158588
 21
16.0087468969
 31
0.0
 11
-17.3849057951
 21
16.0186830854
 31
0.0
 11
-17.3718789066
 21
16.0280723087
 31
0.0
 11
-17.3572441911
 21
16.0368365148
 31
0.0
  0
SPLINE
  5
2C5
100
AcDbEntity
  8
ASSI
100
AcDbSpline
 62
253
  6
CONTINUOUS
 70
0
 71
3
 72
14
 73
10
 74
8
 42
0.0000001
 43
0.0000001
 44
0.0000000001
 12
-1.2344531456
 22
9.7271211268
 32
0.0
 13
-0.1480272948
 23
9.8040220269
 33
0.0
 40
0.0
 40
0.0
 40
0.0
 40
0.0
 40
0.1390931295
 40
0.2794615902
 40
0.4210944051
 40
0.5639791418
 40
0.7081019866
 40
0.8534477621
 40
1.0
 40
1.0
 40
1.0
 40
1.0
 10
-16.7895290743
 20
-2.0696143817
 30
0.0
 10
-16.8467637247
 20
-1.6186224756
 30
0.0
 10
-16.954074338
 20
-0.7115106347
 30
0.0
 10
-17.0930893052
 20
0.6578060768
 30
0.0
 10
-17.2108459304
 20
2.0415546299
 30
0.0
 10
-17.3073028639
 20
3.4392481497
 30
0.0
 10
-17.3824269949
 20
4.8504028342
 30
0.0
 10
-17.4361923092
 20
6.2745231956
 30
0.0
 10
-17.4576964378
 20
7.2283570296
 30
0.0
 10
-17.4649276816
 20
7.7072908192
 30
0.0
 11
-16.7895290743
 21
-2.0696143817
 31
0.0
 11
-16.9498557472
 21
-0.715243347
 31
0.0
 11
-17.0889702839
 21
0.654040349
 31
0.0
 11
-17.2068243374
 21
2.0377599933
 31
0.0
 11
-17.3033769444
 21
3.4354337618
 31
0.0
 11
-17.3785945581
 21
4.8465751273
 31
0.0
 11
-17.4324510395
 21
6.2706927339
 31
0.0
 11
-17.4649276816
 21
7.7072908192
 31
0.0
  0
SPLINE
  5
2C6
100
AcDbEntity
  8
ASSI
100
AcDbSpline
 62
253
  6
CONTINUOUS
 70
0
 71
3
 72
16
 73
12
 74
10
 42
0.0000001
 43
0.0000001
 44
0.0000000001
 12
-0.2159690029
 22
0.1079887814
 32
0.0
 13
-0.0006320221
 23
0.241788186
 33
0.0
 40
0.0
 40
0.0
 40
0.0
 40
0.0
 40
0.1438104959
 40
0.2793232648
 40
0.4064561134
 40
0.5254003835
 40
0.6366911712
 40
0.7412570252
 40
0.8404517125
 40
0.9360460384
 40
1.0
 40
1.0
 40
1.0
 40
1.0
 10
-17.5264134663
 20
15.5570871925
 30
0.0
 10
-17.5367663362
 20
15.5622638325
 30
0.0
 10
-17.5565312313
 20
15.5730315155
 30
0.0
 10
-17.5839304484
 20
15.5909780122
 30
0.0
 10
-17.6080126752
 20
15.6101188605
 30
0.0
 10
-17.6285811891
 20
15.6303110268
 30
0.0
 10
-17.6454639729
 20
15.6514081939
 30
0.0
 10
-17.6585073577
 20
15.6732580577
 30
0.0
 10
-17.667574157
 20
15.695695336
 30
0.0
 10
-17.672029994
 20
15.7161478954
 30
0.0
 10
-17.6728474955
 20
15.7290055398
 30
0.0
 10
-17.672860969
 20
15.7341599772
 30
0.0
 11
-17.5264134663
 21
15.5570871925
 31
0.0
 11
-17.5568703465
 21
15.5737663439
 31
0.0
 11
-17.5841947052
 21
15.5917680281
 31
0.0
 11
-17.6081646187
 21
15.6109461381
 31
0.0
 11
-17.6285836046
 21
15.6311435998
 31
0.0
 11
-17.6452852117
 21
15.6521957008
 31
0.0
 11
-17.6581333909
 21
15.6739310018
 31
0.0
 11
-17.6670231516
 21
15.6961719824
 31
0.0
 11
-17.6718819949
 21
15.718737251
 31
0.0
 11
-17.672860969
 21
15.7341599772
 31
0.0
  0
SPLINE
  5
2C7
100
AcDbEntity
  8
ASSI
100
AcDbSpline
 62
253
  6
CONTINUOUS
 70
0
 71
3
 72
21
 73
17
 74
15
 42
0.0000001
 43
0.0000001
 44
0.0000000001
 12
-0.0027086902
 22
0.3665006289
 32
0.0
 13
-0.3229569199
 23
0.1732884182
 33
0.0
 40
0.0
 40
0.0
 40
0.0
 40
0.0
 40
0.0675515957
 40
0.1379106427
 40
0.210618269
 40
0.2851460241
 40
0.3609149144
 40
0.4373129777
 40
0.5137119661
 40
0.5894836079
 40
0.6640158694
 40
0.7367296356
 40
0.8070962814
 40
0.8746567015
 40
0.9390424875
 40
1.0
 40
1.0
 40
1.0
 40
1.0
 10
13.8114749043
 20
0.2313520905
 30
0.0
 10
13.8114139122
 20
0.2396046579
 30
0.0
 10
13.8105305673
 20
0.2564539093
 30
0.0
 10
13.8071204322
 20
0.2819823908
 30
0.0
 10
13.8016388359
 20
0.3080189129
 30
0.0
 10
13.7941543056
 20
0.334237517
 30
0.0
 10
13.7847601062
 20
0.3603128665
 30
0.0
 10
13.7735733048
 20
0.3859199849
 30
0.0
 10
13.7607333301
 20
0.4107398039
 30
0.0
 10
13.7464001853
 20
0.4344629852
 30
0.0
 10
13.7307523691
 20
0.456794008
 30
0.0
 10
13.713984322
 20
0.4774550088
 30
0.0
 10
13.6963041823
 20
0.4961890443
 30
0.0
 10
13.6779291032
 20
0.5127641011
 30
0.0
 10
13.6590878934
 20
0.5269725324
 30
0.0
 10
13.645994883
 20
0.5349770092
 30
0.0
 10
13.6394326662
 20
0.5384980862
 30
0.0
 11
13.8114749043
 21
0.2313520905
 31
0.0
 11
13.8102247525
 21
0.2560788862
 31
0.0
 11
13.8068470147
 21
0.2816440529
 31
0.0
 11
13.8013841515
 21
0.3077262182
 31
0.0
 11
13.7939048352
 21
0.3339975106
 31
0.0
 11
13.7845030862
 21
0.3601276811
 31
0.0
 11
13.7732970914
 21
0.3857882549
 31
0.0
 11
13.760427718
 21
0.4106566602
 31
0.0
 11
13.7460567436
 21
0.4344202836
 31
0.0
 11
13.7303648214
 21
0.4567803996
 31
0.0
 11
13.7135492103
 21
0.4774559258
 31
0.0
 11
13.6958212943
 21
0.4961869563
 31
0.0
 11
13.677403926
 21
0.512738029
 31
0.0
 11
13.6585286247
 21
0.5269010855
 31
0.0
 11
13.6394326662
 21
0.5384980862
 31
0.0
  0
SPLINE
  5
2C8
100
AcDbEntity
  8
ASSI
100
AcDbSpline
 62
253
  6
CONTINUOUS
 70
0
 71
3
 72
21
 73
17
 74
15
 42
0.0000001
 43
0.0000001
 44
0.0000000001
 12
-0.0002381811
 22
0.3665649359
 32
0.0
 13
0.3264581342
 23
0.1667183122
 33
0.0
 40
0.0
 40
0.0
 40
0.0
 40
0.0
 40
0.0673451676
 40
0.1373665829
 40
0.2096497344
 40
0.2837102531
 40
0.3590123512
 40
0.4349859312
 40
0.5110428482
 40
0.5865927408
 40
0.6610588114
 40
0.7338939267
 40
0.8045974427
 40
0.8727332169
 40
0.9379493261
 40
1.0
 40
1.0
 40
1.0
 40
1.0
 10
13.1169235526
 20
0.2354186833
 30
0.0
 10
13.1169182058
 20
0.2436474757
 30
0.0
 10
13.1176876403
 20
0.2604398838
 30
0.0
 10
13.1209928724
 20
0.2858685358
 30
0.0
 10
13.1264317185
 20
0.3117664833
 30
0.0
 10
13.1339366341
 20
0.337812556
 30
0.0
 10
13.1434148625
 20
0.3636868891
 30
0.0
 10
13.1547493825
 20
0.3890702517
 30
0.0
 10
13.1678002967
 20
0.4136495329
 30
0.0
 10
13.1824065941
 20
0.4371214124
 30
0.0
 10
13.1983882032
 20
0.4591963238
 30
0.0
 10
13.2155485166
 20
0.4796021559
 30
0.0
 10
13.2336766097
 20
0.4980874029
 30
0.0
 10
13.2525518369
 20
0.5144249904
 30
0.0
 10
13.2719411617
 20
0.5284118202
 30
0.0
 10
13.2854052283
 20
0.5362576972
 30
0.0
 10
13.292157544
 20
0.5397060251
 30
0.0
 11
13.1169235526
 21
0.2354186833
 31
0.0
 11
13.1180082358
 21
0.2600812244
 31
0.0
 11
13.1212801155
 21
0.2855392345
 31
0.0
 11
13.1266984599
 21
0.3114757859
 31
0.0
 11
13.1341958158
 21
0.3375679933
 31
0.0
 11
13.1436788483
 21
0.3634910338
 31
0.0
 11
13.1550295028
 21
0.3889221904
 31
0.0
 11
13.1681064745
 21
0.4135448695
 31
0.0
 11
13.1827469676
 21
0.4370525423
 31
0.0
 11
13.198768722
 21
0.459152561
 31
0.0
 11
13.2159722823
 21
0.4795698013
 31
0.0
 11
13.2341434805
 21
0.4980500883
 31
0.0
 11
13.2530561027
 21
0.5143633601
 31
0.0
 11
13.2724747049
 21
0.528306532
 31
0.0
 11
13.292157544
 21
0.5397060251
 31
0.0
  0
SPLINE
  5
2C9
100
AcDbEntity
  8
ASSI
100
AcDbSpline
 62
253
  6
CONTINUOUS
 70
0
 71
3
 72
17
 73
13
 74
11
 42
0.0000001
 43
0.0000001
 44
0.0000000001
 12
-0.0146233495
 22
-0.3374304751
 32
0.0
 13
-0.3134643983
 23
-0.1267186416
 33
0.0
 40
0.0
 40
0.0
 40
0.0
 40
0.0
 40
0.1257612106
 40
0.2463557878
 40
0.361548946
 40
0.4712938634
 40
0.5757615065
 40
0.6753678851
 40
0.7707922496
 40
0.8629762818
 40
0.9530928601
 40
1.0
 40
1.0
 40
1.0
 40
1.0
 10
14.9401140082
 20
-17.5693839011
 30
0.0
 10
14.9395009915
 20
-17.5835291228
 30
0.0
 10
14.9372500548
 20
-17.6112079309
 30
0.0
 10
14.9305700056
 20
-17.651410288
 30
0.0
 10
14.92071075
 20
-17.6891026779
 30
0.0
 10
14.9077571819
 20
-17.7239250732
 30
0.0
 10
14.8918197528
 20
-17.7555459064
 30
0.0
 10
14.8730342143
 20
-17.7836573678
 30
0.0
 10
14.8515632636
 20
-17.8079762376
 30
0.0
 10
14.8276011564
 20
-17.8282448189
 30
0.0
 10
14.8054792992
 20
-17.8417367686
 30
0.0
 10
14.791403056
 20
-17.8481211706
 30
0.0
 10
14.7865018166
 20
-17.8501025069
 30
0.0
 11
14.9401140082
 21
-17.5693839011
 31
0.0
 11
14.936603273
 21
-17.6117140619
 31
0.0
 11
14.9298498878
 21
-17.6518807621
 31
0.0
 11
14.9199187402
 21
-17.6894980728
 31
0.0
 11
14.9069052505
 21
-17.7242045601
 31
0.0
 11
14.8909344548
 21
-17.7556667578
 31
0.0
 11
14.8721598031
 21
-17.7835823714
 31
0.0
 11
14.850761686
 21
-17.8076831826
 31
0.0
 11
14.8269457002
 21
-17.8277376264
 31
0.0
 11
14.8009406742
 21
-17.8435530161
 31
0.0
 11
14.7865018166
 21
-17.8501025069
 31
0.0
  0
SPLINE
  5
2CA
100
AcDbEntity
  8
ASSI
100
AcDbSpline
 62
253
  6
CONTINUOUS
 70
0
 71
3
 72
24
 73
20
 74
18
 42
0.0000001
 43
0.0000001
 44
0.0000000001
 12
0.0639027533
 22
-0.4717728467
 32
0.0
 13
0.4413838546
 23
0.1784193758
 33
0.0
 40
0.0
 40
0.0
 40
0.0
 40
0.0
 40
0.0674522603
 40
0.1324328803
 40
0.1949921921
 40
0.2552669519
 40
0.3134744861
 40
0.3699113309
 40
0.4249505657
 40
0.4790314766
 40
0.5326426374
 40
0.5862971832
 40
0.6405065485
 40
0.6957524301
 40
0.7524643122
 40
0.8110030704
 40
0.8716529464
 40
0.9346161818
 40
1.0
 40
1.0
 40
1.0
 40
1.0
 10
14.5974529739
 20
-17.3612873987
 30
0.0
 10
14.5988897689
 20
-17.3718947803
 30
0.0
 10
14.6025005759
 20
-17.3926251821
 30
0.0
 10
14.6103297086
 20
-17.4226004743
 30
0.0
 10
14.6204261195
 20
-17.4506894165
 30
0.0
 10
14.6327296452
 20
-17.4767050141
 30
0.0
 10
14.6471670959
 20
-17.5004764303
 30
0.0
 10
14.6636510176
 20
-17.5218438017
 30
0.0
 10
14.6820785215
 20
-17.5406599523
 30
0.0
 10
14.702330341
 20
-17.556792294
 30
0.0
 10
14.7242705174
 20
-17.5701258252
 30
0.0
 10
14.7477478156
 20
-17.5805665722
 30
0.0
 10
14.772598655
 20
-17.5880441
 30
0.0
 10
14.7986510345
 20
-17.592512352
 30
0.0
 10
14.8257278943
 20
-17.5939485948
 30
0.0
 10
14.8536492202
 20
-17.5923516532
 30
0.0
 10
14.8822335909
 20
-17.587739453
 30
0.0
 10
14.9112921361
 20
-17.5801503837
 30
0.0
 10
14.930494221
 20
-17.5732724811
 30
0.0
 10
14.9401140082
 20
-17.5693839011
 30
0.0
 11
14.5974529739
 21
-17.3612873987
 31
0.0
 11
14.6030106654
 21
-17.3929155568
 31
0.0
 11
14.6108773919
 21
-17.4228346704
 31
0.0
 11
14.6210014381
 21
-17.45084447
 31
0.0
 11
14.6333171474
 21
-17.4767628976
 31
0.0
 11
14.647744935
 21
-17.5004222816
 31
0.0
 11
14.6641914013
 21
-17.5216691812
 31
0.0
 11
14.6825500648
 21
-17.5403658091
 31
0.0
 11
14.7027019971
 21
-17.5563908633
 31
0.0
 11
14.7245167852
 21
-17.5696404576
 31
0.0
 11
14.7478530078
 21
-17.5800285384
 31
0.0
 11
14.7725596094
 21
-17.587487721
 31
0.0
 11
14.7984764639
 21
-17.5919695189
 31
0.0
 11
14.8254355831
 21
-17.5934447712
 31
0.0
 11
14.853262145
 21
-17.5919038473
 31
0.0
 11
14.881776096
 21
-17.5873566123
 31
0.0
 11
14.9107920683
 21
-17.5798326374
 31
0.0
 11
14.9401140082
 21
-17.5693839011
 31
0.0
  0
SPLINE
  5
2CB
100
AcDbEntity
  8
ASSI
100
AcDbSpline
 62
253
  6
CONTINUOUS
 70
0
 71
3
 72
17
 73
13
 74
11
 42
0.0000001
 43
0.0000001
 44
0.0000000001
 12
0.0673496766
 22
-0.505193452
 32
0.0
 13
0.4557939012
 23
-0.2288339109
 33
0.0
 40
0.0
 40
0.0
 40
0.0
 40
0.0
 40
0.1257951957
 40
0.2468052935
 40
0.3631336894
 40
0.4750193806
 40
0.5828564352
 40
0.6871935549
 40
0.7887311989
 40
0.8883038923
 40
0.9868488866
 40
1.0
 40
1.0
 40
1.0
 40
1.0
 10
13.9068514299
 20
-17.4178046338
 30
0.0
 10
13.9096755185
 20
-17.4389882702
 30
0.0
 10
13.9167699353
 20
-17.48036467
 30
0.0
 10
13.9321604318
 20
-17.5401801901
 30
0.0
 10
13.9520066021
 20
-17.5961814074
 30
0.0
 10
13.9761915692
 20
-17.648001161
 30
0.0
 10
14.0045724563
 20
-17.6952997946
 30
0.0
 10
14.036978632
 20
-17.7377596181
 30
0.0
 10
14.0732094092
 20
-17.775087845
 30
0.0
 10
14.1130316104
 20
-17.807020208
 30
0.0
 10
14.1437622743
 20
-17.8257569139
 30
0.0
 10
14.1606586756
 20
-17.834423637
 30
0.0
 10
14.1626567414
 20
-17.8354267773
 30
0.0
 11
13.9068514299
 21
-17.4178046338
 31
0.0
 11
13.9177818767
 21
-17.4809791752
 31
0.0
 11
13.9332502043
 21
-17.5406822666
 31
0.0
 11
13.9531567559
 21
-17.5965287495
 31
0.0
 11
13.9773723596
 21
-17.6481556915
 31
0.0
 11
14.0057405606
 21
-17.6952291268
 31
0.0
 11
14.0380777063
 21
-17.7374437941
 31
0.0
 11
14.074174439
 21
-17.774525955
 31
0.0
 11
14.1137969603
 21
-17.8062350726
 31
0.0
 11
14.1566889086
 21
-17.8323656159
 31
0.0
 11
14.1626567414
 21
-17.8354267773
 31
0.0
  0
SPLINE
  5
2CC
100
AcDbEntity
  8
ASSI
100
AcDbSpline
 62
253
  6
CONTINUOUS
 70
0
 71
3
 72
23
 73
19
 74
17
 42
0.0000001
 43
0.0000001
 44
0.0000000001
 12
-0.6046875015
 22
-0.3899603372
 32
0.0
 13
-0.6449837558
 23
0.3189231783
 33
0.0
 40
0.0
 40
0.0
 40
0.0
 40
0.0
 40
0.0585677629
 40
0.1193033505
 40
0.1819239888
 40
0.2461052335
 40
0.3114902464
 40
0.377698354
 40
0.4443331115
 40
0.5109900572
 40
0.5772643152
 40
0.6427581907
 40
0.7070889007
 40
0.7698965953
 40
0.8308528525
 40
0.8896698636
 40
0.9461105666
 40
1.0
 40
1.0
 40
1.0
 40
1.0
 10
14.5974529739
 20
-17.3612873987
 30
0.0
 10
14.5856479091
 20
-17.3689004335
 30
0.0
 10
14.5609972176
 20
-17.3834885475
 30
0.0
 10
14.5219646941
 20
-17.4030584633
 30
0.0
 10
14.4805015724
 20
-17.4205712457
 30
0.0
 10
14.4369891776
 20
-17.4358657734
 30
0.0
 10
14.3918243064
 20
-17.4488030565
 30
0.0
 10
14.3454202714
 20
-17.4592647263
 30
0.0
 10
14.2982016934
 20
-17.4671551114
 30
0.0
 10
14.2506008599
 20
-17.472401974
 30
0.0
 10
14.2030535444
 20
-17.4749572785
 30
0.0
 10
14.1559949001
 20
-17.4747976062
 30
0.0
 10
14.1098553722
 20
-17.471924343
 30
0.0
 10
14.0650564697
 20
-17.4663634789
 30
0.0
 10
14.0220073146
 20
-17.4581654434
 30
0.0
 10
13.9810988794
 20
-17.4474033881
 30
0.0
 10
13.9427071957
 20
-17.4341754182
 30
0.0
 10
13.9184373825
 20
-17.4235334858
 30
0.0
 10
13.9068514461
 20
-17.4178046227
 30
0.0
 11
14.5974529739
 21
-17.3612873987
 31
0.0
 11
14.5612170768
 21
-17.3828006607
 31
0.0
 11
14.5221736154
 21
-17.4024313779
 31
0.0
 11
14.4806822691
 21
-17.4199987067
 31
0.0
 11
14.4371252677
 21
-17.4353408118
 31
0.0
 11
14.3919038704
 21
-17.4483163577
 31
0.0
 11
14.3454346694
 21
-17.4588058099
 31
0.0
 11
14.2981457518
 21
-17.4667125366
 31
0.0
 11
14.2504727565
 21
-17.471963699
 31
0.0
 11
14.2028548602
 21
-17.4745109218
 31
0.0
 11
14.1557307324
 21
-17.4743307392
 31
0.0
 11
14.1095344936
 21
-17.4714248113
 31
0.0
 11
14.0646917165
 21
-17.4658199081
 31
0.0
 11
14.0216155053
 21
-17.4575676637
 31
0.0
 11
13.9807026899
 21
-17.4467441
 31
0.0
 11
13.9423301708
 21
-17.4334489268
 31
0.0
 11
13.9068514461
 21
-17.4178046227
 31
0.0
  0
SPLINE
  5
2CD
100
AcDbEntity
  8
ASSI
100
AcDbSpline
 62
253
  6
CONTINUOUS
 70
0
 71
3
 72
14
 73
10
 74
8
 42
0.0000001
 43
0.0000001
 44
0.0000000001
 12
0.1581958
 22
-9.7776961891
 32
0.0
 13
1.3125293863
 23
-9.6904920044
 33
0.0
 40
0.0
 40
0.0
 40
0.0
 40
0.0
 40
0.1462525689
 40
0.2913905064
 40
0.4354020953
 40
0.5782770586
 40
0.7200064886
 40
0.860582859
 40
1.0
 40
1.0
 40
1.0
 40
1.0
 10
13.8773451571
 20
-7.6144676258
 30
0.0
 10
13.8850573378
 20
-8.0911386877
 30
0.0
 10
13.9079967096
 20
-9.0407438643
 30
0.0
 10
13.9653295986
 20
-10.4589080831
 30
0.0
 10
14.0454362694
 20
-11.8649461229
 30
0.0
 10
14.1482890034
 20
-13.2583631538
 30
0.0
 10
14.2738525643
 20
-14.6386771444
 30
0.0
 10
14.4220827752
 20
-16.0054014064
 30
0.0
 10
14.536456609
 20
-16.9109471687
 30
0.0
 10
14.5974529739
 20
-17.3612873987
 30
0.0
 11
13.8773451571
 21
-7.6144676258
 31
0.0
 11
13.9119716151
 21
-9.0442487346
 31
0.0
 11
13.9693932218
 21
-10.4623870717
 31
0.0
 11
14.0495900088
 21
-11.8683876094
 31
0.0
 11
14.1525341074
 21
-13.2617607827
 31
0.0
 11
14.2781897501
 21
-14.6420215632
 31
0.0
 11
14.4265132615
 21
-16.0086893327
 31
0.0
 11
14.5974529739
 21
-17.3612873987
 31
0.0
  0
SPLINE
  5
2CE
100
AcDbEntity
  8
ASSI
100
AcDbSpline
 62
253
  6
CONTINUOUS
 70
0
 71
3
 72
14
 73
10
 74
8
 42
0.0000001
 43
0.0000001
 44
0.0000000001
 12
0.1590485282
 22
-9.8322410214
 32
0.0
 13
1.3196249534
 23
-9.744580541
 33
0.0
 40
0.0
 40
0.0
 40
0.0
 40
0.0
 40
0.1462535095
 40
0.2913919944
 40
0.4354038616
 40
0.5782788199
 40
0.7200079478
 40
0.860583705
 40
1.0
 40
1.0
 40
1.0
 40
1.0
 10
13.1828564086
 20
-7.6166012259
 30
0.0
 10
13.1906102104
 20
-8.0959344778
 30
0.0
 10
13.2136734028
 20
-9.0508419374
 30
0.0
 10
13.2713157683
 20
-10.4769235
 30
0.0
 10
13.3518548268
 20
-11.8908085438
 30
0.0
 10
13.4552627182
 20
-13.2919999315
 30
0.0
 10
13.5815040163
 20
-14.6800129427
 30
0.0
 10
13.7305343478
 20
-16.0543584761
 30
0.0
 10
13.8455256893
 20
-16.9649535289
 30
0.0
 10
13.9068514299
 20
-17.4178046338
 30
0.0
 11
13.1828564086
 21
-7.6166012259
 31
0.0
 11
13.2176698165
 21
-9.0543676941
 31
0.0
 11
13.2754013901
 21
-10.4804228468
 31
0.0
 11
13.3560310764
 21
-11.8942702486
 31
0.0
 11
13.4595308556
 21
-13.2954176032
 31
0.0
 11
13.5858647672
 21
-14.6833771766
 31
0.0
 11
13.7349889006
 21
-16.0576656709
 31
0.0
 11
13.9068514299
 21
-17.4178046338
 31
0.0
  0
SPLINE
  5
2CF
100
AcDbEntity
  8
ASSI
100
AcDbSpline
 62
253
  6
CONTINUOUS
 70
0
 71
3
 72
23
 73
19
 74
17
 42
0.0000001
 43
0.0000001
 44
0.0000000001
 12
-0.6423463248
 22
-0.3139621741
 32
0.0
 13
-0.6396924869
 23
0.3193345735
 33
0.0
 40
0.0
 40
0.0
 40
0.0
 40
0.0
 40
0.0560459375
 40
0.1147633706
 40
0.1758533728
 40
0.2389680004
 40
0.3037206074
 40
0.3696950256
 40
0.4364539816
 40
0.5035470265
 40
0.5705181849
 40
0.6369134918
 40
0.7022885703
 40
0.7662164078
 40
0.8282955157
 40
0.8881587155
 40
0.9454828706
 40
1.0
 40
1.0
 40
1.0
 40
1.0
 10
13.8773451571
 20
-7.6144676258
 30
0.0
 10
13.8653448565
 20
-7.6203330606
 30
0.0
 10
13.8403108963
 20
-7.6314164023
 30
0.0
 10
13.8009180831
 20
-7.6457992065
 30
0.0
 10
13.7591048291
 20
-7.658224466
 30
0.0
 10
13.7152548389
 20
-7.6685776872
 30
0.0
 10
13.6697674865
 20
-7.6767646002
 30
0.0
 10
13.6230587993
 20
-7.682710048
 30
0.0
 10
13.5755561169
 20
-7.6863594768
 30
0.0
 10
13.5276943937
 20
-7.687679354
 30
0.0
 10
13.4799119613
 20
-7.6866575732
 30
0.0
 10
13.4326463866
 20
-7.6833035578
 30
0.0
 10
13.3863303387
 20
-7.6776481695
 30
0.0
 10
13.3413873524
 20
-7.6697433015
 30
0.0
 10
13.2982281987
 20
-7.6596614814
 30
0.0
 10
13.2572454344
 20
-7.6474942719
 30
0.0
 10
13.2188149374
 20
-7.6333536237
 30
0.0
 10
13.1944811416
 20
-7.6224042939
 30
0.0
 10
13.1828564089
 20
-7.6166012258
 30
0.0
 11
13.8773451571
 21
-7.6144676258
 31
0.0
 11
13.8407328699
 21
-7.6307536717
 31
0.0
 11
13.8013178859
 21
-7.6452062434
 31
0.0
 11
13.7594631257
 21
-7.6576922664
 31
0.0
 11
13.7155539745
 21
-7.6680967732
 31
0.0
 11
13.6699947336
 21
-7.6763239626
 31
0.0
 11
13.6232048979
 21
-7.6822980812
 31
0.0
 11
13.5756152931
 21
-7.6859641212
 31
0.0
 11
13.5276641091
 21
-7.6872883271
 31
0.0
 11
13.479792865
 21
-7.6862585058
 31
0.0
 11
13.4324423437
 21
-7.6828841396
 31
0.0
 11
13.3860485338
 21
-7.6771962987
 31
0.0
 11
13.3410386144
 21
-7.6692473548
 31
0.0
 11
13.2978270225
 21
-7.6591104993
 31
0.0
 11
13.2568116365
 21
-7.646879069
 31
0.0
 11
13.2183701129
 21
-7.6326656871
 31
0.0
 11
13.1828564089
 21
-7.6166012258
 31
0.0
  0
SPLINE
  5
2D0
100
AcDbEntity
  8
ASSI
100
AcDbSpline
 62
253
  6
CONTINUOUS
 70
0
 71
3
 72
24
 73
20
 74
18
 42
0.0000001
 43
0.0000001
 44
0.0000000001
 12
-0.6460894983
 22
-0.3048812545
 32
0.0
 13
-0.6389944042
 23
0.3194845389
 33
0.0
 40
0.0
 40
0.0
 40
0.0
 40
0.0
 40
0.0524100356
 40
0.1072497924
 40
0.1642744396
 40
0.2231948714
 40
0.2836919856
 40
0.345422123
 40
0.4080213494
 40
0.471113599
 40
0.5343152536
 40
0.5972420897
 40
0.6595128813
 40
0.7207563994
 40
0.7806160868
 40
0.8387583409
 40
0.8948769789
 40
0.9486992022
 40
1.0
 40
1.0
 40
1.0
 40
1.0
 10
13.8114769328
 20
0.2313530477
 30
0.0
 10
13.8001897416
 20
0.2260267685
 30
0.0
 10
13.7766998191
 20
0.2159441469
 30
0.0
 10
13.7398333598
 20
0.2027932902
 30
0.0
 10
13.7007822171
 20
0.191355717
 30
0.0
 10
13.6598639531
 20
0.1817249945
 30
0.0
 10
13.6174091931
 20
0.1739788976
 30
0.0
 10
13.5737620362
 20
0.168180472
 30
0.0
 10
13.5292763823
 20
0.1643768924
 30
0.0
 10
13.4843134945
 20
0.16259917
 30
0.0
 10
13.439238305
 20
0.1628617728
 30
0.0
 10
13.3944167829
 20
0.1651625505
 30
0.0
 10
13.3502126673
 20
0.169482756
 30
0.0
 10
13.3069848415
 20
0.1757871626
 30
0.0
 10
13.2650836452
 20
0.1840244948
 30
0.0
 10
13.224848504
 20
0.1941277686
 30
0.0
 10
13.1866041654
 20
0.2060155183
 30
0.0
 10
13.150661512
 20
0.219590656
 30
0.0
 10
13.1278486299
 20
0.2299563609
 30
0.0
 10
13.1169216556
 20
0.2354196315
 30
0.0
 11
13.8114769328
 21
0.2313530477
 31
0.0
 11
13.7770936961
 21
0.2165300101
 31
0.0
 11
13.7402097831
 21
0.2033199416
 31
0.0
 11
13.7011245372
 21
0.1918301083
 31
0.0
 11
13.660158141
 21
0.1821547245
 31
0.0
 11
13.6176446737
 21
0.1743726474
 31
0.0
 11
13.5739303725
 21
0.1685472712
 31
0.0
 11
13.5293722845
 21
0.1647261949
 31
0.0
 11
13.4843338199
 21
0.1629405734
 31
0.0
 11
13.4391825862
 21
0.1632049605
 31
0.0
 11
13.3942864149
 21
0.1655171992
 31
0.0
 11
13.3500117513
 21
0.1698584307
 31
0.0
 11
13.3067196841
 21
0.1761932529
 31
0.0
 11
13.2647637937
 21
0.1844699006
 31
0.0
 11
13.2244857472
 21
0.1946209551
 31
0.0
 11
13.1862140159
 21
0.2065636675
 31
0.0
 11
13.1502620522
 21
0.2202001446
 31
0.0
 11
13.1169216556
 21
0.2354196315
 31
0.0
  0
SPLINE
  5
2D1
100
AcDbEntity
  8
ASSI
100
AcDbSpline
 62
253
  6
CONTINUOUS
 70
0
 71
3
 72
21
 73
17
 74
15
 42
0.0000001
 43
0.0000001
 44
0.0000000001
 12
-0.0002381814
 22
0.366564936
 32
0.0
 13
0.3264581343
 23
0.1667183119
 33
0.0
 40
0.0
 40
0.0
 40
0.0
 40
0.0
 40
0.0673451718
 40
0.1373665919
 40
0.2096497479
 40
0.2837102706
 40
0.3590123719
 40
0.4349859543
 40
0.5110428723
 40
0.5865927648
 40
0.661058834
 40
0.7338939467
 40
0.804597459
 40
0.8727332284
 40
0.9379493321
 40
1.0
 40
1.0
 40
1.0
 40
1.0
 10
-17.526415364
 20
15.5570881416
 30
0.0
 10
-17.5264207108
 20
15.5653169345
 30
0.0
 10
-17.5256512762
 20
15.5821093437
 30
0.0
 10
-17.5223460437
 20
15.6075379974
 30
0.0
 10
-17.516907197
 20
15.6334359464
 30
0.0
 10
-17.5094022807
 20
15.6594820204
 30
0.0
 10
-17.4999240513
 20
15.6853563544
 30
0.0
 10
-17.4885895305
 20
15.7107397175
 30
0.0
 10
-17.4755386156
 20
15.7353189988
 30
0.0
 10
-17.4609323177
 20
15.758790878
 30
0.0
 10
-17.4449507085
 20
15.7808657885
 30
0.0
 10
-17.4277903952
 20
15.8012716195
 30
0.0
 10
-17.4096623027
 20
15.8197568652
 30
0.0
 10
-17.3907870765
 20
15.8360944512
 30
0.0
 10
-17.3713977531
 20
15.8500812796
 30
0.0
 10
-17.3579336877
 20
15.8579271558
 30
0.0
 10
-17.3511813726
 20
15.8613754834
 30
0.0
 11
-17.526415364
 21
15.5570881416
 31
0.0
 11
-17.5253306807
 21
15.5817506842
 31
0.0
 11
-17.5220588006
 21
15.6072086961
 31
0.0
 11
-17.5166404556
 21
15.633145249
 31
0.0
 11
-17.5091430989
 21
15.6592374578
 31
0.0
 11
-17.4996600655
 21
15.6851604992
 31
0.0
 11
-17.4883094101
 21
15.7105916563
 31
0.0
 11
-17.4752324377
 21
15.7352143355
 31
0.0
 11
-17.4605919441
 21
15.758722008
 31
0.0
 11
-17.4445701895
 21
15.7808220258
 31
0.0
 11
-17.4273666294
 21
15.8012392651
 31
0.0
 11
-17.4091954318
 21
15.8197195507
 31
0.0
 11
-17.3902828106
 21
15.836032821
 31
0.0
 11
-17.3708642099
 21
15.8499759916
 31
0.0
 11
-17.3511813726
 21
15.8613754834
 31
0.0
  0
SPLINE
  5
2D2
100
AcDbEntity
  8
CURVE
100
AcDbSpline
 62
253
  6
CONTINUOUS
 70
0
 71
3
 72
22
 73
18
 74
16
 42
0.0000001
 43
0.0000001
 44
0.0000000001
 12
-0.3446008398
 22
0.5611135152
 32
0.0
 13
0.3433041295
 23
-0.5612117346
 33
0.0
 40
0.0
 40
0.0
 40
0.0
 40
0.0
 40
0.0625
 40
0.125
 40
0.1875
 40
0.25
 40
0.3125
 40
0.375
 40
0.4375
 40
0.5
 40
0.625
 40
0.6875
 40
0.75
 40
0.8125
 40
0.875
 40
0.9375
 40
1.0
 40
1.0
 40
1.0
 40
1.0
 10
-4.4853793407
 20
-0.7761990216
 30
0.0
 10
-4.4925585249
 20
-0.7645091567
 30
0.0
 10
-4.5048158187
 20
-0.741480491
 30
0.0
 10
-4.5189165703
 20
-0.7057425188
 30
0.0
 10
-4.5282702979
 20
-0.6693088359
 30
0.0
 10
-4.5321782052
 20
-0.634453322
 30
0.0
 10
-4.5306014197
 20
-0.6025269772
 30
0.0
 10
-4.5236478732
 20
-0.574555148
 30
0.0
 10
-4.5114845056
 20
-0.5514751821
 30
0.0
 10
-4.4889822129
 20
-0.5286835664
 30
0.0
 10
-4.4586175563
 20
-0.5192675087
 30
0.0
 10
-4.4234629712
 20
-0.5240934893
 30
0.0
 10
-4.3958064706
 20
-0.5347126437
 30
0.0
 10
-4.3679861628
 20
-0.5518585577
 30
0.0
 10
-4.3408919977
 20
-0.575033306
 30
0.0
 10
-4.3160807152
 20
-0.60280956
 30
0.0
 10
-4.3012794152
 20
-0.6239320888
 30
0.0
 10
-4.2941272458
 20
-0.6356239999
 30
0.0
 11
-4.4853793407
 21
-0.7761990216
 31
0.0
 11
-4.5041016205
 21
-0.7412813287
 31
0.0
 11
-4.5181253996
 21
-0.705626567
 31
0.0
 11
-4.5273626612
 21
-0.6695718641
 31
0.0
 11
-4.5312640898
 21
-0.6349415169
 31
0.0
 11
-4.5297052929
 21
-0.6031860632
 31
0.0
 11
-4.5227795697
 21
-0.5753704586
 31
0.0
 11
-4.5106989469
 21
-0.5524728911
 31
0.0
 11
-4.4939525891
 21
-0.5354961002
 31
0.0
 11
-4.4494297493
 21
-0.5216608404
 31
0.0
 11
-4.4232478776
 21
-0.5252601008
 31
0.0
 11
-4.3957791694
 21
-0.535800437
 31
0.0
 11
-4.3681071866
 21
-0.5528633634
 31
0.0
 11
-4.3412724781
 21
-0.5758002236
 31
0.0
 11
-4.316515604
 21
-0.6034608165
 31
0.0
 11
-4.2941272458
 21
-0.6356239999
 31
0.0
  0
SPLINE
  5
2D3
100
AcDbEntity
  8
CURVE
100
AcDbSpline
 62
253
  6
CONTINUOUS
 70
0
 71
3
 72
15
 73
11
 74
9
 42
0.0000001
 43
0.0000001
 44
0.0000000001
 12
-0.1518066116
 22
-0.113054494
 32
0.0
 13
-0.1787941566
 23
0.2783475932
 33
0.0
 40
0.0
 40
0.0
 40
0.0
 40
0.0
 40
0.125
 40
0.25
 40
0.375
 40
0.5
 40
0.625
 40
0.75
 40
0.875
 40
1.0
 40
1.0
 40
1.0
 40
1.0
 10
-1.8414396104
 20
-4.7669087576
 30
0.0
 10
-1.8477648859
 20
-4.7716193615
 30
0.0
 10
-1.8611789087
 20
-4.7782083846
 30
0.0
 10
-1.8844367602
 20
-4.7814240192
 30
0.0
 10
-1.910511292
 20
-4.7776458882
 30
0.0
 10
-1.9379701992
 20
-4.7670093797
 30
0.0
 10
-1.965875193
 20
-4.7499636308
 30
0.0
 10
-1.993282789
 20
-4.727000295
 30
0.0
 10
-2.0186723679
 20
-4.69946097
 30
0.0
 10
-2.0339898539
 20
-4.678506574
 30
0.0
 10
-2.0414396104
 20
-4.6669087576
 30
0.0
 11
-1.8414396104
 21
-4.7669087576
 31
0.0
 11
-1.8617017116
 21
-4.7770970679
 31
0.0
 11
-1.8849062069
 21
-4.7802583916
 31
0.0
 11
-1.9107420212
 21
-4.7765028253
 31
0.0
 11
-1.9380445469
 21
-4.765941173
 31
0.0
 11
-1.9657922933
 21
-4.7489773663
 31
0.0
 11
-1.9929464528
 21
-4.7262376301
 31
0.0
 11
-2.0182701429
 21
-4.6988122585
 31
0.0
 11
-2.0414396104
 21
-4.6669087576
 31
0.0
  0
SPLINE
  5
2D4
100
AcDbEntity
  8
CURVE
100
AcDbSpline
 62
253
  6
CONTINUOUS
 70
0
 71
3
 72
22
 73
18
 74
16
 42
0.0000001
 43
0.0000001
 44
0.0000000001
 12
0.3155254418
 22
0.2317970106
 32
0.0
 13
-0.3147232072
 23
-0.2314514484
 33
0.0
 40
0.0
 40
0.0
 40
0.0
 40
0.0
 40
0.0625
 40
0.125
 40
0.1875
 40
0.25
 40
0.3125
 40
0.375
 40
0.5
 40
0.5625
 40
0.625
 40
0.6875
 40
0.75
 40
0.8125
 40
0.875
 40
0.9375
 40
1.0
 40
1.0
 40
1.0
 40
1.0
 10
0.1020668319
 20
-2.8337210388
 30
0.0
 10
0.1086402786
 20
-2.8288919344
 30
0.0
 10
0.1224674534
 20
-2.8220836407
 30
0.0
 10
0.1461938847
 20
-2.8185762393
 30
0.0
 10
0.1726114536
 20
-2.8221573523
 30
0.0
 10
0.2002048804
 20
-2.8327183186
 30
0.0
 10
0.2280863927
 20
-2.8498681869
 30
0.0
 10
0.2641371466
 20
-2.8806448713
 30
0.0
 10
0.2962394299
 20
-2.9212944593
 30
0.0
 10
0.3211773596
 20
-2.9678061723
 30
0.0
 10
0.3354461412
 20
-3.0041021863
 30
0.0
 10
0.3446927963
 20
-3.0401741419
 30
0.0
 10
0.3486798251
 20
-3.0748824182
 30
0.0
 10
0.3472215039
 20
-3.1070547828
 30
0.0
 10
0.3402566877
 20
-3.1353291602
 30
0.0
 10
0.3283346352
 20
-3.1580557213
 30
0.0
 10
0.3173714704
 20
-3.1694741553
 30
0.0
 10
0.310814737
 20
-3.1742960605
 30
0.0
 11
0.1020668319
 21
-2.8337210388
 31
0.0
 11
0.1229650649
 21
-2.8232011472
 31
0.0
 11
0.1466424076
 21
-2.8197576584
 31
0.0
 11
0.1728074299
 21
-2.8233206612
 31
0.0
 11
0.2002528947
 21
-2.8338164689
 31
0.0
 11
0.2279458182
 21
-2.8508569611
 31
0.0
 11
0.2547954189
 21
-2.8737734422
 31
0.0
 11
0.3018768829
 21
-2.933410898
 31
0.0
 11
0.3204382486
 21
-2.9680415438
 31
0.0
 11
0.3346091201
 21
-3.0040648433
 31
0.0
 11
0.3438161919
 21
-3.0399468621
 31
0.0
 11
0.3477722668
 21
-3.0744597663
 31
0.0
 11
0.3463037548
 21
-3.1064051183
 31
0.0
 11
0.3394304817
 21
-3.1344045242
 31
0.0
 11
0.3275808528
 21
-3.1571225696
 31
0.0
 11
0.310814737
 21
-3.1742960605
 31
0.0
  0
SPLINE
  5
2D5
100
AcDbEntity
  8
CURVE
100
AcDbSpline
 62
253
  6
CONTINUOUS
 70
0
 71
3
 72
15
 73
11
 74
9
 42
0.0000001
 43
0.0000001
 44
0.0000000001
 12
-0.1541252889
 22
-0.1142045233
 32
0.0
 13
-0.1763930007
 23
0.2794565896
 33
0.0
 40
0.0
 40
0.0
 40
0.0
 40
0.0
 40
0.125
 40
0.25
 40
0.375
 40
0.5
 40
0.625
 40
0.75
 40
0.875
 40
1.0
 40
1.0
 40
1.0
 40
1.0
 10
-1.9085048938
 20
-3.6981710151
 30
0.0
 10
-1.9149267808
 20
-3.7029295369
 30
0.0
 10
-1.9285028752
 20
-3.7096005461
 30
0.0
 10
-1.9519428606
 20
-3.7129111482
 30
0.0
 10
-1.9781362912
 20
-3.7091924789
 30
0.0
 10
-2.0056390375
 20
-3.6985738578
 30
0.0
 10
-2.033510767
 20
-3.6815049428
 30
0.0
 10
-2.060806475
 20
-3.6584786514
 30
0.0
 10
-2.0860077495
 20
-3.6308474434
 30
0.0
 10
-2.1011551854
 20
-3.6098150396
 30
0.0
 10
-2.1085048938
 20
-3.5981710151
 30
0.0
 11
-1.9085048938
 21
-3.6981710151
 31
0.0
 11
-1.9290155158
 21
-3.7084845608
 31
0.0
 11
-1.9524017681
 21
-3.711739603
 31
0.0
 11
-1.9783545105
 21
-3.7080424869
 31
0.0
 11
-2.0057005347
 21
-3.6974988088
 31
0.0
 11
-2.0334147635
 21
-3.6805120467
 31
0.0
 11
-2.0604574028
 21
-3.6577111653
 31
0.0
 11
-2.0855943961
 21
-3.6301945438
 31
0.0
 11
-2.1085048938
 21
-3.5981710151
 31
0.0
  0
SPLINE
  5
2D6
100
AcDbEntity
  8
CURVE
100
AcDbSpline
 62
253
  6
CONTINUOUS
 70
0
 71
3
 72
19
 73
15
 74
13
 42
0.0000001
 43
0.0000001
 44
0.0000000001
 12
0.3493221571
 22
-0.1746610786
 32
0.0
 13
-0.2387497059
 23
-0.1749168416
 33
0.0
 40
0.0
 40
0.0
 40
0.0
 40
0.0
 40
0.0833333333
 40
0.1666666667
 40
0.25
 40
0.3333333333
 40
0.4166666667
 40
0.5
 40
0.5833333333
 40
0.6666666667
 40
0.75
 40
0.8333333333
 40
0.9166666667
 40
1.0
 40
1.0
 40
1.0
 40
1.0
 10
-0.0023463875
 20
-1.8726563262
 30
0.0
 10
0.0073570058
 20
-1.8775080229
 30
0.0
 10
0.0257365332
 20
-1.8889880974
 30
0.0
 10
0.0523323297
 20
-1.9118108626
 30
0.0
 10
0.0774325054
 20
-1.9401051679
 30
0.0
 10
0.0995213701
 20
-1.9722745068
 30
0.0
 10
0.117899514
 20
-2.0072149777
 30
0.0
 10
0.1318239719
 20
-2.0435462937
 30
0.0
 10
0.1407738901
 20
-2.079877053
 30
0.0
 10
0.1443998941
 20
-2.114816714
 30
0.0
 10
0.1425808701
 20
-2.1469853061
 30
0.0
 10
0.1353243754
 20
-2.1752836473
 30
0.0
 10
0.1231376928
 20
-2.1981189348
 30
0.0
 10
0.1120169139
 20
-2.2096114104
 30
0.0
 10
0.1053849776
 20
-2.2144702116
 30
0.0
 11
-0.0023463875
 21
-1.8726563262
 31
0.0
 11
0.0255742841
 21
-1.8899218729
 31
0.0
 11
0.0520830595
 21
-1.9127227859
 31
0.0
 11
0.0769306202
 21
-1.9407510068
 31
0.0
 11
0.0989029166
 21
-1.9727363621
 31
0.0
 11
0.117157233
 21
-2.0074467852
 31
0.0
 11
0.130994882
 21
-2.0435462009
 31
0.0
 11
0.139886571
 21
-2.0796452033
 31
0.0
 11
0.1434923894
 21
-2.1143548692
 31
0.0
 11
0.141674625
 21
-2.1463402643
 31
0.0
 11
0.1345026774
 21
-2.1743731383
 31
0.0
 11
0.1223886118
 21
-2.1971861724
 31
0.0
 11
0.1053849776
 21
-2.2144702116
 31
0.0
  0
SPLINE
  5
2D7
100
AcDbEntity
  8
CURVE
100
AcDbSpline
 62
253
  6
CONTINUOUS
 70
0
 71
3
 72
19
 73
15
 74
13
 42
0.0000001
 43
0.0000001
 44
0.0000000001
 12
-0.2555172999
 22
0.4220503305
 32
0.0
 13
0.3493221694
 23
-0.1746610847
 33
0.0
 40
0.0
 40
0.0
 40
0.0
 40
0.0
 40
0.0833333333
 40
0.1666666667
 40
0.25
 40
0.3333333333
 40
0.4166666667
 40
0.5
 40
0.5833333333
 40
0.6666666667
 40
0.75
 40
0.8333333333
 40
0.9166666667
 40
1.0
 40
1.0
 40
1.0
 40
1.0
 10
-4.3372557095
 20
0.006850132
 30
0.0
 10
-4.3443534123
 20
0.0185737523
 30
0.0
 10
-4.3564413297
 20
0.041670575
 30
0.0
 10
-4.3702508239
 20
0.0775039474
 30
0.0
 10
-4.3792758243
 20
0.1139430228
 30
0.0
 10
-4.3829022729
 20
0.1488343375
 30
0.0
 10
-4.3810611386
 20
0.1810404408
 30
0.0
 10
-4.3738037773
 20
0.2092675724
 30
0.0
 10
-4.3614191044
 20
0.232444317
 30
0.0
 10
-4.3443747776
 20
0.2496735502
 30
0.0
 10
-4.3233687394
 20
0.2602954474
 30
0.0
 10
-4.2990689153
 20
0.2638897586
 30
0.0
 10
-4.2729545586
 20
0.2603574483
 30
0.0
 10
-4.2546904682
 20
0.2535157141
 30
0.0
 10
-4.2449870746
 20
0.2486640173
 30
0.0
 11
-4.3372557095
 21
0.006850132
 31
0.0
 11
-4.3557209327
 21
0.0418685981
 31
0.0
 11
-4.3694534082
 21
0.0776048979
 31
0.0
 11
-4.3783760657
 21
0.1136850627
 31
0.0
 11
-4.3819910091
 21
0.1483868022
 31
0.0
 11
-4.3801584341
 21
0.1803772788
 31
0.0
 11
-4.3729492254
 21
0.2084258412
 31
0.0
 11
-4.3606424955
 21
0.2314530651
 31
0.0
 11
-4.3437144924
 21
0.2485723276
 31
0.0
 11
-4.3228197751
 21
0.2591241831
 31
0.0
 11
-4.2987664932
 21
0.2627019884
 31
0.0
 11
-4.2727409288
 21
0.2592357332
 31
0.0
 11
-4.2449870746
 21
0.2486640173
 31
0.0
  0
ELLIPSE
  5
2D8
100
AcDbEntity
  8
RACCORDO
100
AcDbEllipse
 62
7
  6
CONTINUOUS
 10
-13.8013012422
 20
17.7662883052
 30
0.0
 11
-0.1119858744
 21
0.2236318019
 31
0.0
 40
0.6122594231
 41
-0.6852493493
 42
0.0223236952
  0
ELLIPSE
  5
2D9
100
AcDbEntity
  8
RACCORDO
100
AcDbEllipse
 62
7
  6
CONTINUOUS
 10
17.4526029798
 20
2.1393361942
 30
0.0
 11
-0.1119259236
 21
0.2235783474
 31
0.0
 40
0.6126250184
 41
-2.2559124555
 42
-0.6854206804
  0
ELLIPSE
  5
2DA
100
AcDbEntity
  8
0
100
AcDbEllipse
 62
7
  6
CONTINUOUS
 10
16.7244809535
 20
-16.5273934606
 30
0.0
 11
-0.1826272431
 21
0.4654700168
 31
0.0
 40
0.6543766329
 41
-3.1348732976
 42
-2.2008763123
  0
ELLIPSE
  5
2DB
100
AcDbEntity
  8
ASSI
100
AcDbEllipse
 62
7
  6
CONTINUOUS
 10
-13.8013012422
 20
17.7662883052
 30
0.0
 11
-0.1119858744
 21
0.2236318019
 31
0.0
 40
0.6122594231
 41
-0.6852493493
 42
0.0223236952
  0
ELLIPSE
  5
2DC
100
AcDbEntity
  8
ASSI
100
AcDbEllipse
 62
7
  6
CONTINUOUS
 10
17.4526029798
 20
2.1393361942
 30
0.0
 11
-0.1119259236
 21
0.2235783474
 31
0.0
 40
0.6126250184
 41
-2.2559124555
 42
-0.6854206804
  0
ELLIPSE
  5
2DD
100
AcDbEntity
  8
ASSI
100
AcDbEllipse
 62
7
  6
CONTINUOUS
 10
16.7244809535
 20
-16.5273934606
 30
0.0
 11
-0.1826272431
 21
0.4654700168
 31
0.0
 40
0.6543766329
 41
-3.1348732976
 42
-2.2008763123
  0
ELLIPSE
  5
2DE
100
AcDbEntity
  8
CURVE
100
AcDbEllipse
 62
253
  6
CONTINUOUS
 10
65.4660877606
 20
31.3508088588
 30
0.0
 11
89.8859912315
 21
55.5525976935
 31
0.0
 40
0.0815198604
 41
2.3404174463
 42
2.3684197886
  0
ELLIPSE
  5
2DF
100
AcDbEntity
  8
CURVE
100
AcDbEllipse
 62
253
  6
CONTINUOUS
 10
57.508085607
 20
35.3298099356
 30
0.0
 11
-66.7612259932
 21
108.0219327877
 31
0.0
 40
0.5587454355
 41
1.5550192829
 42
1.5830216252
  0
ELLIPSE
  5
2E0
100
AcDbEntity
  8
CURVE
100
AcDbEllipse
 62
253
  6
CONTINUOUS
 10
56.608085607
 20
35.7798099356
 30
0.0
 11
-66.7612259932
 21
108.0219327877
 31
0.0
 40
0.5587454355
 41
1.5625956591
 42
1.5971982547
  0
ELLIPSE
  5
2E1
100
AcDbEntity
  8
CURVE
100
AcDbEllipse
 62
253
  6
CONTINUOUS
 10
56.208085607
 20
35.9798099356
 30
0.0
 11
-66.7612259932
 21
108.0219327877
 31
0.0
 40
0.5587454355
 41
1.565741362
 42
1.6019270925
  0
ELLIPSE
  5
2E2
100
AcDbEntity
  8
CURVE
100
AcDbEllipse
 62
253
  6
CONTINUOUS
 10
66.7660877606
 20
30.7008088588
 30
0.0
 11
89.8859912315
 21
55.5525976935
 31
0.0
 40
0.0815198604
 41
2.3511395254
 42
2.3873252559
  0
ELLIPSE
  5
2E3
100
AcDbEntity
  8
CURVE
100
AcDbEllipse
 62
253
  6
CONTINUOUS
 10
66.3660877606
 20
30.9008088588
 30
0.0
 11
89.8859912315
 21
55.5525976935
 31
0.0
 40
0.0815198604
 41
2.3479938225
 42
2.3825964181
  0
ELLIPSE
  5
2E4
100
AcDbEntity
  8
CURVE
100
AcDbEllipse
 62
253
  6
CONTINUOUS
 10
57.108085607
 20
35.5298099356
 30
0.0
 11
-66.7612259932
 21
108.0219327877
 31
0.0
 40
0.5587454355
 41
1.5543680274
 42
1.5877456283
  0
ELLIPSE
  5
2E5
100
AcDbEntity
  8
CURVE
100
AcDbEllipse
 62
253
  6
CONTINUOUS
 10
65.8660877606
 20
31.1508088588
 30
0.0
 11
89.8859912315
 21
55.5525976935
 31
0.0
 40
0.0815198604
 41
2.3397661908
 42
2.3731437917
  0
ENDSEC
  0
SECTION
  2
OBJECTS
  0
DICTIONARY
  5
C
100
AcDbDictionary
280
0
281
1
  3
ACAD_GROUP
350
D
  3
ACAD_MLINESTYLE
350
17
  3
ACAD_LAYOUT
350
1A
  3
ACAD_PLOTSETTINGS
350
19
  3
ACAD_PLOTSTYLENAME
350
E
  0
DICTIONARY
  5
D
102
{ACAD_REACTORS
330
C
102
}
100
AcDbDictionary
280
0
281
1
  0
ACDBDICTIONARYWDFLT
  5
E
102
{ACAD_REACTORS
330
C
102
}
100
AcDbDictionary
281
1
  3
Normal
350
F
100
AcDbDictionaryWithDefault
340
F
  0
DICTIONARY
  5
17
102
{ACAD_REACTORS
330
C
102
}
100
AcDbDictionary
280
0
281
1
  3
Standard
350
18
  0
DICTIONARY
  5
19
102
{ACAD_REACTORS
330
C
102
}
100
AcDbDictionary
281
1
  0
DICTIONARY
  5
1A
102
{ACAD_REACTORS
330
C
102
}
100
AcDbDictionary
281
1
  3
Model
350
2E6
  3
Layout1
350
2E7
  0
ACDBPLACEHOLDER
  5
F
102
{ACAD_REACTORS
330
E
102
}
  0
MLINESTYLE
  5
18
102
{ACAD_REACTORS
330
17
102
}
100
AcDbMlineStyle
  2
STANDARD
 70
0
  3

 62
256
 51
90.0
 52
90.0
 71
2
 49
0.5
 62
256
  6
BYLAYER
 49
-0.5
 62
256
  6
BYLAYER
  0
LAYOUT
  5
2E6
102
{ACAD_REACTORS
330
1A
102
}
100
AcDbPlotSettings
  1

  2
none_device
  4
ISO_A4_(297.00_x_210.00_MM)
  6

 40
0.0
 41
0.0
 42
0.0
 43
0.0
 44
297.0
 45
210.0
 46
0.0
 47
0.0
 48
0.0
 49
0.0
140
0.0
141
0.0
142
1.0
143
1.0
 70
1024
 72
1
 73
0
 74
0
  7

 75
0
147
1.0
148
0.0
149
0.0
100
AcDbLayout
  1
Model
 70
0
 71
0
 10
0.0
 20
0.0
 11
297.0
 21
210.0
 12
0.0
 22
0.0
 32
0.0
 14
0.0
 24
0.0
 34
0.0
 15
0.0
 25
0.0
 35
0.0
146
0.0
 13
0.0
 23
0.0
 33
0.0
 16
1.0
 26
0.0
 36
0.0
 17
0.0
 27
1.0
 37
0.0
 76
0
330
217
345
0
346
0
  0
LAYOUT
  5
2E7
102
{ACAD_REACTORS
330
1A
102
}
100
AcDbPlotSettings
  1

  2
none_device
  4
ISO_A4_(297.00_x_210.00_MM)
  6

 40
0.0
 41
0.0
 42
0.0
 43
0.0
 44
297.0
 45
210.0
 46
0.0
 47
0.0
 48
0.0
 49
0.0
140
0.0
141
0.0
142
1.0
143
1.0
 70
0
 72
1
 73
0
 74
0
  7

 75
0
147
1.0
148
0.0
149
0.0
100
AcDbLayout
  1
Layout1
 70
0
 71
1
 10
0.0
 20
0.0
 11
297.0
 21
210.0
 12
0.0
 22
0.0
 32
0.0
 14
0.0
 24
0.0
 34
0.0
 15
0.0
 25
0.0
 35
0.0
146
0.0
 13
0.0
 23
0.0
 33
0.0
 16
1.0
 26
0.0
 36
0.0
 17
0.0
 27
1.0
 37
0.0
 76
0
330
218
345
0
346
0
  0
ENDSEC
  0
EOF
