  0
SECTION
  2
HEADER
  9
$ACADVER
  1
AC1015
  9
$DWGCODEPAGE
  3
ANSI_1252
  9
$EXTMAX
 10
297.0
 20
210.0
 30
0.0
  9
$EXTMIN
 10
0.0
 20
0.0
 30
0.0
  9
$LIMMIN
 10
0.0
 20
0.0
  9
$LIMMAX
 10
297.0
 20
210.0
  9
$VIEWCTR
 10
148.5
 20
105.0
  9
$VIEWSIZE
 40
210.0
  9
$CLAYER
  8
0
  9
$LTSCALE
 40
16.335
  9
$CELTYPE
  6
BYLAYER
  9
$DIMSCALE
 40
1.0
  9
$DIMASZ
 40
3.0
  9
$DIMEXO
 40
1.85625
  9
$DIMDLI
 40
11.286
  9
$DIMEXE
 40
5.346
  9
$DIMCEN
 40
2.673
  9
$DIMLFAC
 40
1.0
  9
$DIMBLK
  1
_FILLED
  9
$DIMTXT
 40
3.0
  9
$DIMTOL
 70
1
  9
$DIMLIM
 70
0
  9
$DIMTFAC
 40
1.0
  9
$DIMTP
 40
0.01
  9
$DIMTM
 40
0.01
  9
$PDMODE
 70
3
  9
$PDSIZE
 40
3.0
  9
$HANDSEED
  5
255
  9
$TILEMODE
 70
1
  9
$MEASUREMENT
 70
1
  9
$INSUNITS
 70
4
  0
ENDSEC
  0
SECTION
  2
CLASSES
  0
CLASS
  1
ACDBDICTIONARYWDFLT
  2
AcDbDictionaryWithDefault
  3
AutoCAD 2000
 90
0
280
0
281
0
  0
CLASS
  1
ACDBPLACEHOLDER
  2
AcDbPlaceHolder
  3
AutoCAD 2000
 90
0
280
0
281
0
  0
CLASS
  1
LAYOUT
  2
AcDbLayout
  3
AutoCAD 2000
 90
0
280
0
281
0
  0
ENDSEC
  0
SECTION
  2
TABLES
  0
TABLE
  2
VPORT
  5
8
100
AcDbSymbolTable
 70
2
  0
VPORT
  5
1F4
100
AcDbSymbolTableRecord
100
AcDbViewportTableRecord
  2
*ACTIVE
 70
0
 10
0.0
 20
0.0
 11
1.0
 21
1.0
 12
148.5
 22
105.0
 13
0.0
 23
0.0
 14
1.0
 24
1.0
 15
0.0
 25
0.0
 16
0.0
 26
0.0
 36
1.0
 17
0.0
 27
0.0
 37
0.0
 40
210.0
 41
1.4142857143
 42
50.0
 43
0.0
 44
0.0
 50
0.0
 51
0.0
 71
0
 72
100
 73
1
 74
1
 75
0
 76
0
 77
0
 78
0
  0
ENDTAB
  0
TABLE
  2
LTYPE
  5
5
100
AcDbSymbolTable
 70
6
  0
LTYPE
  5
14
100
AcDbSymbolTableRecord
100
AcDbLinetypeTableRecord
  2
BYBLOCK
 70
0
  3

 72
65
 73
0
 40
0.0
  0
LTYPE
  5
15
100
AcDbSymbolTableRecord
100
AcDbLinetypeTableRecord
  2
BYLAYER
 70
0
  3

 72
65
 73
0
 40
0.0
  0
LTYPE
  5
16
100
AcDbSymbolTableRecord
100
AcDbLinetypeTableRecord
  2
CONTINUOUS
 70
64
  3
Solid line
 72
65
 73
0
 40
0.0
  0
LTYPE
  5
1F5
100
AcDbSymbolTableRecord
100
AcDbLinetypeTableRecord
  2
CENTER
 70
64
  3
____ _ ____ _ ____ _ ____ _ ____ _ ____ _ ____
 72
65
 73
4
 40
0.6
 49
0.375
 74
0
 49
-0.075
 74
0
 49
0.075
 74
0
 49
-0.075
 74
0
  0
LTYPE
  5
1F6
100
AcDbSymbolTableRecord
100
AcDbLinetypeTableRecord
  2
HIDDEN
 70
64
  3
- - - - - - - - - - - - - - - - - - - -
 72
65
 73
2
 40
0.2
 49
0.1
 74
0
 49
-0.1
 74
0
  0
LTYPE
  5
1F7
100
AcDbSymbolTableRecord
100
AcDbLinetypeTableRecord
  2
PHANTOM
 70
64
  3
_____ _ _ _____ _ _ _____ _ _ _____
 72
65
 73
6
 40
0.8
 49
0.45
 74
0
 49
-0.05
 74
0
 49
0.1
 74
0
 49
-0.05
 74
0
 49
0.1
 74
0
 49
-0.05
 74
0
  0
LTYPE
  5
1F8
100
AcDbSymbolTableRecord
100
AcDbLinetypeTableRecord
  2
DOT
 70
64
  3
. . . . . . . . . . . . . . . . . . . .
 72
65
 73
2
 40
0.2
 49
0.1
 74
0
 49
-0.1
 74
0
  0
LTYPE
  5
1F9
100
AcDbSymbolTableRecord
100
AcDbLinetypeTableRecord
  2
DASHED
 70
64
  3
- - - - - - - - - - - - - - - - - - - -
 72
65
 73
2
 40
0.2
 49
0.1
 74
0
 49
-0.1
 74
0
  0
ENDTAB
  0
TABLE
  2
LAYER
  5
2
100
AcDbSymbolTable
 70
36
  0
LAYER
  5
10
100
AcDbSymbolTableRecord
100
AcDbLayerTableRecord
  2
0
 70
0
 62
7
  6
CONTINUOUS
370
-3
390
F
  0
LAYER
  5
1FA
100
AcDbSymbolTableRecord
100
AcDbLayerTableRecord
  2
DEFAULT_1
 70
0
 62
7
  6
CENTER
370
-3
390
F
  0
LAYER
  5
1FB
100
AcDbSymbolTableRecord
100
AcDbLayerTableRecord
  2
DEFAULT_2
 70
0
 62
7
  6
HIDDEN
370
-3
390
F
  0
LAYER
  5
1FC
100
AcDbSymbolTableRecord
100
AcDbLayerTableRecord
  2
DEFAULT_3
 70
0
 62
7
  6
PHANTOM
370
-3
390
F
  0
LAYER
  5
1FD
100
AcDbSymbolTableRecord
100
AcDbLayerTableRecord
  2
ASSI
 70
0
 62
7
  6
CONTINUOUS
370
-3
390
F
  0
LAYER
  5
1FE
100
AcDbSymbolTableRecord
100
AcDbLayerTableRecord
  2
COLORE_MATERIALE
 70
0
 62
7
  6
CONTINUOUS
370
-3
390
F
  0
LAYER
  5
1FF
100
AcDbSymbolTableRecord
100
AcDbLayerTableRecord
  2
COORDINATE
 70
0
 62
7
  6
CONTINUOUS
370
-3
390
F
  0
LAYER
  5
200
100
AcDbSymbolTableRecord
100
AcDbLayerTableRecord
  2
COORD_ORIGINE
 70
0
 62
7
  6
CONTINUOUS
370
-3
390
F
  0
LAYER
  5
201
100
AcDbSymbolTableRecord
100
AcDbLayerTableRecord
  2
COPY
 70
0
 62
7
  6
CONTINUOUS
370
-3
390
F
  0
LAYER
  5
202
100
AcDbSymbolTableRecord
100
AcDbLayerTableRecord
  2
CURVE
 70
0
 62
7
  6
CONTINUOUS
370
-3
390
F
  0
LAYER
  5
203
100
AcDbSymbolTableRecord
100
AcDbLayerTableRecord
  2
DRAFT
 70
0
 62
7
  6
CONTINUOUS
370
-3
390
F
  0
LAYER
  5
204
100
AcDbSymbolTableRecord
100
AcDbLayerTableRecord
  2
IGS
 70
0
 62
7
  6
CONTINUOUS
370
-3
390
F
  0
LAYER
  5
205
100
AcDbSymbolTableRecord
100
AcDbLayerTableRecord
  2
PIANI
 70
0
 62
7
  6
CONTINUOUS
370
-3
390
F
  0
LAYER
  5
206
100
AcDbSymbolTableRecord
100
AcDbLayerTableRecord
  2
PIANI_ORIGINE
 70
0
 62
7
  6
CONTINUOUS
370
-3
390
F
  0
LAYER
  5
207
100
AcDbSymbolTableRecord
100
AcDbLayerTableRecord
  2
PIANI_RIFERIMENTO
 70
0
 62
7
  6
CONTINUOUS
370
-3
390
F
  0
LAYER
  5
208
100
AcDbSymbolTableRecord
100
AcDbLayerTableRecord
  2
RACCORDO
 70
0
 62
7
  6
CONTINUOUS
370
-3
390
F
  0
LAYER
  5
209
100
AcDbSymbolTableRecord
100
AcDbLayerTableRecord
  2
SMUSSO
 70
0
 62
7
  6
CONTINUOUS
370
-3
390
F
  0
LAYER
  5
20A
100
AcDbSymbolTableRecord
100
AcDbLayerTableRecord
  2
SOLIDO
 70
0
 62
7
  6
CONTINUOUS
370
-3
390
F
  0
LAYER
  5
20B
100
AcDbSymbolTableRecord
100
AcDbLayerTableRecord
  2
SUPERFICI
 70
0
 62
7
  6
CONTINUOUS
370
-3
390
F
  0
LAYER
  5
20C
100
AcDbSymbolTableRecord
100
AcDbLayerTableRecord
  2
TRASH
 70
0
 62
7
  6
CONTINUOUS
370
-3
390
F
  0
ENDTAB
  0
TABLE
  2
STYLE
  5
3
100
AcDbSymbolTable
 70
1
  0
STYLE
  5
11
100
AcDbSymbolTableRecord
100
AcDbTextStyleTableRecord
  2
STANDARD
 70
0
 40
0.0
 41
0.8
 50
0.0
 71
0
 42
0.2
  3
txt
  4

  0
STYLE
  5
20D
100
AcDbSymbolTableRecord
100
AcDbTextStyleTableRecord
  2
TEXTSTYLE_1
 70
0
 40
0.0
 41
0.8
 50
0.0
 71
0
 42
0.2
  3
gdt
  4

  0
ENDTAB
  0
TABLE
  2
VIEW
  5
6
100
AcDbSymbolTable
 70
0
  0
ENDTAB
  0
TABLE
  2
UCS
  5
7
100
AcDbSymbolTable
 70
0
  0
ENDTAB
  0
TABLE
  2
APPID
  5
9
100
AcDbSymbolTable
 70
1
  0
APPID
  5
20E
100
AcDbSymbolTableRecord
100
AcDbRegAppTableRecord
  2
ACAD
 70
0
  0
ENDTAB
  0
TABLE
  2
BLOCK_RECORD
  5
1
100
AcDbSymbolTable
 70
0
  0
BLOCK_RECORD
  5
20F
100
AcDbSymbolTableRecord
100
AcDbBlockTableRecord
  2
*Model_Space
  0
BLOCK_RECORD
  5
210
100
AcDbSymbolTableRecord
100
AcDbBlockTableRecord
  2
*Paper_Space
  0
ENDTAB
  0
TABLE
  2
DIMSTYLE
  5
A
100
AcDbSymbolTable
 70
1
100
AcDbDimStyleTable
 71
0
  0
DIMSTYLE
105
211
100
AcDbSymbolTableRecord
100
AcDbDimStyleTableRecord
  2
STANDARD
 70
0
  3

  4

 40
1.0
 41
3.0
 42
0.0625
 43
0.38
 44
0.18
 45
0.0
 46
0.0
 47
0.01
 48
0.01
140
3.0
141
0.09
142
0.0
143
25.4
144
1.0
145
0.0
146
1.0
147
0.09
 71
1.0
 72
0.0
 73
0
 74
0
 75
0
 76
0
 77
1
 78
8
170
0
171
2
172
0
173
0
174
0
175
0
176
0
177
0
178
0
270
2
271
2
272
2
273
2
274
2
275
0
280
0
281
0
282
0
283
1
284
8
285
0
286
0
287
3
288
0
340
11
  0
ENDTAB
  0
ENDSEC
  0
SECTION
  2
BLOCKS
  0
BLOCK
  5
20
100
AcDbEntity
  8
0
100
AcDbBlockBegin
  2
*Model_Space
 70
0
 10
0.0
 20
0.0
 30
0.0
  3
*Model_Space
  1

  0
ENDBLK
  5
21
100
AcDbEntity
  8
0
100
AcDbBlockEnd
  0
BLOCK
  5
1C
100
AcDbEntity
  8
0
100
AcDbBlockBegin
  2
*Paper_Space
 70
0
 10
0.0
 20
0.0
 30
0.0
  3
*Paper_Space
  1

  0
ENDBLK
  5
1D
100
AcDbEntity
  8
0
100
AcDbBlockEnd
  0
ENDSEC
  0
SECTION
  2
ENTITIES
  0
LWPOLYLINE
  5
212
100
AcDbEntity
  8
RACCORDO
100
AcDbPolyline
 62
7
  6
CONTINUOUS
 90
37
 70
0
 10
-10.8296522921
 20
12.2440911736
 10
-10.8379240444
 20
12.239615398
 10
-10.8494784999
 20
12.2330042554
 10
-10.8606492625
 20
12.2261858417
 10
-10.8714404671
 20
12.2191671088
 10
-10.8818560036
 20
12.2119551606
 10
-10.8918966849
 20
12.2045589813
 10
-10.9015648384
 20
12.1969867254
 10
-10.9108641777
 20
12.1892455611
 10
-10.919794975
 20
12.1813453791
 10
-10.9283582871
 20
12.1732958907
 10
-10.936557583
 20
12.1651050413
 10
-10.9443945559
 20
12.1567825177
 10
-10.9518664418
 20
12.1483434856
 10
-10.9589803254
 20
12.1397929486
 10
-10.96574973
 20
12.1311264605
 10
-10.9721741973
 20
12.1223556874
 10
-10.9782562314
 20
12.1134888855
 10
-10.9840098772
 20
12.1045160797
 10
-10.9894351406
 20
12.0954464516
 10
-10.9945318484
 20
12.0862901022
 10
-10.9993099025
 20
12.0770377491
 10
-11.0037691904
 20
12.0676966133
 10
-11.0079079275
 20
12.0582784321
 10
-11.0117306612
 20
12.0487803721
 10
-11.0152363577
 20
12.0392116039
 10
-11.0184240406
 20
12.0295822829
 10
-11.0212965354
 20
12.0198910479
 10
-11.0238527649
 20
12.010148355
 10
-11.0260924241
 20
12.0003634451
 10
-11.0280177812
 20
11.9905330888
 10
-11.0296278782
 20
11.9806672298
 10
-11.030922273
 20
11.970775696
 10
-11.0319021477
 20
11.9608550021
 10
-11.0325669483
 20
11.950910608
 10
-11.0329158056
 20
11.9409569668
 10
-11.0329734134
 20
11.9347332244
  0
LINE
  5
213
100
AcDbEntity
  8
RACCORDO
100
AcDbLine
 62
7
  6
CONTINUOUS
 10
-10.8296484656
 20
12.2440932135
 11
-7.9056077812
 21
13.7898674985
  0
LINE
  5
214
100
AcDbEntity
  8
RACCORDO
100
AcDbLine
 62
253
  6
CONTINUOUS
 10
-10.7143518802
 20
12.2388028172
 11
-7.791903993
 21
13.7837350809
  0
LINE
  5
215
100
AcDbEntity
  8
DRAFT
100
AcDbLine
 62
7
  6
CONTINUOUS
 10
-5.9287652901
 20
12.8521657294
 11
-7.219251198
 21
12.0680797426
  0
LINE
  5
216
100
AcDbEntity
  8
DRAFT
100
AcDbLine
 62
7
  6
CONTINUOUS
 10
-5.9287652901
 20
11.8053764044
 11
-6.2705307635
 21
11.5937195253
  0
LWPOLYLINE
  5
217
100
AcDbEntity
  8
RACCORDO
100
AcDbPolyline
 62
7
  6
CONTINUOUS
 90
28
 70
0
 10
-10.9703785824
 20
4.0843754243
 10
-10.9640101189
 20
3.7164941961
 10
-10.956135101
 20
3.3455996291
 10
-10.946811857
 20
2.9754947881
 10
-10.9360405149
 20
2.6061891975
 10
-10.9238212509
 20
2.2376911777
 10
-10.9101542448
 20
1.8700086093
 10
-10.8950396882
 20
1.5031494345
 10
-10.8784778646
 20
1.1371223866
 10
-10.8604690921
 20
0.7719365273
 10
-10.841013686
 20
0.4076003946
 10
-10.8201120197
 20
0.0441222865
 10
-10.7977645075
 20
-0.3184891051
 10
-10.7739715609
 20
-0.6802254534
 10
-10.7487336585
 20
-1.0410784431
 10
-10.7220513212
 20
-1.401039408
 10
-10.6939250624
 20
-1.7601000575
 10
-10.6643554587
 20
-2.1182521655
 10
-10.6333431323
 20
-2.4754871705
 10
-10.6008886908
 20
-2.8317969206
 10
-10.5669928267
 20
-3.187173114
 10
-10.5316562992
 20
-3.5416069736
 10
-10.4948798559
 20
-3.8950900568
 10
-10.4566642221
 20
-4.2476147583
 10
-10.4170101236
 20
-4.599173562
 10
-10.3759183498
 20
-4.9497585369
 10
-10.3333898973
 20
-5.2993606896
 10
-10.289922432
 20
-5.6441009067
  0
LWPOLYLINE
  5
218
100
AcDbEntity
  8
RACCORDO
100
AcDbPolyline
 62
7
  6
CONTINUOUS
 90
10
 70
0
 10
-11.0329734272
 20
11.9347414386
 10
-11.0317134447
 20
11.0634699512
 10
-11.0290254535
 20
10.1879356382
 10
-11.0249126253
 20
9.3131458785
 10
-11.01937497
 20
8.4391046475
 10
-11.0124125064
 20
7.5658152765
 10
-11.0040252535
 20
6.6932809105
 10
-10.9942132363
 20
5.8215049716
 10
-10.9829764994
 20
4.9504915256
 10
-10.9703785825
 20
4.0843754253
  0
LWPOLYLINE
  5
219
100
AcDbEntity
  8
RACCORDO
100
AcDbPolyline
 62
7
  6
CONTINUOUS
 90
40
 70
0
 10
-10.2899220659
 20
-5.6441036618
 10
-10.2874576594
 20
-5.6619488872
 10
-10.2839360088
 20
-5.6839179014
 10
-10.2799224902
 20
-5.7055772968
 10
-10.275424692
 20
-5.7269225341
 10
-10.270450672
 20
-5.7479482728
 10
-10.2650093318
 20
-5.7686459268
 10
-10.2591091718
 20
-5.7890096871
 10
-10.2527586057
 20
-5.8090351472
 10
-10.2459673547
 20
-5.8287139593
 10
-10.2387448264
 20
-5.8480397317
 10
-10.2311003284
 20
-5.8670077277
 10
-10.223044516
 20
-5.8856104102
 10
-10.2145896798
 20
-5.9038376677
 10
-10.2057445615
 20
-5.921688446
 10
-10.1965148524
 20
-5.9391670385
 10
-10.1869126803
 20
-5.9562647606
 10
-10.1769474674
 20
-5.972978624
 10
-10.1666199834
 20
-5.9893194039
 10
-10.155940713
 20
-6.0052808049
 10
-10.1449203738
 20
-6.0208567524
 10
-10.1335587583
 20
-6.0360561276
 10
-10.1218661863
 20
-6.0508726714
 10
-10.1098535986
 20
-6.0652999517
 10
-10.0975206301
 20
-6.0793446643
 10
-10.0848776499
 20
-6.0930002901
 10
-10.0719357063
 20
-6.1062604848
 10
-10.0586944135
 20
-6.119130346
 10
-10.0451645844
 20
-6.1316031908
 10
-10.0313570923
 20
-6.1436729074
 10
-10.0172707868
 20
-6.1553438735
 10
-10.0029169624
 20
-6.1666094385
 10
-9.9883064324
 20
-6.1774638903
 10
-9.9734363802
 20
-6.1879112968
 10
-9.9583178379
 20
-6.1979453095
 10
-9.94296207
 20
-6.2075601338
 10
-9.9273656468
 20
-6.216758889
 10
-9.9115346058
 20
-6.2255380313
 10
-9.8954851844
 20
-6.2338887459
 10
-9.8937446484
 20
-6.2347620731
  0
LWPOLYLINE
  5
21A
100
AcDbEntity
  8
RACCORDO
100
AcDbPolyline
 62
7
  6
CONTINUOUS
 90
34
 70
0
 10
4.9669830571
 20
-13.6651259258
 10
4.969105341
 20
-13.6661826257
 10
4.986386091
 20
-13.6744549798
 10
5.0038911982
 20
-13.6822487234
 10
5.0216005948
 20
-13.6895554114
 10
5.0395073192
 20
-13.6963728295
 10
5.0576182763
 20
-13.7027033616
 10
5.0759201897
 20
-13.7085413846
 10
5.0943996737
 20
-13.7138817734
 10
5.1130646255
 20
-13.7187251563
 10
5.1319020897
 20
-13.7230659344
 10
5.1508985386
 20
-13.7268990103
 10
5.1700620524
 20
-13.7302232523
 10
5.1893802048
 20
-13.73303294
 10
5.2088391274
 20
-13.7353228361
 10
5.228445745
 20
-13.73708999
 10
5.2481872869
 20
-13.7383287374
 10
5.2680503438
 20
-13.7390338337
 10
5.2880418269
 20
-13.7392006648
 10
5.3081508965
 20
-13.7388235879
 10
5.3283623421
 20
-13.7378973818
 10
5.3486775418
 20
-13.7364160943
 10
5.3690847018
 20
-13.7343744158
 10
5.389569954
 20
-13.7317676395
 10
5.4101327462
 20
-13.7285892653
 10
5.4307611509
 20
-13.7248342577
 10
5.4514420666
 20
-13.7204983341
 10
5.4721745412
 20
-13.7155744745
 10
5.4929473011
 20
-13.710057609
 10
5.5137478365
 20
-13.7039435143
 10
5.5345749003
 20
-13.6972244457
 10
5.5554207955
 20
-13.689894034
 10
5.5762695282
 20
-13.681949302
 10
5.5928128083
 20
-13.6752028628
  0
LINE
  5
21B
100
AcDbEntity
  8
0
100
AcDbLine
 62
7
  6
CONTINUOUS
 10
4.9670063058
 20
-13.6651375928
 11
-9.8937597543
 21
-6.2347545627
  0
LINE
  5
21C
100
AcDbEntity
  8
RACCORDO
100
AcDbLine
 62
253
  6
CONTINUOUS
 10
4.7127311706
 20
-13.2476918905
 11
-10.1436314261
 21
-5.8195105922
  0
LINE
  5
21D
100
AcDbEntity
  8
DRAFT
100
AcDbLine
 62
7
  6
CONTINUOUS
 10
-5.9287652901
 20
11.8053764044
 11
-5.9287652901
 21
12.8521657294
  0
LINE
  5
21E
100
AcDbEntity
  8
DRAFT
100
AcDbLine
 62
7
  6
CONTINUOUS
 10
5.6323985179
 20
7.0715838254
 11
4.094457301
 21
6.4112254931
  0
LINE
  5
21F
100
AcDbEntity
  8
RACCORDO
100
AcDbLine
 62
253
  6
CONTINUOUS
 10
7.4955372207
 20
6.140014474
 11
4.4692538431
 21
4.6469999556
  0
LINE
  5
220
100
AcDbEntity
  8
RACCORDO
100
AcDbLine
 62
253
  6
CONTINUOUS
 10
7.6723139171
 20
5.8351445056
 11
4.6444625933
 21
4.3413564423
  0
LINE
  5
221
100
AcDbEntity
  8
RACCORDO
100
AcDbLine
 62
253
  6
CONTINUOUS
 10
4.0084009376
 20
-3.5090772061
 11
-10.8239271899
 21
3.9070868577
  0
LINE
  5
222
100
AcDbEntity
  8
DRAFT
100
AcDbLine
 62
7
  6
CONTINUOUS
 10
7.6723139171
 20
3.3943045208
 11
8.5138746834
 21
3.8006474135
  0
LINE
  5
223
100
AcDbEntity
  8
DRAFT
100
AcDbLine
 62
7
  6
CONTINUOUS
 10
7.6723139171
 20
2.5950821999
 11
9.3270474818
 21
3.3940610143
  0
LINE
  5
224
100
AcDbEntity
  8
DRAFT
100
AcDbLine
 62
7
  6
CONTINUOUS
 10
9.7487731513
 20
0.5712778029
 11
10.5973012888
 21
0.5667431894
  0
LINE
  5
225
100
AcDbEntity
  8
DRAFT
100
AcDbLine
 62
7
  6
CONTINUOUS
 10
9.3270474818
 20
0.3649224507
 11
9.7487731513
 21
0.5712778029
  0
LINE
  5
226
100
AcDbEntity
  8
DRAFT
100
AcDbLine
 62
7
  6
CONTINUOUS
 10
9.468468838
 20
0.0143921358
 11
9.3270474818
 21
-0.0548070045
  0
LINE
  5
227
100
AcDbEntity
  8
0
100
AcDbLine
 62
7
  6
CONTINUOUS
 10
10.7948472894
 20
0.0294717788
 11
9.3270474818
 21
-0.8592884602
  0
LINE
  5
228
100
AcDbEntity
  8
0
100
AcDbLine
 62
7
  6
CONTINUOUS
 10
10.5973012888
 20
0.5667431894
 11
10.7458198632
 21
0.4924839022
  0
LINE
  5
229
100
AcDbEntity
  8
RACCORDO
100
AcDbLine
 62
253
  6
CONTINUOUS
 10
3.9435783103
 20
4.34238658
 11
-10.8865250691
 21
11.7574382697
  0
LINE
  5
22A
100
AcDbEntity
  8
RACCORDO
100
AcDbLine
 62
253
  6
CONTINUOUS
 10
4.1188137213
 20
4.6466732119
 11
-10.7112924974
 21
12.0617263213
  0
LINE
  5
22B
100
AcDbEntity
  8
DRAFT
100
AcDbLine
 62
7
  6
CONTINUOUS
 10
9.3270474818
 20
3.3940610143
 11
8.5138746834
 21
3.8006474135
  0
LINE
  5
22C
100
AcDbEntity
  8
RACCORDO
100
AcDbLine
 62
7
  6
CONTINUOUS
 10
7.6723139171
 20
5.8351445056
 11
7.6723139171
 21
2.5950821999
  0
LINE
  5
22D
100
AcDbEntity
  8
DRAFT
100
AcDbLine
 62
7
  6
CONTINUOUS
 10
4.094457301
 20
6.4112254931
 11
-7.219251198
 21
12.0680797426
  0
LINE
  5
22E
100
AcDbEntity
  8
DRAFT
100
AcDbLine
 62
7
  6
CONTINUOUS
 10
9.468468838
 20
0.0143921358
 11
9.3270474818
 21
0.2762231801
  0
LINE
  5
22F
100
AcDbEntity
  8
DRAFT
100
AcDbLine
 62
7
  6
CONTINUOUS
 10
9.3270474818
 20
3.3940610143
 11
9.3270474818
 21
-4.4769451642
  0
LINE
  5
230
100
AcDbEntity
  8
RACCORDO
100
AcDbLine
 62
7
  6
CONTINUOUS
 10
9.3270474818
 20
-4.4769451642
 11
9.3270474818
 21
-11.8910891708
  0
LINE
  5
231
100
AcDbEntity
  8
0
100
AcDbLine
 62
7
  6
CONTINUOUS
 10
10.7948472894
 20
-3.5531235945
 11
9.3270474818
 21
-4.4769451642
  0
LINE
  5
232
100
AcDbEntity
  8
RACCORDO
100
AcDbLine
 62
7
  6
CONTINUOUS
 10
-7.791903993
 20
13.7837350809
 11
-5.9287652901
 21
12.8521657294
  0
LINE
  5
233
100
AcDbEntity
  8
RACCORDO
100
AcDbLine
 62
7
  6
CONTINUOUS
 10
5.6323985179
 20
7.0715838254
 11
7.4955372207
 21
6.140014474
  0
LINE
  5
234
100
AcDbEntity
  8
0
100
AcDbLine
 62
253
  6
CONTINUOUS
 10
10.7948472894
 20
-3.5531235945
 11
10.7948472894
 21
0.0294717788
  0
LINE
  5
235
100
AcDbEntity
  8
0
100
AcDbLine
 62
7
  6
CONTINUOUS
 10
10.9508451163
 20
-3.3296751887
 11
10.9508451163
 21
0.2465476468
  0
LINE
  5
236
100
AcDbEntity
  8
RACCORDO
100
AcDbLine
 62
253
  6
CONTINUOUS
 10
5.7466238697
 20
-13.3940055713
 11
9.3270474818
 21
-11.8910891708
  0
LINE
  5
237
100
AcDbEntity
  8
RACCORDO
100
AcDbLine
 62
7
  6
CONTINUOUS
 10
5.5928166243
 20
-13.6752012697
 11
9.1857649407
 21
-12.167027507
  0
ARC
  5
238
100
AcDbEntity
  8
RACCORDO
100
AcDbCircle
 62
253
  6
CONTINUOUS
 10
522.8325448508
 20
12.0871737835
 40
533.7191749995
100
AcDbArc
 50
180.0353977438
 51
180.8781824627
  0
ARC
  5
239
100
AcDbEntity
  8
RACCORDO
100
AcDbCircle
 62
253
  6
CONTINUOUS
 10
518.356060279
 20
4.6627869632
 40
514.4125684646
100
AcDbArc
 50
180.0356865123
 51
180.9102285763
  0
ARC
  5
23A
100
AcDbEntity
  8
RACCORDO
100
AcDbCircle
 62
253
  6
CONTINUOUS
 10
518.4972848993
 20
4.6592825931
 40
513.8529077679
100
AcDbArc
 50
180.0354494975
 51
180.9102564822
  0
SPLINE
  5
23B
100
AcDbEntity
  8
RACCORDO
100
AcDbSpline
 62
253
  6
CONTINUOUS
 70
0
 71
3
 72
16
 73
12
 74
10
 42
0.0000001
 43
0.0000001
 44
0.0000000001
 12
0.1553812389
 22
-9.7682047707
 32
0.0
 13
1.2837033184
 23
-9.684734047
 33
0.0
 40
0.0
 40
0.0
 40
0.0
 40
0.0
 40
0.1138913534
 40
0.2271004806
 40
0.3396211041
 40
0.4514475054
 40
0.5625744463
 40
0.6729971773
 40
0.7827114491
 40
0.891713521
 40
1.0
 40
1.0
 40
1.0
 40
1.0
 10
4.0084009376
 20
-3.5090772061
 30
0.0
 10
4.0142997975
 20
-3.8799152264
 30
0.0
 10
4.0305489542
 20
-4.6193067331
 30
0.0
 10
4.0684658666
 20
-5.7246529438
 30
0.0
 10
4.1198454947
 20
-6.8227256528
 30
0.0
 10
4.1846771679
 20
-7.913293887
 30
0.0
 10
4.2629474778
 20
-8.9961313326
 30
0.0
 10
4.3546401845
 20
-10.0710123368
 30
0.0
 10
4.4597363807
 20
-11.1377139716
 30
0.0
 10
4.5782138726
 20
-12.1960110737
 30
0.0
 10
4.6663952651
 20
-12.8981166397
 30
0.0
 10
4.7127311692
 20
-13.2476918898
 30
0.0
 11
4.0084009376
 21
-3.5090772061
 31
0.0
 11
4.0328878198
 21
-4.621462525
 31
0.0
 11
4.0708459512
 21
-5.7268007951
 31
0.0
 11
4.1222674198
 21
-6.8248609742
 31
0.0
 11
4.1871415256
 21
-7.9154144588
 31
0.0
 11
4.265454771
 21
-8.9982342481
 31
0.0
 11
4.3571908626
 21
-10.0730949541
 31
0.0
 11
4.4623307146
 21
-11.1397728401
 31
0.0
 11
4.5808524476
 21
-12.1980458323
 31
0.0
 11
4.7127311692
 21
-13.2476918898
 31
0.0
  0
SPLINE
  5
23C
100
AcDbEntity
  8
RACCORDO
100
AcDbSpline
 62
253
  6
CONTINUOUS
 70
0
 71
3
 72
16
 73
12
 74
10
 42
0.0000001
 43
0.0000001
 44
0.0000000001
 12
-1.2415977395
 22
9.6760749116
 32
0.0
 13
-0.1499054088
 23
9.7542564561
 33
0.0
 40
0.0
 40
0.0
 40
0.0
 40
0.0
 40
0.1081567299
 40
0.2170641393
 40
0.3267177013
 40
0.4371125391
 40
0.5482432664
 40
0.6601039971
 40
0.7726883574
 40
0.8859894948
 40
1.0
 40
1.0
 40
1.0
 40
1.0
 10
-10.1436314248
 20
-5.8195105928
 30
0.0
 10
-10.1883938086
 20
-5.470666386
 30
0.0
 10
-10.2735783892
 20
-4.7699513746
 30
0.0
 10
-10.3880100556
 20
-3.7136820289
 30
0.0
 10
-10.4895172349
 20
-2.6487799512
 30
0.0
 10
-10.5780785045
 20
-1.5754697709
 30
0.0
 10
-10.653675592
 20
-0.4939741256
 30
0.0
 10
-10.7162928079
 20
0.5954816381
 30
0.0
 10
-10.7659171948
 20
1.6926714018
 30
0.0
 10
-10.8025384429
 20
2.7973645245
 30
0.0
 10
-10.8182302594
 20
3.5363909557
 30
0.0
 10
-10.8239271899
 20
3.9070868577
 30
0.0
 11
-10.1436314248
 21
-5.8195105928
 31
0.0
 11
-10.271009935
 21
-4.7721146409
 31
0.0
 11
-10.3854872491
 21
-3.7158638582
 31
0.0
 11
-10.4870393235
 21
-2.650979861
 31
0.0
 11
-10.5756450257
 21
-1.5776843498
 31
0.0
 11
-10.6512859208
 21
-0.4962007356
 31
0.0
 11
-10.7139462718
 21
0.5932458715
 31
0.0
 11
-10.7636130414
 21
1.6904287012
 31
0.0
 11
-10.8002758948
 21
2.7951193323
 31
0.0
 11
-10.8239271899
 21
3.9070868577
 31
0.0
  0
SPLINE
  5
23D
100
AcDbEntity
  8
RACCORDO
100
AcDbSpline
 62
253
  6
CONTINUOUS
 70
0
 71
3
 72
18
 73
14
 74
12
 42
0.0000001
 43
0.0000001
 44
0.0000000001
 12
-0.4515378015
 22
0.2257461502
 32
0.0
 13
-0.0647322063
 23
0.5003590218
 33
0.0
 40
0.0
 40
0.0
 40
0.0
 40
0.0
 40
0.0197194648
 40
0.1066648887
 40
0.1945881409
 40
0.2842025135
 40
0.376148397
 40
0.4709724143
 40
0.5691163291
 40
0.6709134231
 40
0.7765912254
 40
0.8862759587
 40
1.0
 40
1.0
 40
1.0
 40
1.0
 10
-9.893757857
 20
-6.2347551892
 30
0.0
 10
-9.896725885
 20
-6.2332713248
 30
0.0
 10
-9.912671835
 20
-6.2250281403
 30
0.0
 10
-9.9406313269
 20
-6.2078752165
 30
0.0
 10
-9.9756367444
 20
-6.180272062
 30
0.0
 10
-10.0078731876
 20
-6.1482831484
 30
0.0
 10
-10.0371740606
 20
-6.1120888376
 30
0.0
 10
-10.0633926608
 20
-6.0718886102
 30
0.0
 10
-10.0864008117
 20
-6.0278989166
 30
0.0
 10
-10.1060876592
 20
-5.9803523481
 30
0.0
 10
-10.122358993
 20
-5.9294960838
 30
0.0
 10
-10.135136549
 20
-5.8755967742
 30
0.0
 10
-10.1411775567
 20
-5.8384782088
 30
0.0
 10
-10.1436314261
 20
-5.8195105922
 30
0.0
 11
-9.893757857
 21
-6.2347551892
 31
0.0
 11
-9.9026006563
 21
-6.2301838161
 31
0.0
 11
-9.9400009758
 21
-6.2072603767
 31
0.0
 11
-9.9748585716
 21
-6.1798242365
 31
0.0
 11
-10.0069923751
 21
-6.1480179837
 31
0.0
 11
-10.0362355916
 21
-6.1120067831
 31
0.0
 11
-10.0624363429
 21
-6.0719777231
 31
0.0
 11
-10.085458569
 21
-6.0281387558
 31
0.0
 11
-10.1051827268
 21
-5.9807176253
 31
0.0
 11
-10.1215064735
 21
-5.9299604421
 31
0.0
 11
-10.1343449641
 21
-5.8761311648
 31
0.0
 11
-10.1436314261
 21
-5.8195105922
 31
0.0
  0
SPLINE
  5
23E
100
AcDbEntity
  8
RACCORDO
100
AcDbSpline
 62
253
  6
CONTINUOUS
 70
0
 71
3
 72
14
 73
10
 74
8
 42
0.0000001
 43
0.0000001
 44
0.0000000001
 12
0.1059629917
 22
0.0560037474
 32
0.0
 13
0.1078079008
 23
-0.0520348118
 33
0.0
 40
0.0
 40
0.0
 40
0.0
 40
0.0
 40
0.0908635945
 40
0.2276940579
 40
0.3683349108
 40
0.5146770676
 40
0.6681684771
 40
0.8297758422
 40
1.0
 40
1.0
 40
1.0
 40
1.0
 10
-10.8296482299
 20
12.2440927676
 30
0.0
 10
-10.8264388371
 20
12.2457890016
 30
0.0
 10
-10.8181547841
 20
12.2495830155
 30
0.0
 10
-10.8039968823
 20
12.2537748659
 30
0.0
 10
-10.7871497184
 20
12.2559022184
 30
0.0
 10
-10.7695180717
 20
12.255451526
 30
0.0
 10
-10.7512985916
 20
12.2524441668
 30
0.0
 10
-10.7326898575
 20
12.246927626
 30
0.0
 10
-10.7204690499
 20
12.2417553446
 30
0.0
 10
-10.7143518802
 20
12.2388028172
 30
0.0
 11
-10.8296482299
 21
12.2440927676
 31
0.0
 11
-10.8197526471
 21
12.2486255463
 31
0.0
 11
-10.8040546958
 21
12.2533022891
 31
0.0
 11
-10.7873572336
 21
12.2554571137
 31
0.0
 11
-10.7698431663
 21
12.2550664157
 31
0.0
 11
-10.7517043442
 21
12.2521344749
 31
0.0
 11
-10.7331394618
 21
12.2466934081
 31
0.0
 11
-10.7143518802
 21
12.2388028172
 31
0.0
  0
SPLINE
  5
23F
100
AcDbEntity
  8
RACCORDO
100
AcDbSpline
 62
253
  6
CONTINUOUS
 70
0
 71
3
 72
26
 73
22
 74
20
 42
0.0000001
 43
0.0000001
 44
0.0000000001
 12
0.0618747372
 22
-0.4667456364
 32
0.0
 13
0.4341341297
 23
0.1822293326
 33
0.0
 40
0.0
 40
0.0
 40
0.0
 40
0.0
 40
0.0610978601
 40
0.1201254357
 40
0.177105968
 40
0.2321173235
 40
0.2852897454
 40
0.3368072231
 40
0.3869079087
 40
0.4358811494
 40
0.4840608352
 40
0.5318140881
 40
0.5795269184
 40
0.6275870139
 40
0.6763668906
 40
0.7262083137
 40
0.7774106069
 40
0.830222953
 40
0.8848409664
 40
0.9414054067
 40
1.0
 40
1.0
 40
1.0
 40
1.0
 10
5.4097039734
 20
-13.1884865507
 30
0.0
 10
5.4109641114
 20
-13.1979922706
 30
0.0
 10
5.4140677998
 20
-13.2166063781
 30
0.0
 10
5.4206277053
 20
-13.2436427477
 30
0.0
 10
5.4289813937
 20
-13.2691810487
 30
0.0
 10
5.4390884094
 20
-13.2930861365
 30
0.0
 10
5.4509000642
 20
-13.315233429
 30
0.0
 10
5.4643589678
 20
-13.335505541
 30
0.0
 10
5.4793986456
 20
-13.3537932353
 30
0.0
 10
5.495943059
 20
-13.3699959609
 30
0.0
 10
5.513906119
 20
-13.3840230073
 30
0.0
 10
5.5331916487
 20
-13.395795116
 30
0.0
 10
5.5536940537
 20
-13.4052462465
 30
0.0
 10
5.5752999026
 20
-13.4123250434
 30
0.0
 10
5.5978899221
 20
-13.4169954396
 30
0.0
 10
5.6213409561
 20
-13.4192363837
 30
0.0
 10
5.6455274039
 20
-13.4190409141
 30
0.0
 10
5.6703218831
 20
-13.416415198
 30
0.0
 10
5.6955961193
 20
-13.4113773213
 30
0.0
 10
5.7212176796
 20
-13.4039582517
 30
0.0
 10
5.7381445655
 20
-13.3975647892
 30
0.0
 10
5.7466238697
 20
-13.3940055713
 30
0.0
 11
5.4097039734
 21
-13.1884865507
 31
0.0
 11
5.4144694084
 21
-13.2168557338
 31
0.0
 11
5.4210581444
 21
-13.2438553272
 31
0.0
 11
5.4294355437
 21
-13.2693419024
 31
0.0
 11
5.4395580814
 21
-13.2931828981
 31
0.0
 11
5.4513732303
 21
-13.3152545874
 31
0.0
 11
5.4648196426
 21
-13.3354423025
 31
0.0
 11
5.479827492
 21
-13.353641166
 31
0.0
 11
5.4963188339
 21
-13.3697566269
 31
0.0
 11
5.5142080684
 21
-13.3837049976
 31
0.0
 11
5.5334022697
 21
-13.3954137847
 31
0.0
 11
5.5538017803
 21
-13.404822162
 31
0.0
 11
5.5753006182
 21
-13.4118812226
 31
0.0
 11
5.5977871627
 21
-13.4165542918
 31
0.0
 11
5.6211446028
 21
-13.4188170699
 31
0.0
 11
5.6452516024
 21
-13.4186577862
 31
0.0
 11
5.6699829235
 21
-13.4160772628
 31
0.0
 11
5.6952102015
 21
-13.4110888722
 31
0.0
 11
5.7208022264
 21
-13.4037185743
 31
0.0
 11
5.7466238697
 21
-13.3940055713
 31
0.0
  0
SPLINE
  5
240
100
AcDbEntity
  8
RACCORDO
100
AcDbSpline
 62
253
  6
CONTINUOUS
 70
0
 71
3
 72
16
 73
12
 74
10
 42
0.0000001
 43
0.0000001
 44
0.0000000001
 12
0.1545333899
 22
-9.713976563
 32
0.0
 13
1.2766885381
 23
-9.6309546573
 33
0.0
 40
0.0
 40
0.0
 40
0.0
 40
0.0
 40
0.1138908911
 40
0.2270997556
 40
0.3396201956
 40
0.4514464955
 40
0.5625734205
 40
0.6729962244
 40
0.782710661
 40
0.8917129927
 40
1.0
 40
1.0
 40
1.0
 40
1.0
 10
4.7092197076
 20
-3.5039411476
 30
0.0
 10
4.7150863561
 20
-3.8727189631
 30
0.0
 10
4.7312467813
 20
-4.6080033774
 30
0.0
 10
4.7689566304
 20
-5.7072102261
 30
0.0
 10
4.820055692
 20
-6.7991850201
 30
0.0
 10
4.8845333422
 20
-7.8836976682
 30
0.0
 10
4.9623762452
 20
-8.9605231132
 30
0.0
 10
5.0535682494
 20
-10.0294369549
 30
0.0
 10
5.1580905529
 20
-11.0902175028
 30
0.0
 10
5.2759211367
 20
-12.142641391
 30
0.0
 10
5.3636210464
 20
-12.8408507984
 30
0.0
 10
5.4097039734
 20
-13.1884865507
 30
0.0
 11
4.7092197076
 21
-3.5039411476
 31
0.0
 11
4.733572852
 21
-4.6101465434
 31
0.0
 11
4.7713237025
 21
-5.7093458806
 31
0.0
 11
4.8224643709
 21
-6.8013081987
 31
0.0
 11
4.8869842157
 21
-7.8858061633
 31
0.0
 11
4.9648698128
 21
-8.9626140343
 31
0.0
 11
5.0561049582
 21
-10.0315076748
 31
0.0
 11
5.1606706699
 21
-11.09226459
 31
0.0
 11
5.2785451881
 21
-12.1446639388
 31
0.0
 11
5.4097039734
 21
-13.1884865507
 31
0.0
  0
SPLINE
  5
241
100
AcDbEntity
  8
RACCORDO
100
AcDbSpline
 62
253
  6
CONTINUOUS
 70
0
 71
3
 72
25
 73
21
 74
19
 42
0.0000001
 43
0.0000001
 44
0.0000000001
 12
-0.3235794245
 22
-0.1596344042
 32
0.0
 13
-0.322723212
 23
0.1613583448
 33
0.0
 40
0.0
 40
0.0
 40
0.0
 40
0.0
 40
0.0491165976
 40
0.1004708623
 40
0.1538531971
 40
0.209025372
 40
0.2657218418
 40
0.3236541948
 40
0.3825159892
 40
0.4419882829
 40
0.5017440885
 40
0.5614524732
 40
0.6207830634
 40
0.6794107561
 40
0.737019798
 40
0.793308295
 40
0.8479938222
 40
0.9008183779
 40
0.9515530379
 40
1.0
 40
1.0
 40
1.0
 40
1.0
 10
4.4692538431
 20
4.6469999556
 30
0.0
 10
4.4639561363
 20
4.6443863893
 30
0.0
 10
4.4529319244
 20
4.6394138018
 30
0.0
 10
4.4356196247
 20
4.6328521122
 30
0.0
 10
4.4172698562
 20
4.6270601648
 30
0.0
 10
4.3980197145
 20
4.6220815422
 30
0.0
 10
4.3780110744
 20
4.6179528707
 30
0.0
 10
4.3573919292
 20
4.6147047999
 30
0.0
 10
4.3363148788
 20
4.6123614293
 30
0.0
 10
4.3149360561
 20
4.6109401776
 30
0.0
 10
4.2934138641
 20
4.6104516086
 30
0.0
 10
4.2719078146
 20
4.6108993528
 30
0.0
 10
4.2505772951
 20
4.6122800718
 30
0.0
 10
4.2295803422
 20
4.6145834924
 30
0.0
 10
4.2090724662
 20
4.6177924857
 30
0.0
 10
4.1892053962
 20
4.6218832436
 30
0.0
 10
4.1701260225
 20
4.6268254089
 30
0.0
 10
4.151974865
 20
4.6325826645
 30
0.0
 10
4.1348874559
 20
4.6391117382
 30
0.0
 10
4.1240253744
 20
4.6440674381
 30
0.0
 10
4.1188137213
 20
4.6466732119
 30
0.0
 11
4.4692538431
 21
4.6469999556
 31
0.0
 11
4.4531102377
 21
4.6396888791
 31
0.0
 11
4.4357917651
 21
4.6331004818
 31
0.0
 11
4.4174295962
 21
4.6272849328
 31
0.0
 11
4.3981606691
 21
4.6222856352
 31
0.0
 11
4.3781283002
 21
4.6181397599
 31
0.0
 11
4.3574815248
 21
4.6148781608
 31
0.0
 11
4.336374113
 21
4.612525133
 31
0.0
 11
4.3149631703
 21
4.6110981875
 31
0.0
 11
4.2934080097
 21
4.6106079413
 31
0.0
 11
4.2718690874
 21
4.6110580449
 31
0.0
 11
4.2505067623
 21
4.6124451437
 31
0.0
 11
4.229479986
 21
4.6147589126
 31
0.0
 11
4.2089452591
 21
4.617982129
 31
0.0
 11
4.1890555097
 21
4.6220907808
 31
0.0
 11
4.169958702
 21
4.6270542896
 31
0.0
 11
4.151796865
 21
4.6328357489
 31
0.0
 11
4.1347054356
 21
4.6393920112
 31
0.0
 11
4.1188137213
 21
4.6466732119
 31
0.0
  0
SPLINE
  5
242
100
AcDbEntity
  8
RACCORDO
100
AcDbSpline
 62
253
  6
CONTINUOUS
 70
0
 71
3
 72
25
 73
21
 74
19
 42
0.0000001
 43
0.0000001
 44
0.0000000001
 12
-0.214026152
 22
0.1070152389
 32
0.0
 13
0.2115474019
 23
0.1118353782
 33
0.0
 40
0.0
 40
0.0
 40
0.0
 40
0.0
 40
0.0693923754
 40
0.1349956733
 40
0.1967575383
 40
0.2547514937
 40
0.309191375
 40
0.3604512572
 40
0.4090812224
 40
0.455808405
 40
0.5015101026
 40
0.5471534997
 40
0.5937111698
 40
0.6420748457
 40
0.6929914637
 40
0.7470324466
 40
0.8045921151
 40
0.8659022184
 40
0.9310515423
 40
1.0
 40
1.0
 40
1.0
 40
1.0
 10
-10.7112924974
 20
12.0617263213
 30
0.0
 10
-10.7162430917
 20
12.0642016685
 30
0.0
 10
-10.7257155632
 20
12.0693453627
 30
0.0
 10
-10.7389013322
 20
12.0778874767
 30
0.0
 10
-10.7505815518
 20
12.0869863555
 30
0.0
 10
-10.7606684294
 20
12.0965788232
 30
0.0
 10
-10.7690856941
 20
12.1066005503
 30
0.0
 10
-10.7757653045
 20
12.1169847907
 30
0.0
 10
-10.7806467564
 20
12.1276603019
 30
0.0
 10
-10.7836781408
 20
12.1385474648
 30
0.0
 10
-10.7848215406
 20
12.1495550869
 30
0.0
 10
-10.7840612538
 20
12.1605824607
 30
0.0
 10
-10.7814084379
 20
12.1715280683
 30
0.0
 10
-10.7768974717
 20
12.1822988381
 30
0.0
 10
-10.7705778078
 20
12.1928131685
 30
0.0
 10
-10.7625080136
 20
12.2029981988
 30
0.0
 10
-10.7527542409
 20
12.2127858419
 30
0.0
 10
-10.7413907467
 20
12.2221104569
 30
0.0
 10
-10.7285032625
 20
12.2309073383
 30
0.0
 10
-10.7192138359
 20
12.2362325249
 30
0.0
 10
-10.7143518802
 20
12.2388028172
 30
0.0
 11
-10.7112924974
 21
12.0617263213
 31
0.0
 11
-10.7258689564
 21
12.0696792073
 31
0.0
 11
-10.7390235587
 21
12.0782459607
 31
0.0
 11
-10.750656262
 21
12.0873617715
 31
0.0
 11
-10.7606802515
 21
12.0969586614
 31
0.0
 11
-10.769020993
 21
12.106965255
 31
0.0
 11
-10.7756164118
 21
12.1173071114
 31
0.0
 11
-10.7804173741
 21
12.1279072119
 31
0.0
 11
-10.783388144
 21
12.1386866606
 31
0.0
 11
-10.784506609
 21
12.1495652506
 31
0.0
 11
-10.7837644346
 21
12.1604619899
 31
0.0
 11
-10.7811671479
 21
12.1712957635
 31
0.0
 11
-10.7767340738
 21
12.1819859601
 31
0.0
 11
-10.7704982024
 21
12.1924530112
 31
0.0
 11
-10.7625059838
 21
12.2026189616
 31
0.0
 11
-10.7528168973
 21
12.2124081795
 31
0.0
 11
-10.7415029828
 21
12.2217478558
 31
0.0
 11
-10.7286486804
 21
12.2305683382
 31
0.0
 11
-10.7143518802
 21
12.2388028172
 31
0.0
  0
SPLINE
  5
243
100
AcDbEntity
  8
RACCORDO
100
AcDbSpline
 62
253
  6
CONTINUOUS
 70
0
 71
3
 72
16
 73
12
 74
10
 42
0.0000001
 43
0.0000001
 44
0.0000000001
 12
0.0302666444
 22
-0.2360003265
 32
0.0
 13
0.2123879969
 23
-0.1067781763
 33
0.0
 40
0.0
 40
0.0
 40
0.0
 40
0.0
 40
0.0314824301
 40
0.1384628454
 40
0.2473556282
 40
0.3594985425
 40
0.4760259738
 40
0.5978277209
 40
0.7255373212
 40
0.8595412718
 40
1.0
 40
1.0
 40
1.0
 40
1.0
 10
-10.2899216139
 20
-5.6441036039
 30
0.0
 10
-10.2896039914
 20
-5.6465802251
 30
0.0
 10
-10.2879705059
 20
-5.6574421967
 30
0.0
 10
-10.2831969539
 20
-5.6765247782
 30
0.0
 10
-10.2732938644
 20
-5.7006496673
 30
0.0
 10
-10.2598018567
 20
-5.7238372473
 30
0.0
 10
-10.2428398274
 20
-5.7459148948
 30
0.0
 10
-10.2225482182
 20
-5.7667250234
 30
0.0
 10
-10.1990857485
 20
-5.7861227734
 30
0.0
 10
-10.172632788
 20
-5.803972296
 30
0.0
 10
-10.1535751134
 20
-5.8145130543
 30
0.0
 10
-10.1436311974
 20
-5.8195123632
 30
0.0
 11
-10.2899216139
 21
-5.6441036039
 31
0.0
 11
-10.2888074831
 21
-5.6515103098
 31
0.0
 11
-10.2826563774
 21
-5.6761864687
 31
0.0
 11
-10.2728674411
 21
-5.7001500808
 31
0.0
 11
-10.2595135467
 21
-5.7232227521
 31
0.0
 11
-10.2426941055
 21
-5.7452327211
 31
0.0
 11
-10.2225343278
 21
-5.7660161373
 31
0.0
 11
-10.1991842903
 21
-5.7854182812
 31
0.0
 11
-10.1728178196
 21
-5.8032947161
 31
0.0
 11
-10.1436311974
 21
-5.8195123632
 31
0.0
  0
SPLINE
  5
244
100
AcDbEntity
  8
RACCORDO
100
AcDbSpline
 62
253
  6
CONTINUOUS
 70
0
 71
3
 72
17
 73
13
 74
11
 42
0.0000001
 43
0.0000001
 44
0.0000000001
 12
0.0037101215
 22
-0.2416685279
 32
0.0
 13
0.2158997467
 23
-0.1080361911
 33
0.0
 40
0.0
 40
0.0
 40
0.0
 40
0.0
 40
0.0010107456
 40
0.0926954414
 40
0.1862832983
 40
0.2834920346
 40
0.3857569322
 40
0.4941747817
 40
0.6095003247
 40
0.7321740215
 40
0.8623624547
 40
1.0
 40
1.0
 40
1.0
 40
1.0
 10
-10.9703785807
 20
4.0843754243
 30
0.0
 10
-10.9703773307
 20
4.0842940025
 30
0.0
 10
-10.9702556767
 20
4.0768269206
 30
0.0
 10
-10.9687173678
 20
4.0618432125
 30
0.0
 10
-10.9626560565
 20
4.0398306591
 30
0.0
 10
-10.952894349
 20
4.0182653155
 30
0.0
 10
-10.9395351058
 20
3.9973091218
 30
0.0
 10
-10.9226993235
 20
3.9771070342
 30
0.0
 10
-10.9025235558
 20
3.9577944187
 30
0.0
 10
-10.8791608229
 20
3.9395009605
 30
0.0
 10
-10.8527855901
 20
3.922352979
 30
0.0
 10
-10.8338324781
 20
3.9120424531
 30
0.0
 10
-10.8239271744
 20
3.9070858411
 30
0.0
 11
-10.9703785807
 21
4.0843754243
 31
0.0
 11
-10.9703746011
 21
4.0841311626
 31
0.0
 11
-10.968134204
 21
4.0621101464
 31
0.0
 11
-10.9621896733
 21
4.0403120177
 31
0.0
 11
-10.9525852516
 21
4.0188990103
 31
0.0
 11
-10.9393924203
 21
3.9980304916
 31
0.0
 11
-10.9227093677
 21
3.9778617766
 31
0.0
 11
-10.9026602584
 21
3.9585429722
 31
0.0
 11
-10.8793943089
 21
3.9402178595
 31
0.0
 11
-10.8530846773
 21
3.9230228241
 31
0.0
 11
-10.8239271744
 21
3.9070858411
 31
0.0
  0
SPLINE
  5
245
100
AcDbEntity
  8
RACCORDO
100
AcDbSpline
 62
253
  6
CONTINUOUS
 70
0
 71
3
 72
18
 73
14
 74
12
 42
0.0000001
 43
0.0000001
 44
0.0000000001
 12
0.0663382627
 22
-0.5044752399
 32
0.0
 13
0.4553531971
 23
-0.227688357
 33
0.0
 40
0.0
 40
0.0
 40
0.0
 40
0.0
 40
0.1129763026
 40
0.2220562091
 40
0.3272859639
 40
0.4288033967
 40
0.5268444574
 40
0.6217463863
 40
0.7139491154
 40
0.8039903814
 40
0.8924938222
 40
0.9801480974
 40
1.0
 40
1.0
 40
1.0
 40
1.0
 10
4.7127311706
 20
-13.2476918905
 30
0.0
 10
4.7152293878
 20
-13.2666898063
 30
0.0
 10
4.7213815168
 20
-13.3038824531
 30
0.0
 10
4.7343875295
 20
-13.3578982897
 30
0.0
 10
4.750949635
 20
-13.408901205
 30
0.0
 10
4.770987954
 20
-13.4566232937
 30
0.0
 10
4.7944062295
 20
-13.5008160365
 30
0.0
 10
4.8210909681
 20
-13.541245393
 30
0.0
 10
4.8509108155
 20
-13.5776935525
 30
0.0
 10
4.8837154708
 20
-13.6099599503
 30
0.0
 10
4.9193345982
 20
-13.6378635234
 30
0.0
 10
4.9477619464
 20
-13.6552445243
 30
0.0
 10
4.9639716141
 20
-13.6636198667
 30
0.0
 10
4.9669848232
 20
-13.6651265491
 30
0.0
 11
4.7127311706
 21
-13.2476918905
 31
0.0
 11
4.7221811572
 21
-13.3043942255
 31
0.0
 11
4.7352457114
 21
-13.3583365346
 31
0.0
 11
4.7518569017
 21
-13.4092374396
 31
0.0
 11
4.7719283753
 21
-13.4568322279
 31
0.0
 11
4.7953559945
 21
-13.5008738918
 31
0.0
 11
4.822018108
 21
-13.5411336329
 31
0.0
 11
4.8517762613
 21
-13.5774023019
 31
0.0
 11
4.8844759013
 21
-13.609491473
 31
0.0
 11
4.9199472964
 21
-13.6372345128
 31
0.0
 11
4.9580061896
 21
-13.660487239
 31
0.0
 11
4.9669848232
 21
-13.6651265491
 31
0.0
  0
SPLINE
  5
246
100
AcDbEntity
  8
RACCORDO
100
AcDbSpline
 62
253
  6
CONTINUOUS
 70
0
 71
3
 72
18
 73
14
 74
12
 42
0.0000001
 43
0.0000001
 44
0.0000000001
 12
-0.0143950899
 22
-0.3376864714
 32
0.0
 13
-0.3118982466
 23
-0.1309366183
 33
0.0
 40
0.0
 40
0.0
 40
0.0
 40
0.0
 40
0.1121022107
 40
0.2202342203
 40
0.3242292018
 40
0.4240330766
 40
0.5197202016
 40
0.6115080996
 40
0.6997689402
 40
0.7850342451
 40
0.8679883447
 40
0.9494463501
 40
1.0
 40
1.0
 40
1.0
 40
1.0
 10
5.7466238697
 20
-13.3940055713
 30
0.0
 10
5.7460859626
 20
-13.4066240379
 30
0.0
 10
5.7441768114
 20
-13.4313884324
 30
0.0
 10
5.7386497049
 20
-13.4675325417
 30
0.0
 10
5.7305467286
 20
-13.5017718588
 30
0.0
 10
5.7199244951
 20
-13.5338467042
 30
0.0
 10
5.7068568153
 20
-13.5635155072
 30
0.0
 10
5.6914343924
 20
-13.5905519136
 30
0.0
 10
5.6737649163
 20
-13.6147460575
 30
0.0
 10
5.6539741291
 20
-13.6359048382
 30
0.0
 10
5.632207753
 20
-13.6538535272
 30
0.0
 10
5.6115469834
 20
-13.6666365813
 30
0.0
 10
5.5980722919
 20
-13.6729943582
 30
0.0
 10
5.592816427
 20
-13.6752007995
 30
0.0
 11
5.7466238697
 21
-13.3940055713
 31
0.0
 11
5.7436643228
 21
-13.4317795899
 31
0.0
 11
5.7380869601
 21
-13.4678993972
 31
0.0
 11
5.7299341795
 21
-13.5020904189
 31
0.0
 11
5.7192679564
 21
-13.5340927431
 31
0.0
 11
5.7061693729
 21
-13.5636630957
 31
0.0
 11
5.6907380013
 21
-13.59057669
 31
0.0
 11
5.6730911472
 21
-13.6146289353
 31
0.0
 11
5.6533629579
 21
-13.6356369921
 31
0.0
 11
5.6317034022
 21
-13.6534411622
 31
0.0
 11
5.6082771309
 21
-13.6679061026
 31
0.0
 11
5.592816427
 21
-13.6752007995
 31
0.0
  0
SPLINE
  5
247
100
AcDbEntity
  8
RACCORDO
100
AcDbSpline
 62
253
  6
CONTINUOUS
 70
0
 71
3
 72
25
 73
21
 74
19
 42
0.0000001
 43
0.0000001
 44
0.0000000001
 12
-0.6058971385
 22
-0.4019656374
 32
0.0
 13
-0.6510614678
 23
0.3237386002
 33
0.0
 40
0.0
 40
0.0
 40
0.0
 40
0.0
 40
0.0516062275
 40
0.1050016655
 40
0.1599956747
 40
0.2163681641
 40
0.273875203
 40
0.3322541955
 40
0.3912287323
 40
0.4505132151
 40
0.5098173389
 40
0.568850502
 40
0.6273262122
 40
0.6849665543
 40
0.7415067921
 40
0.7967001832
 40
0.8503231039
 40
0.9021805955
 40
0.9521124552
 40
1.0
 40
1.0
 40
1.0
 40
1.0
 10
5.4097039734
 20
-13.1884865507
 30
0.0
 10
5.3992812849
 20
-13.1954011941
 30
0.0
 10
5.3775744999
 20
-13.2087286291
 30
0.0
 10
5.3432753956
 20
-13.2268703305
 30
0.0
 10
5.3068959791
 20
-13.2433948518
 30
0.0
 10
5.2687070391
 20
-13.2581792192
 30
0.0
 10
5.2289902725
 20
-13.2711147734
 30
0.0
 10
5.1880396622
 20
-13.2821058242
 30
0.0
 10
5.1461582905
 20
-13.2910710905
 30
0.0
 10
5.1036563111
 20
-13.2979441914
 30
0.0
 10
5.0608485222
 20
-13.3026742261
 30
0.0
 10
5.018051994
 20
-13.3052261562
 30
0.0
 10
4.9755836545
 20
-13.30558107
 30
0.0
 10
4.9337578705
 20
-13.3037362968
 30
0.0
 10
4.8928840826
 20
-13.2997053962
 30
0.0
 10
4.8532643427
 20
-13.293517928
 30
0.0
 10
4.8151914051
 20
-13.2852193053
 30
0.0
 10
4.7789451622
 20
-13.2748696049
 30
0.0
 10
4.7447954408
 20
-13.2625452891
 30
0.0
 10
4.7231239952
 20
-13.2528613378
 30
0.0
 10
4.7127314168
 20
-13.2476936555
 30
0.0
 11
5.4097039734
 21
-13.1884865507
 31
0.0
 11
5.3777504208
 21
-13.208158181
 31
0.0
 11
5.3434490948
 21
-13.2263446101
 31
0.0
 11
5.3070553473
 21
-13.2429104515
 31
0.0
 11
5.2688401067
 21
-13.2577323828
 31
0.0
 11
5.2290878617
 21
-13.2707000641
 31
0.0
 11
5.1880945426
 21
-13.2817169592
 31
0.0
 11
5.146165319
 21
-13.2907010542
 31
0.0
 11
5.1036123277
 21
-13.2975854682
 31
0.0
 11
5.0607523488
 21
-13.302318951
 31
0.0
 11
5.017904448
 21
-13.3048662648
 31
0.0
 11
4.9753876011
 21
-13.3052084464
 31
0.0
 11
4.9335183192
 21
-13.3033429486
 31
0.0
 11
4.8926082928
 21
-13.2992836588
 31
0.0
 11
4.8529620714
 21
-13.2930607959
 31
0.0
 11
4.8148747962
 21
-13.2847206851
 31
0.0
 11
4.778630003
 21
-13.2743254134
 31
0.0
 11
4.7444975115
 21
-13.261952367
 31
0.0
 11
4.7127314168
 21
-13.2476936555
 31
0.0
  0
SPLINE
  5
248
100
AcDbEntity
  8
RACCORDO
100
AcDbSpline
 62
253
  6
CONTINUOUS
 70
0
 71
3
 72
25
 73
21
 74
19
 42
0.0000001
 43
0.0000001
 44
0.0000000001
 12
-0.6443571498
 22
-0.3258684377
 32
0.0
 13
-0.6459431097
 23
0.3227133004
 33
0.0
 40
0.0
 40
0.0
 40
0.0
 40
0.0
 40
0.0493073633
 40
0.1008119167
 40
0.1543122058
 40
0.20957227
 40
0.266328002
 40
0.3242927999
 40
0.3831627169
 40
0.4426212641
 40
0.5023439834
 40
0.5620028863
 40
0.6212708343
 40
0.6798259342
 40
0.7373560187
 40
0.7935632967
 40
0.8481692745
 40
0.9009200805
 40
0.9515923648
 40
1.0
 40
1.0
 40
1.0
 40
1.0
 10
4.7092197076
 20
-3.5039411476
 30
0.0
 10
4.6986291902
 20
-3.5092970521
 30
0.0
 10
4.676591413
 20
-3.5194992118
 30
0.0
 10
4.6419698356
 20
-3.533002294
 30
0.0
 10
4.6052750003
 20
-3.54495975
 30
0.0
 10
4.5667794805
 20
-3.5552825161
 30
0.0
 10
4.5267668844
 20
-3.5638946223
 30
0.0
 10
4.485533211
 20
-3.5707321964
 30
0.0
 10
4.4433835758
 20
-3.5757445338
 30
0.0
 10
4.4006301477
 20
-3.5788944062
 30
0.0
 10
4.357589682
 20
-3.5801584161
 30
0.0
 10
4.3145811227
 20
-3.5795271814
 30
0.0
 10
4.2719231647
 20
-3.5770054137
 30
0.0
 10
4.2299318164
 20
-3.5726118707
 30
0.0
 10
4.1889180069
 20
-3.5663792026
 30
0.0
 10
4.1491851188
 20
-3.5583536208
 30
0.0
 10
4.1110269549
 20
-3.5485946214
 30
0.0
 10
4.0747244031
 20
-3.5371738985
 30
0.0
 10
4.0405470617
 20
-3.5241764468
 30
0.0
 10
4.0188238135
 20
-3.5142854856
 30
0.0
 10
4.008400954
 20
-3.509078223
 30
0.0
 11
4.7092197076
 21
-3.5039411476
 31
0.0
 11
4.6769328706
 21
-3.5189465832
 31
0.0
 11
4.6423013141
 21
-3.5325019087
 31
0.0
 11
4.6055827854
 21
-3.5445062381
 31
0.0
 11
4.5670505639
 21
-3.5548702284
 31
0.0
 11
4.5269914279
 21
-3.563516745
 31
0.0
 11
4.4857035196
 21
-3.5703814359
 31
0.0
 11
4.4434941264
 21
-3.5754132101
 31
0.0
 11
4.400677394
 21
-3.5785746185
 31
0.0
 11
4.3575719883
 21
-3.5798421321
 31
0.0
 11
4.3144987235
 21
-3.5792063173
 31
0.0
 11
4.2717781747
 21
-3.5766719062
 31
0.0
 11
4.2297282918
 21
-3.5722577613
 31
0.0
 11
4.1886620334
 21
-3.5659967352
 31
0.0
 11
4.1488850373
 21
-3.5579354258
 31
0.0
 11
4.1106933459
 21
-3.5481338299
 31
0.0
 11
4.0743712029
 21
-3.5366648964
 31
0.0
 11
4.0401889379
 21
-3.5236139834
 31
0.0
 11
4.008400954
 21
-3.509078223
 31
0.0
  0
SPLINE
  5
249
100
AcDbEntity
  8
RACCORDO
100
AcDbSpline
 62
253
  6
CONTINUOUS
 70
0
 71
3
 72
25
 73
21
 74
19
 42
0.0000001
 43
0.0000001
 44
0.0000000001
 12
-0.6482110313
 22
-0.3166966604
 32
0.0
 13
-0.6452774483
 23
0.3226318809
 33
0.0
 40
0.0
 40
0.0
 40
0.0
 40
0.0
 40
0.0490525921
 40
0.1003480395
 40
0.153684333
 40
0.2088220766
 40
0.2654951415
 40
0.3234142747
 40
0.3822721515
 40
0.441748859
 40
0.5015163623
 40
0.5612426251
 40
0.6205961564
 40
0.679250562
 40
0.7368886918
 40
0.7932071595
 40
0.8479219026
 40
0.9007733088
 40
0.9515300968
 40
1.0
 40
1.0
 40
1.0
 40
1.0
 10
4.6444625933
 20
4.341356435
 30
0.0
 10
4.6338637828
 20
4.336178171
 30
0.0
 10
4.611810346
 20
4.3263319617
 30
0.0
 10
4.5771844954
 20
4.3133548695
 30
0.0
 10
4.5404854441
 20
4.3019154185
 30
0.0
 10
4.5019856765
 20
4.2920989611
 30
0.0
 10
4.4619690188
 20
4.283977791
 30
0.0
 10
4.4207314305
 20
4.2776121824
 30
0.0
 10
4.3785781107
 20
4.273049377
 30
0.0
 10
4.3358213195
 20
4.2703232937
 30
0.0
 10
4.2927778516
 20
4.2694541967
 30
0.0
 10
4.2497666967
 20
4.2704485453
 30
0.0
 10
4.2071065943
 20
4.2732989333
 30
0.0
 10
4.1651135902
 20
4.2779841595
 30
0.0
 10
4.1240987022
 20
4.2844693915
 30
0.0
 10
4.084365395
 20
4.2927065037
 30
0.0
 10
4.0462074371
 20
4.3026343948
 30
0.0
 10
4.00990595
 20
4.3141800049
 30
0.0
 10
3.9757304201
 20
4.3272572888
 30
0.0
 10
3.9540038224
 20
4.3371739343
 30
0.0
 10
3.9435783106
 20
4.3423865796
 30
0.0
 11
4.6444625933
 21
4.341356435
 31
0.0
 11
4.6121705256
 21
4.3268800689
 31
0.0
 11
4.5775337854
 21
4.3138500966
 31
0.0
 11
4.5408094397
 21
4.3023632757
 31
0.0
 11
4.5022717451
 21
4.2925054414
 31
0.0
 11
4.4622072367
 21
4.2843498633
 31
0.0
 11
4.4209140052
 21
4.2779572348
 31
0.0
 11
4.3786995806
 21
4.2733751685
 31
0.0
 11
4.3358781676
 21
4.2706377587
 31
0.0
 11
4.2927683824
 21
4.2697653686
 31
0.0
 11
4.2496911087
 21
4.2707644909
 31
0.0
 11
4.2069669851
 21
4.2736276838
 31
0.0
 11
4.1649138973
 21
4.2783336429
 31
0.0
 11
4.1238448398
 21
4.2848473475
 31
0.0
 11
4.0840656579
 21
4.2931202795
 31
0.0
 11
4.0458722971
 21
4.3030908749
 31
0.0
 11
4.0095487267
 21
4.3146850164
 31
0.0
 11
3.9753661645
 21
4.3278160939
 31
0.0
 11
3.9435783106
 21
4.3423865796
 31
0.0
  0
SPLINE
  5
24A
100
AcDbEntity
  8
RACCORDO
100
AcDbSpline
 62
253
  6
CONTINUOUS
 70
0
 71
3
 72
17
 73
13
 74
11
 42
0.0000001
 43
0.0000001
 44
0.0000000001
 12
-0.2161823517
 22
0.1080934685
 32
0.0
 13
-0.0001431835
 23
0.241986754
 33
0.0
 40
0.0
 40
0.0
 40
0.0
 40
0.0
 40
0.1374069734
 40
0.2672599116
 40
0.3894698359
 40
0.5041739355
 40
0.6117888154
 40
0.7130493972
 40
0.8090418906
 40
0.9012075402
 40
0.9912907417
 40
1.0
 40
1.0
 40
1.0
 40
1.0
 10
-10.8865250688
 20
11.7574382693
 30
0.0
 10
-10.896426723
 20
11.7623892015
 30
0.0
 10
-10.9153703577
 20
11.7726720702
 30
0.0
 10
-10.9417420468
 20
11.7897376937
 30
0.0
 10
-10.9651013033
 20
11.8079031585
 30
0.0
 10
-10.9852742212
 20
11.8270431461
 30
0.0
 10
-11.0021083795
 20
11.8470294024
 30
0.0
 10
-11.0154679372
 20
11.8677290786
 30
0.0
 10
-11.0252319274
 20
11.8890006243
 30
0.0
 10
-11.031296216
 20
11.9106858555
 30
0.0
 10
-11.032901503
 20
11.9260629188
 30
0.0
 10
-11.032972882
 20
11.9340316562
 30
0.0
 10
-11.0329732977
 20
11.9347341646
 30
0.0
 11
-10.8865250688
 21
11.7574382693
 31
0.0
 11
-10.9156819069
 21
11.7733401296
 31
0.0
 11
-10.9419905083
 21
11.7904546339
 31
0.0
 11
-10.9652554764
 21
11.8086547616
 31
0.0
 11
-10.9853030139
 21
11.8278046153
 31
0.0
 11
-11.0019840958
 21
11.8477618153
 31
0.0
 11
-11.0151745848
 21
11.868377884
 31
0.0
 11
-11.0247762285
 21
11.8894992905
 31
0.0
 11
-11.0307175697
 21
11.9109688301
 31
0.0
 11
-11.0329543973
 21
11.9326267585
 31
0.0
 11
-11.0329732977
 21
11.9347341646
 31
0.0
  0
SPLINE
  5
24B
100
AcDbEntity
  8
RACCORDO
100
AcDbSpline
 62
253
  6
CONTINUOUS
 70
0
 71
3
 72
22
 73
18
 74
16
 42
0.0000001
 43
0.0000001
 44
0.0000000001
 12
-0.0002381892
 22
0.366577057
 32
0.0
 13
0.3264689292
 23
0.1667238248
 33
0.0
 40
0.0
 40
0.0
 40
0.0
 40
0.0
 40
0.0627686189
 40
0.127890541
 40
0.1950351212
 40
0.2638167631
 40
0.333808163
 40
0.4045526074
 40
0.4755756315
 40
0.5463963063
 40
0.6165383927
 40
0.6855415922
 40
0.7529731291
 40
0.8184399276
 40
0.8816016836
 40
0.9421851586
 40
1.0
 40
1.0
 40
1.0
 40
1.0
 10
-10.8865264888
 20
11.7574389795
 30
0.0
 10
-10.8865314724
 20
11.7651088247
 30
0.0
 10
-10.8858642516
 20
11.7807425789
 30
0.0
 10
-10.8829850017
 20
11.8044212366
 30
0.0
 10
-10.8782393032
 20
11.8285465879
 30
0.0
 10
-10.8716785884
 20
11.8528576405
 30
0.0
 10
-10.863373603
 20
11.8770939967
 30
0.0
 10
-10.853413789
 20
11.9009948898
 30
0.0
 10
-10.8419063724
 20
11.9243032054
 30
0.0
 10
-10.8289752131
 20
11.946768062
 30
0.0
 10
-10.8147594204
 20
11.9681476916
 30
0.0
 10
-10.7994117996
 20
11.9882120775
 30
0.0
 10
-10.7830969756
 20
12.0067455275
 30
0.0
 10
-10.7659898148
 20
12.023548795
 30
0.0
 10
-10.7482719907
 20
12.0384417933
 30
0.0
 10
-10.7301344353
 20
12.0512629302
 30
0.0
 10
-10.7175840805
 20
12.0585132841
 30
0.0
 10
-10.7112924974
 20
12.0617263213
 30
0.0
 11
-10.8865264888
 21
11.7574389795
 31
0.0
 11
-10.8855824595
 21
11.7804291461
 31
0.0
 11
-10.8827313584
 21
11.8041304861
 31
0.0
 11
-10.8780041083
 21
11.8282859358
 31
0.0
 11
-10.8714519807
 21
11.8526335062
 31
0.0
 11
-10.8631460398
 21
11.8769091248
 31
0.0
 11
-10.8531763714
 21
11.9008494994
 31
0.0
 11
-10.841651106
 21
11.9241949739
 31
0.0
 11
-10.8286952463
 21
11.9466923444
 31
0.0
 11
-10.8144493107
 21
11.9680976056
 31
0.0
 11
-10.79906781
 21
11.9881785971
 31
0.0
 11
-10.7827175714
 21
12.0067175214
 31
0.0
 11
-10.7655759286
 21
12.0235133063
 31
0.0
 11
-10.7478287991
 21
12.0383837857
 31
0.0
 11
-10.7296686674
 21
12.0511676752
 31
0.0
 11
-10.7112924974
 21
12.0617263213
 31
0.0
  0
SPLINE
  5
24C
100
AcDbEntity
  8
RACCORDO
100
AcDbSpline
 62
253
  6
CONTINUOUS
 70
0
 71
3
 72
22
 73
18
 74
16
 42
0.0000001
 43
0.0000001
 44
0.0000000001
 12
-0.000238189
 22
0.366577057
 32
0.0
 13
0.326468929
 23
0.166723825
 33
0.0
 40
0.0
 40
0.0
 40
0.0
 40
0.0
 40
0.0627686171
 40
0.1278905369
 40
0.1950351148
 40
0.2638167547
 40
0.3338081528
 40
0.4045525959
 40
0.4755756192
 40
0.5463962937
 40
0.6165383804
 40
0.6855415807
 40
0.7529731191
 40
0.8184399196
 40
0.8816016779
 40
0.9421851557
 40
1.0
 40
1.0
 40
1.0
 40
1.0
 10
3.9435797299
 20
4.3423858702
 30
0.0
 10
3.9435747463
 20
4.3500557152
 30
0.0
 10
3.944241967
 20
4.3656894688
 30
0.0
 10
3.9471212167
 20
4.3893681258
 30
0.0
 10
3.9518669149
 20
4.4134934763
 30
0.0
 10
3.9584276294
 20
4.4378045282
 30
0.0
 10
3.9667326144
 20
4.4620408839
 30
0.0
 10
3.976692428
 20
4.4859417767
 30
0.0
 10
3.9881998442
 20
4.5092500922
 30
0.0
 10
4.0011310032
 20
4.5317149488
 30
0.0
 10
4.0153467957
 20
4.5530945786
 30
0.0
 10
4.0306944164
 20
4.5731589649
 30
0.0
 10
4.0470092406
 20
4.5916924155
 30
0.0
 10
4.0641164017
 20
4.6084956837
 30
0.0
 10
4.0818342264
 20
4.6233886827
 30
0.0
 10
4.0999717824
 20
4.6362098203
 30
0.0
 10
4.1125221379
 20
4.6434601746
 30
0.0
 10
4.1188137213
 20
4.6466732119
 30
0.0
 11
3.9435797299
 21
4.3423858702
 31
0.0
 11
3.9445237591
 21
4.3653760361
 31
0.0
 11
3.94737486
 21
4.3890773753
 31
0.0
 11
3.9521021099
 21
4.4132328242
 31
0.0
 11
3.9586542371
 21
4.4375803939
 31
0.0
 11
3.9669601776
 21
4.461856012
 31
0.0
 11
3.9769298456
 21
4.4857963862
 31
0.0
 11
3.9884551105
 21
4.5091418606
 31
0.0
 11
4.00141097
 21
4.5316392311
 31
0.0
 11
4.0156569054
 21
4.5530444926
 31
0.0
 11
4.031038406
 21
4.5731254845
 31
0.0
 11
4.0473886448
 21
4.5916644093
 31
0.0
 11
4.0645302879
 21
4.608460195
 31
0.0
 11
4.0822774179
 21
4.6233306751
 31
0.0
 11
4.1004375503
 21
4.6361145652
 31
0.0
 11
4.1188137213
 21
4.6466732119
 31
0.0
  0
SPLINE
  5
24D
100
AcDbEntity
  8
RACCORDO
100
AcDbSpline
 62
253
  6
CONTINUOUS
 70
0
 71
3
 72
22
 73
18
 74
16
 42
0.0000001
 43
0.0000001
 44
0.0000000001
 12
-0.002671125
 22
0.3672620089
 32
0.0
 13
-0.3261223841
 23
0.168916277
 33
0.0
 40
0.0
 40
0.0
 40
0.0
 40
0.0
 40
0.0628098879
 40
0.1280561059
 40
0.1953872161
 40
0.2643961452
 40
0.3346338479
 40
0.4056219428
 40
0.4768646674
 40
0.5478604484
 40
0.6181133473
 40
0.6871446269
 40
0.7545046983
 40
0.8197857435
 40
0.8826353607
 40
0.9427716307
 40
1.0
 40
1.0
 40
1.0
 40
1.0
 10
4.6444610838
 20
4.3413556976
 30
0.0
 10
4.6444051594
 20
4.3490449261
 30
0.0
 10
4.6436204979
 20
4.3647226116
 30
0.0
 10
4.6405871293
 20
4.3884703016
 30
0.0
 10
4.6357067769
 20
4.4126827399
 30
0.0
 10
4.6290327622
 20
4.4370954516
 30
0.0
 10
4.6206376911
 20
4.4614442848
 30
0.0
 10
4.6106128415
 20
4.4854646152
 30
0.0
 10
4.5990672036
 20
4.508895429
 30
0.0
 10
4.5861262955
 20
4.5314819884
 30
0.0
 10
4.5719307387
 20
4.5529787885
 30
0.0
 10
4.5566346663
 20
4.5731522692
 30
0.0
 10
4.5404038006
 20
4.5917834628
 30
0.0
 10
4.5234138344
 20
4.6086701748
 30
0.0
 10
4.5058469122
 20
4.6236297805
 30
0.0
 10
4.4878940862
 20
4.63649852
 30
0.0
 10
4.4754749938
 20
4.6437776879
 30
0.0
 10
4.4692538431
 20
4.6469999556
 30
0.0
 11
4.6444610838
 21
4.3413556976
 31
0.0
 11
4.6433459157
 21
4.3643970228
 31
0.0
 11
4.6403406262
 21
4.3881709151
 31
0.0
 11
4.6354781353
 21
4.4124169533
 31
0.0
 11
4.6288117073
 21
4.436869544
 31
0.0
 11
4.6204143669
 21
4.4612608315
 31
0.0
 11
4.6103780993
 21
4.4853236314
 31
0.0
 11
4.5988128427
 21
4.5087943577
 31
0.0
 11
4.5858452839
 21
4.5314159101
 31
0.0
 11
4.5716174708
 21
4.55294049
 31
0.0
 11
4.556285256
 21
4.5731323154
 31
0.0
 11
4.5400165901
 21
4.5917702034
 31
0.0
 11
4.5229896814
 21
4.6086499929
 31
0.0
 11
4.5053910441
 21
4.6235867812
 31
0.0
 11
4.4874134553
 21
4.6364169497
 31
0.0
 11
4.4692538431
 21
4.6469999556
 31
0.0
  0
ELLIPSE
  5
24E
100
AcDbEntity
  8
RACCORDO
100
AcDbEllipse
 62
7
  6
CONTINUOUS
 10
8.9734402351
 20
-11.7138894959
 30
0.0
 11
-0.2234618187
 21
0.4480306886
 31
0.0
 40
0.6116748051
 41
-3.1815382096
 42
-2.2548620396
  0
ELLIPSE
  5
24F
100
AcDbEntity
  8
RACCORDO
100
AcDbEllipse
 62
7
  6
CONTINUOUS
 10
-7.791877066
 20
13.5672070222
 30
0.0
 11
-0.1118523001
 21
0.2236266191
 31
0.0
 40
0.6122950388
 41
-0.6847996396
 42
0.0137729
  0
ELLIPSE
  5
250
100
AcDbEntity
  8
0
100
AcDbEllipse
 62
7
  6
CONTINUOUS
 10
10.2508451163
 20
-3.3334144531
 30
0.0
 11
0.6999953968
 21
0.0050237095
 31
0.0
 40
0.5053247124
 41
-0.6843049942
 42
-0.0036288315
  0
ELLIPSE
  5
251
100
AcDbEntity
  8
RACCORDO
100
AcDbEllipse
 62
7
  6
CONTINUOUS
 10
7.4955102937
 20
5.9235133423
 30
0.0
 11
-0.1118222789
 21
0.2235999171
 31
0.0
 40
0.6124778111
 41
-2.255529033
 42
-0.6848850053
  0
ELLIPSE
  5
252
100
AcDbEntity
  8
0
100
AcDbEllipse
 62
7
  6
CONTINUOUS
 10
10.2508451163
 20
0.2502869112
 30
0.0
 11
0.6999957133
 21
-0.0049526276
 31
0.0
 40
0.4946372042
 41
-0.6771787527
 42
0.7888978189
  0
ENDSEC
  0
SECTION
  2
OBJECTS
  0
DICTIONARY
  5
C
100
AcDbDictionary
280
0
281
1
  3
ACAD_GROUP
350
D
  3
ACAD_MLINESTYLE
350
17
  3
ACAD_LAYOUT
350
1A
  3
ACAD_PLOTSETTINGS
350
19
  3
ACAD_PLOTSTYLENAME
350
E
  0
DICTIONARY
  5
D
102
{ACAD_REACTORS
330
C
102
}
100
AcDbDictionary
280
0
281
1
  0
ACDBDICTIONARYWDFLT
  5
E
102
{ACAD_REACTORS
330
C
102
}
100
AcDbDictionary
281
1
  3
Normal
350
F
100
AcDbDictionaryWithDefault
340
F
  0
DICTIONARY
  5
17
102
{ACAD_REACTORS
330
C
102
}
100
AcDbDictionary
280
0
281
1
  3
Standard
350
18
  0
DICTIONARY
  5
19
102
{ACAD_REACTORS
330
C
102
}
100
AcDbDictionary
281
1
  0
DICTIONARY
  5
1A
102
{ACAD_REACTORS
330
C
102
}
100
AcDbDictionary
281
1
  3
Model
350
253
  3
Layout1
350
254
  0
ACDBPLACEHOLDER
  5
F
102
{ACAD_REACTORS
330
E
102
}
  0
MLINESTYLE
  5
18
102
{ACAD_REACTORS
330
17
102
}
100
AcDbMlineStyle
  2
STANDARD
 70
0
  3

 62
256
 51
90.0
 52
90.0
 71
2
 49
0.5
 62
256
  6
BYLAYER
 49
-0.5
 62
256
  6
BYLAYER
  0
LAYOUT
  5
253
102
{ACAD_REACTORS
330
1A
102
}
100
AcDbPlotSettings
  1

  2
none_device
  4
ISO_A4_(297.00_x_210.00_MM)
  6

 40
0.0
 41
0.0
 42
0.0
 43
0.0
 44
297.0
 45
210.0
 46
0.0
 47
0.0
 48
0.0
 49
0.0
140
0.0
141
0.0
142
1.0
143
1.0
 70
1024
 72
1
 73
0
 74
0
  7

 75
0
147
1.0
148
0.0
149
0.0
100
AcDbLayout
  1
Model
 70
0
 71
0
 10
0.0
 20
0.0
 11
297.0
 21
210.0
 12
0.0
 22
0.0
 32
0.0
 14
0.0
 24
0.0
 34
0.0
 15
0.0
 25
0.0
 35
0.0
146
0.0
 13
0.0
 23
0.0
 33
0.0
 16
1.0
 26
0.0
 36
0.0
 17
0.0
 27
1.0
 37
0.0
 76
0
330
20F
345
0
346
0
  0
LAYOUT
  5
254
102
{ACAD_REACTORS
330
1A
102
}
100
AcDbPlotSettings
  1

  2
none_device
  4
ISO_A4_(297.00_x_210.00_MM)
  6

 40
0.0
 41
0.0
 42
0.0
 43
0.0
 44
297.0
 45
210.0
 46
0.0
 47
0.0
 48
0.0
 49
0.0
140
0.0
141
0.0
142
1.0
143
1.0
 70
0
 72
1
 73
0
 74
0
  7

 75
0
147
1.0
148
0.0
149
0.0
100
AcDbLayout
  1
Layout1
 70
0
 71
1
 10
0.0
 20
0.0
 11
297.0
 21
210.0
 12
0.0
 22
0.0
 32
0.0
 14
0.0
 24
0.0
 34
0.0
 15
0.0
 25
0.0
 35
0.0
146
0.0
 13
0.0
 23
0.0
 33
0.0
 16
1.0
 26
0.0
 36
0.0
 17
0.0
 27
1.0
 37
0.0
 76
0
330
210
345
0
346
0
  0
ENDSEC
  0
EOF
