  0
SECTION
  2
HEADER
  9
$ACADVER
  1
AC1015
  9
$DWGCODEPAGE
  3
ANSI_1252
  9
$EXTMAX
 10
297.0
 20
210.0
 30
0.0
  9
$EXTMIN
 10
0.0
 20
0.0
 30
0.0
  9
$LIMMIN
 10
0.0
 20
0.0
  9
$LIMMAX
 10
297.0
 20
210.0
  9
$VIEWCTR
 10
148.5
 20
105.0
  9
$VIEWSIZE
 40
210.0
  9
$CLAYER
  8
0
  9
$LTSCALE
 40
16.335
  9
$CELTYPE
  6
BYLAYER
  9
$DIMSCALE
 40
1.0
  9
$DIMASZ
 40
3.0
  9
$DIMEXO
 40
1.85625
  9
$DIMDLI
 40
11.286
  9
$DIMEXE
 40
5.346
  9
$DIMCEN
 40
2.673
  9
$DIMLFAC
 40
1.0
  9
$DIMBLK
  1
_FILLED
  9
$DIMTXT
 40
3.0
  9
$DIMTOL
 70
1
  9
$DIMLIM
 70
0
  9
$DIMTFAC
 40
1.0
  9
$DIMTP
 40
0.01
  9
$DIMTM
 40
0.01
  9
$PDMODE
 70
3
  9
$PDSIZE
 40
3.0
  9
$HANDSEED
  5
256
  9
$TILEMODE
 70
1
  9
$MEASUREMENT
 70
1
  9
$INSUNITS
 70
4
  0
ENDSEC
  0
SECTION
  2
CLASSES
  0
CLASS
  1
ACDBDICTIONARYWDFLT
  2
AcDbDictionaryWithDefault
  3
AutoCAD 2000
 90
0
280
0
281
0
  0
CLASS
  1
ACDBPLACEHOLDER
  2
AcDbPlaceHolder
  3
AutoCAD 2000
 90
0
280
0
281
0
  0
CLASS
  1
LAYOUT
  2
AcDbLayout
  3
AutoCAD 2000
 90
0
280
0
281
0
  0
ENDSEC
  0
SECTION
  2
TABLES
  0
TABLE
  2
VPORT
  5
8
100
AcDbSymbolTable
 70
2
  0
VPORT
  5
1F4
100
AcDbSymbolTableRecord
100
AcDbViewportTableRecord
  2
*ACTIVE
 70
0
 10
0.0
 20
0.0
 11
1.0
 21
1.0
 12
148.5
 22
105.0
 13
0.0
 23
0.0
 14
1.0
 24
1.0
 15
0.0
 25
0.0
 16
0.0
 26
0.0
 36
1.0
 17
0.0
 27
0.0
 37
0.0
 40
210.0
 41
1.4142857143
 42
50.0
 43
0.0
 44
0.0
 50
0.0
 51
0.0
 71
0
 72
100
 73
1
 74
1
 75
0
 76
0
 77
0
 78
0
  0
ENDTAB
  0
TABLE
  2
LTYPE
  5
5
100
AcDbSymbolTable
 70
6
  0
LTYPE
  5
14
100
AcDbSymbolTableRecord
100
AcDbLinetypeTableRecord
  2
BYBLOCK
 70
0
  3

 72
65
 73
0
 40
0.0
  0
LTYPE
  5
15
100
AcDbSymbolTableRecord
100
AcDbLinetypeTableRecord
  2
BYLAYER
 70
0
  3

 72
65
 73
0
 40
0.0
  0
LTYPE
  5
16
100
AcDbSymbolTableRecord
100
AcDbLinetypeTableRecord
  2
CONTINUOUS
 70
64
  3
Solid line
 72
65
 73
0
 40
0.0
  0
LTYPE
  5
1F5
100
AcDbSymbolTableRecord
100
AcDbLinetypeTableRecord
  2
CENTER
 70
64
  3
____ _ ____ _ ____ _ ____ _ ____ _ ____ _ ____
 72
65
 73
4
 40
0.6
 49
0.375
 74
0
 49
-0.075
 74
0
 49
0.075
 74
0
 49
-0.075
 74
0
  0
LTYPE
  5
1F6
100
AcDbSymbolTableRecord
100
AcDbLinetypeTableRecord
  2
HIDDEN
 70
64
  3
- - - - - - - - - - - - - - - - - - - -
 72
65
 73
2
 40
0.2
 49
0.1
 74
0
 49
-0.1
 74
0
  0
LTYPE
  5
1F7
100
AcDbSymbolTableRecord
100
AcDbLinetypeTableRecord
  2
PHANTOM
 70
64
  3
_____ _ _ _____ _ _ _____ _ _ _____
 72
65
 73
6
 40
0.8
 49
0.45
 74
0
 49
-0.05
 74
0
 49
0.1
 74
0
 49
-0.05
 74
0
 49
0.1
 74
0
 49
-0.05
 74
0
  0
LTYPE
  5
1F8
100
AcDbSymbolTableRecord
100
AcDbLinetypeTableRecord
  2
DOT
 70
64
  3
. . . . . . . . . . . . . . . . . . . .
 72
65
 73
2
 40
0.2
 49
0.1
 74
0
 49
-0.1
 74
0
  0
LTYPE
  5
1F9
100
AcDbSymbolTableRecord
100
AcDbLinetypeTableRecord
  2
DASHED
 70
64
  3
- - - - - - - - - - - - - - - - - - - -
 72
65
 73
2
 40
0.2
 49
0.1
 74
0
 49
-0.1
 74
0
  0
ENDTAB
  0
TABLE
  2
LAYER
  5
2
100
AcDbSymbolTable
 70
36
  0
LAYER
  5
10
100
AcDbSymbolTableRecord
100
AcDbLayerTableRecord
  2
0
 70
0
 62
7
  6
CONTINUOUS
370
-3
390
F
  0
LAYER
  5
1FA
100
AcDbSymbolTableRecord
100
AcDbLayerTableRecord
  2
DEFAULT_1
 70
0
 62
7
  6
CENTER
370
-3
390
F
  0
LAYER
  5
1FB
100
AcDbSymbolTableRecord
100
AcDbLayerTableRecord
  2
DEFAULT_2
 70
0
 62
7
  6
HIDDEN
370
-3
390
F
  0
LAYER
  5
1FC
100
AcDbSymbolTableRecord
100
AcDbLayerTableRecord
  2
DEFAULT_3
 70
0
 62
7
  6
PHANTOM
370
-3
390
F
  0
LAYER
  5
1FD
100
AcDbSymbolTableRecord
100
AcDbLayerTableRecord
  2
ASSI
 70
0
 62
7
  6
CONTINUOUS
370
-3
390
F
  0
LAYER
  5
1FE
100
AcDbSymbolTableRecord
100
AcDbLayerTableRecord
  2
COLORE_MATERIALE
 70
0
 62
7
  6
CONTINUOUS
370
-3
390
F
  0
LAYER
  5
1FF
100
AcDbSymbolTableRecord
100
AcDbLayerTableRecord
  2
COORDINATE
 70
0
 62
7
  6
CONTINUOUS
370
-3
390
F
  0
LAYER
  5
200
100
AcDbSymbolTableRecord
100
AcDbLayerTableRecord
  2
COORD_ORIGINE
 70
0
 62
7
  6
CONTINUOUS
370
-3
390
F
  0
LAYER
  5
201
100
AcDbSymbolTableRecord
100
AcDbLayerTableRecord
  2
COPY
 70
0
 62
7
  6
CONTINUOUS
370
-3
390
F
  0
LAYER
  5
202
100
AcDbSymbolTableRecord
100
AcDbLayerTableRecord
  2
CURVE
 70
0
 62
7
  6
CONTINUOUS
370
-3
390
F
  0
LAYER
  5
203
100
AcDbSymbolTableRecord
100
AcDbLayerTableRecord
  2
DRAFT
 70
0
 62
7
  6
CONTINUOUS
370
-3
390
F
  0
LAYER
  5
204
100
AcDbSymbolTableRecord
100
AcDbLayerTableRecord
  2
IGS
 70
0
 62
7
  6
CONTINUOUS
370
-3
390
F
  0
LAYER
  5
205
100
AcDbSymbolTableRecord
100
AcDbLayerTableRecord
  2
PIANI
 70
0
 62
7
  6
CONTINUOUS
370
-3
390
F
  0
LAYER
  5
206
100
AcDbSymbolTableRecord
100
AcDbLayerTableRecord
  2
PIANI_ORIGINE
 70
0
 62
7
  6
CONTINUOUS
370
-3
390
F
  0
LAYER
  5
207
100
AcDbSymbolTableRecord
100
AcDbLayerTableRecord
  2
PIANI_RIFERIMENTO
 70
0
 62
7
  6
CONTINUOUS
370
-3
390
F
  0
LAYER
  5
208
100
AcDbSymbolTableRecord
100
AcDbLayerTableRecord
  2
RACCORDO
 70
0
 62
7
  6
CONTINUOUS
370
-3
390
F
  0
LAYER
  5
209
100
AcDbSymbolTableRecord
100
AcDbLayerTableRecord
  2
SMUSSO
 70
0
 62
7
  6
CONTINUOUS
370
-3
390
F
  0
LAYER
  5
20A
100
AcDbSymbolTableRecord
100
AcDbLayerTableRecord
  2
SUPERFICI
 70
0
 62
7
  6
CONTINUOUS
370
-3
390
F
  0
LAYER
  5
20B
100
AcDbSymbolTableRecord
100
AcDbLayerTableRecord
  2
TRASH
 70
0
 62
7
  6
CONTINUOUS
370
-3
390
F
  0
ENDTAB
  0
TABLE
  2
STYLE
  5
3
100
AcDbSymbolTable
 70
1
  0
STYLE
  5
11
100
AcDbSymbolTableRecord
100
AcDbTextStyleTableRecord
  2
STANDARD
 70
0
 40
0.0
 41
0.8
 50
0.0
 71
0
 42
0.2
  3
txt
  4

  0
STYLE
  5
20C
100
AcDbSymbolTableRecord
100
AcDbTextStyleTableRecord
  2
TEXTSTYLE_1
 70
0
 40
0.0
 41
0.8
 50
0.0
 71
0
 42
0.2
  3
gdt
  4

  0
ENDTAB
  0
TABLE
  2
VIEW
  5
6
100
AcDbSymbolTable
 70
0
  0
ENDTAB
  0
TABLE
  2
UCS
  5
7
100
AcDbSymbolTable
 70
0
  0
ENDTAB
  0
TABLE
  2
APPID
  5
9
100
AcDbSymbolTable
 70
1
  0
APPID
  5
20D
100
AcDbSymbolTableRecord
100
AcDbRegAppTableRecord
  2
ACAD
 70
0
  0
ENDTAB
  0
TABLE
  2
BLOCK_RECORD
  5
1
100
AcDbSymbolTable
 70
0
  0
BLOCK_RECORD
  5
20E
100
AcDbSymbolTableRecord
100
AcDbBlockTableRecord
  2
*Model_Space
  0
BLOCK_RECORD
  5
20F
100
AcDbSymbolTableRecord
100
AcDbBlockTableRecord
  2
*Paper_Space
  0
ENDTAB
  0
TABLE
  2
DIMSTYLE
  5
A
100
AcDbSymbolTable
 70
1
100
AcDbDimStyleTable
 71
0
  0
DIMSTYLE
105
210
100
AcDbSymbolTableRecord
100
AcDbDimStyleTableRecord
  2
STANDARD
 70
0
  3

  4

 40
1.0
 41
3.0
 42
0.0625
 43
0.38
 44
0.18
 45
0.0
 46
0.0
 47
0.01
 48
0.01
140
3.0
141
0.09
142
0.0
143
25.4
144
1.0
145
0.0
146
1.0
147
0.09
 71
1.0
 72
0.0
 73
0
 74
0
 75
0
 76
0
 77
1
 78
8
170
0
171
2
172
0
173
0
174
0
175
0
176
0
177
0
178
0
270
2
271
2
272
2
273
2
274
2
275
0
280
0
281
0
282
0
283
1
284
8
285
0
286
0
287
3
288
0
340
11
  0
ENDTAB
  0
ENDSEC
  0
SECTION
  2
BLOCKS
  0
BLOCK
  5
20
100
AcDbEntity
  8
0
100
AcDbBlockBegin
  2
*Model_Space
 70
0
 10
0.0
 20
0.0
 30
0.0
  3
*Model_Space
  1

  0
ENDBLK
  5
21
100
AcDbEntity
  8
0
100
AcDbBlockEnd
  0
BLOCK
  5
1C
100
AcDbEntity
  8
0
100
AcDbBlockBegin
  2
*Paper_Space
 70
0
 10
0.0
 20
0.0
 30
0.0
  3
*Paper_Space
  1

  0
ENDBLK
  5
1D
100
AcDbEntity
  8
0
100
AcDbBlockEnd
  0
ENDSEC
  0
SECTION
  2
ENTITIES
  0
LWPOLYLINE
  5
211
100
AcDbEntity
  8
RACCORDO
100
AcDbPolyline
 62
7
  6
CONTINUOUS
 90
34
 70
0
 10
-18.7510873618
 20
16.0586978524
 10
-18.758609512
 20
16.0546362185
 10
-18.7712477227
 20
16.0474130774
 10
-18.7834311669
 20
16.03994019
 10
-18.7951655969
 20
16.0322259015
 10
-18.8064552106
 20
16.0242794754
 10
-18.8172990025
 20
16.016113679
 10
-18.8276999217
 20
16.0077390102
 10
-18.8376622034
 20
15.999165012
 10
-18.8471835712
 20
15.9904069305
 10
-18.8562632198
 20
15.9814801612
 10
-18.8649079502
 20
15.972393449
 10
-18.8731239088
 20
15.9631554164
 10
-18.8809076936
 20
15.9537858836
 10
-18.8882678351
 20
15.9442918008
 10
-18.8952236254
 20
15.9346633225
 10
-18.901775008
 20
15.9249139557
 10
-18.9079234126
 20
15.9150559778
 10
-18.9136847276
 20
15.9050768512
 10
-18.9190590412
 20
15.8949872238
 10
-18.9240449157
 20
15.8848015475
 10
-18.9286511777
 20
15.8745123173
 10
-18.9328769266
 20
15.8641306525
 10
-18.9367207374
 20
15.853670683
 10
-18.9401873664
 20
15.8431291912
 10
-18.9432753066
 20
15.832519238
 10
-18.9459838412
 20
15.821853386
 10
-18.9483162925
 20
15.8111275632
 10
-18.9502713508
 20
15.8003553185
 10
-18.9518485643
 20
15.7895489819
 10
-18.9530497061
 20
15.7787025197
 10
-18.953873761
 20
15.7678225556
 10
-18.9543192629
 20
15.7569284872
 10
-18.9544059219
 20
15.7493432503
  0
LINE
  5
212
100
AcDbEntity
  8
RACCORDO
100
AcDbLine
 62
7
  6
CONTINUOUS
 10
-18.7510810568
 20
16.0587012225
 11
-15.8270422774
 21
17.6044745005
  0
LINE
  5
213
100
AcDbEntity
  8
RACCORDO
100
AcDbLine
 62
253
  6
CONTINUOUS
 10
-18.6357844714
 20
16.0534108263
 11
-15.7133365842
 21
17.5983430899
  0
LINE
  5
214
100
AcDbEntity
  8
DRAFT
100
AcDbLine
 62
7
  6
CONTINUOUS
 10
-14.0269745766
 20
15.7537223501
 11
-14.4092559158
 21
15.5169738149
  0
LINE
  5
215
100
AcDbEntity
  8
DRAFT
100
AcDbLine
 62
7
  6
CONTINUOUS
 10
-14.0269745766
 20
16.7551620861
 11
-15.3174604845
 21
15.9710760993
  0
LWPOLYLINE
  5
216
100
AcDbEntity
  8
RACCORDO
100
AcDbPolyline
 62
7
  6
CONTINUOUS
 90
10
 70
0
 10
-18.9544060184
 20
15.7493494567
 10
-18.9531494601
 20
14.8795971098
 10
-18.9504621572
 20
14.0036023635
 10
-18.946348522
 20
13.1283529484
 10
-18.9408085641
 20
12.2538528459
 10
-18.9338423025
 20
11.3801053925
 10
-18.9254497563
 20
10.507113738
 10
-18.9156309504
 20
9.6348813103
 10
-18.9043859296
 20
8.7634121815
 10
-18.8918111738
 20
7.8989834344
  0
LWPOLYLINE
  5
217
100
AcDbEntity
  8
RACCORDO
100
AcDbPolyline
 62
7
  6
CONTINUOUS
 90
22
 70
0
 10
-18.8918111734
 20
7.8989834327
 10
-18.8833762749
 20
7.4268094628
 10
-18.8724568761
 20
6.9501712714
 10
-18.8591416315
 20
6.4748500956
 10
-18.8434308954
 20
6.0008662536
 10
-18.8253251588
 20
5.5282372873
 10
-18.8048249151
 20
5.0569796122
 10
-18.7819307265
 20
4.5871105781
 10
-18.7566433507
 20
4.118648148
 10
-18.7289635452
 20
3.6516096635
 10
-18.6988921131
 20
3.1860126645
 10
-18.6664300797
 20
2.7218751833
 10
-18.6315785279
 20
2.2592152932
 10
-18.594338589
 20
1.7980509652
 10
-18.5547115315
 20
1.338399445
 10
-18.5126986347
 20
0.8802777129
 10
-18.4683012646
 20
0.4237033479
 10
-18.4215208831
 20
-0.0313068682
 10
-18.3723588836
 20
-0.4847371425
 10
-18.3208168165
 20
-0.936570613
 10
-18.2668967343
 20
-1.3867879913
 10
-18.2113550232
 20
-1.8294928964
  0
LWPOLYLINE
  5
218
100
AcDbEntity
  8
RACCORDO
100
AcDbPolyline
 62
7
  6
CONTINUOUS
 90
36
 70
0
 10
-18.2113543161
 20
-1.8294981615
 10
-18.2089158369
 20
-1.8471674897
 10
-18.2050447544
 20
-1.8711725459
 10
-18.2005914689
 20
-1.8947830074
 10
-18.1955691252
 20
-1.917987493
 10
-18.189989183
 20
-1.9407854698
 10
-18.1838604261
 20
-1.9631833269
 10
-18.1771942375
 20
-1.9851747636
 10
-18.170002596
 20
-2.0067531685
 10
-18.1622941069
 20
-2.0279210215
 10
-18.1540807768
 20
-2.048669848
 10
-18.1453745199
 20
-2.0689932023
 10
-18.1361833401
 20
-2.0888935626
 10
-18.126520445
 20
-2.1083610484
 10
-18.1163977378
 20
-2.1273895745
 10
-18.1058209297
 20
-2.1459846458
 10
-18.0948029324
 20
-2.1641377722
 10
-18.0833569687
 20
-2.1818407287
 10
-18.0714887526
 20
-2.1990970026
 10
-18.0592130892
 20
-2.2158966703
 10
-18.04654296
 20
-2.2322332621
 10
-18.0334807308
 20
-2.2481132768
 10
-18.0200413718
 20
-2.2635269888
 10
-18.0062383514
 20
-2.2784678005
 10
-17.9920704034
 20
-2.2929443053
 10
-17.9775515779
 20
-2.3069479193
 10
-17.9626962413
 20
-2.3204706637
 10
-17.9475021681
 20
-2.3335195745
 10
-17.9319841788
 20
-2.3460858752
 10
-17.9161563143
 20
-2.35816223
 10
-17.9000136461
 20
-2.3697551649
 10
-17.8835704973
 20
-2.3808562214
 10
-17.8668414875
 20
-2.3914577888
 10
-17.8498205732
 20
-2.4015648486
 10
-17.8325149588
 20
-2.4111727893
 10
-17.8151725406
 20
-2.4201564176
  0
LINE
  5
219
100
AcDbEntity
  8
DRAFT
100
AcDbLine
 62
7
  6
CONTINUOUS
 10
-14.0269745766
 20
16.7551620861
 11
-14.0269745766
 21
15.7537223501
  0
LWPOLYLINE
  5
21A
100
AcDbEntity
  8
RACCORDO
100
AcDbPolyline
 62
7
  6
CONTINUOUS
 90
30
 70
0
 10
12.9554450675
 20
-17.8054652215
 10
12.9750363379
 20
-17.8148814458
 10
12.9945024696
 20
-17.8235058863
 10
13.0142185569
 20
-17.831528236
 10
13.0341749572
 20
-17.8389454844
 10
13.0543810316
 20
-17.845760545
 10
13.0748185548
 20
-17.8519657765
 10
13.0954691641
 20
-17.8575543193
 10
13.1163436916
 20
-17.8625265801
 10
13.1374247138
 20
-17.8668748221
 10
13.1586934179
 20
-17.8705921405
 10
13.180160178
 20
-17.8736762299
 10
13.201807745
 20
-17.8761192931
 10
13.2236173928
 20
-17.8779142294
 10
13.2455987283
 20
-17.879056172
 10
13.2677356378
 20
-17.8795374702
 10
13.2900084434
 20
-17.8793509836
 10
13.3124229176
 20
-17.8784893038
 10
13.3349637639
 20
-17.8769449649
 10
13.3576108903
 20
-17.8747113535
 10
13.3803645499
 20
-17.871779789
 10
13.4032082955
 20
-17.8681433412
 10
13.4261239734
 20
-17.8637960854
 10
13.4491112101
 20
-17.8587284164
 10
13.4721545685
 20
-17.8529333019
 10
13.4952366912
 20
-17.8464049713
 10
13.5183566531
 20
-17.8391326525
 10
13.5415041372
 20
-17.8311074273
 10
13.5646568185
 20
-17.8223252653
 10
13.5812798094
 20
-17.8155473816
  0
LINE
  5
21B
100
AcDbEntity
  8
RACCORDO
100
AcDbLine
 62
7
  6
CONTINUOUS
 10
12.955476123
 20
-17.8054807879
 11
-17.8151921772
 21
-2.4201466378
  0
LINE
  5
21C
100
AcDbEntity
  8
RACCORDO
100
AcDbLine
 62
7
  6
CONTINUOUS
 10
12.9554473044
 20
-17.8054663773
 11
12.9554744944
 21
-17.8054799736
  0
LINE
  5
21D
100
AcDbEntity
  8
RACCORDO
100
AcDbLine
 62
253
  6
CONTINUOUS
 10
12.7012010004
 20
-17.3880340034
 11
-18.0650641655
 21
-2.0049014204
  0
LINE
  5
21E
100
AcDbEntity
  8
DRAFT
100
AcDbLine
 62
7
  6
CONTINUOUS
 10
17.7372431368
 20
-3.5690654764
 11
18.5857712743
 21
-3.5736000899
  0
LINE
  5
21F
100
AcDbEntity
  8
RACCORDO
100
AcDbLine
 62
253
  6
CONTINUOUS
 10
11.9968709051
 20
-7.6494193661
 11
-18.7453597981
 21
7.7216959855
  0
LINE
  5
220
100
AcDbEntity
  8
DRAFT
100
AcDbLine
 62
7
  6
CONTINUOUS
 10
13.7976451987
 20
2.8428521985
 11
12.2597039818
 21
2.1824938662
  0
LINE
  5
221
100
AcDbEntity
  8
RACCORDO
100
AcDbLine
 62
253
  6
CONTINUOUS
 10
15.4840072062
 20
1.9996711947
 11
12.4577238286
 21
0.5066566763
  0
LINE
  5
222
100
AcDbEntity
  8
RACCORDO
100
AcDbLine
 62
253
  6
CONTINUOUS
 10
15.6607839025
 20
1.6948012264
 11
12.6329331876
 21
0.2010134634
  0
LINE
  5
223
100
AcDbEntity
  8
0
100
AcDbLine
 62
7
  6
CONTINUOUS
 10
18.5857712743
 20
-3.5736000899
 11
18.7342898487
 21
-3.6478593771
  0
LINE
  5
224
100
AcDbEntity
  8
DRAFT
100
AcDbLine
 62
7
  6
CONTINUOUS
 10
16.5023446689
 20
-0.374463884
 11
15.6607839025
 21
-0.7631245343
  0
LINE
  5
225
100
AcDbEntity
  8
RACCORDO
100
AcDbLine
 62
253
  6
CONTINUOUS
 10
11.9320476935
 20
0.2020436019
 11
-18.8079570581
 21
15.5720459776
  0
LINE
  5
226
100
AcDbEntity
  8
RACCORDO
100
AcDbLine
 62
253
  6
CONTINUOUS
 10
12.1072837068
 20
0.5063299327
 11
-18.6327250886
 21
15.8763343303
  0
LINE
  5
227
100
AcDbEntity
  8
DRAFT
100
AcDbLine
 62
7
  6
CONTINUOUS
 10
17.3155174673
 20
-0.7810502832
 11
15.6607839025
 21
-1.5452610794
  0
LINE
  5
228
100
AcDbEntity
  8
DRAFT
100
AcDbLine
 62
7
  6
CONTINUOUS
 10
17.3155174673
 20
-0.7810502832
 11
16.5023446689
 21
-0.374463884
  0
LINE
  5
229
100
AcDbEntity
  8
DRAFT
100
AcDbLine
 62
7
  6
CONTINUOUS
 10
12.2597039818
 20
2.1824938662
 11
-15.3174604845
 21
15.9710760993
  0
LINE
  5
22A
100
AcDbEntity
  8
RACCORDO
100
AcDbLine
 62
7
  6
CONTINUOUS
 10
15.4840072062
 20
1.9996711947
 11
13.7976451987
 21
2.8428521985
  0
LINE
  5
22B
100
AcDbEntity
  8
RACCORDO
100
AcDbLine
 62
7
  6
CONTINUOUS
 10
-14.0269745766
 20
16.7551620861
 11
-15.7133365842
 21
17.5983430899
  0
LINE
  5
22C
100
AcDbEntity
  8
DRAFT
100
AcDbLine
 62
7
  6
CONTINUOUS
 10
17.3155174673
 20
-3.7754208285
 11
17.7372431368
 21
-3.5690654764
  0
LINE
  5
22D
100
AcDbEntity
  8
DRAFT
100
AcDbLine
 62
7
  6
CONTINUOUS
 10
17.4569388235
 20
-4.1259511435
 11
17.3155174673
 21
-4.1951502837
  0
LINE
  5
22E
100
AcDbEntity
  8
0
100
AcDbLine
 62
7
  6
CONTINUOUS
 10
18.7833172748
 20
-4.1108715005
 11
17.3155174673
 21
-4.9996317395
  0
LINE
  5
22F
100
AcDbEntity
  8
DRAFT
100
AcDbLine
 62
7
  6
CONTINUOUS
 10
17.4569388235
 20
-4.1259511435
 11
17.3155174673
 21
-3.8641200992
  0
LINE
  5
230
100
AcDbEntity
  8
RACCORDO
100
AcDbLine
 62
7
  6
CONTINUOUS
 10
15.6607839025
 20
1.6948012264
 11
15.6607839025
 21
-1.5452610794
  0
LINE
  5
231
100
AcDbEntity
  8
DRAFT
100
AcDbLine
 62
7
  6
CONTINUOUS
 10
17.3155174673
 20
-0.7810502832
 11
17.3155174673
 21
-8.6172884435
  0
LINE
  5
232
100
AcDbEntity
  8
RACCORDO
100
AcDbLine
 62
7
  6
CONTINUOUS
 10
17.3155174673
 20
-8.6172884435
 11
17.3155174673
 21
-16.0314324501
  0
LINE
  5
233
100
AcDbEntity
  8
0
100
AcDbLine
 62
7
  6
CONTINUOUS
 10
18.7833172748
 20
-7.6934668737
 11
17.3155174673
 21
-8.6172884435
  0
LINE
  5
234
100
AcDbEntity
  8
0
100
AcDbLine
 62
253
  6
CONTINUOUS
 10
18.7833172748
 20
-7.6934668737
 11
18.7833172748
 21
-4.1108715005
  0
LINE
  5
235
100
AcDbEntity
  8
0
100
AcDbLine
 62
7
  6
CONTINUOUS
 10
18.9393151018
 20
-7.4700181718
 11
18.9393151018
 21
-3.8937959287
  0
LINE
  5
236
100
AcDbEntity
  8
RACCORDO
100
AcDbLine
 62
253
  6
CONTINUOUS
 10
13.7350938552
 20
-17.5343488506
 11
17.3155174673
 21
-16.0314324501
  0
LINE
  5
237
100
AcDbEntity
  8
RACCORDO
100
AcDbLine
 62
7
  6
CONTINUOUS
 10
13.5812866098
 20
-17.8155445489
 11
17.1742492751
 21
-16.3073647632
  0
ARC
  5
238
100
AcDbEntity
  8
RACCORDO
100
AcDbCircle
 62
253
  6
CONTINUOUS
 10
514.8944610623
 20
15.9016121788
 40
533.7025230786
100
AcDbArc
 50
180.0353806716
 51
180.8781915335
  0
ARC
  5
239
100
AcDbEntity
  8
RACCORDO
100
AcDbCircle
 62
253
  6
CONTINUOUS
 10
526.3522724832
 20
0.5225431229
 40
514.420311266
100
AcDbArc
 50
180.035697017
 51
180.910225827
  0
ARC
  5
23A
100
AcDbEntity
  8
RACCORDO
100
AcDbCircle
 62
253
  6
CONTINUOUS
 10
526.4779271615
 20
0.5188387854
 40
513.8450794557
100
AcDbArc
 50
180.0354387947
 51
180.9102591403
  0
ARC
  5
23B
100
AcDbEntity
  8
RACCORDO
100
AcDbCircle
 62
253
  6
CONTINUOUS
 10
-17.6508873532
 20
-2.0914893957
 40
0.3674390836
100
AcDbArc
 50
242.1082409838
 51
243.4385492613
  0
SPLINE
  5
23C
100
AcDbEntity
  8
RACCORDO
100
AcDbSpline
 62
253
  6
CONTINUOUS
 70
0
 71
3
 72
15
 73
11
 74
9
 42
0.0000001
 43
0.0000001
 44
0.0000000001
 12
0.0037095524
 22
-0.2416982313
 32
0.0
 13
0.2158647376
 23
-0.1080186726
 33
0.0
 40
0.0
 40
0.0
 40
0.0
 40
0.0
 40
0.1042369802
 40
0.2101565191
 40
0.3211465763
 40
0.4391036809
 40
0.5653742544
 40
0.7007759629
 40
0.8456627246
 40
1.0
 40
1.0
 40
1.0
 40
1.0
 10
-18.8918111713
 20
7.8989834327
 30
0.0
 10
-18.8916822805
 20
7.8905854681
 30
0.0
 10
-18.8897761377
 20
7.8736794722
 30
0.0
 10
-18.8821068224
 20
7.8488575611
 30
0.0
 10
-18.8697981234
 20
7.82475512
 30
0.0
 10
-18.8529924812
 20
7.8015149742
 30
0.0
 10
-18.831878728
 20
7.7793315727
 30
0.0
 10
-18.8066664725
 20
7.7583870182
 30
0.0
 10
-18.7775954991
 20
7.7388586609
 30
0.0
 10
-18.7564650907
 20
7.7272509527
 30
0.0
 10
-18.7453597656
 20
7.7216938501
 30
0.0
 11
-18.8918111713
 21
7.8989834327
 31
0.0
 11
-18.8890256554
 21
7.8739778523
 31
0.0
 11
-18.8815619438
 21
7.8495243864
 31
0.0
 11
-18.8694863501
 21
7.8256090749
 31
0.0
 11
-18.8529126015
 21
7.8024571507
 31
0.0
 11
-18.8319967884
 21
7.7802866568
 31
0.0
 11
-18.8069358943
 21
7.7593063934
 31
0.0
 11
-18.7779659411
 21
7.7397139511
 31
0.0
 11
-18.7453597656
 21
7.7216938501
 31
0.0
  0
SPLINE
  5
23D
100
AcDbEntity
  8
RACCORDO
100
AcDbSpline
 62
253
  6
CONTINUOUS
 70
0
 71
3
 72
24
 73
20
 74
18
 42
0.0000001
 43
0.0000001
 44
0.0000000001
 12
0.0618701035
 22
-0.4667001793
 32
0.0
 13
0.4340925456
 23
0.1822103973
 33
0.0
 40
0.0
 40
0.0
 40
0.0
 40
0.0
 40
0.068148603
 40
0.133716152
 40
0.1967447199
 40
0.257363773
 40
0.3157860894
 40
0.372308709
 40
0.4273110298
 40
0.4812453061
 40
0.5346194473
 40
0.587971657
 40
0.6418416525
 40
0.6967405906
 40
0.7531260277
 40
0.8113836947
 40
0.8718179851
 40
0.9346474638
 40
1.0
 40
1.0
 40
1.0
 40
1.0
 10
13.3981739589
 20
-17.32882983
 30
0.0
 10
13.3995794126
 20
-17.3394314851
 30
0.0
 10
13.4031142621
 20
-17.3601412755
 30
0.0
 10
13.4107939822
 20
-17.3900827379
 30
0.0
 10
13.4207051794
 20
-17.418118011
 30
0.0
 10
13.43278905
 20
-17.4440610414
 30
0.0
 10
13.4469740006
 20
-17.4677416787
 30
0.0
 10
13.4631746116
 20
-17.4890006888
 30
0.0
 10
13.481290391
 20
-17.5076913933
 30
0.0
 10
13.5012045712
 20
-17.5236813763
 30
0.0
 10
13.5227834906
 20
-17.5368555909
 30
0.0
 10
13.545877749
 20
-17.5471200738
 30
0.0
 10
13.5703252497
 20
-17.5544048825
 30
0.0
 10
13.5959554207
 20
-17.5586651411
 30
0.0
 10
13.6225929917
 20
-17.559879918
 30
0.0
 10
13.6500601914
 20
-17.5580501563
 30
0.0
 10
13.6781783803
 20
-17.5531959891
 30
0.0
 10
13.7067632219
 20
-17.5453575151
 30
0.0
 10
13.7256375056
 20
-17.5383181544
 30
0.0
 10
13.7350938552
 20
-17.5343488506
 30
0.0
 11
13.3981739589
 21
-17.32882983
 31
0.0
 11
13.4036200635
 21
-17.3604474431
 31
0.0
 11
13.4113392805
 21
-17.3903347974
 31
0.0
 11
13.4212808298
 21
-17.4182926352
 31
0.0
 11
13.4333801934
 21
-17.4441392602
 31
0.0
 11
13.4475589665
 21
-17.4677071703
 31
0.0
 11
13.46372519
 21
-17.4888434057
 31
0.0
 11
13.4817740093
 21
-17.5074108108
 31
0.0
 11
13.5015883426
 21
-17.523288888
 31
0.0
 11
13.5230397343
 21
-17.5363746418
 31
0.0
 11
13.5459889772
 21
-17.5465831004
 31
0.0
 11
13.5702872521
 21
-17.5538480223
 31
0.0
 11
13.5957768845
 21
-17.5581222279
 31
0.0
 11
13.6222924915
 21
-17.5593779653
 31
0.0
 11
13.649662001
 21
-17.557607086
 31
0.0
 11
13.6777080201
 21
-17.5528210361
 31
0.0
 11
13.7062482965
 21
-17.5450509545
 31
0.0
 11
13.7350938552
 21
-17.5343488506
 31
0.0
  0
SPLINE
  5
23E
100
AcDbEntity
  8
RACCORDO
100
AcDbSpline
 62
253
  6
CONTINUOUS
 70
0
 71
3
 72
14
 73
10
 74
8
 42
0.0000001
 43
0.0000001
 44
0.0000000001
 12
0.1545328884
 22
-9.7139327377
 32
0.0
 13
1.2766825688
 23
-9.6309112376
 33
0.0
 40
0.0
 40
0.0
 40
0.0
 40
0.0
 40
0.1463060199
 40
0.2914817481
 40
0.4355139999
 40
0.5783913502
 40
0.7201037164
 40
0.8606423757
 40
1.0
 40
1.0
 40
1.0
 40
1.0
 10
12.6976896931
 20
-7.6442844269
 30
0.0
 10
12.705226057
 20
-8.1180200389
 30
0.0
 10
12.7275977453
 20
-9.0617318789
 30
0.0
 10
12.7834259675
 20
-10.4710469841
 30
0.0
 10
12.8613770948
 20
-11.8681963022
 30
0.0
 10
12.9614243758
 20
-13.2526929015
 30
0.0
 10
13.0835338667
 20
-14.6240633328
 30
0.0
 10
13.2276630814
 20
-15.9818300783
 30
0.0
 10
13.338868809
 20
-16.8814495267
 30
0.0
 10
13.3981739589
 20
-17.32882983
 30
0.0
 11
12.6976896931
 21
-7.6442844269
 31
0.0
 11
12.7314619093
 21
-9.0652698171
 31
0.0
 11
12.7873778935
 21
-10.4745666736
 31
0.0
 11
12.865418341
 21
-11.8716854113
 31
0.0
 11
12.9655564083
 21
-13.2561452205
 31
0.0
 11
13.0877576585
 21
-14.6274697714
 31
0.0
 11
13.2319800553
 21
-15.9851871262
 31
0.0
 11
13.3981739589
 21
-17.32882983
 31
0.0
  0
SPLINE
  5
23F
100
AcDbEntity
  8
RACCORDO
100
AcDbSpline
 62
253
  6
CONTINUOUS
 70
0
 71
3
 72
21
 73
17
 74
15
 42
0.0000001
 43
0.0000001
 44
0.0000000001
 12
-0.002671039
 22
0.3672501656
 32
0.0
 13
-0.3261118675
 23
0.16891083
 33
0.0
 40
0.0
 40
0.0
 40
0.0
 40
0.0
 40
0.0673928357
 40
0.1375555492
 40
0.2100479441
 40
0.2843591508
 40
0.359926633
 40
0.4361537564
 40
0.5124264608
 40
0.5881294933
 40
0.6626626128
 40
0.73545717
 40
0.8059935115
 40
0.8738197364
 40
0.9385724264
 40
1.0
 40
1.0
 40
1.0
 40
1.0
 10
12.6329310693
 20
0.2010124183
 30
0.0
 10
12.6328710663
 20
0.2092624283
 30
0.0
 10
12.6319759319
 20
0.2261029476
 30
0.0
 10
12.628507752
 20
0.2516072343
 30
0.0
 10
12.6229286915
 20
0.2776009875
 30
0.0
 10
12.6153086
 20
0.3037587124
 30
0.0
 10
12.6057425
 20
0.3297558881
 30
0.0
 10
12.5943496373
 20
0.3552685208
 30
0.0
 10
12.5812720261
 20
0.37997872
 30
0.0
 10
12.566672635
 20
0.4035784892
 30
0.0
 10
12.5507332774
 20
0.4257737954
 30
0.0
 10
12.533652023
 20
0.4462883787
 30
0.0
 10
12.5156409217
 20
0.4648669926
 30
0.0
 10
12.4969212904
 20
0.4812793489
 30
0.0
 10
12.4777263777
 20
0.4953196234
 30
0.0
 10
12.4644012488
 20
0.5031980822
 30
0.0
 10
12.4577238286
 20
0.5066566763
 30
0.0
 11
12.6329310693
 21
0.2010124183
 31
0.0
 11
12.6316636479
 21
0.2257306309
 31
0.0
 11
12.6282286516
 21
0.2512686032
 31
0.0
 11
12.6226692692
 21
0.2773052425
 31
0.0
 11
12.6150553998
 21
0.3035131862
 31
0.0
 11
12.6054827735
 21
0.3295629181
 31
0.0
 11
12.5940717487
 21
0.3551269108
 31
0.0
 11
12.5809657979
 21
0.3798837448
 31
0.0
 11
12.5663297041
 21
0.4035221487
 31
0.0
 11
12.5503474893
 21
0.4257449135
 31
0.0
 11
12.5332201001
 21
0.4462726293
 31
0.0
 11
12.5151628819
 21
0.4648471981
 31
0.0
 11
12.4964028705
 21
0.4812350796
 31
0.0
 11
12.4771759384
 21
0.4952302266
 31
0.0
 11
12.4577238286
 21
0.5066566763
 31
0.0
  0
SPLINE
  5
240
100
AcDbEntity
  8
RACCORDO
100
AcDbSpline
 62
253
  6
CONTINUOUS
 70
0
 71
3
 72
20
 73
16
 74
14
 42
0.0000001
 43
0.0000001
 44
0.0000000001
 12
-0.0002381714
 22
0.3665499159
 32
0.0
 13
0.3264447576
 23
0.1667114809
 33
0.0
 40
0.0
 40
0.0
 40
0.0
 40
0.0
 40
0.0726405182
 40
0.1483504569
 40
0.2266011449
 40
0.3067738655
 40
0.3881861555
 40
0.4701162103
 40
0.5518261734
 40
0.6325849852
 40
0.7116914169
 40
0.7884979378
 40
0.8624361474
 40
0.9330446154
 40
1.0
 40
1.0
 40
1.0
 40
1.0
 10
11.9320497154
 20
0.2020425909
 30
0.0
 10
11.9320439484
 20
0.2109180495
 30
0.0
 10
11.9329407798
 20
0.2290535001
 30
0.0
 10
11.9367733482
 20
0.2565058924
 30
0.0
 10
11.9430674989
 20
0.2844443123
 30
0.0
 10
11.9517327737
 20
0.3124676012
 30
0.0
 10
11.9626451946
 20
0.3401772212
 30
0.0
 10
11.9756487629
 20
0.3671772137
 30
0.0
 10
11.9905576645
 20
0.3930818838
 30
0.0
 10
12.0071589781
 20
0.4175210875
 30
0.0
 10
12.0252161107
 20
0.4401459239
 30
0.0
 10
12.0444719611
 20
0.4606334796
 30
0.0
 10
12.0646552079
 20
0.478692409
 30
0.0
 10
12.0854775101
 20
0.4940629605
 30
0.0
 10
12.099997962
 20
0.5026091889
 30
0.0
 10
12.1072837068
 20
0.5063299327
 30
0.0
 11
11.9320497154
 21
0.2020425909
 31
0.0
 11
11.9333087828
 21
0.2286391873
 31
0.0
 11
11.9371015423
 21
0.2561302673
 31
0.0
 11
11.9433732431
 21
0.2841189822
 31
0.0
 11
11.95203335
 21
0.3122012996
 31
0.0
 11
11.9629568495
 21
0.3399718359
 31
0.0
 11
11.975986055
 21
0.3670297083
 31
0.0
 11
11.9909328827
 21
0.3929843215
 31
0.0
 11
12.0075815671
 21
0.4174610066
 31
0.0
 11
12.0256917752
 21
0.4401064294
 31
0.0
 11
12.0450020764
 21
0.4605936906
 31
0.0
 11
12.0652337159
 21
0.4786270455
 31
0.0
 11
12.086094639
 21
0.4939461729
 31
0.0
 11
12.1072837068
 21
0.5063299327
 31
0.0
  0
SPLINE
  5
241
100
AcDbEntity
  8
RACCORDO
100
AcDbSpline
 62
253
  6
CONTINUOUS
 70
0
 71
3
 72
20
 73
16
 74
14
 42
0.0000001
 43
0.0000001
 44
0.0000000001
 12
-0.0002381717
 22
0.366549916
 32
0.0
 13
0.3264447577
 23
0.1667114806
 33
0.0
 40
0.0
 40
0.0
 40
0.0
 40
0.0
 40
0.0726405237
 40
0.1483504683
 40
0.2266011618
 40
0.3067738872
 40
0.3881861808
 40
0.4701162379
 40
0.5518262016
 40
0.6325850123
 40
0.7116914412
 40
0.7884979577
 40
0.8624361617
 40
0.9330446228
 40
1.0
 40
1.0
 40
1.0
 40
1.0
 10
-18.80795908
 20
15.5720469886
 30
0.0
 10
-18.807964847
 20
15.5809224479
 30
0.0
 10
-18.8070680154
 20
15.5990578999
 30
0.0
 10
-18.8032354465
 20
15.6265102942
 30
0.0
 10
-18.7969412949
 20
15.6544487159
 30
0.0
 10
-18.7882760192
 20
15.6824720063
 30
0.0
 10
-18.7773635972
 20
15.7101816273
 30
0.0
 10
-18.7643600279
 20
15.7371816202
 30
0.0
 10
-18.7494511255
 20
15.7630862901
 30
0.0
 10
-18.7328498115
 20
15.787525493
 30
0.0
 10
-18.7147926789
 20
15.8101503282
 30
0.0
 10
-18.6955368291
 20
15.8306378823
 30
0.0
 10
-18.6753535835
 20
15.8486968098
 30
0.0
 10
-18.654531283
 20
15.8640673596
 30
0.0
 10
-18.6400108325
 20
15.872613587
 30
0.0
 10
-18.6327250886
 20
15.8763343303
 30
0.0
 11
-18.80795908
 21
15.5720469886
 31
0.0
 11
-18.8067000124
 21
15.598643587
 31
0.0
 11
-18.8029072524
 21
15.6261346691
 31
0.0
 11
-18.7966355507
 21
15.6541233859
 31
0.0
 11
-18.7879754428
 21
15.6822057048
 31
0.0
 11
-18.7770519422
 21
15.7099762421
 31
0.0
 11
-18.7640227357
 21
15.7370341149
 31
0.0
 11
-18.7490759072
 21
15.762988728
 31
0.0
 11
-18.7324272224
 21
15.7874654124
 31
0.0
 11
-18.7143170143
 21
15.8101108338
 31
0.0
 11
-18.6950067137
 21
15.8305980934
 31
0.0
 11
-18.6747750754
 21
15.8486314465
 31
0.0
 11
-18.6539141541
 21
15.8639505721
 31
0.0
 11
-18.6327250886
 21
15.8763343303
 31
0.0
  0
SPLINE
  5
242
100
AcDbEntity
  8
RACCORDO
100
AcDbSpline
 62
253
  6
CONTINUOUS
 70
0
 71
3
 72
16
 73
12
 74
10
 42
0.0000001
 43
0.0000001
 44
0.0000000001
 12
-0.2161669257
 22
0.1080859493
 32
0.0
 13
-0.0001868296
 23
0.2420211839
 33
0.0
 40
0.0
 40
0.0
 40
0.0
 40
0.0
 40
0.1452634873
 40
0.2820449752
 40
0.4102644173
 40
0.5301286324
 40
0.6422059332
 40
0.747478115
 40
0.8473722197
 40
0.9437474406
 40
1.0
 40
1.0
 40
1.0
 40
1.0
 10
-18.8079570577
 20
15.5720459771
 30
0.0
 10
-18.8184241116
 20
15.5772796244
 30
0.0
 10
-18.838396259
 20
15.5881699732
 30
0.0
 10
-18.8660529319
 20
15.6063404654
 30
0.0
 10
-18.8903129282
 20
15.6257297621
 30
0.0
 10
-18.9109734638
 20
15.6461901233
 30
0.0
 10
-18.9278572899
 20
15.667570437
 30
0.0
 10
-18.9408059075
 20
15.6897131487
 30
0.0
 10
-18.9496777322
 20
15.7124463143
 30
0.0
 10
-18.9537318672
 20
15.7324915747
 30
0.0
 10
-18.9544012571
 20
15.7448044692
 30
0.0
 10
-18.9544047603
 20
15.7493425729
 30
0.0
 11
-18.8079570577
 21
15.5720459771
 31
0.0
 11
-18.8387425038
 21
15.5889222572
 31
0.0
 11
-18.8663211134
 21
15.6071496145
 31
0.0
 11
-18.8904638341
 21
15.6265767684
 31
0.0
 11
-18.9109682068
 21
15.647040945
 31
0.0
 11
-18.9276632747
 21
15.6683714498
 31
0.0
 11
-18.9404099387
 21
15.6903906149
 31
0.0
 11
-18.9491016519
 21
15.7129144871
 31
0.0
 11
-18.9536659124
 21
15.7357551727
 31
0.0
 11
-18.9544047603
 21
15.7493425729
 31
0.0
  0
SPLINE
  5
243
100
AcDbEntity
  8
RACCORDO
100
AcDbSpline
 62
253
  6
CONTINUOUS
 70
0
 71
3
 72
24
 73
20
 74
18
 42
0.0000001
 43
0.0000001
 44
0.0000000001
 12
-0.648203843
 22
-0.316692902
 32
0.0
 13
-0.6452704274
 23
0.3226277915
 33
0.0
 40
0.0
 40
0.0
 40
0.0
 40
0.0
 40
0.0520093874
 40
0.106520166
 40
0.1632897961
 40
0.2220282412
 40
0.2824132147
 40
0.3440959567
 40
0.4067058148
 40
0.4698588228
 40
0.5331625183
 40
0.5962232394
 40
0.6586498887
 40
0.7200612668
 40
0.7800909422
 40
0.8383959179
 40
0.8946612853
 40
0.9486063841
 40
1.0
 40
1.0
 40
1.0
 40
1.0
 10
12.6329331876
 20
0.2010134532
 30
0.0
 10
12.621695626
 20
0.1955231186
 30
0.0
 10
12.5982622412
 20
0.1851187816
 30
0.0
 10
12.5613979986
 20
0.1715253838
 30
0.0
 10
12.5222463602
 20
0.1596667321
 30
0.0
 10
12.4811328488
 20
0.149641991
 30
0.0
 10
12.4383970792
 20
0.1415339024
 30
0.0
 10
12.3943932236
 20
0.1354099413
 30
0.0
 10
12.3494861316
 20
0.1313210572
 30
0.0
 10
12.3040487586
 20
0.1293013457
 30
0.0
 10
12.2584582579
 20
0.1293676211
 30
0.0
 10
12.2130931988
 20
0.1315193211
 30
0.0
 10
12.1683301059
 20
0.1357385132
 30
0.0
 10
12.12454068
 20
0.1419900062
 30
0.0
 10
12.0820878893
 20
0.1502217909
 30
0.0
 10
12.0413234468
 20
0.1603653966
 30
0.0
 10
12.0025838546
 20
0.1723371681
 30
0.0
 10
11.9661911435
 20
0.1860371014
 30
0.0
 10
11.943101954
 20
0.1965165984
 30
0.0
 10
11.9320476938
 20
0.2020436013
 30
0.0
 11
12.6329331876
 21
0.2010134532
 31
0.0
 11
12.5986660119
 21
0.1857294829
 31
0.0
 11
12.5617872999
 21
0.172073853
 31
0.0
 11
12.5226031053
 21
0.1601599505
 31
0.0
 11
12.4814418034
 21
0.1500877157
 31
0.0
 11
12.4386467204
 21
0.1419411125
 31
0.0
 11
12.3945743354
 21
0.1357880184
 31
0.0
 11
12.3495928554
 21
0.1316798608
 31
0.0
 11
12.3040775213
 21
0.1296509002
 31
0.0
 11
12.2584083255
 21
0.1297180538
 31
0.0
 11
12.2129658043
 21
0.1318807589
 31
0.0
 11
12.1681293411
 21
0.136120975
 31
0.0
 11
12.1242729564
 21
0.1424033342
 31
0.0
 11
12.0817630347
 21
0.1506753243
 31
0.0
 11
12.040953649
 21
0.1608680269
 31
0.0
 11
12.0021851958
 21
0.1728964599
 31
0.0
 11
11.9657824999
 21
0.1866597553
 31
0.0
 11
11.9320476938
 21
0.2020436013
 31
0.0
  0
SPLINE
  5
244
100
AcDbEntity
  8
RACCORDO
100
AcDbSpline
 62
253
  6
CONTINUOUS
 70
0
 71
3
 72
23
 73
19
 74
17
 42
0.0000001
 43
0.0000001
 44
0.0000000001
 12
-0.6443380764
 22
-0.3258587914
 32
0.0
 13
-0.6459239892
 23
0.3227037478
 33
0.0
 40
0.0
 40
0.0
 40
0.0
 40
0.0
 40
0.0556281291
 40
0.1140071817
 40
0.1748406011
 40
0.237779188
 40
0.3024321348
 40
0.3683767896
 40
0.4351675646
 40
0.5023442938
 40
0.5694402713
 40
0.6359901542
 40
0.7015378926
 40
0.7656448561
 40
0.8278983525
 40
0.8879207922
 40
0.9453798382
 40
1.0
 40
1.0
 40
1.0
 40
1.0
 10
12.6976896931
 20
-7.6442844269
 30
0.0
 10
12.6857419192
 20
-7.6503267318
 30
0.0
 10
12.6607645002
 20
-7.6617563772
 30
0.0
 10
12.6213631153
 20
-7.6766126817
 30
0.0
 10
12.5794265678
 20
-7.689485735
 30
0.0
 10
12.5353483359
 20
-7.7002542855
 30
0.0
 10
12.4895388074
 20
-7.7088181281
 30
0.0
 10
12.4424263839
 20
-7.7150968786
 30
0.0
 10
12.3944518284
 20
-7.719031623
 30
0.0
 10
12.3460643655
 20
-7.7205853843
 30
0.0
 10
12.2977171989
 20
-7.7197435805
 30
0.0
 10
12.2498631281
 20
-7.7165141579
 30
0.0
 10
12.2029501712
 20
-7.7109275125
 30
0.0
 10
12.1574170777
 20
-7.703036078
 30
0.0
 10
12.1136894715
 20
-7.6929139147
 30
0.0
 10
12.0721741057
 20
-7.680655042
 30
0.0
 10
12.0332603631
 20
-7.6663748211
 30
0.0
 10
12.0086310973
 20
-7.6552968792
 30
0.0
 10
11.9968709397
 20
-7.6494215022
 30
0.0
 11
12.6976896931
 21
-7.6442844269
 31
0.0
 11
12.6611970127
 21
-7.6610657569
 31
0.0
 11
12.6217768963
 21
-7.6759953689
 31
0.0
 11
12.5798005996
 21
-7.6889326566
 31
0.0
 11
12.5356634525
 21
-7.6997557778
 31
0.0
 11
12.4897811355
 21
-7.708362801
 31
0.0
 11
12.4425857649
 21
-7.7146726658
 31
0.0
 11
12.3945218234
 21
-7.7186259465
 31
0.0
 11
12.3460419738
 21
-7.7201854112
 31
0.0
 11
12.2976027959
 21
-7.7193363732
 31
0.0
 11
12.2496604863
 21
-7.7160868284
 31
0.0
 11
12.2026665623
 21
-7.7104673811
 31
0.0
 11
12.1570636095
 21
-7.7025309546
 31
0.0
 11
12.113281113
 21
-7.6923522936
 31
0.0
 11
12.0717314134
 21
-7.6800272602
 31
0.0
 11
12.0328058229
 21
-7.6656719306
 31
0.0
 11
11.9968709397
 21
-7.6494215022
 31
0.0
  0
SPLINE
  5
245
100
AcDbEntity
  8
RACCORDO
100
AcDbSpline
 62
253
  6
CONTINUOUS
 70
0
 71
3
 72
23
 73
19
 74
17
 42
0.0000001
 43
0.0000001
 44
0.0000000001
 12
-0.6058744579
 22
-0.4019505647
 32
0.0
 13
-0.6510370833
 23
0.3237264762
 33
0.0
 40
0.0
 40
0.0
 40
0.0
 40
0.0
 40
0.0581857518
 40
0.1186075236
 40
0.1809855753
 40
0.2449952886
 40
0.3102770192
 40
0.3764451518
 40
0.4430965996
 40
0.5098189523
 40
0.5761984433
 40
0.6418278914
 40
0.7063147687
 40
0.769289559
 40
0.8304145974
 40
0.8893936196
 40
0.9459822907
 40
1.0
 40
1.0
 40
1.0
 40
1.0
 10
13.3981739589
 20
-17.32882983
 30
0.0
 10
13.3864228719
 20
-17.3366257619
 30
0.0
 10
13.3618319918
 20
-17.3515736143
 30
0.0
 10
13.3227895606
 20
-17.371637773
 30
0.0
 10
13.2812020385
 20
-17.3896167732
 30
0.0
 10
13.2374604549
 20
-17.405341563
 30
0.0
 10
13.1919725263
 20
-17.418666139
 30
0.0
 10
13.145163803
 20
-17.4294658906
 30
0.0
 10
13.0974721762
 20
-17.4376398597
 30
0.0
 10
13.0493440416
 20
-17.4431115397
 30
0.0
 10
13.0012298822
 20
-17.4458297141
 30
0.0
 10
12.9535799266
 20
-17.4457689142
 30
0.0
 10
12.9068398223
 20
-17.4429296323
 30
0.0
 10
12.8614461612
 20
-17.4373381238
 30
0.0
 10
12.8178228096
 20
-17.4290462362
 30
0.0
 10
12.7763748507
 20
-17.4181296151
 30
0.0
 10
12.7374918042
 20
-17.4046900039
 30
0.0
 10
12.7129239323
 20
-17.3938659091
 30
0.0
 10
12.7012014217
 20
-17.3880369215
 30
0.0
 11
13.3981739589
 21
-17.32882983
 31
0.0
 11
13.3620560585
 21
-17.3508588713
 31
0.0
 11
13.3230064768
 21
-17.3709863075
 31
0.0
 11
13.2813930697
 21
-17.3890225334
 31
0.0
 11
13.2376078451
 21
-17.4047976438
 31
0.0
 11
13.1920632698
 21
-17.4181630334
 31
0.0
 11
13.1451883842
 21
-17.4289927972
 31
0.0
 11
13.0974247603
 21
-17.4371849164
 31
0.0
 11
13.0492223426
 21
-17.4426622193
 31
0.0
 11
13.0010352087
 21
-17.4453731084
 31
0.0
 11
12.9533172926
 21
-17.4452920467
 31
0.0
 11
12.9065181079
 21
-17.4424197976
 31
0.0
 11
12.8610785136
 21
-17.4367834185
 31
0.0
 11
12.8174265612
 21
-17.4284360054
 31
0.0
 11
12.775973462
 21
-17.4174561927
 31
0.0
 11
12.7371097137
 21
-17.4039474128
 31
0.0
 11
12.7012014217
 21
-17.3880369215
 31
0.0
  0
SPLINE
  5
246
100
AcDbEntity
  8
RACCORDO
100
AcDbSpline
 62
253
  6
CONTINUOUS
 70
0
 71
3
 72
17
 73
13
 74
11
 42
0.0000001
 43
0.0000001
 44
0.0000000001
 12
-0.0143932901
 22
-0.3376442498
 32
0.0
 13
-0.3119368616
 23
-0.1309286533
 33
0.0
 40
0.0
 40
0.0
 40
0.0
 40
0.0
 40
0.1258486274
 40
0.2466401294
 40
0.3621658582
 40
0.4724040736
 40
0.5775478727
 40
0.6780295861
 40
0.7745351835
 40
0.867999348
 40
0.9595712428
 40
1.0
 40
1.0
 40
1.0
 40
1.0
 10
13.7350938552
 20
-17.5343488506
 30
0.0
 10
13.7344900633
 20
-17.5485128724
 30
0.0
 10
13.7322356335
 20
-17.576241589
 30
0.0
 10
13.7254860673
 20
-17.6165293489
 30
0.0
 10
13.7154922205
 20
-17.6543315597
 30
0.0
 10
13.7023402128
 20
-17.6892860478
 30
0.0
 10
13.6861426476
 20
-17.7210588221
 30
0.0
 10
13.6670385978
 20
-17.7493393657
 30
0.0
 10
13.6451953838
 20
-17.7738419792
 30
0.0
 10
13.6208129053
 20
-17.7943073715
 30
0.0
 10
13.5990153169
 20
-17.8075422013
 30
0.0
 10
13.5854899913
 20
-17.8137792675
 30
0.0
 10
13.5812862514
 20
-17.8155436951
 30
0.0
 11
13.7350938552
 21
-17.5343488506
 31
0.0
 11
13.7315796205
 21
-17.5767340703
 31
0.0
 11
13.7247581064
 21
-17.6169816746
 31
0.0
 11
13.7146949315
 21
-17.654704507
 31
0.0
 11
13.7014868971
 21
-17.6895396983
 31
0.0
 11
13.6852610559
 21
-17.7211521562
 31
0.0
 11
13.6661734902
 21
-17.7492377891
 31
0.0
 11
13.6444078102
 21
-17.7735264313
 31
0.0
 11
13.6201733876
 21
-17.7937844415
 31
0.0
 11
13.5937033422
 21
-17.8098169507
 31
0.0
 11
13.5812862514
 21
-17.8155436951
 31
0.0
  0
SPLINE
  5
247
100
AcDbEntity
  8
RACCORDO
100
AcDbSpline
 62
253
  6
CONTINUOUS
 70
0
 71
3
 72
17
 73
13
 74
11
 42
0.0000001
 43
0.0000001
 44
0.0000000001
 12
0.0663314306
 22
-0.5044204739
 32
0.0
 13
0.45536306
 23
-0.2276991123
 33
0.0
 40
0.0
 40
0.0
 40
0.0
 40
0.0
 40
0.1260172479
 40
0.2471709634
 40
0.3635466704
 40
0.4753756859
 40
0.5830456458
 40
0.6871034491
 40
0.7882528072
 40
0.8873375184
 40
0.9853098772
 40
1.0
 40
1.0
 40
1.0
 40
1.0
 10
12.7012010024
 20
-17.3880340044
 30
0.0
 10
12.7039873039
 20
-17.4092225643
 30
0.0
 10
12.7109938249
 20
-17.4506010117
 30
0.0
 10
12.7262198696
 20
-17.5104176026
 30
0.0
 10
12.7458694429
 20
-17.5664003407
 30
0.0
 10
12.7698265731
 20
-17.6181810858
 30
0.0
 10
12.7979498917
 20
-17.6654205402
 30
0.0
 10
12.8300706533
 20
-17.707801298
 30
0.0
 10
12.865990444
 20
-17.745030806
 30
0.0
 10
12.9054784268
 20
-17.776844693
 30
0.0
 10
12.9362007837
 20
-17.7956324213
 30
0.0
 10
12.9532176247
 20
-17.8043512012
 30
0.0
 10
12.9554474044
 20
-17.8054661772
 30
0.0
 11
12.7012010024
 21
-17.3880340044
 31
0.0
 11
12.7120012992
 21
-17.4512306857
 31
0.0
 11
12.7273075357
 21
-17.5109385449
 31
0.0
 11
12.7470202948
 21
-17.566768237
 31
0.0
 11
12.7710115486
 21
-17.6183570049
 31
0.0
 11
12.799125856
 21
-17.665370512
 31
0.0
 11
12.8311808576
 21
-17.7075036564
 31
0.0
 11
12.8669686401
 21
-17.7444830457
 31
0.0
 11
12.9062570429
 21
-17.7760687123
 31
0.0
 11
12.9487913567
 21
-17.8020557895
 31
0.0
 11
12.9554474044
 21
-17.8054661772
 31
0.0
  0
SPLINE
  5
248
100
AcDbEntity
  8
RACCORDO
100
AcDbSpline
 62
253
  6
CONTINUOUS
 70
0
 71
3
 72
15
 73
11
 74
9
 42
0.0000001
 43
0.0000001
 44
0.0000000001
 12
0.0302725477
 22
-0.2360200435
 32
0.0
 13
0.2123531302
 23
-0.106760647
 33
0.0
 40
0.0
 40
0.0
 40
0.0
 40
0.0
 40
0.0447859153
 40
0.1654293873
 40
0.2889342526
 40
0.4171220476
 40
0.5514593699
 40
0.6930078732
 40
0.8424257787
 40
1.0
 40
1.0
 40
1.0
 40
1.0
 10
-18.2113533833
 20
-1.8294980418
 30
0.0
 10
-18.2109014554
 20
-1.8330214997
 30
0.0
 10
-18.2088306287
 20
-1.8459846872
 30
0.0
 10
-18.2026342136
 20
-1.868128439
 30
0.0
 10
-18.1901823514
 20
-1.8950032665
 30
0.0
 10
-18.173236411
 20
-1.920591582
 30
0.0
 10
-18.1519866409
 20
-1.944658444
 30
0.0
 10
-18.1266517796
 20
-1.9669935852
 30
0.0
 10
-18.0974823297
 20
-1.9874028512
 30
0.0
 10
-18.0762175815
 20
-1.9992967788
 30
0.0
 10
-18.0650637884
 20
-2.004904354
 30
0.0
 11
-18.2113533833
 21
-1.8294980418
 31
0.0
 11
-18.2096719576
 21
-1.8400195527
 31
0.0
 11
-18.2019803938
 21
-1.8676432334
 31
0.0
 11
-18.1897053231
 21
-1.8943081142
 31
0.0
 11
-18.1729623795
 21
-1.9197630059
 31
0.0
 11
-18.1519092854
 21
-1.9437681175
 31
0.0
 11
-18.1267443658
 21
-1.9660973154
 31
0.0
 11
-18.09770468
 21
-1.9865402533
 31
0.0
 11
-18.0650637884
 21
-2.004904354
 31
0.0
  0
SPLINE
  5
249
100
AcDbEntity
  8
RACCORDO
100
AcDbSpline
 62
253
  6
CONTINUOUS
 70
0
 71
3
 72
14
 73
10
 74
8
 42
0.0000001
 43
0.0000001
 44
0.0000000001
 12
0.1553805779
 22
-9.7681606544
 32
0.0
 13
1.283697342
 23
-9.6846903321
 33
0.0
 40
0.0
 40
0.0
 40
0.0
 40
0.0
 40
0.1463067028
 40
0.2914827192
 40
0.4355151255
 40
0.5783924897
 40
0.7201047226
 40
0.8606430945
 40
1.0
 40
1.0
 40
1.0
 40
1.0
 10
11.9968709051
 20
-7.6494193661
 30
0.0
 10
12.0044486451
 20
-8.1258018252
 30
0.0
 10
12.0269431702
 20
-9.0747851061
 30
0.0
 10
12.0830779514
 20
-10.4919715217
 30
0.0
 10
12.1614570734
 20
-11.8969222531
 30
0.0
 10
12.2620536679
 20
-13.2891485225
 30
0.0
 10
12.3848336019
 20
-14.6681742383
 30
0.0
 10
12.5297540804
 20
-16.0335183401
 30
0.0
 10
12.641570304
 20
-16.938157845
 30
0.0
 10
12.7012010004
 20
-17.3880340034
 30
0.0
 11
11.9968709051
 21
-7.6494193661
 31
0.0
 11
12.0308286022
 21
-9.0783441018
 31
0.0
 11
12.0870516069
 21
-10.4955113283
 31
0.0
 11
12.1655205517
 21
-11.9004313422
 31
0.0
 11
12.266208445
 21
-13.2926206496
 31
0.0
 11
12.3890806609
 21
-14.671600262
 31
0.0
 11
12.5340949327
 21
-16.0368956082
 31
0.0
 11
12.7012010004
 21
-17.3880340034
 31
0.0
  0
SPLINE
  5
24A
100
AcDbEntity
  8
RACCORDO
100
AcDbSpline
 62
253
  6
CONTINUOUS
 70
0
 71
3
 72
14
 73
10
 74
8
 42
0.0000001
 43
0.0000001
 44
0.0000000001
 12
-1.2415923045
 22
9.6760339239
 32
0.0
 13
-0.1499048075
 23
9.7542151143
 33
0.0
 40
0.0
 40
0.0
 40
0.0
 40
0.0
 40
0.1391965804
 40
0.2796320919
 40
0.4212965168
 40
0.5641787096
 40
0.7082661653
 40
0.8535450392
 40
1.0
 40
1.0
 40
1.0
 40
1.0
 10
-18.0650641655
 20
-2.0049014204
 30
0.0
 10
-18.1226726332
 20
-1.5559444757
 30
0.0
 10
-18.2306921226
 20
-0.6530271783
 30
0.0
 10
-18.3706613439
 20
0.709830907
 30
0.0
 10
-18.4892460538
 20
2.0867481432
 30
0.0
 10
-18.5864049405
 20
3.4772445623
 30
0.0
 10
-18.6621050046
 20
4.8808445215
 30
0.0
 10
-18.7163202832
 20
6.2970600514
 30
0.0
 10
-18.7380416972
 20
7.2455115883
 30
0.0
 10
-18.7453597981
 20
7.7216959855
 30
0.0
 11
-18.0650641655
 21
-2.0049014204
 31
0.0
 11
-18.2264679283
 21
-0.6566141777
 31
0.0
 11
-18.3665337536
 21
0.7062069453
 31
0.0
 11
-18.4852130952
 21
2.0830901205
 31
0.0
 11
-18.5824651289
 21
3.4735614981
 31
0.0
 11
-18.6582564105
 21
4.8771426804
 31
0.0
 11
-18.7125608692
 21
6.2933506339
 31
0.0
 11
-18.7453597981
 21
7.7216959855
 31
0.0
  0
SPLINE
  5
24B
100
AcDbEntity
  8
RACCORDO
100
AcDbSpline
 62
253
  6
CONTINUOUS
 70
0
 71
3
 72
24
 73
20
 74
18
 42
0.0000001
 43
0.0000001
 44
0.0000000001
 12
-0.2140098662
 22
0.1070078251
 32
0.0
 13
0.211531291
 23
0.1118275924
 33
0.0
 40
0.0
 40
0.0
 40
0.0
 40
0.0
 40
0.0733568551
 40
0.1424630084
 40
0.2072661745
 40
0.2678760064
 40
0.3245834388
 40
0.3778874247
 40
0.4285096978
 40
0.4773870742
 40
0.5256178519
 40
0.5743662436
 40
0.6247434205
 40
0.6777077923
 40
0.7340062229
 40
0.7941622158
 40
0.858488612
 40
0.9271136409
 40
1.0
 40
1.0
 40
1.0
 40
1.0
 10
-18.6327250886
 20
15.8763343303
 30
0.0
 10
-18.6379581188
 20
15.8789509162
 30
0.0
 10
-18.6479447545
 20
15.884398515
 30
0.0
 10
-18.661772877
 20
15.8934940728
 30
0.0
 10
-18.6739036433
 20
15.9032068667
 30
0.0
 10
-18.6842344353
 20
15.9134622927
 30
0.0
 10
-18.6926765495
 20
15.9241845191
 30
0.0
 10
-18.6991505794
 20
15.9352943255
 30
0.0
 10
-18.7035857641
 20
15.946705111
 30
0.0
 10
-18.7059233441
 20
15.9583166593
 30
0.0
 10
-18.7061269348
 20
15.9700127234
 30
0.0
 10
-18.704193614
 20
15.9816686884
 30
0.0
 10
-18.7001547788
 20
15.9931663227
 30
0.0
 10
-18.6940658282
 20
16.0044027895
 30
0.0
 10
-18.6859951991
 20
16.0152892876
 30
0.0
 10
-18.6760201806
 20
16.0257449081
 30
0.0
 10
-18.6642271896
 20
16.035692289
 30
0.0
 10
-18.650716438
 20
16.0450550784
 30
0.0
 10
-18.6409237199
 20
16.0506939243
 30
0.0
 10
-18.6357844714
 20
16.0534108263
 30
0.0
 11
-18.6327250886
 21
15.8763343303
 31
0.0
 11
-18.6481149383
 21
15.8847742752
 31
0.0
 11
-18.6619046835
 21
15.8938986257
 31
0.0
 11
-18.6739763707
 21
15.9036298471
 31
0.0
 11
-18.6842288936
 21
15.9138865477
 31
0.0
 11
-18.692576736
 21
15.9245831416
 31
0.0
 11
-18.6989503321
 21
15.9356305441
 31
0.0
 11
-18.70329639
 21
15.9469364612
 31
0.0
 11
-18.7055786397
 21
15.9584065794
 31
0.0
 11
-18.7057780249
 21
15.9699451121
 31
0.0
 11
-18.7038928844
 21
15.9814558725
 31
0.0
 11
-18.6999389497
 21
15.9928427579
 31
0.0
 11
-18.6939492095
 21
16.0040107767
 31
0.0
 11
-18.6859737408
 21
16.0148666221
 31
0.0
 11
-18.6760790053
 21
16.0253198762
 31
0.0
 11
-18.6643475258
 21
16.035283311
 31
0.0
 11
-18.6508775666
 21
16.0446735861
 31
0.0
 11
-18.6357844714
 21
16.0534108263
 31
0.0
  0
SPLINE
  5
24C
100
AcDbEntity
  8
RACCORDO
100
AcDbSpline
 62
253
  6
CONTINUOUS
 70
0
 71
3
 72
24
 73
20
 74
18
 42
0.0000001
 43
0.0000001
 44
0.0000000001
 12
-0.3235755602
 22
-0.1596314545
 32
0.0
 13
-0.3227193849
 23
0.1613553315
 33
0.0
 40
0.0
 40
0.0
 40
0.0
 40
0.0
 40
0.0520740118
 40
0.1066461247
 40
0.1634627239
 40
0.2222354063
 40
0.2826425531
 40
0.3443364476
 40
0.4069475156
 40
0.4700929777
 40
0.5333816479
 40
0.5964210285
 40
0.6588213817
 40
0.7202031203
 40
0.7802015435
 40
0.8384755782
 40
0.8947121544
 40
0.9486336023
 40
1.0
 40
1.0
 40
1.0
 40
1.0
 10
12.4577238286
 20
0.5066566763
 30
0.0
 10
12.4521072027
 20
0.5038857929
 30
0.0
 10
12.440393572
 20
0.4986313101
 30
0.0
 10
12.4219624057
 20
0.4917573325
 30
0.0
 10
12.402386287
 20
0.4857517172
 30
0.0
 10
12.3818291946
 20
0.4806652274
 30
0.0
 10
12.3604608716
 20
0.4765397813
 30
0.0
 10
12.3384584214
 20
0.4734097299
 30
0.0
 10
12.3160042676
 20
0.4713011087
 30
0.0
 10
12.2932848926
 20
0.4702315043
 30
0.0
 10
12.2704889049
 20
0.470209825
 30
0.0
 10
12.2478056373
 20
0.4712362454
 30
0.0
 10
12.2254233984
 20
0.4733022042
 30
0.0
 10
12.2035280558
 20
0.4763904583
 30
0.0
 10
12.1823010891
 20
0.4804753181
 30
0.0
 10
12.1619183628
 20
0.4855227807
 30
0.0
 10
12.1425480607
 20
0.491491296
 30
0.0
 10
12.1243523457
 20
0.4983304695
 30
0.0
 10
12.1128093509
 20
0.5035671853
 30
0.0
 10
12.1072837068
 20
0.5063299327
 30
0.0
 11
12.4577238286
 21
0.5066566763
 31
0.0
 11
12.4405937554
 21
0.4989379251
 31
0.0
 11
12.4221542594
 21
0.4920324184
 31
0.0
 11
12.4025621818
 21
0.4859992827
 31
0.0
 11
12.3819814017
 21
0.4808890509
 31
0.0
 11
12.3605836572
 21
0.4767443433
 31
0.0
 11
12.3385471692
 21
0.4735996985
 31
0.0
 11
12.316056048
 21
0.4714814063
 31
0.0
 11
12.2932979191
 21
0.4704071401
 31
0.0
 11
12.2704627888
 21
0.4703858652
 31
0.0
 11
12.2477410139
 21
0.4714177593
 31
0.0
 11
12.225322343
 21
0.4734942065
 31
0.0
 11
12.2033937923
 21
0.4765978774
 31
0.0
 11
12.1821385612
 21
0.4807028203
 31
0.0
 11
12.1617336703
 21
0.4857748266
 31
0.0
 11
12.142349386
 21
0.491771591
 31
0.0
 11
12.1241478392
 21
0.4986428865
 31
0.0
 11
12.1072837068
 21
0.5063299327
 31
0.0
  0
SPLINE
  5
24D
100
AcDbEntity
  8
RACCORDO
100
AcDbSpline
 62
253
  6
CONTINUOUS
 70
0
 71
3
 72
16
 73
12
 74
10
 42
0.0000001
 43
0.0000001
 44
0.0000000001
 12
-0.4386578678
 22
0.2321769022
 32
0.0
 13
-0.0636326995
 23
0.4918579694
 33
0.0
 40
0.0
 40
0.0
 40
0.0
 40
0.0
 40
0.0965296543
 40
0.1966755583
 40
0.2991207456
 40
0.404744627
 40
0.5142719337
 40
0.6282574945
 40
0.7470860554
 40
0.8709776299
 40
1.0
 40
1.0
 40
1.0
 40
1.0
 10
-17.822776347
 20
-2.4162441555
 30
0.0
 10
-17.8368908444
 20
-2.4087735035
 30
0.0
 10
-17.8646558482
 20
-2.391677557
 30
0.0
 10
-17.9031650532
 20
-2.3604368471
 30
0.0
 10
-17.9384615717
 20
-2.3235099006
 30
0.0
 10
-17.9700214906
 20
-2.2814024406
 30
0.0
 10
-17.9976515523
 20
-2.2344053758
 30
0.0
 10
-18.0211873424
 20
-2.1828340181
 30
0.0
 10
-18.040490797
 20
-2.1270255665
 30
0.0
 10
-18.0554484321
 20
-2.0673461667
 30
0.0
 10
-18.0623274869
 20
-2.0260549797
 30
0.0
 10
-18.0650641675
 20
-2.0049014194
 30
0.0
 11
-17.822776347
 21
-2.4162441555
 31
0.0
 11
-17.863556423
 21
-2.3911619793
 31
0.0
 11
-17.9021649762
 21
-2.3599162375
 31
0.0
 11
-17.9373334843
 21
-2.3232464854
 31
0.0
 11
-17.9688338048
 21
-2.2813906816
 31
0.0
 11
-17.9964616201
 21
-2.2346204205
 31
0.0
 11
-18.0200377309
 21
-2.1832392241
 31
0.0
 11
-18.0394093762
 21
-2.1275800889
 31
0.0
 11
-18.054450761
 21
-2.0680046556
 31
0.0
 11
-18.0650641675
 21
-2.0049014194
 31
0.0
  0
SPLINE
  5
24E
100
AcDbEntity
  8
RACCORDO
100
AcDbSpline
 62
253
  6
CONTINUOUS
 70
0
 71
3
 72
14
 73
10
 74
8
 42
0.0000001
 43
0.0000001
 44
0.0000000001
 12
0.1059532281
 22
0.0560315926
 32
0.0
 13
0.1077950127
 23
-0.0520285912
 33
0.0
 40
0.0
 40
0.0
 40
0.0
 40
0.0
 40
0.0328454073
 40
0.1784907282
 40
0.3276316557
 40
0.4827425107
 40
0.6457473587
 40
0.8179412253
 40
1.0
 40
1.0
 40
1.0
 40
1.0
 10
-18.7510808584
 20
16.0587008476
 30
0.0
 10
-18.7499208328
 20
16.0593143077
 30
0.0
 10
-18.7435485046
 20
16.0625182895
 30
0.0
 10
-18.7312184297
 20
16.0670694754
 30
0.0
 10
-18.7134594776
 20
16.070233937
 30
0.0
 10
-18.6947398734
 20
16.0704318586
 30
0.0
 10
-18.6753034641
 20
16.06768419
 30
0.0
 10
-18.6553942487
 20
16.0620469002
 30
0.0
 10
-18.6423261474
 20
16.0565682468
 30
0.0
 10
-18.6357844714
 20
16.0534108263
 30
0.0
 11
-18.7510808584
 21
16.0587008476
 31
0.0
 11
-18.7475639117
 21
16.0604689502
 31
0.0
 11
-18.7312176209
 21
16.0665274633
 31
0.0
 11
-18.7136520394
 21
16.0697086951
 31
0.0
 11
-18.6950880218
 21
16.0699726474
 31
0.0
 11
-18.6757589761
 21
16.0673160016
 31
0.0
 11
-18.6559079293
 21
16.0617721601
 31
0.0
 11
-18.6357844714
 21
16.0534108263
 31
0.0
  0
ELLIPSE
  5
24F
100
AcDbEntity
  8
RACCORDO
100
AcDbEllipse
 62
7
  6
CONTINUOUS
 10
-15.7133096572
 20
17.3818150313
 30
0.0
 11
-0.1118523001
 21
0.2236266191
 31
0.0
 40
0.6122950388
 41
-0.6847996396
 42
0.0137628532
  0
ELLIPSE
  5
250
100
AcDbEntity
  8
RACCORDO
100
AcDbEllipse
 62
7
  6
CONTINUOUS
 10
16.9619102206
 20
-15.8542327752
 30
0.0
 11
-0.2234618187
 21
0.4480306886
 31
0.0
 40
0.6116748051
 41
-3.1815273444
 42
-2.2548620396
  0
ELLIPSE
  5
251
100
AcDbEntity
  8
0
100
AcDbEllipse
 62
7
  6
CONTINUOUS
 10
18.2393151018
 20
-7.4737577324
 30
0.0
 11
0.6999953968
 21
0.0050237095
 31
0.0
 40
0.5053247124
 41
-0.6843049942
 42
-0.0036147725
  0
ELLIPSE
  5
252
100
AcDbEntity
  8
RACCORDO
100
AcDbEllipse
 62
7
  6
CONTINUOUS
 10
15.4839802792
 20
1.7831700631
 30
0.0
 11
-0.1118222789
 21
0.2235999171
 31
0.0
 40
0.6124778111
 41
-2.255529033
 42
-0.6848850053
  0
ELLIPSE
  5
253
100
AcDbEntity
  8
0
100
AcDbEllipse
 62
7
  6
CONTINUOUS
 10
18.2393151018
 20
-3.8900563681
 30
0.0
 11
0.6999957133
 21
-0.0049526276
 31
0.0
 40
0.4946372042
 41
-0.6771787527
 42
0.7888978189
  0
ENDSEC
  0
SECTION
  2
OBJECTS
  0
DICTIONARY
  5
C
100
AcDbDictionary
280
0
281
1
  3
ACAD_GROUP
350
D
  3
ACAD_MLINESTYLE
350
17
  3
ACAD_LAYOUT
350
1A
  3
ACAD_PLOTSETTINGS
350
19
  3
ACAD_PLOTSTYLENAME
350
E
  0
DICTIONARY
  5
D
102
{ACAD_REACTORS
330
C
102
}
100
AcDbDictionary
280
0
281
1
  0
ACDBDICTIONARYWDFLT
  5
E
102
{ACAD_REACTORS
330
C
102
}
100
AcDbDictionary
281
1
  3
Normal
350
F
100
AcDbDictionaryWithDefault
340
F
  0
DICTIONARY
  5
17
102
{ACAD_REACTORS
330
C
102
}
100
AcDbDictionary
280
0
281
1
  3
Standard
350
18
  0
DICTIONARY
  5
19
102
{ACAD_REACTORS
330
C
102
}
100
AcDbDictionary
281
1
  0
DICTIONARY
  5
1A
102
{ACAD_REACTORS
330
C
102
}
100
AcDbDictionary
281
1
  3
Model
350
254
  3
Layout1
350
255
  0
ACDBPLACEHOLDER
  5
F
102
{ACAD_REACTORS
330
E
102
}
  0
MLINESTYLE
  5
18
102
{ACAD_REACTORS
330
17
102
}
100
AcDbMlineStyle
  2
STANDARD
 70
0
  3

 62
256
 51
90.0
 52
90.0
 71
2
 49
0.5
 62
256
  6
BYLAYER
 49
-0.5
 62
256
  6
BYLAYER
  0
LAYOUT
  5
254
102
{ACAD_REACTORS
330
1A
102
}
100
AcDbPlotSettings
  1

  2
none_device
  4
ISO_A4_(297.00_x_210.00_MM)
  6

 40
0.0
 41
0.0
 42
0.0
 43
0.0
 44
297.0
 45
210.0
 46
0.0
 47
0.0
 48
0.0
 49
0.0
140
0.0
141
0.0
142
1.0
143
1.0
 70
1024
 72
1
 73
0
 74
0
  7

 75
0
147
1.0
148
0.0
149
0.0
100
AcDbLayout
  1
Model
 70
0
 71
0
 10
0.0
 20
0.0
 11
297.0
 21
210.0
 12
0.0
 22
0.0
 32
0.0
 14
0.0
 24
0.0
 34
0.0
 15
0.0
 25
0.0
 35
0.0
146
0.0
 13
0.0
 23
0.0
 33
0.0
 16
1.0
 26
0.0
 36
0.0
 17
0.0
 27
1.0
 37
0.0
 76
0
330
20E
345
0
346
0
  0
LAYOUT
  5
255
102
{ACAD_REACTORS
330
1A
102
}
100
AcDbPlotSettings
  1

  2
none_device
  4
ISO_A4_(297.00_x_210.00_MM)
  6

 40
0.0
 41
0.0
 42
0.0
 43
0.0
 44
297.0
 45
210.0
 46
0.0
 47
0.0
 48
0.0
 49
0.0
140
0.0
141
0.0
142
1.0
143
1.0
 70
0
 72
1
 73
0
 74
0
  7

 75
0
147
1.0
148
0.0
149
0.0
100
AcDbLayout
  1
Layout1
 70
0
 71
1
 10
0.0
 20
0.0
 11
297.0
 21
210.0
 12
0.0
 22
0.0
 32
0.0
 14
0.0
 24
0.0
 34
0.0
 15
0.0
 25
0.0
 35
0.0
146
0.0
 13
0.0
 23
0.0
 33
0.0
 16
1.0
 26
0.0
 36
0.0
 17
0.0
 27
1.0
 37
0.0
 76
0
330
20F
345
0
346
0
  0
ENDSEC
  0
EOF
