  0
SECTION
  2
HEADER
  9
$ACADVER
  1
AC1015
  9
$DWGCODEPAGE
  3
ANSI_1252
  9
$EXTMAX
 10
297.0
 20
210.0
 30
0.0
  9
$EXTMIN
 10
0.0
 20
0.0
 30
0.0
  9
$LIMMIN
 10
0.0
 20
0.0
  9
$LIMMAX
 10
297.0
 20
210.0
  9
$VIEWCTR
 10
148.5
 20
105.0
  9
$VIEWSIZE
 40
210.0
  9
$CLAYER
  8
0
  9
$LTSCALE
 40
16.335
  9
$CELTYPE
  6
BYLAYER
  9
$DIMSCALE
 40
1.0
  9
$DIMASZ
 40
3.0
  9
$DIMEXO
 40
0.5
  9
$DIMDLI
 40
11.286
  9
$DIMEXE
 40
1.5
  9
$DIMCEN
 40
2.673
  9
$DIMLFAC
 40
1.0
  9
$DIMBLK
  1
_FILLED
  9
$DIMTXT
 40
3.0
  9
$DIMTOL
 70
1
  9
$DIMLIM
 70
0
  9
$DIMTFAC
 40
1.0
  9
$DIMTP
 40
0.01
  9
$DIMTM
 40
0.01
  9
$DIMGAP
 40
0.625
  9
$DIMDSEP
 70
44
  9
$PDMODE
 70
3
  9
$PDSIZE
 40
3.0
  9
$HANDSEED
  5
43E
  9
$TILEMODE
 70
1
  9
$MEASUREMENT
 70
1
  9
$INSUNITS
 70
4
  0
ENDSEC
  0
SECTION
  2
CLASSES
  0
CLASS
  1
ACDBDICTIONARYWDFLT
  2
AcDbDictionaryWithDefault
  3
AutoCAD 2000
 90
0
280
0
281
0
  0
CLASS
  1
ACDBPLACEHOLDER
  2
AcDbPlaceHolder
  3
AutoCAD 2000
 90
0
280
0
281
0
  0
CLASS
  1
LAYOUT
  2
AcDbLayout
  3
AutoCAD 2000
 90
0
280
0
281
0
  0
ENDSEC
  0
SECTION
  2
TABLES
  0
TABLE
  2
VPORT
  5
8
100
AcDbSymbolTable
 70
2
  0
VPORT
  5
1F4
100
AcDbSymbolTableRecord
100
AcDbViewportTableRecord
  2
*ACTIVE
 70
0
 10
0.0
 20
0.0
 11
1.0
 21
1.0
 12
148.5
 22
105.0
 13
0.0
 23
0.0
 14
1.0
 24
1.0
 15
0.0
 25
0.0
 16
0.0
 26
0.0
 36
1.0
 17
0.0
 27
0.0
 37
0.0
 40
210.0
 41
1.4142857143
 42
50.0
 43
0.0
 44
0.0
 50
0.0
 51
0.0
 71
0
 72
100
 73
1
 74
1
 75
0
 76
0
 77
0
 78
0
  0
ENDTAB
  0
TABLE
  2
LTYPE
  5
5
100
AcDbSymbolTable
 70
6
  0
LTYPE
  5
14
100
AcDbSymbolTableRecord
100
AcDbLinetypeTableRecord
  2
BYBLOCK
 70
0
  3

 72
65
 73
0
 40
0.0
  0
LTYPE
  5
15
100
AcDbSymbolTableRecord
100
AcDbLinetypeTableRecord
  2
BYLAYER
 70
0
  3

 72
65
 73
0
 40
0.0
  0
LTYPE
  5
16
100
AcDbSymbolTableRecord
100
AcDbLinetypeTableRecord
  2
CONTINUOUS
 70
64
  3
Solid line
 72
65
 73
0
 40
0.0
  0
LTYPE
  5
1F5
100
AcDbSymbolTableRecord
100
AcDbLinetypeTableRecord
  2
CENTER
 70
64
  3
____ _ ____ _ ____ _ ____ _ ____ _ ____ _ ____
 72
65
 73
4
 40
0.6
 49
0.375
 74
0
 49
-0.075
 74
0
 49
0.075
 74
0
 49
-0.075
 74
0
  0
LTYPE
  5
1F6
100
AcDbSymbolTableRecord
100
AcDbLinetypeTableRecord
  2
HIDDEN
 70
64
  3
- - - - - - - - - - - - - - - - - - - -
 72
65
 73
2
 40
0.2
 49
0.1
 74
0
 49
-0.1
 74
0
  0
LTYPE
  5
1F7
100
AcDbSymbolTableRecord
100
AcDbLinetypeTableRecord
  2
PHANTOM
 70
64
  3
_____ _ _ _____ _ _ _____ _ _ _____
 72
65
 73
6
 40
0.8
 49
0.45
 74
0
 49
-0.05
 74
0
 49
0.1
 74
0
 49
-0.05
 74
0
 49
0.1
 74
0
 49
-0.05
 74
0
  0
LTYPE
  5
1F8
100
AcDbSymbolTableRecord
100
AcDbLinetypeTableRecord
  2
DOT
 70
64
  3
. . . . . . . . . . . . . . . . . . . .
 72
65
 73
2
 40
0.2
 49
0.1
 74
0
 49
-0.1
 74
0
  0
LTYPE
  5
1F9
100
AcDbSymbolTableRecord
100
AcDbLinetypeTableRecord
  2
DASHED
 70
64
  3
- - - - - - - - - - - - - - - - - - - -
 72
65
 73
2
 40
0.2
 49
0.1
 74
0
 49
-0.1
 74
0
  0
ENDTAB
  0
TABLE
  2
LAYER
  5
2
100
AcDbSymbolTable
 70
36
  0
LAYER
  5
10
100
AcDbSymbolTableRecord
100
AcDbLayerTableRecord
  2
0
 70
0
 62
7
  6
CONTINUOUS
370
-3
390
F
  0
LAYER
  5
1FA
100
AcDbSymbolTableRecord
100
AcDbLayerTableRecord
  2
DEFAULT_1
 70
0
 62
7
  6
CENTER
370
-3
390
F
  0
LAYER
  5
1FB
100
AcDbSymbolTableRecord
100
AcDbLayerTableRecord
  2
DEFAULT_2
 70
0
 62
7
  6
HIDDEN
370
-3
390
F
  0
LAYER
  5
1FC
100
AcDbSymbolTableRecord
100
AcDbLayerTableRecord
  2
DEFAULT_3
 70
0
 62
7
  6
PHANTOM
370
-3
390
F
  0
LAYER
  5
1FD
100
AcDbSymbolTableRecord
100
AcDbLayerTableRecord
  2
ASSI
 70
0
 62
7
  6
CONTINUOUS
370
-3
390
F
  0
LAYER
  5
1FE
100
AcDbSymbolTableRecord
100
AcDbLayerTableRecord
  2
COORDINATE
 70
0
 62
7
  6
CONTINUOUS
370
-3
390
F
  0
LAYER
  5
1FF
100
AcDbSymbolTableRecord
100
AcDbLayerTableRecord
  2
COPY_PUBLISH
 70
0
 62
7
  6
CONTINUOUS
370
-3
390
F
  0
LAYER
  5
200
100
AcDbSymbolTableRecord
100
AcDbLayerTableRecord
  2
COSMETICI
 70
0
 62
7
  6
CONTINUOUS
370
-3
390
F
  0
LAYER
  5
201
100
AcDbSymbolTableRecord
100
AcDbLayerTableRecord
  2
CURVE
 70
0
 62
7
  6
CONTINUOUS
370
-3
390
F
  0
LAYER
  5
202
100
AcDbSymbolTableRecord
100
AcDbLayerTableRecord
  2
DRAFT
 70
0
 62
7
  6
CONTINUOUS
370
-3
390
F
  0
LAYER
  5
203
100
AcDbSymbolTableRecord
100
AcDbLayerTableRecord
  2
IMPORT_IGES
 70
0
 62
7
  6
CONTINUOUS
370
-3
390
F
  0
LAYER
  5
204
100
AcDbSymbolTableRecord
100
AcDbLayerTableRecord
  2
INTF_1
 70
0
 62
7
  6
CONTINUOUS
370
-3
390
F
  0
LAYER
  5
205
100
AcDbSymbolTableRecord
100
AcDbLayerTableRecord
  2
INTF_2
 70
0
 62
7
  6
CONTINUOUS
370
-3
390
F
  0
LAYER
  5
206
100
AcDbSymbolTableRecord
100
AcDbLayerTableRecord
  2
NOTE
 70
0
 62
7
  6
CONTINUOUS
370
-3
390
F
  0
LAYER
  5
207
100
AcDbSymbolTableRecord
100
AcDbLayerTableRecord
  2
PIANI
 70
0
 62
7
  6
CONTINUOUS
370
-3
390
F
  0
LAYER
  5
208
100
AcDbSymbolTableRecord
100
AcDbLayerTableRecord
  2
PUNTI
 70
0
 62
7
  6
CONTINUOUS
370
-3
390
F
  0
LAYER
  5
209
100
AcDbSymbolTableRecord
100
AcDbLayerTableRecord
  2
RACCORDO
 70
0
 62
7
  6
CONTINUOUS
370
-3
390
F
  0
LAYER
  5
20A
100
AcDbSymbolTableRecord
100
AcDbLayerTableRecord
  2
SIMBOLI
 70
0
 62
7
  6
CONTINUOUS
370
-3
390
F
  0
LAYER
  5
20B
100
AcDbSymbolTableRecord
100
AcDbLayerTableRecord
  2
SMUSSO
 70
0
 62
7
  6
CONTINUOUS
370
-3
390
F
  0
LAYER
  5
20C
100
AcDbSymbolTableRecord
100
AcDbLayerTableRecord
  2
SUPERFICI
 70
0
 62
7
  6
CONTINUOUS
370
-3
390
F
  0
LAYER
  5
20D
100
AcDbSymbolTableRecord
100
AcDbLayerTableRecord
  2
TRASH
 70
0
 62
7
  6
CONTINUOUS
370
-3
390
F
  0
LAYER
  5
20E
100
AcDbSymbolTableRecord
100
AcDbLayerTableRecord
  2
XSEC_DATUMS
 70
0
 62
7
  6
CONTINUOUS
370
-3
390
F
  0
ENDTAB
  0
TABLE
  2
STYLE
  5
3
100
AcDbSymbolTable
 70
1
  0
STYLE
  5
11
100
AcDbSymbolTableRecord
100
AcDbTextStyleTableRecord
  2
STANDARD
 70
0
 40
0.0
 41
0.8
 50
0.0
 71
0
 42
0.2
  3
txt
  4

  0
STYLE
  5
20F
100
AcDbSymbolTableRecord
100
AcDbTextStyleTableRecord
  2
TEXTSTYLE_1
 70
0
 40
0.0
 41
0.8
 50
0.0
 71
0
 42
0.2
  3
gdt
  4

  0
ENDTAB
  0
TABLE
  2
VIEW
  5
6
100
AcDbSymbolTable
 70
0
  0
ENDTAB
  0
TABLE
  2
UCS
  5
7
100
AcDbSymbolTable
 70
0
  0
ENDTAB
  0
TABLE
  2
APPID
  5
9
100
AcDbSymbolTable
 70
1
  0
APPID
  5
210
100
AcDbSymbolTableRecord
100
AcDbRegAppTableRecord
  2
ACAD
 70
0
  0
ENDTAB
  0
TABLE
  2
BLOCK_RECORD
  5
1
100
AcDbSymbolTable
 70
0
  0
BLOCK_RECORD
  5
211
100
AcDbSymbolTableRecord
100
AcDbBlockTableRecord
  2
*Model_Space
  0
BLOCK_RECORD
  5
212
100
AcDbSymbolTableRecord
100
AcDbBlockTableRecord
  2
*Paper_Space
  0
ENDTAB
  0
TABLE
  2
DIMSTYLE
  5
A
100
AcDbSymbolTable
 70
1
100
AcDbDimStyleTable
 71
0
  0
DIMSTYLE
105
213
100
AcDbSymbolTableRecord
100
AcDbDimStyleTableRecord
  2
STANDARD
 70
0
  3

  4

 40
1.0
 41
3.0
 42
0.5
 43
0.38
 44
1.5
 45
0.0
 46
0.0
 47
0.01
 48
0.01
140
3.0
141
0.09
142
0.0
143
25.4
144
1.0
145
0.0
146
1.0
147
0.625
 71
1.0
 72
0.0
 73
0
 74
0
 75
0
 76
0
 77
1
 78
8
170
0
171
2
172
0
173
0
174
0
175
0
176
0
177
0
178
0
270
2
271
2
272
2
273
2
274
2
275
0
280
0
281
0
282
0
283
1
284
8
285
0
286
0
287
3
288
0
340
11
278
44
  0
ENDTAB
  0
ENDSEC
  0
SECTION
  2
BLOCKS
  0
BLOCK
  5
20
100
AcDbEntity
  8
0
100
AcDbBlockBegin
  2
*Model_Space
 70
0
 10
0.0
 20
0.0
 30
0.0
  3
*Model_Space
  1

  0
ENDBLK
  5
21
100
AcDbEntity
  8
0
100
AcDbBlockEnd
  0
BLOCK
  5
1C
100
AcDbEntity
  8
0
100
AcDbBlockBegin
  2
*Paper_Space
 70
0
 10
0.0
 20
0.0
 30
0.0
  3
*Paper_Space
  1

  0
ENDBLK
  5
1D
100
AcDbEntity
  8
0
100
AcDbBlockEnd
  0
ENDSEC
  0
SECTION
  2
ENTITIES
  0
LWPOLYLINE
  5
214
100
AcDbEntity
  8
RACCORDO
100
AcDbPolyline
 62
253
  6
CONTINUOUS
 90
16
 70
0
 10
139.71456034
 20
125.6304898078
 10
139.6966977659
 20
125.6200660451
 10
139.6789579415
 20
125.6074731486
 10
139.6615296215
 20
125.5928093995
 10
139.6445922978
 20
125.5761867675
 10
139.6283477231
 20
125.5577626201
 10
139.613012052
 20
125.5377494696
 10
139.5987477975
 20
125.5163287544
 10
139.5857364455
 20
125.4937398189
 10
139.5741844195
 20
125.4703328963
 10
139.5642305599
 20
125.4464190814
 10
139.5559483899
 20
125.4222093584
 10
139.549409234
 20
125.3979226712
 10
139.544682557
 20
125.3738069575
 10
139.5418250477
 20
125.3501375149
 10
139.5408688235
 20
125.3271706736
  0
LINE
  5
215
100
AcDbEntity
  8
RACCORDO
100
AcDbLine
 62
7
  6
CONTINUOUS
 10
139.5989395637
 20
125.635579239
 11
140.3326604665
 21
126.0314384988
  0
LINE
  5
216
100
AcDbEntity
  8
RACCORDO
100
AcDbLine
 62
253
  6
CONTINUOUS
 10
139.71456034
 20
125.6304898078
 11
140.4470940625
 21
126.0257085567
  0
LINE
  5
217
100
AcDbEntity
  8
RACCORDO
100
AcDbLine
 62
7
  6
CONTINUOUS
 10
140.3379202625
 20
126.0340708459
 11
140.3327133831
 21
126.0314670486
  0
LWPOLYLINE
  5
218
100
AcDbEntity
  8
RACCORDO
100
AcDbPolyline
 62
253
  6
CONTINUOUS
 90
8
 70
0
 10
139.598939569
 20
125.6355792419
 10
139.6094633939
 20
125.6404488294
 10
139.6250724295
 20
125.6450812631
 10
139.6416953126
 20
125.6471999823
 10
139.6591499978
 20
125.6467817855
 10
139.6772453257
 20
125.6438312516
 10
139.6957831146
 20
125.6383806945
 10
139.71456034
 20
125.6304898078
  0
LINE
  5
219
100
AcDbEntity
  8
RACCORDO
100
AcDbLine
 62
7
  6
CONTINUOUS
 10
140.3379925623
 20
126.0341043334
 11
140.8819152689
 21
126.2853058643
  0
LINE
  5
21A
100
AcDbEntity
  8
RACCORDO
100
AcDbLine
 62
253
  6
CONTINUOUS
 10
140.4470940625
 20
126.0257085567
 11
140.9898201252
 21
126.2763574378
  0
LWPOLYLINE
  5
21B
100
AcDbEntity
  8
RACCORDO
100
AcDbPolyline
 62
253
  6
CONTINUOUS
 90
8
 70
0
 10
140.8819345793
 20
126.2853147798
 10
140.8879419518
 20
126.2878366144
 10
140.9034587348
 20
126.292251771
 10
140.9198396261
 20
126.2940887575
 10
140.9368637046
 20
126.2933557781
 10
140.9543252333
 20
126.2901029465
 10
140.9720412585
 20
126.2844041215
 10
140.9898201252
 20
126.2763574378
  0
LWPOLYLINE
  5
21C
100
AcDbEntity
  8
RACCORDO
100
AcDbPolyline
 62
253
  6
CONTINUOUS
 90
7
 70
0
 10
140.9898201252
 20
126.2763574378
 10
141.0126099114
 20
126.2854534848
 10
141.034966743
 20
126.2907493309
 10
141.0565165291
 20
126.29215636
 10
141.0768986896
 20
126.2896510249
 10
141.095772166
 20
126.2832752433
 10
141.0985383453
 20
126.2819482702
  0
LWPOLYLINE
  5
21D
100
AcDbEntity
  8
RACCORDO
100
AcDbPolyline
 62
7
  6
CONTINUOUS
 90
3
 70
0
 10
140.916095344
 20
126.2981539962
 10
140.8863586491
 20
126.2873055333
 10
140.8817486844
 20
126.2852287307
  0
LWPOLYLINE
  5
21E
100
AcDbEntity
  8
RACCORDO
100
AcDbPolyline
 62
253
  6
CONTINUOUS
 90
16
 70
0
 10
139.3548630501
 20
124.1690897989
 10
139.3188800599
 20
124.1480755485
 10
139.2831892222
 20
124.1226927145
 10
139.248172892
 20
124.0931560507
 10
139.2141688999
 20
124.0596820272
 10
139.1816065059
 20
124.0226219719
 10
139.1509782202
 20
123.9825039874
 10
139.1226543013
 20
123.9398246988
 10
139.0968933381
 20
123.8949863265
 10
139.0739655292
 20
123.8484551417
 10
139.0541166977
 20
123.8007191667
 10
139.0375700059
 20
123.7523025365
 10
139.0245118019
 20
123.7037447307
 10
139.0150838815
 20
123.6555752862
 10
139.0093861279
 20
123.6083076607
 10
139.0074800169
 20
123.5624515304
  0
LWPOLYLINE
  5
21F
100
AcDbEntity
  8
RACCORDO
100
AcDbPolyline
 62
253
  6
CONTINUOUS
 90
16
 70
0
 10
141.3856433098
 20
124.794948323
 10
141.3677807383
 20
124.7845245619
 10
141.3500409154
 20
124.7719316669
 10
141.3326125956
 20
124.7572679186
 10
141.3156752704
 20
124.7406452856
 10
141.2994306932
 20
124.7222211357
 10
141.2840950204
 20
124.7022079828
 10
141.269830765
 20
124.680787266
 10
141.2568194127
 20
124.6581983293
 10
141.245267387
 20
124.6347914066
 10
141.2353135285
 20
124.6108775937
 10
141.2270313598
 20
124.586667874
 10
141.2204922043
 20
124.562381189
 10
141.2157655271
 20
124.5382654755
 10
141.2129080176
 20
124.514596032
 10
141.2119517932
 20
124.4916291887
  0
LINE
  5
220
100
AcDbEntity
  8
RACCORDO
100
AcDbLine
 62
7
  6
CONTINUOUS
 10
139.1236214973
 20
124.1792686612
 11
139.4676455188
 21
124.3648775133
  0
LINE
  5
221
100
AcDbEntity
  8
RACCORDO
100
AcDbLine
 62
253
  6
CONTINUOUS
 10
139.3548630501
 20
124.1690897989
 11
139.4676455188
 21
124.2299385282
  0
LINE
  5
222
100
AcDbEntity
  8
RACCORDO
100
AcDbLine
 62
253
  6
CONTINUOUS
 10
141.3856433098
 20
124.794948323
 11
142.1442041852
 21
125.1771534953
  0
LINE
  5
223
100
AcDbEntity
  8
RACCORDO
100
AcDbLine
 62
253
  6
CONTINUOUS
 10
141.5623930811
 20
124.4901000613
 11
142.3209539566
 21
124.8723052336
  0
LINE
  5
224
100
AcDbEntity
  8
RACCORDO
100
AcDbLine
 62
253
  6
CONTINUOUS
 10
142.1442041852
 20
125.1771534953
 11
142.6683086518
 21
125.4371131745
  0
LINE
  5
225
100
AcDbEntity
  8
RACCORDO
100
AcDbLine
 62
253
  6
CONTINUOUS
 10
142.3209539566
 20
124.8723052336
 11
142.8450584231
 21
125.1322649128
  0
LWPOLYLINE
  5
226
100
AcDbEntity
  8
RACCORDO
100
AcDbPolyline
 62
253
  6
CONTINUOUS
 90
8
 70
0
 10
139.1236214973
 20
124.1792686612
 10
139.1446689263
 20
124.1890077517
 10
139.1758870149
 20
124.1982726647
 10
139.2091328203
 20
124.2025101392
 10
139.2440422354
 20
124.2016737665
 10
139.2802329335
 20
124.1957727066
 10
139.3173085554
 20
124.1848715879
 10
139.3548630501
 20
124.1690897989
  0
LWPOLYLINE
  5
227
100
AcDbEntity
  8
RACCORDO
100
AcDbPolyline
 62
253
  6
CONTINUOUS
 90
16
 70
0
 10
141.5623930811
 20
124.4901000613
 10
141.5433119057
 20
124.4817780749
 10
141.5225322773
 20
124.4744280647
 10
141.5002461382
 20
124.4681428142
 10
141.4766511257
 20
124.4630029968
 10
141.4519951175
 20
124.4590864262
 10
141.426579539
 20
124.4564585444
 10
141.4006487013
 20
124.4551597087
 10
141.3745054228
 20
124.4552199959
 10
141.3485578195
 20
124.4566417716
 10
141.3231420579
 20
124.4593957928
 10
141.2984739136
 20
124.4634476949
 10
141.2747743599
 20
124.4687583159
 10
141.2522869429
 20
124.4752753473
 10
141.231269988
 20
124.4829263156
 10
141.2119517932
 20
124.4916291887
  0
LWPOLYLINE
  5
228
100
AcDbEntity
  8
RACCORDO
100
AcDbPolyline
 62
253
  6
CONTINUOUS
 90
7
 70
0
 10
142.6683086518
 20
125.4371131745
 10
142.6910984374
 20
125.4462092214
 10
142.7134552666
 20
125.4515050672
 10
142.7350050485
 20
125.4529120969
 10
142.755387202
 20
125.4504067648
 10
142.7742606712
 20
125.4440309898
 10
142.7770268719
 20
125.4427040069
  0
LWPOLYLINE
  5
229
100
AcDbEntity
  8
RACCORDO
100
AcDbPolyline
 62
253
  6
CONTINUOUS
 90
4
 70
0
 10
153.9832638858
 20
77.9615016738
 10
153.9807768281
 20
77.9611835538
 10
153.9619105815
 20
77.9553670383
 10
153.9437753016
 20
77.9462984481
  0
LWPOLYLINE
  5
22A
100
AcDbEntity
  8
RACCORDO
100
AcDbPolyline
 62
253
  6
CONTINUOUS
 90
28
 70
0
 10
139.4460368992
 20
123.9690550133
 10
139.4349132431
 20
123.9567511371
 10
139.4246552586
 20
123.9433280261
 10
139.4152905218
 20
123.9287783269
 10
139.4068308238
 20
123.913070316
 10
139.3993258051
 20
123.8962262267
 10
139.3928581104
 20
123.8783297693
 10
139.3874791423
 20
123.8594060962
 10
139.3831969924
 20
123.8394504405
 10
139.3800251306
 20
123.8185130854
 10
139.3780023673
 20
123.796622173
 10
139.3771518226
 20
123.773786104
 10
139.3774640328
 20
123.7500298039
 10
139.3789757441
 20
123.725386823
 10
139.381717579
 20
123.6998735113
 10
139.3856760136
 20
123.6734907872
 10
139.3908900584
 20
123.6462827266
 10
139.397397584
 20
123.6182698047
 10
139.4051943734
 20
123.58941955
 10
139.4143278048
 20
123.5597870159
 10
139.4248440784
 20
123.5294016575
 10
139.4367566261
 20
123.4981978906
 10
139.4501296397
 20
123.466247264
 10
139.4650191418
 20
123.4335948058
 10
139.4814574771
 20
123.4001485686
 10
139.4995181716
 20
123.3659372277
 10
139.519294734
 20
123.3311062231
 10
139.5408688235
 20
123.2957571271
  0
LWPOLYLINE
  5
22B
100
AcDbEntity
  8
RACCORDO
100
AcDbPolyline
 62
253
  6
CONTINUOUS
 90
3
 70
0
 10
139.4676455188
 20
123.9900454309
 10
139.4655672734
 20
123.9881844115
 10
139.4460368992
 20
123.9690550133
  0
LINE
  5
22C
100
AcDbEntity
  8
RACCORDO
100
AcDbLine
 62
7
  6
CONTINUOUS
 10
143.5633410068
 20
123.2826155525
 11
144.3008529439
 21
123.6658164141
  0
LINE
  5
22D
100
AcDbEntity
  8
RACCORDO
100
AcDbLine
 62
253
  6
CONTINUOUS
 10
142.3209539566
 20
123.4433039625
 11
141.5623740081
 21
123.0610891801
  0
LINE
  5
22E
100
AcDbEntity
  8
RACCORDO
100
AcDbLine
 62
253
  6
CONTINUOUS
 10
142.4623537737
 20
123.1994253531
 11
141.7037928982
 21
122.8172201808
  0
LINE
  5
22F
100
AcDbEntity
  8
RACCORDO
100
AcDbLine
 62
7
  6
CONTINUOUS
 10
143.015718143
 20
123.61473342
 11
149.9754853141
 21
127.0668292449
  0
LWPOLYLINE
  5
230
100
AcDbEntity
  8
RACCORDO
100
AcDbPolyline
 62
7
  6
CONTINUOUS
 90
13
 70
0
 10
149.9754853141
 20
127.0668292449
 10
150.010319111
 20
127.0839126853
 10
150.0432057744
 20
127.0995776557
 10
150.0741453042
 20
127.1138241562
 10
150.103266632
 20
127.1267290976
 10
150.1304408263
 20
127.1382155691
 10
150.1552810919
 20
127.1480528377
 10
150.1778339679
 20
127.1562596842
 10
150.1980529152
 20
127.1628173279
 10
150.2154115225
 20
127.1674386937
 10
150.2297343191
 20
127.1700280902
 10
150.2411967756
 20
127.1706812089
 10
150.2497988921
 20
127.1693980498
  0
LINE
  5
231
100
AcDbEntity
  8
ASSI
100
AcDbLine
 62
7
  6
CONTINUOUS
 10
144.3008529439
 20
123.6658164141
 11
149.6535472295
 21
126.2391397812
  0
LWPOLYLINE
  5
232
100
AcDbEntity
  8
RACCORDO
100
AcDbPolyline
 62
253
  6
CONTINUOUS
 90
19
 70
0
 10
141.5623740072
 20
123.0610888697
 10
141.5462113399
 20
123.0533408546
 10
141.5288747414
 20
123.0463304902
 10
141.5104935097
 20
123.0401056926
 10
141.4912035848
 20
123.0347043016
 10
141.4711498601
 20
123.0301668247
 10
141.4504855086
 20
123.0265356685
 10
141.4293689679
 20
123.0238346389
 10
141.4079537703
 20
123.0220782571
 10
141.3863906771
 20
123.0212856132
 10
141.364836348
 20
123.0214608915
 10
141.3434554197
 20
123.0225999688
 10
141.3224103609
 20
123.0246998632
 10
141.3018443455
 20
123.0277463769
 10
141.2819257191
 20
123.0317126538
 10
141.2628444462
 20
123.0365606583
 10
141.2447499257
 20
123.0422449281
 10
141.2277553796
 20
123.0487192726
 10
141.2119788422
 20
123.0559308092
  0
LWPOLYLINE
  5
233
100
AcDbEntity
  8
RACCORDO
100
AcDbPolyline
 62
253
  6
CONTINUOUS
 90
7
 70
0
 10
141.7037928982
 20
122.8172201808
 10
141.670418385
 20
122.8020229544
 10
141.635131556
 20
122.7887087001
 10
141.5979324111
 20
122.7772774177
 10
141.5588209504
 20
122.7677291074
 10
141.5177971737
 20
122.7600637691
 10
141.4748610812
 20
122.7542814028
  0
LWPOLYLINE
  5
234
100
AcDbEntity
  8
ASSI
100
AcDbPolyline
 62
7
  6
CONTINUOUS
 90
7
 70
0
 10
150.3169083824
 20
125.9424793884
 10
150.3106086671
 20
125.9401569541
 10
150.3043009818
 20
125.9376927427
 10
150.2979853266
 20
125.9350867541
 10
150.2916617014
 20
125.9323389883
 10
150.2853301062
 20
125.9294494454
 10
150.2789905412
 20
125.9264181253
  0
LWPOLYLINE
  5
235
100
AcDbEntity
  8
ASSI
100
AcDbPolyline
 62
7
  6
CONTINUOUS
 90
7
 70
0
 10
149.6945472579
 20
126.2559866443
 10
149.6877325553
 20
126.2535840551
 10
149.6809103985
 20
126.2510193774
 10
149.6740807875
 20
126.2482926111
 10
149.6672437223
 20
126.2454037563
 10
149.660399203
 20
126.242352813
 10
149.6535472295
 20
126.2391397812
  0
LINE
  5
236
100
AcDbEntity
  8
RACCORDO
100
AcDbLine
 62
253
  6
CONTINUOUS
 10
155.1487164158
 20
77.3408881822
 11
154.6246119492
 21
77.4467067017
  0
LINE
  5
237
100
AcDbEntity
  8
RACCORDO
100
AcDbLine
 62
253
  6
CONTINUOUS
 10
155.0572698134
 20
77.6594146524
 11
154.6246119492
 21
77.7467697839
  0
LINE
  5
238
100
AcDbEntity
  8
RACCORDO
100
AcDbLine
 62
253
  6
CONTINUOUS
 10
142.8450584231
 20
124.7923213179
 11
142.3209539566
 21
124.1437767358
  0
LWPOLYLINE
  5
239
100
AcDbEntity
  8
RACCORDO
100
AcDbPolyline
 62
7
  6
CONTINUOUS
 90
14
 70
0
 10
140.9241089906
 20
121.5848628842
 10
140.8576495166
 20
121.544593917
 10
140.774428404
 20
121.4840235919
 10
140.6961928477
 20
121.4147613101
 10
140.6237510239
 20
121.3372832129
 10
140.5576617268
 20
121.2519767637
 10
140.4983788061
 20
121.1592010573
 10
140.4463028649
 20
121.05942469
 10
140.4017443872
 20
120.9530485182
 10
140.3649668065
 20
120.8403839043
 10
140.3361732009
 20
120.7216611785
 10
140.3156028809
 20
120.5971148003
 10
140.3035288
 20
120.4670772481
 10
140.3001131239
 20
120.3490306389
  0
LWPOLYLINE
  5
23A
100
AcDbEntity
  8
RACCORDO
100
AcDbPolyline
 62
7
  6
CONTINUOUS
 90
16
 70
0
 10
144.2285996177
 20
122.9499862471
 10
144.209913813
 20
122.9391663885
 10
144.1918282311
 20
122.9264367895
 10
144.1743428722
 20
122.91179745
 10
144.1572825625
 20
122.8950498123
 10
144.1408224758
 20
122.8763924341
 10
144.1254881325
 20
122.8564209889
 10
144.1113158609
 20
122.8350930713
 10
144.0982693328
 20
122.8124510867
 10
144.0867650842
 20
122.7892179249
 10
144.0768528852
 20
122.7653745086
 10
144.0684829656
 20
122.740939915
 10
144.0619225518
 20
122.7166942668
 10
144.057260719
 20
122.6928976047
 10
144.0544083919
 20
122.6692898879
 10
144.0533655705
 20
122.6458711164
  0
LINE
  5
23B
100
AcDbEntity
  8
RACCORDO
100
AcDbLine
 62
253
  6
CONTINUOUS
 10
142.8159288347
 20
122.0837475185
 11
141.8546972815
 21
121.5469483926
  0
LINE
  5
23C
100
AcDbEntity
  8
RACCORDO
100
AcDbLine
 62
7
  6
CONTINUOUS
 10
141.8907701675
 20
122.1245948763
 11
140.9231200299
 21
121.5843210606
  0
LINE
  5
23D
100
AcDbEntity
  8
DRAFT
100
AcDbLine
 62
7
  6
CONTINUOUS
 10
144.6190509954
 20
121.7599650868
 11
144.0533655705
 21
121.4650291506
  0
LINE
  5
23E
100
AcDbEntity
  8
RACCORDO
100
AcDbLine
 62
7
  6
CONTINUOUS
 10
144.2285996177
 20
122.9499862471
 11
144.7942850426
 21
123.2388751109
  0
LINE
  5
23F
100
AcDbEntity
  8
RACCORDO
100
AcDbLine
 62
253
  6
CONTINUOUS
 10
147.2583588291
 20
122.8866125635
 11
146.5635946427
 21
122.5344455647
  0
LINE
  5
240
100
AcDbEntity
  8
RACCORDO
100
AcDbLine
 62
253
  6
CONTINUOUS
 10
146.3821627236
 20
122.4449362704
 11
146.5635946427
 21
122.5344455647
  0
LINE
  5
241
100
AcDbEntity
  8
ASSI
100
AcDbLine
 62
7
  6
CONTINUOUS
 10
145.6797111672
 20
123.6759363944
 11
150.2789905412
 21
125.9264181253
  0
LINE
  5
242
100
AcDbEntity
  8
RACCORDO
100
AcDbLine
 62
7
  6
CONTINUOUS
 10
147.1033451018
 20
122.9641194271
 11
150.3169083824
 21
124.5022015076
  0
LWPOLYLINE
  5
243
100
AcDbEntity
  8
RACCORDO
100
AcDbPolyline
 62
253
  6
CONTINUOUS
 90
28
 70
0
 10
153.8660510737
 20
77.8356732363
 10
153.856463537
 20
77.839695991
 10
153.8463533608
 20
77.844910954
 10
153.8357383594
 20
77.8513356299
 10
153.8246241771
 20
77.8589866607
 10
153.8130471315
 20
77.8678825326
 10
153.8010788983
 20
77.8780395165
 10
153.7887673823
 20
77.889473896
 10
153.776129405
 20
77.9021925696
 10
153.7631965348
 20
77.9161932356
 10
153.7500121931
 20
77.9314853707
 10
153.7366060176
 20
77.9480785152
 10
153.7229900646
 20
77.965971454
 10
153.7092092952
 20
77.9851706777
 10
153.6952992529
 20
78.0056872909
 10
153.681259211
 20
78.0275312155
 10
153.6671409144
 20
78.0507050175
 10
153.6529839822
 20
78.0752241486
 10
153.6387739424
 20
78.1011251432
 10
153.6245725718
 20
78.1284107924
 10
153.6104280866
 20
78.1570988727
 10
153.5963166593
 20
78.1872591623
 10
153.5823182255
 20
78.2188979334
 10
153.5684955394
 20
78.2520330005
 10
153.5548219115
 20
78.2867660162
 10
153.5413607439
 20
78.3231447937
 10
153.5282529639
 20
78.361151148
 10
153.5156097858
 20
78.4007923276
  0
LWPOLYLINE
  5
244
100
AcDbEntity
  8
RACCORDO
100
AcDbPolyline
 62
7
  6
CONTINUOUS
 90
8
 70
0
 10
144.1184105655
 20
81.3903163108
 10
144.1254881325
 20
81.3871247619
 10
144.1408224758
 20
81.38248766
 10
144.1572825625
 20
81.3802903686
 10
144.1743428722
 20
81.3806030405
 10
144.1918282311
 20
81.38344906
 10
144.209913813
 20
81.3888050428
 10
144.2285996177
 20
81.396670989
  0
LWPOLYLINE
  5
245
100
AcDbEntity
  8
RACCORDO
100
AcDbPolyline
 62
253
  6
CONTINUOUS
 90
25
 70
0
 10
148.8622616186
 20
79.4126849333
 10
148.931942217
 20
79.3806806364
 10
149.0008014066
 20
79.3545347122
 10
149.0688391874
 20
79.3342471608
 10
149.1363606501
 20
79.3197708582
 10
149.2030607041
 20
79.3111529283
 10
149.2680240771
 20
79.3085347428
 10
149.3312075394
 20
79.3120035721
 10
149.3926543207
 20
79.3214721457
 10
149.4515788382
 20
79.3368200243
 10
149.5079490102
 20
79.3581238149
 10
149.5617969184
 20
79.3853069104
 10
149.6124332253
 20
79.418019051
 10
149.6598154205
 20
79.4563305936
 10
149.7039860143
 20
79.5001711812
 10
149.744383201
 20
79.5489794828
 10
149.7809583633
 20
79.6028189223
 10
149.8137601183
 20
79.6616260759
 10
149.8423725118
 20
79.724649341
 10
149.8667426877
 20
79.7919724287
 10
149.8869235021
 20
79.8635116279
 10
149.9026575681
 20
79.9382642027
 10
149.9138590901
 20
80.0158959078
 10
149.9206138637
 20
80.0967409885
 10
149.9229218889
 20
80.1807994448
  0
LWPOLYLINE
  5
246
100
AcDbEntity
  8
RACCORDO
100
AcDbPolyline
 62
7
  6
CONTINUOUS
 90
9
 70
0
 10
153.5804976179
 20
76.2342031176
 10
153.5896898105
 20
76.2298343196
 10
153.618289128
 20
76.219000334
 10
153.6476399181
 20
76.2118042651
 10
153.6776392407
 20
76.2082024865
 10
153.7081014584
 20
76.2082615386
 10
153.7385797613
 20
76.2120721942
 10
153.7684588251
 20
76.219622822
 10
153.7972061587
 20
76.2308027368
  0
LWPOLYLINE
  5
247
100
AcDbEntity
  8
RACCORDO
100
AcDbPolyline
 62
7
  6
CONTINUOUS
 90
9
 70
0
 10
141.2768396253
 20
82.386032114
 10
141.2860318178
 20
82.3816633159
 10
141.3146311354
 20
82.3708293303
 10
141.3439819254
 20
82.3636332614
 10
141.373981248
 20
82.3600314829
 10
141.4044434658
 20
82.360090535
 10
141.4349217687
 20
82.3639011905
 10
141.4648008324
 20
82.3714518183
 10
141.493548166
 20
82.3826317331
  0
LWPOLYLINE
  5
248
100
AcDbEntity
  8
RACCORDO
100
AcDbPolyline
 62
7
  6
CONTINUOUS
 90
12
 70
0
 10
148.9923091349
 20
79.1422046112
 10
149.0409767218
 20
79.1188447387
 10
149.1542091712
 20
79.0718377553
 10
149.266800679
 20
79.0351448126
 10
149.3781964483
 20
79.008670263
 10
149.4880644978
 20
78.9921826074
 10
149.5961353602
 20
78.9854769286
 10
149.7019126756
 20
78.9883809148
 10
149.8048402889
 20
79.0006364064
 10
149.9043908356
 20
79.0219356965
 10
149.9999844652
 20
79.051912522
 10
150.0692361239
 20
79.0800287588
  0
LINE
  5
249
100
AcDbEntity
  8
RACCORDO
100
AcDbLine
 62
7
  6
CONTINUOUS
 10
153.5805830823
 20
76.234160331
 11
151.9095001125
 21
77.0697018159
  0
LINE
  5
24A
100
AcDbEntity
  8
RACCORDO
100
AcDbLine
 62
7
  6
CONTINUOUS
 10
141.2769250896
 20
82.3859893273
 11
139.6058421199
 21
83.2215308122
  0
LINE
  5
24B
100
AcDbEntity
  8
RACCORDO
100
AcDbLine
 62
253
  6
CONTINUOUS
 10
153.5156097858
 20
76.3693787811
 11
151.8445268161
 21
77.204920266
  0
LINE
  5
24C
100
AcDbEntity
  8
RACCORDO
100
AcDbLine
 62
253
  6
CONTINUOUS
 10
141.2119517932
 20
82.5212077774
 11
139.5408688235
 21
83.3567492623
  0
LINE
  5
24D
100
AcDbEntity
  8
RACCORDO
100
AcDbLine
 62
7
  6
CONTINUOUS
 10
143.4540354411
 20
81.7224853352
 11
144.1183388669
 21
81.3903336223
  0
LINE
  5
24E
100
AcDbEntity
  8
RACCORDO
100
AcDbLine
 62
7
  6
CONTINUOUS
 10
149.0680863352
 20
78.9154598882
 11
149.732389761
 21
78.5833081752
  0
LINE
  5
24F
100
AcDbEntity
  8
RACCORDO
100
AcDbLine
 62
253
  6
CONTINUOUS
 10
143.389636204
 20
81.8574167557
 11
144.0533655705
 21
81.5255520724
  0
LINE
  5
250
100
AcDbEntity
  8
RACCORDO
100
AcDbLine
 62
253
  6
CONTINUOUS
 10
149.0031130388
 20
79.0506783383
 11
149.6668424053
 21
78.718813655
  0
LINE
  5
251
100
AcDbEntity
  8
RACCORDO
100
AcDbLine
 62
7
  6
CONTINUOUS
 10
141.637157815
 20
82.8197732313
 11
148.992208219
 21
79.1422480293
  0
LINE
  5
252
100
AcDbEntity
  8
RACCORDO
100
AcDbLine
 62
253
  6
CONTINUOUS
 10
141.5072112222
 20
83.0902101315
 11
148.8622616186
 21
79.4126849333
  0
LINE
  5
253
100
AcDbEntity
  8
RACCORDO
100
AcDbLine
 62
253
  6
CONTINUOUS
 10
139.6058633112
 20
83.2215202199
 11
139.5987477944
 21
83.2254701573
  0
LINE
  5
254
100
AcDbEntity
  8
RACCORDO
100
AcDbLine
 62
253
  6
CONTINUOUS
 10
151.9095213039
 20
77.0696912235
 11
151.9024057879
 21
77.0736411605
  0
LWPOLYLINE
  5
255
100
AcDbEntity
  8
RACCORDO
100
AcDbPolyline
 62
253
  6
CONTINUOUS
 90
10
 70
0
 10
141.2768396253
 20
82.386032114
 10
141.2698307672
 20
82.3899286706
 10
141.2568194152
 20
82.3995062542
 10
141.2452673892
 20
82.4113611507
 10
141.2353135296
 20
82.425321106
 10
141.2270313596
 20
82.441248659
 10
141.2204922037
 20
82.4589961903
 10
141.2157655267
 20
82.4783852269
 10
141.2129080174
 20
82.4991971603
 10
141.2119517932
 20
82.5212077774
  0
LWPOLYLINE
  5
256
100
AcDbEntity
  8
RACCORDO
100
AcDbPolyline
 62
253
  6
CONTINUOUS
 90
10
 70
0
 10
153.5804976179
 20
76.2342031176
 10
153.5734887598
 20
76.2380996743
 10
153.5604774079
 20
76.2476772578
 10
153.5489253818
 20
76.2595321543
 10
153.5389715222
 20
76.2734921097
 10
153.5306893523
 20
76.2894196627
 10
153.5241501963
 20
76.3071671939
 10
153.5194235193
 20
76.3265562306
 10
153.5165660101
 20
76.347368164
 10
153.5156097858
 20
76.3693787811
  0
LWPOLYLINE
  5
257
100
AcDbEntity
  8
RACCORDO
100
AcDbPolyline
 62
7
  6
CONTINUOUS
 90
10
 70
0
 10
149.0681580338
 20
78.9154425767
 10
149.0610633292
 20
78.9194066738
 10
149.0480168011
 20
78.9290021303
 10
149.0365125525
 20
78.9407310434
 10
149.0266003535
 20
78.9546622608
 10
149.018230434
 20
78.9707269348
 10
149.0116700201
 20
78.9884121692
 10
149.0070081873
 20
79.0075469985
 10
149.0041558602
 20
79.0283023882
 10
149.0031130388
 20
79.0506783383
  0
LWPOLYLINE
  5
258
100
AcDbEntity
  8
RACCORDO
100
AcDbPolyline
 62
253
  6
CONTINUOUS
 90
9
 70
0
 10
139.5987477944
 20
83.2254701573
 10
139.5857364419
 20
83.2350477421
 10
139.5741844164
 20
83.2469026392
 10
139.5642305584
 20
83.2608625933
 10
139.5559483901
 20
83.2767901435
 10
139.5494092348
 20
83.2945376723
 10
139.5446825576
 20
83.3139267085
 10
139.5418250479
 20
83.3347386427
 10
139.5408688235
 20
83.3567492623
  0
LWPOLYLINE
  5
259
100
AcDbEntity
  8
RACCORDO
100
AcDbPolyline
 62
7
  6
CONTINUOUS
 90
4
 70
0
 10
139.5398033081
 20
83.2694328915
 10
139.5594685185
 20
83.2515400038
 10
139.5809815295
 20
83.2357982824
 10
139.6059473121
 20
83.2214782985
  0
LWPOLYLINE
  5
25A
100
AcDbEntity
  8
RACCORDO
100
AcDbPolyline
 62
253
  6
CONTINUOUS
 90
8
 70
0
 10
142.859701036
 20
124.7220598629
 10
142.8618314233
 20
124.7252704566
 10
142.8644053723
 20
124.7328383513
 10
142.8648149916
 20
124.7419927346
 10
142.8630564541
 20
124.7526393793
 10
142.8591462953
 20
124.7646661993
 10
142.853125621
 20
124.7779413709
 10
142.8450584231
 20
124.7923213179
  0
LWPOLYLINE
  5
25B
100
AcDbEntity
  8
RACCORDO
100
AcDbPolyline
 62
7
  6
CONTINUOUS
 90
7
 70
0
 10
142.859701036
 20
124.7220598629
 10
142.8627246314
 20
124.7258784768
 10
142.8792498999
 20
124.7499534261
 10
142.8928804989
 20
124.7758469002
 10
142.90341121
 20
124.8032154807
 10
142.9106800638
 20
124.8317082556
 10
142.9145590161
 20
124.8609393367
  0
LINE
  5
25C
100
AcDbEntity
  8
RACCORDO
100
AcDbLine
 62
253
  6
CONTINUOUS
 10
142.859668175
 20
124.7220190927
 11
142.859701036
 21
124.7220598629
  0
LINE
  5
25D
100
AcDbEntity
  8
RACCORDO
100
AcDbLine
 62
7
  6
CONTINUOUS
 10
142.8596677272
 20
124.7220185385
 11
142.3209539566
 21
124.0553959097
  0
LWPOLYLINE
  5
25E
100
AcDbEntity
  8
RACCORDO
100
AcDbPolyline
 62
253
  6
CONTINUOUS
 90
16
 70
0
 10
146.3821627236
 20
122.4449362704
 10
146.3641948294
 20
122.4346378776
 10
146.3463353199
 20
122.4221378327
 10
146.3287760837
 20
122.4075339588
 10
146.3116997562
 20
122.3909382832
 10
146.2953118545
 20
122.3725090733
 10
146.2798327974
 20
122.3524609068
 10
146.2654283841
 20
122.3309772748
 10
146.2522839436
 20
122.3083007498
 10
146.2406104373
 20
122.2847869967
 10
146.2305498111
 20
122.2607522944
 10
146.222177192
 20
122.2364111339
 10
146.2155654642
 20
122.2119860539
 10
146.2107856611
 20
122.1877291891
 10
146.2078957788
 20
122.1639206273
 10
146.2069286764
 20
122.1408211398
  0
LINE
  5
25F
100
AcDbEntity
  8
RACCORDO
100
AcDbLine
 62
7
  6
CONTINUOUS
 10
148.2176196643
 20
121.6566743396
 11
148.0408582446
 21
121.5632306135
  0
LINE
  5
260
100
AcDbEntity
  8
RACCORDO
100
AcDbLine
 62
253
  6
CONTINUOUS
 10
148.3313615977
 20
121.6505620872
 11
148.15615483
 21
121.5579402172
  0
LINE
  5
261
100
AcDbEntity
  8
DRAFT
100
AcDbLine
 62
7
  6
CONTINUOUS
 10
147.4351355254
 20
122.2406989011
 11
151.9387601423
 21
124.5725188074
  0
LINE
  5
262
100
AcDbEntity
  8
RACCORDO
100
AcDbLine
 62
253
  6
CONTINUOUS
 10
147.4351355254
 20
122.5817425951
 11
146.740371339
 21
122.2295755963
  0
LINE
  5
263
100
AcDbEntity
  8
RACCORDO
100
AcDbLine
 62
7
  6
CONTINUOUS
 10
146.740371339
 20
121.0604165705
 11
146.5573699643
 21
120.9682102964
  0
LINE
  5
264
100
AcDbEntity
  8
RACCORDO
100
AcDbLine
 62
7
  6
CONTINUOUS
 10
148.2176590699
 20
121.6566952007
 11
148.2214345305
 21
121.6585835628
  0
LINE
  5
265
100
AcDbEntity
  8
RACCORDO
100
AcDbLine
 62
7
  6
CONTINUOUS
 10
152.9930317289
 20
125.5580560375
 11
147.3764127501
 21
122.7721716178
  0
LINE
  5
266
100
AcDbEntity
  8
DRAFT
100
AcDbLine
 62
7
  6
CONTINUOUS
 10
147.4351355254
 20
121.4050247288
 11
146.740371339
 21
121.0604165705
  0
LINE
  5
267
100
AcDbEntity
  8
RACCORDO
100
AcDbLine
 62
253
  6
CONTINUOUS
 10
146.5573699643
 20
122.1392920124
 11
146.740371339
 21
122.2295755963
  0
LINE
  5
268
100
AcDbEntity
  8
RACCORDO
100
AcDbLine
 62
7
  6
CONTINUOUS
 10
148.221483408
 20
121.6586066496
 11
148.9409027129
 21
121.9984168498
  0
LINE
  5
269
100
AcDbEntity
  8
RACCORDO
100
AcDbLine
 62
253
  6
CONTINUOUS
 10
148.3313615977
 20
121.6505620872
 11
149.0508109737
 21
121.9903864912
  0
LWPOLYLINE
  5
26A
100
AcDbEntity
  8
RACCORDO
100
AcDbPolyline
 62
7
  6
CONTINUOUS
 90
4
 70
0
 10
148.2214345305
 20
121.6585835628
 10
148.2237498429
 20
121.6596390208
 10
148.2429792667
 20
121.6657577452
 10
148.2637153091
 20
121.6679098614
  0
LWPOLYLINE
  5
26B
100
AcDbEntity
  8
ASSI
100
AcDbPolyline
 62
7
  6
CONTINUOUS
 90
7
 70
0
 10
155.2666558507
 20
123.4676056543
 10
155.2603561354
 20
123.46528322
 10
155.2540484501
 20
123.4628190086
 10
155.2477327949
 20
123.46021302
 10
155.2414091697
 20
123.4574652542
 10
155.2350775745
 20
123.4545757113
 10
155.2287380095
 20
123.4515443912
  0
LWPOLYLINE
  5
26C
100
AcDbEntity
  8
RACCORDO
100
AcDbPolyline
 62
253
  6
CONTINUOUS
 90
16
 70
0
 10
149.9229218889
 20
80.1807994448
 10
149.9609116864
 20
80.1636562993
 10
150.0022070434
 20
80.148544483
 10
150.0463753871
 20
80.1356222938
 10
150.0929540496
 20
80.1250250929
 10
150.141455115
 20
80.116863887
 10
150.1913705299
 20
80.1112241655
 10
150.2421774253
 20
80.108165005
 10
150.2933435941
 20
80.1077184506
 10
150.3443330657
 20
80.10988918
 10
150.3946117203
 20
80.1146544545
 10
150.4436528841
 20
80.1219643575
 10
150.4909428462
 20
80.1317423169
 10
150.5359862395
 20
80.1438859077
 10
150.5783112301
 20
80.1582679247
 10
150.6174744595
 20
80.1747377147
  0
LWPOLYLINE
  5
26D
100
AcDbEntity
  8
RACCORDO
100
AcDbPolyline
 62
253
  6
CONTINUOUS
 90
3
 70
0
 10
155.0806848646
 20
77.6513272763
 10
155.0744451915
 20
77.6541671038
 10
155.0572698134
 20
77.6594146524
  0
LWPOLYLINE
  5
26E
100
AcDbEntity
  8
RACCORDO
100
AcDbPolyline
 62
7
  6
CONTINUOUS
 90
11
 70
0
 10
154.1788936978
 20
77.8636867777
 10
154.1866791895
 20
77.8598769067
 10
154.2313892202
 20
77.8410839242
 10
154.2776537599
 20
77.8267254466
 10
154.3251627611
 20
77.8169000167
 10
154.3733443872
 20
77.8117284474
 10
154.4218485312
 20
77.8112471239
 10
154.4705124897
 20
77.8155147812
 10
154.5188863524
 20
77.8245967885
 10
154.5662980413
 20
77.8384479765
 10
154.612191338
 20
77.8569458357
  0
LINE
  5
26F
100
AcDbEntity
  8
RACCORDO
100
AcDbLine
 62
7
  6
CONTINUOUS
 10
151.58161754
 20
78.9422680533
 11
150.7232542534
 21
79.3714496967
  0
LINE
  5
270
100
AcDbEntity
  8
RACCORDO
100
AcDbLine
 62
7
  6
CONTINUOUS
 10
154.1789451852
 20
77.8636610241
 11
153.9322910413
 21
77.986988096
  0
LINE
  5
271
100
AcDbEntity
  8
RACCORDO
100
AcDbLine
 62
7
  6
CONTINUOUS
 10
139.3840807535
 20
85.2610932399
 11
139.1374266098
 21
85.3844203118
  0
LINE
  5
272
100
AcDbEntity
  8
RACCORDO
100
AcDbLine
 62
253
  6
CONTINUOUS
 10
154.0489985924
 20
78.1340979243
 11
153.5156097858
 21
78.4007923276
  0
LINE
  5
273
100
AcDbEntity
  8
RACCORDO
100
AcDbLine
 62
253
  6
CONTINUOUS
 10
139.5408688235
 20
85.3881628087
 11
139.0074800169
 21
85.654857212
  0
LINE
  5
274
100
AcDbEntity
  8
RACCORDO
100
AcDbLine
 62
253
  6
CONTINUOUS
 10
155.0572698134
 20
77.6594146524
 11
154.6381917463
 21
77.8689536859
  0
LINE
  5
275
100
AcDbEntity
  8
RACCORDO
100
AcDbLine
 62
7
  6
CONTINUOUS
 10
155.0806848646
 20
77.6513272763
 11
154.6419555483
 21
77.8706919344
  0
LWPOLYLINE
  5
276
100
AcDbEntity
  8
RACCORDO
100
AcDbPolyline
 62
253
  6
CONTINUOUS
 90
20
 70
0
 10
153.9326358573
 20
77.986815967
 10
153.9138138463
 20
77.9967165531
 10
153.8943798617
 20
78.0078790916
 10
153.8743986504
 20
78.0202992825
 10
153.8539293319
 20
78.0339770285
 10
153.8330116882
 20
78.0489170432
 10
153.811673306
 20
78.0651320812
 10
153.7899601374
 20
78.0826374383
 10
153.7679193639
 20
78.1014321346
 10
153.7455806851
 20
78.1215294799
 10
153.7229748476
 20
78.1429752105
 10
153.7001563307
 20
78.1657652018
 10
153.6771642335
 20
78.1899126485
 10
153.6540256482
 20
78.2155033966
 10
153.6308037856
 20
78.2425295987
 10
153.6075556492
 20
78.2710027397
 10
153.5843301867
 20
78.3010554133
 10
153.5612064581
 20
78.3327352372
 10
153.5382724382
 20
78.365987513
 10
153.5156097858
 20
78.4007923276
  0
LWPOLYLINE
  5
277
100
AcDbEntity
  8
RACCORDO
100
AcDbPolyline
 62
253
  6
CONTINUOUS
 90
9
 70
0
 10
140.4465509519
 20
84.9189849133
 10
140.4122651303
 20
84.9379795214
 10
140.3820417776
 20
84.9586269156
 10
140.3561975089
 20
84.9807108285
 10
140.3350030706
 20
85.003999945
 10
140.3186805096
 20
85.0282503188
 10
140.3074008422
 20
85.0532079266
 10
140.3012822555
 20
85.0786113421
 10
140.3001043425
 20
85.0957615477
  0
LINE
  5
278
100
AcDbEntity
  8
RACCORDO
100
AcDbLine
 62
253
  6
CONTINUOUS
 10
139.1374280885
 20
85.3844195724
 11
139.1226543838
 21
85.392658277
  0
LWPOLYLINE
  5
279
100
AcDbEntity
  8
RACCORDO
100
AcDbPolyline
 62
253
  6
CONTINUOUS
 90
10
 70
0
 10
154.1788936978
 20
77.8636867777
 10
154.1641728768
 20
77.8718990402
 10
154.1384119136
 20
77.8909764494
 10
154.1154841047
 20
77.9145798253
 10
154.0956352731
 20
77.9424669687
 10
154.0790885813
 20
77.9743369071
 10
154.0660303774
 20
78.009836509
 10
154.0566024569
 20
78.048578033
 10
154.0509047034
 20
78.0901479049
 10
154.0489985924
 20
78.1340979243
  0
LWPOLYLINE
  5
27A
100
AcDbEntity
  8
RACCORDO
100
AcDbPolyline
 62
7
  6
CONTINUOUS
 90
10
 70
0
 10
151.58161754
 20
78.9422680533
 10
151.6029312629
 20
78.930304384
 10
151.6245011331
 20
78.9156195925
 10
151.6463271506
 20
78.8982136789
 10
151.6685435725
 20
78.8778869549
 10
151.6910161416
 20
78.8548391088
 10
151.7133420867
 20
78.8296692049
 10
151.735346904
 20
78.802378322
 10
151.7572050972
 20
78.7729653813
 10
151.7595016171
 20
78.7697711963
  0
LWPOLYLINE
  5
27B
100
AcDbEntity
  8
RACCORDO
100
AcDbPolyline
 62
7
  6
CONTINUOUS
 90
10
 70
0
 10
139.3833594335
 20
85.2614576263
 10
139.3948763638
 20
85.2549506981
 10
139.4084307533
 20
85.2452623815
 10
139.422497814
 20
85.2324360374
 10
139.4356094464
 20
85.217068674
 10
139.4472948274
 20
85.1990972294
 10
139.4568459744
 20
85.1788680851
 10
139.463313344
 20
85.1583077804
 10
139.4667671
 20
85.1385705951
 10
139.4676458407
 20
85.1231943577
  0
LINE
  5
27C
100
AcDbEntity
  8
RACCORDO
100
AcDbLine
 62
7
  6
CONTINUOUS
 10
155.0806848646
 20
77.6513272763
 11
155.1050335395
 21
77.637392628
  0
LINE
  5
27D
100
AcDbEntity
  8
RACCORDO
100
AcDbLine
 62
253
  6
CONTINUOUS
 10
155.0752750708
 20
77.6490093691
 11
155.0572698134
 21
77.6594146524
  0
LWPOLYLINE
  5
27E
100
AcDbEntity
  8
RACCORDO
100
AcDbPolyline
 62
253
  6
CONTINUOUS
 90
9
 70
0
 10
151.9024057879
 20
77.0736411605
 10
151.8893944356
 20
77.0832187449
 10
151.8778424099
 20
77.0950736418
 10
151.8678885514
 20
77.1090335963
 10
151.8596063827
 20
77.1249611473
 10
151.8530672272
 20
77.1427086768
 10
151.8483405501
 20
77.1620977131
 10
151.8454830405
 20
77.1829096471
 10
151.8445268161
 20
77.204920266
  0
LWPOLYLINE
  5
27F
100
AcDbEntity
  8
RACCORDO
100
AcDbPolyline
 62
253
  6
CONTINUOUS
 90
9
 70
0
 10
139.1226543838
 20
85.392658277
 10
139.0968933997
 20
85.4117356831
 10
139.0739655732
 20
85.4353390601
 10
139.0541167296
 20
85.463226204
 10
139.0375700281
 20
85.4950961442
 10
139.0245118156
 20
85.5305957518
 10
139.0150838879
 20
85.5693372867
 10
139.0093861296
 20
85.6109071737
 10
139.0074800169
 20
85.654857212
  0
LWPOLYLINE
  5
280
100
AcDbEntity
  8
RACCORDO
100
AcDbPolyline
 62
7
  6
CONTINUOUS
 90
6
 70
0
 10
138.9395076361
 20
85.5627175214
 10
138.9701722447
 20
85.5198205795
 10
139.0053508852
 20
85.4802225483
 10
139.0446810774
 20
85.4444373301
 10
139.0877067802
 20
85.4129543702
 10
139.1376369866
 20
85.3843152882
  0
LINE
  5
281
100
AcDbEntity
  8
RACCORDO
100
AcDbLine
 62
7
  6
CONTINUOUS
 10
149.7440325109
 20
120.7640013767
 11
149.178347086
 21
120.4751125129
  0
LINE
  5
282
100
AcDbEntity
  8
RACCORDO
100
AcDbLine
 62
7
  6
CONTINUOUS
 10
150.5941032965
 20
120.5191912378
 11
149.8436056969
 21
120.1424832075
  0
LINE
  5
283
100
AcDbEntity
  8
ASSI
100
AcDbLine
 62
7
  6
CONTINUOUS
 10
155.8541813212
 20
123.1388227353
 11
150.5941032965
 21
120.5191912378
  0
LINE
  5
284
100
AcDbEntity
  8
ASSI
100
AcDbLine
 62
7
  6
CONTINUOUS
 10
150.6294586355
 20
121.2010626602
 11
155.2287380095
 21
123.4515443912
  0
LINE
  5
285
100
AcDbEntity
  8
RACCORDO
100
AcDbLine
 62
7
  6
CONTINUOUS
 10
157.4829551275
 20
123.3130943382
 11
156.0212189108
 21
122.6380161131
  0
LWPOLYLINE
  5
286
100
AcDbEntity
  8
ASSI
100
AcDbPolyline
 62
7
  6
CONTINUOUS
 90
7
 70
0
 10
155.8944719369
 20
123.1560243048
 10
155.8877751473
 20
123.1535627591
 10
155.8810710325
 20
123.1509390604
 10
155.8743595924
 20
123.1481532086
 10
155.8676408272
 20
123.1452052039
 10
155.8609147368
 20
123.1420950461
 10
155.8541813212
 20
123.1388227353
  0
LWPOLYLINE
  5
287
100
AcDbEntity
  8
RACCORDO
100
AcDbPolyline
 62
7
  6
CONTINUOUS
 90
3
 70
0
 10
152.6415807978
 20
119.8822431209
 10
152.6623776356
 20
119.8890709626
 10
152.6831112577
 20
119.8912244517
  0
LWPOLYLINE
  5
288
100
AcDbEntity
  8
RACCORDO
100
AcDbPolyline
 62
7
  6
CONTINUOUS
 90
3
 70
0
 10
155.1050335395
 20
77.637392628
 10
155.1278683606
 20
77.6206532011
 10
155.1487761869
 20
77.601323155
  0
LWPOLYLINE
  5
289
100
AcDbEntity
  8
RACCORDO
100
AcDbPolyline
 62
7
  6
CONTINUOUS
 90
4
 70
0
 10
151.8434613008
 20
77.1176038951
 10
151.8631265111
 20
77.0997110074
 10
151.8846395222
 20
77.0839692861
 10
151.9096053047
 20
77.0696493022
  0
LINE
  5
28A
100
AcDbEntity
  8
RACCORDO
100
AcDbLine
 62
7
  6
CONTINUOUS
 10
152.6363184591
 20
119.8796095025
 11
151.9025975563
 21
119.4837502427
  0
LINE
  5
28B
100
AcDbEntity
  8
RACCORDO
100
AcDbLine
 62
253
  6
CONTINUOUS
 10
152.7507520551
 20
119.8738795603
 11
152.0182183327
 21
119.4786608115
  0
LINE
  5
28C
100
AcDbEntity
  8
DRAFT
100
AcDbLine
 62
7
  6
CONTINUOUS
 10
150.5941032965
 20
119.1335505917
 11
149.6668424053
 21
118.6582907332
  0
LINE
  5
28D
100
AcDbEntity
  8
RACCORDO
100
AcDbLine
 62
7
  6
CONTINUOUS
 10
152.636372752
 20
119.8796387404
 11
152.6415807978
 21
119.8822431209
  0
LINE
  5
28E
100
AcDbEntity
  8
RACCORDO
100
AcDbLine
 62
7
  6
CONTINUOUS
 10
155.8944719369
 20
121.7160889031
 11
150.5941032965
 21
119.1335505917
  0
LINE
  5
28F
100
AcDbEntity
  8
RACCORDO
100
AcDbLine
 62
253
  6
CONTINUOUS
 10
149.209541625
 20
117.8695262208
 11
150.2405497746
 21
118.3714370486
  0
LWPOLYLINE
  5
290
100
AcDbEntity
  8
RACCORDO
100
AcDbPolyline
 62
253
  6
CONTINUOUS
 90
8
 70
0
 10
151.9025975625
 20
119.483750246
 10
151.9131213935
 20
119.4886198358
 10
151.9287304293
 20
119.4932522683
 10
151.9453533102
 20
119.4953709863
 10
151.9628079932
 20
119.4949527889
 10
151.9809033199
 20
119.4920022549
 10
151.9994411079
 20
119.4865516979
 10
152.0182183327
 20
119.4786608115
  0
LINE
  5
291
100
AcDbEntity
  8
RACCORDO
100
AcDbLine
 62
7
  6
CONTINUOUS
 10
153.1855732616
 20
120.133476868
 11
152.6416505549
 21
119.8822753371
  0
LINE
  5
292
100
AcDbEntity
  8
RACCORDO
100
AcDbLine
 62
253
  6
CONTINUOUS
 10
153.2934781179
 20
120.1245284414
 11
152.7507520551
 21
119.8738795603
  0
LWPOLYLINE
  5
293
100
AcDbEntity
  8
RACCORDO
100
AcDbPolyline
 62
7
  6
CONTINUOUS
 90
3
 70
0
 10
153.1854755325
 20
120.1334316649
 10
153.1926662098
 20
120.1366199648
 10
153.2217999058
 20
120.1469183741
  0
LINE
  5
294
100
AcDbEntity
  8
RACCORDO
100
AcDbLine
 62
253
  6
CONTINUOUS
 10
160.9914045567
 20
86.6134643016
 11
156.0264829168
 21
86.2631938318
  0
LINE
  5
295
100
AcDbEntity
  8
RACCORDO
100
AcDbLine
 62
7
  6
CONTINUOUS
 10
160.716839159
 20
86.9866337006
 11
156.0264829168
 21
86.7368987131
  0
LWPOLYLINE
  5
296
100
AcDbEntity
  8
RACCORDO
100
AcDbPolyline
 62
7
  6
CONTINUOUS
 90
19
 70
0
 10
151.8445179412
 20
117.7396515829
 10
151.8305699504
 20
117.7312214549
 10
151.8168686493
 20
117.7233422345
 10
151.8034140377
 20
117.7160139217
 10
151.7903256722
 20
117.7092148052
 10
151.7774839963
 20
117.7029665963
 10
151.7645303406
 20
117.697334429
 10
151.7514599212
 20
117.6922798262
 10
151.738277522
 20
117.687841265
 10
151.7246388258
 20
117.6841993106
 10
151.7104301266
 20
117.6812909306
 10
151.6957651304
 20
117.6791791574
 10
151.6806406384
 20
117.6782336532
 10
151.6650044855
 20
117.6784623959
 10
151.6489088367
 20
117.6798574077
 10
151.6325069883
 20
117.6827644176
 10
151.6158500391
 20
117.6872986687
 10
151.5988868903
 20
117.6933449179
 10
151.581617542
 20
117.7009031653
  0
LWPOLYLINE
  5
297
100
AcDbEntity
  8
RACCORDO
100
AcDbPolyline
 62
253
  6
CONTINUOUS
 90
16
 70
0
 10
152.0182183327
 20
119.4786608115
 10
152.0003557586
 20
119.4682370487
 10
151.9826159342
 20
119.4556441522
 10
151.9651876142
 20
119.4409804032
 10
151.9482502905
 20
119.4243577711
 10
151.9320057157
 20
119.4059336238
 10
151.9166700447
 20
119.3859204732
 10
151.9024057901
 20
119.3644997581
 10
151.8893944381
 20
119.3419108225
 10
151.8778424121
 20
119.3185039
 10
151.8678885525
 20
119.2945900851
 10
151.8596063826
 20
119.2703803621
 10
151.8530672266
 20
119.2460936749
 10
151.8483405496
 20
119.2219779612
 10
151.8454830404
 20
119.1983085186
 10
151.8445268161
 20
119.1753416773
  0
LWPOLYLINE
  5
298
100
AcDbEntity
  8
RACCORDO
100
AcDbPolyline
 62
253
  6
CONTINUOUS
 90
16
 70
0
 10
153.6893013024
 20
118.6431193267
 10
153.6714387321
 20
118.6326955663
 10
153.6536989097
 20
118.6201026719
 10
153.63627059
 20
118.6054389239
 10
153.6193332642
 20
118.5888162905
 10
153.603088686
 20
118.5703921396
 10
153.5877530125
 20
118.5503789857
 10
153.5734887567
 20
118.5289582682
 10
153.5604774043
 20
118.506369331
 10
153.5489253788
 20
118.4829624084
 10
153.5389715207
 20
118.4590485963
 10
153.5306893525
 20
118.4348388778
 10
153.5241501972
 20
118.4105521937
 10
153.51942352
 20
118.3864364803
 10
153.5165660103
 20
118.3627670364
 10
153.5156097858
 20
118.3398001924
  0
LINE
  5
299
100
AcDbEntity
  8
RACCORDO
100
AcDbLine
 62
253
  6
CONTINUOUS
 10
151.7000687442
 20
117.8190822578
 11
151.7700098627
 21
117.8568170957
  0
LINE
  5
29A
100
AcDbEntity
  8
RACCORDO
100
AcDbLine
 62
253
  6
CONTINUOUS
 10
154.4478621779
 20
119.025324499
 11
153.6893013024
 21
118.6431193267
  0
LINE
  5
29B
100
AcDbEntity
  8
RACCORDO
100
AcDbLine
 62
253
  6
CONTINUOUS
 10
154.6246119492
 20
118.7204762373
 11
153.8660510737
 21
118.338271065
  0
LINE
  5
29C
100
AcDbEntity
  8
RACCORDO
100
AcDbLine
 62
253
  6
CONTINUOUS
 10
154.9719666444
 20
119.2852841781
 11
154.4478621779
 21
119.025324499
  0
LINE
  5
29D
100
AcDbEntity
  8
RACCORDO
100
AcDbLine
 62
253
  6
CONTINUOUS
 10
155.1487164158
 20
118.9804359165
 11
154.6246119492
 21
118.7204762373
  0
LINE
  5
29E
100
AcDbEntity
  8
RACCORDO
100
AcDbLine
 62
7
  6
CONTINUOUS
 10
155.0698771979
 20
119.2962788439
 11
160.5005015423
 21
121.8043211308
  0
LWPOLYLINE
  5
29F
100
AcDbEntity
  8
RACCORDO
100
AcDbPolyline
 62
253
  6
CONTINUOUS
 90
16
 70
0
 10
153.8660510737
 20
118.338271065
 10
153.8469698983
 20
118.3299490786
 10
153.82619027
 20
118.3225990684
 10
153.8039041309
 20
118.3163138179
 10
153.7803091184
 20
118.3111740005
 10
153.7556531101
 20
118.3072574298
 10
153.7302375316
 20
118.3046295481
 10
153.7043066939
 20
118.3033307124
 10
153.6781634155
 20
118.3033909996
 10
153.6522158121
 20
118.3048127752
 10
153.6268000506
 20
118.3075667964
 10
153.6021319063
 20
118.3116186986
 10
153.5784323525
 20
118.3169293195
 10
153.5559449355
 20
118.323446351
 10
153.5349279806
 20
118.3310973193
 10
153.5156097858
 20
118.3398001924
  0
LWPOLYLINE
  5
2A0
100
AcDbEntity
  8
RACCORDO
100
AcDbPolyline
 62
7
  6
CONTINUOUS
 90
18
 70
0
 10
160.7168949162
 20
86.9864526198
 10
160.7383642915
 20
86.9857192097
 10
160.7605819142
 20
86.9815184927
 10
160.782812101
 20
86.9737862976
 10
160.8052848333
 20
86.9625625613
 10
160.827529469
 20
86.9480728715
 10
160.849791848
 20
86.9300190862
 10
160.8718261303
 20
86.9086993476
 10
160.8924241538
 20
86.8852336693
 10
160.9113426664
 20
86.8597357606
 10
160.9288249202
 20
86.8320919122
 10
160.944392509
 20
86.8030810106
 10
160.95807962
 20
86.7725330904
 10
160.9698520659
 20
86.7406181169
 10
160.9791288793
 20
86.708624873
 10
160.9857164043
 20
86.676982953
 10
160.9898082968
 20
86.6452627625
 10
160.9914045567
 20
86.6134643016
  0
LWPOLYLINE
  5
2A1
100
AcDbEntity
  8
RACCORDO
100
AcDbPolyline
 62
253
  6
CONTINUOUS
 90
9
 70
0
 10
138.8610334283
 20
85.8315618771
 10
138.8618826496
 20
85.8170692169
 10
138.8675871552
 20
85.7912891552
 10
138.8786113325
 20
85.765928235
 10
138.894841495
 20
85.7412664619
 10
138.9160995841
 20
85.7175792135
 10
138.9421529179
 20
85.6951246261
 10
138.9727229208
 20
85.6741418711
 10
139.0074800169
 20
85.654857212
  0
LWPOLYLINE
  5
2A2
100
AcDbEntity
  8
RACCORDO
100
AcDbPolyline
 62
253
  6
CONTINUOUS
 90
9
 70
0
 10
139.4676455291
 20
83.4451016102
 10
139.4680504379
 20
83.4380260771
 10
139.4708939892
 20
83.4250522754
 10
139.4764020316
 20
83.4123443946
 10
139.4845058359
 20
83.4000103225
 10
139.4951270778
 20
83.3881605456
 10
139.5081611407
 20
83.3769168371
 10
139.5234630772
 20
83.3664083597
 10
139.5408688235
 20
83.3567492623
  0
LWPOLYLINE
  5
2A3
100
AcDbEntity
  8
RACCORDO
100
AcDbPolyline
 62
7
  6
CONTINUOUS
 90
7
 70
0
 10
138.8610334283
 20
85.8315618771
 10
138.8615742709
 20
85.8083837271
 10
138.8666552648
 20
85.7568659922
 10
138.8770626332
 20
85.7060461312
 10
138.8927523529
 20
85.656383076
 10
138.9136271622
 20
85.6084128272
 10
138.9395076361
 20
85.5627175214
  0
LWPOLYLINE
  5
2A4
100
AcDbEntity
  8
RACCORDO
100
AcDbPolyline
 62
7
  6
CONTINUOUS
 90
9
 70
0
 10
139.4676455291
 20
83.4451016102
 10
139.4679158024
 20
83.4335157011
 10
139.4704559672
 20
83.4077568278
 10
139.4756594297
 20
83.3823464267
 10
139.4835041567
 20
83.3575144247
 10
139.4939414471
 20
83.333528972
 10
139.5068816249
 20
83.3106809974
 10
139.5222139283
 20
83.2892322109
 10
139.5398033081
 20
83.2694328915
  0
LINE
  5
2A5
100
AcDbEntity
  8
RACCORDO
100
AcDbLine
 62
7
  6
CONTINUOUS
 10
138.8610334283
 20
85.8315618771
 11
138.8610334075
 21
123.7392282257
  0
LINE
  5
2A6
100
AcDbEntity
  8
RACCORDO
100
AcDbLine
 62
253
  6
CONTINUOUS
 10
139.0074800169
 20
85.654857212
 11
139.0074800169
 21
123.5624515304
  0
LWPOLYLINE
  5
2A7
100
AcDbEntity
  8
RACCORDO
100
AcDbPolyline
 62
7
  6
CONTINUOUS
 90
14
 70
0
 10
138.8610334093
 20
123.7392069518
 10
138.8610559586
 20
123.7439769694
 10
138.8633720697
 20
123.7875312643
 10
138.8694601708
 20
123.8306380098
 10
138.8793202042
 20
123.873214754
 10
138.8929063784
 20
123.9148900525
 10
138.9101342667
 20
123.9553068212
 10
138.930986343
 20
123.9942959074
 10
138.9553072638
 20
124.0314375513
 10
138.9829202644
 20
124.066383303
 10
139.013799898
 20
124.0989904942
 10
139.0477828908
 20
124.1289383846
 10
139.0845065509
 20
124.1558008242
 10
139.1236214973
 20
124.1792686612
  0
LWPOLYLINE
  5
2A8
100
AcDbEntity
  8
RACCORDO
100
AcDbPolyline
 62
7
  6
CONTINUOUS
 90
11
 70
0
 10
139.4676455292
 20
125.415522886
 10
139.4692891256
 20
125.4441789791
 10
139.473639558
 20
125.4699748698
 10
139.4806602803
 20
125.495170537
 10
139.4903506962
 20
125.5196602394
 10
139.5026166349
 20
125.5430838186
 10
139.5173364618
 20
125.5651460443
 10
139.5345108539
 20
125.585740379
 10
139.554030095
 20
125.6045826075
 10
139.5756037764
 20
125.6212870478
 10
139.5989395637
 20
125.635579239
  0
LINE
  5
2A9
100
AcDbEntity
  8
RACCORDO
100
AcDbLine
 62
253
  6
CONTINUOUS
 10
153.5156097858
 20
116.3083866459
 11
153.6540256482
 21
116.3895633797
  0
LWPOLYLINE
  5
2AA
100
AcDbEntity
  8
RACCORDO
100
AcDbPolyline
 62
253
  6
CONTINUOUS
 90
9
 70
0
 10
155.1487164158
 20
118.9804359165
 10
155.1657850594
 20
118.9902471527
 10
155.1807191819
 20
119.0008890331
 10
155.1933589819
 20
119.0122458429
 10
155.2035643091
 20
119.0241870016
 10
155.2112352168
 20
119.0365898029
 10
155.2162976674
 20
119.0493432082
 10
155.2186869792
 20
119.0623385719
 10
155.2188814304
 20
119.0672017475
  0
LWPOLYLINE
  5
2AB
100
AcDbEntity
  8
RACCORDO
100
AcDbPolyline
 62
253
  6
CONTINUOUS
 90
9
 70
0
 10
155.1487164158
 20
118.6404923216
 10
155.1657399869
 20
118.6502747597
 10
155.1806420524
 20
118.6608839415
 10
155.1932637651
 20
118.672205239
 10
155.2034692514
 20
118.6841141713
 10
155.2111531328
 20
118.6964845493
 10
155.216236743
 20
118.7091906251
 10
155.2186633123
 20
118.7221037673
 10
155.2188814656
 20
118.7273275982
  0
LWPOLYLINE
  5
2AC
100
AcDbEntity
  8
RACCORDO
100
AcDbPolyline
 62
253
  6
CONTINUOUS
 90
3
 70
0
 10
161.3511017322
 20
120.8574255038
 10
161.3855988782
 20
120.8769100058
 10
161.4158584569
 20
120.8980819637
  0
LWPOLYLINE
  5
2AD
100
AcDbEntity
  8
RACCORDO
100
AcDbPolyline
 62
7
  6
CONTINUOUS
 90
20
 70
0
 10
161.2895317116
 20
121.0712370433
 10
161.3105929851
 20
121.0828869819
 10
161.3300796483
 20
121.0964193267
 10
161.3479917012
 20
121.1118340776
 10
161.3645043933
 20
121.1289675269
 10
161.3794424751
 20
121.1479833824
 10
161.3922801983
 20
121.1693727677
 10
161.4031332371
 20
121.1934338528
 10
161.4118859173
 20
121.2198684677
 10
161.4176654676
 20
121.2482732257
 10
161.4203608699
 20
121.278734884
 10
161.4200831423
 20
121.3111666853
 10
161.4162925685
 20
121.3449049715
 10
161.4088929485
 20
121.3800680177
 10
161.3979804823
 20
121.4165375488
 10
161.3833040536
 20
121.4532950807
 10
161.364785915
 20
121.4903695076
 10
161.3425038139
 20
121.5277319352
 10
161.3164398764
 20
121.5642771977
 10
161.2865088317
 20
121.6000543237
  0
LINE
  5
2AE
100
AcDbEntity
  8
RACCORDO
100
AcDbLine
 62
7
  6
CONTINUOUS
 10
154.8227789845
 20
117.7112029992
 11
161.2895317116
 21
121.0712370433
  0
LINE
  5
2AF
100
AcDbEntity
  8
RACCORDO
100
AcDbLine
 62
7
  6
CONTINUOUS
 10
161.3511017322
 20
120.6702152609
 11
155.2474736263
 21
117.4988556784
  0
LINE
  5
2B0
100
AcDbEntity
  8
RACCORDO
100
AcDbLine
 62
253
  6
CONTINUOUS
 10
154.042774387
 20
116.9983128312
 11
154.6246119492
 21
117.2914749661
  0
LINE
  5
2B1
100
AcDbEntity
  8
RACCORDO
100
AcDbLine
 62
253
  6
CONTINUOUS
 10
154.184146128
 20
116.7544200756
 11
154.7660117663
 21
117.0475963568
  0
LINE
  5
2B2
100
AcDbEntity
  8
RACCORDO
100
AcDbLine
 62
253
  6
CONTINUOUS
 10
154.9782191877
 20
116.9414926461
 11
154.3963816255
 21
116.6483305112
  0
LINE
  5
2B3
100
AcDbEntity
  8
RACCORDO
100
AcDbLine
 62
253
  6
CONTINUOUS
 10
155.6729833741
 20
117.2861008044
 11
154.9782191877
 21
116.9414926461
  0
LINE
  5
2B4
100
AcDbEntity
  8
RACCORDO
100
AcDbLine
 62
253
  6
CONTINUOUS
 10
150.6174744595
 20
115.427999927
 11
151.6547634683
 21
115.9330706728
  0
LWPOLYLINE
  5
2B5
100
AcDbEntity
  8
RACCORDO
100
AcDbPolyline
 62
253
  6
CONTINUOUS
 90
16
 70
0
 10
154.7498811682
 20
116.0386339879
 10
154.7114301087
 20
116.0218765275
 10
154.6695849973
 20
116.0071082455
 10
154.624747439
 20
115.9945106945
 10
154.5772940928
 20
115.9842333754
 10
154.527765832
 20
115.9764351118
 10
154.4768852944
 20
115.9712470949
 10
154.4252770738
 20
115.9687272863
 10
154.3734226021
 20
115.968893559
 10
154.3218624787
 20
115.9717458118
 10
154.2711406384
 20
115.9772579004
 10
154.2218170922
 20
115.9853729817
 10
154.1744425953
 20
115.9960020262
 10
154.1295334205
 20
116.0090286932
 10
154.0875679105
 20
116.0243136946
 10
154.0489985924
 20
116.0416922427
  0
LWPOLYLINE
  5
2B6
100
AcDbEntity
  8
RACCORDO
100
AcDbPolyline
 62
7
  6
CONTINUOUS
 90
8
 70
0
 10
155.1487761869
 20
77.601323155
 10
155.1672957564
 20
77.5798117739
 10
155.1832501114
 20
77.556352015
 10
155.196600223
 20
77.5308910537
 10
155.2070594628
 20
77.5036891371
 10
155.2143157474
 20
77.4752808595
 10
155.2182130029
 20
77.4459902507
 10
155.2188811847
 20
77.4275330777
  0
LWPOLYLINE
  5
2B7
100
AcDbEntity
  8
RACCORDO
100
AcDbPolyline
 62
7
  6
CONTINUOUS
 90
5
 70
0
 10
151.7595016171
 20
78.7697711963
 10
151.7790374063
 20
78.7420262104
 10
151.8008840779
 20
78.7097594185
 10
151.8227048653
 20
78.6759663963
 10
151.8444997687
 20
78.6406471439
  0
LWPOLYLINE
  5
2B8
100
AcDbEntity
  8
RACCORDO
100
AcDbPolyline
 62
253
  6
CONTINUOUS
 90
9
 70
0
 10
138.8610334093
 20
123.7392069518
 10
138.8618826349
 20
123.7246636613
 10
138.8675870862
 20
123.6988836846
 10
138.8786112457
 20
123.6735227127
 10
138.8948414562
 20
123.6488608304
 10
138.9160996093
 20
123.6251735072
 10
138.9421529708
 20
123.6027189039
 10
138.9727229701
 20
123.581736159
 10
139.0074800169
 20
123.5624515304
  0
LWPOLYLINE
  5
2B9
100
AcDbEntity
  8
RACCORDO
100
AcDbPolyline
 62
253
  6
CONTINUOUS
 90
9
 70
0
 10
139.4676455292
 20
125.415522886
 10
139.4680504378
 20
125.4084474895
 10
139.4708939889
 20
125.3954736876
 10
139.4764020312
 20
125.3827658066
 10
139.4845058355
 20
125.3704317343
 10
139.4951270774
 20
125.3585819573
 10
139.5081611404
 20
125.3473382487
 10
139.523463077
 20
125.3368297711
 10
139.5408688235
 20
125.3271706736
  0
LWPOLYLINE
  5
2BA
100
AcDbEntity
  8
RACCORDO
100
AcDbPolyline
 62
253
  6
CONTINUOUS
 90
10
 70
0
 10
141.5072112222
 20
83.0902101315
 10
141.5091052619
 20
83.0463961027
 10
141.514767088
 20
83.0049455507
 10
141.5241360377
 20
82.9663025893
 10
141.5371117293
 20
82.9308812511
 10
141.5535551372
 20
82.8990610513
 10
141.5732900818
 20
82.8711829212
 10
141.5961051167
 20
82.8475455556
 10
141.6217557948
 20
82.8284022125
 10
141.637157815
 20
82.8197732313
  0
LWPOLYLINE
  5
2BB
100
AcDbEntity
  8
RACCORDO
100
AcDbPolyline
 62
253
  6
CONTINUOUS
 90
25
 70
0
 10
140.4465509519
 20
84.9189849133
 10
140.4488589772
 20
84.8326184318
 10
140.4556137508
 20
84.7450185774
 10
140.4668152728
 20
84.6561853503
 10
140.4825493387
 20
84.5656987095
 10
140.502730153
 20
84.473978696
 10
140.527100329
 20
84.3822854323
 10
140.5557127224
 20
84.2906497738
 10
140.5885144775
 20
84.1990408652
 10
140.6250896398
 20
84.1086262634
 10
140.6654868265
 20
84.0194207751
 10
140.7096574203
 20
83.9314095937
 10
140.7570396154
 20
83.845715856
 10
140.8076759224
 20
83.7623674084
 10
140.8615238306
 20
83.6813364046
 10
140.9178940026
 20
83.6036624421
 10
140.9768185201
 20
83.529390046
 10
141.0382653014
 20
83.4584746911
 10
141.1014487637
 20
83.3918223996
 10
141.1664121367
 20
83.329477212
 10
141.2331121907
 20
83.2713950879
 10
141.3006336534
 20
83.2183499277
 10
141.3686714342
 20
83.1705996983
 10
141.4375306238
 20
83.1278864329
 10
141.5072112222
 20
83.0902101315
  0
LWPOLYLINE
  5
2BC
100
AcDbEntity
  8
RACCORDO
100
AcDbPolyline
 62
253
  6
CONTINUOUS
 90
25
 70
0
 10
140.4465509519
 20
110.3816564379
 10
140.4488591683
 20
110.295262411
 10
140.4556120233
 20
110.2076419602
 10
140.4668095168
 20
110.1187950854
 10
140.4825377965
 20
110.0283018532
 10
140.5027107148
 20
109.936582197
 10
140.5270698286
 20
109.8448959177
 10
140.5556677968
 20
109.753274296
 10
140.5884519604
 20
109.6616860511
 10
140.6250058997
 20
109.5712971418
 10
140.665377931
 20
109.4821226816
 10
140.709519738
 20
109.3941475569
 10
140.7568699516
 20
109.3084923859
 10
140.8074707601
 20
109.2251851252
 10
140.8612799753
 20
109.1441978182
 10
140.9176096637
 20
109.0665672136
 10
140.9764916597
 20
108.9923377052
 10
141.0378941289
 20
108.9214648992
 10
141.1010336345
 20
108.8548523627
 10
141.1659533478
 20
108.7925437773
 10
141.2326100975
 20
108.7344954615
 10
141.3000909325
 20
108.6814799384
 10
141.3680915358
 20
108.6337547156
 10
141.4369162243
 20
108.5910622855
 10
141.5065649982
 20
108.553402648
  0
LWPOLYLINE
  5
2BD
100
AcDbEntity
  8
RACCORDO
100
AcDbPolyline
 62
7
  6
CONTINUOUS
 90
22
 70
0
 10
140.3001131487
 20
110.558537803
 10
140.3009758752
 20
110.4981963256
 10
140.3090156565
 20
110.3622848947
 10
140.3252714817
 20
110.2255851606
 10
140.3494535439
 20
110.0886607497
 10
140.381269506
 20
109.9520155517
 10
140.4204447446
 20
109.816229282
 10
140.4666608379
 20
109.6819094831
 10
140.5196581552
 20
109.5495487003
 10
140.5791944129
 20
109.4196428614
 10
140.6449629284
 20
109.2927654705
 10
140.716712032
 20
109.1694417276
 10
140.7942497211
 20
109.0500826496
 10
140.8774192493
 20
108.9351023705
 10
140.9658739759
 20
108.8252334677
 10
141.059123671
 20
108.7212543535
 10
141.1570622147
 20
108.6235286356
 10
141.2592595376
 20
108.5327781861
 10
141.3647344473
 20
108.4500502881
 10
141.4729686005
 20
108.3758752384
 10
141.5838359829
 20
108.3104575651
 10
141.6366169432
 20
108.28292013
  0
LWPOLYLINE
  5
2BE
100
AcDbEntity
  8
RACCORDO
100
AcDbPolyline
 62
7
  6
CONTINUOUS
 90
22
 70
0
 10
140.3001131627
 20
85.0958556432
 10
140.3009478232
 20
85.0365420946
 10
140.3088595915
 20
84.9014292835
 10
140.3249524575
 20
84.765173286
 10
140.3490096815
 20
84.6282902909
 10
140.3807968002
 20
84.4913151422
 10
140.4200665633
 20
84.3549295345
 10
140.4665670481
 20
84.2196789317
 10
140.52005534
 20
84.0861482561
 10
140.5801768684
 20
83.9551572005
 10
140.6466267509
 20
83.8272625699
 10
140.7191290085
 20
83.7030280106
 10
140.7972400623
 20
83.5832205556
 10
140.8806402214
 20
83.4683572326
 10
140.9690265004
 20
83.3589674105
 10
141.0619329076
 20
83.2556971422
 10
141.1590349216
 20
83.1590353808
 10
141.2600557641
 20
83.0694314764
 10
141.3646837815
 20
82.9873563774
 10
141.472682643
 20
82.9132729176
 10
141.5837410305
 20
82.8476677025
 10
141.6372830461
 20
82.8197176759
  0
LWPOLYLINE
  5
2BF
100
AcDbEntity
  8
RACCORDO
100
AcDbPolyline
 62
253
  6
CONTINUOUS
 90
14
 70
0
 10
139.4676455373
 20
123.7383958961
 10
139.4678932738
 20
123.7153551769
 10
139.4689234623
 20
123.6856373209
 10
139.4707701594
 20
123.6549630722
 10
139.4734617853
 20
123.6233028707
 10
139.4770186838
 20
123.5906949854
 10
139.4814616464
 20
123.5571561438
 10
139.4868412958
 20
123.5226299653
 10
139.4931795322
 20
123.4871610955
 10
139.5005026291
 20
123.4507762337
 10
139.508896892
 20
123.4134035356
 10
139.5184189475
 20
123.3750552021
 10
139.5290714258
 20
123.3358211969
 10
139.5408688235
 20
123.2957571271
  0
LINE
  5
2C0
100
AcDbEntity
  8
RACCORDO
100
AcDbLine
 62
7
  6
CONTINUOUS
 10
139.4676455291
 20
83.4451016102
 11
139.4676455188
 21
85.1231722392
  0
LINE
  5
2C1
100
AcDbEntity
  8
RACCORDO
100
AcDbLine
 62
7
  6
CONTINUOUS
 10
139.4676455188
 20
123.7375243921
 11
139.4676455188
 21
125.4155590212
  0
LINE
  5
2C2
100
AcDbEntity
  8
RACCORDO
100
AcDbLine
 62
253
  6
CONTINUOUS
 10
139.5408688235
 20
125.3271706736
 11
139.5408688235
 21
123.2957571271
  0
LINE
  5
2C3
100
AcDbEntity
  8
RACCORDO
100
AcDbLine
 62
253
  6
CONTINUOUS
 10
139.5408688235
 20
85.3881628087
 11
139.5408688235
 21
83.3567492623
  0
LINE
  5
2C4
100
AcDbEntity
  8
RACCORDO
100
AcDbLine
 62
7
  6
CONTINUOUS
 10
140.3001043425
 20
120.3490238209
 11
140.3001043425
 21
110.5584331215
  0
LINE
  5
2C5
100
AcDbEntity
  8
RACCORDO
100
AcDbLine
 62
7
  6
CONTINUOUS
 10
140.3001043425
 20
94.8863522963
 11
140.3001043425
 21
85.0957616011
  0
LINE
  5
2C6
100
AcDbEntity
  8
RACCORDO
100
AcDbLine
 62
253
  6
CONTINUOUS
 10
140.4465509519
 20
120.1722471256
 11
140.4465509519
 21
110.3816564379
  0
LINE
  5
2C7
100
AcDbEntity
  8
RACCORDO
100
AcDbLine
 62
253
  6
CONTINUOUS
 10
140.4465509519
 20
94.709575601
 11
140.4465509519
 21
84.9189849133
  0
LWPOLYLINE
  5
2C8
100
AcDbEntity
  8
RACCORDO
100
AcDbPolyline
 62
253
  6
CONTINUOUS
 90
16
 70
0
 10
141.5072112222
 20
120.9403616372
 10
141.5091052244
 20
120.9860692701
 10
141.5147669544
 20
121.0331812646
 10
141.5241357692
 20
121.0811928616
 10
141.5371113073
 20
121.1295896625
 10
141.5535545623
 20
121.1778531317
 10
141.5732893689
 20
121.2254661523
 10
141.5961042973
 20
121.2719185839
 10
141.6217549127
 20
121.3167127134
 10
141.649966388
 20
121.359368581
 10
141.6804364641
 20
121.3994291505
 10
141.712838679
 20
121.4364651877
 10
141.7468258536
 20
121.4700798503
 10
141.7820338331
 20
121.4999129662
 10
141.8180853909
 20
121.5256448883
 10
141.8545942562
 20
121.5469999053
  0
LWPOLYLINE
  5
2C9
100
AcDbEntity
  8
RACCORDO
100
AcDbPolyline
 62
253
  6
CONTINUOUS
 90
17
 70
0
 10
153.767919364
 20
116.4577680735
 10
153.7899601375
 20
116.471348725
 10
153.8116733059
 20
116.4848956479
 10
153.8330116879
 20
116.4983688517
 10
153.8539293316
 20
116.5117971553
 10
153.8743986506
 20
116.5251626901
 10
153.8943798625
 20
116.5384334244
 10
153.9138138472
 20
116.5516187257
 10
153.9326756432
 20
116.5647111146
 10
153.9509282815
 20
116.5776815275
 10
153.9684952332
 20
116.5905112097
 10
153.9853535407
 20
116.6032123599
 10
154.0014666673
 20
116.615752394
 10
154.0167335058
 20
116.6280568338
 10
154.0310982617
 20
116.6401065234
 10
154.0445552979
 20
116.6519301089
 10
154.0570770384
 20
116.6635349437
  0
LINE
  5
2CA
100
AcDbEntity
  8
RACCORDO
100
AcDbLine
 62
253
  6
CONTINUOUS
 10
153.7229748476
 20
116.4305293129
 11
153.767919364
 21
116.4577680735
  0
LWPOLYLINE
  5
2CB
100
AcDbEntity
  8
RACCORDO
100
AcDbPolyline
 62
253
  6
CONTINUOUS
 90
3
 70
0
 10
153.6540256482
 20
116.3895633797
 10
153.6771642335
 20
116.4032415801
 10
153.7229748476
 20
116.4305293129
  0
LWPOLYLINE
  5
2CC
100
AcDbEntity
  8
RACCORDO
100
AcDbPolyline
 62
253
  6
CONTINUOUS
 90
16
 70
0
 10
154.3963816255
 20
116.6483305112
 10
154.3603986812
 20
116.6273162905
 10
154.3247078778
 20
116.601933489
 10
154.2896915697
 20
116.5723968562
 10
154.2556875867
 20
116.5389228574
 10
154.2231251905
 20
116.5018628174
 10
154.1924968951
 20
116.4617448395
 10
154.1641729593
 20
116.4190655446
 10
154.1384119751
 20
116.3742271543
 10
154.1154841487
 20
116.3276959509
 10
154.095635305
 20
116.2799599633
 10
154.0790886036
 20
116.2315433216
 10
154.066030391
 20
116.1829855015
 10
154.0566024634
 20
116.134816039
 10
154.0509047051
 20
116.0875483937
 10
154.0489985924
 20
116.0416922427
  0
LINE
  5
2CD
100
AcDbEntity
  8
RACCORDO
100
AcDbLine
 62
253
  6
CONTINUOUS
 10
155.3317187304
 20
116.3317961228
 11
154.7498811682
 21
116.0386339879
  0
LINE
  5
2CE
100
AcDbEntity
  8
RACCORDO
100
AcDbLine
 62
253
  6
CONTINUOUS
 10
156.0264829168
 20
116.6764042811
 11
155.3317187304
 21
116.3317961228
  0
LWPOLYLINE
  5
2CF
100
AcDbEntity
  8
RACCORDO
100
AcDbPolyline
 62
253
  6
CONTINUOUS
 90
16
 70
0
 10
149.9229218889
 20
89.9713901325
 10
149.9609111109
 20
89.9542472242
 10
150.0022059043
 20
89.9391355502
 10
150.0463737346
 20
89.9262134179
 10
150.0929519711
 20
89.9156162006
 10
150.1414527212
 20
89.9074549216
 10
150.1913679385
 20
89.901815089
 10
150.24217477
 20
89.8987557964
 10
150.2933410104
 20
89.8983091069
 10
150.3443306643
 20
89.9004797147
 10
150.394609607
 20
89.9052448955
 10
150.4436511491
 20
89.9125547459
 10
150.4909415333
 20
89.9223326994
 10
150.5359853654
 20
89.9344763342
 10
150.578310801
 20
89.9488584514
 10
150.6174744595
 20
89.9653284008
  0
LWPOLYLINE
  5
2D0
100
AcDbEntity
  8
RACCORDO
100
AcDbPolyline
 62
253
  6
CONTINUOUS
 90
25
 70
0
 10
141.5065649982
 20
95.4778153446
 10
141.436966896
 20
95.5097874195
 10
141.368181939
 20
95.5359093736
 10
141.3002101271
 20
95.5561812068
 10
141.2327437557
 20
95.5706512625
 10
141.1660905294
 20
95.5792711974
 10
141.1011735624
 20
95.5818959812
 10
141.0380398931
 20
95.578437601
 10
140.9766424831
 20
95.5689840697
 10
140.9177633309
 20
95.5536543961
 10
140.8614345018
 20
95.5323733724
 10
140.8076239305
 20
95.5052162064
 10
140.7570174201
 20
95.4725275303
 10
140.7096550201
 20
95.4342356496
 10
140.6654966809
 20
95.3904122589
 10
140.6251080567
 20
95.341617074
 10
140.5885383911
 20
95.2877864842
 10
140.5557384404
 20
95.2289841003
 10
140.5271261274
 20
95.1659604711
 10
140.5027547424
 20
95.0986360776
 10
140.4825709951
 20
95.0270904389
 10
140.4668329373
 20
94.9523126613
 10
140.4556265861
 20
94.8746324468
 10
140.4488659243
 20
94.7937200934
 10
140.4465509519
 20
94.709575601
  0
LINE
  5
2D1
100
AcDbEntity
  8
RACCORDO
100
AcDbLine
 62
7
  6
CONTINUOUS
 10
161.3480298983
 20
84.6598341
 11
160.9914045567
 21
84.8381467708
  0
LINE
  5
2D2
100
AcDbEntity
  8
DRAFT
100
AcDbLine
 62
7
  6
CONTINUOUS
 10
156.0264829168
 20
88.0567291839
 11
158.4121023301
 21
86.8639194773
  0
LINE
  5
2D3
100
AcDbEntity
  8
RACCORDO
100
AcDbLine
 62
253
  6
CONTINUOUS
 10
148.8629078426
 20
91.7996439224
 11
141.5065649982
 21
95.4778153446
  0
LWPOLYLINE
  5
2D4
100
AcDbEntity
  8
RACCORDO
100
AcDbPolyline
 62
253
  6
CONTINUOUS
 90
9
 70
0
 10
140.4465509519
 20
94.709575601
 10
140.4122646608
 20
94.7285704997
 10
140.3820410283
 20
94.7492181783
 10
140.3561966499
 20
94.7713023501
 10
140.3350022481
 20
94.7945916814
 10
140.3186798363
 20
94.8188422141
 10
140.3074003933
 20
94.8437999215
 10
140.3012820724
 20
94.8692033692
 10
140.3001043458
 20
94.8863236637
  0
LWPOLYLINE
  5
2D5
100
AcDbEntity
  8
RACCORDO
100
AcDbPolyline
 62
253
  6
CONTINUOUS
 90
13
 70
0
 10
141.5623930811
 20
123.0610987901
 10
141.5639088304
 20
123.0380417061
 10
141.5677749117
 20
123.0141486568
 10
141.5739251958
 20
122.9898283052
 10
141.5822544868
 20
122.9654966178
 10
141.5926203177
 20
122.9415697605
 10
141.6048453852
 20
122.9184569794
 10
141.6187205883
 20
122.8965535877
 10
141.634008607
 20
122.876234206
 10
141.6504479565
 20
122.8578463639
 10
141.6677574617
 20
122.8417045526
 10
141.6856410668
 20
122.8280848462
 10
141.7037928982
 20
122.8172201808
  0
LWPOLYLINE
  5
2D6
100
AcDbEntity
  8
RACCORDO
100
AcDbPolyline
 62
253
  6
CONTINUOUS
 90
10
 70
0
 10
141.5065649982
 20
108.553402648
 10
141.5084167514
 20
108.5100686402
 10
141.5139526136
 20
108.4690403135
 10
141.5231145963
 20
108.4307474437
 10
141.5358067267
 20
108.3955911524
 10
141.5518960534
 20
108.3639397051
 10
141.5712140394
 20
108.3361246539
 10
141.5935583266
 20
108.3124373642
 10
141.6186948566
 20
108.2931259626
 10
141.636511591
 20
108.2829657478
  0
LINE
  5
2D7
100
AcDbEntity
  8
RACCORDO
100
AcDbLine
 62
253
  6
CONTINUOUS
 10
141.2119554459
 20
83.112095705
 11
141.2119517932
 21
82.5212077774
  0
LINE
  5
2D8
100
AcDbEntity
  8
RACCORDO
100
AcDbLine
 62
253
  6
CONTINUOUS
 10
141.2119517932
 20
124.4916291887
 11
141.2119788406
 21
123.0559023108
  0
LINE
  5
2D9
100
AcDbEntity
  8
RACCORDO
100
AcDbLine
 62
253
  6
CONTINUOUS
 10
141.5623930811
 20
124.4901000613
 11
141.5623740081
 21
123.0610891801
  0
LINE
  5
2DA
100
AcDbEntity
  8
RACCORDO
100
AcDbLine
 62
253
  6
CONTINUOUS
 10
141.5623930811
 20
82.8602785178
 11
141.5623930811
 21
82.51967865
  0
LINE
  5
2DB
100
AcDbEntity
  8
RACCORDO
100
AcDbLine
 62
7
  6
CONTINUOUS
 10
142.3209539566
 20
123.4433039625
 11
142.3209539566
 21
124.8723052336
  0
LINE
  5
2DC
100
AcDbEntity
  8
RACCORDO
100
AcDbLine
 62
253
  6
CONTINUOUS
 10
142.8450584231
 20
125.1322649128
 11
142.8450584231
 21
124.7923213179
  0
LINE
  5
2DD
100
AcDbEntity
  8
RACCORDO
100
AcDbLine
 62
7
  6
CONTINUOUS
 10
142.9152234731
 20
125.2190972091
 11
142.9152234731
 21
124.8791536143
  0
LINE
  5
2DE
100
AcDbEntity
  8
RACCORDO
100
AcDbLine
 62
7
  6
CONTINUOUS
 10
142.9145590161
 20
124.8609393367
 11
142.9152233501
 21
124.879277598
  0
LWPOLYLINE
  5
2DF
100
AcDbEntity
  8
RACCORDO
100
AcDbPolyline
 62
253
  6
CONTINUOUS
 90
9
 70
0
 10
142.9152234678
 20
125.2190715389
 10
142.9150289869
 20
125.2141675729
 10
142.9126396761
 20
125.2011722092
 10
142.9075772255
 20
125.1884188019
 10
142.8999063162
 20
125.1760159976
 10
142.8897009871
 20
125.1640748371
 10
142.8770611865
 20
125.1527180272
 10
142.8621270644
 20
125.1420761475
 10
142.8450584231
 20
125.1322649128
  0
LWPOLYLINE
  5
2E0
100
AcDbEntity
  8
RACCORDO
100
AcDbPolyline
 62
253
  6
CONTINUOUS
 90
16
 70
0
 10
141.5065649982
 20
95.4778153446
 10
141.5084166952
 20
95.523000441
 10
141.5139524129
 20
95.5695640439
 10
141.5231141917
 20
95.6170184148
 10
141.5358060894
 20
95.6648664831
 10
141.551895183
 20
95.7126070396
 10
141.5712129576
 20
95.7597399879
 10
141.5935570802
 20
95.8057716059
 10
141.6186935113
 20
95.850219697
 10
141.6463589472
 20
95.8926186313
 10
141.6762636016
 20
95.9325242639
 10
141.7080942262
 20
95.9695185595
 10
141.7415173754
 20
96.0032139593
 10
141.7761829306
 20
96.0332574788
 10
141.8117277705
 20
96.0593343991
 10
141.8477795547
 20
96.0811715438
  0
LWPOLYLINE
  5
2E1
100
AcDbEntity
  8
RACCORDO
100
AcDbPolyline
 62
253
  6
CONTINUOUS
 90
9
 70
0
 10
142.915223473
 20
124.8791565945
 10
142.9150053196
 20
124.8739327632
 10
142.9125787498
 20
124.8610196196
 10
142.9074951387
 20
124.8483135429
 10
142.8998112564
 20
124.8359431644
 10
142.8896057694
 20
124.8240342322
 10
142.8769840567
 20
124.8127129354
 10
142.8620819921
 20
124.8021037546
 10
142.8450584231
 20
124.7923213179
  0
LWPOLYLINE
  5
2E2
100
AcDbEntity
  8
RACCORDO
100
AcDbPolyline
 62
253
  6
CONTINUOUS
 90
10
 70
0
 10
141.5623930811
 20
82.51967865
 10
141.5611141404
 20
82.4973894099
 10
141.5579472345
 20
82.476329052
 10
141.5529270463
 20
82.4567282298
 10
141.5461085545
 20
82.438801609
 10
141.537566435
 20
82.4227455267
 10
141.5273942465
 20
82.4087358373
 10
141.5157033981
 20
82.3969259737
 10
141.5026219282
 20
82.3874452729
 10
141.493548166
 20
82.3826317331
  0
LWPOLYLINE
  5
2E3
100
AcDbEntity
  8
RACCORDO
100
AcDbPolyline
 62
253
  6
CONTINUOUS
 90
7
 70
0
 10
153.8660510737
 20
116.8704474824
 10
153.8947487073
 20
116.8967551894
 10
153.9237488416
 20
116.9210641702
 10
153.9530514767
 20
116.9433744248
 10
153.9826566127
 20
116.9636859532
 10
154.0125642494
 20
116.9819987553
 10
154.042774387
 20
116.9983128312
  0
LWPOLYLINE
  5
2E4
100
AcDbEntity
  8
RACCORDO
100
AcDbPolyline
 62
253
  6
CONTINUOUS
 90
7
 70
0
 10
154.0570770384
 20
116.6635349437
 10
154.0775693691
 20
116.6821521679
 10
154.0984365284
 20
116.6994529819
 10
154.1196034532
 20
116.7153797202
 10
154.140994552
 20
116.729880087
 10
154.1625339847
 20
116.7429072925
 10
154.18414594
 20
116.7544201682
  0
LINE
  5
2E5
100
AcDbEntity
  8
ASSI
100
AcDbLine
 62
253
  6
CONTINUOUS
 10
155.3670740695
 20
112.5035407267
 11
156.0741808507
 21
112.8570941173
  0
LWPOLYLINE
  5
2E6
100
AcDbEntity
  8
RACCORDO
100
AcDbPolyline
 62
253
  6
CONTINUOUS
 90
12
 70
0
 10
141.8477795534
 20
96.0811715445
 10
141.7545450106
 20
96.1232843898
 10
141.6617554621
 20
96.1578185327
 10
141.5698165976
 20
96.1846325494
 10
141.4791364646
 20
96.2036213818
 10
141.3901031617
 20
96.2147055562
 10
141.3030832172
 20
96.2178312404
 10
141.218451962
 20
96.2129879361
 10
141.1365780901
 20
96.2002015852
 10
141.0578017318
 20
96.1795225831
 10
140.9824599704
 20
96.1510401231
 10
140.9086836208
 20
96.1136138624
  0
LINE
  5
2E7
100
AcDbEntity
  8
RACCORDO
100
AcDbLine
 62
253
  6
CONTINUOUS
 10
149.2041223978
 20
92.4030001222
 11
141.8477795534
 21
96.0811715445
  0
LINE
  5
2E8
100
AcDbEntity
  8
RACCORDO
100
AcDbLine
 62
7
  6
CONTINUOUS
 10
150.2414114066
 20
92.9295108499
 11
142.8150672027
 21
96.6426829518
  0
LWPOLYLINE
  5
2E9
100
AcDbEntity
  8
RACCORDO
100
AcDbPolyline
 62
7
  6
CONTINUOUS
 90
13
 70
0
 10
142.3209539566
 20
124.8723052336
 10
142.3194494355
 20
124.9013210285
 10
142.3149378979
 20
124.9313475343
 10
142.3075017612
 20
124.9618740512
 10
142.2972740959
 20
124.9923818852
 10
142.2844309276
 20
125.0223495632
 10
142.2691884124
 20
125.0512617969
 10
142.2518041371
 20
125.0786224528
 10
142.2325786048
 20
125.1039651017
 10
142.2118449827
 20
125.1268575892
 10
142.189956957
 20
125.1469077712
 10
142.167282577
 20
125.1637700373
 10
142.1442041852
 20
125.1771534953
  0
LWPOLYLINE
  5
2EA
100
AcDbEntity
  8
RACCORDO
100
AcDbPolyline
 62
7
  6
CONTINUOUS
 90
10
 70
0
 10
144.0533655705
 20
81.5255520724
 10
144.0544083919
 20
81.5031761223
 10
144.057260719
 20
81.4824207326
 10
144.0619225518
 20
81.4632859033
 10
144.0684829656
 20
81.4456006689
 10
144.0768528852
 20
81.4295359949
 10
144.0867650842
 20
81.4156047776
 10
144.0982693328
 20
81.4038758644
 10
144.1113158609
 20
81.3942804079
 10
144.1184105655
 20
81.3903163108
  0
LWPOLYLINE
  5
2EB
100
AcDbEntity
  8
RACCORDO
100
AcDbPolyline
 62
253
  6
CONTINUOUS
 90
12
 70
0
 10
144.5129849783
 20
104.6521808132
 10
144.5155575445
 20
104.579661203
 10
144.5232565243
 20
104.5102418345
 10
144.5360258976
 20
104.4444278252
 10
144.5537727502
 20
104.3826980584
 10
144.5763679506
 20
104.3255016996
 10
144.6036470888
 20
104.2732549275
 10
144.6354116733
 20
104.226337906
 10
144.6714305749
 20
104.1850920184
 10
144.7114417086
 20
104.1498173827
 10
144.7551539409
 20
104.1207706683
 10
144.7726292452
 20
104.1114315877
  0
LWPOLYLINE
  5
2EC
100
AcDbEntity
  8
RACCORDO
100
AcDbPolyline
 62
7
  6
CONTINUOUS
 90
12
 70
0
 10
142.9152234678
 20
125.2190715389
 10
142.9151631911
 20
125.2245864877
 10
142.9131584472
 20
125.2511635251
 10
142.9083525937
 20
125.2773056581
 10
142.9007966462
 20
125.3027947386
 10
142.8904889888
 20
125.3275197502
 10
142.8775319841
 20
125.3511013405
 10
142.8620599188
 20
125.3732251062
 10
142.8440734755
 20
125.3937759903
 10
142.823694059
 20
125.4124543573
 10
142.801238972
 20
125.428858135
 10
142.7770268719
 20
125.4427040069
  0
LINE
  5
2ED
100
AcDbEntity
  8
RACCORDO
100
AcDbLine
 62
7
  6
CONTINUOUS
 10
143.389636204
 20
122.9777357997
 11
143.389636204
 21
121.7968938339
  0
LINE
  5
2EE
100
AcDbEntity
  8
RACCORDO
100
AcDbLine
 62
7
  6
CONTINUOUS
 10
143.389636204
 20
81.9435340368
 11
143.389636204
 21
81.8574167557
  0
LINE
  5
2EF
100
AcDbEntity
  8
RACCORDO
100
AcDbLine
 62
7
  6
CONTINUOUS
 10
144.0533655705
 20
81.6116693535
 11
144.0533655705
 21
81.5255520724
  0
LINE
  5
2F0
100
AcDbEntity
  8
RACCORDO
100
AcDbLine
 62
7
  6
CONTINUOUS
 10
144.0533655705
 20
121.4650291506
 11
144.0533655705
 21
122.6458711164
  0
LINE
  5
2F1
100
AcDbEntity
  8
RACCORDO
100
AcDbLine
 62
7
  6
CONTINUOUS
 10
144.6190509954
 20
122.9347599803
 11
144.6190509954
 21
121.7599650868
  0
LWPOLYLINE
  5
2F2
100
AcDbEntity
  8
RACCORDO
100
AcDbPolyline
 62
253
  6
CONTINUOUS
 90
19
 70
0
 10
144.5129849783
 20
99.0596229678
 10
144.5155575896
 20
99.1347158106
 10
144.5232566914
 20
99.2118347621
 10
144.5360262436
 20
99.2904186657
 10
144.5537733107
 20
99.3698957061
 10
144.5763687409
 20
99.4496875776
 10
144.6036481072
 20
99.5292136924
 10
144.6354128992
 20
99.6078953899
 10
144.6714319715
 20
99.685160161
 10
144.7114432312
 20
99.7604458203
 10
144.7551555321
 20
99.8332045709
 10
144.8022508015
 20
99.9029070077
 10
144.8523863634
 20
99.9690459803
 10
144.9051974111
 20
100.0311402505
 10
144.960299673
 20
100.0887380142
 10
145.0172922225
 20
100.1414201994
 10
145.075760371
 20
100.1888034884
 10
145.1352786835
 20
100.2305431109
 10
145.1954140896
 20
100.2663353671
  0
LWPOLYLINE
  5
2F3
100
AcDbEntity
  8
RACCORDO
100
AcDbPolyline
 62
7
  6
CONTINUOUS
 90
16
 70
0
 10
144.6190509954
 20
122.9347599803
 10
144.6200938169
 20
122.9581787518
 10
144.622946144
 20
122.9817864686
 10
144.6276079768
 20
123.0055831307
 10
144.6341683906
 20
123.0298287789
 10
144.6425383101
 20
123.0542633724
 10
144.6524505092
 20
123.0781067888
 10
144.6639547577
 20
123.1013399505
 10
144.6770012858
 20
123.1239819351
 10
144.6911735574
 20
123.1453098528
 10
144.7065079007
 20
123.1652812979
 10
144.7229679875
 20
123.1839386761
 10
144.7400282971
 20
123.2006863139
 10
144.7575136561
 20
123.2153256533
 10
144.7755992379
 20
123.2280552523
 10
144.7942850426
 20
123.2388751109
  0
LWPOLYLINE
  5
2F4
100
AcDbEntity
  8
RACCORDO
100
AcDbPolyline
 62
253
  6
CONTINUOUS
 90
7
 70
0
 10
151.5816175489
 20
117.7009031812
 10
151.5913896443
 20
117.7222863913
 10
151.6051496479
 20
117.7429949224
 10
151.6228975597
 20
117.7630287747
 10
151.6446333796
 20
117.782387948
 10
151.6703571078
 20
117.8010724423
 10
151.7000687442
 20
117.8190822578
  0
LWPOLYLINE
  5
2F5
100
AcDbEntity
  8
RACCORDO
100
AcDbPolyline
 62
7
  6
CONTINUOUS
 90
3
 70
0
 10
155.1835713994
 20
118.5992299951
 10
155.1669955928
 20
118.5748426006
 10
155.1633612321
 20
118.5702336078
  0
LINE
  5
2F6
100
AcDbEntity
  8
RACCORDO
100
AcDbLine
 62
253
  6
CONTINUOUS
 10
153.8010789038
 20
116.7827807267
 11
153.8246241696
 21
116.814805889
  0
LWPOLYLINE
  5
2F7
100
AcDbEntity
  8
RACCORDO
100
AcDbPolyline
 62
253
  6
CONTINUOUS
 90
3
 70
0
 10
153.8246241696
 20
116.814805889
 10
153.8564635306
 20
116.8576364611
 10
153.8660510737
 20
116.8704474824
  0
LINE
  5
2F8
100
AcDbEntity
  8
RACCORDO
100
AcDbLine
 62
253
  6
CONTINUOUS
 10
155.1633612321
 20
118.5702336078
 11
155.1633261677
 21
118.5701900964
  0
LINE
  5
2F9
100
AcDbEntity
  8
RACCORDO
100
AcDbLine
 62
253
  6
CONTINUOUS
 10
154.6246119492
 20
117.9919477395
 11
155.1487164158
 21
118.6404923216
  0
LINE
  5
2FA
100
AcDbEntity
  8
RACCORDO
100
AcDbLine
 62
7
  6
CONTINUOUS
 10
154.6246119492
 20
117.9035669134
 11
155.1633257198
 21
118.5701895421
  0
LINE
  5
2FB
100
AcDbEntity
  8
RACCORDO
100
AcDbLine
 62
7
  6
CONTINUOUS
 10
156.0264829168
 20
114.6071778547
 11
160.9411011412
 21
119.2831003946
  0
LINE
  5
2FC
100
AcDbEntity
  8
RACCORDO
100
AcDbLine
 62
253
  6
CONTINUOUS
 10
160.9914045567
 20
119.4289602806
 11
156.0264829168
 21
114.7268897841
  0
LWPOLYLINE
  5
2FD
100
AcDbEntity
  8
RACCORDO
100
AcDbPolyline
 62
253
  6
CONTINUOUS
 90
7
 70
0
 10
161.4158584569
 20
120.8980819637
 10
161.4415525864
 20
120.9207119988
 10
161.4624028434
 20
120.9445549285
 10
161.4781832906
 20
120.9693524327
 10
161.4887229177
 20
120.994835855
 10
161.493907485
 20
121.0207290983
 10
161.4944765077
 20
121.0326527225
  0
LINE
  5
2FE
100
AcDbEntity
  8
ASSI
100
AcDbLine
 62
253
  6
CONTINUOUS
 10
155.3670740695
 20
111.6375153229
 11
156.0741808507
 21
111.9910687135
  0
LWPOLYLINE
  5
2FF
100
AcDbEntity
  8
RACCORDO
100
AcDbPolyline
 62
253
  6
CONTINUOUS
 90
6
 70
0
 10
155.1451483933
 20
77.5640385053
 10
155.1344260042
 20
77.5848737263
 10
155.1219181813
 20
77.6039869612
 10
155.107778766
 20
77.621160911
 10
155.0921739598
 20
77.6362165894
 10
155.0752750708
 20
77.6490093691
  0
LINE
  5
300
100
AcDbEntity
  8
RACCORDO
100
AcDbLine
 62
253
  6
CONTINUOUS
 10
146.2069286764
 20
122.1408211398
 11
146.2069286764
 21
120.9660262464
  0
LINE
  5
301
100
AcDbEntity
  8
RACCORDO
100
AcDbLine
 62
253
  6
CONTINUOUS
 10
146.5573699643
 20
122.1392920124
 11
146.5573699643
 21
120.9682102964
  0
LWPOLYLINE
  5
302
100
AcDbEntity
  8
RACCORDO
100
AcDbPolyline
 62
7
  6
CONTINUOUS
 90
10
 70
0
 10
147.9076974781
 20
121.3422134342
 10
147.9097351675
 20
121.3740635011
 10
147.9158986374
 20
121.4057205176
 10
147.9261806795
 20
121.4365530969
 10
147.9404794184
 20
121.4659724724
 10
147.9585447379
 20
121.4933365012
 10
147.979995621
 20
121.5180601003
 10
148.0046026664
 20
121.5398544034
 10
148.0318565658
 20
121.5582320992
 10
148.0408518347
 20
121.5632272246
  0
LINE
  5
303
100
AcDbEntity
  8
RACCORDO
100
AcDbLine
 62
7
  6
CONTINUOUS
 10
144.2301256037
 20
104.2062739644
 11
144.2317589967
 21
104.2070044838
  0
LWPOLYLINE
  5
304
100
AcDbEntity
  8
RACCORDO
100
AcDbPolyline
 62
7
  6
CONTINUOUS
 90
13
 70
0
 10
144.2301215326
 20
104.2062625866
 10
144.235342276
 20
104.20856126
 10
144.2604105896
 20
104.2174807553
 10
144.2903429319
 20
104.2243891964
 10
144.3255374352
 20
104.2286614678
 10
144.3665288325
 20
104.2296887128
 10
144.4141708566
 20
104.2266907532
 10
144.4685662798
 20
104.2188016647
 10
144.5288094643
 20
104.2054037838
 10
144.594181476
 20
104.1860476743
 10
144.6640709792
 20
104.1604025576
 10
144.7377588744
 20
104.1283133846
 10
144.7726257491
 20
104.1114245954
  0
LINE
  5
305
100
AcDbEntity
  8
RACCORDO
100
AcDbLine
 62
253
  6
CONTINUOUS
 10
148.543493631
 20
97.0443686414
 11
144.5129849783
 21
99.0596229678
  0
LINE
  5
306
100
AcDbEntity
  8
RACCORDO
100
AcDbLine
 62
253
  6
CONTINUOUS
 10
149.2259227414
 20
98.2510810411
 11
145.1954140887
 21
100.2663353675
  0
LWPOLYLINE
  5
307
100
AcDbEntity
  8
RACCORDO
100
AcDbPolyline
 62
253
  6
CONTINUOUS
 90
49
 70
0
 10
144.5129849783
 20
99.0596229678
 10
144.3641172841
 20
99.1399386372
 10
144.216662642
 20
99.2313277487
 10
144.0706210521
 20
99.3337903022
 10
143.9251787295
 20
99.4479913265
 10
143.781149459
 20
99.5732657929
 10
143.640974595
 20
99.7076186155
 10
143.504957489
 20
99.8509858096
 10
143.3727947894
 20
100.0034313599
 10
143.2460177953
 20
100.1631521344
 10
143.1246302708
 20
100.330304699
 10
143.0086284517
 20
100.5047324878
 10
142.8995323451
 20
100.6841626715
 10
142.7974458292
 20
100.8686401646
 10
142.7022650257
 20
101.0581200527
 10
142.6151983068
 20
101.2501947632
 10
142.5363464495
 20
101.444903085
 10
142.4656086768
 20
101.6422062294
 10
142.4038910306
 20
101.8395802577
 10
142.3513098532
 20
102.0370257363
 10
142.3077488023
 20
102.2345420989
 10
142.2737648922
 20
102.4296037078
 10
142.2494813685
 20
102.6221785076
 10
142.2347749857
 20
102.8122985536
 10
142.229833022
 20
102.9975343743
 10
142.2347808448
 20
103.1778229331
 10
142.2494930867
 20
103.3532272664
 10
142.2737809239
 20
103.5215070124
 10
142.3077670609
 20
103.6825704475
 10
142.3513287931
 20
103.8365092952
 10
142.4039091829
 20
103.9813583642
 10
142.4656244971
 20
104.1170017491
 10
142.5363584689
 20
104.2435553553
 10
142.6152053603
 20
104.3594017083
 10
142.7022658844
 20
104.4644012735
 10
142.7974393282
 20
104.5586935855
 10
142.8995178144
 20
104.6410797739
 10
143.0086051742
 20
104.7114113062
 10
143.1245975764
 20
104.7698367149
 10
143.2459756502
 20
104.8156027272
 10
143.3727446029
 20
104.8485484226
 10
143.5048992272
 20
104.8688347216
 10
143.64090453
 20
104.8761911129
 10
143.7810542406
 20
104.870382225
 10
143.9250546298
 20
104.8516434293
 10
144.0704895163
 20
104.8204103299
 10
144.2165535063
 20
104.7768281281
 10
144.3640519936
 20
104.7207516225
 10
144.5129849783
 20
104.6521808132
  0
LWPOLYLINE
  5
308
100
AcDbEntity
  8
RACCORDO
100
AcDbPolyline
 62
253
  6
CONTINUOUS
 90
39
 70
0
 10
145.1954140887
 20
100.2663353675
 10
145.0930103086
 20
100.3216149378
 10
144.9908021135
 20
100.3849729552
 10
144.8892277858
 20
100.4561951309
 10
144.7886217253
 20
100.5351184164
 10
144.6895354134
 20
100.6213826853
 10
144.5927145499
 20
100.7143572651
 10
144.4987026652
 20
100.8134777278
 10
144.4077547613
 20
100.9184317261
 10
144.3201557545
 20
101.0288814605
 10
144.2362445634
 20
101.1444133203
 10
144.1564254891
 20
101.2644849109
 10
144.0810651416
 20
101.3885475239
 10
144.0104940553
 20
101.5160529284
 10
143.9450043094
 20
101.6464690715
 10
143.8848714223
 20
101.7792464125
 10
143.8303517405
 20
101.9138201428
 10
143.7816809999
 20
102.0496097212
 10
143.7390686779
 20
102.1860309901
 10
143.702697553
 20
102.3224983974
 10
143.6727231084
 20
102.4584280979
 10
143.6492736499
 20
102.5932381494
 10
143.6324496584
 20
102.7263510747
 10
143.6223232887
 20
102.8571962339
 10
143.6189379521
 20
102.9852128131
 10
143.6223081562
 20
103.1098522395
 10
143.63241946
 20
103.2305803995
 10
143.6492285148
 20
103.3468798334
 10
143.6726632243
 20
103.4582519966
 10
143.7026231709
 20
103.564219862
 10
143.7389801203
 20
103.664329769
 10
143.7815786703
 20
103.7581533255
 10
143.8302360932
 20
103.8452876545
 10
143.8847429279
 20
103.9253579457
 10
143.9448634394
 20
103.9980192899
 10
144.010341361
 20
104.0629632242
 10
144.0809013137
 20
104.1199157313
 10
144.1562512616
 20
104.1686367231
 10
144.2301256037
 20
104.2062739644
  0
LWPOLYLINE
  5
309
100
AcDbEntity
  8
RACCORDO
100
AcDbPolyline
 62
7
  6
CONTINUOUS
 90
13
 70
0
 10
146.740371339
 20
122.2295755963
 10
146.7388607162
 20
122.2585914618
 10
146.734348711
 20
122.2886216135
 10
146.7269145587
 20
122.3191533108
 10
146.7166854467
 20
122.3496644129
 10
146.7038373823
 20
122.3796332413
 10
146.6885923315
 20
122.4085475523
 10
146.6712063975
 20
122.4359103336
 10
146.6519769737
 20
122.4612535119
 10
146.6312409313
 20
122.4841470503
 10
146.6093523234
 20
122.5041990284
 10
146.5866763158
 20
122.5210622657
 10
146.5635946427
 20
122.5344455647
  0
LWPOLYLINE
  5
30A
100
AcDbEntity
  8
RACCORDO
100
AcDbPolyline
 62
253
  6
CONTINUOUS
 90
16
 70
0
 10
146.5573699643
 20
122.1392920124
 10
146.5562547963
 20
122.1623333367
 10
146.553249507
 20
122.1861072281
 10
146.5483870165
 20
122.2103532654
 10
146.541720589
 20
122.2348058554
 10
146.533323249
 20
122.2591971423
 10
146.5232869819
 20
122.2832599418
 10
146.5117217257
 20
122.306730668
 10
146.4987541672
 20
122.3293522204
 10
146.4845263543
 20
122.3508768006
 10
146.4691941396
 20
122.3710686266
 10
146.4529254735
 20
122.3897065152
 10
146.4358985644
 20
122.4065863054
 10
146.4182999265
 20
122.4215230946
 10
146.4003223369
 20
122.4343532639
 10
146.3821627236
 20
122.4449362704
  0
LWPOLYLINE
  5
30B
100
AcDbEntity
  8
RACCORDO
100
AcDbPolyline
 62
253
  6
CONTINUOUS
 90
10
 70
0
 10
148.8622616186
 20
79.4126849333
 10
148.8641556249
 20
79.3688713046
 10
148.8698173585
 20
79.3274210419
 10
148.8791861761
 20
79.288778261
 10
148.8921617166
 20
79.2533569995
 10
148.9086049733
 20
79.2215367861
 10
148.928339781
 20
79.1936585727
 10
148.9511547098
 20
79.1700210696
 10
148.976805325
 20
79.1508775555
 10
148.9922082014
 20
79.1422480381
  0
LINE
  5
30C
100
AcDbEntity
  8
RACCORDO
100
AcDbLine
 62
7
  6
CONTINUOUS
 10
146.740371339
 20
121.0604165705
 11
146.740371339
 21
122.2295755963
  0
LINE
  5
30D
100
AcDbEntity
  8
RACCORDO
100
AcDbLine
 62
7
  6
CONTINUOUS
 10
147.4351355254
 20
122.5817425951
 11
147.4351355254
 21
121.4050247288
  0
LINE
  5
30E
100
AcDbEntity
  8
RACCORDO
100
AcDbLine
 62
7
  6
CONTINUOUS
 10
147.9076974781
 20
120.1685292726
 11
147.9076974781
 21
121.3422134342
  0
LINE
  5
30F
100
AcDbEntity
  8
RACCORDO
100
AcDbLine
 62
253
  6
CONTINUOUS
 10
147.9809207828
 20
120.0790301931
 11
147.9809207828
 21
121.2538250866
  0
LWPOLYLINE
  5
310
100
AcDbEntity
  8
RACCORDO
100
AcDbPolyline
 62
253
  6
CONTINUOUS
 90
16
 70
0
 10
147.9809207828
 20
121.2538250866
 10
147.9818374231
 20
121.2763029795
 10
147.9845971243
 20
121.2995882075
 10
147.9891997532
 20
121.3234456763
 10
147.9956296513
 20
121.3476435554
 10
148.0038430743
 20
121.3719081515
 10
148.0137568268
 20
121.3959277668
 10
148.0252900871
 20
121.4194580715
 10
148.0383221014
 20
121.442210683
 10
148.0526511752
 20
121.4638250333
 10
148.0680786394
 20
121.4840258132
 10
148.0844606545
 20
121.5026471766
 10
148.1016462187
 20
121.5195226152
 10
148.1194592436
 20
121.5344749124
 10
148.1376951927
 20
121.5473282204
 10
148.15615483
 20
121.5579402172
  0
LWPOLYLINE
  5
311
100
AcDbEntity
  8
RACCORDO
100
AcDbPolyline
 62
253
  6
CONTINUOUS
 90
16
 70
0
 10
148.8622616186
 20
117.2628364389
 10
148.8641556584
 20
117.3085445075
 10
148.8698174844
 20
117.3556568856
 10
148.8791864341
 20
117.4036687966
 10
148.8921621257
 20
117.4520658264
 10
148.9086055337
 20
117.5003294342
 10
148.9283404783
 20
117.5479425089
 10
148.9511555132
 20
117.5943949094
 10
148.9768061912
 20
117.6391889305
 10
149.0050176831
 20
117.6818446352
 10
149.0354877223
 20
117.7219049973
 10
149.0678898433
 20
117.7589407977
 10
149.10187688
 20
117.7925552235
 10
149.1370846848
 20
117.8223881194
 10
149.1731360304
 20
117.8481198466
 10
149.2096446518
 20
117.8694747075
  0
LWPOLYLINE
  5
312
100
AcDbEntity
  8
RACCORDO
100
AcDbPolyline
 62
7
  6
CONTINUOUS
 90
16
 70
0
 10
149.0031130388
 20
120.1709973823
 10
149.0041558602
 20
120.1944161538
 10
149.0070081873
 20
120.2180238706
 10
149.0116700201
 20
120.2418205327
 10
149.018230434
 20
120.2660661809
 10
149.0266003535
 20
120.2905007744
 10
149.0365125525
 20
120.3143441908
 10
149.0480168011
 20
120.3375773525
 10
149.0610633292
 20
120.3602193371
 10
149.0752356008
 20
120.3815472548
 10
149.0905699441
 20
120.4015186999
 10
149.1070300308
 20
120.4201760781
 10
149.1240903405
 20
120.4369237159
 10
149.1415756994
 20
120.4515630553
 10
149.1596612813
 20
120.4642926544
 10
149.178347086
 20
120.4751125129
  0
LWPOLYLINE
  5
313
100
AcDbEntity
  8
RACCORDO
100
AcDbPolyline
 62
253
  6
CONTINUOUS
 90
14
 70
0
 10
139.5408688235
 20
85.3881628087
 10
139.5290714261
 20
85.3607419168
 10
139.5184189479
 20
85.3346156913
 10
139.5088968924
 20
85.3097285253
 10
139.5005026294
 20
85.2860294552
 10
139.4931795324
 20
85.2634672798
 10
139.4868412959
 20
85.2419968439
 10
139.4814616464
 20
85.2215820928
 10
139.4770186838
 20
85.2021877365
 10
139.4734617853
 20
85.1837812218
 10
139.4707701594
 20
85.16633106
 10
139.4689234623
 20
85.1498137434
 10
139.4678932738
 20
85.134214184
 10
139.4676464333
 20
85.1231952662
  0
LWPOLYLINE
  5
314
100
AcDbEntity
  8
RACCORDO
100
AcDbPolyline
 62
253
  6
CONTINUOUS
 90
22
 70
0
 10
153.5156097858
 20
116.3083866459
 10
153.5282529636
 20
116.3362304281
 10
153.5413607433
 20
116.3635843044
 10
153.5548219109
 20
116.3904410263
 10
153.5684955388
 20
116.416779779
 10
153.5823182252
 20
116.4425917491
 10
153.5963166592
 20
116.4678922836
 10
153.6104280866
 20
116.4926729237
 10
153.6245725719
 20
116.5169180414
 10
153.6387739425
 20
116.5406467921
 10
153.6529839822
 20
116.5638561608
 10
153.6671409143
 20
116.5865285949
 10
153.6812592109
 20
116.6086722084
 10
153.695299253
 20
116.6302853469
 10
153.7092092956
 20
116.6513516471
 10
153.722990065
 20
116.6718644438
 10
153.7366060171
 20
116.6918189645
 10
153.7500121914
 20
116.7112023864
 10
153.763196533
 20
116.7300001845
 10
153.776129406
 20
116.7482060507
 10
153.788767387
 20
116.7658072764
 10
153.8010789038
 20
116.7827807267
  0
LWPOLYLINE
  5
315
100
AcDbEntity
  8
RACCORDO
100
AcDbPolyline
 62
253
  6
CONTINUOUS
 90
15
 70
0
 10
150.0522382188
 20
104.5351050176
 10
150.130894131
 20
104.5743176652
 10
150.1983392844
 20
104.6179681792
 10
150.2615798367
 20
104.6690314854
 10
150.3203479063
 20
104.7272903546
 10
150.3743962921
 20
104.7924984418
 10
150.4234883664
 20
104.8643752527
 10
150.4674133935
 20
104.9426136648
 10
150.5059926571
 20
105.0268848695
 10
150.5390527251
 20
105.1168261347
 10
150.5664479484
 20
105.2120518297
 10
150.588074724
 20
105.3121623322
 10
150.6038388714
 20
105.4167301901
 10
150.6136562548
 20
105.5253017878
 10
150.6174744595
 20
105.6374092393
  0
LINE
  5
316
100
AcDbEntity
  8
RACCORDO
100
AcDbLine
 62
253
  6
CONTINUOUS
 10
150.6174744595
 20
105.6374092393
 11
151.6547634683
 21
106.078186161
  0
LINE
  5
317
100
AcDbEntity
  8
RACCORDO
100
AcDbLine
 62
7
  6
CONTINUOUS
 10
150.0509687618
 20
104.5345642009
 11
151.0931804751
 21
104.9774329356
  0
LWPOLYLINE
  5
318
100
AcDbEntity
  8
RACCORDO
100
AcDbPolyline
 62
253
  6
CONTINUOUS
 90
10
 70
0
 10
151.7713036025
 20
78.7268990325
 10
151.772447799
 20
78.715491332
 10
151.7754369841
 20
78.7051563832
 10
151.780260142
 20
78.6949455382
 10
151.7868869043
 20
78.684929398
 10
151.7952655313
 20
78.6751931214
 10
151.8053099747
 20
78.6658267022
 10
151.8169259846
 20
78.6569031771
 10
151.8300245052
 20
78.6484808198
 10
151.8444997713
 20
78.6406186475
  0
LWPOLYLINE
  5
319
100
AcDbEntity
  8
RACCORDO
100
AcDbPolyline
 62
253
  6
CONTINUOUS
 90
9
 70
0
 10
151.7713035218
 20
77.2932726139
 10
151.7717084305
 20
77.2861970808
 10
151.7745519818
 20
77.2732232791
 10
151.7800600242
 20
77.2605153983
 10
151.7881638286
 20
77.2481813262
 10
151.7987850704
 20
77.2363315493
 10
151.8118191334
 20
77.2250878408
 10
151.8271210699
 20
77.2145793633
 10
151.8445268161
 20
77.204920266
  0
LWPOLYLINE
  5
31A
100
AcDbEntity
  8
RACCORDO
100
AcDbPolyline
 62
253
  6
CONTINUOUS
 90
10
 70
0
 10
148.8629078426
 20
104.8752312258
 10
148.8647595448
 20
104.831897829
 10
148.870295267
 20
104.7908699461
 10
148.8794570494
 20
104.7525773557
 10
148.89214895
 20
104.7174211866
 10
148.9082380458
 20
104.6857697248
 10
148.9275558218
 20
104.6579545518
 10
148.9498999448
 20
104.6342670566
 10
148.9750363755
 20
104.6149553964
 10
148.992854423
 20
104.6047943318
  0
LWPOLYLINE
  5
31B
100
AcDbEntity
  8
RACCORDO
100
AcDbPolyline
 62
253
  6
CONTINUOUS
 90
12
 70
0
 10
148.543493631
 20
102.6369264869
 10
148.5460662665
 20
102.5644059157
 10
148.5537654348
 20
102.4949858024
 10
148.5665350847
 20
102.429171263
 10
148.5842822696
 20
102.3674411757
 10
148.6068778266
 20
102.310244688
 10
148.6341573188
 20
102.2579979516
 10
148.6659222256
 20
102.2110811086
 10
148.7019413928
 20
102.1698355125
 10
148.7419527228
 20
102.1345612419
 10
148.7856650625
 20
102.1055149375
 10
148.8033868833
 20
102.0960526532
  0
LWPOLYLINE
  5
31C
100
AcDbEntity
  8
RACCORDO
100
AcDbPolyline
 62
253
  6
CONTINUOUS
 90
25
 70
0
 10
150.6174744595
 20
89.9653284024
 10
150.6136562242
 20
90.0797240376
 10
150.6038388112
 20
90.1966608043
 10
150.5880746343
 20
90.3156430753
 10
150.5664478247
 20
90.4361693558
 10
150.5390525661
 20
90.5577249067
 10
150.5059924725
 20
90.679783962
 10
150.4674131996
 20
90.8018261222
 10
150.4234881713
 20
90.9233340205
 10
150.3743960942
 20
91.0437859831
 10
150.3203476991
 20
91.1626673363
 10
150.2615796202
 20
91.2794728896
 10
150.1983390695
 20
91.3937043978
 10
150.1308939381
 20
91.504872373
 10
150.0595349217
 20
91.6125028903
 10
149.984568331
 20
91.7161395097
 10
149.9063089542
 20
91.8153363698
 10
149.8250906957
 20
91.9096687784
 10
149.7412678208
 20
91.9987391334
 10
149.6551902217
 20
92.0821621918
 10
149.5672223507
 20
92.1595785664
 10
149.4777532716
 20
92.2306643042
 10
149.3871641879
 20
92.295114231
 10
149.2958268913
 20
92.3526434803
 10
149.2041223978
 20
92.4030001222
  0
LWPOLYLINE
  5
31D
100
AcDbEntity
  8
RACCORDO
100
AcDbPolyline
 62
253
  6
CONTINUOUS
 90
25
 70
0
 10
149.9229218889
 20
89.9713901325
 10
149.9206136725
 20
90.0577841594
 10
149.9138608175
 20
90.1454046103
 10
149.902663324
 20
90.234251485
 10
149.8869350443
 20
90.3247447172
 10
149.866762126
 20
90.4164643734
 10
149.8424030122
 20
90.5081506527
 10
149.813805044
 20
90.5997722744
 10
149.7810208804
 20
90.6913605193
 10
149.7444669411
 20
90.7817494286
 10
149.7040949098
 20
90.8709238889
 10
149.6599531028
 20
90.9588990135
 10
149.6126028892
 20
91.0445541845
 10
149.5620020807
 20
91.1278614452
 10
149.5081928655
 20
91.2088487522
 10
149.4518631771
 20
91.2864793568
 10
149.3929811811
 20
91.3607088652
 10
149.3315787119
 20
91.4315816713
 10
149.2684392063
 20
91.4981942077
 10
149.203519493
 20
91.5605027931
 10
149.1368627433
 20
91.6185511089
 10
149.0693819083
 20
91.671566632
 10
149.001381305
 20
91.7192918548
 10
148.9325566165
 20
91.7619842849
 10
148.8629078426
 20
91.7996439224
  0
LWPOLYLINE
  5
31E
100
AcDbEntity
  8
RACCORDO
100
AcDbPolyline
 62
253
  6
CONTINUOUS
 90
25
 70
0
 10
149.9229218889
 20
115.4340616571
 10
149.9206138636
 20
115.5204281387
 10
149.91385909
 20
115.608027993
 10
149.902657568
 20
115.6968612201
 10
149.8869235021
 20
115.7873478609
 10
149.8667426878
 20
115.8790678744
 10
149.8423725118
 20
115.9707611381
 10
149.8137601184
 20
116.0623967966
 10
149.7809583633
 20
116.1540057052
 10
149.744383201
 20
116.244420307
 10
149.7039860143
 20
116.3336257953
 10
149.6598154205
 20
116.4216369767
 10
149.6124332253
 20
116.5073307145
 10
149.5617969184
 20
116.590679162
 10
149.5079490102
 20
116.6717101658
 10
149.4515788382
 20
116.7493841283
 10
149.3926543207
 20
116.8236565244
 10
149.3312075394
 20
116.8945718793
 10
149.2680240771
 20
116.9612241708
 10
149.2030607041
 20
117.0235693584
 10
149.1363606501
 20
117.0816514825
 10
149.0688391874
 20
117.1346966427
 10
149.0008014066
 20
117.1824468721
 10
148.931942217
 20
117.2251601375
 10
148.8622616186
 20
117.2628364389
  0
LINE
  5
31F
100
AcDbEntity
  8
RACCORDO
100
AcDbLine
 62
7
  6
CONTINUOUS
 10
149.0031130388
 20
120.1709973823
 11
149.0031130388
 21
118.9901554165
  0
LINE
  5
320
100
AcDbEntity
  8
RACCORDO
100
AcDbLine
 62
7
  6
CONTINUOUS
 10
149.0031130388
 20
79.0506783383
 11
149.0031130388
 21
79.1370188637
  0
LINE
  5
321
100
AcDbEntity
  8
RACCORDO
100
AcDbLine
 62
7
  6
CONTINUOUS
 10
149.6668424053
 20
78.718813655
 11
149.6668424053
 21
78.9874181036
  0
LINE
  5
322
100
AcDbEntity
  8
RACCORDO
100
AcDbLine
 62
7
  6
CONTINUOUS
 10
149.6668424053
 20
118.6582907332
 11
149.6668424053
 21
119.839132699
  0
LINE
  5
323
100
AcDbEntity
  8
RACCORDO
100
AcDbLine
 62
253
  6
CONTINUOUS
 10
149.9229218889
 20
80.1807994448
 11
149.9229218889
 21
89.9713901325
  0
LINE
  5
324
100
AcDbEntity
  8
RACCORDO
100
AcDbLine
 62
253
  6
CONTINUOUS
 10
149.9229218889
 20
105.6434709694
 11
149.9229218889
 21
115.4340616571
  0
LINE
  5
325
100
AcDbEntity
  8
ASSI
100
AcDbLine
 62
253
  6
CONTINUOUS
 10
150.3169083824
 20
125.9424793884
 11
150.3169083824
 21
124.5022015076
  0
LWPOLYLINE
  5
326
100
AcDbEntity
  8
RACCORDO
100
AcDbPolyline
 62
253
  6
CONTINUOUS
 90
19
 70
0
 10
148.543493631
 20
97.0443686414
 10
148.5460661972
 20
97.1194608179
 10
148.5537651771
 20
97.1965791662
 10
148.5665345503
 20
97.2751625488
 10
148.584281403
 20
97.3546391682
 10
148.6068766033
 20
97.4344307274
 10
148.6341557416
 20
97.5139566377
 10
148.6659203261
 20
97.5926382436
 10
148.7019392276
 20
97.6699030329
 10
148.7419503614
 20
97.7451888024
 10
148.7856625937
 20
97.8179477491
 10
148.8327578605
 20
97.887650456
 10
148.8828934818
 20
97.953789744
 10
148.9357046549
 20
98.0158843629
 10
148.9908071091
 20
98.0734824926
 10
149.0477999015
 20
98.1261650309
 10
149.1062683345
 20
98.1735486429
 10
149.1657869733
 20
98.2152885506
 10
149.2259227414
 20
98.2510810411
  0
LWPOLYLINE
  5
327
100
AcDbEntity
  8
RACCORDO
100
AcDbPolyline
 62
253
  6
CONTINUOUS
 90
16
 70
0
 10
148.8629078426
 20
91.7996439224
 10
148.8647595958
 20
91.8448296834
 10
148.8702954581
 20
91.8913938724
 10
148.8794574407
 20
91.9388487248
 10
148.8921495711
 20
91.9866971465
 10
148.9082388979
 20
92.0344379205
 10
148.9275568838
 20
92.0815709577
 10
148.9499011711
 20
92.1276025347
 10
148.9750377011
 20
92.1720504663
 10
149.0027031662
 20
92.2144491561
 10
149.032607768
 20
92.2543544737
 10
149.0644382529
 20
92.2913484069
 10
149.0978611933
 20
92.3250434407
 10
149.1325264808
 20
92.3550866163
 10
149.1680709931
 20
92.3811632285
 10
149.2041223978
 20
92.4030001222
  0
LWPOLYLINE
  5
328
100
AcDbEntity
  8
RACCORDO
100
AcDbPolyline
 62
7
  6
CONTINUOUS
 90
14
 70
0
 10
140.9086166759
 20
96.1135683648
 10
140.8350611006
 20
96.0668570469
 10
140.75209307
 20
96.0031002548
 10
140.6743028047
 20
95.9303808848
 10
140.6026725676
 20
95.849326212
 10
140.5377654664
 20
95.7603483804
 10
140.48000479
 20
95.6638434462
 10
140.429855532
 20
95.5604725245
 10
140.3875947517
 20
95.4506739147
 10
140.3534145809
 20
95.3347798941
 10
140.3275063703
 20
95.2132012417
 10
140.3100604752
 20
95.0862668558
 10
140.3012368964
 20
94.9543640109
 10
140.3001100116
 20
94.8863236616
  0
LINE
  5
329
100
AcDbEntity
  8
RACCORDO
100
AcDbLine
 62
7
  6
CONTINUOUS
 10
140.9075088341
 20
96.1129328543
 11
141.8796043864
 21
96.6772352539
  0
LINE
  5
32A
100
AcDbEntity
  8
RACCORDO
100
AcDbLine
 62
253
  6
CONTINUOUS
 10
145.1954140887
 20
100.2663353675
 11
148.6800818979
 21
102.1577051459
  0
LINE
  5
32B
100
AcDbEntity
  8
RACCORDO
100
AcDbLine
 62
7
  6
CONTINUOUS
 10
144.772878164
 20
104.1113070128
 11
148.8033868157
 21
102.096052687
  0
LINE
  5
32C
100
AcDbEntity
  8
RACCORDO
100
AcDbLine
 62
253
  6
CONTINUOUS
 10
144.5129849783
 20
104.6521808132
 11
148.543493631
 21
102.6369264869
  0
LWPOLYLINE
  5
32D
100
AcDbEntity
  8
RACCORDO
100
AcDbPolyline
 62
7
  6
CONTINUOUS
 90
40
 70
0
 10
148.8035118667
 20
102.095981473
 10
148.8459262594
 20
102.0739899601
 10
148.9372482449
 20
102.0215008009
 10
149.0324963195
 20
101.9594720717
 10
149.1309898916
 20
101.8876216927
 10
149.2317195869
 20
101.8060274676
 10
149.3334345194
 20
101.7151439369
 10
149.4353134509
 20
101.6152250057
 10
149.5365635298
 20
101.5066133953
 10
149.6361264507
 20
101.3900739302
 10
149.7332412123
 20
101.2661936314
 10
149.8272379884
 20
101.1355677433
 10
149.9173391506
 20
100.9990699834
 10
150.0029370778
 20
100.8574618537
 10
150.0834872587
 20
100.7115292503
 10
150.1584258098
 20
100.5622416785
 10
150.2273144218
 20
100.4104739495
 10
150.2897730242
 20
100.2571247613
 10
150.3454386732
 20
100.1032525205
 10
150.3940620466
 20
99.9498187554
 10
150.4354779752
 20
99.7977321357
 10
150.4695676043
 20
99.6480264681
 10
150.4963156083
 20
99.501610448
 10
150.5157696227
 20
99.3594175827
 10
150.5280575526
 20
99.2225736834
 10
150.5334380043
 20
99.0918922221
 10
150.5322428028
 20
98.9682162244
 10
150.5249507028
 20
98.852730778
 10
150.5121771981
 20
98.7461626229
 10
150.4945961241
 20
98.6489500001
 10
150.4730632506
 20
98.5618010506
 10
150.448668591
 20
98.4854527102
 10
150.4222496955
 20
98.4194310842
 10
150.3944146498
 20
98.3629017628
 10
150.3663855232
 20
98.3161985801
 10
150.3390172845
 20
98.278696157
 10
150.312194996
 20
98.2487167598
 10
150.2861865388
 20
98.2254668553
 10
150.2615454764
 20
98.208411611
 10
150.2541037017
 20
98.2041595149
  0
LWPOLYLINE
  5
32E
100
AcDbEntity
  8
RACCORDO
100
AcDbPolyline
 62
253
  6
CONTINUOUS
 90
49
 70
0
 10
148.543493631
 20
102.6369264869
 10
148.6924266166
 20
102.5565643159
 10
148.8399251043
 20
102.4651423364
 10
148.9859890942
 20
102.3626605483
 10
149.1314239797
 20
102.2484587579
 10
149.2754243673
 20
102.1231971589
 10
149.4155740772
 20
101.9888563329
 10
149.5515793808
 20
101.8454946401
 10
149.6837340067
 20
101.6930537202
 10
149.8105029604
 20
101.5333390744
 10
149.9318810339
 20
101.3661949882
 10
150.0478734352
 20
101.1917771762
 10
150.1569607944
 20
101.0123582833
 10
150.2590392807
 20
100.8278936086
 10
150.3542127248
 20
100.6384278531
 10
150.4412732492
 20
100.446367764
 10
150.5201201406
 20
100.2516745196
 10
150.5908541123
 20
100.0543869415
 10
150.6525694264
 20
99.8570282424
 10
150.7051498162
 20
99.6595987836
 10
150.7487115484
 20
99.4620982037
 10
150.7826976854
 20
99.2670486317
 10
150.8069855226
 20
99.0744810485
 10
150.8216977645
 20
98.8843644732
 10
150.8266455873
 20
98.6991280917
 10
150.8217036236
 20
98.5188342347
 10
150.8069972408
 20
98.3434205714
 10
150.7827137171
 20
98.1751292954
 10
150.748729807
 20
98.0140515965
 10
150.7051687561
 20
97.8600962848
 10
150.6525875787
 20
97.7152319836
 10
150.5908699325
 20
97.5795756016
 10
150.5201321597
 20
97.45301023
 10
150.4412803024
 20
97.3371537655
 10
150.3542135837
 20
97.2321457735
 10
150.2590327804
 20
97.1378466886
 10
150.1569462645
 20
97.0554557115
 10
150.0478501575
 20
96.9851216353
 10
149.9318483379
 20
96.9266956668
 10
149.8104608132
 20
96.880930627
 10
149.6836838198
 20
96.8479868443
 10
149.5515211212
 20
96.8277039902
 10
149.4155040158
 20
96.8203539007
 10
149.2753291512
 20
96.8261759448
 10
149.1312998798
 20
96.8449307534
 10
148.9858575565
 20
96.8761720545
 10
148.8398159665
 20
96.9197510909
 10
148.6923613247
 20
96.9758166199
 10
148.543493631
 20
97.0443686414
  0
LWPOLYLINE
  5
32F
100
AcDbEntity
  8
ASSI
100
AcDbPolyline
 62
7
  6
CONTINUOUS
 90
7
 70
0
 10
156.0264829168
 20
83.6532858457
 10
156.0409099218
 20
83.6121595472
 10
156.052745987
 20
83.5714134043
 10
156.0619911125
 20
83.5310474169
 10
156.0686452983
 20
83.4910615852
 10
156.0727085443
 20
83.4514559091
 10
156.0741808507
 20
83.4122303886
  0
LWPOLYLINE
  5
330
100
AcDbEntity
  8
ASSI
100
AcDbPolyline
 62
7
  6
CONTINUOUS
 90
7
 70
0
 10
155.3317187304
 20
83.2651005284
 10
155.3423495507
 20
83.2302693675
 10
155.3510850655
 20
83.1956091023
 10
155.3579252748
 20
83.1611197328
 10
155.3628701786
 20
83.1268012588
 10
155.3659197768
 20
83.0926536806
 10
155.3670740695
 20
83.058676998
  0
LWPOLYLINE
  5
331
100
AcDbEntity
  8
RACCORDO
100
AcDbPolyline
 62
253
  6
CONTINUOUS
 90
25
 70
0
 10
150.6174744595
 20
115.427999927
 10
150.6140635448
 20
115.5425742749
 10
150.6046604315
 20
115.6597021946
 10
150.5893099052
 20
115.7788845392
 10
150.5680835047
 20
115.8996135562
 10
150.5410730612
 20
116.0213735273
 10
150.508390087
 20
116.1436430049
 10
150.4701734634
 20
116.2658983467
 10
150.4265894641
 20
116.3876179884
 10
150.3778245226
 20
116.5082831358
 10
150.3240836675
 20
116.6273759466
 10
150.2655971426
 20
116.7443870882
 10
150.2026195156
 20
116.858819879
 10
150.1354142762
 20
116.9701819808
 10
150.0642668187
 20
117.0779956837
 10
149.9894902783
 20
117.1818050973
 10
149.9113965348
 20
117.2811621299
 10
149.8303154065
 20
117.375639004
 10
149.7466070776
 20
117.4648380409
 10
149.6606237344
 20
117.5483693044
 10
149.5727234516
 20
117.6258752276
 10
149.4832884095
 20
117.6970401156
 10
149.3926966296
 20
117.7615585012
 10
149.3013210305
 20
117.8191390052
 10
149.2095427089
 20
117.8695267439
  0
LWPOLYLINE
  5
332
100
AcDbEntity
  8
RACCORDO
100
AcDbPolyline
 62
7
  6
CONTINUOUS
 90
9
 70
0
 10
151.7713035218
 20
77.2932726139
 10
151.771573795
 20
77.2816867048
 10
151.7741139598
 20
77.2559278315
 10
151.7793174224
 20
77.2305174304
 10
151.7871621494
 20
77.2056854284
 10
151.7975994397
 20
77.1816999757
 10
151.8105396175
 20
77.158852001
 10
151.8258719209
 20
77.1374032146
 10
151.8434613008
 20
77.1176038951
  0
LINE
  5
333
100
AcDbEntity
  8
RACCORDO
100
AcDbLine
 62
7
  6
CONTINUOUS
 10
150.4463709362
 20
125.9583812454
 11
150.4463709362
 21
124.6538097123
  0
LINE
  5
334
100
AcDbEntity
  8
DRAFT
100
AcDbLine
 62
7
  6
CONTINUOUS
 10
150.5941032965
 20
78.9499718561
 11
150.5941032965
 21
79.3138999155
  0
LINE
  5
335
100
AcDbEntity
  8
DRAFT
100
AcDbLine
 62
7
  6
CONTINUOUS
 10
150.5941032965
 20
119.1335505917
 11
150.5941032965
 21
120.5191912378
  0
LINE
  5
336
100
AcDbEntity
  8
RACCORDO
100
AcDbLine
 62
253
  6
CONTINUOUS
 10
150.6174744595
 20
80.1747377147
 11
150.6174744595
 21
89.9653284024
  0
LINE
  5
337
100
AcDbEntity
  8
RACCORDO
100
AcDbLine
 62
253
  6
CONTINUOUS
 10
150.6174744595
 20
105.6374092393
 11
150.6174744595
 21
115.427999927
  0
LINE
  5
338
100
AcDbEntity
  8
RACCORDO
100
AcDbLine
 62
7
  6
CONTINUOUS
 10
151.6547634683
 20
80.6369546182
 11
151.6547634683
 21
90.49183913
  0
LINE
  5
339
100
AcDbEntity
  8
RACCORDO
100
AcDbLine
 62
7
  6
CONTINUOUS
 10
151.6547634683
 20
106.078186161
 11
151.6547634683
 21
115.9330706728
  0
LINE
  5
33A
100
AcDbEntity
  8
RACCORDO
100
AcDbLine
 62
7
  6
CONTINUOUS
 10
151.7713035218
 20
77.2932726139
 11
151.7713035114
 21
78.726996113
  0
LINE
  5
33B
100
AcDbEntity
  8
RACCORDO
100
AcDbLine
 62
7
  6
CONTINUOUS
 10
151.7713035114
 20
117.8300453323
 11
151.7713035114
 21
119.2637300249
  0
LINE
  5
33C
100
AcDbEntity
  8
RACCORDO
100
AcDbLine
 62
253
  6
CONTINUOUS
 10
151.8445268161
 20
77.204920266
 11
151.8444997687
 21
78.6406471439
  0
LINE
  5
33D
100
AcDbEntity
  8
RACCORDO
100
AcDbLine
 62
253
  6
CONTINUOUS
 10
151.8445179412
 20
117.7396515829
 11
151.8445268161
 21
119.1753416773
  0
LWPOLYLINE
  5
33E
100
AcDbEntity
  8
RACCORDO
100
AcDbPolyline
 62
7
  6
CONTINUOUS
 90
11
 70
0
 10
151.7713035219
 20
119.2636938897
 10
151.7729471183
 20
119.2923499828
 10
151.7772975506
 20
119.3181458735
 10
151.784318273
 20
119.3433415406
 10
151.7940086888
 20
119.3678312431
 10
151.8062746275
 20
119.3912548223
 10
151.8209944544
 20
119.4133170479
 10
151.8381688466
 20
119.4339113827
 10
151.8576880877
 20
119.4527536112
 10
151.879261769
 20
119.4694580515
 10
151.9025975563
 20
119.4837502427
  0
LWPOLYLINE
  5
33F
100
AcDbEntity
  8
RACCORDO
100
AcDbPolyline
 62
7
  6
CONTINUOUS
 90
6
 70
0
 10
151.771308982
 20
117.8300212655
 10
151.7702098211
 20
117.8166835598
 10
151.7675234041
 20
117.8057273447
 10
151.7644732577
 20
117.7981835912
 10
151.7621860929
 20
117.7941071387
 10
151.761519195
 20
117.7931422927
  0
LINE
  5
340
100
AcDbEntity
  8
RACCORDO
100
AcDbLine
 62
253
  6
CONTINUOUS
 10
141.8477795534
 20
96.0811715445
 11
142.8150672027
 21
96.6426829518
  0
LINE
  5
341
100
AcDbEntity
  8
RACCORDO
100
AcDbLine
 62
7
  6
CONTINUOUS
 10
141.636511591
 20
108.2829657478
 11
148.9928544449
 21
104.6047943209
  0
LWPOLYLINE
  5
342
100
AcDbEntity
  8
RACCORDO
100
AcDbPolyline
 62
253
  6
CONTINUOUS
 90
7
 70
0
 10
147.9076974781
 20
121.3422134342
 10
147.910080118
 20
121.3249968507
 10
147.9165965431
 20
121.309159164
 10
147.9271472352
 20
121.293874564
 10
147.9415556529
 20
121.2793988034
 10
147.9595807047
 20
121.2659741004
 10
147.9809207828
 20
121.2538250866
  0
LWPOLYLINE
  5
343
100
AcDbEntity
  8
RACCORDO
100
AcDbPolyline
 62
253
  6
CONTINUOUS
 90
9
 70
0
 10
151.7713035219
 20
119.2636938897
 10
151.7717084303
 20
119.2566184936
 10
151.7745519814
 20
119.2436446916
 10
151.7800600237
 20
119.2309368105
 10
151.788163828
 20
119.2186027382
 10
151.7987850699
 20
119.2067529611
 10
151.811819133
 20
119.1955092524
 10
151.8271210696
 20
119.1850007748
 10
151.8445268161
 20
119.1753416773
  0
LINE
  5
344
100
AcDbEntity
  8
RACCORDO
100
AcDbLine
 62
253
  6
CONTINUOUS
 10
153.5156097858
 20
76.3693787811
 11
153.5156097858
 21
78.4007923276
  0
LINE
  5
345
100
AcDbEntity
  8
RACCORDO
100
AcDbLine
 62
253
  6
CONTINUOUS
 10
153.5156097858
 20
116.3083866459
 11
153.5156097858
 21
118.3398001924
  0
LINE
  5
346
100
AcDbEntity
  8
RACCORDO
100
AcDbLine
 62
7
  6
CONTINUOUS
 10
153.6756706083
 20
124.6838118547
 11
153.6756706083
 21
125.0456091601
  0
LINE
  5
347
100
AcDbEntity
  8
RACCORDO
100
AcDbLine
 62
253
  6
CONTINUOUS
 10
153.8660510737
 20
77.8356732363
 11
153.8660510737
 21
76.3678496537
  0
LINE
  5
348
100
AcDbEntity
  8
RACCORDO
100
AcDbLine
 62
253
  6
CONTINUOUS
 10
153.8660510737
 20
116.8704474824
 11
153.8660510737
 21
118.338271065
  0
LINE
  5
349
100
AcDbEntity
  8
RACCORDO
100
AcDbLine
 62
253
  6
CONTINUOUS
 10
154.0489985924
 20
116.0416922427
 11
154.0489985924
 21
78.1340979243
  0
LINE
  5
34A
100
AcDbEntity
  8
RACCORDO
100
AcDbLine
 62
7
  6
CONTINUOUS
 10
150.2556400588
 20
98.2050051907
 11
150.254042469
 21
98.2041184405
  0
LINE
  5
34B
100
AcDbEntity
  8
RACCORDO
100
AcDbLine
 62
253
  6
CONTINUOUS
 10
150.5317128596
 20
98.9598234813
 11
149.2259227414
 21
98.2510810411
  0
LWPOLYLINE
  5
34C
100
AcDbEntity
  8
RACCORDO
100
AcDbPolyline
 62
253
  6
CONTINUOUS
 90
12
 70
0
 10
150.254042469
 20
98.2041184405
 10
150.1850921545
 20
98.1699893786
 10
150.1011809695
 20
98.1383687202
 10
150.0135820364
 20
98.1155179729
 10
149.9226342319
 20
98.1015118464
 10
149.8286223751
 20
98.0964032679
 10
149.7318013813
 20
98.1002496212
 10
149.6327148659
 20
98.1130717719
 10
149.53210869
 20
98.1347546233
 10
149.4305343903
 20
98.165106787
 10
149.3283263134
 20
98.2039569267
 10
149.2259227414
 20
98.2510810411
  0
LWPOLYLINE
  5
34D
100
AcDbEntity
  8
RACCORDO
100
AcDbPolyline
 62
253
  6
CONTINUOUS
 90
16
 70
0
 10
149.9229218889
 20
105.6434709694
 10
149.9609116864
 20
105.6263278239
 10
150.0022070434
 20
105.6112160076
 10
150.0463753871
 20
105.5982938184
 10
150.0929540496
 20
105.5876966175
 10
150.141455115
 20
105.5795354116
 10
150.1913705299
 20
105.5738956901
 10
150.2421774253
 20
105.5708365297
 10
150.2933435941
 20
105.5703899753
 10
150.3443330657
 20
105.5725607046
 10
150.3946117203
 20
105.5773259791
 10
150.4436528841
 20
105.5846358821
 10
150.4909428462
 20
105.5944138415
 10
150.5359862395
 20
105.6065574324
 10
150.5783112301
 20
105.6209394493
 10
150.6174744595
 20
105.6374092393
  0
LWPOLYLINE
  5
34E
100
AcDbEntity
  8
RACCORDO
100
AcDbPolyline
 62
253
  6
CONTINUOUS
 90
25
 70
0
 10
148.8629078426
 20
104.8752312258
 10
148.9325059448
 20
104.8432591509
 10
149.0012909018
 20
104.8171371968
 10
149.0692627137
 20
104.7968653636
 10
149.1367290851
 20
104.7823953079
 10
149.2033823114
 20
104.773775373
 10
149.2682992784
 20
104.7711505892
 10
149.3314329477
 20
104.7746089694
 10
149.3928303577
 20
104.7840625007
 10
149.4517095099
 20
104.7993921743
 10
149.508038339
 20
104.820673198
 10
149.5618489103
 20
104.847830364
 10
149.6124554207
 20
104.8805190401
 10
149.6598178207
 20
104.9188109208
 10
149.7039761599
 20
104.9626343116
 10
149.7443647841
 20
105.0114294964
 10
149.7809344497
 20
105.0652600862
 10
149.8137344004
 20
105.1240624702
 10
149.8423467134
 20
105.1870860993
 10
149.8667180984
 20
105.2544104928
 10
149.8869018457
 20
105.3259561315
 10
149.9026399035
 20
105.4007339091
 10
149.9138462547
 20
105.4784141236
 10
149.9206069165
 20
105.5593264771
 10
149.9229218889
 20
105.6434709694
  0
LWPOLYLINE
  5
34F
100
AcDbEntity
  8
RACCORDO
100
AcDbPolyline
 62
7
  6
CONTINUOUS
 90
11
 70
0
 10
148.9929401417
 20
104.604762362
 10
149.0458513614
 20
104.5794543512
 10
149.1641781823
 20
104.5309670867
 10
149.2825861557
 20
104.4935318034
 10
149.4006720063
 20
104.4672032922
 10
149.5178424319
 20
104.4520264722
 10
149.6331405882
 20
104.4480197051
 10
149.7459424103
 20
104.4550323822
 10
149.8555070175
 20
104.4728185936
 10
149.9605390386
 20
104.5008819721
 10
150.052185599
 20
104.5350912714
  0
LINE
  5
350
100
AcDbEntity
  8
RACCORDO
100
AcDbLine
 62
253
  6
CONTINUOUS
 10
141.5065649982
 20
108.553402648
 11
148.8629078426
 21
104.8752312258
  0
LWPOLYLINE
  5
351
100
AcDbEntity
  8
RACCORDO
100
AcDbPolyline
 62
253
  6
CONTINUOUS
 90
9
 70
0
 10
140.4465509519
 20
110.3816564379
 10
140.412265129
 20
110.4006510458
 10
140.3820417756
 20
110.4212984398
 10
140.3561975065
 20
110.4433823526
 10
140.3350030683
 20
110.4666714691
 10
140.3186805077
 20
110.4909218428
 10
140.3074008409
 20
110.5158794507
 10
140.3012822549
 20
110.5412828661
 10
140.3001043425
 20
110.558433068
  0
LWPOLYLINE
  5
352
100
AcDbEntity
  8
ASSI
100
AcDbPolyline
 62
7
  6
CONTINUOUS
 90
4
 70
0
 10
150.446370896
 20
125.9594625736
 10
150.4460645582
 20
125.9621047295
 10
150.4430648915
 20
125.9668953632
 10
150.4405525444
 20
125.9685379974
  0
LWPOLYLINE
  5
353
100
AcDbEntity
  8
RACCORDO
100
AcDbPolyline
 62
7
  6
CONTINUOUS
 90
16
 70
0
 10
155.3317187304
 20
116.3317961228
 10
155.3298203791
 20
116.3776897371
 10
155.3240816874
 20
116.4251866368
 10
155.3145251665
 20
116.4737876782
 10
155.3011618955
 20
116.5231551238
 10
155.2841281584
 20
116.5725612835
 10
155.263812641
 20
116.6209088559
 10
155.2407177227
 20
116.6672897663
 10
155.2149978116
 20
116.7116500512
 10
155.1865562008
 20
116.7541565047
 10
155.155373791
 20
116.7946297183
 10
155.1219875114
 20
116.8321852239
 10
155.0871355641
 20
116.8659767287
 10
155.051355835
 20
116.895569152
 10
155.0149180043
 20
116.920815993
 10
154.9782191877
 20
116.9414926461
  0
LWPOLYLINE
  5
354
100
AcDbEntity
  8
RACCORDO
100
AcDbPolyline
 62
253
  6
CONTINUOUS
 90
16
 70
0
 10
155.1487164158
 20
118.9804359165
 10
155.1480400231
 20
119.003817441
 10
155.1453827399
 20
119.0278942725
 10
155.1407755407
 20
119.0523997528
 10
155.1342753639
 20
119.0770480313
 10
155.1259532368
 20
119.1015818123
 10
155.1158827107
 20
119.1257738982
 10
155.1041404892
 20
119.1494043992
 10
155.0908701281
 20
119.1721536819
 10
155.0762844501
 20
119.1936653626
 10
155.0605723433
 20
119.2136949648
 10
155.0439044954
 20
119.2320563215
 10
155.0265066408
 20
119.2485343092
 10
155.0085902132
 20
119.2629704562
 10
154.99034407
 20
119.2752527156
 10
154.9719666444
 20
119.2852841781
  0
LINE
  5
355
100
AcDbEntity
  8
RACCORDO
100
AcDbLine
 62
7
  6
CONTINUOUS
 10
154.6246119492
 20
76.7181782038
 11
154.6246119492
 21
77.8569458357
  0
LINE
  5
356
100
AcDbEntity
  8
RACCORDO
100
AcDbLine
 62
7
  6
CONTINUOUS
 10
154.6246119492
 20
117.2914749661
 11
154.6246119492
 21
118.7204762373
  0
LINE
  5
357
100
AcDbEntity
  8
RACCORDO
100
AcDbLine
 62
253
  6
CONTINUOUS
 10
154.7498811682
 20
116.0386339879
 11
154.7498811682
 21
78.1310396695
  0
LINE
  5
358
100
AcDbEntity
  8
RACCORDO
100
AcDbLine
 62
253
  6
CONTINUOUS
 10
155.1487164158
 20
77.0009445874
 11
155.1487164158
 21
77.3408881822
  0
LINE
  5
359
100
AcDbEntity
  8
RACCORDO
100
AcDbLine
 62
253
  6
CONTINUOUS
 10
155.1487164158
 20
118.6404923216
 11
155.1487164158
 21
118.9804359165
  0
LINE
  5
35A
100
AcDbEntity
  8
RACCORDO
100
AcDbLine
 62
7
  6
CONTINUOUS
 10
155.2188814657
 20
77.0877768837
 11
155.2188814657
 21
77.4277204786
  0
LINE
  5
35B
100
AcDbEntity
  8
RACCORDO
100
AcDbLine
 62
7
  6
CONTINUOUS
 10
155.2188814657
 20
118.7273246179
 11
155.2188814657
 21
119.0672682128
  0
LINE
  5
35C
100
AcDbEntity
  8
RACCORDO
100
AcDbLine
 62
7
  6
CONTINUOUS
 10
155.3317187304
 20
78.3997515372
 11
155.3317187304
 21
82.0215834029
  0
LINE
  5
35D
100
AcDbEntity
  8
ASSI
100
AcDbLine
 62
7
  6
CONTINUOUS
 10
155.3317187304
 20
82.0215834029
 11
155.3317187304
 21
112.7099642571
  0
LINE
  5
35E
100
AcDbEntity
  8
RACCORDO
100
AcDbLine
 62
7
  6
CONTINUOUS
 10
155.3317187304
 20
112.7099642571
 11
155.3317187304
 21
116.3317961228
  0
LINE
  5
35F
100
AcDbEntity
  8
ASSI
100
AcDbLine
 62
7
  6
CONTINUOUS
 10
155.3670740695
 20
112.5035407267
 11
155.3670740695
 21
111.6375153229
  0
LINE
  5
360
100
AcDbEntity
  8
ASSI
100
AcDbLine
 62
7
  6
CONTINUOUS
 10
155.3670740695
 20
83.058676998
 11
155.3670740695
 21
82.1926515942
  0
LINE
  5
361
100
AcDbEntity
  8
ASSI
100
AcDbLine
 62
253
  6
CONTINUOUS
 10
155.8944719369
 20
123.1560243048
 11
155.8944719369
 21
122.700463025
  0
LINE
  5
362
100
AcDbEntity
  8
ASSI
100
AcDbLine
 62
253
  6
CONTINUOUS
 10
155.8944719369
 20
122.1718712286
 11
155.8944719369
 21
121.7160889031
  0
LINE
  5
363
100
AcDbEntity
  8
RACCORDO
100
AcDbLine
 62
253
  6
CONTINUOUS
 10
155.2188811847
 20
77.4275330777
 11
155.2188814656
 21
77.4277234588
  0
LWPOLYLINE
  5
364
100
AcDbEntity
  8
RACCORDO
100
AcDbPolyline
 62
253
  6
CONTINUOUS
 90
9
 70
0
 10
155.1487164158
 20
77.0009445874
 10
155.1480400231
 20
76.978853209
 10
155.1453827398
 20
76.9579722321
 10
155.1407755404
 20
76.9385314493
 10
155.1342753634
 20
76.9207545885
 10
155.125953236
 20
76.9048241939
 10
155.1158827095
 20
76.8908911399
 10
155.1041404874
 20
76.8790961922
 10
155.0916708967
 20
76.8701856546
  0
LWPOLYLINE
  5
365
100
AcDbEntity
  8
RACCORDO
100
AcDbPolyline
 62
7
  6
CONTINUOUS
 90
6
 70
0
 10
155.2188813551
 20
118.7274422186
 10
155.2182880398
 20
118.7101102028
 10
155.2145794926
 20
118.6811458392
 10
155.2075005572
 20
118.6527529897
 10
155.1971268904
 20
118.6253244988
 10
155.1835713994
 20
118.5992299951
  0
LWPOLYLINE
  5
366
100
AcDbEntity
  8
ASSI
100
AcDbPolyline
 62
7
  6
CONTINUOUS
 90
7
 70
0
 10
155.3670740695
 20
111.6375153229
 10
155.3659197768
 20
111.604692933
 10
155.3628701786
 20
111.573594953
 10
155.3579252748
 20
111.5442213828
 10
155.3510850655
 20
111.5165722226
 10
155.3423495507
 20
111.4906474721
 10
155.3317187304
 20
111.4664471316
  0
LWPOLYLINE
  5
367
100
AcDbEntity
  8
ASSI
100
AcDbPolyline
 62
7
  6
CONTINUOUS
 90
7
 70
0
 10
156.0741808507
 20
111.9910687135
 10
156.0727085443
 20
111.9533154993
 10
156.0686452983
 20
111.9177730692
 10
156.0619911125
 20
111.8844414233
 10
156.052745987
 20
111.8533205615
 10
156.0409099218
 20
111.8244104838
 10
156.0264829168
 20
111.7977111903
  0
LWPOLYLINE
  5
368
100
AcDbEntity
  8
RACCORDO
100
AcDbPolyline
 62
253
  6
CONTINUOUS
 90
10
 70
0
 10
153.8660510737
 20
76.3678496537
 10
153.8647721329
 20
76.3455604124
 10
153.8616052266
 20
76.3245000533
 10
153.8565850378
 20
76.3048992299
 10
153.8497665446
 20
76.2869726071
 10
153.8412244232
 20
76.2709165231
 10
153.8310522338
 20
76.2569068346
 10
153.819361388
 20
76.2450969751
 10
153.8062799234
 20
76.2356162782
 10
153.7972061587
 20
76.2308027368
  0
LWPOLYLINE
  5
369
100
AcDbEntity
  8
RACCORDO
100
AcDbPolyline
 62
253
  6
CONTINUOUS
 90
3
 70
0
 10
157.0189451945
 20
100.4400577897
 10
156.9084913636
 20
100.3685803055
 10
156.8941999907
 20
100.3605019545
  0
LWPOLYLINE
  5
36A
100
AcDbEntity
  8
RACCORDO
100
AcDbPolyline
 62
7
  6
CONTINUOUS
 90
37
 70
0
 10
156.893543241
 20
100.3601457907
 10
156.9518436957
 20
100.3935802828
 10
157.1030397762
 20
100.4903289329
 10
157.247007594
 20
100.5974636285
 10
157.3827330921
 20
100.7140752299
 10
157.5099128213
 20
100.8397008338
 10
157.6287836334
 20
100.9745699991
 10
157.7386904202
 20
101.1180986931
 10
157.8390471655
 20
101.2696038242
 10
157.9299700524
 20
101.4295087491
 10
158.0109450858
 20
101.5974780474
 10
158.0812660209
 20
101.7726632626
 10
158.1406522345
 20
101.9550265304
 10
158.1887867778
 20
102.1447919606
 10
158.2249346741
 20
102.3406683841
 10
158.2485655231
 20
102.5406118727
 10
158.2596181921
 20
102.7444379631
 10
158.2579242497
 20
102.9515784439
 10
158.2435397204
 20
103.1596643569
 10
158.2165652134
 20
103.3687023488
 10
158.1769896216
 20
103.5784065471
 10
158.1254056936
 20
103.786148923
 10
158.0618903229
 20
103.9920435491
 10
157.986472734
 20
104.1959133562
 10
157.9002744283
 20
104.3948468181
 10
157.8034307056
 20
104.5888516119
 10
157.6959101694
 20
104.7778892339
 10
157.5792433968
 20
104.9592683843
 10
157.4536463831
 20
105.1328818841
 10
157.3189711779
 20
105.2987817186
 10
157.1768161524
 20
105.4549869721
 10
157.0274040108
 20
105.6013017016
 10
156.8705823702
 20
105.7377387986
 10
156.7078097225
 20
105.8629378769
 10
156.5398033587
 20
105.9763796666
 10
156.3663817194
 20
106.0781953544
 10
156.2709990968
 20
106.1280160802
  0
LINE
  5
36B
100
AcDbEntity
  8
RACCORDO
100
AcDbLine
 62
7
  6
CONTINUOUS
 10
156.0264829168
 20
99.8776323971
 11
156.8942002381
 21
100.3605020922
  0
LINE
  5
36C
100
AcDbEntity
  8
RACCORDO
100
AcDbLine
 62
7
  6
CONTINUOUS
 10
156.0212189108
 20
123.1710666781
 11
156.0212189108
 21
121.8663859687
  0
LINE
  5
36D
100
AcDbEntity
  8
RACCORDO
100
AcDbLine
 62
7
  6
CONTINUOUS
 10
156.0264829168
 20
78.7745927548
 11
156.0264829168
 21
82.3528474616
  0
LINE
  5
36E
100
AcDbEntity
  8
ASSI
100
AcDbLine
 62
7
  6
CONTINUOUS
 10
156.0264829168
 20
83.6532858457
 11
156.0264829168
 21
111.7977111903
  0
LINE
  5
36F
100
AcDbEntity
  8
RACCORDO
100
AcDbLine
 62
7
  6
CONTINUOUS
 10
156.0264829168
 20
113.0981495743
 11
156.0264829168
 21
116.6764042811
  0
LINE
  5
370
100
AcDbEntity
  8
ASSI
100
AcDbLine
 62
7
  6
CONTINUOUS
 10
156.0741808507
 20
112.8570941173
 11
156.0741808507
 21
111.9910687135
  0
LINE
  5
371
100
AcDbEntity
  8
ASSI
100
AcDbLine
 62
7
  6
CONTINUOUS
 10
156.0741808507
 20
83.4122303886
 11
156.0741808507
 21
82.5462049848
  0
LWPOLYLINE
  5
372
100
AcDbEntity
  8
ASSI
100
AcDbPolyline
 62
7
  6
CONTINUOUS
 90
7
 70
0
 10
155.3670740695
 20
82.1926515942
 10
155.3659197768
 20
82.1598292044
 10
155.3628701786
 20
82.1287312243
 10
155.3579252748
 20
82.0993576542
 10
155.3510850655
 20
82.0717084939
 10
155.3423495507
 20
82.0457837434
 10
155.3317187304
 20
82.0215834029
  0
LWPOLYLINE
  5
373
100
AcDbEntity
  8
ASSI
100
AcDbPolyline
 62
7
  6
CONTINUOUS
 90
7
 70
0
 10
156.0741808507
 20
82.5462049848
 10
156.0727085443
 20
82.5084517706
 10
156.0686452983
 20
82.4729093406
 10
156.0619911125
 20
82.4395776946
 10
156.052745987
 20
82.4084568328
 10
156.0409099218
 20
82.3795467552
 10
156.0264829168
 20
82.3528474616
  0
LWPOLYLINE
  5
374
100
AcDbEntity
  8
RACCORDO
100
AcDbPolyline
 62
7
  6
CONTINUOUS
 90
10
 70
0
 10
155.3317187304
 20
78.3997515372
 10
155.3298003676
 20
78.35576628
 10
155.3240661927
 20
78.3140058136
 10
155.3145251665
 20
78.2749535457
 10
155.3011713859
 20
78.238944626
 10
155.2841342354
 20
78.2065739099
 10
155.263812641
 20
78.1785448936
 10
155.2407153599
 20
78.1552600827
 10
155.2149954488
 20
78.136619709
 10
155.2070646461
 20
78.1320829754
  0
LWPOLYLINE
  5
375
100
AcDbEntity
  8
RACCORDO
100
AcDbPolyline
 62
253
  6
CONTINUOUS
 90
10
 70
0
 10
154.7498811682
 20
78.1310396695
 10
154.7473232902
 20
78.0864612231
 10
154.7409894892
 20
78.0443405441
 10
154.7309491325
 20
78.0051389367
 10
154.7173121818
 20
77.9692857354
 10
154.7002279885
 20
77.9371736035
 10
154.6798836581
 20
77.9091542319
 10
154.656502001
 20
77.8855344879
 10
154.6303390923
 20
77.866573054
 10
154.612191338
 20
77.8569458357
  0
LWPOLYLINE
  5
376
100
AcDbEntity
  8
RACCORDO
100
AcDbPolyline
 62
253
  6
CONTINUOUS
 90
4
 70
0
 10
156.2708673089
 20
106.1280853697
 10
156.1945213964
 20
106.1613441108
 10
156.103903751
 20
106.1892949109
 10
156.0264829168
 20
106.2036608405
  0
LINE
  5
377
100
AcDbEntity
  8
RACCORDO
100
AcDbLine
 62
7
  6
CONTINUOUS
 10
156.0264829168
 20
106.2502775657
 11
156.2708673074
 21
106.1280853705
  0
LWPOLYLINE
  5
378
100
AcDbEntity
  8
RACCORDO
100
AcDbPolyline
 62
253
  6
CONTINUOUS
 90
33
 70
0
 10
156.0264829168
 20
105.6587826101
 10
156.1270111309
 20
105.5711663162
 10
156.2686340784
 20
105.4350687806
 10
156.4064870955
 20
105.289641658
 10
156.5399654342
 20
105.1355192911
 10
156.668488202
 20
104.9733721091
 10
156.7915008427
 20
104.8039016942
 10
156.9084820922
 20
104.6278281306
 10
157.0189364611
 20
104.4458972885
 10
157.122392916
 20
104.2588834046
 10
157.2184053691
 20
104.0675911644
 10
157.3065601998
 20
103.872844178
 10
157.3864793648
 20
103.6754780784
 10
157.4578214944
 20
103.4763364228
 10
157.5202812494
 20
103.2762717439
 10
157.5735912265
 20
103.0761407761
 10
157.6175232295
 20
102.8768004447
 10
157.6518892589
 20
102.6791039805
 10
157.6765421842
 20
102.4838978464
 10
157.6913764445
 20
102.2920179868
 10
157.6963285378
 20
102.1042859139
 10
157.6913772595
 20
101.9215054963
 10
157.6765438116
 20
101.7444594027
 10
157.6518916941
 20
101.5739056477
 10
157.6175264661
 20
101.4105746163
 10
157.5735952559
 20
101.2551656422
 10
157.5202860625
 20
101.1083439608
 10
157.457827093
 20
100.9707383265
 10
157.3864857405
 20
100.8429380422
 10
157.3065672976
 20
100.725490243
 10
157.2184130805
 20
100.6188970948
 10
157.1224011505
 20
100.5236162572
 10
157.0189451945
 20
100.4400577897
  0
LWPOLYLINE
  5
379
100
AcDbEntity
  8
ASSI
100
AcDbPolyline
 62
7
  6
CONTINUOUS
 90
4
 70
0
 10
156.0212188794
 20
123.1720326926
 10
156.0209805542
 20
123.1743793268
 10
156.0181683992
 20
123.1792473814
 10
156.0154010248
 20
123.1811170096
  0
LWPOLYLINE
  5
37A
100
AcDbEntity
  8
RACCORDO
100
AcDbPolyline
 62
253
  6
CONTINUOUS
 90
3
 70
0
 10
154.0481565819
 20
77.9211461767
 10
154.0442902451
 20
77.9006115891
 10
154.042774387
 20
77.8784676074
  0
LWPOLYLINE
  5
37B
100
AcDbEntity
  8
RACCORDO
100
AcDbPolyline
 62
253
  6
CONTINUOUS
 90
20
 70
0
 10
139.5408688235
 20
85.3881628087
 10
139.5192947337
 20
85.3754763655
 10
139.4995181711
 20
85.3635793812
 10
139.4814574766
 20
85.3524917689
 10
139.4650191414
 20
85.342270994
 10
139.4501296396
 20
85.3328666717
 10
139.4367566262
 20
85.3241379076
 10
139.4248440785
 20
85.3160727259
 10
139.4143278049
 20
85.3086794647
 10
139.4051943735
 20
85.3018654476
 10
139.3973975839
 20
85.2956210305
 10
139.3908900581
 20
85.2899467875
 10
139.3856760133
 20
85.2847795004
 10
139.3817175792
 20
85.2801099446
 10
139.3789757449
 20
85.2759350147
 10
139.3774640338
 20
85.2722096774
 10
139.3771518226
 20
85.2689226964
 10
139.3780023657
 20
85.2660678397
 10
139.3800251284
 20
85.2636109121
 10
139.383323837
 20
85.2614717592
  0
LINE
  5
37C
100
AcDbEntity
  8
RACCORDO
100
AcDbLine
 62
253
  6
CONTINUOUS
 10
149.2041223978
 20
92.4030001222
 11
150.2414114066
 21
92.9295108499
  0
LWPOLYLINE
  5
37D
100
AcDbEntity
  8
DRAFT
100
AcDbPolyline
 62
7
  6
CONTINUOUS
 90
25
 70
0
 10
150.5941032965
 20
120.0428772657
 10
150.605111113
 20
120.0183355034
 10
150.6152203019
 20
119.9936663978
 10
150.624430863
 20
119.9688699488
 10
150.6327640687
 20
119.9438742735
 10
150.6401986467
 20
119.9187512547
 10
150.6466707806
 20
119.8937165419
 10
150.6521721854
 20
119.8687708951
 10
150.6567111461
 20
119.8439135542
 10
150.6602487015
 20
119.8193578879
 10
150.6627762311
 20
119.7951064932
 10
150.6643023554
 20
119.7711567731
 10
150.6648139746
 20
119.7477143055
 10
150.6643023554
 20
119.7247834572
 10
150.6627762311
 20
119.7023598614
 10
150.6602487015
 20
119.6806359962
 10
150.6567111461
 20
119.6596178854
 10
150.6521721854
 20
119.6392995051
 10
150.6466707806
 20
119.6198552631
 10
150.6401986467
 20
119.6012926842
 10
150.6327640687
 20
119.5836042435
 10
150.624430863
 20
119.5669417737
 10
150.6152203019
 20
119.551355886
 10
150.605111113
 20
119.5367959692
 10
150.5941032965
 20
119.5232620234
  0
LWPOLYLINE
  5
37E
100
AcDbEntity
  8
ASSI
100
AcDbPolyline
 62
7
  6
CONTINUOUS
 90
7
 70
0
 10
156.0264829168
 20
113.0981495743
 10
156.0409099218
 20
113.0570232758
 10
156.052745987
 20
113.0162771329
 10
156.0619911125
 20
112.9759111456
 10
156.0686452983
 20
112.9359253139
 10
156.0727085443
 20
112.8963196378
 10
156.0741808507
 20
112.8570941173
  0
LWPOLYLINE
  5
37F
100
AcDbEntity
  8
ASSI
100
AcDbPolyline
 62
7
  6
CONTINUOUS
 90
7
 70
0
 10
155.3317187304
 20
112.7099642571
 10
155.3423495507
 20
112.6751330962
 10
155.3510850655
 20
112.640472831
 10
155.3579252748
 20
112.6059834614
 10
155.3628701786
 20
112.5716649875
 10
155.3659197768
 20
112.5375174093
 10
155.3670740695
 20
112.5035407267
  0
LINE
  5
380
100
AcDbEntity
  8
RACCORDO
100
AcDbLine
 62
7
  6
CONTINUOUS
 10
160.9914045567
 20
120.4833216519
 11
160.9914045567
 21
119.4289602806
  0
LINE
  5
381
100
AcDbEntity
  8
RACCORDO
100
AcDbLine
 62
7
  6
CONTINUOUS
 10
160.9914045567
 20
86.6134643016
 11
160.9914045567
 21
84.8381467708
  0
LINE
  5
382
100
AcDbEntity
  8
RACCORDO
100
AcDbLine
 62
253
  6
CONTINUOUS
 10
161.3511017322
 20
84.311575957
 11
161.3511017322
 21
84.1243657141
  0
LINE
  5
383
100
AcDbEntity
  8
RACCORDO
100
AcDbLine
 62
253
  6
CONTINUOUS
 10
161.3511017322
 20
120.6702152609
 11
161.3511017322
 21
120.8574255038
  0
LINE
  5
384
100
AcDbEntity
  8
RACCORDO
100
AcDbLine
 62
7
  6
CONTINUOUS
 10
161.4944765077
 20
84.4841968053
 11
161.4944765077
 21
84.2995930546
  0
LINE
  5
385
100
AcDbEntity
  8
RACCORDO
100
AcDbLine
 62
7
  6
CONTINUOUS
 10
161.4944765077
 20
120.8480490447
 11
161.4944765077
 21
121.0326528026
  0
LWPOLYLINE
  5
386
100
AcDbEntity
  8
RACCORDO
100
AcDbPolyline
 62
7
  6
CONTINUOUS
 90
8
 70
0
 10
160.9914045567
 20
119.4289602806
 10
160.9899386331
 20
119.3992035277
 10
160.9859400203
 20
119.3718580357
 10
160.9794087182
 20
119.3469238044
 10
160.9701432566
 20
119.3240960647
 10
160.9583451058
 20
119.3036795857
 10
160.9446186764
 20
119.2865886755
 10
160.9411111818
 20
119.2830850294
  0
LINE
  5
387
100
AcDbEntity
  8
RACCORDO
100
AcDbLine
 62
253
  6
CONTINUOUS
 10
154.0504035903
 20
77.9279318216
 11
154.0481565819
 21
77.9211461767
  0
LINE
  5
388
100
AcDbEntity
  8
RACCORDO
100
AcDbLine
 62
253
  6
CONTINUOUS
 10
150.6174744595
 20
89.9653284024
 11
151.6547634683
 21
90.49183913
  0
LWPOLYLINE
  5
389
100
AcDbEntity
  8
RACCORDO
100
AcDbPolyline
 62
253
  6
CONTINUOUS
 90
10
 70
0
 10
161.3511017322
 20
120.8574255038
 10
161.3501080673
 20
120.8872359205
 10
161.3476410832
 20
120.9154885874
 10
161.3437007799
 20
120.9421835045
 10
161.3382718814
 20
120.9672615318
 10
161.3313696638
 20
120.9907818092
 10
161.3230399552
 20
121.0129217571
 10
161.3132980316
 20
121.0337405154
 10
161.3021286171
 20
121.0531789442
 10
161.2895317116
 20
121.0712370433
  0
LWPOLYLINE
  5
38A
100
AcDbEntity
  8
RACCORDO
100
AcDbPolyline
 62
7
  6
CONTINUOUS
 90
13
 70
0
 10
161.4944682906
 20
121.0327213095
 10
161.4923672483
 20
121.0979813555
 10
161.4854243515
 20
121.1668607124
 10
161.4737174617
 20
121.2334734059
 10
161.4573561081
 20
121.297666846
 10
161.4364786567
 20
121.3591790497
 10
161.4112488292
 20
121.4177362915
 10
161.3818311257
 20
121.4731614883
 10
161.3484432427
 20
121.5251993454
 10
161.3113650806
 20
121.5735534309
 10
161.2708834468
 20
121.6180074906
 10
161.227326927
 20
121.6583724474
 10
161.1810786457
 20
121.6944580277
  0
LWPOLYLINE
  5
38B
100
AcDbEntity
  8
RACCORDO
100
AcDbPolyline
 62
253
  6
CONTINUOUS
 90
10
 70
0
 10
161.3511017322
 20
84.1243657141
 10
161.3501480195
 20
84.0937715517
 10
161.3476991452
 20
84.0631247402
 10
161.3437551094
 20
84.0324252795
 10
161.3382848302
 20
84.0016443849
 10
161.3313193894
 20
83.9708108412
 10
161.3229520326
 20
83.9400110021
 10
161.3132138417
 20
83.9092736522
 10
161.3020737346
 20
83.878570007
 10
161.2895317116
 20
83.8479000663
  0
LWPOLYLINE
  5
38C
100
AcDbEntity
  8
RACCORDO
100
AcDbPolyline
 62
253
  6
CONTINUOUS
 90
9
 70
0
 10
161.4944765072
 20
84.2995827812
 10
161.4939074148
 20
84.2876686159
 10
161.4887227009
 20
84.2617753979
 10
161.4781829544
 20
84.2362920383
 10
161.462402434
 20
84.2114946277
 10
161.4415521632
 20
84.1876518129
 10
161.4158580903
 20
84.1650219059
 10
161.3855986503
 20
84.1438500831
 10
161.3511017322
 20
84.1243657141
  0
LWPOLYLINE
  5
38D
100
AcDbEntity
  8
RACCORDO
100
AcDbPolyline
 62
253
  6
CONTINUOUS
 90
10
 70
0
 10
155.1487164158
 20
77.3408881822
 10
155.1567836137
 20
77.3655806538
 10
155.1628042879
 20
77.3909432941
 10
155.1667144468
 20
77.4166997731
 10
155.1684729842
 20
77.442564626
 10
155.1680633649
 20
77.4682619922
 10
155.1654894159
 20
77.4935280657
 10
155.1607732645
 20
77.518102409
 10
155.1539649028
 20
77.5417008974
 10
155.1451483933
 20
77.5640385053
  0
LWPOLYLINE
  5
38E
100
AcDbEntity
  8
RACCORDO
100
AcDbPolyline
 62
253
  6
CONTINUOUS
 90
16
 70
0
 10
149.9229218889
 20
115.4340616571
 10
149.9609111094
 20
115.4169187484
 10
150.0022059012
 20
115.4018070738
 10
150.04637373
 20
115.3888849409
 10
150.0929519653
 20
115.3782877229
 10
150.1414527144
 20
115.3701264433
 10
150.1913679312
 20
115.36448661
 10
150.2421747624
 20
115.3614273168
 10
150.2933410029
 20
115.360980627
 10
150.3443306573
 20
115.3631512346
 10
150.3946096007
 20
115.3679164155
 10
150.4436511439
 20
115.3752262662
 10
150.4909415292
 20
115.3850042202
 10
150.5359853627
 20
115.397147856
 10
150.5783107997
 20
115.4115299744
 10
150.6174744595
 20
115.4279999254
  0
LWPOLYLINE
  5
38F
100
AcDbEntity
  8
RACCORDO
100
AcDbPolyline
 62
253
  6
CONTINUOUS
 90
9
 70
0
 10
140.4465509519
 20
120.1722471256
 10
140.4122646608
 20
120.1912420243
 10
140.3820410283
 20
120.2118897029
 10
140.3561966499
 20
120.2339738747
 10
140.3350022481
 20
120.257263206
 10
140.3186798363
 20
120.2815137387
 10
140.3074003933
 20
120.3064714461
 10
140.3012820724
 20
120.3318748938
 10
140.3001043425
 20
120.3490238209
  0
LWPOLYLINE
  5
390
100
AcDbEntity
  8
RACCORDO
100
AcDbPolyline
 62
253
  6
CONTINUOUS
 90
8
 70
0
 10
155.1487164158
 20
118.6404923216
 10
155.1567836138
 20
118.6261123744
 10
155.1628042881
 20
118.6128372027
 10
155.1667144469
 20
118.6008103827
 10
155.1684729843
 20
118.5901637379
 10
155.1680633648
 20
118.5810093546
 10
155.1654894157
 20
118.5734414599
 10
155.1633612321
 20
118.5702336078
  0
LWPOLYLINE
  5
391
100
AcDbEntity
  8
RACCORDO
100
AcDbPolyline
 62
7
  6
CONTINUOUS
 90
12
 70
0
 10
161.4203069952
 20
83.8962116729
 10
161.4205631933
 20
83.8983519091
 10
161.4185422027
 20
83.9003788495
 10
161.413302702
 20
83.9004411655
 10
161.4049722592
 20
83.8986175609
 10
161.3943094142
 20
83.8952731305
 10
161.381320246
 20
83.8903851032
 10
161.3659986756
 20
83.88397625
 10
161.3490850066
 20
83.8764799789
 10
161.3308260069
 20
83.8680407593
 10
161.3109749085
 20
83.8585141217
 10
156.0264829168
 20
81.2267890617
  0
LINE
  5
392
100
AcDbEntity
  8
RACCORDO
100
AcDbLine
 62
253
  6
CONTINUOUS
 10
141.9132615785
 20
82.6817213495
 11
141.5623930811
 21
82.51967865
  0
LINE
  5
393
100
AcDbEntity
  8
RACCORDO
100
AcDbLine
 62
7
  6
CONTINUOUS
 10
142.0226901784
 20
82.6270070496
 11
141.493548166
 21
82.3826317331
  0
LWPOLYLINE
  5
394
100
AcDbEntity
  8
RACCORDO
100
AcDbPolyline
 62
253
  6
CONTINUOUS
 90
16
 70
0
 10
141.5623930811
 20
82.51967865
 10
141.5433119064
 20
82.5113566639
 10
141.5225322788
 20
82.5040066539
 10
141.5002461404
 20
82.4977214035
 10
141.4766511288
 20
82.4925815861
 10
141.4519951213
 20
82.4886650154
 10
141.4265795431
 20
82.4860371334
 10
141.4006487051
 20
82.4847382975
 10
141.3745054259
 20
82.4847985845
 10
141.3485578218
 20
82.4862203601
 10
141.3231420598
 20
82.4889743812
 10
141.2984739151
 20
82.4930262834
 10
141.2747743609
 20
82.4983369043
 10
141.2522869435
 20
82.5048539358
 10
141.2312699882
 20
82.5125049042
 10
141.2119517932
 20
82.5212077774
  0
LWPOLYLINE
  5
395
100
AcDbEntity
  8
RACCORDO
100
AcDbPolyline
 62
253
  6
CONTINUOUS
 90
12
 70
0
 10
141.8546982921
 20
121.5469489524
 10
141.7613632647
 20
121.589117888
 10
141.6684532466
 20
121.6236801927
 10
141.5763753989
 20
121.6504966209
 10
141.4855442514
 20
121.6694648277
 10
141.396344737
 20
121.6805088032
 10
141.3091312799
 20
121.6835759398
 10
141.2242796028
 20
121.6786569059
 10
141.1421646526
 20
121.6657780711
 10
141.0631243603
 20
121.6449880563
 10
140.9875006868
 20
121.6163787497
 10
140.9241434004
 20
121.5848917144
  0
LWPOLYLINE
  5
396
100
AcDbEntity
  8
RACCORDO
100
AcDbPolyline
 62
253
  6
CONTINUOUS
 90
25
 70
0
 10
141.5072112222
 20
120.9403616372
 10
141.4375306238
 20
120.972365934
 10
141.3686714342
 20
120.9985118582
 10
141.3006336534
 20
121.0187994096
 10
141.2331121907
 20
121.0332757122
 10
141.1664121367
 20
121.0418936421
 10
141.1014487637
 20
121.0445118276
 10
141.0382653014
 20
121.0410429983
 10
140.9768185201
 20
121.0315744247
 10
140.9178940026
 20
121.0162265461
 10
140.8615238306
 20
120.9949227555
 10
140.8076759224
 20
120.96773966
 10
140.7570396155
 20
120.9350275194
 10
140.7096574203
 20
120.8967159768
 10
140.6654868265
 20
120.8528753892
 10
140.6250896398
 20
120.8040670876
 10
140.5885144775
 20
120.7502276481
 10
140.5557127225
 20
120.6914204945
 10
140.527100329
 20
120.6283972295
 10
140.5027301531
 20
120.5610741418
 10
140.4825493387
 20
120.4895349426
 10
140.4668152727
 20
120.4147823678
 10
140.4556137507
 20
120.3371506626
 10
140.4488589771
 20
120.2563055819
 10
140.4465509519
 20
120.1722471256
  0
LINE
  5
397
100
AcDbEntity
  8
RACCORDO
100
AcDbLine
 62
253
  6
CONTINUOUS
 10
148.8622616186
 20
117.2628364389
 11
141.5072112222
 21
120.9403616372
  0
LINE
  5
398
100
AcDbEntity
  8
RACCORDO
100
AcDbLine
 62
253
  6
CONTINUOUS
 10
149.209541625
 20
117.8695262208
 11
141.8546972815
 21
121.5469483926
  0
LINE
  5
399
100
AcDbEntity
  8
RACCORDO
100
AcDbLine
 62
253
  6
CONTINUOUS
 10
139.0074800169
 20
123.5624515304
 11
139.5408688235
 21
123.2957571271
  0
LINE
  5
39A
100
AcDbEntity
  8
RACCORDO
100
AcDbLine
 62
253
  6
CONTINUOUS
 10
153.5156097858
 20
116.3083866459
 11
154.0489985924
 21
116.0416922427
  0
LINE
  5
39B
100
AcDbEntity
  8
DRAFT
100
AcDbLine
 62
7
  6
CONTINUOUS
 10
149.6668424053
 20
118.6582907332
 11
149.0031130388
 21
118.9901554165
  0
LINE
  5
39C
100
AcDbEntity
  8
DRAFT
100
AcDbLine
 62
7
  6
CONTINUOUS
 10
144.0533655705
 20
121.4650291506
 11
143.389636204
 21
121.7968938339
  0
LINE
  5
39D
100
AcDbEntity
  8
RACCORDO
100
AcDbLine
 62
7
  6
CONTINUOUS
 10
141.4748610693
 20
122.7542814014
 11
142.8159288347
 21
122.0837475185
  0
LINE
  5
39E
100
AcDbEntity
  8
RACCORDO
100
AcDbLine
 62
7
  6
CONTINUOUS
 10
150.2405497746
 20
118.3714370486
 11
151.581617542
 21
117.7009031653
  0
LWPOLYLINE
  5
39F
100
AcDbEntity
  8
RACCORDO
100
AcDbPolyline
 62
253
  6
CONTINUOUS
 90
11
 70
0
 10
151.8445179414
 20
117.7396611679
 10
151.8300146378
 20
117.747591194
 10
151.8169285542
 20
117.7561555148
 10
151.805352818
 20
117.7652905188
 10
151.7953707182
 20
117.7749289477
 10
151.7870498484
 20
117.7850003888
 10
151.7804445595
 20
117.7954324189
 10
151.7756015176
 20
117.8061531219
 10
151.7725563479
 20
117.8170836334
 10
151.7713302619
 20
117.8281391216
 10
151.7713035153
 20
117.8300138755
  0
LWPOLYLINE
  5
3A0
100
AcDbEntity
  8
RACCORDO
100
AcDbPolyline
 62
7
  6
CONTINUOUS
 90
13
 70
0
 10
141.4748610693
 20
122.7542814014
 10
141.4535462823
 20
122.7662459568
 10
141.4319757333
 20
122.7809313277
 10
141.4101494226
 20
122.7983375141
 10
141.3879331758
 20
122.8186642024
 10
141.3654611672
 20
122.8417117062
 10
141.3431359194
 20
122.8668809661
 10
141.3211320737
 20
122.8941705539
 10
141.2992749888
 20
122.9235818978
 10
141.2774432632
 20
122.9545202229
 10
141.2555964297
 20
122.986787271
 10
141.2337749555
 20
123.0205813003
 10
141.2119788406
 20
123.0559023108
  0
LWPOLYLINE
  5
3A1
100
AcDbEntity
  8
RACCORDO
100
AcDbPolyline
 62
253
  6
CONTINUOUS
 90
13
 70
0
 10
154.0570785638
 20
116.6635309944
 10
154.0385320977
 20
116.6741404818
 10
154.0194162826
 20
116.686860683
 10
154.0000555444
 20
116.7014757158
 10
153.9807784655
 20
116.7177375399
 10
153.9619122086
 20
116.7353701663
 10
153.9437769641
 20
116.7540743413
 10
153.9266805158
 20
116.7735326253
 10
153.9109130178
 20
116.7934147803
 10
153.8967420694
 20
116.8133833745
 10
153.8844081743
 20
116.8330995093
 10
153.8741206583
 20
116.8522285704
 10
153.8660541168
 20
116.8704459072
  0
LWPOLYLINE
  5
3A2
100
AcDbEntity
  8
RACCORDO
100
AcDbPolyline
 62
253
  6
CONTINUOUS
 90
16
 70
0
 10
154.3963816255
 20
116.6483305112
 10
154.4327143838
 20
116.6271686736
 10
154.4687168047
 20
116.6015307711
 10
154.5039945909
 20
116.5716975888
 10
154.5381613815
 20
116.5379958586
 10
154.570842983
 20
116.5007946806
 10
154.6016814673
 20
116.4605014812
 10
154.6303390923
 20
116.41755755
 10
154.656502001
 20
116.3724332074
 10
154.6798836581
 20
116.3256226536
 10
154.7002279885
 20
116.2776385559
 10
154.7173121818
 20
116.2290064346
 10
154.7309491325
 20
116.1802589072
 10
154.7409894892
 20
116.1319298549
 10
154.7473232902
 20
116.0845485758
 10
154.7498811682
 20
116.0386339879
  0
LWPOLYLINE
  5
3A3
100
AcDbEntity
  8
RACCORDO
100
AcDbPolyline
 62
253
  6
CONTINUOUS
 90
13
 70
0
 10
154.1841742041
 20
116.7544342219
 10
154.1660222715
 20
116.7652989556
 10
154.1481385891
 20
116.7789187439
 10
154.1308290331
 20
116.7950606385
 10
154.1143896603
 20
116.8134485542
 10
154.099101644
 20
116.8337679903
 10
154.0852264647
 20
116.8556714104
 10
154.0730014388
 20
116.8787841858
 10
154.0626356589
 20
116.9027110038
 10
154.0543064177
 20
116.9270426284
 10
154.0481561754
 20
116.9513628999
 10
154.0442901239
 20
116.975255853
 10
154.0427743867
 20
116.9983128308
  0
LWPOLYLINE
  5
3A4
100
AcDbEntity
  8
RACCORDO
100
AcDbPolyline
 62
7
  6
CONTINUOUS
 90
6
 70
0
 10
161.4203543488
 20
83.8962386713
 10
161.4404216634
 20
83.9556699723
 10
161.4638830383
 20
84.0418939498
 10
161.4808727136
 20
84.1287766271
 10
161.4911877866
 20
84.2164421794
 10
161.4944653736
 20
84.2995827752
  0
LWPOLYLINE
  5
3A5
100
AcDbEntity
  8
RACCORDO
100
AcDbPolyline
 62
7
  6
CONTINUOUS
 90
5
 70
0
 10
154.6009320885
 20
76.6217760367
 10
154.6111597538
 20
76.6420615817
 10
154.6185958906
 20
76.6651626518
 10
154.6231074282
 20
76.6906812364
 10
154.6246119492
 20
76.7181782038
  0
LWPOLYLINE
  5
3A6
100
AcDbEntity
  8
RACCORDO
100
AcDbPolyline
 62
253
  6
CONTINUOUS
 90
4
 70
0
 10
153.896739916
 20
77.9013786371
 10
153.8844057019
 20
77.8813482005
 10
153.8741177819
 20
77.8593218537
 10
153.8660507514
 20
77.8356734032
  0
LINE
  5
3A7
100
AcDbEntity
  8
RACCORDO
100
AcDbLine
 62
7
  6
CONTINUOUS
 10
144.3573571431
 20
81.4596735672
 11
144.2285996177
 21
81.396670989
  0
LWPOLYLINE
  5
3A8
100
AcDbEntity
  8
RACCORDO
100
AcDbPolyline
 62
253
  6
CONTINUOUS
 90
3
 70
0
 10
151.7678347882
 20
117.8069972856
 10
151.7549264183
 20
117.8056072524
 10
151.7372131974
 20
117.8069767461
  0
LINE
  5
3A9
100
AcDbEntity
  8
RACCORDO
100
AcDbLine
 62
253
  6
CONTINUOUS
 10
151.7372131974
 20
117.8069767461
 11
151.7188224564
 21
117.8114941694
  0
LINE
  5
3AA
100
AcDbEntity
  8
RACCORDO
100
AcDbLine
 62
253
  6
CONTINUOUS
 10
151.7188224564
 20
117.8114941694
 11
151.7000687442
 21
117.8190822577
  0
LINE
  5
3AB
100
AcDbEntity
  8
RACCORDO
100
AcDbLine
 62
253
  6
CONTINUOUS
 10
154.184146128
 20
116.7544200756
 11
154.3963816255
 21
116.6483305112
  0
LINE
  5
3AC
100
AcDbEntity
  8
RACCORDO
100
AcDbLine
 62
253
  6
CONTINUOUS
 10
139.3548630501
 20
124.1690897989
 11
139.4676455188
 21
124.1126841451
  0
LINE
  5
3AD
100
AcDbEntity
  8
RACCORDO
100
AcDbLine
 62
7
  6
CONTINUOUS
 10
144.6190509954
 20
121.7599650868
 11
146.2069286764
 21
120.9660262464
  0
LINE
  5
3AE
100
AcDbEntity
  8
RACCORDO
100
AcDbLine
 62
7
  6
CONTINUOUS
 10
147.9809207828
 20
120.0790301931
 11
149.0031130388
 21
119.5679340652
  0
LINE
  5
3AF
100
AcDbEntity
  8
RACCORDO
100
AcDbLine
 62
7
  6
CONTINUOUS
 10
142.4623537731
 20
123.1994253534
 11
143.389636204
 21
122.735784138
  0
LINE
  5
3B0
100
AcDbEntity
  8
DRAFT
100
AcDbLine
 62
7
  6
CONTINUOUS
 10
146.740371339
 20
121.0604165705
 11
147.9076974781
 21
120.4767535009
  0
LINE
  5
3B1
100
AcDbEntity
  8
RACCORDO
100
AcDbLine
 62
7
  6
CONTINUOUS
 10
150.5941032965
 20
119.1335505917
 11
151.7713035114
 21
118.5449504843
  0
LINE
  5
3B2
100
AcDbEntity
  8
RACCORDO
100
AcDbLine
 62
7
  6
CONTINUOUS
 10
154.7660117658
 20
117.0475963571
 11
154.9782191877
 21
116.9414926461
  0
LINE
  5
3B3
100
AcDbEntity
  8
RACCORDO
100
AcDbLine
 62
253
  6
CONTINUOUS
 10
149.6668424053
 20
119.839132699
 11
149.0031130388
 21
120.1709973823
  0
LINE
  5
3B4
100
AcDbEntity
  8
RACCORDO
100
AcDbLine
 62
253
  6
CONTINUOUS
 10
144.0533655705
 20
122.6458711164
 11
143.389636204
 21
122.9777357997
  0
LINE
  5
3B5
100
AcDbEntity
  8
RACCORDO
100
AcDbLine
 62
253
  6
CONTINUOUS
 10
149.8436056969
 20
120.1424832075
 11
149.178347086
 21
120.4751125129
  0
LINE
  5
3B6
100
AcDbEntity
  8
RACCORDO
100
AcDbLine
 62
253
  6
CONTINUOUS
 10
144.2285996177
 20
122.9499862471
 11
143.5633410068
 21
123.2826155525
  0
LINE
  5
3B7
100
AcDbEntity
  8
RACCORDO
100
AcDbLine
 62
253
  6
CONTINUOUS
 10
139.5408688235
 20
125.3271706736
 11
141.2119517932
 21
124.4916291887
  0
LINE
  5
3B8
100
AcDbEntity
  8
RACCORDO
100
AcDbLine
 62
253
  6
CONTINUOUS
 10
151.8445268161
 20
119.1753416773
 11
153.5156097858
 21
118.3398001924
  0
LINE
  5
3B9
100
AcDbEntity
  8
RACCORDO
100
AcDbLine
 62
7
  6
CONTINUOUS
 10
142.3209539566
 20
123.9621155132
 11
143.015718143
 21
123.61473342
  0
LINE
  5
3BA
100
AcDbEntity
  8
DRAFT
100
AcDbLine
 62
7
  6
CONTINUOUS
 10
147.4351355254
 20
121.4050247288
 11
147.9076974781
 21
121.1687437524
  0
LINE
  5
3BB
100
AcDbEntity
  8
RACCORDO
100
AcDbLine
 62
7
  6
CONTINUOUS
 10
154.6246119492
 20
117.8102865169
 11
155.6729833741
 21
117.2861008044
  0
LINE
  5
3BC
100
AcDbEntity
  8
RACCORDO
100
AcDbLine
 62
253
  6
CONTINUOUS
 10
149.3564429859
 20
120.566063985
 11
147.9809207828
 21
121.2538250866
  0
LINE
  5
3BD
100
AcDbEntity
  8
RACCORDO
100
AcDbLine
 62
253
  6
CONTINUOUS
 10
146.2069286764
 20
122.1408211398
 11
144.6190509954
 21
122.9347599803
  0
LINE
  5
3BE
100
AcDbEntity
  8
RACCORDO
100
AcDbLine
 62
253
  6
CONTINUOUS
 10
139.71456034
 20
125.6304898078
 11
141.3856433098
 21
124.794948323
  0
LINE
  5
3BF
100
AcDbEntity
  8
RACCORDO
100
AcDbLine
 62
253
  6
CONTINUOUS
 10
152.0182183327
 20
119.4786608115
 11
153.6893013024
 21
118.6431193267
  0
LINE
  5
3C0
100
AcDbEntity
  8
RACCORDO
100
AcDbLine
 62
253
  6
CONTINUOUS
 10
149.7440325109
 20
120.7640013767
 11
148.15615483
 21
121.5579402172
  0
LINE
  5
3C1
100
AcDbEntity
  8
RACCORDO
100
AcDbLine
 62
253
  6
CONTINUOUS
 10
146.3821627236
 20
122.4449362704
 11
144.7942850426
 21
123.2388751109
  0
LWPOLYLINE
  5
3C2
100
AcDbEntity
  8
RACCORDO
100
AcDbPolyline
 62
253
  6
CONTINUOUS
 90
16
 70
0
 10
141.3856433098
 20
124.794948323
 10
141.403809704
 20
124.7843673944
 10
141.4218109325
 20
124.7715484271
 10
141.4394498456
 20
124.7566318131
 10
141.4565332661
 20
124.7397809136
 10
141.4728740916
 20
124.7211802819
 10
141.4882933462
 20
124.7010336463
 10
141.5026221562
 20
124.6795616608
 10
141.5157035991
 20
124.6569994826
 10
141.5273944103
 20
124.6335942115
 10
141.5375665534
 20
124.6096021849
 10
141.5461086273
 20
124.5852861597
 10
141.552927085
 20
124.560912432
 10
141.5579472514
 20
124.5367479374
 10
141.5611141447
 20
124.5130573278
 10
141.5623930811
 20
124.4901000613
  0
LWPOLYLINE
  5
3C3
100
AcDbEntity
  8
RACCORDO
100
AcDbPolyline
 62
253
  6
CONTINUOUS
 90
16
 70
0
 10
153.6893013024
 20
118.6431193267
 10
153.7074676957
 20
118.6325383987
 10
153.725468923
 20
118.6197194325
 10
153.7431078349
 20
118.6048028199
 10
153.7601912532
 20
118.5879519232
 10
153.7765320766
 20
118.5693512949
 10
153.7919513315
 20
118.5492046602
 10
153.8062801459
 20
118.5277326693
 10
153.8193615941
 20
118.505170482
 10
153.831052408
 20
118.4817652043
 10
153.8412245502
 20
118.4577731778
 10
153.8497666222
 20
118.4334571563
 10
153.8565850785
 20
118.409083432
 10
153.8616052444
 20
118.384918939
 10
153.8647721375
 20
118.3612283306
 10
153.8660510737
 20
118.338271065
  0
LWPOLYLINE
  5
3C4
100
AcDbEntity
  8
DRAFT
100
AcDbPolyline
 62
7
  6
CONTINUOUS
 90
19
 70
0
 10
155.8511229499
 20
122.7796649342
 10
155.8748044924
 20
122.7390054236
 10
155.8959016008
 20
122.6976613049
 10
155.914414275
 20
122.6556325782
 10
155.9304574188
 20
122.6125451247
 10
155.9439161284
 20
122.5687730631
 10
155.9544456928
 20
122.5254387494
 10
155.9619703061
 20
122.4825537445
 10
155.9665657741
 20
122.4401064874
 10
155.9681148029
 20
122.3991846517
 10
155.9665386755
 20
122.359827739
 10
155.9619161089
 20
122.3219962477
 10
155.9543659606
 20
122.286659346
 10
155.9438056506
 20
122.2538773583
 10
155.930317759
 20
122.2235899603
 10
155.9142688834
 20
122.1965853479
 10
155.8957812229
 20
122.1731262528
 10
155.8747325784
 20
122.1529499433
 10
155.8511229499
 20
122.1360564193
  0
LWPOLYLINE
  5
3C5
100
AcDbEntity
  8
RACCORDO
100
AcDbPolyline
 62
7
  6
CONTINUOUS
 90
6
 70
0
 10
153.2217999058
 20
120.1469183741
 10
153.2516179919
 20
120.1534871453
 10
153.2820079105
 20
120.1563718019
 10
153.3127854428
 20
120.1555076081
 10
153.3434888165
 20
120.1508086812
 10
153.3734756419
 20
120.1423025474
  0
LWPOLYLINE
  5
3C6
100
AcDbEntity
  8
RACCORDO
100
AcDbPolyline
 62
7
  6
CONTINUOUS
 90
4
 70
0
 10
152.6831112577
 20
119.8912244517
 10
152.7049992834
 20
119.889375918
 10
152.7276736633
 20
119.8835601878
 10
152.7507520551
 20
119.8738795603
  0
LWPOLYLINE
  5
3C7
100
AcDbEntity
  8
RACCORDO
100
AcDbPolyline
 62
253
  6
CONTINUOUS
 90
6
 70
0
 10
153.399429919
 20
120.1314463571
 10
153.3805564856
 20
120.137822073
 10
153.3601743785
 20
120.1403273674
 10
153.3386246387
 20
120.1389203198
 10
153.3162678558
 20
120.1336244731
 10
153.2934781179
 20
120.1245284414
  0
LWPOLYLINE
  5
3C8
100
AcDbEntity
  8
RACCORDO
100
AcDbPolyline
 62
253
  6
CONTINUOUS
 90
8
 70
0
 10
148.15615483
 20
121.5579402172
 10
148.1372723046
 20
121.5658646645
 10
148.1186207559
 20
121.5713131868
 10
148.1004061961
 20
121.5742275408
 10
148.0828399751
 20
121.5745781314
 10
148.0661041244
 20
121.5723656964
 10
148.0503548253
 20
121.5676057381
 10
148.0408640908
 20
121.5632337037
  0
LWPOLYLINE
  5
3C9
100
AcDbEntity
  8
RACCORDO
100
AcDbPolyline
 62
7
  6
CONTINUOUS
 90
6
 70
0
 10
140.4470940625
 20
126.0257085567
 10
140.4240299771
 20
126.0353963373
 10
140.4013519807
 20
126.0412102593
 10
140.379453265
 20
126.0430534481
 10
140.3587142667
 20
126.0408972708
 10
140.3379202625
 20
126.0340708459
  0
LINE
  5
3CA
100
AcDbEntity
  8
RACCORDO
100
AcDbLine
 62
7
  6
CONTINUOUS
 10
153.3734756419
 20
120.1423025474
 11
153.402196338
 21
120.1301192738
  0
LWPOLYLINE
  5
3CB
100
AcDbEntity
  8
RACCORDO
100
AcDbPolyline
 62
253
  6
CONTINUOUS
 90
16
 70
0
 10
146.2069286764
 20
122.1408211398
 10
146.2262477892
 20
122.1321178944
 10
146.2472659006
 20
122.1244666229
 10
146.2697546975
 20
122.1179493825
 10
146.2934556863
 20
122.1126386996
 10
146.3181254226
 20
122.1085868628
 10
146.3435433556
 20
122.1058330184
 10
146.3694944786
 20
122.1044116003
 10
146.3956417601
 20
122.1043520461
 10
146.4215750453
 20
122.1056519221
 10
146.446990939
 20
122.1082808546
 10
146.4716457532
 20
122.1121982815
 10
146.4952379805
 20
122.1173384935
 10
146.5175199422
 20
122.1236234316
 10
146.5382944414
 20
122.1309722497
 10
146.5573699643
 20
122.1392920124
  0
LWPOLYLINE
  5
3CC
100
AcDbEntity
  8
RACCORDO
100
AcDbPolyline
 62
253
  6
CONTINUOUS
 90
8
 70
0
 10
153.2934781179
 20
120.1245284414
 10
153.2756992503
 20
120.1325751255
 10
153.2579832244
 20
120.1382739505
 10
153.2405216952
 20
120.141526782
 10
153.2234976162
 20
120.1422597611
 10
153.2071167245
 20
120.1404227741
 10
153.1915999414
 20
120.136007617
 10
153.1855925718
 20
120.1334857834
  0
LWPOLYLINE
  5
3CD
100
AcDbEntity
  8
RACCORDO
100
AcDbPolyline
 62
253
  6
CONTINUOUS
 90
7
 70
0
 10
155.0806848548
 20
119.2908750154
 10
155.0779184335
 20
119.2922020994
 10
155.0590450042
 20
119.2985778116
 10
155.038662901
 20
119.3010831043
 10
155.0171131637
 20
119.2996760563
 10
154.9947563821
 20
119.2943802098
 10
154.9719666444
 20
119.2852841781
  0
LINE
  5
3CE
100
AcDbEntity
  8
RACCORDO
100
AcDbLine
 62
253
  6
CONTINUOUS
 10
153.4021963286
 20
120.1301192785
 11
153.399429919
 21
120.1314463571
  0
LINE
  5
3CF
100
AcDbEntity
  8
RACCORDO
100
AcDbLine
 62
7
  6
CONTINUOUS
 10
144.3008529439
 20
123.6658164141
 11
146.5635946427
 21
122.5344455647
  0
LINE
  5
3D0
100
AcDbEntity
  8
RACCORDO
100
AcDbLine
 62
7
  6
CONTINUOUS
 10
148.3313615977
 20
121.6505620872
 11
150.5941032965
 21
120.5191912378
  0
LINE
  5
3D1
100
AcDbEntity
  8
RACCORDO
100
AcDbLine
 62
7
  6
CONTINUOUS
 10
140.4470940625
 20
126.0257085567
 11
142.1442041852
 21
125.1771534953
  0
LINE
  5
3D2
100
AcDbEntity
  8
RACCORDO
100
AcDbLine
 62
7
  6
CONTINUOUS
 10
152.7507520551
 20
119.8738795603
 11
154.4478621779
 21
119.025324499
  0
LINE
  5
3D3
100
AcDbEntity
  8
RACCORDO
100
AcDbLine
 62
7
  6
CONTINUOUS
 10
145.6797111672
 20
123.6759363944
 11
147.2583588291
 21
122.8866125635
  0
LINE
  5
3D4
100
AcDbEntity
  8
RACCORDO
100
AcDbLine
 62
7
  6
CONTINUOUS
 10
149.0508109737
 20
121.9903864912
 11
150.6294586355
 21
121.2010626602
  0
LINE
  5
3D5
100
AcDbEntity
  8
RACCORDO
100
AcDbLine
 62
253
  6
CONTINUOUS
 10
154.9719666444
 20
119.2852841781
 11
153.2934781179
 21
120.1245284414
  0
LINE
  5
3D6
100
AcDbEntity
  8
RACCORDO
100
AcDbLine
 62
253
  6
CONTINUOUS
 10
142.6683086518
 20
125.4371131745
 11
140.9898201252
 21
126.2763574378
  0
LINE
  5
3D7
100
AcDbEntity
  8
RACCORDO
100
AcDbLine
 62
7
  6
CONTINUOUS
 10
155.0806848646
 20
119.2908750105
 11
153.402196338
 21
120.1301192738
  0
LINE
  5
3D8
100
AcDbEntity
  8
RACCORDO
100
AcDbLine
 62
7
  6
CONTINUOUS
 10
142.7770268719
 20
125.4427040069
 11
141.0985383453
 21
126.2819482702
  0
LWPOLYLINE
  5
3D9
100
AcDbEntity
  8
RACCORDO
100
AcDbPolyline
 62
253
  6
CONTINUOUS
 90
16
 70
0
 10
142.6683086518
 20
125.4371131745
 10
142.6866860769
 20
125.4270817122
 10
142.7049322197
 20
125.414799453
 10
142.722848647
 20
125.4003633065
 10
142.7402465014
 20
125.3838853192
 10
142.7569143491
 20
125.3655239629
 10
142.7726264559
 20
125.3454943611
 10
142.7872121342
 20
125.3239826803
 10
142.8004824956
 20
125.3012333972
 10
142.8122247174
 20
125.2776028959
 10
142.8222952438
 20
125.2534108098
 10
142.830617371
 20
125.2288770285
 10
142.8371175479
 20
125.2042287498
 10
142.8417247472
 20
125.1797232693
 10
142.8443820304
 20
125.1556464375
 10
142.8450584231
 20
125.1322649128
  0
LWPOLYLINE
  5
3DA
100
AcDbEntity
  8
RACCORDO
100
AcDbPolyline
 62
7
  6
CONTINUOUS
 90
12
 70
0
 10
155.0806848646
 20
119.2908750105
 10
155.1035579656
 20
119.277891378
 10
155.1251608841
 20
119.2624006374
 10
155.1451465833
 20
119.2445550096
 10
155.1631483952
 20
119.2246224542
 10
155.1789423767
 20
119.2028204281
 10
155.1923991359
 20
119.1792496894
 10
155.2033078415
 20
119.1541259532
 10
155.2114213742
 20
119.1278849302
 10
155.2166076127
 20
119.1009097956
 10
155.2188064181
 20
119.0733919738
 10
155.2188814304
 20
119.0672017475
  0
LWPOLYLINE
  5
3DB
100
AcDbEntity
  8
RACCORDO
100
AcDbPolyline
 62
7
  6
CONTINUOUS
 90
13
 70
0
 10
154.4478621779
 20
119.025324499
 10
154.4709262633
 20
119.0119338878
 10
154.4936042597
 20
118.9950734299
 10
154.5155029754
 20
118.9750285929
 10
154.5362419737
 20
118.9521387935
 10
154.5554650294
 20
118.9267949063
 10
154.572846405
 20
118.8994328006
 10
154.5880918199
 20
118.8705220167
 10
154.6009374648
 20
118.840555577
 10
154.6111597538
 20
118.8100450548
 10
154.6185852006
 20
118.779513193
 10
154.6230931218
 20
118.749484879
 10
154.6246119492
 20
118.7204762373
  0
LWPOLYLINE
  5
3DC
100
AcDbEntity
  8
RACCORDO
100
AcDbPolyline
 62
7
  6
CONTINUOUS
 90
9
 70
0
 10
155.1451508158
 20
76.9104942952
 10
155.1624501635
 20
76.9295644972
 10
155.1777573495
 20
76.9504056169
 10
155.1908741682
 20
76.972801931
 10
155.2016356543
 20
76.9965327731
 10
155.20989858
 20
77.0213634018
 10
155.2155367402
 20
77.0470193939
 10
155.2184557828
 20
77.073194009
 10
155.2188814512
 20
77.0877343395
  0
LINE
  5
3DD
100
AcDbEntity
  8
ASSI
100
AcDbLine
 62
7
  6
CONTINUOUS
 10
151.070819659
 20
79.1976669939
 11
150.5941032965
 21
78.9499718561
  0
LWPOLYLINE
  5
3DE
100
AcDbEntity
  8
RACCORDO
100
AcDbPolyline
 62
253
  6
CONTINUOUS
 90
15
 70
0
 10
150.0692934816
 20
79.0800462347
 10
150.1354142762
 20
79.1137520349
 10
150.2026195156
 20
79.1572817549
 10
150.2655971426
 20
79.2082184335
 10
150.3240836675
 20
79.2663462506
 10
150.3778245226
 20
79.3314145936
 10
150.4265894641
 20
79.4031447164
 10
150.4701734634
 20
79.4812311665
 10
150.508390087
 20
79.56534065
 10
150.5410730612
 20
79.655112303
 10
150.5680835047
 20
79.7501625933
 10
150.5893099052
 20
79.8500878776
 10
150.6046604315
 20
79.9544609509
 10
150.6140635448
 20
80.0628326845
 10
150.6174744595
 20
80.1747377147
  0
LINE
  5
3DF
100
AcDbEntity
  8
ASSI
100
AcDbLine
 62
253
  6
CONTINUOUS
 10
155.3670740695
 20
83.058676998
 11
156.0741808507
 21
83.4122303886
  0
LINE
  5
3E0
100
AcDbEntity
  8
ASSI
100
AcDbLine
 62
253
  6
CONTINUOUS
 10
155.3670740695
 20
82.1926515942
 11
156.0741808507
 21
82.5462049848
  0
LINE
  5
3E1
100
AcDbEntity
  8
DRAFT
100
AcDbLine
 62
7
  6
CONTINUOUS
 10
156.0358439787
 20
82.3701714827
 11
160.9914045567
 21
84.8381467708
  0
LINE
  5
3E2
100
AcDbEntity
  8
RACCORDO
100
AcDbLine
 62
7
  6
CONTINUOUS
 10
161.3511017322
 20
84.311575957
 11
156.0264829168
 21
81.6598017636
  0
LINE
  5
3E3
100
AcDbEntity
  8
RACCORDO
100
AcDbLine
 62
7
  6
CONTINUOUS
 10
150.5941032965
 20
78.9499718561
 11
149.8436056969
 21
78.5891679494
  0
LINE
  5
3E4
100
AcDbEntity
  8
RACCORDO
100
AcDbLine
 62
253
  6
CONTINUOUS
 10
151.6547634683
 20
80.6369546182
 11
150.6174744595
 21
80.1747377147
  0
LINE
  5
3E5
100
AcDbEntity
  8
RACCORDO
100
AcDbLine
 62
7
  6
CONTINUOUS
 10
151.105072074
 20
79.5415880566
 11
150.0676073035
 21
79.0792928335
  0
LWPOLYLINE
  5
3E6
100
AcDbEntity
  8
ASSI
100
AcDbPolyline
 62
7
  6
CONTINUOUS
 90
3
 70
0
 10
155.2666558507
 20
123.4675979184
 10
155.2932462646
 20
123.4750384434
 10
155.3218531819
 20
123.4790079105
  0
LWPOLYLINE
  5
3E7
100
AcDbEntity
  8
ASSI
100
AcDbPolyline
 62
7
  6
CONTINUOUS
 90
5
 70
0
 10
155.9771299381
 20
123.1806053298
 10
155.9600195699
 20
123.1766874223
 10
155.9404230109
 20
123.1712110242
 10
155.9185152458
 20
123.1642923738
 10
155.8944719369
 20
123.156014154
  0
LWPOLYLINE
  5
3E8
100
AcDbEntity
  8
RACCORDO
100
AcDbPolyline
 62
7
  6
CONTINUOUS
 90
4
 70
0
 10
148.2637153091
 20
121.6679098614
 10
148.285603917
 20
121.6660593194
 10
148.3082799246
 20
121.6602424837
 10
148.3313615977
 20
121.6505620872
  0
LWPOLYLINE
  5
3E9
100
AcDbEntity
  8
RACCORDO
100
AcDbPolyline
 62
7
  6
CONTINUOUS
 90
7
 70
0
 10
141.0985383453
 20
126.2819482702
 10
141.0705316491
 20
126.2938784868
 10
141.0408560807
 20
126.3024124154
 10
141.010008569
 20
126.307255792
 10
140.9784251702
 20
126.308203271
 10
140.9468382338
 20
126.3051374368
 10
140.916095344
 20
126.2981539962
  0
LWPOLYLINE
  5
3EA
100
AcDbEntity
  8
RACCORDO
100
AcDbPolyline
 62
253
  6
CONTINUOUS
 90
4
 70
0
 10
153.9437753016
 20
77.9462984481
 10
153.9266787603
 20
77.9341316849
 10
153.9109111014
 20
77.9190732295
 10
153.896739916
 20
77.9013786371
  0
LWPOLYLINE
  5
3EB
100
AcDbEntity
  8
RACCORDO
100
AcDbPolyline
 62
7
  6
CONTINUOUS
 90
15
 70
0
 10
161.0826128815
 20
83.665117987
 10
161.1294881013
 20
83.6935181192
 10
161.172957673
 20
83.7202446957
 10
161.2130215965
 20
83.7452977164
 10
161.2497434538
 20
83.7687498326
 10
161.283059663
 20
83.7905283931
 10
161.3127794782
 20
83.8104154434
 10
161.3388480616
 20
83.8283779186
 10
161.361320251
 20
83.8444488837
 10
161.380169814
 20
83.8585095786
 10
161.3953360571
 20
83.8705219616
 10
161.4068796737
 20
83.8805240744
 10
161.4149565117
 20
83.888511283
 10
161.4194932418
 20
83.8944390482
 10
161.4203069952
 20
83.8962116729
  0
LWPOLYLINE
  5
3EC
100
AcDbEntity
  8
RACCORDO
100
AcDbPolyline
 62
7
  6
CONTINUOUS
 90
12
 70
0
 10
160.5383027761
 20
83.3587084082
 10
160.5781160604
 20
83.3793934117
 10
160.6199413953
 20
83.4015293436
 10
160.6637969636
 20
83.4251128502
 10
160.7096645824
 20
83.4501472853
 10
160.7574897036
 20
83.4766427101
 10
160.8073588112
 20
83.5046468554
 10
160.8591854212
 20
83.5341119904
 10
160.9126555332
 20
83.5649049841
 10
160.9676644806
 20
83.5969814597
 10
161.02431693
 20
83.6303857939
 10
161.0826128815
 20
83.665117987
  0
LINE
  5
3ED
100
AcDbEntity
  8
RACCORDO
100
AcDbLine
 62
7
  6
CONTINUOUS
 10
156.0264829168
 20
81.0852148335
 11
160.5383027761
 21
83.3587084082
  0
LWPOLYLINE
  5
3EE
100
AcDbEntity
  8
ASSI
100
AcDbPolyline
 62
7
  6
CONTINUOUS
 90
7
 70
0
 10
155.3218531819
 20
123.4790079105
 10
155.3523030207
 20
123.4794188398
 10
155.3843795582
 20
123.4761671899
 10
155.4179032005
 20
123.4692050766
 10
155.4527420666
 20
123.4585301731
 10
155.4886706928
 20
123.4440325672
 10
155.5077294071
 20
123.4349537777
  0
LWPOLYLINE
  5
3EF
100
AcDbEntity
  8
ASSI
100
AcDbPolyline
 62
7
  6
CONTINUOUS
 90
5
 70
0
 10
156.0154010248
 20
123.1811170096
 10
156.0122678941
 20
123.1823253804
 10
156.0033777598
 20
123.1835163973
 10
155.9916199504
 20
123.182890678
 10
155.9771299381
 20
123.1806053298
  0
LINE
  5
3F0
100
AcDbEntity
  8
DRAFT
100
AcDbLine
 62
7
  6
CONTINUOUS
 10
151.9387601423
 20
124.5725188074
 11
154.6990622185
 21
123.1923677694
  0
LINE
  5
3F1
100
AcDbEntity
  8
ASSI
100
AcDbLine
 62
253
  6
CONTINUOUS
 10
149.6535472295
 20
126.2391397812
 11
150.2789905412
 21
125.9264181253
  0
LINE
  5
3F2
100
AcDbEntity
  8
ASSI
100
AcDbLine
 62
253
  6
CONTINUOUS
 10
155.2287380095
 20
123.4515443912
 11
155.8541813212
 21
123.1388227353
  0
LINE
  5
3F3
100
AcDbEntity
  8
ASSI
100
AcDbLine
 62
7
  6
CONTINUOUS
 10
149.9352553538
 20
126.221221203
 11
150.4386380818
 21
125.9695298391
  0
LINE
  5
3F4
100
AcDbEntity
  8
ASSI
100
AcDbLine
 62
7
  6
CONTINUOUS
 10
155.5101294876
 20
123.4337841362
 11
156.0135113558
 21
123.1820932021
  0
LINE
  5
3F5
100
AcDbEntity
  8
DRAFT
100
AcDbLine
 62
7
  6
CONTINUOUS
 10
153.6756706083
 20
124.6838118547
 11
156.928883198
 21
123.0572055598
  0
LINE
  5
3F6
100
AcDbEntity
  8
RACCORDO
100
AcDbLine
 62
7
  6
CONTINUOUS
 10
150.2497988921
 20
127.1693980498
 11
150.2503380025
 21
127.1690496279
  0
LINE
  5
3F7
100
AcDbEntity
  8
RACCORDO
100
AcDbLine
 62
7
  6
CONTINUOUS
 10
161.2527959505
 20
121.6350142845
 11
161.215539171
 21
121.6679048274
  0
LINE
  5
3F8
100
AcDbEntity
  8
RACCORDO
100
AcDbLine
 62
7
  6
CONTINUOUS
 10
161.2865088317
 20
121.6000543237
 11
161.2527959505
 21
121.6350142845
  0
LWPOLYLINE
  5
3F9
100
AcDbEntity
  8
RACCORDO
100
AcDbPolyline
 62
7
  6
CONTINUOUS
 90
4
 70
0
 10
154.562241481
 20
76.5843205335
 10
154.572846405
 20
76.5909871848
 10
154.5880889203
 20
76.6046540036
 10
154.6009320885
 20
76.6217760367
  0
LWPOLYLINE
  5
3FA
100
AcDbEntity
  8
RACCORDO
100
AcDbPolyline
 62
7
  6
CONTINUOUS
 90
4
 70
0
 10
155.0875230603
 20
76.8677219742
 10
155.1053588977
 20
76.8783158836
 10
155.1260591869
 20
76.8933671054
 10
155.1451508158
 20
76.9104942952
  0
LWPOLYLINE
  5
3FB
100
AcDbEntity
  8
RACCORDO
100
AcDbPolyline
 62
253
  6
CONTINUOUS
 90
9
 70
0
 10
155.1487164158
 20
77.0009445874
 10
155.1657850571
 20
77.0107558221
 10
155.1807191791
 20
77.0213977018
 10
155.1933589798
 20
77.0327545117
 10
155.2035643088
 20
77.0446956722
 10
155.2112352181
 20
77.0570984764
 10
155.2162976687
 20
77.0698518838
 10
155.2186869795
 20
77.0828472475
 10
155.2188814512
 20
77.0877343395
  0
LWPOLYLINE
  5
3FC
100
AcDbEntity
  8
RACCORDO
100
AcDbPolyline
 62
253
  6
CONTINUOUS
 90
9
 70
0
 10
155.1487164158
 20
77.3408881822
 10
155.1657399842
 20
77.3506706185
 10
155.1806420484
 20
77.361279799
 10
155.1932637611
 20
77.3726010956
 10
155.2034692484
 20
77.3845100278
 10
155.211153131
 20
77.3968804064
 10
155.2162367423
 20
77.4095864834
 10
155.2186633122
 20
77.4224996273
 10
155.2188811847
 20
77.4275330777
  0
LINE
  5
3FD
100
AcDbEntity
  8
RACCORDO
100
AcDbLine
 62
253
  6
CONTINUOUS
 10
155.0908701256
 20
76.8696134385
 11
155.0875636274
 21
76.8677438333
  0
LINE
  5
3FE
100
AcDbEntity
  8
RACCORDO
100
AcDbLine
 62
253
  6
CONTINUOUS
 10
155.3317187304
 20
78.3997515372
 11
156.0264829168
 21
78.7745927548
  0
LINE
  5
3FF
100
AcDbEntity
  8
RACCORDO
100
AcDbLine
 62
7
  6
CONTINUOUS
 10
155.2070537627
 20
78.1320770746
 11
155.9018204881
 21
78.506919662
  0
LINE
  5
400
100
AcDbEntity
  8
RACCORDO
100
AcDbLine
 62
253
  6
CONTINUOUS
 10
154.6246119492
 20
76.7181782038
 11
155.1487164158
 21
77.0009445874
  0
LINE
  5
401
100
AcDbEntity
  8
RACCORDO
100
AcDbLine
 62
7
  6
CONTINUOUS
 10
154.5622957739
 20
76.5843497714
 11
155.0875874208
 21
76.8677566659
  0
LINE
  5
402
100
AcDbEntity
  8
RACCORDO
100
AcDbLine
 62
7
  6
CONTINUOUS
 10
155.2070646461
 20
78.1320829754
 11
155.1966372253
 21
78.126862306
  0
LINE
  5
403
100
AcDbEntity
  8
RACCORDO
100
AcDbLine
 62
253
  6
CONTINUOUS
 10
154.0981673795
 20
77.904049927
 11
154.042774387
 21
77.8784676074
  0
LINE
  5
404
100
AcDbEntity
  8
RACCORDO
100
AcDbLine
 62
253
  6
CONTINUOUS
 10
154.7498811682
 20
78.1310396695
 11
155.3317187304
 21
78.3997515372
  0
LINE
  5
405
100
AcDbEntity
  8
RACCORDO
100
AcDbLine
 62
7
  6
CONTINUOUS
 10
154.612191338
 20
77.8569458357
 11
155.1965213987
 21
78.1268088218
  0
LWPOLYLINE
  5
406
100
AcDbEntity
  8
RACCORDO
100
AcDbPolyline
 62
253
  6
CONTINUOUS
 90
16
 70
0
 10
154.7498811682
 20
78.1310396695
 10
154.7114302801
 20
78.1142822764
 10
154.6695852801
 20
78.0995140165
 10
154.6247477522
 20
78.0869164538
 10
154.5772942659
 20
78.0766390893
 10
154.5277657531
 20
78.0688407832
 10
154.4768850829
 20
78.0636527606
 10
154.4252770262
 20
78.0611329669
 10
154.3734228543
 20
78.0612992333
 10
154.3218629009
 20
78.0641514589
 10
154.2711409569
 20
78.0696635387
 10
154.2218171924
 20
78.0777786439
 10
154.174442546
 20
78.0884077205
 10
154.1295333395
 20
78.1014344012
 10
154.0875678497
 20
78.1167194009
 10
154.0489985924
 20
78.1340979243
  0
LWPOLYLINE
  5
407
100
AcDbEntity
  8
RACCORDO
100
AcDbPolyline
 62
253
  6
CONTINUOUS
 90
7
 70
0
 10
154.042774387
 20
77.8784676074
 10
154.012547647
 20
77.8656040738
 10
153.9826300487
 20
77.8550329957
 10
153.9530215923
 20
77.8467543728
 10
153.9237222776
 20
77.8407682053
 10
153.8947321048
 20
77.8370744932
 10
153.8660510737
 20
77.8356732363
  0
LWPOLYLINE
  5
408
100
AcDbEntity
  8
ASSI
100
AcDbPolyline
 62
7
  6
CONTINUOUS
 90
3
 70
0
 10
149.6945472579
 20
126.2559764935
 10
149.7211597041
 20
126.2630165247
 10
149.7497542971
 20
126.2666225438
  0
LWPOLYLINE
  5
409
100
AcDbEntity
  8
ASSI
100
AcDbPolyline
 62
7
  6
CONTINUOUS
 90
5
 70
0
 10
150.4010033698
 20
125.9677736264
 10
150.3835728587
 20
125.9636971302
 10
150.3636282906
 20
125.9580474468
 10
150.3413475848
 20
125.9509440232
 10
150.3169083824
 20
125.9424716526
  0
LINE
  5
40A
100
AcDbEntity
  8
DRAFT
100
AcDbLine
 62
7
  6
CONTINUOUS
 10
151.9387601423
 20
124.5725188074
 11
153.6756706083
 21
124.6838118547
  0
LWPOLYLINE
  5
40B
100
AcDbEntity
  8
ASSI
100
AcDbPolyline
 62
7
  6
CONTINUOUS
 90
5
 70
0
 10
150.4405525444
 20
125.9685379974
 10
150.4369482731
 20
125.9698778915
 10
150.4278142371
 20
125.9709557609
 10
150.4157868287
 20
125.9702016922
 10
150.4010033698
 20
125.9677736264
  0
LWPOLYLINE
  5
40C
100
AcDbEntity
  8
RACCORDO
100
AcDbPolyline
 62
7
  6
CONTINUOUS
 90
12
 70
0
 10
161.0245010595
 20
121.7790397828
 10
160.9678811547
 20
121.8009877803
 10
160.9128836665
 20
121.8187516882
 10
160.8593963211
 20
121.8322031008
 10
160.8075313923
 20
121.8414704239
 10
160.7576257019
 20
121.8469388747
 10
160.709773289
 20
121.8486043615
 10
160.6638801146
 20
121.8464709759
 10
160.6200008823
 20
121.8409362108
 10
160.5781538268
 20
121.8321325637
 10
160.5383207135
 20
121.8199275371
 10
160.5005015423
 20
121.8043211308
  0
LINE
  5
40D
100
AcDbEntity
  8
RACCORDO
100
AcDbLine
 62
7
  6
CONTINUOUS
 10
161.0827433809
 20
121.7529076958
 11
161.0245010595
 21
121.7790397828
  0
LINE
  5
40E
100
AcDbEntity
  8
RACCORDO
100
AcDbLine
 62
253
  6
CONTINUOUS
 10
161.0893055017
 20
121.7497189187
 11
161.0826494839
 21
121.7529653236
  0
LINE
  5
40F
100
AcDbEntity
  8
RACCORDO
100
AcDbLine
 62
253
  6
CONTINUOUS
 10
150.2563391173
 20
127.1662020853
 11
150.2498068223
 21
127.1693872426
  0
LINE
  5
410
100
AcDbEntity
  8
RACCORDO
100
AcDbLine
 62
7
  6
CONTINUOUS
 10
150.2562709741
 20
127.1662327692
 11
150.2504431814
 21
127.169111015
  0
LINE
  5
411
100
AcDbEntity
  8
RACCORDO
100
AcDbLine
 62
253
  6
CONTINUOUS
 10
149.9754853141
 20
127.0668292449
 11
152.9930317289
 21
125.5580560375
  0
LINE
  5
412
100
AcDbEntity
  8
RACCORDO
100
AcDbLine
 62
253
  6
CONTINUOUS
 10
157.4829551275
 20
123.3130943382
 11
160.5005015423
 21
121.8043211308
  0
LINE
  5
413
100
AcDbEntity
  8
RACCORDO
100
AcDbLine
 62
7
  6
CONTINUOUS
 10
150.2564591087
 20
127.1661421175
 11
153.4203765812
 21
125.5841833813
  0
LINE
  5
414
100
AcDbEntity
  8
RACCORDO
100
AcDbLine
 62
7
  6
CONTINUOUS
 10
157.9253560363
 20
123.3316936537
 11
161.0892735872
 21
121.7497348783
  0
LINE
  5
415
100
AcDbEntity
  8
RACCORDO
100
AcDbLine
 62
7
  6
CONTINUOUS
 10
161.132548109
 20
121.7261119059
 11
161.0827433809
 21
121.7529076958
  0
LINE
  5
416
100
AcDbEntity
  8
RACCORDO
100
AcDbLine
 62
7
  6
CONTINUOUS
 10
161.174817806
 20
121.6983085348
 11
161.1305525426
 21
121.7266428242
  0
LINE
  5
417
100
AcDbEntity
  8
RACCORDO
100
AcDbLine
 62
7
  6
CONTINUOUS
 10
161.1810786457
 20
121.6944580277
 11
161.132548109
 21
121.7261119059
  0
LINE
  5
418
100
AcDbEntity
  8
RACCORDO
100
AcDbLine
 62
7
  6
CONTINUOUS
 10
161.215539171
 20
121.6679048274
 11
161.174817806
 21
121.6983085348
  0
LINE
  5
419
100
AcDbEntity
  8
RACCORDO
100
AcDbLine
 62
7
  6
CONTINUOUS
 10
154.5570334353
 20
76.581716153
 11
154.562241481
 21
76.5843205335
  0
LINE
  5
41A
100
AcDbEntity
  8
RACCORDO
100
AcDbLine
 62
253
  6
CONTINUOUS
 10
153.8660510737
 20
76.3678496537
 11
154.6246119492
 21
76.7181782038
  0
LINE
  5
41B
100
AcDbEntity
  8
RACCORDO
100
AcDbLine
 62
7
  6
CONTINUOUS
 10
153.7972061587
 20
76.2308027368
 11
154.5569636781
 21
76.5816839368
  0
LWPOLYLINE
  5
41C
100
AcDbEntity
  8
RACCORDO
100
AcDbPolyline
 62
253
  6
CONTINUOUS
 90
16
 70
0
 10
153.8660510737
 20
76.3678496537
 10
153.8469698988
 20
76.3595276675
 10
153.826190271
 20
76.3521776574
 10
153.8039041324
 20
76.345892407
 10
153.7803091205
 20
76.3407525896
 10
153.7556531128
 20
76.3368360189
 10
153.7302375346
 20
76.334208137
 10
153.7043066966
 20
76.3329093011
 10
153.6781634177
 20
76.3329695882
 10
153.6522158138
 20
76.3343913638
 10
153.6268000519
 20
76.337145385
 10
153.6021319073
 20
76.3411972871
 10
153.5784323533
 20
76.3465079081
 10
153.555944936
 20
76.3530249396
 10
153.5349279808
 20
76.3606759079
 10
153.5156097858
 20
76.3693787811
  0
LWPOLYLINE
  5
41D
100
AcDbEntity
  8
ASSI
100
AcDbPolyline
 62
7
  6
CONTINUOUS
 90
7
 70
0
 10
149.7497542971
 20
126.2666225438
 10
149.7801614485
 20
126.2667081622
 10
149.8121716571
 20
126.2631704389
 10
149.8456070094
 20
126.255961525
 10
149.8803310043
 20
126.2450792474
 10
149.9161198552
 20
126.2304149452
 10
149.9328854347
 20
126.2223793533
  0
ELLIPSE
  5
41E
100
AcDbEntity
  8
RACCORDO
100
AcDbEllipse
 62
7
  6
CONTINUOUS
 10
155.6728756701
 20
78.9515282881
 30
0.0
 11
-0.2237009107
 21
0.4473351135
 31
0.0
 40
0.6121897086
 41
-3.1230684064
 42
-2.2557347926
  0
ELLIPSE
  5
41F
100
AcDbEntity
  8
RACCORDO
100
AcDbEllipse
 62
7
  6
CONTINUOUS
 10
155.6728756701
 20
116.8530759946
 30
0.0
 11
-0.2235807756
 21
0.4472283268
 31
0.0
 40
0.6125552124
 41
-2.255296188
 42
-0.6848044477
  0
ELLIPSE
  5
420
100
AcDbEntity
  8
RACCORDO
100
AcDbEllipse
 62
7
  6
CONTINUOUS
 10
143.5648701924
 20
81.9465764567
 30
0.0
 11
0.1102574558
 21
0.2243773111
 31
0.0
 40
0.607010042
 41
-4.0318637861
 42
-3.1453174524
  0
ELLIPSE
  5
421
100
AcDbEntity
  8
RACCORDO
100
AcDbEllipse
 62
7
  6
CONTINUOUS
 10
143.5648701924
 20
123.0668955007
 30
0.0
 11
0.1102574558
 21
0.2243773111
 31
0.0
 40
0.607010042
 41
0.6892518406
 42
2.2513215211
  0
ELLIPSE
  5
422
100
AcDbEntity
  8
RACCORDO
100
AcDbEllipse
 62
7
  6
CONTINUOUS
 10
147.2583319021
 20
122.6701114318
 30
0.0
 11
-0.1118222789
 21
0.2235999171
 31
0.0
 40
0.6124778111
 41
-2.255529033
 42
-0.6848850053
  0
ELLIPSE
  5
423
100
AcDbEntity
  8
RACCORDO
100
AcDbEllipse
 62
7
  6
CONTINUOUS
 10
160.9944765077
 20
120.8454096007
 30
0.0
 11
0.499996712
 21
0.0035883639
 31
0.0
 40
0.5053247124
 41
-0.780298103
 42
-0.0036620451
  0
ELLIPSE
  5
424
100
AcDbEntity
  8
RACCORDO
100
AcDbEllipse
 62
7
  6
CONTINUOUS
 10
149.0508379007
 20
121.7738584325
 30
0.0
 11
-0.1118523001
 21
0.2236266191
 31
0.0
 40
0.6122950388
 41
-0.6847996396
 42
-0.0142271531
  0
ELLIPSE
  5
425
100
AcDbEntity
  8
RACCORDO
100
AcDbEllipse
 62
7
  6
CONTINUOUS
 10
157.4703990046
 20
122.4411381808
 30
0.0
 11
0.4599538472
 21
0.8880129227
 31
0.0
 40
0.6229838795
 41
0.0087752104
 42
0.6761521296
  0
ELLIPSE
  5
426
100
AcDbEntity
  8
RACCORDO
100
AcDbEllipse
 62
7
  6
CONTINUOUS
 10
154.7660548479
 20
117.2208062808
 30
0.0
 11
-0.0894323102
 21
0.1788913307
 31
0.0
 40
0.6125552124
 41
0.8862964655
 42
2.456788198
  0
ELLIPSE
  5
427
100
AcDbEntity
  8
RACCORDO
100
AcDbEllipse
 62
7
  6
CONTINUOUS
 10
142.4623968553
 20
123.3726352771
 30
0.0
 11
-0.0894323102
 21
0.1788913307
 31
0.0
 40
0.6125552124
 41
0.8862964655
 42
2.456788198
  0
ELLIPSE
  5
428
100
AcDbEntity
  8
RACCORDO
100
AcDbEllipse
 62
7
  6
CONTINUOUS
 10
150.0043581292
 20
124.6584766342
 30
0.0
 11
0.4420023603
 21
-0.0062115396
 31
0.0
 40
0.4892375088
 41
-0.778522928
 42
0.0068946617
  0
ELLIPSE
  5
429
100
AcDbEntity
  8
RACCORDO
100
AcDbEllipse
 62
7
  6
CONTINUOUS
 10
155.5792061038
 20
121.8710526469
 30
0.0
 11
0.4420023603
 21
-0.0062115396
 31
0.0
 40
0.4892375088
 41
-0.7697962817
 42
0.0068226837
  0
ELLIPSE
  5
42A
100
AcDbEntity
  8
RACCORDO
100
AcDbEllipse
 62
7
  6
CONTINUOUS
 10
142.8167907292
 20
120.3510019238
 30
0.0
 11
-0.8959918557
 21
1.7894889369
 31
0.0
 40
0.6120628235
 41
-0.6850405555
 42
0.0273890865
  0
ELLIPSE
  5
42B
100
AcDbEntity
  8
RACCORDO
100
AcDbEllipse
 62
7
  6
CONTINUOUS
 10
142.8167907292
 20
94.9087146193
 30
0.0
 11
-0.895932578
 21
1.7907992871
 31
0.0
 40
0.6116420465
 41
-0.6843775407
 42
0.0378168845
  0
ELLIPSE
  5
42C
100
AcDbEntity
  8
ASSI
100
AcDbEllipse
 62
7
  6
CONTINUOUS
 10
173.2430748423
 20
92.350230775
 30
0.0
 11
19.9007210359
 21
10.3077477446
 31
0.0
 40
0.017156689
 41
2.6072396126
 42
2.6816796227
  0
ELLIPSE
  5
42D
100
AcDbEntity
  8
ASSI
100
AcDbEllipse
 62
7
  6
CONTINUOUS
 10
173.2430748423
 20
120.9290690999
 30
0.0
 11
19.9007210359
 21
10.3077477446
 31
0.0
 40
0.017156689
 41
-2.6994520609
 42
-2.6250120508
  0
ELLIPSE
  5
42E
100
AcDbEntity
  8
ASSI
100
AcDbEllipse
 62
7
  6
CONTINUOUS
 10
173.2430748423
 20
121.7950945037
 30
0.0
 11
19.9007210359
 21
10.3077477446
 31
0.0
 40
0.017156689
 41
2.6072396126
 42
2.6816796227
  0
ELLIPSE
  5
42F
100
AcDbEntity
  8
RACCORDO
100
AcDbEllipse
 62
7
  6
CONTINUOUS
 10
152.9809064219
 20
124.6858844721
 30
0.0
 11
0.4349639225
 21
0.9005141702
 31
0.0
 40
0.6016116119
 41
5.3888788736
 42
6.9422219079
  0
ELLIPSE
  5
430
100
AcDbEntity
  8
ASSI
100
AcDbEllipse
 62
7
  6
CONTINUOUS
 10
173.2430748423
 20
91.4842053712
 30
0.0
 11
19.9007210359
 21
10.3077477446
 31
0.0
 40
0.017156689
 41
-2.6994520609
 42
-2.6250120508
  0
ELLIPSE
  5
431
100
AcDbEntity
  8
RACCORDO
100
AcDbEllipse
 62
7
  6
CONTINUOUS
 10
160.9944765077
 20
84.4868362493
 30
0.0
 11
0.4999969381
 21
-0.0035375912
 31
0.0
 40
0.4946372042
 41
-0.7731718616
 42
0.7888978189
  0
ELLIPSE
  5
432
100
AcDbEntity
  8
DRAFT
100
AcDbEllipse
 62
7
  6
CONTINUOUS
 10
182.7218252054
 20
136.1297733115
 30
0.0
 11
40.1592709956
 21
20.4350726727
 31
0.0
 40
0.0085648092
 41
-2.5024497263
 42
-2.3081475505
  0
ELLIPSE
  5
433
100
AcDbEntity
  8
DRAFT
100
AcDbEllipse
 62
7
  6
CONTINUOUS
 10
182.7218252054
 20
136.1297733115
 30
0.0
 11
40.1592709956
 21
20.4350726727
 31
0.0
 40
0.0085648092
 41
2.2994311876
 42
2.4937333633
  0
ELLIPSE
  5
434
100
AcDbEntity
  8
RACCORDO
100
AcDbEllipse
 62
7
  6
CONTINUOUS
 10
149.8451618075
 20
119.9267496932
 30
0.0
 11
0.1133799959
 21
0.2228158448
 31
0.0
 40
0.6176975122
 41
0.6978040307
 42
2.2598737113
  0
ELLIPSE
  5
435
100
AcDbEntity
  8
RACCORDO
100
AcDbEllipse
 62
7
  6
CONTINUOUS
 10
149.8451618075
 20
78.8064306492
 30
0.0
 11
0.1133799959
 21
0.2228158448
 31
0.0
 40
0.6176975122
 41
-4.0233115959
 42
-2.4612419154
  0
ELLIPSE
  5
436
100
AcDbEntity
  8
RACCORDO
100
AcDbEllipse
 62
7
  6
CONTINUOUS
 10
150.2396878801
 20
81.3455475309
 30
0.0
 11
-0.8959918557
 21
1.7894889369
 31
0.0
 40
0.6120628235
 41
-3.1690507137
 42
-2.2564459625
  0
ELLIPSE
  5
437
100
AcDbEntity
  8
RACCORDO
100
AcDbEllipse
 62
7
  6
CONTINUOUS
 10
150.2396878801
 20
116.6395533484
 30
0.0
 11
-0.8950322394
 21
1.7886338353
 31
0.0
 40
0.6127939332
 41
-2.255570138
 42
-0.6853828914
  0
ELLIPSE
  5
438
100
AcDbEntity
  8
RACCORDO
100
AcDbEllipse
 62
7
  6
CONTINUOUS
 10
150.2396878801
 20
91.1972660439
 30
0.0
 11
-0.8940101188
 21
1.7890904401
 31
0.0
 40
0.6131036171
 41
-2.2546379553
 42
-0.6850596037
  0
ELLIPSE
  5
439
100
AcDbEntity
  8
RACCORDO
100
AcDbEllipse
 62
7
  6
CONTINUOUS
 10
150.2396878801
 20
106.7878348354
 30
0.0
 11
-0.895932578
 21
1.7907992871
 31
0.0
 40
0.6116420465
 41
-3.1794396405
 42
-2.2563918427
  0
ELLIPSE
  5
43A
100
AcDbEntity
  8
RACCORDO
100
AcDbEllipse
 62
7
  6
CONTINUOUS
 10
148.1576974781
 20
120.1711976732
 30
0.0
 11
0.2499931864
 21
0.0036147773
 31
0.0
 40
0.5106100819
 41
3.1344144282
 42
3.9196077829
  0
ELLIPSE
  5
43B
100
AcDbEntity
  8
RACCORDO
100
AcDbEllipse
 62
7
  6
CONTINUOUS
 10
146.3837053717
 20
121.0581937264
 30
0.0
 11
0.2499931864
 21
0.0036147773
 31
0.0
 40
0.5106100819
 41
-2.3635775243
 42
-0.81023449
  0
ENDSEC
  0
SECTION
  2
OBJECTS
  0
DICTIONARY
  5
C
100
AcDbDictionary
280
0
281
1
  3
ACAD_GROUP
350
D
  3
ACAD_MLINESTYLE
350
17
  3
ACAD_LAYOUT
350
1A
  3
ACAD_PLOTSETTINGS
350
19
  3
ACAD_PLOTSTYLENAME
350
E
  0
DICTIONARY
  5
D
102
{ACAD_REACTORS
330
C
102
}
100
AcDbDictionary
280
0
281
1
  0
ACDBDICTIONARYWDFLT
  5
E
102
{ACAD_REACTORS
330
C
102
}
100
AcDbDictionary
281
1
  3
Normal
350
F
100
AcDbDictionaryWithDefault
340
F
  0
DICTIONARY
  5
17
102
{ACAD_REACTORS
330
C
102
}
100
AcDbDictionary
280
0
281
1
  3
Standard
350
18
  0
DICTIONARY
  5
19
102
{ACAD_REACTORS
330
C
102
}
100
AcDbDictionary
281
1
  0
DICTIONARY
  5
1A
102
{ACAD_REACTORS
330
C
102
}
100
AcDbDictionary
281
1
  3
Model
350
43C
  3
Layout1
350
43D
  0
ACDBPLACEHOLDER
  5
F
102
{ACAD_REACTORS
330
E
102
}
  0
MLINESTYLE
  5
18
102
{ACAD_REACTORS
330
17
102
}
100
AcDbMlineStyle
  2
STANDARD
 70
0
  3

 62
256
 51
90.0
 52
90.0
 71
2
 49
0.5
 62
256
  6
BYLAYER
 49
-0.5
 62
256
  6
BYLAYER
  0
LAYOUT
  5
43C
102
{ACAD_REACTORS
330
1A
102
}
100
AcDbPlotSettings
  1

  2
none_device
  4
ISO_A4_(297.00_x_210.00_MM)
  6

 40
0.0
 41
0.0
 42
0.0
 43
0.0
 44
297.0
 45
210.0
 46
0.0
 47
0.0
 48
0.0
 49
0.0
140
0.0
141
0.0
142
1.0
143
1.0
 70
1024
 72
1
 73
0
 74
0
  7

 75
0
147
1.0
148
0.0
149
0.0
100
AcDbLayout
  1
Model
 70
0
 71
0
 10
0.0
 20
0.0
 11
297.0
 21
210.0
 12
0.0
 22
0.0
 32
0.0
 14
0.0
 24
0.0
 34
0.0
 15
0.0
 25
0.0
 35
0.0
146
0.0
 13
0.0
 23
0.0
 33
0.0
 16
1.0
 26
0.0
 36
0.0
 17
0.0
 27
1.0
 37
0.0
 76
0
330
211
345
0
346
0
  0
LAYOUT
  5
43D
102
{ACAD_REACTORS
330
1A
102
}
100
AcDbPlotSettings
  1

  2
none_device
  4
ISO_A4_(297.00_x_210.00_MM)
  6

 40
0.0
 41
0.0
 42
0.0
 43
0.0
 44
297.0
 45
210.0
 46
0.0
 47
0.0
 48
0.0
 49
0.0
140
0.0
141
0.0
142
1.0
143
1.0
 70
0
 72
1
 73
0
 74
0
  7

 75
0
147
1.0
148
0.0
149
0.0
100
AcDbLayout
  1
Layout1
 70
0
 71
1
 10
0.0
 20
0.0
 11
297.0
 21
210.0
 12
0.0
 22
0.0
 32
0.0
 14
0.0
 24
0.0
 34
0.0
 15
0.0
 25
0.0
 35
0.0
146
0.0
 13
0.0
 23
0.0
 33
0.0
 16
1.0
 26
0.0
 36
0.0
 17
0.0
 27
1.0
 37
0.0
 76
0
330
212
345
0
346
0
  0
ENDSEC
  0
EOF
