  0
SECTION
  2
HEADER
  9
$ACADVER
  1
AC1015
  9
$DWGCODEPAGE
  3
ANSI_1252
  9
$EXTMAX
 10
297.0
 20
210.0
 30
0.0
  9
$EXTMIN
 10
0.0
 20
0.0
 30
0.0
  9
$LIMMIN
 10
0.0
 20
0.0
  9
$LIMMAX
 10
297.0
 20
210.0
  9
$VIEWCTR
 10
148.5
 20
105.0
  9
$VIEWSIZE
 40
210.0
  9
$CLAYER
  8
0
  9
$LTSCALE
 40
16.335
  9
$CELTYPE
  6
BYLAYER
  9
$DIMSCALE
 40
1.0
  9
$DIMASZ
 40
3.0
  9
$DIMEXO
 40
0.5
  9
$DIMDLI
 40
11.286
  9
$DIMEXE
 40
1.5
  9
$DIMCEN
 40
2.673
  9
$DIMLFAC
 40
1.0
  9
$DIMBLK
  1
_FILLED
  9
$DIMTXT
 40
3.0
  9
$DIMTOL
 70
1
  9
$DIMLIM
 70
0
  9
$DIMTFAC
 40
1.0
  9
$DIMTP
 40
0.01
  9
$DIMTM
 40
0.01
  9
$DIMGAP
 40
0.625
  9
$DIMDSEP
 70
44
  9
$PDMODE
 70
3
  9
$PDSIZE
 40
3.0
  9
$HANDSEED
  5
5AF
  9
$TILEMODE
 70
1
  9
$MEASUREMENT
 70
1
  9
$INSUNITS
 70
4
  0
ENDSEC
  0
SECTION
  2
CLASSES
  0
CLASS
  1
ACDBDICTIONARYWDFLT
  2
AcDbDictionaryWithDefault
  3
AutoCAD 2000
 90
0
280
0
281
0
  0
CLASS
  1
ACDBPLACEHOLDER
  2
AcDbPlaceHolder
  3
AutoCAD 2000
 90
0
280
0
281
0
  0
CLASS
  1
LAYOUT
  2
AcDbLayout
  3
AutoCAD 2000
 90
0
280
0
281
0
  0
ENDSEC
  0
SECTION
  2
TABLES
  0
TABLE
  2
VPORT
  5
8
100
AcDbSymbolTable
 70
2
  0
VPORT
  5
1F4
100
AcDbSymbolTableRecord
100
AcDbViewportTableRecord
  2
*ACTIVE
 70
0
 10
0.0
 20
0.0
 11
1.0
 21
1.0
 12
148.5
 22
105.0
 13
0.0
 23
0.0
 14
1.0
 24
1.0
 15
0.0
 25
0.0
 16
0.0
 26
0.0
 36
1.0
 17
0.0
 27
0.0
 37
0.0
 40
210.0
 41
1.4142857143
 42
50.0
 43
0.0
 44
0.0
 50
0.0
 51
0.0
 71
0
 72
100
 73
1
 74
1
 75
0
 76
0
 77
0
 78
0
  0
ENDTAB
  0
TABLE
  2
LTYPE
  5
5
100
AcDbSymbolTable
 70
6
  0
LTYPE
  5
14
100
AcDbSymbolTableRecord
100
AcDbLinetypeTableRecord
  2
BYBLOCK
 70
0
  3

 72
65
 73
0
 40
0.0
  0
LTYPE
  5
15
100
AcDbSymbolTableRecord
100
AcDbLinetypeTableRecord
  2
BYLAYER
 70
0
  3

 72
65
 73
0
 40
0.0
  0
LTYPE
  5
16
100
AcDbSymbolTableRecord
100
AcDbLinetypeTableRecord
  2
CONTINUOUS
 70
64
  3
Solid line
 72
65
 73
0
 40
0.0
  0
LTYPE
  5
1F5
100
AcDbSymbolTableRecord
100
AcDbLinetypeTableRecord
  2
CENTER
 70
64
  3
____ _ ____ _ ____ _ ____ _ ____ _ ____ _ ____
 72
65
 73
4
 40
0.6
 49
0.375
 74
0
 49
-0.075
 74
0
 49
0.075
 74
0
 49
-0.075
 74
0
  0
LTYPE
  5
1F6
100
AcDbSymbolTableRecord
100
AcDbLinetypeTableRecord
  2
HIDDEN
 70
64
  3
- - - - - - - - - - - - - - - - - - - -
 72
65
 73
2
 40
0.2
 49
0.1
 74
0
 49
-0.1
 74
0
  0
LTYPE
  5
1F7
100
AcDbSymbolTableRecord
100
AcDbLinetypeTableRecord
  2
PHANTOM
 70
64
  3
_____ _ _ _____ _ _ _____ _ _ _____
 72
65
 73
6
 40
0.8
 49
0.45
 74
0
 49
-0.05
 74
0
 49
0.1
 74
0
 49
-0.05
 74
0
 49
0.1
 74
0
 49
-0.05
 74
0
  0
LTYPE
  5
1F8
100
AcDbSymbolTableRecord
100
AcDbLinetypeTableRecord
  2
DOT
 70
64
  3
. . . . . . . . . . . . . . . . . . . .
 72
65
 73
2
 40
0.2
 49
0.1
 74
0
 49
-0.1
 74
0
  0
LTYPE
  5
1F9
100
AcDbSymbolTableRecord
100
AcDbLinetypeTableRecord
  2
DASHED
 70
64
  3
- - - - - - - - - - - - - - - - - - - -
 72
65
 73
2
 40
0.2
 49
0.1
 74
0
 49
-0.1
 74
0
  0
ENDTAB
  0
TABLE
  2
LAYER
  5
2
100
AcDbSymbolTable
 70
36
  0
LAYER
  5
10
100
AcDbSymbolTableRecord
100
AcDbLayerTableRecord
  2
0
 70
0
 62
7
  6
CONTINUOUS
370
-3
390
F
  0
LAYER
  5
1FA
100
AcDbSymbolTableRecord
100
AcDbLayerTableRecord
  2
DEFAULT_1
 70
0
 62
7
  6
CENTER
370
-3
390
F
  0
LAYER
  5
1FB
100
AcDbSymbolTableRecord
100
AcDbLayerTableRecord
  2
DEFAULT_2
 70
0
 62
7
  6
HIDDEN
370
-3
390
F
  0
LAYER
  5
1FC
100
AcDbSymbolTableRecord
100
AcDbLayerTableRecord
  2
DEFAULT_3
 70
0
 62
7
  6
PHANTOM
370
-3
390
F
  0
LAYER
  5
1FD
100
AcDbSymbolTableRecord
100
AcDbLayerTableRecord
  2
ASSI
 70
0
 62
7
  6
CONTINUOUS
370
-3
390
F
  0
LAYER
  5
1FE
100
AcDbSymbolTableRecord
100
AcDbLayerTableRecord
  2
COORDINATE
 70
0
 62
7
  6
CONTINUOUS
370
-3
390
F
  0
LAYER
  5
1FF
100
AcDbSymbolTableRecord
100
AcDbLayerTableRecord
  2
COPY_PUBLISH
 70
0
 62
7
  6
CONTINUOUS
370
-3
390
F
  0
LAYER
  5
200
100
AcDbSymbolTableRecord
100
AcDbLayerTableRecord
  2
COSMETIC
 70
0
 62
7
  6
CONTINUOUS
370
-3
390
F
  0
LAYER
  5
201
100
AcDbSymbolTableRecord
100
AcDbLayerTableRecord
  2
COSMETICI
 70
0
 62
7
  6
CONTINUOUS
370
-3
390
F
  0
LAYER
  5
202
100
AcDbSymbolTableRecord
100
AcDbLayerTableRecord
  2
CURVE
 70
0
 62
7
  6
CONTINUOUS
370
-3
390
F
  0
LAYER
  5
203
100
AcDbSymbolTableRecord
100
AcDbLayerTableRecord
  2
DRAFT
 70
0
 62
7
  6
CONTINUOUS
370
-3
390
F
  0
LAYER
  5
204
100
AcDbSymbolTableRecord
100
AcDbLayerTableRecord
  2
IMPORT_IGES
 70
0
 62
7
  6
CONTINUOUS
370
-3
390
F
  0
LAYER
  5
205
100
AcDbSymbolTableRecord
100
AcDbLayerTableRecord
  2
INTF_1
 70
0
 62
7
  6
CONTINUOUS
370
-3
390
F
  0
LAYER
  5
206
100
AcDbSymbolTableRecord
100
AcDbLayerTableRecord
  2
INTF_14
 70
0
 62
7
  6
CONTINUOUS
370
-3
390
F
  0
LAYER
  5
207
100
AcDbSymbolTableRecord
100
AcDbLayerTableRecord
  2
NOTE
 70
0
 62
7
  6
CONTINUOUS
370
-3
390
F
  0
LAYER
  5
208
100
AcDbSymbolTableRecord
100
AcDbLayerTableRecord
  2
PIANI
 70
0
 62
7
  6
CONTINUOUS
370
-3
390
F
  0
LAYER
  5
209
100
AcDbSymbolTableRecord
100
AcDbLayerTableRecord
  2
PUNTI
 70
0
 62
7
  6
CONTINUOUS
370
-3
390
F
  0
LAYER
  5
20A
100
AcDbSymbolTableRecord
100
AcDbLayerTableRecord
  2
RACCORDO
 70
0
 62
7
  6
CONTINUOUS
370
-3
390
F
  0
LAYER
  5
20B
100
AcDbSymbolTableRecord
100
AcDbLayerTableRecord
  2
SIMBOLI
 70
0
 62
7
  6
CONTINUOUS
370
-3
390
F
  0
LAYER
  5
20C
100
AcDbSymbolTableRecord
100
AcDbLayerTableRecord
  2
SMUSSO
 70
0
 62
7
  6
CONTINUOUS
370
-3
390
F
  0
LAYER
  5
20D
100
AcDbSymbolTableRecord
100
AcDbLayerTableRecord
  2
SNAPLINE
 70
0
 62
7
  6
CONTINUOUS
370
-3
390
F
  0
LAYER
  5
20E
100
AcDbSymbolTableRecord
100
AcDbLayerTableRecord
  2
SUPERFICI
 70
0
 62
7
  6
CONTINUOUS
370
-3
390
F
  0
LAYER
  5
20F
100
AcDbSymbolTableRecord
100
AcDbLayerTableRecord
  2
TRASH
 70
0
 62
7
  6
CONTINUOUS
370
-3
390
F
  0
LAYER
  5
210
100
AcDbSymbolTableRecord
100
AcDbLayerTableRecord
  2
XSEC_DATUMS
 70
0
 62
7
  6
CONTINUOUS
370
-3
390
F
  0
ENDTAB
  0
TABLE
  2
STYLE
  5
3
100
AcDbSymbolTable
 70
1
  0
STYLE
  5
11
100
AcDbSymbolTableRecord
100
AcDbTextStyleTableRecord
  2
STANDARD
 70
0
 40
0.0
 41
0.8
 50
0.0
 71
0
 42
0.2
  3
txt
  4

  0
STYLE
  5
211
100
AcDbSymbolTableRecord
100
AcDbTextStyleTableRecord
  2
TEXTSTYLE_1
 70
0
 40
0.0
 41
0.8
 50
0.0
 71
0
 42
0.2
  3
gdt
  4

  0
ENDTAB
  0
TABLE
  2
VIEW
  5
6
100
AcDbSymbolTable
 70
0
  0
ENDTAB
  0
TABLE
  2
UCS
  5
7
100
AcDbSymbolTable
 70
0
  0
ENDTAB
  0
TABLE
  2
APPID
  5
9
100
AcDbSymbolTable
 70
1
  0
APPID
  5
212
100
AcDbSymbolTableRecord
100
AcDbRegAppTableRecord
  2
ACAD
 70
0
  0
ENDTAB
  0
TABLE
  2
BLOCK_RECORD
  5
1
100
AcDbSymbolTable
 70
0
  0
BLOCK_RECORD
  5
213
100
AcDbSymbolTableRecord
100
AcDbBlockTableRecord
  2
*Model_Space
  0
BLOCK_RECORD
  5
214
100
AcDbSymbolTableRecord
100
AcDbBlockTableRecord
  2
*Paper_Space
  0
ENDTAB
  0
TABLE
  2
DIMSTYLE
  5
A
100
AcDbSymbolTable
 70
1
100
AcDbDimStyleTable
 71
0
  0
DIMSTYLE
105
215
100
AcDbSymbolTableRecord
100
AcDbDimStyleTableRecord
  2
STANDARD
 70
0
  3

  4

 40
1.0
 41
3.0
 42
0.5
 43
0.38
 44
1.5
 45
0.0
 46
0.0
 47
0.01
 48
0.01
140
3.0
141
0.09
142
0.0
143
25.4
144
1.0
145
0.0
146
1.0
147
0.625
 71
1.0
 72
0.0
 73
0
 74
0
 75
0
 76
0
 77
1
 78
8
170
0
171
2
172
0
173
0
174
0
175
0
176
0
177
0
178
0
270
2
271
2
272
2
273
2
274
2
275
0
280
0
281
0
282
0
283
1
284
8
285
0
286
0
287
3
288
0
340
11
278
44
  0
ENDTAB
  0
ENDSEC
  0
SECTION
  2
BLOCKS
  0
BLOCK
  5
20
100
AcDbEntity
  8
0
100
AcDbBlockBegin
  2
*Model_Space
 70
0
 10
0.0
 20
0.0
 30
0.0
  3
*Model_Space
  1

  0
ENDBLK
  5
21
100
AcDbEntity
  8
0
100
AcDbBlockEnd
  0
BLOCK
  5
1C
100
AcDbEntity
  8
0
100
AcDbBlockBegin
  2
*Paper_Space
 70
0
 10
0.0
 20
0.0
 30
0.0
  3
*Paper_Space
  1

  0
ENDBLK
  5
1D
100
AcDbEntity
  8
0
100
AcDbBlockEnd
  0
ENDSEC
  0
SECTION
  2
ENTITIES
  0
LWPOLYLINE
  5
216
100
AcDbEntity
  8
0
100
AcDbPolyline
 62
7
  6
CONTINUOUS
 90
4
 70
0
 10
112.1965446259
 20
156.5388552664
 10
112.2156156561
 20
156.5603766228
 10
112.3121457891
 20
156.6535574491
 10
112.4144580377
 20
156.737618612
  0
LWPOLYLINE
  5
217
100
AcDbEntity
  8
0
100
AcDbPolyline
 62
7
  6
CONTINUOUS
 90
19
 70
0
 10
111.5075974618
 20
156.0797907778
 10
111.3847833825
 20
155.9927710383
 10
111.2661244979
 20
155.8980169117
 10
111.1520608784
 20
155.7956534688
 10
111.0432027975
 20
155.6860357499
 10
110.9397528297
 20
155.5691806814
 10
110.8415939856
 20
155.4446326477
 10
110.7491036768
 20
155.3124064912
 10
110.6628051075
 20
155.1727654418
 10
110.5828922938
 20
155.025459444
 10
110.5097349106
 20
154.8704482918
 10
110.4438451951
 20
154.7080241652
 10
110.3856207951
 20
154.5383163544
 10
110.3353326999
 20
154.3610214281
 10
110.2934997393
 20
154.1766607591
 10
110.2606634579
 20
153.9865827654
 10
110.2370364484
 20
153.7913508549
 10
110.2227202473
 20
153.5907212068
 10
110.2179043463
 20
153.3848512041
  0
LWPOLYLINE
  5
218
100
AcDbEntity
  8
0
100
AcDbPolyline
 62
7
  6
CONTINUOUS
 90
16
 70
0
 10
114.9338665299
 20
156.5497505881
 10
114.9374250405
 20
156.5522298391
 10
114.940928172
 20
156.5550901697
 10
114.9443400573
 20
156.5583022939
 10
114.9476257635
 20
156.5618333243
 10
114.9507516496
 20
156.5656471081
 10
114.9536857111
 20
156.5697045975
 10
114.9563979072
 20
156.5739642496
 10
114.9588604689
 20
156.5783824516
 10
114.9610481831
 20
156.5829139674
 10
114.9629386507
 20
156.5875124007
 10
114.9645125159
 20
156.59213067
 10
114.9657536647
 20
156.5967214908
 10
114.9666493895
 20
156.6012378597
 10
114.9671905192
 20
156.6056335353
 10
114.9673715134
 20
156.6098635123
  0
LWPOLYLINE
  5
219
100
AcDbEntity
  8
0
100
AcDbPolyline
 62
7
  6
CONTINUOUS
 90
19
 70
0
 10
112.4144580377
 20
156.737618612
 10
112.5225940461
 20
156.8125003916
 10
112.63651217
 20
156.8782625077
 10
112.7554370845
 20
156.9344573777
 10
112.8793997042
 20
156.9810190766
 10
113.0083691145
 20
157.0180135294
 10
113.1414772467
 20
157.0451909288
 10
113.278760697
 20
157.0624841914
 10
113.4201828693
 20
157.0699604007
 10
113.5647659066
 20
157.0675709993
 10
113.7125104511
 20
157.0552529349
 10
113.8634158606
 20
157.0330692599
 10
114.0165023524
 20
157.0011605743
 10
114.1718689969
 20
156.9594219273
 10
114.3294167236
 20
156.9079582698
 10
114.4878685381
 20
156.8472250543
 10
114.6467987755
 20
156.7773740983
 10
114.8066331006
 20
156.6982535843
 10
114.9673715134
 20
156.6098635123
  0
LWPOLYLINE
  5
21A
100
AcDbEntity
  8
0
100
AcDbPolyline
 62
7
  6
CONTINUOUS
 90
25
 70
0
 10
113.9182106445
 20
155.9018628777
 10
113.8468951084
 20
155.8537533496
 10
113.7761018795
 20
155.8007528948
 10
113.7061142388
 20
155.7430735962
 10
113.6372122438
 20
155.680946259
 10
113.5696716079
 20
155.6146194877
 10
113.5037625967
 20
155.5443586905
 10
113.4397489471
 20
155.4704450181
 10
113.3778868114
 20
155.3931742382
 10
113.3184237328
 20
155.3128555518
 10
113.2615976545
 20
155.2298103566
 10
113.2076359675
 20
155.1443709602
 10
113.1567546012
 20
155.0568792508
 10
113.1091571586
 20
154.9676853289
 10
113.0650341025
 20
154.8771461065
 10
113.0245619923
 20
154.7856238789
 10
112.9879027784
 20
154.6934848748
 10
112.9552031536
 20
154.601097791
 10
112.9265939666
 20
154.5088323172
 10
112.9021896976
 20
154.4170576561
 10
112.8820880011
 20
154.3261410467
 10
112.8663693145
 20
154.2364462944
 10
112.8550965368
 20
154.1483323152
 10
112.8483147761
 20
154.0621516997
 10
112.8460511699
 20
153.9782493021
  0
LINE
  5
21B
100
AcDbEntity
  8
0
100
AcDbLine
 62
7
  6
CONTINUOUS
 10
112.4842446569
 20
156.7305577284
 11
111.5075974618
 21
156.0797907778
  0
LWPOLYLINE
  5
21C
100
AcDbEntity
  8
0
100
AcDbPolyline
 62
7
  6
CONTINUOUS
 90
19
 70
0
 10
112.4842446544
 20
156.7305577268
 10
112.5147375624
 20
156.7503733068
 10
112.6272316624
 20
156.8153134362
 10
112.7449510205
 20
156.8709088905
 10
112.8676289476
 20
156.9170337245
 10
112.9949875534
 20
156.95358346
 10
113.1267383679
 20
156.9804753082
 10
113.2625829534
 20
156.9976483452
 10
113.402213565
 20
157.0050636578
 10
113.545313885
 20
157.0027044418
 10
113.6915597505
 20
156.9905760367
 10
113.8406198647
 20
156.9687059129
 10
113.9921565344
 20
156.9371436148
 10
114.1458264744
 20
156.8959606433
 10
114.3012815776
 20
156.8452502908
 10
114.4581696777
 20
156.7851274373
 10
114.6161353689
 20
156.7157282842
 10
114.7748208108
 20
156.637210044
 10
114.9338665299
 20
156.5497505881
  0
LWPOLYLINE
  5
21D
100
AcDbEntity
  8
0
100
AcDbPolyline
 62
7
  6
CONTINUOUS
 90
19
 70
0
 10
111.5075974624
 20
156.0797907782
 10
111.5376047581
 20
156.0992907873
 10
111.6483075187
 20
156.1631968197
 10
111.7641523419
 20
156.2179069788
 10
111.884876805
 20
156.263297329
 10
112.0102074257
 20
156.2992650448
 10
112.1398602835
 20
156.3257286462
 10
112.2735416664
 20
156.342628185
 10
112.4109487485
 20
156.3499253809
 10
112.5517702709
 20
156.3476037036
 10
112.6956872366
 20
156.3356684099
 10
112.8423736198
 20
156.3141465355
 10
112.9914971165
 20
156.2830868357
 10
113.1427199131
 20
156.2425596717
 10
113.2956994418
 20
156.1926568511
 10
113.4500891442
 20
156.1334914251
 10
113.6055392743
 20
156.0651974264
 10
113.7616976907
 20
155.9879295643
 10
113.9182106445
 20
155.9018628777
  0
LINE
  5
21E
100
AcDbEntity
  8
0
100
AcDbLine
 62
7
  6
CONTINUOUS
 10
114.9338665299
 20
156.5497505881
 11
113.9182106445
 21
155.9018628777
  0
LWPOLYLINE
  5
21F
100
AcDbEntity
  8
0
100
AcDbPolyline
 62
7
  6
CONTINUOUS
 90
17
 70
0
 10
112.0672317845
 20
157.7324238619
 10
111.9436328045
 20
157.6546459363
 10
111.8254143512
 20
157.5672259776
 10
111.7134494298
 20
157.4708275222
 10
111.6078455531
 20
157.365495699
 10
111.5084952083
 20
157.2511853789
 10
111.4158091331
 20
157.1283440413
 10
111.3297182606
 20
156.996752588
 10
111.2502916577
 20
156.8566301171
 10
111.1781472627
 20
156.7090814016
 10
111.1134256011
 20
156.554284985
 10
111.0559861473
 20
156.3920623238
 10
111.0060252625
 20
156.2229825604
 10
110.9635176757
 20
156.0467944194
 10
110.9284886579
 20
155.8637491761
 10
110.9012103823
 20
155.6751697993
 10
110.8833970698
 20
155.4976741438
  0
LINE
  5
220
100
AcDbEntity
  8
0
100
AcDbLine
 62
7
  6
CONTINUOUS
 10
112.3500740971
 20
157.8957334684
 11
112.0672313846
 21
157.7324236311
  0
LINE
  5
221
100
AcDbEntity
  8
0
100
AcDbLine
 62
7
  6
CONTINUOUS
 10
115.2502142259
 20
157.6083946379
 11
114.9673715134
 21
157.4450848006
  0
LWPOLYLINE
  5
222
100
AcDbEntity
  8
0
100
AcDbPolyline
 62
7
  6
CONTINUOUS
 90
3
 70
0
 10
112.3315018249
 20
157.8593780652
 10
112.1966765414
 20
157.8007219801
 10
112.0672317845
 20
157.7324238619
  0
LINE
  5
223
100
AcDbEntity
  8
0
100
AcDbLine
 62
7
  6
CONTINUOUS
 10
112.4709758971
 20
157.9081292739
 11
112.3315018249
 21
157.8593780652
  0
LWPOLYLINE
  5
224
100
AcDbEntity
  8
0
100
AcDbPolyline
 62
7
  6
CONTINUOUS
 90
18
 70
0
 10
102.8565667703
 20
135.3935406281
 10
102.7235020207
 20
135.2815541865
 10
102.5953485358
 20
135.1619381216
 10
102.4726636386
 20
135.0349304529
 10
102.3558758061
 20
134.9006791205
 10
102.2456431829
 20
134.759652741
 10
102.1427560142
 20
134.6126740106
 10
102.0476786977
 20
134.4603255527
 10
101.9606711745
 20
134.3029637149
 10
101.8820594951
 20
134.1411222825
 10
101.8121454022
 20
133.9754155742
 10
101.7510931783
 20
133.8062486355
 10
101.698988083
 20
133.6337850424
 10
101.6559706945
 20
133.4582466587
 10
101.6222948683
 20
133.2803805716
 10
101.5981407377
 20
133.1010411551
 10
101.5835501345
 20
132.9204428091
 10
101.5786001877
 20
132.7370504919
  0
LINE
  5
225
100
AcDbEntity
  8
0
100
AcDbLine
 62
7
  6
CONTINUOUS
 10
104.7690635708
 20
135.3814956406
 11
116.608436321
 21
144.8388202388
  0
LINE
  5
226
100
AcDbEntity
  8
0
100
AcDbLine
 62
7
  6
CONTINUOUS
 10
114.7875446465
 20
144.9241125592
 11
102.8565667703
 21
135.3935406281
  0
LWPOLYLINE
  5
227
100
AcDbEntity
  8
0
100
AcDbPolyline
 62
7
  6
CONTINUOUS
 90
19
 70
0
 10
102.5744371316
 20
98.1573428831
 10
102.5768673332
 20
98.0339606697
 10
102.5841531835
 20
97.9136322921
 10
102.5962801897
 20
97.796601177
 10
102.6132241897
 20
97.6831034115
 10
102.6349510994
 20
97.5733693904
 10
102.6614166847
 20
97.4676231097
 10
102.692567067
 20
97.3660793461
 10
102.7283394722
 20
97.2689423044
 10
102.7686620242
 20
97.1764073303
 10
102.8134536359
 20
97.0886610695
 10
102.8626236007
 20
97.0058817209
 10
102.9160721101
 20
96.9282374825
 10
102.9736907596
 20
96.8558857381
 10
103.0353633287
 20
96.7889723382
 10
103.1009656258
 20
96.727632139
 10
103.1703659247
 20
96.6719886805
 10
103.2434232282
 20
96.6221553626
 10
103.2770668759
 20
96.6018768728
  0
LINE
  5
228
100
AcDbEntity
  8
0
100
AcDbLine
 62
7
  6
CONTINUOUS
 10
101.5786015719
 20
99.5437050699
 11
101.5786001877
 21
99.5454773835
  0
LINE
  5
229
100
AcDbEntity
  8
0
100
AcDbLine
 62
7
  6
CONTINUOUS
 10
101.5786001877
 20
132.73704403
 11
101.5786001877
 21
99.5454765004
  0
LINE
  5
22A
100
AcDbEntity
  8
0
100
AcDbLine
 62
7
  6
CONTINUOUS
 10
102.5744371316
 20
131.3489104127
 11
102.5744371316
 21
98.1573428831
  0
LWPOLYLINE
  5
22B
100
AcDbEntity
  8
0
100
AcDbPolyline
 62
7
  6
CONTINUOUS
 90
34
 70
0
 10
102.5744371316
 20
131.3489104127
 10
102.5768673331
 20
131.4750989593
 10
102.5841531829
 20
131.6038408483
 10
102.5962801877
 20
131.734875917
 10
102.6132241847
 20
131.8679401719
 10
102.6349510896
 20
132.0027638632
 10
102.6614166708
 20
132.1390719281
 10
102.6925670528
 20
132.2765873795
 10
102.7283394611
 20
132.4150335163
 10
102.7686620185
 20
132.5541319843
 10
102.8134536383
 20
132.6936025014
 10
102.862623614
 20
132.8331621221
 10
102.9160721338
 20
132.9725273826
 10
102.9736907909
 20
133.1114157124
 10
103.0353633656
 20
133.2495470563
 10
103.100965667
 20
133.3866431473
 10
103.1703659683
 20
133.5224283306
 10
103.2434232721
 20
133.656626387
 10
103.319987766
 20
133.7889622842
 10
103.3999043415
 20
133.919168419
 10
103.4830112897
 20
134.0469817922
 10
103.5691382423
 20
134.1721410961
 10
103.6581092182
 20
134.2943917096
 10
103.7497453691
 20
134.4134889637
 10
103.8438634256
 20
134.5291953143
 10
103.9402789951
 20
134.641283877
 10
104.0387913476
 20
134.7495210999
 10
104.1391850261
 20
134.8536721122
 10
104.2412628274
 20
134.9535350174
 10
104.3448112807
 20
135.0489036185
 10
104.4495832997
 20
135.1395566127
 10
104.5553531346
 20
135.225308935
 10
104.661918441
 20
135.3060066893
 10
104.7690635708
 20
135.3814956406
  0
LWPOLYLINE
  5
22C
100
AcDbEntity
  8
0
100
AcDbPolyline
 62
7
  6
CONTINUOUS
 90
49
 70
0
 10
103.4410907251
 20
102.4937965627
 10
103.4432088647
 20
102.3546947007
 10
103.448867405
 20
102.2157286541
 10
103.458066346
 20
102.0768984228
 10
103.4708927583
 20
101.9381903564
 10
103.4872595712
 20
101.7996181053
 10
103.5069055729
 20
101.6612226205
 10
103.5297864547
 20
101.5230515259
 10
103.5559465252
 20
101.3850571977
 10
103.5852574985
 20
101.2471377151
 10
103.6176751943
 20
101.1093132836
 10
103.653243793
 20
100.9715636977
 10
103.6919675493
 20
100.8337264207
 10
103.7338519769
 20
100.6956945734
 10
103.7788915622
 20
100.5575750349
 10
103.8270740189
 20
100.4195259056
 10
103.8784590802
 20
100.2814042367
 10
103.932987013
 20
100.143352977
 10
103.9904663317
 20
100.0059590733
 10
104.0508948894
 20
99.8692761477
 10
104.1142748331
 20
99.7332505782
 10
104.1804211187
 20
99.5983084453
 10
104.2493347203
 20
99.464470631
 10
104.3210146639
 20
99.3317162533
 10
104.3952729839
 20
99.2004087477
 10
104.4721718226
 20
99.0704780939
 10
104.5516490377
 20
98.941994312
 10
104.6333302363
 20
98.8155308979
 10
104.7172194265
 20
98.6911294888
 10
104.8033126003
 20
98.5687484475
 10
104.891223341
 20
98.4488363579
 10
104.9809131637
 20
98.3314680175
 10
105.0724205534
 20
98.2165686288
 10
105.1654745478
 20
98.1043623835
 10
105.2599831713
 20
97.994941855
 10
105.3560383997
 20
97.8882144699
 10
105.453645198
 20
97.7841266997
 10
105.5527382068
 20
97.6826963743
 10
105.6533827856
 20
97.5839056639
 10
105.755779978
 20
97.4876475507
 10
105.8599307974
 20
97.3938626263
 10
105.9658342304
 20
97.302610299
 10
106.0736882807
 20
97.2139617757
 10
106.1835132348
 20
97.1278487531
 10
106.2952888062
 20
97.0443395346
 10
106.4091521388
 20
96.9637102362
 10
106.5251489471
 20
96.8860528968
 10
106.6432335165
 20
96.8112754776
 10
106.763405847
 20
96.7393779787
  0
LINE
  5
22D
100
AcDbEntity
  8
0
100
AcDbLine
 62
7
  6
CONTINUOUS
 10
103.4410907251
 20
126.0116668869
 11
103.4410907251
 21
102.4937965627
  0
LINE
  5
22E
100
AcDbEntity
  8
0
100
AcDbLine
 62
7
  6
CONTINUOUS
 10
107.282155871
 20
125.6206107666
 11
107.282155871
 21
102.1027425918
  0
LWPOLYLINE
  5
22F
100
AcDbEntity
  8
0
100
AcDbPolyline
 62
7
  6
CONTINUOUS
 90
14
 70
0
 10
110.2179043463
 20
153.3848512041
 10
110.2184526263
 20
153.3606684164
 10
110.2243008536
 20
153.3023273883
 10
110.2365259305
 20
153.2443165815
 10
110.2550789381
 20
153.1868681285
 10
110.2798856355
 20
153.1302119109
 10
110.3108467582
 20
153.0745746401
 10
110.3478384141
 20
153.02017895
 10
110.3907125799
 20
152.9672425067
 10
110.4392976934
 20
152.9159771366
 10
110.4933993401
 20
152.8665879793
 10
110.5528010307
 20
152.8192726669
 10
110.6172650677
 20
152.7742205329
 10
110.6865334964
 20
152.7316118548
  0
LINE
  5
230
100
AcDbEntity
  8
0
100
AcDbLine
 62
7
  6
CONTINUOUS
 10
110.2179043463
 20
141.2738434087
 11
110.2179043463
 21
153.3848512041
  0
LINE
  5
231
100
AcDbEntity
  8
0
100
AcDbLine
 62
7
  6
CONTINUOUS
 10
110.6865334964
 20
141.6481885961
 11
110.6865334964
 21
152.7316118548
  0
LINE
  5
232
100
AcDbEntity
  8
0
100
AcDbLine
 62
7
  6
CONTINUOUS
 10
111.2204377351
 20
142.0746761124
 11
111.2204377351
 21
143.6068557371
  0
LINE
  5
233
100
AcDbEntity
  8
0
100
AcDbLine
 62
7
  6
CONTINUOUS
 10
111.8249189648
 20
104.7255408025
 11
111.8249189648
 21
123.8573271725
  0
LWPOLYLINE
  5
234
100
AcDbEntity
  8
0
100
AcDbPolyline
 62
7
  6
CONTINUOUS
 90
31
 70
0
 10
110.6865334964
 20
152.7316118548
 10
110.6894933541
 20
152.8604182908
 10
110.6983017239
 20
152.9849617702
 10
110.7129586059
 20
153.1052422931
 10
110.7335397374
 20
153.2216322434
 10
110.759969381
 20
153.3337592371
 10
110.7920203244
 20
153.4405061218
 10
110.8297314033
 20
153.5417516495
 10
110.8730637821
 20
153.6376170682
 10
110.9216737413
 20
153.7273489693
 10
110.9756109067
 20
153.8109124354
 10
111.0348256525
 20
153.8883423838
 10
111.0988253819
 20
153.958990158
 10
111.1676463451
 20
154.0227942277
 10
111.241252292
 20
154.0798161231
 10
111.3190418754
 20
154.129591779
 10
111.40104887
 20
154.1720627408
 10
111.4872395011
 20
154.2072874631
 10
111.576911098
 20
154.2349772444
 10
111.67009878
 20
154.2550699141
 10
111.7667674277
 20
154.2676276428
 10
111.8661090124
 20
154.2725482408
 10
111.9681289683
 20
154.2697712896
 10
112.0728218613
 20
154.2593572077
 10
112.1793633602
 20
154.2413850612
 10
112.2878391787
 20
154.2157605262
 10
112.3981636032
 20
154.1825779267
 10
112.5092551618
 20
154.1421993007
 10
112.6207533637
 20
154.0947453277
 10
112.7330186998
 20
154.0400953281
 10
112.8460511699
 20
153.9782493021
  0
LWPOLYLINE
  5
235
100
AcDbEntity
  8
0
100
AcDbPolyline
 62
7
  6
CONTINUOUS
 90
28
 70
0
 10
111.2204377351
 20
143.6068557371
 10
111.222602939
 20
143.6986661575
 10
111.2294963869
 20
143.7874710397
 10
111.2411180786
 20
143.8732703839
 10
111.2575098193
 20
143.9565198989
 10
111.2786298039
 20
144.0367638759
 10
111.3043526173
 20
144.1126351877
 10
111.3347990296
 20
144.1839953046
 10
111.3698482707
 20
144.2509827563
 10
111.4090126156
 20
144.3126460054
 10
111.4523184506
 20
144.3688121776
 10
111.4997393893
 20
144.4196541472
 10
111.5507085469
 20
144.4647390004
 10
111.605165343
 20
144.5039885183
 10
111.6631703579
 20
144.5374809197
 10
111.7243384476
 20
144.5650179468
 10
111.7887296109
 20
144.5866177415
 10
111.8562838489
 20
144.602262162
 10
111.9264360213
 20
144.6116985246
 10
111.9993647743
 20
144.6148317877
 10
112.0748914617
 20
144.6117569929
 10
112.1519150045
 20
144.602506582
 10
112.2304600394
 20
144.5869155466
 10
112.3105019298
 20
144.565148895
 10
112.3908656867
 20
144.5377340947
 10
112.4711596469
 20
144.504846968
 10
112.5517754737
 20
144.4663116924
 10
112.6327131669
 20
144.4221282681
  0
LWPOLYLINE
  5
236
100
AcDbEntity
  8
0
100
AcDbPolyline
 62
7
  6
CONTINUOUS
 90
49
 70
0
 10
107.2821564029
 20
102.1027427014
 10
107.2514575593
 20
102.0402142567
 10
107.2234148691
 20
101.9784604783
 10
107.1979931038
 20
101.9175410473
 10
107.1751880366
 20
101.8575834075
 10
107.154933719
 20
101.7985759802
 10
107.1371088287
 20
101.7403610969
 10
107.121671536
 20
101.6829825945
 10
107.1086085887
 20
101.6264902862
 10
107.0978530896
 20
101.5707220645
 10
107.0893630134
 20
101.5157088473
 10
107.0831369473
 20
101.4614982388
 10
107.0791794461
 20
101.4079425153
 10
107.0774566067
 20
101.3550258241
 10
107.0779683466
 20
101.3028332057
 10
107.0807762445
 20
101.2513629651
 10
107.0858723381
 20
101.2005994849
 10
107.0932312108
 20
101.1506284767
 10
107.1028876789
 20
101.1016007547
 10
107.114830258
 20
101.0535797827
 10
107.1290301941
 20
101.0065773638
 10
107.1454940308
 20
100.9606681168
 10
107.1642051622
 20
100.915900292
 10
107.1851377236
 20
100.8723018844
 10
107.2082837023
 20
100.8299173137
 10
107.2336490623
 20
100.7887666211
 10
107.2611843099
 20
100.7489063099
 10
107.2907971962
 20
100.710434579
 10
107.3224770173
 20
100.6734050014
 10
107.3561888497
 20
100.637836931
 10
107.3918032166
 20
100.6037745138
 10
107.4292882813
 20
100.5712728857
 10
107.4686310654
 20
100.5403431137
 10
107.509730604
 20
100.5109610736
 10
107.5525205924
 20
100.4831787343
 10
107.5970248169
 20
100.4570047883
 10
107.6432775129
 20
100.432353103
 10
107.6912133903
 20
100.4092562881
 10
107.740855618
 20
100.3877466606
 10
107.7923691386
 20
100.3677485058
 10
107.8457140735
 20
100.3492861571
 10
107.9008837384
 20
100.3324155231
 10
107.9580883931
 20
100.3171242555
 10
108.0172887338
 20
100.3034509115
 10
108.078468863
 20
100.2914575158
 10
108.1418676497
 20
100.2811853176
 10
108.2075406973
 20
100.2726942132
 10
108.2753635302
 20
100.2660529515
 10
108.3452998665
 20
100.2613274288
  0
LWPOLYLINE
  5
237
100
AcDbEntity
  8
0
100
AcDbPolyline
 62
7
  6
CONTINUOUS
 90
4
 70
0
 10
131.994267273
 20
137.9666888141
 10
131.9887039162
 20
137.9633642568
 10
131.9857596408
 20
137.961556206
 10
131.985256974
 20
137.9611998798
  0
LINE
  5
238
100
AcDbEntity
  8
0
100
AcDbLine
 62
7
  6
CONTINUOUS
 10
132.0263237225
 20
137.9855547328
 11
131.994267273
 21
137.9666888141
  0
LINE
  5
239
100
AcDbEntity
  8
0
100
AcDbLine
 62
7
  6
CONTINUOUS
 10
132.0801586589
 20
138.0170123177
 11
132.0263237225
 21
137.9855547328
  0
LINE
  5
23A
100
AcDbEntity
  8
0
100
AcDbLine
 62
7
  6
CONTINUOUS
 10
127.0997976454
 20
140.2907154057
 11
127.6237798559
 21
140.5900695869
  0
LINE
  5
23B
100
AcDbEntity
  8
0
100
AcDbLine
 62
7
  6
CONTINUOUS
 10
127.7871499265
 20
139.9966494973
 11
128.1798228616
 21
140.2210086656
  0
LWPOLYLINE
  5
23C
100
AcDbEntity
  8
0
100
AcDbPolyline
 62
7
  6
CONTINUOUS
 90
7
 70
0
 10
130.9775544443
 20
138.4430042628
 10
130.9822300037
 20
138.4456205342
 10
131.0073739169
 20
138.4627668378
 10
131.0301151298
 20
138.4837756375
 10
131.0502805695
 20
138.5084870667
 10
131.0677168051
 20
138.5367131008
 10
131.0738696435
 20
138.5500223246
  0
LINE
  5
23D
100
AcDbEntity
  8
0
100
AcDbLine
 62
7
  6
CONTINUOUS
 10
131.1228078635
 20
138.5217660098
 11
130.9775544443
 21
138.4430042628
  0
LINE
  5
23E
100
AcDbEntity
  8
0
100
AcDbLine
 62
7
  6
CONTINUOUS
 10
128.4907751817
 20
140.0414686931
 11
127.7704390197
 21
139.6791352684
  0
LINE
  5
23F
100
AcDbEntity
  8
0
100
AcDbLine
 62
7
  6
CONTINUOUS
 10
128.563951634
 20
139.9992175266
 11
127.6286398165
 21
139.5287394527
  0
LWPOLYLINE
  5
240
100
AcDbEntity
  8
0
100
AcDbPolyline
 62
7
  6
CONTINUOUS
 90
15
 70
0
 10
130.9775544443
 20
138.4430042628
 10
130.9370639475
 20
138.4229830465
 10
130.8950185541
 20
138.4060056314
 10
130.8517005394
 20
138.3922212601
 10
130.8075268748
 20
138.3817686122
 10
130.7626916975
 20
138.3746857583
 10
130.7171459067
 20
138.3709995754
 10
130.6711161698
 20
138.370801583
 10
130.6250269718
 20
138.3741528593
 10
130.5791161778
 20
138.3810824656
 10
130.5337136829
 20
138.3915864312
 10
130.4891558121
 20
138.4056209678
 10
130.4456573698
 20
138.4231548303
 10
130.403368764
 20
138.4441927225
 10
130.3914918255
 20
138.4508730182
  0
LWPOLYLINE
  5
241
100
AcDbEntity
  8
0
100
AcDbPolyline
 62
7
  6
CONTINUOUS
 90
10
 70
0
 10
127.6237798559
 20
140.5900695869
 10
127.6537911942
 20
140.6042002015
 10
127.6855479555
 20
140.6138619385
 10
127.7190501397
 20
140.6190547981
 10
127.7545717325
 20
140.6197552672
 10
127.7918387482
 20
140.6159868587
 10
127.8300292301
 20
140.6078201118
 10
127.8688691926
 20
140.5952785394
 10
127.9086326212
 20
140.5783386285
 10
127.9493195159
 20
140.5570003792
  0
LINE
  5
242
100
AcDbEntity
  8
0
100
AcDbLine
 62
7
  6
CONTINUOUS
 10
128.2190724466
 20
140.1983464471
 11
127.7911262277
 21
139.9989439461
  0
LINE
  5
243
100
AcDbEntity
  8
0
100
AcDbLine
 62
7
  6
CONTINUOUS
 10
128.2363102758
 20
140.1883935406
 11
127.7746006479
 21
139.9732620321
  0
LWPOLYLINE
  5
244
100
AcDbEntity
  8
0
100
AcDbPolyline
 62
7
  6
CONTINUOUS
 90
14
 70
0
 10
112.6327131669
 20
144.4221282681
 10
112.6346937841
 20
144.3510015358
 10
112.6406277321
 20
144.2824464187
 10
112.6504912951
 20
144.216737258
 10
112.6642450452
 20
144.1541369621
 10
112.6818339682
 20
144.0948961038
 10
112.7031876544
 20
144.0392518896
 10
112.728220636
 20
143.9874270219
 10
112.7568327588
 20
143.9396288356
 10
112.788909531
 20
143.8960485978
 10
112.824322597
 20
143.8568606974
 10
112.862930251
 20
143.822221947
 10
112.9045780033
 20
143.792270956
 10
112.9225278915
 20
143.7813549636
  0
LWPOLYLINE
  5
245
100
AcDbEntity
  8
0
100
AcDbPolyline
 62
7
  6
CONTINUOUS
 90
3
 70
0
 10
113.1445494231
 20
143.6116738649
 10
113.1441195582
 20
143.6354225367
 10
113.1450858711
 20
143.6528527586
  0
LINE
  5
246
100
AcDbEntity
  8
0
100
AcDbLine
 62
7
  6
CONTINUOUS
 10
113.6324790335
 20
104.5415149397
 11
113.6324790335
 21
122.8136646429
  0
LWPOLYLINE
  5
247
100
AcDbEntity
  8
0
100
AcDbPolyline
 62
7
  6
CONTINUOUS
 90
25
 70
0
 10
113.6324790335
 20
104.5415149397
 10
113.6310129881
 20
104.4741861946
 10
113.6266184254
 20
104.405336302
 10
113.6193063967
 20
104.3351435435
 10
113.6090953732
 20
104.2637888208
 10
113.5960115637
 20
104.1914578491
 10
113.5800892045
 20
104.1183407876
 10
113.5613698944
 20
104.0446284061
 10
113.5399019126
 20
103.9705105992
 10
113.5157405972
 20
103.8961786186
 10
113.4889480382
 20
103.8218239945
 10
113.4595939555
 20
103.7476406748
 10
113.427755521
 20
103.6738235999
 10
113.3935156171
 20
103.6005644821
 10
113.356963012
 20
103.5280528297
 10
113.3181934194
 20
103.4564780017
 10
113.2773066242
 20
103.3860237569
 10
113.2344097539
 20
103.3168742561
 10
113.1896183871
 20
103.249214617
 10
113.1430466999
 20
103.183215932
 10
113.0948184561
 20
103.1190522691
 10
113.0450721599
 20
103.0569047315
 10
112.9939427083
 20
102.9969367729
 10
112.941559675
 20
102.9392954351
 10
112.8880598039
 20
102.8841268555
  0
LWPOLYLINE
  5
248
100
AcDbEntity
  8
0
100
AcDbPolyline
 62
7
  6
CONTINUOUS
 90
22
 70
0
 10
116.9956702759
 20
145.5504835645
 10
116.9946120084
 20
145.5152933024
 10
116.9914425016
 20
145.479056684
 10
116.9861775929
 20
145.4419544938
 10
116.9788435821
 20
145.4041718744
 10
116.9694770761
 20
145.3658972729
 10
116.9581247827
 20
145.3273214967
 10
116.9448433214
 20
145.2886369397
 10
116.929698963
 20
145.2500366249
 10
116.9127672584
 20
145.2117131092
 10
116.8941326756
 20
145.1738575706
 10
116.8738881768
 20
145.136658851
 10
116.8521347527
 20
145.100302512
 10
116.8289809235
 20
145.0649699168
 10
116.8045421939
 20
145.03083732
 10
116.7789404753
 20
144.9980749858
 10
116.7523034806
 20
144.9668463447
 10
116.7247640919
 20
144.9373071816
 10
116.6964596938
 20
144.9096048538
 10
116.6675314849
 20
144.883877552
 10
116.6381237726
 20
144.8602536117
 10
116.6083832573
 20
144.8388508771
  0
LWPOLYLINE
  5
249
100
AcDbEntity
  8
0
100
AcDbPolyline
 62
7
  6
CONTINUOUS
 90
13
 70
0
 10
127.3099695312
 20
139.1683427534
 10
127.330221409
 20
139.2061665979
 10
127.352040298
 20
139.2431554519
 10
127.3753144027
 20
139.279119793
 10
127.3999244811
 20
139.3138753423
 10
127.4257444275
 20
139.3472440254
 10
127.4526419189
 20
139.3790548852
 10
127.4804791309
 20
139.4091449358
 10
127.50911344
 20
139.4373599954
 10
127.5383981273
 20
139.4635554936
 10
127.5681831433
 20
139.48759721
 10
127.5983158775
 20
139.5093619609
 10
127.6286419366
 20
139.5287382286
  0
LINE
  5
24A
100
AcDbEntity
  8
0
100
AcDbLine
 62
7
  6
CONTINUOUS
 10
132.5635385702
 20
136.7402528349
 11
132.5162700432
 21
136.7066830162
  0
LWPOLYLINE
  5
24B
100
AcDbEntity
  8
0
100
AcDbPolyline
 62
7
  6
CONTINUOUS
 90
4
 70
0
 10
132.5182494988
 20
137.0622531357
 10
132.5126861317
 20
137.0589285779
 10
132.5097418446
 20
137.0571205271
 10
132.5092391724
 20
137.056764197
  0
LINE
  5
24C
100
AcDbEntity
  8
0
100
AcDbLine
 62
7
  6
CONTINUOUS
 10
132.5503059625
 20
137.0811190568
 11
132.5182494988
 21
137.0622531357
  0
LINE
  5
24D
100
AcDbEntity
  8
0
100
AcDbLine
 62
7
  6
CONTINUOUS
 10
132.6041408694
 20
137.1125766138
 11
132.5503059625
 21
137.0811190568
  0
LWPOLYLINE
  5
24E
100
AcDbEntity
  8
0
100
AcDbPolyline
 62
7
  6
CONTINUOUS
 90
6
 70
0
 10
132.5635385702
 20
136.7226667247
 10
132.553899354
 20
136.7170595123
 10
132.5424899552
 20
136.7110643493
 10
132.5330012805
 20
136.7067259309
 10
132.5255978792
 20
136.7041352188
 10
132.5203488885
 20
136.7033071402
  0
LINE
  5
24F
100
AcDbEntity
  8
0
100
AcDbLine
 62
7
  6
CONTINUOUS
 10
130.2672880203
 20
138.7254887013
 11
130.2834401304
 21
138.7857663535
  0
LWPOLYLINE
  5
250
100
AcDbEntity
  8
0
100
AcDbPolyline
 62
7
  6
CONTINUOUS
 90
19
 70
0
 10
130.2834401304
 20
138.7857663535
 10
130.2941129717
 20
138.8195663559
 10
130.3071046655
 20
138.8506612762
 10
130.3224152117
 20
138.8790511145
 10
130.340154097
 20
138.9048644199
 10
130.3602118347
 20
138.9279726432
 10
130.3822599648
 20
138.9479901372
 10
130.406321696
 20
138.9648582125
 10
130.4323738195
 20
138.9786355584
 10
130.4600182495
 20
138.989112596
 10
130.4892863201
 20
138.9962404161
 10
130.5201466971
 20
139.0000679279
 10
130.552107292
 20
139.0005322806
 10
130.5851712996
 20
138.9975854872
 10
130.619335525
 20
138.9912755348
 10
130.6540982953
 20
138.981683534
 10
130.6892923864
 20
138.9688365218
 10
130.7250850224
 20
138.9527074613
 10
130.7614762034
 20
138.9332963524
  0
LWPOLYLINE
  5
251
100
AcDbEntity
  8
0
100
AcDbPolyline
 62
7
  6
CONTINUOUS
 90
13
 70
0
 10
132.1975945149
 20
136.3462893442
 10
132.2178466167
 20
136.3841130733
 10
132.2396656664
 20
136.4211018458
 10
132.2629398684
 20
136.4570661394
 10
132.2875499615
 20
136.4918216863
 10
132.3133698586
 20
136.5251904012
 10
132.3402672927
 20
136.5570012938
 10
132.3681044574
 20
136.5870913674
 10
132.3967387109
 20
136.6153064519
 10
132.4260233359
 20
136.6415019782
 10
132.4558082835
 20
136.6655437263
 10
132.4859409427
 20
136.6873085125
 10
132.5162669202
 20
136.7066848194
  0
LWPOLYLINE
  5
252
100
AcDbEntity
  8
0
100
AcDbPolyline
 62
7
  6
CONTINUOUS
 90
17
 70
0
 10
197.0817763886
 20
51.185710671
 10
197.2440169562
 20
51.1125543516
 10
197.4209772046
 20
51.0418769468
 10
197.5970203441
 20
50.9806785671
 10
197.7708645133
 20
50.9293850746
 10
197.9422794579
 20
50.8881002361
 10
198.1114954323
 20
50.8567202847
 10
198.2779213387
 20
50.835359782
 10
198.4417820752
 20
50.8240511345
 10
198.6028527438
 20
50.8227619356
 10
198.7598675532
 20
50.8315095267
 10
198.9126022161
 20
50.8503436596
 10
199.0612810199
 20
50.8792145825
 10
199.2053110349
 20
50.9179903817
 10
199.3447851071
 20
50.9667415905
 10
199.4796103906
 20
51.0253976756
 10
199.6090551475
 20
51.0936957938
  0
LWPOLYLINE
  5
253
100
AcDbEntity
  8
0
100
AcDbPolyline
 62
7
  6
CONTINUOUS
 90
34
 70
0
 10
173.7465107411
 20
57.0634795766
 10
173.8570117346
 20
57.0024840237
 10
173.9721516511
 20
56.9444171962
 10
174.0916979304
 20
56.8893966356
 10
174.215409864
 20
56.8375334221
 10
174.3430367901
 20
56.7889329253
 10
174.4743183628
 20
56.743694385
 10
174.6089877535
 20
56.7019096473
 10
174.746773946
 20
56.6636627035
 10
174.8873999426
 20
56.6290304879
 10
175.0305824638
 20
56.5980829251
 10
175.1760311154
 20
56.5708829393
 10
175.3234505116
 20
56.5474858265
 10
175.4725417375
 20
56.5279389934
 10
175.6230041425
 20
56.5122818234
 10
175.7745346405
 20
56.5005459013
 10
175.9268286438
 20
56.4927549782
 10
176.079576439
 20
56.4889250584
 10
176.2324649302
 20
56.4890639176
 10
176.3851848098
 20
56.4931710294
 10
176.5374274621
 20
56.5012378484
 10
176.688881407
 20
56.5132474837
 10
176.8392381475
 20
56.5291748397
 10
176.9881963711
 20
56.5489873604
 10
177.1354587267
 20
56.5726450985
 10
177.2807365349
 20
56.6001018036
 10
177.4237271696
 20
56.6313004088
 10
177.5641194962
 20
56.6661717499
 10
177.7016400655
 20
56.7046459841
 10
177.8360035792
 20
56.7466413316
 10
177.9668948525
 20
56.7920544528
 10
178.0940407474
 20
56.8407823662
 10
178.2172068163
 20
56.8927267743
 10
178.3361516701
 20
56.9477780276
  0
LWPOLYLINE
  5
254
100
AcDbEntity
  8
0
100
AcDbPolyline
 62
7
  6
CONTINUOUS
 90
49
 70
0
 10
169.5575420257
 20
60.4828307445
 10
169.6771474444
 20
60.4162286198
 10
169.7948454083
 20
60.354824693
 10
169.9106359174
 20
60.2986189643
 10
170.0244868468
 20
60.2477324284
 10
170.1364303215
 20
60.2020440905
 10
170.246562716
 20
60.1611909661
 10
170.3548651704
 20
60.1251326975
 10
170.4613565446
 20
60.0939096425
 10
170.5661897932
 20
60.0672798899
 10
170.6693671986
 20
60.0451898037
 10
170.7708864783
 20
60.0276930201
 10
170.8708937396
 20
60.0147085355
 10
170.9694767261
 20
60.0061893775
 10
171.0665476941
 20
60.0021825186
 10
171.1619895194
 20
60.0027478727
 10
171.2559014437
 20
60.0078992907
 10
171.3481842254
 20
60.0176229217
 10
171.4384230154
 20
60.0319371267
 10
171.5265734289
 20
60.0508665601
 10
171.6126798508
 20
60.0743865674
 10
171.6964605866
 20
60.1024415465
 10
171.7778951494
 20
60.13504331
 10
171.8570040261
 20
60.1721800452
 10
171.9335669832
 20
60.2137607122
 10
172.0076129211
 20
60.2598393462
 10
172.0791129392
 20
60.3103619119
 10
172.147760102
 20
60.3650752644
 10
172.2135172596
 20
60.4240065113
 10
172.276421562
 20
60.487128545
 10
172.3362775226
 20
60.5541068967
 10
172.3930395774
 20
60.6249236607
 10
172.4467532906
 20
60.6995967428
 10
172.4973598679
 20
60.7778453922
 10
172.5448256559
 20
60.8595854697
 10
172.589184308
 20
60.9449011144
 10
172.6304779894
 20
61.0337639931
 10
172.6687225988
 20
61.1260880086
 10
172.7039022375
 20
61.221959258
 10
172.736011375
 20
61.3216076994
 10
172.7651002447
 20
61.425003612
 10
172.7911186132
 20
61.5321767166
 10
172.8139102503
 20
61.6434461331
 10
172.8335241573
 20
61.7588071356
 10
172.8499113329
 20
61.87826445
 10
172.8627685431
 20
62.0021513741
 10
172.87199471
 20
62.1305790072
 10
172.8776909115
 20
62.26343625
 10
172.8798571476
 20
62.4007231024
  0
LINE
  5
255
100
AcDbEntity
  8
0
100
AcDbLine
 62
7
  6
CONTINUOUS
 10
103.2785180432
 20
96.6010375552
 11
174.4505916527
 21
55.5071742487
  0
LINE
  5
256
100
AcDbEntity
  8
0
100
AcDbLine
 62
7
  6
CONTINUOUS
 10
102.5744371316
 20
98.1573428831
 11
173.7465107411
 21
57.0634795766
  0
LINE
  5
257
100
AcDbEntity
  8
0
100
AcDbLine
 62
7
  6
CONTINUOUS
 10
106.763405847
 20
96.7393779787
 11
169.5575420257
 21
60.4828307445
  0
LINE
  5
258
100
AcDbEntity
  8
0
100
AcDbLine
 62
7
  6
CONTINUOUS
 10
103.2770668759
 20
96.6018768728
 11
103.2785188085
 21
96.6010371133
  0
LWPOLYLINE
  5
259
100
AcDbEntity
  8
0
100
AcDbPolyline
 62
7
  6
CONTINUOUS
 90
19
 70
0
 10
102.5744371316
 20
98.1573428831
 10
102.4687965436
 20
98.2211447704
 10
102.3682283319
 20
98.2876251121
 10
102.2729360709
 20
98.3566496305
 10
102.1831121475
 20
98.4280793411
 10
102.0989390514
 20
98.501769517
 10
102.0205886522
 20
98.5775698454
 10
101.9482200193
 20
98.6553262673
 10
101.8819786263
 20
98.734882298
 10
101.8219977229
 20
98.8160779983
 10
101.768398415
 20
98.8987498068
 10
101.721289684
 20
98.9827300531
 10
101.6807673021
 20
99.0678481795
 10
101.6469133752
 20
99.1539315936
 10
101.6197961106
 20
99.2408067057
 10
101.5994702102
 20
99.328298519
 10
101.5859768091
 20
99.4162311681
 10
101.579343625
 20
99.5044258286
 10
101.5786015719
 20
99.5437050699
  0
LWPOLYLINE
  5
25A
100
AcDbEntity
  8
0
100
AcDbPolyline
 62
7
  6
CONTINUOUS
 90
25
 70
0
 10
112.8880598038
 20
102.8841268556
 10
112.8433806185
 20
102.9441547892
 10
112.797446337
 20
103.0076447654
 10
112.7504253981
 20
103.0743639701
 10
112.702490225
 20
103.1440677474
 10
112.6538165933
 20
103.2165004976
 10
112.6045829861
 20
103.2913966146
 10
112.5549699411
 20
103.3684814576
 10
112.5051593861
 20
103.4474723614
 10
112.4553339718
 20
103.528079674
 10
112.4056764031
 20
103.6100078168
 10
112.3563687743
 20
103.6929563598
 10
112.3075918991
 20
103.7766211264
 10
112.2595246403
 20
103.8606953211
 10
112.2123432575
 20
103.944870649
 10
112.1662207657
 20
104.0288384374
 10
112.1213262954
 20
104.1122907769
 10
112.0778244697
 20
104.1949216564
 10
112.035874804
 20
104.276428079
 10
111.9956311256
 20
104.3565111646
 10
111.9572410057
 20
104.4348772533
 10
111.9208452154
 20
104.5112389878
 10
111.8865772155
 20
104.5853163554
 10
111.8545626666
 20
104.6568377155
 10
111.8249189648
 20
104.7255408025
  0
LINE
  5
25B
100
AcDbEntity
  8
0
100
AcDbLine
 62
7
  6
CONTINUOUS
 10
126.9646640134
 20
139.7945250743
 11
126.9646640134
 21
139.9936540293
  0
LWPOLYLINE
  5
25C
100
AcDbEntity
  8
0
100
AcDbPolyline
 62
7
  6
CONTINUOUS
 90
10
 70
0
 10
126.9646640134
 20
139.9936540293
 10
126.9665311641
 20
140.0393903744
 10
126.9717674241
 20
140.0821312189
 10
126.9803727934
 20
140.1218765627
 10
126.992456852
 20
140.1588755804
 10
127.00791002
 20
140.1928790974
 10
127.0264035573
 20
140.2231395907
 10
127.047827884
 20
140.249407886
 10
127.07229258
 20
140.2719331577
 10
127.0997976454
 20
140.2907154057
  0
LWPOLYLINE
  5
25D
100
AcDbEntity
  8
0
100
AcDbPolyline
 62
7
  6
CONTINUOUS
 90
10
 70
0
 10
127.7704390197
 20
139.6791352684
 10
127.7713099419
 20
139.6898492284
 10
127.7720785969
 20
139.7005230937
 10
127.7727449846
 20
139.7111568643
 10
127.7733089216
 20
139.7217514254
 10
127.7737705915
 20
139.7323058918
 10
127.774130544
 20
139.7428176081
 10
127.7743889626
 20
139.7532856891
 10
127.7745456639
 20
139.76371102
 10
127.7746006479
 20
139.7740936008
  0
LWPOLYLINE
  5
25E
100
AcDbEntity
  8
0
100
AcDbPolyline
 62
7
  6
CONTINUOUS
 90
10
 70
0
 10
126.9624151771
 20
139.7471202072
 10
126.9628873206
 20
139.7524714853
 10
126.9633038431
 20
139.7578028391
 10
126.963664758
 20
139.7631136946
 10
126.9639700731
 20
139.7684033707
 10
126.964219825
 20
139.7736714131
 10
126.9644140683
 20
139.7789175894
 10
126.9645528358
 20
139.784141446
 10
126.9646361487
 20
139.7893423133
 10
126.9646640427
 20
139.7945196361
  0
LINE
  5
25F
100
AcDbEntity
  8
0
100
AcDbLine
 62
7
  6
CONTINUOUS
 10
132.5622477086
 20
136.6598728398
 11
132.5662717121
 21
136.681443803
  0
LWPOLYLINE
  5
260
100
AcDbEntity
  8
0
100
AcDbPolyline
 62
7
  6
CONTINUOUS
 90
25
 70
0
 10
108.3452967101
 20
100.2613276575
 10
108.2314072827
 20
100.1438789836
 10
108.1199432685
 20
100.0212062993
 10
108.0111934489
 20
99.8936274258
 10
107.9054395733
 20
99.7614728964
 10
107.8029556289
 20
99.6250850969
 10
107.7040071303
 20
99.4848173781
 10
107.6088504332
 20
99.3410331448
 10
107.5177320704
 20
99.194104915
 10
107.4308881118
 20
99.0444133511
 10
107.3485435529
 20
98.8923462745
 10
107.2709117323
 20
98.7382976613
 10
107.198193779
 20
98.5826666212
 10
107.1305780907
 20
98.4258563638
 10
107.0682398466
 20
98.2682731537
 10
107.0113405526
 20
98.1103252582
 10
106.9600276238
 20
97.9524218892
 10
106.9144340018
 20
97.7949721436
 10
106.8746778108
 20
97.6383839426
 10
106.8408620501
 20
97.4830629729
 10
106.813074331
 20
97.3294116434
 10
106.7913866488
 20
97.177828043
 10
106.7758551917
 20
97.0287048972
 10
106.7665201964
 20
96.8824285516
 10
106.763405847
 20
96.7393779787
  0
LINE
  5
261
100
AcDbEntity
  8
0
100
AcDbLine
 62
7
  6
CONTINUOUS
 10
150.7298954977
 20
130.9407408545
 11
150.800998511
 21
130.9736208122
  0
LWPOLYLINE
  5
262
100
AcDbEntity
  8
0
100
AcDbPolyline
 62
7
  6
CONTINUOUS
 90
33
 70
0
 10
190.935524362
 20
60.5898607913
 10
191.044601854
 20
60.5515946882
 10
191.1645239666
 20
60.5158705369
 10
191.2832169529
 20
60.4870156039
 10
191.4007077934
 20
60.4649288183
 10
191.5160758966
 20
60.4498296148
 10
191.6292574634
 20
60.4418047628
 10
191.7403162929
 20
60.4407674929
 10
191.8485231902
 20
60.4466769315
 10
191.9538053612
 20
60.459576982
 10
192.0562356
 20
60.4794237409
 10
192.1553030948
 20
60.5060446241
 10
192.2509776483
 20
60.5394536587
 10
192.3432894577
 20
60.5796368175
 10
192.4318183028
 20
60.6263794344
 10
192.5165576305
 20
60.6796947977
 10
192.5975139939
 20
60.7395696191
 10
192.6742868322
 20
60.8057493677
 10
192.7468796111
 20
60.8782697941
 10
192.8152888649
 20
60.9570951477
 10
192.8791036359
 20
61.0418636452
 10
192.9383210285
 20
61.1326633506
 10
192.9929439384
 20
61.2294061999
 10
193.0425700943
 20
61.3314662181
 10
193.087153684
 20
61.4389406562
 10
193.1267405198
 20
61.5517322632
 10
193.161065767
 20
61.6689233104
 10
193.1900542643
 20
61.7905806418
 10
193.213781173
 20
61.9166374134
 10
193.2322071434
 20
62.0459753645
 10
193.2453190588
 20
62.1782217415
 10
193.2531300359
 20
62.3137492979
 10
193.2556400747
 20
62.4525580339
  0
LWPOLYLINE
  5
263
100
AcDbEntity
  8
0
100
AcDbPolyline
 62
7
  6
CONTINUOUS
 90
19
 70
0
 10
194.9189272687
 20
51.6658438158
 10
195.1006653112
 20
51.5665352321
 10
195.2822467081
 20
51.4783669568
 10
195.4634186416
 20
51.4011936294
 10
195.6442251626
 20
51.3347754899
 10
195.8241624781
 20
51.2790967923
 10
196.0020921094
 20
51.2342247102
 10
196.1773478255
 20
51.1999447969
 10
196.3500162881
 20
51.1758641155
 10
196.5199654656
 20
51.1616744492
 10
196.6866842288
 20
51.1570892327
 10
196.8500344764
 20
51.1617785899
 10
197.0103334977
 20
51.1754825783
 10
197.1670854227
 20
51.1979239044
 10
197.3200859799
 20
51.2288274329
 10
197.469975461
 20
51.2681666902
 10
197.6166761462
 20
51.3158734177
 10
197.7594735567
 20
51.3716544025
 10
197.8979974914
 20
51.4352597877
  0
LINE
  5
264
100
AcDbEntity
  8
0
100
AcDbLine
 62
7
  6
CONTINUOUS
 10
108.3452989304
 20
100.2613263755
 11
171.1394308314
 21
64.0047816111
  0
LINE
  5
265
100
AcDbEntity
  8
0
100
AcDbLine
 62
7
  6
CONTINUOUS
 10
194.9189272687
 20
51.6658438158
 11
184.0994196959
 21
57.912891888
  0
LWPOLYLINE
  5
266
100
AcDbEntity
  8
0
100
AcDbPolyline
 62
7
  6
CONTINUOUS
 90
14
 70
0
 10
127.9493195159
 20
140.5570003792
 10
127.9502077895
 20
140.5258296492
 10
127.9528689136
 20
140.495815025
 10
127.9572917765
 20
140.4670822121
 10
127.9634579021
 20
140.4397515011
 10
127.9713414937
 20
140.4139374223
 10
127.9809095082
 20
140.3897482364
 10
127.9921218568
 20
140.3672852801
 10
128.0049316045
 20
140.3466425715
 10
128.0192851106
 20
140.3279065543
 10
128.0351222699
 20
140.3111556879
 10
128.0523767637
 20
140.296460119
 10
128.0709763375
 20
140.2838813882
 10
128.0735690821
 20
140.2823582662
  0
LWPOLYLINE
  5
267
100
AcDbEntity
  8
0
100
AcDbPolyline
 62
7
  6
CONTINUOUS
 90
14
 70
0
 10
128.9424623115
 20
139.983572176
 10
128.9433506321
 20
139.9524006444
 10
128.9460118706
 20
139.9223854903
 10
128.950434877
 20
139.8936524003
 10
128.9566011206
 20
139.8663217025
 10
128.9644847756
 20
139.8405078286
 10
128.974052836
 20
139.8163188409
 10
128.9852652406
 20
139.7938560234
 10
128.9980750338
 20
139.7732134513
 10
129.0124285743
 20
139.7544775672
 10
129.0282657563
 20
139.7377268292
 10
129.0455202612
 20
139.7230313825
 10
129.0641198352
 20
139.7104527655
 10
129.0666932771
 20
139.7089408041
  0
LWPOLYLINE
  5
268
100
AcDbEntity
  8
0
100
AcDbPolyline
 62
7
  6
CONTINUOUS
 90
12
 70
0
 10
129.4366504946
 20
139.2050883983
 10
129.4375385655
 20
139.1739211762
 10
129.4402018041
 20
139.1438872035
 10
129.4446331472
 20
139.1151152401
 10
129.4508213965
 20
139.0877166187
 10
129.458742844
 20
139.0618240238
 10
129.4683532262
 20
139.0375834773
 10
129.4795991346
 20
139.015111128
 10
129.4924372353
 20
138.9944777413
 10
129.506825645
 20
138.9757486172
 10
129.5227158017
 20
138.9589946363
 10
129.5400339743
 20
138.9443004922
  0
LWPOLYLINE
  5
269
100
AcDbEntity
  8
0
100
AcDbPolyline
 62
7
  6
CONTINUOUS
 90
14
 70
0
 10
130.2672880203
 20
138.7254887013
 10
130.2681760912
 20
138.6943214798
 10
130.2708393297
 20
138.6642875074
 10
130.2752706728
 20
138.6355155441
 10
130.281458922
 20
138.6081169225
 10
130.2893803695
 20
138.5822243272
 10
130.2989907519
 20
138.5579837802
 10
130.3102366608
 20
138.53551143
 10
130.3230747622
 20
138.5148780426
 10
130.3374631724
 20
138.4961489182
 10
130.3533533289
 20
138.4793949378
 10
130.3706715009
 20
138.4647007945
 10
130.3893296081
 20
138.4521403538
 10
130.3914918255
 20
138.4508730182
  0
LWPOLYLINE
  5
26A
100
AcDbEntity
  8
0
100
AcDbPolyline
 62
7
  6
CONTINUOUS
 90
14
 70
0
 10
130.7614762034
 20
138.9332963524
 10
130.7623645273
 20
138.9021247745
 10
130.7650257738
 20
138.8721095823
 10
130.769448792
 20
138.8433764622
 10
130.7756150504
 20
138.8160457423
 10
130.7834987222
 20
138.7902318539
 10
130.7930668005
 20
138.7660428586
 10
130.8042792235
 20
138.7435800401
 10
130.8170890346
 20
138.7229374728
 10
130.8314425918
 20
138.7042015982
 10
130.8472797888
 20
138.6874508736
 10
130.8645343061
 20
138.6727554433
 10
130.8831338898
 20
138.6601768449
 10
130.8857257787
 20
138.6586542342
  0
LINE
  5
26B
100
AcDbEntity
  8
0
100
AcDbLine
 62
7
  6
CONTINUOUS
 10
127.7746006479
 20
139.7740936008
 11
127.7746006479
 21
139.9732620321
  0
LWPOLYLINE
  5
26C
100
AcDbEntity
  8
0
100
AcDbPolyline
 62
7
  6
CONTINUOUS
 90
4
 70
0
 10
132.5635382886
 20
136.7052772092
 10
132.5633937219
 20
136.6914843095
 10
132.5629513958
 20
136.6771246901
 10
132.5621835026
 20
136.6619531499
  0
LINE
  5
26D
100
AcDbEntity
  8
0
100
AcDbLine
 62
7
  6
CONTINUOUS
 10
132.5621835026
 20
136.6619531499
 11
132.561577604
 21
136.6527750113
  0
LINE
  5
26E
100
AcDbEntity
  8
0
100
AcDbLine
 62
7
  6
CONTINUOUS
 10
132.5615797478
 20
136.6527747484
 11
132.5616520099
 21
136.6537428935
  0
LINE
  5
26F
100
AcDbEntity
  8
0
100
AcDbLine
 62
7
  6
CONTINUOUS
 10
132.5616520099
 20
136.6537428935
 11
132.5622477086
 21
136.6598728398
  0
LWPOLYLINE
  5
270
100
AcDbEntity
  8
0
100
AcDbPolyline
 62
7
  6
CONTINUOUS
 90
28
 70
0
 10
132.7376954574
 20
136.4125457546
 10
132.735856568
 20
136.397164752
 10
132.7321822052
 20
136.3823360754
 10
132.7266661737
 20
136.3680713515
 10
132.7193679359
 20
136.3543413789
 10
132.7102166821
 20
136.3412007615
 10
132.6990122105
 20
136.3287881712
 10
132.6856901931
 20
136.3170658407
 10
132.6703044273
 20
136.3061010738
 10
132.6528505124
 20
136.2961945561
 10
132.6332226985
 20
136.2873557958
 10
132.6115530136
 20
136.2796117124
 10
132.5882402797
 20
136.2732927493
 10
132.5631948714
 20
136.2684738548
 10
132.5365881619
 20
136.2651082901
 10
132.5092642237
 20
136.2633391266
 10
132.4812721267
 20
136.263274541
 10
132.4526790676
 20
136.2648093255
 10
132.4243859013
 20
136.2677572802
 10
132.396631924
 20
136.2721611567
 10
132.3692756587
 20
136.2779623109
 10
132.3426429206
 20
136.2848195794
 10
132.3169388779
 20
136.2926461263
 10
132.2920087587
 20
136.3015145945
 10
132.2676243417
 20
136.3113258378
 10
132.2437148281
 20
136.3220448682
 10
132.2203699681
 20
136.333699965
 10
132.1975945149
 20
136.3462893442
  0
LWPOLYLINE
  5
271
100
AcDbEntity
  8
0
100
AcDbPolyline
 62
7
  6
CONTINUOUS
 90
28
 70
0
 10
150.7299056507
 20
127.2914982701
 10
150.6710367975
 20
127.2546433952
 10
150.6091151925
 20
127.219606081
 10
150.5442855221
 20
127.1865055319
 10
150.4766134893
 20
127.1553912813
 10
150.406360803
 20
127.1264481235
 10
150.3340131423
 20
127.0999644729
 10
150.2598010685
 20
127.0760194814
 10
150.1839484077
 20
127.0546730029
 10
150.1069836347
 20
127.0361180484
 10
150.0292556238
 20
127.0203988812
 10
149.950927536
 20
127.0075010943
 10
149.8722655318
 20
126.9974878796
 10
149.793625566
 20
126.9903638438
 10
149.7151540561
 20
126.9861009103
 10
149.6368009005
 20
126.9847287328
 10
149.5587229191
 20
126.9862511884
 10
149.4812640949
 20
126.9906629447
 10
149.4046582838
 20
126.9979981954
 10
149.3290081799
 20
127.0082646966
 10
149.2547178516
 20
127.0214103871
 10
149.1824441845
 20
127.0373272339
 10
149.1125102784
 20
127.0559053763
 10
149.044994542
 20
127.077066106
 10
148.9801364811
 20
127.1006923232
 10
148.9181203757
 20
127.1266688736
 10
148.8590813661
 20
127.1548891881
 10
148.8031597148
 20
127.1852377669
  0
LINE
  5
272
100
AcDbEntity
  8
0
100
AcDbLine
 62
7
  6
CONTINUOUS
 10
151.551953315
 20
127.7977734871
 11
150.7299027499
 21
127.2914960765
  0
LINE
  5
273
100
AcDbEntity
  8
0
100
AcDbLine
 62
7
  6
CONTINUOUS
 10
151.9904087288
 20
127.0736560507
 11
151.1683509115
 21
126.5673741737
  0
LWPOLYLINE
  5
274
100
AcDbEntity
  8
0
100
AcDbPolyline
 62
7
  6
CONTINUOUS
 90
28
 70
0
 10
151.1683509115
 20
126.5673741737
 10
151.0841143682
 20
126.5179548919
 10
150.9959021667
 20
126.4714065645
 10
150.9037143071
 20
126.4277291913
 10
150.8071156625
 20
126.3867021942
 10
150.7065413598
 20
126.3485461515
 10
150.6032967794
 20
126.313922798
 10
150.4973383265
 20
126.2829318918
 10
150.388709596
 20
126.2554736749
 10
150.2788467531
 20
126.2319106079
 10
150.1678583442
 20
126.2123359187
 10
150.0556358228
 20
126.1966563793
 10
149.9432897151
 20
126.1849547665
 10
149.8309702018
 20
126.1772547835
 10
149.718527102
 20
126.1735327272
 10
149.6066204002
 20
126.1738002644
 10
149.4951188789
 20
126.1780675446
 10
149.3841537556
 20
126.1863244184
 10
149.2747786666
 20
126.1985521043
 10
149.1668189696
 20
126.2148588967
 10
149.0604493069
 20
126.2351365013
 10
148.957247242
 20
126.2590412538
 10
148.8574361624
 20
126.2866196889
 10
148.7607926804
 20
126.317825272
 10
148.6682241968
 20
126.3521747345
 10
148.5800331784
 20
126.389506987
 10
148.4959171583
 20
126.4299831189
 10
148.4158761364
 20
126.4736031302
  0
LINE
  5
275
100
AcDbEntity
  8
0
100
AcDbLine
 62
7
  6
CONTINUOUS
 10
107.282155871
 20
102.1027425918
 11
111.8249189648
 21
104.7255408025
  0
LINE
  5
276
100
AcDbEntity
  8
0
100
AcDbLine
 62
7
  6
CONTINUOUS
 10
194.587595075
 20
52.3982227936
 11
184.6578128625
 21
58.1315545937
  0
LINE
  5
277
100
AcDbEntity
  8
0
100
AcDbLine
 62
7
  6
CONTINUOUS
 10
171.8840202037
 20
68.8205987138
 11
112.8880598038
 21
102.8841268556
  0
LWPOLYLINE
  5
278
100
AcDbEntity
  8
0
100
AcDbPolyline
 62
7
  6
CONTINUOUS
 90
14
 70
0
 10
194.9189272687
 20
51.6658438158
 10
194.8982985063
 20
51.6783853793
 10
194.8507010638
 20
51.7126149676
 10
194.8065780076
 20
51.7522019907
 10
194.7661058974
 20
51.79698804
 10
194.7294466835
 20
51.8467939028
 10
194.6967470588
 20
51.9014202795
 10
194.6681378717
 20
51.9606485812
 10
194.6437336027
 20
52.0242418042
 10
194.6236319062
 20
52.0919454783
 10
194.6079132197
 20
52.1634886855
 10
194.5966404419
 20
52.2385851434
 10
194.5898586812
 20
52.3169343517
 10
194.587595075
 20
52.3982227936
  0
LWPOLYLINE
  5
279
100
AcDbEntity
  8
0
100
AcDbPolyline
 62
7
  6
CONTINUOUS
 90
9
 70
0
 10
127.7746003889
 20
139.9732388684
 10
127.7741926744
 20
139.9764659699
 10
127.7743633314
 20
139.9796534336
 10
127.7751089327
 20
139.9827762963
 10
127.776428997
 20
139.9858127119
 10
127.7783115829
 20
139.9887401142
 10
127.7807341599
 20
139.991534375
 10
127.7836824997
 20
139.9941756434
 10
127.7871499265
 20
139.9966494973
  0
LWPOLYLINE
  5
27A
100
AcDbEntity
  8
0
100
AcDbPolyline
 62
7
  6
CONTINUOUS
 90
3
 70
0
 10
132.5654077388
 20
136.6779645716
 10
132.5635592852
 20
136.7024098361
 10
132.5635385705
 20
136.7052772094
  0
LINE
  5
27B
100
AcDbEntity
  8
0
100
AcDbLine
 62
7
  6
CONTINUOUS
 10
132.5634577887
 20
136.9067365726
 11
132.563539462
 21
136.9044021711
  0
LWPOLYLINE
  5
27C
100
AcDbEntity
  8
0
100
AcDbPolyline
 62
7
  6
CONTINUOUS
 90
14
 70
0
 10
131.7546189989
 20
138.3598681493
 10
131.7555072864
 20
138.328697208
 10
131.7581684461
 20
138.2986824082
 10
131.7625913627
 20
138.2699494552
 10
131.7687575564
 20
138.2426186383
 10
131.7766412267
 20
138.2168044874
 10
131.7862093263
 20
138.1926152633
 10
131.7974217617
 20
138.1701523007
 10
131.8102315941
 20
138.1495096134
 10
131.8245851798
 20
138.1307736403
 10
131.84042241
 20
138.114022837
 10
131.857676963
 20
138.0993273462
 10
131.8762765826
 20
138.0867487031
 10
131.8788685789
 20
138.0852260283
  0
LINE
  5
27D
100
AcDbEntity
  8
0
100
AcDbLine
 62
7
  6
CONTINUOUS
 10
132.5635385702
 20
136.9044310737
 11
132.5635385702
 21
136.7052885383
  0
LINE
  5
27E
100
AcDbEntity
  8
0
100
AcDbLine
 62
7
  6
CONTINUOUS
 10
136.8876817302
 20
98.4513433416
 11
136.8876817302
 21
94.6967557855
  0
LWPOLYLINE
  5
27F
100
AcDbEntity
  8
0
100
AcDbPolyline
 62
7
  6
CONTINUOUS
 90
10
 70
0
 10
132.7392745014
 20
136.6594663063
 10
132.7392553233
 20
136.4551488812
 10
132.7391971585
 20
136.449933011
 10
132.7390999463
 20
136.4446848299
 10
132.7389636596
 20
136.4394050144
 10
132.7387882802
 20
136.4340940159
 10
132.7385737883
 20
136.4287520557
 10
132.7383201623
 20
136.4233795855
 10
132.7380273883
 20
136.4179772931
 10
132.7376954574
 20
136.4125457546
  0
LINE
  5
280
100
AcDbEntity
  8
0
100
AcDbLine
 62
7
  6
CONTINUOUS
 10
135.7253066266
 20
110.0575428788
 11
134.670026573
 21
106.3972415095
  0
LINE
  5
281
100
AcDbEntity
  8
0
100
AcDbLine
 62
7
  6
CONTINUOUS
 10
135.160598873
 20
104.0021687962
 11
136.9370881529
 21
109.3578754127
  0
LINE
  5
282
100
AcDbEntity
  8
0
100
AcDbLine
 62
7
  6
CONTINUOUS
 10
135.3727309074
 20
104.1246511742
 11
137.081025862
 21
109.2747675834
  0
LINE
  5
283
100
AcDbEntity
  8
0
100
AcDbLine
 62
7
  6
CONTINUOUS
 10
108.3452989304
 20
100.2613263755
 11
112.8880598038
 21
102.8841268556
  0
LWPOLYLINE
  5
284
100
AcDbEntity
  8
0
100
AcDbPolyline
 62
7
  6
CONTINUOUS
 90
5
 70
0
 10
146.1235369733
 20
90.1977628139
 10
146.168798517
 20
90.1941940239
 10
146.2123149899
 20
90.1940926943
 10
146.2542252113
 20
90.1974844304
 10
146.2942065014
 20
90.2043122281
  0
LWPOLYLINE
  5
285
100
AcDbEntity
  8
0
100
AcDbPolyline
 62
7
  6
CONTINUOUS
 90
4
 70
0
 10
195.8031580035
 20
63.5981021874
 10
195.7876484186
 20
63.6059384869
 10
195.7632183819
 20
63.620631
 10
195.7390819047
 20
63.6374990169
  0
LWPOLYLINE
  5
286
100
AcDbEntity
  8
0
100
AcDbPolyline
 62
7
  6
CONTINUOUS
 90
22
 70
0
 10
193.2556400747
 20
62.4525580339
 10
193.2246346531
 20
62.4692381381
 10
193.1916674899
 20
62.4846129588
 10
193.1569030586
 20
62.4986058063
 10
193.1205148244
 20
62.5111468773
 10
193.0826842971
 20
62.5221736317
 10
193.0436001152
 20
62.5316310926
 10
193.003457221
 20
62.5394720871
 10
192.962455898
 20
62.5456574928
 10
192.9208006821
 20
62.5501564541
 10
192.8786993719
 20
62.5529465282
 10
192.8363619911
 20
62.5540137973
 10
192.7939997404
 20
62.5533529375
 10
192.7518239451
 20
62.5509672459
 10
192.7100450003
 20
62.546868624
 10
192.6688713206
 20
62.5410775181
 10
192.6285082992
 20
62.533622817
 10
192.5891572907
 20
62.5245417092
 10
192.5510146052
 20
62.5138794984
 10
192.5142705196
 20
62.501689375
 10
192.4791083292
 20
62.4880321502
 10
192.4457034402
 20
62.4729759543
  0
LWPOLYLINE
  5
287
100
AcDbEntity
  8
0
100
AcDbPolyline
 62
7
  6
CONTINUOUS
 90
22
 70
0
 10
193.2556400747
 20
62.8465766407
 10
193.2246352501
 20
62.863256441
 10
193.1916686475
 20
62.8786310552
 10
193.1569047146
 20
62.8926237848
 10
193.120516863
 20
62.9051648254
 10
193.0826866112
 20
62.9161916114
 10
193.04360268
 20
62.9256491293
 10
193.0034600421
 20
62.9334901965
 10
192.9624589417
 20
62.9396756968
 10
192.9208039045
 20
62.9441747715
 10
192.878702725
 20
62.9469649734
 10
192.8363654246
 20
62.9480323797
 10
192.794003198
 20
62.9473716615
 10
192.7518273696
 20
62.9449861105
 10
192.7100483362
 20
62.9408876225
 10
192.6688745118
 20
62.935096638
 10
192.6285113576
 20
62.9276420536
 10
192.5891601653
 20
62.9185610444
 10
192.5510170665
 20
62.9078988531
 10
192.5142723076
 20
62.8957086223
 10
192.479109283
 20
62.8820511553
 10
192.4457034402
 20
62.866994561
  0
LWPOLYLINE
  5
288
100
AcDbEntity
  8
0
100
AcDbPolyline
 62
7
  6
CONTINUOUS
 90
15
 70
0
 10
145.546017614
 20
89.6142804691
 10
145.647593662
 20
89.5594321895
 10
145.7454280069
 20
89.512164764
 10
145.8395206486
 20
89.4724781924
 10
145.9297719209
 20
89.4406457699
 10
146.01628149
 20
89.4163942013
 10
146.0993483544
 20
89.398903602
 10
146.1788142455
 20
89.3880746098
 10
146.2548374319
 20
89.3840065868
 10
146.3281917185
 20
89.3861777343
 10
146.3995233273
 20
89.3946045073
 10
146.4681860363
 20
89.4092704508
 10
146.5330149843
 20
89.4296044004
 10
146.5936218844
 20
89.4554159679
 10
146.6320861979
 20
89.4758821224
  0
LWPOLYLINE
  5
289
100
AcDbEntity
  8
0
100
AcDbPolyline
 62
7
  6
CONTINUOUS
 90
8
 70
0
 10
145.7596643182
 20
90.3303336578
 10
145.8165566893
 20
90.2994561897
 10
145.8718190067
 20
90.2725788514
 10
145.9254512703
 20
90.2497016431
 10
145.9774793592
 20
90.2309115434
 10
146.0278773944
 20
90.2161215736
 10
146.0765677388
 20
90.2050707975
 10
146.1235369733
 20
90.1977628139
  0
LWPOLYLINE
  5
28A
100
AcDbEntity
  8
0
100
AcDbPolyline
 62
7
  6
CONTINUOUS
 90
25
 70
0
 10
113.6324790335
 20
104.5415149397
 10
113.5734358051
 20
104.5739128077
 10
113.5116110608
 20
104.6045349098
 10
113.4471647264
 20
104.633301668
 10
113.3802627037
 20
104.6601386215
 10
113.3110789373
 20
104.6849756016
 10
113.2397952415
 20
104.7077471684
 10
113.1665976349
 20
104.7283939562
 10
113.0916747101
 20
104.7468628253
 10
113.0152197662
 20
104.7631060704
 10
112.9374297223
 20
104.7770816937
 10
112.8585074026
 20
104.7887530977
 10
112.7786602119
 20
104.7980896428
 10
112.6980956181
 20
104.8050672489
 10
112.6170221274
 20
104.8096680351
 10
112.5356515879
 20
104.8118802108
 10
112.4541930305
 20
104.8116983123
 10
112.3728595085
 20
104.809123034
 10
112.2918691338
 20
104.8041619122
 10
112.2114271687
 20
104.7968282822
 10
112.1317462363
 20
104.7871422948
 10
112.0530524186
 20
104.7751333481
 10
111.9755547145
 20
104.7608365422
 10
111.8994452538
 20
104.744290574
 10
111.8249189648
 20
104.7255408025
  0
LINE
  5
28B
100
AcDbEntity
  8
0
100
AcDbLine
 62
7
  6
CONTINUOUS
 10
171.8840202037
 20
70.9078051314
 11
113.6324790335
 21
104.5415149397
  0
LINE
  5
28C
100
AcDbEntity
  8
0
100
AcDbLine
 62
7
  6
CONTINUOUS
 10
136.8876817302
 20
94.6967557855
 11
139.198856709
 21
93.3623123186
  0
LINE
  5
28D
100
AcDbEntity
  8
0
100
AcDbLine
 62
7
  6
CONTINUOUS
 10
139.8972568844
 20
92.9590648104
 11
140.4779944914
 21
92.6237541944
  0
LINE
  5
28E
100
AcDbEntity
  8
0
100
AcDbLine
 62
7
  6
CONTINUOUS
 10
141.1686115424
 20
92.2250005646
 11
141.7493244007
 21
91.8897042383
  0
LINE
  5
28F
100
AcDbEntity
  8
0
100
AcDbLine
 62
7
  6
CONTINUOUS
 10
143.2466795784
 20
91.025150125
 11
143.9771923012
 21
90.6033612343
  0
LINE
  5
290
100
AcDbEntity
  8
0
100
AcDbLine
 62
7
  6
CONTINUOUS
 10
147.6811406576
 20
88.4647478747
 11
148.2401785717
 21
88.1419663895
  0
LINE
  5
291
100
AcDbEntity
  8
0
100
AcDbLine
 62
7
  6
CONTINUOUS
 10
149.726823203
 20
87.2835964114
 11
150.3071011906
 21
86.948551174
  0
LINE
  5
292
100
AcDbEntity
  8
0
100
AcDbLine
 62
7
  6
CONTINUOUS
 10
139.198856709
 20
93.9582082513
 11
137.4683868103
 21
94.9573378382
  0
LINE
  5
293
100
AcDbEntity
  8
0
100
AcDbLine
 62
7
  6
CONTINUOUS
 10
194.800933078
 20
61.9543438276
 11
193.2556400747
 21
62.8465737936
  0
LINE
  5
294
100
AcDbEntity
  8
0
100
AcDbLine
 62
7
  6
CONTINUOUS
 10
139.4109887434
 20
94.0806906293
 11
137.6805188447
 21
95.0798202162
  0
LINE
  5
295
100
AcDbEntity
  8
0
100
AcDbLine
 62
7
  6
CONTINUOUS
 10
137.4683868103
 20
95.9906348606
 11
139.0692652492
 21
95.0663207772
  0
LWPOLYLINE
  5
296
100
AcDbEntity
  8
0
100
AcDbPolyline
 62
7
  6
CONTINUOUS
 90
16
 70
0
 10
145.5475322838
 20
90.2078512798
 10
145.4916519961
 20
90.2417805136
 10
145.4370561891
 20
90.27817164
 10
145.383744863
 20
90.3170246591
 10
145.331746193
 20
90.3584010603
 10
145.2810320039
 20
90.4022393542
 10
145.2315177694
 20
90.4483550721
 10
145.182843957
 20
90.4971267426
 10
145.1353700993
 20
90.548175837
 10
145.0900902677
 20
90.6001823006
 10
145.0471542769
 20
90.6530984656
 10
145.0064123123
 20
90.7069719997
 10
144.9684090019
 20
90.7606258514
 10
144.9333258882
 20
90.8136676702
 10
144.9009814288
 20
90.8664898066
 10
144.8713756234
 20
90.9190922606
  0
LINE
  5
297
100
AcDbEntity
  8
0
100
AcDbLine
 62
7
  6
CONTINUOUS
 10
132.3290670481
 20
112.0184890466
 11
134.0811254182
 21
104.62544324
  0
LINE
  5
298
100
AcDbEntity
  8
0
100
AcDbLine
 62
7
  6
CONTINUOUS
 10
134.670026573
 20
106.3972415095
 11
133.6460283941
 21
111.2580920708
  0
LINE
  5
299
100
AcDbEntity
  8
0
100
AcDbLine
 62
7
  6
CONTINUOUS
 10
134.8075057267
 20
106.8740960968
 11
133.9169113798
 21
111.1016876298
  0
LINE
  5
29A
100
AcDbEntity
  8
0
100
AcDbLine
 62
7
  6
CONTINUOUS
 10
129.2569443098
 20
139.408692251
 11
129.2730964231
 21
139.3297625309
  0
LINE
  5
29B
100
AcDbEntity
  8
0
100
AcDbLine
 62
7
  6
CONTINUOUS
 10
129.4204983845
 20
139.2840181024
 11
129.4366504946
 21
139.2050883983
  0
LINE
  5
29C
100
AcDbEntity
  8
0
100
AcDbLine
 62
7
  6
CONTINUOUS
 10
137.4683868103
 20
94.9573378382
 11
137.4683868103
 21
95.9906348606
  0
LINE
  5
29D
100
AcDbEntity
  8
0
100
AcDbLine
 62
7
  6
CONTINUOUS
 10
137.4683868103
 20
96.5865699838
 11
137.4683868103
 21
97.5201621054
  0
LINE
  5
29E
100
AcDbEntity
  8
0
100
AcDbLine
 62
7
  6
CONTINUOUS
 10
137.5014638513
 20
109.0320119577
 11
137.5014638513
 21
102.6505826957
  0
LINE
  5
29F
100
AcDbEntity
  8
0
100
AcDbLine
 62
7
  6
CONTINUOUS
 10
137.6805188447
 20
95.0798202162
 11
137.6805188447
 21
95.8681542136
  0
LINE
  5
2A0
100
AcDbEntity
  8
0
100
AcDbLine
 62
7
  6
CONTINUOUS
 10
137.6805188447
 20
96.7090523618
 11
137.6805188447
 21
97.3976789206
  0
LINE
  5
2A1
100
AcDbEntity
  8
0
100
AcDbLine
 62
7
  6
CONTINUOUS
 10
138.7263969492
 20
101.943321677
 11
138.7263969492
 21
108.324750939
  0
LINE
  5
2A2
100
AcDbEntity
  8
0
100
AcDbLine
 62
7
  6
CONTINUOUS
 10
138.9385289835
 20
102.065804055
 11
138.9385289835
 21
108.202268561
  0
LINE
  5
2A3
100
AcDbEntity
  8
0
100
AcDbLine
 62
7
  6
CONTINUOUS
 10
139.0692652492
 20
95.0663207772
 11
139.0692652492
 21
95.6622297734
  0
LINE
  5
2A4
100
AcDbEntity
  8
0
100
AcDbLine
 62
7
  6
CONTINUOUS
 10
139.1857865473
 20
96.5285504896
 11
139.1857865473
 21
97.1244464222
  0
LINE
  5
2A5
100
AcDbEntity
  8
0
100
AcDbLine
 62
7
  6
CONTINUOUS
 10
139.198856709
 20
93.3623123186
 11
139.198856709
 21
93.9582082513
  0
LINE
  5
2A6
100
AcDbEntity
  8
0
100
AcDbLine
 62
7
  6
CONTINUOUS
 10
139.2813972836
 20
95.1888031552
 11
139.2813972836
 21
95.7847121514
  0
LINE
  5
2A7
100
AcDbEntity
  8
0
100
AcDbLine
 62
7
  6
CONTINUOUS
 10
139.3979185816
 20
96.6510328676
 11
139.3979185816
 21
97.2469288002
  0
LINE
  5
2A8
100
AcDbEntity
  8
0
100
AcDbLine
 62
7
  6
CONTINUOUS
 10
139.4109887434
 20
93.4847946966
 11
139.4109887434
 21
94.0806906293
  0
LINE
  5
2A9
100
AcDbEntity
  8
0
100
AcDbLine
 62
7
  6
CONTINUOUS
 10
139.8972568844
 20
96.7136523664
 11
139.8972568844
 21
92.9590648104
  0
LINE
  5
2AA
100
AcDbEntity
  8
0
100
AcDbLine
 62
7
  6
CONTINUOUS
 10
140.4779944914
 20
92.6237541944
 11
140.4779944914
 21
96.3783417505
  0
LINE
  5
2AB
100
AcDbEntity
  8
0
100
AcDbLine
 62
7
  6
CONTINUOUS
 10
140.6901265257
 20
92.7462365724
 11
140.6901265257
 21
96.5008241285
  0
LINE
  5
2AC
100
AcDbEntity
  8
0
100
AcDbLine
 62
7
  6
CONTINUOUS
 10
141.1686115424
 20
95.9795881207
 11
141.1686115424
 21
92.2250005646
  0
LINE
  5
2AD
100
AcDbEntity
  8
0
100
AcDbLine
 62
7
  6
CONTINUOUS
 10
141.7493244007
 20
91.8897042383
 11
141.749313087
 21
93.1909300649
  0
LINE
  5
2AE
100
AcDbEntity
  8
0
100
AcDbLine
 62
7
  6
CONTINUOUS
 10
141.749313087
 20
94.0072917512
 11
141.7493244007
 21
95.6442917943
  0
LINE
  5
2AF
100
AcDbEntity
  8
0
100
AcDbLine
 62
7
  6
CONTINUOUS
 10
141.9614564351
 20
92.0121866163
 11
141.9614452651
 21
93.2968839591
  0
LINE
  5
2B0
100
AcDbEntity
  8
0
100
AcDbLine
 62
7
  6
CONTINUOUS
 10
141.9614451214
 20
94.1297741292
 11
141.9614564351
 21
95.7667741723
  0
LINE
  5
2B1
100
AcDbEntity
  8
0
100
AcDbLine
 62
7
  6
CONTINUOUS
 10
140.5576797688
 20
100.8859619283
 11
140.8220196181
 21
105.1578368304
  0
LINE
  5
2B2
100
AcDbEntity
  8
0
100
AcDbLine
 62
7
  6
CONTINUOUS
 10
140.7698118031
 20
101.0084443063
 11
140.9888308911
 21
104.5479111992
  0
LINE
  5
2B3
100
AcDbEntity
  8
0
100
AcDbLine
 62
7
  6
CONTINUOUS
 10
139.8848428025
 20
107.655878822
 11
139.3858178633
 21
101.5625803057
  0
LINE
  5
2B4
100
AcDbEntity
  8
0
100
AcDbLine
 62
7
  6
CONTINUOUS
 10
158.1711199826
 20
122.5240630774
 11
158.2204325835
 21
122.5609420354
  0
LWPOLYLINE
  5
2B5
100
AcDbEntity
  8
0
100
AcDbPolyline
 62
7
  6
CONTINUOUS
 90
13
 70
0
 10
146.120539048
 20
90.0919385621
 10
146.0826237908
 20
90.0819457636
 10
146.0424837288
 20
90.0750515761
 10
146.0005788451
 20
90.071626017
 10
145.9570489313
 20
90.0716982024
 10
145.9117541957
 20
90.0752390162
 10
145.8647352456
 20
90.082531128
 10
145.8159671715
 20
90.0935863577
 10
145.765474883
 20
90.1083928854
 10
145.7133737164
 20
90.1271979205
 10
145.659702117
 20
90.1500838662
 10
145.6044216395
 20
90.1769683193
 10
145.5475322838
 20
90.2078512798
  0
LWPOLYLINE
  5
2B6
100
AcDbEntity
  8
0
100
AcDbPolyline
 62
7
  6
CONTINUOUS
 90
13
 70
0
 10
144.9684122597
 20
93.0560978935
 10
145.0064164094
 20
93.0658660895
 10
145.0471590775
 20
93.0726914263
 10
145.0900955617
 20
93.0760258435
 10
145.1353756657
 20
93.0757439989
 10
145.1828495857
 20
93.0719712346
 10
145.2315232083
 20
93.0645355171
 10
145.2810369471
 20
93.0534735276
 10
145.3317503885
 20
93.038748585
 10
145.3837481782
 20
93.0200786115
 10
145.4370585317
 20
92.9973695812
 10
145.4916532336
 20
92.9707155202
 10
145.5475322838
 20
92.9401164283
  0
LWPOLYLINE
  5
2B7
100
AcDbEntity
  8
0
100
AcDbPolyline
 62
7
  6
CONTINUOUS
 90
13
 70
0
 10
145.3465671618
 20
93.6382823682
 10
145.252453825
 20
93.6779783321
 10
145.1621810776
 20
93.7098193184
 10
145.0756495897
 20
93.7340785547
 10
144.9925613717
 20
93.7515757236
 10
144.9130735468
 20
93.762409814
 10
144.8370289917
 20
93.766481837
 10
144.7636583465
 20
93.7643145091
 10
144.6923169789
 20
93.7558909973
 10
144.6236495213
 20
93.7412281345
 10
144.5588205113
 20
93.7208991362
 10
144.4982181281
 20
93.6950950742
 10
144.4597320815
 20
93.6746191669
  0
LWPOLYLINE
  5
2B8
100
AcDbEntity
  8
0
100
AcDbPolyline
 62
7
  6
CONTINUOUS
 90
22
 70
0
 10
195.5625519
 20
65.6422131322
 10
195.5315200397
 20
65.6589064828
 10
195.4985233598
 20
65.6742923148
 10
195.4637267575
 20
65.6882937608
 10
195.4273038898
 20
65.7008409454
 10
195.3894369818
 20
65.7118710954
 10
195.350316001
 20
65.7213289486
 10
195.3101372111
 20
65.7291672293
 10
195.2691007367
 20
65.7353470643
 10
195.2274102094
 20
65.7398378138
 10
195.1852718989
 20
65.7426170695
 10
195.1428983023
 20
65.7436706286
 10
195.1005057048
 20
65.7429933289
 10
195.058308558
 20
65.7405892572
 10
195.0165148095
 20
65.7364709238
 10
194.9753295685
 20
65.7306588203
 10
194.9349368586
 20
65.7231775318
 10
194.8955610315
 20
65.7140671986
 10
194.857456571
 20
65.7033910611
 10
194.8208257482
 20
65.6912161913
 10
194.7858235085
 20
65.6776048651
 10
194.7526152655
 20
65.6626310526
  0
LWPOLYLINE
  5
2B9
100
AcDbEntity
  8
0
100
AcDbPolyline
 62
7
  6
CONTINUOUS
 90
3
 70
0
 10
145.546017614
 20
93.53614519
 10
145.4444217581
 20
93.5910046541
 10
145.3465671618
 20
93.6382823682
  0
LINE
  5
2BA
100
AcDbEntity
  8
0
100
AcDbLine
 62
7
  6
CONTINUOUS
 10
139.0692652492
 20
95.6622297734
 11
137.4683868103
 21
96.5865699838
  0
LINE
  5
2BB
100
AcDbEntity
  8
0
100
AcDbLine
 62
7
  6
CONTINUOUS
 10
139.2813972836
 20
95.7847121514
 11
137.6805188447
 21
96.7090523618
  0
LINE
  5
2BC
100
AcDbEntity
  8
0
100
AcDbLine
 62
7
  6
CONTINUOUS
 10
195.7390898209
 20
63.6374957737
 11
194.3110392805
 21
64.4620425457
  0
LINE
  5
2BD
100
AcDbEntity
  8
0
100
AcDbLine
 62
7
  6
CONTINUOUS
 10
137.4683868103
 20
97.5201621054
 11
139.1857865473
 21
96.5285504896
  0
LINE
  5
2BE
100
AcDbEntity
  8
0
100
AcDbLine
 62
7
  6
CONTINUOUS
 10
150.3071011906
 20
90.70313873
 11
149.7480554983
 21
91.0259247062
  0
LINE
  5
2BF
100
AcDbEntity
  8
0
100
AcDbLine
 62
7
  6
CONTINUOUS
 10
148.2485549586
 20
91.8917175247
 11
147.6811406576
 21
92.2193354307
  0
LINE
  5
2C0
100
AcDbEntity
  8
0
100
AcDbLine
 62
7
  6
CONTINUOUS
 10
143.9695272637
 20
94.362374487
 11
143.1908846107
 21
94.8119529961
  0
LINE
  5
2C1
100
AcDbEntity
  8
0
100
AcDbLine
 62
7
  6
CONTINUOUS
 10
141.7493244007
 20
95.6442917943
 11
141.1686115424
 21
95.9795881207
  0
LINE
  5
2C2
100
AcDbEntity
  8
0
100
AcDbLine
 62
7
  6
CONTINUOUS
 10
140.4779944914
 20
96.3783417505
 11
139.8972568844
 21
96.7136523664
  0
LINE
  5
2C3
100
AcDbEntity
  8
0
100
AcDbLine
 62
7
  6
CONTINUOUS
 10
139.1857865473
 20
97.1244464222
 11
136.8876817302
 21
98.4513433416
  0
LINE
  5
2C4
100
AcDbEntity
  8
0
100
AcDbLine
 62
7
  6
CONTINUOUS
 10
195.8031580035
 20
64.5497908014
 11
195.160492097
 21
64.9208580414
  0
LINE
  5
2C5
100
AcDbEntity
  8
0
100
AcDbLine
 62
7
  6
CONTINUOUS
 10
150.5192332249
 20
90.825621108
 11
149.9601875327
 21
91.1484070842
  0
LINE
  5
2C6
100
AcDbEntity
  8
0
100
AcDbLine
 62
7
  6
CONTINUOUS
 10
148.460686993
 20
92.0141999027
 11
147.8932726919
 21
92.3418178087
  0
LINE
  5
2C7
100
AcDbEntity
  8
0
100
AcDbLine
 62
7
  6
CONTINUOUS
 10
144.181659298
 20
94.484856865
 11
143.4030166451
 21
94.9344353741
  0
LINE
  5
2C8
100
AcDbEntity
  8
0
100
AcDbLine
 62
7
  6
CONTINUOUS
 10
141.9614564351
 20
95.7667741723
 11
141.3807435768
 21
96.1020704987
  0
LINE
  5
2C9
100
AcDbEntity
  8
0
100
AcDbLine
 62
7
  6
CONTINUOUS
 10
140.6901265257
 20
96.5008241285
 11
140.1093889187
 21
96.8361347444
  0
LINE
  5
2CA
100
AcDbEntity
  8
0
100
AcDbLine
 62
7
  6
CONTINUOUS
 10
139.3979185816
 20
97.2469288002
 11
137.0998137646
 21
98.5738257196
  0
LINE
  5
2CB
100
AcDbEntity
  8
0
100
AcDbLine
 62
7
  6
CONTINUOUS
 10
195.8031580035
 20
65.5032901835
 11
195.5625519
 21
65.6422131322
  0
LWPOLYLINE
  5
2CC
100
AcDbEntity
  8
0
100
AcDbPolyline
 62
7
  6
CONTINUOUS
 90
16
 70
0
 10
145.5475322838
 20
92.9401164283
 10
145.604423028
 20
92.9053041064
 10
145.6597047868
 20
92.8683511332
 10
145.7133775603
 20
92.8292575088
 10
145.7654798173
 20
92.7878963935
 10
145.8159730889
 20
92.744394627
 10
145.8647419682
 20
92.6991327276
 10
145.9117615944
 20
92.6521275675
 10
145.9570568283
 20
92.6033622744
 10
146.0005868451
 20
92.5531667498
 10
146.0424913599
 20
92.5013505156
 10
146.0826306577
 20
92.4481040499
 10
146.1205447684
 20
92.3943286877
 10
146.1560803687
 20
92.3403248738
 10
146.189390782
 20
92.2857921635
 10
146.2204760082
 20
92.2307305566
  0
LWPOLYLINE
  5
2CD
100
AcDbEntity
  8
0
100
AcDbPolyline
 62
7
  6
CONTINUOUS
 90
5
 70
0
 10
145.7581496483
 20
93.658627568
 10
145.8591954097
 20
93.5965618415
 10
145.9566402671
 20
93.531152639
 10
146.0504842205
 20
93.4623999604
 10
146.1406125545
 20
93.3901941789
  0
LWPOLYLINE
  5
2CE
100
AcDbEntity
  8
0
100
AcDbPolyline
 62
7
  6
CONTINUOUS
 90
14
 70
0
 10
196.2132085099
 20
62.7696163586
 10
196.1525987619
 20
62.8068988672
 10
196.0961927403
 20
62.8463194638
 10
196.0442161784
 20
62.8877204169
 10
195.99687705
 20
62.9309361054
 10
195.9543648558
 20
62.9757935754
 10
195.9168498239
 20
63.0221132186
 10
195.8844820883
 20
63.0697096411
 10
195.8573911265
 20
63.1183924186
 10
195.8356853332
 20
63.1679667445
 10
195.8194515551
 20
63.218234243
 10
195.808754742
 20
63.2689937659
 10
195.8036376871
 20
63.3200421994
 10
195.8031580185
 20
63.3410827642
  0
LWPOLYLINE
  5
2CF
100
AcDbEntity
  8
0
100
AcDbPolyline
 62
7
  6
CONTINUOUS
 90
10
 70
0
 10
146.1406125545
 20
93.3901941789
 10
146.2271399844
 20
93.3146449214
 10
146.3104106568
 20
93.2360810678
 10
146.3904340887
 20
93.1545583529
 10
146.4672007631
 20
93.070021042
 10
146.5410262758
 20
92.9826308105
 10
146.6122891481
 20
92.8919330438
 10
146.6806108588
 20
92.7983823565
 10
146.7451714397
 20
92.7035042688
 10
146.8056975682
 20
92.6078072874
  0
LINE
  5
2D0
100
AcDbEntity
  8
0
100
AcDbLine
 62
7
  6
CONTINUOUS
 10
146.8056975682
 20
92.6078072874
 11
146.862462567
 21
92.5107829056
  0
LWPOLYLINE
  5
2D1
100
AcDbEntity
  8
0
100
AcDbPolyline
 62
7
  6
CONTINUOUS
 90
16
 70
0
 10
145.0835076578
 20
91.0415746386
 10
145.113158137
 20
90.988945297
 10
145.1454449232
 20
90.9362077376
 10
145.1803680166
 20
90.8833619602
 10
145.2180590651
 20
90.8300859363
 10
145.2583864207
 20
90.7767016946
 10
145.3009551393
 20
90.7241753209
 10
145.3459418559
 20
90.6723944122
 10
145.3931699356
 20
90.6214713715
 10
145.4417145297
 20
90.5727094946
 10
145.4912345732
 20
90.5264615689
 10
145.5420711311
 20
90.482374807
 10
145.5943225499
 20
90.4406941416
 10
145.6480216118
 20
90.4015012171
 10
145.7031355346
 20
90.3647143892
 10
145.7596643182
 20
90.3303336578
  0
LINE
  5
2D2
100
AcDbEntity
  8
0
100
AcDbLine
 62
7
  6
CONTINUOUS
 10
146.862462567
 20
92.5107829056
 11
146.9154664361
 21
92.4124311234
  0
LWPOLYLINE
  5
2D3
100
AcDbEntity
  8
0
100
AcDbPolyline
 62
7
  6
CONTINUOUS
 90
16
 70
0
 10
144.3885287046
 20
90.8605829192
 10
144.441461648
 20
90.7623218172
 10
144.4982323879
 20
90.6652953225
 10
144.5588409243
 20
90.5695034351
 10
144.6236753911
 20
90.4743069867
 10
144.6923476545
 20
90.3803451456
 10
144.7636933126
 20
90.2895354167
 10
144.8370681037
 20
90.2026386699
 10
144.9131162897
 20
90.1188940353
 10
144.9926062542
 20
90.0379364075
 10
145.0756957009
 20
89.9594850888
 10
145.1622269262
 20
89.883820777
 10
145.2524952028
 20
89.8114204603
 10
145.3465989551
 20
89.7424431348
 10
145.4444397589
 20
89.6767298044
 10
145.546017614
 20
89.6142804691
  0
LWPOLYLINE
  5
2D4
100
AcDbEntity
  8
0
100
AcDbPolyline
 62
7
  6
CONTINUOUS
 90
16
 70
0
 10
146.7033344017
 20
92.2899487454
 10
146.6503860878
 20
92.3882400064
 10
146.5936056512
 20
92.4852879434
 10
146.5329930919
 20
92.5810925566
 10
146.4681601154
 20
92.6762923817
 10
146.3994950162
 20
92.770248883
 10
146.3281626784
 20
92.8610464528
 10
146.2548097836
 20
92.9479220133
 10
146.1787896503
 20
93.0316386422
 10
146.0993271171
 20
93.1125699651
 10
146.0162635594
 20
93.1909986176
 10
145.9297576019
 20
93.2666419641
 10
145.8395099574
 20
93.3390257227
 10
145.7454208633
 20
93.4079917996
 10
145.6475900822
 20
93.4736982887
 10
145.546017614
 20
93.53614519
  0
LWPOLYLINE
  5
2D5
100
AcDbEntity
  8
0
100
AcDbPolyline
 62
7
  6
CONTINUOUS
 90
16
 70
0
 10
144.8713756234
 20
90.9190922606
 10
144.83895487
 20
90.9804828183
 10
144.8077447668
 20
91.0450989298
 10
144.7777453137
 20
91.1129405952
 10
144.7487778561
 20
91.1840434791
 10
144.7210210487
 20
91.2583719169
 10
144.6950108556
 20
91.3358189147
 10
144.6706979012
 20
91.41658596
 10
144.6481315611
 20
91.5004715654
 10
144.6279959261
 20
91.5867642748
 10
144.6102625631
 20
91.6757176203
 10
144.5949599051
 20
91.7670780697
 10
144.5828573434
 20
91.8593735707
 10
144.5742113414
 20
91.9521134391
 10
144.5687654357
 20
92.0457883591
 10
144.566519626
 20
92.1403983306
  0
LWPOLYLINE
  5
2D6
100
AcDbEntity
  8
0
100
AcDbPolyline
 62
7
  6
CONTINUOUS
 90
16
 70
0
 10
146.2204760082
 20
92.2307305566
 10
146.2528958216
 20
92.1693453127
 10
146.284104996
 20
92.1047341976
 10
146.3141035311
 20
92.0368972113
 10
146.3430700962
 20
91.9657986148
 10
146.3708260221
 20
91.8914741471
 10
146.3968353019
 20
91.8140310251
 10
146.4211471888
 20
91.7332681805
 10
146.4437124296
 20
91.6493866816
 10
146.4638472573
 20
91.5630969501
 10
146.4815801846
 20
91.4741468522
 10
146.4968826987
 20
91.3827885217
 10
146.5089854946
 20
91.2904887814
 10
146.5176321373
 20
91.1977365723
 10
146.5230790618
 20
91.1040429535
 10
146.5253262682
 20
91.009407925
  0
LWPOLYLINE
  5
2D7
100
AcDbEntity
  8
0
100
AcDbPolyline
 62
7
  6
CONTINUOUS
 90
12
 70
0
 10
146.9154664361
 20
92.4124311234
 10
146.9594761696
 20
92.3247240122
 10
147.0018836296
 20
92.232853761
 10
147.0426888162
 20
92.1368203699
 10
147.0822211863
 20
92.036236409
 10
147.120151283
 20
91.9314893081
 10
147.1554907347
 20
91.8237413569
 10
147.1882409988
 20
91.7127306238
 10
147.2184006181
 20
91.5987190404
 10
147.2449768497
 20
91.4836546905
 10
147.2678384943
 20
91.367453478
 10
147.2871167513
 20
91.2501994991
  0
LWPOLYLINE
  5
2D8
100
AcDbEntity
  8
0
100
AcDbPolyline
 62
7
  6
CONTINUOUS
 90
3
 70
0
 10
145.0193590236
 20
91.1687481939
 10
145.0507858273
 20
91.1036238374
 10
145.0835076578
 20
91.0415746386
  0
LINE
  5
2D9
100
AcDbEntity
  8
0
100
AcDbLine
 62
7
  6
CONTINUOUS
 10
143.9771923012
 20
90.6033612343
 11
142.5710630906
 21
93.6248528617
  0
LINE
  5
2DA
100
AcDbEntity
  8
0
100
AcDbLine
 62
7
  6
CONTINUOUS
 10
144.1893243355
 20
90.7258436123
 11
142.7871590758
 21
93.738817499
  0
LINE
  5
2DB
100
AcDbEntity
  8
0
100
AcDbLine
 62
7
  6
CONTINUOUS
 10
142.1645855859
 20
93.3983466804
 11
143.2466795784
 21
91.025150125
  0
LWPOLYLINE
  5
2DC
100
AcDbEntity
  8
0
100
AcDbPolyline
 62
7
  6
CONTINUOUS
 90
3
 70
0
 10
144.9602210476
 20
91.3082905878
 10
144.9892272465
 20
91.2369477081
 10
145.0193590236
 20
91.1687481939
  0
LINE
  5
2DD
100
AcDbEntity
  8
0
100
AcDbLine
 62
7
  6
CONTINUOUS
 10
140.8220196181
 20
105.1578368304
 11
142.2590154539
 21
99.9036320265
  0
LINE
  5
2DE
100
AcDbEntity
  8
0
100
AcDbLine
 62
7
  6
CONTINUOUS
 10
129.2591981903
 20
139.3997812547
 11
129.2569486735
 21
139.4086709387
  0
LINE
  5
2DF
100
AcDbEntity
  8
0
100
AcDbLine
 62
7
  6
CONTINUOUS
 10
145.3372337059
 20
98.1263073869
 11
144.8204293296
 21
104.8061330188
  0
LINE
  5
2E0
100
AcDbEntity
  8
0
100
AcDbLine
 62
7
  6
CONTINUOUS
 10
145.5493657403
 20
98.2487897649
 11
145.0524000008
 21
104.6721960605
  0
LINE
  5
2E1
100
AcDbEntity
  8
0
100
AcDbLine
 62
7
  6
CONTINUOUS
 10
143.887257511
 20
103.369562824
 11
144.1389238855
 21
98.8181964589
  0
LWPOLYLINE
  5
2E2
100
AcDbEntity
  8
0
100
AcDbPolyline
 62
7
  6
CONTINUOUS
 90
12
 70
0
 10
144.7786516604
 20
92.2628807086
 10
144.7809979942
 20
92.1673571641
 10
144.7865095008
 20
92.0731097566
 10
144.7951861801
 20
91.9801384861
 10
144.8072914695
 20
91.8880401137
 10
144.8225619317
 20
91.7972178783
 10
144.8402072546
 20
91.7088814972
 10
144.860154497
 20
91.6233059828
 10
144.8824766001
 20
91.5402163227
 10
144.9066020755
 20
91.4599971972
 10
144.9325098754
 20
91.3827086252
 10
144.9602210476
 20
91.3082905878
  0
LWPOLYLINE
  5
2E3
100
AcDbEntity
  8
0
100
AcDbPolyline
 62
7
  6
CONTINUOUS
 90
16
 70
0
 10
143.9821726141
 20
92.4781573329
 10
143.9844733851
 20
92.3669077284
 10
143.990941129
 20
92.2544023662
 10
144.001575846
 20
92.1406412464
 10
144.0165550145
 20
92.0249260953
 10
144.0357011559
 20
91.9079551865
 10
144.0584818348
 20
91.7918233409
 10
144.0850537387
 20
91.6765211374
 10
144.11526018
 20
91.5620579972
 10
144.1480986601
 20
91.4505570044
 10
144.1836005181
 20
91.3422599056
 10
144.2217344149
 20
91.2369249542
 10
144.2614038337
 20
91.1359499954
 10
144.3022432687
 20
91.0398009775
 10
144.3446182257
 20
90.9480119521
 10
144.3885287046
 20
90.8605829192
  0
LWPOLYLINE
  5
2E4
100
AcDbEntity
  8
0
100
AcDbPolyline
 62
7
  6
CONTINUOUS
 90
16
 70
0
 10
147.1096732802
 20
90.6723776451
 10
147.1073724205
 20
90.7836323636
 10
147.1009051598
 20
90.896140545
 10
147.0902714979
 20
91.0099021893
 10
147.075293845
 20
91.1256155507
 10
147.056149791
 20
91.242582375
 10
147.0333721053
 20
91.3587078997
 10
147.0068048531
 20
91.4739996432
 10
146.9766039692
 20
91.5884500871
 10
146.9437700273
 20
91.6999419138
 10
146.9082713261
 20
91.8082352224
 10
146.8701395668
 20
91.9135699139
 10
146.830470427
 20
92.0145483734
 10
146.7896291325
 20
92.1107047294
 10
146.7472504574
 20
92.2025048534
 10
146.7033344017
 20
92.2899487454
  0
LWPOLYLINE
  5
2E5
100
AcDbEntity
  8
0
100
AcDbPolyline
 62
7
  6
CONTINUOUS
 90
8
 70
0
 10
144.566519626
 20
92.1403983306
 10
144.5689271853
 20
92.2352575212
 10
144.574547183
 20
92.3247236002
 10
144.5833796191
 20
92.4087965675
 10
144.5957037516
 20
92.487518227
 10
144.6112403226
 20
92.5608467748
 10
144.6291515583
 20
92.6286567998
 10
144.6493880461
 20
92.6907180254
  0
LWPOLYLINE
  5
2E6
100
AcDbEntity
  8
0
100
AcDbPolyline
 62
7
  6
CONTINUOUS
 90
16
 70
0
 10
146.5253262682
 20
91.009407925
 10
146.5229183427
 20
90.9145471623
 10
146.5172980722
 20
90.8250804225
 10
146.5084654568
 20
90.7410077056
 10
146.4961412264
 20
90.6622875555
 10
146.480604651
 20
90.5889614283
 10
146.4626935403
 20
90.5211536917
 10
146.4424573122
 20
90.4590942826
 10
146.4198465489
 20
90.4025532642
 10
146.3955508061
 20
90.3509651935
 10
146.3696256719
 20
90.3042963742
 10
146.3420155581
 20
90.2625805025
 10
146.3132432558
 20
90.2253532253
 10
146.2834830285
 20
90.192459758
 10
146.2525606127
 20
90.1640548851
 10
146.2204760082
 20
90.1401386066
  0
LINE
  5
2E7
100
AcDbEntity
  8
0
100
AcDbLine
 62
7
  6
CONTINUOUS
 10
143.4481085249
 20
105.5984938522
 11
142.3516026016
 21
102.8640492911
  0
LINE
  5
2E8
100
AcDbEntity
  8
0
100
AcDbLine
 62
7
  6
CONTINUOUS
 10
142.430811289
 20
99.8044392644
 11
143.887257511
 21
103.369562824
  0
LINE
  5
2E9
100
AcDbEntity
  8
0
100
AcDbLine
 62
7
  6
CONTINUOUS
 10
142.6429433233
 20
99.9269216424
 11
143.9065817395
 21
103.020085688
  0
LINE
  5
2EA
100
AcDbEntity
  8
0
100
AcDbLine
 62
7
  6
CONTINUOUS
 10
135.3727309074
 20
104.1246511742
 11
135.160598873
 21
104.0021687962
  0
LINE
  5
2EB
100
AcDbEntity
  8
0
100
AcDbLine
 62
7
  6
CONTINUOUS
 10
154.0018133182
 20
96.4065212262
 11
154.068104579
 21
96.4227244623
  0
LINE
  5
2EC
100
AcDbEntity
  8
0
100
AcDbLine
 62
7
  6
CONTINUOUS
 10
153.2345798332
 20
97.5372292212
 11
153.2029551895
 21
97.5305351131
  0
LINE
  5
2ED
100
AcDbEntity
  8
0
100
AcDbLine
 62
7
  6
CONTINUOUS
 10
153.2029551895
 20
97.5305351131
 11
153.1696419749
 21
97.5262227429
  0
LINE
  5
2EE
100
AcDbEntity
  8
0
100
AcDbLine
 62
7
  6
CONTINUOUS
 10
153.4119371261
 20
97.6526097133
 11
153.3817740092
 21
97.6487051209
  0
LINE
  5
2EF
100
AcDbEntity
  8
0
100
AcDbLine
 62
7
  6
CONTINUOUS
 10
153.9413825585
 20
96.3989110127
 11
154.0018133182
 21
96.4065212262
  0
LINE
  5
2F0
100
AcDbEntity
  8
0
100
AcDbLine
 62
7
  6
CONTINUOUS
 10
153.1696419749
 20
97.5262227429
 11
153.1345850349
 21
97.5243370197
  0
LINE
  5
2F1
100
AcDbEntity
  8
0
100
AcDbLine
 62
7
  6
CONTINUOUS
 10
153.3817740092
 20
97.6487051209
 11
153.3467170692
 21
97.6468193977
  0
LINE
  5
2F2
100
AcDbEntity
  8
0
100
AcDbLine
 62
7
  6
CONTINUOUS
 10
153.9246220065
 20
96.3982550976
 11
153.9413825585
 21
96.3989110127
  0
LINE
  5
2F3
100
AcDbEntity
  8
0
100
AcDbLine
 62
7
  6
CONTINUOUS
 10
153.1345850349
 20
97.5243370197
 11
153.0977285081
 21
97.5249322419
  0
LINE
  5
2F4
100
AcDbEntity
  8
0
100
AcDbLine
 62
7
  6
CONTINUOUS
 10
153.3467170692
 20
97.6468193977
 11
153.3098605425
 21
97.6474146199
  0
LINE
  5
2F5
100
AcDbEntity
  8
0
100
AcDbLine
 62
7
  6
CONTINUOUS
 10
153.8847616901
 20
96.4004703644
 11
153.9246220065
 21
96.3982550976
  0
LINE
  5
2F6
100
AcDbEntity
  8
0
100
AcDbLine
 62
7
  6
CONTINUOUS
 10
153.0977285081
 20
97.5249322419
 11
153.0590129976
 21
97.5280720974
  0
LINE
  5
2F7
100
AcDbEntity
  8
0
100
AcDbLine
 62
7
  6
CONTINUOUS
 10
153.3098605425
 20
97.6474146199
 11
153.271145032
 21
97.6505544754
  0
LINE
  5
2F8
100
AcDbEntity
  8
0
100
AcDbLine
 62
7
  6
CONTINUOUS
 10
153.0590129976
 20
97.5280720974
 11
153.0183791065
 21
97.5338308884
  0
LINE
  5
2F9
100
AcDbEntity
  8
0
100
AcDbLine
 62
7
  6
CONTINUOUS
 10
153.271145032
 20
97.6505544754
 11
153.2305111408
 21
97.6563132664
  0
LINE
  5
2FA
100
AcDbEntity
  8
0
100
AcDbLine
 62
7
  6
CONTINUOUS
 10
153.0183791065
 20
97.5338308884
 11
152.9757688518
 21
97.5422878156
  0
LINE
  5
2FB
100
AcDbEntity
  8
0
100
AcDbLine
 62
7
  6
CONTINUOUS
 10
153.2305111408
 20
97.6563132664
 11
153.1879008862
 21
97.6647701936
  0
LINE
  5
2FC
100
AcDbEntity
  8
0
100
AcDbLine
 62
7
  6
CONTINUOUS
 10
152.9757688518
 20
97.5422878156
 11
152.9311256652
 21
97.5535277953
  0
LINE
  5
2FD
100
AcDbEntity
  8
0
100
AcDbLine
 62
7
  6
CONTINUOUS
 10
153.1879008862
 20
97.6647701936
 11
153.1432576995
 21
97.6760101733
  0
LINE
  5
2FE
100
AcDbEntity
  8
0
100
AcDbLine
 62
7
  6
CONTINUOUS
 10
153.8646805646
 20
96.4056115735
 11
153.8847616901
 21
96.4004703644
  0
LINE
  5
2FF
100
AcDbEntity
  8
0
100
AcDbLine
 62
7
  6
CONTINUOUS
 10
152.9311256652
 20
97.5535277953
 11
152.8843972207
 21
97.5676430914
  0
LINE
  5
300
100
AcDbEntity
  8
0
100
AcDbLine
 62
7
  6
CONTINUOUS
 10
153.1432576995
 20
97.6760101733
 11
153.096529255
 21
97.6901254694
  0
LINE
  5
301
100
AcDbEntity
  8
0
100
AcDbLine
 62
7
  6
CONTINUOUS
 10
152.8843972207
 20
97.5676430914
 11
152.8355361421
 21
97.5847255594
  0
LINE
  5
302
100
AcDbEntity
  8
0
100
AcDbLine
 62
7
  6
CONTINUOUS
 10
153.096529255
 20
97.6901254694
 11
153.0476681764
 21
97.7072079374
  0
LINE
  5
303
100
AcDbEntity
  8
0
100
AcDbLine
 62
7
  6
CONTINUOUS
 10
152.8355361421
 20
97.5847255594
 11
152.7845035386
 21
97.6048703204
  0
LINE
  5
304
100
AcDbEntity
  8
0
100
AcDbLine
 62
7
  6
CONTINUOUS
 10
153.0476681764
 20
97.7072079374
 11
152.9966355729
 21
97.7273526984
  0
LINE
  5
305
100
AcDbEntity
  8
0
100
AcDbLine
 62
7
  6
CONTINUOUS
 10
152.7845035386
 20
97.6048703204
 11
152.7312668832
 21
97.6281712702
  0
LINE
  5
306
100
AcDbEntity
  8
0
100
AcDbLine
 62
7
  6
CONTINUOUS
 10
152.9966355729
 20
97.7273526984
 11
152.9433989176
 21
97.7506536482
  0
LINE
  5
307
100
AcDbEntity
  8
0
100
AcDbLine
 62
7
  6
CONTINUOUS
 10
152.7312668832
 20
97.6281712702
 11
152.6758106197
 21
97.654717405
  0
LINE
  5
308
100
AcDbEntity
  8
0
100
AcDbLine
 62
7
  6
CONTINUOUS
 10
152.9433989176
 20
97.7506536482
 11
152.8879426541
 21
97.777199783
  0
LINE
  5
309
100
AcDbEntity
  8
0
100
AcDbLine
 62
7
  6
CONTINUOUS
 10
152.6758106197
 20
97.654717405
 11
152.6181305054
 21
97.684592005
  0
LINE
  5
30A
100
AcDbEntity
  8
0
100
AcDbLine
 62
7
  6
CONTINUOUS
 10
152.8879426541
 20
97.777199783
 11
152.8302625397
 21
97.807074383
  0
LWPOLYLINE
  5
30B
100
AcDbEntity
  8
0
100
AcDbPolyline
 62
7
  6
CONTINUOUS
 90
22
 70
0
 10
193.2556400747
 20
74.1938226871
 10
193.2246350872
 20
74.2105025776
 10
193.1916683136
 20
74.2258772614
 10
193.1569042059
 20
74.2398700399
 10
193.1205161781
 20
74.2524111094
 10
193.082685754
 20
74.2634379051
 10
193.0436016639
 20
74.2728954153
 10
193.0034588844
 20
74.2807364602
 10
192.9624576629
 20
74.286921925
 10
192.9208025327
 20
74.2914209531
 10
192.878701291
 20
74.2942111002
 10
192.8363639604
 20
74.2952784471
 10
192.7940017402
 20
74.2946176684
 10
192.7518259551
 20
74.2922320595
 10
192.7100470002
 20
74.2881335204
 10
192.6688732902
 20
74.2823424955
 10
192.6285102836
 20
74.2748878856
 10
192.5891592678
 20
74.2658068694
 10
192.5510163708
 20
74.2551446931
 10
192.5142718335
 20
74.2429545025
 10
192.4791090432
 20
74.2292971035
 10
192.4457034402
 20
74.2142406075
  0
LINE
  5
30C
100
AcDbEntity
  8
0
100
AcDbLine
 62
7
  6
CONTINUOUS
 10
152.6181305054
 20
97.684592005
 11
152.5948617425
 21
97.6972571656
  0
LINE
  5
30D
100
AcDbEntity
  8
0
100
AcDbLine
 62
7
  6
CONTINUOUS
 10
152.8302625397
 20
97.807074383
 11
152.8069937769
 21
97.8197395436
  0
LINE
  5
30E
100
AcDbEntity
  8
0
100
AcDbLine
 62
7
  6
CONTINUOUS
 10
134.0811254182
 20
104.62544324
 11
135.160598873
 21
104.0021687962
  0
LINE
  5
30F
100
AcDbEntity
  8
0
100
AcDbLine
 62
7
  6
CONTINUOUS
 10
137.5014638513
 20
102.6505826957
 11
138.7263969492
 21
101.943321677
  0
LINE
  5
310
100
AcDbEntity
  8
0
100
AcDbLine
 62
7
  6
CONTINUOUS
 10
139.3858178633
 20
101.5625803057
 11
140.5576797688
 21
100.8859619283
  0
LINE
  5
311
100
AcDbEntity
  8
0
100
AcDbLine
 62
7
  6
CONTINUOUS
 10
142.2590154539
 20
99.9036320265
 11
142.430811289
 21
99.8044392644
  0
LINE
  5
312
100
AcDbEntity
  8
0
100
AcDbLine
 62
7
  6
CONTINUOUS
 10
144.1389238855
 20
98.8181964589
 11
145.3372337059
 21
98.1263073869
  0
LINE
  5
313
100
AcDbEntity
  8
0
100
AcDbLine
 62
7
  6
CONTINUOUS
 10
145.5295808925
 20
98.015248532
 11
146.7412246256
 21
97.315660626
  0
LINE
  5
314
100
AcDbEntity
  8
0
100
AcDbLine
 62
7
  6
CONTINUOUS
 10
149.0647082121
 20
95.9741103233
 11
150.3557374092
 21
95.2286862452
  0
LINE
  5
315
100
AcDbEntity
  8
0
100
AcDbLine
 62
7
  6
CONTINUOUS
 10
150.7154369719
 20
95.0210002258
 11
151.9354415355
 21
94.316584881
  0
LINE
  5
316
100
AcDbEntity
  8
0
100
AcDbLine
 62
7
  6
CONTINUOUS
 10
153.8112579402
 20
93.2335119985
 11
154.9895014844
 21
92.5532089429
  0
LINE
  5
317
100
AcDbEntity
  8
0
100
AcDbLine
 62
7
  6
CONTINUOUS
 10
147.0792301522
 20
98.4732006657
 11
148.7473848516
 21
97.5100290492
  0
LINE
  5
318
100
AcDbEntity
  8
0
100
AcDbLine
 62
7
  6
CONTINUOUS
 10
148.5025837769
 20
98.6980882001
 11
147.3297969757
 21
99.3752406006
  0
LINE
  5
319
100
AcDbEntity
  8
0
100
AcDbLine
 62
7
  6
CONTINUOUS
 10
148.4477504544
 20
98.9747130292
 11
147.54192901
 21
99.4977229786
  0
LINE
  5
31A
100
AcDbEntity
  8
0
100
AcDbLine
 62
7
  6
CONTINUOUS
 10
151.9354415355
 20
96.9682778554
 11
152.5922214058
 21
96.5890613897
  0
LINE
  5
31B
100
AcDbEntity
  8
0
100
AcDbLine
 62
7
  6
CONTINUOUS
 10
193.582072599
 20
73.5319067072
 11
195.0908487542
 21
72.6607582646
  0
LINE
  5
31C
100
AcDbEntity
  8
0
100
AcDbLine
 62
7
  6
CONTINUOUS
 10
193.2556400747
 20
74.1938255246
 11
194.800933078
 21
73.301589874
  0
LINE
  5
31D
100
AcDbEntity
  8
0
100
AcDbLine
 62
7
  6
CONTINUOUS
 10
152.5948617425
 20
97.6972571656
 11
151.8948246149
 21
98.1014498295
  0
LINE
  5
31E
100
AcDbEntity
  8
0
100
AcDbLine
 62
7
  6
CONTINUOUS
 10
152.8069937769
 20
97.8197395436
 11
152.1069566493
 21
98.2239322075
  0
LINE
  5
31F
100
AcDbEntity
  8
0
100
AcDbLine
 62
7
  6
CONTINUOUS
 10
152.5922214058
 20
96.5890613897
 11
152.609089438
 21
96.5791137994
  0
LWPOLYLINE
  5
320
100
AcDbEntity
  8
0
100
AcDbPolyline
 62
7
  6
CONTINUOUS
 90
36
 70
0
 10
195.0908618522
 20
72.6607528504
 10
195.1076519744
 20
72.6506380684
 10
195.1262446141
 20
72.6385460677
 10
195.1472242679
 20
72.6239009154
 10
195.1703088398
 20
72.6066588131
 10
195.195298566
 20
72.5867396691
 10
195.2220080726
 20
72.5640696394
 10
195.2501752796
 20
72.5386617686
 10
195.2795873642
 20
72.5105042892
 10
195.3100262728
 20
72.4796046769
 10
195.3412296813
 20
72.4460423335
 10
195.3729975272
 20
72.4098594811
 10
195.4050819574
 20
72.3711645184
 10
195.4371632691
 20
72.3301826603
 10
195.4690492933
 20
72.2870212648
 10
195.5004953332
 20
72.241889467
 10
195.5311273944
 20
72.1952246083
 10
195.5607514391
 20
72.1472570661
 10
195.5891944529
 20
72.0982281883
 10
195.6161653139
 20
72.0486437104
 10
195.6415346743
 20
71.998771763
 10
195.6651907894
 20
71.9488921119
 10
195.6869358322
 20
71.8995490026
 10
195.7067105956
 20
71.8510623488
 10
195.7245082322
 20
71.8036557029
 10
195.7402814023
 20
71.757727498
 10
195.7540604324
 20
71.7135453298
 10
195.7659049265
 20
71.6713182877
 10
195.7758633319
 20
71.6313439826
 10
195.7840344018
 20
71.593818249
 10
195.7905366773
 20
71.5589230599
 10
195.7954896112
 20
71.5269137796
 10
195.7990504628
 20
71.4979088122
 10
195.8013887181
 20
71.4720339917
 10
195.8026849906
 20
71.4495152007
 10
195.8031481128
 20
71.4304512368
  0
LWPOLYLINE
  5
321
100
AcDbEntity
  8
0
100
AcDbPolyline
 62
7
  6
CONTINUOUS
 90
14
 70
0
 10
196.2132085099
 20
70.8554570744
 10
196.1525991813
 20
70.8927393108
 10
196.0961934828
 20
70.9321596309
 10
196.0442171519
 20
70.9735603101
 10
195.9968781693
 20
71.0167757325
 10
195.9543660397
 20
71.0616329516
 10
195.9168509953
 20
71.1079523704
 10
195.8844831785
 20
71.1555486027
 10
195.85739208
 20
71.2042312264
 10
195.8356861071
 20
71.2538054364
 10
195.8194521182
 20
71.3040728599
 10
195.8087550753
 20
71.3548323502
 10
195.8036377841
 20
71.405880791
 10
195.8031580035
 20
71.4270415107
  0
LINE
  5
322
100
AcDbEntity
  8
0
100
AcDbLine
 62
7
  6
CONTINUOUS
 10
152.609089438
 20
96.5791137994
 11
152.6645053965
 21
96.5432439845
  0
LWPOLYLINE
  5
323
100
AcDbEntity
  8
0
100
AcDbPolyline
 62
7
  6
CONTINUOUS
 90
25
 70
0
 10
194.3110318644
 20
64.46203854
 10
194.2858267578
 20
64.4805009799
 10
194.2606344245
 20
64.500912959
 10
194.235562116
 20
64.5231875775
 10
194.2107165726
 20
64.5472300056
 10
194.1862035697
 20
64.5729378877
 10
194.1621274671
 20
64.6002017789
 10
194.1385907646
 20
64.6289056088
 10
194.1156936651
 20
64.6589271766
 10
194.0935336479
 20
64.6901386724
 10
194.0722050553
 20
64.7224072196
 10
194.05179869
 20
64.7555954413
 10
194.0324014281
 20
64.7895620461
 10
194.0140958501
 20
64.8241624279
 10
193.9969598889
 20
64.8592492823
 10
193.9810664981
 20
64.8946732344
 10
193.9664833411
 20
64.9302834734
 10
193.9532725039
 20
64.9659283952
 10
193.9414902295
 20
65.0014562487
 10
193.9311866944
 20
65.0367157261
 10
193.9224057453
 20
65.0715567719
 10
193.9151847363
 20
65.1058312144
 10
193.9095544249
 20
65.1393931776
 10
193.9055388172
 20
65.1720997098
 10
193.9031550328
 20
65.2038115513
  0
LWPOLYLINE
  5
324
100
AcDbEntity
  8
0
100
AcDbPolyline
 62
7
  6
CONTINUOUS
 90
22
 70
0
 10
195.160492097
 20
64.9208580414
 10
195.1316847151
 20
64.9421191177
 10
195.1029140464
 20
64.9659107074
 10
195.0743400555
 20
64.9921005296
 10
195.0461216135
 20
65.020542969
 10
195.0184156146
 20
65.0510798861
 10
194.9913761038
 20
65.0835414961
 10
194.9651534203
 20
65.1177473128
 10
194.939893362
 20
65.1535071524
 10
194.9157363745
 20
65.1906221907
 10
194.8928167704
 20
65.2288860685
 10
194.8712619825
 20
65.268086039
 10
194.8511918553
 20
65.3080041507
 10
194.8327179786
 20
65.3484184591
 10
194.8159430667
 20
65.3891042613
 10
194.8009603881
 20
65.4298353447
 10
194.7878532463
 20
65.4703852448
 10
194.7766945168
 20
65.5105285048
 10
194.7675462421
 20
65.5500419285
 10
194.7604592863
 20
65.5887058219
 10
194.755473053
 20
65.6263052139
 10
194.7526152655
 20
65.6626310526
  0
LINE
  5
325
100
AcDbEntity
  8
0
100
AcDbLine
 62
7
  6
CONTINUOUS
 10
152.6645053965
 20
96.5432439845
 11
152.7229513075
 21
96.4999314658
  0
LINE
  5
326
100
AcDbEntity
  8
0
100
AcDbLine
 62
7
  6
CONTINUOUS
 10
152.7229513075
 20
96.4999314658
 11
152.7814396449
 21
96.4506823893
  0
LINE
  5
327
100
AcDbEntity
  8
0
100
AcDbLine
 62
7
  6
CONTINUOUS
 10
152.7814396449
 20
96.4506823893
 11
152.8386495332
 21
96.3963100331
  0
LINE
  5
328
100
AcDbEntity
  8
0
100
AcDbLine
 62
7
  6
CONTINUOUS
 10
152.8386495332
 20
96.3963100331
 11
152.8939268988
 21
96.3372785972
  0
LINE
  5
329
100
AcDbEntity
  8
0
100
AcDbLine
 62
7
  6
CONTINUOUS
 10
149.7480441846
 20
88.3741370219
 11
148.2485549586
 21
91.8917175247
  0
LINE
  5
32A
100
AcDbEntity
  8
0
100
AcDbLine
 62
7
  6
CONTINUOUS
 10
149.7480468302
 20
88.9942436501
 11
148.460686993
 21
92.0141999027
  0
LINE
  5
32B
100
AcDbEntity
  8
0
100
AcDbLine
 62
7
  6
CONTINUOUS
 10
148.2480578626
 20
90.7602656981
 11
149.726823203
 21
87.2835964114
  0
LINE
  5
32C
100
AcDbEntity
  8
0
100
AcDbLine
 62
7
  6
CONTINUOUS
 10
132.5172323581
 20
136.7041671507
 11
132.5162672316
 21
136.7066845937
  0
LINE
  5
32D
100
AcDbEntity
  8
0
100
AcDbLine
 62
7
  6
CONTINUOUS
 10
142.3516026016
 20
102.8640492911
 11
141.2666768841
 21
106.8580251418
  0
LINE
  5
32E
100
AcDbEntity
  8
0
100
AcDbLine
 62
7
  6
CONTINUOUS
 10
142.4979013359
 20
103.2288861513
 11
141.5577292909
 21
106.6899751299
  0
LWPOLYLINE
  5
32F
100
AcDbEntity
  8
0
100
AcDbPolyline
 62
7
  6
CONTINUOUS
 90
5
 70
0
 10
147.2871167513
 20
91.2501994991
 10
147.3022124763
 20
91.1340931269
 10
147.3129259544
 20
91.019867819
 10
147.3194569005
 20
90.9067901177
 10
147.3218053145
 20
90.7948600231
  0
LWPOLYLINE
  5
330
100
AcDbEntity
  8
0
100
AcDbPolyline
 62
7
  6
CONTINUOUS
 90
14
 70
0
 10
150.215438587
 20
131.7851537051
 10
150.2174192042
 20
131.7140269728
 10
150.2233531523
 20
131.6454718557
 10
150.2332167153
 20
131.579762695
 10
150.2469704654
 20
131.5171623991
 10
150.2645593884
 20
131.4579215408
 10
150.2859130746
 20
131.4022773266
 10
150.3109460561
 20
131.350452459
 10
150.3395581789
 20
131.3026542726
 10
150.3716349511
 20
131.2590740349
 10
150.4070480171
 20
131.2198861344
 10
150.4456556711
 20
131.185247384
 10
150.4873034233
 20
131.155296393
 10
150.5052533116
 20
131.1443804006
  0
LINE
  5
331
100
AcDbEntity
  8
0
100
AcDbLine
 62
7
  6
CONTINUOUS
 10
147.6811406576
 20
92.2193354307
 11
147.6811406576
 21
88.4647478747
  0
LINE
  5
332
100
AcDbEntity
  8
0
100
AcDbLine
 62
7
  6
CONTINUOUS
 10
148.8031606977
 20
127.1852372363
 11
148.8031631551
 21
130.9698811742
  0
LINE
  5
333
100
AcDbEntity
  8
0
100
AcDbLine
 62
7
  6
CONTINUOUS
 10
149.7480554983
 20
91.0259247062
 11
149.7480441846
 21
88.3741370219
  0
LINE
  5
334
100
AcDbEntity
  8
0
100
AcDbLine
 62
7
  6
CONTINUOUS
 10
150.3071011906
 20
86.948551174
 11
150.3071011906
 21
90.70313873
  0
LINE
  5
335
100
AcDbEntity
  8
0
100
AcDbLine
 62
7
  6
CONTINUOUS
 10
150.5192332249
 20
87.071033552
 11
150.5192332249
 21
90.825621108
  0
LINE
  5
336
100
AcDbEntity
  8
0
100
AcDbLine
 62
7
  6
CONTINUOUS
 10
150.7154369719
 20
101.4024294879
 11
150.7154369719
 21
95.0210002258
  0
LINE
  5
337
100
AcDbEntity
  8
0
100
AcDbLine
 62
7
  6
CONTINUOUS
 10
150.7299027499
 20
127.2914960765
 11
150.7298954977
 21
130.9407408545
  0
LINE
  5
338
100
AcDbEntity
  8
0
100
AcDbLine
 62
7
  6
CONTINUOUS
 10
151.551953315
 20
127.7977734871
 11
151.551953315
 21
130.5400289201
  0
LINE
  5
339
100
AcDbEntity
  8
0
100
AcDbLine
 62
7
  6
CONTINUOUS
 10
151.8948246149
 20
98.1014498295
 11
151.8948246149
 21
99.9615528259
  0
LINE
  5
33A
100
AcDbEntity
  8
0
100
AcDbLine
 62
7
  6
CONTINUOUS
 10
151.9354415355
 20
94.316584881
 11
151.9354415355
 21
96.9682778554
  0
LINE
  5
33B
100
AcDbEntity
  8
0
100
AcDbLine
 62
7
  6
CONTINUOUS
 10
148.2401785717
 20
88.1419663895
 11
148.2480578626
 21
90.7602656981
  0
LINE
  5
33C
100
AcDbEntity
  8
0
100
AcDbLine
 62
7
  6
CONTINUOUS
 10
148.452310606
 20
88.2644487675
 11
148.458333589
 21
90.2658943871
  0
LWPOLYLINE
  5
33D
100
AcDbEntity
  8
0
100
AcDbPolyline
 62
7
  6
CONTINUOUS
 90
16
 70
0
 10
147.3218053145
 20
90.7948600231
 10
147.3195116023
 20
90.6876089114
 10
147.3130524027
 20
90.5835015503
 10
147.3024277159
 20
90.4825379398
 10
147.2874331453
 20
90.3840753386
 10
147.2682730874
 20
90.288756488
 10
147.2455607316
 20
90.1985096112
 10
147.2191892955
 20
90.1136317246
 10
147.1892655616
 20
90.0338258119
 10
147.1567230666
 20
89.9601290473
 10
147.1216090916
 20
89.8929534306
 10
147.0838763555
 20
89.8318869621
 10
147.0443165526
 20
89.7767308172
 10
147.0031935807
 20
89.7274187209
 10
146.9602435418
 20
89.6840169482
 10
146.9154664361
 20
89.646525499
  0
LWPOLYLINE
  5
33E
100
AcDbEntity
  8
0
100
AcDbPolyline
 62
7
  6
CONTINUOUS
 90
28
 70
0
 10
148.8031631551
 20
130.9698811742
 10
148.8053283591
 20
131.0616915945
 10
148.8122218069
 20
131.1504964768
 10
148.8238434987
 20
131.2362958209
 10
148.8402352394
 20
131.319545336
 10
148.8613552239
 20
131.3997893129
 10
148.8870780374
 20
131.4756606248
 10
148.9175244497
 20
131.5470207416
 10
148.9525736908
 20
131.6140081933
 10
148.9917380356
 20
131.6756714425
 10
149.0350438707
 20
131.7318376146
 10
149.0824648094
 20
131.7826795843
 10
149.1334339669
 20
131.8277644374
 10
149.187890763
 20
131.8670139553
 10
149.2458957779
 20
131.9005063567
 10
149.3070638677
 20
131.9280433838
 10
149.3714550309
 20
131.9496431786
 10
149.439009269
 20
131.965287599
 10
149.5091614414
 20
131.9747239617
 10
149.5820901944
 20
131.9778572247
 10
149.6576168818
 20
131.9747824299
 10
149.7346404246
 20
131.965532019
 10
149.8131854595
 20
131.9499409836
 10
149.8932273499
 20
131.9281743321
 10
149.9735911067
 20
131.9007595317
 10
150.053885067
 20
131.867872405
 10
150.1345008938
 20
131.8293371295
 10
150.215438587
 20
131.7851537051
  0
LWPOLYLINE
  5
33F
100
AcDbEntity
  8
0
100
AcDbPolyline
 62
7
  6
CONTINUOUS
 90
22
 70
0
 10
148.8031631551
 20
127.1852358175
 10
148.8021049322
 20
127.1500463817
 10
148.7989355488
 20
127.1138104654
 10
148.7936708125
 20
127.07670883
 10
148.7863369826
 20
127.0389265512
 10
148.7769706416
 20
127.0006521102
 10
148.765618514
 20
126.9620764535
 10
148.7523372314
 20
126.9233920217
 10
148.7371930457
 20
126.8847917874
 10
148.7202615029
 20
126.8464683069
 10
148.7016270654
 20
126.8086127577
 10
148.6813826909
 20
126.7714139832
 10
148.6596293674
 20
126.7350575494
 10
148.636475611
 20
126.6997248214
 10
148.6120369242
 20
126.6655920581
 10
148.5864352187
 20
126.6328295315
 10
148.5597982508
 20
126.6016007265
 10
148.5322588598
 20
126.5720613771
 10
148.5039542918
 20
126.5443587164
 10
148.47502569
 20
126.5186309301
 10
148.445617404
 20
126.4950064392
 10
148.4158761364
 20
126.4736031302
  0
LWPOLYLINE
  5
340
100
AcDbEntity
  8
0
100
AcDbPolyline
 62
7
  6
CONTINUOUS
 90
22
 70
0
 10
152.3776957475
 20
127.785288738
 10
152.3766357494
 20
127.7500692574
 10
152.3734610657
 20
127.7138018261
 10
152.3681875806
 20
127.6766676764
 10
152.3608416129
 20
127.6388521296
 10
152.351459916
 20
127.60054438
 10
152.3400896206
 20
127.5619365758
 10
152.3267879212
 20
127.5232223223
 10
152.3116212178
 20
127.4845943635
 10
152.2946647932
 20
127.4462443646
 10
152.2760023771
 20
127.4083621597
 10
152.2557279205
 20
127.371138879
 10
152.2339450995
 20
127.3347644162
 10
152.2107646852
 20
127.2994224554
 10
152.1863014816
 20
127.2652868212
 10
152.1606757756
 20
127.2325248819
 10
152.1340008602
 20
127.201283708
 10
152.106423678
 20
127.1717375381
 10
152.078126245
 20
127.1440751585
 10
152.0492677829
 20
127.1184382135
 10
152.01997969
 20
127.0949297531
 10
151.9904087287
 20
127.0736560508
  0
LINE
  5
341
100
AcDbEntity
  8
0
100
AcDbLine
 62
7
  6
CONTINUOUS
 10
147.3297969757
 20
99.3752406006
 11
147.9397105156
 21
101.5376885157
  0
LINE
  5
342
100
AcDbEntity
  8
0
100
AcDbLine
 62
7
  6
CONTINUOUS
 10
147.54192901
 20
99.4977229786
 11
148.0130059041
 21
101.1679256888
  0
LINE
  5
343
100
AcDbEntity
  8
0
100
AcDbLine
 62
7
  6
CONTINUOUS
 10
146.7412246256
 20
97.315660626
 11
147.0792301522
 21
98.4732006657
  0
LINE
  5
344
100
AcDbEntity
  8
0
100
AcDbLine
 62
7
  6
CONTINUOUS
 10
146.9533566599
 20
97.438143004
 11
147.2301516969
 21
98.3860604573
  0
LINE
  5
345
100
AcDbEntity
  8
0
100
AcDbLine
 62
7
  6
CONTINUOUS
 10
147.2630939873
 20
103.3957690592
 11
145.5295808925
 21
98.015248532
  0
LWPOLYLINE
  5
346
100
AcDbEntity
  8
0
100
AcDbPolyline
 62
7
  6
CONTINUOUS
 90
9
 70
0
 10
144.6493880461
 20
92.6907180254
 10
144.6719991985
 20
92.7472607281
 10
144.6962954797
 20
92.798850326
 10
144.7222213472
 20
92.8455204527
 10
144.7498323433
 20
92.8872374747
 10
144.7786055599
 20
92.9244659097
 10
144.808366694
 20
92.9573605969
 10
144.8392900485
 20
92.9857666972
 10
144.8713756234
 20
93.0096842105
  0
LWPOLYLINE
  5
347
100
AcDbEntity
  8
0
100
AcDbPolyline
 62
7
  6
CONTINUOUS
 90
11
 70
0
 10
144.9335430488
 20
92.966640618
 10
144.9076401318
 20
92.9197991884
 10
144.883432744
 20
92.8681485169
 10
144.8609637185
 20
92.8116404835
 10
144.8408729547
 20
92.7497507962
 10
144.8231107902
 20
92.6823590854
 10
144.8077268875
 20
92.6095857208
 10
144.7955101345
 20
92.5312675192
 10
144.7867234935
 20
92.4473500861
 10
144.7811040022
 20
92.3578878159
 10
144.7786516604
 20
92.2628807086
  0
LINE
  5
348
100
AcDbEntity
  8
0
100
AcDbLine
 62
7
  6
CONTINUOUS
 10
138.9385289835
 20
102.065804055
 11
138.7263969492
 21
101.943321677
  0
LINE
  5
349
100
AcDbEntity
  8
0
100
AcDbLine
 62
7
  6
CONTINUOUS
 10
140.7698118031
 20
101.0084443063
 11
140.5576797688
 21
100.8859619283
  0
LINE
  5
34A
100
AcDbEntity
  8
0
100
AcDbLine
 62
7
  6
CONTINUOUS
 10
137.0998137646
 20
98.5738257196
 11
136.8876817302
 21
98.4513433416
  0
LINE
  5
34B
100
AcDbEntity
  8
0
100
AcDbLine
 62
7
  6
CONTINUOUS
 10
142.6429433233
 20
99.9269216424
 11
142.430811289
 21
99.8044392644
  0
LINE
  5
34C
100
AcDbEntity
  8
0
100
AcDbLine
 62
7
  6
CONTINUOUS
 10
137.6805188447
 20
96.7090523618
 11
137.4683868103
 21
96.5865699838
  0
LINE
  5
34D
100
AcDbEntity
  8
0
100
AcDbLine
 62
7
  6
CONTINUOUS
 10
139.3979185816
 20
97.2469288002
 11
139.1857865473
 21
97.1244464222
  0
LINE
  5
34E
100
AcDbEntity
  8
0
100
AcDbLine
 62
7
  6
CONTINUOUS
 10
178.6817014191
 20
111.0477816217
 11
178.6990789041
 21
111.0518233817
  0
LINE
  5
34F
100
AcDbEntity
  8
0
100
AcDbLine
 62
7
  6
CONTINUOUS
 10
151.8948246149
 20
99.9615528259
 11
151.9806390939
 21
99.9281103139
  0
LINE
  5
350
100
AcDbEntity
  8
0
100
AcDbLine
 62
7
  6
CONTINUOUS
 10
151.9806390939
 20
99.9281103139
 11
152.0721189124
 21
99.8904806262
  0
LINE
  5
351
100
AcDbEntity
  8
0
100
AcDbLine
 62
7
  6
CONTINUOUS
 10
152.0721189124
 20
99.8904806262
 11
152.1574596298
 21
99.8532293069
  0
LINE
  5
352
100
AcDbEntity
  8
0
100
AcDbLine
 62
7
  6
CONTINUOUS
 10
152.1574596298
 20
99.8532293069
 11
152.2382684999
 21
99.8157818793
  0
LINE
  5
353
100
AcDbEntity
  8
0
100
AcDbLine
 62
7
  6
CONTINUOUS
 10
152.2382684999
 20
99.8157818793
 11
152.3158762975
 21
99.7776157282
  0
LINE
  5
354
100
AcDbEntity
  8
0
100
AcDbLine
 62
7
  6
CONTINUOUS
 10
152.3158762975
 20
99.7776157282
 11
152.3914419708
 21
99.7382266186
  0
LINE
  5
355
100
AcDbEntity
  8
0
100
AcDbLine
 62
7
  6
CONTINUOUS
 10
152.3914419708
 20
99.7382266186
 11
152.4660311296
 21
99.6970890924
  0
LWPOLYLINE
  5
356
100
AcDbEntity
  8
0
100
AcDbPolyline
 62
7
  6
CONTINUOUS
 90
34
 70
0
 10
173.7465107411
 20
90.2550471062
 10
173.8570117322
 20
90.1940515546
 10
173.9721516433
 20
90.1359847296
 10
174.091697914
 20
90.0809641724
 10
174.2154098313
 20
90.0291009648
 10
174.3430367372
 20
89.9805004741
 10
174.474318299
 20
89.9352619355
 10
174.6089876957
 20
89.8934771939
 10
174.7467739055
 20
89.8552302438
 10
174.8873999235
 20
89.8205980219
 10
175.0305824711
 20
89.7896504532
 10
175.1760311536
 20
89.7624504624
 10
175.323450575
 20
89.739053347
 10
175.4725418162
 20
89.7195065138
 10
175.6230042301
 20
89.7038493451
 10
175.7745347332
 20
89.692113425
 10
175.9268287369
 20
89.6843225043
 10
176.0795765286
 20
89.6804925869
 10
176.2324650167
 20
89.6806314484
 10
176.3851848959
 20
89.6847385624
 10
176.5374275481
 20
89.6928053837
 10
176.6888814913
 20
89.7048150212
 10
176.8392382276
 20
89.7207423789
 10
176.9881964453
 20
89.7405549009
 10
177.1354587927
 20
89.7642126397
 10
177.2807365884
 20
89.7916693441
 10
177.4237272087
 20
89.8228679475
 10
177.5641195249
 20
89.8577392871
 10
177.7016400918
 20
89.8962135215
 10
177.8360036067
 20
89.9382088703
 10
177.9668948784
 20
89.9836219918
 10
178.0940407668
 20
90.0323499036
 10
178.217206827
 20
90.0842943086
 10
178.3361516701
 20
90.1393455572
  0
LWPOLYLINE
  5
357
100
AcDbEntity
  8
0
100
AcDbPolyline
 62
7
  6
CONTINUOUS
 90
49
 70
0
 10
106.763405847
 20
127.9295592448
 10
106.6438004283
 20
127.9961613695
 10
106.5261024645
 20
128.0575652962
 10
106.4103119554
 20
128.1137710249
 10
106.2964610259
 20
128.1646575609
 10
106.1845175512
 20
128.2103458988
 10
106.0743851567
 20
128.2511990231
 10
105.9660827024
 20
128.2872572917
 10
105.8595913281
 20
128.3184803468
 10
105.7547580795
 20
128.3451100994
 10
105.6515806741
 20
128.3672001855
 10
105.5500613944
 20
128.3846969692
 10
105.4500541331
 20
128.3976814538
 10
105.3514711466
 20
128.4062006118
 10
105.2544001787
 20
128.4102074707
 10
105.1589583533
 20
128.4096421166
 10
105.065046429
 20
128.4044906985
 10
104.9727636473
 20
128.3947670675
 10
104.8825248573
 20
128.3804528626
 10
104.7943744438
 20
128.3615234292
 10
104.7082680219
 20
128.3380034219
 10
104.6244872862
 20
128.3099484428
 10
104.5430527233
 20
128.2773466793
 10
104.4639438466
 20
128.2402099441
 10
104.3873808896
 20
128.198629277
 10
104.3133349517
 20
128.1525506431
 10
104.2418349335
 20
128.1020280774
 10
104.1731877707
 20
128.0473147249
 10
104.1074306131
 20
127.9883834779
 10
104.0445263108
 20
127.9252614443
 10
103.9846703502
 20
127.8582830925
 10
103.9279082953
 20
127.7874663285
 10
103.8741945821
 20
127.7127932464
 10
103.8235880049
 20
127.6345445971
 10
103.7761222168
 20
127.5528045196
 10
103.7317635647
 20
127.4674888748
 10
103.6904698833
 20
127.3786259962
 10
103.652225274
 20
127.2863019807
 10
103.6170456352
 20
127.1904307313
 10
103.5849364977
 20
127.0907822899
 10
103.555847628
 20
126.9873863773
 10
103.5298292595
 20
126.8802132727
 10
103.5070376224
 20
126.7689438562
 10
103.4874237154
 20
126.6535828537
 10
103.4710365398
 20
126.5341255393
 10
103.4581793296
 20
126.4102386152
 10
103.4489531627
 20
126.2818109821
 10
103.4432569612
 20
126.1489537393
 10
103.4410907251
 20
126.0116668869
  0
LINE
  5
358
100
AcDbEntity
  8
0
100
AcDbLine
 62
7
  6
CONTINUOUS
 10
170.2617554692
 20
90.1166301724
 11
107.4674866936
 21
126.3732539544
  0
LINE
  5
359
100
AcDbEntity
  8
0
100
AcDbLine
 62
7
  6
CONTINUOUS
 10
169.5575420257
 20
91.6730120106
 11
106.763405847
 21
127.9295592448
  0
LINE
  5
35A
100
AcDbEntity
  8
0
100
AcDbLine
 62
7
  6
CONTINUOUS
 10
173.7465107411
 20
90.2550471062
 11
102.5744371316
 21
131.3489104127
  0
LINE
  5
35B
100
AcDbEntity
  8
0
100
AcDbLine
 62
7
  6
CONTINUOUS
 10
107.4674866939
 20
126.3732539543
 11
107.4673295151
 21
126.3733447241
  0
LINE
  5
35C
100
AcDbEntity
  8
0
100
AcDbLine
 62
7
  6
CONTINUOUS
 10
152.4660311296
 20
99.6970890924
 11
152.5404060351
 21
99.6537956883
  0
LWPOLYLINE
  5
35D
100
AcDbEntity
  8
0
100
AcDbPolyline
 62
7
  6
CONTINUOUS
 90
43
 70
0
 10
170.2617554175
 20
90.116630083
 10
170.2800590116
 20
90.105894731
 10
170.3259841677
 20
90.0775572098
 10
170.3748794883
 20
90.0452892
 10
170.4264868592
 20
90.0089928157
 10
170.4803982633
 20
89.9687017857
 10
170.5361030266
 20
89.9245763022
 10
170.5932695189
 20
89.876686269
 10
170.6516031065
 20
89.8250991495
 10
170.7107351498
 20
89.7699800531
 10
170.7703596762
 20
89.7114727311
 10
170.8302073496
 20
89.6497141627
 10
170.8900324713
 20
89.5848424757
 10
170.9495622764
 20
89.5170490846
 10
171.0085523939
 20
89.4465253033
 10
171.0668324373
 20
89.3733918885
 10
171.1241691276
 20
89.2978714902
 10
171.1803369138
 20
89.2202025206
 10
171.2352156713
 20
89.1405032135
 10
171.288597475
 20
89.0590333024
 10
171.3402922971
 20
88.9760583394
 10
171.3902204735
 20
88.8916911799
 10
171.4382077267
 20
88.8062130428
 10
171.4840985044
 20
88.7199162829
 10
171.5278344322
 20
88.6329270728
 10
171.5692823042
 20
88.5455436679
 10
171.6083214174
 20
88.458074894
 10
171.644909794
 20
88.3706876806
 10
171.6789545135
 20
88.2836954906
 10
171.7103807623
 20
88.1974125026
 10
171.7391700781
 20
88.112046576
 10
171.7652800241
 20
88.027905016
 10
171.7886827783
 20
87.9453196474
 10
171.809382767
 20
87.8645707082
 10
171.8273973602
 20
87.7859605107
 10
171.8427562855
 20
87.709824464
 10
171.855501976
 20
87.6365667312
 10
171.8657247574
 20
87.5664747798
 10
171.8735313436
 20
87.499870789
 10
171.8790402097
 20
87.437276532
 10
171.8824277636
 20
87.3790619619
 10
171.8839093308
 20
87.325401402
 10
171.8840201134
 20
87.3068888636
  0
LWPOLYLINE
  5
35E
100
AcDbEntity
  8
0
100
AcDbPolyline
 62
7
  6
CONTINUOUS
 90
17
 70
0
 10
170.2616229439
 20
90.1167066789
 10
170.2250243042
 20
90.138768435
 10
170.1426797477
 20
90.1957460804
 10
170.0650479294
 20
90.2601474145
 10
169.992329978
 20
90.331805586
 10
169.9247142915
 20
90.4105349426
 10
169.8623760489
 20
90.4961315118
 10
169.8054767563
 20
90.5883735298
 10
169.7541638287
 20
90.6870220155
 10
169.7085702077
 20
90.7918213899
 10
169.6688140176
 20
90.9025001385
 10
169.6349982585
 20
91.0187715165
 10
169.607210541
 20
91.1403342854
 10
169.585522857
 20
91.266873493
 10
169.5699913935
 20
91.3980612975
 10
169.5606563884
 20
91.5335578185
 10
169.5575420257
 20
91.6730120106
  0
LWPOLYLINE
  5
35F
100
AcDbEntity
  8
0
100
AcDbPolyline
 62
7
  6
CONTINUOUS
 90
17
 70
0
 10
107.4673295151
 20
126.3733447241
 10
107.4308881623
 20
126.3953156422
 10
107.3485436002
 20
126.4522932766
 10
107.270911775
 20
126.5166945994
 10
107.1981938158
 20
126.58835276
 10
107.1305781207
 20
126.6670821066
 10
107.0682398691
 20
126.7526786673
 10
107.0113405674
 20
126.8449206787
 10
106.9600276309
 20
126.9435691603
 10
106.9144340017
 20
127.0483685336
 10
106.8746778044
 20
127.1590472844
 10
106.8408620387
 20
127.2753186688
 10
106.8130743164
 20
127.3968814483
 10
106.7913866333
 20
127.5234206692
 10
106.775855178
 20
127.6546084897
 10
106.7665201877
 20
127.7901050301
 10
106.763405847
 20
127.9295592448
  0
LWPOLYLINE
  5
360
100
AcDbEntity
  8
0
100
AcDbPolyline
 62
7
  6
CONTINUOUS
 90
19
 70
0
 10
102.5744371316
 20
131.3489104127
 10
102.4687965414
 20
131.4127123015
 10
102.3682283254
 20
131.4791926462
 10
102.2729360585
 20
131.5482171696
 10
102.1831121249
 20
131.6196468896
 10
102.0989390182
 20
131.6933370772
 10
102.020588616
 20
131.7691374119
 10
101.9482199899
 20
131.8468938303
 10
101.8819786079
 20
131.926449851
 10
101.8219977153
 20
132.007645539
 10
101.7683984175
 20
132.0903173322
 10
101.7212896954
 20
132.1742975607
 10
101.6807673181
 20
132.2594156725
 10
101.6469133912
 20
132.3454990778
 10
101.6197961244
 20
132.4323741847
 10
101.5994702205
 20
132.5198659951
 10
101.5859768152
 20
132.6077986439
 10
101.5793436269
 20
132.6959933065
 10
101.5786001877
 20
132.7370449131
  0
LWPOLYLINE
  5
361
100
AcDbEntity
  8
0
100
AcDbPolyline
 62
7
  6
CONTINUOUS
 90
28
 70
0
 10
194.800933078
 20
73.301589874
 10
194.8815285026
 20
73.2525550044
 10
194.9618853213
 20
73.1981983728
 10
195.0420035343
 20
73.1385199793
 10
195.1222987144
 20
73.0732316067
 10
195.2023552887
 20
73.0026214721
 10
195.2809265387
 20
72.9275542275
 10
195.3579528812
 20
72.8479248266
 10
195.4334938994
 20
72.7638383157
 10
195.506481625
 20
72.6764744845
 10
195.5767795343
 20
72.5858816927
 10
195.644524151
 20
72.4920115806
 10
195.7090570788
 20
72.3958988592
 10
195.7702802831
 20
72.2976700824
 10
195.8282917985
 20
72.1971986963
 10
195.8827273325
 20
72.0951397505
 10
195.9336325994
 20
71.9913975718
 10
195.980961885
 20
71.8860678334
 10
196.0242137542
 20
71.7800926046
 10
196.0633952277
 20
71.6732615554
 10
196.0984992849
 20
71.5657850157
 10
196.1290034295
 20
71.4592360438
 10
196.1547770748
 20
71.3536615918
 10
196.1759508075
 20
71.2490147076
 10
196.1923938909
 20
71.1467275935
 10
196.2040627464
 20
71.0472776503
 10
196.2110009527
 20
70.9501874772
 10
196.2132085099
 20
70.8554570744
  0
LINE
  5
362
100
AcDbEntity
  8
0
100
AcDbLine
 62
7
  6
CONTINUOUS
 10
152.5404060351
 20
99.6537956883
 11
152.6153289483
 21
99.6079046536
  0
LWPOLYLINE
  5
363
100
AcDbEntity
  8
0
100
AcDbPolyline
 62
7
  6
CONTINUOUS
 90
15
 70
0
 10
193.5816019201
 20
73.5321785198
 10
193.539193791
 20
73.559168368
 10
193.4988285163
 20
73.5900699886
 10
193.4611075215
 20
73.6245550201
 10
193.4261981806
 20
73.6625051367
 10
193.3942470365
 20
73.7038091417
 10
193.3653121528
 20
73.7484480685
 10
193.33955048
 20
73.7962281593
 10
193.3171969118
 20
73.8467056659
 10
193.298317863
 20
73.8995941795
 10
193.2828843779
 20
73.954781383
 10
193.2709148048
 20
74.0120155082
 10
193.2624015637
 20
74.0710683115
 10
193.257319939
 20
74.1317432759
 10
193.2556400427
 20
74.193826678
  0
LINE
  5
364
100
AcDbEntity
  8
0
100
AcDbLine
 62
7
  6
CONTINUOUS
 10
152.6153289483
 20
99.6079046536
 11
152.6918527513
 21
99.5587549966
  0
LINE
  5
365
100
AcDbEntity
  8
0
100
AcDbLine
 62
7
  6
CONTINUOUS
 10
152.6918527513
 20
99.5587549966
 11
152.7711215427
 21
99.5055620256
  0
LINE
  5
366
100
AcDbEntity
  8
0
100
AcDbLine
 62
7
  6
CONTINUOUS
 10
152.7711215427
 20
99.5055620256
 11
152.8544491272
 21
99.4473646818
  0
LINE
  5
367
100
AcDbEntity
  8
0
100
AcDbLine
 62
7
  6
CONTINUOUS
 10
152.8544491272
 20
99.4473646818
 11
152.8960828673
 21
99.4166038823
  0
LINE
  5
368
100
AcDbEntity
  8
0
100
AcDbLine
 62
7
  6
CONTINUOUS
 10
152.8960828673
 20
99.4166038823
 11
152.9370307139
 21
99.3840648487
  0
LINE
  5
369
100
AcDbEntity
  8
0
100
AcDbLine
 62
7
  6
CONTINUOUS
 10
152.9370307139
 20
99.3840648487
 11
152.9772141781
 21
99.3498304573
  0
LINE
  5
36A
100
AcDbEntity
  8
0
100
AcDbLine
 62
7
  6
CONTINUOUS
 10
152.9772141781
 20
99.3498304573
 11
153.0165561852
 21
99.3139844005
  0
LINE
  5
36B
100
AcDbEntity
  8
0
100
AcDbLine
 62
7
  6
CONTINUOUS
 10
153.0165561852
 20
99.3139844005
 11
153.0331244042
 21
99.2981655891
  0
LINE
  5
36C
100
AcDbEntity
  8
0
100
AcDbLine
 62
7
  6
CONTINUOUS
 10
153.0331244042
 20
99.2981655891
 11
153.0711257368
 21
99.2601796385
  0
LINE
  5
36D
100
AcDbEntity
  8
0
100
AcDbLine
 62
7
  6
CONTINUOUS
 10
153.0711257368
 20
99.2601796385
 11
153.1080791372
 21
99.220828608
  0
LINE
  5
36E
100
AcDbEntity
  8
0
100
AcDbLine
 62
7
  6
CONTINUOUS
 10
153.9244028034
 20
96.3000280202
 11
153.8646805646
 21
96.3655726876
  0
LINE
  5
36F
100
AcDbEntity
  8
0
100
AcDbLine
 62
7
  6
CONTINUOUS
 10
154.1365348377
 20
96.4225103982
 11
154.123996581
 21
96.4362710322
  0
LINE
  5
370
100
AcDbEntity
  8
0
100
AcDbLine
 62
7
  6
CONTINUOUS
 10
153.1080791372
 20
99.220828608
 11
153.1439117733
 21
99.1802125195
  0
LINE
  5
371
100
AcDbEntity
  8
0
100
AcDbLine
 62
7
  6
CONTINUOUS
 10
152.8939268988
 20
96.3372785972
 11
152.946937987
 21
96.2738289588
  0
LINE
  5
372
100
AcDbEntity
  8
0
100
AcDbLine
 62
7
  6
CONTINUOUS
 10
153.1439117733
 20
99.1802125195
 11
153.1785529345
 21
99.1384334354
  0
LINE
  5
373
100
AcDbEntity
  8
0
100
AcDbLine
 62
7
  6
CONTINUOUS
 10
153.9815045044
 20
96.2301031361
 11
153.9244028034
 21
96.3000280202
  0
LINE
  5
374
100
AcDbEntity
  8
0
100
AcDbLine
 62
7
  6
CONTINUOUS
 10
154.1936365387
 20
96.3525855141
 11
154.1365348377
 21
96.4225103982
  0
LINE
  5
375
100
AcDbEntity
  8
0
100
AcDbLine
 62
7
  6
CONTINUOUS
 10
153.1785529345
 20
99.1384334354
 11
153.2119361528
 21
99.0955958679
  0
LINE
  5
376
100
AcDbEntity
  8
0
100
AcDbLine
 62
7
  6
CONTINUOUS
 10
152.946937987
 20
96.2738289588
 11
152.9975088498
 21
96.2060411417
  0
LINE
  5
377
100
AcDbEntity
  8
0
100
AcDbLine
 62
7
  6
CONTINUOUS
 10
154.036233155
 20
96.1554934778
 11
153.9815045044
 21
96.2301031361
  0
LINE
  5
378
100
AcDbEntity
  8
0
100
AcDbLine
 62
7
  6
CONTINUOUS
 10
154.2483651894
 20
96.2779758558
 11
154.1936365387
 21
96.3525855141
  0
LINE
  5
379
100
AcDbEntity
  8
0
100
AcDbLine
 62
7
  6
CONTINUOUS
 10
153.2119361528
 20
99.0955958679
 11
153.2439977884
 21
99.0518018792
  0
LINE
  5
37A
100
AcDbEntity
  8
0
100
AcDbLine
 62
7
  6
CONTINUOUS
 10
153.2439977884
 20
99.0518018792
 11
153.2746791517
 21
99.0071539395
  0
LINE
  5
37B
100
AcDbEntity
  8
0
100
AcDbLine
 62
7
  6
CONTINUOUS
 10
152.9975088498
 20
96.2060411417
 11
153.0455411992
 21
96.1338804515
  0
LINE
  5
37C
100
AcDbEntity
  8
0
100
AcDbLine
 62
7
  6
CONTINUOUS
 10
154.0888023016
 20
96.0758185585
 11
154.036233155
 21
96.1554934778
  0
LINE
  5
37D
100
AcDbEntity
  8
0
100
AcDbLine
 62
7
  6
CONTINUOUS
 10
154.3009343359
 20
96.1983009365
 11
154.2483651894
 21
96.2779758558
  0
LINE
  5
37E
100
AcDbEntity
  8
0
100
AcDbLine
 62
7
  6
CONTINUOUS
 10
153.2746791517
 20
99.0071539395
 11
153.3039250882
 21
98.9617541109
  0
LINE
  5
37F
100
AcDbEntity
  8
0
100
AcDbLine
 62
7
  6
CONTINUOUS
 10
129.3674923327
 20
139.1086816523
 11
129.3438239023
 21
139.1457223339
  0
LINE
  5
380
100
AcDbEntity
  8
0
100
AcDbLine
 62
7
  6
CONTINUOUS
 10
154.1734641965
 20
99.3335041119
 11
154.1025152234
 21
99.4445949754
  0
LWPOLYLINE
  5
381
100
AcDbEntity
  8
0
100
AcDbPolyline
 62
7
  6
CONTINUOUS
 90
22
 70
0
 10
127.0997976454
 20
140.2907154057
 10
127.1221850899
 20
140.2542993384
 10
127.1466134618
 20
140.2193122947
 10
127.1729586973
 20
140.1859319545
 10
127.2010869919
 20
140.1543278433
 10
127.2308554978
 20
140.1246604526
 10
127.2621130523
 20
140.0970804283
 10
127.2947009208
 20
140.0717278309
 10
127.3284535989
 20
140.0487314191
 10
127.3631996729
 20
140.0282079798
 10
127.3987626845
 20
140.0102617411
 10
127.4349620269
 20
139.994983843
 10
127.4716138617
 20
139.9824518742
 10
127.5085320524
 20
139.9727294782
 10
127.5455291097
 20
139.9658660302
 10
127.5824171445
 20
139.9618963861
 10
127.6190088217
 20
139.9608407061
 10
127.6551183093
 20
139.9627043511
 10
127.6905622225
 20
139.9674778554
 10
127.7251605583
 20
139.975136976
 10
127.75873761
 20
139.9856428157
 10
127.7911228567
 20
139.9989420202
  0
LWPOLYLINE
  5
382
100
AcDbEntity
  8
0
100
AcDbPolyline
 62
7
  6
CONTINUOUS
 90
16
 70
0
 10
127.6237798559
 20
140.5900695869
 10
127.6461673088
 20
140.553653503
 10
127.6705956837
 20
140.5186664541
 10
127.6969409152
 20
140.4852861185
 10
127.7250691936
 20
140.4536820247
 10
127.754837673
 20
140.4240146574
 10
127.7860952019
 20
140.3964346497
 10
127.8186830502
 20
140.3710820584
 10
127.8524357109
 20
140.3480856475
 10
127.8871817714
 20
140.3275622054
 10
127.9227447743
 20
140.3096159611
 10
127.9589441126
 20
140.2943380553
 10
127.9955959473
 20
140.2818060776
 10
128.0325141419
 20
140.2720836724
 10
128.0695112072
 20
140.2652202154
 10
128.1063992522
 20
140.2612505632
  0
LINE
  5
383
100
AcDbEntity
  8
0
100
AcDbLine
 62
7
  6
CONTINUOUS
 10
153.3039250882
 20
98.9617541109
 11
153.3316868075
 21
98.9156991476
  0
LINE
  5
384
100
AcDbEntity
  8
0
100
AcDbLine
 62
7
  6
CONTINUOUS
 10
154.1393851852
 20
95.9906223698
 11
154.0888023016
 21
96.0758185585
  0
LINE
  5
385
100
AcDbEntity
  8
0
100
AcDbLine
 62
7
  6
CONTINUOUS
 10
154.3515172195
 20
96.1131047478
 11
154.3009343359
 21
96.1983009365
  0
LINE
  5
386
100
AcDbEntity
  8
0
100
AcDbLine
 62
7
  6
CONTINUOUS
 10
153.0455411992
 20
96.1338804515
 11
153.0909671531
 21
96.0572129908
  0
LINE
  5
387
100
AcDbEntity
  8
0
100
AcDbLine
 62
7
  6
CONTINUOUS
 10
154.2408938991
 20
99.2194386354
 11
154.1734641965
 21
99.3335041119
  0
LINE
  5
388
100
AcDbEntity
  8
0
100
AcDbLine
 62
7
  6
CONTINUOUS
 10
131.9852569757
 20
137.9611998769
 11
132.5092391724
 21
137.0567641968
  0
LINE
  5
389
100
AcDbEntity
  8
0
100
AcDbLine
 62
7
  6
CONTINUOUS
 10
132.0801586589
 20
138.0170123177
 11
132.6041408694
 21
137.1125766138
  0
LWPOLYLINE
  5
38A
100
AcDbEntity
  8
0
100
AcDbPolyline
 62
7
  6
CONTINUOUS
 90
15
 70
0
 10
132.5092393245
 20
137.0567642668
 10
132.5130721225
 20
137.0500358744
 10
132.5213888136
 20
137.0345770422
 10
132.5290268102
 20
137.0191549534
 10
132.5358904087
 20
137.004042871
 10
132.5419467581
 20
136.9894160441
 10
132.5471812544
 20
136.9754422118
 10
132.5515751633
 20
136.9623687777
 10
132.5551571029
 20
136.9503695336
 10
132.5579841508
 20
136.9395381543
 10
132.5601195429
 20
136.9299865674
 10
132.5616440356
 20
136.9218082093
 10
132.5626450713
 20
136.9150992672
 10
132.5632167062
 20
136.9099649391
 10
132.5634577887
 20
136.9067365726
  0
LINE
  5
38B
100
AcDbEntity
  8
0
100
AcDbLine
 62
7
  6
CONTINUOUS
 10
153.3316868075
 20
98.9156991476
 11
153.3579169335
 21
98.8690858042
  0
LINE
  5
38C
100
AcDbEntity
  8
0
100
AcDbLine
 62
7
  6
CONTINUOUS
 10
154.3043305698
 20
99.1031505413
 11
154.2408938991
 21
99.2194386354
  0
LWPOLYLINE
  5
38D
100
AcDbEntity
  8
0
100
AcDbPolyline
 62
7
  6
CONTINUOUS
 90
10
 70
0
 10
132.6041408694
 20
137.1125766138
 10
132.6316485946
 20
137.0620253306
 10
132.656114895
 20
137.011244677
 10
132.6775397706
 20
136.9602346529
 10
132.6960322806
 20
136.9086208664
 10
132.7114833658
 20
136.8567777094
 10
132.7235658483
 20
136.8058283574
 10
132.7321706688
 20
136.7561472021
 10
132.7374068865
 20
136.7073598518
 10
132.7392745014
 20
136.6594663063
  0
LWPOLYLINE
  5
38E
100
AcDbEntity
  8
0
100
AcDbPolyline
 62
7
  6
CONTINUOUS
 90
6
 70
0
 10
129.3438239023
 20
139.1457223339
 10
129.322888132
 20
139.1844829027
 10
129.3048177648
 20
139.2247614528
 10
129.2897288403
 20
139.2663499429
 10
129.2777250372
 20
139.3090213345
 10
129.2730921864
 20
139.3297832451
  0
LINE
  5
38F
100
AcDbEntity
  8
0
100
AcDbLine
 62
7
  6
CONTINUOUS
 10
154.1881232272
 20
95.8993725651
 11
154.1393851852
 21
95.9906223698
  0
LINE
  5
390
100
AcDbEntity
  8
0
100
AcDbLine
 62
7
  6
CONTINUOUS
 10
154.4002552615
 20
96.0218549431
 11
154.3515172195
 21
96.1131047478
  0
LINE
  5
391
100
AcDbEntity
  8
0
100
AcDbLine
 62
7
  6
CONTINUOUS
 10
153.0909671531
 20
96.0572129908
 11
153.1337160006
 21
95.9758354624
  0
LINE
  5
392
100
AcDbEntity
  8
0
100
AcDbLine
 62
7
  6
CONTINUOUS
 10
153.3579169335
 20
98.8690858042
 11
153.3825751612
 21
98.8220043027
  0
LINE
  5
393
100
AcDbEntity
  8
0
100
AcDbLine
 62
7
  6
CONTINUOUS
 10
154.3634644957
 20
98.9851770844
 11
154.3043305698
 21
99.1031505413
  0
LINE
  5
394
100
AcDbEntity
  8
0
100
AcDbLine
 62
7
  6
CONTINUOUS
 10
154.57559653
 20
99.1076594624
 11
154.5290666982
 21
99.2004874799
  0
LINE
  5
395
100
AcDbEntity
  8
0
100
AcDbLine
 62
7
  6
CONTINUOUS
 10
153.3825751612
 20
98.8220043027
 11
153.4056240139
 21
98.774542416
  0
LWPOLYLINE
  5
396
100
AcDbEntity
  8
0
100
AcDbPolyline
 62
7
  6
CONTINUOUS
 90
31
 70
0
 10
171.1394318394
 20
64.0047825063
 10
171.1630561557
 20
63.9556371038
 10
171.1868009819
 20
63.9095017101
 10
171.210635383
 20
63.8663530282
 10
171.2345084978
 20
63.8262161368
 10
171.2584193272
 20
63.789013972
 10
171.2824105279
 20
63.7545782936
 10
171.3064469985
 20
63.722880501
 10
171.3305146943
 20
63.6939133222
 10
171.3546783509
 20
63.6675594192
 10
171.3788986423
 20
63.6437926068
 10
171.403161575
 20
63.622619127
 10
171.4275561261
 20
63.603990508
 10
171.4520601629
 20
63.5878797667
 10
171.4766294024
 20
63.5743127038
 10
171.5013076438
 20
63.56333448
 10
171.5260869126
 20
63.5549402673
 10
171.5509023784
 20
63.5491385319
 10
171.5757132454
 20
63.5459934533
 10
171.6004868192
 20
63.5455111125
 10
171.625197618
 20
63.5476725924
 10
171.6498224512
 20
63.5524978434
 10
171.6743349392
 20
63.5599827063
 10
171.6987106665
 20
63.5701115393
 10
171.7229319941
 20
63.5828847483
 10
171.7469954705
 20
63.5983108864
 10
171.7708575673
 20
63.616358213
 10
171.7944480926
 20
63.6369611383
 10
171.8177576613
 20
63.6601131184
 10
171.8407694724
 20
63.6857831301
 10
171.8634149094
 20
63.7138605074
  0
LINE
  5
397
100
AcDbEntity
  8
0
100
AcDbLine
 62
7
  6
CONTINUOUS
 10
154.2351260291
 20
95.8014490292
 11
154.1881232272
 21
95.8993725651
  0
LINE
  5
398
100
AcDbEntity
  8
0
100
AcDbLine
 62
7
  6
CONTINUOUS
 10
154.4472580635
 20
95.9239314072
 11
154.4002552615
 21
96.0218549431
  0
LINE
  5
399
100
AcDbEntity
  8
0
100
AcDbLine
 62
7
  6
CONTINUOUS
 10
153.1337160006
 20
95.9758354624
 11
153.1736972323
 21
95.8894874174
  0
LINE
  5
39A
100
AcDbEntity
  8
0
100
AcDbLine
 62
7
  6
CONTINUOUS
 10
154.418091323
 20
98.8658967101
 11
154.3634644957
 21
98.9851770844
  0
LWPOLYLINE
  5
39B
100
AcDbEntity
  8
0
100
AcDbPolyline
 62
7
  6
CONTINUOUS
 90
6
 70
0
 10
132.5887453834
 20
136.8050721102
 10
132.5780324381
 20
136.8287457941
 10
132.5702403219
 20
136.8527970427
 10
132.5654079078
 20
136.8771058755
 10
132.5635593045
 20
136.9015510263
 10
132.5635385722
 20
136.9044021704
  0
LINE
  5
39C
100
AcDbEntity
  8
0
100
AcDbLine
 62
7
  6
CONTINUOUS
 10
153.4056240139
 20
98.774542416
 11
153.4270295503
 21
98.7267817927
  0
LINE
  5
39D
100
AcDbEntity
  8
0
100
AcDbLine
 62
7
  6
CONTINUOUS
 10
154.2804876362
 20
95.6961255066
 11
154.2351260291
 21
95.8014490292
  0
LINE
  5
39E
100
AcDbEntity
  8
0
100
AcDbLine
 62
7
  6
CONTINUOUS
 10
154.4926196706
 20
95.8186078846
 11
154.4472580635
 21
95.9239314072
  0
LINE
  5
39F
100
AcDbEntity
  8
0
100
AcDbLine
 62
7
  6
CONTINUOUS
 10
153.4270295503
 20
98.7267817927
 11
153.446760658
 21
98.678800816
  0
LINE
  5
3A0
100
AcDbEntity
  8
0
100
AcDbLine
 62
7
  6
CONTINUOUS
 10
153.1736972323
 20
95.8894874174
 11
153.2107892256
 21
95.7978659522
  0
LINE
  5
3A1
100
AcDbEntity
  8
0
100
AcDbLine
 62
7
  6
CONTINUOUS
 10
154.3242957298
 20
95.5825283691
 11
154.2804876362
 21
95.6961255066
  0
LINE
  5
3A2
100
AcDbEntity
  8
0
100
AcDbLine
 62
7
  6
CONTINUOUS
 10
154.5364277641
 20
95.7050107471
 11
154.4926196706
 21
95.8186078846
  0
LINE
  5
3A3
100
AcDbEntity
  8
0
100
AcDbLine
 62
7
  6
CONTINUOUS
 10
153.446760658
 20
98.678800816
 11
153.4647897596
 21
98.6306725613
  0
LINE
  5
3A4
100
AcDbEntity
  8
0
100
AcDbLine
 62
7
  6
CONTINUOUS
 10
153.2107892256
 20
95.7978659522
 11
153.2448314673
 21
95.7006359145
  0
LINE
  5
3A5
100
AcDbEntity
  8
0
100
AcDbLine
 62
7
  6
CONTINUOUS
 10
154.3666641539
 20
95.4595557837
 11
154.3242957298
 21
95.5825283691
  0
LINE
  5
3A6
100
AcDbEntity
  8
0
100
AcDbLine
 62
7
  6
CONTINUOUS
 10
154.5787961882
 20
95.5820381617
 11
154.5364277641
 21
95.7050107471
  0
LINE
  5
3A7
100
AcDbEntity
  8
0
100
AcDbLine
 62
7
  6
CONTINUOUS
 10
153.4647897596
 20
98.6306725613
 11
153.4810906922
 21
98.5824652054
  0
LINE
  5
3A8
100
AcDbEntity
  8
0
100
AcDbLine
 62
7
  6
CONTINUOUS
 10
154.4077817061
 20
95.325700944
 11
154.3666641539
 21
95.4595557837
  0
LINE
  5
3A9
100
AcDbEntity
  8
0
100
AcDbLine
 62
7
  6
CONTINUOUS
 10
154.6199137404
 20
95.448183322
 11
154.5787961882
 21
95.5820381617
  0
LINE
  5
3AA
100
AcDbEntity
  8
0
100
AcDbLine
 62
7
  6
CONTINUOUS
 10
153.4810906922
 20
98.5824652054
 11
153.4956387071
 21
98.5342428426
  0
LINE
  5
3AB
100
AcDbEntity
  8
0
100
AcDbLine
 62
7
  6
CONTINUOUS
 10
153.2448314673
 20
95.7006359145
 11
153.2756245535
 21
95.5974388851
  0
LINE
  5
3AC
100
AcDbEntity
  8
0
100
AcDbLine
 62
7
  6
CONTINUOUS
 10
154.4480153748
 20
95.1786593422
 11
154.4077817061
 21
95.325700944
  0
LINE
  5
3AD
100
AcDbEntity
  8
0
100
AcDbLine
 62
7
  6
CONTINUOUS
 10
153.4956387071
 20
98.5342428426
 11
153.5084104698
 21
98.4860638519
  0
LINE
  5
3AE
100
AcDbEntity
  8
0
100
AcDbLine
 62
7
  6
CONTINUOUS
 10
153.2756245535
 20
95.5974388851
 11
153.3100726745
 21
95.462637312
  0
LINE
  5
3AF
100
AcDbEntity
  8
0
100
AcDbLine
 62
7
  6
CONTINUOUS
 10
153.3100726745
 20
95.462637312
 11
153.3800394763
 21
95.1676622923
  0
LINE
  5
3B0
100
AcDbEntity
  8
0
100
AcDbLine
 62
7
  6
CONTINUOUS
 10
150.3557374092
 20
95.2286862452
 11
148.6600214345
 21
102.5892006588
  0
LINE
  5
3B1
100
AcDbEntity
  8
0
100
AcDbLine
 62
7
  6
CONTINUOUS
 10
150.5678694436
 20
95.3511686232
 11
148.9372471387
 21
102.4291340116
  0
LINE
  5
3B2
100
AcDbEntity
  8
0
100
AcDbLine
 62
7
  6
CONTINUOUS
 10
153.3800394763
 20
95.1676622923
 11
153.501862661
 21
94.6329393129
  0
LINE
  5
3B3
100
AcDbEntity
  8
0
100
AcDbLine
 62
7
  6
CONTINUOUS
 10
153.501862661
 20
94.6329393129
 11
153.6785651101
 21
93.8385434728
  0
LINE
  5
3B4
100
AcDbEntity
  8
0
100
AcDbLine
 62
7
  6
CONTINUOUS
 10
153.6785651101
 20
93.8385434728
 11
153.8112579402
 21
93.2335119985
  0
LINE
  5
3B5
100
AcDbEntity
  8
0
100
AcDbLine
 62
7
  6
CONTINUOUS
 10
148.7473848516
 20
97.5100290492
 11
149.0647082121
 21
95.9741103233
  0
LINE
  5
3B6
100
AcDbEntity
  8
0
100
AcDbLine
 62
7
  6
CONTINUOUS
 10
147.9397105156
 20
101.5376885157
 11
148.5025837769
 21
98.6980882001
  0
LWPOLYLINE
  5
3B7
100
AcDbEntity
  8
0
100
AcDbPolyline
 62
7
  6
CONTINUOUS
 90
25
 70
0
 10
150.7298954977
 20
127.2914916101
 10
150.73328093
 20
127.2604339298
 10
150.7383611459
 20
127.2284124316
 10
150.745114519
 20
127.1955634382
 10
150.753512299
 20
127.1620267982
 10
150.7635187367
 20
127.1279452829
 10
150.7750912373
 20
127.0934639783
 10
150.7881805363
 20
127.0587296801
 10
150.802730911
 20
127.0238902613
 10
150.8186804223
 20
126.9890940361
 10
150.8359611719
 20
126.9544891412
 10
150.8544995931
 20
126.9202229011
 10
150.874216768
 20
126.8864411938
 10
150.8950287579
 20
126.8532878389
 10
150.916846962
 20
126.8209039833
 10
150.9395784973
 20
126.7894274956
 10
150.9631265912
 20
126.7589923836
 10
150.987390993
 20
126.7297282236
 10
151.0122684025
 20
126.7017596071
 10
151.0376528704
 20
126.6752056493
 10
151.0634363648
 20
126.65017936
 10
151.0895092366
 20
126.6267871867
 10
151.1157605271
 20
126.6051287152
 10
151.1420784349
 20
126.5852962217
 10
151.1683509116
 20
126.5673741738
  0
LWPOLYLINE
  5
3B8
100
AcDbEntity
  8
0
100
AcDbPolyline
 62
7
  6
CONTINUOUS
 90
4
 70
0
 10
150.7298960326
 20
130.9407447972
 10
150.7273598881
 20
130.9700008374
 10
150.7268449783
 20
130.9984479737
 10
150.7278112912
 20
131.0158781957
  0
LINE
  5
3B9
100
AcDbEntity
  8
0
100
AcDbLine
 62
7
  6
CONTINUOUS
 10
154.6906166404
 20
97.7550398087
 11
154.6809038216
 21
97.8815369071
  0
LINE
  5
3BA
100
AcDbEntity
  8
0
100
AcDbLine
 62
7
  6
CONTINUOUS
 10
154.9027486747
 20
97.8775221867
 11
154.893035856
 21
98.0040192851
  0
LINE
  5
3BB
100
AcDbEntity
  8
0
100
AcDbLine
 62
7
  6
CONTINUOUS
 10
153.5412598224
 20
98.2948536613
 11
153.5447882852
 21
98.2476688307
  0
LINE
  5
3BC
100
AcDbEntity
  8
0
100
AcDbLine
 62
7
  6
CONTINUOUS
 10
153.5447882852
 20
98.2476688307
 11
153.5463898821
 21
98.2008209016
  0
LINE
  5
3BD
100
AcDbEntity
  8
0
100
AcDbLine
 62
7
  6
CONTINUOUS
 10
154.6949080714
 20
97.6253346929
 11
154.6906166404
 21
97.7550398087
  0
LINE
  5
3BE
100
AcDbEntity
  8
0
100
AcDbLine
 62
7
  6
CONTINUOUS
 10
154.9070401058
 20
97.7478170709
 11
154.9027486747
 21
97.8775221867
  0
LINE
  5
3BF
100
AcDbEntity
  8
0
100
AcDbLine
 62
7
  6
CONTINUOUS
 10
152.1069566493
 20
98.2239322075
 11
152.1069566493
 21
99.8752739148
  0
LINE
  5
3C0
100
AcDbEntity
  8
0
100
AcDbLine
 62
7
  6
CONTINUOUS
 10
152.1475735699
 20
94.439067259
 11
152.1475735699
 21
96.8457954774
  0
LINE
  5
3C1
100
AcDbEntity
  8
0
100
AcDbLine
 62
7
  6
CONTINUOUS
 10
152.3776957475
 20
127.785288738
 11
152.3776957475
 21
130.0632555885
  0
LINE
  5
3C2
100
AcDbEntity
  8
0
100
AcDbLine
 62
7
  6
CONTINUOUS
 10
153.8646805646
 20
96.3655726876
 11
153.8646805646
 21
96.4056115735
  0
LINE
  5
3C3
100
AcDbEntity
  8
0
100
AcDbLine
 62
7
  6
CONTINUOUS
 10
153.5463898821
 20
98.2008209016
 11
153.5462491679
 21
98.1391133106
  0
LINE
  5
3C4
100
AcDbEntity
  8
0
100
AcDbLine
 62
7
  6
CONTINUOUS
 10
154.6933828421
 20
97.5024980495
 11
154.6949080714
 21
97.6253346929
  0
LINE
  5
3C5
100
AcDbEntity
  8
0
100
AcDbLine
 62
7
  6
CONTINUOUS
 10
154.9055148765
 20
97.6249804275
 11
154.9070401058
 21
97.7478170709
  0
LINE
  5
3C6
100
AcDbEntity
  8
0
100
AcDbLine
 62
7
  6
CONTINUOUS
 10
153.5462491679
 20
98.1391133106
 11
153.5441943155
 21
98.0810958639
  0
LINE
  5
3C7
100
AcDbEntity
  8
0
100
AcDbLine
 62
7
  6
CONTINUOUS
 10
154.6862092438
 20
97.38631922
 11
154.6933828421
 21
97.5024980495
  0
LINE
  5
3C8
100
AcDbEntity
  8
0
100
AcDbLine
 62
7
  6
CONTINUOUS
 10
154.8983412782
 20
97.508801598
 11
154.9055148765
 21
97.6249804275
  0
LINE
  5
3C9
100
AcDbEntity
  8
0
100
AcDbLine
 62
7
  6
CONTINUOUS
 10
153.5441943155
 20
98.0810958639
 11
153.5403016927
 21
98.0266199595
  0
LINE
  5
3CA
100
AcDbEntity
  8
0
100
AcDbLine
 62
7
  6
CONTINUOUS
 10
153.5403016927
 20
98.0266199595
 11
153.5346413029
 21
97.9755447524
  0
LINE
  5
3CB
100
AcDbEntity
  8
0
100
AcDbLine
 62
7
  6
CONTINUOUS
 10
154.6735322335
 20
97.2766140821
 11
154.6862092438
 21
97.38631922
  0
LINE
  5
3CC
100
AcDbEntity
  8
0
100
AcDbLine
 62
7
  6
CONTINUOUS
 10
154.8856642678
 20
97.3990964601
 11
154.8983412782
 21
97.508801598
  0
LINE
  5
3CD
100
AcDbEntity
  8
0
100
AcDbLine
 62
7
  6
CONTINUOUS
 10
153.5346413029
 20
97.9755447524
 11
153.5272760787
 21
97.9277334805
  0
LINE
  5
3CE
100
AcDbEntity
  8
0
100
AcDbLine
 62
7
  6
CONTINUOUS
 10
154.6554769689
 20
97.1732254584
 11
154.6735322335
 21
97.2766140821
  0
LINE
  5
3CF
100
AcDbEntity
  8
0
100
AcDbLine
 62
7
  6
CONTINUOUS
 10
154.8676090033
 20
97.2957078364
 11
154.8856642678
 21
97.3990964601
  0
LINE
  5
3D0
100
AcDbEntity
  8
0
100
AcDbLine
 62
7
  6
CONTINUOUS
 10
153.5272760787
 20
97.9277334805
 11
153.5182618815
 21
97.8830591793
  0
LINE
  5
3D1
100
AcDbEntity
  8
0
100
AcDbLine
 62
7
  6
CONTINUOUS
 10
154.6321509304
 20
97.0760292394
 11
154.6554769689
 21
97.1732254584
  0
LINE
  5
3D2
100
AcDbEntity
  8
0
100
AcDbLine
 62
7
  6
CONTINUOUS
 10
154.8442829648
 20
97.1985116174
 11
154.8676090033
 21
97.2957078364
  0
LINE
  5
3D3
100
AcDbEntity
  8
0
100
AcDbLine
 62
7
  6
CONTINUOUS
 10
153.5182618815
 20
97.8830591793
 11
153.5076482087
 21
97.8413993757
  0
LINE
  5
3D4
100
AcDbEntity
  8
0
100
AcDbLine
 62
7
  6
CONTINUOUS
 10
154.6036467489
 20
96.9849368328
 11
154.6321509304
 21
97.0760292394
  0
LINE
  5
3D5
100
AcDbEntity
  8
0
100
AcDbLine
 62
7
  6
CONTINUOUS
 10
154.8157787833
 20
97.1074192108
 11
154.8442829648
 21
97.1985116174
  0
LINE
  5
3D6
100
AcDbEntity
  8
0
100
AcDbLine
 62
7
  6
CONTINUOUS
 10
153.5076482087
 20
97.8413993757
 11
153.4954753654
 21
97.8026434355
  0
LINE
  5
3D7
100
AcDbEntity
  8
0
100
AcDbLine
 62
7
  6
CONTINUOUS
 10
153.4954753654
 20
97.8026434355
 11
153.4888151267
 21
97.7843193565
  0
LINE
  5
3D8
100
AcDbEntity
  8
0
100
AcDbLine
 62
7
  6
CONTINUOUS
 10
153.4888151267
 20
97.7843193565
 11
153.481778
 21
97.7666856241
  0
LINE
  5
3D9
100
AcDbEntity
  8
0
100
AcDbLine
 62
7
  6
CONTINUOUS
 10
153.481778
 20
97.7666856241
 11
153.4665957103
 21
97.7334622545
  0
LINE
  5
3DA
100
AcDbEntity
  8
0
100
AcDbLine
 62
7
  6
CONTINUOUS
 10
153.4665957103
 20
97.7334622545
 11
153.4499553664
 21
97.7028900453
  0
LINE
  5
3DB
100
AcDbEntity
  8
0
100
AcDbLine
 62
7
  6
CONTINUOUS
 10
153.4499553664
 20
97.7028900453
 11
153.4318725247
 21
97.674886532
  0
LWPOLYLINE
  5
3DC
100
AcDbEntity
  8
0
100
AcDbPolyline
 62
7
  6
CONTINUOUS
 90
3
 70
0
 10
144.9900525685
 20
93.0461313233
 10
144.961184328
 20
93.0086246856
 10
144.9335430488
 20
92.966640618
  0
LINE
  5
3DD
100
AcDbEntity
  8
0
100
AcDbLine
 62
7
  6
CONTINUOUS
 10
145.0081220188
 20
93.0661518185
 11
144.9900525685
 21
93.0461313233
  0
LWPOLYLINE
  5
3DE
100
AcDbEntity
  8
0
100
AcDbPolyline
 62
7
  6
CONTINUOUS
 90
16
 70
0
 10
144.3885287046
 20
93.6264885436
 10
144.3439583981
 20
93.5891990293
 10
144.3011851766
 20
93.5460298334
 10
144.2602090402
 20
93.4969809558
 10
144.220778722
 20
93.4421665463
 10
144.1831454888
 20
93.3814724551
 10
144.1480631413
 20
93.3145562334
 10
144.1154542529
 20
93.2409878008
 10
144.0853962501
 20
93.1611972376
 10
144.0588752136
 20
93.0761323362
 10
144.0359911273
 20
92.9853208818
 10
144.0166440074
 20
92.889235089
 10
144.0015199832
 20
92.7902393942
 10
143.9908477645
 20
92.6891219426
 10
143.9843986414
 20
92.5850945888
 10
143.9821726141
 20
92.4781573329
  0
LINE
  5
3DF
100
AcDbEntity
  8
0
100
AcDbLine
 62
7
  6
CONTINUOUS
 10
139.3979185816
 20
96.6510328676
 11
139.1857865473
 21
96.5285504896
  0
LINE
  5
3E0
100
AcDbEntity
  8
0
100
AcDbLine
 62
7
  6
CONTINUOUS
 10
140.1093889187
 20
96.8361347444
 11
139.8972568844
 21
96.7136523664
  0
LINE
  5
3E1
100
AcDbEntity
  8
0
100
AcDbLine
 62
7
  6
CONTINUOUS
 10
137.6805188447
 20
95.0798202162
 11
137.4683868103
 21
94.9573378382
  0
LINE
  5
3E2
100
AcDbEntity
  8
0
100
AcDbLine
 62
7
  6
CONTINUOUS
 10
139.2813972836
 20
95.7847121514
 11
139.0692652492
 21
95.6622297734
  0
LINE
  5
3E3
100
AcDbEntity
  8
0
100
AcDbLine
 62
7
  6
CONTINUOUS
 10
140.6901265257
 20
96.5008241285
 11
140.4779944914
 21
96.3783417505
  0
LINE
  5
3E4
100
AcDbEntity
  8
0
100
AcDbLine
 62
7
  6
CONTINUOUS
 10
139.2813972836
 20
95.1888031552
 11
139.0692652492
 21
95.0663207772
  0
LINE
  5
3E5
100
AcDbEntity
  8
0
100
AcDbLine
 62
7
  6
CONTINUOUS
 10
141.3807435768
 20
96.1020704987
 11
141.1686115424
 21
95.9795881207
  0
LINE
  5
3E6
100
AcDbEntity
  8
0
100
AcDbLine
 62
7
  6
CONTINUOUS
 10
147.54192901
 20
99.4977229786
 11
147.3297969757
 21
99.3752406006
  0
LINE
  5
3E7
100
AcDbEntity
  8
0
100
AcDbLine
 62
7
  6
CONTINUOUS
 10
145.5493657403
 20
98.2487897649
 11
145.3372337059
 21
98.1263073869
  0
LINE
  5
3E8
100
AcDbEntity
  8
0
100
AcDbLine
 62
7
  6
CONTINUOUS
 10
141.9614564351
 20
95.7667741723
 11
141.7493244007
 21
95.6442917943
  0
LINE
  5
3E9
100
AcDbEntity
  8
0
100
AcDbLine
 62
7
  6
CONTINUOUS
 10
139.4109887434
 20
94.0806906293
 11
139.198856709
 21
93.9582082513
  0
LINE
  5
3EA
100
AcDbEntity
  8
0
100
AcDbLine
 62
7
  6
CONTINUOUS
 10
139.4109887434
 20
93.4847946966
 11
139.198856709
 21
93.3623123186
  0
LINE
  5
3EB
100
AcDbEntity
  8
0
100
AcDbLine
 62
7
  6
CONTINUOUS
 10
146.9533566599
 20
97.438143004
 11
146.7412246256
 21
97.315660626
  0
LINE
  5
3EC
100
AcDbEntity
  8
0
100
AcDbLine
 62
7
  6
CONTINUOUS
 10
141.9614451214
 20
94.1297741292
 11
141.749313087
 21
94.0072917512
  0
LINE
  5
3ED
100
AcDbEntity
  8
0
100
AcDbLine
 62
7
  6
CONTINUOUS
 10
143.4030166451
 20
94.9344353741
 11
143.1908846107
 21
94.8119529961
  0
LINE
  5
3EE
100
AcDbEntity
  8
0
100
AcDbLine
 62
7
  6
CONTINUOUS
 10
140.6901265257
 20
92.7462365724
 11
140.4779944914
 21
92.6237541944
  0
LINE
  5
3EF
100
AcDbEntity
  8
0
100
AcDbLine
 62
7
  6
CONTINUOUS
 10
144.181659298
 20
94.484856865
 11
143.9695272637
 21
94.362374487
  0
LINE
  5
3F0
100
AcDbEntity
  8
0
100
AcDbLine
 62
7
  6
CONTINUOUS
 10
174.8295053755
 20
112.732180356
 11
175.353487586
 21
113.0315345373
  0
LINE
  5
3F1
100
AcDbEntity
  8
0
100
AcDbLine
 62
7
  6
CONTINUOUS
 10
175.5168576566
 20
112.4381144477
 11
175.9095305917
 21
112.662473616
  0
LINE
  5
3F2
100
AcDbEntity
  8
0
100
AcDbLine
 62
7
  6
CONTINUOUS
 10
143.4030166451
 20
94.9344353741
 11
141.9614451214
 21
94.1297741292
  0
LINE
  5
3F3
100
AcDbEntity
  8
0
100
AcDbLine
 62
7
  6
CONTINUOUS
 10
143.1908846107
 20
94.8119529961
 11
141.749313087
 21
94.0072917512
  0
LINE
  5
3F4
100
AcDbEntity
  8
0
100
AcDbLine
 62
7
  6
CONTINUOUS
 10
142.5710630906
 20
93.6248528617
 11
143.9695272637
 21
94.362374487
  0
LINE
  5
3F5
100
AcDbEntity
  8
0
100
AcDbLine
 62
7
  6
CONTINUOUS
 10
176.2204829118
 20
112.4829336435
 11
175.5001467498
 21
112.1206002188
  0
LINE
  5
3F6
100
AcDbEntity
  8
0
100
AcDbLine
 62
7
  6
CONTINUOUS
 10
176.2936593641
 20
112.440682477
 11
175.3583475466
 21
111.9702044031
  0
LWPOLYLINE
  5
3F7
100
AcDbEntity
  8
0
100
AcDbPolyline
 62
7
  6
CONTINUOUS
 90
10
 70
0
 10
175.353487586
 20
113.0315345373
 10
175.3834989243
 20
113.0456651519
 10
175.4152556856
 20
113.0553268889
 10
175.4487578698
 20
113.0605197485
 10
175.4842794626
 20
113.0612202175
 10
175.5215464783
 20
113.0574518091
 10
175.5597369602
 20
113.0492850622
 10
175.5985769227
 20
113.0367434898
 10
175.6383403513
 20
113.0198035789
 10
175.679027246
 20
112.9984653295
  0
LINE
  5
3F8
100
AcDbEntity
  8
0
100
AcDbLine
 62
7
  6
CONTINUOUS
 10
175.9487801767
 20
112.6398113975
 11
175.5208339578
 21
112.4404088965
  0
LINE
  5
3F9
100
AcDbEntity
  8
0
100
AcDbLine
 62
7
  6
CONTINUOUS
 10
175.9660180059
 20
112.629858491
 11
175.504308378
 21
112.4147269824
  0
LWPOLYLINE
  5
3FA
100
AcDbEntity
  8
0
100
AcDbPolyline
 62
7
  6
CONTINUOUS
 90
4
 70
0
 10
195.8031580035
 20
87.2757402144
 10
195.7876484186
 20
87.2835765139
 10
195.7632183819
 20
87.298269027
 10
195.7390819047
 20
87.3151370439
  0
LWPOLYLINE
  5
3FB
100
AcDbEntity
  8
0
100
AcDbPolyline
 62
7
  6
CONTINUOUS
 90
22
 70
0
 10
193.2556400747
 20
86.5242146677
 10
193.2246352501
 20
86.5408944679
 10
193.1916686475
 20
86.5562690822
 10
193.1569047146
 20
86.5702618118
 10
193.120516863
 20
86.5828028524
 10
193.0826866112
 20
86.5938296384
 10
193.04360268
 20
86.6032871563
 10
193.0034600421
 20
86.6111282235
 10
192.9624589417
 20
86.6173137238
 10
192.9208039045
 20
86.6218127985
 10
192.878702725
 20
86.6246030004
 10
192.8363654246
 20
86.6256704067
 10
192.794003198
 20
86.6250096885
 10
192.7518273696
 20
86.6226241375
 10
192.7100483362
 20
86.6185256495
 10
192.6688745118
 20
86.612734665
 10
192.6285113576
 20
86.6052800806
 10
192.5891601653
 20
86.5961990714
 10
192.5510170665
 20
86.5855368801
 10
192.5142723076
 20
86.5733466493
 10
192.479109283
 20
86.5596891823
 10
192.4457034402
 20
86.544632588
  0
LINE
  5
3FC
100
AcDbEntity
  8
0
100
AcDbLine
 62
7
  6
CONTINUOUS
 10
175.9411371803
 20
94.2876323341
 11
104.7690635708
 21
135.3814956406
  0
LINE
  5
3FD
100
AcDbEntity
  8
0
100
AcDbLine
 62
7
  6
CONTINUOUS
 10
194.800933078
 20
85.6319818546
 11
193.2556400747
 21
86.5242118206
  0
LWPOLYLINE
  5
3FE
100
AcDbEntity
  8
0
100
AcDbPolyline
 62
7
  6
CONTINUOUS
 90
6
 70
0
 10
132.6187048255
 20
136.5601858909
 10
132.602325025
 20
136.5827526058
 10
132.5887448325
 20
136.6059306372
 10
132.5780320151
 20
136.6296043488
 10
132.5702400223
 20
136.6536556537
 10
132.5655186184
 20
136.6774067893
  0
LINE
  5
3FF
100
AcDbEntity
  8
0
100
AcDbLine
 62
7
  6
CONTINUOUS
 10
154.6302233573
 20
98.9883790881
 11
154.57559653
 21
99.1076594624
  0
LINE
  5
400
100
AcDbEntity
  8
0
100
AcDbLine
 62
7
  6
CONTINUOUS
 10
154.4680752871
 20
98.7455666141
 11
154.418091323
 21
98.8658967101
  0
LINE
  5
401
100
AcDbEntity
  8
0
100
AcDbLine
 62
7
  6
CONTINUOUS
 10
154.6802073215
 20
98.8680489921
 11
154.6302233573
 21
98.9883790881
  0
LINE
  5
402
100
AcDbEntity
  8
0
100
AcDbLine
 62
7
  6
CONTINUOUS
 10
154.5133195145
 20
98.6243554028
 11
154.4680752871
 21
98.7455666141
  0
LINE
  5
403
100
AcDbEntity
  8
0
100
AcDbLine
 62
7
  6
CONTINUOUS
 10
154.7254515489
 20
98.7468377808
 11
154.6802073215
 21
98.8680489921
  0
LINE
  5
404
100
AcDbEntity
  8
0
100
AcDbLine
 62
7
  6
CONTINUOUS
 10
154.5537469305
 20
98.5023671807
 11
154.5133195145
 21
98.6243554028
  0
LINE
  5
405
100
AcDbEntity
  8
0
100
AcDbLine
 62
7
  6
CONTINUOUS
 10
154.7658789649
 20
98.6248495587
 11
154.7254515489
 21
98.7468377808
  0
LINE
  5
406
100
AcDbEntity
  8
0
100
AcDbLine
 62
7
  6
CONTINUOUS
 10
154.5892868244
 20
98.3796542056
 11
154.5537469305
 21
98.5023671807
  0
LINE
  5
407
100
AcDbEntity
  8
0
100
AcDbLine
 62
7
  6
CONTINUOUS
 10
154.8014188588
 20
98.5021365836
 11
154.7658789649
 21
98.6248495587
  0
LINE
  5
408
100
AcDbEntity
  8
0
100
AcDbLine
 62
7
  6
CONTINUOUS
 10
154.6601474092
 20
95.3011417202
 11
154.6199137404
 21
95.448183322
  0
LINE
  5
409
100
AcDbEntity
  8
0
100
AcDbLine
 62
7
  6
CONTINUOUS
 10
154.6198656572
 20
98.2562319947
 11
154.5892868244
 21
98.3796542056
  0
LINE
  5
40A
100
AcDbEntity
  8
0
100
AcDbLine
 62
7
  6
CONTINUOUS
 10
154.8319976915
 20
98.3787143727
 11
154.8014188588
 21
98.5021365836
  0
LINE
  5
40B
100
AcDbEntity
  8
0
100
AcDbLine
 62
7
  6
CONTINUOUS
 10
154.4881811613
 20
95.0142408073
 11
154.4480153748
 21
95.1786593422
  0
LINE
  5
40C
100
AcDbEntity
  8
0
100
AcDbLine
 62
7
  6
CONTINUOUS
 10
154.7003131957
 20
95.1367231853
 11
154.6601474092
 21
95.3011417202
  0
LINE
  5
40D
100
AcDbEntity
  8
0
100
AcDbLine
 62
7
  6
CONTINUOUS
 10
153.5084104698
 20
98.4860638519
 11
153.5193819386
 21
98.4379853875
  0
LINE
  5
40E
100
AcDbEntity
  8
0
100
AcDbLine
 62
7
  6
CONTINUOUS
 10
154.5304930169
 20
94.8223948748
 11
154.4881811613
 21
95.0142408073
  0
LINE
  5
40F
100
AcDbEntity
  8
0
100
AcDbLine
 62
7
  6
CONTINUOUS
 10
154.7426250513
 20
94.9448772528
 11
154.7003131957
 21
95.1367231853
  0
LINE
  5
410
100
AcDbEntity
  8
0
100
AcDbLine
 62
7
  6
CONTINUOUS
 10
154.5707464846
 20
94.6289271391
 11
154.5304930169
 21
94.8223948748
  0
LINE
  5
411
100
AcDbEntity
  8
0
100
AcDbLine
 62
7
  6
CONTINUOUS
 10
154.782878519
 20
94.7514095171
 11
154.7426250513
 21
94.9448772528
  0
LINE
  5
412
100
AcDbEntity
  8
0
100
AcDbLine
 62
7
  6
CONTINUOUS
 10
154.6453978688
 20
98.1320919798
 11
154.6198656572
 21
98.2562319947
  0
LINE
  5
413
100
AcDbEntity
  8
0
100
AcDbLine
 62
7
  6
CONTINUOUS
 10
154.8575299032
 20
98.2545743578
 11
154.8319976915
 21
98.3787143727
  0
LINE
  5
414
100
AcDbEntity
  8
0
100
AcDbLine
 62
7
  6
CONTINUOUS
 10
154.9895014844
 20
92.5532089429
 11
154.5707464846
 21
94.6289271391
  0
LINE
  5
415
100
AcDbEntity
  8
0
100
AcDbLine
 62
7
  6
CONTINUOUS
 10
155.2016335188
 20
92.6756913209
 11
154.782878519
 21
94.7514095171
  0
LINE
  5
416
100
AcDbEntity
  8
0
100
AcDbLine
 62
7
  6
CONTINUOUS
 10
153.5193819386
 20
98.4379853875
 11
153.5285304861
 21
98.3900580718
  0
LINE
  5
417
100
AcDbEntity
  8
0
100
AcDbLine
 62
7
  6
CONTINUOUS
 10
154.6657837573
 20
98.0072068146
 11
154.6453978688
 21
98.1320919798
  0
LINE
  5
418
100
AcDbEntity
  8
0
100
AcDbLine
 62
7
  6
CONTINUOUS
 10
154.8779157917
 20
98.1296891926
 11
154.8575299032
 21
98.2545743578
  0
LINE
  5
419
100
AcDbEntity
  8
0
100
AcDbLine
 62
7
  6
CONTINUOUS
 10
153.5285304861
 20
98.3900580718
 11
153.5358313636
 21
98.3423321191
  0
LINE
  5
41A
100
AcDbEntity
  8
0
100
AcDbLine
 62
7
  6
CONTINUOUS
 10
154.6809038216
 20
97.8815369071
 11
154.6657837573
 21
98.0072068146
  0
LINE
  5
41B
100
AcDbEntity
  8
0
100
AcDbLine
 62
7
  6
CONTINUOUS
 10
154.893035856
 20
98.0040192851
 11
154.8779157917
 21
98.1296891926
  0
LINE
  5
41C
100
AcDbEntity
  8
0
100
AcDbLine
 62
7
  6
CONTINUOUS
 10
153.5358313636
 20
98.3423321191
 11
153.5412598224
 21
98.2948536613
  0
LWPOLYLINE
  5
41D
100
AcDbEntity
  8
0
100
AcDbPolyline
 62
7
  6
CONTINUOUS
 90
14
 70
0
 10
157.218207658
 20
127.7418426088
 10
157.2201883059
 20
127.6707153746
 10
157.2261223359
 20
127.602159837
 10
157.2359860239
 20
127.5364503374
 10
157.249739934
 20
127.473849781
 10
157.2673290436
 20
127.4146087402
 10
157.288682932
 20
127.3589644238
 10
157.3137161204
 20
127.3071395304
 10
157.3423284462
 20
127.2593413847
 10
157.3744054099
 20
127.2157612437
 10
157.4098186477
 20
127.1765734876
 10
157.4484264459
 20
127.1419349193
 10
157.490074311
 20
127.111984136
 10
157.5081233471
 20
127.1010109918
  0
LINE
  5
41E
100
AcDbEntity
  8
0
100
AcDbLine
 62
7
  6
CONTINUOUS
 10
158.2204226927
 20
125.8707039716
 11
158.2204325835
 21
122.1248182956
  0
LINE
  5
41F
100
AcDbEntity
  8
0
100
AcDbLine
 62
7
  6
CONTINUOUS
 10
158.6304830898
 20
125.2957098091
 11
158.6304855556
 21
121.5110630287
  0
LWPOLYLINE
  5
420
100
AcDbEntity
  8
0
100
AcDbPolyline
 62
7
  6
CONTINUOUS
 90
22
 70
0
 10
158.6304830898
 20
121.5110644524
 10
158.629424889
 20
121.4758752598
 10
158.6262555533
 20
121.4396395866
 10
158.6209908872
 20
121.4025381897
 10
158.6136571474
 20
121.3647561444
 10
158.604290913
 20
121.3264819238
 10
158.5929389038
 20
121.2879064586
 10
158.5796577461
 20
121.2492221848
 10
158.5645136867
 20
121.2106220737
 10
158.5475822628
 20
121.1722986724
 10
158.5289479306
 20
121.1344431565
 10
158.5087036428
 20
121.0972443716
 10
158.4869503805
 20
121.0608878815
 10
158.4637966543
 20
121.0255550535
 10
158.4393579634
 20
120.9914221519
 10
158.4137562167
 20
120.9586594542
 10
158.3871191675
 20
120.9274304505
 10
158.3595796544
 20
120.8978908834
 10
158.3312749257
 20
120.8701879964
 10
158.3023461263
 20
120.8444599843
 10
158.2729376065
 20
120.8208352754
 10
158.2431960712
 20
120.7994317651
  0
LINE
  5
421
100
AcDbEntity
  8
0
100
AcDbLine
 62
7
  6
CONTINUOUS
 10
154.5700492773
 20
96.8998967964
 11
154.6036467489
 21
96.9849368328
  0
LINE
  5
422
100
AcDbEntity
  8
0
100
AcDbLine
 62
7
  6
CONTINUOUS
 10
154.7821813117
 20
97.0223791744
 11
154.8157787833
 21
97.1074192108
  0
LINE
  5
423
100
AcDbEntity
  8
0
100
AcDbLine
 62
7
  6
CONTINUOUS
 10
154.5314412471
 20
96.8209021855
 11
154.5700492773
 21
96.8998967964
  0
LINE
  5
424
100
AcDbEntity
  8
0
100
AcDbLine
 62
7
  6
CONTINUOUS
 10
154.7435732814
 20
96.9433845635
 11
154.7821813117
 21
97.0223791744
  0
LINE
  5
425
100
AcDbEntity
  8
0
100
AcDbLine
 62
7
  6
CONTINUOUS
 10
154.487913875
 20
96.7479917773
 11
154.5314412471
 21
96.8209021855
  0
LINE
  5
426
100
AcDbEntity
  8
0
100
AcDbLine
 62
7
  6
CONTINUOUS
 10
154.7000459093
 20
96.8704741553
 11
154.7435732814
 21
96.9433845635
  0
LINE
  5
427
100
AcDbEntity
  8
0
100
AcDbLine
 62
7
  6
CONTINUOUS
 10
154.4395859549
 20
96.6812545605
 11
154.487913875
 21
96.7479917773
  0
LINE
  5
428
100
AcDbEntity
  8
0
100
AcDbLine
 62
7
  6
CONTINUOUS
 10
154.6517179893
 20
96.8037369385
 11
154.7000459093
 21
96.8704741553
  0
LINE
  5
429
100
AcDbEntity
  8
0
100
AcDbLine
 62
7
  6
CONTINUOUS
 10
153.4318725247
 20
97.674886532
 11
153.4123549633
 21
97.649381906
  0
LINE
  5
42A
100
AcDbEntity
  8
0
100
AcDbLine
 62
7
  6
CONTINUOUS
 10
154.3866250712
 20
96.6208329999
 11
154.4395859549
 21
96.6812545605
  0
LINE
  5
42B
100
AcDbEntity
  8
0
100
AcDbLine
 62
7
  6
CONTINUOUS
 10
154.5987571056
 20
96.7433153779
 11
154.6517179893
 21
96.8037369385
  0
LINE
  5
42C
100
AcDbEntity
  8
0
100
AcDbLine
 62
7
  6
CONTINUOUS
 10
153.4123549633
 20
97.649381906
 11
153.3914026823
 21
97.6263157486
  0
LINE
  5
42D
100
AcDbEntity
  8
0
100
AcDbLine
 62
7
  6
CONTINUOUS
 10
154.3292822468
 20
96.5669299741
 11
154.3866250712
 21
96.6208329999
  0
LINE
  5
42E
100
AcDbEntity
  8
0
100
AcDbLine
 62
7
  6
CONTINUOUS
 10
154.5414142811
 20
96.6894123521
 11
154.5987571056
 21
96.7433153779
  0
LINE
  5
42F
100
AcDbEntity
  8
0
100
AcDbLine
 62
7
  6
CONTINUOUS
 10
153.3914026823
 20
97.6263157486
 11
153.3690064892
 21
97.6056394803
  0
LWPOLYLINE
  5
430
100
AcDbEntity
  8
0
100
AcDbPolyline
 62
7
  6
CONTINUOUS
 90
16
 70
0
 10
146.7033344017
 20
89.524043121
 10
146.7479051252
 20
89.5613393447
 10
146.7906784326
 20
89.6045146446
 10
146.8316543241
 20
89.6535690208
 10
146.8710840796
 20
89.7083885928
 10
146.9087164191
 20
89.769087241
 10
146.9437975031
 20
89.8360066065
 10
146.9764046379
 20
89.909576616
 10
147.0064605172
 20
89.9893673428
 10
147.0329793827
 20
90.0744306476
 10
147.0558611849
 20
90.165237917
 10
147.0752059734
 20
90.2613177644
 10
147.0903281381
 20
90.3603078909
 10
147.1009991425
 20
90.4614208633
 10
147.1074475232
 20
90.5654441147
 10
147.1096732802
 20
90.6723776451
  0
LINE
  5
431
100
AcDbEntity
  8
0
100
AcDbLine
 62
7
  6
CONTINUOUS
 10
153.3690064892
 20
97.6056394803
 11
153.3451515348
 21
97.587315136
  0
LINE
  5
432
100
AcDbEntity
  8
0
100
AcDbLine
 62
7
  6
CONTINUOUS
 10
154.2679456833
 20
96.5198087734
 11
154.3292822468
 21
96.5669299741
  0
LINE
  5
433
100
AcDbEntity
  8
0
100
AcDbLine
 62
7
  6
CONTINUOUS
 10
154.4800777176
 20
96.6422911514
 11
154.5414142811
 21
96.6894123521
  0
LWPOLYLINE
  5
434
100
AcDbEntity
  8
0
100
AcDbPolyline
 62
7
  6
CONTINUOUS
 90
3
 70
0
 10
146.9154664361
 20
89.646525499
 10
146.8626445482
 20
89.6094892925
 10
146.844201416
 20
89.5983936146
  0
LINE
  5
435
100
AcDbEntity
  8
0
100
AcDbLine
 62
7
  6
CONTINUOUS
 10
144.8713756234
 20
93.0096842105
 11
144.8930951441
 21
93.0236368854
  0
LINE
  5
436
100
AcDbEntity
  8
0
100
AcDbLine
 62
7
  6
CONTINUOUS
 10
146.2204760082
 20
90.1401386066
 11
146.1972969278
 21
90.1254322978
  0
LINE
  5
437
100
AcDbEntity
  8
0
100
AcDbLine
 62
7
  6
CONTINUOUS
 10
153.3451515348
 20
97.587315136
 11
153.3198144846
 21
97.5713194476
  0
LINE
  5
438
100
AcDbEntity
  8
0
100
AcDbLine
 62
7
  6
CONTINUOUS
 10
154.2032263209
 20
96.479798401
 11
154.2679456833
 21
96.5198087734
  0
LINE
  5
439
100
AcDbEntity
  8
0
100
AcDbLine
 62
7
  6
CONTINUOUS
 10
154.4153583553
 20
96.602280779
 11
154.4800777176
 21
96.6422911514
  0
LWPOLYLINE
  5
43A
100
AcDbEntity
  8
0
100
AcDbPolyline
 62
7
  6
CONTINUOUS
 90
3
 70
0
 10
144.4597320815
 20
93.6746191669
 10
144.4414541926
 20
93.6636248766
 10
144.3885287046
 20
93.6264885436
  0
LWPOLYLINE
  5
43B
100
AcDbEntity
  8
0
100
AcDbPolyline
 62
7
  6
CONTINUOUS
 90
4
 70
0
 10
179.7239750031
 20
110.4081537645
 10
179.7184116463
 20
110.4048292072
 10
179.7154673709
 20
110.4030211564
 10
179.7149647041
 20
110.4026648302
  0
LINE
  5
43C
100
AcDbEntity
  8
0
100
AcDbLine
 62
7
  6
CONTINUOUS
 10
179.7560314525
 20
110.4270196831
 11
179.7239750031
 21
110.4081537645
  0
LINE
  5
43D
100
AcDbEntity
  8
0
100
AcDbLine
 62
7
  6
CONTINUOUS
 10
179.809866389
 20
110.458477268
 11
179.7560314525
 21
110.4270196831
  0
LINE
  5
43E
100
AcDbEntity
  8
0
100
AcDbLine
 62
7
  6
CONTINUOUS
 10
180.3338485995
 20
109.5540415642
 11
180.2561114195
 21
109.508542266
  0
LINE
  5
43F
100
AcDbEntity
  8
0
100
AcDbLine
 62
7
  6
CONTINUOUS
 10
152.1069566493
 20
98.2239322075
 11
151.8948246149
 21
98.1014498295
  0
LINE
  5
440
100
AcDbEntity
  8
0
100
AcDbLine
 62
7
  6
CONTINUOUS
 10
154.2360770863
 20
99.3696560098
 11
154.1734641965
 21
99.3335041119
  0
LINE
  5
441
100
AcDbEntity
  8
0
100
AcDbLine
 62
7
  6
CONTINUOUS
 10
144.6719486646
 20
93.7969551712
 11
144.4598166303
 21
93.6744727932
  0
LINE
  5
442
100
AcDbEntity
  8
0
100
AcDbLine
 62
7
  6
CONTINUOUS
 10
154.3685691739
 20
99.2931567389
 11
154.2408938991
 21
99.2194386354
  0
LINE
  5
443
100
AcDbEntity
  8
0
100
AcDbLine
 62
7
  6
CONTINUOUS
 10
141.9614564351
 20
92.0121866163
 11
141.7493244007
 21
91.8897042383
  0
LINE
  5
444
100
AcDbEntity
  8
0
100
AcDbLine
 62
7
  6
CONTINUOUS
 10
154.5009894648
 20
99.2166989226
 11
154.3043305698
 21
99.1031505413
  0
LINE
  5
445
100
AcDbEntity
  8
0
100
AcDbLine
 62
7
  6
CONTINUOUS
 10
154.57559653
 20
99.1076594624
 11
154.3634644957
 21
98.9851770844
  0
LINE
  5
446
100
AcDbEntity
  8
0
100
AcDbLine
 62
7
  6
CONTINUOUS
 10
154.6302233573
 20
98.9883790881
 11
154.418091323
 21
98.8658967101
  0
LINE
  5
447
100
AcDbEntity
  8
0
100
AcDbLine
 62
7
  6
CONTINUOUS
 10
152.8069937769
 20
97.8197395436
 11
152.5948617425
 21
97.6972571656
  0
LINE
  5
448
100
AcDbEntity
  8
0
100
AcDbLine
 62
7
  6
CONTINUOUS
 10
152.8302625397
 20
97.807074383
 11
152.6181305054
 21
97.684592005
  0
LINE
  5
449
100
AcDbEntity
  8
0
100
AcDbLine
 62
7
  6
CONTINUOUS
 10
154.6802073215
 20
98.8680489921
 11
154.4680752871
 21
98.7455666141
  0
LINE
  5
44A
100
AcDbEntity
  8
0
100
AcDbLine
 62
7
  6
CONTINUOUS
 10
152.8879426541
 20
97.777199783
 11
152.6758106197
 21
97.654717405
  0
LINE
  5
44B
100
AcDbEntity
  8
0
100
AcDbLine
 62
7
  6
CONTINUOUS
 10
145.7581496483
 20
93.658627568
 11
145.546017614
 21
93.53614519
  0
LINE
  5
44C
100
AcDbEntity
  8
0
100
AcDbLine
 62
7
  6
CONTINUOUS
 10
152.9433989176
 20
97.7506536482
 11
152.7312668832
 21
97.6281712702
  0
LINE
  5
44D
100
AcDbEntity
  8
0
100
AcDbLine
 62
7
  6
CONTINUOUS
 10
154.7254515489
 20
98.7468377808
 11
154.5133195145
 21
98.6243554028
  0
LINE
  5
44E
100
AcDbEntity
  8
0
100
AcDbLine
 62
7
  6
CONTINUOUS
 10
152.9966355729
 20
97.7273526984
 11
152.7845035386
 21
97.6048703204
  0
LINE
  5
44F
100
AcDbEntity
  8
0
100
AcDbLine
 62
7
  6
CONTINUOUS
 10
153.0476681764
 20
97.7072079374
 11
152.8355361421
 21
97.5847255594
  0
LINE
  5
450
100
AcDbEntity
  8
0
100
AcDbLine
 62
7
  6
CONTINUOUS
 10
153.096529255
 20
97.6901254694
 11
152.8843972207
 21
97.5676430914
  0
LINE
  5
451
100
AcDbEntity
  8
0
100
AcDbLine
 62
7
  6
CONTINUOUS
 10
154.7658789649
 20
98.6248495587
 11
154.5537469305
 21
98.5023671807
  0
LINE
  5
452
100
AcDbEntity
  8
0
100
AcDbLine
 62
7
  6
CONTINUOUS
 10
153.1432576995
 20
97.6760101733
 11
152.9311256652
 21
97.5535277953
  0
LINE
  5
453
100
AcDbEntity
  8
0
100
AcDbLine
 62
7
  6
CONTINUOUS
 10
153.1879008862
 20
97.6647701936
 11
152.9757688518
 21
97.5422878156
  0
LINE
  5
454
100
AcDbEntity
  8
0
100
AcDbLine
 62
7
  6
CONTINUOUS
 10
153.2305111408
 20
97.6563132664
 11
153.0183791065
 21
97.5338308884
  0
LINE
  5
455
100
AcDbEntity
  8
0
100
AcDbLine
 62
7
  6
CONTINUOUS
 10
153.271145032
 20
97.6505544754
 11
153.0590129976
 21
97.5280720974
  0
LINE
  5
456
100
AcDbEntity
  8
0
100
AcDbLine
 62
7
  6
CONTINUOUS
 10
153.3098605425
 20
97.6474146199
 11
153.0977285081
 21
97.5249322419
  0
LINE
  5
457
100
AcDbEntity
  8
0
100
AcDbLine
 62
7
  6
CONTINUOUS
 10
154.8014188588
 20
98.5021365836
 11
154.5892868244
 21
98.3796542056
  0
LINE
  5
458
100
AcDbEntity
  8
0
100
AcDbLine
 62
7
  6
CONTINUOUS
 10
153.3467170692
 20
97.6468193977
 11
153.1345850349
 21
97.5243370197
  0
LINE
  5
459
100
AcDbEntity
  8
0
100
AcDbLine
 62
7
  6
CONTINUOUS
 10
153.3817740092
 20
97.6487051209
 11
153.1696419749
 21
97.5262227429
  0
LINE
  5
45A
100
AcDbEntity
  8
0
100
AcDbLine
 62
7
  6
CONTINUOUS
 10
153.4114637893
 20
97.6509253653
 11
153.2029551895
 21
97.5305351131
  0
LINE
  5
45B
100
AcDbEntity
  8
0
100
AcDbLine
 62
7
  6
CONTINUOUS
 10
153.3907700216
 20
97.6274114785
 11
153.2345798332
 21
97.5372292212
  0
LINE
  5
45C
100
AcDbEntity
  8
0
100
AcDbLine
 62
7
  6
CONTINUOUS
 10
153.3427767117
 20
97.5914281853
 11
153.2645675247
 21
97.546271181
  0
LINE
  5
45D
100
AcDbEntity
  8
0
100
AcDbLine
 62
7
  6
CONTINUOUS
 10
153.3190254702
 20
97.5726859726
 11
153.292964933
 21
97.5576389451
  0
LINE
  5
45E
100
AcDbEntity
  8
0
100
AcDbLine
 62
7
  6
CONTINUOUS
 10
154.8319976915
 20
98.3787143727
 11
154.6198656572
 21
98.2562319947
  0
LINE
  5
45F
100
AcDbEntity
  8
0
100
AcDbLine
 62
7
  6
CONTINUOUS
 10
154.8575299032
 20
98.2545743578
 11
154.6453978688
 21
98.1320919798
  0
LINE
  5
460
100
AcDbEntity
  8
0
100
AcDbLine
 62
7
  6
CONTINUOUS
 10
154.8779157917
 20
98.1296891926
 11
154.6657837573
 21
98.0072068146
  0
LINE
  5
461
100
AcDbEntity
  8
0
100
AcDbLine
 62
7
  6
CONTINUOUS
 10
144.7786516604
 20
92.2628807086
 11
144.566519626
 21
92.1403983306
  0
LINE
  5
462
100
AcDbEntity
  8
0
100
AcDbLine
 62
7
  6
CONTINUOUS
 10
154.893035856
 20
98.0040192851
 11
154.6809038216
 21
97.8815369071
  0
LINE
  5
463
100
AcDbEntity
  8
0
100
AcDbLine
 62
7
  6
CONTINUOUS
 10
154.9027486747
 20
97.8775221867
 11
154.6906166404
 21
97.7550398087
  0
LINE
  5
464
100
AcDbEntity
  8
0
100
AcDbLine
 62
7
  6
CONTINUOUS
 10
150.5678694436
 20
95.3511686232
 11
150.3557374092
 21
95.2286862452
  0
LINE
  5
465
100
AcDbEntity
  8
0
100
AcDbLine
 62
7
  6
CONTINUOUS
 10
154.9070401058
 20
97.7478170709
 11
154.6949080714
 21
97.6253346929
  0
LINE
  5
466
100
AcDbEntity
  8
0
100
AcDbLine
 62
7
  6
CONTINUOUS
 10
154.9055148765
 20
97.6249804275
 11
154.6933828421
 21
97.5024980495
  0
LINE
  5
467
100
AcDbEntity
  8
0
100
AcDbLine
 62
7
  6
CONTINUOUS
 10
154.8983412782
 20
97.508801598
 11
154.6862092438
 21
97.38631922
  0
LINE
  5
468
100
AcDbEntity
  8
0
100
AcDbLine
 62
7
  6
CONTINUOUS
 10
154.8856642678
 20
97.3990964601
 11
154.6735322335
 21
97.2766140821
  0
LINE
  5
469
100
AcDbEntity
  8
0
100
AcDbLine
 62
7
  6
CONTINUOUS
 10
154.8676090033
 20
97.2957078364
 11
154.6554769689
 21
97.1732254584
  0
LINE
  5
46A
100
AcDbEntity
  8
0
100
AcDbLine
 62
7
  6
CONTINUOUS
 10
154.8442829648
 20
97.1985116174
 11
154.6321509304
 21
97.0760292394
  0
LINE
  5
46B
100
AcDbEntity
  8
0
100
AcDbLine
 62
7
  6
CONTINUOUS
 10
154.8157787833
 20
97.1074192108
 11
154.6036467489
 21
96.9849368328
  0
LINE
  5
46C
100
AcDbEntity
  8
0
100
AcDbLine
 62
7
  6
CONTINUOUS
 10
154.7821813117
 20
97.0223791744
 11
154.5700492773
 21
96.8998967964
  0
LINE
  5
46D
100
AcDbEntity
  8
0
100
AcDbLine
 62
7
  6
CONTINUOUS
 10
154.7435732814
 20
96.9433845635
 11
154.5314412471
 21
96.8209021855
  0
LINE
  5
46E
100
AcDbEntity
  8
0
100
AcDbLine
 62
7
  6
CONTINUOUS
 10
146.9154664361
 20
92.4124311234
 11
146.7033344017
 21
92.2899487454
  0
LINE
  5
46F
100
AcDbEntity
  8
0
100
AcDbLine
 62
7
  6
CONTINUOUS
 10
154.7000459093
 20
96.8704741553
 11
154.487913875
 21
96.7479917773
  0
LINE
  5
470
100
AcDbEntity
  8
0
100
AcDbLine
 62
7
  6
CONTINUOUS
 10
153.9237875523
 20
96.3997003215
 11
153.8646805646
 21
96.3655726876
  0
LINE
  5
471
100
AcDbEntity
  8
0
100
AcDbLine
 62
7
  6
CONTINUOUS
 10
154.6517179893
 20
96.8037369385
 11
154.4395859549
 21
96.6812545605
  0
LINE
  5
472
100
AcDbEntity
  8
0
100
AcDbLine
 62
7
  6
CONTINUOUS
 10
154.5987571056
 20
96.7433153779
 11
154.3866250712
 21
96.6208329999
  0
LINE
  5
473
100
AcDbEntity
  8
0
100
AcDbLine
 62
7
  6
CONTINUOUS
 10
144.1893243355
 20
90.7258436123
 11
143.9771923012
 21
90.6033612343
  0
LINE
  5
474
100
AcDbEntity
  8
0
100
AcDbLine
 62
7
  6
CONTINUOUS
 10
154.5414142811
 20
96.6894123521
 11
154.3292822468
 21
96.5669299741
  0
LINE
  5
475
100
AcDbEntity
  8
0
100
AcDbLine
 62
7
  6
CONTINUOUS
 10
154.4800777176
 20
96.6422911514
 11
154.2679456833
 21
96.5198087734
  0
LINE
  5
476
100
AcDbEntity
  8
0
100
AcDbLine
 62
7
  6
CONTINUOUS
 10
154.4153583553
 20
96.602280779
 11
154.3354955129
 21
96.5561689748
  0
LINE
  5
477
100
AcDbEntity
  8
0
100
AcDbLine
 62
7
  6
CONTINUOUS
 10
154.1365348377
 20
96.4225103982
 11
153.9244028034
 21
96.3000280202
  0
LINE
  5
478
100
AcDbEntity
  8
0
100
AcDbLine
 62
7
  6
CONTINUOUS
 10
154.1936365387
 20
96.3525855141
 11
153.9815045044
 21
96.2301031361
  0
LINE
  5
479
100
AcDbEntity
  8
0
100
AcDbLine
 62
7
  6
CONTINUOUS
 10
145.0835076578
 20
91.0415746386
 11
144.8713756234
 21
90.9190922606
  0
LINE
  5
47A
100
AcDbEntity
  8
0
100
AcDbLine
 62
7
  6
CONTINUOUS
 10
154.2483651894
 20
96.2779758558
 11
154.036233155
 21
96.1554934778
  0
LINE
  5
47B
100
AcDbEntity
  8
0
100
AcDbLine
 62
7
  6
CONTINUOUS
 10
154.3009343359
 20
96.1983009365
 11
154.0888023016
 21
96.0758185585
  0
LINE
  5
47C
100
AcDbEntity
  8
0
100
AcDbLine
 62
7
  6
CONTINUOUS
 10
154.3515172195
 20
96.1131047478
 11
154.1393851852
 21
95.9906223698
  0
LINE
  5
47D
100
AcDbEntity
  8
0
100
AcDbLine
 62
7
  6
CONTINUOUS
 10
147.8932726919
 20
92.3418178087
 11
147.6811406576
 21
92.2193354307
  0
LINE
  5
47E
100
AcDbEntity
  8
0
100
AcDbLine
 62
7
  6
CONTINUOUS
 10
154.4002552615
 20
96.0218549431
 11
154.1881232272
 21
95.8993725651
  0
LINE
  5
47F
100
AcDbEntity
  8
0
100
AcDbLine
 62
7
  6
CONTINUOUS
 10
154.4472580635
 20
95.9239314072
 11
154.2351260291
 21
95.8014490292
  0
LINE
  5
480
100
AcDbEntity
  8
0
100
AcDbLine
 62
7
  6
CONTINUOUS
 10
154.4926196706
 20
95.8186078846
 11
154.2804876362
 21
95.6961255066
  0
LINE
  5
481
100
AcDbEntity
  8
0
100
AcDbLine
 62
7
  6
CONTINUOUS
 10
152.1475735699
 20
94.439067259
 11
151.9354415355
 21
94.316584881
  0
LINE
  5
482
100
AcDbEntity
  8
0
100
AcDbLine
 62
7
  6
CONTINUOUS
 10
154.5364277641
 20
95.7050107471
 11
154.3242957298
 21
95.5825283691
  0
LINE
  5
483
100
AcDbEntity
  8
0
100
AcDbLine
 62
7
  6
CONTINUOUS
 10
154.5787961882
 20
95.5820381617
 11
154.3666641539
 21
95.4595557837
  0
LINE
  5
484
100
AcDbEntity
  8
0
100
AcDbLine
 62
7
  6
CONTINUOUS
 10
148.460686993
 20
92.0141999027
 11
148.2485549586
 21
91.8917175247
  0
LINE
  5
485
100
AcDbEntity
  8
0
100
AcDbLine
 62
7
  6
CONTINUOUS
 10
154.6199137404
 20
95.448183322
 11
154.4077817061
 21
95.325700944
  0
LINE
  5
486
100
AcDbEntity
  8
0
100
AcDbLine
 62
7
  6
CONTINUOUS
 10
145.7596643182
 20
90.3303336578
 11
145.5475322838
 21
90.2078512798
  0
LINE
  5
487
100
AcDbEntity
  8
0
100
AcDbLine
 62
7
  6
CONTINUOUS
 10
154.6601474092
 20
95.3011417202
 11
154.4480153748
 21
95.1786593422
  0
LINE
  5
488
100
AcDbEntity
  8
0
100
AcDbLine
 62
7
  6
CONTINUOUS
 10
154.7003131957
 20
95.1367231853
 11
154.4881811613
 21
95.0142408073
  0
LINE
  5
489
100
AcDbEntity
  8
0
100
AcDbLine
 62
7
  6
CONTINUOUS
 10
147.3218053145
 20
90.7948600231
 11
147.1096732802
 21
90.6723776451
  0
LINE
  5
48A
100
AcDbEntity
  8
0
100
AcDbLine
 62
7
  6
CONTINUOUS
 10
154.7426250513
 20
94.9448772528
 11
154.5304930169
 21
94.8223948748
  0
LINE
  5
48B
100
AcDbEntity
  8
0
100
AcDbLine
 62
7
  6
CONTINUOUS
 10
154.782878519
 20
94.7514095171
 11
154.5707464846
 21
94.6289271391
  0
LWPOLYLINE
  5
48C
100
AcDbEntity
  8
0
100
AcDbPolyline
 62
7
  6
CONTINUOUS
 90
4
 70
0
 10
144.8930951441
 20
93.0236368854
 10
144.9009826504
 20
93.0280982974
 10
144.9333281958
 20
93.0435695251
 10
144.9684122597
 20
93.0560978935
  0
LWPOLYLINE
  5
48D
100
AcDbEntity
  8
0
100
AcDbPolyline
 62
7
  6
CONTINUOUS
 90
4
 70
0
 10
146.1972969278
 20
90.1254322978
 10
146.1893884929
 20
90.1209733141
 10
146.1560761728
 20
90.1049066326
 10
146.120539048
 20
90.0919385621
  0
LWPOLYLINE
  5
48E
100
AcDbEntity
  8
0
100
AcDbPolyline
 62
7
  6
CONTINUOUS
 90
7
 70
0
 10
178.7072621744
 20
110.8844692132
 10
178.7119377338
 20
110.8870854846
 10
178.737081647
 20
110.9042317881
 10
178.7598228599
 20
110.9252405878
 10
178.7799882995
 20
110.9499520171
 10
178.7974245352
 20
110.9781780511
 10
178.8035773736
 20
110.991487275
  0
LINE
  5
48F
100
AcDbEntity
  8
0
100
AcDbLine
 62
7
  6
CONTINUOUS
 10
178.8525155936
 20
110.9632309602
 11
178.7072621744
 21
110.8844692132
  0
LWPOLYLINE
  5
490
100
AcDbEntity
  8
0
100
AcDbPolyline
 62
7
  6
CONTINUOUS
 90
15
 70
0
 10
144.6718809865
 20
93.7970723365
 10
144.7100270627
 20
93.817389748
 10
144.7703336377
 20
93.8431515652
 10
144.8346233356
 20
93.8634808384
 10
144.9026619755
 20
93.8781783809
 10
144.9737470156
 20
93.8866466323
 10
145.0475555257
 20
93.8888801078
 10
145.1244104359
 20
93.8848842921
 10
145.2045779945
 20
93.8740780792
 10
145.2880555368
 20
93.8565060143
 10
145.3748457276
 20
93.8321235523
 10
145.4652228098
 20
93.8002159508
 10
145.5592781979
 20
93.7605449626
 10
145.6569204774
 20
93.713348835
 10
145.7581496483
 20
93.658627568
  0
LINE
  5
491
100
AcDbEntity
  8
0
100
AcDbLine
 62
7
  6
CONTINUOUS
 10
153.3198144846
 20
97.5713194476
 11
153.292964933
 21
97.5576389451
  0
LINE
  5
492
100
AcDbEntity
  8
0
100
AcDbLine
 62
7
  6
CONTINUOUS
 10
141.749313087
 20
93.1909300649
 11
142.1645855859
 21
93.3983466804
  0
LWPOLYLINE
  5
493
100
AcDbEntity
  8
0
100
AcDbPolyline
 62
7
  6
CONTINUOUS
 90
15
 70
0
 10
178.7072621744
 20
110.8844692132
 10
178.6667716776
 20
110.8644479969
 10
178.6247262842
 20
110.8474705817
 10
178.5814082695
 20
110.8336862105
 10
178.5372346049
 20
110.8232335626
 10
178.4923994276
 20
110.8161507087
 10
178.4468536368
 20
110.8124645258
 10
178.4008238998
 20
110.8122665334
 10
178.3547347018
 20
110.8156178097
 10
178.3088239079
 20
110.8225474159
 10
178.263421413
 20
110.8330513816
 10
178.2188635422
 20
110.8470859182
 10
178.1753650999
 20
110.8646197807
 10
178.133076494
 20
110.8856576729
 10
178.1211995556
 20
110.8923379686
  0
LINE
  5
494
100
AcDbEntity
  8
0
100
AcDbLine
 62
7
  6
CONTINUOUS
 10
154.1360914818
 20
96.4472915253
 11
154.2032263209
 21
96.479798401
  0
LINE
  5
495
100
AcDbEntity
  8
0
100
AcDbLine
 62
7
  6
CONTINUOUS
 10
153.292964933
 20
97.5576389451
 11
153.2645675247
 21
97.546271181
  0
LINE
  5
496
100
AcDbEntity
  8
0
100
AcDbLine
 62
7
  6
CONTINUOUS
 10
154.068104579
 20
96.4227244623
 11
154.1360914818
 21
96.4472915253
  0
LINE
  5
497
100
AcDbEntity
  8
0
100
AcDbLine
 62
7
  6
CONTINUOUS
 10
153.2645675247
 20
97.546271181
 11
153.2345798332
 21
97.5372292212
  0
LWPOLYLINE
  5
498
100
AcDbEntity
  8
0
100
AcDbPolyline
 62
7
  6
CONTINUOUS
 90
25
 70
0
 10
107.282155871
 20
102.1027416044
 10
107.1234998808
 20
102.0628309432
 10
106.9615322076
 20
102.0276332107
 10
106.7966724781
 20
101.9972395971
 10
106.6293478126
 20
101.971728846
 10
106.4599917153
 20
101.9511670505
 10
106.2890429505
 20
101.9356074832
 10
106.1169444115
 20
101.9250904563
 10
105.944141973
 20
101.9196432174
 10
105.7710833316
 20
101.9192798794
 10
105.5982168482
 20
101.9240013839
 10
105.4259903861
 20
101.9337954988
 10
105.2548501497
 20
101.9486368497
 10
105.08523953
 20
101.9684869858
 10
104.9175979549
 20
101.9932944798
 10
104.7523597508
 20
102.0229950605
 10
104.5899530176
 20
102.0575117799
 10
104.4307985196
 20
102.0967552122
 10
104.275308595
 20
102.1406236858
 10
104.123886085
 20
102.1890035467
 10
103.9769232992
 20
102.2417694522
 10
103.8348009984
 20
102.2987846949
 10
103.6978873956
 20
102.3599015581
 10
103.5665372039
 20
102.4249617002
 10
103.4410907251
 20
102.4937965627
  0
LWPOLYLINE
  5
499
100
AcDbEntity
  8
0
100
AcDbPolyline
 62
7
  6
CONTINUOUS
 90
11
 70
0
 10
107.3613711148
 20
126.4285653706
 10
107.3584947283
 20
126.4294011267
 10
107.351916582
 20
126.4314406018
 10
107.3507523166
 20
126.4318285761
 10
107.3547821468
 20
126.430288822
 10
107.3635061865
 20
126.426692905
 10
107.3767310799
 20
126.4208339546
 10
107.3941799626
 20
126.4125673304
 10
107.4151361592
 20
126.4020065967
 10
107.4391714817
 20
126.3891882347
 10
107.4673294643
 20
126.3733446361
  0
LWPOLYLINE
  5
49A
100
AcDbEntity
  8
0
100
AcDbPolyline
 62
7
  6
CONTINUOUS
 90
18
 70
0
 10
104.7690635708
 20
135.3814956406
 10
104.6337738687
 20
135.4425840797
 10
104.4994201944
 20
135.4963283551
 10
104.3663672495
 20
135.5425825784
 10
104.234976205
 20
135.5812211929
 10
104.1056037209
 20
135.6121393144
 10
103.978600978
 20
135.6352530159
 10
103.8543127243
 20
135.6504995554
 10
103.7330763389
 20
135.6578375464
 10
103.6152209161
 20
135.65724707
 10
103.5010663733
 20
135.648729729
 10
103.3909225821
 20
135.6323086435
 10
103.2850885274
 20
135.6080283883
 10
103.1838514946
 20
135.575954872
 10
103.0874862909
 20
135.5361751579
 10
102.9962544987
 20
135.4887972276
 10
102.910403766
 20
135.433949688
 10
102.8565667703
 20
135.3935406281
  0
LWPOLYLINE
  5
49B
100
AcDbEntity
  8
0
100
AcDbPolyline
 62
7
  6
CONTINUOUS
 90
22
 70
0
 10
195.5625519
 20
89.3198511592
 10
195.5315200397
 20
89.3365445098
 10
195.4985233598
 20
89.3519303418
 10
195.4637267575
 20
89.3659317877
 10
195.4273038898
 20
89.3784789724
 10
195.3894369818
 20
89.3895091224
 10
195.350316001
 20
89.3989669756
 10
195.3101372111
 20
89.4068052563
 10
195.2691007367
 20
89.4129850913
 10
195.2274102094
 20
89.4174758408
 10
195.1852718989
 20
89.4202550965
 10
195.1428983023
 20
89.4213086556
 10
195.1005057048
 20
89.4206313559
 10
195.058308558
 20
89.4182272842
 10
195.0165148095
 20
89.4141089508
 10
194.9753295685
 20
89.4082968473
 10
194.9349368586
 20
89.4008155588
 10
194.8955610315
 20
89.3917052256
 10
194.857456571
 20
89.3810290881
 10
194.8208257482
 20
89.3688542183
 10
194.7858235085
 20
89.3552428921
 10
194.7526152655
 20
89.3402690796
  0
LINE
  5
49C
100
AcDbEntity
  8
0
100
AcDbLine
 62
7
  6
CONTINUOUS
 10
195.7390898209
 20
87.3151338007
 11
194.3110392805
 21
88.1396805727
  0
LINE
  5
49D
100
AcDbEntity
  8
0
100
AcDbLine
 62
7
  6
CONTINUOUS
 10
195.8031580035
 20
88.2274288284
 11
195.160492097
 21
88.5984960683
  0
LINE
  5
49E
100
AcDbEntity
  8
0
100
AcDbLine
 62
7
  6
CONTINUOUS
 10
195.8031580035
 20
89.1809282105
 11
195.5625519
 21
89.3198511592
  0
LWPOLYLINE
  5
49F
100
AcDbEntity
  8
0
100
AcDbPolyline
 62
7
  6
CONTINUOUS
 90
14
 70
0
 10
196.2132085099
 20
86.4472543856
 10
196.1525987619
 20
86.4845368942
 10
196.0961927403
 20
86.5239574907
 10
196.0442161784
 20
86.5653584439
 10
195.99687705
 20
86.6085741324
 10
195.9543648558
 20
86.6534316023
 10
195.9168498239
 20
86.6997512456
 10
195.8844820883
 20
86.7473476681
 10
195.8573911265
 20
86.7960304455
 10
195.8356853332
 20
86.8456047715
 10
195.8194515551
 20
86.89587227
 10
195.808754742
 20
86.9466317929
 10
195.8036376871
 20
86.9976802264
 10
195.8031580185
 20
87.0187207912
  0
LWPOLYLINE
  5
4A0
100
AcDbEntity
  8
0
100
AcDbPolyline
 62
7
  6
CONTINUOUS
 90
5
 70
0
 10
132.6595241116
 20
136.7164744395
 10
132.6378036452
 20
136.7374844072
 10
132.618705713
 20
136.7593273157
 10
132.6023257136
 20
136.7818940893
 10
132.5887453834
 20
136.8050721102
  0
LINE
  5
4A1
100
AcDbEntity
  8
0
100
AcDbLine
 62
7
  6
CONTINUOUS
 10
180.2932463002
 20
109.1817177853
 11
180.2459777733
 21
109.1481479666
  0
LWPOLYLINE
  5
4A2
100
AcDbEntity
  8
0
100
AcDbPolyline
 62
7
  6
CONTINUOUS
 90
3
 70
0
 10
146.6320861979
 20
89.4758821224
 10
146.6503950235
 20
89.4868955414
 10
146.7033344017
 20
89.524043121
  0
LWPOLYLINE
  5
4A3
100
AcDbEntity
  8
0
100
AcDbPolyline
 62
7
  6
CONTINUOUS
 90
5
 70
0
 10
180.2561114195
 20
109.508542266
 10
180.2479572289
 20
109.5037180861
 10
180.2423938618
 20
109.5003935283
 10
180.2394495747
 20
109.4985854775
 10
180.2389469024
 20
109.4982291474
  0
LWPOLYLINE
  5
4A4
100
AcDbEntity
  8
0
100
AcDbPolyline
 62
7
  6
CONTINUOUS
 90
6
 70
0
 10
180.2932463002
 20
109.1641316751
 10
180.283607084
 20
109.1585244627
 10
180.2721976853
 20
109.1525292997
 10
180.2627090106
 20
109.1481908813
 10
180.2553056093
 20
109.1456001692
 10
180.2500566186
 20
109.1447720906
  0
LINE
  5
4A5
100
AcDbEntity
  8
0
100
AcDbLine
 62
7
  6
CONTINUOUS
 10
146.9154664361
 20
89.646525499
 11
146.7033344017
 21
89.524043121
  0
LINE
  5
4A6
100
AcDbEntity
  8
0
100
AcDbLine
 62
7
  6
CONTINUOUS
 10
146.7062918894
 20
89.5189209322
 11
146.8441344707
 21
89.5985095111
  0
LINE
  5
4A7
100
AcDbEntity
  8
0
100
AcDbLine
 62
7
  6
CONTINUOUS
 10
154.8897520521
 20
94.2262090482
 11
154.6776200178
 21
94.1037266702
  0
LINE
  5
4A8
100
AcDbEntity
  8
0
100
AcDbLine
 62
7
  6
CONTINUOUS
 10
149.9601875327
 20
91.1484070842
 11
149.7480554983
 21
91.0259247062
  0
LINE
  5
4A9
100
AcDbEntity
  8
0
100
AcDbLine
 62
7
  6
CONTINUOUS
 10
150.5192332249
 20
90.825621108
 11
150.3071011906
 21
90.70313873
  0
LINE
  5
4AA
100
AcDbEntity
  8
0
100
AcDbLine
 62
7
  6
CONTINUOUS
 10
155.1056402377
 20
93.1496752269
 11
154.8935082033
 21
93.0271928489
  0
LINE
  5
4AB
100
AcDbEntity
  8
0
100
AcDbLine
 62
7
  6
CONTINUOUS
 10
155.2016335188
 20
92.6756913209
 11
154.9895014844
 21
92.5532089429
  0
LINE
  5
4AC
100
AcDbEntity
  8
0
100
AcDbLine
 62
7
  6
CONTINUOUS
 10
148.452310606
 20
88.2644487675
 11
148.2401785717
 21
88.1419663895
  0
LINE
  5
4AD
100
AcDbEntity
  8
0
100
AcDbLine
 62
7
  6
CONTINUOUS
 10
150.5192332249
 20
87.071033552
 11
150.3071011906
 21
86.948551174
  0
LWPOLYLINE
  5
4AE
100
AcDbEntity
  8
0
100
AcDbPolyline
 62
7
  6
CONTINUOUS
 90
19
 70
0
 10
175.3583494037
 20
111.9702033012
 10
175.353879795
 20
111.9708615436
 10
175.3517946829
 20
111.9730246501
 10
175.3521093582
 20
111.9767013499
 10
175.3549225199
 20
111.9819146434
 10
175.3601729835
 20
111.9886471778
 10
175.3676437713
 20
111.9968527632
 10
175.3778257196
 20
112.0068463759
 10
175.3903001365
 20
112.0183183842
 10
175.4034812691
 20
112.0302683057
 10
175.417424339
 20
112.0426716175
 10
175.4321255229
 20
112.0554815428
 10
175.4458744257
 20
112.0676362363
 10
175.458257328
 20
112.078835239
 10
175.4696806513
 20
112.0893015475
 10
175.4796402002
 20
112.0987590125
 10
175.4879621614
 20
112.1070990917
 10
175.4948025033
 20
112.1143809466
 10
175.500149204
 20
112.1205862684
  0
LINE
  5
4AF
100
AcDbEntity
  8
0
100
AcDbLine
 62
7
  6
CONTINUOUS
 10
180.2500566186
 20
109.1447720906
 11
180.2469400882
 21
109.1456321011
  0
LWPOLYLINE
  5
4B0
100
AcDbEntity
  8
0
100
AcDbPolyline
 62
7
  6
CONTINUOUS
 90
12
 70
0
 10
177.1663582247
 20
111.6465533487
 10
177.1407446199
 20
111.6541684622
 10
177.1169967717
 20
111.6627842578
 10
177.0952187418
 20
111.6723668763
 10
177.0754978752
 20
111.6828834425
 10
177.0579329118
 20
111.6942874523
 10
177.0426231212
 20
111.7065148823
 10
177.0296380553
 20
111.7195019421
 10
177.0190145095
 20
111.7332021369
 10
177.010785457
 20
111.7475712223
 10
177.0049850862
 20
111.7625589818
 10
177.0028037725
 20
111.7712293418
  0
LWPOLYLINE
  5
4B1
100
AcDbEntity
  8
0
100
AcDbPolyline
 62
7
  6
CONTINUOUS
 90
3
 70
0
 10
177.1502061146
 20
111.7254830528
 10
177.1245906501
 20
111.73309878
 10
177.1008584794
 20
111.7417084432
  0
LWPOLYLINE
  5
4B2
100
AcDbEntity
  8
0
100
AcDbPolyline
 62
7
  6
CONTINUOUS
 90
22
 70
0
 10
193.2556400747
 20
97.8714607141
 10
193.2246350872
 20
97.8881406046
 10
193.1916683136
 20
97.9035152883
 10
193.1569042059
 20
97.9175080669
 10
193.1205161781
 20
97.9300491364
 10
193.082685754
 20
97.9410759321
 10
193.0436016639
 20
97.9505334423
 10
193.0034588844
 20
97.9583744872
 10
192.9624576629
 20
97.964559952
 10
192.9208025327
 20
97.96905898
 10
192.878701291
 20
97.9718491272
 10
192.8363639604
 20
97.9729164741
 10
192.7940017402
 20
97.9722556954
 10
192.7518259551
 20
97.9698700865
 10
192.7100470002
 20
97.9657715474
 10
192.6688732902
 20
97.9599805225
 10
192.6285102836
 20
97.9525259126
 10
192.5891592678
 20
97.9434448964
 10
192.5510163708
 20
97.9327827201
 10
192.5142718335
 20
97.9205925294
 10
192.4791090432
 20
97.9069351305
 10
192.4457034402
 20
97.8918786345
  0
LWPOLYLINE
  5
4B3
100
AcDbEntity
  8
0
100
AcDbPolyline
 62
7
  6
CONTINUOUS
 90
22
 70
0
 10
193.2556400747
 20
98.2654793209
 10
193.2246343676
 20
98.282159567
 10
193.1916669435
 20
98.2975344805
 10
193.1569022892
 20
98.3115273774
 10
193.1205138966
 20
98.324068456
 10
193.0826832718
 20
98.335095189
 10
193.043599014
 20
98.3445526175
 10
193.0034560527
 20
98.3523935737
 10
192.962454688
 20
98.358578934
 10
192.9207994555
 20
98.3630778458
 10
192.8786981547
 20
98.365867869
 10
192.8363608092
 20
98.3669350882
 10
192.7939986163
 20
98.3662741824
 10
192.7518229006
 20
98.3638884509
 10
192.7100440553
 20
98.3597897971
 10
192.6688704894
 20
98.3539986691
 10
192.6285075927
 20
98.3465439566
 10
192.5891567187
 20
98.3374628498
 10
192.5510141742
 20
98.3268006533
 10
192.5142702332
 20
98.3146105587
 10
192.4791081876
 20
98.3009533777
 10
192.4457034402
 20
98.2858972411
  0
LWPOLYLINE
  5
4B4
100
AcDbEntity
  8
0
100
AcDbPolyline
 62
7
  6
CONTINUOUS
 90
24
 70
0
 10
111.2204377351
 20
143.6068557371
 10
111.2850087765
 20
143.5718604297
 10
111.3532828559
 20
143.539292301
 10
111.4249867921
 20
143.5092816865
 10
111.4998337394
 20
143.4819486679
 10
111.5775241519
 20
143.4574026602
 10
111.6577469596
 20
143.4357419515
 10
111.7401810713
 20
143.4170532271
 10
111.8244966838
 20
143.4014112458
 10
111.910356404
 20
143.3888785932
 10
111.9974166568
 20
143.3795054135
 10
112.0853290659
 20
143.373329208
 10
112.1737418505
 20
143.3703746849
 10
112.262301223
 20
143.3706536615
 10
112.350652811
 20
143.3741650159
 10
112.4384430816
 20
143.3808946927
 10
112.5253207407
 20
143.3908157584
 10
112.610938148
 20
143.4038885092
 10
112.6949527148
 20
143.4200606317
 10
112.7770282542
 20
143.4392674087
 10
112.8568363466
 20
143.4614319814
 10
112.934057661
 20
143.4864656606
 10
113.0083832029
 20
143.5142682748
 10
113.0390511744
 20
143.5274009133
  0
LINE
  5
4B5
100
AcDbEntity
  8
0
100
AcDbLine
 62
7
  6
CONTINUOUS
 10
112.9201925717
 20
143.7826959926
 11
113.1746967406
 21
143.6357558137
  0
LINE
  5
4B6
100
AcDbEntity
  8
0
100
AcDbLine
 62
7
  6
CONTINUOUS
 10
193.582072599
 20
97.2095447342
 11
195.0908487542
 21
96.3383962916
  0
LINE
  5
4B7
100
AcDbEntity
  8
0
100
AcDbLine
 62
7
  6
CONTINUOUS
 10
193.2556400747
 20
97.8714635515
 11
194.800933078
 21
96.979227901
  0
LINE
  5
4B8
100
AcDbEntity
  8
0
100
AcDbLine
 62
7
  6
CONTINUOUS
 10
112.6327131669
 20
144.4221282681
 11
113.518717069
 21
143.9105623516
  0
LWPOLYLINE
  5
4B9
100
AcDbEntity
  8
0
100
AcDbPolyline
 62
7
  6
CONTINUOUS
 90
14
 70
0
 10
196.2132085099
 20
94.5330951014
 10
196.1525991813
 20
94.5703773378
 10
196.0961934828
 20
94.6097976579
 10
196.0442171519
 20
94.6511983371
 10
195.9968781693
 20
94.6944137595
 10
195.9543660397
 20
94.7392709786
 10
195.9168509953
 20
94.7855903974
 10
195.8844831785
 20
94.8331866296
 10
195.85739208
 20
94.8818692534
 10
195.8356861071
 20
94.9314434634
 10
195.8194521182
 20
94.9817108869
 10
195.8087550753
 20
95.0324703772
 10
195.8036377841
 20
95.083518818
 10
195.8031580035
 20
95.1046795376
  0
LWPOLYLINE
  5
4BA
100
AcDbEntity
  8
0
100
AcDbPolyline
 62
7
  6
CONTINUOUS
 90
25
 70
0
 10
194.3110318644
 20
88.139676567
 10
194.2858267578
 20
88.1581390069
 10
194.2606344245
 20
88.178550986
 10
194.235562116
 20
88.2008256045
 10
194.2107165726
 20
88.2248680326
 10
194.1862035697
 20
88.2505759147
 10
194.1621274671
 20
88.2778398059
 10
194.1385907646
 20
88.3065436358
 10
194.1156936651
 20
88.3365652036
 10
194.0935336479
 20
88.3677766993
 10
194.0722050553
 20
88.4000452466
 10
194.05179869
 20
88.4332334683
 10
194.0324014281
 20
88.4672000731
 10
194.0140958501
 20
88.5018004549
 10
193.9969598889
 20
88.5368873093
 10
193.9810664981
 20
88.5723112614
 10
193.9664833411
 20
88.6079215004
 10
193.9532725039
 20
88.6435664222
 10
193.9414902295
 20
88.6790942757
 10
193.9311866944
 20
88.7143537531
 10
193.9224057453
 20
88.7491947988
 10
193.9151847363
 20
88.7834692414
 10
193.9095544249
 20
88.8170312046
 10
193.9055388172
 20
88.8497377368
 10
193.9031550328
 20
88.8814495783
  0
LWPOLYLINE
  5
4BB
100
AcDbEntity
  8
0
100
AcDbPolyline
 62
7
  6
CONTINUOUS
 90
22
 70
0
 10
195.160492097
 20
88.5984960683
 10
195.1316847151
 20
88.6197571447
 10
195.1029140464
 20
88.6435487344
 10
195.0743400555
 20
88.6697385565
 10
195.0461216135
 20
88.698180996
 10
195.0184156146
 20
88.7287179131
 10
194.9913761038
 20
88.761179523
 10
194.9651534203
 20
88.7953853398
 10
194.939893362
 20
88.8311451794
 10
194.9157363745
 20
88.8682602177
 10
194.8928167704
 20
88.9065240955
 10
194.8712619825
 20
88.945724066
 10
194.8511918553
 20
88.9856421777
 10
194.8327179786
 20
89.0260564861
 10
194.8159430667
 20
89.0667422883
 10
194.8009603881
 20
89.1074733717
 10
194.7878532463
 20
89.1480232718
 10
194.7766945168
 20
89.1881665318
 10
194.7675462421
 20
89.2276799555
 10
194.7604592863
 20
89.2663438488
 10
194.755473053
 20
89.3039432409
 10
194.7526152655
 20
89.3402690796
  0
LWPOLYLINE
  5
4BC
100
AcDbEntity
  8
0
100
AcDbPolyline
 62
7
  6
CONTINUOUS
 90
4
 70
0
 10
132.6837575928
 20
136.4972605403
 10
132.6595228848
 20
136.517333001
 10
132.6378025208
 20
136.5383430506
 10
132.6187048255
 20
136.5601858909
  0
LWPOLYLINE
  5
4BD
100
AcDbEntity
  8
0
100
AcDbPolyline
 62
7
  6
CONTINUOUS
 90
23
 70
0
 10
130.2672880203
 20
138.7254887013
 10
130.2946777673
 20
138.7025003437
 10
130.323752093
 20
138.6806172781
 10
130.3543928093
 20
138.6599339695
 10
130.3864901741
 20
138.6405313384
 10
130.4198980322
 20
138.62250428
 10
130.4544285868
 20
138.6059545192
 10
130.4899054692
 20
138.5909602573
 10
130.526205216
 20
138.5775675305
 10
130.5632110881
 20
138.5658185369
 10
130.6007917725
 20
138.5557586189
 10
130.6387670757
 20
138.5474396139
 10
130.6769445811
 20
138.540903188
 10
130.7151330822
 20
138.536177076
 10
130.7532029751
 20
138.533272327
 10
130.7910530017
 20
138.5321980163
 10
130.8285991167
 20
138.5329676876
 10
130.8656038028
 20
138.5355877743
 10
130.9017449664
 20
138.5400282851
 10
130.9367708188
 20
138.546228874
 10
130.9706604572
 20
138.5541558359
 10
131.0034415991
 20
138.5638086377
 10
131.0321196955
 20
138.5741282214
  0
LWPOLYLINE
  5
4BE
100
AcDbEntity
  8
0
100
AcDbPolyline
 62
7
  6
CONTINUOUS
 90
20
 70
0
 10
130.2834401304
 20
138.7857663535
 10
130.3108325499
 20
138.7627758742
 10
130.3398871748
 20
138.7409070734
 10
130.3704824125
 20
138.7202515726
 10
130.4024903808
 20
138.7008958215
 10
130.4357769449
 20
138.6829210426
 10
130.4702022144
 20
138.6664028169
 10
130.5056218325
 20
138.6514103868
 10
130.5418876492
 20
138.6380064375
 10
130.5788477999
 20
138.6262470909
 10
130.6163475078
 20
138.6161815846
 10
130.6542297359
 20
138.6078520629
 10
130.6923358508
 20
138.6012933996
 10
130.7305062781
 20
138.5965330538
 10
130.7685811765
 20
138.5935909535
 10
130.806401112
 20
138.5924794128
 10
130.8438077107
 20
138.5932030811
 10
130.8806443326
 20
138.5957589225
 10
130.9167567331
 20
138.6001362305
 10
130.951993689
 20
138.6063166713
  0
LWPOLYLINE
  5
4BF
100
AcDbEntity
  8
0
100
AcDbPolyline
 62
7
  6
CONTINUOUS
 90
10
 70
0
 10
132.6578218864
 20
136.4676306411
 10
132.6360424443
 20
136.4875304907
 10
132.6168783961
 20
136.5080392351
 10
132.6004253943
 20
136.5290559238
 10
132.5867655822
 20
136.5504762261
 10
132.5759672508
 20
136.5721944093
 10
132.5680843723
 20
136.5941031287
 10
132.5631562759
 20
136.61609281
 10
132.5612074917
 20
136.6380527609
 10
132.5615797478
 20
136.6527747484
  0
LWPOLYLINE
  5
4C0
100
AcDbEntity
  8
0
100
AcDbPolyline
 62
7
  6
CONTINUOUS
 90
17
 70
0
 10
171.884020217
 20
63.7886827839
 10
171.8848293131
 20
63.7460314907
 10
171.8930066922
 20
63.6462205419
 10
171.9099695227
 20
63.5467791358
 10
171.9356738572
 20
63.4479649054
 10
171.9700531008
 20
63.3500338591
 10
172.0130181836
 20
63.253239717
 10
172.0644577913
 20
63.1578332538
 10
172.1242386542
 20
63.0640616488
 10
172.1922058915
 20
62.972167846
 10
172.2681834136
 20
62.8823899242
 10
172.3519743792
 20
62.7949604779
 10
172.443361701
 20
62.7101060223
 10
172.5421086059
 20
62.6280464053
 10
172.6479592563
 20
62.5489942293
 10
172.7606394146
 20
62.4731542997
 10
172.8798571476
 20
62.4007231024
  0
LWPOLYLINE
  5
4C1
100
AcDbEntity
  8
0
100
AcDbPolyline
 62
7
  6
CONTINUOUS
 90
13
 70
0
 10
175.0396772613
 20
111.6098077038
 10
175.0599291391
 20
111.6476315483
 10
175.0817480281
 20
111.6846204023
 10
175.1050221328
 20
111.7205847434
 10
175.1296322112
 20
111.7553402926
 10
175.1554521576
 20
111.7887089758
 10
175.182349649
 20
111.8205198355
 10
175.2101868609
 20
111.8506098861
 10
175.2388211701
 20
111.8788249458
 10
175.2681058574
 20
111.905020444
 10
175.2978908734
 20
111.9290621604
 10
175.3280236076
 20
111.9508269113
 10
175.3583496667
 20
111.970203179
  0
LINE
  5
4C2
100
AcDbEntity
  8
0
100
AcDbLine
 62
7
  6
CONTINUOUS
 10
196.9917581311
 20
110.4118516492
 11
196.7089154186
 21
110.2485418119
  0
LINE
  5
4C3
100
AcDbEntity
  8
0
100
AcDbLine
 62
7
  6
CONTINUOUS
 10
108.8785054205
 20
125.5585494257
 11
107.282155871
 21
125.6206107666
  0
LWPOLYLINE
  5
4C4
100
AcDbEntity
  8
0
100
AcDbPolyline
 62
7
  6
CONTINUOUS
 90
3
 70
0
 10
158.2204325835
 20
122.5016258209
 10
158.2001089425
 20
122.5100778353
 10
158.1711199826
 20
122.5240630774
  0
LWPOLYLINE
  5
4C5
100
AcDbEntity
  8
0
100
AcDbPolyline
 62
7
  6
CONTINUOUS
 90
9
 70
0
 10
177.1008584794
 20
111.7417084432
 10
177.0791090671
 20
111.7512760397
 10
177.0594334857
 20
111.7617616094
 10
177.0419143481
 20
111.7731212403
 10
177.0266253461
 20
111.7853072068
 10
177.0136305695
 20
111.7982684105
 10
177.0029843528
 20
111.8119506377
 10
176.9947312818
 20
111.8262965937
 10
176.9889059204
 20
111.8412462051
  0
LWPOLYLINE
  5
4C6
100
AcDbEntity
  8
0
100
AcDbPolyline
 62
7
  6
CONTINUOUS
 90
22
 70
0
 10
174.6943717435
 20
112.2359764716
 10
174.725377592
 20
112.2192961434
 10
174.7583452318
 20
112.2039211376
 10
174.7931101828
 20
112.1899281464
 10
174.8294989765
 20
112.1773869753
 10
174.8673300917
 20
112.1663601675
 10
174.906414869
 20
112.1569027015
 10
174.9465583557
 20
112.1490617492
 10
174.9875602605
 20
112.1428764329
 10
175.0292160291
 20
112.1383776077
 10
175.0713178541
 20
112.1355877133
 10
175.1136557041
 20
112.1345206642
 10
175.1560183626
 20
112.13518178
 10
175.1981944964
 20
112.137567758
 10
175.2399737074
 20
112.1416666912
 10
175.2811475749
 20
112.147458127
 10
175.3215109988
 20
112.1549132313
 10
175.3608623116
 20
112.1639947721
 10
175.3990043638
 20
112.1746571834
 10
175.4357467085
 20
112.186847071
 10
175.4709064652
 20
112.2005035994
 10
175.504308378
 20
112.2155585512
  0
LWPOLYLINE
  5
4C7
100
AcDbEntity
  8
0
100
AcDbPolyline
 62
7
  6
CONTINUOUS
 90
22
 70
0
 10
174.6943717435
 20
112.4351189796
 10
174.7253763865
 20
112.4184392679
 10
174.7583429352
 20
112.403064663
 10
174.7931069673
 20
112.3890718813
 10
174.8294951616
 20
112.3765307244
 10
174.8673259514
 20
112.3655038066
 10
174.9064104035
 20
112.3560462119
 10
174.9465534593
 20
112.3482051318
 10
174.9875549355
 20
112.3420196584
 10
175.0292102943
 20
112.3375206444
 10
175.0713117337
 20
112.3347305303
 10
175.1136492281
 20
112.333663232
 10
175.1560115779
 20
112.3343240711
 10
175.1981874567
 20
112.3367097483
 10
175.2399664683
 20
112.3408083602
 10
175.2811402013
 20
112.3465994594
 10
175.3215032526
 20
112.3540541541
 10
175.3608542782
 20
112.3631352545
 10
175.3989969989
 20
112.3737974628
 10
175.4357411449
 20
112.3859875935
 10
175.4709034078
 20
112.3996448352
 10
175.504308378
 20
112.4147010592
  0
LWPOLYLINE
  5
4C8
100
AcDbEntity
  8
0
100
AcDbPolyline
 62
7
  6
CONTINUOUS
 90
22
 70
0
 10
126.9646640134
 20
139.7945115212
 10
126.9956698619
 20
139.7778311931
 10
127.0286375017
 20
139.7624561872
 10
127.0634024528
 20
139.748463196
 10
127.0997912464
 20
139.735922025
 10
127.1376223616
 20
139.7248952171
 10
127.1767071389
 20
139.7154377511
 10
127.2168506256
 20
139.7075967989
 10
127.2578525304
 20
139.7014114826
 10
127.299508299
 20
139.6969126573
 10
127.341610124
 20
139.6941227629
 10
127.383947974
 20
139.6930557139
 10
127.4263106325
 20
139.6937168296
 10
127.4684867663
 20
139.6961028076
 10
127.5102659773
 20
139.7002017409
 10
127.5514398448
 20
139.7059931766
 10
127.5918032687
 20
139.713448281
 10
127.6311545815
 20
139.7225298217
 10
127.6692966338
 20
139.733192233
 10
127.7060389784
 20
139.7453821206
 10
127.7411987351
 20
139.7590386491
 10
127.7746006479
 20
139.7740936008
  0
LWPOLYLINE
  5
4C9
100
AcDbEntity
  8
0
100
AcDbPolyline
 62
7
  6
CONTINUOUS
 90
22
 70
0
 10
126.9646640134
 20
139.9936540293
 10
126.9956686564
 20
139.9769743175
 10
127.0286352051
 20
139.9615997126
 10
127.0633992372
 20
139.9476069309
 10
127.0997874315
 20
139.935065774
 10
127.1376182213
 20
139.9240388562
 10
127.1767026734
 20
139.9145812616
 10
127.2168457292
 20
139.9067401814
 10
127.2578472054
 20
139.900554708
 10
127.2995025642
 20
139.8960556941
 10
127.3416040036
 20
139.89326558
 10
127.383941498
 20
139.8921982816
 10
127.4263038478
 20
139.8928591207
 10
127.4684797266
 20
139.8952447979
 10
127.5102587383
 20
139.8993434098
 10
127.5514324712
 20
139.905134509
 10
127.5917955226
 20
139.9125892037
 10
127.6311465482
 20
139.9216703041
 10
127.6692892688
 20
139.9323325124
 10
127.7060334148
 20
139.9445226431
 10
127.7411956777
 20
139.9581798848
 10
127.7746006479
 20
139.9732361089
  0
LWPOLYLINE
  5
4CA
100
AcDbEntity
  8
0
100
AcDbPolyline
 62
7
  6
CONTINUOUS
 90
22
 70
0
 10
174.6921226803
 20
112.1885849356
 10
174.7231074493
 20
112.1714929826
 10
174.7560454069
 20
112.1554680865
 10
174.790772175
 20
112.1405902173
 10
174.8271143625
 20
112.1269320966
 10
174.8648906404
 20
112.1145629658
 10
174.9039126606
 20
112.1035485963
 10
174.9439856862
 20
112.0939449482
 10
174.9849096629
 20
112.0857989141
 10
175.0264804506
 20
112.0791526214
 10
175.0684906717
 20
112.0740405573
 10
175.1107305697
 20
112.0704873945
 10
175.1529891574
 20
112.0685090843
 10
175.1950554835
 20
112.0681151842
 10
175.2367196163
 20
112.0693080234
 10
175.2777735021
 20
112.0720805243
 10
175.3180121945
 20
112.0764177199
 10
175.357234858
 20
112.0822987692
 10
175.3952457104
 20
112.0896961526
 10
175.4318550626
 20
112.098573702
 10
175.4668802263
 20
112.1088865539
 10
175.5001464205
 20
112.120583325
  0
LWPOLYLINE
  5
4CB
100
AcDbEntity
  8
0
100
AcDbPolyline
 62
7
  6
CONTINUOUS
 90
22
 70
0
 10
126.9624149502
 20
139.7471199852
 10
126.9933997192
 20
139.7300280322
 10
127.0263376768
 20
139.7140031361
 10
127.0610644449
 20
139.6991252669
 10
127.0974066324
 20
139.6854671462
 10
127.1351829103
 20
139.6730980155
 10
127.1742049305
 20
139.6620836459
 10
127.2142779561
 20
139.6524799978
 10
127.2552019328
 20
139.6443339637
 10
127.2967727205
 20
139.6376876711
 10
127.3387829416
 20
139.6325756069
 10
127.3810228396
 20
139.6290224441
 10
127.4232814273
 20
139.6270441339
 10
127.4653477534
 20
139.6266502338
 10
127.5070118862
 20
139.6278430731
 10
127.548065772
 20
139.630615574
 10
127.5883044644
 20
139.6349527696
 10
127.6275271279
 20
139.6408338188
 10
127.6655379803
 20
139.6482312022
 10
127.7021473325
 20
139.6571087516
 10
127.7371724962
 20
139.6674216036
 10
127.7704386905
 20
139.6791183747
  0
LWPOLYLINE
  5
4CC
100
AcDbEntity
  8
0
100
AcDbPolyline
 62
7
  6
CONTINUOUS
 90
33
 70
0
 10
116.9956702759
 20
145.5504835645
 10
116.8740774114
 20
145.6177836462
 10
116.7526851595
 20
145.6788382282
 10
116.6314935203
 20
145.7336473105
 10
116.5101686493
 20
145.7823851089
 10
116.3890443909
 20
145.8248774075
 10
116.2691222783
 20
145.8606015588
 10
116.150429292
 20
145.8894564918
 10
116.0329384515
 20
145.9115432774
 10
115.9175703484
 20
145.9266424809
 10
115.8043887815
 20
145.9346673329
 10
115.693329952
 20
145.9357046028
 10
115.5851230547
 20
145.9297951642
 10
115.4798408837
 20
145.9168951137
 10
115.3774106449
 20
145.8970483548
 10
115.2783431501
 20
145.8704274716
 10
115.1826685967
 20
145.837018437
 10
115.0903567873
 20
145.7968352782
 10
115.0018279422
 20
145.7500926613
 10
114.9170886145
 20
145.696777298
 10
114.836132251
 20
145.6369024766
 10
114.7593594127
 20
145.570722728
 10
114.6867666338
 20
145.4982023016
 10
114.61835738
 20
145.419376948
 10
114.5545426091
 20
145.3346084505
 10
114.4953252164
 20
145.2438087451
 10
114.4407023066
 20
145.1470658958
 10
114.3910761507
 20
145.0450058776
 10
114.3464925609
 20
144.9375314395
 10
114.3069057252
 20
144.8247398325
 10
114.2725804779
 20
144.7075487853
 10
114.2435919807
 20
144.5858914539
 10
114.2222600625
 20
144.4725588337
  0
LWPOLYLINE
  5
4CD
100
AcDbEntity
  8
0
100
AcDbPolyline
 62
7
  6
CONTINUOUS
 90
18
 70
0
 10
116.6084429736
 20
144.8388158153
 10
116.486223416
 20
144.9080941672
 10
116.363711492
 20
144.9699139483
 10
116.2412750904
 20
145.0240431232
 10
116.1191992052
 20
145.0703292199
 10
115.9979540684
 20
145.1084949557
 10
115.8781729763
 20
145.1382143013
 10
115.7602208923
 20
145.1593809249
 10
115.644444889
 20
145.1719404911
 10
115.5314018632
 20
145.1758012331
 10
115.4214735623
 20
145.1709904142
 10
115.3148856087
 20
145.1575739299
 10
115.2119171694
 20
145.1356108954
 10
115.1128824421
 20
145.1052119052
 10
115.0179889299
 20
145.0664895871
 10
114.9273523449
 20
145.0195090616
 10
114.8412163409
 20
144.9643949487
 10
114.7875446465
 20
144.9241125592
  0
LINE
  5
4CE
100
AcDbEntity
  8
0
100
AcDbLine
 62
7
  6
CONTINUOUS
 10
116.608436321
 20
144.8388202388
 11
148.4158761364
 21
126.4736031302
  0
LINE
  5
4CF
100
AcDbEntity
  8
0
100
AcDbLine
 62
7
  6
CONTINUOUS
 10
158.2431960711
 20
120.7994317652
 11
190.0506330051
 21
102.4342163203
  0
LINE
  5
4D0
100
AcDbEntity
  8
0
100
AcDbLine
 62
7
  6
CONTINUOUS
 10
179.927302245
 20
108.7877542946
 11
175.0396772613
 21
111.6098077038
  0
LINE
  5
4D1
100
AcDbEntity
  8
0
100
AcDbLine
 62
7
  6
CONTINUOUS
 10
132.1975945149
 20
136.3462893442
 11
127.3099695312
 21
139.1683427534
  0
LINE
  5
4D2
100
AcDbEntity
  8
0
100
AcDbLine
 62
7
  6
CONTINUOUS
 10
148.8031606977
 20
127.1852372363
 11
132.7392745014
 21
136.4603372444
  0
LINE
  5
4D3
100
AcDbEntity
  8
0
100
AcDbLine
 62
7
  6
CONTINUOUS
 10
174.6943717435
 20
112.2359900247
 11
158.6304855556
 21
121.5110630287
  0
LINE
  5
4D4
100
AcDbEntity
  8
0
100
AcDbLine
 62
7
  6
CONTINUOUS
 10
190.4379759691
 20
103.1458167055
 11
180.4689822315
 21
108.9018021948
  0
LINE
  5
4D5
100
AcDbEntity
  8
0
100
AcDbLine
 62
7
  6
CONTINUOUS
 10
126.9646640134
 20
139.7945250743
 11
116.9956702759
 21
145.5504835645
  0
LINE
  5
4D6
100
AcDbEntity
  8
0
100
AcDbLine
 62
7
  6
CONTINUOUS
 10
180.2459777733
 20
109.1481479666
 11
175.3583475466
 21
111.9702044031
  0
LINE
  5
4D7
100
AcDbEntity
  8
0
100
AcDbLine
 62
7
  6
CONTINUOUS
 10
132.5162700432
 20
136.7066830162
 11
127.6286398165
 21
139.5287394527
  0
LINE
  5
4D8
100
AcDbEntity
  8
0
100
AcDbLine
 62
7
  6
CONTINUOUS
 10
129.5609000672
 20
138.9304462816
 11
130.3915375929
 21
138.4508465846
  0
LINE
  5
4D9
100
AcDbEntity
  8
0
100
AcDbLine
 62
7
  6
CONTINUOUS
 10
177.2906077973
 20
111.371911232
 11
178.121245323
 21
110.892311535
  0
LINE
  5
4DA
100
AcDbEntity
  8
0
100
AcDbLine
 62
7
  6
CONTINUOUS
 10
129.4366504946
 20
139.2050883983
 11
130.2672880203
 21
138.7254887013
  0
LINE
  5
4DB
100
AcDbEntity
  8
0
100
AcDbLine
 62
7
  6
CONTINUOUS
 10
177.1663582247
 20
111.6465533487
 11
177.9969957504
 21
111.1669536517
  0
LINE
  5
4DC
100
AcDbEntity
  8
0
100
AcDbLine
 62
7
  6
CONTINUOUS
 10
128.0735690821
 20
140.2823582662
 11
129.0667118816
 21
139.7089300608
  0
LINE
  5
4DD
100
AcDbEntity
  8
0
100
AcDbLine
 62
7
  6
CONTINUOUS
 10
130.8857257786
 20
138.6586542343
 11
131.8788685773
 21
138.0852260293
  0
LINE
  5
4DE
100
AcDbEntity
  8
0
100
AcDbLine
 62
7
  6
CONTINUOUS
 10
175.8032768122
 20
112.7238232166
 11
176.7964196117
 21
112.1503950112
  0
LINE
  5
4DF
100
AcDbEntity
  8
0
100
AcDbLine
 62
7
  6
CONTINUOUS
 10
178.6154335088
 20
111.1001191846
 11
179.6085763074
 21
110.5266909796
  0
LINE
  5
4E0
100
AcDbEntity
  8
0
100
AcDbLine
 62
7
  6
CONTINUOUS
 10
127.9493195159
 20
140.5570003792
 11
128.9424623115
 21
139.983572176
  0
LINE
  5
4E1
100
AcDbEntity
  8
0
100
AcDbLine
 62
7
  6
CONTINUOUS
 10
130.7614762034
 20
138.9332963524
 11
131.7546189989
 21
138.3598681493
  0
LINE
  5
4E2
100
AcDbEntity
  8
0
100
AcDbLine
 62
7
  6
CONTINUOUS
 10
175.679027246
 20
112.9984653295
 11
176.6721700415
 21
112.4250371264
  0
LINE
  5
4E3
100
AcDbEntity
  8
0
100
AcDbLine
 62
7
  6
CONTINUOUS
 10
178.4911839335
 20
111.3747613028
 11
179.484326729
 21
110.8013330997
  0
LINE
  5
4E4
100
AcDbEntity
  8
0
100
AcDbLine
 62
7
  6
CONTINUOUS
 10
158.2204325835
 20
123.4765183576
 11
151.9904087288
 21
127.0736560507
  0
LINE
  5
4E5
100
AcDbEntity
  8
0
100
AcDbLine
 62
7
  6
CONTINUOUS
 10
130.3914918255
 20
138.4508730182
 11
130.3915390699
 21
138.4508457318
  0
LINE
  5
4E6
100
AcDbEntity
  8
0
100
AcDbLine
 62
7
  6
CONTINUOUS
 10
178.1211995556
 20
110.8923379686
 11
178.1212468
 21
110.8923106822
  0
LWPOLYLINE
  5
4E7
100
AcDbEntity
  8
0
100
AcDbPolyline
 62
7
  6
CONTINUOUS
 90
36
 70
0
 10
195.0908618522
 20
96.3383908774
 10
195.1076519744
 20
96.3282760954
 10
195.1262446141
 20
96.3161840947
 10
195.1472242679
 20
96.3015389424
 10
195.1703088398
 20
96.2842968401
 10
195.195298566
 20
96.2643776961
 10
195.2220080726
 20
96.2417076664
 10
195.2501752796
 20
96.2162997956
 10
195.2795873642
 20
96.1881423162
 10
195.3100262728
 20
96.1572427039
 10
195.3412296813
 20
96.1236803605
 10
195.3729975272
 20
96.0874975081
 10
195.4050819574
 20
96.0488025454
 10
195.4371632691
 20
96.0078206873
 10
195.4690492933
 20
95.9646592918
 10
195.5004953332
 20
95.919527494
 10
195.5311273944
 20
95.8728626353
 10
195.5607514391
 20
95.8248950931
 10
195.5891944529
 20
95.7758662153
 10
195.6161653139
 20
95.7262817374
 10
195.6415346743
 20
95.67640979
 10
195.6651907894
 20
95.6265301389
 10
195.6869358322
 20
95.5771870296
 10
195.7067105956
 20
95.5287003758
 10
195.7245082322
 20
95.4812937299
 10
195.7402814023
 20
95.435365525
 10
195.7540604324
 20
95.3911833568
 10
195.7659049265
 20
95.3489563147
 10
195.7758633319
 20
95.3089820096
 10
195.7840344018
 20
95.271456276
 10
195.7905366773
 20
95.2365610868
 10
195.7954896112
 20
95.2045518066
 10
195.7990504628
 20
95.1755468392
 10
195.8013887181
 20
95.1496720187
 10
195.8026849906
 20
95.1271532277
 10
195.8031481128
 20
95.1080892638
  0
LWPOLYLINE
  5
4E8
100
AcDbEntity
  8
0
100
AcDbPolyline
 62
7
  6
CONTINUOUS
 90
26
 70
0
 10
129.0666932097
 20
139.7089406874
 10
129.0691255684
 20
139.7074748316
 10
129.0733187418
 20
139.7047291526
 10
129.0788168561
 20
139.7008151803
 10
129.085489553
 20
139.695676014
 10
129.0932233614
 20
139.6892576592
 10
129.1018809726
 20
139.6815320927
 10
129.1113402364
 20
139.6724695891
 10
129.121456649
 20
139.6620794267
 10
129.1320700898
 20
139.6504106235
 10
129.1430469231
 20
139.6374926051
 10
129.154229112
 20
139.623397282
 10
129.1654232204
 20
139.608277447
 10
129.176503355
 20
139.5922318129
 10
129.1873225433
 20
139.5753977409
 10
129.197682885
 20
139.5580352937
 10
129.2074805188
 20
139.5403098056
 10
129.2166219945
 20
139.5223968319
 10
129.2249635344
 20
139.5046013561
 10
129.23245955
 20
139.4870920851
 10
129.239070235
 20
139.4700762042
 10
129.2447204388
 20
139.4539120904
 10
129.2494354602
 20
139.438750383
 10
129.2532543733
 20
139.4247535631
 10
129.2561998914
 20
139.4122402174
 10
129.2569515796
 20
139.4086715342
  0
LWPOLYLINE
  5
4E9
100
AcDbEntity
  8
0
100
AcDbPolyline
 62
7
  6
CONTINUOUS
 90
26
 70
0
 10
176.7964009398
 20
112.1504056378
 10
176.7988332984
 20
112.148939782
 10
176.8030264719
 20
112.146194103
 10
176.8085245862
 20
112.1422801307
 10
176.8151972831
 20
112.1371409644
 10
176.8229310915
 20
112.1307226096
 10
176.8315887027
 20
112.1229970431
 10
176.8410479665
 20
112.1139345395
 10
176.8511643791
 20
112.1035443771
 10
176.8617778199
 20
112.0918755739
 10
176.8727546532
 20
112.0789575554
 10
176.8839368421
 20
112.0648622324
 10
176.8951309505
 20
112.0497423974
 10
176.9062110851
 20
112.0336967633
 10
176.9170302734
 20
112.0168626913
 10
176.9273906151
 20
111.9995002441
 10
176.9371882489
 20
111.981774756
 10
176.9463297246
 20
111.9638617823
 10
176.9546712645
 20
111.9460663064
 10
176.9621672801
 20
111.9285570355
 10
176.9687779651
 20
111.9115411546
 10
176.9744281689
 20
111.8953770408
 10
176.9791431903
 20
111.8802153334
 10
176.9829621034
 20
111.8662185135
 10
176.9859076215
 20
111.8537051678
 10
176.9866593096
 20
111.8501364846
  0
LWPOLYLINE
  5
4EA
100
AcDbEntity
  8
0
100
AcDbPolyline
 62
7
  6
CONTINUOUS
 90
28
 70
0
 10
127.3099695312
 20
139.1683427534
 10
127.2874262539
 20
139.1819527414
 10
127.2653750251
 20
139.1965331652
 10
127.2438110598
 20
139.2120858197
 10
127.2227661802
 20
139.2285158124
 10
127.2021896531
 20
139.2459247242
 10
127.1819452046
 20
139.2646114539
 10
127.1618440245
 20
139.2846945103
 10
127.1420254369
 20
139.3060693042
 10
127.1228313412
 20
139.3287028774
 10
127.1041333916
 20
139.3528054474
 10
127.085963275
 20
139.3781825751
 10
127.0688980595
 20
139.4041917224
 10
127.0529509147
 20
139.4308984147
 10
127.0379913958
 20
139.4582345669
 10
127.0244094343
 20
139.4853481777
 10
127.0122868124
 20
139.512145611
 10
127.0014577458
 20
139.5386923664
 10
126.9919950383
 20
139.5643701926
 10
126.9839709964
 20
139.5890301862
 10
126.9772865325
 20
139.6127845834
 10
126.971805007
 20
139.6354105019
 10
126.9675580707
 20
139.6567929569
 10
126.9645243435
 20
139.6770171037
 10
126.9625070663
 20
139.6961648782
 10
126.961445308
 20
139.7142553545
 10
126.96141245
 20
139.7312442885
 10
126.9624151771
 20
139.7471202072
  0
LWPOLYLINE
  5
4EB
100
AcDbEntity
  8
0
100
AcDbPolyline
 62
7
  6
CONTINUOUS
 90
28
 70
0
 10
175.0396772613
 20
111.6098077038
 10
175.017133984
 20
111.6234176918
 10
174.9950827552
 20
111.6379981155
 10
174.9735187899
 20
111.6535507701
 10
174.9524739103
 20
111.6699807628
 10
174.9318973832
 20
111.6873896746
 10
174.9116529347
 20
111.7060764043
 10
174.8915517546
 20
111.7261594607
 10
174.871733167
 20
111.7475342546
 10
174.8525390713
 20
111.7701678278
 10
174.8338411217
 20
111.7942703978
 10
174.8156710051
 20
111.8196475255
 10
174.7986057896
 20
111.8456566728
 10
174.7826586448
 20
111.8723633651
 10
174.7676991259
 20
111.8996995173
 10
174.7541171644
 20
111.9268131281
 10
174.7419945425
 20
111.9536105613
 10
174.7311654758
 20
111.9801573168
 10
174.7217027684
 20
112.005835143
 10
174.7136787264
 20
112.0304951366
 10
174.7069942626
 20
112.0542495338
 10
174.7015127371
 20
112.0768754523
 10
174.6972658008
 20
112.0982579073
 10
174.6942320736
 20
112.1184820541
 10
174.6922147964
 20
112.1376298286
 10
174.6911530381
 20
112.1557203048
 10
174.6911201801
 20
112.1727092389
 10
174.6921229072
 20
112.1885851575
  0
LWPOLYLINE
  5
4EC
100
AcDbEntity
  8
0
100
AcDbPolyline
 62
7
  6
CONTINUOUS
 90
16
 70
0
 10
131.8788851741
 20
138.0852175378
 10
131.8798028841
 20
138.0846632663
 10
131.8822612102
 20
138.083064158
 10
131.88607797
 20
138.080367823
 10
131.89113616
 20
138.0764971194
 10
131.8972755415
 20
138.0714266748
 10
131.9043735729
 20
138.0651182118
 10
131.9122978637
 20
138.0575483426
 10
131.9208748932
 20
138.0487538896
 10
131.9299801517
 20
138.0387482227
 10
131.9394605363
 20
138.0275871166
 10
131.9491082481
 20
138.0154111049
 10
131.9587842604
 20
138.002315871
 10
131.9683609073
 20
137.988410979
 10
131.9776640751
 20
137.9738924462
 10
131.9852570533
 20
137.9611999256
  0
LWPOLYLINE
  5
4ED
100
AcDbEntity
  8
0
100
AcDbPolyline
 62
7
  6
CONTINUOUS
 90
16
 70
0
 10
179.6085929042
 20
110.5266824882
 10
179.6095106141
 20
110.5261282167
 10
179.6119689403
 20
110.5245291084
 10
179.6157857001
 20
110.5218327734
 10
179.6208438901
 20
110.5179620698
 10
179.6269832716
 20
110.5128916252
 10
179.634081303
 20
110.5065831621
 10
179.6420055938
 20
110.499013293
 10
179.6505826232
 20
110.49021884
 10
179.6596878818
 20
110.4802131731
 10
179.6691682664
 20
110.469052067
 10
179.6788159781
 20
110.4568760553
 10
179.6884919905
 20
110.4437808214
 10
179.6980686374
 20
110.4298759294
 10
179.7073718052
 20
110.4153573966
 10
179.7149647834
 20
110.402664876
  0
LINE
  5
4EE
100
AcDbEntity
  8
0
100
AcDbLine
 62
7
  6
CONTINUOUS
 10
132.737702864
 20
136.4125441236
 11
132.7087793759
 21
136.4300453109
  0
LINE
  5
4EF
100
AcDbEntity
  8
0
100
AcDbLine
 62
7
  6
CONTINUOUS
 10
180.4674105941
 20
108.8540090739
 11
180.438487106
 21
108.8715102612
  0
LWPOLYLINE
  5
4F0
100
AcDbEntity
  8
0
100
AcDbPolyline
 62
7
  6
CONTINUOUS
 90
28
 70
0
 10
194.800933078
 20
96.979227901
 10
194.8815285026
 20
96.9301930314
 10
194.9618853213
 20
96.8758363998
 10
195.0420035343
 20
96.8161580063
 10
195.1222987144
 20
96.7508696337
 10
195.2023552887
 20
96.6802594991
 10
195.2809265387
 20
96.6051922545
 10
195.3579528812
 20
96.5255628536
 10
195.4334938994
 20
96.4414763427
 10
195.506481625
 20
96.3541125115
 10
195.5767795343
 20
96.2635197196
 10
195.644524151
 20
96.1696496076
 10
195.7090570788
 20
96.0735368862
 10
195.7702802831
 20
95.9753081094
 10
195.8282917985
 20
95.8748367232
 10
195.8827273325
 20
95.7727777774
 10
195.9336325994
 20
95.6690355988
 10
195.980961885
 20
95.5637058604
 10
196.0242137542
 20
95.4577306316
 10
196.0633952277
 20
95.3508995824
 10
196.0984992849
 20
95.2434230427
 10
196.1290034295
 20
95.1368740708
 10
196.1547770748
 20
95.0312996188
 10
196.1759508075
 20
94.9266527345
 10
196.1923938909
 20
94.8243656204
 10
196.2040627464
 20
94.7249156773
 10
196.2110009527
 20
94.6278255042
 10
196.2132085099
 20
94.5330951014
  0
LWPOLYLINE
  5
4F1
100
AcDbEntity
  8
0
100
AcDbPolyline
 62
7
  6
CONTINUOUS
 90
28
 70
0
 10
158.2431960711
 20
120.7994317652
 10
158.1672873636
 20
120.8458551686
 10
158.0960578474
 20
120.8950736
 10
158.0295075225
 20
120.9470870593
 10
157.9673555046
 20
121.002071278
 10
157.9098826781
 20
121.0598505247
 10
157.8579316957
 20
121.1198976053
 10
157.8115586978
 20
121.1823556189
 10
157.7707075441
 20
121.2470814664
 10
157.7360524659
 20
121.3131186563
 10
157.7077799844
 20
121.3803669526
 10
157.6857035785
 20
121.4489265913
 10
157.6699379163
 20
121.5181417884
 10
157.6605097167
 20
121.5879315021
 10
157.6573922607
 20
121.6583767742
 10
157.6606200598
 20
121.7290649455
 10
157.6702187843
 20
121.8000916105
 10
157.6861627639
 20
121.8713611746
 10
157.7084094985
 20
121.9421741951
 10
157.7370987305
 20
122.0126058869
 10
157.7720907177
 20
122.082581035
 10
157.8129237329
 20
122.1511745514
 10
157.8597601628
 20
122.2183672631
 10
157.9124376207
 20
122.284178343
 10
157.9700072203
 20
122.3477402214
 10
158.0321526661
 20
122.4087637083
 10
158.0991902535
 20
122.4675379937
 10
158.1711199826
 20
122.5240630774
  0
LWPOLYLINE
  5
4F2
100
AcDbEntity
  8
0
100
AcDbPolyline
 62
7
  6
CONTINUOUS
 90
15
 70
0
 10
158.6304865419
 20
121.5110624222
 10
158.577558886
 20
121.5435620683
 10
158.5275517505
 20
121.5783036312
 10
158.4806651735
 20
121.6152061249
 10
158.4370817063
 20
121.6541926875
 10
158.3970028086
 20
121.6951557515
 10
158.3606373512
 20
121.7379535296
 10
158.3280970841
 20
121.7825549348
 10
158.2995968472
 20
121.8287592281
 10
158.2754035108
 20
121.8761410777
 10
158.2556064116
 20
121.9244676592
 10
158.2401929468
 20
121.9736791988
 10
158.2291861505
 20
122.0235931773
 10
158.2226048195
 20
122.0740054629
 10
158.2204326247
 20
122.1242769947
  0
LWPOLYLINE
  5
4F3
100
AcDbEntity
  8
0
100
AcDbPolyline
 62
7
  6
CONTINUOUS
 90
3
 70
0
 10
132.7392745014
 20
136.4603237983
 10
132.7103857411
 20
136.4782258196
 10
132.6837575928
 20
136.4972605403
  0
LWPOLYLINE
  5
4F4
100
AcDbEntity
  8
0
100
AcDbPolyline
 62
7
  6
CONTINUOUS
 90
4
 70
0
 10
132.7392745014
 20
136.6594663063
 10
132.7103864227
 20
136.6773678863
 10
132.6837586699
 20
136.6964022414
 10
132.6595241116
 20
136.7164744395
  0
LWPOLYLINE
  5
4F5
100
AcDbEntity
  8
0
100
AcDbPolyline
 62
7
  6
CONTINUOUS
 90
3
 70
0
 10
180.4689822315
 20
108.9017887487
 10
180.4400934712
 20
108.91969077
 10
180.4134653229
 20
108.9387254907
  0
LWPOLYLINE
  5
4F6
100
AcDbEntity
  8
0
100
AcDbPolyline
 62
7
  6
CONTINUOUS
 90
4
 70
0
 10
180.4689822315
 20
109.1009312567
 10
180.4400941528
 20
109.1188328366
 10
180.4134663999
 20
109.1378671918
 10
180.3892318417
 20
109.1579393899
  0
LWPOLYLINE
  5
4F7
100
AcDbEntity
  8
0
100
AcDbPolyline
 62
7
  6
CONTINUOUS
 90
19
 70
0
 10
128.9424623115
 20
139.983572176
 10
128.9788534909
 20
139.960959662
 10
129.0146461262
 20
139.935756284
 10
129.0498402172
 20
139.907962042
 10
129.0846029888
 20
139.8774108661
 10
129.1187672161
 20
139.8442688263
 10
129.1518312248
 20
139.8090341319
 10
129.1837918192
 20
139.7716624856
 10
129.2146521949
 20
139.7321981847
 10
129.2439202649
 20
139.6912723307
 10
129.2715646957
 20
139.6488721973
 10
129.2976168207
 20
139.6050105108
 10
129.3216785524
 20
139.5603565514
 10
129.3437266807
 20
139.5148784317
 10
129.3637844156
 20
139.468608039
 10
129.3815232993
 20
139.4223103156
 10
129.3968338457
 20
139.376240242
 10
129.4098255407
 20
139.3301428376
 10
129.4204983845
 20
139.2840181024
  0
LWPOLYLINE
  5
4F8
100
AcDbEntity
  8
0
100
AcDbPolyline
 62
7
  6
CONTINUOUS
 90
19
 70
0
 10
176.6721700415
 20
112.4250371264
 10
176.708561221
 20
112.4024246124
 10
176.7443538563
 20
112.3772212344
 10
176.7795479473
 20
112.3494269924
 10
176.8143107189
 20
112.3188758165
 10
176.8484749462
 20
112.2857337767
 10
176.8815389549
 20
112.2504990823
 10
176.9134995493
 20
112.213127436
 10
176.944359925
 20
112.1736631351
 10
176.973627995
 20
112.1327372811
 10
177.0012724258
 20
112.0903371477
 10
177.0273245508
 20
112.0464754612
 10
177.0513862825
 20
112.0018215017
 10
177.0734344108
 20
111.956343382
 10
177.0934921457
 20
111.9100729894
 10
177.1112310294
 20
111.863775266
 10
177.1265415757
 20
111.8177051924
 10
177.1395332708
 20
111.771607788
 10
177.1502061146
 20
111.7254830528
  0
LWPOLYLINE
  5
4F9
100
AcDbEntity
  8
0
100
AcDbPolyline
 62
7
  6
CONTINUOUS
 90
10
 70
0
 10
131.7546189989
 20
138.3598681493
 10
131.7953026771
 20
138.3342235603
 10
131.8350616952
 20
138.3052495645
 10
131.8738960531
 20
138.2729461618
 10
131.9120770724
 20
138.2370243109
 10
131.9493334315
 20
138.197773053
 10
131.9848511661
 20
138.1560595124
 10
132.0183589549
 20
138.1121727303
 10
132.0501281191
 20
138.0658236654
 10
132.0801586589
 20
138.0170123177
  0
LWPOLYLINE
  5
4FA
100
AcDbEntity
  8
0
100
AcDbPolyline
 62
7
  6
CONTINUOUS
 90
7
 70
0
 10
129.5609063998
 20
138.9304426254
 10
129.5213320457
 20
138.95539801
 10
129.4863972509
 20
138.9812922528
 10
129.4533642375
 20
139.0097092751
 10
129.4224180272
 20
139.0405158699
 10
129.393742263
 20
139.073556087
 10
129.3674923327
 20
139.1086816523
  0
LWPOLYLINE
  5
4FB
100
AcDbEntity
  8
0
100
AcDbPolyline
 62
7
  6
CONTINUOUS
 90
7
 70
0
 10
177.2906141299
 20
111.3719075758
 10
177.2510397758
 20
111.3968629604
 10
177.216104981
 20
111.4227572032
 10
177.1830719675
 20
111.4511742255
 10
177.1521257573
 20
111.4819808203
 10
177.1234499931
 20
111.5150210374
 10
177.0972000628
 20
111.5501466027
  0
LWPOLYLINE
  5
4FC
100
AcDbEntity
  8
0
100
AcDbPolyline
 62
7
  6
CONTINUOUS
 90
15
 70
0
 10
193.5816019201
 20
97.2098165468
 10
193.539193791
 20
97.236806395
 10
193.4988285163
 20
97.2677080156
 10
193.4611075215
 20
97.3021930471
 10
193.4261981806
 20
97.3401431637
 10
193.3942470365
 20
97.3814471687
 10
193.3653121528
 20
97.4260860954
 10
193.33955048
 20
97.4738661863
 10
193.3171969118
 20
97.5243436929
 10
193.298317863
 20
97.5772322065
 10
193.2828843779
 20
97.63241941
 10
193.2709148048
 20
97.6896535352
 10
193.2624015637
 20
97.7487063385
 10
193.257319939
 20
97.8093813029
 10
193.2556400427
 20
97.871464705
  0
LWPOLYLINE
  5
4FD
100
AcDbEntity
  8
0
100
AcDbPolyline
 62
7
  6
CONTINUOUS
 90
3
 70
0
 10
129.5400339743
 20
138.9443004922
 10
129.5586920822
 20
138.9317400509
 10
129.5609015442
 20
138.9304454288
  0
LWPOLYLINE
  5
4FE
100
AcDbEntity
  8
0
100
AcDbPolyline
 62
7
  6
CONTINUOUS
 90
22
 70
0
 10
151.9904087288
 20
127.0736560507
 10
151.9603774993
 20
127.0942956605
 10
151.9303076511
 20
127.1174151827
 10
151.9003663722
 20
127.142886073
 10
151.8707201358
 20
127.1705667135
 10
151.8415337747
 20
127.2003032003
 10
151.8129695646
 20
127.2319301988
 10
151.7851863223
 20
127.2652718632
 10
151.7583385222
 20
127.3001428144
 10
151.7325754378
 20
127.3363491701
 10
151.7080403116
 20
127.3736896235
 10
151.6848695586
 20
127.4119565622
 10
151.663192008
 20
127.450937222
 10
151.6431281869
 20
127.4904148709
 10
151.6247896498
 20
127.5301700136
 10
151.6082783587
 20
127.569981612
 10
151.593686116
 20
127.6096283142
 10
151.5810940546
 20
127.648889685
 10
151.570572186
 20
127.6875474317
 10
151.5621790117
 20
127.7253866177
 10
151.5559611977
 20
127.7621968577
 10
151.551953315
 20
127.7977734871
  0
LWPOLYLINE
  5
4FF
100
AcDbEntity
  8
0
100
AcDbPolyline
 62
7
  6
CONTINUOUS
 90
3
 70
0
 10
132.7087793759
 20
136.4300453109
 10
132.6821079739
 20
136.4484374881
 10
132.6578218864
 20
136.4676306411
  0
LWPOLYLINE
  5
500
100
AcDbEntity
  8
0
100
AcDbPolyline
 62
7
  6
CONTINUOUS
 90
3
 70
0
 10
180.438487106
 20
108.8715102612
 10
180.411815704
 20
108.8899024385
 10
180.3875296165
 20
108.9090955915
  0
LWPOLYLINE
  5
501
100
AcDbEntity
  8
0
100
AcDbPolyline
 62
7
  6
CONTINUOUS
 90
14
 70
0
 10
175.679027246
 20
112.9984653295
 10
175.6799155196
 20
112.9672945995
 10
175.6825766437
 20
112.9372799754
 10
175.6869995066
 20
112.9085471625
 10
175.6931656322
 20
112.8812164514
 10
175.7010492238
 20
112.8554023726
 10
175.7106172383
 20
112.8312131868
 10
175.7218295868
 20
112.8087502305
 10
175.7346393346
 20
112.7881075218
 10
175.7489928407
 20
112.7693715047
 10
175.76483
 20
112.7526206382
 10
175.7820844938
 20
112.7379250694
 10
175.8006840676
 20
112.7253463386
 10
175.8032768122
 20
112.7238232166
  0
LWPOLYLINE
  5
502
100
AcDbEntity
  8
0
100
AcDbPolyline
 62
7
  6
CONTINUOUS
 90
19
 70
0
 10
173.7465107411
 20
57.0634795766
 10
173.7489409426
 20
56.9400973658
 10
173.7562267924
 20
56.8197689934
 10
173.7683537972
 20
56.702737886
 10
173.7852977942
 20
56.589240134
 10
173.8070246991
 20
56.4795061279
 10
173.8334902803
 20
56.3737598529
 10
173.8646406623
 20
56.2722160817
 10
173.9004130706
 20
56.1750790255
 10
173.940735628
 20
56.0825440359
 10
173.9855272478
 20
55.9947977586
 10
174.0346972235
 20
55.9120183934
 10
174.0881457433
 20
55.8343741439
 10
174.1457644004
 20
55.762022395
 10
174.2074369751
 20
55.6951089944
 10
174.2730392765
 20
55.6337687967
 10
174.3424395777
 20
55.5781253417
 10
174.4154968816
 20
55.5282920286
 10
174.4505924181
 20
55.5071738067
  0
LWPOLYLINE
  5
503
100
AcDbEntity
  8
0
100
AcDbPolyline
 62
7
  6
CONTINUOUS
 90
17
 70
0
 10
171.8840202037
 20
87.3067271205
 10
171.8848293082
 20
87.2639020329
 10
171.8930066748
 20
87.1640910962
 10
171.9099694921
 20
87.0646496986
 10
171.9356738133
 20
86.9658354729
 10
171.970053044
 20
86.8679044276
 10
172.0130181148
 20
86.7711102827
 10
172.0644577124
 20
86.6757038129
 10
172.1242385672
 20
86.5819321977
 10
172.1922057994
 20
86.4900383811
 10
172.2681833198
 20
86.4002604422
 10
172.3519742877
 20
86.3128309769
 10
172.4433616163
 20
86.2279764993
 10
172.5421085332
 20
86.145916854
 10
172.6479592015
 20
86.0668646421
 10
172.760639384
 20
85.9910246709
 10
172.8798571476
 20
85.9185934266
  0
LWPOLYLINE
  5
504
100
AcDbEntity
  8
0
100
AcDbPolyline
 62
7
  6
CONTINUOUS
 90
49
 70
0
 10
172.8798571476
 20
85.9185934266
 10
172.8777296487
 20
86.0579258099
 10
172.8720540528
 20
86.1971043518
 10
172.8628303599
 20
86.3361290523
 10
172.849969846
 20
86.4750140462
 10
172.8335612352
 20
86.6137451986
 10
172.8138706993
 20
86.7522801056
 10
172.7909426212
 20
86.8905713641
 10
172.764732618
 20
87.0286663772
 10
172.735373713
 20
87.1666649498
 10
172.7029112165
 20
87.3045435558
 10
172.6672998181
 20
87.4423257214
 10
172.6285366106
 20
87.5801818298
 10
172.5866183983
 20
87.7182150405
 10
172.5415483769
 20
87.856322194
 10
172.4933332253
 20
87.994364195
 10
172.4419113224
 20
88.1324912133
 10
172.3873442893
 20
88.2705530792
 10
172.3298236691
 20
88.4079601869
 10
172.2693503043
 20
88.5446608006
 10
172.2059233523
 20
88.6807066563
 10
172.1397318284
 20
88.8156633567
 10
172.0707757468
 20
88.9495072382
 10
171.9990550933
 20
89.0822619644
 10
171.9247588409
 20
89.213564129
 10
171.8478257406
 20
89.3434824668
 10
171.7683170414
 20
89.4719482429
 10
171.686605463
 20
89.5983918463
 10
171.6026861054
 20
89.7227732109
 10
171.5165638686
 20
89.8451324027
 10
171.428626173
 20
89.9650200094
 10
171.3389113101
 20
90.0823613106
 10
171.2473809884
 20
90.1972310267
 10
171.1543077529
 20
90.3094039058
 10
171.0597813009
 20
90.4187892997
 10
170.9637119353
 20
90.5254778568
 10
170.8661031094
 20
90.6295162696
 10
170.7670214379
 20
90.7308844332
 10
170.6664003062
 20
90.8296024527
 10
170.5640433238
 20
90.9257773354
 10
170.4599511115
 20
91.0194667256
 10
170.3541230486
 20
91.110612979
 10
170.2463608828
 20
91.1991501708
 10
170.1366442041
 20
91.2851466653
 10
170.0249934225
 20
91.3685340982
 10
169.9112715161
 20
91.449041451
 10
169.7954328108
 20
91.5265783842
 10
169.6775229807
 20
91.6012352375
 10
169.5575420257
 20
91.6730120106
  0
LINE
  5
505
100
AcDbEntity
  8
0
100
AcDbLine
 62
7
  6
CONTINUOUS
 10
172.8798571476
 20
62.4007231024
 11
172.8798571476
 21
85.9185934266
  0
LINE
  5
506
100
AcDbEntity
  8
0
100
AcDbLine
 62
7
  6
CONTINUOUS
 10
173.7465107411
 20
57.0634795766
 11
173.7465107411
 21
90.2550471062
  0
LINE
  5
507
100
AcDbEntity
  8
0
100
AcDbLine
 62
7
  6
CONTINUOUS
 10
174.6943717435
 20
112.2359900247
 11
174.6943717435
 21
112.4351189796
  0
LINE
  5
508
100
AcDbEntity
  8
0
100
AcDbLine
 62
7
  6
CONTINUOUS
 10
175.504308378
 20
112.2155585512
 11
175.504308378
 21
112.4147269824
  0
LWPOLYLINE
  5
509
100
AcDbEntity
  8
0
100
AcDbPolyline
 62
7
  6
CONTINUOUS
 90
9
 70
0
 10
171.8840202152
 20
87.3068888636
 10
171.8840150667
 20
63.7849115734
 10
171.8836137454
 20
63.7543563065
 10
171.8826689413
 20
63.7275368605
 10
171.8813239798
 20
63.7044971617
 10
171.8797609535
 20
63.6856198935
 10
171.8782386436
 20
63.6715720679
 10
171.8770188071
 20
63.6625184537
 10
171.8764799665
 20
63.6591235862
  0
LWPOLYLINE
  5
50A
100
AcDbEntity
  8
0
100
AcDbPolyline
 62
7
  6
CONTINUOUS
 90
34
 70
0
 10
173.7465107411
 20
90.2550471062
 10
173.7489409427
 20
90.3812356555
 10
173.756226793
 20
90.5099775504
 10
173.7683537992
 20
90.6410126282
 10
173.7852977992
 20
90.7740769002
 10
173.8070247089
 20
90.908900612
 10
173.8334902942
 20
91.0452086873
 10
173.8646406765
 20
91.1827241315
 10
173.9004130817
 20
91.3211702502
 10
173.9407356337
 20
91.4602686965
 10
173.9855272454
 20
91.5997391878
 10
174.0346972101
 20
91.7392987792
 10
174.0881457196
 20
91.8786640165
 10
174.1457643691
 20
92.0175523331
 10
174.2074369382
 20
92.15568367
 10
174.2730392353
 20
92.2927797575
 10
174.3424395342
 20
92.4285649416
 10
174.4154968377
 20
92.5627630023
 10
174.4920613311
 20
92.6950989033
 10
174.5719779049
 20
92.8253050396
 10
174.6550848512
 20
92.9531184139
 10
174.7412118029
 20
93.0782777206
 10
174.8301827794
 20
93.2005283385
 10
174.921818932
 20
93.3196255983
 10
175.0159369921
 20
93.4353319564
 10
175.1123525684
 20
93.5474205296
 10
175.2108649297
 20
93.6556577641
 10
175.3112586147
 20
93.7598087846
 10
175.413336417
 20
93.859671692
 10
175.5168848685
 20
93.9550402927
 10
175.6216568881
 20
94.0456932885
 10
175.7274267277
 20
94.1314456155
 10
175.833992041
 20
94.2121433758
 10
175.9411371803
 20
94.2876323341
  0
LWPOLYLINE
  5
50B
100
AcDbEntity
  8
0
100
AcDbPolyline
 62
7
  6
CONTINUOUS
 90
10
 70
0
 10
174.6943717435
 20
112.4351189796
 10
174.6962388942
 20
112.4808553247
 10
174.7014751541
 20
112.5235961692
 10
174.7100805235
 20
112.5633415131
 10
174.7221645821
 20
112.6003405307
 10
174.7376177501
 20
112.6343440478
 10
174.7561112874
 20
112.6646045411
 10
174.7775356141
 20
112.6908728364
 10
174.8020003101
 20
112.7133981081
 10
174.8295053755
 20
112.732180356
  0
LWPOLYLINE
  5
50C
100
AcDbEntity
  8
0
100
AcDbPolyline
 62
7
  6
CONTINUOUS
 90
10
 70
0
 10
175.5001467498
 20
112.1206002188
 10
175.501017672
 20
112.1313141788
 10
175.501786327
 20
112.1419880441
 10
175.5024527146
 20
112.1526218147
 10
175.5030166517
 20
112.1632163758
 10
175.5034783216
 20
112.1737708421
 10
175.5038382741
 20
112.1842825584
 10
175.5040966927
 20
112.1947506395
 10
175.504253394
 20
112.2051759704
 10
175.504308378
 20
112.2155585512
  0
LWPOLYLINE
  5
50D
100
AcDbEntity
  8
0
100
AcDbPolyline
 62
7
  6
CONTINUOUS
 90
10
 70
0
 10
174.6921229072
 20
112.1885851575
 10
174.6925950507
 20
112.1939364357
 10
174.6930115732
 20
112.1992677895
 10
174.693372488
 20
112.204578645
 10
174.6936778032
 20
112.209868321
 10
174.6939275551
 20
112.2151363635
 10
174.6941217984
 20
112.2203825398
 10
174.6942605659
 20
112.2256063964
 10
174.6943438788
 20
112.2308072637
 10
174.6943717728
 20
112.2359845864
  0
LINE
  5
50E
100
AcDbEntity
  8
0
100
AcDbLine
 62
7
  6
CONTINUOUS
 10
177.9969957504
 20
111.1669536517
 11
178.0131478605
 21
111.2272313039
  0
LWPOLYLINE
  5
50F
100
AcDbEntity
  8
0
100
AcDbPolyline
 62
7
  6
CONTINUOUS
 90
19
 70
0
 10
178.0131478605
 20
111.2272313039
 10
178.0238207018
 20
111.2610313063
 10
178.0368123956
 20
111.2921262266
 10
178.0521229418
 20
111.3205160649
 10
178.0698618271
 20
111.3463293702
 10
178.0899195648
 20
111.3694375936
 10
178.1119676949
 20
111.3894550876
 10
178.136029426
 20
111.4063231628
 10
178.1620815496
 20
111.4201005087
 10
178.1897259796
 20
111.4305775464
 10
178.2189940502
 20
111.4377053664
 10
178.2498544272
 20
111.4415328782
 10
178.2818150221
 20
111.441997231
 10
178.3148790297
 20
111.4390504376
 10
178.3490432551
 20
111.4327404852
 10
178.3838060254
 20
111.4231484844
 10
178.4190001165
 20
111.4103014722
 10
178.4547927525
 20
111.3941724117
 10
178.4911839335
 20
111.3747613028
  0
LWPOLYLINE
  5
510
100
AcDbEntity
  8
0
100
AcDbPolyline
 62
7
  6
CONTINUOUS
 90
13
 70
0
 10
179.927302245
 20
108.7877542946
 10
179.9475543468
 20
108.8255780236
 10
179.9693733965
 20
108.8625667962
 10
179.9926475985
 20
108.8985310898
 10
180.0172576916
 20
108.9332866367
 10
180.0430775887
 20
108.9666553515
 10
180.0699750228
 20
108.9984662442
 10
180.0978121875
 20
109.0285563177
 10
180.126446441
 20
109.0567714022
 10
180.155731066
 20
109.0829669286
 10
180.1855160136
 20
109.1070086767
 10
180.2156486728
 20
109.1287734629
 10
180.2459746503
 20
109.1481497698
  0
LWPOLYLINE
  5
511
100
AcDbEntity
  8
0
100
AcDbPolyline
 62
7
  6
CONTINUOUS
 90
16
 70
0
 10
196.675410435
 20
109.3532075994
 10
196.6789689456
 20
109.3556868504
 10
196.682472077
 20
109.3585471809
 10
196.6858839623
 20
109.3617593051
 10
196.6891696685
 20
109.3652903354
 10
196.6922955547
 20
109.3691041192
 10
196.6952296161
 20
109.3731616086
 10
196.6979418123
 20
109.3774212608
 10
196.7004043741
 20
109.3818394629
 10
196.7025920883
 20
109.3863709788
 10
196.7044825559
 20
109.3909694122
 10
196.7060564212
 20
109.3955876815
 10
196.70729757
 20
109.4001785023
 10
196.7081932947
 20
109.4046948712
 10
196.7087344243
 20
109.4090905467
 10
196.7089154186
 20
109.4133205236
  0
LWPOLYLINE
  5
512
100
AcDbEntity
  8
0
100
AcDbPolyline
 62
7
  6
CONTINUOUS
 90
25
 70
0
 10
195.6597545497
 20
108.705319889
 10
195.5884390151
 20
108.657210362
 10
195.5176457875
 20
108.6042099084
 10
195.4476581479
 20
108.5465306109
 10
195.378756154
 20
108.4844032751
 10
195.3112155189
 20
108.4180765049
 10
195.245306508
 20
108.3478157086
 10
195.1812928581
 20
108.2739020365
 10
195.1194307218
 20
108.1966312562
 10
195.0599676421
 20
108.1163125689
 10
195.0031415623
 20
108.0332673719
 10
194.9491798736
 20
107.9478279731
 10
194.8982985058
 20
107.8603362611
 10
194.850701062
 20
107.7711423366
 10
194.8065780047
 20
107.6806031116
 10
194.766105894
 20
107.589080882
 10
194.7294466801
 20
107.4969418769
 10
194.6967470556
 20
107.4045547927
 10
194.668137869
 20
107.3122893191
 10
194.6437336007
 20
107.2205146591
 10
194.6236319049
 20
107.1295980513
 10
194.6079132189
 20
107.0399033006
 10
194.5966404416
 20
106.9517893231
 10
194.5898586811
 20
106.8656087093
 10
194.587595075
 20
106.7817063134
  0
LINE
  5
513
100
AcDbEntity
  8
0
100
AcDbLine
 62
7
  6
CONTINUOUS
 10
196.675410435
 20
109.3532075994
 11
195.6597545497
 21
108.705319889
  0
LINE
  5
514
100
AcDbEntity
  8
0
100
AcDbLine
 62
7
  6
CONTINUOUS
 10
175.9411371803
 20
94.2876323341
 11
190.0506330051
 21
102.4342163203
  0
LINE
  5
515
100
AcDbEntity
  8
0
100
AcDbLine
 62
7
  6
CONTINUOUS
 10
200.0179767235
 20
103.5637129661
 11
198.9490925687
 21
103.0080193227
  0
LWPOLYLINE
  5
516
100
AcDbEntity
  8
0
100
AcDbPolyline
 62
7
  6
CONTINUOUS
 90
25
 70
0
 10
198.9490925687
 20
103.0080193227
 10
198.8717728311
 20
102.9703093767
 10
198.7904784186
 20
102.9354975053
 10
198.7055346332
 20
102.9037230093
 10
198.6172813797
 20
102.8751130351
 10
198.526071806
 20
102.8497820664
 10
198.4322708898
 20
102.8278314657
 10
198.3362539782
 20
102.8093490691
 10
198.2384052854
 20
102.7944088343
 10
198.1391163559
 20
102.7830705452
 10
198.0387844971
 20
102.7753795721
 10
197.9378111896
 20
102.7713666908
 10
197.8366004812
 20
102.771047959
 10
197.7355573692
 20
102.7744246519
 10
197.6350861806
 20
102.7814832577
 10
197.5355889536
 20
102.7921955312
 10
197.4374638292
 20
102.806518607
 10
197.3411034578
 20
102.8243951707
 10
197.2468934283
 20
102.8457536889
 10
197.1552107246
 20
102.8705086948
 10
197.0664222177
 20
102.8985611306
 10
196.9808831974
 20
102.9297987437
 10
196.8989359504
 20
102.9640965359
 10
196.820908391
 20
103.0013172635
 10
196.7471127486
 20
103.0413119869
  0
LWPOLYLINE
  5
517
100
AcDbEntity
  8
0
100
AcDbPolyline
 62
7
  6
CONTINUOUS
 90
16
 70
0
 10
200.0179767235
 20
103.5637129661
 10
200.0219029704
 20
103.5655552792
 10
200.0261315656
 20
103.5671590698
 10
200.0306192142
 20
103.5685079174
 10
200.0353199691
 20
103.5695880116
 10
200.0401857011
 20
103.5703882939
 10
200.0451665921
 20
103.5709005704
 10
200.0502116449
 20
103.5711195962
 10
200.0552692052
 20
103.5710431288
 10
200.0602874908
 20
103.5706719511
 10
200.0652151216
 20
103.5700098635
 10
200.0700016456
 20
103.5690636447
 10
200.0745980556
 20
103.5678429827
 10
200.0789572908
 20
103.5663603753
 10
200.0830347189
 20
103.5646310025
 10
200.0867885929
 20
103.5626725703
  0
LINE
  5
518
100
AcDbEntity
  8
0
100
AcDbLine
 62
7
  6
CONTINUOUS
 10
193.9596685311
 20
96.9915255754
 11
193.9031550328
 21
96.9672902941
  0
LWPOLYLINE
  5
519
100
AcDbEntity
  8
0
100
AcDbPolyline
 62
7
  6
CONTINUOUS
 90
28
 70
0
 10
193.9031550328
 20
96.9672902941
 10
193.8182405048
 20
96.9332555379
 10
193.7338243107
 20
96.9045818804
 10
193.6499064507
 20
96.8812693217
 10
193.5660783439
 20
96.8631885162
 10
193.4827485712
 20
96.8504688095
 10
193.4011428746
 20
96.8434982376
 10
193.3213258447
 20
96.8424270115
 10
193.243232891
 20
96.8471049203
 10
193.1678959838
 20
96.8574693673
 10
193.0954501301
 20
96.8736037729
 10
193.025760323
 20
96.8954247168
 10
192.9594535125
 20
96.9226193404
 10
192.8966253162
 20
96.9551620847
 10
192.8371801165
 20
96.9930785087
 10
192.7814580114
 20
97.0361324315
 10
192.7294021811
 20
97.0843875066
 10
192.6810694454
 20
97.1377800805
 10
192.6369703625
 20
97.1958830112
 10
192.5971113908
 20
97.2589079384
 10
192.5614860718
 20
97.3266432225
 10
192.5305855883
 20
97.3980268032
 10
192.5045619329
 20
97.4730357625
 10
192.483263113
 20
97.5516930183
 10
192.4667243333
 20
97.6330052642
 10
192.4549573287
 20
97.7166413977
 10
192.4479503643
 20
97.8029325211
 10
192.4457034402
 20
97.8918786345
  0
LWPOLYLINE
  5
51A
100
AcDbEntity
  8
0
100
AcDbPolyline
 62
7
  6
CONTINUOUS
 90
9
 70
0
 10
129.3711507493
 20
139.3002434929
 10
129.349401337
 20
139.3098110893
 10
129.3297257556
 20
139.320296659
 10
129.3122066181
 20
139.3316562899
 10
129.296917616
 20
139.3438422565
 10
129.2839228394
 20
139.3568034601
 10
129.2732766227
 20
139.3704856873
 10
129.2650235517
 20
139.3848316433
 10
129.2591981903
 20
139.3997812547
  0
LWPOLYLINE
  5
51B
100
AcDbEntity
  8
0
100
AcDbPolyline
 62
7
  6
CONTINUOUS
 90
22
 70
0
 10
152.3776957475
 20
127.785288738
 10
152.3459069824
 20
127.8023606695
 10
152.3120635834
 20
127.8180606519
 10
152.2763427608
 20
127.8323065081
 10
152.2389316849
 20
127.8450236336
 10
152.2000261116
 20
127.8561455244
 10
152.1598293074
 20
127.8656140677
 10
152.1185509184
 20
127.8733797899
 10
152.0764077766
 20
127.8794018102
 10
152.0336224528
 20
127.8836484161
 10
151.9904204978
 20
127.8860975308
 10
151.9470266165
 20
127.8867367223
 10
151.9036654052
 20
127.8855627346
 10
151.8605596336
 20
127.8825812253
 10
151.8179392565
 20
127.8778077238
 10
151.7760372131
 20
127.8712688608
 10
151.7350569479
 20
127.8629965311
 10
151.6952283504
 20
127.8530372907
 10
151.656810797
 20
127.8414613288
 10
151.6200142933
 20
127.8283430277
 10
151.5850042638
 20
127.8137529115
 10
151.551953315
 20
127.7977734871
  0
LWPOLYLINE
  5
51C
100
AcDbEntity
  8
0
100
AcDbPolyline
 62
7
  6
CONTINUOUS
 90
25
 70
0
 10
148.8031631551
 20
130.9698811742
 10
148.8677343315
 20
130.9348857984
 10
148.9360085557
 20
130.9023176134
 10
149.0077126439
 20
130.8723069553
 10
149.0825597513
 20
130.8449739044
 10
149.1602503266
 20
130.8204278773
 10
149.2404732881
 20
130.798767164
 10
149.3229075404
 20
130.7800784489
 10
149.4072232788
 20
130.7644364889
 10
149.4930831009
 20
130.7519038689
 10
149.5801434281
 20
130.7425307308
 10
149.6680558837
 20
130.7363545728
 10
149.7564686841
 20
130.7334001006
 10
149.8450280395
 20
130.7336791282
 10
149.9333795794
 20
130.737190531
 10
150.0211697747
 20
130.7439202506
 10
150.108047331
 20
130.7538413509
 10
150.1936646118
 20
130.7669141255
 10
150.2776790378
 20
130.7830862603
 10
150.3597544237
 20
130.8022930365
 10
150.4395623538
 20
130.8244575942
 10
150.516783509
 20
130.8494912462
 10
150.5911089002
 20
130.8772938224
 10
150.6622411074
 20
130.9077540673
 10
150.7298954977
 20
130.940750093
  0
LINE
  5
51D
100
AcDbEntity
  8
0
100
AcDbLine
 62
7
  6
CONTINUOUS
 10
158.2204325835
 20
124.4117657156
 11
152.3776957475
 21
127.785288738
  0
LINE
  5
51E
100
AcDbEntity
  8
0
100
AcDbLine
 62
7
  6
CONTINUOUS
 10
150.5029179918
 20
131.1457214296
 11
157.5081233342
 21
127.1010109993
  0
LINE
  5
51F
100
AcDbEntity
  8
0
100
AcDbLine
 62
7
  6
CONTINUOUS
 10
150.215438587
 20
131.7851537051
 11
157.218207658
 21
127.7418426088
  0
LINE
  5
520
100
AcDbEntity
  8
0
100
AcDbLine
 62
7
  6
CONTINUOUS
 10
112.8460511699
 20
153.9782493021
 11
194.587595075
 21
106.7817063134
  0
LWPOLYLINE
  5
521
100
AcDbEntity
  8
0
100
AcDbPolyline
 62
7
  6
CONTINUOUS
 90
36
 70
0
 10
157.5081364321
 20
127.1010055851
 10
157.5249265549
 20
127.0908908028
 10
157.5435191946
 20
127.0787988021
 10
157.5644988484
 20
127.0641536497
 10
157.5875834204
 20
127.0469115473
 10
157.6125731466
 20
127.0269924033
 10
157.6392826533
 20
127.0043223736
 10
157.6674498602
 20
126.9789145027
 10
157.6968619449
 20
126.9507570232
 10
157.7273008535
 20
126.9198574109
 10
157.758504262
 20
126.8862950675
 10
157.7902721078
 20
126.850112215
 10
157.822356538
 20
126.8114172524
 10
157.8544378497
 20
126.7704353943
 10
157.8863238738
 20
126.7272739988
 10
157.9177699137
 20
126.682142201
 10
157.9484019748
 20
126.6354773423
 10
157.9780260195
 20
126.5875098001
 10
158.0064690332
 20
126.5384809223
 10
158.0334398942
 20
126.4888964445
 10
158.0588092545
 20
126.4390244972
 10
158.0824653696
 20
126.3891448461
 10
158.1042104123
 20
126.3398017368
 10
158.1239851757
 20
126.2913150832
 10
158.1417828123
 20
126.2439084373
 10
158.1575559823
 20
126.1979802325
 10
158.1713350124
 20
126.1537980643
 10
158.1831795065
 20
126.1115710222
 10
158.1931379119
 20
126.0715967172
 10
158.2013089817
 20
126.0340709836
 10
158.2078112573
 20
125.9991757946
 10
158.2127641911
 20
125.9671665143
 10
158.2163250427
 20
125.938161547
 10
158.218663298
 20
125.9122867265
 10
158.2199595705
 20
125.8897679355
 10
158.2204226927
 20
125.8707039716
  0
LWPOLYLINE
  5
522
100
AcDbEntity
  8
0
100
AcDbPolyline
 62
7
  6
CONTINUOUS
 90
31
 70
0
 10
194.587595075
 20
106.7817063134
 10
194.7006283865
 20
106.7130246568
 10
194.812894289
 20
106.63803303
 10
194.9243927825
 20
106.556731433
 10
195.0354842439
 20
106.4688243375
 10
195.1458082963
 20
106.3746072718
 10
195.254283809
 20
106.2749668209
 10
195.3608251947
 20
106.1699075598
 10
195.4655180407
 20
106.0594249135
 10
195.5675379788
 20
105.9443917421
 10
195.6668795838
 20
105.8247538769
 10
195.7635482809
 20
105.7005654867
 10
195.8567359767
 20
105.5728619378
 10
195.9464075093
 20
105.4416216755
 10
196.0325980406
 20
105.3068662546
 10
196.1146049627
 20
105.1696957054
 10
196.1923945397
 20
105.0300905085
 10
196.2660005074
 20
104.8880701833
 10
196.3348214657
 20
104.7447933191
 10
196.3988211329
 20
104.6002403134
 10
196.4580357905
 20
104.4544307687
 10
196.5119728837
 20
104.3085820812
 10
196.5605828038
 20
104.1627166196
 10
196.6039151594
 20
104.0168120152
 10
196.6416262206
 20
103.8720185583
 10
196.6736771586
 20
103.7282596976
 10
196.7001068022
 20
103.5856119843
 10
196.7206879074
 20
103.4454553622
 10
196.7353447262
 20
103.3082498126
 10
196.7441530066
 20
103.1735353542
 10
196.7471127486
 20
103.0413119869
  0
LWPOLYLINE
  5
523
100
AcDbEntity
  8
0
100
AcDbPolyline
 62
7
  6
CONTINUOUS
 90
28
 70
0
 10
157.218207658
 20
127.7418426088
 10
157.2988030825
 20
127.6928077391
 10
157.3791599013
 20
127.6384511076
 10
157.4592781143
 20
127.5787727141
 10
157.5395732943
 20
127.5134843414
 10
157.6196298686
 20
127.4428742069
 10
157.6982011187
 20
127.3678069622
 10
157.7752274611
 20
127.2881775614
 10
157.8507684793
 20
127.2040910505
 10
157.923756205
 20
127.1167272192
 10
157.9940541142
 20
127.0261344274
 10
158.0617987309
 20
126.9322643153
 10
158.1263316588
 20
126.836151594
 10
158.187554863
 20
126.7379228171
 10
158.2455663784
 20
126.637451431
 10
158.3000019125
 20
126.5353924852
 10
158.3509071793
 20
126.4316503066
 10
158.3982364649
 20
126.3263205682
 10
158.4414883342
 20
126.2203453393
 10
158.4806698077
 20
126.1135142902
 10
158.5157738649
 20
126.0060377505
 10
158.5462780095
 20
125.8994887786
 10
158.5720516548
 20
125.7939143266
 10
158.5932253874
 20
125.6892674423
 10
158.6096684709
 20
125.5869803282
 10
158.6213373264
 20
125.487530385
 10
158.6282755327
 20
125.390440212
 10
158.6304830898
 20
125.2957098091
  0
LWPOLYLINE
  5
524
100
AcDbEntity
  8
0
100
AcDbPolyline
 62
7
  6
CONTINUOUS
 90
14
 70
0
 10
158.6304830898
 20
125.2957098091
 10
158.5698737612
 20
125.3329920457
 10
158.5134680627
 20
125.3724123658
 10
158.4614917318
 20
125.4138130451
 10
158.4141527491
 20
125.4570284674
 10
158.3716406196
 20
125.5018856865
 10
158.3341255752
 20
125.5482051053
 10
158.3017577584
 20
125.5958013375
 10
158.2746666599
 20
125.6444839613
 10
158.2529606871
 20
125.6940581712
 10
158.2367266981
 20
125.7443255947
 10
158.2260296552
 20
125.795085085
 10
158.220912364
 20
125.8461335258
 10
158.2204325835
 20
125.8672942454
  0
LWPOLYLINE
  5
525
100
AcDbEntity
  8
0
100
AcDbPolyline
 62
7
  6
CONTINUOUS
 90
10
 70
0
 10
179.484326729
 20
110.8013330997
 10
179.5250104072
 20
110.7756885107
 10
179.5647694253
 20
110.7467145149
 10
179.6036037832
 20
110.7144111122
 10
179.6417848024
 20
110.6784892612
 10
179.6790411616
 20
110.6392380034
 10
179.7145588962
 20
110.5975244628
 10
179.748066685
 20
110.5536376807
 10
179.7798358492
 20
110.5072886158
 10
179.809866389
 20
110.458477268
  0
LWPOLYLINE
  5
526
100
AcDbEntity
  8
0
100
AcDbPolyline
 62
7
  6
CONTINUOUS
 90
3
 70
0
 10
177.2697417044
 20
111.3857654425
 10
177.2883998123
 20
111.3732050013
 10
177.2906092743
 20
111.3719103792
  0
LWPOLYLINE
  5
527
100
AcDbEntity
  8
0
100
AcDbPolyline
 62
7
  6
CONTINUOUS
 90
4
 70
0
 10
180.4134653229
 20
108.9387254907
 10
180.3892306149
 20
108.9587979514
 10
180.3675102509
 20
108.979808001
 10
180.3484125556
 20
109.0016508413
  0
LWPOLYLINE
  5
528
100
AcDbEntity
  8
0
100
AcDbPolyline
 62
7
  6
CONTINUOUS
 90
23
 70
0
 10
177.9969957504
 20
111.1669536517
 10
178.0243854974
 20
111.143965294
 10
178.0534598231
 20
111.1220822285
 10
178.0841005393
 20
111.1013989199
 10
178.1161979042
 20
111.0819962888
 10
178.1496057623
 20
111.0639692303
 10
178.1841363169
 20
111.0474194696
 10
178.2196131993
 20
111.0324252076
 10
178.2559129461
 20
111.0190324809
 10
178.2929188182
 20
111.0072834873
 10
178.3304995026
 20
110.9972235693
 10
178.3684748058
 20
110.9889045642
 10
178.4066523112
 20
110.9823681384
 10
178.4448408123
 20
110.9776420264
 10
178.4829107051
 20
110.9747372774
 10
178.5207607318
 20
110.9736629666
 10
178.5583068468
 20
110.974432638
 10
178.5953115329
 20
110.9770527247
 10
178.6314526965
 20
110.9814932354
 10
178.6664785488
 20
110.9876938244
 10
178.7003681873
 20
110.9956207863
 10
178.7331493292
 20
111.005273588
 10
178.7618274256
 20
111.0155931717
  0
LWPOLYLINE
  5
529
100
AcDbEntity
  8
0
100
AcDbPolyline
 62
7
  6
CONTINUOUS
 90
20
 70
0
 10
178.0131478605
 20
111.2272313039
 10
178.04054028
 20
111.2042408246
 10
178.0695949049
 20
111.1823720238
 10
178.1001901426
 20
111.161716523
 10
178.1321981109
 20
111.1423607719
 10
178.165484675
 20
111.124385993
 10
178.1999099445
 20
111.1078677673
 10
178.2353295626
 20
111.0928753372
 10
178.2715953793
 20
111.0794713878
 10
178.30855553
 20
111.0677120413
 10
178.3460552379
 20
111.0576465349
 10
178.383937466
 20
111.0493170133
 10
178.4220435809
 20
111.04275835
 10
178.4602140081
 20
111.0379980042
 10
178.4982889066
 20
111.0350559039
 10
178.536108842
 20
111.0339443632
 10
178.5735154408
 20
111.0346680314
 10
178.6103520627
 20
111.0372238729
 10
178.6464644632
 20
111.0416011809
 10
178.6817014191
 20
111.0477816217
  0
LWPOLYLINE
  5
52A
100
AcDbEntity
  8
0
100
AcDbPolyline
 62
7
  6
CONTINUOUS
 90
10
 70
0
 10
180.3875296165
 20
108.9090955915
 10
180.3657501744
 20
108.9289954411
 10
180.3465861262
 20
108.9495041855
 10
180.3301331244
 20
108.9705208742
 10
180.3164733122
 20
108.9919411765
 10
180.3056749809
 20
109.0136593596
 10
180.2977921024
 20
109.0355680791
 10
180.292864006
 20
109.0575577604
 10
180.2909152218
 20
109.0795177113
 10
180.2912874779
 20
109.0942396988
  0
LWPOLYLINE
  5
52B
100
AcDbEntity
  8
0
100
AcDbPolyline
 62
7
  6
CONTINUOUS
 90
5
 70
0
 10
180.3892318417
 20
109.1579393899
 10
180.3675113753
 20
109.1789493576
 10
180.3484134431
 20
109.2007922661
 10
180.3320334437
 20
109.2233590396
 10
180.3184531135
 20
109.2465370606
  0
LWPOLYLINE
  5
52C
100
AcDbEntity
  8
0
100
AcDbPolyline
 62
7
  6
CONTINUOUS
 90
22
 70
0
 10
174.8295053755
 20
112.732180356
 10
174.85189282
 20
112.6957642887
 10
174.8763211919
 20
112.6607772451
 10
174.9026664274
 20
112.6273969049
 10
174.930794722
 20
112.5957927937
 10
174.9605632279
 20
112.5661254029
 10
174.9918207824
 20
112.5385453787
 10
175.0244086509
 20
112.5131927812
 10
175.058161329
 20
112.4901963695
 10
175.092907403
 20
112.4696729302
 10
175.1284704146
 20
112.4517266915
 10
175.164669757
 20
112.4364487934
 10
175.2013215918
 20
112.4239168246
 10
175.2382397825
 20
112.4141944286
 10
175.2752368398
 20
112.4073309805
 10
175.3121248746
 20
112.4033613365
 10
175.3487165518
 20
112.4023056565
 10
175.3848260394
 20
112.4041693015
 10
175.4202699526
 20
112.4089428058
 10
175.4548682884
 20
112.4166019263
 10
175.4884453401
 20
112.4271077661
 10
175.5208305868
 20
112.4404069706
  0
LWPOLYLINE
  5
52D
100
AcDbEntity
  8
0
100
AcDbPolyline
 62
7
  6
CONTINUOUS
 90
16
 70
0
 10
175.353487586
 20
113.0315345373
 10
175.3758750389
 20
112.9951184534
 10
175.4003034138
 20
112.9601314044
 10
175.4266486453
 20
112.9267510688
 10
175.4547769237
 20
112.895146975
 10
175.4845454031
 20
112.8654796078
 10
175.515802932
 20
112.8378996
 10
175.5483907803
 20
112.8125470088
 10
175.5821434409
 20
112.7895505979
 10
175.6168895015
 20
112.7690271558
 10
175.6524525044
 20
112.7510809115
 10
175.6886518427
 20
112.7358030057
 10
175.7253036774
 20
112.723271028
 10
175.762221872
 20
112.7135486228
 10
175.7992189373
 20
112.7066851658
 10
175.8361069823
 20
112.7027155136
  0
LWPOLYLINE
  5
52E
100
AcDbEntity
  8
0
100
AcDbPolyline
 62
7
  6
CONTINUOUS
 90
9
 70
0
 10
175.504308119
 20
112.4147038188
 10
175.5039004045
 20
112.4179309203
 10
175.5040710615
 20
112.421118384
 10
175.5048166628
 20
112.4242412467
 10
175.5061367271
 20
112.4272776623
 10
175.508019313
 20
112.4302050646
 10
175.51044189
 20
112.4329993253
 10
175.5133902298
 20
112.4356405938
 10
175.5168576566
 20
112.4381144477
  0
LWPOLYLINE
  5
52F
100
AcDbEntity
  8
0
100
AcDbPolyline
 62
7
  6
CONTINUOUS
 90
31
 70
0
 10
178.3361516701
 20
90.1393455572
 10
178.3214071451
 20
90.2797168072
 10
178.3007701843
 20
90.4237891678
 10
178.2742968063
 20
90.5711715559
 10
178.242058873
 20
90.7214639034
 10
178.2041438938
 20
90.8742582431
 10
178.1606547888
 20
91.0291398157
 10
178.1117096088
 20
91.1856881961
 10
178.0574412151
 20
91.3434784356
 10
177.9979969184
 20
91.5020822148
 10
177.9335380795
 20
91.6610690057
 10
177.8642396714
 20
91.8200072395
 10
177.7902898041
 20
91.9784654796
 10
177.7118892139
 20
92.1360135924
 10
177.6292507184
 20
92.292223915
 10
177.5425986393
 20
92.4466724157
 10
177.4521681927
 20
92.5989398455
 10
177.3582048513
 20
92.7486128758
 10
177.260963678
 20
92.8952852202
 10
177.160708633
 20
93.0385587381
 10
177.0577118578
 20
93.1780445146
 10
176.9522529366
 20
93.3133639166
 10
176.844618137
 20
93.4441496204
 10
176.7350996325
 20
93.5700466099
 10
176.6239947091
 20
93.6907131398
 10
176.5116049597
 20
93.8058216625
 10
176.3982354658
 20
93.9150597162
 10
176.2841939685
 20
94.0181307746
 10
176.1697900329
 20
94.114755052
 10
176.0553342071
 20
94.2046702632
 10
175.9411371803
 20
94.2876323341
  0
LWPOLYLINE
  5
530
100
AcDbEntity
  8
0
100
AcDbPolyline
 62
7
  6
CONTINUOUS
 90
3
 70
0
 10
180.2951154689
 20
109.119429522
 10
180.2932670152
 20
109.1438747865
 10
180.2932463006
 20
109.1467421598
  0
LINE
  5
531
100
AcDbEntity
  8
0
100
AcDbLine
 62
7
  6
CONTINUOUS
 10
180.2931655188
 20
109.348201523
 11
180.293247192
 21
109.3458671214
  0
LWPOLYLINE
  5
532
100
AcDbEntity
  8
0
100
AcDbPolyline
 62
7
  6
CONTINUOUS
 90
14
 70
0
 10
176.6721700415
 20
112.4250371264
 10
176.6730583622
 20
112.3938655948
 10
176.6757196007
 20
112.3638504406
 10
176.6801426071
 20
112.3351173506
 10
176.6863088507
 20
112.3077866529
 10
176.6941925057
 20
112.281972779
 10
176.7037605661
 20
112.2577837913
 10
176.7149729707
 20
112.2353209738
 10
176.7277827639
 20
112.2146784016
 10
176.7421363044
 20
112.1959425176
 10
176.7579734864
 20
112.1791917796
 10
176.7752279913
 20
112.1644963328
 10
176.7938275653
 20
112.1519177159
 10
176.7964010072
 20
112.1504057545
  0
LWPOLYLINE
  5
533
100
AcDbEntity
  8
0
100
AcDbPolyline
 62
7
  6
CONTINUOUS
 90
12
 70
0
 10
177.1663582247
 20
111.6465533487
 10
177.1672462956
 20
111.6153861266
 10
177.1699095342
 20
111.5853521538
 10
177.1743408773
 20
111.5565801905
 10
177.1805291266
 20
111.5291815691
 10
177.1884505741
 20
111.5032889742
 10
177.1980609562
 20
111.4790484277
 10
177.2093068647
 20
111.4565760783
 10
177.2221449654
 20
111.4359426917
 10
177.2365333751
 20
111.4172135675
 10
177.2524235318
 20
111.4004595866
 10
177.2697417044
 20
111.3857654425
  0
LWPOLYLINE
  5
534
100
AcDbEntity
  8
0
100
AcDbPolyline
 62
7
  6
CONTINUOUS
 90
14
 70
0
 10
177.9969957504
 20
111.1669536517
 10
177.9978838213
 20
111.1357864302
 10
178.0005470598
 20
111.1057524578
 10
178.0049784028
 20
111.0769804945
 10
178.011166652
 20
111.0495818729
 10
178.0190880996
 20
111.0236892776
 10
178.028698482
 20
110.9994487306
 10
178.0399443909
 20
110.9769763804
 10
178.0527824923
 20
110.956342993
 10
178.0671709024
 20
110.9376138686
 10
178.083061059
 20
110.9208598882
 10
178.100379231
 20
110.9061657449
 10
178.1190373382
 20
110.8936053042
 10
178.1211995556
 20
110.8923379686
  0
LWPOLYLINE
  5
535
100
AcDbEntity
  8
0
100
AcDbPolyline
 62
7
  6
CONTINUOUS
 90
14
 70
0
 10
178.4911839335
 20
111.3747613028
 10
178.4920722574
 20
111.3435897249
 10
178.4947335039
 20
111.3135745327
 10
178.4991565221
 20
111.2848414126
 10
178.5053227804
 20
111.2575106927
 10
178.5132064522
 20
111.2316968042
 10
178.5227745306
 20
111.207507809
 10
178.5339869536
 20
111.1850449905
 10
178.5467967647
 20
111.1644024231
 10
178.5611503219
 20
111.1456665485
 10
178.5769875189
 20
111.128915824
 10
178.5942420362
 20
111.1142203937
 10
178.6128416198
 20
111.1016417952
 10
178.6154335088
 20
111.1001191846
  0
LWPOLYLINE
  5
536
100
AcDbEntity
  8
0
100
AcDbPolyline
 62
7
  6
CONTINUOUS
 90
14
 70
0
 10
179.484326729
 20
110.8013330997
 10
179.4852150165
 20
110.7701621584
 10
179.4878761762
 20
110.7401473586
 10
179.4922990928
 20
110.7114144056
 10
179.4984652865
 20
110.6840835886
 10
179.5063489568
 20
110.6582694378
 10
179.5159170564
 20
110.6340802137
 10
179.5271294918
 20
110.6116172511
 10
179.5399393242
 20
110.5909745638
 10
179.5542929099
 20
110.5722385907
 10
179.5701301401
 20
110.5554877874
 10
179.5873846931
 20
110.5407922966
 10
179.6059843127
 20
110.5282136535
 10
179.608576309
 20
110.5266909787
  0
LINE
  5
537
100
AcDbEntity
  8
0
100
AcDbLine
 62
7
  6
CONTINUOUS
 10
178.3361516701
 20
56.9477780276
 11
178.3361516701
 21
90.1393455572
  0
LINE
  5
538
100
AcDbEntity
  8
0
100
AcDbLine
 62
7
  6
CONTINUOUS
 10
180.2932463002
 20
109.3458960241
 11
180.2932463002
 21
109.1467534886
  0
LWPOLYLINE
  5
539
100
AcDbEntity
  8
0
100
AcDbPolyline
 62
7
  6
CONTINUOUS
 90
10
 70
0
 10
180.4689822315
 20
109.1009312567
 10
180.4689630534
 20
108.8966138316
 10
180.4689048886
 20
108.8913979614
 10
180.4688076764
 20
108.8861497803
 10
180.4686713897
 20
108.8808699647
 10
180.4684960102
 20
108.8755589663
 10
180.4682815184
 20
108.870217006
 10
180.4680278924
 20
108.8648445359
 10
180.4677351184
 20
108.8594422435
 10
180.4674031875
 20
108.854010705
  0
LWPOLYLINE
  5
53A
100
AcDbEntity
  8
0
100
AcDbPolyline
 62
7
  6
CONTINUOUS
 90
4
 70
0
 10
180.2932460187
 20
109.1467421596
 10
180.293101452
 20
109.1329492599
 10
180.2926591259
 20
109.1185896405
 10
180.2918912327
 20
109.1034181002
  0
LINE
  5
53B
100
AcDbEntity
  8
0
100
AcDbLine
 62
7
  6
CONTINUOUS
 10
180.2918912327
 20
109.1034181002
 11
180.2912853341
 21
109.0942399617
  0
LINE
  5
53C
100
AcDbEntity
  8
0
100
AcDbLine
 62
7
  6
CONTINUOUS
 10
180.2912874779
 20
109.0942396988
 11
180.29135974
 21
109.0952078439
  0
LINE
  5
53D
100
AcDbEntity
  8
0
100
AcDbLine
 62
7
  6
CONTINUOUS
 10
180.29135974
 20
109.0952078439
 11
180.2919554387
 21
109.1013377902
  0
LWPOLYLINE
  5
53E
100
AcDbEntity
  8
0
100
AcDbPolyline
 62
7
  6
CONTINUOUS
 90
28
 70
0
 10
180.4674031875
 20
108.854010705
 10
180.4655642981
 20
108.8386297024
 10
180.4618899353
 20
108.8238010258
 10
180.4563739038
 20
108.8095363019
 10
180.449075666
 20
108.7958063293
 10
180.4399244122
 20
108.7826657118
 10
180.4287199406
 20
108.7702531216
 10
180.4153979232
 20
108.7585307911
 10
180.4000121574
 20
108.7475660242
 10
180.3825582425
 20
108.7376595065
 10
180.3629304286
 20
108.7288207462
 10
180.3412607437
 20
108.7210766627
 10
180.3179480098
 20
108.7147576997
 10
180.2929026014
 20
108.7099388051
 10
180.266295892
 20
108.7065732405
 10
180.2389719538
 20
108.704804077
 10
180.2109798568
 20
108.7047394914
 10
180.1823867977
 20
108.7062742759
 10
180.1540936314
 20
108.7092222305
 10
180.1263396541
 20
108.7136261071
 10
180.0989833887
 20
108.7194272613
 10
180.0723506507
 20
108.7262845298
 10
180.046646608
 20
108.7341110767
 10
180.0217164888
 20
108.7429795449
 10
179.9973320717
 20
108.7527907882
 10
179.9734225582
 20
108.7635098186
 10
179.9500776982
 20
108.7751649154
 10
179.927302245
 20
108.7877542946
  0
LINE
  5
53F
100
AcDbEntity
  8
0
100
AcDbLine
 62
7
  6
CONTINUOUS
 10
180.2919554387
 20
109.1013377902
 11
180.2959794422
 21
109.1229087533
  0
LINE
  5
540
100
AcDbEntity
  8
0
100
AcDbLine
 62
7
  6
CONTINUOUS
 10
201.092977462
 20
103.3083314025
 11
200.8101347495
 21
103.1450215652
  0
LINE
  5
541
100
AcDbEntity
  8
0
100
AcDbLine
 62
7
  6
CONTINUOUS
 10
178.3361516701
 20
90.1393455572
 11
192.4457034402
 21
98.2858359705
  0
LWPOLYLINE
  5
542
100
AcDbEntity
  8
0
100
AcDbPolyline
 62
7
  6
CONTINUOUS
 90
31
 70
0
 10
107.3882298913
 20
126.3924288769
 10
107.3526299997
 20
126.3866602375
 10
107.3190408243
 20
126.3793724942
 10
107.2875321544
 20
126.3705726022
 10
107.2581382831
 20
126.3602692898
 10
107.2308697093
 20
126.3484701634
 10
107.2057603374
 20
126.3351842088
 10
107.1828305784
 20
126.3204126649
 10
107.1621045215
 20
126.3041760484
 10
107.1436202812
 20
126.2865214281
 10
107.1274186538
 20
126.2674734842
 10
107.1134991832
 20
126.247053276
 10
107.1018352969
 20
126.2253165083
 10
107.0924589312
 20
126.2023046933
 10
107.0853730353
 20
126.1780386052
 10
107.0805057681
 20
126.1525484368
 10
107.077869205
 20
126.1258897987
 10
107.0774824876
 20
126.0980730097
 10
107.0792868248
 20
126.0690510026
 10
107.0832778032
 20
126.0388644713
 10
107.0894947151
 20
126.0075232285
 10
107.097952593
 20
125.9749118115
 10
107.1086523592
 20
125.9410413618
 10
107.121638834
 20
125.9059297482
 10
107.1370044594
 20
125.8694480533
 10
107.1547628804
 20
125.8316006206
 10
107.1749594398
 20
125.7923998042
 10
107.197746766
 20
125.7517097864
 10
107.2232034468
 20
125.7094849425
 10
107.2513271725
 20
125.6657815159
 10
107.2821564967
 20
125.6206109747
  0
LINE
  5
543
100
AcDbEntity
  8
0
100
AcDbLine
 62
7
  6
CONTINUOUS
 10
107.4258444147
 20
126.3966764691
 11
107.3882298913
 21
126.3924288769
  0
LWPOLYLINE
  5
544
100
AcDbEntity
  8
0
100
AcDbPolyline
 62
7
  6
CONTINUOUS
 90
8
 70
0
 10
150.4824879588
 20
131.1588015183
 10
150.4750053844
 20
131.1607271169
 10
150.4702638833
 20
131.1621562141
 10
150.4695893279
 20
131.1623786555
 10
150.4728054378
 20
131.1610678353
 10
150.479581447
 20
131.157999428
 10
150.4896687726
 20
131.1529618976
 10
150.5029179918
 20
131.1457214296
  0
LWPOLYLINE
  5
545
100
AcDbEntity
  8
0
100
AcDbPolyline
 62
7
  6
CONTINUOUS
 90
8
 70
0
 10
112.8997625387
 20
143.7957760813
 10
112.8922799644
 20
143.7977016799
 10
112.8875384632
 20
143.7991307771
 10
112.8868639079
 20
143.7993532185
 10
112.8900800178
 20
143.7980423983
 10
112.8968560269
 20
143.794973991
 10
112.9069433524
 20
143.7899364606
 10
112.9201925717
 20
143.7826959926
  0
LINE
  5
546
100
AcDbEntity
  8
0
100
AcDbLine
 62
7
  6
CONTINUOUS
 10
132.5203488885
 20
136.7033071402
 11
132.5172323581
 21
136.7041671507
  0
LWPOLYLINE
  5
547
100
AcDbEntity
  8
0
100
AcDbPolyline
 62
7
  6
CONTINUOUS
 90
12
 70
0
 10
129.4366504946
 20
139.2050883983
 10
129.4110368898
 20
139.2127035118
 10
129.3872890416
 20
139.2213193074
 10
129.3655110117
 20
139.2309019259
 10
129.3457901451
 20
139.2414184921
 10
129.3282251817
 20
139.252822502
 10
129.3129153911
 20
139.2650499319
 10
129.2999303252
 20
139.2780369918
 10
129.2893067795
 20
139.2917371866
 10
129.2810777269
 20
139.3061062719
 10
129.2752773561
 20
139.3210940315
 10
129.2730960424
 20
139.3297643914
  0
LWPOLYLINE
  5
548
100
AcDbEntity
  8
0
100
AcDbPolyline
 62
7
  6
CONTINUOUS
 90
3
 70
0
 10
129.4204983845
 20
139.2840181024
 10
129.39488292
 20
139.2916338296
 10
129.3711507493
 20
139.3002434929
  0
LWPOLYLINE
  5
549
100
AcDbEntity
  8
0
100
AcDbPolyline
 62
7
  6
CONTINUOUS
 90
18
 70
0
 10
115.2502142259
 20
157.6083946379
 10
115.0543392458
 20
157.7160257217
 10
114.8597844572
 20
157.8122922706
 10
114.6665498601
 20
157.8971942847
 10
114.4742043491
 20
157.970872393
 10
114.2831790295
 20
158.0331859664
 10
114.0947672177
 20
158.0837131176
 10
113.9089866479
 20
158.1223738675
 10
113.7258195859
 20
158.1492481953
 10
113.5465061443
 20
158.1641541511
 10
113.3710724725
 20
158.1670105212
 10
113.1994924212
 20
158.1578985195
 10
113.0329276543
 20
158.1368798377
 10
112.8714122042
 20
158.1038736806
 10
112.7149120386
 20
158.0589608434
 10
112.5644867248
 20
158.0024454037
 10
112.4201774851
 20
157.9342486295
 10
112.3501020748
 20
157.8956844617
  0
LWPOLYLINE
  5
54A
100
AcDbEntity
  8
0
100
AcDbPolyline
 62
7
  6
CONTINUOUS
 90
16
 70
0
 10
114.9673715134
 20
157.4450848006
 10
114.7880872253
 20
157.5440573269
 10
114.6097200461
 20
157.633550828
 10
114.4322699758
 20
157.713565304
 10
114.2553097274
 20
157.7842427089
 10
114.079266588
 20
157.8454410886
 10
113.9054224187
 20
157.8967345811
 10
113.7340074742
 20
157.9380194196
 10
113.5647914998
 20
157.9693993709
 10
113.3983655933
 20
157.9907598737
 10
113.2345048569
 20
158.0020685212
 10
113.0734341883
 20
158.0033577201
 10
112.9164193789
 20
157.994610129
 10
112.7636847159
 20
157.9757759961
 10
112.6150059122
 20
157.9469050732
 10
112.4709758971
 20
157.9081292739
  0
LINE
  5
54B
100
AcDbEntity
  8
0
100
AcDbLine
 62
7
  6
CONTINUOUS
 10
113.9182106445
 20
155.9018628777
 11
195.6597545497
 21
108.705319889
  0
LINE
  5
54C
100
AcDbEntity
  8
0
100
AcDbLine
 62
7
  6
CONTINUOUS
 10
114.9338665299
 20
156.5497505881
 11
196.675410435
 21
109.3532075994
  0
LINE
  5
54D
100
AcDbEntity
  8
0
100
AcDbLine
 62
7
  6
CONTINUOUS
 10
114.9673715134
 20
156.6098635123
 11
196.7089154186
 21
109.4133205236
  0
LINE
  5
54E
100
AcDbEntity
  8
0
100
AcDbLine
 62
7
  6
CONTINUOUS
 10
196.7089154186
 20
110.2485418119
 11
114.9673715134
 21
157.4450848006
  0
LINE
  5
54F
100
AcDbEntity
  8
0
100
AcDbLine
 62
7
  6
CONTINUOUS
 10
196.9917581311
 20
110.4118516492
 11
115.2502142259
 21
157.6083946379
  0
LWPOLYLINE
  5
550
100
AcDbEntity
  8
0
100
AcDbPolyline
 62
7
  6
CONTINUOUS
 90
34
 70
0
 10
195.6597545497
 20
108.705319889
 10
195.8162675079
 20
108.6106493368
 10
195.9724259275
 20
108.5075893715
 10
196.1278760592
 20
108.3963734548
 10
196.2822657613
 20
108.2772535222
 10
196.4352452883
 20
108.1504994185
 10
196.5864680834
 20
108.0163982885
 10
196.7355915794
 20
107.8752539126
 10
196.8822779619
 20
107.7273860289
 10
197.0261949274
 20
107.5731296179
 10
197.16701645
 20
107.4128341304
 10
197.3044235325
 20
107.2468626795
 10
197.4381049156
 20
107.07559123
 10
197.5677577732
 20
106.8994077582
 10
197.6930883934
 20
106.7187113835
 10
197.8138128561
 20
106.5339114495
 10
197.929657679
 20
106.3454265924
 10
198.0403604395
 20
106.1536837867
 10
198.1456703632
 20
105.9591173864
 10
198.2453488915
 20
105.7621681418
 10
198.3391702174
 20
105.5632822111
 10
198.426921801
 20
105.3629101448
 10
198.5084048539
 20
105.1615058594
 10
198.5834347955
 20
104.9595255914
 10
198.6518416655
 20
104.7574268727
 10
198.7134705025
 20
104.5556675105
 10
198.768181692
 20
104.3547045664
 10
198.8158512909
 20
104.1549933028
 10
198.8563713125
 20
103.956986131
 10
198.8896499668
 20
103.7611315998
 10
198.915611866
 20
103.5678733953
 10
198.9341981997
 20
103.3776493129
 10
198.9453668668
 20
103.190890266
 10
198.9490925687
 20
103.0080193227
  0
LWPOLYLINE
  5
551
100
AcDbEntity
  8
0
100
AcDbPolyline
 62
7
  6
CONTINUOUS
 90
34
 70
0
 10
196.675410435
 20
109.3532075994
 10
196.8344561567
 20
109.2570050439
 10
196.9931416003
 20
109.152277312
 10
197.151107292
 20
109.0392616439
 10
197.3079953912
 20
108.9182140525
 10
197.4634504925
 20
108.7894087498
 10
197.6171204312
 20
108.6531375275
 10
197.7686571005
 20
108.5097090781
 10
197.9177172151
 20
108.359448318
 10
198.0639630811
 20
108.2026956628
 10
198.2070634022
 20
108.0398062149
 10
198.3466940152
 20
107.87114897
 10
198.4825386015
 20
107.6971060094
 10
198.6142894162
 20
107.5180716224
 10
198.7416480219
 20
107.334451361
 10
198.8643259488
 20
107.1466611318
 10
198.9820453068
 20
106.9551263132
 10
199.0945394066
 20
106.7602808168
 10
199.2015534012
 20
106.5625660504
 10
199.3028448579
 20
106.3624299279
 10
199.3981843345
 20
106.160325796
 10
199.4873558824
 20
105.9567114265
 10
199.5701575051
 20
105.7520480447
 10
199.6464016144
 20
105.5467993033
 10
199.7159154827
 20
105.3414301737
 10
199.7785416373
 20
105.1364058776
 10
199.8341382046
 20
104.9321908673
 10
199.8825792296
 20
104.7292477896
 10
199.9237549771
 20
104.5280363831
 10
199.9575721725
 20
104.3290124498
 10
199.983954208
 20
104.1326268556
 10
200.0028413212
 20
103.9393244809
 10
200.0141907291
 20
103.7495432128
 10
200.0179767235
 20
103.5637129661
  0
LWPOLYLINE
  5
552
100
AcDbEntity
  8
0
100
AcDbPolyline
 62
7
  6
CONTINUOUS
 90
34
 70
0
 10
196.7089154186
 20
109.4133205236
 10
196.8696551397
 20
109.3160929688
 10
197.0294903724
 20
109.2106401363
 10
197.1884211165
 20
109.096962026
 10
197.3468728779
 20
108.9747190133
 10
197.5044201507
 20
108.8442507229
 10
197.6597864179
 20
108.7065760287
 10
197.8128727855
 20
108.5617042714
 10
197.9637781475
 20
108.4096261105
 10
198.1115226687
 20
108.2513323985
 10
198.25610571
 20
108.0867608071
 10
198.3975279104
 20
107.9159736646
 10
198.5348113529
 20
107.7401488086
 10
198.6679194047
 20
107.5592614626
 10
198.7968886985
 20
107.373336403
 10
198.9208512148
 20
107.1836257972
 10
199.0397760572
 20
106.9900993992
 10
199.153694122
 20
106.792787455
 10
199.2618300791
 20
106.5930328698
 10
199.3641422924
 20
106.3908239877
 10
199.460672398
 20
106.1861724647
 10
199.550769973
 20
105.9804561737
 10
199.6343952194
 20
105.7736558375
 10
199.7115879353
 20
105.5657907332
 10
199.7818170918
 20
105.3582965658
 10
199.8450284032
 20
105.1512039378
 10
199.9012761553
 20
104.9444822467
 10
199.9501921763
 20
104.7394753895
 10
199.9917351133
 20
104.5360928498
 10
200.0259463193
 20
104.3344251441
 10
200.0525816816
 20
104.1360877187
 10
200.0715598291
 20
103.9416190556
 10
200.0829621329
 20
103.7504806728
 10
200.0867885929
 20
103.5626725703
  0
LWPOLYLINE
  5
553
100
AcDbEntity
  8
0
100
AcDbPolyline
 62
7
  6
CONTINUOUS
 90
6
 70
0
 10
180.3484125556
 20
109.0016508413
 10
180.3320327551
 20
109.0242175562
 10
180.3184525626
 20
109.0473955875
 10
180.3077397451
 20
109.0710692992
 10
180.2999477523
 20
109.095120604
 10
180.2952263485
 20
109.1188717397
  0
LINE
  5
554
100
AcDbEntity
  8
0
100
AcDbLine
 62
7
  6
CONTINUOUS
 10
177.0972000628
 20
111.5501466027
 11
177.0735316324
 21
111.5871872843
  0
LINE
  5
555
100
AcDbEntity
  8
0
100
AcDbLine
 62
7
  6
CONTINUOUS
 10
179.7149647058
 20
110.4026648273
 11
180.2389469025
 21
109.4982291472
  0
LINE
  5
556
100
AcDbEntity
  8
0
100
AcDbLine
 62
7
  6
CONTINUOUS
 10
179.809866389
 20
110.458477268
 11
180.3338485995
 21
109.5540415642
  0
LWPOLYLINE
  5
557
100
AcDbEntity
  8
0
100
AcDbPolyline
 62
7
  6
CONTINUOUS
 90
15
 70
0
 10
180.2389470546
 20
109.4982292172
 10
180.2427798526
 20
109.4915008248
 10
180.2510965437
 20
109.4760419926
 10
180.2587345403
 20
109.4606199038
 10
180.2655981388
 20
109.4455078214
 10
180.2716544882
 20
109.4308809944
 10
180.2768889845
 20
109.4169071622
 10
180.2812828934
 20
109.4038337281
 10
180.284864833
 20
109.391834484
 10
180.2876918809
 20
109.3810031047
 10
180.289827273
 20
109.3714515177
 10
180.2913517657
 20
109.3632731596
 10
180.2923528014
 20
109.3565642176
 10
180.2929244363
 20
109.3514298895
 10
180.2931655188
 20
109.348201523
  0
LWPOLYLINE
  5
558
100
AcDbEntity
  8
0
100
AcDbPolyline
 62
7
  6
CONTINUOUS
 90
10
 70
0
 10
180.3338485995
 20
109.5540415642
 10
180.3613563247
 20
109.503490281
 10
180.3858226251
 20
109.4527096274
 10
180.4072475007
 20
109.4016996033
 10
180.4257400107
 20
109.3500858168
 10
180.4411910959
 20
109.2982426598
 10
180.4532735784
 20
109.2472933078
 10
180.4618783988
 20
109.1976121525
 10
180.4671146166
 20
109.1488248021
 10
180.4689822315
 20
109.1009312567
  0
LWPOLYLINE
  5
559
100
AcDbEntity
  8
0
100
AcDbPolyline
 62
7
  6
CONTINUOUS
 90
6
 70
0
 10
177.0735316324
 20
111.5871872843
 10
177.052595862
 20
111.625947853
 10
177.0345254949
 20
111.6662264032
 10
177.0194365704
 20
111.7078148933
 10
177.0074327673
 20
111.7504862849
 10
177.0027999165
 20
111.7712481955
  0
LWPOLYLINE
  5
55A
100
AcDbEntity
  8
0
100
AcDbPolyline
 62
7
  6
CONTINUOUS
 90
6
 70
0
 10
180.3184531135
 20
109.2465370606
 10
180.3077401682
 20
109.2702107444
 10
180.299948052
 20
109.2942619931
 10
180.2951156379
 20
109.3185708259
 10
180.2932670346
 20
109.3430159766
 10
180.2932463023
 20
109.3458671208
  0
LINE
  5
55B
100
AcDbEntity
  8
0
100
AcDbLine
 62
7
  6
CONTINUOUS
 10
180.2469400882
 20
109.1456321011
 11
180.2459749617
 21
109.1481495441
  0
LINE
  5
55C
100
AcDbEntity
  8
0
100
AcDbLine
 62
7
  6
CONTINUOUS
 10
176.9889059204
 20
111.8412462051
 11
176.9866564036
 21
111.8501358891
  0
LINE
  5
55D
100
AcDbEntity
  8
0
100
AcDbLine
 62
7
  6
CONTINUOUS
 10
176.9866520398
 20
111.8501572013
 11
177.0028041532
 21
111.7712274813
  0
LINE
  5
55E
100
AcDbEntity
  8
0
100
AcDbLine
 62
7
  6
CONTINUOUS
 10
177.1502061146
 20
111.7254830528
 11
177.1663582247
 21
111.6465533487
  0
LINE
  5
55F
100
AcDbEntity
  8
0
100
AcDbLine
 62
7
  6
CONTINUOUS
 10
193.9031550328
 20
88.8814495783
 11
194.7526152655
 21
89.3402690796
  0
LWPOLYLINE
  5
560
100
AcDbEntity
  8
0
100
AcDbPolyline
 62
7
  6
CONTINUOUS
 90
25
 70
0
 10
107.282155871
 20
125.6206119286
 10
107.1234998485
 20
125.580701267
 10
106.9615321438
 20
125.5455035378
 10
106.796672384
 20
125.5151099309
 10
106.6293476897
 20
125.4895991906
 10
106.4599915654
 20
125.4690374092
 10
106.2890427761
 20
125.4534778564
 10
106.1169442155
 20
125.4429608435
 10
105.9441417583
 20
125.4375136186
 10
105.771083102
 20
125.4371502943
 10
105.5982166075
 20
125.4418718119
 10
105.4259901381
 20
125.4516659389
 10
105.2548498988
 20
125.4665073006
 10
105.0852392805
 20
125.486357446
 10
104.917597711
 20
125.5111649472
 10
104.7523595167
 20
125.5408655328
 10
104.5899527975
 20
125.5753822545
 10
104.4307983173
 20
125.614625686
 10
104.2753084141
 20
125.6584941555
 10
104.1238859287
 20
125.7068740099
 10
103.9769231703
 20
125.759639905
 10
103.8348008994
 20
125.8166551292
 10
103.6978873286
 20
125.8777719643
 10
103.5665371701
 20
125.9428320698
 10
103.4410907251
 20
126.0116668869
  0
LWPOLYLINE
  5
561
100
AcDbEntity
  8
0
100
AcDbPolyline
 62
7
  6
CONTINUOUS
 90
19
 70
0
 10
127.6286416736
 20
139.5287383508
 10
127.6241720649
 20
139.5293965932
 10
127.6220869528
 20
139.5315596997
 10
127.6224016281
 20
139.5352363995
 10
127.6252147898
 20
139.540449693
 10
127.6304652534
 20
139.5471822274
 10
127.6379360412
 20
139.5553878128
 10
127.6481179895
 20
139.5653814255
 10
127.6605924064
 20
139.5768534338
 10
127.673773539
 20
139.5888033553
 10
127.6877166089
 20
139.6012066671
 10
127.7024177928
 20
139.6140165924
 10
127.7161666956
 20
139.6261712859
 10
127.7285495979
 20
139.6373702886
 10
127.7399729212
 20
139.6478365971
 10
127.7499324701
 20
139.6572940622
 10
127.7582544313
 20
139.6656341413
 10
127.7650947732
 20
139.6729159962
 10
127.7704414739
 20
139.679121318
  0
LWPOLYLINE
  5
562
100
AcDbEntity
  8
0
100
AcDbPolyline
 62
7
  6
CONTINUOUS
 90
22
 70
0
 10
190.4379759691
 20
103.1458167055
 10
190.4369177207
 20
103.1106267831
 10
190.4337482658
 20
103.0743904582
 10
190.4284834304
 20
103.0372885064
 10
190.4211494996
 20
102.9995060477
 10
190.4117830702
 20
102.9612315384
 10
190.4004308531
 20
102.9226558274
 10
190.387149469
 20
102.8839713218
 10
190.3720051809
 20
102.8453710293
 10
190.3550735369
 20
102.8070475083
 10
190.3364390013
 20
102.7691919367
 10
190.3161945336
 20
102.731993158
 10
190.2944411238
 20
102.6956367387
 10
190.27128729
 20
102.6603040438
 10
190.2468485357
 20
102.626171331
 10
190.2212467743
 20
102.5934088716
 10
190.1946097191
 20
102.5621800998
 10
190.1670702517
 20
102.5326408031
 10
190.1387657586
 20
102.5049383434
 10
190.1098374395
 20
102.4792109154
 10
190.0804296029
 20
102.4555868578
 10
190.0506889504
 20
102.4341840182
  0
LINE
  5
563
100
AcDbEntity
  8
0
100
AcDbLine
 62
7
  6
CONTINUOUS
 10
171.8840202037
 20
65.4187338249
 11
171.1394308314
 21
64.0047816111
  0
LINE
  5
564
100
AcDbEntity
  8
0
100
AcDbLine
 62
7
  6
CONTINUOUS
 10
195.7390898209
 20
87.3151338007
 11
195.8031580035
 21
87.3603168032
  0
LINE
  5
565
100
AcDbEntity
  8
0
100
AcDbLine
 62
7
  6
CONTINUOUS
 10
194.3110392805
 20
88.1396805727
 11
195.160492097
 21
88.5984960683
  0
LINE
  5
566
100
AcDbEntity
  8
0
100
AcDbLine
 62
7
  6
CONTINUOUS
 10
130.951993689
 20
138.6063166713
 11
130.969371174
 21
138.6103584313
  0
LWPOLYLINE
  5
567
100
AcDbEntity
  8
0
100
AcDbPolyline
 62
7
  6
CONTINUOUS
 90
14
 70
0
 10
194.800933078
 20
73.301589874
 10
194.8029137343
 20
73.2304624977
 10
194.8088477879
 20
73.1619068337
 10
194.8187115141
 20
73.0961972243
 10
194.8324654763
 20
73.0335965731
 10
194.8500546504
 20
72.9743554561
 10
194.8714086118
 20
72.9187110884
 10
194.8964418786
 20
72.8668861686
 10
194.9250542858
 20
72.8190880188
 10
194.9571313288
 20
72.7755078976
 10
194.9925446396
 20
72.7363201826
 10
195.0311525023
 20
72.7016816725
 10
195.0728004193
 20
72.6717309612
 10
195.0908487739
 20
72.6607582532
  0
LWPOLYLINE
  5
568
100
AcDbEntity
  8
0
100
AcDbPolyline
 62
7
  6
CONTINUOUS
 90
14
 70
0
 10
194.800933078
 20
96.979227901
 10
194.8029137343
 20
96.9081005247
 10
194.8088477879
 20
96.8395448607
 10
194.8187115141
 20
96.7738352512
 10
194.8324654763
 20
96.7112346001
 10
194.8500546504
 20
96.6519934831
 10
194.8714086118
 20
96.5963491154
 10
194.8964418786
 20
96.5445241955
 10
194.9250542858
 20
96.4967260458
 10
194.9571313288
 20
96.4531459245
 10
194.9925446396
 20
96.4139582096
 10
195.0311525023
 20
96.3793196995
 10
195.0728004193
 20
96.3493689882
 10
195.0908487739
 20
96.3383962802
  0
LWPOLYLINE
  5
569
100
AcDbEntity
  8
0
100
AcDbPolyline
 62
7
  6
CONTINUOUS
 90
37
 70
0
 10
193.2556400747
 20
98.2654793209
 10
193.2531232248
 20
98.4073313414
 10
193.2452977552
 20
98.5520168522
 10
193.232163666
 20
98.6995358535
 10
193.213704899
 20
98.8502830949
 10
193.1899375123
 20
99.0038638267
 10
193.1609096802
 20
99.1590938001
 10
193.1265473614
 20
99.3159846121
 10
193.0869245972
 20
99.4745246657
 10
193.0423116857
 20
99.6334949209
 10
192.9926653825
 20
99.79284668
 10
192.938028932
 20
99.9526286406
 10
192.8788023655
 20
100.1117678551
 10
192.814984061
 20
100.2701812073
 10
192.7465756406
 20
100.4279518135
 10
192.6739820021
 20
100.5842560748
 10
192.5972060972
 20
100.7390574194
 10
192.5162449742
 20
100.8923924192
 10
192.4314946757
 20
101.0435471912
 10
192.3429469704
 20
101.1925189216
 10
192.2506100896
 20
101.3393104242
 10
192.1549047706
 20
101.4832162577
 10
192.0557983182
 20
101.6242593017
 10
191.9533234276
 20
101.7624166765
 10
191.847998921
 20
101.8969143032
 10
191.7397499781
 20
102.0277920384
 10
191.6286514193
 20
102.1550100253
 10
191.5154465273
 20
102.277674614
 10
191.4000739856
 20
102.3957683102
 10
191.2825951108
 20
102.5093086081
 10
191.1639371348
 20
102.617454341
 10
191.0440797515
 20
102.720130447
 10
190.9230432669
 20
102.8174119878
 10
190.8018158314
 20
102.9086829823
 10
190.6807268283
 20
102.9937381031
 10
190.5594468742
 20
103.0727826775
 10
190.4379759691
 20
103.1458167055
  0
LWPOLYLINE
  5
56A
100
AcDbEntity
  8
0
100
AcDbPolyline
 62
7
  6
CONTINUOUS
 90
31
 70
0
 10
192.4457029358
 20
98.2858275108
 10
192.4445858129
 20
98.4319835761
 10
192.4368629894
 20
98.5818923296
 10
192.4225174692
 20
98.7352165628
 10
192.401559708
 20
98.891772465
 10
192.3739847029
 20
99.0510201582
 10
192.3398267808
 20
99.2120421152
 10
192.2991763514
 20
99.3743816109
 10
192.2521599068
 20
99.5376480138
 10
192.1989764516
 20
99.7009839824
 10
192.1398404897
 20
99.8638207187
 10
192.07492191
 20
100.0258488219
 10
192.0044115081
 20
100.1865957616
 10
191.9285621791
 20
100.3455490593
 10
191.8475752253
 20
100.5023701957
 10
191.7615649067
 20
100.6568501666
 10
191.6707609896
 20
100.8085716215
 10
191.5754111498
 20
100.9571229033
 10
191.4756414255
 20
101.1022947292
 10
191.3716403452
 20
101.2437472885
 10
191.2637287218
 20
101.3810000426
 10
191.1522351584
 20
101.5136337655
 10
191.0373435109
 20
101.6413468016
 10
190.9194397925
 20
101.7636710512
 10
190.7991828909
 20
101.8799943072
 10
190.6768549744
 20
101.9900096578
 10
190.5528004284
 20
102.0934207724
 10
190.4277929206
 20
102.1897481507
 10
190.3023007565
 20
102.2787314606
 10
190.1764783089
 20
102.3602721058
 10
190.0506250141
 20
102.4342203194
  0
LINE
  5
56B
100
AcDbEntity
  8
0
100
AcDbLine
 62
7
  6
CONTINUOUS
 10
192.4457034402
 20
62.4730405523
 11
192.4457034402
 21
62.8669945611
  0
LINE
  5
56C
100
AcDbEntity
  8
0
100
AcDbLine
 62
7
  6
CONTINUOUS
 10
192.4457034402
 20
74.2142406075
 11
192.4457034402
 21
86.5446325881
  0
LINE
  5
56D
100
AcDbEntity
  8
0
100
AcDbLine
 62
7
  6
CONTINUOUS
 10
192.4457034402
 20
97.8918786345
 11
192.4457034402
 21
98.2858359705
  0
LINE
  5
56E
100
AcDbEntity
  8
0
100
AcDbLine
 62
7
  6
CONTINUOUS
 10
193.2556400747
 20
62.4525580339
 11
193.2556400747
 21
62.8465737936
  0
LINE
  5
56F
100
AcDbEntity
  8
0
100
AcDbLine
 62
7
  6
CONTINUOUS
 10
193.2556400747
 20
74.1938255246
 11
193.2556400747
 21
86.5242118206
  0
LINE
  5
570
100
AcDbEntity
  8
0
100
AcDbLine
 62
7
  6
CONTINUOUS
 10
193.2556400747
 20
97.8714635515
 11
193.2556400747
 21
98.2654793209
  0
LINE
  5
571
100
AcDbEntity
  8
0
100
AcDbLine
 62
7
  6
CONTINUOUS
 10
194.7526152655
 20
65.6626310526
 11
194.7526152655
 21
72.8560500419
  0
LINE
  5
572
100
AcDbEntity
  8
0
100
AcDbLine
 62
7
  6
CONTINUOUS
 10
194.7526152655
 20
89.3402690796
 11
194.7526152655
 21
96.5336880689
  0
LINE
  5
573
100
AcDbEntity
  8
0
100
AcDbLine
 62
7
  6
CONTINUOUS
 10
195.5625519
 20
65.6422131322
 11
195.5625519
 21
72.1441535069
  0
LINE
  5
574
100
AcDbEntity
  8
0
100
AcDbLine
 62
7
  6
CONTINUOUS
 10
195.5625519
 20
89.3198511592
 11
195.5625519
 21
95.8217915339
  0
LINE
  5
575
100
AcDbEntity
  8
0
100
AcDbLine
 62
7
  6
CONTINUOUS
 10
195.8031580185
 20
63.3410827642
 11
195.8031580035
 21
63.3412007963
  0
LINE
  5
576
100
AcDbEntity
  8
0
100
AcDbLine
 62
7
  6
CONTINUOUS
 10
195.8031481128
 20
95.1080892638
 11
195.8031580035
 21
87.0188388084
  0
LINE
  5
577
100
AcDbEntity
  8
0
100
AcDbLine
 62
7
  6
CONTINUOUS
 10
195.8031481128
 20
71.4304512368
 11
195.8031580035
 21
63.3412007814
  0
LWPOLYLINE
  5
578
100
AcDbEntity
  8
0
100
AcDbPolyline
 62
7
  6
CONTINUOUS
 90
28
 70
0
 10
192.4457034402
 20
86.5446325881
 10
192.4479503604
 20
86.6357559039
 10
192.4549573227
 20
86.7288365728
 10
192.4667243269
 20
86.8238745948
 10
192.483263109
 20
86.9212124435
 10
192.5045619331
 20
87.0205076453
 10
192.5305855912
 20
87.1207327794
 10
192.5614860742
 20
87.2220580394
 10
192.5971113912
 20
87.3243132318
 10
192.6369703616
 20
87.4259603549
 10
192.6810694447
 20
87.5267940278
 10
192.7294021812
 20
87.6270196315
 10
192.781458012
 20
87.7257153081
 10
192.8371801167
 20
87.8227623472
 10
192.8966253157
 20
87.9182794592
 10
192.9594535118
 20
88.0117009176
 10
193.025760323
 20
88.1031449316
 10
193.0954501313
 20
88.1924932921
 10
193.1678959856
 20
88.2788256452
 10
193.2432328921
 20
88.3621893898
 10
193.3213258446
 20
88.4425371269
 10
193.4011428734
 20
88.5188063066
 10
193.4827485691
 20
88.5909093006
 10
193.5660783413
 20
88.6589337372
 10
193.6499064478
 20
88.7220799498
 10
193.7338243083
 20
88.7800813832
 10
193.8182405033
 20
88.8332045927
 10
193.9031550328
 20
88.8814495783
  0
LWPOLYLINE
  5
579
100
AcDbEntity
  8
0
100
AcDbPolyline
 62
7
  6
CONTINUOUS
 90
28
 70
0
 10
192.4457034402
 20
62.8669945611
 10
192.4479503604
 20
62.9581178769
 10
192.4549573227
 20
63.0511985458
 10
192.4667243269
 20
63.1462365678
 10
192.483263109
 20
63.2435744165
 10
192.5045619331
 20
63.3428696183
 10
192.5305855912
 20
63.4430947524
 10
192.5614860742
 20
63.5444200124
 10
192.5971113912
 20
63.6466752048
 10
192.6369703616
 20
63.748322328
 10
192.6810694447
 20
63.8491560008
 10
192.7294021812
 20
63.9493816045
 10
192.781458012
 20
64.0480772812
 10
192.8371801167
 20
64.1451243202
 10
192.8966253157
 20
64.2406414322
 10
192.9594535118
 20
64.3340628906
 10
193.025760323
 20
64.4255069046
 10
193.0954501313
 20
64.5148552651
 10
193.1678959856
 20
64.6011876182
 10
193.2432328921
 20
64.6845513628
 10
193.3213258446
 20
64.7648991
 10
193.4011428734
 20
64.8411682796
 10
193.4827485691
 20
64.9132712737
 10
193.5660783413
 20
64.9812957102
 10
193.6499064478
 20
65.0444419228
 10
193.7338243083
 20
65.1024433562
 10
193.8182405033
 20
65.1555665657
 10
193.9031550328
 20
65.2038115513
  0
LWPOLYLINE
  5
57A
100
AcDbEntity
  8
0
100
AcDbPolyline
 62
7
  6
CONTINUOUS
 90
28
 70
0
 10
193.2556400426
 20
86.5242107003
 10
193.2573199382
 20
86.587811602
 10
193.2624015628
 20
86.6530482237
 10
193.2709148041
 20
86.7197413555
 10
193.2828843777
 20
86.7877206877
 10
193.2983178631
 20
86.8567690634
 10
193.3171969121
 20
86.9266205276
 10
193.3395504804
 20
86.9971678283
 10
193.3653121529
 20
87.0680762347
 10
193.3942470364
 20
87.1387228681
 10
193.4261981805
 20
87.2087317692
 10
193.4611075214
 20
87.2780178799
 10
193.4988285163
 20
87.3463957753
 10
193.539193791
 20
87.4135648924
 10
193.5821215785
 20
87.4793913589
 10
193.6276112478
 20
87.5439333922
 10
193.6756139047
 20
87.6070501543
 10
193.7259475815
 20
87.6684356835
 10
193.7784244709
 20
87.7278910763
 10
193.8329754698
 20
87.7852678272
 10
193.8893878091
 20
87.8402859313
 10
193.9472301012
 20
87.8925842165
 10
194.0063386056
 20
87.9419987667
 10
194.0665294943
 20
87.9883694761
 10
194.1273101494
 20
88.0314199215
 10
194.1883896826
 20
88.0710158407
 10
194.2496923549
 20
88.1071250945
 10
194.3110425957
 20
88.1396819735
  0
LWPOLYLINE
  5
57B
100
AcDbEntity
  8
0
100
AcDbPolyline
 62
7
  6
CONTINUOUS
 90
28
 70
0
 10
193.2556400426
 20
62.8465726733
 10
193.2573199382
 20
62.9101735751
 10
193.2624015628
 20
62.9754101968
 10
193.2709148041
 20
63.0421033285
 10
193.2828843777
 20
63.1100826607
 10
193.2983178631
 20
63.1791310364
 10
193.3171969121
 20
63.2489825006
 10
193.3395504804
 20
63.3195298013
 10
193.3653121529
 20
63.3904382077
 10
193.3942470364
 20
63.4610848411
 10
193.4261981805
 20
63.5310937422
 10
193.4611075214
 20
63.6003798529
 10
193.4988285163
 20
63.6687577483
 10
193.539193791
 20
63.7359268655
 10
193.5821215785
 20
63.8017533319
 10
193.6276112478
 20
63.8662953652
 10
193.6756139047
 20
63.9294121274
 10
193.7259475815
 20
63.9907976565
 10
193.7784244709
 20
64.0502530493
 10
193.8329754698
 20
64.1076298002
 10
193.8893878091
 20
64.1626479044
 10
193.9472301012
 20
64.2149461895
 10
194.0063386056
 20
64.2643607397
 10
194.0665294943
 20
64.3107314491
 10
194.1273101494
 20
64.3537818945
 10
194.1883896826
 20
64.3933778137
 10
194.2496923549
 20
64.4294870675
 10
194.3110425957
 20
64.4620439465
  0
LWPOLYLINE
  5
57C
100
AcDbEntity
  8
0
100
AcDbPolyline
 62
7
  6
CONTINUOUS
 90
25
 70
0
 10
194.800933078
 20
85.6319818546
 10
194.8029136976
 20
85.7053957554
 10
194.8088476476
 20
85.780803248
 10
194.8187112123
 20
85.8579026051
 10
194.8324649634
 20
85.9363853873
 10
194.8500538872
 20
86.0159374935
 10
194.871407574
 20
86.0962404097
 10
194.8964405563
 20
86.1769727374
 10
194.9250526798
 20
86.2578114864
 10
194.9571294527
 20
86.338433177
 10
194.9925425193
 20
86.4185151988
 10
195.0311501739
 20
86.4977371006
 10
195.0727979267
 20
86.5757818723
 10
195.1173191233
 20
86.6523372147
 10
195.164535611
 20
86.7270967885
 10
195.2142584513
 20
86.7997614395
 10
195.2662886767
 20
86.8700403971
 10
195.3204180868
 20
86.9376524371
 10
195.37643008
 20
87.0023270061
 10
195.4341005205
 20
87.0638053035
 10
195.4931986398
 20
87.121841324
 10
195.553487961
 20
87.1762028403
 10
195.6147272363
 20
87.226672323
 10
195.6766714128
 20
87.2730478124
 10
195.7390726185
 20
87.3151437331
  0
LWPOLYLINE
  5
57D
100
AcDbEntity
  8
0
100
AcDbPolyline
 62
7
  6
CONTINUOUS
 90
3
 70
0
 10
193.9083726575
 20
97.0211431699
 10
193.9055388425
 20
96.9993868162
 10
193.9031550329
 20
96.9672902941
  0
LINE
  5
57E
100
AcDbEntity
  8
0
100
AcDbLine
 62
7
  6
CONTINUOUS
 10
171.8634149094
 20
63.7138605074
 11
171.8831374082
 21
63.7408348811
  0
LWPOLYLINE
  5
57F
100
AcDbEntity
  8
0
100
AcDbPolyline
 62
7
  6
CONTINUOUS
 90
25
 70
0
 10
171.1394328887
 20
64.0047804233
 10
171.0255434899
 20
63.8873317698
 10
170.9140795029
 20
63.7646591056
 10
170.805329709
 20
63.6370802517
 10
170.6995758586
 20
63.5049257407
 10
170.5970919379
 20
63.3685379584
 10
170.4981434592
 20
63.2282702559
 10
170.4029867776
 20
63.0844860384
 10
170.3118684266
 20
62.9375578231
 10
170.2250244758
 20
62.7878662716
 10
170.1426799212
 20
62.6357992053
 10
170.0650481015
 20
62.4817505998
 10
169.9923301455
 20
62.3261195645
 10
169.9247144517
 20
62.1693093087
 10
169.8623761992
 20
62.0117260971
 10
169.8054768944
 20
61.8537781966
 10
169.7541639528
 20
61.6958748191
 10
169.7085703163
 20
61.5384250616
 10
169.6688141097
 20
61.3818368452
 10
169.6349983336
 20
61.2265158562
 10
169.607210599
 20
61.0728645045
 10
169.5855228984
 20
60.9212808806
 10
169.5699914193
 20
60.7721577111
 10
169.5606564003
 20
60.6258813413
 10
169.5575420257
 20
60.4828307445
  0
LWPOLYLINE
  5
580
100
AcDbEntity
  8
0
100
AcDbPolyline
 62
7
  6
CONTINUOUS
 90
37
 70
0
 10
200.8101347495
 20
103.1450215652
 10
200.8061994252
 20
103.3543067668
 10
200.7945133586
 20
103.5670081979
 10
200.7750765498
 20
103.7831258583
 10
200.7477982742
 20
104.003205504
 10
200.7127692563
 20
104.226701379
 10
200.6702616696
 20
104.4519762158
 10
200.6203007847
 20
104.6787495567
 10
200.5628613309
 20
104.9073018594
 10
200.4981396694
 20
105.1368372284
 10
200.4259952743
 20
105.367696483
 10
200.3465686714
 20
105.599538804
 10
200.260477799
 20
105.8305458388
 10
200.1677917238
 20
106.0604187328
 10
200.068441379
 20
106.2894563407
 10
199.9628375023
 20
106.5167368737
 10
199.8508725808
 20
106.7424296139
 10
199.7326541275
 20
106.9663652793
 10
199.6089154186
 20
107.1871142343
 10
199.4796103906
 20
107.4046498876
 10
199.3447851071
 20
107.6189988306
 10
199.2053110349
 20
107.8288112019
 10
199.0612810199
 20
108.0339092523
 10
198.9126022161
 20
108.234470731
 10
198.7598675532
 20
108.4296790242
 10
198.6028527438
 20
108.6197433815
 10
198.4417820752
 20
108.8044545533
 10
198.2779213387
 20
108.982368177
 10
198.1114954323
 20
109.1531921394
 10
197.9422794579
 20
109.3172185537
 10
197.7708645133
 20
109.4738793965
 10
197.5970203441
 20
109.6233367931
 10
197.4209772046
 20
109.7654286182
 10
197.2440169562
 20
109.8991004725
 10
197.066566886
 20
110.0240008897
 10
196.8881997068
 20
110.1404813362
 10
196.7089154186
 20
110.2485418119
  0
LINE
  5
581
100
AcDbEntity
  8
0
100
AcDbLine
 62
7
  6
CONTINUOUS
 10
196.2132085099
 20
94.5330951014
 11
196.2132085099
 21
86.4472543856
  0
LINE
  5
582
100
AcDbEntity
  8
0
100
AcDbLine
 62
7
  6
CONTINUOUS
 10
196.2132085099
 20
70.8554570744
 11
196.2132085099
 21
62.7696163586
  0
LINE
  5
583
100
AcDbEntity
  8
0
100
AcDbLine
 62
7
  6
CONTINUOUS
 10
196.7471127486
 20
103.0413119869
 11
196.7471127486
 21
53.6448602409
  0
LINE
  5
584
100
AcDbEntity
  8
0
100
AcDbLine
 62
7
  6
CONTINUOUS
 10
198.9490925687
 20
103.0080193227
 11
198.9490925687
 21
53.6115675768
  0
LINE
  5
585
100
AcDbEntity
  8
0
100
AcDbLine
 62
7
  6
CONTINUOUS
 10
200.0179767235
 20
103.5637129661
 11
200.0179767235
 21
54.1672612201
  0
LINE
  5
586
100
AcDbEntity
  8
0
100
AcDbLine
 62
7
  6
CONTINUOUS
 10
200.0867885929
 20
103.5626725703
 11
200.0867885929
 21
54.1662208244
  0
LWPOLYLINE
  5
587
100
AcDbEntity
  8
0
100
AcDbPolyline
 62
7
  6
CONTINUOUS
 90
6
 70
0
 10
195.8031598802
 20
87.018720791
 10
195.8028386831
 20
87.001924533
 10
195.802170577
 20
86.9903805646
 10
195.801431773
 20
86.9826891203
 10
195.8009307965
 20
86.9789736734
 10
195.8008841648
 20
86.9786903893
  0
LWPOLYLINE
  5
588
100
AcDbEntity
  8
0
100
AcDbPolyline
 62
7
  6
CONTINUOUS
 90
6
 70
0
 10
195.8031598802
 20
63.341082764
 10
195.8028386831
 20
63.324286506
 10
195.802170577
 20
63.3127425376
 10
195.801431773
 20
63.3050510933
 10
195.8009307965
 20
63.3013356464
 10
195.8008841648
 20
63.3010523623
  0
LWPOLYLINE
  5
589
100
AcDbEntity
  8
0
100
AcDbPolyline
 62
7
  6
CONTINUOUS
 90
19
 70
0
 10
198.9490925687
 20
53.6115675768
 10
198.9453668666
 20
53.4329989755
 10
198.934198199
 20
53.2591372221
 10
198.9156118646
 20
53.0903761705
 10
198.8896499651
 20
52.927098117
 10
198.8563713108
 20
52.7696729435
 10
198.8158512892
 20
52.6184572787
 10
198.7681816903
 20
52.4737936739
 10
198.7134705007
 20
52.3360098409
 10
198.6518416636
 20
52.2054179152
 10
198.5834347933
 20
52.0823137353
 10
198.5084048511
 20
51.9669761629
 10
198.4269217978
 20
51.8596664646
 10
198.339170214
 20
51.7606277279
 10
198.2453488881
 20
51.6700843132
 10
198.1456703599
 20
51.5882413349
 10
198.0403604361
 20
51.5152841951
 10
197.9296576754
 20
51.4513781626
 10
197.8979974914
 20
51.4352597877
  0
LWPOLYLINE
  5
58A
100
AcDbEntity
  8
0
100
AcDbPolyline
 62
7
  6
CONTINUOUS
 90
31
 70
0
 10
196.7471127486
 20
53.6448602409
 10
196.7441528908
 20
53.5160538049
 10
196.735344521
 20
53.3915103255
 10
196.720687639
 20
53.2712298026
 10
196.7001065076
 20
53.1548398523
 10
196.673676864
 20
53.0427128586
 10
196.6416259205
 20
52.9359659739
 10
196.6039148416
 20
52.8347204462
 10
196.5605824628
 20
52.7388550275
 10
196.5119725037
 20
52.6491231264
 10
196.4580353383
 20
52.5655596603
 10
196.3988205925
 20
52.4881297119
 10
196.334820863
 20
52.4174819377
 10
196.2659998998
 20
52.353677868
 10
196.1923939529
 20
52.2966559726
 10
196.1146043695
 20
52.2468803167
 10
196.0325973749
 20
52.2044093549
 10
195.9464067438
 20
52.1691846326
 10
195.8567351469
 20
52.1414948513
 10
195.763547465
 20
52.1214021816
 10
195.6668788173
 20
52.1088444529
 10
195.5675372325
 20
52.1039238549
 10
195.4655172766
 20
52.1067008061
 10
195.3608243836
 20
52.117114888
 10
195.2542828847
 20
52.1350870345
 10
195.1458070662
 20
52.1607115695
 10
195.0354826417
 20
52.193894169
 10
194.9243910832
 20
52.234272795
 10
194.8128928812
 20
52.281726768
 10
194.7006275451
 20
52.3363767676
 10
194.587595075
 20
52.3982227936
  0
LWPOLYLINE
  5
58B
100
AcDbEntity
  8
0
100
AcDbPolyline
 62
7
  6
CONTINUOUS
 90
28
 70
0
 10
196.2132085099
 20
86.4472543856
 10
196.2110433059
 20
86.3554439652
 10
196.204149858
 20
86.266639083
 10
196.1925281663
 20
86.1808397388
 10
196.1761364256
 20
86.0975902238
 10
196.1550164411
 20
86.0173462468
 10
196.1292936276
 20
85.941474935
 10
196.0988472153
 20
85.8701148181
 10
196.0637979742
 20
85.8031273664
 10
196.0246336294
 20
85.7414641172
 10
195.9813277943
 20
85.6852979451
 10
195.9339068556
 20
85.6344559754
 10
195.8829376981
 20
85.5893711223
 10
195.828480902
 20
85.5501216044
 10
195.770475887
 20
85.516629203
 10
195.7093077973
 20
85.4890921759
 10
195.6449166341
 20
85.4674923812
 10
195.577362396
 20
85.4518479607
 10
195.5072102236
 20
85.4424115981
 10
195.4342814706
 20
85.439278335
 10
195.3587547832
 20
85.4423531298
 10
195.2817312404
 20
85.4516035407
 10
195.2031862055
 20
85.4671945761
 10
195.1231443151
 20
85.4889612276
 10
195.0427805583
 20
85.516376028
 10
194.962486598
 20
85.5492631547
 10
194.8818707712
 20
85.5877984303
 10
194.800933078
 20
85.6319818546
  0
LWPOLYLINE
  5
58C
100
AcDbEntity
  8
0
100
AcDbPolyline
 62
7
  6
CONTINUOUS
 90
28
 70
0
 10
196.2132085099
 20
62.7696163586
 10
196.2110433059
 20
62.6778059382
 10
196.204149858
 20
62.589001056
 10
196.1925281663
 20
62.5032017118
 10
196.1761364256
 20
62.4199521968
 10
196.1550164411
 20
62.3397082198
 10
196.1292936276
 20
62.263836908
 10
196.0988472153
 20
62.1924767911
 10
196.0637979742
 20
62.1254893394
 10
196.0246336294
 20
62.0638260903
 10
195.9813277943
 20
62.0076599181
 10
195.9339068556
 20
61.9568179485
 10
195.8829376981
 20
61.9117330953
 10
195.828480902
 20
61.8724835774
 10
195.770475887
 20
61.838991176
 10
195.7093077973
 20
61.8114541489
 10
195.6449166341
 20
61.7898543542
 10
195.577362396
 20
61.7742099337
 10
195.5072102236
 20
61.7647735711
 10
195.4342814706
 20
61.761640308
 10
195.3587547832
 20
61.7647151028
 10
195.2817312404
 20
61.7739655137
 10
195.2031862055
 20
61.7895565491
 10
195.1231443151
 20
61.8113232007
 10
195.0427805583
 20
61.838738001
 10
194.962486598
 20
61.8716251277
 10
194.8818707712
 20
61.9101604033
 10
194.800933078
 20
61.9543438276
  0
LWPOLYLINE
  5
58D
100
AcDbEntity
  8
0
100
AcDbPolyline
 62
7
  6
CONTINUOUS
 90
25
 70
0
 10
194.800933078
 20
61.9543438276
 10
194.8029136976
 20
62.0277577284
 10
194.8088476476
 20
62.103165221
 10
194.8187112123
 20
62.1802645781
 10
194.8324649634
 20
62.2587473604
 10
194.8500538872
 20
62.3382994665
 10
194.871407574
 20
62.4186023827
 10
194.8964405563
 20
62.4993347104
 10
194.9250526798
 20
62.5801734594
 10
194.9571294527
 20
62.66079515
 10
194.9925425193
 20
62.7408771718
 10
195.0311501739
 20
62.8200990737
 10
195.0727979267
 20
62.8981438453
 10
195.1173191233
 20
62.9746991877
 10
195.164535611
 20
63.0494587615
 10
195.2142584513
 20
63.1221234125
 10
195.2662886767
 20
63.1924023701
 10
195.3204180868
 20
63.2600144101
 10
195.37643008
 20
63.3246889791
 10
195.4341005205
 20
63.3861672765
 10
195.4931986398
 20
63.444203297
 10
195.553487961
 20
63.4985648133
 10
195.6147272363
 20
63.5490342961
 10
195.6766714128
 20
63.5954097854
 10
195.7390726185
 20
63.6375057062
  0
LWPOLYLINE
  5
58E
100
AcDbEntity
  8
0
100
AcDbPolyline
 62
7
  6
CONTINUOUS
 90
22
 70
0
 10
195.5625519
 20
89.3198511592
 10
195.5614412915
 20
89.2837869677
 10
195.5581153003
 20
89.2466292551
 10
195.5525913691
 20
89.2085725707
 10
195.5448984791
 20
89.169816308
 10
195.5350769175
 20
89.1305632379
 10
195.5231779896
 20
89.0910184319
 10
195.5092636707
 20
89.0513881713
 10
195.4934069761
 20
89.0118806841
 10
195.4756917349
 20
88.9727045909
 10
195.4562116072
 20
88.9340662648
 10
195.4350681789
 20
88.8961665167
 10
195.4123709313
 20
88.8592014841
 10
195.3882361531
 20
88.8233612675
 10
195.3627922672
 20
88.7888372439
 10
195.3361787961
 20
88.75581782
 10
195.3085250759
 20
88.7244632341
 10
195.2799863719
 20
88.6949493103
 10
195.2507531614
 20
88.6674655947
 10
195.2209948626
 20
88.6421567748
 10
195.1908552574
 20
88.6191308542
 10
195.1604920973
 20
88.5984960682
  0
LWPOLYLINE
  5
58F
100
AcDbEntity
  8
0
100
AcDbPolyline
 62
7
  6
CONTINUOUS
 90
22
 70
0
 10
195.5625519
 20
65.6422131322
 10
195.5614412915
 20
65.6061489408
 10
195.5581153003
 20
65.5689912281
 10
195.5525913691
 20
65.5309345437
 10
195.5448984791
 20
65.492178281
 10
195.5350769175
 20
65.4529252109
 10
195.5231779896
 20
65.4133804049
 10
195.5092636707
 20
65.3737501443
 10
195.4934069761
 20
65.3342426571
 10
195.4756917349
 20
65.2950665639
 10
195.4562116072
 20
65.2564282378
 10
195.4350681789
 20
65.2185284898
 10
195.4123709313
 20
65.1815634571
 10
195.3882361531
 20
65.1457232405
 10
195.3627922672
 20
65.1111992169
 10
195.3361787961
 20
65.078179793
 10
195.3085250759
 20
65.0468252071
 10
195.2799863719
 20
65.0173112833
 10
195.2507531614
 20
64.9898275677
 10
195.2209948626
 20
64.9645187478
 10
195.1908552574
 20
64.9414928272
 10
195.1604920973
 20
64.9208580412
  0
LWPOLYLINE
  5
590
100
AcDbEntity
  8
0
100
AcDbPolyline
 62
7
  6
CONTINUOUS
 90
3
 70
0
 10
193.9083726575
 20
73.3435051429
 10
193.9055388425
 20
73.3217487892
 10
193.9031550329
 20
73.2896522671
  0
LINE
  5
591
100
AcDbEntity
  8
0
100
AcDbLine
 62
7
  6
CONTINUOUS
 10
193.9596685311
 20
73.3138875484
 11
193.9031550328
 21
73.2896522671
  0
LWPOLYLINE
  5
592
100
AcDbEntity
  8
0
100
AcDbPolyline
 62
7
  6
CONTINUOUS
 90
28
 70
0
 10
193.9031550328
 20
73.2896522671
 10
193.8182405048
 20
73.2556175109
 10
193.7338243107
 20
73.2269438534
 10
193.6499064507
 20
73.2036312947
 10
193.5660783439
 20
73.1855504892
 10
193.4827485712
 20
73.1728307825
 10
193.4011428746
 20
73.1658602106
 10
193.3213258447
 20
73.1647889846
 10
193.243232891
 20
73.1694668933
 10
193.1678959838
 20
73.1798313403
 10
193.0954501301
 20
73.195965746
 10
193.025760323
 20
73.2177866898
 10
192.9594535125
 20
73.2449813134
 10
192.8966253162
 20
73.2775240577
 10
192.8371801165
 20
73.3154404817
 10
192.7814580114
 20
73.3584944045
 10
192.7294021811
 20
73.4067494796
 10
192.6810694454
 20
73.4601420535
 10
192.6369703625
 20
73.5182449842
 10
192.5971113908
 20
73.5812699114
 10
192.5614860718
 20
73.6490051955
 10
192.5305855883
 20
73.7203887762
 10
192.5045619329
 20
73.7953977355
 10
192.483263113
 20
73.8740549914
 10
192.4667243333
 20
73.9553672372
 10
192.4549573287
 20
74.0390033707
 10
192.4479503643
 20
74.1252944941
 10
192.4457034402
 20
74.2142406075
  0
LWPOLYLINE
  5
593
100
AcDbEntity
  8
0
100
AcDbPolyline
 62
7
  6
CONTINUOUS
 90
34
 70
0
 10
201.092977462
 20
103.3083314025
 10
201.0882447623
 20
103.5372336624
 10
201.0743299292
 20
103.7699131945
 10
201.0512329626
 20
104.0063699985
 10
201.0188600814
 20
104.2471560044
 10
200.9773050667
 20
104.4917192823
 10
200.9268492623
 20
104.7384040432
 10
200.86743227
 20
104.9872246827
 10
200.799114488
 20
105.2381668052
 10
200.7223584544
 20
105.4895314343
 10
200.6371069097
 20
105.7413214369
 10
200.5434171134
 20
105.993533946
 10
200.4419233821
 20
106.2444613843
 10
200.3325727606
 20
106.4940950315
 10
200.2154182041
 20
106.7424436079
 10
200.0912528947
 20
106.9878256964
 10
199.9600292597
 20
107.2302211671
 10
199.8217948719
 20
107.4696501499
 10
199.6774856322
 20
107.7044916169
 10
199.5270603184
 20
107.9347144384
 10
199.3705601528
 20
108.160349744
 10
199.2090447027
 20
108.3798698943
 10
199.0424799358
 20
108.5932333938
 10
198.8708998845
 20
108.8004817381
 10
198.6954662127
 20
109.0002117747
 10
198.5161527711
 20
109.1923724866
 10
198.3329857091
 20
109.3770148909
 10
198.1472051393
 20
109.5528888861
 10
197.9587933275
 20
109.7199349725
 10
197.7677680079
 20
109.8782126499
 10
197.5754224969
 20
110.0266503165
 10
197.3821878998
 20
110.1648907716
 10
197.1876331112
 20
110.2932912158
 10
196.9917581311
 20
110.4118516492
  0
LINE
  5
594
100
AcDbEntity
  8
0
100
AcDbLine
 62
7
  6
CONTINUOUS
 10
200.8101347495
 20
53.7485698192
 11
200.8101347495
 21
103.1450215652
  0
LINE
  5
595
100
AcDbEntity
  8
0
100
AcDbLine
 62
7
  6
CONTINUOUS
 10
201.092977462
 20
53.9118796565
 11
201.092977462
 21
103.3083314025
  0
LWPOLYLINE
  5
596
100
AcDbEntity
  8
0
100
AcDbPolyline
 62
7
  6
CONTINUOUS
 90
19
 70
0
 10
200.0179767235
 20
54.1672612201
 10
200.014190729
 20
53.9858029419
 10
200.0028413208
 20
53.8091276839
 10
199.9839542073
 20
53.6376356735
 10
199.9575721718
 20
53.4717153938
 10
199.9237549766
 20
53.3117427121
 10
199.8825792295
 20
53.158080028
 10
199.8341382044
 20
53.0110754322
 10
199.7785416371
 20
52.8710619439
 10
199.7159154822
 20
52.7383567608
 10
199.6464016132
 20
52.613260503
 10
199.570157503
 20
52.496056547
 10
199.4873558795
 20
52.387010403
 10
199.3981843311
 20
52.2863691019
 10
199.3028448543
 20
52.1943606081
 10
199.2015533974
 20
52.1111933211
 10
199.0945394025
 20
52.0370556337
 10
198.9820453025
 20
51.9721155043
 10
198.9498727613
 20
51.955736285
  0
LWPOLYLINE
  5
597
100
AcDbEntity
  8
0
100
AcDbPolyline
 62
7
  6
CONTINUOUS
 90
18
 70
0
 10
200.0867885929
 20
54.1662208244
 10
200.0829619759
 20
53.982830002
 10
200.071559542
 20
53.8048577411
 10
200.0525812911
 20
53.6323040416
 10
200.0259458637
 20
53.4647245638
 10
199.9917346193
 20
53.3025636475
 10
199.950191637
 20
53.147154312
 10
199.9012755544
 20
52.9986346287
 10
199.8450277339
 20
52.8568665262
 10
199.7818163417
 20
52.7227688096
 10
199.7115870786
 20
52.5963735689
 10
199.6343942438
 20
52.4776487141
 10
199.5507689016
 20
52.3674167806
 10
199.460671276
 20
52.2657430329
 10
199.3641411429
 20
52.1725622065
 10
199.2618288944
 20
52.0885010436
 10
199.153692886
 20
52.0136192641
 10
199.0397747621
 20
51.947857148
  0
LINE
  5
598
100
AcDbEntity
  8
0
100
AcDbLine
 62
7
  6
CONTINUOUS
 10
178.3361516701
 20
56.9477780276
 11
192.4457034402
 21
62.4730405523
  0
LINE
  5
599
100
AcDbEntity
  8
0
100
AcDbLine
 62
7
  6
CONTINUOUS
 10
195.7390898209
 20
63.6374957737
 11
195.8031580035
 21
63.6826787762
  0
LINE
  5
59A
100
AcDbEntity
  8
0
100
AcDbLine
 62
7
  6
CONTINUOUS
 10
193.9031550328
 20
65.2038115513
 11
194.7526152655
 21
65.6626310526
  0
LINE
  5
59B
100
AcDbEntity
  8
0
100
AcDbLine
 62
7
  6
CONTINUOUS
 10
194.3110392805
 20
64.4620425457
 11
195.160492097
 21
64.9208580414
  0
LWPOLYLINE
  5
59C
100
AcDbEntity
  8
0
100
AcDbPolyline
 62
7
  6
CONTINUOUS
 90
18
 70
0
 10
191.6092690685
 20
60.8536949694
 10
191.6711782112
 20
60.8801296046
 10
191.7619567779
 20
60.9271921086
 10
191.8479493057
 20
60.98222338
 10
191.9289231271
 20
61.0450755595
 10
192.0047600171
 20
61.115680063
 10
192.0752599555
 20
61.1939169076
 10
192.140167192
 20
61.2795679949
 10
192.1992829703
 20
61.3724092547
 10
192.2524379796
 20
61.4722754555
 10
192.2994198455
 20
61.5788481155
 10
192.3400278356
 20
61.691583941
 10
192.3741372491
 20
61.8101448736
 10
192.4016636581
 20
61.9341640332
 10
192.422578654
 20
62.0629328405
 10
192.4368909506
 20
62.1959056591
 10
192.4445923586
 20
62.3327562151
 10
192.4457029077
 20
62.4730489577
  0
LWPOLYLINE
  5
59D
100
AcDbEntity
  8
0
100
AcDbPolyline
 62
7
  6
CONTINUOUS
 90
18
 70
0
 10
177.3904233094
 20
55.2856976633
 10
177.4521682016
 20
55.3120431608
 10
177.5425986478
 20
55.358958404
 10
177.6292507266
 20
55.4142686308
 10
177.7118892216
 20
55.477823702
 10
177.7902898114
 20
55.5494510977
 10
177.8642396781
 20
55.6289563861
 10
177.9335380857
 20
55.7161237506
 10
177.9979969239
 20
55.810716576
 10
178.0574412198
 20
55.9124780903
 10
178.1117096127
 20
56.021132063
 10
178.1606547919
 20
56.1363835547
 10
178.2041438964
 20
56.257919717
 10
178.2420588751
 20
56.3854106404
 10
178.2742968079
 20
56.5185102511
 10
178.3007701852
 20
56.656857251
 10
178.3214071455
 20
56.8000760986
 10
178.3361516701
 20
56.9477780276
  0
LINE
  5
59E
100
AcDbEntity
  8
0
100
AcDbLine
 62
7
  6
CONTINUOUS
 10
177.3904233094
 20
55.2856976633
 11
191.6092690685
 21
60.8536949694
  0
LWPOLYLINE
  5
59F
100
AcDbEntity
  8
0
100
AcDbPolyline
 62
7
  6
CONTINUOUS
 90
18
 70
0
 10
177.3904233094
 20
55.2856976633
 10
177.2269045923
 20
55.2264423527
 10
177.0592336891
 20
55.1752556563
 10
176.887895446
 20
55.1325012282
 10
176.7132323951
 20
55.0984761836
 10
176.5359793721
 20
55.0735161554
 10
176.3572436746
 20
55.0578941593
 10
176.1777621163
 20
55.051721106
 10
175.9979733666
 20
55.0550439591
 10
175.8185025198
 20
55.0678782393
 10
175.6400326029
 20
55.0901781491
 10
175.4629965979
 20
55.121883467
 10
175.2875785188
 20
55.1629863466
 10
175.1140407769
 20
55.2134976985
 10
174.9431576111
 20
55.2732638338
 10
174.775759242
 20
55.3420135467
 10
174.6120525224
 20
55.4196757689
 10
174.4505973734
 20
55.5071709456
  0
LWPOLYLINE
  5
5A0
100
AcDbEntity
  8
0
100
AcDbPolyline
 62
7
  6
CONTINUOUS
 90
16
 70
0
 10
199.9628375023
 20
51.3552921335
 10
200.068441379
 20
51.4606239567
 10
200.1677917238
 20
51.5749342767
 10
200.260477799
 20
51.6977756144
 10
200.3465686714
 20
51.8293670676
 10
200.4259952743
 20
51.9694895385
 10
200.4981396694
 20
52.117038254
 10
200.5628613309
 20
52.2718346706
 10
200.6203007847
 20
52.4340573318
 10
200.6702616696
 20
52.6031370952
 10
200.7127692563
 20
52.7793252363
 10
200.7477982742
 20
52.9623704796
 10
200.7750765498
 20
53.1509498564
 10
200.7945133586
 20
53.3446223771
 10
200.8061994252
 20
53.5438290314
 10
200.8101347495
 20
53.7485698192
  0
LINE
  5
5A1
100
AcDbEntity
  8
0
100
AcDbLine
 62
7
  6
CONTINUOUS
 10
199.8508725808
 20
51.258893678
 11
199.9628375023
 21
51.3552921335
  0
LWPOLYLINE
  5
5A2
100
AcDbEntity
  8
0
100
AcDbPolyline
 62
7
  6
CONTINUOUS
 90
3
 70
0
 10
199.6090551475
 20
51.0936957938
 10
199.7326541275
 20
51.1714737194
 10
199.8508725808
 20
51.258893678
  0
LWPOLYLINE
  5
5A3
100
AcDbEntity
  8
0
100
AcDbPolyline
 62
7
  6
CONTINUOUS
 90
18
 70
0
 10
199.8918702822
 20
51.2570548686
 10
199.9600292597
 20
51.2982900775
 10
200.0912528947
 20
51.3891517838
 10
200.2154182041
 20
51.4911508854
 10
200.3325727606
 20
51.6042123165
 10
200.4419233821
 20
51.727570607
 10
200.5434171134
 20
51.8612956283
 10
200.6371069097
 20
52.0053175091
 10
200.7223584544
 20
52.1586611648
 10
200.799114488
 20
52.3213898502
 10
200.86743227
 20
52.4934403105
 10
200.9268492623
 20
52.6736476967
 10
200.9773050667
 20
52.8620673593
 10
201.0188600814
 20
53.0586439479
 10
201.0512329626
 20
53.262046562
 10
201.0743299292
 20
53.471831568
 10
201.0882447623
 20
53.6884425995
 10
201.092977462
 20
53.9118796565
  0
LINE
  5
5A4
100
AcDbEntity
  8
0
100
AcDbLine
 62
7
  6
CONTINUOUS
 10
201.092977462
 20
53.9118796565
 11
200.8101347495
 21
53.7485698192
  0
LINE
  5
5A5
100
AcDbEntity
  8
0
100
AcDbLine
 62
7
  6
CONTINUOUS
 10
199.8918982599
 20
51.2570058619
 11
199.6090555474
 21
51.0936960246
  0
LINE
  5
5A6
100
AcDbEntity
  8
0
100
AcDbLine
 62
7
  6
CONTINUOUS
 10
200.0179767235
 20
54.1672612201
 11
198.9490925687
 21
53.6115675768
  0
LINE
  5
5A7
100
AcDbEntity
  8
0
100
AcDbLine
 62
7
  6
CONTINUOUS
 10
198.9498727613
 20
51.955736285
 11
197.8979974914
 21
51.4352597877
  0
LWPOLYLINE
  5
5A8
100
AcDbEntity
  8
0
100
AcDbPolyline
 62
7
  6
CONTINUOUS
 90
25
 70
0
 10
198.9490925687
 20
53.6115675768
 10
198.8717728328
 20
53.5738576315
 10
198.790478422
 20
53.5390457607
 10
198.7055346381
 20
53.507271265
 10
198.6172813862
 20
53.4786612911
 10
198.526071814
 20
53.4533303225
 10
198.4322708988
 20
53.4313797217
 10
198.3362539872
 20
53.4128973247
 10
198.2384052938
 20
53.3979570895
 10
198.139116363
 20
53.3866187999
 10
198.0387845018
 20
53.3789278265
 10
197.9378111914
 20
53.3749149449
 10
197.83660048
 20
53.374596213
 10
197.7355573652
 20
53.3779729061
 10
197.6350861738
 20
53.3850315124
 10
197.5355889448
 20
53.3957437864
 10
197.4374638194
 20
53.4100668626
 10
197.3411034479
 20
53.4279434268
 10
197.2468934188
 20
53.4493019453
 10
197.1552107163
 20
53.4740569513
 10
197.0664222112
 20
53.5021093869
 10
196.9808831926
 20
53.5333469996
 10
196.8989359473
 20
53.5676447913
 10
196.8209083894
 20
53.6048655184
 10
196.7471127486
 20
53.6448602409
  0
LINE
  5
5A9
100
AcDbEntity
  8
0
100
AcDbLine
 62
7
  6
CONTINUOUS
 10
199.0397747621
 20
51.947857148
 11
198.9208498475
 21
51.891662278
  0
LWPOLYLINE
  5
5AA
100
AcDbEntity
  8
0
100
AcDbPolyline
 62
7
  6
CONTINUOUS
 90
16
 70
0
 10
200.0179767235
 20
54.1672612201
 10
200.0219029703
 20
54.1691035332
 10
200.0261315654
 20
54.1707073238
 10
200.030619214
 20
54.1720561714
 10
200.0353199688
 20
54.1731362656
 10
200.0401857008
 20
54.1739365479
 10
200.0451665919
 20
54.1744488244
 10
200.0502116448
 20
54.1746678503
 10
200.0552692053
 20
54.1745913829
 10
200.060287491
 20
54.1742202052
 10
200.0652151218
 20
54.1735581175
 10
200.0700016458
 20
54.1726118987
 10
200.0745980558
 20
54.1713912367
 10
200.078957291
 20
54.1699086293
 10
200.083034719
 20
54.1681792564
 10
200.0867885929
 20
54.1662208244
  0
LWPOLYLINE
  5
5AB
100
AcDbEntity
  8
0
100
AcDbPolyline
 62
7
  6
CONTINUOUS
 90
4
 70
0
 10
198.9208498475
 20
51.891662278
 10
198.7968872278
 20
51.8451005791
 10
198.6679178176
 20
51.8081061263
 10
198.6399906787
 20
51.8024040929
  0
ARC
  5
5AC
100
AcDbEntity
  8
0
100
AcDbCircle
 62
7
  6
CONTINUOUS
 10
104.9786001877
 20
99.5454765004
 40
3.4
100
AcDbArc
 50
180.058436137
 51
239.941563924
  0
ENDSEC
  0
SECTION
  2
OBJECTS
  0
DICTIONARY
  5
C
100
AcDbDictionary
280
0
281
1
  3
ACAD_GROUP
350
D
  3
ACAD_MLINESTYLE
350
17
  3
ACAD_LAYOUT
350
1A
  3
ACAD_PLOTSETTINGS
350
19
  3
ACAD_PLOTSTYLENAME
350
E
  0
DICTIONARY
  5
D
102
{ACAD_REACTORS
330
C
102
}
100
AcDbDictionary
280
0
281
1
  0
ACDBDICTIONARYWDFLT
  5
E
102
{ACAD_REACTORS
330
C
102
}
100
AcDbDictionary
281
1
  3
Normal
350
F
100
AcDbDictionaryWithDefault
340
F
  0
DICTIONARY
  5
17
102
{ACAD_REACTORS
330
C
102
}
100
AcDbDictionary
280
0
281
1
  3
Standard
350
18
  0
DICTIONARY
  5
19
102
{ACAD_REACTORS
330
C
102
}
100
AcDbDictionary
281
1
  0
DICTIONARY
  5
1A
102
{ACAD_REACTORS
330
C
102
}
100
AcDbDictionary
281
1
  3
Model
350
5AD
  3
Layout1
350
5AE
  0
ACDBPLACEHOLDER
  5
F
102
{ACAD_REACTORS
330
E
102
}
  0
MLINESTYLE
  5
18
102
{ACAD_REACTORS
330
17
102
}
100
AcDbMlineStyle
  2
STANDARD
 70
0
  3

 62
256
 51
90.0
 52
90.0
 71
2
 49
0.5
 62
256
  6
BYLAYER
 49
-0.5
 62
256
  6
BYLAYER
  0
LAYOUT
  5
5AD
102
{ACAD_REACTORS
330
1A
102
}
100
AcDbPlotSettings
  1

  2
none_device
  4
ISO_A4_(297.00_x_210.00_MM)
  6

 40
0.0
 41
0.0
 42
0.0
 43
0.0
 44
297.0
 45
210.0
 46
0.0
 47
0.0
 48
0.0
 49
0.0
140
0.0
141
0.0
142
1.0
143
1.0
 70
1024
 72
1
 73
0
 74
0
  7

 75
0
147
1.0
148
0.0
149
0.0
100
AcDbLayout
  1
Model
 70
0
 71
0
 10
0.0
 20
0.0
 11
297.0
 21
210.0
 12
0.0
 22
0.0
 32
0.0
 14
0.0
 24
0.0
 34
0.0
 15
0.0
 25
0.0
 35
0.0
146
0.0
 13
0.0
 23
0.0
 33
0.0
 16
1.0
 26
0.0
 36
0.0
 17
0.0
 27
1.0
 37
0.0
 76
0
330
213
345
0
346
0
  0
LAYOUT
  5
5AE
102
{ACAD_REACTORS
330
1A
102
}
100
AcDbPlotSettings
  1

  2
none_device
  4
ISO_A4_(297.00_x_210.00_MM)
  6

 40
0.0
 41
0.0
 42
0.0
 43
0.0
 44
297.0
 45
210.0
 46
0.0
 47
0.0
 48
0.0
 49
0.0
140
0.0
141
0.0
142
1.0
143
1.0
 70
0
 72
1
 73
0
 74
0
  7

 75
0
147
1.0
148
0.0
149
0.0
100
AcDbLayout
  1
Layout1
 70
0
 71
1
 10
0.0
 20
0.0
 11
297.0
 21
210.0
 12
0.0
 22
0.0
 32
0.0
 14
0.0
 24
0.0
 34
0.0
 15
0.0
 25
0.0
 35
0.0
146
0.0
 13
0.0
 23
0.0
 33
0.0
 16
1.0
 26
0.0
 36
0.0
 17
0.0
 27
1.0
 37
0.0
 76
0
330
214
345
0
346
0
  0
ENDSEC
  0
EOF
