  0
SECTION
  2
HEADER
  9
$ACADVER
  1
AC1015
  9
$DWGCODEPAGE
  3
ANSI_1252
  9
$EXTMAX
 10
297.0
 20
210.0
 30
0.0
  9
$EXTMIN
 10
0.0
 20
0.0
 30
0.0
  9
$LIMMIN
 10
0.0
 20
0.0
  9
$LIMMAX
 10
297.0
 20
210.0
  9
$VIEWCTR
 10
148.5
 20
105.0
  9
$VIEWSIZE
 40
210.0
  9
$CLAYER
  8
0
  9
$LTSCALE
 40
16.335
  9
$CELTYPE
  6
BYLAYER
  9
$DIMSCALE
 40
1.0
  9
$DIMASZ
 40
3.0
  9
$DIMEXO
 40
1.85625
  9
$DIMDLI
 40
11.286
  9
$DIMEXE
 40
5.346
  9
$DIMCEN
 40
2.673
  9
$DIMLFAC
 40
1.0
  9
$DIMBLK
  1
_FILLED
  9
$DIMTXT
 40
3.0
  9
$DIMTOL
 70
1
  9
$DIMLIM
 70
0
  9
$DIMTFAC
 40
1.0
  9
$DIMTP
 40
0.01
  9
$DIMTM
 40
0.01
  9
$PDMODE
 70
3
  9
$PDSIZE
 40
3.0
  9
$HANDSEED
  5
446
  9
$TILEMODE
 70
1
  9
$MEASUREMENT
 70
1
  9
$INSUNITS
 70
4
  0
ENDSEC
  0
SECTION
  2
CLASSES
  0
CLASS
  1
ACDBDICTIONARYWDFLT
  2
AcDbDictionaryWithDefault
  3
AutoCAD 2000
 90
0
280
0
281
0
  0
CLASS
  1
ACDBPLACEHOLDER
  2
AcDbPlaceHolder
  3
AutoCAD 2000
 90
0
280
0
281
0
  0
CLASS
  1
LAYOUT
  2
AcDbLayout
  3
AutoCAD 2000
 90
0
280
0
281
0
  0
ENDSEC
  0
SECTION
  2
TABLES
  0
TABLE
  2
VPORT
  5
8
100
AcDbSymbolTable
 70
2
  0
VPORT
  5
1F4
100
AcDbSymbolTableRecord
100
AcDbViewportTableRecord
  2
*ACTIVE
 70
0
 10
0.0
 20
0.0
 11
1.0
 21
1.0
 12
148.5
 22
105.0
 13
0.0
 23
0.0
 14
1.0
 24
1.0
 15
0.0
 25
0.0
 16
0.0
 26
0.0
 36
1.0
 17
0.0
 27
0.0
 37
0.0
 40
210.0
 41
1.4142857143
 42
50.0
 43
0.0
 44
0.0
 50
0.0
 51
0.0
 71
0
 72
100
 73
1
 74
1
 75
0
 76
0
 77
0
 78
0
  0
ENDTAB
  0
TABLE
  2
LTYPE
  5
5
100
AcDbSymbolTable
 70
6
  0
LTYPE
  5
14
100
AcDbSymbolTableRecord
100
AcDbLinetypeTableRecord
  2
BYBLOCK
 70
0
  3

 72
65
 73
0
 40
0.0
  0
LTYPE
  5
15
100
AcDbSymbolTableRecord
100
AcDbLinetypeTableRecord
  2
BYLAYER
 70
0
  3

 72
65
 73
0
 40
0.0
  0
LTYPE
  5
16
100
AcDbSymbolTableRecord
100
AcDbLinetypeTableRecord
  2
CONTINUOUS
 70
64
  3
Solid line
 72
65
 73
0
 40
0.0
  0
LTYPE
  5
1F5
100
AcDbSymbolTableRecord
100
AcDbLinetypeTableRecord
  2
CENTER
 70
64
  3
____ _ ____ _ ____ _ ____ _ ____ _ ____ _ ____
 72
65
 73
4
 40
0.6
 49
0.375
 74
0
 49
-0.075
 74
0
 49
0.075
 74
0
 49
-0.075
 74
0
  0
LTYPE
  5
1F6
100
AcDbSymbolTableRecord
100
AcDbLinetypeTableRecord
  2
HIDDEN
 70
64
  3
- - - - - - - - - - - - - - - - - - - -
 72
65
 73
2
 40
0.2
 49
0.1
 74
0
 49
-0.1
 74
0
  0
LTYPE
  5
1F7
100
AcDbSymbolTableRecord
100
AcDbLinetypeTableRecord
  2
PHANTOM
 70
64
  3
_____ _ _ _____ _ _ _____ _ _ _____
 72
65
 73
6
 40
0.8
 49
0.45
 74
0
 49
-0.05
 74
0
 49
0.1
 74
0
 49
-0.05
 74
0
 49
0.1
 74
0
 49
-0.05
 74
0
  0
LTYPE
  5
1F8
100
AcDbSymbolTableRecord
100
AcDbLinetypeTableRecord
  2
DOT
 70
64
  3
. . . . . . . . . . . . . . . . . . . .
 72
65
 73
2
 40
0.2
 49
0.1
 74
0
 49
-0.1
 74
0
  0
LTYPE
  5
1F9
100
AcDbSymbolTableRecord
100
AcDbLinetypeTableRecord
  2
DASHED
 70
64
  3
- - - - - - - - - - - - - - - - - - - -
 72
65
 73
2
 40
0.2
 49
0.1
 74
0
 49
-0.1
 74
0
  0
ENDTAB
  0
TABLE
  2
LAYER
  5
2
100
AcDbSymbolTable
 70
36
  0
LAYER
  5
10
100
AcDbSymbolTableRecord
100
AcDbLayerTableRecord
  2
0
 70
0
 62
7
  6
CONTINUOUS
370
-3
390
F
  0
LAYER
  5
1FA
100
AcDbSymbolTableRecord
100
AcDbLayerTableRecord
  2
DEFAULT_1
 70
0
 62
7
  6
CENTER
370
-3
390
F
  0
LAYER
  5
1FB
100
AcDbSymbolTableRecord
100
AcDbLayerTableRecord
  2
DEFAULT_2
 70
0
 62
7
  6
HIDDEN
370
-3
390
F
  0
LAYER
  5
1FC
100
AcDbSymbolTableRecord
100
AcDbLayerTableRecord
  2
DEFAULT_3
 70
0
 62
7
  6
PHANTOM
370
-3
390
F
  0
LAYER
  5
1FD
100
AcDbSymbolTableRecord
100
AcDbLayerTableRecord
  2
ASSI
 70
0
 62
7
  6
CONTINUOUS
370
-3
390
F
  0
LAYER
  5
1FE
100
AcDbSymbolTableRecord
100
AcDbLayerTableRecord
  2
COORDINATE
 70
0
 62
7
  6
CONTINUOUS
370
-3
390
F
  0
LAYER
  5
1FF
100
AcDbSymbolTableRecord
100
AcDbLayerTableRecord
  2
COORD_ORIGINE
 70
0
 62
7
  6
CONTINUOUS
370
-3
390
F
  0
LAYER
  5
200
100
AcDbSymbolTableRecord
100
AcDbLayerTableRecord
  2
COPY_PUBLISH
 70
0
 62
7
  6
CONTINUOUS
370
-3
390
F
  0
LAYER
  5
201
100
AcDbSymbolTableRecord
100
AcDbLayerTableRecord
  2
COSMETIC
 70
0
 62
7
  6
CONTINUOUS
370
-3
390
F
  0
LAYER
  5
202
100
AcDbSymbolTableRecord
100
AcDbLayerTableRecord
  2
CURVE
 70
0
 62
7
  6
CONTINUOUS
370
-3
390
F
  0
LAYER
  5
203
100
AcDbSymbolTableRecord
100
AcDbLayerTableRecord
  2
DRAFT
 70
0
 62
7
  6
CONTINUOUS
370
-3
390
F
  0
LAYER
  5
204
100
AcDbSymbolTableRecord
100
AcDbLayerTableRecord
  2
IMPORT_IGES
 70
0
 62
7
  6
CONTINUOUS
370
-3
390
F
  0
LAYER
  5
205
100
AcDbSymbolTableRecord
100
AcDbLayerTableRecord
  2
INTFCLR_2
 70
0
 62
7
  6
CONTINUOUS
370
-3
390
F
  0
LAYER
  5
206
100
AcDbSymbolTableRecord
100
AcDbLayerTableRecord
  2
PIANI
 70
0
 62
7
  6
CONTINUOUS
370
-3
390
F
  0
LAYER
  5
207
100
AcDbSymbolTableRecord
100
AcDbLayerTableRecord
  2
PIANI_ORIGINE
 70
0
 62
7
  6
CONTINUOUS
370
-3
390
F
  0
LAYER
  5
208
100
AcDbSymbolTableRecord
100
AcDbLayerTableRecord
  2
PIANI_RIFERIMENTO
 70
0
 62
7
  6
CONTINUOUS
370
-3
390
F
  0
LAYER
  5
209
100
AcDbSymbolTableRecord
100
AcDbLayerTableRecord
  2
PUNTI
 70
0
 62
7
  6
CONTINUOUS
370
-3
390
F
  0
LAYER
  5
20A
100
AcDbSymbolTableRecord
100
AcDbLayerTableRecord
  2
RACCORDO
 70
0
 62
7
  6
CONTINUOUS
370
-3
390
F
  0
LAYER
  5
20B
100
AcDbSymbolTableRecord
100
AcDbLayerTableRecord
  2
SMUSSO
 70
0
 62
7
  6
CONTINUOUS
370
-3
390
F
  0
LAYER
  5
20C
100
AcDbSymbolTableRecord
100
AcDbLayerTableRecord
  2
SNAPLINE
 70
0
 62
7
  6
CONTINUOUS
370
-3
390
F
  0
LAYER
  5
20D
100
AcDbSymbolTableRecord
100
AcDbLayerTableRecord
  2
SUPERFICI
 70
0
 62
7
  6
CONTINUOUS
370
-3
390
F
  0
LAYER
  5
20E
100
AcDbSymbolTableRecord
100
AcDbLayerTableRecord
  2
TRASH
 70
0
 62
7
  6
CONTINUOUS
370
-3
390
F
  0
LAYER
  5
20F
100
AcDbSymbolTableRecord
100
AcDbLayerTableRecord
  2
XSEC_DATUMS
 70
0
 62
7
  6
CONTINUOUS
370
-3
390
F
  0
ENDTAB
  0
TABLE
  2
STYLE
  5
3
100
AcDbSymbolTable
 70
1
  0
STYLE
  5
11
100
AcDbSymbolTableRecord
100
AcDbTextStyleTableRecord
  2
STANDARD
 70
0
 40
0.0
 41
0.8
 50
0.0
 71
0
 42
0.2
  3
txt
  4

  0
STYLE
  5
210
100
AcDbSymbolTableRecord
100
AcDbTextStyleTableRecord
  2
TEXTSTYLE_1
 70
0
 40
0.0
 41
0.8
 50
0.0
 71
0
 42
0.2
  3
gdt
  4

  0
ENDTAB
  0
TABLE
  2
VIEW
  5
6
100
AcDbSymbolTable
 70
0
  0
ENDTAB
  0
TABLE
  2
UCS
  5
7
100
AcDbSymbolTable
 70
0
  0
ENDTAB
  0
TABLE
  2
APPID
  5
9
100
AcDbSymbolTable
 70
1
  0
APPID
  5
211
100
AcDbSymbolTableRecord
100
AcDbRegAppTableRecord
  2
ACAD
 70
0
  0
ENDTAB
  0
TABLE
  2
BLOCK_RECORD
  5
1
100
AcDbSymbolTable
 70
0
  0
BLOCK_RECORD
  5
212
100
AcDbSymbolTableRecord
100
AcDbBlockTableRecord
  2
*Model_Space
  0
BLOCK_RECORD
  5
213
100
AcDbSymbolTableRecord
100
AcDbBlockTableRecord
  2
*Paper_Space
  0
ENDTAB
  0
TABLE
  2
DIMSTYLE
  5
A
100
AcDbSymbolTable
 70
1
100
AcDbDimStyleTable
 71
0
  0
DIMSTYLE
105
214
100
AcDbSymbolTableRecord
100
AcDbDimStyleTableRecord
  2
STANDARD
 70
0
  3

  4

 40
1.0
 41
3.0
 42
0.0625
 43
0.38
 44
0.18
 45
0.0
 46
0.0
 47
0.01
 48
0.01
140
3.0
141
0.09
142
0.0
143
25.4
144
1.0
145
0.0
146
1.0
147
0.09
 71
1.0
 72
0.0
 73
0
 74
0
 75
0
 76
0
 77
1
 78
8
170
0
171
2
172
0
173
0
174
0
175
0
176
0
177
0
178
0
270
2
271
2
272
2
273
2
274
2
275
0
280
0
281
0
282
0
283
1
284
8
285
0
286
0
287
3
288
0
340
11
  0
ENDTAB
  0
ENDSEC
  0
SECTION
  2
BLOCKS
  0
BLOCK
  5
20
100
AcDbEntity
  8
0
100
AcDbBlockBegin
  2
*Model_Space
 70
0
 10
0.0
 20
0.0
 30
0.0
  3
*Model_Space
  1

  0
ENDBLK
  5
21
100
AcDbEntity
  8
0
100
AcDbBlockEnd
  0
BLOCK
  5
1C
100
AcDbEntity
  8
0
100
AcDbBlockBegin
  2
*Paper_Space
 70
0
 10
0.0
 20
0.0
 30
0.0
  3
*Paper_Space
  1

  0
ENDBLK
  5
1D
100
AcDbEntity
  8
0
100
AcDbBlockEnd
  0
ENDSEC
  0
SECTION
  2
ENTITIES
  0
LINE
  5
215
100
AcDbEntity
  8
SMUSSO
100
AcDbLine
 62
7
  6
CONTINUOUS
 10
-33.9941585055
 20
56.7836229244
 11
-34.7012652867
 21
56.2711509112
  0
LINE
  5
216
100
AcDbEntity
  8
SMUSSO
100
AcDbLine
 62
7
  6
CONTINUOUS
 10
-34.4083720679
 20
55.4175975206
 11
-34.7012652867
 21
55.2053246624
  0
LINE
  5
217
100
AcDbEntity
  8
SMUSSO
100
AcDbLine
 62
7
  6
CONTINUOUS
 10
-33.9941585055
 20
56.7836229244
 11
-31.5546401104
 21
58.003382122
  0
LINE
  5
218
100
AcDbEntity
  8
SMUSSO
100
AcDbLine
 62
7
  6
CONTINUOUS
 10
-33.9941585055
 20
56.7836229244
 11
-34.4083720679
 21
55.4175975206
  0
LINE
  5
219
100
AcDbEntity
  8
SMUSSO
100
AcDbLine
 62
7
  6
CONTINUOUS
 10
32.2617468916
 20
-57.4909101088
 11
30.8475333293
 21
-57.1321906412
  0
LINE
  5
21A
100
AcDbEntity
  8
SMUSSO
100
AcDbLine
 62
7
  6
CONTINUOUS
 10
-33.9941585055
 20
-25.228982814
 11
-34.4083720679
 21
-24.8629574102
  0
LINE
  5
21B
100
AcDbEntity
  8
SMUSSO
100
AcDbLine
 62
7
  6
CONTINUOUS
 10
-34.7012652867
 20
-24.3577913332
 11
-34.4083720679
 21
-24.8629574102
  0
LWPOLYLINE
  5
21C
100
AcDbEntity
  8
RACCORDO
100
AcDbPolyline
 62
7
  6
CONTINUOUS
 90
13
 70
0
 10
-21.4566875379
 20
30.0141672804
 10
-21.4799648487
 20
30.0006882932
 10
-21.5177569239
 20
29.9745271866
 10
-21.552938685
 20
29.9444918667
 10
-21.5851742769
 20
29.910827062
 10
-21.6141644104
 20
29.8738308938
 10
-21.6399266282
 20
29.8334142532
 10
-21.6622146083
 20
29.7897505083
 10
-21.6807516874
 20
29.7431163251
 10
-21.6954424418
 20
29.6933570986
 10
-21.706062225
 20
29.6404596893
 10
-21.712298018
 20
29.584684528
 10
-21.7139656767
 20
29.5360437586
  0
LINE
  5
21D
100
AcDbEntity
  8
RACCORDO
100
AcDbLine
 62
7
  6
CONTINUOUS
 10
-21.4567284002
 20
30.0141469112
 11
-20.0968022528
 21
30.7478582929
  0
LINE
  5
21E
100
AcDbEntity
  8
RACCORDO
100
AcDbLine
 62
7
  6
CONTINUOUS
 10
-21.1348783084
 20
29.9988778666
 11
-19.7764505528
 21
30.7317808054
  0
LINE
  5
21F
100
AcDbEntity
  8
SMUSSO
100
AcDbLine
 62
7
  6
CONTINUOUS
 10
-33.9941585055
 20
-25.228982814
 11
31.5546401104
 21
-58.003382122
  0
LINE
  5
220
100
AcDbEntity
  8
SMUSSO
100
AcDbLine
 62
7
  6
CONTINUOUS
 10
-34.4083720679
 20
-24.8629574102
 11
30.5546401104
 21
-57.3444634994
  0
LINE
  5
221
100
AcDbEntity
  8
SMUSSO
100
AcDbLine
 62
7
  6
CONTINUOUS
 10
-34.7012652867
 20
56.2711509112
 11
-34.7012652867
 21
-24.3577913332
  0
LINE
  5
222
100
AcDbEntity
  8
SMUSSO
100
AcDbLine
 62
7
  6
CONTINUOUS
 10
31.5546401104
 20
-58.003382122
 11
30.5546401104
 21
-57.3444634994
  0
LINE
  5
223
100
AcDbEntity
  8
RACCORDO
100
AcDbLine
 62
7
  6
CONTINUOUS
 10
-17.4651394585
 20
25.2627596947
 11
-17.3444471951
 21
25.3210352767
  0
LWPOLYLINE
  5
224
100
AcDbEntity
  8
RACCORDO
100
AcDbPolyline
 62
7
  6
CONTINUOUS
 90
12
 70
0
 10
-21.7125030995
 20
-14.7799523488
 10
-21.7064870756
 20
-14.8395383173
 10
-21.695968046
 20
-14.8991482914
 10
-21.6811256807
 20
-14.9584552452
 10
-21.6622336741
 20
-15.0167710149
 10
-21.6395377337
 20
-15.0737424677
 10
-21.6131416307
 20
-15.1292482364
 10
-21.5832396872
 20
-15.1828885248
 10
-21.5498904101
 20
-15.2345004046
 10
-21.5132206438
 20
-15.283694724
 10
-21.4735976929
 20
-15.3298534224
 10
-21.4308140764
 20
-15.3729805052
  0
LINE
  5
225
100
AcDbEntity
  8
RACCORDO
100
AcDbLine
 62
7
  6
CONTINUOUS
 10
-21.7139659704
 20
-14.7333239362
 11
-21.7125030995
 21
-14.7799523488
  0
LWPOLYLINE
  5
226
100
AcDbEntity
  8
RACCORDO
100
AcDbPolyline
 62
7
  6
CONTINUOUS
 90
9
 70
0
 10
-16.884285979
 20
15.3559693329
 10
-16.8608354223
 20
15.3896139571
 10
-16.8400850928
 20
15.4246779311
 10
-16.8223232409
 20
15.4609107289
 10
-16.8077253432
 20
15.4981920037
 10
-16.7964168439
 20
15.5363921426
 10
-16.7886020413
 20
15.5749986596
 10
-16.7843601023
 20
15.6135463054
 10
-16.7834862179
 20
15.6407097129
  0
LWPOLYLINE
  5
227
100
AcDbEntity
  8
RACCORDO
100
AcDbPolyline
 62
7
  6
CONTINUOUS
 90
3
 70
0
 10
-16.9149507362
 20
15.3184470966
 10
-16.9103062912
 20
15.3237539757
 10
-16.884285979
 20
15.3559693329
  0
LINE
  5
228
100
AcDbEntity
  8
RACCORDO
100
AcDbLine
 62
7
  6
CONTINUOUS
 10
-16.9149507362
 20
15.3184470966
 11
-16.9149790769
 21
15.3184150689
  0
LINE
  5
229
100
AcDbEntity
  8
DRAFT
100
AcDbLine
 62
7
  6
CONTINUOUS
 10
-17.2261626419
 20
19.3718821036
 11
-17.76220175
 21
19.0742162326
  0
LINE
  5
22A
100
AcDbEntity
  8
RACCORDO
100
AcDbLine
 62
7
  6
CONTINUOUS
 10
-16.7834795814
 20
16.4295446883
 11
-15.4548656276
 21
17.146362397
  0
LINE
  5
22B
100
AcDbEntity
  8
RACCORDO
100
AcDbLine
 62
7
  6
CONTINUOUS
 10
-16.7834795814
 20
16.3493787473
 11
-15.5037688235
 21
17.0398120599
  0
LINE
  5
22C
100
AcDbEntity
  8
RACCORDO
100
AcDbLine
 62
7
  6
CONTINUOUS
 10
-16.5298552697
 20
20.5472626501
 11
-15.5962654446
 21
21.0103300858
  0
LINE
  5
22D
100
AcDbEntity
  8
RACCORDO
100
AcDbLine
 62
7
  6
CONTINUOUS
 10
-16.5298552697
 20
20.2332486891
 11
-15.4548656276
 21
20.7664514765
  0
LINE
  5
22E
100
AcDbEntity
  8
RACCORDO
100
AcDbLine
 62
7
  6
CONTINUOUS
 10
-16.5298552697
 20
20.1717938317
 11
-17.4651394585
 21
19.7201971105
  0
LINE
  5
22F
100
AcDbEntity
  8
RACCORDO
100
AcDbLine
 62
7
  6
CONTINUOUS
 10
-16.6092375644
 20
20.0088487393
 11
-17.5445217531
 21
19.5572520181
  0
LINE
  5
230
100
AcDbEntity
  8
RACCORDO
100
AcDbLine
 62
7
  6
CONTINUOUS
 10
-16.0574399344
 20
21.2049141295
 11
-16.5298552697
 21
20.9867370723
  0
LINE
  5
231
100
AcDbEntity
  8
RACCORDO
100
AcDbLine
 62
7
  6
CONTINUOUS
 10
-15.9711160494
 20
21.1977553882
 11
-16.5298552697
 21
20.9397111003
  0
LWPOLYLINE
  5
232
100
AcDbEntity
  8
RACCORDO
100
AcDbPolyline
 62
7
  6
CONTINUOUS
 90
11
 70
0
 10
14.3857080978
 20
-33.3150733294
 10
14.4199041178
 20
-33.3308671002
 10
14.4700057783
 20
-33.3494808171
 10
14.5206417449
 20
-33.3629930792
 10
14.5714722451
 20
-33.3713233087
 10
14.6219033188
 20
-33.3744190313
 10
14.6714711409
 20
-33.372332267
 10
14.7197811302
 20
-33.3651928663
 10
14.7662052599
 20
-33.3532558443
 10
14.8102545712
 20
-33.3368646058
 10
14.8209512238
 20
-33.3320689763
  0
LINE
  5
233
100
AcDbEntity
  8
RACCORDO
100
AcDbLine
 62
7
  6
CONTINUOUS
 10
-21.2653401695
 20
-15.4895613916
 11
14.3855636107
 21
-33.3150132817
  0
LINE
  5
234
100
AcDbEntity
  8
RACCORDO
100
AcDbLine
 62
7
  6
CONTINUOUS
 10
-21.3433081283
 20
-15.32729925
 11
14.3098789938
 21
-33.153892811
  0
LINE
  5
235
100
AcDbEntity
  8
0
100
AcDbLine
 62
7
  6
CONTINUOUS
 10
-1.8876237614
 20
-25.0287612733
 11
-1.5789349642
 21
-25.1831056719
  0
LINE
  5
236
100
AcDbEntity
  8
0
100
AcDbLine
 62
7
  6
CONTINUOUS
 10
-1.1043109072
 20
-25.4204177004
 11
-0.8061886108
 21
-25.5694788486
  0
LINE
  5
237
100
AcDbEntity
  8
0
100
AcDbLine
 62
7
  6
CONTINUOUS
 10
-6.0964816272
 20
-22.9243319959
 11
-5.8233503193
 21
-23.0608976499
  0
LINE
  5
238
100
AcDbEntity
  8
0
100
AcDbLine
 62
7
  6
CONTINUOUS
 10
-5.2310585875
 20
-23.3570435158
 11
-4.9211223716
 21
-23.5120116238
  0
LINE
  5
239
100
AcDbEntity
  8
0
100
AcDbLine
 62
7
  6
CONTINUOUS
 10
-4.7542741626
 20
-23.5954357283
 11
-4.4577666116
 21
-23.7436895038
  0
LINE
  5
23A
100
AcDbEntity
  8
0
100
AcDbLine
 62
7
  6
CONTINUOUS
 10
-4.0272899027
 20
-23.9589278582
 11
-3.9838219275
 21
-23.9806618458
  0
LINE
  5
23B
100
AcDbEntity
  8
0
100
AcDbLine
 62
7
  6
CONTINUOUS
 10
-3.5516304847
 20
-24.1967575672
 11
-3.2484308751
 21
-24.348357372
  0
LINE
  5
23C
100
AcDbEntity
  8
0
100
AcDbLine
 62
7
  6
CONTINUOUS
 10
-3.1997628367
 20
-24.3726913912
 11
-2.8931896206
 21
-24.5259779993
  0
LINE
  5
23D
100
AcDbEntity
  8
0
100
AcDbLine
 62
7
  6
CONTINUOUS
 10
-2.3052953859
 20
-24.8199251166
 11
-1.9786360946
 21
-24.9832547623
  0
LINE
  5
23E
100
AcDbEntity
  8
0
100
AcDbLine
 62
7
  6
CONTINUOUS
 10
-2.8076664697
 20
-24.2057025915
 11
-2.3855852396
 21
-24.4167432065
  0
LINE
  5
23F
100
AcDbEntity
  8
0
100
AcDbLine
 62
7
  6
CONTINUOUS
 10
-2.4475256723
 20
-24.1048559998
 11
-2.7442672756
 21
-23.9564851981
  0
LINE
  5
240
100
AcDbEntity
  8
0
100
AcDbLine
 62
7
  6
CONTINUOUS
 10
-1.5789349642
 20
-24.4714450435
 11
-1.4127547486
 21
-24.5545351514
  0
LINE
  5
241
100
AcDbEntity
  8
IMPORT_IGES
100
AcDbLine
 62
7
  6
CONTINUOUS
 10
-2.6028459194
 20
-23.88577452
 11
-2.4773703021
 21
-23.9485123287
  0
LINE
  5
242
100
AcDbEntity
  8
0
100
AcDbLine
 62
7
  6
CONTINUOUS
 10
-2.4773703021
 20
-23.9485123287
 11
-2.6028459194
 21
-23.88577452
  0
LINE
  5
243
100
AcDbEntity
  8
0
100
AcDbLine
 62
7
  6
CONTINUOUS
 10
-1.4120866874
 20
-24.2570427477
 11
-1.5892119718
 21
-24.1684801055
  0
LINE
  5
244
100
AcDbEntity
  8
0
100
AcDbLine
 62
7
  6
CONTINUOUS
 10
-1.2706653312
 20
-24.1863320696
 11
-1.4477906156
 21
-24.0977694274
  0
LINE
  5
245
100
AcDbEntity
  8
IMPORT_IGES
100
AcDbLine
 62
7
  6
CONTINUOUS
 10
-1.2706653312
 20
-24.1863320696
 11
-1.4477906156
 21
-24.0977694274
  0
LWPOLYLINE
  5
246
100
AcDbEntity
  8
RACCORDO
100
AcDbPolyline
 62
7
  6
CONTINUOUS
 90
5
 70
0
 10
-21.4308140764
 20
-15.3729805052
 10
-21.3851620332
 20
-15.4124721497
 10
-21.3379075087
 20
-15.4471544854
 10
-21.2896536544
 20
-15.4767221486
 10
-21.2653382225
 20
-15.4895497358
  0
LINE
  5
247
100
AcDbEntity
  8
RACCORDO
100
AcDbLine
 62
7
  6
CONTINUOUS
 10
-21.7139757281
 20
29.5360033346
 11
-21.7139757281
 21
-14.7334760137
  0
LINE
  5
248
100
AcDbEntity
  8
RACCORDO
100
AcDbLine
 62
7
  6
CONTINUOUS
 10
-21.6261077625
 20
29.429937321
 11
-21.6261077625
 21
-14.8423385475
  0
LINE
  5
249
100
AcDbEntity
  8
RACCORDO
100
AcDbLine
 62
7
  6
CONTINUOUS
 10
-19.9237841485
 20
-13.3257883705
 11
-19.9237841485
 21
26.2138600461
  0
LINE
  5
24A
100
AcDbEntity
  8
RACCORDO
100
AcDbLine
 62
7
  6
CONTINUOUS
 10
-19.5395791832
 20
-13.342595443
 11
-19.5395791832
 21
26.197053529
  0
LINE
  5
24B
100
AcDbEntity
  8
RACCORDO
100
AcDbLine
 62
7
  6
CONTINUOUS
 10
-18.3639776343
 20
25.8308004963
 11
-18.3639776343
 21
-12.472999735
  0
LINE
  5
24C
100
AcDbEntity
  8
RACCORDO
100
AcDbLine
 62
7
  6
CONTINUOUS
 10
-18.3034366672
 20
25.8005300127
 11
-18.3034366672
 21
-12.448046674
  0
LINE
  5
24D
100
AcDbEntity
  8
RACCORDO
100
AcDbLine
 62
7
  6
CONTINUOUS
 10
-18.0079910831
 20
-12.2991847513
 11
-18.0079910831
 21
25.6528072207
  0
LINE
  5
24E
100
AcDbEntity
  8
DRAFT
100
AcDbLine
 62
7
  6
CONTINUOUS
 10
-17.76220175
 20
-11.2366728998
 11
-17.76220175
 21
-4.7414823714
  0
LINE
  5
24F
100
AcDbEntity
  8
DRAFT
100
AcDbLine
 62
7
  6
CONTINUOUS
 10
-17.76220175
 20
19.0742162326
 11
-17.76220175
 21
25.5299125541
  0
LINE
  5
250
100
AcDbEntity
  8
DRAFT
100
AcDbLine
 62
7
  6
CONTINUOUS
 10
-17.5185705039
 20
19.5697824331
 11
-17.5185705039
 21
19.5180860346
  0
LINE
  5
251
100
AcDbEntity
  8
RACCORDO
100
AcDbLine
 62
7
  6
CONTINUOUS
 10
-17.4651394585
 20
25.2627596947
 11
-17.4651394585
 21
19.7201971105
  0
LINE
  5
252
100
AcDbEntity
  8
RACCORDO
100
AcDbLine
 62
7
  6
CONTINUOUS
 10
-17.4651394585
 20
-5.0481294377
 11
-17.4651394585
 21
-10.5906920219
  0
LWPOLYLINE
  5
253
100
AcDbEntity
  8
RACCORDO
100
AcDbPolyline
 62
7
  6
CONTINUOUS
 90
18
 70
0
 10
-17.154678502
 20
14.7188507226
 10
-17.15405996
 20
14.7463536616
 10
-17.1517965743
 20
14.7792637594
 10
-17.1477485718
 20
14.8140734513
 10
-17.1418487448
 20
14.8503471029
 10
-17.1340452871
 20
14.8878248316
 10
-17.1243052614
 20
14.9262578886
 10
-17.1126770333
 20
14.9652031362
 10
-17.0992023557
 20
15.0043737169
 10
-17.0839390953
 20
15.0434975443
 10
-17.0670335914
 20
15.0821550693
 10
-17.048607556
 20
15.1200727458
 10
-17.0287946595
 20
15.1569985767
 10
-17.0078202104
 20
15.1925677044
 10
-16.9858589392
 20
15.2265670998
 10
-16.963099096
 20
15.2587987739
 10
-16.9398380149
 20
15.2889614377
 10
-16.9149742835
 20
15.3184108206
  0
LINE
  5
254
100
AcDbEntity
  8
RACCORDO
100
AcDbLine
 62
7
  6
CONTINUOUS
 10
-16.6700100577
 20
13.9905964562
 11
-17.2261626419
 21
13.7103758422
  0
LINE
  5
255
100
AcDbEntity
  8
RACCORDO
100
AcDbLine
 62
7
  6
CONTINUOUS
 10
-16.4579103321
 20
13.6247785422
 11
-17.0334698329
 21
13.3347796439
  0
LINE
  5
256
100
AcDbEntity
  8
0
100
AcDbLine
 62
7
  6
CONTINUOUS
 10
-2.4342094374
 20
-22.9369680294
 11
-2.7340347334
 21
-22.7870553814
  0
LINE
  5
257
100
AcDbEntity
  8
0
100
AcDbLine
 62
7
  6
CONTINUOUS
 10
-3.3872762413
 20
-22.4604346274
 11
-3.6939272391
 21
-22.3071091285
  0
LINE
  5
258
100
AcDbEntity
  8
0
100
AcDbLine
 62
7
  6
CONTINUOUS
 10
-4.3105257665
 20
-21.9988098648
 11
-4.6202053027
 21
-21.8439700968
  0
LINE
  5
259
100
AcDbEntity
  8
0
100
AcDbLine
 62
7
  6
CONTINUOUS
 10
-5.3460758694
 20
-21.4810348134
 11
-5.6558006604
 21
-21.3261724179
  0
LINE
  5
25A
100
AcDbEntity
  8
0
100
AcDbLine
 62
7
  6
CONTINUOUS
 10
-6.2305059394
 20
-21.0388197784
 11
-6.5671920049
 21
-20.8704767457
  0
LINE
  5
25B
100
AcDbEntity
  8
0
100
AcDbLine
 62
7
  6
CONTINUOUS
 10
-4.9211223716
 20
-21.6934024431
 11
-5.2310585875
 21
-21.5384343352
  0
LINE
  5
25C
100
AcDbEntity
  8
IMPORT_IGES
100
AcDbLine
 62
7
  6
CONTINUOUS
 10
-6.4257706486
 20
-20.7997660676
 11
-6.0890845832
 21
-20.9681091003
  0
LINE
  5
25D
100
AcDbEntity
  8
IMPORT_IGES
100
AcDbLine
 62
7
  6
CONTINUOUS
 10
-5.5143793042
 20
-21.2554617398
 11
-5.2046545132
 21
-21.4103241353
  0
LINE
  5
25E
100
AcDbEntity
  8
IMPORT_IGES
100
AcDbLine
 62
7
  6
CONTINUOUS
 10
-4.4787839464
 20
-21.7732594187
 11
-4.1691044103
 21
-21.9280991867
  0
LINE
  5
25F
100
AcDbEntity
  8
IMPORT_IGES
100
AcDbLine
 62
7
  6
CONTINUOUS
 10
-3.5525058829
 20
-22.2363984504
 11
-3.2458548851
 21
-22.3897239493
  0
LINE
  5
260
100
AcDbEntity
  8
IMPORT_IGES
100
AcDbLine
 62
7
  6
CONTINUOUS
 10
-2.5926133772
 20
-22.7163447033
 11
-2.2927880811
 21
-22.8662573513
  0
LINE
  5
261
100
AcDbEntity
  8
0
100
AcDbLine
 62
7
  6
CONTINUOUS
 10
-2.2927880811
 20
-22.8662573513
 11
-2.5926133772
 21
-22.7163447033
  0
LINE
  5
262
100
AcDbEntity
  8
0
100
AcDbLine
 62
7
  6
CONTINUOUS
 10
-3.2458548851
 20
-22.3897239493
 11
-3.5525058829
 21
-22.2363984504
  0
LINE
  5
263
100
AcDbEntity
  8
0
100
AcDbLine
 62
7
  6
CONTINUOUS
 10
-4.1691044103
 20
-21.9280991867
 11
-4.4787839464
 21
-21.7732594187
  0
LINE
  5
264
100
AcDbEntity
  8
0
100
AcDbLine
 62
7
  6
CONTINUOUS
 10
-5.2046545132
 20
-21.4103241353
 11
-5.5143793042
 21
-21.2554617398
  0
LINE
  5
265
100
AcDbEntity
  8
0
100
AcDbLine
 62
7
  6
CONTINUOUS
 10
-6.0890845832
 20
-20.9681091003
 11
-6.4257706486
 21
-20.7997660676
  0
LINE
  5
266
100
AcDbEntity
  8
0
100
AcDbLine
 62
7
  6
CONTINUOUS
 10
-4.7797010154
 20
-21.622691765
 11
-5.0896372313
 21
-21.4677236571
  0
LINE
  5
267
100
AcDbEntity
  8
IMPORT_IGES
100
AcDbLine
 62
7
  6
CONTINUOUS
 10
-4.7797010154
 20
-21.622691765
 11
-5.0896372313
 21
-21.4677236571
  0
LINE
  5
268
100
AcDbEntity
  8
RACCORDO
100
AcDbLine
 62
7
  6
CONTINUOUS
 10
12.4828489039
 20
-30.0492267661
 11
-19.5185613767
 21
-14.0485216258
  0
LINE
  5
269
100
AcDbEntity
  8
RACCORDO
100
AcDbLine
 62
7
  6
CONTINUOUS
 10
12.6224184222
 20
-29.7352936154
 11
-19.3789976919
 21
-13.7345855583
  0
LINE
  5
26A
100
AcDbEntity
  8
RACCORDO
100
AcDbLine
 62
7
  6
CONTINUOUS
 10
-18.174207501
 20
-12.8812248557
 11
12.80020371
 21
-28.3684304612
  0
LINE
  5
26B
100
AcDbEntity
  8
RACCORDO
100
AcDbLine
 62
7
  6
CONTINUOUS
 10
-18.0594554771
 20
-12.7978009324
 11
12.80020371
 21
-28.227630526
  0
LINE
  5
26C
100
AcDbEntity
  8
RACCORDO
100
AcDbLine
 62
7
  6
CONTINUOUS
 10
12.80020371
 20
-27.963050199
 11
-17.7958913575
 21
-12.6650026653
  0
LINE
  5
26D
100
AcDbEntity
  8
RACCORDO
100
AcDbLine
 62
7
  6
CONTINUOUS
 10
-17.0143213271
 20
-12.2889496539
 11
12.80020371
 21
-27.1962121725
  0
LINE
  5
26E
100
AcDbEntity
  8
ASSI
100
AcDbLine
 62
7
  6
CONTINUOUS
 10
9.3411053147
 20
-25.392217198
 11
6.9826794642
 21
-24.2130042728
  0
LINE
  5
26F
100
AcDbEntity
  8
ASSI
100
AcDbLine
 62
7
  6
CONTINUOUS
 10
-6.568797262
 20
-17.4372659096
 11
-8.9272231125
 21
-16.2580529844
  0
LINE
  5
270
100
AcDbEntity
  8
RACCORDO
100
AcDbLine
 62
7
  6
CONTINUOUS
 10
12.80020371
 20
-27.0432435688
 11
9.4929085374
 21
-25.3895959825
  0
LINE
  5
271
100
AcDbEntity
  8
RACCORDO
100
AcDbLine
 62
7
  6
CONTINUOUS
 10
4.472450391
 20
-22.8793669093
 11
-6.4169940393
 21
-17.4346446941
  0
LINE
  5
272
100
AcDbEntity
  8
RACCORDO
100
AcDbLine
 62
7
  6
CONTINUOUS
 10
-11.4374521857
 20
-14.9244156209
 11
-17.0334698329
 21
-12.1264067973
  0
LINE
  5
273
100
AcDbEntity
  8
ASSI
100
AcDbLine
 62
7
  6
CONTINUOUS
 10
9.4776533988
 20
-25.3190698838
 11
7.1241008205
 21
-24.1422935947
  0
LINE
  5
274
100
AcDbEntity
  8
ASSI
100
AcDbLine
 62
7
  6
CONTINUOUS
 10
-6.4322491779
 20
-17.3641185955
 11
-8.7858017562
 21
-16.1873423063
  0
LINE
  5
275
100
AcDbEntity
  8
ASSI
100
AcDbLine
 62
7
  6
CONTINUOUS
 10
9.6853453934
 20
-25.2107838468
 11
7.3362328548
 21
-24.0362275775
  0
LINE
  5
276
100
AcDbEntity
  8
ASSI
100
AcDbLine
 62
7
  6
CONTINUOUS
 10
-6.2245571833
 20
-17.2558325584
 11
-8.5736697219
 21
-16.0812762891
  0
LINE
  5
277
100
AcDbEntity
  8
ASSI
100
AcDbLine
 62
7
  6
CONTINUOUS
 10
9.8238067232
 20
-25.1385931554
 11
7.477654211
 21
-23.9655168994
  0
LINE
  5
278
100
AcDbEntity
  8
ASSI
100
AcDbLine
 62
7
  6
CONTINUOUS
 10
-6.0860958535
 20
-17.1836418671
 11
-8.4322483656
 21
-16.010565611
  0
LINE
  5
279
100
AcDbEntity
  8
RACCORDO
100
AcDbLine
 62
7
  6
CONTINUOUS
 10
12.80020371
 20
-26.4654649201
 11
10.0585939624
 21
-25.0946600463
  0
LINE
  5
27A
100
AcDbEntity
  8
RACCORDO
100
AcDbLine
 62
7
  6
CONTINUOUS
 10
5.038135816
 20
-22.5844309731
 11
-5.8513086143
 21
-17.1397087579
  0
LINE
  5
27B
100
AcDbEntity
  8
RACCORDO
100
AcDbLine
 62
7
  6
CONTINUOUS
 10
-10.8717667607
 20
-14.6294796847
 11
-16.4578780234
 21
-11.8364240534
  0
LINE
  5
27C
100
AcDbEntity
  8
ASSI
100
AcDbLine
 62
7
  6
CONTINUOUS
 10
11.5788735419
 20
-25.8039945304
 11
7.6897862454
 21
-23.8594508822
  0
LINE
  5
27D
100
AcDbEntity
  8
ASSI
100
AcDbLine
 62
7
  6
CONTINUOUS
 10
-4.3310290348
 20
-17.8490432421
 11
-8.2201163313
 21
-15.9044995938
  0
LINE
  5
27E
100
AcDbEntity
  8
ASSI
100
AcDbLine
 62
7
  6
CONTINUOUS
 10
11.7202948982
 20
-25.7332838523
 11
7.8312076016
 21
-23.7887402041
  0
LINE
  5
27F
100
AcDbEntity
  8
ASSI
100
AcDbLine
 62
7
  6
CONTINUOUS
 10
-4.1896076785
 20
-17.778332564
 11
-8.0786949751
 21
-15.8337889157
  0
LINE
  5
280
100
AcDbEntity
  8
RACCORDO
100
AcDbLine
 62
7
  6
CONTINUOUS
 10
-16.4556609674
 20
-11.4854990081
 11
-16.1044332767
 21
-11.6611128534
  0
LINE
  5
281
100
AcDbEntity
  8
ASSI
100
AcDbLine
 62
7
  6
CONTINUOUS
 10
11.9324269325
 20
-25.6272178352
 11
8.043339636
 21
-23.6826741869
  0
LINE
  5
282
100
AcDbEntity
  8
ASSI
100
AcDbLine
 62
7
  6
CONTINUOUS
 10
-3.9774756442
 20
-17.6722665468
 11
-7.8665629407
 21
-15.7277228985
  0
LINE
  5
283
100
AcDbEntity
  8
RACCORDO
100
AcDbLine
 62
7
  6
CONTINUOUS
 10
-16.4844765262
 20
-11.3511913437
 11
-15.9190768283
 21
-11.6338911927
  0
LINE
  5
284
100
AcDbEntity
  8
RACCORDO
100
AcDbLine
 62
7
  6
CONTINUOUS
 10
-17.6773038065
 20
-10.7444174691
 11
-17.76220175
 21
-10.7019684973
  0
LINE
  5
285
100
AcDbEntity
  8
DRAFT
100
AcDbLine
 62
7
  6
CONTINUOUS
 10
-17.5772377004
 20
-10.7634694996
 11
-17.2261626419
 21
-10.9390070289
  0
LINE
  5
286
100
AcDbEntity
  8
ASSI
100
AcDbLine
 62
7
  6
CONTINUOUS
 10
12.0738482888
 20
-25.556507157
 11
8.1847609922
 21
-23.6119635088
  0
LINE
  5
287
100
AcDbEntity
  8
ASSI
100
AcDbLine
 62
7
  6
CONTINUOUS
 10
-3.8360542879
 20
-17.6015558687
 11
-7.7251415845
 21
-15.6570122204
  0
LWPOLYLINE
  5
288
100
AcDbEntity
  8
RACCORDO
100
AcDbPolyline
 62
7
  6
CONTINUOUS
 90
18
 70
0
 10
-15.7520029753
 20
-11.9039908174
 10
-15.7525911941
 20
-11.8851138031
 10
-15.7542606118
 20
-11.8670880633
 10
-15.7570638862
 20
-11.8488864087
 10
-15.7610480545
 20
-11.8305842821
 10
-15.7662568056
 20
-11.8122602806
 10
-15.7727242444
 20
-11.7940132304
 10
-15.7804843239
 20
-11.7759291941
 10
-15.7895778583
 20
-11.7580803611
 10
-15.8000273624
 20
-11.7405775642
 10
-15.8118462622
 20
-11.7235377391
 10
-15.8250596849
 20
-11.7070579718
 10
-15.8396656434
 20
-11.6912696642
 10
-15.8556492076
 20
-11.6763094489
 10
-15.8730075914
 20
-11.6622981991
 10
-15.8917090675
 20
-11.6493795736
 10
-15.9116928679
 20
-11.6377084862
 10
-15.9188412337
 20
-11.6340140757
  0
LINE
  5
289
100
AcDbEntity
  8
DRAFT
100
AcDbLine
 62
7
  6
CONTINUOUS
 10
-17.2261626419
 20
19.3718821036
 11
-17.2261626419
 21
-4.4438165005
  0
LINE
  5
28A
100
AcDbEntity
  8
RACCORDO
100
AcDbLine
 62
7
  6
CONTINUOUS
 10
-17.2261626419
 20
-10.9390070289
 11
-17.2261626419
 21
-11.9235774327
  0
LINE
  5
28B
100
AcDbEntity
  8
RACCORDO
100
AcDbLine
 62
7
  6
CONTINUOUS
 10
-17.1546805666
 20
14.2329317106
 11
-17.1546805666
 21
14.7188212833
  0
LINE
  5
28C
100
AcDbEntity
  8
DRAFT
100
AcDbLine
 62
7
  6
CONTINUOUS
 10
-17.1231398108
 20
-4.0400828249
 11
-17.1231398108
 21
-3.4589662688
  0
LINE
  5
28D
100
AcDbEntity
  8
RACCORDO
100
AcDbLine
 62
7
  6
CONTINUOUS
 10
-17.0334698329
 20
-12.1264067973
 11
-17.0334698329
 21
-11.7679034121
  0
LINE
  5
28E
100
AcDbEntity
  8
RACCORDO
100
AcDbLine
 62
7
  6
CONTINUOUS
 10
-17.0334698329
 20
1.7541465407
 11
-17.0334698329
 21
13.3347796439
  0
LINE
  5
28F
100
AcDbEntity
  8
RACCORDO
100
AcDbLine
 62
7
  6
CONTINUOUS
 10
-16.9238201534
 20
15.4130409845
 11
-16.923810067
 21
19.856959172
  0
LINE
  5
290
100
AcDbEntity
  8
RACCORDO
100
AcDbLine
 62
7
  6
CONTINUOUS
 10
-16.9238191671
 20
1.6784843875
 11
-16.9238096812
 21
-2.4897346691
  0
LINE
  5
291
100
AcDbEntity
  8
RACCORDO
100
AcDbLine
 62
7
  6
CONTINUOUS
 10
-16.9238096812
 20
-3.3557600729
 11
-16.9238096812
 21
-4.1397478897
  0
LINE
  5
292
100
AcDbEntity
  8
RACCORDO
100
AcDbLine
 62
7
  6
CONTINUOUS
 10
-16.9238096812
 20
-10.9972404418
 11
-16.9238096812
 21
-10.4539297742
  0
LINE
  5
293
100
AcDbEntity
  8
RACCORDO
100
AcDbLine
 62
7
  6
CONTINUOUS
 10
-16.7834795814
 20
19.9247169593
 11
-16.7834795814
 21
15.6406923348
  0
LINE
  5
294
100
AcDbEntity
  8
RACCORDO
100
AcDbLine
 62
7
  6
CONTINUOUS
 10
-16.7834795814
 20
1.7432978589
 11
-16.7834795814
 21
-2.3160700765
  0
LINE
  5
295
100
AcDbEntity
  8
RACCORDO
100
AcDbLine
 62
7
  6
CONTINUOUS
 10
-16.7834795814
 20
-3.1820954803
 11
-16.7834795814
 21
-4.0481208841
  0
LINE
  5
296
100
AcDbEntity
  8
RACCORDO
100
AcDbLine
 62
7
  6
CONTINUOUS
 10
-16.7834795814
 20
-11.0674054918
 11
-16.7834795814
 21
-10.3861721731
  0
LINE
  5
297
100
AcDbEntity
  8
RACCORDO
100
AcDbLine
 62
7
  6
CONTINUOUS
 10
-16.5298552697
 20
-10.1390953008
 11
-16.5298552697
 21
-4.5965327166
  0
LINE
  5
298
100
AcDbEntity
  8
RACCORDO
100
AcDbLine
 62
7
  6
CONTINUOUS
 10
-16.5298552697
 20
20.1717938317
 11
-16.5298552697
 21
24.913739314
  0
LINE
  5
299
100
AcDbEntity
  8
RACCORDO
100
AcDbLine
 62
7
  6
CONTINUOUS
 10
-16.4579103321
 20
-11.836407899
 11
-16.4579103321
 21
-11.4899977375
  0
LINE
  5
29A
100
AcDbEntity
  8
RACCORDO
100
AcDbLine
 62
7
  6
CONTINUOUS
 10
-16.4579103321
 20
2.0199589916
 11
-16.4579103321
 21
13.6247785422
  0
LINE
  5
29B
100
AcDbEntity
  8
RACCORDO
100
AcDbLine
 62
7
  6
CONTINUOUS
 10
-15.8923335511
 20
-12.0269307674
 11
-15.8923335511
 21
-12.1191962896
  0
LINE
  5
29C
100
AcDbEntity
  8
RACCORDO
100
AcDbLine
 62
7
  6
CONTINUOUS
 10
-15.7520034512
 20
-11.9047461918
 11
-15.7520034512
 21
-12.1893613395
  0
LINE
  5
29D
100
AcDbEntity
  8
RACCORDO
100
AcDbLine
 62
7
  6
CONTINUOUS
 10
-15.4548656276
 20
20.7664514765
 11
-15.4548656276
 21
17.146362397
  0
LINE
  5
29E
100
AcDbEntity
  8
RACCORDO
100
AcDbLine
 62
7
  6
CONTINUOUS
 10
-15.4548656276
 20
2.4500141865
 11
-15.4548656276
 21
-1.170074893
  0
LINE
  5
29F
100
AcDbEntity
  8
RACCORDO
100
AcDbLine
 62
7
  6
CONTINUOUS
 10
-15.3987336026
 20
20.8359560716
 11
-15.3987335876
 21
17.2158282341
  0
LINE
  5
2A0
100
AcDbEntity
  8
RACCORDO
100
AcDbLine
 62
7
  6
CONTINUOUS
 10
-15.3987336026
 20
2.5195187815
 11
-15.3987335876
 21
-1.100609056
  0
LINE
  5
2A1
100
AcDbEntity
  8
DRAFT
100
AcDbLine
 62
7
  6
CONTINUOUS
 10
-17.2261626419
 20
-3.6512094887
 11
-17.1231398108
 21
-3.4589662688
  0
LINE
  5
2A2
100
AcDbEntity
  8
RACCORDO
100
AcDbLine
 62
7
  6
CONTINUOUS
 10
-16.6700746801
 20
-11.1241079424
 11
-17.4766038718
 21
-10.7208433465
  0
LINE
  5
2A3
100
AcDbEntity
  8
ASSI
100
AcDbLine
 62
7
  6
CONTINUOUS
 10
12.2859803231
 20
-25.4504411399
 11
8.3968930266
 21
-23.5058974916
  0
LINE
  5
2A4
100
AcDbEntity
  8
ASSI
100
AcDbLine
 62
7
  6
CONTINUOUS
 10
-3.6239222536
 20
-17.4954898515
 11
-7.5130095501
 21
-15.5509462032
  0
LINE
  5
2A5
100
AcDbEntity
  8
ASSI
100
AcDbLine
 62
7
  6
CONTINUOUS
 10
12.4274016794
 20
-25.3797304617
 11
8.5383143828
 21
-23.4351868135
  0
LINE
  5
2A6
100
AcDbEntity
  8
ASSI
100
AcDbLine
 62
7
  6
CONTINUOUS
 10
-3.4825008973
 20
-17.4247791734
 11
-7.3715881939
 21
-15.4802355251
  0
LINE
  5
2A7
100
AcDbEntity
  8
ASSI
100
AcDbLine
 62
7
  6
CONTINUOUS
 10
12.6395337137
 20
-25.2736644446
 11
8.7504464172
 21
-23.3291207963
  0
LINE
  5
2A8
100
AcDbEntity
  8
ASSI
100
AcDbLine
 62
7
  6
CONTINUOUS
 10
-3.270368863
 20
-17.3187131562
 11
-7.1594561595
 21
-15.3741695079
  0
LINE
  5
2A9
100
AcDbEntity
  8
ASSI
100
AcDbLine
 62
7
  6
CONTINUOUS
 10
12.7809550699
 20
-25.2029537664
 11
8.8918677734
 21
-23.2584101182
  0
LINE
  5
2AA
100
AcDbEntity
  8
ASSI
100
AcDbLine
 62
7
  6
CONTINUOUS
 10
-3.1289475068
 20
-17.2480024781
 11
-7.0180348033
 21
-15.3034588298
  0
LINE
  5
2AB
100
AcDbEntity
  8
ASSI
100
AcDbLine
 62
7
  6
CONTINUOUS
 10
12.80020371
 20
-25.0004460521
 11
9.1039998078
 21
-23.152344101
  0
LINE
  5
2AC
100
AcDbEntity
  8
ASSI
100
AcDbLine
 62
7
  6
CONTINUOUS
 10
-2.9168154724
 20
-17.1419364609
 11
-6.8059027689
 21
-15.1973928126
  0
LINE
  5
2AD
100
AcDbEntity
  8
ASSI
100
AcDbLine
 62
7
  6
CONTINUOUS
 10
-6.74260367
 20
-15.1114587992
 11
-6.6883192061
 21
-15.1386010312
  0
LINE
  5
2AE
100
AcDbEntity
  8
ASSI
100
AcDbLine
 62
7
  6
CONTINUOUS
 10
-2.669328099
 20
-17.1480965848
 11
-2.4851398245
 21
-17.240190722
  0
LINE
  5
2AF
100
AcDbEntity
  8
ASSI
100
AcDbLine
 62
7
  6
CONTINUOUS
 10
9.1672989067
 20
-23.0664100876
 11
9.2215833706
 21
-23.0935523196
  0
LINE
  5
2B0
100
AcDbEntity
  8
ASSI
100
AcDbLine
 62
7
  6
CONTINUOUS
 10
12.80020371
 20
-24.8590246959
 11
9.245421164
 21
-23.0816334229
  0
LINE
  5
2B1
100
AcDbEntity
  8
ASSI
100
AcDbLine
 62
7
  6
CONTINUOUS
 10
-2.7753941162
 20
-17.0712257828
 11
-6.6644814127
 21
-15.1266821345
  0
LINE
  5
2B2
100
AcDbEntity
  8
ASSI
100
AcDbLine
 62
7
  6
CONTINUOUS
 10
-6.6208011477
 20
-15.1219583434
 11
-2.4280569085
 21
-17.218330463
  0
LINE
  5
2B3
100
AcDbEntity
  8
ASSI
100
AcDbLine
 62
7
  6
CONTINUOUS
 10
9.289101429
 20
-23.0769096317
 11
12.80020371
 21
-24.8324607723
  0
LINE
  5
2B4
100
AcDbEntity
  8
ASSI
100
AcDbLine
 62
7
  6
CONTINUOUS
 10
-4.1896076785
 20
-17.778332564
 11
-4.0835416614
 21
-17.855203366
  0
LINE
  5
2B5
100
AcDbEntity
  8
ASSI
100
AcDbLine
 62
7
  6
CONTINUOUS
 10
-3.8360542879
 20
-17.6015558687
 11
-3.7299882708
 21
-17.6784266707
  0
LINE
  5
2B6
100
AcDbEntity
  8
ASSI
100
AcDbLine
 62
7
  6
CONTINUOUS
 10
-3.4825008973
 20
-17.4247791734
 11
-3.3764348802
 21
-17.5016499754
  0
LINE
  5
2B7
100
AcDbEntity
  8
ASSI
100
AcDbLine
 62
7
  6
CONTINUOUS
 10
-3.1289475068
 20
-17.2480024781
 11
-3.0228814896
 21
-17.3248732801
  0
LINE
  5
2B8
100
AcDbEntity
  8
ASSI
100
AcDbLine
 62
7
  6
CONTINUOUS
 10
-2.7753941162
 20
-17.0712257828
 11
-2.669328099
 21
-17.1480965848
  0
LINE
  5
2B9
100
AcDbEntity
  8
ASSI
100
AcDbLine
 62
7
  6
CONTINUOUS
 10
11.7202948982
 20
-25.7332838523
 11
11.8263609153
 21
-25.8101546543
  0
LINE
  5
2BA
100
AcDbEntity
  8
ASSI
100
AcDbLine
 62
7
  6
CONTINUOUS
 10
12.0738482888
 20
-25.556507157
 11
12.1799143059
 21
-25.633377959
  0
LINE
  5
2BB
100
AcDbEntity
  8
ASSI
100
AcDbLine
 62
7
  6
CONTINUOUS
 10
12.4274016794
 20
-25.3797304617
 11
12.5334676965
 21
-25.4566012637
  0
LINE
  5
2BC
100
AcDbEntity
  8
RACCORDO
100
AcDbLine
 62
7
  6
CONTINUOUS
 10
-10.6596347264
 20
-14.995392899
 11
-10.6596347264
 21
-15.4662929543
  0
LINE
  5
2BD
100
AcDbEntity
  8
RACCORDO
100
AcDbLine
 62
7
  6
CONTINUOUS
 10
-16.4579103321
 20
2.2665105795
 11
-15.5962654446
 21
2.6938927958
  0
LINE
  5
2BE
100
AcDbEntity
  8
RACCORDO
100
AcDbLine
 62
7
  6
CONTINUOUS
 10
-16.4677166819
 20
1.9476325967
 11
-15.4548656276
 21
2.4500141865
  0
LINE
  5
2BF
100
AcDbEntity
  8
RACCORDO
100
AcDbLine
 62
7
  6
CONTINUOUS
 10
-16.0574399344
 20
2.8884768394
 11
-16.4579103321
 21
2.7035263386
  0
LINE
  5
2C0
100
AcDbEntity
  8
RACCORDO
100
AcDbLine
 62
7
  6
CONTINUOUS
 10
-15.9711160494
 20
2.8813180982
 11
-16.4579103321
 21
2.6565003666
  0
LINE
  5
2C1
100
AcDbEntity
  8
RACCORDO
100
AcDbLine
 62
7
  6
CONTINUOUS
 10
-17.0334698329
 20
1.7541465407
 11
-16.4579103321
 21
2.0199589916
  0
LINE
  5
2C2
100
AcDbEntity
  8
RACCORDO
100
AcDbLine
 62
7
  6
CONTINUOUS
 10
-17.1146071774
 20
1.5903721618
 11
-16.5390476767
 21
1.8561846127
  0
LINE
  5
2C3
100
AcDbEntity
  8
RACCORDO
100
AcDbLine
 62
7
  6
CONTINUOUS
 10
-16.7420196177
 20
-4.2306429214
 11
-17.2261626419
 21
-3.9885714093
  0
LINE
  5
2C4
100
AcDbEntity
  8
RACCORDO
100
AcDbLine
 62
7
  6
CONTINUOUS
 10
-17.2261626419
 20
-2.8572005594
 11
-16.9299261908
 21
-3.005318785
  0
LINE
  5
2C5
100
AcDbEntity
  8
ASSI
100
AcDbLine
 62
7
  6
CONTINUOUS
 10
12.7809550699
 20
-25.2029537664
 11
12.80020371
 21
-25.2169041196
  0
LINE
  5
2C6
100
AcDbEntity
  8
0
100
AcDbLine
 62
7
  6
CONTINUOUS
 10
-4.3908820883
 20
-22.5896853632
 11
-4.0272899027
 21
-23.9589278582
  0
LINE
  5
2C7
100
AcDbEntity
  8
0
100
AcDbLine
 62
7
  6
CONTINUOUS
 10
-4.003863455
 20
-23.161777685
 11
-4.3105257665
 21
-21.9988098648
  0
LINE
  5
2C8
100
AcDbEntity
  8
0
100
AcDbLine
 62
7
  6
CONTINUOUS
 10
-3.9111859634
 20
-22.9062136885
 11
-4.1691044103
 21
-21.9280991867
  0
LINE
  5
2C9
100
AcDbEntity
  8
IMPORT_IGES
100
AcDbLine
 62
7
  6
CONTINUOUS
 10
-4.1691044103
 20
-21.9280991867
 11
-3.9111859634
 21
-22.9062136885
  0
LINE
  5
2CA
100
AcDbEntity
  8
0
100
AcDbLine
 62
7
  6
CONTINUOUS
 10
-6.5671920049
 20
-20.8704767457
 11
-6.0964816272
 21
-22.9243319959
  0
LINE
  5
2CB
100
AcDbEntity
  8
0
100
AcDbLine
 62
7
  6
CONTINUOUS
 10
-5.9474758437
 20
-22.4320645622
 11
-6.2305059394
 21
-21.0388197784
  0
LINE
  5
2CC
100
AcDbEntity
  8
IMPORT_IGES
100
AcDbLine
 62
7
  6
CONTINUOUS
 10
-6.0890845832
 20
-20.9681091003
 11
-5.8594725056
 21
-22.0983981902
  0
LINE
  5
2CD
100
AcDbEntity
  8
0
100
AcDbLine
 62
7
  6
CONTINUOUS
 10
-5.8594725056
 20
-22.0983981902
 11
-6.0890845832
 21
-20.9681091003
  0
LINE
  5
2CE
100
AcDbEntity
  8
0
100
AcDbLine
 62
7
  6
CONTINUOUS
 10
-3.2484308751
 20
-24.348357372
 11
-3.3872762413
 21
-22.4604346274
  0
LINE
  5
2CF
100
AcDbEntity
  8
0
100
AcDbLine
 62
7
  6
CONTINUOUS
 10
-3.1199931436
 20
-24.1011043925
 11
-3.2458548851
 21
-22.3897239493
  0
LINE
  5
2D0
100
AcDbEntity
  8
IMPORT_IGES
100
AcDbLine
 62
7
  6
CONTINUOUS
 10
-3.2458548851
 20
-22.3897239493
 11
-3.1199931436
 21
-24.1011043925
  0
LINE
  5
2D1
100
AcDbEntity
  8
0
100
AcDbLine
 62
7
  6
CONTINUOUS
 10
-3.6153075717
 20
-22.9824228227
 11
-3.5516304847
 21
-24.1967575672
  0
LINE
  5
2D2
100
AcDbEntity
  8
0
100
AcDbLine
 62
7
  6
CONTINUOUS
 10
-5.2310585875
 20
-21.5384343352
 11
-5.2310585875
 21
-23.3570435158
  0
LINE
  5
2D3
100
AcDbEntity
  8
0
100
AcDbLine
 62
7
  6
CONTINUOUS
 10
-4.9211223716
 20
-23.5120116238
 11
-4.9211223716
 21
-21.6934024431
  0
LINE
  5
2D4
100
AcDbEntity
  8
0
100
AcDbLine
 62
7
  6
CONTINUOUS
 10
-4.7797010154
 20
-23.4413009457
 11
-4.7797010154
 21
-21.622691765
  0
LINE
  5
2D5
100
AcDbEntity
  8
IMPORT_IGES
100
AcDbLine
 62
7
  6
CONTINUOUS
 10
-4.7797010154
 20
-23.4413009457
 11
-4.7797010154
 21
-21.622691765
  0
LINE
  5
2D6
100
AcDbEntity
  8
DRAFT
100
AcDbLine
 62
7
  6
CONTINUOUS
 10
-17.2261626419
 20
-4.4438165005
 11
-17.76220175
 21
-4.7414823714
  0
LINE
  5
2D7
100
AcDbEntity
  8
RACCORDO
100
AcDbLine
 62
7
  6
CONTINUOUS
 10
-16.7834795814
 20
-1.8868926018
 11
-15.4548656276
 21
-1.170074893
  0
LINE
  5
2D8
100
AcDbEntity
  8
RACCORDO
100
AcDbLine
 62
7
  6
CONTINUOUS
 10
-16.7834795814
 20
-1.9670585428
 11
-15.5037688235
 21
-1.2766252302
  0
LINE
  5
2D9
100
AcDbEntity
  8
RACCORDO
100
AcDbLine
 62
7
  6
CONTINUOUS
 10
-17.2261626419
 20
-2.6462824973
 11
-16.9238096812
 21
-2.4897346691
  0
LINE
  5
2DA
100
AcDbEntity
  8
RACCORDO
100
AcDbLine
 62
7
  6
CONTINUOUS
 10
-17.1231398108
 20
-3.4589662688
 11
-16.9238096812
 21
-3.3557600729
  0
LINE
  5
2DB
100
AcDbEntity
  8
RACCORDO
100
AcDbLine
 62
7
  6
CONTINUOUS
 10
14.5160254754
 20
12.1734259747
 11
15.9227185954
 21
12.8821962313
  0
LINE
  5
2DC
100
AcDbEntity
  8
SMUSSO
100
AcDbLine
 62
7
  6
CONTINUOUS
 10
31.5546401104
 20
24.0092236164
 11
33.9941585055
 21
25.228982814
  0
LINE
  5
2DD
100
AcDbEntity
  8
SMUSSO
100
AcDbLine
 62
7
  6
CONTINUOUS
 10
32.2617468916
 20
22.789644822
 11
34.7012652867
 21
24.0094040196
  0
LINE
  5
2DE
100
AcDbEntity
  8
RACCORDO
100
AcDbLine
 62
7
  6
CONTINUOUS
 10
-15.5092914588
 20
2.6983657569
 11
-15.5093619035
 21
2.6984009322
  0
LINE
  5
2DF
100
AcDbEntity
  8
RACCORDO
100
AcDbLine
 62
7
  6
CONTINUOUS
 10
-15.9711160494
 20
2.8813180982
 11
-15.5962654446
 21
2.6938927958
  0
LINE
  5
2E0
100
AcDbEntity
  8
RACCORDO
100
AcDbLine
 62
7
  6
CONTINUOUS
 10
-15.8841414733
 20
2.8857907641
 11
-15.5092908685
 21
2.6983654617
  0
LINE
  5
2E1
100
AcDbEntity
  8
0
100
AcDbLine
 62
7
  6
CONTINUOUS
 10
-1.9786360946
 20
-24.9832547623
 11
-2.4342094374
 21
-22.9369680294
  0
LINE
  5
2E2
100
AcDbEntity
  8
0
100
AcDbLine
 62
7
  6
CONTINUOUS
 10
-1.8876237614
 20
-24.686123209
 11
-2.2927880811
 21
-22.8662573513
  0
LINE
  5
2E3
100
AcDbEntity
  8
IMPORT_IGES
100
AcDbLine
 62
7
  6
CONTINUOUS
 10
-2.2927880811
 20
-22.8662573513
 11
-1.8876237614
 21
-24.686123209
  0
LINE
  5
2E4
100
AcDbEntity
  8
0
100
AcDbLine
 62
7
  6
CONTINUOUS
 10
-2.3855852396
 20
-24.4167432065
 11
-2.3052953859
 21
-24.8199251166
  0
LINE
  5
2E5
100
AcDbEntity
  8
0
100
AcDbLine
 62
7
  6
CONTINUOUS
 10
-2.5899454633
 20
-23.3587776219
 11
-2.4475256723
 21
-24.1048559998
  0
LINE
  5
2E6
100
AcDbEntity
  8
ASSI
100
AcDbLine
 62
7
  6
CONTINUOUS
 10
-2.4781262946
 20
-17.2365334366
 11
-2.4781262946
 21
-17.7486595715
  0
LINE
  5
2E7
100
AcDbEntity
  8
ASSI
100
AcDbLine
 62
7
  6
CONTINUOUS
 10
-2.4267552597
 20
-17.2207750047
 11
-2.4267552597
 21
-17.7313257892
  0
LINE
  5
2E8
100
AcDbEntity
  8
0
100
AcDbLine
 62
7
  6
CONTINUOUS
 10
-1.8876237614
 20
-23.2315069281
 11
-1.8876237614
 21
-25.0287612733
  0
LINE
  5
2E9
100
AcDbEntity
  8
0
100
AcDbLine
 62
7
  6
CONTINUOUS
 10
-1.5892119718
 20
-24.1684801055
 11
-1.5892119718
 21
-23.6692662729
  0
LINE
  5
2EA
100
AcDbEntity
  8
0
100
AcDbLine
 62
7
  6
CONTINUOUS
 10
-1.5789349642
 20
-25.1831056719
 11
-1.5789349642
 21
-24.4714450435
  0
LINE
  5
2EB
100
AcDbEntity
  8
0
100
AcDbLine
 62
7
  6
CONTINUOUS
 10
-1.4477906156
 20
-24.0977694274
 11
-1.4477906156
 21
-23.7229929335
  0
LINE
  5
2EC
100
AcDbEntity
  8
IMPORT_IGES
100
AcDbLine
 62
7
  6
CONTINUOUS
 10
-1.4477906156
 20
-24.0977694274
 11
-1.4477906156
 21
-23.7229929335
  0
LINE
  5
2ED
100
AcDbEntity
  8
0
100
AcDbLine
 62
7
  6
CONTINUOUS
 10
-1.437513608
 20
-25.1123949938
 11
-1.437513608
 21
-24.5421557217
  0
LINE
  5
2EE
100
AcDbEntity
  8
IMPORT_IGES
100
AcDbLine
 62
7
  6
CONTINUOUS
 10
-1.437513608
 20
-25.1123949938
 11
-1.437513608
 21
-24.5421557217
  0
LINE
  5
2EF
100
AcDbEntity
  8
0
100
AcDbLine
 62
7
  6
CONTINUOUS
 10
-1.0907938029
 20
-24.578316368
 11
-1.0907938029
 21
-24.5675706157
  0
LINE
  5
2F0
100
AcDbEntity
  8
0
100
AcDbLine
 62
7
  6
CONTINUOUS
 10
-4.4577666116
 20
-23.7436895038
 11
-4.3908820883
 21
-22.5896853632
  0
LINE
  5
2F1
100
AcDbEntity
  8
0
100
AcDbLine
 62
7
  6
CONTINUOUS
 10
-4.3163452553
 20
-23.6729788257
 11
-4.2781618994
 21
-23.0141754339
  0
LINE
  5
2F2
100
AcDbEntity
  8
IMPORT_IGES
100
AcDbLine
 62
7
  6
CONTINUOUS
 10
-4.2781618994
 20
-23.0141754339
 11
-4.3163452553
 21
-23.6729788257
  0
LINE
  5
2F3
100
AcDbEntity
  8
0
100
AcDbLine
 62
7
  6
CONTINUOUS
 10
-4.6202053027
 20
-21.8439700968
 11
-4.7542741626
 21
-23.5954357283
  0
LINE
  5
2F4
100
AcDbEntity
  8
0
100
AcDbLine
 62
7
  6
CONTINUOUS
 10
-5.6558006604
 20
-21.3261724179
 11
-5.9474758437
 21
-22.4320645622
  0
LINE
  5
2F5
100
AcDbEntity
  8
ASSI
100
AcDbLine
 62
7
  6
CONTINUOUS
 10
-8.9606857256
 20
-16.3157674547
 11
-8.9272231125
 21
-16.2580529844
  0
LINE
  5
2F6
100
AcDbEntity
  8
RACCORDO
100
AcDbLine
 62
7
  6
CONTINUOUS
 10
-19.3789976919
 20
-13.7345855583
 11
-18.1934066567
 21
-12.8701147972
  0
LINE
  5
2F7
100
AcDbEntity
  8
RACCORDO
100
AcDbLine
 62
7
  6
CONTINUOUS
 10
-19.5395791832
 20
-13.342595443
 11
-18.3633197707
 21
-12.4850372335
  0
LINE
  5
2F8
100
AcDbEntity
  8
RACCORDO
100
AcDbLine
 62
7
  6
CONTINUOUS
 10
15.0109248351
 20
11.3198508421
 11
16.4176179551
 21
12.0286210986
  0
LINE
  5
2F9
100
AcDbEntity
  8
RACCORDO
100
AcDbLine
 62
7
  6
CONTINUOUS
 10
-16.7420196177
 20
-4.2306429214
 11
-17.5103419326
 21
-4.6016230389
  0
LINE
  5
2FA
100
AcDbEntity
  8
RACCORDO
100
AcDbLine
 62
7
  6
CONTINUOUS
 10
-16.5298552697
 20
-4.5965327166
 11
-17.4651394585
 21
-5.0481294377
  0
LINE
  5
2FB
100
AcDbEntity
  8
DRAFT
100
AcDbLine
 62
7
  6
CONTINUOUS
 10
-3.0045939404
 20
-18.3052021726
 11
-2.9475502886
 21
-18.0729882992
  0
LINE
  5
2FC
100
AcDbEntity
  8
0
100
AcDbLine
 62
7
  6
CONTINUOUS
 10
-2.7442672756
 20
-23.9564851981
 11
-2.5899454633
 21
-23.3587776219
  0
LINE
  5
2FD
100
AcDbEntity
  8
0
100
AcDbLine
 62
7
  6
CONTINUOUS
 10
-2.6028459194
 20
-23.88577452
 11
-2.5375917573
 21
-23.633037033
  0
LINE
  5
2FE
100
AcDbEntity
  8
IMPORT_IGES
100
AcDbLine
 62
7
  6
CONTINUOUS
 10
-2.5375917573
 20
-23.633037033
 11
-2.6028459194
 21
-23.88577452
  0
LINE
  5
2FF
100
AcDbEntity
  8
0
100
AcDbLine
 62
7
  6
CONTINUOUS
 10
-2.8931896206
 20
-24.5259779993
 11
-2.8076664697
 21
-24.2057025915
  0
LINE
  5
300
100
AcDbEntity
  8
0
100
AcDbLine
 62
7
  6
CONTINUOUS
 10
-2.7517682644
 20
-24.4552673211
 11
-2.6995607274
 21
-24.2597554626
  0
LINE
  5
301
100
AcDbEntity
  8
IMPORT_IGES
100
AcDbLine
 62
7
  6
CONTINUOUS
 10
-2.6995607274
 20
-24.2597554626
 11
-2.7517682644
 21
-24.4552673211
  0
LINE
  5
302
100
AcDbEntity
  8
0
100
AcDbLine
 62
7
  6
CONTINUOUS
 10
-2.7340347334
 20
-22.7870553814
 11
-3.1997628367
 21
-24.3726913912
  0
LINE
  5
303
100
AcDbEntity
  8
0
100
AcDbLine
 62
7
  6
CONTINUOUS
 10
-5.8233503193
 20
-23.0608976499
 11
-5.3460758694
 21
-21.4810348134
  0
LINE
  5
304
100
AcDbEntity
  8
0
100
AcDbLine
 62
7
  6
CONTINUOUS
 10
-5.6819289631
 20
-22.9901869718
 11
-5.2046545132
 21
-21.4103241353
  0
LINE
  5
305
100
AcDbEntity
  8
IMPORT_IGES
100
AcDbLine
 62
7
  6
CONTINUOUS
 10
-5.2046545132
 20
-21.4103241353
 11
-5.6819289631
 21
-22.9901869718
  0
LINE
  5
306
100
AcDbEntity
  8
0
100
AcDbLine
 62
7
  6
CONTINUOUS
 10
-3.6939272391
 20
-22.3071091285
 11
-4.003863455
 21
-23.161777685
  0
LINE
  5
307
100
AcDbEntity
  8
0
100
AcDbLine
 62
7
  6
CONTINUOUS
 10
-3.9838219275
 20
-23.9806618458
 11
-3.6153075717
 21
-22.9824228227
  0
LINE
  5
308
100
AcDbEntity
  8
0
100
AcDbLine
 62
7
  6
CONTINUOUS
 10
-3.8424005713
 20
-23.9099511677
 11
-3.6009646712
 21
-23.2559447951
  0
LINE
  5
309
100
AcDbEntity
  8
IMPORT_IGES
100
AcDbLine
 62
7
  6
CONTINUOUS
 10
-3.6009646712
 20
-23.2559447951
 11
-3.8424005713
 21
-23.9099511677
  0
LINE
  5
30A
100
AcDbEntity
  8
ASSI
100
AcDbLine
 62
7
  6
CONTINUOUS
 10
-8.6690208954
 20
-16.2457327367
 11
-8.5736697219
 21
-16.0812762891
  0
LINE
  5
30B
100
AcDbEntity
  8
ASSI
100
AcDbLine
 62
7
  6
CONTINUOUS
 10
-8.3154675049
 20
-16.0689560414
 11
-8.2201163313
 21
-15.9044995938
  0
LINE
  5
30C
100
AcDbEntity
  8
ASSI
100
AcDbLine
 62
7
  6
CONTINUOUS
 10
-7.9619141143
 20
-15.8921793461
 11
-7.8665629407
 21
-15.7277228985
  0
LINE
  5
30D
100
AcDbEntity
  8
ASSI
100
AcDbLine
 62
7
  6
CONTINUOUS
 10
-7.6083607237
 20
-15.7154026508
 11
-7.5130095501
 21
-15.5509462032
  0
LINE
  5
30E
100
AcDbEntity
  8
ASSI
100
AcDbLine
 62
7
  6
CONTINUOUS
 10
-7.2548073331
 20
-15.5386259555
 11
-7.1594561595
 21
-15.3741695079
  0
LINE
  5
30F
100
AcDbEntity
  8
ASSI
100
AcDbLine
 62
7
  6
CONTINUOUS
 10
-6.9012539425
 20
-15.3618492602
 11
-6.8059027689
 21
-15.1973928126
  0
LINE
  5
310
100
AcDbEntity
  8
DRAFT
100
AcDbLine
 62
7
  6
CONTINUOUS
 10
-17.2261626419
 20
-10.9390070289
 11
-17.76220175
 21
-11.2366728998
  0
LINE
  5
311
100
AcDbEntity
  8
RACCORDO
100
AcDbLine
 62
7
  6
CONTINUOUS
 10
-18.3034366672
 20
-12.448046674
 11
-18.0079910831
 21
-12.2991847513
  0
LINE
  5
312
100
AcDbEntity
  8
RACCORDO
100
AcDbLine
 62
7
  6
CONTINUOUS
 10
-17.0334698329
 20
-12.1264067973
 11
-16.4579103321
 21
-11.836407899
  0
LINE
  5
313
100
AcDbEntity
  8
RACCORDO
100
AcDbLine
 62
7
  6
CONTINUOUS
 10
-18.0594554771
 20
-12.7978009324
 11
-17.7958913575
 21
-12.6650026653
  0
LINE
  5
314
100
AcDbEntity
  8
RACCORDO
100
AcDbLine
 62
7
  6
CONTINUOUS
 10
-16.1044332767
 20
-11.6611128534
 11
-16.4578780234
 21
-11.8364240534
  0
LINE
  5
315
100
AcDbEntity
  8
RACCORDO
100
AcDbLine
 62
7
  6
CONTINUOUS
 10
-15.8923335511
 20
-12.0269307674
 11
-15.9849689318
 21
-12.0728785992
  0
LINE
  5
316
100
AcDbEntity
  8
RACCORDO
100
AcDbLine
 62
7
  6
CONTINUOUS
 10
-18.005789465
 20
-12.3037002406
 11
-17.2261626419
 21
-11.9235774327
  0
LINE
  5
317
100
AcDbEntity
  8
RACCORDO
100
AcDbLine
 62
7
  6
CONTINUOUS
 10
-17.7939149407
 20
-12.6690562698
 11
-17.0143213271
 21
-12.2889496539
  0
LINE
  5
318
100
AcDbEntity
  8
RACCORDO
100
AcDbLine
 62
7
  6
CONTINUOUS
 10
-17.4651394585
 20
-10.5906920219
 11
-16.5298552697
 21
-10.1390953008
  0
LINE
  5
319
100
AcDbEntity
  8
RACCORDO
100
AcDbLine
 62
7
  6
CONTINUOUS
 10
-17.5445217531
 20
-10.7536371144
 11
-16.6092375644
 21
-10.3020403932
  0
LINE
  5
31A
100
AcDbEntity
  8
RACCORDO
100
AcDbLine
 62
7
  6
CONTINUOUS
 10
-17.2261626419
 20
-11.3926118936
 11
-16.6700746801
 21
-11.1241079424
  0
LINE
  5
31B
100
AcDbEntity
  8
RACCORDO
100
AcDbLine
 62
7
  6
CONTINUOUS
 10
-17.0334698329
 20
-11.7679034121
 11
-16.4579103321
 21
-11.4899977375
  0
LINE
  5
31C
100
AcDbEntity
  8
RACCORDO
100
AcDbLine
 62
7
  6
CONTINUOUS
 10
-17.2261626419
 20
14.2686727483
 11
-16.6700100577
 21
13.9905964562
  0
LINE
  5
31D
100
AcDbEntity
  8
RACCORDO
100
AcDbLine
 62
7
  6
CONTINUOUS
 10
5.2502678503
 20
-22.9503441874
 11
5.2502678503
 21
-23.4212442427
  0
LINE
  5
31E
100
AcDbEntity
  8
ASSI
100
AcDbLine
 62
7
  6
CONTINUOUS
 10
-4.3538654985
 20
-17.8884303158
 11
-4.3310290348
 21
-17.8490432421
  0
LINE
  5
31F
100
AcDbEntity
  8
ASSI
100
AcDbLine
 62
7
  6
CONTINUOUS
 10
-4.0835416614
 20
-17.855203366
 11
-3.9774756442
 21
-17.6722665468
  0
LINE
  5
320
100
AcDbEntity
  8
ASSI
100
AcDbLine
 62
7
  6
CONTINUOUS
 10
-3.7299882708
 20
-17.6784266707
 11
-3.6239222536
 21
-17.4954898515
  0
LINE
  5
321
100
AcDbEntity
  8
ASSI
100
AcDbLine
 62
7
  6
CONTINUOUS
 10
-3.3764348802
 20
-17.5016499754
 11
-3.270368863
 21
-17.3187131562
  0
LINE
  5
322
100
AcDbEntity
  8
ASSI
100
AcDbLine
 62
7
  6
CONTINUOUS
 10
-3.0228814896
 20
-17.3248732801
 11
-2.9168154724
 21
-17.1419364609
  0
LINE
  5
323
100
AcDbEntity
  8
SMUSSO
100
AcDbLine
 62
7
  6
CONTINUOUS
 10
31.5546401104
 20
24.0092236164
 11
30.5546401104
 21
22.9360914315
  0
LINE
  5
324
100
AcDbEntity
  8
RACCORDO
100
AcDbLine
 62
7
  6
CONTINUOUS
 10
-11.4374521857
 20
-14.9244156209
 11
-10.8717667607
 21
-14.6294796847
  0
LINE
  5
325
100
AcDbEntity
  8
RACCORDO
100
AcDbLine
 62
7
  6
CONTINUOUS
 10
-11.1206785855
 20
-15.2357710248
 11
-10.6596347264
 21
-14.995392899
  0
LINE
  5
326
100
AcDbEntity
  8
RACCORDO
100
AcDbLine
 62
7
  6
CONTINUOUS
 10
-17.6773038065
 20
19.5664716634
 11
-17.76220175
 21
19.6089206351
  0
LINE
  5
327
100
AcDbEntity
  8
RACCORDO
100
AcDbLine
 62
7
  6
CONTINUOUS
 10
12.80020371
 20
9.9139981512
 11
12.80020371
 21
-29.6256502437
  0
LINE
  5
328
100
AcDbEntity
  8
RACCORDO
100
AcDbLine
 62
7
  6
CONTINUOUS
 10
12.8880716757
 20
9.8079321341
 11
12.8880716757
 21
-29.7317162825
  0
LWPOLYLINE
  5
329
100
AcDbEntity
  8
RACCORDO
100
AcDbPolyline
 62
7
  6
CONTINUOUS
 90
8
 70
0
 10
12.8002032624
 20
-29.6257883309
 10
12.8000622867
 20
-29.6362450797
 10
12.7991637146
 20
-29.6536345329
 10
12.7974933757
 20
-29.669574328
 10
12.7951852273
 20
-29.6836337212
 10
12.7925432644
 20
-29.6950858098
 10
12.7899058286
 20
-29.7037225096
 10
12.7894068723
 20
-29.7051187815
  0
LINE
  5
32A
100
AcDbEntity
  8
ASSI
100
AcDbLine
 62
7
  6
CONTINUOUS
 10
-2.7400387771
 20
-17.9672491038
 11
-2.4853339035
 21
-17.782653053
  0
LINE
  5
32B
100
AcDbEntity
  8
ASSI
100
AcDbLine
 62
7
  6
CONTINUOUS
 10
-2.4851398245
 20
-17.240190722
 11
-3.9848015764
 21
-18.0729622769
  0
LINE
  5
32C
100
AcDbEntity
  8
RACCORDO
100
AcDbLine
 62
7
  6
CONTINUOUS
 10
-5.9871819417
 20
-17.1320703294
 11
-6.5528673666
 21
-17.4270062656
  0
LINE
  5
32D
100
AcDbEntity
  8
RACCORDO
100
AcDbLine
 62
7
  6
CONTINUOUS
 10
-5.8513086143
 20
-17.1397087579
 11
-6.4169940393
 21
-17.4346446941
  0
LINE
  5
32E
100
AcDbEntity
  8
ASSI
100
AcDbLine
 62
7
  6
CONTINUOUS
 10
-8.9272231125
 20
-16.2580529844
 11
-8.7858017562
 21
-16.1873423063
  0
LINE
  5
32F
100
AcDbEntity
  8
ASSI
100
AcDbLine
 62
7
  6
CONTINUOUS
 10
-8.5736697219
 20
-16.0812762891
 11
-8.4322483656
 21
-16.010565611
  0
LINE
  5
330
100
AcDbEntity
  8
ASSI
100
AcDbLine
 62
7
  6
CONTINUOUS
 10
-8.2201163313
 20
-15.9044995938
 11
-8.0786949751
 21
-15.8337889157
  0
LINE
  5
331
100
AcDbEntity
  8
ASSI
100
AcDbLine
 62
7
  6
CONTINUOUS
 10
-7.8665629407
 20
-15.7277228985
 11
-7.7251415845
 21
-15.6570122204
  0
LINE
  5
332
100
AcDbEntity
  8
ASSI
100
AcDbLine
 62
7
  6
CONTINUOUS
 10
-7.5130095501
 20
-15.5509462032
 11
-7.3715881939
 21
-15.4802355251
  0
LINE
  5
333
100
AcDbEntity
  8
ASSI
100
AcDbLine
 62
7
  6
CONTINUOUS
 10
-7.1594561595
 20
-15.3741695079
 11
-7.0180348033
 21
-15.3034588298
  0
LINE
  5
334
100
AcDbEntity
  8
ASSI
100
AcDbLine
 62
7
  6
CONTINUOUS
 10
-6.8059027689
 20
-15.1973928126
 11
-6.6644814127
 21
-15.1266821345
  0
LINE
  5
335
100
AcDbEntity
  8
ASSI
100
AcDbLine
 62
7
  6
CONTINUOUS
 10
-4.3310290348
 20
-17.8490432421
 11
-4.1896076785
 21
-17.778332564
  0
LINE
  5
336
100
AcDbEntity
  8
ASSI
100
AcDbLine
 62
7
  6
CONTINUOUS
 10
-3.9774756442
 20
-17.6722665468
 11
-3.8360542879
 21
-17.6015558687
  0
LINE
  5
337
100
AcDbEntity
  8
ASSI
100
AcDbLine
 62
7
  6
CONTINUOUS
 10
-3.6239222536
 20
-17.4954898515
 11
-3.4825008973
 21
-17.4247791734
  0
LINE
  5
338
100
AcDbEntity
  8
ASSI
100
AcDbLine
 62
7
  6
CONTINUOUS
 10
-3.270368863
 20
-17.3187131562
 11
-3.1289475068
 21
-17.2480024781
  0
LINE
  5
339
100
AcDbEntity
  8
ASSI
100
AcDbLine
 62
7
  6
CONTINUOUS
 10
-2.9168154724
 20
-17.1419364609
 11
-2.7753941162
 21
-17.0712257828
  0
LINE
  5
33A
100
AcDbEntity
  8
ASSI
100
AcDbLine
 62
7
  6
CONTINUOUS
 10
-6.74260367
 20
-15.1114587992
 11
-9.1771908729
 21
-16.2075148811
  0
LINE
  5
33B
100
AcDbEntity
  8
RACCORDO
100
AcDbLine
 62
7
  6
CONTINUOUS
 10
-15.5092914588
 20
21.0148030469
 11
-15.5093619035
 21
21.0148382223
  0
LINE
  5
33C
100
AcDbEntity
  8
DRAFT
100
AcDbLine
 62
7
  6
CONTINUOUS
 10
-17.5772377003
 20
19.5474196327
 11
-17.2261626419
 21
19.3718821036
  0
LINE
  5
33D
100
AcDbEntity
  8
RACCORDO
100
AcDbLine
 62
7
  6
CONTINUOUS
 10
-15.9711160494
 20
21.1977553882
 11
-15.5962654446
 21
21.0103300858
  0
LINE
  5
33E
100
AcDbEntity
  8
RACCORDO
100
AcDbLine
 62
7
  6
CONTINUOUS
 10
-15.8841414733
 20
21.2022280541
 11
-15.5092908685
 21
21.0148027517
  0
LINE
  5
33F
100
AcDbEntity
  8
RACCORDO
100
AcDbLine
 62
7
  6
CONTINUOUS
 10
14.5903952896
 20
-32.9477935574
 11
14.5903952896
 21
11.324482303
  0
LINE
  5
340
100
AcDbEntity
  8
RACCORDO
100
AcDbLine
 62
7
  6
CONTINUOUS
 10
15.0109248351
 20
-32.9496285103
 11
15.0109248351
 21
11.3198508421
  0
LINE
  5
341
100
AcDbEntity
  8
RACCORDO
100
AcDbLine
 62
7
  6
CONTINUOUS
 10
16.4176179551
 20
-32.2999710112
 11
16.4176179551
 21
12.0286210986
  0
LINE
  5
342
100
AcDbEntity
  8
ASSI
100
AcDbLine
 62
7
  6
CONTINUOUS
 10
6.9492168511
 20
-24.2707187431
 11
6.9826794642
 21
-24.2130042728
  0
LINE
  5
343
100
AcDbEntity
  8
ASSI
100
AcDbLine
 62
7
  6
CONTINUOUS
 10
7.2408816813
 20
-24.2006840251
 11
7.3362328548
 21
-24.0362275775
  0
LINE
  5
344
100
AcDbEntity
  8
ASSI
100
AcDbLine
 62
7
  6
CONTINUOUS
 10
7.5944350718
 20
-24.0239073298
 11
7.6897862454
 21
-23.8594508822
  0
LINE
  5
345
100
AcDbEntity
  8
ASSI
100
AcDbLine
 62
7
  6
CONTINUOUS
 10
-2.7400387771
 20
-17.9672491038
 11
-3.461239954
 21
-18.3347430881
  0
LINE
  5
346
100
AcDbEntity
  8
DRAFT
100
AcDbLine
 62
7
  6
CONTINUOUS
 10
-3.1910211305
 20
-18.4698524998
 11
-3.0838929118
 21
-18.4159924313
  0
LINE
  5
347
100
AcDbEntity
  8
DRAFT
100
AcDbLine
 62
7
  6
CONTINUOUS
 10
-3.2618807967
 20
-18.4344226667
 11
-3.0045939404
 21
-18.3052021726
  0
LINE
  5
348
100
AcDbEntity
  8
ASSI
100
AcDbLine
 62
7
  6
CONTINUOUS
 10
-2.669328099
 20
-17.1480965848
 11
-4.2519305298
 21
-17.9393978002
  0
LINE
  5
349
100
AcDbEntity
  8
0
100
AcDbLine
 62
7
  6
CONTINUOUS
 10
-6.4257706486
 20
-20.7997660676
 11
-6.5671920049
 21
-20.8704767457
  0
LINE
  5
34A
100
AcDbEntity
  8
0
100
AcDbLine
 62
7
  6
CONTINUOUS
 10
-6.0890845832
 20
-20.9681091003
 11
-6.2305059394
 21
-21.0388197784
  0
LINE
  5
34B
100
AcDbEntity
  8
0
100
AcDbLine
 62
7
  6
CONTINUOUS
 10
-5.5143793042
 20
-21.2554617398
 11
-5.6558006604
 21
-21.3261724179
  0
LINE
  5
34C
100
AcDbEntity
  8
0
100
AcDbLine
 62
7
  6
CONTINUOUS
 10
-5.2046545132
 20
-21.4103241353
 11
-5.3460758694
 21
-21.4810348134
  0
LINE
  5
34D
100
AcDbEntity
  8
0
100
AcDbLine
 62
7
  6
CONTINUOUS
 10
-5.0896372313
 20
-21.4677236571
 11
-5.2310585875
 21
-21.5384343352
  0
LINE
  5
34E
100
AcDbEntity
  8
0
100
AcDbLine
 62
7
  6
CONTINUOUS
 10
-4.7797010154
 20
-21.622691765
 11
-4.9211223716
 21
-21.6934024431
  0
LINE
  5
34F
100
AcDbEntity
  8
0
100
AcDbLine
 62
7
  6
CONTINUOUS
 10
-4.4787839464
 20
-21.7732594187
 11
-4.6202053027
 21
-21.8439700968
  0
LINE
  5
350
100
AcDbEntity
  8
0
100
AcDbLine
 62
7
  6
CONTINUOUS
 10
-4.1691044103
 20
-21.9280991867
 11
-4.3105257665
 21
-21.9988098648
  0
LINE
  5
351
100
AcDbEntity
  8
0
100
AcDbLine
 62
7
  6
CONTINUOUS
 10
-5.6819289631
 20
-22.9901869718
 11
-5.8233503193
 21
-23.0608976499
  0
LINE
  5
352
100
AcDbEntity
  8
0
100
AcDbLine
 62
7
  6
CONTINUOUS
 10
-3.5525058829
 20
-22.2363984504
 11
-3.6939272391
 21
-22.3071091285
  0
LINE
  5
353
100
AcDbEntity
  8
0
100
AcDbLine
 62
7
  6
CONTINUOUS
 10
-3.2458548851
 20
-22.3897239493
 11
-3.3872762413
 21
-22.4604346274
  0
LINE
  5
354
100
AcDbEntity
  8
ASSI
100
AcDbLine
 62
7
  6
CONTINUOUS
 10
-2.4781262946
 20
-17.7486595715
 11
-3.5577052539
 21
-18.2865104381
  0
LINE
  5
355
100
AcDbEntity
  8
SMUSSO
100
AcDbLine
 62
7
  6
CONTINUOUS
 10
32.2617468916
 20
22.789644822
 11
30.8475333293
 21
22.4309253544
  0
LINE
  5
356
100
AcDbEntity
  8
RACCORDO
100
AcDbLine
 62
7
  6
CONTINUOUS
 10
-19.440593421
 20
26.3691083896
 11
12.5608168663
 21
10.368403246
  0
LINE
  5
357
100
AcDbEntity
  8
RACCORDO
100
AcDbLine
 62
7
  6
CONTINUOUS
 10
-19.5185613767
 20
26.5313705297
 11
12.4828489039
 21
10.5306653894
  0
LINE
  5
358
100
AcDbEntity
  8
RACCORDO
100
AcDbLine
 62
7
  6
CONTINUOUS
 10
14.3075956555
 20
11.8094430136
 11
-21.3455914754
 21
29.636036579
  0
LINE
  5
359
100
AcDbEntity
  8
RACCORDO
100
AcDbLine
 62
7
  6
CONTINUOUS
 10
14.5160254754
 20
12.1734259747
 11
-21.1348783084
 21
29.9988778666
  0
LWPOLYLINE
  5
35A
100
AcDbEntity
  8
RACCORDO
100
AcDbPolyline
 62
7
  6
CONTINUOUS
 90
22
 70
0
 10
12.5608483305
 20
10.3683873337
 10
12.5674618048
 20
10.3649020229
 10
12.5809081068
 20
10.356796457
 10
12.596059916
 20
10.3461600062
 10
12.6123837954
 20
10.3330111515
 10
12.6295337666
 20
10.3173325015
 10
12.6471768162
 20
10.2991613972
 10
12.6648728444
 20
10.2787267301
 10
12.6822781171
 20
10.2562618104
 10
12.6991447336
 20
10.2319550287
 10
12.7152598265
 20
10.2059901741
 10
12.7303816536
 20
10.1786606548
 10
12.7443142782
 20
10.1502645128
 10
12.7569452384
 20
10.1209778279
 10
12.7681166512
 20
10.0911257018
 10
12.7777059372
 20
10.0610472286
 10
12.785657941
 20
10.0309573265
 10
12.7919067059
 20
10.0011668576
 10
12.7964048053
 20
9.9720528165
 10
12.7991487179
 20
9.944012478
 10
12.8001884923
 20
9.9174373119
 10
12.8002031075
 20
9.9141302014
  0
LWPOLYLINE
  5
35B
100
AcDbEntity
  8
RACCORDO
100
AcDbPolyline
 62
7
  6
CONTINUOUS
 90
3
 70
0
 10
12.7894068723
 20
-29.7051187815
 10
12.7876460521
 20
-29.7095099919
 10
12.7863299702
 20
-29.7122153304
  0
LINE
  5
35C
100
AcDbEntity
  8
ASSI
100
AcDbLine
 62
7
  6
CONTINUOUS
 10
7.9479884624
 20
-23.8471306345
 11
8.043339636
 21
-23.6826741869
  0
LINE
  5
35D
100
AcDbEntity
  8
ASSI
100
AcDbLine
 62
7
  6
CONTINUOUS
 10
8.301541853
 20
-23.6703539392
 11
8.3968930266
 21
-23.5058974916
  0
LINE
  5
35E
100
AcDbEntity
  8
ASSI
100
AcDbLine
 62
7
  6
CONTINUOUS
 10
8.6550952436
 20
-23.4935772439
 11
8.7504464172
 21
-23.3291207963
  0
LINE
  5
35F
100
AcDbEntity
  8
ASSI
100
AcDbLine
 62
7
  6
CONTINUOUS
 10
9.0086486342
 20
-23.3168005486
 11
9.1039998078
 21
-23.152344101
  0
LINE
  5
360
100
AcDbEntity
  8
ASSI
100
AcDbLine
 62
7
  6
CONTINUOUS
 10
11.5560370782
 20
-25.8433816042
 11
11.5788735419
 21
-25.8039945304
  0
LINE
  5
361
100
AcDbEntity
  8
RACCORDO
100
AcDbLine
 62
7
  6
CONTINUOUS
 10
4.472450391
 20
-22.8793669093
 11
5.038135816
 21
-22.5844309731
  0
LINE
  5
362
100
AcDbEntity
  8
RACCORDO
100
AcDbLine
 62
7
  6
CONTINUOUS
 10
4.7892239912
 20
-23.1907223131
 11
5.2502678503
 21
-22.9503441874
  0
LINE
  5
363
100
AcDbEntity
  8
0
100
AcDbLine
 62
7
  6
CONTINUOUS
 10
-4.7797010154
 20
-23.4413009457
 11
-4.9211223716
 21
-23.5120116238
  0
LINE
  5
364
100
AcDbEntity
  8
0
100
AcDbLine
 62
7
  6
CONTINUOUS
 10
-2.5926133772
 20
-22.7163447033
 11
-2.7340347334
 21
-22.7870553814
  0
LINE
  5
365
100
AcDbEntity
  8
0
100
AcDbLine
 62
7
  6
CONTINUOUS
 10
-4.3163452553
 20
-23.6729788257
 11
-4.4577666116
 21
-23.7436895038
  0
LINE
  5
366
100
AcDbEntity
  8
0
100
AcDbLine
 62
7
  6
CONTINUOUS
 10
-2.2927880811
 20
-22.8662573513
 11
-2.4342094374
 21
-22.9369680294
  0
LINE
  5
367
100
AcDbEntity
  8
0
100
AcDbLine
 62
7
  6
CONTINUOUS
 10
-3.8424005713
 20
-23.9099511677
 11
-3.9838219275
 21
-23.9806618458
  0
LINE
  5
368
100
AcDbEntity
  8
0
100
AcDbLine
 62
7
  6
CONTINUOUS
 10
-1.7462024051
 20
-23.16079625
 11
-1.8876237614
 21
-23.2315069281
  0
LINE
  5
369
100
AcDbEntity
  8
0
100
AcDbLine
 62
7
  6
CONTINUOUS
 10
-2.6028459194
 20
-23.88577452
 11
-2.7442672756
 21
-23.9564851981
  0
LINE
  5
36A
100
AcDbEntity
  8
0
100
AcDbLine
 62
7
  6
CONTINUOUS
 10
-3.1830075565
 20
-24.3156457127
 11
-3.2484308751
 21
-24.348357372
  0
LINE
  5
36B
100
AcDbEntity
  8
0
100
AcDbLine
 62
7
  6
CONTINUOUS
 10
-0.9813280392
 20
-23.562379418
 11
-1.1227493954
 21
-23.6330900961
  0
LINE
  5
36C
100
AcDbEntity
  8
0
100
AcDbLine
 62
7
  6
CONTINUOUS
 10
-2.7517682644
 20
-24.4552673211
 11
-2.8931896206
 21
-24.5259779993
  0
LINE
  5
36D
100
AcDbEntity
  8
0
100
AcDbLine
 62
7
  6
CONTINUOUS
 10
-1.4477906156
 20
-24.0977694274
 11
-1.5892119718
 21
-24.1684801055
  0
LINE
  5
36E
100
AcDbEntity
  8
0
100
AcDbLine
 62
7
  6
CONTINUOUS
 10
-1.2706653312
 20
-24.1863320696
 11
-1.4120866874
 21
-24.2570427477
  0
LINE
  5
36F
100
AcDbEntity
  8
0
100
AcDbLine
 62
7
  6
CONTINUOUS
 10
-1.8876237614
 20
-24.9377485956
 11
-1.9786360946
 21
-24.9832547623
  0
LINE
  5
370
100
AcDbEntity
  8
0
100
AcDbLine
 62
7
  6
CONTINUOUS
 10
-1.0864955019
 20
-24.5761672176
 11
-1.0907938029
 21
-24.578316368
  0
LINE
  5
371
100
AcDbEntity
  8
0
100
AcDbLine
 62
7
  6
CONTINUOUS
 10
-1.047762515
 20
-24.560877976
 11
-0.9063411588
 21
-24.4901672979
  0
LINE
  5
372
100
AcDbEntity
  8
0
100
AcDbLine
 62
7
  6
CONTINUOUS
 10
-1.437513608
 20
-25.1123949938
 11
-1.5789349642
 21
-25.1831056719
  0
LINE
  5
373
100
AcDbEntity
  8
0
100
AcDbLine
 62
7
  6
CONTINUOUS
 10
-0.7707217559
 20
-24.9536000091
 11
-0.9121431121
 21
-25.0243106872
  0
LINE
  5
374
100
AcDbEntity
  8
0
100
AcDbLine
 62
7
  6
CONTINUOUS
 10
-0.6647672546
 20
-25.4987681705
 11
-0.8061886108
 21
-25.5694788486
  0
LINE
  5
375
100
AcDbEntity
  8
RACCORDO
100
AcDbLine
 62
7
  6
CONTINUOUS
 10
15.9227185954
 20
12.8821962313
 11
-19.7764505528
 21
30.7317808054
  0
LINE
  5
376
100
AcDbEntity
  8
ASSI
100
AcDbLine
 62
7
  6
CONTINUOUS
 10
11.8263609153
 20
-25.8101546543
 11
11.9324269325
 21
-25.6272178352
  0
LINE
  5
377
100
AcDbEntity
  8
ASSI
100
AcDbLine
 62
7
  6
CONTINUOUS
 10
12.1799143059
 20
-25.633377959
 11
12.2859803231
 21
-25.4504411399
  0
LINE
  5
378
100
AcDbEntity
  8
ASSI
100
AcDbLine
 62
7
  6
CONTINUOUS
 10
12.5334676965
 20
-25.4566012637
 11
12.6395337137
 21
-25.2736644446
  0
LINE
  5
379
100
AcDbEntity
  8
RACCORDO
100
AcDbLine
 62
7
  6
CONTINUOUS
 10
9.922720635
 20
-25.0870216177
 11
9.3570352101
 21
-25.3819575539
  0
LINE
  5
37A
100
AcDbEntity
  8
RACCORDO
100
AcDbLine
 62
7
  6
CONTINUOUS
 10
10.0585939624
 20
-25.0946600463
 11
9.4929085374
 21
-25.3895959825
  0
LINE
  5
37B
100
AcDbEntity
  8
ASSI
100
AcDbLine
 62
7
  6
CONTINUOUS
 10
6.9826794642
 20
-24.2130042728
 11
7.1241008205
 21
-24.1422935947
  0
LINE
  5
37C
100
AcDbEntity
  8
ASSI
100
AcDbLine
 62
7
  6
CONTINUOUS
 10
7.3362328548
 20
-24.0362275775
 11
7.477654211
 21
-23.9655168994
  0
LINE
  5
37D
100
AcDbEntity
  8
ASSI
100
AcDbLine
 62
7
  6
CONTINUOUS
 10
7.6897862454
 20
-23.8594508822
 11
7.8312076016
 21
-23.7887402041
  0
LINE
  5
37E
100
AcDbEntity
  8
ASSI
100
AcDbLine
 62
7
  6
CONTINUOUS
 10
8.043339636
 20
-23.6826741869
 11
8.1847609922
 21
-23.6119635088
  0
LINE
  5
37F
100
AcDbEntity
  8
ASSI
100
AcDbLine
 62
7
  6
CONTINUOUS
 10
8.3968930266
 20
-23.5058974916
 11
8.5383143828
 21
-23.4351868135
  0
LINE
  5
380
100
AcDbEntity
  8
ASSI
100
AcDbLine
 62
7
  6
CONTINUOUS
 10
8.7504464172
 20
-23.3291207963
 11
8.8918677734
 21
-23.2584101182
  0
LINE
  5
381
100
AcDbEntity
  8
ASSI
100
AcDbLine
 62
7
  6
CONTINUOUS
 10
9.1039998078
 20
-23.152344101
 11
9.245421164
 21
-23.0816334229
  0
LINE
  5
382
100
AcDbEntity
  8
ASSI
100
AcDbLine
 62
7
  6
CONTINUOUS
 10
9.1672989067
 20
-23.0664100876
 11
6.7327117038
 21
-24.1624661694
  0
LINE
  5
383
100
AcDbEntity
  8
RACCORDO
100
AcDbLine
 62
7
  6
CONTINUOUS
 10
-19.4588588549
 20
26.376940508
 11
-19.4587927217
 21
26.3769386366
  0
LINE
  5
384
100
AcDbEntity
  8
RACCORDO
100
AcDbLine
 62
7
  6
CONTINUOUS
 10
-19.0693537662
 20
26.1834885622
 11
-19.5395791832
 21
26.197053529
  0
LWPOLYLINE
  5
385
100
AcDbEntity
  8
RACCORDO
100
AcDbPolyline
 62
7
  6
CONTINUOUS
 90
6
 70
0
 10
-19.458805675
 20
26.3769327062
 10
-19.4605268697
 20
26.3770337013
 10
-19.4606822429
 20
26.3769967069
 10
-19.456740377
 20
26.3758959173
 10
-19.4491533091
 20
26.3730590035
 10
-19.4407735337
 20
26.369198593
  0
LINE
  5
386
100
AcDbEntity
  8
SMUSSO
100
AcDbLine
 62
7
  6
CONTINUOUS
 10
30.8475333293
 20
-57.1321906412
 11
30.8475333293
 21
22.4309253544
  0
LINE
  5
387
100
AcDbEntity
  8
RACCORDO
100
AcDbLine
 62
7
  6
CONTINUOUS
 10
12.7864854199
 20
-29.7120064379
 11
12.7876977675
 21
-29.7103691102
  0
LINE
  5
388
100
AcDbEntity
  8
RACCORDO
100
AcDbLine
 62
7
  6
CONTINUOUS
 10
12.6224184222
 20
-29.7352936154
 11
12.80020371
 21
-29.5121452839
  0
LINE
  5
389
100
AcDbEntity
  8
ASSI
100
AcDbLine
 62
7
  6
CONTINUOUS
 10
12.80020371
 20
-25.5419635547
 11
11.9251010003
 21
-26.0279135652
  0
LINE
  5
38A
100
AcDbEntity
  8
ASSI
100
AcDbLine
 62
7
  6
CONTINUOUS
 10
12.80020371
 20
-26.1105637275
 11
12.4486626227
 21
-26.2896943764
  0
LINE
  5
38B
100
AcDbEntity
  8
DRAFT
100
AcDbLine
 62
7
  6
CONTINUOUS
 10
12.7188814462
 20
-26.4248037882
 11
12.80020371
 21
-26.3839179903
  0
LINE
  5
38C
100
AcDbEntity
  8
DRAFT
100
AcDbLine
 62
7
  6
CONTINUOUS
 10
12.64802178
 20
-26.3893739551
 11
12.7975483527
 21
-26.3142752972
  0
LINE
  5
38D
100
AcDbEntity
  8
ASSI
100
AcDbLine
 62
7
  6
CONTINUOUS
 10
11.5788735419
 20
-25.8039945304
 11
11.7202948982
 21
-25.7332838523
  0
LINE
  5
38E
100
AcDbEntity
  8
ASSI
100
AcDbLine
 62
7
  6
CONTINUOUS
 10
11.9324269325
 20
-25.6272178352
 11
12.0738482888
 21
-25.556507157
  0
LINE
  5
38F
100
AcDbEntity
  8
ASSI
100
AcDbLine
 62
7
  6
CONTINUOUS
 10
12.2859803231
 20
-25.4504411399
 11
12.4274016794
 21
-25.3797304617
  0
LINE
  5
390
100
AcDbEntity
  8
ASSI
100
AcDbLine
 62
7
  6
CONTINUOUS
 10
12.6395337137
 20
-25.2736644446
 11
12.7809550699
 21
-25.2029537664
  0
LINE
  5
391
100
AcDbEntity
  8
ASSI
100
AcDbLine
 62
7
  6
CONTINUOUS
 10
12.80020371
 20
-25.323233257
 11
11.6579720469
 21
-25.8943490885
  0
LINE
  5
392
100
AcDbEntity
  8
ASSI
100
AcDbLine
 62
7
  6
CONTINUOUS
 10
12.80020371
 20
-26.0182630233
 11
12.3521973228
 21
-26.2414617265
  0
LINE
  5
393
100
AcDbEntity
  8
SMUSSO
100
AcDbLine
 62
7
  6
CONTINUOUS
 10
32.2617468916
 20
-57.4909101088
 11
32.2617468916
 21
22.789644822
  0
LINE
  5
394
100
AcDbEntity
  8
SMUSSO
100
AcDbLine
 62
7
  6
CONTINUOUS
 10
34.7012652867
 20
-56.2711509112
 11
34.7012652867
 21
24.1835976764
  0
LINE
  5
395
100
AcDbEntity
  8
RACCORDO
100
AcDbLine
 62
7
  6
CONTINUOUS
 10
15.0109248351
 20
-32.9496285103
 11
16.4176179551
 21
-32.2999710112
  0
LINE
  5
396
100
AcDbEntity
  8
RACCORDO
100
AcDbLine
 62
7
  6
CONTINUOUS
 10
14.8201876575
 20
-33.3324230099
 11
16.2282974846
 21
-32.6821112286
  0
LINE
  5
397
100
AcDbEntity
  8
SMUSSO
100
AcDbLine
 62
7
  6
CONTINUOUS
 10
30.5546401104
 20
22.9360914315
 11
-34.4083720679
 21
55.4175975206
  0
LINE
  5
398
100
AcDbEntity
  8
SMUSSO
100
AcDbLine
 62
7
  6
CONTINUOUS
 10
31.5546401104
 20
24.0092236164
 11
-33.9941585055
 21
56.7836229244
  0
LINE
  5
399
100
AcDbEntity
  8
SMUSSO
100
AcDbLine
 62
7
  6
CONTINUOUS
 10
-31.5546401104
 20
58.003382122
 11
33.9941585055
 21
25.228982814
  0
LINE
  5
39A
100
AcDbEntity
  8
SMUSSO
100
AcDbLine
 62
7
  6
CONTINUOUS
 10
30.8475333293
 20
22.4309253544
 11
30.5546401104
 21
22.9360914315
  0
LINE
  5
39B
100
AcDbEntity
  8
SMUSSO
100
AcDbLine
 62
7
  6
CONTINUOUS
 10
32.2617468916
 20
22.789644822
 11
31.5546401104
 21
24.0092236164
  0
LINE
  5
39C
100
AcDbEntity
  8
SMUSSO
100
AcDbLine
 62
7
  6
CONTINUOUS
 10
33.9941585055
 20
25.228982814
 11
34.2012652867
 21
25.0459701121
  0
LINE
  5
39D
100
AcDbEntity
  8
SMUSSO
100
AcDbLine
 62
7
  6
CONTINUOUS
 10
33.9941585055
 20
25.228982814
 11
34.7012652867
 21
24.0094040196
  0
LINE
  5
39E
100
AcDbEntity
  8
SMUSSO
100
AcDbLine
 62
7
  6
CONTINUOUS
 10
34.2012652867
 20
25.0459701121
 11
34.7012652867
 21
24.1835976764
  0
LINE
  5
39F
100
AcDbEntity
  8
SMUSSO
100
AcDbLine
 62
7
  6
CONTINUOUS
 10
30.5546401104
 20
-57.3444634994
 11
30.8475333293
 21
-57.1321906412
  0
LINE
  5
3A0
100
AcDbEntity
  8
SMUSSO
100
AcDbLine
 62
7
  6
CONTINUOUS
 10
31.5546401104
 20
-58.003382122
 11
32.2617468916
 21
-57.4909101088
  0
LINE
  5
3A1
100
AcDbEntity
  8
SMUSSO
100
AcDbLine
 62
7
  6
CONTINUOUS
 10
34.7012652867
 20
-56.2711509112
 11
33.9941585055
 21
-56.7836229244
  0
LINE
  5
3A2
100
AcDbEntity
  8
SMUSSO
100
AcDbLine
 62
7
  6
CONTINUOUS
 10
32.2617468916
 20
-57.4909101088
 11
34.7012652867
 21
-56.2711509112
  0
LINE
  5
3A3
100
AcDbEntity
  8
SMUSSO
100
AcDbLine
 62
7
  6
CONTINUOUS
 10
31.5546401104
 20
-58.003382122
 11
33.9941585055
 21
-56.7836229244
  0
ARC
  5
3A4
100
AcDbEntity
  8
RACCORDO
100
AcDbCircle
 62
7
  6
CONTINUOUS
 10
-16.0108914534
 20
14.6109410069
 40
1.2153389166
100
AcDbArc
 50
141.992472414
 51
144.0993475129
  0
ARC
  5
3A5
100
AcDbEntity
  8
RACCORDO
100
AcDbCircle
 62
7
  6
CONTINUOUS
 10
-16.0356597497
 20
14.6301414246
 40
1.1840002976
100
AcDbArc
 50
141.3631324503
 51
141.986526647
  0
ARC
  5
3A6
100
AcDbEntity
  8
RACCORDO
100
AcDbCircle
 62
7
  6
CONTINUOUS
 10
-16.0721150235
 20
14.659691857
 40
1.1370736723
100
AcDbArc
 50
138.5066390017
 51
141.3792755634
  0
ARC
  5
3A7
100
AcDbEntity
  8
IMPORT_IGES
100
AcDbCircle
 62
7
  6
CONTINUOUS
 10
-1.0529770982
 20
-23.7263899286
 40
0.5088565022
100
AcDbArc
 50
244.6720486628
 51
247.0404098965
  0
ARC
  5
3A8
100
AcDbEntity
  8
0
100
AcDbCircle
 62
7
  6
CONTINUOUS
 10
-1.3123994754
 20
-24.8023424148
 40
0.3151138583
100
AcDbArc
 50
42.2436124612
 51
45.3111893938
  0
ARC
  5
3A9
100
AcDbEntity
  8
RACCORDO
100
AcDbCircle
 62
7
  6
CONTINUOUS
 10
-15.598738571
 20
20.8359105396
 40
0.1999985148
100
AcDbArc
 50
0.0130191666
 51
63.4573071593
  0
ARC
  5
3AA
100
AcDbEntity
  8
RACCORDO
100
AcDbCircle
 62
7
  6
CONTINUOUS
 10
-15.598738571
 20
2.5194732495
 40
0.1999985148
100
AcDbArc
 50
0.0130191666
 51
63.4573071593
  0
ARC
  5
3AB
100
AcDbEntity
  8
RACCORDO
100
AcDbCircle
 62
7
  6
CONTINUOUS
 10
-15.9735995495
 20
21.0234126821
 40
0.1999299515
100
AcDbArc
 50
63.4508113349
 51
114.7934812241
  0
ARC
  5
3AC
100
AcDbEntity
  8
RACCORDO
100
AcDbCircle
 62
7
  6
CONTINUOUS
 10
-15.9735995495
 20
2.7069753921
 40
0.1999299515
100
AcDbArc
 50
63.4508113349
 51
114.7934812241
  0
ARC
  5
3AD
100
AcDbEntity
  8
0
100
AcDbCircle
 62
7
  6
CONTINUOUS
 10
-1.1372006451
 20
-24.382562831
 40
0.1994880199
100
AcDbArc
 50
295.3060875002
 51
296.6371458945
  0
ARC
  5
3AE
100
AcDbEntity
  8
RACCORDO
100
AcDbCircle
 62
7
  6
CONTINUOUS
 10
-15.5984087461
 20
17.2151323714
 40
0.1992333471
100
AcDbArc
 50
298.3606842613
 51
0.0208738394
  0
ARC
  5
3AF
100
AcDbEntity
  8
RACCORDO
100
AcDbCircle
 62
7
  6
CONTINUOUS
 10
-15.5984087461
 20
-1.1013049186
 40
0.1992333471
100
AcDbArc
 50
298.3606842613
 51
0.0208738394
  0
ARC
  5
3B0
100
AcDbEntity
  8
RACCORDO
100
AcDbCircle
 62
7
  6
CONTINUOUS
 10
-18.0964359063
 20
-12.7246847757
 40
0.174794787
100
AcDbArc
 50
236.3051861035
 51
243.581084793
  0
ARC
  5
3B1
100
AcDbEntity
  8
RACCORDO
100
AcDbCircle
 62
7
  6
CONTINUOUS
 10
-18.2564138339
 20
-12.4731579718
 40
0.1075639168
100
AcDbArc
 50
179.9157124096
 51
186.34062814
  0
ARC
  5
3B2
100
AcDbEntity
  8
ASSI
100
AcDbCircle
 62
7
  6
CONTINUOUS
 10
-6.702518109
 20
-15.1895068295
 40
0.0874961196
100
AcDbArc
 50
105.0618690741
 51
111.6611297249
  0
ARC
  5
3B3
100
AcDbEntity
  8
ASSI
100
AcDbCircle
 62
7
  6
CONTINUOUS
 10
9.2073844677
 20
-23.1444581178
 40
0.0874961196
100
AcDbArc
 50
105.061869074
 51
111.661129725
  0
ARC
  5
3B4
100
AcDbEntity
  8
RACCORDO
100
AcDbCircle
 62
7
  6
CONTINUOUS
 10
-15.5398284047
 20
-1.2098982429
 40
0.0758414454
100
AcDbArc
 50
298.387015707
 51
302.0401016358
  0
ARC
  5
3B5
100
AcDbEntity
  8
RACCORDO
100
AcDbCircle
 62
7
  6
CONTINUOUS
 10
-15.5398284047
 20
17.1065390471
 40
0.0758414454
100
AcDbArc
 50
298.387015707
 51
302.0401016357
  0
ARC
  5
3B6
100
AcDbEntity
  8
RACCORDO
100
AcDbCircle
 62
7
  6
CONTINUOUS
 10
-15.9176829933
 20
21.1352513166
 40
0.0749027917
100
AcDbArc
 50
63.3990893829
 51
68.4471909088
  0
ARC
  5
3B7
100
AcDbEntity
  8
RACCORDO
100
AcDbCircle
 62
7
  6
CONTINUOUS
 10
-15.9176829933
 20
2.8188140266
 40
0.0749027917
100
AcDbArc
 50
63.3990893829
 51
68.4471909087
  0
ARC
  5
3B8
100
AcDbEntity
  8
RACCORDO
100
AcDbCircle
 62
7
  6
CONTINUOUS
 10
-15.4492207422
 20
17.2158297606
 40
0.050478377
100
AcDbArc
 50
354.2794988579
 51
359.9956742447
  0
ARC
  5
3B9
100
AcDbEntity
  8
RACCORDO
100
AcDbCircle
 62
7
  6
CONTINUOUS
 10
-15.4492207422
 20
-1.1006075295
 40
0.050478377
100
AcDbArc
 50
354.2794988579
 51
359.9956742447
  0
SPLINE
  5
3BA
100
AcDbEntity
  8
0
100
AcDbSpline
 62
7
  6
CONTINUOUS
 70
0
 71
3
 72
11
 73
7
 74
5
 42
0.0000001
 43
0.0000001
 44
0.0000000001
 12
0.3138156219
 22
-0.2015300707
 32
0.0
 13
0.0047321734
 23
-0.3729238803
 33
0.0
 40
0.0
 40
0.0
 40
0.0
 40
0.0
 40
0.2339806254
 40
0.4918424311
 40
0.7556842856
 40
1.0
 40
1.0
 40
1.0
 40
1.0
 10
-1.3464051402
 20
-23.7799648466
 30
0.0
 10
-1.3219295484
 20
-23.7956828906
 30
0.0
 10
-1.2751861261
 20
-23.8361854454
 30
0.0
 10
-1.2190343449
 20
-23.9125575268
 30
0.0
 10
-1.1826424667
 20
-24.0014127051
 30
0.0
 10
-1.1717139581
 20
-24.064457221
 30
0.0
 10
-1.1713285767
 20
-24.0948276091
 30
0.0
 11
-1.3464051402
 21
-23.7799648466
 31
0.0
 11
-1.2797633545
 21
-23.8363020095
 31
0.0
 11
-1.2228941962
 21
-23.9138563567
 31
0.0
 11
-1.1852767883
 21
-24.0047830184
 31
0.0
 11
-1.1713285767
 21
-24.0948276091
 31
0.0
  0
SPLINE
  5
3BB
100
AcDbEntity
  8
0
100
AcDbSpline
 62
7
  6
CONTINUOUS
 70
0
 71
3
 72
9
 73
5
 74
3
 42
0.0000001
 43
0.0000001
 44
0.0000000001
 12
0.0022769869
 22
-0.1818690752
 32
0.0
 13
-0.1325927009
 23
-0.1245018909
 33
0.0
 40
0.0
 40
0.0
 40
0.0
 40
0.0
 40
0.5440809938
 40
1.0
 40
1.0
 40
1.0
 40
1.0
 10
-1.1713285767
 20
-24.0948276091
 30
0.0
 10
-1.1709156216
 20
-24.1278114448
 30
0.0
 10
-1.1772304933
 20
-24.1884302341
 30
0.0
 10
-1.2044369952
 20
-24.2463512672
 30
0.0
 10
-1.224587506
 20
-24.2652721934
 30
0.0
 11
-1.1713285767
 21
-24.0948276091
 31
0.0
 11
-1.1839716516
 21
-24.1929759061
 31
0.0
 11
-1.224587506
 21
-24.2652721934
 31
0.0
  0
SPLINE
  5
3BC
100
AcDbEntity
  8
0
100
AcDbSpline
 62
7
  6
CONTINUOUS
 70
0
 71
3
 72
8
 73
4
 74
2
 42
0.0000001
 43
0.0000001
 44
0.0000000001
 12
-0.0187175625
 22
-0.0175754163
 32
0.0
 13
-0.02296506
 23
-0.0114825269
 33
0.0
 40
0.0
 40
0.0
 40
0.0
 40
0.0
 40
1.0
 40
1.0
 40
1.0
 40
1.0
 10
-1.224587506
 20
-24.2652721934
 30
0.0
 10
-1.2308266935
 20
-24.2711306655
 30
0.0
 10
-1.2379177992
 20
-24.2762385694
 30
0.0
 10
-1.2455728193
 20
-24.2800660784
 30
0.0
 11
-1.224587506
 21
-24.2652721934
 31
0.0
 11
-1.2455728193
 21
-24.2800660784
 31
0.0
  0
SPLINE
  5
3BD
100
AcDbEntity
  8
0
100
AcDbSpline
 62
7
  6
CONTINUOUS
 70
0
 71
3
 72
10
 73
6
 74
4
 42
0.0000001
 43
0.0000001
 44
0.0000000001
 12
0.257046478
 22
-0.0748047261
 32
0.0
 13
0.2252633536
 23
-0.1446549704
 33
0.0
 40
0.0
 40
0.0
 40
0.0
 40
0.0
 40
0.2362920832
 40
0.4814109498
 40
1.0
 40
1.0
 40
1.0
 40
1.0
 10
-1.5892119718
 20
-23.6692662729
 30
0.0
 10
-1.5689659559
 20
-23.6751581944
 30
0.0
 10
-1.5279377204
 20
-23.688027861
 30
0.0
 10
-1.4452423867
 20
-23.7217879556
 30
0.0
 10
-1.3853448431
 20
-23.754959352
 30
0.0
 10
-1.3464051402
 20
-23.7799648466
 30
0.0
 11
-1.5892119718
 21
-23.6692662729
 31
0.0
 11
-1.5289833699
 21
-23.6886068677
 31
0.0
 11
-1.4681926688
 21
-23.7133167045
 31
0.0
 11
-1.3464051402
 21
-23.7799648466
 31
0.0
  0
SPLINE
  5
3BE
100
AcDbEntity
  8
0
100
AcDbSpline
 62
7
  6
CONTINUOUS
 70
0
 71
3
 72
10
 73
6
 74
4
 42
0.0000001
 43
0.0000001
 44
0.0000000001
 12
0.2763115484
 22
-0.1381557742
 32
0.0
 13
0.0793323206
 23
-0.2985656924
 33
0.0
 40
0.0
 40
0.0
 40
0.0
 40
0.0
 40
0.2224105364
 40
0.6042534692
 40
1.0
 40
1.0
 40
1.0
 40
1.0
 10
-1.4127547486
 20
-24.5545351514
 30
0.0
 10
-1.392269882
 20
-24.5647775846
 30
0.0
 10
-1.3406643839
 20
-24.6012377985
 30
0.0
 10
-1.2796885211
 20
-24.6866351728
 30
0.0
 10
-1.2503034131
 20
-24.7618396678
 30
0.0
 10
-1.2398382495
 20
-24.8012251134
 30
0.0
 11
-1.4127547486
 21
-24.5545351514
 31
0.0
 11
-1.3562802609
 21
-24.5936691139
 31
0.0
 11
-1.2848838326
 21
-24.6875699673
 31
0.0
 11
-1.2398382495
 21
-24.8012251134
 31
0.0
  0
SPLINE
  5
3BF
100
AcDbEntity
  8
0
100
AcDbSpline
 62
7
  6
CONTINUOUS
 70
0
 71
3
 72
9
 73
5
 74
3
 42
0.0000001
 43
0.0000001
 44
0.0000000001
 12
0.1629167104
 22
-0.6125703128
 32
0.0
 13
0.1303220388
 23
-0.6203228263
 33
0.0
 40
0.0
 40
0.0
 40
0.0
 40
0.0
 40
0.5011449125
 40
1.0
 40
1.0
 40
1.0
 40
1.0
 10
-1.2398382495
 20
-24.8012251134
 30
0.0
 10
-1.2126232893
 20
-24.9035539454
 30
0.0
 10
-1.1706925927
 20
-25.1108180139
 30
0.0
 10
-1.1259815112
 20
-25.3172673012
 30
0.0
 10
-1.1043109072
 20
-25.4204177004
 30
0.0
 11
-1.2398382495
 21
-24.8012251134
 31
0.0
 11
-1.1698982956
 21
-25.1110879831
 31
0.0
 11
-1.1043109072
 21
-25.4204177004
 31
0.0
  0
SPLINE
  5
3C0
100
AcDbEntity
  8
0
100
AcDbSpline
 62
7
  6
CONTINUOUS
 70
0
 71
3
 72
9
 73
5
 74
3
 42
0.0000001
 43
0.0000001
 44
0.0000000001
 12
0.0378189117
 22
-0.0129328728
 32
0.0
 13
0.036155033
 23
0.0170394503
 33
0.0
 40
0.0
 40
0.0
 40
0.0
 40
0.0
 40
0.5120122227
 40
1.0
 40
1.0
 40
1.0
 40
1.0
 10
-1.0907938029
 20
-24.5675706157
 30
0.0
 10
-1.0843392212
 20
-24.5697778787
 30
0.0
 10
-1.0703491556
 20
-24.5707531159
 30
0.0
 10
-1.057809781
 20
-24.565679091
 30
0.0
 10
-1.0519287096
 20
-24.5629074098
 30
0.0
 11
-1.0907938029
 21
-24.5675706157
 31
0.0
 11
-1.0703933601
 21
-24.569190692
 31
0.0
 11
-1.0519287096
 21
-24.5629074098
 31
0.0
  0
SPLINE
  5
3C1
100
AcDbEntity
  8
RACCORDO
100
AcDbSpline
 62
7
  6
CONTINUOUS
 70
0
 71
3
 72
15
 73
11
 74
9
 42
0.0000001
 43
0.0000001
 44
0.0000000001
 12
0.0000285072
 22
0.4348568662
 32
0.0
 13
0.3889720957
 23
-0.1944253163
 33
0.0
 40
0.0
 40
0.0
 40
0.0
 40
0.0
 40
0.1489156741
 40
0.28438697
 40
0.4071908671
 40
0.5206712083
 40
0.6305281716
 40
0.7435187252
 40
0.8655203113
 40
1.0
 40
1.0
 40
1.0
 40
1.0
 10
-21.6261077625
 20
29.429937321
 30
0.0
 10
-21.6261063474
 20
29.4515229888
 30
0.0
 10
-21.6229848324
 20
29.4928625238
 30
0.0
 10
-21.6075137296
 20
29.5502456091
 30
0.0
 10
-21.581709823
 20
29.5982181044
 30
0.0
 10
-21.5460895906
 20
29.6346412581
 30
0.0
 10
-21.5019776456
 20
29.6573724179
 30
0.0
 10
-21.4517819233
 20
29.6650657215
 30
0.0
 10
-21.3981395593
 20
29.6579858291
 30
0.0
 10
-21.3630277576
 20
29.6447519977
 30
0.0
 10
-21.3455914754
 20
29.636036579
 30
0.0
 11
-21.6261077625
 21
29.429937321
 31
0.0
 11
-21.6207304249
 21
29.4944706747
 31
0.0
 11
-21.6048000662
 21
29.5511865033
 31
0.0
 11
-21.5789248095
 21
29.5979011401
 31
0.0
 11
-21.5440877528
 21
29.632852185
 31
0.0
 11
-21.5016087409
 21
29.6547085977
 31
0.0
 11
-21.4531137606
 21
29.6626115977
 31
0.0
 11
-21.4004322199
 21
29.6563426091
 31
0.0
 11
-21.3455914754
 21
29.636036579
 31
0.0
  0
SPLINE
  5
3C2
100
AcDbEntity
  8
RACCORDO
100
AcDbSpline
 62
7
  6
CONTINUOUS
 70
0
 71
3
 72
12
 73
8
 74
6
 42
0.0000001
 43
0.0000001
 44
0.0000000001
 12
0.5230247003
 22
-0.2615637791
 32
0.0
 13
0.0000608662
 23
-0.5847823903
 33
0.0
 40
0.0
 40
0.0
 40
0.0
 40
0.0
 40
0.2293635135
 40
0.487502732
 40
0.7523004137
 40
0.8797660392
 40
1.0
 40
1.0
 40
1.0
 40
1.0
 10
14.3075956555
 20
11.8094430136
 30
0.0
 10
14.3475832498
 20
11.7894452845
 30
0.0
 10
14.4240468721
 20
11.7297461018
 30
0.0
 10
14.5124885458
 20
11.6113196057
 30
0.0
 10
14.5637043438
 20
11.4938241572
 30
0.0
 10
14.5859390836
 20
11.3962333687
 30
0.0
 10
14.5903928503
 20
11.3479192039
 30
0.0
 10
14.5903952896
 20
11.324482303
 30
0.0
 11
14.3075956555
 21
11.8094430136
 31
0.0
 11
14.4152940307
 21
11.7294973333
 31
0.0
 11
14.5067594797
 21
11.6094075119
 31
0.0
 11
14.5681979148
 21
11.4672683607
 31
0.0
 11
14.5845864549
 21
11.3945526422
 31
0.0
 11
14.5903952896
 21
11.324482303
 31
0.0
  0
SPLINE
  5
3C3
100
AcDbEntity
  8
0
100
AcDbSpline
 62
7
  6
CONTINUOUS
 70
0
 71
3
 72
11
 73
7
 74
5
 42
0.0000001
 43
0.0000001
 44
0.0000000001
 12
-0.6333494509
 22
0.5969143223
 32
0.0
 13
-0.8289470693
 23
0.2651131674
 33
0.0
 40
0.0
 40
0.0
 40
0.0
 40
0.0
 40
0.2725542141
 40
0.5262218346
 40
0.7671916502
 40
1.0
 40
1.0
 40
1.0
 40
1.0
 10
-0.9813280392
 20
-23.562379418
 30
0.0
 10
-1.0388687265
 20
-23.5081489133
 30
0.0
 10
-1.1621071579
 20
-23.4162514484
 30
0.0
 10
-1.3573444472
 20
-23.3087110162
 30
0.0
 10
-1.5517115383
 20
-23.2257436263
 30
0.0
 10
-1.6818738054
 20
-23.1813697696
 30
0.0
 10
-1.7462024051
 20
-23.16079625
 30
0.0
 11
-0.9813280392
 21
-23.562379418
 31
0.0
 11
-1.1693943561
 21
-23.417818132
 31
0.0
 11
-1.3622290168
 21
-23.3103292025
 31
0.0
 11
-1.5548164803
 21
-23.2273122172
 31
0.0
 11
-1.7462024051
 21
-23.16079625
 31
0.0
  0
SPLINE
  5
3C4
100
AcDbEntity
  8
RACCORDO
100
AcDbSpline
 62
7
  6
CONTINUOUS
 70
0
 71
3
 72
11
 73
7
 74
5
 42
0.0000001
 43
0.0000001
 44
0.0000000001
 12
0.407037927
 22
0.1895225457
 32
0.0
 13
0.0027915047
 23
0.4489887269
 33
0.0
 40
0.0
 40
0.0
 40
0.0
 40
0.0
 40
0.2166726031
 40
0.4495053433
 40
0.7094831531
 40
1.0
 40
1.0
 40
1.0
 40
1.0
 10
14.8209487094
 20
-33.3320698545
 30
0.0
 10
14.8503466985
 20
-33.3183817401
 30
0.0
 10
14.9062913973
 20
-33.2778938832
 30
0.0
 10
14.9666001521
 20
-33.1884422771
 30
0.0
 10
15.0030627213
 20
-33.0757749401
 30
0.0
 10
15.0106545088
 20
-32.9931081067
 30
0.0
 10
15.0109248351
 20
-32.9496285103
 30
0.0
 11
14.8209487094
 21
-33.3320698545
 31
0.0
 11
14.9001594377
 21
-33.2755887367
 31
0.0
 11
14.9600624662
 21
-33.1899119618
 31
0.0
 11
14.9976192946
 21
-33.0793894366
 31
0.0
 11
15.0109248351
 21
-32.9496285103
 31
0.0
  0
SPLINE
  5
3C5
100
AcDbEntity
  8
RACCORDO
100
AcDbSpline
 62
7
  6
CONTINUOUS
 70
0
 71
3
 72
15
 73
11
 74
9
 42
0.0000001
 43
0.0000001
 44
0.0000000001
 12
-0.0000285072
 22
-0.4348568759
 32
0.0
 13
-0.3889721044
 23
0.1944253207
 33
0.0
 40
0.0
 40
0.0
 40
0.0
 40
0.0
 40
0.1489156736
 40
0.2843869688
 40
0.4071908649
 40
0.5206712054
 40
0.6305281684
 40
0.7435187224
 40
0.8655203096
 40
1.0
 40
1.0
 40
1.0
 40
1.0
 10
14.5903952896
 20
-32.9477935574
 30
0.0
 10
14.5903938746
 20
-32.9693792256
 30
0.0
 10
14.5872723595
 20
-33.0107187613
 30
0.0
 10
14.5718012561
 20
-33.0681018476
 30
0.0
 10
14.5459973485
 20
-33.1160743433
 30
0.0
 10
14.5103771147
 20
-33.152497497
 30
0.0
 10
14.4662651681
 20
-33.1752286559
 30
0.0
 10
14.4160694443
 20
-33.1829219581
 30
0.0
 10
14.3624270787
 20
-33.1758420636
 30
0.0
 10
14.3273152766
 20
-33.16260823
 30
0.0
 10
14.3098789938
 20
-33.153892811
 30
0.0
 11
14.5903952896
 21
-32.9477935574
 31
0.0
 11
14.5850179518
 21
-33.0123269123
 31
0.0
 11
14.5690875925
 21
-33.0690427418
 31
0.0
 11
14.5432123348
 21
-33.1157573789
 31
0.0
 11
14.5083752769
 21
-33.1507084237
 31
0.0
 11
14.4658962635
 21
-33.1725648355
 31
0.0
 11
14.4174012817
 21
-33.1804678343
 31
0.0
 11
14.3647197396
 21
-33.1741988436
 31
0.0
 11
14.3098789938
 21
-33.153892811
 31
0.0
  0
SPLINE
  5
3C6
100
AcDbEntity
  8
RACCORDO
100
AcDbSpline
 62
7
  6
CONTINUOUS
 70
0
 71
3
 72
11
 73
7
 74
5
 42
0.0000001
 43
0.0000001
 44
0.0000000001
 12
-0.1689068731
 22
0.0845995435
 32
0.0
 13
-0.0000000045
 23
0.1889090113
 33
0.0
 40
0.0
 40
0.0
 40
0.0
 40
0.0
 40
0.2171672584
 40
0.4503633044
 40
0.7104290804
 40
1.0
 40
1.0
 40
1.0
 40
1.0
 10
-21.265341166
 20
-15.4895556362
 30
0.0
 10
-21.2775681802
 20
-15.4834315525
 30
0.0
 10
-21.3007129297
 20
-15.4658370767
 30
0.0
 10
-21.3255272704
 20
-15.4277912427
 30
0.0
 10
-21.3403458406
 20
-15.3802721654
 30
0.0
 10
-21.3433081279
 20
-15.3455334354
 30
0.0
 10
-21.3433081283
 20
-15.32729925
 30
0.0
 11
-21.265341166
 21
-15.4895556362
 31
0.0
 11
-21.2981652398
 21
-15.4649463155
 31
0.0
 11
-21.3228248854
 21
-15.4284421499
 31
0.0
 11
-21.3381212078
 21
-15.3817553378
 31
0.0
 11
-21.3433081283
 21
-15.32729925
 31
0.0
  0
SPLINE
  5
3C7
100
AcDbEntity
  8
RACCORDO
100
AcDbSpline
 62
7
  6
CONTINUOUS
 70
0
 71
3
 72
12
 73
8
 74
6
 42
0.0000001
 43
0.0000001
 44
0.0000000001
 12
-0.5230246931
 22
0.2615637754
 32
0.0
 13
-0.0000608662
 23
0.5847823822
 33
0.0
 40
0.0
 40
0.0
 40
0.0
 40
0.0
 40
0.229363513
 40
0.4875027308
 40
0.7523004124
 40
0.8797660385
 40
1.0
 40
1.0
 40
1.0
 40
1.0
 10
-21.3433081283
 20
-15.32729925
 30
0.0
 10
-21.383295722
 20
-15.3073015212
 30
0.0
 10
-21.4597593432
 20
-15.2476023398
 30
0.0
 10
-21.5482010161
 20
-15.1291758461
 30
0.0
 10
-21.5994168145
 20
-15.0116803996
 30
0.0
 10
-21.6216515551
 20
-14.9140896126
 30
0.0
 10
-21.6261053231
 20
-14.8657754483
 30
0.0
 10
-21.6261077625
 20
-14.8423385475
 30
0.0
 11
-21.3433081283
 21
-15.32729925
 31
0.0
 11
-21.451006502
 21
-15.2473535713
 31
0.0
 11
-21.5424719501
 21
-15.1272637524
 31
0.0
 11
-21.6039103856
 21
-14.9851246037
 31
0.0
 11
-21.6202989266
 21
-14.9124088862
 31
0.0
 11
-21.6261077625
 21
-14.8423385475
 31
0.0
  0
SPLINE
  5
3C8
100
AcDbEntity
  8
RACCORDO
100
AcDbSpline
 62
7
  6
CONTINUOUS
 70
0
 71
3
 72
9
 73
5
 74
3
 42
0.0000001
 43
0.0000001
 44
0.0000000001
 12
-0.0339777457
 22
-0.0425884986
 32
0.0
 13
-0.0466494948
 23
-0.0281441299
 33
0.0
 40
0.0
 40
0.0
 40
0.0
 40
0.0
 40
0.2626167859
 40
1.0
 40
1.0
 40
1.0
 40
1.0
 10
12.7876553567
 20
-29.7104176445
 30
0.0
 10
12.7846809812
 20
-29.7141457961
 30
0.0
 10
12.7728756649
 20
-29.7279337125
 30
0.0
 10
12.7588408421
 20
-29.7399594204
 30
0.0
 10
12.7473746573
 20
-29.7468770901
 30
0.0
 11
12.7876553567
 21
-29.7104176445
 31
0.0
 11
12.7783266691
 21
-29.7212661374
 31
0.0
 11
12.7473746573
 21
-29.7468770901
 31
0.0
  0
SPLINE
  5
3C9
100
AcDbEntity
  8
RACCORDO
100
AcDbSpline
 62
7
  6
CONTINUOUS
 70
0
 71
3
 72
10
 73
6
 74
4
 42
0.0000001
 43
0.0000001
 44
0.0000000001
 12
-0.1137650198
 22
-0.0686356306
 32
0.0
 13
-0.1062414822
 23
0.0797876994
 33
0.0
 40
0.0
 40
0.0
 40
0.0
 40
0.0
 40
0.2472182505
 40
0.4875832399
 40
1.0
 40
1.0
 40
1.0
 40
1.0
 10
12.7473746573
 20
-29.7468770901
 30
0.0
 10
12.7379997276
 20
-29.7525330836
 30
0.0
 10
12.7177838189
 20
-29.761252348
 30
0.0
 10
12.6727760578
 20
-29.7642738832
 30
0.0
 10
12.6405655452
 20
-29.7489211921
 30
0.0
 10
12.6224189065
 20
-29.7352930073
 30
0.0
 11
12.7473746573
 21
-29.7468770901
 31
0.0
 11
12.7170551551
 21
-29.7595121173
 31
0.0
 11
12.6851908139
 21
-29.7616547009
 31
0.0
 11
12.6224189065
 21
-29.7352930073
 31
0.0
  0
SPLINE
  5
3CA
100
AcDbEntity
  8
RACCORDO
100
AcDbSpline
 62
7
  6
CONTINUOUS
 70
0
 71
3
 72
15
 73
11
 74
9
 42
0.0000001
 43
0.0000001
 44
0.0000000001
 12
0.0000683239
 22
-0.646551538
 32
0.0
 13
-0.5783308173
 23
0.2890715512
 33
0.0
 40
0.0
 40
0.0
 40
0.0
 40
0.0
 40
0.1487777367
 40
0.2853586629
 40
0.4094901324
 40
0.5236272001
 40
0.6329868848
 40
0.7448320058
 40
0.865953558
 40
1.0
 40
1.0
 40
1.0
 40
1.0
 10
12.8880716757
 20
-29.7317162825
 30
0.0
 10
12.888075064
 20
-29.7637804407
 30
0.0
 10
12.8839176505
 20
-29.8254176209
 30
0.0
 10
12.8631356777
 20
-29.911710103
 30
0.0
 10
12.8277066116
 20
-29.9851701198
 30
0.0
 10
12.777582709
 20
-30.0423718327
 30
0.0
 10
12.7137434933
 20
-30.0791843692
 30
0.0
 10
12.6398035663
 20
-30.092507658
 30
0.0
 10
12.5603857393
 20
-30.0823038317
 30
0.0
 10
12.5086899667
 20
-30.0621431038
 30
0.0
 10
12.4828489039
 20
-30.0492267661
 30
0.0
 11
12.8880716757
 21
-29.7317162825
 31
0.0
 11
12.8809333922
 21
-29.8276435318
 31
0.0
 11
12.8593724367
 21
-29.9132775337
 31
0.0
 11
12.8235496894
 21
-29.9850966113
 31
0.0
 11
12.7742019735
 21
-30.0399653485
 31
0.0
 11
12.7128313841
 21
-30.0750806491
 31
0.0
 11
12.6417858826
 21
-30.0885639194
 31
0.0
 11
12.5639756453
 21
-30.0797191025
 31
0.0
 11
12.4828489039
 21
-30.0492267661
 31
0.0
  0
SPLINE
  5
3CB
100
AcDbEntity
  8
0
100
AcDbSpline
 62
7
  6
CONTINUOUS
 70
0
 71
3
 72
9
 73
5
 74
3
 42
0.0000001
 43
0.0000001
 44
0.0000000001
 12
-0.0819902798
 22
0.0180211629
 32
0.0
 13
-0.0758969579
 23
0.0358722745
 33
0.0
 40
0.0
 40
0.0
 40
0.0
 40
0.0
 40
0.24237902
 40
1.0
 40
1.0
 40
1.0
 40
1.0
 10
-1.191733934
 20
-24.214597024
 30
0.0
 10
-1.1983581752
 20
-24.2131410401
 30
0.0
 10
-1.2254426789
 20
-24.2060126512
 30
0.0
 10
-1.2514982886
 20
-24.1953912655
 30
0.0
 10
-1.2706653312
 20
-24.1863320696
 30
0.0
 11
-1.191733934
 21
-24.214597024
 31
0.0
 11
-1.2114271611
 21
-24.2094802911
 31
0.0
 11
-1.2706653312
 21
-24.1863320696
 31
0.0
  0
SPLINE
  5
3CC
100
AcDbEntity
  8
0
100
AcDbSpline
 62
7
  6
CONTINUOUS
 70
0
 71
3
 72
10
 73
6
 74
4
 42
0.0000001
 43
0.0000001
 44
0.0000000001
 12
-0.1538658195
 22
-0.0769328886
 32
0.0
 13
-0.1555300044
 23
0.0735103904
 33
0.0
 40
0.0
 40
0.0
 40
0.0
 40
0.0
 40
0.4571693218
 40
0.7225207018
 40
1.0
 40
1.0
 40
1.0
 40
1.0
 10
-1.2455728193
 20
-24.2800660784
 30
0.0
 10
-1.2690203967
 20
-24.2917898639
 30
0.0
 10
-1.3141810812
 20
-24.2916913964
 30
0.0
 10
-1.3688312076
 20
-24.2759516729
 30
0.0
 10
-1.3977012353
 20
-24.2638419516
 30
0.0
 10
-1.4120866874
 20
-24.2570427477
 30
0.0
 11
-1.2455728193
 21
-24.2800660784
 31
0.0
 11
-1.3238985436
 21
-24.2871516428
 31
0.0
 11
-1.3679782708
 21
-24.2752905215
 31
0.0
 11
-1.4120866874
 21
-24.2570427477
 31
0.0
  0
SPLINE
  5
3CD
100
AcDbEntity
  8
0
100
AcDbSpline
 62
7
  6
CONTINUOUS
 70
0
 71
3
 72
18
 73
14
 74
12
 42
0.0000001
 43
0.0000001
 44
0.0000000001
 12
0.941199015
 22
0.4706007235
 32
0.0
 13
-0.7660294835
 23
0.7214703439
 33
0.0
 40
0.0
 40
0.0
 40
0.0
 40
0.0
 40
0.0457942768
 40
0.0910579023
 40
0.1389648738
 40
0.1905316202
 40
0.3034455327
 40
0.4295779948
 40
0.5663525932
 40
0.7114677539
 40
0.8584344355
 40
0.9305901952
 40
1.0
 40
1.0
 40
1.0
 40
1.0
 10
-0.906340886
 20
-24.4901671615
 30
0.0
 10
-0.8919737099
 20
-24.4829835549
 30
0.0
 10
-0.8638853667
 20
-24.4676070026
 30
0.0
 10
-0.825556572
 20
-24.4368364616
 30
0.0
 10
-0.7946947844
 20
-24.3959656948
 30
0.0
 10
-0.761436808
 20
-24.3289503702
 30
0.0
 10
-0.7386895186
 20
-24.2281799685
 30
0.0
 10
-0.7376311437
 20
-24.0957804637
 30
0.0
 10
-0.7595585796
 20
-23.9536326374
 30
0.0
 10
-0.8090717038
 20
-23.8107620172
 30
0.0
 10
-0.8708426796
 20
-23.6981667146
 30
0.0
 10
-0.930456952
 20
-23.6162913943
 30
0.0
 10
-0.9636047202
 20
-23.5790717899
 30
0.0
 10
-0.9813280392
 20
-23.562379418
 30
0.0
 11
-0.906340886
 21
-24.4901671615
 31
0.0
 11
-0.8644736361
 21
-24.4663068815
 31
0.0
 11
-0.827661993
 21
-24.436081449
 31
0.0
 11
-0.7967818437
 21
-24.3962341969
 31
0.0
 11
-0.7723093625
 21
-24.3478027359
 31
0.0
 11
-0.7437486979
 21
-24.2324678758
 31
0.0
 11
-0.741083567
 21
-24.0997663247
 31
0.0
 11
-0.7632058673
 21
-23.9575496845
 31
0.0
 11
-0.8127610118
 21
-23.8131104265
 31
0.0
 11
-0.8871791957
 21
-23.6775405932
 31
0.0
 11
-0.9320371272
 21
-23.6162790268
 31
0.0
 11
-0.9813280392
 21
-23.562379418
 31
0.0
  0
SPLINE
  5
3CE
100
AcDbEntity
  8
0
100
AcDbSpline
 62
7
  6
CONTINUOUS
 70
0
 71
3
 72
18
 73
14
 74
12
 42
0.0000001
 43
0.0000001
 44
0.0000000001
 12
0.9411995851
 22
0.4706000933
 32
0.0
 13
-0.7660296496
 23
0.7214705003
 33
0.0
 40
0.0
 40
0.0
 40
0.0
 40
0.0
 40
0.0457942883
 40
0.0910579125
 40
0.1389648735
 40
0.1905316105
 40
0.3034455099
 40
0.4295779653
 40
0.5663525638
 40
0.7114677307
 40
0.8584344238
 40
0.9305901896
 40
1.0
 40
1.0
 40
1.0
 40
1.0
 10
-1.0477624475
 20
-24.5608779423
 30
0.0
 10
-1.0333952591
 20
-24.5536943435
 30
0.0
 10
-1.0053069035
 20
-24.5383177932
 30
0.0
 10
-0.9669780682
 20
-24.507547288
 30
0.0
 10
-0.9361162431
 20
-24.4666765431
 30
0.0
 10
-0.9028582241
 20
-24.3996612339
 30
0.0
 10
-0.8801108904
 20
-24.2988908274
 30
0.0
 10
-0.879052487
 20
-24.1664913004
 30
0.0
 10
-0.9009799024
 20
-24.0243434393
 30
0.0
 10
-0.9504930218
 20
-23.8814727756
 30
0.0
 10
-1.0122640069
 20
-23.7688774363
 30
0.0
 10
-1.0718782939
 20
-23.6870020894
 30
0.0
 10
-1.1050260712
 20
-23.649782473
 30
0.0
 10
-1.1227493954
 20
-23.6330900961
 30
0.0
 11
-1.0477624475
 21
-24.5608779423
 31
0.0
 11
-1.0058951648
 21
-24.5370176745
 31
0.0
 11
-0.9690834876
 21
-24.5067922693
 31
0.0
 11
-0.9382033049
 21
-24.4669450433
 31
0.0
 11
-0.9137307926
 21
-24.4185135958
 31
0.0
 11
-0.8851700762
 21
-24.3031787362
 31
0.0
 11
-0.8825049124
 21
-24.1704771642
 31
0.0
 11
-0.9046271924
 21
-24.0282604891
 31
0.0
 11
-0.9541823315
 21
-23.8838211873
 31
0.0
 11
-1.0286005272
 21
-23.7482513085
 31
0.0
 11
-1.0734584697
 21
-23.6869897219
 31
0.0
 11
-1.1227493954
 21
-23.6330900961
 31
0.0
  0
SPLINE
  5
3CF
100
AcDbEntity
  8
RACCORDO
100
AcDbSpline
 62
7
  6
CONTINUOUS
 70
0
 71
3
 72
9
 73
5
 74
3
 42
0.0000001
 43
0.0000001
 44
0.0000000001
 12
0.1930649248
 22
-0.0965089635
 32
0.0
 13
0.1468093192
 23
-0.1582247421
 33
0.0
 40
0.0
 40
0.0
 40
0.0
 40
0.0
 40
0.2333728381
 40
1.0
 40
1.0
 40
1.0
 40
1.0
 10
12.4828489039
 20
10.5306653894
 30
0.0
 10
12.497867607
 20
10.5231578659
 30
0.0
 10
12.5604645098
 20
10.4874886522
 30
0.0
 10
12.6156185293
 20
10.4395523047
 30
0.0
 10
12.6531345332
 20
10.3991191764
 30
0.0
 11
12.4828489039
 21
10.5306653894
 31
0.0
 11
12.5266790799
 21
10.5058413112
 31
0.0
 11
12.6531345332
 21
10.3991191764
 31
0.0
  0
SPLINE
  5
3D0
100
AcDbEntity
  8
RACCORDO
100
AcDbSpline
 62
7
  6
CONTINUOUS
 70
0
 71
3
 72
9
 73
5
 74
3
 42
0.0000001
 43
0.0000001
 44
0.0000000001
 12
0.3040346076
 22
-0.3276753658
 32
0.0
 13
0.1098744707
 23
-0.4332848816
 33
0.0
 40
0.0
 40
0.0
 40
0.0
 40
0.0
 40
0.4971408911
 40
1.0
 40
1.0
 40
1.0
 40
1.0
 10
12.6531345332
 20
10.3991191764
 30
0.0
 10
12.7035172118
 20
10.3448189019
 30
0.0
 10
12.7892931102
 20
10.2206932766
 30
0.0
 10
12.8436653359
 20
10.0803660194
 30
0.0
 10
12.862082462
 20
10.0077389363
 30
0.0
 11
12.6531345332
 21
10.3991191764
 31
0.0
 11
12.7810412366
 21
10.2173988358
 31
0.0
 11
12.862082462
 21
10.0077389363
 31
0.0
  0
SPLINE
  5
3D1
100
AcDbEntity
  8
RACCORDO
100
AcDbSpline
 62
7
  6
CONTINUOUS
 70
0
 71
3
 72
9
 73
5
 74
3
 42
0.0000001
 43
0.0000001
 44
0.0000000001
 12
0.0495971273
 22
-0.1955839723
 32
0.0
 13
0.0000039825
 23
-0.2017745406
 33
0.0
 40
0.0
 40
0.0
 40
0.0
 40
0.0
 40
0.2600359307
 40
1.0
 40
1.0
 40
1.0
 40
1.0
 10
12.862082462
 20
10.0077389363
 30
0.0
 10
12.8663814738
 20
9.9907859829
 30
0.0
 10
12.8810188096
 20
9.9251382168
 30
0.0
 10
12.8880706934
 20
9.8577007708
 30
0.0
 10
12.8880716757
 20
9.8079321341
 30
0.0
 11
12.862082462
 21
10.0077389363
 31
0.0
 11
12.873481022
 21
9.9565234111
 31
0.0
 11
12.8880716757
 21
9.8079321341
 31
0.0
  0
SPLINE
  5
3D2
100
AcDbEntity
  8
RACCORDO
100
AcDbSpline
 62
7
  6
CONTINUOUS
 70
0
 71
3
 72
15
 73
11
 74
9
 42
0.0000001
 43
0.0000001
 44
0.0000000001
 12
-0.0000295858
 22
0.6465588913
 32
0.0
 13
0.578284617
 23
-0.289180398
 33
0.0
 40
0.0
 40
0.0
 40
0.0
 40
0.0
 40
0.1487692636
 40
0.2853510766
 40
0.4094831024
 40
0.5236201584
 40
0.6329787999
 40
0.7448201925
 40
0.8659415831
 40
1.0
 40
1.0
 40
1.0
 40
1.0
 10
-19.9237841485
 20
26.2138600461
 30
0.0
 10
-19.9237856156
 20
26.2459227428
 30
0.0
 10
-19.9196212232
 20
26.3075585233
 30
0.0
 10
-19.8988383128
 20
26.3938493841
 30
0.0
 10
-19.8634146664
 20
26.4673134702
 30
0.0
 10
-19.8132906267
 20
26.5245164577
 30
0.0
 10
-19.7494556728
 20
26.5613331325
 30
0.0
 10
-19.6755190886
 20
26.574673809
 30
0.0
 10
-19.5960958771
 20
26.5644698901
 30
0.0
 10
-19.5444026835
 20
26.5442928852
 30
0.0
 10
-19.5185613767
 20
26.5313705297
 30
0.0
 11
-19.9237841485
 21
26.2138600461
 31
0.0
 11
-19.9166387253
 21
26.309782367
 31
0.0
 11
-19.8950762788
 21
26.39541762
 31
0.0
 11
-19.8592568199
 21
26.4672397592
 31
0.0
 11
-19.809910345
 21
26.5221107307
 31
0.0
 11
-19.7485428436
 21
26.5572316877
 31
0.0
 11
-19.6775012257
 21
26.5707268961
 31
0.0
 11
-19.5996901882
 21
26.5618821603
 31
0.0
 11
-19.5185613767
 21
26.5313705297
 31
0.0
  0
SPLINE
  5
3D3
100
AcDbEntity
  8
RACCORDO
100
AcDbSpline
 62
7
  6
CONTINUOUS
 70
0
 71
3
 72
11
 73
7
 74
5
 42
0.0000001
 43
0.0000001
 44
0.0000000001
 12
-0.7725973854
 22
0.3861779949
 32
0.0
 13
0.0000393068
 23
0.8637361646
 33
0.0
 40
0.0
 40
0.0
 40
0.0
 40
0.0
 40
0.230279706
 40
0.489944866
 40
0.7543046998
 40
1.0
 40
1.0
 40
1.0
 40
1.0
 10
-19.5185613767
 20
-14.0485216258
 30
0.0
 10
-19.5778658763
 20
-14.0188786408
 30
0.0
 10
-19.6909786288
 20
-13.9293971507
 30
0.0
 10
-19.8184671391
 20
-13.7510341409
 30
0.0
 10
-19.9021167268
 20
-13.5437157817
 30
0.0
 10
-19.9237873676
 20
-13.3965270092
 30
0.0
 10
-19.9237841485
 20
-13.3257883705
 30
0.0
 11
-19.5185613767
 21
-14.0485216258
 31
0.0
 11
-19.6774997758
 21
-13.9289383602
 31
0.0
 11
-19.8099098477
 21
-13.7479132972
 31
0.0
 11
-19.8950761718
 21
-13.5360535537
 31
0.0
 11
-19.9237841485
 21
-13.3257883705
 31
0.0
  0
SPLINE
  5
3D4
100
AcDbEntity
  8
RACCORDO
100
AcDbSpline
 62
7
  6
CONTINUOUS
 70
0
 71
3
 72
11
 73
7
 74
5
 42
0.0000001
 43
0.0000001
 44
0.0000000001
 12
-0.1689125333
 22
0.0845958693
 32
0.0
 13
-0.0000000007
 23
0.1889124268
 33
0.0
 40
0.0
 40
0.0
 40
0.0
 40
0.0
 40
0.2171672883
 40
0.4503628529
 40
0.710428482
 40
1.0
 40
1.0
 40
1.0
 40
1.0
 10
14.3855657108
 20
-33.3150090772
 30
0.0
 10
14.3733382852
 20
-33.3088852587
 30
0.0
 10
14.3501926376
 20
-33.2912910783
 30
0.0
 10
14.3253772411
 20
-33.253244943
 30
0.0
 10
14.3105580554
 20
-33.2057250878
 30
0.0
 10
14.3075956556
 20
-33.1709856946
 30
0.0
 10
14.3075956555
 20
-33.1527511419
 30
0.0
 11
14.3855657108
 21
-33.3150090772
 31
0.0
 11
14.3527403917
 21
-33.2904001715
 31
0.0
 11
14.3280797538
 21
-33.2538958249
 31
0.0
 11
14.3127827944
 21
-33.207208316
 31
0.0
 11
14.3075956555
 21
-33.1527511419
 31
0.0
  0
SPLINE
  5
3D5
100
AcDbEntity
  8
0
100
AcDbSpline
 62
7
  6
CONTINUOUS
 70
0
 71
3
 72
9
 73
5
 74
3
 42
0.0000001
 43
0.0000001
 44
0.0000000001
 12
-0.1087199623
 22
0.5446236221
 32
0.0
 13
-0.1090135263
 23
0.5445649374
 33
0.0
 40
0.0
 40
0.0
 40
0.0
 40
0.0
 40
0.4998343578
 40
1.0
 40
1.0
 40
1.0
 40
1.0
 10
-0.8061886108
 20
-25.5694788486
 30
0.0
 10
-0.8243026017
 20
-25.4787383158
 30
0.0
 10
-0.8587039692
 20
-25.2968363717
 30
0.0
 10
-0.893968172
 20
-25.1151015777
 30
0.0
 10
-0.9121431121
 20
-25.0243106872
 30
0.0
 11
-0.8061886108
 21
-25.5694788486
 31
0.0
 11
-0.8589081385
 21
-25.2969383928
 31
0.0
 11
-0.9121431121
 21
-25.0243106872
 31
0.0
  0
SPLINE
  5
3D6
100
AcDbEntity
  8
0
100
AcDbSpline
 62
7
  6
CONTINUOUS
 70
0
 71
3
 72
11
 73
7
 74
5
 42
0.0000001
 43
0.0000001
 44
0.0000000001
 12
-0.092222405
 22
0.4607089669
 32
0.0
 13
-0.3160142747
 23
0.3476962789
 33
0.0
 40
0.0
 40
0.0
 40
0.0
 40
0.0
 40
0.237845111
 40
0.4941131819
 40
0.7548722517
 40
1.0
 40
1.0
 40
1.0
 40
1.0
 10
-0.9121431121
 20
-25.0243106872
 30
0.0
 10
-0.9194546615
 20
-24.9877848954
 30
0.0
 10
-0.9340897744
 20
-24.9117799166
 30
0.0
 10
-0.9654953699
 20
-24.7975817049
 30
0.0
 10
-1.0100303876
 20
-24.6865640213
 30
0.0
 10
-1.0533015772
 20
-24.6189063231
 30
0.0
 10
-1.0791228664
 20
-24.5904963211
 30
0.0
 11
-0.9121431121
 21
-25.0243106872
 31
0.0
 11
-0.9349162401
 21
-24.9149044962
 31
0.0
 11
-0.9674461861
 21
-24.7989747925
 31
0.0
 11
-1.0145865407
 21
-24.685889546
 31
0.0
 11
-1.0791228664
 21
-24.5904963211
 31
0.0
  0
SPLINE
  5
3D7
100
AcDbEntity
  8
0
100
AcDbSpline
 62
7
  6
CONTINUOUS
 70
0
 71
3
 72
11
 73
7
 74
5
 42
0.0000001
 43
0.0000001
 44
0.0000000001
 12
-0.6333494509
 22
0.5969143223
 32
0.0
 13
-0.8289470693
 23
0.2651131674
 33
0.0
 40
0.0
 40
0.0
 40
0.0
 40
0.0
 40
0.2725542141
 40
0.5262218346
 40
0.7671916502
 40
1.0
 40
1.0
 40
1.0
 40
1.0
 10
-1.1227493954
 20
-23.6330900961
 30
0.0
 10
-1.1802900827
 20
-23.5788595915
 30
0.0
 10
-1.3035285141
 20
-23.4869621265
 30
0.0
 10
-1.4987658034
 20
-23.3794216943
 30
0.0
 10
-1.6931328945
 20
-23.2964543044
 30
0.0
 10
-1.8232951616
 20
-23.2520804478
 30
0.0
 10
-1.8876237614
 20
-23.2315069281
 30
0.0
 11
-1.1227493954
 21
-23.6330900961
 31
0.0
 11
-1.3108157123
 21
-23.4885288102
 31
0.0
 11
-1.503650373
 21
-23.3810398806
 31
0.0
 11
-1.6962378365
 21
-23.2980228953
 31
0.0
 11
-1.8876237614
 21
-23.2315069281
 31
0.0
  0
SPLINE
  5
3D8
100
AcDbEntity
  8
RACCORDO
100
AcDbSpline
 62
7
  6
CONTINUOUS
 70
0
 71
3
 72
11
 73
7
 74
5
 42
0.0000001
 43
0.0000001
 44
0.0000000001
 12
0.0000149406
 22
-0.1443839658
 32
0.0
 13
0.129140946
 23
-0.0645704723
 33
0.0
 40
0.0
 40
0.0
 40
0.0
 40
0.0
 40
0.2065459792
 40
0.4344524192
 40
0.697695169
 40
1.0
 40
1.0
 40
1.0
 40
1.0
 10
-21.7139624556
 20
-14.7334760293
 30
0.0
 10
-21.7139614269
 20
-14.7434166718
 30
0.0
 10
-21.7095926712
 20
-14.7644896865
 30
0.0
 10
-21.6912478287
 20
-14.7932501758
 30
0.0
 10
-21.6626538489
 20
-14.819050157
 30
0.0
 10
-21.6391210731
 20
-14.8330353761
 30
0.0
 10
-21.6261077625
 20
-14.8395420313
 30
0.0
 11
-21.7139624556
 21
-14.7334760293
 31
0.0
 11
-21.7082129976
 21
-14.7627384815
 31
0.0
 11
-21.6911464848
 21
-14.7908728259
 31
0.0
 11
-21.66337865
 21
-14.8168258195
 31
0.0
 11
-21.6261077625
 21
-14.8395420313
 31
0.0
  0
SPLINE
  5
3D9
100
AcDbEntity
  8
RACCORDO
100
AcDbSpline
 62
7
  6
CONTINUOUS
 70
0
 71
3
 72
11
 73
7
 74
5
 42
0.0000001
 43
0.0000001
 44
0.0000000001
 12
-0.388888196
 22
-0.1877724662
 32
0.0
 13
-0.3862564261
 23
0.1931281992
 33
0.0
 40
0.0
 40
0.0
 40
0.0
 40
0.0
 40
0.2366411464
 40
0.5012534856
 40
0.7651925916
 40
1.0
 40
1.0
 40
1.0
 40
1.0
 10
15.0109248351
 20
-32.9496285091
 30
0.0
 10
14.9802491856
 20
-32.9644400729
 30
0.0
 10
14.910290976
 20
-32.9854983151
 30
0.0
 10
14.7999912285
 20
-32.9952418661
 30
0.0
 10
14.6900438859
 20
-32.9845907043
 30
0.0
 10
14.6206272464
 20
-32.9629095347
 30
0.0
 10
14.5903952896
 20
-32.9477935574
 30
0.0
 11
15.0109248351
 21
-32.9496285091
 31
0.0
 11
14.9136831659
 21
-32.9810523668
 31
0.0
 11
14.7999094696
 21
-32.9917151551
 31
0.0
 11
14.6865252883
 21
-32.9800611758
 31
0.0
 11
14.5903952896
 21
-32.9477935574
 31
0.0
  0
SPLINE
  5
3DA
100
AcDbEntity
  8
RACCORDO
100
AcDbSpline
 62
7
  6
CONTINUOUS
 70
0
 71
3
 72
11
 73
7
 74
5
 42
0.0000001
 43
0.0000001
 44
0.0000000001
 12
-0.3888881901
 22
-0.1877724818
 32
0.0
 13
-0.3862564227
 23
0.1931282092
 33
0.0
 40
0.0
 40
0.0
 40
0.0
 40
0.0
 40
0.2366411463
 40
0.5012534836
 40
0.7651925891
 40
1.0
 40
1.0
 40
1.0
 40
1.0
 10
15.0109248351
 20
11.3198508403
 30
0.0
 10
14.9802491861
 20
11.3050392752
 30
0.0
 10
14.9102909766
 20
11.2839810318
 30
0.0
 10
14.799991229
 20
11.2742374821
 30
0.0
 10
14.6900438861
 20
11.2848886454
 30
0.0
 10
14.6206272465
 20
11.3065698167
 30
0.0
 10
14.5903952896
 20
11.3216857949
 30
0.0
 11
15.0109248351
 21
11.3198508403
 31
0.0
 11
14.9136831662
 21
11.2884269806
 31
0.0
 11
14.7999094703
 21
11.2777641932
 31
0.0
 11
14.686525289
 21
11.289418174
 31
0.0
 11
14.5903952896
 21
11.3216857949
 31
0.0
  0
SPLINE
  5
3DB
100
AcDbEntity
  8
RACCORDO
100
AcDbSpline
 62
7
  6
CONTINUOUS
 70
0
 71
3
 72
11
 73
7
 74
5
 42
0.0000001
 43
0.0000001
 44
0.0000000001
 12
-0.3869291685
 22
-0.2017363581
 32
0.0
 13
0.0000000016
 23
-0.4363619365
 33
0.0
 40
0.0
 40
0.0
 40
0.0
 40
0.0
 40
0.2307483952
 40
0.4893409435
 40
0.7537520457
 40
1.0
 40
1.0
 40
1.0
 40
1.0
 10
-21.134878307
 20
29.9988778659
 30
0.0
 10
-21.1646394019
 20
29.9833610856
 30
0.0
 10
-21.2213122575
 20
29.9379970918
 30
0.0
 10
-21.2866864576
 20
29.8488303121
 30
0.0
 10
-21.3310889109
 20
29.745120107
 30
0.0
 10
-21.3433081284
 20
29.6707126502
 30
0.0
 10
-21.3433081283
 20
29.6348949055
 30
0.0
 11
-21.134878307
 21
29.9988778659
 31
0.0
 11
-21.2149230017
 21
29.9377936124
 31
0.0
 11
-21.2824726391
 21
29.847406115
 31
0.0
 11
-21.3275107498
 21
29.74118056
 31
0.0
 11
-21.3433081283
 21
29.6348949055
 31
0.0
  0
SPLINE
  5
3DC
100
AcDbEntity
  8
RACCORDO
100
AcDbSpline
 62
7
  6
CONTINUOUS
 70
0
 71
3
 72
11
 73
7
 74
5
 42
0.0000001
 43
0.0000001
 44
0.0000000001
 12
-0.3869291761
 22
-0.2017363465
 32
0.0
 13
0.0000000104
 23
-0.4363619379
 33
0.0
 40
0.0
 40
0.0
 40
0.0
 40
0.0
 40
0.2307483971
 40
0.4893409449
 40
0.7537520468
 40
1.0
 40
1.0
 40
1.0
 40
1.0
 10
14.5160254744
 20
12.1734259752
 30
0.0
 10
14.4862643787
 20
12.1579091956
 30
0.0
 10
14.4295915217
 20
12.1125452023
 30
0.0
 10
14.3642173225
 20
12.0233784212
 30
0.0
 10
14.3198148707
 20
11.9196682154
 30
0.0
 10
14.3075956546
 20
11.8452607583
 30
0.0
 10
14.3075956555
 20
11.8094430136
 30
0.0
 11
14.5160254744
 21
12.1734259752
 31
0.0
 11
14.4359807778
 21
12.1123417224
 31
0.0
 11
14.3684311411
 21
12.0219542241
 31
0.0
 11
14.323393032
 21
11.9157286683
 31
0.0
 11
14.3075956555
 21
11.8094430136
 31
0.0
  0
SPLINE
  5
3DD
100
AcDbEntity
  8
RACCORDO
100
AcDbSpline
 62
7
  6
CONTINUOUS
 70
0
 71
3
 72
11
 73
7
 74
5
 42
0.0000001
 43
0.0000001
 44
0.0000000001
 12
-0.0064397843
 22
1.0264956433
 32
0.0
 13
-0.9152946272
 23
0.4647262871
 33
0.0
 40
0.0
 40
0.0
 40
0.0
 40
0.0
 40
0.2466773324
 40
0.5119103822
 40
0.7706310354
 40
1.0
 40
1.0
 40
1.0
 40
1.0
 10
15.0109248351
 20
11.3198508421
 30
0.0
 10
15.0103953189
 20
11.4042552444
 30
0.0
 10
14.980388563
 20
11.5795143906
 30
0.0
 10
14.8744341124
 20
11.8233393586
 30
0.0
 10
14.7196984405
 20
12.032189477
 30
0.0
 10
14.5860055357
 20
12.1378947123
 30
0.0
 10
14.5160254754
 20
12.1734259747
 30
0.0
 11
15.0109248351
 21
11.3198508421
 31
0.0
 11
14.9721007446
 21
11.5700750249
 31
0.0
 11
14.8644202913
 21
11.8201423266
 31
0.0
 11
14.7042745543
 21
12.0320067422
 31
0.0
 11
14.5160254754
 21
12.1734259747
 31
0.0
  0
SPLINE
  5
3DE
100
AcDbEntity
  8
RACCORDO
100
AcDbSpline
 62
7
  6
CONTINUOUS
 70
0
 71
3
 72
11
 73
7
 74
5
 42
0.0000001
 43
0.0000001
 44
0.0000000001
 12
-0.299686386
 22
0.1475513079
 32
0.0
 13
-0.2939687779
 23
-0.1586369315
 33
0.0
 40
0.0
 40
0.0
 40
0.0
 40
0.0
 40
0.2797829828
 40
0.535973102
 40
0.7731347539
 40
1.0
 40
1.0
 40
1.0
 40
1.0
 10
-21.1348783084
 20
29.9988778666
 30
0.0
 10
-21.1628273588
 20
30.0126386483
 30
0.0
 10
-21.2186900956
 20
30.0347272868
 30
0.0
 10
-21.3041708188
 20
30.049725585
 30
0.0
 10
-21.3850506077
 20
30.0441197309
 30
0.0
 10
-21.4344007899
 20
30.0261953404
 30
0.0
 10
-21.456631223
 20
30.0141989383
 30
0.0
 11
-21.1348783084
 21
29.9988778666
 31
0.0
 11
-21.2220746258
 21
30.0325138439
 31
0.0
 11
-21.3065055464
 21
30.0464784303
 31
0.0
 11
-21.3854860128
 21
30.0403008815
 31
0.0
 11
-21.456631223
 21
30.0141989383
 31
0.0
  0
SPLINE
  5
3DF
100
AcDbEntity
  8
RACCORDO
100
AcDbSpline
 62
7
  6
CONTINUOUS
 70
0
 71
3
 72
11
 73
7
 74
5
 42
0.0000001
 43
0.0000001
 44
0.0000000001
 12
0.0000149435
 22
-0.1443839616
 32
0.0
 13
0.1291409438
 23
-0.0645704673
 33
0.0
 40
0.0
 40
0.0
 40
0.0
 40
0.0
 40
0.2065459795
 40
0.4344524194
 40
0.6976951678
 40
1.0
 40
1.0
 40
1.0
 40
1.0
 10
-21.7139624556
 20
29.5360033177
 30
0.0
 10
-21.7139614267
 20
29.5260626755
 30
0.0
 10
-21.7095926708
 20
29.5049896614
 30
0.0
 10
-21.6912478279
 20
29.4762291736
 30
0.0
 10
-21.6626538484
 20
29.4504291937
 30
0.0
 10
-21.6391210729
 20
29.4364439757
 30
0.0
 10
-21.6261077625
 20
29.429937321
 30
0.0
 11
-21.7139624556
 21
29.5360033177
 31
0.0
 11
-21.7082129972
 21
29.5067408665
 31
0.0
 11
-21.6911464841
 21
29.4786065234
 31
0.0
 11
-21.6633786497
 21
29.4526535313
 31
0.0
 11
-21.6261077625
 21
29.429937321
 31
0.0
  0
SPLINE
  5
3E0
100
AcDbEntity
  8
RACCORDO
100
AcDbSpline
 62
7
  6
CONTINUOUS
 70
0
 71
3
 72
8
 73
4
 74
2
 42
0.0000001
 43
0.0000001
 44
0.0000000001
 12
-0.0001078805
 22
-0.0044165924
 32
0.0
 13
0.0011411553
 23
-0.0042679844
 33
0.0
 40
0.0
 40
0.0
 40
0.0
 40
0.0
 40
1.0
 40
1.0
 40
1.0
 40
1.0
 10
-18.3034366672
 20
-12.448046674
 30
0.0
 10
-18.3034726274
 20
-12.4495188715
 30
0.0
 10
-18.3033249577
 20
-12.4510144304
 30
0.0
 10
-18.3029445726
 20
-12.4524370919
 30
0.0
 11
-18.3034366672
 21
-12.448046674
 31
0.0
 11
-18.3029445726
 21
-12.4524370919
 31
0.0
  0
SPLINE
  5
3E1
100
AcDbEntity
  8
RACCORDO
100
AcDbSpline
 62
7
  6
CONTINUOUS
 70
0
 71
3
 72
8
 73
4
 74
2
 42
0.0000001
 43
0.0000001
 44
0.0000000001
 12
0.0059652129
 22
-0.0053567327
 32
0.0
 13
0.0072571928
 23
-0.0034075655
 33
0.0
 40
0.0
 40
0.0
 40
0.0
 40
0.0
 40
1.0
 40
1.0
 40
1.0
 40
1.0
 10
-18.0661799601
 20
-12.7934351931
 30
0.0
 10
-18.0641915558
 20
-12.7952207707
 30
0.0
 10
-18.0618745414
 20
-12.7966650773
 30
0.0
 10
-18.0594554771
 20
-12.7978009324
 30
0.0
 11
-18.0661799601
 21
-12.7934351931
 31
0.0
 11
-18.0594554771
 21
-12.7978009324
 31
0.0
  0
SPLINE
  5
3E2
100
AcDbEntity
  8
RACCORDO
100
AcDbSpline
 62
7
  6
CONTINUOUS
 70
0
 71
3
 72
12
 73
8
 74
6
 42
0.0000001
 43
0.0000001
 44
0.0000000001
 12
0.1059276384
 22
-0.4051873779
 32
0.0
 13
0.3121385671
 23
-0.2792256985
 33
0.0
 40
0.0
 40
0.0
 40
0.0
 40
0.0
 40
0.1121053541
 40
0.2348834912
 40
0.5037472525
 40
0.7736369204
 40
1.0
 40
1.0
 40
1.0
 40
1.0
 10
-18.3029445726
 20
-12.4524370919
 30
0.0
 10
-18.2989862208
 20
-12.4675783167
 30
0.0
 10
-18.2869170466
 20
-12.4982639158
 30
0.0
 10
-18.2547555741
 20
-12.5608187804
 30
0.0
 10
-18.2041141387
 20
-12.6383584327
 30
0.0
 10
-18.1377674495
 20
-12.7221685109
 30
0.0
 10
-18.0897321759
 20
-12.7723663968
 30
0.0
 10
-18.0661799601
 20
-12.7934351931
 30
0.0
 11
-18.3029445726
 21
-12.4524370919
 31
0.0
 11
-18.2867987292
 21
-12.4965238119
 31
0.0
 11
-18.263593221
 21
-12.5424098506
 31
0.0
 11
-18.2028290861
 21
-12.6372086053
 31
0.0
 11
-18.1325132927
 21
-12.7257055954
 31
0.0
 11
-18.0661799601
 21
-12.7934351931
 31
0.0
  0
SPLINE
  5
3E3
100
AcDbEntity
  8
RACCORDO
100
AcDbSpline
 62
7
  6
CONTINUOUS
 70
0
 71
3
 72
11
 73
7
 74
5
 42
0.0000001
 43
0.0000001
 44
0.0000000001
 12
-0.0833045041
 22
-0.4359359848
 32
0.0
 13
0.3930894823
 23
-0.2060594142
 33
0.0
 40
0.0
 40
0.0
 40
0.0
 40
0.0
 40
0.2511517454
 40
0.4487455359
 40
0.6468958624
 40
1.0
 40
1.0
 40
1.0
 40
1.0
 10
-18.3633197707
 20
-12.4850372335
 30
0.0
 10
-18.3702937946
 20
-12.5215325947
 30
0.0
 10
-18.370261553
 20
-12.5893366734
 30
0.0
 10
-18.3467539724
 20
-12.6827551911
 30
0.0
 10
-18.2987505533
 20
-12.7827671763
 30
0.0
 10
-18.2396737273
 20
-12.8458612138
 30
0.0
 10
-18.193406553
 20
-12.870114691
 30
0.0
 11
-18.3633197707
 21
-12.4850372335
 31
0.0
 11
-18.3651598638
 21
-12.5964892394
 31
0.0
 11
-18.3440350618
 21
-12.6816037873
 31
0.0
 11
-18.3056162189
 21
-12.7607120676
 31
0.0
 11
-18.193406553
 21
-12.870114691
 31
0.0
  0
SPLINE
  5
3E4
100
AcDbEntity
  8
RACCORDO
100
AcDbSpline
 62
7
  6
CONTINUOUS
 70
0
 71
3
 72
12
 73
8
 74
6
 42
0.0000001
 43
0.0000001
 44
0.0000000001
 12
-0.441345228
 22
0.1390621656
 32
0.0
 13
0.1107198084
 23
0.4492939129
 33
0.0
 40
0.0
 40
0.0
 40
0.0
 40
0.0
 40
0.1130792618
 40
0.2328059822
 40
0.4871959537
 40
0.747793086
 40
1.0
 40
1.0
 40
1.0
 40
1.0
 10
-19.3789988339
 20
-13.7345863902
 30
0.0
 10
-19.395634498
 20
-13.7293447079
 30
0.0
 10
-19.4286343531
 20
-13.7140600145
 30
0.0
 10
-19.4872779359
 20
-13.6659537448
 30
0.0
 10
-19.538063572
 20
-13.5784411438
 30
0.0
 10
-19.557963574
 20
-13.4600160335
 30
0.0
 10
-19.548887355
 20
-13.3803671721
 30
0.0
 10
-19.5395792546
 20
-13.342595495
 30
0.0
 11
-19.3789988339
 21
-13.7345863902
 31
0.0
 11
-19.4265178567
 21
-13.712679143
 31
0.0
 11
-19.4695223054
 21
-13.6777510208
 31
0.0
 11
-19.530771779
 21
-13.5772255467
 31
0.0
 11
-19.5524022219
 21
-13.4585939192
 31
0.0
 11
-19.5395792546
 21
-13.342595495
 31
0.0
  0
SPLINE
  5
3E5
100
AcDbEntity
  8
RACCORDO
100
AcDbSpline
 62
7
  6
CONTINUOUS
 70
0
 71
3
 72
13
 73
9
 74
7
 42
0.0000001
 43
0.0000001
 44
0.0000000001
 12
-0.0674751306
 22
0.2265639571
 32
0.0
 13
0.2363073813
 23
-0.006552971
 33
0.0
 40
0.0
 40
0.0
 40
0.0
 40
0.0
 40
0.2945589199
 40
0.424784954
 40
0.543462679
 40
0.6533946805
 40
0.7606774794
 40
1.0
 40
1.0
 40
1.0
 40
1.0
 10
-19.5395792519
 20
26.197053531
 30
0.0
 10
-19.5462043858
 20
26.2192990091
 30
0.0
 10
-19.5531963605
 20
26.2524795617
 30
0.0
 10
-19.5524326492
 20
26.2954835723
 30
0.0
 10
-19.5463135624
 20
26.3233431372
 30
0.0
 10
-19.5338256147
 20
26.3471482755
 30
0.0
 10
-19.5068712225
 20
26.3721212256
 30
0.0
 10
-19.4777035052
 20
26.377453146
 30
0.0
 10
-19.4588522792
 20
26.3769303882
 30
0.0
 11
-19.5395792519
 21
26.197053531
 31
0.0
 11
-19.5522521866
 21
26.2655238165
 31
0.0
 11
-19.551350304
 21
26.2962958059
 31
0.0
 11
-19.5449244963
 21
26.3236052078
 31
0.0
 11
-19.5325107692
 21
26.3464363593
 31
0.0
 11
-19.5138330998
 21
26.3635929461
 31
0.0
 11
-19.4588522792
 21
26.3769303882
 31
0.0
  0
SPLINE
  5
3E6
100
AcDbEntity
  8
RACCORDO
100
AcDbSpline
 62
7
  6
CONTINUOUS
 70
0
 71
3
 72
11
 73
7
 74
5
 42
0.0000001
 43
0.0000001
 44
0.0000000001
 12
-0.1290177401
 22
0.0645089098
 32
0.0
 13
-0.0002138584
 23
0.1442460779
 33
0.0
 40
0.0
 40
0.0
 40
0.0
 40
0.0
 40
0.3021029428
 40
0.5655351349
 40
0.7935297513
 40
1.0
 40
1.0
 40
1.0
 40
1.0
 10
12.8880716757
 20
-29.7317162825
 30
0.0
 10
12.8750794627
 20
-29.725220172
 30
0.0
 10
12.8515776968
 20
-29.7112405139
 30
0.0
 10
12.8229804023
 20
-29.6854894204
 30
0.0
 10
12.8046499086
 20
-29.6567543279
 30
0.0
 10
12.8002224663
 20
-29.6357158366
 30
0.0
 10
12.8002077478
 20
-29.6257883287
 30
0.0
 11
12.8880716757
 21
-29.7317162825
 31
0.0
 11
12.8508612612
 21
-29.7090368093
 31
0.0
 11
12.8230833541
 21
-29.6831076819
 31
0.0
 11
12.8060078288
 21
-29.6550006501
 31
0.0
 11
12.8002077478
 21
-29.6257883287
 31
0.0
  0
SPLINE
  5
3E7
100
AcDbEntity
  8
RACCORDO
100
AcDbSpline
 62
7
  6
CONTINUOUS
 70
0
 71
3
 72
9
 73
5
 74
3
 42
0.0000001
 43
0.0000001
 44
0.0000000001
 12
0.0
 22
0.3499494896
 32
0.0
 13
0.2542494972
 23
0.2404617193
 33
0.0
 40
0.0
 40
0.0
 40
0.0
 40
0.0
 40
0.4929880284
 40
1.0
 40
1.0
 40
1.0
 40
1.0
 10
12.4828489039
 20
-30.0492267661
 30
0.0
 10
12.4828489039
 20
-29.9917197965
 30
0.0
 10
12.5126226811
 20
-29.8751945341
 30
0.0
 10
12.5794583298
 20
-29.7759371491
 30
0.0
 10
12.6224275095
 20
-29.735298159
 30
0.0
 11
12.4828489039
 21
-30.0492267661
 31
0.0
 11
12.5212125487
 21
-29.8810254143
 31
0.0
 11
12.6224275095
 21
-29.735298159
 31
0.0
  0
SPLINE
  5
3E8
100
AcDbEntity
  8
RACCORDO
100
AcDbSpline
 62
7
  6
CONTINUOUS
 70
0
 71
3
 72
9
 73
5
 74
3
 42
0.0000001
 43
0.0000001
 44
0.0000000001
 12
-0.0000000378
 22
0.3499494932
 32
0.0
 13
0.2542495257
 23
0.2404616945
 33
0.0
 40
0.0
 40
0.0
 40
0.0
 40
0.0
 40
0.4929880306
 40
1.0
 40
1.0
 40
1.0
 40
1.0
 10
-19.5185613767
 20
-14.0485216258
 30
0.0
 10
-19.5185613829
 20
-13.9910146554
 30
0.0
 10
-19.4887876117
 20
-13.8744893881
 30
0.0
 10
-19.4219519554
 20
-13.7752320044
 30
0.0
 10
-19.3789827712
 20
-13.7345930186
 30
0.0
 11
-19.5185613767
 21
-14.0485216258
 31
0.0
 11
-19.4801977405
 21
-13.8803202694
 31
0.0
 11
-19.3789827712
 21
-13.7345930186
 31
0.0
  0
SPLINE
  5
3E9
100
AcDbEntity
  8
RACCORDO
100
AcDbSpline
 62
7
  6
CONTINUOUS
 70
0
 71
3
 72
11
 73
7
 74
5
 42
0.0000001
 43
0.0000001
 44
0.0000000001
 12
0.351344799
 22
-0.1756723995
 32
0.0
 13
0.3707501259
 23
0.1298010165
 33
0.0
 40
0.0
 40
0.0
 40
0.0
 40
0.0
 40
0.2301996678
 40
0.4886873034
 40
0.7531669766
 40
1.0
 40
1.0
 40
1.0
 40
1.0
 10
-19.9237841485
 20
-13.3257883705
 30
0.0
 10
-19.8968243298
 20
-13.3392682798
 30
0.0
 10
-19.8353991951
 20
-13.3595306092
 30
0.0
 10
-19.7371379829
 20
-13.3720808214
 30
0.0
 10
-19.6359783179
 20
-13.367860335
 30
0.0
 10
-19.5700836414
 20
-13.3532748857
 30
0.0
 10
-19.5395791832
 20
-13.3425951599
 30
0.0
 11
-19.9237841485
 21
-13.3257883705
 31
0.0
 11
-19.8384375926
 21
-13.3556685213
 31
0.0
 11
-19.7377988369
 21
-13.369151558
 31
0.0
 11
-19.6340064006
 21
-13.3646112272
 31
0.0
 11
-19.5395791832
 21
-13.3425951599
 31
0.0
  0
SPLINE
  5
3EA
100
AcDbEntity
  8
RACCORDO
100
AcDbSpline
 62
7
  6
CONTINUOUS
 70
0
 71
3
 72
11
 73
7
 74
5
 42
0.0000001
 43
0.0000001
 44
0.0000000001
 12
0.3513450544
 22
-0.1756717083
 32
0.0
 13
0.3707502832
 23
0.1298003232
 33
0.0
 40
0.0
 40
0.0
 40
0.0
 40
0.0
 40
0.2301995877
 40
0.4886872501
 40
0.753166985
 40
1.0
 40
1.0
 40
1.0
 40
1.0
 10
-19.9237841485
 20
26.2138600461
 30
0.0
 10
-19.8968243196
 20
26.2003801945
 30
0.0
 10
-19.8353991831
 20
26.1801179539
 30
0.0
 10
-19.7371379893
 20
26.1675677864
 30
0.0
 10
-19.6359783371
 20
26.1717882264
 30
0.0
 10
-19.5700836533
 20
26.1863735883
 30
0.0
 10
-19.5395791832
 20
26.1970532567
 30
0.0
 11
-19.9237841485
 21
26.2138600461
 31
0.0
 11
-19.8384375996
 21
26.1839800269
 31
0.0
 11
-19.7377988483
 21
26.1704970348
 31
0.0
 11
-19.634006407
 21
26.1750373191
 31
0.0
 11
-19.5395791832
 21
26.1970532567
 31
0.0
  0
SPLINE
  5
3EB
100
AcDbEntity
  8
RACCORDO
100
AcDbSpline
 62
7
  6
CONTINUOUS
 70
0
 71
3
 72
11
 73
7
 74
5
 42
0.0000001
 43
0.0000001
 44
0.0000000001
 12
0.0
 22
-0.1887151356
 32
0.0
 13
0.1686414792
 23
-0.0846962448
 33
0.0
 40
0.0
 40
0.0
 40
0.0
 40
0.0
 40
0.289561128
 40
0.5496260088
 40
0.7828372969
 40
1.0
 40
1.0
 40
1.0
 40
1.0
 10
-19.5185613767
 20
26.5313705297
 30
0.0
 10
-19.5185613767
 20
26.5131556739
 30
0.0
 10
-19.5156101909
 20
26.4784527761
 30
0.0
 10
-19.5008149767
 20
26.4309803565
 30
0.0
 10
-19.4760676795
 20
26.3929539099
 30
0.0
 10
-19.4529815614
 20
26.3753285873
 30
0.0
 10
-19.4407740149
 20
26.3691976321
 30
0.0
 11
-19.5185613767
 21
26.5313705297
 31
0.0
 11
-19.5133878012
 21
26.4769714224
 31
0.0
 11
-19.4981226795
 21
26.4303276261
 31
0.0
 11
-19.4735250217
 21
26.3938327041
 31
0.0
 11
-19.4407740149
 21
26.3691976321
 31
0.0
  0
SPLINE
  5
3EC
100
AcDbEntity
  8
RACCORDO
100
AcDbSpline
 62
7
  6
CONTINUOUS
 70
0
 71
3
 72
11
 73
7
 74
5
 42
0.0000001
 43
0.0000001
 44
0.0000000001
 12
0.0000000204
 22
-0.1889139627
 32
0.0
 13
0.1689716008
 23
-0.0844812608
 33
0.0
 40
0.0
 40
0.0
 40
0.0
 40
0.0
 40
0.2895956157
 40
0.5496517743
 40
0.782834843
 40
1.0
 40
1.0
 40
1.0
 40
1.0
 10
12.4828489039
 20
10.5306653894
 30
0.0
 10
12.4828489059
 20
10.512429171
 30
0.0
 10
12.4858066517
 20
10.4776876925
 30
0.0
 10
12.5006377458
 20
10.4301700812
 30
0.0
 10
12.5254462755
 20
10.3921259162
 30
0.0
 10
12.5485847845
 20
10.3745177058
 30
0.0
 10
12.5608163659
 20
10.3684022438
 30
0.0
 11
12.4828489039
 21
10.5306653894
 31
0.0
 11
12.4880352331
 21
10.4762031185
 31
0.0
 11
12.5033374195
 21
10.4295187849
 31
0.0
 11
12.5279926949
 21
10.3930132325
 31
0.0
 11
12.5608163659
 21
10.3684022438
 31
0.0
  0
SPLINE
  5
3ED
100
AcDbEntity
  8
RACCORDO
100
AcDbSpline
 62
7
  6
CONTINUOUS
 70
0
 71
3
 72
11
 73
7
 74
5
 42
0.0000001
 43
0.0000001
 44
0.0000000001
 12
-0.1291394801
 22
0.0645697401
 32
0.0
 13
0.0000513271
 23
0.144382319
 33
0.0
 40
0.0
 40
0.0
 40
0.0
 40
0.0
 40
0.3021491765
 40
0.5655722792
 40
0.7935305764
 40
1.0
 40
1.0
 40
1.0
 40
1.0
 10
12.8880716757
 20
9.8079321341
 30
0.0
 10
12.8750652131
 20
9.8144353653
 30
0.0
 10
12.8515403973
 20
9.8284310447
 30
0.0
 10
12.8229247176
 20
9.8542175612
 30
0.0
 10
12.8046016902
 20
9.8829956364
 30
0.0
 10
12.8002041376
 20
9.9040613062
 30
0.0
 10
12.8002076701
 20
9.9139981509
 30
0.0
 11
12.8880716757
 21
9.8079321341
 31
0.0
 11
12.8508228084
 21
9.8306403407
 31
0.0
 11
12.8230304317
 21
9.8566045782
 31
0.0
 11
12.8059673409
 21
9.8847493175
 31
0.0
 11
12.8002076701
 21
9.9139981509
 31
0.0
  0
SPLINE
  5
3EE
100
AcDbEntity
  8
RACCORDO
100
AcDbSpline
 62
7
  6
CONTINUOUS
 70
0
 71
3
 72
9
 73
5
 74
3
 42
0.0000001
 43
0.0000001
 44
0.0000000001
 12
-0.0589855135
 22
-0.0284813438
 32
0.0
 13
-0.0618225118
 23
-0.0216438161
 33
0.0
 40
0.0
 40
0.0
 40
0.0
 40
0.0
 40
0.242176738
 40
1.0
 40
1.0
 40
1.0
 40
1.0
 10
-18.3034366672
 20
-12.448046674
 30
0.0
 10
-18.308198307
 20
-12.450345847
 30
0.0
 10
-18.3280074873
 20
-12.4595331845
 30
0.0
 10
-18.3483607884
 20
-12.4675323392
 30
0.0
 10
-18.3639776343
 20
-12.472999735
 30
0.0
 11
-18.3034366672
 21
-12.448046674
 31
0.0
 11
-18.3178248648
 21
-12.4547260795
 31
0.0
 11
-18.3639776343
 21
-12.472999735
 31
0.0
  0
SPLINE
  5
3EF
100
AcDbEntity
  8
RACCORDO
100
AcDbSpline
 62
7
  6
CONTINUOUS
 70
0
 71
3
 72
9
 73
5
 74
3
 42
0.0000001
 43
0.0000001
 44
0.0000000001
 12
-0.0583444953
 22
-0.0361522703
 32
0.0
 13
-0.0621215538
 23
-0.029188685
 33
0.0
 40
0.0
 40
0.0
 40
0.0
 40
0.0
 40
0.2434976864
 40
1.0
 40
1.0
 40
1.0
 40
1.0
 10
-18.3029566094
 20
-12.4524311258
 30
0.0
 10
-18.3076921926
 20
-12.4553654572
 30
0.0
 10
-18.3273283417
 20
-12.4671115027
 30
0.0
 10
-18.3476710619
 20
-12.4776651481
 30
0.0
 10
-18.363336095
 20
-12.485025584
 30
0.0
 11
-18.3029566094
 21
-12.4524311258
 31
0.0
 11
-18.3172967997
 21
-12.4610150283
 31
0.0
 11
-18.363336095
 21
-12.485025584
 31
0.0
  0
SPLINE
  5
3F0
100
AcDbEntity
  8
RACCORDO
100
AcDbSpline
 62
7
  6
CONTINUOUS
 70
0
 71
3
 72
9
 73
5
 74
3
 42
0.0000001
 43
0.0000001
 44
0.0000000001
 12
-0.137051042
 22
-0.0578506098
 32
0.0
 13
-0.1164664418
 23
-0.092548631
 33
0.0
 40
0.0
 40
0.0
 40
0.0
 40
0.0
 40
0.239451421
 40
1.0
 40
1.0
 40
1.0
 40
1.0
 10
-18.0661799532
 20
-12.7934347244
 30
0.0
 10
-18.0771189754
 20
-12.7980521946
 30
0.0
 10
-18.1220476059
 20
-12.8191106166
 30
0.0
 10
-18.1637850133
 20
-12.8467133197
 30
0.0
 10
-18.1933111423
 20
-12.8701758963
 30
0.0
 11
-18.0661799532
 21
-12.7934347244
 31
0.0
 11
-18.0984524491
 21
-12.8085123621
 31
0.0
 11
-18.1933111423
 21
-12.8701758963
 31
0.0
  0
SPLINE
  5
3F1
100
AcDbEntity
  8
RACCORDO
100
AcDbSpline
 62
7
  6
CONTINUOUS
 70
0
 71
3
 72
9
 73
5
 74
3
 42
0.0000001
 43
0.0000001
 44
0.0000000001
 12
-0.1260316343
 22
-0.0657101216
 32
0.0
 13
-0.1032641788
 23
-0.0976642324
 33
0.0
 40
0.0
 40
0.0
 40
0.0
 40
0.0
 40
0.2371046482
 40
1.0
 40
1.0
 40
1.0
 40
1.0
 10
-18.0594554771
 20
-12.7978009324
 30
0.0
 10
-18.0694163726
 20
-12.8029943242
 30
0.0
 10
-18.1105310911
 20
-12.8266078131
 30
0.0
 10
-18.1479475803
 20
-12.8563889927
 30
0.0
 10
-18.174207501
 20
-12.8812248557
 30
0.0
 11
-18.0594554771
 21
-12.7978009324
 31
0.0
 11
-18.088705445
 21
-12.8145387992
 31
0.0
 11
-18.174207501
 21
-12.8812248557
 31
0.0
  0
SPLINE
  5
3F2
100
AcDbEntity
  8
0
100
AcDbSpline
 62
7
  6
CONTINUOUS
 70
0
 71
3
 72
9
 73
5
 74
3
 42
0.0000001
 43
0.0000001
 44
0.0000000001
 12
-0.1087199623
 22
0.5446236221
 32
0.0
 13
-0.1090135263
 23
0.5445649374
 33
0.0
 40
0.0
 40
0.0
 40
0.0
 40
0.0
 40
0.4998343578
 40
1.0
 40
1.0
 40
1.0
 40
1.0
 10
-0.6647672546
 20
-25.4987681705
 30
0.0
 10
-0.6828812454
 20
-25.4080276377
 30
0.0
 10
-0.717282613
 20
-25.2261256936
 30
0.0
 10
-0.7525468157
 20
-25.0443908996
 30
0.0
 10
-0.7707217559
 20
-24.9536000091
 30
0.0
 11
-0.6647672546
 21
-25.4987681705
 31
0.0
 11
-0.7174867823
 21
-25.2262277147
 31
0.0
 11
-0.7707217559
 21
-24.9536000091
 31
0.0
  0
SPLINE
  5
3F3
100
AcDbEntity
  8
0
100
AcDbSpline
 62
7
  6
CONTINUOUS
 70
0
 71
3
 72
10
 73
6
 74
4
 42
0.0000001
 43
0.0000001
 44
0.0000000001
 12
-0.0804064484
 22
0.4016808253
 32
0.0
 13
-0.225441423
 23
0.3420363243
 33
0.0
 40
0.0
 40
0.0
 40
0.0
 40
0.0
 40
0.2355950055
 40
0.6170372298
 40
1.0
 40
1.0
 40
1.0
 40
1.0
 10
-0.7707217559
 20
-24.9536000091
 30
0.0
 10
-0.7770362084
 20
-24.9220553437
 30
0.0
 10
-0.7929614664
 20
-24.8392884054
 30
0.0
 10
-0.8289403553
 20
-24.7074291171
 30
0.0
 10
-0.8722309466
 20
-24.6111258379
 30
0.0
 10
-0.9010095039
 20
-24.5674634451
 30
0.0
 11
-0.7707217559
 21
-24.9536000091
 31
0.0
 11
-0.7901120633
 21
-24.8590565798
 31
0.0
 11
-0.8328169978
 21
-24.7087478081
 31
0.0
 11
-0.9010095039
 21
-24.5674634451
 31
0.0
  0
SPLINE
  5
3F4
100
AcDbEntity
  8
0
100
AcDbSpline
 62
7
  6
CONTINUOUS
 70
0
 71
3
 72
9
 73
5
 74
3
 42
0.0000001
 43
0.0000001
 44
0.0000000001
 12
-0.0403327647
 22
0.0611922619
 32
0.0
 13
-0.0514858012
 23
0.0521578096
 33
0.0
 40
0.0
 40
0.0
 40
0.0
 40
0.0
 40
0.2559959607
 40
1.0
 40
1.0
 40
1.0
 40
1.0
 10
-0.9010095039
 20
-24.5674634451
 30
0.0
 10
-0.9044511788
 20
-24.5622417879
 30
0.0
 10
-0.9183058515
 20
-24.5421239074
 30
0.0
 10
-0.9339533551
 20
-24.5231932309
 30
0.0
 10
-0.9467219031
 20
-24.5102580239
 30
0.0
 11
-0.9010095039
 21
-24.5674634451
 31
0.0
 11
-0.9116621506
 21
-24.5520193977
 31
0.0
 11
-0.9467219031
 21
-24.5102580239
 31
0.0
  0
SPLINE
  5
3F5
100
AcDbEntity
  8
IMPORT_IGES
100
AcDbSpline
 62
7
  6
CONTINUOUS
 70
0
 71
3
 72
8
 73
4
 74
2
 42
0.0000001
 43
0.0000001
 44
0.0000000001
 12
-0.0588659057
 22
0.01296514
 32
0.0
 13
-0.0594111408
 23
0.0251288734
 33
0.0
 40
0.0
 40
0.0
 40
0.0
 40
0.0
 40
1.0
 40
1.0
 40
1.0
 40
1.0
 10
-1.1918387987
 20
-24.2145739514
 30
0.0
 10
-1.2114607673
 20
-24.2102522381
 30
0.0
 10
-1.2316690513
 20
-24.2033112124
 30
0.0
 10
-1.2514727649
 20
-24.1949349213
 30
0.0
 11
-1.1918387987
 21
-24.2145739514
 31
0.0
 11
-1.2514727649
 21
-24.1949349213
 31
0.0
  0
SPLINE
  5
3F6
100
AcDbEntity
  8
IMPORT_IGES
100
AcDbSpline
 62
7
  6
CONTINUOUS
 70
0
 71
3
 72
9
 73
5
 74
3
 42
0.0000001
 43
0.0000001
 44
0.0000000001
 12
-0.0719484215
 22
0.3594276568
 32
0.0
 13
-0.1990361688
 23
0.332124161
 33
0.0
 40
0.0
 40
0.0
 40
0.0
 40
0.0
 40
0.3064912004
 40
1.0
 40
1.0
 40
1.0
 40
1.0
 10
-0.7707217559
 20
-24.9536000091
 30
0.0
 10
-0.7780722752
 20
-24.9168795378
 30
0.0
 10
-0.8003023825
 20
-24.8001122275
 30
0.0
 10
-0.8438913267
 20
-24.6619200221
 30
0.0
 10
-0.8899024382
 20
-24.5851430127
 30
0.0
 11
-0.7707217559
 21
-24.9536000091
 31
0.0
 11
-0.7937053217
 21
-24.8432906443
 31
0.0
 11
-0.8899024382
 21
-24.5851430127
 31
0.0
  0
SPLINE
  5
3F7
100
AcDbEntity
  8
IMPORT_IGES
100
AcDbSpline
 62
7
  6
CONTINUOUS
 70
0
 71
3
 72
8
 73
4
 74
2
 42
0.0000001
 43
0.0000001
 44
0.0000000001
 12
-0.0523574717
 22
0.0873669417
 32
0.0
 13
-0.0668832013
 23
0.0661051502
 33
0.0
 40
0.0
 40
0.0
 40
0.0
 40
0.0
 40
1.0
 40
1.0
 40
1.0
 40
1.0
 10
-0.8899024382
 20
-24.5851430127
 30
0.0
 10
-0.9073549287
 20
-24.5560206988
 30
0.0
 10
-0.9270780462
 20
-24.52964074
 30
0.0
 10
-0.9493724466
 20
-24.5076056899
 30
0.0
 11
-0.8899024382
 21
-24.5851430127
 31
0.0
 11
-0.9493724466
 21
-24.5076056899
 31
0.0
  0
SPLINE
  5
3F8
100
AcDbEntity
  8
IMPORT_IGES
100
AcDbSpline
 62
7
  6
CONTINUOUS
 70
0
 71
3
 72
9
 73
5
 74
3
 42
0.0000001
 43
0.0000001
 44
0.0000000001
 12
-0.1089310306
 22
0.5456809512
 32
0.0
 13
-0.1092475052
 23
0.545733753
 33
0.0
 40
0.0
 40
0.0
 40
0.0
 40
0.0
 40
0.1980141723
 40
1.0
 40
1.0
 40
1.0
 40
1.0
 10
-0.6647672546
 20
-25.4987681705
 30
0.0
 10
-0.6719572172
 20
-25.4627506498
 30
0.0
 10
-0.7071488625
 20
-25.2810483076
 30
0.0
 10
-0.7415167723
 20
-25.0994902543
 30
0.0
 10
-0.7707217559
 20
-24.9536000091
 30
0.0
 11
-0.6647672546
 21
-25.4987681705
 31
0.0
 11
-0.6858618079
 21
-25.3907970295
 31
0.0
 11
-0.7707217559
 21
-24.9536000091
 31
0.0
  0
SPLINE
  5
3F9
100
AcDbEntity
  8
IMPORT_IGES
100
AcDbSpline
 62
7
  6
CONTINUOUS
 70
0
 71
3
 72
9
 73
5
 74
3
 42
0.0000001
 43
0.0000001
 44
0.0000000001
 12
-0.7242720778
 22
0.6826063808
 32
0.0
 13
-0.7618885033
 23
0.2436665522
 33
0.0
 40
0.0
 40
0.0
 40
0.0
 40
0.0
 40
0.2957417834
 40
1.0
 40
1.0
 40
1.0
 40
1.0
 10
-0.9813280392
 20
-23.562379418
 30
0.0
 10
-1.0527272112
 20
-23.4950876752
 30
0.0
 10
-1.3093640119
 20
-23.3152721762
 30
0.0
 10
-1.5673469923
 20
-23.2179976405
 30
0.0
 10
-1.7462024051
 20
-23.16079625
 30
0.0
 11
-0.9813280392
 21
-23.562379418
 31
0.0
 11
-1.2046414026
 21
-23.3959490595
 31
0.0
 11
-1.7462024051
 21
-23.16079625
 31
0.0
  0
SPLINE
  5
3FA
100
AcDbEntity
  8
IMPORT_IGES
100
AcDbSpline
 62
7
  6
CONTINUOUS
 70
0
 71
3
 72
9
 73
5
 74
3
 42
0.0000001
 43
0.0000001
 44
0.0000000001
 12
0.0443426486
 22
0.0221713243
 32
0.0
 13
0.0397038801
 23
0.0264877824
 33
0.0
 40
0.0
 40
0.0
 40
0.0
 40
0.0
 40
0.0529699826
 40
1.0
 40
1.0
 40
1.0
 40
1.0
 10
-0.9063411588
 20
-24.4901672979
 30
0.0
 10
-0.9055582157
 20
-24.4897758264
 30
0.0
 10
-0.8908211064
 20
-24.4823250628
 30
0.0
 10
-0.8767783717
 20
-24.4745159448
 30
0.0
 10
-0.864244783
 20
-24.4661543698
 30
0.0
 11
-0.9063411588
 21
-24.4901672979
 31
0.0
 11
-0.9039989151
 21
-24.4889854873
 31
0.0
 11
-0.864244783
 21
-24.4661543698
 31
0.0
  0
SPLINE
  5
3FB
100
AcDbEntity
  8
IMPORT_IGES
100
AcDbSpline
 62
7
  6
CONTINUOUS
 70
0
 71
3
 72
16
 73
12
 74
10
 42
0.0000001
 43
0.0000001
 44
0.0000000001
 12
0.5918942464
 22
0.3948723892
 32
0.0
 13
-0.7723802419
 23
0.7274516852
 33
0.0
 40
0.0
 40
0.0
 40
0.0
 40
0.0
 40
0.063526156
 40
0.2350520403
 40
0.3378746638
 40
0.4554210254
 40
0.5509332403
 40
0.636789735
 40
0.7863333931
 40
0.909918364
 40
1.0
 40
1.0
 40
1.0
 40
1.0
 10
-0.864244783
 20
-24.4661543698
 30
0.0
 10
-0.8517111942
 20
-24.4577927948
 30
0.0
 10
-0.8081675603
 20
-24.4232796029
 30
0.0
 10
-0.7634418684
 20
-24.3419686642
 30
0.0
 10
-0.7397714975
 20
-24.225313613
 30
0.0
 10
-0.7375477136
 20
-24.1197812907
 30
0.0
 10
-0.7492673024
 20
-24.0143166653
 30
0.0
 10
-0.7776715619
 20
-23.8942766324
 30
0.0
 10
-0.8310205738
 20
-23.7638786741
 30
0.0
 10
-0.9063452275
 20
-23.6451018828
 30
0.0
 10
-0.9581356139
 20
-23.584222764
 30
0.0
 10
-0.9813280392
 20
-23.562379418
 30
0.0
 11
-0.864244783
 21
-24.4661543698
 31
0.0
 11
-0.8290824661
 21
-24.4375266173
 31
0.0
 11
-0.7620658404
 21
-24.3193206411
 31
0.0
 11
-0.7432208178
 21
-24.2279491486
 31
0.0
 11
-0.7403917788
 21
-24.111204872
 31
0.0
 11
-0.7519912518
 21
-24.0104104223
 31
0.0
 11
-0.7741706217
 21
-23.9173642407
 31
0.0
 11
-0.8396907207
 21
-23.7574151555
 31
0.0
 11
-0.915795414
 21
-23.6371545651
 31
0.0
 11
-0.9813280392
 21
-23.562379418
 31
0.0
  0
SPLINE
  5
3FC
100
AcDbEntity
  8
CURVE
100
AcDbSpline
 62
7
  6
CONTINUOUS
 70
0
 71
3
 72
27
 73
23
 74
21
 42
0.0000001
 43
0.0000001
 44
0.0000000001
 12
0.5420671437
 22
-0.028419821
 32
0.0
 13
0.5668876432
 23
-0.5347742829
 33
0.0
 40
0.0
 40
0.0
 40
0.0
 40
0.0
 40
0.125
 40
0.15625
 40
0.1875
 40
0.25
 40
0.3125
 40
0.34375
 40
0.375
 40
0.4375
 40
0.46875
 40
0.5
 40
0.53125
 40
0.5625
 40
0.625
 40
0.65625
 40
0.6875
 40
0.75
 40
0.8125
 40
0.84375
 40
0.875
 40
1.0
 40
1.0
 40
1.0
 40
1.0
 10
2.0991683469
 20
-21.8455210456
 30
0.0
 10
2.1217544779
 20
-21.8467052049
 30
0.0
 10
2.1502208243
 20
-21.8488742998
 30
0.0
 10
2.1836793919
 20
-21.8494105259
 30
0.0
 10
2.2074806729
 20
-21.8541769439
 30
0.0
 10
2.2377799329
 20
-21.8618504936
 30
0.0
 10
2.267823731
 20
-21.8684004962
 30
0.0
 10
2.292033751
 20
-21.8749645895
 30
0.0
 10
2.3167266683
 20
-21.8859628526
 30
0.0
 10
2.3412825822
 20
-21.8955270971
 30
0.0
 10
2.3658873334
 20
-21.9060677699
 30
0.0
 10
2.3843313885
 20
-21.9124780083
 30
0.0
 10
2.402789058
 20
-21.9243810973
 30
0.0
 10
2.4274021727
 20
-21.9382659604
 30
0.0
 10
2.4519707268
 20
-21.9530806553
 30
0.0
 10
2.4766707963
 20
-21.9665952968
 30
0.0
 10
2.5009042181
 20
-21.984070376
 30
0.0
 10
2.5310177812
 20
-22.0073902028
 30
0.0
 10
2.5612562853
 20
-22.0297069694
 30
0.0
 10
2.5852898014
 20
-22.0487869448
 30
0.0
 10
2.6205772491
 20
-22.0833188212
 30
0.0
 10
2.6501821083
 20
-22.1105558242
 30
0.0
 10
2.6738024268
 20
-22.1328380859
 30
0.0
 11
2.0991683469
 21
-21.8455210456
 31
0.0
 11
2.1669267398
 21
-21.8490735233
 31
0.0
 11
2.1838663381
 21
-21.8499616427
 31
0.0
 11
2.2015668633
 21
-21.8530997079
 31
0.0
 11
2.2377288405
 21
-21.8616257842
 31
0.0
 11
2.2738908178
 21
-21.8701518605
 31
0.0
 11
2.2920941132
 21
-21.8755188608
 31
0.0
 11
2.310542022
 21
-21.8830937853
 31
0.0
 11
2.3474378398
 21
-21.8982436343
 31
0.0
 11
2.3658857487
 21
-21.9058185589
 31
0.0
 11
2.3843336575
 21
-21.9133934834
 31
0.0
 11
2.4027894191
 21
-21.924132857
 31
0.0
 11
2.4212451807
 21
-21.9348722306
 31
0.0
 11
2.4581567038
 21
-21.9563509779
 31
0.0
 11
2.4766124653
 21
-21.9670903515
 31
0.0
 11
2.4948339817
 21
-21.9798000047
 31
0.0
 11
2.5310427694
 21
-22.0071895907
 31
0.0
 11
2.567251557
 21
-22.0345791768
 31
0.0
 11
2.5852262325
 21
-22.0492796042
 31
0.0
 11
2.6029414714
 21
-22.0659913006
 31
0.0
 11
2.6738024268
 21
-22.1328380859
 31
0.0
  0
SPLINE
  5
3FD
100
AcDbEntity
  8
CURVE
100
AcDbSpline
 62
7
  6
CONTINUOUS
 70
0
 71
3
 72
9
 73
5
 74
3
 42
0.0000001
 43
0.0000001
 44
0.0000000001
 12
0.1109448157
 22
-0.3917433667
 32
0.0
 13
0.0103475798
 23
-0.3678617258
 33
0.0
 40
0.0
 40
0.0
 40
0.0
 40
0.0
 40
0.5
 40
1.0
 40
1.0
 40
1.0
 40
1.0
 10
-17.2261620649
 20
3.4861837534
 30
0.0
 10
-17.2076712623
 20
3.4208931923
 30
0.0
 10
-17.1737443351
 20
3.2895424877
 30
0.0
 10
-17.1667417099
 20
3.1646433155
 30
0.0
 10
-17.1650171133
 20
3.1033330278
 30
0.0
 11
-17.2261620649
 21
3.4861837534
 31
0.0
 11
-17.1804754106
 21
3.2911553708
 31
0.0
 11
-17.1650171133
 21
3.1033330278
 31
0.0
  0
SPLINE
  5
3FE
100
AcDbEntity
  8
CURVE
100
AcDbSpline
 62
7
  6
CONTINUOUS
 70
0
 71
3
 72
9
 73
5
 74
3
 42
0.0000001
 43
0.0000001
 44
0.0000000001
 12
-0.0103348595
 22
-0.3572978403
 32
0.0
 13
-0.1110071496
 23
-0.2809771328
 33
0.0
 40
0.0
 40
0.0
 40
0.0
 40
0.0
 40
0.5
 40
1.0
 40
1.0
 40
1.0
 40
1.0
 10
-17.1650171133
 20
3.1033330183
 30
0.0
 10
-17.1667395899
 20
3.0437833783
 30
0.0
 10
-17.173737956
 20
2.9258843332
 30
0.0
 10
-17.2076608701
 20
2.828456764
 30
0.0
 10
-17.2261620617
 20
2.7816272418
 30
0.0
 11
-17.1650171133
 21
3.1033330183
 31
0.0
 11
-17.180469093
 21
2.9310022022
 31
0.0
 11
-17.2261620617
 21
2.7816272418
 31
0.0
  0
SPLINE
  5
3FF
100
AcDbEntity
  8
RACCORDO
100
AcDbSpline
 62
7
  6
CONTINUOUS
 70
0
 71
3
 72
11
 73
7
 74
5
 42
0.0000001
 43
0.0000001
 44
0.0000000001
 12
-0.000017673
 22
0.2406218091
 32
0.0
 13
-0.2152186894
 23
0.1076093447
 33
0.0
 40
0.0
 40
0.0
 40
0.0
 40
0.0
 40
0.206582075
 40
0.434482042
 40
0.6975295886
 40
1.0
 40
1.0
 40
1.0
 40
1.0
 10
-16.783479697
 20
-3.1820735636
 30
0.0
 10
-16.783480914
 20
-3.1655041794
 30
0.0
 10
-16.7908161639
 20
-3.130392052
 30
0.0
 10
-16.8213642554
 20
-3.08247516
 30
0.0
 10
-16.8689994024
 20
-3.0394559724
 30
0.0
 10
-16.9082270956
 20
-3.0161683326
 30
0.0
 10
-16.9299261908
 20
-3.005318785
 30
0.0
 11
-16.783479697
 21
-3.1820735636
 31
0.0
 11
-16.7930996327
 21
-3.133305159
 31
0.0
 11
-16.8215433824
 21
-3.086420975
 31
0.0
 11
-16.8677738713
 21
-3.0431890889
 31
0.0
 11
-16.9299261908
 21
-3.005318785
 31
0.0
  0
SPLINE
  5
400
100
AcDbEntity
  8
RACCORDO
100
AcDbSpline
 62
7
  6
CONTINUOUS
 70
0
 71
3
 72
11
 73
7
 74
5
 42
0.0000001
 43
0.0000001
 44
0.0000000001
 12
0.0000171752
 22
-0.2338432201
 32
0.0
 13
-0.2076592723
 23
-0.1075187357
 33
0.0
 40
0.0
 40
0.0
 40
0.0
 40
0.0
 40
0.2077698318
 40
0.4361255549
 40
0.6987067635
 40
1.0
 40
1.0
 40
1.0
 40
1.0
 10
-16.783479697
 20
-2.3160481598
 30
0.0
 10
-16.7834785075
 20
-2.3322433486
 30
0.0
 10
-16.7904394317
 20
-2.366493153
 30
0.0
 10
-16.8196198596
 20
-2.4134656536
 30
0.0
 10
-16.8652654734
 20
-2.4558361282
 30
0.0
 10
-16.9029542364
 20
-2.4789364465
 30
0.0
 10
-16.9238096812
 20
-2.4897346691
 30
0.0
 11
-16.783479697
 21
-2.3160481598
 31
0.0
 11
-16.7926648461
 21
-2.3637575962
 31
0.0
 11
-16.8198743711
 21
-2.4097047582
 31
0.0
 11
-16.8641626957
 21
-2.452235365
 31
0.0
 11
-16.9238096812
 21
-2.4897346691
 31
0.0
  0
SPLINE
  5
401
100
AcDbEntity
  8
ASSI
100
AcDbSpline
 62
7
  6
CONTINUOUS
 70
0
 71
3
 72
8
 73
4
 74
2
 42
0.0000001
 43
0.0000001
 44
0.0000000001
 12
0.0017199875
 22
-0.0008550395
 32
0.0
 13
0.0000082235
 23
-0.0019207763
 33
0.0
 40
0.0
 40
0.0
 40
0.0
 40
0.0
 40
1.0
 40
1.0
 40
1.0
 40
1.0
 10
-2.4277715629
 20
-17.2184731398
 30
0.0
 10
-2.4271982337
 20
-17.218758153
 30
0.0
 10
-2.4267558212
 20
-17.2194614209
 30
0.0
 10
-2.42675308
 20
-17.2201016796
 30
0.0
 11
-2.4277715629
 21
-17.2184731398
 31
0.0
 11
-2.42675308
 21
-17.2201016796
 31
0.0
  0
SPLINE
  5
402
100
AcDbEntity
  8
ASSI
100
AcDbSpline
 62
7
  6
CONTINUOUS
 70
0
 71
3
 72
8
 73
4
 74
2
 42
0.0000001
 43
0.0000001
 44
0.0000000001
 12
-0.032268327
 22
0.0161247358
 32
0.0
 13
-0.0345239903
 23
0.0104568695
 33
0.0
 40
0.0
 40
0.0
 40
0.0
 40
0.0
 40
1.0
 40
1.0
 40
1.0
 40
1.0
 10
-6.6211353311
 20
-15.1217912557
 30
0.0
 10
-6.6318914401
 20
-15.1164163438
 30
0.0
 10
-6.6430849007
 20
-15.111791951
 30
0.0
 10
-6.6545928975
 20
-15.1083063278
 30
0.0
 11
-6.6211353311
 21
-15.1217912557
 31
0.0
 11
-6.6545928975
 21
-15.1083063278
 31
0.0
  0
SPLINE
  5
403
100
AcDbEntity
  8
ASSI
100
AcDbSpline
 62
7
  6
CONTINUOUS
 70
0
 71
3
 72
9
 73
5
 74
3
 42
0.0000001
 43
0.0000001
 44
0.0000000001
 12
-0.0479673986
 22
0.0145287038
 32
0.0
 13
-0.0500426309
 23
-0.0027730218
 33
0.0
 40
0.0
 40
0.0
 40
0.0
 40
0.0
 40
0.257878631
 40
1.0
 40
1.0
 40
1.0
 40
1.0
 10
-6.6545928975
 20
-15.1083063278
 30
0.0
 10
-6.6587161532
 20
-15.1070574471
 30
0.0
 10
-6.6748599234
 20
-15.1027826177
 30
0.0
 10
-6.6917599876
 20
-15.1010168659
 30
0.0
 10
-6.7041392229
 20
-15.1017028388
 30
0.0
 11
-6.6545928975
 21
-15.1083063278
 31
0.0
 11
-6.6670927145
 21
-15.1050195299
 31
0.0
 11
-6.7041392229
 21
-15.1017028388
 31
0.0
  0
SPLINE
  5
404
100
AcDbEntity
  8
ASSI
100
AcDbSpline
 62
7
  6
CONTINUOUS
 70
0
 71
3
 72
8
 73
4
 74
2
 42
0.0000001
 43
0.0000001
 44
0.0000000001
 12
-0.0213414878
 22
-0.0011825999
 32
0.0
 13
-0.0206349063
 23
-0.005572996
 33
0.0
 40
0.0
 40
0.0
 40
0.0
 40
0.0
 40
1.0
 40
1.0
 40
1.0
 40
1.0
 10
-6.7041392229
 20
-15.1017028388
 30
0.0
 10
-6.7112530521
 20
-15.1020970388
 30
0.0
 10
-6.7183767164
 20
-15.103158905
 30
0.0
 10
-6.7252550185
 20
-15.1050165703
 30
0.0
 11
-6.7041392229
 21
-15.1017028388
 31
0.0
 11
-6.7252550185
 21
-15.1050165703
 31
0.0
  0
SPLINE
  5
405
100
AcDbEntity
  8
ASSI
100
AcDbSpline
 62
7
  6
CONTINUOUS
 70
0
 71
3
 72
8
 73
4
 74
2
 42
0.0000001
 43
0.0000001
 44
0.0000000001
 12
-0.032268327
 22
0.0161247358
 32
0.0
 13
-0.0345239903
 23
0.0104568695
 33
0.0
 40
0.0
 40
0.0
 40
0.0
 40
0.0
 40
1.0
 40
1.0
 40
1.0
 40
1.0
 10
9.2887672456
 20
-23.076742544
 30
0.0
 10
9.2780111366
 20
-23.0713676321
 30
0.0
 10
9.266817676
 20
-23.0667432394
 30
0.0
 10
9.2553096792
 20
-23.0632576162
 30
0.0
 11
9.2887672456
 21
-23.076742544
 31
0.0
 11
9.2553096792
 21
-23.0632576162
 31
0.0
  0
SPLINE
  5
406
100
AcDbEntity
  8
ASSI
100
AcDbSpline
 62
7
  6
CONTINUOUS
 70
0
 71
3
 72
9
 73
5
 74
3
 42
0.0000001
 43
0.0000001
 44
0.0000000001
 12
-0.0479673986
 22
0.0145287038
 32
0.0
 13
-0.0500426309
 23
-0.0027730218
 33
0.0
 40
0.0
 40
0.0
 40
0.0
 40
0.0
 40
0.257878631
 40
1.0
 40
1.0
 40
1.0
 40
1.0
 10
9.2553096792
 20
-23.0632576162
 30
0.0
 10
9.2511864235
 20
-23.0620087354
 30
0.0
 10
9.2350426533
 20
-23.0577339061
 30
0.0
 10
9.2181425891
 20
-23.0559681543
 30
0.0
 10
9.2057633538
 20
-23.0566541272
 30
0.0
 11
9.2553096792
 21
-23.0632576162
 31
0.0
 11
9.2428098622
 21
-23.0599708183
 31
0.0
 11
9.2057633538
 21
-23.0566541272
 31
0.0
  0
SPLINE
  5
407
100
AcDbEntity
  8
ASSI
100
AcDbSpline
 62
7
  6
CONTINUOUS
 70
0
 71
3
 72
8
 73
4
 74
2
 42
0.0000001
 43
0.0000001
 44
0.0000000001
 12
-0.0213414878
 22
-0.0011825999
 32
0.0
 13
-0.0206349063
 23
-0.005572996
 33
0.0
 40
0.0
 40
0.0
 40
0.0
 40
0.0
 40
1.0
 40
1.0
 40
1.0
 40
1.0
 10
9.2057633538
 20
-23.0566541272
 30
0.0
 10
9.1986495246
 20
-23.0570483272
 30
0.0
 10
9.1915258603
 20
-23.0581101933
 30
0.0
 10
9.1846475582
 20
-23.0599678586
 30
0.0
 11
9.2057633538
 21
-23.0566541272
 31
0.0
 11
9.1846475582
 21
-23.0599678586
 31
0.0
  0
SPLINE
  5
408
100
AcDbEntity
  8
RACCORDO
100
AcDbSpline
 62
7
  6
CONTINUOUS
 70
0
 71
3
 72
9
 73
5
 74
3
 42
0.0000001
 43
0.0000001
 44
0.0000000001
 12
0.0268588128
 22
0.0227455483
 32
0.0
 13
0.0235456791
 23
0.0261602138
 33
0.0
 40
0.0
 40
0.0
 40
0.0
 40
0.0
 40
0.2579647081
 40
1.0
 40
1.0
 40
1.0
 40
1.0
 10
-16.852851829
 20
-4.1751609864
 30
0.0
 10
-16.850542287
 20
-4.1732051369
 30
0.0
 10
-16.8417070019
 20
-4.1654863878
 30
0.0
 10
-16.8333595305
 20
-4.1572020048
 30
0.0
 10
-16.8275356222
 20
-4.1507314041
 30
0.0
 11
-16.852851829
 21
-4.1751609864
 31
0.0
 11
-16.8460163655
 21
-4.1691851666
 31
0.0
 11
-16.8275356222
 21
-4.1507314041
 31
0.0
  0
SPLINE
  5
409
100
AcDbEntity
  8
RACCORDO
100
AcDbSpline
 62
7
  6
CONTINUOUS
 70
0
 71
3
 72
9
 73
5
 74
3
 42
0.0000001
 43
0.0000001
 44
0.0000000001
 12
0.0760245503
 22
0.0844663892
 32
0.0
 13
-0.0000084707
 23
0.1136411153
 33
0.0
 40
0.0
 40
0.0
 40
0.0
 40
0.0
 40
0.5278198147
 40
1.0
 40
1.0
 40
1.0
 40
1.0
 10
-16.8275356222
 20
-4.1507314041
 30
0.0
 10
-16.8141598675
 20
-4.1358703928
 30
0.0
 10
-16.7921031885
 20
-4.1041484665
 30
0.0
 10
-16.7834783696
 20
-4.065984889
 30
0.0
 10
-16.7834797028
 20
-4.0480985281
 30
0.0
 11
-16.8275356222
 21
-4.1507314041
 31
0.0
 11
-16.7946179954
 21
-4.1005888665
 31
0.0
 11
-16.7834797028
 21
-4.0480985281
 31
0.0
  0
SPLINE
  5
40A
100
AcDbEntity
  8
DRAFT
100
AcDbSpline
 62
7
  6
CONTINUOUS
 70
0
 71
3
 72
9
 73
5
 74
3
 42
0.0000001
 43
0.0000001
 44
0.0000000001
 12
-0.0332798367
 22
-0.1354758949
 32
0.0
 13
-0.1246344754
 23
-0.0626698746
 33
0.0
 40
0.0
 40
0.0
 40
0.0
 40
0.0
 40
0.5315595469
 40
1.0
 40
1.0
 40
1.0
 40
1.0
 10
-3.0045939404
 20
-18.3052021726
 30
0.0
 10
-3.0104906788
 20
-18.3292066744
 30
0.0
 10
-3.0282943322
 20
-18.3735152504
 30
0.0
 10
-3.064381784
 20
-18.4061786402
 30
0.0
 10
-3.0838430607
 20
-18.4159643417
 30
0.0
 11
-3.0045939404
 21
-18.3052021726
 31
0.0
 11
-3.0345842714
 21
-18.3730215556
 31
0.0
 11
-3.0838430607
 21
-18.4159643417
 31
0.0
  0
SPLINE
  5
40B
100
AcDbEntity
  8
RACCORDO
100
AcDbSpline
 62
7
  6
CONTINUOUS
 70
0
 71
3
 72
11
 73
7
 74
5
 42
0.0000001
 43
0.0000001
 44
0.0000000001
 12
0.1080961312
 22
0.0638021038
 32
0.0
 13
-0.0000130963
 23
0.1255208423
 33
0.0
 40
0.0
 40
0.0
 40
0.0
 40
0.0
 40
0.2968130585
 40
0.5576776393
 40
0.7878150761
 40
1.0
 40
1.0
 40
1.0
 40
1.0
 10
-17.2258797142
 20
14.6218081586
 30
0.0
 10
-17.2151849331
 20
14.6281205912
 30
0.0
 10
-17.1958783557
 20
14.6414571826
 30
0.0
 10
-17.1727416449
 20
14.6653134208
 30
0.0
 10
-17.1581090771
 20
14.6913070978
 30
0.0
 10
-17.1546929125
 20
14.7099434802
 30
0.0
 10
-17.1546938388
 20
14.718821357
 30
0.0
 11
-17.2258797142
 21
14.6218081586
 31
0.0
 11
-17.1954634131
 21
14.6433226875
 31
0.0
 11
-17.1730255143
 21
14.6671702543
 31
0.0
 11
-17.1593023712
 21
14.6925894737
 31
0.0
 11
-17.1546938388
 21
14.718821357
 31
0.0
  0
SPLINE
  5
40C
100
AcDbEntity
  8
RACCORDO
100
AcDbSpline
 62
7
  6
CONTINUOUS
 70
0
 71
3
 72
11
 73
7
 74
5
 42
0.0000001
 43
0.0000001
 44
0.0000000001
 12
0.0442364388
 22
-0.0894139904
 32
0.0
 13
-0.0660761993
 23
-0.0747372738
 33
0.0
 40
0.0
 40
0.0
 40
0.0
 40
0.0
 40
0.3302218568
 40
0.6017065375
 40
0.8185443816
 40
1.0
 40
1.0
 40
1.0
 40
1.0
 10
-16.9238168292
 20
15.4130581946
 30
0.0
 10
-16.9189475495
 20
15.4032160432
 30
0.0
 10
-16.9110366698
 20
15.3847533149
 30
0.0
 10
-16.9046017154
 20
15.3581348268
 30
0.0
 10
-16.9049825865
 20
15.3354724084
 30
0.0
 10
-16.9109591158
 20
15.3229720312
 30
0.0
 10
-16.9149557484
 20
15.3184515318
 30
0.0
 11
-16.9238168292
 21
15.4130581946
 31
0.0
 11
-16.9112223931
 21
15.3826184077
 31
0.0
 11
-16.9054444928
 21
15.3561590602
 31
0.0
 11
-16.9067069617
 21
15.3345645513
 31
0.0
 11
-16.9149557484
 21
15.3184515318
 31
0.0
  0
SPLINE
  5
40D
100
AcDbEntity
  8
RACCORDO
100
AcDbSpline
 62
7
  6
CONTINUOUS
 70
0
 71
3
 72
9
 73
5
 74
3
 42
0.0000001
 43
0.0000001
 44
0.0000000001
 12
0.0655963878
 22
-0.031697235
 32
0.0
 13
0.0507266935
 23
-0.0522915229
 33
0.0
 40
0.0
 40
0.0
 40
0.0
 40
0.0
 40
0.2345634937
 40
1.0
 40
1.0
 40
1.0
 40
1.0
 10
-15.5962654446
 20
2.6938927958
 30
0.0
 10
-15.5911366053
 20
2.6914144577
 30
0.0
 10
-15.5698414886
 20
2.679676091
 30
0.0
 10
-15.5509158973
 20
2.6638918478
 30
0.0
 10
-15.5379732096
 20
2.6505499009
 30
0.0
 11
-15.5962654446
 21
2.6938927958
 31
0.0
 11
-15.5812768627
 21
2.6856850688
 31
0.0
 11
-15.5379732096
 21
2.6505499009
 31
0.0
  0
SPLINE
  5
40E
100
AcDbEntity
  8
RACCORDO
100
AcDbSpline
 62
7
  6
CONTINUOUS
 70
0
 71
3
 72
9
 73
5
 74
3
 42
0.0000001
 43
0.0000001
 44
0.0000000001
 12
0.0423537234
 22
-0.0436602614
 32
0.0
 13
0.0322412592
 23
-0.0515805925
 33
0.0
 40
0.0
 40
0.0
 40
0.0
 40
0.0
 40
0.2442960562
 40
1.0
 40
1.0
 40
1.0
 40
1.0
 10
-15.5379732096
 20
2.6505499009
 30
0.0
 10
-15.5345242604
 20
2.6469945577
 30
0.0
 10
-15.5208228174
 20
2.6320405163
 30
0.0
 10
-15.5087740489
 20
2.6155910636
 30
0.0
 10
-15.5006524333
 20
2.6025978445
 30
0.0
 11
-15.5379732096
 21
2.6505499009
 31
0.0
 11
-15.527928476
 21
2.639598884
 31
0.0
 11
-15.5006524333
 21
2.6025978445
 31
0.0
  0
SPLINE
  5
40F
100
AcDbEntity
  8
RACCORDO
100
AcDbSpline
 62
7
  6
CONTINUOUS
 70
0
 71
3
 72
9
 73
5
 74
3
 42
0.0000001
 43
0.0000001
 44
0.0000000001
 12
0.085038347
 22
-0.1360470536
 32
0.0
 13
-0.0022295875
 23
-0.1604224118
 33
0.0
 40
0.0
 40
0.0
 40
0.0
 40
0.0
 40
0.2603597621
 40
1.0
 40
1.0
 40
1.0
 40
1.0
 10
-15.5006524333
 20
2.6025978445
 30
0.0
 10
-15.4932722454
 20
2.590790785
 30
0.0
 10
-15.4680224262
 20
2.5436888373
 30
0.0
 10
-15.45431593
 20
2.4895658101
 30
0.0
 10
-15.4548656276
 20
2.4500141865
 30
0.0
 11
-15.5006524333
 21
2.6025978445
 31
0.0
 11
-15.4809066611
 21
2.5657879419
 31
0.0
 11
-15.4548656276
 21
2.4500141865
 31
0.0
  0
SPLINE
  5
410
100
AcDbEntity
  8
RACCORDO
100
AcDbSpline
 62
7
  6
CONTINUOUS
 70
0
 71
3
 72
10
 73
6
 74
4
 42
0.0000001
 43
0.0000001
 44
0.0000000001
 12
0.0016600254
 22
-0.1177224943
 32
0.0
 13
-0.0998022548
 23
-0.0624567953
 33
0.0
 40
0.0
 40
0.0
 40
0.0
 40
0.0
 40
0.5456649566
 40
0.7809991749
 40
1.0
 40
1.0
 40
1.0
 40
1.0
 10
-15.4548656276
 20
-1.170074893
 30
0.0
 10
-15.4545636883
 20
-1.1914872396
 30
0.0
 10
-15.4588204481
 20
-1.2231198796
 30
0.0
 10
-15.4787503389
 20
-1.2574620001
 30
0.0
 10
-15.4923079636
 20
-1.2696279282
 30
0.0
 10
-15.4995935557
 20
-1.2741872914
 30
0.0
 11
-15.4548656276
 21
-1.170074893
 31
0.0
 11
-15.466032075
 21
-1.2333404305
 31
0.0
 11
-15.4802839484
 21
-1.2571008094
 31
0.0
 11
-15.4995935557
 21
-1.2741872914
 31
0.0
  0
SPLINE
  5
411
100
AcDbEntity
  8
RACCORDO
100
AcDbSpline
 62
7
  6
CONTINUOUS
 70
0
 71
3
 72
9
 73
5
 74
3
 42
0.0000001
 43
0.0000001
 44
0.0000000001
 12
0.0655963878
 22
-0.031697235
 32
0.0
 13
0.0507266935
 23
-0.0522915229
 33
0.0
 40
0.0
 40
0.0
 40
0.0
 40
0.0
 40
0.2345634937
 40
1.0
 40
1.0
 40
1.0
 40
1.0
 10
-15.5962654446
 20
21.0103300858
 30
0.0
 10
-15.5911366053
 20
21.0078517478
 30
0.0
 10
-15.5698414886
 20
20.996113381
 30
0.0
 10
-15.5509158973
 20
20.9803291378
 30
0.0
 10
-15.5379732096
 20
20.9669871909
 30
0.0
 11
-15.5962654446
 21
21.0103300858
 31
0.0
 11
-15.5812768627
 21
21.0021223589
 31
0.0
 11
-15.5379732096
 21
20.9669871909
 31
0.0
  0
SPLINE
  5
412
100
AcDbEntity
  8
RACCORDO
100
AcDbSpline
 62
7
  6
CONTINUOUS
 70
0
 71
3
 72
9
 73
5
 74
3
 42
0.0000001
 43
0.0000001
 44
0.0000000001
 12
0.0423537234
 22
-0.0436602614
 32
0.0
 13
0.0322412592
 23
-0.0515805925
 33
0.0
 40
0.0
 40
0.0
 40
0.0
 40
0.0
 40
0.2442960562
 40
1.0
 40
1.0
 40
1.0
 40
1.0
 10
-15.5379732096
 20
20.9669871909
 30
0.0
 10
-15.5345242604
 20
20.9634318477
 30
0.0
 10
-15.5208228174
 20
20.9484778064
 30
0.0
 10
-15.5087740489
 20
20.9320283536
 30
0.0
 10
-15.5006524333
 20
20.9190351346
 30
0.0
 11
-15.5379732096
 21
20.9669871909
 31
0.0
 11
-15.527928476
 21
20.9560361741
 31
0.0
 11
-15.5006524333
 21
20.9190351346
 31
0.0
  0
SPLINE
  5
413
100
AcDbEntity
  8
RACCORDO
100
AcDbSpline
 62
7
  6
CONTINUOUS
 70
0
 71
3
 72
9
 73
5
 74
3
 42
0.0000001
 43
0.0000001
 44
0.0000000001
 12
0.085038347
 22
-0.1360470536
 32
0.0
 13
-0.0022295875
 23
-0.1604224118
 33
0.0
 40
0.0
 40
0.0
 40
0.0
 40
0.0
 40
0.2603597621
 40
1.0
 40
1.0
 40
1.0
 40
1.0
 10
-15.5006524333
 20
20.9190351346
 30
0.0
 10
-15.4932722454
 20
20.9072280751
 30
0.0
 10
-15.4680224262
 20
20.8601261274
 30
0.0
 10
-15.45431593
 20
20.8060031001
 30
0.0
 10
-15.4548656276
 20
20.7664514765
 30
0.0
 11
-15.5006524333
 21
20.9190351346
 31
0.0
 11
-15.4809066611
 21
20.8822252319
 31
0.0
 11
-15.4548656276
 21
20.7664514765
 31
0.0
  0
SPLINE
  5
414
100
AcDbEntity
  8
RACCORDO
100
AcDbSpline
 62
7
  6
CONTINUOUS
 70
0
 71
3
 72
10
 73
6
 74
4
 42
0.0000001
 43
0.0000001
 44
0.0000000001
 12
0.0016600254
 22
-0.1177224943
 32
0.0
 13
-0.0998022548
 23
-0.0624567953
 33
0.0
 40
0.0
 40
0.0
 40
0.0
 40
0.0
 40
0.5456649566
 40
0.7809991749
 40
1.0
 40
1.0
 40
1.0
 40
1.0
 10
-15.4548656276
 20
17.146362397
 30
0.0
 10
-15.4545636883
 20
17.1249500504
 30
0.0
 10
-15.4588204481
 20
17.0933174104
 30
0.0
 10
-15.4787503389
 20
17.0589752899
 30
0.0
 10
-15.4923079636
 20
17.0468093619
 30
0.0
 10
-15.4995935557
 20
17.0422499986
 30
0.0
 11
-15.4548656276
 21
17.146362397
 31
0.0
 11
-15.466032075
 21
17.0830968595
 31
0.0
 11
-15.4802839484
 21
17.0593364807
 31
0.0
 11
-15.4995935557
 21
17.0422499986
 31
0.0
  0
SPLINE
  5
415
100
AcDbEntity
  8
RACCORDO
100
AcDbSpline
 62
7
  6
CONTINUOUS
 70
0
 71
3
 72
11
 73
7
 74
5
 42
0.0000001
 43
0.0000001
 44
0.0000000001
 12
0.2196643699
 22
0.1676883289
 32
0.0
 13
0.0000324103
 23
0.2763545006
 33
0.0
 40
0.0
 40
0.0
 40
0.0
 40
0.0
 40
0.2880052896
 40
0.5484364456
 40
0.7830451664
 40
1.0
 40
1.0
 40
1.0
 40
1.0
 10
-16.9238201535
 20
15.4130468934
 30
0.0
 10
-16.9027319867
 20
15.4291452687
 30
0.0
 10
-16.8645560669
 20
15.4625973684
 30
0.0
 10
-16.8191874013
 20
15.5192795545
 30
0.0
 10
-16.7904006802
 20
15.5789578536
 30
0.0
 10
-16.7834820909
 20
15.6207530076
 30
0.0
 10
-16.7834797471
 20
15.6407384892
 30
0.0
 11
-16.9238201535
 21
15.4130468934
 31
0.0
 11
-16.8644016551
 21
15.4660021408
 31
0.0
 11
-16.8200899711
 21
15.5227149783
 31
0.0
 11
-16.7927475428
 21
15.5815026616
 31
0.0
 11
-16.7834797471
 21
15.6407384892
 31
0.0
  0
SPLINE
  5
416
100
AcDbEntity
  8
RACCORDO
100
AcDbSpline
 62
7
  6
CONTINUOUS
 70
0
 71
3
 72
11
 73
7
 74
5
 42
0.0000001
 43
0.0000001
 44
0.0000000001
 12
0.1712622514
 22
0.0869949376
 32
0.0
 13
0.0004293237
 23
0.1920903266
 33
0.0
 40
0.0
 40
0.0
 40
0.0
 40
0.0
 40
0.3609349558
 40
0.6475569956
 40
0.8565789599
 40
1.0
 40
1.0
 40
1.0
 40
1.0
 10
-15.8923335511
 20
-12.0269307674
 30
0.0
 10
-15.8717287067
 20
-12.0164642627
 30
0.0
 10
-15.835412394
 20
-11.9963467103
 30
0.0
 10
-15.7906259567
 20
-11.9642797809
 30
0.0
 10
-15.7616787471
 20
-11.9352044615
 30
0.0
 10
-15.7520249268
 20
-11.9132593284
 30
0.0
 10
-15.7520044021
 20
-11.9040760636
 30
0.0
 11
-15.8923335511
 21
-12.0269307674
 31
0.0
 11
-15.8320086046
 21
-11.992756701
 31
0.0
 11
-15.7877270425
 21
-11.9600387086
 31
0.0
 11
-15.7609268518
 21
-11.9301410758
 31
0.0
 11
-15.7520044021
 21
-11.9040760636
 31
0.0
  0
SPLINE
  5
417
100
AcDbEntity
  8
RACCORDO
100
AcDbSpline
 62
7
  6
CONTINUOUS
 70
0
 71
3
 72
14
 73
10
 74
8
 42
0.0000001
 43
0.0000001
 44
0.0000000001
 12
0.3943553874
 22
-0.2003416686
 32
0.0
 13
-0.0117691643
 23
-0.4421701511
 33
0.0
 40
0.0
 40
0.0
 40
0.0
 40
0.0
 40
0.1107720358
 40
0.2307901358
 40
0.3575289023
 40
0.4888703813
 40
0.7527421961
 40
0.8798077521
 40
1.0
 40
1.0
 40
1.0
 40
1.0
 10
-16.1044332751
 20
-11.6611128526
 30
0.0
 10
-16.089872092
 20
-11.6685102708
 30
0.0
 10
-16.0606092958
 20
-11.6861898594
 30
0.0
 10
-16.0204041264
 20
-11.72063056
 30
0.0
 10
-15.9838432069
 20
-11.76295375
 30
0.0
 10
-15.9410495142
 20
-11.8270815309
 30
0.0
 10
-15.9105534832
 20
-11.8988682044
 30
0.0
 10
-15.8945928438
 20
-11.9726500088
 30
0.0
 10
-15.891861981
 20
-12.0092156015
 30
0.0
 10
-15.8923335017
 20
-12.0269307429
 30
0.0
 11
-16.1044332751
 21
-11.6611128526
 31
0.0
 11
-16.0625441128
 21
-11.6865303014
 31
0.0
 11
-16.02207964
 21
-11.7208942212
 31
0.0
 11
-15.9852037557
 21
-11.7631184656
 31
0.0
 11
-15.9529453834
 21
-11.81143539
 31
0.0
 11
-15.9074034166
 21
-11.9189012857
 31
0.0
 11
-15.8956960528
 21
-11.9738729407
 31
0.0
 11
-15.8923335017
 21
-12.0269307429
 31
0.0
  0
SPLINE
  5
418
100
AcDbEntity
  8
RACCORDO
100
AcDbSpline
 62
7
  6
CONTINUOUS
 70
0
 71
3
 72
11
 73
7
 74
5
 42
0.0000001
 43
0.0000001
 44
0.0000000001
 12
0.2076592723
 22
0.1075187357
 32
0.0
 13
-0.0000171752
 23
0.2338432201
 33
0.0
 40
0.0
 40
0.0
 40
0.0
 40
0.0
 40
0.3012932365
 40
0.5638744451
 40
0.7922301682
 40
1.0
 40
1.0
 40
1.0
 40
1.0
 10
-16.9238096812
 20
-3.3557600729
 30
0.0
 10
-16.9029542364
 20
-3.3449618503
 30
0.0
 10
-16.8652654734
 20
-3.321861532
 30
0.0
 10
-16.8196198596
 20
-3.2794910574
 30
0.0
 10
-16.7904394317
 20
-3.2325185568
 30
0.0
 10
-16.7834785075
 20
-3.1982687524
 30
0.0
 10
-16.783479697
 20
-3.1820735636
 30
0.0
 11
-16.9238096812
 21
-3.3557600729
 31
0.0
 11
-16.8641626957
 21
-3.3182607688
 31
0.0
 11
-16.8198743711
 21
-3.275730162
 31
0.0
 11
-16.7926648461
 21
-3.229783
 31
0.0
 11
-16.783479697
 21
-3.1820735636
 31
0.0
  0
SPLINE
  5
419
100
AcDbEntity
  8
RACCORDO
100
AcDbSpline
 62
7
  6
CONTINUOUS
 70
0
 71
3
 72
9
 73
5
 74
3
 42
0.0000001
 43
0.0000001
 44
0.0000000001
 12
0.0933807846
 22
0.5971067308
 32
0.0
 13
0.3544432628
 23
0.4895164883
 33
0.0
 40
0.0
 40
0.0
 40
0.0
 40
0.0
 40
0.4945429412
 40
1.0
 40
1.0
 40
1.0
 40
1.0
 10
-17.2263849645
 20
14.7694554192
 30
0.0
 10
-17.2109913618
 20
14.8678870588
 30
0.0
 10
-17.1536036304
 20
15.0631910265
 30
0.0
 10
-17.0550770839
 20
15.2411168414
 30
0.0
 10
-16.9953584675
 20
15.3235933629
 30
0.0
 11
-17.2263849645
 21
14.7694554192
 31
0.0
 11
-17.1441685349
 21
15.0568092339
 31
0.0
 11
-16.9953584675
 21
15.3235933629
 31
0.0
  0
SPLINE
  5
41A
100
AcDbEntity
  8
ASSI
100
AcDbSpline
 62
7
  6
CONTINUOUS
 70
0
 71
3
 72
11
 73
7
 74
5
 42
0.0000001
 43
0.0000001
 44
0.0000000001
 12
0.0483159092
 22
0.0240461291
 32
0.0
 13
0.048326814
 23
-0.0240242057
 33
0.0
 40
0.0
 40
0.0
 40
0.0
 40
0.0
 40
0.4141056993
 40
0.7151930062
 40
0.9055096016
 40
1.0
 40
1.0
 40
1.0
 40
1.0
 10
-2.4781262946
 20
-17.2365334366
 30
0.0
 10
-2.4714569968
 20
-17.2332142235
 30
0.0
 10
-2.4598312816
 20
-17.2278182779
 30
0.0
 10
-2.4446036352
 20
-17.2215462763
 30
0.0
 10
-2.4348070243
 20
-17.2185511452
 30
0.0
 10
-2.4292937029
 20
-17.2177164542
 30
0.0
 10
-2.4277715629
 20
-17.2184731398
 30
0.0
 11
-2.4781262946
 21
-17.2365334366
 31
0.0
 11
-2.4578595421
 21
-17.2271138233
 31
0.0
 11
-2.4427585292
 21
-17.2211137463
 31
0.0
 11
-2.4328693341
 21
-17.218338688
 31
0.0
 11
-2.4277715629
 21
-17.2184731398
 31
0.0
  0
SPLINE
  5
41B
100
AcDbEntity
  8
RACCORDO
100
AcDbSpline
 62
7
  6
CONTINUOUS
 70
0
 71
3
 72
10
 73
6
 74
4
 42
0.0000001
 43
0.0000001
 44
0.0000000001
 12
-0.1719060809
 22
0.0858445567
 32
0.0
 13
-0.1728440808
 23
-0.0839399328
 33
0.0
 40
0.0
 40
0.0
 40
0.0
 40
0.0
 40
0.4083751956
 40
0.6803995527
 40
1.0
 40
1.0
 40
1.0
 40
1.0
 10
-15.9188821167
 20
-11.6339880592
 30
0.0
 10
-15.9422828432
 20
-11.6223024633
 30
0.0
 10
-15.9893041309
 20
-11.6211997956
 30
0.0
 10
-16.0508468631
 20
-11.6373722976
 30
0.0
 10
-16.0860195949
 20
-11.6521704401
 30
0.0
 10
-16.1044332767
 20
-11.6611128534
 30
0.0
 11
-15.9188821167
 21
-11.6339880592
 31
0.0
 11
-15.9968727313
 21
-11.6253400309
 31
0.0
 11
-16.0476572875
 21
-11.6377085595
 31
0.0
 11
-16.1044332767
 21
-11.6611128534
 31
0.0
  0
SPLINE
  5
41C
100
AcDbEntity
  8
RACCORDO
100
AcDbSpline
 62
7
  6
CONTINUOUS
 70
0
 71
3
 72
9
 73
5
 74
3
 42
0.0000001
 43
0.0000001
 44
0.0000000001
 12
-0.0087546891
 22
-0.0874359101
 32
0.0
 13
-0.0780337588
 23
-0.0404031613
 33
0.0
 40
0.0
 40
0.0
 40
0.0
 40
0.0
 40
0.4365281204
 40
1.0
 40
1.0
 40
1.0
 40
1.0
 10
-15.3989937491
 20
17.2107982886
 30
0.0
 10
-15.4002676384
 20
17.1980755442
 30
0.0
 10
-15.4152263836
 20
17.1703915046
 30
0.0
 10
-15.440209018
 20
17.1539510788
 30
0.0
 10
-15.4548656276
 20
17.146362397
 30
0.0
 11
-15.3989937491
 21
17.2107982886
 31
0.0
 11
-15.4152375845
 21
17.1760483677
 31
0.0
 11
-15.4548656276
 21
17.146362397
 31
0.0
  0
SPLINE
  5
41D
100
AcDbEntity
  8
RACCORDO
100
AcDbSpline
 62
7
  6
CONTINUOUS
 70
0
 71
3
 72
11
 73
7
 74
5
 42
0.0000001
 43
0.0000001
 44
0.0000000001
 12
0.0000031704
 22
-0.0935249258
 32
0.0
 13
-0.0830527307
 23
-0.0430018101
 33
0.0
 40
0.0
 40
0.0
 40
0.0
 40
0.0
 40
0.2077396888
 40
0.4361283515
 40
0.6988919218
 40
1.0
 40
1.0
 40
1.0
 40
1.0
 10
-15.3987423653
 20
20.835915029
 30
0.0
 10
-15.3987421458
 20
20.8294387493
 30
0.0
 10
-15.4015140052
 20
20.8157382998
 30
0.0
 10
-15.4131962275
 20
20.7969486047
 30
0.0
 10
-15.4314604124
 20
20.7800124875
 30
0.0
 10
-15.4465296782
 20
20.7707675406
 30
0.0
 10
-15.4548656276
 20
20.7664514765
 30
0.0
 11
-15.3987423653
 21
20.835915029
 31
0.0
 11
-15.402407886
 21
20.8168350986
 31
0.0
 11
-15.4132947385
 21
20.7984577364
 31
0.0
 11
-15.4310259973
 21
20.7814421464
 31
0.0
 11
-15.4548656276
 21
20.7664514765
 31
0.0
  0
SPLINE
  5
41E
100
AcDbEntity
  8
RACCORDO
100
AcDbSpline
 62
7
  6
CONTINUOUS
 70
0
 71
3
 72
9
 73
5
 74
3
 42
0.0000001
 43
0.0000001
 44
0.0000000001
 12
-0.0799442417
 22
0.0399316657
 32
0.0
 13
-0.0806054505
 23
-0.0385795418
 33
0.0
 40
0.0
 40
0.0
 40
0.0
 40
0.0
 40
0.4650684741
 40
1.0
 40
1.0
 40
1.0
 40
1.0
 10
-15.5093633389
 20
21.0148353505
 30
0.0
 10
-15.521756521
 20
21.0210256702
 30
0.0
 10
-15.5526567884
 20
21.0264001712
 30
0.0
 10
-15.5818926458
 20
21.0172092236
 30
0.0
 10
-15.5962654446
 20
21.0103300858
 30
0.0
 11
-15.5093633389
 21
21.0148353505
 31
0.0
 11
-15.5501380083
 21
21.0228743504
 31
0.0
 11
-15.5962654446
 21
21.0103300858
 31
0.0
  0
SPLINE
  5
41F
100
AcDbEntity
  8
RACCORDO
100
AcDbSpline
 62
7
  6
CONTINUOUS
 70
0
 71
3
 72
9
 73
5
 74
3
 42
0.0000001
 43
0.0000001
 44
0.0000000001
 12
-0.0772254574
 22
0.0305001057
 32
0.0
 13
-0.0748939282
 23
-0.0358458816
 33
0.0
 40
0.0
 40
0.0
 40
0.0
 40
0.0
 40
0.466292465
 40
1.0
 40
1.0
 40
1.0
 40
1.0
 10
-15.8901668064
 20
21.204916858
 30
0.0
 10
-15.9021700227
 20
21.2096575145
 30
0.0
 10
-15.9308557144
 20
21.2128575857
 30
0.0
 10
-15.9577922314
 20
21.2041324606
 30
0.0
 10
-15.9711160494
 20
21.1977553882
 30
0.0
 11
-15.8901668064
 21
21.204916858
 31
0.0
 11
-15.9285415458
 21
21.2100489732
 31
0.0
 11
-15.9711160494
 21
21.1977553882
 31
0.0
  0
SPLINE
  5
420
100
AcDbEntity
  8
RACCORDO
100
AcDbSpline
 62
7
  6
CONTINUOUS
 70
0
 71
3
 72
9
 73
5
 74
3
 42
0.0000001
 43
0.0000001
 44
0.0000000001
 12
0.0807359686
 22
0.0373517402
 32
0.0
 13
0.0790092133
 23
-0.0408777855
 33
0.0
 40
0.0
 40
0.0
 40
0.0
 40
0.0
 40
0.4648447593
 40
1.0
 40
1.0
 40
1.0
 40
1.0
 10
-16.057438875
 20
21.2049118371
 30
0.0
 10
-16.0449289777
 20
21.2106994239
 30
0.0
 10
-16.0140130628
 20
21.2151042596
 30
0.0
 10
-15.9852101142
 20
21.2050473752
 30
0.0
 10
-15.9711160494
 20
21.1977553882
 30
0.0
 11
-16.057438875
 21
21.2049118371
 31
0.0
 11
-16.0166433468
 21
21.2116696556
 31
0.0
 11
-15.9711160494
 21
21.1977553882
 31
0.0
  0
SPLINE
  5
421
100
AcDbEntity
  8
RACCORDO
100
AcDbSpline
 62
7
  6
CONTINUOUS
 70
0
 71
3
 72
9
 73
5
 74
3
 42
0.0000001
 43
0.0000001
 44
0.0000000001
 12
-0.0087546891
 22
-0.0874359101
 32
0.0
 13
-0.0780337588
 23
-0.0404031613
 33
0.0
 40
0.0
 40
0.0
 40
0.0
 40
0.0
 40
0.4365281204
 40
1.0
 40
1.0
 40
1.0
 40
1.0
 10
-15.3989937491
 20
-1.1056390014
 30
0.0
 10
-15.4002676384
 20
-1.1183617459
 30
0.0
 10
-15.4152263836
 20
-1.1460457854
 30
0.0
 10
-15.440209018
 20
-1.1624862113
 30
0.0
 10
-15.4548656276
 20
-1.170074893
 30
0.0
 11
-15.3989937491
 21
-1.1056390014
 31
0.0
 11
-15.4152375845
 21
-1.1403889223
 31
0.0
 11
-15.4548656276
 21
-1.170074893
 31
0.0
  0
SPLINE
  5
422
100
AcDbEntity
  8
RACCORDO
100
AcDbSpline
 62
7
  6
CONTINUOUS
 70
0
 71
3
 72
11
 73
7
 74
5
 42
0.0000001
 43
0.0000001
 44
0.0000000001
 12
0.0000031704
 22
-0.0935249258
 32
0.0
 13
-0.0830527307
 23
-0.0430018101
 33
0.0
 40
0.0
 40
0.0
 40
0.0
 40
0.0
 40
0.2077396888
 40
0.4361283515
 40
0.6988919218
 40
1.0
 40
1.0
 40
1.0
 40
1.0
 10
-15.3987423653
 20
2.519477739
 30
0.0
 10
-15.3987421458
 20
2.5130014593
 30
0.0
 10
-15.4015140052
 20
2.4993010098
 30
0.0
 10
-15.4131962275
 20
2.4805113146
 30
0.0
 10
-15.4314604124
 20
2.4635751975
 30
0.0
 10
-15.4465296782
 20
2.4543302506
 30
0.0
 10
-15.4548656276
 20
2.4500141865
 30
0.0
 11
-15.3987423653
 21
2.519477739
 31
0.0
 11
-15.402407886
 21
2.5003978086
 31
0.0
 11
-15.4132947385
 21
2.4820204464
 31
0.0
 11
-15.4310259973
 21
2.4650048564
 31
0.0
 11
-15.4548656276
 21
2.4500141865
 31
0.0
  0
SPLINE
  5
423
100
AcDbEntity
  8
RACCORDO
100
AcDbSpline
 62
7
  6
CONTINUOUS
 70
0
 71
3
 72
9
 73
5
 74
3
 42
0.0000001
 43
0.0000001
 44
0.0000000001
 12
-0.0799442417
 22
0.0399316657
 32
0.0
 13
-0.0806054505
 23
-0.0385795418
 33
0.0
 40
0.0
 40
0.0
 40
0.0
 40
0.0
 40
0.4650684741
 40
1.0
 40
1.0
 40
1.0
 40
1.0
 10
-15.5093633389
 20
2.6983980605
 30
0.0
 10
-15.521756521
 20
2.7045883801
 30
0.0
 10
-15.5526567884
 20
2.7099628812
 30
0.0
 10
-15.5818926458
 20
2.7007719335
 30
0.0
 10
-15.5962654446
 20
2.6938927958
 30
0.0
 11
-15.5093633389
 21
2.6983980605
 31
0.0
 11
-15.5501380083
 21
2.7064370604
 31
0.0
 11
-15.5962654446
 21
2.6938927958
 31
0.0
  0
SPLINE
  5
424
100
AcDbEntity
  8
RACCORDO
100
AcDbSpline
 62
7
  6
CONTINUOUS
 70
0
 71
3
 72
9
 73
5
 74
3
 42
0.0000001
 43
0.0000001
 44
0.0000000001
 12
-0.0772254574
 22
0.0305001057
 32
0.0
 13
-0.0748939282
 23
-0.0358458816
 33
0.0
 40
0.0
 40
0.0
 40
0.0
 40
0.0
 40
0.466292465
 40
1.0
 40
1.0
 40
1.0
 40
1.0
 10
-15.8901668064
 20
2.888479568
 30
0.0
 10
-15.9021700227
 20
2.8932202245
 30
0.0
 10
-15.9308557144
 20
2.8964202956
 30
0.0
 10
-15.9577922314
 20
2.8876951705
 30
0.0
 10
-15.9711160494
 20
2.8813180982
 30
0.0
 11
-15.8901668064
 21
2.888479568
 31
0.0
 11
-15.9285415458
 21
2.8936116831
 31
0.0
 11
-15.9711160494
 21
2.8813180982
 31
0.0
  0
SPLINE
  5
425
100
AcDbEntity
  8
RACCORDO
100
AcDbSpline
 62
7
  6
CONTINUOUS
 70
0
 71
3
 72
9
 73
5
 74
3
 42
0.0000001
 43
0.0000001
 44
0.0000000001
 12
0.0807359686
 22
0.0373517402
 32
0.0
 13
0.0790092133
 23
-0.0408777855
 33
0.0
 40
0.0
 40
0.0
 40
0.0
 40
0.0
 40
0.4648447593
 40
1.0
 40
1.0
 40
1.0
 40
1.0
 10
-16.057438875
 20
2.888474547
 30
0.0
 10
-16.0449289777
 20
2.8942621339
 30
0.0
 10
-16.0140130628
 20
2.8986669696
 30
0.0
 10
-15.9852101142
 20
2.8886100852
 30
0.0
 10
-15.9711160494
 20
2.8813180982
 30
0.0
 11
-16.057438875
 21
2.888474547
 31
0.0
 11
-16.0166433468
 21
2.8952323656
 31
0.0
 11
-15.9711160494
 21
2.8813180982
 31
0.0
  0
ELLIPSE
  5
426
100
AcDbEntity
  8
RACCORDO
100
AcDbEllipse
 62
7
  6
CONTINUOUS
 10
15.9225678098
 20
-32.0522612647
 30
0.0
 11
-0.313181275
 21
0.626269159
 31
0.0
 40
0.6121897086
 41
-3.160544254
 42
-2.2557347926
  0
ELLIPSE
  5
427
100
AcDbEntity
  8
RACCORDO
100
AcDbEllipse
 62
7
  6
CONTINUOUS
 10
15.9225678098
 20
12.2759614974
 30
0.0
 11
-0.3130130858
 21
0.6261196575
 31
0.0
 40
0.6125552124
 41
-2.255296188
 42
-0.6848044477
  0
ELLIPSE
  5
428
100
AcDbEntity
  8
RACCORDO
100
AcDbEllipse
 62
7
  6
CONTINUOUS
 10
-19.7762997672
 20
30.1253952859
 30
0.0
 11
-0.313181275
 21
0.626269159
 31
0.0
 40
0.6121897086
 41
-0.6846338794
 42
0.019259411
  0
ELLIPSE
  5
429
100
AcDbEntity
  8
RACCORDO
100
AcDbEllipse
 62
7
  6
CONTINUOUS
 10
-17.013739489
 20
-12.0290764059
 30
0.0
 11
-0.1340229113
 21
0.2684080287
 31
0.0
 40
0.6140178746
 41
0.8880524522
 42
2.4561097232
  0
ELLIPSE
  5
42A
100
AcDbEntity
  8
RACCORDO
100
AcDbEllipse
 62
7
  6
CONTINUOUS
 10
-17.7958267351
 20
-12.4051877794
 30
0.0
 11
-0.1341484654
 21
0.2683369961
 31
0.0
 40
0.6125552124
 41
0.8862964655
 42
2.4567882058
  0
ELLIPSE
  5
42B
100
AcDbEntity
  8
RACCORDO
100
AcDbEllipse
 62
7
  6
CONTINUOUS
 10
10.0585939624
 20
-25.3545072434
 30
0.0
 11
-0.1341371037
 21
0.2683722998
 31
0.0
 40
0.6123537661
 41
-0.6845550499
 42
0.0106825902
  0
ELLIPSE
  5
42C
100
AcDbEntity
  8
RACCORDO
100
AcDbEllipse
 62
7
  6
CONTINUOUS
 10
-5.8513086143
 20
-17.3995559551
 30
0.0
 11
-0.1341371037
 21
0.2683722998
 31
0.0
 40
0.6123537661
 41
-0.6845550499
 42
0.0106825902
  0
ELLIPSE
  5
42D
100
AcDbEntity
  8
RACCORDO
100
AcDbEllipse
 62
7
  6
CONTINUOUS
 10
-16.6700746801
 20
-11.3839155635
 30
0.0
 11
-0.1342114942
 21
0.268324886
 31
0.0
 40
0.6123910759
 41
-2.2556797026
 42
-0.6848833758
  0
ELLIPSE
  5
42E
100
AcDbEntity
  8
RACCORDO
100
AcDbEllipse
 62
7
  6
CONTINUOUS
 10
-16.6700746801
 20
2.1261203115
 30
0.0
 11
-0.1342205464
 21
0.2684010681
 31
0.0
 40
0.6121897086
 41
-3.160544254
 42
-2.2557347926
  0
ELLIPSE
  5
42F
100
AcDbEntity
  8
RACCORDO
100
AcDbEllipse
 62
7
  6
CONTINUOUS
 10
-16.6700746801
 20
13.7307815703
 30
0.0
 11
-0.1341484654
 21
0.2683369961
 31
0.0
 40
0.6125552124
 41
-2.255296188
 42
-0.6848044477
  0
ELLIPSE
  5
430
100
AcDbEntity
  8
RACCORDO
100
AcDbEllipse
 62
7
  6
CONTINUOUS
 10
5.038135816
 20
-22.8442781702
 30
0.0
 11
-0.1341371037
 21
0.2683722998
 31
0.0
 40
0.6123537661
 41
-2.2553513767
 42
-0.6845550499
  0
ELLIPSE
  5
431
100
AcDbEntity
  8
RACCORDO
100
AcDbEllipse
 62
7
  6
CONTINUOUS
 10
-10.8717667607
 20
-14.8893268818
 30
0.0
 11
-0.1341371037
 21
0.2683722998
 31
0.0
 40
0.6123537661
 41
-2.2553513767
 42
-0.6845550499
  0
ELLIPSE
  5
432
100
AcDbEntity
  8
ASSI
100
AcDbEllipse
 62
7
  6
CONTINUOUS
 10
9.1672989067
 20
-23.2396151684
 30
0.0
 11
0.0974129977
 21
0.1748074534
 31
0.0
 40
0.6437101552
 41
0.6611775963
 42
0.7135374739
  0
ELLIPSE
  5
433
100
AcDbEntity
  8
ASSI
100
AcDbEllipse
 62
7
  6
CONTINUOUS
 10
-6.74260367
 20
-15.28466388
 30
0.0
 11
0.0974129977
 21
0.1748074534
 31
0.0
 40
0.6437101552
 41
0.6611775963
 42
0.7135374739
  0
ELLIPSE
  5
434
100
AcDbEntity
  8
RACCORDO
100
AcDbEllipse
 62
7
  6
CONTINUOUS
 10
-16.7420196177
 20
20.2778760057
 30
0.0
 11
-0.1342114942
 21
0.268324886
 31
0.0
 40
0.6123910759
 41
-3.1500217516
 42
-2.2556797026
  0
ELLIPSE
  5
435
100
AcDbEntity
  8
RACCORDO
100
AcDbEllipse
 62
7
  6
CONTINUOUS
 10
-16.7420196177
 20
-10.0330131268
 30
0.0
 11
-0.1342114942
 21
0.268324886
 31
0.0
 40
0.6123910759
 41
-3.1500217506
 42
-2.2556797026
  0
ELLIPSE
  5
436
100
AcDbEntity
  8
RACCORDO
100
AcDbEllipse
 62
7
  6
CONTINUOUS
 10
-16.7420196177
 20
-4.4904505426
 30
0.0
 11
-0.1342114942
 21
0.268324886
 31
0.0
 40
0.6123910759
 41
-2.2556797026
 42
-0.6848833758
  0
ELLIPSE
  5
437
100
AcDbEntity
  8
ASSI
100
AcDbEllipse
 62
7
  6
CONTINUOUS
 10
-2.6267552597
 20
-17.8547888025
 30
0.0
 11
0.1997674032
 21
0.1243735635
 31
0.0
 40
0.0775313764
 41
5.4495541764
 42
6.9679906257
  0
ELLIPSE
  5
438
100
AcDbEntity
  8
RACCORDO
100
AcDbEllipse
 62
7
  6
CONTINUOUS
 10
-17.6773038065
 20
19.8262792845
 30
0.0
 11
-0.1342114942
 21
0.268324886
 31
0.0
 40
0.6123910759
 41
2.4567092778
 42
4.0275056046
  0
ELLIPSE
  5
439
100
AcDbEntity
  8
RACCORDO
100
AcDbEllipse
 62
7
  6
CONTINUOUS
 10
-17.6773038065
 20
-10.4846098479
 30
0.0
 11
-0.1342114942
 21
0.268324886
 31
0.0
 40
0.6123910759
 41
2.4567092778
 42
4.0275056046
  0
ELLIPSE
  5
43A
100
AcDbEntity
  8
RACCORDO
100
AcDbEllipse
 62
7
  6
CONTINUOUS
 10
-17.2456341809
 20
13.440782672
 30
0.0
 11
-0.1341484654
 21
0.2683369961
 31
0.0
 40
0.6125552124
 41
-2.255296188
 42
-0.7764304893
  0
ELLIPSE
  5
43B
100
AcDbEntity
  8
RACCORDO
100
AcDbEllipse
 62
7
  6
CONTINUOUS
 10
9.4929085374
 20
-25.6494431796
 30
0.0
 11
-0.1341371037
 21
0.2683722998
 31
0.0
 40
0.6123537661
 41
-0.6845550499
 42
0.4620963561
  0
ELLIPSE
  5
43C
100
AcDbEntity
  8
ASSI
100
AcDbEllipse
 62
7
  6
CONTINUOUS
 10
-2.4851398245
 20
-17.4133958028
 30
0.0
 11
0.0823576675
 21
0.1823694112
 31
0.0
 40
0.5796795686
 41
0.6094740628
 42
0.6618339404
  0
ELLIPSE
  5
43D
100
AcDbEntity
  8
RACCORDO
100
AcDbEllipse
 62
7
  6
CONTINUOUS
 10
-17.2456341809
 20
-11.6618212381
 30
0.0
 11
-0.1342114942
 21
0.268324886
 31
0.0
 40
0.6123910759
 41
-2.2556797026
 42
-0.7768150675
  0
ELLIPSE
  5
43E
100
AcDbEntity
  8
RACCORDO
100
AcDbEllipse
 62
7
  6
CONTINUOUS
 10
-11.4374521857
 20
-15.184262818
 30
0.0
 11
-0.1341371037
 21
0.2683722998
 31
0.0
 40
0.6123537661
 41
-1.831206456
 42
-0.6845550499
  0
ELLIPSE
  5
43F
100
AcDbEntity
  8
RACCORDO
100
AcDbEllipse
 62
7
  6
CONTINUOUS
 10
-6.4169940393
 20
-17.6944918912
 30
0.0
 11
-0.1341371037
 21
0.2683722998
 31
0.0
 40
0.6123537661
 41
-0.6845550499
 42
0.4620963561
  0
ELLIPSE
  5
440
100
AcDbEntity
  8
RACCORDO
100
AcDbEllipse
 62
7
  6
CONTINUOUS
 10
4.472450391
 20
-23.1392141064
 30
0.0
 11
-0.1341371037
 21
0.2683722998
 31
0.0
 40
0.6123537661
 41
-1.831206456
 42
-0.6845550499
  0
ELLIPSE
  5
441
100
AcDbEntity
  8
RACCORDO
100
AcDbEllipse
 62
7
  6
CONTINUOUS
 10
-17.6773038065
 20
-4.9420472637
 30
0.0
 11
-0.1342114942
 21
0.268324886
 31
0.0
 40
0.6123910759
 41
-2.2556797026
 42
-0.7362649916
  0
ELLIPSE
  5
442
100
AcDbEntity
  8
RACCORDO
100
AcDbEllipse
 62
7
  6
CONTINUOUS
 10
-17.6773038065
 20
25.3688418687
 30
0.0
 11
-0.1342114942
 21
0.268324886
 31
0.0
 40
0.6123910759
 41
-2.2556797026
 42
-1.7810338182
  0
ELLIPSE
  5
443
100
AcDbEntity
  8
RACCORDO
100
AcDbEllipse
 62
7
  6
CONTINUOUS
 10
-17.2456341809
 20
1.8603078607
 30
0.0
 11
-0.1342205464
 21
0.2684010681
 31
0.0
 40
0.6121897086
 41
2.5485848158
 42
4.0274505145
  0
ENDSEC
  0
SECTION
  2
OBJECTS
  0
DICTIONARY
  5
C
100
AcDbDictionary
280
0
281
1
  3
ACAD_GROUP
350
D
  3
ACAD_MLINESTYLE
350
17
  3
ACAD_LAYOUT
350
1A
  3
ACAD_PLOTSETTINGS
350
19
  3
ACAD_PLOTSTYLENAME
350
E
  0
DICTIONARY
  5
D
102
{ACAD_REACTORS
330
C
102
}
100
AcDbDictionary
280
0
281
1
  0
ACDBDICTIONARYWDFLT
  5
E
102
{ACAD_REACTORS
330
C
102
}
100
AcDbDictionary
281
1
  3
Normal
350
F
100
AcDbDictionaryWithDefault
340
F
  0
DICTIONARY
  5
17
102
{ACAD_REACTORS
330
C
102
}
100
AcDbDictionary
280
0
281
1
  3
Standard
350
18
  0
DICTIONARY
  5
19
102
{ACAD_REACTORS
330
C
102
}
100
AcDbDictionary
281
1
  0
DICTIONARY
  5
1A
102
{ACAD_REACTORS
330
C
102
}
100
AcDbDictionary
281
1
  3
Model
350
444
  3
Layout1
350
445
  0
ACDBPLACEHOLDER
  5
F
102
{ACAD_REACTORS
330
E
102
}
  0
MLINESTYLE
  5
18
102
{ACAD_REACTORS
330
17
102
}
100
AcDbMlineStyle
  2
STANDARD
 70
0
  3

 62
256
 51
90.0
 52
90.0
 71
2
 49
0.5
 62
256
  6
BYLAYER
 49
-0.5
 62
256
  6
BYLAYER
  0
LAYOUT
  5
444
102
{ACAD_REACTORS
330
1A
102
}
100
AcDbPlotSettings
  1

  2
none_device
  4
ISO_A4_(297.00_x_210.00_MM)
  6

 40
0.0
 41
0.0
 42
0.0
 43
0.0
 44
297.0
 45
210.0
 46
0.0
 47
0.0
 48
0.0
 49
0.0
140
0.0
141
0.0
142
1.0
143
1.0
 70
1024
 72
1
 73
0
 74
0
  7

 75
0
147
1.0
148
0.0
149
0.0
100
AcDbLayout
  1
Model
 70
0
 71
0
 10
0.0
 20
0.0
 11
297.0
 21
210.0
 12
0.0
 22
0.0
 32
0.0
 14
0.0
 24
0.0
 34
0.0
 15
0.0
 25
0.0
 35
0.0
146
0.0
 13
0.0
 23
0.0
 33
0.0
 16
1.0
 26
0.0
 36
0.0
 17
0.0
 27
1.0
 37
0.0
 76
0
330
212
345
0
346
0
  0
LAYOUT
  5
445
102
{ACAD_REACTORS
330
1A
102
}
100
AcDbPlotSettings
  1

  2
none_device
  4
ISO_A4_(297.00_x_210.00_MM)
  6

 40
0.0
 41
0.0
 42
0.0
 43
0.0
 44
297.0
 45
210.0
 46
0.0
 47
0.0
 48
0.0
 49
0.0
140
0.0
141
0.0
142
1.0
143
1.0
 70
0
 72
1
 73
0
 74
0
  7

 75
0
147
1.0
148
0.0
149
0.0
100
AcDbLayout
  1
Layout1
 70
0
 71
1
 10
0.0
 20
0.0
 11
297.0
 21
210.0
 12
0.0
 22
0.0
 32
0.0
 14
0.0
 24
0.0
 34
0.0
 15
0.0
 25
0.0
 35
0.0
146
0.0
 13
0.0
 23
0.0
 33
0.0
 16
1.0
 26
0.0
 36
0.0
 17
0.0
 27
1.0
 37
0.0
 76
0
330
213
345
0
346
0
  0
ENDSEC
  0
EOF
