  0
SECTION
  2
HEADER
  9
$ACADVER
  1
AC1015
  9
$DWGCODEPAGE
  3
ANSI_1252
  9
$EXTMAX
 10
297.0
 20
210.0
 30
0.0
  9
$EXTMIN
 10
0.0
 20
0.0
 30
0.0
  9
$LIMMIN
 10
0.0
 20
0.0
  9
$LIMMAX
 10
297.0
 20
210.0
  9
$VIEWCTR
 10
148.5
 20
105.0
  9
$VIEWSIZE
 40
210.0
  9
$CLAYER
  8
0
  9
$LTSCALE
 40
16.335
  9
$CELTYPE
  6
BYLAYER
  9
$DIMSCALE
 40
1.0
  9
$DIMASZ
 40
3.0
  9
$DIMEXO
 40
1.85625
  9
$DIMDLI
 40
11.286
  9
$DIMEXE
 40
5.346
  9
$DIMCEN
 40
2.673
  9
$DIMLFAC
 40
1.0
  9
$DIMBLK
  1
_FILLED
  9
$DIMTXT
 40
3.0
  9
$DIMTOL
 70
1
  9
$DIMLIM
 70
0
  9
$DIMTFAC
 40
1.0
  9
$DIMTP
 40
0.01
  9
$DIMTM
 40
0.01
  9
$PDMODE
 70
3
  9
$PDSIZE
 40
3.0
  9
$HANDSEED
  5
459
  9
$TILEMODE
 70
1
  9
$MEASUREMENT
 70
1
  9
$INSUNITS
 70
4
  0
ENDSEC
  0
SECTION
  2
CLASSES
  0
CLASS
  1
ACDBDICTIONARYWDFLT
  2
AcDbDictionaryWithDefault
  3
AutoCAD 2000
 90
0
280
0
281
0
  0
CLASS
  1
ACDBPLACEHOLDER
  2
AcDbPlaceHolder
  3
AutoCAD 2000
 90
0
280
0
281
0
  0
CLASS
  1
LAYOUT
  2
AcDbLayout
  3
AutoCAD 2000
 90
0
280
0
281
0
  0
ENDSEC
  0
SECTION
  2
TABLES
  0
TABLE
  2
VPORT
  5
8
100
AcDbSymbolTable
 70
2
  0
VPORT
  5
1F4
100
AcDbSymbolTableRecord
100
AcDbViewportTableRecord
  2
*ACTIVE
 70
0
 10
0.0
 20
0.0
 11
1.0
 21
1.0
 12
148.5
 22
105.0
 13
0.0
 23
0.0
 14
1.0
 24
1.0
 15
0.0
 25
0.0
 16
0.0
 26
0.0
 36
1.0
 17
0.0
 27
0.0
 37
0.0
 40
210.0
 41
1.4142857143
 42
50.0
 43
0.0
 44
0.0
 50
0.0
 51
0.0
 71
0
 72
100
 73
1
 74
1
 75
0
 76
0
 77
0
 78
0
  0
ENDTAB
  0
TABLE
  2
LTYPE
  5
5
100
AcDbSymbolTable
 70
6
  0
LTYPE
  5
14
100
AcDbSymbolTableRecord
100
AcDbLinetypeTableRecord
  2
BYBLOCK
 70
0
  3

 72
65
 73
0
 40
0.0
  0
LTYPE
  5
15
100
AcDbSymbolTableRecord
100
AcDbLinetypeTableRecord
  2
BYLAYER
 70
0
  3

 72
65
 73
0
 40
0.0
  0
LTYPE
  5
16
100
AcDbSymbolTableRecord
100
AcDbLinetypeTableRecord
  2
CONTINUOUS
 70
64
  3
Solid line
 72
65
 73
0
 40
0.0
  0
LTYPE
  5
1F5
100
AcDbSymbolTableRecord
100
AcDbLinetypeTableRecord
  2
CENTER
 70
64
  3
____ _ ____ _ ____ _ ____ _ ____ _ ____ _ ____
 72
65
 73
4
 40
0.6
 49
0.375
 74
0
 49
-0.075
 74
0
 49
0.075
 74
0
 49
-0.075
 74
0
  0
LTYPE
  5
1F6
100
AcDbSymbolTableRecord
100
AcDbLinetypeTableRecord
  2
HIDDEN
 70
64
  3
- - - - - - - - - - - - - - - - - - - -
 72
65
 73
2
 40
0.2
 49
0.1
 74
0
 49
-0.1
 74
0
  0
LTYPE
  5
1F7
100
AcDbSymbolTableRecord
100
AcDbLinetypeTableRecord
  2
PHANTOM
 70
64
  3
_____ _ _ _____ _ _ _____ _ _ _____
 72
65
 73
6
 40
0.8
 49
0.45
 74
0
 49
-0.05
 74
0
 49
0.1
 74
0
 49
-0.05
 74
0
 49
0.1
 74
0
 49
-0.05
 74
0
  0
LTYPE
  5
1F8
100
AcDbSymbolTableRecord
100
AcDbLinetypeTableRecord
  2
DOT
 70
64
  3
. . . . . . . . . . . . . . . . . . . .
 72
65
 73
2
 40
0.2
 49
0.1
 74
0
 49
-0.1
 74
0
  0
LTYPE
  5
1F9
100
AcDbSymbolTableRecord
100
AcDbLinetypeTableRecord
  2
DASHED
 70
64
  3
- - - - - - - - - - - - - - - - - - - -
 72
65
 73
2
 40
0.2
 49
0.1
 74
0
 49
-0.1
 74
0
  0
ENDTAB
  0
TABLE
  2
LAYER
  5
2
100
AcDbSymbolTable
 70
36
  0
LAYER
  5
10
100
AcDbSymbolTableRecord
100
AcDbLayerTableRecord
  2
0
 70
0
 62
7
  6
CONTINUOUS
370
-3
390
F
  0
LAYER
  5
1FA
100
AcDbSymbolTableRecord
100
AcDbLayerTableRecord
  2
DEFAULT_1
 70
0
 62
7
  6
CENTER
370
-3
390
F
  0
LAYER
  5
1FB
100
AcDbSymbolTableRecord
100
AcDbLayerTableRecord
  2
DEFAULT_2
 70
0
 62
7
  6
HIDDEN
370
-3
390
F
  0
LAYER
  5
1FC
100
AcDbSymbolTableRecord
100
AcDbLayerTableRecord
  2
DEFAULT_3
 70
0
 62
7
  6
PHANTOM
370
-3
390
F
  0
LAYER
  5
1FD
100
AcDbSymbolTableRecord
100
AcDbLayerTableRecord
  2
ASSI
 70
0
 62
7
  6
CONTINUOUS
370
-3
390
F
  0
LAYER
  5
1FE
100
AcDbSymbolTableRecord
100
AcDbLayerTableRecord
  2
COORDINATE
 70
0
 62
7
  6
CONTINUOUS
370
-3
390
F
  0
LAYER
  5
1FF
100
AcDbSymbolTableRecord
100
AcDbLayerTableRecord
  2
COORD_ORIGINE
 70
0
 62
7
  6
CONTINUOUS
370
-3
390
F
  0
LAYER
  5
200
100
AcDbSymbolTableRecord
100
AcDbLayerTableRecord
  2
COPY_PUBLISH
 70
0
 62
7
  6
CONTINUOUS
370
-3
390
F
  0
LAYER
  5
201
100
AcDbSymbolTableRecord
100
AcDbLayerTableRecord
  2
COSMETIC
 70
0
 62
7
  6
CONTINUOUS
370
-3
390
F
  0
LAYER
  5
202
100
AcDbSymbolTableRecord
100
AcDbLayerTableRecord
  2
CURVE
 70
0
 62
7
  6
CONTINUOUS
370
-3
390
F
  0
LAYER
  5
203
100
AcDbSymbolTableRecord
100
AcDbLayerTableRecord
  2
DRAFT
 70
0
 62
7
  6
CONTINUOUS
370
-3
390
F
  0
LAYER
  5
204
100
AcDbSymbolTableRecord
100
AcDbLayerTableRecord
  2
IMPORT_IGES
 70
0
 62
7
  6
CONTINUOUS
370
-3
390
F
  0
LAYER
  5
205
100
AcDbSymbolTableRecord
100
AcDbLayerTableRecord
  2
INTFCLR_2
 70
0
 62
7
  6
CONTINUOUS
370
-3
390
F
  0
LAYER
  5
206
100
AcDbSymbolTableRecord
100
AcDbLayerTableRecord
  2
PIANI
 70
0
 62
7
  6
CONTINUOUS
370
-3
390
F
  0
LAYER
  5
207
100
AcDbSymbolTableRecord
100
AcDbLayerTableRecord
  2
PIANI_ORIGINE
 70
0
 62
7
  6
CONTINUOUS
370
-3
390
F
  0
LAYER
  5
208
100
AcDbSymbolTableRecord
100
AcDbLayerTableRecord
  2
PIANI_RIFERIMENTO
 70
0
 62
7
  6
CONTINUOUS
370
-3
390
F
  0
LAYER
  5
209
100
AcDbSymbolTableRecord
100
AcDbLayerTableRecord
  2
PUNTI
 70
0
 62
7
  6
CONTINUOUS
370
-3
390
F
  0
LAYER
  5
20A
100
AcDbSymbolTableRecord
100
AcDbLayerTableRecord
  2
RACCORDO
 70
0
 62
7
  6
CONTINUOUS
370
-3
390
F
  0
LAYER
  5
20B
100
AcDbSymbolTableRecord
100
AcDbLayerTableRecord
  2
SMUSSO
 70
0
 62
7
  6
CONTINUOUS
370
-3
390
F
  0
LAYER
  5
20C
100
AcDbSymbolTableRecord
100
AcDbLayerTableRecord
  2
SNAPLINE
 70
0
 62
7
  6
CONTINUOUS
370
-3
390
F
  0
LAYER
  5
20D
100
AcDbSymbolTableRecord
100
AcDbLayerTableRecord
  2
SUPERFICI
 70
0
 62
7
  6
CONTINUOUS
370
-3
390
F
  0
LAYER
  5
20E
100
AcDbSymbolTableRecord
100
AcDbLayerTableRecord
  2
TRASH
 70
0
 62
7
  6
CONTINUOUS
370
-3
390
F
  0
LAYER
  5
20F
100
AcDbSymbolTableRecord
100
AcDbLayerTableRecord
  2
XSEC_DATUMS
 70
0
 62
7
  6
CONTINUOUS
370
-3
390
F
  0
ENDTAB
  0
TABLE
  2
STYLE
  5
3
100
AcDbSymbolTable
 70
1
  0
STYLE
  5
11
100
AcDbSymbolTableRecord
100
AcDbTextStyleTableRecord
  2
STANDARD
 70
0
 40
0.0
 41
0.8
 50
0.0
 71
0
 42
0.2
  3
txt
  4

  0
STYLE
  5
210
100
AcDbSymbolTableRecord
100
AcDbTextStyleTableRecord
  2
TEXTSTYLE_1
 70
0
 40
0.0
 41
0.8
 50
0.0
 71
0
 42
0.2
  3
gdt
  4

  0
ENDTAB
  0
TABLE
  2
VIEW
  5
6
100
AcDbSymbolTable
 70
0
  0
ENDTAB
  0
TABLE
  2
UCS
  5
7
100
AcDbSymbolTable
 70
0
  0
ENDTAB
  0
TABLE
  2
APPID
  5
9
100
AcDbSymbolTable
 70
1
  0
APPID
  5
211
100
AcDbSymbolTableRecord
100
AcDbRegAppTableRecord
  2
ACAD
 70
0
  0
ENDTAB
  0
TABLE
  2
BLOCK_RECORD
  5
1
100
AcDbSymbolTable
 70
0
  0
BLOCK_RECORD
  5
212
100
AcDbSymbolTableRecord
100
AcDbBlockTableRecord
  2
*Model_Space
  0
BLOCK_RECORD
  5
213
100
AcDbSymbolTableRecord
100
AcDbBlockTableRecord
  2
*Paper_Space
  0
ENDTAB
  0
TABLE
  2
DIMSTYLE
  5
A
100
AcDbSymbolTable
 70
1
100
AcDbDimStyleTable
 71
0
  0
DIMSTYLE
105
214
100
AcDbSymbolTableRecord
100
AcDbDimStyleTableRecord
  2
STANDARD
 70
0
  3

  4

 40
1.0
 41
3.0
 42
0.0625
 43
0.38
 44
0.18
 45
0.0
 46
0.0
 47
0.01
 48
0.01
140
3.0
141
0.09
142
0.0
143
25.4
144
1.0
145
0.0
146
1.0
147
0.09
 71
1.0
 72
0.0
 73
0
 74
0
 75
0
 76
0
 77
1
 78
8
170
0
171
2
172
0
173
0
174
0
175
0
176
0
177
0
178
0
270
2
271
2
272
2
273
2
274
2
275
0
280
0
281
0
282
0
283
1
284
8
285
0
286
0
287
3
288
0
340
11
  0
ENDTAB
  0
ENDSEC
  0
SECTION
  2
BLOCKS
  0
BLOCK
  5
20
100
AcDbEntity
  8
0
100
AcDbBlockBegin
  2
*Model_Space
 70
0
 10
0.0
 20
0.0
 30
0.0
  3
*Model_Space
  1

  0
ENDBLK
  5
21
100
AcDbEntity
  8
0
100
AcDbBlockEnd
  0
BLOCK
  5
1C
100
AcDbEntity
  8
0
100
AcDbBlockBegin
  2
*Paper_Space
 70
0
 10
0.0
 20
0.0
 30
0.0
  3
*Paper_Space
  1

  0
ENDBLK
  5
1D
100
AcDbEntity
  8
0
100
AcDbBlockEnd
  0
ENDSEC
  0
SECTION
  2
ENTITIES
  0
LINE
  5
215
100
AcDbEntity
  8
DRAFT
100
AcDbLine
 62
7
  6
CONTINUOUS
 10
-32.8834462139
 20
57.8812482539
 11
-31.211202688
 21
58.764041566
  0
LINE
  5
216
100
AcDbEntity
  8
DRAFT
100
AcDbLine
 62
7
  6
CONTINUOUS
 10
-32.2205565914
 20
57.8453501013
 11
-30.5293352784
 21
58.7271156898
  0
LINE
  5
217
100
AcDbEntity
  8
RACCORDO
100
AcDbLine
 62
7
  6
CONTINUOUS
 10
-35.5373863733
 20
56.9073087265
 11
-33.7696206589
 21
57.7911915837
  0
LINE
  5
218
100
AcDbEntity
  8
SMUSSO
100
AcDbLine
 62
7
  6
CONTINUOUS
 10
-35.0901740164
 20
56.87890632
 11
-33.3224070634
 21
57.7627897965
  0
LINE
  5
219
100
AcDbEntity
  8
SMUSSO
100
AcDbLine
 62
7
  6
CONTINUOUS
 10
-35.7972807976
 20
55.6593275256
 11
-35.0901740164
 21
56.87890632
  0
LINE
  5
21A
100
AcDbEntity
  8
DRAFT
100
AcDbLine
 62
7
  6
CONTINUOUS
 10
-32.5053018442
 20
57.3542371868
 11
-32.2205565914
 21
57.8453501013
  0
LINE
  5
21B
100
AcDbEntity
  8
SMUSSO
100
AcDbLine
 62
7
  6
CONTINUOUS
 10
30.2464925653
 20
-58.2493318693
 11
31.6607061276
 21
-58.2493318693
  0
LINE
  5
21C
100
AcDbEntity
  8
DRAFT
100
AcDbLine
 62
7
  6
CONTINUOUS
 10
33.4284730806
 20
-56.5002256911
 11
34.0765391061
 21
-56.5002256871
  0
LINE
  5
21D
100
AcDbEntity
  8
SMUSSO
100
AcDbLine
 62
7
  6
CONTINUOUS
 10
-35.7972807976
 20
-25.2274451879
 11
-35.0901740164
 21
-25.7399172011
  0
LINE
  5
21E
100
AcDbEntity
  8
SMUSSO
100
AcDbLine
 62
7
  6
CONTINUOUS
 10
-35.7972807976
 20
-25.2274451879
 11
-35.2315897981
 21
-25.6517134374
  0
LWPOLYLINE
  5
21F
100
AcDbEntity
  8
RACCORDO
100
AcDbPolyline
 62
7
  6
CONTINUOUS
 90
13
 70
0
 10
-21.2042631265
 20
30.2220907225
 10
-21.2275404374
 20
30.2086117353
 10
-21.2653325126
 20
30.1824506287
 10
-21.3005142737
 20
30.1524153088
 10
-21.3327498655
 20
30.1187505041
 10
-21.361739999
 20
30.0817543359
 10
-21.3875022169
 20
30.0413376954
 10
-21.409790197
 20
29.9976739504
 10
-21.428327276
 20
29.9510397673
 10
-21.4430180305
 20
29.9012805407
 10
-21.4536378137
 20
29.8483831314
 10
-21.4598736067
 20
29.7926079701
 10
-21.4615412654
 20
29.7439672007
  0
LINE
  5
220
100
AcDbEntity
  8
RACCORDO
100
AcDbLine
 62
7
  6
CONTINUOUS
 10
-21.2043039889
 20
30.2220703534
 11
-20.9212623304
 21
30.3747778477
  0
LINE
  5
221
100
AcDbEntity
  8
RACCORDO
100
AcDbLine
 62
7
  6
CONTINUOUS
 10
-20.8824538971
 20
30.2068013087
 11
-20.6009106304
 21
30.3587003601
  0
LINE
  5
222
100
AcDbEntity
  8
SMUSSO
100
AcDbLine
 62
7
  6
CONTINUOUS
 10
-35.0901740164
 20
-25.7399172011
 11
30.9535993464
 21
-58.7618038825
  0
LINE
  5
223
100
AcDbEntity
  8
SMUSSO
100
AcDbLine
 62
7
  6
CONTINUOUS
 10
-35.7972807976
 20
-25.2274451879
 11
30.2464925653
 21
-58.2493318693
  0
LINE
  5
224
100
AcDbEntity
  8
SMUSSO
100
AcDbLine
 62
7
  6
CONTINUOUS
 10
-35.7972807976
 20
-25.2274451879
 11
-35.7972807976
 21
56.3664343068
  0
LINE
  5
225
100
AcDbEntity
  8
SMUSSO
100
AcDbLine
 62
7
  6
CONTINUOUS
 10
30.2464925653
 20
-58.2493318693
 11
30.9535993464
 21
-58.7618038825
  0
LWPOLYLINE
  5
226
100
AcDbEntity
  8
RACCORDO
100
AcDbPolyline
 62
7
  6
CONTINUOUS
 90
12
 70
0
 10
-21.4600786882
 20
-14.5599356829
 10
-21.4540626642
 20
-14.6195216515
 10
-21.4435436346
 20
-14.6791316256
 10
-21.4287012694
 20
-14.7384385793
 10
-21.4098092628
 20
-14.7967543491
 10
-21.3871133224
 20
-14.8537258019
 10
-21.3607172194
 20
-14.9092315705
 10
-21.3308152758
 20
-14.962871859
 10
-21.2974659988
 20
-15.0144837387
 10
-21.2607962324
 20
-15.0636780582
 10
-21.2211732816
 20
-15.1098367566
 10
-21.1783896651
 20
-15.1529638393
  0
LWPOLYLINE
  5
227
100
AcDbEntity
  8
RACCORDO
100
AcDbPolyline
 62
7
  6
CONTINUOUS
 90
9
 70
0
 10
-16.3539558931
 20
15.713829262
 10
-16.3305053364
 20
15.7474738863
 10
-16.3097550069
 20
15.7825378603
 10
-16.291993155
 20
15.8187706581
 10
-16.2773952574
 20
15.8560519328
 10
-16.2660867581
 20
15.8942520718
 10
-16.2582719554
 20
15.9328585888
 10
-16.2540300164
 20
15.9714062346
 10
-16.253156132
 20
15.9985696421
  0
LWPOLYLINE
  5
228
100
AcDbEntity
  8
RACCORDO
100
AcDbPolyline
 62
7
  6
CONTINUOUS
 90
3
 70
0
 10
-16.3846206503
 20
15.6763070258
 10
-16.3799762053
 20
15.6816139049
 10
-16.3539558931
 20
15.713829262
  0
LINE
  5
229
100
AcDbEntity
  8
RACCORDO
100
AcDbLine
 62
7
  6
CONTINUOUS
 10
-16.3846206503
 20
15.6763070258
 11
-16.384648991
 21
15.6762749981
  0
LINE
  5
22A
100
AcDbEntity
  8
DRAFT
100
AcDbLine
 62
7
  6
CONTINUOUS
 10
-16.7106557145
 20
19.737153612
 11
-17.2466948225
 21
19.439487741
  0
LINE
  5
22B
100
AcDbEntity
  8
RACCORDO
100
AcDbLine
 62
7
  6
CONTINUOUS
 10
-16.2531494955
 20
16.7874046175
 11
-14.9245355417
 21
17.5042223262
  0
LINE
  5
22C
100
AcDbEntity
  8
RACCORDO
100
AcDbLine
 62
7
  6
CONTINUOUS
 10
-16.2531494955
 20
16.7072386765
 11
-14.9734387376
 21
17.397671989
  0
LINE
  5
22D
100
AcDbEntity
  8
RACCORDO
100
AcDbLine
 62
7
  6
CONTINUOUS
 10
-15.9995251838
 20
20.9051225793
 11
-15.0659353587
 21
21.368190015
  0
LINE
  5
22E
100
AcDbEntity
  8
RACCORDO
100
AcDbLine
 62
7
  6
CONTINUOUS
 10
-15.9995251838
 20
20.5911086182
 11
-14.9245355417
 21
21.1243114057
  0
LINE
  5
22F
100
AcDbEntity
  8
RACCORDO
100
AcDbLine
 62
7
  6
CONTINUOUS
 10
-15.9995251838
 20
20.5296537609
 11
-16.9348093726
 21
20.0780570397
  0
LINE
  5
230
100
AcDbEntity
  8
RACCORDO
100
AcDbLine
 62
7
  6
CONTINUOUS
 10
-16.0789074785
 20
20.3667086684
 11
-17.0141916673
 21
19.9151119473
  0
LINE
  5
231
100
AcDbEntity
  8
RACCORDO
100
AcDbLine
 62
7
  6
CONTINUOUS
 10
-15.5271098485
 20
21.5627740586
 11
-15.9995251838
 21
21.3445970015
  0
LINE
  5
232
100
AcDbEntity
  8
RACCORDO
100
AcDbLine
 62
7
  6
CONTINUOUS
 10
-15.4407859635
 20
21.5556153174
 11
-15.9995251838
 21
21.2975710294
  0
LWPOLYLINE
  5
233
100
AcDbEntity
  8
RACCORDO
100
AcDbPolyline
 62
7
  6
CONTINUOUS
 90
11
 70
0
 10
14.6282584333
 20
-33.0901196257
 10
14.6624544533
 20
-33.1059133964
 10
14.7125561138
 20
-33.1245271133
 10
14.7631920804
 20
-33.1380393754
 10
14.8140225806
 20
-33.1463696049
 10
14.8644536543
 20
-33.1494653275
 10
14.9140214764
 20
-33.1473785633
 10
14.9623314657
 20
-33.1402391626
 10
15.0087555954
 20
-33.1283021406
 10
15.0528049067
 20
-33.111910902
 10
15.0635015593
 20
-33.1071152726
  0
LINE
  5
234
100
AcDbEntity
  8
RACCORDO
100
AcDbLine
 62
7
  6
CONTINUOUS
 10
-21.0129157582
 20
-15.2695447258
 11
14.6281139462
 21
-33.090059578
  0
LINE
  5
235
100
AcDbEntity
  8
RACCORDO
100
AcDbLine
 62
7
  6
CONTINUOUS
 10
-21.090883717
 20
-15.1072825841
 11
14.550145991
 21
-32.9277974381
  0
LINE
  5
236
100
AcDbEntity
  8
0
100
AcDbLine
 62
7
  6
CONTINUOUS
 10
-5.8489942538
 20
-22.707893423
 11
-5.5758629459
 21
-22.844459077
  0
LINE
  5
237
100
AcDbEntity
  8
0
100
AcDbLine
 62
7
  6
CONTINUOUS
 10
-4.9835712141
 20
-23.1406049429
 11
-4.6736349982
 21
-23.2955730508
  0
LINE
  5
238
100
AcDbEntity
  8
0
100
AcDbLine
 62
7
  6
CONTINUOUS
 10
-4.5067867892
 20
-23.3789971553
 11
-4.2102792382
 21
-23.5272509308
  0
LINE
  5
239
100
AcDbEntity
  8
0
100
AcDbLine
 62
7
  6
CONTINUOUS
 10
-3.7798025293
 20
-23.7424892853
 11
-3.7363345541
 21
-23.7642232729
  0
LINE
  5
23A
100
AcDbEntity
  8
0
100
AcDbLine
 62
7
  6
CONTINUOUS
 10
-3.3041431113
 20
-23.9803189943
 11
-3.0009435017
 21
-24.1319187991
  0
LINE
  5
23B
100
AcDbEntity
  8
0
100
AcDbLine
 62
7
  6
CONTINUOUS
 10
-2.9522754633
 20
-24.1562528183
 11
-2.6457022472
 21
-24.3095394263
  0
LINE
  5
23C
100
AcDbEntity
  8
0
100
AcDbLine
 62
7
  6
CONTINUOUS
 10
-2.0578080125
 20
-24.6034865437
 11
-1.7311487212
 21
-24.7668161893
  0
LINE
  5
23D
100
AcDbEntity
  8
0
100
AcDbLine
 62
7
  6
CONTINUOUS
 10
-1.6401363879
 20
-24.8123227004
 11
-1.3314475908
 21
-24.966667099
  0
LINE
  5
23E
100
AcDbEntity
  8
0
100
AcDbLine
 62
7
  6
CONTINUOUS
 10
-0.8568235338
 20
-25.2039791275
 11
-0.5587012374
 21
-25.3530402757
  0
LINE
  5
23F
100
AcDbEntity
  8
0
100
AcDbLine
 62
7
  6
CONTINUOUS
 10
-2.5601790962
 20
-23.9892640186
 11
-2.1380978662
 21
-24.2003046336
  0
LINE
  5
240
100
AcDbEntity
  8
0
100
AcDbLine
 62
7
  6
CONTINUOUS
 10
-2.2000382989
 20
-23.8884174269
 11
-2.4967799022
 21
-23.7400466252
  0
LWPOLYLINE
  5
241
100
AcDbEntity
  8
RACCORDO
100
AcDbPolyline
 62
7
  6
CONTINUOUS
 90
5
 70
0
 10
-21.1783896651
 20
-15.1529638393
 10
-21.1327376219
 20
-15.1924554839
 10
-21.0854830974
 20
-15.2271378195
 10
-21.0372292431
 20
-15.2567054828
 10
-21.0129138112
 20
-15.26953307
  0
LINE
  5
242
100
AcDbEntity
  8
RACCORDO
100
AcDbLine
 62
7
  6
CONTINUOUS
 10
-21.4615415591
 20
-14.5133072703
 11
-21.4600786882
 21
-14.5599356829
  0
LINE
  5
243
100
AcDbEntity
  8
RACCORDO
100
AcDbLine
 62
7
  6
CONTINUOUS
 10
-21.4615513168
 20
29.7439267767
 11
-21.4615513168
 21
-14.5134593479
  0
LINE
  5
244
100
AcDbEntity
  8
RACCORDO
100
AcDbLine
 62
7
  6
CONTINUOUS
 10
-21.3736833511
 20
29.6378607631
 11
-21.3736833511
 21
-14.6223218749
  0
LINE
  5
245
100
AcDbEntity
  8
RACCORDO
100
AcDbLine
 62
7
  6
CONTINUOUS
 10
-19.6762967751
 20
-13.1093497975
 11
-19.6762967751
 21
26.4302986191
  0
LINE
  5
246
100
AcDbEntity
  8
RACCORDO
100
AcDbLine
 62
7
  6
CONTINUOUS
 10
-19.2920918098
 20
-13.12615687
 11
-19.2920918098
 21
26.4134921019
  0
LINE
  5
247
100
AcDbEntity
  8
RACCORDO
100
AcDbLine
 62
7
  6
CONTINUOUS
 10
-18.1164902609
 20
26.0472390692
 11
-18.1164902609
 21
-12.2565611621
  0
LINE
  5
248
100
AcDbEntity
  8
RACCORDO
100
AcDbLine
 62
7
  6
CONTINUOUS
 10
-18.0559492938
 20
26.0169685857
 11
-18.0559492938
 21
-12.2316081011
  0
LINE
  5
249
100
AcDbEntity
  8
RACCORDO
100
AcDbLine
 62
7
  6
CONTINUOUS
 10
-16.1396799718
 20
14.3484563854
 11
-16.7106557145
 21
14.0607670395
  0
LINE
  5
24A
100
AcDbEntity
  8
RACCORDO
100
AcDbLine
 62
7
  6
CONTINUOUS
 10
-15.9275802462
 20
13.9826384714
 11
-16.503139747
 21
13.6926395731
  0
LINE
  5
24B
100
AcDbEntity
  8
0
100
AcDbLine
 62
7
  6
CONTINUOUS
 10
-1.3314475908
 20
-24.2550064706
 11
-1.1652673752
 21
-24.3380965784
  0
LINE
  5
24C
100
AcDbEntity
  8
IMPORT_IGES
100
AcDbLine
 62
7
  6
CONTINUOUS
 10
-2.355358546
 20
-23.6693359471
 11
-2.2298829286
 21
-23.7320737558
  0
LINE
  5
24D
100
AcDbEntity
  8
0
100
AcDbLine
 62
7
  6
CONTINUOUS
 10
-2.2298829286
 20
-23.7320737558
 11
-2.355358546
 21
-23.6693359471
  0
LINE
  5
24E
100
AcDbEntity
  8
0
100
AcDbLine
 62
7
  6
CONTINUOUS
 10
-1.164599314
 20
-24.0406041748
 11
-1.3417245984
 21
-23.9520415326
  0
LINE
  5
24F
100
AcDbEntity
  8
0
100
AcDbLine
 62
7
  6
CONTINUOUS
 10
-1.0231779578
 20
-23.9698934966
 11
-1.2003032422
 21
-23.8813308544
  0
LINE
  5
250
100
AcDbEntity
  8
IMPORT_IGES
100
AcDbLine
 62
7
  6
CONTINUOUS
 10
-1.0231779578
 20
-23.9698934966
 11
-1.2003032422
 21
-23.8813308544
  0
LINE
  5
251
100
AcDbEntity
  8
0
100
AcDbLine
 62
7
  6
CONTINUOUS
 10
-2.186722064
 20
-22.7205294565
 11
-2.48654736
 21
-22.5706168085
  0
LINE
  5
252
100
AcDbEntity
  8
0
100
AcDbLine
 62
7
  6
CONTINUOUS
 10
-3.1397888679
 20
-22.2439960545
 11
-3.4464398657
 21
-22.0906705556
  0
LINE
  5
253
100
AcDbEntity
  8
0
100
AcDbLine
 62
7
  6
CONTINUOUS
 10
-4.0630383931
 20
-21.7823712919
 11
-4.3727179293
 21
-21.6275315238
  0
LINE
  5
254
100
AcDbEntity
  8
0
100
AcDbLine
 62
7
  6
CONTINUOUS
 10
-5.098588496
 20
-21.2645962405
 11
-5.408313287
 21
-21.109733845
  0
LINE
  5
255
100
AcDbEntity
  8
0
100
AcDbLine
 62
7
  6
CONTINUOUS
 10
-5.983018566
 20
-20.8223812055
 11
-6.3197046315
 21
-20.6540381727
  0
LINE
  5
256
100
AcDbEntity
  8
0
100
AcDbLine
 62
7
  6
CONTINUOUS
 10
-4.6736349982
 20
-21.4769638702
 11
-4.9835712141
 21
-21.3219957622
  0
LINE
  5
257
100
AcDbEntity
  8
IMPORT_IGES
100
AcDbLine
 62
7
  6
CONTINUOUS
 10
-6.1782832752
 20
-20.5833274946
 11
-5.8415972098
 21
-20.7516705273
  0
LINE
  5
258
100
AcDbEntity
  8
IMPORT_IGES
100
AcDbLine
 62
7
  6
CONTINUOUS
 10
-5.2668919307
 20
-21.0390231669
 11
-4.9571671398
 21
-21.1938855623
  0
LINE
  5
259
100
AcDbEntity
  8
IMPORT_IGES
100
AcDbLine
 62
7
  6
CONTINUOUS
 10
-4.231296573
 20
-21.5568208457
 11
-3.9216170369
 21
-21.7116606138
  0
LINE
  5
25A
100
AcDbEntity
  8
IMPORT_IGES
100
AcDbLine
 62
7
  6
CONTINUOUS
 10
-3.3050185095
 20
-22.0199598775
 11
-2.9983675117
 21
-22.1732853764
  0
LINE
  5
25B
100
AcDbEntity
  8
IMPORT_IGES
100
AcDbLine
 62
7
  6
CONTINUOUS
 10
-2.3451260038
 20
-22.4999061303
 11
-2.0453007077
 21
-22.6498187784
  0
LINE
  5
25C
100
AcDbEntity
  8
0
100
AcDbLine
 62
7
  6
CONTINUOUS
 10
-2.0453007077
 20
-22.6498187784
 11
-2.3451260038
 21
-22.4999061303
  0
LINE
  5
25D
100
AcDbEntity
  8
0
100
AcDbLine
 62
7
  6
CONTINUOUS
 10
-2.9983675117
 20
-22.1732853764
 11
-3.3050185095
 21
-22.0199598775
  0
LINE
  5
25E
100
AcDbEntity
  8
0
100
AcDbLine
 62
7
  6
CONTINUOUS
 10
-3.9216170369
 20
-21.7116606138
 11
-4.231296573
 21
-21.5568208457
  0
LINE
  5
25F
100
AcDbEntity
  8
0
100
AcDbLine
 62
7
  6
CONTINUOUS
 10
-4.9571671398
 20
-21.1938855623
 11
-5.2668919307
 21
-21.0390231669
  0
LINE
  5
260
100
AcDbEntity
  8
0
100
AcDbLine
 62
7
  6
CONTINUOUS
 10
-5.8415972098
 20
-20.7516705273
 11
-6.1782832752
 21
-20.5833274946
  0
LINE
  5
261
100
AcDbEntity
  8
0
100
AcDbLine
 62
7
  6
CONTINUOUS
 10
-4.5322136419
 20
-21.4062531921
 11
-4.8421498578
 21
-21.2512850841
  0
LINE
  5
262
100
AcDbEntity
  8
IMPORT_IGES
100
AcDbLine
 62
7
  6
CONTINUOUS
 10
-4.5322136419
 20
-21.4062531921
 11
-4.8421498578
 21
-21.2512850841
  0
LINE
  5
263
100
AcDbEntity
  8
RACCORDO
100
AcDbLine
 62
7
  6
CONTINUOUS
 10
12.7303362773
 20
-29.8327881932
 11
-19.2710740033
 21
-13.8320830529
  0
LINE
  5
264
100
AcDbEntity
  8
RACCORDO
100
AcDbLine
 62
7
  6
CONTINUOUS
 10
12.8699057957
 20
-29.5188550424
 11
-19.131510319
 21
-13.5181469851
  0
LINE
  5
265
100
AcDbEntity
  8
RACCORDO
100
AcDbLine
 62
7
  6
CONTINUOUS
 10
-17.9267201276
 20
-12.6647862827
 11
13.0476910834
 21
-28.1519918882
  0
LINE
  5
266
100
AcDbEntity
  8
RACCORDO
100
AcDbLine
 62
7
  6
CONTINUOUS
 10
-17.8119681037
 20
-12.5813623595
 11
13.0476910834
 21
-28.0111919531
  0
LINE
  5
267
100
AcDbEntity
  8
RACCORDO
100
AcDbLine
 62
7
  6
CONTINUOUS
 10
13.0476910834
 20
-27.7105004606
 11
-17.5124315152
 21
-12.4304391612
  0
LINE
  5
268
100
AcDbEntity
  8
RACCORDO
100
AcDbLine
 62
7
  6
CONTINUOUS
 10
-16.4988143997
 20
-11.9418327328
 11
13.0476910834
 21
-26.7150854744
  0
LINE
  5
269
100
AcDbEntity
  8
ASSI
100
AcDbLine
 62
7
  6
CONTINUOUS
 10
9.8714354005
 20
-25.0343572688
 11
7.5130095501
 21
-23.8551443436
  0
LINE
  5
26A
100
AcDbEntity
  8
ASSI
100
AcDbLine
 62
7
  6
CONTINUOUS
 10
-6.0384671761
 20
-17.0794059805
 11
-8.3968930266
 21
-15.9001930553
  0
LINE
  5
26B
100
AcDbEntity
  8
RACCORDO
100
AcDbLine
 62
7
  6
CONTINUOUS
 10
13.0476910834
 20
-26.5439622834
 11
10.0232386233
 21
-25.0317360533
  0
LINE
  5
26C
100
AcDbEntity
  8
RACCORDO
100
AcDbLine
 62
7
  6
CONTINUOUS
 10
5.0027804769
 20
-22.5215069801
 11
-5.8866639534
 21
-17.0767847649
  0
LINE
  5
26D
100
AcDbEntity
  8
RACCORDO
100
AcDbLine
 62
7
  6
CONTINUOUS
 10
-10.9071220998
 20
-14.5665556917
 11
-16.503139747
 21
-11.7685468681
  0
LINE
  5
26E
100
AcDbEntity
  8
ASSI
100
AcDbLine
 62
7
  6
CONTINUOUS
 10
10.0079834847
 20
-24.9612099546
 11
7.6544309063
 21
-23.7844336655
  0
LINE
  5
26F
100
AcDbEntity
  8
ASSI
100
AcDbLine
 62
7
  6
CONTINUOUS
 10
-5.901919092
 20
-17.0062586663
 11
-8.2554716704
 21
-15.8294823771
  0
LWPOLYLINE
  5
270
100
AcDbEntity
  8
RACCORDO
100
AcDbPolyline
 62
7
  6
CONTINUOUS
 90
18
 70
0
 10
-15.2216728894
 20
-11.5461308882
 10
-15.2222611082
 20
-11.527253874
 10
-15.223930526
 20
-11.5092281342
 10
-15.2267338003
 20
-11.4910264795
 10
-15.2307179686
 20
-11.4727243529
 10
-15.2359267197
 20
-11.4544003514
 10
-15.2423941585
 20
-11.4361533012
 10
-15.250154238
 20
-11.4180692649
 10
-15.2592477724
 20
-11.4002204319
 10
-15.2696972765
 20
-11.382717635
 10
-15.2815161763
 20
-11.3656778099
 10
-15.294729599
 20
-11.3491980427
 10
-15.3093355576
 20
-11.3334097351
 10
-15.3253191217
 20
-11.3184495197
 10
-15.3426775055
 20
-11.3044382699
 10
-15.3613789816
 20
-11.2915196445
 10
-15.381362782
 20
-11.279848557
 10
-15.3885111479
 20
-11.2761541465
  0
LINE
  5
271
100
AcDbEntity
  8
RACCORDO
100
AcDbLine
 62
7
  6
CONTINUOUS
 10
-17.7245312409
 20
-12.0646212472
 11
-17.7245312409
 21
25.8512595592
  0
LINE
  5
272
100
AcDbEntity
  8
DRAFT
100
AcDbLine
 62
7
  6
CONTINUOUS
 10
-17.2466948225
 20
-10.8714013914
 11
-17.2466948225
 21
-4.376210863
  0
LINE
  5
273
100
AcDbEntity
  8
DRAFT
100
AcDbLine
 62
7
  6
CONTINUOUS
 10
-17.2466948225
 20
19.439487741
 11
-17.2466948225
 21
25.61234135
  0
LINE
  5
274
100
AcDbEntity
  8
DRAFT
100
AcDbLine
 62
7
  6
CONTINUOUS
 10
-16.988240418
 20
19.9276423623
 11
-16.988240418
 21
19.8759459637
  0
LINE
  5
275
100
AcDbEntity
  8
RACCORDO
100
AcDbLine
 62
7
  6
CONTINUOUS
 10
-16.9348093726
 20
25.4563986251
 11
-16.9348093726
 21
20.0780570397
  0
LINE
  5
276
100
AcDbEntity
  8
RACCORDO
100
AcDbLine
 62
7
  6
CONTINUOUS
 10
-16.9348093726
 20
-4.6902695085
 11
-16.9348093726
 21
-10.2328320928
  0
LINE
  5
277
100
AcDbEntity
  8
DRAFT
100
AcDbLine
 62
7
  6
CONTINUOUS
 10
-16.7106557145
 20
19.737153612
 11
-16.7106557145
 21
-4.0785449921
  0
LINE
  5
278
100
AcDbEntity
  8
RACCORDO
100
AcDbLine
 62
7
  6
CONTINUOUS
 10
-16.7106557145
 20
-10.5737355205
 11
-16.7106557145
 21
-11.5764605116
  0
LINE
  5
279
100
AcDbEntity
  8
RACCORDO
100
AcDbLine
 62
7
  6
CONTINUOUS
 10
-16.6243504807
 20
14.5907916398
 11
-16.6243504807
 21
15.0766812125
  0
LINE
  5
27A
100
AcDbEntity
  8
DRAFT
100
AcDbLine
 62
7
  6
CONTINUOUS
 10
-16.5928097249
 20
-3.6822228957
 11
-16.5928097249
 21
-3.1011063396
  0
LINE
  5
27B
100
AcDbEntity
  8
RACCORDO
100
AcDbLine
 62
7
  6
CONTINUOUS
 10
-16.503139747
 20
-11.7685468681
 11
-16.503139747
 21
-11.4100434829
  0
LINE
  5
27C
100
AcDbEntity
  8
RACCORDO
100
AcDbLine
 62
7
  6
CONTINUOUS
 10
-16.503139747
 20
2.1120064699
 11
-16.503139747
 21
13.6926395731
  0
LINE
  5
27D
100
AcDbEntity
  8
RACCORDO
100
AcDbLine
 62
7
  6
CONTINUOUS
 10
-16.3934900675
 20
15.7709009136
 11
-16.3934799811
 21
20.2148191011
  0
LINE
  5
27E
100
AcDbEntity
  8
RACCORDO
100
AcDbLine
 62
7
  6
CONTINUOUS
 10
-16.3934890812
 20
2.0363443167
 11
-16.3934795953
 21
-2.13187474
  0
LINE
  5
27F
100
AcDbEntity
  8
RACCORDO
100
AcDbLine
 62
7
  6
CONTINUOUS
 10
-16.3934795953
 20
-2.9979001437
 11
-16.3934795953
 21
-3.7818879605
  0
LINE
  5
280
100
AcDbEntity
  8
RACCORDO
100
AcDbLine
 62
7
  6
CONTINUOUS
 10
-16.3934795953
 20
-10.6393805127
 11
-16.3934795953
 21
-10.096069845
  0
LINE
  5
281
100
AcDbEntity
  8
RACCORDO
100
AcDbLine
 62
7
  6
CONTINUOUS
 10
-16.2531494955
 20
20.2825768885
 11
-16.2531494955
 21
15.998552264
  0
LINE
  5
282
100
AcDbEntity
  8
RACCORDO
100
AcDbLine
 62
7
  6
CONTINUOUS
 10
-16.2531494955
 20
2.1011577881
 11
-16.2531494955
 21
-1.9582101473
  0
LINE
  5
283
100
AcDbEntity
  8
RACCORDO
100
AcDbLine
 62
7
  6
CONTINUOUS
 10
-16.2531494955
 20
-2.8242355511
 11
-16.2531494955
 21
-3.6902609549
  0
LINE
  5
284
100
AcDbEntity
  8
RACCORDO
100
AcDbLine
 62
7
  6
CONTINUOUS
 10
-16.2531494955
 20
-10.7095455626
 11
-16.2531494955
 21
-10.028312244
  0
LINE
  5
285
100
AcDbEntity
  8
RACCORDO
100
AcDbLine
 62
7
  6
CONTINUOUS
 10
-15.9995251838
 20
-9.7812353716
 11
-15.9995251838
 21
-4.2386727874
  0
LINE
  5
286
100
AcDbEntity
  8
RACCORDO
100
AcDbLine
 62
7
  6
CONTINUOUS
 10
-15.9995251838
 20
20.5296537609
 11
-15.9995251838
 21
24.9887565307
  0
LINE
  5
287
100
AcDbEntity
  8
RACCORDO
100
AcDbLine
 62
7
  6
CONTINUOUS
 10
-15.9275802462
 20
-11.4785479699
 11
-15.9275802462
 21
-11.1321378083
  0
LINE
  5
288
100
AcDbEntity
  8
RACCORDO
100
AcDbLine
 62
7
  6
CONTINUOUS
 10
-15.9275802462
 20
2.3778189207
 11
-15.9275802462
 21
13.9826384714
  0
LINE
  5
289
100
AcDbEntity
  8
RACCORDO
100
AcDbLine
 62
7
  6
CONTINUOUS
 10
-15.3620034652
 20
-11.6690708382
 11
-15.3620034652
 21
-11.7613363604
  0
LINE
  5
28A
100
AcDbEntity
  8
RACCORDO
100
AcDbLine
 62
7
  6
CONTINUOUS
 10
-15.2216733654
 20
-11.5468862626
 11
-15.2216733654
 21
-11.8315014103
  0
LINE
  5
28B
100
AcDbEntity
  8
RACCORDO
100
AcDbLine
 62
7
  6
CONTINUOUS
 10
-14.9245355417
 20
21.1243114057
 11
-14.9245355417
 21
17.5042223262
  0
LINE
  5
28C
100
AcDbEntity
  8
RACCORDO
100
AcDbLine
 62
7
  6
CONTINUOUS
 10
-14.9245355417
 20
2.8078741156
 11
-14.9245355417
 21
-0.8122149639
  0
LINE
  5
28D
100
AcDbEntity
  8
RACCORDO
100
AcDbLine
 62
7
  6
CONTINUOUS
 10
-14.8684035168
 20
21.1938160007
 11
-14.8684035017
 21
17.5736881632
  0
LINE
  5
28E
100
AcDbEntity
  8
RACCORDO
100
AcDbLine
 62
7
  6
CONTINUOUS
 10
-14.8684035168
 20
2.8773787107
 11
-14.8684035017
 21
-0.7427491268
  0
LWPOLYLINE
  5
28F
100
AcDbEntity
  8
RACCORDO
100
AcDbPolyline
 62
7
  6
CONTINUOUS
 90
18
 70
0
 10
-16.6243484161
 20
15.0767106517
 10
-16.6237298741
 20
15.1042135908
 10
-16.6214664884
 20
15.1371236885
 10
-16.6174184859
 20
15.1719333805
 10
-16.6115186589
 20
15.2082070321
 10
-16.6037152012
 20
15.2456847607
 10
-16.5939751755
 20
15.2841178178
 10
-16.5823469474
 20
15.3230630654
 10
-16.5688722698
 20
15.3622336461
 10
-16.5536090094
 20
15.4013574735
 10
-16.5367035055
 20
15.4400149984
 10
-16.5182774701
 20
15.477932675
 10
-16.4984645737
 20
15.5148585059
 10
-16.4774901245
 20
15.5504276336
 10
-16.4555288533
 20
15.584427029
 10
-16.4327690101
 20
15.6166587031
 10
-16.409507929
 20
15.6468213669
 10
-16.3846441976
 20
15.6762707498
  0
LINE
  5
290
100
AcDbEntity
  8
DRAFT
100
AcDbLine
 62
7
  6
CONTINUOUS
 10
-16.7106557145
 20
-3.3210099498
 11
-16.5928097249
 21
-3.1011063396
  0
LINE
  5
291
100
AcDbEntity
  8
ASSI
100
AcDbLine
 62
7
  6
CONTINUOUS
 10
10.2156754793
 20
-24.8529239176
 11
7.8665629407
 21
-23.6783676483
  0
LINE
  5
292
100
AcDbEntity
  8
ASSI
100
AcDbLine
 62
7
  6
CONTINUOUS
 10
-5.6942270974
 20
-16.8979726292
 11
-8.043339636
 21
-15.72341636
  0
LINE
  5
293
100
AcDbEntity
  8
ASSI
100
AcDbLine
 62
7
  6
CONTINUOUS
 10
10.354136809
 20
-24.7807332262
 11
8.0079842969
 21
-23.6076569702
  0
LINE
  5
294
100
AcDbEntity
  8
ASSI
100
AcDbLine
 62
7
  6
CONTINUOUS
 10
-5.5557657677
 20
-16.8257819379
 11
-7.9019182798
 21
-15.6527056818
  0
LINE
  5
295
100
AcDbEntity
  8
RACCORDO
100
AcDbLine
 62
7
  6
CONTINUOUS
 10
13.0476910834
 20
-25.9661836347
 11
10.5889240483
 21
-24.7368001171
  0
LINE
  5
296
100
AcDbEntity
  8
RACCORDO
100
AcDbLine
 62
7
  6
CONTINUOUS
 10
5.5684659018
 20
-22.2265710439
 11
-5.3209785284
 21
-16.7818488288
  0
LINE
  5
297
100
AcDbEntity
  8
RACCORDO
100
AcDbLine
 62
7
  6
CONTINUOUS
 10
-10.3414366749
 20
-14.2716197555
 11
-15.9275479375
 21
-11.4785641242
  0
LINE
  5
298
100
AcDbEntity
  8
ASSI
100
AcDbLine
 62
7
  6
CONTINUOUS
 10
12.1092036278
 20
-25.4461346013
 11
8.2201163313
 21
-23.501590953
  0
LINE
  5
299
100
AcDbEntity
  8
ASSI
100
AcDbLine
 62
7
  6
CONTINUOUS
 10
-3.8006989489
 20
-17.4911833129
 11
-7.6897862454
 21
-15.5466396647
  0
LINE
  5
29A
100
AcDbEntity
  8
ASSI
100
AcDbLine
 62
7
  6
CONTINUOUS
 10
12.2506249841
 20
-25.3754239231
 11
8.3615376875
 21
-23.4308802749
  0
LINE
  5
29B
100
AcDbEntity
  8
ASSI
100
AcDbLine
 62
7
  6
CONTINUOUS
 10
-3.6592775926
 20
-17.4204726348
 11
-7.5483648892
 21
-15.4759289865
  0
LINE
  5
29C
100
AcDbEntity
  8
RACCORDO
100
AcDbLine
 62
7
  6
CONTINUOUS
 10
-15.9253308815
 20
-11.1276390789
 11
-15.5741031908
 21
-11.3032529242
  0
LINE
  5
29D
100
AcDbEntity
  8
ASSI
100
AcDbLine
 62
7
  6
CONTINUOUS
 10
12.4627570184
 20
-25.269357906
 11
8.5736697219
 21
-23.3248142577
  0
LINE
  5
29E
100
AcDbEntity
  8
ASSI
100
AcDbLine
 62
7
  6
CONTINUOUS
 10
-3.4471455583
 20
-17.3144066176
 11
-7.3362328548
 21
-15.3698629694
  0
LINE
  5
29F
100
AcDbEntity
  8
RACCORDO
100
AcDbLine
 62
7
  6
CONTINUOUS
 10
-15.9541464404
 20
-10.9933314145
 11
-15.3887467424
 21
-11.2760312635
  0
LINE
  5
2A0
100
AcDbEntity
  8
RACCORDO
100
AcDbLine
 62
7
  6
CONTINUOUS
 10
-17.1469737206
 20
-10.3865575399
 11
-17.2466948225
 21
-10.3366969889
  0
LINE
  5
2A1
100
AcDbEntity
  8
DRAFT
100
AcDbLine
 62
7
  6
CONTINUOUS
 10
-17.0469076145
 20
-10.4056095705
 11
-16.7106557145
 21
-10.5737355205
  0
LINE
  5
2A2
100
AcDbEntity
  8
ASSI
100
AcDbLine
 62
7
  6
CONTINUOUS
 10
12.6041783747
 20
-25.1986472279
 11
8.7150910781
 21
-23.2541035796
  0
LINE
  5
2A3
100
AcDbEntity
  8
ASSI
100
AcDbLine
 62
7
  6
CONTINUOUS
 10
-3.305724202
 20
-17.2436959395
 11
-7.1948114986
 21
-15.2991522912
  0
LINE
  5
2A4
100
AcDbEntity
  8
RACCORDO
100
AcDbLine
 62
7
  6
CONTINUOUS
 10
-16.1397445942
 20
-10.7662480132
 11
-16.9462737859
 21
-10.3629834174
  0
LINE
  5
2A5
100
AcDbEntity
  8
ASSI
100
AcDbLine
 62
7
  6
CONTINUOUS
 10
12.816310409
 20
-25.0925812107
 11
8.9272231125
 21
-23.1480375624
  0
LINE
  5
2A6
100
AcDbEntity
  8
ASSI
100
AcDbLine
 62
7
  6
CONTINUOUS
 10
-3.0935921677
 20
-17.1376299223
 11
-6.9826794642
 21
-15.1930862741
  0
LINE
  5
2A7
100
AcDbEntity
  8
ASSI
100
AcDbLine
 62
7
  6
CONTINUOUS
 10
12.9577317652
 20
-25.0218705326
 11
9.0686444687
 21
-23.0773268843
  0
LINE
  5
2A8
100
AcDbEntity
  8
ASSI
100
AcDbLine
 62
7
  6
CONTINUOUS
 10
-2.9521708115
 20
-17.0669192442
 11
-6.841258108
 21
-15.1223755959
  0
LINE
  5
2A9
100
AcDbEntity
  8
ASSI
100
AcDbLine
 62
7
  6
CONTINUOUS
 10
13.0476910834
 20
-24.8547181573
 11
9.2807765031
 21
-22.9712608671
  0
LINE
  5
2AA
100
AcDbEntity
  8
ASSI
100
AcDbLine
 62
7
  6
CONTINUOUS
 10
-2.7400387771
 20
-16.960853227
 11
-6.6291260736
 21
-15.0163095788
  0
LINE
  5
2AB
100
AcDbEntity
  8
ASSI
100
AcDbLine
 62
7
  6
CONTINUOUS
 10
13.0476910834
 20
-24.7132968011
 11
9.4221978593
 21
-22.900550189
  0
LINE
  5
2AC
100
AcDbEntity
  8
ASSI
100
AcDbLine
 62
7
  6
CONTINUOUS
 10
-2.5986174209
 20
-16.8901425489
 11
-6.4877047174
 21
-14.9455989006
  0
LINE
  5
2AD
100
AcDbEntity
  8
ASSI
100
AcDbLine
 62
7
  6
CONTINUOUS
 10
13.0476910834
 20
-24.5011647667
 11
9.6343298937
 21
-22.7944841718
  0
LINE
  5
2AE
100
AcDbEntity
  8
ASSI
100
AcDbLine
 62
7
  6
CONTINUOUS
 10
-2.3864853865
 20
-16.7840765317
 11
-6.275572683
 21
-14.8395328835
  0
LINE
  5
2AF
100
AcDbEntity
  8
ASSI
100
AcDbLine
 62
7
  6
CONTINUOUS
 10
-6.2122735841
 20
-14.7535988701
 11
-6.1579891202
 21
-14.780741102
  0
LINE
  5
2B0
100
AcDbEntity
  8
ASSI
100
AcDbLine
 62
7
  6
CONTINUOUS
 10
-2.1389980131
 20
-16.7902366556
 11
-1.9548097386
 21
-16.8823307929
  0
LINE
  5
2B1
100
AcDbEntity
  8
ASSI
100
AcDbLine
 62
7
  6
CONTINUOUS
 10
9.6976289926
 20
-22.7085501584
 11
9.7519134565
 21
-22.7356923904
  0
LINE
  5
2B2
100
AcDbEntity
  8
ASSI
100
AcDbLine
 62
7
  6
CONTINUOUS
 10
13.0476910834
 20
-24.3597434105
 11
9.7757512499
 21
-22.7237734937
  0
LINE
  5
2B3
100
AcDbEntity
  8
ASSI
100
AcDbLine
 62
7
  6
CONTINUOUS
 10
-2.2450640303
 20
-16.7133658536
 11
-6.1341513268
 21
-14.7688222054
  0
LINE
  5
2B4
100
AcDbEntity
  8
ASSI
100
AcDbLine
 62
7
  6
CONTINUOUS
 10
-6.0904710619
 20
-14.7640984142
 11
-1.8977268226
 21
-16.8604705338
  0
LINE
  5
2B5
100
AcDbEntity
  8
ASSI
100
AcDbLine
 62
7
  6
CONTINUOUS
 10
9.8194315148
 20
-22.7190497026
 11
13.0476910834
 21
-24.3331794869
  0
LINE
  5
2B6
100
AcDbEntity
  8
ASSI
100
AcDbLine
 62
7
  6
CONTINUOUS
 10
-3.6592775926
 20
-17.4204726348
 11
-3.5532115755
 21
-17.4973434368
  0
LINE
  5
2B7
100
AcDbEntity
  8
ASSI
100
AcDbLine
 62
7
  6
CONTINUOUS
 10
-3.305724202
 20
-17.2436959395
 11
-3.1996581849
 21
-17.3205667415
  0
LINE
  5
2B8
100
AcDbEntity
  8
ASSI
100
AcDbLine
 62
7
  6
CONTINUOUS
 10
-2.9521708115
 20
-17.0669192442
 11
-2.8461047943
 21
-17.1437900462
  0
LINE
  5
2B9
100
AcDbEntity
  8
ASSI
100
AcDbLine
 62
7
  6
CONTINUOUS
 10
-2.5986174209
 20
-16.8901425489
 11
-2.4925514037
 21
-16.9670133509
  0
LINE
  5
2BA
100
AcDbEntity
  8
ASSI
100
AcDbLine
 62
7
  6
CONTINUOUS
 10
-2.2450640303
 20
-16.7133658536
 11
-2.1389980131
 21
-16.7902366556
  0
LINE
  5
2BB
100
AcDbEntity
  8
ASSI
100
AcDbLine
 62
7
  6
CONTINUOUS
 10
12.2506249841
 20
-25.3754239231
 11
12.3566910012
 21
-25.4522947251
  0
LINE
  5
2BC
100
AcDbEntity
  8
RACCORDO
100
AcDbLine
 62
7
  6
CONTINUOUS
 10
-10.1293046405
 20
-14.6375329698
 11
-10.1293046405
 21
-15.1265876124
  0
LINE
  5
2BD
100
AcDbEntity
  8
RACCORDO
100
AcDbLine
 62
7
  6
CONTINUOUS
 10
-15.9275802462
 20
2.6243705086
 11
-15.0659353587
 21
3.051752725
  0
LINE
  5
2BE
100
AcDbEntity
  8
RACCORDO
100
AcDbLine
 62
7
  6
CONTINUOUS
 10
-15.937386596
 20
2.3054925259
 11
-14.9245355417
 21
2.8078741156
  0
LINE
  5
2BF
100
AcDbEntity
  8
RACCORDO
100
AcDbLine
 62
7
  6
CONTINUOUS
 10
-15.5271098485
 20
3.2463367686
 11
-15.9275802462
 21
3.0613862678
  0
LINE
  5
2C0
100
AcDbEntity
  8
RACCORDO
100
AcDbLine
 62
7
  6
CONTINUOUS
 10
-15.4407859635
 20
3.2391780273
 11
-15.9275802462
 21
3.0143602957
  0
LINE
  5
2C1
100
AcDbEntity
  8
RACCORDO
100
AcDbLine
 62
7
  6
CONTINUOUS
 10
-16.503139747
 20
2.1120064699
 11
-15.9275802462
 21
2.3778189207
  0
LINE
  5
2C2
100
AcDbEntity
  8
RACCORDO
100
AcDbLine
 62
7
  6
CONTINUOUS
 10
-16.5842770915
 20
1.948232091
 11
-16.0087175908
 21
2.2140445418
  0
LINE
  5
2C3
100
AcDbEntity
  8
RACCORDO
100
AcDbLine
 62
7
  6
CONTINUOUS
 10
-16.2116895318
 20
-3.8727829922
 11
-16.7106557145
 21
-3.6232999009
  0
LINE
  5
2C4
100
AcDbEntity
  8
RACCORDO
100
AcDbLine
 62
7
  6
CONTINUOUS
 10
-16.7106557145
 20
-2.491929051
 11
-16.3995961049
 21
-2.6474588558
  0
LINE
  5
2C5
100
AcDbEntity
  8
ASSI
100
AcDbLine
 62
7
  6
CONTINUOUS
 10
12.6041783747
 20
-25.1986472279
 11
12.7102443918
 21
-25.2755180298
  0
LINE
  5
2C6
100
AcDbEntity
  8
ASSI
100
AcDbLine
 62
7
  6
CONTINUOUS
 10
12.9577317652
 20
-25.0218705326
 11
13.0476910834
 21
-25.087068087
  0
LINE
  5
2C7
100
AcDbEntity
  8
0
100
AcDbLine
 62
7
  6
CONTINUOUS
 10
-4.1433947148
 20
-22.3732467902
 11
-3.7798025293
 21
-23.7424892853
  0
LINE
  5
2C8
100
AcDbEntity
  8
0
100
AcDbLine
 62
7
  6
CONTINUOUS
 10
-3.7563760816
 20
-22.9453391121
 11
-4.0630383931
 21
-21.7823712919
  0
LINE
  5
2C9
100
AcDbEntity
  8
0
100
AcDbLine
 62
7
  6
CONTINUOUS
 10
-3.66369859
 20
-22.6897751155
 11
-3.9216170369
 21
-21.7116606138
  0
LINE
  5
2CA
100
AcDbEntity
  8
IMPORT_IGES
100
AcDbLine
 62
7
  6
CONTINUOUS
 10
-3.9216170369
 20
-21.7116606138
 11
-3.66369859
 21
-22.6897751155
  0
LINE
  5
2CB
100
AcDbEntity
  8
0
100
AcDbLine
 62
7
  6
CONTINUOUS
 10
-6.3197046315
 20
-20.6540381727
 11
-5.8489942538
 21
-22.707893423
  0
LINE
  5
2CC
100
AcDbEntity
  8
0
100
AcDbLine
 62
7
  6
CONTINUOUS
 10
-5.6999884703
 20
-22.2156259893
 11
-5.983018566
 21
-20.8223812055
  0
LINE
  5
2CD
100
AcDbEntity
  8
IMPORT_IGES
100
AcDbLine
 62
7
  6
CONTINUOUS
 10
-5.8415972098
 20
-20.7516705273
 11
-5.6119851322
 21
-21.8819596173
  0
LINE
  5
2CE
100
AcDbEntity
  8
0
100
AcDbLine
 62
7
  6
CONTINUOUS
 10
-5.6119851322
 20
-21.8819596173
 11
-5.8415972098
 21
-20.7516705273
  0
LINE
  5
2CF
100
AcDbEntity
  8
0
100
AcDbLine
 62
7
  6
CONTINUOUS
 10
-3.0009435017
 20
-24.1319187991
 11
-3.1397888679
 21
-22.2439960545
  0
LINE
  5
2D0
100
AcDbEntity
  8
0
100
AcDbLine
 62
7
  6
CONTINUOUS
 10
-2.8725057702
 20
-23.8846658196
 11
-2.9983675117
 21
-22.1732853764
  0
LINE
  5
2D1
100
AcDbEntity
  8
IMPORT_IGES
100
AcDbLine
 62
7
  6
CONTINUOUS
 10
-2.9983675117
 20
-22.1732853764
 11
-2.8725057702
 21
-23.8846658196
  0
LINE
  5
2D2
100
AcDbEntity
  8
0
100
AcDbLine
 62
7
  6
CONTINUOUS
 10
-3.3678201983
 20
-22.7659842497
 11
-3.3041431113
 21
-23.9803189943
  0
LINE
  5
2D3
100
AcDbEntity
  8
0
100
AcDbLine
 62
7
  6
CONTINUOUS
 10
-4.9835712141
 20
-21.3219957622
 11
-4.9835712141
 21
-23.1406049429
  0
LINE
  5
2D4
100
AcDbEntity
  8
0
100
AcDbLine
 62
7
  6
CONTINUOUS
 10
-4.6736349982
 20
-23.2955730508
 11
-4.6736349982
 21
-21.4769638702
  0
LINE
  5
2D5
100
AcDbEntity
  8
0
100
AcDbLine
 62
7
  6
CONTINUOUS
 10
-4.5322136419
 20
-23.2248623727
 11
-4.5322136419
 21
-21.4062531921
  0
LINE
  5
2D6
100
AcDbEntity
  8
IMPORT_IGES
100
AcDbLine
 62
7
  6
CONTINUOUS
 10
-4.5322136419
 20
-23.2248623727
 11
-4.5322136419
 21
-21.4062531921
  0
LINE
  5
2D7
100
AcDbEntity
  8
DRAFT
100
AcDbLine
 62
7
  6
CONTINUOUS
 10
-16.7106557145
 20
-4.0785449921
 11
-17.2466948225
 21
-4.376210863
  0
LINE
  5
2D8
100
AcDbEntity
  8
RACCORDO
100
AcDbLine
 62
7
  6
CONTINUOUS
 10
-16.2531494955
 20
-1.5290326726
 11
-14.9245355417
 21
-0.8122149639
  0
LINE
  5
2D9
100
AcDbEntity
  8
RACCORDO
100
AcDbLine
 62
7
  6
CONTINUOUS
 10
-16.2531494955
 20
-1.6091986136
 11
-14.9734387376
 21
-0.918765301
  0
LINE
  5
2DA
100
AcDbEntity
  8
DRAFT
100
AcDbLine
 62
7
  6
CONTINUOUS
 10
33.045399309
 20
25.2123721511
 11
34.7366206258
 21
26.0941377377
  0
LINE
  5
2DB
100
AcDbEntity
  8
RACCORDO
100
AcDbLine
 62
7
  6
CONTINUOUS
 10
-16.7106557145
 20
-2.2960974831
 11
-16.3934795953
 21
-2.13187474
  0
LINE
  5
2DC
100
AcDbEntity
  8
RACCORDO
100
AcDbLine
 62
7
  6
CONTINUOUS
 10
-16.5928097249
 20
-3.1011063396
 11
-16.3934795953
 21
-2.9979001437
  0
LINE
  5
2DD
100
AcDbEntity
  8
RACCORDO
100
AcDbLine
 62
7
  6
CONTINUOUS
 10
14.7585758109
 20
12.3862864547
 11
15.0501223981
 21
12.5331838459
  0
LINE
  5
2DE
100
AcDbEntity
  8
SMUSSO
100
AcDbLine
 62
7
  6
CONTINUOUS
 10
30.9535993464
 20
23.8570196386
 11
32.7213662994
 21
24.740903115
  0
LINE
  5
2DF
100
AcDbEntity
  8
SMUSSO
100
AcDbLine
 62
7
  6
CONTINUOUS
 10
31.6607061276
 20
22.6374408442
 11
33.4284730806
 21
23.5213243207
  0
LINE
  5
2E0
100
AcDbEntity
  8
DRAFT
100
AcDbLine
 62
7
  6
CONTINUOUS
 10
34.0765391061
 20
23.4339190782
 11
35.7972807976
 21
24.264769547
  0
LINE
  5
2E1
100
AcDbEntity
  8
RACCORDO
100
AcDbLine
 62
7
  6
CONTINUOUS
 10
-15.4407859635
 20
3.2391780273
 11
-15.0659353587
 21
3.051752725
  0
LINE
  5
2E2
100
AcDbEntity
  8
0
100
AcDbLine
 62
7
  6
CONTINUOUS
 10
-1.7311487212
 20
-24.7668161893
 11
-2.186722064
 21
-22.7205294565
  0
LINE
  5
2E3
100
AcDbEntity
  8
0
100
AcDbLine
 62
7
  6
CONTINUOUS
 10
-1.6401363879
 20
-24.4696846361
 11
-2.0453007077
 21
-22.6498187784
  0
LINE
  5
2E4
100
AcDbEntity
  8
IMPORT_IGES
100
AcDbLine
 62
7
  6
CONTINUOUS
 10
-2.0453007077
 20
-22.6498187784
 11
-1.6401363879
 21
-24.4696846361
  0
LINE
  5
2E5
100
AcDbEntity
  8
0
100
AcDbLine
 62
7
  6
CONTINUOUS
 10
-2.1380978662
 20
-24.2003046336
 11
-2.0578080125
 21
-24.6034865437
  0
LINE
  5
2E6
100
AcDbEntity
  8
0
100
AcDbLine
 62
7
  6
CONTINUOUS
 10
-2.3424580899
 20
-23.142339049
 11
-2.2000382989
 21
-23.8884174269
  0
LINE
  5
2E7
100
AcDbEntity
  8
ASSI
100
AcDbLine
 62
7
  6
CONTINUOUS
 10
-1.9477962087
 20
-16.8786735074
 11
-1.9477962087
 21
-17.3907996423
  0
LINE
  5
2E8
100
AcDbEntity
  8
ASSI
100
AcDbLine
 62
7
  6
CONTINUOUS
 10
-1.8964251738
 20
-16.8629150755
 11
-1.8964251738
 21
-17.37346586
  0
LINE
  5
2E9
100
AcDbEntity
  8
0
100
AcDbLine
 62
7
  6
CONTINUOUS
 10
-1.6401363879
 20
-23.0150683552
 11
-1.6401363879
 21
-24.8123227004
  0
LINE
  5
2EA
100
AcDbEntity
  8
0
100
AcDbLine
 62
7
  6
CONTINUOUS
 10
-1.3417245984
 20
-23.9520415326
 11
-1.3417245984
 21
-23.4528276999
  0
LINE
  5
2EB
100
AcDbEntity
  8
0
100
AcDbLine
 62
7
  6
CONTINUOUS
 10
-1.3314475908
 20
-24.966667099
 11
-1.3314475908
 21
-24.2550064706
  0
LINE
  5
2EC
100
AcDbEntity
  8
0
100
AcDbLine
 62
7
  6
CONTINUOUS
 10
-1.2003032422
 20
-23.8813308544
 11
-1.2003032422
 21
-23.5065543653
  0
LINE
  5
2ED
100
AcDbEntity
  8
IMPORT_IGES
100
AcDbLine
 62
7
  6
CONTINUOUS
 10
-1.2003032422
 20
-23.8813308544
 11
-1.2003032422
 21
-23.5065543653
  0
LINE
  5
2EE
100
AcDbEntity
  8
0
100
AcDbLine
 62
7
  6
CONTINUOUS
 10
-1.1900262345
 20
-24.8959564208
 11
-1.1900262345
 21
-24.3257171487
  0
LINE
  5
2EF
100
AcDbEntity
  8
IMPORT_IGES
100
AcDbLine
 62
7
  6
CONTINUOUS
 10
-1.1900262345
 20
-24.8959564208
 11
-1.1900262345
 21
-24.3257171487
  0
LINE
  5
2F0
100
AcDbEntity
  8
0
100
AcDbLine
 62
7
  6
CONTINUOUS
 10
-0.8433064295
 20
-24.3618777951
 11
-0.8433064295
 21
-24.3511320428
  0
LINE
  5
2F1
100
AcDbEntity
  8
0
100
AcDbLine
 62
7
  6
CONTINUOUS
 10
-4.2102792382
 20
-23.5272509308
 11
-4.1433947148
 21
-22.3732467902
  0
LINE
  5
2F2
100
AcDbEntity
  8
0
100
AcDbLine
 62
7
  6
CONTINUOUS
 10
-4.0688578819
 20
-23.4565402527
 11
-4.030674526
 21
-22.797736861
  0
LINE
  5
2F3
100
AcDbEntity
  8
IMPORT_IGES
100
AcDbLine
 62
7
  6
CONTINUOUS
 10
-4.030674526
 20
-22.797736861
 11
-4.0688578819
 21
-23.4565402527
  0
LINE
  5
2F4
100
AcDbEntity
  8
0
100
AcDbLine
 62
7
  6
CONTINUOUS
 10
-4.3727179293
 20
-21.6275315238
 11
-4.5067867892
 21
-23.3789971553
  0
LINE
  5
2F5
100
AcDbEntity
  8
0
100
AcDbLine
 62
7
  6
CONTINUOUS
 10
-5.408313287
 20
-21.109733845
 11
-5.6999884703
 21
-22.2156259893
  0
LINE
  5
2F6
100
AcDbEntity
  8
RACCORDO
100
AcDbLine
 62
7
  6
CONTINUOUS
 10
-19.131510319
 20
-13.5181469851
 11
-17.9459192915
 21
-12.6536762191
  0
LINE
  5
2F7
100
AcDbEntity
  8
RACCORDO
100
AcDbLine
 62
7
  6
CONTINUOUS
 10
-19.2920918098
 20
-13.12615687
 11
-18.1158323973
 21
-12.2685986606
  0
LINE
  5
2F8
100
AcDbEntity
  8
RACCORDO
100
AcDbLine
 62
7
  6
CONTINUOUS
 10
15.2534751706
 20
11.5327113221
 11
15.5450217579
 21
11.6796087132
  0
LINE
  5
2F9
100
AcDbEntity
  8
RACCORDO
100
AcDbLine
 62
7
  6
CONTINUOUS
 10
-16.2116895318
 20
-3.8727829922
 11
-17.1469737206
 21
-4.3243797134
  0
LINE
  5
2FA
100
AcDbEntity
  8
RACCORDO
100
AcDbLine
 62
7
  6
CONTINUOUS
 10
-15.9995251838
 20
-4.2386727874
 11
-16.9348093726
 21
-4.6902695085
  0
LINE
  5
2FB
100
AcDbEntity
  8
RACCORDO
100
AcDbLine
 62
7
  6
CONTINUOUS
 10
-14.9789613729
 20
3.056225686
 11
-14.9790318177
 21
3.0562608614
  0
LINE
  5
2FC
100
AcDbEntity
  8
RACCORDO
100
AcDbLine
 62
7
  6
CONTINUOUS
 10
-15.3538113874
 20
3.2436506933
 11
-14.9789607826
 21
3.0562253909
  0
LINE
  5
2FD
100
AcDbEntity
  8
DRAFT
100
AcDbLine
 62
7
  6
CONTINUOUS
 10
-2.4742638546
 20
-17.9473422435
 11
-2.4172202027
 21
-17.71512837
  0
LINE
  5
2FE
100
AcDbEntity
  8
0
100
AcDbLine
 62
7
  6
CONTINUOUS
 10
-2.4967799022
 20
-23.7400466252
 11
-2.3424580899
 21
-23.142339049
  0
LINE
  5
2FF
100
AcDbEntity
  8
0
100
AcDbLine
 62
7
  6
CONTINUOUS
 10
-2.355358546
 20
-23.6693359471
 11
-2.2901043839
 21
-23.4165984601
  0
LINE
  5
300
100
AcDbEntity
  8
IMPORT_IGES
100
AcDbLine
 62
7
  6
CONTINUOUS
 10
-2.2901043839
 20
-23.4165984601
 11
-2.355358546
 21
-23.6693359471
  0
LINE
  5
301
100
AcDbEntity
  8
0
100
AcDbLine
 62
7
  6
CONTINUOUS
 10
-2.6457022472
 20
-24.3095394263
 11
-2.5601790962
 21
-23.9892640186
  0
LINE
  5
302
100
AcDbEntity
  8
0
100
AcDbLine
 62
7
  6
CONTINUOUS
 10
-2.504280891
 20
-24.2388287482
 11
-2.452073354
 21
-24.0433168897
  0
LINE
  5
303
100
AcDbEntity
  8
IMPORT_IGES
100
AcDbLine
 62
7
  6
CONTINUOUS
 10
-2.452073354
 20
-24.0433168897
 11
-2.504280891
 21
-24.2388287482
  0
LINE
  5
304
100
AcDbEntity
  8
0
100
AcDbLine
 62
7
  6
CONTINUOUS
 10
-2.48654736
 20
-22.5706168085
 11
-2.9522754633
 21
-24.1562528183
  0
LINE
  5
305
100
AcDbEntity
  8
0
100
AcDbLine
 62
7
  6
CONTINUOUS
 10
-5.5758629459
 20
-22.844459077
 11
-5.098588496
 21
-21.2645962405
  0
LINE
  5
306
100
AcDbEntity
  8
0
100
AcDbLine
 62
7
  6
CONTINUOUS
 10
-5.4344415896
 20
-22.7737483989
 11
-4.9571671398
 21
-21.1938855623
  0
LINE
  5
307
100
AcDbEntity
  8
IMPORT_IGES
100
AcDbLine
 62
7
  6
CONTINUOUS
 10
-4.9571671398
 20
-21.1938855623
 11
-5.4344415896
 21
-22.7737483989
  0
LINE
  5
308
100
AcDbEntity
  8
0
100
AcDbLine
 62
7
  6
CONTINUOUS
 10
-3.4464398657
 20
-22.0906705556
 11
-3.7563760816
 21
-22.9453391121
  0
LINE
  5
309
100
AcDbEntity
  8
0
100
AcDbLine
 62
7
  6
CONTINUOUS
 10
-3.7363345541
 20
-23.7642232729
 11
-3.3678201983
 21
-22.7659842497
  0
LINE
  5
30A
100
AcDbEntity
  8
0
100
AcDbLine
 62
7
  6
CONTINUOUS
 10
-3.5949131979
 20
-23.6935125947
 11
-3.3534772977
 21
-23.0395062222
  0
LINE
  5
30B
100
AcDbEntity
  8
IMPORT_IGES
100
AcDbLine
 62
7
  6
CONTINUOUS
 10
-3.3534772977
 20
-23.0395062222
 11
-3.5949131979
 21
-23.6935125947
  0
LINE
  5
30C
100
AcDbEntity
  8
ASSI
100
AcDbLine
 62
7
  6
CONTINUOUS
 10
-8.4385159404
 20
-15.9719819625
 11
-8.3968930266
 21
-15.9001930553
  0
LINE
  5
30D
100
AcDbEntity
  8
ASSI
100
AcDbLine
 62
7
  6
CONTINUOUS
 10
-8.1386908096
 20
-15.8878728075
 11
-8.043339636
 21
-15.72341636
  0
LINE
  5
30E
100
AcDbEntity
  8
ASSI
100
AcDbLine
 62
7
  6
CONTINUOUS
 10
-7.785137419
 20
-15.7110961122
 11
-7.6897862454
 21
-15.5466396647
  0
LINE
  5
30F
100
AcDbEntity
  8
ASSI
100
AcDbLine
 62
7
  6
CONTINUOUS
 10
-7.4315840284
 20
-15.5343194169
 11
-7.3362328548
 21
-15.3698629694
  0
LINE
  5
310
100
AcDbEntity
  8
ASSI
100
AcDbLine
 62
7
  6
CONTINUOUS
 10
-7.0780306378
 20
-15.3575427216
 11
-6.9826794642
 21
-15.1930862741
  0
LINE
  5
311
100
AcDbEntity
  8
ASSI
100
AcDbLine
 62
7
  6
CONTINUOUS
 10
-6.7244772472
 20
-15.1807660263
 11
-6.6291260736
 21
-15.0163095788
  0
LINE
  5
312
100
AcDbEntity
  8
ASSI
100
AcDbLine
 62
7
  6
CONTINUOUS
 10
-6.3709238566
 20
-15.003989331
 11
-6.275572683
 21
-14.8395328835
  0
LINE
  5
313
100
AcDbEntity
  8
DRAFT
100
AcDbLine
 62
7
  6
CONTINUOUS
 10
-16.7106557145
 20
-10.5737355205
 11
-17.2466948225
 21
-10.8714013914
  0
LINE
  5
314
100
AcDbEntity
  8
RACCORDO
100
AcDbLine
 62
7
  6
CONTINUOUS
 10
-18.0559492938
 20
-12.2316081011
 11
-17.7245312409
 21
-12.0646212472
  0
LINE
  5
315
100
AcDbEntity
  8
RACCORDO
100
AcDbLine
 62
7
  6
CONTINUOUS
 10
-16.503139747
 20
-11.7685468681
 11
-15.9275802462
 21
-11.4785479699
  0
LINE
  5
316
100
AcDbEntity
  8
RACCORDO
100
AcDbLine
 62
7
  6
CONTINUOUS
 10
-17.8119681037
 20
-12.5813623595
 11
-17.5124315152
 21
-12.4304391612
  0
LINE
  5
317
100
AcDbEntity
  8
RACCORDO
100
AcDbLine
 62
7
  6
CONTINUOUS
 10
-15.5741031908
 20
-11.3032529242
 11
-15.9275479375
 21
-11.4785641242
  0
LINE
  5
318
100
AcDbEntity
  8
RACCORDO
100
AcDbLine
 62
7
  6
CONTINUOUS
 10
-15.3620034652
 20
-11.6690708382
 11
-15.4546388459
 21
-11.71501867
  0
LINE
  5
319
100
AcDbEntity
  8
RACCORDO
100
AcDbLine
 62
7
  6
CONTINUOUS
 10
-17.7220988511
 20
-12.0696100464
 11
-16.7106557145
 21
-11.5764605116
  0
LINE
  5
31A
100
AcDbEntity
  8
RACCORDO
100
AcDbLine
 62
7
  6
CONTINUOUS
 10
-17.5067579199
 20
-12.4332759589
 11
-16.4988143997
 21
-11.9418327328
  0
LINE
  5
31B
100
AcDbEntity
  8
RACCORDO
100
AcDbLine
 62
7
  6
CONTINUOUS
 10
-16.9348093726
 20
-10.2328320928
 11
-15.9995251838
 21
-9.7812353716
  0
LINE
  5
31C
100
AcDbEntity
  8
RACCORDO
100
AcDbLine
 62
7
  6
CONTINUOUS
 10
-17.0141916672
 20
-10.3957771852
 11
-16.0789074785
 21
-9.944180464
  0
LINE
  5
31D
100
AcDbEntity
  8
RACCORDO
100
AcDbLine
 62
7
  6
CONTINUOUS
 10
-16.7106557145
 20
-11.0419092433
 11
-16.1397445942
 21
-10.7662480132
  0
LINE
  5
31E
100
AcDbEntity
  8
RACCORDO
100
AcDbLine
 62
7
  6
CONTINUOUS
 10
-16.503139747
 20
-11.4100434829
 11
-15.9275802462
 21
-11.1321378083
  0
LINE
  5
31F
100
AcDbEntity
  8
RACCORDO
100
AcDbLine
 62
7
  6
CONTINUOUS
 10
5.7805979362
 20
-22.5924842582
 11
5.7805979362
 21
-23.0815389008
  0
LINE
  5
320
100
AcDbEntity
  8
ASSI
100
AcDbLine
 62
7
  6
CONTINUOUS
 10
-3.8235354126
 20
-17.5305703867
 11
-3.8006989489
 21
-17.4911833129
  0
LINE
  5
321
100
AcDbEntity
  8
ASSI
100
AcDbLine
 62
7
  6
CONTINUOUS
 10
-3.5532115755
 20
-17.4973434368
 11
-3.4471455583
 21
-17.3144066176
  0
LINE
  5
322
100
AcDbEntity
  8
ASSI
100
AcDbLine
 62
7
  6
CONTINUOUS
 10
-3.1996581849
 20
-17.3205667415
 11
-3.0935921677
 21
-17.1376299223
  0
LINE
  5
323
100
AcDbEntity
  8
ASSI
100
AcDbLine
 62
7
  6
CONTINUOUS
 10
-2.8461047943
 20
-17.1437900462
 11
-2.7400387771
 21
-16.960853227
  0
LINE
  5
324
100
AcDbEntity
  8
ASSI
100
AcDbLine
 62
7
  6
CONTINUOUS
 10
-2.4925514037
 20
-16.9670133509
 11
-2.3864853865
 21
-16.7840765317
  0
LINE
  5
325
100
AcDbEntity
  8
RACCORDO
100
AcDbLine
 62
7
  6
CONTINUOUS
 10
-10.9071220998
 20
-14.5665556917
 11
-10.3414366749
 21
-14.2716197555
  0
LINE
  5
326
100
AcDbEntity
  8
RACCORDO
100
AcDbLine
 62
7
  6
CONTINUOUS
 10
-10.6081231014
 20
-14.887178382
 11
-10.1293046405
 21
-14.6375329698
  0
LINE
  5
327
100
AcDbEntity
  8
RACCORDO
100
AcDbLine
 62
7
  6
CONTINUOUS
 10
-16.7106557145
 20
14.6339442567
 11
-16.1396799718
 21
14.3484563854
  0
LINE
  5
328
100
AcDbEntity
  8
RACCORDO
100
AcDbLine
 62
7
  6
CONTINUOUS
 10
13.0476910834
 20
10.1304367242
 11
13.0476910834
 21
-29.4092116707
  0
LINE
  5
329
100
AcDbEntity
  8
RACCORDO
100
AcDbLine
 62
7
  6
CONTINUOUS
 10
13.1355590491
 20
10.024370707
 11
13.1355590491
 21
-29.5152777096
  0
LWPOLYLINE
  5
32A
100
AcDbEntity
  8
RACCORDO
100
AcDbPolyline
 62
7
  6
CONTINUOUS
 90
8
 70
0
 10
13.0476906358
 20
-29.409349758
 10
13.0475496601
 20
-29.4198065068
 10
13.046651088
 20
-29.43719596
 10
13.0449807491
 20
-29.4531357551
 10
13.0426726007
 20
-29.4671951483
 10
13.0400306378
 20
-29.4786472368
 10
13.0373932021
 20
-29.4872839366
 10
13.0368942457
 20
-29.4886802085
  0
LINE
  5
32B
100
AcDbEntity
  8
ASSI
100
AcDbLine
 62
7
  6
CONTINUOUS
 10
-2.2097086912
 20
-17.6093891746
 11
-1.9550038176
 21
-17.4247931238
  0
LINE
  5
32C
100
AcDbEntity
  8
ASSI
100
AcDbLine
 62
7
  6
CONTINUOUS
 10
-1.9548097386
 20
-16.8823307929
 11
-3.4544714905
 21
-17.7151023477
  0
LINE
  5
32D
100
AcDbEntity
  8
RACCORDO
100
AcDbLine
 62
7
  6
CONTINUOUS
 10
-5.4568518558
 20
-16.7742104002
 11
-6.0225372807
 21
-17.0691463364
  0
LINE
  5
32E
100
AcDbEntity
  8
RACCORDO
100
AcDbLine
 62
7
  6
CONTINUOUS
 10
-5.3209785284
 20
-16.7818488288
 11
-5.8866639534
 21
-17.0767847649
  0
LINE
  5
32F
100
AcDbEntity
  8
ASSI
100
AcDbLine
 62
7
  6
CONTINUOUS
 10
-8.3968930266
 20
-15.9001930553
 11
-8.2554716704
 21
-15.8294823771
  0
LINE
  5
330
100
AcDbEntity
  8
ASSI
100
AcDbLine
 62
7
  6
CONTINUOUS
 10
-8.043339636
 20
-15.72341636
 11
-7.9019182798
 21
-15.6527056818
  0
LINE
  5
331
100
AcDbEntity
  8
ASSI
100
AcDbLine
 62
7
  6
CONTINUOUS
 10
-7.6897862454
 20
-15.5466396647
 11
-7.5483648892
 21
-15.4759289865
  0
LINE
  5
332
100
AcDbEntity
  8
ASSI
100
AcDbLine
 62
7
  6
CONTINUOUS
 10
-7.3362328548
 20
-15.3698629694
 11
-7.1948114986
 21
-15.2991522912
  0
LINE
  5
333
100
AcDbEntity
  8
ASSI
100
AcDbLine
 62
7
  6
CONTINUOUS
 10
-6.9826794642
 20
-15.1930862741
 11
-6.841258108
 21
-15.1223755959
  0
LINE
  5
334
100
AcDbEntity
  8
ASSI
100
AcDbLine
 62
7
  6
CONTINUOUS
 10
-6.6291260736
 20
-15.0163095788
 11
-6.4877047174
 21
-14.9455989006
  0
LINE
  5
335
100
AcDbEntity
  8
ASSI
100
AcDbLine
 62
7
  6
CONTINUOUS
 10
-6.275572683
 20
-14.8395328835
 11
-6.1341513268
 21
-14.7688222054
  0
LINE
  5
336
100
AcDbEntity
  8
ASSI
100
AcDbLine
 62
7
  6
CONTINUOUS
 10
-3.8006989489
 20
-17.4911833129
 11
-3.6592775926
 21
-17.4204726348
  0
LINE
  5
337
100
AcDbEntity
  8
ASSI
100
AcDbLine
 62
7
  6
CONTINUOUS
 10
-3.4471455583
 20
-17.3144066176
 11
-3.305724202
 21
-17.2436959395
  0
LINE
  5
338
100
AcDbEntity
  8
ASSI
100
AcDbLine
 62
7
  6
CONTINUOUS
 10
-3.0935921677
 20
-17.1376299223
 11
-2.9521708115
 21
-17.0669192442
  0
LINE
  5
339
100
AcDbEntity
  8
ASSI
100
AcDbLine
 62
7
  6
CONTINUOUS
 10
-2.7400387771
 20
-16.960853227
 11
-2.5986174209
 21
-16.8901425489
  0
LINE
  5
33A
100
AcDbEntity
  8
ASSI
100
AcDbLine
 62
7
  6
CONTINUOUS
 10
-2.3864853865
 20
-16.7840765317
 11
-2.2450640303
 21
-16.7133658536
  0
LINE
  5
33B
100
AcDbEntity
  8
ASSI
100
AcDbLine
 62
7
  6
CONTINUOUS
 10
-2.1389980131
 20
-16.7902366556
 11
-3.7216004439
 21
-17.581537871
  0
LINE
  5
33C
100
AcDbEntity
  8
ASSI
100
AcDbLine
 62
7
  6
CONTINUOUS
 10
-6.2122735841
 20
-14.7535988701
 11
-8.6659668159
 21
-15.8582565247
  0
LINE
  5
33D
100
AcDbEntity
  8
RACCORDO
100
AcDbLine
 62
7
  6
CONTINUOUS
 10
-14.9789613729
 20
21.3726629761
 11
-14.9790318177
 21
21.3726981514
  0
LINE
  5
33E
100
AcDbEntity
  8
RACCORDO
100
AcDbLine
 62
7
  6
CONTINUOUS
 10
-17.1469737206
 20
19.9243315926
 11
-17.2466948225
 21
19.9741921435
  0
LINE
  5
33F
100
AcDbEntity
  8
DRAFT
100
AcDbLine
 62
7
  6
CONTINUOUS
 10
-17.0469076144
 20
19.9052795619
 11
-16.7106557145
 21
19.737153612
  0
LINE
  5
340
100
AcDbEntity
  8
RACCORDO
100
AcDbLine
 62
7
  6
CONTINUOUS
 10
-15.4407859635
 20
21.5556153174
 11
-15.0659353587
 21
21.368190015
  0
LINE
  5
341
100
AcDbEntity
  8
RACCORDO
100
AcDbLine
 62
7
  6
CONTINUOUS
 10
-15.3538113874
 20
21.5600879833
 11
-14.9789607826
 21
21.3726626809
  0
LINE
  5
342
100
AcDbEntity
  8
RACCORDO
100
AcDbLine
 62
7
  6
CONTINUOUS
 10
14.8329456252
 20
-32.7228398536
 11
14.8329456252
 21
11.534546275
  0
LINE
  5
343
100
AcDbEntity
  8
RACCORDO
100
AcDbLine
 62
7
  6
CONTINUOUS
 10
15.2534751706
 20
-32.7246748065
 11
15.2534751706
 21
11.5327113221
  0
LINE
  5
344
100
AcDbEntity
  8
RACCORDO
100
AcDbLine
 62
7
  6
CONTINUOUS
 10
15.5450217579
 20
11.6796087132
 11
15.5450217579
 21
-32.590028931
  0
LINE
  5
345
100
AcDbEntity
  8
SMUSSO
100
AcDbLine
 62
7
  6
CONTINUOUS
 10
30.2464925653
 20
22.6374408442
 11
30.9535993464
 21
23.8570196386
  0
LINE
  5
346
100
AcDbEntity
  8
DRAFT
100
AcDbLine
 62
7
  6
CONTINUOUS
 10
32.7592937004
 20
24.7189129638
 11
33.045399309
 21
25.2123721511
  0
LINE
  5
347
100
AcDbEntity
  8
ASSI
100
AcDbLine
 62
7
  6
CONTINUOUS
 10
7.4713866363
 20
-23.9269332508
 11
7.5130095501
 21
-23.8551443436
  0
LINE
  5
348
100
AcDbEntity
  8
ASSI
100
AcDbLine
 62
7
  6
CONTINUOUS
 10
7.7712117671
 20
-23.8428240959
 11
7.8665629407
 21
-23.6783676483
  0
LINE
  5
349
100
AcDbEntity
  8
ASSI
100
AcDbLine
 62
7
  6
CONTINUOUS
 10
8.1247651577
 20
-23.6660474006
 11
8.2201163313
 21
-23.501590953
  0
LINE
  5
34A
100
AcDbEntity
  8
ASSI
100
AcDbLine
 62
7
  6
CONTINUOUS
 10
-2.2097086912
 20
-17.6093891746
 11
-2.9309098681
 21
-17.9768831589
  0
LINE
  5
34B
100
AcDbEntity
  8
DRAFT
100
AcDbLine
 62
7
  6
CONTINUOUS
 10
-2.6606910446
 20
-18.1119925706
 11
-2.5535628259
 21
-18.0581325021
  0
LINE
  5
34C
100
AcDbEntity
  8
DRAFT
100
AcDbLine
 62
7
  6
CONTINUOUS
 10
-2.7315507108
 20
-18.0765627375
 11
-2.4742638546
 21
-17.9473422435
  0
LINE
  5
34D
100
AcDbEntity
  8
0
100
AcDbLine
 62
7
  6
CONTINUOUS
 10
-6.1782832752
 20
-20.5833274946
 11
-6.3197046315
 21
-20.6540381727
  0
LINE
  5
34E
100
AcDbEntity
  8
0
100
AcDbLine
 62
7
  6
CONTINUOUS
 10
-5.8415972098
 20
-20.7516705273
 11
-5.983018566
 21
-20.8223812055
  0
LINE
  5
34F
100
AcDbEntity
  8
0
100
AcDbLine
 62
7
  6
CONTINUOUS
 10
-5.2668919307
 20
-21.0390231669
 11
-5.408313287
 21
-21.109733845
  0
LINE
  5
350
100
AcDbEntity
  8
0
100
AcDbLine
 62
7
  6
CONTINUOUS
 10
-4.9571671398
 20
-21.1938855623
 11
-5.098588496
 21
-21.2645962405
  0
LINE
  5
351
100
AcDbEntity
  8
0
100
AcDbLine
 62
7
  6
CONTINUOUS
 10
-4.8421498578
 20
-21.2512850841
 11
-4.9835712141
 21
-21.3219957622
  0
LINE
  5
352
100
AcDbEntity
  8
0
100
AcDbLine
 62
7
  6
CONTINUOUS
 10
-4.5322136419
 20
-21.4062531921
 11
-4.6736349982
 21
-21.4769638702
  0
LINE
  5
353
100
AcDbEntity
  8
0
100
AcDbLine
 62
7
  6
CONTINUOUS
 10
-4.231296573
 20
-21.5568208457
 11
-4.3727179293
 21
-21.6275315238
  0
LINE
  5
354
100
AcDbEntity
  8
0
100
AcDbLine
 62
7
  6
CONTINUOUS
 10
-3.9216170369
 20
-21.7116606138
 11
-4.0630383931
 21
-21.7823712919
  0
LINE
  5
355
100
AcDbEntity
  8
0
100
AcDbLine
 62
7
  6
CONTINUOUS
 10
-5.4344415896
 20
-22.7737483989
 11
-5.5758629459
 21
-22.844459077
  0
LINE
  5
356
100
AcDbEntity
  8
0
100
AcDbLine
 62
7
  6
CONTINUOUS
 10
-3.3050185095
 20
-22.0199598775
 11
-3.4464398657
 21
-22.0906705556
  0
LINE
  5
357
100
AcDbEntity
  8
0
100
AcDbLine
 62
7
  6
CONTINUOUS
 10
-2.9983675117
 20
-22.1732853764
 11
-3.1397888679
 21
-22.2439960545
  0
LINE
  5
358
100
AcDbEntity
  8
0
100
AcDbLine
 62
7
  6
CONTINUOUS
 10
-4.5322136419
 20
-23.2248623727
 11
-4.6736349982
 21
-23.2955730508
  0
LINE
  5
359
100
AcDbEntity
  8
ASSI
100
AcDbLine
 62
7
  6
CONTINUOUS
 10
-1.9477962087
 20
-17.3907996423
 11
-3.027375168
 21
-17.928650509
  0
LINE
  5
35A
100
AcDbEntity
  8
RACCORDO
100
AcDbLine
 62
7
  6
CONTINUOUS
 10
-19.1931060476
 20
26.5855469626
 11
12.8083042397
 21
10.5848418189
  0
LINE
  5
35B
100
AcDbEntity
  8
RACCORDO
100
AcDbLine
 62
7
  6
CONTINUOUS
 10
-19.2710740033
 20
26.7478091027
 11
12.7303362773
 21
10.7471039624
  0
LINE
  5
35C
100
AcDbEntity
  8
RACCORDO
100
AcDbLine
 62
7
  6
CONTINUOUS
 10
14.550145991
 20
12.0223034936
 11
-21.0931670589
 21
29.8439600186
  0
LINE
  5
35D
100
AcDbEntity
  8
RACCORDO
100
AcDbLine
 62
7
  6
CONTINUOUS
 10
14.7585758109
 20
12.3862864547
 11
-20.8824538971
 21
30.2068013087
  0
LINE
  5
35E
100
AcDbEntity
  8
RACCORDO
100
AcDbLine
 62
7
  6
CONTINUOUS
 10
-20.6009106304
 20
30.3587003601
 11
15.0501223981
 21
12.5331838459
  0
LWPOLYLINE
  5
35F
100
AcDbEntity
  8
RACCORDO
100
AcDbPolyline
 62
7
  6
CONTINUOUS
 90
22
 70
0
 10
12.808335704
 20
10.5848259066
 10
12.8149491781
 20
10.5813405959
 10
12.8283954803
 20
10.5732350299
 10
12.8435472895
 20
10.562598579
 10
12.8598711689
 20
10.5494497243
 10
12.8770211403
 20
10.5337710742
 10
12.8946641901
 20
10.5155999697
 10
12.9123602185
 20
10.4951653023
 10
12.9297654914
 20
10.4727003822
 10
12.946632108
 20
10.4483936001
 10
12.962747201
 20
10.4224287452
 10
12.9778690282
 20
10.3950992254
 10
12.9918016528
 20
10.3667030832
 10
13.0044326129
 20
10.3374163981
 10
13.0156040256
 20
10.3075642719
 10
13.0251933114
 20
10.2774857987
 10
13.033145315
 20
10.2473958968
 10
13.0393940798
 20
10.2176054281
 10
13.043892179
 20
10.1884913873
 10
13.0466360914
 20
10.1604510493
 10
13.0476758657
 20
10.1338758838
 10
13.047690481
 20
10.1305687743
  0
LWPOLYLINE
  5
360
100
AcDbEntity
  8
RACCORDO
100
AcDbPolyline
 62
7
  6
CONTINUOUS
 90
3
 70
0
 10
13.0368942457
 20
-29.4886802085
 10
13.0351334255
 20
-29.4930714189
 10
13.0338173436
 20
-29.4957767574
  0
LINE
  5
361
100
AcDbEntity
  8
ASSI
100
AcDbLine
 62
7
  6
CONTINUOUS
 10
8.4783185483
 20
-23.4892707053
 11
8.5736697219
 21
-23.3248142577
  0
LINE
  5
362
100
AcDbEntity
  8
ASSI
100
AcDbLine
 62
7
  6
CONTINUOUS
 10
8.8318719389
 20
-23.31249401
 11
8.9272231125
 21
-23.1480375624
  0
LINE
  5
363
100
AcDbEntity
  8
ASSI
100
AcDbLine
 62
7
  6
CONTINUOUS
 10
9.1854253295
 20
-23.1357173147
 11
9.2807765031
 21
-22.9712608671
  0
LINE
  5
364
100
AcDbEntity
  8
ASSI
100
AcDbLine
 62
7
  6
CONTINUOUS
 10
9.5389787201
 20
-22.9589406194
 11
9.6343298937
 21
-22.7944841718
  0
LINE
  5
365
100
AcDbEntity
  8
ASSI
100
AcDbLine
 62
7
  6
CONTINUOUS
 10
12.0863671641
 20
-25.485521675
 11
12.1092036278
 21
-25.4461346013
  0
LINE
  5
366
100
AcDbEntity
  8
ASSI
100
AcDbLine
 62
7
  6
CONTINUOUS
 10
12.3566910012
 20
-25.4522947251
 11
12.4627570184
 21
-25.269357906
  0
LINE
  5
367
100
AcDbEntity
  8
RACCORDO
100
AcDbLine
 62
7
  6
CONTINUOUS
 10
5.0027804769
 20
-22.5215069801
 11
5.5684659018
 21
-22.2265710439
  0
LINE
  5
368
100
AcDbEntity
  8
RACCORDO
100
AcDbLine
 62
7
  6
CONTINUOUS
 10
5.3017794753
 20
-22.8421296703
 11
5.7805979362
 21
-22.5924842582
  0
LINE
  5
369
100
AcDbEntity
  8
0
100
AcDbLine
 62
7
  6
CONTINUOUS
 10
-2.3451260038
 20
-22.4999061303
 11
-2.48654736
 21
-22.5706168085
  0
LINE
  5
36A
100
AcDbEntity
  8
0
100
AcDbLine
 62
7
  6
CONTINUOUS
 10
-4.0688578819
 20
-23.4565402527
 11
-4.2102792382
 21
-23.5272509308
  0
LINE
  5
36B
100
AcDbEntity
  8
0
100
AcDbLine
 62
7
  6
CONTINUOUS
 10
-2.0453007077
 20
-22.6498187784
 11
-2.186722064
 21
-22.7205294565
  0
LINE
  5
36C
100
AcDbEntity
  8
0
100
AcDbLine
 62
7
  6
CONTINUOUS
 10
-3.5949131979
 20
-23.6935125947
 11
-3.7363345541
 21
-23.7642232729
  0
LINE
  5
36D
100
AcDbEntity
  8
0
100
AcDbLine
 62
7
  6
CONTINUOUS
 10
-1.4987150317
 20
-22.944357677
 11
-1.6401363879
 21
-23.0150683552
  0
LINE
  5
36E
100
AcDbEntity
  8
0
100
AcDbLine
 62
7
  6
CONTINUOUS
 10
-2.355358546
 20
-23.6693359471
 11
-2.4967799022
 21
-23.7400466252
  0
LINE
  5
36F
100
AcDbEntity
  8
0
100
AcDbLine
 62
7
  6
CONTINUOUS
 10
-2.935520183
 20
-24.0992071398
 11
-3.0009435017
 21
-24.1319187991
  0
LINE
  5
370
100
AcDbEntity
  8
0
100
AcDbLine
 62
7
  6
CONTINUOUS
 10
-0.7338406658
 20
-23.3459408451
 11
-0.875262022
 21
-23.4166515232
  0
LINE
  5
371
100
AcDbEntity
  8
0
100
AcDbLine
 62
7
  6
CONTINUOUS
 10
-2.504280891
 20
-24.2388287482
 11
-2.6457022472
 21
-24.3095394263
  0
LINE
  5
372
100
AcDbEntity
  8
0
100
AcDbLine
 62
7
  6
CONTINUOUS
 10
-1.2003032422
 20
-23.8813308544
 11
-1.3417245984
 21
-23.9520415326
  0
LINE
  5
373
100
AcDbEntity
  8
0
100
AcDbLine
 62
7
  6
CONTINUOUS
 10
-1.0231779578
 20
-23.9698934966
 11
-1.164599314
 21
-24.0406041748
  0
LINE
  5
374
100
AcDbEntity
  8
0
100
AcDbLine
 62
7
  6
CONTINUOUS
 10
-1.6401363879
 20
-24.7213100227
 11
-1.7311487212
 21
-24.7668161893
  0
LINE
  5
375
100
AcDbEntity
  8
0
100
AcDbLine
 62
7
  6
CONTINUOUS
 10
-0.8390081285
 20
-24.3597286446
 11
-0.8433064295
 21
-24.3618777951
  0
LINE
  5
376
100
AcDbEntity
  8
0
100
AcDbLine
 62
7
  6
CONTINUOUS
 10
-0.8002751416
 20
-24.3444394031
 11
-0.6588537854
 21
-24.273728725
  0
LINE
  5
377
100
AcDbEntity
  8
0
100
AcDbLine
 62
7
  6
CONTINUOUS
 10
-1.1900262345
 20
-24.8959564208
 11
-1.3314475908
 21
-24.966667099
  0
LINE
  5
378
100
AcDbEntity
  8
0
100
AcDbLine
 62
7
  6
CONTINUOUS
 10
-0.5232343825
 20
-24.7371614361
 11
-0.6646557387
 21
-24.8078721143
  0
LINE
  5
379
100
AcDbEntity
  8
0
100
AcDbLine
 62
7
  6
CONTINUOUS
 10
-0.4172798812
 20
-25.2823295975
 11
-0.5587012374
 21
-25.3530402757
  0
LINE
  5
37A
100
AcDbEntity
  8
SMUSSO
100
AcDbLine
 62
7
  6
CONTINUOUS
 10
30.2464925653
 20
22.6374408442
 11
31.6607061276
 21
22.6374408442
  0
LINE
  5
37B
100
AcDbEntity
  8
DRAFT
100
AcDbLine
 62
7
  6
CONTINUOUS
 10
33.4284730806
 20
23.4339190782
 11
34.0765391061
 21
23.4339190782
  0
LINE
  5
37C
100
AcDbEntity
  8
ASSI
100
AcDbLine
 62
7
  6
CONTINUOUS
 10
12.7102443918
 20
-25.2755180298
 11
12.816310409
 21
-25.0925812107
  0
LINE
  5
37D
100
AcDbEntity
  8
RACCORDO
100
AcDbLine
 62
7
  6
CONTINUOUS
 10
13.0339727934
 20
-29.495567865
 11
13.0351851409
 21
-29.4939305372
  0
LINE
  5
37E
100
AcDbEntity
  8
RACCORDO
100
AcDbLine
 62
7
  6
CONTINUOUS
 10
10.4530507209
 20
-24.7291616886
 11
9.887365296
 21
-25.0240976248
  0
LINE
  5
37F
100
AcDbEntity
  8
RACCORDO
100
AcDbLine
 62
7
  6
CONTINUOUS
 10
10.5889240483
 20
-24.7368001171
 11
10.0232386233
 21
-25.0317360533
  0
LINE
  5
380
100
AcDbEntity
  8
ASSI
100
AcDbLine
 62
7
  6
CONTINUOUS
 10
7.5130095501
 20
-23.8551443436
 11
7.6544309063
 21
-23.7844336655
  0
LINE
  5
381
100
AcDbEntity
  8
ASSI
100
AcDbLine
 62
7
  6
CONTINUOUS
 10
7.8665629407
 20
-23.6783676483
 11
8.0079842969
 21
-23.6076569702
  0
LINE
  5
382
100
AcDbEntity
  8
ASSI
100
AcDbLine
 62
7
  6
CONTINUOUS
 10
8.2201163313
 20
-23.501590953
 11
8.3615376875
 21
-23.4308802749
  0
LINE
  5
383
100
AcDbEntity
  8
ASSI
100
AcDbLine
 62
7
  6
CONTINUOUS
 10
8.5736697219
 20
-23.3248142577
 11
8.7150910781
 21
-23.2541035796
  0
LINE
  5
384
100
AcDbEntity
  8
ASSI
100
AcDbLine
 62
7
  6
CONTINUOUS
 10
8.9272231125
 20
-23.1480375624
 11
9.0686444687
 21
-23.0773268843
  0
LINE
  5
385
100
AcDbEntity
  8
ASSI
100
AcDbLine
 62
7
  6
CONTINUOUS
 10
9.2807765031
 20
-22.9712608671
 11
9.4221978593
 21
-22.900550189
  0
LINE
  5
386
100
AcDbEntity
  8
ASSI
100
AcDbLine
 62
7
  6
CONTINUOUS
 10
9.6343298937
 20
-22.7944841718
 11
9.7757512499
 21
-22.7237734937
  0
LINE
  5
387
100
AcDbEntity
  8
ASSI
100
AcDbLine
 62
7
  6
CONTINUOUS
 10
9.6976289926
 20
-22.7085501584
 11
7.2439357608
 21
-23.8132078131
  0
LINE
  5
388
100
AcDbEntity
  8
RACCORDO
100
AcDbLine
 62
7
  6
CONTINUOUS
 10
-19.2113714815
 20
26.5933790809
 11
-19.2113053482
 21
26.5933772096
  0
LINE
  5
389
100
AcDbEntity
  8
RACCORDO
100
AcDbLine
 62
7
  6
CONTINUOUS
 10
-18.8218663928
 20
26.3999271351
 11
-19.2920918098
 21
26.4134921019
  0
LWPOLYLINE
  5
38A
100
AcDbEntity
  8
RACCORDO
100
AcDbPolyline
 62
7
  6
CONTINUOUS
 90
6
 70
0
 10
-19.2113183016
 20
26.5933712791
 10
-19.2130394963
 20
26.5934722743
 10
-19.2131948695
 20
26.5934352799
 10
-19.2092530036
 20
26.5923344903
 10
-19.2016659356
 20
26.5894975764
 10
-19.1932861603
 20
26.5856371659
  0
LINE
  5
38B
100
AcDbEntity
  8
SMUSSO
100
AcDbLine
 62
7
  6
CONTINUOUS
 10
30.2464925653
 20
-58.2493318693
 11
30.2464925653
 21
22.6374408442
  0
LINE
  5
38C
100
AcDbEntity
  8
SMUSSO
100
AcDbLine
 62
7
  6
CONTINUOUS
 10
31.6607061276
 20
-58.2493318693
 11
31.6607061276
 21
22.6374408442
  0
LINE
  5
38D
100
AcDbEntity
  8
RACCORDO
100
AcDbLine
 62
7
  6
CONTINUOUS
 10
12.8699057957
 20
-29.5188550424
 11
13.0476910834
 21
-29.2957067139
  0
LINE
  5
38E
100
AcDbEntity
  8
ASSI
100
AcDbLine
 62
7
  6
CONTINUOUS
 10
13.0476910834
 20
-25.3411679536
 11
12.4554310862
 21
-25.6700536361
  0
LINE
  5
38F
100
AcDbEntity
  8
ASSI
100
AcDbLine
 62
7
  6
CONTINUOUS
 10
13.0476910834
 20
-25.896828626
 11
12.9789927086
 21
-25.9318344473
  0
LINE
  5
390
100
AcDbEntity
  8
ASSI
100
AcDbLine
 62
7
  6
CONTINUOUS
 10
12.1092036278
 20
-25.4461346013
 11
12.2506249841
 21
-25.3754239231
  0
LINE
  5
391
100
AcDbEntity
  8
ASSI
100
AcDbLine
 62
7
  6
CONTINUOUS
 10
12.4627570184
 20
-25.269357906
 11
12.6041783747
 21
-25.1986472279
  0
LINE
  5
392
100
AcDbEntity
  8
ASSI
100
AcDbLine
 62
7
  6
CONTINUOUS
 10
12.816310409
 20
-25.0925812107
 11
12.9577317652
 21
-25.0218705326
  0
LINE
  5
393
100
AcDbEntity
  8
ASSI
100
AcDbLine
 62
7
  6
CONTINUOUS
 10
13.0476910834
 20
-25.106794684
 11
12.1883021328
 21
-25.5364891594
  0
LINE
  5
394
100
AcDbEntity
  8
ASSI
100
AcDbLine
 62
7
  6
CONTINUOUS
 10
13.0476910834
 20
-25.8013165463
 11
12.8825274087
 21
-25.8836017973
  0
LINE
  5
395
100
AcDbEntity
  8
SMUSSO
100
AcDbLine
 62
7
  6
CONTINUOUS
 10
33.4284730806
 20
23.8748777113
 11
33.4284730806
 21
-57.3654483928
  0
LINE
  5
396
100
AcDbEntity
  8
DRAFT
100
AcDbLine
 62
7
  6
CONTINUOUS
 10
34.0765391061
 20
-56.5002256871
 11
34.0765391061
 21
23.4339190782
  0
LINE
  5
397
100
AcDbEntity
  8
DRAFT
100
AcDbLine
 62
7
  6
CONTINUOUS
 10
35.7972807976
 20
24.9718763273
 11
35.7972807976
 21
-55.6693752232
  0
LINE
  5
398
100
AcDbEntity
  8
RACCORDO
100
AcDbLine
 62
7
  6
CONTINUOUS
 10
15.2534751706
 20
-32.7246748065
 11
15.5450217579
 21
-32.590028931
  0
LINE
  5
399
100
AcDbEntity
  8
RACCORDO
100
AcDbLine
 62
7
  6
CONTINUOUS
 10
15.062737993
 20
-33.1074693062
 11
15.3557012873
 21
-32.9721691484
  0
LINE
  5
39A
100
AcDbEntity
  8
SMUSSO
100
AcDbLine
 62
7
  6
CONTINUOUS
 10
30.2464925653
 20
22.6374408442
 11
-35.7972807976
 21
55.6593275256
  0
LINE
  5
39B
100
AcDbEntity
  8
SMUSSO
100
AcDbLine
 62
7
  6
CONTINUOUS
 10
30.9535993464
 20
23.8570196386
 11
-35.0901740164
 21
56.87890632
  0
LINE
  5
39C
100
AcDbEntity
  8
SMUSSO
100
AcDbLine
 62
7
  6
CONTINUOUS
 10
-33.3224070634
 20
57.7627897965
 11
32.7213662994
 21
24.740903115
  0
LINE
  5
39D
100
AcDbEntity
  8
DRAFT
100
AcDbLine
 62
7
  6
CONTINUOUS
 10
33.045399309
 20
25.2123721511
 11
-32.2205565914
 21
57.8453501013
  0
LINE
  5
39E
100
AcDbEntity
  8
DRAFT
100
AcDbLine
 62
7
  6
CONTINUOUS
 10
-30.5293352784
 20
58.7271156898
 11
34.7366206258
 21
26.0941377377
  0
LINE
  5
39F
100
AcDbEntity
  8
SMUSSO
100
AcDbLine
 62
7
  6
CONTINUOUS
 10
33.1456303682
 20
24.4405631362
 11
32.8627876556
 21
24.6526951706
  0
LINE
  5
3A0
100
AcDbEntity
  8
SMUSSO
100
AcDbLine
 62
7
  6
CONTINUOUS
 10
35.5144391722
 20
25.5375609369
 11
34.9487526601
 21
25.961825821
  0
LINE
  5
3A1
100
AcDbEntity
  8
SMUSSO
100
AcDbLine
 62
7
  6
CONTINUOUS
 10
31.6607061276
 20
-58.2493318693
 11
33.4284730806
 21
-57.3654483928
  0
LINE
  5
3A2
100
AcDbEntity
  8
RACCORDO
100
AcDbLine
 62
7
  6
CONTINUOUS
 10
31.4008141805
 20
-58.7902050504
 11
33.1685798949
 21
-57.9063221932
  0
LINE
  5
3A3
100
AcDbEntity
  8
DRAFT
100
AcDbLine
 62
7
  6
CONTINUOUS
 10
34.0765391061
 20
-56.5002256871
 11
35.7972807976
 21
-55.6693752232
  0
LINE
  5
3A4
100
AcDbEntity
  8
DRAFT
100
AcDbLine
 62
7
  6
CONTINUOUS
 10
33.6866906002
 20
-57.2942362882
 11
35.3962713654
 21
-56.4861174548
  0
ARC
  5
3A5
100
AcDbEntity
  8
RACCORDO
100
AcDbCircle
 62
7
  6
CONTINUOUS
 10
-15.4805613675
 20
14.9688009361
 40
1.2153389167
100
AcDbArc
 50
141.992472414
 51
144.0993475129
  0
ARC
  5
3A6
100
AcDbEntity
  8
RACCORDO
100
AcDbCircle
 62
7
  6
CONTINUOUS
 10
-15.5053296637
 20
14.9880013537
 40
1.1840002978
100
AcDbArc
 50
141.3631324504
 51
141.9865266469
  0
ARC
  5
3A7
100
AcDbEntity
  8
RACCORDO
100
AcDbCircle
 62
7
  6
CONTINUOUS
 10
-15.5417849376
 20
15.0175517862
 40
1.1370736723
100
AcDbArc
 50
138.5066390017
 51
141.3792755634
  0
ARC
  5
3A8
100
AcDbEntity
  8
DRAFT
100
AcDbCircle
 62
7
  6
CONTINUOUS
 10
33.4350974333
 20
-56.6813973222
 40
0.6673284509
100
AcDbArc
 50
269.4417583969
 51
270.4208496955
  0
ARC
  5
3A9
100
AcDbEntity
  8
IMPORT_IGES
100
AcDbCircle
 62
7
  6
CONTINUOUS
 10
-0.8054897248
 20
-23.5099513557
 40
0.5088565022
100
AcDbArc
 50
244.6720486628
 51
247.0404098965
  0
ARC
  5
3AA
100
AcDbEntity
  8
0
100
AcDbCircle
 62
7
  6
CONTINUOUS
 10
-1.0649119594
 20
-24.5859037028
 40
0.3151136592
100
AcDbArc
 50
42.2436531157
 51
45.3111900424
  0
ARC
  5
3AB
100
AcDbEntity
  8
RACCORDO
100
AcDbCircle
 62
7
  6
CONTINUOUS
 10
-15.0684084851
 20
21.1937704687
 40
0.1999985148
100
AcDbArc
 50
0.0130191666
 51
63.4573071593
  0
ARC
  5
3AC
100
AcDbEntity
  8
RACCORDO
100
AcDbCircle
 62
7
  6
CONTINUOUS
 10
-15.0684084851
 20
2.8773331787
 40
0.1999985148
100
AcDbArc
 50
0.0130191666
 51
63.4573071593
  0
ARC
  5
3AD
100
AcDbEntity
  8
RACCORDO
100
AcDbCircle
 62
7
  6
CONTINUOUS
 10
-15.4432694636
 20
21.3812726113
 40
0.1999299515
100
AcDbArc
 50
63.4508113348
 51
114.7934812241
  0
ARC
  5
3AE
100
AcDbEntity
  8
RACCORDO
100
AcDbCircle
 62
7
  6
CONTINUOUS
 10
-15.4432694636
 20
3.0648353213
 40
0.1999299515
100
AcDbArc
 50
63.4508113349
 51
114.7934812241
  0
ARC
  5
3AF
100
AcDbEntity
  8
0
100
AcDbCircle
 62
7
  6
CONTINUOUS
 10
-0.8897339542
 20
-24.1660822126
 40
0.1995348756
100
AcDbArc
 50
295.3072537444
 51
296.6370414053
  0
ARC
  5
3B0
100
AcDbEntity
  8
RACCORDO
100
AcDbCircle
 62
7
  6
CONTINUOUS
 10
-15.0680786602
 20
17.5729923006
 40
0.1992333471
100
AcDbArc
 50
298.3606842613
 51
0.0208738394
  0
ARC
  5
3B1
100
AcDbEntity
  8
RACCORDO
100
AcDbCircle
 62
7
  6
CONTINUOUS
 10
-15.0680786602
 20
-0.7434449894
 40
0.1992333471
100
AcDbArc
 50
298.3606842612
 51
0.0208738394
  0
ARC
  5
3B2
100
AcDbEntity
  8
RACCORDO
100
AcDbCircle
 62
7
  6
CONTINUOUS
 10
-17.8489487666
 20
-12.5082466017
 40
0.1747943258
100
AcDbArc
 50
236.3051741266
 51
243.5810952118
  0
ARC
  5
3B3
100
AcDbEntity
  8
RACCORDO
100
AcDbCircle
 62
7
  6
CONTINUOUS
 10
-18.0089266156
 20
-12.2567194073
 40
0.1075637617
100
AcDbArc
 50
179.9157077733
 51
186.3406327765
  0
ARC
  5
3B4
100
AcDbEntity
  8
ASSI
100
AcDbCircle
 62
7
  6
CONTINUOUS
 10
-6.1721880231
 20
-14.8316469003
 40
0.0874961196
100
AcDbArc
 50
105.0618690741
 51
111.6611297249
  0
ARC
  5
3B5
100
AcDbEntity
  8
ASSI
100
AcDbCircle
 62
7
  6
CONTINUOUS
 10
9.7377145536
 20
-22.7865981886
 40
0.0874961196
100
AcDbArc
 50
105.061869074
 51
111.661129725
  0
ARC
  5
3B6
100
AcDbEntity
  8
RACCORDO
100
AcDbCircle
 62
7
  6
CONTINUOUS
 10
-15.0094983188
 20
-0.8520383137
 40
0.0758414454
100
AcDbArc
 50
298.387015707
 51
302.040101636
  0
ARC
  5
3B7
100
AcDbEntity
  8
RACCORDO
100
AcDbCircle
 62
7
  6
CONTINUOUS
 10
-15.0094983188
 20
17.4643989763
 40
0.0758414454
100
AcDbArc
 50
298.387015707
 51
302.0401016358
  0
ARC
  5
3B8
100
AcDbEntity
  8
RACCORDO
100
AcDbCircle
 62
7
  6
CONTINUOUS
 10
-15.3873529074
 20
21.4931112458
 40
0.0749027917
100
AcDbArc
 50
63.399089383
 51
68.4471909086
  0
ARC
  5
3B9
100
AcDbEntity
  8
RACCORDO
100
AcDbCircle
 62
7
  6
CONTINUOUS
 10
-15.3873529074
 20
3.1766739558
 40
0.0749027917
100
AcDbArc
 50
63.3990893828
 51
68.4471909089
  0
ARC
  5
3BA
100
AcDbEntity
  8
RACCORDO
100
AcDbCircle
 62
7
  6
CONTINUOUS
 10
-14.9188906563
 20
17.5736896898
 40
0.050478377
100
AcDbArc
 50
354.2794988578
 51
359.9956742448
  0
ARC
  5
3BB
100
AcDbEntity
  8
RACCORDO
100
AcDbCircle
 62
7
  6
CONTINUOUS
 10
-14.9188906563
 20
-0.7427476003
 40
0.050478377
100
AcDbArc
 50
354.2794988579
 51
359.9956742447
  0
SPLINE
  5
3BC
100
AcDbEntity
  8
0
100
AcDbSpline
 62
7
  6
CONTINUOUS
 70
0
 71
3
 72
11
 73
7
 74
5
 42
0.0000001
 43
0.0000001
 44
0.0000000001
 12
0.3138156219
 22
-0.2015300707
 32
0.0
 13
0.0047321734
 23
-0.3729238803
 33
0.0
 40
0.0
 40
0.0
 40
0.0
 40
0.0
 40
0.2339806254
 40
0.4918424311
 40
0.7556842856
 40
1.0
 40
1.0
 40
1.0
 40
1.0
 10
-1.0989177668
 20
-23.5635262737
 30
0.0
 10
-1.074442175
 20
-23.5792443177
 30
0.0
 10
-1.0276987526
 20
-23.6197468725
 30
0.0
 10
-0.9715469715
 20
-23.6961189539
 30
0.0
 10
-0.9351550933
 20
-23.7849741322
 30
0.0
 10
-0.9242265847
 20
-23.8480186481
 30
0.0
 10
-0.9238412033
 20
-23.8783890361
 30
0.0
 11
-1.0989177668
 21
-23.5635262737
 31
0.0
 11
-1.0322759811
 21
-23.6198634366
 31
0.0
 11
-0.9754068227
 21
-23.6974177838
 31
0.0
 11
-0.9377894149
 21
-23.7883444455
 31
0.0
 11
-0.9238412033
 21
-23.8783890361
 31
0.0
  0
SPLINE
  5
3BD
100
AcDbEntity
  8
0
100
AcDbSpline
 62
7
  6
CONTINUOUS
 70
0
 71
3
 72
9
 73
5
 74
3
 42
0.0000001
 43
0.0000001
 44
0.0000000001
 12
0.0022769903
 22
-0.1818693411
 32
0.0
 13
-0.1325932361
 23
-0.1245017093
 33
0.0
 40
0.0
 40
0.0
 40
0.0
 40
0.0
 40
0.5440811308
 40
1.0
 40
1.0
 40
1.0
 40
1.0
 10
-0.9238412033
 20
-23.8783890361
 30
0.0
 10
-0.9234282475
 20
-23.9113729284
 30
0.0
 10
-0.9297431339
 20
-23.9719918039
 30
0.0
 10
-0.9569497482
 20
-24.029912917
 30
0.0
 10
-0.9771003343
 20
-24.0488338098
 30
0.0
 11
-0.9238412033
 21
-23.8783890361
 31
0.0
 11
-0.9364843272
 21
-23.9765374979
 31
0.0
 11
-0.9771003343
 21
-24.0488338098
 31
0.0
  0
SPLINE
  5
3BE
100
AcDbEntity
  8
0
100
AcDbSpline
 62
7
  6
CONTINUOUS
 70
0
 71
3
 72
8
 73
4
 74
2
 42
0.0000001
 43
0.0000001
 44
0.0000000001
 12
-0.0187174109
 22
-0.0175751775
 32
0.0
 13
-0.022964815
 23
-0.0114824043
 33
0.0
 40
0.0
 40
0.0
 40
0.0
 40
0.0
 40
1.0
 40
1.0
 40
1.0
 40
1.0
 10
-0.9771003343
 20
-24.0488338098
 30
0.0
 10
-0.9833394713
 20
-24.0546922023
 30
0.0
 10
-0.9904305075
 20
-24.0598000373
 30
0.0
 10
-0.9980854458
 20
-24.0636275054
 30
0.0
 11
-0.9771003343
 21
-24.0488338098
 31
0.0
 11
-0.9980854458
 21
-24.0636275054
 31
0.0
  0
SPLINE
  5
3BF
100
AcDbEntity
  8
0
100
AcDbSpline
 62
7
  6
CONTINUOUS
 70
0
 71
3
 72
10
 73
6
 74
4
 42
0.0000001
 43
0.0000001
 44
0.0000000001
 12
0.257046478
 22
-0.0748047261
 32
0.0
 13
0.2252633536
 23
-0.1446549704
 33
0.0
 40
0.0
 40
0.0
 40
0.0
 40
0.0
 40
0.2362920832
 40
0.4814109498
 40
1.0
 40
1.0
 40
1.0
 40
1.0
 10
-1.3417245984
 20
-23.4528276999
 30
0.0
 10
-1.3214785825
 20
-23.4587196215
 30
0.0
 10
-1.2804503469
 20
-23.4715892881
 30
0.0
 10
-1.1977550133
 20
-23.5053493826
 30
0.0
 10
-1.1378574697
 20
-23.5385207791
 30
0.0
 10
-1.0989177668
 20
-23.5635262737
 30
0.0
 11
-1.3417245984
 21
-23.4528276999
 31
0.0
 11
-1.2814959965
 21
-23.4721682948
 31
0.0
 11
-1.2207052954
 21
-23.4968781316
 31
0.0
 11
-1.0989177668
 21
-23.5635262737
 31
0.0
  0
SPLINE
  5
3C0
100
AcDbEntity
  8
0
100
AcDbSpline
 62
7
  6
CONTINUOUS
 70
0
 71
3
 72
10
 73
6
 74
4
 42
0.0000001
 43
0.0000001
 44
0.0000000001
 12
0.2763115484
 22
-0.1381557742
 32
0.0
 13
0.0793323206
 23
-0.2985656924
 33
0.0
 40
0.0
 40
0.0
 40
0.0
 40
0.0
 40
0.2224105364
 40
0.6042534692
 40
1.0
 40
1.0
 40
1.0
 40
1.0
 10
-1.1652673752
 20
-24.3380965784
 30
0.0
 10
-1.1447825086
 20
-24.3483390117
 30
0.0
 10
-1.0931770105
 20
-24.3847992256
 30
0.0
 10
-1.0322011476
 20
-24.4701965998
 30
0.0
 10
-1.0028160396
 20
-24.5454010948
 30
0.0
 10
-0.9923508761
 20
-24.5847865405
 30
0.0
 11
-1.1652673752
 21
-24.3380965784
 31
0.0
 11
-1.1087928875
 21
-24.377230541
 31
0.0
 11
-1.0373964592
 21
-24.4711313944
 31
0.0
 11
-0.9923508761
 21
-24.5847865405
 31
0.0
  0
SPLINE
  5
3C1
100
AcDbEntity
  8
0
100
AcDbSpline
 62
7
  6
CONTINUOUS
 70
0
 71
3
 72
9
 73
5
 74
3
 42
0.0000001
 43
0.0000001
 44
0.0000000001
 12
0.1629167104
 22
-0.6125703128
 32
0.0
 13
0.1303220388
 23
-0.6203228263
 33
0.0
 40
0.0
 40
0.0
 40
0.0
 40
0.0
 40
0.5011449125
 40
1.0
 40
1.0
 40
1.0
 40
1.0
 10
-0.9923508761
 20
-24.5847865405
 30
0.0
 10
-0.9651359159
 20
-24.6871153725
 30
0.0
 10
-0.9232052193
 20
-24.8943794409
 30
0.0
 10
-0.8784941378
 20
-25.1008287282
 30
0.0
 10
-0.8568235338
 20
-25.2039791275
 30
0.0
 11
-0.9923508761
 21
-24.5847865405
 31
0.0
 11
-0.9224109222
 21
-24.8946494102
 31
0.0
 11
-0.8568235338
 21
-25.2039791275
 31
0.0
  0
SPLINE
  5
3C2
100
AcDbEntity
  8
0
100
AcDbSpline
 62
7
  6
CONTINUOUS
 70
0
 71
3
 72
9
 73
5
 74
3
 42
0.0000001
 43
0.0000001
 44
0.0000000001
 12
0.0378220214
 22
-0.0129339363
 32
0.0
 13
0.036157628
 23
0.0170416534
 33
0.0
 40
0.0
 40
0.0
 40
0.0
 40
0.0
 40
0.5120103131
 40
1.0
 40
1.0
 40
1.0
 40
1.0
 10
-0.8433064295
 20
-24.3511320428
 30
0.0
 10
-0.8368513411
 20
-24.3533394791
 30
0.0
 10
-0.8228600035
 20
-24.3543144451
 30
0.0
 10
-0.8103198348
 20
-24.3492394649
 30
0.0
 10
-0.8044383183
 20
-24.3464674146
 30
0.0
 11
-0.8433064295
 21
-24.3511320428
 31
0.0
 11
-0.8229043534
 21
-24.3527518434
 31
0.0
 11
-0.8044383183
 21
-24.3464674146
 31
0.0
  0
SPLINE
  5
3C3
100
AcDbEntity
  8
RACCORDO
100
AcDbSpline
 62
7
  6
CONTINUOUS
 70
0
 71
3
 72
11
 73
7
 74
5
 42
0.0000001
 43
0.0000001
 44
0.0000000001
 12
0.5251876529
 22
-0.262645468
 32
0.0
 13
0.0000611188
 23
-0.5872007399
 33
0.0
 40
0.0
 40
0.0
 40
0.0
 40
0.0
 40
0.2296791434
 40
0.4882139181
 40
0.7532029516
 40
1.0
 40
1.0
 40
1.0
 40
1.0
 10
14.550145991
 20
12.0223034936
 30
0.0
 10
14.5903542077
 20
12.0021954316
 30
0.0
 10
14.6671908934
 20
11.9420923105
 30
0.0
 10
14.7559147693
 20
11.8227553932
 30
0.0
 10
14.8162803599
 20
11.6831987813
 30
0.0
 10
14.8329405972
 20
11.5828527448
 30
0.0
 10
14.8329456252
 20
11.534546275
 30
0.0
 11
14.550145991
 21
12.0223034936
 31
0.0
 11
14.6583719593
 21
11.9418270781
 31
0.0
 11
14.7501201558
 21
11.8208762837
 31
0.0
 11
14.8114204877
 21
11.6778581862
 31
0.0
 11
14.8329456252
 21
11.534546275
 31
0.0
  0
SPLINE
  5
3C4
100
AcDbEntity
  8
RACCORDO
100
AcDbSpline
 62
7
  6
CONTINUOUS
 70
0
 71
3
 72
15
 73
11
 74
9
 42
0.0000001
 43
0.0000001
 44
0.0000000001
 12
-0.0000286732
 22
-0.4373896662
 32
0.0
 13
-0.3912376427
 23
0.1955577352
 33
0.0
 40
0.0
 40
0.0
 40
0.0
 40
0.0
 40
0.1487813346
 40
0.2840580725
 40
0.4066308139
 40
0.5199169015
 40
0.6296878438
 40
0.7427935763
 40
0.8651019046
 40
1.0
 40
1.0
 40
1.0
 40
1.0
 10
14.8329456252
 20
-32.7228398536
 30
0.0
 10
14.8329442031
 20
-32.7445316597
 30
0.0
 10
14.8297927616
 20
-32.7860651063
 30
0.0
 10
14.8141659843
 20
-32.8436858868
 30
0.0
 10
14.788096339
 20
-32.891780364
 30
0.0
 10
14.7521201578
 20
-32.9281840986
 30
0.0
 10
14.7075814902
 20
-32.9506789288
 30
0.0
 10
14.6569883663
 20
-32.9580182959
 30
0.0
 10
14.6029502427
 20
-32.9503893737
 30
0.0
 10
14.5677383953
 20
-32.9365908935
 30
0.0
 10
14.550145991
 20
-32.9277974381
 30
0.0
 11
14.8329456252
 21
-32.7228398536
 31
0.0
 11
14.8275127518
 21
-32.7876880916
 31
0.0
 11
14.8114199736
 21
-32.8446262275
 31
0.0
 11
14.7852880547
 21
-32.8914383496
 31
0.0
 11
14.7501201079
 21
-32.9263444277
 31
0.0
 11
14.7072622716
 21
-32.9479875078
 31
0.0
 11
14.658372076
 21
-32.9555476789
 31
0.0
 11
14.605312302
 21
-32.9487267486
 31
0.0
 11
14.550145991
 21
-32.9277974381
 31
0.0
  0
SPLINE
  5
3C5
100
AcDbEntity
  8
RACCORDO
100
AcDbSpline
 62
7
  6
CONTINUOUS
 70
0
 71
3
 72
12
 73
8
 74
6
 42
0.0000001
 43
0.0000001
 44
0.0000000001
 12
-0.5230246991
 22
0.2615637784
 32
0.0
 13
-0.0000608662
 23
0.5847823889
 33
0.0
 40
0.0
 40
0.0
 40
0.0
 40
0.0
 40
0.2293635134
 40
0.4875027318
 40
0.7523004135
 40
0.8797660391
 40
1.0
 40
1.0
 40
1.0
 40
1.0
 10
-21.090883717
 20
-15.1072825841
 30
0.0
 10
-21.1308713112
 20
-15.0872848551
 30
0.0
 10
-21.2073349333
 20
-15.0275856727
 30
0.0
 10
-21.2957766068
 20
-14.909159177
 30
0.0
 10
-21.3469924049
 20
-14.7916637288
 30
0.0
 10
-21.3692271449
 20
-14.6940729405
 30
0.0
 10
-21.3736809117
 20
-14.6457587759
 30
0.0
 10
-21.3736833511
 20
-14.6223218749
 30
0.0
 11
-21.090883717
 21
-15.1072825841
 31
0.0
 11
-21.1985820919
 21
-15.0273369041
 31
0.0
 11
-21.2900475408
 21
-14.9072470832
 31
0.0
 11
-21.3514859759
 21
-14.7651079324
 31
0.0
 11
-21.3678745162
 21
-14.6923922141
 31
0.0
 11
-21.3736833511
 21
-14.6223218749
 31
0.0
  0
SPLINE
  5
3C6
100
AcDbEntity
  8
RACCORDO
100
AcDbSpline
 62
7
  6
CONTINUOUS
 70
0
 71
3
 72
11
 73
7
 74
5
 42
0.0000001
 43
0.0000001
 44
0.0000000001
 12
-0.1689068731
 22
0.0845995435
 32
0.0
 13
-0.0000000045
 23
0.1889090113
 33
0.0
 40
0.0
 40
0.0
 40
0.0
 40
0.0
 40
0.2171672584
 40
0.4503633044
 40
0.7104290804
 40
1.0
 40
1.0
 40
1.0
 40
1.0
 10
-21.0129167547
 20
-15.2695389703
 30
0.0
 10
-21.0251437688
 20
-15.2634148867
 30
0.0
 10
-21.0482885184
 20
-15.2458204108
 30
0.0
 10
-21.0731028591
 20
-15.2077745769
 30
0.0
 10
-21.0879214293
 20
-15.1602554995
 30
0.0
 10
-21.0908837165
 20
-15.1255167695
 30
0.0
 10
-21.090883717
 20
-15.1072825841
 30
0.0
 11
-21.0129167547
 21
-15.2695389703
 31
0.0
 11
-21.0457408285
 21
-15.2449296496
 31
0.0
 11
-21.0704004741
 21
-15.2084254841
 31
0.0
 11
-21.0856967965
 21
-15.161738672
 31
0.0
 11
-21.090883717
 21
-15.1072825841
 31
0.0
  0
SPLINE
  5
3C7
100
AcDbEntity
  8
RACCORDO
100
AcDbSpline
 62
7
  6
CONTINUOUS
 70
0
 71
3
 72
15
 73
11
 74
9
 42
0.0000001
 43
0.0000001
 44
0.0000000001
 12
0.0000683239
 22
-0.646551538
 32
0.0
 13
-0.5783308173
 23
0.2890715512
 33
0.0
 40
0.0
 40
0.0
 40
0.0
 40
0.0
 40
0.1487777367
 40
0.2853586629
 40
0.4094901324
 40
0.5236272001
 40
0.6329868848
 40
0.7448320058
 40
0.865953558
 40
1.0
 40
1.0
 40
1.0
 40
1.0
 10
13.1355590491
 20
-29.5152777096
 30
0.0
 10
13.1355624374
 20
-29.5473418677
 30
0.0
 10
13.131405024
 20
-29.6089790479
 30
0.0
 10
13.1106230511
 20
-29.6952715301
 30
0.0
 10
13.075193985
 20
-29.7687315469
 30
0.0
 10
13.0250700824
 20
-29.8259332597
 30
0.0
 10
12.9612308667
 20
-29.8627457963
 30
0.0
 10
12.8872909397
 20
-29.876069085
 30
0.0
 10
12.8078731127
 20
-29.8658652587
 30
0.0
 10
12.7561773401
 20
-29.8457045308
 30
0.0
 10
12.7303362773
 20
-29.8327881932
 30
0.0
 11
13.1355590491
 21
-29.5152777096
 31
0.0
 11
13.1284207656
 21
-29.6112049589
 31
0.0
 11
13.1068598101
 21
-29.6968389608
 31
0.0
 11
13.0710370628
 21
-29.7686580384
 31
0.0
 11
13.021689347
 21
-29.8235267756
 31
0.0
 11
12.9603187576
 21
-29.8586420761
 31
0.0
 11
12.889273256
 21
-29.8721253465
 31
0.0
 11
12.8114630187
 21
-29.8632805295
 31
0.0
 11
12.7303362773
 21
-29.8327881932
 31
0.0
  0
SPLINE
  5
3C8
100
AcDbEntity
  8
0
100
AcDbSpline
 62
7
  6
CONTINUOUS
 70
0
 71
3
 72
9
 73
5
 74
3
 42
0.0000001
 43
0.0000001
 44
0.0000000001
 12
-0.0819903374
 22
0.0180211565
 32
0.0
 13
-0.0758970075
 23
0.0358722979
 33
0.0
 40
0.0
 40
0.0
 40
0.0
 40
0.0
 40
0.2423790088
 40
1.0
 40
1.0
 40
1.0
 40
1.0
 10
-0.9442465069
 20
-23.9981584628
 30
0.0
 10
-0.9508707524
 20
-23.9967024795
 30
0.0
 10
-0.9779552751
 20
-23.9895740906
 30
0.0
 10
-1.0040109024
 20
-23.9789526986
 30
0.0
 10
-1.0231779578
 20
-23.9698934966
 30
0.0
 11
-0.9442465069
 21
-23.9981584628
 31
0.0
 11
-0.9639397468
 21
-23.9930417303
 31
0.0
 11
-1.0231779578
 21
-23.9698934966
 31
0.0
  0
SPLINE
  5
3C9
100
AcDbEntity
  8
0
100
AcDbSpline
 62
7
  6
CONTINUOUS
 70
0
 71
3
 72
10
 73
6
 74
4
 42
0.0000001
 43
0.0000001
 44
0.0000000001
 12
-0.1538658195
 22
-0.0769328886
 32
0.0
 13
-0.1555300044
 23
0.0735103904
 33
0.0
 40
0.0
 40
0.0
 40
0.0
 40
0.0
 40
0.4571693217
 40
0.7225207018
 40
1.0
 40
1.0
 40
1.0
 40
1.0
 10
-0.9980854458
 20
-24.0636275054
 30
0.0
 10
-1.0215330233
 20
-24.0753512909
 30
0.0
 10
-1.0666937078
 20
-24.0752528234
 30
0.0
 10
-1.1213438342
 20
-24.0595131
 30
0.0
 10
-1.1502138618
 20
-24.0474033786
 30
0.0
 10
-1.164599314
 20
-24.0406041748
 30
0.0
 11
-0.9980854458
 21
-24.0636275054
 31
0.0
 11
-1.0764111701
 21
-24.0707130698
 31
0.0
 11
-1.1204908974
 21
-24.0588519485
 31
0.0
 11
-1.164599314
 21
-24.0406041748
 31
0.0
  0
SPLINE
  5
3CA
100
AcDbEntity
  8
0
100
AcDbSpline
 62
7
  6
CONTINUOUS
 70
0
 71
3
 72
18
 73
14
 74
12
 42
0.0000001
 43
0.0000001
 44
0.0000000001
 12
0.9411990151
 22
0.4706007234
 32
0.0
 13
-0.7660294836
 23
0.7214703439
 33
0.0
 40
0.0
 40
0.0
 40
0.0
 40
0.0
 40
0.0457942768
 40
0.0910579023
 40
0.1389648738
 40
0.1905316202
 40
0.3034455327
 40
0.4295779948
 40
0.5663525932
 40
0.7114677539
 40
0.8584344355
 40
0.9305901952
 40
1.0
 40
1.0
 40
1.0
 40
1.0
 10
-0.6588535126
 20
-24.2737285886
 30
0.0
 10
-0.6444863365
 20
-24.266544982
 30
0.0
 10
-0.6163979933
 20
-24.2511684297
 30
0.0
 10
-0.5780691986
 20
-24.2203978887
 30
0.0
 10
-0.547207411
 20
-24.1795271219
 30
0.0
 10
-0.5139494346
 20
-24.1125117973
 30
0.0
 10
-0.4912021452
 20
-24.0117413955
 30
0.0
 10
-0.4901437703
 20
-23.8793418908
 30
0.0
 10
-0.5120712062
 20
-23.7371940644
 30
0.0
 10
-0.5615843304
 20
-23.5943234443
 30
0.0
 10
-0.6233553062
 20
-23.4817281417
 30
0.0
 10
-0.6829695786
 20
-23.3998528213
 30
0.0
 10
-0.7161173468
 20
-23.362633217
 30
0.0
 10
-0.7338406658
 20
-23.3459408451
 30
0.0
 11
-0.6588535126
 21
-24.2737285886
 31
0.0
 11
-0.6169862627
 21
-24.2498683086
 31
0.0
 11
-0.5801746196
 21
-24.2196428761
 31
0.0
 11
-0.5492944703
 21
-24.179795624
 31
0.0
 11
-0.5248219891
 21
-24.1313641629
 31
0.0
 11
-0.4962613245
 21
-24.0160293029
 31
0.0
 11
-0.4935961936
 21
-23.8833277518
 31
0.0
 11
-0.5157184939
 21
-23.7411111116
 31
0.0
 11
-0.5652736384
 21
-23.5966718535
 31
0.0
 11
-0.6396918223
 21
-23.4611020203
 31
0.0
 11
-0.6845497537
 21
-23.3998404539
 31
0.0
 11
-0.7338406658
 21
-23.3459408451
 31
0.0
  0
SPLINE
  5
3CB
100
AcDbEntity
  8
0
100
AcDbSpline
 62
7
  6
CONTINUOUS
 70
0
 71
3
 72
18
 73
14
 74
12
 42
0.0000001
 43
0.0000001
 44
0.0000000001
 12
0.9411995866
 22
0.4706000917
 32
0.0
 13
-0.76602965
 23
0.7214705007
 33
0.0
 40
0.0
 40
0.0
 40
0.0
 40
0.0
 40
0.0457942883
 40
0.0910579125
 40
0.1389648735
 40
0.1905316105
 40
0.3034455099
 40
0.4295779652
 40
0.5663525637
 40
0.7114677306
 40
0.8584344238
 40
0.9305901896
 40
1.0
 40
1.0
 40
1.0
 40
1.0
 10
-0.8002750747
 20
-24.3444393696
 30
0.0
 10
-0.7859078862
 20
-24.3372557709
 30
0.0
 10
-0.7578195305
 20
-24.3218792205
 30
0.0
 10
-0.7194906952
 20
-24.2911087155
 30
0.0
 10
-0.68862887
 20
-24.2502379706
 30
0.0
 10
-0.6553708509
 20
-24.1832226614
 30
0.0
 10
-0.632623517
 20
-24.082452255
 30
0.0
 10
-0.6315651135
 20
-23.9500527279
 30
0.0
 10
-0.6534925289
 20
-23.8079048667
 30
0.0
 10
-0.7030056482
 20
-23.6650342028
 30
0.0
 10
-0.7647766334
 20
-23.5524388634
 30
0.0
 10
-0.8243909204
 20
-23.4705635165
 30
0.0
 10
-0.8575386977
 20
-23.4333439001
 30
0.0
 10
-0.875262022
 20
-23.4166515232
 30
0.0
 11
-0.8002750747
 21
-24.3444393696
 31
0.0
 11
-0.7584077919
 21
-24.3205791018
 31
0.0
 11
-0.7215961146
 21
-24.2903536968
 31
0.0
 11
-0.6907159318
 21
-24.2505064708
 31
0.0
 11
-0.6662434194
 21
-24.2020750234
 31
0.0
 11
-0.6376827028
 21
-24.0867401638
 31
0.0
 11
-0.6350175389
 21
-23.9540385917
 31
0.0
 11
-0.6571398189
 21
-23.8118219165
 31
0.0
 11
-0.706694958
 21
-23.6673826146
 31
0.0
 11
-0.7811131537
 21
-23.5318127356
 31
0.0
 11
-0.8259710962
 21
-23.470551149
 31
0.0
 11
-0.875262022
 21
-23.4166515232
 31
0.0
  0
SPLINE
  5
3CC
100
AcDbEntity
  8
RACCORDO
100
AcDbSpline
 62
7
  6
CONTINUOUS
 70
0
 71
3
 72
9
 73
5
 74
3
 42
0.0000001
 43
0.0000001
 44
0.0000000001
 12
0.1930649768
 22
-0.0965089886
 32
0.0
 13
0.1468093463
 23
-0.1582247958
 33
0.0
 40
0.0
 40
0.0
 40
0.0
 40
0.0
 40
0.2333728347
 40
1.0
 40
1.0
 40
1.0
 40
1.0
 10
12.7303362773
 20
10.7471039624
 30
0.0
 10
12.7453549843
 20
10.739596437
 30
0.0
 10
12.8079519033
 20
10.7039272128
 30
0.0
 10
12.8631059352
 20
10.6559908489
 30
0.0
 10
12.9006219462
 20
10.6155577067
 30
0.0
 11
12.7303362773
 21
10.7471039624
 31
0.0
 11
12.7741664641
 21
10.7222798773
 31
0.0
 11
12.9006219462
 21
10.6155577067
 31
0.0
  0
SPLINE
  5
3CD
100
AcDbEntity
  8
RACCORDO
100
AcDbSpline
 62
7
  6
CONTINUOUS
 70
0
 71
3
 72
9
 73
5
 74
3
 42
0.0000001
 43
0.0000001
 44
0.0000000001
 12
0.3040345562
 22
-0.3276753613
 32
0.0
 13
0.109874452
 23
-0.4332848469
 33
0.0
 40
0.0
 40
0.0
 40
0.0
 40
0.0
 40
0.4971408959
 40
1.0
 40
1.0
 40
1.0
 40
1.0
 10
12.9006219462
 20
10.6155577067
 30
0.0
 10
12.9510046167
 20
10.5612574325
 30
0.0
 10
13.0367805008
 20
10.4371318135
 30
0.0
 10
13.0911527174
 20
10.2968045669
 30
0.0
 10
13.1095698402
 20
10.2241774903
 30
0.0
 11
12.9006219462
 21
10.6155577067
 31
0.0
 11
13.0285286292
 21
10.4338373724
 31
0.0
 11
13.1095698402
 21
10.2241774903
 31
0.0
  0
SPLINE
  5
3CE
100
AcDbEntity
  8
RACCORDO
100
AcDbSpline
 62
7
  6
CONTINUOUS
 70
0
 71
3
 72
9
 73
5
 74
3
 42
0.0000001
 43
0.0000001
 44
0.0000000001
 12
0.0495971183
 22
-0.1955839544
 32
0.0
 13
0.0000039825
 23
-0.2017745211
 33
0.0
 40
0.0
 40
0.0
 40
0.0
 40
0.0
 40
0.2600359301
 40
1.0
 40
1.0
 40
1.0
 40
1.0
 10
13.1095698402
 20
10.2241774903
 30
0.0
 10
13.1138688512
 20
10.2072245384
 30
0.0
 10
13.1285061843
 20
10.1415767784
 30
0.0
 10
13.1355580668
 20
10.0741393389
 30
0.0
 10
13.1355590491
 20
10.024370707
 30
0.0
 11
13.1095698402
 21
10.2241774903
 31
0.0
 11
13.1209683981
 21
10.17296197
 31
0.0
 11
13.1355590491
 21
10.024370707
 31
0.0
  0
SPLINE
  5
3CF
100
AcDbEntity
  8
RACCORDO
100
AcDbSpline
 62
7
  6
CONTINUOUS
 70
0
 71
3
 72
15
 73
11
 74
9
 42
0.0000001
 43
0.0000001
 44
0.0000000001
 12
-0.0000295858
 22
0.6465588913
 32
0.0
 13
0.578284617
 23
-0.289180398
 33
0.0
 40
0.0
 40
0.0
 40
0.0
 40
0.0
 40
0.1487692636
 40
0.2853510766
 40
0.4094831024
 40
0.5236201584
 40
0.6329787999
 40
0.7448201925
 40
0.8659415831
 40
1.0
 40
1.0
 40
1.0
 40
1.0
 10
-19.6762967751
 20
26.4302986191
 30
0.0
 10
-19.6762982422
 20
26.4623613158
 30
0.0
 10
-19.6721338498
 20
26.5239970962
 30
0.0
 10
-19.6513509394
 20
26.610287957
 30
0.0
 10
-19.6159272929
 20
26.6837520431
 30
0.0
 10
-19.5658032533
 20
26.7409550307
 30
0.0
 10
-19.5019682994
 20
26.7777717054
 30
0.0
 10
-19.4280317152
 20
26.791112382
 30
0.0
 10
-19.3486085037
 20
26.7809084631
 30
0.0
 10
-19.2969153101
 20
26.7607314581
 30
0.0
 10
-19.2710740033
 20
26.7478091027
 30
0.0
 11
-19.6762967751
 21
26.4302986191
 31
0.0
 11
-19.6691513519
 21
26.5262209399
 31
0.0
 11
-19.6475889054
 21
26.6118561929
 31
0.0
 11
-19.6117694465
 21
26.6836783321
 31
0.0
 11
-19.5624229716
 21
26.7385493036
 31
0.0
 11
-19.5010554702
 21
26.7736702606
 31
0.0
 11
-19.4300138522
 21
26.787165469
 31
0.0
 11
-19.3522028148
 21
26.7783207332
 31
0.0
 11
-19.2710740033
 21
26.7478091027
 31
0.0
  0
SPLINE
  5
3D0
100
AcDbEntity
  8
RACCORDO
100
AcDbSpline
 62
7
  6
CONTINUOUS
 70
0
 71
3
 72
11
 73
7
 74
5
 42
0.0000001
 43
0.0000001
 44
0.0000000001
 12
-0.7725973885
 22
0.3861779887
 32
0.0
 13
0.0000393068
 23
0.8637361646
 33
0.0
 40
0.0
 40
0.0
 40
0.0
 40
0.0
 40
0.2302797065
 40
0.4899448663
 40
0.7543047
 40
1.0
 40
1.0
 40
1.0
 40
1.0
 10
-19.2710740033
 20
-13.8320830529
 30
0.0
 10
-19.3303785032
 20
-13.8024400683
 30
0.0
 10
-19.4434912554
 20
-13.7129585773
 30
0.0
 10
-19.5709797658
 20
-13.5345955677
 30
0.0
 10
-19.6546293534
 20
-13.3272772086
 30
0.0
 10
-19.6762999942
 20
-13.1800884362
 30
0.0
 10
-19.6762967751
 20
-13.1093497975
 30
0.0
 11
-19.2710740033
 21
-13.8320830529
 31
0.0
 11
-19.4300124026
 21
-13.712499787
 31
0.0
 11
-19.5624224744
 21
-13.531474724
 31
0.0
 11
-19.6475887984
 21
-13.3196149806
 31
0.0
 11
-19.6762967751
 21
-13.1093497975
 31
0.0
  0
SPLINE
  5
3D1
100
AcDbEntity
  8
RACCORDO
100
AcDbSpline
 62
7
  6
CONTINUOUS
 70
0
 71
3
 72
15
 73
11
 74
9
 42
0.0000001
 43
0.0000001
 44
0.0000000001
 12
0.0000285072
 22
0.4348568719
 32
0.0
 13
0.3889721009
 23
-0.1944253189
 33
0.0
 40
0.0
 40
0.0
 40
0.0
 40
0.0
 40
0.1489156738
 40
0.2843869693
 40
0.4071908658
 40
0.5206712066
 40
0.6305281697
 40
0.7435187235
 40
0.8655203103
 40
1.0
 40
1.0
 40
1.0
 40
1.0
 10
-21.3736833511
 20
29.6378607631
 30
0.0
 10
-21.3736819361
 20
29.6594464311
 30
0.0
 10
-21.370560421
 20
29.7007859666
 30
0.0
 10
-21.3550893179
 20
29.7581690525
 30
0.0
 10
-21.3292854107
 20
29.806141548
 30
0.0
 10
-21.2936651774
 20
29.8425647017
 30
0.0
 10
-21.2495532315
 20
29.865295861
 30
0.0
 10
-21.1993575083
 20
29.8729891638
 30
0.0
 10
-21.1457151433
 20
29.8659092701
 30
0.0
 10
-21.1106033414
 20
29.8526754374
 30
0.0
 10
-21.0931670589
 20
29.8439600186
 30
0.0
 11
-21.3736833511
 21
29.6378607631
 31
0.0
 11
-21.3683060134
 21
29.7023941175
 31
0.0
 11
-21.3523756543
 21
29.7591099467
 31
0.0
 11
-21.3265003971
 21
29.8058245837
 31
0.0
 11
-21.2916633397
 21
29.8407756285
 31
0.0
 11
-21.2491843269
 21
29.8626320406
 31
0.0
 11
-21.2006893457
 21
29.87053504
 31
0.0
 11
-21.1480078041
 21
29.8642660501
 31
0.0
 11
-21.0931670589
 21
29.8439600186
 31
0.0
  0
SPLINE
  5
3D2
100
AcDbEntity
  8
0
100
AcDbSpline
 62
7
  6
CONTINUOUS
 70
0
 71
3
 72
9
 73
5
 74
3
 42
0.0000001
 43
0.0000001
 44
0.0000000001
 12
-0.1087199623
 22
0.5446236221
 32
0.0
 13
-0.1090135263
 23
0.5445649374
 33
0.0
 40
0.0
 40
0.0
 40
0.0
 40
0.0
 40
0.4998343578
 40
1.0
 40
1.0
 40
1.0
 40
1.0
 10
-0.5587012374
 20
-25.3530402757
 30
0.0
 10
-0.5768152283
 20
-25.2622997428
 30
0.0
 10
-0.6112165958
 20
-25.0803977988
 30
0.0
 10
-0.6464807986
 20
-24.8986630048
 30
0.0
 10
-0.6646557387
 20
-24.8078721143
 30
0.0
 11
-0.5587012374
 21
-25.3530402757
 31
0.0
 11
-0.6114207651
 21
-25.0804998199
 31
0.0
 11
-0.6646557387
 21
-24.8078721143
 31
0.0
  0
SPLINE
  5
3D3
100
AcDbEntity
  8
0
100
AcDbSpline
 62
7
  6
CONTINUOUS
 70
0
 71
3
 72
11
 73
7
 74
5
 42
0.0000001
 43
0.0000001
 44
0.0000000001
 12
-0.09222245
 22
0.4607091916
 32
0.0
 13
-0.3160146717
 23
0.3476962277
 33
0.0
 40
0.0
 40
0.0
 40
0.0
 40
0.0
 40
0.2378451234
 40
0.4941132154
 40
0.7548722841
 40
1.0
 40
1.0
 40
1.0
 40
1.0
 10
-0.6646557387
 20
-24.8078721143
 30
0.0
 10
-0.671967292
 20
-24.7713463027
 30
0.0
 10
-0.6866024132
 20
-24.6953412817
 30
0.0
 10
-0.7180080338
 20
-24.5811430113
 30
0.0
 10
-0.7625430918
 20
-24.4701252827
 30
0.0
 10
-0.8058143299
 20
-24.4024675715
 30
0.0
 10
-0.8316356482
 20
-24.3740575774
 30
0.0
 11
-0.6646557387
 21
-24.8078721143
 31
0.0
 11
-0.6874288804
 21
-24.6984658645
 31
0.0
 11
-0.7199588538
 21
-24.5825360972
 31
0.0
 11
-0.7670992541
 21
-24.4694508056
 31
0.0
 11
-0.8316356482
 21
-24.3740575774
 31
0.0
  0
SPLINE
  5
3D4
100
AcDbEntity
  8
0
100
AcDbSpline
 62
7
  6
CONTINUOUS
 70
0
 71
3
 72
11
 73
7
 74
5
 42
0.0000001
 43
0.0000001
 44
0.0000000001
 12
-0.6333494509
 22
0.5969143223
 32
0.0
 13
-0.8289470693
 23
0.2651131674
 33
0.0
 40
0.0
 40
0.0
 40
0.0
 40
0.0
 40
0.2725542141
 40
0.5262218346
 40
0.7671916502
 40
1.0
 40
1.0
 40
1.0
 40
1.0
 10
-0.875262022
 20
-23.4166515232
 30
0.0
 10
-0.9328027093
 20
-23.3624210185
 30
0.0
 10
-1.0560411407
 20
-23.2705235535
 30
0.0
 10
-1.25127843
 20
-23.1629831213
 30
0.0
 10
-1.4456455211
 20
-23.0800157315
 30
0.0
 10
-1.5758077882
 20
-23.0356418748
 30
0.0
 10
-1.6401363879
 20
-23.0150683552
 30
0.0
 11
-0.875262022
 21
-23.4166515232
 31
0.0
 11
-1.0633283389
 21
-23.2720902372
 31
0.0
 11
-1.2561629996
 21
-23.1646013077
 31
0.0
 11
-1.4487504631
 21
-23.0815843224
 31
0.0
 11
-1.6401363879
 21
-23.0150683552
 31
0.0
  0
SPLINE
  5
3D5
100
AcDbEntity
  8
RACCORDO
100
AcDbSpline
 62
7
  6
CONTINUOUS
 70
0
 71
3
 72
11
 73
7
 74
5
 42
0.0000001
 43
0.0000001
 44
0.0000000001
 12
0.0000149406
 22
-0.1443839658
 32
0.0
 13
0.129140946
 23
-0.0645704723
 33
0.0
 40
0.0
 40
0.0
 40
0.0
 40
0.0
 40
0.2065459792
 40
0.4344524192
 40
0.697695169
 40
1.0
 40
1.0
 40
1.0
 40
1.0
 10
-21.4615380443
 20
-14.5134593634
 30
0.0
 10
-21.4615370156
 20
-14.523400006
 30
0.0
 10
-21.4571682599
 20
-14.5444730206
 30
0.0
 10
-21.4388234174
 20
-14.57323351
 30
0.0
 10
-21.4102294375
 20
-14.5990334912
 30
0.0
 10
-21.3866966617
 20
-14.6130187103
 30
0.0
 10
-21.3736833511
 20
-14.6195253655
 30
0.0
 11
-21.4615380443
 21
-14.5134593634
 31
0.0
 11
-21.4557885863
 21
-14.5427218156
 31
0.0
 11
-21.4387220735
 21
-14.57085616
 31
0.0
 11
-21.4109542387
 21
-14.5968091537
 31
0.0
 11
-21.3736833511
 21
-14.6195253655
 31
0.0
  0
SPLINE
  5
3D6
100
AcDbEntity
  8
RACCORDO
100
AcDbSpline
 62
7
  6
CONTINUOUS
 70
0
 71
3
 72
11
 73
7
 74
5
 42
0.0000001
 43
0.0000001
 44
0.0000000001
 12
0.0000149435
 22
-0.1443839616
 32
0.0
 13
0.1291409438
 23
-0.0645704673
 33
0.0
 40
0.0
 40
0.0
 40
0.0
 40
0.0
 40
0.2065459795
 40
0.4344524194
 40
0.6976951678
 40
1.0
 40
1.0
 40
1.0
 40
1.0
 10
-21.4615380443
 20
29.7439267598
 30
0.0
 10
-21.4615370154
 20
29.7339861176
 30
0.0
 10
-21.4571682595
 20
29.7129131036
 30
0.0
 10
-21.4388234166
 20
29.6841526157
 30
0.0
 10
-21.4102294371
 20
29.6583526358
 30
0.0
 10
-21.3866966616
 20
29.6443674179
 30
0.0
 10
-21.3736833511
 20
29.6378607631
 30
0.0
 11
-21.4615380443
 21
29.7439267598
 31
0.0
 11
-21.4557885858
 21
29.7146643086
 31
0.0
 11
-21.4387220728
 21
29.6865299655
 31
0.0
 11
-21.4109542383
 21
29.6605769734
 31
0.0
 11
-21.3736833511
 21
29.6378607631
 31
0.0
  0
SPLINE
  5
3D7
100
AcDbEntity
  8
RACCORDO
100
AcDbSpline
 62
7
  6
CONTINUOUS
 70
0
 71
3
 72
11
 73
7
 74
5
 42
0.0000001
 43
0.0000001
 44
0.0000000001
 12
-0.388888196
 22
-0.1877724662
 32
0.0
 13
-0.3862564261
 23
0.1931281992
 33
0.0
 40
0.0
 40
0.0
 40
0.0
 40
0.0
 40
0.2366411464
 40
0.5012534856
 40
0.7651925916
 40
1.0
 40
1.0
 40
1.0
 40
1.0
 10
15.2534751706
 20
-32.7246748053
 30
0.0
 10
15.2227995211
 20
-32.7394863692
 30
0.0
 10
15.1528413115
 20
-32.7605446113
 30
0.0
 10
15.042541564
 20
-32.7702881624
 30
0.0
 10
14.9325942214
 20
-32.7596370006
 30
0.0
 10
14.8631775819
 20
-32.7379558309
 30
0.0
 10
14.8329456252
 20
-32.7228398536
 30
0.0
 11
15.2534751706
 21
-32.7246748053
 31
0.0
 11
15.1562335014
 21
-32.756098663
 31
0.0
 11
15.0424598051
 21
-32.7667614513
 31
0.0
 11
14.9290756238
 21
-32.7551074721
 31
0.0
 11
14.8329456252
 21
-32.7228398536
 31
0.0
  0
SPLINE
  5
3D8
100
AcDbEntity
  8
RACCORDO
100
AcDbSpline
 62
7
  6
CONTINUOUS
 70
0
 71
3
 72
11
 73
7
 74
5
 42
0.0000001
 43
0.0000001
 44
0.0000000001
 12
-0.3888881901
 22
-0.1877724818
 32
0.0
 13
-0.3862564227
 23
0.1931282092
 33
0.0
 40
0.0
 40
0.0
 40
0.0
 40
0.0
 40
0.2366411463
 40
0.5012534836
 40
0.7651925891
 40
1.0
 40
1.0
 40
1.0
 40
1.0
 10
15.2534751706
 20
11.5327113204
 30
0.0
 10
15.2227995216
 20
11.5178997553
 30
0.0
 10
15.1528413121
 20
11.4968415119
 30
0.0
 10
15.0425415645
 20
11.4870979622
 30
0.0
 10
14.9325942216
 20
11.4977491254
 30
0.0
 10
14.863177582
 20
11.5194302967
 30
0.0
 10
14.8329456252
 20
11.534546275
 30
0.0
 11
15.2534751706
 21
11.5327113204
 31
0.0
 11
15.1562335017
 21
11.5012874607
 31
0.0
 11
15.0424598058
 21
11.4906246732
 31
0.0
 11
14.9290756245
 21
11.5022786541
 31
0.0
 11
14.8329456252
 21
11.534546275
 31
0.0
  0
SPLINE
  5
3D9
100
AcDbEntity
  8
RACCORDO
100
AcDbSpline
 62
7
  6
CONTINUOUS
 70
0
 71
3
 72
11
 73
7
 74
5
 42
0.0000001
 43
0.0000001
 44
0.0000000001
 12
-0.3869291685
 22
-0.2017363581
 32
0.0
 13
0.0000000016
 23
-0.4363619365
 33
0.0
 40
0.0
 40
0.0
 40
0.0
 40
0.0
 40
0.2307483952
 40
0.4893409435
 40
0.7537520457
 40
1.0
 40
1.0
 40
1.0
 40
1.0
 10
-20.8824538957
 20
30.206801308
 30
0.0
 10
-20.9122149906
 20
30.1912845277
 30
0.0
 10
-20.9688878462
 20
30.1459205339
 30
0.0
 10
-21.0342620463
 20
30.0567537543
 30
0.0
 10
-21.0786644995
 20
29.9530435492
 30
0.0
 10
-21.0908837171
 20
29.8786360923
 30
0.0
 10
-21.090883717
 20
29.8428183476
 30
0.0
 11
-20.8824538957
 21
30.206801308
 31
0.0
 11
-20.9624985904
 21
30.1457170546
 31
0.0
 11
-21.0300482277
 21
30.0553295571
 31
0.0
 11
-21.0750863384
 21
29.9491040022
 31
0.0
 11
-21.090883717
 21
29.8428183476
 31
0.0
  0
SPLINE
  5
3DA
100
AcDbEntity
  8
RACCORDO
100
AcDbSpline
 62
7
  6
CONTINUOUS
 70
0
 71
3
 72
11
 73
7
 74
5
 42
0.0000001
 43
0.0000001
 44
0.0000000001
 12
-0.3869291761
 22
-0.2017363465
 32
0.0
 13
0.0000000104
 23
-0.4363619379
 33
0.0
 40
0.0
 40
0.0
 40
0.0
 40
0.0
 40
0.2307483971
 40
0.4893409449
 40
0.7537520468
 40
1.0
 40
1.0
 40
1.0
 40
1.0
 10
14.7585758099
 20
12.3862864552
 30
0.0
 10
14.7288147142
 20
12.3707696757
 30
0.0
 10
14.6721418572
 20
12.3254056823
 30
0.0
 10
14.606767658
 20
12.2362389013
 30
0.0
 10
14.5623652062
 20
12.1325286954
 30
0.0
 10
14.5501459901
 20
12.0581212383
 30
0.0
 10
14.550145991
 20
12.0223034936
 30
0.0
 11
14.7585758099
 21
12.3862864552
 31
0.0
 11
14.6785311133
 21
12.3252022024
 31
0.0
 11
14.6109814766
 21
12.2348147042
 31
0.0
 11
14.5659433675
 21
12.1285891484
 31
0.0
 11
14.550145991
 21
12.0223034936
 31
0.0
  0
SPLINE
  5
3DB
100
AcDbEntity
  8
RACCORDO
100
AcDbSpline
 62
7
  6
CONTINUOUS
 70
0
 71
3
 72
11
 73
7
 74
5
 42
0.0000001
 43
0.0000001
 44
0.0000000001
 12
-0.299686386
 22
0.1475513079
 32
0.0
 13
-0.2939687779
 23
-0.1586369315
 33
0.0
 40
0.0
 40
0.0
 40
0.0
 40
0.0
 40
0.2797829828
 40
0.535973102
 40
0.7731347539
 40
1.0
 40
1.0
 40
1.0
 40
1.0
 10
-20.8824538971
 20
30.2068013087
 30
0.0
 10
-20.9104029474
 20
30.2205620904
 30
0.0
 10
-20.9662656843
 20
30.2426507289
 30
0.0
 10
-21.0517464075
 20
30.2576490272
 30
0.0
 10
-21.1326261964
 20
30.2520431731
 30
0.0
 10
-21.1819763786
 20
30.2341187826
 30
0.0
 10
-21.2042068116
 20
30.2221223804
 30
0.0
 11
-20.8824538971
 21
30.2068013087
 31
0.0
 11
-20.9696502145
 21
30.2404372861
 31
0.0
 11
-21.0540811351
 21
30.2544018724
 31
0.0
 11
-21.1330616015
 21
30.2482243236
 31
0.0
 11
-21.2042068116
 21
30.2221223804
 31
0.0
  0
SPLINE
  5
3DC
100
AcDbEntity
  8
RACCORDO
100
AcDbSpline
 62
7
  6
CONTINUOUS
 70
0
 71
3
 72
11
 73
7
 74
5
 42
0.0000001
 43
0.0000001
 44
0.0000000001
 12
-0.0064397843
 22
1.0264956433
 32
0.0
 13
-0.9152946272
 23
0.4647262871
 33
0.0
 40
0.0
 40
0.0
 40
0.0
 40
0.0
 40
0.2466773324
 40
0.5119103822
 40
0.7706310354
 40
1.0
 40
1.0
 40
1.0
 40
1.0
 10
15.2534751706
 20
11.5327113221
 30
0.0
 10
15.2529456544
 20
11.6171157244
 30
0.0
 10
15.2229388985
 20
11.7923748707
 30
0.0
 10
15.1169844479
 20
12.0361998387
 30
0.0
 10
14.962248776
 20
12.2450499571
 30
0.0
 10
14.8285558712
 20
12.3507551923
 30
0.0
 10
14.7585758109
 20
12.3862864547
 30
0.0
 11
15.2534751706
 21
11.5327113221
 31
0.0
 11
15.2146510801
 21
11.7829355049
 31
0.0
 11
15.1069706268
 21
12.0330028067
 31
0.0
 11
14.9468248898
 21
12.2448672222
 31
0.0
 11
14.7585758109
 21
12.3862864547
 31
0.0
  0
SPLINE
  5
3DD
100
AcDbEntity
  8
RACCORDO
100
AcDbSpline
 62
7
  6
CONTINUOUS
 70
0
 71
3
 72
8
 73
4
 74
2
 42
0.0000001
 43
0.0000001
 44
0.0000000001
 12
-0.0001078811
 22
-0.0044165923
 32
0.0
 13
0.0011411576
 23
-0.0042679838
 33
0.0
 40
0.0
 40
0.0
 40
0.0
 40
0.0
 40
1.0
 40
1.0
 40
1.0
 40
1.0
 10
-18.0559492938
 20
-12.2316081011
 30
0.0
 10
-18.0559852542
 20
-12.2330802985
 30
0.0
 10
-18.055837585
 20
-12.2345758577
 30
0.0
 10
-18.0554571992
 20
-12.2359985189
 30
0.0
 11
-18.0559492938
 21
-12.2316081011
 31
0.0
 11
-18.0554571992
 21
-12.2359985189
 31
0.0
  0
SPLINE
  5
3DE
100
AcDbEntity
  8
RACCORDO
100
AcDbSpline
 62
7
  6
CONTINUOUS
 70
0
 71
3
 72
8
 73
4
 74
2
 42
0.0000001
 43
0.0000001
 44
0.0000000001
 12
0.0059652128
 22
-0.0053567328
 32
0.0
 13
0.0072571934
 23
-0.0034075644
 33
0.0
 40
0.0
 40
0.0
 40
0.0
 40
0.0
 40
1.0
 40
1.0
 40
1.0
 40
1.0
 10
-17.8186925867
 20
-12.5769966202
 30
0.0
 10
-17.8167041824
 20
-12.5787821978
 30
0.0
 10
-17.8143871682
 20
-12.5802265047
 30
0.0
 10
-17.8119681037
 20
-12.5813623595
 30
0.0
 11
-17.8186925867
 21
-12.5769966202
 31
0.0
 11
-17.8119681037
 21
-12.5813623595
 31
0.0
  0
SPLINE
  5
3DF
100
AcDbEntity
  8
RACCORDO
100
AcDbSpline
 62
7
  6
CONTINUOUS
 70
0
 71
3
 72
12
 73
8
 74
6
 42
0.0000001
 43
0.0000001
 44
0.0000000001
 12
0.1059273416
 22
-0.4051874558
 32
0.0
 13
0.3121384675
 23
-0.2792258103
 33
0.0
 40
0.0
 40
0.0
 40
0.0
 40
0.0
 40
0.1121053498
 40
0.2348834706
 40
0.5037471538
 40
0.7736368256
 40
1.0
 40
1.0
 40
1.0
 40
1.0
 10
-18.0554571992
 20
-12.2359985189
 30
0.0
 10
-18.0514988586
 20
-12.2511397461
 30
0.0
 10
-18.039429673
 20
-12.2818253398
 30
0.0
 10
-18.0072682114
 20
-12.3443801927
 30
0.0
 10
-17.9566267775
 20
-12.4219198313
 30
0.0
 10
-17.8902801012
 20
-12.5057299247
 30
0.0
 10
-17.8422448048
 20
-12.5559278066
 30
0.0
 10
-17.8186925867
 20
-12.5769966202
 30
0.0
 11
-18.0554571992
 21
-12.2359985189
 31
0.0
 11
-18.0393113589
 21
-12.2800852383
 31
0.0
 11
-18.0161058523
 21
-12.3259712701
 31
0.0
 11
-17.9553417355
 21
-12.4207699977
 31
0.0
 11
-17.8850259466
 21
-12.5092669936
 31
0.0
 11
-17.8186925867
 21
-12.5769966202
 31
0.0
  0
SPLINE
  5
3E0
100
AcDbEntity
  8
RACCORDO
100
AcDbSpline
 62
7
  6
CONTINUOUS
 70
0
 71
3
 72
11
 73
7
 74
5
 42
0.0000001
 43
0.0000001
 44
0.0000000001
 12
-0.0833039604
 22
-0.4359360771
 32
0.0
 13
0.3930895258
 23
-0.2060593067
 33
0.0
 40
0.0
 40
0.0
 40
0.0
 40
0.0
 40
0.2511517232
 40
0.4487454643
 40
0.6468957372
 40
1.0
 40
1.0
 40
1.0
 40
1.0
 10
-18.1158323973
 20
-12.2685986606
 30
0.0
 10
-18.1228063751
 20
-12.3050940262
 30
0.0
 10
-18.1227741844
 20
-12.3728980779
 30
0.0
 10
-18.0992666238
 20
-12.4663165894
 30
0.0
 10
-18.0512631877
 20
-12.5663285599
 30
0.0
 10
-17.9921863832
 20
-12.6294226395
 30
0.0
 10
-17.9459191874
 20
-12.6536761127
 30
0.0
 11
-18.1158323973
 21
-12.2685986606
 31
0.0
 11
-18.1176724888
 21
-12.3800506537
 31
0.0
 11
-18.0965477093
 21
-12.4651651823
 31
0.0
 11
-18.0581288753
 21
-12.544273438
 31
0.0
 11
-17.9459191874
 21
-12.6536761127
 31
0.0
  0
SPLINE
  5
3E1
100
AcDbEntity
  8
RACCORDO
100
AcDbSpline
 62
7
  6
CONTINUOUS
 70
0
 71
3
 72
12
 73
8
 74
6
 42
0.0000001
 43
0.0000001
 44
0.0000000001
 12
-0.4413452292
 22
0.1390621597
 32
0.0
 13
0.1107198084
 23
0.4492939123
 33
0.0
 40
0.0
 40
0.0
 40
0.0
 40
0.0
 40
0.1130792623
 40
0.2328059829
 40
0.4871959542
 40
0.7477930862
 40
1.0
 40
1.0
 40
1.0
 40
1.0
 10
-19.131511461
 20
-13.518147817
 30
0.0
 10
-19.1481471253
 20
-13.5129061349
 30
0.0
 10
-19.1811469803
 20
-13.4976214411
 30
0.0
 10
-19.2397905629
 20
-13.4495151713
 30
0.0
 10
-19.2905761987
 20
-13.3620025703
 30
0.0
 10
-19.3104762006
 20
-13.2435774603
 30
0.0
 10
-19.3013999816
 20
-13.1639285991
 30
0.0
 10
-19.2920918812
 20
-13.1261569221
 30
0.0
 11
-19.131511461
 21
-13.518147817
 31
0.0
 11
-19.179030484
 21
-13.4962405697
 31
0.0
 11
-19.2220349325
 21
-13.4613124473
 31
0.0
 11
-19.2832844058
 21
-13.3607869732
 31
0.0
 11
-19.3049148485
 21
-13.242155346
 31
0.0
 11
-19.2920918812
 21
-13.1261569221
 31
0.0
  0
SPLINE
  5
3E2
100
AcDbEntity
  8
RACCORDO
100
AcDbSpline
 62
7
  6
CONTINUOUS
 70
0
 71
3
 72
13
 73
9
 74
7
 42
0.0000001
 43
0.0000001
 44
0.0000000001
 12
-0.0674751306
 22
0.2265639571
 32
0.0
 13
0.2363073813
 23
-0.006552971
 33
0.0
 40
0.0
 40
0.0
 40
0.0
 40
0.0
 40
0.2945589199
 40
0.424784954
 40
0.543462679
 40
0.6533946805
 40
0.7606774794
 40
1.0
 40
1.0
 40
1.0
 40
1.0
 10
-19.2920918785
 20
26.4134921039
 30
0.0
 10
-19.2987170124
 20
26.435737582
 30
0.0
 10
-19.3057089871
 20
26.4689181346
 30
0.0
 10
-19.3049452758
 20
26.5119221452
 30
0.0
 10
-19.298826189
 20
26.5397817101
 30
0.0
 10
-19.2863382412
 20
26.5635868484
 30
0.0
 10
-19.2593838491
 20
26.5885597985
 30
0.0
 10
-19.2302161318
 20
26.593891719
 30
0.0
 10
-19.2113649058
 20
26.5933689611
 30
0.0
 11
-19.2920918785
 21
26.4134921039
 31
0.0
 11
-19.3047648132
 21
26.4819623894
 31
0.0
 11
-19.3038629306
 21
26.5127343789
 31
0.0
 11
-19.2974371229
 21
26.5400437807
 31
0.0
 11
-19.2850233958
 21
26.5628749323
 31
0.0
 11
-19.2663457264
 21
26.5800315191
 31
0.0
 11
-19.2113649058
 21
26.5933689611
 31
0.0
  0
SPLINE
  5
3E3
100
AcDbEntity
  8
RACCORDO
100
AcDbSpline
 62
7
  6
CONTINUOUS
 70
0
 71
3
 72
11
 73
7
 74
5
 42
0.0000001
 43
0.0000001
 44
0.0000000001
 12
0.407037927
 22
0.1895225457
 32
0.0
 13
0.0027915047
 23
0.4489887269
 33
0.0
 40
0.0
 40
0.0
 40
0.0
 40
0.0
 40
0.2166726031
 40
0.4495053433
 40
0.7094831531
 40
1.0
 40
1.0
 40
1.0
 40
1.0
 10
15.0634990449
 20
-33.1071161508
 30
0.0
 10
15.092897034
 20
-33.0934280363
 30
0.0
 10
15.1488417328
 20
-33.0529401795
 30
0.0
 10
15.2091504877
 20
-32.9634885733
 30
0.0
 10
15.2456130568
 20
-32.8508212363
 30
0.0
 10
15.2532048443
 20
-32.7681544029
 30
0.0
 10
15.2534751706
 20
-32.7246748065
 30
0.0
 11
15.0634990449
 21
-33.1071161508
 31
0.0
 11
15.1427097732
 21
-33.0506350329
 31
0.0
 11
15.2026128017
 21
-32.964958258
 31
0.0
 11
15.2401696301
 21
-32.8544357329
 31
0.0
 11
15.2534751706
 21
-32.7246748065
 31
0.0
  0
SPLINE
  5
3E4
100
AcDbEntity
  8
RACCORDO
100
AcDbSpline
 62
7
  6
CONTINUOUS
 70
0
 71
3
 72
11
 73
7
 74
5
 42
0.0000001
 43
0.0000001
 44
0.0000000001
 12
-0.1290177401
 22
0.0645089098
 32
0.0
 13
-0.0002138584
 23
0.1442460779
 33
0.0
 40
0.0
 40
0.0
 40
0.0
 40
0.0
 40
0.3021029428
 40
0.5655351349
 40
0.7935297513
 40
1.0
 40
1.0
 40
1.0
 40
1.0
 10
13.1355590491
 20
-29.5152777096
 30
0.0
 10
13.1225668361
 20
-29.5087815991
 30
0.0
 10
13.0990650702
 20
-29.494801941
 30
0.0
 10
13.0704677757
 20
-29.4690508475
 30
0.0
 10
13.052137282
 20
-29.440315755
 30
0.0
 10
13.0477098397
 20
-29.4192772636
 30
0.0
 10
13.0476951213
 20
-29.4093497558
 30
0.0
 11
13.1355590491
 21
-29.5152777096
 31
0.0
 11
13.0983486346
 21
-29.4925982363
 31
0.0
 11
13.0705707275
 21
-29.466669109
 31
0.0
 11
13.0534952022
 21
-29.4385620772
 31
0.0
 11
13.0476951213
 21
-29.4093497558
 31
0.0
  0
SPLINE
  5
3E5
100
AcDbEntity
  8
RACCORDO
100
AcDbSpline
 62
7
  6
CONTINUOUS
 70
0
 71
3
 72
9
 73
5
 74
3
 42
0.0000001
 43
0.0000001
 44
0.0000000001
 12
0.0
 22
0.3499494896
 32
0.0
 13
0.2542494972
 23
0.2404617193
 33
0.0
 40
0.0
 40
0.0
 40
0.0
 40
0.0
 40
0.4929880284
 40
1.0
 40
1.0
 40
1.0
 40
1.0
 10
12.7303362773
 20
-29.8327881932
 30
0.0
 10
12.7303362773
 20
-29.7752812236
 30
0.0
 10
12.7601100545
 20
-29.6587559612
 30
0.0
 10
12.8269457033
 20
-29.5594985762
 30
0.0
 10
12.8699148829
 20
-29.518859586
 30
0.0
 11
12.7303362773
 21
-29.8327881932
 31
0.0
 11
12.7686999221
 21
-29.6645868414
 31
0.0
 11
12.8699148829
 21
-29.518859586
 31
0.0
  0
SPLINE
  5
3E6
100
AcDbEntity
  8
RACCORDO
100
AcDbSpline
 62
7
  6
CONTINUOUS
 70
0
 71
3
 72
9
 73
5
 74
3
 42
0.0000001
 43
0.0000001
 44
0.0000000001
 12
-0.0000000378
 22
0.3499494932
 32
0.0
 13
0.2542495257
 23
0.2404616945
 33
0.0
 40
0.0
 40
0.0
 40
0.0
 40
0.0
 40
0.4929880306
 40
1.0
 40
1.0
 40
1.0
 40
1.0
 10
-19.2710740033
 20
-13.8320830529
 30
0.0
 10
-19.2710740095
 20
-13.7745760824
 30
0.0
 10
-19.2413002382
 20
-13.6580508152
 30
0.0
 10
-19.174464582
 20
-13.5587934315
 30
0.0
 10
-19.1314953978
 20
-13.5181544457
 30
0.0
 11
-19.2710740033
 21
-13.8320830529
 31
0.0
 11
-19.2327103671
 21
-13.6638816964
 31
0.0
 11
-19.1314953978
 21
-13.5181544457
 31
0.0
  0
SPLINE
  5
3E7
100
AcDbEntity
  8
RACCORDO
100
AcDbSpline
 62
7
  6
CONTINUOUS
 70
0
 71
3
 72
11
 73
7
 74
5
 42
0.0000001
 43
0.0000001
 44
0.0000000001
 12
0.351344799
 22
-0.1756723995
 32
0.0
 13
0.3707501259
 23
0.1298010165
 33
0.0
 40
0.0
 40
0.0
 40
0.0
 40
0.0
 40
0.2301996678
 40
0.4886873034
 40
0.7531669766
 40
1.0
 40
1.0
 40
1.0
 40
1.0
 10
-19.6762967751
 20
-13.1093497975
 30
0.0
 10
-19.6493369564
 20
-13.1228297069
 30
0.0
 10
-19.5879118217
 20
-13.1430920363
 30
0.0
 10
-19.4896506095
 20
-13.1556422485
 30
0.0
 10
-19.3884909445
 20
-13.151421762
 30
0.0
 10
-19.322596268
 20
-13.1368363128
 30
0.0
 10
-19.2920918098
 20
-13.126156587
 30
0.0
 11
-19.6762967751
 21
-13.1093497975
 31
0.0
 11
-19.5909502192
 21
-13.1392299484
 31
0.0
 11
-19.4903114635
 21
-13.1527129851
 31
0.0
 11
-19.3865190272
 21
-13.1481726543
 31
0.0
 11
-19.2920918098
 21
-13.126156587
 31
0.0
  0
SPLINE
  5
3E8
100
AcDbEntity
  8
RACCORDO
100
AcDbSpline
 62
7
  6
CONTINUOUS
 70
0
 71
3
 72
11
 73
7
 74
5
 42
0.0000001
 43
0.0000001
 44
0.0000000001
 12
0.3513450544
 22
-0.1756717083
 32
0.0
 13
0.3707502832
 23
0.1298003232
 33
0.0
 40
0.0
 40
0.0
 40
0.0
 40
0.0
 40
0.2301995877
 40
0.4886872501
 40
0.753166985
 40
1.0
 40
1.0
 40
1.0
 40
1.0
 10
-19.6762967751
 20
26.4302986191
 30
0.0
 10
-19.6493369462
 20
26.4168187675
 30
0.0
 10
-19.5879118097
 20
26.3965565269
 30
0.0
 10
-19.4896506159
 20
26.3840063594
 30
0.0
 10
-19.3884909637
 20
26.3882267993
 30
0.0
 10
-19.3225962799
 20
26.4028121612
 30
0.0
 10
-19.2920918098
 20
26.4134918296
 30
0.0
 11
-19.6762967751
 21
26.4302986191
 31
0.0
 11
-19.5909502262
 21
26.4004185999
 31
0.0
 11
-19.4903114749
 21
26.3869356078
 31
0.0
 11
-19.3865190336
 21
26.3914758921
 31
0.0
 11
-19.2920918098
 21
26.4134918296
 31
0.0
  0
SPLINE
  5
3E9
100
AcDbEntity
  8
RACCORDO
100
AcDbSpline
 62
7
  6
CONTINUOUS
 70
0
 71
3
 72
11
 73
7
 74
5
 42
0.0000001
 43
0.0000001
 44
0.0000000001
 12
0.0
 22
-0.1887151356
 32
0.0
 13
0.1686414792
 23
-0.0846962448
 33
0.0
 40
0.0
 40
0.0
 40
0.0
 40
0.0
 40
0.289561128
 40
0.5496260088
 40
0.7828372969
 40
1.0
 40
1.0
 40
1.0
 40
1.0
 10
-19.2710740033
 20
26.7478091027
 30
0.0
 10
-19.2710740033
 20
26.7295942468
 30
0.0
 10
-19.2681228175
 20
26.6948913491
 30
0.0
 10
-19.2533276033
 20
26.6474189295
 30
0.0
 10
-19.228580306
 20
26.6093924829
 30
0.0
 10
-19.2054941879
 20
26.5917671602
 30
0.0
 10
-19.1932866415
 20
26.5856362051
 30
0.0
 11
-19.2710740033
 21
26.7478091027
 31
0.0
 11
-19.2659004278
 21
26.6934099954
 31
0.0
 11
-19.2506353061
 21
26.646766199
 31
0.0
 11
-19.2260376483
 21
26.6102712771
 31
0.0
 11
-19.1932866415
 21
26.5856362051
 31
0.0
  0
SPLINE
  5
3EA
100
AcDbEntity
  8
RACCORDO
100
AcDbSpline
 62
7
  6
CONTINUOUS
 70
0
 71
3
 72
11
 73
7
 74
5
 42
0.0000001
 43
0.0000001
 44
0.0000000001
 12
0.0000000204
 22
-0.1889139627
 32
0.0
 13
0.1689716008
 23
-0.0844812608
 33
0.0
 40
0.0
 40
0.0
 40
0.0
 40
0.0
 40
0.2895956157
 40
0.5496517743
 40
0.782834843
 40
1.0
 40
1.0
 40
1.0
 40
1.0
 10
12.7303362773
 20
10.7471039624
 30
0.0
 10
12.7303362793
 20
10.7288677439
 30
0.0
 10
12.7332940251
 20
10.6941262654
 30
0.0
 10
12.7481251192
 20
10.6466086541
 30
0.0
 10
12.7729336489
 20
10.6085644891
 30
0.0
 10
12.7960721579
 20
10.5909562788
 30
0.0
 10
12.8083037393
 20
10.5848408167
 30
0.0
 11
12.7303362773
 21
10.7471039624
 31
0.0
 11
12.7355226065
 21
10.6926416914
 31
0.0
 11
12.7508247929
 21
10.6459573578
 31
0.0
 11
12.7754800683
 21
10.6094518054
 31
0.0
 11
12.8083037393
 21
10.5848408167
 31
0.0
  0
SPLINE
  5
3EB
100
AcDbEntity
  8
RACCORDO
100
AcDbSpline
 62
7
  6
CONTINUOUS
 70
0
 71
3
 72
11
 73
7
 74
5
 42
0.0000001
 43
0.0000001
 44
0.0000000001
 12
-0.1291394801
 22
0.0645697401
 32
0.0
 13
0.0000513271
 23
0.144382319
 33
0.0
 40
0.0
 40
0.0
 40
0.0
 40
0.0
 40
0.3021491765
 40
0.5655722792
 40
0.7935305764
 40
1.0
 40
1.0
 40
1.0
 40
1.0
 10
13.1355590491
 20
10.024370707
 30
0.0
 10
13.1225525866
 20
10.0308739383
 30
0.0
 10
13.0990277707
 20
10.0448696176
 30
0.0
 10
13.070412091
 20
10.0706561341
 30
0.0
 10
13.0520890636
 20
10.0994342093
 30
0.0
 10
13.047691511
 20
10.1204998791
 30
0.0
 10
13.0476950435
 20
10.1304367238
 30
0.0
 11
13.1355590491
 21
10.024370707
 31
0.0
 11
13.0983101819
 21
10.0470789136
 31
0.0
 11
13.0705178051
 21
10.0730431511
 31
0.0
 11
13.0534547143
 21
10.1011878905
 31
0.0
 11
13.0476950435
 21
10.1304367238
 31
0.0
  0
SPLINE
  5
3EC
100
AcDbEntity
  8
0
100
AcDbSpline
 62
7
  6
CONTINUOUS
 70
0
 71
3
 72
9
 73
5
 74
3
 42
0.0000001
 43
0.0000001
 44
0.0000000001
 12
-0.1087199623
 22
0.5446236221
 32
0.0
 13
-0.1090135263
 23
0.5445649374
 33
0.0
 40
0.0
 40
0.0
 40
0.0
 40
0.0
 40
0.4998343578
 40
1.0
 40
1.0
 40
1.0
 40
1.0
 10
-0.4172798812
 20
-25.2823295975
 30
0.0
 10
-0.435393872
 20
-25.1915890647
 30
0.0
 10
-0.4697952396
 20
-25.0096871207
 30
0.0
 10
-0.5050594423
 20
-24.8279523267
 30
0.0
 10
-0.5232343825
 20
-24.7371614361
 30
0.0
 11
-0.4172798812
 21
-25.2823295975
 31
0.0
 11
-0.4699994088
 21
-25.0097891418
 31
0.0
 11
-0.5232343825
 21
-24.7371614361
 31
0.0
  0
SPLINE
  5
3ED
100
AcDbEntity
  8
0
100
AcDbSpline
 62
7
  6
CONTINUOUS
 70
0
 71
3
 72
10
 73
6
 74
4
 42
0.0000001
 43
0.0000001
 44
0.0000000001
 12
-0.0804058017
 22
0.4016775949
 32
0.0
 13
-0.2254371496
 23
0.3420351953
 33
0.0
 40
0.0
 40
0.0
 40
0.0
 40
0.0
 40
0.2355949161
 40
0.6170368094
 40
1.0
 40
1.0
 40
1.0
 40
1.0
 10
-0.5232343825
 20
-24.7371614361
 30
0.0
 10
-0.5295487818
 20
-24.7056170364
 30
0.0
 10
-0.5454738992
 20
-24.6228508214
 30
0.0
 10
-0.581452358
 20
-24.4909925536
 30
0.0
 10
-0.6247422624
 20
-24.3946899372
 30
0.0
 10
-0.6535203057
 20
-24.3510276407
 30
0.0
 11
-0.5232343825
 21
-24.7371614361
 31
0.0
 11
-0.5426245132
 21
-24.6426188003
 31
0.0
 11
-0.5853288764
 21
-24.4923113137
 31
0.0
 11
-0.6535203057
 21
-24.3510276407
 31
0.0
  0
SPLINE
  5
3EE
100
AcDbEntity
  8
0
100
AcDbSpline
 62
7
  6
CONTINUOUS
 70
0
 71
3
 72
9
 73
5
 74
3
 42
0.0000001
 43
0.0000001
 44
0.0000000001
 12
-0.0403341532
 22
0.0611953265
 32
0.0
 13
-0.051488138
 23
0.0521601721
 33
0.0
 40
0.0
 40
0.0
 40
0.0
 40
0.0
 40
0.2559962136
 40
1.0
 40
1.0
 40
1.0
 40
1.0
 10
-0.6535203057
 20
-24.3510276407
 30
0.0
 10
-0.6569621026
 20
-24.3458057167
 30
0.0
 10
-0.6708172701
 20
-24.3256868329
 30
0.0
 10
-0.6864654162
 20
-24.3067552296
 30
0.0
 10
-0.6992345394
 20
-24.2938194411
 30
0.0
 11
-0.6535203057
 21
-24.3510276407
 31
0.0
 11
-0.6641733446
 21
-24.3355828079
 31
0.0
 11
-0.6992345394
 21
-24.2938194411
 31
0.0
  0
SPLINE
  5
3EF
100
AcDbEntity
  8
0
100
AcDbSpline
 62
7
  6
CONTINUOUS
 70
0
 71
3
 72
11
 73
7
 74
5
 42
0.0000001
 43
0.0000001
 44
0.0000000001
 12
-0.6333494509
 22
0.5969143223
 32
0.0
 13
-0.8289470693
 23
0.2651131674
 33
0.0
 40
0.0
 40
0.0
 40
0.0
 40
0.0
 40
0.2725542141
 40
0.5262218346
 40
0.7671916502
 40
1.0
 40
1.0
 40
1.0
 40
1.0
 10
-0.7338406658
 20
-23.3459408451
 30
0.0
 10
-0.791381353
 20
-23.2917103404
 30
0.0
 10
-0.9146197845
 20
-23.1998128754
 30
0.0
 10
-1.1098570738
 20
-23.0922724432
 30
0.0
 10
-1.3042241649
 20
-23.0093050534
 30
0.0
 10
-1.4343864319
 20
-22.9649311967
 30
0.0
 10
-1.4987150317
 20
-22.944357677
 30
0.0
 11
-0.7338406658
 21
-23.3459408451
 31
0.0
 11
-0.9219069827
 21
-23.2013795591
 31
0.0
 11
-1.1147416434
 21
-23.0938906295
 31
0.0
 11
-1.3073291068
 21
-23.0108736442
 31
0.0
 11
-1.4987150317
 21
-22.944357677
 31
0.0
  0
SPLINE
  5
3F0
100
AcDbEntity
  8
RACCORDO
100
AcDbSpline
 62
7
  6
CONTINUOUS
 70
0
 71
3
 72
11
 73
7
 74
5
 42
0.0000001
 43
0.0000001
 44
0.0000000001
 12
-0.1689125333
 22
0.0845958693
 32
0.0
 13
-0.0000000007
 23
0.1889124268
 33
0.0
 40
0.0
 40
0.0
 40
0.0
 40
0.0
 40
0.2171672883
 40
0.4503628529
 40
0.710428482
 40
1.0
 40
1.0
 40
1.0
 40
1.0
 10
14.6281160463
 20
-33.0900553734
 30
0.0
 10
14.6158886207
 20
-33.0839315549
 30
0.0
 10
14.5927429731
 20
-33.0663373745
 30
0.0
 10
14.5679275766
 20
-33.0282912392
 30
0.0
 10
14.5531083909
 20
-32.9807713841
 30
0.0
 10
14.5501459911
 20
-32.9460319908
 30
0.0
 10
14.550145991
 20
-32.9277974381
 30
0.0
 11
14.6281160463
 21
-33.0900553734
 31
0.0
 11
14.5952907272
 21
-33.0654464678
 31
0.0
 11
14.5706300893
 21
-33.0289421211
 31
0.0
 11
14.5553331299
 21
-32.9822546122
 31
0.0
 11
14.550145991
 21
-32.9277974381
 31
0.0
  0
SPLINE
  5
3F1
100
AcDbEntity
  8
RACCORDO
100
AcDbSpline
 62
7
  6
CONTINUOUS
 70
0
 71
3
 72
9
 73
5
 74
3
 42
0.0000001
 43
0.0000001
 44
0.0000000001
 12
-0.0339777457
 22
-0.0425884986
 32
0.0
 13
-0.0466494948
 23
-0.0281441299
 33
0.0
 40
0.0
 40
0.0
 40
0.0
 40
0.0
 40
0.2626167859
 40
1.0
 40
1.0
 40
1.0
 40
1.0
 10
13.0351427301
 20
-29.4939790716
 30
0.0
 10
13.0321683546
 20
-29.4977072231
 30
0.0
 10
13.0203630383
 20
-29.5114951395
 30
0.0
 10
13.0063282156
 20
-29.5235208475
 30
0.0
 10
12.9948620307
 20
-29.5304385171
 30
0.0
 11
13.0351427301
 21
-29.4939790716
 31
0.0
 11
13.0258140425
 21
-29.5048275645
 31
0.0
 11
12.9948620307
 21
-29.5304385171
 31
0.0
  0
SPLINE
  5
3F2
100
AcDbEntity
  8
RACCORDO
100
AcDbSpline
 62
7
  6
CONTINUOUS
 70
0
 71
3
 72
10
 73
6
 74
4
 42
0.0000001
 43
0.0000001
 44
0.0000000001
 12
-0.1137650198
 22
-0.0686356306
 32
0.0
 13
-0.1062414822
 23
0.0797876994
 33
0.0
 40
0.0
 40
0.0
 40
0.0
 40
0.0
 40
0.2472182505
 40
0.4875832399
 40
1.0
 40
1.0
 40
1.0
 40
1.0
 10
12.9948620307
 20
-29.5304385171
 30
0.0
 10
12.985487101
 20
-29.5360945106
 30
0.0
 10
12.9652711923
 20
-29.5448137751
 30
0.0
 10
12.9202634312
 20
-29.5478353103
 30
0.0
 10
12.8880529186
 20
-29.5324826191
 30
0.0
 10
12.8699062799
 20
-29.5188544343
 30
0.0
 11
12.9948620307
 21
-29.5304385171
 31
0.0
 11
12.9645425285
 21
-29.5430735444
 31
0.0
 11
12.9326781873
 21
-29.5452161279
 31
0.0
 11
12.8699062799
 21
-29.5188544343
 31
0.0
  0
SPLINE
  5
3F3
100
AcDbEntity
  8
RACCORDO
100
AcDbSpline
 62
7
  6
CONTINUOUS
 70
0
 71
3
 72
9
 73
5
 74
3
 42
0.0000001
 43
0.0000001
 44
0.0000000001
 12
-0.1260316343
 22
-0.0657101216
 32
0.0
 13
-0.1032641788
 23
-0.0976642324
 33
0.0
 40
0.0
 40
0.0
 40
0.0
 40
0.0
 40
0.2371046482
 40
1.0
 40
1.0
 40
1.0
 40
1.0
 10
-17.8119681037
 20
-12.5813623595
 30
0.0
 10
-17.8219289992
 20
-12.5865557513
 30
0.0
 10
-17.8630437177
 20
-12.6101692402
 30
0.0
 10
-17.9004602069
 20
-12.6399504197
 30
0.0
 10
-17.9267201276
 20
-12.6647862827
 30
0.0
 11
-17.8119681037
 21
-12.5813623595
 31
0.0
 11
-17.8412180716
 21
-12.5981002262
 31
0.0
 11
-17.9267201276
 21
-12.6647862827
 31
0.0
  0
SPLINE
  5
3F4
100
AcDbEntity
  8
RACCORDO
100
AcDbSpline
 62
7
  6
CONTINUOUS
 70
0
 71
3
 72
9
 73
5
 74
3
 42
0.0000001
 43
0.0000001
 44
0.0000000001
 12
-0.1370510418
 22
-0.0578506105
 32
0.0
 13
-0.1164664422
 23
-0.0925486306
 33
0.0
 40
0.0
 40
0.0
 40
0.0
 40
0.0
 40
0.2394514206
 40
1.0
 40
1.0
 40
1.0
 40
1.0
 10
-17.8186925798
 20
-12.5769961514
 30
0.0
 10
-17.829631602
 20
-12.5816136217
 30
0.0
 10
-17.8745602323
 20
-12.6026720438
 30
0.0
 10
-17.9162976398
 20
-12.630274747
 30
0.0
 10
-17.9458237688
 20
-12.6537373235
 30
0.0
 11
-17.8186925798
 21
-12.5769961514
 31
0.0
 11
-17.8509650756
 21
-12.5920737892
 31
0.0
 11
-17.9458237688
 21
-12.6537373235
 31
0.0
  0
SPLINE
  5
3F5
100
AcDbEntity
  8
RACCORDO
100
AcDbSpline
 62
7
  6
CONTINUOUS
 70
0
 71
3
 72
9
 73
5
 74
3
 42
0.0000001
 43
0.0000001
 44
0.0000000001
 12
-0.0583444967
 22
-0.0361522692
 32
0.0
 13
-0.062121555
 23
-0.029188684
 33
0.0
 40
0.0
 40
0.0
 40
0.0
 40
0.0
 40
0.2434976844
 40
1.0
 40
1.0
 40
1.0
 40
1.0
 10
-18.055469237
 20
-12.2359925524
 30
0.0
 10
-18.0602048202
 20
-12.2389268836
 30
0.0
 10
-18.0798409698
 20
-12.2506729288
 30
0.0
 10
-18.1001836906
 20
-12.2612265737
 30
0.0
 10
-18.115848724
 20
-12.2685870094
 30
0.0
 11
-18.055469237
 21
-12.2359925524
 31
0.0
 11
-18.0698094276
 21
-12.2445764545
 31
0.0
 11
-18.115848724
 21
-12.2685870094
 31
0.0
  0
SPLINE
  5
3F6
100
AcDbEntity
  8
RACCORDO
100
AcDbSpline
 62
7
  6
CONTINUOUS
 70
0
 71
3
 72
9
 73
5
 74
3
 42
0.0000001
 43
0.0000001
 44
0.0000000001
 12
-0.0589855134
 22
-0.0284813439
 32
0.0
 13
-0.0618225119
 23
-0.021643816
 33
0.0
 40
0.0
 40
0.0
 40
0.0
 40
0.0
 40
0.2421767381
 40
1.0
 40
1.0
 40
1.0
 40
1.0
 10
-18.0559492938
 20
-12.2316081011
 30
0.0
 10
-18.0607109336
 20
-12.2339072741
 30
0.0
 10
-18.0805201138
 20
-12.2430946116
 30
0.0
 10
-18.100873415
 20
-12.2510937663
 30
0.0
 10
-18.1164902609
 20
-12.2565611621
 30
0.0
 11
-18.0559492938
 21
-12.2316081011
 31
0.0
 11
-18.0703374913
 21
-12.2382875065
 31
0.0
 11
-18.1164902609
 21
-12.2565611621
 31
0.0
  0
SPLINE
  5
3F7
100
AcDbEntity
  8
IMPORT_IGES
100
AcDbSpline
 62
7
  6
CONTINUOUS
 70
0
 71
3
 72
8
 73
4
 74
2
 42
0.0000001
 43
0.0000001
 44
0.0000000001
 12
-0.0588659624
 22
0.0129651371
 32
0.0
 13
-0.0594112017
 23
0.0251288991
 33
0.0
 40
0.0
 40
0.0
 40
0.0
 40
0.0
 40
1.0
 40
1.0
 40
1.0
 40
1.0
 10
-0.9443513649
 20
-23.9981353917
 30
0.0
 10
-0.9639733524
 20
-23.9938136794
 30
0.0
 10
-0.9841816576
 20
-23.986872648
 30
0.0
 10
-1.0039853915
 20
-23.9784963483
 30
0.0
 11
-0.9443513649
 21
-23.9981353917
 31
0.0
 11
-1.0039853915
 21
-23.9784963483
 31
0.0
  0
SPLINE
  5
3F8
100
AcDbEntity
  8
IMPORT_IGES
100
AcDbSpline
 62
7
  6
CONTINUOUS
 70
0
 71
3
 72
9
 73
5
 74
3
 42
0.0000001
 43
0.0000001
 44
0.0000000001
 12
-0.0719484215
 22
0.3594276568
 32
0.0
 13
-0.1990361688
 23
0.332124161
 33
0.0
 40
0.0
 40
0.0
 40
0.0
 40
0.0
 40
0.3064912004
 40
1.0
 40
1.0
 40
1.0
 40
1.0
 10
-0.5232343825
 20
-24.7371614361
 30
0.0
 10
-0.5305849018
 20
-24.7004409648
 30
0.0
 10
-0.5528150091
 20
-24.5836736545
 30
0.0
 10
-0.5964039533
 20
-24.4454814492
 30
0.0
 10
-0.6424150648
 20
-24.3687044398
 30
0.0
 11
-0.5232343825
 21
-24.7371614361
 31
0.0
 11
-0.5462179483
 21
-24.6268520713
 31
0.0
 11
-0.6424150648
 21
-24.3687044398
 31
0.0
  0
SPLINE
  5
3F9
100
AcDbEntity
  8
IMPORT_IGES
100
AcDbSpline
 62
7
  6
CONTINUOUS
 70
0
 71
3
 72
8
 73
4
 74
2
 42
0.0000001
 43
0.0000001
 44
0.0000000001
 12
-0.0523574717
 22
0.0873669417
 32
0.0
 13
-0.0668832013
 23
0.0661051502
 33
0.0
 40
0.0
 40
0.0
 40
0.0
 40
0.0
 40
1.0
 40
1.0
 40
1.0
 40
1.0
 10
-0.6424150648
 20
-24.3687044398
 30
0.0
 10
-0.6598675553
 20
-24.3395821259
 30
0.0
 10
-0.6795906728
 20
-24.313202167
 30
0.0
 10
-0.7018850732
 20
-24.291167117
 30
0.0
 11
-0.6424150648
 21
-24.3687044398
 31
0.0
 11
-0.7018850732
 21
-24.291167117
 31
0.0
  0
SPLINE
  5
3FA
100
AcDbEntity
  8
IMPORT_IGES
100
AcDbSpline
 62
7
  6
CONTINUOUS
 70
0
 71
3
 72
9
 73
5
 74
3
 42
0.0000001
 43
0.0000001
 44
0.0000000001
 12
-0.1089310306
 22
0.5456809512
 32
0.0
 13
-0.1092475052
 23
0.545733753
 33
0.0
 40
0.0
 40
0.0
 40
0.0
 40
0.0
 40
0.1980141723
 40
1.0
 40
1.0
 40
1.0
 40
1.0
 10
-0.4172798812
 20
-25.2823295975
 30
0.0
 10
-0.4244698438
 20
-25.2463120769
 30
0.0
 10
-0.4596614891
 20
-25.0646097347
 30
0.0
 10
-0.4940293988
 20
-24.8830516813
 30
0.0
 10
-0.5232343825
 20
-24.7371614361
 30
0.0
 11
-0.4172798812
 21
-25.2823295975
 31
0.0
 11
-0.4383744345
 21
-25.1743584566
 31
0.0
 11
-0.5232343825
 21
-24.7371614361
 31
0.0
  0
SPLINE
  5
3FB
100
AcDbEntity
  8
IMPORT_IGES
100
AcDbSpline
 62
7
  6
CONTINUOUS
 70
0
 71
3
 72
9
 73
5
 74
3
 42
0.0000001
 43
0.0000001
 44
0.0000000001
 12
-0.7242720778
 22
0.6826063808
 32
0.0
 13
-0.7618885033
 23
0.2436665522
 33
0.0
 40
0.0
 40
0.0
 40
0.0
 40
0.0
 40
0.2957417834
 40
1.0
 40
1.0
 40
1.0
 40
1.0
 10
-0.7338406658
 20
-23.3459408451
 30
0.0
 10
-0.8052398378
 20
-23.2786491023
 30
0.0
 10
-1.0618766385
 20
-23.0988336033
 30
0.0
 10
-1.3198596188
 20
-23.0015590675
 30
0.0
 10
-1.4987150317
 20
-22.944357677
 30
0.0
 11
-0.7338406658
 21
-23.3459408451
 31
0.0
 11
-0.9571540292
 21
-23.1795104865
 31
0.0
 11
-1.4987150317
 21
-22.944357677
 31
0.0
  0
SPLINE
  5
3FC
100
AcDbEntity
  8
IMPORT_IGES
100
AcDbSpline
 62
7
  6
CONTINUOUS
 70
0
 71
3
 72
9
 73
5
 74
3
 42
0.0000001
 43
0.0000001
 44
0.0000000001
 12
0.0443426486
 22
0.0221713243
 32
0.0
 13
0.0397038801
 23
0.0264877824
 33
0.0
 40
0.0
 40
0.0
 40
0.0
 40
0.0
 40
0.0529699826
 40
1.0
 40
1.0
 40
1.0
 40
1.0
 10
-0.6588537854
 20
-24.273728725
 30
0.0
 10
-0.6580708422
 20
-24.2733372534
 30
0.0
 10
-0.643333733
 20
-24.2658864899
 30
0.0
 10
-0.6292909983
 20
-24.2580773718
 30
0.0
 10
-0.6167574096
 20
-24.2497157968
 30
0.0
 11
-0.6588537854
 21
-24.273728725
 31
0.0
 11
-0.6565115417
 21
-24.2725469143
 31
0.0
 11
-0.6167574096
 21
-24.2497157968
 31
0.0
  0
SPLINE
  5
3FD
100
AcDbEntity
  8
IMPORT_IGES
100
AcDbSpline
 62
7
  6
CONTINUOUS
 70
0
 71
3
 72
16
 73
12
 74
10
 42
0.0000001
 43
0.0000001
 44
0.0000000001
 12
0.5918942464
 22
0.3948723892
 32
0.0
 13
-0.7723802419
 23
0.7274516852
 33
0.0
 40
0.0
 40
0.0
 40
0.0
 40
0.0
 40
0.063526156
 40
0.2350520403
 40
0.3378746638
 40
0.4554210254
 40
0.5509332403
 40
0.636789735
 40
0.7863333931
 40
0.909918364
 40
1.0
 40
1.0
 40
1.0
 40
1.0
 10
-0.6167574096
 20
-24.2497157968
 30
0.0
 10
-0.6042238208
 20
-24.2413542218
 30
0.0
 10
-0.5606801869
 20
-24.2068410299
 30
0.0
 10
-0.515954495
 20
-24.1255300912
 30
0.0
 10
-0.4922841241
 20
-24.0088750401
 30
0.0
 10
-0.4900603402
 20
-23.9033427178
 30
0.0
 10
-0.501779929
 20
-23.7978780924
 30
0.0
 10
-0.5301841885
 20
-23.6778380595
 30
0.0
 10
-0.5835332004
 20
-23.5474401012
 30
0.0
 10
-0.6588578541
 20
-23.4286633098
 30
0.0
 10
-0.7106482405
 20
-23.367784191
 30
0.0
 10
-0.7338406658
 20
-23.3459408451
 30
0.0
 11
-0.6167574096
 21
-24.2497157968
 31
0.0
 11
-0.5815950927
 21
-24.2210880443
 31
0.0
 11
-0.514578467
 21
-24.1028820681
 31
0.0
 11
-0.4957334444
 21
-24.0115105756
 31
0.0
 11
-0.4929044054
 21
-23.8947662991
 31
0.0
 11
-0.5045038784
 21
-23.7939718494
 31
0.0
 11
-0.5266832482
 21
-23.7009256677
 31
0.0
 11
-0.5922033473
 21
-23.5409765826
 31
0.0
 11
-0.6683080405
 21
-23.4207159921
 31
0.0
 11
-0.7338406658
 21
-23.3459408451
 31
0.0
  0
SPLINE
  5
3FE
100
AcDbEntity
  8
RACCORDO
100
AcDbSpline
 62
7
  6
CONTINUOUS
 70
0
 71
3
 72
11
 73
7
 74
5
 42
0.0000001
 43
0.0000001
 44
0.0000000001
 12
-0.000017673
 22
0.2406218091
 32
0.0
 13
-0.2152186894
 23
0.1076093447
 33
0.0
 40
0.0
 40
0.0
 40
0.0
 40
0.0
 40
0.206582075
 40
0.434482042
 40
0.6975295886
 40
1.0
 40
1.0
 40
1.0
 40
1.0
 10
-16.2531496111
 20
-2.8242136344
 30
0.0
 10
-16.2531508281
 20
-2.8076442502
 30
0.0
 10
-16.2604860781
 20
-2.7725321229
 30
0.0
 10
-16.2910341695
 20
-2.7246152308
 30
0.0
 10
-16.3386693165
 20
-2.6815960432
 30
0.0
 10
-16.3778970097
 20
-2.6583084034
 30
0.0
 10
-16.3995961049
 20
-2.6474588558
 30
0.0
 11
-16.2531496111
 21
-2.8242136344
 31
0.0
 11
-16.2627695468
 21
-2.7754452298
 31
0.0
 11
-16.2912132966
 21
-2.7285610458
 31
0.0
 11
-16.3374437854
 21
-2.6853291597
 31
0.0
 11
-16.3995961049
 21
-2.6474588558
 31
0.0
  0
SPLINE
  5
3FF
100
AcDbEntity
  8
RACCORDO
100
AcDbSpline
 62
7
  6
CONTINUOUS
 70
0
 71
3
 72
11
 73
7
 74
5
 42
0.0000001
 43
0.0000001
 44
0.0000000001
 12
0.0000171752
 22
-0.2338432201
 32
0.0
 13
-0.2076592723
 23
-0.1075187357
 33
0.0
 40
0.0
 40
0.0
 40
0.0
 40
0.0
 40
0.2077698318
 40
0.4361255549
 40
0.6987067635
 40
1.0
 40
1.0
 40
1.0
 40
1.0
 10
-16.2531496111
 20
-1.9581882306
 30
0.0
 10
-16.2531484216
 20
-1.9743834194
 30
0.0
 10
-16.2601093458
 20
-2.0086332238
 30
0.0
 10
-16.2892897737
 20
-2.0556057245
 30
0.0
 10
-16.3349353875
 20
-2.097976199
 30
0.0
 10
-16.3726241506
 20
-2.1210765173
 30
0.0
 10
-16.3934795953
 20
-2.13187474
 30
0.0
 11
-16.2531496111
 21
-1.9581882306
 31
0.0
 11
-16.2623347602
 21
-2.005897667
 31
0.0
 11
-16.2895442852
 21
-2.0518448291
 31
0.0
 11
-16.3338326098
 21
-2.0943754359
 31
0.0
 11
-16.3934795953
 21
-2.13187474
 31
0.0
  0
SPLINE
  5
400
100
AcDbEntity
  8
ASSI
100
AcDbSpline
 62
7
  6
CONTINUOUS
 70
0
 71
3
 72
8
 73
4
 74
2
 42
0.0000001
 43
0.0000001
 44
0.0000000001
 12
0.0017199875
 22
-0.0008550395
 32
0.0
 13
0.0000082235
 23
-0.0019207763
 33
0.0
 40
0.0
 40
0.0
 40
0.0
 40
0.0
 40
1.0
 40
1.0
 40
1.0
 40
1.0
 10
-1.897441477
 20
-16.8606132106
 30
0.0
 10
-1.8968681479
 20
-16.8608982238
 30
0.0
 10
-1.8964257353
 20
-16.8616014917
 30
0.0
 10
-1.8964229941
 20
-16.8622417505
 30
0.0
 11
-1.897441477
 21
-16.8606132106
 31
0.0
 11
-1.8964229941
 21
-16.8622417505
 31
0.0
  0
SPLINE
  5
401
100
AcDbEntity
  8
ASSI
100
AcDbSpline
 62
7
  6
CONTINUOUS
 70
0
 71
3
 72
8
 73
4
 74
2
 42
0.0000001
 43
0.0000001
 44
0.0000000001
 12
-0.032268327
 22
0.0161247358
 32
0.0
 13
-0.0345239903
 23
0.0104568695
 33
0.0
 40
0.0
 40
0.0
 40
0.0
 40
0.0
 40
1.0
 40
1.0
 40
1.0
 40
1.0
 10
-6.0908052452
 20
-14.7639313265
 30
0.0
 10
-6.1015613542
 20
-14.7585564146
 30
0.0
 10
-6.1127548148
 20
-14.7539320218
 30
0.0
 10
-6.1242628116
 20
-14.7504463987
 30
0.0
 11
-6.0908052452
 21
-14.7639313265
 31
0.0
 11
-6.1242628116
 21
-14.7504463987
 31
0.0
  0
SPLINE
  5
402
100
AcDbEntity
  8
ASSI
100
AcDbSpline
 62
7
  6
CONTINUOUS
 70
0
 71
3
 72
9
 73
5
 74
3
 42
0.0000001
 43
0.0000001
 44
0.0000000001
 12
-0.0479673986
 22
0.0145287038
 32
0.0
 13
-0.0500426309
 23
-0.0027730218
 33
0.0
 40
0.0
 40
0.0
 40
0.0
 40
0.0
 40
0.257878631
 40
1.0
 40
1.0
 40
1.0
 40
1.0
 10
-6.1242628116
 20
-14.7504463987
 30
0.0
 10
-6.1283860673
 20
-14.7491975179
 30
0.0
 10
-6.1445298375
 20
-14.7449226885
 30
0.0
 10
-6.1614299017
 20
-14.7431569368
 30
0.0
 10
-6.173809137
 20
-14.7438429097
 30
0.0
 11
-6.1242628116
 21
-14.7504463987
 31
0.0
 11
-6.1367626286
 21
-14.7471596008
 31
0.0
 11
-6.173809137
 21
-14.7438429097
 31
0.0
  0
SPLINE
  5
403
100
AcDbEntity
  8
ASSI
100
AcDbSpline
 62
7
  6
CONTINUOUS
 70
0
 71
3
 72
8
 73
4
 74
2
 42
0.0000001
 43
0.0000001
 44
0.0000000001
 12
-0.0213414878
 22
-0.0011825999
 32
0.0
 13
-0.0206349063
 23
-0.005572996
 33
0.0
 40
0.0
 40
0.0
 40
0.0
 40
0.0
 40
1.0
 40
1.0
 40
1.0
 40
1.0
 10
-6.173809137
 20
-14.7438429097
 30
0.0
 10
-6.1809229662
 20
-14.7442371096
 30
0.0
 10
-6.1880466305
 20
-14.7452989758
 30
0.0
 10
-6.1949249327
 20
-14.7471566411
 30
0.0
 11
-6.173809137
 21
-14.7438429097
 31
0.0
 11
-6.1949249327
 21
-14.7471566411
 31
0.0
  0
SPLINE
  5
404
100
AcDbEntity
  8
ASSI
100
AcDbSpline
 62
7
  6
CONTINUOUS
 70
0
 71
3
 72
8
 73
4
 74
2
 42
0.0000001
 43
0.0000001
 44
0.0000000001
 12
-0.032268327
 22
0.0161247358
 32
0.0
 13
-0.0345239903
 23
0.0104568695
 33
0.0
 40
0.0
 40
0.0
 40
0.0
 40
0.0
 40
1.0
 40
1.0
 40
1.0
 40
1.0
 10
9.8190973315
 20
-22.7188826149
 30
0.0
 10
9.8083412225
 20
-22.7135077029
 30
0.0
 10
9.7971477618
 20
-22.7088833102
 30
0.0
 10
9.7856397651
 20
-22.705397687
 30
0.0
 11
9.8190973315
 21
-22.7188826149
 31
0.0
 11
9.7856397651
 21
-22.705397687
 31
0.0
  0
SPLINE
  5
405
100
AcDbEntity
  8
ASSI
100
AcDbSpline
 62
7
  6
CONTINUOUS
 70
0
 71
3
 72
9
 73
5
 74
3
 42
0.0000001
 43
0.0000001
 44
0.0000000001
 12
-0.0479673986
 22
0.0145287038
 32
0.0
 13
-0.0500426309
 23
-0.0027730218
 33
0.0
 40
0.0
 40
0.0
 40
0.0
 40
0.0
 40
0.257878631
 40
1.0
 40
1.0
 40
1.0
 40
1.0
 10
9.7856397651
 20
-22.705397687
 30
0.0
 10
9.7815165094
 20
-22.7041488063
 30
0.0
 10
9.7653727392
 20
-22.6998739769
 30
0.0
 10
9.748472675
 20
-22.6981082251
 30
0.0
 10
9.7360934397
 20
-22.698794198
 30
0.0
 11
9.7856397651
 21
-22.705397687
 31
0.0
 11
9.7731399481
 21
-22.7021108891
 31
0.0
 11
9.7360934397
 21
-22.698794198
 31
0.0
  0
SPLINE
  5
406
100
AcDbEntity
  8
ASSI
100
AcDbSpline
 62
7
  6
CONTINUOUS
 70
0
 71
3
 72
8
 73
4
 74
2
 42
0.0000001
 43
0.0000001
 44
0.0000000001
 12
-0.0213414878
 22
-0.0011825999
 32
0.0
 13
-0.0206349063
 23
-0.005572996
 33
0.0
 40
0.0
 40
0.0
 40
0.0
 40
0.0
 40
1.0
 40
1.0
 40
1.0
 40
1.0
 10
9.7360934397
 20
-22.698794198
 30
0.0
 10
9.7289796105
 20
-22.699188398
 30
0.0
 10
9.7218559462
 20
-22.7002502641
 30
0.0
 10
9.714977644
 20
-22.7021079295
 30
0.0
 11
9.7360934397
 21
-22.698794198
 31
0.0
 11
9.714977644
 21
-22.7021079295
 31
0.0
  0
SPLINE
  5
407
100
AcDbEntity
  8
RACCORDO
100
AcDbSpline
 62
7
  6
CONTINUOUS
 70
0
 71
3
 72
9
 73
5
 74
3
 42
0.0000001
 43
0.0000001
 44
0.0000000001
 12
0.0268588128
 22
0.0227455483
 32
0.0
 13
0.0235456791
 23
0.0261602138
 33
0.0
 40
0.0
 40
0.0
 40
0.0
 40
0.0
 40
0.2579647081
 40
1.0
 40
1.0
 40
1.0
 40
1.0
 10
-16.3225217431
 20
-3.8173010573
 30
0.0
 10
-16.3202122011
 20
-3.8153452077
 30
0.0
 10
-16.311376916
 20
-3.8076264587
 30
0.0
 10
-16.3030294446
 20
-3.7993420756
 30
0.0
 10
-16.2972055363
 20
-3.792871475
 30
0.0
 11
-16.3225217431
 21
-3.8173010573
 31
0.0
 11
-16.3156862796
 21
-3.8113252374
 31
0.0
 11
-16.2972055363
 21
-3.792871475
 31
0.0
  0
SPLINE
  5
408
100
AcDbEntity
  8
RACCORDO
100
AcDbSpline
 62
7
  6
CONTINUOUS
 70
0
 71
3
 72
9
 73
5
 74
3
 42
0.0000001
 43
0.0000001
 44
0.0000000001
 12
0.0760245503
 22
0.0844663892
 32
0.0
 13
-0.0000084707
 23
0.1136411153
 33
0.0
 40
0.0
 40
0.0
 40
0.0
 40
0.0
 40
0.5278198147
 40
1.0
 40
1.0
 40
1.0
 40
1.0
 10
-16.2972055363
 20
-3.792871475
 30
0.0
 10
-16.2838297816
 20
-3.7780104637
 30
0.0
 10
-16.2617731026
 20
-3.7462885374
 30
0.0
 10
-16.2531482837
 20
-3.7081249598
 30
0.0
 10
-16.2531496169
 20
-3.6902385989
 30
0.0
 11
-16.2972055363
 21
-3.792871475
 31
0.0
 11
-16.2642879095
 21
-3.7427289373
 31
0.0
 11
-16.2531496169
 21
-3.6902385989
 31
0.0
  0
SPLINE
  5
409
100
AcDbEntity
  8
DRAFT
100
AcDbSpline
 62
7
  6
CONTINUOUS
 70
0
 71
3
 72
9
 73
5
 74
3
 42
0.0000001
 43
0.0000001
 44
0.0000000001
 12
-0.0332798367
 22
-0.1354758949
 32
0.0
 13
-0.1246344754
 23
-0.0626698746
 33
0.0
 40
0.0
 40
0.0
 40
0.0
 40
0.0
 40
0.5315595469
 40
1.0
 40
1.0
 40
1.0
 40
1.0
 10
-2.4742638546
 20
-17.9473422435
 30
0.0
 10
-2.4801605929
 20
-17.9713467452
 30
0.0
 10
-2.4979642463
 20
-18.0156553212
 30
0.0
 10
-2.5340516981
 20
-18.048318711
 30
0.0
 10
-2.5535129748
 20
-18.0581044125
 30
0.0
 11
-2.4742638546
 21
-17.9473422435
 31
0.0
 11
-2.5042541855
 21
-18.0151616264
 31
0.0
 11
-2.5535129748
 21
-18.0581044125
 31
0.0
  0
SPLINE
  5
40A
100
AcDbEntity
  8
RACCORDO
100
AcDbSpline
 62
7
  6
CONTINUOUS
 70
0
 71
3
 72
11
 73
7
 74
5
 42
0.0000001
 43
0.0000001
 44
0.0000000001
 12
0.1245821712
 22
0.0645043059
 32
0.0
 13
-0.0000146374
 23
0.1402908502
 33
0.0
 40
0.0
 40
0.0
 40
0.0
 40
0.0
 40
0.3011147916
 40
0.5638958152
 40
0.7922715567
 40
1.0
 40
1.0
 40
1.0
 40
1.0
 10
-16.7085485406
 20
14.9724824569
 30
0.0
 10
-16.6960440291
 20
14.9789568571
 30
0.0
 10
-16.6734396152
 20
14.9928265997
 30
0.0
 10
-16.6460409686
 20
15.0182305275
 30
0.0
 10
-16.6285194097
 20
15.0464169444
 30
0.0
 10
-16.6243627393
 20
15.0669671529
 30
0.0
 10
-16.6243637529
 20
15.0766812862
 30
0.0
 11
-16.7085485406
 21
14.9724824569
 31
0.0
 11
-16.6727879242
 21
14.9949703272
 31
0.0
 11
-16.6461884384
 21
15.0204958557
 31
0.0
 11
-16.6298601818
 21
15.048061909
 31
0.0
 11
-16.6243637529
 21
15.0766812862
 31
0.0
  0
SPLINE
  5
40B
100
AcDbEntity
  8
RACCORDO
100
AcDbSpline
 62
7
  6
CONTINUOUS
 70
0
 71
3
 72
11
 73
7
 74
5
 42
0.0000001
 43
0.0000001
 44
0.0000000001
 12
0.0442364388
 22
-0.0894139904
 32
0.0
 13
-0.0660761993
 23
-0.0747372738
 33
0.0
 40
0.0
 40
0.0
 40
0.0
 40
0.0
 40
0.3302218568
 40
0.6017065375
 40
0.8185443816
 40
1.0
 40
1.0
 40
1.0
 40
1.0
 10
-16.3934867433
 20
15.7709181237
 30
0.0
 10
-16.3886174636
 20
15.7610759724
 30
0.0
 10
-16.3807065839
 20
15.742613244
 30
0.0
 10
-16.3742716295
 20
15.715994756
 30
0.0
 10
-16.3746525006
 20
15.6933323376
 30
0.0
 10
-16.3806290299
 20
15.6808319604
 30
0.0
 10
-16.3846256625
 20
15.676311461
 30
0.0
 11
-16.3934867433
 21
15.7709181237
 31
0.0
 11
-16.3808923072
 21
15.7404783369
 31
0.0
 11
-16.3751144069
 21
15.7140189894
 31
0.0
 11
-16.3763768758
 21
15.6924244805
 31
0.0
 11
-16.3846256625
 21
15.676311461
 31
0.0
  0
SPLINE
  5
40C
100
AcDbEntity
  8
RACCORDO
100
AcDbSpline
 62
7
  6
CONTINUOUS
 70
0
 71
3
 72
9
 73
5
 74
3
 42
0.0000001
 43
0.0000001
 44
0.0000000001
 12
0.0655963878
 22
-0.031697235
 32
0.0
 13
0.0507266935
 23
-0.0522915229
 33
0.0
 40
0.0
 40
0.0
 40
0.0
 40
0.0
 40
0.2345634937
 40
1.0
 40
1.0
 40
1.0
 40
1.0
 10
-15.0659353587
 20
3.051752725
 30
0.0
 10
-15.0608065194
 20
3.0492743869
 30
0.0
 10
-15.0395114027
 20
3.0375360201
 30
0.0
 10
-15.0205858114
 20
3.0217517769
 30
0.0
 10
-15.0076431238
 20
3.0084098301
 30
0.0
 11
-15.0659353587
 21
3.051752725
 31
0.0
 11
-15.0509467768
 21
3.043544998
 31
0.0
 11
-15.0076431238
 21
3.0084098301
 31
0.0
  0
SPLINE
  5
40D
100
AcDbEntity
  8
RACCORDO
100
AcDbSpline
 62
7
  6
CONTINUOUS
 70
0
 71
3
 72
9
 73
5
 74
3
 42
0.0000001
 43
0.0000001
 44
0.0000000001
 12
0.0423537234
 22
-0.0436602614
 32
0.0
 13
0.0322412592
 23
-0.0515805925
 33
0.0
 40
0.0
 40
0.0
 40
0.0
 40
0.0
 40
0.2442960562
 40
1.0
 40
1.0
 40
1.0
 40
1.0
 10
-15.0076431238
 20
3.0084098301
 30
0.0
 10
-15.0041941746
 20
3.0048544868
 30
0.0
 10
-14.9904927315
 20
2.9899004455
 30
0.0
 10
-14.978443963
 20
2.9734509928
 30
0.0
 10
-14.9703223474
 20
2.9604577737
 30
0.0
 11
-15.0076431238
 21
3.0084098301
 31
0.0
 11
-14.9975983901
 21
2.9974588132
 31
0.0
 11
-14.9703223474
 21
2.9604577737
 31
0.0
  0
SPLINE
  5
40E
100
AcDbEntity
  8
RACCORDO
100
AcDbSpline
 62
7
  6
CONTINUOUS
 70
0
 71
3
 72
9
 73
5
 74
3
 42
0.0000001
 43
0.0000001
 44
0.0000000001
 12
0.085038347
 22
-0.1360470536
 32
0.0
 13
-0.0022295875
 23
-0.1604224118
 33
0.0
 40
0.0
 40
0.0
 40
0.0
 40
0.0
 40
0.2603597621
 40
1.0
 40
1.0
 40
1.0
 40
1.0
 10
-14.9703223474
 20
2.9604577737
 30
0.0
 10
-14.9629421595
 20
2.9486507142
 30
0.0
 10
-14.9376923403
 20
2.9015487665
 30
0.0
 10
-14.9239858441
 20
2.8474257392
 30
0.0
 10
-14.9245355417
 20
2.8078741156
 30
0.0
 11
-14.9703223474
 21
2.9604577737
 31
0.0
 11
-14.9505765752
 21
2.923647871
 31
0.0
 11
-14.9245355417
 21
2.8078741156
 31
0.0
  0
SPLINE
  5
40F
100
AcDbEntity
  8
RACCORDO
100
AcDbSpline
 62
7
  6
CONTINUOUS
 70
0
 71
3
 72
10
 73
6
 74
4
 42
0.0000001
 43
0.0000001
 44
0.0000000001
 12
0.0016600254
 22
-0.1177224943
 32
0.0
 13
-0.0998022548
 23
-0.0624567953
 33
0.0
 40
0.0
 40
0.0
 40
0.0
 40
0.0
 40
0.5456649566
 40
0.7809991749
 40
1.0
 40
1.0
 40
1.0
 40
1.0
 10
-14.9245355417
 20
-0.8122149639
 30
0.0
 10
-14.9242336024
 20
-0.8336273104
 30
0.0
 10
-14.9284903622
 20
-0.8652599505
 30
0.0
 10
-14.9484202531
 20
-0.899602071
 30
0.0
 10
-14.9619778777
 20
-0.911767999
 30
0.0
 10
-14.9692634698
 20
-0.9163273622
 30
0.0
 11
-14.9245355417
 21
-0.8122149639
 31
0.0
 11
-14.9357019891
 21
-0.8754805013
 31
0.0
 11
-14.9499538625
 21
-0.8992408802
 31
0.0
 11
-14.9692634698
 21
-0.9163273622
 31
0.0
  0
SPLINE
  5
410
100
AcDbEntity
  8
RACCORDO
100
AcDbSpline
 62
7
  6
CONTINUOUS
 70
0
 71
3
 72
9
 73
5
 74
3
 42
0.0000001
 43
0.0000001
 44
0.0000000001
 12
0.0655963878
 22
-0.031697235
 32
0.0
 13
0.0507266935
 23
-0.0522915229
 33
0.0
 40
0.0
 40
0.0
 40
0.0
 40
0.0
 40
0.2345634937
 40
1.0
 40
1.0
 40
1.0
 40
1.0
 10
-15.0659353587
 20
21.368190015
 30
0.0
 10
-15.0608065194
 20
21.3657116769
 30
0.0
 10
-15.0395114027
 20
21.3539733102
 30
0.0
 10
-15.0205858114
 20
21.338189067
 30
0.0
 10
-15.0076431238
 20
21.3248471201
 30
0.0
 11
-15.0659353587
 21
21.368190015
 31
0.0
 11
-15.0509467768
 21
21.3599822881
 31
0.0
 11
-15.0076431238
 21
21.3248471201
 31
0.0
  0
SPLINE
  5
411
100
AcDbEntity
  8
RACCORDO
100
AcDbSpline
 62
7
  6
CONTINUOUS
 70
0
 71
3
 72
9
 73
5
 74
3
 42
0.0000001
 43
0.0000001
 44
0.0000000001
 12
0.0423537234
 22
-0.0436602614
 32
0.0
 13
0.0322412592
 23
-0.0515805925
 33
0.0
 40
0.0
 40
0.0
 40
0.0
 40
0.0
 40
0.2442960562
 40
1.0
 40
1.0
 40
1.0
 40
1.0
 10
-15.0076431238
 20
21.3248471201
 30
0.0
 10
-15.0041941746
 20
21.3212917769
 30
0.0
 10
-14.9904927315
 20
21.3063377356
 30
0.0
 10
-14.978443963
 20
21.2898882828
 30
0.0
 10
-14.9703223474
 20
21.2768950638
 30
0.0
 11
-15.0076431238
 21
21.3248471201
 31
0.0
 11
-14.9975983901
 21
21.3138961033
 31
0.0
 11
-14.9703223474
 21
21.2768950638
 31
0.0
  0
SPLINE
  5
412
100
AcDbEntity
  8
RACCORDO
100
AcDbSpline
 62
7
  6
CONTINUOUS
 70
0
 71
3
 72
9
 73
5
 74
3
 42
0.0000001
 43
0.0000001
 44
0.0000000001
 12
0.085038347
 22
-0.1360470536
 32
0.0
 13
-0.0022295875
 23
-0.1604224118
 33
0.0
 40
0.0
 40
0.0
 40
0.0
 40
0.0
 40
0.2603597621
 40
1.0
 40
1.0
 40
1.0
 40
1.0
 10
-14.9703223474
 20
21.2768950638
 30
0.0
 10
-14.9629421595
 20
21.2650880043
 30
0.0
 10
-14.9376923403
 20
21.2179860565
 30
0.0
 10
-14.9239858441
 20
21.1638630293
 30
0.0
 10
-14.9245355417
 20
21.1243114057
 30
0.0
 11
-14.9703223474
 21
21.2768950638
 31
0.0
 11
-14.9505765752
 21
21.2400851611
 31
0.0
 11
-14.9245355417
 21
21.1243114057
 31
0.0
  0
SPLINE
  5
413
100
AcDbEntity
  8
RACCORDO
100
AcDbSpline
 62
7
  6
CONTINUOUS
 70
0
 71
3
 72
10
 73
6
 74
4
 42
0.0000001
 43
0.0000001
 44
0.0000000001
 12
0.0016600254
 22
-0.1177224943
 32
0.0
 13
-0.0998022548
 23
-0.0624567953
 33
0.0
 40
0.0
 40
0.0
 40
0.0
 40
0.0
 40
0.5456649566
 40
0.7809991749
 40
1.0
 40
1.0
 40
1.0
 40
1.0
 10
-14.9245355417
 20
17.5042223262
 30
0.0
 10
-14.9242336024
 20
17.4828099796
 30
0.0
 10
-14.9284903622
 20
17.4511773396
 30
0.0
 10
-14.9484202531
 20
17.4168352191
 30
0.0
 10
-14.9619778777
 20
17.404669291
 30
0.0
 10
-14.9692634698
 20
17.4001099278
 30
0.0
 11
-14.9245355417
 21
17.5042223262
 31
0.0
 11
-14.9357019891
 21
17.4409567887
 31
0.0
 11
-14.9499538625
 21
17.4171964099
 31
0.0
 11
-14.9692634698
 21
17.4001099278
 31
0.0
  0
SPLINE
  5
414
100
AcDbEntity
  8
RACCORDO
100
AcDbSpline
 62
7
  6
CONTINUOUS
 70
0
 71
3
 72
11
 73
7
 74
5
 42
0.0000001
 43
0.0000001
 44
0.0000000001
 12
0.2196643699
 22
0.1676883289
 32
0.0
 13
0.0000324103
 23
0.2763545006
 33
0.0
 40
0.0
 40
0.0
 40
0.0
 40
0.0
 40
0.2880052896
 40
0.5484364456
 40
0.7830451664
 40
1.0
 40
1.0
 40
1.0
 40
1.0
 10
-16.3934900676
 20
15.7709068226
 30
0.0
 10
-16.3724019008
 20
15.7870051978
 30
0.0
 10
-16.334225981
 20
15.8204572976
 30
0.0
 10
-16.2888573154
 20
15.8771394836
 30
0.0
 10
-16.2600705943
 20
15.9368177828
 30
0.0
 10
-16.253152005
 20
15.9786129368
 30
0.0
 10
-16.2531496612
 20
15.9985984184
 30
0.0
 11
-16.3934900676
 21
15.7709068226
 31
0.0
 11
-16.3340715692
 21
15.82386207
 31
0.0
 11
-16.2897598852
 21
15.8805749075
 31
0.0
 11
-16.2624174569
 21
15.9393625908
 31
0.0
 11
-16.2531496612
 21
15.9985984184
 31
0.0
  0
SPLINE
  5
415
100
AcDbEntity
  8
RACCORDO
100
AcDbSpline
 62
7
  6
CONTINUOUS
 70
0
 71
3
 72
11
 73
7
 74
5
 42
0.0000001
 43
0.0000001
 44
0.0000000001
 12
0.1712622514
 22
0.0869949376
 32
0.0
 13
0.0004293237
 23
0.1920903266
 33
0.0
 40
0.0
 40
0.0
 40
0.0
 40
0.0
 40
0.3609349558
 40
0.6475569956
 40
0.8565789599
 40
1.0
 40
1.0
 40
1.0
 40
1.0
 10
-15.3620034652
 20
-11.6690708382
 30
0.0
 10
-15.3413986208
 20
-11.6586043336
 30
0.0
 10
-15.3050823081
 20
-11.6384867811
 30
0.0
 10
-15.2602958709
 20
-11.6064198518
 30
0.0
 10
-15.2313486612
 20
-11.5773445323
 30
0.0
 10
-15.2216948409
 20
-11.5553993993
 30
0.0
 10
-15.2216743163
 20
-11.5462161344
 30
0.0
 11
-15.3620034652
 21
-11.6690708382
 31
0.0
 11
-15.3016785187
 21
-11.6348967719
 31
0.0
 11
-15.2573969566
 21
-11.6021787794
 31
0.0
 11
-15.2305967659
 21
-11.5722811466
 31
0.0
 11
-15.2216743163
 21
-11.5462161344
 31
0.0
  0
SPLINE
  5
416
100
AcDbEntity
  8
RACCORDO
100
AcDbSpline
 62
7
  6
CONTINUOUS
 70
0
 71
3
 72
14
 73
10
 74
8
 42
0.0000001
 43
0.0000001
 44
0.0000000001
 12
0.3943553874
 22
-0.2003416686
 32
0.0
 13
-0.0117691643
 23
-0.4421701511
 33
0.0
 40
0.0
 40
0.0
 40
0.0
 40
0.0
 40
0.1107720358
 40
0.2307901358
 40
0.3575289023
 40
0.4888703813
 40
0.7527421961
 40
0.8798077521
 40
1.0
 40
1.0
 40
1.0
 40
1.0
 10
-15.5741031892
 20
-11.3032529234
 30
0.0
 10
-15.5595420061
 20
-11.3106503416
 30
0.0
 10
-15.53027921
 20
-11.3283299302
 30
0.0
 10
-15.4900740405
 20
-11.3627706308
 30
0.0
 10
-15.453513121
 20
-11.4050938208
 30
0.0
 10
-15.4107194283
 20
-11.4692216017
 30
0.0
 10
-15.3802233973
 20
-11.5410082752
 30
0.0
 10
-15.3642627579
 20
-11.6147900796
 30
0.0
 10
-15.3615318951
 20
-11.6513556723
 30
0.0
 10
-15.3620034159
 20
-11.6690708138
 30
0.0
 11
-15.5741031892
 21
-11.3032529234
 31
0.0
 11
-15.5322140269
 21
-11.3286703722
 31
0.0
 11
-15.4917495541
 21
-11.363034292
 31
0.0
 11
-15.4548736698
 21
-11.4052585364
 31
0.0
 11
-15.4226152975
 21
-11.4535754608
 31
0.0
 11
-15.3770733307
 21
-11.5610413565
 31
0.0
 11
-15.3653659669
 21
-11.6160130115
 31
0.0
 11
-15.3620034159
 21
-11.6690708138
 31
0.0
  0
SPLINE
  5
417
100
AcDbEntity
  8
RACCORDO
100
AcDbSpline
 62
7
  6
CONTINUOUS
 70
0
 71
3
 72
11
 73
7
 74
5
 42
0.0000001
 43
0.0000001
 44
0.0000000001
 12
0.2076592723
 22
0.1075187357
 32
0.0
 13
-0.0000171752
 23
0.2338432201
 33
0.0
 40
0.0
 40
0.0
 40
0.0
 40
0.0
 40
0.3012932365
 40
0.5638744451
 40
0.7922301682
 40
1.0
 40
1.0
 40
1.0
 40
1.0
 10
-16.3934795953
 20
-2.9979001437
 30
0.0
 10
-16.3726241506
 20
-2.9871019211
 30
0.0
 10
-16.3349353875
 20
-2.9640016028
 30
0.0
 10
-16.2892897737
 20
-2.9216311283
 30
0.0
 10
-16.2601093458
 20
-2.8746586276
 30
0.0
 10
-16.2531484216
 20
-2.8404088232
 30
0.0
 10
-16.2531496111
 20
-2.8242136344
 30
0.0
 11
-16.3934795953
 21
-2.9979001437
 31
0.0
 11
-16.3338326098
 21
-2.9604008396
 31
0.0
 11
-16.2895442852
 21
-2.9178702329
 31
0.0
 11
-16.2623347602
 21
-2.8719230708
 31
0.0
 11
-16.2531496111
 21
-2.8242136344
 31
0.0
  0
SPLINE
  5
418
100
AcDbEntity
  8
RACCORDO
100
AcDbSpline
 62
7
  6
CONTINUOUS
 70
0
 71
3
 72
10
 73
6
 74
4
 42
0.0000001
 43
0.0000001
 44
0.0000000001
 12
-0.0000475625
 22
0.7594151991
 32
0.0
 13
0.4453762797
 23
0.615102769
 33
0.0
 40
0.0
 40
0.0
 40
0.0
 40
0.0
 40
0.2349208791
 40
0.4858622316
 40
1.0
 40
1.0
 40
1.0
 40
1.0
 10
-16.7085485406
 20
14.9724824569
 30
0.0
 10
-16.708552265
 20
15.0319499523
 30
0.0
 10
-16.6963546199
 20
15.1551435615
 30
0.0
 10
-16.631515264
 20
15.4003966798
 30
0.0
 10
-16.5413566371
 20
15.5760374371
 30
0.0
 10
-16.4650283816
 20
15.6814532921
 30
0.0
 11
-16.7085485406
 21
14.9724824569
 31
0.0
 11
-16.692243512
 21
15.150138285
 31
0.0
 11
-16.6442182293
 21
15.3345562697
 31
0.0
 11
-16.4650283816
 21
15.6814532921
 31
0.0
  0
SPLINE
  5
419
100
AcDbEntity
  8
ASSI
100
AcDbSpline
 62
7
  6
CONTINUOUS
 70
0
 71
3
 72
11
 73
7
 74
5
 42
0.0000001
 43
0.0000001
 44
0.0000000001
 12
0.0483159092
 22
0.0240461291
 32
0.0
 13
0.048326814
 23
-0.0240242057
 33
0.0
 40
0.0
 40
0.0
 40
0.0
 40
0.0
 40
0.4141056993
 40
0.7151930062
 40
0.9055096016
 40
1.0
 40
1.0
 40
1.0
 40
1.0
 10
-1.9477962087
 20
-16.8786735074
 30
0.0
 10
-1.9411269109
 20
-16.8753542944
 30
0.0
 10
-1.9295011957
 20
-16.8699583487
 30
0.0
 10
-1.9142735493
 20
-16.8636863471
 30
0.0
 10
-1.9044769384
 20
-16.860691216
 30
0.0
 10
-1.898963617
 20
-16.859856525
 30
0.0
 10
-1.897441477
 20
-16.8606132106
 30
0.0
 11
-1.9477962087
 21
-16.8786735074
 31
0.0
 11
-1.9275294562
 21
-16.8692538941
 31
0.0
 11
-1.9124284433
 21
-16.8632538171
 31
0.0
 11
-1.9025392482
 21
-16.8604787588
 31
0.0
 11
-1.897441477
 21
-16.8606132106
 31
0.0
  0
SPLINE
  5
41A
100
AcDbEntity
  8
RACCORDO
100
AcDbSpline
 62
7
  6
CONTINUOUS
 70
0
 71
3
 72
9
 73
5
 74
3
 42
0.0000001
 43
0.0000001
 44
0.0000000001
 12
-0.0087546891
 22
-0.0874359101
 32
0.0
 13
-0.0780337588
 23
-0.0404031613
 33
0.0
 40
0.0
 40
0.0
 40
0.0
 40
0.0
 40
0.4365281204
 40
1.0
 40
1.0
 40
1.0
 40
1.0
 10
-14.8686636632
 20
17.5686582178
 30
0.0
 10
-14.8699375525
 20
17.5559354733
 30
0.0
 10
-14.8848962977
 20
17.5282514338
 30
0.0
 10
-14.9098789321
 20
17.5118110079
 30
0.0
 10
-14.9245355417
 20
17.5042223262
 30
0.0
 11
-14.8686636632
 21
17.5686582178
 31
0.0
 11
-14.8849074986
 21
17.5339082969
 31
0.0
 11
-14.9245355417
 21
17.5042223262
 31
0.0
  0
SPLINE
  5
41B
100
AcDbEntity
  8
RACCORDO
100
AcDbSpline
 62
7
  6
CONTINUOUS
 70
0
 71
3
 72
11
 73
7
 74
5
 42
0.0000001
 43
0.0000001
 44
0.0000000001
 12
0.0000031704
 22
-0.0935249258
 32
0.0
 13
-0.0830527307
 23
-0.0430018101
 33
0.0
 40
0.0
 40
0.0
 40
0.0
 40
0.0
 40
0.2077396888
 40
0.4361283515
 40
0.6988919218
 40
1.0
 40
1.0
 40
1.0
 40
1.0
 10
-14.8684122794
 20
21.1937749582
 30
0.0
 10
-14.8684120599
 20
21.1872986785
 30
0.0
 10
-14.8711839193
 20
21.173598229
 30
0.0
 10
-14.8828661416
 20
21.1548085338
 30
0.0
 10
-14.9011303265
 20
21.1378724167
 30
0.0
 10
-14.9161995923
 20
21.1286274698
 30
0.0
 10
-14.9245355417
 20
21.1243114057
 30
0.0
 11
-14.8684122794
 21
21.1937749582
 31
0.0
 11
-14.8720778001
 21
21.1746950278
 31
0.0
 11
-14.8829646526
 21
21.1563176656
 31
0.0
 11
-14.9006959114
 21
21.1393020756
 31
0.0
 11
-14.9245355417
 21
21.1243114057
 31
0.0
  0
SPLINE
  5
41C
100
AcDbEntity
  8
RACCORDO
100
AcDbSpline
 62
7
  6
CONTINUOUS
 70
0
 71
3
 72
10
 73
6
 74
4
 42
0.0000001
 43
0.0000001
 44
0.0000000001
 12
-0.1719060809
 22
0.0858445567
 32
0.0
 13
-0.1728440808
 23
-0.0839399328
 33
0.0
 40
0.0
 40
0.0
 40
0.0
 40
0.0
 40
0.4083751956
 40
0.6803995527
 40
1.0
 40
1.0
 40
1.0
 40
1.0
 10
-15.3885520308
 20
-11.27612813
 30
0.0
 10
-15.4119527573
 20
-11.2644425341
 30
0.0
 10
-15.458974045
 20
-11.2633398664
 30
0.0
 10
-15.5205167773
 20
-11.2795123684
 30
0.0
 10
-15.555689509
 20
-11.2943105109
 30
0.0
 10
-15.5741031908
 20
-11.3032529242
 30
0.0
 11
-15.3885520308
 21
-11.27612813
 31
0.0
 11
-15.4665426454
 21
-11.2674801018
 31
0.0
 11
-15.5173272016
 21
-11.2798486303
 31
0.0
 11
-15.5741031908
 21
-11.3032529242
 31
0.0
  0
SPLINE
  5
41D
100
AcDbEntity
  8
RACCORDO
100
AcDbSpline
 62
7
  6
CONTINUOUS
 70
0
 71
3
 72
9
 73
5
 74
3
 42
0.0000001
 43
0.0000001
 44
0.0000000001
 12
-0.0799442417
 22
0.0399316657
 32
0.0
 13
-0.0806054505
 23
-0.0385795418
 33
0.0
 40
0.0
 40
0.0
 40
0.0
 40
0.0
 40
0.4650684741
 40
1.0
 40
1.0
 40
1.0
 40
1.0
 10
-14.979033253
 20
21.3726952797
 30
0.0
 10
-14.9914264351
 20
21.3788855993
 30
0.0
 10
-15.0223267025
 20
21.3842601004
 30
0.0
 10
-15.0515625599
 20
21.3750691527
 30
0.0
 10
-15.0659353587
 20
21.368190015
 30
0.0
 11
-14.979033253
 21
21.3726952797
 31
0.0
 11
-15.0198079225
 21
21.3807342796
 31
0.0
 11
-15.0659353587
 21
21.368190015
 31
0.0
  0
SPLINE
  5
41E
100
AcDbEntity
  8
RACCORDO
100
AcDbSpline
 62
7
  6
CONTINUOUS
 70
0
 71
3
 72
9
 73
5
 74
3
 42
0.0000001
 43
0.0000001
 44
0.0000000001
 12
-0.0772254574
 22
0.0305001057
 32
0.0
 13
-0.0748939282
 23
-0.0358458816
 33
0.0
 40
0.0
 40
0.0
 40
0.0
 40
0.0
 40
0.466292465
 40
1.0
 40
1.0
 40
1.0
 40
1.0
 10
-15.3598367205
 20
21.5627767872
 30
0.0
 10
-15.3718399368
 20
21.5675174437
 30
0.0
 10
-15.4005256285
 20
21.5707175149
 30
0.0
 10
-15.4274621455
 20
21.5619923897
 30
0.0
 10
-15.4407859635
 20
21.5556153174
 30
0.0
 11
-15.3598367205
 21
21.5627767872
 31
0.0
 11
-15.3982114599
 21
21.5679089024
 31
0.0
 11
-15.4407859635
 21
21.5556153174
 31
0.0
  0
SPLINE
  5
41F
100
AcDbEntity
  8
RACCORDO
100
AcDbSpline
 62
7
  6
CONTINUOUS
 70
0
 71
3
 72
9
 73
5
 74
3
 42
0.0000001
 43
0.0000001
 44
0.0000000001
 12
0.0807359686
 22
0.0373517402
 32
0.0
 13
0.0790092133
 23
-0.0408777855
 33
0.0
 40
0.0
 40
0.0
 40
0.0
 40
0.0
 40
0.4648447593
 40
1.0
 40
1.0
 40
1.0
 40
1.0
 10
-15.5271087891
 20
21.5627717662
 30
0.0
 10
-15.5145988918
 20
21.5685593531
 30
0.0
 10
-15.4836829769
 20
21.5729641888
 30
0.0
 10
-15.4548800283
 20
21.5629073044
 30
0.0
 10
-15.4407859635
 20
21.5556153174
 30
0.0
 11
-15.5271087891
 21
21.5627717662
 31
0.0
 11
-15.4863132609
 21
21.5695295848
 31
0.0
 11
-15.4407859635
 21
21.5556153174
 31
0.0
  0
SPLINE
  5
420
100
AcDbEntity
  8
RACCORDO
100
AcDbSpline
 62
7
  6
CONTINUOUS
 70
0
 71
3
 72
9
 73
5
 74
3
 42
0.0000001
 43
0.0000001
 44
0.0000000001
 12
-0.0087546891
 22
-0.0874359101
 32
0.0
 13
-0.0780337588
 23
-0.0404031613
 33
0.0
 40
0.0
 40
0.0
 40
0.0
 40
0.0
 40
0.4365281204
 40
1.0
 40
1.0
 40
1.0
 40
1.0
 10
-14.8686636632
 20
-0.7477790722
 30
0.0
 10
-14.8699375525
 20
-0.7605018167
 30
0.0
 10
-14.8848962977
 20
-0.7881858562
 30
0.0
 10
-14.9098789321
 20
-0.8046262821
 30
0.0
 10
-14.9245355417
 20
-0.8122149639
 30
0.0
 11
-14.8686636632
 21
-0.7477790722
 31
0.0
 11
-14.8849074986
 21
-0.7825289931
 31
0.0
 11
-14.9245355417
 21
-0.8122149639
 31
0.0
  0
SPLINE
  5
421
100
AcDbEntity
  8
RACCORDO
100
AcDbSpline
 62
7
  6
CONTINUOUS
 70
0
 71
3
 72
11
 73
7
 74
5
 42
0.0000001
 43
0.0000001
 44
0.0000000001
 12
0.0000031704
 22
-0.0935249258
 32
0.0
 13
-0.0830527307
 23
-0.0430018101
 33
0.0
 40
0.0
 40
0.0
 40
0.0
 40
0.0
 40
0.2077396888
 40
0.4361283515
 40
0.6988919218
 40
1.0
 40
1.0
 40
1.0
 40
1.0
 10
-14.8684122794
 20
2.8773376681
 30
0.0
 10
-14.8684120599
 20
2.8708613885
 30
0.0
 10
-14.8711839193
 20
2.857160939
 30
0.0
 10
-14.8828661416
 20
2.8383712438
 30
0.0
 10
-14.9011303265
 20
2.8214351267
 30
0.0
 10
-14.9161995923
 20
2.8121901798
 30
0.0
 10
-14.9245355417
 20
2.8078741156
 30
0.0
 11
-14.8684122794
 21
2.8773376681
 31
0.0
 11
-14.8720778001
 21
2.8582577378
 31
0.0
 11
-14.8829646526
 21
2.8398803756
 31
0.0
 11
-14.9006959114
 21
2.8228647855
 31
0.0
 11
-14.9245355417
 21
2.8078741156
 31
0.0
  0
SPLINE
  5
422
100
AcDbEntity
  8
RACCORDO
100
AcDbSpline
 62
7
  6
CONTINUOUS
 70
0
 71
3
 72
9
 73
5
 74
3
 42
0.0000001
 43
0.0000001
 44
0.0000000001
 12
-0.0799442417
 22
0.0399316657
 32
0.0
 13
-0.0806054505
 23
-0.0385795418
 33
0.0
 40
0.0
 40
0.0
 40
0.0
 40
0.0
 40
0.4650684741
 40
1.0
 40
1.0
 40
1.0
 40
1.0
 10
-14.979033253
 20
3.0562579897
 30
0.0
 10
-14.9914264351
 20
3.0624483093
 30
0.0
 10
-15.0223267025
 20
3.0678228104
 30
0.0
 10
-15.0515625599
 20
3.0586318627
 30
0.0
 10
-15.0659353587
 20
3.051752725
 30
0.0
 11
-14.979033253
 21
3.0562579897
 31
0.0
 11
-15.0198079225
 21
3.0642969896
 31
0.0
 11
-15.0659353587
 21
3.051752725
 31
0.0
  0
SPLINE
  5
423
100
AcDbEntity
  8
RACCORDO
100
AcDbSpline
 62
7
  6
CONTINUOUS
 70
0
 71
3
 72
9
 73
5
 74
3
 42
0.0000001
 43
0.0000001
 44
0.0000000001
 12
-0.0772254574
 22
0.0305001057
 32
0.0
 13
-0.0748939282
 23
-0.0358458816
 33
0.0
 40
0.0
 40
0.0
 40
0.0
 40
0.0
 40
0.466292465
 40
1.0
 40
1.0
 40
1.0
 40
1.0
 10
-15.3598367205
 20
3.2463394972
 30
0.0
 10
-15.3718399368
 20
3.2510801537
 30
0.0
 10
-15.4005256285
 20
3.2542802248
 30
0.0
 10
-15.4274621455
 20
3.2455550997
 30
0.0
 10
-15.4407859635
 20
3.2391780273
 30
0.0
 11
-15.3598367205
 21
3.2463394972
 31
0.0
 11
-15.3982114599
 21
3.2514716123
 31
0.0
 11
-15.4407859635
 21
3.2391780273
 31
0.0
  0
SPLINE
  5
424
100
AcDbEntity
  8
RACCORDO
100
AcDbSpline
 62
7
  6
CONTINUOUS
 70
0
 71
3
 72
9
 73
5
 74
3
 42
0.0000001
 43
0.0000001
 44
0.0000000001
 12
0.0807359686
 22
0.0373517402
 32
0.0
 13
0.0790092133
 23
-0.0408777855
 33
0.0
 40
0.0
 40
0.0
 40
0.0
 40
0.0
 40
0.4648447593
 40
1.0
 40
1.0
 40
1.0
 40
1.0
 10
-15.5271087891
 20
3.2463344762
 30
0.0
 10
-15.5145988918
 20
3.2521220631
 30
0.0
 10
-15.4836829769
 20
3.2565268988
 30
0.0
 10
-15.4548800283
 20
3.2464700144
 30
0.0
 10
-15.4407859635
 20
3.2391780273
 30
0.0
 11
-15.5271087891
 21
3.2463344762
 31
0.0
 11
-15.4863132609
 21
3.2530922948
 31
0.0
 11
-15.4407859635
 21
3.2391780273
 31
0.0
  0
SPLINE
  5
425
100
AcDbEntity
  8
SMUSSO
100
AcDbSpline
 62
7
  6
CONTINUOUS
 70
0
 71
3
 72
11
 73
7
 74
5
 42
0.0000001
 43
0.0000001
 44
0.0000000001
 12
0.52130581
 22
-0.3908867368
 32
0.0
 13
0.0000000004
 23
-0.6515766943
 33
0.0
 40
0.0
 40
0.0
 40
0.0
 40
0.0
 40
0.2409179742
 40
0.4999903053
 40
0.7590659137
 40
1.0
 40
1.0
 40
1.0
 40
1.0
 10
35.5144003588
 20
25.537586408
 30
0.0
 10
35.5562643387
 20
25.506195861
 30
0.0
 10
35.633840149
 20
25.4283331924
 30
0.0
 10
35.7227025362
 20
25.2881719318
 30
0.0
 10
35.7815258223
 20
25.1329860493
 30
0.0
 10
35.7972807975
 20
25.0242053391
 30
0.0
 10
35.7972807976
 20
24.9718763273
 30
0.0
 11
35.5144003588
 21
25.537586408
 31
0.0
 11
35.6266021319
 21
25.4278030059
 31
0.0
 11
35.7175757373
 21
25.2856091326
 31
0.0
 11
35.77675896
 21
25.1275162434
 31
0.0
 11
35.7972807976
 21
24.9718763273
 31
0.0
  0
SPLINE
  5
426
100
AcDbEntity
  8
DRAFT
100
AcDbSpline
 62
7
  6
CONTINUOUS
 70
0
 71
3
 72
11
 73
7
 74
5
 42
0.0000001
 43
0.0000001
 44
0.0000000001
 12
0.6261254537
 22
0.3305206473
 32
0.0
 13
0.6332626516
 23
-0.3166313253
 33
0.0
 40
0.0
 40
0.0
 40
0.0
 40
0.0
 40
0.2272078653
 40
0.4644899765
 40
0.7204832002
 40
1.0
 40
1.0
 40
1.0
 40
1.0
 10
-31.2112003371
 20
58.7640369581
 30
0.0
 10
-31.1637801279
 20
58.789069255
 30
0.0
 10
-31.0588050651
 20
58.8262801451
 30
0.0
 10
-30.8872463752
 20
58.8369905674
 30
0.0
 10
-30.7063495516
 20
58.804123969
 30
0.0
 10
-30.588337795
 20
58.7566169481
 30
0.0
 10
-30.5293352784
 20
58.7271156898
 30
0.0
 11
-31.2112003371
 21
58.7640369581
 31
0.0
 11
-31.0597353408
 21
58.8182216799
 31
0.0
 11
-30.8921622408
 21
58.8301612763
 31
0.0
 11
-30.7135336854
 21
58.7994727053
 31
0.0
 11
-30.5293352784
 21
58.7271156898
 31
0.0
  0
SPLINE
  5
427
100
AcDbEntity
  8
DRAFT
100
AcDbSpline
 62
7
  6
CONTINUOUS
 70
0
 71
3
 72
9
 73
5
 74
3
 42
0.0000001
 43
0.0000001
 44
0.0000000001
 12
-0.2861881486
 22
-0.1510737108
 32
0.0
 13
-0.1691800093
 23
-0.275871432
 33
0.0
 40
0.0
 40
0.0
 40
0.0
 40
0.0
 40
0.4874587622
 40
1.0
 40
1.0
 40
1.0
 40
1.0
 10
-32.883443936
 20
57.8812437703
 30
0.0
 10
-32.9299455762
 20
57.8566963689
 30
0.0
 10
-33.0183338889
 20
57.792002066
 30
0.0
 10
-33.0855861984
 20
57.7059970939
 30
0.0
 10
-33.1144901088
 20
57.6588652655
 30
0.0
 11
-32.883443936
 21
57.8812437703
 31
0.0
 11
-33.0110946377
 21
57.7885610023
 31
0.0
 11
-33.1144901088
 21
57.6588652655
 31
0.0
  0
SPLINE
  5
428
100
AcDbEntity
  8
DRAFT
100
AcDbSpline
 62
7
  6
CONTINUOUS
 70
0
 71
3
 72
9
 73
5
 74
3
 42
0.0000001
 43
0.0000001
 44
0.0000000001
 12
0.2237904518
 22
-0.1118952259
 32
0.0
 13
0.2001722335
 23
-0.1501125738
 33
0.0
 40
0.0
 40
0.0
 40
0.0
 40
0.0
 40
0.2412686472
 40
1.0
 40
1.0
 40
1.0
 40
1.0
 10
34.7366206258
 20
26.0941377377
 30
0.0
 10
34.754618499
 20
26.0851388011
 30
0.0
 10
34.8282741756
 20
26.0459696211
 30
0.0
 10
34.8981270891
 20
25.9997912919
 30
0.0
 10
34.9487527389
 20
25.9618262532
 30
0.0
 11
34.7366206258
 21
26.0941377377
 31
0.0
 11
34.7899387489
 21
26.0658302045
 31
0.0
 11
34.9487527389
 21
25.9618262532
 31
0.0
  0
SPLINE
  5
429
100
AcDbEntity
  8
DRAFT
100
AcDbSpline
 62
7
  6
CONTINUOUS
 70
0
 71
3
 72
9
 73
5
 74
3
 42
0.0000001
 43
0.0000001
 44
0.0000000001
 12
0.2541397739
 22
0.0018723959
 32
0.0
 13
0.2297645185
 23
0.1086222656
 33
0.0
 40
0.0
 40
0.0
 40
0.0
 40
0.0
 40
0.508306326
 40
1.0
 40
1.0
 40
1.0
 40
1.0
 10
33.4399990587
 20
-57.3487077713
 30
0.0
 10
33.4830593436
 20
-57.3483905211
 30
0.0
 10
33.568005301
 20
-57.3394611976
 30
0.0
 10
33.6490306096
 20
-57.3120349929
 30
0.0
 10
33.6866885296
 20
-57.2942320326
 30
0.0
 11
33.4399990587
 21
-57.3487077713
 31
0.0
 11
33.5684034797
 21
-57.3345337202
 31
0.0
 11
33.6866885296
 21
-57.2942320326
 31
0.0
  0
SPLINE
  5
42A
100
AcDbEntity
  8
DRAFT
100
AcDbSpline
 62
7
  6
CONTINUOUS
 70
0
 71
3
 72
11
 73
7
 74
5
 42
0.0000001
 43
0.0000001
 44
0.0000000001
 12
0.0
 22
-0.9568373101
 32
0.0
 13
-0.8650409023
 23
-0.4089521675
 33
0.0
 40
0.0
 40
0.0
 40
0.0
 40
0.0
 40
0.2901645203
 40
0.5498881111
 40
0.7828101642
 40
1.0
 40
1.0
 40
1.0
 40
1.0
 10
35.7972807976
 20
-55.6693752232
 30
0.0
 10
35.7972807976
 20
-55.7619219695
 30
0.0
 10
35.7821532825
 20
-55.9379995335
 30
0.0
 10
35.7056719967
 20
-56.1783355983
 30
0.0
 10
35.5778734933
 20
-56.3696003713
 30
0.0
 10
35.4588952561
 20
-56.4565063306
 30
0.0
 10
35.3962692256
 20
-56.486113082
 30
0.0
 11
35.7972807976
 21
-55.6693752232
 31
0.0
 11
35.7705686735
 21
-55.9457274709
 31
0.0
 11
35.6917790981
 21
-56.1814201189
 31
0.0
 11
35.5648813766
 21
-56.3646340413
 31
0.0
 11
35.3962692256
 21
-56.486113082
 31
0.0
  0
SPLINE
  5
42B
100
AcDbEntity
  8
DRAFT
100
AcDbSpline
 62
7
  6
CONTINUOUS
 70
0
 71
3
 72
11
 73
7
 74
5
 42
0.0000001
 43
0.0000001
 44
0.0000000001
 12
1.5637395331
 22
-1.1726749604
 32
0.0
 13
0.0000000011
 23
-1.9545966055
 33
0.0
 40
0.0
 40
0.0
 40
0.0
 40
0.0
 40
0.240927358
 40
0.4999984701
 40
0.7590654389
 40
1.0
 40
1.0
 40
1.0
 40
1.0
 10
34.9487527389
 20
25.9618262532
 30
0.0
 10
35.0743352837
 20
25.8676497599
 30
0.0
 10
35.3070207659
 20
25.6340438393
 30
0.0
 10
35.5735764835
 20
25.2135845872
 30
0.0
 10
35.7500234041
 20
24.7480606569
 30
0.0
 10
35.7972807975
 20
24.4217461721
 30
0.0
 10
35.7972807976
 20
24.264769547
 30
0.0
 11
34.9487527389
 21
25.9618262532
 31
0.0
 11
35.2853183319
 21
25.632455203
 31
0.0
 11
35.5582003402
 21
25.2058926355
 31
0.0
 11
35.7357229907
 21
24.7316588099
 31
0.0
 11
35.7972807976
 21
24.264769547
 31
0.0
  0
SPLINE
  5
42C
100
AcDbEntity
  8
DRAFT
100
AcDbSpline
 62
7
  6
CONTINUOUS
 70
0
 71
3
 72
11
 73
7
 74
5
 42
0.0000001
 43
0.0000001
 44
0.0000000001
 12
0.8409650016
 22
0.3975701921
 32
0.0
 13
-0.0000000024
 23
0.9302065317
 33
0.0
 40
0.0
 40
0.0
 40
0.0
 40
0.0
 40
0.2171898357
 40
0.4501118901
 40
0.7098354804
 40
1.0
 40
1.0
 40
1.0
 40
1.0
 10
33.6866885296
 20
-57.2942320326
 30
0.0
 10
33.7475715465
 20
-57.2654492977
 30
0.0
 10
33.8632383699
 20
-57.1809621103
 30
0.0
 10
33.9874799717
 20
-56.9950206331
 30
0.0
 10
34.0618326223
 20
-56.761373622
 30
0.0
 10
34.0765391063
 20
-56.5901966643
 30
0.0
 10
34.0765391061
 20
-56.5002256871
 30
0.0
 11
33.6866885296
 21
-57.2942320326
 31
0.0
 11
33.8506078506
 21
-57.1761340042
 31
0.0
 11
33.9739737421
 21
-56.9980193048
 31
0.0
 11
34.0505704374
 21
-56.7688864747
 31
0.0
 11
34.0765391061
 21
-56.5002256871
 31
0.0
  0
SPLINE
  5
42D
100
AcDbEntity
  8
DRAFT
100
AcDbSpline
 62
7
  6
CONTINUOUS
 70
0
 71
3
 72
11
 73
7
 74
5
 42
0.0000001
 43
0.0000001
 44
0.0000000001
 12
-0.6156376434
 22
0.3078188217
 32
0.0
 13
-0.6086990836
 23
-0.3213215844
 33
0.0
 40
0.0
 40
0.0
 40
0.0
 40
0.0
 40
0.2795167998
 40
0.5355100222
 40
0.7727921339
 40
1.0
 40
1.0
 40
1.0
 40
1.0
 10
-32.2205565914
 20
57.8453501013
 30
0.0
 10
-32.277916946
 20
57.8740302786
 30
0.0
 10
-32.3926441913
 20
57.9202150808
 30
0.0
 10
-32.5685062825
 20
57.9521669335
 30
0.0
 10
-32.7352901396
 20
57.9417546029
 30
0.0
 10
-32.8373435294
 20
57.9055793674
 30
0.0
 10
-32.883443936
 20
57.8812437703
 30
0.0
 11
-32.2205565914
 21
57.8453501013
 31
0.0
 11
-32.3996283762
 21
57.9156932715
 31
0.0
 11
-32.5732853289
 21
57.9455277154
 31
0.0
 11
-32.7361945236
 21
57.9339204214
 31
0.0
 11
-32.883443936
 21
57.8812437703
 31
0.0
  0
SPLINE
  5
42E
100
AcDbEntity
  8
DRAFT
100
AcDbSpline
 62
7
  6
CONTINUOUS
 70
0
 71
3
 72
12
 73
8
 74
6
 42
0.0000001
 43
0.0000001
 44
0.0000000001
 12
0.0
 22
2.1421561453
 32
0.0
 13
-1.9160027067
 23
0.958001346
 33
0.0
 40
0.0
 40
0.0
 40
0.0
 40
0.0
 40
0.2466637095
 40
0.5115168861
 40
0.6433278455
 40
0.7704448343
 40
1.0
 40
1.0
 40
1.0
 40
1.0
 10
34.0765391061
 20
23.4339190782
 30
0.0
 10
34.0765391061
 20
23.6100498053
 30
0.0
 10
34.0157347329
 20
23.9758608299
 30
0.0
 10
33.8319091661
 20
24.4013017161
 30
0.0
 10
33.6248774301
 20
24.7140235698
 30
0.0
 10
33.3972022694
 20
24.9785647552
 30
0.0
 10
33.1920087486
 20
25.1390674319
 30
0.0
 10
33.045399309
 20
25.2123721511
 30
0.0
 11
34.0765391061
 21
23.4339190782
 31
0.0
 11
33.9980482631
 21
23.9564489669
 31
0.0
 11
33.7745252517
 21
24.4779192632
 31
0.0
 11
33.6182698858
 21
24.7131026733
 31
0.0
 11
33.4399994243
 21
24.9189408376
 31
0.0
 11
33.045399309
 21
25.2123721511
 31
0.0
  0
SPLINE
  5
42F
100
AcDbEntity
  8
SMUSSO
100
AcDbSpline
 62
7
  6
CONTINUOUS
 70
0
 71
3
 72
11
 73
7
 74
5
 42
0.0000001
 43
0.0000001
 44
0.0000000001
 12
-0.0
 22
-0.6297202295
 32
0.0
 13
-0.5632353698
 23
-0.2816265002
 33
0.0
 40
0.0
 40
0.0
 40
0.0
 40
0.0
 40
0.2897540709
 40
0.5495824753
 40
0.7828479151
 40
1.0
 40
1.0
 40
1.0
 40
1.0
 10
33.4284730806
 20
-57.3654483943
 30
0.0
 10
33.4284730806
 20
-57.4262697276
 30
0.0
 10
33.418660861
 20
-57.5420702957
 30
0.0
 10
33.3691591167
 20
-57.7004445849
 30
0.0
 10
33.2864995411
 20
-57.827243551
 30
0.0
 10
33.2093475858
 20
-57.8859338132
 30
0.0
 10
33.1685783409
 20
-57.9063190738
 30
0.0
 11
33.4284730806
 21
-57.3654483943
 31
0.0
 11
33.4111942171
 21
-57.5470924203
 31
0.0
 11
33.360202729
 21
-57.7025630334
 31
0.0
 11
33.2779910439
 21
-57.824294248
 31
0.0
 11
33.1685783409
 21
-57.9063190738
 31
0.0
  0
SPLINE
  5
430
100
AcDbEntity
  8
SMUSSO
100
AcDbSpline
 62
7
  6
CONTINUOUS
 70
0
 71
3
 72
11
 73
7
 74
5
 42
0.0000001
 43
0.0000001
 44
0.0000000001
 12
0.5208895805
 22
-0.3908986803
 32
0.0
 13
0.0000000008
 23
-0.6512508989
 33
0.0
 40
0.0
 40
0.0
 40
0.0
 40
0.0
 40
0.2409853204
 40
0.5000557388
 40
0.7590735577
 40
1.0
 40
1.0
 40
1.0
 40
1.0
 10
33.1458523346
 20
24.4403888825
 30
0.0
 10
33.1876945821
 20
24.4089886013
 30
0.0
 10
33.2651983204
 20
24.3311106583
 30
0.0
 10
33.3539705602
 20
24.1909931303
 30
0.0
 10
33.4127383732
 20
24.0358915641
 30
0.0
 10
33.4284730805
 20
23.9271788986
 30
0.0
 10
33.4284730806
 20
23.8748777113
 30
0.0
 11
33.1458523346
 21
24.4403888825
 31
0.0
 11
33.2579772965
 21
24.3305765201
 31
0.0
 11
33.3488567418
 21
24.1884240955
 31
0.0
 11
33.4079723713
 21
24.0304362171
 31
0.0
 11
33.4284730806
 21
23.8748777113
 31
0.0
  0
SPLINE
  5
431
100
AcDbEntity
  8
SMUSSO
100
AcDbSpline
 62
7
  6
CONTINUOUS
 70
0
 71
3
 72
9
 73
5
 74
3
 42
0.0000001
 43
0.0000001
 44
0.0000000001
 12
0.1334366996
 22
-0.1000666714
 32
0.0
 13
0.1491809413
 23
-0.0745904704
 33
0.0
 40
0.0
 40
0.0
 40
0.0
 40
0.0
 40
0.25874722
 40
1.0
 40
1.0
 40
1.0
 40
1.0
 10
-35.2315810634
 20
-25.6517023641
 30
0.0
 10
-35.2200722717
 20
-25.6603330218
 30
0.0
 10
-35.1749229562
 20
-25.6927744251
 30
0.0
 10
-35.1270342789
 20
-25.7214870699
 30
0.0
 10
-35.0901740164
 20
-25.7399172011
 30
0.0
 11
-35.2315810634
 21
-25.6517023641
 31
0.0
 11
-35.1965243513
 21
-25.6768716268
 31
0.0
 11
-35.0901740164
 21
-25.7399172011
 31
0.0
  0
SPLINE
  5
432
100
AcDbEntity
  8
SMUSSO
100
AcDbSpline
 62
7
  6
CONTINUOUS
 70
0
 71
3
 72
11
 73
7
 74
5
 42
0.0000001
 43
0.0000001
 44
0.0000000001
 12
0.4148284719
 22
0.2074207285
 32
0.0
 13
0.4148310692
 23
-0.2074155339
 33
0.0
 40
0.0
 40
0.0
 40
0.0
 40
0.0
 40
0.2271155755
 40
0.4646632397
 40
0.7207939733
 40
1.0
 40
1.0
 40
1.0
 40
1.0
 10
-33.7696191049
 20
57.7911884643
 30
0.0
 10
-33.7382144359
 20
57.8068912903
 30
0.0
 10
-33.6690095074
 20
57.8299152311
 30
0.0
 10
-33.5565654306
 20
57.8355507592
 30
0.0
 10
-33.4382296875
 20
57.8133076396
 30
0.0
 10
-33.3610148416
 20
57.7820936855
 30
0.0
 10
-33.3224070634
 20
57.7627897965
 30
0.0
 11
-33.7696191049
 21
57.7911884643
 31
0.0
 11
-33.6697789841
 21
57.8247658097
 31
0.0
 11
-33.5597948524
 21
57.8312222243
 31
0.0
 11
-33.4428500974
 21
57.8103532443
 31
0.0
 11
-33.3224070634
 21
57.7627897965
 31
0.0
  0
SPLINE
  5
433
100
AcDbEntity
  8
SMUSSO
100
AcDbSpline
 62
7
  6
CONTINUOUS
 70
0
 71
3
 72
11
 73
7
 74
5
 42
0.0000001
 43
0.0000001
 44
0.0000000001
 12
-0.5632352949
 22
-0.2816264538
 32
0.0
 13
0.0000000009
 23
-0.6297201417
 33
0.0
 40
0.0
 40
0.0
 40
0.0
 40
0.0
 40
0.2171543923
 40
0.4504253532
 40
0.7102327043
 40
1.0
 40
1.0
 40
1.0
 40
1.0
 10
-35.5373840771
 20
56.9073059781
 30
0.0
 10
-35.5781537498
 20
56.8869205043
 30
0.0
 10
-35.6553051622
 20
56.8282286932
 30
0.0
 10
-35.7379732858
 20
56.7014359568
 30
0.0
 10
-35.7874446186
 20
56.5430536505
 30
0.0
 10
-35.7972807977
 20
56.4272584076
 30
0.0
 10
-35.7972807976
 20
56.3664343068
 30
0.0
 11
-35.5373840771
 21
56.9073059781
 31
0.0
 11
-35.6467980844
 21
56.8252805015
 31
0.0
 11
-35.7290133177
 21
56.7035475126
 31
0.0
 11
-35.7799879236
 21
56.5480853395
 31
0.0
 11
-35.7972807976
 21
56.3664343068
 31
0.0
  0
SPLINE
  5
434
100
AcDbEntity
  8
SMUSSO
100
AcDbSpline
 62
7
  6
CONTINUOUS
 70
0
 71
3
 72
11
 73
7
 74
5
 42
0.0000001
 43
0.0000001
 44
0.0000000001
 12
0.4148303484
 22
-0.2074151701
 32
0.0
 13
0.4148277522
 23
0.2074203624
 33
0.0
 40
0.0
 40
0.0
 40
0.0
 40
0.0
 40
0.2792326666
 40
0.5353412033
 40
0.7728780043
 40
1.0
 40
1.0
 40
1.0
 40
1.0
 10
30.9535993464
 20
-58.7618038825
 30
0.0
 10
30.9922107412
 20
-58.7811095795
 30
0.0
 10
31.0694336754
 20
-58.8123031678
 30
0.0
 10
31.1877629694
 20
-58.8345654599
 30
0.0
 10
31.3002042428
 20
-58.8289289831
 30
0.0
 10
31.3694078572
 20
-58.8059048067
 30
0.0
 10
31.4008133595
 20
-58.7902015644
 30
0.0
 11
30.9535993464
 21
-58.7618038825
 31
0.0
 11
31.0740586307
 21
-58.8093592034
 31
0.0
 11
31.1909916727
 21
-58.83023404
 31
0.0
 11
31.3009707147
 21
-58.8237801709
 31
0.0
 11
31.4008133595
 21
-58.7902015644
 31
0.0
  0
SPLINE
  5
435
100
AcDbEntity
  8
SMUSSO
100
AcDbSpline
 62
7
  6
CONTINUOUS
 70
0
 71
3
 72
9
 73
5
 74
3
 42
0.0000001
 43
0.0000001
 44
0.0000000001
 12
0.1491936351
 22
-0.0745968173
 32
0.0
 13
0.1334481561
 23
-0.1000750495
 33
0.0
 40
0.0
 40
0.0
 40
0.0
 40
0.0
 40
0.2412686469
 40
1.0
 40
1.0
 40
1.0
 40
1.0
 10
32.7213662994
 20
24.740903115
 30
0.0
 10
32.7333648816
 20
24.734903824
 30
0.0
 10
32.7824686661
 20
24.7087910372
 30
0.0
 10
32.8290372752
 20
24.6780054843
 30
0.0
 10
32.8627877086
 20
24.6526954584
 30
0.0
 11
32.7213662994
 21
24.740903115
 31
0.0
 11
32.7569117149
 21
24.7220314262
 31
0.0
 11
32.8627877086
 21
24.6526954584
 31
0.0
  0
SPLINE
  5
436
100
AcDbEntity
  8
SMUSSO
100
AcDbSpline
 62
7
  6
CONTINUOUS
 70
0
 71
3
 72
11
 73
7
 74
5
 42
0.0000001
 43
0.0000001
 44
0.0000000001
 12
1.042493022
 22
-0.7817833071
 32
0.0
 13
0.0000000016
 23
-1.3030644037
 33
0.0
 40
0.0
 40
0.0
 40
0.0
 40
0.0
 40
0.2409273588
 40
0.4999984715
 40
0.7590654407
 40
1.0
 40
1.0
 40
1.0
 40
1.0
 10
32.8627877086
 20
24.6526954584
 30
0.0
 10
32.9465094053
 20
24.5899111293
 30
0.0
 10
33.1016330604
 20
24.4341738483
 30
0.0
 10
33.2793368722
 20
24.1538676794
 30
0.0
 10
33.3969681524
 20
23.8435183926
 30
0.0
 10
33.4284730805
 20
23.6259754033
 30
0.0
 10
33.4284730806
 20
23.5213243207
 30
0.0
 11
32.8627877086
 21
24.6526954584
 31
0.0
 11
33.0871647711
 21
24.4331147574
 31
0.0
 11
33.2690861101
 21
24.1487397115
 31
0.0
 11
33.3874345435
 21
23.832583827
 31
0.0
 11
33.4284730806
 21
23.5213243207
 31
0.0
  0
SPLINE
  5
437
100
AcDbEntity
  8
SMUSSO
100
AcDbSpline
 62
7
  6
CONTINUOUS
 70
0
 71
3
 72
11
 73
7
 74
5
 42
0.0000001
 43
0.0000001
 44
0.0000000001
 12
0.5632354652
 22
0.2816265395
 32
0.0
 13
0.0000000009
 23
0.6297203324
 33
0.0
 40
0.0
 40
0.0
 40
0.0
 40
0.0
 40
0.217149778
 40
0.4504096968
 40
0.7102591545
 40
1.0
 40
1.0
 40
1.0
 40
1.0
 10
31.4008133595
 20
-58.7902015644
 30
0.0
 10
31.4415821782
 20
-58.7698165176
 30
0.0
 10
31.5187346798
 20
-58.7111278047
 30
0.0
 10
31.6013857111
 20
-58.584322606
 30
0.0
 10
31.6509178679
 20
-58.4259563311
 30
0.0
 10
31.6607061275
 20
-58.3101504365
 30
0.0
 10
31.6607061276
 20
-58.2493318693
 30
0.0
 11
31.4008133595
 21
-58.7902015644
 31
0.0
 11
31.510224763
 21
-58.7081773898
 31
0.0
 11
31.5924329031
 21
-58.5864479474
 31
0.0
 11
31.6434412745
 21
-58.4309688916
 31
0.0
 11
31.6607061276
 21
-58.2493318693
 31
0.0
  0
SPLINE
  5
438
100
AcDbEntity
  8
SMUSSO
100
AcDbSpline
 62
7
  6
CONTINUOUS
 70
0
 71
3
 72
11
 73
7
 74
5
 42
0.0000001
 43
0.0000001
 44
0.0000000001
 12
0.000000012
 22
1.468218527
 32
0.0
 13
-1.3132145719
 23
0.6566072883
 33
0.0
 40
0.0
 40
0.0
 40
0.0
 40
0.0
 40
0.2467930798
 40
0.5117852959
 40
0.7703247676
 40
1.0
 40
1.0
 40
1.0
 40
1.0
 10
31.6607061276
 20
22.6374408442
 30
0.0
 10
31.6607061286
 20
22.7582229015
 30
0.0
 10
31.6190239795
 20
23.0091240306
 30
0.0
 10
31.4680876994
 20
23.3580656643
 30
0.0
 10
31.2462475172
 20
23.6564528645
 30
0.0
 10
31.0541369671
 20
23.8067508281
 30
0.0
 10
30.9535993464
 20
23.8570196386
 30
0.0
 11
31.6607061276
 21
22.6374408442
 31
0.0
 11
31.6068804483
 21
22.9957668754
 31
0.0
 11
31.4535996915
 21
23.3533668425
 31
0.0
 11
31.2241961875
 21
23.6557977513
 31
0.0
 11
30.9535993464
 21
23.8570196386
 31
0.0
  0
SPLINE
  5
439
100
AcDbEntity
  8
SMUSSO
100
AcDbSpline
 62
7
  6
CONTINUOUS
 70
0
 71
3
 72
11
 73
7
 74
5
 42
0.0000001
 43
0.0000001
 44
0.0000000001
 12
-0.4148317821
 22
0.2074158952
 32
0.0
 13
-0.4148291893
 23
-0.2074210806
 33
0.0
 40
0.0
 40
0.0
 40
0.0
 40
0.0
 40
0.2791793841
 40
0.5353323198
 40
0.7728908473
 40
1.0
 40
1.0
 40
1.0
 40
1.0
 10
-35.0901740164
 20
56.87890632
 30
0.0
 10
-35.1287781769
 20
56.8982084006
 30
0.0
 10
-35.205984931
 20
56.929442721
 30
0.0
 10
-35.3243271222
 20
56.9516666663
 30
0.0
 10
-35.4367740006
 20
56.9460320904
 30
0.0
 10
-35.5059802419
 20
56.9230083867
 30
0.0
 10
-35.5373840771
 20
56.9073059781
 30
0.0
 11
-35.0901740164
 21
56.87890632
 31
0.0
 11
-35.2106007953
 21
56.9264778936
 31
0.0
 11
-35.3275572629
 21
56.9473410174
 31
0.0
 11
-35.4375464825
 21
56.9408820595
 31
0.0
 11
-35.5373840771
 21
56.9073059781
 31
0.0
  0
ELLIPSE
  5
43A
100
AcDbEntity
  8
RACCORDO
100
AcDbEllipse
 62
7
  6
CONTINUOUS
 10
-20.6007598449
 20
29.7523148407
 30
0.0
 11
-0.313181275
 21
0.626269159
 31
0.0
 40
0.6121897086
 41
-0.6846338794
 42
0.019259411
  0
ELLIPSE
  5
43B
100
AcDbEntity
  8
RACCORDO
100
AcDbEllipse
 62
7
  6
CONTINUOUS
 10
15.0499716125
 20
-32.3423191844
 30
0.0
 11
-0.313181275
 21
0.626269159
 31
0.0
 40
0.6121897086
 41
-3.160544254
 42
-2.2557347926
  0
ELLIPSE
  5
43C
100
AcDbEntity
  8
RACCORDO
100
AcDbEllipse
 62
7
  6
CONTINUOUS
 10
15.0499716125
 20
11.926949112
 30
0.0
 11
-0.3130130858
 21
0.6261196575
 31
0.0
 40
0.6125552124
 41
-2.255296188
 42
-0.6848044477
  0
ELLIPSE
  5
43D
100
AcDbEntity
  8
RACCORDO
100
AcDbEllipse
 62
7
  6
CONTINUOUS
 10
-16.4982325616
 20
-11.6819594848
 30
0.0
 11
-0.1340229113
 21
0.2684080287
 31
0.0
 40
0.6140178746
 41
0.8880524522
 42
2.4561097232
  0
ELLIPSE
  5
43E
100
AcDbEntity
  8
RACCORDO
100
AcDbEllipse
 62
7
  6
CONTINUOUS
 10
-17.5123668929
 20
-12.1706242753
 30
0.0
 11
-0.1341484654
 21
0.2683369961
 31
0.0
 40
0.6125552124
 41
0.8862964655
 42
2.4567882058
  0
ELLIPSE
  5
43F
100
AcDbEntity
  8
RACCORDO
100
AcDbEllipse
 62
7
  6
CONTINUOUS
 10
10.5889240483
 20
-24.9966473142
 30
0.0
 11
-0.1341371037
 21
0.2683722998
 31
0.0
 40
0.6123537661
 41
-0.6845550499
 42
0.0106825902
  0
ELLIPSE
  5
440
100
AcDbEntity
  8
RACCORDO
100
AcDbEllipse
 62
7
  6
CONTINUOUS
 10
-5.3209785284
 20
-17.0416960259
 30
0.0
 11
-0.1341371037
 21
0.2683722998
 31
0.0
 40
0.6123537661
 41
-0.6845550499
 42
0.0106825902
  0
ELLIPSE
  5
441
100
AcDbEntity
  8
RACCORDO
100
AcDbEllipse
 62
7
  6
CONTINUOUS
 10
-16.1397445942
 20
-11.0260556343
 30
0.0
 11
-0.1342114942
 21
0.268324886
 31
0.0
 40
0.6123910759
 41
-2.2556797026
 42
-0.6848833758
  0
ELLIPSE
  5
442
100
AcDbEntity
  8
RACCORDO
100
AcDbEllipse
 62
7
  6
CONTINUOUS
 10
-16.1397445942
 20
2.4839802407
 30
0.0
 11
-0.1342205464
 21
0.2684010681
 31
0.0
 40
0.6121897086
 41
-3.160544254
 42
-2.2557347926
  0
ELLIPSE
  5
443
100
AcDbEntity
  8
RACCORDO
100
AcDbEllipse
 62
7
  6
CONTINUOUS
 10
-16.1397445942
 20
14.0886414994
 30
0.0
 11
-0.1341484654
 21
0.2683369961
 31
0.0
 40
0.6125552124
 41
-2.255296188
 42
-0.6848044477
  0
ELLIPSE
  5
444
100
AcDbEntity
  8
RACCORDO
100
AcDbEllipse
 62
7
  6
CONTINUOUS
 10
5.5684659018
 20
-22.486418241
 30
0.0
 11
-0.1341371037
 21
0.2683722998
 31
0.0
 40
0.6123537661
 41
-2.2553513767
 42
-0.6845550499
  0
ELLIPSE
  5
445
100
AcDbEntity
  8
RACCORDO
100
AcDbEllipse
 62
7
  6
CONTINUOUS
 10
-10.3414366749
 20
-14.5314669527
 30
0.0
 11
-0.1341371037
 21
0.2683722998
 31
0.0
 40
0.6123537661
 41
-2.2553513767
 42
-0.6845550499
  0
ELLIPSE
  5
446
100
AcDbEntity
  8
ASSI
100
AcDbEllipse
 62
7
  6
CONTINUOUS
 10
9.6976289926
 20
-22.8817552392
 30
0.0
 11
0.0974129977
 21
0.1748074534
 31
0.0
 40
0.6437101552
 41
0.6611775963
 42
0.7135374739
  0
ELLIPSE
  5
447
100
AcDbEntity
  8
ASSI
100
AcDbEllipse
 62
7
  6
CONTINUOUS
 10
-6.2122735841
 20
-14.9268039508
 30
0.0
 11
0.0974129977
 21
0.1748074534
 31
0.0
 40
0.6437101552
 41
0.6611775963
 42
0.7135374739
  0
ELLIPSE
  5
448
100
AcDbEntity
  8
RACCORDO
100
AcDbEllipse
 62
7
  6
CONTINUOUS
 10
-16.2116895318
 20
20.6357359349
 30
0.0
 11
-0.1342114942
 21
0.268324886
 31
0.0
 40
0.6123910759
 41
-3.1500217516
 42
-2.2556797026
  0
ELLIPSE
  5
449
100
AcDbEntity
  8
RACCORDO
100
AcDbEllipse
 62
7
  6
CONTINUOUS
 10
-16.2116895318
 20
-9.6751531976
 30
0.0
 11
-0.1342114942
 21
0.268324886
 31
0.0
 40
0.6123910759
 41
-3.1500217506
 42
-2.2556797026
  0
ELLIPSE
  5
44A
100
AcDbEntity
  8
RACCORDO
100
AcDbEllipse
 62
7
  6
CONTINUOUS
 10
-16.2116895318
 20
-4.1325906134
 30
0.0
 11
-0.1342114942
 21
0.268324886
 31
0.0
 40
0.6123910759
 41
-2.2556797026
 42
-0.6848833758
  0
ELLIPSE
  5
44B
100
AcDbEntity
  8
ASSI
100
AcDbEllipse
 62
7
  6
CONTINUOUS
 10
-2.0964251738
 20
-17.4969288733
 30
0.0
 11
0.1997674032
 21
0.1243735635
 31
0.0
 40
0.0775313764
 41
5.4495541764
 42
6.9679906257
  0
ELLIPSE
  5
44C
100
AcDbEntity
  8
RACCORDO
100
AcDbEllipse
 62
7
  6
CONTINUOUS
 10
-17.1469737206
 20
20.1841392137
 30
0.0
 11
-0.1342114942
 21
0.268324886
 31
0.0
 40
0.6123910759
 41
2.4567092778
 42
4.0275056046
  0
ELLIPSE
  5
44D
100
AcDbEntity
  8
RACCORDO
100
AcDbEllipse
 62
7
  6
CONTINUOUS
 10
-17.1469737206
 20
-10.1267499188
 30
0.0
 11
-0.1342114942
 21
0.268324886
 31
0.0
 40
0.6123910759
 41
2.4567092778
 42
4.0275056046
  0
ELLIPSE
  5
44E
100
AcDbEntity
  8
RACCORDO
100
AcDbEllipse
 62
7
  6
CONTINUOUS
 10
-16.715304095
 20
13.7986426011
 30
0.0
 11
-0.1341484654
 21
0.2683369961
 31
0.0
 40
0.6125552124
 41
-2.255296188
 42
-0.7064273196
  0
ELLIPSE
  5
44F
100
AcDbEntity
  8
RACCORDO
100
AcDbEllipse
 62
7
  6
CONTINUOUS
 10
10.0232386233
 20
-25.2915832504
 30
0.0
 11
-0.1341371037
 21
0.2683722998
 31
0.0
 40
0.6123537661
 41
-0.6845550499
 42
0.5377482072
  0
ELLIPSE
  5
450
100
AcDbEntity
  8
ASSI
100
AcDbEllipse
 62
7
  6
CONTINUOUS
 10
-1.9548097386
 20
-17.0555358736
 30
0.0
 11
0.0823576675
 21
0.1823694112
 31
0.0
 40
0.5796795686
 41
0.6094740628
 42
0.6618339404
  0
ELLIPSE
  5
451
100
AcDbEntity
  8
RACCORDO
100
AcDbEllipse
 62
7
  6
CONTINUOUS
 10
-16.715304095
 20
-11.3039613089
 30
0.0
 11
-0.1342114942
 21
0.268324886
 31
0.0
 40
0.6123910759
 41
-2.2556797026
 42
-0.7068112211
  0
ELLIPSE
  5
452
100
AcDbEntity
  8
RACCORDO
100
AcDbEllipse
 62
7
  6
CONTINUOUS
 10
-10.9071220998
 20
-14.8264028889
 30
0.0
 11
-0.1341371037
 21
0.2683722998
 31
0.0
 40
0.6123537661
 41
-1.9068583071
 42
-0.6845550499
  0
ELLIPSE
  5
453
100
AcDbEntity
  8
RACCORDO
100
AcDbEllipse
 62
7
  6
CONTINUOUS
 10
-5.8866639534
 20
-17.3366319621
 30
0.0
 11
-0.1341371037
 21
0.2683722998
 31
0.0
 40
0.6123537661
 41
-0.6845550499
 42
0.5377482072
  0
ELLIPSE
  5
454
100
AcDbEntity
  8
RACCORDO
100
AcDbEllipse
 62
7
  6
CONTINUOUS
 10
5.0027804769
 20
-22.7813541772
 30
0.0
 11
-0.1341371037
 21
0.2683722998
 31
0.0
 40
0.6123537661
 41
-1.9068583071
 42
-0.6845550499
  0
ELLIPSE
  5
455
100
AcDbEntity
  8
RACCORDO
100
AcDbEllipse
 62
7
  6
CONTINUOUS
 10
-17.1469737206
 20
-4.5841873345
 30
0.0
 11
-0.1342114942
 21
0.268324886
 31
0.0
 40
0.6123910759
 41
-2.2556797026
 42
-0.6848833758
  0
ELLIPSE
  5
456
100
AcDbEntity
  8
RACCORDO
100
AcDbEllipse
 62
7
  6
CONTINUOUS
 10
-16.715304095
 20
2.2181677899
 30
0.0
 11
-0.1342205464
 21
0.2684010681
 31
0.0
 40
0.6121897086
 41
2.4785816461
 42
4.0274505145
  0
ENDSEC
  0
SECTION
  2
OBJECTS
  0
DICTIONARY
  5
C
100
AcDbDictionary
280
0
281
1
  3
ACAD_GROUP
350
D
  3
ACAD_MLINESTYLE
350
17
  3
ACAD_LAYOUT
350
1A
  3
ACAD_PLOTSETTINGS
350
19
  3
ACAD_PLOTSTYLENAME
350
E
  0
DICTIONARY
  5
D
102
{ACAD_REACTORS
330
C
102
}
100
AcDbDictionary
280
0
281
1
  0
ACDBDICTIONARYWDFLT
  5
E
102
{ACAD_REACTORS
330
C
102
}
100
AcDbDictionary
281
1
  3
Normal
350
F
100
AcDbDictionaryWithDefault
340
F
  0
DICTIONARY
  5
17
102
{ACAD_REACTORS
330
C
102
}
100
AcDbDictionary
280
0
281
1
  3
Standard
350
18
  0
DICTIONARY
  5
19
102
{ACAD_REACTORS
330
C
102
}
100
AcDbDictionary
281
1
  0
DICTIONARY
  5
1A
102
{ACAD_REACTORS
330
C
102
}
100
AcDbDictionary
281
1
  3
Model
350
457
  3
Layout1
350
458
  0
ACDBPLACEHOLDER
  5
F
102
{ACAD_REACTORS
330
E
102
}
  0
MLINESTYLE
  5
18
102
{ACAD_REACTORS
330
17
102
}
100
AcDbMlineStyle
  2
STANDARD
 70
0
  3

 62
256
 51
90.0
 52
90.0
 71
2
 49
0.5
 62
256
  6
BYLAYER
 49
-0.5
 62
256
  6
BYLAYER
  0
LAYOUT
  5
457
102
{ACAD_REACTORS
330
1A
102
}
100
AcDbPlotSettings
  1

  2
none_device
  4
ISO_A4_(297.00_x_210.00_MM)
  6

 40
0.0
 41
0.0
 42
0.0
 43
0.0
 44
297.0
 45
210.0
 46
0.0
 47
0.0
 48
0.0
 49
0.0
140
0.0
141
0.0
142
1.0
143
1.0
 70
1024
 72
1
 73
0
 74
0
  7

 75
0
147
1.0
148
0.0
149
0.0
100
AcDbLayout
  1
Model
 70
0
 71
0
 10
0.0
 20
0.0
 11
297.0
 21
210.0
 12
0.0
 22
0.0
 32
0.0
 14
0.0
 24
0.0
 34
0.0
 15
0.0
 25
0.0
 35
0.0
146
0.0
 13
0.0
 23
0.0
 33
0.0
 16
1.0
 26
0.0
 36
0.0
 17
0.0
 27
1.0
 37
0.0
 76
0
330
212
345
0
346
0
  0
LAYOUT
  5
458
102
{ACAD_REACTORS
330
1A
102
}
100
AcDbPlotSettings
  1

  2
none_device
  4
ISO_A4_(297.00_x_210.00_MM)
  6

 40
0.0
 41
0.0
 42
0.0
 43
0.0
 44
297.0
 45
210.0
 46
0.0
 47
0.0
 48
0.0
 49
0.0
140
0.0
141
0.0
142
1.0
143
1.0
 70
0
 72
1
 73
0
 74
0
  7

 75
0
147
1.0
148
0.0
149
0.0
100
AcDbLayout
  1
Layout1
 70
0
 71
1
 10
0.0
 20
0.0
 11
297.0
 21
210.0
 12
0.0
 22
0.0
 32
0.0
 14
0.0
 24
0.0
 34
0.0
 15
0.0
 25
0.0
 35
0.0
146
0.0
 13
0.0
 23
0.0
 33
0.0
 16
1.0
 26
0.0
 36
0.0
 17
0.0
 27
1.0
 37
0.0
 76
0
330
213
345
0
346
0
  0
ENDSEC
  0
EOF
