  0
SECTION
  2
HEADER
  9
$ACADVER
  1
AC1015
  9
$DWGCODEPAGE
  3
ANSI_1252
  9
$EXTMAX
 10
297.0
 20
210.0
 30
0.0
  9
$EXTMIN
 10
0.0
 20
0.0
 30
0.0
  9
$LIMMIN
 10
0.0
 20
0.0
  9
$LIMMAX
 10
297.0
 20
210.0
  9
$VIEWCTR
 10
148.5
 20
105.0
  9
$VIEWSIZE
 40
210.0
  9
$CLAYER
  8
0
  9
$LTSCALE
 40
16.335
  9
$CELTYPE
  6
BYLAYER
  9
$DIMSCALE
 40
1.0
  9
$DIMASZ
 40
3.0
  9
$DIMEXO
 40
1.85625
  9
$DIMDLI
 40
11.286
  9
$DIMEXE
 40
5.346
  9
$DIMCEN
 40
2.673
  9
$DIMLFAC
 40
1.0
  9
$DIMBLK
  1
_FILLED
  9
$DIMTXT
 40
3.0
  9
$DIMTOL
 70
1
  9
$DIMLIM
 70
0
  9
$DIMTFAC
 40
1.0
  9
$DIMTP
 40
0.01
  9
$DIMTM
 40
0.01
  9
$PDMODE
 70
3
  9
$PDSIZE
 40
3.0
  9
$HANDSEED
  5
457
  9
$TILEMODE
 70
1
  9
$MEASUREMENT
 70
1
  9
$INSUNITS
 70
4
  0
ENDSEC
  0
SECTION
  2
CLASSES
  0
CLASS
  1
ACDBDICTIONARYWDFLT
  2
AcDbDictionaryWithDefault
  3
AutoCAD 2000
 90
0
280
0
281
0
  0
CLASS
  1
ACDBPLACEHOLDER
  2
AcDbPlaceHolder
  3
AutoCAD 2000
 90
0
280
0
281
0
  0
CLASS
  1
LAYOUT
  2
AcDbLayout
  3
AutoCAD 2000
 90
0
280
0
281
0
  0
ENDSEC
  0
SECTION
  2
TABLES
  0
TABLE
  2
VPORT
  5
8
100
AcDbSymbolTable
 70
2
  0
VPORT
  5
1F4
100
AcDbSymbolTableRecord
100
AcDbViewportTableRecord
  2
*ACTIVE
 70
0
 10
0.0
 20
0.0
 11
1.0
 21
1.0
 12
148.5
 22
105.0
 13
0.0
 23
0.0
 14
1.0
 24
1.0
 15
0.0
 25
0.0
 16
0.0
 26
0.0
 36
1.0
 17
0.0
 27
0.0
 37
0.0
 40
210.0
 41
1.4142857143
 42
50.0
 43
0.0
 44
0.0
 50
0.0
 51
0.0
 71
0
 72
100
 73
1
 74
1
 75
0
 76
0
 77
0
 78
0
  0
ENDTAB
  0
TABLE
  2
LTYPE
  5
5
100
AcDbSymbolTable
 70
6
  0
LTYPE
  5
14
100
AcDbSymbolTableRecord
100
AcDbLinetypeTableRecord
  2
BYBLOCK
 70
0
  3

 72
65
 73
0
 40
0.0
  0
LTYPE
  5
15
100
AcDbSymbolTableRecord
100
AcDbLinetypeTableRecord
  2
BYLAYER
 70
0
  3

 72
65
 73
0
 40
0.0
  0
LTYPE
  5
16
100
AcDbSymbolTableRecord
100
AcDbLinetypeTableRecord
  2
CONTINUOUS
 70
64
  3
Solid line
 72
65
 73
0
 40
0.0
  0
LTYPE
  5
1F5
100
AcDbSymbolTableRecord
100
AcDbLinetypeTableRecord
  2
CENTER
 70
64
  3
____ _ ____ _ ____ _ ____ _ ____ _ ____ _ ____
 72
65
 73
4
 40
0.6
 49
0.375
 74
0
 49
-0.075
 74
0
 49
0.075
 74
0
 49
-0.075
 74
0
  0
LTYPE
  5
1F6
100
AcDbSymbolTableRecord
100
AcDbLinetypeTableRecord
  2
HIDDEN
 70
64
  3
- - - - - - - - - - - - - - - - - - - -
 72
65
 73
2
 40
0.2
 49
0.1
 74
0
 49
-0.1
 74
0
  0
LTYPE
  5
1F7
100
AcDbSymbolTableRecord
100
AcDbLinetypeTableRecord
  2
PHANTOM
 70
64
  3
_____ _ _ _____ _ _ _____ _ _ _____
 72
65
 73
6
 40
0.8
 49
0.45
 74
0
 49
-0.05
 74
0
 49
0.1
 74
0
 49
-0.05
 74
0
 49
0.1
 74
0
 49
-0.05
 74
0
  0
LTYPE
  5
1F8
100
AcDbSymbolTableRecord
100
AcDbLinetypeTableRecord
  2
DOT
 70
64
  3
. . . . . . . . . . . . . . . . . . . .
 72
65
 73
2
 40
0.2
 49
0.1
 74
0
 49
-0.1
 74
0
  0
LTYPE
  5
1F9
100
AcDbSymbolTableRecord
100
AcDbLinetypeTableRecord
  2
DASHED
 70
64
  3
- - - - - - - - - - - - - - - - - - - -
 72
65
 73
2
 40
0.2
 49
0.1
 74
0
 49
-0.1
 74
0
  0
ENDTAB
  0
TABLE
  2
LAYER
  5
2
100
AcDbSymbolTable
 70
36
  0
LAYER
  5
10
100
AcDbSymbolTableRecord
100
AcDbLayerTableRecord
  2
0
 70
0
 62
7
  6
CONTINUOUS
370
-3
390
F
  0
LAYER
  5
1FA
100
AcDbSymbolTableRecord
100
AcDbLayerTableRecord
  2
DEFAULT_1
 70
0
 62
7
  6
CENTER
370
-3
390
F
  0
LAYER
  5
1FB
100
AcDbSymbolTableRecord
100
AcDbLayerTableRecord
  2
DEFAULT_2
 70
0
 62
7
  6
HIDDEN
370
-3
390
F
  0
LAYER
  5
1FC
100
AcDbSymbolTableRecord
100
AcDbLayerTableRecord
  2
DEFAULT_3
 70
0
 62
7
  6
PHANTOM
370
-3
390
F
  0
LAYER
  5
1FD
100
AcDbSymbolTableRecord
100
AcDbLayerTableRecord
  2
ASSI
 70
0
 62
7
  6
CONTINUOUS
370
-3
390
F
  0
LAYER
  5
1FE
100
AcDbSymbolTableRecord
100
AcDbLayerTableRecord
  2
COORDINATE
 70
0
 62
7
  6
CONTINUOUS
370
-3
390
F
  0
LAYER
  5
1FF
100
AcDbSymbolTableRecord
100
AcDbLayerTableRecord
  2
COORD_ORIGINE
 70
0
 62
7
  6
CONTINUOUS
370
-3
390
F
  0
LAYER
  5
200
100
AcDbSymbolTableRecord
100
AcDbLayerTableRecord
  2
COPY_PUBLISH
 70
0
 62
7
  6
CONTINUOUS
370
-3
390
F
  0
LAYER
  5
201
100
AcDbSymbolTableRecord
100
AcDbLayerTableRecord
  2
COSMETIC
 70
0
 62
7
  6
CONTINUOUS
370
-3
390
F
  0
LAYER
  5
202
100
AcDbSymbolTableRecord
100
AcDbLayerTableRecord
  2
CURVE
 70
0
 62
7
  6
CONTINUOUS
370
-3
390
F
  0
LAYER
  5
203
100
AcDbSymbolTableRecord
100
AcDbLayerTableRecord
  2
DRAFT
 70
0
 62
7
  6
CONTINUOUS
370
-3
390
F
  0
LAYER
  5
204
100
AcDbSymbolTableRecord
100
AcDbLayerTableRecord
  2
IMPORT_IGES
 70
0
 62
7
  6
CONTINUOUS
370
-3
390
F
  0
LAYER
  5
205
100
AcDbSymbolTableRecord
100
AcDbLayerTableRecord
  2
INTFCLR_2
 70
0
 62
7
  6
CONTINUOUS
370
-3
390
F
  0
LAYER
  5
206
100
AcDbSymbolTableRecord
100
AcDbLayerTableRecord
  2
PIANI
 70
0
 62
7
  6
CONTINUOUS
370
-3
390
F
  0
LAYER
  5
207
100
AcDbSymbolTableRecord
100
AcDbLayerTableRecord
  2
PIANI_ORIGINE
 70
0
 62
7
  6
CONTINUOUS
370
-3
390
F
  0
LAYER
  5
208
100
AcDbSymbolTableRecord
100
AcDbLayerTableRecord
  2
PIANI_RIFERIMENTO
 70
0
 62
7
  6
CONTINUOUS
370
-3
390
F
  0
LAYER
  5
209
100
AcDbSymbolTableRecord
100
AcDbLayerTableRecord
  2
PUNTI
 70
0
 62
7
  6
CONTINUOUS
370
-3
390
F
  0
LAYER
  5
20A
100
AcDbSymbolTableRecord
100
AcDbLayerTableRecord
  2
RACCORDO
 70
0
 62
7
  6
CONTINUOUS
370
-3
390
F
  0
LAYER
  5
20B
100
AcDbSymbolTableRecord
100
AcDbLayerTableRecord
  2
SMUSSO
 70
0
 62
7
  6
CONTINUOUS
370
-3
390
F
  0
LAYER
  5
20C
100
AcDbSymbolTableRecord
100
AcDbLayerTableRecord
  2
SNAPLINE
 70
0
 62
7
  6
CONTINUOUS
370
-3
390
F
  0
LAYER
  5
20D
100
AcDbSymbolTableRecord
100
AcDbLayerTableRecord
  2
SUPERFICI
 70
0
 62
7
  6
CONTINUOUS
370
-3
390
F
  0
LAYER
  5
20E
100
AcDbSymbolTableRecord
100
AcDbLayerTableRecord
  2
TRASH
 70
0
 62
7
  6
CONTINUOUS
370
-3
390
F
  0
LAYER
  5
20F
100
AcDbSymbolTableRecord
100
AcDbLayerTableRecord
  2
XSEC_DATUMS
 70
0
 62
7
  6
CONTINUOUS
370
-3
390
F
  0
ENDTAB
  0
TABLE
  2
STYLE
  5
3
100
AcDbSymbolTable
 70
1
  0
STYLE
  5
11
100
AcDbSymbolTableRecord
100
AcDbTextStyleTableRecord
  2
STANDARD
 70
0
 40
0.0
 41
0.8
 50
0.0
 71
0
 42
0.2
  3
txt
  4

  0
STYLE
  5
210
100
AcDbSymbolTableRecord
100
AcDbTextStyleTableRecord
  2
TEXTSTYLE_1
 70
0
 40
0.0
 41
0.8
 50
0.0
 71
0
 42
0.2
  3
gdt
  4

  0
ENDTAB
  0
TABLE
  2
VIEW
  5
6
100
AcDbSymbolTable
 70
0
  0
ENDTAB
  0
TABLE
  2
UCS
  5
7
100
AcDbSymbolTable
 70
0
  0
ENDTAB
  0
TABLE
  2
APPID
  5
9
100
AcDbSymbolTable
 70
1
  0
APPID
  5
211
100
AcDbSymbolTableRecord
100
AcDbRegAppTableRecord
  2
ACAD
 70
0
  0
ENDTAB
  0
TABLE
  2
BLOCK_RECORD
  5
1
100
AcDbSymbolTable
 70
0
  0
BLOCK_RECORD
  5
212
100
AcDbSymbolTableRecord
100
AcDbBlockTableRecord
  2
*Model_Space
  0
BLOCK_RECORD
  5
213
100
AcDbSymbolTableRecord
100
AcDbBlockTableRecord
  2
*Paper_Space
  0
ENDTAB
  0
TABLE
  2
DIMSTYLE
  5
A
100
AcDbSymbolTable
 70
1
100
AcDbDimStyleTable
 71
0
  0
DIMSTYLE
105
214
100
AcDbSymbolTableRecord
100
AcDbDimStyleTableRecord
  2
STANDARD
 70
0
  3

  4

 40
1.0
 41
3.0
 42
0.0625
 43
0.38
 44
0.18
 45
0.0
 46
0.0
 47
0.01
 48
0.01
140
3.0
141
0.09
142
0.0
143
25.4
144
1.0
145
0.0
146
1.0
147
0.09
 71
1.0
 72
0.0
 73
0
 74
0
 75
0
 76
0
 77
1
 78
8
170
0
171
2
172
0
173
0
174
0
175
0
176
0
177
0
178
0
270
2
271
2
272
2
273
2
274
2
275
0
280
0
281
0
282
0
283
1
284
8
285
0
286
0
287
3
288
0
340
11
  0
ENDTAB
  0
ENDSEC
  0
SECTION
  2
BLOCKS
  0
BLOCK
  5
20
100
AcDbEntity
  8
0
100
AcDbBlockBegin
  2
*Model_Space
 70
0
 10
0.0
 20
0.0
 30
0.0
  3
*Model_Space
  1

  0
ENDBLK
  5
21
100
AcDbEntity
  8
0
100
AcDbBlockEnd
  0
BLOCK
  5
1C
100
AcDbEntity
  8
0
100
AcDbBlockBegin
  2
*Paper_Space
 70
0
 10
0.0
 20
0.0
 30
0.0
  3
*Paper_Space
  1

  0
ENDBLK
  5
1D
100
AcDbEntity
  8
0
100
AcDbBlockEnd
  0
ENDSEC
  0
SECTION
  2
ENTITIES
  0
LINE
  5
215
100
AcDbEntity
  8
RACCORDO
100
AcDbLine
 62
7
  6
CONTINUOUS
 10
-34.8656361698
 20
57.150488942
 11
-32.0725643841
 21
58.5470248349
  0
LINE
  5
216
100
AcDbEntity
  8
RACCORDO
100
AcDbLine
 62
7
  6
CONTINUOUS
 10
-34.4184225743
 20
57.1220871548
 11
-31.6253507886
 21
58.5186230476
  0
LWPOLYLINE
  5
217
100
AcDbEntity
  8
RACCORDO
100
AcDbPolyline
 62
7
  6
CONTINUOUS
 90
13
 70
0
 10
-21.2799108426
 20
30.102555628
 10
-21.3031881534
 20
30.0890766409
 10
-21.3409802286
 20
30.0629155342
 10
-21.3761619897
 20
30.0328802144
 10
-21.4083975816
 20
29.9992154096
 10
-21.4373877151
 20
29.9622192415
 10
-21.4631499329
 20
29.9218026009
 10
-21.485437913
 20
29.8781388559
 10
-21.5039749921
 20
29.8315046728
 10
-21.5186657465
 20
29.7817454462
 10
-21.5292855297
 20
29.728848037
 10
-21.5355213227
 20
29.6730728756
 10
-21.5371889814
 20
29.6244321062
  0
LINE
  5
218
100
AcDbEntity
  8
RACCORDO
100
AcDbLine
 62
7
  6
CONTINUOUS
 10
-21.2799517049
 20
30.1025352589
 11
-19.9200255575
 21
30.8362466406
  0
LINE
  5
219
100
AcDbEntity
  8
RACCORDO
100
AcDbLine
 62
7
  6
CONTINUOUS
 10
-20.9581016131
 20
30.0872662142
 11
-19.5996738575
 21
30.820169153
  0
LINE
  5
21A
100
AcDbEntity
  8
RACCORDO
100
AcDbLine
 62
7
  6
CONTINUOUS
 10
-34.642029372
 20
-25.5109372598
 11
31.4017439908
 21
-58.5328239413
  0
LINE
  5
21B
100
AcDbEntity
  8
RACCORDO
100
AcDbLine
 62
7
  6
CONTINUOUS
 10
-34.7719759648
 20
-25.2405003596
 11
31.271797398
 21
-58.262387041
  0
LINE
  5
21C
100
AcDbEntity
  8
RACCORDO
100
AcDbLine
 62
7
  6
CONTINUOUS
 10
-35.2719759648
 20
56.4328384463
 11
-35.2719759648
 21
-24.4539342672
  0
LINE
  5
21D
100
AcDbEntity
  8
RACCORDO
100
AcDbLine
 62
7
  6
CONTINUOUS
 10
-35.1255293554
 20
56.256061751
 11
-35.1255293554
 21
-24.6307109624
  0
LINE
  5
21E
100
AcDbEntity
  8
RACCORDO
100
AcDbLine
 62
7
  6
CONTINUOUS
 10
-17.2883627632
 20
25.3511480424
 11
-17.1676704998
 21
25.4094236243
  0
LWPOLYLINE
  5
21F
100
AcDbEntity
  8
RACCORDO
100
AcDbPolyline
 62
7
  6
CONTINUOUS
 90
12
 70
0
 10
-21.5357264042
 20
-14.6915640011
 10
-21.5297103803
 20
-14.7511499697
 10
-21.5191913507
 20
-14.8107599438
 10
-21.5043489854
 20
-14.8700668975
 10
-21.4854569788
 20
-14.9283826673
 10
-21.4627610384
 20
-14.9853541201
 10
-21.4363649354
 20
-15.0408598887
 10
-21.4064629919
 20
-15.0945001772
 10
-21.3731137148
 20
-15.1461120569
 10
-21.3364439485
 20
-15.1953063764
 10
-21.2968209976
 20
-15.2414650748
 10
-21.2540373811
 20
-15.2845921575
  0
LWPOLYLINE
  5
220
100
AcDbEntity
  8
RACCORDO
100
AcDbPolyline
 62
7
  6
CONTINUOUS
 90
9
 70
0
 10
-16.7075092837
 20
15.4443576805
 10
-16.684058727
 20
15.4780023048
 10
-16.6633083975
 20
15.5130662788
 10
-16.6455465456
 20
15.5492990766
 10
-16.6309486479
 20
15.5865803513
 10
-16.6196401486
 20
15.6247804902
 10
-16.611825346
 20
15.6633870073
 10
-16.607583407
 20
15.701934653
 10
-16.6067095226
 20
15.7290980606
  0
LWPOLYLINE
  5
221
100
AcDbEntity
  8
RACCORDO
100
AcDbPolyline
 62
7
  6
CONTINUOUS
 90
3
 70
0
 10
-16.7381740409
 20
15.4068354443
 10
-16.7335295959
 20
15.4121423234
 10
-16.7075092837
 20
15.4443576805
  0
LINE
  5
222
100
AcDbEntity
  8
RACCORDO
100
AcDbLine
 62
7
  6
CONTINUOUS
 10
-16.7381740409
 20
15.4068354443
 11
-16.7382023816
 21
15.4068034166
  0
LINE
  5
223
100
AcDbEntity
  8
DRAFT
100
AcDbLine
 62
7
  6
CONTINUOUS
 10
-17.0493859466
 20
19.4602704512
 11
-17.5854250547
 21
19.1626045803
  0
LINE
  5
224
100
AcDbEntity
  8
RACCORDO
100
AcDbLine
 62
7
  6
CONTINUOUS
 10
-16.6067028861
 20
16.5179330359
 11
-15.2780889323
 21
17.2347507447
  0
LINE
  5
225
100
AcDbEntity
  8
RACCORDO
100
AcDbLine
 62
7
  6
CONTINUOUS
 10
-16.6067028861
 20
16.4377670949
 11
-15.3269921282
 21
17.1282004075
  0
LINE
  5
226
100
AcDbEntity
  8
RACCORDO
100
AcDbLine
 62
7
  6
CONTINUOUS
 10
-16.3530785744
 20
20.6356509977
 11
-15.4194887493
 21
21.0987184335
  0
LINE
  5
227
100
AcDbEntity
  8
RACCORDO
100
AcDbLine
 62
7
  6
CONTINUOUS
 10
-16.3530785744
 20
20.3216370367
 11
-15.2780889323
 21
20.8548398242
  0
LINE
  5
228
100
AcDbEntity
  8
RACCORDO
100
AcDbLine
 62
7
  6
CONTINUOUS
 10
-16.3530785744
 20
20.2601821793
 11
-17.2883627632
 21
19.8085854582
  0
LINE
  5
229
100
AcDbEntity
  8
RACCORDO
100
AcDbLine
 62
7
  6
CONTINUOUS
 10
-16.4324608691
 20
20.0972370869
 11
-17.3677450578
 21
19.6456403657
  0
LINE
  5
22A
100
AcDbEntity
  8
RACCORDO
100
AcDbLine
 62
7
  6
CONTINUOUS
 10
-15.8806632391
 20
21.2933024771
 11
-16.3530785744
 21
21.0751254199
  0
LINE
  5
22B
100
AcDbEntity
  8
RACCORDO
100
AcDbLine
 62
7
  6
CONTINUOUS
 10
-15.7943393541
 20
21.2861437358
 11
-16.3530785744
 21
21.0280994479
  0
LWPOLYLINE
  5
22C
100
AcDbEntity
  8
RACCORDO
100
AcDbPolyline
 62
7
  6
CONTINUOUS
 90
11
 70
0
 10
14.5624847931
 20
-33.2266849818
 10
14.5966808131
 20
-33.2424787526
 10
14.6467824736
 20
-33.2610924694
 10
14.6974184402
 20
-33.2746047315
 10
14.7482489404
 20
-33.282934961
 10
14.7986800141
 20
-33.2860306837
 10
14.8482478362
 20
-33.2839439194
 10
14.8965578255
 20
-33.2768045187
 10
14.9429819552
 20
-33.2648674967
 10
14.9870312665
 20
-33.2484762581
 10
14.9977279191
 20
-33.2436806287
  0
LINE
  5
22D
100
AcDbEntity
  8
RACCORDO
100
AcDbLine
 62
7
  6
CONTINUOUS
 10
-21.0885634743
 20
-15.401173044
 11
14.562340306
 21
-33.2266249341
  0
LINE
  5
22E
100
AcDbEntity
  8
RACCORDO
100
AcDbLine
 62
7
  6
CONTINUOUS
 10
-21.166531433
 20
-15.2389109023
 11
14.4866556891
 21
-33.0655044634
  0
LINE
  5
22F
100
AcDbEntity
  8
0
100
AcDbLine
 62
7
  6
CONTINUOUS
 10
-5.9197049319
 20
-22.8359436483
 11
-5.646573624
 21
-22.9725093023
  0
LINE
  5
230
100
AcDbEntity
  8
0
100
AcDbLine
 62
7
  6
CONTINUOUS
 10
-5.0542818922
 20
-23.2686551682
 11
-4.7443456763
 21
-23.4236232761
  0
LINE
  5
231
100
AcDbEntity
  8
0
100
AcDbLine
 62
7
  6
CONTINUOUS
 10
-4.5774974673
 20
-23.5070473806
 11
-4.2809899163
 21
-23.6553011561
  0
LINE
  5
232
100
AcDbEntity
  8
0
100
AcDbLine
 62
7
  6
CONTINUOUS
 10
-3.8505132074
 20
-23.8705395106
 11
-3.8070452322
 21
-23.8922734982
  0
LINE
  5
233
100
AcDbEntity
  8
0
100
AcDbLine
 62
7
  6
CONTINUOUS
 10
-3.3748537894
 20
-24.1083692196
 11
-3.0716541798
 21
-24.2599690244
  0
LINE
  5
234
100
AcDbEntity
  8
0
100
AcDbLine
 62
7
  6
CONTINUOUS
 10
-3.0229861414
 20
-24.2843030436
 11
-2.7164129253
 21
-24.4375896516
  0
LINE
  5
235
100
AcDbEntity
  8
0
100
AcDbLine
 62
7
  6
CONTINUOUS
 10
-2.1285186906
 20
-24.731536769
 11
-1.8018593993
 21
-24.8948664146
  0
LINE
  5
236
100
AcDbEntity
  8
0
100
AcDbLine
 62
7
  6
CONTINUOUS
 10
-1.7108470661
 20
-24.9403729257
 11
-1.4021582689
 21
-25.0947173243
  0
LINE
  5
237
100
AcDbEntity
  8
0
100
AcDbLine
 62
7
  6
CONTINUOUS
 10
-0.9275342119
 20
-25.3320293528
 11
-0.6294119155
 21
-25.4810905009
  0
LINE
  5
238
100
AcDbEntity
  8
0
100
AcDbLine
 62
7
  6
CONTINUOUS
 10
-2.6308897744
 20
-24.1173142439
 11
-2.2088085443
 21
-24.3283548589
  0
LINE
  5
239
100
AcDbEntity
  8
0
100
AcDbLine
 62
7
  6
CONTINUOUS
 10
-2.270748977
 20
-24.0164676522
 11
-2.5674905804
 21
-23.8680968505
  0
LINE
  5
23A
100
AcDbEntity
  8
0
100
AcDbLine
 62
7
  6
CONTINUOUS
 10
-1.4021582689
 20
-24.3830566959
 11
-1.2359780533
 21
-24.4661468037
  0
LINE
  5
23B
100
AcDbEntity
  8
IMPORT_IGES
100
AcDbLine
 62
7
  6
CONTINUOUS
 10
-2.4260692241
 20
-23.7973861724
 11
-2.3005936068
 21
-23.8601239811
  0
LINE
  5
23C
100
AcDbEntity
  8
0
100
AcDbLine
 62
7
  6
CONTINUOUS
 10
-2.3005936068
 20
-23.8601239811
 11
-2.4260692241
 21
-23.7973861724
  0
LWPOLYLINE
  5
23D
100
AcDbEntity
  8
RACCORDO
100
AcDbPolyline
 62
7
  6
CONTINUOUS
 90
5
 70
0
 10
-21.2540373811
 20
-15.2845921575
 10
-21.2083853379
 20
-15.3240838021
 10
-21.1611308134
 20
-15.3587661377
 10
-21.1128769591
 20
-15.388333801
 10
-21.0885615272
 20
-15.4011613882
  0
LINE
  5
23E
100
AcDbEntity
  8
RACCORDO
100
AcDbLine
 62
7
  6
CONTINUOUS
 10
-21.5371892751
 20
-14.6449355885
 11
-21.5357264042
 21
-14.6915640011
  0
LINE
  5
23F
100
AcDbEntity
  8
RACCORDO
100
AcDbLine
 62
7
  6
CONTINUOUS
 10
-21.5371990328
 20
29.6243916822
 11
-21.5371990328
 21
-14.6450876661
  0
LINE
  5
240
100
AcDbEntity
  8
RACCORDO
100
AcDbLine
 62
7
  6
CONTINUOUS
 10
-21.4493310672
 20
29.5183256686
 11
-21.4493310672
 21
-14.7539501999
  0
LINE
  5
241
100
AcDbEntity
  8
RACCORDO
100
AcDbLine
 62
7
  6
CONTINUOUS
 10
-19.7470074532
 20
-13.2374000228
 11
-19.7470074532
 21
26.3022483938
  0
LINE
  5
242
100
AcDbEntity
  8
RACCORDO
100
AcDbLine
 62
7
  6
CONTINUOUS
 10
-19.3628024879
 20
-13.2542070953
 11
-19.3628024879
 21
26.2854418766
  0
LINE
  5
243
100
AcDbEntity
  8
RACCORDO
100
AcDbLine
 62
7
  6
CONTINUOUS
 10
-18.187200939
 20
25.9191888439
 11
-18.187200939
 21
-12.3846113873
  0
LINE
  5
244
100
AcDbEntity
  8
RACCORDO
100
AcDbLine
 62
7
  6
CONTINUOUS
 10
-18.1266599719
 20
25.8889183604
 11
-18.1266599719
 21
-12.3596583264
  0
LINE
  5
245
100
AcDbEntity
  8
RACCORDO
100
AcDbLine
 62
7
  6
CONTINUOUS
 10
-17.8312143878
 20
-12.2107964037
 11
-17.8312143878
 21
25.7411955683
  0
LINE
  5
246
100
AcDbEntity
  8
RACCORDO
100
AcDbLine
 62
7
  6
CONTINUOUS
 10
-16.4932333624
 20
14.0789848038
 11
-17.0493859466
 21
13.7987641898
  0
LINE
  5
247
100
AcDbEntity
  8
RACCORDO
100
AcDbLine
 62
7
  6
CONTINUOUS
 10
-16.2811336368
 20
13.7131668898
 11
-16.8566931376
 21
13.4231679916
  0
LINE
  5
248
100
AcDbEntity
  8
0
100
AcDbLine
 62
7
  6
CONTINUOUS
 10
-1.2353099921
 20
-24.1686544001
 11
-1.4124352765
 21
-24.0800917578
  0
LINE
  5
249
100
AcDbEntity
  8
0
100
AcDbLine
 62
7
  6
CONTINUOUS
 10
-1.0938886359
 20
-24.0979437219
 11
-1.2710139203
 21
-24.0093810797
  0
LINE
  5
24A
100
AcDbEntity
  8
IMPORT_IGES
100
AcDbLine
 62
7
  6
CONTINUOUS
 10
-1.0938886359
 20
-24.0979437219
 11
-1.2710139203
 21
-24.0093810797
  0
LINE
  5
24B
100
AcDbEntity
  8
0
100
AcDbLine
 62
7
  6
CONTINUOUS
 10
-2.2574327421
 20
-22.8485796818
 11
-2.5572580381
 21
-22.6986670338
  0
LINE
  5
24C
100
AcDbEntity
  8
0
100
AcDbLine
 62
7
  6
CONTINUOUS
 10
-3.210499546
 20
-22.3720462798
 11
-3.5171505438
 21
-22.2187207809
  0
LINE
  5
24D
100
AcDbEntity
  8
0
100
AcDbLine
 62
7
  6
CONTINUOUS
 10
-4.1337490712
 20
-21.9104215172
 11
-4.4434286074
 21
-21.7555817491
  0
LINE
  5
24E
100
AcDbEntity
  8
0
100
AcDbLine
 62
7
  6
CONTINUOUS
 10
-5.1692991741
 20
-21.3926464658
 11
-5.4790239651
 21
-21.2377840703
  0
LINE
  5
24F
100
AcDbEntity
  8
0
100
AcDbLine
 62
7
  6
CONTINUOUS
 10
-6.0537292441
 20
-20.9504314307
 11
-6.3904153096
 21
-20.782088398
  0
LINE
  5
250
100
AcDbEntity
  8
0
100
AcDbLine
 62
7
  6
CONTINUOUS
 10
-4.7443456763
 20
-21.6050140955
 11
-5.0542818922
 21
-21.4500459875
  0
LINE
  5
251
100
AcDbEntity
  8
IMPORT_IGES
100
AcDbLine
 62
7
  6
CONTINUOUS
 10
-6.2489939533
 20
-20.7113777199
 11
-5.9123078879
 21
-20.8797207526
  0
LINE
  5
252
100
AcDbEntity
  8
IMPORT_IGES
100
AcDbLine
 62
7
  6
CONTINUOUS
 10
-5.3376026089
 20
-21.1670733922
 11
-5.0278778179
 21
-21.3219357876
  0
LINE
  5
253
100
AcDbEntity
  8
IMPORT_IGES
100
AcDbLine
 62
7
  6
CONTINUOUS
 10
-4.3020072511
 20
-21.684871071
 11
-3.992327715
 21
-21.8397108391
  0
LINE
  5
254
100
AcDbEntity
  8
IMPORT_IGES
100
AcDbLine
 62
7
  6
CONTINUOUS
 10
-3.3757291876
 20
-22.1480101028
 11
-3.0690781898
 21
-22.3013356017
  0
LINE
  5
255
100
AcDbEntity
  8
IMPORT_IGES
100
AcDbLine
 62
7
  6
CONTINUOUS
 10
-2.4158366819
 20
-22.6279563556
 11
-2.1160113858
 21
-22.7778690037
  0
LINE
  5
256
100
AcDbEntity
  8
0
100
AcDbLine
 62
7
  6
CONTINUOUS
 10
-2.1160113858
 20
-22.7778690037
 11
-2.4158366819
 21
-22.6279563556
  0
LINE
  5
257
100
AcDbEntity
  8
0
100
AcDbLine
 62
7
  6
CONTINUOUS
 10
-3.0690781898
 20
-22.3013356017
 11
-3.3757291876
 21
-22.1480101028
  0
LINE
  5
258
100
AcDbEntity
  8
0
100
AcDbLine
 62
7
  6
CONTINUOUS
 10
-3.992327715
 20
-21.8397108391
 11
-4.3020072511
 21
-21.684871071
  0
LINE
  5
259
100
AcDbEntity
  8
0
100
AcDbLine
 62
7
  6
CONTINUOUS
 10
-5.0278778179
 20
-21.3219357876
 11
-5.3376026089
 21
-21.1670733922
  0
LINE
  5
25A
100
AcDbEntity
  8
0
100
AcDbLine
 62
7
  6
CONTINUOUS
 10
-5.9123078879
 20
-20.8797207526
 11
-6.2489939533
 21
-20.7113777199
  0
LINE
  5
25B
100
AcDbEntity
  8
0
100
AcDbLine
 62
7
  6
CONTINUOUS
 10
-4.6029243201
 20
-21.5343034174
 11
-4.912860536
 21
-21.3793353094
  0
LINE
  5
25C
100
AcDbEntity
  8
IMPORT_IGES
100
AcDbLine
 62
7
  6
CONTINUOUS
 10
-4.6029243201
 20
-21.5343034174
 11
-4.912860536
 21
-21.3793353094
  0
LINE
  5
25D
100
AcDbEntity
  8
RACCORDO
100
AcDbLine
 62
7
  6
CONTINUOUS
 10
12.6596255992
 20
-29.9608384185
 11
-19.3417846814
 21
-13.9601332782
  0
LINE
  5
25E
100
AcDbEntity
  8
RACCORDO
100
AcDbLine
 62
7
  6
CONTINUOUS
 10
12.7991951175
 20
-29.6469052677
 11
-19.2022209966
 21
-13.6461972106
  0
LINE
  5
25F
100
AcDbEntity
  8
RACCORDO
100
AcDbLine
 62
7
  6
CONTINUOUS
 10
-17.9974308057
 20
-12.792836508
 11
12.9769804053
 21
-28.2800421135
  0
LINE
  5
260
100
AcDbEntity
  8
RACCORDO
100
AcDbLine
 62
7
  6
CONTINUOUS
 10
-17.8826787818
 20
-12.7094125848
 11
12.9769804053
 21
-28.1392421784
  0
LINE
  5
261
100
AcDbEntity
  8
RACCORDO
100
AcDbLine
 62
7
  6
CONTINUOUS
 10
12.9769804053
 20
-27.8746618514
 11
-17.6191146622
 21
-12.5766143177
  0
LINE
  5
262
100
AcDbEntity
  8
RACCORDO
100
AcDbLine
 62
7
  6
CONTINUOUS
 10
-16.8375446318
 20
-12.2005613063
 11
12.9769804053
 21
-27.1078238249
  0
LINE
  5
263
100
AcDbEntity
  8
ASSI
100
AcDbLine
 62
7
  6
CONTINUOUS
 10
9.51788201
 20
-25.3038288504
 11
7.1594561595
 21
-24.1246159251
  0
LINE
  5
264
100
AcDbEntity
  8
ASSI
100
AcDbLine
 62
7
  6
CONTINUOUS
 10
-6.3920205667
 20
-17.348877562
 11
-8.7504464172
 21
-16.1696646368
  0
LINE
  5
265
100
AcDbEntity
  8
RACCORDO
100
AcDbLine
 62
7
  6
CONTINUOUS
 10
12.9769804053
 20
-26.9548552211
 11
9.6696852327
 21
-25.3012076348
  0
LINE
  5
266
100
AcDbEntity
  8
RACCORDO
100
AcDbLine
 62
7
  6
CONTINUOUS
 10
4.6492270863
 20
-22.7909785616
 11
-6.240217344
 21
-17.3462563465
  0
LINE
  5
267
100
AcDbEntity
  8
RACCORDO
100
AcDbLine
 62
7
  6
CONTINUOUS
 10
-11.2606754904
 20
-14.8360272733
 11
-16.8566931376
 21
-12.0380184497
  0
LINE
  5
268
100
AcDbEntity
  8
ASSI
100
AcDbLine
 62
7
  6
CONTINUOUS
 10
9.6544300941
 20
-25.2306815362
 11
7.3008775158
 21
-24.053905247
  0
LINE
  5
269
100
AcDbEntity
  8
ASSI
100
AcDbLine
 62
7
  6
CONTINUOUS
 10
-6.2554724826
 20
-17.2757302478
 11
-8.6090250609
 21
-16.0989539587
  0
LINE
  5
26A
100
AcDbEntity
  8
ASSI
100
AcDbLine
 62
7
  6
CONTINUOUS
 10
9.8621220887
 20
-25.1223954991
 11
7.5130095501
 21
-23.9478392298
  0
LINE
  5
26B
100
AcDbEntity
  8
ASSI
100
AcDbLine
 62
7
  6
CONTINUOUS
 10
-6.047780488
 20
-17.1674442108
 11
-8.3968930266
 21
-15.9928879415
  0
LINE
  5
26C
100
AcDbEntity
  8
ASSI
100
AcDbLine
 62
7
  6
CONTINUOUS
 10
10.0005834185
 20
-25.0502048078
 11
7.6544309063
 21
-23.8771285517
  0
LINE
  5
26D
100
AcDbEntity
  8
ASSI
100
AcDbLine
 62
7
  6
CONTINUOUS
 10
-5.9093191582
 20
-17.0952535194
 11
-8.2554716704
 21
-15.9221772634
  0
LINE
  5
26E
100
AcDbEntity
  8
RACCORDO
100
AcDbLine
 62
7
  6
CONTINUOUS
 10
12.9769804053
 20
-26.3770765724
 11
10.2353706577
 21
-25.0062716986
  0
LINE
  5
26F
100
AcDbEntity
  8
RACCORDO
100
AcDbLine
 62
7
  6
CONTINUOUS
 10
5.2149125113
 20
-22.4960426254
 11
-5.674531919
 21
-17.0513204103
  0
LINE
  5
270
100
AcDbEntity
  8
RACCORDO
100
AcDbLine
 62
7
  6
CONTINUOUS
 10
-10.6949900654
 20
-14.5410913371
 11
-16.2811013281
 21
-11.7480357058
  0
LINE
  5
271
100
AcDbEntity
  8
ASSI
100
AcDbLine
 62
7
  6
CONTINUOUS
 10
11.7556502372
 20
-25.7156061828
 11
7.8665629407
 21
-23.7710625345
  0
LINE
  5
272
100
AcDbEntity
  8
ASSI
100
AcDbLine
 62
7
  6
CONTINUOUS
 10
-4.1542523395
 20
-17.7606548945
 11
-8.043339636
 21
-15.8161112462
  0
LWPOLYLINE
  5
273
100
AcDbEntity
  8
RACCORDO
100
AcDbPolyline
 62
7
  6
CONTINUOUS
 90
18
 70
0
 10
-15.57522628
 20
-11.8156024698
 10
-15.5758144988
 20
-11.7967254555
 10
-15.5774839165
 20
-11.7786997157
 10
-15.5802871909
 20
-11.7604980611
 10
-15.5842713592
 20
-11.7421959345
 10
-15.5894801103
 20
-11.7238719329
 10
-15.5959475491
 20
-11.7056248827
 10
-15.6037076286
 20
-11.6875408464
 10
-15.612801163
 20
-11.6696920134
 10
-15.6232506671
 20
-11.6521892165
 10
-15.6350695669
 20
-11.6351493915
 10
-15.6482829896
 20
-11.6186696242
 10
-15.6628889481
 20
-11.6028813166
 10
-15.6788725123
 20
-11.5879211012
 10
-15.6962308961
 20
-11.5739098515
 10
-15.7149323722
 20
-11.560991226
 10
-15.7349161726
 20
-11.5493201385
 10
-15.7420645384
 20
-11.5456257281
  0
LINE
  5
274
100
AcDbEntity
  8
DRAFT
100
AcDbLine
 62
7
  6
CONTINUOUS
 10
-17.5854250547
 20
-11.1482845522
 11
-17.5854250547
 21
-4.6530940238
  0
LINE
  5
275
100
AcDbEntity
  8
DRAFT
100
AcDbLine
 62
7
  6
CONTINUOUS
 10
-17.5854250547
 20
19.1626045803
 11
-17.5854250547
 21
25.6183009017
  0
LINE
  5
276
100
AcDbEntity
  8
DRAFT
100
AcDbLine
 62
7
  6
CONTINUOUS
 10
-17.3417938086
 20
19.6581707808
 11
-17.3417938086
 21
19.6064743822
  0
LINE
  5
277
100
AcDbEntity
  8
RACCORDO
100
AcDbLine
 62
7
  6
CONTINUOUS
 10
-17.2883627632
 20
25.3511480424
 11
-17.2883627632
 21
19.8085854582
  0
LINE
  5
278
100
AcDbEntity
  8
RACCORDO
100
AcDbLine
 62
7
  6
CONTINUOUS
 10
-17.2883627632
 20
-4.9597410901
 11
-17.2883627632
 21
-10.5023036743
  0
LINE
  5
279
100
AcDbEntity
  8
DRAFT
100
AcDbLine
 62
7
  6
CONTINUOUS
 10
-17.0493859466
 20
19.4602704512
 11
-17.0493859466
 21
-4.3554281529
  0
LINE
  5
27A
100
AcDbEntity
  8
RACCORDO
100
AcDbLine
 62
7
  6
CONTINUOUS
 10
-17.0493859466
 20
-10.8506186813
 11
-17.0493859466
 21
-11.8351890851
  0
LINE
  5
27B
100
AcDbEntity
  8
RACCORDO
100
AcDbLine
 62
7
  6
CONTINUOUS
 10
-16.9779038713
 20
14.3213200582
 11
-16.9779038713
 21
14.807209631
  0
LINE
  5
27C
100
AcDbEntity
  8
DRAFT
100
AcDbLine
 62
7
  6
CONTINUOUS
 10
-16.9463631155
 20
-3.9516944772
 11
-16.9463631155
 21
-3.3705779211
  0
LINE
  5
27D
100
AcDbEntity
  8
RACCORDO
100
AcDbLine
 62
7
  6
CONTINUOUS
 10
-16.8566931376
 20
-12.0380184497
 11
-16.8566931376
 21
-11.6795150644
  0
LINE
  5
27E
100
AcDbEntity
  8
RACCORDO
100
AcDbLine
 62
7
  6
CONTINUOUS
 10
-16.8566931376
 20
1.8425348884
 11
-16.8566931376
 21
13.4231679916
  0
LINE
  5
27F
100
AcDbEntity
  8
RACCORDO
100
AcDbLine
 62
7
  6
CONTINUOUS
 10
-16.7470434581
 20
15.5014293321
 11
-16.7470333717
 21
19.9453475196
  0
LINE
  5
280
100
AcDbEntity
  8
RACCORDO
100
AcDbLine
 62
7
  6
CONTINUOUS
 10
-16.7470424718
 20
1.7668727351
 11
-16.7470329859
 21
-2.4013463215
  0
LINE
  5
281
100
AcDbEntity
  8
RACCORDO
100
AcDbLine
 62
7
  6
CONTINUOUS
 10
-16.7470329859
 20
-3.2673717253
 11
-16.7470329859
 21
-4.051359542
  0
LINE
  5
282
100
AcDbEntity
  8
RACCORDO
100
AcDbLine
 62
7
  6
CONTINUOUS
 10
-16.7470329859
 20
-10.9088520942
 11
-16.7470329859
 21
-10.3655414266
  0
LINE
  5
283
100
AcDbEntity
  8
RACCORDO
100
AcDbLine
 62
7
  6
CONTINUOUS
 10
-16.6067028861
 20
20.013105307
 11
-16.6067028861
 21
15.7290806825
  0
LINE
  5
284
100
AcDbEntity
  8
RACCORDO
100
AcDbLine
 62
7
  6
CONTINUOUS
 10
-16.6067028861
 20
1.8316862065
 11
-16.6067028861
 21
-2.2276817289
  0
LINE
  5
285
100
AcDbEntity
  8
RACCORDO
100
AcDbLine
 62
7
  6
CONTINUOUS
 10
-16.6067028861
 20
-3.0937071327
 11
-16.6067028861
 21
-3.9597325364
  0
LINE
  5
286
100
AcDbEntity
  8
RACCORDO
100
AcDbLine
 62
7
  6
CONTINUOUS
 10
-16.6067028861
 20
-10.9790171441
 11
-16.6067028861
 21
-10.2977838255
  0
LINE
  5
287
100
AcDbEntity
  8
RACCORDO
100
AcDbLine
 62
7
  6
CONTINUOUS
 10
-16.3530785744
 20
-10.0507069531
 11
-16.3530785744
 21
-4.5081443689
  0
LINE
  5
288
100
AcDbEntity
  8
RACCORDO
100
AcDbLine
 62
7
  6
CONTINUOUS
 10
-16.3530785744
 20
20.2601821793
 11
-16.3530785744
 21
25.0021276616
  0
LINE
  5
289
100
AcDbEntity
  8
RACCORDO
100
AcDbLine
 62
7
  6
CONTINUOUS
 10
-16.2811336368
 20
-11.7480195514
 11
-16.2811336368
 21
-11.4016093899
  0
LINE
  5
28A
100
AcDbEntity
  8
RACCORDO
100
AcDbLine
 62
7
  6
CONTINUOUS
 10
-16.2811336368
 20
2.1083473392
 11
-16.2811336368
 21
13.7131668898
  0
LINE
  5
28B
100
AcDbEntity
  8
RACCORDO
100
AcDbLine
 62
7
  6
CONTINUOUS
 10
-15.7155568558
 20
-11.9385424198
 11
-15.7155568558
 21
-12.0308079419
  0
LINE
  5
28C
100
AcDbEntity
  8
RACCORDO
100
AcDbLine
 62
7
  6
CONTINUOUS
 10
-15.5752267559
 20
-11.8163578441
 11
-15.5752267559
 21
-12.1009729918
  0
LINE
  5
28D
100
AcDbEntity
  8
RACCORDO
100
AcDbLine
 62
7
  6
CONTINUOUS
 10
-15.2780889323
 20
20.8548398242
 11
-15.2780889323
 21
17.2347507447
  0
LINE
  5
28E
100
AcDbEntity
  8
RACCORDO
100
AcDbLine
 62
7
  6
CONTINUOUS
 10
-15.2780889323
 20
2.5384025341
 11
-15.2780889323
 21
-1.0816865454
  0
LINE
  5
28F
100
AcDbEntity
  8
RACCORDO
100
AcDbLine
 62
7
  6
CONTINUOUS
 10
-15.2219569074
 20
20.9243444192
 11
-15.2219568923
 21
17.3042165817
  0
LINE
  5
290
100
AcDbEntity
  8
RACCORDO
100
AcDbLine
 62
7
  6
CONTINUOUS
 10
-15.2219569074
 20
2.6079071292
 11
-15.2219568923
 21
-1.0122207083
  0
LWPOLYLINE
  5
291
100
AcDbEntity
  8
RACCORDO
100
AcDbPolyline
 62
7
  6
CONTINUOUS
 90
18
 70
0
 10
-16.9779018067
 20
14.8072390702
 10
-16.9772832647
 20
14.8347420093
 10
-16.975019879
 20
14.867652107
 10
-16.9709718765
 20
14.902461799
 10
-16.9650720495
 20
14.9387354506
 10
-16.9572685918
 20
14.9762131792
 10
-16.9475285661
 20
15.0146462363
 10
-16.935900338
 20
15.0535914839
 10
-16.9224256604
 20
15.0927620646
 10
-16.9071624
 20
15.1318858919
 10
-16.8902568961
 20
15.1705434169
 10
-16.8718308607
 20
15.2084610934
 10
-16.8520179643
 20
15.2453869244
 10
-16.8310435151
 20
15.280956052
 10
-16.8090822439
 20
15.3149554474
 10
-16.7863224007
 20
15.3471871216
 10
-16.7630613196
 20
15.3773497854
 10
-16.7381975882
 20
15.4067991683
  0
LINE
  5
292
100
AcDbEntity
  8
DRAFT
100
AcDbLine
 62
7
  6
CONTINUOUS
 10
-17.0493859466
 20
-3.5628211411
 11
-16.9463631155
 21
-3.3705779211
  0
LINE
  5
293
100
AcDbEntity
  8
ASSI
100
AcDbLine
 62
7
  6
CONTINUOUS
 10
11.8970715935
 20
-25.6448955047
 11
8.0079842969
 21
-23.7003518564
  0
LINE
  5
294
100
AcDbEntity
  8
ASSI
100
AcDbLine
 62
7
  6
CONTINUOUS
 10
-4.0128309832
 20
-17.6899442163
 11
-7.9019182798
 21
-15.7454005681
  0
LINE
  5
295
100
AcDbEntity
  8
RACCORDO
100
AcDbLine
 62
7
  6
CONTINUOUS
 10
-16.2788842721
 20
-11.3971106604
 11
-15.9276565814
 21
-11.5727245058
  0
LINE
  5
296
100
AcDbEntity
  8
ASSI
100
AcDbLine
 62
7
  6
CONTINUOUS
 10
12.1092036278
 20
-25.5388294875
 11
8.2201163313
 21
-23.5942858392
  0
LINE
  5
297
100
AcDbEntity
  8
ASSI
100
AcDbLine
 62
7
  6
CONTINUOUS
 10
-3.8006989489
 20
-17.5838781992
 11
-7.6897862454
 21
-15.6393345509
  0
LINE
  5
298
100
AcDbEntity
  8
RACCORDO
100
AcDbLine
 62
7
  6
CONTINUOUS
 10
-16.307699831
 20
-11.262802996
 11
-15.742300133
 21
-11.545502845
  0
LINE
  5
299
100
AcDbEntity
  8
RACCORDO
100
AcDbLine
 62
7
  6
CONTINUOUS
 10
-17.5005271112
 20
-10.6560291214
 11
-17.5854250547
 21
-10.6135801497
  0
LINE
  5
29A
100
AcDbEntity
  8
DRAFT
100
AcDbLine
 62
7
  6
CONTINUOUS
 10
-17.4004610051
 20
-10.675081152
 11
-17.0493859466
 21
-10.8506186813
  0
LINE
  5
29B
100
AcDbEntity
  8
ASSI
100
AcDbLine
 62
7
  6
CONTINUOUS
 10
12.2506249841
 20
-25.4681188094
 11
8.3615376875
 21
-23.5235751611
  0
LINE
  5
29C
100
AcDbEntity
  8
ASSI
100
AcDbLine
 62
7
  6
CONTINUOUS
 10
-3.6592775926
 20
-17.513167521
 11
-7.5483648892
 21
-15.5686238728
  0
LINE
  5
29D
100
AcDbEntity
  8
RACCORDO
100
AcDbLine
 62
7
  6
CONTINUOUS
 10
-16.4932979848
 20
-11.0357195947
 11
-17.2998271765
 21
-10.6324549989
  0
LINE
  5
29E
100
AcDbEntity
  8
ASSI
100
AcDbLine
 62
7
  6
CONTINUOUS
 10
12.4627570184
 20
-25.3620527922
 11
8.5736697219
 21
-23.4175091439
  0
LINE
  5
29F
100
AcDbEntity
  8
ASSI
100
AcDbLine
 62
7
  6
CONTINUOUS
 10
-3.4471455583
 20
-17.4071015039
 11
-7.3362328548
 21
-15.4625578556
  0
LINE
  5
2A0
100
AcDbEntity
  8
ASSI
100
AcDbLine
 62
7
  6
CONTINUOUS
 10
12.6041783747
 20
-25.2913421141
 11
8.7150910781
 21
-23.3467984658
  0
LINE
  5
2A1
100
AcDbEntity
  8
ASSI
100
AcDbLine
 62
7
  6
CONTINUOUS
 10
-3.305724202
 20
-17.3363908257
 11
-7.1948114986
 21
-15.3918471775
  0
LINE
  5
2A2
100
AcDbEntity
  8
ASSI
100
AcDbLine
 62
7
  6
CONTINUOUS
 10
12.816310409
 20
-25.1852760969
 11
8.9272231125
 21
-23.2407324486
  0
LINE
  5
2A3
100
AcDbEntity
  8
ASSI
100
AcDbLine
 62
7
  6
CONTINUOUS
 10
-3.0935921677
 20
-17.2303248086
 11
-6.9826794642
 21
-15.2857811603
  0
LINE
  5
2A4
100
AcDbEntity
  8
ASSI
100
AcDbLine
 62
7
  6
CONTINUOUS
 10
12.9577317652
 20
-25.1145654188
 11
9.0686444687
 21
-23.1700217705
  0
LINE
  5
2A5
100
AcDbEntity
  8
ASSI
100
AcDbLine
 62
7
  6
CONTINUOUS
 10
-2.9521708115
 20
-17.1596141304
 11
-6.841258108
 21
-15.2150704822
  0
LINE
  5
2A6
100
AcDbEntity
  8
ASSI
100
AcDbLine
 62
7
  6
CONTINUOUS
 10
12.9769804053
 20
-24.9120577045
 11
9.2807765031
 21
-23.0639557533
  0
LINE
  5
2A7
100
AcDbEntity
  8
ASSI
100
AcDbLine
 62
7
  6
CONTINUOUS
 10
-2.7400387771
 20
-17.0535481133
 11
-6.6291260736
 21
-15.109004465
  0
LINE
  5
2A8
100
AcDbEntity
  8
ASSI
100
AcDbLine
 62
7
  6
CONTINUOUS
 10
-6.5658269747
 20
-15.0230704516
 11
-6.5115425108
 21
-15.0502126836
  0
LINE
  5
2A9
100
AcDbEntity
  8
ASSI
100
AcDbLine
 62
7
  6
CONTINUOUS
 10
-2.4925514037
 20
-17.0597082371
 11
-2.3083631292
 21
-17.1518023744
  0
LINE
  5
2AA
100
AcDbEntity
  8
ASSI
100
AcDbLine
 62
7
  6
CONTINUOUS
 10
9.344075602
 20
-22.9780217399
 11
9.3983600659
 21
-23.0051639719
  0
LINE
  5
2AB
100
AcDbEntity
  8
ASSI
100
AcDbLine
 62
7
  6
CONTINUOUS
 10
12.9769804053
 20
-24.7706363482
 11
9.4221978593
 21
-22.9932450752
  0
LINE
  5
2AC
100
AcDbEntity
  8
ASSI
100
AcDbLine
 62
7
  6
CONTINUOUS
 10
-2.5986174209
 20
-16.9828374351
 11
-6.4877047174
 21
-15.0382937869
  0
LINE
  5
2AD
100
AcDbEntity
  8
ASSI
100
AcDbLine
 62
7
  6
CONTINUOUS
 10
-6.4440244524
 20
-15.0335699957
 11
-2.2512802132
 21
-17.1299421154
  0
LINE
  5
2AE
100
AcDbEntity
  8
ASSI
100
AcDbLine
 62
7
  6
CONTINUOUS
 10
9.4658781242
 20
-22.9885212841
 11
12.9769804053
 21
-24.7440724246
  0
LINE
  5
2AF
100
AcDbEntity
  8
ASSI
100
AcDbLine
 62
7
  6
CONTINUOUS
 10
-4.0128309832
 20
-17.6899442163
 11
-3.9067649661
 21
-17.7668150183
  0
LINE
  5
2B0
100
AcDbEntity
  8
ASSI
100
AcDbLine
 62
7
  6
CONTINUOUS
 10
-3.6592775926
 20
-17.513167521
 11
-3.5532115755
 21
-17.590038323
  0
LINE
  5
2B1
100
AcDbEntity
  8
ASSI
100
AcDbLine
 62
7
  6
CONTINUOUS
 10
-3.305724202
 20
-17.3363908257
 11
-3.1996581849
 21
-17.4132616277
  0
LINE
  5
2B2
100
AcDbEntity
  8
ASSI
100
AcDbLine
 62
7
  6
CONTINUOUS
 10
-2.9521708115
 20
-17.1596141304
 11
-2.8461047943
 21
-17.2364849324
  0
LINE
  5
2B3
100
AcDbEntity
  8
ASSI
100
AcDbLine
 62
7
  6
CONTINUOUS
 10
-2.5986174209
 20
-16.9828374351
 11
-2.4925514037
 21
-17.0597082371
  0
LINE
  5
2B4
100
AcDbEntity
  8
ASSI
100
AcDbLine
 62
7
  6
CONTINUOUS
 10
11.8970715935
 20
-25.6448955047
 11
12.0031376106
 21
-25.7217663067
  0
LINE
  5
2B5
100
AcDbEntity
  8
ASSI
100
AcDbLine
 62
7
  6
CONTINUOUS
 10
12.2506249841
 20
-25.4681188094
 11
12.3566910012
 21
-25.5449896114
  0
LINE
  5
2B6
100
AcDbEntity
  8
ASSI
100
AcDbLine
 62
7
  6
CONTINUOUS
 10
12.6041783747
 20
-25.2913421141
 11
12.7102443918
 21
-25.3682129161
  0
LINE
  5
2B7
100
AcDbEntity
  8
RACCORDO
100
AcDbLine
 62
7
  6
CONTINUOUS
 10
-10.4828580311
 20
-14.9070045514
 11
-10.4828580311
 21
-15.3779046067
  0
LINE
  5
2B8
100
AcDbEntity
  8
RACCORDO
100
AcDbLine
 62
7
  6
CONTINUOUS
 10
-16.2811336368
 20
2.3548989271
 11
-15.4194887493
 21
2.7822811434
  0
LINE
  5
2B9
100
AcDbEntity
  8
RACCORDO
100
AcDbLine
 62
7
  6
CONTINUOUS
 10
-16.2909399866
 20
2.0360209443
 11
-15.2780889323
 21
2.5384025341
  0
LINE
  5
2BA
100
AcDbEntity
  8
RACCORDO
100
AcDbLine
 62
7
  6
CONTINUOUS
 10
-15.8806632391
 20
2.9768651871
 11
-16.2811336368
 21
2.7919146863
  0
LINE
  5
2BB
100
AcDbEntity
  8
RACCORDO
100
AcDbLine
 62
7
  6
CONTINUOUS
 10
-15.7943393541
 20
2.9697064458
 11
-16.2811336368
 21
2.7448887142
  0
LINE
  5
2BC
100
AcDbEntity
  8
RACCORDO
100
AcDbLine
 62
7
  6
CONTINUOUS
 10
-16.8566931376
 20
1.8425348884
 11
-16.2811336368
 21
2.1083473392
  0
LINE
  5
2BD
100
AcDbEntity
  8
RACCORDO
100
AcDbLine
 62
7
  6
CONTINUOUS
 10
-16.9378304821
 20
1.6787605095
 11
-16.3622709814
 21
1.9445729603
  0
LINE
  5
2BE
100
AcDbEntity
  8
RACCORDO
100
AcDbLine
 62
7
  6
CONTINUOUS
 10
-16.5652429224
 20
-4.1422545738
 11
-17.0493859466
 21
-3.9001830617
  0
LINE
  5
2BF
100
AcDbEntity
  8
RACCORDO
100
AcDbLine
 62
7
  6
CONTINUOUS
 10
-17.0493859466
 20
-2.7688122118
 11
-16.7531494955
 21
-2.9169304374
  0
LINE
  5
2C0
100
AcDbEntity
  8
ASSI
100
AcDbLine
 62
7
  6
CONTINUOUS
 10
12.9577317652
 20
-25.1145654188
 11
12.9769804053
 21
-25.128515772
  0
LINE
  5
2C1
100
AcDbEntity
  8
0
100
AcDbLine
 62
7
  6
CONTINUOUS
 10
-4.214105393
 20
-22.5012970155
 11
-3.8505132074
 21
-23.8705395106
  0
LINE
  5
2C2
100
AcDbEntity
  8
0
100
AcDbLine
 62
7
  6
CONTINUOUS
 10
-3.8270867597
 20
-23.0733893374
 11
-4.1337490712
 21
-21.9104215172
  0
LINE
  5
2C3
100
AcDbEntity
  8
0
100
AcDbLine
 62
7
  6
CONTINUOUS
 10
-3.7344092681
 20
-22.8178253408
 11
-3.992327715
 21
-21.8397108391
  0
LINE
  5
2C4
100
AcDbEntity
  8
IMPORT_IGES
100
AcDbLine
 62
7
  6
CONTINUOUS
 10
-3.992327715
 20
-21.8397108391
 11
-3.7344092681
 21
-22.8178253408
  0
LINE
  5
2C5
100
AcDbEntity
  8
0
100
AcDbLine
 62
7
  6
CONTINUOUS
 10
-6.3904153096
 20
-20.782088398
 11
-5.9197049319
 21
-22.8359436483
  0
LINE
  5
2C6
100
AcDbEntity
  8
0
100
AcDbLine
 62
7
  6
CONTINUOUS
 10
-5.7706991484
 20
-22.3436762146
 11
-6.0537292441
 21
-20.9504314307
  0
LINE
  5
2C7
100
AcDbEntity
  8
IMPORT_IGES
100
AcDbLine
 62
7
  6
CONTINUOUS
 10
-5.9123078879
 20
-20.8797207526
 11
-5.6826958103
 21
-22.0100098426
  0
LINE
  5
2C8
100
AcDbEntity
  8
0
100
AcDbLine
 62
7
  6
CONTINUOUS
 10
-5.6826958103
 20
-22.0100098426
 11
-5.9123078879
 21
-20.8797207526
  0
LINE
  5
2C9
100
AcDbEntity
  8
0
100
AcDbLine
 62
7
  6
CONTINUOUS
 10
-3.0716541798
 20
-24.2599690244
 11
-3.210499546
 21
-22.3720462798
  0
LINE
  5
2CA
100
AcDbEntity
  8
0
100
AcDbLine
 62
7
  6
CONTINUOUS
 10
-2.9432164483
 20
-24.0127160448
 11
-3.0690781898
 21
-22.3013356017
  0
LINE
  5
2CB
100
AcDbEntity
  8
IMPORT_IGES
100
AcDbLine
 62
7
  6
CONTINUOUS
 10
-3.0690781898
 20
-22.3013356017
 11
-2.9432164483
 21
-24.0127160448
  0
LINE
  5
2CC
100
AcDbEntity
  8
0
100
AcDbLine
 62
7
  6
CONTINUOUS
 10
-3.4385308764
 20
-22.894034475
 11
-3.3748537894
 21
-24.1083692196
  0
LINE
  5
2CD
100
AcDbEntity
  8
0
100
AcDbLine
 62
7
  6
CONTINUOUS
 10
-5.0542818922
 20
-21.4500459875
 11
-5.0542818922
 21
-23.2686551682
  0
LINE
  5
2CE
100
AcDbEntity
  8
0
100
AcDbLine
 62
7
  6
CONTINUOUS
 10
-4.7443456763
 20
-23.4236232761
 11
-4.7443456763
 21
-21.6050140955
  0
LINE
  5
2CF
100
AcDbEntity
  8
0
100
AcDbLine
 62
7
  6
CONTINUOUS
 10
-4.6029243201
 20
-23.352912598
 11
-4.6029243201
 21
-21.5343034174
  0
LINE
  5
2D0
100
AcDbEntity
  8
IMPORT_IGES
100
AcDbLine
 62
7
  6
CONTINUOUS
 10
-4.6029243201
 20
-23.352912598
 11
-4.6029243201
 21
-21.5343034174
  0
LINE
  5
2D1
100
AcDbEntity
  8
DRAFT
100
AcDbLine
 62
7
  6
CONTINUOUS
 10
-17.0493859466
 20
-4.3554281529
 11
-17.5854250547
 21
-4.6530940238
  0
LINE
  5
2D2
100
AcDbEntity
  8
RACCORDO
100
AcDbLine
 62
7
  6
CONTINUOUS
 10
-16.6067028861
 20
-1.7985042541
 11
-15.2780889323
 21
-1.0816865454
  0
LINE
  5
2D3
100
AcDbEntity
  8
RACCORDO
100
AcDbLine
 62
7
  6
CONTINUOUS
 10
-16.6067028861
 20
-1.8786701951
 11
-15.3269921282
 21
-1.1882368825
  0
LINE
  5
2D4
100
AcDbEntity
  8
RACCORDO
100
AcDbLine
 62
7
  6
CONTINUOUS
 10
-17.0493859466
 20
-2.5578941496
 11
-16.7470329859
 21
-2.4013463215
  0
LINE
  5
2D5
100
AcDbEntity
  8
RACCORDO
100
AcDbLine
 62
7
  6
CONTINUOUS
 10
-16.9463631155
 20
-3.3705779211
 11
-16.7470329859
 21
-3.2673717253
  0
LINE
  5
2D6
100
AcDbEntity
  8
RACCORDO
100
AcDbLine
 62
7
  6
CONTINUOUS
 10
14.6928021707
 20
12.2618143223
 11
16.0994952907
 21
12.9705845789
  0
LINE
  5
2D7
100
AcDbEntity
  8
RACCORDO
100
AcDbLine
 62
7
  6
CONTINUOUS
 10
31.6253507886
 20
24.1002004734
 11
34.4184225743
 21
25.4967363662
  0
LINE
  5
2D8
100
AcDbEntity
  8
RACCORDO
100
AcDbLine
 62
7
  6
CONTINUOUS
 10
32.3324575698
 20
22.880621679
 11
35.1255293554
 21
24.2771575719
  0
LINE
  5
2D9
100
AcDbEntity
  8
RACCORDO
100
AcDbLine
 62
7
  6
CONTINUOUS
 10
-15.3325147635
 20
2.7867541045
 11
-15.3325852082
 21
2.7867892799
  0
LINE
  5
2DA
100
AcDbEntity
  8
RACCORDO
100
AcDbLine
 62
7
  6
CONTINUOUS
 10
-15.7943393541
 20
2.9697064458
 11
-15.4194887493
 21
2.7822811434
  0
LINE
  5
2DB
100
AcDbEntity
  8
RACCORDO
100
AcDbLine
 62
7
  6
CONTINUOUS
 10
-15.707364778
 20
2.9741791117
 11
-15.3325141732
 21
2.7867538094
  0
LINE
  5
2DC
100
AcDbEntity
  8
0
100
AcDbLine
 62
7
  6
CONTINUOUS
 10
-1.8018593993
 20
-24.8948664146
 11
-2.2574327421
 21
-22.8485796818
  0
LINE
  5
2DD
100
AcDbEntity
  8
0
100
AcDbLine
 62
7
  6
CONTINUOUS
 10
-1.7108470661
 20
-24.5977348614
 11
-2.1160113858
 21
-22.7778690037
  0
LINE
  5
2DE
100
AcDbEntity
  8
IMPORT_IGES
100
AcDbLine
 62
7
  6
CONTINUOUS
 10
-2.1160113858
 20
-22.7778690037
 11
-1.7108470661
 21
-24.5977348614
  0
LINE
  5
2DF
100
AcDbEntity
  8
0
100
AcDbLine
 62
7
  6
CONTINUOUS
 10
-2.2088085443
 20
-24.3283548589
 11
-2.1285186906
 21
-24.731536769
  0
LINE
  5
2E0
100
AcDbEntity
  8
0
100
AcDbLine
 62
7
  6
CONTINUOUS
 10
-2.413168768
 20
-23.2703892742
 11
-2.270748977
 21
-24.0164676522
  0
LINE
  5
2E1
100
AcDbEntity
  8
ASSI
100
AcDbLine
 62
7
  6
CONTINUOUS
 10
-2.3013495993
 20
-17.1481450889
 11
-2.3013495993
 21
-17.6602712238
  0
LINE
  5
2E2
100
AcDbEntity
  8
ASSI
100
AcDbLine
 62
7
  6
CONTINUOUS
 10
-2.2499785644
 20
-17.132386657
 11
-2.2499785644
 21
-17.6429374416
  0
LINE
  5
2E3
100
AcDbEntity
  8
0
100
AcDbLine
 62
7
  6
CONTINUOUS
 10
-1.7108470661
 20
-23.1431185804
 11
-1.7108470661
 21
-24.9403729257
  0
LINE
  5
2E4
100
AcDbEntity
  8
0
100
AcDbLine
 62
7
  6
CONTINUOUS
 10
-1.4124352765
 20
-24.0800917578
 11
-1.4124352765
 21
-23.5808779252
  0
LINE
  5
2E5
100
AcDbEntity
  8
0
100
AcDbLine
 62
7
  6
CONTINUOUS
 10
-1.4021582689
 20
-25.0947173243
 11
-1.4021582689
 21
-24.3830566959
  0
LINE
  5
2E6
100
AcDbEntity
  8
0
100
AcDbLine
 62
7
  6
CONTINUOUS
 10
-1.2710139203
 20
-24.0093810797
 11
-1.2710139203
 21
-23.6346045858
  0
LINE
  5
2E7
100
AcDbEntity
  8
IMPORT_IGES
100
AcDbLine
 62
7
  6
CONTINUOUS
 10
-1.2710139203
 20
-24.0093810797
 11
-1.2710139203
 21
-23.6346045858
  0
LINE
  5
2E8
100
AcDbEntity
  8
0
100
AcDbLine
 62
7
  6
CONTINUOUS
 10
-1.2607369127
 20
-25.0240066461
 11
-1.2607369127
 21
-24.453767374
  0
LINE
  5
2E9
100
AcDbEntity
  8
IMPORT_IGES
100
AcDbLine
 62
7
  6
CONTINUOUS
 10
-1.2607369127
 20
-25.0240066461
 11
-1.2607369127
 21
-24.453767374
  0
LINE
  5
2EA
100
AcDbEntity
  8
0
100
AcDbLine
 62
7
  6
CONTINUOUS
 10
-0.9140171076
 20
-24.4899280204
 11
-0.9140171076
 21
-24.4791822681
  0
LINE
  5
2EB
100
AcDbEntity
  8
0
100
AcDbLine
 62
7
  6
CONTINUOUS
 10
-4.2809899163
 20
-23.6553011561
 11
-4.214105393
 21
-22.5012970155
  0
LINE
  5
2EC
100
AcDbEntity
  8
0
100
AcDbLine
 62
7
  6
CONTINUOUS
 10
-4.1395685601
 20
-23.584590478
 11
-4.1013852041
 21
-22.9257870863
  0
LINE
  5
2ED
100
AcDbEntity
  8
IMPORT_IGES
100
AcDbLine
 62
7
  6
CONTINUOUS
 10
-4.1013852041
 20
-22.9257870863
 11
-4.1395685601
 21
-23.584590478
  0
LINE
  5
2EE
100
AcDbEntity
  8
0
100
AcDbLine
 62
7
  6
CONTINUOUS
 10
-4.4434286074
 20
-21.7555817491
 11
-4.5774974673
 21
-23.5070473806
  0
LINE
  5
2EF
100
AcDbEntity
  8
0
100
AcDbLine
 62
7
  6
CONTINUOUS
 10
-5.4790239651
 20
-21.2377840703
 11
-5.7706991484
 21
-22.3436762146
  0
LINE
  5
2F0
100
AcDbEntity
  8
ASSI
100
AcDbLine
 62
7
  6
CONTINUOUS
 10
-8.7839090303
 20
-16.2273791071
 11
-8.7504464172
 21
-16.1696646368
  0
LINE
  5
2F1
100
AcDbEntity
  8
RACCORDO
100
AcDbLine
 62
7
  6
CONTINUOUS
 10
-19.2022209966
 20
-13.6461972106
 11
-18.0166299614
 21
-12.7817264495
  0
LINE
  5
2F2
100
AcDbEntity
  8
RACCORDO
100
AcDbLine
 62
7
  6
CONTINUOUS
 10
-19.3628024879
 20
-13.2542070953
 11
-18.1865430754
 21
-12.3966488859
  0
LINE
  5
2F3
100
AcDbEntity
  8
RACCORDO
100
AcDbLine
 62
7
  6
CONTINUOUS
 10
15.1877015304
 20
11.4082391897
 11
16.5943946504
 21
12.1170094463
  0
LINE
  5
2F4
100
AcDbEntity
  8
RACCORDO
100
AcDbLine
 62
7
  6
CONTINUOUS
 10
-16.5652429224
 20
-4.1422545738
 11
-17.3335652373
 21
-4.5132346912
  0
LINE
  5
2F5
100
AcDbEntity
  8
RACCORDO
100
AcDbLine
 62
7
  6
CONTINUOUS
 10
-16.3530785744
 20
-4.5081443689
 11
-17.2883627632
 21
-4.9597410901
  0
LINE
  5
2F6
100
AcDbEntity
  8
DRAFT
100
AcDbLine
 62
7
  6
CONTINUOUS
 10
-2.8278172452
 20
-18.216813825
 11
-2.7707735933
 21
-17.9845999515
  0
LINE
  5
2F7
100
AcDbEntity
  8
0
100
AcDbLine
 62
7
  6
CONTINUOUS
 10
-2.5674905804
 20
-23.8680968505
 11
-2.413168768
 21
-23.2703892742
  0
LINE
  5
2F8
100
AcDbEntity
  8
0
100
AcDbLine
 62
7
  6
CONTINUOUS
 10
-2.4260692241
 20
-23.7973861724
 11
-2.3608150621
 21
-23.5446486854
  0
LINE
  5
2F9
100
AcDbEntity
  8
IMPORT_IGES
100
AcDbLine
 62
7
  6
CONTINUOUS
 10
-2.3608150621
 20
-23.5446486854
 11
-2.4260692241
 21
-23.7973861724
  0
LINE
  5
2FA
100
AcDbEntity
  8
0
100
AcDbLine
 62
7
  6
CONTINUOUS
 10
-2.7164129253
 20
-24.4375896516
 11
-2.6308897744
 21
-24.1173142439
  0
LINE
  5
2FB
100
AcDbEntity
  8
0
100
AcDbLine
 62
7
  6
CONTINUOUS
 10
-2.5749915691
 20
-24.3668789735
 11
-2.5227840321
 21
-24.171367115
  0
LINE
  5
2FC
100
AcDbEntity
  8
IMPORT_IGES
100
AcDbLine
 62
7
  6
CONTINUOUS
 10
-2.5227840321
 20
-24.171367115
 11
-2.5749915691
 21
-24.3668789735
  0
LINE
  5
2FD
100
AcDbEntity
  8
0
100
AcDbLine
 62
7
  6
CONTINUOUS
 10
-2.5572580381
 20
-22.6986670338
 11
-3.0229861414
 21
-24.2843030436
  0
LINE
  5
2FE
100
AcDbEntity
  8
0
100
AcDbLine
 62
7
  6
CONTINUOUS
 10
-5.646573624
 20
-22.9725093023
 11
-5.1692991741
 21
-21.3926464658
  0
LINE
  5
2FF
100
AcDbEntity
  8
0
100
AcDbLine
 62
7
  6
CONTINUOUS
 10
-5.5051522678
 20
-22.9017986242
 11
-5.0278778179
 21
-21.3219357876
  0
LINE
  5
300
100
AcDbEntity
  8
IMPORT_IGES
100
AcDbLine
 62
7
  6
CONTINUOUS
 10
-5.0278778179
 20
-21.3219357876
 11
-5.5051522678
 21
-22.9017986242
  0
LINE
  5
301
100
AcDbEntity
  8
0
100
AcDbLine
 62
7
  6
CONTINUOUS
 10
-3.5171505438
 20
-22.2187207809
 11
-3.8270867597
 21
-23.0733893374
  0
LINE
  5
302
100
AcDbEntity
  8
0
100
AcDbLine
 62
7
  6
CONTINUOUS
 10
-3.8070452322
 20
-23.8922734982
 11
-3.4385308764
 21
-22.894034475
  0
LINE
  5
303
100
AcDbEntity
  8
0
100
AcDbLine
 62
7
  6
CONTINUOUS
 10
-3.665623876
 20
-23.82156282
 11
-3.4241879759
 21
-23.1675564475
  0
LINE
  5
304
100
AcDbEntity
  8
IMPORT_IGES
100
AcDbLine
 62
7
  6
CONTINUOUS
 10
-3.4241879759
 20
-23.1675564475
 11
-3.665623876
 21
-23.82156282
  0
LINE
  5
305
100
AcDbEntity
  8
ASSI
100
AcDbLine
 62
7
  6
CONTINUOUS
 10
-8.4922442001
 20
-16.1573443891
 11
-8.3968930266
 21
-15.9928879415
  0
LINE
  5
306
100
AcDbEntity
  8
ASSI
100
AcDbLine
 62
7
  6
CONTINUOUS
 10
-8.1386908096
 20
-15.9805676938
 11
-8.043339636
 21
-15.8161112462
  0
LINE
  5
307
100
AcDbEntity
  8
ASSI
100
AcDbLine
 62
7
  6
CONTINUOUS
 10
-7.785137419
 20
-15.8037909985
 11
-7.6897862454
 21
-15.6393345509
  0
LINE
  5
308
100
AcDbEntity
  8
ASSI
100
AcDbLine
 62
7
  6
CONTINUOUS
 10
-7.4315840284
 20
-15.6270143032
 11
-7.3362328548
 21
-15.4625578556
  0
LINE
  5
309
100
AcDbEntity
  8
ASSI
100
AcDbLine
 62
7
  6
CONTINUOUS
 10
-7.0780306378
 20
-15.4502376079
 11
-6.9826794642
 21
-15.2857811603
  0
LINE
  5
30A
100
AcDbEntity
  8
ASSI
100
AcDbLine
 62
7
  6
CONTINUOUS
 10
-6.7244772472
 20
-15.2734609126
 11
-6.6291260736
 21
-15.109004465
  0
LINE
  5
30B
100
AcDbEntity
  8
DRAFT
100
AcDbLine
 62
7
  6
CONTINUOUS
 10
-17.0493859466
 20
-10.8506186813
 11
-17.5854250547
 21
-11.1482845522
  0
LINE
  5
30C
100
AcDbEntity
  8
RACCORDO
100
AcDbLine
 62
7
  6
CONTINUOUS
 10
-18.1266599719
 20
-12.3596583264
 11
-17.8312143878
 21
-12.2107964037
  0
LINE
  5
30D
100
AcDbEntity
  8
RACCORDO
100
AcDbLine
 62
7
  6
CONTINUOUS
 10
-16.8566931376
 20
-12.0380184497
 11
-16.2811336368
 21
-11.7480195514
  0
LINE
  5
30E
100
AcDbEntity
  8
RACCORDO
100
AcDbLine
 62
7
  6
CONTINUOUS
 10
-17.8826787818
 20
-12.7094125848
 11
-17.6191146622
 21
-12.5766143177
  0
LINE
  5
30F
100
AcDbEntity
  8
RACCORDO
100
AcDbLine
 62
7
  6
CONTINUOUS
 10
-15.9276565814
 20
-11.5727245058
 11
-16.2811013281
 21
-11.7480357058
  0
LINE
  5
310
100
AcDbEntity
  8
RACCORDO
100
AcDbLine
 62
7
  6
CONTINUOUS
 10
-15.7155568558
 20
-11.9385424198
 11
-15.8081922365
 21
-11.9844902515
  0
LINE
  5
311
100
AcDbEntity
  8
RACCORDO
100
AcDbLine
 62
7
  6
CONTINUOUS
 10
-17.8290127698
 20
-12.215311893
 11
-17.0493859466
 21
-11.8351890851
  0
LINE
  5
312
100
AcDbEntity
  8
RACCORDO
100
AcDbLine
 62
7
  6
CONTINUOUS
 10
-17.6171382454
 20
-12.5806679222
 11
-16.8375446318
 21
-12.2005613063
  0
LINE
  5
313
100
AcDbEntity
  8
RACCORDO
100
AcDbLine
 62
7
  6
CONTINUOUS
 10
-17.2883627632
 20
-10.5023036743
 11
-16.3530785744
 21
-10.0507069531
  0
LINE
  5
314
100
AcDbEntity
  8
RACCORDO
100
AcDbLine
 62
7
  6
CONTINUOUS
 10
-17.3677450578
 20
-10.6652487667
 11
-16.4324608691
 21
-10.2136520455
  0
LINE
  5
315
100
AcDbEntity
  8
RACCORDO
100
AcDbLine
 62
7
  6
CONTINUOUS
 10
-17.0493859466
 20
-11.304223546
 11
-16.4932979848
 21
-11.0357195947
  0
LINE
  5
316
100
AcDbEntity
  8
RACCORDO
100
AcDbLine
 62
7
  6
CONTINUOUS
 10
-16.8566931376
 20
-11.6795150644
 11
-16.2811336368
 21
-11.4016093899
  0
LINE
  5
317
100
AcDbEntity
  8
RACCORDO
100
AcDbLine
 62
7
  6
CONTINUOUS
 10
5.4270445456
 20
-22.8619558397
 11
5.4270445456
 21
-23.332855895
  0
LINE
  5
318
100
AcDbEntity
  8
ASSI
100
AcDbLine
 62
7
  6
CONTINUOUS
 10
-4.1770888032
 20
-17.8000419682
 11
-4.1542523395
 21
-17.7606548945
  0
LINE
  5
319
100
AcDbEntity
  8
ASSI
100
AcDbLine
 62
7
  6
CONTINUOUS
 10
-3.9067649661
 20
-17.7668150183
 11
-3.8006989489
 21
-17.5838781992
  0
LINE
  5
31A
100
AcDbEntity
  8
ASSI
100
AcDbLine
 62
7
  6
CONTINUOUS
 10
-3.5532115755
 20
-17.590038323
 11
-3.4471455583
 21
-17.4071015039
  0
LINE
  5
31B
100
AcDbEntity
  8
ASSI
100
AcDbLine
 62
7
  6
CONTINUOUS
 10
-3.1996581849
 20
-17.4132616277
 11
-3.0935921677
 21
-17.2303248086
  0
LINE
  5
31C
100
AcDbEntity
  8
ASSI
100
AcDbLine
 62
7
  6
CONTINUOUS
 10
-2.8461047943
 20
-17.2364849324
 11
-2.7400387771
 21
-17.0535481133
  0
LINE
  5
31D
100
AcDbEntity
  8
RACCORDO
100
AcDbLine
 62
7
  6
CONTINUOUS
 10
-11.2606754904
 20
-14.8360272733
 11
-10.6949900654
 21
-14.5410913371
  0
LINE
  5
31E
100
AcDbEntity
  8
RACCORDO
100
AcDbLine
 62
7
  6
CONTINUOUS
 10
-10.9439018902
 20
-15.1473826771
 11
-10.4828580311
 21
-14.9070045514
  0
LINE
  5
31F
100
AcDbEntity
  8
RACCORDO
100
AcDbLine
 62
7
  6
CONTINUOUS
 10
-17.0493859466
 20
14.3570610959
 11
-16.4932333624
 21
14.0789848038
  0
LINE
  5
320
100
AcDbEntity
  8
RACCORDO
100
AcDbLine
 62
7
  6
CONTINUOUS
 10
12.9769804053
 20
10.0023864989
 11
12.9769804053
 21
-29.537261896
  0
LINE
  5
321
100
AcDbEntity
  8
RACCORDO
100
AcDbLine
 62
7
  6
CONTINUOUS
 10
13.064848371
 20
9.8963204817
 11
13.064848371
 21
-29.6433279349
  0
LWPOLYLINE
  5
322
100
AcDbEntity
  8
RACCORDO
100
AcDbPolyline
 62
7
  6
CONTINUOUS
 90
8
 70
0
 10
12.9769799577
 20
-29.5373999832
 10
12.976838982
 20
-29.5478567321
 10
12.9759404099
 20
-29.5652461853
 10
12.974270071
 20
-29.5811859804
 10
12.9719619226
 20
-29.5952453736
 10
12.9693199597
 20
-29.6066974621
 10
12.9666825239
 20
-29.6153341619
 10
12.9661835676
 20
-29.6167304338
  0
LINE
  5
323
100
AcDbEntity
  8
ASSI
100
AcDbLine
 62
7
  6
CONTINUOUS
 10
-2.5632620818
 20
-17.8788607562
 11
-2.3085572082
 21
-17.6942647053
  0
LINE
  5
324
100
AcDbEntity
  8
ASSI
100
AcDbLine
 62
7
  6
CONTINUOUS
 10
-2.3083631292
 20
-17.1518023744
 11
-3.8080248811
 21
-17.9845739292
  0
LINE
  5
325
100
AcDbEntity
  8
RACCORDO
100
AcDbLine
 62
7
  6
CONTINUOUS
 10
-5.8104052464
 20
-17.0436819818
 11
-6.3760906713
 21
-17.3386179179
  0
LINE
  5
326
100
AcDbEntity
  8
RACCORDO
100
AcDbLine
 62
7
  6
CONTINUOUS
 10
-5.674531919
 20
-17.0513204103
 11
-6.240217344
 21
-17.3462563465
  0
LINE
  5
327
100
AcDbEntity
  8
ASSI
100
AcDbLine
 62
7
  6
CONTINUOUS
 10
-8.7504464172
 20
-16.1696646368
 11
-8.6090250609
 21
-16.0989539587
  0
LINE
  5
328
100
AcDbEntity
  8
ASSI
100
AcDbLine
 62
7
  6
CONTINUOUS
 10
-8.3968930266
 20
-15.9928879415
 11
-8.2554716704
 21
-15.9221772634
  0
LINE
  5
329
100
AcDbEntity
  8
ASSI
100
AcDbLine
 62
7
  6
CONTINUOUS
 10
-8.043339636
 20
-15.8161112462
 11
-7.9019182798
 21
-15.7454005681
  0
LINE
  5
32A
100
AcDbEntity
  8
ASSI
100
AcDbLine
 62
7
  6
CONTINUOUS
 10
-7.6897862454
 20
-15.6393345509
 11
-7.5483648892
 21
-15.5686238728
  0
LINE
  5
32B
100
AcDbEntity
  8
ASSI
100
AcDbLine
 62
7
  6
CONTINUOUS
 10
-7.3362328548
 20
-15.4625578556
 11
-7.1948114986
 21
-15.3918471775
  0
LINE
  5
32C
100
AcDbEntity
  8
ASSI
100
AcDbLine
 62
7
  6
CONTINUOUS
 10
-6.9826794642
 20
-15.2857811603
 11
-6.841258108
 21
-15.2150704822
  0
LINE
  5
32D
100
AcDbEntity
  8
ASSI
100
AcDbLine
 62
7
  6
CONTINUOUS
 10
-6.6291260736
 20
-15.109004465
 11
-6.4877047174
 21
-15.0382937869
  0
LINE
  5
32E
100
AcDbEntity
  8
ASSI
100
AcDbLine
 62
7
  6
CONTINUOUS
 10
-4.1542523395
 20
-17.7606548945
 11
-4.0128309832
 21
-17.6899442163
  0
LINE
  5
32F
100
AcDbEntity
  8
ASSI
100
AcDbLine
 62
7
  6
CONTINUOUS
 10
-3.8006989489
 20
-17.5838781992
 11
-3.6592775926
 21
-17.513167521
  0
LINE
  5
330
100
AcDbEntity
  8
ASSI
100
AcDbLine
 62
7
  6
CONTINUOUS
 10
-3.4471455583
 20
-17.4071015039
 11
-3.305724202
 21
-17.3363908257
  0
LINE
  5
331
100
AcDbEntity
  8
ASSI
100
AcDbLine
 62
7
  6
CONTINUOUS
 10
-3.0935921677
 20
-17.2303248086
 11
-2.9521708115
 21
-17.1596141304
  0
LINE
  5
332
100
AcDbEntity
  8
ASSI
100
AcDbLine
 62
7
  6
CONTINUOUS
 10
-2.7400387771
 20
-17.0535481133
 11
-2.5986174209
 21
-16.9828374351
  0
LINE
  5
333
100
AcDbEntity
  8
ASSI
100
AcDbLine
 62
7
  6
CONTINUOUS
 10
-2.4925514037
 20
-17.0597082371
 11
-4.0751538345
 21
-17.8510094525
  0
LINE
  5
334
100
AcDbEntity
  8
ASSI
100
AcDbLine
 62
7
  6
CONTINUOUS
 10
-6.5658269747
 20
-15.0230704516
 11
-9.0004141776
 21
-16.1191265334
  0
LINE
  5
335
100
AcDbEntity
  8
RACCORDO
100
AcDbLine
 62
7
  6
CONTINUOUS
 10
-15.3325147635
 20
21.1031913945
 11
-15.3325852082
 21
21.1032265699
  0
LINE
  5
336
100
AcDbEntity
  8
RACCORDO
100
AcDbLine
 62
7
  6
CONTINUOUS
 10
-17.5005271112
 20
19.654860011
 11
-17.5854250547
 21
19.6973089828
  0
LINE
  5
337
100
AcDbEntity
  8
DRAFT
100
AcDbLine
 62
7
  6
CONTINUOUS
 10
-17.400461005
 20
19.6358079804
 11
-17.0493859466
 21
19.4602704512
  0
LINE
  5
338
100
AcDbEntity
  8
RACCORDO
100
AcDbLine
 62
7
  6
CONTINUOUS
 10
-15.7943393541
 20
21.2861437358
 11
-15.4194887493
 21
21.0987184335
  0
LINE
  5
339
100
AcDbEntity
  8
RACCORDO
100
AcDbLine
 62
7
  6
CONTINUOUS
 10
-15.707364778
 20
21.2906164018
 11
-15.3325141732
 21
21.1031910994
  0
LINE
  5
33A
100
AcDbEntity
  8
RACCORDO
100
AcDbLine
 62
7
  6
CONTINUOUS
 10
14.7671719849
 20
-32.8594052097
 11
14.7671719849
 21
11.4128706506
  0
LINE
  5
33B
100
AcDbEntity
  8
RACCORDO
100
AcDbLine
 62
7
  6
CONTINUOUS
 10
15.1877015304
 20
-32.8612401626
 11
15.1877015304
 21
11.4082391897
  0
LINE
  5
33C
100
AcDbEntity
  8
RACCORDO
100
AcDbLine
 62
7
  6
CONTINUOUS
 10
16.5943946504
 20
-32.2115826636
 11
16.5943946504
 21
12.1170094463
  0
LINE
  5
33D
100
AcDbEntity
  8
ASSI
100
AcDbLine
 62
7
  6
CONTINUOUS
 10
7.1259935464
 20
-24.1823303954
 11
7.1594561595
 21
-24.1246159251
  0
LINE
  5
33E
100
AcDbEntity
  8
ASSI
100
AcDbLine
 62
7
  6
CONTINUOUS
 10
7.4176583765
 20
-24.1122956774
 11
7.5130095501
 21
-23.9478392298
  0
LINE
  5
33F
100
AcDbEntity
  8
ASSI
100
AcDbLine
 62
7
  6
CONTINUOUS
 10
7.7712117671
 20
-23.9355189821
 11
7.8665629407
 21
-23.7710625345
  0
LINE
  5
340
100
AcDbEntity
  8
ASSI
100
AcDbLine
 62
7
  6
CONTINUOUS
 10
-2.5632620818
 20
-17.8788607562
 11
-3.2844632587
 21
-18.2463547404
  0
LINE
  5
341
100
AcDbEntity
  8
DRAFT
100
AcDbLine
 62
7
  6
CONTINUOUS
 10
-3.0142444352
 20
-18.3814641522
 11
-2.9071162165
 21
-18.3276040837
  0
LINE
  5
342
100
AcDbEntity
  8
DRAFT
100
AcDbLine
 62
7
  6
CONTINUOUS
 10
-3.0851041014
 20
-18.3460343191
 11
-2.8278172452
 21
-18.216813825
  0
LINE
  5
343
100
AcDbEntity
  8
0
100
AcDbLine
 62
7
  6
CONTINUOUS
 10
-6.2489939533
 20
-20.7113777199
 11
-6.3904153096
 21
-20.782088398
  0
LINE
  5
344
100
AcDbEntity
  8
0
100
AcDbLine
 62
7
  6
CONTINUOUS
 10
-5.9123078879
 20
-20.8797207526
 11
-6.0537292441
 21
-20.9504314307
  0
LINE
  5
345
100
AcDbEntity
  8
0
100
AcDbLine
 62
7
  6
CONTINUOUS
 10
-5.3376026089
 20
-21.1670733922
 11
-5.4790239651
 21
-21.2377840703
  0
LINE
  5
346
100
AcDbEntity
  8
0
100
AcDbLine
 62
7
  6
CONTINUOUS
 10
-5.0278778179
 20
-21.3219357876
 11
-5.1692991741
 21
-21.3926464658
  0
LINE
  5
347
100
AcDbEntity
  8
0
100
AcDbLine
 62
7
  6
CONTINUOUS
 10
-4.912860536
 20
-21.3793353094
 11
-5.0542818922
 21
-21.4500459875
  0
LINE
  5
348
100
AcDbEntity
  8
0
100
AcDbLine
 62
7
  6
CONTINUOUS
 10
-4.6029243201
 20
-21.5343034174
 11
-4.7443456763
 21
-21.6050140955
  0
LINE
  5
349
100
AcDbEntity
  8
0
100
AcDbLine
 62
7
  6
CONTINUOUS
 10
-4.3020072511
 20
-21.684871071
 11
-4.4434286074
 21
-21.7555817491
  0
LINE
  5
34A
100
AcDbEntity
  8
0
100
AcDbLine
 62
7
  6
CONTINUOUS
 10
-3.992327715
 20
-21.8397108391
 11
-4.1337490712
 21
-21.9104215172
  0
LINE
  5
34B
100
AcDbEntity
  8
0
100
AcDbLine
 62
7
  6
CONTINUOUS
 10
-5.5051522678
 20
-22.9017986242
 11
-5.646573624
 21
-22.9725093023
  0
LINE
  5
34C
100
AcDbEntity
  8
0
100
AcDbLine
 62
7
  6
CONTINUOUS
 10
-3.3757291876
 20
-22.1480101028
 11
-3.5171505438
 21
-22.2187207809
  0
LINE
  5
34D
100
AcDbEntity
  8
0
100
AcDbLine
 62
7
  6
CONTINUOUS
 10
-3.0690781898
 20
-22.3013356017
 11
-3.210499546
 21
-22.3720462798
  0
LINE
  5
34E
100
AcDbEntity
  8
0
100
AcDbLine
 62
7
  6
CONTINUOUS
 10
-4.6029243201
 20
-23.352912598
 11
-4.7443456763
 21
-23.4236232761
  0
LINE
  5
34F
100
AcDbEntity
  8
ASSI
100
AcDbLine
 62
7
  6
CONTINUOUS
 10
-2.3013495993
 20
-17.6602712238
 11
-3.3809285586
 21
-18.1981220905
  0
LINE
  5
350
100
AcDbEntity
  8
RACCORDO
100
AcDbLine
 62
7
  6
CONTINUOUS
 10
-19.2638167257
 20
26.4574967373
 11
12.7375935616
 21
10.4567915936
  0
LINE
  5
351
100
AcDbEntity
  8
RACCORDO
100
AcDbLine
 62
7
  6
CONTINUOUS
 10
-19.3417846814
 20
26.6197588774
 11
12.6596255992
 21
10.6190537371
  0
LINE
  5
352
100
AcDbEntity
  8
RACCORDO
100
AcDbLine
 62
7
  6
CONTINUOUS
 10
14.4843723508
 20
11.8978313612
 11
-21.1688147801
 21
29.7244249267
  0
LINE
  5
353
100
AcDbEntity
  8
RACCORDO
100
AcDbLine
 62
7
  6
CONTINUOUS
 10
14.6928021707
 20
12.2618143223
 11
-20.9581016131
 21
30.0872662142
  0
LINE
  5
354
100
AcDbEntity
  8
RACCORDO
100
AcDbLine
 62
7
  6
CONTINUOUS
 10
16.0994952907
 20
12.9705845789
 11
-19.5996738575
 21
30.820169153
  0
LWPOLYLINE
  5
355
100
AcDbEntity
  8
RACCORDO
100
AcDbPolyline
 62
7
  6
CONTINUOUS
 90
22
 70
0
 10
12.7376250258
 20
10.4567756813
 10
12.7442385001
 20
10.4532903706
 10
12.7576848021
 20
10.4451848046
 10
12.7728366113
 20
10.4345483538
 10
12.7891604907
 20
10.4213994992
 10
12.8063104619
 20
10.4057208491
 10
12.8239535115
 20
10.3875497449
 10
12.8416495397
 20
10.3671150778
 10
12.8590548124
 20
10.3446501581
 10
12.8759214289
 20
10.3203433763
 10
12.8920365218
 20
10.2943785218
 10
12.9071583489
 20
10.2670490024
 10
12.9210909735
 20
10.2386528605
 10
12.9337219337
 20
10.2093661755
 10
12.9448933465
 20
10.1795140494
 10
12.9544826325
 20
10.1494355762
 10
12.9624346363
 20
10.1193456741
 10
12.9686834012
 20
10.0895552053
 10
12.9731815006
 20
10.0604411641
 10
12.9759254132
 20
10.0324008257
 10
12.9769651876
 20
10.0058256596
 10
12.9769798028
 20
10.0025185491
  0
LWPOLYLINE
  5
356
100
AcDbEntity
  8
RACCORDO
100
AcDbPolyline
 62
7
  6
CONTINUOUS
 90
3
 70
0
 10
12.9661835676
 20
-29.6167304338
 10
12.9644227474
 20
-29.6211216442
 10
12.9631066655
 20
-29.6238269827
  0
LINE
  5
357
100
AcDbEntity
  8
ASSI
100
AcDbLine
 62
7
  6
CONTINUOUS
 10
8.1247651577
 20
-23.7587422868
 11
8.2201163313
 21
-23.5942858392
  0
LINE
  5
358
100
AcDbEntity
  8
ASSI
100
AcDbLine
 62
7
  6
CONTINUOUS
 10
8.4783185483
 20
-23.5819655915
 11
8.5736697219
 21
-23.4175091439
  0
LINE
  5
359
100
AcDbEntity
  8
ASSI
100
AcDbLine
 62
7
  6
CONTINUOUS
 10
8.8318719389
 20
-23.4051888962
 11
8.9272231125
 21
-23.2407324486
  0
LINE
  5
35A
100
AcDbEntity
  8
ASSI
100
AcDbLine
 62
7
  6
CONTINUOUS
 10
9.1854253295
 20
-23.2284122009
 11
9.2807765031
 21
-23.0639557533
  0
LINE
  5
35B
100
AcDbEntity
  8
ASSI
100
AcDbLine
 62
7
  6
CONTINUOUS
 10
11.7328137735
 20
-25.7549932565
 11
11.7556502372
 21
-25.7156061828
  0
LINE
  5
35C
100
AcDbEntity
  8
ASSI
100
AcDbLine
 62
7
  6
CONTINUOUS
 10
12.0031376106
 20
-25.7217663067
 11
12.1092036278
 21
-25.5388294875
  0
LINE
  5
35D
100
AcDbEntity
  8
RACCORDO
100
AcDbLine
 62
7
  6
CONTINUOUS
 10
4.6492270863
 20
-22.7909785616
 11
5.2149125113
 21
-22.4960426254
  0
LINE
  5
35E
100
AcDbEntity
  8
RACCORDO
100
AcDbLine
 62
7
  6
CONTINUOUS
 10
4.9660006865
 20
-23.1023339655
 11
5.4270445456
 21
-22.8619558397
  0
LINE
  5
35F
100
AcDbEntity
  8
0
100
AcDbLine
 62
7
  6
CONTINUOUS
 10
-2.4158366819
 20
-22.6279563556
 11
-2.5572580381
 21
-22.6986670338
  0
LINE
  5
360
100
AcDbEntity
  8
0
100
AcDbLine
 62
7
  6
CONTINUOUS
 10
-4.1395685601
 20
-23.584590478
 11
-4.2809899163
 21
-23.6553011561
  0
LINE
  5
361
100
AcDbEntity
  8
0
100
AcDbLine
 62
7
  6
CONTINUOUS
 10
-2.1160113858
 20
-22.7778690037
 11
-2.2574327421
 21
-22.8485796818
  0
LINE
  5
362
100
AcDbEntity
  8
0
100
AcDbLine
 62
7
  6
CONTINUOUS
 10
-3.665623876
 20
-23.82156282
 11
-3.8070452322
 21
-23.8922734982
  0
LINE
  5
363
100
AcDbEntity
  8
0
100
AcDbLine
 62
7
  6
CONTINUOUS
 10
-1.5694257098
 20
-23.0724079023
 11
-1.7108470661
 21
-23.1431185804
  0
LINE
  5
364
100
AcDbEntity
  8
0
100
AcDbLine
 62
7
  6
CONTINUOUS
 10
-2.4260692241
 20
-23.7973861724
 11
-2.5674905804
 21
-23.8680968505
  0
LINE
  5
365
100
AcDbEntity
  8
0
100
AcDbLine
 62
7
  6
CONTINUOUS
 10
-3.0062308612
 20
-24.227257365
 11
-3.0716541798
 21
-24.2599690244
  0
LINE
  5
366
100
AcDbEntity
  8
0
100
AcDbLine
 62
7
  6
CONTINUOUS
 10
-0.8045513439
 20
-23.4739910704
 11
-0.9459727001
 21
-23.5447017485
  0
LINE
  5
367
100
AcDbEntity
  8
0
100
AcDbLine
 62
7
  6
CONTINUOUS
 10
-2.5749915691
 20
-24.3668789735
 11
-2.7164129253
 21
-24.4375896516
  0
LINE
  5
368
100
AcDbEntity
  8
0
100
AcDbLine
 62
7
  6
CONTINUOUS
 10
-1.2710139203
 20
-24.0093810797
 11
-1.4124352765
 21
-24.0800917578
  0
LINE
  5
369
100
AcDbEntity
  8
0
100
AcDbLine
 62
7
  6
CONTINUOUS
 10
-1.0938886359
 20
-24.0979437219
 11
-1.2353099921
 21
-24.1686544001
  0
LINE
  5
36A
100
AcDbEntity
  8
0
100
AcDbLine
 62
7
  6
CONTINUOUS
 10
-1.7108470661
 20
-24.849360248
 11
-1.8018593993
 21
-24.8948664146
  0
LINE
  5
36B
100
AcDbEntity
  8
0
100
AcDbLine
 62
7
  6
CONTINUOUS
 10
-0.9097188067
 20
-24.4877788699
 11
-0.9140171076
 21
-24.4899280204
  0
LINE
  5
36C
100
AcDbEntity
  8
0
100
AcDbLine
 62
7
  6
CONTINUOUS
 10
-0.8709858197
 20
-24.4724896284
 11
-0.7295644635
 21
-24.4017789503
  0
LINE
  5
36D
100
AcDbEntity
  8
0
100
AcDbLine
 62
7
  6
CONTINUOUS
 10
-1.2607369127
 20
-25.0240066461
 11
-1.4021582689
 21
-25.0947173243
  0
LINE
  5
36E
100
AcDbEntity
  8
0
100
AcDbLine
 62
7
  6
CONTINUOUS
 10
-0.5939450606
 20
-24.8652116614
 11
-0.7353664168
 21
-24.9359223395
  0
LINE
  5
36F
100
AcDbEntity
  8
0
100
AcDbLine
 62
7
  6
CONTINUOUS
 10
-0.4879905593
 20
-25.4103798228
 11
-0.6294119155
 21
-25.4810905009
  0
LINE
  5
370
100
AcDbEntity
  8
ASSI
100
AcDbLine
 62
7
  6
CONTINUOUS
 10
12.3566910012
 20
-25.5449896114
 11
12.4627570184
 21
-25.3620527922
  0
LINE
  5
371
100
AcDbEntity
  8
ASSI
100
AcDbLine
 62
7
  6
CONTINUOUS
 10
12.7102443918
 20
-25.3682129161
 11
12.816310409
 21
-25.1852760969
  0
LINE
  5
372
100
AcDbEntity
  8
RACCORDO
100
AcDbLine
 62
7
  6
CONTINUOUS
 10
10.0994973303
 20
-24.9986332701
 11
9.5338119054
 21
-25.2935692063
  0
LINE
  5
373
100
AcDbEntity
  8
RACCORDO
100
AcDbLine
 62
7
  6
CONTINUOUS
 10
10.2353706577
 20
-25.0062716986
 11
9.6696852327
 21
-25.3012076348
  0
LINE
  5
374
100
AcDbEntity
  8
ASSI
100
AcDbLine
 62
7
  6
CONTINUOUS
 10
7.1594561595
 20
-24.1246159251
 11
7.3008775158
 21
-24.053905247
  0
LINE
  5
375
100
AcDbEntity
  8
ASSI
100
AcDbLine
 62
7
  6
CONTINUOUS
 10
7.5130095501
 20
-23.9478392298
 11
7.6544309063
 21
-23.8771285517
  0
LINE
  5
376
100
AcDbEntity
  8
ASSI
100
AcDbLine
 62
7
  6
CONTINUOUS
 10
7.8665629407
 20
-23.7710625345
 11
8.0079842969
 21
-23.7003518564
  0
LINE
  5
377
100
AcDbEntity
  8
ASSI
100
AcDbLine
 62
7
  6
CONTINUOUS
 10
8.2201163313
 20
-23.5942858392
 11
8.3615376875
 21
-23.5235751611
  0
LINE
  5
378
100
AcDbEntity
  8
ASSI
100
AcDbLine
 62
7
  6
CONTINUOUS
 10
8.5736697219
 20
-23.4175091439
 11
8.7150910781
 21
-23.3467984658
  0
LINE
  5
379
100
AcDbEntity
  8
ASSI
100
AcDbLine
 62
7
  6
CONTINUOUS
 10
8.9272231125
 20
-23.2407324486
 11
9.0686444687
 21
-23.1700217705
  0
LINE
  5
37A
100
AcDbEntity
  8
ASSI
100
AcDbLine
 62
7
  6
CONTINUOUS
 10
9.2807765031
 20
-23.0639557533
 11
9.4221978593
 21
-22.9932450752
  0
LINE
  5
37B
100
AcDbEntity
  8
ASSI
100
AcDbLine
 62
7
  6
CONTINUOUS
 10
9.344075602
 20
-22.9780217399
 11
6.9094883991
 21
-24.0740778218
  0
LINE
  5
37C
100
AcDbEntity
  8
RACCORDO
100
AcDbLine
 62
7
  6
CONTINUOUS
 10
-19.2820821596
 20
26.4653288556
 11
-19.2820160264
 21
26.4653269843
  0
LINE
  5
37D
100
AcDbEntity
  8
RACCORDO
100
AcDbLine
 62
7
  6
CONTINUOUS
 10
-18.8925770709
 20
26.2718769099
 11
-19.3628024879
 21
26.2854418766
  0
LWPOLYLINE
  5
37E
100
AcDbEntity
  8
RACCORDO
100
AcDbPolyline
 62
7
  6
CONTINUOUS
 90
6
 70
0
 10
-19.2820289797
 20
26.4653210538
 10
-19.2837501745
 20
26.465422049
 10
-19.2839055476
 20
26.4653850546
 10
-19.2799636817
 20
26.464284265
 10
-19.2723766138
 20
26.4614473511
 10
-19.2639968384
 20
26.4575869406
  0
LINE
  5
37F
100
AcDbEntity
  8
RACCORDO
100
AcDbLine
 62
7
  6
CONTINUOUS
 10
31.6253507886
 20
-58.0061510345
 11
31.6253507886
 21
22.880621679
  0
LINE
  5
380
100
AcDbEntity
  8
RACCORDO
100
AcDbLine
 62
7
  6
CONTINUOUS
 10
32.3324575698
 20
-58.0061510345
 11
32.3324575698
 21
22.880621679
  0
LINE
  5
381
100
AcDbEntity
  8
RACCORDO
100
AcDbLine
 62
7
  6
CONTINUOUS
 10
12.9632621152
 20
-29.6236180903
 11
12.9644744628
 21
-29.6219807625
  0
LINE
  5
382
100
AcDbEntity
  8
RACCORDO
100
AcDbLine
 62
7
  6
CONTINUOUS
 10
12.7991951175
 20
-29.6469052677
 11
12.9769804053
 21
-29.4237569362
  0
LINE
  5
383
100
AcDbEntity
  8
ASSI
100
AcDbLine
 62
7
  6
CONTINUOUS
 10
12.9769804053
 20
-25.453575207
 11
12.1018776956
 21
-25.9395252176
  0
LINE
  5
384
100
AcDbEntity
  8
ASSI
100
AcDbLine
 62
7
  6
CONTINUOUS
 10
12.9769804053
 20
-26.0221753799
 11
12.625439318
 21
-26.2013060288
  0
LINE
  5
385
100
AcDbEntity
  8
DRAFT
100
AcDbLine
 62
7
  6
CONTINUOUS
 10
12.8956581415
 20
-26.3364154405
 11
12.9769804053
 21
-26.2955296426
  0
LINE
  5
386
100
AcDbEntity
  8
DRAFT
100
AcDbLine
 62
7
  6
CONTINUOUS
 10
12.8247984753
 20
-26.3009856074
 11
12.974325048
 21
-26.2258869495
  0
LINE
  5
387
100
AcDbEntity
  8
ASSI
100
AcDbLine
 62
7
  6
CONTINUOUS
 10
11.7556502372
 20
-25.7156061828
 11
11.8970715935
 21
-25.6448955047
  0
LINE
  5
388
100
AcDbEntity
  8
ASSI
100
AcDbLine
 62
7
  6
CONTINUOUS
 10
12.1092036278
 20
-25.5388294875
 11
12.2506249841
 21
-25.4681188094
  0
LINE
  5
389
100
AcDbEntity
  8
ASSI
100
AcDbLine
 62
7
  6
CONTINUOUS
 10
12.4627570184
 20
-25.3620527922
 11
12.6041783747
 21
-25.2913421141
  0
LINE
  5
38A
100
AcDbEntity
  8
ASSI
100
AcDbLine
 62
7
  6
CONTINUOUS
 10
12.816310409
 20
-25.1852760969
 11
12.9577317652
 21
-25.1145654188
  0
LINE
  5
38B
100
AcDbEntity
  8
ASSI
100
AcDbLine
 62
7
  6
CONTINUOUS
 10
12.9769804053
 20
-25.2348449093
 11
11.8347487422
 21
-25.8059607409
  0
LINE
  5
38C
100
AcDbEntity
  8
ASSI
100
AcDbLine
 62
7
  6
CONTINUOUS
 10
12.9769804053
 20
-25.9298746757
 11
12.5289740181
 21
-26.1530733788
  0
LINE
  5
38D
100
AcDbEntity
  8
RACCORDO
100
AcDbLine
 62
7
  6
CONTINUOUS
 10
35.1255293554
 20
24.2771575719
 11
35.1255293554
 21
-56.6096151416
  0
LINE
  5
38E
100
AcDbEntity
  8
RACCORDO
100
AcDbLine
 62
7
  6
CONTINUOUS
 10
35.2719759648
 20
24.4539342672
 11
35.2719759648
 21
-56.4328384463
  0
LINE
  5
38F
100
AcDbEntity
  8
RACCORDO
100
AcDbLine
 62
7
  6
CONTINUOUS
 10
15.1877015304
 20
-32.8612401626
 11
16.5943946504
 21
-32.2115826636
  0
LINE
  5
390
100
AcDbEntity
  8
RACCORDO
100
AcDbLine
 62
7
  6
CONTINUOUS
 10
14.9969643528
 20
-33.2440346623
 11
16.4050741799
 21
-32.593722881
  0
LINE
  5
391
100
AcDbEntity
  8
RACCORDO
100
AcDbLine
 62
7
  6
CONTINUOUS
 10
31.271797398
 20
23.4904110762
 11
-34.7719759648
 21
56.5122977576
  0
LINE
  5
392
100
AcDbEntity
  8
RACCORDO
100
AcDbLine
 62
7
  6
CONTINUOUS
 10
31.6253507886
 20
24.1002004734
 11
-34.4184225743
 21
57.1220871548
  0
LINE
  5
393
100
AcDbEntity
  8
RACCORDO
100
AcDbLine
 62
7
  6
CONTINUOUS
 10
-31.6253507886
 20
58.5186230476
 11
34.4184225743
 21
25.4967363662
  0
LINE
  5
394
100
AcDbEntity
  8
RACCORDO
100
AcDbLine
 62
7
  6
CONTINUOUS
 10
-31.4017439908
 20
58.5328239413
 11
34.642029372
 21
25.5109372598
  0
LINE
  5
395
100
AcDbEntity
  8
RACCORDO
100
AcDbLine
 62
7
  6
CONTINUOUS
 10
32.3324575698
 20
-58.0061510345
 11
35.1255293554
 21
-56.6096151416
  0
LINE
  5
396
100
AcDbEntity
  8
RACCORDO
100
AcDbLine
 62
7
  6
CONTINUOUS
 10
32.0725643841
 20
-58.5470248349
 11
34.8656361698
 21
-57.150488942
  0
ARC
  5
397
100
AcDbEntity
  8
RACCORDO
100
AcDbCircle
 62
7
  6
CONTINUOUS
 10
-15.8341147581
 20
14.6993293546
 40
1.2153389167
100
AcDbArc
 50
141.992472414
 51
144.0993475129
  0
ARC
  5
398
100
AcDbEntity
  8
RACCORDO
100
AcDbCircle
 62
7
  6
CONTINUOUS
 10
-15.8588830544
 20
14.7185297723
 40
1.1840002976
100
AcDbArc
 50
141.3631324503
 51
141.986526647
  0
ARC
  5
399
100
AcDbEntity
  8
RACCORDO
100
AcDbCircle
 62
7
  6
CONTINUOUS
 10
-15.8953383282
 20
14.7480802047
 40
1.1370736723
100
AcDbArc
 50
138.5066390017
 51
141.3792755634
  0
ARC
  5
39A
100
AcDbEntity
  8
IMPORT_IGES
100
AcDbCircle
 62
7
  6
CONTINUOUS
 10
-0.8762004029
 20
-23.6380015809
 40
0.5088565022
100
AcDbArc
 50
244.6720486628
 51
247.0404098965
  0
ARC
  5
39B
100
AcDbEntity
  8
RACCORDO
100
AcDbCircle
 62
7
  6
CONTINUOUS
 10
34.6974213517
 20
-56.8140925554
 40
0.376106544
100
AcDbArc
 50
296.5673182536
 51
300.3024760895
  0
ARC
  5
39C
100
AcDbEntity
  8
0
100
AcDbCircle
 62
7
  6
CONTINUOUS
 10
-1.1356227801
 20
-24.7139540671
 40
0.3151138583
100
AcDbArc
 50
42.2436124612
 51
45.3111893938
  0
ARC
  5
39D
100
AcDbEntity
  8
RACCORDO
100
AcDbCircle
 62
7
  6
CONTINUOUS
 10
-15.4219618757
 20
20.9242988872
 40
0.1999985148
100
AcDbArc
 50
0.0130191666
 51
63.4573071593
  0
ARC
  5
39E
100
AcDbEntity
  8
RACCORDO
100
AcDbCircle
 62
7
  6
CONTINUOUS
 10
-15.4219618757
 20
2.6078615972
 40
0.1999985148
100
AcDbArc
 50
0.0130191666
 51
63.4573071593
  0
ARC
  5
39F
100
AcDbEntity
  8
RACCORDO
100
AcDbCircle
 62
7
  6
CONTINUOUS
 10
-15.7968228542
 20
21.1118010298
 40
0.1999299515
100
AcDbArc
 50
63.4508113347
 51
114.7934812241
  0
ARC
  5
3A0
100
AcDbEntity
  8
RACCORDO
100
AcDbCircle
 62
7
  6
CONTINUOUS
 10
-15.7968228542
 20
2.7953637398
 40
0.1999299515
100
AcDbArc
 50
63.4508113349
 51
114.7934812241
  0
ARC
  5
3A1
100
AcDbEntity
  8
0
100
AcDbCircle
 62
7
  6
CONTINUOUS
 10
-0.9604239498
 20
-24.2941744834
 40
0.1994880199
100
AcDbArc
 50
295.3060875002
 51
296.6371458945
  0
ARC
  5
3A2
100
AcDbEntity
  8
RACCORDO
100
AcDbCircle
 62
7
  6
CONTINUOUS
 10
-15.4216320508
 20
17.3035207191
 40
0.1992333471
100
AcDbArc
 50
298.3606842612
 51
0.0208738394
  0
ARC
  5
3A3
100
AcDbEntity
  8
RACCORDO
100
AcDbCircle
 62
7
  6
CONTINUOUS
 10
-15.4216320508
 20
-1.012916571
 40
0.1992333471
100
AcDbArc
 50
298.3606842612
 51
0.0208738394
  0
ARC
  5
3A4
100
AcDbEntity
  8
RACCORDO
100
AcDbCircle
 62
7
  6
CONTINUOUS
 10
-34.5579922996
 20
-25.3427843812
 40
0.1879762089
100
AcDbArc
 50
241.5981671889
 51
243.4456810449
  0
ARC
  5
3A5
100
AcDbEntity
  8
RACCORDO
100
AcDbCircle
 62
7
  6
CONTINUOUS
 10
-17.919659211
 20
-12.6362964281
 40
0.174794787
100
AcDbArc
 50
236.3051861035
 51
243.581084793
  0
ARC
  5
3A6
100
AcDbEntity
  8
RACCORDO
100
AcDbCircle
 62
7
  6
CONTINUOUS
 10
-18.0796371386
 20
-12.3847696241
 40
0.1075639168
100
AcDbArc
 50
179.9157124096
 51
186.34062814
  0
ARC
  5
3A7
100
AcDbEntity
  8
ASSI
100
AcDbCircle
 62
7
  6
CONTINUOUS
 10
-6.5257414137
 20
-15.1011184818
 40
0.0874961196
100
AcDbArc
 50
105.0618690741
 51
111.6611297249
  0
ARC
  5
3A8
100
AcDbEntity
  8
ASSI
100
AcDbCircle
 62
7
  6
CONTINUOUS
 10
9.384161163
 20
-23.0560697702
 40
0.0874961196
100
AcDbArc
 50
105.061869074
 51
111.661129725
  0
ARC
  5
3A9
100
AcDbEntity
  8
RACCORDO
100
AcDbCircle
 62
7
  6
CONTINUOUS
 10
-15.3630517094
 20
-1.1215098953
 40
0.0758414454
100
AcDbArc
 50
298.3870157071
 51
302.0401016357
  0
ARC
  5
3AA
100
AcDbEntity
  8
RACCORDO
100
AcDbCircle
 62
7
  6
CONTINUOUS
 10
-15.3630517094
 20
17.1949273948
 40
0.0758414454
100
AcDbArc
 50
298.3870157069
 51
302.040101636
  0
ARC
  5
3AB
100
AcDbEntity
  8
RACCORDO
100
AcDbCircle
 62
7
  6
CONTINUOUS
 10
-15.740906298
 20
21.2236396643
 40
0.0749027917
100
AcDbArc
 50
63.3990893827
 51
68.4471909088
  0
ARC
  5
3AC
100
AcDbEntity
  8
RACCORDO
100
AcDbCircle
 62
7
  6
CONTINUOUS
 10
-15.740906298
 20
2.9072023742
 40
0.0749027917
100
AcDbArc
 50
63.399089383
 51
68.4471909086
  0
ARC
  5
3AD
100
AcDbEntity
  8
RACCORDO
100
AcDbCircle
 62
7
  6
CONTINUOUS
 10
-15.2724440469
 20
17.3042181082
 40
0.050478377
100
AcDbArc
 50
354.279498858
 51
359.9956742447
  0
ARC
  5
3AE
100
AcDbEntity
  8
RACCORDO
100
AcDbCircle
 62
7
  6
CONTINUOUS
 10
-15.2724440469
 20
-1.0122191818
 40
0.050478377
100
AcDbArc
 50
354.2794988579
 51
359.9956742447
  0
SPLINE
  5
3AF
100
AcDbEntity
  8
0
100
AcDbSpline
 62
7
  6
CONTINUOUS
 70
0
 71
3
 72
11
 73
7
 74
5
 42
0.0000001
 43
0.0000001
 44
0.0000000001
 12
0.3138156219
 22
-0.2015300707
 32
0.0
 13
0.0047321734
 23
-0.3729238803
 33
0.0
 40
0.0
 40
0.0
 40
0.0
 40
0.0
 40
0.2339806254
 40
0.4918424311
 40
0.7556842856
 40
1.0
 40
1.0
 40
1.0
 40
1.0
 10
-1.1696284449
 20
-23.691576499
 30
0.0
 10
-1.1451528531
 20
-23.707294543
 30
0.0
 10
-1.0984094308
 20
-23.7477970977
 30
0.0
 10
-1.0422576497
 20
-23.8241691792
 30
0.0
 10
-1.0058657715
 20
-23.9130243575
 30
0.0
 10
-0.9949372629
 20
-23.9760688733
 30
0.0
 10
-0.9945518814
 20
-24.0064392614
 30
0.0
 11
-1.1696284449
 21
-23.691576499
 31
0.0
 11
-1.1029866592
 21
-23.7479136618
 31
0.0
 11
-1.0461175009
 21
-23.8254680091
 31
0.0
 11
-1.008500093
 21
-23.9163946708
 31
0.0
 11
-0.9945518814
 21
-24.0064392614
 31
0.0
  0
SPLINE
  5
3B0
100
AcDbEntity
  8
0
100
AcDbSpline
 62
7
  6
CONTINUOUS
 70
0
 71
3
 72
9
 73
5
 74
3
 42
0.0000001
 43
0.0000001
 44
0.0000000001
 12
0.0022769869
 22
-0.1818690752
 32
0.0
 13
-0.1325927009
 23
-0.1245018909
 33
0.0
 40
0.0
 40
0.0
 40
0.0
 40
0.0
 40
0.5440809938
 40
1.0
 40
1.0
 40
1.0
 40
1.0
 10
-0.9945518814
 20
-24.0064392614
 30
0.0
 10
-0.9941389263
 20
-24.0394230971
 30
0.0
 10
-1.000453798
 20
-24.1000418864
 30
0.0
 10
-1.0276602999
 20
-24.1579629196
 30
0.0
 10
-1.0478108107
 20
-24.1768838457
 30
0.0
 11
-0.9945518814
 21
-24.0064392614
 31
0.0
 11
-1.0071949563
 21
-24.1045875585
 31
0.0
 11
-1.0478108107
 21
-24.1768838457
 31
0.0
  0
SPLINE
  5
3B1
100
AcDbEntity
  8
0
100
AcDbSpline
 62
7
  6
CONTINUOUS
 70
0
 71
3
 72
8
 73
4
 74
2
 42
0.0000001
 43
0.0000001
 44
0.0000000001
 12
-0.0187175625
 22
-0.0175754163
 32
0.0
 13
-0.02296506
 23
-0.0114825269
 33
0.0
 40
0.0
 40
0.0
 40
0.0
 40
0.0
 40
1.0
 40
1.0
 40
1.0
 40
1.0
 10
-1.0478108107
 20
-24.1768838457
 30
0.0
 10
-1.0540499982
 20
-24.1827423178
 30
0.0
 10
-1.061141104
 20
-24.1878502218
 30
0.0
 10
-1.068796124
 20
-24.1916777307
 30
0.0
 11
-1.0478108107
 21
-24.1768838457
 31
0.0
 11
-1.068796124
 21
-24.1916777307
 31
0.0
  0
SPLINE
  5
3B2
100
AcDbEntity
  8
0
100
AcDbSpline
 62
7
  6
CONTINUOUS
 70
0
 71
3
 72
10
 73
6
 74
4
 42
0.0000001
 43
0.0000001
 44
0.0000000001
 12
0.257046478
 22
-0.0748047261
 32
0.0
 13
0.2252633536
 23
-0.1446549704
 33
0.0
 40
0.0
 40
0.0
 40
0.0
 40
0.0
 40
0.2362920832
 40
0.4814109498
 40
1.0
 40
1.0
 40
1.0
 40
1.0
 10
-1.4124352765
 20
-23.5808779252
 30
0.0
 10
-1.3921892606
 20
-23.5867698468
 30
0.0
 10
-1.3511610251
 20
-23.5996395134
 30
0.0
 10
-1.2684656914
 20
-23.6333996079
 30
0.0
 10
-1.2085681478
 20
-23.6665710044
 30
0.0
 10
-1.1696284449
 20
-23.691576499
 30
0.0
 11
-1.4124352765
 21
-23.5808779252
 31
0.0
 11
-1.3522066746
 21
-23.6002185201
 31
0.0
 11
-1.2914159735
 21
-23.6249283569
 31
0.0
 11
-1.1696284449
 21
-23.691576499
 31
0.0
  0
SPLINE
  5
3B3
100
AcDbEntity
  8
0
100
AcDbSpline
 62
7
  6
CONTINUOUS
 70
0
 71
3
 72
10
 73
6
 74
4
 42
0.0000001
 43
0.0000001
 44
0.0000000001
 12
0.2763115484
 22
-0.1381557742
 32
0.0
 13
0.0793323206
 23
-0.2985656924
 33
0.0
 40
0.0
 40
0.0
 40
0.0
 40
0.0
 40
0.2224105364
 40
0.6042534692
 40
1.0
 40
1.0
 40
1.0
 40
1.0
 10
-1.2359780533
 20
-24.4661468037
 30
0.0
 10
-1.2154931867
 20
-24.476389237
 30
0.0
 10
-1.1638876886
 20
-24.5128494509
 30
0.0
 10
-1.1029118258
 20
-24.5982468251
 30
0.0
 10
-1.0735267178
 20
-24.6734513201
 30
0.0
 10
-1.0630615542
 20
-24.7128367658
 30
0.0
 11
-1.2359780533
 21
-24.4661468037
 31
0.0
 11
-1.1795035656
 21
-24.5052807662
 31
0.0
 11
-1.1081071373
 21
-24.5991816197
 31
0.0
 11
-1.0630615542
 21
-24.7128367658
 31
0.0
  0
SPLINE
  5
3B4
100
AcDbEntity
  8
0
100
AcDbSpline
 62
7
  6
CONTINUOUS
 70
0
 71
3
 72
9
 73
5
 74
3
 42
0.0000001
 43
0.0000001
 44
0.0000000001
 12
0.1629167104
 22
-0.6125703128
 32
0.0
 13
0.1303220388
 23
-0.6203228263
 33
0.0
 40
0.0
 40
0.0
 40
0.0
 40
0.0
 40
0.5011449125
 40
1.0
 40
1.0
 40
1.0
 40
1.0
 10
-1.0630615542
 20
-24.7128367658
 30
0.0
 10
-1.035846594
 20
-24.8151655977
 30
0.0
 10
-0.9939158975
 20
-25.0224296662
 30
0.0
 10
-0.9492048159
 20
-25.2288789535
 30
0.0
 10
-0.9275342119
 20
-25.3320293528
 30
0.0
 11
-1.0630615542
 21
-24.7128367658
 31
0.0
 11
-0.9931216003
 21
-25.0226996355
 31
0.0
 11
-0.9275342119
 21
-25.3320293528
 31
0.0
  0
SPLINE
  5
3B5
100
AcDbEntity
  8
0
100
AcDbSpline
 62
7
  6
CONTINUOUS
 70
0
 71
3
 72
9
 73
5
 74
3
 42
0.0000001
 43
0.0000001
 44
0.0000000001
 12
0.0378189117
 22
-0.0129328728
 32
0.0
 13
0.036155033
 23
0.0170394503
 33
0.0
 40
0.0
 40
0.0
 40
0.0
 40
0.0
 40
0.5120122227
 40
1.0
 40
1.0
 40
1.0
 40
1.0
 10
-0.9140171076
 20
-24.4791822681
 30
0.0
 10
-0.9075625259
 20
-24.4813895311
 30
0.0
 10
-0.8935724604
 20
-24.4823647683
 30
0.0
 10
-0.8810330857
 20
-24.4772907433
 30
0.0
 10
-0.8751520143
 20
-24.4745190622
 30
0.0
 11
-0.9140171076
 21
-24.4791822681
 31
0.0
 11
-0.8936166649
 21
-24.4808023443
 31
0.0
 11
-0.8751520143
 21
-24.4745190622
 31
0.0
  0
SPLINE
  5
3B6
100
AcDbEntity
  8
RACCORDO
100
AcDbSpline
 62
7
  6
CONTINUOUS
 70
0
 71
3
 72
15
 73
11
 74
9
 42
0.0000001
 43
0.0000001
 44
0.0000000001
 12
0.0000285072
 22
0.4348568662
 32
0.0
 13
0.3889720957
 23
-0.1944253163
 33
0.0
 40
0.0
 40
0.0
 40
0.0
 40
0.0
 40
0.1489156741
 40
0.28438697
 40
0.4071908671
 40
0.5206712083
 40
0.6305281716
 40
0.7435187252
 40
0.8655203113
 40
1.0
 40
1.0
 40
1.0
 40
1.0
 10
-21.4493310672
 20
29.5183256686
 30
0.0
 10
-21.4493296521
 20
29.5399113364
 30
0.0
 10
-21.4462081371
 20
29.5812508714
 30
0.0
 10
-21.4307370343
 20
29.6386339568
 30
0.0
 10
-21.4049331277
 20
29.686606452
 30
0.0
 10
-21.3693128953
 20
29.7230296058
 30
0.0
 10
-21.3252009503
 20
29.7457607656
 30
0.0
 10
-21.275005228
 20
29.7534540692
 30
0.0
 10
-21.221362864
 20
29.7463741767
 30
0.0
 10
-21.1862510623
 20
29.7331403454
 30
0.0
 10
-21.1688147801
 20
29.7244249267
 30
0.0
 11
-21.4493310672
 21
29.5183256686
 31
0.0
 11
-21.4439537296
 21
29.5828590224
 31
0.0
 11
-21.4280233709
 21
29.6395748509
 31
0.0
 11
-21.4021481142
 21
29.6862894877
 31
0.0
 11
-21.3673110575
 21
29.7212405326
 31
0.0
 11
-21.3248320456
 21
29.7430969453
 31
0.0
 11
-21.2763370653
 21
29.7509999454
 31
0.0
 11
-21.2236555246
 21
29.7447309568
 31
0.0
 11
-21.1688147801
 21
29.7244249267
 31
0.0
  0
SPLINE
  5
3B7
100
AcDbEntity
  8
RACCORDO
100
AcDbSpline
 62
7
  6
CONTINUOUS
 70
0
 71
3
 72
12
 73
8
 74
6
 42
0.0000001
 43
0.0000001
 44
0.0000000001
 12
0.5230247003
 22
-0.2615637791
 32
0.0
 13
0.0000608662
 23
-0.5847823903
 33
0.0
 40
0.0
 40
0.0
 40
0.0
 40
0.0
 40
0.2293635135
 40
0.487502732
 40
0.7523004137
 40
0.8797660392
 40
1.0
 40
1.0
 40
1.0
 40
1.0
 10
14.4843723508
 20
11.8978313612
 30
0.0
 10
14.5243599451
 20
11.8778336321
 30
0.0
 10
14.6008235674
 20
11.8181344495
 30
0.0
 10
14.6892652411
 20
11.6997079534
 30
0.0
 10
14.7404810391
 20
11.5822125048
 30
0.0
 10
14.7627157789
 20
11.4846217163
 30
0.0
 10
14.7671695456
 20
11.4363075516
 30
0.0
 10
14.7671719849
 20
11.4128706506
 30
0.0
 11
14.4843723508
 21
11.8978313612
 31
0.0
 11
14.592070726
 21
11.817885681
 31
0.0
 11
14.683536175
 21
11.6977958596
 31
0.0
 11
14.7449746101
 21
11.5556567083
 31
0.0
 11
14.7613631502
 21
11.4829409899
 31
0.0
 11
14.7671719849
 21
11.4128706506
 31
0.0
  0
SPLINE
  5
3B8
100
AcDbEntity
  8
0
100
AcDbSpline
 62
7
  6
CONTINUOUS
 70
0
 71
3
 72
11
 73
7
 74
5
 42
0.0000001
 43
0.0000001
 44
0.0000000001
 12
-0.6333494509
 22
0.5969143223
 32
0.0
 13
-0.8289470693
 23
0.2651131674
 33
0.0
 40
0.0
 40
0.0
 40
0.0
 40
0.0
 40
0.2725542141
 40
0.5262218346
 40
0.7671916502
 40
1.0
 40
1.0
 40
1.0
 40
1.0
 10
-0.8045513439
 20
-23.4739910704
 30
0.0
 10
-0.8620920312
 20
-23.4197605657
 30
0.0
 10
-0.9853304626
 20
-23.3278631007
 30
0.0
 10
-1.1805677519
 20
-23.2203226685
 30
0.0
 10
-1.374934843
 20
-23.1373552787
 30
0.0
 10
-1.5050971101
 20
-23.092981422
 30
0.0
 10
-1.5694257098
 20
-23.0724079023
 30
0.0
 11
-0.8045513439
 21
-23.4739910704
 31
0.0
 11
-0.9926176608
 21
-23.3294297844
 31
0.0
 11
-1.1854523215
 21
-23.2219408548
 31
0.0
 11
-1.378039785
 21
-23.1389238695
 31
0.0
 11
-1.5694257098
 21
-23.0724079023
 31
0.0
  0
SPLINE
  5
3B9
100
AcDbEntity
  8
RACCORDO
100
AcDbSpline
 62
7
  6
CONTINUOUS
 70
0
 71
3
 72
11
 73
7
 74
5
 42
0.0000001
 43
0.0000001
 44
0.0000000001
 12
0.407037927
 22
0.1895225457
 32
0.0
 13
0.0027915047
 23
0.4489887269
 33
0.0
 40
0.0
 40
0.0
 40
0.0
 40
0.0
 40
0.2166726031
 40
0.4495053433
 40
0.7094831531
 40
1.0
 40
1.0
 40
1.0
 40
1.0
 10
14.9977254047
 20
-33.2436815069
 30
0.0
 10
15.0271233938
 20
-33.2299933924
 30
0.0
 10
15.0830680926
 20
-33.1895055356
 30
0.0
 10
15.1433768474
 20
-33.1000539294
 30
0.0
 10
15.1798394166
 20
-32.9873865924
 30
0.0
 10
15.1874312041
 20
-32.904719759
 30
0.0
 10
15.1877015304
 20
-32.8612401626
 30
0.0
 11
14.9977254047
 21
-33.2436815069
 31
0.0
 11
15.076936133
 21
-33.187200389
 31
0.0
 11
15.1368391615
 21
-33.1015236141
 31
0.0
 11
15.1743959899
 21
-32.991001089
 31
0.0
 11
15.1877015304
 21
-32.8612401626
 31
0.0
  0
SPLINE
  5
3BA
100
AcDbEntity
  8
RACCORDO
100
AcDbSpline
 62
7
  6
CONTINUOUS
 70
0
 71
3
 72
15
 73
11
 74
9
 42
0.0000001
 43
0.0000001
 44
0.0000000001
 12
-0.0000285072
 22
-0.4348568759
 32
0.0
 13
-0.3889721044
 23
0.1944253207
 33
0.0
 40
0.0
 40
0.0
 40
0.0
 40
0.0
 40
0.1489156736
 40
0.2843869688
 40
0.4071908649
 40
0.5206712054
 40
0.6305281684
 40
0.7435187224
 40
0.8655203096
 40
1.0
 40
1.0
 40
1.0
 40
1.0
 10
14.7671719849
 20
-32.8594052097
 30
0.0
 10
14.7671705699
 20
-32.8809908779
 30
0.0
 10
14.7640490548
 20
-32.9223304137
 30
0.0
 10
14.7485779514
 20
-32.9797134999
 30
0.0
 10
14.7227740438
 20
-33.0276859957
 30
0.0
 10
14.68715381
 20
-33.0641091494
 30
0.0
 10
14.6430418633
 20
-33.0868403083
 30
0.0
 10
14.5928461396
 20
-33.0945336105
 30
0.0
 10
14.539203774
 20
-33.0874537159
 30
0.0
 10
14.5040919719
 20
-33.0742198824
 30
0.0
 10
14.4866556891
 20
-33.0655044634
 30
0.0
 11
14.7671719849
 21
-32.8594052097
 31
0.0
 11
14.7617946471
 21
-32.9239385647
 31
0.0
 11
14.7458642878
 21
-32.9806543941
 31
0.0
 11
14.7199890301
 21
-33.0273690313
 31
0.0
 11
14.6851519722
 21
-33.062320076
 31
0.0
 11
14.6426729588
 21
-33.0841764879
 31
0.0
 11
14.594177977
 21
-33.0920794867
 31
0.0
 11
14.5414964349
 21
-33.0858104959
 31
0.0
 11
14.4866556891
 21
-33.0655044634
 31
0.0
  0
SPLINE
  5
3BB
100
AcDbEntity
  8
RACCORDO
100
AcDbSpline
 62
7
  6
CONTINUOUS
 70
0
 71
3
 72
11
 73
7
 74
5
 42
0.0000001
 43
0.0000001
 44
0.0000000001
 12
-0.1689068731
 22
0.0845995435
 32
0.0
 13
-0.0000000045
 23
0.1889090113
 33
0.0
 40
0.0
 40
0.0
 40
0.0
 40
0.0
 40
0.2171672584
 40
0.4503633044
 40
0.7104290804
 40
1.0
 40
1.0
 40
1.0
 40
1.0
 10
-21.0885644707
 20
-15.4011672885
 30
0.0
 10
-21.1007914849
 20
-15.3950432049
 30
0.0
 10
-21.1239362344
 20
-15.377448729
 30
0.0
 10
-21.1487505751
 20
-15.3394028951
 30
0.0
 10
-21.1635691453
 20
-15.2918838177
 30
0.0
 10
-21.1665314326
 20
-15.2571450877
 30
0.0
 10
-21.166531433
 20
-15.2389109023
 30
0.0
 11
-21.0885644707
 21
-15.4011672885
 31
0.0
 11
-21.1213885445
 21
-15.3765579678
 31
0.0
 11
-21.1460481901
 21
-15.3400538023
 31
0.0
 11
-21.1613445125
 21
-15.2933669902
 31
0.0
 11
-21.166531433
 21
-15.2389109023
 31
0.0
  0
SPLINE
  5
3BC
100
AcDbEntity
  8
RACCORDO
100
AcDbSpline
 62
7
  6
CONTINUOUS
 70
0
 71
3
 72
12
 73
8
 74
6
 42
0.0000001
 43
0.0000001
 44
0.0000000001
 12
-0.5230246931
 22
0.2615637754
 32
0.0
 13
-0.0000608662
 23
0.5847823822
 33
0.0
 40
0.0
 40
0.0
 40
0.0
 40
0.0
 40
0.229363513
 40
0.4875027308
 40
0.7523004124
 40
0.8797660385
 40
1.0
 40
1.0
 40
1.0
 40
1.0
 10
-21.166531433
 20
-15.2389109023
 30
0.0
 10
-21.2065190267
 20
-15.2189131735
 30
0.0
 10
-21.2829826479
 20
-15.1592139922
 30
0.0
 10
-21.3714243208
 20
-15.0407874984
 30
0.0
 10
-21.4226401192
 20
-14.923292052
 30
0.0
 10
-21.4448748598
 20
-14.8257012649
 30
0.0
 10
-21.4493286278
 20
-14.7773871007
 30
0.0
 10
-21.4493310672
 20
-14.7539501999
 30
0.0
 11
-21.166531433
 21
-15.2389109023
 31
0.0
 11
-21.2742298067
 21
-15.1589652236
 31
0.0
 11
-21.3656952548
 21
-15.0388754048
 31
0.0
 11
-21.4271336903
 21
-14.896736256
 31
0.0
 11
-21.4435222313
 21
-14.8240205385
 31
0.0
 11
-21.4493310672
 21
-14.7539501999
 31
0.0
  0
SPLINE
  5
3BD
100
AcDbEntity
  8
RACCORDO
100
AcDbSpline
 62
7
  6
CONTINUOUS
 70
0
 71
3
 72
9
 73
5
 74
3
 42
0.0000001
 43
0.0000001
 44
0.0000000001
 12
-0.0339777457
 22
-0.0425884986
 32
0.0
 13
-0.0466494948
 23
-0.0281441299
 33
0.0
 40
0.0
 40
0.0
 40
0.0
 40
0.0
 40
0.2626167859
 40
1.0
 40
1.0
 40
1.0
 40
1.0
 10
12.9644320519
 20
-29.6220292969
 30
0.0
 10
12.9614576765
 20
-29.6257574484
 30
0.0
 10
12.9496523602
 20
-29.6395453648
 30
0.0
 10
12.9356175374
 20
-29.6515710728
 30
0.0
 10
12.9241513526
 20
-29.6584887424
 30
0.0
 11
12.9644320519
 21
-29.6220292969
 31
0.0
 11
12.9551033644
 21
-29.6328777898
 31
0.0
 11
12.9241513526
 21
-29.6584887424
 31
0.0
  0
SPLINE
  5
3BE
100
AcDbEntity
  8
RACCORDO
100
AcDbSpline
 62
7
  6
CONTINUOUS
 70
0
 71
3
 72
10
 73
6
 74
4
 42
0.0000001
 43
0.0000001
 44
0.0000000001
 12
-0.1137650198
 22
-0.0686356306
 32
0.0
 13
-0.1062414822
 23
0.0797876994
 33
0.0
 40
0.0
 40
0.0
 40
0.0
 40
0.0
 40
0.2472182505
 40
0.4875832399
 40
1.0
 40
1.0
 40
1.0
 40
1.0
 10
12.9241513526
 20
-29.6584887424
 30
0.0
 10
12.9147764229
 20
-29.6641447359
 30
0.0
 10
12.8945605142
 20
-29.6728640004
 30
0.0
 10
12.8495527531
 20
-29.6758855356
 30
0.0
 10
12.8173422405
 20
-29.6605328444
 30
0.0
 10
12.7991956018
 20
-29.6469046596
 30
0.0
 11
12.9241513526
 21
-29.6584887424
 31
0.0
 11
12.8938318504
 21
-29.6711237697
 31
0.0
 11
12.8619675092
 21
-29.6732663532
 31
0.0
 11
12.7991956018
 21
-29.6469046596
 31
0.0
  0
SPLINE
  5
3BF
100
AcDbEntity
  8
RACCORDO
100
AcDbSpline
 62
7
  6
CONTINUOUS
 70
0
 71
3
 72
15
 73
11
 74
9
 42
0.0000001
 43
0.0000001
 44
0.0000000001
 12
0.0000683239
 22
-0.646551538
 32
0.0
 13
-0.5783308173
 23
0.2890715512
 33
0.0
 40
0.0
 40
0.0
 40
0.0
 40
0.0
 40
0.1487777367
 40
0.2853586629
 40
0.4094901324
 40
0.5236272001
 40
0.6329868848
 40
0.7448320058
 40
0.865953558
 40
1.0
 40
1.0
 40
1.0
 40
1.0
 10
13.064848371
 20
-29.6433279349
 30
0.0
 10
13.0648517593
 20
-29.675392093
 30
0.0
 10
13.0606943458
 20
-29.7370292732
 30
0.0
 10
13.0399123729
 20
-29.8233217554
 30
0.0
 10
13.0044833069
 20
-29.8967817722
 30
0.0
 10
12.9543594043
 20
-29.953983485
 30
0.0
 10
12.8905201886
 20
-29.9907960216
 30
0.0
 10
12.8165802616
 20
-30.0041193103
 30
0.0
 10
12.7371624345
 20
-29.993915484
 30
0.0
 10
12.685466662
 20
-29.9737547561
 30
0.0
 10
12.6596255992
 20
-29.9608384185
 30
0.0
 11
13.064848371
 21
-29.6433279349
 31
0.0
 11
13.0577100875
 21
-29.7392551842
 31
0.0
 11
13.036149132
 21
-29.8248891861
 31
0.0
 11
13.0003263847
 21
-29.8967082637
 31
0.0
 11
12.9509786688
 21
-29.9515770009
 31
0.0
 11
12.8896080794
 21
-29.9866923014
 31
0.0
 11
12.8185625779
 21
-30.0001755718
 31
0.0
 11
12.7407523406
 21
-29.9913307548
 31
0.0
 11
12.6596255992
 21
-29.9608384185
 31
0.0
  0
SPLINE
  5
3C0
100
AcDbEntity
  8
0
100
AcDbSpline
 62
7
  6
CONTINUOUS
 70
0
 71
3
 72
9
 73
5
 74
3
 42
0.0000001
 43
0.0000001
 44
0.0000000001
 12
-0.0819902798
 22
0.0180211629
 32
0.0
 13
-0.0758969579
 23
0.0358722745
 33
0.0
 40
0.0
 40
0.0
 40
0.0
 40
0.0
 40
0.24237902
 40
1.0
 40
1.0
 40
1.0
 40
1.0
 10
-1.0149572387
 20
-24.1262086763
 30
0.0
 10
-1.0215814799
 20
-24.1247526924
 30
0.0
 10
-1.0486659836
 20
-24.1176243036
 30
0.0
 10
-1.0747215933
 20
-24.1070029179
 30
0.0
 10
-1.0938886359
 20
-24.0979437219
 30
0.0
 11
-1.0149572387
 21
-24.1262086763
 31
0.0
 11
-1.0346504658
 21
-24.1210919435
 31
0.0
 11
-1.0938886359
 21
-24.0979437219
 31
0.0
  0
SPLINE
  5
3C1
100
AcDbEntity
  8
0
100
AcDbSpline
 62
7
  6
CONTINUOUS
 70
0
 71
3
 72
10
 73
6
 74
4
 42
0.0000001
 43
0.0000001
 44
0.0000000001
 12
-0.1538658195
 22
-0.0769328886
 32
0.0
 13
-0.1555300044
 23
0.0735103904
 33
0.0
 40
0.0
 40
0.0
 40
0.0
 40
0.0
 40
0.4571693218
 40
0.7225207018
 40
1.0
 40
1.0
 40
1.0
 40
1.0
 10
-1.068796124
 20
-24.1916777307
 30
0.0
 10
-1.0922437014
 20
-24.2034015162
 30
0.0
 10
-1.1374043859
 20
-24.2033030487
 30
0.0
 10
-1.1920545123
 20
-24.1875633253
 30
0.0
 10
-1.22092454
 20
-24.1754536039
 30
0.0
 10
-1.2353099921
 20
-24.1686544001
 30
0.0
 11
-1.068796124
 21
-24.1916777307
 31
0.0
 11
-1.1471218483
 21
-24.1987632951
 31
0.0
 11
-1.1912015755
 21
-24.1869021738
 31
0.0
 11
-1.2353099921
 21
-24.1686544001
 31
0.0
  0
SPLINE
  5
3C2
100
AcDbEntity
  8
0
100
AcDbSpline
 62
7
  6
CONTINUOUS
 70
0
 71
3
 72
18
 73
14
 74
12
 42
0.0000001
 43
0.0000001
 44
0.0000000001
 12
0.941199015
 22
0.4706007235
 32
0.0
 13
-0.7660294835
 23
0.7214703439
 33
0.0
 40
0.0
 40
0.0
 40
0.0
 40
0.0
 40
0.0457942768
 40
0.0910579023
 40
0.1389648738
 40
0.1905316202
 40
0.3034455327
 40
0.4295779948
 40
0.5663525932
 40
0.7114677539
 40
0.8584344355
 40
0.9305901952
 40
1.0
 40
1.0
 40
1.0
 40
1.0
 10
-0.7295641907
 20
-24.4017788139
 30
0.0
 10
-0.7151970146
 20
-24.3945952073
 30
0.0
 10
-0.6871086714
 20
-24.379218655
 30
0.0
 10
-0.6487798767
 20
-24.348448114
 30
0.0
 10
-0.6179180891
 20
-24.3075773472
 30
0.0
 10
-0.5846601127
 20
-24.2405620225
 30
0.0
 10
-0.5619128233
 20
-24.1397916208
 30
0.0
 10
-0.5608544484
 20
-24.0073921161
 30
0.0
 10
-0.5827818843
 20
-23.8652442897
 30
0.0
 10
-0.6322950085
 20
-23.7223736696
 30
0.0
 10
-0.6940659843
 20
-23.609778367
 30
0.0
 10
-0.7536802567
 20
-23.5279030466
 30
0.0
 10
-0.7868280249
 20
-23.4906834423
 30
0.0
 10
-0.8045513439
 20
-23.4739910704
 30
0.0
 11
-0.7295641907
 21
-24.4017788139
 31
0.0
 11
-0.6876969408
 21
-24.3779185339
 31
0.0
 11
-0.6508852977
 21
-24.3476931014
 31
0.0
 11
-0.6200051484
 21
-24.3078458493
 31
0.0
 11
-0.5955326672
 21
-24.2594143882
 31
0.0
 11
-0.5669720026
 21
-24.1440795281
 31
0.0
 11
-0.5643068717
 21
-24.0113779771
 31
0.0
 11
-0.586429172
 21
-23.8691613369
 31
0.0
 11
-0.6359843165
 21
-23.7247220788
 31
0.0
 11
-0.7104025004
 21
-23.5891522456
 31
0.0
 11
-0.7552604319
 21
-23.5278906791
 31
0.0
 11
-0.8045513439
 21
-23.4739910704
 31
0.0
  0
SPLINE
  5
3C3
100
AcDbEntity
  8
0
100
AcDbSpline
 62
7
  6
CONTINUOUS
 70
0
 71
3
 72
18
 73
14
 74
12
 42
0.0000001
 43
0.0000001
 44
0.0000000001
 12
0.9411995851
 22
0.4706000933
 32
0.0
 13
-0.7660296496
 23
0.7214705003
 33
0.0
 40
0.0
 40
0.0
 40
0.0
 40
0.0
 40
0.0457942883
 40
0.0910579125
 40
0.1389648735
 40
0.1905316105
 40
0.3034455099
 40
0.4295779653
 40
0.5663525638
 40
0.7114677307
 40
0.8584344238
 40
0.9305901896
 40
1.0
 40
1.0
 40
1.0
 40
1.0
 10
-0.8709857522
 20
-24.4724895947
 30
0.0
 10
-0.8566185638
 20
-24.4653059959
 30
0.0
 10
-0.8285302082
 20
-24.4499294455
 30
0.0
 10
-0.7902013729
 20
-24.4191589404
 30
0.0
 10
-0.7593395478
 20
-24.3782881954
 30
0.0
 10
-0.7260815288
 20
-24.3112728862
 30
0.0
 10
-0.7033341951
 20
-24.2105024798
 30
0.0
 10
-0.7022757917
 20
-24.0781029528
 30
0.0
 10
-0.7242032071
 20
-23.9359550916
 30
0.0
 10
-0.7737163265
 20
-23.7930844279
 30
0.0
 10
-0.8354873116
 20
-23.6804890886
 30
0.0
 10
-0.8951015986
 20
-23.5986137417
 30
0.0
 10
-0.9282493759
 20
-23.5613941254
 30
0.0
 10
-0.9459727001
 20
-23.5447017485
 30
0.0
 11
-0.8709857522
 21
-24.4724895947
 31
0.0
 11
-0.8291184695
 21
-24.4486293268
 31
0.0
 11
-0.7923067923
 21
-24.4184039217
 31
0.0
 11
-0.7614266096
 21
-24.3785566957
 31
0.0
 11
-0.7369540973
 21
-24.3301252482
 31
0.0
 11
-0.7083933809
 21
-24.2147903886
 31
0.0
 11
-0.7057282171
 21
-24.0820888166
 31
0.0
 11
-0.7278504971
 21
-23.9398721415
 31
0.0
 11
-0.7774056362
 21
-23.7954328396
 31
0.0
 11
-0.8518238319
 21
-23.6598629608
 31
0.0
 11
-0.8966817744
 21
-23.5986013743
 31
0.0
 11
-0.9459727001
 21
-23.5447017485
 31
0.0
  0
SPLINE
  5
3C4
100
AcDbEntity
  8
RACCORDO
100
AcDbSpline
 62
7
  6
CONTINUOUS
 70
0
 71
3
 72
9
 73
5
 74
3
 42
0.0000001
 43
0.0000001
 44
0.0000000001
 12
0.1930649248
 22
-0.0965089635
 32
0.0
 13
0.1468093192
 23
-0.1582247421
 33
0.0
 40
0.0
 40
0.0
 40
0.0
 40
0.0
 40
0.2333728381
 40
1.0
 40
1.0
 40
1.0
 40
1.0
 10
12.6596255992
 20
10.6190537371
 30
0.0
 10
12.6746443023
 20
10.6115462135
 30
0.0
 10
12.7372412051
 20
10.5758769999
 30
0.0
 10
12.7923952246
 20
10.5279406524
 30
0.0
 10
12.8299112285
 20
10.487507524
 30
0.0
 11
12.6596255992
 21
10.6190537371
 31
0.0
 11
12.7034557752
 21
10.5942296588
 31
0.0
 11
12.8299112285
 21
10.487507524
 31
0.0
  0
SPLINE
  5
3C5
100
AcDbEntity
  8
RACCORDO
100
AcDbSpline
 62
7
  6
CONTINUOUS
 70
0
 71
3
 72
9
 73
5
 74
3
 42
0.0000001
 43
0.0000001
 44
0.0000000001
 12
0.3040346076
 22
-0.3276753658
 32
0.0
 13
0.1098744707
 23
-0.4332848816
 33
0.0
 40
0.0
 40
0.0
 40
0.0
 40
0.0
 40
0.4971408911
 40
1.0
 40
1.0
 40
1.0
 40
1.0
 10
12.8299112285
 20
10.487507524
 30
0.0
 10
12.8802939071
 20
10.4332072496
 30
0.0
 10
12.9660698055
 20
10.3090816242
 30
0.0
 10
13.0204420312
 20
10.1687543671
 30
0.0
 10
13.0388591573
 20
10.0961272839
 30
0.0
 11
12.8299112285
 21
10.487507524
 31
0.0
 11
12.9578179319
 21
10.3057871834
 31
0.0
 11
13.0388591573
 21
10.0961272839
 31
0.0
  0
SPLINE
  5
3C6
100
AcDbEntity
  8
RACCORDO
100
AcDbSpline
 62
7
  6
CONTINUOUS
 70
0
 71
3
 72
9
 73
5
 74
3
 42
0.0000001
 43
0.0000001
 44
0.0000000001
 12
0.0495971273
 22
-0.1955839723
 32
0.0
 13
0.0000039825
 23
-0.2017745406
 33
0.0
 40
0.0
 40
0.0
 40
0.0
 40
0.0
 40
0.2600359307
 40
1.0
 40
1.0
 40
1.0
 40
1.0
 10
13.0388591573
 20
10.0961272839
 30
0.0
 10
13.043158169
 20
10.0791743305
 30
0.0
 10
13.0577955049
 20
10.0135265644
 30
0.0
 10
13.0648473887
 20
9.9460891184
 30
0.0
 10
13.064848371
 20
9.8963204817
 30
0.0
 11
13.0388591573
 21
10.0961272839
 31
0.0
 11
13.0502577172
 21
10.0449117588
 31
0.0
 11
13.064848371
 21
9.8963204817
 31
0.0
  0
SPLINE
  5
3C7
100
AcDbEntity
  8
RACCORDO
100
AcDbSpline
 62
7
  6
CONTINUOUS
 70
0
 71
3
 72
15
 73
11
 74
9
 42
0.0000001
 43
0.0000001
 44
0.0000000001
 12
-0.0000295858
 22
0.6465588913
 32
0.0
 13
0.578284617
 23
-0.289180398
 33
0.0
 40
0.0
 40
0.0
 40
0.0
 40
0.0
 40
0.1487692636
 40
0.2853510766
 40
0.4094831024
 40
0.5236201584
 40
0.6329787999
 40
0.7448201925
 40
0.8659415831
 40
1.0
 40
1.0
 40
1.0
 40
1.0
 10
-19.7470074532
 20
26.3022483938
 30
0.0
 10
-19.7470089203
 20
26.3343110905
 30
0.0
 10
-19.7428445279
 20
26.3959468709
 30
0.0
 10
-19.7220616175
 20
26.4822377318
 30
0.0
 10
-19.6866379711
 20
26.5557018178
 30
0.0
 10
-19.6365139314
 20
26.6129048054
 30
0.0
 10
-19.5726789775
 20
26.6497214801
 30
0.0
 10
-19.4987423933
 20
26.6630621567
 30
0.0
 10
-19.4193191818
 20
26.6528582378
 30
0.0
 10
-19.3676259882
 20
26.6326812328
 30
0.0
 10
-19.3417846814
 20
26.6197588774
 30
0.0
 11
-19.7470074532
 21
26.3022483938
 31
0.0
 11
-19.73986203
 21
26.3981707146
 31
0.0
 11
-19.7182995835
 21
26.4838059676
 31
0.0
 11
-19.6824801246
 21
26.5556281068
 31
0.0
 11
-19.6331336497
 21
26.6104990783
 31
0.0
 11
-19.5717661483
 21
26.6456200353
 31
0.0
 11
-19.5007245304
 21
26.6591152437
 31
0.0
 11
-19.4229134929
 21
26.6502705079
 31
0.0
 11
-19.3417846814
 21
26.6197588774
 31
0.0
  0
SPLINE
  5
3C8
100
AcDbEntity
  8
RACCORDO
100
AcDbSpline
 62
7
  6
CONTINUOUS
 70
0
 71
3
 72
11
 73
7
 74
5
 42
0.0000001
 43
0.0000001
 44
0.0000000001
 12
-0.7725973854
 22
0.3861779949
 32
0.0
 13
0.0000393068
 23
0.8637361646
 33
0.0
 40
0.0
 40
0.0
 40
0.0
 40
0.0
 40
0.230279706
 40
0.489944866
 40
0.7543046998
 40
1.0
 40
1.0
 40
1.0
 40
1.0
 10
-19.3417846814
 20
-13.9601332782
 30
0.0
 10
-19.401089181
 20
-13.9304902931
 30
0.0
 10
-19.5142019335
 20
-13.841008803
 30
0.0
 10
-19.6416904438
 20
-13.6626457932
 30
0.0
 10
-19.7253400315
 20
-13.4553274341
 30
0.0
 10
-19.7470106723
 20
-13.3081386616
 30
0.0
 10
-19.7470074532
 20
-13.2374000228
 30
0.0
 11
-19.3417846814
 21
-13.9601332782
 31
0.0
 11
-19.5007230805
 21
-13.8405500126
 31
0.0
 11
-19.6331331524
 21
-13.6595249496
 31
0.0
 11
-19.7182994765
 21
-13.447665206
 31
0.0
 11
-19.7470074532
 21
-13.2374000228
 31
0.0
  0
SPLINE
  5
3C9
100
AcDbEntity
  8
RACCORDO
100
AcDbSpline
 62
7
  6
CONTINUOUS
 70
0
 71
3
 72
11
 73
7
 74
5
 42
0.0000001
 43
0.0000001
 44
0.0000000001
 12
-0.1689125333
 22
0.0845958693
 32
0.0
 13
-0.0000000007
 23
0.1889124268
 33
0.0
 40
0.0
 40
0.0
 40
0.0
 40
0.0
 40
0.2171672883
 40
0.4503628529
 40
0.710428482
 40
1.0
 40
1.0
 40
1.0
 40
1.0
 10
14.5623424061
 20
-33.2266207295
 30
0.0
 10
14.5501149805
 20
-33.220496911
 30
0.0
 10
14.5269693329
 20
-33.2029027306
 30
0.0
 10
14.5021539364
 20
-33.1648565953
 30
0.0
 10
14.4873347507
 20
-33.1173367402
 30
0.0
 10
14.4843723509
 20
-33.082597347
 30
0.0
 10
14.4843723508
 20
-33.0643627942
 30
0.0
 11
14.5623424061
 21
-33.2266207295
 31
0.0
 11
14.529517087
 21
-33.2020118239
 31
0.0
 11
14.5048564491
 21
-33.1655074772
 31
0.0
 11
14.4895594897
 21
-33.1188199683
 31
0.0
 11
14.4843723508
 21
-33.0643627942
 31
0.0
  0
SPLINE
  5
3CA
100
AcDbEntity
  8
0
100
AcDbSpline
 62
7
  6
CONTINUOUS
 70
0
 71
3
 72
9
 73
5
 74
3
 42
0.0000001
 43
0.0000001
 44
0.0000000001
 12
-0.1087199623
 22
0.5446236221
 32
0.0
 13
-0.1090135263
 23
0.5445649374
 33
0.0
 40
0.0
 40
0.0
 40
0.0
 40
0.0
 40
0.4998343578
 40
1.0
 40
1.0
 40
1.0
 40
1.0
 10
-0.6294119155
 20
-25.4810905009
 30
0.0
 10
-0.6475259064
 20
-25.3903499681
 30
0.0
 10
-0.6819272739
 20
-25.2084480241
 30
0.0
 10
-0.7171914767
 20
-25.0267132301
 30
0.0
 10
-0.7353664168
 20
-24.9359223395
 30
0.0
 11
-0.6294119155
 21
-25.4810905009
 31
0.0
 11
-0.6821314432
 21
-25.2085500452
 31
0.0
 11
-0.7353664168
 21
-24.9359223395
 31
0.0
  0
SPLINE
  5
3CB
100
AcDbEntity
  8
0
100
AcDbSpline
 62
7
  6
CONTINUOUS
 70
0
 71
3
 72
11
 73
7
 74
5
 42
0.0000001
 43
0.0000001
 44
0.0000000001
 12
-0.092222405
 22
0.4607089669
 32
0.0
 13
-0.3160142747
 23
0.3476962789
 33
0.0
 40
0.0
 40
0.0
 40
0.0
 40
0.0
 40
0.237845111
 40
0.4941131819
 40
0.7548722517
 40
1.0
 40
1.0
 40
1.0
 40
1.0
 10
-0.7353664168
 20
-24.9359223395
 30
0.0
 10
-0.7426779662
 20
-24.8993965478
 30
0.0
 10
-0.7573130791
 20
-24.8233915689
 30
0.0
 10
-0.7887186746
 20
-24.7091933572
 30
0.0
 10
-0.8332536923
 20
-24.5981756737
 30
0.0
 10
-0.8765248819
 20
-24.5305179754
 30
0.0
 10
-0.9023461711
 20
-24.5021079734
 30
0.0
 11
-0.7353664168
 21
-24.9359223395
 31
0.0
 11
-0.7581395448
 21
-24.8265161486
 31
0.0
 11
-0.7906694908
 21
-24.7105864449
 31
0.0
 11
-0.8378098454
 21
-24.5975011983
 31
0.0
 11
-0.9023461711
 21
-24.5021079734
 31
0.0
  0
SPLINE
  5
3CC
100
AcDbEntity
  8
0
100
AcDbSpline
 62
7
  6
CONTINUOUS
 70
0
 71
3
 72
11
 73
7
 74
5
 42
0.0000001
 43
0.0000001
 44
0.0000000001
 12
-0.6333494509
 22
0.5969143223
 32
0.0
 13
-0.8289470693
 23
0.2651131674
 33
0.0
 40
0.0
 40
0.0
 40
0.0
 40
0.0
 40
0.2725542141
 40
0.5262218346
 40
0.7671916502
 40
1.0
 40
1.0
 40
1.0
 40
1.0
 10
-0.9459727001
 20
-23.5447017485
 30
0.0
 10
-1.0035133874
 20
-23.4904712438
 30
0.0
 10
-1.1267518188
 20
-23.3985737788
 30
0.0
 10
-1.3219891081
 20
-23.2910333466
 30
0.0
 10
-1.5163561992
 20
-23.2080659568
 30
0.0
 10
-1.6465184663
 20
-23.1636921001
 30
0.0
 10
-1.7108470661
 20
-23.1431185804
 30
0.0
 11
-0.9459727001
 21
-23.5447017485
 31
0.0
 11
-1.1340390171
 21
-23.4001404625
 31
0.0
 11
-1.3268736777
 21
-23.292651533
 31
0.0
 11
-1.5194611412
 21
-23.2096345476
 31
0.0
 11
-1.7108470661
 21
-23.1431185804
 31
0.0
  0
SPLINE
  5
3CD
100
AcDbEntity
  8
RACCORDO
100
AcDbSpline
 62
7
  6
CONTINUOUS
 70
0
 71
3
 72
11
 73
7
 74
5
 42
0.0000001
 43
0.0000001
 44
0.0000000001
 12
0.0000149406
 22
-0.1443839658
 32
0.0
 13
0.129140946
 23
-0.0645704723
 33
0.0
 40
0.0
 40
0.0
 40
0.0
 40
0.0
 40
0.2065459792
 40
0.4344524192
 40
0.697695169
 40
1.0
 40
1.0
 40
1.0
 40
1.0
 10
-21.5371857603
 20
-14.6450876816
 30
0.0
 10
-21.5371847317
 20
-14.6550283242
 30
0.0
 10
-21.5328159759
 20
-14.6761013388
 30
0.0
 10
-21.5144711334
 20
-14.7048618282
 30
0.0
 10
-21.4858771536
 20
-14.7306618094
 30
0.0
 10
-21.4623443778
 20
-14.7446470284
 30
0.0
 10
-21.4493310672
 20
-14.7511536837
 30
0.0
 11
-21.5371857603
 21
-14.6450876816
 31
0.0
 11
-21.5314363023
 21
-14.6743501338
 31
0.0
 11
-21.5143697895
 21
-14.7024844782
 31
0.0
 11
-21.4866019547
 21
-14.7284374719
 31
0.0
 11
-21.4493310672
 21
-14.7511536837
 31
0.0
  0
SPLINE
  5
3CE
100
AcDbEntity
  8
RACCORDO
100
AcDbSpline
 62
7
  6
CONTINUOUS
 70
0
 71
3
 72
11
 73
7
 74
5
 42
0.0000001
 43
0.0000001
 44
0.0000000001
 12
-0.388888196
 22
-0.1877724662
 32
0.0
 13
-0.3862564261
 23
0.1931281992
 33
0.0
 40
0.0
 40
0.0
 40
0.0
 40
0.0
 40
0.2366411464
 40
0.5012534856
 40
0.7651925916
 40
1.0
 40
1.0
 40
1.0
 40
1.0
 10
15.1877015304
 20
-32.8612401614
 30
0.0
 10
15.1570258809
 20
-32.8760517253
 30
0.0
 10
15.0870676713
 20
-32.8971099674
 30
0.0
 10
14.9767679238
 20
-32.9068535185
 30
0.0
 10
14.8668205812
 20
-32.8962023567
 30
0.0
 10
14.7974039417
 20
-32.874521187
 30
0.0
 10
14.7671719849
 20
-32.8594052097
 30
0.0
 11
15.1877015304
 21
-32.8612401614
 31
0.0
 11
15.0904598612
 21
-32.8926640191
 31
0.0
 11
14.9766861649
 21
-32.9033268074
 31
0.0
 11
14.8633019836
 21
-32.8916728282
 31
0.0
 11
14.7671719849
 21
-32.8594052097
 31
0.0
  0
SPLINE
  5
3CF
100
AcDbEntity
  8
RACCORDO
100
AcDbSpline
 62
7
  6
CONTINUOUS
 70
0
 71
3
 72
11
 73
7
 74
5
 42
0.0000001
 43
0.0000001
 44
0.0000000001
 12
-0.3888881901
 22
-0.1877724818
 32
0.0
 13
-0.3862564227
 23
0.1931282092
 33
0.0
 40
0.0
 40
0.0
 40
0.0
 40
0.0
 40
0.2366411463
 40
0.5012534836
 40
0.7651925891
 40
1.0
 40
1.0
 40
1.0
 40
1.0
 10
15.1877015304
 20
11.408239188
 30
0.0
 10
15.1570258814
 20
11.3934276229
 30
0.0
 10
15.0870676719
 20
11.3723693795
 30
0.0
 10
14.9767679243
 20
11.3626258298
 30
0.0
 10
14.8668205814
 20
11.373276993
 30
0.0
 10
14.7974039418
 20
11.3949581643
 30
0.0
 10
14.7671719849
 20
11.4100741426
 30
0.0
 11
15.1877015304
 21
11.408239188
 31
0.0
 11
15.0904598615
 21
11.3768153283
 31
0.0
 11
14.9766861656
 21
11.3661525408
 31
0.0
 11
14.8633019843
 21
11.3778065217
 31
0.0
 11
14.7671719849
 21
11.4100741426
 31
0.0
  0
SPLINE
  5
3D0
100
AcDbEntity
  8
RACCORDO
100
AcDbSpline
 62
7
  6
CONTINUOUS
 70
0
 71
3
 72
11
 73
7
 74
5
 42
0.0000001
 43
0.0000001
 44
0.0000000001
 12
-0.3869291685
 22
-0.2017363581
 32
0.0
 13
0.0000000016
 23
-0.4363619365
 33
0.0
 40
0.0
 40
0.0
 40
0.0
 40
0.0
 40
0.2307483952
 40
0.4893409435
 40
0.7537520457
 40
1.0
 40
1.0
 40
1.0
 40
1.0
 10
-20.9581016117
 20
30.0872662135
 30
0.0
 10
-20.9878627066
 20
30.0717494332
 30
0.0
 10
-21.0445355622
 20
30.0263854394
 30
0.0
 10
-21.1099097623
 20
29.9372186598
 30
0.0
 10
-21.1543122156
 20
29.8335084547
 30
0.0
 10
-21.1665314331
 20
29.7591009978
 30
0.0
 10
-21.166531433
 20
29.7232832531
 30
0.0
 11
-20.9581016117
 21
30.0872662135
 31
0.0
 11
-21.0381463064
 21
30.0261819601
 31
0.0
 11
-21.1056959438
 21
29.9357944626
 31
0.0
 11
-21.1507340545
 21
29.8295689077
 31
0.0
 11
-21.166531433
 21
29.7232832531
 31
0.0
  0
SPLINE
  5
3D1
100
AcDbEntity
  8
RACCORDO
100
AcDbSpline
 62
7
  6
CONTINUOUS
 70
0
 71
3
 72
11
 73
7
 74
5
 42
0.0000001
 43
0.0000001
 44
0.0000000001
 12
-0.3869291761
 22
-0.2017363465
 32
0.0
 13
0.0000000104
 23
-0.4363619379
 33
0.0
 40
0.0
 40
0.0
 40
0.0
 40
0.0
 40
0.2307483971
 40
0.4893409449
 40
0.7537520468
 40
1.0
 40
1.0
 40
1.0
 40
1.0
 10
14.6928021697
 20
12.2618143228
 30
0.0
 10
14.663041074
 20
12.2462975433
 30
0.0
 10
14.606368217
 20
12.20093355
 30
0.0
 10
14.5409940178
 20
12.1117667689
 30
0.0
 10
14.496591566
 20
12.0080565631
 30
0.0
 10
14.4843723499
 20
11.9336491059
 30
0.0
 10
14.4843723508
 20
11.8978313612
 30
0.0
 11
14.6928021697
 21
12.2618143228
 31
0.0
 11
14.6127574731
 21
12.20073007
 31
0.0
 11
14.5452078364
 21
12.1103425718
 31
0.0
 11
14.5001697273
 21
12.004117016
 31
0.0
 11
14.4843723508
 21
11.8978313612
 31
0.0
  0
SPLINE
  5
3D2
100
AcDbEntity
  8
RACCORDO
100
AcDbSpline
 62
7
  6
CONTINUOUS
 70
0
 71
3
 72
11
 73
7
 74
5
 42
0.0000001
 43
0.0000001
 44
0.0000000001
 12
-0.0064397843
 22
1.0264956433
 32
0.0
 13
-0.9152946272
 23
0.4647262871
 33
0.0
 40
0.0
 40
0.0
 40
0.0
 40
0.0
 40
0.2466773324
 40
0.5119103822
 40
0.7706310354
 40
1.0
 40
1.0
 40
1.0
 40
1.0
 10
15.1877015304
 20
11.4082391897
 30
0.0
 10
15.1871720142
 20
11.492643592
 30
0.0
 10
15.1571652583
 20
11.6679027383
 30
0.0
 10
15.0512108077
 20
11.9117277063
 30
0.0
 10
14.8964751358
 20
12.1205778247
 30
0.0
 10
14.762782231
 20
12.2262830599
 30
0.0
 10
14.6928021707
 20
12.2618143223
 30
0.0
 11
15.1877015304
 21
11.4082391897
 31
0.0
 11
15.1488774399
 21
11.6584633725
 31
0.0
 11
15.0411969866
 21
11.9085306743
 31
0.0
 11
14.8810512496
 21
12.1203950899
 31
0.0
 11
14.6928021707
 21
12.2618143223
 31
0.0
  0
SPLINE
  5
3D3
100
AcDbEntity
  8
RACCORDO
100
AcDbSpline
 62
7
  6
CONTINUOUS
 70
0
 71
3
 72
11
 73
7
 74
5
 42
0.0000001
 43
0.0000001
 44
0.0000000001
 12
-0.299686386
 22
0.1475513079
 32
0.0
 13
-0.2939687779
 23
-0.1586369315
 33
0.0
 40
0.0
 40
0.0
 40
0.0
 40
0.0
 40
0.2797829828
 40
0.535973102
 40
0.7731347539
 40
1.0
 40
1.0
 40
1.0
 40
1.0
 10
-20.9581016131
 20
30.0872662142
 30
0.0
 10
-20.9860506635
 20
30.1010269959
 30
0.0
 10
-21.0419134003
 20
30.1231156344
 30
0.0
 10
-21.1273941235
 20
30.1381139327
 30
0.0
 10
-21.2082739124
 20
30.1325080786
 30
0.0
 10
-21.2576240946
 20
30.1145836881
 30
0.0
 10
-21.2798545277
 20
30.1025872859
 30
0.0
 11
-20.9581016131
 21
30.0872662142
 31
0.0
 11
-21.0452979305
 21
30.1209021916
 31
0.0
 11
-21.1297288511
 21
30.1348667779
 31
0.0
 11
-21.2087093175
 21
30.1286892291
 31
0.0
 11
-21.2798545277
 21
30.1025872859
 31
0.0
  0
SPLINE
  5
3D4
100
AcDbEntity
  8
RACCORDO
100
AcDbSpline
 62
7
  6
CONTINUOUS
 70
0
 71
3
 72
11
 73
7
 74
5
 42
0.0000001
 43
0.0000001
 44
0.0000000001
 12
0.0000149435
 22
-0.1443839616
 32
0.0
 13
0.1291409438
 23
-0.0645704673
 33
0.0
 40
0.0
 40
0.0
 40
0.0
 40
0.0
 40
0.2065459795
 40
0.4344524194
 40
0.6976951678
 40
1.0
 40
1.0
 40
1.0
 40
1.0
 10
-21.5371857603
 20
29.6243916654
 30
0.0
 10
-21.5371847314
 20
29.6144510231
 30
0.0
 10
-21.5328159755
 20
29.5933780091
 30
0.0
 10
-21.5144711326
 20
29.5646175212
 30
0.0
 10
-21.4858771531
 20
29.5388175414
 30
0.0
 10
-21.4623443776
 20
29.5248323234
 30
0.0
 10
-21.4493310672
 20
29.5183256686
 30
0.0
 11
-21.5371857603
 21
29.6243916654
 31
0.0
 11
-21.5314363019
 21
29.5951292141
 31
0.0
 11
-21.5143697888
 21
29.566994871
 31
0.0
 11
-21.4866019544
 21
29.5410418789
 31
0.0
 11
-21.4493310672
 21
29.5183256686
 31
0.0
  0
SPLINE
  5
3D5
100
AcDbEntity
  8
RACCORDO
100
AcDbSpline
 62
7
  6
CONTINUOUS
 70
0
 71
3
 72
8
 73
4
 74
2
 42
0.0000001
 43
0.0000001
 44
0.0000000001
 12
-0.0001078805
 22
-0.0044165924
 32
0.0
 13
0.0011411553
 23
-0.0042679844
 33
0.0
 40
0.0
 40
0.0
 40
0.0
 40
0.0
 40
1.0
 40
1.0
 40
1.0
 40
1.0
 10
-18.1266599719
 20
-12.3596583264
 30
0.0
 10
-18.1266959321
 20
-12.3611305238
 30
0.0
 10
-18.1265482624
 20
-12.3626260828
 30
0.0
 10
-18.1261678773
 20
-12.3640487442
 30
0.0
 11
-18.1266599719
 21
-12.3596583264
 31
0.0
 11
-18.1261678773
 21
-12.3640487442
 31
0.0
  0
SPLINE
  5
3D6
100
AcDbEntity
  8
RACCORDO
100
AcDbSpline
 62
7
  6
CONTINUOUS
 70
0
 71
3
 72
8
 73
4
 74
2
 42
0.0000001
 43
0.0000001
 44
0.0000000001
 12
0.0059652129
 22
-0.0053567327
 32
0.0
 13
0.0072571928
 23
-0.0034075655
 33
0.0
 40
0.0
 40
0.0
 40
0.0
 40
0.0
 40
1.0
 40
1.0
 40
1.0
 40
1.0
 10
-17.8894032648
 20
-12.7050468455
 30
0.0
 10
-17.8874148605
 20
-12.7068324231
 30
0.0
 10
-17.8850978461
 20
-12.7082767296
 30
0.0
 10
-17.8826787818
 20
-12.7094125848
 30
0.0
 11
-17.8894032648
 21
-12.7050468455
 31
0.0
 11
-17.8826787818
 21
-12.7094125848
 31
0.0
  0
SPLINE
  5
3D7
100
AcDbEntity
  8
RACCORDO
100
AcDbSpline
 62
7
  6
CONTINUOUS
 70
0
 71
3
 72
12
 73
8
 74
6
 42
0.0000001
 43
0.0000001
 44
0.0000000001
 12
0.1059276384
 22
-0.4051873779
 32
0.0
 13
0.3121385671
 23
-0.2792256985
 33
0.0
 40
0.0
 40
0.0
 40
0.0
 40
0.0
 40
0.1121053541
 40
0.2348834912
 40
0.5037472525
 40
0.7736369204
 40
1.0
 40
1.0
 40
1.0
 40
1.0
 10
-18.1261678773
 20
-12.3640487442
 30
0.0
 10
-18.1222095255
 20
-12.3791899691
 30
0.0
 10
-18.1101403513
 20
-12.4098755682
 30
0.0
 10
-18.0779788788
 20
-12.4724304327
 30
0.0
 10
-18.0273374434
 20
-12.549970085
 30
0.0
 10
-17.9609907542
 20
-12.6337801633
 30
0.0
 10
-17.9129554806
 20
-12.6839780492
 30
0.0
 10
-17.8894032648
 20
-12.7050468455
 30
0.0
 11
-18.1261678773
 21
-12.3640487442
 31
0.0
 11
-18.1100220339
 21
-12.4081354643
 31
0.0
 11
-18.0868165257
 21
-12.4540215029
 31
0.0
 11
-18.0260523908
 21
-12.5488202577
 31
0.0
 11
-17.9557365974
 21
-12.6373172477
 31
0.0
 11
-17.8894032648
 21
-12.7050468455
 31
0.0
  0
SPLINE
  5
3D8
100
AcDbEntity
  8
RACCORDO
100
AcDbSpline
 62
7
  6
CONTINUOUS
 70
0
 71
3
 72
11
 73
7
 74
5
 42
0.0000001
 43
0.0000001
 44
0.0000000001
 12
-0.0833045041
 22
-0.4359359848
 32
0.0
 13
0.3930894823
 23
-0.2060594142
 33
0.0
 40
0.0
 40
0.0
 40
0.0
 40
0.0
 40
0.2511517454
 40
0.4487455359
 40
0.6468958624
 40
1.0
 40
1.0
 40
1.0
 40
1.0
 10
-18.1865430754
 20
-12.3966488859
 30
0.0
 10
-18.1935170993
 20
-12.433144247
 30
0.0
 10
-18.1934848577
 20
-12.5009483258
 30
0.0
 10
-18.1699772772
 20
-12.5943668435
 30
0.0
 10
-18.121973858
 20
-12.6943788286
 30
0.0
 10
-18.062897032
 20
-12.7574728661
 30
0.0
 10
-18.0166298577
 20
-12.7817263434
 30
0.0
 11
-18.1865430754
 21
-12.3966488859
 31
0.0
 11
-18.1883831685
 21
-12.5081008918
 31
0.0
 11
-18.1672583665
 21
-12.5932154397
 31
0.0
 11
-18.1288395236
 21
-12.67232372
 31
0.0
 11
-18.0166298577
 21
-12.7817263434
 31
0.0
  0
SPLINE
  5
3D9
100
AcDbEntity
  8
RACCORDO
100
AcDbSpline
 62
7
  6
CONTINUOUS
 70
0
 71
3
 72
12
 73
8
 74
6
 42
0.0000001
 43
0.0000001
 44
0.0000000001
 12
-0.441345228
 22
0.1390621656
 32
0.0
 13
0.1107198084
 23
0.4492939129
 33
0.0
 40
0.0
 40
0.0
 40
0.0
 40
0.0
 40
0.1130792618
 40
0.2328059822
 40
0.4871959537
 40
0.747793086
 40
1.0
 40
1.0
 40
1.0
 40
1.0
 10
-19.2022221386
 20
-13.6461980426
 30
0.0
 10
-19.2188578027
 20
-13.6409563602
 30
0.0
 10
-19.2518576578
 20
-13.6256716668
 30
0.0
 10
-19.3105012406
 20
-13.5775653972
 30
0.0
 10
-19.3612868767
 20
-13.4900527961
 30
0.0
 10
-19.3811868787
 20
-13.3716276858
 30
0.0
 10
-19.3721106597
 20
-13.2919788245
 30
0.0
 10
-19.3628025593
 20
-13.2542071474
 30
0.0
 11
-19.2022221386
 21
-13.6461980426
 31
0.0
 11
-19.2497411614
 21
-13.6242907954
 31
0.0
 11
-19.2927456101
 21
-13.5893626731
 31
0.0
 11
-19.3539950837
 21
-13.488837199
 31
0.0
 11
-19.3756255266
 21
-13.3702055716
 31
0.0
 11
-19.3628025593
 21
-13.2542071474
 31
0.0
  0
SPLINE
  5
3DA
100
AcDbEntity
  8
RACCORDO
100
AcDbSpline
 62
7
  6
CONTINUOUS
 70
0
 71
3
 72
13
 73
9
 74
7
 42
0.0000001
 43
0.0000001
 44
0.0000000001
 12
-0.0674751306
 22
0.2265639571
 32
0.0
 13
0.2363073813
 23
-0.006552971
 33
0.0
 40
0.0
 40
0.0
 40
0.0
 40
0.0
 40
0.2945589199
 40
0.424784954
 40
0.543462679
 40
0.6533946805
 40
0.7606774794
 40
1.0
 40
1.0
 40
1.0
 40
1.0
 10
-19.3628025566
 20
26.2854418786
 30
0.0
 10
-19.3694276905
 20
26.3076873568
 30
0.0
 10
-19.3764196652
 20
26.3408679093
 30
0.0
 10
-19.3756559539
 20
26.3838719199
 30
0.0
 10
-19.3695368671
 20
26.4117314848
 30
0.0
 10
-19.3570489194
 20
26.4355366231
 30
0.0
 10
-19.3300945272
 20
26.4605095733
 30
0.0
 10
-19.3009268099
 20
26.4658414937
 30
0.0
 10
-19.2820755839
 20
26.4653187358
 30
0.0
 11
-19.3628025566
 21
26.2854418786
 31
0.0
 11
-19.3754754913
 21
26.3539121641
 31
0.0
 11
-19.3745736087
 21
26.3846841536
 31
0.0
 11
-19.368147801
 21
26.4119935554
 31
0.0
 11
-19.3557340739
 21
26.434824707
 31
0.0
 11
-19.3370564045
 21
26.4519812938
 31
0.0
 11
-19.2820755839
 21
26.4653187358
 31
0.0
  0
SPLINE
  5
3DB
100
AcDbEntity
  8
RACCORDO
100
AcDbSpline
 62
7
  6
CONTINUOUS
 70
0
 71
3
 72
11
 73
7
 74
5
 42
0.0000001
 43
0.0000001
 44
0.0000000001
 12
-0.1290177401
 22
0.0645089098
 32
0.0
 13
-0.0002138584
 23
0.1442460779
 33
0.0
 40
0.0
 40
0.0
 40
0.0
 40
0.0
 40
0.3021029428
 40
0.5655351349
 40
0.7935297513
 40
1.0
 40
1.0
 40
1.0
 40
1.0
 10
13.064848371
 20
-29.6433279349
 30
0.0
 10
13.051856158
 20
-29.6368318244
 30
0.0
 10
13.0283543921
 20
-29.6228521663
 30
0.0
 10
12.9997570976
 20
-29.5971010728
 30
0.0
 10
12.9814266039
 20
-29.5683659803
 30
0.0
 10
12.9769991616
 20
-29.5473274889
 30
0.0
 10
12.9769844431
 20
-29.5373999811
 30
0.0
 11
13.064848371
 21
-29.6433279349
 31
0.0
 11
13.0276379565
 21
-29.6206484616
 31
0.0
 11
12.9998600494
 21
-29.5947193342
 31
0.0
 11
12.9827845241
 21
-29.5666123025
 31
0.0
 11
12.9769844431
 21
-29.5373999811
 31
0.0
  0
SPLINE
  5
3DC
100
AcDbEntity
  8
RACCORDO
100
AcDbSpline
 62
7
  6
CONTINUOUS
 70
0
 71
3
 72
9
 73
5
 74
3
 42
0.0000001
 43
0.0000001
 44
0.0000000001
 12
0.0
 22
0.3499494896
 32
0.0
 13
0.2542494972
 23
0.2404617193
 33
0.0
 40
0.0
 40
0.0
 40
0.0
 40
0.0
 40
0.4929880284
 40
1.0
 40
1.0
 40
1.0
 40
1.0
 10
12.6596255992
 20
-29.9608384185
 30
0.0
 10
12.6596255992
 20
-29.9033314489
 30
0.0
 10
12.6893993763
 20
-29.7868061865
 30
0.0
 10
12.7562350251
 20
-29.6875488014
 30
0.0
 10
12.7992042048
 20
-29.6469098113
 30
0.0
 11
12.6596255992
 21
-29.9608384185
 31
0.0
 11
12.697989244
 21
-29.7926370667
 31
0.0
 11
12.7992042048
 21
-29.6469098113
 31
0.0
  0
SPLINE
  5
3DD
100
AcDbEntity
  8
RACCORDO
100
AcDbSpline
 62
7
  6
CONTINUOUS
 70
0
 71
3
 72
9
 73
5
 74
3
 42
0.0000001
 43
0.0000001
 44
0.0000000001
 12
-0.0000000378
 22
0.3499494932
 32
0.0
 13
0.2542495257
 23
0.2404616945
 33
0.0
 40
0.0
 40
0.0
 40
0.0
 40
0.0
 40
0.4929880306
 40
1.0
 40
1.0
 40
1.0
 40
1.0
 10
-19.3417846814
 20
-13.9601332782
 30
0.0
 10
-19.3417846876
 20
-13.9026263077
 30
0.0
 10
-19.3120109164
 20
-13.7861010405
 30
0.0
 10
-19.2451752601
 20
-13.6868436568
 30
0.0
 10
-19.2022060759
 20
-13.646204671
 30
0.0
 11
-19.3417846814
 21
-13.9601332782
 31
0.0
 11
-19.3034210452
 21
-13.7919319217
 31
0.0
 11
-19.2022060759
 21
-13.646204671
 31
0.0
  0
SPLINE
  5
3DE
100
AcDbEntity
  8
RACCORDO
100
AcDbSpline
 62
7
  6
CONTINUOUS
 70
0
 71
3
 72
11
 73
7
 74
5
 42
0.0000001
 43
0.0000001
 44
0.0000000001
 12
0.351344799
 22
-0.1756723995
 32
0.0
 13
0.3707501259
 23
0.1298010165
 33
0.0
 40
0.0
 40
0.0
 40
0.0
 40
0.0
 40
0.2301996678
 40
0.4886873034
 40
0.7531669766
 40
1.0
 40
1.0
 40
1.0
 40
1.0
 10
-19.7470074532
 20
-13.2374000228
 30
0.0
 10
-19.7200476345
 20
-13.2508799321
 30
0.0
 10
-19.6586224998
 20
-13.2711422616
 30
0.0
 10
-19.5603612876
 20
-13.2836924738
 30
0.0
 10
-19.4592016226
 20
-13.2794719873
 30
0.0
 10
-19.3933069461
 20
-13.2648865381
 30
0.0
 10
-19.3628024879
 20
-13.2542068123
 30
0.0
 11
-19.7470074532
 21
-13.2374000228
 31
0.0
 11
-19.6616608973
 21
-13.2672801737
 31
0.0
 11
-19.5610221416
 21
-13.2807632103
 31
0.0
 11
-19.4572297053
 21
-13.2762228796
 31
0.0
 11
-19.3628024879
 21
-13.2542068123
 31
0.0
  0
SPLINE
  5
3DF
100
AcDbEntity
  8
RACCORDO
100
AcDbSpline
 62
7
  6
CONTINUOUS
 70
0
 71
3
 72
11
 73
7
 74
5
 42
0.0000001
 43
0.0000001
 44
0.0000000001
 12
0.3513450544
 22
-0.1756717083
 32
0.0
 13
0.3707502832
 23
0.1298003232
 33
0.0
 40
0.0
 40
0.0
 40
0.0
 40
0.0
 40
0.2301995877
 40
0.4886872501
 40
0.753166985
 40
1.0
 40
1.0
 40
1.0
 40
1.0
 10
-19.7470074532
 20
26.3022483938
 30
0.0
 10
-19.7200476243
 20
26.2887685422
 30
0.0
 10
-19.6586224878
 20
26.2685063016
 30
0.0
 10
-19.560361294
 20
26.2559561341
 30
0.0
 10
-19.4592016418
 20
26.260176574
 30
0.0
 10
-19.393306958
 20
26.2747619359
 30
0.0
 10
-19.3628024879
 20
26.2854416043
 30
0.0
 11
-19.7470074532
 21
26.3022483938
 31
0.0
 11
-19.6616609043
 21
26.2723683746
 31
0.0
 11
-19.561022153
 21
26.2588853825
 31
0.0
 11
-19.4572297117
 21
26.2634256668
 31
0.0
 11
-19.3628024879
 21
26.2854416043
 31
0.0
  0
SPLINE
  5
3E0
100
AcDbEntity
  8
RACCORDO
100
AcDbSpline
 62
7
  6
CONTINUOUS
 70
0
 71
3
 72
11
 73
7
 74
5
 42
0.0000001
 43
0.0000001
 44
0.0000000001
 12
0.0
 22
-0.1887151356
 32
0.0
 13
0.1686414792
 23
-0.0846962448
 33
0.0
 40
0.0
 40
0.0
 40
0.0
 40
0.0
 40
0.289561128
 40
0.5496260088
 40
0.7828372969
 40
1.0
 40
1.0
 40
1.0
 40
1.0
 10
-19.3417846814
 20
26.6197588774
 30
0.0
 10
-19.3417846814
 20
26.6015440216
 30
0.0
 10
-19.3388334956
 20
26.5668411238
 30
0.0
 10
-19.3240382814
 20
26.5193687042
 30
0.0
 10
-19.2992909842
 20
26.4813422576
 30
0.0
 10
-19.2762048661
 20
26.4637169349
 30
0.0
 10
-19.2639973196
 20
26.4575859798
 30
0.0
 11
-19.3417846814
 21
26.6197588774
 31
0.0
 11
-19.3366111059
 21
26.5653597701
 31
0.0
 11
-19.3213459842
 21
26.5187159738
 31
0.0
 11
-19.2967483264
 21
26.4822210518
 31
0.0
 11
-19.2639973196
 21
26.4575859798
 31
0.0
  0
SPLINE
  5
3E1
100
AcDbEntity
  8
RACCORDO
100
AcDbSpline
 62
7
  6
CONTINUOUS
 70
0
 71
3
 72
11
 73
7
 74
5
 42
0.0000001
 43
0.0000001
 44
0.0000000001
 12
0.0000000204
 22
-0.1889139627
 32
0.0
 13
0.1689716008
 23
-0.0844812608
 33
0.0
 40
0.0
 40
0.0
 40
0.0
 40
0.0
 40
0.2895956157
 40
0.5496517743
 40
0.782834843
 40
1.0
 40
1.0
 40
1.0
 40
1.0
 10
12.6596255992
 20
10.6190537371
 30
0.0
 10
12.6596256012
 20
10.6008175186
 30
0.0
 10
12.662583347
 20
10.5660760401
 30
0.0
 10
12.6774144411
 20
10.5185584288
 30
0.0
 10
12.7022229708
 20
10.4805142638
 30
0.0
 10
12.7253614798
 20
10.4629060535
 30
0.0
 10
12.7375930612
 20
10.4567905914
 30
0.0
 11
12.6596255992
 21
10.6190537371
 31
0.0
 11
12.6648119284
 21
10.5645914661
 31
0.0
 11
12.6801141148
 21
10.5179071325
 31
0.0
 11
12.7047693902
 21
10.4814015801
 31
0.0
 11
12.7375930612
 21
10.4567905914
 31
0.0
  0
SPLINE
  5
3E2
100
AcDbEntity
  8
RACCORDO
100
AcDbSpline
 62
7
  6
CONTINUOUS
 70
0
 71
3
 72
11
 73
7
 74
5
 42
0.0000001
 43
0.0000001
 44
0.0000000001
 12
-0.1291394801
 22
0.0645697401
 32
0.0
 13
0.0000513271
 23
0.144382319
 33
0.0
 40
0.0
 40
0.0
 40
0.0
 40
0.0
 40
0.3021491765
 40
0.5655722792
 40
0.7935305764
 40
1.0
 40
1.0
 40
1.0
 40
1.0
 10
13.064848371
 20
9.8963204817
 30
0.0
 10
13.0518419084
 20
9.902823713
 30
0.0
 10
13.0283170926
 20
9.9168193923
 30
0.0
 10
12.9997014129
 20
9.9426059088
 30
0.0
 10
12.9813783855
 20
9.971383984
 30
0.0
 10
12.9769808329
 20
9.9924496538
 30
0.0
 10
12.9769843654
 20
10.0023864985
 30
0.0
 11
13.064848371
 21
9.8963204817
 31
0.0
 11
13.0275995037
 21
9.9190286883
 31
0.0
 11
12.999807127
 21
9.9449929258
 31
0.0
 11
12.9827440362
 21
9.9731376652
 31
0.0
 11
12.9769843654
 21
10.0023864985
 31
0.0
  0
SPLINE
  5
3E3
100
AcDbEntity
  8
RACCORDO
100
AcDbSpline
 62
7
  6
CONTINUOUS
 70
0
 71
3
 72
9
 73
5
 74
3
 42
0.0000001
 43
0.0000001
 44
0.0000000001
 12
-0.0589855135
 22
-0.0284813438
 32
0.0
 13
-0.0618225118
 23
-0.0216438161
 33
0.0
 40
0.0
 40
0.0
 40
0.0
 40
0.0
 40
0.242176738
 40
1.0
 40
1.0
 40
1.0
 40
1.0
 10
-18.1266599719
 20
-12.3596583264
 30
0.0
 10
-18.1314216117
 20
-12.3619574993
 30
0.0
 10
-18.151230792
 20
-12.3711448369
 30
0.0
 10
-18.1715840931
 20
-12.3791439916
 30
0.0
 10
-18.187200939
 20
-12.3846113874
 30
0.0
 11
-18.1266599719
 21
-12.3596583264
 31
0.0
 11
-18.1410481695
 21
-12.3663377318
 31
0.0
 11
-18.187200939
 21
-12.3846113874
 31
0.0
  0
SPLINE
  5
3E4
100
AcDbEntity
  8
RACCORDO
100
AcDbSpline
 62
7
  6
CONTINUOUS
 70
0
 71
3
 72
9
 73
5
 74
3
 42
0.0000001
 43
0.0000001
 44
0.0000000001
 12
-0.0583444953
 22
-0.0361522703
 32
0.0
 13
-0.0621215538
 23
-0.029188685
 33
0.0
 40
0.0
 40
0.0
 40
0.0
 40
0.0
 40
0.2434976864
 40
1.0
 40
1.0
 40
1.0
 40
1.0
 10
-18.1261799141
 20
-12.3640427781
 30
0.0
 10
-18.1309154973
 20
-12.3669771095
 30
0.0
 10
-18.1505516464
 20
-12.3787231551
 30
0.0
 10
-18.1708943666
 20
-12.3892768005
 30
0.0
 10
-18.1865593997
 20
-12.3966372364
 30
0.0
 11
-18.1261799141
 21
-12.3640427781
 31
0.0
 11
-18.1405201044
 21
-12.3726266806
 31
0.0
 11
-18.1865593997
 21
-12.3966372364
 31
0.0
  0
SPLINE
  5
3E5
100
AcDbEntity
  8
RACCORDO
100
AcDbSpline
 62
7
  6
CONTINUOUS
 70
0
 71
3
 72
9
 73
5
 74
3
 42
0.0000001
 43
0.0000001
 44
0.0000000001
 12
-0.137051042
 22
-0.0578506098
 32
0.0
 13
-0.1164664418
 23
-0.092548631
 33
0.0
 40
0.0
 40
0.0
 40
0.0
 40
0.0
 40
0.239451421
 40
1.0
 40
1.0
 40
1.0
 40
1.0
 10
-17.8894032579
 20
-12.7050463767
 30
0.0
 10
-17.9003422801
 20
-12.709663847
 30
0.0
 10
-17.9452709106
 20
-12.7307222689
 30
0.0
 10
-17.987008318
 20
-12.7583249721
 30
0.0
 10
-18.016534447
 20
-12.7817875487
 30
0.0
 11
-17.8894032579
 21
-12.7050463767
 31
0.0
 11
-17.9216757538
 21
-12.7201240144
 31
0.0
 11
-18.016534447
 21
-12.7817875487
 31
0.0
  0
SPLINE
  5
3E6
100
AcDbEntity
  8
RACCORDO
100
AcDbSpline
 62
7
  6
CONTINUOUS
 70
0
 71
3
 72
9
 73
5
 74
3
 42
0.0000001
 43
0.0000001
 44
0.0000000001
 12
-0.1260316343
 22
-0.0657101216
 32
0.0
 13
-0.1032641788
 23
-0.0976642324
 33
0.0
 40
0.0
 40
0.0
 40
0.0
 40
0.0
 40
0.2371046482
 40
1.0
 40
1.0
 40
1.0
 40
1.0
 10
-17.8826787818
 20
-12.7094125848
 30
0.0
 10
-17.8926396773
 20
-12.7146059765
 30
0.0
 10
-17.9337543958
 20
-12.7382194655
 30
0.0
 10
-17.971170885
 20
-12.768000645
 30
0.0
 10
-17.9974308057
 20
-12.792836508
 30
0.0
 11
-17.8826787818
 21
-12.7094125848
 31
0.0
 11
-17.9119287497
 21
-12.7261504515
 31
0.0
 11
-17.9974308057
 21
-12.792836508
 31
0.0
  0
SPLINE
  5
3E7
100
AcDbEntity
  8
0
100
AcDbSpline
 62
7
  6
CONTINUOUS
 70
0
 71
3
 72
9
 73
5
 74
3
 42
0.0000001
 43
0.0000001
 44
0.0000000001
 12
-0.1087199623
 22
0.5446236221
 32
0.0
 13
-0.1090135263
 23
0.5445649374
 33
0.0
 40
0.0
 40
0.0
 40
0.0
 40
0.0
 40
0.4998343578
 40
1.0
 40
1.0
 40
1.0
 40
1.0
 10
-0.4879905593
 20
-25.4103798228
 30
0.0
 10
-0.5061045501
 20
-25.31963929
 30
0.0
 10
-0.5405059177
 20
-25.1377373459
 30
0.0
 10
-0.5757701205
 20
-24.956002552
 30
0.0
 10
-0.5939450606
 20
-24.8652116614
 30
0.0
 11
-0.4879905593
 21
-25.4103798228
 31
0.0
 11
-0.540710087
 21
-25.1378393671
 31
0.0
 11
-0.5939450606
 21
-24.8652116614
 31
0.0
  0
SPLINE
  5
3E8
100
AcDbEntity
  8
0
100
AcDbSpline
 62
7
  6
CONTINUOUS
 70
0
 71
3
 72
10
 73
6
 74
4
 42
0.0000001
 43
0.0000001
 44
0.0000000001
 12
-0.0804064484
 22
0.4016808253
 32
0.0
 13
-0.225441423
 23
0.3420363243
 33
0.0
 40
0.0
 40
0.0
 40
0.0
 40
0.0
 40
0.2355950055
 40
0.6170372298
 40
1.0
 40
1.0
 40
1.0
 40
1.0
 10
-0.5939450606
 20
-24.8652116614
 30
0.0
 10
-0.6002595131
 20
-24.833666996
 30
0.0
 10
-0.6161847712
 20
-24.7509000577
 30
0.0
 10
-0.65216366
 20
-24.6190407695
 30
0.0
 10
-0.6954542513
 20
-24.5227374903
 30
0.0
 10
-0.7242328086
 20
-24.4790750975
 30
0.0
 11
-0.5939450606
 21
-24.8652116614
 31
0.0
 11
-0.613335368
 21
-24.7706682321
 31
0.0
 11
-0.6560403025
 21
-24.6203594605
 31
0.0
 11
-0.7242328086
 21
-24.4790750975
 31
0.0
  0
SPLINE
  5
3E9
100
AcDbEntity
  8
0
100
AcDbSpline
 62
7
  6
CONTINUOUS
 70
0
 71
3
 72
9
 73
5
 74
3
 42
0.0000001
 43
0.0000001
 44
0.0000000001
 12
-0.0403327647
 22
0.0611922619
 32
0.0
 13
-0.0514858012
 23
0.0521578096
 33
0.0
 40
0.0
 40
0.0
 40
0.0
 40
0.0
 40
0.2559959607
 40
1.0
 40
1.0
 40
1.0
 40
1.0
 10
-0.7242328086
 20
-24.4790750975
 30
0.0
 10
-0.7276744835
 20
-24.4738534402
 30
0.0
 10
-0.7415291562
 20
-24.4537355598
 30
0.0
 10
-0.7571766598
 20
-24.4348048833
 30
0.0
 10
-0.7699452078
 20
-24.4218696763
 30
0.0
 11
-0.7242328086
 21
-24.4790750975
 31
0.0
 11
-0.7348854553
 21
-24.4636310501
 31
0.0
 11
-0.7699452078
 21
-24.4218696763
 31
0.0
  0
SPLINE
  5
3EA
100
AcDbEntity
  8
IMPORT_IGES
100
AcDbSpline
 62
7
  6
CONTINUOUS
 70
0
 71
3
 72
8
 73
4
 74
2
 42
0.0000001
 43
0.0000001
 44
0.0000000001
 12
-0.0588659057
 22
0.01296514
 32
0.0
 13
-0.0594111408
 23
0.0251288734
 33
0.0
 40
0.0
 40
0.0
 40
0.0
 40
0.0
 40
1.0
 40
1.0
 40
1.0
 40
1.0
 10
-1.0150621034
 20
-24.1261856037
 30
0.0
 10
-1.034684072
 20
-24.1218638904
 30
0.0
 10
-1.054892356
 20
-24.1149228647
 30
0.0
 10
-1.0746960696
 20
-24.1065465736
 30
0.0
 11
-1.0150621034
 21
-24.1261856037
 31
0.0
 11
-1.0746960696
 21
-24.1065465736
 31
0.0
  0
SPLINE
  5
3EB
100
AcDbEntity
  8
IMPORT_IGES
100
AcDbSpline
 62
7
  6
CONTINUOUS
 70
0
 71
3
 72
9
 73
5
 74
3
 42
0.0000001
 43
0.0000001
 44
0.0000000001
 12
-0.0719484215
 22
0.3594276568
 32
0.0
 13
-0.1990361688
 23
0.332124161
 33
0.0
 40
0.0
 40
0.0
 40
0.0
 40
0.0
 40
0.3064912004
 40
1.0
 40
1.0
 40
1.0
 40
1.0
 10
-0.5939450606
 20
-24.8652116614
 30
0.0
 10
-0.6012955799
 20
-24.8284911901
 30
0.0
 10
-0.6235256872
 20
-24.7117238798
 30
0.0
 10
-0.6671146314
 20
-24.5735316745
 30
0.0
 10
-0.7131257429
 20
-24.4967546651
 30
0.0
 11
-0.5939450606
 21
-24.8652116614
 31
0.0
 11
-0.6169286264
 21
-24.7549022966
 31
0.0
 11
-0.7131257429
 21
-24.4967546651
 31
0.0
  0
SPLINE
  5
3EC
100
AcDbEntity
  8
IMPORT_IGES
100
AcDbSpline
 62
7
  6
CONTINUOUS
 70
0
 71
3
 72
8
 73
4
 74
2
 42
0.0000001
 43
0.0000001
 44
0.0000000001
 12
-0.0523574717
 22
0.0873669417
 32
0.0
 13
-0.0668832013
 23
0.0661051502
 33
0.0
 40
0.0
 40
0.0
 40
0.0
 40
0.0
 40
1.0
 40
1.0
 40
1.0
 40
1.0
 10
-0.7131257429
 20
-24.4967546651
 30
0.0
 10
-0.7305782334
 20
-24.4676323512
 30
0.0
 10
-0.7503013509
 20
-24.4412523923
 30
0.0
 10
-0.7725957513
 20
-24.4192173423
 30
0.0
 11
-0.7131257429
 21
-24.4967546651
 31
0.0
 11
-0.7725957513
 21
-24.4192173423
 31
0.0
  0
SPLINE
  5
3ED
100
AcDbEntity
  8
IMPORT_IGES
100
AcDbSpline
 62
7
  6
CONTINUOUS
 70
0
 71
3
 72
9
 73
5
 74
3
 42
0.0000001
 43
0.0000001
 44
0.0000000001
 12
-0.1089310306
 22
0.5456809512
 32
0.0
 13
-0.1092475052
 23
0.545733753
 33
0.0
 40
0.0
 40
0.0
 40
0.0
 40
0.0
 40
0.1980141723
 40
1.0
 40
1.0
 40
1.0
 40
1.0
 10
-0.4879905593
 20
-25.4103798228
 30
0.0
 10
-0.4951805219
 20
-25.3743623022
 30
0.0
 10
-0.5303721672
 20
-25.19265996
 30
0.0
 10
-0.564740077
 20
-25.0111019066
 30
0.0
 10
-0.5939450606
 20
-24.8652116614
 30
0.0
 11
-0.4879905593
 21
-25.4103798228
 31
0.0
 11
-0.5090851126
 21
-25.3024086819
 31
0.0
 11
-0.5939450606
 21
-24.8652116614
 31
0.0
  0
SPLINE
  5
3EE
100
AcDbEntity
  8
IMPORT_IGES
100
AcDbSpline
 62
7
  6
CONTINUOUS
 70
0
 71
3
 72
9
 73
5
 74
3
 42
0.0000001
 43
0.0000001
 44
0.0000000001
 12
-0.7242720778
 22
0.6826063808
 32
0.0
 13
-0.7618885033
 23
0.2436665522
 33
0.0
 40
0.0
 40
0.0
 40
0.0
 40
0.0
 40
0.2957417834
 40
1.0
 40
1.0
 40
1.0
 40
1.0
 10
-0.8045513439
 20
-23.4739910704
 30
0.0
 10
-0.8759505159
 20
-23.4066993276
 30
0.0
 10
-1.1325873166
 20
-23.2268838286
 30
0.0
 10
-1.390570297
 20
-23.1296092928
 30
0.0
 10
-1.5694257098
 20
-23.0724079023
 30
0.0
 11
-0.8045513439
 21
-23.4739910704
 31
0.0
 11
-1.0278647073
 21
-23.3075607118
 31
0.0
 11
-1.5694257098
 21
-23.0724079023
 31
0.0
  0
SPLINE
  5
3EF
100
AcDbEntity
  8
IMPORT_IGES
100
AcDbSpline
 62
7
  6
CONTINUOUS
 70
0
 71
3
 72
9
 73
5
 74
3
 42
0.0000001
 43
0.0000001
 44
0.0000000001
 12
0.0443426486
 22
0.0221713243
 32
0.0
 13
0.0397038801
 23
0.0264877824
 33
0.0
 40
0.0
 40
0.0
 40
0.0
 40
0.0
 40
0.0529699826
 40
1.0
 40
1.0
 40
1.0
 40
1.0
 10
-0.7295644635
 20
-24.4017789503
 30
0.0
 10
-0.7287815204
 20
-24.4013874787
 30
0.0
 10
-0.7140444111
 20
-24.3939367151
 30
0.0
 10
-0.7000016764
 20
-24.3861275971
 30
0.0
 10
-0.6874680877
 20
-24.3777660221
 30
0.0
 11
-0.7295644635
 21
-24.4017789503
 31
0.0
 11
-0.7272222198
 21
-24.4005971396
 31
0.0
 11
-0.6874680877
 21
-24.3777660221
 31
0.0
  0
SPLINE
  5
3F0
100
AcDbEntity
  8
IMPORT_IGES
100
AcDbSpline
 62
7
  6
CONTINUOUS
 70
0
 71
3
 72
16
 73
12
 74
10
 42
0.0000001
 43
0.0000001
 44
0.0000000001
 12
0.5918942464
 22
0.3948723892
 32
0.0
 13
-0.7723802419
 23
0.7274516852
 33
0.0
 40
0.0
 40
0.0
 40
0.0
 40
0.0
 40
0.063526156
 40
0.2350520403
 40
0.3378746638
 40
0.4554210254
 40
0.5509332403
 40
0.636789735
 40
0.7863333931
 40
0.909918364
 40
1.0
 40
1.0
 40
1.0
 40
1.0
 10
-0.6874680877
 20
-24.3777660221
 30
0.0
 10
-0.6749344989
 20
-24.3694044471
 30
0.0
 10
-0.631390865
 20
-24.3348912552
 30
0.0
 10
-0.5866651732
 20
-24.2535803165
 30
0.0
 10
-0.5629948022
 20
-24.1369252653
 30
0.0
 10
-0.5607710183
 20
-24.0313929431
 30
0.0
 10
-0.5724906071
 20
-23.9259283177
 30
0.0
 10
-0.6008948666
 20
-23.8058882848
 30
0.0
 10
-0.6542438785
 20
-23.6754903265
 30
0.0
 10
-0.7295685323
 20
-23.5567135351
 30
0.0
 10
-0.7813589186
 20
-23.4958344163
 30
0.0
 10
-0.8045513439
 20
-23.4739910704
 30
0.0
 11
-0.6874680877
 21
-24.3777660221
 31
0.0
 11
-0.6523057708
 21
-24.3491382696
 31
0.0
 11
-0.5852891451
 21
-24.2309322934
 31
0.0
 11
-0.5664441225
 21
-24.1395608009
 31
0.0
 11
-0.5636150835
 21
-24.0228165243
 31
0.0
 11
-0.5752145565
 21
-23.9220220747
 31
0.0
 11
-0.5973939264
 21
-23.828975893
 31
0.0
 11
-0.6629140254
 21
-23.6690268078
 31
0.0
 11
-0.7390187187
 21
-23.5487662174
 31
0.0
 11
-0.8045513439
 21
-23.4739910704
 31
0.0
  0
SPLINE
  5
3F1
100
AcDbEntity
  8
CURVE
100
AcDbSpline
 62
7
  6
CONTINUOUS
 70
0
 71
3
 72
27
 73
23
 74
21
 42
0.0000001
 43
0.0000001
 44
0.0000000001
 12
0.5420671437
 22
-0.028419821
 32
0.0
 13
0.5668876432
 23
-0.5347742829
 33
0.0
 40
0.0
 40
0.0
 40
0.0
 40
0.0
 40
0.125
 40
0.15625
 40
0.1875
 40
0.25
 40
0.3125
 40
0.34375
 40
0.375
 40
0.4375
 40
0.46875
 40
0.5
 40
0.53125
 40
0.5625
 40
0.625
 40
0.65625
 40
0.6875
 40
0.75
 40
0.8125
 40
0.84375
 40
0.875
 40
1.0
 40
1.0
 40
1.0
 40
1.0
 10
2.2759450422
 20
-21.757132698
 30
0.0
 10
2.2985311732
 20
-21.7583168572
 30
0.0
 10
2.3269975196
 20
-21.7604859521
 30
0.0
 10
2.3604560872
 20
-21.7610221783
 30
0.0
 10
2.3842573682
 20
-21.7657885963
 30
0.0
 10
2.4145566282
 20
-21.773462146
 30
0.0
 10
2.4446004263
 20
-21.7800121486
 30
0.0
 10
2.4688104463
 20
-21.7865762419
 30
0.0
 10
2.4935033636
 20
-21.7975745049
 30
0.0
 10
2.5180592775
 20
-21.8071387495
 30
0.0
 10
2.5426640287
 20
-21.8176794222
 30
0.0
 10
2.5611080838
 20
-21.8240896606
 30
0.0
 10
2.5795657533
 20
-21.8359927496
 30
0.0
 10
2.604178868
 20
-21.8498776128
 30
0.0
 10
2.6287474221
 20
-21.8646923076
 30
0.0
 10
2.6534474916
 20
-21.8782069491
 30
0.0
 10
2.6776809134
 20
-21.8956820283
 30
0.0
 10
2.7077944765
 20
-21.9190018551
 30
0.0
 10
2.7380329806
 20
-21.9413186218
 30
0.0
 10
2.7620664967
 20
-21.9603985971
 30
0.0
 10
2.7973539444
 20
-21.9949304736
 30
0.0
 10
2.8269588036
 20
-22.0221674765
 30
0.0
 10
2.8505791221
 20
-22.0444497383
 30
0.0
 11
2.2759450422
 21
-21.757132698
 31
0.0
 11
2.3437034351
 21
-21.7606851756
 31
0.0
 11
2.3606430334
 21
-21.761573295
 31
0.0
 11
2.3783435585
 21
-21.7647113603
 31
0.0
 11
2.4145055358
 21
-21.7732374365
 31
0.0
 11
2.4506675131
 21
-21.7817635128
 31
0.0
 11
2.4688708085
 21
-21.7871305131
 31
0.0
 11
2.4873187173
 21
-21.7947054376
 31
0.0
 11
2.5242145351
 21
-21.8098552867
 31
0.0
 11
2.542662444
 21
-21.8174302112
 31
0.0
 11
2.5611103528
 21
-21.8250051357
 31
0.0
 11
2.5795661144
 21
-21.8357445094
 31
0.0
 11
2.5980218759
 21
-21.846483883
 31
0.0
 11
2.6349333991
 21
-21.8679626302
 31
0.0
 11
2.6533891606
 21
-21.8787020038
 31
0.0
 11
2.671610677
 21
-21.8914116571
 31
0.0
 11
2.7078194647
 21
-21.9188012431
 31
0.0
 11
2.7440282523
 21
-21.9461908291
 31
0.0
 11
2.7620029278
 21
-21.9608912566
 31
0.0
 11
2.7797181667
 21
-21.9776029529
 31
0.0
 11
2.8505791221
 21
-22.0444497383
 31
0.0
  0
SPLINE
  5
3F2
100
AcDbEntity
  8
CURVE
100
AcDbSpline
 62
7
  6
CONTINUOUS
 70
0
 71
3
 72
9
 73
5
 74
3
 42
0.0000001
 43
0.0000001
 44
0.0000000001
 12
0.1109448157
 22
-0.3917433667
 32
0.0
 13
0.0103475798
 23
-0.3678617258
 33
0.0
 40
0.0
 40
0.0
 40
0.0
 40
0.0
 40
0.5
 40
1.0
 40
1.0
 40
1.0
 40
1.0
 10
-17.0493853696
 20
3.5745721011
 30
0.0
 10
-17.030894567
 20
3.50928154
 30
0.0
 10
-16.9969676398
 20
3.3779308354
 30
0.0
 10
-16.9899650146
 20
3.2530316631
 30
0.0
 10
-16.988240418
 20
3.1917213755
 30
0.0
 11
-17.0493853696
 21
3.5745721011
 31
0.0
 11
-17.0036987153
 21
3.3795437185
 31
0.0
 11
-16.988240418
 21
3.1917213755
 31
0.0
  0
SPLINE
  5
3F3
100
AcDbEntity
  8
CURVE
100
AcDbSpline
 62
7
  6
CONTINUOUS
 70
0
 71
3
 72
9
 73
5
 74
3
 42
0.0000001
 43
0.0000001
 44
0.0000000001
 12
-0.0103348595
 22
-0.3572978403
 32
0.0
 13
-0.1110071496
 23
-0.2809771328
 33
0.0
 40
0.0
 40
0.0
 40
0.0
 40
0.0
 40
0.5
 40
1.0
 40
1.0
 40
1.0
 40
1.0
 10
-16.988240418
 20
3.1917213659
 30
0.0
 10
-16.9899628946
 20
3.1321717259
 30
0.0
 10
-16.9969612607
 20
3.0142726809
 30
0.0
 10
-17.0308841748
 20
2.9168451116
 30
0.0
 10
-17.0493853664
 20
2.8700155895
 30
0.0
 11
-16.988240418
 21
3.1917213659
 31
0.0
 11
-17.0036923977
 21
3.0193905498
 31
0.0
 11
-17.0493853664
 21
2.8700155895
 31
0.0
  0
SPLINE
  5
3F4
100
AcDbEntity
  8
RACCORDO
100
AcDbSpline
 62
7
  6
CONTINUOUS
 70
0
 71
3
 72
11
 73
7
 74
5
 42
0.0000001
 43
0.0000001
 44
0.0000000001
 12
-0.000017673
 22
0.2406218091
 32
0.0
 13
-0.2152186894
 23
0.1076093447
 33
0.0
 40
0.0
 40
0.0
 40
0.0
 40
0.0
 40
0.206582075
 40
0.434482042
 40
0.6975295886
 40
1.0
 40
1.0
 40
1.0
 40
1.0
 10
-16.6067030017
 20
-3.0936852159
 30
0.0
 10
-16.6067042187
 20
-3.0771158317
 30
0.0
 10
-16.6140394686
 20
-3.0420037044
 30
0.0
 10
-16.6445875601
 20
-2.9940868123
 30
0.0
 10
-16.6922227071
 20
-2.9510676248
 30
0.0
 10
-16.7314504003
 20
-2.9277799849
 30
0.0
 10
-16.7531494955
 20
-2.9169304374
 30
0.0
 11
-16.6067030017
 21
-3.0936852159
 31
0.0
 11
-16.6163229374
 21
-3.0449168113
 31
0.0
 11
-16.6447666871
 21
-2.9980326273
 31
0.0
 11
-16.690997176
 21
-2.9548007412
 31
0.0
 11
-16.7531494955
 21
-2.9169304374
 31
0.0
  0
SPLINE
  5
3F5
100
AcDbEntity
  8
RACCORDO
100
AcDbSpline
 62
7
  6
CONTINUOUS
 70
0
 71
3
 72
11
 73
7
 74
5
 42
0.0000001
 43
0.0000001
 44
0.0000000001
 12
0.0000171752
 22
-0.2338432201
 32
0.0
 13
-0.2076592723
 23
-0.1075187357
 33
0.0
 40
0.0
 40
0.0
 40
0.0
 40
0.0
 40
0.2077698318
 40
0.4361255549
 40
0.6987067635
 40
1.0
 40
1.0
 40
1.0
 40
1.0
 10
-16.6067030017
 20
-2.2276598121
 30
0.0
 10
-16.6067018122
 20
-2.243855001
 30
0.0
 10
-16.6136627364
 20
-2.2781048053
 30
0.0
 10
-16.6428431643
 20
-2.325077306
 30
0.0
 10
-16.6884887781
 20
-2.3674477805
 30
0.0
 10
-16.7261775411
 20
-2.3905480989
 30
0.0
 10
-16.7470329859
 20
-2.4013463215
 30
0.0
 11
-16.6067030017
 21
-2.2276598121
 31
0.0
 11
-16.6158881508
 21
-2.2753692485
 31
0.0
 11
-16.6430976758
 21
-2.3213164106
 31
0.0
 11
-16.6873860004
 21
-2.3638470174
 31
0.0
 11
-16.7470329859
 21
-2.4013463215
 31
0.0
  0
SPLINE
  5
3F6
100
AcDbEntity
  8
ASSI
100
AcDbSpline
 62
7
  6
CONTINUOUS
 70
0
 71
3
 72
8
 73
4
 74
2
 42
0.0000001
 43
0.0000001
 44
0.0000000001
 12
0.0017199875
 22
-0.0008550395
 32
0.0
 13
0.0000082235
 23
-0.0019207763
 33
0.0
 40
0.0
 40
0.0
 40
0.0
 40
0.0
 40
1.0
 40
1.0
 40
1.0
 40
1.0
 10
-2.2509948676
 20
-17.1300847922
 30
0.0
 10
-2.2504215384
 20
-17.1303698053
 30
0.0
 10
-2.2499791259
 20
-17.1310730732
 30
0.0
 10
-2.2499763847
 20
-17.131713332
 30
0.0
 11
-2.2509948676
 21
-17.1300847922
 31
0.0
 11
-2.2499763847
 21
-17.131713332
 31
0.0
  0
SPLINE
  5
3F7
100
AcDbEntity
  8
ASSI
100
AcDbSpline
 62
7
  6
CONTINUOUS
 70
0
 71
3
 72
8
 73
4
 74
2
 42
0.0000001
 43
0.0000001
 44
0.0000000001
 12
-0.032268327
 22
0.0161247358
 32
0.0
 13
-0.0345239903
 23
0.0104568695
 33
0.0
 40
0.0
 40
0.0
 40
0.0
 40
0.0
 40
1.0
 40
1.0
 40
1.0
 40
1.0
 10
-6.4443586358
 20
-15.033402908
 30
0.0
 10
-6.4551147448
 20
-15.0280279961
 30
0.0
 10
-6.4663082054
 20
-15.0234036034
 30
0.0
 10
-6.4778162022
 20
-15.0199179802
 30
0.0
 11
-6.4443586358
 21
-15.033402908
 31
0.0
 11
-6.4778162022
 21
-15.0199179802
 31
0.0
  0
SPLINE
  5
3F8
100
AcDbEntity
  8
ASSI
100
AcDbSpline
 62
7
  6
CONTINUOUS
 70
0
 71
3
 72
9
 73
5
 74
3
 42
0.0000001
 43
0.0000001
 44
0.0000000001
 12
-0.0479673986
 22
0.0145287038
 32
0.0
 13
-0.0500426309
 23
-0.0027730218
 33
0.0
 40
0.0
 40
0.0
 40
0.0
 40
0.0
 40
0.257878631
 40
1.0
 40
1.0
 40
1.0
 40
1.0
 10
-6.4778162022
 20
-15.0199179802
 30
0.0
 10
-6.4819394579
 20
-15.0186690994
 30
0.0
 10
-6.4980832281
 20
-15.0143942701
 30
0.0
 10
-6.5149832923
 20
-15.0126285183
 30
0.0
 10
-6.5273625276
 20
-15.0133144912
 30
0.0
 11
-6.4778162022
 21
-15.0199179802
 31
0.0
 11
-6.4903160192
 21
-15.0166311823
 31
0.0
 11
-6.5273625276
 21
-15.0133144912
 31
0.0
  0
SPLINE
  5
3F9
100
AcDbEntity
  8
ASSI
100
AcDbSpline
 62
7
  6
CONTINUOUS
 70
0
 71
3
 72
8
 73
4
 74
2
 42
0.0000001
 43
0.0000001
 44
0.0000000001
 12
-0.0213414878
 22
-0.0011825999
 32
0.0
 13
-0.0206349063
 23
-0.005572996
 33
0.0
 40
0.0
 40
0.0
 40
0.0
 40
0.0
 40
1.0
 40
1.0
 40
1.0
 40
1.0
 10
-6.5273625276
 20
-15.0133144912
 30
0.0
 10
-6.5344763568
 20
-15.0137086912
 30
0.0
 10
-6.5416000211
 20
-15.0147705573
 30
0.0
 10
-6.5484783232
 20
-15.0166282226
 30
0.0
 11
-6.5273625276
 21
-15.0133144912
 31
0.0
 11
-6.5484783232
 21
-15.0166282226
 31
0.0
  0
SPLINE
  5
3FA
100
AcDbEntity
  8
ASSI
100
AcDbSpline
 62
7
  6
CONTINUOUS
 70
0
 71
3
 72
8
 73
4
 74
2
 42
0.0000001
 43
0.0000001
 44
0.0000000001
 12
-0.032268327
 22
0.0161247358
 32
0.0
 13
-0.0345239903
 23
0.0104568695
 33
0.0
 40
0.0
 40
0.0
 40
0.0
 40
0.0
 40
1.0
 40
1.0
 40
1.0
 40
1.0
 10
9.4655439409
 20
-22.9883541964
 30
0.0
 10
9.4547878319
 20
-22.9829792845
 30
0.0
 10
9.4435943713
 20
-22.9783548917
 30
0.0
 10
9.4320863745
 20
-22.9748692685
 30
0.0
 11
9.4655439409
 21
-22.9883541964
 31
0.0
 11
9.4320863745
 21
-22.9748692685
 31
0.0
  0
SPLINE
  5
3FB
100
AcDbEntity
  8
ASSI
100
AcDbSpline
 62
7
  6
CONTINUOUS
 70
0
 71
3
 72
9
 73
5
 74
3
 42
0.0000001
 43
0.0000001
 44
0.0000000001
 12
-0.0479673986
 22
0.0145287038
 32
0.0
 13
-0.0500426309
 23
-0.0027730218
 33
0.0
 40
0.0
 40
0.0
 40
0.0
 40
0.0
 40
0.257878631
 40
1.0
 40
1.0
 40
1.0
 40
1.0
 10
9.4320863745
 20
-22.9748692685
 30
0.0
 10
9.4279631188
 20
-22.9736203878
 30
0.0
 10
9.4118193486
 20
-22.9693455584
 30
0.0
 10
9.3949192844
 20
-22.9675798066
 30
0.0
 10
9.3825400491
 20
-22.9682657795
 30
0.0
 11
9.4320863745
 21
-22.9748692685
 31
0.0
 11
9.4195865575
 21
-22.9715824706
 31
0.0
 11
9.3825400491
 21
-22.9682657795
 31
0.0
  0
SPLINE
  5
3FC
100
AcDbEntity
  8
ASSI
100
AcDbSpline
 62
7
  6
CONTINUOUS
 70
0
 71
3
 72
8
 73
4
 74
2
 42
0.0000001
 43
0.0000001
 44
0.0000000001
 12
-0.0213414878
 22
-0.0011825999
 32
0.0
 13
-0.0206349063
 23
-0.005572996
 33
0.0
 40
0.0
 40
0.0
 40
0.0
 40
0.0
 40
1.0
 40
1.0
 40
1.0
 40
1.0
 10
9.3825400491
 20
-22.9682657795
 30
0.0
 10
9.3754262199
 20
-22.9686599795
 30
0.0
 10
9.3683025556
 20
-22.9697218457
 30
0.0
 10
9.3614242534
 20
-22.971579511
 30
0.0
 11
9.3825400491
 21
-22.9682657795
 31
0.0
 11
9.3614242534
 21
-22.971579511
 31
0.0
  0
SPLINE
  5
3FD
100
AcDbEntity
  8
RACCORDO
100
AcDbSpline
 62
7
  6
CONTINUOUS
 70
0
 71
3
 72
9
 73
5
 74
3
 42
0.0000001
 43
0.0000001
 44
0.0000000001
 12
0.0268588128
 22
0.0227455483
 32
0.0
 13
0.0235456791
 23
0.0261602138
 33
0.0
 40
0.0
 40
0.0
 40
0.0
 40
0.0
 40
0.2579647081
 40
1.0
 40
1.0
 40
1.0
 40
1.0
 10
-16.6760751337
 20
-4.0867726388
 30
0.0
 10
-16.6737655917
 20
-4.0848167892
 30
0.0
 10
-16.6649303066
 20
-4.0770980402
 30
0.0
 10
-16.6565828352
 20
-4.0688136571
 30
0.0
 10
-16.6507589269
 20
-4.0623430565
 30
0.0
 11
-16.6760751337
 21
-4.0867726388
 31
0.0
 11
-16.6692396702
 21
-4.080796819
 31
0.0
 11
-16.6507589269
 21
-4.0623430565
 31
0.0
  0
SPLINE
  5
3FE
100
AcDbEntity
  8
RACCORDO
100
AcDbSpline
 62
7
  6
CONTINUOUS
 70
0
 71
3
 72
9
 73
5
 74
3
 42
0.0000001
 43
0.0000001
 44
0.0000000001
 12
0.0760245503
 22
0.0844663892
 32
0.0
 13
-0.0000084707
 23
0.1136411153
 33
0.0
 40
0.0
 40
0.0
 40
0.0
 40
0.0
 40
0.5278198147
 40
1.0
 40
1.0
 40
1.0
 40
1.0
 10
-16.6507589269
 20
-4.0623430565
 30
0.0
 10
-16.6373831722
 20
-4.0474820452
 30
0.0
 10
-16.6153264932
 20
-4.0157601189
 30
0.0
 10
-16.6067016743
 20
-3.9775965414
 30
0.0
 10
-16.6067030075
 20
-3.9597101804
 30
0.0
 11
-16.6507589269
 21
-4.0623430565
 31
0.0
 11
-16.6178413001
 21
-4.0122005188
 31
0.0
 11
-16.6067030075
 21
-3.9597101804
 31
0.0
  0
SPLINE
  5
3FF
100
AcDbEntity
  8
DRAFT
100
AcDbSpline
 62
7
  6
CONTINUOUS
 70
0
 71
3
 72
9
 73
5
 74
3
 42
0.0000001
 43
0.0000001
 44
0.0000000001
 12
-0.0332798367
 22
-0.1354758949
 32
0.0
 13
-0.1246344754
 23
-0.0626698746
 33
0.0
 40
0.0
 40
0.0
 40
0.0
 40
0.0
 40
0.5315595469
 40
1.0
 40
1.0
 40
1.0
 40
1.0
 10
-2.8278172452
 20
-18.216813825
 30
0.0
 10
-2.8337139835
 20
-18.2408183268
 30
0.0
 10
-2.8515176369
 20
-18.2851269028
 30
0.0
 10
-2.8876050887
 20
-18.3177902926
 30
0.0
 10
-2.9070663654
 20
-18.327575994
 30
0.0
 11
-2.8278172452
 21
-18.216813825
 31
0.0
 11
-2.8578075761
 21
-18.2846332079
 31
0.0
 11
-2.9070663654
 21
-18.327575994
 31
0.0
  0
SPLINE
  5
400
100
AcDbEntity
  8
RACCORDO
100
AcDbSpline
 62
7
  6
CONTINUOUS
 70
0
 71
3
 72
11
 73
7
 74
5
 42
0.0000001
 43
0.0000001
 44
0.0000000001
 12
0.1080961312
 22
0.0638021038
 32
0.0
 13
-0.0000130963
 23
0.1255208423
 33
0.0
 40
0.0
 40
0.0
 40
0.0
 40
0.0
 40
0.2968130585
 40
0.5576776393
 40
0.7878150761
 40
1.0
 40
1.0
 40
1.0
 40
1.0
 10
-17.0491030189
 20
14.7101965063
 30
0.0
 10
-17.0384082378
 20
14.7165089388
 30
0.0
 10
-17.0191016604
 20
14.7298455303
 30
0.0
 10
-16.9959649496
 20
14.7537017685
 30
0.0
 10
-16.9813323818
 20
14.7796954454
 30
0.0
 10
-16.9779162172
 20
14.7983318279
 30
0.0
 10
-16.9779171435
 20
14.8072097047
 30
0.0
 11
-17.0491030189
 21
14.7101965063
 31
0.0
 11
-17.0186867178
 21
14.7317110351
 31
0.0
 11
-16.996248819
 21
14.7555586019
 31
0.0
 11
-16.9825256759
 21
14.7809778214
 31
0.0
 11
-16.9779171435
 21
14.8072097047
 31
0.0
  0
SPLINE
  5
401
100
AcDbEntity
  8
RACCORDO
100
AcDbSpline
 62
7
  6
CONTINUOUS
 70
0
 71
3
 72
11
 73
7
 74
5
 42
0.0000001
 43
0.0000001
 44
0.0000000001
 12
0.0442364388
 22
-0.0894139904
 32
0.0
 13
-0.0660761993
 23
-0.0747372738
 33
0.0
 40
0.0
 40
0.0
 40
0.0
 40
0.0
 40
0.3302218568
 40
0.6017065375
 40
0.8185443816
 40
1.0
 40
1.0
 40
1.0
 40
1.0
 10
-16.7470401339
 20
15.5014465422
 30
0.0
 10
-16.7421708542
 20
15.4916043909
 30
0.0
 10
-16.7342599745
 20
15.4731416625
 30
0.0
 10
-16.7278250201
 20
15.4465231744
 30
0.0
 10
-16.7282058912
 20
15.423860756
 30
0.0
 10
-16.7341824205
 20
15.4113603789
 30
0.0
 10
-16.7381790531
 20
15.4068398795
 30
0.0
 11
-16.7470401339
 21
15.5014465422
 31
0.0
 11
-16.7344456978
 21
15.4710067554
 31
0.0
 11
-16.7286677975
 21
15.4445474079
 31
0.0
 11
-16.7299302664
 21
15.4229528989
 31
0.0
 11
-16.7381790531
 21
15.4068398795
 31
0.0
  0
SPLINE
  5
402
100
AcDbEntity
  8
RACCORDO
100
AcDbSpline
 62
7
  6
CONTINUOUS
 70
0
 71
3
 72
9
 73
5
 74
3
 42
0.0000001
 43
0.0000001
 44
0.0000000001
 12
0.0655963878
 22
-0.031697235
 32
0.0
 13
0.0507266935
 23
-0.0522915229
 33
0.0
 40
0.0
 40
0.0
 40
0.0
 40
0.0
 40
0.2345634937
 40
1.0
 40
1.0
 40
1.0
 40
1.0
 10
-15.4194887493
 20
2.7822811434
 30
0.0
 10
-15.41435991
 20
2.7798028054
 30
0.0
 10
-15.3930647933
 20
2.7680644386
 30
0.0
 10
-15.374139202
 20
2.7522801954
 30
0.0
 10
-15.3611965143
 20
2.7389382485
 30
0.0
 11
-15.4194887493
 21
2.7822811434
 31
0.0
 11
-15.4045001674
 21
2.7740734165
 31
0.0
 11
-15.3611965143
 21
2.7389382485
 31
0.0
  0
SPLINE
  5
403
100
AcDbEntity
  8
RACCORDO
100
AcDbSpline
 62
7
  6
CONTINUOUS
 70
0
 71
3
 72
9
 73
5
 74
3
 42
0.0000001
 43
0.0000001
 44
0.0000000001
 12
0.0423537234
 22
-0.0436602614
 32
0.0
 13
0.0322412592
 23
-0.0515805925
 33
0.0
 40
0.0
 40
0.0
 40
0.0
 40
0.0
 40
0.2442960562
 40
1.0
 40
1.0
 40
1.0
 40
1.0
 10
-15.3611965143
 20
2.7389382485
 30
0.0
 10
-15.3577475651
 20
2.7353829053
 30
0.0
 10
-15.3440461221
 20
2.720428864
 30
0.0
 10
-15.3319973536
 20
2.7039794112
 30
0.0
 10
-15.323875738
 20
2.6909861922
 30
0.0
 11
-15.3611965143
 21
2.7389382485
 31
0.0
 11
-15.3511517807
 21
2.7279872317
 31
0.0
 11
-15.323875738
 21
2.6909861922
 31
0.0
  0
SPLINE
  5
404
100
AcDbEntity
  8
RACCORDO
100
AcDbSpline
 62
7
  6
CONTINUOUS
 70
0
 71
3
 72
9
 73
5
 74
3
 42
0.0000001
 43
0.0000001
 44
0.0000000001
 12
0.085038347
 22
-0.1360470536
 32
0.0
 13
-0.0022295875
 23
-0.1604224118
 33
0.0
 40
0.0
 40
0.0
 40
0.0
 40
0.0
 40
0.2603597621
 40
1.0
 40
1.0
 40
1.0
 40
1.0
 10
-15.323875738
 20
2.6909861922
 30
0.0
 10
-15.3164955501
 20
2.6791791327
 30
0.0
 10
-15.2912457309
 20
2.632077185
 30
0.0
 10
-15.2775392347
 20
2.5779541577
 30
0.0
 10
-15.2780889323
 20
2.5384025341
 30
0.0
 11
-15.323875738
 21
2.6909861922
 31
0.0
 11
-15.3041299658
 21
2.6541762895
 31
0.0
 11
-15.2780889323
 21
2.5384025341
 31
0.0
  0
SPLINE
  5
405
100
AcDbEntity
  8
RACCORDO
100
AcDbSpline
 62
7
  6
CONTINUOUS
 70
0
 71
3
 72
10
 73
6
 74
4
 42
0.0000001
 43
0.0000001
 44
0.0000000001
 12
0.0016600254
 22
-0.1177224943
 32
0.0
 13
-0.0998022548
 23
-0.0624567953
 33
0.0
 40
0.0
 40
0.0
 40
0.0
 40
0.0
 40
0.5456649566
 40
0.7809991749
 40
1.0
 40
1.0
 40
1.0
 40
1.0
 10
-15.2780889323
 20
-1.0816865454
 30
0.0
 10
-15.277786993
 20
-1.103098892
 30
0.0
 10
-15.2820437528
 20
-1.134731532
 30
0.0
 10
-15.3019736436
 20
-1.1690736525
 30
0.0
 10
-15.3155312683
 20
-1.1812395805
 30
0.0
 10
-15.3228168604
 20
-1.1857989438
 30
0.0
 11
-15.2780889323
 21
-1.0816865454
 31
0.0
 11
-15.2892553797
 21
-1.1449520829
 31
0.0
 11
-15.3035072531
 21
-1.1687124617
 31
0.0
 11
-15.3228168604
 21
-1.1857989438
 31
0.0
  0
SPLINE
  5
406
100
AcDbEntity
  8
RACCORDO
100
AcDbSpline
 62
7
  6
CONTINUOUS
 70
0
 71
3
 72
9
 73
5
 74
3
 42
0.0000001
 43
0.0000001
 44
0.0000000001
 12
0.0655963878
 22
-0.031697235
 32
0.0
 13
0.0507266935
 23
-0.0522915229
 33
0.0
 40
0.0
 40
0.0
 40
0.0
 40
0.0
 40
0.2345634937
 40
1.0
 40
1.0
 40
1.0
 40
1.0
 10
-15.4194887493
 20
21.0987184335
 30
0.0
 10
-15.41435991
 20
21.0962400954
 30
0.0
 10
-15.3930647933
 20
21.0845017286
 30
0.0
 10
-15.374139202
 20
21.0687174855
 30
0.0
 10
-15.3611965143
 20
21.0553755386
 30
0.0
 11
-15.4194887493
 21
21.0987184335
 31
0.0
 11
-15.4045001674
 21
21.0905107065
 31
0.0
 11
-15.3611965143
 21
21.0553755386
 31
0.0
  0
SPLINE
  5
407
100
AcDbEntity
  8
RACCORDO
100
AcDbSpline
 62
7
  6
CONTINUOUS
 70
0
 71
3
 72
9
 73
5
 74
3
 42
0.0000001
 43
0.0000001
 44
0.0000000001
 12
0.0423537234
 22
-0.0436602614
 32
0.0
 13
0.0322412592
 23
-0.0515805925
 33
0.0
 40
0.0
 40
0.0
 40
0.0
 40
0.0
 40
0.2442960562
 40
1.0
 40
1.0
 40
1.0
 40
1.0
 10
-15.3611965143
 20
21.0553755386
 30
0.0
 10
-15.3577475651
 20
21.0518201954
 30
0.0
 10
-15.3440461221
 20
21.036866154
 30
0.0
 10
-15.3319973536
 20
21.0204167013
 30
0.0
 10
-15.323875738
 20
21.0074234822
 30
0.0
 11
-15.3611965143
 21
21.0553755386
 31
0.0
 11
-15.3511517807
 21
21.0444245217
 31
0.0
 11
-15.323875738
 21
21.0074234822
 31
0.0
  0
SPLINE
  5
408
100
AcDbEntity
  8
RACCORDO
100
AcDbSpline
 62
7
  6
CONTINUOUS
 70
0
 71
3
 72
9
 73
5
 74
3
 42
0.0000001
 43
0.0000001
 44
0.0000000001
 12
0.085038347
 22
-0.1360470536
 32
0.0
 13
-0.0022295875
 23
-0.1604224118
 33
0.0
 40
0.0
 40
0.0
 40
0.0
 40
0.0
 40
0.2603597621
 40
1.0
 40
1.0
 40
1.0
 40
1.0
 10
-15.323875738
 20
21.0074234822
 30
0.0
 10
-15.3164955501
 20
20.9956164227
 30
0.0
 10
-15.2912457309
 20
20.948514475
 30
0.0
 10
-15.2775392347
 20
20.8943914478
 30
0.0
 10
-15.2780889323
 20
20.8548398242
 30
0.0
 11
-15.323875738
 21
21.0074234822
 31
0.0
 11
-15.3041299658
 21
20.9706135796
 31
0.0
 11
-15.2780889323
 21
20.8548398242
 31
0.0
  0
SPLINE
  5
409
100
AcDbEntity
  8
RACCORDO
100
AcDbSpline
 62
7
  6
CONTINUOUS
 70
0
 71
3
 72
10
 73
6
 74
4
 42
0.0000001
 43
0.0000001
 44
0.0000000001
 12
0.0016600254
 22
-0.1177224943
 32
0.0
 13
-0.0998022548
 23
-0.0624567953
 33
0.0
 40
0.0
 40
0.0
 40
0.0
 40
0.0
 40
0.5456649566
 40
0.7809991749
 40
1.0
 40
1.0
 40
1.0
 40
1.0
 10
-15.2780889323
 20
17.2347507447
 30
0.0
 10
-15.277786993
 20
17.2133383981
 30
0.0
 10
-15.2820437528
 20
17.181705758
 30
0.0
 10
-15.3019736436
 20
17.1473636375
 30
0.0
 10
-15.3155312683
 20
17.1351977095
 30
0.0
 10
-15.3228168604
 20
17.1306383463
 30
0.0
 11
-15.2780889323
 21
17.2347507447
 31
0.0
 11
-15.2892553797
 21
17.1714852072
 31
0.0
 11
-15.3035072531
 21
17.1477248283
 31
0.0
 11
-15.3228168604
 21
17.1306383463
 31
0.0
  0
SPLINE
  5
40A
100
AcDbEntity
  8
RACCORDO
100
AcDbSpline
 62
7
  6
CONTINUOUS
 70
0
 71
3
 72
11
 73
7
 74
5
 42
0.0000001
 43
0.0000001
 44
0.0000000001
 12
0.2196643699
 22
0.1676883289
 32
0.0
 13
0.0000324103
 23
0.2763545006
 33
0.0
 40
0.0
 40
0.0
 40
0.0
 40
0.0
 40
0.2880052896
 40
0.5484364456
 40
0.7830451664
 40
1.0
 40
1.0
 40
1.0
 40
1.0
 10
-16.7470434582
 20
15.5014352411
 30
0.0
 10
-16.7259552914
 20
15.5175336163
 30
0.0
 10
-16.6877793716
 20
15.5509857161
 30
0.0
 10
-16.642410706
 20
15.6076679021
 30
0.0
 10
-16.6136239849
 20
15.6673462012
 30
0.0
 10
-16.6067053956
 20
15.7091413553
 30
0.0
 10
-16.6067030518
 20
15.7291268368
 30
0.0
 11
-16.7470434582
 21
15.5014352411
 31
0.0
 11
-16.6876249598
 21
15.5543904885
 31
0.0
 11
-16.6433132758
 21
15.611103326
 31
0.0
 11
-16.6159708475
 21
15.6698910092
 31
0.0
 11
-16.6067030518
 21
15.7291268368
 31
0.0
  0
SPLINE
  5
40B
100
AcDbEntity
  8
RACCORDO
100
AcDbSpline
 62
7
  6
CONTINUOUS
 70
0
 71
3
 72
11
 73
7
 74
5
 42
0.0000001
 43
0.0000001
 44
0.0000000001
 12
0.1712622514
 22
0.0869949376
 32
0.0
 13
0.0004293237
 23
0.1920903266
 33
0.0
 40
0.0
 40
0.0
 40
0.0
 40
0.0
 40
0.3609349558
 40
0.6475569956
 40
0.8565789599
 40
1.0
 40
1.0
 40
1.0
 40
1.0
 10
-15.7155568558
 20
-11.9385424198
 30
0.0
 10
-15.6949520114
 20
-11.9280759151
 30
0.0
 10
-15.6586356987
 20
-11.9079583627
 30
0.0
 10
-15.6138492615
 20
-11.8758914333
 30
0.0
 10
-15.5849020518
 20
-11.8468161138
 30
0.0
 10
-15.5752482315
 20
-11.8248709808
 30
0.0
 10
-15.5752277069
 20
-11.815687716
 30
0.0
 11
-15.7155568558
 21
-11.9385424198
 31
0.0
 11
-15.6552319093
 21
-11.9043683534
 31
0.0
 11
-15.6109503472
 21
-11.871650361
 31
0.0
 11
-15.5841501565
 21
-11.8417527281
 31
0.0
 11
-15.5752277069
 21
-11.815687716
 31
0.0
  0
SPLINE
  5
40C
100
AcDbEntity
  8
RACCORDO
100
AcDbSpline
 62
7
  6
CONTINUOUS
 70
0
 71
3
 72
14
 73
10
 74
8
 42
0.0000001
 43
0.0000001
 44
0.0000000001
 12
0.3943553874
 22
-0.2003416686
 32
0.0
 13
-0.0117691643
 23
-0.4421701511
 33
0.0
 40
0.0
 40
0.0
 40
0.0
 40
0.0
 40
0.1107720358
 40
0.2307901358
 40
0.3575289023
 40
0.4888703813
 40
0.7527421961
 40
0.8798077521
 40
1.0
 40
1.0
 40
1.0
 40
1.0
 10
-15.9276565798
 20
-11.572724505
 30
0.0
 10
-15.9130953967
 20
-11.5801219231
 30
0.0
 10
-15.8838326005
 20
-11.5978015117
 30
0.0
 10
-15.8436274311
 20
-11.6322422123
 30
0.0
 10
-15.8070665116
 20
-11.6745654024
 30
0.0
 10
-15.7642728189
 20
-11.7386931832
 30
0.0
 10
-15.7337767879
 20
-11.8104798568
 30
0.0
 10
-15.7178161485
 20
-11.8842616612
 30
0.0
 10
-15.7150852857
 20
-11.9208272538
 30
0.0
 10
-15.7155568064
 20
-11.9385423953
 30
0.0
 11
-15.9276565798
 21
-11.572724505
 31
0.0
 11
-15.8857674175
 21
-11.5981419537
 31
0.0
 11
-15.8453029447
 21
-11.6325058736
 31
0.0
 11
-15.8084270604
 21
-11.6747301179
 31
0.0
 11
-15.7761686881
 21
-11.7230470424
 31
0.0
 11
-15.7306267213
 21
-11.830512938
 31
0.0
 11
-15.7189193575
 21
-11.8854845931
 31
0.0
 11
-15.7155568064
 21
-11.9385423953
 31
0.0
  0
SPLINE
  5
40D
100
AcDbEntity
  8
RACCORDO
100
AcDbSpline
 62
7
  6
CONTINUOUS
 70
0
 71
3
 72
11
 73
7
 74
5
 42
0.0000001
 43
0.0000001
 44
0.0000000001
 12
0.2076592723
 22
0.1075187357
 32
0.0
 13
-0.0000171752
 23
0.2338432201
 33
0.0
 40
0.0
 40
0.0
 40
0.0
 40
0.0
 40
0.3012932365
 40
0.5638744451
 40
0.7922301682
 40
1.0
 40
1.0
 40
1.0
 40
1.0
 10
-16.7470329859
 20
-3.2673717253
 30
0.0
 10
-16.7261775411
 20
-3.2565735026
 30
0.0
 10
-16.6884887781
 20
-3.2334731843
 30
0.0
 10
-16.6428431643
 20
-3.1911027098
 30
0.0
 10
-16.6136627364
 20
-3.1441302091
 30
0.0
 10
-16.6067018122
 20
-3.1098804048
 30
0.0
 10
-16.6067030017
 20
-3.0936852159
 30
0.0
 11
-16.7470329859
 21
-3.2673717253
 31
0.0
 11
-16.6873860004
 21
-3.2298724212
 31
0.0
 11
-16.6430976758
 21
-3.1873418144
 31
0.0
 11
-16.6158881508
 21
-3.1413946523
 31
0.0
 11
-16.6067030017
 21
-3.0936852159
 31
0.0
  0
SPLINE
  5
40E
100
AcDbEntity
  8
RACCORDO
100
AcDbSpline
 62
7
  6
CONTINUOUS
 70
0
 71
3
 72
9
 73
5
 74
3
 42
0.0000001
 43
0.0000001
 44
0.0000000001
 12
0.0933807846
 22
0.5971067308
 32
0.0
 13
0.3544432628
 23
0.4895164883
 33
0.0
 40
0.0
 40
0.0
 40
0.0
 40
0.0
 40
0.4945429412
 40
1.0
 40
1.0
 40
1.0
 40
1.0
 10
-17.0496082692
 20
14.8578437668
 30
0.0
 10
-17.0342146665
 20
14.9562754064
 30
0.0
 10
-16.9768269351
 20
15.1515793741
 30
0.0
 10
-16.8783003886
 20
15.3295051891
 30
0.0
 10
-16.8185817722
 20
15.4119817106
 30
0.0
 11
-17.0496082692
 21
14.8578437668
 31
0.0
 11
-16.9673918396
 21
15.1451975815
 31
0.0
 11
-16.8185817722
 21
15.4119817106
 31
0.0
  0
SPLINE
  5
40F
100
AcDbEntity
  8
ASSI
100
AcDbSpline
 62
7
  6
CONTINUOUS
 70
0
 71
3
 72
11
 73
7
 74
5
 42
0.0000001
 43
0.0000001
 44
0.0000000001
 12
0.0483159092
 22
0.0240461291
 32
0.0
 13
0.048326814
 23
-0.0240242057
 33
0.0
 40
0.0
 40
0.0
 40
0.0
 40
0.0
 40
0.4141056993
 40
0.7151930062
 40
0.9055096016
 40
1.0
 40
1.0
 40
1.0
 40
1.0
 10
-2.3013495993
 20
-17.1481450889
 30
0.0
 10
-2.2946803015
 20
-17.1448258759
 30
0.0
 10
-2.2830545863
 20
-17.1394299303
 30
0.0
 10
-2.2678269399
 20
-17.1331579286
 30
0.0
 10
-2.258030329
 20
-17.1301627975
 30
0.0
 10
-2.2525170076
 20
-17.1293281066
 30
0.0
 10
-2.2509948676
 20
-17.1300847922
 30
0.0
 11
-2.3013495993
 21
-17.1481450889
 31
0.0
 11
-2.2810828468
 21
-17.1387254756
 31
0.0
 11
-2.2659818339
 21
-17.1327253987
 31
0.0
 11
-2.2560926388
 21
-17.1299503404
 31
0.0
 11
-2.2509948676
 21
-17.1300847922
 31
0.0
  0
SPLINE
  5
410
100
AcDbEntity
  8
RACCORDO
100
AcDbSpline
 62
7
  6
CONTINUOUS
 70
0
 71
3
 72
10
 73
6
 74
4
 42
0.0000001
 43
0.0000001
 44
0.0000000001
 12
-0.1719060809
 22
0.0858445567
 32
0.0
 13
-0.1728440808
 23
-0.0839399328
 33
0.0
 40
0.0
 40
0.0
 40
0.0
 40
0.0
 40
0.4083751956
 40
0.6803995527
 40
1.0
 40
1.0
 40
1.0
 40
1.0
 10
-15.7421054214
 20
-11.5455997116
 30
0.0
 10
-15.7655061479
 20
-11.5339141157
 30
0.0
 10
-15.8125274356
 20
-11.5328114479
 30
0.0
 10
-15.8740701678
 20
-11.5489839499
 30
0.0
 10
-15.9092428996
 20
-11.5637820924
 30
0.0
 10
-15.9276565814
 20
-11.5727245058
 30
0.0
 11
-15.7421054214
 21
-11.5455997116
 31
0.0
 11
-15.820096036
 21
-11.5369516833
 31
0.0
 11
-15.8708805922
 21
-11.5493202118
 31
0.0
 11
-15.9276565814
 21
-11.5727245058
 31
0.0
  0
SPLINE
  5
411
100
AcDbEntity
  8
RACCORDO
100
AcDbSpline
 62
7
  6
CONTINUOUS
 70
0
 71
3
 72
9
 73
5
 74
3
 42
0.0000001
 43
0.0000001
 44
0.0000000001
 12
-0.0087546891
 22
-0.0874359101
 32
0.0
 13
-0.0780337588
 23
-0.0404031613
 33
0.0
 40
0.0
 40
0.0
 40
0.0
 40
0.0
 40
0.4365281204
 40
1.0
 40
1.0
 40
1.0
 40
1.0
 10
-15.2222170538
 20
17.2991866363
 30
0.0
 10
-15.2234909431
 20
17.2864638918
 30
0.0
 10
-15.2384496883
 20
17.2587798523
 30
0.0
 10
-15.2634323227
 20
17.2423394264
 30
0.0
 10
-15.2780889323
 20
17.2347507447
 30
0.0
 11
-15.2222170538
 21
17.2991866363
 31
0.0
 11
-15.2384608892
 21
17.2644367154
 31
0.0
 11
-15.2780889323
 21
17.2347507447
 31
0.0
  0
SPLINE
  5
412
100
AcDbEntity
  8
RACCORDO
100
AcDbSpline
 62
7
  6
CONTINUOUS
 70
0
 71
3
 72
11
 73
7
 74
5
 42
0.0000001
 43
0.0000001
 44
0.0000000001
 12
0.0000031704
 22
-0.0935249258
 32
0.0
 13
-0.0830527307
 23
-0.0430018101
 33
0.0
 40
0.0
 40
0.0
 40
0.0
 40
0.0
 40
0.2077396888
 40
0.4361283515
 40
0.6988919218
 40
1.0
 40
1.0
 40
1.0
 40
1.0
 10
-15.22196567
 20
20.9243033766
 30
0.0
 10
-15.2219654505
 20
20.917827097
 30
0.0
 10
-15.2247373099
 20
20.9041266475
 30
0.0
 10
-15.2364195322
 20
20.8853369523
 30
0.0
 10
-15.2546837171
 20
20.8684008352
 30
0.0
 10
-15.2697529829
 20
20.8591558883
 30
0.0
 10
-15.2780889323
 20
20.8548398242
 30
0.0
 11
-15.22196567
 21
20.9243033766
 31
0.0
 11
-15.2256311907
 21
20.9052234463
 31
0.0
 11
-15.2365180432
 21
20.8868460841
 31
0.0
 11
-15.254249302
 21
20.8698304941
 31
0.0
 11
-15.2780889323
 21
20.8548398242
 31
0.0
  0
SPLINE
  5
413
100
AcDbEntity
  8
RACCORDO
100
AcDbSpline
 62
7
  6
CONTINUOUS
 70
0
 71
3
 72
9
 73
5
 74
3
 42
0.0000001
 43
0.0000001
 44
0.0000000001
 12
-0.0799442417
 22
0.0399316657
 32
0.0
 13
-0.0806054505
 23
-0.0385795418
 33
0.0
 40
0.0
 40
0.0
 40
0.0
 40
0.0
 40
0.4650684741
 40
1.0
 40
1.0
 40
1.0
 40
1.0
 10
-15.3325866436
 20
21.1032236982
 30
0.0
 10
-15.3449798257
 20
21.1094140178
 30
0.0
 10
-15.3758800931
 20
21.1147885189
 30
0.0
 10
-15.4051159505
 20
21.1055975712
 30
0.0
 10
-15.4194887493
 20
21.0987184335
 30
0.0
 11
-15.3325866436
 21
21.1032236982
 31
0.0
 11
-15.373361313
 21
21.1112626981
 31
0.0
 11
-15.4194887493
 21
21.0987184335
 31
0.0
  0
SPLINE
  5
414
100
AcDbEntity
  8
RACCORDO
100
AcDbSpline
 62
7
  6
CONTINUOUS
 70
0
 71
3
 72
9
 73
5
 74
3
 42
0.0000001
 43
0.0000001
 44
0.0000000001
 12
-0.0772254574
 22
0.0305001057
 32
0.0
 13
-0.0748939282
 23
-0.0358458816
 33
0.0
 40
0.0
 40
0.0
 40
0.0
 40
0.0
 40
0.466292465
 40
1.0
 40
1.0
 40
1.0
 40
1.0
 10
-15.7133901111
 20
21.2933052057
 30
0.0
 10
-15.7253933274
 20
21.2980458622
 30
0.0
 10
-15.7540790191
 20
21.3012459333
 30
0.0
 10
-15.7810155361
 20
21.2925208082
 30
0.0
 10
-15.7943393541
 20
21.2861437358
 30
0.0
 11
-15.7133901111
 21
21.2933052057
 31
0.0
 11
-15.7517648505
 21
21.2984373208
 31
0.0
 11
-15.7943393541
 21
21.2861437358
 31
0.0
  0
SPLINE
  5
415
100
AcDbEntity
  8
RACCORDO
100
AcDbSpline
 62
7
  6
CONTINUOUS
 70
0
 71
3
 72
9
 73
5
 74
3
 42
0.0000001
 43
0.0000001
 44
0.0000000001
 12
0.0807359686
 22
0.0373517402
 32
0.0
 13
0.0790092133
 23
-0.0408777855
 33
0.0
 40
0.0
 40
0.0
 40
0.0
 40
0.0
 40
0.4648447593
 40
1.0
 40
1.0
 40
1.0
 40
1.0
 10
-15.8806621797
 20
21.2933001847
 30
0.0
 10
-15.8681522824
 20
21.2990877716
 30
0.0
 10
-15.8372363675
 20
21.3034926073
 30
0.0
 10
-15.8084334189
 20
21.2934357229
 30
0.0
 10
-15.7943393541
 20
21.2861437358
 30
0.0
 11
-15.8806621797
 21
21.2933001847
 31
0.0
 11
-15.8398666515
 21
21.3000580033
 31
0.0
 11
-15.7943393541
 21
21.2861437358
 31
0.0
  0
SPLINE
  5
416
100
AcDbEntity
  8
RACCORDO
100
AcDbSpline
 62
7
  6
CONTINUOUS
 70
0
 71
3
 72
9
 73
5
 74
3
 42
0.0000001
 43
0.0000001
 44
0.0000000001
 12
-0.0087546891
 22
-0.0874359101
 32
0.0
 13
-0.0780337588
 23
-0.0404031613
 33
0.0
 40
0.0
 40
0.0
 40
0.0
 40
0.0
 40
0.4365281204
 40
1.0
 40
1.0
 40
1.0
 40
1.0
 10
-15.2222170538
 20
-1.0172506537
 30
0.0
 10
-15.2234909431
 20
-1.0299733982
 30
0.0
 10
-15.2384496883
 20
-1.0576574377
 30
0.0
 10
-15.2634323227
 20
-1.0740978636
 30
0.0
 10
-15.2780889323
 20
-1.0816865454
 30
0.0
 11
-15.2222170538
 21
-1.0172506537
 31
0.0
 11
-15.2384608892
 21
-1.0520005747
 31
0.0
 11
-15.2780889323
 21
-1.0816865454
 31
0.0
  0
SPLINE
  5
417
100
AcDbEntity
  8
RACCORDO
100
AcDbSpline
 62
7
  6
CONTINUOUS
 70
0
 71
3
 72
11
 73
7
 74
5
 42
0.0000001
 43
0.0000001
 44
0.0000000001
 12
0.0000031704
 22
-0.0935249258
 32
0.0
 13
-0.0830527307
 23
-0.0430018101
 33
0.0
 40
0.0
 40
0.0
 40
0.0
 40
0.0
 40
0.2077396888
 40
0.4361283515
 40
0.6988919218
 40
1.0
 40
1.0
 40
1.0
 40
1.0
 10
-15.22196567
 20
2.6078660866
 30
0.0
 10
-15.2219654505
 20
2.6013898069
 30
0.0
 10
-15.2247373099
 20
2.5876893574
 30
0.0
 10
-15.2364195322
 20
2.5688996623
 30
0.0
 10
-15.2546837171
 20
2.5519635451
 30
0.0
 10
-15.2697529829
 20
2.5427185982
 30
0.0
 10
-15.2780889323
 20
2.5384025341
 30
0.0
 11
-15.22196567
 21
2.6078660866
 31
0.0
 11
-15.2256311907
 21
2.5887861563
 31
0.0
 11
-15.2365180432
 21
2.570408794
 31
0.0
 11
-15.254249302
 21
2.553393204
 31
0.0
 11
-15.2780889323
 21
2.5384025341
 31
0.0
  0
SPLINE
  5
418
100
AcDbEntity
  8
RACCORDO
100
AcDbSpline
 62
7
  6
CONTINUOUS
 70
0
 71
3
 72
9
 73
5
 74
3
 42
0.0000001
 43
0.0000001
 44
0.0000000001
 12
-0.0799442417
 22
0.0399316657
 32
0.0
 13
-0.0806054505
 23
-0.0385795418
 33
0.0
 40
0.0
 40
0.0
 40
0.0
 40
0.0
 40
0.4650684741
 40
1.0
 40
1.0
 40
1.0
 40
1.0
 10
-15.3325866436
 20
2.7867864081
 30
0.0
 10
-15.3449798257
 20
2.7929767278
 30
0.0
 10
-15.3758800931
 20
2.7983512288
 30
0.0
 10
-15.4051159505
 20
2.7891602812
 30
0.0
 10
-15.4194887493
 20
2.7822811434
 30
0.0
 11
-15.3325866436
 21
2.7867864081
 31
0.0
 11
-15.373361313
 21
2.794825408
 31
0.0
 11
-15.4194887493
 21
2.7822811434
 31
0.0
  0
SPLINE
  5
419
100
AcDbEntity
  8
RACCORDO
100
AcDbSpline
 62
7
  6
CONTINUOUS
 70
0
 71
3
 72
9
 73
5
 74
3
 42
0.0000001
 43
0.0000001
 44
0.0000000001
 12
-0.0772254574
 22
0.0305001057
 32
0.0
 13
-0.0748939282
 23
-0.0358458816
 33
0.0
 40
0.0
 40
0.0
 40
0.0
 40
0.0
 40
0.466292465
 40
1.0
 40
1.0
 40
1.0
 40
1.0
 10
-15.7133901111
 20
2.9768679156
 30
0.0
 10
-15.7253933274
 20
2.9816085721
 30
0.0
 10
-15.7540790191
 20
2.9848086433
 30
0.0
 10
-15.7810155361
 20
2.9760835182
 30
0.0
 10
-15.7943393541
 20
2.9697064458
 30
0.0
 11
-15.7133901111
 21
2.9768679156
 31
0.0
 11
-15.7517648505
 21
2.9820000308
 31
0.0
 11
-15.7943393541
 21
2.9697064458
 31
0.0
  0
SPLINE
  5
41A
100
AcDbEntity
  8
RACCORDO
100
AcDbSpline
 62
7
  6
CONTINUOUS
 70
0
 71
3
 72
9
 73
5
 74
3
 42
0.0000001
 43
0.0000001
 44
0.0000000001
 12
0.0807359686
 22
0.0373517402
 32
0.0
 13
0.0790092133
 23
-0.0408777855
 33
0.0
 40
0.0
 40
0.0
 40
0.0
 40
0.0
 40
0.4648447593
 40
1.0
 40
1.0
 40
1.0
 40
1.0
 10
-15.8806621797
 20
2.9768628947
 30
0.0
 10
-15.8681522824
 20
2.9826504816
 30
0.0
 10
-15.8372363675
 20
2.9870553173
 30
0.0
 10
-15.8084334189
 20
2.9769984328
 30
0.0
 10
-15.7943393541
 20
2.9697064458
 30
0.0
 11
-15.8806621797
 21
2.9768628947
 31
0.0
 11
-15.8398666515
 21
2.9836207132
 31
0.0
 11
-15.7943393541
 21
2.9697064458
 31
0.0
  0
SPLINE
  5
41B
100
AcDbEntity
  8
RACCORDO
100
AcDbSpline
 62
7
  6
CONTINUOUS
 70
0
 71
3
 72
11
 73
7
 74
5
 42
0.0000001
 43
0.0000001
 44
0.0000000001
 12
0.621178054
 22
0.310589027
 32
0.0
 13
0.621178054
 23
-0.310589027
 33
0.0
 40
0.0
 40
0.0
 40
0.0
 40
0.0
 40
0.2503580958
 40
0.5002847812
 40
0.7497738124
 40
1.0
 40
1.0
 40
1.0
 40
1.0
 10
-32.0725643841
 20
58.5470248349
 30
0.0
 10
-32.0207253991
 20
58.5729443273
 30
0.0
 10
-31.910029846
 20
58.6116925149
 30
0.0
 10
-31.7354413167
 20
58.6268118692
 30
0.0
 10
-31.5623951326
 20
58.6006312772
 30
0.0
 10
-31.4535556629
 20
58.5587297773
 30
0.0
 10
-31.4017439908
 20
58.5328239413
 30
0.0
 11
-32.0725643841
 21
58.5470248349
 31
0.0
 11
-31.9084823326
 21
58.6045486075
 31
0.0
 11
-31.7355916123
 21
58.6199305123
 31
0.0
 11
-31.5641890013
 21
58.5945626967
 31
0.0
 11
-31.4017439908
 21
58.5328239413
 31
0.0
  0
SPLINE
  5
41C
100
AcDbEntity
  8
RACCORDO
100
AcDbSpline
 62
7
  6
CONTINUOUS
 70
0
 71
3
 72
11
 73
7
 74
5
 42
0.0000001
 43
0.0000001
 44
0.0000000001
 12
-0.0
 22
-0.8666274729
 32
0.0
 13
-0.7751351763
 23
-0.3875675881
 33
0.0
 40
0.0
 40
0.0
 40
0.0
 40
0.0
 40
0.2519644667
 40
0.5012041607
 40
0.7503330772
 40
1.0
 40
1.0
 40
1.0
 40
1.0
 10
35.2719759648
 20
-56.4328384463
 30
0.0
 10
35.2719759648
 20
-56.5056248893
 30
0.0
 10
35.2565596829
 20
-56.6510806679
 30
0.0
 10
35.180292814
 20
-56.8566927738
 30
0.0
 10
35.0495452831
 20
-57.0326217554
 30
0.0
 10
34.9301447078
 20
-57.118234673
 30
0.0
 10
34.8656361698
 20
-57.150488942
 30
0.0
 11
35.2719759648
 21
-56.4328384463
 31
0.0
 11
35.2474970063
 21
-56.6498213423
 31
0.0
 11
35.1711643535
 21
-56.8518818469
 31
0.0
 11
35.0416024063
 21
-57.0245878387
 31
0.0
 11
34.8656361698
 21
-57.150488942
 31
0.0
  0
SPLINE
  5
41D
100
AcDbEntity
  8
RACCORDO
100
AcDbSpline
 62
7
  6
CONTINUOUS
 70
0
 71
3
 72
12
 73
8
 74
6
 42
0.0000001
 43
0.0000001
 44
0.0000000001
 12
1.150721855
 22
-0.5753609275
 32
0.0
 13
0.0
 23
-1.2865461455
 33
0.0
 40
0.0
 40
0.0
 40
0.0
 40
0.0
 40
0.2441622396
 40
0.4962320299
 40
0.6240741863
 40
0.751319135
 40
1.0
 40
1.0
 40
1.0
 40
1.0
 10
34.642029372
 20
25.5109372598
 30
0.0
 10
34.7356836471
 20
25.4641101223
 30
0.0
 10
34.9100269857
 20
25.3351557271
 30
0.0
 10
35.0747585582
 20
25.1205238724
 30
0.0
 10
35.1735539172
 20
24.9261747075
 30
0.0
 10
35.2468886751
 20
24.7226201742
 30
0.0
 10
35.2719759648
 20
24.5605807366
 30
0.0
 10
35.2719759648
 20
24.4539342672
 30
0.0
 11
34.642029372
 21
25.5109372598
 31
0.0
 11
34.8967521976
 21
25.3271128367
 31
0.0
 11
35.0959832025
 21
25.071227865
 31
0.0
 11
35.1705160611
 21
24.9246099132
 31
0.0
 11
35.2258153701
 21
24.7705261566
 31
0.0
 11
35.2719759648
 21
24.4539342672
 31
0.0
  0
SPLINE
  5
41E
100
AcDbEntity
  8
RACCORDO
100
AcDbSpline
 62
7
  6
CONTINUOUS
 70
0
 71
3
 72
11
 73
7
 74
5
 42
0.0000001
 43
0.0000001
 44
0.0000000001
 12
-0.621178054
 22
-0.310589027
 32
0.0
 13
-0.621178054
 23
0.310589027
 33
0.0
 40
0.0
 40
0.0
 40
0.0
 40
0.0
 40
0.2503580958
 40
0.5002847812
 40
0.7497738124
 40
1.0
 40
1.0
 40
1.0
 40
1.0
 10
32.0725643841
 20
-58.5470248349
 30
0.0
 10
32.0207253991
 20
-58.5729443273
 30
0.0
 10
31.910029846
 20
-58.6116925149
 30
0.0
 10
31.7354413167
 20
-58.6268118692
 30
0.0
 10
31.5623951326
 20
-58.6006312772
 30
0.0
 10
31.4535556629
 20
-58.5587297773
 30
0.0
 10
31.4017439908
 20
-58.5328239413
 30
0.0
 11
32.0725643841
 21
-58.5470248349
 31
0.0
 11
31.9084823326
 21
-58.6045486075
 31
0.0
 11
31.7355916123
 21
-58.6199305123
 31
0.0
 11
31.5641890013
 21
-58.5945626967
 31
0.0
 11
31.4017439908
 21
-58.5328239413
 31
0.0
  0
SPLINE
  5
41F
100
AcDbEntity
  8
RACCORDO
100
AcDbSpline
 62
7
  6
CONTINUOUS
 70
0
 71
3
 72
12
 73
8
 74
6
 42
0.0000001
 43
0.0000001
 44
0.0000000001
 12
-1.150721855
 22
0.5753609275
 32
0.0
 13
-0.0
 23
1.2865461455
 33
0.0
 40
0.0
 40
0.0
 40
0.0
 40
0.0
 40
0.2441622396
 40
0.4962320299
 40
0.6240741863
 40
0.751319135
 40
1.0
 40
1.0
 40
1.0
 40
1.0
 10
-34.642029372
 20
-25.5109372598
 30
0.0
 10
-34.7356836471
 20
-25.4641101223
 30
0.0
 10
-34.9100269857
 20
-25.3351557271
 30
0.0
 10
-35.0747585582
 20
-25.1205238724
 30
0.0
 10
-35.1735539172
 20
-24.9261747075
 30
0.0
 10
-35.2468886751
 20
-24.7226201742
 30
0.0
 10
-35.2719759648
 20
-24.5605807366
 30
0.0
 10
-35.2719759648
 20
-24.4539342672
 30
0.0
 11
-34.642029372
 21
-25.5109372598
 31
0.0
 11
-34.8967521976
 21
-25.3271128367
 31
0.0
 11
-35.0959832025
 21
-25.071227865
 31
0.0
 11
-35.1705160611
 21
-24.9246099132
 31
0.0
 11
-35.2258153701
 21
-24.7705261566
 31
0.0
 11
-35.2719759648
 21
-24.4539342672
 31
0.0
  0
SPLINE
  5
420
100
AcDbEntity
  8
RACCORDO
100
AcDbSpline
 62
7
  6
CONTINUOUS
 70
0
 71
3
 72
11
 73
7
 74
5
 42
0.0000001
 43
0.0000001
 44
0.0000000001
 12
0.0
 22
0.8666274729
 32
0.0
 13
0.7751351763
 23
0.3875675881
 33
0.0
 40
0.0
 40
0.0
 40
0.0
 40
0.0
 40
0.2519644667
 40
0.5012041607
 40
0.7503330772
 40
1.0
 40
1.0
 40
1.0
 40
1.0
 10
-35.2719759648
 20
56.4328384463
 30
0.0
 10
-35.2719759648
 20
56.5056248893
 30
0.0
 10
-35.2565596829
 20
56.6510806679
 30
0.0
 10
-35.180292814
 20
56.8566927738
 30
0.0
 10
-35.0495452831
 20
57.0326217554
 30
0.0
 10
-34.9301447078
 20
57.118234673
 30
0.0
 10
-34.8656361698
 20
57.150488942
 30
0.0
 11
-35.2719759648
 21
56.4328384463
 31
0.0
 11
-35.2474970063
 21
56.6498213423
 31
0.0
 11
-35.1711643535
 21
56.8518818469
 31
0.0
 11
-35.0416024063
 21
57.0245878387
 31
0.0
 11
-34.8656361698
 21
57.150488942
 31
0.0
  0
SPLINE
  5
421
100
AcDbEntity
  8
RACCORDO
100
AcDbSpline
 62
7
  6
CONTINUOUS
 70
0
 71
3
 72
15
 73
11
 74
9
 42
0.0000001
 43
0.0000001
 44
0.0000000001
 12
-0.4890795904
 22
0.2445397952
 32
0.0
 13
0.0
 23
-0.5468076052
 33
0.0
 40
0.0
 40
0.0
 40
0.0
 40
0.0
 40
0.1348976243
 40
0.2572070796
 40
0.3703119816
 40
0.4800840822
 40
0.5933698821
 40
0.7159405622
 40
0.8512189876
 40
1.0
 40
1.0
 40
1.0
 40
1.0
 10
-34.7719759648
 20
56.5122977576
 30
0.0
 10
-34.7939678565
 20
56.5232937034
 30
0.0
 10
-34.8379911814
 20
56.5405382823
 30
0.0
 10
-34.9055469991
 20
56.5500759158
 30
0.0
 10
-34.9687968633
 20
56.5408950603
 30
0.0
 10
-35.0244735878
 20
56.5127674018
 30
0.0
 10
-35.0694539006
 20
56.4672626558
 30
0.0
 10
-35.102050184
 20
56.4071387515
 30
0.0
 10
-35.1215848448
 20
56.3351035001
 30
0.0
 10
-35.1255293554
 20
56.2831799474
 30
0.0
 10
-35.1255293554
 20
56.256061751
 30
0.0
 11
-34.7719759648
 21
56.5122977576
 31
0.0
 11
-34.8409431398
 21
56.5384610117
 31
0.0
 11
-34.9072772997
 21
56.5469862035
 31
0.0
 11
-34.9683967865
 21
56.5375303681
 31
0.0
 11
-35.0219747535
 21
56.5104691714
 31
0.0
 11
-35.0659432386
 21
56.4668340723
 31
0.0
 11
-35.0986158156
 21
56.4083145973
 31
0.0
 11
-35.1187358275
 21
56.3371321966
 31
0.0
 11
-35.1255293554
 21
56.256061751
 31
0.0
  0
SPLINE
  5
422
100
AcDbEntity
  8
RACCORDO
100
AcDbSpline
 62
7
  6
CONTINUOUS
 70
0
 71
3
 72
11
 73
7
 74
5
 42
0.0000001
 43
0.0000001
 44
0.0000000001
 12
0.0
 22
0.7341091045
 32
0.0
 13
-0.6566071443
 23
0.3283035721
 33
0.0
 40
0.0
 40
0.0
 40
0.0
 40
0.0
 40
0.2467978162
 40
0.5117850408
 40
0.770319952
 40
1.0
 40
1.0
 40
1.0
 40
1.0
 10
31.6253507886
 20
22.880621679
 30
0.0
 10
31.6253507886
 20
22.9410138536
 30
0.0
 10
31.6045106152
 20
23.0664648509
 30
0.0
 10
31.5290384008
 20
23.2409321612
 30
0.0
 10
31.4181238091
 20
23.3901281498
 30
0.0
 10
31.3220672514
 20
23.4652761495
 30
0.0
 10
31.271797398
 20
23.4904110762
 30
0.0
 11
31.6253507886
 21
22.880621679
 31
0.0
 11
31.5984372474
 21
23.0597880656
 31
0.0
 11
31.5217961761
 21
23.2385837195
 31
0.0
 11
31.407098733
 21
23.3897981888
 31
0.0
 11
31.271797398
 21
23.4904110762
 31
0.0
  0
SPLINE
  5
423
100
AcDbEntity
  8
RACCORDO
100
AcDbSpline
 62
7
  6
CONTINUOUS
 70
0
 71
3
 72
11
 73
7
 74
5
 42
0.0000001
 43
0.0000001
 44
0.0000000001
 12
0.5632353594
 22
0.2816265088
 32
0.0
 13
-0.0000000003
 23
0.629720224
 33
0.0
 40
0.0
 40
0.0
 40
0.0
 40
0.0
 40
0.2171520847
 40
0.4504175249
 40
0.7102459295
 40
1.0
 40
1.0
 40
1.0
 40
1.0
 10
32.0725628364
 20
-58.5470217123
 30
0.0
 10
32.1133320805
 20
-58.5266364512
 30
0.0
 10
32.1904840341
 20
-58.4679461882
 30
0.0
 10
32.2731436076
 20
-58.3411472223
 30
0.0
 10
32.3226453507
 20
-58.1827729342
 30
0.0
 10
32.3324575698
 20
-58.0669723672
 30
0.0
 10
32.3324575698
 20
-58.0061510345
 30
0.0
 11
32.0725628364
 21
-58.5470217123
 31
0.0
 11
32.181975537
 21
-58.4649968855
 31
0.0
 11
32.2641872202
 21
-58.3432656709
 31
0.0
 11
32.3151787069
 21
-58.1877950587
 31
0.0
 11
32.3324575698
 21
-58.0061510345
 31
0.0
  0
SPLINE
  5
424
100
AcDbEntity
  8
RACCORDO
100
AcDbSpline
 62
7
  6
CONTINUOUS
 70
0
 71
3
 72
15
 73
11
 74
9
 42
0.0000001
 43
0.0000001
 44
0.0000000001
 12
0.4890795904
 22
-0.2445397952
 32
0.0
 13
0.0
 23
0.5468076052
 33
0.0
 40
0.0
 40
0.0
 40
0.0
 40
0.0
 40
0.1348976243
 40
0.2572070796
 40
0.3703119816
 40
0.4800840822
 40
0.5933698821
 40
0.7159405622
 40
0.8512189876
 40
1.0
 40
1.0
 40
1.0
 40
1.0
 10
31.271797398
 20
-58.262387041
 30
0.0
 10
31.2937892896
 20
-58.2733829869
 30
0.0
 10
31.3378126145
 20
-58.2906275657
 30
0.0
 10
31.4053684322
 20
-58.3001651992
 30
0.0
 10
31.4686182964
 20
-58.2909843437
 30
0.0
 10
31.524295021
 20
-58.2628566852
 30
0.0
 10
31.5692753337
 20
-58.2173519393
 30
0.0
 10
31.6018716171
 20
-58.1572280349
 30
0.0
 10
31.621406278
 20
-58.0851927835
 30
0.0
 10
31.6253507886
 20
-58.0332692308
 30
0.0
 10
31.6253507886
 20
-58.0061510345
 30
0.0
 11
31.271797398
 21
-58.262387041
 31
0.0
 11
31.340764573
 21
-58.2885502951
 31
0.0
 11
31.4070987329
 21
-58.2970754869
 31
0.0
 11
31.4682182196
 21
-58.2876196515
 31
0.0
 11
31.5217961866
 21
-58.2605584548
 31
0.0
 11
31.5657646717
 21
-58.2169233557
 31
0.0
 11
31.5984372487
 21
-58.1584038807
 31
0.0
 11
31.6185572607
 21
-58.0872214801
 31
0.0
 11
31.6253507886
 21
-58.0061510345
 31
0.0
  0
SPLINE
  5
425
100
AcDbEntity
  8
RACCORDO
100
AcDbSpline
 62
7
  6
CONTINUOUS
 70
0
 71
3
 72
11
 73
7
 74
5
 42
0.0000001
 43
0.0000001
 44
0.0000000001
 12
0.0
 22
-0.7341091045
 32
0.0
 13
0.6566071443
 23
-0.3283035721
 33
0.0
 40
0.0
 40
0.0
 40
0.0
 40
0.0
 40
0.2467978162
 40
0.5117850408
 40
0.770319952
 40
1.0
 40
1.0
 40
1.0
 40
1.0
 10
-35.1255293554
 20
-24.6307109624
 30
0.0
 10
-35.1255293554
 20
-24.6911031371
 30
0.0
 10
-35.1046891821
 20
-24.8165541343
 30
0.0
 10
-35.0292169676
 20
-24.9910214447
 30
0.0
 10
-34.9183023759
 20
-25.1402174332
 30
0.0
 10
-34.8222458183
 20
-25.2153654329
 30
0.0
 10
-34.7719759648
 20
-25.2405003596
 30
0.0
 11
-35.1255293554
 21
-24.6307109624
 31
0.0
 11
-35.0986158142
 21
-24.8098773491
 31
0.0
 11
-35.0219747429
 21
-24.988673003
 31
0.0
 11
-34.9072772999
 21
-25.1398874722
 31
0.0
 11
-34.7719759648
 21
-25.2405003596
 31
0.0
  0
SPLINE
  5
426
100
AcDbEntity
  8
RACCORDO
100
AcDbSpline
 62
7
  6
CONTINUOUS
 70
0
 71
3
 72
11
 73
7
 74
5
 42
0.0000001
 43
0.0000001
 44
0.0000000001
 12
-0.0
 22
-0.2406434216
 32
0.0
 13
-0.2152380197
 23
-0.1076190098
 33
0.0
 40
0.0
 40
0.0
 40
0.0
 40
0.0
 40
0.2065815957
 40
0.4344769586
 40
0.6975326744
 40
1.0
 40
1.0
 40
1.0
 40
1.0
 10
35.2719759648
 20
24.4539342672
 30
0.0
 10
35.2719759648
 20
24.4373634331
 30
0.0
 10
35.2646482844
 20
24.4022470782
 30
0.0
 10
35.2340997541
 20
24.3543228191
 30
0.0
 10
35.1864612474
 20
24.3112989285
 30
0.0
 10
35.1472301782
 20
24.2880079832
 30
0.0
 10
35.1255293554
 20
24.2771575719
 30
0.0
 11
35.2719759648
 21
24.4539342672
 31
0.0
 11
35.2623626256
 21
24.4051601289
 31
0.0
 11
35.2339208856
 21
24.3582702607
 31
0.0
 11
35.1876860671
 21
24.3150318032
 31
0.0
 11
35.1255293554
 21
24.2771575719
 31
0.0
  0
SPLINE
  5
427
100
AcDbEntity
  8
RACCORDO
100
AcDbSpline
 62
7
  6
CONTINUOUS
 70
0
 71
3
 72
11
 73
7
 74
5
 42
0.0000001
 43
0.0000001
 44
0.0000000001
 12
-0.0000000001
 22
-0.2406434211
 32
0.0
 13
-0.2152380191
 23
-0.1076190096
 33
0.0
 40
0.0
 40
0.0
 40
0.0
 40
0.0
 40
0.2065815972
 40
0.4344769617
 40
0.697532676
 40
1.0
 40
1.0
 40
1.0
 40
1.0
 10
35.2719759648
 20
-56.4328384463
 30
0.0
 10
35.2719759648
 20
-56.4494092804
 30
0.0
 10
35.2646482842
 20
-56.4845256354
 30
0.0
 10
35.2340997541
 20
-56.5324498947
 30
0.0
 10
35.1864612474
 20
-56.5754737849
 30
0.0
 10
35.147230178
 20
-56.5987647293
 30
0.0
 10
35.1255293554
 20
-56.6096151405
 30
0.0
 11
35.2719759648
 21
-56.4328384463
 31
0.0
 11
35.2623626255
 21
-56.4816125848
 31
0.0
 11
35.2339208854
 21
-56.5285024532
 31
0.0
 11
35.187686067
 21
-56.5717409101
 31
0.0
 11
35.1255293554
 21
-56.6096151405
 31
0.0
  0
SPLINE
  5
428
100
AcDbEntity
  8
RACCORDO
100
AcDbSpline
 62
7
  6
CONTINUOUS
 70
0
 71
3
 72
11
 73
7
 74
5
 42
0.0000001
 43
0.0000001
 44
0.0000000001
 12
0.41482847
 22
0.2074207209
 32
0.0
 13
0.4148310644
 23
-0.2074155322
 33
0.0
 40
0.0
 40
0.0
 40
0.0
 40
0.0
 40
0.2271155744
 40
0.4646632398
 40
0.7207939756
 40
1.0
 40
1.0
 40
1.0
 40
1.0
 10
-32.0725628255
 20
58.5470217178
 30
0.0
 10
-32.0411581568
 20
58.5627245431
 30
0.0
 10
-31.9719532288
 20
58.585748483
 30
0.0
 10
-31.8595091529
 20
58.5913840098
 30
0.0
 10
-31.7411734109
 20
58.5691408905
 30
0.0
 10
-31.663958566
 20
58.5379269364
 30
0.0
 10
-31.6253507886
 20
58.5186230476
 30
0.0
 11
-32.0725628255
 21
58.5470217178
 31
0.0
 11
-31.9727227059
 21
58.5805990615
 31
0.0
 11
-31.8627385748
 21
58.5870554752
 31
0.0
 11
-31.7457938202
 21
58.566186495
 31
0.0
 11
-31.6253507886
 21
58.5186230476
 31
0.0
  0
SPLINE
  5
429
100
AcDbEntity
  8
RACCORDO
100
AcDbSpline
 62
7
  6
CONTINUOUS
 70
0
 71
3
 72
11
 73
7
 74
5
 42
0.0000001
 43
0.0000001
 44
0.0000000001
 12
0.0
 22
0.7341092342
 32
0.0
 13
0.6566072602
 23
0.3283036301
 33
0.0
 40
0.0
 40
0.0
 40
0.0
 40
0.0
 40
0.2468124806
 40
0.5117852459
 40
0.7703059488
 40
1.0
 40
1.0
 40
1.0
 40
1.0
 10
31.271797398
 20
23.4904110762
 30
0.0
 10
31.271797398
 20
23.5508068499
 30
0.0
 10
31.2926400803
 20
23.6762574782
 30
0.0
 10
31.3681080164
 20
23.8507228572
 30
0.0
 10
31.4790229743
 20
23.9999138583
 30
0.0
 10
31.5750778614
 20
24.0750640098
 30
0.0
 10
31.6253507886
 20
24.1002004734
 30
0.0
 11
31.271797398
 21
23.4904110762
 31
0.0
 11
31.2987143218
 21
23.6695878731
 31
0.0
 11
31.3753507886
 21
23.8483739893
 31
0.0
 11
31.4900423346
 21
23.999579882
 31
0.0
 11
31.6253507886
 21
24.1002004734
 31
0.0
  0
SPLINE
  5
42A
100
AcDbEntity
  8
RACCORDO
100
AcDbSpline
 62
7
  6
CONTINUOUS
 70
0
 71
3
 72
11
 73
7
 74
5
 42
0.0000001
 43
0.0000001
 44
0.0000000001
 12
0.6499097198
 22
-0.3249548599
 32
0.0
 13
0.6499097198
 23
0.3249548599
 33
0.0
 40
0.0
 40
0.0
 40
0.0
 40
0.0
 40
0.2353891681
 40
0.4999999998
 40
0.7646108318
 40
1.0
 40
1.0
 40
1.0
 40
1.0
 10
31.6253507886
 20
22.880621679
 30
0.0
 10
31.6763446913
 20
22.8551247276
 30
0.0
 10
31.7935306392
 20
22.8187582839
 30
0.0
 10
31.9789041791
 20
22.801386464
 30
0.0
 10
32.1642777189
 20
22.818758284
 30
0.0
 10
32.281463667
 20
22.8551247274
 30
0.0
 10
32.3324575698
 20
22.8806216788
 30
0.0
 11
31.6253507886
 21
22.880621679
 31
0.0
 11
31.7875761654
 21
22.8264259141
 31
0.0
 11
31.978904179
 21
22.8073983743
 31
0.0
 11
32.1702321927
 21
22.8264259141
 31
0.0
 11
32.3324575698
 21
22.8806216788
 31
0.0
  0
SPLINE
  5
42B
100
AcDbEntity
  8
RACCORDO
100
AcDbSpline
 62
7
  6
CONTINUOUS
 70
0
 71
3
 72
11
 73
7
 74
5
 42
0.0000001
 43
0.0000001
 44
0.0000000001
 12
0.6499097198
 22
-0.3249548599
 32
0.0
 13
0.6499097198
 23
0.3249548599
 33
0.0
 40
0.0
 40
0.0
 40
0.0
 40
0.0
 40
0.2353891693
 40
0.5
 40
0.7646108307
 40
1.0
 40
1.0
 40
1.0
 40
1.0
 10
31.6253507886
 20
-58.0061510345
 30
0.0
 10
31.6763446916
 20
-58.031647986
 30
0.0
 10
31.7935306396
 20
-58.0680144296
 30
0.0
 10
31.9789041792
 20
-58.0853862494
 30
0.0
 10
32.1642777188
 20
-58.0680144296
 30
0.0
 10
32.2814636667
 20
-58.031647986
 30
0.0
 10
32.3324575698
 20
-58.0061510345
 30
0.0
 11
31.6253507886
 21
-58.0061510345
 31
0.0
 11
31.7875761663
 21
-58.0603467995
 31
0.0
 11
31.9789041792
 21
-58.0793743392
 31
0.0
 11
32.170232192
 21
-58.0603467995
 31
0.0
 11
32.3324575698
 21
-58.0061510345
 31
0.0
  0
SPLINE
  5
42C
100
AcDbEntity
  8
RACCORDO
100
AcDbSpline
 62
7
  6
CONTINUOUS
 70
0
 71
3
 72
11
 73
7
 74
5
 42
0.0000001
 43
0.0000001
 44
0.0000000001
 12
0.0
 22
-0.3148565111
 32
0.0
 13
0.2816427297
 23
-0.1407550901
 33
0.0
 40
0.0
 40
0.0
 40
0.0
 40
0.0
 40
0.2896927479
 40
0.5496093811
 40
0.7828339007
 40
1.0
 40
1.0
 40
1.0
 40
1.0
 10
31.271797398
 20
-58.262387041
 30
0.0
 10
31.271797398
 20
-58.2927909237
 30
0.0
 10
31.2767130023
 20
-58.3506907644
 30
0.0
 10
31.3014446815
 20
-58.4298838088
 30
0.0
 10
31.3427929648
 20
-58.4932761665
 30
0.0
 10
31.3813592906
 20
-58.5226287607
 30
0.0
 10
31.4017470416
 20
-58.5328178386
 30
0.0
 11
31.271797398
 21
-58.262387041
 31
0.0
 11
31.2804376257
 21
-58.3531885343
 31
0.0
 11
31.3059346014
 21
-58.4309516866
 31
0.0
 11
31.3470388806
 21
-58.4918017879
 31
0.0
 11
31.4017470416
 21
-58.5328178386
 31
0.0
  0
SPLINE
  5
42D
100
AcDbEntity
  8
RACCORDO
100
AcDbSpline
 62
7
  6
CONTINUOUS
 70
0
 71
3
 72
11
 73
7
 74
5
 42
0.0000001
 43
0.0000001
 44
0.0000000001
 12
0.0
 22
-0.3088714518
 32
0.0
 13
0.2716934649
 23
-0.1469157409
 33
0.0
 40
0.0
 40
0.0
 40
0.0
 40
0.0
 40
0.2890546277
 40
0.5491064817
 40
0.7828275246
 40
1.0
 40
1.0
 40
1.0
 40
1.0
 10
-34.7719759648
 20
-25.2405003596
 30
0.0
 10
-34.7719759648
 20
-25.2702606005
 30
0.0
 10
-34.7672564764
 20
-25.3269961956
 30
0.0
 10
-34.743594034
 20
-25.4048209496
 30
0.0
 10
-34.7040635193
 20
-25.4676539961
 30
0.0
 10
-34.6670717387
 20
-25.4974991733
 30
0.0
 10
-34.6474036246
 20
-25.508134525
 30
0.0
 11
-34.7719759648
 21
-25.2405003596
 31
0.0
 11
-34.7637156495
 21
-25.3293981358
 31
0.0
 11
-34.7393226671
 21
-25.4059272248
 31
0.0
 11
-34.6999403853
 21
-25.4664284398
 31
0.0
 11
-34.6474036246
 21
-25.508134525
 31
0.0
  0
SPLINE
  5
42E
100
AcDbEntity
  8
RACCORDO
100
AcDbSpline
 62
7
  6
CONTINUOUS
 70
0
 71
3
 72
11
 73
7
 74
5
 42
0.0000001
 43
0.0000001
 44
0.0000000001
 12
-0.2152380197
 22
0.1076190098
 32
0.0
 13
0.0000000002
 23
0.2406434216
 33
0.0
 40
0.0
 40
0.0
 40
0.0
 40
0.0
 40
0.3024673248
 40
0.5655230392
 40
0.7934184027
 40
1.0
 40
1.0
 40
1.0
 40
1.0
 10
-35.1255293554
 20
-24.6307109624
 30
0.0
 10
-35.1472301781
 20
-24.6198605511
 30
0.0
 10
-35.1864612473
 20
-24.5965696059
 30
0.0
 10
-35.2340997539
 20
-24.5535457155
 30
0.0
 10
-35.2646482842
 20
-24.5056214564
 30
0.0
 10
-35.2719759649
 20
-24.4705051013
 30
0.0
 10
-35.2719759648
 20
-24.4539342672
 30
0.0
 11
-35.1255293554
 21
-24.6307109624
 31
0.0
 11
-35.187686067
 21
-24.5928367312
 31
0.0
 11
-35.2339208853
 21
-24.549598274
 31
0.0
 11
-35.2623626254
 21
-24.5027084058
 31
0.0
 11
-35.2719759648
 21
-24.4539342672
 31
0.0
  0
SPLINE
  5
42F
100
AcDbEntity
  8
RACCORDO
100
AcDbSpline
 62
7
  6
CONTINUOUS
 70
0
 71
3
 72
11
 73
7
 74
5
 42
0.0000001
 43
0.0000001
 44
0.0000000001
 12
-0.2152380197
 22
0.1076190098
 32
0.0
 13
0.0
 23
0.2406434217
 33
0.0
 40
0.0
 40
0.0
 40
0.0
 40
0.0
 40
0.3024673256
 40
0.5655230414
 40
0.7934184043
 40
1.0
 40
1.0
 40
1.0
 40
1.0
 10
-35.1255293554
 20
56.256061751
 30
0.0
 10
-35.1472301782
 20
56.2669121624
 30
0.0
 10
-35.1864612474
 20
56.2902031077
 30
0.0
 10
-35.2340997541
 20
56.3332269982
 30
0.0
 10
-35.2646482844
 20
56.3811512574
 30
0.0
 10
-35.2719759648
 20
56.4162676123
 30
0.0
 10
-35.2719759648
 20
56.4328384463
 30
0.0
 11
-35.1255293554
 21
56.256061751
 31
0.0
 11
-35.1876860671
 21
56.2939359824
 31
0.0
 11
-35.2339208856
 21
56.3371744399
 31
0.0
 11
-35.2623626256
 21
56.384064308
 31
0.0
 11
-35.2719759648
 21
56.4328384463
 31
0.0
  0
SPLINE
  5
430
100
AcDbEntity
  8
RACCORDO
100
AcDbSpline
 62
7
  6
CONTINUOUS
 70
0
 71
3
 72
11
 73
7
 74
5
 42
0.0000001
 43
0.0000001
 44
0.0000000001
 12
0.0
 22
0.7341092343
 32
0.0
 13
0.6566072603
 23
0.3283036302
 33
0.0
 40
0.0
 40
0.0
 40
0.0
 40
0.0
 40
0.2468124793
 40
0.5117852457
 40
0.7703059497
 40
1.0
 40
1.0
 40
1.0
 40
1.0
 10
-34.7719759648
 20
56.5122977576
 30
0.0
 10
-34.7719759648
 20
56.572693531
 30
0.0
 10
-34.7511332826
 20
56.6981441592
 30
0.0
 10
-34.6756653465
 20
56.8726095384
 30
0.0
 10
-34.5647503884
 20
57.02180054
 30
0.0
 10
-34.4686955011
 20
57.0969506912
 30
0.0
 10
-34.4184225741
 20
57.1220871547
 30
0.0
 11
-34.7719759648
 21
56.5122977576
 31
0.0
 11
-34.7450590413
 21
56.6914745536
 31
0.0
 11
-34.6684225743
 21
56.8702606706
 31
0.0
 11
-34.5537310277
 21
57.021466564
 31
0.0
 11
-34.4184225741
 21
57.1220871547
 31
0.0
  0
SPLINE
  5
431
100
AcDbEntity
  8
RACCORDO
100
AcDbSpline
 62
7
  6
CONTINUOUS
 70
0
 71
3
 72
11
 73
7
 74
5
 42
0.0000001
 43
0.0000001
 44
0.0000000001
 12
-0.4148310644
 22
0.2074155322
 32
0.0
 13
-0.41482847
 23
-0.2074207209
 33
0.0
 40
0.0
 40
0.0
 40
0.0
 40
0.0
 40
0.2792060244
 40
0.5353367602
 40
0.7728844256
 40
1.0
 40
1.0
 40
1.0
 40
1.0
 10
-34.4184225743
 20
57.1220871548
 30
0.0
 10
-34.4570303517
 20
57.1413910435
 30
0.0
 10
-34.5342451966
 20
57.1726049976
 30
0.0
 10
-34.6525809386
 20
57.194848117
 30
0.0
 10
-34.7650250145
 20
57.1892125902
 30
0.0
 10
-34.8342299424
 20
57.1661886503
 30
0.0
 10
-34.8656346112
 20
57.1504858249
 30
0.0
 11
-34.4184225743
 21
57.1220871548
 31
0.0
 11
-34.5388656058
 21
57.1696506021
 31
0.0
 11
-34.6558103604
 21
57.1905195823
 31
0.0
 11
-34.7657944916
 21
57.1840631687
 31
0.0
 11
-34.8656346112
 21
57.1504858249
 31
0.0
  0
SPLINE
  5
432
100
AcDbEntity
  8
RACCORDO
100
AcDbSpline
 62
7
  6
CONTINUOUS
 70
0
 71
3
 72
11
 73
7
 74
5
 42
0.0000001
 43
0.0000001
 44
0.0000000001
 12
1.3132149073
 22
-0.6566074527
 32
0.0
 13
-0.0000000002
 23
-1.4682189005
 33
0.0
 40
0.0
 40
0.0
 40
0.0
 40
0.0
 40
0.2296755896
 40
0.4882147771
 40
0.7532068933
 40
1.0
 40
1.0
 40
1.0
 40
1.0
 10
34.4184225743
 20
25.4967363662
 30
0.0
 10
34.518960377
 20
25.446467465
 30
0.0
 10
34.7110726732
 20
25.2961713206
 30
0.0
 10
34.9329096543
 20
24.9977814626
 30
0.0
 10
35.0838482508
 20
24.6488411847
 30
0.0
 10
35.1255293555
 20
24.3979396731
 30
0.0
 10
35.1255293554
 20
24.2771575719
 30
0.0
 11
34.4184225743
 21
25.4967363662
 31
0.0
 11
34.6890206245
 21
25.2955150824
 31
0.0
 11
34.9184225746
 21
24.9930833975
 31
0.0
 11
35.0717040572
 21
24.6354837935
 31
0.0
 11
35.1255293554
 21
24.2771575719
 31
0.0
  0
SPLINE
  5
433
100
AcDbEntity
  8
RACCORDO
100
AcDbSpline
 62
7
  6
CONTINUOUS
 70
0
 71
3
 72
11
 73
7
 74
5
 42
0.0000001
 43
0.0000001
 44
0.0000000001
 12
0.0000000002
 22
1.4682189005
 32
0.0
 13
-1.3132149073
 23
0.6566074527
 33
0.0
 40
0.0
 40
0.0
 40
0.0
 40
0.0
 40
0.2467931067
 40
0.5117852229
 40
0.7703244104
 40
1.0
 40
1.0
 40
1.0
 40
1.0
 10
32.3324575698
 20
22.880621679
 30
0.0
 10
32.3324575698
 20
23.0014037802
 30
0.0
 10
32.2907764651
 20
23.2523052918
 30
0.0
 10
32.1398378686
 20
23.6012455698
 30
0.0
 10
31.9180008876
 20
23.8996354277
 30
0.0
 10
31.7258885913
 20
24.0499315721
 30
0.0
 10
31.6253507886
 20
24.1002004734
 30
0.0
 11
32.3324575698
 21
22.880621679
 31
0.0
 11
32.2786322715
 21
23.2389479006
 31
0.0
 11
32.125350789
 21
23.5965475046
 31
0.0
 11
31.8959488388
 21
23.8989791896
 31
0.0
 11
31.6253507886
 21
24.1002004734
 31
0.0
  0
SPLINE
  5
434
100
AcDbEntity
  8
RACCORDO
100
AcDbSpline
 62
7
  6
CONTINUOUS
 70
0
 71
3
 72
11
 73
7
 74
5
 42
0.0000001
 43
0.0000001
 44
0.0000000001
 12
0.0000000003
 22
-0.6055028141
 32
0.0
 13
-0.5227781972
 23
-0.3055104162
 33
0.0
 40
0.0
 40
0.0
 40
0.0
 40
0.0
 40
0.2884407246
 40
0.5484909798
 40
0.7827647693
 40
1.0
 40
1.0
 40
1.0
 40
1.0
 10
35.1255293554
 20
-56.6096151416
 30
0.0
 10
35.1255293555
 20
-56.6678323651
 30
0.0
 10
35.1165071866
 20
-56.7789136251
 30
0.0
 10
35.0712779073
 20
-56.9317179837
 30
0.0
 10
34.9958799824
 20
-57.0561650061
 30
0.0
 10
34.9250468067
 20
-57.1166905293
 30
0.0
 10
34.8871915259
 20
-57.1388130713
 30
0.0
 11
35.1255293554
 21
-56.6096151416
 31
0.0
 11
35.1097706742
 21
-56.7835544125
 31
0.0
 11
35.0631972133
 21
-56.9339702696
 31
0.0
 11
34.9878849235
 21
-57.0541803238
 31
0.0
 11
34.8871915259
 21
-57.1388130713
 31
0.0
  0
SPLINE
  5
435
100
AcDbEntity
  8
RACCORDO
100
AcDbSpline
 62
7
  6
CONTINUOUS
 70
0
 71
3
 72
10
 73
6
 74
4
 42
0.0000001
 43
0.0000001
 44
0.0000000001
 12
-0.2068840862
 22
0.1033933555
 32
0.0
 13
-0.2068646148
 23
-0.1034323074
 33
0.0
 40
0.0
 40
0.0
 40
0.0
 40
0.0
 40
0.2277035464
 40
0.4658623018
 40
1.0
 40
1.0
 40
1.0
 40
1.0
 10
34.6420263181
 20
25.5109311588
 30
0.0
 10
34.6263235714
 20
25.5187788367
 30
0.0
 10
34.591717976
 20
25.5303038042
 30
0.0
 10
34.5140024179
 20
25.5342084811
 30
0.0
 10
34.4552539698
 20
25.5151520649
 30
0.0
 10
34.4184225734
 20
25.4967363667
 30
0.0
 11
34.6420263181
 21
25.5109311588
 31
0.0
 11
34.592112574
 21
25.5277263628
 31
0.0
 11
34.5371254546
 21
25.5309538082
 31
0.0
 11
34.4184225734
 21
25.4967363667
 31
0.0
  0
SPLINE
  5
436
100
AcDbEntity
  8
RACCORDO
100
AcDbSpline
 62
7
  6
CONTINUOUS
 70
0
 71
3
 72
10
 73
6
 74
4
 42
0.0000001
 43
0.0000001
 44
0.0000000001
 12
-0.2068840866
 22
0.1033933607
 32
0.0
 13
-0.2068646173
 23
-0.1034323086
 33
0.0
 40
0.0
 40
0.0
 40
0.0
 40
0.0
 40
0.2277035462
 40
0.4658623024
 40
1.0
 40
1.0
 40
1.0
 40
1.0
 10
-31.4017470416
 20
58.5328178387
 30
0.0
 10
-31.4174497883
 20
58.540665517
 30
0.0
 10
-31.452055384
 20
58.5521904851
 30
0.0
 10
-31.529770943
 20
58.5560951633
 30
0.0
 10
-31.5885193918
 20
58.537038746
 30
0.0
 10
-31.6253507886
 20
58.5186230476
 30
0.0
 11
-31.4017470416
 21
58.5328178387
 31
0.0
 11
-31.4516607859
 21
58.5496130437
 31
0.0
 11
-31.5066479062
 21
58.5528404898
 31
0.0
 11
-31.6253507886
 21
58.5186230476
 31
0.0
  0
ELLIPSE
  5
437
100
AcDbEntity
  8
RACCORDO
100
AcDbEllipse
 62
7
  6
CONTINUOUS
 10
16.0993445051
 20
-31.963872917
 30
0.0
 11
-0.313181275
 21
0.626269159
 31
0.0
 40
0.6121897086
 41
-3.160544254
 42
-2.2557347926
  0
ELLIPSE
  5
438
100
AcDbEntity
  8
RACCORDO
100
AcDbEllipse
 62
7
  6
CONTINUOUS
 10
16.0993445051
 20
12.3643498451
 30
0.0
 11
-0.3130130858
 21
0.6261196575
 31
0.0
 40
0.6125552124
 41
-2.255296188
 42
-0.6848044477
  0
ELLIPSE
  5
439
100
AcDbEntity
  8
RACCORDO
100
AcDbEllipse
 62
7
  6
CONTINUOUS
 10
-19.599523072
 20
30.2137836336
 30
0.0
 11
-0.313181275
 21
0.626269159
 31
0.0
 40
0.6121897086
 41
-0.6846338794
 42
0.019259411
  0
ELLIPSE
  5
43A
100
AcDbEntity
  8
RACCORDO
100
AcDbEllipse
 62
7
  6
CONTINUOUS
 10
-16.8369627937
 20
-11.9406880583
 30
0.0
 11
-0.1340229113
 21
0.2684080287
 31
0.0
 40
0.6140178746
 41
0.8880524522
 42
2.4561097232
  0
ELLIPSE
  5
43B
100
AcDbEntity
  8
RACCORDO
100
AcDbEllipse
 62
7
  6
CONTINUOUS
 10
-17.6190500398
 20
-12.3167994317
 30
0.0
 11
-0.1341484654
 21
0.2683369961
 31
0.0
 40
0.6125552124
 41
0.8862964655
 42
2.4567882058
  0
ELLIPSE
  5
43C
100
AcDbEntity
  8
RACCORDO
100
AcDbEllipse
 62
7
  6
CONTINUOUS
 10
10.2353706577
 20
-25.2661188958
 30
0.0
 11
-0.1341371037
 21
0.2683722998
 31
0.0
 40
0.6123537661
 41
-0.6845550499
 42
0.0106825902
  0
ELLIPSE
  5
43D
100
AcDbEntity
  8
RACCORDO
100
AcDbEllipse
 62
7
  6
CONTINUOUS
 10
-5.674531919
 20
-17.3111676074
 30
0.0
 11
-0.1341371037
 21
0.2683722998
 31
0.0
 40
0.6123537661
 41
-0.6845550499
 42
0.0106825902
  0
ELLIPSE
  5
43E
100
AcDbEntity
  8
RACCORDO
100
AcDbEllipse
 62
7
  6
CONTINUOUS
 10
-16.4932979848
 20
-11.2955272159
 30
0.0
 11
-0.1342114942
 21
0.268324886
 31
0.0
 40
0.6123910759
 41
-2.2556797026
 42
-0.6848833758
  0
ELLIPSE
  5
43F
100
AcDbEntity
  8
RACCORDO
100
AcDbEllipse
 62
7
  6
CONTINUOUS
 10
-16.4932979848
 20
2.2145086592
 30
0.0
 11
-0.1342205464
 21
0.2684010681
 31
0.0
 40
0.6121897086
 41
-3.160544254
 42
-2.2557347926
  0
ELLIPSE
  5
440
100
AcDbEntity
  8
RACCORDO
100
AcDbEllipse
 62
7
  6
CONTINUOUS
 10
-16.4932979848
 20
13.8191699179
 30
0.0
 11
-0.1341484654
 21
0.2683369961
 31
0.0
 40
0.6125552124
 41
-2.255296188
 42
-0.6848044477
  0
ELLIPSE
  5
441
100
AcDbEntity
  8
RACCORDO
100
AcDbEllipse
 62
7
  6
CONTINUOUS
 10
5.2149125113
 20
-22.7558898225
 30
0.0
 11
-0.1341371037
 21
0.2683722998
 31
0.0
 40
0.6123537661
 41
-2.2553513767
 42
-0.6845550499
  0
ELLIPSE
  5
442
100
AcDbEntity
  8
RACCORDO
100
AcDbEllipse
 62
7
  6
CONTINUOUS
 10
-10.6949900654
 20
-14.8009385342
 30
0.0
 11
-0.1341371037
 21
0.2683722998
 31
0.0
 40
0.6123537661
 41
-2.2553513767
 42
-0.6845550499
  0
ELLIPSE
  5
443
100
AcDbEntity
  8
ASSI
100
AcDbEllipse
 62
7
  6
CONTINUOUS
 10
9.344075602
 20
-23.1512268207
 30
0.0
 11
0.0974129977
 21
0.1748074534
 31
0.0
 40
0.6437101552
 41
0.6611775963
 42
0.7135374739
  0
ELLIPSE
  5
444
100
AcDbEntity
  8
ASSI
100
AcDbEllipse
 62
7
  6
CONTINUOUS
 10
-6.5658269747
 20
-15.1962755324
 30
0.0
 11
0.0974129977
 21
0.1748074534
 31
0.0
 40
0.6437101552
 41
0.6611775963
 42
0.7135374739
  0
ELLIPSE
  5
445
100
AcDbEntity
  8
RACCORDO
100
AcDbEllipse
 62
7
  6
CONTINUOUS
 10
-16.5652429224
 20
20.3662643533
 30
0.0
 11
-0.1342114942
 21
0.268324886
 31
0.0
 40
0.6123910759
 41
-3.1500217516
 42
-2.2556797026
  0
ELLIPSE
  5
446
100
AcDbEntity
  8
RACCORDO
100
AcDbEllipse
 62
7
  6
CONTINUOUS
 10
-16.5652429224
 20
-9.9446247791
 30
0.0
 11
-0.1342114942
 21
0.268324886
 31
0.0
 40
0.6123910759
 41
-3.1500217506
 42
-2.2556797026
  0
ELLIPSE
  5
447
100
AcDbEntity
  8
RACCORDO
100
AcDbEllipse
 62
7
  6
CONTINUOUS
 10
-16.5652429224
 20
-4.4020621949
 30
0.0
 11
-0.1342114942
 21
0.268324886
 31
0.0
 40
0.6123910759
 41
-2.2556797026
 42
-0.6848833758
  0
ELLIPSE
  5
448
100
AcDbEntity
  8
ASSI
100
AcDbEllipse
 62
7
  6
CONTINUOUS
 10
-2.4499785644
 20
-17.7664004549
 30
0.0
 11
0.1997674032
 21
0.1243735635
 31
0.0
 40
0.0775313764
 41
5.4495541764
 42
6.9679906257
  0
ELLIPSE
  5
449
100
AcDbEntity
  8
RACCORDO
100
AcDbEllipse
 62
7
  6
CONTINUOUS
 10
-17.5005271112
 20
19.9146676322
 30
0.0
 11
-0.1342114942
 21
0.268324886
 31
0.0
 40
0.6123910759
 41
2.4567092778
 42
4.0275056046
  0
ELLIPSE
  5
44A
100
AcDbEntity
  8
RACCORDO
100
AcDbEllipse
 62
7
  6
CONTINUOUS
 10
-17.5005271112
 20
-10.3962215003
 30
0.0
 11
-0.1342114942
 21
0.268324886
 31
0.0
 40
0.6123910759
 41
2.4567092778
 42
4.0275056046
  0
ELLIPSE
  5
44B
100
AcDbEntity
  8
RACCORDO
100
AcDbEllipse
 62
7
  6
CONTINUOUS
 10
-17.0688574856
 20
13.5291710196
 30
0.0
 11
-0.1341484654
 21
0.2683369961
 31
0.0
 40
0.6125552124
 41
-2.255296188
 42
-0.7764304893
  0
ELLIPSE
  5
44C
100
AcDbEntity
  8
RACCORDO
100
AcDbEllipse
 62
7
  6
CONTINUOUS
 10
9.6696852327
 20
-25.5610548319
 30
0.0
 11
-0.1341371037
 21
0.2683722998
 31
0.0
 40
0.6123537661
 41
-0.6845550499
 42
0.4620963561
  0
ELLIPSE
  5
44D
100
AcDbEntity
  8
ASSI
100
AcDbEllipse
 62
7
  6
CONTINUOUS
 10
-2.3083631292
 20
-17.3250074551
 30
0.0
 11
0.0823576675
 21
0.1823694112
 31
0.0
 40
0.5796795686
 41
0.6094740628
 42
0.6618339404
  0
ELLIPSE
  5
44E
100
AcDbEntity
  8
RACCORDO
100
AcDbEllipse
 62
7
  6
CONTINUOUS
 10
-17.0688574856
 20
-11.5734328904
 30
0.0
 11
-0.1342114942
 21
0.268324886
 31
0.0
 40
0.6123910759
 41
-2.2556797026
 42
-0.7768150675
  0
ELLIPSE
  5
44F
100
AcDbEntity
  8
RACCORDO
100
AcDbEllipse
 62
7
  6
CONTINUOUS
 10
-11.2606754904
 20
-15.0958744704
 30
0.0
 11
-0.1341371037
 21
0.2683722998
 31
0.0
 40
0.6123537661
 41
-1.831206456
 42
-0.6845550499
  0
ELLIPSE
  5
450
100
AcDbEntity
  8
RACCORDO
100
AcDbEllipse
 62
7
  6
CONTINUOUS
 10
-6.240217344
 20
-17.6061035436
 30
0.0
 11
-0.1341371037
 21
0.2683722998
 31
0.0
 40
0.6123537661
 41
-0.6845550499
 42
0.4620963561
  0
ELLIPSE
  5
451
100
AcDbEntity
  8
RACCORDO
100
AcDbEllipse
 62
7
  6
CONTINUOUS
 10
4.6492270863
 20
-23.0508257587
 30
0.0
 11
-0.1341371037
 21
0.2683722998
 31
0.0
 40
0.6123537661
 41
-1.831206456
 42
-0.6845550499
  0
ELLIPSE
  5
452
100
AcDbEntity
  8
RACCORDO
100
AcDbEllipse
 62
7
  6
CONTINUOUS
 10
-17.5005271112
 20
-4.8536589161
 30
0.0
 11
-0.1342114942
 21
0.268324886
 31
0.0
 40
0.6123910759
 41
-2.2556797026
 42
-0.7362649916
  0
ELLIPSE
  5
453
100
AcDbEntity
  8
RACCORDO
100
AcDbEllipse
 62
7
  6
CONTINUOUS
 10
-17.5005271112
 20
25.4572302164
 30
0.0
 11
-0.1342114942
 21
0.268324886
 31
0.0
 40
0.6123910759
 41
-2.2556797026
 42
-1.7810338182
  0
ELLIPSE
  5
454
100
AcDbEntity
  8
RACCORDO
100
AcDbEllipse
 62
7
  6
CONTINUOUS
 10
-17.0688574856
 20
1.9486962083
 30
0.0
 11
-0.1342205464
 21
0.2684010681
 31
0.0
 40
0.6121897086
 41
2.5485848158
 42
4.0274505145
  0
ENDSEC
  0
SECTION
  2
OBJECTS
  0
DICTIONARY
  5
C
100
AcDbDictionary
280
0
281
1
  3
ACAD_GROUP
350
D
  3
ACAD_MLINESTYLE
350
17
  3
ACAD_LAYOUT
350
1A
  3
ACAD_PLOTSETTINGS
350
19
  3
ACAD_PLOTSTYLENAME
350
E
  0
DICTIONARY
  5
D
102
{ACAD_REACTORS
330
C
102
}
100
AcDbDictionary
280
0
281
1
  0
ACDBDICTIONARYWDFLT
  5
E
102
{ACAD_REACTORS
330
C
102
}
100
AcDbDictionary
281
1
  3
Normal
350
F
100
AcDbDictionaryWithDefault
340
F
  0
DICTIONARY
  5
17
102
{ACAD_REACTORS
330
C
102
}
100
AcDbDictionary
280
0
281
1
  3
Standard
350
18
  0
DICTIONARY
  5
19
102
{ACAD_REACTORS
330
C
102
}
100
AcDbDictionary
281
1
  0
DICTIONARY
  5
1A
102
{ACAD_REACTORS
330
C
102
}
100
AcDbDictionary
281
1
  3
Model
350
455
  3
Layout1
350
456
  0
ACDBPLACEHOLDER
  5
F
102
{ACAD_REACTORS
330
E
102
}
  0
MLINESTYLE
  5
18
102
{ACAD_REACTORS
330
17
102
}
100
AcDbMlineStyle
  2
STANDARD
 70
0
  3

 62
256
 51
90.0
 52
90.0
 71
2
 49
0.5
 62
256
  6
BYLAYER
 49
-0.5
 62
256
  6
BYLAYER
  0
LAYOUT
  5
455
102
{ACAD_REACTORS
330
1A
102
}
100
AcDbPlotSettings
  1

  2
none_device
  4
ISO_A4_(297.00_x_210.00_MM)
  6

 40
0.0
 41
0.0
 42
0.0
 43
0.0
 44
297.0
 45
210.0
 46
0.0
 47
0.0
 48
0.0
 49
0.0
140
0.0
141
0.0
142
1.0
143
1.0
 70
1024
 72
1
 73
0
 74
0
  7

 75
0
147
1.0
148
0.0
149
0.0
100
AcDbLayout
  1
Model
 70
0
 71
0
 10
0.0
 20
0.0
 11
297.0
 21
210.0
 12
0.0
 22
0.0
 32
0.0
 14
0.0
 24
0.0
 34
0.0
 15
0.0
 25
0.0
 35
0.0
146
0.0
 13
0.0
 23
0.0
 33
0.0
 16
1.0
 26
0.0
 36
0.0
 17
0.0
 27
1.0
 37
0.0
 76
0
330
212
345
0
346
0
  0
LAYOUT
  5
456
102
{ACAD_REACTORS
330
1A
102
}
100
AcDbPlotSettings
  1

  2
none_device
  4
ISO_A4_(297.00_x_210.00_MM)
  6

 40
0.0
 41
0.0
 42
0.0
 43
0.0
 44
297.0
 45
210.0
 46
0.0
 47
0.0
 48
0.0
 49
0.0
140
0.0
141
0.0
142
1.0
143
1.0
 70
0
 72
1
 73
0
 74
0
  7

 75
0
147
1.0
148
0.0
149
0.0
100
AcDbLayout
  1
Layout1
 70
0
 71
1
 10
0.0
 20
0.0
 11
297.0
 21
210.0
 12
0.0
 22
0.0
 32
0.0
 14
0.0
 24
0.0
 34
0.0
 15
0.0
 25
0.0
 35
0.0
146
0.0
 13
0.0
 23
0.0
 33
0.0
 16
1.0
 26
0.0
 36
0.0
 17
0.0
 27
1.0
 37
0.0
 76
0
330
213
345
0
346
0
  0
ENDSEC
  0
EOF
