  0
SECTION
  2
HEADER
  9
$ACADVER
  1
AC1015
  9
$DWGCODEPAGE
  3
ANSI_1252
  9
$EXTMAX
 10
297.0
 20
210.0
 30
0.0
  9
$EXTMIN
 10
0.0
 20
0.0
 30
0.0
  9
$LIMMIN
 10
0.0
 20
0.0
  9
$LIMMAX
 10
297.0
 20
210.0
  9
$VIEWCTR
 10
148.5
 20
105.0
  9
$VIEWSIZE
 40
210.0
  9
$CLAYER
  8
0
  9
$LTSCALE
 40
16.335
  9
$CELTYPE
  6
BYLAYER
  9
$DIMSCALE
 40
1.0
  9
$DIMASZ
 40
3.0
  9
$DIMEXO
 40
1.85625
  9
$DIMDLI
 40
11.286
  9
$DIMEXE
 40
5.346
  9
$DIMCEN
 40
2.673
  9
$DIMLFAC
 40
1.0
  9
$DIMBLK
  1
_FILLED
  9
$DIMTXT
 40
3.0
  9
$DIMTOL
 70
1
  9
$DIMLIM
 70
0
  9
$DIMTFAC
 40
1.0
  9
$DIMTP
 40
0.01
  9
$DIMTM
 40
0.01
  9
$PDMODE
 70
3
  9
$PDSIZE
 40
3.0
  9
$HANDSEED
  5
459
  9
$TILEMODE
 70
1
  9
$MEASUREMENT
 70
1
  9
$INSUNITS
 70
4
  0
ENDSEC
  0
SECTION
  2
CLASSES
  0
CLASS
  1
ACDBDICTIONARYWDFLT
  2
AcDbDictionaryWithDefault
  3
AutoCAD 2000
 90
0
280
0
281
0
  0
CLASS
  1
ACDBPLACEHOLDER
  2
AcDbPlaceHolder
  3
AutoCAD 2000
 90
0
280
0
281
0
  0
CLASS
  1
LAYOUT
  2
AcDbLayout
  3
AutoCAD 2000
 90
0
280
0
281
0
  0
ENDSEC
  0
SECTION
  2
TABLES
  0
TABLE
  2
VPORT
  5
8
100
AcDbSymbolTable
 70
2
  0
VPORT
  5
1F4
100
AcDbSymbolTableRecord
100
AcDbViewportTableRecord
  2
*ACTIVE
 70
0
 10
0.0
 20
0.0
 11
1.0
 21
1.0
 12
148.5
 22
105.0
 13
0.0
 23
0.0
 14
1.0
 24
1.0
 15
0.0
 25
0.0
 16
0.0
 26
0.0
 36
1.0
 17
0.0
 27
0.0
 37
0.0
 40
210.0
 41
1.4142857143
 42
50.0
 43
0.0
 44
0.0
 50
0.0
 51
0.0
 71
0
 72
100
 73
1
 74
1
 75
0
 76
0
 77
0
 78
0
  0
ENDTAB
  0
TABLE
  2
LTYPE
  5
5
100
AcDbSymbolTable
 70
6
  0
LTYPE
  5
14
100
AcDbSymbolTableRecord
100
AcDbLinetypeTableRecord
  2
BYBLOCK
 70
0
  3

 72
65
 73
0
 40
0.0
  0
LTYPE
  5
15
100
AcDbSymbolTableRecord
100
AcDbLinetypeTableRecord
  2
BYLAYER
 70
0
  3

 72
65
 73
0
 40
0.0
  0
LTYPE
  5
16
100
AcDbSymbolTableRecord
100
AcDbLinetypeTableRecord
  2
CONTINUOUS
 70
64
  3
Solid line
 72
65
 73
0
 40
0.0
  0
LTYPE
  5
1F5
100
AcDbSymbolTableRecord
100
AcDbLinetypeTableRecord
  2
CENTER
 70
64
  3
____ _ ____ _ ____ _ ____ _ ____ _ ____ _ ____
 72
65
 73
4
 40
0.6
 49
0.375
 74
0
 49
-0.075
 74
0
 49
0.075
 74
0
 49
-0.075
 74
0
  0
LTYPE
  5
1F6
100
AcDbSymbolTableRecord
100
AcDbLinetypeTableRecord
  2
HIDDEN
 70
64
  3
- - - - - - - - - - - - - - - - - - - -
 72
65
 73
2
 40
0.2
 49
0.1
 74
0
 49
-0.1
 74
0
  0
LTYPE
  5
1F7
100
AcDbSymbolTableRecord
100
AcDbLinetypeTableRecord
  2
PHANTOM
 70
64
  3
_____ _ _ _____ _ _ _____ _ _ _____
 72
65
 73
6
 40
0.8
 49
0.45
 74
0
 49
-0.05
 74
0
 49
0.1
 74
0
 49
-0.05
 74
0
 49
0.1
 74
0
 49
-0.05
 74
0
  0
LTYPE
  5
1F8
100
AcDbSymbolTableRecord
100
AcDbLinetypeTableRecord
  2
DOT
 70
64
  3
. . . . . . . . . . . . . . . . . . . .
 72
65
 73
2
 40
0.2
 49
0.1
 74
0
 49
-0.1
 74
0
  0
LTYPE
  5
1F9
100
AcDbSymbolTableRecord
100
AcDbLinetypeTableRecord
  2
DASHED
 70
64
  3
- - - - - - - - - - - - - - - - - - - -
 72
65
 73
2
 40
0.2
 49
0.1
 74
0
 49
-0.1
 74
0
  0
ENDTAB
  0
TABLE
  2
LAYER
  5
2
100
AcDbSymbolTable
 70
36
  0
LAYER
  5
10
100
AcDbSymbolTableRecord
100
AcDbLayerTableRecord
  2
0
 70
0
 62
7
  6
CONTINUOUS
370
-3
390
F
  0
LAYER
  5
1FA
100
AcDbSymbolTableRecord
100
AcDbLayerTableRecord
  2
DEFAULT_1
 70
0
 62
7
  6
CENTER
370
-3
390
F
  0
LAYER
  5
1FB
100
AcDbSymbolTableRecord
100
AcDbLayerTableRecord
  2
DEFAULT_2
 70
0
 62
7
  6
HIDDEN
370
-3
390
F
  0
LAYER
  5
1FC
100
AcDbSymbolTableRecord
100
AcDbLayerTableRecord
  2
DEFAULT_3
 70
0
 62
7
  6
PHANTOM
370
-3
390
F
  0
LAYER
  5
1FD
100
AcDbSymbolTableRecord
100
AcDbLayerTableRecord
  2
ASSI
 70
0
 62
7
  6
CONTINUOUS
370
-3
390
F
  0
LAYER
  5
1FE
100
AcDbSymbolTableRecord
100
AcDbLayerTableRecord
  2
COORDINATE
 70
0
 62
7
  6
CONTINUOUS
370
-3
390
F
  0
LAYER
  5
1FF
100
AcDbSymbolTableRecord
100
AcDbLayerTableRecord
  2
COORD_ORIGINE
 70
0
 62
7
  6
CONTINUOUS
370
-3
390
F
  0
LAYER
  5
200
100
AcDbSymbolTableRecord
100
AcDbLayerTableRecord
  2
COPY_PUBLISH
 70
0
 62
7
  6
CONTINUOUS
370
-3
390
F
  0
LAYER
  5
201
100
AcDbSymbolTableRecord
100
AcDbLayerTableRecord
  2
COSMETIC
 70
0
 62
7
  6
CONTINUOUS
370
-3
390
F
  0
LAYER
  5
202
100
AcDbSymbolTableRecord
100
AcDbLayerTableRecord
  2
CURVE
 70
0
 62
7
  6
CONTINUOUS
370
-3
390
F
  0
LAYER
  5
203
100
AcDbSymbolTableRecord
100
AcDbLayerTableRecord
  2
DRAFT
 70
0
 62
7
  6
CONTINUOUS
370
-3
390
F
  0
LAYER
  5
204
100
AcDbSymbolTableRecord
100
AcDbLayerTableRecord
  2
IMPORT_IGES
 70
0
 62
7
  6
CONTINUOUS
370
-3
390
F
  0
LAYER
  5
205
100
AcDbSymbolTableRecord
100
AcDbLayerTableRecord
  2
INTFCLR_2
 70
0
 62
7
  6
CONTINUOUS
370
-3
390
F
  0
LAYER
  5
206
100
AcDbSymbolTableRecord
100
AcDbLayerTableRecord
  2
PIANI
 70
0
 62
7
  6
CONTINUOUS
370
-3
390
F
  0
LAYER
  5
207
100
AcDbSymbolTableRecord
100
AcDbLayerTableRecord
  2
PIANI_ORIGINE
 70
0
 62
7
  6
CONTINUOUS
370
-3
390
F
  0
LAYER
  5
208
100
AcDbSymbolTableRecord
100
AcDbLayerTableRecord
  2
PIANI_RIFERIMENTO
 70
0
 62
7
  6
CONTINUOUS
370
-3
390
F
  0
LAYER
  5
209
100
AcDbSymbolTableRecord
100
AcDbLayerTableRecord
  2
PUNTI
 70
0
 62
7
  6
CONTINUOUS
370
-3
390
F
  0
LAYER
  5
20A
100
AcDbSymbolTableRecord
100
AcDbLayerTableRecord
  2
RACCORDO
 70
0
 62
7
  6
CONTINUOUS
370
-3
390
F
  0
LAYER
  5
20B
100
AcDbSymbolTableRecord
100
AcDbLayerTableRecord
  2
SMUSSO
 70
0
 62
7
  6
CONTINUOUS
370
-3
390
F
  0
LAYER
  5
20C
100
AcDbSymbolTableRecord
100
AcDbLayerTableRecord
  2
SNAPLINE
 70
0
 62
7
  6
CONTINUOUS
370
-3
390
F
  0
LAYER
  5
20D
100
AcDbSymbolTableRecord
100
AcDbLayerTableRecord
  2
SUPERFICI
 70
0
 62
7
  6
CONTINUOUS
370
-3
390
F
  0
LAYER
  5
20E
100
AcDbSymbolTableRecord
100
AcDbLayerTableRecord
  2
TRASH
 70
0
 62
7
  6
CONTINUOUS
370
-3
390
F
  0
LAYER
  5
20F
100
AcDbSymbolTableRecord
100
AcDbLayerTableRecord
  2
XSEC_DATUMS
 70
0
 62
7
  6
CONTINUOUS
370
-3
390
F
  0
ENDTAB
  0
TABLE
  2
STYLE
  5
3
100
AcDbSymbolTable
 70
1
  0
STYLE
  5
11
100
AcDbSymbolTableRecord
100
AcDbTextStyleTableRecord
  2
STANDARD
 70
0
 40
0.0
 41
0.8
 50
0.0
 71
0
 42
0.2
  3
txt
  4

  0
STYLE
  5
210
100
AcDbSymbolTableRecord
100
AcDbTextStyleTableRecord
  2
TEXTSTYLE_1
 70
0
 40
0.0
 41
0.8
 50
0.0
 71
0
 42
0.2
  3
gdt
  4

  0
ENDTAB
  0
TABLE
  2
VIEW
  5
6
100
AcDbSymbolTable
 70
0
  0
ENDTAB
  0
TABLE
  2
UCS
  5
7
100
AcDbSymbolTable
 70
0
  0
ENDTAB
  0
TABLE
  2
APPID
  5
9
100
AcDbSymbolTable
 70
1
  0
APPID
  5
211
100
AcDbSymbolTableRecord
100
AcDbRegAppTableRecord
  2
ACAD
 70
0
  0
ENDTAB
  0
TABLE
  2
BLOCK_RECORD
  5
1
100
AcDbSymbolTable
 70
0
  0
BLOCK_RECORD
  5
212
100
AcDbSymbolTableRecord
100
AcDbBlockTableRecord
  2
*Model_Space
  0
BLOCK_RECORD
  5
213
100
AcDbSymbolTableRecord
100
AcDbBlockTableRecord
  2
*Paper_Space
  0
ENDTAB
  0
TABLE
  2
DIMSTYLE
  5
A
100
AcDbSymbolTable
 70
1
100
AcDbDimStyleTable
 71
0
  0
DIMSTYLE
105
214
100
AcDbSymbolTableRecord
100
AcDbDimStyleTableRecord
  2
STANDARD
 70
0
  3

  4

 40
1.0
 41
3.0
 42
0.0625
 43
0.38
 44
0.18
 45
0.0
 46
0.0
 47
0.01
 48
0.01
140
3.0
141
0.09
142
0.0
143
25.4
144
1.0
145
0.0
146
1.0
147
0.09
 71
1.0
 72
0.0
 73
0
 74
0
 75
0
 76
0
 77
1
 78
8
170
0
171
2
172
0
173
0
174
0
175
0
176
0
177
0
178
0
270
2
271
2
272
2
273
2
274
2
275
0
280
0
281
0
282
0
283
1
284
8
285
0
286
0
287
3
288
0
340
11
  0
ENDTAB
  0
ENDSEC
  0
SECTION
  2
BLOCKS
  0
BLOCK
  5
20
100
AcDbEntity
  8
0
100
AcDbBlockBegin
  2
*Model_Space
 70
0
 10
0.0
 20
0.0
 30
0.0
  3
*Model_Space
  1

  0
ENDBLK
  5
21
100
AcDbEntity
  8
0
100
AcDbBlockEnd
  0
BLOCK
  5
1C
100
AcDbEntity
  8
0
100
AcDbBlockBegin
  2
*Paper_Space
 70
0
 10
0.0
 20
0.0
 30
0.0
  3
*Paper_Space
  1

  0
ENDBLK
  5
1D
100
AcDbEntity
  8
0
100
AcDbBlockEnd
  0
ENDSEC
  0
SECTION
  2
ENTITIES
  0
LINE
  5
215
100
AcDbEntity
  8
DRAFT
100
AcDbLine
 62
7
  6
CONTINUOUS
 10
-33.2369996044
 20
57.7088952346
 11
-31.5647560785
 21
58.5916885467
  0
LINE
  5
216
100
AcDbEntity
  8
DRAFT
100
AcDbLine
 62
7
  6
CONTINUOUS
 10
-32.5741099819
 20
57.672997082
 11
-30.882888669
 21
58.5547626705
  0
LINE
  5
217
100
AcDbEntity
  8
RACCORDO
100
AcDbLine
 62
7
  6
CONTINUOUS
 10
-35.2378589745
 20
57.0614961019
 11
-34.1231740495
 21
57.6188385644
  0
LINE
  5
218
100
AcDbEntity
  8
SMUSSO
100
AcDbLine
 62
7
  6
CONTINUOUS
 10
-34.7366206258
 20
57.0601066913
 11
-33.675960454
 21
57.5904367772
  0
LINE
  5
219
100
AcDbEntity
  8
DRAFT
100
AcDbLine
 62
7
  6
CONTINUOUS
 10
-32.8588552348
 20
57.1818841675
 11
-32.5741099819
 21
57.672997082
  0
LINE
  5
21A
100
AcDbEntity
  8
DRAFT
100
AcDbLine
 62
7
  6
CONTINUOUS
 10
33.07491969
 20
-56.6725787104
 11
33.7229857155
 21
-56.6725787064
  0
LWPOLYLINE
  5
21B
100
AcDbEntity
  8
RACCORDO
100
AcDbPolyline
 62
7
  6
CONTINUOUS
 90
13
 70
0
 10
-21.5578165171
 20
30.0497377032
 10
-21.5810938279
 20
30.036258716
 10
-21.6188859032
 20
30.0100976094
 10
-21.6540676643
 20
29.9800622895
 10
-21.6863032561
 20
29.9463974848
 10
-21.7152933896
 20
29.9094013166
 10
-21.7410556075
 20
29.8689846761
 10
-21.7633435876
 20
29.8253209311
 10
-21.7818806666
 20
29.778686748
 10
-21.7965714211
 20
29.7289275214
 10
-21.8071912043
 20
29.6760301121
 10
-21.8134269973
 20
29.6202549508
 10
-21.815094656
 20
29.5716141814
  0
LINE
  5
21C
100
AcDbEntity
  8
RACCORDO
100
AcDbLine
 62
7
  6
CONTINUOUS
 10
-21.5578573794
 20
30.0497173341
 11
-21.274815721
 21
30.2024248284
  0
LINE
  5
21D
100
AcDbEntity
  8
RACCORDO
100
AcDbLine
 62
7
  6
CONTINUOUS
 10
-21.2360072877
 20
30.0344482894
 11
-20.954464021
 21
30.1863473408
  0
LINE
  5
21E
100
AcDbEntity
  8
SMUSSO
100
AcDbLine
 62
7
  6
CONTINUOUS
 10
-34.7366206258
 20
-25.5587168298
 11
31.307152737
 21
-58.5806035112
  0
LINE
  5
21F
100
AcDbEntity
  8
SMUSSO
100
AcDbLine
 62
7
  6
CONTINUOUS
 10
-35.443727407
 20
56.5476346781
 11
-35.443727407
 21
-24.3391380354
  0
LINE
  5
220
100
AcDbEntity
  8
SMUSSO
100
AcDbLine
 62
7
  6
CONTINUOUS
 10
-32.6153002822
 20
49.3890805344
 11
-32.6153002822
 21
-22.8374381412
  0
LINE
  5
221
100
AcDbEntity
  8
SMUSSO
100
AcDbLine
 62
7
  6
CONTINUOUS
 10
-32.6153002822
 20
-22.8374381412
 11
26.3574052687
 21
-52.3237909167
  0
LWPOLYLINE
  5
222
100
AcDbEntity
  8
RACCORDO
100
AcDbPolyline
 62
7
  6
CONTINUOUS
 90
12
 70
0
 10
-21.8136320788
 20
-14.7322887022
 10
-21.8076160548
 20
-14.7918746708
 10
-21.7970970252
 20
-14.8514846449
 10
-21.78225466
 20
-14.9107915986
 10
-21.7633626534
 20
-14.9691073684
 10
-21.740666713
 20
-15.0260788212
 10
-21.71427061
 20
-15.0815845898
 10
-21.6843686664
 20
-15.1352248783
 10
-21.6510193894
 20
-15.186836758
 10
-21.614349623
 20
-15.2360310775
 10
-21.5747266722
 20
-15.2821897759
 10
-21.5319430557
 20
-15.3253168586
  0
LINE
  5
223
100
AcDbEntity
  8
RACCORDO
100
AcDbLine
 62
7
  6
CONTINUOUS
 10
-21.8150949497
 20
-14.6856602896
 11
-21.8136320788
 21
-14.7322887022
  0
LWPOLYLINE
  5
224
100
AcDbEntity
  8
RACCORDO
100
AcDbPolyline
 62
7
  6
CONTINUOUS
 90
9
 70
0
 10
-16.7075092837
 20
15.5414762427
 10
-16.684058727
 20
15.575120867
 10
-16.6633083975
 20
15.610184841
 10
-16.6455465456
 20
15.6464176388
 10
-16.6309486479
 20
15.6836989135
 10
-16.6196401486
 20
15.7218990525
 10
-16.611825346
 20
15.7605055695
 10
-16.607583407
 20
15.7990532153
 10
-16.6067095226
 20
15.8262166228
  0
LWPOLYLINE
  5
225
100
AcDbEntity
  8
RACCORDO
100
AcDbPolyline
 62
7
  6
CONTINUOUS
 90
3
 70
0
 10
-16.7381740409
 20
15.5039540065
 10
-16.7335295959
 20
15.5092608856
 10
-16.7075092837
 20
15.5414762427
  0
LINE
  5
226
100
AcDbEntity
  8
RACCORDO
100
AcDbLine
 62
7
  6
CONTINUOUS
 10
-16.7381740409
 20
15.5039540065
 11
-16.7382023816
 21
15.5039219788
  0
LINE
  5
227
100
AcDbEntity
  8
DRAFT
100
AcDbLine
 62
7
  6
CONTINUOUS
 10
-17.064209105
 20
19.5648005927
 11
-17.6002482131
 21
19.2671347217
  0
LINE
  5
228
100
AcDbEntity
  8
RACCORDO
100
AcDbLine
 62
7
  6
CONTINUOUS
 10
-16.6067028861
 20
16.6150515982
 11
-15.2780889323
 21
17.3318693069
  0
LINE
  5
229
100
AcDbEntity
  8
RACCORDO
100
AcDbLine
 62
7
  6
CONTINUOUS
 10
-16.6067028861
 20
16.5348856572
 11
-15.3269921282
 21
17.2253189697
  0
LINE
  5
22A
100
AcDbEntity
  8
RACCORDO
100
AcDbLine
 62
7
  6
CONTINUOUS
 10
-16.3530785744
 20
20.73276956
 11
-15.4194887493
 21
21.1958369957
  0
LINE
  5
22B
100
AcDbEntity
  8
RACCORDO
100
AcDbLine
 62
7
  6
CONTINUOUS
 10
-16.3530785744
 20
20.4187555989
 11
-15.2780889323
 21
20.9519583864
  0
LINE
  5
22C
100
AcDbEntity
  8
RACCORDO
100
AcDbLine
 62
7
  6
CONTINUOUS
 10
-16.3530785744
 20
20.3573007416
 11
-17.2883627632
 21
19.9057040204
  0
LINE
  5
22D
100
AcDbEntity
  8
RACCORDO
100
AcDbLine
 62
7
  6
CONTINUOUS
 10
-16.4324608691
 20
20.1943556491
 11
-17.3677450578
 21
19.742758928
  0
LINE
  5
22E
100
AcDbEntity
  8
RACCORDO
100
AcDbLine
 62
7
  6
CONTINUOUS
 10
-15.8806632391
 20
21.3904210393
 11
-16.3530785744
 21
21.1722439822
  0
LINE
  5
22F
100
AcDbEntity
  8
RACCORDO
100
AcDbLine
 62
7
  6
CONTINUOUS
 10
-15.7943393541
 20
21.3832622981
 11
-16.3530785744
 21
21.1252180101
  0
LWPOLYLINE
  5
230
100
AcDbEntity
  8
RACCORDO
100
AcDbPolyline
 62
7
  6
CONTINUOUS
 90
11
 70
0
 10
14.2747050427
 20
-33.262472645
 10
14.3089010627
 20
-33.2782664157
 10
14.3590027232
 20
-33.2968801326
 10
14.4096386899
 20
-33.3103923947
 10
14.46046919
 20
-33.3187226242
 10
14.5109002637
 20
-33.3218183468
 10
14.5604680858
 20
-33.3197315826
 10
14.6087780751
 20
-33.3125921819
 10
14.6552022048
 20
-33.3006551599
 10
14.6992515161
 20
-33.2842639213
 10
14.7099481687
 20
-33.2794682919
  0
LINE
  5
231
100
AcDbEntity
  8
RACCORDO
100
AcDbLine
 62
7
  6
CONTINUOUS
 10
-21.3664691488
 20
-15.4418977451
 11
14.2745605556
 21
-33.2624125973
  0
LINE
  5
232
100
AcDbEntity
  8
RACCORDO
100
AcDbLine
 62
7
  6
CONTINUOUS
 10
-21.4444371076
 20
-15.2796356034
 11
14.1965926004
 21
-33.1001504574
  0
LINE
  5
233
100
AcDbEntity
  8
0
100
AcDbLine
 62
7
  6
CONTINUOUS
 10
-6.2025476444
 20
-22.8802464423
 11
-5.9294163365
 21
-23.0168120963
  0
LINE
  5
234
100
AcDbEntity
  8
0
100
AcDbLine
 62
7
  6
CONTINUOUS
 10
-5.3371246047
 20
-23.3129579622
 11
-5.0271883888
 21
-23.4679260701
  0
LINE
  5
235
100
AcDbEntity
  8
0
100
AcDbLine
 62
7
  6
CONTINUOUS
 10
-4.8603401798
 20
-23.5513501746
 11
-4.5638326288
 21
-23.6996039501
  0
LINE
  5
236
100
AcDbEntity
  8
0
100
AcDbLine
 62
7
  6
CONTINUOUS
 10
-4.1333559199
 20
-23.9148423046
 11
-4.0898879447
 21
-23.9365762922
  0
LINE
  5
237
100
AcDbEntity
  8
0
100
AcDbLine
 62
7
  6
CONTINUOUS
 10
-3.6576965019
 20
-24.1526720136
 11
-3.3544968923
 21
-24.3042718184
  0
LINE
  5
238
100
AcDbEntity
  8
0
100
AcDbLine
 62
7
  6
CONTINUOUS
 10
-3.3058288539
 20
-24.3286058376
 11
-2.9992556378
 21
-24.4818924456
  0
LINE
  5
239
100
AcDbEntity
  8
0
100
AcDbLine
 62
7
  6
CONTINUOUS
 10
-2.4113614031
 20
-24.775839563
 11
-2.0847021118
 21
-24.9391692086
  0
LINE
  5
23A
100
AcDbEntity
  8
0
100
AcDbLine
 62
7
  6
CONTINUOUS
 10
-1.9936897785
 20
-24.9846757197
 11
-1.6850009814
 21
-25.1390201183
  0
LINE
  5
23B
100
AcDbEntity
  8
0
100
AcDbLine
 62
7
  6
CONTINUOUS
 10
-1.2103769244
 20
-25.3763321468
 11
-0.912254628
 21
-25.525393295
  0
LINE
  5
23C
100
AcDbEntity
  8
0
100
AcDbLine
 62
7
  6
CONTINUOUS
 10
-2.9137324868
 20
-24.1616170379
 11
-2.4916512568
 21
-24.3726576529
  0
LINE
  5
23D
100
AcDbEntity
  8
0
100
AcDbLine
 62
7
  6
CONTINUOUS
 10
-2.5535916895
 20
-24.0607704462
 11
-2.8503332928
 21
-23.9123996445
  0
LINE
  5
23E
100
AcDbEntity
  8
0
100
AcDbLine
 62
7
  6
CONTINUOUS
 10
-1.6850009814
 20
-24.4273594899
 11
-1.5188207658
 21
-24.5104495977
  0
LINE
  5
23F
100
AcDbEntity
  8
IMPORT_IGES
100
AcDbLine
 62
7
  6
CONTINUOUS
 10
-2.7089119366
 20
-23.8416889664
 11
-2.5834363192
 21
-23.9044267751
  0
LINE
  5
240
100
AcDbEntity
  8
0
100
AcDbLine
 62
7
  6
CONTINUOUS
 10
-2.5834363192
 20
-23.9044267751
 11
-2.7089119366
 21
-23.8416889664
  0
LINE
  5
241
100
AcDbEntity
  8
0
100
AcDbLine
 62
7
  6
CONTINUOUS
 10
-1.5181527046
 20
-24.2129571941
 11
-1.695277989
 21
-24.1243945519
  0
LWPOLYLINE
  5
242
100
AcDbEntity
  8
RACCORDO
100
AcDbPolyline
 62
7
  6
CONTINUOUS
 90
5
 70
0
 10
-21.5319430557
 20
-15.3253168586
 10
-21.4862910125
 20
-15.3648085032
 10
-21.439036488
 20
-15.3994908388
 10
-21.3907826337
 20
-15.4290585021
 10
-21.3664672018
 20
-15.4418860893
  0
LINE
  5
243
100
AcDbEntity
  8
RACCORDO
100
AcDbLine
 62
7
  6
CONTINUOUS
 10
-21.8151047074
 20
29.5715737574
 11
-21.8151047074
 21
-14.6858123672
  0
LINE
  5
244
100
AcDbEntity
  8
RACCORDO
100
AcDbLine
 62
7
  6
CONTINUOUS
 10
-21.7272367417
 20
29.4655077438
 11
-21.7272367417
 21
-14.7946748942
  0
LINE
  5
245
100
AcDbEntity
  8
RACCORDO
100
AcDbLine
 62
7
  6
CONTINUOUS
 10
-20.0298501656
 20
-13.2817028168
 11
-20.0298501656
 21
26.2579455998
  0
LINE
  5
246
100
AcDbEntity
  8
RACCORDO
100
AcDbLine
 62
7
  6
CONTINUOUS
 10
-19.6456452004
 20
-13.2985098893
 11
-19.6456452004
 21
26.2411390826
  0
LINE
  5
247
100
AcDbEntity
  8
RACCORDO
100
AcDbLine
 62
7
  6
CONTINUOUS
 10
-18.4700436515
 20
25.8748860499
 11
-18.4700436515
 21
-12.4289141814
  0
LINE
  5
248
100
AcDbEntity
  8
RACCORDO
100
AcDbLine
 62
7
  6
CONTINUOUS
 10
-18.4095026844
 20
25.8446155664
 11
-18.4095026844
 21
-12.4039611204
  0
LINE
  5
249
100
AcDbEntity
  8
RACCORDO
100
AcDbLine
 62
7
  6
CONTINUOUS
 10
-18.0780846315
 20
-12.2369742665
 11
-18.0780846315
 21
25.6789065399
  0
LINE
  5
24A
100
AcDbEntity
  8
RACCORDO
100
AcDbLine
 62
7
  6
CONTINUOUS
 10
-16.4932333624
 20
14.1761033661
 11
-17.064209105
 21
13.8884140202
  0
LINE
  5
24B
100
AcDbEntity
  8
RACCORDO
100
AcDbLine
 62
7
  6
CONTINUOUS
 10
-16.2811336368
 20
13.8102854521
 11
-16.8566931376
 21
13.5202865538
  0
LINE
  5
24C
100
AcDbEntity
  8
0
100
AcDbLine
 62
7
  6
CONTINUOUS
 10
-1.3767313484
 20
-24.1422465159
 11
-1.5538566328
 21
-24.0536838737
  0
LINE
  5
24D
100
AcDbEntity
  8
IMPORT_IGES
100
AcDbLine
 62
7
  6
CONTINUOUS
 10
-1.3767313484
 20
-24.1422465159
 11
-1.5538566328
 21
-24.0536838737
  0
LINE
  5
24E
100
AcDbEntity
  8
0
100
AcDbLine
 62
7
  6
CONTINUOUS
 10
-2.5402754546
 20
-22.8928824758
 11
-2.8401007506
 21
-22.7429698278
  0
LINE
  5
24F
100
AcDbEntity
  8
0
100
AcDbLine
 62
7
  6
CONTINUOUS
 10
-3.4933422585
 20
-22.4163490738
 11
-3.7999932563
 21
-22.2630235749
  0
LINE
  5
250
100
AcDbEntity
  8
0
100
AcDbLine
 62
7
  6
CONTINUOUS
 10
-4.4165917837
 20
-21.9547243112
 11
-4.7262713199
 21
-21.7998845431
  0
LINE
  5
251
100
AcDbEntity
  8
0
100
AcDbLine
 62
7
  6
CONTINUOUS
 10
-5.4521418866
 20
-21.4369492598
 11
-5.7618666776
 21
-21.2820868643
  0
LINE
  5
252
100
AcDbEntity
  8
0
100
AcDbLine
 62
7
  6
CONTINUOUS
 10
-6.3365719566
 20
-20.9947342248
 11
-6.6732580221
 21
-20.826391192
  0
LINE
  5
253
100
AcDbEntity
  8
0
100
AcDbLine
 62
7
  6
CONTINUOUS
 10
-5.0271883888
 20
-21.6493168895
 11
-5.3371246047
 21
-21.4943487815
  0
LINE
  5
254
100
AcDbEntity
  8
IMPORT_IGES
100
AcDbLine
 62
7
  6
CONTINUOUS
 10
-6.5318366658
 20
-20.7556805139
 11
-6.1951506004
 21
-20.9240235466
  0
LINE
  5
255
100
AcDbEntity
  8
IMPORT_IGES
100
AcDbLine
 62
7
  6
CONTINUOUS
 10
-5.6204453213
 20
-21.2113761862
 11
-5.3107205304
 21
-21.3662385816
  0
LINE
  5
256
100
AcDbEntity
  8
IMPORT_IGES
100
AcDbLine
 62
7
  6
CONTINUOUS
 10
-4.5848499636
 20
-21.729173865
 11
-4.2751704275
 21
-21.8840136331
  0
LINE
  5
257
100
AcDbEntity
  8
IMPORT_IGES
100
AcDbLine
 62
7
  6
CONTINUOUS
 10
-3.6585719001
 20
-22.1923128968
 11
-3.3519209023
 21
-22.3456383957
  0
LINE
  5
258
100
AcDbEntity
  8
IMPORT_IGES
100
AcDbLine
 62
7
  6
CONTINUOUS
 10
-2.6986793944
 20
-22.6722591496
 11
-2.3988540983
 21
-22.8221717977
  0
LINE
  5
259
100
AcDbEntity
  8
0
100
AcDbLine
 62
7
  6
CONTINUOUS
 10
-2.3988540983
 20
-22.8221717977
 11
-2.6986793944
 21
-22.6722591496
  0
LINE
  5
25A
100
AcDbEntity
  8
0
100
AcDbLine
 62
7
  6
CONTINUOUS
 10
-3.3519209023
 20
-22.3456383957
 11
-3.6585719001
 21
-22.1923128968
  0
LINE
  5
25B
100
AcDbEntity
  8
0
100
AcDbLine
 62
7
  6
CONTINUOUS
 10
-4.2751704275
 20
-21.8840136331
 11
-4.5848499636
 21
-21.729173865
  0
LINE
  5
25C
100
AcDbEntity
  8
0
100
AcDbLine
 62
7
  6
CONTINUOUS
 10
-5.3107205304
 20
-21.3662385816
 11
-5.6204453213
 21
-21.2113761862
  0
LINE
  5
25D
100
AcDbEntity
  8
0
100
AcDbLine
 62
7
  6
CONTINUOUS
 10
-6.1951506004
 20
-20.9240235466
 11
-6.5318366658
 21
-20.7556805139
  0
LINE
  5
25E
100
AcDbEntity
  8
0
100
AcDbLine
 62
7
  6
CONTINUOUS
 10
-4.8857670325
 20
-21.5786062114
 11
-5.1957032484
 21
-21.4236381034
  0
LINE
  5
25F
100
AcDbEntity
  8
IMPORT_IGES
100
AcDbLine
 62
7
  6
CONTINUOUS
 10
-4.8857670325
 20
-21.5786062114
 11
-5.1957032484
 21
-21.4236381034
  0
LINE
  5
260
100
AcDbEntity
  8
RACCORDO
100
AcDbLine
 62
7
  6
CONTINUOUS
 10
12.3767828867
 20
-30.0051412125
 11
-19.6246273939
 21
-14.0044360722
  0
LINE
  5
261
100
AcDbEntity
  8
RACCORDO
100
AcDbLine
 62
7
  6
CONTINUOUS
 10
12.5163524051
 20
-29.6912080617
 11
-19.4850637096
 21
-13.6905000044
  0
LINE
  5
262
100
AcDbEntity
  8
RACCORDO
100
AcDbLine
 62
7
  6
CONTINUOUS
 10
-18.2802735182
 20
-12.837139302
 11
12.6941376928
 21
-28.3243449075
  0
LINE
  5
263
100
AcDbEntity
  8
RACCORDO
100
AcDbLine
 62
7
  6
CONTINUOUS
 10
-18.1655214943
 20
-12.7537153788
 11
12.6941376928
 21
-28.1835449724
  0
LINE
  5
264
100
AcDbEntity
  8
RACCORDO
100
AcDbLine
 62
7
  6
CONTINUOUS
 10
12.6941376928
 20
-27.8828534799
 11
-17.8659849058
 21
-12.6027921805
  0
LINE
  5
265
100
AcDbEntity
  8
RACCORDO
100
AcDbLine
 62
7
  6
CONTINUOUS
 10
-16.8523677903
 20
-12.1141857521
 11
12.6941376928
 21
-26.8874384937
  0
LINE
  5
266
100
AcDbEntity
  8
ASSI
100
AcDbLine
 62
7
  6
CONTINUOUS
 10
9.51788201
 20
-25.2067102881
 11
7.1594561595
 21
-24.0274973629
  0
LINE
  5
267
100
AcDbEntity
  8
ASSI
100
AcDbLine
 62
7
  6
CONTINUOUS
 10
-6.3920205667
 20
-17.2517589998
 11
-8.7504464172
 21
-16.0725460746
  0
LINE
  5
268
100
AcDbEntity
  8
RACCORDO
100
AcDbLine
 62
7
  6
CONTINUOUS
 10
12.6941376928
 20
-26.7163153027
 11
9.6696852327
 21
-25.2040890726
  0
LINE
  5
269
100
AcDbEntity
  8
RACCORDO
100
AcDbLine
 62
7
  6
CONTINUOUS
 10
4.6492270863
 20
-22.6938599994
 11
-6.240217344
 21
-17.2491377842
  0
LINE
  5
26A
100
AcDbEntity
  8
RACCORDO
100
AcDbLine
 62
7
  6
CONTINUOUS
 10
-11.2606754904
 20
-14.738908711
 11
-16.8566931376
 21
-11.9408998874
  0
LINE
  5
26B
100
AcDbEntity
  8
ASSI
100
AcDbLine
 62
7
  6
CONTINUOUS
 10
9.6544300941
 20
-25.1335629739
 11
7.3008775158
 21
-23.9567866848
  0
LINE
  5
26C
100
AcDbEntity
  8
ASSI
100
AcDbLine
 62
7
  6
CONTINUOUS
 10
-6.2554724826
 20
-17.1786116856
 11
-8.6090250609
 21
-16.0018353964
  0
LINE
  5
26D
100
AcDbEntity
  8
ASSI
100
AcDbLine
 62
7
  6
CONTINUOUS
 10
9.8621220887
 20
-25.0252769369
 11
7.5130095501
 21
-23.8507206676
  0
LINE
  5
26E
100
AcDbEntity
  8
ASSI
100
AcDbLine
 62
7
  6
CONTINUOUS
 10
-6.047780488
 20
-17.0703256485
 11
-8.3968930266
 21
-15.8957693793
  0
LINE
  5
26F
100
AcDbEntity
  8
ASSI
100
AcDbLine
 62
7
  6
CONTINUOUS
 10
10.0005834185
 20
-24.9530862455
 11
7.6544309063
 21
-23.7800099895
  0
LINE
  5
270
100
AcDbEntity
  8
ASSI
100
AcDbLine
 62
7
  6
CONTINUOUS
 10
-5.9093191582
 20
-16.9981349572
 11
-8.2554716704
 21
-15.8250587011
  0
LINE
  5
271
100
AcDbEntity
  8
RACCORDO
100
AcDbLine
 62
7
  6
CONTINUOUS
 10
12.6941376928
 20
-26.138536654
 11
10.2353706577
 21
-24.9091531364
  0
LINE
  5
272
100
AcDbEntity
  8
RACCORDO
100
AcDbLine
 62
7
  6
CONTINUOUS
 10
5.2149125113
 20
-22.3989240632
 11
-5.674531919
 21
-16.9542018481
  0
LINE
  5
273
100
AcDbEntity
  8
RACCORDO
100
AcDbLine
 62
7
  6
CONTINUOUS
 10
-10.6949900654
 20
-14.4439727748
 11
-16.2811013281
 21
-11.6509171435
  0
LWPOLYLINE
  5
274
100
AcDbEntity
  8
RACCORDO
100
AcDbPolyline
 62
7
  6
CONTINUOUS
 90
18
 70
0
 10
-15.57522628
 20
-11.7184839075
 10
-15.5758144988
 20
-11.6996068933
 10
-15.5774839165
 20
-11.6815811535
 10
-15.5802871909
 20
-11.6633794988
 10
-15.5842713592
 20
-11.6450773722
 10
-15.5894801103
 20
-11.6267533707
 10
-15.5959475491
 20
-11.6085063205
 10
-15.6037076286
 20
-11.5904222842
 10
-15.612801163
 20
-11.5725734512
 10
-15.6232506671
 20
-11.5550706543
 10
-15.6350695669
 20
-11.5380308292
 10
-15.6482829896
 20
-11.521551062
 10
-15.6628889481
 20
-11.5057627544
 10
-15.6788725123
 20
-11.490802539
 10
-15.6962308961
 20
-11.4767912892
 10
-15.7149323722
 20
-11.4638726638
 10
-15.7349161726
 20
-11.4522015763
 10
-15.7420645384
 20
-11.4485071658
  0
LINE
  5
275
100
AcDbEntity
  8
DRAFT
100
AcDbLine
 62
7
  6
CONTINUOUS
 10
-17.6002482131
 20
-11.0437544107
 11
-17.6002482131
 21
-4.5485638823
  0
LINE
  5
276
100
AcDbEntity
  8
DRAFT
100
AcDbLine
 62
7
  6
CONTINUOUS
 10
-17.6002482131
 20
19.2671347217
 11
-17.6002482131
 21
25.4399883307
  0
LINE
  5
277
100
AcDbEntity
  8
DRAFT
100
AcDbLine
 62
7
  6
CONTINUOUS
 10
-17.3417938086
 20
19.755289343
 11
-17.3417938086
 21
19.7035929444
  0
LINE
  5
278
100
AcDbEntity
  8
RACCORDO
100
AcDbLine
 62
7
  6
CONTINUOUS
 10
-17.2883627632
 20
25.2840456058
 11
-17.2883627632
 21
19.9057040204
  0
LINE
  5
279
100
AcDbEntity
  8
RACCORDO
100
AcDbLine
 62
7
  6
CONTINUOUS
 10
-17.2883627632
 20
-4.8626225278
 11
-17.2883627632
 21
-10.4051851121
  0
LINE
  5
27A
100
AcDbEntity
  8
DRAFT
100
AcDbLine
 62
7
  6
CONTINUOUS
 10
-17.064209105
 20
19.5648005927
 11
-17.064209105
 21
-4.2508980114
  0
LINE
  5
27B
100
AcDbEntity
  8
RACCORDO
100
AcDbLine
 62
7
  6
CONTINUOUS
 10
-17.064209105
 20
-10.7460885398
 11
-17.064209105
 21
-11.7488135309
  0
LINE
  5
27C
100
AcDbEntity
  8
RACCORDO
100
AcDbLine
 62
7
  6
CONTINUOUS
 10
-16.9779038713
 20
14.4184386205
 11
-16.9779038713
 21
14.9043281932
  0
LINE
  5
27D
100
AcDbEntity
  8
DRAFT
100
AcDbLine
 62
7
  6
CONTINUOUS
 10
-16.9463631155
 20
-3.854575915
 11
-16.9463631155
 21
-3.2734593589
  0
LINE
  5
27E
100
AcDbEntity
  8
RACCORDO
100
AcDbLine
 62
7
  6
CONTINUOUS
 10
-16.8566931376
 20
-11.9408998874
 11
-16.8566931376
 21
-11.5823965022
  0
LINE
  5
27F
100
AcDbEntity
  8
RACCORDO
100
AcDbLine
 62
7
  6
CONTINUOUS
 10
-16.8566931376
 20
1.9396534506
 11
-16.8566931376
 21
13.5202865538
  0
LINE
  5
280
100
AcDbEntity
  8
RACCORDO
100
AcDbLine
 62
7
  6
CONTINUOUS
 10
-16.7470434581
 20
15.5985478943
 11
-16.7470333717
 21
20.0424660818
  0
LINE
  5
281
100
AcDbEntity
  8
RACCORDO
100
AcDbLine
 62
7
  6
CONTINUOUS
 10
-16.7470424718
 20
1.8639912974
 11
-16.7470329859
 21
-2.3042277593
  0
LINE
  5
282
100
AcDbEntity
  8
RACCORDO
100
AcDbLine
 62
7
  6
CONTINUOUS
 10
-16.7470329859
 20
-3.170253163
 11
-16.7470329859
 21
-3.9542409798
  0
LINE
  5
283
100
AcDbEntity
  8
RACCORDO
100
AcDbLine
 62
7
  6
CONTINUOUS
 10
-16.7470329859
 20
-10.811733532
 11
-16.7470329859
 21
-10.2684228643
  0
LINE
  5
284
100
AcDbEntity
  8
RACCORDO
100
AcDbLine
 62
7
  6
CONTINUOUS
 10
-16.6067028861
 20
20.1102238692
 11
-16.6067028861
 21
15.8261992447
  0
LINE
  5
285
100
AcDbEntity
  8
RACCORDO
100
AcDbLine
 62
7
  6
CONTINUOUS
 10
-16.6067028861
 20
1.9288047688
 11
-16.6067028861
 21
-2.1305631666
  0
LINE
  5
286
100
AcDbEntity
  8
RACCORDO
100
AcDbLine
 62
7
  6
CONTINUOUS
 10
-16.6067028861
 20
-2.9965885704
 11
-16.6067028861
 21
-3.8626139742
  0
LINE
  5
287
100
AcDbEntity
  8
RACCORDO
100
AcDbLine
 62
7
  6
CONTINUOUS
 10
-16.6067028861
 20
-10.8818985819
 11
-16.6067028861
 21
-10.2006652633
  0
LINE
  5
288
100
AcDbEntity
  8
RACCORDO
100
AcDbLine
 62
7
  6
CONTINUOUS
 10
-16.3530785744
 20
-9.9535883909
 11
-16.3530785744
 21
-4.4110258067
  0
LINE
  5
289
100
AcDbEntity
  8
RACCORDO
100
AcDbLine
 62
7
  6
CONTINUOUS
 10
-16.3530785744
 20
20.3573007416
 11
-16.3530785744
 21
24.8164035114
  0
LINE
  5
28A
100
AcDbEntity
  8
RACCORDO
100
AcDbLine
 62
7
  6
CONTINUOUS
 10
-16.2811336368
 20
-11.6509009892
 11
-16.2811336368
 21
-11.3044908276
  0
LINE
  5
28B
100
AcDbEntity
  8
RACCORDO
100
AcDbLine
 62
7
  6
CONTINUOUS
 10
-16.2811336368
 20
2.2054659014
 11
-16.2811336368
 21
13.8102854521
  0
LINE
  5
28C
100
AcDbEntity
  8
RACCORDO
100
AcDbLine
 62
7
  6
CONTINUOUS
 10
-15.7155568558
 20
-11.8414238575
 11
-15.7155568558
 21
-11.9336893797
  0
LINE
  5
28D
100
AcDbEntity
  8
RACCORDO
100
AcDbLine
 62
7
  6
CONTINUOUS
 10
-15.5752267559
 20
-11.7192392819
 11
-15.5752267559
 21
-12.0038544296
  0
LINE
  5
28E
100
AcDbEntity
  8
RACCORDO
100
AcDbLine
 62
7
  6
CONTINUOUS
 10
-15.2780889323
 20
20.9519583864
 11
-15.2780889323
 21
17.3318693069
  0
LINE
  5
28F
100
AcDbEntity
  8
RACCORDO
100
AcDbLine
 62
7
  6
CONTINUOUS
 10
-15.2780889323
 20
2.6355210963
 11
-15.2780889323
 21
-0.9845679832
  0
LINE
  5
290
100
AcDbEntity
  8
RACCORDO
100
AcDbLine
 62
7
  6
CONTINUOUS
 10
-15.2219569074
 20
21.0214629814
 11
-15.2219568923
 21
17.4013351439
  0
LINE
  5
291
100
AcDbEntity
  8
RACCORDO
100
AcDbLine
 62
7
  6
CONTINUOUS
 10
-15.2219569074
 20
2.7050256914
 11
-15.2219568923
 21
-0.9151021461
  0
LWPOLYLINE
  5
292
100
AcDbEntity
  8
RACCORDO
100
AcDbPolyline
 62
7
  6
CONTINUOUS
 90
18
 70
0
 10
-16.9779018067
 20
14.9043576324
 10
-16.9772832647
 20
14.9318605715
 10
-16.975019879
 20
14.9647706692
 10
-16.9709718765
 20
14.9995803612
 10
-16.9650720495
 20
15.0358540128
 10
-16.9572685918
 20
15.0733317414
 10
-16.9475285661
 20
15.1117647985
 10
-16.935900338
 20
15.1507100461
 10
-16.9224256604
 20
15.1898806268
 10
-16.9071624
 20
15.2290044542
 10
-16.8902568961
 20
15.2676619791
 10
-16.8718308607
 20
15.3055796557
 10
-16.8520179643
 20
15.3425054866
 10
-16.8310435151
 20
15.3780746143
 10
-16.8090822439
 20
15.4120740097
 10
-16.7863224007
 20
15.4443056838
 10
-16.7630613196
 20
15.4744683476
 10
-16.7381975882
 20
15.5039177305
  0
LINE
  5
293
100
AcDbEntity
  8
DRAFT
100
AcDbLine
 62
7
  6
CONTINUOUS
 10
-17.064209105
 20
-3.4933629691
 11
-16.9463631155
 21
-3.2734593589
  0
LINE
  5
294
100
AcDbEntity
  8
ASSI
100
AcDbLine
 62
7
  6
CONTINUOUS
 10
11.7556502372
 20
-25.6184876206
 11
7.8665629407
 21
-23.6739439723
  0
LINE
  5
295
100
AcDbEntity
  8
ASSI
100
AcDbLine
 62
7
  6
CONTINUOUS
 10
-4.1542523395
 20
-17.6635363322
 11
-8.043339636
 21
-15.718992684
  0
LINE
  5
296
100
AcDbEntity
  8
ASSI
100
AcDbLine
 62
7
  6
CONTINUOUS
 10
11.8970715935
 20
-25.5477769425
 11
8.0079842969
 21
-23.6032332942
  0
LINE
  5
297
100
AcDbEntity
  8
ASSI
100
AcDbLine
 62
7
  6
CONTINUOUS
 10
-4.0128309832
 20
-17.5928256541
 11
-7.9019182798
 21
-15.6482820058
  0
LINE
  5
298
100
AcDbEntity
  8
RACCORDO
100
AcDbLine
 62
7
  6
CONTINUOUS
 10
-16.2788842721
 20
-11.2999920982
 11
-15.9276565814
 21
-11.4756059435
  0
LINE
  5
299
100
AcDbEntity
  8
ASSI
100
AcDbLine
 62
7
  6
CONTINUOUS
 10
12.1092036278
 20
-25.4417109253
 11
8.2201163313
 21
-23.497167277
  0
LINE
  5
29A
100
AcDbEntity
  8
ASSI
100
AcDbLine
 62
7
  6
CONTINUOUS
 10
-3.8006989489
 20
-17.4867596369
 11
-7.6897862454
 21
-15.5422159887
  0
LINE
  5
29B
100
AcDbEntity
  8
RACCORDO
100
AcDbLine
 62
7
  6
CONTINUOUS
 10
-16.307699831
 20
-11.1656844338
 11
-15.742300133
 21
-11.4483842828
  0
LINE
  5
29C
100
AcDbEntity
  8
RACCORDO
100
AcDbLine
 62
7
  6
CONTINUOUS
 10
-17.5005271112
 20
-10.5589105592
 11
-17.6002482131
 21
-10.5090500082
  0
LINE
  5
29D
100
AcDbEntity
  8
DRAFT
100
AcDbLine
 62
7
  6
CONTINUOUS
 10
-17.4004610051
 20
-10.5779625898
 11
-17.064209105
 21
-10.7460885398
  0
LINE
  5
29E
100
AcDbEntity
  8
ASSI
100
AcDbLine
 62
7
  6
CONTINUOUS
 10
12.2506249841
 20
-25.3710002472
 11
8.3615376875
 21
-23.4264565989
  0
LINE
  5
29F
100
AcDbEntity
  8
ASSI
100
AcDbLine
 62
7
  6
CONTINUOUS
 10
-3.6592775926
 20
-17.4160489588
 11
-7.5483648892
 21
-15.4715053105
  0
LINE
  5
2A0
100
AcDbEntity
  8
RACCORDO
100
AcDbLine
 62
7
  6
CONTINUOUS
 10
-16.4932979848
 20
-10.9386010325
 11
-17.2998271765
 21
-10.5353364367
  0
LINE
  5
2A1
100
AcDbEntity
  8
ASSI
100
AcDbLine
 62
7
  6
CONTINUOUS
 10
12.4627570184
 20
-25.26493423
 11
8.5736697219
 21
-23.3203905817
  0
LINE
  5
2A2
100
AcDbEntity
  8
ASSI
100
AcDbLine
 62
7
  6
CONTINUOUS
 10
-3.4471455583
 20
-17.3099829416
 11
-7.3362328548
 21
-15.3654392934
  0
LINE
  5
2A3
100
AcDbEntity
  8
ASSI
100
AcDbLine
 62
7
  6
CONTINUOUS
 10
12.6041783747
 20
-25.1942235519
 11
8.7150910781
 21
-23.2496799036
  0
LINE
  5
2A4
100
AcDbEntity
  8
ASSI
100
AcDbLine
 62
7
  6
CONTINUOUS
 10
-3.305724202
 20
-17.2392722635
 11
-7.1948114986
 21
-15.2947286152
  0
LINE
  5
2A5
100
AcDbEntity
  8
ASSI
100
AcDbLine
 62
7
  6
CONTINUOUS
 10
12.6941376928
 20
-25.0270711766
 11
8.9272231125
 21
-23.1436138864
  0
LINE
  5
2A6
100
AcDbEntity
  8
ASSI
100
AcDbLine
 62
7
  6
CONTINUOUS
 10
-3.0935921677
 20
-17.1332062463
 11
-6.9826794642
 21
-15.1886625981
  0
LINE
  5
2A7
100
AcDbEntity
  8
ASSI
100
AcDbLine
 62
7
  6
CONTINUOUS
 10
12.6941376928
 20
-24.8856498204
 11
9.0686444687
 21
-23.0729032083
  0
LINE
  5
2A8
100
AcDbEntity
  8
ASSI
100
AcDbLine
 62
7
  6
CONTINUOUS
 10
-2.9521708115
 20
-17.0624955682
 11
-6.841258108
 21
-15.1179519199
  0
LINE
  5
2A9
100
AcDbEntity
  8
ASSI
100
AcDbLine
 62
7
  6
CONTINUOUS
 10
12.6941376928
 20
-24.673517786
 11
9.2807765031
 21
-22.9668371911
  0
LINE
  5
2AA
100
AcDbEntity
  8
ASSI
100
AcDbLine
 62
7
  6
CONTINUOUS
 10
-2.7400387771
 20
-16.956429551
 11
-6.6291260736
 21
-15.0118859028
  0
LINE
  5
2AB
100
AcDbEntity
  8
ASSI
100
AcDbLine
 62
7
  6
CONTINUOUS
 10
-6.5658269747
 20
-14.9259518894
 11
-6.5115425108
 21
-14.9530941213
  0
LINE
  5
2AC
100
AcDbEntity
  8
ASSI
100
AcDbLine
 62
7
  6
CONTINUOUS
 10
-2.4925514037
 20
-16.9625896749
 11
-2.3083631292
 21
-17.0546838122
  0
LINE
  5
2AD
100
AcDbEntity
  8
ASSI
100
AcDbLine
 62
7
  6
CONTINUOUS
 10
9.344075602
 20
-22.8809031777
 11
9.3983600659
 21
-22.9080454097
  0
LINE
  5
2AE
100
AcDbEntity
  8
ASSI
100
AcDbLine
 62
7
  6
CONTINUOUS
 10
12.6941376928
 20
-24.5320964298
 11
9.4221978593
 21
-22.896126513
  0
LINE
  5
2AF
100
AcDbEntity
  8
ASSI
100
AcDbLine
 62
7
  6
CONTINUOUS
 10
-2.5986174209
 20
-16.8857188729
 11
-6.4877047174
 21
-14.9411752247
  0
LINE
  5
2B0
100
AcDbEntity
  8
ASSI
100
AcDbLine
 62
7
  6
CONTINUOUS
 10
-6.4440244524
 20
-14.9364514335
 11
-2.2512802132
 21
-17.0328235531
  0
LINE
  5
2B1
100
AcDbEntity
  8
ASSI
100
AcDbLine
 62
7
  6
CONTINUOUS
 10
9.4658781242
 20
-22.8914027219
 11
12.6941376928
 21
-24.5055325062
  0
LINE
  5
2B2
100
AcDbEntity
  8
ASSI
100
AcDbLine
 62
7
  6
CONTINUOUS
 10
-4.0128309832
 20
-17.5928256541
 11
-3.9067649661
 21
-17.6696964561
  0
LINE
  5
2B3
100
AcDbEntity
  8
ASSI
100
AcDbLine
 62
7
  6
CONTINUOUS
 10
-3.6592775926
 20
-17.4160489588
 11
-3.5532115755
 21
-17.4929197608
  0
LINE
  5
2B4
100
AcDbEntity
  8
ASSI
100
AcDbLine
 62
7
  6
CONTINUOUS
 10
-3.305724202
 20
-17.2392722635
 11
-3.1996581849
 21
-17.3161430655
  0
LINE
  5
2B5
100
AcDbEntity
  8
ASSI
100
AcDbLine
 62
7
  6
CONTINUOUS
 10
-2.9521708115
 20
-17.0624955682
 11
-2.8461047943
 21
-17.1393663702
  0
LINE
  5
2B6
100
AcDbEntity
  8
ASSI
100
AcDbLine
 62
7
  6
CONTINUOUS
 10
-2.5986174209
 20
-16.8857188729
 11
-2.4925514037
 21
-16.9625896749
  0
LINE
  5
2B7
100
AcDbEntity
  8
ASSI
100
AcDbLine
 62
7
  6
CONTINUOUS
 10
11.8970715935
 20
-25.5477769425
 11
12.0031376106
 21
-25.6246477444
  0
LINE
  5
2B8
100
AcDbEntity
  8
ASSI
100
AcDbLine
 62
7
  6
CONTINUOUS
 10
12.2506249841
 20
-25.3710002472
 11
12.3566910012
 21
-25.4478710491
  0
LINE
  5
2B9
100
AcDbEntity
  8
SMUSSO
100
AcDbLine
 62
7
  6
CONTINUOUS
 10
31.7381171433
 20
-58.61146834
 11
26.3574052687
 21
-52.3237909167
  0
LINE
  5
2BA
100
AcDbEntity
  8
SMUSSO
100
AcDbLine
 62
7
  6
CONTINUOUS
 10
-35.3056562195
 20
57.0219359263
 11
-32.6153002822
 21
49.3890805344
  0
LINE
  5
2BB
100
AcDbEntity
  8
RACCORDO
100
AcDbLine
 62
7
  6
CONTINUOUS
 10
-10.4828580311
 20
-14.8098859891
 11
-10.4828580311
 21
-15.2989406317
  0
LINE
  5
2BC
100
AcDbEntity
  8
RACCORDO
100
AcDbLine
 62
7
  6
CONTINUOUS
 10
-16.2811336368
 20
2.4520174893
 11
-15.4194887493
 21
2.8793997057
  0
LINE
  5
2BD
100
AcDbEntity
  8
RACCORDO
100
AcDbLine
 62
7
  6
CONTINUOUS
 10
-16.2909399866
 20
2.1331395066
 11
-15.2780889323
 21
2.6355210963
  0
LINE
  5
2BE
100
AcDbEntity
  8
RACCORDO
100
AcDbLine
 62
7
  6
CONTINUOUS
 10
-15.8806632391
 20
3.0739837493
 11
-16.2811336368
 21
2.8890332485
  0
LINE
  5
2BF
100
AcDbEntity
  8
RACCORDO
100
AcDbLine
 62
7
  6
CONTINUOUS
 10
-15.7943393541
 20
3.066825008
 11
-16.2811336368
 21
2.8420072764
  0
LINE
  5
2C0
100
AcDbEntity
  8
RACCORDO
100
AcDbLine
 62
7
  6
CONTINUOUS
 10
-16.8566931376
 20
1.9396534506
 11
-16.2811336368
 21
2.2054659014
  0
LINE
  5
2C1
100
AcDbEntity
  8
RACCORDO
100
AcDbLine
 62
7
  6
CONTINUOUS
 10
-16.9378304821
 20
1.7758790717
 11
-16.3622709814
 21
2.0416915225
  0
LINE
  5
2C2
100
AcDbEntity
  8
RACCORDO
100
AcDbLine
 62
7
  6
CONTINUOUS
 10
-16.5652429224
 20
-4.0451360115
 11
-17.064209105
 21
-3.7956529202
  0
LINE
  5
2C3
100
AcDbEntity
  8
RACCORDO
100
AcDbLine
 62
7
  6
CONTINUOUS
 10
-17.064209105
 20
-2.6642820703
 11
-16.7531494955
 21
-2.8198118751
  0
LINE
  5
2C4
100
AcDbEntity
  8
ASSI
100
AcDbLine
 62
7
  6
CONTINUOUS
 10
12.6041783747
 20
-25.1942235519
 11
12.6941376928
 21
-25.2594211063
  0
LINE
  5
2C5
100
AcDbEntity
  8
0
100
AcDbLine
 62
7
  6
CONTINUOUS
 10
-4.4969481054
 20
-22.5455998095
 11
-4.1333559199
 21
-23.9148423046
  0
LINE
  5
2C6
100
AcDbEntity
  8
0
100
AcDbLine
 62
7
  6
CONTINUOUS
 10
-4.1099294722
 20
-23.1176921314
 11
-4.4165917837
 21
-21.9547243112
  0
LINE
  5
2C7
100
AcDbEntity
  8
0
100
AcDbLine
 62
7
  6
CONTINUOUS
 10
-4.0172519805
 20
-22.8621281348
 11
-4.2751704275
 21
-21.8840136331
  0
LINE
  5
2C8
100
AcDbEntity
  8
IMPORT_IGES
100
AcDbLine
 62
7
  6
CONTINUOUS
 10
-4.2751704275
 20
-21.8840136331
 11
-4.0172519805
 21
-22.8621281348
  0
LINE
  5
2C9
100
AcDbEntity
  8
0
100
AcDbLine
 62
7
  6
CONTINUOUS
 10
-6.6732580221
 20
-20.826391192
 11
-6.2025476444
 21
-22.8802464423
  0
LINE
  5
2CA
100
AcDbEntity
  8
0
100
AcDbLine
 62
7
  6
CONTINUOUS
 10
-6.0535418608
 20
-22.3879790086
 11
-6.3365719566
 21
-20.9947342248
  0
LINE
  5
2CB
100
AcDbEntity
  8
IMPORT_IGES
100
AcDbLine
 62
7
  6
CONTINUOUS
 10
-6.1951506004
 20
-20.9240235466
 11
-5.9655385228
 21
-22.0543126366
  0
LINE
  5
2CC
100
AcDbEntity
  8
0
100
AcDbLine
 62
7
  6
CONTINUOUS
 10
-5.9655385228
 20
-22.0543126366
 11
-6.1951506004
 21
-20.9240235466
  0
LINE
  5
2CD
100
AcDbEntity
  8
0
100
AcDbLine
 62
7
  6
CONTINUOUS
 10
-3.3544968923
 20
-24.3042718184
 11
-3.4933422585
 21
-22.4163490738
  0
LINE
  5
2CE
100
AcDbEntity
  8
0
100
AcDbLine
 62
7
  6
CONTINUOUS
 10
-3.2260591608
 20
-24.0570188389
 11
-3.3519209023
 21
-22.3456383957
  0
LINE
  5
2CF
100
AcDbEntity
  8
IMPORT_IGES
100
AcDbLine
 62
7
  6
CONTINUOUS
 10
-3.3519209023
 20
-22.3456383957
 11
-3.2260591608
 21
-24.0570188389
  0
LINE
  5
2D0
100
AcDbEntity
  8
0
100
AcDbLine
 62
7
  6
CONTINUOUS
 10
-3.7213735888
 20
-22.938337269
 11
-3.6576965019
 21
-24.1526720136
  0
LINE
  5
2D1
100
AcDbEntity
  8
0
100
AcDbLine
 62
7
  6
CONTINUOUS
 10
-5.3371246047
 20
-21.4943487815
 11
-5.3371246047
 21
-23.3129579622
  0
LINE
  5
2D2
100
AcDbEntity
  8
0
100
AcDbLine
 62
7
  6
CONTINUOUS
 10
-5.0271883888
 20
-23.4679260701
 11
-5.0271883888
 21
-21.6493168895
  0
LINE
  5
2D3
100
AcDbEntity
  8
0
100
AcDbLine
 62
7
  6
CONTINUOUS
 10
-4.8857670325
 20
-23.397215392
 11
-4.8857670325
 21
-21.5786062114
  0
LINE
  5
2D4
100
AcDbEntity
  8
IMPORT_IGES
100
AcDbLine
 62
7
  6
CONTINUOUS
 10
-4.8857670325
 20
-23.397215392
 11
-4.8857670325
 21
-21.5786062114
  0
LINE
  5
2D5
100
AcDbEntity
  8
DRAFT
100
AcDbLine
 62
7
  6
CONTINUOUS
 10
-17.064209105
 20
-4.2508980114
 11
-17.6002482131
 21
-4.5485638823
  0
LINE
  5
2D6
100
AcDbEntity
  8
RACCORDO
100
AcDbLine
 62
7
  6
CONTINUOUS
 10
-16.6067028861
 20
-1.7013856919
 11
-15.2780889323
 21
-0.9845679832
  0
LINE
  5
2D7
100
AcDbEntity
  8
RACCORDO
100
AcDbLine
 62
7
  6
CONTINUOUS
 10
-16.6067028861
 20
-1.7815516329
 11
-15.3269921282
 21
-1.0911183203
  0
LINE
  5
2D8
100
AcDbEntity
  8
DRAFT
100
AcDbLine
 62
7
  6
CONTINUOUS
 10
32.6918459184
 20
25.0400191318
 11
34.3830672352
 21
25.9217847184
  0
LINE
  5
2D9
100
AcDbEntity
  8
RACCORDO
100
AcDbLine
 62
7
  6
CONTINUOUS
 10
-17.064209105
 20
-2.4684505024
 11
-16.7470329859
 21
-2.3042277593
  0
LINE
  5
2DA
100
AcDbEntity
  8
RACCORDO
100
AcDbLine
 62
7
  6
CONTINUOUS
 10
-16.9463631155
 20
-3.2734593589
 11
-16.7470329859
 21
-3.170253163
  0
LINE
  5
2DB
100
AcDbEntity
  8
RACCORDO
100
AcDbLine
 62
7
  6
CONTINUOUS
 10
14.4050224203
 20
12.2139334354
 11
14.6965690075
 21
12.3608308266
  0
LINE
  5
2DC
100
AcDbEntity
  8
SMUSSO
100
AcDbLine
 62
7
  6
CONTINUOUS
 10
31.307152737
 20
24.0382200099
 11
32.3678129088
 21
24.5685500957
  0
LINE
  5
2DD
100
AcDbEntity
  8
SMUSSO
100
AcDbLine
 62
7
  6
CONTINUOUS
 10
32.0142595182
 20
22.8186412155
 11
33.07491969
 21
23.3489713014
  0
LINE
  5
2DE
100
AcDbEntity
  8
DRAFT
100
AcDbLine
 62
7
  6
CONTINUOUS
 10
33.7229857155
 20
23.2615660589
 11
35.443727407
 21
24.0924165277
  0
LINE
  5
2DF
100
AcDbEntity
  8
RACCORDO
100
AcDbLine
 62
7
  6
CONTINUOUS
 10
-15.3325147635
 20
2.8838726667
 11
-15.3325852082
 21
2.8839078421
  0
LINE
  5
2E0
100
AcDbEntity
  8
RACCORDO
100
AcDbLine
 62
7
  6
CONTINUOUS
 10
-15.7943393541
 20
3.066825008
 11
-15.4194887493
 21
2.8793997057
  0
LINE
  5
2E1
100
AcDbEntity
  8
RACCORDO
100
AcDbLine
 62
7
  6
CONTINUOUS
 10
-15.707364778
 20
3.071297674
 11
-15.3325141732
 21
2.8838723716
  0
LINE
  5
2E2
100
AcDbEntity
  8
0
100
AcDbLine
 62
7
  6
CONTINUOUS
 10
-2.0847021118
 20
-24.9391692086
 11
-2.5402754546
 21
-22.8928824758
  0
LINE
  5
2E3
100
AcDbEntity
  8
0
100
AcDbLine
 62
7
  6
CONTINUOUS
 10
-1.9936897785
 20
-24.6420376554
 11
-2.3988540983
 21
-22.8221717977
  0
LINE
  5
2E4
100
AcDbEntity
  8
IMPORT_IGES
100
AcDbLine
 62
7
  6
CONTINUOUS
 10
-2.3988540983
 20
-22.8221717977
 11
-1.9936897785
 21
-24.6420376554
  0
LINE
  5
2E5
100
AcDbEntity
  8
0
100
AcDbLine
 62
7
  6
CONTINUOUS
 10
-2.4916512568
 20
-24.3726576529
 11
-2.4113614031
 21
-24.775839563
  0
LINE
  5
2E6
100
AcDbEntity
  8
0
100
AcDbLine
 62
7
  6
CONTINUOUS
 10
-2.6960114805
 20
-23.3146920683
 11
-2.5535916895
 21
-24.0607704462
  0
LINE
  5
2E7
100
AcDbEntity
  8
ASSI
100
AcDbLine
 62
7
  6
CONTINUOUS
 10
-2.3013495993
 20
-17.0510265267
 11
-2.3013495993
 21
-17.5631526616
  0
LINE
  5
2E8
100
AcDbEntity
  8
ASSI
100
AcDbLine
 62
7
  6
CONTINUOUS
 10
-2.2499785644
 20
-17.0352680948
 11
-2.2499785644
 21
-17.5458188793
  0
LINE
  5
2E9
100
AcDbEntity
  8
0
100
AcDbLine
 62
7
  6
CONTINUOUS
 10
-1.9936897785
 20
-23.1874213745
 11
-1.9936897785
 21
-24.9846757197
  0
LINE
  5
2EA
100
AcDbEntity
  8
0
100
AcDbLine
 62
7
  6
CONTINUOUS
 10
-1.695277989
 20
-24.1243945519
 11
-1.695277989
 21
-23.6251807192
  0
LINE
  5
2EB
100
AcDbEntity
  8
0
100
AcDbLine
 62
7
  6
CONTINUOUS
 10
-1.6850009814
 20
-25.1390201183
 11
-1.6850009814
 21
-24.4273594899
  0
LINE
  5
2EC
100
AcDbEntity
  8
0
100
AcDbLine
 62
7
  6
CONTINUOUS
 10
-1.5538566328
 20
-24.0536838737
 11
-1.5538566328
 21
-23.6789073846
  0
LINE
  5
2ED
100
AcDbEntity
  8
IMPORT_IGES
100
AcDbLine
 62
7
  6
CONTINUOUS
 10
-1.5538566328
 20
-24.0536838737
 11
-1.5538566328
 21
-23.6789073846
  0
LINE
  5
2EE
100
AcDbEntity
  8
0
100
AcDbLine
 62
7
  6
CONTINUOUS
 10
-1.5435796251
 20
-25.0683094401
 11
-1.5435796251
 21
-24.498070168
  0
LINE
  5
2EF
100
AcDbEntity
  8
IMPORT_IGES
100
AcDbLine
 62
7
  6
CONTINUOUS
 10
-1.5435796251
 20
-25.0683094401
 11
-1.5435796251
 21
-24.498070168
  0
LINE
  5
2F0
100
AcDbEntity
  8
0
100
AcDbLine
 62
7
  6
CONTINUOUS
 10
-1.19685982
 20
-24.5342308144
 11
-1.19685982
 21
-24.5234850621
  0
LINE
  5
2F1
100
AcDbEntity
  8
0
100
AcDbLine
 62
7
  6
CONTINUOUS
 10
-4.5638326288
 20
-23.6996039501
 11
-4.4969481054
 21
-22.5455998095
  0
LINE
  5
2F2
100
AcDbEntity
  8
0
100
AcDbLine
 62
7
  6
CONTINUOUS
 10
-4.4224112725
 20
-23.628893272
 11
-4.3842279166
 21
-22.9700898803
  0
LINE
  5
2F3
100
AcDbEntity
  8
IMPORT_IGES
100
AcDbLine
 62
7
  6
CONTINUOUS
 10
-4.3842279166
 20
-22.9700898803
 11
-4.4224112725
 21
-23.628893272
  0
LINE
  5
2F4
100
AcDbEntity
  8
0
100
AcDbLine
 62
7
  6
CONTINUOUS
 10
-4.7262713199
 20
-21.7998845431
 11
-4.8603401798
 21
-23.5513501746
  0
LINE
  5
2F5
100
AcDbEntity
  8
0
100
AcDbLine
 62
7
  6
CONTINUOUS
 10
-5.7618666776
 20
-21.2820868643
 11
-6.0535418608
 21
-22.3879790086
  0
LINE
  5
2F6
100
AcDbEntity
  8
ASSI
100
AcDbLine
 62
7
  6
CONTINUOUS
 10
-8.792069331
 20
-16.1443349818
 11
-8.7504464172
 21
-16.0725460746
  0
LINE
  5
2F7
100
AcDbEntity
  8
SMUSSO
100
AcDbLine
 62
7
  6
CONTINUOUS
 10
-32.6153002822
 20
-22.8374381412
 11
-35.3056562195
 21
-25.0895816585
  0
LINE
  5
2F8
100
AcDbEntity
  8
RACCORDO
100
AcDbLine
 62
7
  6
CONTINUOUS
 10
-19.4850637096
 20
-13.6905000044
 11
-18.2994726821
 21
-12.8260292384
  0
LINE
  5
2F9
100
AcDbEntity
  8
RACCORDO
100
AcDbLine
 62
7
  6
CONTINUOUS
 10
-19.6456452004
 20
-13.2985098893
 11
-18.4693857879
 21
-12.4409516799
  0
LINE
  5
2FA
100
AcDbEntity
  8
SMUSSO
100
AcDbLine
 62
7
  6
CONTINUOUS
 10
31.7381171433
 20
23.5000492449
 11
26.3574052687
 21
19.9027277589
  0
LINE
  5
2FB
100
AcDbEntity
  8
RACCORDO
100
AcDbLine
 62
7
  6
CONTINUOUS
 10
14.8999217801
 20
11.3603583028
 11
15.1914683673
 21
11.5072556939
  0
LINE
  5
2FC
100
AcDbEntity
  8
RACCORDO
100
AcDbLine
 62
7
  6
CONTINUOUS
 10
-16.5652429224
 20
-4.0451360115
 11
-17.5005271112
 21
-4.4967327327
  0
LINE
  5
2FD
100
AcDbEntity
  8
RACCORDO
100
AcDbLine
 62
7
  6
CONTINUOUS
 10
-16.3530785744
 20
-4.4110258067
 11
-17.2883627632
 21
-4.8626225278
  0
LINE
  5
2FE
100
AcDbEntity
  8
DRAFT
100
AcDbLine
 62
7
  6
CONTINUOUS
 10
-2.8278172452
 20
-18.1196952628
 11
-2.7707735933
 21
-17.8874813893
  0
LINE
  5
2FF
100
AcDbEntity
  8
0
100
AcDbLine
 62
7
  6
CONTINUOUS
 10
-2.8503332928
 20
-23.9123996445
 11
-2.6960114805
 21
-23.3146920683
  0
LINE
  5
300
100
AcDbEntity
  8
0
100
AcDbLine
 62
7
  6
CONTINUOUS
 10
-2.7089119366
 20
-23.8416889664
 11
-2.6436577745
 21
-23.5889514794
  0
LINE
  5
301
100
AcDbEntity
  8
IMPORT_IGES
100
AcDbLine
 62
7
  6
CONTINUOUS
 10
-2.6436577745
 20
-23.5889514794
 11
-2.7089119366
 21
-23.8416889664
  0
LINE
  5
302
100
AcDbEntity
  8
0
100
AcDbLine
 62
7
  6
CONTINUOUS
 10
-2.9992556378
 20
-24.4818924456
 11
-2.9137324868
 21
-24.1616170379
  0
LINE
  5
303
100
AcDbEntity
  8
0
100
AcDbLine
 62
7
  6
CONTINUOUS
 10
-2.8578342816
 20
-24.4111817675
 11
-2.8056267446
 21
-24.215669909
  0
LINE
  5
304
100
AcDbEntity
  8
IMPORT_IGES
100
AcDbLine
 62
7
  6
CONTINUOUS
 10
-2.8056267446
 20
-24.215669909
 11
-2.8578342816
 21
-24.4111817675
  0
LINE
  5
305
100
AcDbEntity
  8
0
100
AcDbLine
 62
7
  6
CONTINUOUS
 10
-2.8401007506
 20
-22.7429698278
 11
-3.3058288539
 21
-24.3286058376
  0
LINE
  5
306
100
AcDbEntity
  8
0
100
AcDbLine
 62
7
  6
CONTINUOUS
 10
-5.9294163365
 20
-23.0168120963
 11
-5.4521418866
 21
-21.4369492598
  0
LINE
  5
307
100
AcDbEntity
  8
0
100
AcDbLine
 62
7
  6
CONTINUOUS
 10
-5.7879949802
 20
-22.9461014182
 11
-5.3107205304
 21
-21.3662385816
  0
LINE
  5
308
100
AcDbEntity
  8
IMPORT_IGES
100
AcDbLine
 62
7
  6
CONTINUOUS
 10
-5.3107205304
 20
-21.3662385816
 11
-5.7879949802
 21
-22.9461014182
  0
LINE
  5
309
100
AcDbEntity
  8
0
100
AcDbLine
 62
7
  6
CONTINUOUS
 10
-3.7999932563
 20
-22.2630235749
 11
-4.1099294722
 21
-23.1176921314
  0
LINE
  5
30A
100
AcDbEntity
  8
0
100
AcDbLine
 62
7
  6
CONTINUOUS
 10
-4.0898879447
 20
-23.9365762922
 11
-3.7213735888
 21
-22.938337269
  0
LINE
  5
30B
100
AcDbEntity
  8
0
100
AcDbLine
 62
7
  6
CONTINUOUS
 10
-3.9484665885
 20
-23.865865614
 11
-3.7070306883
 21
-23.2118592415
  0
LINE
  5
30C
100
AcDbEntity
  8
IMPORT_IGES
100
AcDbLine
 62
7
  6
CONTINUOUS
 10
-3.7070306883
 20
-23.2118592415
 11
-3.9484665885
 21
-23.865865614
  0
LINE
  5
30D
100
AcDbEntity
  8
ASSI
100
AcDbLine
 62
7
  6
CONTINUOUS
 10
-8.4922442001
 20
-16.0602258268
 11
-8.3968930266
 21
-15.8957693793
  0
LINE
  5
30E
100
AcDbEntity
  8
ASSI
100
AcDbLine
 62
7
  6
CONTINUOUS
 10
-8.1386908096
 20
-15.8834491315
 11
-8.043339636
 21
-15.718992684
  0
LINE
  5
30F
100
AcDbEntity
  8
ASSI
100
AcDbLine
 62
7
  6
CONTINUOUS
 10
-7.785137419
 20
-15.7066724362
 11
-7.6897862454
 21
-15.5422159887
  0
LINE
  5
310
100
AcDbEntity
  8
ASSI
100
AcDbLine
 62
7
  6
CONTINUOUS
 10
-7.4315840284
 20
-15.5298957409
 11
-7.3362328548
 21
-15.3654392934
  0
LINE
  5
311
100
AcDbEntity
  8
ASSI
100
AcDbLine
 62
7
  6
CONTINUOUS
 10
-7.0780306378
 20
-15.3531190456
 11
-6.9826794642
 21
-15.1886625981
  0
LINE
  5
312
100
AcDbEntity
  8
ASSI
100
AcDbLine
 62
7
  6
CONTINUOUS
 10
-6.7244772472
 20
-15.1763423503
 11
-6.6291260736
 21
-15.0118859028
  0
LINE
  5
313
100
AcDbEntity
  8
DRAFT
100
AcDbLine
 62
7
  6
CONTINUOUS
 10
-17.064209105
 20
-10.7460885398
 11
-17.6002482131
 21
-11.0437544107
  0
LINE
  5
314
100
AcDbEntity
  8
RACCORDO
100
AcDbLine
 62
7
  6
CONTINUOUS
 10
-18.4095026844
 20
-12.4039611204
 11
-18.0780846315
 21
-12.2369742665
  0
LINE
  5
315
100
AcDbEntity
  8
RACCORDO
100
AcDbLine
 62
7
  6
CONTINUOUS
 10
-16.8566931376
 20
-11.9408998874
 11
-16.2811336368
 21
-11.6509009892
  0
LINE
  5
316
100
AcDbEntity
  8
RACCORDO
100
AcDbLine
 62
7
  6
CONTINUOUS
 10
-18.1655214943
 20
-12.7537153788
 11
-17.8659849058
 21
-12.6027921805
  0
LINE
  5
317
100
AcDbEntity
  8
RACCORDO
100
AcDbLine
 62
7
  6
CONTINUOUS
 10
-15.9276565814
 20
-11.4756059435
 11
-16.2811013281
 21
-11.6509171435
  0
LINE
  5
318
100
AcDbEntity
  8
RACCORDO
100
AcDbLine
 62
7
  6
CONTINUOUS
 10
-15.7155568558
 20
-11.8414238575
 11
-15.8081922365
 21
-11.8873716893
  0
LINE
  5
319
100
AcDbEntity
  8
RACCORDO
100
AcDbLine
 62
7
  6
CONTINUOUS
 10
-18.0756522417
 20
-12.2419630657
 11
-17.064209105
 21
-11.7488135309
  0
LINE
  5
31A
100
AcDbEntity
  8
RACCORDO
100
AcDbLine
 62
7
  6
CONTINUOUS
 10
-17.8603113105
 20
-12.6056289782
 11
-16.8523677903
 21
-12.1141857521
  0
LINE
  5
31B
100
AcDbEntity
  8
RACCORDO
100
AcDbLine
 62
7
  6
CONTINUOUS
 10
-17.2883627632
 20
-10.4051851121
 11
-16.3530785744
 21
-9.9535883909
  0
LINE
  5
31C
100
AcDbEntity
  8
RACCORDO
100
AcDbLine
 62
7
  6
CONTINUOUS
 10
-17.3677450578
 20
-10.5681302045
 11
-16.4324608691
 21
-10.1165334833
  0
LINE
  5
31D
100
AcDbEntity
  8
RACCORDO
100
AcDbLine
 62
7
  6
CONTINUOUS
 10
-17.064209105
 20
-11.2142622626
 11
-16.4932979848
 21
-10.9386010325
  0
LINE
  5
31E
100
AcDbEntity
  8
RACCORDO
100
AcDbLine
 62
7
  6
CONTINUOUS
 10
-16.8566931376
 20
-11.5823965022
 11
-16.2811336368
 21
-11.3044908276
  0
LINE
  5
31F
100
AcDbEntity
  8
RACCORDO
100
AcDbLine
 62
7
  6
CONTINUOUS
 10
5.4270445456
 20
-22.7648372775
 11
5.4270445456
 21
-23.2538919201
  0
LINE
  5
320
100
AcDbEntity
  8
ASSI
100
AcDbLine
 62
7
  6
CONTINUOUS
 10
-4.1770888032
 20
-17.702923406
 11
-4.1542523395
 21
-17.6635363322
  0
LINE
  5
321
100
AcDbEntity
  8
ASSI
100
AcDbLine
 62
7
  6
CONTINUOUS
 10
-3.9067649661
 20
-17.6696964561
 11
-3.8006989489
 21
-17.4867596369
  0
LINE
  5
322
100
AcDbEntity
  8
ASSI
100
AcDbLine
 62
7
  6
CONTINUOUS
 10
-3.5532115755
 20
-17.4929197608
 11
-3.4471455583
 21
-17.3099829416
  0
LINE
  5
323
100
AcDbEntity
  8
ASSI
100
AcDbLine
 62
7
  6
CONTINUOUS
 10
-3.1996581849
 20
-17.3161430655
 11
-3.0935921677
 21
-17.1332062463
  0
LINE
  5
324
100
AcDbEntity
  8
ASSI
100
AcDbLine
 62
7
  6
CONTINUOUS
 10
-2.8461047943
 20
-17.1393663702
 11
-2.7400387771
 21
-16.956429551
  0
LINE
  5
325
100
AcDbEntity
  8
RACCORDO
100
AcDbLine
 62
7
  6
CONTINUOUS
 10
-11.2606754904
 20
-14.738908711
 11
-10.6949900654
 21
-14.4439727748
  0
LINE
  5
326
100
AcDbEntity
  8
RACCORDO
100
AcDbLine
 62
7
  6
CONTINUOUS
 10
-10.961676492
 20
-15.0595314013
 11
-10.4828580311
 21
-14.8098859891
  0
LINE
  5
327
100
AcDbEntity
  8
RACCORDO
100
AcDbLine
 62
7
  6
CONTINUOUS
 10
-17.064209105
 20
14.4615912374
 11
-16.4932333624
 21
14.1761033661
  0
LINE
  5
328
100
AcDbEntity
  8
RACCORDO
100
AcDbLine
 62
7
  6
CONTINUOUS
 10
12.6941376928
 20
9.9580837049
 11
12.6941376928
 21
-29.58156469
  0
LINE
  5
329
100
AcDbEntity
  8
RACCORDO
100
AcDbLine
 62
7
  6
CONTINUOUS
 10
12.7820056585
 20
9.8520176877
 11
12.7820056585
 21
-29.6876307289
  0
LWPOLYLINE
  5
32A
100
AcDbEntity
  8
RACCORDO
100
AcDbPolyline
 62
7
  6
CONTINUOUS
 90
8
 70
0
 10
12.6941372452
 20
-29.5817027773
 10
12.6939962695
 20
-29.5921595261
 10
12.6930976974
 20
-29.6095489793
 10
12.6914273585
 20
-29.6254887744
 10
12.6891192101
 20
-29.6395481676
 10
12.6864772472
 20
-29.6510002561
 10
12.6838398115
 20
-29.6596369559
 10
12.6833408552
 20
-29.6610332278
  0
LINE
  5
32B
100
AcDbEntity
  8
ASSI
100
AcDbLine
 62
7
  6
CONTINUOUS
 10
-2.5632620818
 20
-17.7817421939
 11
-2.3085572082
 21
-17.5971461431
  0
LINE
  5
32C
100
AcDbEntity
  8
ASSI
100
AcDbLine
 62
7
  6
CONTINUOUS
 10
-2.3083631292
 20
-17.0546838122
 11
-3.8080248811
 21
-17.887455367
  0
LINE
  5
32D
100
AcDbEntity
  8
RACCORDO
100
AcDbLine
 62
7
  6
CONTINUOUS
 10
-5.8104052464
 20
-16.9465634195
 11
-6.3760906713
 21
-17.2414993557
  0
LINE
  5
32E
100
AcDbEntity
  8
RACCORDO
100
AcDbLine
 62
7
  6
CONTINUOUS
 10
-5.674531919
 20
-16.9542018481
 11
-6.240217344
 21
-17.2491377842
  0
LINE
  5
32F
100
AcDbEntity
  8
ASSI
100
AcDbLine
 62
7
  6
CONTINUOUS
 10
-8.7504464172
 20
-16.0725460746
 11
-8.6090250609
 21
-16.0018353964
  0
LINE
  5
330
100
AcDbEntity
  8
ASSI
100
AcDbLine
 62
7
  6
CONTINUOUS
 10
-8.3968930266
 20
-15.8957693793
 11
-8.2554716704
 21
-15.8250587011
  0
LINE
  5
331
100
AcDbEntity
  8
ASSI
100
AcDbLine
 62
7
  6
CONTINUOUS
 10
-8.043339636
 20
-15.718992684
 11
-7.9019182798
 21
-15.6482820058
  0
LINE
  5
332
100
AcDbEntity
  8
ASSI
100
AcDbLine
 62
7
  6
CONTINUOUS
 10
-7.6897862454
 20
-15.5422159887
 11
-7.5483648892
 21
-15.4715053105
  0
LINE
  5
333
100
AcDbEntity
  8
ASSI
100
AcDbLine
 62
7
  6
CONTINUOUS
 10
-7.3362328548
 20
-15.3654392934
 11
-7.1948114986
 21
-15.2947286152
  0
LINE
  5
334
100
AcDbEntity
  8
ASSI
100
AcDbLine
 62
7
  6
CONTINUOUS
 10
-6.9826794642
 20
-15.1886625981
 11
-6.841258108
 21
-15.1179519199
  0
LINE
  5
335
100
AcDbEntity
  8
ASSI
100
AcDbLine
 62
7
  6
CONTINUOUS
 10
-6.6291260736
 20
-15.0118859028
 11
-6.4877047174
 21
-14.9411752247
  0
LINE
  5
336
100
AcDbEntity
  8
ASSI
100
AcDbLine
 62
7
  6
CONTINUOUS
 10
-4.1542523395
 20
-17.6635363322
 11
-4.0128309832
 21
-17.5928256541
  0
LINE
  5
337
100
AcDbEntity
  8
ASSI
100
AcDbLine
 62
7
  6
CONTINUOUS
 10
-3.8006989489
 20
-17.4867596369
 11
-3.6592775926
 21
-17.4160489588
  0
LINE
  5
338
100
AcDbEntity
  8
ASSI
100
AcDbLine
 62
7
  6
CONTINUOUS
 10
-3.4471455583
 20
-17.3099829416
 11
-3.305724202
 21
-17.2392722635
  0
LINE
  5
339
100
AcDbEntity
  8
ASSI
100
AcDbLine
 62
7
  6
CONTINUOUS
 10
-3.0935921677
 20
-17.1332062463
 11
-2.9521708115
 21
-17.0624955682
  0
LINE
  5
33A
100
AcDbEntity
  8
ASSI
100
AcDbLine
 62
7
  6
CONTINUOUS
 10
-2.7400387771
 20
-16.956429551
 11
-2.5986174209
 21
-16.8857188729
  0
LINE
  5
33B
100
AcDbEntity
  8
ASSI
100
AcDbLine
 62
7
  6
CONTINUOUS
 10
-2.4925514037
 20
-16.9625896749
 11
-4.0751538345
 21
-17.7538908903
  0
LINE
  5
33C
100
AcDbEntity
  8
ASSI
100
AcDbLine
 62
7
  6
CONTINUOUS
 10
-6.5658269747
 20
-14.9259518894
 11
-9.0195202065
 21
-16.030609544
  0
LINE
  5
33D
100
AcDbEntity
  8
RACCORDO
100
AcDbLine
 62
7
  6
CONTINUOUS
 10
-15.3325147635
 20
21.2003099568
 11
-15.3325852082
 21
21.2003451321
  0
LINE
  5
33E
100
AcDbEntity
  8
RACCORDO
100
AcDbLine
 62
7
  6
CONTINUOUS
 10
-17.5005271112
 20
19.7519785733
 11
-17.6002482131
 21
19.8018391242
  0
LINE
  5
33F
100
AcDbEntity
  8
DRAFT
100
AcDbLine
 62
7
  6
CONTINUOUS
 10
-17.400461005
 20
19.7329265426
 11
-17.064209105
 21
19.5648005927
  0
LINE
  5
340
100
AcDbEntity
  8
RACCORDO
100
AcDbLine
 62
7
  6
CONTINUOUS
 10
-15.7943393541
 20
21.3832622981
 11
-15.4194887493
 21
21.1958369957
  0
LINE
  5
341
100
AcDbEntity
  8
RACCORDO
100
AcDbLine
 62
7
  6
CONTINUOUS
 10
-15.707364778
 20
21.387734964
 11
-15.3325141732
 21
21.2003096616
  0
LINE
  5
342
100
AcDbEntity
  8
RACCORDO
100
AcDbLine
 62
7
  6
CONTINUOUS
 10
14.4793922346
 20
-32.8951928729
 11
14.4793922346
 21
11.3621932557
  0
LINE
  5
343
100
AcDbEntity
  8
RACCORDO
100
AcDbLine
 62
7
  6
CONTINUOUS
 10
14.8999217801
 20
-32.8970278258
 11
14.8999217801
 21
11.3603583028
  0
LINE
  5
344
100
AcDbEntity
  8
RACCORDO
100
AcDbLine
 62
7
  6
CONTINUOUS
 10
15.1914683673
 20
11.5072556939
 11
15.1914683673
 21
-32.7623819503
  0
LINE
  5
345
100
AcDbEntity
  8
DRAFT
100
AcDbLine
 62
7
  6
CONTINUOUS
 10
32.4057403098
 20
24.5465599445
 11
32.6918459184
 21
25.0400191318
  0
LINE
  5
346
100
AcDbEntity
  8
ASSI
100
AcDbLine
 62
7
  6
CONTINUOUS
 10
7.1178332457
 20
-24.0992862701
 11
7.1594561595
 21
-24.0274973629
  0
LINE
  5
347
100
AcDbEntity
  8
ASSI
100
AcDbLine
 62
7
  6
CONTINUOUS
 10
7.4176583765
 20
-24.0151771152
 11
7.5130095501
 21
-23.8507206676
  0
LINE
  5
348
100
AcDbEntity
  8
ASSI
100
AcDbLine
 62
7
  6
CONTINUOUS
 10
7.7712117671
 20
-23.8384004199
 11
7.8665629407
 21
-23.6739439723
  0
LINE
  5
349
100
AcDbEntity
  8
ASSI
100
AcDbLine
 62
7
  6
CONTINUOUS
 10
-2.5632620818
 20
-17.7817421939
 11
-3.2844632587
 21
-18.1492361782
  0
LINE
  5
34A
100
AcDbEntity
  8
DRAFT
100
AcDbLine
 62
7
  6
CONTINUOUS
 10
-3.0142444352
 20
-18.2843455899
 11
-2.9071162165
 21
-18.2304855214
  0
LINE
  5
34B
100
AcDbEntity
  8
DRAFT
100
AcDbLine
 62
7
  6
CONTINUOUS
 10
-3.0851041014
 20
-18.2489157568
 11
-2.8278172452
 21
-18.1196952628
  0
LINE
  5
34C
100
AcDbEntity
  8
0
100
AcDbLine
 62
7
  6
CONTINUOUS
 10
-6.5318366658
 20
-20.7556805139
 11
-6.6732580221
 21
-20.826391192
  0
LINE
  5
34D
100
AcDbEntity
  8
0
100
AcDbLine
 62
7
  6
CONTINUOUS
 10
-6.1951506004
 20
-20.9240235466
 11
-6.3365719566
 21
-20.9947342248
  0
LINE
  5
34E
100
AcDbEntity
  8
0
100
AcDbLine
 62
7
  6
CONTINUOUS
 10
-5.6204453213
 20
-21.2113761862
 11
-5.7618666776
 21
-21.2820868643
  0
LINE
  5
34F
100
AcDbEntity
  8
0
100
AcDbLine
 62
7
  6
CONTINUOUS
 10
-5.3107205304
 20
-21.3662385816
 11
-5.4521418866
 21
-21.4369492598
  0
LINE
  5
350
100
AcDbEntity
  8
0
100
AcDbLine
 62
7
  6
CONTINUOUS
 10
-5.1957032484
 20
-21.4236381034
 11
-5.3371246047
 21
-21.4943487815
  0
LINE
  5
351
100
AcDbEntity
  8
0
100
AcDbLine
 62
7
  6
CONTINUOUS
 10
-4.8857670325
 20
-21.5786062114
 11
-5.0271883888
 21
-21.6493168895
  0
LINE
  5
352
100
AcDbEntity
  8
0
100
AcDbLine
 62
7
  6
CONTINUOUS
 10
-4.5848499636
 20
-21.729173865
 11
-4.7262713199
 21
-21.7998845431
  0
LINE
  5
353
100
AcDbEntity
  8
0
100
AcDbLine
 62
7
  6
CONTINUOUS
 10
-4.2751704275
 20
-21.8840136331
 11
-4.4165917837
 21
-21.9547243112
  0
LINE
  5
354
100
AcDbEntity
  8
0
100
AcDbLine
 62
7
  6
CONTINUOUS
 10
-5.7879949802
 20
-22.9461014182
 11
-5.9294163365
 21
-23.0168120963
  0
LINE
  5
355
100
AcDbEntity
  8
0
100
AcDbLine
 62
7
  6
CONTINUOUS
 10
-3.6585719001
 20
-22.1923128968
 11
-3.7999932563
 21
-22.2630235749
  0
LINE
  5
356
100
AcDbEntity
  8
0
100
AcDbLine
 62
7
  6
CONTINUOUS
 10
-3.3519209023
 20
-22.3456383957
 11
-3.4933422585
 21
-22.4163490738
  0
LINE
  5
357
100
AcDbEntity
  8
0
100
AcDbLine
 62
7
  6
CONTINUOUS
 10
-4.8857670325
 20
-23.397215392
 11
-5.0271883888
 21
-23.4679260701
  0
LINE
  5
358
100
AcDbEntity
  8
ASSI
100
AcDbLine
 62
7
  6
CONTINUOUS
 10
-2.3013495993
 20
-17.5631526616
 11
-3.3809285586
 21
-18.1010035283
  0
LINE
  5
359
100
AcDbEntity
  8
RACCORDO
100
AcDbLine
 62
7
  6
CONTINUOUS
 10
-19.5466594382
 20
26.4131939433
 11
12.4547508491
 21
10.4124887996
  0
LINE
  5
35A
100
AcDbEntity
  8
RACCORDO
100
AcDbLine
 62
7
  6
CONTINUOUS
 10
-19.6246273939
 20
26.5754560834
 11
12.3767828867
 21
10.5747509431
  0
LINE
  5
35B
100
AcDbEntity
  8
RACCORDO
100
AcDbLine
 62
7
  6
CONTINUOUS
 10
14.1965926004
 20
11.8499504743
 11
-21.4467204495
 21
29.6716069993
  0
LINE
  5
35C
100
AcDbEntity
  8
RACCORDO
100
AcDbLine
 62
7
  6
CONTINUOUS
 10
14.4050224203
 20
12.2139334354
 11
-21.2360072877
 21
30.0344482894
  0
LINE
  5
35D
100
AcDbEntity
  8
RACCORDO
100
AcDbLine
 62
7
  6
CONTINUOUS
 10
-20.954464021
 20
30.1863473408
 11
14.6965690075
 21
12.3608308266
  0
LWPOLYLINE
  5
35E
100
AcDbEntity
  8
RACCORDO
100
AcDbPolyline
 62
7
  6
CONTINUOUS
 90
22
 70
0
 10
12.4547823134
 20
10.4124728873
 10
12.4613957875
 20
10.4089875766
 10
12.4748420897
 20
10.4008820106
 10
12.4899938989
 20
10.3902455597
 10
12.5063177783
 20
10.377096705
 10
12.5234677497
 20
10.3614180549
 10
12.5411107995
 20
10.3432469504
 10
12.5588068279
 20
10.322812283
 10
12.5762121008
 20
10.3003473629
 10
12.5930787175
 20
10.2760405808
 10
12.6091938105
 20
10.2500757259
 10
12.6243156377
 20
10.2227462061
 10
12.6382482622
 20
10.1943500639
 10
12.6508792223
 20
10.1650633788
 10
12.662050635
 20
10.1352112526
 10
12.6716399208
 20
10.1051327794
 10
12.6795919244
 20
10.0750428775
 10
12.6858406892
 20
10.0452524088
 10
12.6903387884
 20
10.016138368
 10
12.6930827008
 20
9.98809803
 10
12.6941224751
 20
9.9615228645
 10
12.6941370904
 20
9.958215755
  0
LWPOLYLINE
  5
35F
100
AcDbEntity
  8
RACCORDO
100
AcDbPolyline
 62
7
  6
CONTINUOUS
 90
3
 70
0
 10
12.6833408552
 20
-29.6610332278
 10
12.6815800349
 20
-29.6654244382
 10
12.6802639531
 20
-29.6681297767
  0
LINE
  5
360
100
AcDbEntity
  8
ASSI
100
AcDbLine
 62
7
  6
CONTINUOUS
 10
8.1247651577
 20
-23.6616237246
 11
8.2201163313
 21
-23.497167277
  0
LINE
  5
361
100
AcDbEntity
  8
ASSI
100
AcDbLine
 62
7
  6
CONTINUOUS
 10
8.4783185483
 20
-23.4848470293
 11
8.5736697219
 21
-23.3203905817
  0
LINE
  5
362
100
AcDbEntity
  8
ASSI
100
AcDbLine
 62
7
  6
CONTINUOUS
 10
8.8318719389
 20
-23.308070334
 11
8.9272231125
 21
-23.1436138864
  0
LINE
  5
363
100
AcDbEntity
  8
ASSI
100
AcDbLine
 62
7
  6
CONTINUOUS
 10
9.1854253295
 20
-23.1312936387
 11
9.2807765031
 21
-22.9668371911
  0
LINE
  5
364
100
AcDbEntity
  8
ASSI
100
AcDbLine
 62
7
  6
CONTINUOUS
 10
11.7328137735
 20
-25.6578746943
 11
11.7556502372
 21
-25.6184876206
  0
LINE
  5
365
100
AcDbEntity
  8
ASSI
100
AcDbLine
 62
7
  6
CONTINUOUS
 10
12.0031376106
 20
-25.6246477444
 11
12.1092036278
 21
-25.4417109253
  0
LINE
  5
366
100
AcDbEntity
  8
ASSI
100
AcDbLine
 62
7
  6
CONTINUOUS
 10
12.3566910012
 20
-25.4478710491
 11
12.4627570184
 21
-25.26493423
  0
LINE
  5
367
100
AcDbEntity
  8
RACCORDO
100
AcDbLine
 62
7
  6
CONTINUOUS
 10
4.6492270863
 20
-22.6938599994
 11
5.2149125113
 21
-22.3989240632
  0
LINE
  5
368
100
AcDbEntity
  8
RACCORDO
100
AcDbLine
 62
7
  6
CONTINUOUS
 10
4.9482260847
 20
-23.0144826896
 11
5.4270445456
 21
-22.7648372775
  0
LINE
  5
369
100
AcDbEntity
  8
0
100
AcDbLine
 62
7
  6
CONTINUOUS
 10
-2.6986793944
 20
-22.6722591496
 11
-2.8401007506
 21
-22.7429698278
  0
LINE
  5
36A
100
AcDbEntity
  8
0
100
AcDbLine
 62
7
  6
CONTINUOUS
 10
-4.4224112725
 20
-23.628893272
 11
-4.5638326288
 21
-23.6996039501
  0
LINE
  5
36B
100
AcDbEntity
  8
0
100
AcDbLine
 62
7
  6
CONTINUOUS
 10
-2.3988540983
 20
-22.8221717977
 11
-2.5402754546
 21
-22.8928824758
  0
LINE
  5
36C
100
AcDbEntity
  8
0
100
AcDbLine
 62
7
  6
CONTINUOUS
 10
-3.9484665885
 20
-23.865865614
 11
-4.0898879447
 21
-23.9365762922
  0
LINE
  5
36D
100
AcDbEntity
  8
0
100
AcDbLine
 62
7
  6
CONTINUOUS
 10
-1.8522684223
 20
-23.1167106963
 11
-1.9936897785
 21
-23.1874213745
  0
LINE
  5
36E
100
AcDbEntity
  8
0
100
AcDbLine
 62
7
  6
CONTINUOUS
 10
-2.7089119366
 20
-23.8416889664
 11
-2.8503332928
 21
-23.9123996445
  0
LINE
  5
36F
100
AcDbEntity
  8
0
100
AcDbLine
 62
7
  6
CONTINUOUS
 10
-3.2890735736
 20
-24.2715601591
 11
-3.3544968923
 21
-24.3042718184
  0
LINE
  5
370
100
AcDbEntity
  8
0
100
AcDbLine
 62
7
  6
CONTINUOUS
 10
-1.0873940564
 20
-23.5182938644
 11
-1.2288154126
 21
-23.5890045425
  0
LINE
  5
371
100
AcDbEntity
  8
0
100
AcDbLine
 62
7
  6
CONTINUOUS
 10
-2.8578342816
 20
-24.4111817675
 11
-2.9992556378
 21
-24.4818924456
  0
LINE
  5
372
100
AcDbEntity
  8
0
100
AcDbLine
 62
7
  6
CONTINUOUS
 10
-1.5538566328
 20
-24.0536838737
 11
-1.695277989
 21
-24.1243945519
  0
LINE
  5
373
100
AcDbEntity
  8
0
100
AcDbLine
 62
7
  6
CONTINUOUS
 10
-1.3767313484
 20
-24.1422465159
 11
-1.5181527046
 21
-24.2129571941
  0
LINE
  5
374
100
AcDbEntity
  8
0
100
AcDbLine
 62
7
  6
CONTINUOUS
 10
-1.9936897785
 20
-24.893663042
 11
-2.0847021118
 21
-24.9391692086
  0
LINE
  5
375
100
AcDbEntity
  8
0
100
AcDbLine
 62
7
  6
CONTINUOUS
 10
-1.1925615191
 20
-24.5320816639
 11
-1.19685982
 21
-24.5342308144
  0
LINE
  5
376
100
AcDbEntity
  8
0
100
AcDbLine
 62
7
  6
CONTINUOUS
 10
-1.1538285322
 20
-24.5167924224
 11
-1.0124071759
 21
-24.4460817443
  0
LINE
  5
377
100
AcDbEntity
  8
0
100
AcDbLine
 62
7
  6
CONTINUOUS
 10
-1.5435796251
 20
-25.0683094401
 11
-1.6850009814
 21
-25.1390201183
  0
LINE
  5
378
100
AcDbEntity
  8
0
100
AcDbLine
 62
7
  6
CONTINUOUS
 10
-0.8767877731
 20
-24.9095144554
 11
-1.0182091293
 21
-24.9802251336
  0
LINE
  5
379
100
AcDbEntity
  8
0
100
AcDbLine
 62
7
  6
CONTINUOUS
 10
-0.7708332718
 20
-25.4546826168
 11
-0.912254628
 21
-25.525393295
  0
LINE
  5
37A
100
AcDbEntity
  8
DRAFT
100
AcDbLine
 62
7
  6
CONTINUOUS
 10
33.07491969
 20
23.2615660589
 11
33.7229857155
 21
23.2615660589
  0
LINE
  5
37B
100
AcDbEntity
  8
SMUSSO
100
AcDbLine
 62
7
  6
CONTINUOUS
 10
26.3574052687
 20
-52.3237909167
 11
26.3574052687
 21
19.9027277589
  0
LINE
  5
37C
100
AcDbEntity
  8
RACCORDO
100
AcDbLine
 62
7
  6
CONTINUOUS
 10
12.6804194028
 20
-29.6679208843
 11
12.6816317503
 21
-29.6662835565
  0
LINE
  5
37D
100
AcDbEntity
  8
RACCORDO
100
AcDbLine
 62
7
  6
CONTINUOUS
 10
10.0994973303
 20
-24.9015147079
 11
9.5338119054
 21
-25.1964506441
  0
LINE
  5
37E
100
AcDbEntity
  8
RACCORDO
100
AcDbLine
 62
7
  6
CONTINUOUS
 10
10.2353706577
 20
-24.9091531364
 11
9.6696852327
 21
-25.2040890726
  0
LINE
  5
37F
100
AcDbEntity
  8
ASSI
100
AcDbLine
 62
7
  6
CONTINUOUS
 10
7.1594561595
 20
-24.0274973629
 11
7.3008775158
 21
-23.9567866848
  0
LINE
  5
380
100
AcDbEntity
  8
ASSI
100
AcDbLine
 62
7
  6
CONTINUOUS
 10
7.5130095501
 20
-23.8507206676
 11
7.6544309063
 21
-23.7800099895
  0
LINE
  5
381
100
AcDbEntity
  8
ASSI
100
AcDbLine
 62
7
  6
CONTINUOUS
 10
7.8665629407
 20
-23.6739439723
 11
8.0079842969
 21
-23.6032332942
  0
LINE
  5
382
100
AcDbEntity
  8
ASSI
100
AcDbLine
 62
7
  6
CONTINUOUS
 10
8.2201163313
 20
-23.497167277
 11
8.3615376875
 21
-23.4264565989
  0
LINE
  5
383
100
AcDbEntity
  8
ASSI
100
AcDbLine
 62
7
  6
CONTINUOUS
 10
8.5736697219
 20
-23.3203905817
 11
8.7150910781
 21
-23.2496799036
  0
LINE
  5
384
100
AcDbEntity
  8
ASSI
100
AcDbLine
 62
7
  6
CONTINUOUS
 10
8.9272231125
 20
-23.1436138864
 11
9.0686444687
 21
-23.0729032083
  0
LINE
  5
385
100
AcDbEntity
  8
ASSI
100
AcDbLine
 62
7
  6
CONTINUOUS
 10
9.2807765031
 20
-22.9668371911
 11
9.4221978593
 21
-22.896126513
  0
LINE
  5
386
100
AcDbEntity
  8
ASSI
100
AcDbLine
 62
7
  6
CONTINUOUS
 10
9.344075602
 20
-22.8809031777
 11
6.8903823702
 21
-23.9855608324
  0
LINE
  5
387
100
AcDbEntity
  8
RACCORDO
100
AcDbLine
 62
7
  6
CONTINUOUS
 10
-19.5649248721
 20
26.4210260616
 11
-19.5648587388
 21
26.4210241903
  0
LINE
  5
388
100
AcDbEntity
  8
RACCORDO
100
AcDbLine
 62
7
  6
CONTINUOUS
 10
-19.1754197833
 20
26.2275741158
 11
-19.6456452004
 21
26.2411390826
  0
LWPOLYLINE
  5
389
100
AcDbEntity
  8
RACCORDO
100
AcDbPolyline
 62
7
  6
CONTINUOUS
 90
6
 70
0
 10
-19.5648716922
 20
26.4210182598
 10
-19.5665928869
 20
26.421119255
 10
-19.5667482601
 20
26.4210822606
 10
-19.5628063942
 20
26.419981471
 10
-19.5552193262
 20
26.4171445571
 10
-19.5468395509
 20
26.4132841466
  0
LINE
  5
38A
100
AcDbEntity
  8
SMUSSO
100
AcDbLine
 62
7
  6
CONTINUOUS
 10
32.0142595182
 20
-58.068131498
 11
32.0142595182
 21
22.8186412155
  0
LINE
  5
38B
100
AcDbEntity
  8
RACCORDO
100
AcDbLine
 62
7
  6
CONTINUOUS
 10
12.5163524051
 20
-29.6912080617
 11
12.6941376928
 21
-29.4680597332
  0
LINE
  5
38C
100
AcDbEntity
  8
ASSI
100
AcDbLine
 62
7
  6
CONTINUOUS
 10
12.6941376928
 20
-25.5135209729
 11
12.1018776956
 21
-25.8424066554
  0
LINE
  5
38D
100
AcDbEntity
  8
ASSI
100
AcDbLine
 62
7
  6
CONTINUOUS
 10
12.6941376928
 20
-26.0691816453
 11
12.625439318
 21
-26.1041874666
  0
LINE
  5
38E
100
AcDbEntity
  8
ASSI
100
AcDbLine
 62
7
  6
CONTINUOUS
 10
11.7556502372
 20
-25.6184876206
 11
11.8970715935
 21
-25.5477769425
  0
LINE
  5
38F
100
AcDbEntity
  8
ASSI
100
AcDbLine
 62
7
  6
CONTINUOUS
 10
12.1092036278
 20
-25.4417109253
 11
12.2506249841
 21
-25.3710002472
  0
LINE
  5
390
100
AcDbEntity
  8
ASSI
100
AcDbLine
 62
7
  6
CONTINUOUS
 10
12.4627570184
 20
-25.26493423
 11
12.6041783747
 21
-25.1942235519
  0
LINE
  5
391
100
AcDbEntity
  8
ASSI
100
AcDbLine
 62
7
  6
CONTINUOUS
 10
12.6941376928
 20
-25.2791477033
 11
11.8347487422
 21
-25.7088421787
  0
LINE
  5
392
100
AcDbEntity
  8
ASSI
100
AcDbLine
 62
7
  6
CONTINUOUS
 10
12.6941376928
 20
-25.9736695656
 11
12.5289740181
 21
-26.0559548166
  0
LINE
  5
393
100
AcDbEntity
  8
SMUSSO
100
AcDbLine
 62
7
  6
CONTINUOUS
 10
26.3574052687
 20
19.9027277589
 11
-32.6153002822
 21
49.3890805344
  0
LINE
  5
394
100
AcDbEntity
  8
SMUSSO
100
AcDbLine
 62
7
  6
CONTINUOUS
 10
33.07491969
 20
23.702524692
 11
33.07491969
 21
-57.5378014121
  0
LINE
  5
395
100
AcDbEntity
  8
DRAFT
100
AcDbLine
 62
7
  6
CONTINUOUS
 10
33.7229857155
 20
-56.6725787064
 11
33.7229857155
 21
23.2615660589
  0
LINE
  5
396
100
AcDbEntity
  8
DRAFT
100
AcDbLine
 62
7
  6
CONTINUOUS
 10
35.443727407
 20
24.799523308
 11
35.443727407
 21
-55.8417282425
  0
LINE
  5
397
100
AcDbEntity
  8
RACCORDO
100
AcDbLine
 62
7
  6
CONTINUOUS
 10
14.8999217801
 20
-32.8970278258
 11
15.1914683673
 21
-32.7623819503
  0
LINE
  5
398
100
AcDbEntity
  8
RACCORDO
100
AcDbLine
 62
7
  6
CONTINUOUS
 10
14.7091846024
 20
-33.2798223255
 11
15.0021478967
 21
-33.1445221677
  0
LINE
  5
399
100
AcDbEntity
  8
SMUSSO
100
AcDbLine
 62
7
  6
CONTINUOUS
 10
31.307152737
 20
24.0382200099
 11
-34.7366206258
 21
57.0601066913
  0
LINE
  5
39A
100
AcDbEntity
  8
SMUSSO
100
AcDbLine
 62
7
  6
CONTINUOUS
 10
-33.675960454
 20
57.5904367772
 11
32.3678129088
 21
24.5685500957
  0
LINE
  5
39B
100
AcDbEntity
  8
DRAFT
100
AcDbLine
 62
7
  6
CONTINUOUS
 10
32.6918459184
 20
25.0400191318
 11
-32.5741099819
 21
57.672997082
  0
LINE
  5
39C
100
AcDbEntity
  8
DRAFT
100
AcDbLine
 62
7
  6
CONTINUOUS
 10
-30.882888669
 20
58.5547626705
 11
34.3830672352
 21
25.9217847184
  0
LINE
  5
39D
100
AcDbEntity
  8
SMUSSO
100
AcDbLine
 62
7
  6
CONTINUOUS
 10
32.7920769776
 20
24.2682101169
 11
32.5092342651
 21
24.4803421513
  0
LINE
  5
39E
100
AcDbEntity
  8
SMUSSO
100
AcDbLine
 62
7
  6
CONTINUOUS
 10
35.1608857816
 20
25.3652079176
 11
34.5951992696
 21
25.7894728017
  0
LINE
  5
39F
100
AcDbEntity
  8
SMUSSO
100
AcDbLine
 62
7
  6
CONTINUOUS
 10
32.0142595182
 20
-58.068131498
 11
33.07491969
 21
-57.5378014121
  0
LINE
  5
3A0
100
AcDbEntity
  8
RACCORDO
100
AcDbLine
 62
7
  6
CONTINUOUS
 10
31.7403817645
 20
-58.6159975824
 11
32.8150265043
 21
-58.0786752125
  0
LINE
  5
3A1
100
AcDbEntity
  8
DRAFT
100
AcDbLine
 62
7
  6
CONTINUOUS
 10
33.7229857155
 20
-56.6725787064
 11
35.443727407
 21
-55.8417282425
  0
LINE
  5
3A2
100
AcDbEntity
  8
DRAFT
100
AcDbLine
 62
7
  6
CONTINUOUS
 10
33.3331372096
 20
-57.4665893075
 11
35.0427179748
 21
-56.6584704741
  0
ARC
  5
3A3
100
AcDbEntity
  8
RACCORDO
100
AcDbCircle
 62
7
  6
CONTINUOUS
 10
-15.8341147581
 20
14.7964479168
 40
1.2153389166
100
AcDbArc
 50
141.992472414
 51
144.0993475129
  0
ARC
  5
3A4
100
AcDbEntity
  8
RACCORDO
100
AcDbCircle
 62
7
  6
CONTINUOUS
 10
-15.8588830543
 20
14.8156483344
 40
1.1840002978
100
AcDbArc
 50
141.3631324504
 51
141.9865266469
  0
ARC
  5
3A5
100
AcDbEntity
  8
RACCORDO
100
AcDbCircle
 62
7
  6
CONTINUOUS
 10
-15.8953383282
 20
14.8451987669
 40
1.1370736723
100
AcDbArc
 50
138.5066390017
 51
141.3792755634
  0
ARC
  5
3A6
100
AcDbEntity
  8
DRAFT
100
AcDbCircle
 62
7
  6
CONTINUOUS
 10
33.0815440427
 20
-56.8537503415
 40
0.6673284509
100
AcDbArc
 50
269.4417583969
 51
270.4208496955
  0
ARC
  5
3A7
100
AcDbEntity
  8
IMPORT_IGES
100
AcDbCircle
 62
7
  6
CONTINUOUS
 10
-1.1590431154
 20
-23.682304375
 40
0.5088565022
100
AcDbArc
 50
244.6720486628
 51
247.0404098965
  0
ARC
  5
3A8
100
AcDbEntity
  8
0
100
AcDbCircle
 62
7
  6
CONTINUOUS
 10
-1.41846535
 20
-24.7582567221
 40
0.3151136592
100
AcDbArc
 50
42.2436531157
 51
45.3111900424
  0
ARC
  5
3A9
100
AcDbEntity
  8
RACCORDO
100
AcDbCircle
 62
7
  6
CONTINUOUS
 10
-15.4219618757
 20
21.0214174494
 40
0.1999985148
100
AcDbArc
 50
0.0130191666
 51
63.4573071593
  0
ARC
  5
3AA
100
AcDbEntity
  8
RACCORDO
100
AcDbCircle
 62
7
  6
CONTINUOUS
 10
-15.4219618757
 20
2.7049801594
 40
0.1999985148
100
AcDbArc
 50
0.0130191666
 51
63.4573071593
  0
ARC
  5
3AB
100
AcDbEntity
  8
RACCORDO
100
AcDbCircle
 62
7
  6
CONTINUOUS
 10
-15.7968228542
 20
21.208919592
 40
0.1999299515
100
AcDbArc
 50
63.4508113348
 51
114.7934812241
  0
ARC
  5
3AC
100
AcDbEntity
  8
RACCORDO
100
AcDbCircle
 62
7
  6
CONTINUOUS
 10
-15.7968228542
 20
2.892482302
 40
0.1999299515
100
AcDbArc
 50
63.4508113349
 51
114.7934812241
  0
ARC
  5
3AD
100
AcDbEntity
  8
0
100
AcDbCircle
 62
7
  6
CONTINUOUS
 10
-1.2432873447
 20
-24.3384352319
 40
0.1995348756
100
AcDbArc
 50
295.3072537444
 51
296.6370414053
  0
ARC
  5
3AE
100
AcDbEntity
  8
RACCORDO
100
AcDbCircle
 62
7
  6
CONTINUOUS
 10
-15.4216320508
 20
17.4006392813
 40
0.1992333471
100
AcDbArc
 50
298.3606842612
 51
0.0208738394
  0
ARC
  5
3AF
100
AcDbEntity
  8
RACCORDO
100
AcDbCircle
 62
7
  6
CONTINUOUS
 10
-15.4216320508
 20
-0.9157980087
 40
0.1992333471
100
AcDbArc
 50
298.3606842612
 51
0.0208738394
  0
ARC
  5
3B0
100
AcDbEntity
  8
RACCORDO
100
AcDbCircle
 62
7
  6
CONTINUOUS
 10
-18.2025021572
 20
-12.680599621
 40
0.1747943258
100
AcDbArc
 50
236.3051741266
 51
243.5810952118
  0
ARC
  5
3B1
100
AcDbEntity
  8
RACCORDO
100
AcDbCircle
 62
7
  6
CONTINUOUS
 10
-18.3624800062
 20
-12.4290724266
 40
0.1075637617
100
AcDbArc
 50
179.9157077733
 51
186.3406327765
  0
ARC
  5
3B2
100
AcDbEntity
  8
ASSI
100
AcDbCircle
 62
7
  6
CONTINUOUS
 10
-6.5257414137
 20
-15.0039999196
 40
0.0874961196
100
AcDbArc
 50
105.061869074
 51
111.6611297249
  0
ARC
  5
3B3
100
AcDbEntity
  8
ASSI
100
AcDbCircle
 62
7
  6
CONTINUOUS
 10
9.384161163
 20
-22.9589512079
 40
0.0874961196
100
AcDbArc
 50
105.061869074
 51
111.661129725
  0
ARC
  5
3B4
100
AcDbEntity
  8
RACCORDO
100
AcDbCircle
 62
7
  6
CONTINUOUS
 10
-15.3630517094
 20
-1.024391333
 40
0.0758414454
100
AcDbArc
 50
298.3870157071
 51
302.0401016359
  0
ARC
  5
3B5
100
AcDbEntity
  8
RACCORDO
100
AcDbCircle
 62
7
  6
CONTINUOUS
 10
-15.3630517094
 20
17.292045957
 40
0.0758414454
100
AcDbArc
 50
298.3870157069
 51
302.0401016359
  0
ARC
  5
3B6
100
AcDbEntity
  8
RACCORDO
100
AcDbCircle
 62
7
  6
CONTINUOUS
 10
-15.740906298
 20
21.3207582265
 40
0.0749027917
100
AcDbArc
 50
63.3990893832
 51
68.4471909086
  0
ARC
  5
3B7
100
AcDbEntity
  8
RACCORDO
100
AcDbCircle
 62
7
  6
CONTINUOUS
 10
-15.740906298
 20
3.0043209365
 40
0.0749027917
100
AcDbArc
 50
63.3990893828
 51
68.4471909088
  0
ARC
  5
3B8
100
AcDbEntity
  8
RACCORDO
100
AcDbCircle
 62
7
  6
CONTINUOUS
 10
-15.2724440469
 20
17.4013366705
 40
0.050478377
100
AcDbArc
 50
354.2794988579
 51
359.9956742448
  0
ARC
  5
3B9
100
AcDbEntity
  8
RACCORDO
100
AcDbCircle
 62
7
  6
CONTINUOUS
 10
-15.2724440469
 20
-0.9151006196
 40
0.050478377
100
AcDbArc
 50
354.2794988579
 51
359.9956742448
  0
SPLINE
  5
3BA
100
AcDbEntity
  8
0
100
AcDbSpline
 62
7
  6
CONTINUOUS
 70
0
 71
3
 72
11
 73
7
 74
5
 42
0.0000001
 43
0.0000001
 44
0.0000000001
 12
0.3138156219
 22
-0.2015300707
 32
0.0
 13
0.0047321734
 23
-0.3729238803
 33
0.0
 40
0.0
 40
0.0
 40
0.0
 40
0.0
 40
0.2339806254
 40
0.4918424311
 40
0.7556842856
 40
1.0
 40
1.0
 40
1.0
 40
1.0
 10
-1.4524711574
 20
-23.735879293
 30
0.0
 10
-1.4279955656
 20
-23.751597337
 30
0.0
 10
-1.3812521432
 20
-23.7920998918
 30
0.0
 10
-1.3251003621
 20
-23.8684719732
 30
0.0
 10
-1.2887084839
 20
-23.9573271515
 30
0.0
 10
-1.2777799753
 20
-24.0203716674
 30
0.0
 10
-1.2773945939
 20
-24.0507420554
 30
0.0
 11
-1.4524711574
 21
-23.735879293
 31
0.0
 11
-1.3858293717
 21
-23.7922164559
 31
0.0
 11
-1.3289602133
 21
-23.8697708031
 31
0.0
 11
-1.2913428055
 21
-23.9606974648
 31
0.0
 11
-1.2773945939
 21
-24.0507420554
 31
0.0
  0
SPLINE
  5
3BB
100
AcDbEntity
  8
0
100
AcDbSpline
 62
7
  6
CONTINUOUS
 70
0
 71
3
 72
9
 73
5
 74
3
 42
0.0000001
 43
0.0000001
 44
0.0000000001
 12
0.0022769903
 22
-0.1818693411
 32
0.0
 13
-0.1325932361
 23
-0.1245017093
 33
0.0
 40
0.0
 40
0.0
 40
0.0
 40
0.0
 40
0.5440811308
 40
1.0
 40
1.0
 40
1.0
 40
1.0
 10
-1.2773945939
 20
-24.0507420554
 30
0.0
 10
-1.2769816381
 20
-24.0837259477
 30
0.0
 10
-1.2832965245
 20
-24.1443448232
 30
0.0
 10
-1.3105031388
 20
-24.2022659363
 30
0.0
 10
-1.3306537249
 20
-24.2211868291
 30
0.0
 11
-1.2773945939
 21
-24.0507420554
 31
0.0
 11
-1.2900377178
 21
-24.1488905172
 31
0.0
 11
-1.3306537249
 21
-24.2211868291
 31
0.0
  0
SPLINE
  5
3BC
100
AcDbEntity
  8
0
100
AcDbSpline
 62
7
  6
CONTINUOUS
 70
0
 71
3
 72
8
 73
4
 74
2
 42
0.0000001
 43
0.0000001
 44
0.0000000001
 12
-0.0187174109
 22
-0.0175751775
 32
0.0
 13
-0.022964815
 23
-0.0114824043
 33
0.0
 40
0.0
 40
0.0
 40
0.0
 40
0.0
 40
1.0
 40
1.0
 40
1.0
 40
1.0
 10
-1.3306537249
 20
-24.2211868291
 30
0.0
 10
-1.3368928619
 20
-24.2270452216
 30
0.0
 10
-1.3439838981
 20
-24.2321530566
 30
0.0
 10
-1.3516388364
 20
-24.2359805247
 30
0.0
 11
-1.3306537249
 21
-24.2211868291
 31
0.0
 11
-1.3516388364
 21
-24.2359805247
 31
0.0
  0
SPLINE
  5
3BD
100
AcDbEntity
  8
0
100
AcDbSpline
 62
7
  6
CONTINUOUS
 70
0
 71
3
 72
10
 73
6
 74
4
 42
0.0000001
 43
0.0000001
 44
0.0000000001
 12
0.257046478
 22
-0.0748047261
 32
0.0
 13
0.2252633536
 23
-0.1446549704
 33
0.0
 40
0.0
 40
0.0
 40
0.0
 40
0.0
 40
0.2362920832
 40
0.4814109498
 40
1.0
 40
1.0
 40
1.0
 40
1.0
 10
-1.695277989
 20
-23.6251807192
 30
0.0
 10
-1.6750319731
 20
-23.6310726408
 30
0.0
 10
-1.6340037375
 20
-23.6439423074
 30
0.0
 10
-1.5513084039
 20
-23.6777024019
 30
0.0
 10
-1.4914108602
 20
-23.7108737984
 30
0.0
 10
-1.4524711574
 20
-23.735879293
 30
0.0
 11
-1.695277989
 21
-23.6251807192
 31
0.0
 11
-1.6350493871
 21
-23.6445213141
 31
0.0
 11
-1.574258686
 21
-23.6692311509
 31
0.0
 11
-1.4524711574
 21
-23.735879293
 31
0.0
  0
SPLINE
  5
3BE
100
AcDbEntity
  8
0
100
AcDbSpline
 62
7
  6
CONTINUOUS
 70
0
 71
3
 72
10
 73
6
 74
4
 42
0.0000001
 43
0.0000001
 44
0.0000000001
 12
0.2763115484
 22
-0.1381557742
 32
0.0
 13
0.0793323206
 23
-0.2985656924
 33
0.0
 40
0.0
 40
0.0
 40
0.0
 40
0.0
 40
0.2224105364
 40
0.6042534692
 40
1.0
 40
1.0
 40
1.0
 40
1.0
 10
-1.5188207658
 20
-24.5104495977
 30
0.0
 10
-1.4983358992
 20
-24.520692031
 30
0.0
 10
-1.4467304011
 20
-24.5571522449
 30
0.0
 10
-1.3857545382
 20
-24.6425496191
 30
0.0
 10
-1.3563694302
 20
-24.7177541141
 30
0.0
 10
-1.3459042667
 20
-24.7571395598
 30
0.0
 11
-1.5188207658
 21
-24.5104495977
 31
0.0
 11
-1.4623462781
 21
-24.5495835603
 31
0.0
 11
-1.3909498498
 21
-24.6434844137
 31
0.0
 11
-1.3459042667
 21
-24.7571395598
 31
0.0
  0
SPLINE
  5
3BF
100
AcDbEntity
  8
0
100
AcDbSpline
 62
7
  6
CONTINUOUS
 70
0
 71
3
 72
9
 73
5
 74
3
 42
0.0000001
 43
0.0000001
 44
0.0000000001
 12
0.1629167104
 22
-0.6125703128
 32
0.0
 13
0.1303220388
 23
-0.6203228263
 33
0.0
 40
0.0
 40
0.0
 40
0.0
 40
0.0
 40
0.5011449125
 40
1.0
 40
1.0
 40
1.0
 40
1.0
 10
-1.3459042667
 20
-24.7571395598
 30
0.0
 10
-1.3186893065
 20
-24.8594683918
 30
0.0
 10
-1.2767586099
 20
-25.0667324602
 30
0.0
 10
-1.2320475284
 20
-25.2731817475
 30
0.0
 10
-1.2103769244
 20
-25.3763321468
 30
0.0
 11
-1.3459042667
 21
-24.7571395598
 31
0.0
 11
-1.2759643128
 21
-25.0670024295
 31
0.0
 11
-1.2103769244
 21
-25.3763321468
 31
0.0
  0
SPLINE
  5
3C0
100
AcDbEntity
  8
0
100
AcDbSpline
 62
7
  6
CONTINUOUS
 70
0
 71
3
 72
9
 73
5
 74
3
 42
0.0000001
 43
0.0000001
 44
0.0000000001
 12
0.0378220214
 22
-0.0129339363
 32
0.0
 13
0.036157628
 23
0.0170416534
 33
0.0
 40
0.0
 40
0.0
 40
0.0
 40
0.0
 40
0.5120103131
 40
1.0
 40
1.0
 40
1.0
 40
1.0
 10
-1.19685982
 20
-24.5234850621
 30
0.0
 10
-1.1904047317
 20
-24.5256924984
 30
0.0
 10
-1.1764133941
 20
-24.5266674644
 30
0.0
 10
-1.1638732254
 20
-24.5215924842
 30
0.0
 10
-1.1579917089
 20
-24.5188204339
 30
0.0
 11
-1.19685982
 21
-24.5234850621
 31
0.0
 11
-1.176457744
 21
-24.5251048627
 31
0.0
 11
-1.1579917089
 21
-24.5188204339
 31
0.0
  0
SPLINE
  5
3C1
100
AcDbEntity
  8
RACCORDO
100
AcDbSpline
 62
7
  6
CONTINUOUS
 70
0
 71
3
 72
11
 73
7
 74
5
 42
0.0000001
 43
0.0000001
 44
0.0000000001
 12
0.5251876529
 22
-0.262645468
 32
0.0
 13
0.0000611188
 23
-0.5872007399
 33
0.0
 40
0.0
 40
0.0
 40
0.0
 40
0.0
 40
0.2296791434
 40
0.4882139181
 40
0.7532029516
 40
1.0
 40
1.0
 40
1.0
 40
1.0
 10
14.1965926004
 20
11.8499504743
 30
0.0
 10
14.2368008172
 20
11.8298424123
 30
0.0
 10
14.3136375028
 20
11.7697392912
 30
0.0
 10
14.4023613787
 20
11.6504023739
 30
0.0
 10
14.4627269693
 20
11.510845762
 30
0.0
 10
14.4793872066
 20
11.4104997255
 30
0.0
 10
14.4793922346
 20
11.3621932557
 30
0.0
 11
14.1965926004
 21
11.8499504743
 31
0.0
 11
14.3048185687
 21
11.7694740588
 31
0.0
 11
14.3965667652
 21
11.6485232644
 31
0.0
 11
14.4578670971
 21
11.5055051669
 31
0.0
 11
14.4793922346
 21
11.3621932557
 31
0.0
  0
SPLINE
  5
3C2
100
AcDbEntity
  8
RACCORDO
100
AcDbSpline
 62
7
  6
CONTINUOUS
 70
0
 71
3
 72
15
 73
11
 74
9
 42
0.0000001
 43
0.0000001
 44
0.0000000001
 12
-0.0000286732
 22
-0.4373896662
 32
0.0
 13
-0.3912376427
 23
0.1955577352
 33
0.0
 40
0.0
 40
0.0
 40
0.0
 40
0.0
 40
0.1487813346
 40
0.2840580725
 40
0.4066308139
 40
0.5199169015
 40
0.6296878438
 40
0.7427935763
 40
0.8651019046
 40
1.0
 40
1.0
 40
1.0
 40
1.0
 10
14.4793922346
 20
-32.8951928729
 30
0.0
 10
14.4793908125
 20
-32.916884679
 30
0.0
 10
14.476239371
 20
-32.9584181256
 30
0.0
 10
14.4606125937
 20
-33.0160389061
 30
0.0
 10
14.4345429484
 20
-33.0641333833
 30
0.0
 10
14.3985667672
 20
-33.1005371179
 30
0.0
 10
14.3540280996
 20
-33.1230319481
 30
0.0
 10
14.3034349757
 20
-33.1303713152
 30
0.0
 10
14.2493968521
 20
-33.122742393
 30
0.0
 10
14.2141850047
 20
-33.1089439128
 30
0.0
 10
14.1965926004
 20
-33.1001504574
 30
0.0
 11
14.4793922346
 21
-32.8951928729
 31
0.0
 11
14.4739593612
 21
-32.9600411109
 31
0.0
 11
14.457866583
 21
-33.0169792468
 31
0.0
 11
14.4317346641
 21
-33.0637913689
 31
0.0
 11
14.3965667173
 21
-33.098697447
 31
0.0
 11
14.353708881
 21
-33.1203405271
 31
0.0
 11
14.3048186854
 21
-33.1279006982
 31
0.0
 11
14.2517589114
 21
-33.1210797679
 31
0.0
 11
14.1965926004
 21
-33.1001504574
 31
0.0
  0
SPLINE
  5
3C3
100
AcDbEntity
  8
RACCORDO
100
AcDbSpline
 62
7
  6
CONTINUOUS
 70
0
 71
3
 72
12
 73
8
 74
6
 42
0.0000001
 43
0.0000001
 44
0.0000000001
 12
-0.5230246991
 22
0.2615637784
 32
0.0
 13
-0.0000608662
 23
0.5847823889
 33
0.0
 40
0.0
 40
0.0
 40
0.0
 40
0.0
 40
0.2293635134
 40
0.4875027318
 40
0.7523004135
 40
0.8797660391
 40
1.0
 40
1.0
 40
1.0
 40
1.0
 10
-21.4444371076
 20
-15.2796356034
 30
0.0
 10
-21.4844247018
 20
-15.2596378744
 30
0.0
 10
-21.5608883239
 20
-15.199938692
 30
0.0
 10
-21.6493299974
 20
-15.0815121963
 30
0.0
 10
-21.7005457955
 20
-14.9640167481
 30
0.0
 10
-21.7227805355
 20
-14.8664259598
 30
0.0
 10
-21.7272343023
 20
-14.8181117952
 30
0.0
 10
-21.7272367417
 20
-14.7946748942
 30
0.0
 11
-21.4444371076
 21
-15.2796356034
 31
0.0
 11
-21.5521354825
 21
-15.1996899234
 31
0.0
 11
-21.6436009314
 21
-15.0796001025
 31
0.0
 11
-21.7050393665
 21
-14.9374609517
 31
0.0
 11
-21.7214279068
 21
-14.8647452334
 31
0.0
 11
-21.7272367417
 21
-14.7946748942
 31
0.0
  0
SPLINE
  5
3C4
100
AcDbEntity
  8
RACCORDO
100
AcDbSpline
 62
7
  6
CONTINUOUS
 70
0
 71
3
 72
11
 73
7
 74
5
 42
0.0000001
 43
0.0000001
 44
0.0000000001
 12
-0.1689068731
 22
0.0845995435
 32
0.0
 13
-0.0000000045
 23
0.1889090113
 33
0.0
 40
0.0
 40
0.0
 40
0.0
 40
0.0
 40
0.2171672584
 40
0.4503633044
 40
0.7104290804
 40
1.0
 40
1.0
 40
1.0
 40
1.0
 10
-21.3664701453
 20
-15.4418919896
 30
0.0
 10
-21.3786971594
 20
-15.435767906
 30
0.0
 10
-21.401841909
 20
-15.4181734301
 30
0.0
 10
-21.4266562497
 20
-15.3801275962
 30
0.0
 10
-21.4414748198
 20
-15.3326085188
 30
0.0
 10
-21.4444371071
 20
-15.2978697888
 30
0.0
 10
-21.4444371076
 20
-15.2796356034
 30
0.0
 11
-21.3664701453
 21
-15.4418919896
 31
0.0
 11
-21.3992942191
 21
-15.4172826689
 31
0.0
 11
-21.4239538647
 21
-15.3807785034
 31
0.0
 11
-21.4392501871
 21
-15.3340916913
 31
0.0
 11
-21.4444371076
 21
-15.2796356034
 31
0.0
  0
SPLINE
  5
3C5
100
AcDbEntity
  8
RACCORDO
100
AcDbSpline
 62
7
  6
CONTINUOUS
 70
0
 71
3
 72
15
 73
11
 74
9
 42
0.0000001
 43
0.0000001
 44
0.0000000001
 12
0.0000683239
 22
-0.646551538
 32
0.0
 13
-0.5783308173
 23
0.2890715512
 33
0.0
 40
0.0
 40
0.0
 40
0.0
 40
0.0
 40
0.1487777367
 40
0.2853586629
 40
0.4094901324
 40
0.5236272001
 40
0.6329868848
 40
0.7448320058
 40
0.865953558
 40
1.0
 40
1.0
 40
1.0
 40
1.0
 10
12.7820056585
 20
-29.6876307289
 30
0.0
 10
12.7820090468
 20
-29.719694887
 30
0.0
 10
12.7778516334
 20
-29.7813320672
 30
0.0
 10
12.7570696605
 20
-29.8676245494
 30
0.0
 10
12.7216405944
 20
-29.9410845662
 30
0.0
 10
12.6715166918
 20
-29.998286279
 30
0.0
 10
12.6076774761
 20
-30.0350988156
 30
0.0
 10
12.5337375491
 20
-30.0484221043
 30
0.0
 10
12.4543197221
 20
-30.038218278
 30
0.0
 10
12.4026239495
 20
-30.0180575501
 30
0.0
 10
12.3767828867
 20
-30.0051412125
 30
0.0
 11
12.7820056585
 21
-29.6876307289
 31
0.0
 11
12.774867375
 21
-29.7835579782
 31
0.0
 11
12.7533064195
 21
-29.8691919801
 31
0.0
 11
12.7174836722
 21
-29.9410110577
 31
0.0
 11
12.6681359564
 21
-29.9958797949
 31
0.0
 11
12.606765367
 21
-30.0309950954
 31
0.0
 11
12.5357198654
 21
-30.0444783658
 31
0.0
 11
12.4579096281
 21
-30.0356335488
 31
0.0
 11
12.3767828867
 21
-30.0051412125
 31
0.0
  0
SPLINE
  5
3C6
100
AcDbEntity
  8
0
100
AcDbSpline
 62
7
  6
CONTINUOUS
 70
0
 71
3
 72
9
 73
5
 74
3
 42
0.0000001
 43
0.0000001
 44
0.0000000001
 12
-0.0819903374
 22
0.0180211565
 32
0.0
 13
-0.0758970075
 23
0.0358722979
 33
0.0
 40
0.0
 40
0.0
 40
0.0
 40
0.0
 40
0.2423790088
 40
1.0
 40
1.0
 40
1.0
 40
1.0
 10
-1.2977998974
 20
-24.1705114821
 30
0.0
 10
-1.304424143
 20
-24.1690554988
 30
0.0
 10
-1.3315086656
 20
-24.1619271099
 30
0.0
 10
-1.357564293
 20
-24.1513057179
 30
0.0
 10
-1.3767313484
 20
-24.1422465159
 30
0.0
 11
-1.2977998974
 21
-24.1705114821
 31
0.0
 11
-1.3174931374
 21
-24.1653947496
 31
0.0
 11
-1.3767313484
 21
-24.1422465159
 31
0.0
  0
SPLINE
  5
3C7
100
AcDbEntity
  8
0
100
AcDbSpline
 62
7
  6
CONTINUOUS
 70
0
 71
3
 72
10
 73
6
 74
4
 42
0.0000001
 43
0.0000001
 44
0.0000000001
 12
-0.1538658195
 22
-0.0769328886
 32
0.0
 13
-0.1555300044
 23
0.0735103904
 33
0.0
 40
0.0
 40
0.0
 40
0.0
 40
0.0
 40
0.4571693217
 40
0.7225207018
 40
1.0
 40
1.0
 40
1.0
 40
1.0
 10
-1.3516388364
 20
-24.2359805247
 30
0.0
 10
-1.3750864139
 20
-24.2477043102
 30
0.0
 10
-1.4202470984
 20
-24.2476058427
 30
0.0
 10
-1.4748972248
 20
-24.2318661193
 30
0.0
 10
-1.5037672524
 20
-24.2197563979
 30
0.0
 10
-1.5181527046
 20
-24.2129571941
 30
0.0
 11
-1.3516388364
 21
-24.2359805247
 31
0.0
 11
-1.4299645607
 21
-24.2430660891
 31
0.0
 11
-1.474044288
 21
-24.2312049678
 31
0.0
 11
-1.5181527046
 21
-24.2129571941
 31
0.0
  0
SPLINE
  5
3C8
100
AcDbEntity
  8
0
100
AcDbSpline
 62
7
  6
CONTINUOUS
 70
0
 71
3
 72
18
 73
14
 74
12
 42
0.0000001
 43
0.0000001
 44
0.0000000001
 12
0.9411990151
 22
0.4706007234
 32
0.0
 13
-0.7660294836
 23
0.7214703439
 33
0.0
 40
0.0
 40
0.0
 40
0.0
 40
0.0
 40
0.0457942768
 40
0.0910579023
 40
0.1389648738
 40
0.1905316202
 40
0.3034455327
 40
0.4295779948
 40
0.5663525932
 40
0.7114677539
 40
0.8584344355
 40
0.9305901952
 40
1.0
 40
1.0
 40
1.0
 40
1.0
 10
-1.0124069032
 20
-24.4460816079
 30
0.0
 10
-0.9980397271
 20
-24.4388980013
 30
0.0
 10
-0.9699513839
 20
-24.423521449
 30
0.0
 10
-0.9316225892
 20
-24.392750908
 30
0.0
 10
-0.9007608016
 20
-24.3518801412
 30
0.0
 10
-0.8675028252
 20
-24.2848648166
 30
0.0
 10
-0.8447555358
 20
-24.1840944148
 30
0.0
 10
-0.8436971609
 20
-24.0516949101
 30
0.0
 10
-0.8656245968
 20
-23.9095470837
 30
0.0
 10
-0.915137721
 20
-23.7666764636
 30
0.0
 10
-0.9769086968
 20
-23.654081161
 30
0.0
 10
-1.0365229692
 20
-23.5722058406
 30
0.0
 10
-1.0696707374
 20
-23.5349862363
 30
0.0
 10
-1.0873940564
 20
-23.5182938644
 30
0.0
 11
-1.0124069032
 21
-24.4460816079
 31
0.0
 11
-0.9705396533
 21
-24.4222213279
 31
0.0
 11
-0.9337280102
 21
-24.3919958954
 31
0.0
 11
-0.9028478609
 21
-24.3521486433
 31
0.0
 11
-0.8783753797
 21
-24.3037171822
 31
0.0
 11
-0.8498147151
 21
-24.1883823222
 31
0.0
 11
-0.8471495842
 21
-24.0556807711
 31
0.0
 11
-0.8692718845
 21
-23.9134641309
 31
0.0
 11
-0.918827029
 21
-23.7690248728
 31
0.0
 11
-0.9932452129
 21
-23.6334550396
 31
0.0
 11
-1.0381031443
 21
-23.5721934732
 31
0.0
 11
-1.0873940564
 21
-23.5182938644
 31
0.0
  0
SPLINE
  5
3C9
100
AcDbEntity
  8
0
100
AcDbSpline
 62
7
  6
CONTINUOUS
 70
0
 71
3
 72
18
 73
14
 74
12
 42
0.0000001
 43
0.0000001
 44
0.0000000001
 12
0.9411995866
 22
0.4706000917
 32
0.0
 13
-0.76602965
 23
0.7214705007
 33
0.0
 40
0.0
 40
0.0
 40
0.0
 40
0.0
 40
0.0457942883
 40
0.0910579125
 40
0.1389648735
 40
0.1905316105
 40
0.3034455099
 40
0.4295779652
 40
0.5663525637
 40
0.7114677306
 40
0.8584344238
 40
0.9305901896
 40
1.0
 40
1.0
 40
1.0
 40
1.0
 10
-1.1538284652
 20
-24.5167923889
 30
0.0
 10
-1.1394612768
 20
-24.5096087902
 30
0.0
 10
-1.1113729211
 20
-24.4942322398
 30
0.0
 10
-1.0730440858
 20
-24.4634617348
 30
0.0
 10
-1.0421822606
 20
-24.4225909899
 30
0.0
 10
-1.0089242414
 20
-24.3555756807
 30
0.0
 10
-0.9861769076
 20
-24.2548052743
 30
0.0
 10
-0.9851185041
 20
-24.1224057472
 30
0.0
 10
-1.0070459195
 20
-23.980257886
 30
0.0
 10
-1.0565590388
 20
-23.8373872221
 30
0.0
 10
-1.118330024
 20
-23.7247918827
 30
0.0
 10
-1.177944311
 20
-23.6429165358
 30
0.0
 10
-1.2110920883
 20
-23.6056969194
 30
0.0
 10
-1.2288154126
 20
-23.5890045425
 30
0.0
 11
-1.1538284652
 21
-24.5167923889
 31
0.0
 11
-1.1119611825
 21
-24.4929321211
 31
0.0
 11
-1.0751495052
 21
-24.4627067161
 31
0.0
 11
-1.0442693224
 21
-24.4228594901
 31
0.0
 11
-1.01979681
 21
-24.3744280427
 31
0.0
 11
-0.9912360934
 21
-24.2590931831
 31
0.0
 11
-0.9885709295
 21
-24.126391611
 31
0.0
 11
-1.0106932095
 21
-23.9841749358
 31
0.0
 11
-1.0602483485
 21
-23.8397356339
 31
0.0
 11
-1.1346665443
 21
-23.7041657549
 31
0.0
 11
-1.1795244868
 21
-23.6429041683
 31
0.0
 11
-1.2288154126
 21
-23.5890045425
 31
0.0
  0
SPLINE
  5
3CA
100
AcDbEntity
  8
RACCORDO
100
AcDbSpline
 62
7
  6
CONTINUOUS
 70
0
 71
3
 72
9
 73
5
 74
3
 42
0.0000001
 43
0.0000001
 44
0.0000000001
 12
0.1930649768
 22
-0.0965089886
 32
0.0
 13
0.1468093463
 23
-0.1582247958
 33
0.0
 40
0.0
 40
0.0
 40
0.0
 40
0.0
 40
0.2333728347
 40
1.0
 40
1.0
 40
1.0
 40
1.0
 10
12.3767828867
 20
10.5747509431
 30
0.0
 10
12.3918015937
 20
10.5672434177
 30
0.0
 10
12.4543985128
 20
10.5315741935
 30
0.0
 10
12.5095525446
 20
10.4836378296
 30
0.0
 10
12.5470685556
 20
10.4432046874
 30
0.0
 11
12.3767828867
 21
10.5747509431
 31
0.0
 11
12.4206130735
 21
10.549926858
 31
0.0
 11
12.5470685556
 21
10.4432046874
 31
0.0
  0
SPLINE
  5
3CB
100
AcDbEntity
  8
RACCORDO
100
AcDbSpline
 62
7
  6
CONTINUOUS
 70
0
 71
3
 72
9
 73
5
 74
3
 42
0.0000001
 43
0.0000001
 44
0.0000000001
 12
0.3040345562
 22
-0.3276753613
 32
0.0
 13
0.109874452
 23
-0.4332848469
 33
0.0
 40
0.0
 40
0.0
 40
0.0
 40
0.0
 40
0.4971408959
 40
1.0
 40
1.0
 40
1.0
 40
1.0
 10
12.5470685556
 20
10.4432046874
 30
0.0
 10
12.5974512261
 20
10.3889044132
 30
0.0
 10
12.6832271102
 20
10.2647787942
 30
0.0
 10
12.7375993268
 20
10.1244515476
 30
0.0
 10
12.7560164497
 20
10.051824471
 30
0.0
 11
12.5470685556
 21
10.4432046874
 31
0.0
 11
12.6749752386
 21
10.2614843531
 31
0.0
 11
12.7560164497
 21
10.051824471
 31
0.0
  0
SPLINE
  5
3CC
100
AcDbEntity
  8
RACCORDO
100
AcDbSpline
 62
7
  6
CONTINUOUS
 70
0
 71
3
 72
9
 73
5
 74
3
 42
0.0000001
 43
0.0000001
 44
0.0000000001
 12
0.0495971183
 22
-0.1955839544
 32
0.0
 13
0.0000039825
 23
-0.2017745211
 33
0.0
 40
0.0
 40
0.0
 40
0.0
 40
0.0
 40
0.2600359301
 40
1.0
 40
1.0
 40
1.0
 40
1.0
 10
12.7560164497
 20
10.051824471
 30
0.0
 10
12.7603154606
 20
10.0348715191
 30
0.0
 10
12.7749527938
 20
9.9692237591
 30
0.0
 10
12.7820046762
 20
9.9017863196
 30
0.0
 10
12.7820056585
 20
9.8520176877
 30
0.0
 11
12.7560164497
 21
10.051824471
 31
0.0
 11
12.7674150075
 21
10.0006089507
 31
0.0
 11
12.7820056585
 21
9.8520176877
 31
0.0
  0
SPLINE
  5
3CD
100
AcDbEntity
  8
RACCORDO
100
AcDbSpline
 62
7
  6
CONTINUOUS
 70
0
 71
3
 72
15
 73
11
 74
9
 42
0.0000001
 43
0.0000001
 44
0.0000000001
 12
-0.0000295858
 22
0.6465588913
 32
0.0
 13
0.578284617
 23
-0.289180398
 33
0.0
 40
0.0
 40
0.0
 40
0.0
 40
0.0
 40
0.1487692636
 40
0.2853510766
 40
0.4094831024
 40
0.5236201584
 40
0.6329787999
 40
0.7448201925
 40
0.8659415831
 40
1.0
 40
1.0
 40
1.0
 40
1.0
 10
-20.0298501656
 20
26.2579455998
 30
0.0
 10
-20.0298516328
 20
26.2900082965
 30
0.0
 10
-20.0256872404
 20
26.3516440769
 30
0.0
 10
-20.00490433
 20
26.4379349377
 30
0.0
 10
-19.9694806835
 20
26.5113990238
 30
0.0
 10
-19.9193566439
 20
26.5686020114
 30
0.0
 10
-19.85552169
 20
26.6054186861
 30
0.0
 10
-19.7815851057
 20
26.6187593627
 30
0.0
 10
-19.7021618943
 20
26.6085554438
 30
0.0
 10
-19.6504687007
 20
26.5883784388
 30
0.0
 10
-19.6246273939
 20
26.5754560834
 30
0.0
 11
-20.0298501656
 21
26.2579455998
 31
0.0
 11
-20.0227047425
 21
26.3538679206
 31
0.0
 11
-20.001142296
 21
26.4395031736
 31
0.0
 11
-19.9653228371
 21
26.5113253128
 31
0.0
 11
-19.9159763622
 21
26.5661962843
 31
0.0
 11
-19.8546088608
 21
26.6013172413
 31
0.0
 11
-19.7835672428
 21
26.6148124497
 31
0.0
 11
-19.7057562054
 21
26.6059677139
 31
0.0
 11
-19.6246273939
 21
26.5754560834
 31
0.0
  0
SPLINE
  5
3CE
100
AcDbEntity
  8
RACCORDO
100
AcDbSpline
 62
7
  6
CONTINUOUS
 70
0
 71
3
 72
11
 73
7
 74
5
 42
0.0000001
 43
0.0000001
 44
0.0000000001
 12
-0.7725973885
 22
0.3861779887
 32
0.0
 13
0.0000393068
 23
0.8637361646
 33
0.0
 40
0.0
 40
0.0
 40
0.0
 40
0.0
 40
0.2302797065
 40
0.4899448663
 40
0.7543047
 40
1.0
 40
1.0
 40
1.0
 40
1.0
 10
-19.6246273939
 20
-14.0044360722
 30
0.0
 10
-19.6839318938
 20
-13.9747930876
 30
0.0
 10
-19.797044646
 20
-13.8853115966
 30
0.0
 10
-19.9245331564
 20
-13.706948587
 30
0.0
 10
-20.008182744
 20
-13.4996302279
 30
0.0
 10
-20.0298533848
 20
-13.3524414555
 30
0.0
 10
-20.0298501656
 20
-13.2817028168
 30
0.0
 11
-19.6246273939
 21
-14.0044360722
 31
0.0
 11
-19.7835657932
 21
-13.8848528063
 31
0.0
 11
-19.9159758649
 21
-13.7038277433
 31
0.0
 11
-20.001142189
 21
-13.4919679999
 31
0.0
 11
-20.0298501656
 21
-13.2817028168
 31
0.0
  0
SPLINE
  5
3CF
100
AcDbEntity
  8
RACCORDO
100
AcDbSpline
 62
7
  6
CONTINUOUS
 70
0
 71
3
 72
15
 73
11
 74
9
 42
0.0000001
 43
0.0000001
 44
0.0000000001
 12
0.0000285072
 22
0.4348568719
 32
0.0
 13
0.3889721009
 23
-0.1944253189
 33
0.0
 40
0.0
 40
0.0
 40
0.0
 40
0.0
 40
0.1489156738
 40
0.2843869693
 40
0.4071908658
 40
0.5206712066
 40
0.6305281697
 40
0.7435187235
 40
0.8655203103
 40
1.0
 40
1.0
 40
1.0
 40
1.0
 10
-21.7272367417
 20
29.4655077438
 30
0.0
 10
-21.7272353267
 20
29.4870934118
 30
0.0
 10
-21.7241138116
 20
29.5284329473
 30
0.0
 10
-21.7086427085
 20
29.5858160332
 30
0.0
 10
-21.6828388012
 20
29.6337885287
 30
0.0
 10
-21.647218568
 20
29.6702116824
 30
0.0
 10
-21.6031066221
 20
29.6929428417
 30
0.0
 10
-21.5529108989
 20
29.7006361445
 30
0.0
 10
-21.4992685339
 20
29.6935562508
 30
0.0
 10
-21.464156732
 20
29.6803224181
 30
0.0
 10
-21.4467204495
 20
29.6716069993
 30
0.0
 11
-21.7272367417
 21
29.4655077438
 31
0.0
 11
-21.721859404
 21
29.5300410982
 31
0.0
 11
-21.7059290449
 21
29.5867569274
 31
0.0
 11
-21.6800537877
 21
29.6334715644
 31
0.0
 11
-21.6452167303
 21
29.6684226092
 31
0.0
 11
-21.6027377175
 21
29.6902790213
 31
0.0
 11
-21.5542427363
 21
29.6981820207
 31
0.0
 11
-21.5015611947
 21
29.6919130308
 31
0.0
 11
-21.4467204495
 21
29.6716069993
 31
0.0
  0
SPLINE
  5
3D0
100
AcDbEntity
  8
0
100
AcDbSpline
 62
7
  6
CONTINUOUS
 70
0
 71
3
 72
9
 73
5
 74
3
 42
0.0000001
 43
0.0000001
 44
0.0000000001
 12
-0.1087199623
 22
0.5446236221
 32
0.0
 13
-0.1090135263
 23
0.5445649374
 33
0.0
 40
0.0
 40
0.0
 40
0.0
 40
0.0
 40
0.4998343578
 40
1.0
 40
1.0
 40
1.0
 40
1.0
 10
-0.912254628
 20
-25.525393295
 30
0.0
 10
-0.9303686188
 20
-25.4346527621
 30
0.0
 10
-0.9647699864
 20
-25.2527508181
 30
0.0
 10
-1.0000341892
 20
-25.0710160241
 30
0.0
 10
-1.0182091293
 20
-24.9802251336
 30
0.0
 11
-0.912254628
 21
-25.525393295
 31
0.0
 11
-0.9649741557
 21
-25.2528528392
 31
0.0
 11
-1.0182091293
 21
-24.9802251336
 31
0.0
  0
SPLINE
  5
3D1
100
AcDbEntity
  8
0
100
AcDbSpline
 62
7
  6
CONTINUOUS
 70
0
 71
3
 72
11
 73
7
 74
5
 42
0.0000001
 43
0.0000001
 44
0.0000000001
 12
-0.09222245
 22
0.4607091916
 32
0.0
 13
-0.3160146717
 23
0.3476962277
 33
0.0
 40
0.0
 40
0.0
 40
0.0
 40
0.0
 40
0.2378451234
 40
0.4941132154
 40
0.7548722841
 40
1.0
 40
1.0
 40
1.0
 40
1.0
 10
-1.0182091293
 20
-24.9802251336
 30
0.0
 10
-1.0255206826
 20
-24.943699322
 30
0.0
 10
-1.0401558038
 20
-24.867694301
 30
0.0
 10
-1.0715614244
 20
-24.7534960306
 30
0.0
 10
-1.1160964823
 20
-24.642478302
 30
0.0
 10
-1.1593677205
 20
-24.5748205908
 30
0.0
 10
-1.1851890388
 20
-24.5464105967
 30
0.0
 11
-1.0182091293
 21
-24.9802251336
 31
0.0
 11
-1.040982271
 21
-24.8708188838
 31
0.0
 11
-1.0735122444
 21
-24.7548891165
 31
0.0
 11
-1.1206526447
 21
-24.6418038249
 31
0.0
 11
-1.1851890388
 21
-24.5464105967
 31
0.0
  0
SPLINE
  5
3D2
100
AcDbEntity
  8
0
100
AcDbSpline
 62
7
  6
CONTINUOUS
 70
0
 71
3
 72
11
 73
7
 74
5
 42
0.0000001
 43
0.0000001
 44
0.0000000001
 12
-0.6333494509
 22
0.5969143223
 32
0.0
 13
-0.8289470693
 23
0.2651131674
 33
0.0
 40
0.0
 40
0.0
 40
0.0
 40
0.0
 40
0.2725542141
 40
0.5262218346
 40
0.7671916502
 40
1.0
 40
1.0
 40
1.0
 40
1.0
 10
-1.2288154126
 20
-23.5890045425
 30
0.0
 10
-1.2863560999
 20
-23.5347740378
 30
0.0
 10
-1.4095945313
 20
-23.4428765728
 30
0.0
 10
-1.6048318206
 20
-23.3353361406
 30
0.0
 10
-1.7991989117
 20
-23.2523687508
 30
0.0
 10
-1.9293611788
 20
-23.2079948941
 30
0.0
 10
-1.9936897785
 20
-23.1874213745
 30
0.0
 11
-1.2288154126
 21
-23.5890045425
 31
0.0
 11
-1.4168817295
 21
-23.4444432565
 31
0.0
 11
-1.6097163902
 21
-23.336954327
 31
0.0
 11
-1.8023038537
 21
-23.2539373417
 31
0.0
 11
-1.9936897785
 21
-23.1874213745
 31
0.0
  0
SPLINE
  5
3D3
100
AcDbEntity
  8
RACCORDO
100
AcDbSpline
 62
7
  6
CONTINUOUS
 70
0
 71
3
 72
11
 73
7
 74
5
 42
0.0000001
 43
0.0000001
 44
0.0000000001
 12
0.0000149406
 22
-0.1443839658
 32
0.0
 13
0.129140946
 23
-0.0645704723
 33
0.0
 40
0.0
 40
0.0
 40
0.0
 40
0.0
 40
0.2065459792
 40
0.4344524192
 40
0.697695169
 40
1.0
 40
1.0
 40
1.0
 40
1.0
 10
-21.8150914349
 20
-14.6858123827
 30
0.0
 10
-21.8150904062
 20
-14.6957530253
 30
0.0
 10
-21.8107216505
 20
-14.7168260399
 30
0.0
 10
-21.792376808
 20
-14.7455865293
 30
0.0
 10
-21.7637828281
 20
-14.7713865105
 30
0.0
 10
-21.7402500523
 20
-14.7853717296
 30
0.0
 10
-21.7272367417
 20
-14.7918783848
 30
0.0
 11
-21.8150914349
 21
-14.6858123827
 31
0.0
 11
-21.8093419769
 21
-14.7150748349
 31
0.0
 11
-21.7922754641
 21
-14.7432091793
 31
0.0
 11
-21.7645076293
 21
-14.769162173
 31
0.0
 11
-21.7272367417
 21
-14.7918783848
 31
0.0
  0
SPLINE
  5
3D4
100
AcDbEntity
  8
RACCORDO
100
AcDbSpline
 62
7
  6
CONTINUOUS
 70
0
 71
3
 72
11
 73
7
 74
5
 42
0.0000001
 43
0.0000001
 44
0.0000000001
 12
0.0000149435
 22
-0.1443839616
 32
0.0
 13
0.1291409438
 23
-0.0645704673
 33
0.0
 40
0.0
 40
0.0
 40
0.0
 40
0.0
 40
0.2065459795
 40
0.4344524194
 40
0.6976951678
 40
1.0
 40
1.0
 40
1.0
 40
1.0
 10
-21.8150914348
 20
29.5715737405
 30
0.0
 10
-21.815090406
 20
29.5616330983
 30
0.0
 10
-21.8107216501
 20
29.5405600843
 30
0.0
 10
-21.7923768072
 20
29.5117995964
 30
0.0
 10
-21.7637828277
 20
29.4859996165
 30
0.0
 10
-21.7402500522
 20
29.4720143986
 30
0.0
 10
-21.7272367417
 20
29.4655077438
 30
0.0
 11
-21.8150914348
 21
29.5715737405
 31
0.0
 11
-21.8093419764
 21
29.5423112893
 31
0.0
 11
-21.7922754634
 21
29.5141769462
 31
0.0
 11
-21.7645076289
 21
29.4882239541
 31
0.0
 11
-21.7272367417
 21
29.4655077438
 31
0.0
  0
SPLINE
  5
3D5
100
AcDbEntity
  8
RACCORDO
100
AcDbSpline
 62
7
  6
CONTINUOUS
 70
0
 71
3
 72
11
 73
7
 74
5
 42
0.0000001
 43
0.0000001
 44
0.0000000001
 12
-0.388888196
 22
-0.1877724662
 32
0.0
 13
-0.3862564261
 23
0.1931281992
 33
0.0
 40
0.0
 40
0.0
 40
0.0
 40
0.0
 40
0.2366411464
 40
0.5012534856
 40
0.7651925916
 40
1.0
 40
1.0
 40
1.0
 40
1.0
 10
14.8999217801
 20
-32.8970278246
 30
0.0
 10
14.8692461306
 20
-32.9118393885
 30
0.0
 10
14.7992879209
 20
-32.9328976306
 30
0.0
 10
14.6889881734
 20
-32.9426411817
 30
0.0
 10
14.5790408308
 20
-32.9319900199
 30
0.0
 10
14.5096241914
 20
-32.9103088502
 30
0.0
 10
14.4793922346
 20
-32.8951928729
 30
0.0
 11
14.8999217801
 21
-32.8970278246
 31
0.0
 11
14.8026801108
 21
-32.9284516823
 31
0.0
 11
14.6889064146
 21
-32.9391144706
 31
0.0
 11
14.5755222332
 21
-32.9274604914
 31
0.0
 11
14.4793922346
 21
-32.8951928729
 31
0.0
  0
SPLINE
  5
3D6
100
AcDbEntity
  8
RACCORDO
100
AcDbSpline
 62
7
  6
CONTINUOUS
 70
0
 71
3
 72
11
 73
7
 74
5
 42
0.0000001
 43
0.0000001
 44
0.0000000001
 12
-0.3888881901
 22
-0.1877724818
 32
0.0
 13
-0.3862564227
 23
0.1931282092
 33
0.0
 40
0.0
 40
0.0
 40
0.0
 40
0.0
 40
0.2366411463
 40
0.5012534836
 40
0.7651925891
 40
1.0
 40
1.0
 40
1.0
 40
1.0
 10
14.8999217801
 20
11.3603583011
 30
0.0
 10
14.869246131
 20
11.345546736
 30
0.0
 10
14.7992879215
 20
11.3244884926
 30
0.0
 10
14.6889881739
 20
11.3147449429
 30
0.0
 10
14.579040831
 20
11.3253961061
 30
0.0
 10
14.5096241914
 20
11.3470772774
 30
0.0
 10
14.4793922346
 20
11.3621932557
 30
0.0
 11
14.8999217801
 21
11.3603583011
 31
0.0
 11
14.8026801111
 21
11.3289344414
 31
0.0
 11
14.6889064152
 21
11.3182716539
 31
0.0
 11
14.5755222339
 21
11.3299256348
 31
0.0
 11
14.4793922346
 21
11.3621932557
 31
0.0
  0
SPLINE
  5
3D7
100
AcDbEntity
  8
RACCORDO
100
AcDbSpline
 62
7
  6
CONTINUOUS
 70
0
 71
3
 72
11
 73
7
 74
5
 42
0.0000001
 43
0.0000001
 44
0.0000000001
 12
-0.3869291685
 22
-0.2017363581
 32
0.0
 13
0.0000000016
 23
-0.4363619365
 33
0.0
 40
0.0
 40
0.0
 40
0.0
 40
0.0
 40
0.2307483952
 40
0.4893409435
 40
0.7537520457
 40
1.0
 40
1.0
 40
1.0
 40
1.0
 10
-21.2360072863
 20
30.0344482887
 30
0.0
 10
-21.2657683812
 20
30.0189315084
 30
0.0
 10
-21.3224412368
 20
29.9735675146
 30
0.0
 10
-21.3878154369
 20
29.884400735
 30
0.0
 10
-21.4322178901
 20
29.7806905299
 30
0.0
 10
-21.4444371077
 20
29.706283073
 30
0.0
 10
-21.4444371076
 20
29.6704653283
 30
0.0
 11
-21.2360072863
 21
30.0344482887
 31
0.0
 11
-21.3160519809
 21
29.9733640353
 31
0.0
 11
-21.3836016183
 21
29.8829765378
 31
0.0
 11
-21.428639729
 21
29.7767509829
 31
0.0
 11
-21.4444371076
 21
29.6704653283
 31
0.0
  0
SPLINE
  5
3D8
100
AcDbEntity
  8
RACCORDO
100
AcDbSpline
 62
7
  6
CONTINUOUS
 70
0
 71
3
 72
11
 73
7
 74
5
 42
0.0000001
 43
0.0000001
 44
0.0000000001
 12
-0.3869291761
 22
-0.2017363465
 32
0.0
 13
0.0000000104
 23
-0.4363619379
 33
0.0
 40
0.0
 40
0.0
 40
0.0
 40
0.0
 40
0.2307483971
 40
0.4893409449
 40
0.7537520468
 40
1.0
 40
1.0
 40
1.0
 40
1.0
 10
14.4050224193
 20
12.2139334359
 30
0.0
 10
14.3752613236
 20
12.1984166564
 30
0.0
 10
14.3185884666
 20
12.153052663
 30
0.0
 10
14.2532142674
 20
12.063885882
 30
0.0
 10
14.2088118156
 20
11.9601756761
 30
0.0
 10
14.1965925995
 20
11.885768219
 30
0.0
 10
14.1965926004
 20
11.8499504743
 30
0.0
 11
14.4050224193
 21
12.2139334359
 31
0.0
 11
14.3249777227
 21
12.1528491831
 31
0.0
 11
14.257428086
 21
12.0624616849
 31
0.0
 11
14.2123899769
 21
11.9562361291
 31
0.0
 11
14.1965926004
 21
11.8499504743
 31
0.0
  0
SPLINE
  5
3D9
100
AcDbEntity
  8
RACCORDO
100
AcDbSpline
 62
7
  6
CONTINUOUS
 70
0
 71
3
 72
11
 73
7
 74
5
 42
0.0000001
 43
0.0000001
 44
0.0000000001
 12
-0.299686386
 22
0.1475513079
 32
0.0
 13
-0.2939687779
 23
-0.1586369315
 33
0.0
 40
0.0
 40
0.0
 40
0.0
 40
0.0
 40
0.2797829828
 40
0.535973102
 40
0.7731347539
 40
1.0
 40
1.0
 40
1.0
 40
1.0
 10
-21.2360072877
 20
30.0344482894
 30
0.0
 10
-21.263956338
 20
30.0482090711
 30
0.0
 10
-21.3198190749
 20
30.0702977096
 30
0.0
 10
-21.4052997981
 20
30.0852960079
 30
0.0
 10
-21.486179587
 20
30.0796901538
 30
0.0
 10
-21.5355297692
 20
30.0617657633
 30
0.0
 10
-21.5577602022
 20
30.0497693611
 30
0.0
 11
-21.2360072877
 21
30.0344482894
 31
0.0
 11
-21.3232036051
 21
30.0680842668
 31
0.0
 11
-21.4076345257
 21
30.0820488531
 31
0.0
 11
-21.4866149921
 21
30.0758713043
 31
0.0
 11
-21.5577602022
 21
30.0497693611
 31
0.0
  0
SPLINE
  5
3DA
100
AcDbEntity
  8
RACCORDO
100
AcDbSpline
 62
7
  6
CONTINUOUS
 70
0
 71
3
 72
11
 73
7
 74
5
 42
0.0000001
 43
0.0000001
 44
0.0000000001
 12
-0.0064397843
 22
1.0264956433
 32
0.0
 13
-0.9152946272
 23
0.4647262871
 33
0.0
 40
0.0
 40
0.0
 40
0.0
 40
0.0
 40
0.2466773324
 40
0.5119103822
 40
0.7706310354
 40
1.0
 40
1.0
 40
1.0
 40
1.0
 10
14.8999217801
 20
11.3603583028
 30
0.0
 10
14.8993922638
 20
11.4447627051
 30
0.0
 10
14.8693855079
 20
11.6200218514
 30
0.0
 10
14.7634310573
 20
11.8638468194
 30
0.0
 10
14.6086953854
 20
12.0726969378
 30
0.0
 10
14.4750024806
 20
12.178402173
 30
0.0
 10
14.4050224203
 20
12.2139334354
 30
0.0
 11
14.8999217801
 21
11.3603583028
 31
0.0
 11
14.8610976895
 21
11.6105824856
 31
0.0
 11
14.7534172362
 21
11.8606497874
 31
0.0
 11
14.5932714992
 21
12.0725142029
 31
0.0
 11
14.4050224203
 21
12.2139334354
 31
0.0
  0
SPLINE
  5
3DB
100
AcDbEntity
  8
RACCORDO
100
AcDbSpline
 62
7
  6
CONTINUOUS
 70
0
 71
3
 72
8
 73
4
 74
2
 42
0.0000001
 43
0.0000001
 44
0.0000000001
 12
-0.0001078811
 22
-0.0044165923
 32
0.0
 13
0.0011411576
 23
-0.0042679838
 33
0.0
 40
0.0
 40
0.0
 40
0.0
 40
0.0
 40
1.0
 40
1.0
 40
1.0
 40
1.0
 10
-18.4095026844
 20
-12.4039611204
 30
0.0
 10
-18.4095386448
 20
-12.4054333178
 30
0.0
 10
-18.4093909756
 20
-12.406928877
 30
0.0
 10
-18.4090105898
 20
-12.4083515382
 30
0.0
 11
-18.4095026844
 21
-12.4039611204
 31
0.0
 11
-18.4090105898
 21
-12.4083515382
 31
0.0
  0
SPLINE
  5
3DC
100
AcDbEntity
  8
RACCORDO
100
AcDbSpline
 62
7
  6
CONTINUOUS
 70
0
 71
3
 72
8
 73
4
 74
2
 42
0.0000001
 43
0.0000001
 44
0.0000000001
 12
0.0059652128
 22
-0.0053567328
 32
0.0
 13
0.0072571934
 23
-0.0034075644
 33
0.0
 40
0.0
 40
0.0
 40
0.0
 40
0.0
 40
1.0
 40
1.0
 40
1.0
 40
1.0
 10
-18.1722459773
 20
-12.7493496395
 30
0.0
 10
-18.170257573
 20
-12.7511352171
 30
0.0
 10
-18.1679405588
 20
-12.752579524
 30
0.0
 10
-18.1655214943
 20
-12.7537153788
 30
0.0
 11
-18.1722459773
 21
-12.7493496395
 31
0.0
 11
-18.1655214943
 21
-12.7537153788
 31
0.0
  0
SPLINE
  5
3DD
100
AcDbEntity
  8
RACCORDO
100
AcDbSpline
 62
7
  6
CONTINUOUS
 70
0
 71
3
 72
12
 73
8
 74
6
 42
0.0000001
 43
0.0000001
 44
0.0000000001
 12
0.1059273416
 22
-0.4051874558
 32
0.0
 13
0.3121384675
 23
-0.2792258103
 33
0.0
 40
0.0
 40
0.0
 40
0.0
 40
0.0
 40
0.1121053498
 40
0.2348834706
 40
0.5037471538
 40
0.7736368256
 40
1.0
 40
1.0
 40
1.0
 40
1.0
 10
-18.4090105898
 20
-12.4083515382
 30
0.0
 10
-18.4050522492
 20
-12.4234927654
 30
0.0
 10
-18.3929830636
 20
-12.4541783591
 30
0.0
 10
-18.360821602
 20
-12.516733212
 30
0.0
 10
-18.3101801681
 20
-12.5942728506
 30
0.0
 10
-18.2438334917
 20
-12.678082944
 30
0.0
 10
-18.1957981954
 20
-12.7282808259
 30
0.0
 10
-18.1722459773
 20
-12.7493496395
 30
0.0
 11
-18.4090105898
 21
-12.4083515382
 31
0.0
 11
-18.3928647495
 21
-12.4524382576
 31
0.0
 11
-18.3696592429
 21
-12.4983242894
 31
0.0
 11
-18.3088951261
 21
-12.593123017
 31
0.0
 11
-18.2385793372
 21
-12.6816200129
 31
0.0
 11
-18.1722459773
 21
-12.7493496395
 31
0.0
  0
SPLINE
  5
3DE
100
AcDbEntity
  8
RACCORDO
100
AcDbSpline
 62
7
  6
CONTINUOUS
 70
0
 71
3
 72
11
 73
7
 74
5
 42
0.0000001
 43
0.0000001
 44
0.0000000001
 12
-0.0833039604
 22
-0.4359360771
 32
0.0
 13
0.3930895258
 23
-0.2060593067
 33
0.0
 40
0.0
 40
0.0
 40
0.0
 40
0.0
 40
0.2511517232
 40
0.4487454643
 40
0.6468957372
 40
1.0
 40
1.0
 40
1.0
 40
1.0
 10
-18.4693857879
 20
-12.4409516799
 30
0.0
 10
-18.4763597657
 20
-12.4774470455
 30
0.0
 10
-18.476327575
 20
-12.5452510972
 30
0.0
 10
-18.4528200144
 20
-12.6386696087
 30
0.0
 10
-18.4048165783
 20
-12.7386815792
 30
0.0
 10
-18.3457397738
 20
-12.8017756588
 30
0.0
 10
-18.299472578
 20
-12.826029132
 30
0.0
 11
-18.4693857879
 21
-12.4409516799
 31
0.0
 11
-18.4712258794
 21
-12.552403673
 31
0.0
 11
-18.4501010999
 21
-12.6375182016
 31
0.0
 11
-18.4116822659
 21
-12.7166264573
 31
0.0
 11
-18.299472578
 21
-12.826029132
 31
0.0
  0
SPLINE
  5
3DF
100
AcDbEntity
  8
RACCORDO
100
AcDbSpline
 62
7
  6
CONTINUOUS
 70
0
 71
3
 72
12
 73
8
 74
6
 42
0.0000001
 43
0.0000001
 44
0.0000000001
 12
-0.4413452292
 22
0.1390621597
 32
0.0
 13
0.1107198084
 23
0.4492939123
 33
0.0
 40
0.0
 40
0.0
 40
0.0
 40
0.0
 40
0.1130792623
 40
0.2328059829
 40
0.4871959542
 40
0.7477930862
 40
1.0
 40
1.0
 40
1.0
 40
1.0
 10
-19.4850648516
 20
-13.6905008363
 30
0.0
 10
-19.5017005159
 20
-13.6852591542
 30
0.0
 10
-19.5347003709
 20
-13.6699744604
 30
0.0
 10
-19.5933439535
 20
-13.6218681906
 30
0.0
 10
-19.6441295893
 20
-13.5343555896
 30
0.0
 10
-19.6640295912
 20
-13.4159304796
 30
0.0
 10
-19.6549533722
 20
-13.3362816184
 30
0.0
 10
-19.6456452718
 20
-13.2985099414
 30
0.0
 11
-19.4850648516
 21
-13.6905008363
 31
0.0
 11
-19.5325838746
 21
-13.668593589
 31
0.0
 11
-19.5755883231
 21
-13.6336654666
 31
0.0
 11
-19.6368377964
 21
-13.5331399925
 31
0.0
 11
-19.6584682391
 21
-13.4145083653
 31
0.0
 11
-19.6456452718
 21
-13.2985099414
 31
0.0
  0
SPLINE
  5
3E0
100
AcDbEntity
  8
RACCORDO
100
AcDbSpline
 62
7
  6
CONTINUOUS
 70
0
 71
3
 72
13
 73
9
 74
7
 42
0.0000001
 43
0.0000001
 44
0.0000000001
 12
-0.0674751306
 22
0.2265639571
 32
0.0
 13
0.2363073813
 23
-0.006552971
 33
0.0
 40
0.0
 40
0.0
 40
0.0
 40
0.0
 40
0.2945589199
 40
0.424784954
 40
0.543462679
 40
0.6533946805
 40
0.7606774794
 40
1.0
 40
1.0
 40
1.0
 40
1.0
 10
-19.6456452691
 20
26.2411390846
 30
0.0
 10
-19.652270403
 20
26.2633845627
 30
0.0
 10
-19.6592623777
 20
26.2965651153
 30
0.0
 10
-19.6584986664
 20
26.3395691259
 30
0.0
 10
-19.6523795796
 20
26.3674286908
 30
0.0
 10
-19.6398916318
 20
26.3912338291
 30
0.0
 10
-19.6129372397
 20
26.4162067792
 30
0.0
 10
-19.5837695224
 20
26.4215386997
 30
0.0
 10
-19.5649182964
 20
26.4210159418
 30
0.0
 11
-19.6456452691
 21
26.2411390846
 31
0.0
 11
-19.6583182038
 21
26.3096093701
 31
0.0
 11
-19.6574163212
 21
26.3403813596
 31
0.0
 11
-19.6509905135
 21
26.3676907614
 31
0.0
 11
-19.6385767864
 21
26.3905219129
 31
0.0
 11
-19.619899117
 21
26.4076784998
 31
0.0
 11
-19.5649182964
 21
26.4210159418
 31
0.0
  0
SPLINE
  5
3E1
100
AcDbEntity
  8
RACCORDO
100
AcDbSpline
 62
7
  6
CONTINUOUS
 70
0
 71
3
 72
11
 73
7
 74
5
 42
0.0000001
 43
0.0000001
 44
0.0000000001
 12
0.407037927
 22
0.1895225457
 32
0.0
 13
0.0027915047
 23
0.4489887269
 33
0.0
 40
0.0
 40
0.0
 40
0.0
 40
0.0
 40
0.2166726031
 40
0.4495053433
 40
0.7094831531
 40
1.0
 40
1.0
 40
1.0
 40
1.0
 10
14.7099456543
 20
-33.2794691701
 30
0.0
 10
14.7393436434
 20
-33.2657810556
 30
0.0
 10
14.7952883422
 20
-33.2252931988
 30
0.0
 10
14.8555970971
 20
-33.1358415926
 30
0.0
 10
14.8920596662
 20
-33.0231742556
 30
0.0
 10
14.8996514537
 20
-32.9405074222
 30
0.0
 10
14.8999217801
 20
-32.8970278258
 30
0.0
 11
14.7099456543
 21
-33.2794691701
 31
0.0
 11
14.7891563826
 21
-33.2229880522
 31
0.0
 11
14.8490594111
 21
-33.1373112773
 31
0.0
 11
14.8866162395
 21
-33.0267887522
 31
0.0
 11
14.8999217801
 21
-32.8970278258
 31
0.0
  0
SPLINE
  5
3E2
100
AcDbEntity
  8
RACCORDO
100
AcDbSpline
 62
7
  6
CONTINUOUS
 70
0
 71
3
 72
11
 73
7
 74
5
 42
0.0000001
 43
0.0000001
 44
0.0000000001
 12
-0.1290177401
 22
0.0645089098
 32
0.0
 13
-0.0002138584
 23
0.1442460779
 33
0.0
 40
0.0
 40
0.0
 40
0.0
 40
0.0
 40
0.3021029428
 40
0.5655351349
 40
0.7935297513
 40
1.0
 40
1.0
 40
1.0
 40
1.0
 10
12.7820056585
 20
-29.6876307289
 30
0.0
 10
12.7690134455
 20
-29.6811346184
 30
0.0
 10
12.7455116796
 20
-29.6671549603
 30
0.0
 10
12.7169143851
 20
-29.6414038668
 30
0.0
 10
12.6985838914
 20
-29.6126687743
 30
0.0
 10
12.6941564491
 20
-29.5916302829
 30
0.0
 10
12.6941417307
 20
-29.5817027751
 30
0.0
 11
12.7820056585
 21
-29.6876307289
 31
0.0
 11
12.744795244
 21
-29.6649512556
 31
0.0
 11
12.7170173369
 21
-29.6390221283
 31
0.0
 11
12.6999418116
 21
-29.6109150965
 31
0.0
 11
12.6941417307
 21
-29.5817027751
 31
0.0
  0
SPLINE
  5
3E3
100
AcDbEntity
  8
RACCORDO
100
AcDbSpline
 62
7
  6
CONTINUOUS
 70
0
 71
3
 72
9
 73
5
 74
3
 42
0.0000001
 43
0.0000001
 44
0.0000000001
 12
0.0
 22
0.3499494896
 32
0.0
 13
0.2542494972
 23
0.2404617193
 33
0.0
 40
0.0
 40
0.0
 40
0.0
 40
0.0
 40
0.4929880284
 40
1.0
 40
1.0
 40
1.0
 40
1.0
 10
12.3767828867
 20
-30.0051412125
 30
0.0
 10
12.3767828867
 20
-29.9476342429
 30
0.0
 10
12.4065566639
 20
-29.8311089805
 30
0.0
 10
12.4733923127
 20
-29.7318515955
 30
0.0
 10
12.5163614923
 20
-29.6912126053
 30
0.0
 11
12.3767828867
 21
-30.0051412125
 31
0.0
 11
12.4151465315
 21
-29.8369398607
 31
0.0
 11
12.5163614923
 21
-29.6912126053
 31
0.0
  0
SPLINE
  5
3E4
100
AcDbEntity
  8
RACCORDO
100
AcDbSpline
 62
7
  6
CONTINUOUS
 70
0
 71
3
 72
9
 73
5
 74
3
 42
0.0000001
 43
0.0000001
 44
0.0000000001
 12
-0.0000000378
 22
0.3499494932
 32
0.0
 13
0.2542495257
 23
0.2404616945
 33
0.0
 40
0.0
 40
0.0
 40
0.0
 40
0.0
 40
0.4929880306
 40
1.0
 40
1.0
 40
1.0
 40
1.0
 10
-19.6246273939
 20
-14.0044360722
 30
0.0
 10
-19.6246274001
 20
-13.9469291017
 30
0.0
 10
-19.5948536288
 20
-13.8304038345
 30
0.0
 10
-19.5280179726
 20
-13.7311464508
 30
0.0
 10
-19.4850487883
 20
-13.690507465
 30
0.0
 11
-19.6246273939
 21
-14.0044360722
 31
0.0
 11
-19.5862637577
 21
-13.8362347157
 31
0.0
 11
-19.4850487883
 21
-13.690507465
 31
0.0
  0
SPLINE
  5
3E5
100
AcDbEntity
  8
RACCORDO
100
AcDbSpline
 62
7
  6
CONTINUOUS
 70
0
 71
3
 72
11
 73
7
 74
5
 42
0.0000001
 43
0.0000001
 44
0.0000000001
 12
0.351344799
 22
-0.1756723995
 32
0.0
 13
0.3707501259
 23
0.1298010165
 33
0.0
 40
0.0
 40
0.0
 40
0.0
 40
0.0
 40
0.2301996678
 40
0.4886873034
 40
0.7531669766
 40
1.0
 40
1.0
 40
1.0
 40
1.0
 10
-20.0298501656
 20
-13.2817028168
 30
0.0
 10
-20.002890347
 20
-13.2951827262
 30
0.0
 10
-19.9414652122
 20
-13.3154450556
 30
0.0
 10
-19.8432040001
 20
-13.3279952678
 30
0.0
 10
-19.7420443351
 20
-13.3237747813
 30
0.0
 10
-19.6761496586
 20
-13.3091893321
 30
0.0
 10
-19.6456452004
 20
-13.2985096063
 30
0.0
 11
-20.0298501656
 21
-13.2817028168
 31
0.0
 11
-19.9445036098
 21
-13.3115829677
 31
0.0
 11
-19.8438648541
 21
-13.3250660044
 31
0.0
 11
-19.7400724178
 21
-13.3205256736
 31
0.0
 11
-19.6456452004
 21
-13.2985096063
 31
0.0
  0
SPLINE
  5
3E6
100
AcDbEntity
  8
RACCORDO
100
AcDbSpline
 62
7
  6
CONTINUOUS
 70
0
 71
3
 72
11
 73
7
 74
5
 42
0.0000001
 43
0.0000001
 44
0.0000000001
 12
0.3513450544
 22
-0.1756717083
 32
0.0
 13
0.3707502832
 23
0.1298003232
 33
0.0
 40
0.0
 40
0.0
 40
0.0
 40
0.0
 40
0.2301995877
 40
0.4886872501
 40
0.753166985
 40
1.0
 40
1.0
 40
1.0
 40
1.0
 10
-20.0298501656
 20
26.2579455998
 30
0.0
 10
-20.0028903368
 20
26.2444657482
 30
0.0
 10
-19.9414652002
 20
26.2242035076
 30
0.0
 10
-19.8432040065
 20
26.2116533401
 30
0.0
 10
-19.7420443543
 20
26.21587378
 30
0.0
 10
-19.6761496705
 20
26.2304591419
 30
0.0
 10
-19.6456452004
 20
26.2411388103
 30
0.0
 11
-20.0298501656
 21
26.2579455998
 31
0.0
 11
-19.9445036168
 21
26.2280655806
 31
0.0
 11
-19.8438648655
 21
26.2145825885
 31
0.0
 11
-19.7400724242
 21
26.2191228728
 31
0.0
 11
-19.6456452004
 21
26.2411388103
 31
0.0
  0
SPLINE
  5
3E7
100
AcDbEntity
  8
RACCORDO
100
AcDbSpline
 62
7
  6
CONTINUOUS
 70
0
 71
3
 72
11
 73
7
 74
5
 42
0.0000001
 43
0.0000001
 44
0.0000000001
 12
0.0
 22
-0.1887151356
 32
0.0
 13
0.1686414792
 23
-0.0846962448
 33
0.0
 40
0.0
 40
0.0
 40
0.0
 40
0.0
 40
0.289561128
 40
0.5496260088
 40
0.7828372969
 40
1.0
 40
1.0
 40
1.0
 40
1.0
 10
-19.6246273939
 20
26.5754560834
 30
0.0
 10
-19.6246273939
 20
26.5572412275
 30
0.0
 10
-19.6216762081
 20
26.5225383298
 30
0.0
 10
-19.6068809939
 20
26.4750659102
 30
0.0
 10
-19.5821336966
 20
26.4370394636
 30
0.0
 10
-19.5590475785
 20
26.4194141409
 30
0.0
 10
-19.546840032
 20
26.4132831858
 30
0.0
 11
-19.6246273939
 21
26.5754560834
 31
0.0
 11
-19.6194538184
 21
26.5210569761
 31
0.0
 11
-19.6041886967
 21
26.4744131797
 31
0.0
 11
-19.5795910389
 21
26.4379182578
 31
0.0
 11
-19.546840032
 21
26.4132831858
 31
0.0
  0
SPLINE
  5
3E8
100
AcDbEntity
  8
RACCORDO
100
AcDbSpline
 62
7
  6
CONTINUOUS
 70
0
 71
3
 72
11
 73
7
 74
5
 42
0.0000001
 43
0.0000001
 44
0.0000000001
 12
0.0000000204
 22
-0.1889139627
 32
0.0
 13
0.1689716008
 23
-0.0844812608
 33
0.0
 40
0.0
 40
0.0
 40
0.0
 40
0.0
 40
0.2895956157
 40
0.5496517743
 40
0.782834843
 40
1.0
 40
1.0
 40
1.0
 40
1.0
 10
12.3767828867
 20
10.5747509431
 30
0.0
 10
12.3767828887
 20
10.5565147246
 30
0.0
 10
12.3797406345
 20
10.5217732461
 30
0.0
 10
12.3945717286
 20
10.4742556348
 30
0.0
 10
12.4193802583
 20
10.4362114698
 30
0.0
 10
12.4425187673
 20
10.4186032595
 30
0.0
 10
12.4547503487
 20
10.4124877974
 30
0.0
 11
12.3767828867
 21
10.5747509431
 31
0.0
 11
12.3819692159
 21
10.5202886721
 31
0.0
 11
12.3972714023
 21
10.4736043385
 31
0.0
 11
12.4219266777
 21
10.4370987861
 31
0.0
 11
12.4547503487
 21
10.4124877974
 31
0.0
  0
SPLINE
  5
3E9
100
AcDbEntity
  8
RACCORDO
100
AcDbSpline
 62
7
  6
CONTINUOUS
 70
0
 71
3
 72
11
 73
7
 74
5
 42
0.0000001
 43
0.0000001
 44
0.0000000001
 12
-0.1291394801
 22
0.0645697401
 32
0.0
 13
0.0000513271
 23
0.144382319
 33
0.0
 40
0.0
 40
0.0
 40
0.0
 40
0.0
 40
0.3021491765
 40
0.5655722792
 40
0.7935305764
 40
1.0
 40
1.0
 40
1.0
 40
1.0
 10
12.7820056585
 20
9.8520176877
 30
0.0
 10
12.768999196
 20
9.858520919
 30
0.0
 10
12.7454743801
 20
9.8725165983
 30
0.0
 10
12.7168587004
 20
9.8983031148
 30
0.0
 10
12.698535673
 20
9.92708119
 30
0.0
 10
12.6941381204
 20
9.9481468598
 30
0.0
 10
12.6941416529
 20
9.9580837045
 30
0.0
 11
12.7820056585
 21
9.8520176877
 31
0.0
 11
12.7447567913
 21
9.8747258943
 31
0.0
 11
12.7169644145
 21
9.9006901318
 31
0.0
 11
12.6999013237
 21
9.9288348712
 31
0.0
 11
12.6941416529
 21
9.9580837045
 31
0.0
  0
SPLINE
  5
3EA
100
AcDbEntity
  8
0
100
AcDbSpline
 62
7
  6
CONTINUOUS
 70
0
 71
3
 72
9
 73
5
 74
3
 42
0.0000001
 43
0.0000001
 44
0.0000000001
 12
-0.1087199623
 22
0.5446236221
 32
0.0
 13
-0.1090135263
 23
0.5445649374
 33
0.0
 40
0.0
 40
0.0
 40
0.0
 40
0.0
 40
0.4998343578
 40
1.0
 40
1.0
 40
1.0
 40
1.0
 10
-0.7708332718
 20
-25.4546826168
 30
0.0
 10
-0.7889472626
 20
-25.363942084
 30
0.0
 10
-0.8233486302
 20
-25.18204014
 30
0.0
 10
-0.8586128329
 20
-25.000305346
 30
0.0
 10
-0.8767877731
 20
-24.9095144554
 30
0.0
 11
-0.7708332718
 21
-25.4546826168
 31
0.0
 11
-0.8235527994
 21
-25.1821421611
 31
0.0
 11
-0.8767877731
 21
-24.9095144554
 31
0.0
  0
SPLINE
  5
3EB
100
AcDbEntity
  8
0
100
AcDbSpline
 62
7
  6
CONTINUOUS
 70
0
 71
3
 72
10
 73
6
 74
4
 42
0.0000001
 43
0.0000001
 44
0.0000000001
 12
-0.0804058017
 22
0.4016775949
 32
0.0
 13
-0.2254371496
 23
0.3420351953
 33
0.0
 40
0.0
 40
0.0
 40
0.0
 40
0.0
 40
0.2355949161
 40
0.6170368094
 40
1.0
 40
1.0
 40
1.0
 40
1.0
 10
-0.8767877731
 20
-24.9095144554
 30
0.0
 10
-0.8831021724
 20
-24.8779700557
 30
0.0
 10
-0.8990272898
 20
-24.7952038407
 30
0.0
 10
-0.9350057486
 20
-24.6633455729
 30
0.0
 10
-0.9782956529
 20
-24.5670429565
 30
0.0
 10
-1.0070736963
 20
-24.52338066
 30
0.0
 11
-0.8767877731
 21
-24.9095144554
 31
0.0
 11
-0.8961779038
 21
-24.8149718196
 31
0.0
 11
-0.938882267
 21
-24.664664333
 31
0.0
 11
-1.0070736963
 21
-24.52338066
 31
0.0
  0
SPLINE
  5
3EC
100
AcDbEntity
  8
0
100
AcDbSpline
 62
7
  6
CONTINUOUS
 70
0
 71
3
 72
9
 73
5
 74
3
 42
0.0000001
 43
0.0000001
 44
0.0000000001
 12
-0.0403341532
 22
0.0611953265
 32
0.0
 13
-0.051488138
 23
0.0521601721
 33
0.0
 40
0.0
 40
0.0
 40
0.0
 40
0.0
 40
0.2559962136
 40
1.0
 40
1.0
 40
1.0
 40
1.0
 10
-1.0070736963
 20
-24.52338066
 30
0.0
 10
-1.0105154931
 20
-24.518158736
 30
0.0
 10
-1.0243706607
 20
-24.4980398522
 30
0.0
 10
-1.0400188068
 20
-24.4791082489
 30
0.0
 10
-1.05278793
 20
-24.4661724604
 30
0.0
 11
-1.0070736963
 21
-24.52338066
 31
0.0
 11
-1.0177267352
 21
-24.5079358272
 31
0.0
 11
-1.05278793
 21
-24.4661724604
 31
0.0
  0
SPLINE
  5
3ED
100
AcDbEntity
  8
0
100
AcDbSpline
 62
7
  6
CONTINUOUS
 70
0
 71
3
 72
11
 73
7
 74
5
 42
0.0000001
 43
0.0000001
 44
0.0000000001
 12
-0.6333494509
 22
0.5969143223
 32
0.0
 13
-0.8289470693
 23
0.2651131674
 33
0.0
 40
0.0
 40
0.0
 40
0.0
 40
0.0
 40
0.2725542141
 40
0.5262218346
 40
0.7671916502
 40
1.0
 40
1.0
 40
1.0
 40
1.0
 10
-1.0873940564
 20
-23.5182938644
 30
0.0
 10
-1.1449347436
 20
-23.4640633597
 30
0.0
 10
-1.2681731751
 20
-23.3721658947
 30
0.0
 10
-1.4634104644
 20
-23.2646254625
 30
0.0
 10
-1.6577775555
 20
-23.1816580727
 30
0.0
 10
-1.7879398225
 20
-23.137284216
 30
0.0
 10
-1.8522684223
 20
-23.1167106963
 30
0.0
 11
-1.0873940564
 21
-23.5182938644
 31
0.0
 11
-1.2754603733
 21
-23.3737325784
 31
0.0
 11
-1.468295034
 21
-23.2662436488
 31
0.0
 11
-1.6608824974
 21
-23.1832266635
 31
0.0
 11
-1.8522684223
 21
-23.1167106963
 31
0.0
  0
SPLINE
  5
3EE
100
AcDbEntity
  8
RACCORDO
100
AcDbSpline
 62
7
  6
CONTINUOUS
 70
0
 71
3
 72
11
 73
7
 74
5
 42
0.0000001
 43
0.0000001
 44
0.0000000001
 12
-0.1689125333
 22
0.0845958693
 32
0.0
 13
-0.0000000007
 23
0.1889124268
 33
0.0
 40
0.0
 40
0.0
 40
0.0
 40
0.0
 40
0.2171672883
 40
0.4503628529
 40
0.710428482
 40
1.0
 40
1.0
 40
1.0
 40
1.0
 10
14.2745626557
 20
-33.2624083927
 30
0.0
 10
14.2623352301
 20
-33.2562845742
 30
0.0
 10
14.2391895825
 20
-33.2386903938
 30
0.0
 10
14.214374186
 20
-33.2006442585
 30
0.0
 10
14.1995550003
 20
-33.1531244034
 30
0.0
 10
14.1965926005
 20
-33.1183850101
 30
0.0
 10
14.1965926004
 20
-33.1001504574
 30
0.0
 11
14.2745626557
 21
-33.2624083927
 31
0.0
 11
14.2417373366
 21
-33.2377994871
 31
0.0
 11
14.2170766987
 21
-33.2012951404
 31
0.0
 11
14.2017797393
 21
-33.1546076315
 31
0.0
 11
14.1965926004
 21
-33.1001504574
 31
0.0
  0
SPLINE
  5
3EF
100
AcDbEntity
  8
RACCORDO
100
AcDbSpline
 62
7
  6
CONTINUOUS
 70
0
 71
3
 72
9
 73
5
 74
3
 42
0.0000001
 43
0.0000001
 44
0.0000000001
 12
-0.0339777457
 22
-0.0425884986
 32
0.0
 13
-0.0466494948
 23
-0.0281441299
 33
0.0
 40
0.0
 40
0.0
 40
0.0
 40
0.0
 40
0.2626167859
 40
1.0
 40
1.0
 40
1.0
 40
1.0
 10
12.6815893395
 20
-29.6663320909
 30
0.0
 10
12.678614964
 20
-29.6700602424
 30
0.0
 10
12.6668096477
 20
-29.6838481588
 30
0.0
 10
12.652774825
 20
-29.6958738668
 30
0.0
 10
12.6413086401
 20
-29.7027915364
 30
0.0
 11
12.6815893395
 21
-29.6663320909
 31
0.0
 11
12.6722606519
 21
-29.6771805838
 31
0.0
 11
12.6413086401
 21
-29.7027915364
 31
0.0
  0
SPLINE
  5
3F0
100
AcDbEntity
  8
RACCORDO
100
AcDbSpline
 62
7
  6
CONTINUOUS
 70
0
 71
3
 72
10
 73
6
 74
4
 42
0.0000001
 43
0.0000001
 44
0.0000000001
 12
-0.1137650198
 22
-0.0686356306
 32
0.0
 13
-0.1062414822
 23
0.0797876994
 33
0.0
 40
0.0
 40
0.0
 40
0.0
 40
0.0
 40
0.2472182505
 40
0.4875832399
 40
1.0
 40
1.0
 40
1.0
 40
1.0
 10
12.6413086401
 20
-29.7027915364
 30
0.0
 10
12.6319337104
 20
-29.7084475299
 30
0.0
 10
12.6117178017
 20
-29.7171667944
 30
0.0
 10
12.5667100406
 20
-29.7201883296
 30
0.0
 10
12.534499528
 20
-29.7048356384
 30
0.0
 10
12.5163528893
 20
-29.6912074536
 30
0.0
 11
12.6413086401
 21
-29.7027915364
 31
0.0
 11
12.6109891379
 21
-29.7154265637
 31
0.0
 11
12.5791247967
 21
-29.7175691472
 31
0.0
 11
12.5163528893
 21
-29.6912074536
 31
0.0
  0
SPLINE
  5
3F1
100
AcDbEntity
  8
RACCORDO
100
AcDbSpline
 62
7
  6
CONTINUOUS
 70
0
 71
3
 72
9
 73
5
 74
3
 42
0.0000001
 43
0.0000001
 44
0.0000000001
 12
-0.1260316343
 22
-0.0657101216
 32
0.0
 13
-0.1032641788
 23
-0.0976642324
 33
0.0
 40
0.0
 40
0.0
 40
0.0
 40
0.0
 40
0.2371046482
 40
1.0
 40
1.0
 40
1.0
 40
1.0
 10
-18.1655214943
 20
-12.7537153788
 30
0.0
 10
-18.1754823898
 20
-12.7589087706
 30
0.0
 10
-18.2165971082
 20
-12.7825222595
 30
0.0
 10
-18.2540135975
 20
-12.812303439
 30
0.0
 10
-18.2802735182
 20
-12.837139302
 30
0.0
 11
-18.1655214943
 21
-12.7537153788
 31
0.0
 11
-18.1947714622
 21
-12.7704532455
 31
0.0
 11
-18.2802735182
 21
-12.837139302
 31
0.0
  0
SPLINE
  5
3F2
100
AcDbEntity
  8
RACCORDO
100
AcDbSpline
 62
7
  6
CONTINUOUS
 70
0
 71
3
 72
9
 73
5
 74
3
 42
0.0000001
 43
0.0000001
 44
0.0000000001
 12
-0.1370510418
 22
-0.0578506105
 32
0.0
 13
-0.1164664422
 23
-0.0925486306
 33
0.0
 40
0.0
 40
0.0
 40
0.0
 40
0.0
 40
0.2394514206
 40
1.0
 40
1.0
 40
1.0
 40
1.0
 10
-18.1722459704
 20
-12.7493491707
 30
0.0
 10
-18.1831849926
 20
-12.753966641
 30
0.0
 10
-18.2281136229
 20
-12.7750250631
 30
0.0
 10
-18.2698510304
 20
-12.8026277663
 30
0.0
 10
-18.2993771594
 20
-12.8260903428
 30
0.0
 11
-18.1722459704
 21
-12.7493491707
 31
0.0
 11
-18.2045184662
 21
-12.7644268085
 31
0.0
 11
-18.2993771594
 21
-12.8260903428
 31
0.0
  0
SPLINE
  5
3F3
100
AcDbEntity
  8
RACCORDO
100
AcDbSpline
 62
7
  6
CONTINUOUS
 70
0
 71
3
 72
9
 73
5
 74
3
 42
0.0000001
 43
0.0000001
 44
0.0000000001
 12
-0.0583444967
 22
-0.0361522692
 32
0.0
 13
-0.062121555
 23
-0.029188684
 33
0.0
 40
0.0
 40
0.0
 40
0.0
 40
0.0
 40
0.2434976844
 40
1.0
 40
1.0
 40
1.0
 40
1.0
 10
-18.4090226276
 20
-12.4083455717
 30
0.0
 10
-18.4137582108
 20
-12.4112799029
 30
0.0
 10
-18.4333943604
 20
-12.4230259481
 30
0.0
 10
-18.4537370812
 20
-12.433579593
 30
0.0
 10
-18.4694021146
 20
-12.4409400287
 30
0.0
 11
-18.4090226276
 21
-12.4083455717
 31
0.0
 11
-18.4233628182
 21
-12.4169294738
 31
0.0
 11
-18.4694021146
 21
-12.4409400287
 31
0.0
  0
SPLINE
  5
3F4
100
AcDbEntity
  8
RACCORDO
100
AcDbSpline
 62
7
  6
CONTINUOUS
 70
0
 71
3
 72
9
 73
5
 74
3
 42
0.0000001
 43
0.0000001
 44
0.0000000001
 12
-0.0589855134
 22
-0.0284813439
 32
0.0
 13
-0.0618225119
 23
-0.021643816
 33
0.0
 40
0.0
 40
0.0
 40
0.0
 40
0.0
 40
0.2421767381
 40
1.0
 40
1.0
 40
1.0
 40
1.0
 10
-18.4095026844
 20
-12.4039611204
 30
0.0
 10
-18.4142643241
 20
-12.4062602934
 30
0.0
 10
-18.4340735044
 20
-12.4154476309
 30
0.0
 10
-18.4544268056
 20
-12.4234467856
 30
0.0
 10
-18.4700436515
 20
-12.4289141814
 30
0.0
 11
-18.4095026844
 21
-12.4039611204
 31
0.0
 11
-18.4238908819
 21
-12.4106405258
 31
0.0
 11
-18.4700436515
 21
-12.4289141814
 31
0.0
  0
SPLINE
  5
3F5
100
AcDbEntity
  8
IMPORT_IGES
100
AcDbSpline
 62
7
  6
CONTINUOUS
 70
0
 71
3
 72
8
 73
4
 74
2
 42
0.0000001
 43
0.0000001
 44
0.0000000001
 12
-0.0588659624
 22
0.0129651371
 32
0.0
 13
-0.0594112017
 23
0.0251288991
 33
0.0
 40
0.0
 40
0.0
 40
0.0
 40
0.0
 40
1.0
 40
1.0
 40
1.0
 40
1.0
 10
-1.2979047555
 20
-24.170488411
 30
0.0
 10
-1.317526743
 20
-24.1661666987
 30
0.0
 10
-1.3377350481
 20
-24.1592256673
 30
0.0
 10
-1.357538782
 20
-24.1508493676
 30
0.0
 11
-1.2979047555
 21
-24.170488411
 31
0.0
 11
-1.357538782
 21
-24.1508493676
 31
0.0
  0
SPLINE
  5
3F6
100
AcDbEntity
  8
IMPORT_IGES
100
AcDbSpline
 62
7
  6
CONTINUOUS
 70
0
 71
3
 72
9
 73
5
 74
3
 42
0.0000001
 43
0.0000001
 44
0.0000000001
 12
-0.0719484215
 22
0.3594276568
 32
0.0
 13
-0.1990361688
 23
0.332124161
 33
0.0
 40
0.0
 40
0.0
 40
0.0
 40
0.0
 40
0.3064912004
 40
1.0
 40
1.0
 40
1.0
 40
1.0
 10
-0.8767877731
 20
-24.9095144554
 30
0.0
 10
-0.8841382924
 20
-24.8727939841
 30
0.0
 10
-0.9063683997
 20
-24.7560266738
 30
0.0
 10
-0.9499573439
 20
-24.6178344685
 30
0.0
 10
-0.9959684553
 20
-24.5410574591
 30
0.0
 11
-0.8767877731
 21
-24.9095144554
 31
0.0
 11
-0.8997713389
 21
-24.7992050906
 31
0.0
 11
-0.9959684553
 21
-24.5410574591
 31
0.0
  0
SPLINE
  5
3F7
100
AcDbEntity
  8
IMPORT_IGES
100
AcDbSpline
 62
7
  6
CONTINUOUS
 70
0
 71
3
 72
8
 73
4
 74
2
 42
0.0000001
 43
0.0000001
 44
0.0000000001
 12
-0.0523574717
 22
0.0873669417
 32
0.0
 13
-0.0668832013
 23
0.0661051502
 33
0.0
 40
0.0
 40
0.0
 40
0.0
 40
0.0
 40
1.0
 40
1.0
 40
1.0
 40
1.0
 10
-0.9959684553
 20
-24.5410574591
 30
0.0
 10
-1.0134209459
 20
-24.5119351452
 30
0.0
 10
-1.0331440634
 20
-24.4855551863
 30
0.0
 10
-1.0554384638
 20
-24.4635201363
 30
0.0
 11
-0.9959684553
 21
-24.5410574591
 31
0.0
 11
-1.0554384638
 21
-24.4635201363
 31
0.0
  0
SPLINE
  5
3F8
100
AcDbEntity
  8
IMPORT_IGES
100
AcDbSpline
 62
7
  6
CONTINUOUS
 70
0
 71
3
 72
9
 73
5
 74
3
 42
0.0000001
 43
0.0000001
 44
0.0000000001
 12
-0.1089310306
 22
0.5456809512
 32
0.0
 13
-0.1092475052
 23
0.545733753
 33
0.0
 40
0.0
 40
0.0
 40
0.0
 40
0.0
 40
0.1980141723
 40
1.0
 40
1.0
 40
1.0
 40
1.0
 10
-0.7708332718
 20
-25.4546826168
 30
0.0
 10
-0.7780232344
 20
-25.4186650962
 30
0.0
 10
-0.8132148797
 20
-25.236962754
 30
0.0
 10
-0.8475827894
 20
-25.0554047006
 30
0.0
 10
-0.8767877731
 20
-24.9095144554
 30
0.0
 11
-0.7708332718
 21
-25.4546826168
 31
0.0
 11
-0.7919278251
 21
-25.3467114759
 31
0.0
 11
-0.8767877731
 21
-24.9095144554
 31
0.0
  0
SPLINE
  5
3F9
100
AcDbEntity
  8
IMPORT_IGES
100
AcDbSpline
 62
7
  6
CONTINUOUS
 70
0
 71
3
 72
9
 73
5
 74
3
 42
0.0000001
 43
0.0000001
 44
0.0000000001
 12
-0.7242720778
 22
0.6826063808
 32
0.0
 13
-0.7618885033
 23
0.2436665522
 33
0.0
 40
0.0
 40
0.0
 40
0.0
 40
0.0
 40
0.2957417834
 40
1.0
 40
1.0
 40
1.0
 40
1.0
 10
-1.0873940564
 20
-23.5182938644
 30
0.0
 10
-1.1587932283
 20
-23.4510021216
 30
0.0
 10
-1.4154300291
 20
-23.2711866226
 30
0.0
 10
-1.6734130094
 20
-23.1739120868
 30
0.0
 10
-1.8522684223
 20
-23.1167106963
 30
0.0
 11
-1.0873940564
 21
-23.5182938644
 31
0.0
 11
-1.3107074198
 21
-23.3518635058
 31
0.0
 11
-1.8522684223
 21
-23.1167106963
 31
0.0
  0
SPLINE
  5
3FA
100
AcDbEntity
  8
IMPORT_IGES
100
AcDbSpline
 62
7
  6
CONTINUOUS
 70
0
 71
3
 72
9
 73
5
 74
3
 42
0.0000001
 43
0.0000001
 44
0.0000000001
 12
0.0443426486
 22
0.0221713243
 32
0.0
 13
0.0397038801
 23
0.0264877824
 33
0.0
 40
0.0
 40
0.0
 40
0.0
 40
0.0
 40
0.0529699826
 40
1.0
 40
1.0
 40
1.0
 40
1.0
 10
-1.0124071759
 20
-24.4460817443
 30
0.0
 10
-1.0116242328
 20
-24.4456902727
 30
0.0
 10
-0.9968871236
 20
-24.4382395092
 30
0.0
 10
-0.9828443889
 20
-24.4304303911
 30
0.0
 10
-0.9703108001
 20
-24.4220688161
 30
0.0
 11
-1.0124071759
 21
-24.4460817443
 31
0.0
 11
-1.0100649323
 21
-24.4448999336
 31
0.0
 11
-0.9703108001
 21
-24.4220688161
 31
0.0
  0
SPLINE
  5
3FB
100
AcDbEntity
  8
IMPORT_IGES
100
AcDbSpline
 62
7
  6
CONTINUOUS
 70
0
 71
3
 72
16
 73
12
 74
10
 42
0.0000001
 43
0.0000001
 44
0.0000000001
 12
0.5918942464
 22
0.3948723892
 32
0.0
 13
-0.7723802419
 23
0.7274516852
 33
0.0
 40
0.0
 40
0.0
 40
0.0
 40
0.0
 40
0.063526156
 40
0.2350520403
 40
0.3378746638
 40
0.4554210254
 40
0.5509332403
 40
0.636789735
 40
0.7863333931
 40
0.909918364
 40
1.0
 40
1.0
 40
1.0
 40
1.0
 10
-0.9703108001
 20
-24.4220688161
 30
0.0
 10
-0.9577772114
 20
-24.4137072411
 30
0.0
 10
-0.9142335775
 20
-24.3791940492
 30
0.0
 10
-0.8695078856
 20
-24.2978831105
 30
0.0
 10
-0.8458375147
 20
-24.1812280594
 30
0.0
 10
-0.8436137308
 20
-24.0756957371
 30
0.0
 10
-0.8553333196
 20
-23.9702311117
 30
0.0
 10
-0.883737579
 20
-23.8501910788
 30
0.0
 10
-0.937086591
 20
-23.7197931205
 30
0.0
 10
-1.0124112447
 20
-23.6010163291
 30
0.0
 10
-1.0642016311
 20
-23.5401372103
 30
0.0
 10
-1.0873940564
 20
-23.5182938644
 30
0.0
 11
-0.9703108001
 21
-24.4220688161
 31
0.0
 11
-0.9351484833
 21
-24.3934410636
 31
0.0
 11
-0.8681318576
 21
-24.2752350874
 31
0.0
 11
-0.849286835
 21
-24.1838635949
 31
0.0
 11
-0.846457796
 21
-24.0671193184
 31
0.0
 11
-0.858057269
 21
-23.9663248687
 31
0.0
 11
-0.8802366388
 21
-23.873278687
 31
0.0
 11
-0.9457567379
 21
-23.7133296019
 31
0.0
 11
-1.0218614311
 21
-23.5930690114
 31
0.0
 11
-1.0873940564
 21
-23.5182938644
 31
0.0
  0
SPLINE
  5
3FC
100
AcDbEntity
  8
RACCORDO
100
AcDbSpline
 62
7
  6
CONTINUOUS
 70
0
 71
3
 72
11
 73
7
 74
5
 42
0.0000001
 43
0.0000001
 44
0.0000000001
 12
-0.000017673
 22
0.2406218091
 32
0.0
 13
-0.2152186894
 23
0.1076093447
 33
0.0
 40
0.0
 40
0.0
 40
0.0
 40
0.0
 40
0.206582075
 40
0.434482042
 40
0.6975295886
 40
1.0
 40
1.0
 40
1.0
 40
1.0
 10
-16.6067030017
 20
-2.9965666537
 30
0.0
 10
-16.6067042187
 20
-2.9799972695
 30
0.0
 10
-16.6140394686
 20
-2.9448851422
 30
0.0
 10
-16.6445875601
 20
-2.8969682501
 30
0.0
 10
-16.6922227071
 20
-2.8539490625
 30
0.0
 10
-16.7314504003
 20
-2.8306614227
 30
0.0
 10
-16.7531494955
 20
-2.8198118751
 30
0.0
 11
-16.6067030017
 21
-2.9965666537
 31
0.0
 11
-16.6163229374
 21
-2.9477982491
 31
0.0
 11
-16.6447666871
 21
-2.9009140651
 31
0.0
 11
-16.690997176
 21
-2.857682179
 31
0.0
 11
-16.7531494955
 21
-2.8198118751
 31
0.0
  0
SPLINE
  5
3FD
100
AcDbEntity
  8
RACCORDO
100
AcDbSpline
 62
7
  6
CONTINUOUS
 70
0
 71
3
 72
11
 73
7
 74
5
 42
0.0000001
 43
0.0000001
 44
0.0000000001
 12
0.0000171752
 22
-0.2338432201
 32
0.0
 13
-0.2076592723
 23
-0.1075187357
 33
0.0
 40
0.0
 40
0.0
 40
0.0
 40
0.0
 40
0.2077698318
 40
0.4361255549
 40
0.6987067635
 40
1.0
 40
1.0
 40
1.0
 40
1.0
 10
-16.6067030017
 20
-2.1305412499
 30
0.0
 10
-16.6067018122
 20
-2.1467364387
 30
0.0
 10
-16.6136627364
 20
-2.1809862431
 30
0.0
 10
-16.6428431643
 20
-2.2279587438
 30
0.0
 10
-16.6884887781
 20
-2.2703292183
 30
0.0
 10
-16.7261775411
 20
-2.2934295366
 30
0.0
 10
-16.7470329859
 20
-2.3042277593
 30
0.0
 11
-16.6067030017
 21
-2.1305412499
 31
0.0
 11
-16.6158881508
 21
-2.1782506863
 31
0.0
 11
-16.6430976758
 21
-2.2241978484
 31
0.0
 11
-16.6873860004
 21
-2.2667284552
 31
0.0
 11
-16.7470329859
 21
-2.3042277593
 31
0.0
  0
SPLINE
  5
3FE
100
AcDbEntity
  8
ASSI
100
AcDbSpline
 62
7
  6
CONTINUOUS
 70
0
 71
3
 72
8
 73
4
 74
2
 42
0.0000001
 43
0.0000001
 44
0.0000000001
 12
0.0017199875
 22
-0.0008550395
 32
0.0
 13
0.0000082235
 23
-0.0019207763
 33
0.0
 40
0.0
 40
0.0
 40
0.0
 40
0.0
 40
1.0
 40
1.0
 40
1.0
 40
1.0
 10
-2.2509948676
 20
-17.0329662299
 30
0.0
 10
-2.2504215384
 20
-17.0332512431
 30
0.0
 10
-2.2499791259
 20
-17.033954511
 30
0.0
 10
-2.2499763847
 20
-17.0345947698
 30
0.0
 11
-2.2509948676
 21
-17.0329662299
 31
0.0
 11
-2.2499763847
 21
-17.0345947698
 31
0.0
  0
SPLINE
  5
3FF
100
AcDbEntity
  8
ASSI
100
AcDbSpline
 62
7
  6
CONTINUOUS
 70
0
 71
3
 72
8
 73
4
 74
2
 42
0.0000001
 43
0.0000001
 44
0.0000000001
 12
-0.032268327
 22
0.0161247358
 32
0.0
 13
-0.0345239903
 23
0.0104568695
 33
0.0
 40
0.0
 40
0.0
 40
0.0
 40
0.0
 40
1.0
 40
1.0
 40
1.0
 40
1.0
 10
-6.4443586358
 20
-14.9362843458
 30
0.0
 10
-6.4551147448
 20
-14.9309094339
 30
0.0
 10
-6.4663082054
 20
-14.9262850411
 30
0.0
 10
-6.4778162022
 20
-14.922799418
 30
0.0
 11
-6.4443586358
 21
-14.9362843458
 31
0.0
 11
-6.4778162022
 21
-14.922799418
 31
0.0
  0
SPLINE
  5
400
100
AcDbEntity
  8
ASSI
100
AcDbSpline
 62
7
  6
CONTINUOUS
 70
0
 71
3
 72
9
 73
5
 74
3
 42
0.0000001
 43
0.0000001
 44
0.0000000001
 12
-0.0479673986
 22
0.0145287038
 32
0.0
 13
-0.0500426309
 23
-0.0027730218
 33
0.0
 40
0.0
 40
0.0
 40
0.0
 40
0.0
 40
0.257878631
 40
1.0
 40
1.0
 40
1.0
 40
1.0
 10
-6.4778162022
 20
-14.922799418
 30
0.0
 10
-6.4819394579
 20
-14.9215505372
 30
0.0
 10
-6.4980832281
 20
-14.9172757078
 30
0.0
 10
-6.5149832923
 20
-14.9155099561
 30
0.0
 10
-6.5273625276
 20
-14.916195929
 30
0.0
 11
-6.4778162022
 21
-14.922799418
 31
0.0
 11
-6.4903160192
 21
-14.9195126201
 31
0.0
 11
-6.5273625276
 21
-14.916195929
 31
0.0
  0
SPLINE
  5
401
100
AcDbEntity
  8
ASSI
100
AcDbSpline
 62
7
  6
CONTINUOUS
 70
0
 71
3
 72
8
 73
4
 74
2
 42
0.0000001
 43
0.0000001
 44
0.0000000001
 12
-0.0213414878
 22
-0.0011825999
 32
0.0
 13
-0.0206349063
 23
-0.005572996
 33
0.0
 40
0.0
 40
0.0
 40
0.0
 40
0.0
 40
1.0
 40
1.0
 40
1.0
 40
1.0
 10
-6.5273625276
 20
-14.916195929
 30
0.0
 10
-6.5344763568
 20
-14.9165901289
 30
0.0
 10
-6.5416000211
 20
-14.9176519951
 30
0.0
 10
-6.5484783232
 20
-14.9195096604
 30
0.0
 11
-6.5273625276
 21
-14.916195929
 31
0.0
 11
-6.5484783232
 21
-14.9195096604
 31
0.0
  0
SPLINE
  5
402
100
AcDbEntity
  8
ASSI
100
AcDbSpline
 62
7
  6
CONTINUOUS
 70
0
 71
3
 72
8
 73
4
 74
2
 42
0.0000001
 43
0.0000001
 44
0.0000000001
 12
-0.032268327
 22
0.0161247358
 32
0.0
 13
-0.0345239903
 23
0.0104568695
 33
0.0
 40
0.0
 40
0.0
 40
0.0
 40
0.0
 40
1.0
 40
1.0
 40
1.0
 40
1.0
 10
9.4655439409
 20
-22.8912356342
 30
0.0
 10
9.4547878319
 20
-22.8858607222
 30
0.0
 10
9.4435943713
 20
-22.8812363295
 30
0.0
 10
9.4320863745
 20
-22.8777507063
 30
0.0
 11
9.4655439409
 21
-22.8912356342
 31
0.0
 11
9.4320863745
 21
-22.8777507063
 31
0.0
  0
SPLINE
  5
403
100
AcDbEntity
  8
ASSI
100
AcDbSpline
 62
7
  6
CONTINUOUS
 70
0
 71
3
 72
9
 73
5
 74
3
 42
0.0000001
 43
0.0000001
 44
0.0000000001
 12
-0.0479673986
 22
0.0145287038
 32
0.0
 13
-0.0500426309
 23
-0.0027730218
 33
0.0
 40
0.0
 40
0.0
 40
0.0
 40
0.0
 40
0.257878631
 40
1.0
 40
1.0
 40
1.0
 40
1.0
 10
9.4320863745
 20
-22.8777507063
 30
0.0
 10
9.4279631188
 20
-22.8765018256
 30
0.0
 10
9.4118193486
 20
-22.8722269962
 30
0.0
 10
9.3949192844
 20
-22.8704612444
 30
0.0
 10
9.3825400491
 20
-22.8711472173
 30
0.0
 11
9.4320863745
 21
-22.8777507063
 31
0.0
 11
9.4195865575
 21
-22.8744639084
 31
0.0
 11
9.3825400491
 21
-22.8711472173
 31
0.0
  0
SPLINE
  5
404
100
AcDbEntity
  8
ASSI
100
AcDbSpline
 62
7
  6
CONTINUOUS
 70
0
 71
3
 72
8
 73
4
 74
2
 42
0.0000001
 43
0.0000001
 44
0.0000000001
 12
-0.0213414878
 22
-0.0011825999
 32
0.0
 13
-0.0206349063
 23
-0.005572996
 33
0.0
 40
0.0
 40
0.0
 40
0.0
 40
0.0
 40
1.0
 40
1.0
 40
1.0
 40
1.0
 10
9.3825400491
 20
-22.8711472173
 30
0.0
 10
9.3754262199
 20
-22.8715414173
 30
0.0
 10
9.3683025556
 20
-22.8726032834
 30
0.0
 10
9.3614242534
 20
-22.8744609488
 30
0.0
 11
9.3825400491
 21
-22.8711472173
 31
0.0
 11
9.3614242534
 21
-22.8744609488
 31
0.0
  0
SPLINE
  5
405
100
AcDbEntity
  8
RACCORDO
100
AcDbSpline
 62
7
  6
CONTINUOUS
 70
0
 71
3
 72
9
 73
5
 74
3
 42
0.0000001
 43
0.0000001
 44
0.0000000001
 12
0.0268392911
 22
0.0227290154
 32
0.0
 13
0.0235314788
 23
0.0261385767
 33
0.0
 40
0.0
 40
0.0
 40
0.0
 40
0.0
 40
0.2579585025
 40
1.0
 40
1.0
 40
1.0
 40
1.0
 10
-16.676075218
 20
-3.9896541591
 30
0.0
 10
-16.6737674102
 20
-3.9876997782
 30
0.0
 10
-16.6649384591
 20
-3.9799867392
 30
0.0
 10
-16.6565965869
 20
-3.9717089173
 30
0.0
 10
-16.6507761423
 20
-3.9652436144
 30
0.0
 11
-16.676075218
 21
-3.9896541591
 31
0.0
 11
-16.6692448157
 21
-3.9836829081
 31
0.0
 11
-16.6507761423
 21
-3.9652436144
 31
0.0
  0
SPLINE
  5
406
100
AcDbEntity
  8
RACCORDO
100
AcDbSpline
 62
7
  6
CONTINUOUS
 70
0
 71
3
 72
9
 73
5
 74
3
 42
0.0000001
 43
0.0000001
 44
0.0000000001
 12
0.0760506523
 22
0.0844764509
 32
0.0
 13
-0.0000083434
 23
0.1136660565
 33
0.0
 40
0.0
 40
0.0
 40
0.0
 40
0.0
 40
0.5278289736
 40
1.0
 40
1.0
 40
1.0
 40
1.0
 10
-16.6507761423
 20
-3.9652436144
 30
0.0
 10
-16.6373955631
 20
-3.9503805749
 30
0.0
 10
-16.6153305232
 20
-3.918653961
 30
0.0
 10
-16.6067016883
 20
-3.8804820136
 30
0.0
 10
-16.6067030014
 20
-3.8625920741
 30
0.0
 11
-16.6507761423
 21
-3.9652436144
 31
0.0
 11
-16.6178458011
 21
-3.9150924308
 31
0.0
 11
-16.6067030014
 21
-3.8625920741
 31
0.0
  0
SPLINE
  5
407
100
AcDbEntity
  8
DRAFT
100
AcDbSpline
 62
7
  6
CONTINUOUS
 70
0
 71
3
 72
9
 73
5
 74
3
 42
0.0000001
 43
0.0000001
 44
0.0000000001
 12
-0.0332798367
 22
-0.1354758949
 32
0.0
 13
-0.1246344754
 23
-0.0626698746
 33
0.0
 40
0.0
 40
0.0
 40
0.0
 40
0.0
 40
0.5315595469
 40
1.0
 40
1.0
 40
1.0
 40
1.0
 10
-2.8278172452
 20
-18.1196952628
 30
0.0
 10
-2.8337139835
 20
-18.1436997645
 30
0.0
 10
-2.8515176369
 20
-18.1880083405
 30
0.0
 10
-2.8876050887
 20
-18.2206717303
 30
0.0
 10
-2.9070663654
 20
-18.2304574318
 30
0.0
 11
-2.8278172452
 21
-18.1196952628
 31
0.0
 11
-2.8578075761
 21
-18.1875146457
 31
0.0
 11
-2.9070663654
 21
-18.2304574318
 31
0.0
  0
SPLINE
  5
408
100
AcDbEntity
  8
RACCORDO
100
AcDbSpline
 62
7
  6
CONTINUOUS
 70
0
 71
3
 72
11
 73
7
 74
5
 42
0.0000001
 43
0.0000001
 44
0.0000000001
 12
0.1245821712
 22
0.0645043059
 32
0.0
 13
-0.0000146374
 23
0.1402908502
 33
0.0
 40
0.0
 40
0.0
 40
0.0
 40
0.0
 40
0.3011147916
 40
0.5638958152
 40
0.7922715567
 40
1.0
 40
1.0
 40
1.0
 40
1.0
 10
-17.0621019312
 20
14.8001294376
 30
0.0
 10
-17.0495974197
 20
14.8066038378
 30
0.0
 10
-17.0269930058
 20
14.8204735804
 30
0.0
 10
-16.9995943592
 20
14.8458775082
 30
0.0
 10
-16.9820728003
 20
14.8740639251
 30
0.0
 10
-16.9779161299
 20
14.8946141336
 30
0.0
 10
-16.9779171435
 20
14.9043282669
 30
0.0
 11
-17.0621019312
 21
14.8001294376
 31
0.0
 11
-17.0263413148
 21
14.8226173079
 31
0.0
 11
-16.999741829
 21
14.8481428364
 31
0.0
 11
-16.9834135724
 21
14.8757088897
 31
0.0
 11
-16.9779171435
 21
14.9043282669
 31
0.0
  0
SPLINE
  5
409
100
AcDbEntity
  8
RACCORDO
100
AcDbSpline
 62
7
  6
CONTINUOUS
 70
0
 71
3
 72
11
 73
7
 74
5
 42
0.0000001
 43
0.0000001
 44
0.0000000001
 12
0.0442364388
 22
-0.0894139904
 32
0.0
 13
-0.0660761993
 23
-0.0747372738
 33
0.0
 40
0.0
 40
0.0
 40
0.0
 40
0.0
 40
0.3302218568
 40
0.6017065375
 40
0.8185443816
 40
1.0
 40
1.0
 40
1.0
 40
1.0
 10
-16.7470401339
 20
15.5985651044
 30
0.0
 10
-16.7421708542
 20
15.5887229531
 30
0.0
 10
-16.7342599745
 20
15.5702602247
 30
0.0
 10
-16.7278250201
 20
15.5436417367
 30
0.0
 10
-16.7282058912
 20
15.5209793183
 30
0.0
 10
-16.7341824205
 20
15.5084789411
 30
0.0
 10
-16.7381790531
 20
15.5039584417
 30
0.0
 11
-16.7470401339
 21
15.5985651044
 31
0.0
 11
-16.7344456978
 21
15.5681253176
 31
0.0
 11
-16.7286677975
 21
15.5416659701
 31
0.0
 11
-16.7299302664
 21
15.5200714612
 31
0.0
 11
-16.7381790531
 21
15.5039584417
 31
0.0
  0
SPLINE
  5
40A
100
AcDbEntity
  8
RACCORDO
100
AcDbSpline
 62
7
  6
CONTINUOUS
 70
0
 71
3
 72
9
 73
5
 74
3
 42
0.0000001
 43
0.0000001
 44
0.0000000001
 12
0.0655963878
 22
-0.031697235
 32
0.0
 13
0.0507266935
 23
-0.0522915229
 33
0.0
 40
0.0
 40
0.0
 40
0.0
 40
0.0
 40
0.2345634937
 40
1.0
 40
1.0
 40
1.0
 40
1.0
 10
-15.4194887493
 20
2.8793997057
 30
0.0
 10
-15.41435991
 20
2.8769213676
 30
0.0
 10
-15.3930647933
 20
2.8651830008
 30
0.0
 10
-15.374139202
 20
2.8493987576
 30
0.0
 10
-15.3611965143
 20
2.8360568108
 30
0.0
 11
-15.4194887493
 21
2.8793997057
 31
0.0
 11
-15.4045001674
 21
2.8711919787
 31
0.0
 11
-15.3611965143
 21
2.8360568108
 31
0.0
  0
SPLINE
  5
40B
100
AcDbEntity
  8
RACCORDO
100
AcDbSpline
 62
7
  6
CONTINUOUS
 70
0
 71
3
 72
9
 73
5
 74
3
 42
0.0000001
 43
0.0000001
 44
0.0000000001
 12
0.0423537234
 22
-0.0436602614
 32
0.0
 13
0.0322412592
 23
-0.0515805925
 33
0.0
 40
0.0
 40
0.0
 40
0.0
 40
0.0
 40
0.2442960562
 40
1.0
 40
1.0
 40
1.0
 40
1.0
 10
-15.3611965143
 20
2.8360568108
 30
0.0
 10
-15.3577475651
 20
2.8325014675
 30
0.0
 10
-15.3440461221
 20
2.8175474262
 30
0.0
 10
-15.3319973536
 20
2.8010979735
 30
0.0
 10
-15.323875738
 20
2.7881047544
 30
0.0
 11
-15.3611965143
 21
2.8360568108
 31
0.0
 11
-15.3511517807
 21
2.8251057939
 31
0.0
 11
-15.323875738
 21
2.7881047544
 31
0.0
  0
SPLINE
  5
40C
100
AcDbEntity
  8
RACCORDO
100
AcDbSpline
 62
7
  6
CONTINUOUS
 70
0
 71
3
 72
9
 73
5
 74
3
 42
0.0000001
 43
0.0000001
 44
0.0000000001
 12
0.085038347
 22
-0.1360470536
 32
0.0
 13
-0.0022295875
 23
-0.1604224118
 33
0.0
 40
0.0
 40
0.0
 40
0.0
 40
0.0
 40
0.2603597621
 40
1.0
 40
1.0
 40
1.0
 40
1.0
 10
-15.323875738
 20
2.7881047544
 30
0.0
 10
-15.3164955501
 20
2.7762976949
 30
0.0
 10
-15.2912457309
 20
2.7291957472
 30
0.0
 10
-15.2775392347
 20
2.6750727199
 30
0.0
 10
-15.2780889323
 20
2.6355210963
 30
0.0
 11
-15.323875738
 21
2.7881047544
 31
0.0
 11
-15.3041299658
 21
2.7512948517
 31
0.0
 11
-15.2780889323
 21
2.6355210963
 31
0.0
  0
SPLINE
  5
40D
100
AcDbEntity
  8
RACCORDO
100
AcDbSpline
 62
7
  6
CONTINUOUS
 70
0
 71
3
 72
10
 73
6
 74
4
 42
0.0000001
 43
0.0000001
 44
0.0000000001
 12
0.0016600254
 22
-0.1177224943
 32
0.0
 13
-0.0998022548
 23
-0.0624567953
 33
0.0
 40
0.0
 40
0.0
 40
0.0
 40
0.0
 40
0.5456649566
 40
0.7809991749
 40
1.0
 40
1.0
 40
1.0
 40
1.0
 10
-15.2780889323
 20
-0.9845679832
 30
0.0
 10
-15.277786993
 20
-1.0059803297
 30
0.0
 10
-15.2820437528
 20
-1.0376129698
 30
0.0
 10
-15.3019736436
 20
-1.0719550903
 30
0.0
 10
-15.3155312683
 20
-1.0841210183
 30
0.0
 10
-15.3228168604
 20
-1.0886803815
 30
0.0
 11
-15.2780889323
 21
-0.9845679832
 31
0.0
 11
-15.2892553797
 21
-1.0478335206
 31
0.0
 11
-15.3035072531
 21
-1.0715938995
 31
0.0
 11
-15.3228168604
 21
-1.0886803815
 31
0.0
  0
SPLINE
  5
40E
100
AcDbEntity
  8
RACCORDO
100
AcDbSpline
 62
7
  6
CONTINUOUS
 70
0
 71
3
 72
9
 73
5
 74
3
 42
0.0000001
 43
0.0000001
 44
0.0000000001
 12
0.0655963878
 22
-0.031697235
 32
0.0
 13
0.0507266935
 23
-0.0522915229
 33
0.0
 40
0.0
 40
0.0
 40
0.0
 40
0.0
 40
0.2345634937
 40
1.0
 40
1.0
 40
1.0
 40
1.0
 10
-15.4194887493
 20
21.1958369957
 30
0.0
 10
-15.41435991
 20
21.1933586576
 30
0.0
 10
-15.3930647933
 20
21.1816202909
 30
0.0
 10
-15.374139202
 20
21.1658360477
 30
0.0
 10
-15.3611965143
 20
21.1524941008
 30
0.0
 11
-15.4194887493
 21
21.1958369957
 31
0.0
 11
-15.4045001674
 21
21.1876292688
 31
0.0
 11
-15.3611965143
 21
21.1524941008
 31
0.0
  0
SPLINE
  5
40F
100
AcDbEntity
  8
RACCORDO
100
AcDbSpline
 62
7
  6
CONTINUOUS
 70
0
 71
3
 72
9
 73
5
 74
3
 42
0.0000001
 43
0.0000001
 44
0.0000000001
 12
0.0423537234
 22
-0.0436602614
 32
0.0
 13
0.0322412592
 23
-0.0515805925
 33
0.0
 40
0.0
 40
0.0
 40
0.0
 40
0.0
 40
0.2442960562
 40
1.0
 40
1.0
 40
1.0
 40
1.0
 10
-15.3611965143
 20
21.1524941008
 30
0.0
 10
-15.3577475651
 20
21.1489387576
 30
0.0
 10
-15.3440461221
 20
21.1339847163
 30
0.0
 10
-15.3319973536
 20
21.1175352635
 30
0.0
 10
-15.323875738
 20
21.1045420445
 30
0.0
 11
-15.3611965143
 21
21.1524941008
 31
0.0
 11
-15.3511517807
 21
21.141543084
 31
0.0
 11
-15.323875738
 21
21.1045420445
 31
0.0
  0
SPLINE
  5
410
100
AcDbEntity
  8
RACCORDO
100
AcDbSpline
 62
7
  6
CONTINUOUS
 70
0
 71
3
 72
9
 73
5
 74
3
 42
0.0000001
 43
0.0000001
 44
0.0000000001
 12
0.085038347
 22
-0.1360470536
 32
0.0
 13
-0.0022295875
 23
-0.1604224118
 33
0.0
 40
0.0
 40
0.0
 40
0.0
 40
0.0
 40
0.2603597621
 40
1.0
 40
1.0
 40
1.0
 40
1.0
 10
-15.323875738
 20
21.1045420445
 30
0.0
 10
-15.3164955501
 20
21.092734985
 30
0.0
 10
-15.2912457309
 20
21.0456330372
 30
0.0
 10
-15.2775392347
 20
20.99151001
 30
0.0
 10
-15.2780889323
 20
20.9519583864
 30
0.0
 11
-15.323875738
 21
21.1045420445
 31
0.0
 11
-15.3041299658
 21
21.0677321418
 31
0.0
 11
-15.2780889323
 21
20.9519583864
 31
0.0
  0
SPLINE
  5
411
100
AcDbEntity
  8
RACCORDO
100
AcDbSpline
 62
7
  6
CONTINUOUS
 70
0
 71
3
 72
10
 73
6
 74
4
 42
0.0000001
 43
0.0000001
 44
0.0000000001
 12
0.0016600254
 22
-0.1177224943
 32
0.0
 13
-0.0998022548
 23
-0.0624567953
 33
0.0
 40
0.0
 40
0.0
 40
0.0
 40
0.0
 40
0.5456649566
 40
0.7809991749
 40
1.0
 40
1.0
 40
1.0
 40
1.0
 10
-15.2780889323
 20
17.3318693069
 30
0.0
 10
-15.277786993
 20
17.3104569603
 30
0.0
 10
-15.2820437528
 20
17.2788243203
 30
0.0
 10
-15.3019736436
 20
17.2444821998
 30
0.0
 10
-15.3155312683
 20
17.2323162717
 30
0.0
 10
-15.3228168604
 20
17.2277569085
 30
0.0
 11
-15.2780889323
 21
17.3318693069
 31
0.0
 11
-15.2892553797
 21
17.2686037694
 31
0.0
 11
-15.3035072531
 21
17.2448433906
 31
0.0
 11
-15.3228168604
 21
17.2277569085
 31
0.0
  0
SPLINE
  5
412
100
AcDbEntity
  8
RACCORDO
100
AcDbSpline
 62
7
  6
CONTINUOUS
 70
0
 71
3
 72
11
 73
7
 74
5
 42
0.0000001
 43
0.0000001
 44
0.0000000001
 12
0.2196643699
 22
0.1676883289
 32
0.0
 13
0.0000324103
 23
0.2763545006
 33
0.0
 40
0.0
 40
0.0
 40
0.0
 40
0.0
 40
0.2880052896
 40
0.5484364456
 40
0.7830451664
 40
1.0
 40
1.0
 40
1.0
 40
1.0
 10
-16.7470434582
 20
15.5985538033
 30
0.0
 10
-16.7259552914
 20
15.6146521785
 30
0.0
 10
-16.6877793716
 20
15.6481042783
 30
0.0
 10
-16.642410706
 20
15.7047864643
 30
0.0
 10
-16.6136239849
 20
15.7644647635
 30
0.0
 10
-16.6067053956
 20
15.8062599175
 30
0.0
 10
-16.6067030518
 20
15.8262453991
 30
0.0
 11
-16.7470434582
 21
15.5985538033
 31
0.0
 11
-16.6876249598
 21
15.6515090507
 31
0.0
 11
-16.6433132758
 21
15.7082218882
 31
0.0
 11
-16.6159708475
 21
15.7670095715
 31
0.0
 11
-16.6067030518
 21
15.8262453991
 31
0.0
  0
SPLINE
  5
413
100
AcDbEntity
  8
RACCORDO
100
AcDbSpline
 62
7
  6
CONTINUOUS
 70
0
 71
3
 72
11
 73
7
 74
5
 42
0.0000001
 43
0.0000001
 44
0.0000000001
 12
0.1712622514
 22
0.0869949376
 32
0.0
 13
0.0004293237
 23
0.1920903266
 33
0.0
 40
0.0
 40
0.0
 40
0.0
 40
0.0
 40
0.3609349558
 40
0.6475569956
 40
0.8565789599
 40
1.0
 40
1.0
 40
1.0
 40
1.0
 10
-15.7155568558
 20
-11.8414238575
 30
0.0
 10
-15.6949520114
 20
-11.8309573529
 30
0.0
 10
-15.6586356987
 20
-11.8108398004
 30
0.0
 10
-15.6138492615
 20
-11.7787728711
 30
0.0
 10
-15.5849020518
 20
-11.7496975516
 30
0.0
 10
-15.5752482315
 20
-11.7277524186
 30
0.0
 10
-15.5752277069
 20
-11.7185691537
 30
0.0
 11
-15.7155568558
 21
-11.8414238575
 31
0.0
 11
-15.6552319093
 21
-11.8072497912
 31
0.0
 11
-15.6109503472
 21
-11.7745317987
 31
0.0
 11
-15.5841501565
 21
-11.7446341659
 31
0.0
 11
-15.5752277069
 21
-11.7185691537
 31
0.0
  0
SPLINE
  5
414
100
AcDbEntity
  8
RACCORDO
100
AcDbSpline
 62
7
  6
CONTINUOUS
 70
0
 71
3
 72
14
 73
10
 74
8
 42
0.0000001
 43
0.0000001
 44
0.0000000001
 12
0.3943553874
 22
-0.2003416686
 32
0.0
 13
-0.0117691643
 23
-0.4421701511
 33
0.0
 40
0.0
 40
0.0
 40
0.0
 40
0.0
 40
0.1107720358
 40
0.2307901358
 40
0.3575289023
 40
0.4888703813
 40
0.7527421961
 40
0.8798077521
 40
1.0
 40
1.0
 40
1.0
 40
1.0
 10
-15.9276565798
 20
-11.4756059427
 30
0.0
 10
-15.9130953967
 20
-11.4830033609
 30
0.0
 10
-15.8838326005
 20
-11.5006829495
 30
0.0
 10
-15.8436274311
 20
-11.5351236501
 30
0.0
 10
-15.8070665116
 20
-11.5774468401
 30
0.0
 10
-15.7642728189
 20
-11.641574621
 30
0.0
 10
-15.7337767879
 20
-11.7133612945
 30
0.0
 10
-15.7178161485
 20
-11.7871430989
 30
0.0
 10
-15.7150852857
 20
-11.8237086916
 30
0.0
 10
-15.7155568064
 20
-11.8414238331
 30
0.0
 11
-15.9276565798
 21
-11.4756059427
 31
0.0
 11
-15.8857674175
 21
-11.5010233915
 31
0.0
 11
-15.8453029447
 21
-11.5353873113
 31
0.0
 11
-15.8084270604
 21
-11.5776115557
 31
0.0
 11
-15.7761686881
 21
-11.6259284801
 31
0.0
 11
-15.7306267213
 21
-11.7333943758
 31
0.0
 11
-15.7189193575
 21
-11.7883660308
 31
0.0
 11
-15.7155568064
 21
-11.8414238331
 31
0.0
  0
SPLINE
  5
415
100
AcDbEntity
  8
RACCORDO
100
AcDbSpline
 62
7
  6
CONTINUOUS
 70
0
 71
3
 72
11
 73
7
 74
5
 42
0.0000001
 43
0.0000001
 44
0.0000000001
 12
0.2076592723
 22
0.1075187357
 32
0.0
 13
-0.0000171752
 23
0.2338432201
 33
0.0
 40
0.0
 40
0.0
 40
0.0
 40
0.0
 40
0.3012932365
 40
0.5638744451
 40
0.7922301682
 40
1.0
 40
1.0
 40
1.0
 40
1.0
 10
-16.7470329859
 20
-3.170253163
 30
0.0
 10
-16.7261775411
 20
-3.1594549404
 30
0.0
 10
-16.6884887781
 20
-3.1363546221
 30
0.0
 10
-16.6428431643
 20
-3.0939841476
 30
0.0
 10
-16.6136627364
 20
-3.0470116469
 30
0.0
 10
-16.6067018122
 20
-3.0127618425
 30
0.0
 10
-16.6067030017
 20
-2.9965666537
 30
0.0
 11
-16.7470329859
 21
-3.170253163
 31
0.0
 11
-16.6873860004
 21
-3.1327538589
 31
0.0
 11
-16.6430976758
 21
-3.0902232522
 31
0.0
 11
-16.6158881508
 21
-3.0442760901
 31
0.0
 11
-16.6067030017
 21
-2.9965666537
 31
0.0
  0
SPLINE
  5
416
100
AcDbEntity
  8
RACCORDO
100
AcDbSpline
 62
7
  6
CONTINUOUS
 70
0
 71
3
 72
10
 73
6
 74
4
 42
0.0000001
 43
0.0000001
 44
0.0000000001
 12
-0.0000475625
 22
0.7594151991
 32
0.0
 13
0.4453762797
 23
0.615102769
 33
0.0
 40
0.0
 40
0.0
 40
0.0
 40
0.0
 40
0.2349208791
 40
0.4858622316
 40
1.0
 40
1.0
 40
1.0
 40
1.0
 10
-17.0621019312
 20
14.8001294376
 30
0.0
 10
-17.0621056556
 20
14.859596933
 30
0.0
 10
-17.0499080105
 20
14.9827905422
 30
0.0
 10
-16.9850686546
 20
15.2280436605
 30
0.0
 10
-16.8949100277
 20
15.4036844178
 30
0.0
 10
-16.8185817722
 20
15.5091002728
 30
0.0
 11
-17.0621019312
 21
14.8001294376
 31
0.0
 11
-17.0457969026
 21
14.9777852657
 31
0.0
 11
-16.9977716199
 21
15.1622032504
 31
0.0
 11
-16.8185817722
 21
15.5091002728
 31
0.0
  0
SPLINE
  5
417
100
AcDbEntity
  8
RACCORDO
100
AcDbSpline
 62
7
  6
CONTINUOUS
 70
0
 71
3
 72
9
 73
5
 74
3
 42
0.0000001
 43
0.0000001
 44
0.0000000001
 12
-0.0087546891
 22
-0.0874359101
 32
0.0
 13
-0.0780337588
 23
-0.0404031613
 33
0.0
 40
0.0
 40
0.0
 40
0.0
 40
0.0
 40
0.4365281204
 40
1.0
 40
1.0
 40
1.0
 40
1.0
 10
-15.2222170538
 20
17.3963051985
 30
0.0
 10
-15.2234909431
 20
17.383582454
 30
0.0
 10
-15.2384496883
 20
17.3558984145
 30
0.0
 10
-15.2634323227
 20
17.3394579886
 30
0.0
 10
-15.2780889323
 20
17.3318693069
 30
0.0
 11
-15.2222170538
 21
17.3963051985
 31
0.0
 11
-15.2384608892
 21
17.3615552776
 31
0.0
 11
-15.2780889323
 21
17.3318693069
 31
0.0
  0
SPLINE
  5
418
100
AcDbEntity
  8
RACCORDO
100
AcDbSpline
 62
7
  6
CONTINUOUS
 70
0
 71
3
 72
11
 73
7
 74
5
 42
0.0000001
 43
0.0000001
 44
0.0000000001
 12
0.0000031704
 22
-0.0935249258
 32
0.0
 13
-0.0830527307
 23
-0.0430018101
 33
0.0
 40
0.0
 40
0.0
 40
0.0
 40
0.0
 40
0.2077396888
 40
0.4361283515
 40
0.6988919218
 40
1.0
 40
1.0
 40
1.0
 40
1.0
 10
-15.22196567
 20
21.0214219389
 30
0.0
 10
-15.2219654505
 20
21.0149456592
 30
0.0
 10
-15.2247373099
 20
21.0012452097
 30
0.0
 10
-15.2364195322
 20
20.9824555145
 30
0.0
 10
-15.2546837171
 20
20.9655193974
 30
0.0
 10
-15.2697529829
 20
20.9562744505
 30
0.0
 10
-15.2780889323
 20
20.9519583864
 30
0.0
 11
-15.22196567
 21
21.0214219389
 31
0.0
 11
-15.2256311907
 21
21.0023420085
 31
0.0
 11
-15.2365180432
 21
20.9839646463
 31
0.0
 11
-15.254249302
 21
20.9669490563
 31
0.0
 11
-15.2780889323
 21
20.9519583864
 31
0.0
  0
SPLINE
  5
419
100
AcDbEntity
  8
RACCORDO
100
AcDbSpline
 62
7
  6
CONTINUOUS
 70
0
 71
3
 72
10
 73
6
 74
4
 42
0.0000001
 43
0.0000001
 44
0.0000000001
 12
-0.1719060809
 22
0.0858445567
 32
0.0
 13
-0.1728440808
 23
-0.0839399328
 33
0.0
 40
0.0
 40
0.0
 40
0.0
 40
0.0
 40
0.4083751956
 40
0.6803995527
 40
1.0
 40
1.0
 40
1.0
 40
1.0
 10
-15.7421054214
 20
-11.4484811493
 30
0.0
 10
-15.7655061479
 20
-11.4367955534
 30
0.0
 10
-15.8125274356
 20
-11.4356928857
 30
0.0
 10
-15.8740701678
 20
-11.4518653877
 30
0.0
 10
-15.9092428996
 20
-11.4666635302
 30
0.0
 10
-15.9276565814
 20
-11.4756059435
 30
0.0
 11
-15.7421054214
 21
-11.4484811493
 31
0.0
 11
-15.820096036
 21
-11.4398331211
 31
0.0
 11
-15.8708805922
 21
-11.4522016496
 31
0.0
 11
-15.9276565814
 21
-11.4756059435
 31
0.0
  0
SPLINE
  5
41A
100
AcDbEntity
  8
RACCORDO
100
AcDbSpline
 62
7
  6
CONTINUOUS
 70
0
 71
3
 72
9
 73
5
 74
3
 42
0.0000001
 43
0.0000001
 44
0.0000000001
 12
-0.0799442417
 22
0.0399316657
 32
0.0
 13
-0.0806054505
 23
-0.0385795418
 33
0.0
 40
0.0
 40
0.0
 40
0.0
 40
0.0
 40
0.4650684741
 40
1.0
 40
1.0
 40
1.0
 40
1.0
 10
-15.3325866436
 20
21.2003422604
 30
0.0
 10
-15.3449798257
 20
21.20653258
 30
0.0
 10
-15.3758800931
 20
21.2119070811
 30
0.0
 10
-15.4051159505
 20
21.2027161334
 30
0.0
 10
-15.4194887493
 20
21.1958369957
 30
0.0
 11
-15.3325866436
 21
21.2003422604
 31
0.0
 11
-15.373361313
 21
21.2083812603
 31
0.0
 11
-15.4194887493
 21
21.1958369957
 31
0.0
  0
SPLINE
  5
41B
100
AcDbEntity
  8
RACCORDO
100
AcDbSpline
 62
7
  6
CONTINUOUS
 70
0
 71
3
 72
9
 73
5
 74
3
 42
0.0000001
 43
0.0000001
 44
0.0000000001
 12
-0.0772254574
 22
0.0305001057
 32
0.0
 13
-0.0748939282
 23
-0.0358458816
 33
0.0
 40
0.0
 40
0.0
 40
0.0
 40
0.0
 40
0.466292465
 40
1.0
 40
1.0
 40
1.0
 40
1.0
 10
-15.7133901111
 20
21.3904237679
 30
0.0
 10
-15.7253933274
 20
21.3951644244
 30
0.0
 10
-15.7540790191
 20
21.3983644956
 30
0.0
 10
-15.7810155361
 20
21.3896393704
 30
0.0
 10
-15.7943393541
 20
21.3832622981
 30
0.0
 11
-15.7133901111
 21
21.3904237679
 31
0.0
 11
-15.7517648505
 21
21.3955558831
 31
0.0
 11
-15.7943393541
 21
21.3832622981
 31
0.0
  0
SPLINE
  5
41C
100
AcDbEntity
  8
RACCORDO
100
AcDbSpline
 62
7
  6
CONTINUOUS
 70
0
 71
3
 72
9
 73
5
 74
3
 42
0.0000001
 43
0.0000001
 44
0.0000000001
 12
0.0807359686
 22
0.0373517402
 32
0.0
 13
0.0790092133
 23
-0.0408777855
 33
0.0
 40
0.0
 40
0.0
 40
0.0
 40
0.0
 40
0.4648447593
 40
1.0
 40
1.0
 40
1.0
 40
1.0
 10
-15.8806621797
 20
21.3904187469
 30
0.0
 10
-15.8681522824
 20
21.3962063338
 30
0.0
 10
-15.8372363675
 20
21.4006111695
 30
0.0
 10
-15.8084334189
 20
21.3905542851
 30
0.0
 10
-15.7943393541
 20
21.3832622981
 30
0.0
 11
-15.8806621797
 21
21.3904187469
 31
0.0
 11
-15.8398666515
 21
21.3971765655
 31
0.0
 11
-15.7943393541
 21
21.3832622981
 31
0.0
  0
SPLINE
  5
41D
100
AcDbEntity
  8
RACCORDO
100
AcDbSpline
 62
7
  6
CONTINUOUS
 70
0
 71
3
 72
9
 73
5
 74
3
 42
0.0000001
 43
0.0000001
 44
0.0000000001
 12
-0.0087546891
 22
-0.0874359101
 32
0.0
 13
-0.0780337588
 23
-0.0404031613
 33
0.0
 40
0.0
 40
0.0
 40
0.0
 40
0.0
 40
0.4365281204
 40
1.0
 40
1.0
 40
1.0
 40
1.0
 10
-15.2222170538
 20
-0.9201320915
 30
0.0
 10
-15.2234909431
 20
-0.932854836
 30
0.0
 10
-15.2384496883
 20
-0.9605388755
 30
0.0
 10
-15.2634323227
 20
-0.9769793014
 30
0.0
 10
-15.2780889323
 20
-0.9845679832
 30
0.0
 11
-15.2222170538
 21
-0.9201320915
 31
0.0
 11
-15.2384608892
 21
-0.9548820124
 31
0.0
 11
-15.2780889323
 21
-0.9845679832
 31
0.0
  0
SPLINE
  5
41E
100
AcDbEntity
  8
RACCORDO
100
AcDbSpline
 62
7
  6
CONTINUOUS
 70
0
 71
3
 72
11
 73
7
 74
5
 42
0.0000001
 43
0.0000001
 44
0.0000000001
 12
0.0000031704
 22
-0.0935249258
 32
0.0
 13
-0.0830527307
 23
-0.0430018101
 33
0.0
 40
0.0
 40
0.0
 40
0.0
 40
0.0
 40
0.2077396888
 40
0.4361283515
 40
0.6988919218
 40
1.0
 40
1.0
 40
1.0
 40
1.0
 10
-15.22196567
 20
2.7049846488
 30
0.0
 10
-15.2219654505
 20
2.6985083692
 30
0.0
 10
-15.2247373099
 20
2.6848079197
 30
0.0
 10
-15.2364195322
 20
2.6660182245
 30
0.0
 10
-15.2546837171
 20
2.6490821074
 30
0.0
 10
-15.2697529829
 20
2.6398371605
 30
0.0
 10
-15.2780889323
 20
2.6355210963
 30
0.0
 11
-15.22196567
 21
2.7049846488
 31
0.0
 11
-15.2256311907
 21
2.6859047185
 31
0.0
 11
-15.2365180432
 21
2.6675273563
 31
0.0
 11
-15.254249302
 21
2.6505117662
 31
0.0
 11
-15.2780889323
 21
2.6355210963
 31
0.0
  0
SPLINE
  5
41F
100
AcDbEntity
  8
RACCORDO
100
AcDbSpline
 62
7
  6
CONTINUOUS
 70
0
 71
3
 72
9
 73
5
 74
3
 42
0.0000001
 43
0.0000001
 44
0.0000000001
 12
-0.0799442417
 22
0.0399316657
 32
0.0
 13
-0.0806054505
 23
-0.0385795418
 33
0.0
 40
0.0
 40
0.0
 40
0.0
 40
0.0
 40
0.4650684741
 40
1.0
 40
1.0
 40
1.0
 40
1.0
 10
-15.3325866436
 20
2.8839049704
 30
0.0
 10
-15.3449798257
 20
2.89009529
 30
0.0
 10
-15.3758800931
 20
2.8954697911
 30
0.0
 10
-15.4051159505
 20
2.8862788434
 30
0.0
 10
-15.4194887493
 20
2.8793997057
 30
0.0
 11
-15.3325866436
 21
2.8839049704
 31
0.0
 11
-15.373361313
 21
2.8919439703
 31
0.0
 11
-15.4194887493
 21
2.8793997057
 31
0.0
  0
SPLINE
  5
420
100
AcDbEntity
  8
RACCORDO
100
AcDbSpline
 62
7
  6
CONTINUOUS
 70
0
 71
3
 72
9
 73
5
 74
3
 42
0.0000001
 43
0.0000001
 44
0.0000000001
 12
-0.0772254574
 22
0.0305001057
 32
0.0
 13
-0.0748939282
 23
-0.0358458816
 33
0.0
 40
0.0
 40
0.0
 40
0.0
 40
0.0
 40
0.466292465
 40
1.0
 40
1.0
 40
1.0
 40
1.0
 10
-15.7133901111
 20
3.0739864779
 30
0.0
 10
-15.7253933274
 20
3.0787271344
 30
0.0
 10
-15.7540790191
 20
3.0819272055
 30
0.0
 10
-15.7810155361
 20
3.0732020804
 30
0.0
 10
-15.7943393541
 20
3.066825008
 30
0.0
 11
-15.7133901111
 21
3.0739864779
 31
0.0
 11
-15.7517648505
 21
3.079118593
 31
0.0
 11
-15.7943393541
 21
3.066825008
 31
0.0
  0
SPLINE
  5
421
100
AcDbEntity
  8
RACCORDO
100
AcDbSpline
 62
7
  6
CONTINUOUS
 70
0
 71
3
 72
9
 73
5
 74
3
 42
0.0000001
 43
0.0000001
 44
0.0000000001
 12
0.0807359686
 22
0.0373517402
 32
0.0
 13
0.0790092133
 23
-0.0408777855
 33
0.0
 40
0.0
 40
0.0
 40
0.0
 40
0.0
 40
0.4648447593
 40
1.0
 40
1.0
 40
1.0
 40
1.0
 10
-15.8806621797
 20
3.0739814569
 30
0.0
 10
-15.8681522824
 20
3.0797690438
 30
0.0
 10
-15.8372363675
 20
3.0841738795
 30
0.0
 10
-15.8084334189
 20
3.0741169951
 30
0.0
 10
-15.7943393541
 20
3.066825008
 30
0.0
 11
-15.8806621797
 21
3.0739814569
 31
0.0
 11
-15.8398666515
 21
3.0807392755
 31
0.0
 11
-15.7943393541
 21
3.066825008
 31
0.0
  0
SPLINE
  5
422
100
AcDbEntity
  8
ASSI
100
AcDbSpline
 62
7
  6
CONTINUOUS
 70
0
 71
3
 72
11
 73
7
 74
5
 42
0.0000001
 43
0.0000001
 44
0.0000000001
 12
0.0483159092
 22
0.0240461291
 32
0.0
 13
0.048326814
 23
-0.0240242057
 33
0.0
 40
0.0
 40
0.0
 40
0.0
 40
0.0
 40
0.4141056993
 40
0.7151930062
 40
0.9055096016
 40
1.0
 40
1.0
 40
1.0
 40
1.0
 10
-2.3013495993
 20
-17.0510265267
 30
0.0
 10
-2.2946803015
 20
-17.0477073137
 30
0.0
 10
-2.2830545863
 20
-17.042311368
 30
0.0
 10
-2.2678269399
 20
-17.0360393664
 30
0.0
 10
-2.258030329
 20
-17.0330442353
 30
0.0
 10
-2.2525170076
 20
-17.0322095443
 30
0.0
 10
-2.2509948676
 20
-17.0329662299
 30
0.0
 11
-2.3013495993
 21
-17.0510265267
 31
0.0
 11
-2.2810828468
 21
-17.0416069134
 31
0.0
 11
-2.2659818339
 21
-17.0356068364
 31
0.0
 11
-2.2560926388
 21
-17.0328317781
 31
0.0
 11
-2.2509948676
 21
-17.0329662299
 31
0.0
  0
SPLINE
  5
423
100
AcDbEntity
  8
SMUSSO
100
AcDbSpline
 62
7
  6
CONTINUOUS
 70
0
 71
3
 72
11
 73
7
 74
5
 42
0.0000001
 43
0.0000001
 44
0.0000000001
 12
0.52130581
 22
-0.3908867368
 32
0.0
 13
0.0000000004
 23
-0.6515766943
 33
0.0
 40
0.0
 40
0.0
 40
0.0
 40
0.0
 40
0.2409179742
 40
0.4999903053
 40
0.7590659137
 40
1.0
 40
1.0
 40
1.0
 40
1.0
 10
35.1608469682
 20
25.3652333887
 30
0.0
 10
35.2027109481
 20
25.3338428417
 30
0.0
 10
35.2802867584
 20
25.2559801731
 30
0.0
 10
35.3691491456
 20
25.1158189125
 30
0.0
 10
35.4279724317
 20
24.96063303
 30
0.0
 10
35.4437274069
 20
24.8518523198
 30
0.0
 10
35.443727407
 20
24.799523308
 30
0.0
 11
35.1608469682
 21
25.3652333887
 31
0.0
 11
35.2730487413
 21
25.2554499866
 31
0.0
 11
35.3640223467
 21
25.1132561133
 31
0.0
 11
35.4232055694
 21
24.9551632241
 31
0.0
 11
35.443727407
 21
24.799523308
 31
0.0
  0
SPLINE
  5
424
100
AcDbEntity
  8
DRAFT
100
AcDbSpline
 62
7
  6
CONTINUOUS
 70
0
 71
3
 72
11
 73
7
 74
5
 42
0.0000001
 43
0.0000001
 44
0.0000000001
 12
0.6261254537
 22
0.3305206473
 32
0.0
 13
0.6332626516
 23
-0.3166313253
 33
0.0
 40
0.0
 40
0.0
 40
0.0
 40
0.0
 40
0.2272078653
 40
0.4644899765
 40
0.7204832002
 40
1.0
 40
1.0
 40
1.0
 40
1.0
 10
-31.5647537277
 20
58.5916839388
 30
0.0
 10
-31.5173335185
 20
58.6167162357
 30
0.0
 10
-31.4123584557
 20
58.6539271258
 30
0.0
 10
-31.2407997658
 20
58.6646375481
 30
0.0
 10
-31.0599029421
 20
58.6317709497
 30
0.0
 10
-30.9418911856
 20
58.5842639288
 30
0.0
 10
-30.882888669
 20
58.5547626705
 30
0.0
 11
-31.5647537277
 21
58.5916839388
 31
0.0
 11
-31.4132887314
 21
58.6458686606
 31
0.0
 11
-31.2457156313
 21
58.657808257
 31
0.0
 11
-31.067087076
 21
58.627119686
 31
0.0
 11
-30.882888669
 21
58.5547626705
 31
0.0
  0
SPLINE
  5
425
100
AcDbEntity
  8
DRAFT
100
AcDbSpline
 62
7
  6
CONTINUOUS
 70
0
 71
3
 72
9
 73
5
 74
3
 42
0.0000001
 43
0.0000001
 44
0.0000000001
 12
-0.2861881486
 22
-0.1510737108
 32
0.0
 13
-0.1691800093
 23
-0.275871432
 33
0.0
 40
0.0
 40
0.0
 40
0.0
 40
0.0
 40
0.4874587622
 40
1.0
 40
1.0
 40
1.0
 40
1.0
 10
-33.2369973266
 20
57.708890751
 30
0.0
 10
-33.2834989668
 20
57.6843433496
 30
0.0
 10
-33.3718872795
 20
57.6196490467
 30
0.0
 10
-33.439139589
 20
57.5336440746
 30
0.0
 10
-33.4680434994
 20
57.4865122462
 30
0.0
 11
-33.2369973266
 21
57.708890751
 31
0.0
 11
-33.3646480283
 21
57.616207983
 31
0.0
 11
-33.4680434994
 21
57.4865122462
 31
0.0
  0
SPLINE
  5
426
100
AcDbEntity
  8
DRAFT
100
AcDbSpline
 62
7
  6
CONTINUOUS
 70
0
 71
3
 72
9
 73
5
 74
3
 42
0.0000001
 43
0.0000001
 44
0.0000000001
 12
0.2237904518
 22
-0.1118952259
 32
0.0
 13
0.2001722335
 23
-0.1501125738
 33
0.0
 40
0.0
 40
0.0
 40
0.0
 40
0.0
 40
0.2412686472
 40
1.0
 40
1.0
 40
1.0
 40
1.0
 10
34.3830672352
 20
25.9217847184
 30
0.0
 10
34.4010651084
 20
25.9127857818
 30
0.0
 10
34.474720785
 20
25.8736166018
 30
0.0
 10
34.5445736985
 20
25.8274382726
 30
0.0
 10
34.5951993483
 20
25.7894732339
 30
0.0
 11
34.3830672352
 21
25.9217847184
 31
0.0
 11
34.4363853583
 21
25.8934771852
 31
0.0
 11
34.5951993483
 21
25.7894732339
 31
0.0
  0
SPLINE
  5
427
100
AcDbEntity
  8
DRAFT
100
AcDbSpline
 62
7
  6
CONTINUOUS
 70
0
 71
3
 72
9
 73
5
 74
3
 42
0.0000001
 43
0.0000001
 44
0.0000000001
 12
0.2541397739
 22
0.0018723959
 32
0.0
 13
0.2297645185
 23
0.1086222656
 33
0.0
 40
0.0
 40
0.0
 40
0.0
 40
0.0
 40
0.508306326
 40
1.0
 40
1.0
 40
1.0
 40
1.0
 10
33.0864456681
 20
-57.5210607906
 30
0.0
 10
33.1295059531
 20
-57.5207435404
 30
0.0
 10
33.2144519104
 20
-57.5118142169
 30
0.0
 10
33.295477219
 20
-57.4843880122
 30
0.0
 10
33.333135139
 20
-57.4665850519
 30
0.0
 11
33.0864456681
 21
-57.5210607906
 31
0.0
 11
33.2148500892
 21
-57.5068867395
 31
0.0
 11
33.333135139
 21
-57.4665850519
 31
0.0
  0
SPLINE
  5
428
100
AcDbEntity
  8
DRAFT
100
AcDbSpline
 62
7
  6
CONTINUOUS
 70
0
 71
3
 72
11
 73
7
 74
5
 42
0.0000001
 43
0.0000001
 44
0.0000000001
 12
0.0
 22
-0.9568373101
 32
0.0
 13
-0.8650409023
 23
-0.4089521675
 33
0.0
 40
0.0
 40
0.0
 40
0.0
 40
0.0
 40
0.2901645203
 40
0.5498881111
 40
0.7828101642
 40
1.0
 40
1.0
 40
1.0
 40
1.0
 10
35.443727407
 20
-55.8417282425
 30
0.0
 10
35.443727407
 20
-55.9342749888
 30
0.0
 10
35.4285998919
 20
-56.1103525528
 30
0.0
 10
35.3521186061
 20
-56.3506886176
 30
0.0
 10
35.2243201027
 20
-56.5419533906
 30
0.0
 10
35.1053418655
 20
-56.6288593499
 30
0.0
 10
35.042715835
 20
-56.6584661013
 30
0.0
 11
35.443727407
 21
-55.8417282425
 31
0.0
 11
35.4170152829
 21
-56.1180804902
 31
0.0
 11
35.3382257075
 21
-56.3537731382
 31
0.0
 11
35.211327986
 21
-56.5369870606
 31
0.0
 11
35.042715835
 21
-56.6584661013
 31
0.0
  0
SPLINE
  5
429
100
AcDbEntity
  8
DRAFT
100
AcDbSpline
 62
7
  6
CONTINUOUS
 70
0
 71
3
 72
11
 73
7
 74
5
 42
0.0000001
 43
0.0000001
 44
0.0000000001
 12
1.5637395331
 22
-1.1726749604
 32
0.0
 13
0.0000000011
 23
-1.9545966055
 33
0.0
 40
0.0
 40
0.0
 40
0.0
 40
0.0
 40
0.240927358
 40
0.4999984701
 40
0.7590654389
 40
1.0
 40
1.0
 40
1.0
 40
1.0
 10
34.5951993483
 20
25.7894732339
 30
0.0
 10
34.7207818931
 20
25.6952967406
 30
0.0
 10
34.9534673753
 20
25.46169082
 30
0.0
 10
35.2200230929
 20
25.0412315679
 30
0.0
 10
35.3964700135
 20
24.5757076376
 30
0.0
 10
35.4437274069
 20
24.2493931528
 30
0.0
 10
35.443727407
 20
24.0924165277
 30
0.0
 11
34.5951993483
 21
25.7894732339
 31
0.0
 11
34.9317649414
 21
25.4601021837
 31
0.0
 11
35.2046469496
 21
25.0335396162
 31
0.0
 11
35.3821696001
 21
24.5593057906
 31
0.0
 11
35.443727407
 21
24.0924165277
 31
0.0
  0
SPLINE
  5
42A
100
AcDbEntity
  8
DRAFT
100
AcDbSpline
 62
7
  6
CONTINUOUS
 70
0
 71
3
 72
11
 73
7
 74
5
 42
0.0000001
 43
0.0000001
 44
0.0000000001
 12
0.8409650016
 22
0.3975701921
 32
0.0
 13
-0.0000000024
 23
0.9302065317
 33
0.0
 40
0.0
 40
0.0
 40
0.0
 40
0.0
 40
0.2171898357
 40
0.4501118901
 40
0.7098354804
 40
1.0
 40
1.0
 40
1.0
 40
1.0
 10
33.333135139
 20
-57.4665850519
 30
0.0
 10
33.3940181559
 20
-57.437802317
 30
0.0
 10
33.5096849793
 20
-57.3533151296
 30
0.0
 10
33.6339265811
 20
-57.1673736524
 30
0.0
 10
33.7082792317
 20
-56.9337266413
 30
0.0
 10
33.7229857157
 20
-56.7625496836
 30
0.0
 10
33.7229857155
 20
-56.6725787064
 30
0.0
 11
33.333135139
 21
-57.4665850519
 31
0.0
 11
33.49705446
 21
-57.3484870235
 31
0.0
 11
33.6204203515
 21
-57.1703723241
 31
0.0
 11
33.6970170468
 21
-56.941239494
 31
0.0
 11
33.7229857155
 21
-56.6725787064
 31
0.0
  0
SPLINE
  5
42B
100
AcDbEntity
  8
DRAFT
100
AcDbSpline
 62
7
  6
CONTINUOUS
 70
0
 71
3
 72
11
 73
7
 74
5
 42
0.0000001
 43
0.0000001
 44
0.0000000001
 12
-0.6156376434
 22
0.3078188217
 32
0.0
 13
-0.6086990836
 23
-0.3213215844
 33
0.0
 40
0.0
 40
0.0
 40
0.0
 40
0.0
 40
0.2795167998
 40
0.5355100222
 40
0.7727921339
 40
1.0
 40
1.0
 40
1.0
 40
1.0
 10
-32.5741099819
 20
57.672997082
 30
0.0
 10
-32.6314703366
 20
57.7016772593
 30
0.0
 10
-32.7461975819
 20
57.7478620615
 30
0.0
 10
-32.9220596731
 20
57.7798139142
 30
0.0
 10
-33.0888435302
 20
57.7694015836
 30
0.0
 10
-33.19089692
 20
57.7332263481
 30
0.0
 10
-33.2369973266
 20
57.708890751
 30
0.0
 11
-32.5741099819
 21
57.672997082
 31
0.0
 11
-32.7531817667
 21
57.7433402522
 31
0.0
 11
-32.9268387195
 21
57.7731746961
 31
0.0
 11
-33.0897479142
 21
57.7615674021
 31
0.0
 11
-33.2369973266
 21
57.708890751
 31
0.0
  0
SPLINE
  5
42C
100
AcDbEntity
  8
DRAFT
100
AcDbSpline
 62
7
  6
CONTINUOUS
 70
0
 71
3
 72
12
 73
8
 74
6
 42
0.0000001
 43
0.0000001
 44
0.0000000001
 12
0.0
 22
2.1421561453
 32
0.0
 13
-1.9160027067
 23
0.958001346
 33
0.0
 40
0.0
 40
0.0
 40
0.0
 40
0.0
 40
0.2466637095
 40
0.5115168861
 40
0.6433278455
 40
0.7704448343
 40
1.0
 40
1.0
 40
1.0
 40
1.0
 10
33.7229857155
 20
23.2615660589
 30
0.0
 10
33.7229857155
 20
23.437696786
 30
0.0
 10
33.6621813423
 20
23.8035078106
 30
0.0
 10
33.4783557755
 20
24.2289486968
 30
0.0
 10
33.2713240395
 20
24.5416705505
 30
0.0
 10
33.0436488788
 20
24.8062117359
 30
0.0
 10
32.838455358
 20
24.9667144126
 30
0.0
 10
32.6918459184
 20
25.0400191318
 30
0.0
 11
33.7229857155
 21
23.2615660589
 31
0.0
 11
33.6444948725
 21
23.7840959476
 31
0.0
 11
33.4209718611
 21
24.3055662439
 31
0.0
 11
33.2647164952
 21
24.540749654
 31
0.0
 11
33.0864460337
 21
24.7465878183
 31
0.0
 11
32.6918459184
 21
25.0400191318
 31
0.0
  0
SPLINE
  5
42D
100
AcDbEntity
  8
SMUSSO
100
AcDbSpline
 62
7
  6
CONTINUOUS
 70
0
 71
3
 72
11
 73
7
 74
5
 42
0.0000001
 43
0.0000001
 44
0.0000000001
 12
-0.0
 22
-0.6297202295
 32
0.0
 13
-0.5632353698
 23
-0.2816265002
 33
0.0
 40
0.0
 40
0.0
 40
0.0
 40
0.0
 40
0.2897540709
 40
0.5495824753
 40
0.7828479151
 40
1.0
 40
1.0
 40
1.0
 40
1.0
 10
33.07491969
 20
-57.5378014136
 30
0.0
 10
33.07491969
 20
-57.5986227469
 30
0.0
 10
33.0651074704
 20
-57.714423315
 30
0.0
 10
33.0156057261
 20
-57.8727976042
 30
0.0
 10
32.9329461505
 20
-57.9995965703
 30
0.0
 10
32.8557941952
 20
-58.0582868325
 30
0.0
 10
32.8150249503
 20
-58.0786720931
 30
0.0
 11
33.07491969
 21
-57.5378014136
 31
0.0
 11
33.0576408265
 21
-57.7194454396
 31
0.0
 11
33.0066493384
 21
-57.8749160527
 31
0.0
 11
32.9244376533
 21
-57.9966472673
 31
0.0
 11
32.8150249503
 21
-58.0786720931
 31
0.0
  0
SPLINE
  5
42E
100
AcDbEntity
  8
SMUSSO
100
AcDbSpline
 62
7
  6
CONTINUOUS
 70
0
 71
3
 72
11
 73
7
 74
5
 42
0.0000001
 43
0.0000001
 44
0.0000000001
 12
0.5208895805
 22
-0.3908986803
 32
0.0
 13
0.0000000008
 23
-0.6512508989
 33
0.0
 40
0.0
 40
0.0
 40
0.0
 40
0.0
 40
0.2409853204
 40
0.5000557388
 40
0.7590735577
 40
1.0
 40
1.0
 40
1.0
 40
1.0
 10
32.792298944
 20
24.2680358632
 30
0.0
 10
32.8341411915
 20
24.236635582
 30
0.0
 10
32.9116449298
 20
24.158757639
 30
0.0
 10
33.0004171696
 20
24.018640111
 30
0.0
 10
33.0591849826
 20
23.8635385448
 30
0.0
 10
33.0749196899
 20
23.7548258793
 30
0.0
 10
33.07491969
 20
23.702524692
 30
0.0
 11
32.792298944
 21
24.2680358632
 31
0.0
 11
32.9044239059
 21
24.1582235008
 31
0.0
 11
32.9953033512
 21
24.0160710762
 31
0.0
 11
33.0544189807
 21
23.8580831978
 31
0.0
 11
33.07491969
 21
23.702524692
 31
0.0
  0
SPLINE
  5
42F
100
AcDbEntity
  8
SMUSSO
100
AcDbSpline
 62
7
  6
CONTINUOUS
 70
0
 71
3
 72
11
 73
7
 74
5
 42
0.0000001
 43
0.0000001
 44
0.0000000001
 12
0.4148284719
 22
0.2074207285
 32
0.0
 13
0.4148310692
 23
-0.2074155339
 33
0.0
 40
0.0
 40
0.0
 40
0.0
 40
0.0
 40
0.2271155755
 40
0.4646632397
 40
0.7207939733
 40
1.0
 40
1.0
 40
1.0
 40
1.0
 10
-34.1231724955
 20
57.618835445
 30
0.0
 10
-34.0917678264
 20
57.634538271
 30
0.0
 10
-34.022562898
 20
57.6575622118
 30
0.0
 10
-33.9101188212
 20
57.6631977399
 30
0.0
 10
-33.7917830781
 20
57.6409546203
 30
0.0
 10
-33.7145682322
 20
57.6097406662
 30
0.0
 10
-33.675960454
 20
57.5904367772
 30
0.0
 11
-34.1231724955
 21
57.618835445
 31
0.0
 11
-34.0233323747
 21
57.6524127903
 31
0.0
 11
-33.913348243
 21
57.658869205
 31
0.0
 11
-33.796403488
 21
57.638000225
 31
0.0
 11
-33.675960454
 21
57.5904367772
 31
0.0
  0
SPLINE
  5
430
100
AcDbEntity
  8
SMUSSO
100
AcDbSpline
 62
7
  6
CONTINUOUS
 70
0
 71
3
 72
9
 73
5
 74
3
 42
0.0000001
 43
0.0000001
 44
0.0000000001
 12
0.1491936351
 22
-0.0745968173
 32
0.0
 13
0.1334481561
 23
-0.1000750495
 33
0.0
 40
0.0
 40
0.0
 40
0.0
 40
0.0
 40
0.2412686469
 40
1.0
 40
1.0
 40
1.0
 40
1.0
 10
32.3678129088
 20
24.5685500957
 30
0.0
 10
32.379811491
 20
24.5625508047
 30
0.0
 10
32.4289152755
 20
24.5364380179
 30
0.0
 10
32.4754838846
 20
24.505652465
 30
0.0
 10
32.509234318
 20
24.4803424391
 30
0.0
 11
32.3678129088
 21
24.5685500957
 31
0.0
 11
32.4033583243
 21
24.5496784069
 31
0.0
 11
32.509234318
 21
24.4803424391
 31
0.0
  0
SPLINE
  5
431
100
AcDbEntity
  8
SMUSSO
100
AcDbSpline
 62
7
  6
CONTINUOUS
 70
0
 71
3
 72
11
 73
7
 74
5
 42
0.0000001
 43
0.0000001
 44
0.0000000001
 12
1.042493022
 22
-0.7817833071
 32
0.0
 13
0.0000000016
 23
-1.3030644037
 33
0.0
 40
0.0
 40
0.0
 40
0.0
 40
0.0
 40
0.2409273588
 40
0.4999984715
 40
0.7590654407
 40
1.0
 40
1.0
 40
1.0
 40
1.0
 10
32.509234318
 20
24.4803424391
 30
0.0
 10
32.5929560148
 20
24.41755811
 30
0.0
 10
32.7480796698
 20
24.261820829
 30
0.0
 10
32.9257834816
 20
23.9815146601
 30
0.0
 10
33.0434147618
 20
23.6711653733
 30
0.0
 10
33.0749196899
 20
23.453622384
 30
0.0
 10
33.07491969
 20
23.3489713014
 30
0.0
 11
32.509234318
 21
24.4803424391
 31
0.0
 11
32.7336113805
 21
24.2607617381
 31
0.0
 11
32.9155327195
 21
23.9763866922
 31
0.0
 11
33.033881153
 21
23.6602308077
 31
0.0
 11
33.07491969
 21
23.3489713014
 31
0.0
  0
ELLIPSE
  5
432
100
AcDbEntity
  8
RACCORDO
100
AcDbEllipse
 62
7
  6
CONTINUOUS
 10
-20.9543132355
 20
29.5799618214
 30
0.0
 11
-0.313181275
 21
0.626269159
 31
0.0
 40
0.6121897086
 41
-0.6846338794
 42
0.019259411
  0
ELLIPSE
  5
433
100
AcDbEntity
  8
RACCORDO
100
AcDbEllipse
 62
7
  6
CONTINUOUS
 10
14.6964182219
 20
-32.5146722037
 30
0.0
 11
-0.313181275
 21
0.626269159
 31
0.0
 40
0.6121897086
 41
-3.160544254
 42
-2.2557347926
  0
ELLIPSE
  5
434
100
AcDbEntity
  8
RACCORDO
100
AcDbEllipse
 62
7
  6
CONTINUOUS
 10
14.6964182219
 20
11.7545960927
 30
0.0
 11
-0.3130130858
 21
0.6261196575
 31
0.0
 40
0.6125552124
 41
-2.255296188
 42
-0.6848044477
  0
ELLIPSE
  5
435
100
AcDbEntity
  8
RACCORDO
100
AcDbEllipse
 62
7
  6
CONTINUOUS
 10
-16.8517859521
 20
-11.8543125041
 30
0.0
 11
-0.1340229113
 21
0.2684080287
 31
0.0
 40
0.6140178746
 41
0.8880524522
 42
2.4561097232
  0
ELLIPSE
  5
436
100
AcDbEntity
  8
RACCORDO
100
AcDbEllipse
 62
7
  6
CONTINUOUS
 10
-17.8659202834
 20
-12.3429772946
 30
0.0
 11
-0.1341484654
 21
0.2683369961
 31
0.0
 40
0.6125552124
 41
0.8862964655
 42
2.4567882058
  0
ELLIPSE
  5
437
100
AcDbEntity
  8
RACCORDO
100
AcDbEllipse
 62
7
  6
CONTINUOUS
 10
10.2353706577
 20
-25.1690003335
 30
0.0
 11
-0.1341371037
 21
0.2683722998
 31
0.0
 40
0.6123537661
 41
-0.6845550499
 42
0.0106825902
  0
ELLIPSE
  5
438
100
AcDbEntity
  8
RACCORDO
100
AcDbEllipse
 62
7
  6
CONTINUOUS
 10
-5.674531919
 20
-17.2140490452
 30
0.0
 11
-0.1341371037
 21
0.2683722998
 31
0.0
 40
0.6123537661
 41
-0.6845550499
 42
0.0106825902
  0
ELLIPSE
  5
439
100
AcDbEntity
  8
RACCORDO
100
AcDbEllipse
 62
7
  6
CONTINUOUS
 10
-16.4932979848
 20
-11.1984086536
 30
0.0
 11
-0.1342114942
 21
0.268324886
 31
0.0
 40
0.6123910759
 41
-2.2556797026
 42
-0.6848833758
  0
ELLIPSE
  5
43A
100
AcDbEntity
  8
RACCORDO
100
AcDbEllipse
 62
7
  6
CONTINUOUS
 10
-16.4932979848
 20
2.3116272214
 30
0.0
 11
-0.1342205464
 21
0.2684010681
 31
0.0
 40
0.6121897086
 41
-3.160544254
 42
-2.2557347926
  0
ELLIPSE
  5
43B
100
AcDbEntity
  8
RACCORDO
100
AcDbEllipse
 62
7
  6
CONTINUOUS
 10
-16.4932979848
 20
13.9162884801
 30
0.0
 11
-0.1341484654
 21
0.2683369961
 31
0.0
 40
0.6125552124
 41
-2.255296188
 42
-0.6848044477
  0
ELLIPSE
  5
43C
100
AcDbEntity
  8
RACCORDO
100
AcDbEllipse
 62
7
  6
CONTINUOUS
 10
5.2149125113
 20
-22.6587712603
 30
0.0
 11
-0.1341371037
 21
0.2683722998
 31
0.0
 40
0.6123537661
 41
-2.2553513767
 42
-0.6845550499
  0
ELLIPSE
  5
43D
100
AcDbEntity
  8
RACCORDO
100
AcDbEllipse
 62
7
  6
CONTINUOUS
 10
-10.6949900654
 20
-14.703819972
 30
0.0
 11
-0.1341371037
 21
0.2683722998
 31
0.0
 40
0.6123537661
 41
-2.2553513767
 42
-0.6845550499
  0
ELLIPSE
  5
43E
100
AcDbEntity
  8
RACCORDO
100
AcDbEllipse
 62
7
  6
CONTINUOUS
 10
-16.5652429224
 20
20.4633829156
 30
0.0
 11
-0.1342114942
 21
0.268324886
 31
0.0
 40
0.6123910759
 41
-3.1500217516
 42
-2.2556797026
  0
ELLIPSE
  5
43F
100
AcDbEntity
  8
RACCORDO
100
AcDbEllipse
 62
7
  6
CONTINUOUS
 10
-16.5652429224
 20
-9.8475062169
 30
0.0
 11
-0.1342114942
 21
0.268324886
 31
0.0
 40
0.6123910759
 41
-3.1500217506
 42
-2.2556797026
  0
ELLIPSE
  5
440
100
AcDbEntity
  8
RACCORDO
100
AcDbEllipse
 62
7
  6
CONTINUOUS
 10
-16.5652429224
 20
-4.3049436327
 30
0.0
 11
-0.1342114942
 21
0.268324886
 31
0.0
 40
0.6123910759
 41
-2.2556797026
 42
-0.6848833758
  0
ELLIPSE
  5
441
100
AcDbEntity
  8
ASSI
100
AcDbEllipse
 62
7
  6
CONTINUOUS
 10
9.344075602
 20
-23.0541082585
 30
0.0
 11
0.0974129977
 21
0.1748074534
 31
0.0
 40
0.6437101552
 41
0.6611775963
 42
0.7135374739
  0
ELLIPSE
  5
442
100
AcDbEntity
  8
ASSI
100
AcDbEllipse
 62
7
  6
CONTINUOUS
 10
-6.5658269747
 20
-15.0991569701
 30
0.0
 11
0.0974129977
 21
0.1748074534
 31
0.0
 40
0.6437101552
 41
0.6611775963
 42
0.7135374739
  0
ELLIPSE
  5
443
100
AcDbEntity
  8
ASSI
100
AcDbEllipse
 62
7
  6
CONTINUOUS
 10
-2.4499785644
 20
-17.6692818926
 30
0.0
 11
0.1997674032
 21
0.1243735635
 31
0.0
 40
0.0775313764
 41
5.4495541764
 42
6.9679906257
  0
ELLIPSE
  5
444
100
AcDbEntity
  8
RACCORDO
100
AcDbEllipse
 62
7
  6
CONTINUOUS
 10
-17.5005271112
 20
20.0117861944
 30
0.0
 11
-0.1342114942
 21
0.268324886
 31
0.0
 40
0.6123910759
 41
2.4567092778
 42
4.0275056046
  0
ELLIPSE
  5
445
100
AcDbEntity
  8
RACCORDO
100
AcDbEllipse
 62
7
  6
CONTINUOUS
 10
-17.5005271112
 20
-10.2991029381
 30
0.0
 11
-0.1342114942
 21
0.268324886
 31
0.0
 40
0.6123910759
 41
2.4567092778
 42
4.0275056046
  0
ELLIPSE
  5
446
100
AcDbEntity
  8
RACCORDO
100
AcDbEllipse
 62
7
  6
CONTINUOUS
 10
-17.0688574856
 20
13.6262895818
 30
0.0
 11
-0.1341484654
 21
0.2683369961
 31
0.0
 40
0.6125552124
 41
-2.255296188
 42
-0.7064273196
  0
ELLIPSE
  5
447
100
AcDbEntity
  8
RACCORDO
100
AcDbEllipse
 62
7
  6
CONTINUOUS
 10
9.6696852327
 20
-25.4639362697
 30
0.0
 11
-0.1341371037
 21
0.2683722998
 31
0.0
 40
0.6123537661
 41
-0.6845550499
 42
0.5377482072
  0
ELLIPSE
  5
448
100
AcDbEntity
  8
RACCORDO
100
AcDbEllipse
 62
7
  6
CONTINUOUS
 10
-17.0688574856
 20
-11.4763143282
 30
0.0
 11
-0.1342114942
 21
0.268324886
 31
0.0
 40
0.6123910759
 41
-2.2556797026
 42
-0.7068112211
  0
ELLIPSE
  5
449
100
AcDbEntity
  8
RACCORDO
100
AcDbEllipse
 62
7
  6
CONTINUOUS
 10
-11.2606754904
 20
-14.9987559082
 30
0.0
 11
-0.1341371037
 21
0.2683722998
 31
0.0
 40
0.6123537661
 41
-1.9068583071
 42
-0.6845550499
  0
ELLIPSE
  5
44A
100
AcDbEntity
  8
RACCORDO
100
AcDbEllipse
 62
7
  6
CONTINUOUS
 10
-6.240217344
 20
-17.5089849814
 30
0.0
 11
-0.1341371037
 21
0.2683722998
 31
0.0
 40
0.6123537661
 41
-0.6845550499
 42
0.5377482072
  0
ELLIPSE
  5
44B
100
AcDbEntity
  8
RACCORDO
100
AcDbEllipse
 62
7
  6
CONTINUOUS
 10
4.6492270863
 20
-22.9537071965
 30
0.0
 11
-0.1341371037
 21
0.2683722998
 31
0.0
 40
0.6123537661
 41
-1.9068583071
 42
-0.6845550499
  0
ELLIPSE
  5
44C
100
AcDbEntity
  8
RACCORDO
100
AcDbEllipse
 62
7
  6
CONTINUOUS
 10
-17.5005271112
 20
-4.7565403538
 30
0.0
 11
-0.1342114942
 21
0.268324886
 31
0.0
 40
0.6123910759
 41
-2.2556797026
 42
-0.6848833758
  0
ELLIPSE
  5
44D
100
AcDbEntity
  8
RACCORDO
100
AcDbEllipse
 62
7
  6
CONTINUOUS
 10
-17.0688574856
 20
2.0458147706
 30
0.0
 11
-0.1342205464
 21
0.2684010681
 31
0.0
 40
0.6121897086
 41
2.4785816461
 42
4.0274505145
  0
ELLIPSE
  5
44E
100
AcDbEntity
  8
ASSI
100
AcDbEllipse
 62
7
  6
CONTINUOUS
 10
-2.3083631292
 20
-17.2278888929
 30
0.0
 11
0.0823576675
 21
0.1823694112
 31
0.0
 40
0.5796795686
 41
0.6094740628
 42
0.6618339404
  0
ELLIPSE
  5
44F
100
AcDbEntity
  8
SMUSSO
100
AcDbEllipse
 62
7
  6
CONTINUOUS
 10
-34.9723228862
 20
56.0762301573
 30
0.0
 11
-0.268640788
 21
0.9802821504
 31
0.0
 40
0.3951602023
 41
0.1790466627
 42
0.9644448261
  0
ELLIPSE
  5
450
100
AcDbEntity
  8
SMUSSO
100
AcDbEllipse
 62
7
  6
CONTINUOUS
 10
-34.9723228862
 20
-24.8105425562
 30
0.0
 11
-0.268640788
 21
0.9802821504
 31
0.0
 40
0.3951602023
 41
0.9644448261
 42
1.7498429895
  0
ELLIPSE
  5
451
100
AcDbEntity
  8
SMUSSO
100
AcDbEllipse
 62
7
  6
CONTINUOUS
 10
-34.9723228862
 20
-24.8105425562
 30
0.0
 11
-0.6685268303
 21
0.7774608711
 31
0.0
 40
0.423927136
 41
1.5651843117
 42
2.3505824751
  0
ELLIPSE
  5
452
100
AcDbEntity
  8
SMUSSO
100
AcDbEllipse
 62
7
  6
CONTINUOUS
 10
-34.9723228862
 20
56.0762301573
 30
0.0
 11
-0.0351548098
 21
1.0451726698
 31
0.0
 40
0.7123478368
 41
-0.3689331855
 42
0.4164649779
  0
ELLIPSE
  5
453
100
AcDbEntity
  8
SMUSSO
100
AcDbEllipse
 62
7
  6
CONTINUOUS
 10
31.0714504766
 20
23.0543434759
 30
0.0
 11
-0.0351548098
 21
1.0451726698
 31
0.0
 40
0.7123478368
 41
-1.1543313489
 42
-0.3689331855
  0
ELLIPSE
  5
454
100
AcDbEntity
  8
SMUSSO
100
AcDbEllipse
 62
7
  6
CONTINUOUS
 10
31.0714504766
 20
-57.8324292376
 30
0.0
 11
-0.6685268303
 21
0.7774608711
 31
0.0
 40
0.423927136
 41
2.3505824751
 42
3.1359806385
  0
ELLIPSE
  5
455
100
AcDbEntity
  8
SMUSSO
100
AcDbEllipse
 62
7
  6
CONTINUOUS
 10
31.0714504766
 20
-57.8324292376
 30
0.0
 11
0.7972192175
 21
-0.6616331853
 31
0.0
 40
0.76072271
 41
-0.2222500336
 42
0.5631481298
  0
ELLIPSE
  5
456
100
AcDbEntity
  8
SMUSSO
100
AcDbEllipse
 62
7
  6
CONTINUOUS
 10
31.0714504766
 20
23.0543434759
 30
0.0
 11
0.7972192175
 21
-0.6616331853
 31
0.0
 40
0.76072271
 41
0.5631481298
 42
1.3485462932
  0
ENDSEC
  0
SECTION
  2
OBJECTS
  0
DICTIONARY
  5
C
100
AcDbDictionary
280
0
281
1
  3
ACAD_GROUP
350
D
  3
ACAD_MLINESTYLE
350
17
  3
ACAD_LAYOUT
350
1A
  3
ACAD_PLOTSETTINGS
350
19
  3
ACAD_PLOTSTYLENAME
350
E
  0
DICTIONARY
  5
D
102
{ACAD_REACTORS
330
C
102
}
100
AcDbDictionary
280
0
281
1
  0
ACDBDICTIONARYWDFLT
  5
E
102
{ACAD_REACTORS
330
C
102
}
100
AcDbDictionary
281
1
  3
Normal
350
F
100
AcDbDictionaryWithDefault
340
F
  0
DICTIONARY
  5
17
102
{ACAD_REACTORS
330
C
102
}
100
AcDbDictionary
280
0
281
1
  3
Standard
350
18
  0
DICTIONARY
  5
19
102
{ACAD_REACTORS
330
C
102
}
100
AcDbDictionary
281
1
  0
DICTIONARY
  5
1A
102
{ACAD_REACTORS
330
C
102
}
100
AcDbDictionary
281
1
  3
Model
350
457
  3
Layout1
350
458
  0
ACDBPLACEHOLDER
  5
F
102
{ACAD_REACTORS
330
E
102
}
  0
MLINESTYLE
  5
18
102
{ACAD_REACTORS
330
17
102
}
100
AcDbMlineStyle
  2
STANDARD
 70
0
  3

 62
256
 51
90.0
 52
90.0
 71
2
 49
0.5
 62
256
  6
BYLAYER
 49
-0.5
 62
256
  6
BYLAYER
  0
LAYOUT
  5
457
102
{ACAD_REACTORS
330
1A
102
}
100
AcDbPlotSettings
  1

  2
none_device
  4
ISO_A4_(297.00_x_210.00_MM)
  6

 40
0.0
 41
0.0
 42
0.0
 43
0.0
 44
297.0
 45
210.0
 46
0.0
 47
0.0
 48
0.0
 49
0.0
140
0.0
141
0.0
142
1.0
143
1.0
 70
1024
 72
1
 73
0
 74
0
  7

 75
0
147
1.0
148
0.0
149
0.0
100
AcDbLayout
  1
Model
 70
0
 71
0
 10
0.0
 20
0.0
 11
297.0
 21
210.0
 12
0.0
 22
0.0
 32
0.0
 14
0.0
 24
0.0
 34
0.0
 15
0.0
 25
0.0
 35
0.0
146
0.0
 13
0.0
 23
0.0
 33
0.0
 16
1.0
 26
0.0
 36
0.0
 17
0.0
 27
1.0
 37
0.0
 76
0
330
212
345
0
346
0
  0
LAYOUT
  5
458
102
{ACAD_REACTORS
330
1A
102
}
100
AcDbPlotSettings
  1

  2
none_device
  4
ISO_A4_(297.00_x_210.00_MM)
  6

 40
0.0
 41
0.0
 42
0.0
 43
0.0
 44
297.0
 45
210.0
 46
0.0
 47
0.0
 48
0.0
 49
0.0
140
0.0
141
0.0
142
1.0
143
1.0
 70
0
 72
1
 73
0
 74
0
  7

 75
0
147
1.0
148
0.0
149
0.0
100
AcDbLayout
  1
Layout1
 70
0
 71
1
 10
0.0
 20
0.0
 11
297.0
 21
210.0
 12
0.0
 22
0.0
 32
0.0
 14
0.0
 24
0.0
 34
0.0
 15
0.0
 25
0.0
 35
0.0
146
0.0
 13
0.0
 23
0.0
 33
0.0
 16
1.0
 26
0.0
 36
0.0
 17
0.0
 27
1.0
 37
0.0
 76
0
330
213
345
0
346
0
  0
ENDSEC
  0
EOF
