  0
SECTION
  2
HEADER
  9
$ACADVER
  1
AC1015
  9
$DWGCODEPAGE
  3
ANSI_1252
  9
$EXTMAX
 10
297.0
 20
210.0
 30
0.0
  9
$EXTMIN
 10
0.0
 20
0.0
 30
0.0
  9
$LIMMIN
 10
0.0
 20
0.0
  9
$LIMMAX
 10
297.0
 20
210.0
  9
$VIEWCTR
 10
148.5
 20
105.0
  9
$VIEWSIZE
 40
210.0
  9
$CLAYER
  8
0
  9
$LTSCALE
 40
16.335
  9
$CELTYPE
  6
BYLAYER
  9
$DIMSCALE
 40
1.0
  9
$DIMASZ
 40
3.0
  9
$DIMEXO
 40
1.85625
  9
$DIMDLI
 40
11.286
  9
$DIMEXE
 40
5.346
  9
$DIMCEN
 40
2.673
  9
$DIMLFAC
 40
1.0
  9
$DIMBLK
  1
_FILLED
  9
$DIMTXT
 40
3.0
  9
$DIMTOL
 70
1
  9
$DIMLIM
 70
0
  9
$DIMTFAC
 40
1.0
  9
$DIMTP
 40
0.01
  9
$DIMTM
 40
0.01
  9
$PDMODE
 70
3
  9
$PDSIZE
 40
3.0
  9
$HANDSEED
  5
4EE
  9
$TILEMODE
 70
1
  9
$MEASUREMENT
 70
1
  9
$INSUNITS
 70
4
  0
ENDSEC
  0
SECTION
  2
CLASSES
  0
CLASS
  1
ACDBDICTIONARYWDFLT
  2
AcDbDictionaryWithDefault
  3
AutoCAD 2000
 90
0
280
0
281
0
  0
CLASS
  1
ACDBPLACEHOLDER
  2
AcDbPlaceHolder
  3
AutoCAD 2000
 90
0
280
0
281
0
  0
CLASS
  1
LAYOUT
  2
AcDbLayout
  3
AutoCAD 2000
 90
0
280
0
281
0
  0
ENDSEC
  0
SECTION
  2
TABLES
  0
TABLE
  2
VPORT
  5
8
100
AcDbSymbolTable
 70
2
  0
VPORT
  5
1F4
100
AcDbSymbolTableRecord
100
AcDbViewportTableRecord
  2
*ACTIVE
 70
0
 10
0.0
 20
0.0
 11
1.0
 21
1.0
 12
148.5
 22
105.0
 13
0.0
 23
0.0
 14
1.0
 24
1.0
 15
0.0
 25
0.0
 16
0.0
 26
0.0
 36
1.0
 17
0.0
 27
0.0
 37
0.0
 40
210.0
 41
1.4142857143
 42
50.0
 43
0.0
 44
0.0
 50
0.0
 51
0.0
 71
0
 72
100
 73
1
 74
1
 75
0
 76
0
 77
0
 78
0
  0
ENDTAB
  0
TABLE
  2
LTYPE
  5
5
100
AcDbSymbolTable
 70
6
  0
LTYPE
  5
14
100
AcDbSymbolTableRecord
100
AcDbLinetypeTableRecord
  2
BYBLOCK
 70
0
  3

 72
65
 73
0
 40
0.0
  0
LTYPE
  5
15
100
AcDbSymbolTableRecord
100
AcDbLinetypeTableRecord
  2
BYLAYER
 70
0
  3

 72
65
 73
0
 40
0.0
  0
LTYPE
  5
16
100
AcDbSymbolTableRecord
100
AcDbLinetypeTableRecord
  2
CONTINUOUS
 70
64
  3
Solid line
 72
65
 73
0
 40
0.0
  0
LTYPE
  5
1F5
100
AcDbSymbolTableRecord
100
AcDbLinetypeTableRecord
  2
CENTER
 70
64
  3
____ _ ____ _ ____ _ ____ _ ____ _ ____ _ ____
 72
65
 73
4
 40
0.6
 49
0.375
 74
0
 49
-0.075
 74
0
 49
0.075
 74
0
 49
-0.075
 74
0
  0
LTYPE
  5
1F6
100
AcDbSymbolTableRecord
100
AcDbLinetypeTableRecord
  2
HIDDEN
 70
64
  3
- - - - - - - - - - - - - - - - - - - -
 72
65
 73
2
 40
0.2
 49
0.1
 74
0
 49
-0.1
 74
0
  0
LTYPE
  5
1F7
100
AcDbSymbolTableRecord
100
AcDbLinetypeTableRecord
  2
PHANTOM
 70
64
  3
_____ _ _ _____ _ _ _____ _ _ _____
 72
65
 73
6
 40
0.8
 49
0.45
 74
0
 49
-0.05
 74
0
 49
0.1
 74
0
 49
-0.05
 74
0
 49
0.1
 74
0
 49
-0.05
 74
0
  0
LTYPE
  5
1F8
100
AcDbSymbolTableRecord
100
AcDbLinetypeTableRecord
  2
DOT
 70
64
  3
. . . . . . . . . . . . . . . . . . . .
 72
65
 73
2
 40
0.2
 49
0.1
 74
0
 49
-0.1
 74
0
  0
LTYPE
  5
1F9
100
AcDbSymbolTableRecord
100
AcDbLinetypeTableRecord
  2
DASHED
 70
64
  3
- - - - - - - - - - - - - - - - - - - -
 72
65
 73
2
 40
0.2
 49
0.1
 74
0
 49
-0.1
 74
0
  0
ENDTAB
  0
TABLE
  2
LAYER
  5
2
100
AcDbSymbolTable
 70
36
  0
LAYER
  5
10
100
AcDbSymbolTableRecord
100
AcDbLayerTableRecord
  2
0
 70
0
 62
7
  6
CONTINUOUS
370
-3
390
F
  0
LAYER
  5
1FA
100
AcDbSymbolTableRecord
100
AcDbLayerTableRecord
  2
DEFAULT_1
 70
0
 62
7
  6
CENTER
370
-3
390
F
  0
LAYER
  5
1FB
100
AcDbSymbolTableRecord
100
AcDbLayerTableRecord
  2
DEFAULT_2
 70
0
 62
7
  6
HIDDEN
370
-3
390
F
  0
LAYER
  5
1FC
100
AcDbSymbolTableRecord
100
AcDbLayerTableRecord
  2
DEFAULT_3
 70
0
 62
7
  6
PHANTOM
370
-3
390
F
  0
LAYER
  5
1FD
100
AcDbSymbolTableRecord
100
AcDbLayerTableRecord
  2
ASSI
 70
0
 62
7
  6
CONTINUOUS
370
-3
390
F
  0
LAYER
  5
1FE
100
AcDbSymbolTableRecord
100
AcDbLayerTableRecord
  2
COORDINATE
 70
0
 62
7
  6
CONTINUOUS
370
-3
390
F
  0
LAYER
  5
1FF
100
AcDbSymbolTableRecord
100
AcDbLayerTableRecord
  2
COORD_ORIGINE
 70
0
 62
7
  6
CONTINUOUS
370
-3
390
F
  0
LAYER
  5
200
100
AcDbSymbolTableRecord
100
AcDbLayerTableRecord
  2
COPY_PUBLISH
 70
0
 62
7
  6
CONTINUOUS
370
-3
390
F
  0
LAYER
  5
201
100
AcDbSymbolTableRecord
100
AcDbLayerTableRecord
  2
COSMETIC
 70
0
 62
7
  6
CONTINUOUS
370
-3
390
F
  0
LAYER
  5
202
100
AcDbSymbolTableRecord
100
AcDbLayerTableRecord
  2
COSMETICI
 70
0
 62
7
  6
CONTINUOUS
370
-3
390
F
  0
LAYER
  5
203
100
AcDbSymbolTableRecord
100
AcDbLayerTableRecord
  2
CURVE
 70
0
 62
7
  6
CONTINUOUS
370
-3
390
F
  0
LAYER
  5
204
100
AcDbSymbolTableRecord
100
AcDbLayerTableRecord
  2
DRAFT
 70
0
 62
7
  6
CONTINUOUS
370
-3
390
F
  0
LAYER
  5
205
100
AcDbSymbolTableRecord
100
AcDbLayerTableRecord
  2
IMPORT_IGES
 70
0
 62
7
  6
CONTINUOUS
370
-3
390
F
  0
LAYER
  5
206
100
AcDbSymbolTableRecord
100
AcDbLayerTableRecord
  2
INTFCLR_2
 70
0
 62
7
  6
CONTINUOUS
370
-3
390
F
  0
LAYER
  5
207
100
AcDbSymbolTableRecord
100
AcDbLayerTableRecord
  2
NOTE
 70
0
 62
7
  6
CONTINUOUS
370
-3
390
F
  0
LAYER
  5
208
100
AcDbSymbolTableRecord
100
AcDbLayerTableRecord
  2
PIANI
 70
0
 62
7
  6
CONTINUOUS
370
-3
390
F
  0
LAYER
  5
209
100
AcDbSymbolTableRecord
100
AcDbLayerTableRecord
  2
PIANI_ORIGINE
 70
0
 62
7
  6
CONTINUOUS
370
-3
390
F
  0
LAYER
  5
20A
100
AcDbSymbolTableRecord
100
AcDbLayerTableRecord
  2
PIANI_RIFERIMENTO
 70
0
 62
7
  6
CONTINUOUS
370
-3
390
F
  0
LAYER
  5
20B
100
AcDbSymbolTableRecord
100
AcDbLayerTableRecord
  2
PUNTI
 70
0
 62
7
  6
CONTINUOUS
370
-3
390
F
  0
LAYER
  5
20C
100
AcDbSymbolTableRecord
100
AcDbLayerTableRecord
  2
RACCORDO
 70
0
 62
7
  6
CONTINUOUS
370
-3
390
F
  0
LAYER
  5
20D
100
AcDbSymbolTableRecord
100
AcDbLayerTableRecord
  2
SIMBOLI
 70
0
 62
7
  6
CONTINUOUS
370
-3
390
F
  0
LAYER
  5
20E
100
AcDbSymbolTableRecord
100
AcDbLayerTableRecord
  2
SMUSSO
 70
0
 62
7
  6
CONTINUOUS
370
-3
390
F
  0
LAYER
  5
20F
100
AcDbSymbolTableRecord
100
AcDbLayerTableRecord
  2
SNAPLINE
 70
0
 62
7
  6
CONTINUOUS
370
-3
390
F
  0
LAYER
  5
210
100
AcDbSymbolTableRecord
100
AcDbLayerTableRecord
  2
SUPERFICI
 70
0
 62
7
  6
CONTINUOUS
370
-3
390
F
  0
LAYER
  5
211
100
AcDbSymbolTableRecord
100
AcDbLayerTableRecord
  2
TRASH
 70
0
 62
7
  6
CONTINUOUS
370
-3
390
F
  0
LAYER
  5
212
100
AcDbSymbolTableRecord
100
AcDbLayerTableRecord
  2
XSEC_DATUMS
 70
0
 62
7
  6
CONTINUOUS
370
-3
390
F
  0
ENDTAB
  0
TABLE
  2
STYLE
  5
3
100
AcDbSymbolTable
 70
1
  0
STYLE
  5
11
100
AcDbSymbolTableRecord
100
AcDbTextStyleTableRecord
  2
STANDARD
 70
0
 40
0.0
 41
0.8
 50
0.0
 71
0
 42
0.2
  3
txt
  4

  0
STYLE
  5
213
100
AcDbSymbolTableRecord
100
AcDbTextStyleTableRecord
  2
TEXTSTYLE_1
 70
0
 40
0.0
 41
0.8
 50
0.0
 71
0
 42
0.2
  3
gdt
  4

  0
ENDTAB
  0
TABLE
  2
VIEW
  5
6
100
AcDbSymbolTable
 70
0
  0
ENDTAB
  0
TABLE
  2
UCS
  5
7
100
AcDbSymbolTable
 70
0
  0
ENDTAB
  0
TABLE
  2
APPID
  5
9
100
AcDbSymbolTable
 70
1
  0
APPID
  5
214
100
AcDbSymbolTableRecord
100
AcDbRegAppTableRecord
  2
ACAD
 70
0
  0
ENDTAB
  0
TABLE
  2
BLOCK_RECORD
  5
1
100
AcDbSymbolTable
 70
0
  0
BLOCK_RECORD
  5
215
100
AcDbSymbolTableRecord
100
AcDbBlockTableRecord
  2
*Model_Space
  0
BLOCK_RECORD
  5
216
100
AcDbSymbolTableRecord
100
AcDbBlockTableRecord
  2
*Paper_Space
  0
ENDTAB
  0
TABLE
  2
DIMSTYLE
  5
A
100
AcDbSymbolTable
 70
1
100
AcDbDimStyleTable
 71
0
  0
DIMSTYLE
105
217
100
AcDbSymbolTableRecord
100
AcDbDimStyleTableRecord
  2
STANDARD
 70
0
  3

  4

 40
1.0
 41
3.0
 42
0.0625
 43
0.38
 44
0.18
 45
0.0
 46
0.0
 47
0.01
 48
0.01
140
3.0
141
0.09
142
0.0
143
25.4
144
1.0
145
0.0
146
1.0
147
0.09
 71
1.0
 72
0.0
 73
0
 74
0
 75
0
 76
0
 77
1
 78
8
170
0
171
2
172
0
173
0
174
0
175
0
176
0
177
0
178
0
270
2
271
2
272
2
273
2
274
2
275
0
280
0
281
0
282
0
283
1
284
8
285
0
286
0
287
3
288
0
340
11
  0
ENDTAB
  0
ENDSEC
  0
SECTION
  2
BLOCKS
  0
BLOCK
  5
20
100
AcDbEntity
  8
0
100
AcDbBlockBegin
  2
*Model_Space
 70
0
 10
0.0
 20
0.0
 30
0.0
  3
*Model_Space
  1

  0
ENDBLK
  5
21
100
AcDbEntity
  8
0
100
AcDbBlockEnd
  0
BLOCK
  5
1C
100
AcDbEntity
  8
0
100
AcDbBlockBegin
  2
*Paper_Space
 70
0
 10
0.0
 20
0.0
 30
0.0
  3
*Paper_Space
  1

  0
ENDBLK
  5
1D
100
AcDbEntity
  8
0
100
AcDbBlockEnd
  0
ENDSEC
  0
SECTION
  2
ENTITIES
  0
LINE
  5
218
100
AcDbEntity
  8
SMUSSO
100
AcDbLine
 62
7
  6
CONTINUOUS
 10
-31.8021274839
 20
87.7010242111
 11
-34.9487526601
 21
85.8842811806
  0
LINE
  5
219
100
AcDbEntity
  8
SMUSSO
100
AcDbLine
 62
7
  6
CONTINUOUS
 10
-34.6558594413
 20
84.8986191202
 11
-34.9487526601
 21
84.729538932
  0
LINE
  5
21A
100
AcDbEntity
  8
SMUSSO
100
AcDbLine
 62
7
  6
CONTINUOUS
 10
32.5092342651
 20
-87.2928285276
 11
31.0950207027
 21
-86.9546354657
  0
LINE
  5
21B
100
AcDbEntity
  8
SMUSSO
100
AcDbLine
 62
7
  6
CONTINUOUS
 10
-34.241645879
 20
86.2924768641
 11
-34.6558594413
 21
84.8986191202
  0
LWPOLYLINE
  5
21C
100
AcDbEntity
  8
RACCORDO
100
AcDbPolyline
 62
7
  6
CONTINUOUS
 90
13
 70
0
 10
-21.7397432385
 20
58.9787927532
 10
-21.7650297294
 20
58.961919036
 10
-21.7959137715
 20
58.9375207184
 10
-21.8250948908
 20
58.9098094221
 10
-21.8522617563
 20
58.8788011345
 10
-21.8770299813
 20
58.8446584555
 10
-21.8990104611
 20
58.8076755819
 10
-21.9179817579
 20
58.7679859787
 10
-21.9337196913
 20
58.7258037829
 10
-21.9460147035
 20
58.6815289402
 10
-21.9547759911
 20
58.6353666528
 10
-21.9599379417
 20
58.5873733613
 10
-21.9614530608
 20
58.5425658312
  0
LINE
  5
21D
100
AcDbEntity
  8
RACCORDO
100
AcDbLine
 62
7
  6
CONTINUOUS
 10
-21.7399382602
 20
58.9786794459
 11
-20.3799887542
 21
59.8196926201
  0
LINE
  5
21E
100
AcDbEntity
  8
RACCORDO
100
AcDbLine
 62
7
  6
CONTINUOUS
 10
-21.3823656818
 20
58.9485646543
 11
-20.0239379262
 21
59.7886367552
  0
LINE
  5
21F
100
AcDbEntity
  8
SMUSSO
100
AcDbLine
 62
7
  6
CONTINUOUS
 10
-34.6558594413
 20
-49.3290943845
 11
31.8021274839
 21
-87.7010242111
  0
LINE
  5
220
100
AcDbEntity
  8
DRAFT
100
AcDbLine
 62
7
  6
CONTINUOUS
 10
-17.1908073028
 20
49.3815545827
 11
-17.7268464109
 21
49.0378174962
  0
LINE
  5
221
100
AcDbEntity
  8
0
100
AcDbLine
 62
7
  6
CONTINUOUS
 10
-14.7582682336
 20
52.4710790914
 11
-15.0260191002
 21
52.3164830967
  0
LINE
  5
222
100
AcDbEntity
  8
0
100
AcDbLine
 62
7
  6
CONTINUOUS
 10
-15.0613744393
 20
52.2960693671
 11
-15.3795724908
 21
52.1123458001
  0
LINE
  5
223
100
AcDbEntity
  8
0
100
AcDbLine
 62
7
  6
CONTINUOUS
 10
-15.4149278299
 20
52.0919320704
 11
-15.7331258814
 21
51.9082085034
  0
LINE
  5
224
100
AcDbEntity
  8
0
100
AcDbLine
 62
7
  6
CONTINUOUS
 10
-15.7684812205
 20
51.8877947738
 11
-16.086679272
 21
51.7040712068
  0
LINE
  5
225
100
AcDbEntity
  8
0
100
AcDbLine
 62
7
  6
CONTINUOUS
 10
-16.1220346111
 20
51.6836574771
 11
-16.4402326626
 21
51.4999339101
  0
LINE
  5
226
100
AcDbEntity
  8
0
100
AcDbLine
 62
7
  6
CONTINUOUS
 10
-16.4755880016
 20
51.4795201804
 11
-16.5298552697
 21
51.44818694
  0
LINE
  5
227
100
AcDbEntity
  8
0
100
AcDbLine
 62
7
  6
CONTINUOUS
 10
-16.5298552697
 20
51.325704562
 11
-16.4755880016
 21
51.3570378024
  0
LINE
  5
228
100
AcDbEntity
  8
0
100
AcDbLine
 62
7
  6
CONTINUOUS
 10
-16.2281006282
 20
51.4999339101
 11
-16.1220346111
 21
51.5611750991
  0
LINE
  5
229
100
AcDbEntity
  8
0
100
AcDbLine
 62
7
  6
CONTINUOUS
 10
-15.8745472376
 20
51.7040712068
 11
-15.7684812205
 21
51.7653123958
  0
LINE
  5
22A
100
AcDbEntity
  8
0
100
AcDbLine
 62
7
  6
CONTINUOUS
 10
-15.520993847
 20
51.9082085034
 11
-15.4149278299
 21
51.9694496924
  0
LINE
  5
22B
100
AcDbEntity
  8
0
100
AcDbLine
 62
7
  6
CONTINUOUS
 10
-15.1674404565
 20
52.1123458001
 11
-15.0613744393
 21
52.1735869891
  0
LINE
  5
22C
100
AcDbEntity
  8
0
100
AcDbLine
 62
7
  6
CONTINUOUS
 10
-14.8138870659
 20
52.3164830967
 11
-14.7078210487
 21
52.3777242857
  0
LINE
  5
22D
100
AcDbEntity
  8
0
100
AcDbLine
 62
7
  6
CONTINUOUS
 10
-15.9668546393
 20
52.6045735883
 11
-16.5298552697
 21
52.2808930746
  0
LINE
  5
22E
100
AcDbEntity
  8
0
100
AcDbLine
 62
7
  6
CONTINUOUS
 10
-16.1572017233
 20
52.5414348122
 11
-16.5298552697
 21
52.3273301386
  0
LINE
  5
22F
100
AcDbEntity
  8
0
100
AcDbLine
 62
7
  6
CONTINUOUS
 10
-15.362644007
 20
52.8200380885
 11
-16.5298552697
 21
52.1577001637
  0
LINE
  5
230
100
AcDbEntity
  8
RACCORDO
100
AcDbLine
 62
7
  6
CONTINUOUS
 10
-16.5298552697
 20
50.224709542
 11
-17.4651394585
 21
49.7032169681
  0
LINE
  5
231
100
AcDbEntity
  8
RACCORDO
100
AcDbLine
 62
7
  6
CONTINUOUS
 10
-16.5932841186
 20
50.0866594794
 11
-17.5285683074
 21
49.5651669054
  0
LINE
  5
232
100
AcDbEntity
  8
0
100
AcDbLine
 62
7
  6
CONTINUOUS
 10
-14.9563907959
 20
52.5854725759
 11
-16.5298552697
 21
51.7721895017
  0
LINE
  5
233
100
AcDbEntity
  8
SMUSSO
100
AcDbLine
 62
7
  6
CONTINUOUS
 10
-34.9487526601
 20
-48.8217884489
 11
-34.6558594413
 21
-49.3290943845
  0
LINE
  5
234
100
AcDbEntity
  8
0
100
AcDbLine
 62
7
  6
CONTINUOUS
 10
-14.6901433792
 20
47.8071515582
 11
-17.1650171133
 21
46.2284276024
  0
LINE
  5
235
100
AcDbEntity
  8
RACCORDO
100
AcDbLine
 62
7
  6
CONTINUOUS
 10
-17.1908073028
 20
45.7971490109
 11
-17.1650171133
 21
45.8130958904
  0
LINE
  5
236
100
AcDbEntity
  8
0
100
AcDbLine
 62
7
  6
CONTINUOUS
 10
-17.1908073028
 20
46.4534926194
 11
-17.1826947828
 21
46.4581766867
  0
LINE
  5
237
100
AcDbEntity
  8
0
100
AcDbLine
 62
7
  6
CONTINUOUS
 10
-16.9352074094
 20
46.6010727944
 11
-16.8291413922
 21
46.6623139834
  0
LINE
  5
238
100
AcDbEntity
  8
0
100
AcDbLine
 62
7
  6
CONTINUOUS
 10
-16.5816540188
 20
46.8052100911
 11
-16.4755880016
 21
46.8664512801
  0
LINE
  5
239
100
AcDbEntity
  8
0
100
AcDbLine
 62
7
  6
CONTINUOUS
 10
-16.2281006282
 20
47.0093473877
 11
-16.1220346111
 21
47.0705885767
  0
LINE
  5
23A
100
AcDbEntity
  8
0
100
AcDbLine
 62
7
  6
CONTINUOUS
 10
-15.8745472376
 20
47.2134846844
 11
-15.7684812205
 21
47.2747258734
  0
LINE
  5
23B
100
AcDbEntity
  8
0
100
AcDbLine
 62
7
  6
CONTINUOUS
 10
-15.520993847
 20
47.4176219811
 11
-15.4149278299
 21
47.4788631701
  0
LINE
  5
23C
100
AcDbEntity
  8
0
100
AcDbLine
 62
7
  6
CONTINUOUS
 10
-15.1674404565
 20
47.6217592777
 11
-15.0613744393
 21
47.6830004667
  0
LINE
  5
23D
100
AcDbEntity
  8
0
100
AcDbLine
 62
7
  6
CONTINUOUS
 10
-14.8138870659
 20
47.8258965744
 11
-14.7078210487
 21
47.8871377634
  0
LINE
  5
23E
100
AcDbEntity
  8
RACCORDO
100
AcDbLine
 62
7
  6
CONTINUOUS
 10
-16.6700746801
 20
44.508739398
 11
-17.1908073028
 21
44.218391075
  0
LINE
  5
23F
100
AcDbEntity
  8
RACCORDO
100
AcDbLine
 62
7
  6
CONTINUOUS
 10
-16.4579103321
 20
44.1412972795
 11
-17.0334698329
 21
43.8203787724
  0
LWPOLYLINE
  5
240
100
AcDbEntity
  8
RACCORDO
100
AcDbPolyline
 62
7
  6
CONTINUOUS
 90
13
 70
0
 10
14.6172325076
 20
-62.7829725511
 10
14.6571087278
 20
-62.804217674
 10
14.7012231434
 20
-62.8237048888
 10
14.7455512564
 20
-62.8391658267
 10
14.7900097072
 20
-62.8506270963
 10
14.8343767472
 20
-62.8580668706
 10
14.8782037798
 20
-62.8614672774
 10
14.9211944103
 20
-62.8609120445
 10
14.9631222948
 20
-62.8565263742
 10
15.0035383569
 20
-62.8485006572
 10
15.0421100532
 20
-62.8370864839
 10
15.0786669745
 20
-62.8225422253
 10
15.1058970062
 20
-62.8090918459
  0
LINE
  5
241
100
AcDbEntity
  8
RACCORDO
100
AcDbLine
 62
7
  6
CONTINUOUS
 10
-21.5286707295
 20
-41.9127921157
 11
14.6172078149
 21
-62.782969373
  0
LINE
  5
242
100
AcDbEntity
  8
RACCORDO
100
AcDbLine
 62
7
  6
CONTINUOUS
 10
-21.5907955017
 20
-41.7754710655
 11
14.5573663647
 21
-62.6469666843
  0
LINE
  5
243
100
AcDbEntity
  8
RACCORDO
100
AcDbLine
 62
7
  6
CONTINUOUS
 10
12.6501375487
 20
-59.4799862476
 11
-19.6858500215
 21
-40.8095922897
  0
LINE
  5
244
100
AcDbEntity
  8
RACCORDO
100
AcDbLine
 62
7
  6
CONTINUOUS
 10
12.7897152853
 20
-59.1692254801
 11
-19.5462789675
 21
-40.4988276638
  0
LINE
  5
245
100
AcDbEntity
  8
RACCORDO
100
AcDbLine
 62
7
  6
CONTINUOUS
 10
-18.1388521619
 20
-39.7255423454
 11
12.9609473977
 21
-57.682176839
  0
LINE
  5
246
100
AcDbEntity
  8
RACCORDO
100
AcDbLine
 62
7
  6
CONTINUOUS
 10
-18.0241001381
 20
-39.6347285499
 11
12.9609473977
 21
-57.5251066632
  0
LWPOLYLINE
  5
247
100
AcDbEntity
  8
RACCORDO
100
AcDbPolyline
 62
7
  6
CONTINUOUS
 90
3
 70
0
 10
-21.6048061469
 20
-41.8619880242
 10
-21.5579518648
 20
-41.8948877933
 10
-21.5285067427
 20
-41.9128750003
  0
LINE
  5
248
100
AcDbEntity
  8
RACCORDO
100
AcDbLine
 62
7
  6
CONTINUOUS
 10
-21.6498407443
 20
-41.8249994303
 11
-21.6048061469
 21
-41.8619880242
  0
LINE
  5
249
100
AcDbEntity
  8
0
100
AcDbLine
 62
7
  6
CONTINUOUS
 10
-15.9668546393
 20
34.2339923605
 11
-16.4579103321
 21
33.9516744547
  0
LINE
  5
24A
100
AcDbEntity
  8
0
100
AcDbLine
 62
7
  6
CONTINUOUS
 10
-16.1572017233
 20
34.1708535844
 11
-16.4579103321
 21
33.9980842141
  0
LINE
  5
24B
100
AcDbEntity
  8
0
100
AcDbLine
 62
7
  6
CONTINUOUS
 10
-15.1010850084
 20
34.5978793869
 11
-16.4579103321
 21
33.8279443307
  0
LINE
  5
24C
100
AcDbEntity
  8
0
100
AcDbLine
 62
7
  6
CONTINUOUS
 10
-14.7534526354
 20
34.3971608116
 11
-16.4579103321
 21
33.5161707298
  0
LINE
  5
24D
100
AcDbEntity
  8
RACCORDO
100
AcDbLine
 62
7
  6
CONTINUOUS
 10
12.9609473977
 20
-57.2207499288
 11
-17.7605360184
 21
-39.482550435
  0
LINE
  5
24E
100
AcDbEntity
  8
RACCORDO
100
AcDbLine
 62
7
  6
CONTINUOUS
 10
-16.9789659881
 20
-39.0309758451
 11
12.9609473977
 21
-56.3179065988
  0
LINE
  5
24F
100
AcDbEntity
  8
0
100
AcDbLine
 62
7
  6
CONTINUOUS
 10
-9.3691648507
 20
-43.4152250082
 11
-6.480858642
 21
-45.0828968142
  0
LINE
  5
250
100
AcDbEntity
  8
0
100
AcDbLine
 62
7
  6
CONTINUOUS
 10
6.540737726
 20
-52.6014033581
 11
9.4221978593
 21
-54.2651223259
  0
LINE
  5
251
100
AcDbEntity
  8
0
100
AcDbLine
 62
7
  6
CONTINUOUS
 10
6.3505905018
 20
-52.4711891678
 11
5.9908911002
 21
-52.2635032414
  0
LINE
  5
252
100
AcDbEntity
  8
0
100
AcDbLine
 62
7
  6
CONTINUOUS
 10
-9.5593120749
 20
-43.2850108179
 11
-9.7403959108
 21
-43.1804552806
  0
LINE
  5
253
100
AcDbEntity
  8
0
100
AcDbLine
 62
7
  6
CONTINUOUS
 10
-9.2277434945
 20
-43.4560406311
 11
-6.4682646716
 21
-45.049329119
  0
LINE
  5
254
100
AcDbEntity
  8
0
100
AcDbLine
 62
7
  6
CONTINUOUS
 10
6.6821590822
 20
-52.6422189809
 11
9.4221978593
 21
-54.2242830301
  0
LINE
  5
255
100
AcDbEntity
  8
RACCORDO
100
AcDbLine
 62
7
  6
CONTINUOUS
 10
-17.1860283835
 20
-38.7183278439
 11
-11.5788735419
 21
-41.9558287753
  0
LINE
  5
256
100
AcDbEntity
  8
0
100
AcDbLine
 62
7
  6
CONTINUOUS
 10
-6.275572683
 20
-45.0178882252
 11
4.3310290348
 21
-51.1420071251
  0
LINE
  5
257
100
AcDbEntity
  8
RACCORDO
100
AcDbLine
 62
7
  6
CONTINUOUS
 10
9.4221978593
 20
-54.0815841971
 11
12.9609473977
 21
-56.1248138296
  0
LINE
  5
258
100
AcDbEntity
  8
0
100
AcDbLine
 62
7
  6
CONTINUOUS
 10
-9.9488257307
 20
-42.8689178612
 11
-10.8010560826
 21
-42.376850737
  0
LINE
  5
259
100
AcDbEntity
  8
0
100
AcDbLine
 62
7
  6
CONTINUOUS
 10
-9.1216774773
 20
-43.2723289006
 11
-6.2748977219
 21
-44.9160238528
  0
LINE
  5
25A
100
AcDbEntity
  8
0
100
AcDbLine
 62
7
  6
CONTINUOUS
 10
6.7882250994
 20
-52.4585072504
 11
9.5107467908
 21
-54.0304571538
  0
LINE
  5
25B
100
AcDbEntity
  8
0
100
AcDbLine
 62
7
  6
CONTINUOUS
 10
-10.8010560826
 20
-42.2796139975
 11
-9.8025206972
 21
-42.8561558145
  0
LINE
  5
25C
100
AcDbEntity
  8
0
100
AcDbLine
 62
7
  6
CONTINUOUS
 10
-9.0156114601
 20
-43.2110877116
 11
-6.1688317047
 21
-44.8547826638
  0
LINE
  5
25D
100
AcDbEntity
  8
0
100
AcDbLine
 62
7
  6
CONTINUOUS
 10
6.8942911166
 20
-52.3972660614
 11
9.616812808
 21
-53.9692159648
  0
LINE
  5
25E
100
AcDbEntity
  8
0
100
AcDbLine
 62
7
  6
CONTINUOUS
 10
-8.8741901039
 20
-43.2519033344
 11
-6.1334661156
 21
-44.8343630159
  0
LINE
  5
25F
100
AcDbEntity
  8
0
100
AcDbLine
 62
7
  6
CONTINUOUS
 10
7.0357124728
 20
-52.4380816843
 11
9.6521783971
 21
-53.9487963169
  0
LINE
  5
260
100
AcDbEntity
  8
0
100
AcDbLine
 62
7
  6
CONTINUOUS
 10
-17.6773038065
 20
-38.108130807
 11
-17.7268464109
 21
-38.0795255281
  0
LINE
  5
261
100
AcDbEntity
  8
DRAFT
100
AcDbLine
 62
7
  6
CONTINUOUS
 10
-17.5185180789
 20
-38.1181370499
 11
-17.1908073028
 21
-38.3073531448
  0
LINE
  5
262
100
AcDbEntity
  8
0
100
AcDbLine
 62
7
  6
CONTINUOUS
 10
-8.7681240867
 20
-43.0681916039
 11
-5.9213443313
 21
-44.7118865561
  0
LINE
  5
263
100
AcDbEntity
  8
0
100
AcDbLine
 62
7
  6
CONTINUOUS
 10
7.14177849
 20
-52.2543699538
 11
9.8643001814
 21
-53.8263198572
  0
LINE
  5
264
100
AcDbEntity
  8
0
100
AcDbLine
 62
7
  6
CONTINUOUS
 10
-8.6620580695
 20
-43.0069504149
 11
-5.7937961475
 21
-44.6630489009
  0
LINE
  5
265
100
AcDbEntity
  8
0
100
AcDbLine
 62
7
  6
CONTINUOUS
 10
7.2478445072
 20
-52.1931287648
 11
9.9703661986
 21
-53.7650786682
  0
LINE
  5
266
100
AcDbEntity
  8
0
100
AcDbLine
 62
7
  6
CONTINUOUS
 10
-16.6700746801
 20
-38.3629936965
 11
-11.013188117
 21
-41.6292091006
  0
LINE
  5
267
100
AcDbEntity
  8
0
100
AcDbLine
 62
7
  6
CONTINUOUS
 10
-5.7098872581
 20
-44.6912685505
 11
4.8967144597
 21
-50.8153874505
  0
LINE
  5
268
100
AcDbEntity
  8
0
100
AcDbLine
 62
7
  6
CONTINUOUS
 10
9.9878832843
 20
-53.7549645224
 11
12.9609473977
 21
-55.4715744803
  0
LINE
  5
269
100
AcDbEntity
  8
0
100
AcDbLine
 62
7
  6
CONTINUOUS
 10
-8.5206367133
 20
-43.0477660377
 11
-4.6315494168
 21
-45.293276301
  0
LINE
  5
26A
100
AcDbEntity
  8
0
100
AcDbLine
 62
7
  6
CONTINUOUS
 10
7.3892658634
 20
-52.2339443876
 11
11.2783531599
 21
-54.4794546509
  0
LINE
  5
26B
100
AcDbEntity
  8
0
100
AcDbLine
 62
7
  6
CONTINUOUS
 10
-8.4145706961
 20
-42.8640543072
 11
-4.5254833996
 21
-45.1095645705
  0
LINE
  5
26C
100
AcDbEntity
  8
0
100
AcDbLine
 62
7
  6
CONTINUOUS
 10
7.4953318806
 20
-52.0502326571
 11
11.3844191771
 21
-54.2957429204
  0
LINE
  5
26D
100
AcDbEntity
  8
0
100
AcDbLine
 62
7
  6
CONTINUOUS
 10
-8.3085046789
 20
-42.8028131182
 11
-4.3133513652
 21
-45.1095527341
  0
LINE
  5
26E
100
AcDbEntity
  8
0
100
AcDbLine
 62
7
  6
CONTINUOUS
 10
7.6013978978
 20
-51.9889914681
 11
11.5965512115
 21
-54.2957310839
  0
LINE
  5
26F
100
AcDbEntity
  8
0
100
AcDbLine
 62
7
  6
CONTINUOUS
 10
-8.1670833227
 20
-42.8436287411
 11
-4.2779960262
 21
-45.0891390044
  0
LINE
  5
270
100
AcDbEntity
  8
0
100
AcDbLine
 62
7
  6
CONTINUOUS
 10
7.742819254
 20
-52.029807091
 11
11.6319065505
 21
-54.2753173543
  0
LINE
  5
271
100
AcDbEntity
  8
0
100
AcDbLine
 62
7
  6
CONTINUOUS
 10
-16.1837397496
 20
-38.0722129595
 11
-16.7990165582
 21
-37.7169598415
  0
LINE
  5
272
100
AcDbEntity
  8
0
100
AcDbLine
 62
7
  6
CONTINUOUS
 10
-16.709608742
 20
-37.6671081357
 11
-16.0337325016
 21
-38.0573506062
  0
LINE
  5
273
100
AcDbEntity
  8
0
100
AcDbLine
 62
7
  6
CONTINUOUS
 10
-8.0610173055
 20
-42.6599170106
 11
-4.171930009
 21
-44.9054272739
  0
LINE
  5
274
100
AcDbEntity
  8
0
100
AcDbLine
 62
7
  6
CONTINUOUS
 10
7.8488852712
 20
-51.8460953604
 11
11.7379725677
 21
-54.0916056237
  0
LINE
  5
275
100
AcDbEntity
  8
0
100
AcDbLine
 62
7
  6
CONTINUOUS
 10
-7.9549512883
 20
-42.5986758216
 11
-3.9597979746
 21
-44.9054154374
  0
LINE
  5
276
100
AcDbEntity
  8
0
100
AcDbLine
 62
7
  6
CONTINUOUS
 10
7.9549512883
 20
-51.7848541714
 11
11.9501046021
 21
-54.0915937873
  0
LINE
  5
277
100
AcDbEntity
  8
0
100
AcDbLine
 62
7
  6
CONTINUOUS
 10
-7.8135299321
 20
-42.6394914444
 11
-3.9244426356
 21
-44.8850017077
  0
LINE
  5
278
100
AcDbEntity
  8
0
100
AcDbLine
 62
7
  6
CONTINUOUS
 10
8.0963726446
 20
-51.8256697943
 11
11.9854599411
 21
-54.0711800576
  0
LINE
  5
279
100
AcDbEntity
  8
0
100
AcDbLine
 62
7
  6
CONTINUOUS
 10
-7.7074639149
 20
-42.4557797139
 11
-3.8183766184
 21
-44.7012899772
  0
LINE
  5
27A
100
AcDbEntity
  8
0
100
AcDbLine
 62
7
  6
CONTINUOUS
 10
8.2024386618
 20
-51.6419580638
 11
12.0915259583
 21
-53.8874683271
  0
LINE
  5
27B
100
AcDbEntity
  8
0
100
AcDbLine
 62
7
  6
CONTINUOUS
 10
-7.6013978978
 20
-42.3945385249
 11
-3.6062445841
 21
-44.7012781407
  0
LINE
  5
27C
100
AcDbEntity
  8
0
100
AcDbLine
 62
7
  6
CONTINUOUS
 10
8.3085046789
 20
-51.5807168748
 11
12.3036579926
 21
-53.8874564906
  0
LINE
  5
27D
100
AcDbEntity
  8
0
100
AcDbLine
 62
7
  6
CONTINUOUS
 10
-7.4599765415
 20
-42.4353541478
 11
-3.570889245
 21
-44.6808644111
  0
LINE
  5
27E
100
AcDbEntity
  8
0
100
AcDbLine
 62
7
  6
CONTINUOUS
 10
8.4499260352
 20
-51.6215324976
 11
12.3390133317
 21
-53.8670427609
  0
LINE
  5
27F
100
AcDbEntity
  8
0
100
AcDbLine
 62
7
  6
CONTINUOUS
 10
-7.3539105243
 20
-42.2516424172
 11
-3.4648232278
 21
-44.4971526805
  0
LINE
  5
280
100
AcDbEntity
  8
0
100
AcDbLine
 62
7
  6
CONTINUOUS
 10
8.5559920524
 20
-51.4378207671
 11
12.4450793489
 21
-53.6833310304
  0
LINE
  5
281
100
AcDbEntity
  8
0
100
AcDbLine
 62
7
  6
CONTINUOUS
 10
-7.2478445072
 20
-42.1904012282
 11
-3.2526911935
 21
-44.4971408441
  0
LINE
  5
282
100
AcDbEntity
  8
0
100
AcDbLine
 62
7
  6
CONTINUOUS
 10
8.6620580695
 20
-51.3765795781
 11
12.6572113832
 21
-53.6833191939
  0
LINE
  5
283
100
AcDbEntity
  8
0
100
AcDbLine
 62
7
  6
CONTINUOUS
 10
-7.1064231509
 20
-42.2312168511
 11
-3.2173358544
 21
-44.4767271144
  0
LINE
  5
284
100
AcDbEntity
  8
0
100
AcDbLine
 62
7
  6
CONTINUOUS
 10
8.8034794258
 20
-51.417395201
 11
12.6925667223
 21
-53.6629054643
  0
LINE
  5
285
100
AcDbEntity
  8
0
100
AcDbLine
 62
7
  6
CONTINUOUS
 10
-7.0003571337
 20
-42.0475051206
 11
-3.1112698372
 21
-44.2930153839
  0
LINE
  5
286
100
AcDbEntity
  8
0
100
AcDbLine
 62
7
  6
CONTINUOUS
 10
8.909545443
 20
-51.2336834704
 11
12.7986327395
 21
-53.4791937338
  0
LINE
  5
287
100
AcDbEntity
  8
0
100
AcDbLine
 62
7
  6
CONTINUOUS
 10
-6.8942911166
 20
-41.9862639316
 11
-2.8991378029
 21
-44.2930035474
  0
LINE
  5
288
100
AcDbEntity
  8
0
100
AcDbLine
 62
7
  6
CONTINUOUS
 10
9.0156114601
 20
-51.1724422814
 11
12.9609473977
 21
-53.450423528
  0
LINE
  5
289
100
AcDbEntity
  8
0
100
AcDbLine
 62
7
  6
CONTINUOUS
 10
12.9609473977
 20
-53.430004239
 11
8.9551668723
 21
-51.1171167678
  0
LINE
  5
28A
100
AcDbEntity
  8
0
100
AcDbLine
 62
7
  6
CONTINUOUS
 10
-2.6972718588
 20
-44.3891446839
 11
-6.9547357044
 21
-41.930938418
  0
LINE
  5
28B
100
AcDbEntity
  8
0
100
AcDbLine
 62
7
  6
CONTINUOUS
 10
-6.8127761798
 20
-41.9452542961
 11
-2.6392358922
 21
-44.3550041514
  0
LINE
  5
28C
100
AcDbEntity
  8
0
100
AcDbLine
 62
7
  6
CONTINUOUS
 10
9.0971263969
 20
-51.131432646
 11
12.9609473977
 21
-53.3623544668
  0
LINE
  5
28D
100
AcDbEntity
  8
SMUSSO
100
AcDbLine
 62
7
  6
CONTINUOUS
 10
-34.9487526601
 20
85.8842811806
 11
-34.9487526601
 21
-48.8217884489
  0
LINE
  5
28E
100
AcDbEntity
  8
DRAFT
100
AcDbLine
 62
7
  6
CONTINUOUS
 10
-17.1908073028
 20
25.7855635834
 11
-17.7268464109
 21
25.4418264969
  0
LINE
  5
28F
100
AcDbEntity
  8
0
100
AcDbLine
 62
7
  6
CONTINUOUS
 10
-14.7534526354
 20
29.4821191627
 11
-17.1908073028
 21
27.9273286498
  0
LINE
  5
290
100
AcDbEntity
  8
0
100
AcDbLine
 62
7
  6
CONTINUOUS
 10
-17.1908073028
 20
27.1980142618
 11
-16.9994139397
 21
27.3124487795
  0
LINE
  5
291
100
AcDbEntity
  8
RACCORDO
100
AcDbLine
 62
7
  6
CONTINUOUS
 10
-17.0334698329
 20
31.5733246205
 11
-16.4579103321
 21
31.8942431276
  0
LINE
  5
292
100
AcDbEntity
  8
RACCORDO
100
AcDbLine
 62
7
  6
CONTINUOUS
 10
-17.0968986818
 20
31.4352745579
 11
-16.521339181
 21
31.7561930649
  0
LINE
  5
293
100
AcDbEntity
  8
RACCORDO
100
AcDbLine
 62
7
  6
CONTINUOUS
 10
-16.7420196177
 20
26.0980433568
 11
-17.1908073028
 21
25.8478098472
  0
LINE
  5
294
100
AcDbEntity
  8
0
100
AcDbLine
 62
7
  6
CONTINUOUS
 10
-17.1908073028
 20
-31.6122219108
 11
-16.7420196177
 21
-31.8713462955
  0
LINE
  5
295
100
AcDbEntity
  8
0
100
AcDbLine
 62
7
  6
CONTINUOUS
 10
-17.0030838454
 20
-30.4141323837
 11
-17.1908073028
 21
-30.3057432121
  0
LWPOLYLINE
  5
296
100
AcDbEntity
  8
RACCORDO
100
AcDbPolyline
 62
7
  6
CONTINUOUS
 90
10
 70
0
 10
-21.9303024749
 20
-41.3764222713
 10
-21.9121331708
 20
-41.433013997
 10
-21.8903833939
 20
-41.4883404242
 10
-21.8651618854
 20
-41.5424298233
 10
-21.8366801853
 20
-41.5949307972
 10
-21.8050875297
 20
-41.6456326078
 10
-21.7704930143
 20
-41.6942848722
 10
-21.7331027082
 20
-41.7405134583
 10
-21.6928194413
 20
-41.7842479127
 10
-21.6498407443
 20
-41.8249994303
  0
LWPOLYLINE
  5
297
100
AcDbEntity
  8
RACCORDO
100
AcDbPolyline
 62
7
  6
CONTINUOUS
 90
4
 70
0
 10
-21.9602213356
 20
-41.2044210731
 10
-21.9546073741
 20
-41.2615159179
 10
-21.9445762347
 20
-41.3189643491
 10
-21.9303024749
 20
-41.3764222713
  0
LINE
  5
298
100
AcDbEntity
  8
DRAFT
100
AcDbLine
 62
7
  6
CONTINUOUS
 10
-17.1908073028
 20
19.6620365075
 11
-17.7268464109
 21
19.318299421
  0
LINE
  5
299
100
AcDbEntity
  8
0
100
AcDbLine
 62
7
  6
CONTINUOUS
 10
-16.1837397496
 20
19.8971766928
 11
-16.6700746801
 21
19.6063959558
  0
LINE
  5
29A
100
AcDbEntity
  8
0
100
AcDbLine
 62
7
  6
CONTINUOUS
 10
-15.9679378095
 20
19.5319094987
 11
-16.2495012184
 21
19.3635621101
  0
LINE
  5
29B
100
AcDbEntity
  8
SMUSSO
100
AcDbLine
 62
7
  6
CONTINUOUS
 10
31.8021274839
 20
48.1596298473
 11
34.241645879
 21
49.5681771942
  0
LINE
  5
29C
100
AcDbEntity
  8
RACCORDO
100
AcDbLine
 62
7
  6
CONTINUOUS
 10
14.7635128488
 20
38.078387405
 11
16.1702059688
 21
38.8905916894
  0
LINE
  5
29D
100
AcDbEntity
  8
RACCORDO
100
AcDbLine
 62
7
  6
CONTINUOUS
 10
-18.2361998637
 20
18.7020286031
 11
-17.1908073028
 21
19.3053337272
  0
LINE
  5
29E
100
AcDbEntity
  8
RACCORDO
100
AcDbLine
 62
7
  6
CONTINUOUS
 10
-19.7456103233
 20
17.8158237468
 11
-18.3684102465
 21
18.6109325392
  0
LINE
  5
29F
100
AcDbEntity
  8
RACCORDO
100
AcDbLine
 62
7
  6
CONTINUOUS
 10
-19.5462789675
 20
17.4705619885
 11
-18.1690751903
 21
18.2656924582
  0
LINE
  5
2A0
100
AcDbEntity
  8
RACCORDO
100
AcDbLine
 62
7
  6
CONTINUOUS
 10
-18.0241001381
 20
18.3346611024
 11
-16.9789659881
 21
18.9384138072
  0
LINE
  5
2A1
100
AcDbEntity
  8
RACCORDO
100
AcDbLine
 62
7
  6
CONTINUOUS
 10
15.2584122086
 20
37.2211965701
 11
16.6651053286
 21
38.0334008545
  0
LINE
  5
2A2
100
AcDbEntity
  8
SMUSSO
100
AcDbLine
 62
7
  6
CONTINUOUS
 10
32.5092342651
 20
46.9348849771
 11
34.9487526601
 21
48.3434323241
  0
LINE
  5
2A3
100
AcDbEntity
  8
RACCORDO
100
AcDbLine
 62
7
  6
CONTINUOUS
 10
-16.5298552697
 20
25.7306012382
 11
-17.4651394585
 21
25.2091086643
  0
LINE
  5
2A4
100
AcDbEntity
  8
RACCORDO
100
AcDbLine
 62
7
  6
CONTINUOUS
 10
-17.4651394585
 20
19.9836988928
 11
-16.5298552697
 21
20.5051914668
  0
LINE
  5
2A5
100
AcDbEntity
  8
RACCORDO
100
AcDbLine
 62
7
  6
CONTINUOUS
 10
-17.5285683074
 20
19.8456488302
 11
-16.5932841186
 21
20.3671414041
  0
LINE
  5
2A6
100
AcDbEntity
  8
0
100
AcDbLine
 62
7
  6
CONTINUOUS
 10
-17.1473394438
 20
-29.7388980857
 11
-16.9352074094
 21
-29.7388980857
  0
LINE
  5
2A7
100
AcDbEntity
  8
0
100
AcDbLine
 62
7
  6
CONTINUOUS
 10
-16.7937860532
 20
-29.5347607891
 11
-16.5816540188
 21
-29.5347607891
  0
LINE
  5
2A8
100
AcDbEntity
  8
0
100
AcDbLine
 62
7
  6
CONTINUOUS
 10
-16.4402326626
 20
-29.3306234924
 11
-16.2281006282
 21
-29.3306234924
  0
LINE
  5
2A9
100
AcDbEntity
  8
0
100
AcDbLine
 62
7
  6
CONTINUOUS
 10
-16.086679272
 20
-29.1264861957
 11
-15.8745472376
 21
-29.1264861957
  0
LINE
  5
2AA
100
AcDbEntity
  8
0
100
AcDbLine
 62
7
  6
CONTINUOUS
 10
-15.7331258814
 20
-28.9223488991
 11
-15.520993847
 21
-28.9223488991
  0
LINE
  5
2AB
100
AcDbEntity
  8
0
100
AcDbLine
 62
7
  6
CONTINUOUS
 10
-15.3795724908
 20
-28.7182116024
 11
-15.1674404565
 21
-28.7182116024
  0
LINE
  5
2AC
100
AcDbEntity
  8
0
100
AcDbLine
 62
7
  6
CONTINUOUS
 10
-15.0260191002
 20
-28.5140743057
 11
-14.8138870659
 21
-28.5140743057
  0
LINE
  5
2AD
100
AcDbEntity
  8
0
100
AcDbLine
 62
7
  6
CONTINUOUS
 10
-16.4402326626
 20
-24.84003697
 11
-16.2281006282
 21
-24.84003697
  0
LINE
  5
2AE
100
AcDbEntity
  8
0
100
AcDbLine
 62
7
  6
CONTINUOUS
 10
-16.086679272
 20
-24.6358996734
 11
-15.8745472376
 21
-24.6358996734
  0
LINE
  5
2AF
100
AcDbEntity
  8
0
100
AcDbLine
 62
7
  6
CONTINUOUS
 10
-15.7331258814
 20
-24.4317623767
 11
-15.520993847
 21
-24.4317623767
  0
LINE
  5
2B0
100
AcDbEntity
  8
0
100
AcDbLine
 62
7
  6
CONTINUOUS
 10
-14.6829357703
 20
-23.6129443948
 11
-15.1010850084
 21
-23.3715102654
  0
LINE
  5
2B1
100
AcDbEntity
  8
0
100
AcDbLine
 62
7
  6
CONTINUOUS
 10
-15.0489621437
 20
-23.3422787697
 11
-14.6318991606
 21
-23.5830857091
  0
LWPOLYLINE
  5
2B2
100
AcDbEntity
  8
RACCORDO
100
AcDbPolyline
 62
7
  6
CONTINUOUS
 90
4
 70
0
 10
-21.9602213356
 20
16.7649685792
 10
-21.9546073741
 20
16.7078737344
 10
-21.9445762347
 20
16.6504253031
 10
-21.9303024749
 20
16.592967381
  0
LINE
  5
2B3
100
AcDbEntity
  8
RACCORDO
100
AcDbLine
 62
7
  6
CONTINUOUS
 10
-21.9614533107
 20
-41.1629724281
 11
-21.9602213356
 21
-41.2044210731
  0
LINE
  5
2B4
100
AcDbEntity
  8
RACCORDO
100
AcDbLine
 62
7
  6
CONTINUOUS
 10
-21.9614533107
 20
16.8064172242
 11
-21.9602213356
 21
16.7649685792
  0
LINE
  5
2B5
100
AcDbEntity
  8
RACCORDO
100
AcDbLine
 62
7
  6
CONTINUOUS
 10
-21.9614631015
 20
58.5425450805
 11
-21.9614631015
 21
16.8062242994
  0
LINE
  5
2B6
100
AcDbEntity
  8
RACCORDO
100
AcDbLine
 62
7
  6
CONTINUOUS
 10
-21.9614631015
 20
0.5731554283
 11
-21.9614631015
 21
-41.1631653529
  0
LINE
  5
2B7
100
AcDbEntity
  8
RACCORDO
100
AcDbLine
 62
7
  6
CONTINUOUS
 10
-21.8735951359
 20
58.4200627059
 11
-21.8735951359
 21
16.68110543
  0
LINE
  5
2B8
100
AcDbEntity
  8
RACCORDO
100
AcDbLine
 62
7
  6
CONTINUOUS
 10
-21.8735951359
 20
0.4506730536
 11
-21.8735951359
 21
-41.2882842223
  0
LINE
  5
2B9
100
AcDbEntity
  8
RACCORDO
100
AcDbLine
 62
7
  6
CONTINUOUS
 10
-20.0845278361
 20
-40.1190620596
 11
-20.0845278361
 21
-2.7818826912
  0
LINE
  5
2BA
100
AcDbEntity
  8
RACCORDO
100
AcDbLine
 62
7
  6
CONTINUOUS
 10
-20.0845278361
 20
17.8503275926
 11
-20.0845278361
 21
55.1875069611
  0
LINE
  5
2BB
100
AcDbEntity
  8
RACCORDO
100
AcDbLine
 62
7
  6
CONTINUOUS
 10
-19.7456103233
 20
-40.1535659055
 11
-19.7456103233
 21
-2.8163886395
  0
LINE
  5
2BC
100
AcDbEntity
  8
RACCORDO
100
AcDbLine
 62
7
  6
CONTINUOUS
 10
-19.7456103233
 20
17.8158237468
 11
-19.7456103233
 21
55.1530010128
  0
LINE
  5
2BD
100
AcDbEntity
  8
RACCORDO
100
AcDbLine
 62
7
  6
CONTINUOUS
 10
-18.3722199181
 20
54.5577295006
 11
-18.3722199181
 21
18.648052117
  0
LINE
  5
2BE
100
AcDbEntity
  8
RACCORDO
100
AcDbLine
 62
7
  6
CONTINUOUS
 10
-18.3722199181
 20
-3.4116601517
 11
-18.3722199181
 21
-39.3213375353
  0
LINE
  5
2BF
100
AcDbEntity
  8
RACCORDO
100
AcDbLine
 62
7
  6
CONTINUOUS
 10
-18.2361998637
 20
54.479193226
 11
-18.2361998637
 21
18.7020286031
  0
LINE
  5
2C0
100
AcDbEntity
  8
RACCORDO
100
AcDbLine
 62
7
  6
CONTINUOUS
 10
-18.2361998637
 20
-3.4901964263
 11
-18.2361998637
 21
-39.2673610492
  0
LINE
  5
2C1
100
AcDbEntity
  8
RACCORDO
100
AcDbLine
 62
7
  6
CONTINUOUS
 10
-11.5788735419
 20
16.013560877
 11
-11.013188117
 21
16.3401805517
  0
LINE
  5
2C2
100
AcDbEntity
  8
RACCORDO
100
AcDbLine
 62
7
  6
CONTINUOUS
 10
-11.3218424434
 20
15.6720615729
 11
-10.8010560826
 21
15.9727570907
  0
LINE
  5
2C3
100
AcDbEntity
  8
0
100
AcDbLine
 62
7
  6
CONTINUOUS
 10
-15.9668546393
 20
-23.7353972918
 11
-15.6589847924
 21
-23.6880923589
  0
LINE
  5
2C4
100
AcDbEntity
  8
0
100
AcDbLine
 62
7
  6
CONTINUOUS
 10
-15.3795724908
 20
-24.22762508
 11
-15.1674404565
 21
-24.22762508
  0
LINE
  5
2C5
100
AcDbEntity
  8
0
100
AcDbLine
 62
7
  6
CONTINUOUS
 10
-15.0260191002
 20
-24.0234877834
 11
-14.8138870659
 21
-24.0234877834
  0
LINE
  5
2C6
100
AcDbEntity
  8
0
100
AcDbLine
 62
7
  6
CONTINUOUS
 10
-16.6700746801
 20
-13.4606502543
 11
-17.1908073028
 21
-13.1599857642
  0
LINE
  5
2C7
100
AcDbEntity
  8
0
100
AcDbLine
 62
7
  6
CONTINUOUS
 10
-17.1908073028
 20
-11.9351619843
 11
-17.1650171133
 21
-11.9500529165
  0
LINE
  5
2C8
100
AcDbEntity
  8
RACCORDO
100
AcDbLine
 62
7
  6
CONTINUOUS
 10
-17.972635744
 20
-39.1151829343
 11
-17.972635744
 21
-3.6423750458
  0
LINE
  5
2C9
100
AcDbEntity
  8
RACCORDO
100
AcDbLine
 62
7
  6
CONTINUOUS
 10
-17.972635744
 20
18.854206718
 11
-17.972635744
 21
54.3270146065
  0
LINE
  5
2CA
100
AcDbEntity
  8
DRAFT
100
AcDbLine
 62
7
  6
CONTINUOUS
 10
-17.7268464109
 20
-38.6510902313
 11
-17.7268464109
 21
-32.5275631554
  0
LINE
  5
2CB
100
AcDbEntity
  8
DRAFT
100
AcDbLine
 62
7
  6
CONTINUOUS
 10
-17.7268464109
 20
-8.931572156
 11
-17.7268464109
 21
-3.7842907263
  0
LINE
  5
2CC
100
AcDbEntity
  8
DRAFT
100
AcDbLine
 62
7
  6
CONTINUOUS
 10
-17.7268464109
 20
19.318299421
 11
-17.7268464109
 21
25.4418264969
  0
LINE
  5
2CD
100
AcDbEntity
  8
DRAFT
100
AcDbLine
 62
7
  6
CONTINUOUS
 10
-17.7268464109
 20
49.0378174962
 11
-17.7268464109
 21
54.185098926
  0
LINE
  5
2CE
100
AcDbEntity
  8
0
100
AcDbLine
 62
7
  6
CONTINUOUS
 10
-17.5008928344
 20
49.5651669054
 11
-17.5008928344
 21
49.5805981014
  0
LINE
  5
2CF
100
AcDbEntity
  8
RACCORDO
100
AcDbLine
 62
7
  6
CONTINUOUS
 10
-17.4651394585
 20
54.0339926116
 11
-17.4651394585
 21
49.7032169681
  0
LINE
  5
2D0
100
AcDbEntity
  8
RACCORDO
100
AcDbLine
 62
7
  6
CONTINUOUS
 10
-17.4651394585
 20
25.2091086643
 11
-17.4651394585
 21
19.9836988928
  0
LINE
  5
2D1
100
AcDbEntity
  8
0
100
AcDbLine
 62
7
  6
CONTINUOUS
 10
-17.4651394585
 20
-37.9856907594
 11
-17.4651394585
 21
-32.760280988
  0
LINE
  5
2D2
100
AcDbEntity
  8
0
100
AcDbLine
 62
7
  6
CONTINUOUS
 10
-17.4651394585
 20
-8.2661726842
 11
-17.4651394585
 21
-3.9353970406
  0
LINE
  5
2D3
100
AcDbEntity
  8
0
100
AcDbLine
 62
7
  6
CONTINUOUS
 10
-17.2887608
 20
49.4381117043
 11
-17.2887608
 21
49.698877959
  0
LINE
  5
2D4
100
AcDbEntity
  8
DRAFT
100
AcDbLine
 62
7
  6
CONTINUOUS
 10
-17.1908073028
 20
49.3815545827
 11
-17.1908073028
 21
25.7855635834
  0
LINE
  5
2D5
100
AcDbEntity
  8
RACCORDO
100
AcDbLine
 62
7
  6
CONTINUOUS
 10
-17.1908073028
 20
19.6620365075
 11
-17.1908073028
 21
19.3053337272
  0
LINE
  5
2D6
100
AcDbEntity
  8
DRAFT
100
AcDbLine
 62
7
  6
CONTINUOUS
 10
-17.1908073028
 20
-8.5878350696
 11
-17.1908073028
 21
-32.1838260689
  0
LINE
  5
2D7
100
AcDbEntity
  8
RACCORDO
100
AcDbLine
 62
7
  6
CONTINUOUS
 10
-17.1908073028
 20
-38.3073531448
 11
-17.1908073028
 21
-38.6640559251
  0
LINE
  5
2D8
100
AcDbEntity
  8
0
100
AcDbLine
 62
7
  6
CONTINUOUS
 10
-17.1826947828
 20
-26.5435683695
 11
-17.1826947828
 21
-29.8817941934
  0
LINE
  5
2D9
100
AcDbEntity
  8
0
100
AcDbLine
 62
7
  6
CONTINUOUS
 10
-17.1826947828
 20
46.4581766867
 11
-17.1826947828
 21
49.7580178878
  0
LINE
  5
2DA
100
AcDbEntity
  8
DRAFT
100
AcDbLine
 62
7
  6
CONTINUOUS
 10
-17.1650171133
 20
46.2284276024
 11
-17.1650171133
 21
45.8130958904
  0
LINE
  5
2DB
100
AcDbEntity
  8
0
100
AcDbLine
 62
7
  6
CONTINUOUS
 10
-17.1650171133
 20
-12.1562937619
 11
-17.1650171133
 21
-11.9500529165
  0
LINE
  5
2DC
100
AcDbEntity
  8
0
100
AcDbLine
 62
7
  6
CONTINUOUS
 10
-17.1473394438
 20
-26.5471133548
 11
-17.1473394438
 21
-29.7388980857
  0
LINE
  5
2DD
100
AcDbEntity
  8
0
100
AcDbLine
 62
7
  6
CONTINUOUS
 10
-17.1473394438
 20
46.6010727944
 11
-17.1473394438
 21
49.7777311973
  0
LINE
  5
2DE
100
AcDbEntity
  8
0
100
AcDbLine
 62
7
  6
CONTINUOUS
 10
-17.0334698329
 20
-14.1490108799
 11
-17.0334698329
 21
-26.3960650317
  0
LINE
  5
2DF
100
AcDbEntity
  8
RACCORDO
100
AcDbLine
 62
7
  6
CONTINUOUS
 10
-17.0334698329
 20
31.5733246205
 11
-17.0334698329
 21
43.8203787724
  0
LINE
  5
2E0
100
AcDbEntity
  8
0
100
AcDbLine
 62
7
  6
CONTINUOUS
 10
-16.9994139397
 20
27.3124487795
 11
-16.9994139397
 21
26.2466596124
  0
LINE
  5
2E1
100
AcDbEntity
  8
0
100
AcDbLine
 62
7
  6
CONTINUOUS
 10
-16.9994139397
 20
-31.7227300399
 11
-16.9994139397
 21
-30.6569408728
  0
LINE
  5
2E2
100
AcDbEntity
  8
0
100
AcDbLine
 62
7
  6
CONTINUOUS
 10
-16.9352074094
 20
-26.4439598252
 11
-16.9352074094
 21
-29.7388980857
  0
LINE
  5
2E3
100
AcDbEntity
  8
0
100
AcDbLine
 62
7
  6
CONTINUOUS
 10
-16.9352074094
 20
46.6010727944
 11
-16.9352074094
 21
49.8960110549
  0
LINE
  5
2E4
100
AcDbEntity
  8
0
100
AcDbLine
 62
7
  6
CONTINUOUS
 10
-16.9152158798
 20
27.4327748906
 11
-16.9152158798
 21
26.1980447078
  0
LINE
  5
2E5
100
AcDbEntity
  8
0
100
AcDbLine
 62
7
  6
CONTINUOUS
 10
-16.9152158798
 20
-30.5366147617
 11
-16.9152158798
 21
-31.7713449445
  0
LINE
  5
2E6
100
AcDbEntity
  8
0
100
AcDbLine
 62
7
  6
CONTINUOUS
 10
-16.8291413922
 20
-26.3848198965
 11
-16.8291413922
 21
-29.6776568967
  0
LINE
  5
2E7
100
AcDbEntity
  8
0
100
AcDbLine
 62
7
  6
CONTINUOUS
 10
-16.8291413922
 20
46.6623139834
 11
-16.8291413922
 21
49.9551509837
  0
LINE
  5
2E8
100
AcDbEntity
  8
0
100
AcDbLine
 62
7
  6
CONTINUOUS
 10
-16.7937860532
 20
-26.3651065869
 11
-16.7937860532
 21
-29.5347607891
  0
LINE
  5
2E9
100
AcDbEntity
  8
0
100
AcDbLine
 62
7
  6
CONTINUOUS
 10
-16.7937860532
 20
46.8052100911
 11
-16.7937860532
 21
49.9748642932
  0
LINE
  5
2EA
100
AcDbEntity
  8
0
100
AcDbLine
 62
7
  6
CONTINUOUS
 10
-16.5816540188
 20
-26.2468267293
 11
-16.5816540188
 21
-29.5347607891
  0
LINE
  5
2EB
100
AcDbEntity
  8
0
100
AcDbLine
 62
7
  6
CONTINUOUS
 10
-16.5816540188
 20
46.8052100911
 11
-16.5816540188
 21
50.09449561
  0
LINE
  5
2EC
100
AcDbEntity
  8
0
100
AcDbLine
 62
7
  6
CONTINUOUS
 10
-16.5298552697
 20
-4.4754184094
 11
-16.5298552697
 21
-7.7446801103
  0
LINE
  5
2ED
100
AcDbEntity
  8
0
100
AcDbLine
 62
7
  6
CONTINUOUS
 10
-16.5298552697
 20
-32.238788414
 11
-16.5298552697
 21
-37.4641981855
  0
LINE
  5
2EE
100
AcDbEntity
  8
RACCORDO
100
AcDbLine
 62
7
  6
CONTINUOUS
 10
-16.5298552697
 20
20.5051914668
 11
-16.5298552697
 21
25.7306012382
  0
LINE
  5
2EF
100
AcDbEntity
  8
RACCORDO
100
AcDbLine
 62
7
  6
CONTINUOUS
 10
-16.5298552697
 20
50.224709542
 11
-16.5298552697
 21
53.4939712429
  0
LINE
  5
2F0
100
AcDbEntity
  8
0
100
AcDbLine
 62
7
  6
CONTINUOUS
 10
-16.4755880016
 20
-26.1622621032
 11
-16.4755880016
 21
-29.4735196001
  0
LINE
  5
2F1
100
AcDbEntity
  8
0
100
AcDbLine
 62
7
  6
CONTINUOUS
 10
-16.4755880016
 20
46.8664512801
 11
-16.4755880016
 21
51.4795201804
  0
LINE
  5
2F2
100
AcDbEntity
  8
0
100
AcDbLine
 62
7
  6
CONTINUOUS
 10
-16.4579103321
 20
-13.8280923728
 11
-16.4579103321
 21
-26.0751465247
  0
LINE
  5
2F3
100
AcDbEntity
  8
RACCORDO
100
AcDbLine
 62
7
  6
CONTINUOUS
 10
-16.4579103321
 20
31.8942431276
 11
-16.4579103321
 21
44.1412972795
  0
LINE
  5
2F4
100
AcDbEntity
  8
0
100
AcDbLine
 62
7
  6
CONTINUOUS
 10
-16.4402326626
 20
-24.84003697
 11
-16.4402326626
 21
-29.3306234924
  0
LINE
  5
2F5
100
AcDbEntity
  8
0
100
AcDbLine
 62
7
  6
CONTINUOUS
 10
-16.4402326626
 20
47.0093473877
 11
-16.4402326626
 21
51.4999339101
  0
LINE
  5
2F6
100
AcDbEntity
  8
0
100
AcDbLine
 62
7
  6
CONTINUOUS
 10
-16.2281006282
 20
-24.84003697
 11
-16.2281006282
 21
-29.3306234924
  0
LINE
  5
2F7
100
AcDbEntity
  8
0
100
AcDbLine
 62
7
  6
CONTINUOUS
 10
-16.2281006282
 20
47.0093473877
 11
-16.2281006282
 21
51.4999339101
  0
LINE
  5
2F8
100
AcDbEntity
  8
0
100
AcDbLine
 62
7
  6
CONTINUOUS
 10
-16.1220346111
 20
-24.656313403
 11
-16.1220346111
 21
-29.2693823034
  0
LINE
  5
2F9
100
AcDbEntity
  8
0
100
AcDbLine
 62
7
  6
CONTINUOUS
 10
-16.1220346111
 20
47.0705885767
 11
-16.1220346111
 21
51.6836574771
  0
LINE
  5
2FA
100
AcDbEntity
  8
0
100
AcDbLine
 62
7
  6
CONTINUOUS
 10
-16.086679272
 20
-24.6358996734
 11
-16.086679272
 21
-29.1264861957
  0
LINE
  5
2FB
100
AcDbEntity
  8
0
100
AcDbLine
 62
7
  6
CONTINUOUS
 10
-16.086679272
 20
47.2134846844
 11
-16.086679272
 21
51.7040712068
  0
LINE
  5
2FC
100
AcDbEntity
  8
0
100
AcDbLine
 62
7
  6
CONTINUOUS
 10
-15.9679378095
 20
19.5319094987
 11
-15.9679378095
 21
19.2009909266
  0
LINE
  5
2FD
100
AcDbEntity
  8
0
100
AcDbLine
 62
7S
 10
-15.9679378095
 20
-38.7683987257
 11
-15.9679378095
 21
-38.4374801536
  0
LINE
  5
2FE
100
AcDbEntity
  8
0
100
AcDbLine
 62
7
  6
CONTINUOUS
 10
-15.8837397496
 20
19.6522356098
 11
-15.8837397496
 21
19.1523760221
  0
LINE
  5
2FF
100
AcDbEntity
  8
0
100
AcDbLine
 62
7
  6
CONTINUOUS
 10
-15.8837397496
 20
-38.3171540425
 11
-15.8837397496
 21
-38.8170136302
  0
LINE
  5
300
100
AcDbEntity
  8
0
100
AcDbLine
 62
7
  6
CONTINUOUS
 10
-15.8745472376
 20
-24.6358996734
 11
-15.8745472376
 21
-29.1264861957
  0
LINE
  5
301
100
AcDbEntity
  8
0
100
AcDbLine
 62
7
  6
CONTINUOUS
 10
-15.8745472376
 20
47.2134846844
 11
-15.8745472376
 21
51.7040712068
  0
LINE
  5
302
100
AcDbEntity
  8
0
100
AcDbLine
 62
7
  6
CONTINUOUS
 10
-15.7684812205
 20
-24.4521761064
 11
-15.7684812205
 21
-29.0652450067
  0
LINE
  5
303
100
AcDbEntity
  8
0
100
AcDbLine
 62
7
  6
CONTINUOUS
 10
-15.7684812205
 20
47.2747258734
 11
-15.7684812205
 21
51.8877947738
  0
LINE
  5
304
100
AcDbEntity
  8
0
100
AcDbLine
 62
7
  6
CONTINUOUS
 10
-15.7331258814
 20
-24.4317623767
 11
-15.7331258814
 21
-28.9223488991
  0
LINE
  5
305
100
AcDbEntity
  8
0
100
AcDbLine
 62
7
  6
CONTINUOUS
 10
-15.7331258814
 20
47.4176219811
 11
-15.7331258814
 21
51.9082085034
  0
LINE
  5
306
100
AcDbEntity
  8
0
100
AcDbLine
 62
7
  6
CONTINUOUS
 10
-15.520993847
 20
-24.4317623767
 11
-15.520993847
 21
-28.9223488991
  0
LINE
  5
307
100
AcDbEntity
  8
0
100
AcDbLine
 62
7
  6
CONTINUOUS
 10
-15.520993847
 20
47.4176219811
 11
-15.520993847
 21
51.9082085034
  0
LINE
  5
308
100
AcDbEntity
  8
0
100
AcDbLine
 62
7
  6
CONTINUOUS
 10
-15.4149278299
 20
-24.2480388097
 11
-15.4149278299
 21
-28.8611077101
  0
LINE
  5
309
100
AcDbEntity
  8
0
100
AcDbLine
 62
7
  6
CONTINUOUS
 10
-15.4149278299
 20
47.4788631701
 11
-15.4149278299
 21
52.0919320704
  0
LINE
  5
30A
100
AcDbEntity
  8
0
100
AcDbLine
 62
7
  6
CONTINUOUS
 10
-15.3795724908
 20
-24.22762508
 11
-15.3795724908
 21
-28.7182116024
  0
LINE
  5
30B
100
AcDbEntity
  8
0
100
AcDbLine
 62
7
  6
CONTINUOUS
 10
-15.3795724908
 20
47.6217592777
 11
-15.3795724908
 21
52.1123458001
  0
LINE
  5
30C
100
AcDbEntity
  8
0
100
AcDbLine
 62
7
  6
CONTINUOUS
 10
-15.1674404565
 20
-24.22762508
 11
-15.1674404565
 21
-28.7182116024
  0
LINE
  5
30D
100
AcDbEntity
  8
0
100
AcDbLine
 62
7
  6
CONTINUOUS
 10
-15.1674404565
 20
47.6217592777
 11
-15.1674404565
 21
52.1123458001
  0
LINE
  5
30E
100
AcDbEntity
  8
0
100
AcDbLine
 62
7
  6
CONTINUOUS
 10
-15.0613744393
 20
-24.043901513
 11
-15.0613744393
 21
-28.6569704134
  0
LINE
  5
30F
100
AcDbEntity
  8
0
100
AcDbLine
 62
7
  6
CONTINUOUS
 10
-15.0613744393
 20
47.6830004667
 11
-15.0613744393
 21
52.2960693671
  0
LINE
  5
310
100
AcDbEntity
  8
0
100
AcDbLine
 62
7
  6
CONTINUOUS
 10
-15.0260191002
 20
-24.0234877834
 11
-15.0260191002
 21
-28.5140743057
  0
LINE
  5
311
100
AcDbEntity
  8
0
100
AcDbLine
 62
7
  6
CONTINUOUS
 10
-15.0260191002
 20
47.8258965744
 11
-15.0260191002
 21
52.3164830967
  0
LINE
  5
312
100
AcDbEntity
  8
0
100
AcDbLine
 62
7
  6
CONTINUOUS
 10
-14.8138870659
 20
-24.0234877834
 11
-14.8138870659
 21
-28.5140743057
  0
LINE
  5
313
100
AcDbEntity
  8
0
100
AcDbLine
 62
7
  6
CONTINUOUS
 10
-14.8138870659
 20
47.8258965744
 11
-14.8138870659
 21
52.3164830967
  0
LINE
  5
314
100
AcDbEntity
  8
0
100
AcDbLine
 62
7
  6
CONTINUOUS
 10
-14.7078210487
 20
-23.8397642164
 11
-14.7078210487
 21
-28.4528331167
  0
LINE
  5
315
100
AcDbEntity
  8
0
100
AcDbLine
 62
7
  6
CONTINUOUS
 10
-14.7078210487
 20
47.8871377634
 11
-14.7078210487
 21
52.4419515192
  0
LINE
  5
316
100
AcDbEntity
  8
0
100
AcDbLine
 62
7
  6
CONTINUOUS
 10
-14.6901433792
 20
52.4317446543
 11
-14.6901433792
 21
47.8071515582
  0
LINE
  5
317
100
AcDbEntity
  8
0
100
AcDbLine
 62
7
  6
CONTINUOUS
 10
-14.6901433792
 20
-28.5328193219
 11
-14.6901433792
 21
-23.6168819035
  0
LINE
  5
318
100
AcDbEntity
  8
0
100
AcDbLine
 62
7
  6
CONTINUOUS
 10
-14.6383795701
 20
34.3821766266
 11
-14.6383795701
 21
29.6299867256
  0
LINE
  5
319
100
AcDbEntity
  8
0
100
AcDbLine
 62
7
  6
CONTINUOUS
 10
-14.6383795701
 20
-9.9688215855
 11
-14.6383795701
 21
-5.5675327725
  0
LINE
  5
31A
100
AcDbEntity
  8
0
100
AcDbLine
 62
7
  6
CONTINUOUS
 10
-14.6315647354
 20
52.3979220796
 11
-14.6315647354
 21
47.9372447365
  0
LINE
  5
31B
100
AcDbEntity
  8
0
100
AcDbLine
 62
7
  6
CONTINUOUS
 10
-14.6315647354
 20
-23.5836652445
 11
-14.6315647354
 21
-28.4027097925
  0
LWPOLYLINE
  5
31C
100
AcDbEntity
  8
RACCORDO
100
AcDbPolyline
 62
7
  6
CONTINUOUS
 90
13
 70
0
 10
-21.7397432385
 20
1.009403101
 10
-21.7650297294
 20
0.9925293837
 10
-21.7959137715
 20
0.9681310661
 10
-21.8250948908
 20
0.9404197698
 10
-21.8522617563
 20
0.9094114822
 10
-21.8770299813
 20
0.8752688032
 10
-21.8990104611
 20
0.8382859296
 10
-21.9179817579
 20
0.7985963264
 10
-21.9337196913
 20
0.7564141306
 10
-21.9460147035
 20
0.7121392879
 10
-21.9547759911
 20
0.6659770005
 10
-21.9599379417
 20
0.6179837091
 10
-21.9614530608
 20
0.5731761789
  0
LINE
  5
31D
100
AcDbEntity
  8
0
100
AcDbLine
 62
7
  6
CONTINUOUS
 10
-2.690258329
 20
13.503095393
 11
-4.305557539
 21
12.4672787224
  0
LINE
  5
31E
100
AcDbEntity
  8
RACCORDO
100
AcDbLine
 62
7
  6
CONTINUOUS
 10
-21.7399382602
 20
1.0092897936
 11
-20.3799887542
 21
1.8503029678
  0
LINE
  5
31F
100
AcDbEntity
  8
RACCORDO
100
AcDbLine
 62
7
  6
CONTINUOUS
 10
-21.3823656818
 20
0.979175002
 11
-20.0239379262
 21
1.8192471029
  0
LINE
  5
320
100
AcDbEntity
  8
ASSI
100
AcDbLine
 62
7
  6
CONTINUOUS
 10
-2.690258329
 20
13.1016970365
 11
-4.0356075961
 21
12.3114130085
  0
LINE
  5
321
100
AcDbEntity
  8
ASSI
100
AcDbLine
 62
7
  6
CONTINUOUS
 10
-3.5881485449
 20
12.4006867111
 11
-3.8884442921
 21
12.2264427612
  0
LINE
  5
322
100
AcDbEntity
  8
ASSI
100
AcDbLine
 62
7
  6
CONTINUOUS
 10
-3.4383245132
 20
12.5339416603
 11
-3.9286193092
 21
12.2496393126
  0
LINE
  5
323
100
AcDbEntity
  8
RACCORDO
100
AcDbLine
 62
7
  6
CONTINUOUS
 10
-5.8598945061
 20
13.292983455
 11
-6.4255799311
 21
12.9663637804
  0
LINE
  5
324
100
AcDbEntity
  8
RACCORDO
100
AcDbLine
 62
7
  6
CONTINUOUS
 10
-5.7098872581
 20
13.2781211017
 11
-6.275572683
 21
12.9515014271
  0
LINE
  5
325
100
AcDbEntity
  8
0
100
AcDbLine
 62
7
  6
CONTINUOUS
 10
-9.9488257307
 20
15.1004717911
 11
-10.1437569139
 21
14.9918497531
  0
LINE
  5
326
100
AcDbEntity
  8
0
100
AcDbLine
 62
7
  6
CONTINUOUS
 10
-6.9469463904
 20
15.9608537309
 11
-9.5122253545
 21
14.6272113456
  0
LINE
  5
327
100
AcDbEntity
  8
0
100
AcDbLine
 62
7
  6
CONTINUOUS
 10
-17.6773038065
 20
-8.3886127317
 11
-17.7268464109
 21
-8.3600074529
  0
LINE
  5
328
100
AcDbEntity
  8
DRAFT
100
AcDbLine
 62
7
  6
CONTINUOUS
 10
-17.5185180789
 20
-8.3986189747
 11
-17.1908073028
 21
-8.5878350696
  0
LINE
  5
329
100
AcDbEntity
  8
RACCORDO
100
AcDbLine
 62
7
  6
CONTINUOUS
 10
-19.6237252352
 20
-2.6890566666
 11
12.7122623138
 21
-21.3594506122
  0
LINE
  5
32A
100
AcDbEntity
  8
RACCORDO
100
AcDbLine
 62
7
  6
CONTINUOUS
 10
-19.6858500215
 20
-2.5517356083
 11
12.6501375487
 21
-21.2221295662
  0
LWPOLYLINE
  5
32B
100
AcDbEntity
  8
RACCORDO
100
AcDbPolyline
 62
7
  6
CONTINUOUS
 90
10
 70
0
 10
-21.9303024749
 20
16.592967381
 10
-21.9121331708
 20
16.5363756553
 10
-21.8903833939
 20
16.481049228
 10
-21.8651618854
 20
16.426959829
 10
-21.8366801853
 20
16.3744588551
 10
-21.8050875297
 20
16.3237570445
 10
-21.7704930143
 20
16.2751047801
 10
-21.7331027082
 20
16.228876194
 10
-21.6928194413
 20
16.1851417396
 10
-21.6498407443
 20
16.144390222
  0
LINE
  5
32C
100
AcDbEntity
  8
RACCORDO
100
AcDbLine
 62
7
  6
CONTINUOUS
 10
-10.8010560826
 20
15.9727570907
 11
-10.8010560826
 21
15.3713660552
  0
LINE
  5
32D
100
AcDbEntity
  8
0
100
AcDbLine
 62
7
  6
CONTINUOUS
 10
-10.8010560826
 20
-42.5980235971
 11
-10.8010560826
 21
-41.9966325616
  0
LINE
  5
32E
100
AcDbEntity
  8
0
100
AcDbLine
 62
7
  6
CONTINUOUS
 10
-9.7403959108
 20
14.9759127795
 11
-9.7403959108
 21
14.7589541652
  0
LINE
  5
32F
100
AcDbEntity
  8
0
100
AcDbLine
 62
7
  6
CONTINUOUS
 10
-9.7403959108
 20
-43.1804552806
 11
-9.7403959108
 21
-42.9934768728
  0
LINE
  5
330
100
AcDbEntity
  8
ASSI
100
AcDbLine
 62
7
  6
CONTINUOUS
 10
-3.4383245132
 20
12.5339416603
 11
-3.2436506218
 21
12.7766237631
  0
LINE
  5
331
100
AcDbEntity
  8
SMUSSO
100
AcDbLine
 62
7
  6
CONTINUOUS
 10
31.8021274839
 20
48.1596298473
 11
30.8021274839
 21
47.1039978509
  0
LINE
  5
332
100
AcDbEntity
  8
RACCORDO
100
AcDbLine
 62
7
  6
CONTINUOUS
 10
14.5550830289
 20
-20.2562507904
 11
-21.5930788454
 21
0.615244833
  0
LINE
  5
333
100
AcDbEntity
  8
RACCORDO
100
AcDbLine
 62
7
  6
CONTINUOUS
 10
14.7635128488
 20
-19.8910022473
 11
-21.3823656818
 21
0.979175002
  0
LINE
  5
334
100
AcDbEntity
  8
RACCORDO
100
AcDbLine
 62
7
  6
CONTINUOUS
 10
16.1702059688
 20
-19.0787979629
 11
-20.0239379262
 21
1.8192471029
  0
LWPOLYLINE
  5
335
100
AcDbEntity
  8
RACCORDO
100
AcDbPolyline
 62
7
  6
CONTINUOUS
 90
21
 70
0
 10
12.7123426606
 20
-21.359497156
 10
12.7254805276
 20
-21.3675340358
 10
12.7433613708
 20
-21.37987384
 10
12.7619271457
 20
-21.3943711081
 10
12.7808126837
 20
-21.4109059706
 10
12.7997285576
 20
-21.4293580278
 10
12.8184043902
 20
-21.4495719413
 10
12.8366264185
 20
-21.4714065354
 10
12.854156987
 20
-21.4946477647
 10
12.870768913
 20
-21.5190445085
 10
12.8863310758
 20
-21.5444397013
 10
12.9006561559
 20
-21.5705361675
 10
12.9135917792
 20
-21.5970259459
 10
12.925075309
 20
-21.6237407995
 10
12.9350015242
 20
-21.650361525
 10
12.9432993931
 20
-21.6765438453
 10
12.9499668016
 20
-21.7020636941
 10
12.9550103083
 20
-21.7266482215
 10
12.9584593487
 20
-21.7499621327
 10
12.9603903718
 20
-21.77163265
 10
12.9609468985
 20
-21.7900669607
  0
LINE
  5
336
100
AcDbEntity
  8
0
100
AcDbLine
 62
7
  6
CONTINUOUS
 10
-2.690258329
 20
13.503095393
 11
-2.690258329
 21
13.1016970365
  0
LINE
  5
337
100
AcDbEntity
  8
0
100
AcDbLine
 62
7
  6
CONTINUOUS
 10
-2.690258329
 20
-44.8676926158
 11
-2.690258329
 21
-44.3848710204
  0
LINE
  5
338
100
AcDbEntity
  8
ASSI
100
AcDbLine
 62
7
  6
CONTINUOUS
 10
-2.6388872941
 20
13.5803649182
 11
-2.6388872941
 21
13.1322311011
  0
LINE
  5
339
100
AcDbEntity
  8
0
100
AcDbLine
 62
7
  6
CONTINUOUS
 10
-2.6388872941
 20
-44.3556082212
 11
-2.6388872941
 21
-44.8371899591
  0
LINE
  5
33A
100
AcDbEntity
  8
DRAFT
100
AcDbLine
 62
7
  6
CONTINUOUS
 10
-17.1908073028
 20
-8.5878350696
 11
-17.7268464109
 21
-8.931572156
  0
LINE
  5
33B
100
AcDbEntity
  8
0
100
AcDbLine
 62
7
  6
CONTINUOUS
 10
-14.7534526354
 20
-10.1166892617
 11
-17.1908073028
 21
-11.6714797746
  0
LINE
  5
33C
100
AcDbEntity
  8
RACCORDO
100
AcDbLine
 62
7
  6
CONTINUOUS
 10
4.3310290348
 20
6.8273825272
 11
4.8967144597
 21
7.1540022018
  0
LINE
  5
33D
100
AcDbEntity
  8
RACCORDO
100
AcDbLine
 62
7
  6
CONTINUOUS
 10
4.5880601333
 20
6.4858832231
 11
5.1088464941
 21
6.7865787408
  0
LINE
  5
33E
100
AcDbEntity
  8
0
100
AcDbLine
 62
7
  6
CONTINUOUS
 10
6.1435447181
 20
5.5877659186
 11
6.1695066659
 21
5.6027560218
  0
LINE
  5
33F
100
AcDbEntity
  8
0
100
AcDbLine
 62
7
  6
CONTINUOUS
 10
-15.9668546393
 20
-5.364816064
 11
-16.5298552697
 21
-5.6884965777
  0
LINE
  5
340
100
AcDbEntity
  8
0
100
AcDbLine
 62
7
  6
CONTINUOUS
 10
-16.5298552697
 20
-5.6420595137
 11
-16.1572006374
 21
-5.4279542162
  0
LINE
  5
341
100
AcDbEntity
  8
0
100
AcDbLine
 62
7
  6
CONTINUOUS
 10
-15.362644007
 20
-5.1493515638
 11
-16.5298552697
 21
-5.8116894886
  0
LINE
  5
342
100
AcDbEntity
  8
0
100
AcDbLine
 62
7
  6
CONTINUOUS
 10
-16.5298552697
 20
-7.7446801103
 11
-17.4651394585
 21
-8.2661726842
  0
LINE
  5
343
100
AcDbEntity
  8
0
100
AcDbLine
 62
7
  6
CONTINUOUS
 10
-17.5285683074
 20
-8.4042227469
 11
-16.5932841186
 21
-7.8827301729
  0
LINE
  5
344
100
AcDbEntity
  8
RACCORDO
100
AcDbLine
 62
7
  6
CONTINUOUS
 10
5.9640085553
 20
5.6914278489
 11
5.9908911002
 21
5.7058864109
  0
LINE
  5
345
100
AcDbEntity
  8
0
100
AcDbLine
 62
7
  6
CONTINUOUS
 10
8.9629561863
 20
6.774675381
 11
6.3976772222
 21
5.4410329957
  0
LINE
  5
346
100
AcDbEntity
  8
0
100
AcDbLine
 62
7
  6
CONTINUOUS
 10
-15.027101474
 20
-5.3430896171
 11
-16.5298552697
 21
-6.1198241713
  0
LINE
  5
347
100
AcDbEntity
  8
0
100
AcDbLine
 62
7
  6
CONTINUOUS
 10
-15.9668546393
 20
-5.364816064
 11
-15.6589847924
 21
-5.3175111311
  0
LINE
  5
348
100
AcDbEntity
  8
RACCORDO
100
AcDbLine
 62
7
  6
CONTINUOUS
 10
-19.6613754181
 20
-2.6714939417
 11
-19.661249118
 21
-2.6714987967
  0
LINE
  5
349
100
AcDbEntity
  8
RACCORDO
100
AcDbLine
 62
7
  6
CONTINUOUS
 10
-19.3784876162
 20
-2.8306537943
 11
-19.7456103233
 21
-2.8163886395
  0
LWPOLYLINE
  5
34A
100
AcDbEntity
  8
RACCORDO
100
AcDbPolyline
 62
7
  6
CONTINUOUS
 90
9
 70
0
 10
-19.6612654413
 20
-2.6715050898
 10
-19.6625045178
 20
-2.6714386836
 10
-19.6641340893
 20
-2.6712792109
 10
-19.6622773144
 20
-2.6717000106
 10
-19.6572756265
 20
-2.6732023644
 10
-19.6492757654
 20
-2.6762267165
 10
-19.6387382151
 20
-2.6810155599
 10
-19.6266615925
 20
-2.6873840264
 10
-19.6237659215
 20
-2.6890333649
  0
LWPOLYLINE
  5
34B
100
AcDbEntity
  8
RACCORDO
100
AcDbPolyline
 62
7
  6
CONTINUOUS
 90
3
 70
0
 10
-21.6048061469
 20
16.1074016281
 10
-21.5579518648
 20
16.074501859
 10
-21.5285067427
 20
16.056514652
  0
LINE
  5
34C
100
AcDbEntity
  8
RACCORDO
100
AcDbLine
 62
7
  6
CONTINUOUS
 10
-21.6498407443
 20
16.144390222
 11
-21.6048061469
 21
16.1074016281
  0
LINE
  5
34D
100
AcDbEntity
  8
0
100
AcDbLine
 62
7
  6
CONTINUOUS
 10
5.1088464941
 20
-51.784201947
 11
5.1088464941
 21
-51.1828109115
  0
LINE
  5
34E
100
AcDbEntity
  8
RACCORDO
100
AcDbLine
 62
7
  6
CONTINUOUS
 10
5.1088464941
 20
6.7865787408
 11
5.1088464941
 21
6.1851877053
  0
LINE
  5
34F
100
AcDbEntity
  8
0
100
AcDbLine
 62
7
  6
CONTINUOUS
 10
6.1695066659
 20
5.5727758153
 11
6.1695066659
 21
5.6027560218
  0
LINE
  5
350
100
AcDbEntity
  8
0
100
AcDbLine
 62
7
  6
CONTINUOUS
 10
12.9609473977
 20
4.1510267188
 11
11.6043450376
 21
3.2811003725
  0
LINE
  5
351
100
AcDbEntity
  8
0
100
AcDbLine
 62
7
  6
CONTINUOUS
 10
-17.1908073028
 20
-12.1722406414
 11
-17.1650171133
 21
-12.1562937619
  0
LINE
  5
352
100
AcDbEntity
  8
ASSI
100
AcDbLine
 62
7
  6
CONTINUOUS
 10
12.9609473977
 20
3.7635551827
 11
11.8742949806
 21
3.1252346587
  0
LINE
  5
353
100
AcDbEntity
  8
ASSI
100
AcDbLine
 62
7
  6
CONTINUOUS
 10
12.3217540318
 20
3.2145083612
 11
12.0214582846
 21
3.0402644113
  0
LINE
  5
354
100
AcDbEntity
  8
ASSI
100
AcDbLine
 62
7
  6
CONTINUOUS
 10
12.4715780635
 20
3.3477633105
 11
11.9812832675
 21
3.0634609627
  0
LINE
  5
355
100
AcDbEntity
  8
0
100
AcDbLine
 62
7
  6
CONTINUOUS
 10
9.4221978593
 20
3.8878054552
 11
9.9878832843
 21
4.2144251299
  0
LINE
  5
356
100
AcDbEntity
  8
0
100
AcDbLine
 62
7
  6
CONTINUOUS
 10
-17.1650171133
 20
-11.9500529165
 11
-17.1908073028
 21
-11.9649438487
  0
LINE
  5
357
100
AcDbEntity
  8
0
100
AcDbLine
 62
7
  6
CONTINUOUS
 10
-17.1908073028
 20
-13.7509985773
 11
-16.6700746801
 21
-13.4606502543
  0
LINE
  5
358
100
AcDbEntity
  8
0
100
AcDbLine
 62
7
  6
CONTINUOUS
 10
-17.0334698329
 20
-14.1490108799
 11
-16.4579103321
 21
-13.8280923728
  0
LWPOLYLINE
  5
359
100
AcDbEntity
  8
RACCORDO
100
AcDbPolyline
 62
7
  6
CONTINUOUS
 90
13
 70
0
 10
14.6172325076
 20
-4.8135828988
 10
14.6571087278
 20
-4.8348280217
 10
14.7012231434
 20
-4.8543152365
 10
14.7455512564
 20
-4.8697761744
 10
14.7900097072
 20
-4.881237444
 10
14.8343767472
 20
-4.8886772183
 10
14.8782037798
 20
-4.8920776251
 10
14.9211944103
 20
-4.8915223922
 10
14.9631222948
 20
-4.8871367219
 10
15.0035383569
 20
-4.8791110049
 10
15.0421100532
 20
-4.8676968316
 10
15.0786669745
 20
-4.853152573
 10
15.1058970062
 20
-4.8397021936
  0
LINE
  5
35A
100
AcDbEntity
  8
RACCORDO
100
AcDbLine
 62
7
  6
CONTINUOUS
 10
-21.5286707295
 20
16.0565975366
 11
14.6172078149
 21
-4.8135797207
  0
LINE
  5
35B
100
AcDbEntity
  8
RACCORDO
100
AcDbLine
 62
7
  6
CONTINUOUS
 10
-21.5907955017
 20
16.1939185868
 11
14.5573663647
 21
-4.677577032
  0
LINE
  5
35C
100
AcDbEntity
  8
RACCORDO
100
AcDbLine
 62
7
  6
CONTINUOUS
 10
12.6501375487
 20
-1.5105965954
 11
-19.6858500215
 21
17.1597973626
  0
LINE
  5
35D
100
AcDbEntity
  8
RACCORDO
100
AcDbLine
 62
7
  6
CONTINUOUS
 10
12.7897152853
 20
-1.1998358278
 11
-19.5462789675
 21
17.4705619885
  0
LINE
  5
35E
100
AcDbEntity
  8
RACCORDO
100
AcDbLine
 62
7
  6
CONTINUOUS
 10
-18.1388521619
 20
18.2438473069
 11
12.9609473977
 21
0.2872128132
  0
LINE
  5
35F
100
AcDbEntity
  8
RACCORDO
100
AcDbLine
 62
7
  6
CONTINUOUS
 10
-18.0241001381
 20
18.3346611024
 11
12.9609473977
 21
0.4442829891
  0
LINE
  5
360
100
AcDbEntity
  8
RACCORDO
100
AcDbLine
 62
7
  6
CONTINUOUS
 10
12.9609473977
 20
0.7486397235
 11
-17.7605360184
 21
18.4868392173
  0
LINE
  5
361
100
AcDbEntity
  8
RACCORDO
100
AcDbLine
 62
7
  6
CONTINUOUS
 10
9.4221978593
 20
-54.2746769663
 11
9.4221978593
 21
-54.0815841971
  0
LINE
  5
362
100
AcDbEntity
  8
RACCORDO
100
AcDbLine
 62
7
  6
CONTINUOUS
 10
9.4221978593
 20
3.8878054552
 11
9.4221978593
 21
3.694712686
  0
LINE
  5
363
100
AcDbEntity
  8
RACCORDO
100
AcDbLine
 62
7
  6
CONTINUOUS
 10
12.9609473977
 20
36.179212234
 11
12.9609473977
 21
-1.1579671099
  0
LINE
  5
364
100
AcDbEntity
  8
RACCORDO
100
AcDbLine
 62
7
  6
CONTINUOUS
 10
12.9609473977
 20
-21.7901774183
 11
12.9609473977
 21
-59.1273567622
  0
LINE
  5
365
100
AcDbEntity
  8
RACCORDO
100
AcDbLine
 62
7
  6
CONTINUOUS
 10
13.0488153633
 20
36.056729856
 11
13.0488153633
 21
-1.2804495124
  0
LINE
  5
366
100
AcDbEntity
  8
RACCORDO
100
AcDbLine
 62
7
  6
CONTINUOUS
 10
13.0488153633
 20
-21.9126597963
 11
13.0488153633
 21
-59.2498391647
  0
LWPOLYLINE
  5
367
100
AcDbEntity
  8
RACCORDO
100
AcDbPolyline
 62
7
  6
CONTINUOUS
 90
6
 70
0
 10
12.9609472234
 20
-1.157981072
 10
12.9605350815
 20
-1.1728963278
 10
12.9594648718
 20
-1.1850609554
 10
12.9580730346
 20
-1.1940724968
 10
12.9568095609
 20
-1.1996315163
 10
12.9566099387
 20
-1.2003449111
  0
LINE
  5
368
100
AcDbEntity
  8
RACCORDO
100
AcDbLine
 62
7
  6
CONTINUOUS
 10
12.7897152853
 20
-1.1998358278
 11
12.9609473977
 21
-0.8746870844
  0
LINE
  5
369
100
AcDbEntity
  8
RACCORDO
100
AcDbLine
 62
7
  6
CONTINUOUS
 10
12.9573926003
 20
-1.1992230456
 11
12.9573336699
 21
-1.1993348341
  0
LINE
  5
36A
100
AcDbEntity
  8
ASSI
100
AcDbLine
 62
7
  6
CONTINUOUS
 10
12.4715780635
 20
3.3477633105
 11
12.6662519549
 21
3.5904454132
  0
LINE
  5
36B
100
AcDbEntity
  8
0
100
AcDbLine
 62
7
  6
CONTINUOUS
 10
-14.7078210487
 20
-23.8397642164
 11
-15.0260191002
 21
-24.0234877834
  0
LINE
  5
36C
100
AcDbEntity
  8
0
100
AcDbLine
 62
7
  6
CONTINUOUS
 10
-15.0613744393
 20
-24.043901513
 11
-15.3795724908
 21
-24.22762508
  0
LINE
  5
36D
100
AcDbEntity
  8
0
100
AcDbLine
 62
7
  6
CONTINUOUS
 10
-15.4149278299
 20
-24.2480388097
 11
-15.7331258814
 21
-24.4317623767
  0
LINE
  5
36E
100
AcDbEntity
  8
0
100
AcDbLine
 62
7
  6
CONTINUOUS
 10
-15.7684812205
 20
-24.4521761064
 11
-16.086679272
 21
-24.6358996734
  0
LINE
  5
36F
100
AcDbEntity
  8
0
100
AcDbLine
 62
7
  6
CONTINUOUS
 10
-16.1220346111
 20
-24.656313403
 11
-16.4402326626
 21
-24.84003697
  0
LINE
  5
370
100
AcDbEntity
  8
0
100
AcDbLine
 62
7
  6
CONTINUOUS
 10
-16.2281006282
 20
-24.84003697
 11
-16.1220346111
 21
-24.778795781
  0
LINE
  5
371
100
AcDbEntity
  8
0
100
AcDbLine
 62
7
  6
CONTINUOUS
 10
-15.8745472376
 20
-24.6358996734
 11
-15.7684812205
 21
-24.5746584844
  0
LINE
  5
372
100
AcDbEntity
  8
0
100
AcDbLine
 62
7
  6
CONTINUOUS
 10
-15.520993847
 20
-24.4317623767
 11
-15.4149278299
 21
-24.3705211877
  0
LINE
  5
373
100
AcDbEntity
  8
0
100
AcDbLine
 62
7
  6
CONTINUOUS
 10
-15.1674404565
 20
-24.22762508
 11
-15.0613744393
 21
-24.166383891
  0
LINE
  5
374
100
AcDbEntity
  8
0
100
AcDbLine
 62
7
  6
CONTINUOUS
 10
-14.8138870659
 20
-24.0234877834
 11
-14.7078210487
 21
-23.9622465944
  0
LINE
  5
375
100
AcDbEntity
  8
0
100
AcDbLine
 62
7
  6
CONTINUOUS
 10
-15.9668546393
 20
-23.7353972918
 11
-16.4579103321
 21
-24.0177151976
  0
LINE
  5
376
100
AcDbEntity
  8
0
100
AcDbLine
 62
7
  6
CONTINUOUS
 10
-16.4579103321
 20
-23.9713054382
 11
-16.1572006374
 21
-23.798535444
  0
LINE
  5
377
100
AcDbEntity
  8
0
100
AcDbLine
 62
7
  6
CONTINUOUS
 10
-15.1010850084
 20
-23.3715102654
 11
-16.4579103321
 21
-24.1414453216
  0
LINE
  5
378
100
AcDbEntity
  8
RACCORDO
100
AcDbLine
 62
7
  6
CONTINUOUS
 10
15.2584122086
 20
-4.5151242148
 11
16.6651053286
 21
-3.7586501773
  0
LINE
  5
379
100
AcDbEntity
  8
RACCORDO
100
AcDbLine
 62
7
  6
CONTINUOUS
 10
15.1057673702
 20
-4.8397786299
 11
16.5139932707
 21
-4.0824803127
  0
LINE
  5
37A
100
AcDbEntity
  8
RACCORDO
100
AcDbLine
 62
7
  6
CONTINUOUS
 10
-16.9789659881
 20
18.9384138072
 11
12.9609473977
 21
1.6514830535
  0
LINE
  5
37B
100
AcDbEntity
  8
DRAFT
100
AcDbLine
 62
7
  6
CONTINUOUS
 10
5.9908911002
 20
5.7058864109
 11
6.1695066659
 21
5.6027560218
  0
LINE
  5
37C
100
AcDbEntity
  8
RACCORDO
100
AcDbLine
 62
7
  6
CONTINUOUS
 10
12.9609473977
 20
1.8445758227
 11
9.4221978593
 21
3.8878054552
  0
LINE
  5
37D
100
AcDbEntity
  8
RACCORDO
100
AcDbLine
 62
7
  6
CONTINUOUS
 10
4.3310290348
 20
6.8273825272
 11
-6.275572683
 21
12.9515014271
  0
LINE
  5
37E
100
AcDbEntity
  8
RACCORDO
100
AcDbLine
 62
7
  6
CONTINUOUS
 10
-11.5788735419
 20
16.013560877
 11
-17.1860283835
 21
19.2510618084
  0
LINE
  5
37F
100
AcDbEntity
  8
0
100
AcDbLine
 62
7
  6
CONTINUOUS
 10
-10.8010560826
 20
15.5925389153
 11
-9.9488257307
 21
15.1004717911
  0
LINE
  5
380
100
AcDbEntity
  8
0
100
AcDbLine
 62
7
  6
CONTINUOUS
 10
-10.8010560826
 20
15.6897756548
 11
-9.8025206972
 21
15.1132338378
  0
LINE
  5
381
100
AcDbEntity
  8
RACCORDO
100
AcDbLine
 62
7
  6
CONTINUOUS
 10
-17.6773038065
 20
19.8612588453
 11
-17.7268464109
 21
19.8898641242
  0
LINE
  5
382
100
AcDbEntity
  8
DRAFT
100
AcDbLine
 62
7
  6
CONTINUOUS
 10
-17.5185180789
 20
19.8512526024
 11
-17.1908073028
 21
19.6620365075
  0
LINE
  5
383
100
AcDbEntity
  8
RACCORDO
100
AcDbLine
 62
7
  6
CONTINUOUS
 10
12.9609473977
 20
2.497815172
 11
9.9878832843
 21
4.2144251299
  0
LINE
  5
384
100
AcDbEntity
  8
RACCORDO
100
AcDbLine
 62
7
  6
CONTINUOUS
 10
4.8967144597
 20
7.1540022018
 11
-5.7098872581
 21
13.2781211017
  0
LINE
  5
385
100
AcDbEntity
  8
RACCORDO
100
AcDbLine
 62
7
  6
CONTINUOUS
 10
-11.013188117
 20
16.3401805517
 11
-16.6700746801
 21
19.6063959558
  0
LINE
  5
386
100
AcDbEntity
  8
0
100
AcDbLine
 62
7
  6
CONTINUOUS
 10
-16.7990165582
 20
20.2524298108
 11
-16.1837397496
 21
19.8971766928
  0
LINE
  5
387
100
AcDbEntity
  8
0
100
AcDbLine
 62
7
  6
CONTINUOUS
 10
-16.709608742
 20
20.3022815166
 11
-16.0337325016
 21
19.9120390461
  0
LINE
  5
388
100
AcDbEntity
  8
0
100
AcDbLine
 62
7
  6
CONTINUOUS
 10
-6.7613541289
 20
15.9865785764
 11
-2.6457043619
 21
13.6102539821
  0
LINE
  5
389
100
AcDbEntity
  8
0
100
AcDbLine
 62
7
  6
CONTINUOUS
 10
9.1485484478
 20
6.8004002265
 11
12.9609473977
 21
4.5991688535
  0
LINE
  5
38A
100
AcDbEntity
  8
RACCORDO
100
AcDbLine
 62
7
  6
CONTINUOUS
 10
14.8378826631
 20
-62.4823949095
 11
14.8378826631
 21
-20.7434376356
  0
LINE
  5
38B
100
AcDbEntity
  8
RACCORDO
100
AcDbLine
 62
7
  6
CONTINUOUS
 10
14.8378826631
 20
-4.5130052572
 11
14.8378826631
 21
37.2259520167
  0
LINE
  5
38C
100
AcDbEntity
  8
RACCORDO
100
AcDbLine
 62
7
  6
CONTINUOUS
 10
15.2584122086
 20
-62.4845138671
 11
15.2584122086
 21
-20.7481930822
  0
LINE
  5
38D
100
AcDbEntity
  8
RACCORDO
100
AcDbLine
 62
7
  6
CONTINUOUS
 10
15.2584122086
 20
-4.5151242148
 11
15.2584122086
 21
37.2211965701
  0
LINE
  5
38E
100
AcDbEntity
  8
RACCORDO
100
AcDbLine
 62
7
  6
CONTINUOUS
 10
16.6651053286
 20
-61.7280398296
 11
16.6651053286
 21
-19.9359887978
  0
LINE
  5
38F
100
AcDbEntity
  8
RACCORDO
100
AcDbLine
 62
7
  6
CONTINUOUS
 10
16.6651053286
 20
-3.7586501773
 11
16.6651053286
 21
38.0334008545
  0
LWPOLYLINE
  5
390
100
AcDbEntity
  8
RACCORDO
100
AcDbPolyline
 62
7
  6
CONTINUOUS
 90
6
 70
0
 10
12.9609472234
 20
-59.1273707243
 10
12.9605350815
 20
-59.1422859801
 10
12.9594648718
 20
-59.1544506077
 10
12.9580730346
 20
-59.1634621491
 10
12.9568095609
 20
-59.1690211686
 10
12.9566099387
 20
-59.1697345634
  0
LINE
  5
391
100
AcDbEntity
  8
0
100
AcDbLine
 62
7
  6
CONTINUOUS
 10
-9.2277434945
 20
-43.4560406311
 11
-9.1216774773
 21
-43.2723289006
  0
LINE
  5
392
100
AcDbEntity
  8
0
100
AcDbLine
 62
7
  6
CONTINUOUS
 10
-8.8741901039
 20
-43.2519033344
 11
-8.7681240867
 21
-43.0681916039
  0
LINE
  5
393
100
AcDbEntity
  8
0
100
AcDbLine
 62
7
  6
CONTINUOUS
 10
-8.5206367133
 20
-43.0477660377
 11
-8.4145706961
 21
-42.8640543072
  0
LINE
  5
394
100
AcDbEntity
  8
0
100
AcDbLine
 62
7
  6
CONTINUOUS
 10
-8.1670833227
 20
-42.8436287411
 11
-8.0610173055
 21
-42.6599170106
  0
LINE
  5
395
100
AcDbEntity
  8
0
100
AcDbLine
 62
7
  6
CONTINUOUS
 10
-7.8135299321
 20
-42.6394914444
 11
-7.7074639149
 21
-42.4557797139
  0
LINE
  5
396
100
AcDbEntity
  8
0
100
AcDbLine
 62
7
  6
CONTINUOUS
 10
-7.4599765415
 20
-42.4353541478
 11
-7.3539105243
 21
-42.2516424172
  0
LINE
  5
397
100
AcDbEntity
  8
0
100
AcDbLine
 62
7
  6
CONTINUOUS
 10
-7.1064231509
 20
-42.2312168511
 11
-7.0003571337
 21
-42.0475051206
  0
LINE
  5
398
100
AcDbEntity
  8
0
100
AcDbLine
 62
7
  6
CONTINUOUS
 10
-4.6315494168
 20
-45.293276301
 11
-4.5254833996
 21
-45.1095645705
  0
LINE
  5
399
100
AcDbEntity
  8
0
100
AcDbLine
 62
7
  6
CONTINUOUS
 10
-4.2779960262
 20
-45.0891390044
 11
-4.171930009
 21
-44.9054272739
  0
LINE
  5
39A
100
AcDbEntity
  8
0
100
AcDbLine
 62
7
  6
CONTINUOUS
 10
-3.9244426356
 20
-44.8850017077
 11
-3.8183766184
 21
-44.7012899772
  0
LINE
  5
39B
100
AcDbEntity
  8
0
100
AcDbLine
 62
7
  6
CONTINUOUS
 10
-3.570889245
 20
-44.6808644111
 11
-3.4648232278
 21
-44.4971526805
  0
LINE
  5
39C
100
AcDbEntity
  8
0
100
AcDbLine
 62
7
  6
CONTINUOUS
 10
-3.2173358544
 20
-44.4767271144
 11
-3.1112698372
 21
-44.2930153839
  0
LINE
  5
39D
100
AcDbEntity
  8
DRAFT
100
AcDbLine
 62
7
  6
CONTINUOUS
 10
-17.1908073028
 20
-32.1838260689
 11
-17.7268464109
 21
-32.5275631554
  0
LINE
  5
39E
100
AcDbEntity
  8
0
100
AcDbLine
 62
7
  6
CONTINUOUS
 10
-14.6901433792
 20
-28.5328193219
 11
-17.1908073028
 21
-30.1279948605
  0
LINE
  5
39F
100
AcDbEntity
  8
0
100
AcDbLine
 62
7
  6
CONTINUOUS
 10
-16.9994139397
 20
-30.6569408728
 11
-17.1908073028
 21
-30.7713753905
  0
LINE
  5
3A0
100
AcDbEntity
  8
0
100
AcDbLine
 62
7
  6
CONTINUOUS
 10
-17.1908073028
 20
-29.8864782608
 11
-17.1826947828
 21
-29.8817941934
  0
LINE
  5
3A1
100
AcDbEntity
  8
0
100
AcDbLine
 62
7
  6
CONTINUOUS
 10
-16.9352074094
 20
-29.7388980857
 11
-16.8291413922
 21
-29.6776568967
  0
LINE
  5
3A2
100
AcDbEntity
  8
0
100
AcDbLine
 62
7
  6
CONTINUOUS
 10
-16.5816540188
 20
-29.5347607891
 11
-16.4755880016
 21
-29.4735196001
  0
LINE
  5
3A3
100
AcDbEntity
  8
0
100
AcDbLine
 62
7
  6
CONTINUOUS
 10
-16.2281006282
 20
-29.3306234924
 11
-16.1220346111
 21
-29.2693823034
  0
LINE
  5
3A4
100
AcDbEntity
  8
0
100
AcDbLine
 62
7
  6
CONTINUOUS
 10
-15.8745472376
 20
-29.1264861957
 11
-15.7684812205
 21
-29.0652450067
  0
LINE
  5
3A5
100
AcDbEntity
  8
0
100
AcDbLine
 62
7
  6
CONTINUOUS
 10
-15.520993847
 20
-28.9223488991
 11
-15.4149278299
 21
-28.8611077101
  0
LINE
  5
3A6
100
AcDbEntity
  8
0
100
AcDbLine
 62
7
  6
CONTINUOUS
 10
-15.1674404565
 20
-28.7182116024
 11
-15.0613744393
 21
-28.6569704134
  0
LINE
  5
3A7
100
AcDbEntity
  8
0
100
AcDbLine
 62
7
  6
CONTINUOUS
 10
-14.8138870659
 20
-28.5140743057
 11
-14.7078210487
 21
-28.4528331167
  0
LINE
  5
3A8
100
AcDbEntity
  8
0
100
AcDbLine
 62
7
  6
CONTINUOUS
 10
-16.4579103321
 20
-26.0751465247
 11
-17.0334698329
 21
-26.3960650317
  0
LINE
  5
3A9
100
AcDbEntity
  8
0
100
AcDbLine
 62
7
  6
CONTINUOUS
 10
-17.0968986818
 20
-26.5341150944
 11
-16.521339181
 21
-26.2131965874
  0
LINE
  5
3AA
100
AcDbEntity
  8
0
100
AcDbLine
 62
7
  6
CONTINUOUS
 10
-16.7420196177
 20
-31.8713462955
 11
-17.1908073028
 21
-32.1215798051
  0
LINE
  5
3AB
100
AcDbEntity
  8
0
100
AcDbLine
 62
7
  6
CONTINUOUS
 10
-14.6901433792
 20
-23.6168819035
 11
-16.4579103321
 21
-24.5305949017
  0
LINE
  5
3AC
100
AcDbEntity
  8
RACCORDO
100
AcDbLine
 62
7
  6
CONTINUOUS
 10
-16.7420196177
 20
26.0980433568
 11
-17.1908073028
 21
26.3571677415
  0
LINE
  5
3AD
100
AcDbEntity
  8
0
100
AcDbLine
 62
7
  6
CONTINUOUS
 10
-17.1908073028
 20
27.6636464402
 11
-17.0030838454
 21
27.5552572686
  0
LINE
  5
3AE
100
AcDbEntity
  8
0
100
AcDbLine
 62
7
  6
CONTINUOUS
 10
-3.4383245132
 20
-45.435447992
 11
-3.2436506218
 21
-45.1927658892
  0
LINE
  5
3AF
100
AcDbEntity
  8
DRAFT
100
AcDbLine
 62
7
  6
CONTINUOUS
 10
-17.1908073028
 20
-38.3073531448
 11
-17.7268464109
 21
-38.6510902313
  0
LINE
  5
3B0
100
AcDbEntity
  8
0
100
AcDbLine
 62
7
  6
CONTINUOUS
 10
-16.1837397496
 20
-38.0722129595
 11
-16.6700746801
 21
-38.3629936965
  0
LINE
  5
3B1
100
AcDbEntity
  8
0
100
AcDbLine
 62
7
  6
CONTINUOUS
 10
-15.9679378095
 20
-38.4374801536
 11
-16.2495012184
 21
-38.6058275422
  0
LINE
  5
3B2
100
AcDbEntity
  8
RACCORDO
100
AcDbLine
 62
7
  6
CONTINUOUS
 10
14.7635128488
 20
-19.8910022473
 11
16.1702059688
 21
-19.0787979629
  0
LINE
  5
3B3
100
AcDbEntity
  8
RACCORDO
100
AcDbLine
 62
7
  6
CONTINUOUS
 10
-18.2361998637
 20
-39.2673610492
 11
-17.1908073028
 21
-38.6640559251
  0
LINE
  5
3B4
100
AcDbEntity
  8
RACCORDO
100
AcDbLine
 62
7
  6
CONTINUOUS
 10
-19.7456103233
 20
-40.1535659055
 11
-18.3684102465
 21
-39.3584571131
  0
LINE
  5
3B5
100
AcDbEntity
  8
RACCORDO
100
AcDbLine
 62
7
  6
CONTINUOUS
 10
-19.5462789675
 20
-40.4988276638
 11
-18.1690751903
 21
-39.7036971941
  0
LINE
  5
3B6
100
AcDbEntity
  8
RACCORDO
100
AcDbLine
 62
7
  6
CONTINUOUS
 10
-18.0241001381
 20
-39.6347285499
 11
-16.9789659881
 21
-39.0309758451
  0
LINE
  5
3B7
100
AcDbEntity
  8
RACCORDO
100
AcDbLine
 62
7
  6
CONTINUOUS
 10
15.2584122086
 20
-20.7481930822
 11
16.6651053286
 21
-19.9359887978
  0
LINE
  5
3B8
100
AcDbEntity
  8
0
100
AcDbLine
 62
7
  6
CONTINUOUS
 10
-16.5298552697
 20
-32.238788414
 11
-17.4651394585
 21
-32.760280988
  0
LINE
  5
3B9
100
AcDbEntity
  8
0
100
AcDbLine
 62
7
  6
CONTINUOUS
 10
-17.4651394585
 20
-37.9856907594
 11
-16.5298552697
 21
-37.4641981855
  0
LINE
  5
3BA
100
AcDbEntity
  8
0
100
AcDbLine
 62
7
  6
CONTINUOUS
 10
-16.5932841186
 20
-37.6022482482
 11
-17.5285683074
 21
-38.1237408221
  0
LINE
  5
3BB
100
AcDbEntity
  8
0
100
AcDbLine
 62
7
  6
CONTINUOUS
 10
-15.1010850084
 20
34.5978793869
 11
-14.7534526354
 21
34.3971608116
  0
LINE
  5
3BC
100
AcDbEntity
  8
0
100
AcDbLine
 62
7
  6
CONTINUOUS
 10
-15.0489893278
 20
34.6271265784
 11
-14.6608492252
 21
34.4030193477
  0
LINE
  5
3BD
100
AcDbEntity
  8
SMUSSO
100
AcDbLine
 62
7
  6
CONTINUOUS
 10
31.0950207027
 20
-86.9546354657
 11
31.0950207027
 21
46.5966919152
  0
LINE
  5
3BE
100
AcDbEntity
  8
0
100
AcDbLine
 62
7
  6
CONTINUOUS
 10
6.6821590822
 20
-52.6422189809
 11
6.7882250994
 21
-52.4585072504
  0
LINE
  5
3BF
100
AcDbEntity
  8
0
100
AcDbLine
 62
7
  6
CONTINUOUS
 10
7.0357124728
 20
-52.4380816843
 11
7.14177849
 21
-52.2543699538
  0
LINE
  5
3C0
100
AcDbEntity
  8
0
100
AcDbLine
 62
7
  6
CONTINUOUS
 10
-11.013188117
 20
-41.6292091006
 11
-11.5788735419
 21
-41.9558287753
  0
LINE
  5
3C1
100
AcDbEntity
  8
0
100
AcDbLine
 62
7
  6
CONTINUOUS
 10
-10.8010560826
 20
-41.9966325616
 11
-11.3218424434
 21
-42.2973280794
  0
LINE
  5
3C2
100
AcDbEntity
  8
RACCORDO
100
AcDbLine
 62
7
  6
CONTINUOUS
 10
-17.1908073028
 20
44.809403888
 11
-16.6700746801
 21
44.508739398
  0
LINE
  5
3C3
100
AcDbEntity
  8
SMUSSO
100
AcDbLine
 62
7
  6
CONTINUOUS
 10
32.5092342651
 20
-87.2928285276
 11
32.5092342651
 21
46.9348849771
  0
LINE
  5
3C4
100
AcDbEntity
  8
SMUSSO
100
AcDbLine
 62
7
  6
CONTINUOUS
 10
34.9487526601
 20
-85.8842811806
 11
34.9487526601
 21
48.5826103865
  0
LINE
  5
3C5
100
AcDbEntity
  8
0
100
AcDbLine
 62
7
  6
CONTINUOUS
 10
7.3892658634
 20
-52.2339443876
 11
7.4953318806
 21
-52.0502326571
  0
LINE
  5
3C6
100
AcDbEntity
  8
0
100
AcDbLine
 62
7
  6
CONTINUOUS
 10
7.742819254
 20
-52.029807091
 11
7.8488852712
 21
-51.8460953604
  0
LINE
  5
3C7
100
AcDbEntity
  8
0
100
AcDbLine
 62
7
  6
CONTINUOUS
 10
8.0963726446
 20
-51.8256697943
 11
8.2024386618
 21
-51.6419580638
  0
LINE
  5
3C8
100
AcDbEntity
  8
0
100
AcDbLine
 62
7
  6
CONTINUOUS
 10
8.4499260352
 20
-51.6215324976
 11
8.5559920524
 21
-51.4378207671
  0
LINE
  5
3C9
100
AcDbEntity
  8
0
100
AcDbLine
 62
7
  6
CONTINUOUS
 10
8.8034794258
 20
-51.417395201
 11
8.909545443
 21
-51.2336834704
  0
LINE
  5
3CA
100
AcDbEntity
  8
0
100
AcDbLine
 62
7
  6
CONTINUOUS
 10
11.2783531599
 20
-54.4794546509
 11
11.3844191771
 21
-54.2957429204
  0
LINE
  5
3CB
100
AcDbEntity
  8
0
100
AcDbLine
 62
7
  6
CONTINUOUS
 10
11.6319065505
 20
-54.2753173543
 11
11.7379725677
 21
-54.0916056237
  0
LINE
  5
3CC
100
AcDbEntity
  8
0
100
AcDbLine
 62
7
  6
CONTINUOUS
 10
11.9854599411
 20
-54.0711800576
 11
12.0915259583
 21
-53.8874683271
  0
LINE
  5
3CD
100
AcDbEntity
  8
0
100
AcDbLine
 62
7
  6
CONTINUOUS
 10
12.3390133317
 20
-53.8670427609
 11
12.4450793489
 21
-53.6833310304
  0
LINE
  5
3CE
100
AcDbEntity
  8
0
100
AcDbLine
 62
7
  6
CONTINUOUS
 10
12.6925667223
 20
-53.6629054643
 11
12.7986327395
 21
-53.4791937338
  0
LINE
  5
3CF
100
AcDbEntity
  8
0
100
AcDbLine
 62
7
  6
CONTINUOUS
 10
-2.6972718588
 20
-44.3891446839
 11
-4.3725559523
 21
-45.4634268858
  0
LINE
  5
3D0
100
AcDbEntity
  8
0
100
AcDbLine
 62
7
  6
CONTINUOUS
 10
-2.690258329
 20
-44.8676926158
 11
-4.0356075961
 21
-45.6579766437
  0
LINE
  5
3D1
100
AcDbEntity
  8
0
100
AcDbLine
 62
7
  6
CONTINUOUS
 10
-3.8884442921
 20
-45.7429468911
 11
-3.5881496268
 21
-45.5687035689
  0
LINE
  5
3D2
100
AcDbEntity
  8
0
100
AcDbLine
 62
7
  6
CONTINUOUS
 10
-3.4383245132
 20
-45.435447992
 11
-3.9286193092
 21
-45.7197503397
  0
LINE
  5
3D3
100
AcDbEntity
  8
0
100
AcDbLine
 62
7
  6
CONTINUOUS
 10
-9.7403959108
 20
-43.1804552806
 11
-9.7663578586
 21
-43.1954453838
  0
LINE
  5
3D4
100
AcDbEntity
  8
0
100
AcDbLine
 62
7
  6
CONTINUOUS
 10
-9.3774388789
 20
-43.4200023284
 11
-9.3691648507
 21
-43.4152250082
  0
LINE
  5
3D5
100
AcDbEntity
  8
0
100
AcDbLine
 62
7
  6
CONTINUOUS
 10
-9.1216774773
 20
-43.2723289006
 11
-9.0156114601
 21
-43.2110877116
  0
LINE
  5
3D6
100
AcDbEntity
  8
0
100
AcDbLine
 62
7
  6
CONTINUOUS
 10
-8.7681240867
 20
-43.0681916039
 11
-8.6620580695
 21
-43.0069504149
  0
LINE
  5
3D7
100
AcDbEntity
  8
0
100
AcDbLine
 62
7
  6
CONTINUOUS
 10
-8.4145706961
 20
-42.8640543072
 11
-8.3085046789
 21
-42.8028131182
  0
LINE
  5
3D8
100
AcDbEntity
  8
0
100
AcDbLine
 62
7
  6
CONTINUOUS
 10
-8.0610173055
 20
-42.6599170106
 11
-7.9549512883
 21
-42.5986758216
  0
LINE
  5
3D9
100
AcDbEntity
  8
0
100
AcDbLine
 62
7
  6
CONTINUOUS
 10
-7.7074639149
 20
-42.4557797139
 11
-7.6013978978
 21
-42.3945385249
  0
LINE
  5
3DA
100
AcDbEntity
  8
0
100
AcDbLine
 62
7
  6
CONTINUOUS
 10
-7.3539105243
 20
-42.2516424172
 11
-7.2478445072
 21
-42.1904012282
  0
LINE
  5
3DB
100
AcDbEntity
  8
0
100
AcDbLine
 62
7
  6
CONTINUOUS
 10
-7.0003571337
 20
-42.0475051206
 11
-6.8942911166
 21
-41.9862639316
  0
LINE
  5
3DC
100
AcDbEntity
  8
0
100
AcDbLine
 62
7
  6
CONTINUOUS
 10
-5.8598945061
 20
-44.6764061972
 11
-6.4255799311
 21
-45.0030258719
  0
LINE
  5
3DD
100
AcDbEntity
  8
0
100
AcDbLine
 62
7
  6
CONTINUOUS
 10
-6.275572683
 20
-45.0178882252
 11
-5.7098872581
 21
-44.6912685505
  0
LINE
  5
3DE
100
AcDbEntity
  8
0
100
AcDbLine
 62
7
  6
CONTINUOUS
 10
-4.5254833996
 20
-45.1095645705
 11
-4.4194173824
 21
-45.0483233815
  0
LINE
  5
3DF
100
AcDbEntity
  8
0
100
AcDbLine
 62
7
  6
CONTINUOUS
 10
-4.171930009
 20
-44.9054272739
 11
-4.0658639918
 21
-44.8441860849
  0
LINE
  5
3E0
100
AcDbEntity
  8
0
100
AcDbLine
 62
7
  6
CONTINUOUS
 10
-3.8183766184
 20
-44.7012899772
 11
-3.7123106012
 21
-44.6400487882
  0
LINE
  5
3E1
100
AcDbEntity
  8
0
100
AcDbLine
 62
7
  6
CONTINUOUS
 10
-3.4648232278
 20
-44.4971526805
 11
-3.3587572106
 21
-44.4359114915
  0
LINE
  5
3E2
100
AcDbEntity
  8
0
100
AcDbLine
 62
7
  6
CONTINUOUS
 10
-3.1112698372
 20
-44.2930153839
 11
-3.00520382
 21
-44.2317741949
  0
LINE
  5
3E3
100
AcDbEntity
  8
0
100
AcDbLine
 62
7
  6
CONTINUOUS
 10
-2.8991378029
 20
-44.2930035474
 11
-3.2173358544
 21
-44.4767271144
  0
LINE
  5
3E4
100
AcDbEntity
  8
0
100
AcDbLine
 62
7
  6
CONTINUOUS
 10
-3.2526911935
 20
-44.4971408441
 11
-3.570889245
 21
-44.6808644111
  0
LINE
  5
3E5
100
AcDbEntity
  8
0
100
AcDbLine
 62
7
  6
CONTINUOUS
 10
-3.6062445841
 20
-44.7012781407
 11
-3.9244426356
 21
-44.8850017077
  0
LINE
  5
3E6
100
AcDbEntity
  8
0
100
AcDbLine
 62
7
  6
CONTINUOUS
 10
-3.9597979746
 20
-44.9054154374
 11
-4.2779960262
 21
-45.0891390044
  0
LINE
  5
3E7
100
AcDbEntity
  8
0
100
AcDbLine
 62
7
  6
CONTINUOUS
 10
-4.3133513652
 20
-45.1095527341
 11
-4.6315494168
 21
-45.293276301
  0
LINE
  5
3E8
100
AcDbEntity
  8
0
100
AcDbLine
 62
7
  6
CONTINUOUS
 10
-9.9488257307
 20
-42.8689178612
 11
-10.1437569139
 21
-42.9775398992
  0
LINE
  5
3E9
100
AcDbEntity
  8
0
100
AcDbLine
 62
7
  6
CONTINUOUS
 10
-6.9547357044
 20
-41.930938418
 11
-9.5593120749
 21
-43.2850108179
  0
LINE
  5
3EA
100
AcDbEntity
  8
SMUSSO
100
AcDbLine
 62
7
  6
CONTINUOUS
 10
32.5092342651
 20
46.9348849771
 11
31.0950207027
 21
46.5966919152
  0
LINE
  5
3EB
100
AcDbEntity
  8
0
100
AcDbLine
 62
7
  6
CONTINUOUS
 10
-15.9668546393
 20
34.2339923605
 11
-15.6589847924
 21
34.2812972934
  0
LINE
  5
3EC
100
AcDbEntity
  8
RACCORDO
100
AcDbLine
 62
7
  6
CONTINUOUS
 10
-17.6773038065
 20
49.5807769206
 11
-17.7268464109
 21
49.6093821994
  0
LINE
  5
3ED
100
AcDbEntity
  8
DRAFT
100
AcDbLine
 62
7
  6
CONTINUOUS
 10
-17.5185180789
 20
49.5707706776
 11
-17.1908073028
 21
49.3815545827
  0
LINE
  5
3EE
100
AcDbEntity
  8
RACCORDO
100
AcDbLine
 62
7
  6
CONTINUOUS
 10
-19.6237252352
 20
55.2803329857
 11
12.7122623138
 21
36.60993904
  0
LINE
  5
3EF
100
AcDbEntity
  8
RACCORDO
100
AcDbLine
 62
7
  6
CONTINUOUS
 10
-19.6858500215
 20
55.417654044
 11
12.6501375487
 21
36.7472600861
  0
LWPOLYLINE
  5
3F0
100
AcDbEntity
  8
RACCORDO
100
AcDbPolyline
 62
7
  6
CONTINUOUS
 90
21
 70
0
 10
12.7123426606
 20
36.6098924963
 10
12.7254805276
 20
36.6018556165
 10
12.7433613708
 20
36.5895158123
 10
12.7619271457
 20
36.5750185442
 10
12.7808126837
 20
36.5584836817
 10
12.7997285576
 20
36.5400316245
 10
12.8184043902
 20
36.5198177109
 10
12.8366264185
 20
36.4979831169
 10
12.854156987
 20
36.4747418876
 10
12.870768913
 20
36.4503451438
 10
12.8863310758
 20
36.424949951
 10
12.9006561559
 20
36.3988534848
 10
12.9135917792
 20
36.3723637064
 10
12.925075309
 20
36.3456488528
 10
12.9350015242
 20
36.3190281273
 10
12.9432993931
 20
36.292845807
 10
12.9499668016
 20
36.2673259582
 10
12.9550103083
 20
36.2427414308
 10
12.9584593487
 20
36.2194275195
 10
12.9603903718
 20
36.1977570023
 10
12.9609468985
 20
36.1793226916
  0
LINE
  5
3F1
100
AcDbEntity
  8
RACCORDO
100
AcDbLine
 62
7
  6
CONTINUOUS
 10
12.7897152853
 20
-59.1692254801
 11
12.9609473977
 21
-58.8440767367
  0
LINE
  5
3F2
100
AcDbEntity
  8
RACCORDO
100
AcDbLine
 62
7
  6
CONTINUOUS
 10
12.9573926003
 20
-59.1686126979
 11
12.9573336699
 21
-59.1687244864
  0
LINE
  5
3F3
100
AcDbEntity
  8
0
100
AcDbLine
 62
7
  6
CONTINUOUS
 10
12.4715780635
 20
-54.6216263418
 11
12.6662519549
 21
-54.3789442391
  0
LINE
  5
3F4
100
AcDbEntity
  8
RACCORDO
100
AcDbLine
 62
7
  6
CONTINUOUS
 10
14.5550830289
 20
37.7131388619
 11
-21.5930788454
 21
58.5846344852
  0
LINE
  5
3F5
100
AcDbEntity
  8
RACCORDO
100
AcDbLine
 62
7
  6
CONTINUOUS
 10
14.7635128488
 20
38.078387405
 11
-21.3823656818
 21
58.9485646543
  0
LINE
  5
3F6
100
AcDbEntity
  8
RACCORDO
100
AcDbLine
 62
7
  6
CONTINUOUS
 10
16.1702059688
 20
38.8905916894
 11
-20.0239379262
 21
59.7886367552
  0
LINE
  5
3F7
100
AcDbEntity
  8
0
100
AcDbLine
 62
7
  6
CONTINUOUS
 10
4.8967144597
 20
-50.8153874505
 11
4.3310290348
 21
-51.1420071251
  0
LINE
  5
3F8
100
AcDbEntity
  8
0
100
AcDbLine
 62
7
  6
CONTINUOUS
 10
5.1088464941
 20
-51.1828109115
 11
4.5880601333
 21
-51.4835064292
  0
LINE
  5
3F9
100
AcDbEntity
  8
0
100
AcDbLine
 62
7
  6
CONTINUOUS
 10
6.5324636978
 20
-52.6061806783
 11
6.540737726
 21
-52.6014033581
  0
LINE
  5
3FA
100
AcDbEntity
  8
0
100
AcDbLine
 62
7
  6
CONTINUOUS
 10
6.7882250994
 20
-52.4585072504
 11
6.8942911166
 21
-52.3972660614
  0
LINE
  5
3FB
100
AcDbEntity
  8
0
100
AcDbLine
 62
7
  6
CONTINUOUS
 10
7.14177849
 20
-52.2543699538
 11
7.2478445072
 21
-52.1931287648
  0
LINE
  5
3FC
100
AcDbEntity
  8
0
100
AcDbLine
 62
7
  6
CONTINUOUS
 10
7.4953318806
 20
-52.0502326571
 11
7.6013978978
 21
-51.9889914681
  0
LINE
  5
3FD
100
AcDbEntity
  8
0
100
AcDbLine
 62
7
  6
CONTINUOUS
 10
7.8488852712
 20
-51.8460953604
 11
7.9549512883
 21
-51.7848541714
  0
LINE
  5
3FE
100
AcDbEntity
  8
0
100
AcDbLine
 62
7
  6
CONTINUOUS
 10
8.2024386618
 20
-51.6419580638
 11
8.3085046789
 21
-51.5807168748
  0
LINE
  5
3FF
100
AcDbEntity
  8
0
100
AcDbLine
 62
7
  6
CONTINUOUS
 10
8.5559920524
 20
-51.4378207671
 11
8.6620580695
 21
-51.3765795781
  0
LINE
  5
400
100
AcDbEntity
  8
0
100
AcDbLine
 62
7
  6
CONTINUOUS
 10
8.909545443
 20
-51.2336834704
 11
9.0156114601
 21
-51.1724422814
  0
LINE
  5
401
100
AcDbEntity
  8
0
100
AcDbLine
 62
7
  6
CONTINUOUS
 10
5.9640085553
 20
-52.2779618034
 11
5.9908911002
 21
-52.2635032414
  0
LINE
  5
402
100
AcDbEntity
  8
0
100
AcDbLine
 62
7
  6
CONTINUOUS
 10
8.9551668723
 20
-51.1171167678
 11
6.3505905018
 21
-52.4711891678
  0
LINE
  5
403
100
AcDbEntity
  8
0
100
AcDbLine
 62
7
  6
CONTINUOUS
 10
-17.1473394438
 20
46.6010727944
 11
-16.9352074094
 21
46.6010727944
  0
LINE
  5
404
100
AcDbEntity
  8
0
100
AcDbLine
 62
7
  6
CONTINUOUS
 10
-16.7937860532
 20
46.8052100911
 11
-16.5816540188
 21
46.8052100911
  0
LINE
  5
405
100
AcDbEntity
  8
0
100
AcDbLine
 62
7
  6
CONTINUOUS
 10
-16.4402326626
 20
47.0093473877
 11
-16.2281006282
 21
47.0093473877
  0
LINE
  5
406
100
AcDbEntity
  8
0
100
AcDbLine
 62
7
  6
CONTINUOUS
 10
-16.086679272
 20
47.2134846844
 11
-15.8745472376
 21
47.2134846844
  0
LINE
  5
407
100
AcDbEntity
  8
0
100
AcDbLine
 62
7
  6
CONTINUOUS
 10
-15.7331258814
 20
47.4176219811
 11
-15.520993847
 21
47.4176219811
  0
LINE
  5
408
100
AcDbEntity
  8
0
100
AcDbLine
 62
7
  6
CONTINUOUS
 10
-15.3795724908
 20
47.6217592777
 11
-15.1674404565
 21
47.6217592777
  0
LINE
  5
409
100
AcDbEntity
  8
0
100
AcDbLine
 62
7
  6
CONTINUOUS
 10
-15.0260191002
 20
47.8258965744
 11
-14.8138870659
 21
47.8258965744
  0
LINE
  5
40A
100
AcDbEntity
  8
SMUSSO
100
AcDbLine
 62
7
  6
CONTINUOUS
 10
31.0950207027
 20
46.5966919152
 11
30.8021274839
 21
47.1039978509
  0
LINE
  5
40B
100
AcDbEntity
  8
0
100
AcDbLine
 62
7
  6
CONTINUOUS
 10
12.9609473977
 20
-53.7367159058
 11
11.5373466244
 21
-54.6496052357
  0
LINE
  5
40C
100
AcDbEntity
  8
0
100
AcDbLine
 62
7
  6
CONTINUOUS
 10
12.9609473977
 20
-54.2058344696
 11
11.8742949806
 21
-54.8441549936
  0
LINE
  5
40D
100
AcDbEntity
  8
0
100
AcDbLine
 62
7
  6
CONTINUOUS
 10
12.0214582846
 20
-54.929125241
 11
12.3217529499
 21
-54.7548819188
  0
LINE
  5
40E
100
AcDbEntity
  8
0
100
AcDbLine
 62
7
  6
CONTINUOUS
 10
12.4715780635
 20
-54.6216263418
 11
11.9812832675
 21
-54.9059286896
  0
LINE
  5
40F
100
AcDbEntity
  8
0
100
AcDbLine
 62
7
  6
CONTINUOUS
 10
9.9878832843
 20
-53.7549645224
 11
9.4221978593
 21
-54.0815841971
  0
LINE
  5
410
100
AcDbEntity
  8
0
100
AcDbLine
 62
7
  6
CONTINUOUS
 10
11.3844191771
 20
-54.2957429204
 11
11.4904851943
 21
-54.2345017314
  0
LINE
  5
411
100
AcDbEntity
  8
0
100
AcDbLine
 62
7
  6
CONTINUOUS
 10
11.7379725677
 20
-54.0916056237
 11
11.8440385849
 21
-54.0303644347
  0
LINE
  5
412
100
AcDbEntity
  8
0
100
AcDbLine
 62
7
  6
CONTINUOUS
 10
12.0915259583
 20
-53.8874683271
 11
12.1975919755
 21
-53.8262271381
  0
LINE
  5
413
100
AcDbEntity
  8
0
100
AcDbLine
 62
7
  6
CONTINUOUS
 10
12.4450793489
 20
-53.6833310304
 11
12.5511453661
 21
-53.6220898414
  0
LINE
  5
414
100
AcDbEntity
  8
0
100
AcDbLine
 62
7
  6
CONTINUOUS
 10
12.7986327395
 20
-53.4791937338
 11
12.9046987567
 21
-53.4179525448
  0
LINE
  5
415
100
AcDbEntity
  8
0
100
AcDbLine
 62
7
  6
CONTINUOUS
 10
12.9609473977
 20
-53.5079458259
 11
12.6925667223
 21
-53.6629054643
  0
LINE
  5
416
100
AcDbEntity
  8
0
100
AcDbLine
 62
7
  6
CONTINUOUS
 10
12.6572113832
 20
-53.6833191939
 11
12.3390133317
 21
-53.8670427609
  0
LINE
  5
417
100
AcDbEntity
  8
0
100
AcDbLine
 62
7
  6
CONTINUOUS
 10
12.3036579926
 20
-53.8874564906
 11
11.9854599411
 21
-54.0711800576
  0
LINE
  5
418
100
AcDbEntity
  8
0
100
AcDbLine
 62
7
  6
CONTINUOUS
 10
11.9501046021
 20
-54.0915937873
 11
11.6319065505
 21
-54.2753173543
  0
LINE
  5
419
100
AcDbEntity
  8
0
100
AcDbLine
 62
7
  6
CONTINUOUS
 10
11.5965512115
 20
-54.2957310839
 11
11.2783531599
 21
-54.4794546509
  0
LINE
  5
41A
100
AcDbEntity
  8
0
100
AcDbLine
 62
7
  6
CONTINUOUS
 10
-15.9668546393
 20
52.6045735883
 11
-15.6589847924
 21
52.6518785212
  0
LINE
  5
41B
100
AcDbEntity
  8
0
100
AcDbLine
 62
7
  6
CONTINUOUS
 10
-16.4402326626
 20
51.4999339101
 11
-16.2281006282
 21
51.4999339101
  0
LINE
  5
41C
100
AcDbEntity
  8
0
100
AcDbLine
 62
7
  6
CONTINUOUS
 10
-16.086679272
 20
51.7040712068
 11
-15.8745472376
 21
51.7040712068
  0
LINE
  5
41D
100
AcDbEntity
  8
0
100
AcDbLine
 62
7
  6
CONTINUOUS
 10
-15.7331258814
 20
51.9082085034
 11
-15.520993847
 21
51.9082085034
  0
LINE
  5
41E
100
AcDbEntity
  8
0
100
AcDbLine
 62
7
  6
CONTINUOUS
 10
-15.3795724908
 20
52.1123458001
 11
-15.1674404565
 21
52.1123458001
  0
LINE
  5
41F
100
AcDbEntity
  8
0
100
AcDbLine
 62
7
  6
CONTINUOUS
 10
-15.0260191002
 20
52.3164830967
 11
-14.8138870659
 21
52.3164830967
  0
LINE
  5
420
100
AcDbEntity
  8
RACCORDO
100
AcDbLine
 62
7
  6
CONTINUOUS
 10
-19.6613754181
 20
55.2978957106
 11
-19.661249118
 21
55.2978908556
  0
LINE
  5
421
100
AcDbEntity
  8
RACCORDO
100
AcDbLine
 62
7
  6
CONTINUOUS
 10
-19.3784876162
 20
55.138735858
 11
-19.7456103233
 21
55.1530010128
  0
LWPOLYLINE
  5
422
100
AcDbEntity
  8
RACCORDO
100
AcDbPolyline
 62
7
  6
CONTINUOUS
 90
9
 70
0
 10
-19.6612654413
 20
55.2978845625
 10
-19.6625045178
 20
55.2979509687
 10
-19.6641340893
 20
55.2981104413
 10
-19.6622773144
 20
55.2976896417
 10
-19.6572756265
 20
55.2961872879
 10
-19.6492757654
 20
55.2931629358
 10
-19.6387382151
 20
55.2883740924
 10
-19.6266615925
 20
55.2820056259
 10
-19.6237659215
 20
55.2803562874
  0
LINE
  5
423
100
AcDbEntity
  8
SMUSSO
100
AcDbLine
 62
7
  6
CONTINUOUS
 10
30.8021274839
 20
47.1039978509
 11
-34.6558594413
 21
84.8986191202
  0
LINE
  5
424
100
AcDbEntity
  8
SMUSSO
100
AcDbLine
 62
7
  6
CONTINUOUS
 10
32.5092342651
 20
46.9348849771
 11
31.8021274839
 21
48.1596298473
  0
LINE
  5
425
100
AcDbEntity
  8
SMUSSO
100
AcDbLine
 62
7
  6
CONTINUOUS
 10
34.241645879
 20
49.5681771942
 11
34.9487526601
 21
48.3434323241
  0
LINE
  5
426
100
AcDbEntity
  8
SMUSSO
100
AcDbLine
 62
7
  6
CONTINUOUS
 10
34.4487526601
 20
49.4486357894
 11
34.9487526601
 21
48.5826103865
  0
LINE
  5
427
100
AcDbEntity
  8
RACCORDO
100
AcDbLine
 62
7
  6
CONTINUOUS
 10
15.2584122086
 20
-62.4845138671
 11
16.6651053286
 21
-61.7280398296
  0
LINE
  5
428
100
AcDbEntity
  8
RACCORDO
100
AcDbLine
 62
7
  6
CONTINUOUS
 10
15.1057673702
 20
-62.8091682822
 11
16.5139932707
 21
-62.051869965
  0
LINE
  5
429
100
AcDbEntity
  8
SMUSSO
100
AcDbLine
 62
7
  6
CONTINUOUS
 10
31.8021274839
 20
48.1596298473
 11
-34.241645879
 21
86.2924768641
  0
LINE
  5
42A
100
AcDbEntity
  8
SMUSSO
100
AcDbLine
 62
7
  6
CONTINUOUS
 10
-31.8021274839
 20
87.7010242111
 11
34.4487526601
 21
49.4486357894
  0
LINE
  5
42B
100
AcDbEntity
  8
SMUSSO
100
AcDbLine
 62
7
  6
CONTINUOUS
 10
30.8021274839
 20
-87.1237156539
 11
31.0950207027
 21
-86.9546354657
  0
LINE
  5
42C
100
AcDbEntity
  8
SMUSSO
100
AcDbLine
 62
7
  6
CONTINUOUS
 10
31.8021274839
 20
-87.7010242111
 11
34.9487526601
 21
-85.8842811806
  0
ARC
  5
42D
100
AcDbEntity
  8
0
100
AcDbCircle
 62
7
  6
CONTINUOUS
 10
-16.1837399814
 20
-38.3171535066
 40
0.2999999327
100
AcDbArc
 50
359.9998174713
 51
59.9983938114
  0
ARC
  5
42E
100
AcDbEntity
  8
0
100
AcDbCircle
 62
7
  6
CONTINUOUS
 10
-16.1837399814
 20
19.6522361457
 40
0.2999999327
100
AcDbArc
 50
359.9998174713
 51
59.9983938114
  0
ARC
  5
42F
100
AcDbEntity
  8
RACCORDO
100
AcDbCircle
 62
7
  6
CONTINUOUS
 10
-18.0496597683
 20
-39.5703140643
 40
0.1790282166
100
AcDbArc
 50
228.1625094896
 51
240.1188178662
  0
ARC
  5
430
100
AcDbEntity
  8
RACCORDO
100
AcDbCircle
 62
7
  6
CONTINUOUS
 10
-18.0496597683
 20
18.399075588
 40
0.1790282166
100
AcDbArc
 50
228.1625094896
 51
240.1188178663
  0
ARC
  5
431
100
AcDbEntity
  8
0
100
AcDbCircle
 62
7
  6
CONTINUOUS
 10
-14.7768645071
 20
47.9162020149
 40
0.1427973923
100
AcDbArc
 50
334.4567691741
 51
339.4540835639
  0
ARC
  5
432
100
AcDbEntity
  8
0
100
AcDbCircle
 62
7
  6
CONTINUOUS
 10
-14.764599063
 20
47.9103356825
 40
0.1292012548
100
AcDbArc
 50
329.1077520581
 51
334.4586303454
  0
ARC
  5
433
100
AcDbEntity
  8
0
100
AcDbCircle
 62
7
  6
CONTINUOUS
 10
-14.7361724777
 20
-28.4519235155
 40
0.0928420983
100
AcDbArc
 50
304.988449695
 51
311.431982977
  0
SPLINE
  5
434
100
AcDbEntity
  8
RACCORDO
100
AcDbSpline
 62
7
  6
CONTINUOUS
 70
0
 71
3
 72
9
 73
5
 74
3
 42
0.0000001
 43
0.0000001
 44
0.0000000001
 12
-0.1258022839
 22
-0.0751721723
 32
0.0
 13
-0.1037487076
 23
-0.1035049555
 33
0.0
 40
0.0
 40
0.0
 40
0.0
 40
0.0
 40
0.2375582814
 40
1.0
 40
1.0
 40
1.0
 40
1.0
 10
-18.0241001381
 20
-39.6347285499
 30
0.0
 10
-18.0340619295
 20
-39.6406811405
 30
0.0
 10
-18.0750902903
 20
-39.6672469399
 30
0.0
 10
-18.1124847143
 20
-39.6992368466
 30
0.0
 10
-18.1388521619
 20
-39.7255423454
 30
0.0
 11
-18.0241001381
 21
-39.6347285499
 31
0.0
 11
-18.0533501059
 21
-39.6536090955
 31
0.0
 11
-18.1388521619
 21
-39.7255423454
 31
0.0
  0
SPLINE
  5
435
100
AcDbEntity
  8
RACCORDO
100
AcDbSpline
 62
7
  6
CONTINUOUS
 70
0
 71
3
 72
9
 73
5
 74
3
 42
0.0000001
 43
0.0000001
 44
0.0000000001
 12
-0.1440896835
 22
-0.0602425756
 32
0.0
 13
-0.1252946643
 23
-0.0932322471
 33
0.0
 40
0.0
 40
0.0
 40
0.0
 40
0.0
 40
0.2409283394
 40
1.0
 40
1.0
 40
1.0
 40
1.0
 10
-18.0340154362
 20
-39.6257170553
 30
0.0
 10
-18.0455871989
 20
-39.6305551032
 30
0.0
 10
-18.0929228795
 20
-39.6522809293
 30
0.0
 10
-18.1373713918
 20
-39.6801104656
 30
0.0
 10
-18.1690739347
 20
-39.7037004511
 30
0.0
 11
-18.0340154362
 21
-39.6257170553
 31
0.0
 11
-18.0682286228
 21
-39.6413781364
 31
0.0
 11
-18.1690739347
 21
-39.7037004511
 31
0.0
  0
SPLINE
  5
436
100
AcDbEntity
  8
RACCORDO
100
AcDbSpline
 62
7
  6
CONTINUOUS
 70
0
 71
3
 72
9
 73
5
 74
3
 42
0.0000001
 43
0.0000001
 44
0.0000000001
 12
-0.1242085342
 22
-0.0946731593
 32
0.0
 13
-0.1433862242
 23
-0.0618963471
 33
0.0
 40
0.0
 40
0.0
 40
0.0
 40
0.0
 40
0.2409316862
 40
1.0
 40
1.0
 40
1.0
 40
1.0
 10
-18.2333542709
 20
-39.2804526402
 30
0.0
 10
-18.2433295281
 20
-39.2880558949
 30
0.0
 10
-18.2858100786
 20
-39.3181898436
 30
0.0
 10
-18.3321340619
 20
-39.3427709627
 30
0.0
 10
-18.3684140417
 20
-39.358432148
 30
0.0
 11
-18.2333542709
 21
-39.2804526402
 31
0.0
 11
-18.2640224533
 21
-39.30225401
 31
0.0
 11
-18.3684140417
 21
-39.358432148
 31
0.0
  0
SPLINE
  5
437
100
AcDbEntity
  8
RACCORDO
100
AcDbSpline
 62
7
  6
CONTINUOUS
 70
0
 71
3
 72
9
 73
5
 74
3
 42
0.0000001
 43
0.0000001
 44
0.0000000001
 12
-0.1279979641
 22
-0.071367648
 32
0.0
 13
-0.1415101583
 23
-0.0381011166
 33
0.0
 40
0.0
 40
0.0
 40
0.0
 40
0.0
 40
0.2375585064
 40
1.0
 40
1.0
 40
1.0
 40
1.0
 10
-18.2361998637
 20
-39.2673610492
 30
0.0
 10
-18.2463355321
 20
-39.2730123798
 30
0.0
 10
-18.2898550887
 20
-39.2952629697
 30
0.0
 10
-18.3362555117
 20
-39.3116542421
 30
0.0
 10
-18.3722199172
 20
-39.3213375329
 30
0.0
 11
-18.2361998637
 21
-39.2673610492
 31
0.0
 11
-18.2671749928
 21
-39.2832533486
 31
0.0
 11
-18.3722199172
 21
-39.3213375329
 31
0.0
  0
SPLINE
  5
438
100
AcDbEntity
  8
RACCORDO
100
AcDbSpline
 62
7
  6
CONTINUOUS
 70
0
 71
3
 72
15
 73
11
 74
9
 42
0.0000001
 43
0.0000001
 44
0.0000000001
 12
0.0000290007
 22
0.4170681613
 32
0.0
 13
0.3612088276
 23
-0.2085042804
 33
0.0
 40
0.0
 40
0.0
 40
0.0
 40
0.0
 40
0.1450844117
 40
0.2749838793
 40
0.3918358339
 40
0.5009156036
 40
0.6098397464
 40
0.7262475433
 40
0.8555331895
 40
1.0
 40
1.0
 40
1.0
 40
1.0
 10
-21.8735951359
 20
0.4506730536
 30
0.0
 10
-21.8735937334
 20
0.4708430832
 30
0.0
 10
-21.8705594328
 20
0.5092037104
 30
0.0
 10
-21.8551070247
 20
0.5619289196
 30
0.0
 10
-21.8290803755
 20
0.604819468
 30
0.0
 10
-21.7929541031
 20
0.635586142
 30
0.0
 10
-21.7485294409
 20
0.6521120725
 30
0.0
 10
-21.6985414287
 20
0.6537670215
 30
0.0
 10
-21.6452721301
 20
0.6413648609
 30
0.0
 10
-21.6104730744
 20
0.6252854824
 30
0.0
 10
-21.5930788454
 20
0.615244833
 30
0.0
 11
-21.8735951359
 21
0.4506730536
 31
0.0
 11
-21.8682177982
 21
0.5109437356
 31
0.0
 11
-21.8522874393
 21
0.562725621
 31
0.0
 11
-21.8264121822
 21
0.6040244552
 31
0.0
 11
-21.791575125
 21
0.6332828917
 31
0.0
 11
-21.7490961125
 21
0.649385955
 31
0.0
 11
-21.7006011316
 21
0.651696357
 31
0.0
 11
-21.6479195903
 21
0.6402019425
 31
0.0
 11
-21.5930788454
 21
0.615244833
 31
0.0
  0
SPLINE
  5
439
100
AcDbEntity
  8
RACCORDO
100
AcDbSpline
 62
7
  6
CONTINUOUS
 70
0
 71
3
 72
9
 73
5
 74
3
 42
0.0000001
 43
0.0000001
 44
0.0000000001
 12
-0.0290535392
 22
-0.0551073363
 32
0.0
 13
-0.0539576766
 23
-0.0311367274
 33
0.0
 40
0.0
 40
0.0
 40
0.0
 40
0.0
 40
0.277017043
 40
1.0
 40
1.0
 40
1.0
 40
1.0
 10
12.9573329975
 20
-59.16872702
 30
0.0
 10
12.9546502224
 20
-59.1738155771
 30
0.0
 10
12.944169422
 20
-59.1916656144
 30
0.0
 10
12.9294143742
 20
-59.2076470248
 30
0.0
 10
12.9164108807
 20
-59.2151507993
 30
0.0
 11
12.9573329975
 21
-59.16872702
 31
0.0
 11
12.9485155026
 21
-59.1835617107
 31
0.0
 11
12.9164108807
 21
-59.2151507993
 31
0.0
  0
SPLINE
  5
43A
100
AcDbEntity
  8
RACCORDO
100
AcDbSpline
 62
7
  6
CONTINUOUS
 70
0
 71
3
 72
11
 73
7
 74
5
 42
0.0000001
 43
0.0000001
 44
0.0000000001
 12
-0.1261722059
 22
-0.072808724
 32
0.0
 13
-0.0964136199
 23
0.1092014182
 33
0.0
 40
0.0
 40
0.0
 40
0.0
 40
0.0
 40
0.2220361667
 40
0.4505038999
 40
0.7087907003
 40
1.0
 40
1.0
 40
1.0
 40
1.0
 10
12.9164108807
 20
-59.2151507993
 30
0.0
 10
12.9070726164
 20
-59.2205395226
 30
0.0
 10
12.885008889
 20
-59.2270393522
 30
0.0
 10
12.8504188143
 20
-59.2191420986
 30
0.0
 10
12.8181801732
 20
-59.1986656016
 30
0.0
 10
12.7990742441
 20
-59.1798254249
 30
0.0
 10
12.7897153966
 20
-59.1692252687
 30
0.0
 11
12.9164108807
 21
-59.2151507993
 31
0.0
 11
12.8853429346
 21
-59.2241483767
 31
0.0
 11
12.8526634755
 21
-59.2178466326
 31
0.0
 11
12.8203542343
 21
-59.1985650654
 31
0.0
 11
12.7897153966
 21
-59.1692252687
 31
0.0
  0
SPLINE
  5
43B
100
AcDbEntity
  8
RACCORDO
100
AcDbSpline
 62
7
  6
CONTINUOUS
 70
0
 71
3
 72
11
 73
7
 74
5
 42
0.0000001
 43
0.0000001
 44
0.0000000001
 12
-0.1363190161
 22
0.0787088914
 32
0.0
 13
-0.0000316866
 23
0.1574101736
 33
0.0
 40
0.0
 40
0.0
 40
0.0
 40
0.0
 40
0.2895817376
 40
0.5491318165
 40
0.7822802582
 40
1.0
 40
1.0
 40
1.0
 40
1.0
 10
13.0488153633
 20
-21.9126597963
 30
0.0
 10
13.0356568641
 20
-21.9050622437
 30
0.0
 10
13.0117778217
 20
-21.8886027898
 30
0.0
 10
12.9832247471
 20
-21.8586102104
 30
0.0
 10
12.9651614632
 20
-21.8254178616
 30
0.0
 10
12.9609521768
 20
-21.8016011855
 30
0.0
 10
12.9609498772
 20
-21.7901774181
 30
0.0
 11
13.0488153633
 21
-21.9126597963
 31
0.0
 11
13.0115386104
 21
-21.8864250132
 31
0.0
 11
12.9837751675
 21
-21.8564518656
 31
0.0
 11
12.9667090711
 21
-21.8239613477
 31
0.0
 11
12.9609498772
 21
-21.7901774181
 31
0.0
  0
SPLINE
  5
43C
100
AcDbEntity
  8
RACCORDO
100
AcDbSpline
 62
7
  6
CONTINUOUS
 70
0
 71
3
 72
11
 73
7
 74
5
 42
0.0000001
 43
0.0000001
 44
0.0000000001
 12
-0.0000000517
 22
-0.1573888098
 32
0.0
 13
0.1362846782
 23
-0.0787256244
 33
0.0
 40
0.0
 40
0.0
 40
0.0
 40
0.0
 40
0.2895872683
 40
0.5491386409
 40
0.7822847649
 40
1.0
 40
1.0
 40
1.0
 40
1.0
 10
12.6501375487
 20
-21.2221295662
 30
0.0
 10
12.6501375437
 20
-21.2373221647
 30
0.0
 10
12.6524510658
 20
-21.2662282415
 30
0.0
 10
12.6641456822
 20
-21.3059475277
 30
0.0
 10
12.6838552441
 20
-21.3381831955
 30
0.0
 10
12.702373135
 20
-21.3537352061
 30
0.0
 10
12.7122635519
 20
-21.3594484621
 30
0.0
 11
12.6501375487
 21
-21.2221295662
 31
0.0
 11
12.6542171842
 21
-21.2675244119
 31
0.0
 11
12.6662898258
 21
-21.3065502132
 31
0.0
 11
12.6858902693
 21
-21.3375714257
 31
0.0
 11
12.7122635519
 21
-21.3594484621
 31
0.0
  0
SPLINE
  5
43D
100
AcDbEntity
  8
RACCORDO
100
AcDbSpline
 62
7
  6
CONTINUOUS
 70
0
 71
3
 72
11
 73
7
 74
5
 42
0.0000001
 43
0.0000001
 44
0.0000000001
 12
0.0
 22
-0.157342478
 32
0.0
 13
0.1362077173
 23
-0.0787661927
 33
0.0
 40
0.0
 40
0.0
 40
0.0
 40
0.0
 40
0.2895781872
 40
0.5491322113
 40
0.7822857584
 40
1.0
 40
1.0
 40
1.0
 40
1.0
 10
-19.6858500215
 20
-2.5517356083
 30
0.0
 10
-19.6858500215
 20
-2.5669232581
 30
0.0
 10
-19.6835379122
 20
-2.5958204008
 30
0.0
 10
-19.6718512387
 20
-2.6355290304
 30
0.0
 10
-19.6521553108
 20
-2.6677599016
 30
0.0
 10
-19.6336493741
 20
-2.6833148825
 30
0.0
 10
-19.6237645875
 20
-2.6890310564
 30
0.0
 11
-19.6858500215
 21
-2.5517356083
 31
0.0
 11
-19.6817731707
 21
-2.5971157984
 31
0.0
 11
-19.6697087167
 21
-2.6361319813
 31
0.0
 11
-19.6501211853
 21
-2.6671499546
 31
0.0
 11
-19.6237645875
 21
-2.6890310564
 31
0.0
  0
SPLINE
  5
43E
100
AcDbEntity
  8
RACCORDO
100
AcDbSpline
 62
7
  6
CONTINUOUS
 70
0
 71
3
 72
10
 73
6
 74
4
 42
0.0000001
 43
0.0000001
 44
0.0000000001
 12
0.3008557635
 22
-0.1737074046
 32
0.0
 13
0.335457116
 23
0.0903159797
 33
0.0
 40
0.0
 40
0.0
 40
0.0
 40
0.0
 40
0.2300845876
 40
0.483607702
 40
1.0
 40
1.0
 40
1.0
 40
1.0
 10
-20.0845278361
 20
-2.7818826912
 30
0.0
 10
-20.0614537447
 20
-2.7952051567
 30
0.0
 10
-20.0089918924
 20
-2.8165465647
 30
0.0
 10
-19.894901584
 20
-2.8381330767
 30
0.0
 10
-19.8033528136
 20
-2.8319336992
 30
0.0
 10
-19.7456103233
 20
-2.8163875405
 30
0.0
 11
-20.0845278361
 21
-2.7818826912
 31
0.0
 11
-20.0109203865
 21
-2.8130445172
 31
0.0
 11
-19.9244902563
 21
-2.8299843679
 31
0.0
 11
-19.7456103233
 21
-2.8163875405
 31
0.0
  0
SPLINE
  5
43F
100
AcDbEntity
  8
RACCORDO
100
AcDbSpline
 62
7
  6
CONTINUOUS
 70
0
 71
3
 72
10
 73
6
 74
4
 42
0.0000001
 43
0.0000001
 44
0.0000000001
 12
0.3008547198
 22
-0.1737097446
 32
0.0
 13
0.3354567303
 23
0.0903184363
 33
0.0
 40
0.0
 40
0.0
 40
0.0
 40
0.0
 40
0.2300849491
 40
0.4836079614
 40
1.0
 40
1.0
 40
1.0
 40
1.0
 10
-20.0845278361
 20
-40.1190620596
 30
0.0
 10
-20.0614537885
 20
-40.1323847256
 30
0.0
 10
-20.0089919665
 20
-40.1537264572
 30
0.0
 10
-19.8949015948
 20
-40.1753131993
 30
0.0
 10
-19.8033527182
 20
-40.1691134827
 30
0.0
 10
-19.7456103233
 20
-40.1535669089
 30
0.0
 11
-20.0845278361
 21
-40.1190620596
 31
0.0
 11
-20.0109203857
 21
-40.1502243631
 31
0.0
 11
-19.9244902551
 21
-40.1671643779
 31
0.0
 11
-19.7456103233
 21
-40.1535669089
 31
0.0
  0
SPLINE
  5
440
100
AcDbEntity
  8
RACCORDO
100
AcDbSpline
 62
7
  6
CONTINUOUS
 70
0
 71
3
 72
10
 73
6
 74
4
 42
0.0000001
 43
0.0000001
 44
0.0000000001
 12
0.0000001141
 22
0.3473993299
 32
0.0
 13
0.2459370819
 23
0.2453594223
 33
0.0
 40
0.0
 40
0.0
 40
0.0
 40
0.0
 40
0.2300791698
 40
0.4836010627
 40
1.0
 40
1.0
 40
1.0
 40
1.0
 10
-19.6858500215
 20
-40.8095922897
 30
0.0
 10
-19.6858500127
 20
-40.7829491733
 30
0.0
 10
-19.6781001633
 20
-40.7268466428
 30
0.0
 10
-19.6397481085
 20
-40.6172498899
 30
0.0
 10
-19.5886052985
 20
-40.5410664723
 30
0.0
 10
-19.5462714159
 20
-40.4988320239
 30
0.0
 11
-19.6858500215
 21
-40.8095922897
 31
0.0
 11
-19.6760318857
 21
-40.7302682385
 31
0.0
 11
-19.647486352
 21
-40.6469491832
 31
0.0
 11
-19.5462714159
 21
-40.4988320239
 31
0.0
  0
SPLINE
  5
441
100
AcDbEntity
  8
RACCORDO
100
AcDbSpline
 62
7
  6
CONTINUOUS
 70
0
 71
3
 72
10
 73
6
 74
4
 42
0.0000001
 43
0.0000001
 44
0.0000000001
 12
0.0
 22
0.3473993418
 32
0.0
 13
0.2459371687
 23
0.2453593523
 33
0.0
 40
0.0
 40
0.0
 40
0.0
 40
0.0
 40
0.2300791865
 40
0.4836010752
 40
1.0
 40
1.0
 40
1.0
 40
1.0
 10
12.6501375487
 20
-59.4799862476
 30
0.0
 10
12.6501375487
 20
-59.4533431283
 30
0.0
 10
12.6578873849
 20
-59.3972405917
 30
0.0
 10
12.6962394322
 20
-59.2876438312
 30
0.0
 10
12.7473822578
 20
-59.2114604171
 30
0.0
 10
12.7897161543
 20
-59.1692259819
 30
0.0
 11
12.6501375487
 21
-59.4799862476
 31
0.0
 11
12.6599556661
 21
-59.4006621855
 31
0.0
 11
12.6885011934
 21
-59.3173431264
 31
0.0
 11
12.7897161543
 21
-59.1692259819
 31
0.0
  0
SPLINE
  5
442
100
AcDbEntity
  8
RACCORDO
100
AcDbSpline
 62
7
  6
CONTINUOUS
 70
0
 71
3
 72
11
 73
7
 74
5
 42
0.0000001
 43
0.0000001
 44
0.0000000001
 12
-0.1363070506
 22
0.0787020424
 32
0.0
 13
-0.0000536147
 23
0.1573963806
 33
0.0
 40
0.0
 40
0.0
 40
0.0
 40
0.0
 40
0.2895790523
 40
0.5491299326
 40
0.7822805821
 40
1.0
 40
1.0
 40
1.0
 40
1.0
 10
13.0488153633
 20
-59.2498391647
 30
0.0
 10
13.0356581412
 20
-59.2422423437
 30
0.0
 10
13.0117811928
 20
-59.2257845781
 30
0.0
 10
12.983229684
 20
-59.1957956281
 30
0.0
 10
12.9651656061
 20
-59.1626075085
 30
0.0
 10
12.9609537719
 20
-59.1387934731
 30
0.0
 10
12.960949881
 20
-59.1273707236
 30
0.0
 11
13.0488153633
 21
-59.2498391647
 31
0.0
 11
13.0115419755
 21
-59.2236072717
 31
0.0
 11
12.9837797937
 21
-59.1936376616
 31
0.0
 11
12.9667126091
 21
-59.1611509537
 31
0.0
 11
12.960949881
 21
-59.1273707236
 31
0.0
  0
SPLINE
  5
443
100
AcDbEntity
  8
RACCORDO
100
AcDbSpline
 62
7
  6
CONTINUOUS
 70
0
 71
3
 72
12
 73
8
 74
6
 42
0.0000001
 43
0.0000001
 44
0.0000000001
 12
0.5057253542
 22
-0.2920463637
 32
0.0
 13
0.0000644726
 23
-0.5839941852
 33
0.0
 40
0.0
 40
0.0
 40
0.0
 40
0.0
 40
0.2368422946
 40
0.499192476
 40
0.7618019235
 40
0.8853942361
 40
1.0
 40
1.0
 40
1.0
 40
1.0
 10
14.5550830289
 20
-20.2562507904
 30
0.0
 10
14.5950087467
 20
-20.2793071007
 30
0.0
 10
14.6706313011
 20
-20.3428431786
 30
0.0
 10
14.7590157369
 20
-20.463132237
 30
0.0
 10
14.8108198544
 20
-20.5796848163
 30
0.0
 10
14.8333256292
 20
-20.6747376289
 30
0.0
 10
14.8378802001
 20
-20.7211279357
 30
0.0
 10
14.8378826631
 20
-20.7434376356
 30
0.0
 11
14.5550830289
 21
-20.2562507904
 31
0.0
 11
14.6627814039
 21
-20.3430376989
 31
0.0
 11
14.7542468528
 21
-20.4659509872
 31
0.0
 11
14.815685288
 21
-20.6064691061
 31
0.0
 11
14.8320738282
 21
-20.6767610889
 31
0.0
 11
14.8378826631
 21
-20.7434376356
 31
0.0
  0
SPLINE
  5
444
100
AcDbEntity
  8
RACCORDO
100
AcDbSpline
 62
7
  6
CONTINUOUS
 70
0
 71
3
 72
13
 73
9
 74
7
 42
0.0000001
 43
0.0000001
 44
0.0000000001
 12
-0.0662090449
 22
0.1972123061
 32
0.0
 13
0.2078764784
 23
-0.0079812929
 33
0.0
 40
0.0
 40
0.0
 40
0.0
 40
0.0
 40
0.279534151
 40
0.5136620017
 40
0.6222252232
 40
0.7348380503
 40
0.8596282997
 40
1.0
 40
1.0
 40
1.0
 40
1.0
 10
-19.7456100618
 20
-2.8163886497
 30
0.0
 10
-19.7517792915
 20
-2.7980127915
 30
0.0
 10
-19.7602951881
 20
-2.7631650429
 30
0.0
 10
-19.7547896491
 20
-2.7181514177
 30
0.0
 10
-19.7356991824
 20
-2.6921213492
 30
0.0
 10
-19.7151830068
 20
-2.6787998722
 30
0.0
 10
-19.6896019038
 20
-2.6718692197
 30
0.0
 10
-19.6711046021
 20
-2.6711198016
 30
0.0
 10
-19.6613779438
 20
-2.6714932508
 30
0.0
 11
-19.7456100618
 21
-2.8163886497
 31
0.0
 11
-19.7571799704
 21
-2.7593998679
 31
0.0
 11
-19.748387109
 21
-2.7114946021
 31
0.0
 11
-19.734943263
 21
-2.6933475174
 31
0.0
 11
-19.7154556727
 21
-2.6803456306
 31
0.0
 11
-19.6905370058
 21
-2.6730665295
 31
0.0
 11
-19.6613779438
 21
-2.6714932508
 31
0.0
  0
SPLINE
  5
445
100
AcDbEntity
  8
RACCORDO
100
AcDbSpline
 62
7
  6
CONTINUOUS
 70
0
 71
3
 72
11
 73
7
 74
5
 42
0.0000001
 43
0.0000001
 44
0.0000000001
 12
-0.4310685118
 22
0.1088707109
 32
0.0
 13
0.1215914924
 23
0.4276545364
 33
0.0
 40
0.0
 40
0.0
 40
0.0
 40
0.0
 40
0.2417492733
 40
0.5000082522
 40
0.7582667077
 40
1.0
 40
1.0
 40
1.0
 40
1.0
 10
-19.5462810437
 20
-40.4988288624
 30
0.0
 10
-19.5810178768
 20
-40.490055724
 30
0.0
 10
-19.6505939719
 20
-40.4595229721
 30
0.0
 10
-19.7297179967
 20
-40.3745549446
 30
0.0
 10
-19.763683001
 20
-40.263558197
 30
0.0
 10
-19.7554076551
 20
-40.188025214
 30
0.0
 10
-19.7456100845
 20
-40.1535657677
 30
0.0
 11
-19.5462810437
 21
-40.4988288624
 31
0.0
 11
-19.6442289445
 21
-40.4545711111
 31
0.0
 11
-19.7220277826
 21
-40.3701219064
 31
0.0
 11
-19.7562400033
 21
-40.2605144344
 31
0.0
 11
-19.7456100845
 21
-40.1535657677
 31
0.0
  0
SPLINE
  5
446
100
AcDbEntity
  8
RACCORDO
100
AcDbSpline
 62
7
  6
CONTINUOUS
 70
0
 71
3
 72
9
 73
5
 74
3
 42
0.0000001
 43
0.0000001
 44
0.0000000001
 12
-0.0245012758
 22
-0.4136068379
 32
0.0
 13
0.370913549
 23
-0.1846457907
 33
0.0
 40
0.0
 40
0.0
 40
0.0
 40
0.0
 40
0.4999981152
 40
1.0
 40
1.0
 40
1.0
 40
1.0
 10
-18.3684141772
 20
-39.3584593837
 30
0.0
 10
-18.3724977078
 20
-39.4273935968
 30
0.0
 10
-18.3335634165
 20
-39.5684498161
 30
0.0
 10
-18.2308943482
 20
-39.6729227797
 30
0.0
 10
-18.1690751904
 20
-39.7036971942
 30
0.0
 11
-18.3684141772
 21
-39.3584593837
 31
0.0
 11
-18.3176299891
 21
-39.5593035395
 31
0.0
 11
-18.1690751904
 21
-39.7036971942
 31
0.0
  0
SPLINE
  5
447
100
AcDbEntity
  8
RACCORDO
100
AcDbSpline
 62
7
  6
CONTINUOUS
 70
0
 71
3
 72
10
 73
6
 74
4
 42
0.0000001
 43
0.0000001
 44
0.0000000001
 12
0.1828507333
 22
-0.3543641519
 32
0.0
 13
0.2144009064
 23
-0.336215101
 33
0.0
 40
0.0
 40
0.0
 40
0.0
 40
0.0
 40
0.2273651443
 40
0.5000028679
 40
1.0
 40
1.0
 40
1.0
 40
1.0
 10
-18.2333543669
 20
-39.2804525893
 30
0.0
 10
-18.2194964058
 20
-39.3073092748
 30
0.0
 10
-18.1877060075
 20
-39.3656871484
 30
0.0
 10
-18.122313733
 20
-39.4814007526
 30
0.0
 10
-18.069748739
 20
-39.5696821756
 30
0.0
 10
-18.0340154596
 20
-39.6257177043
 30
0.0
 11
-18.2333543669
 21
-39.2804525893
 31
0.0
 11
-18.1903971326
 21
-39.3602936678
 31
0.0
 11
-18.1369271902
 21
-39.4549523525
 31
0.0
 11
-18.0340154596
 21
-39.6257177043
 31
0.0
  0
SPLINE
  5
448
100
AcDbEntity
  8
RACCORDO
100
AcDbSpline
 62
7
  6
CONTINUOUS
 70
0
 71
3
 72
9
 73
5
 74
3
 42
0.0000001
 43
0.0000001
 44
0.0000000001
 12
0.0072132972
 22
-0.0113899437
 32
0.0
 13
0.0118511912
 23
-0.0064274211
 33
0.0
 40
0.0
 40
0.0
 40
0.0
 40
0.0
 40
0.2343894242
 40
1.0
 40
1.0
 40
1.0
 40
1.0
 10
-18.0340154596
 20
-39.6257177043
 30
0.0
 10
-18.0334518861
 20
-39.6266075984
 30
0.0
 10
-18.030796097
 20
-39.6302451529
 30
0.0
 10
-18.0271246038
 20
-39.6330882493
 30
0.0
 10
-18.0241001381
 20
-39.6347285499
 30
0.0
 11
-18.0340154596
 21
-39.6257177043
 31
0.0
 11
-18.0321511072
 21
-39.6282691608
 31
0.0
 11
-18.0241001381
 21
-39.6347285499
 31
0.0
  0
SPLINE
  5
449
100
AcDbEntity
  8
RACCORDO
100
AcDbSpline
 62
7
  6
CONTINUOUS
 70
0
 71
3
 72
9
 73
5
 74
3
 42
0.0000001
 43
0.0000001
 44
0.0000000001
 12
-0.0003312793
 22
-0.013472688
 32
0.0
 13
0.0061959411
 23
-0.011968015
 33
0.0
 40
0.0
 40
0.0
 40
0.0
 40
0.0
 40
0.2685733876
 40
1.0
 40
1.0
 40
1.0
 40
1.0
 10
-18.2361998637
 20
-39.2673610492
 30
0.0
 10
-18.2362295213
 20
-39.2685671843
 30
0.0
 10
-18.2360885363
 20
-39.2730580669
 30
0.0
 10
-18.2348649923
 20
-39.2775346811
 30
0.0
 10
-18.2333543669
 20
-39.2804525893
 30
0.0
 11
-18.2361998637
 21
-39.2673610492
 31
0.0
 11
-18.2360757049
 21
-39.2709784182
 31
0.0
 11
-18.2333543669
 21
-39.2804525893
 31
0.0
  0
SPLINE
  5
44A
100
AcDbEntity
  8
RACCORDO
100
AcDbSpline
 62
7
  6
CONTINUOUS
 70
0
 71
3
 72
11
 73
7
 74
5
 42
0.0000001
 43
0.0000001
 44
0.0000000001
 12
0.3303340714
 22
0.1779756193
 32
0.0
 13
0.0024728007
 23
0.3752196757
 33
0.0
 40
0.0
 40
0.0
 40
0.0
 40
0.0
 40
0.2174002984
 40
0.4501302195
 40
0.7094857245
 40
1.0
 40
1.0
 40
1.0
 40
1.0
 10
15.1059162449
 20
-62.8090846817
 30
0.0
 10
15.1298544868
 20
-62.7961873642
 30
0.0
 10
15.1749084173
 20
-62.7602605117
 30
0.0
 10
15.2231658563
 20
-62.684268121
 30
0.0
 10
15.2521658999
 20
-62.589831484
 30
0.0
 10
15.2581727473
 20
-62.5208494245
 30
0.0
 10
15.2584122086
 20
-62.4845138671
 30
0.0
 11
15.1059162449
 21
-62.8090846817
 31
0.0
 11
15.1700064117
 21
-62.7586181328
 31
0.0
 11
15.2179469631
 21
-62.6856272883
 31
0.0
 11
15.2478145767
 21
-62.5930065437
 31
0.0
 11
15.2584122086
 21
-62.4845138671
 31
0.0
  0
SPLINE
  5
44B
100
AcDbEntity
  8
RACCORDO
100
AcDbSpline
 62
7
  6
CONTINUOUS
 70
0
 71
3
 72
11
 73
7
 74
5
 42
0.0000001
 43
0.0000001
 44
0.0000000001
 12
-0.0068243301
 22
1.024860587
 32
0.0
 13
-0.8841392067
 23
0.5183470434
 33
0.0
 40
0.0
 40
0.0
 40
0.0
 40
0.0
 40
0.2370060342
 40
0.4999938366
 40
0.7629849612
 40
1.0
 40
1.0
 40
1.0
 40
1.0
 10
15.2584122086
 20
-20.7481930822
 30
0.0
 10
15.2578730728
 20
-20.6672270344
 30
0.0
 10
15.226596732
 20
-20.4965271409
 30
0.0
 10
15.1202330299
 20
-20.2565165328
 30
0.0
 10
14.9655571102
 20
-20.0443963339
 30
0.0
 10
14.8333642782
 20
-19.9319542622
 30
0.0
 10
14.7635128488
 20
-19.8910022473
 30
0.0
 11
15.2584122086
 21
-20.7481930822
 31
0.0
 11
15.219588118
 21
-20.5084123198
 31
0.0
 11
15.1119076647
 21
-20.2613246512
 31
0.0
 11
14.9517619277
 21
-20.0445238802
 31
0.0
 11
14.7635128488
 21
-19.8910022473
 31
0.0
  0
SPLINE
  5
44C
100
AcDbEntity
  8
RACCORDO
100
AcDbSpline
 62
7
  6
CONTINUOUS
 70
0
 71
3
 72
11
 73
7
 74
5
 42
0.0000001
 43
0.0000001
 44
0.0000000001
 12
-0.3262172695
 22
0.1854893057
 32
0.0
 13
-0.3193340888
 23
-0.1971033464
 33
0.0
 40
0.0
 40
0.0
 40
0.0
 40
0.0
 40
0.2905184574
 40
0.5498765043
 40
0.7826053532
 40
1.0
 40
1.0
 40
1.0
 40
1.0
 10
-21.3823656818
 20
0.979175002
 30
0.0
 10
-21.4139563945
 20
0.997137691
 30
0.0
 10
-21.4767056829
 20
1.026432531
 30
0.0
 10
-21.5729997556
 20
1.0485420657
 30
0.0
 10
-21.6629483723
 20
1.0447494029
 30
0.0
 10
-21.7165942955
 20
1.023695003
 30
0.0
 10
-21.7397348027
 20
1.0094119322
 30
0.0
 11
-21.3823656818
 21
0.979175002
 31
0.0
 11
-21.4816318823
 21
1.0242516405
 31
0.0
 11
-21.5767872378
 21
1.0447017944
 31
0.0
 11
-21.6639779192
 21
1.0396823344
 31
0.0
 11
-21.7397348027
 21
1.0094119322
 31
0.0
  0
SPLINE
  5
44D
100
AcDbEntity
  8
RACCORDO
100
AcDbSpline
 62
7
  6
CONTINUOUS
 70
0
 71
3
 72
11
 73
7
 74
5
 42
0.0000001
 43
0.0000001
 44
0.0000000001
 12
-0.3738480846
 22
-0.223389988
 32
0.0
 13
0.000000011
 23
-0.4355060012
 33
0.0
 40
0.0
 40
0.0
 40
0.0
 40
0.0
 40
0.2383260036
 40
0.5010975909
 40
0.7632734208
 40
1.0
 40
1.0
 40
1.0
 40
1.0
 10
14.7635128478
 20
-19.8910022467
 30
0.0
 10
14.7338136078
 20
-19.9087487944
 30
0.0
 10
14.6777591314
 20
-19.9568739726
 30
0.0
 10
14.6124061262
 20
-20.0473464294
 30
0.0
 10
14.5678244974
 20
-20.1494090122
 30
0.0
 10
14.555083028
 20
-20.2218855084
 30
0.0
 10
14.5550830289
 20
-20.2562507904
 30
0.0
 11
14.7635128478
 21
-19.8910022467
 31
0.0
 11
14.6834681512
 21
-19.9570757652
 31
0.0
 11
14.6159185145
 21
-20.0494513058
 31
0.0
 11
14.5708804054
 21
-20.1543724495
 31
0.0
 11
14.5550830289
 21
-20.2562507904
 31
0.0
  0
SPLINE
  5
44E
100
AcDbEntity
  8
RACCORDO
100
AcDbSpline
 62
7
  6
CONTINUOUS
 70
0
 71
3
 72
11
 73
7
 74
5
 42
0.0000001
 43
0.0000001
 44
0.0000000001
 12
-0.3738480757
 22
-0.2233899999
 32
0.0
 13
0.0000000017
 23
-0.4355059997
 33
0.0
 40
0.0
 40
0.0
 40
0.0
 40
0.0
 40
0.2383260021
 40
0.5010975899
 40
0.76327342
 40
1.0
 40
1.0
 40
1.0
 40
1.0
 10
-21.3823656804
 20
0.9791750012
 30
0.0
 10
-21.4120649195
 20
0.9614284527
 30
0.0
 10
-21.4681193946
 20
0.913303274
 30
0.0
 10
-21.5334724007
 20
0.8228308187
 30
0.0
 10
-21.578054031
 20
0.7207682367
 30
0.0
 10
-21.5907955018
 20
0.6482917409
 30
0.0
 10
-21.5907955017
 20
0.6139264589
 30
0.0
 11
-21.3823656804
 21
0.9791750012
 31
0.0
 11
-21.4624103751
 21
0.913101482
 31
0.0
 11
-21.5299600125
 21
0.8207259422
 31
0.0
 11
-21.5749981232
 21
0.7158047995
 31
0.0
 11
-21.5907955017
 21
0.6139264589
 31
0.0
  0
SPLINE
  5
44F
100
AcDbEntity
  8
RACCORDO
100
AcDbSpline
 62
7
  6
CONTINUOUS
 70
0
 71
3
 72
11
 73
7
 74
5
 42
0.0000001
 43
0.0000001
 44
0.0000000001
 12
-0.380376472
 22
-0.21208902
 32
0.0
 13
-0.3771557076
 23
0.2177649767
 33
0.0
 40
0.0
 40
0.0
 40
0.0
 40
0.0
 40
0.2383228673
 40
0.5010914229
 40
0.763267564
 40
1.0
 40
1.0
 40
1.0
 40
1.0
 10
15.2584122086
 20
-20.7481930838
 30
0.0
 10
15.2281947381
 20
-20.7650416383
 30
0.0
 10
15.1584909407
 20
-20.7895261869
 30
0.0
 10
15.0474630331
 20
-20.8008883564
 30
0.0
 10
14.936782208
 20
-20.7884644325
 30
0.0
 10
14.8676443262
 20
-20.7632581357
 30
0.0
 10
14.8378826631
 20
-20.7460741246
 30
0.0
 11
15.2584122086
 21
-20.7481930838
 31
0.0
 11
15.1611705396
 21
-20.7844805694
 31
0.0
 11
15.0473968437
 21
-20.7967936893
 31
0.0
 11
14.9340126624
 21
-20.7833359644
 31
0.0
 11
14.8378826631
 21
-20.7460741246
 31
0.0
  0
SPLINE
  5
450
100
AcDbEntity
  8
RACCORDO
100
AcDbSpline
 62
7
  6
CONTINUOUS
 70
0
 71
3
 72
11
 73
7
 74
5
 42
0.0000001
 43
0.0000001
 44
0.0000000001
 12
-0.3803764778
 22
-0.2120890063
 32
0.0
 13
-0.3771557109
 23
0.2177649678
 33
0.0
 40
0.0
 40
0.0
 40
0.0
 40
0.0
 40
0.2383228673
 40
0.5010914248
 40
0.7632675667
 40
1.0
 40
1.0
 40
1.0
 40
1.0
 10
15.2584122086
 20
-62.484513866
 30
0.0
 10
15.2281947376
 20
-62.5013624194
 30
0.0
 10
15.1584909401
 20
-62.5258469668
 30
0.0
 10
15.0474630327
 20
-62.5372091375
 30
0.0
 10
14.9367822079
 20
-62.524785215
 30
0.0
 10
14.8676443261
 20
-62.4995789198
 30
0.0
 10
14.8378826631
 20
-62.4823949095
 30
0.0
 11
15.2584122086
 21
-62.484513866
 31
0.0
 11
15.1611705393
 21
-62.5208013497
 31
0.0
 11
15.0473968431
 21
-62.5331144704
 31
0.0
 11
14.9340126617
 21
-62.519656747
 31
0.0
 11
14.8378826631
 21
-62.4823949095
 31
0.0
  0
SPLINE
  5
451
100
AcDbEntity
  8
RACCORDO
100
AcDbSpline
 62
7
  6
CONTINUOUS
 70
0
 71
3
 72
9
 73
5
 74
3
 42
0.0000001
 43
0.0000001
 44
0.0000000001
 12
0.0000527507
 22
-0.0373502908
 32
0.0
 13
0.007764013
 23
-0.0365344647
 33
0.0
 40
0.0
 40
0.0
 40
0.0
 40
0.0
 40
0.2547386773
 40
1.0
 40
1.0
 40
1.0
 40
1.0
 10
-18.3722199181
 20
-39.3213375353
 30
0.0
 10
-18.3722154388
 20
-39.3245090565
 30
0.0
 10
-18.3718615787
 20
-39.3369545702
 30
0.0
 10
-18.370338986
 20
-39.3493812053
 30
0.0
 10
-18.3684102465
 20
-39.3584571131
 30
0.0
 11
-18.3722199181
 21
-39.3213375353
 31
0.0
 11
-18.371959314
 21
-39.3308485389
 31
0.0
 11
-18.3684102465
 21
-39.3584571131
 31
0.0
  0
SPLINE
  5
452
100
AcDbEntity
  8
RACCORDO
100
AcDbSpline
 62
7
  6
CONTINUOUS
 70
0
 71
3
 72
15
 73
11
 74
9
 42
0.0000001
 43
0.0000001
 44
0.0000000001
 12
-0.0000290007
 22
-0.4170681703
 32
0.0
 13
-0.3612088353
 23
0.2085042849
 33
0.0
 40
0.0
 40
0.0
 40
0.0
 40
0.0
 40
0.145084411
 40
0.2749838777
 40
0.3918358314
 40
0.5009156004
 40
0.6098397431
 40
0.7262475405
 40
0.855533188
 40
1.0
 40
1.0
 40
1.0
 40
1.0
 10
14.8378826631
 20
-62.4823949095
 30
0.0
 10
14.8378812605
 20
-62.5025649395
 30
0.0
 10
14.8348469599
 20
-62.5409255672
 30
0.0
 10
14.8193945513
 20
-62.5936507772
 30
0.0
 10
14.7933679011
 20
-62.6365413259
 30
0.0
 10
14.7572416274
 20
-62.6673079997
 30
0.0
 10
14.7128169638
 20
-62.6838339292
 30
0.0
 10
14.6628289503
 20
-62.685488877
 30
0.0
 10
14.6095596504
 20
-62.6730867145
 30
0.0
 10
14.5747605944
 20
-62.6570073341
 30
0.0
 10
14.5573663647
 20
-62.6469666843
 30
0.0
 11
14.8378826631
 21
-62.4823949095
 31
0.0
 11
14.8325053252
 21
-62.5426655925
 31
0.0
 11
14.8165749657
 21
-62.5944474785
 31
0.0
 11
14.7906997077
 21
-62.635746313
 31
0.0
 11
14.7558626495
 21
-62.6650047492
 31
0.0
 11
14.7133836357
 21
-62.6811078117
 31
0.0
 11
14.6648886534
 21
-62.6834182125
 31
0.0
 11
14.6122071108
 21
-62.671923796
 31
0.0
 11
14.5573663647
 21
-62.6469666843
 31
0.0
  0
SPLINE
  5
453
100
AcDbEntity
  8
RACCORDO
100
AcDbSpline
 62
7
  6
CONTINUOUS
 70
0
 71
3
 72
12
 73
8
 74
6
 42
0.0000001
 43
0.0000001
 44
0.0000000001
 12
-0.5057253526
 22
0.2920463627
 32
0.0
 13
-0.0000644726
 23
0.5839941832
 33
0.0
 40
0.0
 40
0.0
 40
0.0
 40
0.0
 40
0.2368422944
 40
0.4991924756
 40
0.7618019231
 40
0.8853942359
 40
1.0
 40
1.0
 40
1.0
 40
1.0
 10
-21.5907955017
 20
-41.7754710655
 30
0.0
 10
-21.6307212193
 20
-41.7524147553
 30
0.0
 10
-21.7063437735
 20
-41.6888786778
 30
0.0
 10
-21.7947282091
 20
-41.5685896199
 30
0.0
 10
-21.8465323267
 20
-41.4520370411
 30
0.0
 10
-21.8690381016
 20
-41.3569842289
 30
0.0
 10
-21.8735926729
 20
-41.3105939222
 30
0.0
 10
-21.8735951359
 20
-41.2882842223
 30
0.0
 11
-21.5907955017
 21
-41.7754710655
 31
0.0
 11
-21.6984938763
 21
-41.6886841575
 31
0.0
 11
-21.789959325
 21
-41.5657708697
 31
0.0
 11
-21.8513977603
 21
-41.4252527514
 31
0.0
 11
-21.8677863008
 21
-41.3549607689
 31
0.0
 11
-21.8735951359
 21
-41.2882842223
 31
0.0
  0
SPLINE
  5
454
100
AcDbEntity
  8
RACCORDO
100
AcDbSpline
 62
7
  6
CONTINUOUS
 70
0
 71
3
 72
11
 73
7
 74
5
 42
0.0000001
 43
0.0000001
 44
0.0000000001
 12
0.0000141053
 22
-0.1574089984
 32
0.0
 13
0.1363179965
 23
-0.078708302
 33
0.0
 40
0.0
 40
0.0
 40
0.0
 40
0.0
 40
0.2177586874
 40
0.4509006419
 40
0.7104563331
 40
1.0
 40
1.0
 40
1.0
 40
1.0
 10
-21.961449829
 20
-41.1631653709
 30
0.0
 10
-21.9614488052
 20
-41.1745910965
 30
0.0
 10
-21.9572536126
 20
-41.1984119882
 30
0.0
 10
-21.9391834353
 20
-41.2316054055
 30
0.0
 10
-21.910627028
 20
-41.2615899033
 30
0.0
 10
-21.8867518067
 20
-41.2780512345
 30
0.0
 10
-21.8735951359
 20
-41.2856477313
 30
0.0
 11
-21.961449829
 21
-41.1631653709
 31
0.0
 11
-21.955700371
 21
-41.1969569171
 31
0.0
 11
-21.9386338582
 21
-41.2294457527
 31
0.0
 11
-21.9108660234
 21
-41.2594156193
 31
0.0
 11
-21.8735951359
 21
-41.2856477313
 31
0.0
  0
SPLINE
  5
455
100
AcDbEntity
  8
RACCORDO
100
AcDbSpline
 62
7
  6
CONTINUOUS
 70
0
 71
3
 72
11
 73
7
 74
5
 42
0.0000001
 43
0.0000001
 44
0.0000000001
 12
0.000014108
 22
-0.157408994
 32
0.0
 13
0.1363179944
 23
-0.0787082969
 33
0.0
 40
0.0
 40
0.0
 40
0.0
 40
0.0
 40
0.2177586882
 40
0.4509006427
 40
0.7104563324
 40
1.0
 40
1.0
 40
1.0
 40
1.0
 10
-21.961449829
 20
0.5731554088
 30
0.0
 10
-21.961448805
 20
0.5617296835
 30
0.0
 10
-21.9572536121
 20
0.5379087924
 30
0.0
 10
-21.9391834346
 20
0.5047153765
 30
0.0
 10
-21.9106270275
 20
0.47473088
 30
0.0
 10
-21.8867518066
 20
0.4582695499
 30
0.0
 10
-21.8735951359
 20
0.4506730536
 30
0.0
 11
-21.961449829
 21
0.5731554088
 31
0.0
 11
-21.9557003706
 21
0.5393638635
 31
0.0
 11
-21.9386338575
 21
0.5068750291
 31
0.0
 11
-21.9108660231
 21
0.4769051642
 31
0.0
 11
-21.8735951359
 21
0.4506730536
 31
0.0
  0
SPLINE
  5
456
100
AcDbEntity
  8
RACCORDO
100
AcDbSpline
 62
7
  6
CONTINUOUS
 70
0
 71
3
 72
11
 73
7
 74
5
 42
0.0000001
 43
0.0000001
 44
0.0000000001
 12
-0.1362924929
 22
0.0787097748
 32
0.0
 13
-0.0000000006
 23
0.1573876497
 33
0.0
 40
0.0
 40
0.0
 40
0.0
 40
0.0
 40
0.2177541405
 40
0.4508937694
 40
0.7104507771
 40
1.0
 40
1.0
 40
1.0
 40
1.0
 10
14.6172144363
 20
-62.7829578693
 30
0.0
 10
14.6073216848
 20
-62.7772447428
 30
0.0
 10
14.5887930979
 20
-62.7617028253
 30
0.0
 10
14.5690860575
 20
-62.7294606523
 30
0.0
 10
14.5574000957
 20
-62.689742517
 30
0.0
 10
14.555083029
 20
-62.6608388054
 30
0.0
 10
14.5550830289
 20
-62.6456483148
 30
0.0
 11
14.6172144363
 21
-62.7829578693
 31
0.0
 11
14.5908296916
 21
-62.7610854581
 31
0.0
 11
14.5712309115
 21
-62.7300647238
 31
0.0
 11
14.5591632978
 21
-62.6910367543
 31
0.0
 11
14.5550830289
 21
-62.6456483148
 31
0.0
  0
SPLINE
  5
457
100
AcDbEntity
  8
RACCORDO
100
AcDbSpline
 62
7
  6
CONTINUOUS
 70
0
 71
3
 72
11
 73
7
 74
5
 42
0.0000001
 43
0.0000001
 44
0.0000000001
 12
-0.1362924929
 22
0.0787097779
 32
0.0
 13
-0.000000004
 23
0.1573876512
 33
0.0
 40
0.0
 40
0.0
 40
0.0
 40
0.0
 40
0.2177541423
 40
0.4508937728
 40
0.710450779
 40
1.0
 40
1.0
 40
1.0
 40
1.0
 10
-21.5286640922
 20
-41.9127806211
 30
0.0
 10
-21.5385568438
 20
-41.9070674944
 30
0.0
 10
-21.5570854308
 20
-41.8915255765
 30
0.0
 10
-21.5767924716
 20
-41.8592834031
 30
0.0
 10
-21.5884784342
 20
-41.8195652678
 30
0.0
 10
-21.5907955013
 20
-41.7906615561
 30
0.0
 10
-21.5907955017
 20
-41.7754710655
 30
0.0
 11
-21.5286640922
 21
-41.9127806211
 31
0.0
 11
-21.5550488372
 21
-41.8909082093
 31
0.0
 11
-21.5746476177
 21
-41.8598874746
 31
0.0
 11
-21.586715232
 21
-41.820859505
 31
0.0
 11
-21.5907955017
 21
-41.7754710655
 31
0.0
  0
SPLINE
  5
458
100
AcDbEntity
  8
RACCORDO
100
AcDbSpline
 62
7
  6
CONTINUOUS
 70
0
 71
3
 72
15
 73
11
 74
9
 42
0.0000001
 43
0.0000001
 44
0.0000000001
 12
0.0000238213
 22
-0.597984879
 32
0.0
 13
-0.5178420862
 23
0.2990409502
 33
0.0
 40
0.0
 40
0.0
 40
0.0
 40
0.0
 40
0.1446786948
 40
0.2748799313
 40
0.3916072275
 40
0.4999943582
 40
0.6083856293
 40
0.725122466
 40
0.8553266085
 40
1.0
 40
1.0
 40
1.0
 40
1.0
 10
13.0488153633
 20
-59.2498391647
 30
0.0
 10
13.0488165121
 20
-59.278677722
 30
0.0
 10
13.0448708716
 20
-59.3336305292
 30
0.0
 10
13.0242208473
 20
-59.409554828
 30
0.0
 10
12.9882521698
 20
-59.4717753329
 30
0.0
 10
12.9367918419
 20
-59.5161444459
 30
0.0
 10
12.8726283942
 20
-59.5385083195
 30
0.0
 10
12.8007574581
 20
-59.5385280492
 30
0.0
 10
12.7246790715
 20
-59.5184563333
 30
0.0
 10
12.6751102056
 20
-59.4944073371
 30
0.0
 10
12.6501375487
 20
-59.4799862476
 30
0.0
 11
13.0488153633
 21
-59.2498391647
 31
0.0
 11
13.0417406465
 21
-59.3360650881
 31
0.0
 11
13.0201807673
 21
-59.4108788401
 31
0.0
 11
12.9841957217
 21
-59.4706891919
 31
0.0
 11
12.9347286038
 21
-59.5125680813
 31
0.0
 11
12.873718424
 21
-59.534452232
 31
0.0
 11
12.8039226382
 21
-59.535695787
 31
0.0
 11
12.728349615
 21
-59.5169630706
 31
0.0
 11
12.6501375487
 21
-59.4799862476
 31
0.0
  0
SPLINE
  5
459
100
AcDbEntity
  8
RACCORDO
100
AcDbSpline
 62
7
  6
CONTINUOUS
 70
0
 71
3
 72
9
 73
5
 74
3
 42
0.0000001
 43
0.0000001
 44
0.0000000001
 12
0.1563813851
 22
-0.090284346
 32
0.0
 13
0.1281480412
 23
-0.1272182387
 33
0.0
 40
0.0
 40
0.0
 40
0.0
 40
0.0
 40
0.2366293495
 40
1.0
 40
1.0
 40
1.0
 40
1.0
 10
12.6501375487
 20
-21.2221295662
 30
0.0
 10
12.6624723572
 20
-21.2292508749
 30
0.0
 10
12.7134998978
 20
-21.2612342021
 30
0.0
 10
12.7600360046
 20
-21.3001942037
 30
0.0
 10
12.7926441558
 20
-21.3325657603
 30
0.0
 11
12.6501375487
 21
-21.2221295662
 31
0.0
 11
12.6863700938
 21
-21.2447779108
 31
0.0
 11
12.7926441558
 21
-21.3325657603
 31
0.0
  0
SPLINE
  5
45A
100
AcDbEntity
  8
RACCORDO
100
AcDbSpline
 62
7
  6
CONTINUOUS
 70
0
 71
3
 72
10
 73
6
 74
4
 42
0.0000001
 43
0.0000001
 44
0.0000000001
 12
0.4592582815
 22
-0.4559260458
 32
0.0
 13
0.0000021875
 23
-0.6471373334
 33
0.0
 40
0.0
 40
0.0
 40
0.0
 40
0.0
 40
0.5173571193
 40
0.7703670028
 40
1.0
 40
1.0
 40
1.0
 40
1.0
 10
12.7926441558
 20
-21.3325657603
 30
0.0
 10
12.8718443363
 20
-21.4111912888
 30
0.0
 10
12.9673477
 20
-21.5534812579
 30
0.0
 10
13.0358639288
 20
-21.7587683744
 30
0.0
 10
13.0488151959
 20
-21.8631251011
 30
0.0
 10
13.0488153633
 20
-21.9126597963
 30
0.0
 11
12.7926441558
 21
-21.3325657603
 31
0.0
 11
12.9808517148
 21
-21.6094586922
 31
0.0
 11
13.0319372257
 21
-21.7650173136
 31
0.0
 11
13.0488153633
 21
-21.9126597963
 31
0.0
  0
SPLINE
  5
45B
100
AcDbEntity
  8
RACCORDO
100
AcDbSpline
 62
7
  6
CONTINUOUS
 70
0
 71
3
 72
15
 73
11
 74
9
 42
0.0000001
 43
0.0000001
 44
0.0000000001
 12
-0.0000387078
 22
0.5979848853
 32
0.0
 13
0.5178497191
 23
-0.2990277463
 33
0.0
 40
0.0
 40
0.0
 40
0.0
 40
0.0
 40
0.1446658674
 40
0.2748627245
 40
0.391594032
 40
0.4999831839
 40
0.6083724348
 40
0.7251052566
 40
0.8553137174
 40
1.0
 40
1.0
 40
1.0
 40
1.0
 10
-20.0845278361
 20
-2.7818826912
 30
0.0
 10
-20.0845297027
 20
-2.7530466905
 30
0.0
 10
-20.0805706884
 20
-2.6980973319
 30
0.0
 10
-20.0599108915
 20
-2.6221806006
 30
0.0
 10
-20.0239542925
 20
-2.559953977
 30
0.0
 10
-19.9725006047
 20
-2.5155752289
 30
0.0
 10
-19.9083421254
 20
-2.4932009149
 30
0.0
 10
-19.8364704807
 20
-2.4931675554
 30
0.0
 10
-19.7603903995
 20
-2.5132514974
 30
0.0
 10
-19.7108252718
 20
-2.5373138706
 30
0.0
 10
-19.6858500215
 20
-2.5517356083
 30
0.0
 11
-20.0845278361
 21
-2.7818826912
 31
0.0
 11
-20.0774419405
 21
-2.6956653812
 31
0.0
 11
-20.0558753142
 21
-2.6208562984
 31
0.0
 11
-20.0198970272
 21
-2.5610390807
 31
0.0
 11
-19.9704361683
 21
-2.5191509278
 31
0.0
 11
-19.9094308602
 21
-2.497256774
 31
0.0
 11
-19.8396376418
 21
-2.4960038808
 31
0.0
 11
-19.7640639777
 21
-2.5147447466
 31
0.0
 11
-19.6858500215
 21
-2.5517356083
 31
0.0
  0
SPLINE
  5
45C
100
AcDbEntity
  8
RACCORDO
100
AcDbSpline
 62
7
  6
CONTINUOUS
 70
0
 71
3
 72
11
 73
7
 74
5
 42
0.0000001
 43
0.0000001
 44
0.0000000001
 12
-0.7171285941
 22
0.4140697132
 32
0.0
 13
0.0000544718
 23
0.8280864356
 33
0.0
 40
0.0
 40
0.0
 40
0.0
 40
0.0
 40
0.2369489663
 40
0.5000027919
 40
0.7630483128
 40
1.0
 40
1.0
 40
1.0
 40
1.0
 10
-19.6858500215
 20
-40.8095922897
 30
0.0
 10
-19.7424909812
 20
-40.7768878262
 30
0.0
 10
-19.8510359802
 20
-40.6883184252
 30
0.0
 10
-19.9777390139
 20
-40.5177608361
 30
0.0
 10
-20.0620677963
 20
-40.3227500154
 30
0.0
 10
-20.0845321385
 20
-40.1844675523
 30
0.0
 10
-20.0845278361
 20
-40.1190620596
 30
0.0
 11
-19.6858500215
 21
-40.8095922897
 31
0.0
 11
-19.8396376463
 21
-40.6877342219
 31
0.0
 11
-19.9704361608
 21
-40.5135440208
 31
0.0
 11
-20.0558752905
 21
-40.313175269
 31
0.0
 11
-20.0845278361
 21
-40.1190620596
 31
0.0
  0
SPLINE
  5
45D
100
AcDbEntity
  8
CURVE
100
AcDbSpline
 62
7
  6
CONTINUOUS
 70
0
 71
3
 72
25
 73
21
 74
19
 42
0.0000001
 43
0.0000001
 44
0.0000000001
 12
0.5420671437
 22
-0.0842517062
 32
0.0
 13
0.5668876432
 23
-0.564262818
 33
0.0
 40
0.0
 40
0.0
 40
0.0
 40
0.0
 40
0.125
 40
0.15625
 40
0.1875
 40
0.25
 40
0.3125
 40
0.34375
 40
0.375
 40
0.4375
 40
0.46875
 40
0.5
 40
0.53125
 40
0.5625
 40
0.625
 40
0.6875
 40
0.75
 40
0.8125
 40
0.875
 40
1.0
 40
1.0
 40
1.0
 40
1.0
 10
2.0991683469
 20
-50.0462879844
 30
0.0
 10
2.1217544779
 20
-50.0497984721
 30
0.0
 10
2.1502208243
 20
-50.054860828
 30
0.0
 10
2.1836793919
 20
-50.0589129165
 30
0.0
 10
2.207480673
 20
-50.0659294845
 30
0.0
 10
2.2377799325
 20
-50.0763756123
 30
0.0
 10
2.2678237322
 20
-50.0857353885
 30
0.0
 10
2.2920337489
 20
-50.0944901189
 30
0.0
 10
2.3167266796
 20
-50.1074763424
 30
0.0
 10
2.3412825117
 20
-50.1190968481
 30
0.0
 10
2.365887454
 20
-50.1316408873
 30
0.0
 10
2.3843309289
 20
-50.1396440341
 30
0.0
 10
2.4027907758
 20
-50.1528049443
 30
0.0
 10
2.4273930515
 20
-50.16859159
 30
0.0
 10
2.4581863672
 20
-50.1886397476
 30
0.0
 10
2.4949603652
 20
-50.2138281061
 30
0.0
 10
2.5309760621
 20
-50.2449866746
 30
0.0
 10
2.5673920026
 20
-50.2731263304
 30
0.0
 10
2.6148230253
 20
-50.3187864588
 30
0.0
 10
2.6501821083
 20
-50.3545635498
 30
0.0
 10
2.6738024268
 20
-50.3780745006
 30
0.0
 11
2.0991683469
 21
-50.0462879844
 31
0.0
 11
2.1669267398
 21
-50.0568194476
 31
0.0
 11
2.1838663381
 21
-50.0594523135
 31
0.0
 11
2.2015668633
 21
-50.064287037
 31
0.0
 11
2.2377288405
 21
-50.076158342
 31
0.0
 11
2.2738908178
 21
-50.0880296469
 31
0.0
 11
2.2920941132
 21
-50.0950190556
 31
0.0
 11
2.310542022
 21
-50.1041159767
 31
0.0
 11
2.3474378398
 21
-50.122309819
 31
0.0
 11
2.3658857487
 21
-50.1314067402
 31
0.0
 11
2.3843336575
 21
-50.1405036613
 31
0.0
 11
2.4027894191
 21
-50.15258479
 31
0.0
 11
2.4212451807
 21
-50.1646659186
 31
0.0
 11
2.4581567038
 21
-50.1888281758
 31
0.0
 11
2.4948339817
 21
-50.2148231411
 31
0.0
 11
2.5310427694
 21
-50.2444835225
 31
0.0
 11
2.567251557
 21
-50.2741439038
 31
0.0
 11
2.6029414714
 21
-50.3075416483
 31
0.0
 11
2.6738024268
 21
-50.3780745006
 31
0.0
  0
SPLINE
  5
45E
100
AcDbEntity
  8
CURVE
100
AcDbSpline
 62
7
  6
CONTINUOUS
 70
0
 71
3
 72
9
 73
5
 74
3
 42
0.0000001
 43
0.0000001
 44
0.0000000001
 12
0.1109448157
 22
-0.3810872329
 32
0.0
 13
0.0103475798
 23
-0.3479090121
 33
0.0
 40
0.0
 40
0.0
 40
0.0
 40
0.0
 40
0.5
 40
1.0
 40
1.0
 40
1.0
 40
1.0
 10
-17.1908067258
 20
-24.1360618582
 30
0.0
 10
-17.1723159232
 20
-24.199576397
 30
0.0
 10
-17.138388996
 20
-24.3270072302
 30
0.0
 10
-17.1313863709
 20
-24.4455017707
 30
0.0
 10
-17.1296617742
 20
-24.5034866061
 30
0.0
 11
-17.1908067258
 21
-24.1360618582
 31
0.0
 11
-17.1451200715
 21
-24.324773157
 31
0.0
 11
-17.1296617742
 21
-24.5034866061
 31
0.0
  0
SPLINE
  5
45F
100
AcDbEntity
  8
CURVE
100
AcDbSpline
 62
7
  6
CONTINUOUS
 70
0
 71
3
 72
9
 73
5
 74
3
 42
0.0000001
 43
0.0000001
 44
0.0000000001
 12
-0.0103348595
 22
-0.3357573062
 32
0.0
 13
-0.1110071496
 23
-0.2531326964
 33
0.0
 40
0.0
 40
0.0
 40
0.0
 40
0.0
 40
0.5
 40
1.0
 40
1.0
 40
1.0
 40
1.0
 10
-17.1296617742
 20
-24.5034866151
 30
0.0
 10
-17.1313842508
 20
-24.5594461661
 30
0.0
 10
-17.138382617
 20
-24.669857057
 30
0.0
 10
-17.172305531
 20
-24.7581139254
 30
0.0
 10
-17.1908067226
 20
-24.8003027082
 30
0.0
 11
-17.1296617742
 21
-24.5034866151
 31
0.0
 11
-17.145113754
 21
-24.6643185514
 31
0.0
 11
-17.1908067226
 21
-24.8003027082
 31
0.0
  0
SPLINE
  5
460
100
AcDbEntity
  8
RACCORDO
100
AcDbSpline
 62
7
  6
CONTINUOUS
 70
0
 71
3
 72
9
 73
5
 74
3
 42
0.0000001
 43
0.0000001
 44
0.0000000001
 12
-0.1258022839
 22
-0.0751721723
 32
0.0
 13
-0.1037487076
 23
-0.1035049555
 33
0.0
 40
0.0
 40
0.0
 40
0.0
 40
0.0
 40
0.2375582814
 40
1.0
 40
1.0
 40
1.0
 40
1.0
 10
-18.0241001381
 20
18.3346611024
 30
0.0
 10
-18.0340619295
 20
18.3287085117
 30
0.0
 10
-18.0750902903
 20
18.3021427124
 30
0.0
 10
-18.1124847143
 20
18.2701528056
 30
0.0
 10
-18.1388521619
 20
18.2438473069
 30
0.0
 11
-18.0241001381
 21
18.3346611024
 31
0.0
 11
-18.0533501059
 21
18.3157805567
 31
0.0
 11
-18.1388521619
 21
18.2438473069
 31
0.0
  0
SPLINE
  5
461
100
AcDbEntity
  8
RACCORDO
100
AcDbSpline
 62
7
  6
CONTINUOUS
 70
0
 71
3
 72
9
 73
5
 74
3
 42
0.0000001
 43
0.0000001
 44
0.0000000001
 12
-0.1440896835
 22
-0.0602425756
 32
0.0
 13
-0.1252946643
 23
-0.0932322471
 33
0.0
 40
0.0
 40
0.0
 40
0.0
 40
0.0
 40
0.2409283394
 40
1.0
 40
1.0
 40
1.0
 40
1.0
 10
-18.0340154362
 20
18.343672597
 30
0.0
 10
-18.0455871989
 20
18.3388345491
 30
0.0
 10
-18.0929228795
 20
18.317108723
 30
0.0
 10
-18.1373713918
 20
18.2892791867
 30
0.0
 10
-18.1690739347
 20
18.2656892012
 30
0.0
 11
-18.0340154362
 21
18.343672597
 31
0.0
 11
-18.0682286228
 21
18.3280115159
 31
0.0
 11
-18.1690739347
 21
18.2656892012
 31
0.0
  0
SPLINE
  5
462
100
AcDbEntity
  8
RACCORDO
100
AcDbSpline
 62
7
  6
CONTINUOUS
 70
0
 71
3
 72
9
 73
5
 74
3
 42
0.0000001
 43
0.0000001
 44
0.0000000001
 12
-0.1242085342
 22
-0.0946731593
 32
0.0
 13
-0.1433862242
 23
-0.0618963471
 33
0.0
 40
0.0
 40
0.0
 40
0.0
 40
0.0
 40
0.2409316862
 40
1.0
 40
1.0
 40
1.0
 40
1.0
 10
-18.2333542709
 20
18.6889370121
 30
0.0
 10
-18.2433295281
 20
18.6813337574
 30
0.0
 10
-18.2858100786
 20
18.6511998087
 30
0.0
 10
-18.3321340619
 20
18.6266186895
 30
0.0
 10
-18.3684140417
 20
18.6109575043
 30
0.0
 11
-18.2333542709
 21
18.6889370121
 31
0.0
 11
-18.2640224533
 21
18.6671356423
 31
0.0
 11
-18.3684140417
 21
18.6109575043
 31
0.0
  0
SPLINE
  5
463
100
AcDbEntity
  8
RACCORDO
100
AcDbSpline
 62
7
  6
CONTINUOUS
 70
0
 71
3
 72
9
 73
5
 74
3
 42
0.0000001
 43
0.0000001
 44
0.0000000001
 12
-0.1279979641
 22
-0.071367648
 32
0.0
 13
-0.1415101583
 23
-0.0381011166
 33
0.0
 40
0.0
 40
0.0
 40
0.0
 40
0.0
 40
0.2375585064
 40
1.0
 40
1.0
 40
1.0
 40
1.0
 10
-18.2361998637
 20
18.7020286031
 30
0.0
 10
-18.2463355321
 20
18.6963772725
 30
0.0
 10
-18.2898550887
 20
18.6741266826
 30
0.0
 10
-18.3362555117
 20
18.6577354102
 30
0.0
 10
-18.3722199172
 20
18.6480521194
 30
0.0
 11
-18.2361998637
 21
18.7020286031
 31
0.0
 11
-18.2671749928
 21
18.6861363037
 31
0.0
 11
-18.3722199172
 21
18.6480521194
 31
0.0
  0
SPLINE
  5
464
100
AcDbEntity
  8
RACCORDO
100
AcDbSpline
 62
7
  6
CONTINUOUS
 70
0
 71
3
 72
15
 73
11
 74
9
 42
0.0000001
 43
0.0000001
 44
0.0000000001
 12
0.0000290007
 22
0.4170681613
 32
0.0
 13
0.3612088276
 23
-0.2085042804
 33
0.0
 40
0.0
 40
0.0
 40
0.0
 40
0.0
 40
0.1450844117
 40
0.2749838793
 40
0.3918358339
 40
0.5009156036
 40
0.6098397464
 40
0.7262475433
 40
0.8555331895
 40
1.0
 40
1.0
 40
1.0
 40
1.0
 10
-21.8735951359
 20
58.4200627059
 30
0.0
 10
-21.8735937334
 20
58.4402327355
 30
0.0
 10
-21.8705594328
 20
58.4785933627
 30
0.0
 10
-21.8551070247
 20
58.5313185719
 30
0.0
 10
-21.8290803755
 20
58.5742091203
 30
0.0
 10
-21.7929541031
 20
58.6049757943
 30
0.0
 10
-21.7485294409
 20
58.6215017248
 30
0.0
 10
-21.6985414287
 20
58.6231566738
 30
0.0
 10
-21.6452721301
 20
58.6107545132
 30
0.0
 10
-21.6104730744
 20
58.5946751347
 30
0.0
 10
-21.5930788454
 20
58.5846344852
 30
0.0
 11
-21.8735951359
 21
58.4200627059
 31
0.0
 11
-21.8682177982
 21
58.4803333879
 31
0.0
 11
-21.8522874393
 21
58.5321152733
 31
0.0
 11
-21.8264121822
 21
58.5734141075
 31
0.0
 11
-21.791575125
 21
58.602672544
 31
0.0
 11
-21.7490961125
 21
58.6187756073
 31
0.0
 11
-21.7006011316
 21
58.6210860093
 31
0.0
 11
-21.6479195903
 21
58.6095915947
 31
0.0
 11
-21.5930788454
 21
58.5846344852
 31
0.0
  0
SPLINE
  5
465
100
AcDbEntity
  8
RACCORDO
100
AcDbSpline
 62
7
  6
CONTINUOUS
 70
0
 71
3
 72
9
 73
5
 74
3
 42
0.0000001
 43
0.0000001
 44
0.0000000001
 12
-0.0290535392
 22
-0.0551073363
 32
0.0
 13
-0.0539576766
 23
-0.0311367274
 33
0.0
 40
0.0
 40
0.0
 40
0.0
 40
0.0
 40
0.277017043
 40
1.0
 40
1.0
 40
1.0
 40
1.0
 10
12.9573329975
 20
-1.1993373677
 30
0.0
 10
12.9546502224
 20
-1.2044259248
 30
0.0
 10
12.944169422
 20
-1.2222759621
 30
0.0
 10
12.9294143742
 20
-1.2382573726
 30
0.0
 10
12.9164108807
 20
-1.245761147
 30
0.0
 11
12.9573329975
 21
-1.1993373677
 31
0.0
 11
12.9485155026
 21
-1.2141720584
 31
0.0
 11
12.9164108807
 21
-1.245761147
 31
0.0
  0
SPLINE
  5
466
100
AcDbEntity
  8
RACCORDO
100
AcDbSpline
 62
7
  6
CONTINUOUS
 70
0
 71
3
 72
11
 73
7
 74
5
 42
0.0000001
 43
0.0000001
 44
0.0000000001
 12
-0.1261722059
 22
-0.072808724
 32
0.0
 13
-0.0964136199
 23
0.1092014182
 33
0.0
 40
0.0
 40
0.0
 40
0.0
 40
0.0
 40
0.2220361667
 40
0.4505038999
 40
0.7087907003
 40
1.0
 40
1.0
 40
1.0
 40
1.0
 10
12.9164108807
 20
-1.245761147
 30
0.0
 10
12.9070726164
 20
-1.2511498703
 30
0.0
 10
12.885008889
 20
-1.2576496999
 30
0.0
 10
12.8504188143
 20
-1.2497524463
 30
0.0
 10
12.8181801732
 20
-1.2292759493
 30
0.0
 10
12.7990742441
 20
-1.2104357726
 30
0.0
 10
12.7897153966
 20
-1.1998356164
 30
0.0
 11
12.9164108807
 21
-1.245761147
 31
0.0
 11
12.8853429346
 21
-1.2547587244
 31
0.0
 11
12.8526634755
 21
-1.2484569804
 31
0.0
 11
12.8203542343
 21
-1.2291754131
 31
0.0
 11
12.7897153966
 21
-1.1998356164
 31
0.0
  0
SPLINE
  5
467
100
AcDbEntity
  8
RACCORDO
100
AcDbSpline
 62
7
  6
CONTINUOUS
 70
0
 71
3
 72
11
 73
7
 74
5
 42
0.0000001
 43
0.0000001
 44
0.0000000001
 12
-0.1363190161
 22
0.0787088914
 32
0.0
 13
-0.0000316866
 23
0.1574101736
 33
0.0
 40
0.0
 40
0.0
 40
0.0
 40
0.0
 40
0.2895817376
 40
0.5491318165
 40
0.7822802582
 40
1.0
 40
1.0
 40
1.0
 40
1.0
 10
13.0488153633
 20
36.056729856
 30
0.0
 10
13.0356568641
 20
36.0643274086
 30
0.0
 10
13.0117778217
 20
36.0807868625
 30
0.0
 10
12.9832247471
 20
36.1107794419
 30
0.0
 10
12.9651614632
 20
36.1439717907
 30
0.0
 10
12.9609521768
 20
36.1677884668
 30
0.0
 10
12.9609498772
 20
36.1792122342
 30
0.0
 11
13.0488153633
 21
36.056729856
 31
0.0
 11
13.0115386104
 21
36.0829646391
 31
0.0
 11
12.9837751675
 21
36.1129377867
 31
0.0
 11
12.9667090711
 21
36.1454283046
 31
0.0
 11
12.9609498772
 21
36.1792122342
 31
0.0
  0
SPLINE
  5
468
100
AcDbEntity
  8
RACCORDO
100
AcDbSpline
 62
7
  6
CONTINUOUS
 70
0
 71
3
 72
11
 73
7
 74
5
 42
0.0000001
 43
0.0000001
 44
0.0000000001
 12
-0.0000000517
 22
-0.1573888098
 32
0.0
 13
0.1362846782
 23
-0.0787256244
 33
0.0
 40
0.0
 40
0.0
 40
0.0
 40
0.0
 40
0.2895872683
 40
0.5491386409
 40
0.7822847649
 40
1.0
 40
1.0
 40
1.0
 40
1.0
 10
12.6501375487
 20
36.7472600861
 30
0.0
 10
12.6501375437
 20
36.7320674876
 30
0.0
 10
12.6524510658
 20
36.7031614108
 30
0.0
 10
12.6641456822
 20
36.6634421246
 30
0.0
 10
12.6838552441
 20
36.6312064568
 30
0.0
 10
12.702373135
 20
36.6156544461
 30
0.0
 10
12.7122635519
 20
36.6099411902
 30
0.0
 11
12.6501375487
 21
36.7472600861
 31
0.0
 11
12.6542171842
 21
36.7018652404
 31
0.0
 11
12.6662898258
 21
36.6628394391
 31
0.0
 11
12.6858902693
 21
36.6318182266
 31
0.0
 11
12.7122635519
 21
36.6099411902
 31
0.0
  0
SPLINE
  5
469
100
AcDbEntity
  8
RACCORDO
100
AcDbSpline
 62
7
  6
CONTINUOUS
 70
0
 71
3
 72
11
 73
7
 74
5
 42
0.0000001
 43
0.0000001
 44
0.0000000001
 12
0.0
 22
-0.157342478
 32
0.0
 13
0.1362077173
 23
-0.0787661927
 33
0.0
 40
0.0
 40
0.0
 40
0.0
 40
0.0
 40
0.2895781872
 40
0.5491322113
 40
0.7822857584
 40
1.0
 40
1.0
 40
1.0
 40
1.0
 10
-19.6858500215
 20
55.417654044
 30
0.0
 10
-19.6858500215
 20
55.4024663942
 30
0.0
 10
-19.6835379122
 20
55.3735692514
 30
0.0
 10
-19.6718512387
 20
55.3338606219
 30
0.0
 10
-19.6521553108
 20
55.3016297507
 30
0.0
 10
-19.6336493741
 20
55.2860747698
 30
0.0
 10
-19.6237645875
 20
55.2803585959
 30
0.0
 11
-19.6858500215
 21
55.417654044
 31
0.0
 11
-19.6817731707
 21
55.3722738539
 31
0.0
 11
-19.6697087167
 21
55.333257671
 31
0.0
 11
-19.6501211853
 21
55.3022396977
 31
0.0
 11
-19.6237645875
 21
55.2803585959
 31
0.0
  0
SPLINE
  5
46A
100
AcDbEntity
  8
RACCORDO
100
AcDbSpline
 62
7
  6
CONTINUOUS
 70
0
 71
3
 72
10
 73
6
 74
4
 42
0.0000001
 43
0.0000001
 44
0.0000000001
 12
0.3008557635
 22
-0.1737074046
 32
0.0
 13
0.335457116
 23
0.0903159797
 33
0.0
 40
0.0
 40
0.0
 40
0.0
 40
0.0
 40
0.2300845876
 40
0.483607702
 40
1.0
 40
1.0
 40
1.0
 40
1.0
 10
-20.0845278361
 20
55.1875069611
 30
0.0
 10
-20.0614537447
 20
55.1741844956
 30
0.0
 10
-20.0089918924
 20
55.1528430876
 30
0.0
 10
-19.894901584
 20
55.1312565755
 30
0.0
 10
-19.8033528136
 20
55.1374559531
 30
0.0
 10
-19.7456103233
 20
55.1530021118
 30
0.0
 11
-20.0845278361
 21
55.1875069611
 31
0.0
 11
-20.0109203865
 21
55.156345135
 31
0.0
 11
-19.9244902563
 21
55.1394052844
 31
0.0
 11
-19.7456103233
 21
55.1530021118
 31
0.0
  0
SPLINE
  5
46B
100
AcDbEntity
  8
RACCORDO
100
AcDbSpline
 62
7
  6
CONTINUOUS
 70
0
 71
3
 72
10
 73
6
 74
4
 42
0.0000001
 43
0.0000001
 44
0.0000000001
 12
0.3008547198
 22
-0.1737097446
 32
0.0
 13
0.3354567303
 23
0.0903184363
 33
0.0
 40
0.0
 40
0.0
 40
0.0
 40
0.0
 40
0.2300849491
 40
0.4836079614
 40
1.0
 40
1.0
 40
1.0
 40
1.0
 10
-20.0845278361
 20
17.8503275926
 30
0.0
 10
-20.0614537885
 20
17.8370049267
 30
0.0
 10
-20.0089919665
 20
17.8156631951
 30
0.0
 10
-19.8949015948
 20
17.794076453
 30
0.0
 10
-19.8033527182
 20
17.8002761696
 30
0.0
 10
-19.7456103233
 20
17.8158227434
 30
0.0
 11
-20.0845278361
 21
17.8503275926
 31
0.0
 11
-20.0109203857
 21
17.8191652892
 31
0.0
 11
-19.9244902551
 21
17.8022252744
 31
0.0
 11
-19.7456103233
 21
17.8158227434
 31
0.0
  0
SPLINE
  5
46C
100
AcDbEntity
  8
RACCORDO
100
AcDbSpline
 62
7
  6
CONTINUOUS
 70
0
 71
3
 72
10
 73
6
 74
4
 42
0.0000001
 43
0.0000001
 44
0.0000000001
 12
0.0000001141
 22
0.3473993299
 32
0.0
 13
0.2459370819
 23
0.2453594223
 33
0.0
 40
0.0
 40
0.0
 40
0.0
 40
0.0
 40
0.2300791698
 40
0.4836010627
 40
1.0
 40
1.0
 40
1.0
 40
1.0
 10
-19.6858500215
 20
17.1597973626
 30
0.0
 10
-19.6858500127
 20
17.186440479
 30
0.0
 10
-19.6781001633
 20
17.2425430095
 30
0.0
 10
-19.6397481085
 20
17.3521397624
 30
0.0
 10
-19.5886052985
 20
17.42832318
 30
0.0
 10
-19.5462714159
 20
17.4705576283
 30
0.0
 11
-19.6858500215
 21
17.1597973626
 31
0.0
 11
-19.6760318857
 21
17.2391214138
 31
0.0
 11
-19.647486352
 21
17.3224404691
 31
0.0
 11
-19.5462714159
 21
17.4705576283
 31
0.0
  0
SPLINE
  5
46D
100
AcDbEntity
  8
RACCORDO
100
AcDbSpline
 62
7
  6
CONTINUOUS
 70
0
 71
3
 72
10
 73
6
 74
4
 42
0.0000001
 43
0.0000001
 44
0.0000000001
 12
0.0
 22
0.3473993418
 32
0.0
 13
0.2459371687
 23
0.2453593523
 33
0.0
 40
0.0
 40
0.0
 40
0.0
 40
0.0
 40
0.2300791865
 40
0.4836010752
 40
1.0
 40
1.0
 40
1.0
 40
1.0
 10
12.6501375487
 20
-1.5105965954
 30
0.0
 10
12.6501375487
 20
-1.483953476
 30
0.0
 10
12.6578873849
 20
-1.4278509394
 30
0.0
 10
12.6962394322
 20
-1.3182541789
 30
0.0
 10
12.7473822578
 20
-1.2420707648
 30
0.0
 10
12.7897161543
 20
-1.1998363296
 30
0.0
 11
12.6501375487
 21
-1.5105965954
 31
0.0
 11
12.6599556661
 21
-1.4312725332
 31
0.0
 11
12.6885011934
 21
-1.3479534742
 31
0.0
 11
12.7897161543
 21
-1.1998363296
 31
0.0
  0
SPLINE
  5
46E
100
AcDbEntity
  8
RACCORDO
100
AcDbSpline
 62
7
  6
CONTINUOUS
 70
0
 71
3
 72
11
 73
7
 74
5
 42
0.0000001
 43
0.0000001
 44
0.0000000001
 12
-0.1363070506
 22
0.0787020424
 32
0.0
 13
-0.0000536147
 23
0.1573963806
 33
0.0
 40
0.0
 40
0.0
 40
0.0
 40
0.0
 40
0.2895790523
 40
0.5491299326
 40
0.7822805821
 40
1.0
 40
1.0
 40
1.0
 40
1.0
 10
13.0488153633
 20
-1.2804495124
 30
0.0
 10
13.0356581412
 20
-1.2728526915
 30
0.0
 10
13.0117811928
 20
-1.2563949258
 30
0.0
 10
12.983229684
 20
-1.2264059758
 30
0.0
 10
12.9651656061
 20
-1.1932178562
 30
0.0
 10
12.9609537719
 20
-1.1694038208
 30
0.0
 10
12.960949881
 20
-1.1579810713
 30
0.0
 11
13.0488153633
 21
-1.2804495124
 31
0.0
 11
13.0115419755
 21
-1.2542176194
 31
0.0
 11
12.9837797937
 21
-1.2242480094
 31
0.0
 11
12.9667126091
 21
-1.1917613015
 31
0.0
 11
12.960949881
 21
-1.1579810713
 31
0.0
  0
SPLINE
  5
46F
100
AcDbEntity
  8
RACCORDO
100
AcDbSpline
 62
7
  6
CONTINUOUS
 70
0
 71
3
 72
12
 73
8
 74
6
 42
0.0000001
 43
0.0000001
 44
0.0000000001
 12
0.5057253542
 22
-0.2920463637
 32
0.0
 13
0.0000644726
 23
-0.5839941852
 33
0.0
 40
0.0
 40
0.0
 40
0.0
 40
0.0
 40
0.2368422946
 40
0.499192476
 40
0.7618019235
 40
0.8853942361
 40
1.0
 40
1.0
 40
1.0
 40
1.0
 10
14.5550830289
 20
37.7131388619
 30
0.0
 10
14.5950087467
 20
37.6900825516
 30
0.0
 10
14.6706313011
 20
37.6265464737
 30
0.0
 10
14.7590157369
 20
37.5062574153
 30
0.0
 10
14.8108198544
 20
37.389704836
 30
0.0
 10
14.8333256292
 20
37.2946520234
 30
0.0
 10
14.8378802001
 20
37.2482617166
 30
0.0
 10
14.8378826631
 20
37.2259520167
 30
0.0
 11
14.5550830289
 21
37.7131388619
 31
0.0
 11
14.6627814039
 21
37.6263519534
 31
0.0
 11
14.7542468528
 21
37.5034386651
 31
0.0
 11
14.815685288
 21
37.3629205462
 31
0.0
 11
14.8320738282
 21
37.2926285634
 31
0.0
 11
14.8378826631
 21
37.2259520167
 31
0.0
  0
SPLINE
  5
470
100
AcDbEntity
  8
RACCORDO
100
AcDbSpline
 62
7
  6
CONTINUOUS
 70
0
 71
3
 72
13
 73
9
 74
7
 42
0.0000001
 43
0.0000001
 44
0.0000000001
 12
-0.0662090449
 22
0.1972123061
 32
0.0
 13
0.2078764784
 23
-0.0079812929
 33
0.0
 40
0.0
 40
0.0
 40
0.0
 40
0.0
 40
0.279534151
 40
0.5136620017
 40
0.6222252232
 40
0.7348380503
 40
0.8596282997
 40
1.0
 40
1.0
 40
1.0
 40
1.0
 10
-19.7456100618
 20
55.1530010026
 30
0.0
 10
-19.7517792915
 20
55.1713768608
 30
0.0
 10
-19.7602951881
 20
55.2062246094
 30
0.0
 10
-19.7547896491
 20
55.2512382346
 30
0.0
 10
-19.7356991824
 20
55.2772683031
 30
0.0
 10
-19.7151830068
 20
55.2905897801
 30
0.0
 10
-19.6896019038
 20
55.2975204325
 30
0.0
 10
-19.6711046021
 20
55.2982698507
 30
0.0
 10
-19.6613779438
 20
55.2978964015
 30
0.0
 11
-19.7456100618
 21
55.1530010026
 31
0.0
 11
-19.7571799704
 21
55.2099897844
 31
0.0
 11
-19.748387109
 21
55.2578950502
 31
0.0
 11
-19.734943263
 21
55.2760421348
 31
0.0
 11
-19.7154556727
 21
55.2890440217
 31
0.0
 11
-19.6905370058
 21
55.2963231227
 31
0.0
 11
-19.6613779438
 21
55.2978964015
 31
0.0
  0
SPLINE
  5
471
100
AcDbEntity
  8
RACCORDO
100
AcDbSpline
 62
7
  6
CONTINUOUS
 70
0
 71
3
 72
11
 73
7
 74
5
 42
0.0000001
 43
0.0000001
 44
0.0000000001
 12
-0.4310685118
 22
0.1088707109
 32
0.0
 13
0.1215914924
 23
0.4276545364
 33
0.0
 40
0.0
 40
0.0
 40
0.0
 40
0.0
 40
0.2417492733
 40
0.5000082522
 40
0.7582667077
 40
1.0
 40
1.0
 40
1.0
 40
1.0
 10
-19.5462810437
 20
17.4705607899
 30
0.0
 10
-19.5810178768
 20
17.4793339283
 30
0.0
 10
-19.6505939719
 20
17.5098666802
 30
0.0
 10
-19.7297179967
 20
17.5948347077
 30
0.0
 10
-19.763683001
 20
17.7058314553
 30
0.0
 10
-19.7554076551
 20
17.7813644383
 30
0.0
 10
-19.7456100845
 20
17.8158238846
 30
0.0
 11
-19.5462810437
 21
17.4705607899
 31
0.0
 11
-19.6442289445
 21
17.5148185412
 31
0.0
 11
-19.7220277826
 21
17.5992677459
 31
0.0
 11
-19.7562400033
 21
17.7088752179
 31
0.0
 11
-19.7456100845
 21
17.8158238846
 31
0.0
  0
SPLINE
  5
472
100
AcDbEntity
  8
RACCORDO
100
AcDbSpline
 62
7
  6
CONTINUOUS
 70
0
 71
3
 72
9
 73
5
 74
3
 42
0.0000001
 43
0.0000001
 44
0.0000000001
 12
-0.0245012758
 22
-0.4136068379
 32
0.0
 13
0.370913549
 23
-0.1846457907
 33
0.0
 40
0.0
 40
0.0
 40
0.0
 40
0.0
 40
0.4999981152
 40
1.0
 40
1.0
 40
1.0
 40
1.0
 10
-18.3684141772
 20
18.6109302686
 30
0.0
 10
-18.3724977078
 20
18.5419960554
 30
0.0
 10
-18.3335634165
 20
18.4009398361
 30
0.0
 10
-18.2308943482
 20
18.2964668726
 30
0.0
 10
-18.1690751904
 20
18.2656924581
 30
0.0
 11
-18.3684141772
 21
18.6109302686
 31
0.0
 11
-18.3176299891
 21
18.4100861128
 31
0.0
 11
-18.1690751904
 21
18.2656924581
 31
0.0
  0
SPLINE
  5
473
100
AcDbEntity
  8
RACCORDO
100
AcDbSpline
 62
7
  6
CONTINUOUS
 70
0
 71
3
 72
10
 73
6
 74
4
 42
0.0000001
 43
0.0000001
 44
0.0000000001
 12
0.1828507333
 22
-0.3543641519
 32
0.0
 13
0.2144009064
 23
-0.336215101
 33
0.0
 40
0.0
 40
0.0
 40
0.0
 40
0.0
 40
0.2273651443
 40
0.5000028679
 40
1.0
 40
1.0
 40
1.0
 40
1.0
 10
-18.2333543669
 20
18.688937063
 30
0.0
 10
-18.2194964058
 20
18.6620803775
 30
0.0
 10
-18.1877060075
 20
18.6037025039
 30
0.0
 10
-18.122313733
 20
18.4879888997
 30
0.0
 10
-18.069748739
 20
18.3997074767
 30
0.0
 10
-18.0340154596
 20
18.343671948
 30
0.0
 11
-18.2333543669
 21
18.688937063
 31
0.0
 11
-18.1903971326
 21
18.6090959845
 31
0.0
 11
-18.1369271902
 21
18.5144372998
 31
0.0
 11
-18.0340154596
 21
18.343671948
 31
0.0
  0
SPLINE
  5
474
100
AcDbEntity
  8
RACCORDO
100
AcDbSpline
 62
7
  6
CONTINUOUS
 70
0
 71
3
 72
9
 73
5
 74
3
 42
0.0000001
 43
0.0000001
 44
0.0000000001
 12
0.0072132972
 22
-0.0113899437
 32
0.0
 13
0.0118511912
 23
-0.0064274211
 33
0.0
 40
0.0
 40
0.0
 40
0.0
 40
0.0
 40
0.2343894242
 40
1.0
 40
1.0
 40
1.0
 40
1.0
 10
-18.0340154596
 20
18.343671948
 30
0.0
 10
-18.0334518861
 20
18.3427820538
 30
0.0
 10
-18.030796097
 20
18.3391444994
 30
0.0
 10
-18.0271246038
 20
18.336301403
 30
0.0
 10
-18.0241001381
 20
18.3346611024
 30
0.0
 11
-18.0340154596
 21
18.343671948
 31
0.0
 11
-18.0321511072
 21
18.3411204915
 31
0.0
 11
-18.0241001381
 21
18.3346611024
 31
0.0
  0
SPLINE
  5
475
100
AcDbEntity
  8
RACCORDO
100
AcDbSpline
 62
7
  6
CONTINUOUS
 70
0
 71
3
 72
9
 73
5
 74
3
 42
0.0000001
 43
0.0000001
 44
0.0000000001
 12
-0.0003312793
 22
-0.013472688
 32
0.0
 13
0.0061959411
 23
-0.011968015
 33
0.0
 40
0.0
 40
0.0
 40
0.0
 40
0.0
 40
0.2685733876
 40
1.0
 40
1.0
 40
1.0
 40
1.0
 10
-18.2361998637
 20
18.7020286031
 30
0.0
 10
-18.2362295213
 20
18.7008224679
 30
0.0
 10
-18.2360885363
 20
18.6963315853
 30
0.0
 10
-18.2348649923
 20
18.6918549712
 30
0.0
 10
-18.2333543669
 20
18.688937063
 30
0.0
 11
-18.2361998637
 21
18.7020286031
 31
0.0
 11
-18.2360757049
 21
18.698411234
 31
0.0
 11
-18.2333543669
 21
18.688937063
 31
0.0
  0
SPLINE
  5
476
100
AcDbEntity
  8
RACCORDO
100
AcDbSpline
 62
7
  6
CONTINUOUS
 70
0
 71
3
 72
11
 73
7
 74
5
 42
0.0000001
 43
0.0000001
 44
0.0000000001
 12
0.3303340714
 22
0.1779756193
 32
0.0
 13
0.0024728007
 23
0.3752196757
 33
0.0
 40
0.0
 40
0.0
 40
0.0
 40
0.0
 40
0.2174002984
 40
0.4501302195
 40
0.7094857245
 40
1.0
 40
1.0
 40
1.0
 40
1.0
 10
15.1059162449
 20
-4.8396950294
 30
0.0
 10
15.1298544868
 20
-4.8267977119
 30
0.0
 10
15.1749084173
 20
-4.7908708594
 30
0.0
 10
15.2231658563
 20
-4.7148784687
 30
0.0
 10
15.2521658999
 20
-4.6204418317
 30
0.0
 10
15.2581727473
 20
-4.5514597722
 30
0.0
 10
15.2584122086
 20
-4.5151242148
 30
0.0
 11
15.1059162449
 21
-4.8396950294
 31
0.0
 11
15.1700064117
 21
-4.7892284805
 31
0.0
 11
15.2179469631
 21
-4.7162376361
 31
0.0
 11
15.2478145767
 21
-4.6236168914
 31
0.0
 11
15.2584122086
 21
-4.5151242148
 31
0.0
  0
SPLINE
  5
477
100
AcDbEntity
  8
RACCORDO
100
AcDbSpline
 62
7
  6
CONTINUOUS
 70
0
 71
3
 72
11
 73
7
 74
5
 42
0.0000001
 43
0.0000001
 44
0.0000000001
 12
-0.0068243301
 22
1.024860587
 32
0.0
 13
-0.8841392067
 23
0.5183470434
 33
0.0
 40
0.0
 40
0.0
 40
0.0
 40
0.0
 40
0.2370060342
 40
0.4999938366
 40
0.7629849612
 40
1.0
 40
1.0
 40
1.0
 40
1.0
 10
15.2584122086
 20
37.2211965701
 30
0.0
 10
15.2578730728
 20
37.3021626179
 30
0.0
 10
15.226596732
 20
37.4728625114
 30
0.0
 10
15.1202330299
 20
37.7128731195
 30
0.0
 10
14.9655571102
 20
37.9249933184
 30
0.0
 10
14.8333642782
 20
38.0374353901
 30
0.0
 10
14.7635128488
 20
38.078387405
 30
0.0
 11
15.2584122086
 21
37.2211965701
 31
0.0
 11
15.219588118
 21
37.4609773325
 31
0.0
 11
15.1119076647
 21
37.7080650011
 31
0.0
 11
14.9517619277
 21
37.9248657721
 31
0.0
 11
14.7635128488
 21
38.078387405
 31
0.0
  0
SPLINE
  5
478
100
AcDbEntity
  8
RACCORDO
100
AcDbSpline
 62
7
  6
CONTINUOUS
 70
0
 71
3
 72
11
 73
7
 74
5
 42
0.0000001
 43
0.0000001
 44
0.0000000001
 12
-0.3262172695
 22
0.1854893057
 32
0.0
 13
-0.3193340888
 23
-0.1971033464
 33
0.0
 40
0.0
 40
0.0
 40
0.0
 40
0.0
 40
0.2905184574
 40
0.5498765043
 40
0.7826053532
 40
1.0
 40
1.0
 40
1.0
 40
1.0
 10
-21.3823656818
 20
58.9485646543
 30
0.0
 10
-21.4139563945
 20
58.9665273433
 30
0.0
 10
-21.4767056829
 20
58.9958221833
 30
0.0
 10
-21.5729997556
 20
59.017931718
 30
0.0
 10
-21.6629483723
 20
59.0141390552
 30
0.0
 10
-21.7165942955
 20
58.9930846553
 30
0.0
 10
-21.7397348027
 20
58.9788015845
 30
0.0
 11
-21.3823656818
 21
58.9485646543
 31
0.0
 11
-21.4816318823
 21
58.9936412928
 31
0.0
 11
-21.5767872378
 21
59.0140914467
 31
0.0
 11
-21.6639779192
 21
59.0090719867
 31
0.0
 11
-21.7397348027
 21
58.9788015845
 31
0.0
  0
SPLINE
  5
479
100
AcDbEntity
  8
RACCORDO
100
AcDbSpline
 62
7
  6
CONTINUOUS
 70
0
 71
3
 72
11
 73
7
 74
5
 42
0.0000001
 43
0.0000001
 44
0.0000000001
 12
-0.3738480846
 22
-0.223389988
 32
0.0
 13
0.000000011
 23
-0.4355060012
 33
0.0
 40
0.0
 40
0.0
 40
0.0
 40
0.0
 40
0.2383260036
 40
0.5010975909
 40
0.7632734208
 40
1.0
 40
1.0
 40
1.0
 40
1.0
 10
14.7635128478
 20
38.0783874056
 30
0.0
 10
14.7338136078
 20
38.0606408579
 30
0.0
 10
14.6777591314
 20
38.0125156797
 30
0.0
 10
14.6124061262
 20
37.9220432229
 30
0.0
 10
14.5678244974
 20
37.8199806401
 30
0.0
 10
14.555083028
 20
37.7475041439
 30
0.0
 10
14.5550830289
 20
37.7131388619
 30
0.0
 11
14.7635128478
 21
38.0783874056
 31
0.0
 11
14.6834681512
 21
38.0123138871
 31
0.0
 11
14.6159185145
 21
37.9199383465
 31
0.0
 11
14.5708804054
 21
37.8150172028
 31
0.0
 11
14.5550830289
 21
37.7131388619
 31
0.0
  0
SPLINE
  5
47A
100
AcDbEntity
  8
RACCORDO
100
AcDbSpline
 62
7
  6
CONTINUOUS
 70
0
 71
3
 72
11
 73
7
 74
5
 42
0.0000001
 43
0.0000001
 44
0.0000000001
 12
-0.3738480757
 22
-0.2233899999
 32
0.0
 13
0.0000000017
 23
-0.4355059997
 33
0.0
 40
0.0
 40
0.0
 40
0.0
 40
0.0
 40
0.2383260021
 40
0.5010975899
 40
0.76327342
 40
1.0
 40
1.0
 40
1.0
 40
1.0
 10
-21.3823656804
 20
58.9485646535
 30
0.0
 10
-21.4120649195
 20
58.930818105
 30
0.0
 10
-21.4681193946
 20
58.8826929263
 30
0.0
 10
-21.5334724007
 20
58.7922204709
 30
0.0
 10
-21.578054031
 20
58.690157889
 30
0.0
 10
-21.5907955018
 20
58.6176813932
 30
0.0
 10
-21.5907955017
 20
58.5833161112
 30
0.0
 11
-21.3823656804
 21
58.9485646535
 31
0.0
 11
-21.4624103751
 21
58.8824911343
 31
0.0
 11
-21.5299600125
 21
58.7901155945
 31
0.0
 11
-21.5749981232
 21
58.6851944518
 31
0.0
 11
-21.5907955017
 21
58.5833161112
 31
0.0
  0
SPLINE
  5
47B
100
AcDbEntity
  8
RACCORDO
100
AcDbSpline
 62
7
  6
CONTINUOUS
 70
0
 71
3
 72
11
 73
7
 74
5
 42
0.0000001
 43
0.0000001
 44
0.0000000001
 12
-0.380376472
 22
-0.21208902
 32
0.0
 13
-0.3771557076
 23
0.2177649767
 33
0.0
 40
0.0
 40
0.0
 40
0.0
 40
0.0
 40
0.2383228673
 40
0.5010914229
 40
0.763267564
 40
1.0
 40
1.0
 40
1.0
 40
1.0
 10
15.2584122086
 20
37.2211965685
 30
0.0
 10
15.2281947381
 20
37.204348014
 30
0.0
 10
15.1584909407
 20
37.1798634654
 30
0.0
 10
15.0474630331
 20
37.1685012959
 30
0.0
 10
14.936782208
 20
37.1809252198
 30
0.0
 10
14.8676443262
 20
37.2061315166
 30
0.0
 10
14.8378826631
 20
37.2233155277
 30
0.0
 11
15.2584122086
 21
37.2211965685
 31
0.0
 11
15.1611705396
 21
37.1849090829
 31
0.0
 11
15.0473968437
 21
37.172595963
 31
0.0
 11
14.9340126624
 21
37.1860536879
 31
0.0
 11
14.8378826631
 21
37.2233155277
 31
0.0
  0
SPLINE
  5
47C
100
AcDbEntity
  8
RACCORDO
100
AcDbSpline
 62
7
  6
CONTINUOUS
 70
0
 71
3
 72
11
 73
7
 74
5
 42
0.0000001
 43
0.0000001
 44
0.0000000001
 12
-0.3803764778
 22
-0.2120890063
 32
0.0
 13
-0.3771557109
 23
0.2177649679
 33
0.0
 40
0.0
 40
0.0
 40
0.0
 40
0.0
 40
0.2383228673
 40
0.5010914248
 40
0.7632675667
 40
1.0
 40
1.0
 40
1.0
 40
1.0
 10
15.2584122086
 20
-4.5151242137
 30
0.0
 10
15.2281947376
 20
-4.5319727671
 30
0.0
 10
15.1584909401
 20
-4.5564573145
 30
0.0
 10
15.0474630327
 20
-4.5678194852
 30
0.0
 10
14.9367822079
 20
-4.5553955627
 30
0.0
 10
14.8676443261
 20
-4.5301892675
 30
0.0
 10
14.8378826631
 20
-4.5130052572
 30
0.0
 11
15.2584122086
 21
-4.5151242137
 31
0.0
 11
15.1611705393
 21
-4.5514116974
 31
0.0
 11
15.0473968431
 21
-4.5637248181
 31
0.0
 11
14.9340126617
 21
-4.5502670947
 31
0.0
 11
14.8378826631
 21
-4.5130052572
 31
0.0
  0
SPLINE
  5
47D
100
AcDbEntity
  8
RACCORDO
100
AcDbSpline
 62
7
  6
CONTINUOUS
 70
0
 71
3
 72
9
 73
5
 74
3
 42
0.0000001
 43
0.0000001
 44
0.0000000001
 12
0.0000527507
 22
-0.0373502908
 32
0.0
 13
0.007764013
 23
-0.0365344647
 33
0.0
 40
0.0
 40
0.0
 40
0.0
 40
0.0
 40
0.2547386773
 40
1.0
 40
1.0
 40
1.0
 40
1.0
 10
-18.3722199181
 20
18.648052117
 30
0.0
 10
-18.3722154388
 20
18.6448805957
 30
0.0
 10
-18.3718615787
 20
18.6324350821
 30
0.0
 10
-18.370338986
 20
18.620008447
 30
0.0
 10
-18.3684102465
 20
18.6109325392
 30
0.0
 11
-18.3722199181
 21
18.648052117
 31
0.0
 11
-18.371959314
 21
18.6385411134
 31
0.0
 11
-18.3684102465
 21
18.6109325392
 31
0.0
  0
SPLINE
  5
47E
100
AcDbEntity
  8
RACCORDO
100
AcDbSpline
 62
7
  6
CONTINUOUS
 70
0
 71
3
 72
15
 73
11
 74
9
 42
0.0000001
 43
0.0000001
 44
0.0000000001
 12
-0.0000290007
 22
-0.4170681703
 32
0.0
 13
-0.3612088353
 23
0.2085042849
 33
0.0
 40
0.0
 40
0.0
 40
0.0
 40
0.0
 40
0.145084411
 40
0.2749838777
 40
0.3918358314
 40
0.5009156004
 40
0.6098397431
 40
0.7262475405
 40
0.855533188
 40
1.0
 40
1.0
 40
1.0
 40
1.0
 10
14.8378826631
 20
-4.5130052572
 30
0.0
 10
14.8378812605
 20
-4.5331752872
 30
0.0
 10
14.8348469599
 20
-4.571535915
 30
0.0
 10
14.8193945513
 20
-4.6242611249
 30
0.0
 10
14.7933679011
 20
-4.6671516736
 30
0.0
 10
14.7572416274
 20
-4.6979183475
 30
0.0
 10
14.7128169638
 20
-4.7144442769
 30
0.0
 10
14.6628289503
 20
-4.7160992247
 30
0.0
 10
14.6095596504
 20
-4.7036970622
 30
0.0
 10
14.5747605944
 20
-4.6876176818
 30
0.0
 10
14.5573663647
 20
-4.677577032
 30
0.0
 11
14.8378826631
 21
-4.5130052572
 31
0.0
 11
14.8325053252
 21
-4.5732759402
 31
0.0
 11
14.8165749657
 21
-4.6250578262
 31
0.0
 11
14.7906997077
 21
-4.6663566607
 31
0.0
 11
14.7558626495
 21
-4.695615097
 31
0.0
 11
14.7133836357
 21
-4.7117181594
 31
0.0
 11
14.6648886534
 21
-4.7140285602
 31
0.0
 11
14.6122071108
 21
-4.7025341437
 31
0.0
 11
14.5573663647
 21
-4.677577032
 31
0.0
  0
SPLINE
  5
47F
100
AcDbEntity
  8
RACCORDO
100
AcDbSpline
 62
7
  6
CONTINUOUS
 70
0
 71
3
 72
12
 73
8
 74
6
 42
0.0000001
 43
0.0000001
 44
0.0000000001
 12
-0.5057253526
 22
0.2920463627
 32
0.0
 13
-0.0000644726
 23
0.5839941832
 33
0.0
 40
0.0
 40
0.0
 40
0.0
 40
0.0
 40
0.2368422944
 40
0.4991924756
 40
0.7618019231
 40
0.8853942359
 40
1.0
 40
1.0
 40
1.0
 40
1.0
 10
-21.5907955017
 20
16.1939185868
 30
0.0
 10
-21.6307212193
 20
16.216974897
 30
0.0
 10
-21.7063437735
 20
16.2805109745
 30
0.0
 10
-21.7947282091
 20
16.4008000324
 30
0.0
 10
-21.8465323267
 20
16.5173526112
 30
0.0
 10
-21.8690381016
 20
16.6124054234
 30
0.0
 10
-21.8735926729
 20
16.6587957301
 30
0.0
 10
-21.8735951359
 20
16.68110543
 30
0.0
 11
-21.5907955017
 21
16.1939185868
 31
0.0
 11
-21.6984938763
 21
16.2807054948
 31
0.0
 11
-21.789959325
 21
16.4036187826
 31
0.0
 11
-21.8513977603
 21
16.5441369009
 31
0.0
 11
-21.8677863008
 21
16.6144288834
 31
0.0
 11
-21.8735951359
 21
16.68110543
 31
0.0
  0
SPLINE
  5
480
100
AcDbEntity
  8
RACCORDO
100
AcDbSpline
 62
7
  6
CONTINUOUS
 70
0
 71
3
 72
11
 73
7
 74
5
 42
0.0000001
 43
0.0000001
 44
0.0000000001
 12
0.0000141053
 22
-0.1574089984
 32
0.0
 13
0.1363179965
 23
-0.078708302
 33
0.0
 40
0.0
 40
0.0
 40
0.0
 40
0.0
 40
0.2177586874
 40
0.4509006419
 40
0.7104563331
 40
1.0
 40
1.0
 40
1.0
 40
1.0
 10
-21.961449829
 20
16.8062242814
 30
0.0
 10
-21.9614488052
 20
16.7947985558
 30
0.0
 10
-21.9572536126
 20
16.7709776641
 30
0.0
 10
-21.9391834353
 20
16.7377842468
 30
0.0
 10
-21.910627028
 20
16.7077997489
 30
0.0
 10
-21.8867518067
 20
16.6913384178
 30
0.0
 10
-21.8735951359
 20
16.683741921
 30
0.0
 11
-21.961449829
 21
16.8062242814
 31
0.0
 11
-21.955700371
 21
16.7724327352
 31
0.0
 11
-21.9386338582
 21
16.7399438996
 31
0.0
 11
-21.9108660234
 21
16.709974033
 31
0.0
 11
-21.8735951359
 21
16.683741921
 31
0.0
  0
SPLINE
  5
481
100
AcDbEntity
  8
RACCORDO
100
AcDbSpline
 62
7
  6
CONTINUOUS
 70
0
 71
3
 72
11
 73
7
 74
5
 42
0.0000001
 43
0.0000001
 44
0.0000000001
 12
0.000014108
 22
-0.157408994
 32
0.0
 13
0.1363179944
 23
-0.0787082969
 33
0.0
 40
0.0
 40
0.0
 40
0.0
 40
0.0
 40
0.2177586882
 40
0.4509006427
 40
0.7104563324
 40
1.0
 40
1.0
 40
1.0
 40
1.0
 10
-21.961449829
 20
58.5425450611
 30
0.0
 10
-21.961448805
 20
58.5311193358
 30
0.0
 10
-21.9572536121
 20
58.5072984447
 30
0.0
 10
-21.9391834346
 20
58.4741050288
 30
0.0
 10
-21.9106270275
 20
58.4441205323
 30
0.0
 10
-21.8867518066
 20
58.4276592022
 30
0.0
 10
-21.8735951359
 20
58.4200627059
 30
0.0
 11
-21.961449829
 21
58.5425450611
 31
0.0
 11
-21.9557003706
 21
58.5087535158
 31
0.0
 11
-21.9386338575
 21
58.4762646814
 31
0.0
 11
-21.9108660231
 21
58.4462948165
 31
0.0
 11
-21.8735951359
 21
58.4200627059
 31
0.0
  0
SPLINE
  5
482
100
AcDbEntity
  8
RACCORDO
100
AcDbSpline
 62
7
  6
CONTINUOUS
 70
0
 71
3
 72
11
 73
7
 74
5
 42
0.0000001
 43
0.0000001
 44
0.0000000001
 12
-0.1362924929
 22
0.0787097748
 32
0.0
 13
-0.0000000006
 23
0.1573876497
 33
0.0
 40
0.0
 40
0.0
 40
0.0
 40
0.0
 40
0.2177541405
 40
0.4508937694
 40
0.7104507771
 40
1.0
 40
1.0
 40
1.0
 40
1.0
 10
14.6172144363
 20
-4.813568217
 30
0.0
 10
14.6073216848
 20
-4.8078550905
 30
0.0
 10
14.5887930979
 20
-4.792313173
 30
0.0
 10
14.5690860575
 20
-4.760071
 30
0.0
 10
14.5574000957
 20
-4.7203528647
 30
0.0
 10
14.555083029
 20
-4.6914491531
 30
0.0
 10
14.5550830289
 20
-4.6762586626
 30
0.0
 11
14.6172144363
 21
-4.813568217
 31
0.0
 11
14.5908296916
 21
-4.7916958058
 31
0.0
 11
14.5712309115
 21
-4.7606750716
 31
0.0
 11
14.5591632978
 21
-4.721647102
 31
0.0
 11
14.5550830289
 21
-4.6762586626
 31
0.0
  0
SPLINE
  5
483
100
AcDbEntity
  8
RACCORDO
100
AcDbSpline
 62
7
  6
CONTINUOUS
 70
0
 71
3
 72
11
 73
7
 74
5
 42
0.0000001
 43
0.0000001
 44
0.0000000001
 12
-0.1362924929
 22
0.0787097779
 32
0.0
 13
-0.000000004
 23
0.1573876512
 33
0.0
 40
0.0
 40
0.0
 40
0.0
 40
0.0
 40
0.2177541423
 40
0.4508937728
 40
0.710450779
 40
1.0
 40
1.0
 40
1.0
 40
1.0
 10
-21.5286640922
 20
16.0566090312
 30
0.0
 10
-21.5385568438
 20
16.0623221579
 30
0.0
 10
-21.5570854308
 20
16.0778640758
 30
0.0
 10
-21.5767924716
 20
16.1101062492
 30
0.0
 10
-21.5884784342
 20
16.1498243845
 30
0.0
 10
-21.5907955013
 20
16.1787280962
 30
0.0
 10
-21.5907955017
 20
16.1939185868
 30
0.0
 11
-21.5286640922
 21
16.0566090312
 31
0.0
 11
-21.5550488372
 21
16.078481443
 31
0.0
 11
-21.5746476177
 21
16.1095021777
 31
0.0
 11
-21.586715232
 21
16.1485301472
 31
0.0
 11
-21.5907955017
 21
16.1939185868
 31
0.0
  0
SPLINE
  5
484
100
AcDbEntity
  8
RACCORDO
100
AcDbSpline
 62
7
  6
CONTINUOUS
 70
0
 71
3
 72
15
 73
11
 74
9
 42
0.0000001
 43
0.0000001
 44
0.0000000001
 12
0.0000238213
 22
-0.597984879
 32
0.0
 13
-0.5178420862
 23
0.2990409502
 33
0.0
 40
0.0
 40
0.0
 40
0.0
 40
0.0
 40
0.1446786948
 40
0.2748799313
 40
0.3916072275
 40
0.4999943582
 40
0.6083856293
 40
0.725122466
 40
0.8553266085
 40
1.0
 40
1.0
 40
1.0
 40
1.0
 10
13.0488153633
 20
-1.2804495124
 30
0.0
 10
13.0488165121
 20
-1.3092880697
 30
0.0
 10
13.0448708716
 20
-1.3642408769
 30
0.0
 10
13.0242208473
 20
-1.4401651757
 30
0.0
 10
12.9882521698
 20
-1.5023856806
 30
0.0
 10
12.9367918419
 20
-1.5467547936
 30
0.0
 10
12.8726283942
 20
-1.5691186673
 30
0.0
 10
12.8007574581
 20
-1.5691383969
 30
0.0
 10
12.7246790715
 20
-1.549066681
 30
0.0
 10
12.6751102056
 20
-1.5250176848
 30
0.0
 10
12.6501375487
 20
-1.5105965954
 30
0.0
 11
13.0488153633
 21
-1.2804495124
 31
0.0
 11
13.0417406465
 21
-1.3666754358
 31
0.0
 11
13.0201807673
 21
-1.4414891878
 31
0.0
 11
12.9841957217
 21
-1.5012995396
 31
0.0
 11
12.9347286038
 21
-1.543178429
 31
0.0
 11
12.873718424
 21
-1.5650625797
 31
0.0
 11
12.8039226382
 21
-1.5663061347
 31
0.0
 11
12.728349615
 21
-1.5475734183
 31
0.0
 11
12.6501375487
 21
-1.5105965954
 31
0.0
  0
SPLINE
  5
485
100
AcDbEntity
  8
RACCORDO
100
AcDbSpline
 62
7
  6
CONTINUOUS
 70
0
 71
3
 72
9
 73
5
 74
3
 42
0.0000001
 43
0.0000001
 44
0.0000000001
 12
0.1563813851
 22
-0.090284346
 32
0.0
 13
0.1281480412
 23
-0.1272182387
 33
0.0
 40
0.0
 40
0.0
 40
0.0
 40
0.0
 40
0.2366293495
 40
1.0
 40
1.0
 40
1.0
 40
1.0
 10
12.6501375487
 20
36.7472600861
 30
0.0
 10
12.6624723572
 20
36.7401387774
 30
0.0
 10
12.7134998978
 20
36.7081554502
 30
0.0
 10
12.7600360046
 20
36.6691954486
 30
0.0
 10
12.7926441558
 20
36.636823892
 30
0.0
 11
12.6501375487
 21
36.7472600861
 31
0.0
 11
12.6863700938
 21
36.7246117415
 31
0.0
 11
12.7926441558
 21
36.636823892
 31
0.0
  0
SPLINE
  5
486
100
AcDbEntity
  8
RACCORDO
100
AcDbSpline
 62
7
  6
CONTINUOUS
 70
0
 71
3
 72
10
 73
6
 74
4
 42
0.0000001
 43
0.0000001
 44
0.0000000001
 12
0.4592582815
 22
-0.4559260458
 32
0.0
 13
0.0000021875
 23
-0.6471373334
 33
0.0
 40
0.0
 40
0.0
 40
0.0
 40
0.0
 40
0.5173571193
 40
0.7703670028
 40
1.0
 40
1.0
 40
1.0
 40
1.0
 10
12.7926441558
 20
36.636823892
 30
0.0
 10
12.8718443363
 20
36.5581983634
 30
0.0
 10
12.9673477
 20
36.4159083944
 30
0.0
 10
13.0358639288
 20
36.2106212779
 30
0.0
 10
13.0488151959
 20
36.1062645512
 30
0.0
 10
13.0488153633
 20
36.056729856
 30
0.0
 11
12.7926441558
 21
36.636823892
 31
0.0
 11
12.9808517148
 21
36.3599309601
 31
0.0
 11
13.0319372257
 21
36.2043723387
 31
0.0
 11
13.0488153633
 21
36.056729856
 31
0.0
  0
SPLINE
  5
487
100
AcDbEntity
  8
RACCORDO
100
AcDbSpline
 62
7
  6
CONTINUOUS
 70
0
 71
3
 72
15
 73
11
 74
9
 42
0.0000001
 43
0.0000001
 44
0.0000000001
 12
-0.0000387078
 22
0.5979848853
 32
0.0
 13
0.5178497191
 23
-0.2990277463
 33
0.0
 40
0.0
 40
0.0
 40
0.0
 40
0.0
 40
0.1446658674
 40
0.2748627245
 40
0.391594032
 40
0.4999831839
 40
0.6083724348
 40
0.7251052566
 40
0.8553137174
 40
1.0
 40
1.0
 40
1.0
 40
1.0
 10
-20.0845278361
 20
55.1875069611
 30
0.0
 10
-20.0845297027
 20
55.2163429618
 30
0.0
 10
-20.0805706884
 20
55.2712923204
 30
0.0
 10
-20.0599108915
 20
55.3472090517
 30
0.0
 10
-20.0239542925
 20
55.4094356753
 30
0.0
 10
-19.9725006047
 20
55.4538144234
 30
0.0
 10
-19.9083421254
 20
55.4761887374
 30
0.0
 10
-19.8364704807
 20
55.4762220969
 30
0.0
 10
-19.7603903995
 20
55.4561381548
 30
0.0
 10
-19.7108252718
 20
55.4320757817
 30
0.0
 10
-19.6858500215
 20
55.417654044
 30
0.0
 11
-20.0845278361
 21
55.1875069611
 31
0.0
 11
-20.0774419405
 21
55.2737242711
 31
0.0
 11
-20.0558753142
 21
55.3485333539
 31
0.0
 11
-20.0198970272
 21
55.4083505716
 31
0.0
 11
-19.9704361683
 21
55.4502387244
 31
0.0
 11
-19.9094308602
 21
55.4721328783
 31
0.0
 11
-19.8396376418
 21
55.4733857715
 31
0.0
 11
-19.7640639777
 21
55.4546449057
 31
0.0
 11
-19.6858500215
 21
55.417654044
 31
0.0
  0
SPLINE
  5
488
100
AcDbEntity
  8
RACCORDO
100
AcDbSpline
 62
7
  6
CONTINUOUS
 70
0
 71
3
 72
11
 73
7
 74
5
 42
0.0000001
 43
0.0000001
 44
0.0000000001
 12
-0.7171285941
 22
0.4140697132
 32
0.0
 13
0.0000544718
 23
0.8280864356
 33
0.0
 40
0.0
 40
0.0
 40
0.0
 40
0.0
 40
0.2369489663
 40
0.5000027919
 40
0.7630483128
 40
1.0
 40
1.0
 40
1.0
 40
1.0
 10
-19.6858500215
 20
17.1597973626
 30
0.0
 10
-19.7424909812
 20
17.1925018261
 30
0.0
 10
-19.8510359802
 20
17.2810712271
 30
0.0
 10
-19.9777390139
 20
17.4516288162
 30
0.0
 10
-20.0620677963
 20
17.6466396369
 30
0.0
 10
-20.0845321385
 20
17.7849221
 30
0.0
 10
-20.0845278361
 20
17.8503275926
 30
0.0
 11
-19.6858500215
 21
17.1597973626
 31
0.0
 11
-19.8396376463
 21
17.2816554304
 31
0.0
 11
-19.9704361608
 21
17.4558456315
 31
0.0
 11
-20.0558752905
 21
17.6562143832
 31
0.0
 11
-20.0845278361
 21
17.8503275926
 31
0.0
  0
SPLINE
  5
489
100
AcDbEntity
  8
CURVE
100
AcDbSpline
 62
7
  6
CONTINUOUS
 70
0
 71
3
 72
25
 73
21
 74
19
 42
0.0000001
 43
0.0000001
 44
0.0000000001
 12
0.5420671437
 22
-0.0842517062
 32
0.0
 13
0.5668876432
 23
-0.564262818
 33
0.0
 40
0.0
 40
0.0
 40
0.0
 40
0.0
 40
0.125
 40
0.15625
 40
0.1875
 40
0.25
 40
0.3125
 40
0.34375
 40
0.375
 40
0.4375
 40
0.46875
 40
0.5
 40
0.53125
 40
0.5625
 40
0.625
 40
0.6875
 40
0.75
 40
0.8125
 40
0.875
 40
1.0
 40
1.0
 40
1.0
 40
1.0
 10
2.0991683469
 20
7.9231016679
 30
0.0
 10
2.1217544779
 20
7.9195911802
 30
0.0
 10
2.1502208243
 20
7.9145288243
 30
0.0
 10
2.1836793919
 20
7.9104767358
 30
0.0
 10
2.207480673
 20
7.9034601678
 30
0.0
 10
2.2377799325
 20
7.89301404
 30
0.0
 10
2.2678237322
 20
7.8836542638
 30
0.0
 10
2.2920337489
 20
7.8748995333
 30
0.0
 10
2.3167266796
 20
7.8619133099
 30
0.0
 10
2.3412825117
 20
7.8502928042
 30
0.0
 10
2.365887454
 20
7.837748765
 30
0.0
 10
2.3843309289
 20
7.8297456182
 30
0.0
 10
2.4027907758
 20
7.816584708
 30
0.0
 10
2.4273930515
 20
7.8007980623
 30
0.0
 10
2.4581863672
 20
7.7807499047
 30
0.0
 10
2.4949603652
 20
7.7555615462
 30
0.0
 10
2.5309760621
 20
7.7244029777
 30
0.0
 10
2.5673920026
 20
7.6962633219
 30
0.0
 10
2.6148230253
 20
7.6506031935
 30
0.0
 10
2.6501821083
 20
7.6148261025
 30
0.0
 10
2.6738024268
 20
7.5913151517
 30
0.0
 11
2.0991683469
 21
7.9231016679
 31
0.0
 11
2.1669267398
 21
7.9125702047
 31
0.0
 11
2.1838663381
 21
7.9099373388
 31
0.0
 11
2.2015668633
 21
7.9051026153
 31
0.0
 11
2.2377288405
 21
7.8932313103
 31
0.0
 11
2.2738908178
 21
7.8813600054
 31
0.0
 11
2.2920941132
 21
7.8743705967
 31
0.0
 11
2.310542022
 21
7.8652736756
 31
0.0
 11
2.3474378398
 21
7.8470798333
 31
0.0
 11
2.3658857487
 21
7.8379829121
 31
0.0
 11
2.3843336575
 21
7.828885991
 31
0.0
 11
2.4027894191
 21
7.8168048623
 31
0.0
 11
2.4212451807
 21
7.8047237337
 31
0.0
 11
2.4581567038
 21
7.7805614764
 31
0.0
 11
2.4948339817
 21
7.7545665112
 31
0.0
 11
2.5310427694
 21
7.7249061298
 31
0.0
 11
2.567251557
 21
7.6952457485
 31
0.0
 11
2.6029414714
 21
7.661848004
 31
0.0
 11
2.6738024268
 21
7.5913151517
 31
0.0
  0
SPLINE
  5
48A
100
AcDbEntity
  8
CURVE
100
AcDbSpline
 62
7
  6
CONTINUOUS
 70
0
 71
3
 72
9
 73
5
 74
3
 42
0.0000001
 43
0.0000001
 44
0.0000000001
 12
0.1109448157
 22
-0.3810872329
 32
0.0
 13
0.0103475798
 23
-0.3479090121
 33
0.0
 40
0.0
 40
0.0
 40
0.0
 40
0.0
 40
0.5
 40
1.0
 40
1.0
 40
1.0
 40
1.0
 10
-17.1908067258
 20
33.8333277941
 30
0.0
 10
-17.1723159232
 20
33.7698132553
 30
0.0
 10
-17.138388996
 20
33.6423824221
 30
0.0
 10
-17.1313863709
 20
33.5238878816
 30
0.0
 10
-17.1296617742
 20
33.4659030462
 30
0.0
 11
-17.1908067258
 21
33.8333277941
 31
0.0
 11
-17.1451200715
 21
33.6446164952
 31
0.0
 11
-17.1296617742
 21
33.4659030462
 31
0.0
  0
SPLINE
  5
48B
100
AcDbEntity
  8
CURVE
100
AcDbSpline
 62
7
  6
CONTINUOUS
 70
0
 71
3
 72
9
 73
5
 74
3
 42
0.0000001
 43
0.0000001
 44
0.0000000001
 12
-0.0103348595
 22
-0.3357573062
 32
0.0
 13
-0.1110071496
 23
-0.2531326964
 33
0.0
 40
0.0
 40
0.0
 40
0.0
 40
0.0
 40
0.5
 40
1.0
 40
1.0
 40
1.0
 40
1.0
 10
-17.1296617742
 20
33.4659030372
 30
0.0
 10
-17.1313842508
 20
33.4099434862
 30
0.0
 10
-17.138382617
 20
33.2995325953
 30
0.0
 10
-17.172305531
 20
33.2112757269
 30
0.0
 10
-17.1908067226
 20
33.1690869441
 30
0.0
 11
-17.1296617742
 21
33.4659030372
 31
0.0
 11
-17.145113754
 21
33.3050711009
 31
0.0
 11
-17.1908067226
 21
33.1690869441
 31
0.0
  0
SPLINE
  5
48C
100
AcDbEntity
  8
0
100
AcDbSpline
 62
7
  6
CONTINUOUS
 70
0
 71
3
 72
9
 73
5
 74
3
 42
0.0000001
 43
0.0000001
 44
0.0000000001
 12
0.0000188601
 22
-0.0959212975
 32
0.0
 13
-0.0492076068
 23
-0.0823377622
 33
0.0
 40
0.0
 40
0.0
 40
0.0
 40
0.0
 40
0.2607000112
 40
1.0
 40
1.0
 40
1.0
 40
1.0
 10
-14.6315643374
 20
-28.4030749424
 30
0.0
 10
-14.6315626985
 20
-28.4114105035
 30
0.0
 10
-14.6330225831
 20
-28.443272211
 30
0.0
 10
-14.6415186545
 20
-28.475542607
 30
0.0
 10
-14.6536450489
 20
-28.4958333759
 30
0.0
 11
-14.6315643374
 21
-28.4030749424
 31
0.0
 11
-14.6328020932
 21
-28.4280509748
 31
0.0
 11
-14.6536450489
 21
-28.4958333759
 31
0.0
  0
SPLINE
  5
48D
100
AcDbEntity
  8
0
100
AcDbSpline
 62
7
  6
CONTINUOUS
 70
0
 71
3
 72
8
 73
4
 74
2
 42
0.0000001
 43
0.0000001
 44
0.0000000001
 12
-0.0170544733
 22
-0.0285367906
 32
0.0
 13
-0.0249380208
 23
-0.0219840533
 33
0.0
 40
0.0
 40
0.0
 40
0.0
 40
0.0
 40
1.0
 40
1.0
 40
1.0
 40
1.0
 10
-14.6536450489
 20
-28.4958333759
 30
0.0
 10
-14.6593298734
 20
-28.5053456394
 30
0.0
 10
-14.6664233579
 20
-28.5142030999
 30
0.0
 10
-14.6747360314
 20
-28.5215311177
 30
0.0
 11
-14.6536450489
 21
-28.4958333759
 31
0.0
 11
-14.6747360314
 21
-28.5215311177
 31
0.0
  0
SPLINE
  5
48E
100
AcDbEntity
  8
0
100
AcDbSpline
 62
7
  6
CONTINUOUS
 70
0
 71
3
 72
11
 73
7
 74
5
 42
0.0000001
 43
0.0000001
 44
0.0000000001
 12
0.136283381
 22
-0.0786998189
 32
0.0
 13
-0.0
 23
-0.1573747802
 33
0.0
 40
0.0
 40
0.0
 40
0.0
 40
0.0
 40
0.2177859102
 40
0.450919006
 40
0.7102951862
 40
1.0
 40
1.0
 40
1.0
 40
1.0
 10
-9.8025076472
 20
-42.8561634286
 30
0.0
 10
-9.7926141138
 20
-42.8618766658
 30
0.0
 10
-9.7741061374
 20
-42.8774437231
 30
0.0
 10
-9.7544022875
 20
-42.9096674656
 30
0.0
 10
-9.7426987804
 20
-42.9493777728
 30
0.0
 10
-9.7403959108
 20
-42.9782794623
 30
0.0
 10
-9.7403959108
 20
-42.9934768728
 30
0.0
 11
-9.8025076472
 21
-42.8561634286
 31
0.0
 11
-9.7761355351
 21
-42.87805451
 31
0.0
 11
-9.756540439
 21
-42.9090728066
 31
0.0
 11
-9.7444719023
 21
-42.9480672058
 31
0.0
 11
-9.7403959108
 21
-42.9934768728
 31
0.0
  0
SPLINE
  5
48F
100
AcDbEntity
  8
0
100
AcDbSpline
 62
7
  6
CONTINUOUS
 70
0
 71
3
 72
11
 73
7
 74
5
 42
0.0000001
 43
0.0000001
 44
0.0000000001
 12
-0.0000100109
 22
0.1573960521
 32
0.0
 13
-0.1363067843
 23
0.0787018289
 33
0.0
 40
0.0
 40
0.0
 40
0.0
 40
0.0
 40
0.2177904336
 40
0.4509258866
 40
0.7103007723
 40
1.0
 40
1.0
 40
1.0
 40
1.0
 10
-16.9152159491
 20
27.4327900759
 30
0.0
 10
-16.9152166759
 20
27.4442165274
 30
0.0
 10
-16.919443975
 20
27.4680321262
 30
0.0
 10
-16.9374997826
 20
27.5012135417
 30
0.0
 10
-16.9660406318
 20
27.5312092999
 30
0.0
 10
-16.9899211887
 20
27.5476573156
 30
0.0
 10
-17.0030838454
 20
27.5552572686
 30
0.0
 11
-16.9152159491
 21
27.4327900759
 31
0.0
 11
-16.9209879105
 21
27.4665799946
 31
0.0
 11
-16.9380541604
 21
27.499064403
 31
0.0
 11
-16.9657924537
 21
27.529018262
 31
0.0
 11
-17.0030838454
 21
27.5552572686
 31
0.0
  0
SPLINE
  5
490
100
AcDbEntity
  8
RACCORDO
100
AcDbSpline
 62
7
  6
CONTINUOUS
 70
0
 71
3
 72
9
 73
5
 74
3
 42
0.0000001
 43
0.0000001
 44
0.0000000001
 12
-0.0931867
 22
-0.0538047826
 32
0.0
 13
-0.0221376783
 23
-0.1053026063
 33
0.0
 40
0.0
 40
0.0
 40
0.0
 40
0.0
 40
0.467833444
 40
1.0
 40
1.0
 40
1.0
 40
1.0
 10
-6.4255798486
 20
12.966363828
 30
0.0
 10
-6.4401118002
 20
12.9579732691
 30
0.0
 10
-6.4665772961
 20
12.9314668948
 30
0.0
 10
-6.4789586427
 20
12.8968366545
 30
0.0
 10
-6.48288562
 20
12.8781571461
 30
0.0
 11
-6.4255798486
 21
12.966363828
 31
0.0
 11
-6.461792117
 21
12.931394077
 31
0.0
 11
-6.48288562
 21
12.8781571461
 31
0.0
  0
SPLINE
  5
491
100
AcDbEntity
  8
RACCORDO
100
AcDbSpline
 62
7
  6
CONTINUOUS
 70
0
 71
3
 72
11
 73
7
 74
5
 42
0.0000001
 43
0.0000001
 44
0.0000000001
 12
0.1363216183
 22
0.0787103206
 32
0.0
 13
0.1363215866
 23
-0.0787103756
 33
0.0
 40
0.0
 40
0.0
 40
0.0
 40
0.0
 40
0.2177804588
 40
0.4509077062
 40
0.7102936033
 40
1.0
 40
1.0
 40
1.0
 40
1.0
 10
-5.8598944237
 20
13.2929835027
 30
0.0
 10
-5.8499983621
 20
13.2986973592
 30
0.0
 10
-5.8272598409
 20
13.3069492866
 30
0.0
 10
-5.7894916263
 20
13.3079039183
 30
0.0
 10
-5.7492396665
 20
13.2981818989
 30
0.0
 10
-5.72305167
 20
13.2857220682
 30
0.0
 10
-5.7098872581
 20
13.2781211017
 30
0.0
 11
-5.8598944237
 21
13.2929835027
 31
0.0
 11
-5.8277450914
 21
13.3048848535
 31
0.0
 11
-5.7910770108
 21
13.3063488174
 31
0.0
 11
-5.7512612977
 21
13.2973012144
 31
0.0
 11
-5.7098872581
 21
13.2781211017
 31
0.0
  0
SPLINE
  5
492
100
AcDbEntity
  8
0
100
AcDbSpline
 62
7
  6
CONTINUOUS
 70
0
 71
3
 72
9
 73
5
 74
3
 42
0.0000001
 43
0.0000001
 44
0.0000000001
 12
0.0221376783
 22
0.1053026063
 32
0.0
 13
0.0931867
 23
0.0538047826
 33
0.0
 40
0.0
 40
0.0
 40
0.0
 40
0.0
 40
0.532166556
 40
1.0
 40
1.0
 40
1.0
 40
1.0
 10
-6.48288562
 20
-45.0912325062
 30
0.0
 10
-6.4789586427
 20
-45.0725529978
 30
0.0
 10
-6.4665772961
 20
-45.0379227575
 30
0.0
 10
-6.4401118002
 20
-45.0114163832
 30
0.0
 10
-6.4255798486
 20
-45.0030258243
 30
0.0
 11
-6.48288562
 21
-45.0912325062
 31
0.0
 11
-6.461792117
 21
-45.0379955753
 31
0.0
 11
-6.4255798486
 21
-45.0030258243
 31
0.0
  0
SPLINE
  5
493
100
AcDbEntity
  8
RACCORDO
100
AcDbSpline
 62
7
  6
CONTINUOUS
 70
0
 71
3
 72
11
 73
7
 74
5
 42
0.0000001
 43
0.0000001
 44
0.0000000001
 12
0.3808322389
 22
-0.2198877618
 32
0.0
 13
0.0
 23
-0.4397542745
 33
0.0
 40
0.0
 40
0.0
 40
0.0
 40
0.0
 40
0.2372413496
 40
0.5000061068
 40
0.7627675405
 40
1.0
 40
1.0
 40
1.0
 40
1.0
 10
-11.013188117
 20
16.3401805517
 30
0.0
 10
-10.9830717322
 20
16.3227917286
 30
0.0
 10
-10.926079722
 20
16.2748244539
 30
0.0
 10
-10.8595616254
 20
16.1839251731
 30
0.0
 10
-10.8140999541
 20
16.0808704409
 30
0.0
 10
-10.8010560826
 20
16.0075317534
 30
0.0
 10
-10.8010560826
 20
15.9727570907
 30
0.0
 11
-11.013188117
 21
16.3401805517
 31
0.0
 11
-10.9320030446
 21
16.2746573173
 31
0.0
 11
-10.863188117
 21
16.1818308494
 31
0.0
 11
-10.8172062369
 21
16.0758234141
 31
0.0
 11
-10.8010560826
 21
15.9727570907
 31
0.0
  0
SPLINE
  5
494
100
AcDbEntity
  8
RACCORDO
100
AcDbSpline
 62
7
  6
CONTINUOUS
 70
0
 71
3
 72
11
 73
7
 74
5
 42
0.0000001
 43
0.0000001
 44
0.0000000001
 12
0.3808322389
 22
-0.2198877618
 32
0.0
 13
0.0
 23
-0.4397542745
 33
0.0
 40
0.0
 40
0.0
 40
0.0
 40
0.0
 40
0.2372413496
 40
0.5000061068
 40
0.7627675405
 40
1.0
 40
1.0
 40
1.0
 40
1.0
 10
4.8967144597
 20
7.1540022018
 30
0.0
 10
4.9268308445
 20
7.1366133787
 30
0.0
 10
4.9838228547
 20
7.088646104
 30
0.0
 10
5.0503409513
 20
6.9977468232
 30
0.0
 10
5.0958026226
 20
6.894692091
 30
0.0
 10
5.1088464941
 20
6.8213534035
 30
0.0
 10
5.1088464941
 20
6.7865787408
 30
0.0
 11
4.8967144597
 21
7.1540022018
 31
0.0
 11
4.9778995321
 21
7.0884789675
 31
0.0
 11
5.0467144597
 21
6.9956524995
 31
0.0
 11
5.0926963398
 21
6.8896450642
 31
0.0
 11
5.1088464941
 21
6.7865787408
 31
0.0
  0
SPLINE
  5
495
100
AcDbEntity
  8
0
100
AcDbSpline
 62
7
  6
CONTINUOUS
 70
0
 71
3
 72
9
 73
5
 74
3
 42
0.0000001
 43
0.0000001
 44
0.0000000001
 12
-0.1872984791
 22
0.0289782101
 32
0.0
 13
-0.1681595966
 23
-0.0874231492
 33
0.0
 40
0.0
 40
0.0
 40
0.0
 40
0.0
 40
0.5194837679
 40
1.0
 40
1.0
 40
1.0
 40
1.0
 10
9.1485484478
 20
6.8004002265
 30
0.0
 10
9.1161156079
 20
6.8054181298
 30
0.0
 10
9.0521043951
 20
6.805909603
 30
0.0
 10
8.9898906582
 20
6.7886781284
 30
0.0
 10
8.9629561863
 20
6.774675381
 30
0.0
 11
9.1485484478
 21
6.8004002265
 31
0.0
 11
9.0500951088
 21
6.8011459798
 31
0.0
 11
8.9629561863
 21
6.774675381
 31
0.0
  0
SPLINE
  5
496
100
AcDbEntity
  8
0
100
AcDbSpline
 62
7
  6
CONTINUOUS
 70
0
 71
3
 72
9
 73
5
 74
3
 42
0.0000001
 43
0.0000001
 44
0.0000000001
 12
0.012956691
 22
-0.0279185118
 32
0.0
 13
0.0000103893
 23
-0.0307785483
 33
0.0
 40
0.0
 40
0.0
 40
0.0
 40
0.0
 40
0.257348902
 40
1.0
 40
1.0
 40
1.0
 40
1.0
 10
-2.6457043619
 20
13.6102539821
 30
0.0
 10
-2.6445928985
 20
13.6078590493
 30
0.0
 10
-2.6407322593
 20
13.5983502207
 30
0.0
 10
-2.6388895517
 20
13.5879974974
 30
0.0
 10
-2.6388869799
 20
13.5803782565
 30
0.0
 11
-2.6457043619
 21
13.6102539821
 31
0.0
 11
-2.6427394805
 21
13.6029089863
 31
0.0
 11
-2.6388869799
 21
13.5803782565
 31
0.0
  0
SPLINE
  5
497
100
AcDbEntity
  8
0
100
AcDbSpline
 62
7
  6
CONTINUOUS
 70
0
 71
3
 72
9
 73
5
 74
3
 42
0.0000001
 43
0.0000001
 44
0.0000000001
 12
-0.1872984791
 22
0.0289782101
 32
0.0
 13
-0.1681595966
 23
-0.0874231492
 33
0.0
 40
0.0
 40
0.0
 40
0.0
 40
0.0
 40
0.5194837679
 40
1.0
 40
1.0
 40
1.0
 40
1.0
 10
-6.7613541289
 20
15.9865785764
 30
0.0
 10
-6.7937869688
 20
15.9915964797
 30
0.0
 10
-6.8577981816
 20
15.9920879529
 30
0.0
 10
-6.9200119185
 20
15.9748564783
 30
0.0
 10
-6.9469463904
 20
15.9608537309
 30
0.0
 11
-6.7613541289
 21
15.9865785764
 31
0.0
 11
-6.8598074679
 21
15.9873243297
 31
0.0
 11
-6.9469463904
 21
15.9608537309
 31
0.0
  0
SPLINE
  5
498
100
AcDbEntity
  8
0
100
AcDbSpline
 62
7
  6
CONTINUOUS
 70
0
 71
3
 72
9
 73
5
 74
3
 42
0.0000001
 43
0.0000001
 44
0.0000000001
 12
0.0356636509
 22
0.0249264817
 32
0.0
 13
0.0223702126
 23
0.0373202233
 33
0.0
 40
0.0
 40
0.0
 40
0.0
 40
0.0
 40
0.745130515
 40
1.0
 40
1.0
 40
1.0
 40
1.0
 10
-14.6829357703
 20
47.8119848365
 30
0.0
 10
-14.6740777454
 20
47.8181759972
 30
0.0
 10
-14.6636305659
 20
47.8287361431
 30
0.0
 10
-14.6556275192
 20
47.8408299132
 30
0.0
 10
-14.6537270244
 20
47.8440005086
 30
0.0
 11
-14.6829357703
 21
47.8119848365
 31
0.0
 11
-14.6598657511
 21
47.8347648692
 31
0.0
 11
-14.6537270244
 21
47.8440005086
 31
0.0
  0
SPLINE
  5
499
100
AcDbEntity
  8
0
100
AcDbSpline
 62
7
  6
CONTINUOUS
 70
0
 71
3
 72
9
 73
5
 74
3
 42
0.0000001
 43
0.0000001
 44
0.0000000001
 12
0.0253036784
 22
0.067371073
 32
0.0
 13
-0.0000095784
 23
0.0719662249
 33
0.0
 40
0.0
 40
0.0
 40
0.0
 40
0.0
 40
0.243469632
 40
1.0
 40
1.0
 40
1.0
 40
1.0
 10
-14.6431502806
 20
47.8660861403
 30
0.0
 10
-14.6410967215
 20
47.8715537438
 30
0.0
 10
-14.6339783158
 20
47.8945059186
 30
0.0
 10
-14.6315619601
 20
47.9187309654
 30
0.0
 10
-14.6315643755
 20
47.9368791769
 30
0.0
 11
-14.6431502806
 21
47.8660861403
 31
0.0
 11
-14.6379092158
 21
47.8828055115
 31
0.0
 11
-14.6315643755
 21
47.9368791769
 31
0.0
  0
SPLINE
  5
49A
100
AcDbEntity
  8
0
100
AcDbSpline
 62
7
  6
CONTINUOUS
 70
0
 71
3
 72
9
 73
5
 74
3
 42
0.0000001
 43
0.0000001
 44
0.0000000001
 12
-0.0685559615
 22
-0.1766939093
 32
0.0
 13
-0.1597856713
 23
-0.1019274089
 33
0.0
 40
0.0
 40
0.0
 40
0.0
 40
0.0
 40
0.5194818691
 40
1.0
 40
1.0
 40
1.0
 40
1.0
 10
-14.6383795701
 20
29.6299867256
 30
0.0
 10
-14.6502507631
 20
29.5993902982
 30
0.0
 10
-14.6818310145
 20
29.5437093627
 30
0.0
 10
-14.7278593313
 20
29.4984451521
 30
0.0
 10
-14.7534526354
 20
29.4821191627
 30
0.0
 11
-14.6383795701
 21
29.6299867256
 31
0.0
 11
-14.6869604745
 21
29.5443508974
 31
0.0
 11
-14.7534526354
 21
29.4821191627
 31
0.0
  0
SPLINE
  5
49B
100
AcDbEntity
  8
0
100
AcDbSpline
 62
7
  6
CONTINUOUS
 70
0
 71
3
 72
9
 73
5
 74
3
 42
0.0000001
 43
0.0000001
 44
0.0000000001
 12
-0.0176950702
 22
0.0251729119
 32
0.0
 13
-0.0266419256
 23
0.0153947654
 33
0.0
 40
0.0
 40
0.0
 40
0.0
 40
0.0
 40
0.2573483268
 40
1.0
 40
1.0
 40
1.0
 40
1.0
 10
-14.6383795701
 20
34.3821766266
 30
0.0
 10
-14.6398975024
 20
34.3843360289
 30
0.0
 10
-14.6462003391
 20
34.3924315741
 30
0.0
 10
-14.6542423194
 20
34.3992019849
 30
0.0
 10
-14.6608375429
 20
34.4030129676
 30
0.0
 11
-14.6383795701
 21
34.3821766266
 31
0.0
 11
-14.6432567316
 21
34.3884150177
 31
0.0
 11
-14.6608375429
 21
34.4030129676
 31
0.0
  0
SPLINE
  5
49C
100
AcDbEntity
  8
0
100
AcDbSpline
 62
7
  6
CONTINUOUS
 70
0
 71
3
 72
11
 73
7
 74
5
 42
0.0000001
 43
0.0000001
 44
0.0000000001
 12
0.0
 22
0.1573747802
 32
0.0
 13
-0.136283381
 23
0.0786998189
 33
0.0
 40
0.0
 40
0.0
 40
0.0
 40
0.0
 40
0.2897048138
 40
0.549080994
 40
0.7822140898
 40
1.0
 40
1.0
 40
1.0
 40
1.0
 10
-9.7403959108
 20
14.9759127795
 30
0.0
 10
-9.7403959108
 20
14.9911101899
 30
0.0
 10
-9.7426987804
 20
15.0200118795
 30
0.0
 10
-9.7544022875
 20
15.0597221867
 30
0.0
 10
-9.7741061374
 20
15.0919459292
 30
0.0
 10
-9.7926141138
 20
15.1075129865
 30
0.0
 10
-9.8025076472
 20
15.1132262237
 30
0.0
 11
-9.7403959108
 21
14.9759127795
 31
0.0
 11
-9.7444719023
 21
15.0213224465
 31
0.0
 11
-9.756540439
 21
15.0603168457
 31
0.0
 11
-9.7761355351
 21
15.0913351423
 31
0.0
 11
-9.8025076472
 21
15.1132262237
 31
0.0
  0
SPLINE
  5
49D
100
AcDbEntity
  8
0
100
AcDbSpline
 62
7
  6
CONTINUOUS
 70
0
 71
3
 72
11
 73
7
 74
5
 42
0.0000001
 43
0.0000001
 44
0.0000000001
 12
0.1363067843
 22
-0.0787018289
 32
0.0
 13
0.0000100109
 23
-0.1573960521
 33
0.0
 40
0.0
 40
0.0
 40
0.0
 40
0.0
 40
0.2896992277
 40
0.5490741134
 40
0.7822095664
 40
1.0
 40
1.0
 40
1.0
 40
1.0
 10
-17.0030838454
 20
-30.4141323837
 30
0.0
 10
-16.9899211887
 20
-30.4217323367
 30
0.0
 10
-16.9660406318
 20
-30.4381803524
 30
0.0
 10
-16.9374997826
 20
-30.4681761106
 30
0.0
 10
-16.919443975
 20
-30.5013575261
 30
0.0
 10
-16.9152166759
 20
-30.5251731249
 30
0.0
 10
-16.9152159491
 20
-30.5365995764
 30
0.0
 11
-17.0030838454
 21
-30.4141323837
 31
0.0
 11
-16.9657924537
 21
-30.4403713903
 31
0.0
 11
-16.9380541604
 21
-30.4703252493
 31
0.0
 11
-16.9209879105
 21
-30.5028096576
 31
0.0
 11
-16.9152159491
 21
-30.5365995764
 31
0.0
  0
SPLINE
  5
49E
100
AcDbEntity
  8
0
100
AcDbSpline
 62
7
  6
CONTINUOUS
 70
0
 71
3
 72
8
 73
4
 74
2
 42
0.0000001
 43
0.0000001
 44
0.0000000001
 12
0.0289670231
 22
0.0135396901
 32
0.0
 13
0.0317631114
 23
0.003676464
 33
0.0
 40
0.0
 40
0.0
 40
0.0
 40
0.0
 40
1.0
 40
1.0
 40
1.0
 40
1.0
 10
8.9629561863
 20
-51.1132910325
 30
0.0
 10
8.9726118607
 20
-51.1087778024
 30
0.0
 10
8.9831821917
 20
-51.1059767922
 30
0.0
 10
8.9937698955
 20
-51.1047513043
 30
0.0
 11
8.9629561863
 21
-51.1132910325
 31
0.0
 11
8.9937698955
 21
-51.1047513043
 31
0.0
  0
SPLINE
  5
49F
100
AcDbEntity
  8
0
100
AcDbSpline
 62
7
  6
CONTINUOUS
 70
0
 71
3
 72
9
 73
5
 74
3
 42
0.0000001
 43
0.0000001
 44
0.0000000001
 12
0.0616902853
 22
0.0071404249
 32
0.0
 13
0.0589467159
 23
-0.0195438393
 33
0.0
 40
0.0
 40
0.0
 40
0.0
 40
0.0
 40
0.2434742951
 40
1.0
 40
1.0
 40
1.0
 40
1.0
 10
8.9937698955
 20
-51.1047513043
 30
0.0
 10
8.9987765618
 20
-51.1041718009
 30
0.0
 10
9.0195037219
 20
-51.1031835285
 30
0.0
 10
9.0402576459
 20
-51.1073186885
 30
0.0
 10
9.0551225478
 20
-51.1122471608
 30
0.0
 11
8.9937698955
 21
-51.1047513043
 31
0.0
 11
9.0088712097
 21
-51.1039942788
 31
0.0
 11
9.0551225478
 21
-51.1122471608
 31
0.0
  0
SPLINE
  5
4A0
100
AcDbEntity
  8
0
100
AcDbSpline
 62
7
  6
CONTINUOUS
 70
0
 71
3
 72
9
 73
5
 74
3
 42
0.0000001
 43
0.0000001
 44
0.0000000001
 12
0.0435305047
 22
-0.0144325799
 32
0.0
 13
0.0397128472
 23
-0.0229367384
 33
0.0
 40
0.0
 40
0.0
 40
0.0
 40
0.0
 40
0.2463272334
 40
1.0
 40
1.0
 40
1.0
 40
1.0
 10
9.0551225478
 20
-51.1122471608
 30
0.0
 10
9.0586967974
 20
-51.1134322066
 30
0.0
 10
9.0730630048
 20
-51.1186749239
 30
0.0
 10
9.0868333617
 20
-51.1254873934
 30
0.0
 10
9.0968101922
 20
-51.1312496585
 30
0.0
 11
9.0551225478
 21
-51.1122471608
 31
0.0
 11
9.0657382192
 21
-51.1161103027
 31
0.0
 11
9.0968101922
 21
-51.1312496585
 31
0.0
  0
SPLINE
  5
4A1
100
AcDbEntity
  8
0
100
AcDbSpline
 62
7
  6
CONTINUOUS
 70
0
 71
3
 72
8
 73
4
 74
2
 42
0.0000001
 43
0.0000001
 44
0.0000000001
 12
0.0289670231
 22
0.0135396901
 32
0.0
 13
0.0317631114
 23
0.003676464
 33
0.0
 40
0.0
 40
0.0
 40
0.0
 40
0.0
 40
1.0
 40
1.0
 40
1.0
 40
1.0
 10
-6.9469463904
 20
-41.9271126826
 30
0.0
 10
-6.937290716
 20
-41.9225994526
 30
0.0
 10
-6.926720385
 20
-41.9197984424
 30
0.0
 10
-6.9161326812
 20
-41.9185729544
 30
0.0
 11
-6.9469463904
 21
-41.9271126826
 31
0.0
 11
-6.9161326812
 21
-41.9185729544
 31
0.0
  0
SPLINE
  5
4A2
100
AcDbEntity
  8
0
100
AcDbSpline
 62
7
  6
CONTINUOUS
 70
0
 71
3
 72
9
 73
5
 74
3
 42
0.0000001
 43
0.0000001
 44
0.0000000001
 12
0.0616902853
 22
0.0071404249
 32
0.0
 13
0.0589467159
 23
-0.0195438393
 33
0.0
 40
0.0
 40
0.0
 40
0.0
 40
0.0
 40
0.2434742951
 40
1.0
 40
1.0
 40
1.0
 40
1.0
 10
-6.9161326812
 20
-41.9185729544
 30
0.0
 10
-6.9111260149
 20
-41.9179934511
 30
0.0
 10
-6.8903988548
 20
-41.9170051786
 30
0.0
 10
-6.8696449308
 20
-41.9211403387
 30
0.0
 10
-6.8547800289
 20
-41.9260688109
 30
0.0
 11
-6.9161326812
 21
-41.9185729544
 31
0.0
 11
-6.901031367
 21
-41.9178159289
 31
0.0
 11
-6.8547800289
 21
-41.9260688109
 31
0.0
  0
SPLINE
  5
4A3
100
AcDbEntity
  8
0
100
AcDbSpline
 62
7
  6
CONTINUOUS
 70
0
 71
3
 72
9
 73
5
 74
3
 42
0.0000001
 43
0.0000001
 44
0.0000000001
 12
0.0435305047
 22
-0.0144325799
 32
0.0
 13
0.0397128472
 23
-0.0229367384
 33
0.0
 40
0.0
 40
0.0
 40
0.0
 40
0.0
 40
0.2463272334
 40
1.0
 40
1.0
 40
1.0
 40
1.0
 10
-6.8547800289
 20
-41.9260688109
 30
0.0
 10
-6.8512057793
 20
-41.9272538567
 30
0.0
 10
-6.8368395719
 20
-41.932496574
 30
0.0
 10
-6.823069215
 20
-41.9393090436
 30
0.0
 10
-6.8130923845
 20
-41.9450713086
 30
0.0
 11
-6.8547800289
 21
-41.9260688109
 31
0.0
 11
-6.8441643575
 21
-41.9299319528
 31
0.0
 11
-6.8130923845
 21
-41.9450713086
 31
0.0
  0
SPLINE
  5
4A4
100
AcDbEntity
  8
0
100
AcDbSpline
 62
7
  6
CONTINUOUS
 70
0
 71
3
 72
11
 73
7
 74
5
 42
0.0000001
 43
0.0000001
 44
0.0000000001
 12
0.0
 22
0.4397542745
 32
0.0
 13
-0.3808322389
 23
0.2198877618
 33
0.0
 40
0.0
 40
0.0
 40
0.0
 40
0.0
 40
0.2372324595
 40
0.4999938932
 40
0.7627586504
 40
1.0
 40
1.0
 40
1.0
 40
1.0
 10
-10.8010560826
 20
-41.9966325616
 30
0.0
 10
-10.8010560826
 20
-41.9618578989
 30
0.0
 10
-10.8140999541
 20
-41.8885192114
 30
0.0
 10
-10.8595616254
 20
-41.7854644792
 30
0.0
 10
-10.926079722
 20
-41.6945651984
 30
0.0
 10
-10.9830717322
 20
-41.6465979237
 30
0.0
 10
-11.013188117
 20
-41.6292091006
 30
0.0
 11
-10.8010560826
 21
-41.9966325616
 31
0.0
 11
-10.8172062369
 21
-41.8935662382
 31
0.0
 11
-10.863188117
 21
-41.7875588029
 31
0.0
 11
-10.9320030446
 21
-41.6947323349
 31
0.0
 11
-11.013188117
 21
-41.6292091006
 31
0.0
  0
SPLINE
  5
4A5
100
AcDbEntity
  8
0
100
AcDbSpline
 62
7
  6
CONTINUOUS
 70
0
 71
3
 72
11
 73
7
 74
5
 42
0.0000001
 43
0.0000001
 44
0.0000000001
 12
0.0
 22
0.4397542745
 32
0.0
 13
-0.3808322389
 23
0.2198877618
 33
0.0
 40
0.0
 40
0.0
 40
0.0
 40
0.0
 40
0.2372324595
 40
0.4999938932
 40
0.7627586504
 40
1.0
 40
1.0
 40
1.0
 40
1.0
 10
5.1088464941
 20
-51.1828109115
 30
0.0
 10
5.1088464941
 20
-51.1480362488
 30
0.0
 10
5.0958026226
 20
-51.0746975613
 30
0.0
 10
5.0503409513
 20
-50.9716428291
 30
0.0
 10
4.9838228547
 20
-50.8807435483
 30
0.0
 10
4.9268308445
 20
-50.8327762736
 30
0.0
 10
4.8967144597
 20
-50.8153874505
 30
0.0
 11
5.1088464941
 21
-51.1828109115
 31
0.0
 11
5.0926963398
 21
-51.0797445881
 31
0.0
 11
5.0467144597
 21
-50.9737371528
 31
0.0
 11
4.9778995321
 21
-50.8809106848
 31
0.0
 11
4.8967144597
 21
-50.8153874505
 31
0.0
  0
SPLINE
  5
4A6
100
AcDbEntity
  8
0
100
AcDbSpline
 62
7
  6
CONTINUOUS
 70
0
 71
3
 72
11
 73
7
 74
5
 42
0.0000001
 43
0.0000001
 44
0.0000000001
 12
-0.1363215866
 22
0.0787103756
 32
0.0
 13
-0.1363216183
 23
-0.0787103206
 33
0.0
 40
0.0
 40
0.0
 40
0.0
 40
0.0
 40
0.2897063967
 40
0.5490922938
 40
0.7822195412
 40
1.0
 40
1.0
 40
1.0
 40
1.0
 10
-5.7098872581
 20
-44.6912685505
 30
0.0
 10
-5.72305167
 20
-44.6836675841
 30
0.0
 10
-5.7492396665
 20
-44.6712077534
 30
0.0
 10
-5.7894916263
 20
-44.661485734
 30
0.0
 10
-5.8272598409
 20
-44.6624403657
 30
0.0
 10
-5.8499983621
 20
-44.6706922931
 30
0.0
 10
-5.8598944237
 20
-44.6764061496
 30
0.0
 11
-5.7098872581
 21
-44.6912685505
 31
0.0
 11
-5.7512612977
 21
-44.6720884379
 31
0.0
 11
-5.7910770108
 21
-44.6630408349
 31
0.0
 11
-5.8277450914
 21
-44.6645047988
 31
0.0
 11
-5.8598944237
 21
-44.6764061496
 31
0.0
  0
SPLINE
  5
4A7
100
AcDbEntity
  8
0
100
AcDbSpline
 62
7
  6
CONTINUOUS
 70
0
 71
3
 72
9
 73
5
 74
3
 42
0.0000001
 43
0.0000001
 44
0.0000000001
 12
-0.0685559501
 22
-0.1766940193
 32
0.0
 13
-0.1597857543
 23
-0.1019274619
 33
0.0
 40
0.0
 40
0.0
 40
0.0
 40
0.0
 40
0.5194818255
 40
1.0
 40
1.0
 40
1.0
 40
1.0
 10
-14.6383795701
 20
-9.9688215855
 30
0.0
 10
-14.6502507602
 20
-9.9994180294
 30
0.0
 10
-14.6818309619
 20
-10.0550990317
 30
0.0
 10
-14.7278593157
 20
-10.1003632624
 30
0.0
 10
-14.7534526354
 20
-10.1166892617
 30
0.0
 11
-14.6383795701
 21
-9.9688215855
 31
0.0
 11
-14.6869604399
 21
-10.0544574826
 31
0.0
 11
-14.7534526354
 21
-10.1166892617
 31
0.0
  0
LINE
  5
4A8
100
AcDbEntity
  8
0
100
AcDbLine
 62
7
  6
CONTINUOUS
 10
-2.6388868447
 20
-44.355205226
 11
-2.690258329
 21
-44.3848710204
  0
SPLINE
  5
4A9
100
AcDbEntity
  8
0
100
AcDbSpline
 62
7
  6
CONTINUOUS
 70
0
 71
3
 72
11
 73
7
 74
5
 42
0.0000001
 43
0.0000001
 44
0.0000000001
 12
-0.132665165
 22
0.0766104009
 32
0.0
 13
-0.1338225329
 23
-0.0745702972
 33
0.0
 40
0.0
 40
0.0
 40
0.0
 40
0.0
 40
0.2187478139
 40
0.4522842438
 40
0.711303178
 40
1.0
 40
1.0
 40
1.0
 40
1.0
 10
-9.8025076472
 20
15.1132262237
 30
0.0
 10
-9.8121810522
 20
15.1188123429
 30
0.0
 10
-9.834322016
 20
15.126956584
 30
0.0
 10
-9.8711038206
 20
15.1282747337
 30
0.0
 10
-9.9103484697
 20
15.1193609819
 30
0.0
 10
-9.9359476841
 20
15.1076478603
 30
0.0
 10
-9.9488257307
 20
15.1004717911
 30
0.0
 11
-9.8025076472
 21
15.1132262237
 31
0.0
 11
-9.833889722
 21
15.1249812569
 31
0.0
 11
-9.8696225167
 21
15.1267589675
 31
0.0
 11
-9.9084295661
 21
15.1184776341
 31
0.0
 11
-9.9488257307
 21
15.1004717911
 31
0.0
  0
SPLINE
  5
4AA
100
AcDbEntity
  8
0
100
AcDbSpline
 62
7
  6
CONTINUOUS
 70
0
 71
3
 72
11
 73
7
 74
5
 42
0.0000001
 43
0.0000001
 44
0.0000000001
 12
-0.1363196966
 22
0.0787129589
 32
0.0
 13
-0.1363212878
 23
-0.0787102031
 33
0.0
 40
0.0
 40
0.0
 40
0.0
 40
0.0
 40
0.2177889
 40
0.4509247687
 40
0.7103008336
 40
1.0
 40
1.0
 40
1.0
 40
1.0
 10
-16.0337328746
 20
19.9120392562
 30
0.0
 10
-16.0436291802
 20
19.9177535257
 30
0.0
 10
-16.0663689316
 20
19.9260050028
 30
0.0
 10
-16.1041372884
 20
19.926958926
 30
0.0
 10
-16.1443889092
 20
19.9172376626
 30
0.0
 10
-16.1705756952
 20
19.9047774529
 30
0.0
 10
-16.1837397497
 20
19.8971766929
 30
0.0
 11
-16.0337328746
 21
19.9120392562
 31
0.0
 11
-16.0658835488
 21
19.9239405931
 31
0.0
 11
-16.1025529308
 21
19.9254039638
 31
0.0
 11
-16.1423670576
 21
19.9163567685
 31
0.0
 11
-16.1837397497
 21
19.8971766929
 31
0.0
  0
SPLINE
  5
4AB
100
AcDbEntity
  8
0
100
AcDbSpline
 62
7
  6
CONTINUOUS
 70
0
 71
3
 72
11
 73
7
 74
5
 42
0.0000001
 43
0.0000001
 44
0.0000000001
 12
-0.0000113246
 22
-0.1531790499
 32
0.0
 13
-0.1314714709
 23
-0.078607085
 33
0.0
 40
0.0
 40
0.0
 40
0.0
 40
0.0
 40
0.2187656241
 40
0.4523171593
 40
0.7113239092
 40
1.0
 40
1.0
 40
1.0
 40
1.0
 10
-15.8837397907
 20
19.6522351899
 30
0.0
 10
-15.8837406165
 20
19.6410650865
 30
0.0
 10
-15.8877615851
 20
19.6178201344
 30
0.0
 10
-15.9050110091
 20
19.5853111618
 30
0.0
 10
-15.9323478431
 20
19.5557841932
 30
0.0
 10
-15.9552869195
 20
19.539473494
 30
0.0
 10
-15.9679378095
 20
19.5319094987
 30
0.0
 11
-15.8837397907
 21
19.6522351899
 31
0.0
 11
-15.8892553445
 21
19.619181906
 31
0.0
 11
-15.905583316
 21
19.5873501224
 31
0.0
 11
-15.932153847
 21
19.5578871705
 31
0.0
 11
-15.9679378095
 21
19.5319094987
 31
0.0
  0
SPLINE
  5
4AC
100
AcDbEntity
  8
0
100
AcDbSpline
 62
7
  6
CONTINUOUS
 70
0
 71
3
 72
11
 73
7
 74
5
 42
0.0000001
 43
0.0000001
 44
0.0000000001
 12
0.3845332045
 22
-0.214406715
 32
0.0
 13
0.0000000002
 23
-0.4402681283
 33
0.0
 40
0.0
 40
0.0
 40
0.0
 40
0.0
 40
0.2382948755
 40
0.5011054867
 40
0.7633135658
 40
1.0
 40
1.0
 40
1.0
 40
1.0
 10
-16.1837397496
 20
19.8971766928
 30
0.0
 10
-16.1531956523
 20
19.880146019
 30
0.0
 10
-16.0952789655
 20
19.83288111
 30
0.0
 10
-16.0275189889
 20
19.7425975994
 30
0.0
 10
-15.9812044205
 20
19.6399132968
 30
0.0
 10
-15.9679378096
 20
19.5666446631
 30
0.0
 10
-15.9679378095
 20
19.5319094987
 30
0.0
 11
-16.1837397496
 21
19.8971766928
 31
0.0
 11
-16.101150167
 21
19.8324786832
 31
0.0
 11
-16.0311447345
 21
19.7403517017
 31
0.0
 11
-15.9843673628
 21
19.6348116591
 31
0.0
 11
-15.9679378095
 21
19.5319094987
 31
0.0
  0
SPLINE
  5
4AD
100
AcDbEntity
  8
0
100
AcDbSpline
 62
7
  6
CONTINUOUS
 70
0
 71
3
 72
9
 73
5
 74
3
 42
0.0000001
 43
0.0000001
 44
0.0000000001
 12
-0.0829538834
 22
0.0479340569
 32
0.0
 13
-0.0851104014
 23
-0.0439913643
 33
0.0
 40
0.0
 40
0.0
 40
0.0
 40
0.0
 40
0.4536529699
 40
1.0
 40
1.0
 40
1.0
 40
1.0
 10
-14.6608375429
 20
34.4030129676
 30
0.0
 10
-14.6733816348
 20
34.4102614434
 30
0.0
 10
-14.7069642144
 20
34.4162969077
 30
0.0
 10
-14.737952697
 20
34.4051723286
 30
0.0
 10
-14.7534526354
 20
34.3971608116
 30
0.0
 11
-14.6608375429
 21
34.4030129676
 31
0.0
 11
-14.7033174409
 21
34.4122059016
 31
0.0
 11
-14.7534526354
 21
34.3971608116
 31
0.0
  0
SPLINE
  5
4AE
100
AcDbEntity
  8
0
100
AcDbSpline
 62
7
  6
CONTINUOUS
 70
0
 71
3
 72
11
 73
7
 74
5
 42
0.0000001
 43
0.0000001
 44
0.0000000001
 12
0.1363216183
 22
0.0787103206
 32
0.0
 13
0.1363215866
 23
-0.0787103756
 33
0.0
 40
0.0
 40
0.0
 40
0.0
 40
0.0
 40
0.2177804588
 40
0.4509077062
 40
0.7102936033
 40
1.0
 40
1.0
 40
1.0
 40
1.0
 10
-6.4255798486
 20
-45.0030258243
 30
0.0
 10
-6.4156837871
 20
-44.9973119677
 30
0.0
 10
-6.3929452658
 20
-44.9890600404
 30
0.0
 10
-6.3551770513
 20
-44.9881054086
 30
0.0
 10
-6.3149250914
 20
-44.9978274281
 30
0.0
 10
-6.2887370949
 20
-45.0102872588
 30
0.0
 10
-6.275572683
 20
-45.0178882252
 30
0.0
 11
-6.4255798486
 21
-45.0030258243
 31
0.0
 11
-6.3934305164
 21
-44.9911244734
 31
0.0
 11
-6.3567624357
 21
-44.9896605095
 31
0.0
 11
-6.3169467227
 21
-44.9987081126
 31
0.0
 11
-6.275572683
 21
-45.0178882252
 31
0.0
  0
SPLINE
  5
4AF
100
AcDbEntity
  8
0
100
AcDbSpline
 62
7
  6
CONTINUOUS
 70
0
 71
3
 72
11
 73
7
 74
5
 42
0.0000001
 43
0.0000001
 44
0.0000000001
 12
-0.1363196965
 22
0.0787129589
 32
0.0
 13
-0.1363212878
 23
-0.078710203
 33
0.0
 40
0.0
 40
0.0
 40
0.0
 40
0.0
 40
0.2177888999
 40
0.4509247687
 40
0.7103008337
 40
1.0
 40
1.0
 40
1.0
 40
1.0
 10
-16.0337328746
 20
-38.0573503961
 30
0.0
 10
-16.0436291802
 20
-38.0516361266
 30
0.0
 10
-16.0663689316
 20
-38.0433846495
 30
0.0
 10
-16.1041372884
 20
-38.0424307262
 30
0.0
 10
-16.1443889092
 20
-38.0521519897
 30
0.0
 10
-16.1705756952
 20
-38.0646121994
 30
0.0
 10
-16.1837397496
 20
-38.0722129595
 30
0.0
 11
-16.0337328746
 21
-38.0573503961
 31
0.0
 11
-16.0658835488
 21
-38.0454490591
 31
0.0
 11
-16.1025529307
 21
-38.0439856885
 31
0.0
 11
-16.1423670576
 21
-38.0530328838
 31
0.0
 11
-16.1837397496
 21
-38.0722129595
 31
0.0
  0
SPLINE
  5
4B0
100
AcDbEntity
  8
0
100
AcDbSpline
 62
7
  6
CONTINUOUS
 70
0
 71
3
 72
11
 73
7
 74
5
 42
0.0000001
 43
0.0000001
 44
0.0000000001
 12
-0.0000113246
 22
-0.1531790499
 32
0.0
 13
-0.1314714709
 23
-0.078607085
 33
0.0
 40
0.0
 40
0.0
 40
0.0
 40
0.0
 40
0.2187656241
 40
0.4523171593
 40
0.7113239091
 40
1.0
 40
1.0
 40
1.0
 40
1.0
 10
-15.8837397907
 20
-38.3171544624
 30
0.0
 10
-15.8837406165
 20
-38.3283245658
 30
0.0
 10
-15.8877615851
 20
-38.3515695179
 30
0.0
 10
-15.9050110091
 20
-38.3840784905
 30
0.0
 10
-15.9323478431
 20
-38.4136054591
 30
0.0
 10
-15.9552869194
 20
-38.4299161583
 30
0.0
 10
-15.9679378095
 20
-38.4374801536
 30
0.0
 11
-15.8837397907
 21
-38.3171544624
 31
0.0
 11
-15.8892553445
 21
-38.3502077463
 31
0.0
 11
-15.905583316
 21
-38.3820395299
 31
0.0
 11
-15.932153847
 21
-38.4115024818
 31
0.0
 11
-15.9679378095
 21
-38.4374801536
 31
0.0
  0
SPLINE
  5
4B1
100
AcDbEntity
  8
0
100
AcDbSpline
 62
7
  6
CONTINUOUS
 70
0
 71
3
 72
9
 73
5
 74
3
 42
0.0000001
 43
0.0000001
 44
0.0000000001
 12
0.0000323393
 22
-0.0958059031
 32
0.0
 13
-0.0806486366
 23
-0.0517162404
 33
0.0
 40
0.0
 40
0.0
 40
0.0
 40
0.0
 40
0.4536675455
 40
1.0
 40
1.0
 40
1.0
 40
1.0
 10
-2.6388869799
 20
13.5803782565
 30
0.0
 10
-2.6388820894
 20
13.5658902468
 30
0.0
 10
-2.6504449033
 20
13.5337896702
 30
0.0
 10
-2.6755713398
 20
13.5125134799
 30
0.0
 10
-2.690258329
 20
13.503095393
 30
0.0
 11
-2.6388869799
 21
13.5803782565
 31
0.0
 11
-2.6521650229
 21
13.5389920801
 31
0.0
 11
-2.690258329
 21
13.503095393
 31
0.0
  0
SPLINE
  5
4B2
100
AcDbEntity
  8
0
100
AcDbSpline
 62
7
  6
CONTINUOUS
 70
0
 71
3
 72
11
 73
7
 74
5
 42
0.0000001
 43
0.0000001
 44
0.0000000001
 12
0.0000097437
 22
-0.153194492
 32
0.0
 13
-0.1314847245
 23
-0.0786150093
 33
0.0
 40
0.0
 40
0.0
 40
0.0
 40
0.0
 40
0.218757533
 40
0.4522985233
 40
0.7113142485
 40
1.0
 40
1.0
 40
1.0
 40
1.0
 10
-16.9152159491
 20
-30.5365995764
 30
0.0
 10
-16.9152152386
 20
-30.5477703927
 30
0.0
 10
-16.9192325849
 20
-30.5710174242
 30
0.0
 10
-16.9364804579
 20
-30.6035312292
 30
0.0
 10
-16.9638197883
 20
-30.633062094
 30
0.0
 10
-16.9867613508
 20
-30.6493758618
 30
0.0
 10
-16.9994139397
 20
-30.6569408728
 30
0.0
 11
-16.9152159491
 21
-30.5365995764
 31
0.0
 11
-16.9207270386
 21
-30.5696557731
 31
0.0
 11
-16.9370527536
 21
-30.6014909518
 31
0.0
 11
-16.9636257484
 21
-30.630958919
 31
0.0
 11
-16.9994139397
 21
-30.6569408728
 31
0.0
  0
SPLINE
  5
4B3
100
AcDbEntity
  8
0
100
AcDbSpline
 62
7
  6
CONTINUOUS
 70
0
 71
3
 72
11
 73
7
 74
5
 42
0.0000001
 43
0.0000001
 44
0.0000000001
 12
0.1314847245
 22
0.0786150093
 32
0.0
 13
-0.0000097437
 23
0.153194492
 33
0.0
 40
0.0
 40
0.0
 40
0.0
 40
0.0
 40
0.2886857515
 40
0.5477014767
 40
0.781242467
 40
1.0
 40
1.0
 40
1.0
 40
1.0
 10
-16.9994139397
 20
27.3124487795
 30
0.0
 10
-16.9867613508
 20
27.3200137905
 30
0.0
 10
-16.9638197883
 20
27.3363275583
 30
0.0
 10
-16.9364804579
 20
27.3658584231
 30
0.0
 10
-16.9192325849
 20
27.3983722281
 30
0.0
 10
-16.9152152386
 20
27.4216192595
 30
0.0
 10
-16.9152159491
 20
27.4327900759
 30
0.0
 11
-16.9994139397
 21
27.3124487795
 31
0.0
 11
-16.9636257484
 21
27.3384307333
 31
0.0
 11
-16.9370527536
 21
27.3678987005
 31
0.0
 11
-16.9207270386
 21
27.3997338792
 31
0.0
 11
-16.9152159491
 21
27.4327900759
 31
0.0
  0
SPLINE
  5
4B4
100
AcDbEntity
  8
0
100
AcDbSpline
 62
7
  6
CONTINUOUS
 70
0
 71
3
 72
11
 73
7
 74
5
 42
0.0000001
 43
0.0000001
 44
0.0000000001
 12
0.1338225329
 22
0.0745702972
 32
0.0
 13
0.132665165
 23
-0.0766104009
 33
0.0
 40
0.0
 40
0.0
 40
0.0
 40
0.0
 40
0.288696822
 40
0.5477157562
 40
0.7812521861
 40
1.0
 40
1.0
 40
1.0
 40
1.0
 10
-9.9488257307
 20
-42.8689178612
 30
0.0
 10
-9.9359476841
 20
-42.861741792
 30
0.0
 10
-9.9103484697
 20
-42.8500286704
 30
0.0
 10
-9.8711038206
 20
-42.8411149186
 30
0.0
 10
-9.834322016
 20
-42.8424330683
 30
0.0
 10
-9.8121810522
 20
-42.8505773093
 30
0.0
 10
-9.8025076472
 20
-42.8561634286
 30
0.0
 11
-9.9488257307
 21
-42.8689178612
 31
0.0
 11
-9.9084295661
 21
-42.8509120182
 31
0.0
 11
-9.8696225167
 21
-42.8426306847
 31
0.0
 11
-9.833889722
 21
-42.8444083954
 31
0.0
 11
-9.8025076472
 21
-42.8561634286
 31
0.0
  0
SPLINE
  5
4B5
100
AcDbEntity
  8
RACCORDO
100
AcDbSpline
 62
7
  6
CONTINUOUS
 70
0
 71
3
 72
11
 73
7
 74
5
 42
0.0000001
 43
0.0000001
 44
0.0000000001
 12
-0.1363215866
 22
0.0787103756
 32
0.0
 13
-0.1363216183
 23
-0.0787103206
 33
0.0
 40
0.0
 40
0.0
 40
0.0
 40
0.0
 40
0.2897063967
 40
0.5490922938
 40
0.7822195412
 40
1.0
 40
1.0
 40
1.0
 40
1.0
 10
-6.275572683
 20
12.9515014271
 30
0.0
 10
-6.2887370949
 20
12.9591023935
 30
0.0
 10
-6.3149250914
 20
12.9715622242
 30
0.0
 10
-6.3551770513
 20
12.9812842437
 30
0.0
 10
-6.3929452658
 20
12.9803296119
 30
0.0
 10
-6.4156837871
 20
12.9720776846
 30
0.0
 10
-6.4255798486
 20
12.966363828
 30
0.0
 11
-6.275572683
 21
12.9515014271
 31
0.0
 11
-6.3169467227
 21
12.9706815397
 31
0.0
 11
-6.3567624357
 21
12.9797291428
 31
0.0
 11
-6.3934305164
 21
12.9782651789
 31
0.0
 11
-6.4255798486
 21
12.966363828
 31
0.0
  0
SPLINE
  5
4B6
100
AcDbEntity
  8
RACCORDO
100
AcDbSpline
 62
7
  6
CONTINUOUS
 70
0
 71
3
 72
11
 73
7
 74
5
 42
0.0000001
 43
0.0000001
 44
0.0000000001
 12
-0.0642601111
 22
0.3798729412
 32
0.0
 13
-0.3336480537
 23
0.1926442046
 33
0.0
 40
0.0
 40
0.0
 40
0.0
 40
0.0
 40
0.2491757214
 40
0.5117855836
 40
0.768099784
 40
1.0
 40
1.0
 40
1.0
 40
1.0
 10
4.5383419717
 20
6.514638463
 30
0.0
 10
4.5330046186
 20
6.5461901678
 30
0.0
 10
4.5138834424
 20
6.6097200443
 30
0.0
 10
4.4672945228
 20
6.6973069638
 30
0.0
 10
4.4063535905
 20
6.7727646001
 30
0.0
 10
4.3568200533
 20
6.8124911163
 30
0.0
 10
4.3310290348
 20
6.8273825272
 30
0.0
 11
4.5383419717
 21
6.514638463
 31
0.0
 11
4.5115595066
 21
6.6068267283
 31
0.0
 11
4.4641868446
 21
6.6962266304
 31
0.0
 11
4.4016412496
 21
6.7726441318
 31
0.0
 11
4.3310290348
 21
6.8273825272
 31
0.0
  0
SPLINE
  5
4B7
100
AcDbEntity
  8
RACCORDO
100
AcDbSpline
 62
7
  6
CONTINUOUS
 70
0
 71
3
 72
11
 73
7
 74
5
 42
0.0000001
 43
0.0000001
 44
0.0000000001
 12
-0.0642601111
 22
0.3798729412
 32
0.0
 13
-0.3336480537
 23
0.1926442046
 33
0.0
 40
0.0
 40
0.0
 40
0.0
 40
0.0
 40
0.2491757214
 40
0.5117855836
 40
0.768099784
 40
1.0
 40
1.0
 40
1.0
 40
1.0
 10
-11.371560605
 20
15.7008168129
 30
0.0
 10
-11.3768979581
 20
15.7323685176
 30
0.0
 10
-11.3960191343
 20
15.7958983942
 30
0.0
 10
-11.4426080539
 20
15.8834853137
 30
0.0
 10
-11.5035489862
 20
15.95894295
 30
0.0
 10
-11.5530825234
 20
15.9986694662
 30
0.0
 10
-11.5788735419
 20
16.013560877
 30
0.0
 11
-11.371560605
 21
15.7008168129
 31
0.0
 11
-11.3983430701
 21
15.7930050781
 31
0.0
 11
-11.4457157321
 21
15.8824049802
 31
0.0
 11
-11.5082613271
 21
15.9588224817
 31
0.0
 11
-11.5788735419
 21
16.013560877
 31
0.0
  0
SPLINE
  5
4B8
100
AcDbEntity
  8
0
100
AcDbSpline
 62
7
  6
CONTINUOUS
 70
0
 71
3
 72
11
 73
7
 74
5
 42
0.0000001
 43
0.0000001
 44
0.0000000001
 12
0.0
 22
0.4402681283
 32
0.0
 13
-0.3845332044
 23
0.2144067152
 33
0.0
 40
0.0
 40
0.0
 40
0.0
 40
0.0
 40
0.2366864372
 40
0.4988945121
 40
0.7617051275
 40
1.0
 40
1.0
 40
1.0
 40
1.0
 10
-15.9679378095
 20
-38.4374801536
 30
0.0
 10
-15.9679378095
 20
-38.4027449887
 30
0.0
 10
-15.9812044208
 20
-38.3294763552
 30
0.0
 10
-16.0275189892
 20
-38.2267920523
 30
0.0
 10
-16.0952789656
 20
-38.1365085419
 30
0.0
 10
-16.1531956527
 20
-38.0892436331
 30
0.0
 10
-16.1837397496
 20
-38.0722129595
 30
0.0
 11
-15.9679378095
 21
-38.4374801536
 31
0.0
 11
-15.9843673633
 21
-38.3345779919
 31
0.0
 11
-16.0311447343
 21
-38.229037951
 31
0.0
 11
-16.1011501678
 21
-38.136910968
 31
0.0
 11
-16.1837397496
 21
-38.0722129595
 31
0.0
  0
SPLINE
  5
4B9
100
AcDbEntity
  8
0
100
AcDbSpline
 62
7
  6
CONTINUOUS
 70
0
 71
3
 72
11
 73
7
 74
5
 42
0.0000001
 43
0.0000001
 44
0.0000000001
 12
0.0514969358
 22
0.029447379
 32
0.0
 13
-0.05587741
 23
-0.0199197787
 33
0.0
 40
0.0
 40
0.0
 40
0.0
 40
0.0
 40
0.4549865686
 40
0.7690082257
 40
0.9453202531
 40
1.0
 40
1.0
 40
1.0
 40
1.0
 10
-14.6829357703
 20
-23.6129443948
 30
0.0
 10
-14.6751256323
 20
-23.6084783409
 30
0.0
 10
-14.6630755726
 20
-23.6013363088
 30
0.0
 10
-14.6436819765
 20
-23.5905203762
 30
0.0
 10
-14.6394741991
 20
-23.5875033914
 30
0.0
 10
-14.6305459213
 20
-23.5829154818
 30
0.0
 10
-14.6315643755
 20
-23.5832785513
 30
0.0
 11
-14.6829357703
 21
-23.6129443948
 31
0.0
 11
-14.6595622552
 21
-23.5994472158
 31
0.0
 11
-14.6434299517
 21
-23.5901324904
 31
0.0
 11
-14.6343725114
 21
-23.5849021241
 31
0.0
 11
-14.6315643755
 21
-23.5832785513
 31
0.0
  0
SPLINE
  5
4BA
100
AcDbEntity
  8
0
100
AcDbSpline
 62
7
  6
CONTINUOUS
 70
0
 71
3
 72
11
 73
7
 74
5
 42
0.0000001
 43
0.0000001
 44
0.0000000001
 12
0.3336480537
 22
-0.1926442046
 32
0.0
 13
0.0642601111
 23
-0.3798729412
 33
0.0
 40
0.0
 40
0.0
 40
0.0
 40
0.0
 40
0.231900216
 40
0.4882144164
 40
0.7508242786
 40
1.0
 40
1.0
 40
1.0
 40
1.0
 10
-11.5788735419
 20
-41.9558287753
 30
0.0
 10
-11.5530825234
 20
-41.9707201861
 30
0.0
 10
-11.5035489862
 20
-42.0104467023
 30
0.0
 10
-11.4426080539
 20
-42.0859043386
 30
0.0
 10
-11.3960191343
 20
-42.1734912581
 30
0.0
 10
-11.3768979581
 20
-42.2370211347
 30
0.0
 10
-11.371560605
 20
-42.2685728394
 30
0.0
 11
-11.5788735419
 21
-41.9558287753
 31
0.0
 11
-11.5082613271
 21
-42.0105671706
 31
0.0
 11
-11.4457157321
 21
-42.0869846721
 31
0.0
 11
-11.3983430701
 21
-42.1763845742
 31
0.0
 11
-11.371560605
 21
-42.2685728394
 31
0.0
  0
SPLINE
  5
4BB
100
AcDbEntity
  8
0
100
AcDbSpline
 62
7
  6
CONTINUOUS
 70
0
 71
3
 72
11
 73
7
 74
5
 42
0.0000001
 43
0.0000001
 44
0.0000000001
 12
0.3336480537
 22
-0.1926442046
 32
0.0
 13
0.0642601111
 23
-0.3798729412
 33
0.0
 40
0.0
 40
0.0
 40
0.0
 40
0.0
 40
0.231900216
 40
0.4882144164
 40
0.7508242786
 40
1.0
 40
1.0
 40
1.0
 40
1.0
 10
4.3310290348
 20
-51.1420071251
 30
0.0
 10
4.3568200533
 20
-51.156898536
 30
0.0
 10
4.4063535905
 20
-51.1966250522
 30
0.0
 10
4.4672945228
 20
-51.2720826884
 30
0.0
 10
4.5138834424
 20
-51.359669608
 30
0.0
 10
4.5330046186
 20
-51.4231994845
 30
0.0
 10
4.5383419717
 20
-51.4547511893
 30
0.0
 11
4.3310290348
 21
-51.1420071251
 31
0.0
 11
4.4016412496
 21
-51.1967455205
 31
0.0
 11
4.4641868446
 21
-51.2731630219
 31
0.0
 11
4.5115595066
 21
-51.362562924
 31
0.0
 11
4.5383419717
 21
-51.4547511893
 31
0.0
  0
ELLIPSE
  5
4BC
100
AcDbEntity
  8
RACCORDO
100
AcDbEllipse
 62
7
  6
CONTINUOUS
 10
16.1700551832
 20
-61.4420299735
 30
0.0
 11
-0.3501235233
 21
0.606392698
 31
0.0
 40
0.5771558487
 41
-3.1588791223
 42
-2.3563950755
  0
ELLIPSE
  5
4BD
100
AcDbEntity
  8
RACCORDO
100
AcDbEllipse
 62
7
  6
CONTINUOUS
 10
16.1700551832
 20
-19.6503271549
 30
0.0
 11
-0.3500169276
 21
0.6062080092
 31
0.0
 40
0.5775075436
 41
-2.3560905478
 42
-0.7855988075
  0
ELLIPSE
  5
4BE
100
AcDbEntity
  8
RACCORDO
100
AcDbEllipse
 62
7
  6
CONTINUOUS
 10
-20.0237871407
 20
1.2475437875
 30
0.0
 11
-0.3501235233
 21
0.606392698
 31
0.0
 40
0.5771558487
 41
-0.7852941622
 42
0.0172857704
  0
ELLIPSE
  5
4BF
100
AcDbEntity
  8
RACCORDO
100
AcDbEllipse
 62
7
  6
CONTINUOUS
 10
-17.760471396
 20
-39.2376093527
 30
0.0
 11
-0.1500072547
 21
0.2598034325
 31
0.0
 40
0.5775075436
 41
0.7855021057
 42
2.355993846
  0
ELLIPSE
  5
4C0
100
AcDbEntity
  8
RACCORDO
100
AcDbEllipse
 62
7
  6
CONTINUOUS
 10
-16.9783841499
 20
-38.7860345642
 30
0.0
 11
-0.1500073079
 21
0.2598034018
 31
0.0
 40
0.5789151826
 41
0.7867191038
 42
2.3547763749
  0
ELLIPSE
  5
4C1
100
AcDbEntity
  8
RACCORDO
100
AcDbEllipse
 62
7
  6
CONTINUOUS
 10
16.1700551832
 20
-3.4726403212
 30
0.0
 11
-0.3501235233
 21
0.606392698
 31
0.0
 40
0.5771558487
 41
-3.1588791223
 42
-2.3563950755
  0
ELLIPSE
  5
4C2
100
AcDbEntity
  8
RACCORDO
100
AcDbEllipse
 62
7
  6
CONTINUOUS
 10
16.1700551832
 20
38.3190624974
 30
0.0
 11
-0.3500169276
 21
0.6062080092
 31
0.0
 40
0.5775075436
 41
-2.3560905478
 42
-0.7855988075
  0
ELLIPSE
  5
4C3
100
AcDbEntity
  8
RACCORDO
100
AcDbEllipse
 62
7
  6
CONTINUOUS
 10
-20.0237871407
 20
59.2169334398
 30
0.0
 11
-0.3501235233
 21
0.606392698
 31
0.0
 40
0.5771558487
 41
-0.7852941622
 42
0.0172857704
  0
ELLIPSE
  5
4C4
100
AcDbEntity
  8
RACCORDO
100
AcDbEllipse
 62
7
  6
CONTINUOUS
 10
-17.760471396
 20
18.7317802996
 30
0.0
 11
-0.1500072547
 21
0.2598034325
 31
0.0
 40
0.5775075436
 41
0.7855021057
 42
2.355993846
  0
ELLIPSE
  5
4C5
100
AcDbEntity
  8
RACCORDO
100
AcDbEllipse
 62
7
  6
CONTINUOUS
 10
-16.9783841499
 20
19.1833550881
 30
0.0
 11
-0.1500073079
 21
0.2598034018
 31
0.0
 40
0.5789151826
 41
0.7867191038
 42
2.3547763749
  0
ELLIPSE
  5
4C6
100
AcDbEntity
  8
0
100
AcDbEllipse
 62
7
  6
CONTINUOUS
 10
-16.6700746801
 20
-25.9526454892
 30
0.0
 11
-0.1500529453
 21
0.2598034383
 31
0.0
 40
0.5773316475
 41
-3.1502321102
 42
-2.3563951207
  0
ELLIPSE
  5
4C7
100
AcDbEntity
  8
0
100
AcDbEllipse
 62
7
  6
CONTINUOUS
 10
-3.5889375871
 20
-45.2223400696
 30
0.0
 11
0.2123743771
 21
0.3678550612
 31
0.0
 40
0.5773586895
 41
-2.3535969767
 42
-1.8309336332
  0
ELLIPSE
  5
4C8
100
AcDbEntity
  8
0
100
AcDbEllipse
 62
7
  6
CONTINUOUS
 10
12.3209649896
 20
-54.4085184195
 30
0.0
 11
0.2123743771
 21
0.3678550612
 31
0.0
 40
0.5773586895
 41
-2.3535969767
 42
-1.8309336332
  0
ELLIPSE
  5
4C9
100
AcDbEntity
  8
0
100
AcDbEllipse
 62
7
  6
CONTINUOUS
 10
-15.2497748699
 20
-23.4572758459
 30
0.0
 11
0.2008240461
 21
0.1149900593
 31
0.0
 40
0.0035062734
 41
0.0020007819
 42
0.7351275774
  0
ELLIPSE
  5
4CA
100
AcDbEntity
  8
0
100
AcDbEllipse
 62
7
  6
CONTINUOUS
 10
-16.7420196177
 20
-37.34169715
 30
0.0
 11
-0.1500529453
 21
0.2598034383
 31
0.0
 40
0.5773316475
 41
-3.1502321102
 42
-2.3563951207
  0
ELLIPSE
  5
4CB
100
AcDbEntity
  8
0
100
AcDbEllipse
 62
7
  6
CONTINUOUS
 10
-16.7420196177
 20
-7.6221790748
 30
0.0
 11
-0.1500529453
 21
0.2598034383
 31
0.0
 40
0.5773316475
 41
-3.1502321102
 42
-2.3563951207
  0
ELLIPSE
  5
4CC
100
AcDbEntity
  8
0
100
AcDbEllipse
 62
7
  6
CONTINUOUS
 10
-15.8576109132
 20
33.9970151029
 30
0.0
 11
0.4247590168
 21
-0.0
 31
0.0
 40
0.57733079
 41
1.8309094725
 42
2.353672532
  0
ELLIPSE
  5
4CD
100
AcDbEntity
  8
0
100
AcDbEllipse
 62
7
  6
CONTINUOUS
 10
-15.8576109132
 20
52.3675963308
 30
0.0
 11
0.4247590168
 21
-0.0
 31
0.0
 40
0.57733079
 41
1.8309094725
 42
2.353672532
  0
ELLIPSE
  5
4CE
100
AcDbEntity
  8
ASSI
100
AcDbEllipse
 62
7
  6
CONTINUOUS
 10
-2.8388872941
 20
13.0158259804
 30
0.0
 11
0.1999995634
 21
0.1164181051
 31
0.0
 40
0.0035896273
 41
-0.7351277754
 42
-0.0020507019
  0
ELLIPSE
  5
4CF
100
AcDbEntity
  8
RACCORDO
100
AcDbEllipse
 62
7
  6
CONTINUOUS
 10
-16.6700746801
 20
44.263798315
 30
0.0
 11
-0.1500529453
 21
0.2598034383
 31
0.0
 40
0.5773316475
 41
-2.3563951207
 42
-0.7855987939
  0
ELLIPSE
  5
4D0
100
AcDbEntity
  8
RACCORDO
100
AcDbEllipse
 62
7
  6
CONTINUOUS
 10
-16.6700746801
 20
32.0167441631
 30
0.0
 11
-0.1500529453
 21
0.2598034383
 31
0.0
 40
0.5773316475
 41
-3.1502321102
 42
-2.3563951207
  0
ELLIPSE
  5
4D1
100
AcDbEntity
  8
RACCORDO
100
AcDbEllipse
 62
7
  6
CONTINUOUS
 10
-16.7420196177
 20
25.8531022737
 30
0.0
 11
-0.1500529453
 21
0.2598034383
 31
0.0
 40
0.5773316475
 41
-2.3563951207
 42
-0.7855987939
  0
ELLIPSE
  5
4D2
100
AcDbEntity
  8
RACCORDO
100
AcDbEllipse
 62
7
  6
CONTINUOUS
 10
-16.7420196177
 20
20.6276925023
 30
0.0
 11
-0.1500529453
 21
0.2598034383
 31
0.0
 40
0.5773316475
 41
-3.1502321102
 42
-2.3563951207
  0
ELLIPSE
  5
4D3
100
AcDbEntity
  8
RACCORDO
100
AcDbEllipse
 62
7
  6
CONTINUOUS
 10
-16.7420196177
 20
50.3472105775
 30
0.0
 11
-0.1500529453
 21
0.2598034383
 31
0.0
 40
0.5773316475
 41
-3.1502321102
 42
-2.3563951207
  0
ELLIPSE
  5
4D4
100
AcDbEntity
  8
ASSI
100
AcDbEllipse
 62
7
  6
CONTINUOUS
 10
12.3209649896
 20
3.5608712328
 30
0.0
 11
0.2123743771
 21
0.3678550612
 31
0.0
 40
0.5773586895
 41
-2.3535936561
 42
-1.8309336332
  0
ELLIPSE
  5
4D5
100
AcDbEntity
  8
ASSI
100
AcDbEllipse
 62
7
  6
CONTINUOUS
 10
-3.5889375871
 20
12.7470495827
 30
0.0
 11
0.2123743771
 21
0.3678550612
 31
0.0
 40
0.5773586895
 41
-2.3535936561
 42
-1.8309336332
  0
ELLIPSE
  5
4D6
100
AcDbEntity
  8
0
100
AcDbEllipse
 62
7
  6
CONTINUOUS
 10
-14.8315647354
 20
47.8888064769
 30
0.0
 11
0.1999154856
 21
0.0095814127
 31
0.0
 40
0.6067642562
 41
-0.8144705522
 42
-0.7621106746
  0
ELLIPSE
  5
4D7
100
AcDbEntity
  8
0
100
AcDbEllipse
 62
7
  6
CONTINUOUS
 10
-15.2497748699
 20
34.5121138064
 30
0.0
 11
0.2008240461
 21
0.1149900593
 31
0.0
 40
0.0035062734
 41
0.0019064971
 42
0.7351275774
  0
ELLIPSE
  5
4D8
100
AcDbEntity
  8
0
100
AcDbEllipse
 62
7
  6
CONTINUOUS
 10
8.9551668723
 20
-51.2804108232
 30
0.0
 11
0.1082601067
 21
0.1683382284
 31
0.0
 40
0.6067084637
 41
0.7621560142
 42
0.8145158917
  0
ELLIPSE
  5
4D9
100
AcDbEntity
  8
0
100
AcDbEllipse
 62
7
  6
CONTINUOUS
 10
-6.9547357044
 20
-42.0942324733
 30
0.0
 11
0.1082601067
 21
0.1683382284
 31
0.0
 40
0.6067084637
 41
0.7621560142
 42
0.8145158917
  0
ELLIPSE
  5
4DA
100
AcDbEntity
  8
0
100
AcDbEllipse
 62
7
  6
CONTINUOUS
 10
-2.8388872941
 20
-44.9535636719
 30
0.0
 11
0.1999995634
 21
0.1164181051
 31
0.0
 40
0.0035896273
 41
-0.7351277754
 42
-0.0019562056
  0
ELLIPSE
  5
4DB
100
AcDbEntity
  8
0
100
AcDbEllipse
 62
7
  6
CONTINUOUS
 10
-16.6700746801
 20
-13.7055913373
 30
0.0
 11
-0.1500529453
 21
0.2598034383
 31
0.0
 40
0.5773316475
 41
-2.3563951207
 42
-0.7855987939
  0
ELLIPSE
  5
4DC
100
AcDbEntity
  8
0
100
AcDbEllipse
 62
7
  6
CONTINUOUS
 10
-14.8315647354
 20
-28.4511644033
 30
0.0
 11
0.1999154856
 21
0.0095814127
 31
0.0
 40
0.6067642562
 41
-0.8144705522
 42
-0.7621106746
  0
ELLIPSE
  5
4DD
100
AcDbEntity
  8
0
100
AcDbEllipse
 62
7
  6
CONTINUOUS
 10
-16.7420196177
 20
-32.1162873785
 30
0.0
 11
-0.1500529453
 21
0.2598034383
 31
0.0
 40
0.5773316475
 41
-2.3563951207
 42
-0.7855987939
  0
ELLIPSE
  5
4DE
100
AcDbEntity
  8
0
100
AcDbEllipse
 62
7
  6
CONTINUOUS
 10
-15.8576109132
 20
-5.6017933215
 30
0.0
 11
0.4247590168
 21
-0.0
 31
0.0
 40
0.57733079
 41
1.8309094725
 42
2.3536692012
  0
ELLIPSE
  5
4DF
100
AcDbEntity
  8
0
100
AcDbEllipse
 62
7
  6
CONTINUOUS
 10
-15.8576109132
 20
-23.9723745494
 30
0.0
 11
0.4247590168
 21
0.0
 31
0.0
 40
0.57733079
 41
1.8309094725
 42
2.3536692012
  0
ELLIPSE
  5
4E0
100
AcDbEntity
  8
RACCORDO
100
AcDbEllipse
 62
7
  6
CONTINUOUS
 10
-17.6773038065
 20
25.3316096998
 30
0.0
 11
-0.1500529453
 21
0.2598034383
 31
0.0
 40
0.5773316475
 41
-2.3563951207
 42
-1.133859984
  0
ELLIPSE
  5
4E1
100
AcDbEntity
  8
RACCORDO
100
AcDbEllipse
 62
7
  6
CONTINUOUS
 10
-17.6773038065
 20
49.8257180036
 30
0.0
 11
-0.1500529453
 21
0.2598034383
 31
0.0
 40
0.5773316475
 41
2.3559938597
 42
3.9267901865
  0
ELLIPSE
  5
4E2
100
AcDbEntity
  8
RACCORDO
100
AcDbEllipse
 62
7
  6
CONTINUOUS
 10
-17.6773038065
 20
20.1061999283
 30
0.0
 11
-0.1500529453
 21
0.2598034383
 31
0.0
 40
0.5773316475
 41
2.3559938597
 42
3.9267901865
  0
ELLIPSE
  5
4E3
100
AcDbEntity
  8
RACCORDO
100
AcDbEllipse
 62
7
  6
CONTINUOUS
 10
-17.2456341809
 20
31.695825656
 30
0.0
 11
-0.1500529453
 21
0.2598034383
 31
0.0
 40
0.5773316475
 41
2.6173821284
 42
3.9267901865
  0
ELLIPSE
  5
4E4
100
AcDbEntity
  8
0
100
AcDbEllipse
 62
7
  6
CONTINUOUS
 10
-2.6972718588
 20
-44.5524387392
 30
0.0
 11
0.0925036689
 21
0.1774691851
 31
0.0
 40
0.5463614449
 41
0.709509901
 42
0.7618697785
  0
ELLIPSE
  5
4E5
100
AcDbEntity
  8
0
100
AcDbEllipse
 62
7
  6
CONTINUOUS
 10
-17.6773038065
 20
-8.1436716487
 30
0.0
 11
-0.1500529453
 21
0.2598034383
 31
0.0
 40
0.5773316475
 41
2.3559938597
 42
3.9267901865
  0
ELLIPSE
  5
4E6
100
AcDbEntity
  8
0
100
AcDbEllipse
 62
7
  6
CONTINUOUS
 10
-17.6773038065
 20
-37.8631897239
 30
0.0
 11
-0.1500529453
 21
0.2598034383
 31
0.0
 40
0.5773316475
 41
2.3559938597
 42
3.9267901865
  0
ELLIPSE
  5
4E7
100
AcDbEntity
  8
0
100
AcDbEllipse
 62
7
  6
CONTINUOUS
 10
-17.6773038065
 20
-32.6377799525
 30
0.0
 11
-0.1500529453
 21
0.2598034383
 31
0.0
 40
0.5773316475
 41
-2.3563951207
 42
-1.1338599844
  0
ELLIPSE
  5
4E8
100
AcDbEntity
  8
RACCORDO
100
AcDbEllipse
 62
7
  6
CONTINUOUS
 10
-17.2456341809
 20
43.9428798079
 30
0.0
 11
-0.1500529453
 21
0.2598034383
 31
0.0
 40
0.5773316475
 41
-2.3563951207
 42
-1.0469870627
  0
ELLIPSE
  5
4E9
100
AcDbEntity
  8
0
100
AcDbEllipse
 62
7
  6
CONTINUOUS
 10
-14.8315647354
 20
-23.5352269849
 30
0.0
 11
0.1999444062
 21
-0.00862956
 31
0.0
 40
0.5464172455
 41
-0.7618192766
 42
-0.709459399
  0
ELLIPSE
  5
4EA
100
AcDbEntity
  8
0
100
AcDbEllipse
 62
7
  6
CONTINUOUS
 10
-17.2456341809
 20
-14.0265098444
 30
0.0
 11
-0.1500529453
 21
0.2598034383
 31
0.0
 40
0.5773316475
 41
-2.3563951207
 42
-1.0469870627
  0
ELLIPSE
  5
4EB
100
AcDbEntity
  8
0
100
AcDbEllipse
 62
7
  6
CONTINUOUS
 10
-17.2456341809
 20
-26.2735639963
 30
0.0
 11
-0.1500529453
 21
0.2598034383
 31
0.0
 40
0.5773316475
 41
2.6173821284
 42
3.9267901865
  0
ENDSEC
  0
SECTION
  2
OBJECTS
  0
DICTIONARY
  5
C
100
AcDbDictionary
280
0
281
1
  3
ACAD_GROUP
350
D
  3
ACAD_MLINESTYLE
350
17
  3
ACAD_LAYOUT
350
1A
  3
ACAD_PLOTSETTINGS
350
19
  3
ACAD_PLOTSTYLENAME
350
E
  0
DICTIONARY
  5
D
102
{ACAD_REACTORS
330
C
102
}
100
AcDbDictionary
280
0
281
1
  0
ACDBDICTIONARYWDFLT
  5
E
102
{ACAD_REACTORS
330
C
102
}
100
AcDbDictionary
281
1
  3
Normal
350
F
100
AcDbDictionaryWithDefault
340
F
  0
DICTIONARY
  5
17
102
{ACAD_REACTORS
330
C
102
}
100
AcDbDictionary
280
0
281
1
  3
Standard
350
18
  0
DICTIONARY
  5
19
102
{ACAD_REACTORS
330
C
102
}
100
AcDbDictionary
281
1
  0
DICTIONARY
  5
1A
102
{ACAD_REACTORS
330
C
102
}
100
AcDbDictionary
281
1
  3
Model
350
4EC
  3
Layout1
350
4ED
  0
ACDBPLACEHOLDER
  5
F
102
{ACAD_REACTORS
330
E
102
}
  0
MLINESTYLE
  5
18
102
{ACAD_REACTORS
330
17
102
}
100
AcDbMlineStyle
  2
STANDARD
 70
0
  3

 62
256
 51
90.0
 52
90.0
 71
2
 49
0.5
 62
256
  6
BYLAYER
 49
-0.5
 62
256
  6
BYLAYER
  0
LAYOUT
  5
4EC
102
{ACAD_REACTORS
330
1A
102
}
100
AcDbPlotSettings
  1

  2
none_device
  4
ISO_A4_(297.00_x_210.00_MM)
  6

 40
0.0
 41
0.0
 42
0.0
 43
0.0
 44
297.0
 45
210.0
 46
0.0
 47
0.0
 48
0.0
 49
0.0
140
0.0
141
0.0
142
1.0
143
1.0
 70
1024
 72
1
 73
0
 74
0
  7

 75
0
147
1.0
148
0.0
149
0.0
100
AcDbLayout
  1
Model
 70
0
 71
0
 10
0.0
 20
0.0
 11
297.0
 21
210.0
 12
0.0
 22
0.0
 32
0.0
 14
0.0
 24
0.0
 34
0.0
 15
0.0
 25
0.0
 35
0.0
146
0.0
 13
0.0
 23
0.0
 33
0.0
 16
1.0
 26
0.0
 36
0.0
 17
0.0
 27
1.0
 37
0.0
 76
0
330
215
345
0
346
0
  0
LAYOUT
  5
4ED
102
{ACAD_REACTORS
330
1A
102
}
100
AcDbPlotSettings
  1

  2
none_device
  4
ISO_A4_(297.00_x_210.00_MM)
  6

 40
0.0
 41
0.0
 42
0.0
 43
0.0
 44
297.0
 45
210.0
 46
0.0
 47
0.0
 48
0.0
 49
0.0
140
0.0
141
0.0
142
1.0
143
1.0
 70
0
 72
1
 73
0
 74
0
  7

 75
0
147
1.0
148
0.0
149
0.0
100
AcDbLayout
  1
Layout1
 70
0
 71
1
 10
0.0
 20
0.0
 11
297.0
 21
210.0
 12
0.0
 22
0.0
 32
0.0
 14
0.0
 24
0.0
 34
0.0
 15
0.0
 25
0.0
 35
0.0
146
0.0
 13
0.0
 23
0.0
 33
0.0
 16
1.0
 26
0.0
 36
0.0
 17
0.0
 27
1.0
 37
0.0
 76
0
330
216
345
0
346
0
  0
ENDSEC
  0
EOF
NDSEC
  0
EOF
