  0
SECTION
  2
HEADER
  9
$ACADVER
  1
AC1015
  9
$DWGCODEPAGE
  3
ANSI_1252
  9
$EXTMAX
 10
297.0
 20
210.0
 30
0.0
  9
$EXTMIN
 10
0.0
 20
0.0
 30
0.0
  9
$LIMMIN
 10
0.0
 20
0.0
  9
$LIMMAX
 10
297.0
 20
210.0
  9
$VIEWCTR
 10
148.5
 20
105.0
  9
$VIEWSIZE
 40
210.0
  9
$CLAYER
  8
0
  9
$LTSCALE
 40
16.335
  9
$CELTYPE
  6
BYLAYER
  9
$DIMSCALE
 40
1.0
  9
$DIMASZ
 40
3.0
  9
$DIMEXO
 40
1.85625
  9
$DIMDLI
 40
11.286
  9
$DIMEXE
 40
5.346
  9
$DIMCEN
 40
2.673
  9
$DIMLFAC
 40
1.0
  9
$DIMBLK
  1
_FILLED
  9
$DIMTXT
 40
3.0
  9
$DIMTOL
 70
1
  9
$DIMLIM
 70
0
  9
$DIMTFAC
 40
1.0
  9
$DIMTP
 40
0.01
  9
$DIMTM
 40
0.01
  9
$PDMODE
 70
3
  9
$PDSIZE
 40
3.0
  9
$HANDSEED
  5
4FE
  9
$TILEMODE
 70
1
  9
$MEASUREMENT
 70
1
  9
$INSUNITS
 70
4
  0
ENDSEC
  0
SECTION
  2
CLASSES
  0
CLASS
  1
ACDBDICTIONARYWDFLT
  2
AcDbDictionaryWithDefault
  3
AutoCAD 2000
 90
0
280
0
281
0
  0
CLASS
  1
ACDBPLACEHOLDER
  2
AcDbPlaceHolder
  3
AutoCAD 2000
 90
0
280
0
281
0
  0
CLASS
  1
LAYOUT
  2
AcDbLayout
  3
AutoCAD 2000
 90
0
280
0
281
0
  0
ENDSEC
  0
SECTION
  2
TABLES
  0
TABLE
  2
VPORT
  5
8
100
AcDbSymbolTable
 70
2
  0
VPORT
  5
1F4
100
AcDbSymbolTableRecord
100
AcDbViewportTableRecord
  2
*ACTIVE
 70
0
 10
0.0
 20
0.0
 11
1.0
 21
1.0
 12
148.5
 22
105.0
 13
0.0
 23
0.0
 14
1.0
 24
1.0
 15
0.0
 25
0.0
 16
0.0
 26
0.0
 36
1.0
 17
0.0
 27
0.0
 37
0.0
 40
210.0
 41
1.4142857143
 42
50.0
 43
0.0
 44
0.0
 50
0.0
 51
0.0
 71
0
 72
100
 73
1
 74
1
 75
0
 76
0
 77
0
 78
0
  0
ENDTAB
  0
TABLE
  2
LTYPE
  5
5
100
AcDbSymbolTable
 70
6
  0
LTYPE
  5
14
100
AcDbSymbolTableRecord
100
AcDbLinetypeTableRecord
  2
BYBLOCK
 70
0
  3

 72
65
 73
0
 40
0.0
  0
LTYPE
  5
15
100
AcDbSymbolTableRecord
100
AcDbLinetypeTableRecord
  2
BYLAYER
 70
0
  3

 72
65
 73
0
 40
0.0
  0
LTYPE
  5
16
100
AcDbSymbolTableRecord
100
AcDbLinetypeTableRecord
  2
CONTINUOUS
 70
64
  3
Solid line
 72
65
 73
0
 40
0.0
  0
LTYPE
  5
1F5
100
AcDbSymbolTableRecord
100
AcDbLinetypeTableRecord
  2
CENTER
 70
64
  3
____ _ ____ _ ____ _ ____ _ ____ _ ____ _ ____
 72
65
 73
4
 40
0.6
 49
0.375
 74
0
 49
-0.075
 74
0
 49
0.075
 74
0
 49
-0.075
 74
0
  0
LTYPE
  5
1F6
100
AcDbSymbolTableRecord
100
AcDbLinetypeTableRecord
  2
HIDDEN
 70
64
  3
- - - - - - - - - - - - - - - - - - - -
 72
65
 73
2
 40
0.2
 49
0.1
 74
0
 49
-0.1
 74
0
  0
LTYPE
  5
1F7
100
AcDbSymbolTableRecord
100
AcDbLinetypeTableRecord
  2
PHANTOM
 70
64
  3
_____ _ _ _____ _ _ _____ _ _ _____
 72
65
 73
6
 40
0.8
 49
0.45
 74
0
 49
-0.05
 74
0
 49
0.1
 74
0
 49
-0.05
 74
0
 49
0.1
 74
0
 49
-0.05
 74
0
  0
LTYPE
  5
1F8
100
AcDbSymbolTableRecord
100
AcDbLinetypeTableRecord
  2
DOT
 70
64
  3
. . . . . . . . . . . . . . . . . . . .
 72
65
 73
2
 40
0.2
 49
0.1
 74
0
 49
-0.1
 74
0
  0
LTYPE
  5
1F9
100
AcDbSymbolTableRecord
100
AcDbLinetypeTableRecord
  2
DASHED
 70
64
  3
- - - - - - - - - - - - - - - - - - - -
 72
65
 73
2
 40
0.2
 49
0.1
 74
0
 49
-0.1
 74
0
  0
ENDTAB
  0
TABLE
  2
LAYER
  5
2
100
AcDbSymbolTable
 70
36
  0
LAYER
  5
10
100
AcDbSymbolTableRecord
100
AcDbLayerTableRecord
  2
0
 70
0
 62
7
  6
CONTINUOUS
370
-3
390
F
  0
LAYER
  5
1FA
100
AcDbSymbolTableRecord
100
AcDbLayerTableRecord
  2
DEFAULT_1
 70
0
 62
7
  6
CENTER
370
-3
390
F
  0
LAYER
  5
1FB
100
AcDbSymbolTableRecord
100
AcDbLayerTableRecord
  2
DEFAULT_2
 70
0
 62
7
  6
HIDDEN
370
-3
390
F
  0
LAYER
  5
1FC
100
AcDbSymbolTableRecord
100
AcDbLayerTableRecord
  2
DEFAULT_3
 70
0
 62
7
  6
PHANTOM
370
-3
390
F
  0
LAYER
  5
1FD
100
AcDbSymbolTableRecord
100
AcDbLayerTableRecord
  2
ASSI
 70
0
 62
7
  6
CONTINUOUS
370
-3
390
F
  0
LAYER
  5
1FE
100
AcDbSymbolTableRecord
100
AcDbLayerTableRecord
  2
COORDINATE
 70
0
 62
7
  6
CONTINUOUS
370
-3
390
F
  0
LAYER
  5
1FF
100
AcDbSymbolTableRecord
100
AcDbLayerTableRecord
  2
COORD_ORIGINE
 70
0
 62
7
  6
CONTINUOUS
370
-3
390
F
  0
LAYER
  5
200
100
AcDbSymbolTableRecord
100
AcDbLayerTableRecord
  2
COPY_PUBLISH
 70
0
 62
7
  6
CONTINUOUS
370
-3
390
F
  0
LAYER
  5
201
100
AcDbSymbolTableRecord
100
AcDbLayerTableRecord
  2
COSMETIC
 70
0
 62
7
  6
CONTINUOUS
370
-3
390
F
  0
LAYER
  5
202
100
AcDbSymbolTableRecord
100
AcDbLayerTableRecord
  2
COSMETICI
 70
0
 62
7
  6
CONTINUOUS
370
-3
390
F
  0
LAYER
  5
203
100
AcDbSymbolTableRecord
100
AcDbLayerTableRecord
  2
CURVE
 70
0
 62
7
  6
CONTINUOUS
370
-3
390
F
  0
LAYER
  5
204
100
AcDbSymbolTableRecord
100
AcDbLayerTableRecord
  2
DRAFT
 70
0
 62
7
  6
CONTINUOUS
370
-3
390
F
  0
LAYER
  5
205
100
AcDbSymbolTableRecord
100
AcDbLayerTableRecord
  2
IMPORT_IGES
 70
0
 62
7
  6
CONTINUOUS
370
-3
390
F
  0
LAYER
  5
206
100
AcDbSymbolTableRecord
100
AcDbLayerTableRecord
  2
INTFCLR_2
 70
0
 62
7
  6
CONTINUOUS
370
-3
390
F
  0
LAYER
  5
207
100
AcDbSymbolTableRecord
100
AcDbLayerTableRecord
  2
NOTE
 70
0
 62
7
  6
CONTINUOUS
370
-3
390
F
  0
LAYER
  5
208
100
AcDbSymbolTableRecord
100
AcDbLayerTableRecord
  2
PIANI
 70
0
 62
7
  6
CONTINUOUS
370
-3
390
F
  0
LAYER
  5
209
100
AcDbSymbolTableRecord
100
AcDbLayerTableRecord
  2
PIANI_ORIGINE
 70
0
 62
7
  6
CONTINUOUS
370
-3
390
F
  0
LAYER
  5
20A
100
AcDbSymbolTableRecord
100
AcDbLayerTableRecord
  2
PIANI_RIFERIMENTO
 70
0
 62
7
  6
CONTINUOUS
370
-3
390
F
  0
LAYER
  5
20B
100
AcDbSymbolTableRecord
100
AcDbLayerTableRecord
  2
PUNTI
 70
0
 62
7
  6
CONTINUOUS
370
-3
390
F
  0
LAYER
  5
20C
100
AcDbSymbolTableRecord
100
AcDbLayerTableRecord
  2
RACCORDO
 70
0
 62
7
  6
CONTINUOUS
370
-3
390
F
  0
LAYER
  5
20D
100
AcDbSymbolTableRecord
100
AcDbLayerTableRecord
  2
SIMBOLI
 70
0
 62
7
  6
CONTINUOUS
370
-3
390
F
  0
LAYER
  5
20E
100
AcDbSymbolTableRecord
100
AcDbLayerTableRecord
  2
SMUSSO
 70
0
 62
7
  6
CONTINUOUS
370
-3
390
F
  0
LAYER
  5
20F
100
AcDbSymbolTableRecord
100
AcDbLayerTableRecord
  2
SNAPLINE
 70
0
 62
7
  6
CONTINUOUS
370
-3
390
F
  0
LAYER
  5
210
100
AcDbSymbolTableRecord
100
AcDbLayerTableRecord
  2
SUPERFICI
 70
0
 62
7
  6
CONTINUOUS
370
-3
390
F
  0
LAYER
  5
211
100
AcDbSymbolTableRecord
100
AcDbLayerTableRecord
  2
TRASH
 70
0
 62
7
  6
CONTINUOUS
370
-3
390
F
  0
LAYER
  5
212
100
AcDbSymbolTableRecord
100
AcDbLayerTableRecord
  2
XSEC_DATUMS
 70
0
 62
7
  6
CONTINUOUS
370
-3
390
F
  0
ENDTAB
  0
TABLE
  2
STYLE
  5
3
100
AcDbSymbolTable
 70
1
  0
STYLE
  5
11
100
AcDbSymbolTableRecord
100
AcDbTextStyleTableRecord
  2
STANDARD
 70
0
 40
0.0
 41
0.8
 50
0.0
 71
0
 42
0.2
  3
txt
  4

  0
STYLE
  5
213
100
AcDbSymbolTableRecord
100
AcDbTextStyleTableRecord
  2
TEXTSTYLE_1
 70
0
 40
0.0
 41
0.8
 50
0.0
 71
0
 42
0.2
  3
gdt
  4

  0
ENDTAB
  0
TABLE
  2
VIEW
  5
6
100
AcDbSymbolTable
 70
0
  0
ENDTAB
  0
TABLE
  2
UCS
  5
7
100
AcDbSymbolTable
 70
0
  0
ENDTAB
  0
TABLE
  2
APPID
  5
9
100
AcDbSymbolTable
 70
1
  0
APPID
  5
214
100
AcDbSymbolTableRecord
100
AcDbRegAppTableRecord
  2
ACAD
 70
0
  0
ENDTAB
  0
TABLE
  2
BLOCK_RECORD
  5
1
100
AcDbSymbolTable
 70
0
  0
BLOCK_RECORD
  5
215
100
AcDbSymbolTableRecord
100
AcDbBlockTableRecord
  2
*Model_Space
  0
BLOCK_RECORD
  5
216
100
AcDbSymbolTableRecord
100
AcDbBlockTableRecord
  2
*Paper_Space
  0
ENDTAB
  0
TABLE
  2
DIMSTYLE
  5
A
100
AcDbSymbolTable
 70
1
100
AcDbDimStyleTable
 71
0
  0
DIMSTYLE
105
217
100
AcDbSymbolTableRecord
100
AcDbDimStyleTableRecord
  2
STANDARD
 70
0
  3

  4

 40
1.0
 41
3.0
 42
0.0625
 43
0.38
 44
0.18
 45
0.0
 46
0.0
 47
0.01
 48
0.01
140
3.0
141
0.09
142
0.0
143
25.4
144
1.0
145
0.0
146
1.0
147
0.09
 71
1.0
 72
0.0
 73
0
 74
0
 75
0
 76
0
 77
1
 78
8
170
0
171
2
172
0
173
0
174
0
175
0
176
0
177
0
178
0
270
2
271
2
272
2
273
2
274
2
275
0
280
0
281
0
282
0
283
1
284
8
285
0
286
0
287
3
288
0
340
11
  0
ENDTAB
  0
ENDSEC
  0
SECTION
  2
BLOCKS
  0
BLOCK
  5
20
100
AcDbEntity
  8
0
100
AcDbBlockBegin
  2
*Model_Space
 70
0
 10
0.0
 20
0.0
 30
0.0
  3
*Model_Space
  1

  0
ENDBLK
  5
21
100
AcDbEntity
  8
0
100
AcDbBlockEnd
  0
BLOCK
  5
1C
100
AcDbEntity
  8
0
100
AcDbBlockBegin
  2
*Paper_Space
 70
0
 10
0.0
 20
0.0
 30
0.0
  3
*Paper_Space
  1

  0
ENDBLK
  5
1D
100
AcDbEntity
  8
0
100
AcDbBlockEnd
  0
ENDSEC
  0
SECTION
  2
ENTITIES
  0
LINE
  5
218
100
AcDbEntity
  8
DRAFT
100
AcDbLine
 62
7
  6
CONTINUOUS
 10
-32.9586606631
 20
87.1008223071
 11
-31.2885704426
 21
88.1133151492
  0
LINE
  5
219
100
AcDbEntity
  8
DRAFT
100
AcDbLine
 62
7
  6
CONTINUOUS
 10
-32.2205565914
 20
87.0338705623
 11
-30.5293352787
 21
88.0444466514
  0
LINE
  5
21A
100
AcDbEntity
  8
RACCORDO
100
AcDbLine
 62
7
  6
CONTINUOUS
 10
-35.5901981765
 20
85.9505422681
 11
-33.8224312236
 21
86.9712287514
  0
LINE
  5
21B
100
AcDbEntity
  8
SMUSSO
100
AcDbLine
 62
7
  6
CONTINUOUS
 10
-35.0901740164
 20
85.9010010904
 11
-33.3224070634
 21
86.9216875737
  0
LINE
  5
21C
100
AcDbEntity
  8
SMUSSO
100
AcDbLine
 62
7
  6
CONTINUOUS
 10
30.2464925653
 20
-87.6843043013
 11
31.6607061276
 21
-87.6843043013
  0
LINE
  5
21D
100
AcDbEntity
  8
DRAFT
100
AcDbLine
 62
7
  6
CONTINUOUS
 10
33.4284730806
 20
-85.7654571131
 11
34.0765391061
 21
-85.7654571119
  0
LINE
  5
21E
100
AcDbEntity
  8
SMUSSO
100
AcDbLine
 62
7
  6
CONTINUOUS
 10
-35.7972807976
 20
84.6762562203
 11
-35.0901740164
 21
85.9010010904
  0
LINE
  5
21F
100
AcDbEntity
  8
DRAFT
100
AcDbLine
 62
7
  6
CONTINUOUS
 10
-32.5445896041
 20
86.4726289215
 11
-32.2205565914
 21
87.0338705623
  0
LWPOLYLINE
  5
220
100
AcDbEntity
  8
RACCORDO
100
AcDbPolyline
 62
7
  6
CONTINUOUS
 90
13
 70
0
 10
-21.5163239249
 20
59.2618297016
 10
-21.5416104158
 20
59.2449559843
 10
-21.5724944579
 20
59.2205576668
 10
-21.6016755772
 20
59.1928463705
 10
-21.6288424427
 20
59.1618380829
 10
-21.6536106677
 20
59.1276954038
 10
-21.6755911475
 20
59.0907125303
 10
-21.6945624443
 20
59.0510229271
 10
-21.7103003777
 20
59.0088407312
 10
-21.7225953899
 20
58.9645658886
 10
-21.7313566775
 20
58.9184036012
 10
-21.7365186281
 20
58.8704103097
 10
-21.7380337472
 20
58.8256027796
  0
LINE
  5
221
100
AcDbEntity
  8
RACCORDO
100
AcDbLine
 62
7
  6
CONTINUOUS
 10
-21.5165189466
 20
59.2617163943
 11
-21.2334539295
 21
59.4367680469
  0
LINE
  5
222
100
AcDbEntity
  8
RACCORDO
100
AcDbLine
 62
7
  6
CONTINUOUS
 10
-21.1589463682
 20
59.2316016027
 11
-20.8774031016
 21
59.405712182
  0
LINE
  5
223
100
AcDbEntity
  8
SMUSSO
100
AcDbLine
 62
7
  6
CONTINUOUS
 10
30.2464925653
 20
-87.6843043013
 11
30.9535993464
 21
-88.0924999847
  0
LINE
  5
224
100
AcDbEntity
  8
SMUSSO
100
AcDbLine
 62
7
  6
CONTINUOUS
 10
-35.7972807976
 20
-49.5514572845
 11
30.2464925653
 21
-87.6843043013
  0
LINE
  5
225
100
AcDbEntity
  8
DRAFT
100
AcDbLine
 62
7
  6
CONTINUOUS
 10
-16.6753003754
 20
49.7947729719
 11
-17.2113394835
 21
49.4510358855
  0
LINE
  5
226
100
AcDbEntity
  8
0
100
AcDbLine
 62
7
  6
CONTINUOUS
 10
-14.5310443534
 20
52.7007290504
 11
-14.8492424049
 21
52.5170054834
  0
LINE
  5
227
100
AcDbEntity
  8
0
100
AcDbLine
 62
7
  6
CONTINUOUS
 10
-14.884597744
 20
52.4965917537
 11
-15.2027957955
 21
52.3128681867
  0
LINE
  5
228
100
AcDbEntity
  8
0
100
AcDbLine
 62
7
  6
CONTINUOUS
 10
-15.2381511346
 20
52.2924544571
 11
-15.5563491861
 21
52.1087308901
  0
LINE
  5
229
100
AcDbEntity
  8
0
100
AcDbLine
 62
7
  6
CONTINUOUS
 10
-15.5917045252
 20
52.0883171604
 11
-15.9099025767
 21
51.9045935934
  0
LINE
  5
22A
100
AcDbEntity
  8
0
100
AcDbLine
 62
7
  6
CONTINUOUS
 10
-15.9452579158
 20
51.8841798637
 11
-15.9995251838
 21
51.8528466233
  0
LINE
  5
22B
100
AcDbEntity
  8
0
100
AcDbLine
 62
7
  6
CONTINUOUS
 10
-15.9995251838
 20
51.7303642453
 11
-15.9452579158
 21
51.7616974857
  0
LINE
  5
22C
100
AcDbEntity
  8
0
100
AcDbLine
 62
7
  6
CONTINUOUS
 10
-15.6977705423
 20
51.9045935934
 11
-15.5917045252
 21
51.9658347824
  0
LINE
  5
22D
100
AcDbEntity
  8
0
100
AcDbLine
 62
7
  6
CONTINUOUS
 10
-15.3442171517
 20
52.1087308901
 11
-15.2381511346
 21
52.1699720791
  0
LINE
  5
22E
100
AcDbEntity
  8
0
100
AcDbLine
 62
7
  6
CONTINUOUS
 10
-14.9906637612
 20
52.3128681867
 11
-14.884597744
 21
52.3741093757
  0
LINE
  5
22F
100
AcDbEntity
  8
0
100
AcDbLine
 62
7
  6
CONTINUOUS
 10
-14.6371103706
 20
52.5170054834
 11
-14.5310443534
 21
52.5782466724
  0
LINE
  5
230
100
AcDbEntity
  8
0
100
AcDbLine
 62
7
  6
CONTINUOUS
 10
-15.4365245534
 20
53.0092332716
 11
-15.9995251838
 21
52.6855527579
  0
LINE
  5
231
100
AcDbEntity
  8
0
100
AcDbLine
 62
7
  6
CONTINUOUS
 10
-15.6268716374
 20
52.9460944955
 11
-15.9995251838
 21
52.7319898219
  0
LINE
  5
232
100
AcDbEntity
  8
0
100
AcDbLine
 62
7
  6
CONTINUOUS
 10
-15.1176109457
 20
53.0628050235
 11
-15.9995251838
 21
52.562359847
  0
LINE
  5
233
100
AcDbEntity
  8
RACCORDO
100
AcDbLine
 62
7
  6
CONTINUOUS
 10
-15.9995251838
 20
50.6293692253
 11
-16.9348093726
 21
50.1078766514
  0
LINE
  5
234
100
AcDbEntity
  8
RACCORDO
100
AcDbLine
 62
7
  6
CONTINUOUS
 10
-16.0629540327
 20
50.4913191627
 11
-16.9982382215
 21
49.9698265887
  0
LINE
  5
235
100
AcDbEntity
  8
0
100
AcDbLine
 62
7
  6
CONTINUOUS
 10
-14.724544799
 20
52.8358535566
 11
-15.9995251838
 21
52.176849185
  0
LINE
  5
236
100
AcDbEntity
  8
0
100
AcDbLine
 62
7
  6
CONTINUOUS
 10
-14.1598132933
 20
48.2118112415
 11
-16.6346870274
 21
46.6330872857
  0
LINE
  5
237
100
AcDbEntity
  8
RACCORDO
100
AcDbLine
 62
7
  6
CONTINUOUS
 10
-16.6753003754
 20
46.1926430724
 11
-16.6346870274
 21
46.2177555737
  0
LINE
  5
238
100
AcDbEntity
  8
0
100
AcDbLine
 62
7
  6
CONTINUOUS
 10
-16.6753003754
 20
46.8495935968
 11
-16.6523646969
 21
46.8628363701
  0
LINE
  5
239
100
AcDbEntity
  8
0
100
AcDbLine
 62
7
  6
CONTINUOUS
 10
-16.4048773235
 20
47.0057324777
 11
-16.2988113063
 21
47.0669736667
  0
LINE
  5
23A
100
AcDbEntity
  8
0
100
AcDbLine
 62
7
  6
CONTINUOUS
 10
-16.0513239329
 20
47.2098697744
 11
-15.9452579158
 21
47.2711109634
  0
LINE
  5
23B
100
AcDbEntity
  8
0
100
AcDbLine
 62
7
  6
CONTINUOUS
 10
-15.6977705423
 20
47.414007071
 11
-15.5917045252
 21
47.47524826
  0
LINE
  5
23C
100
AcDbEntity
  8
0
100
AcDbLine
 62
7
  6
CONTINUOUS
 10
-15.3442171517
 20
47.6181443677
 11
-15.2381511346
 21
47.6793855567
  0
LINE
  5
23D
100
AcDbEntity
  8
0
100
AcDbLine
 62
7
  6
CONTINUOUS
 10
-14.9906637612
 20
47.8222816644
 11
-14.884597744
 21
47.8835228534
  0
LINE
  5
23E
100
AcDbEntity
  8
0
100
AcDbLine
 62
7
  6
CONTINUOUS
 10
-14.6371103706
 20
48.026418961
 11
-14.5310443534
 21
48.08766015
  0
LINE
  5
23F
100
AcDbEntity
  8
0
100
AcDbLine
 62
7
  6
CONTINUOUS
 10
-14.28355698
 20
48.2305562577
 11
-14.1774909628
 21
48.2917974467
  0
LINE
  5
240
100
AcDbEntity
  8
RACCORDO
100
AcDbLine
 62
7
  6
CONTINUOUS
 10
-16.1397445942
 20
44.9133990813
 11
-16.6753003754
 21
44.6147857121
  0
LINE
  5
241
100
AcDbEntity
  8
RACCORDO
100
AcDbLine
 62
7
  6
CONTINUOUS
 10
-15.9275802462
 20
44.5459569628
 11
-16.503139747
 21
44.2250384557
  0
LWPOLYLINE
  5
242
100
AcDbEntity
  8
RACCORDO
100
AcDbPolyline
 62
7
  6
CONTINUOUS
 90
13
 70
0
 10
14.8887879409
 20
-62.5833098075
 10
14.9286641611
 20
-62.6045549304
 10
14.9727785766
 20
-62.6240421452
 10
15.0171066896
 20
-62.6395030831
 10
15.0615651404
 20
-62.6509643527
 10
15.1059321805
 20
-62.658404127
 10
15.149759213
 20
-62.6618045338
 10
15.1927498436
 20
-62.6612493009
 10
15.234677728
 20
-62.6568636306
 10
15.2750937901
 20
-62.6488379136
 10
15.3136654865
 20
-62.6374237403
 10
15.3502224077
 20
-62.6228794817
 10
15.3774524394
 20
-62.6094291023
  0
LINE
  5
243
100
AcDbEntity
  8
RACCORDO
100
AcDbLine
 62
7
  6
CONTINUOUS
 10
-21.3052514159
 20
-41.68533618
 11
14.8887632481
 21
-62.5833066294
  0
LINE
  5
244
100
AcDbEntity
  8
RACCORDO
100
AcDbLine
 62
7
  6
CONTINUOUS
 10
-21.3673761881
 20
-41.5480151298
 11
14.8289218059
 21
-62.4473039453
  0
LINE
  5
245
100
AcDbEntity
  8
RACCORDO
100
AcDbLine
 62
7
  6
CONTINUOUS
 10
12.8976249221
 20
-59.2386364017
 11
-19.4383626481
 21
-40.5682424437
  0
LINE
  5
246
100
AcDbEntity
  8
RACCORDO
100
AcDbLine
 62
7
  6
CONTINUOUS
 10
13.0372026587
 20
-58.9278756341
 11
-19.2987915941
 21
-40.2574778178
  0
LWPOLYLINE
  5
247
100
AcDbEntity
  8
RACCORDO
100
AcDbPolyline
 62
7
  6
CONTINUOUS
 90
3
 70
0
 10
-21.3813868333
 20
-41.6345320884
 10
-21.3345325512
 20
-41.6674318575
 10
-21.3050874291
 20
-41.6854190646
  0
LINE
  5
248
100
AcDbEntity
  8
RACCORDO
100
AcDbLine
 62
7
  6
CONTINUOUS
 10
-21.4264214307
 20
-41.5975434945
 11
-21.3813868333
 21
-41.6345320884
  0
LINE
  5
249
100
AcDbEntity
  8
0
100
AcDbLine
 62
7
  6
CONTINUOUS
 10
-15.4365245534
 20
34.6386520438
 11
-15.9275802462
 21
34.356334138
  0
LINE
  5
24A
100
AcDbEntity
  8
0
100
AcDbLine
 62
7
  6
CONTINUOUS
 10
-15.6268716374
 20
34.5755132677
 11
-15.9275802462
 21
34.4027438974
  0
LINE
  5
24B
100
AcDbEntity
  8
0
100
AcDbLine
 62
7
  6
CONTINUOUS
 10
-14.5707549225
 20
35.0025390702
 11
-15.9275802462
 21
34.232604014
  0
LINE
  5
24C
100
AcDbEntity
  8
0
100
AcDbLine
 62
7
  6
CONTINUOUS
 10
-14.2231225495
 20
34.8018204949
 11
-15.9275802462
 21
33.9208304131
  0
LINE
  5
24D
100
AcDbEntity
  8
RACCORDO
100
AcDbLine
 62
7
  6
CONTINUOUS
 10
-17.8913647885
 20
-39.4841924994
 11
13.2084347711
 21
-57.4408269931
  0
LINE
  5
24E
100
AcDbEntity
  8
RACCORDO
100
AcDbLine
 62
7
  6
CONTINUOUS
 10
-17.7766127647
 20
-39.3933787039
 11
13.2084347711
 21
-57.2837568172
  0
LINE
  5
24F
100
AcDbEntity
  8
RACCORDO
100
AcDbLine
 62
7
  6
CONTINUOUS
 10
13.2084347711
 20
-56.9378600464
 11
-17.4770761762
 21
-39.2204306052
  0
LINE
  5
250
100
AcDbEntity
  8
RACCORDO
100
AcDbLine
 62
7
  6
CONTINUOUS
 10
-16.4634590606
 20
-38.6348732135
 11
13.2084347711
 21
-55.7670528358
  0
LINE
  5
251
100
AcDbEntity
  8
0
100
AcDbLine
 62
7
  6
CONTINUOUS
 10
-8.8388347648
 20
-43.0105653249
 11
-5.9505285561
 21
-44.6782371309
  0
LINE
  5
252
100
AcDbEntity
  8
0
100
AcDbLine
 62
7
  6
CONTINUOUS
 10
7.0710678119
 20
-52.1967436748
 11
9.9525279452
 21
-53.8604626426
  0
LINE
  5
253
100
AcDbEntity
  8
0
100
AcDbLine
 62
7
  6
CONTINUOUS
 10
6.8809205876
 20
-52.0665294845
 11
6.5212211861
 21
-51.8588435581
  0
LINE
  5
254
100
AcDbEntity
  8
0
100
AcDbLine
 62
7
  6
CONTINUOUS
 10
-9.0289819891
 20
-42.8803511346
 11
-9.210065825
 21
-42.7757955973
  0
LINE
  5
255
100
AcDbEntity
  8
0
100
AcDbLine
 62
7
  6
CONTINUOUS
 10
-8.6974134086
 20
-43.0513809478
 11
-5.9379345857
 21
-44.6446694357
  0
LINE
  5
256
100
AcDbEntity
  8
0
100
AcDbLine
 62
7
  6
CONTINUOUS
 10
7.2124891681
 20
-52.2375592976
 11
9.9525279452
 21
-53.8196233468
  0
LINE
  5
257
100
AcDbEntity
  8
RACCORDO
100
AcDbLine
 62
7
  6
CONTINUOUS
 10
-16.6728891013
 20
-38.303742406
 11
-11.048543456
 21
-41.5511690919
  0
LINE
  5
258
100
AcDbEntity
  8
0
100
AcDbLine
 62
7
  6
CONTINUOUS
 10
-5.7452425971
 20
-44.6132285419
 11
4.8613591207
 21
-50.7373474418
  0
LINE
  5
259
100
AcDbEntity
  8
RACCORDO
100
AcDbLine
 62
7
  6
CONTINUOUS
 10
9.9525279452
 20
-53.6769245138
 11
13.2084347711
 21
-55.5568443089
  0
LINE
  5
25A
100
AcDbEntity
  8
0
100
AcDbLine
 62
7
  6
CONTINUOUS
 10
-9.4184956448
 20
-42.4642581779
 11
-10.2707259967
 21
-41.9721910537
  0
LINE
  5
25B
100
AcDbEntity
  8
0
100
AcDbLine
 62
7
  6
CONTINUOUS
 10
-8.5913473914
 20
-42.8676692172
 11
-5.744567636
 21
-44.5113641695
  0
LINE
  5
25C
100
AcDbEntity
  8
0
100
AcDbLine
 62
7
  6
CONTINUOUS
 10
7.3185551853
 20
-52.0538475671
 11
10.0410768767
 21
-53.6257974705
  0
LINE
  5
25D
100
AcDbEntity
  8
0
100
AcDbLine
 62
7
  6
CONTINUOUS
 10
-10.2707259967
 20
-41.8749543142
 11
-9.2721906113
 21
-42.4514961312
  0
LINE
  5
25E
100
AcDbEntity
  8
0
100
AcDbLine
 62
7
  6
CONTINUOUS
 10
-8.4852813742
 20
-42.8064280282
 11
-5.6385016188
 21
-44.4501229805
  0
LINE
  5
25F
100
AcDbEntity
  8
0
100
AcDbLine
 62
7
  6
CONTINUOUS
 10
7.4246212025
 20
-51.9926063781
 11
10.1471428939
 21
-53.5645562815
  0
LINE
  5
260
100
AcDbEntity
  8
0
100
AcDbLine
 62
7
  6
CONTINUOUS
 10
-8.343860018
 20
-42.8472436511
 11
-5.6031360297
 21
-44.4297033326
  0
LINE
  5
261
100
AcDbEntity
  8
0
100
AcDbLine
 62
7
  6
CONTINUOUS
 10
7.5660425587
 20
-52.033422001
 11
10.1825084829
 21
-53.5441366336
  0
LINE
  5
262
100
AcDbEntity
  8
0
100
AcDbLine
 62
7
  6
CONTINUOUS
 10
-17.1469737206
 20
-37.7034711237
 11
-17.2113394835
 21
-37.6663071389
  0
LINE
  5
263
100
AcDbEntity
  8
DRAFT
100
AcDbLine
 62
7
  6
CONTINUOUS
 10
-16.988187993
 20
-37.7134773666
 11
-16.6753003754
 21
-37.8941347556
  0
LINE
  5
264
100
AcDbEntity
  8
0
100
AcDbLine
 62
7
  6
CONTINUOUS
 10
-8.2377940008
 20
-42.6635319206
 11
-5.3910142454
 21
-44.3072268728
  0
LINE
  5
265
100
AcDbEntity
  8
0
100
AcDbLine
 62
7
  6
CONTINUOUS
 10
7.6721085759
 20
-51.8497102705
 11
10.3946302673
 21
-53.4216601739
  0
LINE
  5
266
100
AcDbEntity
  8
0
100
AcDbLine
 62
7
  6
CONTINUOUS
 10
-8.1317279836
 20
-42.6022907316
 11
-5.2634660616
 21
-44.2583892176
  0
LINE
  5
267
100
AcDbEntity
  8
0
100
AcDbLine
 62
7
  6
CONTINUOUS
 10
7.7781745931
 20
-51.7884690815
 11
10.5006962844
 21
-53.3604189849
  0
LINE
  5
268
100
AcDbEntity
  8
0
100
AcDbLine
 62
7
  6
CONTINUOUS
 10
-16.1397445942
 20
-37.9583340132
 11
-10.4828580311
 21
-41.2245494173
  0
LINE
  5
269
100
AcDbEntity
  8
0
100
AcDbLine
 62
7
  6
CONTINUOUS
 10
-5.1795571722
 20
-44.2866088672
 11
5.4270445456
 21
-50.4107277672
  0
LINE
  5
26A
100
AcDbEntity
  8
0
100
AcDbLine
 62
7
  6
CONTINUOUS
 10
10.5182133701
 20
-53.3503048391
 11
13.2084347711
 21
-54.9036049596
  0
LINE
  5
26B
100
AcDbEntity
  8
0
100
AcDbLine
 62
7
  6
CONTINUOUS
 10
-7.9903066274
 20
-42.6431063544
 11
-4.1012193309
 21
-44.8886166177
  0
LINE
  5
26C
100
AcDbEntity
  8
0
100
AcDbLine
 62
7
  6
CONTINUOUS
 10
7.9195959493
 20
-51.8292847043
 11
11.8086832458
 21
-54.0747949676
  0
LINE
  5
26D
100
AcDbEntity
  8
0
100
AcDbLine
 62
7
  6
CONTINUOUS
 10
-7.8842406102
 20
-42.4593946239
 11
-3.9951533137
 21
-44.7049048872
  0
LINE
  5
26E
100
AcDbEntity
  8
0
100
AcDbLine
 62
7
  6
CONTINUOUS
 10
8.0256619665
 20
-51.6455729738
 11
11.914749263
 21
-53.8910832371
  0
LINE
  5
26F
100
AcDbEntity
  8
0
100
AcDbLine
 62
7
  6
CONTINUOUS
 10
-7.7781745931
 20
-42.3981534349
 11
-3.7830212793
 21
-44.7048930507
  0
LINE
  5
270
100
AcDbEntity
  8
0
100
AcDbLine
 62
7
  6
CONTINUOUS
 10
8.1317279836
 20
-51.5843317848
 11
12.1268812973
 21
-53.8910714006
  0
LINE
  5
271
100
AcDbEntity
  8
0
100
AcDbLine
 62
7
  6
CONTINUOUS
 10
-7.6367532368
 20
-42.4389690578
 11
-3.7476659403
 21
-44.6844793211
  0
LINE
  5
272
100
AcDbEntity
  8
0
100
AcDbLine
 62
7
  6
CONTINUOUS
 10
8.2731493399
 20
-51.6251474076
 11
12.1622366364
 21
-53.8706576709
  0
LINE
  5
273
100
AcDbEntity
  8
0
100
AcDbLine
 62
7
  6
CONTINUOUS
 10
-15.6534096638
 20
-37.6675532762
 11
-16.2686864723
 21
-37.3123001581
  0
LINE
  5
274
100
AcDbEntity
  8
0
100
AcDbLine
 62
7
  6
CONTINUOUS
 10
-16.1792786561
 20
-37.2624484524
 11
-15.5034024157
 21
-37.6526909228
  0
LINE
  5
275
100
AcDbEntity
  8
0
100
AcDbLine
 62
7
  6
CONTINUOUS
 10
-7.5306872196
 20
-42.2552573273
 11
-3.6415999231
 21
-44.5007675906
  0
LINE
  5
276
100
AcDbEntity
  8
0
100
AcDbLine
 62
7
  6
CONTINUOUS
 10
8.3792153571
 20
-51.4414356771
 11
12.2683026536
 21
-53.6869459404
  0
LINE
  5
277
100
AcDbEntity
  8
0
100
AcDbLine
 62
7
  6
CONTINUOUS
 10
-7.4246212025
 20
-42.1940161383
 11
-3.4294678888
 21
-44.5007557541
  0
LINE
  5
278
100
AcDbEntity
  8
0
100
AcDbLine
 62
7
  6
CONTINUOUS
 10
8.4852813742
 20
-51.3801944881
 11
12.4804346879
 21
-53.686934104
  0
LINE
  5
279
100
AcDbEntity
  8
0
100
AcDbLine
 62
7
  6
CONTINUOUS
 10
-7.2831998462
 20
-42.2348317611
 11
-3.3941125497
 21
-44.4803420244
  0
LINE
  5
27A
100
AcDbEntity
  8
0
100
AcDbLine
 62
7
  6
CONTINUOUS
 10
8.6267027305
 20
-51.421010111
 11
12.515790027
 21
-53.6665203743
  0
LINE
  5
27B
100
AcDbEntity
  8
0
100
AcDbLine
 62
7
  6
CONTINUOUS
 10
-7.177133829
 20
-42.0511200306
 11
-3.2880465325
 21
-44.2966302939
  0
LINE
  5
27C
100
AcDbEntity
  8
0
100
AcDbLine
 62
7
  6
CONTINUOUS
 10
8.7327687477
 20
-51.2372983805
 11
12.6218560442
 21
-53.4828086438
  0
LINE
  5
27D
100
AcDbEntity
  8
0
100
AcDbLine
 62
7
  6
CONTINUOUS
 10
-7.0710678119
 20
-41.9898788416
 11
-3.0759144982
 21
-44.2966184574
  0
LINE
  5
27E
100
AcDbEntity
  8
0
100
AcDbLine
 62
7
  6
CONTINUOUS
 10
8.8388347648
 20
-51.1760571915
 11
12.8339880785
 21
-53.4827968073
  0
LINE
  5
27F
100
AcDbEntity
  8
0
100
AcDbLine
 62
7
  6
CONTINUOUS
 10
-6.9296464556
 20
-42.0306944644
 11
-3.0405591591
 21
-44.2762047277
  0
LINE
  5
280
100
AcDbEntity
  8
0
100
AcDbLine
 62
7
  6
CONTINUOUS
 10
8.9802561211
 20
-51.2168728143
 11
12.8693434176
 21
-53.4623830776
  0
LINE
  5
281
100
AcDbEntity
  8
0
100
AcDbLine
 62
7
  6
CONTINUOUS
 10
-6.8235804385
 20
-41.8469827339
 11
-2.9344931419
 21
-44.0924929972
  0
LINE
  5
282
100
AcDbEntity
  8
0
100
AcDbLine
 62
7
  6
CONTINUOUS
 10
9.0863221382
 20
-51.0331610838
 11
12.9754094348
 21
-53.2786713471
  0
LINE
  5
283
100
AcDbEntity
  8
0
100
AcDbLine
 62
7
  6
CONTINUOUS
 10
-6.7175144213
 20
-41.7857415449
 11
-2.7223611076
 21
-44.0924811607
  0
LINE
  5
284
100
AcDbEntity
  8
0
100
AcDbLine
 62
7
  6
CONTINUOUS
 10
9.1923881554
 20
-50.9719198948
 11
13.1875414691
 21
-53.2786595106
  0
LINE
  5
285
100
AcDbEntity
  8
0
100
AcDbLine
 62
7
  6
CONTINUOUS
 10
-6.576093065
 20
-41.8265571678
 11
-2.6870057685
 21
-44.0720674311
  0
LINE
  5
286
100
AcDbEntity
  8
0
100
AcDbLine
 62
7
  6
CONTINUOUS
 10
9.3338095117
 20
-51.0127355177
 11
13.2052208471
 21
-53.2480399025
  0
LINE
  5
287
100
AcDbEntity
  8
0
100
AcDbLine
 62
7
  6
CONTINUOUS
 10
-6.4700270479
 20
-41.6428454373
 11
-2.5809397513
 21
-43.8883557006
  0
LINE
  5
288
100
AcDbEntity
  8
0
100
AcDbLine
 62
7
  6
CONTINUOUS
 10
9.4398755288
 20
-50.8290237871
 11
13.2084347711
 21
-53.0049426625
  0
LINE
  5
289
100
AcDbEntity
  8
0
100
AcDbLine
 62
7
  6
CONTINUOUS
 10
-6.3639610307
 20
-41.5816042483
 11
-2.368807717
 21
-43.8883438641
  0
LINE
  5
28A
100
AcDbEntity
  8
0
100
AcDbLine
 62
7
  6
CONTINUOUS
 10
9.545941546
 20
-50.7677825981
 11
13.2084347711
 21
-52.8824602845
  0
LINE
  5
28B
100
AcDbEntity
  8
0
100
AcDbLine
 62
7
  6
CONTINUOUS
 10
13.2084347711
 20
-52.8620347183
 11
9.4854969582
 21
-50.7124570845
  0
LINE
  5
28C
100
AcDbEntity
  8
0
100
AcDbLine
 62
7
  6
CONTINUOUS
 10
-2.1669417729
 20
-43.9844850005
 11
-6.4244056185
 21
-41.5262787347
  0
LINE
  5
28D
100
AcDbEntity
  8
0
100
AcDbLine
 62
7
  6
CONTINUOUS
 10
-6.2824460939
 20
-41.5405946128
 11
-2.1089058063
 21
-43.9503444681
  0
LINE
  5
28E
100
AcDbEntity
  8
0
100
AcDbLine
 62
7
  6
CONTINUOUS
 10
9.6274564828
 20
-50.7267729626
 11
13.2084347711
 21
-52.7943849461
  0
LINE
  5
28F
100
AcDbEntity
  8
SMUSSO
100
AcDbLine
 62
7
  6
CONTINUOUS
 10
-35.7972807976
 20
-49.5514572845
 11
-35.7972807976
 21
85.4928054069
  0
LINE
  5
290
100
AcDbEntity
  8
DRAFT
100
AcDbLine
 62
7
  6
CONTINUOUS
 10
-16.6753003754
 20
26.1987819726
 11
-17.2113394835
 21
25.8550448862
  0
LINE
  5
291
100
AcDbEntity
  8
0
100
AcDbLine
 62
7
  6
CONTINUOUS
 10
-14.2231225495
 20
29.886778846
 11
-16.6753003754
 21
28.3225326284
  0
LINE
  5
292
100
AcDbEntity
  8
0
100
AcDbLine
 62
7
  6
CONTINUOUS
 10
-16.6753003754
 20
27.5938111457
 11
-16.4690838538
 21
27.7171084628
  0
LINE
  5
293
100
AcDbEntity
  8
RACCORDO
100
AcDbLine
 62
7
  6
CONTINUOUS
 10
-16.503139747
 20
31.9779843039
 11
-15.9275802462
 21
32.2989028109
  0
LINE
  5
294
100
AcDbEntity
  8
RACCORDO
100
AcDbLine
 62
7
  6
CONTINUOUS
 10
-16.5665685959
 20
31.8399342412
 11
-15.9910090951
 21
32.1608527482
  0
LINE
  5
295
100
AcDbEntity
  8
RACCORDO
100
AcDbLine
 62
7
  6
CONTINUOUS
 10
-16.2116895318
 20
26.5027030401
 11
-16.6753003754
 21
26.2442044842
  0
LINE
  5
296
100
AcDbEntity
  8
0
100
AcDbLine
 62
7
  6
CONTINUOUS
 10
-16.6753003754
 20
-31.1990035215
 11
-16.2116895318
 21
-31.4666866122
  0
LINE
  5
297
100
AcDbEntity
  8
0
100
AcDbLine
 62
7
  6
CONTINUOUS
 10
-16.4727537595
 20
-30.0094727004
 11
-16.6753003754
 21
-29.8925248229
  0
LWPOLYLINE
  5
298
100
AcDbEntity
  8
RACCORDO
100
AcDbPolyline
 62
7
  6
CONTINUOUS
 90
10
 70
0
 10
-21.7068831613
 20
-41.1489663356
 10
-21.6887138572
 20
-41.2055580612
 10
-21.6669640803
 20
-41.2608844885
 10
-21.6417425718
 20
-41.3149738875
 10
-21.6132608717
 20
-41.3674748615
 10
-21.5816682161
 20
-41.418176672
 10
-21.5470737007
 20
-41.4668289365
 10
-21.5096833946
 20
-41.5130575225
 10
-21.4694001277
 20
-41.556791977
 10
-21.4264214307
 20
-41.5975434945
  0
LWPOLYLINE
  5
299
100
AcDbEntity
  8
RACCORDO
100
AcDbPolyline
 62
7
  6
CONTINUOUS
 90
4
 70
0
 10
-21.736802022
 20
-40.9769651373
 10
-21.7311880605
 20
-41.0340599821
 10
-21.7211569211
 20
-41.0915084134
 10
-21.7068831613
 20
-41.1489663356
  0
LINE
  5
29A
100
AcDbEntity
  8
DRAFT
100
AcDbLine
 62
7
  6
CONTINUOUS
 10
-16.6753003754
 20
20.0752548967
 11
-17.2113394835
 21
19.7315178102
  0
LINE
  5
29B
100
AcDbEntity
  8
0
100
AcDbLine
 62
7
  6
CONTINUOUS
 10
-15.6534096638
 20
20.3018363761
 11
-16.1397445942
 21
20.0110556391
  0
LINE
  5
29C
100
AcDbEntity
  8
0
100
AcDbLine
 62
7
  6
CONTINUOUS
 10
-15.4376077237
 20
19.936569182
 11
-15.7191711325
 21
19.7682217934
  0
LINE
  5
29D
100
AcDbEntity
  8
DRAFT
100
AcDbLine
 62
7
  6
CONTINUOUS
 10
33.0453993112
 20
49.3501255987
 11
34.7366206258
 21
50.3607016867
  0
LINE
  5
29E
100
AcDbEntity
  8
SMUSSO
100
AcDbLine
 62
7
  6
CONTINUOUS
 10
30.9535993464
 20
47.7681540736
 11
32.7213662994
 21
48.7888405569
  0
LINE
  5
29F
100
AcDbEntity
  8
RACCORDO
100
AcDbLine
 62
7
  6
CONTINUOUS
 10
15.035068282
 20
38.3336311612
 11
15.3266148693
 21
38.5019659486
  0
LINE
  5
2A0
100
AcDbEntity
  8
RACCORDO
100
AcDbLine
 62
7
  6
CONTINUOUS
 10
-17.9887124903
 20
18.9433784491
 11
-16.6753003754
 21
19.7014363588
  0
LINE
  5
2A1
100
AcDbEntity
  8
RACCORDO
100
AcDbLine
 62
7
  6
CONTINUOUS
 10
-19.4981229498
 20
18.0571735928
 11
-18.1209228731
 21
18.8522823852
  0
LINE
  5
2A2
100
AcDbEntity
  8
RACCORDO
100
AcDbLine
 62
7
  6
CONTINUOUS
 10
-19.2987915941
 20
17.7119118345
 11
-17.9215878168
 21
18.5070423041
  0
LINE
  5
2A3
100
AcDbEntity
  8
RACCORDO
100
AcDbLine
 62
7
  6
CONTINUOUS
 10
-17.7766127647
 20
18.5760109484
 11
-16.4634590606
 21
19.3345164388
  0
LINE
  5
2A4
100
AcDbEntity
  8
RACCORDO
100
AcDbLine
 62
7
  6
CONTINUOUS
 10
15.5299676418
 20
37.4764403263
 11
15.821514229
 21
37.6447751137
  0
LINE
  5
2A5
100
AcDbEntity
  8
RACCORDO
100
AcDbLine
 62
7
  6
CONTINUOUS
 10
-15.9995251838
 20
26.1352609216
 11
-16.9348093726
 21
25.6137683476
  0
LINE
  5
2A6
100
AcDbEntity
  8
RACCORDO
100
AcDbLine
 62
7
  6
CONTINUOUS
 10
-16.9348093726
 20
20.3883585762
 11
-15.9995251838
 21
20.9098511501
  0
LINE
  5
2A7
100
AcDbEntity
  8
RACCORDO
100
AcDbLine
 62
7
  6
CONTINUOUS
 10
-16.9982382215
 20
20.2503085135
 11
-16.0629540327
 21
20.7718010874
  0
LINE
  5
2A8
100
AcDbEntity
  8
DRAFT
100
AcDbLine
 62
7
  6
CONTINUOUS
 10
34.0765391061
 20
47.5641390872
 11
35.7972807976
 21
48.5235843826
  0
LINE
  5
2A9
100
AcDbEntity
  8
0
100
AcDbLine
 62
7
  6
CONTINUOUS
 10
-16.6170093579
 20
-29.3342384024
 11
-16.4048773235
 21
-29.3342384024
  0
LINE
  5
2AA
100
AcDbEntity
  8
0
100
AcDbLine
 62
7
  6
CONTINUOUS
 10
-16.2634559673
 20
-29.1301011057
 11
-16.0513239329
 21
-29.1301011057
  0
LINE
  5
2AB
100
AcDbEntity
  8
0
100
AcDbLine
 62
7
  6
CONTINUOUS
 10
-15.9099025767
 20
-28.9259638091
 11
-15.6977705423
 21
-28.9259638091
  0
LINE
  5
2AC
100
AcDbEntity
  8
0
100
AcDbLine
 62
7
  6
CONTINUOUS
 10
-15.5563491861
 20
-28.7218265124
 11
-15.3442171517
 21
-28.7218265124
  0
LINE
  5
2AD
100
AcDbEntity
  8
0
100
AcDbLine
 62
7
  6
CONTINUOUS
 10
-15.2027957955
 20
-28.5176892158
 11
-14.9906637612
 21
-28.5176892158
  0
LINE
  5
2AE
100
AcDbEntity
  8
0
100
AcDbLine
 62
7
  6
CONTINUOUS
 10
-14.8492424049
 20
-28.3135519191
 11
-14.6371103706
 21
-28.3135519191
  0
LINE
  5
2AF
100
AcDbEntity
  8
0
100
AcDbLine
 62
7
  6
CONTINUOUS
 10
-14.4956890143
 20
-28.1094146224
 11
-14.28355698
 21
-28.1094146224
  0
LINE
  5
2B0
100
AcDbEntity
  8
0
100
AcDbLine
 62
7
  6
CONTINUOUS
 10
-14.1526056844
 20
-23.2082847115
 11
-14.5707549225
 21
-22.9668505821
  0
LINE
  5
2B1
100
AcDbEntity
  8
0
100
AcDbLine
 62
7
  6
CONTINUOUS
 10
-14.5186320578
 20
-22.9376190864
 11
-14.1015690747
 21
-23.1784260258
  0
LWPOLYLINE
  5
2B2
100
AcDbEntity
  8
RACCORDO
100
AcDbPolyline
 62
7
  6
CONTINUOUS
 90
4
 70
0
 10
-21.736802022
 20
16.9924245149
 10
-21.7311880605
 20
16.9353296702
 10
-21.7211569211
 20
16.8778812389
 10
-21.7068831613
 20
16.8204233167
  0
LINE
  5
2B3
100
AcDbEntity
  8
RACCORDO
100
AcDbLine
 62
7
  6
CONTINUOUS
 10
-21.7380339971
 20
-40.9355164923
 11
-21.736802022
 21
-40.9769651373
  0
LINE
  5
2B4
100
AcDbEntity
  8
RACCORDO
100
AcDbLine
 62
7
  6
CONTINUOUS
 10
-21.7380339971
 20
17.03387316
 11
-21.736802022
 21
16.9924245149
  0
LINE
  5
2B5
100
AcDbEntity
  8
RACCORDO
100
AcDbLine
 62
7
  6
CONTINUOUS
 10
-21.7380437879
 20
58.8255820289
 11
-21.7380437879
 21
17.0336802352
  0
LINE
  5
2B6
100
AcDbEntity
  8
RACCORDO
100
AcDbLine
 62
7
  6
CONTINUOUS
 10
-21.7380437879
 20
0.8561923766
 11
-21.7380437879
 21
-40.9357094171
  0
LINE
  5
2B7
100
AcDbEntity
  8
RACCORDO
100
AcDbLine
 62
7
  6
CONTINUOUS
 10
-21.6501758223
 20
58.7030996543
 11
-21.6501758223
 21
16.9085613713
  0
LINE
  5
2B8
100
AcDbEntity
  8
RACCORDO
100
AcDbLine
 62
7
  6
CONTINUOUS
 10
-21.6501758223
 20
0.733710002
 11
-21.6501758223
 21
-41.060828281
  0
LINE
  5
2B9
100
AcDbEntity
  8
RACCORDO
100
AcDbLine
 62
7
  6
CONTINUOUS
 10
-19.8370404627
 20
-39.8777122137
 11
-19.8370404627
 21
-2.5405328452
  0
LINE
  5
2BA
100
AcDbEntity
  8
RACCORDO
100
AcDbLine
 62
7
  6
CONTINUOUS
 10
-19.8370404627
 20
18.0916774386
 11
-19.8370404627
 21
55.4288568071
  0
LINE
  5
2BB
100
AcDbEntity
  8
RACCORDO
100
AcDbLine
 62
7
  6
CONTINUOUS
 10
-19.4981229498
 20
-39.9122160595
 11
-19.4981229498
 21
-2.5750387935
  0
LINE
  5
2BC
100
AcDbEntity
  8
RACCORDO
100
AcDbLine
 62
7
  6
CONTINUOUS
 10
-19.4981229498
 20
18.0571735928
 11
-19.4981229498
 21
55.3943508588
  0
LINE
  5
2BD
100
AcDbEntity
  8
SMUSSO
100
AcDbLine
 62
7
  6
CONTINUOUS
 10
31.6607061276
 20
46.5434092035
 11
33.4284730806
 21
47.5640956868
  0
LINE
  5
2BE
100
AcDbEntity
  8
RACCORDO
100
AcDbLine
 62
7
  6
CONTINUOUS
 10
-11.048543456
 20
16.4182205604
 11
-10.4828580311
 21
16.744840235
  0
LINE
  5
2BF
100
AcDbEntity
  8
RACCORDO
100
AcDbLine
 62
7
  6
CONTINUOUS
 10
-10.8063340835
 20
16.0681633774
 11
-10.2707259967
 21
16.377416774
  0
LINE
  5
2C0
100
AcDbEntity
  8
0
100
AcDbLine
 62
7
  6
CONTINUOUS
 10
-15.4365245534
 20
-23.3307376085
 11
-15.1286547065
 21
-23.2834326756
  0
LINE
  5
2C1
100
AcDbEntity
  8
0
100
AcDbLine
 62
7
  6
CONTINUOUS
 10
-15.9099025767
 20
-24.4353772867
 11
-15.6977705423
 21
-24.4353772867
  0
LINE
  5
2C2
100
AcDbEntity
  8
0
100
AcDbLine
 62
7
  6
CONTINUOUS
 10
-15.5563491861
 20
-24.2312399901
 11
-15.3442171517
 21
-24.2312399901
  0
LINE
  5
2C3
100
AcDbEntity
  8
0
100
AcDbLine
 62
7
  6
CONTINUOUS
 10
-15.2027957955
 20
-24.0271026934
 11
-14.9906637612
 21
-24.0271026934
  0
LINE
  5
2C4
100
AcDbEntity
  8
0
100
AcDbLine
 62
7
  6
CONTINUOUS
 10
-14.8492424049
 20
-23.8229653967
 11
-14.6371103706
 21
-23.8229653967
  0
LINE
  5
2C5
100
AcDbEntity
  8
0
100
AcDbLine
 62
7
  6
CONTINUOUS
 10
-14.4956890143
 20
-23.6188281001
 11
-14.28355698
 21
-23.6188281001
  0
LINE
  5
2C6
100
AcDbEntity
  8
0
100
AcDbLine
 62
7
  6
CONTINUOUS
 10
-16.1397445942
 20
-13.055990571
 11
-16.6753003754
 21
-12.746767375
  0
LINE
  5
2C7
100
AcDbEntity
  8
0
100
AcDbLine
 62
7
  6
CONTINUOUS
 10
-16.6753003754
 20
-11.521943595
 11
-16.6346870274
 21
-11.5453932332
  0
LINE
  5
2C8
100
AcDbEntity
  8
RACCORDO
100
AcDbLine
 62
7
  6
CONTINUOUS
 10
-18.1247325446
 20
54.7990793466
 11
-18.1247325446
 21
18.889401963
  0
LINE
  5
2C9
100
AcDbEntity
  8
RACCORDO
100
AcDbLine
 62
7
  6
CONTINUOUS
 10
-18.1247325446
 20
-3.1703103057
 11
-18.1247325446
 21
-39.0799876893
  0
LINE
  5
2CA
100
AcDbEntity
  8
RACCORDO
100
AcDbLine
 62
7
  6
CONTINUOUS
 10
-17.9887124903
 20
54.720543072
 11
-17.9887124903
 21
18.9433784491
  0
LINE
  5
2CB
100
AcDbEntity
  8
RACCORDO
100
AcDbLine
 62
7
  6
CONTINUOUS
 10
-17.9887124903
 20
-3.2488465803
 11
-17.9887124903
 21
-39.0260112032
  0
LINE
  5
2CC
100
AcDbEntity
  8
RACCORDO
100
AcDbLine
 62
7
  6
CONTINUOUS
 10
-17.6891759018
 20
-38.8530631046
 11
-17.6891759018
 21
-3.4217952524
  0
LINE
  5
2CD
100
AcDbEntity
  8
RACCORDO
100
AcDbLine
 62
7
  6
CONTINUOUS
 10
-17.6891759018
 20
19.1163265477
 11
-17.6891759018
 21
54.5475943998
  0
LINE
  5
2CE
100
AcDbEntity
  8
DRAFT
100
AcDbLine
 62
7
  6
CONTINUOUS
 10
-17.2113394835
 20
-38.2378718421
 11
-17.2113394835
 21
-32.1143447661
  0
LINE
  5
2CF
100
AcDbEntity
  8
DRAFT
100
AcDbLine
 62
7
  6
CONTINUOUS
 10
-17.2113394835
 20
-8.5183537668
 11
-17.2113394835
 21
-3.6976920117
  0
LINE
  5
2D0
100
AcDbEntity
  8
DRAFT
100
AcDbLine
 62
7
  6
CONTINUOUS
 10
-17.2113394835
 20
19.7315178102
 11
-17.2113394835
 21
25.8550448862
  0
LINE
  5
2D1
100
AcDbEntity
  8
DRAFT
100
AcDbLine
 62
7
  6
CONTINUOUS
 10
-17.2113394835
 20
49.4510358855
 11
-17.2113394835
 21
54.2716976406
  0
LINE
  5
2D2
100
AcDbEntity
  8
0
100
AcDbLine
 62
7
  6
CONTINUOUS
 10
-16.9705627485
 20
49.9698265887
 11
-16.9705627485
 21
49.9852577847
  0
LINE
  5
2D3
100
AcDbEntity
  8
RACCORDO
100
AcDbLine
 62
7
  6
CONTINUOUS
 10
-16.9348093726
 20
54.1120326203
 11
-16.9348093726
 21
50.1078766514
  0
LINE
  5
2D4
100
AcDbEntity
  8
RACCORDO
100
AcDbLine
 62
7
  6
CONTINUOUS
 10
-16.9348093726
 20
25.6137683476
 11
-16.9348093726
 21
20.3883585762
  0
LINE
  5
2D5
100
AcDbEntity
  8
0
100
AcDbLine
 62
7
  6
CONTINUOUS
 10
-16.9348093726
 20
-37.5810310761
 11
-16.9348093726
 21
-32.3556213047
  0
LINE
  5
2D6
100
AcDbEntity
  8
0
100
AcDbLine
 62
7
  6
CONTINUOUS
 10
-16.9348093726
 20
-7.8615130009
 11
-16.9348093726
 21
-3.857357032
  0
LINE
  5
2D7
100
AcDbEntity
  8
0
100
AcDbLine
 62
7
  6
CONTINUOUS
 10
-16.7584307141
 20
49.8427713877
 11
-16.7584307141
 21
50.1035376423
  0
LINE
  5
2D8
100
AcDbEntity
  8
DRAFT
100
AcDbLine
 62
7
  6
CONTINUOUS
 10
-16.6753003754
 20
49.7947729719
 11
-16.6753003754
 21
26.1987819726
  0
LINE
  5
2D9
100
AcDbEntity
  8
RACCORDO
100
AcDbLine
 62
7
  6
CONTINUOUS
 10
-16.6753003754
 20
20.0752548967
 11
-16.6753003754
 21
19.7014363588
  0
LINE
  5
2DA
100
AcDbEntity
  8
DRAFT
100
AcDbLine
 62
7
  6
CONTINUOUS
 10
-16.6753003754
 20
-8.1746166803
 11
-16.6753003754
 21
-31.7706076797
  0
LINE
  5
2DB
100
AcDbEntity
  8
RACCORDO
100
AcDbLine
 62
7
  6
CONTINUOUS
 10
-16.6753003754
 20
-37.8941347556
 11
-16.6753003754
 21
-38.2679532935
  0
LINE
  5
2DC
100
AcDbEntity
  8
0
100
AcDbLine
 62
7
  6
CONTINUOUS
 10
-16.6523646969
 20
-26.1389086862
 11
-16.6523646969
 21
-29.4771345101
  0
LINE
  5
2DD
100
AcDbEntity
  8
0
100
AcDbLine
 62
7
  6
CONTINUOUS
 10
-16.6523646969
 20
46.8628363701
 11
-16.6523646969
 21
50.1626775711
  0
LINE
  5
2DE
100
AcDbEntity
  8
DRAFT
100
AcDbLine
 62
7
  6
CONTINUOUS
 10
-16.6346870274
 20
46.6330872857
 11
-16.6346870274
 21
46.2177555737
  0
LINE
  5
2DF
100
AcDbEntity
  8
0
100
AcDbLine
 62
7
  6
CONTINUOUS
 10
-16.6346870274
 20
-11.7516340786
 11
-16.6346870274
 21
-11.5453932332
  0
LINE
  5
2E0
100
AcDbEntity
  8
0
100
AcDbLine
 62
7
  6
CONTINUOUS
 10
-16.6170093579
 20
-26.1424536715
 11
-16.6170093579
 21
-29.3342384024
  0
LINE
  5
2E1
100
AcDbEntity
  8
0
100
AcDbLine
 62
7
  6
CONTINUOUS
 10
-16.6170093579
 20
47.0057324777
 11
-16.6170093579
 21
50.1823908807
  0
LINE
  5
2E2
100
AcDbEntity
  8
0
100
AcDbLine
 62
7
  6
CONTINUOUS
 10
-16.503139747
 20
-13.7443511965
 11
-16.503139747
 21
-25.9914053484
  0
LINE
  5
2E3
100
AcDbEntity
  8
RACCORDO
100
AcDbLine
 62
7
  6
CONTINUOUS
 10
-16.503139747
 20
31.9779843039
 11
-16.503139747
 21
44.2250384557
  0
LINE
  5
2E4
100
AcDbEntity
  8
0
100
AcDbLine
 62
7
  6
CONTINUOUS
 10
-16.4690838538
 20
27.7171084628
 11
-16.4690838538
 21
26.6513192957
  0
LINE
  5
2E5
100
AcDbEntity
  8
0
100
AcDbLine
 62
7
  6
CONTINUOUS
 10
-16.4690838538
 20
-31.3180703566
 11
-16.4690838538
 21
-30.2522811895
  0
LINE
  5
2E6
100
AcDbEntity
  8
0
100
AcDbLine
 62
7
  6
CONTINUOUS
 10
-16.4048773235
 20
-26.0393001419
 11
-16.4048773235
 21
-29.3342384024
  0
LINE
  5
2E7
100
AcDbEntity
  8
0
100
AcDbLine
 62
7
  6
CONTINUOUS
 10
-16.4048773235
 20
47.0057324777
 11
-16.4048773235
 21
50.3006707382
  0
LINE
  5
2E8
100
AcDbEntity
  8
0
100
AcDbLine
 62
7
  6
CONTINUOUS
 10
-16.3848857939
 20
27.8374345739
 11
-16.3848857939
 21
26.6027043911
  0
LINE
  5
2E9
100
AcDbEntity
  8
0
100
AcDbLine
 62
7
  6
CONTINUOUS
 10
-16.3848857939
 20
-30.1319550784
 11
-16.3848857939
 21
-31.3666852612
  0
LINE
  5
2EA
100
AcDbEntity
  8
0
100
AcDbLine
 62
7
  6
CONTINUOUS
 10
-16.2988113063
 20
-25.9801602132
 11
-16.2988113063
 21
-29.2729972134
  0
LINE
  5
2EB
100
AcDbEntity
  8
0
100
AcDbLine
 62
7
  6
CONTINUOUS
 10
-16.2988113063
 20
47.0669736667
 11
-16.2988113063
 21
50.359810667
  0
LINE
  5
2EC
100
AcDbEntity
  8
0
100
AcDbLine
 62
7
  6
CONTINUOUS
 10
-16.2634559673
 20
-25.9604469036
 11
-16.2634559673
 21
-29.1301011057
  0
LINE
  5
2ED
100
AcDbEntity
  8
0
100
AcDbLine
 62
7
  6
CONTINUOUS
 10
-16.2634559673
 20
47.2098697744
 11
-16.2634559673
 21
50.3795239766
  0
LINE
  5
2EE
100
AcDbEntity
  8
0
100
AcDbLine
 62
7
  6
CONTINUOUS
 10
-16.0513239329
 20
-25.842167046
 11
-16.0513239329
 21
-29.1301011057
  0
LINE
  5
2EF
100
AcDbEntity
  8
0
100
AcDbLine
 62
7
  6
CONTINUOUS
 10
-16.0513239329
 20
47.2098697744
 11
-16.0513239329
 21
50.4991552933
  0
LINE
  5
2F0
100
AcDbEntity
  8
0
100
AcDbLine
 62
7
  6
CONTINUOUS
 10
-15.9995251838
 20
-4.3973784007
 11
-15.9995251838
 21
-7.3400204269
  0
LINE
  5
2F1
100
AcDbEntity
  8
0
100
AcDbLine
 62
7
  6
CONTINUOUS
 10
-15.9995251838
 20
-31.8341287307
 11
-15.9995251838
 21
-37.0595385022
  0
LINE
  5
2F2
100
AcDbEntity
  8
RACCORDO
100
AcDbLine
 62
7
  6
CONTINUOUS
 10
-15.9995251838
 20
20.9098511501
 11
-15.9995251838
 21
26.1352609216
  0
LINE
  5
2F3
100
AcDbEntity
  8
RACCORDO
100
AcDbLine
 62
7
  6
CONTINUOUS
 10
-15.9995251838
 20
50.6293692253
 11
-15.9995251838
 21
53.5720112516
  0
LINE
  5
2F4
100
AcDbEntity
  8
0
100
AcDbLine
 62
7
  6
CONTINUOUS
 10
-15.9452579158
 20
-25.7576024199
 11
-15.9452579158
 21
-29.0688599167
  0
LINE
  5
2F5
100
AcDbEntity
  8
0
100
AcDbLine
 62
7
  6
CONTINUOUS
 10
-15.9452579158
 20
47.2711109634
 11
-15.9452579158
 21
51.8841798637
  0
LINE
  5
2F6
100
AcDbEntity
  8
0
100
AcDbLine
 62
7
  6
CONTINUOUS
 10
-15.9275802462
 20
-13.4234326895
 11
-15.9275802462
 21
-25.6704868414
  0
LINE
  5
2F7
100
AcDbEntity
  8
RACCORDO
100
AcDbLine
 62
7
  6
CONTINUOUS
 10
-15.9275802462
 20
32.2989028109
 11
-15.9275802462
 21
44.5459569628
  0
LINE
  5
2F8
100
AcDbEntity
  8
0
100
AcDbLine
 62
7
  6
CONTINUOUS
 10
-15.9099025767
 20
-24.4353772867
 11
-15.9099025767
 21
-28.9259638091
  0
LINE
  5
2F9
100
AcDbEntity
  8
0
100
AcDbLine
 62
7
  6
CONTINUOUS
 10
-15.9099025767
 20
47.414007071
 11
-15.9099025767
 21
51.9045935934
  0
LINE
  5
2FA
100
AcDbEntity
  8
0
100
AcDbLine
 62
7
  6
CONTINUOUS
 10
-15.6977705423
 20
-24.4353772867
 11
-15.6977705423
 21
-28.9259638091
  0
LINE
  5
2FB
100
AcDbEntity
  8
0
100
AcDbLine
 62
7
  6
CONTINUOUS
 10
-15.6977705423
 20
47.414007071
 11
-15.6977705423
 21
51.9045935934
  0
LINE
  5
2FC
100
AcDbEntity
  8
0
100
AcDbLine
 62
7
  6
CONTINUOUS
 10
-15.5917045252
 20
-24.2516537197
 11
-15.5917045252
 21
-28.8647226201
  0
LINE
  5
2FD
100
AcDbEntity
  8
0
100
AcDbLine
 62
7
  6
CONTINUOUS
 10
-15.5917045252
 20
47.47524826
 11
-15.5917045252
 21
52.0883171604
  0
LINE
  5
2FE
100
AcDbEntity
  8
0
100
AcDbLine
 62
7
  6
CONTINUOUS
 10
-15.5563491861
 20
-24.2312399901
 11
-15.5563491861
 21
-28.7218265124
  0
LINE
  5
2FF
100
AcDbEntity
  8
0
100
AcDbLine
 62
7
  6
CONTINUOUS
 10
-15.5563491861
 20
47.6181443677
 11
-15.5563491861
 21
52.1087308901
  0
LINE
  5
300
100
AcDbEntity
  8
0
100
AcDbLine
 62
7
  6
CONTINUOUS
 10
-15.4376077237
 20
19.936569182
 11
-15.4376077237
 21
19.6056506099
  0
LINE
  5
301
100
AcDbEntity
  8
0
100
AcDbLine
 62
7
  6
CONTINUOUS
 10
-15.4376077237
 20
-38.3637390424
 11
-15.4376077237
 21
-38.0328204703
  0
LINE
  5
302
100
AcDbEntity
  8
0
100
AcDbLine
 62
7
  6
CONTINUOUS
 10
-15.3534096638
 20
20.0568952931
 11
-15.3534096638
 21
19.5570357054
  0
LINE
  5
303
100
AcDbEntity
  8
0
100
AcDbLine
 62
7
  6
CONTINUOUS
 10
-15.3534096638
 20
-37.9124943592
 11
-15.3534096638
 21
-38.4123539469
  0
LINE
  5
304
100
AcDbEntity
  8
0
100
AcDbLine
 62
7
  6
CONTINUOUS
 10
-15.3442171517
 20
-24.2312399901
 11
-15.3442171517
 21
-28.7218265124
  0
LINE
  5
305
100
AcDbEntity
  8
0
100
AcDbLine
 62
7
  6
CONTINUOUS
 10
-15.3442171517
 20
47.6181443677
 11
-15.3442171517
 21
52.1087308901
  0
LINE
  5
306
100
AcDbEntity
  8
0
100
AcDbLine
 62
7
  6
CONTINUOUS
 10
-15.2381511346
 20
-24.0475164231
 11
-15.2381511346
 21
-28.6605853234
  0
LINE
  5
307
100
AcDbEntity
  8
0
100
AcDbLine
 62
7
  6
CONTINUOUS
 10
-15.2381511346
 20
47.6793855567
 11
-15.2381511346
 21
52.2924544571
  0
LINE
  5
308
100
AcDbEntity
  8
0
100
AcDbLine
 62
7
  6
CONTINUOUS
 10
-15.2027957955
 20
-24.0271026934
 11
-15.2027957955
 21
-28.5176892158
  0
LINE
  5
309
100
AcDbEntity
  8
0
100
AcDbLine
 62
7
  6
CONTINUOUS
 10
-15.2027957955
 20
47.8222816644
 11
-15.2027957955
 21
52.3128681867
  0
LINE
  5
30A
100
AcDbEntity
  8
0
100
AcDbLine
 62
7
  6
CONTINUOUS
 10
-14.9906637612
 20
-24.0271026934
 11
-14.9906637612
 21
-28.5176892158
  0
LINE
  5
30B
100
AcDbEntity
  8
0
100
AcDbLine
 62
7
  6
CONTINUOUS
 10
-14.9906637612
 20
47.8222816644
 11
-14.9906637612
 21
52.3128681867
  0
LINE
  5
30C
100
AcDbEntity
  8
0
100
AcDbLine
 62
7
  6
CONTINUOUS
 10
-14.884597744
 20
-23.8433791264
 11
-14.884597744
 21
-28.4564480268
  0
LINE
  5
30D
100
AcDbEntity
  8
0
100
AcDbLine
 62
7
  6
CONTINUOUS
 10
-14.884597744
 20
47.8835228534
 11
-14.884597744
 21
52.4965917537
  0
LINE
  5
30E
100
AcDbEntity
  8
0
100
AcDbLine
 62
7
  6
CONTINUOUS
 10
-14.8492424049
 20
-23.8229653967
 11
-14.8492424049
 21
-28.3135519191
  0
LINE
  5
30F
100
AcDbEntity
  8
0
100
AcDbLine
 62
7
  6
CONTINUOUS
 10
-14.8492424049
 20
48.026418961
 11
-14.8492424049
 21
52.5170054834
  0
LINE
  5
310
100
AcDbEntity
  8
0
100
AcDbLine
 62
7
  6
CONTINUOUS
 10
-14.6371103706
 20
-23.8229653967
 11
-14.6371103706
 21
-28.3135519191
  0
LINE
  5
311
100
AcDbEntity
  8
0
100
AcDbLine
 62
7
  6
CONTINUOUS
 10
-14.6371103706
 20
48.026418961
 11
-14.6371103706
 21
52.5170054834
  0
LINE
  5
312
100
AcDbEntity
  8
0
100
AcDbLine
 62
7
  6
CONTINUOUS
 10
-14.5310443534
 20
-23.6392418297
 11
-14.5310443534
 21
-28.2523107301
  0
LINE
  5
313
100
AcDbEntity
  8
0
100
AcDbLine
 62
7
  6
CONTINUOUS
 10
-14.5310443534
 20
48.08766015
 11
-14.5310443534
 21
52.7007290504
  0
LINE
  5
314
100
AcDbEntity
  8
0
100
AcDbLine
 62
7
  6
CONTINUOUS
 10
-14.4956890143
 20
-23.6188281001
 11
-14.4956890143
 21
-28.1094146224
  0
LINE
  5
315
100
AcDbEntity
  8
0
100
AcDbLine
 62
7
  6
CONTINUOUS
 10
-14.4956890143
 20
48.2305562577
 11
-14.4956890143
 21
52.7007290504
  0
LINE
  5
316
100
AcDbEntity
  8
0
100
AcDbLine
 62
7
  6
CONTINUOUS
 10
-14.28355698
 20
-23.6188281001
 11
-14.28355698
 21
-28.1094146224
  0
LINE
  5
317
100
AcDbEntity
  8
0
100
AcDbLine
 62
7
  6
CONTINUOUS
 10
-14.28355698
 20
48.2305562577
 11
-14.28355698
 21
52.5812327168
  0
LINE
  5
318
100
AcDbEntity
  8
0
100
AcDbLine
 62
7
  6
CONTINUOUS
 10
-14.1774909628
 20
-23.4351045331
 11
-14.1774909628
 21
-28.0481734334
  0
LINE
  5
319
100
AcDbEntity
  8
0
100
AcDbLine
 62
7
  6
CONTINUOUS
 10
-14.1774909628
 20
48.2917974467
 11
-14.1774909628
 21
52.5199915278
  0
LINE
  5
31A
100
AcDbEntity
  8
0
100
AcDbLine
 62
7
  6
CONTINUOUS
 10
-14.1598132933
 20
52.509784663
 11
-14.1598132933
 21
48.2118112415
  0
LINE
  5
31B
100
AcDbEntity
  8
0
100
AcDbLine
 62
7
  6
CONTINUOUS
 10
-14.1598132933
 20
-28.1281596386
 11
-14.1598132933
 21
-23.2122222202
  0
LINE
  5
31C
100
AcDbEntity
  8
0
100
AcDbLine
 62
7
  6
CONTINUOUS
 10
-14.1080494842
 20
34.78683631
 11
-14.1080494842
 21
30.0346464089
  0
LINE
  5
31D
100
AcDbEntity
  8
0
100
AcDbLine
 62
7
  6
CONTINUOUS
 10
-14.1080494842
 20
-9.5641619022
 11
-14.1080494842
 21
-5.4894927639
  0
LINE
  5
31E
100
AcDbEntity
  8
0
100
AcDbLine
 62
7
  6
CONTINUOUS
 10
-14.1012346495
 20
52.4759620882
 11
-14.1012346495
 21
48.3419044198
  0
LINE
  5
31F
100
AcDbEntity
  8
0
100
AcDbLine
 62
7
  6
CONTINUOUS
 10
-14.1012346495
 20
-23.1790055611
 11
-14.1012346495
 21
-27.9980501092
  0
LWPOLYLINE
  5
320
100
AcDbEntity
  8
RACCORDO
100
AcDbPolyline
 62
7
  6
CONTINUOUS
 90
13
 70
0
 10
-21.5163239249
 20
1.2924400493
 10
-21.5416104158
 20
1.275566332
 10
-21.5724944579
 20
1.2511680145
 10
-21.6016755772
 20
1.2234567182
 10
-21.6288424427
 20
1.1924484306
 10
-21.6536106677
 20
1.1583057515
 10
-21.6755911475
 20
1.121322878
 10
-21.6945624443
 20
1.0816332748
 10
-21.7103003777
 20
1.0394510789
 10
-21.7225953899
 20
0.9951762363
 10
-21.7313566775
 20
0.9490139489
 10
-21.7365186281
 20
0.9010206574
 10
-21.7380337472
 20
0.8562131273
  0
LINE
  5
321
100
AcDbEntity
  8
0
100
AcDbLine
 62
7
  6
CONTINUOUS
 10
-2.1599282431
 20
13.9077550764
 11
-3.7752274532
 21
12.8719384057
  0
LINE
  5
322
100
AcDbEntity
  8
RACCORDO
100
AcDbLine
 62
7
  6
CONTINUOUS
 10
-21.5165189466
 20
1.292326742
 11
-21.2334539295
 21
1.4673783947
  0
LINE
  5
323
100
AcDbEntity
  8
RACCORDO
100
AcDbLine
 62
7
  6
CONTINUOUS
 10
-21.1589463682
 20
1.2622119504
 11
-20.8774031016
 21
1.4363225297
  0
LINE
  5
324
100
AcDbEntity
  8
ASSI
100
AcDbLine
 62
7
  6
CONTINUOUS
 10
-2.1599282431
 20
13.5063567198
 11
-3.5052775102
 21
12.7160726919
  0
LINE
  5
325
100
AcDbEntity
  8
ASSI
100
AcDbLine
 62
7
  6
CONTINUOUS
 10
-3.057818459
 20
12.8053463944
 11
-3.3581142062
 21
12.6311024445
  0
LINE
  5
326
100
AcDbEntity
  8
ASSI
100
AcDbLine
 62
7
  6
CONTINUOUS
 10
-2.9079944273
 20
12.9386013436
 11
-3.3982892233
 21
12.6542989959
  0
LINE
  5
327
100
AcDbEntity
  8
RACCORDO
100
AcDbLine
 62
7
  6
CONTINUOUS
 10
-5.3295644202
 20
13.6976431384
 11
-5.8952498452
 21
13.3710234637
  0
LINE
  5
328
100
AcDbEntity
  8
RACCORDO
100
AcDbLine
 62
7
  6
CONTINUOUS
 10
-5.1795571722
 20
13.6827807851
 11
-5.7452425971
 21
13.3561611104
  0
LINE
  5
329
100
AcDbEntity
  8
0
100
AcDbLine
 62
7
  6
CONTINUOUS
 10
-9.4184956448
 20
15.5051314744
 11
-9.6285118383
 21
15.3881035747
  0
LINE
  5
32A
100
AcDbEntity
  8
0
100
AcDbLine
 62
7
  6
CONTINUOUS
 10
-6.4166163045
 20
16.3655134142
 11
-8.9974937683
 21
15.0237616495
  0
LINE
  5
32B
100
AcDbEntity
  8
0
100
AcDbLine
 62
7
  6
CONTINUOUS
 10
-17.1469737206
 20
-7.9839530484
 11
-17.2113394835
 21
-7.9467890636
  0
LINE
  5
32C
100
AcDbEntity
  8
DRAFT
100
AcDbLine
 62
7
  6
CONTINUOUS
 10
-16.988187993
 20
-7.9939592914
 11
-16.6753003754
 21
-8.1746166803
  0
LWPOLYLINE
  5
32D
100
AcDbEntity
  8
RACCORDO
100
AcDbPolyline
 62
7
  6
CONTINUOUS
 90
10
 70
0
 10
-21.7068831613
 20
16.8204233167
 10
-21.6887138572
 20
16.7638315911
 10
-21.6669640803
 20
16.7085051638
 10
-21.6417425718
 20
16.6544157647
 10
-21.6132608717
 20
16.6019147908
 10
-21.5816682161
 20
16.5512129803
 10
-21.5470737007
 20
16.5025607158
 10
-21.5096833946
 20
16.4563321297
 10
-21.4694001277
 20
16.4125976753
 10
-21.4264214307
 20
16.3718461578
  0
LINE
  5
32E
100
AcDbEntity
  8
RACCORDO
100
AcDbLine
 62
7
  6
CONTINUOUS
 10
-10.2707259967
 20
16.377416774
 11
-10.2707259967
 21
15.7589099809
  0
LINE
  5
32F
100
AcDbEntity
  8
0
100
AcDbLine
 62
7
  6
CONTINUOUS
 10
-10.2707259967
 20
-42.2104796714
 11
-10.2707259967
 21
-41.5919728783
  0
LINE
  5
330
100
AcDbEntity
  8
0
100
AcDbLine
 62
7
  6
CONTINUOUS
 10
-9.210065825
 20
15.3805724628
 11
-9.210065825
 21
15.1464980909
  0
LINE
  5
331
100
AcDbEntity
  8
0
100
AcDbLine
 62
7
  6
CONTINUOUS
 10
-9.210065825
 20
-42.7757955973
 11
-9.210065825
 21
-42.5888171895
  0
LINE
  5
332
100
AcDbEntity
  8
ASSI
100
AcDbLine
 62
7
  6
CONTINUOUS
 10
-2.9079944273
 20
12.9386013436
 11
-2.7133205359
 21
13.1812834464
  0
LINE
  5
333
100
AcDbEntity
  8
RACCORDO
100
AcDbLine
 62
7
  6
CONTINUOUS
 10
-19.3762378618
 20
-2.4477068206
 11
12.9597496872
 21
-21.1181007663
  0
LINE
  5
334
100
AcDbEntity
  8
RACCORDO
100
AcDbLine
 62
7
  6
CONTINUOUS
 10
-19.4383626481
 20
-2.3103857623
 11
12.8976249221
 21
-20.9807797202
  0
LINE
  5
335
100
AcDbEntity
  8
RACCORDO
100
AcDbLine
 62
7
  6
CONTINUOUS
 10
14.8266384621
 20
-20.0010070342
 11
-21.3696595241
 21
0.8982817769
  0
LINE
  5
336
100
AcDbEntity
  8
RACCORDO
100
AcDbLine
 62
7
  6
CONTINUOUS
 10
15.035068282
 20
-19.6357584911
 11
-21.1589463682
 21
1.2622119504
  0
LINE
  5
337
100
AcDbEntity
  8
RACCORDO
100
AcDbLine
 62
7
  6
CONTINUOUS
 10
15.3266148693
 20
-19.4674237037
 11
-20.8774031016
 21
1.4363225297
  0
LWPOLYLINE
  5
338
100
AcDbEntity
  8
RACCORDO
100
AcDbPolyline
 62
7
  6
CONTINUOUS
 90
21
 70
0
 10
12.959830034
 20
-21.11814731
 10
12.9729679011
 20
-21.1261841898
 10
12.9908487442
 20
-21.138523994
 10
13.0094145191
 20
-21.1530212621
 10
13.0283000571
 20
-21.1695561246
 10
13.047215931
 20
-21.1880081819
 10
13.0658917636
 20
-21.2082220954
 10
13.084113792
 20
-21.2300566894
 10
13.1016443605
 20
-21.2532979187
 10
13.1182562864
 20
-21.2776946625
 10
13.1338184492
 20
-21.3030898553
 10
13.1481435293
 20
-21.3291863215
 10
13.1610791526
 20
-21.3556760999
 10
13.1725626824
 20
-21.3823909535
 10
13.1824888976
 20
-21.4090116791
 10
13.1907867665
 20
-21.4351939994
 10
13.1974541751
 20
-21.4607138481
 10
13.2024976817
 20
-21.4852983755
 10
13.2059467221
 20
-21.5086122868
 10
13.2078777452
 20
-21.530282804
 10
13.208434272
 20
-21.5487171147
  0
LINE
  5
339
100
AcDbEntity
  8
0
100
AcDbLine
 62
7
  6
CONTINUOUS
 10
-2.1599282431
 20
13.9077550764
 11
-2.1599282431
 21
13.5063567198
  0
LINE
  5
33A
100
AcDbEntity
  8
0
100
AcDbLine
 62
7
  6
CONTINUOUS
 10
-2.1599282431
 20
-44.4630329325
 11
-2.1599282431
 21
-43.9802113371
  0
LINE
  5
33B
100
AcDbEntity
  8
ASSI
100
AcDbLine
 62
7
  6
CONTINUOUS
 10
-2.1085572082
 20
13.9850246015
 11
-2.1085572082
 21
13.5368907844
  0
LINE
  5
33C
100
AcDbEntity
  8
0
100
AcDbLine
 62
7
  6
CONTINUOUS
 10
-2.1085572082
 20
-43.9509485378
 11
-2.1085572082
 21
-44.4325302757
  0
LINE
  5
33D
100
AcDbEntity
  8
DRAFT
100
AcDbLine
 62
7
  6
CONTINUOUS
 10
-16.6753003754
 20
-8.1746166803
 11
-17.2113394835
 21
-8.5183537668
  0
LINE
  5
33E
100
AcDbEntity
  8
0
100
AcDbLine
 62
7
  6
CONTINUOUS
 10
-14.2231225495
 20
-9.7120295784
 11
-16.6753003754
 21
-11.2762757961
  0
LINE
  5
33F
100
AcDbEntity
  8
RACCORDO
100
AcDbLine
 62
7
  6
CONTINUOUS
 10
4.8613591207
 20
7.2320422105
 11
5.4270445456
 21
7.5586618851
  0
LINE
  5
340
100
AcDbEntity
  8
RACCORDO
100
AcDbLine
 62
7
  6
CONTINUOUS
 10
5.1035684932
 20
6.8819850276
 11
5.63917658
 21
7.1912384241
  0
LINE
  5
341
100
AcDbEntity
  8
0
100
AcDbLine
 62
7
  6
CONTINUOUS
 10
6.659053078
 20
5.9838677231
 11
6.6998367517
 21
6.0074157051
  0
LINE
  5
342
100
AcDbEntity
  8
0
100
AcDbLine
 62
7
  6
CONTINUOUS
 10
-15.4365245534
 20
-4.9601563807
 11
-15.9995251838
 21
-5.2838368944
  0
LINE
  5
343
100
AcDbEntity
  8
0
100
AcDbLine
 62
7
  6
CONTINUOUS
 10
-15.9995251838
 20
-5.2373998304
 11
-15.6268705515
 21
-5.0232945329
  0
LINE
  5
344
100
AcDbEntity
  8
0
100
AcDbLine
 62
7
  6
CONTINUOUS
 10
-15.1176109457
 20
-4.9065846288
 11
-15.9995251838
 21
-5.4070298053
  0
LINE
  5
345
100
AcDbEntity
  8
0
100
AcDbLine
 62
7
  6
CONTINUOUS
 10
-15.9995251838
 20
-7.3400204269
 11
-16.9348093726
 21
-7.8615130009
  0
LINE
  5
346
100
AcDbEntity
  8
0
100
AcDbLine
 62
7
  6
CONTINUOUS
 10
-16.9982382215
 20
-7.9995630636
 11
-16.0629540327
 21
-7.4780704896
  0
LINE
  5
347
100
AcDbEntity
  8
RACCORDO
100
AcDbLine
 62
7
  6
CONTINUOUS
 10
6.4789913445
 20
6.0878331113
 11
6.5212211861
 21
6.1105460942
  0
LINE
  5
348
100
AcDbEntity
  8
0
100
AcDbLine
 62
7
  6
CONTINUOUS
 10
9.4932862722
 20
7.1793350643
 11
6.9124088084
 21
5.8375832997
  0
LINE
  5
349
100
AcDbEntity
  8
0
100
AcDbLine
 62
7
  6
CONTINUOUS
 10
-14.7952554771
 20
-5.0927086363
 11
-15.9995251838
 21
-5.715164488
  0
LINE
  5
34A
100
AcDbEntity
  8
0
100
AcDbLine
 62
7
  6
CONTINUOUS
 10
-15.4365245534
 20
-4.9601563807
 11
-15.1286547065
 21
-4.9128514478
  0
LINE
  5
34B
100
AcDbEntity
  8
RACCORDO
100
AcDbLine
 62
7
  6
CONTINUOUS
 10
-19.4138880447
 20
-2.4301440958
 11
-19.4137617446
 21
-2.4301489507
  0
LINE
  5
34C
100
AcDbEntity
  8
RACCORDO
100
AcDbLine
 62
7
  6
CONTINUOUS
 10
-19.1310002428
 20
-2.5893039483
 11
-19.4981229498
 21
-2.5750387935
  0
LWPOLYLINE
  5
34D
100
AcDbEntity
  8
RACCORDO
100
AcDbPolyline
 62
7
  6
CONTINUOUS
 90
9
 70
0
 10
-19.4137780679
 20
-2.4301552438
 10
-19.4150171444
 20
-2.4300888376
 10
-19.4166467159
 20
-2.429929365
 10
-19.414789941
 20
-2.4303501646
 10
-19.4097882531
 20
-2.4318525184
 10
-19.401788392
 20
-2.4348768705
 10
-19.3912508417
 20
-2.4396657139
 10
-19.3791742191
 20
-2.4460341804
 10
-19.3762785481
 20
-2.4476835189
  0
LINE
  5
34E
100
AcDbEntity
  8
RACCORDO
100
AcDbLine
 62
7
  6
CONTINUOUS
 10
-21.4264214307
 20
16.3718461578
 11
-21.3813868333
 21
16.3348575639
  0
LINE
  5
34F
100
AcDbEntity
  8
0
100
AcDbLine
 62
7
  6
CONTINUOUS
 10
5.63917658
 20
-51.3966580213
 11
5.63917658
 21
-50.7781512282
  0
LINE
  5
350
100
AcDbEntity
  8
RACCORDO
100
AcDbLine
 62
7
  6
CONTINUOUS
 10
5.63917658
 20
7.1912384241
 11
5.63917658
 21
6.572731631
  0
LINE
  5
351
100
AcDbEntity
  8
0
100
AcDbLine
 62
7
  6
CONTINUOUS
 10
6.6998367517
 20
5.960319741
 11
6.6998367517
 21
6.0074157051
  0
LINE
  5
352
100
AcDbEntity
  8
SMUSSO
100
AcDbLine
 62
7
  6
CONTINUOUS
 10
30.2464925653
 20
46.5434092035
 11
30.9535993464
 21
47.7681540736
  0
LINE
  5
353
100
AcDbEntity
  8
DRAFT
100
AcDbLine
 62
7
  6
CONTINUOUS
 10
32.7213662994
 20
48.7888839573
 11
33.0453993112
 21
49.3501255987
  0
LINE
  5
354
100
AcDbEntity
  8
0
100
AcDbLine
 62
7
  6
CONTINUOUS
 10
13.2084347711
 20
4.374312453
 11
12.1346751235
 21
3.6857600558
  0
LINE
  5
355
100
AcDbEntity
  8
0
100
AcDbLine
 62
7
  6
CONTINUOUS
 10
-16.6753003754
 20
-11.7767465799
 11
-16.6346870274
 21
-11.7516340786
  0
LINE
  5
356
100
AcDbEntity
  8
ASSI
100
AcDbLine
 62
7
  6
CONTINUOUS
 10
13.2084347711
 20
4.0020676182
 11
12.4046250665
 21
3.529894342
  0
LINE
  5
357
100
AcDbEntity
  8
ASSI
100
AcDbLine
 62
7
  6
CONTINUOUS
 10
12.8520841177
 20
3.6191680445
 11
12.5517883705
 21
3.4449240946
  0
LINE
  5
358
100
AcDbEntity
  8
ASSI
100
AcDbLine
 62
7
  6
CONTINUOUS
 10
13.0019081494
 20
3.7524229938
 11
12.5116133534
 21
3.468120646
  0
LINE
  5
359
100
AcDbEntity
  8
0
100
AcDbLine
 62
7
  6
CONTINUOUS
 10
9.9525279452
 20
4.2924651385
 11
10.5182133701
 21
4.6190848132
  0
LINE
  5
35A
100
AcDbEntity
  8
0
100
AcDbLine
 62
7
  6
CONTINUOUS
 10
-16.6346870274
 20
-11.5453932332
 11
-16.6753003754
 21
-11.5688428713
  0
LINE
  5
35B
100
AcDbEntity
  8
0
100
AcDbLine
 62
7
  6
CONTINUOUS
 10
-16.6753003754
 20
-13.3546039402
 11
-16.1397445942
 21
-13.055990571
  0
LINE
  5
35C
100
AcDbEntity
  8
0
100
AcDbLine
 62
7
  6
CONTINUOUS
 10
-16.503139747
 20
-13.7443511965
 11
-15.9275802462
 21
-13.4234326895
  0
LWPOLYLINE
  5
35D
100
AcDbEntity
  8
RACCORDO
100
AcDbPolyline
 62
7
  6
CONTINUOUS
 90
13
 70
0
 10
14.8887879409
 20
-4.6139201552
 10
14.9286641611
 20
-4.6351652781
 10
14.9727785766
 20
-4.6546524929
 10
15.0171066896
 20
-4.6701134308
 10
15.0615651404
 20
-4.6815747005
 10
15.1059321805
 20
-4.6890144747
 10
15.149759213
 20
-4.6924148815
 10
15.1927498436
 20
-4.6918596486
 10
15.234677728
 20
-4.6874739783
 10
15.2750937901
 20
-4.6794482614
 10
15.3136654865
 20
-4.668034088
 10
15.3502224077
 20
-4.6534898294
 10
15.3774524394
 20
-4.64003945
  0
LINE
  5
35E
100
AcDbEntity
  8
RACCORDO
100
AcDbLine
 62
7
  6
CONTINUOUS
 10
-21.3052514159
 20
16.2840534723
 11
14.8887632481
 21
-4.6139169771
  0
LINE
  5
35F
100
AcDbEntity
  8
RACCORDO
100
AcDbLine
 62
7
  6
CONTINUOUS
 10
-21.3673761881
 20
16.4213745225
 11
14.8289218059
 21
-4.477914293
  0
LINE
  5
360
100
AcDbEntity
  8
RACCORDO
100
AcDbLine
 62
7
  6
CONTINUOUS
 10
12.8976249221
 20
-1.2692467494
 11
-19.4383626481
 21
17.4011472085
  0
LINE
  5
361
100
AcDbEntity
  8
RACCORDO
100
AcDbLine
 62
7
  6
CONTINUOUS
 10
13.0372026587
 20
-0.9584859818
 11
-19.2987915941
 21
17.7119118345
  0
LINE
  5
362
100
AcDbEntity
  8
RACCORDO
100
AcDbLine
 62
7
  6
CONTINUOUS
 10
-17.8913647885
 20
18.4851971529
 11
13.2084347711
 21
0.5285626592
  0
LWPOLYLINE
  5
363
100
AcDbEntity
  8
RACCORDO
100
AcDbPolyline
 62
7
  6
CONTINUOUS
 90
3
 70
0
 10
-21.3813868333
 20
16.3348575639
 10
-21.3345325512
 20
16.3019577948
 10
-21.3050874291
 20
16.2839705877
  0
LINE
  5
364
100
AcDbEntity
  8
RACCORDO
100
AcDbLine
 62
7
  6
CONTINUOUS
 10
9.9525279452
 20
-53.8871330406
 11
9.9525279452
 21
-53.6769245138
  0
LINE
  5
365
100
AcDbEntity
  8
RACCORDO
100
AcDbLine
 62
7
  6
CONTINUOUS
 10
9.9525279452
 20
4.2924651385
 11
9.9525279452
 21
4.0822566117
  0
LINE
  5
366
100
AcDbEntity
  8
RACCORDO
100
AcDbLine
 62
7
  6
CONTINUOUS
 10
13.2084347711
 20
36.42056208
 11
13.2084347711
 21
-0.9166172639
  0
LINE
  5
367
100
AcDbEntity
  8
RACCORDO
100
AcDbLine
 62
7
  6
CONTINUOUS
 10
13.2084347711
 20
-21.5488275723
 11
13.2084347711
 21
-58.8860069162
  0
LINE
  5
368
100
AcDbEntity
  8
RACCORDO
100
AcDbLine
 62
7
  6
CONTINUOUS
 10
13.2963027367
 20
36.298079702
 11
13.2963027367
 21
-1.0390996664
  0
LINE
  5
369
100
AcDbEntity
  8
RACCORDO
100
AcDbLine
 62
7
  6
CONTINUOUS
 10
13.2963027367
 20
-21.6713099503
 11
13.2963027367
 21
-59.0084893187
  0
LWPOLYLINE
  5
36A
100
AcDbEntity
  8
RACCORDO
100
AcDbPolyline
 62
7
  6
CONTINUOUS
 90
6
 70
0
 10
13.2084345968
 20
-0.9166312261
 10
13.2080224549
 20
-0.9315464818
 10
13.2069522452
 20
-0.9437111094
 10
13.205560408
 20
-0.9527226508
 10
13.2042969343
 20
-0.9582816703
 10
13.2040973121
 20
-0.9589950651
  0
LINE
  5
36B
100
AcDbEntity
  8
RACCORDO
100
AcDbLine
 62
7
  6
CONTINUOUS
 10
13.0372026587
 20
-0.9584859818
 11
13.2084347711
 21
-0.6333372384
  0
LINE
  5
36C
100
AcDbEntity
  8
RACCORDO
100
AcDbLine
 62
7
  6
CONTINUOUS
 10
13.2048799737
 20
-0.9578731996
 11
13.2048210433
 21
-0.9579849881
  0
LINE
  5
36D
100
AcDbEntity
  8
ASSI
100
AcDbLine
 62
7
  6
CONTINUOUS
 10
13.0019081494
 20
3.7524229938
 11
13.1965820408
 21
3.9951050965
  0
LINE
  5
36E
100
AcDbEntity
  8
0
100
AcDbLine
 62
7
  6
CONTINUOUS
 10
-14.1774909628
 20
-23.4351045331
 11
-14.4956890143
 21
-23.6188281001
  0
LINE
  5
36F
100
AcDbEntity
  8
0
100
AcDbLine
 62
7
  6
CONTINUOUS
 10
-14.5310443534
 20
-23.6392418297
 11
-14.8492424049
 21
-23.8229653967
  0
LINE
  5
370
100
AcDbEntity
  8
0
100
AcDbLine
 62
7
  6
CONTINUOUS
 10
-14.884597744
 20
-23.8433791264
 11
-15.2027957955
 21
-24.0271026934
  0
LINE
  5
371
100
AcDbEntity
  8
0
100
AcDbLine
 62
7
  6
CONTINUOUS
 10
-15.2381511346
 20
-24.0475164231
 11
-15.5563491861
 21
-24.2312399901
  0
LINE
  5
372
100
AcDbEntity
  8
0
100
AcDbLine
 62
7
  6
CONTINUOUS
 10
-15.5917045252
 20
-24.2516537197
 11
-15.9099025767
 21
-24.4353772867
  0
LINE
  5
373
100
AcDbEntity
  8
0
100
AcDbLine
 62
7
  6
CONTINUOUS
 10
-15.6977705423
 20
-24.4353772867
 11
-15.5917045252
 21
-24.3741360977
  0
LINE
  5
374
100
AcDbEntity
  8
0
100
AcDbLine
 62
7
  6
CONTINUOUS
 10
-15.3442171517
 20
-24.2312399901
 11
-15.2381511346
 21
-24.1699988011
  0
LINE
  5
375
100
AcDbEntity
  8
0
100
AcDbLine
 62
7
  6
CONTINUOUS
 10
-14.9906637612
 20
-24.0271026934
 11
-14.884597744
 21
-23.9658615044
  0
LINE
  5
376
100
AcDbEntity
  8
0
100
AcDbLine
 62
7
  6
CONTINUOUS
 10
-14.6371103706
 20
-23.8229653967
 11
-14.5310443534
 21
-23.7617242077
  0
LINE
  5
377
100
AcDbEntity
  8
0
100
AcDbLine
 62
7
  6
CONTINUOUS
 10
-14.28355698
 20
-23.6188281001
 11
-14.1774909628
 21
-23.5575869111
  0
LINE
  5
378
100
AcDbEntity
  8
0
100
AcDbLine
 62
7
  6
CONTINUOUS
 10
-15.4365245534
 20
-23.3307376085
 11
-15.9275802462
 21
-23.6130555143
  0
LINE
  5
379
100
AcDbEntity
  8
0
100
AcDbLine
 62
7
  6
CONTINUOUS
 10
-15.9275802462
 20
-23.5666457549
 11
-15.6268705515
 21
-23.3938757607
  0
LINE
  5
37A
100
AcDbEntity
  8
0
100
AcDbLine
 62
7
  6
CONTINUOUS
 10
-14.5707549225
 20
-22.9668505821
 11
-15.9275802462
 21
-23.7367856383
  0
LINE
  5
37B
100
AcDbEntity
  8
RACCORDO
100
AcDbLine
 62
7
  6
CONTINUOUS
 10
15.5299676418
 20
-4.3154614712
 11
15.821514229
 21
-4.1586771514
  0
LINE
  5
37C
100
AcDbEntity
  8
RACCORDO
100
AcDbLine
 62
7
  6
CONTINUOUS
 10
15.3773228035
 20
-4.6401158864
 11
15.6704021712
 21
-4.4825072868
  0
LINE
  5
37D
100
AcDbEntity
  8
RACCORDO
100
AcDbLine
 62
7
  6
CONTINUOUS
 10
-17.7766127647
 20
18.5760109484
 11
13.2084347711
 21
0.6856328351
  0
LINE
  5
37E
100
AcDbEntity
  8
RACCORDO
100
AcDbLine
 62
7
  6
CONTINUOUS
 10
13.2084347711
 20
1.0315296059
 11
-17.4770761762
 21
18.7489590471
  0
LINE
  5
37F
100
AcDbEntity
  8
RACCORDO
100
AcDbLine
 62
7
  6
CONTINUOUS
 10
-16.4634590606
 20
19.3345164388
 11
13.2084347711
 21
2.2023368165
  0
LINE
  5
380
100
AcDbEntity
  8
DRAFT
100
AcDbLine
 62
7
  6
CONTINUOUS
 10
6.5212211861
 20
6.1105460942
 11
6.6998367517
 21
6.0074157051
  0
LINE
  5
381
100
AcDbEntity
  8
RACCORDO
100
AcDbLine
 62
7
  6
CONTINUOUS
 10
13.2084347711
 20
2.4125453433
 11
9.9525279452
 21
4.2924651385
  0
LINE
  5
382
100
AcDbEntity
  8
RACCORDO
100
AcDbLine
 62
7
  6
CONTINUOUS
 10
4.8613591207
 20
7.2320422105
 11
-5.7452425971
 21
13.3561611104
  0
LINE
  5
383
100
AcDbEntity
  8
RACCORDO
100
AcDbLine
 62
7
  6
CONTINUOUS
 10
-11.048543456
 20
16.4182205604
 11
-16.6728891013
 21
19.6656472463
  0
LINE
  5
384
100
AcDbEntity
  8
0
100
AcDbLine
 62
7
  6
CONTINUOUS
 10
-10.2707259967
 20
15.9971985986
 11
-9.4184956448
 21
15.5051314744
  0
LINE
  5
385
100
AcDbEntity
  8
0
100
AcDbLine
 62
7
  6
CONTINUOUS
 10
-10.2707259967
 20
16.0944353381
 11
-9.2721906113
 21
15.5178935211
  0
LINE
  5
386
100
AcDbEntity
  8
RACCORDO
100
AcDbLine
 62
7
  6
CONTINUOUS
 10
-17.1469737206
 20
20.2659185286
 11
-17.2113394835
 21
20.3030825134
  0
LINE
  5
387
100
AcDbEntity
  8
DRAFT
100
AcDbLine
 62
7
  6
CONTINUOUS
 10
-16.988187993
 20
20.2559122857
 11
-16.6753003754
 21
20.0752548967
  0
LINE
  5
388
100
AcDbEntity
  8
RACCORDO
100
AcDbLine
 62
7
  6
CONTINUOUS
 10
13.2084347711
 20
3.0657846927
 11
10.5182133701
 21
4.6190848132
  0
LINE
  5
389
100
AcDbEntity
  8
RACCORDO
100
AcDbLine
 62
7
  6
CONTINUOUS
 10
5.4270445456
 20
7.5586618851
 11
-5.1795571722
 21
13.6827807851
  0
LINE
  5
38A
100
AcDbEntity
  8
RACCORDO
100
AcDbLine
 62
7
  6
CONTINUOUS
 10
-10.4828580311
 20
16.744840235
 11
-16.1397445942
 21
20.0110556391
  0
LINE
  5
38B
100
AcDbEntity
  8
0
100
AcDbLine
 62
7
  6
CONTINUOUS
 10
-16.2686864723
 20
20.6570894941
 11
-15.6534096638
 21
20.3018363761
  0
LINE
  5
38C
100
AcDbEntity
  8
0
100
AcDbLine
 62
7
  6
CONTINUOUS
 10
-16.1792786561
 20
20.7069411999
 11
-15.5034024157
 21
20.3166987294
  0
LINE
  5
38D
100
AcDbEntity
  8
0
100
AcDbLine
 62
7
  6
CONTINUOUS
 10
-6.231024043
 20
16.3912382597
 11
-2.115374276
 21
14.0149136654
  0
LINE
  5
38E
100
AcDbEntity
  8
0
100
AcDbLine
 62
7
  6
CONTINUOUS
 10
9.6788785337
 20
7.2050599099
 11
13.2084347711
 21
5.1671383741
  0
LINE
  5
38F
100
AcDbEntity
  8
RACCORDO
100
AcDbLine
 62
7
  6
CONTINUOUS
 10
15.1094380963
 20
-62.2827321659
 11
15.1094380963
 21
-20.4881938803
  0
LINE
  5
390
100
AcDbEntity
  8
RACCORDO
100
AcDbLine
 62
7
  6
CONTINUOUS
 10
15.1094380963
 20
-4.3133425137
 11
15.1094380963
 21
37.481195772
  0
LINE
  5
391
100
AcDbEntity
  8
RACCORDO
100
AcDbLine
 62
7
  6
CONTINUOUS
 10
15.5299676418
 20
-62.2848511235
 11
15.5299676418
 21
-20.492949326
  0
LINE
  5
392
100
AcDbEntity
  8
RACCORDO
100
AcDbLine
 62
7
  6
CONTINUOUS
 10
15.5299676418
 20
-4.3154614712
 11
15.5299676418
 21
37.4764403263
  0
LINE
  5
393
100
AcDbEntity
  8
RACCORDO
100
AcDbLine
 62
7
  6
CONTINUOUS
 10
15.821514229
 20
-62.1280668037
 11
15.821514229
 21
-20.3246145386
  0
LINE
  5
394
100
AcDbEntity
  8
RACCORDO
100
AcDbLine
 62
7
  6
CONTINUOUS
 10
15.821514229
 20
-4.1586771514
 11
15.821514229
 21
37.6447751137
  0
LWPOLYLINE
  5
395
100
AcDbEntity
  8
RACCORDO
100
AcDbPolyline
 62
7
  6
CONTINUOUS
 90
6
 70
0
 10
13.2084345968
 20
-58.8860208783
 10
13.2080224549
 20
-58.9009361341
 10
13.2069522452
 20
-58.9131007617
 10
13.205560408
 20
-58.9221123031
 10
13.2042969343
 20
-58.9276713226
 10
13.2040973121
 20
-58.9283847174
  0
LINE
  5
396
100
AcDbEntity
  8
0
100
AcDbLine
 62
7
  6
CONTINUOUS
 10
-8.6974134086
 20
-43.0513809478
 11
-8.5913473914
 21
-42.8676692172
  0
LINE
  5
397
100
AcDbEntity
  8
0
100
AcDbLine
 62
7
  6
CONTINUOUS
 10
-8.343860018
 20
-42.8472436511
 11
-8.2377940008
 21
-42.6635319206
  0
LINE
  5
398
100
AcDbEntity
  8
0
100
AcDbLine
 62
7
  6
CONTINUOUS
 10
-7.9903066274
 20
-42.6431063544
 11
-7.8842406102
 21
-42.4593946239
  0
LINE
  5
399
100
AcDbEntity
  8
0
100
AcDbLine
 62
7
  6
CONTINUOUS
 10
-7.6367532368
 20
-42.4389690578
 11
-7.5306872196
 21
-42.2552573273
  0
LINE
  5
39A
100
AcDbEntity
  8
0
100
AcDbLine
 62
7
  6
CONTINUOUS
 10
-7.2831998462
 20
-42.2348317611
 11
-7.177133829
 21
-42.0511200306
  0
LINE
  5
39B
100
AcDbEntity
  8
0
100
AcDbLine
 62
7
  6
CONTINUOUS
 10
-6.9296464556
 20
-42.0306944644
 11
-6.8235804385
 21
-41.8469827339
  0
LINE
  5
39C
100
AcDbEntity
  8
0
100
AcDbLine
 62
7
  6
CONTINUOUS
 10
-6.576093065
 20
-41.8265571678
 11
-6.4700270479
 21
-41.6428454373
  0
LINE
  5
39D
100
AcDbEntity
  8
0
100
AcDbLine
 62
7
  6
CONTINUOUS
 10
-4.1012193309
 20
-44.8886166177
 11
-3.9951533137
 21
-44.7049048872
  0
LINE
  5
39E
100
AcDbEntity
  8
0
100
AcDbLine
 62
7
  6
CONTINUOUS
 10
-3.7476659403
 20
-44.6844793211
 11
-3.6415999231
 21
-44.5007675906
  0
LINE
  5
39F
100
AcDbEntity
  8
0
100
AcDbLine
 62
7
  6
CONTINUOUS
 10
-3.3941125497
 20
-44.4803420244
 11
-3.2880465325
 21
-44.2966302939
  0
LINE
  5
3A0
100
AcDbEntity
  8
0
100
AcDbLine
 62
7
  6
CONTINUOUS
 10
-3.0405591591
 20
-44.2762047277
 11
-2.9344931419
 21
-44.0924929972
  0
LINE
  5
3A1
100
AcDbEntity
  8
0
100
AcDbLine
 62
7
  6
CONTINUOUS
 10
-2.6870057685
 20
-44.0720674311
 11
-2.5809397513
 21
-43.8883557006
  0
LINE
  5
3A2
100
AcDbEntity
  8
DRAFT
100
AcDbLine
 62
7
  6
CONTINUOUS
 10
-16.6753003754
 20
-31.7706076797
 11
-17.2113394835
 21
-32.1143447661
  0
LINE
  5
3A3
100
AcDbEntity
  8
0
100
AcDbLine
 62
7
  6
CONTINUOUS
 10
-14.1598132933
 20
-28.1281596386
 11
-16.6753003754
 21
-29.732790882
  0
LINE
  5
3A4
100
AcDbEntity
  8
0
100
AcDbLine
 62
7
  6
CONTINUOUS
 10
-16.4690838538
 20
-30.2522811895
 11
-16.6753003754
 21
-30.3755785066
  0
LINE
  5
3A5
100
AcDbEntity
  8
0
100
AcDbLine
 62
7
  6
CONTINUOUS
 10
-16.6753003754
 20
-29.4903772834
 11
-16.6523646969
 21
-29.4771345101
  0
LINE
  5
3A6
100
AcDbEntity
  8
0
100
AcDbLine
 62
7
  6
CONTINUOUS
 10
-16.4048773235
 20
-29.3342384024
 11
-16.2988113063
 21
-29.2729972134
  0
LINE
  5
3A7
100
AcDbEntity
  8
0
100
AcDbLine
 62
7
  6
CONTINUOUS
 10
-16.0513239329
 20
-29.1301011057
 11
-15.9452579158
 21
-29.0688599167
  0
LINE
  5
3A8
100
AcDbEntity
  8
0
100
AcDbLine
 62
7
  6
CONTINUOUS
 10
-15.6977705423
 20
-28.9259638091
 11
-15.5917045252
 21
-28.8647226201
  0
LINE
  5
3A9
100
AcDbEntity
  8
0
100
AcDbLine
 62
7
  6
CONTINUOUS
 10
-15.3442171517
 20
-28.7218265124
 11
-15.2381511346
 21
-28.6605853234
  0
LINE
  5
3AA
100
AcDbEntity
  8
0
100
AcDbLine
 62
7
  6
CONTINUOUS
 10
-14.9906637612
 20
-28.5176892158
 11
-14.884597744
 21
-28.4564480268
  0
LINE
  5
3AB
100
AcDbEntity
  8
0
100
AcDbLine
 62
7
  6
CONTINUOUS
 10
-14.6371103706
 20
-28.3135519191
 11
-14.5310443534
 21
-28.2523107301
  0
LINE
  5
3AC
100
AcDbEntity
  8
0
100
AcDbLine
 62
7
  6
CONTINUOUS
 10
-14.28355698
 20
-28.1094146224
 11
-14.1774909628
 21
-28.0481734334
  0
LINE
  5
3AD
100
AcDbEntity
  8
0
100
AcDbLine
 62
7
  6
CONTINUOUS
 10
-15.9275802462
 20
-25.6704868414
 11
-16.503139747
 21
-25.9914053484
  0
LINE
  5
3AE
100
AcDbEntity
  8
0
100
AcDbLine
 62
7
  6
CONTINUOUS
 10
-16.5665685959
 20
-26.1294554111
 11
-15.9910090951
 21
-25.8085369041
  0
LINE
  5
3AF
100
AcDbEntity
  8
0
100
AcDbLine
 62
7
  6
CONTINUOUS
 10
-16.2116895318
 20
-31.4666866122
 11
-16.6753003754
 21
-31.725185168
  0
LINE
  5
3B0
100
AcDbEntity
  8
0
100
AcDbLine
 62
7
  6
CONTINUOUS
 10
-14.1598132933
 20
-23.2122222202
 11
-15.9275802462
 21
-24.1259352184
  0
LINE
  5
3B1
100
AcDbEntity
  8
RACCORDO
100
AcDbLine
 62
7
  6
CONTINUOUS
 10
-16.2116895318
 20
26.5027030401
 11
-16.6753003754
 21
26.7703861308
  0
LINE
  5
3B2
100
AcDbEntity
  8
0
100
AcDbLine
 62
7
  6
CONTINUOUS
 10
-16.6753003754
 20
28.0768648294
 11
-16.4727537595
 21
27.9599169519
  0
LINE
  5
3B3
100
AcDbEntity
  8
0
100
AcDbLine
 62
7
  6
CONTINUOUS
 10
-2.9079944273
 20
-45.0307883087
 11
-2.7133205359
 21
-44.7881062059
  0
LINE
  5
3B4
100
AcDbEntity
  8
DRAFT
100
AcDbLine
 62
7
  6
CONTINUOUS
 10
-16.6753003754
 20
-37.8941347556
 11
-17.2113394835
 21
-38.2378718421
  0
LINE
  5
3B5
100
AcDbEntity
  8
0
100
AcDbLine
 62
7
  6
CONTINUOUS
 10
-15.6534096638
 20
-37.6675532762
 11
-16.1397445942
 21
-37.9583340132
  0
LINE
  5
3B6
100
AcDbEntity
  8
0
100
AcDbLine
 62
7
  6
CONTINUOUS
 10
-15.4376077237
 20
-38.0328204703
 11
-15.7191711325
 21
-38.2011678589
  0
LINE
  5
3B7
100
AcDbEntity
  8
RACCORDO
100
AcDbLine
 62
7
  6
CONTINUOUS
 10
15.035068282
 20
-19.6357584911
 11
15.3266148693
 21
-19.4674237037
  0
LINE
  5
3B8
100
AcDbEntity
  8
RACCORDO
100
AcDbLine
 62
7
  6
CONTINUOUS
 10
-17.9887124903
 20
-39.0260112032
 11
-16.6753003754
 21
-38.2679532935
  0
LINE
  5
3B9
100
AcDbEntity
  8
RACCORDO
100
AcDbLine
 62
7
  6
CONTINUOUS
 10
-19.4981229498
 20
-39.9122160595
 11
-18.1209228731
 21
-39.1171072671
  0
LINE
  5
3BA
100
AcDbEntity
  8
RACCORDO
100
AcDbLine
 62
7
  6
CONTINUOUS
 10
-19.2987915941
 20
-40.2574778178
 11
-17.9215878168
 21
-39.4623473481
  0
LINE
  5
3BB
100
AcDbEntity
  8
RACCORDO
100
AcDbLine
 62
7
  6
CONTINUOUS
 10
-17.7766127647
 20
-39.3933787039
 11
-16.4634590606
 21
-38.6348732135
  0
LINE
  5
3BC
100
AcDbEntity
  8
RACCORDO
100
AcDbLine
 62
7
  6
CONTINUOUS
 10
15.5299676418
 20
-20.492949326
 11
15.821514229
 21
-20.3246145386
  0
LINE
  5
3BD
100
AcDbEntity
  8
0
100
AcDbLine
 62
7
  6
CONTINUOUS
 10
-15.9995251838
 20
-31.8341287307
 11
-16.9348093726
 21
-32.3556213047
  0
LINE
  5
3BE
100
AcDbEntity
  8
0
100
AcDbLine
 62
7
  6
CONTINUOUS
 10
-16.9348093726
 20
-37.5810310761
 11
-15.9995251838
 21
-37.0595385022
  0
LINE
  5
3BF
100
AcDbEntity
  8
0
100
AcDbLine
 62
7
  6
CONTINUOUS
 10
-16.0629540327
 20
-37.1975885649
 11
-16.9982382215
 21
-37.7190811388
  0
LINE
  5
3C0
100
AcDbEntity
  8
0
100
AcDbLine
 62
7
  6
CONTINUOUS
 10
-14.5707549225
 20
35.0025390702
 11
-14.2231225495
 21
34.8018204949
  0
LINE
  5
3C1
100
AcDbEntity
  8
0
100
AcDbLine
 62
7
  6
CONTINUOUS
 10
-14.5186592419
 20
35.0317862617
 11
-14.1305191394
 21
34.807679031
  0
LINE
  5
3C2
100
AcDbEntity
  8
SMUSSO
100
AcDbLine
 62
7
  6
CONTINUOUS
 10
30.2464925653
 20
-87.6843043013
 11
30.2464925653
 21
46.5434092035
  0
LINE
  5
3C3
100
AcDbEntity
  8
SMUSSO
100
AcDbLine
 62
7
  6
CONTINUOUS
 10
31.6607061276
 20
-87.6843043013
 11
31.6607061276
 21
46.5434092035
  0
LINE
  5
3C4
100
AcDbEntity
  8
0
100
AcDbLine
 62
7
  6
CONTINUOUS
 10
7.2124891681
 20
-52.2375592976
 11
7.3185551853
 21
-52.0538475671
  0
LINE
  5
3C5
100
AcDbEntity
  8
0
100
AcDbLine
 62
7
  6
CONTINUOUS
 10
7.5660425587
 20
-52.033422001
 11
7.6721085759
 21
-51.8497102705
  0
LINE
  5
3C6
100
AcDbEntity
  8
0
100
AcDbLine
 62
7
  6
CONTINUOUS
 10
-10.4828580311
 20
-41.2245494173
 11
-11.048543456
 21
-41.5511690919
  0
LINE
  5
3C7
100
AcDbEntity
  8
0
100
AcDbLine
 62
7
  6
CONTINUOUS
 10
-10.2707259967
 20
-41.5919728783
 11
-10.8063340835
 21
-41.9012262749
  0
LINE
  5
3C8
100
AcDbEntity
  8
0
100
AcDbLine
 62
7
  6
CONTINUOUS
 10
-9.210065825
 20
-42.7757955973
 11
-9.2508494987
 21
-42.7993435793
  0
LINE
  5
3C9
100
AcDbEntity
  8
0
100
AcDbLine
 62
7
  6
CONTINUOUS
 10
-9.4184956448
 20
-42.4642581779
 11
-9.6285118383
 21
-42.5812860776
  0
LINE
  5
3CA
100
AcDbEntity
  8
RACCORDO
100
AcDbLine
 62
7
  6
CONTINUOUS
 10
-16.6753003754
 20
45.2226222773
 11
-16.1397445942
 21
44.9133990813
  0
LINE
  5
3CB
100
AcDbEntity
  8
SMUSSO
100
AcDbLine
 62
7
  6
CONTINUOUS
 10
33.4284730806
 20
47.9723702801
 11
33.4284730806
 21
-86.663617818
  0
LINE
  5
3CC
100
AcDbEntity
  8
DRAFT
100
AcDbLine
 62
7
  6
CONTINUOUS
 10
34.0765391061
 20
-85.7654571119
 11
34.0765391061
 21
47.5641390872
  0
LINE
  5
3CD
100
AcDbEntity
  8
DRAFT
100
AcDbLine
 62
7
  6
CONTINUOUS
 10
35.7972807976
 20
49.3401335682
 11
35.7972807976
 21
-84.8060118187
  0
LINE
  5
3CE
100
AcDbEntity
  8
0
100
AcDbLine
 62
7
  6
CONTINUOUS
 10
7.9195959493
 20
-51.8292847043
 11
8.0256619665
 21
-51.6455729738
  0
LINE
  5
3CF
100
AcDbEntity
  8
0
100
AcDbLine
 62
7
  6
CONTINUOUS
 10
8.2731493399
 20
-51.6251474076
 11
8.3792153571
 21
-51.4414356771
  0
LINE
  5
3D0
100
AcDbEntity
  8
0
100
AcDbLine
 62
7
  6
CONTINUOUS
 10
8.6267027305
 20
-51.421010111
 11
8.7327687477
 21
-51.2372983805
  0
LINE
  5
3D1
100
AcDbEntity
  8
0
100
AcDbLine
 62
7
  6
CONTINUOUS
 10
8.9802561211
 20
-51.2168728143
 11
9.0863221382
 21
-51.0331610838
  0
LINE
  5
3D2
100
AcDbEntity
  8
0
100
AcDbLine
 62
7
  6
CONTINUOUS
 10
9.3338095117
 20
-51.0127355177
 11
9.4398755288
 21
-50.8290237871
  0
LINE
  5
3D3
100
AcDbEntity
  8
0
100
AcDbLine
 62
7
  6
CONTINUOUS
 10
11.8086832458
 20
-54.0747949676
 11
11.914749263
 21
-53.8910832371
  0
LINE
  5
3D4
100
AcDbEntity
  8
0
100
AcDbLine
 62
7
  6
CONTINUOUS
 10
12.1622366364
 20
-53.8706576709
 11
12.2683026536
 21
-53.6869459404
  0
LINE
  5
3D5
100
AcDbEntity
  8
0
100
AcDbLine
 62
7
  6
CONTINUOUS
 10
12.515790027
 20
-53.6665203743
 11
12.6218560442
 21
-53.4828086438
  0
LINE
  5
3D6
100
AcDbEntity
  8
0
100
AcDbLine
 62
7
  6
CONTINUOUS
 10
12.8693434176
 20
-53.4623830776
 11
12.9754094348
 21
-53.2786713471
  0
LINE
  5
3D7
100
AcDbEntity
  8
0
100
AcDbLine
 62
7
  6
CONTINUOUS
 10
-2.1669417729
 20
-43.9844850005
 11
-3.8422258664
 21
-45.0587672025
  0
LINE
  5
3D8
100
AcDbEntity
  8
0
100
AcDbLine
 62
7
  6
CONTINUOUS
 10
-2.1599282431
 20
-44.4630329325
 11
-3.5052775102
 21
-45.2533169604
  0
LINE
  5
3D9
100
AcDbEntity
  8
0
100
AcDbLine
 62
7
  6
CONTINUOUS
 10
-3.3581142062
 20
-45.3382872078
 11
-3.0578195409
 21
-45.1640438856
  0
LINE
  5
3DA
100
AcDbEntity
  8
0
100
AcDbLine
 62
7
  6
CONTINUOUS
 10
-2.9079944273
 20
-45.0307883087
 11
-3.3982892233
 21
-45.3150906564
  0
LINE
  5
3DB
100
AcDbEntity
  8
0
100
AcDbLine
 62
7
  6
CONTINUOUS
 10
-8.861930519
 20
-43.0239005239
 11
-8.8388347648
 21
-43.0105653249
  0
LINE
  5
3DC
100
AcDbEntity
  8
0
100
AcDbLine
 62
7
  6
CONTINUOUS
 10
-8.5913473914
 20
-42.8676692172
 11
-8.4852813742
 21
-42.8064280282
  0
LINE
  5
3DD
100
AcDbEntity
  8
0
100
AcDbLine
 62
7
  6
CONTINUOUS
 10
-8.2377940008
 20
-42.6635319206
 11
-8.1317279836
 21
-42.6022907316
  0
LINE
  5
3DE
100
AcDbEntity
  8
0
100
AcDbLine
 62
7
  6
CONTINUOUS
 10
-7.8842406102
 20
-42.4593946239
 11
-7.7781745931
 21
-42.3981534349
  0
LINE
  5
3DF
100
AcDbEntity
  8
0
100
AcDbLine
 62
7
  6
CONTINUOUS
 10
-7.5306872196
 20
-42.2552573273
 11
-7.4246212025
 21
-42.1940161383
  0
LINE
  5
3E0
100
AcDbEntity
  8
0
100
AcDbLine
 62
7
  6
CONTINUOUS
 10
-7.177133829
 20
-42.0511200306
 11
-7.0710678119
 21
-41.9898788416
  0
LINE
  5
3E1
100
AcDbEntity
  8
0
100
AcDbLine
 62
7
  6
CONTINUOUS
 10
-6.8235804385
 20
-41.8469827339
 11
-6.7175144213
 21
-41.7857415449
  0
LINE
  5
3E2
100
AcDbEntity
  8
0
100
AcDbLine
 62
7
  6
CONTINUOUS
 10
-6.4700270479
 20
-41.6428454373
 11
-6.3639610307
 21
-41.5816042483
  0
LINE
  5
3E3
100
AcDbEntity
  8
0
100
AcDbLine
 62
7
  6
CONTINUOUS
 10
-5.3295644202
 20
-44.2717465139
 11
-5.8952498452
 21
-44.5983661886
  0
LINE
  5
3E4
100
AcDbEntity
  8
0
100
AcDbLine
 62
7
  6
CONTINUOUS
 10
-5.7452425971
 20
-44.6132285419
 11
-5.1795571722
 21
-44.2866088672
  0
LINE
  5
3E5
100
AcDbEntity
  8
0
100
AcDbLine
 62
7
  6
CONTINUOUS
 10
-3.9951533137
 20
-44.7049048872
 11
-3.8890872965
 21
-44.6436636982
  0
LINE
  5
3E6
100
AcDbEntity
  8
0
100
AcDbLine
 62
7
  6
CONTINUOUS
 10
-3.6415999231
 20
-44.5007675906
 11
-3.5355339059
 21
-44.4395264016
  0
LINE
  5
3E7
100
AcDbEntity
  8
0
100
AcDbLine
 62
7
  6
CONTINUOUS
 10
-3.2880465325
 20
-44.2966302939
 11
-3.1819805153
 21
-44.2353891049
  0
LINE
  5
3E8
100
AcDbEntity
  8
0
100
AcDbLine
 62
7
  6
CONTINUOUS
 10
-2.9344931419
 20
-44.0924929972
 11
-2.8284271247
 21
-44.0312518082
  0
LINE
  5
3E9
100
AcDbEntity
  8
0
100
AcDbLine
 62
7
  6
CONTINUOUS
 10
-2.5809397513
 20
-43.8883557006
 11
-2.4748737342
 21
-43.8271145116
  0
LINE
  5
3EA
100
AcDbEntity
  8
0
100
AcDbLine
 62
7
  6
CONTINUOUS
 10
-2.368807717
 20
-43.8883438641
 11
-2.6870057685
 21
-44.0720674311
  0
LINE
  5
3EB
100
AcDbEntity
  8
0
100
AcDbLine
 62
7
  6
CONTINUOUS
 10
-2.7223611076
 20
-44.0924811607
 11
-3.0405591591
 21
-44.2762047277
  0
LINE
  5
3EC
100
AcDbEntity
  8
0
100
AcDbLine
 62
7
  6
CONTINUOUS
 10
-3.0759144982
 20
-44.2966184574
 11
-3.3941125497
 21
-44.4803420244
  0
LINE
  5
3ED
100
AcDbEntity
  8
0
100
AcDbLine
 62
7
  6
CONTINUOUS
 10
-3.4294678888
 20
-44.5007557541
 11
-3.7476659403
 21
-44.6844793211
  0
LINE
  5
3EE
100
AcDbEntity
  8
0
100
AcDbLine
 62
7
  6
CONTINUOUS
 10
-3.7830212793
 20
-44.7048930507
 11
-4.1012193309
 21
-44.8886166177
  0
LINE
  5
3EF
100
AcDbEntity
  8
0
100
AcDbLine
 62
7
  6
CONTINUOUS
 10
-6.4244056185
 20
-41.5262787347
 11
-9.0289819891
 21
-42.8803511346
  0
LINE
  5
3F0
100
AcDbEntity
  8
0
100
AcDbLine
 62
7
  6
CONTINUOUS
 10
-15.4365245534
 20
34.6386520438
 11
-15.1286547065
 21
34.6859569767
  0
LINE
  5
3F1
100
AcDbEntity
  8
RACCORDO
100
AcDbLine
 62
7
  6
CONTINUOUS
 10
-17.1469737206
 20
49.9854366039
 11
-17.2113394835
 21
50.0226005887
  0
LINE
  5
3F2
100
AcDbEntity
  8
DRAFT
100
AcDbLine
 62
7
  6
CONTINUOUS
 10
-16.988187993
 20
49.9754303609
 11
-16.6753003754
 21
49.7947729719
  0
LINE
  5
3F3
100
AcDbEntity
  8
RACCORDO
100
AcDbLine
 62
7
  6
CONTINUOUS
 10
-19.3762378618
 20
55.5216828317
 11
12.9597496872
 21
36.851288886
  0
LINE
  5
3F4
100
AcDbEntity
  8
RACCORDO
100
AcDbLine
 62
7
  6
CONTINUOUS
 10
-19.4383626481
 20
55.65900389
 11
12.8976249221
 21
36.9886099321
  0
LWPOLYLINE
  5
3F5
100
AcDbEntity
  8
RACCORDO
100
AcDbPolyline
 62
7
  6
CONTINUOUS
 90
21
 70
0
 10
12.959830034
 20
36.8512423423
 10
12.9729679011
 20
36.8432054625
 10
12.9908487442
 20
36.8308656583
 10
13.0094145191
 20
36.8163683901
 10
13.0283000571
 20
36.7998335277
 10
13.047215931
 20
36.7813814704
 10
13.0658917636
 20
36.7611675569
 10
13.084113792
 20
36.7393329629
 10
13.1016443605
 20
36.7160917336
 10
13.1182562864
 20
36.6916949898
 10
13.1338184492
 20
36.666299797
 10
13.1481435293
 20
36.6402033308
 10
13.1610791526
 20
36.6137135523
 10
13.1725626824
 20
36.5869986988
 10
13.1824888976
 20
36.5603779732
 10
13.1907867665
 20
36.5341956529
 10
13.1974541751
 20
36.5086758041
 10
13.2024976817
 20
36.4840912768
 10
13.2059467221
 20
36.4607773655
 10
13.2078777452
 20
36.4391068483
 10
13.208434272
 20
36.4206725376
  0
LINE
  5
3F6
100
AcDbEntity
  8
RACCORDO
100
AcDbLine
 62
7
  6
CONTINUOUS
 10
13.0372026587
 20
-58.9278756341
 11
13.2084347711
 21
-58.6027268907
  0
LINE
  5
3F7
100
AcDbEntity
  8
RACCORDO
100
AcDbLine
 62
7
  6
CONTINUOUS
 10
13.2048799737
 20
-58.9272628519
 11
13.2048210433
 21
-58.9273746404
  0
LINE
  5
3F8
100
AcDbEntity
  8
0
100
AcDbLine
 62
7
  6
CONTINUOUS
 10
13.0019081494
 20
-54.2169666585
 11
13.1965820408
 21
-53.9742845558
  0
LINE
  5
3F9
100
AcDbEntity
  8
RACCORDO
100
AcDbLine
 62
7
  6
CONTINUOUS
 10
14.8266384621
 20
37.9683826181
 11
-21.3696595241
 21
58.8676714292
  0
LINE
  5
3FA
100
AcDbEntity
  8
RACCORDO
100
AcDbLine
 62
7
  6
CONTINUOUS
 10
15.035068282
 20
38.3336311612
 11
-21.1589463682
 21
59.2316016027
  0
LINE
  5
3FB
100
AcDbEntity
  8
RACCORDO
100
AcDbLine
 62
7
  6
CONTINUOUS
 10
15.3266148693
 20
38.5019659486
 11
-20.8774031016
 21
59.405712182
  0
LINE
  5
3FC
100
AcDbEntity
  8
0
100
AcDbLine
 62
7
  6
CONTINUOUS
 10
5.4270445456
 20
-50.4107277672
 11
4.8613591207
 21
-50.7373474418
  0
LINE
  5
3FD
100
AcDbEntity
  8
0
100
AcDbLine
 62
7
  6
CONTINUOUS
 10
5.63917658
 20
-50.7781512282
 11
5.1035684932
 21
-51.0874046247
  0
LINE
  5
3FE
100
AcDbEntity
  8
0
100
AcDbLine
 62
7
  6
CONTINUOUS
 10
7.0479720577
 20
-52.2100788738
 11
7.0710678119
 21
-52.1967436748
  0
LINE
  5
3FF
100
AcDbEntity
  8
0
100
AcDbLine
 62
7
  6
CONTINUOUS
 10
7.3185551853
 20
-52.0538475671
 11
7.4246212025
 21
-51.9926063781
  0
LINE
  5
400
100
AcDbEntity
  8
0
100
AcDbLine
 62
7
  6
CONTINUOUS
 10
7.6721085759
 20
-51.8497102705
 11
7.7781745931
 21
-51.7884690815
  0
LINE
  5
401
100
AcDbEntity
  8
0
100
AcDbLine
 62
7
  6
CONTINUOUS
 10
8.0256619665
 20
-51.6455729738
 11
8.1317279836
 21
-51.5843317848
  0
LINE
  5
402
100
AcDbEntity
  8
0
100
AcDbLine
 62
7
  6
CONTINUOUS
 10
8.3792153571
 20
-51.4414356771
 11
8.4852813742
 21
-51.3801944881
  0
LINE
  5
403
100
AcDbEntity
  8
0
100
AcDbLine
 62
7
  6
CONTINUOUS
 10
8.7327687477
 20
-51.2372983805
 11
8.8388347648
 21
-51.1760571915
  0
LINE
  5
404
100
AcDbEntity
  8
0
100
AcDbLine
 62
7
  6
CONTINUOUS
 10
9.0863221382
 20
-51.0331610838
 11
9.1923881554
 21
-50.9719198948
  0
LINE
  5
405
100
AcDbEntity
  8
0
100
AcDbLine
 62
7
  6
CONTINUOUS
 10
9.4398755288
 20
-50.8290237871
 11
9.545941546
 21
-50.7677825981
  0
LINE
  5
406
100
AcDbEntity
  8
0
100
AcDbLine
 62
7
  6
CONTINUOUS
 10
10.5182133701
 20
-53.3503048391
 11
9.9525279452
 21
-53.6769245138
  0
LINE
  5
407
100
AcDbEntity
  8
0
100
AcDbLine
 62
7
  6
CONTINUOUS
 10
6.4789913445
 20
-51.881556541
 11
6.5212211861
 21
-51.8588435581
  0
LINE
  5
408
100
AcDbEntity
  8
0
100
AcDbLine
 62
7
  6
CONTINUOUS
 10
9.4854969582
 20
-50.7124570845
 11
6.8809205876
 21
-52.0665294845
  0
LINE
  5
409
100
AcDbEntity
  8
SMUSSO
100
AcDbLine
 62
7
  6
CONTINUOUS
 10
30.2464925653
 20
46.5434092035
 11
31.6607061276
 21
46.5434092035
  0
LINE
  5
40A
100
AcDbEntity
  8
0
100
AcDbLine
 62
7
  6
CONTINUOUS
 10
-16.6170093579
 20
47.0057324777
 11
-16.4048773235
 21
47.0057324777
  0
LINE
  5
40B
100
AcDbEntity
  8
0
100
AcDbLine
 62
7
  6
CONTINUOUS
 10
-16.2634559673
 20
47.2098697744
 11
-16.0513239329
 21
47.2098697744
  0
LINE
  5
40C
100
AcDbEntity
  8
0
100
AcDbLine
 62
7
  6
CONTINUOUS
 10
-15.9099025767
 20
47.414007071
 11
-15.6977705423
 21
47.414007071
  0
LINE
  5
40D
100
AcDbEntity
  8
DRAFT
100
AcDbLine
 62
7
  6
CONTINUOUS
 10
33.4284730806
 20
47.5641390872
 11
34.0765391061
 21
47.5641390872
  0
LINE
  5
40E
100
AcDbEntity
  8
0
100
AcDbLine
 62
7
  6
CONTINUOUS
 10
-15.5563491861
 20
47.6181443677
 11
-15.3442171517
 21
47.6181443677
  0
LINE
  5
40F
100
AcDbEntity
  8
0
100
AcDbLine
 62
7
  6
CONTINUOUS
 10
-15.2027957955
 20
47.8222816644
 11
-14.9906637612
 21
47.8222816644
  0
LINE
  5
410
100
AcDbEntity
  8
0
100
AcDbLine
 62
7
  6
CONTINUOUS
 10
-14.8492424049
 20
48.026418961
 11
-14.6371103706
 21
48.026418961
  0
LINE
  5
411
100
AcDbEntity
  8
0
100
AcDbLine
 62
7
  6
CONTINUOUS
 10
-14.4956890143
 20
48.2305562577
 11
-14.28355698
 21
48.2305562577
  0
LINE
  5
412
100
AcDbEntity
  8
0
100
AcDbLine
 62
7
  6
CONTINUOUS
 10
13.2084347711
 20
-53.5134301716
 11
12.0676767103
 21
-54.2449455524
  0
LINE
  5
413
100
AcDbEntity
  8
0
100
AcDbLine
 62
7
  6
CONTINUOUS
 10
13.2084347711
 20
-53.9673220341
 11
12.4046250665
 21
-54.4394953103
  0
LINE
  5
414
100
AcDbEntity
  8
0
100
AcDbLine
 62
7
  6
CONTINUOUS
 10
12.5517883705
 20
-54.5244655576
 11
12.8520830358
 21
-54.3502222355
  0
LINE
  5
415
100
AcDbEntity
  8
0
100
AcDbLine
 62
7
  6
CONTINUOUS
 10
13.0019081494
 20
-54.2169666585
 11
12.5116133534
 21
-54.5012690062
  0
LINE
  5
416
100
AcDbEntity
  8
0
100
AcDbLine
 62
7
  6
CONTINUOUS
 10
11.914749263
 20
-53.8910832371
 11
12.0208152802
 21
-53.8298420481
  0
LINE
  5
417
100
AcDbEntity
  8
0
100
AcDbLine
 62
7
  6
CONTINUOUS
 10
12.2683026536
 20
-53.6869459404
 11
12.3743686708
 21
-53.6257047514
  0
LINE
  5
418
100
AcDbEntity
  8
0
100
AcDbLine
 62
7
  6
CONTINUOUS
 10
12.6218560442
 20
-53.4828086438
 11
12.7279220614
 21
-53.4215674548
  0
LINE
  5
419
100
AcDbEntity
  8
0
100
AcDbLine
 62
7
  6
CONTINUOUS
 10
12.9754094348
 20
-53.2786713471
 11
13.081475452
 21
-53.2174301581
  0
LINE
  5
41A
100
AcDbEntity
  8
0
100
AcDbLine
 62
7
  6
CONTINUOUS
 10
13.1875414691
 20
-53.2786595106
 11
12.8693434176
 21
-53.4623830776
  0
LINE
  5
41B
100
AcDbEntity
  8
0
100
AcDbLine
 62
7
  6
CONTINUOUS
 10
12.8339880785
 20
-53.4827968073
 11
12.515790027
 21
-53.6665203743
  0
LINE
  5
41C
100
AcDbEntity
  8
0
100
AcDbLine
 62
7
  6
CONTINUOUS
 10
12.4804346879
 20
-53.686934104
 11
12.1622366364
 21
-53.8706576709
  0
LINE
  5
41D
100
AcDbEntity
  8
0
100
AcDbLine
 62
7
  6
CONTINUOUS
 10
12.1268812973
 20
-53.8910714006
 11
11.8086832458
 21
-54.0747949676
  0
LINE
  5
41E
100
AcDbEntity
  8
0
100
AcDbLine
 62
7
  6
CONTINUOUS
 10
-15.4365245534
 20
53.0092332716
 11
-15.1286547065
 21
53.0565382045
  0
LINE
  5
41F
100
AcDbEntity
  8
0
100
AcDbLine
 62
7
  6
CONTINUOUS
 10
-15.9099025767
 20
51.9045935934
 11
-15.6977705423
 21
51.9045935934
  0
LINE
  5
420
100
AcDbEntity
  8
0
100
AcDbLine
 62
7
  6
CONTINUOUS
 10
-15.5563491861
 20
52.1087308901
 11
-15.3442171517
 21
52.1087308901
  0
LINE
  5
421
100
AcDbEntity
  8
0
100
AcDbLine
 62
7
  6
CONTINUOUS
 10
-15.2027957955
 20
52.3128681867
 11
-14.9906637612
 21
52.3128681867
  0
LINE
  5
422
100
AcDbEntity
  8
0
100
AcDbLine
 62
7
  6
CONTINUOUS
 10
-14.8492424049
 20
52.5170054834
 11
-14.6371103706
 21
52.5170054834
  0
LINE
  5
423
100
AcDbEntity
  8
RACCORDO
100
AcDbLine
 62
7
  6
CONTINUOUS
 10
-19.4138880447
 20
55.5392455565
 11
-19.4137617446
 21
55.5392407016
  0
LINE
  5
424
100
AcDbEntity
  8
RACCORDO
100
AcDbLine
 62
7
  6
CONTINUOUS
 10
-19.1310002428
 20
55.380085704
 11
-19.4981229498
 21
55.3943508588
  0
LWPOLYLINE
  5
425
100
AcDbEntity
  8
RACCORDO
100
AcDbPolyline
 62
7
  6
CONTINUOUS
 90
9
 70
0
 10
-19.4137780679
 20
55.5392344085
 10
-19.4150171444
 20
55.5393008147
 10
-19.4166467159
 20
55.5394602873
 10
-19.414789941
 20
55.5390394877
 10
-19.4097882531
 20
55.5375371339
 10
-19.401788392
 20
55.5345127818
 10
-19.3912508417
 20
55.5297239384
 10
-19.3791742191
 20
55.5233554719
 10
-19.3762785481
 20
55.5217061334
  0
LINE
  5
426
100
AcDbEntity
  8
SMUSSO
100
AcDbLine
 62
7
  6
CONTINUOUS
 10
30.2464925653
 20
46.5434092035
 11
-35.7972807976
 21
84.6762562203
  0
LINE
  5
427
100
AcDbEntity
  8
SMUSSO
100
AcDbLine
 62
7
  6
CONTINUOUS
 10
30.9535993464
 20
47.7681540736
 11
-35.0901740164
 21
85.9010010904
  0
LINE
  5
428
100
AcDbEntity
  8
RACCORDO
100
AcDbLine
 62
7
  6
CONTINUOUS
 10
15.5299676418
 20
-62.2848511235
 11
15.821514229
 21
-62.1280668037
  0
LINE
  5
429
100
AcDbEntity
  8
RACCORDO
100
AcDbLine
 62
7
  6
CONTINUOUS
 10
15.3773228035
 20
-62.6095055386
 11
15.6704021712
 21
-62.4518969391
  0
LINE
  5
42A
100
AcDbEntity
  8
SMUSSO
100
AcDbLine
 62
7
  6
CONTINUOUS
 10
-33.3224070634
 20
86.9216875737
 11
33.07491969
 21
48.5847427152
  0
LINE
  5
42B
100
AcDbEntity
  8
DRAFT
100
AcDbLine
 62
7
  6
CONTINUOUS
 10
33.0453993112
 20
49.3501255987
 11
-32.2205565914
 21
87.0338705623
  0
LINE
  5
42C
100
AcDbEntity
  8
DRAFT
100
AcDbLine
 62
7
  6
CONTINUOUS
 10
-30.5293352787
 20
88.0444466514
 11
35.443727407
 21
49.9525060032
  0
LINE
  5
42D
100
AcDbEntity
  8
SMUSSO
100
AcDbLine
 62
7
  6
CONTINUOUS
 10
31.6607061276
 20
-87.6843043013
 11
33.4284730806
 21
-86.663617818
  0
LINE
  5
42E
100
AcDbEntity
  8
RACCORDO
100
AcDbLine
 62
7
  6
CONTINUOUS
 10
31.4536235066
 20
-88.1420411624
 11
33.2213904595
 21
-87.1213546791
  0
LINE
  5
42F
100
AcDbEntity
  8
DRAFT
100
AcDbLine
 62
7
  6
CONTINUOUS
 10
34.0765391061
 20
-85.7654571119
 11
35.7972807976
 21
-84.8060118187
  0
LINE
  5
430
100
AcDbEntity
  8
DRAFT
100
AcDbLine
 62
7
  6
CONTINUOUS
 10
33.7655065112
 20
-86.4380521499
 11
35.4773436878
 21
-85.4978624984
  0
ARC
  5
431
100
AcDbEntity
  8
0
100
AcDbCircle
 62
7
  6
CONTINUOUS
 10
-15.6534098955
 20
-37.9124938233
 40
0.2999999327
100
AcDbArc
 50
359.9998174713
 51
59.9983938114
  0
ARC
  5
432
100
AcDbEntity
  8
0
100
AcDbCircle
 62
7
  6
CONTINUOUS
 10
-15.6534098955
 20
20.056895829
 40
0.2999999327
100
AcDbArc
 50
359.9998174713
 51
59.9983938114
  0
ARC
  5
433
100
AcDbEntity
  8
RACCORDO
100
AcDbCircle
 62
7
  6
CONTINUOUS
 10
-17.8021723434
 20
-39.3289641471
 40
0.1790283039
100
AcDbArc
 50
228.1625124162
 51
240.1188149396
  0
ARC
  5
434
100
AcDbEntity
  8
RACCORDO
100
AcDbCircle
 62
7
  6
CONTINUOUS
 10
-17.8021723434
 20
18.6404255052
 40
0.1790283039
100
AcDbArc
 50
228.1625124162
 51
240.1188149396
  0
ARC
  5
435
100
AcDbEntity
  8
0
100
AcDbCircle
 62
7
  6
CONTINUOUS
 10
-14.2465344212
 20
48.3208616982
 40
0.1427973923
100
AcDbArc
 50
334.456769174
 51
339.4540835641
  0
ARC
  5
436
100
AcDbEntity
  8
0
100
AcDbCircle
 62
7
  6
CONTINUOUS
 10
-14.2342689771
 20
48.3149953658
 40
0.1292012548
100
AcDbArc
 50
329.1077520581
 51
334.4586303453
  0
ARC
  5
437
100
AcDbEntity
  8
0
100
AcDbCircle
 62
7
  6
CONTINUOUS
 10
-14.2058423918
 20
-28.0472638322
 40
0.0928420983
100
AcDbArc
 50
304.988449695
 51
311.431982977
  0
SPLINE
  5
438
100
AcDbEntity
  8
RACCORDO
100
AcDbSpline
 62
7
  6
CONTINUOUS
 70
0
 71
3
 72
9
 73
5
 74
3
 42
0.0000001
 43
0.0000001
 44
0.0000000001
 12
-0.1258022839
 22
-0.0751721723
 32
0.0
 13
-0.1037487076
 23
-0.1035049555
 33
0.0
 40
0.0
 40
0.0
 40
0.0
 40
0.0
 40
0.2375582814
 40
1.0
 40
1.0
 40
1.0
 40
1.0
 10
-17.7766127647
 20
-39.3933787039
 30
0.0
 10
-17.7865745561
 20
-39.3993312946
 30
0.0
 10
-17.8276029169
 20
-39.4258970939
 30
0.0
 10
-17.8649973409
 20
-39.4578870007
 30
0.0
 10
-17.8913647885
 20
-39.4841924994
 30
0.0
 11
-17.7766127647
 21
-39.3933787039
 31
0.0
 11
-17.8058627325
 21
-39.4122592496
 31
0.0
 11
-17.8913647885
 21
-39.4841924994
 31
0.0
  0
SPLINE
  5
439
100
AcDbEntity
  8
RACCORDO
100
AcDbSpline
 62
7
  6
CONTINUOUS
 70
0
 71
3
 72
9
 73
5
 74
3
 42
0.0000001
 43
0.0000001
 44
0.0000000001
 12
-0.1440896839
 22
-0.0602425744
 32
0.0
 13
-0.1252946641
 23
-0.0932322472
 33
0.0
 40
0.0
 40
0.0
 40
0.0
 40
0.0
 40
0.24092834
 40
1.0
 40
1.0
 40
1.0
 40
1.0
 10
-17.7865280628
 20
-39.3843672094
 30
0.0
 10
-17.7980998256
 20
-39.3892052573
 30
0.0
 10
-17.8454355062
 20
-39.410931083
 30
0.0
 10
-17.8898840186
 20
-39.4387606191
 30
0.0
 10
-17.9215865615
 20
-39.4623506047
 30
0.0
 11
-17.7865280628
 21
-39.3843672094
 31
0.0
 11
-17.8207412496
 21
-39.4000282903
 31
0.0
 11
-17.9215865615
 21
-39.4623506047
 31
0.0
  0
SPLINE
  5
43A
100
AcDbEntity
  8
RACCORDO
100
AcDbSpline
 62
7
  6
CONTINUOUS
 70
0
 71
3
 72
9
 73
5
 74
3
 42
0.0000001
 43
0.0000001
 44
0.0000000001
 12
-0.1242085342
 22
-0.0946731593
 32
0.0
 13
-0.1433862242
 23
-0.0618963471
 33
0.0
 40
0.0
 40
0.0
 40
0.0
 40
0.0
 40
0.2409316862
 40
1.0
 40
1.0
 40
1.0
 40
1.0
 10
-17.9858668975
 20
-39.0391027942
 30
0.0
 10
-17.9958421547
 20
-39.0467060489
 30
0.0
 10
-18.0383227052
 20
-39.0768399977
 30
0.0
 10
-18.0846466885
 20
-39.1014211168
 30
0.0
 10
-18.1209266683
 20
-39.117082302
 30
0.0
 11
-17.9858668975
 21
-39.0391027942
 31
0.0
 11
-18.0165350799
 21
-39.060904164
 31
0.0
 11
-18.1209266683
 21
-39.117082302
 31
0.0
  0
SPLINE
  5
43B
100
AcDbEntity
  8
RACCORDO
100
AcDbSpline
 62
7
  6
CONTINUOUS
 70
0
 71
3
 72
9
 73
5
 74
3
 42
0.0000001
 43
0.0000001
 44
0.0000000001
 12
-0.1279979636
 22
-0.0713676488
 32
0.0
 13
-0.1415101585
 23
-0.0381011157
 33
0.0
 40
0.0
 40
0.0
 40
0.0
 40
0.0
 40
0.237558507
 40
1.0
 40
1.0
 40
1.0
 40
1.0
 10
-17.9887124903
 20
-39.0260112032
 30
0.0
 10
-17.9988481587
 20
-39.0316625339
 30
0.0
 10
-18.0423677152
 20
-39.053913124
 30
0.0
 10
-18.0887681383
 20
-39.0703043964
 30
0.0
 10
-18.1247325438
 20
-39.0799876869
 30
0.0
 11
-17.9887124903
 21
-39.0260112032
 31
0.0
 11
-18.0196876194
 21
-39.0419035028
 31
0.0
 11
-18.1247325438
 21
-39.0799876869
 31
0.0
  0
SPLINE
  5
43C
100
AcDbEntity
  8
RACCORDO
100
AcDbSpline
 62
7
  6
CONTINUOUS
 70
0
 71
3
 72
15
 73
11
 74
9
 42
0.0000001
 43
0.0000001
 44
0.0000000001
 12
0.0000238213
 22
-0.597984879
 32
0.0
 13
-0.5178420862
 23
0.2990409502
 33
0.0
 40
0.0
 40
0.0
 40
0.0
 40
0.0
 40
0.1446786948
 40
0.2748799313
 40
0.3916072275
 40
0.4999943582
 40
0.6083856293
 40
0.725122466
 40
0.8553266085
 40
1.0
 40
1.0
 40
1.0
 40
1.0
 10
13.2963027367
 20
-59.0084893187
 30
0.0
 10
13.2963038856
 20
-59.037327876
 30
0.0
 10
13.292358245
 20
-59.0922806832
 30
0.0
 10
13.2717082207
 20
-59.168204982
 30
0.0
 10
13.2357395432
 20
-59.2304254869
 30
0.0
 10
13.1842792153
 20
-59.2747945999
 30
0.0
 10
13.1201157676
 20
-59.2971584736
 30
0.0
 10
13.0482448315
 20
-59.2971782032
 30
0.0
 10
12.9721664449
 20
-59.2771064873
 30
0.0
 10
12.9225975791
 20
-59.2530574912
 30
0.0
 10
12.8976249221
 20
-59.2386364017
 30
0.0
 11
13.2963027367
 21
-59.0084893187
 31
0.0
 11
13.2892280199
 21
-59.0947152421
 31
0.0
 11
13.2676681407
 21
-59.1695289942
 31
0.0
 11
13.2316830951
 21
-59.2293393459
 31
0.0
 11
13.1822159772
 21
-59.2712182353
 31
0.0
 11
13.1212057974
 21
-59.293102386
 31
0.0
 11
13.0514100116
 21
-59.294345941
 31
0.0
 11
12.9758369884
 21
-59.2756132246
 31
0.0
 11
12.8976249221
 21
-59.2386364017
 31
0.0
  0
SPLINE
  5
43D
100
AcDbEntity
  8
RACCORDO
100
AcDbSpline
 62
7
  6
CONTINUOUS
 70
0
 71
3
 72
9
 73
5
 74
3
 42
0.0000001
 43
0.0000001
 44
0.0000000001
 12
0.1563813851
 22
-0.090284346
 32
0.0
 13
0.1281480412
 23
-0.1272182387
 33
0.0
 40
0.0
 40
0.0
 40
0.0
 40
0.0
 40
0.2366293495
 40
1.0
 40
1.0
 40
1.0
 40
1.0
 10
12.8976249221
 20
-20.9807797202
 30
0.0
 10
12.9099597306
 20
-20.9879010289
 30
0.0
 10
12.9609872712
 20
-21.0198843561
 30
0.0
 10
13.007523378
 20
-21.0588443578
 30
0.0
 10
13.0401315292
 20
-21.0912159143
 30
0.0
 11
12.8976249221
 21
-20.9807797202
 31
0.0
 11
12.9338574672
 21
-21.0034280648
 31
0.0
 11
13.0401315292
 21
-21.0912159143
 31
0.0
  0
SPLINE
  5
43E
100
AcDbEntity
  8
RACCORDO
100
AcDbSpline
 62
7
  6
CONTINUOUS
 70
0
 71
3
 72
10
 73
6
 74
4
 42
0.0000001
 43
0.0000001
 44
0.0000000001
 12
0.4592582815
 22
-0.4559260458
 32
0.0
 13
0.0000021875
 23
-0.6471373334
 33
0.0
 40
0.0
 40
0.0
 40
0.0
 40
0.0
 40
0.5173571193
 40
0.7703670028
 40
1.0
 40
1.0
 40
1.0
 40
1.0
 10
13.0401315292
 20
-21.0912159143
 30
0.0
 10
13.1193317097
 20
-21.1698414429
 30
0.0
 10
13.2148350734
 20
-21.3121314119
 30
0.0
 10
13.2833513022
 20
-21.5174185284
 30
0.0
 10
13.2963025693
 20
-21.6217752551
 30
0.0
 10
13.2963027367
 20
-21.6713099503
 30
0.0
 11
13.0401315292
 21
-21.0912159143
 31
0.0
 11
13.2283390882
 21
-21.3681088462
 31
0.0
 11
13.2794245991
 21
-21.5236674676
 31
0.0
 11
13.2963027367
 21
-21.6713099503
 31
0.0
  0
SPLINE
  5
43F
100
AcDbEntity
  8
RACCORDO
100
AcDbSpline
 62
7
  6
CONTINUOUS
 70
0
 71
3
 72
11
 73
7
 74
5
 42
0.0000001
 43
0.0000001
 44
0.0000000001
 12
0.3303340714
 22
0.1779756193
 32
0.0
 13
0.0024728007
 23
0.3752196757
 33
0.0
 40
0.0
 40
0.0
 40
0.0
 40
0.0
 40
0.2174002984
 40
0.4501302195
 40
0.7094857245
 40
1.0
 40
1.0
 40
1.0
 40
1.0
 10
15.3774716782
 20
-62.6094219382
 30
0.0
 10
15.4014099201
 20
-62.5965246206
 30
0.0
 10
15.4464638505
 20
-62.5605977681
 30
0.0
 10
15.4947212896
 20
-62.4846053774
 30
0.0
 10
15.5237213331
 20
-62.3901687404
 30
0.0
 10
15.5297281805
 20
-62.321186681
 30
0.0
 10
15.5299676418
 20
-62.2848511235
 30
0.0
 11
15.3774716782
 21
-62.6094219382
 31
0.0
 11
15.4415618449
 21
-62.5589553892
 31
0.0
 11
15.4895023963
 21
-62.4859645448
 31
0.0
 11
15.5193700099
 21
-62.3933438001
 31
0.0
 11
15.5299676418
 21
-62.2848511235
 31
0.0
  0
SPLINE
  5
440
100
AcDbEntity
  8
RACCORDO
100
AcDbSpline
 62
7
  6
CONTINUOUS
 70
0
 71
3
 72
15
 73
11
 74
9
 42
0.0000001
 43
0.0000001
 44
0.0000000001
 12
-0.0000387078
 22
0.5979848853
 32
0.0
 13
0.5178497191
 23
-0.2990277463
 33
0.0
 40
0.0
 40
0.0
 40
0.0
 40
0.0
 40
0.1446658674
 40
0.2748627245
 40
0.391594032
 40
0.4999831839
 40
0.6083724348
 40
0.7251052566
 40
0.8553137174
 40
1.0
 40
1.0
 40
1.0
 40
1.0
 10
-19.8370404627
 20
-2.5405328452
 30
0.0
 10
-19.8370423293
 20
-2.5116968445
 30
0.0
 10
-19.833083315
 20
-2.4567474859
 30
0.0
 10
-19.8124235181
 20
-2.3808307546
 30
0.0
 10
-19.7764669191
 20
-2.3186041311
 30
0.0
 10
-19.7250132313
 20
-2.2742253829
 30
0.0
 10
-19.660854752
 20
-2.2518510689
 30
0.0
 10
-19.5889831073
 20
-2.2518177094
 30
0.0
 10
-19.5129030261
 20
-2.2719016515
 30
0.0
 10
-19.4633378984
 20
-2.2959640246
 30
0.0
 10
-19.4383626481
 20
-2.3103857623
 30
0.0
 11
-19.8370404627
 21
-2.5405328452
 31
0.0
 11
-19.829954567
 21
-2.4543155352
 31
0.0
 11
-19.8083879407
 21
-2.3795064524
 31
0.0
 11
-19.7724096538
 21
-2.3196892347
 31
0.0
 11
-19.7229487949
 21
-2.2778010819
 31
0.0
 11
-19.6619434868
 21
-2.255906928
 31
0.0
 11
-19.5921502684
 21
-2.2546540348
 31
0.0
 11
-19.5165766043
 21
-2.2733949006
 31
0.0
 11
-19.4383626481
 21
-2.3103857623
 31
0.0
  0
SPLINE
  5
441
100
AcDbEntity
  8
RACCORDO
100
AcDbSpline
 62
7
  6
CONTINUOUS
 70
0
 71
3
 72
11
 73
7
 74
5
 42
0.0000001
 43
0.0000001
 44
0.0000000001
 12
-0.1363190161
 22
0.0787088914
 32
0.0
 13
-0.0000316866
 23
0.1574101736
 33
0.0
 40
0.0
 40
0.0
 40
0.0
 40
0.0
 40
0.2895817376
 40
0.5491318165
 40
0.7822802582
 40
1.0
 40
1.0
 40
1.0
 40
1.0
 10
13.2963027367
 20
-21.6713099503
 30
0.0
 10
13.2831442376
 20
-21.6637123978
 30
0.0
 10
13.2592651951
 20
-21.6472529438
 30
0.0
 10
13.2307121205
 20
-21.6172603645
 30
0.0
 10
13.2126488367
 20
-21.5840680156
 30
0.0
 10
13.2084395502
 20
-21.5602513396
 30
0.0
 10
13.2084372506
 20
-21.5488275721
 30
0.0
 11
13.2963027367
 21
-21.6713099503
 31
0.0
 11
13.2590259839
 21
-21.6450751672
 31
0.0
 11
13.231262541
 21
-21.6151020197
 31
0.0
 11
13.2141964445
 21
-21.5826115017
 31
0.0
 11
13.2084372506
 21
-21.5488275721
 31
0.0
  0
SPLINE
  5
442
100
AcDbEntity
  8
RACCORDO
100
AcDbSpline
 62
7
  6
CONTINUOUS
 70
0
 71
3
 72
11
 73
7
 74
5
 42
0.0000001
 43
0.0000001
 44
0.0000000001
 12
-0.0000000517
 22
-0.1573888098
 32
0.0
 13
0.1362846782
 23
-0.0787256244
 33
0.0
 40
0.0
 40
0.0
 40
0.0
 40
0.0
 40
0.2895872683
 40
0.5491386409
 40
0.7822847649
 40
1.0
 40
1.0
 40
1.0
 40
1.0
 10
12.8976249221
 20
-20.9807797202
 30
0.0
 10
12.8976249171
 20
-20.9959723187
 30
0.0
 10
12.8999384392
 20
-21.0248783955
 30
0.0
 10
12.9116330556
 20
-21.0645976817
 30
0.0
 10
12.9313426176
 20
-21.0968333495
 30
0.0
 10
12.9498605084
 20
-21.1123853602
 30
0.0
 10
12.9597509253
 20
-21.1180986161
 30
0.0
 11
12.8976249221
 21
-20.9807797202
 31
0.0
 11
12.9017045576
 21
-21.0261745659
 31
0.0
 11
12.9137771992
 21
-21.0652003673
 31
0.0
 11
12.9333776427
 21
-21.0962215797
 31
0.0
 11
12.9597509253
 21
-21.1180986161
 31
0.0
  0
SPLINE
  5
443
100
AcDbEntity
  8
RACCORDO
100
AcDbSpline
 62
7
  6
CONTINUOUS
 70
0
 71
3
 72
11
 73
7
 74
5
 42
0.0000001
 43
0.0000001
 44
0.0000000001
 12
0.0
 22
-0.157342478
 32
0.0
 13
0.1362077173
 23
-0.0787661927
 33
0.0
 40
0.0
 40
0.0
 40
0.0
 40
0.0
 40
0.2895781872
 40
0.5491322113
 40
0.7822857584
 40
1.0
 40
1.0
 40
1.0
 40
1.0
 10
-19.4383626481
 20
-2.3103857623
 30
0.0
 10
-19.4383626481
 20
-2.3255734121
 30
0.0
 10
-19.4360505388
 20
-2.3544705549
 30
0.0
 10
-19.4243638653
 20
-2.3941791844
 30
0.0
 10
-19.4046679374
 20
-2.4264100556
 30
0.0
 10
-19.3861620007
 20
-2.4419650365
 30
0.0
 10
-19.3762772141
 20
-2.4476812105
 30
0.0
 11
-19.4383626481
 21
-2.3103857623
 31
0.0
 11
-19.4342857973
 21
-2.3557659524
 31
0.0
 11
-19.4222213433
 21
-2.3947821353
 31
0.0
 11
-19.4026338118
 21
-2.4258001086
 31
0.0
 11
-19.3762772141
 21
-2.4476812105
 31
0.0
  0
SPLINE
  5
444
100
AcDbEntity
  8
RACCORDO
100
AcDbSpline
 62
7
  6
CONTINUOUS
 70
0
 71
3
 72
10
 73
6
 74
4
 42
0.0000001
 43
0.0000001
 44
0.0000000001
 12
0.3008557635
 22
-0.1737074046
 32
0.0
 13
0.335457116
 23
0.0903159797
 33
0.0
 40
0.0
 40
0.0
 40
0.0
 40
0.0
 40
0.2300845876
 40
0.483607702
 40
1.0
 40
1.0
 40
1.0
 40
1.0
 10
-19.8370404627
 20
-2.5405328452
 30
0.0
 10
-19.8139663713
 20
-2.5538553107
 30
0.0
 10
-19.761504519
 20
-2.5751967187
 30
0.0
 10
-19.6474142106
 20
-2.5967832308
 30
0.0
 10
-19.5558654402
 20
-2.5905838533
 30
0.0
 10
-19.4981229498
 20
-2.5750376945
 30
0.0
 11
-19.8370404627
 21
-2.5405328452
 31
0.0
 11
-19.7634330131
 21
-2.5716946713
 31
0.0
 11
-19.6770028829
 21
-2.5886345219
 31
0.0
 11
-19.4981229498
 21
-2.5750376945
 31
0.0
  0
SPLINE
  5
445
100
AcDbEntity
  8
RACCORDO
100
AcDbSpline
 62
7
  6
CONTINUOUS
 70
0
 71
3
 72
10
 73
6
 74
4
 42
0.0000001
 43
0.0000001
 44
0.0000000001
 12
0.3008547198
 22
-0.1737097446
 32
0.0
 13
0.3354567303
 23
0.0903184363
 33
0.0
 40
0.0
 40
0.0
 40
0.0
 40
0.0
 40
0.2300849491
 40
0.4836079614
 40
1.0
 40
1.0
 40
1.0
 40
1.0
 10
-19.8370404627
 20
-39.8777122137
 30
0.0
 10
-19.8139664151
 20
-39.8910348796
 30
0.0
 10
-19.7615045931
 20
-39.9123766112
 30
0.0
 10
-19.6474142214
 20
-39.9339633533
 30
0.0
 10
-19.5558653448
 20
-39.9277636367
 30
0.0
 10
-19.4981229498
 20
-39.9122170629
 30
0.0
 11
-19.8370404627
 21
-39.8777122137
 31
0.0
 11
-19.7634330123
 21
-39.9088745171
 31
0.0
 11
-19.6770028817
 21
-39.9258145319
 31
0.0
 11
-19.4981229498
 21
-39.9122170629
 31
0.0
  0
SPLINE
  5
446
100
AcDbEntity
  8
RACCORDO
100
AcDbSpline
 62
7
  6
CONTINUOUS
 70
0
 71
3
 72
11
 73
7
 74
5
 42
0.0000001
 43
0.0000001
 44
0.0000000001
 12
0.0000141053
 22
-0.1574089984
 32
0.0
 13
0.1363179965
 23
-0.078708302
 33
0.0
 40
0.0
 40
0.0
 40
0.0
 40
0.0
 40
0.2177586874
 40
0.4509006419
 40
0.7104563331
 40
1.0
 40
1.0
 40
1.0
 40
1.0
 10
-21.7380305154
 20
-40.9357094351
 30
0.0
 10
-21.7380294916
 20
-40.9471351607
 30
0.0
 10
-21.733834299
 20
-40.9709560524
 30
0.0
 10
-21.7157641217
 20
-41.0041494697
 30
0.0
 10
-21.6872077144
 20
-41.0341339676
 30
0.0
 10
-21.6633324931
 20
-41.0505952987
 30
0.0
 10
-21.6501758223
 20
-41.0581917955
 30
0.0
 11
-21.7380305154
 21
-40.9357094351
 31
0.0
 11
-21.7322810574
 21
-40.9695009813
 31
0.0
 11
-21.7152145446
 21
-41.001989817
 31
0.0
 11
-21.6874467098
 21
-41.0319596835
 31
0.0
 11
-21.6501758223
 21
-41.0581917955
 31
0.0
  0
SPLINE
  5
447
100
AcDbEntity
  8
RACCORDO
100
AcDbSpline
 62
7
  6
CONTINUOUS
 70
0
 71
3
 72
10
 73
6
 74
4
 42
0.0000001
 43
0.0000001
 44
0.0000000001
 12
0.0000001141
 22
0.3473993299
 32
0.0
 13
0.2459370819
 23
0.2453594223
 33
0.0
 40
0.0
 40
0.0
 40
0.0
 40
0.0
 40
0.2300791698
 40
0.4836010627
 40
1.0
 40
1.0
 40
1.0
 40
1.0
 10
-19.4383626481
 20
-40.5682424437
 30
0.0
 10
-19.4383626393
 20
-40.5415993273
 30
0.0
 10
-19.4306127899
 20
-40.4854967969
 30
0.0
 10
-19.3922607351
 20
-40.3759000439
 30
0.0
 10
-19.3411179251
 20
-40.2997166263
 30
0.0
 10
-19.2987840425
 20
-40.257482178
 30
0.0
 11
-19.4383626481
 21
-40.5682424437
 31
0.0
 11
-19.4285445122
 21
-40.4889183925
 31
0.0
 11
-19.3999989786
 21
-40.4055993372
 31
0.0
 11
-19.2987840425
 21
-40.257482178
 31
0.0
  0
SPLINE
  5
448
100
AcDbEntity
  8
RACCORDO
100
AcDbSpline
 62
7
  6
CONTINUOUS
 70
0
 71
3
 72
10
 73
6
 74
4
 42
0.0000001
 43
0.0000001
 44
0.0000000001
 12
-0.0
 22
0.3473993418
 32
0.0
 13
0.2459371687
 23
0.2453593523
 33
0.0
 40
0.0
 40
0.0
 40
0.0
 40
0.0
 40
0.2300791865
 40
0.4836010752
 40
1.0
 40
1.0
 40
1.0
 40
1.0
 10
12.8976249221
 20
-59.2386364017
 30
0.0
 10
12.8976249221
 20
-59.2119932823
 30
0.0
 10
12.9053747583
 20
-59.1558907458
 30
0.0
 10
12.9437268056
 20
-59.0462939852
 30
0.0
 10
12.9948696312
 20
-58.9701105711
 30
0.0
 10
13.0372035277
 20
-58.9278761359
 30
0.0
 11
12.8976249221
 21
-59.2386364017
 31
0.0
 11
12.9074430395
 21
-59.1593123395
 31
0.0
 11
12.9359885669
 21
-59.0759932805
 31
0.0
 11
13.0372035277
 21
-58.9278761359
 31
0.0
  0
SPLINE
  5
449
100
AcDbEntity
  8
RACCORDO
100
AcDbSpline
 62
7
  6
CONTINUOUS
 70
0
 71
3
 72
11
 73
7
 74
5
 42
0.0000001
 43
0.0000001
 44
0.0000000001
 12
-0.1363070506
 22
0.0787020424
 32
0.0
 13
-0.0000536147
 23
0.1573963806
 33
0.0
 40
0.0
 40
0.0
 40
0.0
 40
0.0
 40
0.2895790523
 40
0.5491299326
 40
0.7822805821
 40
1.0
 40
1.0
 40
1.0
 40
1.0
 10
13.2963027367
 20
-59.0084893187
 30
0.0
 10
13.2831455146
 20
-59.0008924978
 30
0.0
 10
13.2592685662
 20
-58.9844347321
 30
0.0
 10
13.2307170574
 20
-58.9544457821
 30
0.0
 10
13.2126529796
 20
-58.9212576625
 30
0.0
 10
13.2084411454
 20
-58.8974436271
 30
0.0
 10
13.2084372544
 20
-58.8860208776
 30
0.0
 11
13.2963027367
 21
-59.0084893187
 31
0.0
 11
13.2590293489
 21
-58.9822574257
 31
0.0
 11
13.2312671671
 21
-58.9522878157
 31
0.0
 11
13.2141999825
 21
-58.9198011078
 31
0.0
 11
13.2084372544
 21
-58.8860208776
 31
0.0
  0
SPLINE
  5
44A
100
AcDbEntity
  8
RACCORDO
100
AcDbSpline
 62
7
  6
CONTINUOUS
 70
0
 71
3
 72
11
 73
7
 74
5
 42
0.0000001
 43
0.0000001
 44
0.0000000001
 12
-0.7171285941
 22
0.4140697132
 32
0.0
 13
0.0000544718
 23
0.8280864356
 33
0.0
 40
0.0
 40
0.0
 40
0.0
 40
0.0
 40
0.2369489663
 40
0.5000027919
 40
0.7630483128
 40
1.0
 40
1.0
 40
1.0
 40
1.0
 10
-19.4383626481
 20
-40.5682424437
 30
0.0
 10
-19.4950036078
 20
-40.5355379802
 30
0.0
 10
-19.6035486068
 20
-40.4469685792
 30
0.0
 10
-19.7302516405
 20
-40.2764109901
 30
0.0
 10
-19.8145804229
 20
-40.0814001694
 30
0.0
 10
-19.8370447651
 20
-39.9431177064
 30
0.0
 10
-19.8370404627
 20
-39.8777122137
 30
0.0
 11
-19.4383626481
 21
-40.5682424437
 31
0.0
 11
-19.5921502729
 21
-40.4463843759
 31
0.0
 11
-19.7229487874
 21
-40.2721941748
 31
0.0
 11
-19.8083879171
 21
-40.0718254231
 31
0.0
 11
-19.8370404627
 21
-39.8777122137
 31
0.0
  0
SPLINE
  5
44B
100
AcDbEntity
  8
RACCORDO
100
AcDbSpline
 62
7
  6
CONTINUOUS
 70
0
 71
3
 72
11
 73
7
 74
5
 42
0.0000001
 43
0.0000001
 44
0.0000000001
 12
0.000014108
 22
-0.157408994
 32
0.0
 13
0.1363179944
 23
-0.0787082969
 33
0.0
 40
0.0
 40
0.0
 40
0.0
 40
0.0
 40
0.2177586882
 40
0.4509006427
 40
0.7104563324
 40
1.0
 40
1.0
 40
1.0
 40
1.0
 10
-21.7380305154
 20
0.8561923572
 30
0.0
 10
-21.7380294914
 20
0.8447666318
 30
0.0
 10
-21.7338342985
 20
0.8209457408
 30
0.0
 10
-21.715764121
 20
0.7877523249
 30
0.0
 10
-21.6872077139
 20
0.7577678284
 30
0.0
 10
-21.663332493
 20
0.7413064983
 30
0.0
 10
-21.6501758223
 20
0.733710002
 30
0.0
 11
-21.7380305154
 21
0.8561923572
 31
0.0
 11
-21.732281057
 21
0.8224008119
 31
0.0
 11
-21.7152145439
 21
0.7899119775
 31
0.0
 11
-21.6874467095
 21
0.7599421125
 31
0.0
 11
-21.6501758223
 21
0.733710002
 31
0.0
  0
SPLINE
  5
44C
100
AcDbEntity
  8
RACCORDO
100
AcDbSpline
 62
7
  6
CONTINUOUS
 70
0
 71
3
 72
13
 73
9
 74
7
 42
0.0000001
 43
0.0000001
 44
0.0000000001
 12
-0.0662090449
 22
0.1972123061
 32
0.0
 13
0.2078764784
 23
-0.0079812929
 33
0.0
 40
0.0
 40
0.0
 40
0.0
 40
0.0
 40
0.279534151
 40
0.5136620017
 40
0.6222252232
 40
0.7348380503
 40
0.8596282997
 40
1.0
 40
1.0
 40
1.0
 40
1.0
 10
-19.4981226884
 20
-2.5750388037
 30
0.0
 10
-19.5042919181
 20
-2.5566629455
 30
0.0
 10
-19.5128078146
 20
-2.5218151969
 30
0.0
 10
-19.5073022757
 20
-2.4768015717
 30
0.0
 10
-19.488211809
 20
-2.4507715032
 30
0.0
 10
-19.4676956334
 20
-2.4374500262
 30
0.0
 10
-19.4421145304
 20
-2.4305193738
 30
0.0
 10
-19.4236172286
 20
-2.4297699556
 30
0.0
 10
-19.4138905704
 20
-2.4301434048
 30
0.0
 11
-19.4981226884
 21
-2.5750388037
 31
0.0
 11
-19.509692597
 21
-2.5180500219
 31
0.0
 11
-19.5008997355
 21
-2.4701447561
 31
0.0
 11
-19.4874558896
 21
-2.4519976715
 31
0.0
 11
-19.4679682993
 21
-2.4389957846
 31
0.0
 11
-19.4430496324
 21
-2.4317166836
 31
0.0
 11
-19.4138905704
 21
-2.4301434048
 31
0.0
  0
SPLINE
  5
44D
100
AcDbEntity
  8
RACCORDO
100
AcDbSpline
 62
7
  6
CONTINUOUS
 70
0
 71
3
 72
11
 73
7
 74
5
 42
0.0000001
 43
0.0000001
 44
0.0000000001
 12
-0.4310685118
 22
0.1088707109
 32
0.0
 13
0.1215914924
 23
0.4276545364
 33
0.0
 40
0.0
 40
0.0
 40
0.0
 40
0.0
 40
0.2417492733
 40
0.5000082522
 40
0.7582667077
 40
1.0
 40
1.0
 40
1.0
 40
1.0
 10
-19.2987936703
 20
-40.2574790164
 30
0.0
 10
-19.3335305034
 20
-40.248705878
 30
0.0
 10
-19.4031065985
 20
-40.2181731262
 30
0.0
 10
-19.4822306232
 20
-40.1332050986
 30
0.0
 10
-19.5161956276
 20
-40.022208351
 30
0.0
 10
-19.5079202817
 20
-39.9466753681
 30
0.0
 10
-19.4981227111
 20
-39.9122159217
 30
0.0
 11
-19.2987936703
 21
-40.2574790164
 31
0.0
 11
-19.3967415711
 21
-40.2132212651
 31
0.0
 11
-19.4745404092
 21
-40.1287720604
 31
0.0
 11
-19.5087526299
 21
-40.0191645884
 31
0.0
 11
-19.4981227111
 21
-39.9122159217
 31
0.0
  0
SPLINE
  5
44E
100
AcDbEntity
  8
RACCORDO
100
AcDbSpline
 62
7
  6
CONTINUOUS
 70
0
 71
3
 72
9
 73
5
 74
3
 42
0.0000001
 43
0.0000001
 44
0.0000000001
 12
-0.0245012758
 22
-0.4136068379
 32
0.0
 13
0.370913549
 23
-0.1846457907
 33
0.0
 40
0.0
 40
0.0
 40
0.0
 40
0.0
 40
0.4999981152
 40
1.0
 40
1.0
 40
1.0
 40
1.0
 10
-18.1209268038
 20
-39.1171095377
 30
0.0
 10
-18.1250103344
 20
-39.1860437509
 30
0.0
 10
-18.0860760431
 20
-39.3270999702
 30
0.0
 10
-17.9834069748
 20
-39.4315729338
 30
0.0
 10
-17.9215878169
 20
-39.4623473482
 30
0.0
 11
-18.1209268038
 21
-39.1171095377
 31
0.0
 11
-18.0701426157
 21
-39.3179536935
 31
0.0
 11
-17.9215878169
 21
-39.4623473482
 31
0.0
  0
SPLINE
  5
44F
100
AcDbEntity
  8
RACCORDO
100
AcDbSpline
 62
7
  6
CONTINUOUS
 70
0
 71
3
 72
10
 73
6
 74
4
 42
0.0000001
 43
0.0000001
 44
0.0000000001
 12
0.1828507333
 22
-0.3543641519
 32
0.0
 13
0.2144009064
 23
-0.336215101
 33
0.0
 40
0.0
 40
0.0
 40
0.0
 40
0.0
 40
0.2273651443
 40
0.5000028679
 40
1.0
 40
1.0
 40
1.0
 40
1.0
 10
-17.9858669935
 20
-39.0391027433
 30
0.0
 10
-17.9720090324
 20
-39.0659594288
 30
0.0
 10
-17.9402186341
 20
-39.1243373024
 30
0.0
 10
-17.8748263596
 20
-39.2400509066
 30
0.0
 10
-17.8222613656
 20
-39.3283323296
 30
0.0
 10
-17.7865280862
 20
-39.3843678583
 30
0.0
 11
-17.9858669935
 21
-39.0391027433
 31
0.0
 11
-17.9429097592
 21
-39.1189438218
 31
0.0
 11
-17.8894398168
 21
-39.2136025065
 31
0.0
 11
-17.7865280862
 21
-39.3843678583
 31
0.0
  0
SPLINE
  5
450
100
AcDbEntity
  8
RACCORDO
100
AcDbSpline
 62
7
  6
CONTINUOUS
 70
0
 71
3
 72
9
 73
5
 74
3
 42
0.0000001
 43
0.0000001
 44
0.0000000001
 12
0.007213303
 22
-0.0113899398
 32
0.0
 13
0.0118511902
 23
-0.0064274226
 33
0.0
 40
0.0
 40
0.0
 40
0.0
 40
0.0
 40
0.2343894454
 40
1.0
 40
1.0
 40
1.0
 40
1.0
 10
-17.7865280862
 20
-39.3843678583
 30
0.0
 10
-17.7859645121
 20
-39.3852577522
 30
0.0
 10
-17.7833087229
 20
-39.3888953064
 30
0.0
 10
-17.7796372301
 20
-39.391738403
 30
0.0
 10
-17.7766127647
 20
-39.3933787039
 30
0.0
 11
-17.7865280862
 21
-39.3843678583
 31
0.0
 11
-17.7846637331
 21
-39.3869193146
 31
0.0
 11
-17.7766127647
 21
-39.3933787039
 31
0.0
  0
SPLINE
  5
451
100
AcDbEntity
  8
RACCORDO
100
AcDbSpline
 62
7
  6
CONTINUOUS
 70
0
 71
3
 72
9
 73
5
 74
3
 42
0.0000001
 43
0.0000001
 44
0.0000000001
 12
-0.0003312848
 22
-0.0134726882
 32
0.0
 13
0.0061959692
 23
-0.0119680008
 33
0.0
 40
0.0
 40
0.0
 40
0.0
 40
0.0
 40
0.2685734322
 40
1.0
 40
1.0
 40
1.0
 40
1.0
 10
-17.9887124903
 20
-39.0260112032
 30
0.0
 10
-17.9887421484
 20
-39.0272173386
 30
0.0
 10
-17.9886011642
 20
-39.0317082208
 30
0.0
 10
-17.9873776257
 20
-39.0361848387
 30
0.0
 10
-17.9858669935
 20
-39.0391027433
 30
0.0
 11
-17.9887124903
 21
-39.0260112032
 31
0.0
 11
-17.9885883327
 21
-39.029628573
 31
0.0
 11
-17.9858669935
 21
-39.0391027433
 31
0.0
  0
SPLINE
  5
452
100
AcDbEntity
  8
RACCORDO
100
AcDbSpline
 62
7
  6
CONTINUOUS
 70
0
 71
3
 72
11
 73
7
 74
5
 42
0.0000001
 43
0.0000001
 44
0.0000000001
 12
-0.0068243301
 22
1.024860587
 32
0.0
 13
-0.8841392067
 23
0.5183470434
 33
0.0
 40
0.0
 40
0.0
 40
0.0
 40
0.0
 40
0.2370060342
 40
0.4999938366
 40
0.7629849612
 40
1.0
 40
1.0
 40
1.0
 40
1.0
 10
15.5299676418
 20
-20.492949326
 30
0.0
 10
15.529428506
 20
-20.4119832782
 30
0.0
 10
15.4981521652
 20
-20.2412833847
 30
0.0
 10
15.3917884631
 20
-20.0012727766
 30
0.0
 10
15.2371125434
 20
-19.7891525777
 30
0.0
 10
15.1049197115
 20
-19.676710506
 30
0.0
 10
15.035068282
 20
-19.6357584911
 30
0.0
 11
15.5299676418
 21
-20.492949326
 31
0.0
 11
15.4911435512
 21
-20.2531685636
 31
0.0
 11
15.3834630979
 21
-20.006080895
 31
0.0
 11
15.223317361
 21
-19.789280124
 31
0.0
 11
15.035068282
 21
-19.6357584911
 31
0.0
  0
SPLINE
  5
453
100
AcDbEntity
  8
RACCORDO
100
AcDbSpline
 62
7
  6
CONTINUOUS
 70
0
 71
3
 72
11
 73
7
 74
5
 42
0.0000001
 43
0.0000001
 44
0.0000000001
 12
-0.3262172695
 22
0.1854893057
 32
0.0
 13
-0.3193340888
 23
-0.1971033464
 33
0.0
 40
0.0
 40
0.0
 40
0.0
 40
0.0
 40
0.2905184574
 40
0.5498765043
 40
0.7826053532
 40
1.0
 40
1.0
 40
1.0
 40
1.0
 10
-21.1589463682
 20
1.2622119504
 30
0.0
 10
-21.1905370809
 20
1.2801746394
 30
0.0
 10
-21.2532863693
 20
1.3094694794
 30
0.0
 10
-21.349580442
 20
1.3315790141
 30
0.0
 10
-21.4395290587
 20
1.3277863513
 30
0.0
 10
-21.4931749819
 20
1.3067319514
 30
0.0
 10
-21.5163154891
 20
1.2924488806
 30
0.0
 11
-21.1589463682
 21
1.2622119504
 31
0.0
 11
-21.2582125687
 21
1.3072885889
 31
0.0
 11
-21.3533679242
 21
1.3277387428
 31
0.0
 11
-21.4405586056
 21
1.3227192827
 31
0.0
 11
-21.5163154891
 21
1.2924488806
 31
0.0
  0
SPLINE
  5
454
100
AcDbEntity
  8
RACCORDO
100
AcDbSpline
 62
7
  6
CONTINUOUS
 70
0
 71
3
 72
11
 73
7
 74
5
 42
0.0000001
 43
0.0000001
 44
0.0000000001
 12
-0.3738480846
 22
-0.223389988
 32
0.0
 13
0.000000011
 23
-0.4355060012
 33
0.0
 40
0.0
 40
0.0
 40
0.0
 40
0.0
 40
0.2383260036
 40
0.5010975909
 40
0.7632734208
 40
1.0
 40
1.0
 40
1.0
 40
1.0
 10
15.035068281
 20
-19.6357584905
 30
0.0
 10
15.005369041
 20
-19.6535050382
 30
0.0
 10
14.9493145647
 20
-19.7016302164
 30
0.0
 10
14.8839615595
 20
-19.7921026732
 30
0.0
 10
14.8393799306
 20
-19.894165256
 30
0.0
 10
14.8266384613
 20
-19.9666417522
 30
0.0
 10
14.8266384621
 20
-20.0010070342
 30
0.0
 11
15.035068281
 21
-19.6357584905
 31
0.0
 11
14.9550235845
 21
-19.701832009
 31
0.0
 11
14.8874739478
 21
-19.7942075496
 31
0.0
 11
14.8424358386
 21
-19.8991286933
 31
0.0
 11
14.8266384621
 21
-20.0010070342
 31
0.0
  0
SPLINE
  5
455
100
AcDbEntity
  8
RACCORDO
100
AcDbSpline
 62
7
  6
CONTINUOUS
 70
0
 71
3
 72
11
 73
7
 74
5
 42
0.0000001
 43
0.0000001
 44
0.0000000001
 12
-0.3738480757
 22
-0.2233899999
 32
0.0
 13
0.0000000017
 23
-0.4355059997
 33
0.0
 40
0.0
 40
0.0
 40
0.0
 40
0.0
 40
0.2383260021
 40
0.5010975899
 40
0.76327342
 40
1.0
 40
1.0
 40
1.0
 40
1.0
 10
-21.1589463668
 20
1.2622119496
 30
0.0
 10
-21.1886456059
 20
1.2444654011
 30
0.0
 10
-21.244700081
 20
1.1963402224
 30
0.0
 10
-21.3100530871
 20
1.105867767
 30
0.0
 10
-21.3546347174
 20
1.003805185
 30
0.0
 10
-21.3673761882
 20
0.9313286893
 30
0.0
 10
-21.3673761881
 20
0.8969634073
 30
0.0
 11
-21.1589463668
 21
1.2622119496
 31
0.0
 11
-21.2389910615
 21
1.1961384303
 31
0.0
 11
-21.3065406989
 21
1.1037628906
 31
0.0
 11
-21.3515788096
 21
0.9988417478
 31
0.0
 11
-21.3673761881
 21
0.8969634073
 31
0.0
  0
SPLINE
  5
456
100
AcDbEntity
  8
RACCORDO
100
AcDbSpline
 62
7
  6
CONTINUOUS
 70
0
 71
3
 72
11
 73
7
 74
5
 42
0.0000001
 43
0.0000001
 44
0.0000000001
 12
-0.380376472
 22
-0.21208902
 32
0.0
 13
-0.3771557076
 23
0.2177649767
 33
0.0
 40
0.0
 40
0.0
 40
0.0
 40
0.0
 40
0.2383228673
 40
0.5010914229
 40
0.763267564
 40
1.0
 40
1.0
 40
1.0
 40
1.0
 10
15.5299676418
 20
-20.4929493276
 30
0.0
 10
15.4997501713
 20
-20.5097978821
 30
0.0
 10
15.430046374
 20
-20.5342824307
 30
0.0
 10
15.3190184663
 20
-20.5456446002
 30
0.0
 10
15.2083376413
 20
-20.5332206763
 30
0.0
 10
15.1391997594
 20
-20.5080143795
 30
0.0
 10
15.1094380963
 20
-20.4908303684
 30
0.0
 11
15.5299676418
 21
-20.4929493276
 31
0.0
 11
15.4327259728
 21
-20.5292368132
 31
0.0
 11
15.3189522769
 21
-20.5415499331
 31
0.0
 11
15.2055680956
 21
-20.5280922082
 31
0.0
 11
15.1094380963
 21
-20.4908303684
 31
0.0
  0
SPLINE
  5
457
100
AcDbEntity
  8
RACCORDO
100
AcDbSpline
 62
7
  6
CONTINUOUS
 70
0
 71
3
 72
11
 73
7
 74
5
 42
0.0000001
 43
0.0000001
 44
0.0000000001
 12
-0.3803764778
 22
-0.2120890063
 32
0.0
 13
-0.3771557109
 23
0.2177649678
 33
0.0
 40
0.0
 40
0.0
 40
0.0
 40
0.0
 40
0.2383228673
 40
0.5010914248
 40
0.7632675667
 40
1.0
 40
1.0
 40
1.0
 40
1.0
 10
15.5299676418
 20
-62.2848511224
 30
0.0
 10
15.4997501708
 20
-62.3016996758
 30
0.0
 10
15.4300463733
 20
-62.3261842232
 30
0.0
 10
15.3190184659
 20
-62.3375463939
 30
0.0
 10
15.2083376411
 20
-62.3251224714
 30
0.0
 10
15.1391997594
 20
-62.2999161762
 30
0.0
 10
15.1094380963
 20
-62.2827321659
 30
0.0
 11
15.5299676418
 21
-62.2848511224
 31
0.0
 11
15.4327259725
 21
-62.3211386061
 31
0.0
 11
15.3189522763
 21
-62.3334517268
 31
0.0
 11
15.2055680949
 21
-62.3199940034
 31
0.0
 11
15.1094380963
 21
-62.2827321659
 31
0.0
  0
SPLINE
  5
458
100
AcDbEntity
  8
RACCORDO
100
AcDbSpline
 62
7
  6
CONTINUOUS
 70
0
 71
3
 72
9
 73
5
 74
3
 42
0.0000001
 43
0.0000001
 44
0.0000000001
 12
0.0000527323
 22
-0.0373502916
 32
0.0
 13
0.0077640379
 23
-0.0365344601
 33
0.0
 40
0.0
 40
0.0
 40
0.0
 40
0.0
 40
0.2547387322
 40
1.0
 40
1.0
 40
1.0
 40
1.0
 10
-18.1247325446
 20
-39.0799876893
 30
0.0
 10
-18.124728067
 20
-39.0831592113
 30
0.0
 10
-18.1243742204
 20
-39.0956047256
 30
0.0
 10
-18.1228516187
 20
-39.1080313611
 30
0.0
 10
-18.1209228731
 20
-39.1171072671
 30
0.0
 11
-18.1247325446
 21
-39.0799876893
 31
0.0
 11
-18.1244719475
 21
-39.0894986953
 31
0.0
 11
-18.1209228731
 21
-39.1171072671
 31
0.0
  0
SPLINE
  5
459
100
AcDbEntity
  8
RACCORDO
100
AcDbSpline
 62
7
  6
CONTINUOUS
 70
0
 71
3
 72
11
 73
7
 74
5
 42
0.0000001
 43
0.0000001
 44
0.0000000001
 12
-0.1362924929
 22
0.0787097748
 32
0.0
 13
-0.0000000006
 23
0.1573876497
 33
0.0
 40
0.0
 40
0.0
 40
0.0
 40
0.0
 40
0.2177541405
 40
0.4508937694
 40
0.7104507771
 40
1.0
 40
1.0
 40
1.0
 40
1.0
 10
14.8887698696
 20
-62.5832951257
 30
0.0
 10
14.878877118
 20
-62.5775819992
 30
0.0
 10
14.8603485312
 20
-62.5620400817
 30
0.0
 10
14.8406414907
 20
-62.5297979087
 30
0.0
 10
14.8289555289
 20
-62.4900797734
 30
0.0
 10
14.8266384622
 20
-62.4611760618
 30
0.0
 10
14.8266384621
 20
-62.4459855713
 30
0.0
 11
14.8887698696
 21
-62.5832951257
 31
0.0
 11
14.8623851249
 21
-62.5614227145
 31
0.0
 11
14.8427863447
 21
-62.5304019803
 31
0.0
 11
14.830718731
 21
-62.4913740107
 31
0.0
 11
14.8266384621
 21
-62.4459855713
 31
0.0
  0
SPLINE
  5
45A
100
AcDbEntity
  8
RACCORDO
100
AcDbSpline
 62
7
  6
CONTINUOUS
 70
0
 71
3
 72
11
 73
7
 74
5
 42
0.0000001
 43
0.0000001
 44
0.0000000001
 12
-0.1362924929
 22
0.0787097779
 32
0.0
 13
-0.000000004
 23
0.1573876512
 33
0.0
 40
0.0
 40
0.0
 40
0.0
 40
0.0
 40
0.2177541423
 40
0.4508937728
 40
0.710450779
 40
1.0
 40
1.0
 40
1.0
 40
1.0
 10
-21.3052447786
 20
-41.6853246854
 30
0.0
 10
-21.3151375302
 20
-41.6796115586
 30
0.0
 10
-21.3336661172
 20
-41.6640696407
 30
0.0
 10
-21.353373158
 20
-41.6318274673
 30
0.0
 10
-21.3650591206
 20
-41.592109332
 30
0.0
 10
-21.3673761877
 20
-41.5632056204
 30
0.0
 10
-21.3673761881
 20
-41.5480151298
 30
0.0
 11
-21.3052447786
 21
-41.6853246854
 31
0.0
 11
-21.3316295236
 21
-41.6634522735
 31
0.0
 11
-21.3512283041
 21
-41.6324315388
 31
0.0
 11
-21.3632959184
 21
-41.5934035693
 31
0.0
 11
-21.3673761881
 21
-41.5480151298
 31
0.0
  0
SPLINE
  5
45B
100
AcDbEntity
  8
RACCORDO
100
AcDbSpline
 62
7
  6
CONTINUOUS
 70
0
 71
3
 72
15
 73
11
 74
9
 42
0.0000001
 43
0.0000001
 44
0.0000000001
 12
0.0000290007
 22
0.4170681701
 32
0.0
 13
0.3612088352
 23
-0.2085042848
 33
0.0
 40
0.0
 40
0.0
 40
0.0
 40
0.0
 40
0.145084411
 40
0.2749838777
 40
0.3918358314
 40
0.5009156004
 40
0.6098397432
 40
0.7262475406
 40
0.855533188
 40
1.0
 40
1.0
 40
1.0
 40
1.0
 10
-21.6501758223
 20
0.733710002
 30
0.0
 10
-21.6501744198
 20
0.7538800319
 30
0.0
 10
-21.6471401191
 20
0.7922406597
 30
0.0
 10
-21.6316877105
 20
0.8449658696
 30
0.0
 10
-21.6056610604
 20
0.8878564184
 30
0.0
 10
-21.5695347867
 20
0.9186230922
 30
0.0
 10
-21.5251101231
 20
0.9351490217
 30
0.0
 10
-21.4751221096
 20
0.9368039694
 30
0.0
 10
-21.4218528097
 20
0.924401807
 30
0.0
 10
-21.3870537537
 20
0.9083224267
 30
0.0
 10
-21.3696595241
 20
0.8982817769
 30
0.0
 11
-21.6501758223
 21
0.733710002
 31
0.0
 11
-21.6447984844
 21
0.793980685
 31
0.0
 11
-21.6288681249
 21
0.845762571
 31
0.0
 11
-21.602992867
 21
0.8870614054
 31
0.0
 11
-21.5681558087
 21
0.9163198417
 31
0.0
 11
-21.5256767949
 21
0.9324229042
 31
0.0
 11
-21.4771818127
 21
0.9347333049
 31
0.0
 11
-21.4245002702
 21
0.9232388885
 31
0.0
 11
-21.3696595241
 21
0.8982817769
 31
0.0
  0
SPLINE
  5
45C
100
AcDbEntity
  8
RACCORDO
100
AcDbSpline
 62
7
  6
CONTINUOUS
 70
0
 71
3
 72
12
 73
8
 74
6
 42
0.0000001
 43
0.0000001
 44
0.0000000001
 12
0.505725355
 22
-0.2920463641
 32
0.0
 13
0.0000644726
 23
-0.5839941861
 33
0.0
 40
0.0
 40
0.0
 40
0.0
 40
0.0
 40
0.2368422947
 40
0.4991924762
 40
0.7618019237
 40
0.8853942362
 40
1.0
 40
1.0
 40
1.0
 40
1.0
 10
14.8266384621
 20
-20.0010070342
 30
0.0
 10
14.86656418
 20
-20.0240633445
 30
0.0
 10
14.9421867346
 20
-20.0875994226
 30
0.0
 10
15.0305711704
 20
-20.2078884812
 30
0.0
 10
15.0823752879
 20
-20.3244410608
 30
0.0
 10
15.1048810626
 20
-20.4194938735
 30
0.0
 10
15.1094356333
 20
-20.4658841804
 30
0.0
 10
15.1094380963
 20
-20.4881938803
 30
0.0
 11
14.8266384621
 21
-20.0010070342
 31
0.0
 11
14.9343368373
 21
-20.0877939429
 31
0.0
 11
15.0258022863
 21
-20.2107072315
 31
0.0
 11
15.0872407215
 21
-20.3512253507
 31
0.0
 11
15.1036292616
 21
-20.4215173335
 31
0.0
 11
15.1094380963
 21
-20.4881938803
 31
0.0
  0
SPLINE
  5
45D
100
AcDbEntity
  8
RACCORDO
100
AcDbSpline
 62
7
  6
CONTINUOUS
 70
0
 71
3
 72
15
 73
11
 74
9
 42
0.0000001
 43
0.0000001
 44
0.0000000001
 12
-0.0000290007
 22
-0.4170681613
 32
0.0
 13
-0.3612088275
 23
0.2085042803
 33
0.0
 40
0.0
 40
0.0
 40
0.0
 40
0.0
 40
0.1450844117
 40
0.2749838793
 40
0.3918358339
 40
0.5009156036
 40
0.6098397465
 40
0.7262475433
 40
0.8555331895
 40
1.0
 40
1.0
 40
1.0
 40
1.0
 10
15.1094380963
 20
-62.2827321659
 30
0.0
 10
15.1094366938
 20
-62.3029021956
 30
0.0
 10
15.1064023932
 20
-62.3412628227
 30
0.0
 10
15.0909499852
 20
-62.3939880319
 30
0.0
 10
15.064923336
 20
-62.4368785803
 30
0.0
 10
15.0287970635
 20
-62.4676452543
 30
0.0
 10
14.9843724013
 20
-62.4841711848
 30
0.0
 10
14.9343843891
 20
-62.4858261338
 30
0.0
 10
14.8811150905
 20
-62.4734239733
 30
0.0
 10
14.8463160349
 20
-62.4573445948
 30
0.0
 10
14.8289218059
 20
-62.4473039453
 30
0.0
 11
15.1094380963
 21
-62.2827321659
 31
0.0
 11
15.1040607586
 21
-62.3430028479
 31
0.0
 11
15.0881303997
 21
-62.3947847333
 31
0.0
 11
15.0622551426
 21
-62.4360835675
 31
0.0
 11
15.0274180855
 21
-62.465342004
 31
0.0
 11
14.984939073
 21
-62.4814450673
 31
0.0
 11
14.9364440921
 21
-62.4837554693
 31
0.0
 11
14.8837625508
 21
-62.4722610548
 31
0.0
 11
14.8289218059
 21
-62.4473039453
 31
0.0
  0
SPLINE
  5
45E
100
AcDbEntity
  8
RACCORDO
100
AcDbSpline
 62
7
  6
CONTINUOUS
 70
0
 71
3
 72
12
 73
8
 74
6
 42
0.0000001
 43
0.0000001
 44
0.0000000001
 12
-0.5057253573
 22
0.2920463654
 32
0.0
 13
-0.0000644726
 23
0.5839941887
 33
0.0
 40
0.0
 40
0.0
 40
0.0
 40
0.0
 40
0.2368422949
 40
0.4991924767
 40
0.7618019242
 40
0.8853942365
 40
1.0
 40
1.0
 40
1.0
 40
1.0
 10
-21.3673761881
 20
-41.5480151298
 30
0.0
 10
-21.4073019062
 20
-41.5249588193
 30
0.0
 10
-21.4829244611
 20
-41.4614227408
 30
0.0
 10
-21.5713088972
 20
-41.3411336814
 30
0.0
 10
-21.6231130146
 20
-41.2245811011
 30
0.0
 10
-21.645618789
 20
-41.129528288
 30
0.0
 10
-21.6501733593
 20
-41.083137981
 30
0.0
 10
-21.6501758223
 20
-41.060828281
 30
0.0
 11
-21.3673761881
 21
-41.5480151298
 31
0.0
 11
-21.4750745638
 21
-41.4612282205
 31
0.0
 11
-21.5665400131
 21
-41.338314931
 31
0.0
 11
-21.6279784481
 21
-41.1977968111
 31
0.0
 11
-21.6443669879
 21
-41.1275048279
 31
0.0
 11
-21.6501758223
 21
-41.060828281
 31
0.0
  0
SPLINE
  5
45F
100
AcDbEntity
  8
RACCORDO
100
AcDbSpline
 62
7
  6
CONTINUOUS
 70
0
 71
3
 72
9
 73
5
 74
3
 42
0.0000001
 43
0.0000001
 44
0.0000000001
 12
-0.0290535392
 22
-0.0551073363
 32
0.0
 13
-0.0539576766
 23
-0.0311367274
 33
0.0
 40
0.0
 40
0.0
 40
0.0
 40
0.0
 40
0.277017043
 40
1.0
 40
1.0
 40
1.0
 40
1.0
 10
13.204820371
 20
-58.927377174
 30
0.0
 10
13.2021375958
 20
-58.9324657311
 30
0.0
 10
13.1916567954
 20
-58.9503157684
 30
0.0
 10
13.1769017476
 20
-58.9662971789
 30
0.0
 10
13.1638982541
 20
-58.9738009533
 30
0.0
 11
13.204820371
 21
-58.927377174
 31
0.0
 11
13.196002876
 21
-58.9422118647
 31
0.0
 11
13.1638982541
 21
-58.9738009533
 31
0.0
  0
SPLINE
  5
460
100
AcDbEntity
  8
RACCORDO
100
AcDbSpline
 62
7
  6
CONTINUOUS
 70
0
 71
3
 72
11
 73
7
 74
5
 42
0.0000001
 43
0.0000001
 44
0.0000000001
 12
-0.1261722059
 22
-0.072808724
 32
0.0
 13
-0.0964136199
 23
0.1092014182
 33
0.0
 40
0.0
 40
0.0
 40
0.0
 40
0.0
 40
0.2220361667
 40
0.4505038999
 40
0.7087907003
 40
1.0
 40
1.0
 40
1.0
 40
1.0
 10
13.1638982541
 20
-58.9738009533
 30
0.0
 10
13.1545599898
 20
-58.9791896766
 30
0.0
 10
13.1324962624
 20
-58.9856895062
 30
0.0
 10
13.0979061877
 20
-58.9777922526
 30
0.0
 10
13.0656675466
 20
-58.9573157556
 30
0.0
 10
13.0465616176
 20
-58.9384755789
 30
0.0
 10
13.03720277
 20
-58.9278754227
 30
0.0
 11
13.1638982541
 21
-58.9738009533
 31
0.0
 11
13.132830308
 21
-58.9827985308
 31
0.0
 11
13.1001508489
 21
-58.9764967867
 31
0.0
 11
13.0678416077
 21
-58.9572152195
 31
0.0
 11
13.03720277
 21
-58.9278754227
 31
0.0
  0
SPLINE
  5
461
100
AcDbEntity
  8
RACCORDO
100
AcDbSpline
 62
7
  6
CONTINUOUS
 70
0
 71
3
 72
9
 73
5
 74
3
 42
0.0000001
 43
0.0000001
 44
0.0000000001
 12
-0.1258022839
 22
-0.0751721723
 32
0.0
 13
-0.1037487076
 23
-0.1035049555
 33
0.0
 40
0.0
 40
0.0
 40
0.0
 40
0.0
 40
0.2375582814
 40
1.0
 40
1.0
 40
1.0
 40
1.0
 10
-17.7766127647
 20
18.5760109484
 30
0.0
 10
-17.7865745561
 20
18.5700583577
 30
0.0
 10
-17.8276029169
 20
18.5434925584
 30
0.0
 10
-17.8649973409
 20
18.5115026516
 30
0.0
 10
-17.8913647885
 20
18.4851971529
 30
0.0
 11
-17.7766127647
 21
18.5760109484
 31
0.0
 11
-17.8058627325
 21
18.5571304027
 31
0.0
 11
-17.8913647885
 21
18.4851971529
 31
0.0
  0
SPLINE
  5
462
100
AcDbEntity
  8
RACCORDO
100
AcDbSpline
 62
7
  6
CONTINUOUS
 70
0
 71
3
 72
9
 73
5
 74
3
 42
0.0000001
 43
0.0000001
 44
0.0000000001
 12
-0.1440896839
 22
-0.0602425744
 32
0.0
 13
-0.1252946641
 23
-0.0932322472
 33
0.0
 40
0.0
 40
0.0
 40
0.0
 40
0.0
 40
0.24092834
 40
1.0
 40
1.0
 40
1.0
 40
1.0
 10
-17.7865280628
 20
18.5850224428
 30
0.0
 10
-17.7980998256
 20
18.580184395
 30
0.0
 10
-17.8454355062
 20
18.5584585693
 30
0.0
 10
-17.8898840186
 20
18.5306290331
 30
0.0
 10
-17.9215865615
 20
18.5070390476
 30
0.0
 11
-17.7865280628
 21
18.5850224428
 31
0.0
 11
-17.8207412496
 21
18.569361362
 31
0.0
 11
-17.9215865615
 21
18.5070390476
 31
0.0
  0
SPLINE
  5
463
100
AcDbEntity
  8
RACCORDO
100
AcDbSpline
 62
7
  6
CONTINUOUS
 70
0
 71
3
 72
9
 73
5
 74
3
 42
0.0000001
 43
0.0000001
 44
0.0000000001
 12
-0.1242085342
 22
-0.0946731593
 32
0.0
 13
-0.1433862242
 23
-0.0618963471
 33
0.0
 40
0.0
 40
0.0
 40
0.0
 40
0.0
 40
0.2409316862
 40
1.0
 40
1.0
 40
1.0
 40
1.0
 10
-17.9858668975
 20
18.9302868581
 30
0.0
 10
-17.9958421547
 20
18.9226836034
 30
0.0
 10
-18.0383227052
 20
18.8925496546
 30
0.0
 10
-18.0846466885
 20
18.8679685355
 30
0.0
 10
-18.1209266683
 20
18.8523073502
 30
0.0
 11
-17.9858668975
 21
18.9302868581
 31
0.0
 11
-18.0165350799
 21
18.9084854883
 31
0.0
 11
-18.1209266683
 21
18.8523073502
 31
0.0
  0
SPLINE
  5
464
100
AcDbEntity
  8
RACCORDO
100
AcDbSpline
 62
7
  6
CONTINUOUS
 70
0
 71
3
 72
9
 73
5
 74
3
 42
0.0000001
 43
0.0000001
 44
0.0000000001
 12
-0.1279979636
 22
-0.0713676488
 32
0.0
 13
-0.1415101585
 23
-0.0381011157
 33
0.0
 40
0.0
 40
0.0
 40
0.0
 40
0.0
 40
0.237558507
 40
1.0
 40
1.0
 40
1.0
 40
1.0
 10
-17.9887124903
 20
18.9433784491
 30
0.0
 10
-17.9988481587
 20
18.9377271184
 30
0.0
 10
-18.0423677152
 20
18.9154765283
 30
0.0
 10
-18.0887681383
 20
18.8990852559
 30
0.0
 10
-18.1247325438
 20
18.8894019654
 30
0.0
 11
-17.9887124903
 21
18.9433784491
 31
0.0
 11
-18.0196876194
 21
18.9274861494
 31
0.0
 11
-18.1247325438
 21
18.8894019654
 31
0.0
  0
SPLINE
  5
465
100
AcDbEntity
  8
RACCORDO
100
AcDbSpline
 62
7
  6
CONTINUOUS
 70
0
 71
3
 72
15
 73
11
 74
9
 42
0.0000001
 43
0.0000001
 44
0.0000000001
 12
0.0000238213
 22
-0.597984879
 32
0.0
 13
-0.5178420862
 23
0.2990409502
 33
0.0
 40
0.0
 40
0.0
 40
0.0
 40
0.0
 40
0.1446786948
 40
0.2748799313
 40
0.3916072275
 40
0.4999943582
 40
0.6083856293
 40
0.725122466
 40
0.8553266085
 40
1.0
 40
1.0
 40
1.0
 40
1.0
 10
13.2963027367
 20
-1.0390996664
 30
0.0
 10
13.2963038856
 20
-1.0679382237
 30
0.0
 10
13.292358245
 20
-1.1228910309
 30
0.0
 10
13.2717082207
 20
-1.1988153297
 30
0.0
 10
13.2357395432
 20
-1.2610358346
 30
0.0
 10
13.1842792153
 20
-1.3054049476
 30
0.0
 10
13.1201157676
 20
-1.3277688213
 30
0.0
 10
13.0482448315
 20
-1.3277885509
 30
0.0
 10
12.9721664449
 20
-1.307716835
 30
0.0
 10
12.9225975791
 20
-1.2836678389
 30
0.0
 10
12.8976249221
 20
-1.2692467494
 30
0.0
 11
13.2963027367
 21
-1.0390996664
 31
0.0
 11
13.2892280199
 21
-1.1253255898
 31
0.0
 11
13.2676681407
 21
-1.2001393419
 31
0.0
 11
13.2316830951
 21
-1.2599496936
 31
0.0
 11
13.1822159772
 21
-1.301828583
 31
0.0
 11
13.1212057974
 21
-1.3237127337
 31
0.0
 11
13.0514100116
 21
-1.3249562887
 31
0.0
 11
12.9758369884
 21
-1.3062235723
 31
0.0
 11
12.8976249221
 21
-1.2692467494
 31
0.0
  0
SPLINE
  5
466
100
AcDbEntity
  8
RACCORDO
100
AcDbSpline
 62
7
  6
CONTINUOUS
 70
0
 71
3
 72
9
 73
5
 74
3
 42
0.0000001
 43
0.0000001
 44
0.0000000001
 12
0.1563813851
 22
-0.090284346
 32
0.0
 13
0.1281480412
 23
-0.1272182387
 33
0.0
 40
0.0
 40
0.0
 40
0.0
 40
0.0
 40
0.2366293495
 40
1.0
 40
1.0
 40
1.0
 40
1.0
 10
12.8976249221
 20
36.9886099321
 30
0.0
 10
12.9099597306
 20
36.9814886234
 30
0.0
 10
12.9609872712
 20
36.9495052962
 30
0.0
 10
13.007523378
 20
36.9105452945
 30
0.0
 10
13.0401315292
 20
36.878173738
 30
0.0
 11
12.8976249221
 21
36.9886099321
 31
0.0
 11
12.9338574672
 21
36.9659615875
 31
0.0
 11
13.0401315292
 21
36.878173738
 31
0.0
  0
SPLINE
  5
467
100
AcDbEntity
  8
RACCORDO
100
AcDbSpline
 62
7
  6
CONTINUOUS
 70
0
 71
3
 72
10
 73
6
 74
4
 42
0.0000001
 43
0.0000001
 44
0.0000000001
 12
0.4592582815
 22
-0.4559260458
 32
0.0
 13
0.0000021875
 23
-0.6471373334
 33
0.0
 40
0.0
 40
0.0
 40
0.0
 40
0.0
 40
0.5173571193
 40
0.7703670028
 40
1.0
 40
1.0
 40
1.0
 40
1.0
 10
13.0401315292
 20
36.878173738
 30
0.0
 10
13.1193317097
 20
36.7995482094
 30
0.0
 10
13.2148350734
 20
36.6572582404
 30
0.0
 10
13.2833513022
 20
36.4519711239
 30
0.0
 10
13.2963025693
 20
36.3476143972
 30
0.0
 10
13.2963027367
 20
36.298079702
 30
0.0
 11
13.0401315292
 21
36.878173738
 31
0.0
 11
13.2283390882
 21
36.6012808061
 31
0.0
 11
13.2794245991
 21
36.4457221847
 31
0.0
 11
13.2963027367
 21
36.298079702
 31
0.0
  0
SPLINE
  5
468
100
AcDbEntity
  8
RACCORDO
100
AcDbSpline
 62
7
  6
CONTINUOUS
 70
0
 71
3
 72
11
 73
7
 74
5
 42
0.0000001
 43
0.0000001
 44
0.0000000001
 12
0.3303340714
 22
0.1779756193
 32
0.0
 13
0.0024728007
 23
0.3752196757
 33
0.0
 40
0.0
 40
0.0
 40
0.0
 40
0.0
 40
0.2174002984
 40
0.4501302195
 40
0.7094857245
 40
1.0
 40
1.0
 40
1.0
 40
1.0
 10
15.3774716782
 20
-4.6400322859
 30
0.0
 10
15.4014099201
 20
-4.6271349683
 30
0.0
 10
15.4464638505
 20
-4.5912081158
 30
0.0
 10
15.4947212896
 20
-4.5152157251
 30
0.0
 10
15.5237213331
 20
-4.4207790881
 30
0.0
 10
15.5297281805
 20
-4.3517970287
 30
0.0
 10
15.5299676418
 20
-4.3154614712
 30
0.0
 11
15.3774716782
 21
-4.6400322859
 31
0.0
 11
15.4415618449
 21
-4.5895657369
 31
0.0
 11
15.4895023963
 21
-4.5165748925
 31
0.0
 11
15.5193700099
 21
-4.4239541478
 31
0.0
 11
15.5299676418
 21
-4.3154614712
 31
0.0
  0
SPLINE
  5
469
100
AcDbEntity
  8
RACCORDO
100
AcDbSpline
 62
7
  6
CONTINUOUS
 70
0
 71
3
 72
15
 73
11
 74
9
 42
0.0000001
 43
0.0000001
 44
0.0000000001
 12
-0.0000387078
 22
0.5979848853
 32
0.0
 13
0.5178497191
 23
-0.2990277463
 33
0.0
 40
0.0
 40
0.0
 40
0.0
 40
0.0
 40
0.1446658674
 40
0.2748627245
 40
0.391594032
 40
0.4999831839
 40
0.6083724348
 40
0.7251052566
 40
0.8553137174
 40
1.0
 40
1.0
 40
1.0
 40
1.0
 10
-19.8370404627
 20
55.4288568071
 30
0.0
 10
-19.8370423293
 20
55.4576928078
 30
0.0
 10
-19.833083315
 20
55.5126421663
 30
0.0
 10
-19.8124235181
 20
55.5885588977
 30
0.0
 10
-19.7764669191
 20
55.6507855212
 30
0.0
 10
-19.7250132313
 20
55.6951642694
 30
0.0
 10
-19.660854752
 20
55.7175385834
 30
0.0
 10
-19.5889831073
 20
55.7175719429
 30
0.0
 10
-19.5129030261
 20
55.6974880008
 30
0.0
 10
-19.4633378984
 20
55.6734256277
 30
0.0
 10
-19.4383626481
 20
55.65900389
 30
0.0
 11
-19.8370404627
 21
55.4288568071
 31
0.0
 11
-19.829954567
 21
55.5150741171
 31
0.0
 11
-19.8083879407
 21
55.5898831999
 31
0.0
 11
-19.7724096538
 21
55.6497004176
 31
0.0
 11
-19.7229487949
 21
55.6915885704
 31
0.0
 11
-19.6619434868
 21
55.7134827243
 31
0.0
 11
-19.5921502684
 21
55.7147356175
 31
0.0
 11
-19.5165766043
 21
55.6959947517
 31
0.0
 11
-19.4383626481
 21
55.65900389
 31
0.0
  0
SPLINE
  5
46A
100
AcDbEntity
  8
RACCORDO
100
AcDbSpline
 62
7
  6
CONTINUOUS
 70
0
 71
3
 72
11
 73
7
 74
5
 42
0.0000001
 43
0.0000001
 44
0.0000000001
 12
-0.1363190161
 22
0.0787088914
 32
0.0
 13
-0.0000316866
 23
0.1574101736
 33
0.0
 40
0.0
 40
0.0
 40
0.0
 40
0.0
 40
0.2895817376
 40
0.5491318165
 40
0.7822802582
 40
1.0
 40
1.0
 40
1.0
 40
1.0
 10
13.2963027367
 20
36.298079702
 30
0.0
 10
13.2831442376
 20
36.3056772545
 30
0.0
 10
13.2592651951
 20
36.3221367085
 30
0.0
 10
13.2307121205
 20
36.3521292878
 30
0.0
 10
13.2126488367
 20
36.3853216367
 30
0.0
 10
13.2084395502
 20
36.4091383127
 30
0.0
 10
13.2084372506
 20
36.4205620802
 30
0.0
 11
13.2963027367
 21
36.298079702
 31
0.0
 11
13.2590259839
 21
36.324314485
 31
0.0
 11
13.231262541
 21
36.3542876326
 31
0.0
 11
13.2141964445
 21
36.3867781506
 31
0.0
 11
13.2084372506
 21
36.4205620802
 31
0.0
  0
SPLINE
  5
46B
100
AcDbEntity
  8
RACCORDO
100
AcDbSpline
 62
7
  6
CONTINUOUS
 70
0
 71
3
 72
11
 73
7
 74
5
 42
0.0000001
 43
0.0000001
 44
0.0000000001
 12
-0.0000000517
 22
-0.1573888098
 32
0.0
 13
0.1362846782
 23
-0.0787256244
 33
0.0
 40
0.0
 40
0.0
 40
0.0
 40
0.0
 40
0.2895872683
 40
0.5491386409
 40
0.7822847649
 40
1.0
 40
1.0
 40
1.0
 40
1.0
 10
12.8976249221
 20
36.9886099321
 30
0.0
 10
12.8976249171
 20
36.9734173336
 30
0.0
 10
12.8999384392
 20
36.9445112568
 30
0.0
 10
12.9116330556
 20
36.9047919706
 30
0.0
 10
12.9313426176
 20
36.8725563028
 30
0.0
 10
12.9498605084
 20
36.8570042921
 30
0.0
 10
12.9597509253
 20
36.8512910362
 30
0.0
 11
12.8976249221
 21
36.9886099321
 31
0.0
 11
12.9017045576
 21
36.9432150864
 31
0.0
 11
12.9137771992
 21
36.904189285
 31
0.0
 11
12.9333776427
 21
36.8731680726
 31
0.0
 11
12.9597509253
 21
36.8512910362
 31
0.0
  0
SPLINE
  5
46C
100
AcDbEntity
  8
RACCORDO
100
AcDbSpline
 62
7
  6
CONTINUOUS
 70
0
 71
3
 72
11
 73
7
 74
5
 42
0.0000001
 43
0.0000001
 44
0.0000000001
 12
0.0
 22
-0.157342478
 32
0.0
 13
0.1362077173
 23
-0.0787661927
 33
0.0
 40
0.0
 40
0.0
 40
0.0
 40
0.0
 40
0.2895781872
 40
0.5491322113
 40
0.7822857584
 40
1.0
 40
1.0
 40
1.0
 40
1.0
 10
-19.4383626481
 20
55.65900389
 30
0.0
 10
-19.4383626481
 20
55.6438162402
 30
0.0
 10
-19.4360505388
 20
55.6149190974
 30
0.0
 10
-19.4243638653
 20
55.5752104679
 30
0.0
 10
-19.4046679374
 20
55.5429795967
 30
0.0
 10
-19.3861620007
 20
55.5274246158
 30
0.0
 10
-19.3762772141
 20
55.5217084418
 30
0.0
 11
-19.4383626481
 21
55.65900389
 31
0.0
 11
-19.4342857973
 21
55.6136236998
 31
0.0
 11
-19.4222213433
 21
55.574607517
 31
0.0
 11
-19.4026338118
 21
55.5435895437
 31
0.0
 11
-19.3762772141
 21
55.5217084418
 31
0.0
  0
SPLINE
  5
46D
100
AcDbEntity
  8
RACCORDO
100
AcDbSpline
 62
7
  6
CONTINUOUS
 70
0
 71
3
 72
10
 73
6
 74
4
 42
0.0000001
 43
0.0000001
 44
0.0000000001
 12
0.3008557635
 22
-0.1737074046
 32
0.0
 13
0.335457116
 23
0.0903159797
 33
0.0
 40
0.0
 40
0.0
 40
0.0
 40
0.0
 40
0.2300845876
 40
0.483607702
 40
1.0
 40
1.0
 40
1.0
 40
1.0
 10
-19.8370404627
 20
55.4288568071
 30
0.0
 10
-19.8139663713
 20
55.4155343415
 30
0.0
 10
-19.761504519
 20
55.3941929335
 30
0.0
 10
-19.6474142106
 20
55.3726064215
 30
0.0
 10
-19.5558654402
 20
55.378805799
 30
0.0
 10
-19.4981229498
 20
55.3943519578
 30
0.0
 11
-19.8370404627
 21
55.4288568071
 31
0.0
 11
-19.7634330131
 21
55.397694981
 31
0.0
 11
-19.6770028829
 21
55.3807551304
 31
0.0
 11
-19.4981229498
 21
55.3943519578
 31
0.0
  0
SPLINE
  5
46E
100
AcDbEntity
  8
RACCORDO
100
AcDbSpline
 62
7
  6
CONTINUOUS
 70
0
 71
3
 72
10
 73
6
 74
4
 42
0.0000001
 43
0.0000001
 44
0.0000000001
 12
0.3008547198
 22
-0.1737097446
 32
0.0
 13
0.3354567303
 23
0.0903184363
 33
0.0
 40
0.0
 40
0.0
 40
0.0
 40
0.0
 40
0.2300849491
 40
0.4836079614
 40
1.0
 40
1.0
 40
1.0
 40
1.0
 10
-19.8370404627
 20
18.0916774386
 30
0.0
 10
-19.8139664151
 20
18.0783547727
 30
0.0
 10
-19.7615045931
 20
18.0570130411
 30
0.0
 10
-19.6474142214
 20
18.035426299
 30
0.0
 10
-19.5558653448
 20
18.0416260155
 30
0.0
 10
-19.4981229498
 20
18.0571725894
 30
0.0
 11
-19.8370404627
 21
18.0916774386
 31
0.0
 11
-19.7634330123
 21
18.0605151352
 31
0.0
 11
-19.6770028817
 21
18.0435751204
 31
0.0
 11
-19.4981229498
 21
18.0571725894
 31
0.0
  0
SPLINE
  5
46F
100
AcDbEntity
  8
RACCORDO
100
AcDbSpline
 62
7
  6
CONTINUOUS
 70
0
 71
3
 72
11
 73
7
 74
5
 42
0.0000001
 43
0.0000001
 44
0.0000000001
 12
0.0000141053
 22
-0.1574089984
 32
0.0
 13
0.1363179965
 23
-0.078708302
 33
0.0
 40
0.0
 40
0.0
 40
0.0
 40
0.0
 40
0.2177586874
 40
0.4509006419
 40
0.7104563331
 40
1.0
 40
1.0
 40
1.0
 40
1.0
 10
-21.7380305154
 20
17.0336802172
 30
0.0
 10
-21.7380294916
 20
17.0222544916
 30
0.0
 10
-21.733834299
 20
16.9984335999
 30
0.0
 10
-21.7157641217
 20
16.9652401826
 30
0.0
 10
-21.6872077144
 20
16.9352556847
 30
0.0
 10
-21.6633324931
 20
16.9187943535
 30
0.0
 10
-21.6501758223
 20
16.9111978568
 30
0.0
 11
-21.7380305154
 21
17.0336802172
 31
0.0
 11
-21.7322810574
 21
16.999888671
 31
0.0
 11
-21.7152145446
 21
16.9673998353
 31
0.0
 11
-21.6874467098
 21
16.9374299688
 31
0.0
 11
-21.6501758223
 21
16.9111978568
 31
0.0
  0
SPLINE
  5
470
100
AcDbEntity
  8
RACCORDO
100
AcDbSpline
 62
7
  6
CONTINUOUS
 70
0
 71
3
 72
10
 73
6
 74
4
 42
0.0000001
 43
0.0000001
 44
0.0000000001
 12
0.0000001141
 22
0.3473993299
 32
0.0
 13
0.2459370819
 23
0.2453594223
 33
0.0
 40
0.0
 40
0.0
 40
0.0
 40
0.0
 40
0.2300791698
 40
0.4836010627
 40
1.0
 40
1.0
 40
1.0
 40
1.0
 10
-19.4383626481
 20
17.4011472085
 30
0.0
 10
-19.4383626393
 20
17.427790325
 30
0.0
 10
-19.4306127899
 20
17.4838928554
 30
0.0
 10
-19.3922607351
 20
17.5934896084
 30
0.0
 10
-19.3411179251
 20
17.669673026
 30
0.0
 10
-19.2987840425
 20
17.7119074743
 30
0.0
 11
-19.4383626481
 21
17.4011472085
 31
0.0
 11
-19.4285445122
 21
17.4804712598
 31
0.0
 11
-19.3999989786
 21
17.5637903151
 31
0.0
 11
-19.2987840425
 21
17.7119074743
 31
0.0
  0
SPLINE
  5
471
100
AcDbEntity
  8
RACCORDO
100
AcDbSpline
 62
7
  6
CONTINUOUS
 70
0
 71
3
 72
10
 73
6
 74
4
 42
0.0000001
 43
0.0000001
 44
0.0000000001
 12
-0.0
 22
0.3473993418
 32
0.0
 13
0.2459371687
 23
0.2453593523
 33
0.0
 40
0.0
 40
0.0
 40
0.0
 40
0.0
 40
0.2300791865
 40
0.4836010752
 40
1.0
 40
1.0
 40
1.0
 40
1.0
 10
12.8976249221
 20
-1.2692467494
 30
0.0
 10
12.8976249221
 20
-1.2426036301
 30
0.0
 10
12.9053747583
 20
-1.1865010935
 30
0.0
 10
12.9437268056
 20
-1.0769043329
 30
0.0
 10
12.9948696312
 20
-1.0007209188
 30
0.0
 10
13.0372035277
 20
-0.9584864836
 30
0.0
 11
12.8976249221
 21
-1.2692467494
 31
0.0
 11
12.9074430395
 21
-1.1899226872
 31
0.0
 11
12.9359885669
 21
-1.1066036282
 31
0.0
 11
13.0372035277
 21
-0.9584864836
 31
0.0
  0
SPLINE
  5
472
100
AcDbEntity
  8
RACCORDO
100
AcDbSpline
 62
7
  6
CONTINUOUS
 70
0
 71
3
 72
11
 73
7
 74
5
 42
0.0000001
 43
0.0000001
 44
0.0000000001
 12
-0.1363070506
 22
0.0787020424
 32
0.0
 13
-0.0000536147
 23
0.1573963806
 33
0.0
 40
0.0
 40
0.0
 40
0.0
 40
0.0
 40
0.2895790523
 40
0.5491299326
 40
0.7822805821
 40
1.0
 40
1.0
 40
1.0
 40
1.0
 10
13.2963027367
 20
-1.0390996664
 30
0.0
 10
13.2831455146
 20
-1.0315028455
 30
0.0
 10
13.2592685662
 20
-1.0150450798
 30
0.0
 10
13.2307170574
 20
-0.9850561298
 30
0.0
 10
13.2126529796
 20
-0.9518680103
 30
0.0
 10
13.2084411454
 20
-0.9280539748
 30
0.0
 10
13.2084372544
 20
-0.9166312253
 30
0.0
 11
13.2963027367
 21
-1.0390996664
 31
0.0
 11
13.2590293489
 21
-1.0128677734
 31
0.0
 11
13.2312671671
 21
-0.9828981634
 31
0.0
 11
13.2141999825
 21
-0.9504114555
 31
0.0
 11
13.2084372544
 21
-0.9166312253
 31
0.0
  0
SPLINE
  5
473
100
AcDbEntity
  8
RACCORDO
100
AcDbSpline
 62
7
  6
CONTINUOUS
 70
0
 71
3
 72
11
 73
7
 74
5
 42
0.0000001
 43
0.0000001
 44
0.0000000001
 12
-0.7171285941
 22
0.4140697132
 32
0.0
 13
0.0000544718
 23
0.8280864356
 33
0.0
 40
0.0
 40
0.0
 40
0.0
 40
0.0
 40
0.2369489663
 40
0.5000027919
 40
0.7630483128
 40
1.0
 40
1.0
 40
1.0
 40
1.0
 10
-19.4383626481
 20
17.4011472085
 30
0.0
 10
-19.4950036078
 20
17.4338516721
 30
0.0
 10
-19.6035486068
 20
17.5224210731
 30
0.0
 10
-19.7302516405
 20
17.6929786622
 30
0.0
 10
-19.8145804229
 20
17.8879894829
 30
0.0
 10
-19.8370447651
 20
18.0262719459
 30
0.0
 10
-19.8370404627
 20
18.0916774386
 30
0.0
 11
-19.4383626481
 21
17.4011472085
 31
0.0
 11
-19.5921502729
 21
17.5230052763
 31
0.0
 11
-19.7229487874
 21
17.6971954775
 31
0.0
 11
-19.8083879171
 21
17.8975642292
 31
0.0
 11
-19.8370404627
 21
18.0916774386
 31
0.0
  0
SPLINE
  5
474
100
AcDbEntity
  8
RACCORDO
100
AcDbSpline
 62
7
  6
CONTINUOUS
 70
0
 71
3
 72
11
 73
7
 74
5
 42
0.0000001
 43
0.0000001
 44
0.0000000001
 12
0.000014108
 22
-0.157408994
 32
0.0
 13
0.1363179944
 23
-0.0787082969
 33
0.0
 40
0.0
 40
0.0
 40
0.0
 40
0.0
 40
0.2177586882
 40
0.4509006427
 40
0.7104563324
 40
1.0
 40
1.0
 40
1.0
 40
1.0
 10
-21.7380305154
 20
58.8255820095
 30
0.0
 10
-21.7380294914
 20
58.8141562841
 30
0.0
 10
-21.7338342985
 20
58.7903353931
 30
0.0
 10
-21.715764121
 20
58.7571419772
 30
0.0
 10
-21.6872077139
 20
58.7271574807
 30
0.0
 10
-21.663332493
 20
58.7106961506
 30
0.0
 10
-21.6501758223
 20
58.7030996543
 30
0.0
 11
-21.7380305154
 21
58.8255820095
 31
0.0
 11
-21.732281057
 21
58.7917904642
 31
0.0
 11
-21.7152145439
 21
58.7593016298
 31
0.0
 11
-21.6874467095
 21
58.7293317648
 31
0.0
 11
-21.6501758223
 21
58.7030996543
 31
0.0
  0
SPLINE
  5
475
100
AcDbEntity
  8
RACCORDO
100
AcDbSpline
 62
7
  6
CONTINUOUS
 70
0
 71
3
 72
13
 73
9
 74
7
 42
0.0000001
 43
0.0000001
 44
0.0000000001
 12
-0.0662090449
 22
0.1972123061
 32
0.0
 13
0.2078764784
 23
-0.0079812929
 33
0.0
 40
0.0
 40
0.0
 40
0.0
 40
0.0
 40
0.279534151
 40
0.5136620017
 40
0.6222252232
 40
0.7348380503
 40
0.8596282997
 40
1.0
 40
1.0
 40
1.0
 40
1.0
 10
-19.4981226884
 20
55.3943508486
 30
0.0
 10
-19.5042919181
 20
55.4127267068
 30
0.0
 10
-19.5128078146
 20
55.4475744554
 30
0.0
 10
-19.5073022757
 20
55.4925880806
 30
0.0
 10
-19.488211809
 20
55.518618149
 30
0.0
 10
-19.4676956334
 20
55.5319396261
 30
0.0
 10
-19.4421145304
 20
55.5388702785
 30
0.0
 10
-19.4236172286
 20
55.5396196967
 30
0.0
 10
-19.4138905704
 20
55.5392462474
 30
0.0
 11
-19.4981226884
 21
55.3943508486
 31
0.0
 11
-19.509692597
 21
55.4513396304
 31
0.0
 11
-19.5008997355
 21
55.4992448962
 31
0.0
 11
-19.4874558896
 21
55.5173919808
 31
0.0
 11
-19.4679682993
 21
55.5303938676
 31
0.0
 11
-19.4430496324
 21
55.5376729687
 31
0.0
 11
-19.4138905704
 21
55.5392462474
 31
0.0
  0
SPLINE
  5
476
100
AcDbEntity
  8
RACCORDO
100
AcDbSpline
 62
7
  6
CONTINUOUS
 70
0
 71
3
 72
11
 73
7
 74
5
 42
0.0000001
 43
0.0000001
 44
0.0000000001
 12
-0.4310685118
 22
0.1088707109
 32
0.0
 13
0.1215914924
 23
0.4276545364
 33
0.0
 40
0.0
 40
0.0
 40
0.0
 40
0.0
 40
0.2417492733
 40
0.5000082522
 40
0.7582667077
 40
1.0
 40
1.0
 40
1.0
 40
1.0
 10
-19.2987936703
 20
17.7119106359
 30
0.0
 10
-19.3335305034
 20
17.7206837743
 30
0.0
 10
-19.4031065985
 20
17.7512165261
 30
0.0
 10
-19.4822306232
 20
17.8361845537
 30
0.0
 10
-19.5161956276
 20
17.9471813013
 30
0.0
 10
-19.5079202817
 20
18.0227142842
 30
0.0
 10
-19.4981227111
 20
18.0571737306
 30
0.0
 11
-19.2987936703
 21
17.7119106359
 31
0.0
 11
-19.3967415711
 21
17.7561683872
 31
0.0
 11
-19.4745404092
 21
17.8406175919
 31
0.0
 11
-19.5087526299
 21
17.9502250639
 31
0.0
 11
-19.4981227111
 21
18.0571737306
 31
0.0
  0
SPLINE
  5
477
100
AcDbEntity
  8
RACCORDO
100
AcDbSpline
 62
7
  6
CONTINUOUS
 70
0
 71
3
 72
9
 73
5
 74
3
 42
0.0000001
 43
0.0000001
 44
0.0000000001
 12
-0.0245012758
 22
-0.4136068379
 32
0.0
 13
0.370913549
 23
-0.1846457907
 33
0.0
 40
0.0
 40
0.0
 40
0.0
 40
0.0
 40
0.4999981152
 40
1.0
 40
1.0
 40
1.0
 40
1.0
 10
-18.1209268038
 20
18.8522801146
 30
0.0
 10
-18.1250103344
 20
18.7833459014
 30
0.0
 10
-18.0860760431
 20
18.6422896821
 30
0.0
 10
-17.9834069748
 20
18.5378167185
 30
0.0
 10
-17.9215878169
 20
18.5070423041
 30
0.0
 11
-18.1209268038
 21
18.8522801146
 31
0.0
 11
-18.0701426157
 21
18.6514359588
 31
0.0
 11
-17.9215878169
 21
18.5070423041
 31
0.0
  0
SPLINE
  5
478
100
AcDbEntity
  8
RACCORDO
100
AcDbSpline
 62
7
  6
CONTINUOUS
 70
0
 71
3
 72
10
 73
6
 74
4
 42
0.0000001
 43
0.0000001
 44
0.0000000001
 12
0.1828507333
 22
-0.3543641519
 32
0.0
 13
0.2144009064
 23
-0.336215101
 33
0.0
 40
0.0
 40
0.0
 40
0.0
 40
0.0
 40
0.2273651443
 40
0.5000028679
 40
1.0
 40
1.0
 40
1.0
 40
1.0
 10
-17.9858669935
 20
18.930286909
 30
0.0
 10
-17.9720090324
 20
18.9034302235
 30
0.0
 10
-17.9402186341
 20
18.8450523499
 30
0.0
 10
-17.8748263596
 20
18.7293387457
 30
0.0
 10
-17.8222613656
 20
18.6410573227
 30
0.0
 10
-17.7865280862
 20
18.5850217939
 30
0.0
 11
-17.9858669935
 21
18.930286909
 31
0.0
 11
-17.9429097592
 21
18.8504458305
 31
0.0
 11
-17.8894398168
 21
18.7557871458
 31
0.0
 11
-17.7865280862
 21
18.5850217939
 31
0.0
  0
SPLINE
  5
479
100
AcDbEntity
  8
RACCORDO
100
AcDbSpline
 62
7
  6
CONTINUOUS
 70
0
 71
3
 72
9
 73
5
 74
3
 42
0.0000001
 43
0.0000001
 44
0.0000000001
 12
0.007213303
 22
-0.0113899398
 32
0.0
 13
0.0118511902
 23
-0.0064274226
 33
0.0
 40
0.0
 40
0.0
 40
0.0
 40
0.0
 40
0.2343894454
 40
1.0
 40
1.0
 40
1.0
 40
1.0
 10
-17.7865280862
 20
18.5850217939
 30
0.0
 10
-17.7859645121
 20
18.5841319001
 30
0.0
 10
-17.7833087229
 20
18.5804943459
 30
0.0
 10
-17.7796372301
 20
18.5776512493
 30
0.0
 10
-17.7766127647
 20
18.5760109484
 30
0.0
 11
-17.7865280862
 21
18.5850217939
 31
0.0
 11
-17.7846637331
 21
18.5824703377
 31
0.0
 11
-17.7766127647
 21
18.5760109484
 31
0.0
  0
SPLINE
  5
47A
100
AcDbEntity
  8
RACCORDO
100
AcDbSpline
 62
7
  6
CONTINUOUS
 70
0
 71
3
 72
9
 73
5
 74
3
 42
0.0000001
 43
0.0000001
 44
0.0000000001
 12
-0.0003312848
 22
-0.0134726882
 32
0.0
 13
0.0061959692
 23
-0.0119680008
 33
0.0
 40
0.0
 40
0.0
 40
0.0
 40
0.0
 40
0.2685734322
 40
1.0
 40
1.0
 40
1.0
 40
1.0
 10
-17.9887124903
 20
18.9433784491
 30
0.0
 10
-17.9887421484
 20
18.9421723137
 30
0.0
 10
-17.9886011642
 20
18.9376814314
 30
0.0
 10
-17.9873776257
 20
18.9332048136
 30
0.0
 10
-17.9858669935
 20
18.930286909
 30
0.0
 11
-17.9887124903
 21
18.9433784491
 31
0.0
 11
-17.9885883327
 21
18.9397610793
 31
0.0
 11
-17.9858669935
 21
18.930286909
 31
0.0
  0
SPLINE
  5
47B
100
AcDbEntity
  8
RACCORDO
100
AcDbSpline
 62
7
  6
CONTINUOUS
 70
0
 71
3
 72
11
 73
7
 74
5
 42
0.0000001
 43
0.0000001
 44
0.0000000001
 12
-0.0068243301
 22
1.024860587
 32
0.0
 13
-0.8841392067
 23
0.5183470434
 33
0.0
 40
0.0
 40
0.0
 40
0.0
 40
0.0
 40
0.2370060342
 40
0.4999938366
 40
0.7629849612
 40
1.0
 40
1.0
 40
1.0
 40
1.0
 10
15.5299676418
 20
37.4764403263
 30
0.0
 10
15.529428506
 20
37.5574063741
 30
0.0
 10
15.4981521652
 20
37.7281062676
 30
0.0
 10
15.3917884631
 20
37.9681168757
 30
0.0
 10
15.2371125434
 20
38.1802370746
 30
0.0
 10
15.1049197115
 20
38.2926791463
 30
0.0
 10
15.035068282
 20
38.3336311612
 30
0.0
 11
15.5299676418
 21
37.4764403263
 31
0.0
 11
15.4911435512
 21
37.7162210887
 31
0.0
 11
15.3834630979
 21
37.9633087572
 31
0.0
 11
15.223317361
 21
38.1801095283
 31
0.0
 11
15.035068282
 21
38.3336311612
 31
0.0
  0
SPLINE
  5
47C
100
AcDbEntity
  8
RACCORDO
100
AcDbSpline
 62
7
  6
CONTINUOUS
 70
0
 71
3
 72
11
 73
7
 74
5
 42
0.0000001
 43
0.0000001
 44
0.0000000001
 12
-0.3262172695
 22
0.1854893057
 32
0.0
 13
-0.3193340888
 23
-0.1971033464
 33
0.0
 40
0.0
 40
0.0
 40
0.0
 40
0.0
 40
0.2905184574
 40
0.5498765043
 40
0.7826053532
 40
1.0
 40
1.0
 40
1.0
 40
1.0
 10
-21.1589463682
 20
59.2316016027
 30
0.0
 10
-21.1905370809
 20
59.2495642917
 30
0.0
 10
-21.2532863693
 20
59.2788591317
 30
0.0
 10
-21.349580442
 20
59.3009686664
 30
0.0
 10
-21.4395290587
 20
59.2971760036
 30
0.0
 10
-21.4931749819
 20
59.2761216037
 30
0.0
 10
-21.5163154891
 20
59.2618385329
 30
0.0
 11
-21.1589463682
 21
59.2316016027
 31
0.0
 11
-21.2582125687
 21
59.2766782412
 31
0.0
 11
-21.3533679242
 21
59.297128395
 31
0.0
 11
-21.4405586056
 21
59.292108935
 31
0.0
 11
-21.5163154891
 21
59.2618385329
 31
0.0
  0
SPLINE
  5
47D
100
AcDbEntity
  8
RACCORDO
100
AcDbSpline
 62
7
  6
CONTINUOUS
 70
0
 71
3
 72
11
 73
7
 74
5
 42
0.0000001
 43
0.0000001
 44
0.0000000001
 12
-0.3738480846
 22
-0.223389988
 32
0.0
 13
0.000000011
 23
-0.4355060012
 33
0.0
 40
0.0
 40
0.0
 40
0.0
 40
0.0
 40
0.2383260036
 40
0.5010975909
 40
0.7632734208
 40
1.0
 40
1.0
 40
1.0
 40
1.0
 10
15.035068281
 20
38.3336311618
 30
0.0
 10
15.005369041
 20
38.3158846141
 30
0.0
 10
14.9493145647
 20
38.2677594359
 30
0.0
 10
14.8839615595
 20
38.1772869791
 30
0.0
 10
14.8393799306
 20
38.0752243962
 30
0.0
 10
14.8266384613
 20
38.0027479001
 30
0.0
 10
14.8266384621
 20
37.9683826181
 30
0.0
 11
15.035068281
 21
38.3336311618
 31
0.0
 11
14.9550235845
 21
38.2675576433
 31
0.0
 11
14.8874739478
 21
38.1751821027
 31
0.0
 11
14.8424358386
 21
38.070260959
 31
0.0
 11
14.8266384621
 21
37.9683826181
 31
0.0
  0
SPLINE
  5
47E
100
AcDbEntity
  8
RACCORDO
100
AcDbSpline
 62
7
  6
CONTINUOUS
 70
0
 71
3
 72
11
 73
7
 74
5
 42
0.0000001
 43
0.0000001
 44
0.0000000001
 12
-0.3738480757
 22
-0.2233899999
 32
0.0
 13
0.0000000017
 23
-0.4355059997
 33
0.0
 40
0.0
 40
0.0
 40
0.0
 40
0.0
 40
0.2383260021
 40
0.5010975899
 40
0.76327342
 40
1.0
 40
1.0
 40
1.0
 40
1.0
 10
-21.1589463668
 20
59.2316016019
 30
0.0
 10
-21.1886456059
 20
59.2138550534
 30
0.0
 10
-21.244700081
 20
59.1657298747
 30
0.0
 10
-21.3100530871
 20
59.0752574193
 30
0.0
 10
-21.3546347174
 20
58.9731948373
 30
0.0
 10
-21.3673761882
 20
58.9007183416
 30
0.0
 10
-21.3673761881
 20
58.8663530596
 30
0.0
 11
-21.1589463668
 21
59.2316016019
 31
0.0
 11
-21.2389910615
 21
59.1655280826
 31
0.0
 11
-21.3065406989
 21
59.0731525429
 31
0.0
 11
-21.3515788096
 21
58.9682314001
 31
0.0
 11
-21.3673761881
 21
58.8663530596
 31
0.0
  0
SPLINE
  5
47F
100
AcDbEntity
  8
RACCORDO
100
AcDbSpline
 62
7
  6
CONTINUOUS
 70
0
 71
3
 72
11
 73
7
 74
5
 42
0.0000001
 43
0.0000001
 44
0.0000000001
 12
-0.380376472
 22
-0.21208902
 32
0.0
 13
-0.3771557076
 23
0.2177649767
 33
0.0
 40
0.0
 40
0.0
 40
0.0
 40
0.0
 40
0.2383228673
 40
0.5010914229
 40
0.763267564
 40
1.0
 40
1.0
 40
1.0
 40
1.0
 10
15.5299676418
 20
37.4764403247
 30
0.0
 10
15.4997501713
 20
37.4595917702
 30
0.0
 10
15.430046374
 20
37.4351072216
 30
0.0
 10
15.3190184663
 20
37.4237450521
 30
0.0
 10
15.2083376413
 20
37.436168976
 30
0.0
 10
15.1391997594
 20
37.4613752728
 30
0.0
 10
15.1094380963
 20
37.4785592839
 30
0.0
 11
15.5299676418
 21
37.4764403247
 31
0.0
 11
15.4327259728
 21
37.4401528391
 31
0.0
 11
15.3189522769
 21
37.4278397192
 31
0.0
 11
15.2055680956
 21
37.4412974441
 31
0.0
 11
15.1094380963
 21
37.4785592839
 31
0.0
  0
SPLINE
  5
480
100
AcDbEntity
  8
RACCORDO
100
AcDbSpline
 62
7
  6
CONTINUOUS
 70
0
 71
3
 72
11
 73
7
 74
5
 42
0.0000001
 43
0.0000001
 44
0.0000000001
 12
-0.3803764778
 22
-0.2120890063
 32
0.0
 13
-0.3771557109
 23
0.2177649679
 33
0.0
 40
0.0
 40
0.0
 40
0.0
 40
0.0
 40
0.2383228673
 40
0.5010914248
 40
0.7632675667
 40
1.0
 40
1.0
 40
1.0
 40
1.0
 10
15.5299676418
 20
-4.3154614701
 30
0.0
 10
15.4997501708
 20
-4.3323100235
 30
0.0
 10
15.4300463733
 20
-4.3567945709
 30
0.0
 10
15.3190184659
 20
-4.3681567416
 30
0.0
 10
15.2083376411
 20
-4.3557328191
 30
0.0
 10
15.1391997594
 20
-4.3305265239
 30
0.0
 10
15.1094380963
 20
-4.3133425137
 30
0.0
 11
15.5299676418
 21
-4.3154614701
 31
0.0
 11
15.4327259725
 21
-4.3517489538
 31
0.0
 11
15.3189522763
 21
-4.3640620745
 31
0.0
 11
15.2055680949
 21
-4.3506043511
 31
0.0
 11
15.1094380963
 21
-4.3133425137
 31
0.0
  0
SPLINE
  5
481
100
AcDbEntity
  8
RACCORDO
100
AcDbSpline
 62
7
  6
CONTINUOUS
 70
0
 71
3
 72
9
 73
5
 74
3
 42
0.0000001
 43
0.0000001
 44
0.0000000001
 12
0.0000527323
 22
-0.0373502916
 32
0.0
 13
0.0077640379
 23
-0.0365344601
 33
0.0
 40
0.0
 40
0.0
 40
0.0
 40
0.0
 40
0.2547387322
 40
1.0
 40
1.0
 40
1.0
 40
1.0
 10
-18.1247325446
 20
18.889401963
 30
0.0
 10
-18.124728067
 20
18.886230441
 30
0.0
 10
-18.1243742204
 20
18.8737849267
 30
0.0
 10
-18.1228516187
 20
18.8613582912
 30
0.0
 10
-18.1209228731
 20
18.8522823852
 30
0.0
 11
-18.1247325446
 21
18.889401963
 31
0.0
 11
-18.1244719475
 21
18.879890957
 31
0.0
 11
-18.1209228731
 21
18.8522823852
 31
0.0
  0
SPLINE
  5
482
100
AcDbEntity
  8
RACCORDO
100
AcDbSpline
 62
7
  6
CONTINUOUS
 70
0
 71
3
 72
11
 73
7
 74
5
 42
0.0000001
 43
0.0000001
 44
0.0000000001
 12
-0.1362924929
 22
0.0787097748
 32
0.0
 13
-0.0000000006
 23
0.1573876497
 33
0.0
 40
0.0
 40
0.0
 40
0.0
 40
0.0
 40
0.2177541405
 40
0.4508937694
 40
0.7104507771
 40
1.0
 40
1.0
 40
1.0
 40
1.0
 10
14.8887698696
 20
-4.6139054734
 30
0.0
 10
14.878877118
 20
-4.6081923469
 30
0.0
 10
14.8603485312
 20
-4.5926504294
 30
0.0
 10
14.8406414907
 20
-4.5604082564
 30
0.0
 10
14.8289555289
 20
-4.5206901211
 30
0.0
 10
14.8266384622
 20
-4.4917864095
 30
0.0
 10
14.8266384621
 20
-4.476595919
 30
0.0
 11
14.8887698696
 21
-4.6139054734
 31
0.0
 11
14.8623851249
 21
-4.5920330622
 31
0.0
 11
14.8427863447
 21
-4.561012328
 31
0.0
 11
14.830718731
 21
-4.5219843584
 31
0.0
 11
14.8266384621
 21
-4.476595919
 31
0.0
  0
SPLINE
  5
483
100
AcDbEntity
  8
RACCORDO
100
AcDbSpline
 62
7
  6
CONTINUOUS
 70
0
 71
3
 72
11
 73
7
 74
5
 42
0.0000001
 43
0.0000001
 44
0.0000000001
 12
-0.1362924929
 22
0.0787097779
 32
0.0
 13
-0.000000004
 23
0.1573876512
 33
0.0
 40
0.0
 40
0.0
 40
0.0
 40
0.0
 40
0.2177541423
 40
0.4508937728
 40
0.710450779
 40
1.0
 40
1.0
 40
1.0
 40
1.0
 10
-21.3052447786
 20
16.2840649669
 30
0.0
 10
-21.3151375302
 20
16.2897780937
 30
0.0
 10
-21.3336661172
 20
16.3053200116
 30
0.0
 10
-21.353373158
 20
16.337562185
 30
0.0
 10
-21.3650591206
 20
16.3772803203
 30
0.0
 10
-21.3673761877
 20
16.4061840319
 30
0.0
 10
-21.3673761881
 20
16.4213745225
 30
0.0
 11
-21.3052447786
 21
16.2840649669
 31
0.0
 11
-21.3316295236
 21
16.3059373788
 31
0.0
 11
-21.3512283041
 21
16.3369581135
 31
0.0
 11
-21.3632959184
 21
16.375986083
 31
0.0
 11
-21.3673761881
 21
16.4213745225
 31
0.0
  0
SPLINE
  5
484
100
AcDbEntity
  8
RACCORDO
100
AcDbSpline
 62
7
  6
CONTINUOUS
 70
0
 71
3
 72
15
 73
11
 74
9
 42
0.0000001
 43
0.0000001
 44
0.0000000001
 12
0.0000290007
 22
0.4170681701
 32
0.0
 13
0.3612088352
 23
-0.2085042848
 33
0.0
 40
0.0
 40
0.0
 40
0.0
 40
0.0
 40
0.145084411
 40
0.2749838777
 40
0.3918358314
 40
0.5009156004
 40
0.6098397432
 40
0.7262475406
 40
0.855533188
 40
1.0
 40
1.0
 40
1.0
 40
1.0
 10
-21.6501758223
 20
58.7030996543
 30
0.0
 10
-21.6501744198
 20
58.7232696842
 30
0.0
 10
-21.6471401191
 20
58.761630312
 30
0.0
 10
-21.6316877105
 20
58.8143555219
 30
0.0
 10
-21.6056610604
 20
58.8572460706
 30
0.0
 10
-21.5695347867
 20
58.8880127445
 30
0.0
 10
-21.5251101231
 20
58.904538674
 30
0.0
 10
-21.4751221096
 20
58.9061936217
 30
0.0
 10
-21.4218528097
 20
58.8937914593
 30
0.0
 10
-21.3870537537
 20
58.877712079
 30
0.0
 10
-21.3696595241
 20
58.8676714292
 30
0.0
 11
-21.6501758223
 21
58.7030996543
 31
0.0
 11
-21.6447984844
 21
58.7633703373
 31
0.0
 11
-21.6288681249
 21
58.8151522233
 31
0.0
 11
-21.602992867
 21
58.8564510577
 31
0.0
 11
-21.5681558087
 21
58.885709494
 31
0.0
 11
-21.5256767949
 21
58.9018125565
 31
0.0
 11
-21.4771818127
 21
58.9041229572
 31
0.0
 11
-21.4245002702
 21
58.8926285408
 31
0.0
 11
-21.3696595241
 21
58.8676714292
 31
0.0
  0
SPLINE
  5
485
100
AcDbEntity
  8
RACCORDO
100
AcDbSpline
 62
7
  6
CONTINUOUS
 70
0
 71
3
 72
12
 73
8
 74
6
 42
0.0000001
 43
0.0000001
 44
0.0000000001
 12
0.505725355
 22
-0.2920463641
 32
0.0
 13
0.0000644726
 23
-0.5839941861
 33
0.0
 40
0.0
 40
0.0
 40
0.0
 40
0.0
 40
0.2368422947
 40
0.4991924762
 40
0.7618019237
 40
0.8853942362
 40
1.0
 40
1.0
 40
1.0
 40
1.0
 10
14.8266384621
 20
37.9683826181
 30
0.0
 10
14.86656418
 20
37.9453263078
 30
0.0
 10
14.9421867346
 20
37.8817902297
 30
0.0
 10
15.0305711704
 20
37.7615011711
 30
0.0
 10
15.0823752879
 20
37.6449485914
 30
0.0
 10
15.1048810626
 20
37.5498957787
 30
0.0
 10
15.1094356333
 20
37.5035054719
 30
0.0
 10
15.1094380963
 20
37.481195772
 30
0.0
 11
14.8266384621
 21
37.9683826181
 31
0.0
 11
14.9343368373
 21
37.8815957094
 31
0.0
 11
15.0258022863
 21
37.7586824208
 31
0.0
 11
15.0872407215
 21
37.6181643016
 31
0.0
 11
15.1036292616
 21
37.5478723187
 31
0.0
 11
15.1094380963
 21
37.481195772
 31
0.0
  0
SPLINE
  5
486
100
AcDbEntity
  8
RACCORDO
100
AcDbSpline
 62
7
  6
CONTINUOUS
 70
0
 71
3
 72
15
 73
11
 74
9
 42
0.0000001
 43
0.0000001
 44
0.0000000001
 12
-0.0000290007
 22
-0.4170681613
 32
0.0
 13
-0.3612088275
 23
0.2085042803
 33
0.0
 40
0.0
 40
0.0
 40
0.0
 40
0.0
 40
0.1450844117
 40
0.2749838793
 40
0.3918358339
 40
0.5009156036
 40
0.6098397465
 40
0.7262475433
 40
0.8555331895
 40
1.0
 40
1.0
 40
1.0
 40
1.0
 10
15.1094380963
 20
-4.3133425137
 30
0.0
 10
15.1094366938
 20
-4.3335125433
 30
0.0
 10
15.1064023932
 20
-4.3718731704
 30
0.0
 10
15.0909499852
 20
-4.4245983796
 30
0.0
 10
15.064923336
 20
-4.467488928
 30
0.0
 10
15.0287970635
 20
-4.4982556021
 30
0.0
 10
14.9843724013
 20
-4.5147815325
 30
0.0
 10
14.9343843891
 20
-4.5164364815
 30
0.0
 10
14.8811150905
 20
-4.504034321
 30
0.0
 10
14.8463160349
 20
-4.4879549425
 30
0.0
 10
14.8289218059
 20
-4.477914293
 30
0.0
 11
15.1094380963
 21
-4.3133425137
 31
0.0
 11
15.1040607586
 21
-4.3736131956
 31
0.0
 11
15.0881303997
 21
-4.425395081
 31
0.0
 11
15.0622551426
 21
-4.4666939152
 31
0.0
 11
15.0274180855
 21
-4.4959523517
 31
0.0
 11
14.984939073
 21
-4.512055415
 31
0.0
 11
14.9364440921
 21
-4.514365817
 31
0.0
 11
14.8837625508
 21
-4.5028714025
 31
0.0
 11
14.8289218059
 21
-4.477914293
 31
0.0
  0
SPLINE
  5
487
100
AcDbEntity
  8
RACCORDO
100
AcDbSpline
 62
7
  6
CONTINUOUS
 70
0
 71
3
 72
12
 73
8
 74
6
 42
0.0000001
 43
0.0000001
 44
0.0000000001
 12
-0.5057253573
 22
0.2920463654
 32
0.0
 13
-0.0000644726
 23
0.5839941887
 33
0.0
 40
0.0
 40
0.0
 40
0.0
 40
0.0
 40
0.2368422949
 40
0.4991924767
 40
0.7618019242
 40
0.8853942365
 40
1.0
 40
1.0
 40
1.0
 40
1.0
 10
-21.3673761881
 20
16.4213745225
 30
0.0
 10
-21.4073019062
 20
16.444430833
 30
0.0
 10
-21.4829244611
 20
16.5079669115
 30
0.0
 10
-21.5713088972
 20
16.6282559709
 30
0.0
 10
-21.6231130146
 20
16.7448085512
 30
0.0
 10
-21.645618789
 20
16.8398613643
 30
0.0
 10
-21.6501733593
 20
16.8862516713
 30
0.0
 10
-21.6501758223
 20
16.9085613713
 30
0.0
 11
-21.3673761881
 21
16.4213745225
 31
0.0
 11
-21.4750745638
 21
16.5081614318
 31
0.0
 11
-21.5665400131
 21
16.6310747213
 31
0.0
 11
-21.6279784481
 21
16.7715928412
 31
0.0
 11
-21.6443669879
 21
16.8418848243
 31
0.0
 11
-21.6501758223
 21
16.9085613713
 31
0.0
  0
SPLINE
  5
488
100
AcDbEntity
  8
RACCORDO
100
AcDbSpline
 62
7
  6
CONTINUOUS
 70
0
 71
3
 72
9
 73
5
 74
3
 42
0.0000001
 43
0.0000001
 44
0.0000000001
 12
-0.0290535392
 22
-0.0551073363
 32
0.0
 13
-0.0539576766
 23
-0.0311367274
 33
0.0
 40
0.0
 40
0.0
 40
0.0
 40
0.0
 40
0.277017043
 40
1.0
 40
1.0
 40
1.0
 40
1.0
 10
13.204820371
 20
-0.9579875217
 30
0.0
 10
13.2021375958
 20
-0.9630760788
 30
0.0
 10
13.1916567954
 20
-0.9809261161
 30
0.0
 10
13.1769017476
 20
-0.9969075266
 30
0.0
 10
13.1638982541
 20
-1.004411301
 30
0.0
 11
13.204820371
 21
-0.9579875217
 31
0.0
 11
13.196002876
 21
-0.9728222124
 31
0.0
 11
13.1638982541
 21
-1.004411301
 31
0.0
  0
SPLINE
  5
489
100
AcDbEntity
  8
RACCORDO
100
AcDbSpline
 62
7
  6
CONTINUOUS
 70
0
 71
3
 72
11
 73
7
 74
5
 42
0.0000001
 43
0.0000001
 44
0.0000000001
 12
-0.1261722059
 22
-0.072808724
 32
0.0
 13
-0.0964136199
 23
0.1092014182
 33
0.0
 40
0.0
 40
0.0
 40
0.0
 40
0.0
 40
0.2220361667
 40
0.4505038999
 40
0.7087907003
 40
1.0
 40
1.0
 40
1.0
 40
1.0
 10
13.1638982541
 20
-1.004411301
 30
0.0
 10
13.1545599898
 20
-1.0098000243
 30
0.0
 10
13.1324962624
 20
-1.016299854
 30
0.0
 10
13.0979061877
 20
-1.0084026004
 30
0.0
 10
13.0656675466
 20
-0.9879261033
 30
0.0
 10
13.0465616176
 20
-0.9690859266
 30
0.0
 10
13.03720277
 20
-0.9584857705
 30
0.0
 11
13.1638982541
 21
-1.004411301
 31
0.0
 11
13.132830308
 21
-1.0134088785
 31
0.0
 11
13.1001508489
 21
-1.0071071344
 31
0.0
 11
13.0678416077
 21
-0.9878255672
 31
0.0
 11
13.03720277
 21
-0.9584857705
 31
0.0
  0
SPLINE
  5
48A
100
AcDbEntity
  8
0
100
AcDbSpline
 62
7
  6
CONTINUOUS
 70
0
 71
3
 72
9
 73
5
 74
3
 42
0.0000001
 43
0.0000001
 44
0.0000000001
 12
0.0000188601
 22
-0.0959212974
 32
0.0
 13
-0.0492076068
 23
-0.0823377622
 33
0.0
 40
0.0
 40
0.0
 40
0.0
 40
0.0
 40
0.2607000112
 40
1.0
 40
1.0
 40
1.0
 40
1.0
 10
-14.1012342515
 20
-27.9984152591
 30
0.0
 10
-14.1012326126
 20
-28.0067508202
 30
0.0
 10
-14.1026924972
 20
-28.0386125277
 30
0.0
 10
-14.1111885686
 20
-28.0708829236
 30
0.0
 10
-14.123314963
 20
-28.0911736925
 30
0.0
 11
-14.1012342515
 21
-27.9984152591
 31
0.0
 11
-14.1024720073
 21
-28.0233912915
 31
0.0
 11
-14.123314963
 21
-28.0911736925
 31
0.0
  0
SPLINE
  5
48B
100
AcDbEntity
  8
0
100
AcDbSpline
 62
7
  6
CONTINUOUS
 70
0
 71
3
 72
8
 73
4
 74
2
 42
0.0000001
 43
0.0000001
 44
0.0000000001
 12
-0.0170544733
 22
-0.0285367906
 32
0.0
 13
-0.0249380208
 23
-0.0219840533
 33
0.0
 40
0.0
 40
0.0
 40
0.0
 40
0.0
 40
1.0
 40
1.0
 40
1.0
 40
1.0
 10
-14.123314963
 20
-28.0911736925
 30
0.0
 10
-14.1289997875
 20
-28.1006859561
 30
0.0
 10
-14.136093272
 20
-28.1095434166
 30
0.0
 10
-14.1444059455
 20
-28.1168714343
 30
0.0
 11
-14.123314963
 21
-28.0911736925
 31
0.0
 11
-14.1444059455
 21
-28.1168714343
 31
0.0
  0
SPLINE
  5
48C
100
AcDbEntity
  8
0
100
AcDbSpline
 62
7
  6
CONTINUOUS
 70
0
 71
3
 72
11
 73
7
 74
5
 42
0.0000001
 43
0.0000001
 44
0.0000000001
 12
0.136283381
 22
-0.0786998189
 32
0.0
 13
0.0
 23
-0.1573747802
 33
0.0
 40
0.0
 40
0.0
 40
0.0
 40
0.0
 40
0.2177859102
 40
0.450919006
 40
0.7102951862
 40
1.0
 40
1.0
 40
1.0
 40
1.0
 10
-9.2721775613
 20
-42.4515037453
 30
0.0
 10
-9.2622840279
 20
-42.4572169825
 30
0.0
 10
-9.2437760515
 20
-42.4727840398
 30
0.0
 10
-9.2240722016
 20
-42.5050077823
 30
0.0
 10
-9.2123686945
 20
-42.5447180895
 30
0.0
 10
-9.210065825
 20
-42.573619779
 30
0.0
 10
-9.210065825
 20
-42.5888171895
 30
0.0
 11
-9.2721775613
 21
-42.4515037453
 31
0.0
 11
-9.2458054492
 21
-42.4733948267
 31
0.0
 11
-9.2262103531
 21
-42.5044131232
 31
0.0
 11
-9.2141418164
 21
-42.5434075225
 31
0.0
 11
-9.210065825
 21
-42.5888171895
 31
0.0
  0
SPLINE
  5
48D
100
AcDbEntity
  8
0
100
AcDbSpline
 62
7
  6
CONTINUOUS
 70
0
 71
3
 72
11
 73
7
 74
5
 42
0.0000001
 43
0.0000001
 44
0.0000000001
 12
-0.0000100109
 22
0.1573960521
 32
0.0
 13
-0.1363067843
 23
0.0787018289
 33
0.0
 40
0.0
 40
0.0
 40
0.0
 40
0.0
 40
0.2177904336
 40
0.4509258866
 40
0.7103007723
 40
1.0
 40
1.0
 40
1.0
 40
1.0
 10
-16.3848858632
 20
27.8374497592
 30
0.0
 10
-16.38488659
 20
27.8488762107
 30
0.0
 10
-16.3891138891
 20
27.8726918095
 30
0.0
 10
-16.4071696967
 20
27.905873225
 30
0.0
 10
-16.4357105459
 20
27.9358689832
 30
0.0
 10
-16.4595911028
 20
27.9523169989
 30
0.0
 10
-16.4727537595
 20
27.9599169519
 30
0.0
 11
-16.3848858632
 21
27.8374497592
 31
0.0
 11
-16.3906578246
 21
27.871239678
 31
0.0
 11
-16.4077240745
 21
27.9037240863
 31
0.0
 11
-16.4354623678
 21
27.9336779453
 31
0.0
 11
-16.4727537595
 21
27.9599169519
 31
0.0
  0
SPLINE
  5
48E
100
AcDbEntity
  8
RACCORDO
100
AcDbSpline
 62
7
  6
CONTINUOUS
 70
0
 71
3
 72
9
 73
5
 74
3
 42
0.0000001
 43
0.0000001
 44
0.0000000001
 12
-0.1066410086
 22
-0.0615731245
 32
0.0
 13
-0.0163254074
 23
-0.1220534123
 33
0.0
 40
0.0
 40
0.0
 40
0.0
 40
0.0
 40
0.4614877741
 40
1.0
 40
1.0
 40
1.0
 40
1.0
 10
-5.8952497627
 20
13.3710235113
 30
0.0
 10
-5.9116542699
 20
13.3615517632
 30
0.0
 10
-5.9411121133
 20
13.3298319666
 30
0.0
 10
-5.9522905683
 20
13.2891337485
 30
0.0
 10
-5.9552210454
 20
13.2672246636
 30
0.0
 11
-5.8952497627
 21
13.3710235113
 31
0.0
 11
-5.93495016
 21
13.3303630235
 31
0.0
 11
-5.9552210454
 21
13.2672246636
 31
0.0
  0
SPLINE
  5
48F
100
AcDbEntity
  8
RACCORDO
100
AcDbSpline
 62
7
  6
CONTINUOUS
 70
0
 71
3
 72
11
 73
7
 74
5
 42
0.0000001
 43
0.0000001
 44
0.0000000001
 12
0.1363216183
 22
0.0787103206
 32
0.0
 13
0.1363215866
 23
-0.0787103756
 33
0.0
 40
0.0
 40
0.0
 40
0.0
 40
0.0
 40
0.2177804588
 40
0.4509077062
 40
0.7102936033
 40
1.0
 40
1.0
 40
1.0
 40
1.0
 10
-5.3295643378
 20
13.697643186
 30
0.0
 10
-5.3196682762
 20
13.7033570425
 30
0.0
 10
-5.296929755
 20
13.7116089699
 30
0.0
 10
-5.2591615404
 20
13.7125636016
 30
0.0
 10
-5.2189095806
 20
13.7028415822
 30
0.0
 10
-5.1927215841
 20
13.6903817515
 30
0.0
 10
-5.1795571722
 20
13.6827807851
 30
0.0
 11
-5.3295643378
 21
13.697643186
 31
0.0
 11
-5.2974150055
 21
13.7095445368
 31
0.0
 11
-5.2607469249
 21
13.7110085007
 31
0.0
 11
-5.2209312118
 21
13.7019608977
 31
0.0
 11
-5.1795571722
 21
13.6827807851
 31
0.0
  0
SPLINE
  5
490
100
AcDbEntity
  8
0
100
AcDbSpline
 62
7
  6
CONTINUOUS
 70
0
 71
3
 72
9
 73
5
 74
3
 42
0.0000001
 43
0.0000001
 44
0.0000000001
 12
0.0163254074
 22
0.1220534123
 32
0.0
 13
0.1066410086
 23
0.0615731245
 33
0.0
 40
0.0
 40
0.0
 40
0.0
 40
0.0
 40
0.5385122259
 40
1.0
 40
1.0
 40
1.0
 40
1.0
 10
-5.9552210454
 20
-44.7021649887
 30
0.0
 10
-5.9522905683
 20
-44.6802559038
 30
0.0
 10
-5.9411121133
 20
-44.6395576857
 30
0.0
 10
-5.9116542699
 20
-44.607837889
 30
0.0
 10
-5.8952497627
 20
-44.598366141
 30
0.0
 11
-5.9552210454
 21
-44.7021649887
 31
0.0
 11
-5.93495016
 21
-44.6390266288
 31
0.0
 11
-5.8952497627
 21
-44.598366141
 31
0.0
  0
SPLINE
  5
491
100
AcDbEntity
  8
RACCORDO
100
AcDbSpline
 62
7
  6
CONTINUOUS
 70
0
 71
3
 72
11
 73
7
 74
5
 42
0.0000001
 43
0.0000001
 44
0.0000000001
 12
0.3808322389
 22
-0.2198877618
 32
0.0
 13
-0.0
 23
-0.4397542745
 33
0.0
 40
0.0
 40
0.0
 40
0.0
 40
0.0
 40
0.2372413496
 40
0.5000061068
 40
0.7627675405
 40
1.0
 40
1.0
 40
1.0
 40
1.0
 10
-10.4828580311
 20
16.744840235
 30
0.0
 10
-10.4527416463
 20
16.7274514119
 30
0.0
 10
-10.3957496361
 20
16.6794841372
 30
0.0
 10
-10.3292315395
 20
16.5885848564
 30
0.0
 10
-10.2837698683
 20
16.4855301242
 30
0.0
 10
-10.2707259967
 20
16.4121914367
 30
0.0
 10
-10.2707259967
 20
16.377416774
 30
0.0
 11
-10.4828580311
 21
16.744840235
 31
0.0
 11
-10.4016729587
 21
16.6793170007
 31
0.0
 11
-10.3328580311
 21
16.5864905327
 31
0.0
 11
-10.286876151
 21
16.4804830974
 31
0.0
 11
-10.2707259967
 21
16.377416774
 31
0.0
  0
SPLINE
  5
492
100
AcDbEntity
  8
RACCORDO
100
AcDbSpline
 62
7
  6
CONTINUOUS
 70
0
 71
3
 72
11
 73
7
 74
5
 42
0.0000001
 43
0.0000001
 44
0.0000000001
 12
0.3808322389
 22
-0.2198877618
 32
0.0
 13
0.0
 23
-0.4397542745
 33
0.0
 40
0.0
 40
0.0
 40
0.0
 40
0.0
 40
0.2372413496
 40
0.5000061068
 40
0.7627675405
 40
1.0
 40
1.0
 40
1.0
 40
1.0
 10
5.4270445456
 20
7.5586618851
 30
0.0
 10
5.4571609304
 20
7.541273062
 30
0.0
 10
5.5141529406
 20
7.4933057873
 30
0.0
 10
5.5806710372
 20
7.4024065065
 30
0.0
 10
5.6261327084
 20
7.2993517743
 30
0.0
 10
5.63917658
 20
7.2260130868
 30
0.0
 10
5.63917658
 20
7.1912384241
 30
0.0
 11
5.4270445456
 21
7.5586618851
 31
0.0
 11
5.508229618
 21
7.4931386508
 31
0.0
 11
5.5770445456
 21
7.4003121828
 31
0.0
 11
5.6230264257
 21
7.2943047475
 31
0.0
 11
5.63917658
 21
7.1912384241
 31
0.0
  0
SPLINE
  5
493
100
AcDbEntity
  8
0
100
AcDbSpline
 62
7
  6
CONTINUOUS
 70
0
 71
3
 72
9
 73
5
 74
3
 42
0.0000001
 43
0.0000001
 44
0.0000000001
 12
-0.1872984791
 22
0.0289782101
 32
0.0
 13
-0.1681595966
 23
-0.0874231492
 33
0.0
 40
0.0
 40
0.0
 40
0.0
 40
0.0
 40
0.5194837679
 40
1.0
 40
1.0
 40
1.0
 40
1.0
 10
9.6788785337
 20
7.2050599099
 30
0.0
 10
9.6464456938
 20
7.2100778131
 30
0.0
 10
9.5824344809
 20
7.2105692864
 30
0.0
 10
9.5202207441
 20
7.1933378117
 30
0.0
 10
9.4932862722
 20
7.1793350643
 30
0.0
 11
9.6788785337
 21
7.2050599099
 31
0.0
 11
9.5804251947
 21
7.2058056631
 31
0.0
 11
9.4932862722
 21
7.1793350643
 31
0.0
  0
SPLINE
  5
494
100
AcDbEntity
  8
0
100
AcDbSpline
 62
7
  6
CONTINUOUS
 70
0
 71
3
 72
9
 73
5
 74
3
 42
0.0000001
 43
0.0000001
 44
0.0000000001
 12
0.012956691
 22
-0.0279185118
 32
0.0
 13
0.0000103893
 23
-0.0307785483
 33
0.0
 40
0.0
 40
0.0
 40
0.0
 40
0.0
 40
0.257348902
 40
1.0
 40
1.0
 40
1.0
 40
1.0
 10
-2.115374276
 20
14.0149136654
 30
0.0
 10
-2.1142628126
 20
14.0125187327
 30
0.0
 10
-2.1104021734
 20
14.003009904
 30
0.0
 10
-2.1085594658
 20
13.9926571807
 30
0.0
 10
-2.108556894
 20
13.9850379398
 30
0.0
 11
-2.115374276
 21
14.0149136654
 31
0.0
 11
-2.1124093946
 21
14.0075686696
 31
0.0
 11
-2.108556894
 21
13.9850379398
 31
0.0
  0
SPLINE
  5
495
100
AcDbEntity
  8
0
100
AcDbSpline
 62
7
  6
CONTINUOUS
 70
0
 71
3
 72
9
 73
5
 74
3
 42
0.0000001
 43
0.0000001
 44
0.0000000001
 12
-0.1872984791
 22
0.0289782101
 32
0.0
 13
-0.1681595966
 23
-0.0874231492
 33
0.0
 40
0.0
 40
0.0
 40
0.0
 40
0.0
 40
0.5194837679
 40
1.0
 40
1.0
 40
1.0
 40
1.0
 10
-6.231024043
 20
16.3912382597
 30
0.0
 10
-6.2634568829
 20
16.396256163
 30
0.0
 10
-6.3274680958
 20
16.3967476362
 30
0.0
 10
-6.3896818326
 20
16.3795161616
 30
0.0
 10
-6.4166163045
 20
16.3655134142
 30
0.0
 11
-6.231024043
 21
16.3912382597
 31
0.0
 11
-6.329477382
 21
16.391984013
 31
0.0
 11
-6.4166163045
 21
16.3655134142
 31
0.0
  0
SPLINE
  5
496
100
AcDbEntity
  8
0
100
AcDbSpline
 62
7
  6
CONTINUOUS
 70
0
 71
3
 72
9
 73
5
 74
3
 42
0.0000001
 43
0.0000001
 44
0.0000000001
 12
0.0356636509
 22
0.0249264817
 32
0.0
 13
0.0223702126
 23
0.0373202233
 33
0.0
 40
0.0
 40
0.0
 40
0.0
 40
0.0
 40
0.745130515
 40
1.0
 40
1.0
 40
1.0
 40
1.0
 10
-14.1526056844
 20
48.2166445198
 30
0.0
 10
-14.1437476596
 20
48.2228356805
 30
0.0
 10
-14.13330048
 20
48.2333958265
 30
0.0
 10
-14.1252974333
 20
48.2454895965
 30
0.0
 10
-14.1233969385
 20
48.2486601919
 30
0.0
 11
-14.1526056844
 21
48.2166445198
 31
0.0
 11
-14.1295356652
 21
48.2394245525
 31
0.0
 11
-14.1233969385
 21
48.2486601919
 31
0.0
  0
SPLINE
  5
497
100
AcDbEntity
  8
0
100
AcDbSpline
 62
7
  6
CONTINUOUS
 70
0
 71
3
 72
9
 73
5
 74
3
 42
0.0000001
 43
0.0000001
 44
0.0000000001
 12
0.0253036784
 22
0.067371073
 32
0.0
 13
-0.0000095784
 23
0.0719662249
 33
0.0
 40
0.0
 40
0.0
 40
0.0
 40
0.0
 40
0.243469632
 40
1.0
 40
1.0
 40
1.0
 40
1.0
 10
-14.1128201947
 20
48.2707458236
 30
0.0
 10
-14.1107666356
 20
48.2762134271
 30
0.0
 10
-14.1036482299
 20
48.2991656019
 30
0.0
 10
-14.1012318742
 20
48.3233906487
 30
0.0
 10
-14.1012342896
 20
48.3415388602
 30
0.0
 11
-14.1128201947
 21
48.2707458236
 31
0.0
 11
-14.10757913
 21
48.2874651948
 31
0.0
 11
-14.1012342896
 21
48.3415388602
 31
0.0
  0
SPLINE
  5
498
100
AcDbEntity
  8
0
100
AcDbSpline
 62
7
  6
CONTINUOUS
 70
0
 71
3
 72
9
 73
5
 74
3
 42
0.0000001
 43
0.0000001
 44
0.0000000001
 12
-0.0685559615
 22
-0.1766939093
 32
0.0
 13
-0.1597856713
 23
-0.1019274089
 33
0.0
 40
0.0
 40
0.0
 40
0.0
 40
0.0
 40
0.5194818691
 40
1.0
 40
1.0
 40
1.0
 40
1.0
 10
-14.1080494842
 20
30.0346464089
 30
0.0
 10
-14.1199206772
 20
30.0040499815
 30
0.0
 10
-14.1515009286
 20
29.948369046
 30
0.0
 10
-14.1975292454
 20
29.9031048354
 30
0.0
 10
-14.2231225495
 20
29.886778846
 30
0.0
 11
-14.1080494842
 21
30.0346464089
 31
0.0
 11
-14.1566303886
 21
29.9490105807
 31
0.0
 11
-14.2231225495
 21
29.886778846
 31
0.0
  0
SPLINE
  5
499
100
AcDbEntity
  8
0
100
AcDbSpline
 62
7
  6
CONTINUOUS
 70
0
 71
3
 72
9
 73
5
 74
3
 42
0.0000001
 43
0.0000001
 44
0.0000000001
 12
-0.0176950702
 22
0.0251729119
 32
0.0
 13
-0.0266419256
 23
0.0153947654
 33
0.0
 40
0.0
 40
0.0
 40
0.0
 40
0.0
 40
0.2573483268
 40
1.0
 40
1.0
 40
1.0
 40
1.0
 10
-14.1080494842
 20
34.78683631
 30
0.0
 10
-14.1095674165
 20
34.7889957122
 30
0.0
 10
-14.1158702532
 20
34.7970912574
 30
0.0
 10
-14.1239122335
 20
34.8038616682
 30
0.0
 10
-14.1305074571
 20
34.8076726509
 30
0.0
 11
-14.1080494842
 21
34.78683631
 31
0.0
 11
-14.1129266457
 21
34.793074701
 31
0.0
 11
-14.1305074571
 21
34.8076726509
 31
0.0
  0
SPLINE
  5
49A
100
AcDbEntity
  8
0
100
AcDbSpline
 62
7
  6
CONTINUOUS
 70
0
 71
3
 72
11
 73
7
 74
5
 42
0.0000001
 43
0.0000001
 44
0.0000000001
 12
0.0
 22
0.1573747802
 32
0.0
 13
-0.136283381
 23
0.0786998189
 33
0.0
 40
0.0
 40
0.0
 40
0.0
 40
0.0
 40
0.2897048138
 40
0.549080994
 40
0.7822140898
 40
1.0
 40
1.0
 40
1.0
 40
1.0
 10
-9.210065825
 20
15.3805724628
 30
0.0
 10
-9.210065825
 20
15.3957698733
 30
0.0
 10
-9.2123686945
 20
15.4246715628
 30
0.0
 10
-9.2240722016
 20
15.46438187
 30
0.0
 10
-9.2437760515
 20
15.4966056125
 30
0.0
 10
-9.2622840279
 20
15.5121726698
 30
0.0
 10
-9.2721775613
 20
15.517885907
 30
0.0
 11
-9.210065825
 21
15.3805724628
 31
0.0
 11
-9.2141418164
 21
15.4259821298
 31
0.0
 11
-9.2262103531
 21
15.464976529
 31
0.0
 11
-9.2458054492
 21
15.4959948256
 31
0.0
 11
-9.2721775613
 21
15.517885907
 31
0.0
  0
SPLINE
  5
49B
100
AcDbEntity
  8
0
100
AcDbSpline
 62
7
  6
CONTINUOUS
 70
0
 71
3
 72
11
 73
7
 74
5
 42
0.0000001
 43
0.0000001
 44
0.0000000001
 12
0.1363067843
 22
-0.0787018289
 32
0.0
 13
0.0000100109
 23
-0.1573960521
 33
0.0
 40
0.0
 40
0.0
 40
0.0
 40
0.0
 40
0.2896992277
 40
0.5490741134
 40
0.7822095664
 40
1.0
 40
1.0
 40
1.0
 40
1.0
 10
-16.4727537595
 20
-30.0094727004
 30
0.0
 10
-16.4595911028
 20
-30.0170726534
 30
0.0
 10
-16.4357105459
 20
-30.0335206691
 30
0.0
 10
-16.4071696967
 20
-30.0635164273
 30
0.0
 10
-16.3891138891
 20
-30.0966978428
 30
0.0
 10
-16.38488659
 20
-30.1205134416
 30
0.0
 10
-16.3848858632
 20
-30.1319398931
 30
0.0
 11
-16.4727537595
 21
-30.0094727004
 31
0.0
 11
-16.4354623678
 21
-30.035711707
 31
0.0
 11
-16.4077240745
 21
-30.065665566
 31
0.0
 11
-16.3906578246
 21
-30.0981499743
 31
0.0
 11
-16.3848858632
 21
-30.1319398931
 31
0.0
  0
SPLINE
  5
49C
100
AcDbEntity
  8
0
100
AcDbSpline
 62
7
  6
CONTINUOUS
 70
0
 71
3
 72
8
 73
4
 74
2
 42
0.0000001
 43
0.0000001
 44
0.0000000001
 12
0.0289670231
 22
0.0135396901
 32
0.0
 13
0.0317631114
 23
0.003676464
 33
0.0
 40
0.0
 40
0.0
 40
0.0
 40
0.0
 40
1.0
 40
1.0
 40
1.0
 40
1.0
 10
9.4932862722
 20
-50.7086313491
 30
0.0
 10
9.5029419466
 20
-50.7041181191
 30
0.0
 10
9.5135122776
 20
-50.7013171089
 30
0.0
 10
9.5240999814
 20
-50.7000916209
 30
0.0
 11
9.4932862722
 21
-50.7086313491
 31
0.0
 11
9.5240999814
 21
-50.7000916209
 31
0.0
  0
SPLINE
  5
49D
100
AcDbEntity
  8
0
100
AcDbSpline
 62
7
  6
CONTINUOUS
 70
0
 71
3
 72
9
 73
5
 74
3
 42
0.0000001
 43
0.0000001
 44
0.0000000001
 12
0.0616902853
 22
0.0071404249
 32
0.0
 13
0.0589467159
 23
-0.0195438393
 33
0.0
 40
0.0
 40
0.0
 40
0.0
 40
0.0
 40
0.2434742951
 40
1.0
 40
1.0
 40
1.0
 40
1.0
 10
9.5240999814
 20
-50.7000916209
 30
0.0
 10
9.5291066476
 20
-50.6995121176
 30
0.0
 10
9.5498338078
 20
-50.6985238452
 30
0.0
 10
9.5705877318
 20
-50.7026590052
 30
0.0
 10
9.5854526337
 20
-50.7075874775
 30
0.0
 11
9.5240999814
 21
-50.7000916209
 31
0.0
 11
9.5392012956
 21
-50.6993345955
 31
0.0
 11
9.5854526337
 21
-50.7075874775
 31
0.0
  0
SPLINE
  5
49E
100
AcDbEntity
  8
0
100
AcDbSpline
 62
7
  6
CONTINUOUS
 70
0
 71
3
 72
9
 73
5
 74
3
 42
0.0000001
 43
0.0000001
 44
0.0000000001
 12
0.0435305047
 22
-0.0144325799
 32
0.0
 13
0.0397128472
 23
-0.0229367384
 33
0.0
 40
0.0
 40
0.0
 40
0.0
 40
0.0
 40
0.2463272334
 40
1.0
 40
1.0
 40
1.0
 40
1.0
 10
9.5854526337
 20
-50.7075874775
 30
0.0
 10
9.5890268833
 20
-50.7087725233
 30
0.0
 10
9.6033930907
 20
-50.7140152406
 30
0.0
 10
9.6171634476
 20
-50.7208277101
 30
0.0
 10
9.6271402781
 20
-50.7265899752
 30
0.0
 11
9.5854526337
 21
-50.7075874775
 31
0.0
 11
9.5960683051
 21
-50.7114506194
 31
0.0
 11
9.6271402781
 21
-50.7265899752
 31
0.0
  0
SPLINE
  5
49F
100
AcDbEntity
  8
0
100
AcDbSpline
 62
7
  6
CONTINUOUS
 70
0
 71
3
 72
8
 73
4
 74
2
 42
0.0000001
 43
0.0000001
 44
0.0000000001
 12
0.0289670231
 22
0.0135396901
 32
0.0
 13
0.0317631114
 23
0.003676464
 33
0.0
 40
0.0
 40
0.0
 40
0.0
 40
0.0
 40
1.0
 40
1.0
 40
1.0
 40
1.0
 10
-6.4166163045
 20
-41.5224529993
 30
0.0
 10
-6.4069606301
 20
-41.5179397692
 30
0.0
 10
-6.3963902991
 20
-41.5151387591
 30
0.0
 10
-6.3858025953
 20
-41.5139132711
 30
0.0
 11
-6.4166163045
 21
-41.5224529993
 31
0.0
 11
-6.3858025953
 21
-41.5139132711
 31
0.0
  0
SPLINE
  5
4A0
100
AcDbEntity
  8
0
100
AcDbSpline
 62
7
  6
CONTINUOUS
 70
0
 71
3
 72
9
 73
5
 74
3
 42
0.0000001
 43
0.0000001
 44
0.0000000001
 12
0.0616902853
 22
0.0071404249
 32
0.0
 13
0.0589467159
 23
-0.0195438393
 33
0.0
 40
0.0
 40
0.0
 40
0.0
 40
0.0
 40
0.2434742951
 40
1.0
 40
1.0
 40
1.0
 40
1.0
 10
-6.3858025953
 20
-41.5139132711
 30
0.0
 10
-6.3807959291
 20
-41.5133337678
 30
0.0
 10
-6.3600687689
 20
-41.5123454953
 30
0.0
 10
-6.3393148449
 20
-41.5164806553
 30
0.0
 10
-6.324449943
 20
-41.5214091276
 30
0.0
 11
-6.3858025953
 21
-41.5139132711
 31
0.0
 11
-6.3707012811
 21
-41.5131562456
 31
0.0
 11
-6.324449943
 21
-41.5214091276
 31
0.0
  0
SPLINE
  5
4A1
100
AcDbEntity
  8
0
100
AcDbSpline
 62
7
  6
CONTINUOUS
 70
0
 71
3
 72
9
 73
5
 74
3
 42
0.0000001
 43
0.0000001
 44
0.0000000001
 12
0.0435305047
 22
-0.0144325799
 32
0.0
 13
0.0397128472
 23
-0.0229367384
 33
0.0
 40
0.0
 40
0.0
 40
0.0
 40
0.0
 40
0.2463272334
 40
1.0
 40
1.0
 40
1.0
 40
1.0
 10
-6.324449943
 20
-41.5214091276
 30
0.0
 10
-6.3208756934
 20
-41.5225941734
 30
0.0
 10
-6.306509486
 20
-41.5278368907
 30
0.0
 10
-6.2927391291
 20
-41.5346493603
 30
0.0
 10
-6.2827622986
 20
-41.5404116253
 30
0.0
 11
-6.324449943
 21
-41.5214091276
 31
0.0
 11
-6.3138342716
 21
-41.5252722695
 31
0.0
 11
-6.2827622986
 21
-41.5404116253
 31
0.0
  0
SPLINE
  5
4A2
100
AcDbEntity
  8
0
100
AcDbSpline
 62
7
  6
CONTINUOUS
 70
0
 71
3
 72
11
 73
7
 74
5
 42
0.0000001
 43
0.0000001
 44
0.0000000001
 12
0.0
 22
0.4397542745
 32
0.0
 13
-0.3808322389
 23
0.2198877618
 33
0.0
 40
0.0
 40
0.0
 40
0.0
 40
0.0
 40
0.2372324595
 40
0.4999938932
 40
0.7627586504
 40
1.0
 40
1.0
 40
1.0
 40
1.0
 10
-10.2707259967
 20
-41.5919728783
 30
0.0
 10
-10.2707259967
 20
-41.5571982156
 30
0.0
 10
-10.2837698683
 20
-41.4838595281
 30
0.0
 10
-10.3292315395
 20
-41.3808047959
 30
0.0
 10
-10.3957496361
 20
-41.2899055151
 30
0.0
 10
-10.4527416463
 20
-41.2419382404
 30
0.0
 10
-10.4828580311
 20
-41.2245494173
 30
0.0
 11
-10.2707259967
 21
-41.5919728783
 31
0.0
 11
-10.286876151
 21
-41.4889065549
 31
0.0
 11
-10.3328580311
 21
-41.3828991196
 31
0.0
 11
-10.4016729587
 21
-41.2900726516
 31
0.0
 11
-10.4828580311
 21
-41.2245494173
 31
0.0
  0
SPLINE
  5
4A3
100
AcDbEntity
  8
0
100
AcDbSpline
 62
7
  6
CONTINUOUS
 70
0
 71
3
 72
11
 73
7
 74
5
 42
0.0000001
 43
0.0000001
 44
0.0000000001
 12
0.0
 22
0.4397542745
 32
0.0
 13
-0.3808322389
 23
0.2198877618
 33
0.0
 40
0.0
 40
0.0
 40
0.0
 40
0.0
 40
0.2372324595
 40
0.4999938932
 40
0.7627586504
 40
1.0
 40
1.0
 40
1.0
 40
1.0
 10
5.63917658
 20
-50.7781512282
 30
0.0
 10
5.63917658
 20
-50.7433765655
 30
0.0
 10
5.6261327084
 20
-50.670037878
 30
0.0
 10
5.5806710372
 20
-50.5669831457
 30
0.0
 10
5.5141529406
 20
-50.476083865
 30
0.0
 10
5.4571609304
 20
-50.4281165903
 30
0.0
 10
5.4270445456
 20
-50.4107277672
 30
0.0
 11
5.63917658
 21
-50.7781512282
 31
0.0
 11
5.6230264257
 21
-50.6750849048
 31
0.0
 11
5.5770445456
 21
-50.5690774694
 31
0.0
 11
5.508229618
 21
-50.4762510015
 31
0.0
 11
5.4270445456
 21
-50.4107277672
 31
0.0
  0
SPLINE
  5
4A4
100
AcDbEntity
  8
0
100
AcDbSpline
 62
7
  6
CONTINUOUS
 70
0
 71
3
 72
11
 73
7
 74
5
 42
0.0000001
 43
0.0000001
 44
0.0000000001
 12
-0.1363215866
 22
0.0787103756
 32
0.0
 13
-0.1363216183
 23
-0.0787103206
 33
0.0
 40
0.0
 40
0.0
 40
0.0
 40
0.0
 40
0.2897063967
 40
0.5490922938
 40
0.7822195412
 40
1.0
 40
1.0
 40
1.0
 40
1.0
 10
-5.1795571722
 20
-44.2866088672
 30
0.0
 10
-5.1927215841
 20
-44.2790079008
 30
0.0
 10
-5.2189095806
 20
-44.2665480701
 30
0.0
 10
-5.2591615404
 20
-44.2568260507
 30
0.0
 10
-5.296929755
 20
-44.2577806824
 30
0.0
 10
-5.3196682762
 20
-44.2660326097
 30
0.0
 10
-5.3295643378
 20
-44.2717464663
 30
0.0
 11
-5.1795571722
 21
-44.2866088672
 31
0.0
 11
-5.2209312118
 21
-44.2674287546
 31
0.0
 11
-5.2607469249
 21
-44.2583811516
 31
0.0
 11
-5.2974150055
 21
-44.2598451155
 31
0.0
 11
-5.3295643378
 21
-44.2717464663
 31
0.0
  0
SPLINE
  5
4A5
100
AcDbEntity
  8
0
100
AcDbSpline
 62
7
  6
CONTINUOUS
 70
0
 71
3
 72
9
 73
5
 74
3
 42
0.0000001
 43
0.0000001
 44
0.0000000001
 12
-0.0685559501
 22
-0.1766940193
 32
0.0
 13
-0.1597857543
 23
-0.1019274619
 33
0.0
 40
0.0
 40
0.0
 40
0.0
 40
0.0
 40
0.5194818255
 40
1.0
 40
1.0
 40
1.0
 40
1.0
 10
-14.1080494842
 20
-9.5641619022
 30
0.0
 10
-14.1199206743
 20
-9.5947583461
 30
0.0
 10
-14.1515008761
 20
-9.6504393484
 30
0.0
 10
-14.1975292298
 20
-9.6957035791
 30
0.0
 10
-14.2231225495
 20
-9.7120295784
 30
0.0
 11
-14.1080494842
 21
-9.5641619022
 31
0.0
 11
-14.1566303541
 21
-9.6497977993
 31
0.0
 11
-14.2231225495
 21
-9.7120295784
 31
0.0
  0
LINE
  5
4A6
100
AcDbEntity
  8
0
100
AcDbLine
 62
7
  6
CONTINUOUS
 10
-2.1085567588
 20
-43.9505455427
 11
-2.1599282431
 21
-43.9802113371
  0
SPLINE
  5
4A7
100
AcDbEntity
  8
0
100
AcDbSpline
 62
7
  6
CONTINUOUS
 70
0
 71
3
 72
11
 73
7
 74
5
 42
0.0000001
 43
0.0000001
 44
0.0000000001
 12
-0.132665165
 22
0.0766104009
 32
0.0
 13
-0.1338225329
 23
-0.0745702972
 33
0.0
 40
0.0
 40
0.0
 40
0.0
 40
0.0
 40
0.2187478139
 40
0.4522842438
 40
0.711303178
 40
1.0
 40
1.0
 40
1.0
 40
1.0
 10
-9.2721775613
 20
15.517885907
 30
0.0
 10
-9.2818509663
 20
15.5234720263
 30
0.0
 10
-9.3039919301
 20
15.5316162673
 30
0.0
 10
-9.3407737347
 20
15.532934417
 30
0.0
 10
-9.3800183838
 20
15.5240206652
 30
0.0
 10
-9.4056175982
 20
15.5123075436
 30
0.0
 10
-9.4184956448
 20
15.5051314744
 30
0.0
 11
-9.2721775613
 21
15.517885907
 31
0.0
 11
-9.3035596361
 21
15.5296409402
 31
0.0
 11
-9.3392924308
 21
15.5314186509
 31
0.0
 11
-9.3780994802
 21
15.5231373174
 31
0.0
 11
-9.4184956448
 21
15.5051314744
 31
0.0
  0
SPLINE
  5
4A8
100
AcDbEntity
  8
0
100
AcDbSpline
 62
7
  6
CONTINUOUS
 70
0
 71
3
 72
11
 73
7
 74
5
 42
0.0000001
 43
0.0000001
 44
0.0000000001
 12
-0.1363196966
 22
0.0787129589
 32
0.0
 13
-0.1363212878
 23
-0.0787102031
 33
0.0
 40
0.0
 40
0.0
 40
0.0
 40
0.0
 40
0.2177889
 40
0.4509247687
 40
0.7103008336
 40
1.0
 40
1.0
 40
1.0
 40
1.0
 10
-15.5034027887
 20
20.3166989395
 30
0.0
 10
-15.5132990943
 20
20.322413209
 30
0.0
 10
-15.5360388457
 20
20.3306646861
 30
0.0
 10
-15.5738072025
 20
20.3316186093
 30
0.0
 10
-15.6140588233
 20
20.3218973459
 30
0.0
 10
-15.6402456093
 20
20.3094371362
 30
0.0
 10
-15.6534096638
 20
20.3018363762
 30
0.0
 11
-15.5034027887
 21
20.3166989395
 31
0.0
 11
-15.5355534629
 21
20.3286002765
 31
0.0
 11
-15.5722228449
 21
20.3300636471
 31
0.0
 11
-15.6120369717
 21
20.3210164518
 31
0.0
 11
-15.6534096638
 21
20.3018363762
 31
0.0
  0
SPLINE
  5
4A9
100
AcDbEntity
  8
0
100
AcDbSpline
 62
7
  6
CONTINUOUS
 70
0
 71
3
 72
11
 73
7
 74
5
 42
0.0000001
 43
0.0000001
 44
0.0000000001
 12
-0.0000113246
 22
-0.1531790499
 32
0.0
 13
-0.1314714709
 23
-0.078607085
 33
0.0
 40
0.0
 40
0.0
 40
0.0
 40
0.0
 40
0.2187656241
 40
0.4523171593
 40
0.7113239092
 40
1.0
 40
1.0
 40
1.0
 40
1.0
 10
-15.3534097048
 20
20.0568948732
 30
0.0
 10
-15.3534105306
 20
20.0457247698
 30
0.0
 10
-15.3574314992
 20
20.0224798177
 30
0.0
 10
-15.3746809232
 20
19.9899708451
 30
0.0
 10
-15.4020177572
 20
19.9604438765
 30
0.0
 10
-15.4249568336
 20
19.9441331773
 30
0.0
 10
-15.4376077237
 20
19.936569182
 30
0.0
 11
-15.3534097048
 21
20.0568948732
 31
0.0
 11
-15.3589252586
 21
20.0238415893
 31
0.0
 11
-15.3752532301
 21
19.9920098057
 31
0.0
 11
-15.4018237611
 21
19.9625468539
 31
0.0
 11
-15.4376077237
 21
19.936569182
 31
0.0
  0
SPLINE
  5
4AA
100
AcDbEntity
  8
0
100
AcDbSpline
 62
7
  6
CONTINUOUS
 70
0
 71
3
 72
11
 73
7
 74
5
 42
0.0000001
 43
0.0000001
 44
0.0000000001
 12
0.3845332045
 22
-0.214406715
 32
0.0
 13
0.0000000002
 23
-0.4402681283
 33
0.0
 40
0.0
 40
0.0
 40
0.0
 40
0.0
 40
0.2382948755
 40
0.5011054867
 40
0.7633135658
 40
1.0
 40
1.0
 40
1.0
 40
1.0
 10
-15.6534096638
 20
20.3018363761
 30
0.0
 10
-15.6228655664
 20
20.2848057023
 30
0.0
 10
-15.5649488796
 20
20.2375407934
 30
0.0
 10
-15.497188903
 20
20.1472572827
 30
0.0
 10
-15.4508743346
 20
20.0445729801
 30
0.0
 10
-15.4376077237
 20
19.9713043465
 30
0.0
 10
-15.4376077237
 20
19.936569182
 30
0.0
 11
-15.6534096638
 21
20.3018363761
 31
0.0
 11
-15.5708200811
 21
20.2371383665
 31
0.0
 11
-15.5008146486
 21
20.145011385
 31
0.0
 11
-15.4540372769
 21
20.0394713425
 31
0.0
 11
-15.4376077237
 21
19.936569182
 31
0.0
  0
SPLINE
  5
4AB
100
AcDbEntity
  8
0
100
AcDbSpline
 62
7
  6
CONTINUOUS
 70
0
 71
3
 72
9
 73
5
 74
3
 42
0.0000001
 43
0.0000001
 44
0.0000000001
 12
-0.0829538834
 22
0.0479340569
 32
0.0
 13
-0.0851104014
 23
-0.0439913643
 33
0.0
 40
0.0
 40
0.0
 40
0.0
 40
0.0
 40
0.4536529699
 40
1.0
 40
1.0
 40
1.0
 40
1.0
 10
-14.1305074571
 20
34.8076726509
 30
0.0
 10
-14.1430515489
 20
34.8149211267
 30
0.0
 10
-14.1766341285
 20
34.820956591
 30
0.0
 10
-14.2076226111
 20
34.809832012
 30
0.0
 10
-14.2231225495
 20
34.8018204949
 30
0.0
 11
-14.1305074571
 21
34.8076726509
 31
0.0
 11
-14.172987355
 21
34.8168655849
 31
0.0
 11
-14.2231225495
 21
34.8018204949
 31
0.0
  0
SPLINE
  5
4AC
100
AcDbEntity
  8
0
100
AcDbSpline
 62
7
  6
CONTINUOUS
 70
0
 71
3
 72
11
 73
7
 74
5
 42
0.0000001
 43
0.0000001
 44
0.0000000001
 12
0.1363216183
 22
0.0787103206
 32
0.0
 13
0.1363215866
 23
-0.0787103756
 33
0.0
 40
0.0
 40
0.0
 40
0.0
 40
0.0
 40
0.2177804588
 40
0.4509077062
 40
0.7102936033
 40
1.0
 40
1.0
 40
1.0
 40
1.0
 10
-5.8952497627
 20
-44.598366141
 30
0.0
 10
-5.8853537012
 20
-44.5926522844
 30
0.0
 10
-5.86261518
 20
-44.5844003571
 30
0.0
 10
-5.8248469654
 20
-44.5834457253
 30
0.0
 10
-5.7845950055
 20
-44.5931677448
 30
0.0
 10
-5.758407009
 20
-44.6056275755
 30
0.0
 10
-5.7452425971
 20
-44.6132285419
 30
0.0
 11
-5.8952497627
 21
-44.598366141
 31
0.0
 11
-5.8631004305
 21
-44.5864647901
 31
0.0
 11
-5.8264323499
 21
-44.5850008262
 31
0.0
 11
-5.7866166368
 21
-44.5940484292
 31
0.0
 11
-5.7452425971
 21
-44.6132285419
 31
0.0
  0
SPLINE
  5
4AD
100
AcDbEntity
  8
0
100
AcDbSpline
 62
7
  6
CONTINUOUS
 70
0
 71
3
 72
11
 73
7
 74
5
 42
0.0000001
 43
0.0000001
 44
0.0000000001
 12
-0.1363196965
 22
0.0787129589
 32
0.0
 13
-0.1363212878
 23
-0.078710203
 33
0.0
 40
0.0
 40
0.0
 40
0.0
 40
0.0
 40
0.2177888999
 40
0.4509247687
 40
0.7103008337
 40
1.0
 40
1.0
 40
1.0
 40
1.0
 10
-15.5034027887
 20
-37.6526907128
 30
0.0
 10
-15.5132990943
 20
-37.6469764432
 30
0.0
 10
-15.5360388457
 20
-37.6387249662
 30
0.0
 10
-15.5738072025
 20
-37.6377710429
 30
0.0
 10
-15.6140588233
 20
-37.6474923064
 30
0.0
 10
-15.6402456093
 20
-37.6599525161
 30
0.0
 10
-15.6534096638
 20
-37.6675532762
 30
0.0
 11
-15.5034027887
 21
-37.6526907128
 31
0.0
 11
-15.5355534629
 21
-37.6407893758
 31
0.0
 11
-15.5722228449
 21
-37.6393260052
 31
0.0
 11
-15.6120369717
 21
-37.6483732005
 31
0.0
 11
-15.6534096638
 21
-37.6675532762
 31
0.0
  0
SPLINE
  5
4AE
100
AcDbEntity
  8
0
100
AcDbSpline
 62
7
  6
CONTINUOUS
 70
0
 71
3
 72
11
 73
7
 74
5
 42
0.0000001
 43
0.0000001
 44
0.0000000001
 12
-0.0000113246
 22
-0.1531790499
 32
0.0
 13
-0.1314714709
 23
-0.078607085
 33
0.0
 40
0.0
 40
0.0
 40
0.0
 40
0.0
 40
0.2187656241
 40
0.4523171593
 40
0.7113239091
 40
1.0
 40
1.0
 40
1.0
 40
1.0
 10
-15.3534097048
 20
-37.912494779
 30
0.0
 10
-15.3534105306
 20
-37.9236648825
 30
0.0
 10
-15.3574314992
 20
-37.9469098346
 30
0.0
 10
-15.3746809232
 20
-37.9794188072
 30
0.0
 10
-15.4020177572
 20
-38.0089457758
 30
0.0
 10
-15.4249568336
 20
-38.025256475
 30
0.0
 10
-15.4376077237
 20
-38.0328204703
 30
0.0
 11
-15.3534097048
 21
-37.912494779
 31
0.0
 11
-15.3589252586
 21
-37.945548063
 31
0.0
 11
-15.3752532301
 21
-37.9773798466
 31
0.0
 11
-15.4018237611
 21
-38.0068427985
 31
0.0
 11
-15.4376077237
 21
-38.0328204703
 31
0.0
  0
SPLINE
  5
4AF
100
AcDbEntity
  8
0
100
AcDbSpline
 62
7
  6
CONTINUOUS
 70
0
 71
3
 72
9
 73
5
 74
3
 42
0.0000001
 43
0.0000001
 44
0.0000000001
 12
0.0000323393
 22
-0.0958059031
 32
0.0
 13
-0.0806486366
 23
-0.0517162404
 33
0.0
 40
0.0
 40
0.0
 40
0.0
 40
0.0
 40
0.4536675455
 40
1.0
 40
1.0
 40
1.0
 40
1.0
 10
-2.108556894
 20
13.9850379398
 30
0.0
 10
-2.1085520035
 20
13.9705499302
 30
0.0
 10
-2.1201148175
 20
13.9384493535
 30
0.0
 10
-2.1452412539
 20
13.9171731632
 30
0.0
 10
-2.1599282431
 20
13.9077550764
 30
0.0
 11
-2.108556894
 21
13.9850379398
 31
0.0
 11
-2.121834937
 21
13.9436517634
 31
0.0
 11
-2.1599282431
 21
13.9077550764
 31
0.0
  0
SPLINE
  5
4B0
100
AcDbEntity
  8
0
100
AcDbSpline
 62
7
  6
CONTINUOUS
 70
0
 71
3
 72
11
 73
7
 74
5
 42
0.0000001
 43
0.0000001
 44
0.0000000001
 12
0.0000097437
 22
-0.153194492
 32
0.0
 13
-0.1314847245
 23
-0.0786150093
 33
0.0
 40
0.0
 40
0.0
 40
0.0
 40
0.0
 40
0.218757533
 40
0.4522985233
 40
0.7113142485
 40
1.0
 40
1.0
 40
1.0
 40
1.0
 10
-16.3848858632
 20
-30.1319398931
 30
0.0
 10
-16.3848851527
 20
-30.1431107094
 30
0.0
 10
-16.388902499
 20
-30.1663577409
 30
0.0
 10
-16.406150372
 20
-30.1988715459
 30
0.0
 10
-16.4334897024
 20
-30.2284024107
 30
0.0
 10
-16.4564312649
 20
-30.2447161785
 30
0.0
 10
-16.4690838538
 20
-30.2522811895
 30
0.0
 11
-16.3848858632
 21
-30.1319398931
 31
0.0
 11
-16.3903969527
 21
-30.1649960898
 31
0.0
 11
-16.4067226677
 21
-30.1968312684
 31
0.0
 11
-16.4332956625
 21
-30.2262992356
 31
0.0
 11
-16.4690838538
 21
-30.2522811895
 31
0.0
  0
SPLINE
  5
4B1
100
AcDbEntity
  8
0
100
AcDbSpline
 62
7
  6
CONTINUOUS
 70
0
 71
3
 72
11
 73
7
 74
5
 42
0.0000001
 43
0.0000001
 44
0.0000000001
 12
0.1314847245
 22
0.0786150093
 32
0.0
 13
-0.0000097437
 23
0.153194492
 33
0.0
 40
0.0
 40
0.0
 40
0.0
 40
0.0
 40
0.2886857515
 40
0.5477014767
 40
0.781242467
 40
1.0
 40
1.0
 40
1.0
 40
1.0
 10
-16.4690838538
 20
27.7171084628
 30
0.0
 10
-16.4564312649
 20
27.7246734738
 30
0.0
 10
-16.4334897024
 20
27.7409872416
 30
0.0
 10
-16.406150372
 20
27.7705181064
 30
0.0
 10
-16.388902499
 20
27.8030319114
 30
0.0
 10
-16.3848851527
 20
27.8262789429
 30
0.0
 10
-16.3848858632
 20
27.8374497592
 30
0.0
 11
-16.4690838538
 21
27.7171084628
 31
0.0
 11
-16.4332956625
 21
27.7430904167
 31
0.0
 11
-16.4067226677
 21
27.7725583838
 31
0.0
 11
-16.3903969527
 21
27.8043935625
 31
0.0
 11
-16.3848858632
 21
27.8374497592
 31
0.0
  0
SPLINE
  5
4B2
100
AcDbEntity
  8
0
100
AcDbSpline
 62
7
  6
CONTINUOUS
 70
0
 71
3
 72
11
 73
7
 74
5
 42
0.0000001
 43
0.0000001
 44
0.0000000001
 12
0.1338225329
 22
0.0745702972
 32
0.0
 13
0.132665165
 23
-0.0766104009
 33
0.0
 40
0.0
 40
0.0
 40
0.0
 40
0.0
 40
0.288696822
 40
0.5477157562
 40
0.7812521861
 40
1.0
 40
1.0
 40
1.0
 40
1.0
 10
-9.4184956448
 20
-42.4642581779
 30
0.0
 10
-9.4056175982
 20
-42.4570821087
 30
0.0
 10
-9.3800183838
 20
-42.4453689871
 30
0.0
 10
-9.3407737347
 20
-42.4364552353
 30
0.0
 10
-9.3039919301
 20
-42.437773385
 30
0.0
 10
-9.2818509663
 20
-42.445917626
 30
0.0
 10
-9.2721775613
 20
-42.4515037453
 30
0.0
 11
-9.4184956448
 21
-42.4642581779
 31
0.0
 11
-9.3780994802
 21
-42.4462523349
 31
0.0
 11
-9.3392924308
 21
-42.4379710014
 31
0.0
 11
-9.3035596361
 21
-42.4397487121
 31
0.0
 11
-9.2721775613
 21
-42.4515037453
 31
0.0
  0
SPLINE
  5
4B3
100
AcDbEntity
  8
RACCORDO
100
AcDbSpline
 62
7
  6
CONTINUOUS
 70
0
 71
3
 72
11
 73
7
 74
5
 42
0.0000001
 43
0.0000001
 44
0.0000000001
 12
-0.1363215866
 22
0.0787103756
 32
0.0
 13
-0.1363216183
 23
-0.0787103206
 33
0.0
 40
0.0
 40
0.0
 40
0.0
 40
0.0
 40
0.2897063967
 40
0.5490922938
 40
0.7822195412
 40
1.0
 40
1.0
 40
1.0
 40
1.0
 10
-5.7452425971
 20
13.3561611104
 30
0.0
 10
-5.758407009
 20
13.3637620768
 30
0.0
 10
-5.7845950055
 20
13.3762219075
 30
0.0
 10
-5.8248469654
 20
13.385943927
 30
0.0
 10
-5.86261518
 20
13.3849892952
 30
0.0
 10
-5.8853537012
 20
13.3767373679
 30
0.0
 10
-5.8952497627
 20
13.3710235113
 30
0.0
 11
-5.7452425971
 21
13.3561611104
 31
0.0
 11
-5.7866166368
 21
13.375341223
 31
0.0
 11
-5.8264323499
 21
13.3843888261
 31
0.0
 11
-5.8631004305
 21
13.3829248622
 31
0.0
 11
-5.8952497627
 21
13.3710235113
 31
0.0
  0
SPLINE
  5
4B4
100
AcDbEntity
  8
RACCORDO
100
AcDbSpline
 62
7
  6
CONTINUOUS
 70
0
 71
3
 72
11
 73
7
 74
5
 42
0.0000001
 43
0.0000001
 44
0.0000000001
 12
-0.0464961916
 22
0.4013114562
 32
0.0
 13
-0.3498651772
 23
0.2020077685
 33
0.0
 40
0.0
 40
0.0
 40
0.0
 40
0.0
 40
0.2455415948
 40
0.5082744478
 40
0.7665682291
 40
1.0
 40
1.0
 40
1.0
 40
1.0
 10
5.0713375689
 20
6.9006279149
 30
0.0
 10
5.0675319859
 20
6.9334741333
 30
0.0
 10
5.0501070315
 20
7.0004620382
 30
0.0
 10
5.0035789826
 20
7.0933382348
 30
0.0
 10
4.940623694
 20
7.1739053409
 30
0.0
 10
4.8885823366
 20
7.2163238668
 30
0.0
 10
4.8613591207
 20
7.2320422105
 30
0.0
 11
5.0713375689
 21
6.9006279149
 31
0.0
 11
5.0475632091
 21
6.9969346566
 31
0.0
 11
5.00029579
 21
7.0919721915
 31
0.0
 11
4.9355113258
 21
7.1737757637
 31
0.0
 11
4.8613591207
 21
7.2320422105
 31
0.0
  0
SPLINE
  5
4B5
100
AcDbEntity
  8
RACCORDO
100
AcDbSpline
 62
7
  6
CONTINUOUS
 70
0
 71
3
 72
11
 73
7
 74
5
 42
0.0000001
 43
0.0000001
 44
0.0000000001
 12
-0.0464961916
 22
0.4013114562
 32
0.0
 13
-0.3498651772
 23
0.2020077685
 33
0.0
 40
0.0
 40
0.0
 40
0.0
 40
0.0
 40
0.2455415948
 40
0.5082744478
 40
0.7665682291
 40
1.0
 40
1.0
 40
1.0
 40
1.0
 10
-10.8385650078
 20
16.0868062648
 30
0.0
 10
-10.8423705908
 20
16.1196524831
 30
0.0
 10
-10.8597955452
 20
16.1866403881
 30
0.0
 10
-10.9063235941
 20
16.2795165847
 30
0.0
 10
-10.9692788826
 20
16.3600836908
 30
0.0
 10
-11.0213202401
 20
16.4025022166
 30
0.0
 10
-11.048543456
 20
16.4182205604
 30
0.0
 11
-10.8385650078
 21
16.0868062648
 31
0.0
 11
-10.8623393676
 21
16.1831130065
 31
0.0
 11
-10.9096067867
 21
16.2781505413
 31
0.0
 11
-10.9743912509
 21
16.3599541135
 31
0.0
 11
-11.048543456
 21
16.4182205604
 31
0.0
  0
SPLINE
  5
4B6
100
AcDbEntity
  8
0
100
AcDbSpline
 62
7
  6
CONTINUOUS
 70
0
 71
3
 72
11
 73
7
 74
5
 42
0.0000001
 43
0.0000001
 44
0.0000000001
 12
0.0
 22
0.4402681283
 32
0.0
 13
-0.3845332044
 23
0.2144067152
 33
0.0
 40
0.0
 40
0.0
 40
0.0
 40
0.0
 40
0.2366864372
 40
0.4988945121
 40
0.7617051275
 40
1.0
 40
1.0
 40
1.0
 40
1.0
 10
-15.4376077237
 20
-38.0328204703
 30
0.0
 10
-15.4376077236
 20
-37.9980853054
 30
0.0
 10
-15.4508743349
 20
-37.9248166719
 30
0.0
 10
-15.4971889033
 20
-37.822132369
 30
0.0
 10
-15.5649488797
 20
-37.7318488586
 30
0.0
 10
-15.6228655668
 20
-37.6845839498
 30
0.0
 10
-15.6534096638
 20
-37.6675532762
 30
0.0
 11
-15.4376077237
 21
-38.0328204703
 31
0.0
 11
-15.4540372774
 21
-37.9299183086
 31
0.0
 11
-15.5008146484
 21
-37.8243782677
 31
0.0
 11
-15.570820082
 21
-37.7322512847
 31
0.0
 11
-15.6534096638
 21
-37.6675532762
 31
0.0
  0
SPLINE
  5
4B7
100
AcDbEntity
  8
0
100
AcDbSpline
 62
7
  6
CONTINUOUS
 70
0
 71
3
 72
11
 73
7
 74
5
 42
0.0000001
 43
0.0000001
 44
0.0000000001
 12
0.0514969358
 22
0.029447379
 32
0.0
 13
-0.05587741
 23
-0.0199197787
 33
0.0
 40
0.0
 40
0.0
 40
0.0
 40
0.0
 40
0.4549865686
 40
0.7690082257
 40
0.9453202531
 40
1.0
 40
1.0
 40
1.0
 40
1.0
 10
-14.1526056844
 20
-23.2082847115
 30
0.0
 10
-14.1447955464
 20
-23.2038186575
 30
0.0
 10
-14.1327454867
 20
-23.1966766255
 30
0.0
 10
-14.1133518906
 20
-23.1858606929
 30
0.0
 10
-14.1091441132
 20
-23.1828437081
 30
0.0
 10
-14.1002158354
 20
-23.1782557985
 30
0.0
 10
-14.1012342896
 20
-23.178618868
 30
0.0
 11
-14.1526056844
 21
-23.2082847115
 31
0.0
 11
-14.1292321693
 21
-23.1947875325
 31
0.0
 11
-14.1130998659
 21
-23.1854728071
 31
0.0
 11
-14.1040424256
 21
-23.1802424407
 31
0.0
 11
-14.1012342896
 21
-23.178618868
 31
0.0
  0
SPLINE
  5
4B8
100
AcDbEntity
  8
0
100
AcDbSpline
 62
7
  6
CONTINUOUS
 70
0
 71
3
 72
11
 73
7
 74
5
 42
0.0000001
 43
0.0000001
 44
0.0000000001
 12
0.3498651772
 22
-0.2020077685
 32
0.0
 13
0.0464961916
 23
-0.4013114562
 33
0.0
 40
0.0
 40
0.0
 40
0.0
 40
0.0
 40
0.2334317709
 40
0.4917255522
 40
0.7544584052
 40
1.0
 40
1.0
 40
1.0
 40
1.0
 10
-11.048543456
 20
-41.5511690919
 30
0.0
 10
-11.0213202401
 20
-41.5668874357
 30
0.0
 10
-10.9692788826
 20
-41.6093059615
 30
0.0
 10
-10.9063235941
 20
-41.6898730676
 30
0.0
 10
-10.8597955452
 20
-41.7827492642
 30
0.0
 10
-10.8423705908
 20
-41.8497371692
 30
0.0
 10
-10.8385650078
 20
-41.8825833875
 30
0.0
 11
-11.048543456
 21
-41.5511690919
 31
0.0
 11
-10.9743912509
 21
-41.6094355388
 31
0.0
 11
-10.9096067867
 21
-41.691239111
 31
0.0
 11
-10.8623393676
 21
-41.7862766458
 31
0.0
 11
-10.8385650078
 21
-41.8825833875
 31
0.0
  0
SPLINE
  5
4B9
100
AcDbEntity
  8
0
100
AcDbSpline
 62
7
  6
CONTINUOUS
 70
0
 71
3
 72
11
 73
7
 74
5
 42
0.0000001
 43
0.0000001
 44
0.0000000001
 12
0.3498651772
 22
-0.2020077685
 32
0.0
 13
0.0464961916
 23
-0.4013114562
 33
0.0
 40
0.0
 40
0.0
 40
0.0
 40
0.0
 40
0.2334317709
 40
0.4917255522
 40
0.7544584052
 40
1.0
 40
1.0
 40
1.0
 40
1.0
 10
4.8613591207
 20
-50.7373474418
 30
0.0
 10
4.8885823366
 20
-50.7530657855
 30
0.0
 10
4.940623694
 20
-50.7954843114
 30
0.0
 10
5.0035789826
 20
-50.8760514175
 30
0.0
 10
5.0501070315
 20
-50.9689276141
 30
0.0
 10
5.0675319859
 20
-51.035915519
 30
0.0
 10
5.0713375689
 20
-51.0687617374
 30
0.0
 11
4.8613591207
 21
-50.7373474418
 31
0.0
 11
4.9355113258
 21
-50.7956138886
 31
0.0
 11
5.00029579
 21
-50.8774174608
 31
0.0
 11
5.0475632091
 21
-50.9724549957
 31
0.0
 11
5.0713375689
 21
-51.0687617374
 31
0.0
  0
SPLINE
  5
4BA
100
AcDbEntity
  8
SMUSSO
100
AcDbSpline
 62
7
  6
CONTINUOUS
 70
0
 71
3
 72
11
 73
7
 74
5
 42
0.0000001
 43
0.0000001
 44
0.0000000001
 12
0.6347203352
 22
-0.3664795658
 32
0.0
 13
0.0000000006
 23
-0.7329237178
 33
0.0
 40
0.0
 40
0.0
 40
0.0
 40
0.0
 40
0.2372290199
 40
0.5000061065
 40
0.7627798696
 40
1.0
 40
1.0
 40
1.0
 40
1.0
 10
35.443727407
 20
49.9525060032
 30
0.0
 10
35.493918768
 20
49.9235261405
 30
0.0
 10
35.5889070209
 20
49.8435825325
 30
0.0
 10
35.6997696999
 20
49.6920792989
 30
0.0
 10
35.7755433984
 20
49.5203199016
 30
0.0
 10
35.7972807975
 20
49.3980883215
 30
0.0
 10
35.7972807976
 20
49.3401335682
 30
0.0
 11
35.443727407
 21
49.9525060032
 31
0.0
 11
35.579029836
 21
49.8433075638
 31
0.0
 11
35.6937262333
 21
49.6885891554
 31
0.0
 11
35.770366881
 21
49.511902081
 31
0.0
 11
35.7972807976
 21
49.3401335682
 31
0.0
  0
SPLINE
  5
4BB
100
AcDbEntity
  8
DRAFT
100
AcDbSpline
 62
7
  6
CONTINUOUS
 70
0
 71
3
 72
9
 73
5
 74
3
 42
0.0000001
 43
0.0000001
 44
0.0000000001
 12
0.3438762518
 22
-0.0395650435
 32
0.0
 13
0.3033873767
 23
0.1666504393
 33
0.0
 40
0.0
 40
0.0
 40
0.0
 40
0.0
 40
0.5179153145
 40
1.0
 40
1.0
 40
1.0
 40
1.0
 10
33.4286328316
 20
-86.4966960885
 30
0.0
 10
33.4879990906
 20
-86.5035265358
 30
0.0
 10
33.6051510344
 20
-86.5027072178
 30
0.0
 10
33.716763625
 20
-86.4648225736
 30
0.0
 10
33.7655164277
 20
-86.4380426988
 30
0.0
 11
33.4286328316
 21
-86.4966960885
 31
0.0
 11
33.6078628068
 21
-86.4927355962
 31
0.0
 11
33.7655164277
 21
-86.4380426988
 31
0.0
  0
SPLINE
  5
4BC
100
AcDbEntity
  8
DRAFT
100
AcDbSpline
 62
7
  6
CONTINUOUS
 70
0
 71
3
 72
11
 73
7
 74
5
 42
0.0000001
 43
0.0000001
 44
0.0000000001
 12
0.6819913037
 22
0.4134064172
 32
0.0
 13
0.6906834833
 23
-0.3987145973
 33
0.0
 40
0.0
 40
0.0
 40
0.0
 40
0.0
 40
0.2178260973
 40
0.4506758744
 40
0.7097940858
 40
1.0
 40
1.0
 40
1.0
 40
1.0
 10
-31.2885568364
 20
88.1133191782
 30
0.0
 10
-31.2390383351
 20
88.1433360803
 30
0.0
 10
-31.1246135888
 20
88.1873539639
 30
0.0
 10
-30.9333324159
 20
88.1942710017
 30
0.0
 10
-30.7290771415
 20
88.1461220415
 30
0.0
 10
-30.5962511629
 20
88.0830755523
 30
0.0
 10
-30.5294376857
 20
88.0445057742
 30
0.0
 11
-31.2885568364
 21
88.1133191782
 31
0.0
 11
-31.1267864367
 21
88.1766295667
 31
0.0
 11
-30.9413317272
 21
88.1861568203
 31
0.0
 11
-30.7395590698
 21
88.1415316502
 31
0.0
 11
-30.5294376857
 21
88.0445057742
 31
0.0
  0
SPLINE
  5
4BD
100
AcDbEntity
  8
DRAFT
100
AcDbSpline
 62
7
  6
CONTINUOUS
 70
0
 71
3
 72
9
 73
5
 74
3
 42
0.0000001
 43
0.0000001
 44
0.0000000001
 12
-0.2959752657
 22
-0.1794129537
 32
0.0
 13
-0.1376577121
 23
-0.3175542791
 33
0.0
 40
0.0
 40
0.0
 40
0.0
 40
0.0
 40
0.4820877505
 40
1.0
 40
1.0
 40
1.0
 40
1.0
 10
-32.9586474356
 20
87.100826224
 30
0.0
 10
-33.0062094523
 20
87.0719952949
 30
0.0
 10
-33.0948119825
 20
86.9942836998
 30
0.0
 10
-33.1540900613
 20
86.893247411
 30
0.0
 10
-33.1778549331
 20
86.8384256607
 30
0.0
 11
-32.9586474356
 21
87.100826224
 31
0.0
 11
-33.0848225866
 21
86.9916468193
 31
0.0
 11
-33.1778549331
 21
86.8384256607
 31
0.0
  0
SPLINE
  5
4BE
100
AcDbEntity
  8
DRAFT
100
AcDbSpline
 62
7
  6
CONTINUOUS
 70
0
 71
3
 72
11
 73
7
 74
5
 42
0.0000001
 43
0.0000001
 44
0.0000000001
 12
0.0
 22
-0.7975067341
 32
0.0
 13
-0.6989948392
 23
-0.3839572968
 33
0.0
 40
0.0
 40
0.0
 40
0.0
 40
0.0
 40
0.2902057614
 40
0.5493240508
 40
0.7821738624
 40
1.0
 40
1.0
 40
1.0
 40
1.0
 10
35.7972807976
 20
-84.8060118187
 30
0.0
 10
35.7972807976
 20
-84.8831588351
 30
0.0
 10
35.7854757915
 20
-85.0297133854
 30
0.0
 10
35.7250576202
 20
-85.2306814874
 30
0.0
 10
35.6234357033
 20
-85.3928830102
 30
0.0
 10
35.5281070034
 20
-85.4699741317
 30
0.0
 10
35.4773538881
 20
-85.4978527767
 30
0.0
 11
35.7972807976
 21
-84.8060118187
 31
0.0
 11
35.7762598411
 21
-85.0364962619
 31
0.0
 11
35.7140310216
 21
-85.2335526243
 31
0.0
 11
35.6130614869
 21
-85.3894031309
 31
0.0
 11
35.4773538881
 21
-85.4978527767
 31
0.0
  0
SPLINE
  5
4BF
100
AcDbEntity
  8
DRAFT
100
AcDbSpline
 62
7
  6
CONTINUOUS
 70
0
 71
3
 72
11
 73
7
 74
5
 42
0.0000001
 43
0.0000001
 44
0.0000000001
 12
0.6795403605
 22
0.3732709674
 32
0.0
 13
-0.0000000006
 23
0.7753104647
 33
0.0
 40
0.0
 40
0.0
 40
0.0
 40
0.0
 40
0.2178261375
 40
0.4506759491
 40
0.7097942385
 40
1.0
 40
1.0
 40
1.0
 40
1.0
 10
33.7655164277
 20
-86.4380426988
 30
0.0
 10
33.8148569783
 20
-86.4109399744
 30
0.0
 10
33.9075324824
 20
-86.3359944589
 30
0.0
 10
34.0063260501
 20
-86.1783073415
 30
0.0
 10
34.065062658
 20
-85.9829325992
 30
0.0
 10
34.0765391062
 20
-85.8404569665
 30
0.0
 10
34.0765391061
 20
-85.7654571119
 30
0.0
 11
33.7655164277
 21
-86.4380426988
 31
0.0
 11
33.897447002
 21
-86.3326114319
 31
0.0
 11
33.9956063447
 21
-86.1810985687
 31
0.0
 11
34.0561032067
 21
-85.9895266943
 31
0.0
 11
34.0765391061
 21
-85.7654571119
 31
0.0
  0
SPLINE
  5
4C0
100
AcDbEntity
  8
DRAFT
100
AcDbSpline
 62
7
  6
CONTINUOUS
 70
0
 71
3
 72
11
 73
7
 74
5
 42
0.0000001
 43
0.0000001
 44
0.0000000001
 12
-0.6715266968
 22
0.3877310985
 32
0.0
 13
-0.6631077749
 23
-0.4019596848
 33
0.0
 40
0.0
 40
0.0
 40
0.0
 40
0.0
 40
0.29021135
 40
0.5493317035
 40
0.7821792397
 40
1.0
 40
1.0
 40
1.0
 40
1.0
 10
-32.2205565914
 20
87.0338705623
 30
0.0
 10
-32.2855181478
 20
87.0713785508
 30
0.0
 10
-32.4146631417
 20
87.1326907957
 30
0.0
 10
-32.6132608051
 20
87.1795219133
 30
0.0
 10
-32.7992450567
 20
87.1728073217
 30
0.0
 10
-32.9105012224
 20
87.1300112787
 30
0.0
 10
-32.9586474356
 20
87.100826224
 30
0.0
 11
-32.2205565914
 21
87.0338705623
 31
0.0
 11
-32.4248561243
 21
87.1282282751
 31
0.0
 11
-32.6210403963
 21
87.171632481
 31
0.0
 11
-32.8013588509
 21
87.1623788725
 31
0.0
 11
-32.9586474356
 21
87.100826224
 31
0.0
  0
SPLINE
  5
4C1
100
AcDbEntity
  8
DRAFT
100
AcDbSpline
 62
7
  6
CONTINUOUS
 70
0
 71
3
 72
13
 73
9
 74
7
 42
0.0000001
 43
0.0000001
 44
0.0000000001
 12
1.906476505
 22
-1.1007756402
 32
0.0
 13
0.0000000017
 23
-2.201444906
 33
0.0
 40
0.0
 40
0.0
 40
0.0
 40
0.0
 40
0.1142615678
 40
0.2375406576
 40
0.5000060651
 40
0.7624681526
 40
0.8857433662
 40
1.0
 40
1.0
 40
1.0
 40
1.0
 10
34.7366206258
 20
50.3607016867
 30
0.0
 10
34.8092329572
 20
50.3187762366
 30
0.0
 10
34.9526698677
 20
50.2182400256
 30
0.0
 10
35.2211742657
 20
49.9668916841
 30
0.0
 10
35.5048321965
 20
49.5794705536
 30
0.0
 10
35.6985194389
 20
49.1401076284
 30
0.0
 10
35.7819362234
 20
48.7819096909
 30
0.0
 10
35.7972807975
 20
48.6074276108
 30
0.0
 10
35.7972807976
 20
48.5235843826
 30
0.0
 11
34.7366206258
 21
50.3607016867
 31
0.0
 11
34.9435510967
 21
50.217689706
 31
0.0
 11
35.1425147658
 21
50.0331168382
 31
0.0
 11
35.4866187474
 21
49.5689520917
 31
0.0
 11
35.7165415411
 21
49.0388733003
 31
0.0
 11
35.776900034
 21
48.7742870085
 31
0.0
 11
35.7972807976
 21
48.5235843826
 31
0.0
  0
SPLINE
  5
4C2
100
AcDbEntity
  8
DRAFT
100
AcDbSpline
 62
7
  6
CONTINUOUS
 70
0
 71
3
 72
13
 73
9
 74
7
 42
0.0000001
 43
0.0000001
 44
0.0000000001
 12
0.0
 22
2.1401741193
 32
0.0
 13
-1.8534153028
 23
1.0701387651
 33
0.0
 40
0.0
 40
0.0
 40
0.0
 40
0.0
 40
0.1142566338
 40
0.2375318474
 40
0.4999939349
 40
0.7624593424
 40
0.8857384323
 40
1.0
 40
1.0
 40
1.0
 40
1.0
 10
34.0765391061
 20
47.5641390872
 30
0.0
 10
34.0765391061
 20
47.6456487841
 30
0.0
 10
34.0616216035
 20
47.8152746653
 30
0.0
 10
33.9805264815
 20
48.1635032098
 30
0.0
 10
33.7922299576
 20
48.5906377518
 30
0.0
 10
33.5164668165
 20
48.9672761471
 30
0.0
 10
33.2554354538
 20
49.2116289418
 30
0.0
 10
33.1159906906
 20
49.3093670211
 30
0.0
 10
33.0453993112
 20
49.3501255987
 30
0.0
 11
34.0765391061
 21
47.5641390872
 31
0.0
 11
34.0567255817
 21
47.807864138
 31
0.0
 11
33.9980469912
 21
48.0650864434
 31
0.0
 11
33.7745234267
 21
48.5804120405
 31
0.0
 11
33.439996574
 21
49.0316581176
 31
0.0
 11
33.2465704771
 21
49.2110939388
 31
0.0
 11
33.0453993112
 21
49.3501255987
 31
0.0
  0
SPLINE
  5
4C3
100
AcDbEntity
  8
SMUSSO
100
AcDbSpline
 62
7
  6
CONTINUOUS
 70
0
 71
3
 72
11
 73
7
 74
5
 42
0.0000001
 43
0.0000001
 44
0.0000000001
 12
0.4543432762
 22
0.2623322692
 32
0.0
 13
0.4543654381
 23
-0.2622938825
 33
0.0
 40
0.0
 40
0.0
 40
0.0
 40
0.0
 40
0.2177724706
 40
0.450951523
 40
0.7102005355
 40
1.0
 40
1.0
 40
1.0
 40
1.0
 10
-33.8224312236
 20
86.9712287514
 30
0.0
 10
-33.789450071
 20
86.9902716669
 30
0.0
 10
-33.713664518
 20
87.0177983116
 30
0.0
 10
-33.58780272
 20
87.0209549818
 30
0.0
 10
-33.4536367129
 20
86.9886063356
 30
0.0
 10
-33.3663670176
 20
86.9470645673
 30
0.0
 10
-33.3224753974
 20
86.921727025
 30
0.0
 11
-33.8224312236
 21
86.9712287514
 31
0.0
 11
-33.7152900535
 21
87.0109058378
 31
0.0
 11
-33.5930524612
 21
87.015782084
 31
0.0
 11
-33.4604154671
 21
86.9856701678
 31
0.0
 11
-33.3224753974
 21
86.921727025
 31
0.0
  0
SPLINE
  5
4C4
100
AcDbEntity
  8
SMUSSO
100
AcDbSpline
 62
7
  6
CONTINUOUS
 70
0
 71
3
 72
11
 73
7
 74
5
 42
0.0000001
 43
0.0000001
 44
0.0000000001
 12
-0.4543432729
 22
-0.2623322661
 32
0.0
 13
-0.0000000005
 23
-0.5246389496
 33
0.0
 40
0.0
 40
0.0
 40
0.0
 40
0.0
 40
0.2177725184
 40
0.4509516035
 40
0.7102007611
 40
1.0
 40
1.0
 40
1.0
 40
1.0
 10
-35.5901981765
 20
85.9505422681
 30
0.0
 10
-35.6231793361
 20
85.9314993487
 30
0.0
 10
-35.6849080112
 20
85.8796270233
 30
0.0
 10
-35.7505666944
 20
85.7722021376
 30
0.0
 10
-35.7896275072
 20
85.639834463
 30
0.0
 10
-35.7972807975
 20
85.5434853964
 30
0.0
 10
-35.7972807976
 20
85.4928054069
 30
0.0
 11
-35.5901981765
 21
85.9505422681
 31
0.0
 11
-35.6781260711
 21
85.8775889106
 31
0.0
 11
-35.7434620546
 21
85.7741625119
 31
0.0
 11
-35.7836956136
 21
85.6442372224
 31
0.0
 11
-35.7972807976
 21
85.4928054069
 31
0.0
  0
SPLINE
  5
4C5
100
AcDbEntity
  8
SMUSSO
100
AcDbSpline
 62
7
  6
CONTINUOUS
 70
0
 71
3
 72
11
 73
7
 74
5
 42
0.0000001
 43
0.0000001
 44
0.0000000001
 12
0.6347203376
 22
-0.3664795688
 32
0.0
 13
0.0000000002
 23
-0.7329237214
 33
0.0
 40
0.0
 40
0.0
 40
0.0
 40
0.0
 40
0.2372289802
 40
0.5000061088
 40
0.7627799118
 40
1.0
 40
1.0
 40
1.0
 40
1.0
 10
33.07491969
 20
48.5847427152
 30
0.0
 10
33.1251110428
 20
48.5557628571
 30
0.0
 10
33.2200992977
 20
48.4758192521
 30
0.0
 10
33.3309619989
 20
48.3243160187
 30
0.0
 10
33.4067356852
 20
48.1525566026
 30
0.0
 10
33.4284730806
 20
48.0303250234
 30
0.0
 10
33.4284730806
 20
47.9723702801
 30
0.0
 11
33.07491969
 21
48.5847427152
 31
0.0
 11
33.2102221009
 21
48.4755442983
 31
0.0
 11
33.324918526
 21
48.320825871
 31
0.0
 11
33.401559175
 21
48.1441387642
 31
0.0
 11
33.4284730806
 21
47.9723702801
 31
0.0
  0
SPLINE
  5
4C6
100
AcDbEntity
  8
SMUSSO
100
AcDbSpline
 62
7
  6
CONTINUOUS
 70
0
 71
3
 72
11
 73
7
 74
5
 42
0.0000001
 43
0.0000001
 44
0.0000000001
 12
0.4544112742
 22
-0.2623713718
 32
0.0
 13
0.454411206
 23
0.2623714899
 33
0.0
 40
0.0
 40
0.0
 40
0.0
 40
0.0
 40
0.2898047904
 40
0.5490559774
 40
0.7822328292
 40
1.0
 40
1.0
 40
1.0
 40
1.0
 10
30.9535993464
 20
-88.0924999847
 30
0.0
 10
30.9974962011
 20
-88.1178454782
 30
0.0
 10
31.0847767757
 20
-88.1594011665
 30
0.0
 10
31.2189614217
 20
-88.1917649865
 30
0.0
 10
31.3448415762
 20
-88.188615169
 30
0.0
 10
31.4206382257
 20
-88.1610864614
 30
0.0
 10
31.4536235066
 20
-88.1420411624
 30
0.0
 11
30.9535993464
 21
-88.0924999847
 31
0.0
 11
31.0915573825
 21
-88.1564650634
 31
0.0
 11
31.224213133
 21
-88.186591366
 31
0.0
 11
31.3464681096
 21
-88.1817210115
 31
0.0
 11
31.4536235066
 21
-88.1420411624
 31
0.0
  0
SPLINE
  5
4C7
100
AcDbEntity
  8
SMUSSO
100
AcDbSpline
 62
7
  6
CONTINUOUS
 70
0
 71
3
 72
11
 73
7
 74
5
 42
0.0000001
 43
0.0000001
 44
0.0000000001
 12
-0.0000000005
 22
-0.5246389496
 32
0.0
 13
-0.4543432724
 23
-0.262332267
 33
0.0
 40
0.0
 40
0.0
 40
0.0
 40
0.0
 40
0.289799239
 40
0.5490483965
 40
0.7822274816
 40
1.0
 40
1.0
 40
1.0
 40
1.0
 10
33.4284730806
 20
-86.663617818
 30
0.0
 10
33.4284730805
 20
-86.7142978074
 30
0.0
 10
33.4208197902
 20
-86.810646874
 30
0.0
 10
33.3817589775
 20
-86.9430145487
 30
0.0
 10
33.3161002942
 20
-87.0504394344
 30
0.0
 10
33.2543716191
 20
-87.1023117596
 30
0.0
 10
33.2213904595
 20
-87.1213546791
 30
0.0
 11
33.4284730806
 21
-86.663617818
 31
0.0
 11
33.4148878966
 21
-86.8150496335
 31
0.0
 11
33.3746543377
 21
-86.9449749229
 31
0.0
 11
33.3093183541
 21
-87.0484013216
 31
0.0
 11
33.2213904595
 21
-87.1213546791
 31
0.0
  0
SPLINE
  5
4C8
100
AcDbEntity
  8
SMUSSO
100
AcDbSpline
 62
7
  6
CONTINUOUS
 70
0
 71
3
 72
11
 73
7
 74
5
 42
0.0000001
 43
0.0000001
 44
0.0000000001
 12
0.4543432729
 22
0.2623322661
 32
0.0
 13
-0.0000000005
 23
0.5246389496
 33
0.0
 40
0.0
 40
0.0
 40
0.0
 40
0.0
 40
0.2177725184
 40
0.4509516035
 40
0.7102007611
 40
1.0
 40
1.0
 40
1.0
 40
1.0
 10
31.4536235066
 20
-88.1420411624
 30
0.0
 10
31.4866046662
 20
-88.122998243
 30
0.0
 10
31.5483333413
 20
-88.0711259177
 30
0.0
 10
31.6139920245
 20
-87.963701032
 30
0.0
 10
31.6530528373
 20
-87.8313333573
 30
0.0
 10
31.6607061277
 20
-87.7349842907
 30
0.0
 10
31.6607061276
 20
-87.6843043013
 30
0.0
 11
31.4536235066
 21
-88.1420411624
 31
0.0
 11
31.5415514011
 21
-88.0690878049
 31
0.0
 11
31.6068873847
 21
-87.9656614062
 31
0.0
 11
31.6471209437
 21
-87.8357361168
 31
0.0
 11
31.6607061276
 21
-87.6843043013
 31
0.0
  0
SPLINE
  5
4C9
100
AcDbEntity
  8
SMUSSO
100
AcDbSpline
 62
7
  6
CONTINUOUS
 70
0
 71
3
 72
11
 73
7
 74
5
 42
0.0000001
 43
0.0000001
 44
0.0000000001
 12
-0.4544112717
 22
0.262371376
 32
0.0
 13
-0.454411206
 23
-0.2623714899
 33
0.0
 40
0.0
 40
0.0
 40
0.0
 40
0.0
 40
0.2898047904
 40
0.5490559774
 40
0.7822328292
 40
1.0
 40
1.0
 40
1.0
 40
1.0
 10
-35.0901740164
 20
85.9010010904
 30
0.0
 10
-35.1340708708
 20
85.9263465843
 30
0.0
 10
-35.2213514457
 20
85.967902272
 30
0.0
 10
-35.3555360917
 20
86.0002660922
 30
0.0
 10
-35.4814162462
 20
85.9971162747
 30
0.0
 10
-35.5572128956
 20
85.9695875671
 30
0.0
 10
-35.5901981765
 20
85.9505422681
 30
0.0
 11
-35.0901740164
 21
85.9010010904
 31
0.0
 11
-35.2281320525
 21
85.964966169
 31
0.0
 11
-35.360787803
 21
85.9950924716
 31
0.0
 11
-35.4830427795
 21
85.9902221172
 31
0.0
 11
-35.5901981765
 21
85.9505422681
 31
0.0
  0
SPLINE
  5
4CA
100
AcDbEntity
  8
SMUSSO
100
AcDbSpline
 62
7
  6
CONTINUOUS
 70
0
 71
3
 72
11
 73
7
 74
5
 42
0.0000001
 43
0.0000001
 44
0.0000000001
 12
0.0000000068
 22
1.4658479709
 32
0.0
 13
-1.269441134
 23
0.7329593992
 33
0.0
 40
0.0
 40
0.0
 40
0.0
 40
0.0
 40
0.2372134473
 40
0.4999938932
 40
0.7627776631
 40
1.0
 40
1.0
 40
1.0
 40
1.0
 10
31.6607061276
 20
46.5434092035
 30
0.0
 10
31.6607061282
 20
46.6593154869
 30
0.0
 10
31.617230914
 20
46.9037780851
 30
0.0
 10
31.4656888457
 20
47.2473035013
 30
0.0
 10
31.2439550891
 20
47.550308665
 30
0.0
 10
31.0539792772
 20
47.7101959597
 30
0.0
 10
30.9535993464
 20
47.7681540736
 30
0.0
 11
31.6607061276
 21
46.5434092035
 31
0.0
 11
31.606880847
 21
46.8869368415
 31
0.0
 11
31.4535993464
 21
47.2403217326
 31
0.0
 11
31.2241973511
 21
47.5497640988
 31
0.0
 11
30.9535993464
 21
47.7681540736
 31
0.0
  0
SPLINE
  5
4CB
100
AcDbEntity
  8
SMUSSO
100
AcDbSpline
 62
7
  6
CONTINUOUS
 70
0
 71
3
 72
11
 73
7
 74
5
 42
0.0000001
 43
0.0000001
 44
0.0000000001
 12
1.2694411326
 22
-0.7329594017
 32
0.0
 13
0.0000000005
 23
-1.4658479709
 33
0.0
 40
0.0
 40
0.0
 40
0.0
 40
0.0
 40
0.2372223372
 40
0.5000061073
 40
0.7627865538
 40
1.0
 40
1.0
 40
1.0
 40
1.0
 10
32.7213662994
 20
48.7888405569
 30
0.0
 10
32.8217462302
 20
48.7308824428
 30
0.0
 10
33.0117220424
 20
48.5709951482
 30
0.0
 10
33.233455799
 20
48.2679899838
 30
0.0
 10
33.3849978675
 20
47.9244645677
 30
0.0
 10
33.4284730806
 20
47.6800019697
 30
0.0
 10
33.4284730806
 20
47.5640956868
 30
0.0
 11
32.7213662994
 21
48.7888405569
 31
0.0
 11
32.9919643043
 21
48.5704505819
 31
0.0
 11
33.2213662998
 21
48.2610082153
 31
0.0
 11
33.3746478004
 21
47.9076233233
 31
0.0
 11
33.4284730806
 21
47.5640956868
 31
0.0
  0
ELLIPSE
  5
4CC
100
AcDbEntity
  8
RACCORDO
100
AcDbEllipse
 62
7
  6
CONTINUOUS
 10
-20.877252316
 20
0.8646192144
 30
0.0
 11
-0.3501235233
 21
0.606392698
 31
0.0
 40
0.5771558487
 41
-0.7852941622
 42
0.0172857704
  0
ELLIPSE
  5
4CD
100
AcDbEntity
  8
RACCORDO
100
AcDbEllipse
 62
7
  6
CONTINUOUS
 10
15.3264640837
 20
-61.8420569476
 30
0.0
 11
-0.3501235233
 21
0.606392698
 31
0.0
 40
0.5771558487
 41
-3.1588791223
 42
-2.3563950755
  0
ELLIPSE
  5
4CE
100
AcDbEntity
  8
RACCORDO
100
AcDbEllipse
 62
7
  6
CONTINUOUS
 10
15.3264640837
 20
-20.0389528957
 30
0.0
 11
-0.3500169276
 21
0.6062080092
 31
0.0
 40
0.5775075436
 41
-2.3560905478
 42
-0.7855988075
  0
ELLIPSE
  5
4CF
100
AcDbEntity
  8
RACCORDO
100
AcDbEllipse
 62
7
  6
CONTINUOUS
 10
-17.4770115538
 20
-38.9754895229
 30
0.0
 11
-0.1500072547
 21
0.2598034325
 31
0.0
 40
0.5775075436
 41
0.7855021057
 42
2.355993846
  0
ELLIPSE
  5
4D0
100
AcDbEntity
  8
RACCORDO
100
AcDbEllipse
 62
7
  6
CONTINUOUS
 10
-16.4628772225
 20
-38.3899319326
 30
0.0
 11
-0.1500073079
 21
0.2598034018
 31
0.0
 40
0.5789151826
 41
0.7867191038
 42
2.3547763749
  0
ELLIPSE
  5
4D1
100
AcDbEntity
  8
RACCORDO
100
AcDbEllipse
 62
7
  6
CONTINUOUS
 10
-20.877252316
 20
58.8340088666
 30
0.0
 11
-0.3501235233
 21
0.606392698
 31
0.0
 40
0.5771558487
 41
-0.7852941622
 42
0.0172857704
  0
ELLIPSE
  5
4D2
100
AcDbEntity
  8
RACCORDO
100
AcDbEllipse
 62
7
  6
CONTINUOUS
 10
15.3264640837
 20
-3.8726672953
 30
0.0
 11
-0.3501235233
 21
0.606392698
 31
0.0
 40
0.5771558487
 41
-3.1588791223
 42
-2.3563950755
  0
ELLIPSE
  5
4D3
100
AcDbEntity
  8
RACCORDO
100
AcDbEllipse
 62
7
  6
CONTINUOUS
 10
15.3264640837
 20
37.9304367566
 30
0.0
 11
-0.3500169276
 21
0.6062080092
 31
0.0
 40
0.5775075436
 41
-2.3560905478
 42
-0.7855988075
  0
ELLIPSE
  5
4D4
100
AcDbEntity
  8
RACCORDO
100
AcDbEllipse
 62
7
  6
CONTINUOUS
 10
-17.4770115538
 20
18.9939001293
 30
0.0
 11
-0.1500072547
 21
0.2598034325
 31
0.0
 40
0.5775075436
 41
0.7855021057
 42
2.355993846
  0
ELLIPSE
  5
4D5
100
AcDbEntity
  8
RACCORDO
100
AcDbEllipse
 62
7
  6
CONTINUOUS
 10
-16.4628772225
 20
19.5794577197
 30
0.0
 11
-0.1500073079
 21
0.2598034018
 31
0.0
 40
0.5789151826
 41
0.7867191038
 42
2.3547763749
  0
ELLIPSE
  5
4D6
100
AcDbEntity
  8
0
100
AcDbEllipse
 62
7
  6
CONTINUOUS
 10
-16.1397445942
 20
-25.5479858059
 30
0.0
 11
-0.1500529453
 21
0.2598034383
 31
0.0
 40
0.5773316475
 41
-3.1502321102
 42
-2.3563951207
  0
ELLIPSE
  5
4D7
100
AcDbEntity
  8
0
100
AcDbEllipse
 62
7
  6
CONTINUOUS
 10
-3.0586075012
 20
-44.8176803863
 30
0.0
 11
0.2123743771
 21
0.3678550612
 31
0.0
 40
0.5773586895
 41
-2.3535969767
 42
-1.8309336332
  0
ELLIPSE
  5
4D8
100
AcDbEntity
  8
0
100
AcDbEllipse
 62
7
  6
CONTINUOUS
 10
12.8512950755
 20
-54.0038587362
 30
0.0
 11
0.2123743771
 21
0.3678550612
 31
0.0
 40
0.5773586895
 41
-2.3535969767
 42
-1.8309336332
  0
ELLIPSE
  5
4D9
100
AcDbEntity
  8
0
100
AcDbEllipse
 62
7
  6
CONTINUOUS
 10
-14.719444784
 20
-23.0526161626
 30
0.0
 11
0.2008240461
 21
0.1149900593
 31
0.0
 40
0.0035062734
 41
0.0020007819
 42
0.7351275774
  0
ELLIPSE
  5
4DA
100
AcDbEntity
  8
0
100
AcDbEllipse
 62
7
  6
CONTINUOUS
 10
-16.2116895318
 20
-36.9370374667
 30
0.0
 11
-0.1500529453
 21
0.2598034383
 31
0.0
 40
0.5773316475
 41
-3.1502321102
 42
-2.3563951207
  0
ELLIPSE
  5
4DB
100
AcDbEntity
  8
0
100
AcDbEllipse
 62
7
  6
CONTINUOUS
 10
-16.2116895318
 20
-7.2175193914
 30
0.0
 11
-0.1500529453
 21
0.2598034383
 31
0.0
 40
0.5773316475
 41
-3.1502321102
 42
-2.3563951207
  0
ELLIPSE
  5
4DC
100
AcDbEntity
  8
0
100
AcDbEllipse
 62
7
  6
CONTINUOUS
 10
-15.3272808273
 20
34.4016747863
 30
0.0
 11
0.4247590168
 21
0.0
 31
0.0
 40
0.57733079
 41
1.8309094725
 42
2.353672532
  0
ELLIPSE
  5
4DD
100
AcDbEntity
  8
0
100
AcDbEllipse
 62
7
  6
CONTINUOUS
 10
-15.3272808273
 20
52.7722560141
 30
0.0
 11
0.4247590168
 21
-0.0
 31
0.0
 40
0.57733079
 41
1.8309094725
 42
2.353672532
  0
ELLIPSE
  5
4DE
100
AcDbEntity
  8
ASSI
100
AcDbEllipse
 62
7
  6
CONTINUOUS
 10
-2.3085572082
 20
13.4204856637
 30
0.0
 11
0.1999995634
 21
0.1164181051
 31
0.0
 40
0.0035896273
 41
-0.7351277754
 42
-0.0020507019
  0
ELLIPSE
  5
4DF
100
AcDbEntity
  8
RACCORDO
100
AcDbEllipse
 62
7
  6
CONTINUOUS
 10
-16.1397445942
 20
44.6684579983
 30
0.0
 11
-0.1500529453
 21
0.2598034383
 31
0.0
 40
0.5773316475
 41
-2.3563951207
 42
-0.7855987939
  0
ELLIPSE
  5
4E0
100
AcDbEntity
  8
RACCORDO
100
AcDbEllipse
 62
7
  6
CONTINUOUS
 10
-16.1397445942
 20
32.4214038464
 30
0.0
 11
-0.1500529453
 21
0.2598034383
 31
0.0
 40
0.5773316475
 41
-3.1502321102
 42
-2.3563951207
  0
ELLIPSE
  5
4E1
100
AcDbEntity
  8
RACCORDO
100
AcDbEllipse
 62
7
  6
CONTINUOUS
 10
-16.2116895318
 20
26.2577619571
 30
0.0
 11
-0.1500529453
 21
0.2598034383
 31
0.0
 40
0.5773316475
 41
-2.3563951207
 42
-0.7855987939
  0
ELLIPSE
  5
4E2
100
AcDbEntity
  8
RACCORDO
100
AcDbEllipse
 62
7
  6
CONTINUOUS
 10
-16.2116895318
 20
21.0323521856
 30
0.0
 11
-0.1500529453
 21
0.2598034383
 31
0.0
 40
0.5773316475
 41
-3.1502321102
 42
-2.3563951207
  0
ELLIPSE
  5
4E3
100
AcDbEntity
  8
RACCORDO
100
AcDbEllipse
 62
7
  6
CONTINUOUS
 10
-16.2116895318
 20
50.7518702608
 30
0.0
 11
-0.1500529453
 21
0.2598034383
 31
0.0
 40
0.5773316475
 41
-3.1502321102
 42
-2.3563951207
  0
ELLIPSE
  5
4E4
100
AcDbEntity
  8
ASSI
100
AcDbEllipse
 62
7
  6
CONTINUOUS
 10
12.8512950755
 20
3.9655309161
 30
0.0
 11
0.2123743771
 21
0.3678550612
 31
0.0
 40
0.5773586895
 41
-2.3535936561
 42
-1.8309336332
  0
ELLIPSE
  5
4E5
100
AcDbEntity
  8
ASSI
100
AcDbEllipse
 62
7
  6
CONTINUOUS
 10
-3.0586075012
 20
13.151709266
 30
0.0
 11
0.2123743771
 21
0.3678550612
 31
0.0
 40
0.5773586895
 41
-2.3535936561
 42
-1.8309336332
  0
ELLIPSE
  5
4E6
100
AcDbEntity
  8
0
100
AcDbEllipse
 62
7
  6
CONTINUOUS
 10
-14.3012346495
 20
48.2934661602
 30
0.0
 11
0.1999154856
 21
0.0095814127
 31
0.0
 40
0.6067642562
 41
-0.8144705522
 42
-0.7621106746
  0
ELLIPSE
  5
4E7
100
AcDbEntity
  8
0
100
AcDbEllipse
 62
7
  6
CONTINUOUS
 10
-14.719444784
 20
34.9167734897
 30
0.0
 11
0.2008240461
 21
0.1149900593
 31
0.0
 40
0.0035062734
 41
0.0019064971
 42
0.7351275774
  0
ELLIPSE
  5
4E8
100
AcDbEntity
  8
0
100
AcDbEllipse
 62
7
  6
CONTINUOUS
 10
9.4854969582
 20
-50.8757511399
 30
0.0
 11
0.1082601067
 21
0.1683382284
 31
0.0
 40
0.6067084637
 41
0.7621560142
 42
0.8145158917
  0
ELLIPSE
  5
4E9
100
AcDbEntity
  8
0
100
AcDbEllipse
 62
7
  6
CONTINUOUS
 10
-6.4244056185
 20
-41.68957279
 30
0.0
 11
0.1082601067
 21
0.1683382284
 31
0.0
 40
0.6067084637
 41
0.7621560142
 42
0.8145158917
  0
ELLIPSE
  5
4EA
100
AcDbEntity
  8
0
100
AcDbEllipse
 62
7
  6
CONTINUOUS
 10
-2.3085572082
 20
-44.5489039886
 30
0.0
 11
0.1999995634
 21
0.1164181051
 31
0.0
 40
0.0035896273
 41
-0.7351277754
 42
-0.0019562056
  0
ELLIPSE
  5
4EB
100
AcDbEntity
  8
0
100
AcDbEllipse
 62
7
  6
CONTINUOUS
 10
-16.1397445942
 20
-13.300931654
 30
0.0
 11
-0.1500529453
 21
0.2598034383
 31
0.0
 40
0.5773316475
 41
-2.3563951207
 42
-0.7855987939
  0
ELLIPSE
  5
4EC
100
AcDbEntity
  8
0
100
AcDbEllipse
 62
7
  6
CONTINUOUS
 10
-14.3012346495
 20
-28.0465047199
 30
0.0
 11
0.1999154856
 21
0.0095814127
 31
0.0
 40
0.6067642562
 41
-0.8144705522
 42
-0.7621106746
  0
ELLIPSE
  5
4ED
100
AcDbEntity
  8
0
100
AcDbEllipse
 62
7
  6
CONTINUOUS
 10
-16.2116895318
 20
-31.7116276952
 30
0.0
 11
-0.1500529453
 21
0.2598034383
 31
0.0
 40
0.5773316475
 41
-2.3563951207
 42
-0.7855987939
  0
ELLIPSE
  5
4EE
100
AcDbEntity
  8
0
100
AcDbEllipse
 62
7
  6
CONTINUOUS
 10
-15.3272808273
 20
-5.1971336382
 30
0.0
 11
0.4247590168
 21
0.0
 31
0.0
 40
0.57733079
 41
1.8309094725
 42
2.3536692012
  0
ELLIPSE
  5
4EF
100
AcDbEntity
  8
0
100
AcDbEllipse
 62
7
  6
CONTINUOUS
 10
-15.3272808273
 20
-23.567714866
 30
0.0
 11
0.4247590168
 21
0.0
 31
0.0
 40
0.57733079
 41
1.8309094725
 42
2.3536692012
  0
ELLIPSE
  5
4F0
100
AcDbEntity
  8
RACCORDO
100
AcDbEllipse
 62
7
  6
CONTINUOUS
 10
-17.1469737206
 20
25.7362693831
 30
0.0
 11
-0.1500529453
 21
0.2598034383
 31
0.0
 40
0.5773316475
 41
-2.3563951207
 42
-1.0774465703
  0
ELLIPSE
  5
4F1
100
AcDbEntity
  8
RACCORDO
100
AcDbEllipse
 62
7
  6
CONTINUOUS
 10
-17.1469737206
 20
50.2303776869
 30
0.0
 11
-0.1500529453
 21
0.2598034383
 31
0.0
 40
0.5773316475
 41
2.3559938597
 42
3.9267901865
  0
ELLIPSE
  5
4F2
100
AcDbEntity
  8
RACCORDO
100
AcDbEllipse
 62
7
  6
CONTINUOUS
 10
-17.1469737206
 20
20.5108596117
 30
0.0
 11
-0.1500529453
 21
0.2598034383
 31
0.0
 40
0.5773316475
 41
2.3559938597
 42
3.9267901865
  0
ELLIPSE
  5
4F3
100
AcDbEntity
  8
RACCORDO
100
AcDbEllipse
 62
7
  6
CONTINUOUS
 10
-16.715304095
 20
32.1004853394
 30
0.0
 11
-0.1500529453
 21
0.2598034383
 31
0.0
 40
0.5773316475
 41
2.5457885314
 42
3.9267901865
  0
ELLIPSE
  5
4F4
100
AcDbEntity
  8
0
100
AcDbEllipse
 62
7
  6
CONTINUOUS
 10
-2.1669417729
 20
-44.1477790559
 30
0.0
 11
0.0925036689
 21
0.1774691851
 31
0.0
 40
0.5463614449
 41
0.709509901
 42
0.7618697785
  0
ELLIPSE
  5
4F5
100
AcDbEntity
  8
0
100
AcDbEllipse
 62
7
  6
CONTINUOUS
 10
-17.1469737206
 20
-7.7390119654
 30
0.0
 11
-0.1500529453
 21
0.2598034383
 31
0.0
 40
0.5773316475
 41
2.3559938597
 42
3.9267901865
  0
ELLIPSE
  5
4F6
100
AcDbEntity
  8
0
100
AcDbEllipse
 62
7
  6
CONTINUOUS
 10
-17.1469737206
 20
-37.4585300406
 30
0.0
 11
-0.1500529453
 21
0.2598034383
 31
0.0
 40
0.5773316475
 41
2.3559938597
 42
3.9267901865
  0
ELLIPSE
  5
4F7
100
AcDbEntity
  8
0
100
AcDbEllipse
 62
7
  6
CONTINUOUS
 10
-17.1469737206
 20
-32.2331202692
 30
0.0
 11
-0.1500529453
 21
0.2598034383
 31
0.0
 40
0.5773316475
 41
-2.3563951207
 42
-1.0774465699
  0
ELLIPSE
  5
4F8
100
AcDbEntity
  8
RACCORDO
100
AcDbEllipse
 62
7
  6
CONTINUOUS
 10
-16.715304095
 20
44.3475394912
 30
0.0
 11
-0.1500529453
 21
0.2598034383
 31
0.0
 40
0.5773316475
 41
-2.3563951207
 42
-0.9753934656
  0
ELLIPSE
  5
4F9
100
AcDbEntity
  8
0
100
AcDbEllipse
 62
7
  6
CONTINUOUS
 10
-14.3012346495
 20
-23.1305673016
 30
0.0
 11
0.1999444062
 21
-0.00862956
 31
0.0
 40
0.5464172455
 41
-0.7618192766
 42
-0.709459399
  0
ELLIPSE
  5
4FA
100
AcDbEntity
  8
0
100
AcDbEllipse
 62
7
  6
CONTINUOUS
 10
-16.715304095
 20
-13.621850161
 30
0.0
 11
-0.1500529453
 21
0.2598034383
 31
0.0
 40
0.5773316475
 41
-2.3563951207
 42
-0.9753934656
  0
ELLIPSE
  5
4FB
100
AcDbEntity
  8
0
100
AcDbEllipse
 62
7
  6
CONTINUOUS
 10
-16.715304095
 20
-25.8689043129
 30
0.0
 11
-0.1500529453
 21
0.2598034383
 31
0.0
 40
0.5773316475
 41
2.5457885314
 42
3.9267901865
  0
ENDSEC
  0
SECTION
  2
OBJECTS
  0
DICTIONARY
  5
C
100
AcDbDictionary
280
0
281
1
  3
ACAD_GROUP
350
D
  3
ACAD_MLINESTYLE
350
17
  3
ACAD_LAYOUT
350
1A
  3
ACAD_PLOTSETTINGS
350
19
  3
ACAD_PLOTSTYLENAME
350
E
  0
DICTIONARY
  5
D
102
{ACAD_REACTORS
330
C
102
}
100
AcDbDictionary
280
0
281
1
  0
ACDBDICTIONARYWDFLT
  5
E
102
{ACAD_REACTORS
330
C
102
}
100
AcDbDictionary
281
1
  3
Normal
350
F
100
AcDbDictionaryWithDefault
340
F
  0
DICTIONARY
  5
17
102
{ACAD_REACTORS
330
C
102
}
100
AcDbDictionary
280
0
281
1
  3
Standard
350
18
  0
DICTIONARY
  5
19
102
{ACAD_REACTORS
330
C
102
}
100
AcDbDictionary
281
1
  0
DICTIONARY
  5
1A
102
{ACAD_REACTORS
330
C
102
}
100
AcDbDictionary
281
1
  3
Model
350
4FC
  3
Layout1
350
4FD
  0
ACDBPLACEHOLDER
  5
F
102
{ACAD_REACTORS
330
E
102
}
  0
MLINESTYLE
  5
18
102
{ACAD_REACTORS
330
17
102
}
100
AcDbMlineStyle
  2
STANDARD
 70
0
  3

 62
256
 51
90.0
 52
90.0
 71
2
 49
0.5
 62
256
  6
BYLAYER
 49
-0.5
 62
256
  6
BYLAYER
  0
LAYOUT
  5
4FC
102
{ACAD_REACTORS
330
1A
102
}
100
AcDbPlotSettings
  1

  2
none_device
  4
ISO_A4_(297.00_x_210.00_MM)
  6

 40
0.0
 41
0.0
 42
0.0
 43
0.0
 44
297.0
 45
210.0
 46
0.0
 47
0.0
 48
0.0
 49
0.0
140
0.0
141
0.0
142
1.0
143
1.0
 70
1024
 72
1
 73
0
 74
0
  7

 75
0
147
1.0
148
0.0
149
0.0
100
AcDbLayout
  1
Model
 70
0
 71
0
 10
0.0
 20
0.0
 11
297.0
 21
210.0
 12
0.0
 22
0.0
 32
0.0
 14
0.0
 24
0.0
 34
0.0
 15
0.0
 25
0.0
 35
0.0
146
0.0
 13
0.0
 23
0.0
 33
0.0
 16
1.0
 26
0.0
 36
0.0
 17
0.0
 27
1.0
 37
0.0
 76
0
330
215
345
0
346
0
  0
LAYOUT
  5
4FD
102
{ACAD_REACTORS
330
1A
102
}
100
AcDbPlotSettings
  1

  2
none_device
  4
ISO_A4_(297.00_x_210.00_MM)
  6

 40
0.0
 41
0.0
 42
0.0
 43
0.0
 44
297.0
 45
210.0
 46
0.0
 47
0.0
 48
0.0
 49
0.0
140
0.0
141
0.0
142
1.0
143
1.0
 70
0
 72
1
 73
0
 74
0
  7

 75
0
147
1.0
148
0.0
149
0.0
100
AcDbLayout
  1
Layout1
 70
0
 71
1
 10
0.0
 20
0.0
 11
297.0
 21
210.0
 12
0.0
 22
0.0
 32
0.0
 14
0.0
 24
0.0
 34
0.0
 15
0.0
 25
0.0
 35
0.0
146
0.0
 13
0.0
 23
0.0
 33
0.0
 16
1.0
 26
0.0
 36
0.0
 17
0.0
 27
1.0
 37
0.0
 76
0
330
216
345
0
346
0
  0
ENDSEC
  0
EOF
