  0
SECTION
  2
HEADER
  9
$ACADVER
  1
AC1015
  9
$DWGCODEPAGE
  3
ANSI_1252
  9
$EXTMAX
 10
297.0
 20
210.0
 30
0.0
  9
$EXTMIN
 10
0.0
 20
0.0
 30
0.0
  9
$LIMMIN
 10
0.0
 20
0.0
  9
$LIMMAX
 10
297.0
 20
210.0
  9
$VIEWCTR
 10
148.5
 20
105.0
  9
$VIEWSIZE
 40
210.0
  9
$CLAYER
  8
0
  9
$LTSCALE
 40
16.335
  9
$CELTYPE
  6
BYLAYER
  9
$DIMSCALE
 40
1.0
  9
$DIMASZ
 40
3.0
  9
$DIMEXO
 40
1.85625
  9
$DIMDLI
 40
11.286
  9
$DIMEXE
 40
5.346
  9
$DIMCEN
 40
2.673
  9
$DIMLFAC
 40
1.0
  9
$DIMBLK
  1
_FILLED
  9
$DIMTXT
 40
3.0
  9
$DIMTOL
 70
1
  9
$DIMLIM
 70
0
  9
$DIMTFAC
 40
1.0
  9
$DIMTP
 40
0.01
  9
$DIMTM
 40
0.01
  9
$PDMODE
 70
3
  9
$PDSIZE
 40
3.0
  9
$HANDSEED
  5
503
  9
$TILEMODE
 70
1
  9
$MEASUREMENT
 70
1
  9
$INSUNITS
 70
4
  0
ENDSEC
  0
SECTION
  2
CLASSES
  0
CLASS
  1
ACDBDICTIONARYWDFLT
  2
AcDbDictionaryWithDefault
  3
AutoCAD 2000
 90
0
280
0
281
0
  0
CLASS
  1
ACDBPLACEHOLDER
  2
AcDbPlaceHolder
  3
AutoCAD 2000
 90
0
280
0
281
0
  0
CLASS
  1
LAYOUT
  2
AcDbLayout
  3
AutoCAD 2000
 90
0
280
0
281
0
  0
ENDSEC
  0
SECTION
  2
TABLES
  0
TABLE
  2
VPORT
  5
8
100
AcDbSymbolTable
 70
2
  0
VPORT
  5
1F4
100
AcDbSymbolTableRecord
100
AcDbViewportTableRecord
  2
*ACTIVE
 70
0
 10
0.0
 20
0.0
 11
1.0
 21
1.0
 12
148.5
 22
105.0
 13
0.0
 23
0.0
 14
1.0
 24
1.0
 15
0.0
 25
0.0
 16
0.0
 26
0.0
 36
1.0
 17
0.0
 27
0.0
 37
0.0
 40
210.0
 41
1.4142857143
 42
50.0
 43
0.0
 44
0.0
 50
0.0
 51
0.0
 71
0
 72
100
 73
1
 74
1
 75
0
 76
0
 77
0
 78
0
  0
ENDTAB
  0
TABLE
  2
LTYPE
  5
5
100
AcDbSymbolTable
 70
6
  0
LTYPE
  5
14
100
AcDbSymbolTableRecord
100
AcDbLinetypeTableRecord
  2
BYBLOCK
 70
0
  3

 72
65
 73
0
 40
0.0
  0
LTYPE
  5
15
100
AcDbSymbolTableRecord
100
AcDbLinetypeTableRecord
  2
BYLAYER
 70
0
  3

 72
65
 73
0
 40
0.0
  0
LTYPE
  5
16
100
AcDbSymbolTableRecord
100
AcDbLinetypeTableRecord
  2
CONTINUOUS
 70
64
  3
Solid line
 72
65
 73
0
 40
0.0
  0
LTYPE
  5
1F5
100
AcDbSymbolTableRecord
100
AcDbLinetypeTableRecord
  2
CENTER
 70
64
  3
____ _ ____ _ ____ _ ____ _ ____ _ ____ _ ____
 72
65
 73
4
 40
0.6
 49
0.375
 74
0
 49
-0.075
 74
0
 49
0.075
 74
0
 49
-0.075
 74
0
  0
LTYPE
  5
1F6
100
AcDbSymbolTableRecord
100
AcDbLinetypeTableRecord
  2
HIDDEN
 70
64
  3
- - - - - - - - - - - - - - - - - - - -
 72
65
 73
2
 40
0.2
 49
0.1
 74
0
 49
-0.1
 74
0
  0
LTYPE
  5
1F7
100
AcDbSymbolTableRecord
100
AcDbLinetypeTableRecord
  2
PHANTOM
 70
64
  3
_____ _ _ _____ _ _ _____ _ _ _____
 72
65
 73
6
 40
0.8
 49
0.45
 74
0
 49
-0.05
 74
0
 49
0.1
 74
0
 49
-0.05
 74
0
 49
0.1
 74
0
 49
-0.05
 74
0
  0
LTYPE
  5
1F8
100
AcDbSymbolTableRecord
100
AcDbLinetypeTableRecord
  2
DOT
 70
64
  3
. . . . . . . . . . . . . . . . . . . .
 72
65
 73
2
 40
0.2
 49
0.1
 74
0
 49
-0.1
 74
0
  0
LTYPE
  5
1F9
100
AcDbSymbolTableRecord
100
AcDbLinetypeTableRecord
  2
DASHED
 70
64
  3
- - - - - - - - - - - - - - - - - - - -
 72
65
 73
2
 40
0.2
 49
0.1
 74
0
 49
-0.1
 74
0
  0
ENDTAB
  0
TABLE
  2
LAYER
  5
2
100
AcDbSymbolTable
 70
36
  0
LAYER
  5
10
100
AcDbSymbolTableRecord
100
AcDbLayerTableRecord
  2
0
 70
0
 62
7
  6
CONTINUOUS
370
-3
390
F
  0
LAYER
  5
1FA
100
AcDbSymbolTableRecord
100
AcDbLayerTableRecord
  2
DEFAULT_1
 70
0
 62
7
  6
CENTER
370
-3
390
F
  0
LAYER
  5
1FB
100
AcDbSymbolTableRecord
100
AcDbLayerTableRecord
  2
DEFAULT_2
 70
0
 62
7
  6
HIDDEN
370
-3
390
F
  0
LAYER
  5
1FC
100
AcDbSymbolTableRecord
100
AcDbLayerTableRecord
  2
DEFAULT_3
 70
0
 62
7
  6
PHANTOM
370
-3
390
F
  0
LAYER
  5
1FD
100
AcDbSymbolTableRecord
100
AcDbLayerTableRecord
  2
ASSI
 70
0
 62
7
  6
CONTINUOUS
370
-3
390
F
  0
LAYER
  5
1FE
100
AcDbSymbolTableRecord
100
AcDbLayerTableRecord
  2
COORDINATE
 70
0
 62
7
  6
CONTINUOUS
370
-3
390
F
  0
LAYER
  5
1FF
100
AcDbSymbolTableRecord
100
AcDbLayerTableRecord
  2
COORD_ORIGINE
 70
0
 62
7
  6
CONTINUOUS
370
-3
390
F
  0
LAYER
  5
200
100
AcDbSymbolTableRecord
100
AcDbLayerTableRecord
  2
COPY_PUBLISH
 70
0
 62
7
  6
CONTINUOUS
370
-3
390
F
  0
LAYER
  5
201
100
AcDbSymbolTableRecord
100
AcDbLayerTableRecord
  2
COSMETIC
 70
0
 62
7
  6
CONTINUOUS
370
-3
390
F
  0
LAYER
  5
202
100
AcDbSymbolTableRecord
100
AcDbLayerTableRecord
  2
COSMETICI
 70
0
 62
7
  6
CONTINUOUS
370
-3
390
F
  0
LAYER
  5
203
100
AcDbSymbolTableRecord
100
AcDbLayerTableRecord
  2
CURVE
 70
0
 62
7
  6
CONTINUOUS
370
-3
390
F
  0
LAYER
  5
204
100
AcDbSymbolTableRecord
100
AcDbLayerTableRecord
  2
DRAFT
 70
0
 62
7
  6
CONTINUOUS
370
-3
390
F
  0
LAYER
  5
205
100
AcDbSymbolTableRecord
100
AcDbLayerTableRecord
  2
IMPORT_IGES
 70
0
 62
7
  6
CONTINUOUS
370
-3
390
F
  0
LAYER
  5
206
100
AcDbSymbolTableRecord
100
AcDbLayerTableRecord
  2
INTFCLR_2
 70
0
 62
7
  6
CONTINUOUS
370
-3
390
F
  0
LAYER
  5
207
100
AcDbSymbolTableRecord
100
AcDbLayerTableRecord
  2
NOTE
 70
0
 62
7
  6
CONTINUOUS
370
-3
390
F
  0
LAYER
  5
208
100
AcDbSymbolTableRecord
100
AcDbLayerTableRecord
  2
PIANI
 70
0
 62
7
  6
CONTINUOUS
370
-3
390
F
  0
LAYER
  5
209
100
AcDbSymbolTableRecord
100
AcDbLayerTableRecord
  2
PIANI_ORIGINE
 70
0
 62
7
  6
CONTINUOUS
370
-3
390
F
  0
LAYER
  5
20A
100
AcDbSymbolTableRecord
100
AcDbLayerTableRecord
  2
PIANI_RIFERIMENTO
 70
0
 62
7
  6
CONTINUOUS
370
-3
390
F
  0
LAYER
  5
20B
100
AcDbSymbolTableRecord
100
AcDbLayerTableRecord
  2
PUNTI
 70
0
 62
7
  6
CONTINUOUS
370
-3
390
F
  0
LAYER
  5
20C
100
AcDbSymbolTableRecord
100
AcDbLayerTableRecord
  2
RACCORDO
 70
0
 62
7
  6
CONTINUOUS
370
-3
390
F
  0
LAYER
  5
20D
100
AcDbSymbolTableRecord
100
AcDbLayerTableRecord
  2
SIMBOLI
 70
0
 62
7
  6
CONTINUOUS
370
-3
390
F
  0
LAYER
  5
20E
100
AcDbSymbolTableRecord
100
AcDbLayerTableRecord
  2
SMUSSO
 70
0
 62
7
  6
CONTINUOUS
370
-3
390
F
  0
LAYER
  5
20F
100
AcDbSymbolTableRecord
100
AcDbLayerTableRecord
  2
SNAPLINE
 70
0
 62
7
  6
CONTINUOUS
370
-3
390
F
  0
LAYER
  5
210
100
AcDbSymbolTableRecord
100
AcDbLayerTableRecord
  2
SUPERFICI
 70
0
 62
7
  6
CONTINUOUS
370
-3
390
F
  0
LAYER
  5
211
100
AcDbSymbolTableRecord
100
AcDbLayerTableRecord
  2
TRASH
 70
0
 62
7
  6
CONTINUOUS
370
-3
390
F
  0
LAYER
  5
212
100
AcDbSymbolTableRecord
100
AcDbLayerTableRecord
  2
XSEC_DATUMS
 70
0
 62
7
  6
CONTINUOUS
370
-3
390
F
  0
ENDTAB
  0
TABLE
  2
STYLE
  5
3
100
AcDbSymbolTable
 70
1
  0
STYLE
  5
11
100
AcDbSymbolTableRecord
100
AcDbTextStyleTableRecord
  2
STANDARD
 70
0
 40
0.0
 41
0.8
 50
0.0
 71
0
 42
0.2
  3
txt
  4

  0
STYLE
  5
213
100
AcDbSymbolTableRecord
100
AcDbTextStyleTableRecord
  2
TEXTSTYLE_1
 70
0
 40
0.0
 41
0.8
 50
0.0
 71
0
 42
0.2
  3
gdt
  4

  0
ENDTAB
  0
TABLE
  2
VIEW
  5
6
100
AcDbSymbolTable
 70
0
  0
ENDTAB
  0
TABLE
  2
UCS
  5
7
100
AcDbSymbolTable
 70
0
  0
ENDTAB
  0
TABLE
  2
APPID
  5
9
100
AcDbSymbolTable
 70
1
  0
APPID
  5
214
100
AcDbSymbolTableRecord
100
AcDbRegAppTableRecord
  2
ACAD
 70
0
  0
ENDTAB
  0
TABLE
  2
BLOCK_RECORD
  5
1
100
AcDbSymbolTable
 70
0
  0
BLOCK_RECORD
  5
215
100
AcDbSymbolTableRecord
100
AcDbBlockTableRecord
  2
*Model_Space
  0
BLOCK_RECORD
  5
216
100
AcDbSymbolTableRecord
100
AcDbBlockTableRecord
  2
*Paper_Space
  0
ENDTAB
  0
TABLE
  2
DIMSTYLE
  5
A
100
AcDbSymbolTable
 70
1
100
AcDbDimStyleTable
 71
0
  0
DIMSTYLE
105
217
100
AcDbSymbolTableRecord
100
AcDbDimStyleTableRecord
  2
STANDARD
 70
0
  3

  4

 40
1.0
 41
3.0
 42
0.0625
 43
0.38
 44
0.18
 45
0.0
 46
0.0
 47
0.01
 48
0.01
140
3.0
141
0.09
142
0.0
143
25.4
144
1.0
145
0.0
146
1.0
147
0.09
 71
1.0
 72
0.0
 73
0
 74
0
 75
0
 76
0
 77
1
 78
8
170
0
171
2
172
0
173
0
174
0
175
0
176
0
177
0
178
0
270
2
271
2
272
2
273
2
274
2
275
0
280
0
281
0
282
0
283
1
284
8
285
0
286
0
287
3
288
0
340
11
  0
ENDTAB
  0
ENDSEC
  0
SECTION
  2
BLOCKS
  0
BLOCK
  5
20
100
AcDbEntity
  8
0
100
AcDbBlockBegin
  2
*Model_Space
 70
0
 10
0.0
 20
0.0
 30
0.0
  3
*Model_Space
  1

  0
ENDBLK
  5
21
100
AcDbEntity
  8
0
100
AcDbBlockEnd
  0
BLOCK
  5
1C
100
AcDbEntity
  8
0
100
AcDbBlockBegin
  2
*Paper_Space
 70
0
 10
0.0
 20
0.0
 30
0.0
  3
*Paper_Space
  1

  0
ENDBLK
  5
1D
100
AcDbEntity
  8
0
100
AcDbBlockEnd
  0
ENDSEC
  0
SECTION
  2
ENTITIES
  0
LINE
  5
218
100
AcDbEntity
  8
DRAFT
100
AcDbLine
 62
7
  6
CONTINUOUS
 10
-33.3122140536
 20
86.905759826
 11
-31.6421238332
 21
87.9182526681
  0
LINE
  5
219
100
AcDbEntity
  8
DRAFT
100
AcDbLine
 62
7
  6
CONTINUOUS
 10
-32.5741099819
 20
86.8388080812
 11
-30.8828886693
 21
87.8493841703
  0
LINE
  5
21A
100
AcDbEntity
  8
RACCORDO
100
AcDbLine
 62
7
  6
CONTINUOUS
 10
-35.3056731751
 20
86.1238982535
 11
-34.1759846141
 21
86.7761662703
  0
LINE
  5
21B
100
AcDbEntity
  8
SMUSSO
100
AcDbLine
 62
7
  6
CONTINUOUS
 10
-34.7366206258
 20
86.1142132026
 11
-33.675960454
 21
86.7266250926
  0
LINE
  5
21C
100
AcDbEntity
  8
DRAFT
100
AcDbLine
 62
7
  6
CONTINUOUS
 10
33.07491969
 20
-85.9605195942
 11
33.7229857155
 21
-85.9605195931
  0
LINE
  5
21D
100
AcDbEntity
  8
DRAFT
100
AcDbLine
 62
7
  6
CONTINUOUS
 10
-32.8981429947
 20
86.2775664404
 11
-32.5741099819
 21
86.8388080812
  0
LWPOLYLINE
  5
21E
100
AcDbEntity
  8
RACCORDO
100
AcDbPolyline
 62
7
  6
CONTINUOUS
 90
13
 70
0
 10
-21.8698773155
 20
59.0667672205
 10
-21.8951638064
 20
59.0498935032
 10
-21.9260478485
 20
59.0254951857
 10
-21.9552289678
 20
58.9977838894
 10
-21.9823958333
 20
58.9667756018
 10
-22.0071640583
 20
58.9326329227
 10
-22.0291445381
 20
58.8956500492
 10
-22.0481158349
 20
58.855960446
 10
-22.0638537683
 20
58.8137782501
 10
-22.0761487805
 20
58.7695034075
 10
-22.0849100681
 20
58.7233411201
 10
-22.0900720187
 20
58.6753478286
 10
-22.0915871378
 20
58.6305402985
  0
LINE
  5
21F
100
AcDbEntity
  8
RACCORDO
100
AcDbLine
 62
7
  6
CONTINUOUS
 10
-21.8700723372
 20
59.0666539132
 11
-21.5870073201
 21
59.2417055658
  0
LINE
  5
220
100
AcDbEntity
  8
RACCORDO
100
AcDbLine
 62
7
  6
CONTINUOUS
 10
-21.5124997588
 20
59.0365391216
 11
-21.2309564922
 21
59.2106497009
  0
LINE
  5
221
100
AcDbEntity
  8
SMUSSO
100
AcDbLine
 62
7
  6
CONTINUOUS
 10
-34.7366206258
 20
-49.7464408557
 11
31.307152737
 21
-87.8792878725
  0
LINE
  5
222
100
AcDbEntity
  8
SMUSSO
100
AcDbLine
 62
7
  6
CONTINUOUS
 10
-32.6153002822
 20
-47.7055413482
 11
26.3574052687
 21
-81.7556424318
  0
LINE
  5
223
100
AcDbEntity
  8
DRAFT
100
AcDbLine
 62
7
  6
CONTINUOUS
 10
-17.028853766
 20
49.5997104908
 11
-17.564892874
 21
49.2559734044
  0
LINE
  5
224
100
AcDbEntity
  8
0
100
AcDbLine
 62
7
  6
CONTINUOUS
 10
-14.884597744
 20
52.5056665693
 11
-15.2027957955
 21
52.3219430023
  0
LINE
  5
225
100
AcDbEntity
  8
0
100
AcDbLine
 62
7
  6
CONTINUOUS
 10
-15.2381511346
 20
52.3015292726
 11
-15.5563491861
 21
52.1178057056
  0
LINE
  5
226
100
AcDbEntity
  8
0
100
AcDbLine
 62
7
  6
CONTINUOUS
 10
-15.5917045252
 20
52.097391976
 11
-15.9099025767
 21
51.913668409
  0
LINE
  5
227
100
AcDbEntity
  8
0
100
AcDbLine
 62
7
  6
CONTINUOUS
 10
-15.9452579158
 20
51.8932546793
 11
-16.2634559673
 21
51.7095311123
  0
LINE
  5
228
100
AcDbEntity
  8
0
100
AcDbLine
 62
7
  6
CONTINUOUS
 10
-16.2988113063
 20
51.6891173826
 11
-16.3530785744
 21
51.6577841422
  0
LINE
  5
229
100
AcDbEntity
  8
0
100
AcDbLine
 62
7
  6
CONTINUOUS
 10
-16.3530785744
 20
51.5353017642
 11
-16.2988113063
 21
51.5666350046
  0
LINE
  5
22A
100
AcDbEntity
  8
0
100
AcDbLine
 62
7
  6
CONTINUOUS
 10
-16.0513239329
 20
51.7095311123
 11
-15.9452579158
 21
51.7707723013
  0
LINE
  5
22B
100
AcDbEntity
  8
0
100
AcDbLine
 62
7
  6
CONTINUOUS
 10
-15.6977705423
 20
51.913668409
 11
-15.5917045252
 21
51.974909598
  0
LINE
  5
22C
100
AcDbEntity
  8
0
100
AcDbLine
 62
7
  6
CONTINUOUS
 10
-15.3442171517
 20
52.1178057056
 11
-15.2381511346
 21
52.1790468946
  0
LINE
  5
22D
100
AcDbEntity
  8
0
100
AcDbLine
 62
7
  6
CONTINUOUS
 10
-14.9906637612
 20
52.3219430023
 11
-14.884597744
 21
52.3831841913
  0
LINE
  5
22E
100
AcDbEntity
  8
0
100
AcDbLine
 62
7
  6
CONTINUOUS
 10
-15.790077944
 20
52.8141707905
 11
-16.3530785744
 21
52.4904902768
  0
LINE
  5
22F
100
AcDbEntity
  8
0
100
AcDbLine
 62
7
  6
CONTINUOUS
 10
-15.980425028
 20
52.7510320144
 11
-16.3530785744
 21
52.5369273408
  0
LINE
  5
230
100
AcDbEntity
  8
0
100
AcDbLine
 62
7
  6
CONTINUOUS
 10
-15.4711643363
 20
52.8677425423
 11
-16.3530785744
 21
52.3672973659
  0
LINE
  5
231
100
AcDbEntity
  8
RACCORDO
100
AcDbLine
 62
7
  6
CONTINUOUS
 10
-16.3530785744
 20
50.4343067442
 11
-17.2883627632
 21
49.9128141703
  0
LINE
  5
232
100
AcDbEntity
  8
RACCORDO
100
AcDbLine
 62
7
  6
CONTINUOUS
 10
-16.4165074233
 20
50.2962566816
 11
-17.3517916121
 21
49.7747641076
  0
LINE
  5
233
100
AcDbEntity
  8
0
100
AcDbLine
 62
7
  6
CONTINUOUS
 10
-15.0780981896
 20
52.6407910755
 11
-16.3530785744
 21
51.9817867039
  0
LINE
  5
234
100
AcDbEntity
  8
0
100
AcDbLine
 62
7
  6
CONTINUOUS
 10
-14.5133666839
 20
48.0167487604
 11
-16.988240418
 21
46.4380248046
  0
LINE
  5
235
100
AcDbEntity
  8
RACCORDO
100
AcDbLine
 62
7
  6
CONTINUOUS
 10
-17.028853766
 20
45.9975805913
 11
-16.988240418
 21
46.0226930926
  0
LINE
  5
236
100
AcDbEntity
  8
0
100
AcDbLine
 62
7
  6
CONTINUOUS
 10
-17.028853766
 20
46.6545311157
 11
-17.0059180875
 21
46.6677738889
  0
LINE
  5
237
100
AcDbEntity
  8
0
100
AcDbLine
 62
7
  6
CONTINUOUS
 10
-16.7584307141
 20
46.8106699966
 11
-16.6523646969
 21
46.8719111856
  0
LINE
  5
238
100
AcDbEntity
  8
0
100
AcDbLine
 62
7
  6
CONTINUOUS
 10
-16.4048773235
 20
47.0148072933
 11
-16.2988113063
 21
47.0760484823
  0
LINE
  5
239
100
AcDbEntity
  8
0
100
AcDbLine
 62
7
  6
CONTINUOUS
 10
-16.0513239329
 20
47.2189445899
 11
-15.9452579158
 21
47.2801857789
  0
LINE
  5
23A
100
AcDbEntity
  8
0
100
AcDbLine
 62
7
  6
CONTINUOUS
 10
-15.6977705423
 20
47.4230818866
 11
-15.5917045252
 21
47.4843230756
  0
LINE
  5
23B
100
AcDbEntity
  8
0
100
AcDbLine
 62
7
  6
CONTINUOUS
 10
-15.3442171517
 20
47.6272191833
 11
-15.2381511346
 21
47.6884603723
  0
LINE
  5
23C
100
AcDbEntity
  8
0
100
AcDbLine
 62
7
  6
CONTINUOUS
 10
-14.9906637612
 20
47.8313564799
 11
-14.884597744
 21
47.8925976689
  0
LINE
  5
23D
100
AcDbEntity
  8
0
100
AcDbLine
 62
7
  6
CONTINUOUS
 10
-14.6371103706
 20
48.0354937766
 11
-14.5310443534
 21
48.0967349656
  0
LINE
  5
23E
100
AcDbEntity
  8
RACCORDO
100
AcDbLine
 62
7
  6
CONTINUOUS
 10
-16.4932979848
 20
44.7183366002
 11
-17.028853766
 21
44.419723231
  0
LINE
  5
23F
100
AcDbEntity
  8
RACCORDO
100
AcDbLine
 62
7
  6
CONTINUOUS
 10
-16.2811336368
 20
44.3508944817
 11
-16.8566931376
 21
44.0299759746
  0
LWPOLYLINE
  5
240
100
AcDbEntity
  8
RACCORDO
100
AcDbPolyline
 62
7
  6
CONTINUOUS
 90
13
 70
0
 10
14.5352345503
 20
-62.7783722886
 10
14.5751107705
 20
-62.7996174115
 10
14.619225186
 20
-62.8191046263
 10
14.663553299
 20
-62.8345655642
 10
14.7080117498
 20
-62.8460268338
 10
14.7523787899
 20
-62.8534666081
 10
14.7962058224
 20
-62.8568670149
 10
14.839196453
 20
-62.856311782
 10
14.8811243374
 20
-62.8519261117
 10
14.9215403995
 20
-62.8439003947
 10
14.9601120959
 20
-62.8324862214
 10
14.9966690171
 20
-62.8179419628
 10
15.0238990488
 20
-62.8044915834
  0
LINE
  5
241
100
AcDbEntity
  8
RACCORDO
100
AcDbLine
 62
7
  6
CONTINUOUS
 10
-21.6588048065
 20
-41.8803986611
 11
14.5352098575
 21
-62.7783691105
  0
LINE
  5
242
100
AcDbEntity
  8
RACCORDO
100
AcDbLine
 62
7
  6
CONTINUOUS
 10
-21.7209295787
 20
-41.7430776109
 11
14.4753684153
 21
-62.6423664264
  0
LINE
  5
243
100
AcDbEntity
  8
RACCORDO
100
AcDbLine
 62
7
  6
CONTINUOUS
 10
12.5440715315
 20
-59.4336988828
 11
-19.7919160387
 21
-40.7633049249
  0
LINE
  5
244
100
AcDbEntity
  8
RACCORDO
100
AcDbLine
 62
7
  6
CONTINUOUS
 10
12.6836492681
 20
-59.1229381152
 11
-19.6523449846
 21
-40.4525402989
  0
LINE
  5
245
100
AcDbEntity
  8
RACCORDO
100
AcDbLine
 62
7
  6
CONTINUOUS
 10
-18.2449181791
 20
-39.6792549805
 11
12.8548813805
 21
-57.6358894742
  0
LWPOLYLINE
  5
246
100
AcDbEntity
  8
RACCORDO
100
AcDbPolyline
 62
7
  6
CONTINUOUS
 90
3
 70
0
 10
-21.7349402239
 20
-41.8295945695
 10
-21.6880859418
 20
-41.8624943386
 10
-21.6586408197
 20
-41.8804815457
  0
LINE
  5
247
100
AcDbEntity
  8
RACCORDO
100
AcDbLine
 62
7
  6
CONTINUOUS
 10
-21.7799748212
 20
-41.7926059756
 11
-21.7349402239
 21
-41.8295945695
  0
LINE
  5
248
100
AcDbEntity
  8
0
100
AcDbLine
 62
7
  6
CONTINUOUS
 10
-15.790077944
 20
34.4435895627
 11
-16.2811336368
 21
34.1612716569
  0
LINE
  5
249
100
AcDbEntity
  8
0
100
AcDbLine
 62
7
  6
CONTINUOUS
 10
-15.980425028
 20
34.3804507866
 11
-16.2811336368
 21
34.2076814163
  0
LINE
  5
24A
100
AcDbEntity
  8
0
100
AcDbLine
 62
7
  6
CONTINUOUS
 10
-14.9243083131
 20
34.8074765891
 11
-16.2811336368
 21
34.0375415329
  0
LINE
  5
24B
100
AcDbEntity
  8
0
100
AcDbLine
 62
7
  6
CONTINUOUS
 10
-14.5766759401
 20
34.6067580138
 11
-16.2811336368
 21
33.725767932
  0
LINE
  5
24C
100
AcDbEntity
  8
RACCORDO
100
AcDbLine
 62
7
  6
CONTINUOUS
 10
-18.1301661553
 20
-39.588441185
 11
12.8548813805
 21
-57.4788192983
  0
LINE
  5
24D
100
AcDbEntity
  8
RACCORDO
100
AcDbLine
 62
7
  6
CONTINUOUS
 10
12.8548813805
 20
-57.1329225275
 11
-17.8306295668
 21
-39.4154930863
  0
LINE
  5
24E
100
AcDbEntity
  8
RACCORDO
100
AcDbLine
 62
7
  6
CONTINUOUS
 10
-16.8170124512
 20
-38.8299356946
 11
12.8548813805
 21
-55.9621153169
  0
LINE
  5
24F
100
AcDbEntity
  8
0
100
AcDbLine
 62
7
  6
CONTINUOUS
 10
-9.1923881554
 20
-43.205627806
 11
-6.3040819467
 21
-44.873299612
  0
LINE
  5
250
100
AcDbEntity
  8
0
100
AcDbLine
 62
7
  6
CONTINUOUS
 10
6.7175144213
 20
-52.3918061559
 11
9.5989745546
 21
-54.0555251237
  0
LINE
  5
251
100
AcDbEntity
  8
0
100
AcDbLine
 62
7
  6
CONTINUOUS
 10
6.527367197
 20
-52.2615919656
 11
6.1676677955
 21
-52.0539060392
  0
LINE
  5
252
100
AcDbEntity
  8
0
100
AcDbLine
 62
7
  6
CONTINUOUS
 10
-9.3825353797
 20
-43.0754136157
 11
-9.5636192155
 21
-42.9708580784
  0
LINE
  5
253
100
AcDbEntity
  8
0
100
AcDbLine
 62
7
  6
CONTINUOUS
 10
-9.0509667992
 20
-43.2464434289
 11
-6.2914879763
 21
-44.8397319168
  0
LINE
  5
254
100
AcDbEntity
  8
0
100
AcDbLine
 62
7
  6
CONTINUOUS
 10
6.8589357775
 20
-52.4326217787
 11
9.5989745546
 21
-54.0146858279
  0
LINE
  5
255
100
AcDbEntity
  8
RACCORDO
100
AcDbLine
 62
7
  6
CONTINUOUS
 10
-17.0264424919
 20
-38.4988048871
 11
-11.4020968466
 21
-41.746231573
  0
LINE
  5
256
100
AcDbEntity
  8
0
100
AcDbLine
 62
7
  6
CONTINUOUS
 10
-6.0987959877
 20
-44.808291023
 11
4.5078057301
 21
-50.9324099229
  0
LINE
  5
257
100
AcDbEntity
  8
RACCORDO
100
AcDbLine
 62
7
  6
CONTINUOUS
 10
9.5989745546
 20
-53.8719869949
 11
12.8548813805
 21
-55.7519067901
  0
LINE
  5
258
100
AcDbEntity
  8
0
100
AcDbLine
 62
7
  6
CONTINUOUS
 10
-9.7720490354
 20
-42.659320659
 11
-10.6242793873
 21
-42.1672535348
  0
LINE
  5
259
100
AcDbEntity
  8
0
100
AcDbLine
 62
7
  6
CONTINUOUS
 10
-8.944900782
 20
-43.0627316984
 11
-6.0981210266
 21
-44.7064266506
  0
LINE
  5
25A
100
AcDbEntity
  8
0
100
AcDbLine
 62
7
  6
CONTINUOUS
 10
6.9650017947
 20
-52.2489100482
 11
9.6875234861
 21
-53.8208599516
  0
LINE
  5
25B
100
AcDbEntity
  8
0
100
AcDbLine
 62
7
  6
CONTINUOUS
 10
-10.6242793873
 20
-42.0700167953
 11
-9.6257440019
 21
-42.6465586123
  0
LINE
  5
25C
100
AcDbEntity
  8
0
100
AcDbLine
 62
7
  6
CONTINUOUS
 10
-8.8388347648
 20
-43.0014905094
 11
-5.9920550094
 21
-44.6451854616
  0
LINE
  5
25D
100
AcDbEntity
  8
0
100
AcDbLine
 62
7
  6
CONTINUOUS
 10
7.0710678119
 20
-52.1876688592
 11
9.7935895033
 21
-53.7596187626
  0
LINE
  5
25E
100
AcDbEntity
  8
0
100
AcDbLine
 62
7
  6
CONTINUOUS
 10
-8.6974134086
 20
-43.0423061322
 11
-5.9566894203
 21
-44.6247658137
  0
LINE
  5
25F
100
AcDbEntity
  8
0
100
AcDbLine
 62
7
  6
CONTINUOUS
 10
7.2124891681
 20
-52.2284844821
 11
9.8289550924
 21
-53.7391991147
  0
LINE
  5
260
100
AcDbEntity
  8
0
100
AcDbLine
 62
7
  6
CONTINUOUS
 10
-17.5005271112
 20
-37.8985336048
 11
-17.564892874
 21
-37.86136962
  0
LINE
  5
261
100
AcDbEntity
  8
DRAFT
100
AcDbLine
 62
7
  6
CONTINUOUS
 10
-17.3417413836
 20
-37.9085398477
 11
-17.028853766
 21
-38.0891972367
  0
LINE
  5
262
100
AcDbEntity
  8
0
100
AcDbLine
 62
7
  6
CONTINUOUS
 10
-8.5913473914
 20
-42.8585944017
 11
-5.744567636
 21
-44.5022893539
  0
LINE
  5
263
100
AcDbEntity
  8
0
100
AcDbLine
 62
7
  6
CONTINUOUS
 10
7.3185551853
 20
-52.0447727516
 11
10.0410768767
 21
-53.616722655
  0
LINE
  5
264
100
AcDbEntity
  8
0
100
AcDbLine
 62
7
  6
CONTINUOUS
 10
-8.4852813742
 20
-42.7973532127
 11
-5.6170194522
 21
-44.4534516987
  0
LINE
  5
265
100
AcDbEntity
  8
0
100
AcDbLine
 62
7
  6
CONTINUOUS
 10
7.4246212025
 20
-51.9835315626
 11
10.1471428939
 21
-53.555481466
  0
LINE
  5
266
100
AcDbEntity
  8
0
100
AcDbLine
 62
7
  6
CONTINUOUS
 10
-16.4932979848
 20
-38.1533964943
 11
-10.8364114217
 21
-41.4196118984
  0
LINE
  5
267
100
AcDbEntity
  8
0
100
AcDbLine
 62
7
  6
CONTINUOUS
 10
-5.5331105628
 20
-44.4816713483
 11
5.073491155
 21
-50.6057902483
  0
LINE
  5
268
100
AcDbEntity
  8
0
100
AcDbLine
 62
7
  6
CONTINUOUS
 10
10.1646599796
 20
-53.5453673202
 11
12.8548813805
 21
-55.0986674407
  0
LINE
  5
269
100
AcDbEntity
  8
0
100
AcDbLine
 62
7
  6
CONTINUOUS
 10
-8.343860018
 20
-42.8381688355
 11
-4.4547727215
 21
-45.0836790988
  0
LINE
  5
26A
100
AcDbEntity
  8
0
100
AcDbLine
 62
7
  6
CONTINUOUS
 10
7.5660425587
 20
-52.0243471854
 11
11.4551298552
 21
-54.2698574487
  0
LINE
  5
26B
100
AcDbEntity
  8
0
100
AcDbLine
 62
7
  6
CONTINUOUS
 10
-8.2377940008
 20
-42.654457105
 11
-4.3487067043
 21
-44.8999673683
  0
LINE
  5
26C
100
AcDbEntity
  8
0
100
AcDbLine
 62
7
  6
CONTINUOUS
 10
7.6721085759
 20
-51.8406354549
 11
11.5611958724
 21
-54.0861457182
  0
LINE
  5
26D
100
AcDbEntity
  8
0
100
AcDbLine
 62
7
  6
CONTINUOUS
 10
-8.1317279836
 20
-42.593215916
 11
-4.1365746699
 21
-44.8999555318
  0
LINE
  5
26E
100
AcDbEntity
  8
0
100
AcDbLine
 62
7
  6
CONTINUOUS
 10
7.7781745931
 20
-51.7793942659
 11
11.7733279068
 21
-54.0861338817
  0
LINE
  5
26F
100
AcDbEntity
  8
0
100
AcDbLine
 62
7
  6
CONTINUOUS
 10
-7.9903066274
 20
-42.6340315389
 11
-4.1012193309
 21
-44.8795418022
  0
LINE
  5
270
100
AcDbEntity
  8
0
100
AcDbLine
 62
7
  6
CONTINUOUS
 10
7.9195959493
 20
-51.8202098888
 11
11.8086832458
 21
-54.0657201521
  0
LINE
  5
271
100
AcDbEntity
  8
0
100
AcDbLine
 62
7
  6
CONTINUOUS
 10
-16.0069630543
 20
-37.8626157573
 11
-16.6222398629
 21
-37.5073626393
  0
LINE
  5
272
100
AcDbEntity
  8
0
100
AcDbLine
 62
7
  6
CONTINUOUS
 10
-16.5328320467
 20
-37.4575109335
 11
-15.8569558063
 21
-37.847753404
  0
LINE
  5
273
100
AcDbEntity
  8
0
100
AcDbLine
 62
7
  6
CONTINUOUS
 10
-7.8842406102
 20
-42.4503198084
 11
-3.9951533137
 21
-44.6958300717
  0
LINE
  5
274
100
AcDbEntity
  8
0
100
AcDbLine
 62
7
  6
CONTINUOUS
 10
8.0256619665
 20
-51.6364981582
 11
11.914749263
 21
-53.8820084215
  0
LINE
  5
275
100
AcDbEntity
  8
0
100
AcDbLine
 62
7
  6
CONTINUOUS
 10
-7.7781745931
 20
-42.3890786194
 11
-3.7830212793
 21
-44.6958182352
  0
LINE
  5
276
100
AcDbEntity
  8
0
100
AcDbLine
 62
7
  6
CONTINUOUS
 10
8.1317279836
 20
-51.5752569692
 11
12.1268812973
 21
-53.8819965851
  0
LINE
  5
277
100
AcDbEntity
  8
0
100
AcDbLine
 62
7
  6
CONTINUOUS
 10
-7.6367532368
 20
-42.4298942422
 11
-3.7476659403
 21
-44.6754045055
  0
LINE
  5
278
100
AcDbEntity
  8
0
100
AcDbLine
 62
7
  6
CONTINUOUS
 10
8.2731493399
 20
-51.6160725921
 11
12.1622366364
 21
-53.8615828554
  0
LINE
  5
279
100
AcDbEntity
  8
0
100
AcDbLine
 62
7
  6
CONTINUOUS
 10
-7.5306872196
 20
-42.2461825117
 11
-3.6415999231
 21
-44.491692775
  0
LINE
  5
27A
100
AcDbEntity
  8
0
100
AcDbLine
 62
7
  6
CONTINUOUS
 10
8.3792153571
 20
-51.4323608616
 11
12.2683026536
 21
-53.6778711249
  0
LINE
  5
27B
100
AcDbEntity
  8
0
100
AcDbLine
 62
7
  6
CONTINUOUS
 10
-7.4246212025
 20
-42.1849413227
 11
-3.4294678888
 21
-44.4916809385
  0
LINE
  5
27C
100
AcDbEntity
  8
0
100
AcDbLine
 62
7
  6
CONTINUOUS
 10
8.4852813742
 20
-51.3711196726
 11
12.4804346879
 21
-53.6778592884
  0
LINE
  5
27D
100
AcDbEntity
  8
0
100
AcDbLine
 62
7
  6
CONTINUOUS
 10
-7.2831998462
 20
-42.2257569456
 11
-3.3941125497
 21
-44.4712672089
  0
LINE
  5
27E
100
AcDbEntity
  8
0
100
AcDbLine
 62
7
  6
CONTINUOUS
 10
8.6267027305
 20
-51.4119352954
 11
12.515790027
 21
-53.6574455587
  0
LINE
  5
27F
100
AcDbEntity
  8
0
100
AcDbLine
 62
7
  6
CONTINUOUS
 10
-7.177133829
 20
-42.042045215
 11
-3.2880465325
 21
-44.2875554783
  0
LINE
  5
280
100
AcDbEntity
  8
0
100
AcDbLine
 62
7
  6
CONTINUOUS
 10
8.7327687477
 20
-51.2282235649
 11
12.6218560442
 21
-53.4737338282
  0
LINE
  5
281
100
AcDbEntity
  8
0
100
AcDbLine
 62
7
  6
CONTINUOUS
 10
-7.0710678119
 20
-41.980804026
 11
-3.0759144982
 21
-44.2875436419
  0
LINE
  5
282
100
AcDbEntity
  8
0
100
AcDbLine
 62
7
  6
CONTINUOUS
 10
8.8388347648
 20
-51.1669823759
 11
12.8339880785
 21
-53.4737219917
  0
LINE
  5
283
100
AcDbEntity
  8
0
100
AcDbLine
 62
7
  6
CONTINUOUS
 10
-6.9296464556
 20
-42.0216196489
 11
-3.0405591591
 21
-44.2671299122
  0
LINE
  5
284
100
AcDbEntity
  8
0
100
AcDbLine
 62
7
  6
CONTINUOUS
 10
8.9802561211
 20
-51.2077979988
 11
12.8516674565
 21
-53.4431023837
  0
LINE
  5
285
100
AcDbEntity
  8
0
100
AcDbLine
 62
7
  6
CONTINUOUS
 10
-6.8235804385
 20
-41.8379079184
 11
-2.9344931419
 21
-44.0834181817
  0
LINE
  5
286
100
AcDbEntity
  8
0
100
AcDbLine
 62
7
  6
CONTINUOUS
 10
9.0863221382
 20
-51.0240862682
 11
12.8548813805
 21
-53.2000051436
  0
LINE
  5
287
100
AcDbEntity
  8
0
100
AcDbLine
 62
7
  6
CONTINUOUS
 10
-6.7175144213
 20
-41.7766667294
 11
-2.7223611076
 21
-44.0834063452
  0
LINE
  5
288
100
AcDbEntity
  8
0
100
AcDbLine
 62
7
  6
CONTINUOUS
 10
9.1923881554
 20
-50.9628450792
 11
12.8548813805
 21
-53.0775227656
  0
LINE
  5
289
100
AcDbEntity
  8
0
100
AcDbLine
 62
7
  6
CONTINUOUS
 10
12.8548813805
 20
-53.0570971994
 11
9.1319435676
 21
-50.9075195656
  0
LINE
  5
28A
100
AcDbEntity
  8
0
100
AcDbLine
 62
7
  6
CONTINUOUS
 10
-2.5204951635
 20
-44.1795474816
 11
-6.7779590091
 21
-41.7213412158
  0
LINE
  5
28B
100
AcDbEntity
  8
0
100
AcDbLine
 62
7
  6
CONTINUOUS
 10
-6.6359994845
 20
-41.7356570939
 11
-2.4624591969
 21
-44.1454069492
  0
LINE
  5
28C
100
AcDbEntity
  8
0
100
AcDbLine
 62
7
  6
CONTINUOUS
 10
9.2739030922
 20
-50.9218354438
 11
12.8548813805
 21
-52.9894474272
  0
LINE
  5
28D
100
AcDbEntity
  8
SMUSSO
100
AcDbLine
 62
7
  6
CONTINUOUS
 10
-35.443727407
 20
85.7060175192
 11
-35.443727407
 21
-48.5216959856
  0
LINE
  5
28E
100
AcDbEntity
  8
SMUSSO
100
AcDbLine
 62
7
  6
CONTINUOUS
 10
-32.6153002822
 20
78.3574693886
 11
-32.6153002822
 21
-47.7055413482
  0
LINE
  5
28F
100
AcDbEntity
  8
DRAFT
100
AcDbLine
 62
7
  6
CONTINUOUS
 10
-17.028853766
 20
26.0037194915
 11
-17.564892874
 21
25.659982405
  0
LINE
  5
290
100
AcDbEntity
  8
0
100
AcDbLine
 62
7
  6
CONTINUOUS
 10
-14.5766759401
 20
29.6917163649
 11
-17.028853766
 21
28.1274701473
  0
LINE
  5
291
100
AcDbEntity
  8
0
100
AcDbLine
 62
7
  6
CONTINUOUS
 10
-17.028853766
 20
27.3987486646
 11
-16.8226372444
 21
27.5220459817
  0
LINE
  5
292
100
AcDbEntity
  8
RACCORDO
100
AcDbLine
 62
7
  6
CONTINUOUS
 10
-16.8566931376
 20
31.7829218227
 11
-16.2811336368
 21
32.1038403298
  0
LINE
  5
293
100
AcDbEntity
  8
RACCORDO
100
AcDbLine
 62
7
  6
CONTINUOUS
 10
-16.9201219865
 20
31.6448717601
 11
-16.3445624857
 21
31.9657902671
  0
LINE
  5
294
100
AcDbEntity
  8
RACCORDO
100
AcDbLine
 62
7
  6
CONTINUOUS
 10
-16.5652429224
 20
26.307640559
 11
-17.028853766
 21
26.0491420031
  0
LINE
  5
295
100
AcDbEntity
  8
0
100
AcDbLine
 62
7
  6
CONTINUOUS
 10
-17.028853766
 20
-31.3940660026
 11
-16.5652429224
 21
-31.6617490933
  0
LINE
  5
296
100
AcDbEntity
  8
0
100
AcDbLine
 62
7
  6
CONTINUOUS
 10
-16.8263071501
 20
-30.2045351815
 11
-17.028853766
 21
-30.087587304
  0
LINE
  5
297
100
AcDbEntity
  8
SMUSSO
100
AcDbLine
 62
7
  6
CONTINUOUS
 10
31.7381171433
 20
-87.9687032852
 11
26.3574052687
 21
-81.7556424318
  0
LWPOLYLINE
  5
298
100
AcDbEntity
  8
RACCORDO
100
AcDbPolyline
 62
7
  6
CONTINUOUS
 90
10
 70
0
 10
-22.0604365519
 20
-41.3440288167
 10
-22.0422672478
 20
-41.4006205423
 10
-22.0205174709
 20
-41.4559469696
 10
-21.9952959624
 20
-41.5100363687
 10
-21.9668142623
 20
-41.5625373426
 10
-21.9352216067
 20
-41.6132391531
 10
-21.9006270913
 20
-41.6618914176
 10
-21.8632367852
 20
-41.7081200037
 10
-21.8229535183
 20
-41.7518544581
 10
-21.7799748212
 20
-41.7926059756
  0
LWPOLYLINE
  5
299
100
AcDbEntity
  8
RACCORDO
100
AcDbPolyline
 62
7
  6
CONTINUOUS
 90
4
 70
0
 10
-22.0903554125
 20
-41.1720276185
 10
-22.0847414511
 20
-41.2291224632
 10
-22.0747103117
 20
-41.2865708945
 10
-22.0604365519
 20
-41.3440288167
  0
LINE
  5
29A
100
AcDbEntity
  8
DRAFT
100
AcDbLine
 62
7
  6
CONTINUOUS
 10
-17.028853766
 20
19.8801924156
 11
-17.564892874
 21
19.5364553291
  0
LINE
  5
29B
100
AcDbEntity
  8
0
100
AcDbLine
 62
7
  6
CONTINUOUS
 10
-16.0069630543
 20
20.106773895
 11
-16.4932979848
 21
19.815993158
  0
LINE
  5
29C
100
AcDbEntity
  8
0
100
AcDbLine
 62
7
  6
CONTINUOUS
 10
-15.7911611142
 20
19.7415067009
 11
-16.0727245231
 21
19.5731593123
  0
LINE
  5
29D
100
AcDbEntity
  8
DRAFT
100
AcDbLine
 62
7
  6
CONTINUOUS
 10
32.6918459206
 20
49.1550631176
 11
34.3830672352
 21
50.1656392056
  0
LINE
  5
29E
100
AcDbEntity
  8
SMUSSO
100
AcDbLine
 62
7
  6
CONTINUOUS
 10
31.307152737
 20
47.9813661858
 11
32.3678129088
 21
48.5937780758
  0
LINE
  5
29F
100
AcDbEntity
  8
RACCORDO
100
AcDbLine
 62
7
  6
CONTINUOUS
 10
14.6815148914
 20
38.1385686801
 11
14.9730614787
 21
38.3069034675
  0
LINE
  5
2A0
100
AcDbEntity
  8
RACCORDO
100
AcDbLine
 62
7
  6
CONTINUOUS
 10
-18.3422658809
 20
18.748315968
 11
-17.028853766
 21
19.5063738776
  0
LINE
  5
2A1
100
AcDbEntity
  8
RACCORDO
100
AcDbLine
 62
7
  6
CONTINUOUS
 10
-19.8516763404
 20
17.8621111117
 11
-18.4744762637
 21
18.6572199041
  0
LINE
  5
2A2
100
AcDbEntity
  8
SMUSSO
100
AcDbLine
 62
7
  6
CONTINUOUS
 10
31.7381171433
 20
47.4136735582
 11
26.3574052687
 21
44.307368305
  0
LINE
  5
2A3
100
AcDbEntity
  8
RACCORDO
100
AcDbLine
 62
7
  6
CONTINUOUS
 10
-19.6523449846
 20
17.5168493534
 11
-18.2751412074
 21
18.311979823
  0
LINE
  5
2A4
100
AcDbEntity
  8
RACCORDO
100
AcDbLine
 62
7
  6
CONTINUOUS
 10
-18.1301661553
 20
18.3809484673
 11
-16.8170124512
 21
19.1394539577
  0
LINE
  5
2A5
100
AcDbEntity
  8
RACCORDO
100
AcDbLine
 62
7
  6
CONTINUOUS
 10
15.1764142512
 20
37.2813778452
 11
15.4679608385
 21
37.4497126326
  0
LINE
  5
2A6
100
AcDbEntity
  8
SMUSSO
100
AcDbLine
 62
7
  6
CONTINUOUS
 10
32.0142595182
 20
46.7566213157
 11
33.07491969
 21
47.3690332057
  0
LINE
  5
2A7
100
AcDbEntity
  8
RACCORDO
100
AcDbLine
 62
7
  6
CONTINUOUS
 10
-16.3530785744
 20
25.9401984405
 11
-17.2883627632
 21
25.4187058665
  0
LINE
  5
2A8
100
AcDbEntity
  8
RACCORDO
100
AcDbLine
 62
7
  6
CONTINUOUS
 10
-17.2883627632
 20
20.193296095
 11
-16.3530785744
 21
20.714788669
  0
LINE
  5
2A9
100
AcDbEntity
  8
RACCORDO
100
AcDbLine
 62
7
  6
CONTINUOUS
 10
-17.3517916121
 20
20.0552460324
 11
-16.4165074233
 21
20.5767386063
  0
LINE
  5
2AA
100
AcDbEntity
  8
DRAFT
100
AcDbLine
 62
7
  6
CONTINUOUS
 10
33.7229857155
 20
47.3690766061
 11
35.443727407
 21
48.3285219015
  0
LINE
  5
2AB
100
AcDbEntity
  8
0
100
AcDbLine
 62
7
  6
CONTINUOUS
 10
-16.9705627485
 20
-29.5293008835
 11
-16.7584307141
 21
-29.5293008835
  0
LINE
  5
2AC
100
AcDbEntity
  8
0
100
AcDbLine
 62
7
  6
CONTINUOUS
 10
-16.6170093579
 20
-29.3251635869
 11
-16.4048773235
 21
-29.3251635869
  0
LINE
  5
2AD
100
AcDbEntity
  8
0
100
AcDbLine
 62
7
  6
CONTINUOUS
 10
-16.2634559673
 20
-29.1210262902
 11
-16.0513239329
 21
-29.1210262902
  0
LINE
  5
2AE
100
AcDbEntity
  8
0
100
AcDbLine
 62
7
  6
CONTINUOUS
 10
-15.9099025767
 20
-28.9168889935
 11
-15.6977705423
 21
-28.9168889935
  0
LINE
  5
2AF
100
AcDbEntity
  8
0
100
AcDbLine
 62
7
  6
CONTINUOUS
 10
-15.5563491861
 20
-28.7127516969
 11
-15.3442171517
 21
-28.7127516969
  0
LINE
  5
2B0
100
AcDbEntity
  8
0
100
AcDbLine
 62
7
  6
CONTINUOUS
 10
-15.2027957955
 20
-28.5086144002
 11
-14.9906637612
 21
-28.5086144002
  0
LINE
  5
2B1
100
AcDbEntity
  8
0
100
AcDbLine
 62
7
  6
CONTINUOUS
 10
-14.8492424049
 20
-28.3044771035
 11
-14.6371103706
 21
-28.3044771035
  0
LINE
  5
2B2
100
AcDbEntity
  8
0
100
AcDbLine
 62
7
  6
CONTINUOUS
 10
-16.2634559673
 20
-24.6304397678
 11
-16.0513239329
 21
-24.6304397678
  0
LINE
  5
2B3
100
AcDbEntity
  8
0
100
AcDbLine
 62
7
  6
CONTINUOUS
 10
-14.506159075
 20
-23.4033471926
 11
-14.9243083131
 21
-23.1619130632
  0
LINE
  5
2B4
100
AcDbEntity
  8
0
100
AcDbLine
 62
7
  6
CONTINUOUS
 10
-14.8721854484
 20
-23.1326815675
 11
-14.4551224653
 21
-23.3734885069
  0
LWPOLYLINE
  5
2B5
100
AcDbEntity
  8
RACCORDO
100
AcDbPolyline
 62
7
  6
CONTINUOUS
 90
4
 70
0
 10
-22.0903554125
 20
16.7973620338
 10
-22.0847414511
 20
16.740267189
 10
-22.0747103117
 20
16.6828187578
 10
-22.0604365519
 20
16.6253608356
  0
LINE
  5
2B6
100
AcDbEntity
  8
RACCORDO
100
AcDbLine
 62
7
  6
CONTINUOUS
 10
-22.0915873877
 20
-41.1305789734
 11
-22.0903554125
 21
-41.1720276185
  0
LINE
  5
2B7
100
AcDbEntity
  8
RACCORDO
100
AcDbLine
 62
7
  6
CONTINUOUS
 10
-22.0915873877
 20
16.8388106789
 11
-22.0903554125
 21
16.7973620338
  0
LINE
  5
2B8
100
AcDbEntity
  8
RACCORDO
100
AcDbLine
 62
7
  6
CONTINUOUS
 10
-22.0915971785
 20
58.6305195478
 11
-22.0915971785
 21
16.8386177541
  0
LINE
  5
2B9
100
AcDbEntity
  8
RACCORDO
100
AcDbLine
 62
7
  6
CONTINUOUS
 10
-22.0915971785
 20
0.6611298955
 11
-22.0915971785
 21
-41.1307718982
  0
LINE
  5
2BA
100
AcDbEntity
  8
RACCORDO
100
AcDbLine
 62
7
  6
CONTINUOUS
 10
-22.0037292129
 20
58.5080371732
 11
-22.0037292129
 21
16.7134988902
  0
LINE
  5
2BB
100
AcDbEntity
  8
RACCORDO
100
AcDbLine
 62
7
  6
CONTINUOUS
 10
-22.0037292129
 20
0.5386475209
 11
-22.0037292129
 21
-41.2558907621
  0
LINE
  5
2BC
100
AcDbEntity
  8
RACCORDO
100
AcDbLine
 62
7
  6
CONTINUOUS
 10
-20.1905938533
 20
-40.0727746948
 11
-20.1905938533
 21
-2.7355953263
  0
LINE
  5
2BD
100
AcDbEntity
  8
RACCORDO
100
AcDbLine
 62
7
  6
CONTINUOUS
 10
-20.1905938533
 20
17.8966149575
 11
-20.1905938533
 21
55.233794326
  0
LINE
  5
2BE
100
AcDbEntity
  8
RACCORDO
100
AcDbLine
 62
7
  6
CONTINUOUS
 10
-19.8516763404
 20
-40.1072785406
 11
-19.8516763404
 21
-2.7701012746
  0
LINE
  5
2BF
100
AcDbEntity
  8
RACCORDO
100
AcDbLine
 62
7
  6
CONTINUOUS
 10
-19.8516763404
 20
17.8621111117
 11
-19.8516763404
 21
55.1992883777
  0
LINE
  5
2C0
100
AcDbEntity
  8
RACCORDO
100
AcDbLine
 62
7
  6
CONTINUOUS
 10
-18.4782859352
 20
54.6040168655
 11
-18.4782859352
 21
18.6943394818
  0
LINE
  5
2C1
100
AcDbEntity
  8
RACCORDO
100
AcDbLine
 62
7
  6
CONTINUOUS
 10
-18.4782859352
 20
-3.3653727868
 11
-18.4782859352
 21
-39.2750501704
  0
LINE
  5
2C2
100
AcDbEntity
  8
RACCORDO
100
AcDbLine
 62
7
  6
CONTINUOUS
 10
-18.3422658809
 20
54.5254805908
 11
-18.3422658809
 21
18.748315968
  0
LINE
  5
2C3
100
AcDbEntity
  8
RACCORDO
100
AcDbLine
 62
7
  6
CONTINUOUS
 10
-18.3422658809
 20
-3.4439090614
 11
-18.3422658809
 21
-39.2210736843
  0
LINE
  5
2C4
100
AcDbEntity
  8
RACCORDO
100
AcDbLine
 62
7
  6
CONTINUOUS
 10
-11.4020968466
 20
16.2231580792
 11
-10.8364114217
 21
16.5497777539
  0
LINE
  5
2C5
100
AcDbEntity
  8
RACCORDO
100
AcDbLine
 62
7
  6
CONTINUOUS
 10
-11.1598874741
 20
15.8731008963
 11
-10.6242793873
 21
16.1823542929
  0
LINE
  5
2C6
100
AcDbEntity
  8
0
100
AcDbLine
 62
7
  6
CONTINUOUS
 10
-9.7720490354
 20
15.3100689933
 11
-9.9820652289
 21
15.1930410936
  0
LINE
  5
2C7
100
AcDbEntity
  8
0
100
AcDbLine
 62
7
  6
CONTINUOUS
 10
-15.790077944
 20
-23.5258000896
 11
-15.4822080971
 21
-23.4784951567
  0
LINE
  5
2C8
100
AcDbEntity
  8
0
100
AcDbLine
 62
7
  6
CONTINUOUS
 10
-15.9099025767
 20
-24.4263024712
 11
-15.6977705423
 21
-24.4263024712
  0
LINE
  5
2C9
100
AcDbEntity
  8
0
100
AcDbLine
 62
7
  6
CONTINUOUS
 10
-15.5563491861
 20
-24.2221651745
 11
-15.3442171517
 21
-24.2221651745
  0
LINE
  5
2CA
100
AcDbEntity
  8
0
100
AcDbLine
 62
7
  6
CONTINUOUS
 10
-15.2027957955
 20
-24.0180278778
 11
-14.9906637612
 21
-24.0180278778
  0
LINE
  5
2CB
100
AcDbEntity
  8
0
100
AcDbLine
 62
7
  6
CONTINUOUS
 10
-14.8492424049
 20
-23.8138905812
 11
-14.6371103706
 21
-23.8138905812
  0
LINE
  5
2CC
100
AcDbEntity
  8
0
100
AcDbLine
 62
7
  6
CONTINUOUS
 10
-16.4932979848
 20
-13.2510530521
 11
-17.028853766
 21
-12.9418298561
  0
LINE
  5
2CD
100
AcDbEntity
  8
0
100
AcDbLine
 62
7
  6
CONTINUOUS
 10
-17.028853766
 20
-11.7170060761
 11
-16.988240418
 21
-11.7404557143
  0
LINE
  5
2CE
100
AcDbEntity
  8
RACCORDO
100
AcDbLine
 62
7
  6
CONTINUOUS
 10
-18.0427292924
 20
-39.0481255857
 11
-18.0427292924
 21
-3.6168577336
  0
LINE
  5
2CF
100
AcDbEntity
  8
RACCORDO
100
AcDbLine
 62
7
  6
CONTINUOUS
 10
-18.0427292924
 20
18.9212640666
 11
-18.0427292924
 21
54.3525319187
  0
LINE
  5
2D0
100
AcDbEntity
  8
DRAFT
100
AcDbLine
 62
7
  6
CONTINUOUS
 10
-17.564892874
 20
-38.4329343232
 11
-17.564892874
 21
-32.3094072472
  0
LINE
  5
2D1
100
AcDbEntity
  8
DRAFT
100
AcDbLine
 62
7
  6
CONTINUOUS
 10
-17.564892874
 20
-8.7134162479
 11
-17.564892874
 21
-3.8927544928
  0
LINE
  5
2D2
100
AcDbEntity
  8
DRAFT
100
AcDbLine
 62
7
  6
CONTINUOUS
 10
-17.564892874
 20
19.5364553291
 11
-17.564892874
 21
25.659982405
  0
LINE
  5
2D3
100
AcDbEntity
  8
DRAFT
100
AcDbLine
 62
7
  6
CONTINUOUS
 10
-17.564892874
 20
49.2559734044
 11
-17.564892874
 21
54.0766351595
  0
LINE
  5
2D4
100
AcDbEntity
  8
0
100
AcDbLine
 62
7
  6
CONTINUOUS
 10
-17.3241161391
 20
49.7747641076
 11
-17.3241161391
 21
49.7901953036
  0
LINE
  5
2D5
100
AcDbEntity
  8
RACCORDO
100
AcDbLine
 62
7
  6
CONTINUOUS
 10
-17.2883627632
 20
53.9169701392
 11
-17.2883627632
 21
49.9128141703
  0
LINE
  5
2D6
100
AcDbEntity
  8
RACCORDO
100
AcDbLine
 62
7
  6
CONTINUOUS
 10
-17.2883627632
 20
25.4187058665
 11
-17.2883627632
 21
20.193296095
  0
LINE
  5
2D7
100
AcDbEntity
  8
0
100
AcDbLine
 62
7
  6
CONTINUOUS
 10
-17.2883627632
 20
-37.7760935572
 11
-17.2883627632
 21
-32.5506837858
  0
LINE
  5
2D8
100
AcDbEntity
  8
0
100
AcDbLine
 62
7
  6
CONTINUOUS
 10
-17.2883627632
 20
-8.056575482
 11
-17.2883627632
 21
-4.0524195131
  0
LINE
  5
2D9
100
AcDbEntity
  8
0
100
AcDbLine
 62
7
  6
CONTINUOUS
 10
-17.1119841047
 20
49.6477089066
 11
-17.1119841047
 21
49.9084751612
  0
LINE
  5
2DA
100
AcDbEntity
  8
DRAFT
100
AcDbLine
 62
7
  6
CONTINUOUS
 10
-17.028853766
 20
49.5997104908
 11
-17.028853766
 21
26.0037194915
  0
LINE
  5
2DB
100
AcDbEntity
  8
RACCORDO
100
AcDbLine
 62
7
  6
CONTINUOUS
 10
-17.028853766
 20
19.8801924156
 11
-17.028853766
 21
19.5063738776
  0
LINE
  5
2DC
100
AcDbEntity
  8
DRAFT
100
AcDbLine
 62
7
  6
CONTINUOUS
 10
-17.028853766
 20
-8.3696791614
 11
-17.028853766
 21
-31.9656701608
  0
LINE
  5
2DD
100
AcDbEntity
  8
RACCORDO
100
AcDbLine
 62
7
  6
CONTINUOUS
 10
-17.028853766
 20
-38.0891972367
 11
-17.028853766
 21
-38.4630157746
  0
LINE
  5
2DE
100
AcDbEntity
  8
0
100
AcDbLine
 62
7
  6
CONTINUOUS
 10
-17.0059180875
 20
-26.3339711673
 11
-17.0059180875
 21
-29.6721969912
  0
LINE
  5
2DF
100
AcDbEntity
  8
0
100
AcDbLine
 62
7
  6
CONTINUOUS
 10
-17.0059180875
 20
46.6677738889
 11
-17.0059180875
 21
49.96761509
  0
LINE
  5
2E0
100
AcDbEntity
  8
DRAFT
100
AcDbLine
 62
7
  6
CONTINUOUS
 10
-16.988240418
 20
46.4380248046
 11
-16.988240418
 21
46.0226930926
  0
LINE
  5
2E1
100
AcDbEntity
  8
0
100
AcDbLine
 62
7
  6
CONTINUOUS
 10
-16.988240418
 20
-11.9466965597
 11
-16.988240418
 21
-11.7404557143
  0
LINE
  5
2E2
100
AcDbEntity
  8
0
100
AcDbLine
 62
7
  6
CONTINUOUS
 10
-16.9705627485
 20
-26.3375161526
 11
-16.9705627485
 21
-29.5293008835
  0
LINE
  5
2E3
100
AcDbEntity
  8
0
100
AcDbLine
 62
7
  6
CONTINUOUS
 10
-16.9705627485
 20
46.8106699966
 11
-16.9705627485
 21
49.9873283995
  0
LINE
  5
2E4
100
AcDbEntity
  8
0
100
AcDbLine
 62
7
  6
CONTINUOUS
 10
-16.8566931376
 20
-13.9394136777
 11
-16.8566931376
 21
-26.1864678295
  0
LINE
  5
2E5
100
AcDbEntity
  8
RACCORDO
100
AcDbLine
 62
7
  6
CONTINUOUS
 10
-16.8566931376
 20
31.7829218227
 11
-16.8566931376
 21
44.0299759746
  0
LINE
  5
2E6
100
AcDbEntity
  8
0
100
AcDbLine
 62
7
  6
CONTINUOUS
 10
-16.8226372444
 20
27.5220459817
 11
-16.8226372444
 21
26.4562568146
  0
LINE
  5
2E7
100
AcDbEntity
  8
0
100
AcDbLine
 62
7
  6
CONTINUOUS
 10
-16.8226372444
 20
-31.5131328377
 11
-16.8226372444
 21
-30.4473436706
  0
LINE
  5
2E8
100
AcDbEntity
  8
0
100
AcDbLine
 62
7
  6
CONTINUOUS
 10
-16.7584307141
 20
-26.234362623
 11
-16.7584307141
 21
-29.5293008835
  0
LINE
  5
2E9
100
AcDbEntity
  8
0
100
AcDbLine
 62
7
  6
CONTINUOUS
 10
-16.7584307141
 20
46.8106699966
 11
-16.7584307141
 21
50.1056082571
  0
LINE
  5
2EA
100
AcDbEntity
  8
0
100
AcDbLine
 62
7
  6
CONTINUOUS
 10
-16.7384391845
 20
27.6423720928
 11
-16.7384391845
 21
26.40764191
  0
LINE
  5
2EB
100
AcDbEntity
  8
0
100
AcDbLine
 62
7
  6
CONTINUOUS
 10
-16.7384391845
 20
-30.3270175595
 11
-16.7384391845
 21
-31.5617477423
  0
LINE
  5
2EC
100
AcDbEntity
  8
0
100
AcDbLine
 62
7
  6
CONTINUOUS
 10
-16.6523646969
 20
-26.1752226943
 11
-16.6523646969
 21
-29.4680596945
  0
LINE
  5
2ED
100
AcDbEntity
  8
0
100
AcDbLine
 62
7
  6
CONTINUOUS
 10
-16.6523646969
 20
46.8719111856
 11
-16.6523646969
 21
50.1647481859
  0
LINE
  5
2EE
100
AcDbEntity
  8
0
100
AcDbLine
 62
7
  6
CONTINUOUS
 10
-16.6170093579
 20
-26.1555093847
 11
-16.6170093579
 21
-29.3251635869
  0
LINE
  5
2EF
100
AcDbEntity
  8
0
100
AcDbLine
 62
7
  6
CONTINUOUS
 10
-16.6170093579
 20
47.0148072933
 11
-16.6170093579
 21
50.1844614955
  0
LINE
  5
2F0
100
AcDbEntity
  8
0
100
AcDbLine
 62
7
  6
CONTINUOUS
 10
-16.4048773235
 20
-26.0372295271
 11
-16.4048773235
 21
-29.3251635869
  0
LINE
  5
2F1
100
AcDbEntity
  8
0
100
AcDbLine
 62
7
  6
CONTINUOUS
 10
-16.4048773235
 20
47.0148072933
 11
-16.4048773235
 21
50.3040928122
  0
LINE
  5
2F2
100
AcDbEntity
  8
0
100
AcDbLine
 62
7
  6
CONTINUOUS
 10
-16.3530785744
 20
-4.5924408818
 11
-16.3530785744
 21
-7.5350829081
  0
LINE
  5
2F3
100
AcDbEntity
  8
0
100
AcDbLine
 62
7
  6
CONTINUOUS
 10
-16.3530785744
 20
-32.0291912118
 11
-16.3530785744
 21
-37.2546009833
  0
LINE
  5
2F4
100
AcDbEntity
  8
RACCORDO
100
AcDbLine
 62
7
  6
CONTINUOUS
 10
-16.3530785744
 20
20.714788669
 11
-16.3530785744
 21
25.9401984405
  0
LINE
  5
2F5
100
AcDbEntity
  8
RACCORDO
100
AcDbLine
 62
7
  6
CONTINUOUS
 10
-16.3530785744
 20
50.4343067442
 11
-16.3530785744
 21
53.3769487705
  0
LINE
  5
2F6
100
AcDbEntity
  8
0
100
AcDbLine
 62
7
  6
CONTINUOUS
 10
-16.2988113063
 20
-25.952664901
 11
-16.2988113063
 21
-29.2639223979
  0
LINE
  5
2F7
100
AcDbEntity
  8
0
100
AcDbLine
 62
7
  6
CONTINUOUS
 10
-16.2988113063
 20
47.0760484823
 11
-16.2988113063
 21
51.6891173826
  0
LINE
  5
2F8
100
AcDbEntity
  8
0
100
AcDbLine
 62
7
  6
CONTINUOUS
 10
-16.2811336368
 20
-13.6184951706
 11
-16.2811336368
 21
-25.8655493225
  0
LINE
  5
2F9
100
AcDbEntity
  8
RACCORDO
100
AcDbLine
 62
7
  6
CONTINUOUS
 10
-16.2811336368
 20
32.1038403298
 11
-16.2811336368
 21
44.3508944817
  0
LINE
  5
2FA
100
AcDbEntity
  8
0
100
AcDbLine
 62
7
  6
CONTINUOUS
 10
-16.2634559673
 20
-24.6304397678
 11
-16.2634559673
 21
-29.1210262902
  0
LINE
  5
2FB
100
AcDbEntity
  8
0
100
AcDbLine
 62
7
  6
CONTINUOUS
 10
-16.2634559673
 20
47.2189445899
 11
-16.2634559673
 21
51.7095311123
  0
LINE
  5
2FC
100
AcDbEntity
  8
0
100
AcDbLine
 62
7
  6
CONTINUOUS
 10
-16.0513239329
 20
-24.6304397678
 11
-16.0513239329
 21
-29.1210262902
  0
LINE
  5
2FD
100
AcDbEntity
  8
0
100
AcDbLine
 62
7
  6
CONTINUOUS
 10
-16.0513239329
 20
47.2189445899
 11
-16.0513239329
 21
51.7095311123
  0
LINE
  5
2FE
100
AcDbEntity
  8
0
100
AcDbLine
 62
7
  6
CONTINUOUS
 10
-15.9452579158
 20
-24.4467162008
 11
-15.9452579158
 21
-29.0597851012
  0
LINE
  5
2FF
100
AcDbEntity
  8
0
100
AcDbLine
 62
7
  6
CONTINUOUS
 10
-15.9452579158
 20
47.2801857789
 11
-15.9452579158
 21
51.8932546793
  0
LINE
  5
300
100
AcDbEntity
  8
0
100
AcDbLine
 62
7
  6
CONTINUOUS
 10
-15.9099025767
 20
-24.4263024712
 11
-15.9099025767
 21
-28.9168889935
  0
LINE
  5
301
100
AcDbEntity
  8
0
100
AcDbLine
 62
7
  6
CONTINUOUS
 10
-15.9099025767
 20
47.4230818866
 11
-15.9099025767
 21
51.913668409
  0
LINE
  5
302
100
AcDbEntity
  8
0
100
AcDbLine
 62
7
  6
CONTINUOUS
 10
-15.7911611142
 20
19.7415067009
 11
-15.7911611142
 21
19.4105881288
  0
LINE
  5
303
100
AcDbEntity
  8
0
100
AcDbLine
 62
7
  6
CONTINUOUS
 10
-15.7911611142
 20
-38.5588015235
 11
-15.7911611142
 21
-38.2278829514
  0
LINE
  5
304
100
AcDbEntity
  8
0
100
AcDbLine
 62
7
  6
CONTINUOUS
 10
-15.7069630543
 20
19.861832812
 11
-15.7069630543
 21
19.3619732243
  0
LINE
  5
305
100
AcDbEntity
  8
0
100
AcDbLine
 62
7
  6
CONTINUOUS
 10
-15.7069630543
 20
-38.1075568403
 11
-15.7069630543
 21
-38.607416428
  0
LINE
  5
306
100
AcDbEntity
  8
0
100
AcDbLine
 62
7
  6
CONTINUOUS
 10
-15.6977705423
 20
-24.4263024712
 11
-15.6977705423
 21
-28.9168889935
  0
LINE
  5
307
100
AcDbEntity
  8
0
100
AcDbLine
 62
7
  6
CONTINUOUS
 10
-15.6977705423
 20
47.4230818866
 11
-15.6977705423
 21
51.913668409
  0
LINE
  5
308
100
AcDbEntity
  8
0
100
AcDbLine
 62
7
  6
CONTINUOUS
 10
-15.5917045252
 20
-24.2425789042
 11
-15.5917045252
 21
-28.8556478045
  0
LINE
  5
309
100
AcDbEntity
  8
0
100
AcDbLine
 62
7
  6
CONTINUOUS
 10
-15.5917045252
 20
47.4843230756
 11
-15.5917045252
 21
52.097391976
  0
LINE
  5
30A
100
AcDbEntity
  8
0
100
AcDbLine
 62
7
  6
CONTINUOUS
 10
-15.5563491861
 20
-24.2221651745
 11
-15.5563491861
 21
-28.7127516969
  0
LINE
  5
30B
100
AcDbEntity
  8
0
100
AcDbLine
 62
7
  6
CONTINUOUS
 10
-15.5563491861
 20
47.6272191833
 11
-15.5563491861
 21
52.1178057056
  0
LINE
  5
30C
100
AcDbEntity
  8
0
100
AcDbLine
 62
7
  6
CONTINUOUS
 10
-15.3442171517
 20
-24.2221651745
 11
-15.3442171517
 21
-28.7127516969
  0
LINE
  5
30D
100
AcDbEntity
  8
0
100
AcDbLine
 62
7
  6
CONTINUOUS
 10
-15.3442171517
 20
47.6272191833
 11
-15.3442171517
 21
52.1178057056
  0
LINE
  5
30E
100
AcDbEntity
  8
0
100
AcDbLine
 62
7
  6
CONTINUOUS
 10
-15.2381511346
 20
-24.0384416075
 11
-15.2381511346
 21
-28.6515105079
  0
LINE
  5
30F
100
AcDbEntity
  8
0
100
AcDbLine
 62
7
  6
CONTINUOUS
 10
-15.2381511346
 20
47.6884603723
 11
-15.2381511346
 21
52.3015292726
  0
LINE
  5
310
100
AcDbEntity
  8
0
100
AcDbLine
 62
7
  6
CONTINUOUS
 10
-15.2027957955
 20
-24.0180278778
 11
-15.2027957955
 21
-28.5086144002
  0
LINE
  5
311
100
AcDbEntity
  8
0
100
AcDbLine
 62
7
  6
CONTINUOUS
 10
-15.2027957955
 20
47.8313564799
 11
-15.2027957955
 21
52.3219430023
  0
LINE
  5
312
100
AcDbEntity
  8
0
100
AcDbLine
 62
7
  6
CONTINUOUS
 10
-14.9906637612
 20
-24.0180278778
 11
-14.9906637612
 21
-28.5086144002
  0
LINE
  5
313
100
AcDbEntity
  8
0
100
AcDbLine
 62
7
  6
CONTINUOUS
 10
-14.9906637612
 20
47.8313564799
 11
-14.9906637612
 21
52.3219430023
  0
LINE
  5
314
100
AcDbEntity
  8
0
100
AcDbLine
 62
7
  6
CONTINUOUS
 10
-14.884597744
 20
-23.8343043108
 11
-14.884597744
 21
-28.4473732112
  0
LINE
  5
315
100
AcDbEntity
  8
0
100
AcDbLine
 62
7
  6
CONTINUOUS
 10
-14.884597744
 20
47.8925976689
 11
-14.884597744
 21
52.5056665693
  0
LINE
  5
316
100
AcDbEntity
  8
0
100
AcDbLine
 62
7
  6
CONTINUOUS
 10
-14.8492424049
 20
-23.8138905812
 11
-14.8492424049
 21
-28.3044771035
  0
LINE
  5
317
100
AcDbEntity
  8
0
100
AcDbLine
 62
7
  6
CONTINUOUS
 10
-14.8492424049
 20
48.0354937766
 11
-14.8492424049
 21
52.5056665693
  0
LINE
  5
318
100
AcDbEntity
  8
0
100
AcDbLine
 62
7
  6
CONTINUOUS
 10
-14.6371103706
 20
-23.8138905812
 11
-14.6371103706
 21
-28.3044771035
  0
LINE
  5
319
100
AcDbEntity
  8
0
100
AcDbLine
 62
7
  6
CONTINUOUS
 10
-14.6371103706
 20
48.0354937766
 11
-14.6371103706
 21
52.3861702357
  0
LINE
  5
31A
100
AcDbEntity
  8
0
100
AcDbLine
 62
7
  6
CONTINUOUS
 10
-14.5310443534
 20
-23.6301670142
 11
-14.5310443534
 21
-28.2432359145
  0
LINE
  5
31B
100
AcDbEntity
  8
0
100
AcDbLine
 62
7
  6
CONTINUOUS
 10
-14.5310443534
 20
48.0967349656
 11
-14.5310443534
 21
52.3249290467
  0
LINE
  5
31C
100
AcDbEntity
  8
0
100
AcDbLine
 62
7
  6
CONTINUOUS
 10
-14.5133666839
 20
52.3147221819
 11
-14.5133666839
 21
48.0167487604
  0
LINE
  5
31D
100
AcDbEntity
  8
0
100
AcDbLine
 62
7
  6
CONTINUOUS
 10
-14.5133666839
 20
-28.3232221197
 11
-14.5133666839
 21
-23.4072847013
  0
LINE
  5
31E
100
AcDbEntity
  8
0
100
AcDbLine
 62
7
  6
CONTINUOUS
 10
-14.4616028748
 20
34.5917738289
 11
-14.4616028748
 21
29.8395839278
  0
LINE
  5
31F
100
AcDbEntity
  8
0
100
AcDbLine
 62
7
  6
CONTINUOUS
 10
-14.4616028748
 20
-9.7592243833
 11
-14.4616028748
 21
-5.684555245
  0
LINE
  5
320
100
AcDbEntity
  8
0
100
AcDbLine
 62
7
  6
CONTINUOUS
 10
-14.4547880401
 20
52.2808996071
 11
-14.4547880401
 21
48.1468419387
  0
LINE
  5
321
100
AcDbEntity
  8
0
100
AcDbLine
 62
7
  6
CONTINUOUS
 10
-14.4547880401
 20
-23.3740680423
 11
-14.4547880401
 21
-28.1931125903
  0
LWPOLYLINE
  5
322
100
AcDbEntity
  8
RACCORDO
100
AcDbPolyline
 62
7
  6
CONTINUOUS
 90
13
 70
0
 10
-21.8698773155
 20
1.0973775682
 10
-21.8951638064
 20
1.0805038509
 10
-21.9260478485
 20
1.0561055334
 10
-21.9552289678
 20
1.0283942371
 10
-21.9823958333
 20
0.9973859495
 10
-22.0071640583
 20
0.9632432704
 10
-22.0291445381
 20
0.9262603969
 10
-22.0481158349
 20
0.8865707937
 10
-22.0638537683
 20
0.8443885978
 10
-22.0761487805
 20
0.8001137552
 10
-22.0849100681
 20
0.7539514678
 10
-22.0900720187
 20
0.7059581763
 10
-22.0915871378
 20
0.6611506462
  0
LINE
  5
323
100
AcDbEntity
  8
0
100
AcDbLine
 62
7
  6
CONTINUOUS
 10
-2.5134816337
 20
13.7126925952
 11
-4.1287808438
 21
12.6768759246
  0
LINE
  5
324
100
AcDbEntity
  8
RACCORDO
100
AcDbLine
 62
7
  6
CONTINUOUS
 10
-21.8700723372
 20
1.0972642609
 11
-21.5870073201
 21
1.2723159135
  0
LINE
  5
325
100
AcDbEntity
  8
RACCORDO
100
AcDbLine
 62
7
  6
CONTINUOUS
 10
-21.5124997588
 20
1.0671494693
 11
-21.2309564922
 21
1.2412600486
  0
LINE
  5
326
100
AcDbEntity
  8
ASSI
100
AcDbLine
 62
7
  6
CONTINUOUS
 10
-2.5134816337
 20
13.3112942387
 11
-3.8588309008
 21
12.5210102107
  0
LINE
  5
327
100
AcDbEntity
  8
ASSI
100
AcDbLine
 62
7
  6
CONTINUOUS
 10
-3.4113718496
 20
12.6102839133
 11
-3.7116675968
 21
12.4360399634
  0
LINE
  5
328
100
AcDbEntity
  8
ASSI
100
AcDbLine
 62
7
  6
CONTINUOUS
 10
-3.2615478179
 20
12.7435388625
 11
-3.7518426139
 21
12.4592365148
  0
LINE
  5
329
100
AcDbEntity
  8
RACCORDO
100
AcDbLine
 62
7
  6
CONTINUOUS
 10
-5.6831178108
 20
13.5025806573
 11
-6.2488032358
 21
13.1759609826
  0
LINE
  5
32A
100
AcDbEntity
  8
RACCORDO
100
AcDbLine
 62
7
  6
CONTINUOUS
 10
-5.5331105628
 20
13.4877183039
 11
-6.0987959877
 21
13.1610986293
  0
LINE
  5
32B
100
AcDbEntity
  8
0
100
AcDbLine
 62
7
  6
CONTINUOUS
 10
-6.7701696951
 20
16.1704509331
 11
-9.3510471589
 21
14.8286991684
  0
LINE
  5
32C
100
AcDbEntity
  8
0
100
AcDbLine
 62
7
  6
CONTINUOUS
 10
-17.5005271112
 20
-8.1790155295
 11
-17.564892874
 21
-8.1418515447
  0
LINE
  5
32D
100
AcDbEntity
  8
DRAFT
100
AcDbLine
 62
7
  6
CONTINUOUS
 10
-17.3417413836
 20
-8.1890217725
 11
-17.028853766
 21
-8.3696791614
  0
LINE
  5
32E
100
AcDbEntity
  8
RACCORDO
100
AcDbLine
 62
7
  6
CONTINUOUS
 10
-19.7297912524
 20
-2.6427693017
 11
12.6061962966
 21
-21.3131632474
  0
LINE
  5
32F
100
AcDbEntity
  8
RACCORDO
100
AcDbLine
 62
7
  6
CONTINUOUS
 10
-19.7919160387
 20
-2.5054482434
 11
12.5440715315
 21
-21.1758422013
  0
LWPOLYLINE
  5
330
100
AcDbEntity
  8
RACCORDO
100
AcDbPolyline
 62
7
  6
CONTINUOUS
 90
10
 70
0
 10
-22.0604365519
 20
16.6253608356
 10
-22.0422672478
 20
16.56876911
 10
-22.0205174709
 20
16.5134426827
 10
-21.9952959624
 20
16.4593532836
 10
-21.9668142623
 20
16.4068523097
 10
-21.9352216067
 20
16.3561504992
 10
-21.9006270913
 20
16.3074982347
 10
-21.8632367852
 20
16.2612696486
 10
-21.8229535183
 20
16.2175351942
 10
-21.7799748212
 20
16.1767836767
  0
LINE
  5
331
100
AcDbEntity
  8
RACCORDO
100
AcDbLine
 62
7
  6
CONTINUOUS
 10
-10.6242793873
 20
16.1823542929
 11
-10.6242793873
 21
15.5638474998
  0
LINE
  5
332
100
AcDbEntity
  8
0
100
AcDbLine
 62
7
  6
CONTINUOUS
 10
-10.6242793873
 20
-42.4055421525
 11
-10.6242793873
 21
-41.7870353594
  0
LINE
  5
333
100
AcDbEntity
  8
0
100
AcDbLine
 62
7
  6
CONTINUOUS
 10
-9.5636192155
 20
15.1855099817
 11
-9.5636192155
 21
14.9514356098
  0
LINE
  5
334
100
AcDbEntity
  8
0
100
AcDbLine
 62
7
  6
CONTINUOUS
 10
-9.5636192155
 20
-42.9708580784
 11
-9.5636192155
 21
-42.7838796706
  0
LINE
  5
335
100
AcDbEntity
  8
ASSI
100
AcDbLine
 62
7
  6
CONTINUOUS
 10
-3.2615478179
 20
12.7435388625
 11
-3.0668739265
 21
12.9862209653
  0
LINE
  5
336
100
AcDbEntity
  8
RACCORDO
100
AcDbLine
 62
7
  6
CONTINUOUS
 10
14.4730850715
 20
-20.1960695153
 11
-21.7232129147
 21
0.7032192958
  0
LINE
  5
337
100
AcDbEntity
  8
RACCORDO
100
AcDbLine
 62
7
  6
CONTINUOUS
 10
14.6815148914
 20
-19.8308209722
 11
-21.5124997588
 21
1.0671494693
  0
LINE
  5
338
100
AcDbEntity
  8
RACCORDO
100
AcDbLine
 62
7
  6
CONTINUOUS
 10
14.9730614787
 20
-19.6624861848
 11
-21.2309564922
 21
1.2412600486
  0
LWPOLYLINE
  5
339
100
AcDbEntity
  8
RACCORDO
100
AcDbPolyline
 62
7
  6
CONTINUOUS
 90
21
 70
0
 10
12.6062766434
 20
-21.3132097911
 10
12.6194145105
 20
-21.3212466709
 10
12.6372953536
 20
-21.3335864751
 10
12.6558611285
 20
-21.3480837433
 10
12.6747466665
 20
-21.3646186057
 10
12.6936625404
 20
-21.383070663
 10
12.712338373
 20
-21.4032845765
 10
12.7305604014
 20
-21.4251191705
 10
12.7480909699
 20
-21.4483603998
 10
12.7647028958
 20
-21.4727571436
 10
12.7802650586
 20
-21.4981523364
 10
12.7945901387
 20
-21.5242488026
 10
12.807525762
 20
-21.550738581
 10
12.8190092918
 20
-21.5774534346
 10
12.828935507
 20
-21.6040741602
 10
12.8372333759
 20
-21.6302564805
 10
12.8439007845
 20
-21.6557763293
 10
12.8489442911
 20
-21.6803608566
 10
12.8523933315
 20
-21.7036747679
 10
12.8543243546
 20
-21.7253452851
 10
12.8548808814
 20
-21.7437795958
  0
LINE
  5
33A
100
AcDbEntity
  8
0
100
AcDbLine
 62
7
  6
CONTINUOUS
 10
-2.5134816337
 20
13.7126925952
 11
-2.5134816337
 21
13.3112942387
  0
LINE
  5
33B
100
AcDbEntity
  8
0
100
AcDbLine
 62
7
  6
CONTINUOUS
 10
-2.5134816337
 20
-44.6580954136
 11
-2.5134816337
 21
-44.1752738182
  0
LINE
  5
33C
100
AcDbEntity
  8
ASSI
100
AcDbLine
 62
7
  6
CONTINUOUS
 10
-2.4621105988
 20
13.7899621204
 11
-2.4621105988
 21
13.3418283033
  0
LINE
  5
33D
100
AcDbEntity
  8
0
100
AcDbLine
 62
7
  6
CONTINUOUS
 10
-2.4621105988
 20
-44.146011019
 11
-2.4621105988
 21
-44.6275927569
  0
LINE
  5
33E
100
AcDbEntity
  8
DRAFT
100
AcDbLine
 62
7
  6
CONTINUOUS
 10
-17.028853766
 20
-8.3696791614
 11
-17.564892874
 21
-8.7134162479
  0
LINE
  5
33F
100
AcDbEntity
  8
0
100
AcDbLine
 62
7
  6
CONTINUOUS
 10
-14.5766759401
 20
-9.9070920595
 11
-17.028853766
 21
-11.4713382772
  0
LINE
  5
340
100
AcDbEntity
  8
RACCORDO
100
AcDbLine
 62
7
  6
CONTINUOUS
 10
4.5078057301
 20
7.0369797294
 11
5.073491155
 21
7.363599404
  0
LINE
  5
341
100
AcDbEntity
  8
RACCORDO
100
AcDbLine
 62
7
  6
CONTINUOUS
 10
4.7500151026
 20
6.6869225465
 11
5.2856231894
 21
6.996175943
  0
LINE
  5
342
100
AcDbEntity
  8
0
100
AcDbLine
 62
7
  6
CONTINUOUS
 10
6.3054996874
 20
5.788805242
 11
6.3462833611
 21
5.812353224
  0
LINE
  5
343
100
AcDbEntity
  8
0
100
AcDbLine
 62
7
  6
CONTINUOUS
 10
-15.790077944
 20
-5.1552188618
 11
-16.3530785744
 21
-5.4788993755
  0
LINE
  5
344
100
AcDbEntity
  8
0
100
AcDbLine
 62
7
  6
CONTINUOUS
 10
-16.3530785744
 20
-5.4324623115
 11
-15.9804239421
 21
-5.218357014
  0
LINE
  5
345
100
AcDbEntity
  8
0
100
AcDbLine
 62
7
  6
CONTINUOUS
 10
-15.4711643363
 20
-5.1016471099
 11
-16.3530785744
 21
-5.6020922864
  0
LINE
  5
346
100
AcDbEntity
  8
0
100
AcDbLine
 62
7
  6
CONTINUOUS
 10
-16.3530785744
 20
-7.5350829081
 11
-17.2883627632
 21
-8.056575482
  0
LINE
  5
347
100
AcDbEntity
  8
0
100
AcDbLine
 62
7
  6
CONTINUOUS
 10
-17.3517916121
 20
-8.1946255447
 11
-16.4165074233
 21
-7.6731329707
  0
LINE
  5
348
100
AcDbEntity
  8
RACCORDO
100
AcDbLine
 62
7
  6
CONTINUOUS
 10
6.125437954
 20
5.8927706302
 11
6.1676677955
 21
5.9154836131
  0
LINE
  5
349
100
AcDbEntity
  8
0
100
AcDbLine
 62
7
  6
CONTINUOUS
 10
9.1397328816
 20
6.9842725832
 11
6.5588554178
 21
5.6425208185
  0
LINE
  5
34A
100
AcDbEntity
  8
0
100
AcDbLine
 62
7
  6
CONTINUOUS
 10
-15.1488088677
 20
-5.2877711174
 11
-16.3530785744
 21
-5.9102269691
  0
LINE
  5
34B
100
AcDbEntity
  8
0
100
AcDbLine
 62
7
  6
CONTINUOUS
 10
-15.790077944
 20
-5.1552188618
 11
-15.4822080971
 21
-5.1079139289
  0
LINE
  5
34C
100
AcDbEntity
  8
RACCORDO
100
AcDbLine
 62
7
  6
CONTINUOUS
 10
-19.7674414353
 20
-2.6252065769
 11
-19.7673151352
 21
-2.6252114318
  0
LINE
  5
34D
100
AcDbEntity
  8
RACCORDO
100
AcDbLine
 62
7
  6
CONTINUOUS
 10
-19.4845536334
 20
-2.7843664294
 11
-19.8516763404
 21
-2.7701012746
  0
LWPOLYLINE
  5
34E
100
AcDbEntity
  8
RACCORDO
100
AcDbPolyline
 62
7
  6
CONTINUOUS
 90
9
 70
0
 10
-19.7673314585
 20
-2.6252177249
 10
-19.768570535
 20
-2.6251513187
 10
-19.7702001065
 20
-2.6249918461
 10
-19.7683433316
 20
-2.6254126457
 10
-19.7633416437
 20
-2.6269149995
 10
-19.7553417826
 20
-2.6299393516
 10
-19.7448042323
 20
-2.634728195
 10
-19.7327276097
 20
-2.6410966615
 10
-19.7298319387
 20
-2.642746
  0
LWPOLYLINE
  5
34F
100
AcDbEntity
  8
RACCORDO
100
AcDbPolyline
 62
7
  6
CONTINUOUS
 90
3
 70
0
 10
-21.7349402239
 20
16.1397950828
 10
-21.6880859418
 20
16.1068953137
 10
-21.6586408197
 20
16.0889081066
  0
LINE
  5
350
100
AcDbEntity
  8
RACCORDO
100
AcDbLine
 62
7
  6
CONTINUOUS
 10
-21.7799748212
 20
16.1767836767
 11
-21.7349402239
 21
16.1397950828
  0
LINE
  5
351
100
AcDbEntity
  8
SMUSSO
100
AcDbLine
 62
7
  6
CONTINUOUS
 10
-35.3056562195
 20
86.1239080421
 11
-32.6153002822
 21
78.3574693886
  0
LINE
  5
352
100
AcDbEntity
  8
0
100
AcDbLine
 62
7
  6
CONTINUOUS
 10
5.2856231894
 20
-51.5917205024
 11
5.2856231894
 21
-50.9732137093
  0
LINE
  5
353
100
AcDbEntity
  8
RACCORDO
100
AcDbLine
 62
7
  6
CONTINUOUS
 10
5.2856231894
 20
6.996175943
 11
5.2856231894
 21
6.3776691499
  0
LINE
  5
354
100
AcDbEntity
  8
0
100
AcDbLine
 62
7
  6
CONTINUOUS
 10
6.3462833611
 20
5.7652572599
 11
6.3462833611
 21
5.812353224
  0
LINE
  5
355
100
AcDbEntity
  8
DRAFT
100
AcDbLine
 62
7
  6
CONTINUOUS
 10
32.3678129088
 20
48.5938214762
 11
32.6918459206
 21
49.1550631176
  0
LINE
  5
356
100
AcDbEntity
  8
0
100
AcDbLine
 62
7
  6
CONTINUOUS
 10
12.8548813805
 20
4.1792499719
 11
11.7811217329
 21
3.4906975747
  0
LINE
  5
357
100
AcDbEntity
  8
0
100
AcDbLine
 62
7
  6
CONTINUOUS
 10
-17.028853766
 20
-11.971809061
 11
-16.988240418
 21
-11.9466965597
  0
LINE
  5
358
100
AcDbEntity
  8
ASSI
100
AcDbLine
 62
7
  6
CONTINUOUS
 10
12.8548813805
 20
3.807005137
 11
12.0510716759
 21
3.3348318609
  0
LINE
  5
359
100
AcDbEntity
  8
ASSI
100
AcDbLine
 62
7
  6
CONTINUOUS
 10
12.4985307271
 20
3.4241055634
 11
12.1982349799
 21
3.2498616135
  0
LINE
  5
35A
100
AcDbEntity
  8
ASSI
100
AcDbLine
 62
7
  6
CONTINUOUS
 10
12.6483547588
 20
3.5573605127
 11
12.1580599628
 21
3.2730581649
  0
LINE
  5
35B
100
AcDbEntity
  8
0
100
AcDbLine
 62
7
  6
CONTINUOUS
 10
9.5989745546
 20
4.0974026574
 11
10.1646599796
 21
4.4240223321
  0
LINE
  5
35C
100
AcDbEntity
  8
0
100
AcDbLine
 62
7
  6
CONTINUOUS
 10
-16.988240418
 20
-11.7404557143
 11
-17.028853766
 21
-11.7639053524
  0
LINE
  5
35D
100
AcDbEntity
  8
0
100
AcDbLine
 62
7
  6
CONTINUOUS
 10
-17.028853766
 20
-13.5496664213
 11
-16.4932979848
 21
-13.2510530521
  0
LINE
  5
35E
100
AcDbEntity
  8
0
100
AcDbLine
 62
7
  6
CONTINUOUS
 10
-16.8566931376
 20
-13.9394136777
 11
-16.2811336368
 21
-13.6184951706
  0
LWPOLYLINE
  5
35F
100
AcDbEntity
  8
RACCORDO
100
AcDbPolyline
 62
7
  6
CONTINUOUS
 90
13
 70
0
 10
14.5352345503
 20
-4.8089826363
 10
14.5751107705
 20
-4.8302277592
 10
14.619225186
 20
-4.849714974
 10
14.663553299
 20
-4.8651759119
 10
14.7080117498
 20
-4.8766371816
 10
14.7523787899
 20
-4.8840769558
 10
14.7962058224
 20
-4.8874773626
 10
14.839196453
 20
-4.8869221297
 10
14.8811243374
 20
-4.8825364594
 10
14.9215403995
 20
-4.8745107425
 10
14.9601120959
 20
-4.8630965691
 10
14.9966690171
 20
-4.8485523105
 10
15.0238990488
 20
-4.8351019311
  0
LINE
  5
360
100
AcDbEntity
  8
RACCORDO
100
AcDbLine
 62
7
  6
CONTINUOUS
 10
-21.6588048065
 20
16.0889909912
 11
14.5352098575
 21
-4.8089794582
  0
LINE
  5
361
100
AcDbEntity
  8
RACCORDO
100
AcDbLine
 62
7
  6
CONTINUOUS
 10
-21.7209295787
 20
16.2263120414
 11
14.4753684153
 21
-4.6729767741
  0
LINE
  5
362
100
AcDbEntity
  8
RACCORDO
100
AcDbLine
 62
7
  6
CONTINUOUS
 10
12.5440715315
 20
-1.4643092305
 11
-19.7919160387
 21
17.2060847274
  0
LINE
  5
363
100
AcDbEntity
  8
RACCORDO
100
AcDbLine
 62
7
  6
CONTINUOUS
 10
12.6836492681
 20
-1.153548463
 11
-19.6523449846
 21
17.5168493534
  0
LINE
  5
364
100
AcDbEntity
  8
RACCORDO
100
AcDbLine
 62
7
  6
CONTINUOUS
 10
-18.2449181791
 20
18.2901346718
 11
12.8548813805
 21
0.3335001781
  0
LINE
  5
365
100
AcDbEntity
  8
RACCORDO
100
AcDbLine
 62
7
  6
CONTINUOUS
 10
-18.1301661553
 20
18.3809484673
 11
12.8548813805
 21
0.490570354
  0
LINE
  5
366
100
AcDbEntity
  8
RACCORDO
100
AcDbLine
 62
7
  6
CONTINUOUS
 10
12.8548813805
 20
0.8364671248
 11
-17.8306295668
 21
18.553896566
  0
LINE
  5
367
100
AcDbEntity
  8
RACCORDO
100
AcDbLine
 62
7
  6
CONTINUOUS
 10
9.5989745546
 20
-54.0821955217
 11
9.5989745546
 21
-53.8719869949
  0
LINE
  5
368
100
AcDbEntity
  8
RACCORDO
100
AcDbLine
 62
7
  6
CONTINUOUS
 10
9.5989745546
 20
4.0974026574
 11
9.5989745546
 21
3.8871941306
  0
LINE
  5
369
100
AcDbEntity
  8
RACCORDO
100
AcDbLine
 62
7
  6
CONTINUOUS
 10
12.8548813805
 20
36.2254995989
 11
12.8548813805
 21
-1.111679745
  0
LINE
  5
36A
100
AcDbEntity
  8
RACCORDO
100
AcDbLine
 62
7
  6
CONTINUOUS
 10
12.8548813805
 20
-21.7438900534
 11
12.8548813805
 21
-59.0810693973
  0
LINE
  5
36B
100
AcDbEntity
  8
RACCORDO
100
AcDbLine
 62
7
  6
CONTINUOUS
 10
12.9427493461
 20
36.1030172209
 11
12.9427493461
 21
-1.2341621475
  0
LINE
  5
36C
100
AcDbEntity
  8
RACCORDO
100
AcDbLine
 62
7
  6
CONTINUOUS
 10
12.9427493461
 20
-21.8663724314
 11
12.9427493461
 21
-59.2035517998
  0
LWPOLYLINE
  5
36D
100
AcDbEntity
  8
RACCORDO
100
AcDbPolyline
 62
7
  6
CONTINUOUS
 90
6
 70
0
 10
12.8548812062
 20
-1.1116937072
 10
12.8544690643
 20
-1.1266089629
 10
12.8533988546
 20
-1.1387735905
 10
12.8520070174
 20
-1.1477851319
 10
12.8507435437
 20
-1.1533441514
 10
12.8505439215
 20
-1.1540575462
  0
LINE
  5
36E
100
AcDbEntity
  8
RACCORDO
100
AcDbLine
 62
7
  6
CONTINUOUS
 10
12.6836492681
 20
-1.153548463
 11
12.8548813805
 21
-0.8283997195
  0
LINE
  5
36F
100
AcDbEntity
  8
RACCORDO
100
AcDbLine
 62
7
  6
CONTINUOUS
 10
12.8513265831
 20
-1.1529356807
 11
12.8512676527
 21
-1.1530474692
  0
LINE
  5
370
100
AcDbEntity
  8
ASSI
100
AcDbLine
 62
7
  6
CONTINUOUS
 10
12.6483547588
 20
3.5573605127
 11
12.8430286502
 21
3.8000426154
  0
LINE
  5
371
100
AcDbEntity
  8
0
100
AcDbLine
 62
7
  6
CONTINUOUS
 10
-14.5310443534
 20
-23.6301670142
 11
-14.8492424049
 21
-23.8138905812
  0
LINE
  5
372
100
AcDbEntity
  8
0
100
AcDbLine
 62
7
  6
CONTINUOUS
 10
-14.884597744
 20
-23.8343043108
 11
-15.2027957955
 21
-24.0180278778
  0
LINE
  5
373
100
AcDbEntity
  8
0
100
AcDbLine
 62
7
  6
CONTINUOUS
 10
-15.2381511346
 20
-24.0384416075
 11
-15.5563491861
 21
-24.2221651745
  0
LINE
  5
374
100
AcDbEntity
  8
0
100
AcDbLine
 62
7
  6
CONTINUOUS
 10
-15.5917045252
 20
-24.2425789042
 11
-15.9099025767
 21
-24.4263024712
  0
LINE
  5
375
100
AcDbEntity
  8
0
100
AcDbLine
 62
7
  6
CONTINUOUS
 10
-15.9452579158
 20
-24.4467162008
 11
-16.2634559673
 21
-24.6304397678
  0
LINE
  5
376
100
AcDbEntity
  8
0
100
AcDbLine
 62
7
  6
CONTINUOUS
 10
-16.0513239329
 20
-24.6304397678
 11
-15.9452579158
 21
-24.5691985788
  0
LINE
  5
377
100
AcDbEntity
  8
0
100
AcDbLine
 62
7
  6
CONTINUOUS
 10
-15.6977705423
 20
-24.4263024712
 11
-15.5917045252
 21
-24.3650612822
  0
LINE
  5
378
100
AcDbEntity
  8
0
100
AcDbLine
 62
7
  6
CONTINUOUS
 10
-15.3442171517
 20
-24.2221651745
 11
-15.2381511346
 21
-24.1609239855
  0
LINE
  5
379
100
AcDbEntity
  8
0
100
AcDbLine
 62
7
  6
CONTINUOUS
 10
-14.9906637612
 20
-24.0180278778
 11
-14.884597744
 21
-23.9567866888
  0
LINE
  5
37A
100
AcDbEntity
  8
0
100
AcDbLine
 62
7
  6
CONTINUOUS
 10
-14.6371103706
 20
-23.8138905812
 11
-14.5310443534
 21
-23.7526493922
  0
LINE
  5
37B
100
AcDbEntity
  8
0
100
AcDbLine
 62
7
  6
CONTINUOUS
 10
-15.790077944
 20
-23.5258000896
 11
-16.2811336368
 21
-23.8081179954
  0
LINE
  5
37C
100
AcDbEntity
  8
0
100
AcDbLine
 62
7
  6
CONTINUOUS
 10
-16.2811336368
 20
-23.761708236
 11
-15.9804239421
 21
-23.5889382418
  0
LINE
  5
37D
100
AcDbEntity
  8
0
100
AcDbLine
 62
7
  6
CONTINUOUS
 10
-14.9243083131
 20
-23.1619130632
 11
-16.2811336368
 21
-23.9318481194
  0
LINE
  5
37E
100
AcDbEntity
  8
RACCORDO
100
AcDbLine
 62
7
  6
CONTINUOUS
 10
15.1764142512
 20
-4.5105239523
 11
15.4679608385
 21
-4.3537396325
  0
LINE
  5
37F
100
AcDbEntity
  8
RACCORDO
100
AcDbLine
 62
7
  6
CONTINUOUS
 10
15.0237694129
 20
-4.8351783675
 11
15.3168487806
 21
-4.6775697679
  0
LINE
  5
380
100
AcDbEntity
  8
RACCORDO
100
AcDbLine
 62
7
  6
CONTINUOUS
 10
-16.8170124512
 20
19.1394539577
 11
12.8548813805
 21
2.0072743354
  0
LINE
  5
381
100
AcDbEntity
  8
DRAFT
100
AcDbLine
 62
7
  6
CONTINUOUS
 10
6.1676677955
 20
5.9154836131
 11
6.3462833611
 21
5.812353224
  0
LINE
  5
382
100
AcDbEntity
  8
RACCORDO
100
AcDbLine
 62
7
  6
CONTINUOUS
 10
12.8548813805
 20
2.2174828622
 11
9.5989745546
 21
4.0974026574
  0
LINE
  5
383
100
AcDbEntity
  8
RACCORDO
100
AcDbLine
 62
7
  6
CONTINUOUS
 10
4.5078057301
 20
7.0369797294
 11
-6.0987959877
 21
13.1610986293
  0
LINE
  5
384
100
AcDbEntity
  8
RACCORDO
100
AcDbLine
 62
7
  6
CONTINUOUS
 10
-11.4020968466
 20
16.2231580792
 11
-17.0264424919
 21
19.4705847652
  0
LINE
  5
385
100
AcDbEntity
  8
0
100
AcDbLine
 62
7
  6
CONTINUOUS
 10
-10.6242793873
 20
15.8021361175
 11
-9.7720490354
 21
15.3100689933
  0
LINE
  5
386
100
AcDbEntity
  8
0
100
AcDbLine
 62
7
  6
CONTINUOUS
 10
-10.6242793873
 20
15.899372857
 11
-9.6257440019
 21
15.32283104
  0
LINE
  5
387
100
AcDbEntity
  8
RACCORDO
100
AcDbLine
 62
7
  6
CONTINUOUS
 10
-17.5005271112
 20
20.0708560475
 11
-17.564892874
 21
20.1080200323
  0
LINE
  5
388
100
AcDbEntity
  8
DRAFT
100
AcDbLine
 62
7
  6
CONTINUOUS
 10
-17.3417413836
 20
20.0608498046
 11
-17.028853766
 21
19.8801924156
  0
LINE
  5
389
100
AcDbEntity
  8
RACCORDO
100
AcDbLine
 62
7
  6
CONTINUOUS
 10
12.8548813805
 20
2.8707222116
 11
10.1646599796
 21
4.4240223321
  0
LINE
  5
38A
100
AcDbEntity
  8
RACCORDO
100
AcDbLine
 62
7
  6
CONTINUOUS
 10
5.073491155
 20
7.363599404
 11
-5.5331105628
 21
13.4877183039
  0
LINE
  5
38B
100
AcDbEntity
  8
RACCORDO
100
AcDbLine
 62
7
  6
CONTINUOUS
 10
-10.8364114217
 20
16.5497777539
 11
-16.4932979848
 21
19.815993158
  0
LINE
  5
38C
100
AcDbEntity
  8
0
100
AcDbLine
 62
7
  6
CONTINUOUS
 10
-16.6222398629
 20
20.462027013
 11
-16.0069630543
 21
20.106773895
  0
LINE
  5
38D
100
AcDbEntity
  8
0
100
AcDbLine
 62
7
  6
CONTINUOUS
 10
-16.5328320467
 20
20.5118787188
 11
-15.8569558063
 21
20.1216362483
  0
LINE
  5
38E
100
AcDbEntity
  8
0
100
AcDbLine
 62
7
  6
CONTINUOUS
 10
-6.5845774336
 20
16.1961757786
 11
-2.4689276666
 21
13.8198511843
  0
LINE
  5
38F
100
AcDbEntity
  8
0
100
AcDbLine
 62
7
  6
CONTINUOUS
 10
9.3253251431
 20
7.0099974288
 11
12.8548813805
 21
4.972075893
  0
LINE
  5
390
100
AcDbEntity
  8
RACCORDO
100
AcDbLine
 62
7
  6
CONTINUOUS
 10
14.7558847057
 20
-62.4777946471
 11
14.7558847057
 21
-20.6832563614
  0
LINE
  5
391
100
AcDbEntity
  8
RACCORDO
100
AcDbLine
 62
7
  6
CONTINUOUS
 10
14.7558847057
 20
-4.5084049948
 11
14.7558847057
 21
37.2861332909
  0
LINE
  5
392
100
AcDbEntity
  8
RACCORDO
100
AcDbLine
 62
7
  6
CONTINUOUS
 10
15.1764142512
 20
-62.4799136046
 11
15.1764142512
 21
-20.6880118071
  0
LINE
  5
393
100
AcDbEntity
  8
RACCORDO
100
AcDbLine
 62
7
  6
CONTINUOUS
 10
15.1764142512
 20
-4.5105239523
 11
15.1764142512
 21
37.2813778452
  0
LINE
  5
394
100
AcDbEntity
  8
RACCORDO
100
AcDbLine
 62
7
  6
CONTINUOUS
 10
15.4679608385
 20
-62.3231292848
 11
15.4679608385
 21
-20.5196770197
  0
LINE
  5
395
100
AcDbEntity
  8
RACCORDO
100
AcDbLine
 62
7
  6
CONTINUOUS
 10
15.4679608385
 20
-4.3537396325
 11
15.4679608385
 21
37.4497126326
  0
LWPOLYLINE
  5
396
100
AcDbEntity
  8
RACCORDO
100
AcDbPolyline
 62
7
  6
CONTINUOUS
 90
6
 70
0
 10
12.8548812062
 20
-59.0810833594
 10
12.8544690643
 20
-59.0959986152
 10
12.8533988546
 20
-59.1081632428
 10
12.8520070174
 20
-59.1171747842
 10
12.8507435437
 20
-59.1227338037
 10
12.8505439215
 20
-59.1234471985
  0
LINE
  5
397
100
AcDbEntity
  8
0
100
AcDbLine
 62
7
  6
CONTINUOUS
 10
-9.0509667992
 20
-43.2464434289
 11
-8.944900782
 21
-43.0627316984
  0
LINE
  5
398
100
AcDbEntity
  8
0
100
AcDbLine
 62
7
  6
CONTINUOUS
 10
-8.6974134086
 20
-43.0423061322
 11
-8.5913473914
 21
-42.8585944017
  0
LINE
  5
399
100
AcDbEntity
  8
0
100
AcDbLine
 62
7
  6
CONTINUOUS
 10
-8.343860018
 20
-42.8381688355
 11
-8.2377940008
 21
-42.654457105
  0
LINE
  5
39A
100
AcDbEntity
  8
0
100
AcDbLine
 62
7
  6
CONTINUOUS
 10
-7.9903066274
 20
-42.6340315389
 11
-7.8842406102
 21
-42.4503198084
  0
LINE
  5
39B
100
AcDbEntity
  8
0
100
AcDbLine
 62
7
  6
CONTINUOUS
 10
-7.6367532368
 20
-42.4298942422
 11
-7.5306872196
 21
-42.2461825117
  0
LINE
  5
39C
100
AcDbEntity
  8
0
100
AcDbLine
 62
7
  6
CONTINUOUS
 10
-7.2831998462
 20
-42.2257569456
 11
-7.177133829
 21
-42.042045215
  0
LINE
  5
39D
100
AcDbEntity
  8
0
100
AcDbLine
 62
7
  6
CONTINUOUS
 10
-6.9296464556
 20
-42.0216196489
 11
-6.8235804385
 21
-41.8379079184
  0
LINE
  5
39E
100
AcDbEntity
  8
0
100
AcDbLine
 62
7
  6
CONTINUOUS
 10
-4.4547727215
 20
-45.0836790988
 11
-4.3487067043
 21
-44.8999673683
  0
LINE
  5
39F
100
AcDbEntity
  8
0
100
AcDbLine
 62
7
  6
CONTINUOUS
 10
-4.1012193309
 20
-44.8795418022
 11
-3.9951533137
 21
-44.6958300717
  0
LINE
  5
3A0
100
AcDbEntity
  8
0
100
AcDbLine
 62
7
  6
CONTINUOUS
 10
-3.7476659403
 20
-44.6754045055
 11
-3.6415999231
 21
-44.491692775
  0
LINE
  5
3A1
100
AcDbEntity
  8
0
100
AcDbLine
 62
7
  6
CONTINUOUS
 10
-3.3941125497
 20
-44.4712672089
 11
-3.2880465325
 21
-44.2875554783
  0
LINE
  5
3A2
100
AcDbEntity
  8
0
100
AcDbLine
 62
7
  6
CONTINUOUS
 10
-3.0405591591
 20
-44.2671299122
 11
-2.9344931419
 21
-44.0834181817
  0
LINE
  5
3A3
100
AcDbEntity
  8
DRAFT
100
AcDbLine
 62
7
  6
CONTINUOUS
 10
-17.028853766
 20
-31.9656701608
 11
-17.564892874
 21
-32.3094072472
  0
LINE
  5
3A4
100
AcDbEntity
  8
0
100
AcDbLine
 62
7
  6
CONTINUOUS
 10
-14.5133666839
 20
-28.3232221197
 11
-17.028853766
 21
-29.9278533631
  0
LINE
  5
3A5
100
AcDbEntity
  8
0
100
AcDbLine
 62
7
  6
CONTINUOUS
 10
-16.8226372444
 20
-30.4473436706
 11
-17.028853766
 21
-30.5706409877
  0
LINE
  5
3A6
100
AcDbEntity
  8
0
100
AcDbLine
 62
7
  6
CONTINUOUS
 10
-17.028853766
 20
-29.6854397645
 11
-17.0059180875
 21
-29.6721969912
  0
LINE
  5
3A7
100
AcDbEntity
  8
0
100
AcDbLine
 62
7
  6
CONTINUOUS
 10
-16.7584307141
 20
-29.5293008835
 11
-16.6523646969
 21
-29.4680596945
  0
LINE
  5
3A8
100
AcDbEntity
  8
0
100
AcDbLine
 62
7
  6
CONTINUOUS
 10
-16.4048773235
 20
-29.3251635869
 11
-16.2988113063
 21
-29.2639223979
  0
LINE
  5
3A9
100
AcDbEntity
  8
0
100
AcDbLine
 62
7
  6
CONTINUOUS
 10
-16.0513239329
 20
-29.1210262902
 11
-15.9452579158
 21
-29.0597851012
  0
LINE
  5
3AA
100
AcDbEntity
  8
0
100
AcDbLine
 62
7
  6
CONTINUOUS
 10
-15.6977705423
 20
-28.9168889935
 11
-15.5917045252
 21
-28.8556478045
  0
LINE
  5
3AB
100
AcDbEntity
  8
0
100
AcDbLine
 62
7
  6
CONTINUOUS
 10
-15.3442171517
 20
-28.7127516969
 11
-15.2381511346
 21
-28.6515105079
  0
LINE
  5
3AC
100
AcDbEntity
  8
0
100
AcDbLine
 62
7
  6
CONTINUOUS
 10
-14.9906637612
 20
-28.5086144002
 11
-14.884597744
 21
-28.4473732112
  0
LINE
  5
3AD
100
AcDbEntity
  8
0
100
AcDbLine
 62
7
  6
CONTINUOUS
 10
-14.6371103706
 20
-28.3044771035
 11
-14.5310443534
 21
-28.2432359145
  0
LINE
  5
3AE
100
AcDbEntity
  8
0
100
AcDbLine
 62
7
  6
CONTINUOUS
 10
-16.2811336368
 20
-25.8655493225
 11
-16.8566931376
 21
-26.1864678295
  0
LINE
  5
3AF
100
AcDbEntity
  8
0
100
AcDbLine
 62
7
  6
CONTINUOUS
 10
-16.9201219865
 20
-26.3245178922
 11
-16.3445624857
 21
-26.0035993852
  0
LINE
  5
3B0
100
AcDbEntity
  8
0
100
AcDbLine
 62
7
  6
CONTINUOUS
 10
-16.5652429224
 20
-31.6617490933
 11
-17.028853766
 21
-31.9202476492
  0
LINE
  5
3B1
100
AcDbEntity
  8
0
100
AcDbLine
 62
7
  6
CONTINUOUS
 10
-14.5133666839
 20
-23.4072847013
 11
-16.2811336368
 21
-24.3209976995
  0
LINE
  5
3B2
100
AcDbEntity
  8
RACCORDO
100
AcDbLine
 62
7
  6
CONTINUOUS
 10
-16.5652429224
 20
26.307640559
 11
-17.028853766
 21
26.5753236497
  0
LINE
  5
3B3
100
AcDbEntity
  8
0
100
AcDbLine
 62
7
  6
CONTINUOUS
 10
-17.028853766
 20
27.8818023483
 11
-16.8263071501
 21
27.7648544708
  0
LINE
  5
3B4
100
AcDbEntity
  8
0
100
AcDbLine
 62
7
  6
CONTINUOUS
 10
-3.2615478179
 20
-45.2258507898
 11
-3.0668739265
 21
-44.983168687
  0
LINE
  5
3B5
100
AcDbEntity
  8
DRAFT
100
AcDbLine
 62
7
  6
CONTINUOUS
 10
-17.028853766
 20
-38.0891972367
 11
-17.564892874
 21
-38.4329343232
  0
LINE
  5
3B6
100
AcDbEntity
  8
0
100
AcDbLine
 62
7
  6
CONTINUOUS
 10
-16.0069630543
 20
-37.8626157573
 11
-16.4932979848
 21
-38.1533964943
  0
LINE
  5
3B7
100
AcDbEntity
  8
0
100
AcDbLine
 62
7
  6
CONTINUOUS
 10
-15.7911611142
 20
-38.2278829514
 11
-16.0727245231
 21
-38.39623034
  0
LINE
  5
3B8
100
AcDbEntity
  8
RACCORDO
100
AcDbLine
 62
7
  6
CONTINUOUS
 10
14.6815148914
 20
-19.8308209722
 11
14.9730614787
 21
-19.6624861848
  0
LINE
  5
3B9
100
AcDbEntity
  8
RACCORDO
100
AcDbLine
 62
7
  6
CONTINUOUS
 10
-18.3422658809
 20
-39.2210736843
 11
-17.028853766
 21
-38.4630157746
  0
LINE
  5
3BA
100
AcDbEntity
  8
RACCORDO
100
AcDbLine
 62
7
  6
CONTINUOUS
 10
-19.8516763404
 20
-40.1072785406
 11
-18.4744762637
 21
-39.3121697482
  0
LINE
  5
3BB
100
AcDbEntity
  8
RACCORDO
100
AcDbLine
 62
7
  6
CONTINUOUS
 10
-19.6523449846
 20
-40.4525402989
 11
-18.2751412074
 21
-39.6574098293
  0
LINE
  5
3BC
100
AcDbEntity
  8
RACCORDO
100
AcDbLine
 62
7
  6
CONTINUOUS
 10
-18.1301661553
 20
-39.588441185
 11
-16.8170124512
 21
-38.8299356946
  0
LINE
  5
3BD
100
AcDbEntity
  8
RACCORDO
100
AcDbLine
 62
7
  6
CONTINUOUS
 10
15.1764142512
 20
-20.6880118071
 11
15.4679608385
 21
-20.5196770197
  0
LINE
  5
3BE
100
AcDbEntity
  8
SMUSSO
100
AcDbLine
 62
7
  6
CONTINUOUS
 10
-35.3056562195
 20
-49.2584688013
 11
-32.6153002822
 21
-47.7055413482
  0
LINE
  5
3BF
100
AcDbEntity
  8
0
100
AcDbLine
 62
7
  6
CONTINUOUS
 10
-16.3530785744
 20
-32.0291912118
 11
-17.2883627632
 21
-32.5506837858
  0
LINE
  5
3C0
100
AcDbEntity
  8
0
100
AcDbLine
 62
7
  6
CONTINUOUS
 10
-17.2883627632
 20
-37.7760935572
 11
-16.3530785744
 21
-37.2546009833
  0
LINE
  5
3C1
100
AcDbEntity
  8
0
100
AcDbLine
 62
7
  6
CONTINUOUS
 10
-16.4165074233
 20
-37.392651046
 11
-17.3517916121
 21
-37.9141436199
  0
LINE
  5
3C2
100
AcDbEntity
  8
0
100
AcDbLine
 62
7
  6
CONTINUOUS
 10
-14.9243083131
 20
34.8074765891
 11
-14.5766759401
 21
34.6067580138
  0
LINE
  5
3C3
100
AcDbEntity
  8
0
100
AcDbLine
 62
7
  6
CONTINUOUS
 10
-14.8722126325
 20
34.8367237806
 11
-14.4840725299
 21
34.6126165499
  0
LINE
  5
3C4
100
AcDbEntity
  8
SMUSSO
100
AcDbLine
 62
7
  6
CONTINUOUS
 10
26.3574052687
 20
-81.7556424318
 11
26.3574052687
 21
44.307368305
  0
LINE
  5
3C5
100
AcDbEntity
  8
SMUSSO
100
AcDbLine
 62
7
  6
CONTINUOUS
 10
32.0142595182
 20
-87.471092189
 11
32.0142595182
 21
46.7566213157
  0
LINE
  5
3C6
100
AcDbEntity
  8
0
100
AcDbLine
 62
7
  6
CONTINUOUS
 10
6.8589357775
 20
-52.4326217787
 11
6.9650017947
 21
-52.2489100482
  0
LINE
  5
3C7
100
AcDbEntity
  8
0
100
AcDbLine
 62
7
  6
CONTINUOUS
 10
7.2124891681
 20
-52.2284844821
 11
7.3185551853
 21
-52.0447727516
  0
LINE
  5
3C8
100
AcDbEntity
  8
0
100
AcDbLine
 62
7
  6
CONTINUOUS
 10
-10.8364114217
 20
-41.4196118984
 11
-11.4020968466
 21
-41.746231573
  0
LINE
  5
3C9
100
AcDbEntity
  8
0
100
AcDbLine
 62
7
  6
CONTINUOUS
 10
-10.6242793873
 20
-41.7870353594
 11
-11.1598874741
 21
-42.096288756
  0
LINE
  5
3CA
100
AcDbEntity
  8
0
100
AcDbLine
 62
7
  6
CONTINUOUS
 10
-9.5636192155
 20
-42.9708580784
 11
-9.6044028893
 21
-42.9944060604
  0
LINE
  5
3CB
100
AcDbEntity
  8
RACCORDO
100
AcDbLine
 62
7
  6
CONTINUOUS
 10
-17.028853766
 20
45.0275597962
 11
-16.4932979848
 21
44.7183366002
  0
LINE
  5
3CC
100
AcDbEntity
  8
SMUSSO
100
AcDbLine
 62
7
  6
CONTINUOUS
 10
33.07491969
 20
47.777307799
 11
33.07491969
 21
-86.8586802991
  0
LINE
  5
3CD
100
AcDbEntity
  8
DRAFT
100
AcDbLine
 62
7
  6
CONTINUOUS
 10
33.7229857155
 20
-85.9605195931
 11
33.7229857155
 21
47.3690766061
  0
LINE
  5
3CE
100
AcDbEntity
  8
DRAFT
100
AcDbLine
 62
7
  6
CONTINUOUS
 10
35.443727407
 20
49.1450710871
 11
35.443727407
 21
-85.0010742998
  0
LINE
  5
3CF
100
AcDbEntity
  8
RACCORDO
100
AcDbLine
 62
7
  6
CONTINUOUS
 10
12.6836492681
 20
-59.1229381152
 11
12.8548813805
 21
-58.7977893718
  0
LINE
  5
3D0
100
AcDbEntity
  8
0
100
AcDbLine
 62
7
  6
CONTINUOUS
 10
7.5660425587
 20
-52.0243471854
 11
7.6721085759
 21
-51.8406354549
  0
LINE
  5
3D1
100
AcDbEntity
  8
0
100
AcDbLine
 62
7
  6
CONTINUOUS
 10
7.9195959493
 20
-51.8202098888
 11
8.0256619665
 21
-51.6364981582
  0
LINE
  5
3D2
100
AcDbEntity
  8
0
100
AcDbLine
 62
7
  6
CONTINUOUS
 10
8.2731493399
 20
-51.6160725921
 11
8.3792153571
 21
-51.4323608616
  0
LINE
  5
3D3
100
AcDbEntity
  8
0
100
AcDbLine
 62
7
  6
CONTINUOUS
 10
8.6267027305
 20
-51.4119352954
 11
8.7327687477
 21
-51.2282235649
  0
LINE
  5
3D4
100
AcDbEntity
  8
0
100
AcDbLine
 62
7
  6
CONTINUOUS
 10
8.9802561211
 20
-51.2077979988
 11
9.0863221382
 21
-51.0240862682
  0
LINE
  5
3D5
100
AcDbEntity
  8
0
100
AcDbLine
 62
7
  6
CONTINUOUS
 10
11.4551298552
 20
-54.2698574487
 11
11.5611958724
 21
-54.0861457182
  0
LINE
  5
3D6
100
AcDbEntity
  8
0
100
AcDbLine
 62
7
  6
CONTINUOUS
 10
11.8086832458
 20
-54.0657201521
 11
11.914749263
 21
-53.8820084215
  0
LINE
  5
3D7
100
AcDbEntity
  8
0
100
AcDbLine
 62
7
  6
CONTINUOUS
 10
12.1622366364
 20
-53.8615828554
 11
12.2683026536
 21
-53.6778711249
  0
LINE
  5
3D8
100
AcDbEntity
  8
0
100
AcDbLine
 62
7
  6
CONTINUOUS
 10
12.515790027
 20
-53.6574455587
 11
12.6218560442
 21
-53.4737338282
  0
LINE
  5
3D9
100
AcDbEntity
  8
0
100
AcDbLine
 62
7
  6
CONTINUOUS
 10
-2.5204951635
 20
-44.1795474816
 11
-4.195779257
 21
-45.2538296836
  0
LINE
  5
3DA
100
AcDbEntity
  8
0
100
AcDbLine
 62
7
  6
CONTINUOUS
 10
-2.5134816337
 20
-44.6580954136
 11
-3.8588309008
 21
-45.4483794415
  0
LINE
  5
3DB
100
AcDbEntity
  8
0
100
AcDbLine
 62
7
  6
CONTINUOUS
 10
-3.7116675968
 20
-45.5333496889
 11
-3.4113729315
 21
-45.3591063667
  0
LINE
  5
3DC
100
AcDbEntity
  8
0
100
AcDbLine
 62
7
  6
CONTINUOUS
 10
-3.2615478179
 20
-45.2258507898
 11
-3.7518426139
 21
-45.5101531375
  0
LINE
  5
3DD
100
AcDbEntity
  8
0
100
AcDbLine
 62
7
  6
CONTINUOUS
 10
-9.2154839096
 20
-43.218963005
 11
-9.1923881554
 21
-43.205627806
  0
LINE
  5
3DE
100
AcDbEntity
  8
0
100
AcDbLine
 62
7
  6
CONTINUOUS
 10
-8.944900782
 20
-43.0627316984
 11
-8.8388347648
 21
-43.0014905094
  0
LINE
  5
3DF
100
AcDbEntity
  8
0
100
AcDbLine
 62
7
  6
CONTINUOUS
 10
-8.5913473914
 20
-42.8585944017
 11
-8.4852813742
 21
-42.7973532127
  0
LINE
  5
3E0
100
AcDbEntity
  8
0
100
AcDbLine
 62
7
  6
CONTINUOUS
 10
-8.2377940008
 20
-42.654457105
 11
-8.1317279836
 21
-42.593215916
  0
LINE
  5
3E1
100
AcDbEntity
  8
0
100
AcDbLine
 62
7
  6
CONTINUOUS
 10
-7.8842406102
 20
-42.4503198084
 11
-7.7781745931
 21
-42.3890786194
  0
LINE
  5
3E2
100
AcDbEntity
  8
0
100
AcDbLine
 62
7
  6
CONTINUOUS
 10
-7.5306872196
 20
-42.2461825117
 11
-7.4246212025
 21
-42.1849413227
  0
LINE
  5
3E3
100
AcDbEntity
  8
0
100
AcDbLine
 62
7
  6
CONTINUOUS
 10
-7.177133829
 20
-42.042045215
 11
-7.0710678119
 21
-41.980804026
  0
LINE
  5
3E4
100
AcDbEntity
  8
0
100
AcDbLine
 62
7
  6
CONTINUOUS
 10
-6.8235804385
 20
-41.8379079184
 11
-6.7175144213
 21
-41.7766667294
  0
LINE
  5
3E5
100
AcDbEntity
  8
0
100
AcDbLine
 62
7
  6
CONTINUOUS
 10
-5.6831178108
 20
-44.466808995
 11
-6.2488032358
 21
-44.7934286697
  0
LINE
  5
3E6
100
AcDbEntity
  8
0
100
AcDbLine
 62
7
  6
CONTINUOUS
 10
-6.0987959877
 20
-44.808291023
 11
-5.5331105628
 21
-44.4816713483
  0
LINE
  5
3E7
100
AcDbEntity
  8
0
100
AcDbLine
 62
7
  6
CONTINUOUS
 10
-4.3487067043
 20
-44.8999673683
 11
-4.2426406871
 21
-44.8387261793
  0
LINE
  5
3E8
100
AcDbEntity
  8
0
100
AcDbLine
 62
7
  6
CONTINUOUS
 10
-3.9951533137
 20
-44.6958300717
 11
-3.8890872965
 21
-44.6345888827
  0
LINE
  5
3E9
100
AcDbEntity
  8
0
100
AcDbLine
 62
7
  6
CONTINUOUS
 10
-3.6415999231
 20
-44.491692775
 11
-3.5355339059
 21
-44.430451586
  0
LINE
  5
3EA
100
AcDbEntity
  8
0
100
AcDbLine
 62
7
  6
CONTINUOUS
 10
-3.2880465325
 20
-44.2875554783
 11
-3.1819805153
 21
-44.2263142893
  0
LINE
  5
3EB
100
AcDbEntity
  8
0
100
AcDbLine
 62
7
  6
CONTINUOUS
 10
-2.9344931419
 20
-44.0834181817
 11
-2.8284271247
 21
-44.0221769927
  0
LINE
  5
3EC
100
AcDbEntity
  8
0
100
AcDbLine
 62
7
  6
CONTINUOUS
 10
-2.7223611076
 20
-44.0834063452
 11
-3.0405591591
 21
-44.2671299122
  0
LINE
  5
3ED
100
AcDbEntity
  8
0
100
AcDbLine
 62
7
  6
CONTINUOUS
 10
-3.0759144982
 20
-44.2875436419
 11
-3.3941125497
 21
-44.4712672089
  0
LINE
  5
3EE
100
AcDbEntity
  8
0
100
AcDbLine
 62
7
  6
CONTINUOUS
 10
-3.4294678888
 20
-44.4916809385
 11
-3.7476659403
 21
-44.6754045055
  0
LINE
  5
3EF
100
AcDbEntity
  8
0
100
AcDbLine
 62
7
  6
CONTINUOUS
 10
-3.7830212793
 20
-44.6958182352
 11
-4.1012193309
 21
-44.8795418022
  0
LINE
  5
3F0
100
AcDbEntity
  8
0
100
AcDbLine
 62
7
  6
CONTINUOUS
 10
-4.1365746699
 20
-44.8999555318
 11
-4.4547727215
 21
-45.0836790988
  0
LINE
  5
3F1
100
AcDbEntity
  8
0
100
AcDbLine
 62
7
  6
CONTINUOUS
 10
-9.7720490354
 20
-42.659320659
 11
-9.9820652289
 21
-42.7763485587
  0
LINE
  5
3F2
100
AcDbEntity
  8
0
100
AcDbLine
 62
7
  6
CONTINUOUS
 10
-6.7779590091
 20
-41.7213412158
 11
-9.3825353797
 21
-43.0754136157
  0
LINE
  5
3F3
100
AcDbEntity
  8
0
100
AcDbLine
 62
7
  6
CONTINUOUS
 10
-15.790077944
 20
34.4435895627
 11
-15.4822080971
 21
34.4908944956
  0
LINE
  5
3F4
100
AcDbEntity
  8
RACCORDO
100
AcDbLine
 62
7
  6
CONTINUOUS
 10
-17.5005271112
 20
49.7903741228
 11
-17.564892874
 21
49.8275381076
  0
LINE
  5
3F5
100
AcDbEntity
  8
DRAFT
100
AcDbLine
 62
7
  6
CONTINUOUS
 10
-17.3417413836
 20
49.7803678798
 11
-17.028853766
 21
49.5997104908
  0
LINE
  5
3F6
100
AcDbEntity
  8
RACCORDO
100
AcDbLine
 62
7
  6
CONTINUOUS
 10
-19.7297912524
 20
55.3266203506
 11
12.6061962966
 21
36.6562264049
  0
LINE
  5
3F7
100
AcDbEntity
  8
RACCORDO
100
AcDbLine
 62
7
  6
CONTINUOUS
 10
-19.7919160387
 20
55.4639414089
 11
12.5440715315
 21
36.793547451
  0
LWPOLYLINE
  5
3F8
100
AcDbEntity
  8
RACCORDO
100
AcDbPolyline
 62
7
  6
CONTINUOUS
 90
21
 70
0
 10
12.6062766434
 20
36.6561798612
 10
12.6194145105
 20
36.6481429814
 10
12.6372953536
 20
36.6358031772
 10
12.6558611285
 20
36.621305909
 10
12.6747466665
 20
36.6047710466
 10
12.6936625404
 20
36.5863189893
 10
12.712338373
 20
36.5661050758
 10
12.7305604014
 20
36.5442704818
 10
12.7480909699
 20
36.5210292525
 10
12.7647028958
 20
36.4966325086
 10
12.7802650586
 20
36.4712373159
 10
12.7945901387
 20
36.4451408497
 10
12.807525762
 20
36.4186510712
 10
12.8190092918
 20
36.3919362177
 10
12.828935507
 20
36.3653154921
 10
12.8372333759
 20
36.3391331718
 10
12.8439007845
 20
36.313613323
 10
12.8489442911
 20
36.2890287956
 10
12.8523933315
 20
36.2657148844
 10
12.8543243546
 20
36.2440443672
 10
12.8548808814
 20
36.2256100565
  0
LINE
  5
3F9
100
AcDbEntity
  8
RACCORDO
100
AcDbLine
 62
7
  6
CONTINUOUS
 10
12.8513265831
 20
-59.122325333
 11
12.8512676527
 21
-59.1224371215
  0
LINE
  5
3FA
100
AcDbEntity
  8
0
100
AcDbLine
 62
7
  6
CONTINUOUS
 10
12.6483547588
 20
-54.4120291396
 11
12.8430286502
 21
-54.1693470369
  0
LINE
  5
3FB
100
AcDbEntity
  8
RACCORDO
100
AcDbLine
 62
7
  6
CONTINUOUS
 10
14.4730850715
 20
37.773320137
 11
-21.7232129147
 21
58.6726089481
  0
LINE
  5
3FC
100
AcDbEntity
  8
RACCORDO
100
AcDbLine
 62
7
  6
CONTINUOUS
 10
14.6815148914
 20
38.1385686801
 11
-21.5124997588
 21
59.0365391216
  0
LINE
  5
3FD
100
AcDbEntity
  8
RACCORDO
100
AcDbLine
 62
7
  6
CONTINUOUS
 10
14.9730614787
 20
38.3069034675
 11
-21.2309564922
 21
59.2106497009
  0
LINE
  5
3FE
100
AcDbEntity
  8
0
100
AcDbLine
 62
7
  6
CONTINUOUS
 10
5.073491155
 20
-50.6057902483
 11
4.5078057301
 21
-50.9324099229
  0
LINE
  5
3FF
100
AcDbEntity
  8
0
100
AcDbLine
 62
7
  6
CONTINUOUS
 10
5.2856231894
 20
-50.9732137093
 11
4.7500151026
 21
-51.2824671058
  0
LINE
  5
400
100
AcDbEntity
  8
0
100
AcDbLine
 62
7
  6
CONTINUOUS
 10
6.6944186671
 20
-52.4051413549
 11
6.7175144213
 21
-52.3918061559
  0
LINE
  5
401
100
AcDbEntity
  8
0
100
AcDbLine
 62
7
  6
CONTINUOUS
 10
6.9650017947
 20
-52.2489100482
 11
7.0710678119
 21
-52.1876688592
  0
LINE
  5
402
100
AcDbEntity
  8
0
100
AcDbLine
 62
7
  6
CONTINUOUS
 10
7.3185551853
 20
-52.0447727516
 11
7.4246212025
 21
-51.9835315626
  0
LINE
  5
403
100
AcDbEntity
  8
0
100
AcDbLine
 62
7
  6
CONTINUOUS
 10
7.6721085759
 20
-51.8406354549
 11
7.7781745931
 21
-51.7793942659
  0
LINE
  5
404
100
AcDbEntity
  8
0
100
AcDbLine
 62
7
  6
CONTINUOUS
 10
8.0256619665
 20
-51.6364981582
 11
8.1317279836
 21
-51.5752569692
  0
LINE
  5
405
100
AcDbEntity
  8
0
100
AcDbLine
 62
7
  6
CONTINUOUS
 10
8.3792153571
 20
-51.4323608616
 11
8.4852813742
 21
-51.3711196726
  0
LINE
  5
406
100
AcDbEntity
  8
0
100
AcDbLine
 62
7
  6
CONTINUOUS
 10
8.7327687477
 20
-51.2282235649
 11
8.8388347648
 21
-51.1669823759
  0
LINE
  5
407
100
AcDbEntity
  8
0
100
AcDbLine
 62
7
  6
CONTINUOUS
 10
9.0863221382
 20
-51.0240862682
 11
9.1923881554
 21
-50.9628450792
  0
LINE
  5
408
100
AcDbEntity
  8
0
100
AcDbLine
 62
7
  6
CONTINUOUS
 10
6.125437954
 20
-52.0766190221
 11
6.1676677955
 21
-52.0539060392
  0
LINE
  5
409
100
AcDbEntity
  8
0
100
AcDbLine
 62
7
  6
CONTINUOUS
 10
9.1319435676
 20
-50.9075195656
 11
6.527367197
 21
-52.2615919656
  0
LINE
  5
40A
100
AcDbEntity
  8
0
100
AcDbLine
 62
7
  6
CONTINUOUS
 10
-16.9705627485
 20
46.8106699966
 11
-16.7584307141
 21
46.8106699966
  0
LINE
  5
40B
100
AcDbEntity
  8
0
100
AcDbLine
 62
7
  6
CONTINUOUS
 10
-16.6170093579
 20
47.0148072933
 11
-16.4048773235
 21
47.0148072933
  0
LINE
  5
40C
100
AcDbEntity
  8
0
100
AcDbLine
 62
7
  6
CONTINUOUS
 10
-16.2634559673
 20
47.2189445899
 11
-16.0513239329
 21
47.2189445899
  0
LINE
  5
40D
100
AcDbEntity
  8
DRAFT
100
AcDbLine
 62
7
  6
CONTINUOUS
 10
33.07491969
 20
47.3690766061
 11
33.7229857155
 21
47.3690766061
  0
LINE
  5
40E
100
AcDbEntity
  8
0
100
AcDbLine
 62
7
  6
CONTINUOUS
 10
-15.9099025767
 20
47.4230818866
 11
-15.6977705423
 21
47.4230818866
  0
LINE
  5
40F
100
AcDbEntity
  8
0
100
AcDbLine
 62
7
  6
CONTINUOUS
 10
-15.5563491861
 20
47.6272191833
 11
-15.3442171517
 21
47.6272191833
  0
LINE
  5
410
100
AcDbEntity
  8
0
100
AcDbLine
 62
7
  6
CONTINUOUS
 10
-15.2027957955
 20
47.8313564799
 11
-14.9906637612
 21
47.8313564799
  0
LINE
  5
411
100
AcDbEntity
  8
0
100
AcDbLine
 62
7
  6
CONTINUOUS
 10
-14.8492424049
 20
48.0354937766
 11
-14.6371103706
 21
48.0354937766
  0
LINE
  5
412
100
AcDbEntity
  8
0
100
AcDbLine
 62
7
  6
CONTINUOUS
 10
12.8548813805
 20
-53.7084926527
 11
11.7141233197
 21
-54.4400080335
  0
LINE
  5
413
100
AcDbEntity
  8
0
100
AcDbLine
 62
7
  6
CONTINUOUS
 10
12.8548813805
 20
-54.1623845152
 11
12.0510716759
 21
-54.6345577914
  0
LINE
  5
414
100
AcDbEntity
  8
0
100
AcDbLine
 62
7
  6
CONTINUOUS
 10
12.1982349799
 20
-54.7195280388
 11
12.4985296452
 21
-54.5452847166
  0
LINE
  5
415
100
AcDbEntity
  8
0
100
AcDbLine
 62
7
  6
CONTINUOUS
 10
12.6483547588
 20
-54.4120291396
 11
12.1580599628
 21
-54.6963314874
  0
LINE
  5
416
100
AcDbEntity
  8
0
100
AcDbLine
 62
7
  6
CONTINUOUS
 10
10.1646599796
 20
-53.5453673202
 11
9.5989745546
 21
-53.8719869949
  0
LINE
  5
417
100
AcDbEntity
  8
0
100
AcDbLine
 62
7
  6
CONTINUOUS
 10
11.5611958724
 20
-54.0861457182
 11
11.6672618896
 21
-54.0249045292
  0
LINE
  5
418
100
AcDbEntity
  8
0
100
AcDbLine
 62
7
  6
CONTINUOUS
 10
11.914749263
 20
-53.8820084215
 11
12.0208152802
 21
-53.8207672325
  0
LINE
  5
419
100
AcDbEntity
  8
0
100
AcDbLine
 62
7
  6
CONTINUOUS
 10
12.2683026536
 20
-53.6778711249
 11
12.3743686708
 21
-53.6166299359
  0
LINE
  5
41A
100
AcDbEntity
  8
0
100
AcDbLine
 62
7
  6
CONTINUOUS
 10
12.6218560442
 20
-53.4737338282
 11
12.7279220614
 21
-53.4124926392
  0
LINE
  5
41B
100
AcDbEntity
  8
0
100
AcDbLine
 62
7
  6
CONTINUOUS
 10
12.8339880785
 20
-53.4737219917
 11
12.515790027
 21
-53.6574455587
  0
LINE
  5
41C
100
AcDbEntity
  8
0
100
AcDbLine
 62
7
  6
CONTINUOUS
 10
12.4804346879
 20
-53.6778592884
 11
12.1622366364
 21
-53.8615828554
  0
LINE
  5
41D
100
AcDbEntity
  8
0
100
AcDbLine
 62
7
  6
CONTINUOUS
 10
12.1268812973
 20
-53.8819965851
 11
11.8086832458
 21
-54.0657201521
  0
LINE
  5
41E
100
AcDbEntity
  8
0
100
AcDbLine
 62
7
  6
CONTINUOUS
 10
11.7733279068
 20
-54.0861338817
 11
11.4551298552
 21
-54.2698574487
  0
LINE
  5
41F
100
AcDbEntity
  8
0
100
AcDbLine
 62
7
  6
CONTINUOUS
 10
-15.790077944
 20
52.8141707905
 11
-15.4822080971
 21
52.8614757234
  0
LINE
  5
420
100
AcDbEntity
  8
0
100
AcDbLine
 62
7
  6
CONTINUOUS
 10
-16.2634559673
 20
51.7095311123
 11
-16.0513239329
 21
51.7095311123
  0
LINE
  5
421
100
AcDbEntity
  8
0
100
AcDbLine
 62
7
  6
CONTINUOUS
 10
-15.9099025767
 20
51.913668409
 11
-15.6977705423
 21
51.913668409
  0
LINE
  5
422
100
AcDbEntity
  8
0
100
AcDbLine
 62
7
  6
CONTINUOUS
 10
-15.5563491861
 20
52.1178057056
 11
-15.3442171517
 21
52.1178057056
  0
LINE
  5
423
100
AcDbEntity
  8
0
100
AcDbLine
 62
7
  6
CONTINUOUS
 10
-15.2027957955
 20
52.3219430023
 11
-14.9906637612
 21
52.3219430023
  0
LINE
  5
424
100
AcDbEntity
  8
RACCORDO
100
AcDbLine
 62
7
  6
CONTINUOUS
 10
-19.7674414353
 20
55.3441830754
 11
-19.7673151352
 21
55.3441782205
  0
LINE
  5
425
100
AcDbEntity
  8
RACCORDO
100
AcDbLine
 62
7
  6
CONTINUOUS
 10
-19.4845536334
 20
55.1850232229
 11
-19.8516763404
 21
55.1992883777
  0
LWPOLYLINE
  5
426
100
AcDbEntity
  8
RACCORDO
100
AcDbPolyline
 62
7
  6
CONTINUOUS
 90
9
 70
0
 10
-19.7673314585
 20
55.3441719274
 10
-19.768570535
 20
55.3442383336
 10
-19.7702001065
 20
55.3443978062
 10
-19.7683433316
 20
55.3439770066
 10
-19.7633416437
 20
55.3424746528
 10
-19.7553417826
 20
55.3394503007
 10
-19.7448042323
 20
55.3346614573
 10
-19.7327276097
 20
55.3282929908
 10
-19.7298319387
 20
55.3266436523
  0
LINE
  5
427
100
AcDbEntity
  8
SMUSSO
100
AcDbLine
 62
7
  6
CONTINUOUS
 10
26.3574052687
 20
44.307368305
 11
-32.6153002822
 21
78.3574693886
  0
LINE
  5
428
100
AcDbEntity
  8
SMUSSO
100
AcDbLine
 62
7
  6
CONTINUOUS
 10
31.307152737
 20
47.9813661858
 11
-34.7366206258
 21
86.1142132026
  0
LINE
  5
429
100
AcDbEntity
  8
RACCORDO
100
AcDbLine
 62
7
  6
CONTINUOUS
 10
15.1764142512
 20
-62.4799136046
 11
15.4679608385
 21
-62.3231292848
  0
LINE
  5
42A
100
AcDbEntity
  8
RACCORDO
100
AcDbLine
 62
7
  6
CONTINUOUS
 10
15.0237694129
 20
-62.8045680198
 11
15.3168487806
 21
-62.6469594202
  0
LINE
  5
42B
100
AcDbEntity
  8
SMUSSO
100
AcDbLine
 62
7
  6
CONTINUOUS
 10
-33.675960454
 20
86.7266250926
 11
32.7213662994
 21
48.3896802341
  0
LINE
  5
42C
100
AcDbEntity
  8
DRAFT
100
AcDbLine
 62
7
  6
CONTINUOUS
 10
32.6918459206
 20
49.1550631176
 11
-32.5741099819
 21
86.8388080812
  0
LINE
  5
42D
100
AcDbEntity
  8
DRAFT
100
AcDbLine
 62
7
  6
CONTINUOUS
 10
-30.8828886693
 20
87.8493841703
 11
35.0901740164
 21
49.7574435221
  0
LINE
  5
42E
100
AcDbEntity
  8
SMUSSO
100
AcDbLine
 62
7
  6
CONTINUOUS
 10
31.7381497605
 20
-87.968684284
 11
31.7381171433
 21
-87.9687032852
  0
LINE
  5
42F
100
AcDbEntity
  8
SMUSSO
100
AcDbLine
 62
7
  6
CONTINUOUS
 10
32.0142595182
 20
-87.471092189
 11
33.07491969
 21
-86.8586802991
  0
LINE
  5
430
100
AcDbEntity
  8
RACCORDO
100
AcDbLine
 62
7
  6
CONTINUOUS
 10
31.738148508
 20
-87.968685177
 11
32.867837069
 21
-87.3164171602
  0
LINE
  5
431
100
AcDbEntity
  8
DRAFT
100
AcDbLine
 62
7
  6
CONTINUOUS
 10
33.7229857155
 20
-85.9605195931
 11
35.443727407
 21
-85.0010742998
  0
LINE
  5
432
100
AcDbEntity
  8
DRAFT
100
AcDbLine
 62
7
  6
CONTINUOUS
 10
33.4119531207
 20
-86.633114631
 11
35.1237902972
 21
-85.6929249796
  0
ARC
  5
433
100
AcDbEntity
  8
0
100
AcDbCircle
 62
7
  6
CONTINUOUS
 10
-16.0069632861
 20
-38.1075563044
 40
0.2999999327
100
AcDbArc
 50
359.9998174713
 51
59.9983938114
  0
ARC
  5
434
100
AcDbEntity
  8
0
100
AcDbCircle
 62
7
  6
CONTINUOUS
 10
-16.0069632861
 20
19.8618333479
 40
0.2999999327
100
AcDbArc
 50
359.9998174713
 51
59.9983938114
  0
ARC
  5
435
100
AcDbEntity
  8
RACCORDO
100
AcDbCircle
 62
7
  6
CONTINUOUS
 10
-18.155725734
 20
-39.5240266282
 40
0.1790283039
100
AcDbArc
 50
228.1625124162
 51
240.1188149396
  0
ARC
  5
436
100
AcDbEntity
  8
RACCORDO
100
AcDbCircle
 62
7
  6
CONTINUOUS
 10
-18.155725734
 20
18.4453630241
 40
0.1790283039
100
AcDbArc
 50
228.1625124162
 51
240.1188149396
  0
ARC
  5
437
100
AcDbEntity
  8
0
100
AcDbCircle
 62
7
  6
CONTINUOUS
 10
-14.6000878118
 20
48.1257992171
 40
0.1427973923
100
AcDbArc
 50
334.456769174
 51
339.454083564
  0
ARC
  5
438
100
AcDbEntity
  8
0
100
AcDbCircle
 62
7
  6
CONTINUOUS
 10
-14.5878223677
 20
48.1199328847
 40
0.1292012548
100
AcDbArc
 50
329.1077520581
 51
334.4586303454
  0
ARC
  5
439
100
AcDbEntity
  8
0
100
AcDbCircle
 62
7
  6
CONTINUOUS
 10
-14.5593957824
 20
-28.2423263133
 40
0.0928420983
100
AcDbArc
 50
304.988449695
 51
311.431982977
  0
SPLINE
  5
43A
100
AcDbEntity
  8
RACCORDO
100
AcDbSpline
 62
7
  6
CONTINUOUS
 70
0
 71
3
 72
9
 73
5
 74
3
 42
0.0000001
 43
0.0000001
 44
0.0000000001
 12
-0.1258022839
 22
-0.0751721723
 32
0.0
 13
-0.1037487076
 23
-0.1035049555
 33
0.0
 40
0.0
 40
0.0
 40
0.0
 40
0.0
 40
0.2375582814
 40
1.0
 40
1.0
 40
1.0
 40
1.0
 10
-18.1301661553
 20
-39.588441185
 30
0.0
 10
-18.1401279467
 20
-39.5943937757
 30
0.0
 10
-18.1811563075
 20
-39.620959575
 30
0.0
 10
-18.2185507315
 20
-39.6529494818
 30
0.0
 10
-18.2449181791
 20
-39.6792549805
 30
0.0
 11
-18.1301661553
 21
-39.588441185
 31
0.0
 11
-18.1594161231
 21
-39.6073217307
 31
0.0
 11
-18.2449181791
 21
-39.6792549805
 31
0.0
  0
SPLINE
  5
43B
100
AcDbEntity
  8
RACCORDO
100
AcDbSpline
 62
7
  6
CONTINUOUS
 70
0
 71
3
 72
9
 73
5
 74
3
 42
0.0000001
 43
0.0000001
 44
0.0000000001
 12
-0.1440896839
 22
-0.0602425744
 32
0.0
 13
-0.1252946641
 23
-0.0932322472
 33
0.0
 40
0.0
 40
0.0
 40
0.0
 40
0.0
 40
0.24092834
 40
1.0
 40
1.0
 40
1.0
 40
1.0
 10
-18.1400814534
 20
-39.5794296905
 30
0.0
 10
-18.1516532162
 20
-39.5842677384
 30
0.0
 10
-18.1989888968
 20
-39.6059935641
 30
0.0
 10
-18.2434374092
 20
-39.6338231002
 30
0.0
 10
-18.2751399521
 20
-39.6574130858
 30
0.0
 11
-18.1400814534
 21
-39.5794296905
 31
0.0
 11
-18.1742946402
 21
-39.5950907714
 31
0.0
 11
-18.2751399521
 21
-39.6574130858
 31
0.0
  0
SPLINE
  5
43C
100
AcDbEntity
  8
RACCORDO
100
AcDbSpline
 62
7
  6
CONTINUOUS
 70
0
 71
3
 72
9
 73
5
 74
3
 42
0.0000001
 43
0.0000001
 44
0.0000000001
 12
-0.1242085342
 22
-0.0946731593
 32
0.0
 13
-0.1433862242
 23
-0.0618963471
 33
0.0
 40
0.0
 40
0.0
 40
0.0
 40
0.0
 40
0.2409316862
 40
1.0
 40
1.0
 40
1.0
 40
1.0
 10
-18.3394202881
 20
-39.2341652753
 30
0.0
 10
-18.3493955453
 20
-39.24176853
 30
0.0
 10
-18.3918760958
 20
-39.2719024788
 30
0.0
 10
-18.4382000791
 20
-39.2964835979
 30
0.0
 10
-18.4744800589
 20
-39.3121447832
 30
0.0
 11
-18.3394202881
 21
-39.2341652753
 31
0.0
 11
-18.3700884705
 21
-39.2559666451
 31
0.0
 11
-18.4744800589
 21
-39.3121447832
 31
0.0
  0
SPLINE
  5
43D
100
AcDbEntity
  8
RACCORDO
100
AcDbSpline
 62
7
  6
CONTINUOUS
 70
0
 71
3
 72
9
 73
5
 74
3
 42
0.0000001
 43
0.0000001
 44
0.0000000001
 12
-0.1279979636
 22
-0.0713676488
 32
0.0
 13
-0.1415101585
 23
-0.0381011157
 33
0.0
 40
0.0
 40
0.0
 40
0.0
 40
0.0
 40
0.237558507
 40
1.0
 40
1.0
 40
1.0
 40
1.0
 10
-18.3422658809
 20
-39.2210736843
 30
0.0
 10
-18.3524015493
 20
-39.226725015
 30
0.0
 10
-18.3959211058
 20
-39.2489756051
 30
0.0
 10
-18.4423215288
 20
-39.2653668775
 30
0.0
 10
-18.4782859344
 20
-39.275050168
 30
0.0
 11
-18.3422658809
 21
-39.2210736843
 31
0.0
 11
-18.37324101
 21
-39.236965984
 31
0.0
 11
-18.4782859344
 21
-39.275050168
 31
0.0
  0
SPLINE
  5
43E
100
AcDbEntity
  8
RACCORDO
100
AcDbSpline
 62
7
  6
CONTINUOUS
 70
0
 71
3
 72
15
 73
11
 74
9
 42
0.0000001
 43
0.0000001
 44
0.0000000001
 12
0.0000238213
 22
-0.597984879
 32
0.0
 13
-0.5178420862
 23
0.2990409502
 33
0.0
 40
0.0
 40
0.0
 40
0.0
 40
0.0
 40
0.1446786948
 40
0.2748799313
 40
0.3916072275
 40
0.4999943582
 40
0.6083856293
 40
0.725122466
 40
0.8553266085
 40
1.0
 40
1.0
 40
1.0
 40
1.0
 10
12.9427493461
 20
-59.2035517998
 30
0.0
 10
12.942750495
 20
-59.2323903571
 30
0.0
 10
12.9388048544
 20
-59.2873431643
 30
0.0
 10
12.9181548301
 20
-59.3632674631
 30
0.0
 10
12.8821861526
 20
-59.425487968
 30
0.0
 10
12.8307258247
 20
-59.469857081
 30
0.0
 10
12.766562377
 20
-59.4922209547
 30
0.0
 10
12.6946914409
 20
-59.4922406843
 30
0.0
 10
12.6186130543
 20
-59.4721689684
 30
0.0
 10
12.5690441885
 20
-59.4481199723
 30
0.0
 10
12.5440715315
 20
-59.4336988828
 30
0.0
 11
12.9427493461
 21
-59.2035517998
 31
0.0
 11
12.9356746293
 21
-59.2897777232
 31
0.0
 11
12.9141147501
 21
-59.3645914753
 31
0.0
 11
12.8781297045
 21
-59.424401827
 31
0.0
 11
12.8286625866
 21
-59.4662807164
 31
0.0
 11
12.7676524068
 21
-59.4881648671
 31
0.0
 11
12.697856621
 21
-59.4894084221
 31
0.0
 11
12.6222835979
 21
-59.4706757057
 31
0.0
 11
12.5440715315
 21
-59.4336988828
 31
0.0
  0
SPLINE
  5
43F
100
AcDbEntity
  8
RACCORDO
100
AcDbSpline
 62
7
  6
CONTINUOUS
 70
0
 71
3
 72
9
 73
5
 74
3
 42
0.0000001
 43
0.0000001
 44
0.0000000001
 12
0.1563813851
 22
-0.090284346
 32
0.0
 13
0.1281480412
 23
-0.1272182387
 33
0.0
 40
0.0
 40
0.0
 40
0.0
 40
0.0
 40
0.2366293495
 40
1.0
 40
1.0
 40
1.0
 40
1.0
 10
12.5440715315
 20
-21.1758422013
 30
0.0
 10
12.55640634
 20
-21.18296351
 30
0.0
 10
12.6074338806
 20
-21.2149468372
 30
0.0
 10
12.6539699874
 20
-21.2539068389
 30
0.0
 10
12.6865781386
 20
-21.2862783954
 30
0.0
 11
12.5440715315
 21
-21.1758422013
 31
0.0
 11
12.5803040766
 21
-21.1984905459
 31
0.0
 11
12.6865781386
 21
-21.2862783954
 31
0.0
  0
SPLINE
  5
440
100
AcDbEntity
  8
RACCORDO
100
AcDbSpline
 62
7
  6
CONTINUOUS
 70
0
 71
3
 72
10
 73
6
 74
4
 42
0.0000001
 43
0.0000001
 44
0.0000000001
 12
0.4592582815
 22
-0.4559260458
 32
0.0
 13
0.0000021875
 23
-0.6471373334
 33
0.0
 40
0.0
 40
0.0
 40
0.0
 40
0.0
 40
0.5173571193
 40
0.7703670028
 40
1.0
 40
1.0
 40
1.0
 40
1.0
 10
12.6865781386
 20
-21.2862783954
 30
0.0
 10
12.7657783191
 20
-21.364903924
 30
0.0
 10
12.8612816828
 20
-21.507193893
 30
0.0
 10
12.9297979117
 20
-21.7124810095
 30
0.0
 10
12.9427491787
 20
-21.8168377362
 30
0.0
 10
12.9427493461
 20
-21.8663724314
 30
0.0
 11
12.6865781386
 21
-21.2862783954
 31
0.0
 11
12.8747856976
 21
-21.5631713273
 31
0.0
 11
12.9258712085
 21
-21.7187299487
 31
0.0
 11
12.9427493461
 21
-21.8663724314
 31
0.0
  0
SPLINE
  5
441
100
AcDbEntity
  8
RACCORDO
100
AcDbSpline
 62
7
  6
CONTINUOUS
 70
0
 71
3
 72
11
 73
7
 74
5
 42
0.0000001
 43
0.0000001
 44
0.0000000001
 12
0.3303340714
 22
0.1779756193
 32
0.0
 13
0.0024728007
 23
0.3752196757
 33
0.0
 40
0.0
 40
0.0
 40
0.0
 40
0.0
 40
0.2174002984
 40
0.4501302195
 40
0.7094857245
 40
1.0
 40
1.0
 40
1.0
 40
1.0
 10
15.0239182876
 20
-62.8044844193
 30
0.0
 10
15.0478565295
 20
-62.7915871017
 30
0.0
 10
15.0929104599
 20
-62.7556602492
 30
0.0
 10
15.141167899
 20
-62.6796678585
 30
0.0
 10
15.1701679425
 20
-62.5852312215
 30
0.0
 10
15.1761747899
 20
-62.5162491621
 30
0.0
 10
15.1764142512
 20
-62.4799136046
 30
0.0
 11
15.0239182876
 21
-62.8044844193
 31
0.0
 11
15.0880084543
 21
-62.7540178703
 31
0.0
 11
15.1359490057
 21
-62.6810270259
 31
0.0
 11
15.1658166193
 21
-62.5884062812
 31
0.0
 11
15.1764142512
 21
-62.4799136046
 31
0.0
  0
SPLINE
  5
442
100
AcDbEntity
  8
RACCORDO
100
AcDbSpline
 62
7
  6
CONTINUOUS
 70
0
 71
3
 72
15
 73
11
 74
9
 42
0.0000001
 43
0.0000001
 44
0.0000000001
 12
-0.0000387078
 22
0.5979848853
 32
0.0
 13
0.5178497191
 23
-0.2990277463
 33
0.0
 40
0.0
 40
0.0
 40
0.0
 40
0.0
 40
0.1446658674
 40
0.2748627245
 40
0.391594032
 40
0.4999831839
 40
0.6083724348
 40
0.7251052566
 40
0.8553137174
 40
1.0
 40
1.0
 40
1.0
 40
1.0
 10
-20.1905938533
 20
-2.7355953263
 30
0.0
 10
-20.1905957199
 20
-2.7067593256
 30
0.0
 10
-20.1866367056
 20
-2.6518099671
 30
0.0
 10
-20.1659769087
 20
-2.5758932357
 30
0.0
 10
-20.1300203097
 20
-2.5136666122
 30
0.0
 10
-20.0785666219
 20
-2.469287864
 30
0.0
 10
-20.0144081426
 20
-2.44691355
 30
0.0
 10
-19.9425364979
 20
-2.4468801905
 30
0.0
 10
-19.8664564167
 20
-2.4669641326
 30
0.0
 10
-19.8168912889
 20
-2.4910265057
 30
0.0
 10
-19.7919160387
 20
-2.5054482434
 30
0.0
 11
-20.1905938533
 21
-2.7355953263
 31
0.0
 11
-20.1835079576
 21
-2.6493780163
 31
0.0
 11
-20.1619413313
 21
-2.5745689335
 31
0.0
 11
-20.1259630443
 21
-2.5147517158
 31
0.0
 11
-20.0765021854
 21
-2.472863563
 31
0.0
 11
-20.0154968774
 21
-2.4509694091
 31
0.0
 11
-19.945703659
 21
-2.4497165159
 31
0.0
 11
-19.8701299949
 21
-2.4684573817
 31
0.0
 11
-19.7919160387
 21
-2.5054482434
 31
0.0
  0
SPLINE
  5
443
100
AcDbEntity
  8
RACCORDO
100
AcDbSpline
 62
7
  6
CONTINUOUS
 70
0
 71
3
 72
11
 73
7
 74
5
 42
0.0000001
 43
0.0000001
 44
0.0000000001
 12
-0.1363190161
 22
0.0787088914
 32
0.0
 13
-0.0000316866
 23
0.1574101736
 33
0.0
 40
0.0
 40
0.0
 40
0.0
 40
0.0
 40
0.2895817376
 40
0.5491318165
 40
0.7822802582
 40
1.0
 40
1.0
 40
1.0
 40
1.0
 10
12.9427493461
 20
-21.8663724314
 30
0.0
 10
12.929590847
 20
-21.8587748789
 30
0.0
 10
12.9057118045
 20
-21.8423154249
 30
0.0
 10
12.8771587299
 20
-21.8123228456
 30
0.0
 10
12.8590954461
 20
-21.7791304967
 30
0.0
 10
12.8548861596
 20
-21.7553138207
 30
0.0
 10
12.85488386
 20
-21.7438900532
 30
0.0
 11
12.9427493461
 21
-21.8663724314
 31
0.0
 11
12.9054725933
 21
-21.8401376483
 31
0.0
 11
12.8777091504
 21
-21.8101645008
 31
0.0
 11
12.8606430539
 21
-21.7776739828
 31
0.0
 11
12.85488386
 21
-21.7438900532
 31
0.0
  0
SPLINE
  5
444
100
AcDbEntity
  8
RACCORDO
100
AcDbSpline
 62
7
  6
CONTINUOUS
 70
0
 71
3
 72
11
 73
7
 74
5
 42
0.0000001
 43
0.0000001
 44
0.0000000001
 12
-0.0000000517
 22
-0.1573888098
 32
0.0
 13
0.1362846782
 23
-0.0787256244
 33
0.0
 40
0.0
 40
0.0
 40
0.0
 40
0.0
 40
0.2895872683
 40
0.5491386409
 40
0.7822847649
 40
1.0
 40
1.0
 40
1.0
 40
1.0
 10
12.5440715315
 20
-21.1758422013
 30
0.0
 10
12.5440715265
 20
-21.1910347998
 30
0.0
 10
12.5463850486
 20
-21.2199408766
 30
0.0
 10
12.558079665
 20
-21.2596601628
 30
0.0
 10
12.577789227
 20
-21.2918958306
 30
0.0
 10
12.5963071178
 20
-21.3074478413
 30
0.0
 10
12.6061975347
 20
-21.3131610972
 30
0.0
 11
12.5440715315
 21
-21.1758422013
 31
0.0
 11
12.548151167
 21
-21.221237047
 31
0.0
 11
12.5602238086
 21
-21.2602628484
 31
0.0
 11
12.5798242521
 21
-21.2912840608
 31
0.0
 11
12.6061975347
 21
-21.3131610972
 31
0.0
  0
SPLINE
  5
445
100
AcDbEntity
  8
RACCORDO
100
AcDbSpline
 62
7
  6
CONTINUOUS
 70
0
 71
3
 72
11
 73
7
 74
5
 42
0.0000001
 43
0.0000001
 44
0.0000000001
 12
0.0
 22
-0.157342478
 32
0.0
 13
0.1362077173
 23
-0.0787661927
 33
0.0
 40
0.0
 40
0.0
 40
0.0
 40
0.0
 40
0.2895781872
 40
0.5491322113
 40
0.7822857584
 40
1.0
 40
1.0
 40
1.0
 40
1.0
 10
-19.7919160387
 20
-2.5054482434
 30
0.0
 10
-19.7919160387
 20
-2.5206358932
 30
0.0
 10
-19.7896039294
 20
-2.549533036
 30
0.0
 10
-19.7779172559
 20
-2.5892416655
 30
0.0
 10
-19.758221328
 20
-2.6214725367
 30
0.0
 10
-19.7397153913
 20
-2.6370275176
 30
0.0
 10
-19.7298306047
 20
-2.6427436916
 30
0.0
 11
-19.7919160387
 21
-2.5054482434
 31
0.0
 11
-19.7878391879
 21
-2.5508284336
 31
0.0
 11
-19.7757747339
 21
-2.5898446164
 31
0.0
 11
-19.7561872024
 21
-2.6208625897
 31
0.0
 11
-19.7298306047
 21
-2.6427436916
 31
0.0
  0
SPLINE
  5
446
100
AcDbEntity
  8
RACCORDO
100
AcDbSpline
 62
7
  6
CONTINUOUS
 70
0
 71
3
 72
10
 73
6
 74
4
 42
0.0000001
 43
0.0000001
 44
0.0000000001
 12
0.3008557635
 22
-0.1737074046
 32
0.0
 13
0.335457116
 23
0.0903159797
 33
0.0
 40
0.0
 40
0.0
 40
0.0
 40
0.0
 40
0.2300845876
 40
0.483607702
 40
1.0
 40
1.0
 40
1.0
 40
1.0
 10
-20.1905938533
 20
-2.7355953263
 30
0.0
 10
-20.1675197619
 20
-2.7489177919
 30
0.0
 10
-20.1150579096
 20
-2.7702591999
 30
0.0
 10
-20.0009676012
 20
-2.7918457119
 30
0.0
 10
-19.9094188308
 20
-2.7856463344
 30
0.0
 10
-19.8516763404
 20
-2.7701001756
 30
0.0
 11
-20.1905938533
 21
-2.7355953263
 31
0.0
 11
-20.1169864037
 21
-2.7667571524
 31
0.0
 11
-20.0305562735
 21
-2.783697003
 31
0.0
 11
-19.8516763404
 21
-2.7701001756
 31
0.0
  0
SPLINE
  5
447
100
AcDbEntity
  8
RACCORDO
100
AcDbSpline
 62
7
  6
CONTINUOUS
 70
0
 71
3
 72
10
 73
6
 74
4
 42
0.0000001
 43
0.0000001
 44
0.0000000001
 12
0.3008547198
 22
-0.1737097446
 32
0.0
 13
0.3354567303
 23
0.0903184363
 33
0.0
 40
0.0
 40
0.0
 40
0.0
 40
0.0
 40
0.2300849491
 40
0.4836079614
 40
1.0
 40
1.0
 40
1.0
 40
1.0
 10
-20.1905938533
 20
-40.0727746948
 30
0.0
 10
-20.1675198057
 20
-40.0860973607
 30
0.0
 10
-20.1150579837
 20
-40.1074390923
 30
0.0
 10
-20.000967612
 20
-40.1290258344
 30
0.0
 10
-19.9094187354
 20
-40.1228261179
 30
0.0
 10
-19.8516763404
 20
-40.107279544
 30
0.0
 11
-20.1905938533
 21
-40.0727746948
 31
0.0
 11
-20.1169864029
 21
-40.1039369982
 31
0.0
 11
-20.0305562723
 21
-40.120877013
 31
0.0
 11
-19.8516763404
 21
-40.107279544
 31
0.0
  0
SPLINE
  5
448
100
AcDbEntity
  8
RACCORDO
100
AcDbSpline
 62
7
  6
CONTINUOUS
 70
0
 71
3
 72
11
 73
7
 74
5
 42
0.0000001
 43
0.0000001
 44
0.0000000001
 12
0.0000141053
 22
-0.1574089984
 32
0.0
 13
0.1363179965
 23
-0.078708302
 33
0.0
 40
0.0
 40
0.0
 40
0.0
 40
0.0
 40
0.2177586874
 40
0.4509006419
 40
0.7104563331
 40
1.0
 40
1.0
 40
1.0
 40
1.0
 10
-22.091583906
 20
-41.1307719162
 30
0.0
 10
-22.0915828821
 20
-41.1421976418
 30
0.0
 10
-22.0873876895
 20
-41.1660185335
 30
0.0
 10
-22.0693175123
 20
-41.1992119508
 30
0.0
 10
-22.040761105
 20
-41.2291964487
 30
0.0
 10
-22.0168858837
 20
-41.2456577799
 30
0.0
 10
-22.0037292129
 20
-41.2532542766
 30
0.0
 11
-22.091583906
 21
-41.1307719162
 31
0.0
 11
-22.085834448
 21
-41.1645634624
 31
0.0
 11
-22.0687679352
 21
-41.1970522981
 31
0.0
 11
-22.0410001004
 21
-41.2270221646
 31
0.0
 11
-22.0037292129
 21
-41.2532542766
 31
0.0
  0
SPLINE
  5
449
100
AcDbEntity
  8
RACCORDO
100
AcDbSpline
 62
7
  6
CONTINUOUS
 70
0
 71
3
 72
10
 73
6
 74
4
 42
0.0000001
 43
0.0000001
 44
0.0000000001
 12
0.0000001141
 22
0.3473993299
 32
0.0
 13
0.2459370819
 23
0.2453594223
 33
0.0
 40
0.0
 40
0.0
 40
0.0
 40
0.0
 40
0.2300791698
 40
0.4836010627
 40
1.0
 40
1.0
 40
1.0
 40
1.0
 10
-19.7919160387
 20
-40.7633049249
 30
0.0
 10
-19.7919160299
 20
-40.7366618084
 30
0.0
 10
-19.7841661805
 20
-40.680559278
 30
0.0
 10
-19.7458141257
 20
-40.570962525
 30
0.0
 10
-19.6946713157
 20
-40.4947791074
 30
0.0
 10
-19.6523374331
 20
-40.4525446591
 30
0.0
 11
-19.7919160387
 21
-40.7633049249
 31
0.0
 11
-19.7820979028
 21
-40.6839808736
 31
0.0
 11
-19.7535523692
 21
-40.6006618183
 31
0.0
 11
-19.6523374331
 21
-40.4525446591
 31
0.0
  0
SPLINE
  5
44A
100
AcDbEntity
  8
RACCORDO
100
AcDbSpline
 62
7
  6
CONTINUOUS
 70
0
 71
3
 72
10
 73
6
 74
4
 42
0.0000001
 43
0.0000001
 44
0.0000000001
 12
-0.0
 22
0.3473993418
 32
0.0
 13
0.2459371687
 23
0.2453593523
 33
0.0
 40
0.0
 40
0.0
 40
0.0
 40
0.0
 40
0.2300791865
 40
0.4836010752
 40
1.0
 40
1.0
 40
1.0
 40
1.0
 10
12.5440715315
 20
-59.4336988828
 30
0.0
 10
12.5440715315
 20
-59.4070557635
 30
0.0
 10
12.5518213677
 20
-59.3509532269
 30
0.0
 10
12.590173415
 20
-59.2413564663
 30
0.0
 10
12.6413162406
 20
-59.1651730522
 30
0.0
 10
12.6836501371
 20
-59.122938617
 30
0.0
 11
12.5440715315
 21
-59.4336988828
 31
0.0
 11
12.5538896489
 21
-59.3543748206
 31
0.0
 11
12.5824351763
 21
-59.2710557616
 31
0.0
 11
12.6836501371
 21
-59.122938617
 31
0.0
  0
SPLINE
  5
44B
100
AcDbEntity
  8
RACCORDO
100
AcDbSpline
 62
7
  6
CONTINUOUS
 70
0
 71
3
 72
11
 73
7
 74
5
 42
0.0000001
 43
0.0000001
 44
0.0000000001
 12
-0.1363070506
 22
0.0787020424
 32
0.0
 13
-0.0000536147
 23
0.1573963806
 33
0.0
 40
0.0
 40
0.0
 40
0.0
 40
0.0
 40
0.2895790523
 40
0.5491299326
 40
0.7822805821
 40
1.0
 40
1.0
 40
1.0
 40
1.0
 10
12.9427493461
 20
-59.2035517998
 30
0.0
 10
12.929592124
 20
-59.1959549789
 30
0.0
 10
12.9057151756
 20
-59.1794972132
 30
0.0
 10
12.8771636668
 20
-59.1495082632
 30
0.0
 10
12.859099589
 20
-59.1163201437
 30
0.0
 10
12.8548877548
 20
-59.0925061082
 30
0.0
 10
12.8548838638
 20
-59.0810833587
 30
0.0
 11
12.9427493461
 21
-59.2035517998
 31
0.0
 11
12.9054759583
 21
-59.1773199068
 31
0.0
 11
12.8777137766
 21
-59.1473502968
 31
0.0
 11
12.8606465919
 21
-59.1148635889
 31
0.0
 11
12.8548838638
 21
-59.0810833587
 31
0.0
  0
SPLINE
  5
44C
100
AcDbEntity
  8
RACCORDO
100
AcDbSpline
 62
7
  6
CONTINUOUS
 70
0
 71
3
 72
11
 73
7
 74
5
 42
0.0000001
 43
0.0000001
 44
0.0000000001
 12
-0.7171285941
 22
0.4140697132
 32
0.0
 13
0.0000544718
 23
0.8280864356
 33
0.0
 40
0.0
 40
0.0
 40
0.0
 40
0.0
 40
0.2369489663
 40
0.5000027919
 40
0.7630483128
 40
1.0
 40
1.0
 40
1.0
 40
1.0
 10
-19.7919160387
 20
-40.7633049249
 30
0.0
 10
-19.8485569984
 20
-40.7306004613
 30
0.0
 10
-19.9571019974
 20
-40.6420310603
 30
0.0
 10
-20.0838050311
 20
-40.4714734712
 30
0.0
 10
-20.1681338135
 20
-40.2764626505
 30
0.0
 10
-20.1905981557
 20
-40.1381801875
 30
0.0
 10
-20.1905938533
 20
-40.0727746948
 30
0.0
 11
-19.7919160387
 21
-40.7633049249
 31
0.0
 11
-19.9457036635
 21
-40.6414468571
 31
0.0
 11
-20.076502178
 21
-40.4672566559
 31
0.0
 11
-20.1619413077
 21
-40.2668879042
 31
0.0
 11
-20.1905938533
 21
-40.0727746948
 31
0.0
  0
SPLINE
  5
44D
100
AcDbEntity
  8
RACCORDO
100
AcDbSpline
 62
7
  6
CONTINUOUS
 70
0
 71
3
 72
11
 73
7
 74
5
 42
0.0000001
 43
0.0000001
 44
0.0000000001
 12
0.000014108
 22
-0.157408994
 32
0.0
 13
0.1363179944
 23
-0.0787082969
 33
0.0
 40
0.0
 40
0.0
 40
0.0
 40
0.0
 40
0.2177586882
 40
0.4509006427
 40
0.7104563324
 40
1.0
 40
1.0
 40
1.0
 40
1.0
 10
-22.091583906
 20
0.6611298761
 30
0.0
 10
-22.0915828819
 20
0.6497041507
 30
0.0
 10
-22.0873876891
 20
0.6258832597
 30
0.0
 10
-22.0693175116
 20
0.5926898438
 30
0.0
 10
-22.0407611045
 20
0.5627053473
 30
0.0
 10
-22.0168858835
 20
0.5462440172
 30
0.0
 10
-22.0037292129
 20
0.5386475209
 30
0.0
 11
-22.091583906
 21
0.6611298761
 31
0.0
 11
-22.0858344476
 21
0.6273383308
 31
0.0
 11
-22.0687679345
 21
0.5948494964
 31
0.0
 11
-22.0410001001
 21
0.5648796314
 31
0.0
 11
-22.0037292129
 21
0.5386475209
 31
0.0
  0
SPLINE
  5
44E
100
AcDbEntity
  8
RACCORDO
100
AcDbSpline
 62
7
  6
CONTINUOUS
 70
0
 71
3
 72
13
 73
9
 74
7
 42
0.0000001
 43
0.0000001
 44
0.0000000001
 12
-0.0662090449
 22
0.1972123061
 32
0.0
 13
0.2078764784
 23
-0.0079812929
 33
0.0
 40
0.0
 40
0.0
 40
0.0
 40
0.0
 40
0.279534151
 40
0.5136620017
 40
0.6222252232
 40
0.7348380503
 40
0.8596282997
 40
1.0
 40
1.0
 40
1.0
 40
1.0
 10
-19.851676079
 20
-2.7701012848
 30
0.0
 10
-19.8578453087
 20
-2.7517254266
 30
0.0
 10
-19.8663612052
 20
-2.716877678
 30
0.0
 10
-19.8608556663
 20
-2.6718640528
 30
0.0
 10
-19.8417651996
 20
-2.6458339844
 30
0.0
 10
-19.8212490239
 20
-2.6325125073
 30
0.0
 10
-19.795667921
 20
-2.6255818549
 30
0.0
 10
-19.7771706192
 20
-2.6248324367
 30
0.0
 10
-19.767443961
 20
-2.625205886
 30
0.0
 11
-19.851676079
 21
-2.7701012848
 31
0.0
 11
-19.8632459876
 21
-2.713112503
 31
0.0
 11
-19.8544531261
 21
-2.6652072372
 31
0.0
 11
-19.8410092802
 21
-2.6470601526
 31
0.0
 11
-19.8215216899
 21
-2.6340582658
 31
0.0
 11
-19.796603023
 21
-2.6267791647
 31
0.0
 11
-19.767443961
 21
-2.625205886
 31
0.0
  0
SPLINE
  5
44F
100
AcDbEntity
  8
RACCORDO
100
AcDbSpline
 62
7
  6
CONTINUOUS
 70
0
 71
3
 72
11
 73
7
 74
5
 42
0.0000001
 43
0.0000001
 44
0.0000000001
 12
-0.4310685118
 22
0.1088707109
 32
0.0
 13
0.1215914924
 23
0.4276545364
 33
0.0
 40
0.0
 40
0.0
 40
0.0
 40
0.0
 40
0.2417492733
 40
0.5000082522
 40
0.7582667077
 40
1.0
 40
1.0
 40
1.0
 40
1.0
 10
-19.6523470609
 20
-40.4525414975
 30
0.0
 10
-19.687083894
 20
-40.4437683591
 30
0.0
 10
-19.7566599891
 20
-40.4132356073
 30
0.0
 10
-19.8357840138
 20
-40.3282675797
 30
0.0
 10
-19.8697490182
 20
-40.2172708321
 30
0.0
 10
-19.8614736723
 20
-40.1417378492
 30
0.0
 10
-19.8516761017
 20
-40.1072784028
 30
0.0
 11
-19.6523470609
 21
-40.4525414975
 31
0.0
 11
-19.7502949617
 21
-40.4082837462
 31
0.0
 11
-19.8280937998
 21
-40.3238345415
 31
0.0
 11
-19.8623060204
 21
-40.2142270695
 31
0.0
 11
-19.8516761017
 21
-40.1072784028
 31
0.0
  0
SPLINE
  5
450
100
AcDbEntity
  8
RACCORDO
100
AcDbSpline
 62
7
  6
CONTINUOUS
 70
0
 71
3
 72
9
 73
5
 74
3
 42
0.0000001
 43
0.0000001
 44
0.0000000001
 12
-0.0245012758
 22
-0.4136068379
 32
0.0
 13
0.370913549
 23
-0.1846457907
 33
0.0
 40
0.0
 40
0.0
 40
0.0
 40
0.0
 40
0.4999981152
 40
1.0
 40
1.0
 40
1.0
 40
1.0
 10
-18.4744801944
 20
-39.3121720188
 30
0.0
 10
-18.478563725
 20
-39.381106232
 30
0.0
 10
-18.4396294337
 20
-39.5221624513
 30
0.0
 10
-18.3369603654
 20
-39.6266354149
 30
0.0
 10
-18.2751412075
 20
-39.6574098293
 30
0.0
 11
-18.4744801944
 21
-39.3121720188
 31
0.0
 11
-18.4236960063
 21
-39.5130161746
 31
0.0
 11
-18.2751412075
 21
-39.6574098293
 31
0.0
  0
SPLINE
  5
451
100
AcDbEntity
  8
RACCORDO
100
AcDbSpline
 62
7
  6
CONTINUOUS
 70
0
 71
3
 72
10
 73
6
 74
4
 42
0.0000001
 43
0.0000001
 44
0.0000000001
 12
0.1828507333
 22
-0.3543641519
 32
0.0
 13
0.2144009064
 23
-0.336215101
 33
0.0
 40
0.0
 40
0.0
 40
0.0
 40
0.0
 40
0.2273651443
 40
0.5000028679
 40
1.0
 40
1.0
 40
1.0
 40
1.0
 10
-18.3394203841
 20
-39.2341652244
 30
0.0
 10
-18.325562423
 20
-39.2610219099
 30
0.0
 10
-18.2937720247
 20
-39.3193997835
 30
0.0
 10
-18.2283797502
 20
-39.4351133877
 30
0.0
 10
-18.1758147562
 20
-39.5233948107
 30
0.0
 10
-18.1400814768
 20
-39.5794303395
 30
0.0
 11
-18.3394203841
 21
-39.2341652244
 31
0.0
 11
-18.2964631498
 21
-39.3140063029
 31
0.0
 11
-18.2429932074
 21
-39.4086649876
 31
0.0
 11
-18.1400814768
 21
-39.5794303395
 31
0.0
  0
SPLINE
  5
452
100
AcDbEntity
  8
RACCORDO
100
AcDbSpline
 62
7
  6
CONTINUOUS
 70
0
 71
3
 72
9
 73
5
 74
3
 42
0.0000001
 43
0.0000001
 44
0.0000000001
 12
0.007213303
 22
-0.0113899398
 32
0.0
 13
0.0118511902
 23
-0.0064274226
 33
0.0
 40
0.0
 40
0.0
 40
0.0
 40
0.0
 40
0.2343894454
 40
1.0
 40
1.0
 40
1.0
 40
1.0
 10
-18.1400814768
 20
-39.5794303395
 30
0.0
 10
-18.1395179027
 20
-39.5803202333
 30
0.0
 10
-18.1368621135
 20
-39.5839577875
 30
0.0
 10
-18.1331906207
 20
-39.5868008841
 30
0.0
 10
-18.1301661553
 20
-39.588441185
 30
0.0
 11
-18.1400814768
 21
-39.5794303395
 31
0.0
 11
-18.1382171237
 21
-39.5819817957
 31
0.0
 11
-18.1301661553
 21
-39.588441185
 31
0.0
  0
SPLINE
  5
453
100
AcDbEntity
  8
RACCORDO
100
AcDbSpline
 62
7
  6
CONTINUOUS
 70
0
 71
3
 72
9
 73
5
 74
3
 42
0.0000001
 43
0.0000001
 44
0.0000000001
 12
-0.0003312848
 22
-0.0134726882
 32
0.0
 13
0.0061959692
 23
-0.0119680008
 33
0.0
 40
0.0
 40
0.0
 40
0.0
 40
0.0
 40
0.2685734322
 40
1.0
 40
1.0
 40
1.0
 40
1.0
 10
-18.3422658809
 20
-39.2210736843
 30
0.0
 10
-18.342295539
 20
-39.2222798197
 30
0.0
 10
-18.3421545548
 20
-39.226770702
 30
0.0
 10
-18.3409310163
 20
-39.2312473198
 30
0.0
 10
-18.3394203841
 20
-39.2341652244
 30
0.0
 11
-18.3422658809
 21
-39.2210736843
 31
0.0
 11
-18.3421417233
 21
-39.2246910541
 31
0.0
 11
-18.3394203841
 21
-39.2341652244
 31
0.0
  0
SPLINE
  5
454
100
AcDbEntity
  8
RACCORDO
100
AcDbSpline
 62
7
  6
CONTINUOUS
 70
0
 71
3
 72
11
 73
7
 74
5
 42
0.0000001
 43
0.0000001
 44
0.0000000001
 12
-0.0068243301
 22
1.024860587
 32
0.0
 13
-0.8841392067
 23
0.5183470434
 33
0.0
 40
0.0
 40
0.0
 40
0.0
 40
0.0
 40
0.2370060342
 40
0.4999938366
 40
0.7629849612
 40
1.0
 40
1.0
 40
1.0
 40
1.0
 10
15.1764142512
 20
-20.6880118071
 30
0.0
 10
15.1758751154
 20
-20.6070457593
 30
0.0
 10
15.1445987747
 20
-20.4363458658
 30
0.0
 10
15.0382350725
 20
-20.1963352577
 30
0.0
 10
14.8835591528
 20
-19.9842150588
 30
0.0
 10
14.7513663209
 20
-19.8717729871
 30
0.0
 10
14.6815148914
 20
-19.8308209722
 30
0.0
 11
15.1764142512
 21
-20.6880118071
 31
0.0
 11
15.1375901606
 21
-20.4482310447
 31
0.0
 11
15.0299097073
 21
-20.2011433762
 31
0.0
 11
14.8697639704
 21
-19.9843426051
 31
0.0
 11
14.6815148914
 21
-19.8308209722
 31
0.0
  0
SPLINE
  5
455
100
AcDbEntity
  8
RACCORDO
100
AcDbSpline
 62
7
  6
CONTINUOUS
 70
0
 71
3
 72
11
 73
7
 74
5
 42
0.0000001
 43
0.0000001
 44
0.0000000001
 12
-0.3262172695
 22
0.1854893057
 32
0.0
 13
-0.3193340888
 23
-0.1971033464
 33
0.0
 40
0.0
 40
0.0
 40
0.0
 40
0.0
 40
0.2905184574
 40
0.5498765043
 40
0.7826053532
 40
1.0
 40
1.0
 40
1.0
 40
1.0
 10
-21.5124997588
 20
1.0671494693
 30
0.0
 10
-21.5440904715
 20
1.0851121583
 30
0.0
 10
-21.6068397599
 20
1.1144069983
 30
0.0
 10
-21.7031338326
 20
1.136516533
 30
0.0
 10
-21.7930824493
 20
1.1327238702
 30
0.0
 10
-21.8467283725
 20
1.1116694703
 30
0.0
 10
-21.8698688797
 20
1.0973863995
 30
0.0
 11
-21.5124997588
 21
1.0671494693
 31
0.0
 11
-21.6117659593
 21
1.1122261078
 31
0.0
 11
-21.7069213148
 21
1.1326762616
 31
0.0
 11
-21.7941119962
 21
1.1276568016
 31
0.0
 11
-21.8698688797
 21
1.0973863995
 31
0.0
  0
SPLINE
  5
456
100
AcDbEntity
  8
RACCORDO
100
AcDbSpline
 62
7
  6
CONTINUOUS
 70
0
 71
3
 72
11
 73
7
 74
5
 42
0.0000001
 43
0.0000001
 44
0.0000000001
 12
-0.3738480846
 22
-0.223389988
 32
0.0
 13
0.000000011
 23
-0.4355060012
 33
0.0
 40
0.0
 40
0.0
 40
0.0
 40
0.0
 40
0.2383260036
 40
0.5010975909
 40
0.7632734208
 40
1.0
 40
1.0
 40
1.0
 40
1.0
 10
14.6815148904
 20
-19.8308209716
 30
0.0
 10
14.6518156505
 20
-19.8485675193
 30
0.0
 10
14.5957611741
 20
-19.8966926975
 30
0.0
 10
14.5304081689
 20
-19.9871651543
 30
0.0
 10
14.48582654
 20
-20.0892277372
 30
0.0
 10
14.4730850707
 20
-20.1617042333
 30
0.0
 10
14.4730850715
 20
-20.1960695153
 30
0.0
 11
14.6815148904
 21
-19.8308209716
 31
0.0
 11
14.6014701939
 21
-19.8968944901
 31
0.0
 11
14.5339205572
 21
-19.9892700307
 31
0.0
 11
14.488882448
 21
-20.0941911744
 31
0.0
 11
14.4730850715
 21
-20.1960695153
 31
0.0
  0
SPLINE
  5
457
100
AcDbEntity
  8
RACCORDO
100
AcDbSpline
 62
7
  6
CONTINUOUS
 70
0
 71
3
 72
11
 73
7
 74
5
 42
0.0000001
 43
0.0000001
 44
0.0000000001
 12
-0.3738480757
 22
-0.2233899999
 32
0.0
 13
0.0000000017
 23
-0.4355059997
 33
0.0
 40
0.0
 40
0.0
 40
0.0
 40
0.0
 40
0.2383260021
 40
0.5010975899
 40
0.76327342
 40
1.0
 40
1.0
 40
1.0
 40
1.0
 10
-21.5124997574
 20
1.0671494685
 30
0.0
 10
-21.5421989965
 20
1.04940292
 30
0.0
 10
-21.5982534716
 20
1.0012777413
 30
0.0
 10
-21.6636064777
 20
0.9108052859
 30
0.0
 10
-21.708188108
 20
0.8087427039
 30
0.0
 10
-21.7209295788
 20
0.7362662082
 30
0.0
 10
-21.7209295787
 20
0.7019009262
 30
0.0
 11
-21.5124997574
 21
1.0671494685
 31
0.0
 11
-21.5925444521
 21
1.0010759492
 31
0.0
 11
-21.6600940895
 21
0.9087004095
 31
0.0
 11
-21.7051322002
 21
0.8037792667
 31
0.0
 11
-21.7209295787
 21
0.7019009262
 31
0.0
  0
SPLINE
  5
458
100
AcDbEntity
  8
RACCORDO
100
AcDbSpline
 62
7
  6
CONTINUOUS
 70
0
 71
3
 72
11
 73
7
 74
5
 42
0.0000001
 43
0.0000001
 44
0.0000000001
 12
-0.380376472
 22
-0.21208902
 32
0.0
 13
-0.3771557076
 23
0.2177649767
 33
0.0
 40
0.0
 40
0.0
 40
0.0
 40
0.0
 40
0.2383228673
 40
0.5010914229
 40
0.763267564
 40
1.0
 40
1.0
 40
1.0
 40
1.0
 10
15.1764142512
 20
-20.6880118087
 30
0.0
 10
15.1461967807
 20
-20.7048603632
 30
0.0
 10
15.0764929834
 20
-20.7293449118
 30
0.0
 10
14.9654650757
 20
-20.7407070813
 30
0.0
 10
14.8547842507
 20
-20.7282831574
 30
0.0
 10
14.7856463688
 20
-20.7030768606
 30
0.0
 10
14.7558847057
 20
-20.6858928495
 30
0.0
 11
15.1764142512
 21
-20.6880118087
 31
0.0
 11
15.0791725822
 21
-20.7242992943
 31
0.0
 11
14.9653988864
 21
-20.7366124142
 31
0.0
 11
14.852014705
 21
-20.7231546893
 31
0.0
 11
14.7558847057
 21
-20.6858928495
 31
0.0
  0
SPLINE
  5
459
100
AcDbEntity
  8
RACCORDO
100
AcDbSpline
 62
7
  6
CONTINUOUS
 70
0
 71
3
 72
11
 73
7
 74
5
 42
0.0000001
 43
0.0000001
 44
0.0000000001
 12
-0.3803764778
 22
-0.2120890063
 32
0.0
 13
-0.3771557109
 23
0.2177649678
 33
0.0
 40
0.0
 40
0.0
 40
0.0
 40
0.0
 40
0.2383228673
 40
0.5010914248
 40
0.7632675667
 40
1.0
 40
1.0
 40
1.0
 40
1.0
 10
15.1764142512
 20
-62.4799136035
 30
0.0
 10
15.1461967802
 20
-62.4967621569
 30
0.0
 10
15.0764929827
 20
-62.5212467043
 30
0.0
 10
14.9654650753
 20
-62.532608875
 30
0.0
 10
14.8547842505
 20
-62.5201849525
 30
0.0
 10
14.7856463688
 20
-62.4949786573
 30
0.0
 10
14.7558847057
 20
-62.4777946471
 30
0.0
 11
15.1764142512
 21
-62.4799136035
 31
0.0
 11
15.0791725819
 21
-62.5162010872
 31
0.0
 11
14.9653988857
 21
-62.5285142079
 31
0.0
 11
14.8520147043
 21
-62.5150564845
 31
0.0
 11
14.7558847057
 21
-62.4777946471
 31
0.0
  0
SPLINE
  5
45A
100
AcDbEntity
  8
RACCORDO
100
AcDbSpline
 62
7
  6
CONTINUOUS
 70
0
 71
3
 72
9
 73
5
 74
3
 42
0.0000001
 43
0.0000001
 44
0.0000000001
 12
0.0000527323
 22
-0.0373502916
 32
0.0
 13
0.0077640379
 23
-0.0365344601
 33
0.0
 40
0.0
 40
0.0
 40
0.0
 40
0.0
 40
0.2547387322
 40
1.0
 40
1.0
 40
1.0
 40
1.0
 10
-18.4782859352
 20
-39.2750501704
 30
0.0
 10
-18.4782814576
 20
-39.2782216924
 30
0.0
 10
-18.477927611
 20
-39.2906672067
 30
0.0
 10
-18.4764050093
 20
-39.3030938422
 30
0.0
 10
-18.4744762637
 20
-39.3121697482
 30
0.0
 11
-18.4782859352
 21
-39.2750501704
 31
0.0
 11
-18.4780253381
 21
-39.2845611764
 31
0.0
 11
-18.4744762637
 21
-39.3121697482
 31
0.0
  0
SPLINE
  5
45B
100
AcDbEntity
  8
RACCORDO
100
AcDbSpline
 62
7
  6
CONTINUOUS
 70
0
 71
3
 72
11
 73
7
 74
5
 42
0.0000001
 43
0.0000001
 44
0.0000000001
 12
-0.1362924929
 22
0.0787097748
 32
0.0
 13
-0.0000000006
 23
0.1573876497
 33
0.0
 40
0.0
 40
0.0
 40
0.0
 40
0.0
 40
0.2177541405
 40
0.4508937694
 40
0.7104507771
 40
1.0
 40
1.0
 40
1.0
 40
1.0
 10
14.535216479
 20
-62.7783576068
 30
0.0
 10
14.5253237274
 20
-62.7726444803
 30
0.0
 10
14.5067951406
 20
-62.7571025628
 30
0.0
 10
14.4870881001
 20
-62.7248603898
 30
0.0
 10
14.4754021383
 20
-62.6851422545
 30
0.0
 10
14.4730850716
 20
-62.6562385429
 30
0.0
 10
14.4730850715
 20
-62.6410480524
 30
0.0
 11
14.535216479
 21
-62.7783576068
 31
0.0
 11
14.5088317343
 21
-62.7564851956
 31
0.0
 11
14.4892329541
 21
-62.7254644614
 31
0.0
 11
14.4771653404
 21
-62.6864364918
 31
0.0
 11
14.4730850715
 21
-62.6410480524
 31
0.0
  0
SPLINE
  5
45C
100
AcDbEntity
  8
RACCORDO
100
AcDbSpline
 62
7
  6
CONTINUOUS
 70
0
 71
3
 72
11
 73
7
 74
5
 42
0.0000001
 43
0.0000001
 44
0.0000000001
 12
-0.1362924929
 22
0.0787097779
 32
0.0
 13
-0.000000004
 23
0.1573876512
 33
0.0
 40
0.0
 40
0.0
 40
0.0
 40
0.0
 40
0.2177541423
 40
0.4508937728
 40
0.710450779
 40
1.0
 40
1.0
 40
1.0
 40
1.0
 10
-21.6587981692
 20
-41.8803871665
 30
0.0
 10
-21.6686909208
 20
-41.8746740397
 30
0.0
 10
-21.6872195078
 20
-41.8591321218
 30
0.0
 10
-21.7069265486
 20
-41.8268899484
 30
0.0
 10
-21.7186125112
 20
-41.7871718131
 30
0.0
 10
-21.7209295783
 20
-41.7582681015
 30
0.0
 10
-21.7209295787
 20
-41.7430776109
 30
0.0
 11
-21.6587981692
 21
-41.8803871665
 31
0.0
 11
-21.6851829142
 21
-41.8585147546
 31
0.0
 11
-21.7047816947
 21
-41.8274940199
 31
0.0
 11
-21.716849309
 21
-41.7884660504
 31
0.0
 11
-21.7209295787
 21
-41.7430776109
 31
0.0
  0
SPLINE
  5
45D
100
AcDbEntity
  8
RACCORDO
100
AcDbSpline
 62
7
  6
CONTINUOUS
 70
0
 71
3
 72
15
 73
11
 74
9
 42
0.0000001
 43
0.0000001
 44
0.0000000001
 12
0.0000290007
 22
0.4170681701
 32
0.0
 13
0.3612088352
 23
-0.2085042848
 33
0.0
 40
0.0
 40
0.0
 40
0.0
 40
0.0
 40
0.145084411
 40
0.2749838777
 40
0.3918358314
 40
0.5009156004
 40
0.6098397432
 40
0.7262475406
 40
0.855533188
 40
1.0
 40
1.0
 40
1.0
 40
1.0
 10
-22.0037292129
 20
0.5386475209
 30
0.0
 10
-22.0037278103
 20
0.5588175508
 30
0.0
 10
-22.0006935097
 20
0.5971781786
 30
0.0
 10
-21.9852411011
 20
0.6499033885
 30
0.0
 10
-21.959214451
 20
0.6927939372
 30
0.0
 10
-21.9230881773
 20
0.7235606111
 30
0.0
 10
-21.8786635137
 20
0.7400865406
 30
0.0
 10
-21.8286755002
 20
0.7417414883
 30
0.0
 10
-21.7754062003
 20
0.7293393259
 30
0.0
 10
-21.7406071443
 20
0.7132599456
 30
0.0
 10
-21.7232129147
 20
0.7032192958
 30
0.0
 11
-22.0037292129
 21
0.5386475209
 31
0.0
 11
-21.998351875
 21
0.5989182039
 31
0.0
 11
-21.9824215155
 21
0.6507000899
 31
0.0
 11
-21.9565462576
 21
0.6919989243
 31
0.0
 11
-21.9217091993
 21
0.7212573606
 31
0.0
 11
-21.8792301855
 21
0.7373604231
 31
0.0
 11
-21.8307352033
 21
0.7396708238
 31
0.0
 11
-21.7780536608
 21
0.7281764074
 31
0.0
 11
-21.7232129147
 21
0.7032192958
 31
0.0
  0
SPLINE
  5
45E
100
AcDbEntity
  8
RACCORDO
100
AcDbSpline
 62
7
  6
CONTINUOUS
 70
0
 71
3
 72
12
 73
8
 74
6
 42
0.0000001
 43
0.0000001
 44
0.0000000001
 12
0.505725355
 22
-0.2920463641
 32
0.0
 13
0.0000644726
 23
-0.5839941861
 33
0.0
 40
0.0
 40
0.0
 40
0.0
 40
0.0
 40
0.2368422947
 40
0.4991924762
 40
0.7618019237
 40
0.8853942362
 40
1.0
 40
1.0
 40
1.0
 40
1.0
 10
14.4730850715
 20
-20.1960695153
 30
0.0
 10
14.5130107894
 20
-20.2191258256
 30
0.0
 10
14.588633344
 20
-20.2826619037
 30
0.0
 10
14.6770177798
 20
-20.4029509623
 30
0.0
 10
14.7288218973
 20
-20.519503542
 30
0.0
 10
14.751327672
 20
-20.6145563547
 30
0.0
 10
14.7558822427
 20
-20.6609466615
 30
0.0
 10
14.7558847057
 20
-20.6832563614
 30
0.0
 11
14.4730850715
 21
-20.1960695153
 31
0.0
 11
14.5807834468
 21
-20.282856424
 31
0.0
 11
14.6722488958
 21
-20.4057697126
 31
0.0
 11
14.7336873309
 21
-20.5462878318
 31
0.0
 11
14.750075871
 21
-20.6165798147
 31
0.0
 11
14.7558847057
 21
-20.6832563614
 31
0.0
  0
SPLINE
  5
45F
100
AcDbEntity
  8
RACCORDO
100
AcDbSpline
 62
7
  6
CONTINUOUS
 70
0
 71
3
 72
15
 73
11
 74
9
 42
0.0000001
 43
0.0000001
 44
0.0000000001
 12
-0.0000290007
 22
-0.4170681613
 32
0.0
 13
-0.3612088275
 23
0.2085042803
 33
0.0
 40
0.0
 40
0.0
 40
0.0
 40
0.0
 40
0.1450844117
 40
0.2749838793
 40
0.3918358339
 40
0.5009156036
 40
0.6098397465
 40
0.7262475433
 40
0.8555331895
 40
1.0
 40
1.0
 40
1.0
 40
1.0
 10
14.7558847057
 20
-62.4777946471
 30
0.0
 10
14.7558833032
 20
-62.4979646767
 30
0.0
 10
14.7528490026
 20
-62.5363253038
 30
0.0
 10
14.7373965946
 20
-62.589050513
 30
0.0
 10
14.7113699454
 20
-62.6319410614
 30
0.0
 10
14.6752436729
 20
-62.6627077355
 30
0.0
 10
14.6308190107
 20
-62.6792336659
 30
0.0
 10
14.5808309985
 20
-62.6808886149
 30
0.0
 10
14.5275617
 20
-62.6684864544
 30
0.0
 10
14.4927626443
 20
-62.6524070759
 30
0.0
 10
14.4753684153
 20
-62.6423664264
 30
0.0
 11
14.7558847057
 21
-62.4777946471
 31
0.0
 11
14.750507368
 21
-62.538065329
 31
0.0
 11
14.7345770091
 21
-62.5898472144
 31
0.0
 11
14.708701752
 21
-62.6311460486
 31
0.0
 11
14.6738646949
 21
-62.6604044851
 31
0.0
 11
14.6313856824
 21
-62.6765075484
 31
0.0
 11
14.5828907015
 21
-62.6788179504
 31
0.0
 11
14.5302091602
 21
-62.6673235359
 31
0.0
 11
14.4753684153
 21
-62.6423664264
 31
0.0
  0
SPLINE
  5
460
100
AcDbEntity
  8
RACCORDO
100
AcDbSpline
 62
7
  6
CONTINUOUS
 70
0
 71
3
 72
12
 73
8
 74
6
 42
0.0000001
 43
0.0000001
 44
0.0000000001
 12
-0.5057253573
 22
0.2920463654
 32
0.0
 13
-0.0000644726
 23
0.5839941887
 33
0.0
 40
0.0
 40
0.0
 40
0.0
 40
0.0
 40
0.2368422949
 40
0.4991924767
 40
0.7618019242
 40
0.8853942365
 40
1.0
 40
1.0
 40
1.0
 40
1.0
 10
-21.7209295787
 20
-41.7430776109
 30
0.0
 10
-21.7608552968
 20
-41.7200213004
 30
0.0
 10
-21.8364778517
 20
-41.6564852219
 30
0.0
 10
-21.9248622878
 20
-41.5361961625
 30
0.0
 10
-21.9766664052
 20
-41.4196435822
 30
0.0
 10
-21.9991721796
 20
-41.3245907691
 30
0.0
 10
-22.0037267499
 20
-41.2782004621
 30
0.0
 10
-22.0037292129
 20
-41.2558907621
 30
0.0
 11
-21.7209295787
 21
-41.7430776109
 31
0.0
 11
-21.8286279544
 21
-41.6562907016
 31
0.0
 11
-21.9200934037
 21
-41.5333774121
 31
0.0
 11
-21.9815318387
 21
-41.3928592922
 31
0.0
 11
-21.9979203785
 21
-41.3225673091
 31
0.0
 11
-22.0037292129
 21
-41.2558907621
 31
0.0
  0
SPLINE
  5
461
100
AcDbEntity
  8
RACCORDO
100
AcDbSpline
 62
7
  6
CONTINUOUS
 70
0
 71
3
 72
9
 73
5
 74
3
 42
0.0000001
 43
0.0000001
 44
0.0000000001
 12
-0.0290535392
 22
-0.0551073363
 32
0.0
 13
-0.0539576766
 23
-0.0311367274
 33
0.0
 40
0.0
 40
0.0
 40
0.0
 40
0.0
 40
0.277017043
 40
1.0
 40
1.0
 40
1.0
 40
1.0
 10
12.8512669804
 20
-59.1224396551
 30
0.0
 10
12.8485842052
 20
-59.1275282122
 30
0.0
 10
12.8381034048
 20
-59.1453782495
 30
0.0
 10
12.823348357
 20
-59.16135966
 30
0.0
 10
12.8103448635
 20
-59.1688634344
 30
0.0
 11
12.8512669804
 21
-59.1224396551
 31
0.0
 11
12.8424494854
 21
-59.1372743458
 31
0.0
 11
12.8103448635
 21
-59.1688634344
 31
0.0
  0
SPLINE
  5
462
100
AcDbEntity
  8
RACCORDO
100
AcDbSpline
 62
7
  6
CONTINUOUS
 70
0
 71
3
 72
11
 73
7
 74
5
 42
0.0000001
 43
0.0000001
 44
0.0000000001
 12
-0.1261722059
 22
-0.072808724
 32
0.0
 13
-0.0964136199
 23
0.1092014182
 33
0.0
 40
0.0
 40
0.0
 40
0.0
 40
0.0
 40
0.2220361667
 40
0.4505038999
 40
0.7087907003
 40
1.0
 40
1.0
 40
1.0
 40
1.0
 10
12.8103448635
 20
-59.1688634344
 30
0.0
 10
12.8010065992
 20
-59.1742521577
 30
0.0
 10
12.7789428719
 20
-59.1807519874
 30
0.0
 10
12.7443527971
 20
-59.1728547337
 30
0.0
 10
12.712114156
 20
-59.1523782367
 30
0.0
 10
12.693008227
 20
-59.13353806
 30
0.0
 10
12.6836493794
 20
-59.1229379039
 30
0.0
 11
12.8103448635
 21
-59.1688634344
 31
0.0
 11
12.7792769174
 21
-59.1778610119
 31
0.0
 11
12.7465974583
 21
-59.1715592678
 31
0.0
 11
12.7142882171
 21
-59.1522777006
 31
0.0
 11
12.6836493794
 21
-59.1229379039
 31
0.0
  0
SPLINE
  5
463
100
AcDbEntity
  8
RACCORDO
100
AcDbSpline
 62
7
  6
CONTINUOUS
 70
0
 71
3
 72
9
 73
5
 74
3
 42
0.0000001
 43
0.0000001
 44
0.0000000001
 12
-0.1258022839
 22
-0.0751721723
 32
0.0
 13
-0.1037487076
 23
-0.1035049555
 33
0.0
 40
0.0
 40
0.0
 40
0.0
 40
0.0
 40
0.2375582814
 40
1.0
 40
1.0
 40
1.0
 40
1.0
 10
-18.1301661553
 20
18.3809484673
 30
0.0
 10
-18.1401279467
 20
18.3749958766
 30
0.0
 10
-18.1811563075
 20
18.3484300773
 30
0.0
 10
-18.2185507315
 20
18.3164401705
 30
0.0
 10
-18.2449181791
 20
18.2901346718
 30
0.0
 11
-18.1301661553
 21
18.3809484673
 31
0.0
 11
-18.1594161231
 21
18.3620679216
 31
0.0
 11
-18.2449181791
 21
18.2901346718
 31
0.0
  0
SPLINE
  5
464
100
AcDbEntity
  8
RACCORDO
100
AcDbSpline
 62
7
  6
CONTINUOUS
 70
0
 71
3
 72
9
 73
5
 74
3
 42
0.0000001
 43
0.0000001
 44
0.0000000001
 12
-0.1440896839
 22
-0.0602425744
 32
0.0
 13
-0.1252946641
 23
-0.0932322472
 33
0.0
 40
0.0
 40
0.0
 40
0.0
 40
0.0
 40
0.24092834
 40
1.0
 40
1.0
 40
1.0
 40
1.0
 10
-18.1400814534
 20
18.3899599617
 30
0.0
 10
-18.1516532162
 20
18.3851219139
 30
0.0
 10
-18.1989888968
 20
18.3633960882
 30
0.0
 10
-18.2434374092
 20
18.335566552
 30
0.0
 10
-18.2751399521
 20
18.3119765665
 30
0.0
 11
-18.1400814534
 21
18.3899599617
 31
0.0
 11
-18.1742946402
 21
18.3742988808
 31
0.0
 11
-18.2751399521
 21
18.3119765665
 31
0.0
  0
SPLINE
  5
465
100
AcDbEntity
  8
RACCORDO
100
AcDbSpline
 62
7
  6
CONTINUOUS
 70
0
 71
3
 72
9
 73
5
 74
3
 42
0.0000001
 43
0.0000001
 44
0.0000000001
 12
-0.1242085342
 22
-0.0946731593
 32
0.0
 13
-0.1433862242
 23
-0.0618963471
 33
0.0
 40
0.0
 40
0.0
 40
0.0
 40
0.0
 40
0.2409316862
 40
1.0
 40
1.0
 40
1.0
 40
1.0
 10
-18.3394202881
 20
18.7352243769
 30
0.0
 10
-18.3493955453
 20
18.7276211223
 30
0.0
 10
-18.3918760958
 20
18.6974871735
 30
0.0
 10
-18.4382000791
 20
18.6729060544
 30
0.0
 10
-18.4744800589
 20
18.6572448691
 30
0.0
 11
-18.3394202881
 21
18.7352243769
 31
0.0
 11
-18.3700884705
 21
18.7134230072
 31
0.0
 11
-18.4744800589
 21
18.6572448691
 31
0.0
  0
SPLINE
  5
466
100
AcDbEntity
  8
RACCORDO
100
AcDbSpline
 62
7
  6
CONTINUOUS
 70
0
 71
3
 72
9
 73
5
 74
3
 42
0.0000001
 43
0.0000001
 44
0.0000000001
 12
-0.1279979636
 22
-0.0713676488
 32
0.0
 13
-0.1415101585
 23
-0.0381011157
 33
0.0
 40
0.0
 40
0.0
 40
0.0
 40
0.0
 40
0.237558507
 40
1.0
 40
1.0
 40
1.0
 40
1.0
 10
-18.3422658809
 20
18.748315968
 30
0.0
 10
-18.3524015493
 20
18.7426646373
 30
0.0
 10
-18.3959211058
 20
18.7204140472
 30
0.0
 10
-18.4423215288
 20
18.7040227748
 30
0.0
 10
-18.4782859344
 20
18.6943394843
 30
0.0
 11
-18.3422658809
 21
18.748315968
 31
0.0
 11
-18.37324101
 21
18.7324236683
 31
0.0
 11
-18.4782859344
 21
18.6943394843
 31
0.0
  0
SPLINE
  5
467
100
AcDbEntity
  8
RACCORDO
100
AcDbSpline
 62
7
  6
CONTINUOUS
 70
0
 71
3
 72
15
 73
11
 74
9
 42
0.0000001
 43
0.0000001
 44
0.0000000001
 12
0.0000238213
 22
-0.597984879
 32
0.0
 13
-0.5178420862
 23
0.2990409502
 33
0.0
 40
0.0
 40
0.0
 40
0.0
 40
0.0
 40
0.1446786948
 40
0.2748799313
 40
0.3916072275
 40
0.4999943582
 40
0.6083856293
 40
0.725122466
 40
0.8553266085
 40
1.0
 40
1.0
 40
1.0
 40
1.0
 10
12.9427493461
 20
-1.2341621475
 30
0.0
 10
12.942750495
 20
-1.2630007048
 30
0.0
 10
12.9388048544
 20
-1.317953512
 30
0.0
 10
12.9181548301
 20
-1.3938778108
 30
0.0
 10
12.8821861526
 20
-1.4560983157
 30
0.0
 10
12.8307258247
 20
-1.5004674287
 30
0.0
 10
12.766562377
 20
-1.5228313024
 30
0.0
 10
12.6946914409
 20
-1.522851032
 30
0.0
 10
12.6186130543
 20
-1.5027793161
 30
0.0
 10
12.5690441885
 20
-1.47873032
 30
0.0
 10
12.5440715315
 20
-1.4643092305
 30
0.0
 11
12.9427493461
 21
-1.2341621475
 31
0.0
 11
12.9356746293
 21
-1.3203880709
 31
0.0
 11
12.9141147501
 21
-1.395201823
 31
0.0
 11
12.8781297045
 21
-1.4550121747
 31
0.0
 11
12.8286625866
 21
-1.4968910641
 31
0.0
 11
12.7676524068
 21
-1.5187752148
 31
0.0
 11
12.697856621
 21
-1.5200187698
 31
0.0
 11
12.6222835979
 21
-1.5012860534
 31
0.0
 11
12.5440715315
 21
-1.4643092305
 31
0.0
  0
SPLINE
  5
468
100
AcDbEntity
  8
RACCORDO
100
AcDbSpline
 62
7
  6
CONTINUOUS
 70
0
 71
3
 72
9
 73
5
 74
3
 42
0.0000001
 43
0.0000001
 44
0.0000000001
 12
0.1563813851
 22
-0.090284346
 32
0.0
 13
0.1281480412
 23
-0.1272182387
 33
0.0
 40
0.0
 40
0.0
 40
0.0
 40
0.0
 40
0.2366293495
 40
1.0
 40
1.0
 40
1.0
 40
1.0
 10
12.5440715315
 20
36.793547451
 30
0.0
 10
12.55640634
 20
36.7864261423
 30
0.0
 10
12.6074338806
 20
36.754442815
 30
0.0
 10
12.6539699874
 20
36.7154828134
 30
0.0
 10
12.6865781386
 20
36.6831112569
 30
0.0
 11
12.5440715315
 21
36.793547451
 31
0.0
 11
12.5803040766
 21
36.7708991064
 31
0.0
 11
12.6865781386
 21
36.6831112569
 31
0.0
  0
SPLINE
  5
469
100
AcDbEntity
  8
RACCORDO
100
AcDbSpline
 62
7
  6
CONTINUOUS
 70
0
 71
3
 72
10
 73
6
 74
4
 42
0.0000001
 43
0.0000001
 44
0.0000000001
 12
0.4592582815
 22
-0.4559260458
 32
0.0
 13
0.0000021875
 23
-0.6471373334
 33
0.0
 40
0.0
 40
0.0
 40
0.0
 40
0.0
 40
0.5173571193
 40
0.7703670028
 40
1.0
 40
1.0
 40
1.0
 40
1.0
 10
12.6865781386
 20
36.6831112569
 30
0.0
 10
12.7657783191
 20
36.6044857283
 30
0.0
 10
12.8612816828
 20
36.4621957593
 30
0.0
 10
12.9297979117
 20
36.2569086428
 30
0.0
 10
12.9427491787
 20
36.1525519161
 30
0.0
 10
12.9427493461
 20
36.1030172209
 30
0.0
 11
12.6865781386
 21
36.6831112569
 31
0.0
 11
12.8747856976
 21
36.406218325
 31
0.0
 11
12.9258712085
 21
36.2506597036
 31
0.0
 11
12.9427493461
 21
36.1030172209
 31
0.0
  0
SPLINE
  5
46A
100
AcDbEntity
  8
RACCORDO
100
AcDbSpline
 62
7
  6
CONTINUOUS
 70
0
 71
3
 72
11
 73
7
 74
5
 42
0.0000001
 43
0.0000001
 44
0.0000000001
 12
0.3303340714
 22
0.1779756193
 32
0.0
 13
0.0024728007
 23
0.3752196757
 33
0.0
 40
0.0
 40
0.0
 40
0.0
 40
0.0
 40
0.2174002984
 40
0.4501302195
 40
0.7094857245
 40
1.0
 40
1.0
 40
1.0
 40
1.0
 10
15.0239182876
 20
-4.835094767
 30
0.0
 10
15.0478565295
 20
-4.8221974494
 30
0.0
 10
15.0929104599
 20
-4.7862705969
 30
0.0
 10
15.141167899
 20
-4.7102782062
 30
0.0
 10
15.1701679425
 20
-4.6158415693
 30
0.0
 10
15.1761747899
 20
-4.5468595098
 30
0.0
 10
15.1764142512
 20
-4.5105239523
 30
0.0
 11
15.0239182876
 21
-4.835094767
 31
0.0
 11
15.0880084543
 21
-4.784628218
 31
0.0
 11
15.1359490057
 21
-4.7116373736
 31
0.0
 11
15.1658166193
 21
-4.6190166289
 31
0.0
 11
15.1764142512
 21
-4.5105239523
 31
0.0
  0
SPLINE
  5
46B
100
AcDbEntity
  8
RACCORDO
100
AcDbSpline
 62
7
  6
CONTINUOUS
 70
0
 71
3
 72
15
 73
11
 74
9
 42
0.0000001
 43
0.0000001
 44
0.0000000001
 12
-0.0000387078
 22
0.5979848853
 32
0.0
 13
0.5178497191
 23
-0.2990277463
 33
0.0
 40
0.0
 40
0.0
 40
0.0
 40
0.0
 40
0.1446658674
 40
0.2748627245
 40
0.391594032
 40
0.4999831839
 40
0.6083724348
 40
0.7251052566
 40
0.8553137174
 40
1.0
 40
1.0
 40
1.0
 40
1.0
 10
-20.1905938533
 20
55.233794326
 30
0.0
 10
-20.1905957199
 20
55.2626303267
 30
0.0
 10
-20.1866367056
 20
55.3175796852
 30
0.0
 10
-20.1659769087
 20
55.3934964166
 30
0.0
 10
-20.1300203097
 20
55.4557230401
 30
0.0
 10
-20.0785666219
 20
55.5001017883
 30
0.0
 10
-20.0144081426
 20
55.5224761023
 30
0.0
 10
-19.9425364979
 20
55.5225094618
 30
0.0
 10
-19.8664564167
 20
55.5024255197
 30
0.0
 10
-19.8168912889
 20
55.4783631466
 30
0.0
 10
-19.7919160387
 20
55.4639414089
 30
0.0
 11
-20.1905938533
 21
55.233794326
 31
0.0
 11
-20.1835079576
 21
55.320011636
 31
0.0
 11
-20.1619413313
 21
55.3948207188
 31
0.0
 11
-20.1259630443
 21
55.4546379365
 31
0.0
 11
-20.0765021854
 21
55.4965260893
 31
0.0
 11
-20.0154968774
 21
55.5184202432
 31
0.0
 11
-19.945703659
 21
55.5196731363
 31
0.0
 11
-19.8701299949
 21
55.5009322705
 31
0.0
 11
-19.7919160387
 21
55.4639414089
 31
0.0
  0
SPLINE
  5
46C
100
AcDbEntity
  8
RACCORDO
100
AcDbSpline
 62
7
  6
CONTINUOUS
 70
0
 71
3
 72
11
 73
7
 74
5
 42
0.0000001
 43
0.0000001
 44
0.0000000001
 12
-0.1363190161
 22
0.0787088914
 32
0.0
 13
-0.0000316866
 23
0.1574101736
 33
0.0
 40
0.0
 40
0.0
 40
0.0
 40
0.0
 40
0.2895817376
 40
0.5491318165
 40
0.7822802582
 40
1.0
 40
1.0
 40
1.0
 40
1.0
 10
12.9427493461
 20
36.1030172209
 30
0.0
 10
12.929590847
 20
36.1106147734
 30
0.0
 10
12.9057118045
 20
36.1270742274
 30
0.0
 10
12.8771587299
 20
36.1570668067
 30
0.0
 10
12.8590954461
 20
36.1902591556
 30
0.0
 10
12.8548861596
 20
36.2140758316
 30
0.0
 10
12.85488386
 20
36.2254995991
 30
0.0
 11
12.9427493461
 21
36.1030172209
 31
0.0
 11
12.9054725933
 21
36.1292520039
 31
0.0
 11
12.8777091504
 21
36.1592251515
 31
0.0
 11
12.8606430539
 21
36.1917156695
 31
0.0
 11
12.85488386
 21
36.2254995991
 31
0.0
  0
SPLINE
  5
46D
100
AcDbEntity
  8
RACCORDO
100
AcDbSpline
 62
7
  6
CONTINUOUS
 70
0
 71
3
 72
11
 73
7
 74
5
 42
0.0000001
 43
0.0000001
 44
0.0000000001
 12
-0.0000000517
 22
-0.1573888098
 32
0.0
 13
0.1362846782
 23
-0.0787256244
 33
0.0
 40
0.0
 40
0.0
 40
0.0
 40
0.0
 40
0.2895872683
 40
0.5491386409
 40
0.7822847649
 40
1.0
 40
1.0
 40
1.0
 40
1.0
 10
12.5440715315
 20
36.793547451
 30
0.0
 10
12.5440715265
 20
36.7783548525
 30
0.0
 10
12.5463850486
 20
36.7494487756
 30
0.0
 10
12.558079665
 20
36.7097294895
 30
0.0
 10
12.577789227
 20
36.6774938217
 30
0.0
 10
12.5963071178
 20
36.661941811
 30
0.0
 10
12.6061975347
 20
36.6562285551
 30
0.0
 11
12.5440715315
 21
36.793547451
 31
0.0
 11
12.548151167
 21
36.7481526053
 31
0.0
 11
12.5602238086
 21
36.7091268039
 31
0.0
 11
12.5798242521
 21
36.6781055915
 31
0.0
 11
12.6061975347
 21
36.6562285551
 31
0.0
  0
SPLINE
  5
46E
100
AcDbEntity
  8
RACCORDO
100
AcDbSpline
 62
7
  6
CONTINUOUS
 70
0
 71
3
 72
11
 73
7
 74
5
 42
0.0000001
 43
0.0000001
 44
0.0000000001
 12
0.0
 22
-0.157342478
 32
0.0
 13
0.1362077173
 23
-0.0787661927
 33
0.0
 40
0.0
 40
0.0
 40
0.0
 40
0.0
 40
0.2895781872
 40
0.5491322113
 40
0.7822857584
 40
1.0
 40
1.0
 40
1.0
 40
1.0
 10
-19.7919160387
 20
55.4639414089
 30
0.0
 10
-19.7919160387
 20
55.4487537591
 30
0.0
 10
-19.7896039294
 20
55.4198566163
 30
0.0
 10
-19.7779172559
 20
55.3801479868
 30
0.0
 10
-19.758221328
 20
55.3479171156
 30
0.0
 10
-19.7397153913
 20
55.3323621347
 30
0.0
 10
-19.7298306047
 20
55.3266459607
 30
0.0
 11
-19.7919160387
 21
55.4639414089
 31
0.0
 11
-19.7878391879
 21
55.4185612187
 31
0.0
 11
-19.7757747339
 21
55.3795450359
 31
0.0
 11
-19.7561872024
 21
55.3485270626
 31
0.0
 11
-19.7298306047
 21
55.3266459607
 31
0.0
  0
SPLINE
  5
46F
100
AcDbEntity
  8
RACCORDO
100
AcDbSpline
 62
7
  6
CONTINUOUS
 70
0
 71
3
 72
10
 73
6
 74
4
 42
0.0000001
 43
0.0000001
 44
0.0000000001
 12
0.3008557635
 22
-0.1737074046
 32
0.0
 13
0.335457116
 23
0.0903159797
 33
0.0
 40
0.0
 40
0.0
 40
0.0
 40
0.0
 40
0.2300845876
 40
0.483607702
 40
1.0
 40
1.0
 40
1.0
 40
1.0
 10
-20.1905938533
 20
55.233794326
 30
0.0
 10
-20.1675197619
 20
55.2204718604
 30
0.0
 10
-20.1150579096
 20
55.1991304524
 30
0.0
 10
-20.0009676012
 20
55.1775439404
 30
0.0
 10
-19.9094188308
 20
55.1837433179
 30
0.0
 10
-19.8516763404
 20
55.1992894767
 30
0.0
 11
-20.1905938533
 21
55.233794326
 31
0.0
 11
-20.1169864037
 21
55.2026324999
 31
0.0
 11
-20.0305562735
 21
55.1856926493
 31
0.0
 11
-19.8516763404
 21
55.1992894767
 31
0.0
  0
SPLINE
  5
470
100
AcDbEntity
  8
RACCORDO
100
AcDbSpline
 62
7
  6
CONTINUOUS
 70
0
 71
3
 72
10
 73
6
 74
4
 42
0.0000001
 43
0.0000001
 44
0.0000000001
 12
0.3008547198
 22
-0.1737097446
 32
0.0
 13
0.3354567303
 23
0.0903184363
 33
0.0
 40
0.0
 40
0.0
 40
0.0
 40
0.0
 40
0.2300849491
 40
0.4836079614
 40
1.0
 40
1.0
 40
1.0
 40
1.0
 10
-20.1905938533
 20
17.8966149575
 30
0.0
 10
-20.1675198057
 20
17.8832922916
 30
0.0
 10
-20.1150579837
 20
17.86195056
 30
0.0
 10
-20.000967612
 20
17.8403638179
 30
0.0
 10
-19.9094187354
 20
17.8465635344
 30
0.0
 10
-19.8516763404
 20
17.8621101083
 30
0.0
 11
-20.1905938533
 21
17.8966149575
 31
0.0
 11
-20.1169864029
 21
17.865452654
 31
0.0
 11
-20.0305562723
 21
17.8485126393
 31
0.0
 11
-19.8516763404
 21
17.8621101083
 31
0.0
  0
SPLINE
  5
471
100
AcDbEntity
  8
RACCORDO
100
AcDbSpline
 62
7
  6
CONTINUOUS
 70
0
 71
3
 72
11
 73
7
 74
5
 42
0.0000001
 43
0.0000001
 44
0.0000000001
 12
0.0000141053
 22
-0.1574089984
 32
0.0
 13
0.1363179965
 23
-0.078708302
 33
0.0
 40
0.0
 40
0.0
 40
0.0
 40
0.0
 40
0.2177586874
 40
0.4509006419
 40
0.7104563331
 40
1.0
 40
1.0
 40
1.0
 40
1.0
 10
-22.091583906
 20
16.8386177361
 30
0.0
 10
-22.0915828821
 20
16.8271920105
 30
0.0
 10
-22.0873876895
 20
16.8033711188
 30
0.0
 10
-22.0693175123
 20
16.7701777015
 30
0.0
 10
-22.040761105
 20
16.7401932036
 30
0.0
 10
-22.0168858837
 20
16.7237318724
 30
0.0
 10
-22.0037292129
 20
16.7161353756
 30
0.0
 11
-22.091583906
 21
16.8386177361
 31
0.0
 11
-22.085834448
 21
16.8048261899
 31
0.0
 11
-22.0687679352
 21
16.7723373542
 31
0.0
 11
-22.0410001004
 21
16.7423674877
 31
0.0
 11
-22.0037292129
 21
16.7161353756
 31
0.0
  0
SPLINE
  5
472
100
AcDbEntity
  8
RACCORDO
100
AcDbSpline
 62
7
  6
CONTINUOUS
 70
0
 71
3
 72
10
 73
6
 74
4
 42
0.0000001
 43
0.0000001
 44
0.0000000001
 12
0.0000001141
 22
0.3473993299
 32
0.0
 13
0.2459370819
 23
0.2453594223
 33
0.0
 40
0.0
 40
0.0
 40
0.0
 40
0.0
 40
0.2300791698
 40
0.4836010627
 40
1.0
 40
1.0
 40
1.0
 40
1.0
 10
-19.7919160387
 20
17.2060847274
 30
0.0
 10
-19.7919160299
 20
17.2327278439
 30
0.0
 10
-19.7841661805
 20
17.2888303743
 30
0.0
 10
-19.7458141257
 20
17.3984271273
 30
0.0
 10
-19.6946713157
 20
17.4746105449
 30
0.0
 10
-19.6523374331
 20
17.5168449932
 30
0.0
 11
-19.7919160387
 21
17.2060847274
 31
0.0
 11
-19.7820979028
 21
17.2854087787
 31
0.0
 11
-19.7535523692
 21
17.3687278339
 31
0.0
 11
-19.6523374331
 21
17.5168449932
 31
0.0
  0
SPLINE
  5
473
100
AcDbEntity
  8
RACCORDO
100
AcDbSpline
 62
7
  6
CONTINUOUS
 70
0
 71
3
 72
10
 73
6
 74
4
 42
0.0000001
 43
0.0000001
 44
0.0000000001
 12
-0.0
 22
0.3473993418
 32
0.0
 13
0.2459371687
 23
0.2453593523
 33
0.0
 40
0.0
 40
0.0
 40
0.0
 40
0.0
 40
0.2300791865
 40
0.4836010752
 40
1.0
 40
1.0
 40
1.0
 40
1.0
 10
12.5440715315
 20
-1.4643092305
 30
0.0
 10
12.5440715315
 20
-1.4376661112
 30
0.0
 10
12.5518213677
 20
-1.3815635746
 30
0.0
 10
12.590173415
 20
-1.271966814
 30
0.0
 10
12.6413162406
 20
-1.1957833999
 30
0.0
 10
12.6836501371
 20
-1.1535489647
 30
0.0
 11
12.5440715315
 21
-1.4643092305
 31
0.0
 11
12.5538896489
 21
-1.3849851683
 31
0.0
 11
12.5824351763
 21
-1.3016661093
 31
0.0
 11
12.6836501371
 21
-1.1535489647
 31
0.0
  0
SPLINE
  5
474
100
AcDbEntity
  8
RACCORDO
100
AcDbSpline
 62
7
  6
CONTINUOUS
 70
0
 71
3
 72
11
 73
7
 74
5
 42
0.0000001
 43
0.0000001
 44
0.0000000001
 12
-0.1363070506
 22
0.0787020424
 32
0.0
 13
-0.0000536147
 23
0.1573963806
 33
0.0
 40
0.0
 40
0.0
 40
0.0
 40
0.0
 40
0.2895790523
 40
0.5491299326
 40
0.7822805821
 40
1.0
 40
1.0
 40
1.0
 40
1.0
 10
12.9427493461
 20
-1.2341621475
 30
0.0
 10
12.929592124
 20
-1.2265653266
 30
0.0
 10
12.9057151756
 20
-1.2101075609
 30
0.0
 10
12.8771636668
 20
-1.1801186109
 30
0.0
 10
12.859099589
 20
-1.1469304914
 30
0.0
 10
12.8548877548
 20
-1.1231164559
 30
0.0
 10
12.8548838638
 20
-1.1116937065
 30
0.0
 11
12.9427493461
 21
-1.2341621475
 31
0.0
 11
12.9054759583
 21
-1.2079302545
 31
0.0
 11
12.8777137766
 21
-1.1779606445
 31
0.0
 11
12.8606465919
 21
-1.1454739366
 31
0.0
 11
12.8548838638
 21
-1.1116937065
 31
0.0
  0
SPLINE
  5
475
100
AcDbEntity
  8
RACCORDO
100
AcDbSpline
 62
7
  6
CONTINUOUS
 70
0
 71
3
 72
11
 73
7
 74
5
 42
0.0000001
 43
0.0000001
 44
0.0000000001
 12
-0.7171285941
 22
0.4140697132
 32
0.0
 13
0.0000544718
 23
0.8280864356
 33
0.0
 40
0.0
 40
0.0
 40
0.0
 40
0.0
 40
0.2369489663
 40
0.5000027919
 40
0.7630483128
 40
1.0
 40
1.0
 40
1.0
 40
1.0
 10
-19.7919160387
 20
17.2060847274
 30
0.0
 10
-19.8485569984
 20
17.2387891909
 30
0.0
 10
-19.9571019974
 20
17.327358592
 30
0.0
 10
-20.0838050311
 20
17.4979161811
 30
0.0
 10
-20.1681338135
 20
17.6929270018
 30
0.0
 10
-20.1905981557
 20
17.8312094648
 30
0.0
 10
-20.1905938533
 20
17.8966149575
 30
0.0
 11
-19.7919160387
 21
17.2060847274
 31
0.0
 11
-19.9457036635
 21
17.3279427952
 31
0.0
 11
-20.076502178
 21
17.5021329964
 31
0.0
 11
-20.1619413077
 21
17.7025017481
 31
0.0
 11
-20.1905938533
 21
17.8966149575
 31
0.0
  0
SPLINE
  5
476
100
AcDbEntity
  8
RACCORDO
100
AcDbSpline
 62
7
  6
CONTINUOUS
 70
0
 71
3
 72
11
 73
7
 74
5
 42
0.0000001
 43
0.0000001
 44
0.0000000001
 12
0.000014108
 22
-0.157408994
 32
0.0
 13
0.1363179944
 23
-0.0787082969
 33
0.0
 40
0.0
 40
0.0
 40
0.0
 40
0.0
 40
0.2177586882
 40
0.4509006427
 40
0.7104563324
 40
1.0
 40
1.0
 40
1.0
 40
1.0
 10
-22.091583906
 20
58.6305195284
 30
0.0
 10
-22.0915828819
 20
58.619093803
 30
0.0
 10
-22.0873876891
 20
58.595272912
 30
0.0
 10
-22.0693175116
 20
58.5620794961
 30
0.0
 10
-22.0407611045
 20
58.5320949996
 30
0.0
 10
-22.0168858835
 20
58.5156336695
 30
0.0
 10
-22.0037292129
 20
58.5080371732
 30
0.0
 11
-22.091583906
 21
58.6305195284
 31
0.0
 11
-22.0858344476
 21
58.596727983
 31
0.0
 11
-22.0687679345
 21
58.5642391487
 31
0.0
 11
-22.0410001001
 21
58.5342692837
 31
0.0
 11
-22.0037292129
 21
58.5080371732
 31
0.0
  0
SPLINE
  5
477
100
AcDbEntity
  8
RACCORDO
100
AcDbSpline
 62
7
  6
CONTINUOUS
 70
0
 71
3
 72
13
 73
9
 74
7
 42
0.0000001
 43
0.0000001
 44
0.0000000001
 12
-0.0662090449
 22
0.1972123061
 32
0.0
 13
0.2078764784
 23
-0.0079812929
 33
0.0
 40
0.0
 40
0.0
 40
0.0
 40
0.0
 40
0.279534151
 40
0.5136620017
 40
0.6222252232
 40
0.7348380503
 40
0.8596282997
 40
1.0
 40
1.0
 40
1.0
 40
1.0
 10
-19.851676079
 20
55.1992883675
 30
0.0
 10
-19.8578453087
 20
55.2176642257
 30
0.0
 10
-19.8663612052
 20
55.2525119743
 30
0.0
 10
-19.8608556663
 20
55.2975255995
 30
0.0
 10
-19.8417651996
 20
55.3235556679
 30
0.0
 10
-19.8212490239
 20
55.336877145
 30
0.0
 10
-19.795667921
 20
55.3438077974
 30
0.0
 10
-19.7771706192
 20
55.3445572156
 30
0.0
 10
-19.767443961
 20
55.3441837663
 30
0.0
 11
-19.851676079
 21
55.1992883675
 31
0.0
 11
-19.8632459876
 21
55.2562771493
 31
0.0
 11
-19.8544531261
 21
55.3041824151
 31
0.0
 11
-19.8410092802
 21
55.3223294997
 31
0.0
 11
-19.8215216899
 21
55.3353313865
 31
0.0
 11
-19.796603023
 21
55.3426104876
 31
0.0
 11
-19.767443961
 21
55.3441837663
 31
0.0
  0
SPLINE
  5
478
100
AcDbEntity
  8
RACCORDO
100
AcDbSpline
 62
7
  6
CONTINUOUS
 70
0
 71
3
 72
11
 73
7
 74
5
 42
0.0000001
 43
0.0000001
 44
0.0000000001
 12
-0.4310685118
 22
0.1088707109
 32
0.0
 13
0.1215914924
 23
0.4276545364
 33
0.0
 40
0.0
 40
0.0
 40
0.0
 40
0.0
 40
0.2417492733
 40
0.5000082522
 40
0.7582667077
 40
1.0
 40
1.0
 40
1.0
 40
1.0
 10
-19.6523470609
 20
17.5168481548
 30
0.0
 10
-19.687083894
 20
17.5256212932
 30
0.0
 10
-19.7566599891
 20
17.556154045
 30
0.0
 10
-19.8357840138
 20
17.6411220726
 30
0.0
 10
-19.8697490182
 20
17.7521188201
 30
0.0
 10
-19.8614736723
 20
17.8276518031
 30
0.0
 10
-19.8516761017
 20
17.8621112495
 30
0.0
 11
-19.6523470609
 21
17.5168481548
 31
0.0
 11
-19.7502949617
 21
17.561105906
 31
0.0
 11
-19.8280937998
 21
17.6455551108
 31
0.0
 11
-19.8623060204
 21
17.7551625827
 31
0.0
 11
-19.8516761017
 21
17.8621112495
 31
0.0
  0
SPLINE
  5
479
100
AcDbEntity
  8
RACCORDO
100
AcDbSpline
 62
7
  6
CONTINUOUS
 70
0
 71
3
 72
9
 73
5
 74
3
 42
0.0000001
 43
0.0000001
 44
0.0000000001
 12
-0.0245012758
 22
-0.4136068379
 32
0.0
 13
0.370913549
 23
-0.1846457907
 33
0.0
 40
0.0
 40
0.0
 40
0.0
 40
0.0
 40
0.4999981152
 40
1.0
 40
1.0
 40
1.0
 40
1.0
 10
-18.4744801944
 20
18.6572176334
 30
0.0
 10
-18.478563725
 20
18.5882834203
 30
0.0
 10
-18.4396294337
 20
18.447227201
 30
0.0
 10
-18.3369603654
 20
18.3427542374
 30
0.0
 10
-18.2751412075
 20
18.311979823
 30
0.0
 11
-18.4744801944
 21
18.6572176334
 31
0.0
 11
-18.4236960063
 21
18.4563734777
 31
0.0
 11
-18.2751412075
 21
18.311979823
 31
0.0
  0
SPLINE
  5
47A
100
AcDbEntity
  8
RACCORDO
100
AcDbSpline
 62
7
  6
CONTINUOUS
 70
0
 71
3
 72
10
 73
6
 74
4
 42
0.0000001
 43
0.0000001
 44
0.0000000001
 12
0.1828507333
 22
-0.3543641519
 32
0.0
 13
0.2144009064
 23
-0.336215101
 33
0.0
 40
0.0
 40
0.0
 40
0.0
 40
0.0
 40
0.2273651443
 40
0.5000028679
 40
1.0
 40
1.0
 40
1.0
 40
1.0
 10
-18.3394203841
 20
18.7352244279
 30
0.0
 10
-18.325562423
 20
18.7083677424
 30
0.0
 10
-18.2937720247
 20
18.6499898688
 30
0.0
 10
-18.2283797502
 20
18.5342762646
 30
0.0
 10
-18.1758147562
 20
18.4459948416
 30
0.0
 10
-18.1400814768
 20
18.3899593128
 30
0.0
 11
-18.3394203841
 21
18.7352244279
 31
0.0
 11
-18.2964631498
 21
18.6553833494
 31
0.0
 11
-18.2429932074
 21
18.5607246647
 31
0.0
 11
-18.1400814768
 21
18.3899593128
 31
0.0
  0
SPLINE
  5
47B
100
AcDbEntity
  8
RACCORDO
100
AcDbSpline
 62
7
  6
CONTINUOUS
 70
0
 71
3
 72
9
 73
5
 74
3
 42
0.0000001
 43
0.0000001
 44
0.0000000001
 12
0.007213303
 22
-0.0113899398
 32
0.0
 13
0.0118511902
 23
-0.0064274226
 33
0.0
 40
0.0
 40
0.0
 40
0.0
 40
0.0
 40
0.2343894454
 40
1.0
 40
1.0
 40
1.0
 40
1.0
 10
-18.1400814768
 20
18.3899593128
 30
0.0
 10
-18.1395179027
 20
18.3890694189
 30
0.0
 10
-18.1368621135
 20
18.3854318648
 30
0.0
 10
-18.1331906207
 20
18.3825887682
 30
0.0
 10
-18.1301661553
 20
18.3809484673
 30
0.0
 11
-18.1400814768
 21
18.3899593128
 31
0.0
 11
-18.1382171237
 21
18.3874078566
 31
0.0
 11
-18.1301661553
 21
18.3809484673
 31
0.0
  0
SPLINE
  5
47C
100
AcDbEntity
  8
RACCORDO
100
AcDbSpline
 62
7
  6
CONTINUOUS
 70
0
 71
3
 72
9
 73
5
 74
3
 42
0.0000001
 43
0.0000001
 44
0.0000000001
 12
-0.0003312848
 22
-0.0134726882
 32
0.0
 13
0.0061959692
 23
-0.0119680008
 33
0.0
 40
0.0
 40
0.0
 40
0.0
 40
0.0
 40
0.2685734322
 40
1.0
 40
1.0
 40
1.0
 40
1.0
 10
-18.3422658809
 20
18.748315968
 30
0.0
 10
-18.342295539
 20
18.7471098326
 30
0.0
 10
-18.3421545548
 20
18.7426189503
 30
0.0
 10
-18.3409310163
 20
18.7381423325
 30
0.0
 10
-18.3394203841
 20
18.7352244279
 30
0.0
 11
-18.3422658809
 21
18.748315968
 31
0.0
 11
-18.3421417233
 21
18.7446985982
 31
0.0
 11
-18.3394203841
 21
18.7352244279
 31
0.0
  0
SPLINE
  5
47D
100
AcDbEntity
  8
RACCORDO
100
AcDbSpline
 62
7
  6
CONTINUOUS
 70
0
 71
3
 72
11
 73
7
 74
5
 42
0.0000001
 43
0.0000001
 44
0.0000000001
 12
-0.0068243301
 22
1.024860587
 32
0.0
 13
-0.8841392067
 23
0.5183470434
 33
0.0
 40
0.0
 40
0.0
 40
0.0
 40
0.0
 40
0.2370060342
 40
0.4999938366
 40
0.7629849612
 40
1.0
 40
1.0
 40
1.0
 40
1.0
 10
15.1764142512
 20
37.2813778452
 30
0.0
 10
15.1758751154
 20
37.362343893
 30
0.0
 10
15.1445987747
 20
37.5330437865
 30
0.0
 10
15.0382350725
 20
37.7730543946
 30
0.0
 10
14.8835591528
 20
37.9851745935
 30
0.0
 10
14.7513663209
 20
38.0976166652
 30
0.0
 10
14.6815148914
 20
38.1385686801
 30
0.0
 11
15.1764142512
 21
37.2813778452
 31
0.0
 11
15.1375901606
 21
37.5211586076
 31
0.0
 11
15.0299097073
 21
37.7682462761
 31
0.0
 11
14.8697639704
 21
37.9850470472
 31
0.0
 11
14.6815148914
 21
38.1385686801
 31
0.0
  0
SPLINE
  5
47E
100
AcDbEntity
  8
RACCORDO
100
AcDbSpline
 62
7
  6
CONTINUOUS
 70
0
 71
3
 72
11
 73
7
 74
5
 42
0.0000001
 43
0.0000001
 44
0.0000000001
 12
-0.3262172695
 22
0.1854893057
 32
0.0
 13
-0.3193340888
 23
-0.1971033464
 33
0.0
 40
0.0
 40
0.0
 40
0.0
 40
0.0
 40
0.2905184574
 40
0.5498765043
 40
0.7826053532
 40
1.0
 40
1.0
 40
1.0
 40
1.0
 10
-21.5124997588
 20
59.0365391216
 30
0.0
 10
-21.5440904715
 20
59.0545018106
 30
0.0
 10
-21.6068397599
 20
59.0837966506
 30
0.0
 10
-21.7031338326
 20
59.1059061853
 30
0.0
 10
-21.7930824493
 20
59.1021135225
 30
0.0
 10
-21.8467283725
 20
59.0810591226
 30
0.0
 10
-21.8698688797
 20
59.0667760518
 30
0.0
 11
-21.5124997588
 21
59.0365391216
 31
0.0
 11
-21.6117659593
 21
59.0816157601
 31
0.0
 11
-21.7069213148
 21
59.1020659139
 31
0.0
 11
-21.7941119962
 21
59.0970464539
 31
0.0
 11
-21.8698688797
 21
59.0667760518
 31
0.0
  0
SPLINE
  5
47F
100
AcDbEntity
  8
RACCORDO
100
AcDbSpline
 62
7
  6
CONTINUOUS
 70
0
 71
3
 72
11
 73
7
 74
5
 42
0.0000001
 43
0.0000001
 44
0.0000000001
 12
-0.3738480846
 22
-0.223389988
 32
0.0
 13
0.000000011
 23
-0.4355060012
 33
0.0
 40
0.0
 40
0.0
 40
0.0
 40
0.0
 40
0.2383260036
 40
0.5010975909
 40
0.7632734208
 40
1.0
 40
1.0
 40
1.0
 40
1.0
 10
14.6815148904
 20
38.1385686806
 30
0.0
 10
14.6518156505
 20
38.120822133
 30
0.0
 10
14.5957611741
 20
38.0726969548
 30
0.0
 10
14.5304081689
 20
37.982224498
 30
0.0
 10
14.48582654
 20
37.8801619151
 30
0.0
 10
14.4730850707
 20
37.807685419
 30
0.0
 10
14.4730850715
 20
37.773320137
 30
0.0
 11
14.6815148904
 21
38.1385686806
 31
0.0
 11
14.6014701939
 21
38.0724951621
 31
0.0
 11
14.5339205572
 21
37.9801196216
 31
0.0
 11
14.488882448
 21
37.8751984779
 31
0.0
 11
14.4730850715
 21
37.773320137
 31
0.0
  0
SPLINE
  5
480
100
AcDbEntity
  8
RACCORDO
100
AcDbSpline
 62
7
  6
CONTINUOUS
 70
0
 71
3
 72
11
 73
7
 74
5
 42
0.0000001
 43
0.0000001
 44
0.0000000001
 12
-0.3738480757
 22
-0.2233899999
 32
0.0
 13
0.0000000017
 23
-0.4355059997
 33
0.0
 40
0.0
 40
0.0
 40
0.0
 40
0.0
 40
0.2383260021
 40
0.5010975899
 40
0.76327342
 40
1.0
 40
1.0
 40
1.0
 40
1.0
 10
-21.5124997574
 20
59.0365391208
 30
0.0
 10
-21.5421989965
 20
59.0187925722
 30
0.0
 10
-21.5982534716
 20
58.9706673936
 30
0.0
 10
-21.6636064777
 20
58.8801949382
 30
0.0
 10
-21.708188108
 20
58.7781323562
 30
0.0
 10
-21.7209295788
 20
58.7056558605
 30
0.0
 10
-21.7209295787
 20
58.6712905785
 30
0.0
 11
-21.5124997574
 21
59.0365391208
 31
0.0
 11
-21.5925444521
 21
58.9704656015
 31
0.0
 11
-21.6600940895
 21
58.8780900618
 31
0.0
 11
-21.7051322002
 21
58.773168919
 31
0.0
 11
-21.7209295787
 21
58.6712905785
 31
0.0
  0
SPLINE
  5
481
100
AcDbEntity
  8
RACCORDO
100
AcDbSpline
 62
7
  6
CONTINUOUS
 70
0
 71
3
 72
11
 73
7
 74
5
 42
0.0000001
 43
0.0000001
 44
0.0000000001
 12
-0.380376472
 22
-0.21208902
 32
0.0
 13
-0.3771557076
 23
0.2177649767
 33
0.0
 40
0.0
 40
0.0
 40
0.0
 40
0.0
 40
0.2383228673
 40
0.5010914229
 40
0.763267564
 40
1.0
 40
1.0
 40
1.0
 40
1.0
 10
15.1764142512
 20
37.2813778436
 30
0.0
 10
15.1461967807
 20
37.2645292891
 30
0.0
 10
15.0764929834
 20
37.2400447405
 30
0.0
 10
14.9654650757
 20
37.228682571
 30
0.0
 10
14.8547842507
 20
37.2411064949
 30
0.0
 10
14.7856463688
 20
37.2663127916
 30
0.0
 10
14.7558847057
 20
37.2834968028
 30
0.0
 11
15.1764142512
 21
37.2813778436
 31
0.0
 11
15.0791725822
 21
37.245090358
 31
0.0
 11
14.9653988864
 21
37.2327772381
 31
0.0
 11
14.852014705
 21
37.246234963
 31
0.0
 11
14.7558847057
 21
37.2834968028
 31
0.0
  0
SPLINE
  5
482
100
AcDbEntity
  8
RACCORDO
100
AcDbSpline
 62
7
  6
CONTINUOUS
 70
0
 71
3
 72
11
 73
7
 74
5
 42
0.0000001
 43
0.0000001
 44
0.0000000001
 12
-0.3803764778
 22
-0.2120890063
 32
0.0
 13
-0.3771557109
 23
0.2177649679
 33
0.0
 40
0.0
 40
0.0
 40
0.0
 40
0.0
 40
0.2383228673
 40
0.5010914248
 40
0.7632675667
 40
1.0
 40
1.0
 40
1.0
 40
1.0
 10
15.1764142512
 20
-4.5105239512
 30
0.0
 10
15.1461967802
 20
-4.5273725046
 30
0.0
 10
15.0764929827
 20
-4.551857052
 30
0.0
 10
14.9654650753
 20
-4.5632192227
 30
0.0
 10
14.8547842505
 20
-4.5507953002
 30
0.0
 10
14.7856463688
 20
-4.525589005
 30
0.0
 10
14.7558847057
 20
-4.5084049948
 30
0.0
 11
15.1764142512
 21
-4.5105239512
 31
0.0
 11
15.0791725819
 21
-4.5468114349
 31
0.0
 11
14.9653988857
 21
-4.5591245556
 31
0.0
 11
14.8520147043
 21
-4.5456668322
 31
0.0
 11
14.7558847057
 21
-4.5084049948
 31
0.0
  0
SPLINE
  5
483
100
AcDbEntity
  8
RACCORDO
100
AcDbSpline
 62
7
  6
CONTINUOUS
 70
0
 71
3
 72
9
 73
5
 74
3
 42
0.0000001
 43
0.0000001
 44
0.0000000001
 12
0.0000527323
 22
-0.0373502916
 32
0.0
 13
0.0077640379
 23
-0.0365344601
 33
0.0
 40
0.0
 40
0.0
 40
0.0
 40
0.0
 40
0.2547387322
 40
1.0
 40
1.0
 40
1.0
 40
1.0
 10
-18.4782859352
 20
18.6943394818
 30
0.0
 10
-18.4782814576
 20
18.6911679599
 30
0.0
 10
-18.477927611
 20
18.6787224456
 30
0.0
 10
-18.4764050093
 20
18.6662958101
 30
0.0
 10
-18.4744762637
 20
18.6572199041
 30
0.0
 11
-18.4782859352
 21
18.6943394818
 31
0.0
 11
-18.4780253381
 21
18.6848284759
 31
0.0
 11
-18.4744762637
 21
18.6572199041
 31
0.0
  0
SPLINE
  5
484
100
AcDbEntity
  8
RACCORDO
100
AcDbSpline
 62
7
  6
CONTINUOUS
 70
0
 71
3
 72
11
 73
7
 74
5
 42
0.0000001
 43
0.0000001
 44
0.0000000001
 12
-0.1362924929
 22
0.0787097748
 32
0.0
 13
-0.0000000006
 23
0.1573876497
 33
0.0
 40
0.0
 40
0.0
 40
0.0
 40
0.0
 40
0.2177541405
 40
0.4508937694
 40
0.7104507771
 40
1.0
 40
1.0
 40
1.0
 40
1.0
 10
14.535216479
 20
-4.8089679545
 30
0.0
 10
14.5253237274
 20
-4.803254828
 30
0.0
 10
14.5067951406
 20
-4.7877129105
 30
0.0
 10
14.4870881001
 20
-4.7554707375
 30
0.0
 10
14.4754021383
 20
-4.7157526022
 30
0.0
 10
14.4730850716
 20
-4.6868488906
 30
0.0
 10
14.4730850715
 20
-4.6716584001
 30
0.0
 11
14.535216479
 21
-4.8089679545
 31
0.0
 11
14.5088317343
 21
-4.7870955433
 31
0.0
 11
14.4892329541
 21
-4.7560748091
 31
0.0
 11
14.4771653404
 21
-4.7170468395
 31
0.0
 11
14.4730850715
 21
-4.6716584001
 31
0.0
  0
SPLINE
  5
485
100
AcDbEntity
  8
RACCORDO
100
AcDbSpline
 62
7
  6
CONTINUOUS
 70
0
 71
3
 72
11
 73
7
 74
5
 42
0.0000001
 43
0.0000001
 44
0.0000000001
 12
-0.1362924929
 22
0.0787097779
 32
0.0
 13
-0.000000004
 23
0.1573876512
 33
0.0
 40
0.0
 40
0.0
 40
0.0
 40
0.0
 40
0.2177541423
 40
0.4508937728
 40
0.710450779
 40
1.0
 40
1.0
 40
1.0
 40
1.0
 10
-21.6587981692
 20
16.0890024858
 30
0.0
 10
-21.6686909208
 20
16.0947156125
 30
0.0
 10
-21.6872195078
 20
16.1102575304
 30
0.0
 10
-21.7069265486
 20
16.1424997039
 30
0.0
 10
-21.7186125112
 20
16.1822178392
 30
0.0
 10
-21.7209295783
 20
16.2111215508
 30
0.0
 10
-21.7209295787
 20
16.2263120414
 30
0.0
 11
-21.6587981692
 21
16.0890024858
 31
0.0
 11
-21.6851829142
 21
16.1108748976
 31
0.0
 11
-21.7047816947
 21
16.1418956324
 31
0.0
 11
-21.716849309
 21
16.1809236019
 31
0.0
 11
-21.7209295787
 21
16.2263120414
 31
0.0
  0
SPLINE
  5
486
100
AcDbEntity
  8
RACCORDO
100
AcDbSpline
 62
7
  6
CONTINUOUS
 70
0
 71
3
 72
15
 73
11
 74
9
 42
0.0000001
 43
0.0000001
 44
0.0000000001
 12
0.0000290007
 22
0.4170681701
 32
0.0
 13
0.3612088352
 23
-0.2085042848
 33
0.0
 40
0.0
 40
0.0
 40
0.0
 40
0.0
 40
0.145084411
 40
0.2749838777
 40
0.3918358314
 40
0.5009156004
 40
0.6098397432
 40
0.7262475406
 40
0.855533188
 40
1.0
 40
1.0
 40
1.0
 40
1.0
 10
-22.0037292129
 20
58.5080371732
 30
0.0
 10
-22.0037278103
 20
58.5282072031
 30
0.0
 10
-22.0006935097
 20
58.5665678309
 30
0.0
 10
-21.9852411011
 20
58.6192930408
 30
0.0
 10
-21.959214451
 20
58.6621835895
 30
0.0
 10
-21.9230881773
 20
58.6929502634
 30
0.0
 10
-21.8786635137
 20
58.7094761929
 30
0.0
 10
-21.8286755002
 20
58.7111311406
 30
0.0
 10
-21.7754062003
 20
58.6987289782
 30
0.0
 10
-21.7406071443
 20
58.6826495979
 30
0.0
 10
-21.7232129147
 20
58.6726089481
 30
0.0
 11
-22.0037292129
 21
58.5080371732
 31
0.0
 11
-21.998351875
 21
58.5683078561
 31
0.0
 11
-21.9824215155
 21
58.6200897422
 31
0.0
 11
-21.9565462576
 21
58.6613885766
 31
0.0
 11
-21.9217091993
 21
58.6906470129
 31
0.0
 11
-21.8792301855
 21
58.7067500754
 31
0.0
 11
-21.8307352033
 21
58.7090604761
 31
0.0
 11
-21.7780536608
 21
58.6975660597
 31
0.0
 11
-21.7232129147
 21
58.6726089481
 31
0.0
  0
SPLINE
  5
487
100
AcDbEntity
  8
RACCORDO
100
AcDbSpline
 62
7
  6
CONTINUOUS
 70
0
 71
3
 72
12
 73
8
 74
6
 42
0.0000001
 43
0.0000001
 44
0.0000000001
 12
0.505725355
 22
-0.2920463641
 32
0.0
 13
0.0000644726
 23
-0.5839941861
 33
0.0
 40
0.0
 40
0.0
 40
0.0
 40
0.0
 40
0.2368422947
 40
0.4991924762
 40
0.7618019237
 40
0.8853942362
 40
1.0
 40
1.0
 40
1.0
 40
1.0
 10
14.4730850715
 20
37.773320137
 30
0.0
 10
14.5130107894
 20
37.7502638267
 30
0.0
 10
14.588633344
 20
37.6867277486
 30
0.0
 10
14.6770177798
 20
37.5664386899
 30
0.0
 10
14.7288218973
 20
37.4498861103
 30
0.0
 10
14.751327672
 20
37.3548332976
 30
0.0
 10
14.7558822427
 20
37.3084429908
 30
0.0
 10
14.7558847057
 20
37.2861332909
 30
0.0
 11
14.4730850715
 21
37.773320137
 31
0.0
 11
14.5807834468
 21
37.6865332283
 31
0.0
 11
14.6722488958
 21
37.5636199396
 31
0.0
 11
14.7336873309
 21
37.4231018205
 31
0.0
 11
14.750075871
 21
37.3528098376
 31
0.0
 11
14.7558847057
 21
37.2861332909
 31
0.0
  0
SPLINE
  5
488
100
AcDbEntity
  8
RACCORDO
100
AcDbSpline
 62
7
  6
CONTINUOUS
 70
0
 71
3
 72
15
 73
11
 74
9
 42
0.0000001
 43
0.0000001
 44
0.0000000001
 12
-0.0000290007
 22
-0.4170681613
 32
0.0
 13
-0.3612088275
 23
0.2085042803
 33
0.0
 40
0.0
 40
0.0
 40
0.0
 40
0.0
 40
0.1450844117
 40
0.2749838793
 40
0.3918358339
 40
0.5009156036
 40
0.6098397465
 40
0.7262475433
 40
0.8555331895
 40
1.0
 40
1.0
 40
1.0
 40
1.0
 10
14.7558847057
 20
-4.5084049948
 30
0.0
 10
14.7558833032
 20
-4.5285750244
 30
0.0
 10
14.7528490026
 20
-4.5669356515
 30
0.0
 10
14.7373965946
 20
-4.6196608607
 30
0.0
 10
14.7113699454
 20
-4.6625514091
 30
0.0
 10
14.6752436729
 20
-4.6933180832
 30
0.0
 10
14.6308190107
 20
-4.7098440136
 30
0.0
 10
14.5808309985
 20
-4.7114989626
 30
0.0
 10
14.5275617
 20
-4.6990968021
 30
0.0
 10
14.4927626443
 20
-4.6830174236
 30
0.0
 10
14.4753684153
 20
-4.6729767741
 30
0.0
 11
14.7558847057
 21
-4.5084049948
 31
0.0
 11
14.750507368
 21
-4.5686756767
 31
0.0
 11
14.7345770091
 21
-4.6204575621
 31
0.0
 11
14.708701752
 21
-4.6617563963
 31
0.0
 11
14.6738646949
 21
-4.6910148328
 31
0.0
 11
14.6313856824
 21
-4.7071178961
 31
0.0
 11
14.5828907015
 21
-4.7094282981
 31
0.0
 11
14.5302091602
 21
-4.6979338836
 31
0.0
 11
14.4753684153
 21
-4.6729767741
 31
0.0
  0
SPLINE
  5
489
100
AcDbEntity
  8
RACCORDO
100
AcDbSpline
 62
7
  6
CONTINUOUS
 70
0
 71
3
 72
12
 73
8
 74
6
 42
0.0000001
 43
0.0000001
 44
0.0000000001
 12
-0.5057253573
 22
0.2920463654
 32
0.0
 13
-0.0000644726
 23
0.5839941887
 33
0.0
 40
0.0
 40
0.0
 40
0.0
 40
0.0
 40
0.2368422949
 40
0.4991924767
 40
0.7618019242
 40
0.8853942365
 40
1.0
 40
1.0
 40
1.0
 40
1.0
 10
-21.7209295787
 20
16.2263120414
 30
0.0
 10
-21.7608552968
 20
16.2493683519
 30
0.0
 10
-21.8364778517
 20
16.3129044303
 30
0.0
 10
-21.9248622878
 20
16.4331934898
 30
0.0
 10
-21.9766664052
 20
16.5497460701
 30
0.0
 10
-21.9991721796
 20
16.6447988832
 30
0.0
 10
-22.0037267499
 20
16.6911891902
 30
0.0
 10
-22.0037292129
 20
16.7134988902
 30
0.0
 11
-21.7209295787
 21
16.2263120414
 31
0.0
 11
-21.8286279544
 21
16.3130989507
 31
0.0
 11
-21.9200934037
 21
16.4360122402
 31
0.0
 11
-21.9815318387
 21
16.5765303601
 31
0.0
 11
-21.9979203785
 21
16.6468223432
 31
0.0
 11
-22.0037292129
 21
16.7134988902
 31
0.0
  0
SPLINE
  5
48A
100
AcDbEntity
  8
RACCORDO
100
AcDbSpline
 62
7
  6
CONTINUOUS
 70
0
 71
3
 72
9
 73
5
 74
3
 42
0.0000001
 43
0.0000001
 44
0.0000000001
 12
-0.0290535392
 22
-0.0551073363
 32
0.0
 13
-0.0539576766
 23
-0.0311367274
 33
0.0
 40
0.0
 40
0.0
 40
0.0
 40
0.0
 40
0.277017043
 40
1.0
 40
1.0
 40
1.0
 40
1.0
 10
12.8512669804
 20
-1.1530500028
 30
0.0
 10
12.8485842052
 20
-1.1581385599
 30
0.0
 10
12.8381034048
 20
-1.1759885972
 30
0.0
 10
12.823348357
 20
-1.1919700077
 30
0.0
 10
12.8103448635
 20
-1.1994737821
 30
0.0
 11
12.8512669804
 21
-1.1530500028
 31
0.0
 11
12.8424494854
 21
-1.1678846935
 31
0.0
 11
12.8103448635
 21
-1.1994737821
 31
0.0
  0
SPLINE
  5
48B
100
AcDbEntity
  8
RACCORDO
100
AcDbSpline
 62
7
  6
CONTINUOUS
 70
0
 71
3
 72
11
 73
7
 74
5
 42
0.0000001
 43
0.0000001
 44
0.0000000001
 12
-0.1261722059
 22
-0.072808724
 32
0.0
 13
-0.0964136199
 23
0.1092014182
 33
0.0
 40
0.0
 40
0.0
 40
0.0
 40
0.0
 40
0.2220361667
 40
0.4505038999
 40
0.7087907003
 40
1.0
 40
1.0
 40
1.0
 40
1.0
 10
12.8103448635
 20
-1.1994737821
 30
0.0
 10
12.8010065992
 20
-1.2048625054
 30
0.0
 10
12.7789428719
 20
-1.2113623351
 30
0.0
 10
12.7443527971
 20
-1.2034650815
 30
0.0
 10
12.712114156
 20
-1.1829885844
 30
0.0
 10
12.693008227
 20
-1.1641484077
 30
0.0
 10
12.6836493794
 20
-1.1535482516
 30
0.0
 11
12.8103448635
 21
-1.1994737821
 31
0.0
 11
12.7792769174
 21
-1.2084713596
 31
0.0
 11
12.7465974583
 21
-1.2021696155
 31
0.0
 11
12.7142882171
 21
-1.1828880483
 31
0.0
 11
12.6836493794
 21
-1.1535482516
 31
0.0
  0
SPLINE
  5
48C
100
AcDbEntity
  8
0
100
AcDbSpline
 62
7
  6
CONTINUOUS
 70
0
 71
3
 72
9
 73
5
 74
3
 42
0.0000001
 43
0.0000001
 44
0.0000000001
 12
0.0000188601
 22
-0.0959212974
 32
0.0
 13
-0.0492076068
 23
-0.0823377622
 33
0.0
 40
0.0
 40
0.0
 40
0.0
 40
0.0
 40
0.2607000112
 40
1.0
 40
1.0
 40
1.0
 40
1.0
 10
-14.4547876421
 20
-28.1934777402
 30
0.0
 10
-14.4547860032
 20
-28.2018133013
 30
0.0
 10
-14.4562458878
 20
-28.2336750088
 30
0.0
 10
-14.4647419592
 20
-28.2659454047
 30
0.0
 10
-14.4768683536
 20
-28.2862361736
 30
0.0
 11
-14.4547876421
 21
-28.1934777402
 31
0.0
 11
-14.4560253979
 21
-28.2184537726
 31
0.0
 11
-14.4768683536
 21
-28.2862361736
 31
0.0
  0
SPLINE
  5
48D
100
AcDbEntity
  8
0
100
AcDbSpline
 62
7
  6
CONTINUOUS
 70
0
 71
3
 72
8
 73
4
 74
2
 42
0.0000001
 43
0.0000001
 44
0.0000000001
 12
-0.0170544733
 22
-0.0285367906
 32
0.0
 13
-0.0249380208
 23
-0.0219840533
 33
0.0
 40
0.0
 40
0.0
 40
0.0
 40
0.0
 40
1.0
 40
1.0
 40
1.0
 40
1.0
 10
-14.4768683536
 20
-28.2862361736
 30
0.0
 10
-14.4825531781
 20
-28.2957484372
 30
0.0
 10
-14.4896466626
 20
-28.3046058977
 30
0.0
 10
-14.4979593361
 20
-28.3119339154
 30
0.0
 11
-14.4768683536
 21
-28.2862361736
 31
0.0
 11
-14.4979593361
 21
-28.3119339154
 31
0.0
  0
SPLINE
  5
48E
100
AcDbEntity
  8
0
100
AcDbSpline
 62
7
  6
CONTINUOUS
 70
0
 71
3
 72
11
 73
7
 74
5
 42
0.0000001
 43
0.0000001
 44
0.0000000001
 12
0.136283381
 22
-0.0786998189
 32
0.0
 13
0.0
 23
-0.1573747802
 33
0.0
 40
0.0
 40
0.0
 40
0.0
 40
0.0
 40
0.2177859102
 40
0.450919006
 40
0.7102951862
 40
1.0
 40
1.0
 40
1.0
 40
1.0
 10
-9.6257309519
 20
-42.6465662264
 30
0.0
 10
-9.6158374185
 20
-42.6522794636
 30
0.0
 10
-9.5973294421
 20
-42.6678465209
 30
0.0
 10
-9.5776255922
 20
-42.7000702634
 30
0.0
 10
-9.5659220851
 20
-42.7397805706
 30
0.0
 10
-9.5636192155
 20
-42.7686822601
 30
0.0
 10
-9.5636192155
 20
-42.7838796706
 30
0.0
 11
-9.6257309519
 21
-42.6465662264
 31
0.0
 11
-9.5993588398
 21
-42.6684573078
 31
0.0
 11
-9.5797637437
 21
-42.6994756043
 31
0.0
 11
-9.567695207
 21
-42.7384700036
 31
0.0
 11
-9.5636192155
 21
-42.7838796706
 31
0.0
  0
SPLINE
  5
48F
100
AcDbEntity
  8
0
100
AcDbSpline
 62
7
  6
CONTINUOUS
 70
0
 71
3
 72
11
 73
7
 74
5
 42
0.0000001
 43
0.0000001
 44
0.0000000001
 12
-0.0000100109
 22
0.1573960521
 32
0.0
 13
-0.1363067843
 23
0.0787018289
 33
0.0
 40
0.0
 40
0.0
 40
0.0
 40
0.0
 40
0.2177904336
 40
0.4509258866
 40
0.7103007723
 40
1.0
 40
1.0
 40
1.0
 40
1.0
 10
-16.7384392538
 20
27.6423872781
 30
0.0
 10
-16.7384399806
 20
27.6538137296
 30
0.0
 10
-16.7426672797
 20
27.6776293284
 30
0.0
 10
-16.7607230873
 20
27.7108107439
 30
0.0
 10
-16.7892639365
 20
27.7408065021
 30
0.0
 10
-16.8131444934
 20
27.7572545178
 30
0.0
 10
-16.8263071501
 20
27.7648544708
 30
0.0
 11
-16.7384392538
 21
27.6423872781
 31
0.0
 11
-16.7442112152
 21
27.6761771968
 31
0.0
 11
-16.7612774651
 21
27.7086616052
 31
0.0
 11
-16.7890157584
 21
27.7386154642
 31
0.0
 11
-16.8263071501
 21
27.7648544708
 31
0.0
  0
SPLINE
  5
490
100
AcDbEntity
  8
RACCORDO
100
AcDbSpline
 62
7
  6
CONTINUOUS
 70
0
 71
3
 72
9
 73
5
 74
3
 42
0.0000001
 43
0.0000001
 44
0.0000000001
 12
-0.1066410086
 22
-0.0615731245
 32
0.0
 13
-0.0163254074
 23
-0.1220534123
 33
0.0
 40
0.0
 40
0.0
 40
0.0
 40
0.0
 40
0.4614877741
 40
1.0
 40
1.0
 40
1.0
 40
1.0
 10
-6.2488031533
 20
13.1759610302
 30
0.0
 10
-6.2652076605
 20
13.1664892821
 30
0.0
 10
-6.2946655038
 20
13.1347694855
 30
0.0
 10
-6.3058439588
 20
13.0940712674
 30
0.0
 10
-6.308774436
 20
13.0721621825
 30
0.0
 11
-6.2488031533
 21
13.1759610302
 31
0.0
 11
-6.2885035506
 21
13.1353005424
 31
0.0
 11
-6.308774436
 21
13.0721621825
 31
0.0
  0
SPLINE
  5
491
100
AcDbEntity
  8
RACCORDO
100
AcDbSpline
 62
7
  6
CONTINUOUS
 70
0
 71
3
 72
11
 73
7
 74
5
 42
0.0000001
 43
0.0000001
 44
0.0000000001
 12
0.1363216183
 22
0.0787103206
 32
0.0
 13
0.1363215866
 23
-0.0787103756
 33
0.0
 40
0.0
 40
0.0
 40
0.0
 40
0.0
 40
0.2177804588
 40
0.4509077062
 40
0.7102936033
 40
1.0
 40
1.0
 40
1.0
 40
1.0
 10
-5.6831177284
 20
13.5025807049
 30
0.0
 10
-5.6732216668
 20
13.5082945614
 30
0.0
 10
-5.6504831456
 20
13.5165464888
 30
0.0
 10
-5.612714931
 20
13.5175011205
 30
0.0
 10
-5.5724629712
 20
13.5077791011
 30
0.0
 10
-5.5462749747
 20
13.4953192704
 30
0.0
 10
-5.5331105628
 20
13.4877183039
 30
0.0
 11
-5.6831177284
 21
13.5025807049
 31
0.0
 11
-5.6509683961
 21
13.5144820557
 31
0.0
 11
-5.6143003155
 21
13.5159460196
 31
0.0
 11
-5.5744846024
 21
13.5068984166
 31
0.0
 11
-5.5331105628
 21
13.4877183039
 31
0.0
  0
SPLINE
  5
492
100
AcDbEntity
  8
0
100
AcDbSpline
 62
7
  6
CONTINUOUS
 70
0
 71
3
 72
9
 73
5
 74
3
 42
0.0000001
 43
0.0000001
 44
0.0000000001
 12
0.0163254074
 22
0.1220534123
 32
0.0
 13
0.1066410086
 23
0.0615731245
 33
0.0
 40
0.0
 40
0.0
 40
0.0
 40
0.0
 40
0.5385122259
 40
1.0
 40
1.0
 40
1.0
 40
1.0
 10
-6.308774436
 20
-44.8972274698
 30
0.0
 10
-6.3058439588
 20
-44.8753183849
 30
0.0
 10
-6.2946655038
 20
-44.8346201668
 30
0.0
 10
-6.2652076605
 20
-44.8029003701
 30
0.0
 10
-6.2488031533
 20
-44.7934286221
 30
0.0
 11
-6.308774436
 21
-44.8972274698
 31
0.0
 11
-6.2885035506
 21
-44.8340891099
 31
0.0
 11
-6.2488031533
 21
-44.7934286221
 31
0.0
  0
SPLINE
  5
493
100
AcDbEntity
  8
RACCORDO
100
AcDbSpline
 62
7
  6
CONTINUOUS
 70
0
 71
3
 72
11
 73
7
 74
5
 42
0.0000001
 43
0.0000001
 44
0.0000000001
 12
0.3808322389
 22
-0.2198877618
 32
0.0
 13
0.0
 23
-0.4397542745
 33
0.0
 40
0.0
 40
0.0
 40
0.0
 40
0.0
 40
0.2372413496
 40
0.5000061068
 40
0.7627675405
 40
1.0
 40
1.0
 40
1.0
 40
1.0
 10
-10.8364114217
 20
16.5497777539
 30
0.0
 10
-10.8062950369
 20
16.5323889308
 30
0.0
 10
-10.7493030267
 20
16.4844216561
 30
0.0
 10
-10.6827849301
 20
16.3935223753
 30
0.0
 10
-10.6373232588
 20
16.2904676431
 30
0.0
 10
-10.6242793873
 20
16.2171289556
 30
0.0
 10
-10.6242793873
 20
16.1823542929
 30
0.0
 11
-10.8364114217
 21
16.5497777539
 31
0.0
 11
-10.7552263493
 21
16.4842545195
 31
0.0
 11
-10.6864114217
 21
16.3914280516
 31
0.0
 11
-10.6404295416
 21
16.2854206163
 31
0.0
 11
-10.6242793873
 21
16.1823542929
 31
0.0
  0
SPLINE
  5
494
100
AcDbEntity
  8
RACCORDO
100
AcDbSpline
 62
7
  6
CONTINUOUS
 70
0
 71
3
 72
11
 73
7
 74
5
 42
0.0000001
 43
0.0000001
 44
0.0000000001
 12
0.3808322389
 22
-0.2198877618
 32
0.0
 13
0.0
 23
-0.4397542745
 33
0.0
 40
0.0
 40
0.0
 40
0.0
 40
0.0
 40
0.2372413496
 40
0.5000061068
 40
0.7627675405
 40
1.0
 40
1.0
 40
1.0
 40
1.0
 10
5.073491155
 20
7.363599404
 30
0.0
 10
5.1036075398
 20
7.3462105809
 30
0.0
 10
5.16059955
 20
7.2982433062
 30
0.0
 10
5.2271176466
 20
7.2073440254
 30
0.0
 10
5.2725793178
 20
7.1042892932
 30
0.0
 10
5.2856231894
 20
7.0309506057
 30
0.0
 10
5.2856231894
 20
6.996175943
 30
0.0
 11
5.073491155
 21
7.363599404
 31
0.0
 11
5.1546762274
 21
7.2980761697
 31
0.0
 11
5.223491155
 21
7.2052497017
 31
0.0
 11
5.2694730351
 21
7.0992422664
 31
0.0
 11
5.2856231894
 21
6.996175943
 31
0.0
  0
SPLINE
  5
495
100
AcDbEntity
  8
0
100
AcDbSpline
 62
7
  6
CONTINUOUS
 70
0
 71
3
 72
9
 73
5
 74
3
 42
0.0000001
 43
0.0000001
 44
0.0000000001
 12
-0.1872984791
 22
0.0289782101
 32
0.0
 13
-0.1681595966
 23
-0.0874231492
 33
0.0
 40
0.0
 40
0.0
 40
0.0
 40
0.0
 40
0.5194837679
 40
1.0
 40
1.0
 40
1.0
 40
1.0
 10
9.3253251431
 20
7.0099974288
 30
0.0
 10
9.2928923032
 20
7.015015332
 30
0.0
 10
9.2288810904
 20
7.0155068052
 30
0.0
 10
9.1666673535
 20
6.9982753306
 30
0.0
 10
9.1397328816
 20
6.9842725832
 30
0.0
 11
9.3253251431
 21
7.0099974288
 31
0.0
 11
9.2268718041
 21
7.010743182
 31
0.0
 11
9.1397328816
 21
6.9842725832
 31
0.0
  0
SPLINE
  5
496
100
AcDbEntity
  8
0
100
AcDbSpline
 62
7
  6
CONTINUOUS
 70
0
 71
3
 72
9
 73
5
 74
3
 42
0.0000001
 43
0.0000001
 44
0.0000000001
 12
0.012956691
 22
-0.0279185118
 32
0.0
 13
0.0000103893
 23
-0.0307785483
 33
0.0
 40
0.0
 40
0.0
 40
0.0
 40
0.0
 40
0.257348902
 40
1.0
 40
1.0
 40
1.0
 40
1.0
 10
-2.4689276666
 20
13.8198511843
 30
0.0
 10
-2.4678162032
 20
13.8174562515
 30
0.0
 10
-2.463955564
 20
13.8079474229
 30
0.0
 10
-2.4621128564
 20
13.7975946996
 30
0.0
 10
-2.4621102846
 20
13.7899754587
 30
0.0
 11
-2.4689276666
 21
13.8198511843
 31
0.0
 11
-2.4659627852
 21
13.8125061885
 31
0.0
 11
-2.4621102846
 21
13.7899754587
 31
0.0
  0
SPLINE
  5
497
100
AcDbEntity
  8
0
100
AcDbSpline
 62
7
  6
CONTINUOUS
 70
0
 71
3
 72
9
 73
5
 74
3
 42
0.0000001
 43
0.0000001
 44
0.0000000001
 12
-0.1872984791
 22
0.0289782101
 32
0.0
 13
-0.1681595966
 23
-0.0874231492
 33
0.0
 40
0.0
 40
0.0
 40
0.0
 40
0.0
 40
0.5194837679
 40
1.0
 40
1.0
 40
1.0
 40
1.0
 10
-6.5845774336
 20
16.1961757786
 30
0.0
 10
-6.6170102735
 20
16.2011936819
 30
0.0
 10
-6.6810214863
 20
16.2016851551
 30
0.0
 10
-6.7432352232
 20
16.1844536805
 30
0.0
 10
-6.7701696951
 20
16.1704509331
 30
0.0
 11
-6.5845774336
 21
16.1961757786
 31
0.0
 11
-6.6830307726
 21
16.1969215319
 31
0.0
 11
-6.7701696951
 21
16.1704509331
 31
0.0
  0
SPLINE
  5
498
100
AcDbEntity
  8
0
100
AcDbSpline
 62
7
  6
CONTINUOUS
 70
0
 71
3
 72
9
 73
5
 74
3
 42
0.0000001
 43
0.0000001
 44
0.0000000001
 12
0.0356636509
 22
0.0249264817
 32
0.0
 13
0.0223702126
 23
0.0373202233
 33
0.0
 40
0.0
 40
0.0
 40
0.0
 40
0.0
 40
0.745130515
 40
1.0
 40
1.0
 40
1.0
 40
1.0
 10
-14.506159075
 20
48.0215820387
 30
0.0
 10
-14.4973010501
 20
48.0277731994
 30
0.0
 10
-14.4868538706
 20
48.0383333454
 30
0.0
 10
-14.4788508239
 20
48.0504271154
 30
0.0
 10
-14.4769503291
 20
48.0535977108
 30
0.0
 11
-14.506159075
 21
48.0215820387
 31
0.0
 11
-14.4830890558
 21
48.0443620714
 31
0.0
 11
-14.4769503291
 21
48.0535977108
 31
0.0
  0
SPLINE
  5
499
100
AcDbEntity
  8
0
100
AcDbSpline
 62
7
  6
CONTINUOUS
 70
0
 71
3
 72
9
 73
5
 74
3
 42
0.0000001
 43
0.0000001
 44
0.0000000001
 12
0.0253036784
 22
0.067371073
 32
0.0
 13
-0.0000095784
 23
0.0719662249
 33
0.0
 40
0.0
 40
0.0
 40
0.0
 40
0.0
 40
0.243469632
 40
1.0
 40
1.0
 40
1.0
 40
1.0
 10
-14.4663735853
 20
48.0756833425
 30
0.0
 10
-14.4643200262
 20
48.081150946
 30
0.0
 10
-14.4572016205
 20
48.1041031208
 30
0.0
 10
-14.4547852648
 20
48.1283281676
 30
0.0
 10
-14.4547876802
 20
48.1464763791
 30
0.0
 11
-14.4663735853
 21
48.0756833425
 31
0.0
 11
-14.4611325205
 21
48.0924027137
 31
0.0
 11
-14.4547876802
 21
48.1464763791
 31
0.0
  0
SPLINE
  5
49A
100
AcDbEntity
  8
0
100
AcDbSpline
 62
7
  6
CONTINUOUS
 70
0
 71
3
 72
9
 73
5
 74
3
 42
0.0000001
 43
0.0000001
 44
0.0000000001
 12
-0.0685559615
 22
-0.1766939093
 32
0.0
 13
-0.1597856713
 23
-0.1019274089
 33
0.0
 40
0.0
 40
0.0
 40
0.0
 40
0.0
 40
0.5194818691
 40
1.0
 40
1.0
 40
1.0
 40
1.0
 10
-14.4616028748
 20
29.8395839278
 30
0.0
 10
-14.4734740678
 20
29.8089875004
 30
0.0
 10
-14.5050543192
 20
29.7533065649
 30
0.0
 10
-14.551082636
 20
29.7080423543
 30
0.0
 10
-14.5766759401
 20
29.6917163649
 30
0.0
 11
-14.4616028748
 21
29.8395839278
 31
0.0
 11
-14.5101837792
 21
29.7539480996
 31
0.0
 11
-14.5766759401
 21
29.6917163649
 31
0.0
  0
SPLINE
  5
49B
100
AcDbEntity
  8
0
100
AcDbSpline
 62
7
  6
CONTINUOUS
 70
0
 71
3
 72
9
 73
5
 74
3
 42
0.0000001
 43
0.0000001
 44
0.0000000001
 12
-0.0176950702
 22
0.0251729119
 32
0.0
 13
-0.0266419256
 23
0.0153947654
 33
0.0
 40
0.0
 40
0.0
 40
0.0
 40
0.0
 40
0.2573483268
 40
1.0
 40
1.0
 40
1.0
 40
1.0
 10
-14.4616028748
 20
34.5917738289
 30
0.0
 10
-14.4631208071
 20
34.5939332311
 30
0.0
 10
-14.4694236438
 20
34.6020287763
 30
0.0
 10
-14.4774656241
 20
34.6087991871
 30
0.0
 10
-14.4840608476
 20
34.6126101698
 30
0.0
 11
-14.4616028748
 21
34.5917738289
 31
0.0
 11
-14.4664800363
 21
34.5980122199
 31
0.0
 11
-14.4840608476
 21
34.6126101698
 31
0.0
  0
SPLINE
  5
49C
100
AcDbEntity
  8
0
100
AcDbSpline
 62
7
  6
CONTINUOUS
 70
0
 71
3
 72
11
 73
7
 74
5
 42
0.0000001
 43
0.0000001
 44
0.0000000001
 12
0.0
 22
0.1573747802
 32
0.0
 13
-0.136283381
 23
0.0786998189
 33
0.0
 40
0.0
 40
0.0
 40
0.0
 40
0.0
 40
0.2897048138
 40
0.549080994
 40
0.7822140898
 40
1.0
 40
1.0
 40
1.0
 40
1.0
 10
-9.5636192155
 20
15.1855099817
 30
0.0
 10
-9.5636192155
 20
15.2007073921
 30
0.0
 10
-9.5659220851
 20
15.2296090817
 30
0.0
 10
-9.5776255922
 20
15.2693193889
 30
0.0
 10
-9.5973294421
 20
15.3015431314
 30
0.0
 10
-9.6158374185
 20
15.3171101887
 30
0.0
 10
-9.6257309519
 20
15.3228234259
 30
0.0
 11
-9.5636192155
 21
15.1855099817
 31
0.0
 11
-9.567695207
 21
15.2309196487
 31
0.0
 11
-9.5797637437
 21
15.2699140479
 31
0.0
 11
-9.5993588398
 21
15.3009323445
 31
0.0
 11
-9.6257309519
 21
15.3228234259
 31
0.0
  0
SPLINE
  5
49D
100
AcDbEntity
  8
0
100
AcDbSpline
 62
7
  6
CONTINUOUS
 70
0
 71
3
 72
11
 73
7
 74
5
 42
0.0000001
 43
0.0000001
 44
0.0000000001
 12
0.1363067843
 22
-0.0787018289
 32
0.0
 13
0.0000100109
 23
-0.1573960521
 33
0.0
 40
0.0
 40
0.0
 40
0.0
 40
0.0
 40
0.2896992277
 40
0.5490741134
 40
0.7822095664
 40
1.0
 40
1.0
 40
1.0
 40
1.0
 10
-16.8263071501
 20
-30.2045351815
 30
0.0
 10
-16.8131444934
 20
-30.2121351345
 30
0.0
 10
-16.7892639365
 20
-30.2285831502
 30
0.0
 10
-16.7607230873
 20
-30.2585789084
 30
0.0
 10
-16.7426672797
 20
-30.2917603239
 30
0.0
 10
-16.7384399806
 20
-30.3155759227
 30
0.0
 10
-16.7384392538
 20
-30.3270023742
 30
0.0
 11
-16.8263071501
 21
-30.2045351815
 31
0.0
 11
-16.7890157584
 21
-30.2307741881
 31
0.0
 11
-16.7612774651
 21
-30.2607280471
 31
0.0
 11
-16.7442112152
 21
-30.2932124554
 31
0.0
 11
-16.7384392538
 21
-30.3270023742
 31
0.0
  0
SPLINE
  5
49E
100
AcDbEntity
  8
0
100
AcDbSpline
 62
7
  6
CONTINUOUS
 70
0
 71
3
 72
8
 73
4
 74
2
 42
0.0000001
 43
0.0000001
 44
0.0000000001
 12
0.0289670231
 22
0.0135396901
 32
0.0
 13
0.0317631114
 23
0.003676464
 33
0.0
 40
0.0
 40
0.0
 40
0.0
 40
0.0
 40
1.0
 40
1.0
 40
1.0
 40
1.0
 10
9.1397328816
 20
-50.9036938302
 30
0.0
 10
9.149388556
 20
-50.8991806002
 30
0.0
 10
9.159958887
 20
-50.89637959
 30
0.0
 10
9.1705465908
 20
-50.895154102
 30
0.0
 11
9.1397328816
 21
-50.9036938302
 31
0.0
 11
9.1705465908
 21
-50.895154102
 31
0.0
  0
SPLINE
  5
49F
100
AcDbEntity
  8
0
100
AcDbSpline
 62
7
  6
CONTINUOUS
 70
0
 71
3
 72
9
 73
5
 74
3
 42
0.0000001
 43
0.0000001
 44
0.0000000001
 12
0.0616902853
 22
0.0071404249
 32
0.0
 13
0.0589467159
 23
-0.0195438393
 33
0.0
 40
0.0
 40
0.0
 40
0.0
 40
0.0
 40
0.2434742951
 40
1.0
 40
1.0
 40
1.0
 40
1.0
 10
9.1705465908
 20
-50.895154102
 30
0.0
 10
9.175553257
 20
-50.8945745987
 30
0.0
 10
9.1962804172
 20
-50.8935863263
 30
0.0
 10
9.2170343412
 20
-50.8977214863
 30
0.0
 10
9.2318992431
 20
-50.9026499586
 30
0.0
 11
9.1705465908
 21
-50.895154102
 31
0.0
 11
9.185647905
 21
-50.8943970766
 31
0.0
 11
9.2318992431
 21
-50.9026499586
 31
0.0
  0
SPLINE
  5
4A0
100
AcDbEntity
  8
0
100
AcDbSpline
 62
7
  6
CONTINUOUS
 70
0
 71
3
 72
9
 73
5
 74
3
 42
0.0000001
 43
0.0000001
 44
0.0000000001
 12
0.0435305047
 22
-0.0144325799
 32
0.0
 13
0.0397128472
 23
-0.0229367384
 33
0.0
 40
0.0
 40
0.0
 40
0.0
 40
0.0
 40
0.2463272334
 40
1.0
 40
1.0
 40
1.0
 40
1.0
 10
9.2318992431
 20
-50.9026499586
 30
0.0
 10
9.2354734927
 20
-50.9038350044
 30
0.0
 10
9.2498397001
 20
-50.9090777217
 30
0.0
 10
9.263610057
 20
-50.9158901912
 30
0.0
 10
9.2735868875
 20
-50.9216524563
 30
0.0
 11
9.2318992431
 21
-50.9026499586
 31
0.0
 11
9.2425149145
 21
-50.9065131005
 31
0.0
 11
9.2735868875
 21
-50.9216524563
 31
0.0
  0
SPLINE
  5
4A1
100
AcDbEntity
  8
0
100
AcDbSpline
 62
7
  6
CONTINUOUS
 70
0
 71
3
 72
8
 73
4
 74
2
 42
0.0000001
 43
0.0000001
 44
0.0000000001
 12
0.0289670231
 22
0.0135396901
 32
0.0
 13
0.0317631114
 23
0.003676464
 33
0.0
 40
0.0
 40
0.0
 40
0.0
 40
0.0
 40
1.0
 40
1.0
 40
1.0
 40
1.0
 10
-6.7701696951
 20
-41.7175154804
 30
0.0
 10
-6.7605140207
 20
-41.7130022504
 30
0.0
 10
-6.7499436897
 20
-41.7102012402
 30
0.0
 10
-6.7393559859
 20
-41.7089757522
 30
0.0
 11
-6.7701696951
 21
-41.7175154804
 31
0.0
 11
-6.7393559859
 21
-41.7089757522
 31
0.0
  0
SPLINE
  5
4A2
100
AcDbEntity
  8
0
100
AcDbSpline
 62
7
  6
CONTINUOUS
 70
0
 71
3
 72
9
 73
5
 74
3
 42
0.0000001
 43
0.0000001
 44
0.0000000001
 12
0.0616902853
 22
0.0071404249
 32
0.0
 13
0.0589467159
 23
-0.0195438393
 33
0.0
 40
0.0
 40
0.0
 40
0.0
 40
0.0
 40
0.2434742951
 40
1.0
 40
1.0
 40
1.0
 40
1.0
 10
-6.7393559859
 20
-41.7089757522
 30
0.0
 10
-6.7343493197
 20
-41.7083962489
 30
0.0
 10
-6.7136221595
 20
-41.7074079764
 30
0.0
 10
-6.6928682355
 20
-41.7115431365
 30
0.0
 10
-6.6780033336
 20
-41.7164716087
 30
0.0
 11
-6.7393559859
 21
-41.7089757522
 31
0.0
 11
-6.7242546717
 21
-41.7082187267
 31
0.0
 11
-6.6780033336
 21
-41.7164716087
 31
0.0
  0
SPLINE
  5
4A3
100
AcDbEntity
  8
0
100
AcDbSpline
 62
7
  6
CONTINUOUS
 70
0
 71
3
 72
9
 73
5
 74
3
 42
0.0000001
 43
0.0000001
 44
0.0000000001
 12
0.0435305047
 22
-0.0144325799
 32
0.0
 13
0.0397128472
 23
-0.0229367384
 33
0.0
 40
0.0
 40
0.0
 40
0.0
 40
0.0
 40
0.2463272334
 40
1.0
 40
1.0
 40
1.0
 40
1.0
 10
-6.6780033336
 20
-41.7164716087
 30
0.0
 10
-6.674429084
 20
-41.7176566545
 30
0.0
 10
-6.6600628766
 20
-41.7228993718
 30
0.0
 10
-6.6462925197
 20
-41.7297118414
 30
0.0
 10
-6.6363156892
 20
-41.7354741064
 30
0.0
 11
-6.6780033336
 21
-41.7164716087
 31
0.0
 11
-6.6673876622
 21
-41.7203347506
 31
0.0
 11
-6.6363156892
 21
-41.7354741064
 31
0.0
  0
SPLINE
  5
4A4
100
AcDbEntity
  8
0
100
AcDbSpline
 62
7
  6
CONTINUOUS
 70
0
 71
3
 72
11
 73
7
 74
5
 42
0.0000001
 43
0.0000001
 44
0.0000000001
 12
0.0
 22
0.4397542745
 32
0.0
 13
-0.3808322389
 23
0.2198877618
 33
0.0
 40
0.0
 40
0.0
 40
0.0
 40
0.0
 40
0.2372324595
 40
0.4999938932
 40
0.7627586504
 40
1.0
 40
1.0
 40
1.0
 40
1.0
 10
-10.6242793873
 20
-41.7870353594
 30
0.0
 10
-10.6242793873
 20
-41.7522606967
 30
0.0
 10
-10.6373232588
 20
-41.6789220092
 30
0.0
 10
-10.6827849301
 20
-41.575867277
 30
0.0
 10
-10.7493030267
 20
-41.4849679962
 30
0.0
 10
-10.8062950369
 20
-41.4370007215
 30
0.0
 10
-10.8364114217
 20
-41.4196118984
 30
0.0
 11
-10.6242793873
 21
-41.7870353594
 31
0.0
 11
-10.6404295416
 21
-41.683969036
 31
0.0
 11
-10.6864114217
 21
-41.5779616007
 31
0.0
 11
-10.7552263493
 21
-41.4851351327
 31
0.0
 11
-10.8364114217
 21
-41.4196118984
 31
0.0
  0
SPLINE
  5
4A5
100
AcDbEntity
  8
0
100
AcDbSpline
 62
7
  6
CONTINUOUS
 70
0
 71
3
 72
11
 73
7
 74
5
 42
0.0000001
 43
0.0000001
 44
0.0000000001
 12
0.0
 22
0.4397542745
 32
0.0
 13
-0.3808322389
 23
0.2198877618
 33
0.0
 40
0.0
 40
0.0
 40
0.0
 40
0.0
 40
0.2372324595
 40
0.4999938932
 40
0.7627586504
 40
1.0
 40
1.0
 40
1.0
 40
1.0
 10
5.2856231894
 20
-50.9732137093
 30
0.0
 10
5.2856231894
 20
-50.9384390466
 30
0.0
 10
5.2725793178
 20
-50.8651003591
 30
0.0
 10
5.2271176466
 20
-50.7620456268
 30
0.0
 10
5.16059955
 20
-50.6711463461
 30
0.0
 10
5.1036075398
 20
-50.6231790714
 30
0.0
 10
5.073491155
 20
-50.6057902483
 30
0.0
 11
5.2856231894
 21
-50.9732137093
 31
0.0
 11
5.2694730351
 21
-50.8701473859
 31
0.0
 11
5.223491155
 21
-50.7641399505
 31
0.0
 11
5.1546762274
 21
-50.6713134826
 31
0.0
 11
5.073491155
 21
-50.6057902483
 31
0.0
  0
SPLINE
  5
4A6
100
AcDbEntity
  8
0
100
AcDbSpline
 62
7
  6
CONTINUOUS
 70
0
 71
3
 72
11
 73
7
 74
5
 42
0.0000001
 43
0.0000001
 44
0.0000000001
 12
-0.1363215866
 22
0.0787103756
 32
0.0
 13
-0.1363216183
 23
-0.0787103206
 33
0.0
 40
0.0
 40
0.0
 40
0.0
 40
0.0
 40
0.2897063967
 40
0.5490922938
 40
0.7822195412
 40
1.0
 40
1.0
 40
1.0
 40
1.0
 10
-5.5331105628
 20
-44.4816713483
 30
0.0
 10
-5.5462749747
 20
-44.4740703819
 30
0.0
 10
-5.5724629712
 20
-44.4616105512
 30
0.0
 10
-5.612714931
 20
-44.4518885318
 30
0.0
 10
-5.6504831456
 20
-44.4528431635
 30
0.0
 10
-5.6732216668
 20
-44.4610950908
 30
0.0
 10
-5.6831177284
 20
-44.4668089474
 30
0.0
 11
-5.5331105628
 21
-44.4816713483
 31
0.0
 11
-5.5744846024
 21
-44.4624912357
 31
0.0
 11
-5.6143003155
 21
-44.4534436327
 31
0.0
 11
-5.6509683961
 21
-44.4549075966
 31
0.0
 11
-5.6831177284
 21
-44.4668089474
 31
0.0
  0
SPLINE
  5
4A7
100
AcDbEntity
  8
0
100
AcDbSpline
 62
7
  6
CONTINUOUS
 70
0
 71
3
 72
9
 73
5
 74
3
 42
0.0000001
 43
0.0000001
 44
0.0000000001
 12
-0.0685559501
 22
-0.1766940193
 32
0.0
 13
-0.1597857543
 23
-0.1019274619
 33
0.0
 40
0.0
 40
0.0
 40
0.0
 40
0.0
 40
0.5194818255
 40
1.0
 40
1.0
 40
1.0
 40
1.0
 10
-14.4616028748
 20
-9.7592243833
 30
0.0
 10
-14.4734740649
 20
-9.7898208272
 30
0.0
 10
-14.5050542667
 20
-9.8455018295
 30
0.0
 10
-14.5510826204
 20
-9.8907660602
 30
0.0
 10
-14.5766759401
 20
-9.9070920595
 30
0.0
 11
-14.4616028748
 21
-9.7592243833
 31
0.0
 11
-14.5101837447
 21
-9.8448602804
 31
0.0
 11
-14.5766759401
 21
-9.9070920595
 31
0.0
  0
LINE
  5
4A8
100
AcDbEntity
  8
0
100
AcDbLine
 62
7
  6
CONTINUOUS
 10
-2.4621101494
 20
-44.1456080238
 11
-2.5134816337
 21
-44.1752738182
  0
SPLINE
  5
4A9
100
AcDbEntity
  8
0
100
AcDbSpline
 62
7
  6
CONTINUOUS
 70
0
 71
3
 72
11
 73
7
 74
5
 42
0.0000001
 43
0.0000001
 44
0.0000000001
 12
-0.132665165
 22
0.0766104009
 32
0.0
 13
-0.1338225329
 23
-0.0745702972
 33
0.0
 40
0.0
 40
0.0
 40
0.0
 40
0.0
 40
0.2187478139
 40
0.4522842438
 40
0.711303178
 40
1.0
 40
1.0
 40
1.0
 40
1.0
 10
-9.6257309519
 20
15.3228234259
 30
0.0
 10
-9.6354043569
 20
15.3284095451
 30
0.0
 10
-9.6575453207
 20
15.3365537862
 30
0.0
 10
-9.6943271253
 20
15.3378719359
 30
0.0
 10
-9.7335717744
 20
15.3289581841
 30
0.0
 10
-9.7591709888
 20
15.3172450625
 30
0.0
 10
-9.7720490354
 20
15.3100689933
 30
0.0
 11
-9.6257309519
 21
15.3228234259
 31
0.0
 11
-9.6571130267
 21
15.3345784591
 31
0.0
 11
-9.6928458214
 21
15.3363561698
 31
0.0
 11
-9.7316528708
 21
15.3280748363
 31
0.0
 11
-9.7720490354
 21
15.3100689933
 31
0.0
  0
SPLINE
  5
4AA
100
AcDbEntity
  8
0
100
AcDbSpline
 62
7
  6
CONTINUOUS
 70
0
 71
3
 72
11
 73
7
 74
5
 42
0.0000001
 43
0.0000001
 44
0.0000000001
 12
-0.1363196966
 22
0.0787129589
 32
0.0
 13
-0.1363212878
 23
-0.0787102031
 33
0.0
 40
0.0
 40
0.0
 40
0.0
 40
0.0
 40
0.2177889
 40
0.4509247687
 40
0.7103008336
 40
1.0
 40
1.0
 40
1.0
 40
1.0
 10
-15.8569561793
 20
20.1216364584
 30
0.0
 10
-15.8668524849
 20
20.1273507279
 30
0.0
 10
-15.8895922363
 20
20.135602205
 30
0.0
 10
-15.9273605931
 20
20.1365561282
 30
0.0
 10
-15.9676122139
 20
20.1268348648
 30
0.0
 10
-15.9937989999
 20
20.1143746551
 30
0.0
 10
-16.0069630544
 20
20.1067738951
 30
0.0
 11
-15.8569561793
 21
20.1216364584
 31
0.0
 11
-15.8891068535
 21
20.1335377954
 31
0.0
 11
-15.9257762355
 21
20.135001166
 31
0.0
 11
-15.9655903623
 21
20.1259539707
 31
0.0
 11
-16.0069630544
 21
20.1067738951
 31
0.0
  0
SPLINE
  5
4AB
100
AcDbEntity
  8
0
100
AcDbSpline
 62
7
  6
CONTINUOUS
 70
0
 71
3
 72
11
 73
7
 74
5
 42
0.0000001
 43
0.0000001
 44
0.0000000001
 12
-0.0000113246
 22
-0.1531790499
 32
0.0
 13
-0.1314714709
 23
-0.078607085
 33
0.0
 40
0.0
 40
0.0
 40
0.0
 40
0.0
 40
0.2187656241
 40
0.4523171593
 40
0.7113239092
 40
1.0
 40
1.0
 40
1.0
 40
1.0
 10
-15.7069630954
 20
19.8618323921
 30
0.0
 10
-15.7069639212
 20
19.8506622887
 30
0.0
 10
-15.7109848898
 20
19.8274173366
 30
0.0
 10
-15.7282343138
 20
19.794908364
 30
0.0
 10
-15.7555711478
 20
19.7653813954
 30
0.0
 10
-15.7785102242
 20
19.7490706962
 30
0.0
 10
-15.7911611142
 20
19.7415067009
 30
0.0
 11
-15.7069630954
 21
19.8618323921
 31
0.0
 11
-15.7124786492
 21
19.8287791082
 31
0.0
 11
-15.7288066207
 21
19.7969473246
 31
0.0
 11
-15.7553771517
 21
19.7674843727
 31
0.0
 11
-15.7911611142
 21
19.7415067009
 31
0.0
  0
SPLINE
  5
4AC
100
AcDbEntity
  8
0
100
AcDbSpline
 62
7
  6
CONTINUOUS
 70
0
 71
3
 72
11
 73
7
 74
5
 42
0.0000001
 43
0.0000001
 44
0.0000000001
 12
0.3845332045
 22
-0.214406715
 32
0.0
 13
0.0000000002
 23
-0.4402681283
 33
0.0
 40
0.0
 40
0.0
 40
0.0
 40
0.0
 40
0.2382948755
 40
0.5011054867
 40
0.7633135658
 40
1.0
 40
1.0
 40
1.0
 40
1.0
 10
-16.0069630543
 20
20.106773895
 30
0.0
 10
-15.976418957
 20
20.0897432212
 30
0.0
 10
-15.9185022702
 20
20.0424783122
 30
0.0
 10
-15.8507422936
 20
19.9521948016
 30
0.0
 10
-15.8044277252
 20
19.849510499
 30
0.0
 10
-15.7911611143
 20
19.7762418654
 30
0.0
 10
-15.7911611142
 20
19.7415067009
 30
0.0
 11
-16.0069630543
 21
20.106773895
 31
0.0
 11
-15.9243734717
 21
20.0420758854
 31
0.0
 11
-15.8543680392
 21
19.9499489039
 31
0.0
 11
-15.8075906675
 21
19.8444088614
 31
0.0
 11
-15.7911611142
 21
19.7415067009
 31
0.0
  0
SPLINE
  5
4AD
100
AcDbEntity
  8
0
100
AcDbSpline
 62
7
  6
CONTINUOUS
 70
0
 71
3
 72
9
 73
5
 74
3
 42
0.0000001
 43
0.0000001
 44
0.0000000001
 12
-0.0829538834
 22
0.0479340569
 32
0.0
 13
-0.0851104014
 23
-0.0439913643
 33
0.0
 40
0.0
 40
0.0
 40
0.0
 40
0.0
 40
0.4536529699
 40
1.0
 40
1.0
 40
1.0
 40
1.0
 10
-14.4840608476
 20
34.6126101698
 30
0.0
 10
-14.4966049395
 20
34.6198586456
 30
0.0
 10
-14.5301875191
 20
34.6258941099
 30
0.0
 10
-14.5611760017
 20
34.6147695309
 30
0.0
 10
-14.5766759401
 20
34.6067580138
 30
0.0
 11
-14.4840608476
 21
34.6126101698
 31
0.0
 11
-14.5265407456
 21
34.6218031038
 31
0.0
 11
-14.5766759401
 21
34.6067580138
 31
0.0
  0
SPLINE
  5
4AE
100
AcDbEntity
  8
0
100
AcDbSpline
 62
7
  6
CONTINUOUS
 70
0
 71
3
 72
11
 73
7
 74
5
 42
0.0000001
 43
0.0000001
 44
0.0000000001
 12
0.1363216183
 22
0.0787103206
 32
0.0
 13
0.1363215866
 23
-0.0787103756
 33
0.0
 40
0.0
 40
0.0
 40
0.0
 40
0.0
 40
0.2177804588
 40
0.4509077062
 40
0.7102936033
 40
1.0
 40
1.0
 40
1.0
 40
1.0
 10
-6.2488031533
 20
-44.7934286221
 30
0.0
 10
-6.2389070918
 20
-44.7877147655
 30
0.0
 10
-6.2161685705
 20
-44.7794628382
 30
0.0
 10
-6.178400356
 20
-44.7785082064
 30
0.0
 10
-6.1381483961
 20
-44.7882302259
 30
0.0
 10
-6.1119603996
 20
-44.8006900566
 30
0.0
 10
-6.0987959877
 20
-44.808291023
 30
0.0
 11
-6.2488031533
 21
-44.7934286221
 31
0.0
 11
-6.2166538211
 21
-44.7815272712
 31
0.0
 11
-6.1799857404
 21
-44.7800633073
 31
0.0
 11
-6.1401700274
 21
-44.7891109103
 31
0.0
 11
-6.0987959877
 21
-44.808291023
 31
0.0
  0
SPLINE
  5
4AF
100
AcDbEntity
  8
0
100
AcDbSpline
 62
7
  6
CONTINUOUS
 70
0
 71
3
 72
11
 73
7
 74
5
 42
0.0000001
 43
0.0000001
 44
0.0000000001
 12
-0.1363196965
 22
0.0787129589
 32
0.0
 13
-0.1363212878
 23
-0.078710203
 33
0.0
 40
0.0
 40
0.0
 40
0.0
 40
0.0
 40
0.2177888999
 40
0.4509247687
 40
0.7103008337
 40
1.0
 40
1.0
 40
1.0
 40
1.0
 10
-15.8569561793
 20
-37.8477531939
 30
0.0
 10
-15.8668524849
 20
-37.8420389244
 30
0.0
 10
-15.8895922363
 20
-37.8337874473
 30
0.0
 10
-15.9273605931
 20
-37.832833524
 30
0.0
 10
-15.9676122139
 20
-37.8425547875
 30
0.0
 10
-15.9937989999
 20
-37.8550149972
 30
0.0
 10
-16.0069630543
 20
-37.8626157573
 30
0.0
 11
-15.8569561793
 21
-37.8477531939
 31
0.0
 11
-15.8891068535
 21
-37.8358518569
 31
0.0
 11
-15.9257762354
 21
-37.8343884863
 31
0.0
 11
-15.9655903623
 21
-37.8434356816
 31
0.0
 11
-16.0069630543
 21
-37.8626157573
 31
0.0
  0
SPLINE
  5
4B0
100
AcDbEntity
  8
0
100
AcDbSpline
 62
7
  6
CONTINUOUS
 70
0
 71
3
 72
11
 73
7
 74
5
 42
0.0000001
 43
0.0000001
 44
0.0000000001
 12
-0.0000113246
 22
-0.1531790499
 32
0.0
 13
-0.1314714709
 23
-0.078607085
 33
0.0
 40
0.0
 40
0.0
 40
0.0
 40
0.0
 40
0.2187656241
 40
0.4523171593
 40
0.7113239091
 40
1.0
 40
1.0
 40
1.0
 40
1.0
 10
-15.7069630954
 20
-38.1075572601
 30
0.0
 10
-15.7069639212
 20
-38.1187273636
 30
0.0
 10
-15.7109848898
 20
-38.1419723157
 30
0.0
 10
-15.7282343138
 20
-38.1744812883
 30
0.0
 10
-15.7555711478
 20
-38.2040082569
 30
0.0
 10
-15.7785102242
 20
-38.2203189561
 30
0.0
 10
-15.7911611142
 20
-38.2278829514
 30
0.0
 11
-15.7069630954
 21
-38.1075572601
 31
0.0
 11
-15.7124786492
 21
-38.1406105441
 31
0.0
 11
-15.7288066207
 21
-38.1724423277
 31
0.0
 11
-15.7553771517
 21
-38.2019052796
 31
0.0
 11
-15.7911611142
 21
-38.2278829514
 31
0.0
  0
SPLINE
  5
4B1
100
AcDbEntity
  8
0
100
AcDbSpline
 62
7
  6
CONTINUOUS
 70
0
 71
3
 72
9
 73
5
 74
3
 42
0.0000001
 43
0.0000001
 44
0.0000000001
 12
0.0000323393
 22
-0.0958059031
 32
0.0
 13
-0.0806486366
 23
-0.0517162404
 33
0.0
 40
0.0
 40
0.0
 40
0.0
 40
0.0
 40
0.4536675455
 40
1.0
 40
1.0
 40
1.0
 40
1.0
 10
-2.4621102846
 20
13.7899754587
 30
0.0
 10
-2.4621053941
 20
13.775487449
 30
0.0
 10
-2.4736682081
 20
13.7433868724
 30
0.0
 10
-2.4987946445
 20
13.7221106821
 30
0.0
 10
-2.5134816337
 20
13.7126925952
 30
0.0
 11
-2.4621102846
 21
13.7899754587
 31
0.0
 11
-2.4753883276
 21
13.7485892823
 31
0.0
 11
-2.5134816337
 21
13.7126925952
 31
0.0
  0
SPLINE
  5
4B2
100
AcDbEntity
  8
0
100
AcDbSpline
 62
7
  6
CONTINUOUS
 70
0
 71
3
 72
11
 73
7
 74
5
 42
0.0000001
 43
0.0000001
 44
0.0000000001
 12
0.0000097437
 22
-0.153194492
 32
0.0
 13
-0.1314847245
 23
-0.0786150093
 33
0.0
 40
0.0
 40
0.0
 40
0.0
 40
0.0
 40
0.218757533
 40
0.4522985233
 40
0.7113142485
 40
1.0
 40
1.0
 40
1.0
 40
1.0
 10
-16.7384392538
 20
-30.3270023742
 30
0.0
 10
-16.7384385433
 20
-30.3381731905
 30
0.0
 10
-16.7424558896
 20
-30.361420222
 30
0.0
 10
-16.7597037626
 20
-30.393934027
 30
0.0
 10
-16.787043093
 20
-30.4234648918
 30
0.0
 10
-16.8099846555
 20
-30.4397786596
 30
0.0
 10
-16.8226372444
 20
-30.4473436706
 30
0.0
 11
-16.7384392538
 21
-30.3270023742
 31
0.0
 11
-16.7439503433
 21
-30.3600585709
 31
0.0
 11
-16.7602760583
 21
-30.3918937496
 31
0.0
 11
-16.7868490531
 21
-30.4213617167
 31
0.0
 11
-16.8226372444
 21
-30.4473436706
 31
0.0
  0
SPLINE
  5
4B3
100
AcDbEntity
  8
0
100
AcDbSpline
 62
7
  6
CONTINUOUS
 70
0
 71
3
 72
11
 73
7
 74
5
 42
0.0000001
 43
0.0000001
 44
0.0000000001
 12
0.1314847245
 22
0.0786150093
 32
0.0
 13
-0.0000097437
 23
0.153194492
 33
0.0
 40
0.0
 40
0.0
 40
0.0
 40
0.0
 40
0.2886857515
 40
0.5477014767
 40
0.781242467
 40
1.0
 40
1.0
 40
1.0
 40
1.0
 10
-16.8226372444
 20
27.5220459817
 30
0.0
 10
-16.8099846555
 20
27.5296109927
 30
0.0
 10
-16.787043093
 20
27.5459247605
 30
0.0
 10
-16.7597037626
 20
27.5754556253
 30
0.0
 10
-16.7424558896
 20
27.6079694303
 30
0.0
 10
-16.7384385433
 20
27.6312164617
 30
0.0
 10
-16.7384392538
 20
27.6423872781
 30
0.0
 11
-16.8226372444
 21
27.5220459817
 31
0.0
 11
-16.7868490531
 21
27.5480279355
 31
0.0
 11
-16.7602760583
 21
27.5774959027
 31
0.0
 11
-16.7439503433
 21
27.6093310814
 31
0.0
 11
-16.7384392538
 21
27.6423872781
 31
0.0
  0
SPLINE
  5
4B4
100
AcDbEntity
  8
0
100
AcDbSpline
 62
7
  6
CONTINUOUS
 70
0
 71
3
 72
11
 73
7
 74
5
 42
0.0000001
 43
0.0000001
 44
0.0000000001
 12
0.1338225329
 22
0.0745702972
 32
0.0
 13
0.132665165
 23
-0.0766104009
 33
0.0
 40
0.0
 40
0.0
 40
0.0
 40
0.0
 40
0.288696822
 40
0.5477157562
 40
0.7812521861
 40
1.0
 40
1.0
 40
1.0
 40
1.0
 10
-9.7720490354
 20
-42.659320659
 30
0.0
 10
-9.7591709888
 20
-42.6521445898
 30
0.0
 10
-9.7335717744
 20
-42.6404314682
 30
0.0
 10
-9.6943271253
 20
-42.6315177164
 30
0.0
 10
-9.6575453207
 20
-42.6328358661
 30
0.0
 10
-9.6354043569
 20
-42.6409801071
 30
0.0
 10
-9.6257309519
 20
-42.6465662264
 30
0.0
 11
-9.7720490354
 21
-42.659320659
 31
0.0
 11
-9.7316528708
 21
-42.641314816
 31
0.0
 11
-9.6928458214
 21
-42.6330334825
 31
0.0
 11
-9.6571130267
 21
-42.6348111932
 31
0.0
 11
-9.6257309519
 21
-42.6465662264
 31
0.0
  0
SPLINE
  5
4B5
100
AcDbEntity
  8
RACCORDO
100
AcDbSpline
 62
7
  6
CONTINUOUS
 70
0
 71
3
 72
11
 73
7
 74
5
 42
0.0000001
 43
0.0000001
 44
0.0000000001
 12
-0.1363215866
 22
0.0787103756
 32
0.0
 13
-0.1363216183
 23
-0.0787103206
 33
0.0
 40
0.0
 40
0.0
 40
0.0
 40
0.0
 40
0.2897063967
 40
0.5490922938
 40
0.7822195412
 40
1.0
 40
1.0
 40
1.0
 40
1.0
 10
-6.0987959877
 20
13.1610986293
 30
0.0
 10
-6.1119603996
 20
13.1686995957
 30
0.0
 10
-6.1381483961
 20
13.1811594264
 30
0.0
 10
-6.178400356
 20
13.1908814459
 30
0.0
 10
-6.2161685705
 20
13.1899268141
 30
0.0
 10
-6.2389070918
 20
13.1816748868
 30
0.0
 10
-6.2488031533
 20
13.1759610302
 30
0.0
 11
-6.0987959877
 21
13.1610986293
 31
0.0
 11
-6.1401700274
 21
13.1802787419
 31
0.0
 11
-6.1799857404
 21
13.189326345
 31
0.0
 11
-6.2166538211
 21
13.1878623811
 31
0.0
 11
-6.2488031533
 21
13.1759610302
 31
0.0
  0
SPLINE
  5
4B6
100
AcDbEntity
  8
RACCORDO
100
AcDbSpline
 62
7
  6
CONTINUOUS
 70
0
 71
3
 72
11
 73
7
 74
5
 42
0.0000001
 43
0.0000001
 44
0.0000000001
 12
-0.0464961916
 22
0.4013114562
 32
0.0
 13
-0.3498651772
 23
0.2020077685
 33
0.0
 40
0.0
 40
0.0
 40
0.0
 40
0.0
 40
0.2455415948
 40
0.5082744478
 40
0.7665682291
 40
1.0
 40
1.0
 40
1.0
 40
1.0
 10
4.7177841783
 20
6.7055654338
 30
0.0
 10
4.7139785953
 20
6.7384116521
 30
0.0
 10
4.6965536409
 20
6.8053995571
 30
0.0
 10
4.650025592
 20
6.8982757537
 30
0.0
 10
4.5870703035
 20
6.9788428598
 30
0.0
 10
4.535028946
 20
7.0212613857
 30
0.0
 10
4.5078057301
 20
7.0369797294
 30
0.0
 11
4.7177841783
 21
6.7055654338
 31
0.0
 11
4.6940098185
 21
6.8018721755
 31
0.0
 11
4.6467423994
 21
6.8969097103
 31
0.0
 11
4.5819579352
 21
6.9787132826
 31
0.0
 11
4.5078057301
 21
7.0369797294
 31
0.0
  0
SPLINE
  5
4B7
100
AcDbEntity
  8
RACCORDO
100
AcDbSpline
 62
7
  6
CONTINUOUS
 70
0
 71
3
 72
11
 73
7
 74
5
 42
0.0000001
 43
0.0000001
 44
0.0000000001
 12
-0.0464961916
 22
0.4013114562
 32
0.0
 13
-0.3498651772
 23
0.2020077685
 33
0.0
 40
0.0
 40
0.0
 40
0.0
 40
0.0
 40
0.2455415948
 40
0.5082744478
 40
0.7665682291
 40
1.0
 40
1.0
 40
1.0
 40
1.0
 10
-11.1921183984
 20
15.8917437837
 30
0.0
 10
-11.1959239814
 20
15.924590002
 30
0.0
 10
-11.2133489358
 20
15.991577907
 30
0.0
 10
-11.2598769847
 20
16.0844541036
 30
0.0
 10
-11.3228322732
 20
16.1650212097
 30
0.0
 10
-11.3748736307
 20
16.2074397355
 30
0.0
 10
-11.4020968466
 20
16.2231580792
 30
0.0
 11
-11.1921183984
 21
15.8917437837
 31
0.0
 11
-11.2158927582
 21
15.9880505254
 31
0.0
 11
-11.2631601773
 21
16.0830880602
 31
0.0
 11
-11.3279446415
 21
16.1648916324
 31
0.0
 11
-11.4020968466
 21
16.2231580792
 31
0.0
  0
SPLINE
  5
4B8
100
AcDbEntity
  8
0
100
AcDbSpline
 62
7
  6
CONTINUOUS
 70
0
 71
3
 72
11
 73
7
 74
5
 42
0.0000001
 43
0.0000001
 44
0.0000000001
 12
0.0
 22
0.4402681283
 32
0.0
 13
-0.3845332044
 23
0.2144067152
 33
0.0
 40
0.0
 40
0.0
 40
0.0
 40
0.0
 40
0.2366864372
 40
0.4988945121
 40
0.7617051275
 40
1.0
 40
1.0
 40
1.0
 40
1.0
 10
-15.7911611142
 20
-38.2278829514
 30
0.0
 10
-15.7911611142
 20
-38.1931477865
 30
0.0
 10
-15.8044277255
 20
-38.119879153
 30
0.0
 10
-15.8507422939
 20
-38.0171948501
 30
0.0
 10
-15.9185022703
 20
-37.9269113397
 30
0.0
 10
-15.9764189574
 20
-37.8796464309
 30
0.0
 10
-16.0069630543
 20
-37.8626157573
 30
0.0
 11
-15.7911611142
 21
-38.2278829514
 31
0.0
 11
-15.807590668
 21
-38.1249807897
 31
0.0
 11
-15.854368039
 21
-38.0194407488
 31
0.0
 11
-15.9243734725
 21
-37.9273137658
 31
0.0
 11
-16.0069630543
 21
-37.8626157573
 31
0.0
  0
SPLINE
  5
4B9
100
AcDbEntity
  8
0
100
AcDbSpline
 62
7
  6
CONTINUOUS
 70
0
 71
3
 72
11
 73
7
 74
5
 42
0.0000001
 43
0.0000001
 44
0.0000000001
 12
0.0514969358
 22
0.029447379
 32
0.0
 13
-0.05587741
 23
-0.0199197787
 33
0.0
 40
0.0
 40
0.0
 40
0.0
 40
0.0
 40
0.4549865686
 40
0.7690082257
 40
0.9453202531
 40
1.0
 40
1.0
 40
1.0
 40
1.0
 10
-14.506159075
 20
-23.4033471926
 30
0.0
 10
-14.498348937
 20
-23.3988811386
 30
0.0
 10
-14.4862988773
 20
-23.3917391066
 30
0.0
 10
-14.4669052812
 20
-23.380923174
 30
0.0
 10
-14.4626975038
 20
-23.3779061892
 30
0.0
 10
-14.453769226
 20
-23.3733182796
 30
0.0
 10
-14.4547876802
 20
-23.3736813491
 30
0.0
 11
-14.506159075
 21
-23.4033471926
 31
0.0
 11
-14.4827855599
 21
-23.3898500136
 31
0.0
 11
-14.4666532564
 21
-23.3805352882
 31
0.0
 11
-14.4575958162
 21
-23.3753049219
 31
0.0
 11
-14.4547876802
 21
-23.3736813491
 31
0.0
  0
SPLINE
  5
4BA
100
AcDbEntity
  8
0
100
AcDbSpline
 62
7
  6
CONTINUOUS
 70
0
 71
3
 72
11
 73
7
 74
5
 42
0.0000001
 43
0.0000001
 44
0.0000000001
 12
0.3498651772
 22
-0.2020077685
 32
0.0
 13
0.0464961916
 23
-0.4013114562
 33
0.0
 40
0.0
 40
0.0
 40
0.0
 40
0.0
 40
0.2334317709
 40
0.4917255522
 40
0.7544584052
 40
1.0
 40
1.0
 40
1.0
 40
1.0
 10
-11.4020968466
 20
-41.746231573
 30
0.0
 10
-11.3748736307
 20
-41.7619499168
 30
0.0
 10
-11.3228322732
 20
-41.8043684426
 30
0.0
 10
-11.2598769847
 20
-41.8849355487
 30
0.0
 10
-11.2133489358
 20
-41.9778117453
 30
0.0
 10
-11.1959239814
 20
-42.0447996503
 30
0.0
 10
-11.1921183984
 20
-42.0776458686
 30
0.0
 11
-11.4020968466
 21
-41.746231573
 31
0.0
 11
-11.3279446415
 21
-41.8044980199
 31
0.0
 11
-11.2631601773
 21
-41.8863015921
 31
0.0
 11
-11.2158927582
 21
-41.9813391269
 31
0.0
 11
-11.1921183984
 21
-42.0776458686
 31
0.0
  0
SPLINE
  5
4BB
100
AcDbEntity
  8
0
100
AcDbSpline
 62
7
  6
CONTINUOUS
 70
0
 71
3
 72
11
 73
7
 74
5
 42
0.0000001
 43
0.0000001
 44
0.0000000001
 12
0.3498651772
 22
-0.2020077685
 32
0.0
 13
0.0464961916
 23
-0.4013114562
 33
0.0
 40
0.0
 40
0.0
 40
0.0
 40
0.0
 40
0.2334317709
 40
0.4917255522
 40
0.7544584052
 40
1.0
 40
1.0
 40
1.0
 40
1.0
 10
4.5078057301
 20
-50.9324099229
 30
0.0
 10
4.535028946
 20
-50.9481282666
 30
0.0
 10
4.5870703035
 20
-50.9905467925
 30
0.0
 10
4.650025592
 20
-51.0711138986
 30
0.0
 10
4.6965536409
 20
-51.1639900952
 30
0.0
 10
4.7139785953
 20
-51.2309780001
 30
0.0
 10
4.7177841783
 20
-51.2638242185
 30
0.0
 11
4.5078057301
 21
-50.9324099229
 31
0.0
 11
4.5819579352
 21
-50.9906763697
 31
0.0
 11
4.6467423994
 21
-51.0724799419
 31
0.0
 11
4.6940098185
 21
-51.1675174768
 31
0.0
 11
4.7177841783
 21
-51.2638242185
 31
0.0
  0
SPLINE
  5
4BC
100
AcDbEntity
  8
SMUSSO
100
AcDbSpline
 62
7
  6
CONTINUOUS
 70
0
 71
3
 72
11
 73
7
 74
5
 42
0.0000001
 43
0.0000001
 44
0.0000000001
 12
0.6347203352
 22
-0.3664795658
 32
0.0
 13
0.0000000006
 23
-0.7329237178
 33
0.0
 40
0.0
 40
0.0
 40
0.0
 40
0.0
 40
0.2372290199
 40
0.5000061065
 40
0.7627798696
 40
1.0
 40
1.0
 40
1.0
 40
1.0
 10
35.0901740164
 20
49.7574435221
 30
0.0
 10
35.1403653774
 20
49.7284636594
 30
0.0
 10
35.2353536304
 20
49.6485200513
 30
0.0
 10
35.3462163093
 20
49.4970168178
 30
0.0
 10
35.4219900078
 20
49.3252574205
 30
0.0
 10
35.4437274069
 20
49.2030258404
 30
0.0
 10
35.443727407
 20
49.1450710871
 30
0.0
 11
35.0901740164
 21
49.7574435221
 31
0.0
 11
35.2254764454
 21
49.6482450827
 31
0.0
 11
35.3401728427
 21
49.4935266743
 31
0.0
 11
35.4168134904
 21
49.3168395999
 31
0.0
 11
35.443727407
 21
49.1450710871
 31
0.0
  0
SPLINE
  5
4BD
100
AcDbEntity
  8
DRAFT
100
AcDbSpline
 62
7
  6
CONTINUOUS
 70
0
 71
3
 72
9
 73
5
 74
3
 42
0.0000001
 43
0.0000001
 44
0.0000000001
 12
0.3438762518
 22
-0.0395650435
 32
0.0
 13
0.3033873767
 23
0.1666504393
 33
0.0
 40
0.0
 40
0.0
 40
0.0
 40
0.0
 40
0.5179153145
 40
1.0
 40
1.0
 40
1.0
 40
1.0
 10
33.075079441
 20
-86.6917585696
 30
0.0
 10
33.1344457
 20
-86.698589017
 30
0.0
 10
33.2515976438
 20
-86.697769699
 30
0.0
 10
33.3632102344
 20
-86.6598850547
 30
0.0
 10
33.4119630371
 20
-86.6331051799
 30
0.0
 11
33.075079441
 21
-86.6917585696
 31
0.0
 11
33.2543094162
 21
-86.6877980773
 31
0.0
 11
33.4119630371
 21
-86.6331051799
 31
0.0
  0
SPLINE
  5
4BE
100
AcDbEntity
  8
DRAFT
100
AcDbSpline
 62
7
  6
CONTINUOUS
 70
0
 71
3
 72
11
 73
7
 74
5
 42
0.0000001
 43
0.0000001
 44
0.0000000001
 12
0.6819913037
 22
0.4134064172
 32
0.0
 13
0.6906834833
 23
-0.3987145973
 33
0.0
 40
0.0
 40
0.0
 40
0.0
 40
0.0
 40
0.2178260973
 40
0.4506758744
 40
0.7097940858
 40
1.0
 40
1.0
 40
1.0
 40
1.0
 10
-31.642110227
 20
87.9182566971
 30
0.0
 10
-31.5925917257
 20
87.9482735992
 30
0.0
 10
-31.4781669794
 20
87.9922914828
 30
0.0
 10
-31.2868858065
 20
87.9992085206
 30
0.0
 10
-31.0826305321
 20
87.9510595604
 30
0.0
 10
-30.9498045535
 20
87.8880130712
 30
0.0
 10
-30.8829910762
 20
87.8494432931
 30
0.0
 11
-31.642110227
 21
87.9182566971
 31
0.0
 11
-31.4803398273
 21
87.9815670856
 31
0.0
 11
-31.2948851178
 21
87.9910943392
 31
0.0
 11
-31.0931124604
 21
87.9464691691
 31
0.0
 11
-30.8829910762
 21
87.8494432931
 31
0.0
  0
SPLINE
  5
4BF
100
AcDbEntity
  8
DRAFT
100
AcDbSpline
 62
7
  6
CONTINUOUS
 70
0
 71
3
 72
9
 73
5
 74
3
 42
0.0000001
 43
0.0000001
 44
0.0000000001
 12
-0.2959752657
 22
-0.1794129537
 32
0.0
 13
-0.1376577121
 23
-0.3175542791
 33
0.0
 40
0.0
 40
0.0
 40
0.0
 40
0.0
 40
0.4820877505
 40
1.0
 40
1.0
 40
1.0
 40
1.0
 10
-33.3122008262
 20
86.9057637429
 30
0.0
 10
-33.3597628429
 20
86.8769328138
 30
0.0
 10
-33.4483653731
 20
86.7992212186
 30
0.0
 10
-33.5076434519
 20
86.6981849299
 30
0.0
 10
-33.5314083237
 20
86.6433631796
 30
0.0
 11
-33.3122008262
 21
86.9057637429
 31
0.0
 11
-33.4383759772
 21
86.7965843382
 31
0.0
 11
-33.5314083237
 21
86.6433631796
 31
0.0
  0
SPLINE
  5
4C0
100
AcDbEntity
  8
DRAFT
100
AcDbSpline
 62
7
  6
CONTINUOUS
 70
0
 71
3
 72
11
 73
7
 74
5
 42
0.0000001
 43
0.0000001
 44
0.0000000001
 12
0.0
 22
-0.7975067341
 32
0.0
 13
-0.6989948392
 23
-0.3839572968
 33
0.0
 40
0.0
 40
0.0
 40
0.0
 40
0.0
 40
0.2902057614
 40
0.5493240508
 40
0.7821738624
 40
1.0
 40
1.0
 40
1.0
 40
1.0
 10
35.443727407
 20
-85.0010742998
 30
0.0
 10
35.443727407
 20
-85.0782213162
 30
0.0
 10
35.4319224009
 20
-85.2247758665
 30
0.0
 10
35.3715042296
 20
-85.4257439686
 30
0.0
 10
35.2698823127
 20
-85.5879454913
 30
0.0
 10
35.1745536128
 20
-85.6650366128
 30
0.0
 10
35.1238004975
 20
-85.6929152578
 30
0.0
 11
35.443727407
 21
-85.0010742998
 31
0.0
 11
35.4227064505
 21
-85.231558743
 31
0.0
 11
35.360477631
 21
-85.4286151054
 31
0.0
 11
35.2595080963
 21
-85.584465612
 31
0.0
 11
35.1238004975
 21
-85.6929152578
 31
0.0
  0
SPLINE
  5
4C1
100
AcDbEntity
  8
DRAFT
100
AcDbSpline
 62
7
  6
CONTINUOUS
 70
0
 71
3
 72
11
 73
7
 74
5
 42
0.0000001
 43
0.0000001
 44
0.0000000001
 12
0.6795403605
 22
0.3732709674
 32
0.0
 13
-0.0000000006
 23
0.7753104647
 33
0.0
 40
0.0
 40
0.0
 40
0.0
 40
0.0
 40
0.2178261375
 40
0.4506759491
 40
0.7097942385
 40
1.0
 40
1.0
 40
1.0
 40
1.0
 10
33.4119630371
 20
-86.6331051799
 30
0.0
 10
33.4613035877
 20
-86.6060024555
 30
0.0
 10
33.5539790918
 20
-86.53105694
 30
0.0
 10
33.6527726595
 20
-86.3733698227
 30
0.0
 10
33.7115092675
 20
-86.1779950803
 30
0.0
 10
33.7229857156
 20
-86.0355194476
 30
0.0
 10
33.7229857155
 20
-85.9605195931
 30
0.0
 11
33.4119630371
 21
-86.6331051799
 31
0.0
 11
33.5438936114
 21
-86.527673913
 31
0.0
 11
33.6420529541
 21
-86.3761610498
 31
0.0
 11
33.7025498161
 21
-86.1845891754
 31
0.0
 11
33.7229857155
 21
-85.9605195931
 31
0.0
  0
SPLINE
  5
4C2
100
AcDbEntity
  8
DRAFT
100
AcDbSpline
 62
7
  6
CONTINUOUS
 70
0
 71
3
 72
11
 73
7
 74
5
 42
0.0000001
 43
0.0000001
 44
0.0000000001
 12
-0.6715266968
 22
0.3877310985
 32
0.0
 13
-0.6631077749
 23
-0.4019596848
 33
0.0
 40
0.0
 40
0.0
 40
0.0
 40
0.0
 40
0.29021135
 40
0.5493317035
 40
0.7821792397
 40
1.0
 40
1.0
 40
1.0
 40
1.0
 10
-32.5741099819
 20
86.8388080812
 30
0.0
 10
-32.6390715384
 20
86.8763160697
 30
0.0
 10
-32.7682165323
 20
86.9376283145
 30
0.0
 10
-32.9668141957
 20
86.9844594321
 30
0.0
 10
-33.1527984473
 20
86.9777448406
 30
0.0
 10
-33.264054613
 20
86.9349487976
 30
0.0
 10
-33.3122008262
 20
86.9057637429
 30
0.0
 11
-32.5741099819
 21
86.8388080812
 31
0.0
 11
-32.7784095149
 21
86.933165794
 31
0.0
 11
-32.9745937869
 21
86.9765699999
 31
0.0
 11
-33.1549122415
 21
86.9673163914
 31
0.0
 11
-33.3122008262
 21
86.9057637429
 31
0.0
  0
SPLINE
  5
4C3
100
AcDbEntity
  8
DRAFT
100
AcDbSpline
 62
7
  6
CONTINUOUS
 70
0
 71
3
 72
13
 73
9
 74
7
 42
0.0000001
 43
0.0000001
 44
0.0000000001
 12
1.906476505
 22
-1.1007756402
 32
0.0
 13
0.0000000017
 23
-2.201444906
 33
0.0
 40
0.0
 40
0.0
 40
0.0
 40
0.0
 40
0.1142615678
 40
0.2375406576
 40
0.5000060651
 40
0.7624681526
 40
0.8857433662
 40
1.0
 40
1.0
 40
1.0
 40
1.0
 10
34.3830672352
 20
50.1656392056
 30
0.0
 10
34.4556795666
 20
50.1237137555
 30
0.0
 10
34.5991164771
 20
50.0231775445
 30
0.0
 10
34.8676208751
 20
49.771829203
 30
0.0
 10
35.1512788059
 20
49.3844080725
 30
0.0
 10
35.3449660483
 20
48.9450451473
 30
0.0
 10
35.4283828328
 20
48.5868472098
 30
0.0
 10
35.4437274069
 20
48.4123651297
 30
0.0
 10
35.443727407
 20
48.3285219015
 30
0.0
 11
34.3830672352
 21
50.1656392056
 31
0.0
 11
34.5899977061
 21
50.0226272249
 31
0.0
 11
34.7889613753
 21
49.8380543571
 31
0.0
 11
35.1330653568
 21
49.3738896106
 31
0.0
 11
35.3629881505
 21
48.8438108192
 31
0.0
 11
35.4233466434
 21
48.5792245274
 31
0.0
 11
35.443727407
 21
48.3285219015
 31
0.0
  0
SPLINE
  5
4C4
100
AcDbEntity
  8
DRAFT
100
AcDbSpline
 62
7
  6
CONTINUOUS
 70
0
 71
3
 72
13
 73
9
 74
7
 42
0.0000001
 43
0.0000001
 44
0.0000000001
 12
0.0
 22
2.1401741193
 32
0.0
 13
-1.8534153028
 23
1.0701387651
 33
0.0
 40
0.0
 40
0.0
 40
0.0
 40
0.0
 40
0.1142566338
 40
0.2375318474
 40
0.4999939349
 40
0.7624593424
 40
0.8857384323
 40
1.0
 40
1.0
 40
1.0
 40
1.0
 10
33.7229857155
 20
47.3690766061
 30
0.0
 10
33.7229857155
 20
47.4505863029
 30
0.0
 10
33.7080682129
 20
47.6202121842
 30
0.0
 10
33.6269730909
 20
47.9684407287
 30
0.0
 10
33.4386765671
 20
48.3955752707
 30
0.0
 10
33.1629134259
 20
48.772213666
 30
0.0
 10
32.9018820632
 20
49.0165664607
 30
0.0
 10
32.7624373
 20
49.11430454
 30
0.0
 10
32.6918459206
 20
49.1550631176
 30
0.0
 11
33.7229857155
 21
47.3690766061
 31
0.0
 11
33.7031721911
 21
47.6128016568
 31
0.0
 11
33.6444936006
 21
47.8700239623
 31
0.0
 11
33.4209700361
 21
48.3853495594
 31
0.0
 11
33.0864431834
 21
48.8365956365
 31
0.0
 11
32.8930170865
 21
49.0160314576
 31
0.0
 11
32.6918459206
 21
49.1550631176
 31
0.0
  0
SPLINE
  5
4C5
100
AcDbEntity
  8
SMUSSO
100
AcDbSpline
 62
7
  6
CONTINUOUS
 70
0
 71
3
 72
11
 73
7
 74
5
 42
0.0000001
 43
0.0000001
 44
0.0000000001
 12
0.4543432762
 22
0.2623322692
 32
0.0
 13
0.4543654381
 23
-0.2622938825
 33
0.0
 40
0.0
 40
0.0
 40
0.0
 40
0.0
 40
0.2177724706
 40
0.450951523
 40
0.7102005355
 40
1.0
 40
1.0
 40
1.0
 40
1.0
 10
-34.1759846141
 20
86.7761662703
 30
0.0
 10
-34.1430034616
 20
86.7952091857
 30
0.0
 10
-34.0672179086
 20
86.8227358305
 30
0.0
 10
-33.9413561106
 20
86.8258925007
 30
0.0
 10
-33.8071901035
 20
86.7935438545
 30
0.0
 10
-33.7199204082
 20
86.7520020862
 30
0.0
 10
-33.6760287879
 20
86.7266645439
 30
0.0
 11
-34.1759846141
 21
86.7761662703
 31
0.0
 11
-34.0688434441
 21
86.8158433567
 31
0.0
 11
-33.9466058518
 21
86.8207196029
 31
0.0
 11
-33.8139688577
 21
86.7906076867
 31
0.0
 11
-33.6760287879
 21
86.7266645439
 31
0.0
  0
SPLINE
  5
4C6
100
AcDbEntity
  8
SMUSSO
100
AcDbSpline
 62
7
  6
CONTINUOUS
 70
0
 71
3
 72
11
 73
7
 74
5
 42
0.0000001
 43
0.0000001
 44
0.0000000001
 12
0.6347203376
 22
-0.3664795688
 32
0.0
 13
0.0000000002
 23
-0.7329237214
 33
0.0
 40
0.0
 40
0.0
 40
0.0
 40
0.0
 40
0.2372289802
 40
0.5000061088
 40
0.7627799118
 40
1.0
 40
1.0
 40
1.0
 40
1.0
 10
32.7213662994
 20
48.3896802341
 30
0.0
 10
32.7715576522
 20
48.3607003759
 30
0.0
 10
32.8665459071
 20
48.280756771
 30
0.0
 10
32.9774086083
 20
48.1292535376
 30
0.0
 10
33.0531822946
 20
47.9574941215
 30
0.0
 10
33.07491969
 20
47.8352625423
 30
0.0
 10
33.07491969
 20
47.777307799
 30
0.0
 11
32.7213662994
 21
48.3896802341
 31
0.0
 11
32.8566687103
 21
48.2804818172
 31
0.0
 11
32.9713651354
 21
48.1257633899
 31
0.0
 11
33.0480057844
 21
47.949076283
 31
0.0
 11
33.07491969
 21
47.777307799
 31
0.0
  0
SPLINE
  5
4C7
100
AcDbEntity
  8
SMUSSO
100
AcDbSpline
 62
7
  6
CONTINUOUS
 70
0
 71
3
 72
11
 73
7
 74
5
 42
0.0000001
 43
0.0000001
 44
0.0000000001
 12
-0.0000000005
 22
-0.5246389496
 32
0.0
 13
-0.4543432724
 23
-0.262332267
 33
0.0
 40
0.0
 40
0.0
 40
0.0
 40
0.0
 40
0.289799239
 40
0.5490483965
 40
0.7822274816
 40
1.0
 40
1.0
 40
1.0
 40
1.0
 10
33.07491969
 20
-86.8586802991
 30
0.0
 10
33.07491969
 20
-86.9093602885
 30
0.0
 10
33.0672663997
 20
-87.0057093551
 30
0.0
 10
33.0282055869
 20
-87.1380770298
 30
0.0
 10
32.9625469036
 20
-87.2455019155
 30
0.0
 10
32.9008182285
 20
-87.2973742407
 30
0.0
 10
32.867837069
 20
-87.3164171602
 30
0.0
 11
33.07491969
 21
-86.8586802991
 31
0.0
 11
33.061334506
 21
-87.0101121146
 31
0.0
 11
33.0211009471
 21
-87.140037404
 31
0.0
 11
32.9557649635
 21
-87.2434638027
 31
0.0
 11
32.867837069
 21
-87.3164171602
 31
0.0
  0
SPLINE
  5
4C8
100
AcDbEntity
  8
SMUSSO
100
AcDbSpline
 62
7
  6
CONTINUOUS
 70
0
 71
3
 72
11
 73
7
 74
5
 42
0.0000001
 43
0.0000001
 44
0.0000000001
 12
1.2694411326
 22
-0.7329594017
 32
0.0
 13
0.0000000005
 23
-1.4658479709
 33
0.0
 40
0.0
 40
0.0
 40
0.0
 40
0.0
 40
0.2372223372
 40
0.5000061073
 40
0.7627865538
 40
1.0
 40
1.0
 40
1.0
 40
1.0
 10
32.3678129088
 20
48.5937780758
 30
0.0
 10
32.4681928396
 20
48.5358199617
 30
0.0
 10
32.6581686518
 20
48.3759326671
 30
0.0
 10
32.8799024085
 20
48.0729275027
 30
0.0
 10
33.0314444769
 20
47.7294020866
 30
0.0
 10
33.07491969
 20
47.4849394886
 30
0.0
 10
33.07491969
 20
47.3690332057
 30
0.0
 11
32.3678129088
 21
48.5937780758
 31
0.0
 11
32.6384109137
 21
48.3753881008
 31
0.0
 11
32.8678129092
 21
48.0659457342
 31
0.0
 11
33.0210944098
 21
47.7125608422
 31
0.0
 11
33.07491969
 21
47.3690332057
 31
0.0
  0
ELLIPSE
  5
4C9
100
AcDbEntity
  8
RACCORDO
100
AcDbEllipse
 62
7
  6
CONTINUOUS
 10
-21.2308057066
 20
0.6695567332
 30
0.0
 11
-0.3501235233
 21
0.606392698
 31
0.0
 40
0.5771558487
 41
-0.7852941622
 42
0.0172857704
  0
ELLIPSE
  5
4CA
100
AcDbEntity
  8
RACCORDO
100
AcDbEllipse
 62
7
  6
CONTINUOUS
 10
14.9729106931
 20
-62.0371194287
 30
0.0
 11
-0.3501235233
 21
0.606392698
 31
0.0
 40
0.5771558487
 41
-3.1588791223
 42
-2.3563950755
  0
ELLIPSE
  5
4CB
100
AcDbEntity
  8
RACCORDO
100
AcDbEllipse
 62
7
  6
CONTINUOUS
 10
14.9729106931
 20
-20.2340153768
 30
0.0
 11
-0.3500169276
 21
0.6062080092
 31
0.0
 40
0.5775075436
 41
-2.3560905478
 42
-0.7855988075
  0
ELLIPSE
  5
4CC
100
AcDbEntity
  8
RACCORDO
100
AcDbEllipse
 62
7
  6
CONTINUOUS
 10
-17.8305649444
 20
-39.1705520041
 30
0.0
 11
-0.1500072547
 21
0.2598034325
 31
0.0
 40
0.5775075436
 41
0.7855021057
 42
2.355993846
  0
ELLIPSE
  5
4CD
100
AcDbEntity
  8
RACCORDO
100
AcDbEllipse
 62
7
  6
CONTINUOUS
 10
-16.8164306131
 20
-38.5849944137
 30
0.0
 11
-0.1500073079
 21
0.2598034018
 31
0.0
 40
0.5789151826
 41
0.7867191038
 42
2.3547763749
  0
ELLIPSE
  5
4CE
100
AcDbEntity
  8
RACCORDO
100
AcDbEllipse
 62
7
  6
CONTINUOUS
 10
-21.2308057066
 20
58.6389463855
 30
0.0
 11
-0.3501235233
 21
0.606392698
 31
0.0
 40
0.5771558487
 41
-0.7852941622
 42
0.0172857704
  0
ELLIPSE
  5
4CF
100
AcDbEntity
  8
RACCORDO
100
AcDbEllipse
 62
7
  6
CONTINUOUS
 10
14.9729106931
 20
-4.0677297765
 30
0.0
 11
-0.3501235233
 21
0.606392698
 31
0.0
 40
0.5771558487
 41
-3.1588791223
 42
-2.3563950755
  0
ELLIPSE
  5
4D0
100
AcDbEntity
  8
RACCORDO
100
AcDbEllipse
 62
7
  6
CONTINUOUS
 10
14.9729106931
 20
37.7353742755
 30
0.0
 11
-0.3500169276
 21
0.6062080092
 31
0.0
 40
0.5775075436
 41
-2.3560905478
 42
-0.7855988075
  0
ELLIPSE
  5
4D1
100
AcDbEntity
  8
RACCORDO
100
AcDbEllipse
 62
7
  6
CONTINUOUS
 10
-17.8305649444
 20
18.7988376482
 30
0.0
 11
-0.1500072547
 21
0.2598034325
 31
0.0
 40
0.5775075436
 41
0.7855021057
 42
2.355993846
  0
ELLIPSE
  5
4D2
100
AcDbEntity
  8
RACCORDO
100
AcDbEllipse
 62
7
  6
CONTINUOUS
 10
-16.8164306131
 20
19.3843952386
 30
0.0
 11
-0.1500073079
 21
0.2598034018
 31
0.0
 40
0.5789151826
 41
0.7867191038
 42
2.3547763749
  0
ELLIPSE
  5
4D3
100
AcDbEntity
  8
0
100
AcDbEllipse
 62
7
  6
CONTINUOUS
 10
-16.4932979848
 20
-25.743048287
 30
0.0
 11
-0.1500529453
 21
0.2598034383
 31
0.0
 40
0.5773316475
 41
-3.1502321102
 42
-2.3563951207
  0
ELLIPSE
  5
4D4
100
AcDbEntity
  8
0
100
AcDbEllipse
 62
7
  6
CONTINUOUS
 10
-3.4121608918
 20
-45.0127428674
 30
0.0
 11
0.2123743771
 21
0.3678550612
 31
0.0
 40
0.5773586895
 41
-2.3535969767
 42
-1.8309336332
  0
ELLIPSE
  5
4D5
100
AcDbEntity
  8
0
100
AcDbEllipse
 62
7
  6
CONTINUOUS
 10
12.4977416849
 20
-54.1989212173
 30
0.0
 11
0.2123743771
 21
0.3678550612
 31
0.0
 40
0.5773586895
 41
-2.3535969767
 42
-1.8309336332
  0
ELLIPSE
  5
4D6
100
AcDbEntity
  8
0
100
AcDbEllipse
 62
7
  6
CONTINUOUS
 10
-15.0729981746
 20
-23.2476786437
 30
0.0
 11
0.2008240461
 21
0.1149900593
 31
0.0
 40
0.0035062734
 41
0.0020007819
 42
0.7351275774
  0
ELLIPSE
  5
4D7
100
AcDbEntity
  8
0
100
AcDbEllipse
 62
7
  6
CONTINUOUS
 10
-16.5652429224
 20
-37.1320999478
 30
0.0
 11
-0.1500529453
 21
0.2598034383
 31
0.0
 40
0.5773316475
 41
-3.1502321102
 42
-2.3563951207
  0
ELLIPSE
  5
4D8
100
AcDbEntity
  8
0
100
AcDbEllipse
 62
7
  6
CONTINUOUS
 10
-16.5652429224
 20
-7.4125818726
 30
0.0
 11
-0.1500529453
 21
0.2598034383
 31
0.0
 40
0.5773316475
 41
-3.1502321102
 42
-2.3563951207
  0
ELLIPSE
  5
4D9
100
AcDbEntity
  8
0
100
AcDbEllipse
 62
7
  6
CONTINUOUS
 10
-15.6808342179
 20
34.2066123051
 30
0.0
 11
0.4247590168
 21
0.0
 31
0.0
 40
0.57733079
 41
1.8309094725
 42
2.353672532
  0
ELLIPSE
  5
4DA
100
AcDbEntity
  8
0
100
AcDbEllipse
 62
7
  6
CONTINUOUS
 10
-15.6808342179
 20
52.577193533
 30
0.0
 11
0.4247590168
 21
-0.0
 31
0.0
 40
0.57733079
 41
1.8309094725
 42
2.353672532
  0
ELLIPSE
  5
4DB
100
AcDbEntity
  8
ASSI
100
AcDbEllipse
 62
7
  6
CONTINUOUS
 10
-2.6621105988
 20
13.2254231826
 30
0.0
 11
0.1999995634
 21
0.1164181051
 31
0.0
 40
0.0035896273
 41
-0.7351277754
 42
-0.0020507019
  0
ELLIPSE
  5
4DC
100
AcDbEntity
  8
RACCORDO
100
AcDbEllipse
 62
7
  6
CONTINUOUS
 10
-16.4932979848
 20
44.4733955172
 30
0.0
 11
-0.1500529453
 21
0.2598034383
 31
0.0
 40
0.5773316475
 41
-2.3563951207
 42
-0.7855987939
  0
ELLIPSE
  5
4DD
100
AcDbEntity
  8
RACCORDO
100
AcDbEllipse
 62
7
  6
CONTINUOUS
 10
-16.4932979848
 20
32.2263413653
 30
0.0
 11
-0.1500529453
 21
0.2598034383
 31
0.0
 40
0.5773316475
 41
-3.1502321102
 42
-2.3563951207
  0
ELLIPSE
  5
4DE
100
AcDbEntity
  8
RACCORDO
100
AcDbEllipse
 62
7
  6
CONTINUOUS
 10
-16.5652429224
 20
26.062699476
 30
0.0
 11
-0.1500529453
 21
0.2598034383
 31
0.0
 40
0.5773316475
 41
-2.3563951207
 42
-0.7855987939
  0
ELLIPSE
  5
4DF
100
AcDbEntity
  8
RACCORDO
100
AcDbEllipse
 62
7
  6
CONTINUOUS
 10
-16.5652429224
 20
20.8372897045
 30
0.0
 11
-0.1500529453
 21
0.2598034383
 31
0.0
 40
0.5773316475
 41
-3.1502321102
 42
-2.3563951207
  0
ELLIPSE
  5
4E0
100
AcDbEntity
  8
RACCORDO
100
AcDbEllipse
 62
7
  6
CONTINUOUS
 10
-16.5652429224
 20
50.5568077797
 30
0.0
 11
-0.1500529453
 21
0.2598034383
 31
0.0
 40
0.5773316475
 41
-3.1502321102
 42
-2.3563951207
  0
ELLIPSE
  5
4E1
100
AcDbEntity
  8
ASSI
100
AcDbEllipse
 62
7
  6
CONTINUOUS
 10
12.4977416849
 20
3.770468435
 30
0.0
 11
0.2123743771
 21
0.3678550612
 31
0.0
 40
0.5773586895
 41
-2.3535936561
 42
-1.8309336332
  0
ELLIPSE
  5
4E2
100
AcDbEntity
  8
ASSI
100
AcDbEllipse
 62
7
  6
CONTINUOUS
 10
-3.4121608918
 20
12.9566467849
 30
0.0
 11
0.2123743771
 21
0.3678550612
 31
0.0
 40
0.5773586895
 41
-2.3535936561
 42
-1.8309336332
  0
ELLIPSE
  5
4E3
100
AcDbEntity
  8
0
100
AcDbEllipse
 62
7
  6
CONTINUOUS
 10
-14.6547880401
 20
48.0984036791
 30
0.0
 11
0.1999154856
 21
0.0095814127
 31
0.0
 40
0.6067642562
 41
-0.8144705522
 42
-0.7621106746
  0
ELLIPSE
  5
4E4
100
AcDbEntity
  8
0
100
AcDbEllipse
 62
7
  6
CONTINUOUS
 10
-15.0729981746
 20
34.7217110086
 30
0.0
 11
0.2008240461
 21
0.1149900593
 31
0.0
 40
0.0035062734
 41
0.0019064971
 42
0.7351275774
  0
ELLIPSE
  5
4E5
100
AcDbEntity
  8
0
100
AcDbEllipse
 62
7
  6
CONTINUOUS
 10
9.1319435676
 20
-51.070813621
 30
0.0
 11
0.1082601067
 21
0.1683382284
 31
0.0
 40
0.6067084637
 41
0.7621560142
 42
0.8145158917
  0
ELLIPSE
  5
4E6
100
AcDbEntity
  8
0
100
AcDbEllipse
 62
7
  6
CONTINUOUS
 10
-6.7779590091
 20
-41.8846352711
 30
0.0
 11
0.1082601067
 21
0.1683382284
 31
0.0
 40
0.6067084637
 41
0.7621560142
 42
0.8145158917
  0
ELLIPSE
  5
4E7
100
AcDbEntity
  8
0
100
AcDbEllipse
 62
7
  6
CONTINUOUS
 10
-2.6621105988
 20
-44.7439664697
 30
0.0
 11
0.1999995634
 21
0.1164181051
 31
0.0
 40
0.0035896273
 41
-0.7351277754
 42
-0.0019562056
  0
ELLIPSE
  5
4E8
100
AcDbEntity
  8
0
100
AcDbEllipse
 62
7
  6
CONTINUOUS
 10
-16.4932979848
 20
-13.4959941351
 30
0.0
 11
-0.1500529453
 21
0.2598034383
 31
0.0
 40
0.5773316475
 41
-2.3563951207
 42
-0.7855987939
  0
ELLIPSE
  5
4E9
100
AcDbEntity
  8
0
100
AcDbEllipse
 62
7
  6
CONTINUOUS
 10
-14.6547880401
 20
-28.2415672011
 30
0.0
 11
0.1999154856
 21
0.0095814127
 31
0.0
 40
0.6067642562
 41
-0.8144705522
 42
-0.7621106746
  0
ELLIPSE
  5
4EA
100
AcDbEntity
  8
0
100
AcDbEllipse
 62
7
  6
CONTINUOUS
 10
-16.5652429224
 20
-31.9066901763
 30
0.0
 11
-0.1500529453
 21
0.2598034383
 31
0.0
 40
0.5773316475
 41
-2.3563951207
 42
-0.7855987939
  0
ELLIPSE
  5
4EB
100
AcDbEntity
  8
0
100
AcDbEllipse
 62
7
  6
CONTINUOUS
 10
-15.6808342179
 20
-5.3921961193
 30
0.0
 11
0.4247590168
 21
-0.0
 31
0.0
 40
0.57733079
 41
1.8309094725
 42
2.3536692012
  0
ELLIPSE
  5
4EC
100
AcDbEntity
  8
0
100
AcDbEllipse
 62
7
  6
CONTINUOUS
 10
-15.6808342179
 20
-23.7627773471
 30
0.0
 11
0.4247590168
 21
0.0
 31
0.0
 40
0.57733079
 41
1.8309094725
 42
2.3536692012
  0
ELLIPSE
  5
4ED
100
AcDbEntity
  8
RACCORDO
100
AcDbEllipse
 62
7
  6
CONTINUOUS
 10
-17.5005271112
 20
25.541206902
 30
0.0
 11
-0.1500529453
 21
0.2598034383
 31
0.0
 40
0.5773316475
 41
-2.3563951207
 42
-1.0774465703
  0
ELLIPSE
  5
4EE
100
AcDbEntity
  8
RACCORDO
100
AcDbEllipse
 62
7
  6
CONTINUOUS
 10
-17.5005271112
 20
50.0353152058
 30
0.0
 11
-0.1500529453
 21
0.2598034383
 31
0.0
 40
0.5773316475
 41
2.3559938597
 42
3.9267901865
  0
ELLIPSE
  5
4EF
100
AcDbEntity
  8
RACCORDO
100
AcDbEllipse
 62
7
  6
CONTINUOUS
 10
-17.5005271112
 20
20.3157971305
 30
0.0
 11
-0.1500529453
 21
0.2598034383
 31
0.0
 40
0.5773316475
 41
2.3559938597
 42
3.9267901865
  0
ELLIPSE
  5
4F0
100
AcDbEntity
  8
RACCORDO
100
AcDbEllipse
 62
7
  6
CONTINUOUS
 10
-17.0688574856
 20
31.9054228582
 30
0.0
 11
-0.1500529453
 21
0.2598034383
 31
0.0
 40
0.5773316475
 41
2.5457885314
 42
3.9267901865
  0
ELLIPSE
  5
4F1
100
AcDbEntity
  8
0
100
AcDbEllipse
 62
7
  6
CONTINUOUS
 10
-2.5204951635
 20
-44.342841537
 30
0.0
 11
0.0925036689
 21
0.1774691851
 31
0.0
 40
0.5463614449
 41
0.709509901
 42
0.7618697785
  0
ELLIPSE
  5
4F2
100
AcDbEntity
  8
0
100
AcDbEllipse
 62
7
  6
CONTINUOUS
 10
-17.5005271112
 20
-7.9340744465
 30
0.0
 11
-0.1500529453
 21
0.2598034383
 31
0.0
 40
0.5773316475
 41
2.3559938597
 42
3.9267901865
  0
ELLIPSE
  5
4F3
100
AcDbEntity
  8
0
100
AcDbEllipse
 62
7
  6
CONTINUOUS
 10
-17.5005271112
 20
-37.6535925217
 30
0.0
 11
-0.1500529453
 21
0.2598034383
 31
0.0
 40
0.5773316475
 41
2.3559938597
 42
3.9267901865
  0
ELLIPSE
  5
4F4
100
AcDbEntity
  8
0
100
AcDbEllipse
 62
7
  6
CONTINUOUS
 10
-17.5005271112
 20
-32.4281827503
 30
0.0
 11
-0.1500529453
 21
0.2598034383
 31
0.0
 40
0.5773316475
 41
-2.3563951207
 42
-1.0774465699
  0
ELLIPSE
  5
4F5
100
AcDbEntity
  8
RACCORDO
100
AcDbEllipse
 62
7
  6
CONTINUOUS
 10
-17.0688574856
 20
44.1524770101
 30
0.0
 11
-0.1500529453
 21
0.2598034383
 31
0.0
 40
0.5773316475
 41
-2.3563951207
 42
-0.9753934656
  0
ELLIPSE
  5
4F6
100
AcDbEntity
  8
0
100
AcDbEllipse
 62
7
  6
CONTINUOUS
 10
-14.6547880401
 20
-23.3256297827
 30
0.0
 11
0.1999444062
 21
-0.00862956
 31
0.0
 40
0.5464172455
 41
-0.7618192766
 42
-0.709459399
  0
ELLIPSE
  5
4F7
100
AcDbEntity
  8
0
100
AcDbEllipse
 62
7
  6
CONTINUOUS
 10
-17.0688574856
 20
-13.8169126422
 30
0.0
 11
-0.1500529453
 21
0.2598034383
 31
0.0
 40
0.5773316475
 41
-2.3563951207
 42
-0.9753934656
  0
ELLIPSE
  5
4F8
100
AcDbEntity
  8
0
100
AcDbEllipse
 62
7
  6
CONTINUOUS
 10
-17.0688574856
 20
-26.063966794
 30
0.0
 11
-0.1500529453
 21
0.2598034383
 31
0.0
 40
0.5773316475
 41
2.5457885314
 42
3.9267901865
  0
ELLIPSE
  5
4F9
100
AcDbEntity
  8
SMUSSO
100
AcDbEllipse
 62
7
  6
CONTINUOUS
 10
31.0714504766
 20
-87.1989091268
 30
0.0
 11
-0.6918989454
 21
0.7512919132
 31
0.0
 40
0.368944188
 41
-4.0096023764
 42
-3.224204213
  0
ELLIPSE
  5
4FA
100
AcDbEntity
  8
SMUSSO
100
AcDbEllipse
 62
7
  6
CONTINUOUS
 10
-34.9723228862
 20
85.1616513947
 30
0.0
 11
-0.304720959
 21
0.9748424485
 31
0.0
 40
0.368958844
 41
0.0825763893
 42
0.8679254863
  0
ELLIPSE
  5
4FB
100
AcDbEntity
  8
SMUSSO
100
AcDbEllipse
 62
7
  6
CONTINUOUS
 10
-34.9723228862
 20
-49.06606211
 30
0.0
 11
-0.6918989454
 21
0.7512919132
 31
0.0
 40
0.368944188
 41
1.4881847674
 42
2.2735829308
  0
ELLIPSE
  5
4FC
100
AcDbEntity
  8
SMUSSO
100
AcDbEllipse
 62
7
  6
CONTINUOUS
 10
-34.9723228862
 20
-49.06606211
 30
0.0
 11
-0.304720959
 21
0.9748424485
 31
0.0
 40
0.368958844
 41
0.8679254863
 42
1.6533236497
  0
ELLIPSE
  5
4FD
100
AcDbEntity
  8
SMUSSO
100
AcDbEllipse
 62
7
  6
CONTINUOUS
 10
31.0714504766
 20
-87.1989091268
 30
0.0
 11
0.8312656652
 21
-0.6252150779
 31
0.0
 40
0.7115057303
 41
-0.2939856883
 42
0.4913634087
  0
ELLIPSE
  5
4FE
100
AcDbEntity
  8
SMUSSO
100
AcDbEllipse
 62
7
  6
CONTINUOUS
 10
31.0714504766
 20
47.0288043779
 30
0.0
 11
-0.125886301
 21
1.0324916607
 31
0.0
 40
0.7115295703
 41
-1.2768563573
 42
-0.4914581939
  0
ELLIPSE
  5
4FF
100
AcDbEntity
  8
SMUSSO
100
AcDbEllipse
 62
7
  6
CONTINUOUS
 10
31.0714504766
 20
47.0288043779
 30
0.0
 11
0.8312656652
 21
-0.6252150779
 31
0.0
 40
0.7115057303
 41
0.4913634087
 42
1.2767615721
  0
ELLIPSE
  5
500
100
AcDbEntity
  8
SMUSSO
100
AcDbEllipse
 62
7
  6
CONTINUOUS
 10
-34.9723228862
 20
85.1616513947
 30
0.0
 11
-0.125886301
 21
1.0324916607
 31
0.0
 40
0.7115295703
 41
-0.4914581939
 42
0.2939399695
  0
ENDSEC
  0
SECTION
  2
OBJECTS
  0
DICTIONARY
  5
C
100
AcDbDictionary
280
0
281
1
  3
ACAD_GROUP
350
D
  3
ACAD_MLINESTYLE
350
17
  3
ACAD_LAYOUT
350
1A
  3
ACAD_PLOTSETTINGS
350
19
  3
ACAD_PLOTSTYLENAME
350
E
  0
DICTIONARY
  5
D
102
{ACAD_REACTORS
330
C
102
}
100
AcDbDictionary
280
0
281
1
  0
ACDBDICTIONARYWDFLT
  5
E
102
{ACAD_REACTORS
330
C
102
}
100
AcDbDictionary
281
1
  3
Normal
350
F
100
AcDbDictionaryWithDefault
340
F
  0
DICTIONARY
  5
17
102
{ACAD_REACTORS
330
C
102
}
100
AcDbDictionary
280
0
281
1
  3
Standard
350
18
  0
DICTIONARY
  5
19
102
{ACAD_REACTORS
330
C
102
}
100
AcDbDictionary
281
1
  0
DICTIONARY
  5
1A
102
{ACAD_REACTORS
330
C
102
}
100
AcDbDictionary
281
1
  3
Model
350
501
  3
Layout1
350
502
  0
ACDBPLACEHOLDER
  5
F
102
{ACAD_REACTORS
330
E
102
}
  0
MLINESTYLE
  5
18
102
{ACAD_REACTORS
330
17
102
}
100
AcDbMlineStyle
  2
STANDARD
 70
0
  3

 62
256
 51
90.0
 52
90.0
 71
2
 49
0.5
 62
256
  6
BYLAYER
 49
-0.5
 62
256
  6
BYLAYER
  0
LAYOUT
  5
501
102
{ACAD_REACTORS
330
1A
102
}
100
AcDbPlotSettings
  1

  2
none_device
  4
ISO_A4_(297.00_x_210.00_MM)
  6

 40
0.0
 41
0.0
 42
0.0
 43
0.0
 44
297.0
 45
210.0
 46
0.0
 47
0.0
 48
0.0
 49
0.0
140
0.0
141
0.0
142
1.0
143
1.0
 70
1024
 72
1
 73
0
 74
0
  7

 75
0
147
1.0
148
0.0
149
0.0
100
AcDbLayout
  1
Model
 70
0
 71
0
 10
0.0
 20
0.0
 11
297.0
 21
210.0
 12
0.0
 22
0.0
 32
0.0
 14
0.0
 24
0.0
 34
0.0
 15
0.0
 25
0.0
 35
0.0
146
0.0
 13
0.0
 23
0.0
 33
0.0
 16
1.0
 26
0.0
 36
0.0
 17
0.0
 27
1.0
 37
0.0
 76
0
330
215
345
0
346
0
  0
LAYOUT
  5
502
102
{ACAD_REACTORS
330
1A
102
}
100
AcDbPlotSettings
  1

  2
none_device
  4
ISO_A4_(297.00_x_210.00_MM)
  6

 40
0.0
 41
0.0
 42
0.0
 43
0.0
 44
297.0
 45
210.0
 46
0.0
 47
0.0
 48
0.0
 49
0.0
140
0.0
141
0.0
142
1.0
143
1.0
 70
0
 72
1
 73
0
 74
0
  7

 75
0
147
1.0
148
0.0
149
0.0
100
AcDbLayout
  1
Layout1
 70
0
 71
1
 10
0.0
 20
0.0
 11
297.0
 21
210.0
 12
0.0
 22
0.0
 32
0.0
 14
0.0
 24
0.0
 34
0.0
 15
0.0
 25
0.0
 35
0.0
146
0.0
 13
0.0
 23
0.0
 33
0.0
 16
1.0
 26
0.0
 36
0.0
 17
0.0
 27
1.0
 37
0.0
 76
0
330
216
345
0
346
0
  0
ENDSEC
  0
EOF
