  0
SECTION
  2
HEADER
  9
$ACADVER
  1
AC1015
  9
$DWGCODEPAGE
  3
ANSI_1252
  9
$EXTMAX
 10
297.0
 20
210.0
 30
0.0
  9
$EXTMIN
 10
0.0
 20
0.0
 30
0.0
  9
$LIMMIN
 10
0.0
 20
0.0
  9
$LIMMAX
 10
297.0
 20
210.0
  9
$VIEWCTR
 10
148.5
 20
105.0
  9
$VIEWSIZE
 40
210.0
  9
$CLAYER
  8
0
  9
$LTSCALE
 40
16.335
  9
$CELTYPE
  6
BYLAYER
  9
$DIMSCALE
 40
1.0
  9
$DIMASZ
 40
3.0
  9
$DIMEXO
 40
1.85625
  9
$DIMDLI
 40
11.286
  9
$DIMEXE
 40
5.346
  9
$DIMCEN
 40
2.673
  9
$DIMLFAC
 40
1.0
  9
$DIMBLK
  1
_FILLED
  9
$DIMTXT
 40
3.0
  9
$DIMTOL
 70
1
  9
$DIMLIM
 70
0
  9
$DIMTFAC
 40
1.0
  9
$DIMTP
 40
0.01
  9
$DIMTM
 40
0.01
  9
$PDMODE
 70
3
  9
$PDSIZE
 40
3.0
  9
$HANDSEED
  5
5E5
  9
$TILEMODE
 70
1
  9
$MEASUREMENT
 70
1
  9
$INSUNITS
 70
4
  0
ENDSEC
  0
SECTION
  2
CLASSES
  0
CLASS
  1
ACDBDICTIONARYWDFLT
  2
AcDbDictionaryWithDefault
  3
AutoCAD 2000
 90
0
280
0
281
0
  0
CLASS
  1
ACDBPLACEHOLDER
  2
AcDbPlaceHolder
  3
AutoCAD 2000
 90
0
280
0
281
0
  0
CLASS
  1
LAYOUT
  2
AcDbLayout
  3
AutoCAD 2000
 90
0
280
0
281
0
  0
ENDSEC
  0
SECTION
  2
TABLES
  0
TABLE
  2
VPORT
  5
8
100
AcDbSymbolTable
 70
2
  0
VPORT
  5
1F4
100
AcDbSymbolTableRecord
100
AcDbViewportTableRecord
  2
*ACTIVE
 70
0
 10
0.0
 20
0.0
 11
1.0
 21
1.0
 12
148.5
 22
105.0
 13
0.0
 23
0.0
 14
1.0
 24
1.0
 15
0.0
 25
0.0
 16
0.0
 26
0.0
 36
1.0
 17
0.0
 27
0.0
 37
0.0
 40
210.0
 41
1.4142857143
 42
50.0
 43
0.0
 44
0.0
 50
0.0
 51
0.0
 71
0
 72
100
 73
1
 74
1
 75
0
 76
0
 77
0
 78
0
  0
ENDTAB
  0
TABLE
  2
LTYPE
  5
5
100
AcDbSymbolTable
 70
6
  0
LTYPE
  5
14
100
AcDbSymbolTableRecord
100
AcDbLinetypeTableRecord
  2
BYBLOCK
 70
0
  3

 72
65
 73
0
 40
0.0
  0
LTYPE
  5
15
100
AcDbSymbolTableRecord
100
AcDbLinetypeTableRecord
  2
BYLAYER
 70
0
  3

 72
65
 73
0
 40
0.0
  0
LTYPE
  5
16
100
AcDbSymbolTableRecord
100
AcDbLinetypeTableRecord
  2
CONTINUOUS
 70
64
  3
Solid line
 72
65
 73
0
 40
0.0
  0
LTYPE
  5
1F5
100
AcDbSymbolTableRecord
100
AcDbLinetypeTableRecord
  2
CENTER
 70
64
  3
____ _ ____ _ ____ _ ____ _ ____ _ ____ _ ____
 72
65
 73
4
 40
0.6
 49
0.375
 74
0
 49
-0.075
 74
0
 49
0.075
 74
0
 49
-0.075
 74
0
  0
LTYPE
  5
1F6
100
AcDbSymbolTableRecord
100
AcDbLinetypeTableRecord
  2
HIDDEN
 70
64
  3
- - - - - - - - - - - - - - - - - - - -
 72
65
 73
2
 40
0.2
 49
0.1
 74
0
 49
-0.1
 74
0
  0
LTYPE
  5
1F7
100
AcDbSymbolTableRecord
100
AcDbLinetypeTableRecord
  2
PHANTOM
 70
64
  3
_____ _ _ _____ _ _ _____ _ _ _____
 72
65
 73
6
 40
0.8
 49
0.45
 74
0
 49
-0.05
 74
0
 49
0.1
 74
0
 49
-0.05
 74
0
 49
0.1
 74
0
 49
-0.05
 74
0
  0
LTYPE
  5
1F8
100
AcDbSymbolTableRecord
100
AcDbLinetypeTableRecord
  2
DOT
 70
64
  3
. . . . . . . . . . . . . . . . . . . .
 72
65
 73
2
 40
0.2
 49
0.1
 74
0
 49
-0.1
 74
0
  0
LTYPE
  5
1F9
100
AcDbSymbolTableRecord
100
AcDbLinetypeTableRecord
  2
DASHED
 70
64
  3
- - - - - - - - - - - - - - - - - - - -
 72
65
 73
2
 40
0.2
 49
0.1
 74
0
 49
-0.1
 74
0
  0
ENDTAB
  0
TABLE
  2
LAYER
  5
2
100
AcDbSymbolTable
 70
36
  0
LAYER
  5
10
100
AcDbSymbolTableRecord
100
AcDbLayerTableRecord
  2
0
 70
0
 62
7
  6
CONTINUOUS
370
-3
390
F
  0
LAYER
  5
1FA
100
AcDbSymbolTableRecord
100
AcDbLayerTableRecord
  2
DEFAULT_1
 70
0
 62
7
  6
CENTER
370
-3
390
F
  0
LAYER
  5
1FB
100
AcDbSymbolTableRecord
100
AcDbLayerTableRecord
  2
DEFAULT_2
 70
0
 62
7
  6
HIDDEN
370
-3
390
F
  0
LAYER
  5
1FC
100
AcDbSymbolTableRecord
100
AcDbLayerTableRecord
  2
DEFAULT_3
 70
0
 62
7
  6
PHANTOM
370
-3
390
F
  0
LAYER
  5
1FD
100
AcDbSymbolTableRecord
100
AcDbLayerTableRecord
  2
ASSI
 70
0
 62
7
  6
CONTINUOUS
370
-3
390
F
  0
LAYER
  5
1FE
100
AcDbSymbolTableRecord
100
AcDbLayerTableRecord
  2
COORDINATE
 70
0
 62
7
  6
CONTINUOUS
370
-3
390
F
  0
LAYER
  5
1FF
100
AcDbSymbolTableRecord
100
AcDbLayerTableRecord
  2
COORD_ORIGINE
 70
0
 62
7
  6
CONTINUOUS
370
-3
390
F
  0
LAYER
  5
200
100
AcDbSymbolTableRecord
100
AcDbLayerTableRecord
  2
COPY_PUBLISH
 70
0
 62
7
  6
CONTINUOUS
370
-3
390
F
  0
LAYER
  5
201
100
AcDbSymbolTableRecord
100
AcDbLayerTableRecord
  2
COSMETIC
 70
0
 62
7
  6
CONTINUOUS
370
-3
390
F
  0
LAYER
  5
202
100
AcDbSymbolTableRecord
100
AcDbLayerTableRecord
  2
COSMETICI
 70
0
 62
7
  6
CONTINUOUS
370
-3
390
F
  0
LAYER
  5
203
100
AcDbSymbolTableRecord
100
AcDbLayerTableRecord
  2
CURVE
 70
0
 62
7
  6
CONTINUOUS
370
-3
390
F
  0
LAYER
  5
204
100
AcDbSymbolTableRecord
100
AcDbLayerTableRecord
  2
DRAFT
 70
0
 62
7
  6
CONTINUOUS
370
-3
390
F
  0
LAYER
  5
205
100
AcDbSymbolTableRecord
100
AcDbLayerTableRecord
  2
IMPORT_IGES
 70
0
 62
7
  6
CONTINUOUS
370
-3
390
F
  0
LAYER
  5
206
100
AcDbSymbolTableRecord
100
AcDbLayerTableRecord
  2
INTFCLR_2
 70
0
 62
7
  6
CONTINUOUS
370
-3
390
F
  0
LAYER
  5
207
100
AcDbSymbolTableRecord
100
AcDbLayerTableRecord
  2
NOTE
 70
0
 62
7
  6
CONTINUOUS
370
-3
390
F
  0
LAYER
  5
208
100
AcDbSymbolTableRecord
100
AcDbLayerTableRecord
  2
PIANI
 70
0
 62
7
  6
CONTINUOUS
370
-3
390
F
  0
LAYER
  5
209
100
AcDbSymbolTableRecord
100
AcDbLayerTableRecord
  2
PIANI_ORIGINE
 70
0
 62
7
  6
CONTINUOUS
370
-3
390
F
  0
LAYER
  5
20A
100
AcDbSymbolTableRecord
100
AcDbLayerTableRecord
  2
PIANI_RIFERIMENTO
 70
0
 62
7
  6
CONTINUOUS
370
-3
390
F
  0
LAYER
  5
20B
100
AcDbSymbolTableRecord
100
AcDbLayerTableRecord
  2
PUNTI
 70
0
 62
7
  6
CONTINUOUS
370
-3
390
F
  0
LAYER
  5
20C
100
AcDbSymbolTableRecord
100
AcDbLayerTableRecord
  2
RACCORDO
 70
0
 62
7
  6
CONTINUOUS
370
-3
390
F
  0
LAYER
  5
20D
100
AcDbSymbolTableRecord
100
AcDbLayerTableRecord
  2
SIMBOLI
 70
0
 62
7
  6
CONTINUOUS
370
-3
390
F
  0
LAYER
  5
20E
100
AcDbSymbolTableRecord
100
AcDbLayerTableRecord
  2
SMUSSO
 70
0
 62
7
  6
CONTINUOUS
370
-3
390
F
  0
LAYER
  5
20F
100
AcDbSymbolTableRecord
100
AcDbLayerTableRecord
  2
SNAPLINE
 70
0
 62
7
  6
CONTINUOUS
370
-3
390
F
  0
LAYER
  5
210
100
AcDbSymbolTableRecord
100
AcDbLayerTableRecord
  2
SUPERFICI
 70
0
 62
7
  6
CONTINUOUS
370
-3
390
F
  0
LAYER
  5
211
100
AcDbSymbolTableRecord
100
AcDbLayerTableRecord
  2
TRASH
 70
0
 62
7
  6
CONTINUOUS
370
-3
390
F
  0
LAYER
  5
212
100
AcDbSymbolTableRecord
100
AcDbLayerTableRecord
  2
XSEC_DATUMS
 70
0
 62
7
  6
CONTINUOUS
370
-3
390
F
  0
ENDTAB
  0
TABLE
  2
STYLE
  5
3
100
AcDbSymbolTable
 70
1
  0
STYLE
  5
11
100
AcDbSymbolTableRecord
100
AcDbTextStyleTableRecord
  2
STANDARD
 70
0
 40
0.0
 41
0.8
 50
0.0
 71
0
 42
0.2
  3
txt
  4

  0
STYLE
  5
213
100
AcDbSymbolTableRecord
100
AcDbTextStyleTableRecord
  2
TEXTSTYLE_1
 70
0
 40
0.0
 41
0.8
 50
0.0
 71
0
 42
0.2
  3
gdt
  4

  0
ENDTAB
  0
TABLE
  2
VIEW
  5
6
100
AcDbSymbolTable
 70
0
  0
ENDTAB
  0
TABLE
  2
UCS
  5
7
100
AcDbSymbolTable
 70
0
  0
ENDTAB
  0
TABLE
  2
APPID
  5
9
100
AcDbSymbolTable
 70
1
  0
APPID
  5
214
100
AcDbSymbolTableRecord
100
AcDbRegAppTableRecord
  2
ACAD
 70
0
  0
ENDTAB
  0
TABLE
  2
BLOCK_RECORD
  5
1
100
AcDbSymbolTable
 70
0
  0
BLOCK_RECORD
  5
215
100
AcDbSymbolTableRecord
100
AcDbBlockTableRecord
  2
*Model_Space
  0
BLOCK_RECORD
  5
216
100
AcDbSymbolTableRecord
100
AcDbBlockTableRecord
  2
*Paper_Space
  0
ENDTAB
  0
TABLE
  2
DIMSTYLE
  5
A
100
AcDbSymbolTable
 70
1
100
AcDbDimStyleTable
 71
0
  0
DIMSTYLE
105
217
100
AcDbSymbolTableRecord
100
AcDbDimStyleTableRecord
  2
STANDARD
 70
0
  3

  4

 40
1.0
 41
3.0
 42
0.0625
 43
0.38
 44
0.18
 45
0.0
 46
0.0
 47
0.01
 48
0.01
140
3.0
141
0.09
142
0.0
143
25.4
144
1.0
145
0.0
146
1.0
147
0.09
 71
1.0
 72
0.0
 73
0
 74
0
 75
0
 76
0
 77
1
 78
8
170
0
171
2
172
0
173
0
174
0
175
0
176
0
177
0
178
0
270
2
271
2
272
2
273
2
274
2
275
0
280
0
281
0
282
0
283
1
284
8
285
0
286
0
287
3
288
0
340
11
  0
ENDTAB
  0
ENDSEC
  0
SECTION
  2
BLOCKS
  0
BLOCK
  5
20
100
AcDbEntity
  8
0
100
AcDbBlockBegin
  2
*Model_Space
 70
0
 10
0.0
 20
0.0
 30
0.0
  3
*Model_Space
  1

  0
ENDBLK
  5
21
100
AcDbEntity
  8
0
100
AcDbBlockEnd
  0
BLOCK
  5
1C
100
AcDbEntity
  8
0
100
AcDbBlockBegin
  2
*Paper_Space
 70
0
 10
0.0
 20
0.0
 30
0.0
  3
*Paper_Space
  1

  0
ENDBLK
  5
1D
100
AcDbEntity
  8
0
100
AcDbBlockEnd
  0
ENDSEC
  0
SECTION
  2
ENTITIES
  0
LINE
  5
218
100
AcDbEntity
  8
SMUSSO
100
AcDbLine
 62
7
  6
CONTINUOUS
 10
-31.8021274839
 20
116.6857190372
 11
-34.9487526601
 21
114.8689760068
  0
LINE
  5
219
100
AcDbEntity
  8
SMUSSO
100
AcDbLine
 62
7
  6
CONTINUOUS
 10
-34.6558594413
 20
113.8833139464
 11
-34.9487526601
 21
113.7142337582
  0
LINE
  5
21A
100
AcDbEntity
  8
SMUSSO
100
AcDbLine
 62
7
  6
CONTINUOUS
 10
32.5092342651
 20
-116.2775233537
 11
31.0950207027
 21
-115.9393302918
  0
LWPOLYLINE
  5
21B
100
AcDbEntity
  8
RACCORDO
100
AcDbPolyline
 62
7
  6
CONTINUOUS
 90
13
 70
0
 10
-21.7397432385
 20
87.9634875794
 10
-21.7650297294
 20
87.9466138621
 10
-21.7959137715
 20
87.9222155445
 10
-21.8250948908
 20
87.8945042483
 10
-21.8522617563
 20
87.8634959606
 10
-21.8770299813
 20
87.8293532816
 10
-21.8990104611
 20
87.7923704081
 10
-21.9179817579
 20
87.7526808049
 10
-21.9337196913
 20
87.710498609
 10
-21.9460147035
 20
87.6662237664
 10
-21.9547759911
 20
87.6200614789
 10
-21.9599379417
 20
87.5720681875
 10
-21.9614530608
 20
87.5272606574
  0
LINE
  5
21C
100
AcDbEntity
  8
RACCORDO
100
AcDbLine
 62
7
  6
CONTINUOUS
 10
-21.7399382602
 20
87.963374272
 11
-20.3799887542
 21
88.8043874463
  0
LINE
  5
21D
100
AcDbEntity
  8
RACCORDO
100
AcDbLine
 62
7
  6
CONTINUOUS
 10
-21.3823656818
 20
87.9332594805
 11
-20.0239379262
 21
88.7733315814
  0
LINE
  5
21E
100
AcDbEntity
  8
SMUSSO
100
AcDbLine
 62
7
  6
CONTINUOUS
 10
31.8021274839
 20
-116.6857190372
 11
30.8021274839
 21
-116.10841048
  0
LINE
  5
21F
100
AcDbEntity
  8
SMUSSO
100
AcDbLine
 62
7
  6
CONTINUOUS
 10
-34.6558594413
 20
-78.3137892107
 11
30.8021274839
 21
-116.10841048
  0
LINE
  5
220
100
AcDbEntity
  8
DRAFT
100
AcDbLine
 62
7
  6
CONTINUOUS
 10
-17.1908073028
 20
78.3662494089
 11
-17.7268464109
 21
78.0225123224
  0
LINE
  5
221
100
AcDbEntity
  8
0
100
AcDbLine
 62
7
  6
CONTINUOUS
 10
-14.6901433792
 20
76.7918463844
 11
-17.1650171133
 21
75.2131224285
  0
LINE
  5
222
100
AcDbEntity
  8
0
100
AcDbLine
 62
7
  6
CONTINUOUS
 10
-17.1908073028
 20
74.781843837
 11
-17.1650171133
 21
74.7977907166
  0
LINE
  5
223
100
AcDbEntity
  8
0
100
AcDbLine
 62
7
  6
CONTINUOUS
 10
-14.7582682336
 20
81.4557739176
 11
-15.0260191002
 21
81.3011779229
  0
LINE
  5
224
100
AcDbEntity
  8
0
100
AcDbLine
 62
7
  6
CONTINUOUS
 10
-15.0613744393
 20
81.2807641932
 11
-15.3795724908
 21
81.0970406262
  0
LINE
  5
225
100
AcDbEntity
  8
0
100
AcDbLine
 62
7
  6
CONTINUOUS
 10
-15.4149278299
 20
81.0766268966
 11
-15.7331258814
 21
80.8929033296
  0
LINE
  5
226
100
AcDbEntity
  8
0
100
AcDbLine
 62
7
  6
CONTINUOUS
 10
-15.7684812205
 20
80.8724895999
 11
-16.086679272
 21
80.6887660329
  0
LINE
  5
227
100
AcDbEntity
  8
0
100
AcDbLine
 62
7
  6
CONTINUOUS
 10
-16.1220346111
 20
80.6683523032
 11
-16.4402326626
 21
80.4846287362
  0
LINE
  5
228
100
AcDbEntity
  8
0
100
AcDbLine
 62
7
  6
CONTINUOUS
 10
-16.4755880016
 20
80.4642150066
 11
-16.5298552697
 21
80.4328817661
  0
LINE
  5
229
100
AcDbEntity
  8
0
100
AcDbLine
 62
7
  6
CONTINUOUS
 10
-16.5298552697
 20
80.3103993881
 11
-16.4755880016
 21
80.3417326286
  0
LINE
  5
22A
100
AcDbEntity
  8
0
100
AcDbLine
 62
7
  6
CONTINUOUS
 10
-16.2281006282
 20
80.4846287362
 11
-16.1220346111
 21
80.5458699252
  0
LINE
  5
22B
100
AcDbEntity
  8
0
100
AcDbLine
 62
7
  6
CONTINUOUS
 10
-15.8745472376
 20
80.6887660329
 11
-15.7684812205
 21
80.7500072219
  0
LINE
  5
22C
100
AcDbEntity
  8
0
100
AcDbLine
 62
7
  6
CONTINUOUS
 10
-15.520993847
 20
80.8929033296
 11
-15.4149278299
 21
80.9541445186
  0
LINE
  5
22D
100
AcDbEntity
  8
0
100
AcDbLine
 62
7
  6
CONTINUOUS
 10
-15.1674404565
 20
81.0970406262
 11
-15.0613744393
 21
81.1582818152
  0
LINE
  5
22E
100
AcDbEntity
  8
0
100
AcDbLine
 62
7
  6
CONTINUOUS
 10
-14.8138870659
 20
81.3011779229
 11
-14.7078210487
 21
81.3624191119
  0
LINE
  5
22F
100
AcDbEntity
  8
0
100
AcDbLine
 62
7
  6
CONTINUOUS
 10
-17.1908073028
 20
75.4381874455
 11
-17.1826947828
 21
75.4428715129
  0
LINE
  5
230
100
AcDbEntity
  8
0
100
AcDbLine
 62
7
  6
CONTINUOUS
 10
-16.9352074094
 20
75.5857676205
 11
-16.8291413922
 21
75.6470088095
  0
LINE
  5
231
100
AcDbEntity
  8
0
100
AcDbLine
 62
7
  6
CONTINUOUS
 10
-16.5816540188
 20
75.7899049172
 11
-16.4755880016
 21
75.8511461062
  0
LINE
  5
232
100
AcDbEntity
  8
0
100
AcDbLine
 62
7
  6
CONTINUOUS
 10
-16.2281006282
 20
75.9940422139
 11
-16.1220346111
 21
76.0552834029
  0
LINE
  5
233
100
AcDbEntity
  8
0
100
AcDbLine
 62
7
  6
CONTINUOUS
 10
-15.8745472376
 20
76.1981795105
 11
-15.7684812205
 21
76.2594206995
  0
LINE
  5
234
100
AcDbEntity
  8
0
100
AcDbLine
 62
7
  6
CONTINUOUS
 10
-15.520993847
 20
76.4023168072
 11
-15.4149278299
 21
76.4635579962
  0
LINE
  5
235
100
AcDbEntity
  8
0
100
AcDbLine
 62
7
  6
CONTINUOUS
 10
-15.1674404565
 20
76.6064541039
 11
-15.0613744393
 21
76.6676952929
  0
LINE
  5
236
100
AcDbEntity
  8
0
100
AcDbLine
 62
7
  6
CONTINUOUS
 10
-14.8138870659
 20
76.8105914005
 11
-14.7078210487
 21
76.8718325895
  0
LINE
  5
237
100
AcDbEntity
  8
0
100
AcDbLine
 62
7
  6
CONTINUOUS
 10
-15.9668546393
 20
81.5892684144
 11
-16.5298552697
 21
81.2655879007
  0
LINE
  5
238
100
AcDbEntity
  8
0
100
AcDbLine
 62
7
  6
CONTINUOUS
 10
-16.5298552697
 20
81.3120249647
 11
-16.1572006374
 21
81.5261302623
  0
LINE
  5
239
100
AcDbEntity
  8
0
100
AcDbLine
 62
7
  6
CONTINUOUS
 10
-15.362644007
 20
81.8047329146
 11
-16.5298552697
 21
81.1423949898
  0
LINE
  5
23A
100
AcDbEntity
  8
0
100
AcDbLine
 62
7
  6
CONTINUOUS
 10
-16.5298552697
 20
79.2094043682
 11
-17.4651394585
 21
78.6879117942
  0
LINE
  5
23B
100
AcDbEntity
  8
0
100
AcDbLine
 62
7
  6
CONTINUOUS
 10
-17.5285683074
 20
78.5498617316
 11
-16.5932841186
 21
79.0713543055
  0
LINE
  5
23C
100
AcDbEntity
  8
0
100
AcDbLine
 62
7
  6
CONTINUOUS
 10
-17.1908073028
 20
73.2030859011
 11
-16.6700746801
 21
73.4934342241
  0
LINE
  5
23D
100
AcDbEntity
  8
0
100
AcDbLine
 62
7
  6
CONTINUOUS
 10
-14.9563907959
 20
81.570167402
 11
-16.5298552697
 21
80.7568843278
  0
LWPOLYLINE
  5
23E
100
AcDbEntity
  8
RACCORDO
100
AcDbPolyline
 62
7
  6
CONTINUOUS
 90
13
 70
0
 10
14.6172325076
 20
-91.7676673772
 10
14.6571087278
 20
-91.7889125001
 10
14.7012231434
 20
-91.808399715
 10
14.7455512564
 20
-91.8238606529
 10
14.7900097072
 20
-91.8353219225
 10
14.8343767472
 20
-91.8427616967
 10
14.8782037798
 20
-91.8461621035
 10
14.9211944103
 20
-91.8456068706
 10
14.9631222948
 20
-91.8412212003
 10
15.0035383569
 20
-91.8331954834
 10
15.0421100532
 20
-91.82178131
 10
15.0786669745
 20
-91.8072370514
 10
15.1058970062
 20
-91.793786672
  0
LINE
  5
23F
100
AcDbEntity
  8
RACCORDO
100
AcDbLine
 62
7
  6
CONTINUOUS
 10
-21.5286707295
 20
-70.8974869419
 11
14.6172078149
 21
-91.7676641991
  0
LINE
  5
240
100
AcDbEntity
  8
RACCORDO
100
AcDbLine
 62
7
  6
CONTINUOUS
 10
-21.5907955017
 20
-70.7601658917
 11
14.5573663647
 21
-91.6316615105
  0
LINE
  5
241
100
AcDbEntity
  8
SMUSSO
100
AcDbLine
 62
7
  6
CONTINUOUS
 10
-34.241645879
 20
115.2771716902
 11
-34.6558594413
 21
113.8833139464
  0
LINE
  5
242
100
AcDbEntity
  8
0
100
AcDbLine
 62
7
  6
CONTINUOUS
 10
-17.0334698329
 20
72.8050735986
 11
-16.4579103321
 21
73.1259921056
  0
LINE
  5
243
100
AcDbEntity
  8
RACCORDO
100
AcDbLine
 62
7
  6
CONTINUOUS
 10
12.6501375487
 20
-88.4646810738
 11
-19.6858500215
 21
-69.7942871159
  0
LINE
  5
244
100
AcDbEntity
  8
RACCORDO
100
AcDbLine
 62
7
  6
CONTINUOUS
 10
12.7897152853
 20
-88.1539203063
 11
-19.5462789675
 21
-69.4835224899
  0
LINE
  5
245
100
AcDbEntity
  8
RACCORDO
100
AcDbLine
 62
7
  6
CONTINUOUS
 10
-18.1388521619
 20
-68.7102371715
 11
12.9609473977
 21
-86.6668716652
  0
LINE
  5
246
100
AcDbEntity
  8
RACCORDO
100
AcDbLine
 62
7
  6
CONTINUOUS
 10
-18.0241001381
 20
-68.619423376
 11
12.9609473977
 21
-86.5098014893
  0
LINE
  5
247
100
AcDbEntity
  8
RACCORDO
100
AcDbLine
 62
7
  6
CONTINUOUS
 10
12.9609473977
 20
-86.2054447549
 11
-17.7605360184
 21
-68.4672452611
  0
LINE
  5
248
100
AcDbEntity
  8
RACCORDO
100
AcDbLine
 62
7
  6
CONTINUOUS
 10
-16.9789659881
 20
-68.0156706712
 11
12.9609473977
 21
-85.3026014249
  0
LINE
  5
249
100
AcDbEntity
  8
ASSI
100
AcDbLine
 62
7
  6
CONTINUOUS
 10
9.4290439347
 20
-83.2537699902
 11
6.540737726
 21
-81.5860981842
  0
LINE
  5
24A
100
AcDbEntity
  8
ASSI
100
AcDbLine
 62
7
  6
CONTINUOUS
 10
-6.480858642
 20
-74.0675916403
 11
-9.3691648507
 21
-72.3999198344
  0
LINE
  5
24B
100
AcDbEntity
  8
ASSI
100
AcDbLine
 62
7
  6
CONTINUOUS
 10
-9.7403959108
 20
-72.1651501067
 11
-9.5593120749
 21
-72.2697056441
  0
LINE
  5
24C
100
AcDbEntity
  8
DRAFT
100
AcDbLine
 62
7
  6
CONTINUOUS
 10
5.9908911002
 20
-81.2481980676
 11
6.3505905018
 21
-81.4558839939
  0
LINE
  5
24D
100
AcDbEntity
  8
ASSI
100
AcDbLine
 62
7
  6
CONTINUOUS
 10
9.4416379051
 20
-83.220202295
 11
6.6821590822
 21
-81.6269138071
  0
LINE
  5
24E
100
AcDbEntity
  8
ASSI
100
AcDbLine
 62
7
  6
CONTINUOUS
 10
-6.4682646716
 20
-74.0340239452
 11
-9.2277434945
 21
-72.4407354572
  0
LINE
  5
24F
100
AcDbEntity
  8
0
100
AcDbLine
 62
7
  6
CONTINUOUS
 10
12.9609473977
 20
-85.1095086557
 11
9.6343298937
 21
-83.1887614012
  0
LINE
  5
250
100
AcDbEntity
  8
RACCORDO
100
AcDbLine
 62
7
  6
CONTINUOUS
 10
4.3310290348
 20
-80.1267019513
 11
-6.275572683
 21
-74.0025830514
  0
LINE
  5
251
100
AcDbEntity
  8
0
100
AcDbLine
 62
7
  6
CONTINUOUS
 10
-11.5788735419
 20
-70.9405236014
 11
-17.1860283835
 21
-67.70302267
  0
LINE
  5
252
100
AcDbEntity
  8
0
100
AcDbLine
 62
7
  6
CONTINUOUS
 10
-10.8010560826
 20
-71.3615455631
 11
-9.9488257307
 21
-71.8536126874
  0
LINE
  5
253
100
AcDbEntity
  8
ASSI
100
AcDbLine
 62
7
  6
CONTINUOUS
 10
9.6350048548
 20
-83.0868970288
 11
6.7882250994
 21
-81.4432020766
  0
LINE
  5
254
100
AcDbEntity
  8
ASSI
100
AcDbLine
 62
7
  6
CONTINUOUS
 10
-6.2748977219
 20
-73.900718679
 11
-9.1216774773
 21
-72.2570237267
  0
LINE
  5
255
100
AcDbEntity
  8
0
100
AcDbLine
 62
7
  6
CONTINUOUS
 10
-10.8010560826
 20
-71.2643088236
 11
-9.8025206972
 21
-71.8408506406
  0
LINE
  5
256
100
AcDbEntity
  8
ASSI
100
AcDbLine
 62
7
  6
CONTINUOUS
 10
9.741070872
 20
-83.0256558398
 11
6.8942911166
 21
-81.3819608876
  0
LINE
  5
257
100
AcDbEntity
  8
ASSI
100
AcDbLine
 62
7
  6
CONTINUOUS
 10
-6.1688317047
 20
-73.83947749
 11
-9.0156114601
 21
-72.1957825377
  0
LINE
  5
258
100
AcDbEntity
  8
ASSI
100
AcDbLine
 62
7
  6
CONTINUOUS
 10
9.7764364611
 20
-83.0052361919
 11
7.0357124728
 21
-81.4227765104
  0
LINE
  5
259
100
AcDbEntity
  8
ASSI
100
AcDbLine
 62
7
  6
CONTINUOUS
 10
-6.1334661156
 20
-73.8190578421
 11
-8.8741901039
 21
-72.2365981606
  0
LINE
  5
25A
100
AcDbEntity
  8
RACCORDO
100
AcDbLine
 62
7
  6
CONTINUOUS
 10
-17.7268464109
 20
-67.0642203543
 11
-17.6773038065
 21
-67.0928256331
  0
LINE
  5
25B
100
AcDbEntity
  8
DRAFT
100
AcDbLine
 62
7
  6
CONTINUOUS
 10
-17.5185180789
 20
-67.1028318761
 11
-17.1908073028
 21
-67.292047971
  0
LINE
  5
25C
100
AcDbEntity
  8
ASSI
100
AcDbLine
 62
7
  6
CONTINUOUS
 10
9.9885582454
 20
-82.8827597322
 11
7.14177849
 21
-81.2390647799
  0
LINE
  5
25D
100
AcDbEntity
  8
ASSI
100
AcDbLine
 62
7
  6
CONTINUOUS
 10
-5.9213443313
 20
-73.6965813823
 11
-8.7681240867
 21
-72.05288643
  0
LINE
  5
25E
100
AcDbEntity
  8
ASSI
100
AcDbLine
 62
7
  6
CONTINUOUS
 10
10.1161064292
 20
-82.8339220769
 11
7.2478445072
 21
-81.1778235909
  0
LINE
  5
25F
100
AcDbEntity
  8
ASSI
100
AcDbLine
 62
7
  6
CONTINUOUS
 10
-5.7937961475
 20
-73.6477437271
 11
-8.6620580695
 21
-71.991645241
  0
LINE
  5
260
100
AcDbEntity
  8
RACCORDO
100
AcDbLine
 62
7
  6
CONTINUOUS
 10
12.9609473977
 20
-84.4562693064
 11
10.2000153186
 21
-82.8621417266
  0
LINE
  5
261
100
AcDbEntity
  8
RACCORDO
100
AcDbLine
 62
7
  6
CONTINUOUS
 10
4.8967144597
 20
-79.8000822766
 11
-5.7098872581
 21
-73.6759633767
  0
LINE
  5
262
100
AcDbEntity
  8
RACCORDO
100
AcDbLine
 62
7
  6
CONTINUOUS
 10
-11.013188117
 20
-70.6139039267
 11
-16.6700746801
 21
-67.3476885226
  0
LINE
  5
263
100
AcDbEntity
  8
ASSI
100
AcDbLine
 62
7
  6
CONTINUOUS
 10
11.2783531599
 20
-83.4641494771
 11
7.3892658634
 21
-81.2186392138
  0
LINE
  5
264
100
AcDbEntity
  8
ASSI
100
AcDbLine
 62
7
  6
CONTINUOUS
 10
-4.6315494168
 20
-74.2779711272
 11
-8.5206367133
 21
-72.0324608639
  0
LINE
  5
265
100
AcDbEntity
  8
ASSI
100
AcDbLine
 62
7
  6
CONTINUOUS
 10
11.3844191771
 20
-83.2804377466
 11
7.4953318806
 21
-81.0349274832
  0
LINE
  5
266
100
AcDbEntity
  8
ASSI
100
AcDbLine
 62
7
  6
CONTINUOUS
 10
-4.5254833996
 20
-74.0942593967
 11
-8.4145706961
 21
-71.8487491334
  0
LINE
  5
267
100
AcDbEntity
  8
ASSI
100
AcDbLine
 62
7
  6
CONTINUOUS
 10
11.5965512115
 20
-83.2804259101
 11
7.6013978978
 21
-80.9736862942
  0
LINE
  5
268
100
AcDbEntity
  8
ASSI
100
AcDbLine
 62
7
  6
CONTINUOUS
 10
-4.3133513652
 20
-74.0942475602
 11
-8.3085046789
 21
-71.7875079444
  0
LINE
  5
269
100
AcDbEntity
  8
ASSI
100
AcDbLine
 62
7
  6
CONTINUOUS
 10
11.6319065505
 20
-83.2600121804
 11
7.742819254
 21
-81.0145019171
  0
LINE
  5
26A
100
AcDbEntity
  8
ASSI
100
AcDbLine
 62
7
  6
CONTINUOUS
 10
-4.2779960262
 20
-74.0738338305
 11
-8.1670833227
 21
-71.8283235672
  0
LINE
  5
26B
100
AcDbEntity
  8
0
100
AcDbLine
 62
7
  6
CONTINUOUS
 10
-16.7990165582
 20
-66.7016546676
 11
-16.1837397496
 21
-67.0569077856
  0
LINE
  5
26C
100
AcDbEntity
  8
0
100
AcDbLine
 62
7
  6
CONTINUOUS
 10
-16.709608742
 20
-66.6518029618
 11
-16.0337325016
 21
-67.0420454323
  0
LINE
  5
26D
100
AcDbEntity
  8
ASSI
100
AcDbLine
 62
7
  6
CONTINUOUS
 10
11.7379725677
 20
-83.0763004499
 11
7.8488852712
 21
-80.8307901866
  0
LINE
  5
26E
100
AcDbEntity
  8
ASSI
100
AcDbLine
 62
7
  6
CONTINUOUS
 10
-4.171930009
 20
-73.8901221
 11
-8.0610173055
 21
-71.6446118367
  0
LINE
  5
26F
100
AcDbEntity
  8
ASSI
100
AcDbLine
 62
7
  6
CONTINUOUS
 10
11.9501046021
 20
-83.0762886134
 11
7.9549512883
 21
-80.7695489976
  0
LINE
  5
270
100
AcDbEntity
  8
ASSI
100
AcDbLine
 62
7
  6
CONTINUOUS
 10
-3.9597979746
 20
-73.8901102635
 11
-7.9549512883
 21
-71.5833706477
  0
LINE
  5
271
100
AcDbEntity
  8
ASSI
100
AcDbLine
 62
7
  6
CONTINUOUS
 10
11.9854599411
 20
-83.0558748837
 11
8.0963726446
 21
-80.8103646204
  0
LINE
  5
272
100
AcDbEntity
  8
ASSI
100
AcDbLine
 62
7
  6
CONTINUOUS
 10
-3.9244426356
 20
-73.8696965339
 11
-7.8135299321
 21
-71.6241862706
  0
LINE
  5
273
100
AcDbEntity
  8
ASSI
100
AcDbLine
 62
7
  6
CONTINUOUS
 10
12.0915259583
 20
-82.8721631532
 11
8.2024386618
 21
-80.6266528899
  0
LINE
  5
274
100
AcDbEntity
  8
ASSI
100
AcDbLine
 62
7
  6
CONTINUOUS
 10
-3.8183766184
 20
-73.6859848033
 11
-7.7074639149
 21
-71.44047454
  0
LINE
  5
275
100
AcDbEntity
  8
ASSI
100
AcDbLine
 62
7
  6
CONTINUOUS
 10
12.3036579926
 20
-82.8721513167
 11
8.3085046789
 21
-80.5654117009
  0
LINE
  5
276
100
AcDbEntity
  8
ASSI
100
AcDbLine
 62
7
  6
CONTINUOUS
 10
-3.6062445841
 20
-73.6859729669
 11
-7.6013978978
 21
-71.379233351
  0
LINE
  5
277
100
AcDbEntity
  8
ASSI
100
AcDbLine
 62
7
  6
CONTINUOUS
 10
12.3390133317
 20
-82.8517375871
 11
8.4499260352
 21
-80.6062273238
  0
LINE
  5
278
100
AcDbEntity
  8
ASSI
100
AcDbLine
 62
7
  6
CONTINUOUS
 10
-3.570889245
 20
-73.6655592372
 11
-7.4599765415
 21
-71.4200489739
  0
LINE
  5
279
100
AcDbEntity
  8
ASSI
100
AcDbLine
 62
7
  6
CONTINUOUS
 10
12.4450793489
 20
-82.6680258566
 11
8.5559920524
 21
-80.4225155933
  0
LINE
  5
27A
100
AcDbEntity
  8
ASSI
100
AcDbLine
 62
7
  6
CONTINUOUS
 10
-3.4648232278
 20
-73.4818475067
 11
-7.3539105243
 21
-71.2363372434
  0
LINE
  5
27B
100
AcDbEntity
  8
ASSI
100
AcDbLine
 62
7
  6
CONTINUOUS
 10
12.6572113832
 20
-82.6680140201
 11
8.6620580695
 21
-80.3612744043
  0
LINE
  5
27C
100
AcDbEntity
  8
ASSI
100
AcDbLine
 62
7
  6
CONTINUOUS
 10
-3.2526911935
 20
-73.4818356702
 11
-7.2478445072
 21
-71.1750960544
  0
LINE
  5
27D
100
AcDbEntity
  8
ASSI
100
AcDbLine
 62
7
  6
CONTINUOUS
 10
12.6925667223
 20
-82.6476002904
 11
8.8034794258
 21
-80.4020900271
  0
LINE
  5
27E
100
AcDbEntity
  8
ASSI
100
AcDbLine
 62
7
  6
CONTINUOUS
 10
-3.2173358544
 20
-73.4614219405
 11
-7.1064231509
 21
-71.2159116772
  0
LINE
  5
27F
100
AcDbEntity
  8
ASSI
100
AcDbLine
 62
7
  6
CONTINUOUS
 10
12.7986327395
 20
-82.4638885599
 11
8.909545443
 21
-80.2183782966
  0
LINE
  5
280
100
AcDbEntity
  8
ASSI
100
AcDbLine
 62
7
  6
CONTINUOUS
 10
-3.1112698372
 20
-73.27771021
 11
-7.0003571337
 21
-71.0321999467
  0
LINE
  5
281
100
AcDbEntity
  8
ASSI
100
AcDbLine
 62
7
  6
CONTINUOUS
 10
12.9609473977
 20
-82.4351183542
 11
9.0156114601
 21
-80.1571371076
  0
LINE
  5
282
100
AcDbEntity
  8
ASSI
100
AcDbLine
 62
7
  6
CONTINUOUS
 10
-2.8991378029
 20
-73.2776983735
 11
-6.8942911166
 21
-70.9709587577
  0
LINE
  5
283
100
AcDbEntity
  8
ASSI
100
AcDbLine
 62
7
  6
CONTINUOUS
 10
-6.9547357044
 20
-70.9156332441
 11
-2.6972718588
 21
-73.37383951
  0
LINE
  5
284
100
AcDbEntity
  8
ASSI
100
AcDbLine
 62
7
  6
CONTINUOUS
 10
8.9551668723
 20
-80.101811594
 11
12.9609473977
 21
-82.4146990651
  0
LINE
  5
285
100
AcDbEntity
  8
ASSI
100
AcDbLine
 62
7
  6
CONTINUOUS
 10
-6.8127620069
 20
-70.9299573055
 11
-2.6392217193
 21
-73.3397071608
  0
LINE
  5
286
100
AcDbEntity
  8
ASSI
100
AcDbLine
 62
7
  6
CONTINUOUS
 10
9.0971405698
 20
-80.1161356554
 11
12.9609473977
 21
-82.3470492929
  0
LWPOLYLINE
  5
287
100
AcDbEntity
  8
RACCORDO
100
AcDbPolyline
 62
7
  6
CONTINUOUS
 90
3
 70
0
 10
-21.6048061469
 20
-70.8466828503
 10
-21.5579518648
 20
-70.8795826194
 10
-21.5285067427
 20
-70.8975698265
  0
LINE
  5
288
100
AcDbEntity
  8
RACCORDO
100
AcDbLine
 62
7
  6
CONTINUOUS
 10
-21.6498407443
 20
-70.8096942564
 11
-21.6048061469
 21
-70.8466828503
  0
LINE
  5
289
100
AcDbEntity
  8
SMUSSO
100
AcDbLine
 62
7
  6
CONTINUOUS
 10
-34.9487526601
 20
-77.806483275
 11
-34.6558594413
 21
-78.3137892107
  0
LINE
  5
28A
100
AcDbEntity
  8
0
100
AcDbLine
 62
7
  6
CONTINUOUS
 10
-14.7534526354
 20
58.4668139889
 11
-17.1908073028
 21
56.912023476
  0
LINE
  5
28B
100
AcDbEntity
  8
0
100
AcDbLine
 62
7
  6
CONTINUOUS
 10
-16.9994139397
 20
56.2971436056
 11
-17.1908073028
 21
56.182709088
  0
LINE
  5
28C
100
AcDbEntity
  8
0
100
AcDbLine
 62
7
  6
CONTINUOUS
 10
-15.9668546393
 20
63.2186871866
 11
-16.4579103321
 21
62.9363692808
  0
LINE
  5
28D
100
AcDbEntity
  8
0
100
AcDbLine
 62
7
  6
CONTINUOUS
 10
-16.4579103321
 20
62.9827790402
 11
-16.1572006374
 21
63.1555490344
  0
LINE
  5
28E
100
AcDbEntity
  8
0
100
AcDbLine
 62
7
  6
CONTINUOUS
 10
-15.1010850084
 20
63.5825742131
 11
-16.4579103321
 21
62.8126391568
  0
LINE
  5
28F
100
AcDbEntity
  8
0
100
AcDbLine
 62
7
  6
CONTINUOUS
 10
-16.4579103321
 20
60.8789379537
 11
-17.0334698329
 21
60.5580194467
  0
LINE
  5
290
100
AcDbEntity
  8
0
100
AcDbLine
 62
7
  6
CONTINUOUS
 10
-17.0968986818
 20
60.419969384
 11
-16.521339181
 21
60.740887891
  0
LINE
  5
291
100
AcDbEntity
  8
0
100
AcDbLine
 62
7
  6
CONTINUOUS
 10
-17.1908073028
 20
54.8325046733
 11
-16.7420196177
 21
55.0827381829
  0
LINE
  5
292
100
AcDbEntity
  8
0
100
AcDbLine
 62
7
  6
CONTINUOUS
 10
-17.4651394585
 20
54.1938034905
 11
-16.5298552697
 21
54.7152960644
  0
LINE
  5
293
100
AcDbEntity
  8
0
100
AcDbLine
 62
7
  6
CONTINUOUS
 10
-14.7534526354
 20
63.3818556377
 11
-16.4579103321
 21
62.500865556
  0
LINE
  5
294
100
AcDbEntity
  8
0
100
AcDbLine
 62
7
  6
CONTINUOUS
 10
-17.1473394438
 20
-58.7235929119
 11
-16.9352074094
 21
-58.7235929119
  0
LINE
  5
295
100
AcDbEntity
  8
0
100
AcDbLine
 62
7
  6
CONTINUOUS
 10
-16.7937860532
 20
-58.5194556152
 11
-16.5816540188
 21
-58.5194556152
  0
LINE
  5
296
100
AcDbEntity
  8
0
100
AcDbLine
 62
7
  6
CONTINUOUS
 10
-16.4402326626
 20
-58.3153183185
 11
-16.2281006282
 21
-58.3153183185
  0
LINE
  5
297
100
AcDbEntity
  8
0
100
AcDbLine
 62
7
  6
CONTINUOUS
 10
-16.086679272
 20
-58.1111810219
 11
-15.8745472376
 21
-58.1111810219
  0
LINE
  5
298
100
AcDbEntity
  8
0
100
AcDbLine
 62
7
  6
CONTINUOUS
 10
-15.7331258814
 20
-57.9070437252
 11
-15.520993847
 21
-57.9070437252
  0
LINE
  5
299
100
AcDbEntity
  8
0
100
AcDbLine
 62
7
  6
CONTINUOUS
 10
-15.3795724908
 20
-57.7029064286
 11
-15.1674404565
 21
-57.7029064286
  0
LINE
  5
29A
100
AcDbEntity
  8
0
100
AcDbLine
 62
7
  6
CONTINUOUS
 10
-15.0260191002
 20
-57.4987691319
 11
-14.8138870659
 21
-57.4987691319
  0
LINE
  5
29B
100
AcDbEntity
  8
RACCORDO
100
AcDbLine
 62
7
  6
CONTINUOUS
 10
-16.7420196177
 20
-60.8560411216
 11
-17.1908073028
 21
-60.5969167369
  0
LINE
  5
29C
100
AcDbEntity
  8
0
100
AcDbLine
 62
7
  6
CONTINUOUS
 10
-17.1908073028
 20
-59.2904380382
 11
-17.0030838454
 21
-59.3988272098
  0
LINE
  5
29D
100
AcDbEntity
  8
DRAFT
100
AcDbLine
 62
7
  6
CONTINUOUS
 10
-17.1908073028
 20
54.7702584096
 11
-17.7268464109
 21
54.4265213231
  0
LINE
  5
29E
100
AcDbEntity
  8
DRAFT
100
AcDbLine
 62
7
  6
CONTINUOUS
 10
-17.1908073028
 20
48.6467313336
 11
-17.7268464109
 21
48.3029942471
  0
LINE
  5
29F
100
AcDbEntity
  8
0
100
AcDbLine
 62
7
  6
CONTINUOUS
 10
-16.1837397496
 20
48.881871519
 11
-16.6700746801
 21
48.591090782
  0
LINE
  5
2A0
100
AcDbEntity
  8
0
100
AcDbLine
 62
7
  6
CONTINUOUS
 10
-15.9679378095
 20
48.5166043248
 11
-16.2495012184
 21
48.3482569362
  0
LINE
  5
2A1
100
AcDbEntity
  8
SMUSSO
100
AcDbLine
 62
7
  6
CONTINUOUS
 10
31.8021274839
 20
77.1443246734
 11
34.241645879
 21
78.5528720204
  0
LINE
  5
2A2
100
AcDbEntity
  8
RACCORDO
100
AcDbLine
 62
7
  6
CONTINUOUS
 10
14.7635128488
 20
67.0630822311
 11
16.1702059688
 21
67.8752865155
  0
LINE
  5
2A3
100
AcDbEntity
  8
RACCORDO
100
AcDbLine
 62
7
  6
CONTINUOUS
 10
-18.2361998637
 20
47.6867234292
 11
-17.1908073028
 21
48.2900285533
  0
LINE
  5
2A4
100
AcDbEntity
  8
RACCORDO
100
AcDbLine
 62
7
  6
CONTINUOUS
 10
-19.7456103233
 20
46.8005185729
 11
-18.3684102465
 21
47.5956273653
  0
LINE
  5
2A5
100
AcDbEntity
  8
RACCORDO
100
AcDbLine
 62
7
  6
CONTINUOUS
 10
-19.5462789675
 20
46.4552568146
 11
-18.1690751903
 21
47.2503872843
  0
LINE
  5
2A6
100
AcDbEntity
  8
RACCORDO
100
AcDbLine
 62
7
  6
CONTINUOUS
 10
-18.0241001381
 20
47.3193559286
 11
-16.9789659881
 21
47.9231086333
  0
LINE
  5
2A7
100
AcDbEntity
  8
RACCORDO
100
AcDbLine
 62
7
  6
CONTINUOUS
 10
15.2584122086
 20
66.2058913963
 11
16.6651053286
 21
67.0180956807
  0
LINE
  5
2A8
100
AcDbEntity
  8
SMUSSO
100
AcDbLine
 62
7
  6
CONTINUOUS
 10
32.5092342651
 20
75.9195798033
 11
34.9487526601
 21
77.3281271503
  0
LINE
  5
2A9
100
AcDbEntity
  8
0
100
AcDbLine
 62
7
  6
CONTINUOUS
 10
-16.5298552697
 20
49.4898862929
 11
-17.4651394585
 21
48.968393719
  0
LINE
  5
2AA
100
AcDbEntity
  8
0
100
AcDbLine
 62
7
  6
CONTINUOUS
 10
-17.5285683074
 20
48.8303436563
 11
-16.5932841186
 21
49.3518362302
  0
LINE
  5
2AB
100
AcDbEntity
  8
0
100
AcDbLine
 62
7
  6
CONTINUOUS
 10
-15.9668546393
 20
-52.720092118
 11
-15.6589847924
 21
-52.6727871851
  0
LINE
  5
2AC
100
AcDbEntity
  8
0
100
AcDbLine
 62
7
  6
CONTINUOUS
 10
-16.4402326626
 20
-53.8247317962
 11
-16.2281006282
 21
-53.8247317962
  0
LINE
  5
2AD
100
AcDbEntity
  8
0
100
AcDbLine
 62
7
  6
CONTINUOUS
 10
-16.086679272
 20
-53.6205944995
 11
-15.8745472376
 21
-53.6205944995
  0
LINE
  5
2AE
100
AcDbEntity
  8
0
100
AcDbLine
 62
7
  6
CONTINUOUS
 10
-15.7331258814
 20
-53.4164572029
 11
-15.520993847
 21
-53.4164572029
  0
LINE
  5
2AF
100
AcDbEntity
  8
0
100
AcDbLine
 62
7
  6
CONTINUOUS
 10
-15.3795724908
 20
-53.2123199062
 11
-15.1674404565
 21
-53.2123199062
  0
LINE
  5
2B0
100
AcDbEntity
  8
0
100
AcDbLine
 62
7
  6
CONTINUOUS
 10
-15.0260191002
 20
-53.0081826095
 11
-14.8138870659
 21
-53.0081826095
  0
LINE
  5
2B1
100
AcDbEntity
  8
0
100
AcDbLine
 62
7
  6
CONTINUOUS
 10
-15.1010850084
 20
-52.3562050915
 11
-14.6829357703
 21
-52.597639221
  0
LINE
  5
2B2
100
AcDbEntity
  8
0
100
AcDbLine
 62
7
  6
CONTINUOUS
 10
-15.0489893278
 20
-52.3269579001
 11
-14.6319133335
 21
-52.567772352
  0
LINE
  5
2B3
100
AcDbEntity
  8
0
100
AcDbLine
 62
7
  6
CONTINUOUS
 10
-11.013188117
 20
45.3248753778
 11
-11.5788735419
 21
44.9982557032
  0
LINE
  5
2B4
100
AcDbEntity
  8
0
100
AcDbLine
 62
7
  6
CONTINUOUS
 10
-10.8010560826
 20
44.9574519168
 11
-11.3218424434
 21
44.6567563991
  0
LINE
  5
2B5
100
AcDbEntity
  8
0
100
AcDbLine
 62
7
  6
CONTINUOUS
 10
-5.8598945061
 20
42.2776782812
 11
-6.4255799311
 21
41.9510586065
  0
LINE
  5
2B6
100
AcDbEntity
  8
0
100
AcDbLine
 62
7
  6
CONTINUOUS
 10
-9.9488257307
 20
44.0851666172
 11
-10.1437569139
 21
43.9765445792
  0
LINE
  5
2B7
100
AcDbEntity
  8
0
100
AcDbLine
 62
7
  6
CONTINUOUS
 10
-6.9469463904
 20
44.945548557
 11
-9.5122253545
 21
43.6119061718
  0
LINE
  5
2B8
100
AcDbEntity
  8
RACCORDO
100
AcDbLine
 62
7
  6
CONTINUOUS
 10
-17.1908073028
 20
-42.1446805904
 11
-16.6700746801
 21
-42.4453450804
  0
LINE
  5
2B9
100
AcDbEntity
  8
0
100
AcDbLine
 62
7
  6
CONTINUOUS
 10
-17.1650171133
 20
-40.9347477426
 11
-17.1908073028
 21
-40.9198568104
  0
LINE
  5
2BA
100
AcDbEntity
  8
RACCORDO
100
AcDbLine
 62
7
  6
CONTINUOUS
 10
-17.7268464109
 20
-37.344702279
 11
-17.6773038065
 21
-37.3733075579
  0
LINE
  5
2BB
100
AcDbEntity
  8
DRAFT
100
AcDbLine
 62
7
  6
CONTINUOUS
 10
-17.5185180789
 20
-37.3833138008
 11
-17.1908073028
 21
-37.5725298957
  0
LWPOLYLINE
  5
2BC
100
AcDbEntity
  8
RACCORDO
100
AcDbPolyline
 62
7
  6
CONTINUOUS
 90
10
 70
0
 10
-21.9303024749
 20
-70.3611170975
 10
-21.9121331708
 20
-70.4177088231
 10
-21.8903833939
 20
-70.4730352504
 10
-21.8651618854
 20
-70.5271246495
 10
-21.8366801853
 20
-70.5796256234
 10
-21.8050875297
 20
-70.6303274339
 10
-21.7704930143
 20
-70.6789796984
 10
-21.7331027082
 20
-70.7252082845
 10
-21.6928194413
 20
-70.7689427389
 10
-21.6498407443
 20
-70.8096942564
  0
LINE
  5
2BD
100
AcDbEntity
  8
SMUSSO
100
AcDbLine
 62
7
  6
CONTINUOUS
 10
-34.9487526601
 20
114.8689760068
 11
-34.9487526601
 21
-77.806483275
  0
LWPOLYLINE
  5
2BE
100
AcDbEntity
  8
RACCORDO
100
AcDbPolyline
 62
7
  6
CONTINUOUS
 90
13
 70
0
 10
-21.7397432385
 20
29.9940979271
 10
-21.7650297294
 20
29.9772242098
 10
-21.7959137715
 20
29.9528258922
 10
-21.8250948908
 20
29.925114596
 10
-21.8522617563
 20
29.8941063084
 10
-21.8770299813
 20
29.8599636293
 10
-21.8990104611
 20
29.8229807558
 10
-21.9179817579
 20
29.7832911526
 10
-21.9337196913
 20
29.7411089567
 10
-21.9460147035
 20
29.6968341141
 10
-21.9547759911
 20
29.6506718266
 10
-21.9599379417
 20
29.6026785352
 10
-21.9614530608
 20
29.5578710051
  0
LINE
  5
2BF
100
AcDbEntity
  8
0
100
AcDbLine
 62
7
  6
CONTINUOUS
 10
-2.690258329
 20
42.4877902192
 11
-4.305557539
 21
41.4519735485
  0
LINE
  5
2C0
100
AcDbEntity
  8
RACCORDO
100
AcDbLine
 62
7
  6
CONTINUOUS
 10
-21.7399382602
 20
29.9939846198
 11
-20.3799887542
 21
30.834997794
  0
LINE
  5
2C1
100
AcDbEntity
  8
RACCORDO
100
AcDbLine
 62
7
  6
CONTINUOUS
 10
-21.3823656818
 20
29.9638698282
 11
-20.0239379262
 21
30.8039419291
  0
LINE
  5
2C2
100
AcDbEntity
  8
0
100
AcDbLine
 62
7
  6
CONTINUOUS
 10
-2.690258329
 20
42.0863918626
 11
-4.0356075961
 21
41.2961078347
  0
LINE
  5
2C3
100
AcDbEntity
  8
0
100
AcDbLine
 62
7
  6
CONTINUOUS
 10
-3.8884442921
 20
41.2111375874
 11
-3.5881496268
 21
41.3853809095
  0
LINE
  5
2C4
100
AcDbEntity
  8
0
100
AcDbLine
 62
7
  6
CONTINUOUS
 10
-3.4383245132
 20
41.5186364865
 11
-3.9286193092
 21
41.2343341388
  0
LINE
  5
2C5
100
AcDbEntity
  8
0
100
AcDbLine
 62
7
  6
CONTINUOUS
 10
-6.275572683
 20
41.9361962532
 11
-5.7098872581
 21
42.2628159279
  0
LINE
  5
2C6
100
AcDbEntity
  8
0
100
AcDbLine
 62
7
  6
CONTINUOUS
 10
-15.9668546393
 20
-34.3495108901
 11
-15.6589847924
 21
-34.3022059572
  0
LINE
  5
2C7
100
AcDbEntity
  8
RACCORDO
100
AcDbLine
 62
7
  6
CONTINUOUS
 10
-19.6613754181
 20
-31.6561887679
 11
-19.661249118
 21
-31.6561936228
  0
LINE
  5
2C8
100
AcDbEntity
  8
RACCORDO
100
AcDbLine
 62
7
  6
CONTINUOUS
 10
-19.3784876162
 20
-31.8153486204
 11
-19.7456103233
 21
-31.8010834657
  0
LWPOLYLINE
  5
2C9
100
AcDbEntity
  8
RACCORDO
100
AcDbPolyline
 62
7
  6
CONTINUOUS
 90
9
 70
0
 10
-19.6612654413
 20
-31.6561999159
 10
-19.6625045178
 20
-31.6561335098
 10
-19.6641340893
 20
-31.6559740371
 10
-19.6622773144
 20
-31.6563948368
 10
-19.6572756265
 20
-31.6578971905
 10
-19.6492757654
 20
-31.6609215426
 10
-19.6387382151
 20
-31.665710386
 10
-19.6266615925
 20
-31.6720788525
 10
-19.6237659215
 20
-31.673728191
  0
LINE
  5
2CA
100
AcDbEntity
  8
RACCORDO
100
AcDbLine
 62
7
  6
CONTINUOUS
 10
-19.6237252352
 20
-31.6737514927
 11
12.7122623138
 21
-50.3441454384
  0
LINE
  5
2CB
100
AcDbEntity
  8
RACCORDO
100
AcDbLine
 62
7
  6
CONTINUOUS
 10
-19.6858500215
 20
-31.5364304344
 11
12.6501375487
 21
-50.2068243923
  0
LINE
  5
2CC
100
AcDbEntity
  8
RACCORDO
100
AcDbLine
 62
7
  6
CONTINUOUS
 10
14.5550830289
 20
-49.2409456165
 11
-21.5930788454
 21
-28.3694499932
  0
LINE
  5
2CD
100
AcDbEntity
  8
RACCORDO
100
AcDbLine
 62
7
  6
CONTINUOUS
 10
14.7635128488
 20
-48.8756970734
 11
-21.3823656818
 21
-28.0055198241
  0
LINE
  5
2CE
100
AcDbEntity
  8
RACCORDO
100
AcDbLine
 62
7
  6
CONTINUOUS
 10
16.1702059688
 20
-48.063492789
 11
-20.0239379262
 21
-27.1654477232
  0
LWPOLYLINE
  5
2CF
100
AcDbEntity
  8
RACCORDO
100
AcDbPolyline
 62
7
  6
CONTINUOUS
 90
21
 70
0
 10
12.7123426606
 20
-50.3441919821
 10
12.7254805276
 20
-50.3522288619
 10
12.7433613708
 20
-50.3645686661
 10
12.7619271457
 20
-50.3790659343
 10
12.7808126837
 20
-50.3956007967
 10
12.7997285576
 20
-50.414052854
 10
12.8184043902
 20
-50.4342667675
 10
12.8366264185
 20
-50.4561013615
 10
12.854156987
 20
-50.4793425908
 10
12.870768913
 20
-50.5037393347
 10
12.8863310758
 20
-50.5291345274
 10
12.9006561559
 20
-50.5552309936
 10
12.9135917792
 20
-50.5817207721
 10
12.925075309
 20
-50.6084356256
 10
12.9350015242
 20
-50.6350563512
 10
12.9432993931
 20
-50.6612386715
 10
12.9499668016
 20
-50.6867585203
 10
12.9550103083
 20
-50.7113430477
 10
12.9584593487
 20
-50.7346569589
 10
12.9603903718
 20
-50.7563274761
 10
12.9609468985
 20
-50.7747617868
  0
LWPOLYLINE
  5
2D0
100
AcDbEntity
  8
RACCORDO
100
AcDbPolyline
 62
7
  6
CONTINUOUS
 90
4
 70
0
 10
-21.9602213356
 20
-70.1891158993
 10
-21.9546073741
 20
-70.2462107441
 10
-21.9445762347
 20
-70.3036591753
 10
-21.9303024749
 20
-70.3611170975
  0
LINE
  5
2D1
100
AcDbEntity
  8
RACCORDO
100
AcDbLine
 62
7
  6
CONTINUOUS
 10
-21.9614533107
 20
-70.1476672542
 11
-21.9602213356
 21
-70.1891158993
  0
LINE
  5
2D2
100
AcDbEntity
  8
0
100
AcDbLine
 62
7
  6
CONTINUOUS
 10
-3.4383245132
 20
41.5186364865
 11
-3.2436506218
 21
41.7613185892
  0
LINE
  5
2D3
100
AcDbEntity
  8
SMUSSO
100
AcDbLine
 62
7
  6
CONTINUOUS
 10
31.8021274839
 20
77.1443246734
 11
30.8021274839
 21
76.088692677
  0
LINE
  5
2D4
100
AcDbEntity
  8
DRAFT
100
AcDbLine
 62
7
  6
CONTINUOUS
 10
-17.1908073028
 20
20.3968597566
 11
-17.7268464109
 21
20.0531226701
  0
LINE
  5
2D5
100
AcDbEntity
  8
SUPERFICI
100
AcDbLine
 62
7
  6
CONTINUOUS
 10
-14.7534526354
 20
18.8680055644
 11
-17.1908073028
 21
17.3132150515
  0
LINE
  5
2D6
100
AcDbEntity
  8
SUPERFICI
100
AcDbLine
 62
7
  6
CONTINUOUS
 10
-17.1908073028
 20
16.8124541847
 11
-17.1650171133
 21
16.8284010643
  0
LINE
  5
2D7
100
AcDbEntity
  8
0
100
AcDbLine
 62
7
  6
CONTINUOUS
 10
4.8967144597
 20
36.138697028
 11
4.3310290348
 21
35.8120773533
  0
LINE
  5
2D8
100
AcDbEntity
  8
0
100
AcDbLine
 62
7
  6
CONTINUOUS
 10
5.1088464941
 20
35.7712735669
 11
4.5880601333
 21
35.4705780492
  0
LINE
  5
2D9
100
AcDbEntity
  8
0
100
AcDbLine
 62
7
  6
CONTINUOUS
 10
6.1695066659
 20
34.587450848
 11
6.1435447181
 21
34.5724607447
  0
LINE
  5
2DA
100
AcDbEntity
  8
0
100
AcDbLine
 62
7
  6
CONTINUOUS
 10
10.0500080706
 20
33.0914999313
 11
9.4843226456
 21
32.7648802567
  0
LINE
  5
2DB
100
AcDbEntity
  8
0
100
AcDbLine
 62
7
  6
CONTINUOUS
 10
9.6343298937
 20
32.7500179034
 11
10.2000153186
 21
33.076637578
  0
LINE
  5
2DC
100
AcDbEntity
  8
SUPERFICI
100
AcDbLine
 62
7
  6
CONTINUOUS
 10
-17.1650171133
 20
17.0346419097
 11
-17.1908073028
 21
17.0197509775
  0
LINE
  5
2DD
100
AcDbEntity
  8
SUPERFICI
100
AcDbLine
 62
7
  6
CONTINUOUS
 10
-15.9668546393
 20
23.6198787622
 11
-16.5298552697
 21
23.2961982484
  0
LINE
  5
2DE
100
AcDbEntity
  8
SUPERFICI
100
AcDbLine
 62
7
  6
CONTINUOUS
 10
-16.1572017233
 20
23.5567399861
 11
-16.5298552697
 21
23.3426353125
  0
LINE
  5
2DF
100
AcDbEntity
  8
SUPERFICI
100
AcDbLine
 62
7
  6
CONTINUOUS
 10
-15.362644007
 20
23.8353432623
 11
-16.5298552697
 21
23.1730053375
  0
LINE
  5
2E0
100
AcDbEntity
  8
SUPERFICI
100
AcDbLine
 62
7
  6
CONTINUOUS
 10
-17.4651394585
 20
20.718522142
 11
-16.5298552697
 21
21.2400147159
  0
LINE
  5
2E1
100
AcDbEntity
  8
SUPERFICI
100
AcDbLine
 62
7
  6
CONTINUOUS
 10
-17.5285683074
 20
20.5804720793
 11
-16.5932841186
 21
21.1019646532
  0
LINE
  5
2E2
100
AcDbEntity
  8
0
100
AcDbLine
 62
7
  6
CONTINUOUS
 10
5.9640085553
 20
34.676122675
 11
5.9908911002
 21
34.690581237
  0
LINE
  5
2E3
100
AcDbEntity
  8
0
100
AcDbLine
 62
7
  6
CONTINUOUS
 10
8.9629561863
 20
35.7593702071
 11
6.3976772222
 21
34.4257278219
  0
LINE
  5
2E4
100
AcDbEntity
  8
SUPERFICI
100
AcDbLine
 62
7
  6
CONTINUOUS
 10
-15.027101474
 20
23.6416052091
 11
-16.5298552697
 21
22.8648706548
  0
LINE
  5
2E5
100
AcDbEntity
  8
RACCORDO
100
AcDbLine
 62
7
  6
CONTINUOUS
 10
-21.6498407443
 20
-12.8403046042
 11
-21.6048061469
 21
-12.877293198
  0
LWPOLYLINE
  5
2E6
100
AcDbEntity
  8
RACCORDO
100
AcDbPolyline
 62
7
  6
CONTINUOUS
 90
10
 70
0
 10
-21.9303024749
 20
-12.3917274452
 10
-21.9121331708
 20
-12.4483191708
 10
-21.8903833939
 20
-12.5036455981
 10
-21.8651618854
 20
-12.5577349972
 10
-21.8366801853
 20
-12.6102359711
 10
-21.8050875297
 20
-12.6609377816
 10
-21.7704930143
 20
-12.7095900461
 10
-21.7331027082
 20
-12.7558186322
 10
-21.6928194413
 20
-12.7995530866
 10
-21.6498407443
 20
-12.8403046042
  0
LWPOLYLINE
  5
2E7
100
AcDbEntity
  8
RACCORDO
100
AcDbPolyline
 62
7
  6
CONTINUOUS
 90
4
 70
0
 10
-21.9602213356
 20
-12.219726247
 10
-21.9546073741
 20
-12.2768210918
 10
-21.9445762347
 20
-12.334269523
 10
-21.9303024749
 20
-12.3917274452
  0
LWPOLYLINE
  5
2E8
100
AcDbEntity
  8
RACCORDO
100
AcDbPolyline
 62
7
  6
CONTINUOUS
 90
4
 70
0
 10
-21.9602213356
 20
45.7496634053
 10
-21.9546073741
 20
45.6925685605
 10
-21.9445762347
 20
45.6351201293
 10
-21.9303024749
 20
45.5776622071
  0
LINE
  5
2E9
100
AcDbEntity
  8
RACCORDO
100
AcDbLine
 62
7
  6
CONTINUOUS
 10
-21.9614533107
 20
-12.1782776019
 11
-21.9602213356
 21
-12.219726247
  0
LINE
  5
2EA
100
AcDbEntity
  8
RACCORDO
100
AcDbLine
 62
7
  6
CONTINUOUS
 10
-21.9614533107
 20
45.7911120504
 11
-21.9602213356
 21
45.7496634053
  0
LINE
  5
2EB
100
AcDbEntity
  8
RACCORDO
100
AcDbLine
 62
7
  6
CONTINUOUS
 10
-21.9614631015
 20
87.5272399067
 11
-21.9614631015
 21
45.7909191255
  0
LINE
  5
2EC
100
AcDbEntity
  8
RACCORDO
100
AcDbLine
 62
7
  6
CONTINUOUS
 10
-21.9614631015
 20
29.5578502544
 11
-21.9614631015
 21
-12.1784705267
  0
LINE
  5
2ED
100
AcDbEntity
  8
RACCORDO
100
AcDbLine
 62
7
  6
CONTINUOUS
 10
-21.9614631015
 20
-28.4115393979
 11
-21.9614631015
 21
-70.147860179
  0
LINE
  5
2EE
100
AcDbEntity
  8
RACCORDO
100
AcDbLine
 62
7
  6
CONTINUOUS
 10
-21.8735951359
 20
87.4047575321
 11
-21.8735951359
 21
45.6658002562
  0
LINE
  5
2EF
100
AcDbEntity
  8
RACCORDO
100
AcDbLine
 62
7
  6
CONTINUOUS
 10
-21.8735951359
 20
29.4353678798
 11
-21.8735951359
 21
-12.3035893961
  0
LINE
  5
2F0
100
AcDbEntity
  8
RACCORDO
100
AcDbLine
 62
7
  6
CONTINUOUS
 10
-21.8735951359
 20
-28.5340217725
 11
-21.8735951359
 21
-70.2729790484
  0
LINE
  5
2F1
100
AcDbEntity
  8
RACCORDO
100
AcDbLine
 62
7
  6
CONTINUOUS
 10
-20.0845278361
 20
-69.1037568858
 11
-20.0845278361
 21
-31.7665775174
  0
LINE
  5
2F2
100
AcDbEntity
  8
RACCORDO
100
AcDbLine
 62
7
  6
CONTINUOUS
 10
-20.0845278361
 20
-11.1343672335
 11
-20.0845278361
 21
26.2028121349
  0
LINE
  5
2F3
100
AcDbEntity
  8
RACCORDO
100
AcDbLine
 62
7
  6
CONTINUOUS
 10
-20.0845278361
 20
46.8350224188
 11
-20.0845278361
 21
84.1722017872
  0
LINE
  5
2F4
100
AcDbEntity
  8
RACCORDO
100
AcDbLine
 62
7
  6
CONTINUOUS
 10
-19.7456103233
 20
-69.1382607317
 11
-19.7456103233
 21
-31.8010834657
  0
LINE
  5
2F5
100
AcDbEntity
  8
RACCORDO
100
AcDbLine
 62
7
  6
CONTINUOUS
 10
-19.7456103233
 20
-11.1688710794
 11
-19.7456103233
 21
26.1683061866
  0
LINE
  5
2F6
100
AcDbEntity
  8
RACCORDO
100
AcDbLine
 62
7
  6
CONTINUOUS
 10
-19.7456103233
 20
46.8005185729
 11
-19.7456103233
 21
84.1376958389
  0
LINE
  5
2F7
100
AcDbEntity
  8
RACCORDO
100
AcDbLine
 62
7
  6
CONTINUOUS
 10
-18.3722199181
 20
83.5424243268
 11
-18.3722199181
 21
47.6327469431
  0
LINE
  5
2F8
100
AcDbEntity
  8
RACCORDO
100
AcDbLine
 62
7
  6
CONTINUOUS
 10
-18.3722199181
 20
25.5730346745
 11
-18.3722199181
 21
-10.3366427092
  0
LINE
  5
2F9
100
AcDbEntity
  8
RACCORDO
100
AcDbLine
 62
7
  6
CONTINUOUS
 10
-18.3722199181
 20
-32.3963549778
 11
-18.3722199181
 21
-68.3060323615
  0
LINE
  5
2FA
100
AcDbEntity
  8
RACCORDO
100
AcDbLine
 62
7
  6
CONTINUOUS
 10
-18.2361998637
 20
83.4638880521
 11
-18.2361998637
 21
47.6867234292
  0
LINE
  5
2FB
100
AcDbEntity
  8
RACCORDO
100
AcDbLine
 62
7
  6
CONTINUOUS
 10
-18.2361998637
 20
25.4944983998
 11
-18.2361998637
 21
-10.282666223
  0
LINE
  5
2FC
100
AcDbEntity
  8
RACCORDO
100
AcDbLine
 62
7
  6
CONTINUOUS
 10
-18.2361998637
 20
-32.4748912525
 11
-18.2361998637
 21
-68.2520558753
  0
LINE
  5
2FD
100
AcDbEntity
  8
RACCORDO
100
AcDbLine
 62
7
  6
CONTINUOUS
 10
-17.972635744
 20
-68.0998777605
 11
-17.972635744
 21
-32.6270698719
  0
LINE
  5
2FE
100
AcDbEntity
  8
RACCORDO
100
AcDbLine
 62
7
  6
CONTINUOUS
 10
-17.972635744
 20
-10.1304881082
 11
-17.972635744
 21
25.3423197804
  0
LINE
  5
2FF
100
AcDbEntity
  8
RACCORDO
100
AcDbLine
 62
7
  6
CONTINUOUS
 10
-17.972635744
 20
47.8389015441
 11
-17.972635744
 21
83.3117094326
  0
LINE
  5
300
100
AcDbEntity
  8
DRAFT
100
AcDbLine
 62
7
  6
CONTINUOUS
 10
-17.7268464109
 20
-67.6357850574
 11
-17.7268464109
 21
-61.5122579815
  0
LINE
  5
301
100
AcDbEntity
  8
DRAFT
100
AcDbLine
 62
7
  6
CONTINUOUS
 10
-17.7268464109
 20
-37.9162669822
 11
-17.7268464109
 21
-32.7689855524
  0
LINE
  5
302
100
AcDbEntity
  8
DRAFT
100
AcDbLine
 62
7
  6
CONTINUOUS
 10
-17.7268464109
 20
-9.6663954052
 11
-17.7268464109
 21
-3.5428683292
  0
LINE
  5
303
100
AcDbEntity
  8
DRAFT
100
AcDbLine
 62
7
  6
CONTINUOUS
 10
-17.7268464109
 20
20.0531226701
 11
-17.7268464109
 21
25.2004040999
  0
LINE
  5
304
100
AcDbEntity
  8
DRAFT
100
AcDbLine
 62
7
  6
CONTINUOUS
 10
-17.7268464109
 20
48.3029942471
 11
-17.7268464109
 21
54.4265213231
  0
LINE
  5
305
100
AcDbEntity
  8
DRAFT
100
AcDbLine
 62
7
  6
CONTINUOUS
 10
-17.7268464109
 20
78.0225123224
 11
-17.7268464109
 21
83.1697937522
  0
LINE
  5
306
100
AcDbEntity
  8
0
100
AcDbLine
 62
7
  6
CONTINUOUS
 10
-17.5008928344
 20
78.5652929276
 11
-17.5008928344
 21
78.5498711257
  0
LINE
  5
307
100
AcDbEntity
  8
0
100
AcDbLine
 62
7
  6
CONTINUOUS
 10
-17.4651394585
 20
83.0186874378
 11
-17.4651394585
 21
78.6879117942
  0
LINE
  5
308
100
AcDbEntity
  8
0
100
AcDbLine
 62
7
  6
CONTINUOUS
 10
-17.4651394585
 20
54.1938034905
 11
-17.4651394585
 21
48.968393719
  0
LINE
  5
309
100
AcDbEntity
  8
RACCORDO
100
AcDbLine
 62
7
  6
CONTINUOUS
 10
-17.4651394585
 20
-66.9703855856
 11
-17.4651394585
 21
-61.7449758141
  0
LINE
  5
30A
100
AcDbEntity
  8
RACCORDO
100
AcDbLine
 62
7
  6
CONTINUOUS
 10
-17.4651394585
 20
-37.2508675103
 11
-17.4651394585
 21
-32.9200918668
  0
LINE
  5
30B
100
AcDbEntity
  8
SUPERFICI
100
AcDbLine
 62
7
  6
CONTINUOUS
 10
-17.4651394585
 20
-9.0009959333
 11
-17.4651394585
 21
-3.7755861618
  0
LINE
  5
30C
100
AcDbEntity
  8
SUPERFICI
100
AcDbLine
 62
7
  6
CONTINUOUS
 10
-17.4651394585
 20
20.718522142
 11
-17.4651394585
 21
25.0492977855
  0
LINE
  5
30D
100
AcDbEntity
  8
0
100
AcDbLine
 62
7
  6
CONTINUOUS
 10
-17.2887608
 20
78.6835727851
 11
-17.2887608
 21
78.4228065305
  0
LINE
  5
30E
100
AcDbEntity
  8
DRAFT
100
AcDbLine
 62
7
  6
CONTINUOUS
 10
-17.1908073028
 20
78.3662494089
 11
-17.1908073028
 21
54.7702584096
  0
LINE
  5
30F
100
AcDbEntity
  8
RACCORDO
100
AcDbLine
 62
7
  6
CONTINUOUS
 10
-17.1908073028
 20
48.6467313336
 11
-17.1908073028
 21
48.2900285533
  0
LINE
  5
310
100
AcDbEntity
  8
DRAFT
100
AcDbLine
 62
7
  6
CONTINUOUS
 10
-17.1908073028
 20
20.3968597566
 11
-17.1908073028
 21
-3.1991312427
  0
LINE
  5
311
100
AcDbEntity
  8
RACCORDO
100
AcDbLine
 62
7
  6
CONTINUOUS
 10
-17.1908073028
 20
-9.3226583187
 11
-17.1908073028
 21
-9.679361099
  0
LINE
  5
312
100
AcDbEntity
  8
DRAFT
100
AcDbLine
 62
7
  6
CONTINUOUS
 10
-17.1908073028
 20
-37.5725298957
 11
-17.1908073028
 21
-61.168520895
  0
LINE
  5
313
100
AcDbEntity
  8
RACCORDO
100
AcDbLine
 62
7
  6
CONTINUOUS
 10
-17.1908073028
 20
-67.292047971
 11
-17.1908073028
 21
-67.6487507513
  0
LINE
  5
314
100
AcDbEntity
  8
0
100
AcDbLine
 62
7
  6
CONTINUOUS
 10
-17.1826947828
 20
78.7427127139
 11
-17.1826947828
 21
75.4428715129
  0
LINE
  5
315
100
AcDbEntity
  8
0
100
AcDbLine
 62
7
  6
CONTINUOUS
 10
-17.1826947828
 20
-58.8664890195
 11
-17.1826947828
 21
-55.5282631956
  0
LINE
  5
316
100
AcDbEntity
  8
SUPERFICI
100
AcDbLine
 62
7
  6
CONTINUOUS
 10
-17.1650171133
 20
17.0346419097
 11
-17.1650171133
 21
16.8284010643
  0
LINE
  5
317
100
AcDbEntity
  8
DRAFT
100
AcDbLine
 62
7
  6
CONTINUOUS
 10
-17.1650171133
 20
-40.9347477426
 11
-17.1650171133
 21
-41.140988588
  0
LINE
  5
318
100
AcDbEntity
  8
0
100
AcDbLine
 62
7
  6
CONTINUOUS
 10
-17.1650171133
 20
74.7977907166
 11
-17.1650171133
 21
75.2131224285
  0
LINE
  5
319
100
AcDbEntity
  8
0
100
AcDbLine
 62
7
  6
CONTINUOUS
 10
-17.1473394438
 20
78.7624260235
 11
-17.1473394438
 21
75.5857676205
  0
LINE
  5
31A
100
AcDbEntity
  8
0
100
AcDbLine
 62
7
  6
CONTINUOUS
 10
-17.1473394438
 20
-58.7235929119
 11
-17.1473394438
 21
-55.5318081809
  0
LINE
  5
31B
100
AcDbEntity
  8
0
100
AcDbLine
 62
7
  6
CONTINUOUS
 10
-17.0334698329
 20
72.8050735986
 11
-17.0334698329
 21
60.5580194467
  0
LINE
  5
31C
100
AcDbEntity
  8
RACCORDO
100
AcDbLine
 62
7
  6
CONTINUOUS
 10
-17.0334698329
 20
-55.3807598579
 11
-17.0334698329
 21
-43.133705706
  0
LINE
  5
31D
100
AcDbEntity
  8
SUPERFICI
100
AcDbLine
 62
7
  6
CONTINUOUS
 10
-17.0334698329
 20
2.5886297944
 11
-17.0334698329
 21
14.8356839463
  0
LINE
  5
31E
100
AcDbEntity
  8
SUPERFICI
100
AcDbLine
 62
7
  6
CONTINUOUS
 10
-16.9994139397
 20
-1.6722460467
 11
-16.9994139397
 21
-2.7380352138
  0
LINE
  5
31F
100
AcDbEntity
  8
0
100
AcDbLine
 62
7
  6
CONTINUOUS
 10
-16.9994139397
 20
-59.6416356989
 11
-16.9994139397
 21
-60.7074248661
  0
LINE
  5
320
100
AcDbEntity
  8
0
100
AcDbLine
 62
7
  6
CONTINUOUS
 10
-16.9994139397
 20
55.2313544385
 11
-16.9994139397
 21
56.2971436056
  0
LINE
  5
321
100
AcDbEntity
  8
0
100
AcDbLine
 62
7
  6
CONTINUOUS
 10
-16.9352074094
 20
78.880705881
 11
-16.9352074094
 21
75.5857676205
  0
LINE
  5
322
100
AcDbEntity
  8
0
100
AcDbLine
 62
7
  6
CONTINUOUS
 10
-16.9352074094
 20
-58.7235929119
 11
-16.9352074094
 21
-55.4286546514
  0
LINE
  5
323
100
AcDbEntity
  8
0
100
AcDbLine
 62
7
  6
CONTINUOUS
 10
-16.9152158798
 20
56.4174697167
 11
-16.9152158798
 21
55.182739534
  0
LINE
  5
324
100
AcDbEntity
  8
SUPERFICI
100
AcDbLine
 62
7
  6
CONTINUOUS
 10
-16.9152158798
 20
-1.5519199356
 11
-16.9152158798
 21
-2.7866501183
  0
LINE
  5
325
100
AcDbEntity
  8
0
100
AcDbLine
 62
7
  6
CONTINUOUS
 10
-16.9152158798
 20
-59.5213095878
 11
-16.9152158798
 21
-60.7560397706
  0
LINE
  5
326
100
AcDbEntity
  8
0
100
AcDbLine
 62
7
  6
CONTINUOUS
 10
-16.8291413922
 20
78.9398458098
 11
-16.8291413922
 21
75.6470088095
  0
LINE
  5
327
100
AcDbEntity
  8
0
100
AcDbLine
 62
7
  6
CONTINUOUS
 10
-16.8291413922
 20
-58.6623517229
 11
-16.8291413922
 21
-55.3695147226
  0
LINE
  5
328
100
AcDbEntity
  8
0
100
AcDbLine
 62
7
  6
CONTINUOUS
 10
-16.7937860532
 20
78.9595591194
 11
-16.7937860532
 21
75.7899049172
  0
LINE
  5
329
100
AcDbEntity
  8
0
100
AcDbLine
 62
7
  6
CONTINUOUS
 10
-16.7937860532
 20
-58.5194556152
 11
-16.7937860532
 21
-55.349801413
  0
LINE
  5
32A
100
AcDbEntity
  8
0
100
AcDbLine
 62
7
  6
CONTINUOUS
 10
-16.5816540188
 20
79.0791904358
 11
-16.5816540188
 21
75.7899049172
  0
LINE
  5
32B
100
AcDbEntity
  8
0
100
AcDbLine
 62
7
  6
CONTINUOUS
 10
-16.5816540188
 20
-58.5194556152
 11
-16.5816540188
 21
-55.2315215555
  0
LINE
  5
32C
100
AcDbEntity
  8
0
100
AcDbLine
 62
7
  6
CONTINUOUS
 10
-16.5298552697
 20
82.4786660691
 11
-16.5298552697
 21
79.2094043682
  0
LINE
  5
32D
100
AcDbEntity
  8
0
100
AcDbLine
 62
7
  6
CONTINUOUS
 10
-16.5298552697
 20
54.7152960644
 11
-16.5298552697
 21
49.4898862929
  0
LINE
  5
32E
100
AcDbEntity
  8
RACCORDO
100
AcDbLine
 62
7
  6
CONTINUOUS
 10
-16.5298552697
 20
-66.4488930117
 11
-16.5298552697
 21
-61.2234832402
  0
LINE
  5
32F
100
AcDbEntity
  8
RACCORDO
100
AcDbLine
 62
7
  6
CONTINUOUS
 10
-16.5298552697
 20
-36.7293749364
 11
-16.5298552697
 21
-33.4601132355
  0
LINE
  5
330
100
AcDbEntity
  8
SUPERFICI
100
AcDbLine
 62
7
  6
CONTINUOUS
 10
-16.5298552697
 20
-8.4795033594
 11
-16.5298552697
 21
-3.2540935879
  0
LINE
  5
331
100
AcDbEntity
  8
SUPERFICI
100
AcDbLine
 62
7
  6
CONTINUOUS
 10
-16.5298552697
 20
21.2400147159
 11
-16.5298552697
 21
24.5092764168
  0
LINE
  5
332
100
AcDbEntity
  8
0
100
AcDbLine
 62
7
  6
CONTINUOUS
 10
-16.4755880016
 20
-58.4582144262
 11
-16.4755880016
 21
-55.1469569293
  0
LINE
  5
333
100
AcDbEntity
  8
0
100
AcDbLine
 62
7
  6
CONTINUOUS
 10
-16.4755880016
 20
75.8511461062
 11
-16.4755880016
 21
80.4642150066
  0
LINE
  5
334
100
AcDbEntity
  8
0
100
AcDbLine
 62
7
  6
CONTINUOUS
 10
-16.4579103321
 20
73.1259921056
 11
-16.4579103321
 21
60.8789379537
  0
LINE
  5
335
100
AcDbEntity
  8
RACCORDO
100
AcDbLine
 62
7
  6
CONTINUOUS
 10
-16.4579103321
 20
-55.0598413509
 11
-16.4579103321
 21
-42.812787199
  0
LINE
  5
336
100
AcDbEntity
  8
SUPERFICI
100
AcDbLine
 62
7
  6
CONTINUOUS
 10
-16.4579103321
 20
2.9095483014
 11
-16.4579103321
 21
15.1566024533
  0
LINE
  5
337
100
AcDbEntity
  8
0
100
AcDbLine
 62
7
  6
CONTINUOUS
 10
-16.4402326626
 20
80.4846287362
 11
-16.4402326626
 21
75.9940422139
  0
LINE
  5
338
100
AcDbEntity
  8
0
100
AcDbLine
 62
7
  6
CONTINUOUS
 10
-16.4402326626
 20
-58.3153183185
 11
-16.4402326626
 21
-53.8247317962
  0
LINE
  5
339
100
AcDbEntity
  8
0
100
AcDbLine
 62
7
  6
CONTINUOUS
 10
-16.2281006282
 20
80.4846287362
 11
-16.2281006282
 21
75.9940422139
  0
LINE
  5
33A
100
AcDbEntity
  8
0
100
AcDbLine
 62
7
  6
CONTINUOUS
 10
-16.2281006282
 20
-58.3153183185
 11
-16.2281006282
 21
-53.8247317962
  0
LINE
  5
33B
100
AcDbEntity
  8
0
100
AcDbLine
 62
7
  6
CONTINUOUS
 10
-16.1220346111
 20
-58.2540771295
 11
-16.1220346111
 21
-53.6410082292
  0
LINE
  5
33C
100
AcDbEntity
  8
0
100
AcDbLine
 62
7
  6
CONTINUOUS
 10
-16.1220346111
 20
76.0552834029
 11
-16.1220346111
 21
80.6683523032
  0
LINE
  5
33D
100
AcDbEntity
  8
0
100
AcDbLine
 62
7
  6
CONTINUOUS
 10
-16.086679272
 20
80.6887660329
 11
-16.086679272
 21
76.1981795105
  0
LINE
  5
33E
100
AcDbEntity
  8
0
100
AcDbLine
 62
7
  6
CONTINUOUS
 10
-16.086679272
 20
-58.1111810219
 11
-16.086679272
 21
-53.6205944995
  0
LINE
  5
33F
100
AcDbEntity
  8
SUPERFICI
100
AcDbLine
 62
7
  6
CONTINUOUS
 10
-15.9679378095
 20
-9.4527853275
 11
-15.9679378095
 21
-9.7837038996
  0
LINE
  5
340
100
AcDbEntity
  8
0
100
AcDbLine
 62
7
  6
CONTINUOUS
 10
-15.9679378095
 20
-67.4221749797
 11
-15.9679378095
 21
-67.7530935518
  0
LINE
  5
341
100
AcDbEntity
  8
0
100
AcDbLine
 62
7
  6
CONTINUOUS
 10
-15.9679378095
 20
48.1856857527
 11
-15.9679378095
 21
48.5166043248
  0
LINE
  5
342
100
AcDbEntity
  8
0
100
AcDbLine
 62
7
  6
CONTINUOUS
 10
-15.8837397496
 20
48.6369304359
 11
-15.8837397496
 21
48.1370708482
  0
LINE
  5
343
100
AcDbEntity
  8
SUPERFICI
100
AcDbLine
 62
7
  6
CONTINUOUS
 10
-15.8837397496
 20
-9.3324592164
 11
-15.8837397496
 21
-9.8323188041
  0
LINE
  5
344
100
AcDbEntity
  8
0
100
AcDbLine
 62
7
  6
CONTINUOUS
 10
-15.8837397496
 20
-67.3018488686
 11
-15.8837397496
 21
-67.8017084564
  0
LINE
  5
345
100
AcDbEntity
  8
0
100
AcDbLine
 62
7
  6
CONTINUOUS
 10
-15.8745472376
 20
80.6887660329
 11
-15.8745472376
 21
76.1981795105
  0
LINE
  5
346
100
AcDbEntity
  8
0
100
AcDbLine
 62
7
  6
CONTINUOUS
 10
-15.8745472376
 20
-58.1111810219
 11
-15.8745472376
 21
-53.6205944995
  0
LINE
  5
347
100
AcDbEntity
  8
0
100
AcDbLine
 62
7
  6
CONTINUOUS
 10
-15.7684812205
 20
-58.0499398329
 11
-15.7684812205
 21
-53.4368709325
  0
LINE
  5
348
100
AcDbEntity
  8
0
100
AcDbLine
 62
7
  6
CONTINUOUS
 10
-15.7684812205
 20
76.2594206995
 11
-15.7684812205
 21
80.8724895999
  0
LINE
  5
349
100
AcDbEntity
  8
0
100
AcDbLine
 62
7
  6
CONTINUOUS
 10
-15.7331258814
 20
80.8929033296
 11
-15.7331258814
 21
76.4023168072
  0
LINE
  5
34A
100
AcDbEntity
  8
0
100
AcDbLine
 62
7
  6
CONTINUOUS
 10
-15.7331258814
 20
-57.9070437252
 11
-15.7331258814
 21
-53.4164572029
  0
LINE
  5
34B
100
AcDbEntity
  8
0
100
AcDbLine
 62
7
  6
CONTINUOUS
 10
-15.520993847
 20
80.8929033296
 11
-15.520993847
 21
76.4023168072
  0
LINE
  5
34C
100
AcDbEntity
  8
0
100
AcDbLine
 62
7
  6
CONTINUOUS
 10
-15.520993847
 20
-57.9070437252
 11
-15.520993847
 21
-53.4164572029
  0
LINE
  5
34D
100
AcDbEntity
  8
0
100
AcDbLine
 62
7
  6
CONTINUOUS
 10
-15.4149278299
 20
-57.8458025362
 11
-15.4149278299
 21
-53.2327336359
  0
LINE
  5
34E
100
AcDbEntity
  8
0
100
AcDbLine
 62
7
  6
CONTINUOUS
 10
-15.4149278299
 20
76.4635579962
 11
-15.4149278299
 21
81.0766268966
  0
LINE
  5
34F
100
AcDbEntity
  8
0
100
AcDbLine
 62
7
  6
CONTINUOUS
 10
-15.3795724908
 20
81.0970406262
 11
-15.3795724908
 21
76.6064541039
  0
LINE
  5
350
100
AcDbEntity
  8
0
100
AcDbLine
 62
7
  6
CONTINUOUS
 10
-15.3795724908
 20
-57.7029064286
 11
-15.3795724908
 21
-53.2123199062
  0
LINE
  5
351
100
AcDbEntity
  8
0
100
AcDbLine
 62
7
  6
CONTINUOUS
 10
-15.1674404565
 20
81.0970406262
 11
-15.1674404565
 21
76.6064541039
  0
LINE
  5
352
100
AcDbEntity
  8
0
100
AcDbLine
 62
7
  6
CONTINUOUS
 10
-15.1674404565
 20
-57.7029064286
 11
-15.1674404565
 21
-53.2123199062
  0
LINE
  5
353
100
AcDbEntity
  8
0
100
AcDbLine
 62
7
  6
CONTINUOUS
 10
12.9609473977
 20
33.1357215449
 11
11.6043450376
 21
32.2657951986
  0
LINE
  5
354
100
AcDbEntity
  8
0
100
AcDbLine
 62
7
  6
CONTINUOUS
 10
12.9609473977
 20
32.7482500088
 11
11.8742949806
 21
32.1099294848
  0
LINE
  5
355
100
AcDbEntity
  8
0
100
AcDbLine
 62
7
  6
CONTINUOUS
 10
12.0214582846
 20
32.0249592375
 11
12.3217529499
 21
32.1992025596
  0
LINE
  5
356
100
AcDbEntity
  8
0
100
AcDbLine
 62
7
  6
CONTINUOUS
 10
12.4715780635
 20
32.3324581366
 11
11.9812832675
 21
32.0481557889
  0
LINE
  5
357
100
AcDbEntity
  8
SUPERFICI
100
AcDbLine
 62
7
  6
CONTINUOUS
 10
-16.6700746801
 20
15.5240445719
 11
-17.1908073028
 21
15.2336962488
  0
LINE
  5
358
100
AcDbEntity
  8
SUPERFICI
100
AcDbLine
 62
7
  6
CONTINUOUS
 10
-16.4579103321
 20
15.1566024533
 11
-17.0334698329
 21
14.8356839463
  0
LWPOLYLINE
  5
359
100
AcDbEntity
  8
RACCORDO
100
AcDbPolyline
 62
7
  6
CONTINUOUS
 90
13
 70
0
 10
14.6172325076
 20
-33.798277725
 10
14.6571087278
 20
-33.8195228478
 10
14.7012231434
 20
-33.8390100627
 10
14.7455512564
 20
-33.8544710006
 10
14.7900097072
 20
-33.8659322702
 10
14.8343767472
 20
-33.8733720444
 10
14.8782037798
 20
-33.8767724512
 10
14.9211944103
 20
-33.8762172184
 10
14.9631222948
 20
-33.871831548
 10
15.0035383569
 20
-33.8638058311
 10
15.0421100532
 20
-33.8523916577
 10
15.0786669745
 20
-33.8378473991
 10
15.1058970062
 20
-33.8243970197
  0
LINE
  5
35A
100
AcDbEntity
  8
RACCORDO
100
AcDbLine
 62
7
  6
CONTINUOUS
 10
-21.5286707295
 20
-12.9280972896
 11
14.6172078149
 21
-33.7982745468
  0
LINE
  5
35B
100
AcDbEntity
  8
RACCORDO
100
AcDbLine
 62
7
  6
CONTINUOUS
 10
-21.5907955017
 20
-12.7907762394
 11
14.5573663647
 21
-33.6622718582
  0
LINE
  5
35C
100
AcDbEntity
  8
RACCORDO
100
AcDbLine
 62
7
  6
CONTINUOUS
 10
12.6501375487
 20
-30.4952914215
 11
-19.6858500215
 21
-11.8248974636
  0
LINE
  5
35D
100
AcDbEntity
  8
RACCORDO
100
AcDbLine
 62
7
  6
CONTINUOUS
 10
12.7897152853
 20
-30.184530654
 11
-19.5462789675
 21
-11.5141328376
  0
LINE
  5
35E
100
AcDbEntity
  8
RACCORDO
100
AcDbLine
 62
7
  6
CONTINUOUS
 10
-18.1388521619
 20
-10.7408475192
 11
12.9609473977
 21
-28.6974820129
  0
LINE
  5
35F
100
AcDbEntity
  8
RACCORDO
100
AcDbLine
 62
7
  6
CONTINUOUS
 10
-18.0241001381
 20
-10.6500337237
 11
12.9609473977
 21
-28.540411837
  0
LINE
  5
360
100
AcDbEntity
  8
RACCORDO
100
AcDbLine
 62
7
  6
CONTINUOUS
 10
12.9609473977
 20
-28.2360551027
 11
-17.7605360184
 21
-10.4978556088
  0
LINE
  5
361
100
AcDbEntity
  8
RACCORDO
100
AcDbLine
 62
7
  6
CONTINUOUS
 10
-16.9789659881
 20
-10.0462810189
 11
12.9609473977
 21
-27.3332117726
  0
LINE
  5
362
100
AcDbEntity
  8
0
100
AcDbLine
 62
7
  6
CONTINUOUS
 10
5.9908911002
 20
-23.2788084153
 11
6.1695066659
 21
-23.3819388043
  0
LINE
  5
363
100
AcDbEntity
  8
0
100
AcDbLine
 62
7
  6
CONTINUOUS
 10
12.9609473977
 20
-27.1401190034
 11
9.6343298937
 21
-25.2193717489
  0
LINE
  5
364
100
AcDbEntity
  8
SUPERFICI
100
AcDbLine
 62
7
  6
CONTINUOUS
 10
4.3310290348
 20
-22.157312299
 11
-6.275572683
 21
-16.0331933991
  0
LINE
  5
365
100
AcDbEntity
  8
0
100
AcDbLine
 62
7
  6
CONTINUOUS
 10
-11.5788735419
 20
-12.9711339491
 11
-17.1860283835
 21
-9.7336330177
  0
LINE
  5
366
100
AcDbEntity
  8
SUPERFICI
100
AcDbLine
 62
7
  6
CONTINUOUS
 10
-10.8010560826
 20
-13.3921559109
 11
-9.9488257307
 21
-13.8842230351
  0
LINE
  5
367
100
AcDbEntity
  8
SUPERFICI
100
AcDbLine
 62
7
  6
CONTINUOUS
 10
-10.8010560826
 20
-13.2949191713
 11
-9.8025206972
 21
-13.8714609883
  0
LINE
  5
368
100
AcDbEntity
  8
SUPERFICI
100
AcDbLine
 62
7
  6
CONTINUOUS
 10
-17.7268464109
 20
-9.094830702
 11
-17.6773038065
 21
-9.1234359808
  0
LINE
  5
369
100
AcDbEntity
  8
DRAFT
100
AcDbLine
 62
7
  6
CONTINUOUS
 10
-17.5185180789
 20
-9.1334422238
 11
-17.1908073028
 21
-9.3226583187
  0
LINE
  5
36A
100
AcDbEntity
  8
SUPERFICI
100
AcDbLine
 62
7
  6
CONTINUOUS
 10
12.9609473977
 20
-26.4868796541
 11
10.2000153186
 21
-24.8927520743
  0
LINE
  5
36B
100
AcDbEntity
  8
SUPERFICI
100
AcDbLine
 62
7
  6
CONTINUOUS
 10
4.8967144597
 20
-21.8306926243
 11
-5.7098872581
 21
-15.7065737244
  0
LINE
  5
36C
100
AcDbEntity
  8
SUPERFICI
100
AcDbLine
 62
7
  6
CONTINUOUS
 10
-11.013188117
 20
-12.6445142744
 11
-16.6700746801
 21
-9.3782988703
  0
LINE
  5
36D
100
AcDbEntity
  8
SUPERFICI
100
AcDbLine
 62
7
  6
CONTINUOUS
 10
-16.7990165582
 20
-8.7322650153
 11
-16.1837397496
 21
-9.0875181333
  0
LINE
  5
36E
100
AcDbEntity
  8
SUPERFICI
100
AcDbLine
 62
7
  6
CONTINUOUS
 10
-16.709608742
 20
-8.6824133095
 11
-16.0337325016
 21
-9.07265578
  0
LWPOLYLINE
  5
36F
100
AcDbEntity
  8
RACCORDO
100
AcDbPolyline
 62
7
  6
CONTINUOUS
 90
3
 70
0
 10
-21.6048061469
 20
-12.877293198
 10
-21.5579518648
 20
-12.9101929671
 10
-21.5285067427
 20
-12.9281801742
  0
LINE
  5
370
100
AcDbEntity
  8
0
100
AcDbLine
 62
7
  6
CONTINUOUS
 10
-15.0613744393
 20
-57.6416652396
 11
-15.0613744393
 21
-53.0285963392
  0
LINE
  5
371
100
AcDbEntity
  8
0
100
AcDbLine
 62
7
  6
CONTINUOUS
 10
-15.0613744393
 20
76.6676952929
 11
-15.0613744393
 21
81.2807641932
  0
LINE
  5
372
100
AcDbEntity
  8
0
100
AcDbLine
 62
7
  6
CONTINUOUS
 10
-15.0260191002
 20
81.3011779229
 11
-15.0260191002
 21
76.8105914005
  0
LINE
  5
373
100
AcDbEntity
  8
0
100
AcDbLine
 62
7
  6
CONTINUOUS
 10
-15.0260191002
 20
-57.4987691319
 11
-15.0260191002
 21
-53.0081826095
  0
LINE
  5
374
100
AcDbEntity
  8
0
100
AcDbLine
 62
7
  6
CONTINUOUS
 10
-14.8138870659
 20
81.3011779229
 11
-14.8138870659
 21
76.8105914005
  0
LINE
  5
375
100
AcDbEntity
  8
0
100
AcDbLine
 62
7
  6
CONTINUOUS
 10
-14.8138870659
 20
-57.4987691319
 11
-14.8138870659
 21
-53.0081826095
  0
LINE
  5
376
100
AcDbEntity
  8
0
100
AcDbLine
 62
7
  6
CONTINUOUS
 10
-14.7078210487
 20
-57.4375279429
 11
-14.7078210487
 21
-52.8244590425
  0
LINE
  5
377
100
AcDbEntity
  8
0
100
AcDbLine
 62
7
  6
CONTINUOUS
 10
-14.7078210487
 20
76.8718325895
 11
-14.7078210487
 21
81.4266463453
  0
LINE
  5
378
100
AcDbEntity
  8
0
100
AcDbLine
 62
7
  6
CONTINUOUS
 10
-14.6901433792
 20
-52.6015767297
 11
-14.6901433792
 21
-57.5175141481
  0
LINE
  5
379
100
AcDbEntity
  8
0
100
AcDbLine
 62
7
  6
CONTINUOUS
 10
-14.6901433792
 20
76.7918463844
 11
-14.6901433792
 21
81.4164394805
  0
LINE
  5
37A
100
AcDbEntity
  8
SUPERFICI
100
AcDbLine
 62
7
  6
CONTINUOUS
 10
-14.6383795701
 20
23.4171620536
 11
-14.6383795701
 21
19.0158731273
  0
LINE
  5
37B
100
AcDbEntity
  8
0
100
AcDbLine
 62
7
  6
CONTINUOUS
 10
-14.6383795701
 20
5.3974817986
 11
-14.6383795701
 21
0.6452919013
  0
LINE
  5
37C
100
AcDbEntity
  8
0
100
AcDbLine
 62
7
  6
CONTINUOUS
 10
-14.6383795701
 20
-34.5522275987
 11
-14.6383795701
 21
-38.953516525
  0
LINE
  5
37D
100
AcDbEntity
  8
0
100
AcDbLine
 62
7
  6
CONTINUOUS
 10
-14.6383795701
 20
58.6146816651
 11
-14.6383795701
 21
63.3668715661
  0
LINE
  5
37E
100
AcDbEntity
  8
0
100
AcDbLine
 62
7
  6
CONTINUOUS
 10
-14.6315647354
 20
81.3826169057
 11
-14.6315647354
 21
76.9219559137
  0
LINE
  5
37F
100
AcDbEntity
  8
0
100
AcDbLine
 62
7
  6
CONTINUOUS
 10
-14.6315647354
 20
-52.5683764217
 11
-14.6315647354
 21
-57.3874209698
  0
LINE
  5
380
100
AcDbEntity
  8
0
100
AcDbLine
 62
7
  6
CONTINUOUS
 10
-10.8010560826
 20
44.9574519168
 11
-10.8010560826
 21
44.3560608813
  0
LINE
  5
381
100
AcDbEntity
  8
RACCORDO
100
AcDbLine
 62
7
  6
CONTINUOUS
 10
-10.8010560826
 20
-71.5827184232
 11
-10.8010560826
 21
-70.9813273878
  0
LINE
  5
382
100
AcDbEntity
  8
SUPERFICI
100
AcDbLine
 62
7
  6
CONTINUOUS
 10
-10.8010560826
 20
-13.6133287709
 11
-10.8010560826
 21
-13.0119377355
  0
LINE
  5
383
100
AcDbEntity
  8
0
100
AcDbLine
 62
7
  6
CONTINUOUS
 10
-9.7403959108
 20
-72.1651501067
 11
-9.7403959108
 21
-71.978171699
  0
LINE
  5
384
100
AcDbEntity
  8
0
100
AcDbLine
 62
7
  6
CONTINUOUS
 10
-9.7403959108
 20
-14.0087820467
 11
-9.7403959108
 21
-14.2257406609
  0
LINE
  5
385
100
AcDbEntity
  8
0
100
AcDbLine
 62
7
  6
CONTINUOUS
 10
-9.7403959108
 20
43.7436489914
 11
-9.7403959108
 21
43.9606076056
  0
LINE
  5
386
100
AcDbEntity
  8
0
100
AcDbLine
 62
7
  6
CONTINUOUS
 10
12.4715780635
 20
32.3324581366
 11
12.6662519549
 21
32.5751402393
  0
LINE
  5
387
100
AcDbEntity
  8
0
100
AcDbLine
 62
7
  6
CONTINUOUS
 10
-14.7534526354
 20
0.4974243366
 11
-17.1908073028
 21
-1.0573661763
  0
LINE
  5
388
100
AcDbEntity
  8
SUPERFICI
100
AcDbLine
 62
7
  6
CONTINUOUS
 10
-17.1908073028
 20
-1.7866805643
 11
-16.9994139397
 21
-1.6722460467
  0
LINE
  5
389
100
AcDbEntity
  8
SUPERFICI
100
AcDbLine
 62
7
  6
CONTINUOUS
 10
-15.9668546393
 20
5.2492975343
 11
-16.4579103321
 21
4.9669796286
  0
LINE
  5
38A
100
AcDbEntity
  8
SUPERFICI
100
AcDbLine
 62
7
  6
CONTINUOUS
 10
-16.1572017233
 20
5.1861587582
 11
-16.4579103321
 21
5.013389388
  0
LINE
  5
38B
100
AcDbEntity
  8
SUPERFICI
100
AcDbLine
 62
7
  6
CONTINUOUS
 10
-15.1010850084
 20
5.6131845608
 11
-16.4579103321
 21
4.8432495045
  0
LINE
  5
38C
100
AcDbEntity
  8
SUPERFICI
100
AcDbLine
 62
7
  6
CONTINUOUS
 10
-17.0334698329
 20
2.5886297944
 11
-16.4579103321
 21
2.9095483014
  0
LINE
  5
38D
100
AcDbEntity
  8
SUPERFICI
100
AcDbLine
 62
7
  6
CONTINUOUS
 10
-17.0968986818
 20
2.4505797317
 11
-16.521339181
 21
2.7714982387
  0
LINE
  5
38E
100
AcDbEntity
  8
RACCORDO
100
AcDbLine
 62
7
  6
CONTINUOUS
 10
15.2584122086
 20
24.4695706113
 11
16.6651053286
 21
25.2260446489
  0
LINE
  5
38F
100
AcDbEntity
  8
RACCORDO
100
AcDbLine
 62
7
  6
CONTINUOUS
 10
15.1057673702
 20
24.1449161962
 11
16.5139932707
 21
24.9022145135
  0
LINE
  5
390
100
AcDbEntity
  8
0
100
AcDbLine
 62
7
  6
CONTINUOUS
 10
-14.7534526354
 20
5.4124659854
 11
-16.4579103321
 21
4.5314759037
  0
LINE
  5
391
100
AcDbEntity
  8
0
100
AcDbLine
 62
7
  6
CONTINUOUS
 10
-6.7613541273
 20
-12.9981162507
 11
-2.6457043634
 21
-15.3744408431
  0
LINE
  5
392
100
AcDbEntity
  8
0
100
AcDbLine
 62
7
  6
CONTINUOUS
 10
9.1485484494
 20
-22.1842946005
 11
12.9609473977
 21
-24.3855259727
  0
LINE
  5
393
100
AcDbEntity
  8
SUPERFICI
100
AcDbLine
 62
7
  6
CONTINUOUS
 10
-16.7420196177
 20
-2.8866514694
 11
-17.1908073028
 21
-2.6275270846
  0
LINE
  5
394
100
AcDbEntity
  8
SUPERFICI
100
AcDbLine
 62
7
  6
CONTINUOUS
 10
-17.1908073028
 20
-1.321048386
 11
-17.0030838454
 21
-1.4294375576
  0
LINE
  5
395
100
AcDbEntity
  8
0
100
AcDbLine
 62
7
  6
CONTINUOUS
 10
-2.690258329
 20
-15.4815994331
 11
-2.690258329
 21
-15.8829977897
  0
LINE
  5
396
100
AcDbEntity
  8
ASSI
100
AcDbLine
 62
7
  6
CONTINUOUS
 10
-2.690258329
 20
-73.3695658465
 11
-2.690258329
 21
-73.8523874419
  0
LINE
  5
397
100
AcDbEntity
  8
0
100
AcDbLine
 62
7
  6
CONTINUOUS
 10
-2.690258329
 20
42.0863918626
 11
-2.690258329
 21
42.4877902192
  0
LINE
  5
398
100
AcDbEntity
  8
0
100
AcDbLine
 62
7
  6
CONTINUOUS
 10
-2.6388872941
 20
42.5650597444
 11
-2.6388872941
 21
42.1168945194
  0
LINE
  5
399
100
AcDbEntity
  8
SUPERFICI
100
AcDbLine
 62
7
  6
CONTINUOUS
 10
-2.6388872941
 20
-15.4043299079
 11
-2.6388872941
 21
-15.8524637251
  0
LINE
  5
39A
100
AcDbEntity
  8
ASSI
100
AcDbLine
 62
7
  6
CONTINUOUS
 10
-2.6388872941
 20
-73.3402866962
 11
-2.6388872941
 21
-73.8218533773
  0
LINE
  5
39B
100
AcDbEntity
  8
RACCORDO
100
AcDbLine
 62
7
  6
CONTINUOUS
 10
12.7897152853
 20
27.7848589983
 11
12.9609473977
 21
28.1100077418
  0
LINE
  5
39C
100
AcDbEntity
  8
RACCORDO
100
AcDbLine
 62
7
  6
CONTINUOUS
 10
12.9573926003
 20
27.7854717806
 11
12.9573336699
 21
27.7853599921
  0
LINE
  5
39D
100
AcDbEntity
  8
DRAFT
100
AcDbLine
 62
7
  6
CONTINUOUS
 10
-17.1908073028
 20
-3.1991312427
 11
-17.7268464109
 21
-3.5428683292
  0
LINE
  5
39E
100
AcDbEntity
  8
DRAFT
100
AcDbLine
 62
7
  6
CONTINUOUS
 10
-17.1908073028
 20
-9.3226583187
 11
-17.7268464109
 21
-9.6663954052
  0
LINE
  5
39F
100
AcDbEntity
  8
SUPERFICI
100
AcDbLine
 62
7
  6
CONTINUOUS
 10
-16.1837397496
 20
-9.0875181333
 11
-16.6700746801
 21
-9.3782988703
  0
LINE
  5
3A0
100
AcDbEntity
  8
SUPERFICI
100
AcDbLine
 62
7
  6
CONTINUOUS
 10
-15.9679378095
 20
-9.4527853275
 11
-16.2495012184
 21
-9.6211327161
  0
LINE
  5
3A1
100
AcDbEntity
  8
RACCORDO
100
AcDbLine
 62
7
  6
CONTINUOUS
 10
14.7635128488
 20
9.0936925789
 11
16.1702059688
 21
9.9058968632
  0
LINE
  5
3A2
100
AcDbEntity
  8
RACCORDO
100
AcDbLine
 62
7
  6
CONTINUOUS
 10
-18.2361998637
 20
-10.282666223
 11
-17.1908073028
 21
-9.679361099
  0
LINE
  5
3A3
100
AcDbEntity
  8
RACCORDO
100
AcDbLine
 62
7
  6
CONTINUOUS
 10
-19.7456103233
 20
-11.1688710794
 11
-18.3684102465
 21
-10.3737622869
  0
LINE
  5
3A4
100
AcDbEntity
  8
RACCORDO
100
AcDbLine
 62
7
  6
CONTINUOUS
 10
-19.5462789675
 20
-11.5141328376
 11
-18.1690751903
 21
-10.719002368
  0
LINE
  5
3A5
100
AcDbEntity
  8
RACCORDO
100
AcDbLine
 62
7
  6
CONTINUOUS
 10
-18.0241001381
 20
-10.6500337237
 11
-16.9789659881
 21
-10.0462810189
  0
LINE
  5
3A6
100
AcDbEntity
  8
RACCORDO
100
AcDbLine
 62
7
  6
CONTINUOUS
 10
15.2584122086
 20
8.236501744
 11
16.6651053286
 21
9.0487060284
  0
LINE
  5
3A7
100
AcDbEntity
  8
SUPERFICI
100
AcDbLine
 62
7
  6
CONTINUOUS
 10
-16.7420196177
 20
-2.8866514694
 11
-17.1908073028
 21
-3.136884979
  0
LINE
  5
3A8
100
AcDbEntity
  8
SUPERFICI
100
AcDbLine
 62
7
  6
CONTINUOUS
 10
-16.5298552697
 20
-3.2540935879
 11
-17.4651394585
 21
-3.7755861618
  0
LINE
  5
3A9
100
AcDbEntity
  8
SUPERFICI
100
AcDbLine
 62
7
  6
CONTINUOUS
 10
-17.4651394585
 20
-9.0009959333
 11
-16.5298552697
 21
-8.4795033594
  0
LINE
  5
3AA
100
AcDbEntity
  8
SUPERFICI
100
AcDbLine
 62
7
  6
CONTINUOUS
 10
-17.5285683074
 20
-9.139045996
 11
-16.5932841186
 21
-8.6175534221
  0
LINE
  5
3AB
100
AcDbEntity
  8
0
100
AcDbLine
 62
7
  6
CONTINUOUS
 10
-15.1010850084
 20
5.6131845608
 11
-14.7534526354
 21
5.4124659854
  0
LINE
  5
3AC
100
AcDbEntity
  8
SUPERFICI
100
AcDbLine
 62
7
  6
CONTINUOUS
 10
-15.0489893278
 20
5.6424317522
 11
-14.6608492252
 21
5.4183245215
  0
LWPOLYLINE
  5
3AD
100
AcDbEntity
  8
RACCORDO
100
AcDbPolyline
 62
7
  6
CONTINUOUS
 90
10
 70
0
 10
-21.9303024749
 20
45.5776622071
 10
-21.9121331708
 20
45.5210704815
 10
-21.8903833939
 20
45.4657440542
 10
-21.8651618854
 20
45.4116546551
 10
-21.8366801853
 20
45.3591536812
 10
-21.8050875297
 20
45.3084518707
 10
-21.7704930143
 20
45.2597996062
 10
-21.7331027082
 20
45.2135710201
 10
-21.6928194413
 20
45.1698365657
 10
-21.6498407443
 20
45.1290850481
  0
LINE
  5
3AE
100
AcDbEntity
  8
RACCORDO
100
AcDbLine
 62
7
  6
CONTINUOUS
 10
5.1088464941
 20
-80.7688967731
 11
5.1088464941
 21
-80.1675057376
  0
LINE
  5
3AF
100
AcDbEntity
  8
0
100
AcDbLine
 62
7
  6
CONTINUOUS
 10
5.1088464941
 20
35.7712735669
 11
5.1088464941
 21
35.1698825315
  0
LINE
  5
3B0
100
AcDbEntity
  8
SUPERFICI
100
AcDbLine
 62
7
  6
CONTINUOUS
 10
5.1088464941
 20
-22.7995071208
 11
5.1088464941
 21
-22.1981160854
  0
LINE
  5
3B1
100
AcDbEntity
  8
0
100
AcDbLine
 62
7
  6
CONTINUOUS
 10
6.1695066659
 20
34.587450848
 11
6.1695066659
 21
34.5574706415
  0
LINE
  5
3B2
100
AcDbEntity
  8
0
100
AcDbLine
 62
7
  6
CONTINUOUS
 10
6.1695066659
 20
-23.3819388043
 11
6.1695066659
 21
-23.4119190108
  0
LINE
  5
3B3
100
AcDbEntity
  8
SUPERFICI
100
AcDbLine
 62
7
  6
CONTINUOUS
 10
-3.4383245132
 20
-16.4507531658
 11
-3.2436506218
 21
-16.2080710631
  0
LINE
  5
3B4
100
AcDbEntity
  8
SUPERFICI
100
AcDbLine
 62
7
  6
CONTINUOUS
 10
-11.5788735419
 20
-12.9711339491
 11
-11.013188117
 21
-12.6445142744
  0
LINE
  5
3B5
100
AcDbEntity
  8
SUPERFICI
100
AcDbLine
 62
7
  6
CONTINUOUS
 10
-11.3218424434
 20
-13.3126332532
 11
-10.8010560826
 21
-13.0119377355
  0
LINE
  5
3B6
100
AcDbEntity
  8
SUPERFICI
100
AcDbLine
 62
7
  6
CONTINUOUS
 10
-9.9488257307
 20
-13.8842230351
 11
-10.1437569139
 21
-13.9928450731
  0
LINE
  5
3B7
100
AcDbEntity
  8
0
100
AcDbLine
 62
7
  6
CONTINUOUS
 10
-6.9469463904
 20
-13.0238410953
 11
-9.5122253545
 21
-14.3574834805
  0
LINE
  5
3B8
100
AcDbEntity
  8
SUPERFICI
100
AcDbLine
 62
7
  6
CONTINUOUS
 10
-15.9668546393
 20
5.2492975343
 11
-15.6589847924
 21
5.2966024672
  0
LINE
  5
3B9
100
AcDbEntity
  8
SUPERFICI
100
AcDbLine
 62
7
  6
CONTINUOUS
 10
-17.1908073028
 20
15.8247090619
 11
-16.6700746801
 21
15.5240445719
  0
LINE
  5
3BA
100
AcDbEntity
  8
SUPERFICI
100
AcDbLine
 62
7
  6
CONTINUOUS
 10
-17.1650171133
 20
17.0346419097
 11
-17.1908073028
 21
17.0495328419
  0
LINE
  5
3BB
100
AcDbEntity
  8
SUPERFICI
100
AcDbLine
 62
7
  6
CONTINUOUS
 10
-17.7268464109
 20
20.6246873733
 11
-17.6773038065
 21
20.5960820944
  0
LINE
  5
3BC
100
AcDbEntity
  8
DRAFT
100
AcDbLine
 62
7
  6
CONTINUOUS
 10
-17.5185180789
 20
20.5860758515
 11
-17.1908073028
 21
20.3968597566
  0
LINE
  5
3BD
100
AcDbEntity
  8
RACCORDO
100
AcDbLine
 62
7
  6
CONTINUOUS
 10
12.9609473977
 20
65.1639070602
 11
12.9609473977
 21
27.8267277163
  0
LINE
  5
3BE
100
AcDbEntity
  8
RACCORDO
100
AcDbLine
 62
7
  6
CONTINUOUS
 10
12.9609473977
 20
7.1945174079
 11
12.9609473977
 21
-30.142661936
  0
LINE
  5
3BF
100
AcDbEntity
  8
RACCORDO
100
AcDbLine
 62
7
  6
CONTINUOUS
 10
12.9609473977
 20
-50.7748722444
 11
12.9609473977
 21
-88.1120515883
  0
LINE
  5
3C0
100
AcDbEntity
  8
RACCORDO
100
AcDbLine
 62
7
  6
CONTINUOUS
 10
13.0488153633
 20
65.0414246822
 11
13.0488153633
 21
27.7042453137
  0
LINE
  5
3C1
100
AcDbEntity
  8
RACCORDO
100
AcDbLine
 62
7
  6
CONTINUOUS
 10
13.0488153633
 20
7.0720350299
 11
13.0488153633
 21
-30.2651443385
  0
LINE
  5
3C2
100
AcDbEntity
  8
RACCORDO
100
AcDbLine
 62
7
  6
CONTINUOUS
 10
13.0488153633
 20
-50.8973546224
 11
13.0488153633
 21
-88.2345339908
  0
LINE
  5
3C3
100
AcDbEntity
  8
RACCORDO
100
AcDbLine
 62
7
  6
CONTINUOUS
 10
14.8378826631
 20
-91.4670897357
 11
14.8378826631
 21
-49.7281324617
  0
LINE
  5
3C4
100
AcDbEntity
  8
RACCORDO
100
AcDbLine
 62
7
  6
CONTINUOUS
 10
14.8378826631
 20
-33.4977000834
 11
14.8378826631
 21
8.2412571906
  0
LINE
  5
3C5
100
AcDbEntity
  8
RACCORDO
100
AcDbLine
 62
7
  6
CONTINUOUS
 10
14.8378826631
 20
24.4716895689
 11
14.8378826631
 21
66.2106468429
  0
LINE
  5
3C6
100
AcDbEntity
  8
RACCORDO
100
AcDbLine
 62
7
  6
CONTINUOUS
 10
15.2584122086
 20
-91.4692086933
 11
15.2584122086
 21
-49.7328879083
  0
LINE
  5
3C7
100
AcDbEntity
  8
RACCORDO
100
AcDbLine
 62
7
  6
CONTINUOUS
 10
15.2584122086
 20
-33.499819041
 11
15.2584122086
 21
8.236501744
  0
LINE
  5
3C8
100
AcDbEntity
  8
RACCORDO
100
AcDbLine
 62
7
  6
CONTINUOUS
 10
15.2584122086
 20
24.4695706113
 11
15.2584122086
 21
66.2058913963
  0
LINE
  5
3C9
100
AcDbEntity
  8
RACCORDO
100
AcDbLine
 62
7
  6
CONTINUOUS
 10
16.6651053286
 20
-90.7127346557
 11
16.6651053286
 21
-48.9206836239
  0
LINE
  5
3CA
100
AcDbEntity
  8
RACCORDO
100
AcDbLine
 62
7
  6
CONTINUOUS
 10
16.6651053286
 20
-32.7433450034
 11
16.6651053286
 21
9.0487060284
  0
LINE
  5
3CB
100
AcDbEntity
  8
RACCORDO
100
AcDbLine
 62
7
  6
CONTINUOUS
 10
16.6651053286
 20
25.2260446489
 11
16.6651053286
 21
67.0180956807
  0
LWPOLYLINE
  5
3CC
100
AcDbEntity
  8
RACCORDO
100
AcDbPolyline
 62
7
  6
CONTINUOUS
 90
6
 70
0
 10
12.9609472234
 20
27.8267137541
 10
12.9605350815
 20
27.8117984983
 10
12.9594648718
 20
27.7996338708
 10
12.9580730346
 20
27.7906223294
 10
12.9568095609
 20
27.7850633099
 10
12.9566099387
 20
27.784349915
  0
LWPOLYLINE
  5
3CD
100
AcDbEntity
  8
RACCORDO
100
AcDbPolyline
 62
7
  6
CONTINUOUS
 90
6
 70
0
 10
12.9609472234
 20
-30.1426758982
 10
12.9605350815
 20
-30.157591154
 10
12.9594648718
 20
-30.1697557815
 10
12.9580730346
 20
-30.1787673229
 10
12.9568095609
 20
-30.1843263424
 10
12.9566099387
 20
-30.1850397372
  0
LWPOLYLINE
  5
3CE
100
AcDbEntity
  8
RACCORDO
100
AcDbPolyline
 62
7
  6
CONTINUOUS
 90
6
 70
0
 10
12.9609472234
 20
-88.1120655505
 10
12.9605350815
 20
-88.1269808062
 10
12.9594648718
 20
-88.1391454338
 10
12.9580730346
 20
-88.1481569752
 10
12.9568095609
 20
-88.1537159947
 10
12.9566099387
 20
-88.1544293895
  0
LWPOLYLINE
  5
3CF
100
AcDbEntity
  8
RACCORDO
100
AcDbPolyline
 62
7
  6
CONTINUOUS
 90
13
 70
0
 10
-21.7397432385
 20
-27.9752917252
 10
-21.7650297294
 20
-27.9921654425
 10
-21.7959137715
 20
-28.01656376
 10
-21.8250948908
 20
-28.0442750563
 10
-21.8522617563
 20
-28.0752833439
 10
-21.8770299813
 20
-28.109426023
 10
-21.8990104611
 20
-28.1464088965
 10
-21.9179817579
 20
-28.1860984997
 10
-21.9337196913
 20
-28.2282806956
 10
-21.9460147035
 20
-28.2725555382
 10
-21.9547759911
 20
-28.3187178256
 10
-21.9599379417
 20
-28.3667111171
 10
-21.9614530608
 20
-28.4115186472
  0
LINE
  5
3D0
100
AcDbEntity
  8
0
100
AcDbLine
 62
7
  6
CONTINUOUS
 10
-2.690258329
 20
-15.4815994331
 11
-4.305557539
 21
-16.5174161038
  0
LINE
  5
3D1
100
AcDbEntity
  8
RACCORDO
100
AcDbLine
 62
7
  6
CONTINUOUS
 10
-21.7399382602
 20
-27.9754050325
 11
-20.3799887542
 21
-27.1343918583
  0
LINE
  5
3D2
100
AcDbEntity
  8
RACCORDO
100
AcDbLine
 62
7
  6
CONTINUOUS
 10
-21.3823656818
 20
-28.0055198241
 11
-20.0239379262
 21
-27.1654477232
  0
LINE
  5
3D3
100
AcDbEntity
  8
SUPERFICI
100
AcDbLine
 62
7
  6
CONTINUOUS
 10
-2.690258329
 20
-15.8829977897
 11
-4.0356075961
 21
-16.6732818176
  0
LINE
  5
3D4
100
AcDbEntity
  8
SUPERFICI
100
AcDbLine
 62
7
  6
CONTINUOUS
 10
-3.5881485449
 20
-16.584008115
 11
-3.8884442921
 21
-16.7582520649
  0
LINE
  5
3D5
100
AcDbEntity
  8
SUPERFICI
100
AcDbLine
 62
7
  6
CONTINUOUS
 10
-3.4383245132
 20
-16.4507531658
 11
-3.9286193092
 21
-16.7350555135
  0
LINE
  5
3D6
100
AcDbEntity
  8
SUPERFICI
100
AcDbLine
 62
7
  6
CONTINUOUS
 10
-5.8598945061
 20
-15.6917113711
 11
-6.4255799311
 21
-16.0183310458
  0
LINE
  5
3D7
100
AcDbEntity
  8
SUPERFICI
100
AcDbLine
 62
7
  6
CONTINUOUS
 10
-5.7098872581
 20
-15.7065737244
 11
-6.275572683
 21
-16.0331933991
  0
LINE
  5
3D8
100
AcDbEntity
  8
RACCORDO
100
AcDbLine
 62
7
  6
CONTINUOUS
 10
-19.6237252352
 20
26.2956381595
 11
12.7122623138
 21
7.6252442139
  0
LINE
  5
3D9
100
AcDbEntity
  8
RACCORDO
100
AcDbLine
 62
7
  6
CONTINUOUS
 10
-19.6858500215
 20
26.4329592179
 11
12.6501375487
 21
7.76256526
  0
LINE
  5
3DA
100
AcDbEntity
  8
RACCORDO
100
AcDbLine
 62
7
  6
CONTINUOUS
 10
14.5550830289
 20
8.7284440358
 11
-21.5930788454
 21
29.5999396591
  0
LINE
  5
3DB
100
AcDbEntity
  8
RACCORDO
100
AcDbLine
 62
7
  6
CONTINUOUS
 10
14.7635128488
 20
9.0936925789
 11
-21.3823656818
 21
29.9638698282
  0
LINE
  5
3DC
100
AcDbEntity
  8
RACCORDO
100
AcDbLine
 62
7
  6
CONTINUOUS
 10
16.1702059688
 20
9.9058968632
 11
-20.0239379262
 21
30.8039419291
  0
LWPOLYLINE
  5
3DD
100
AcDbEntity
  8
RACCORDO
100
AcDbPolyline
 62
7
  6
CONTINUOUS
 90
21
 70
0
 10
12.7123426606
 20
7.6251976702
 10
12.7254805276
 20
7.6171607903
 10
12.7433613708
 20
7.6048209861
 10
12.7619271457
 20
7.590323718
 10
12.7808126837
 20
7.5737888556
 10
12.7997285576
 20
7.5553367983
 10
12.8184043902
 20
7.5351228848
 10
12.8366264185
 20
7.5132882908
 10
12.854156987
 20
7.4900470615
 10
12.870768913
 20
7.4656503176
 10
12.8863310758
 20
7.4402551249
 10
12.9006561559
 20
7.4141586587
 10
12.9135917792
 20
7.3876688802
 10
12.925075309
 20
7.3609540267
 10
12.9350015242
 20
7.3343333011
 10
12.9432993931
 20
7.3081509808
 10
12.9499668016
 20
7.282631132
 10
12.9550103083
 20
7.2580466046
 10
12.9584593487
 20
7.2347326934
 10
12.9603903718
 20
7.2130621762
 10
12.9609468985
 20
7.1946278654
  0
LINE
  5
3DE
100
AcDbEntity
  8
RACCORDO
100
AcDbLine
 62
7
  6
CONTINUOUS
 10
12.7897152853
 20
-30.184530654
 11
12.9609473977
 21
-29.8593819105
  0
LINE
  5
3DF
100
AcDbEntity
  8
DRAFT
100
AcDbLine
 62
7
  6
CONTINUOUS
 10
-17.1908073028
 20
-37.5725298957
 11
-17.7268464109
 21
-37.9162669822
  0
LINE
  5
3E0
100
AcDbEntity
  8
0
100
AcDbLine
 62
7
  6
CONTINUOUS
 10
-14.7534526354
 20
-39.1013840879
 11
-17.1908073028
 21
-40.6561746008
  0
LINE
  5
3E1
100
AcDbEntity
  8
SUPERFICI
100
AcDbLine
 62
7
  6
CONTINUOUS
 10
4.3310290348
 20
-22.157312299
 11
4.8967144597
 21
-21.8306926243
  0
LINE
  5
3E2
100
AcDbEntity
  8
SUPERFICI
100
AcDbLine
 62
7
  6
CONTINUOUS
 10
4.5880601333
 20
-22.4988116031
 11
5.1088464941
 21
-22.1981160854
  0
LINE
  5
3E3
100
AcDbEntity
  8
0
100
AcDbLine
 62
7
  6
CONTINUOUS
 10
6.1695066659
 20
-23.3819388043
 11
6.1435447181
 21
-23.3969289076
  0
LINE
  5
3E4
100
AcDbEntity
  8
0
100
AcDbLine
 62
7
  6
CONTINUOUS
 10
-15.9668546393
 20
-34.3495108901
 11
-16.5298552697
 21
-34.6731914039
  0
LINE
  5
3E5
100
AcDbEntity
  8
0
100
AcDbLine
 62
7
  6
CONTINUOUS
 10
-16.1572017233
 20
-34.4126496662
 11
-16.5298552697
 21
-34.6267543398
  0
LINE
  5
3E6
100
AcDbEntity
  8
0
100
AcDbLine
 62
7
  6
CONTINUOUS
 10
-15.362644007
 20
-34.13404639
 11
-16.5298552697
 21
-34.7963843148
  0
LINE
  5
3E7
100
AcDbEntity
  8
RACCORDO
100
AcDbLine
 62
7
  6
CONTINUOUS
 10
-17.4651394585
 20
-37.2508675103
 11
-16.5298552697
 21
-36.7293749364
  0
LINE
  5
3E8
100
AcDbEntity
  8
RACCORDO
100
AcDbLine
 62
7
  6
CONTINUOUS
 10
-17.5285683074
 20
-37.388917573
 11
-16.5932841186
 21
-36.8674249991
  0
LINE
  5
3E9
100
AcDbEntity
  8
SUPERFICI
100
AcDbLine
 62
7
  6
CONTINUOUS
 10
5.9640085553
 20
-23.2932669773
 11
5.9908911002
 21
-23.2788084153
  0
LINE
  5
3EA
100
AcDbEntity
  8
0
100
AcDbLine
 62
7
  6
CONTINUOUS
 10
8.9629561863
 20
-22.2100194452
 11
6.3976772222
 21
-23.5436618304
  0
LINE
  5
3EB
100
AcDbEntity
  8
0
100
AcDbLine
 62
7
  6
CONTINUOUS
 10
-15.027101474
 20
-34.3277844432
 11
-16.5298552697
 21
-35.1045189975
  0
LINE
  5
3EC
100
AcDbEntity
  8
RACCORDO
100
AcDbLine
 62
7
  6
CONTINUOUS
 10
-19.3784876162
 20
26.1540410319
 11
-19.7456103233
 21
26.1683061866
  0
LWPOLYLINE
  5
3ED
100
AcDbEntity
  8
RACCORDO
100
AcDbPolyline
 62
7
  6
CONTINUOUS
 90
9
 70
0
 10
-19.6612654413
 20
26.3131897364
 10
-19.6625045178
 20
26.3132561425
 10
-19.6641340893
 20
26.3134156152
 10
-19.6622773144
 20
26.3129948155
 10
-19.6572756265
 20
26.3114924617
 10
-19.6492757654
 20
26.3084681097
 10
-19.6387382151
 20
26.3036792662
 10
-19.6266615925
 20
26.2973107998
 10
-19.6237659215
 20
26.2956614613
  0
LWPOLYLINE
  5
3EE
100
AcDbEntity
  8
RACCORDO
100
AcDbPolyline
 62
7
  6
CONTINUOUS
 90
3
 70
0
 10
-21.6048061469
 20
45.0920964542
 10
-21.5579518648
 20
45.0591966851
 10
-21.5285067427
 20
45.0412094781
  0
LINE
  5
3EF
100
AcDbEntity
  8
RACCORDO
100
AcDbLine
 62
7
  6
CONTINUOUS
 10
-21.6498407443
 20
45.1290850481
 11
-21.6048061469
 21
45.0920964542
  0
LINE
  5
3F0
100
AcDbEntity
  8
SMUSSO
100
AcDbLine
 62
7
  6
CONTINUOUS
 10
31.0950207027
 20
-115.9393302918
 11
31.0950207027
 21
75.5813867414
  0
LINE
  5
3F1
100
AcDbEntity
  8
SMUSSO
100
AcDbLine
 62
7
  6
CONTINUOUS
 10
32.5092342651
 20
-116.2775233537
 11
32.5092342651
 21
75.9195798033
  0
LINE
  5
3F2
100
AcDbEntity
  8
RACCORDO
100
AcDbLine
 62
7
  6
CONTINUOUS
 10
12.9573926003
 20
-30.1839178717
 11
12.9573336699
 21
-30.1840296602
  0
LINE
  5
3F3
100
AcDbEntity
  8
ASSI
100
AcDbLine
 62
7
  6
CONTINUOUS
 10
-9.2277434945
 20
-72.4407354572
 11
-9.1216774773
 21
-72.2570237267
  0
LINE
  5
3F4
100
AcDbEntity
  8
ASSI
100
AcDbLine
 62
7
  6
CONTINUOUS
 10
-8.8741901039
 20
-72.2365981606
 11
-8.7681240867
 21
-72.05288643
  0
LINE
  5
3F5
100
AcDbEntity
  8
ASSI
100
AcDbLine
 62
7
  6
CONTINUOUS
 10
-8.5206367133
 20
-72.0324608639
 11
-8.4145706961
 21
-71.8487491334
  0
LINE
  5
3F6
100
AcDbEntity
  8
ASSI
100
AcDbLine
 62
7
  6
CONTINUOUS
 10
-8.1670833227
 20
-71.8283235672
 11
-8.0610173055
 21
-71.6446118367
  0
LINE
  5
3F7
100
AcDbEntity
  8
ASSI
100
AcDbLine
 62
7
  6
CONTINUOUS
 10
-7.8135299321
 20
-71.6241862706
 11
-7.7074639149
 21
-71.44047454
  0
LINE
  5
3F8
100
AcDbEntity
  8
ASSI
100
AcDbLine
 62
7
  6
CONTINUOUS
 10
-7.4599765415
 20
-71.4200489739
 11
-7.3539105243
 21
-71.2363372434
  0
LINE
  5
3F9
100
AcDbEntity
  8
ASSI
100
AcDbLine
 62
7
  6
CONTINUOUS
 10
-7.1064231509
 20
-71.2159116772
 11
-7.0003571337
 21
-71.0321999467
  0
LINE
  5
3FA
100
AcDbEntity
  8
ASSI
100
AcDbLine
 62
7
  6
CONTINUOUS
 10
-4.6315494168
 20
-74.2779711272
 11
-4.5254833996
 21
-74.0942593967
  0
LINE
  5
3FB
100
AcDbEntity
  8
ASSI
100
AcDbLine
 62
7
  6
CONTINUOUS
 10
-4.2779960262
 20
-74.0738338305
 11
-4.171930009
 21
-73.8901221
  0
LINE
  5
3FC
100
AcDbEntity
  8
ASSI
100
AcDbLine
 62
7
  6
CONTINUOUS
 10
-3.9244426356
 20
-73.8696965339
 11
-3.8183766184
 21
-73.6859848033
  0
LINE
  5
3FD
100
AcDbEntity
  8
SUPERFICI
100
AcDbLine
 62
7
  6
CONTINUOUS
 10
12.4715780635
 20
-25.6369315157
 11
12.6662519549
 21
-25.394249413
  0
LINE
  5
3FE
100
AcDbEntity
  8
0
100
AcDbLine
 62
7
  6
CONTINUOUS
 10
12.9609473977
 20
-24.8336681073
 11
11.6043450376
 21
-25.7035944537
  0
LINE
  5
3FF
100
AcDbEntity
  8
RACCORDO
100
AcDbLine
 62
7
  6
CONTINUOUS
 10
-17.1908073028
 20
-41.1569354676
 11
-17.1650171133
 21
-41.140988588
  0
LINE
  5
400
100
AcDbEntity
  8
SUPERFICI
100
AcDbLine
 62
7
  6
CONTINUOUS
 10
12.9609473977
 20
-25.2211396435
 11
11.8742949806
 21
-25.8594601675
  0
LINE
  5
401
100
AcDbEntity
  8
SUPERFICI
100
AcDbLine
 62
7
  6
CONTINUOUS
 10
12.3217540318
 20
-25.7701864649
 11
12.0214582846
 21
-25.9444304148
  0
LINE
  5
402
100
AcDbEntity
  8
SUPERFICI
100
AcDbLine
 62
7
  6
CONTINUOUS
 10
12.4715780635
 20
-25.6369315157
 11
11.9812832675
 21
-25.9212338634
  0
LINE
  5
403
100
AcDbEntity
  8
SUPERFICI
100
AcDbLine
 62
7
  6
CONTINUOUS
 10
10.0500080706
 20
-24.877889721
 11
9.4843226456
 21
-25.2045093956
  0
LINE
  5
404
100
AcDbEntity
  8
SUPERFICI
100
AcDbLine
 62
7
  6
CONTINUOUS
 10
10.2000153186
 20
-24.8927520743
 11
9.6343298937
 21
-25.2193717489
  0
LINE
  5
405
100
AcDbEntity
  8
0
100
AcDbLine
 62
7
  6
CONTINUOUS
 10
-17.1650171133
 20
-40.9347477426
 11
-17.1908073028
 21
-40.9496386748
  0
LINE
  5
406
100
AcDbEntity
  8
RACCORDO
100
AcDbLine
 62
7
  6
CONTINUOUS
 10
-16.6700746801
 20
-42.4453450804
 11
-17.1908073028
 21
-42.7356934034
  0
LINE
  5
407
100
AcDbEntity
  8
RACCORDO
100
AcDbLine
 62
7
  6
CONTINUOUS
 10
-16.4579103321
 20
-42.812787199
 11
-17.0334698329
 21
-43.133705706
  0
LINE
  5
408
100
AcDbEntity
  8
SUPERFICI
100
AcDbLine
 62
7
  6
CONTINUOUS
 10
-15.9668546393
 20
23.6198787622
 11
-15.6589847924
 21
23.6671836951
  0
LINE
  5
409
100
AcDbEntity
  8
RACCORDO
100
AcDbLine
 62
7
  6
CONTINUOUS
 10
-19.6613754181
 20
26.3132008844
 11
-19.661249118
 21
26.3131960295
  0
LWPOLYLINE
  5
40A
100
AcDbEntity
  8
RACCORDO
100
AcDbPolyline
 62
7
  6
CONTINUOUS
 90
13
 70
0
 10
14.6172325076
 20
24.1711119273
 10
14.6571087278
 20
24.1498668044
 10
14.7012231434
 20
24.1303795896
 10
14.7455512564
 20
24.1149186517
 10
14.7900097072
 20
24.1034573821
 10
14.8343767472
 20
24.0960176078
 10
14.8782037798
 20
24.0926172011
 10
14.9211944103
 20
24.0931724339
 10
14.9631222948
 20
24.0975581043
 10
15.0035383569
 20
24.1055838212
 10
15.0421100532
 20
24.1169979945
 10
15.0786669745
 20
24.1315422532
 10
15.1058970062
 20
24.1449926325
  0
LINE
  5
40B
100
AcDbEntity
  8
RACCORDO
100
AcDbLine
 62
7
  6
CONTINUOUS
 10
-21.5286707295
 20
45.0412923627
 11
14.6172078149
 21
24.1711151055
  0
LINE
  5
40C
100
AcDbEntity
  8
RACCORDO
100
AcDbLine
 62
7
  6
CONTINUOUS
 10
-21.5907955017
 20
45.1786134129
 11
14.5573663647
 21
24.3071177941
  0
LINE
  5
40D
100
AcDbEntity
  8
RACCORDO
100
AcDbLine
 62
7
  6
CONTINUOUS
 10
12.6501375487
 20
27.4740982308
 11
-19.6858500215
 21
46.1444921887
  0
LINE
  5
40E
100
AcDbEntity
  8
RACCORDO
100
AcDbLine
 62
7
  6
CONTINUOUS
 10
12.7897152853
 20
27.7848589983
 11
-19.5462789675
 21
46.4552568146
  0
LINE
  5
40F
100
AcDbEntity
  8
RACCORDO
100
AcDbLine
 62
7
  6
CONTINUOUS
 10
-18.1388521619
 20
47.2285421331
 11
12.9609473977
 21
29.2719076394
  0
LINE
  5
410
100
AcDbEntity
  8
RACCORDO
100
AcDbLine
 62
7
  6
CONTINUOUS
 10
-18.0241001381
 20
47.3193559286
 11
12.9609473977
 21
29.4289778153
  0
LINE
  5
411
100
AcDbEntity
  8
RACCORDO
100
AcDbLine
 62
7
  6
CONTINUOUS
 10
12.9609473977
 20
29.7333345496
 11
-17.7605360184
 21
47.4715340435
  0
LINE
  5
412
100
AcDbEntity
  8
RACCORDO
100
AcDbLine
 62
7
  6
CONTINUOUS
 10
-16.9789659881
 20
47.9231086333
 11
12.9609473977
 21
30.6361778797
  0
LINE
  5
413
100
AcDbEntity
  8
0
100
AcDbLine
 62
7
  6
CONTINUOUS
 10
6.1695066659
 20
34.587450848
 11
5.9908911002
 21
34.690581237
  0
LINE
  5
414
100
AcDbEntity
  8
0
100
AcDbLine
 62
7
  6
CONTINUOUS
 10
-17.1860283835
 20
48.2357566346
 11
-11.5788735419
 21
44.9982557032
  0
LINE
  5
415
100
AcDbEntity
  8
0
100
AcDbLine
 62
7
  6
CONTINUOUS
 10
-6.275572683
 20
41.9361962532
 11
4.3310290348
 21
35.8120773533
  0
LINE
  5
416
100
AcDbEntity
  8
0
100
AcDbLine
 62
7
  6
CONTINUOUS
 10
9.6343298937
 20
32.7500179034
 11
12.9609473977
 21
30.8292706488
  0
LINE
  5
417
100
AcDbEntity
  8
0
100
AcDbLine
 62
7
  6
CONTINUOUS
 10
-9.9488257307
 20
44.0851666172
 11
-10.8010560826
 21
44.5772337414
  0
LINE
  5
418
100
AcDbEntity
  8
0
100
AcDbLine
 62
7
  6
CONTINUOUS
 10
-10.8010560826
 20
44.674470481
 11
-9.8025206972
 21
44.097928664
  0
LINE
  5
419
100
AcDbEntity
  8
0
100
AcDbLine
 62
7
  6
CONTINUOUS
 10
-17.7268464109
 20
48.8745589503
 11
-17.6773038065
 21
48.8459536715
  0
LINE
  5
41A
100
AcDbEntity
  8
DRAFT
100
AcDbLine
 62
7
  6
CONTINUOUS
 10
-17.5185180789
 20
48.8359474285
 11
-17.1908073028
 21
48.6467313336
  0
LINE
  5
41B
100
AcDbEntity
  8
SMUSSO
100
AcDbLine
 62
7
  6
CONTINUOUS
 10
34.9487526601
 20
-114.8689760068
 11
34.9487526601
 21
77.5673052126
  0
LINE
  5
41C
100
AcDbEntity
  8
ASSI
100
AcDbLine
 62
7
  6
CONTINUOUS
 10
-3.570889245
 20
-73.6655592372
 11
-3.4648232278
 21
-73.4818475067
  0
LINE
  5
41D
100
AcDbEntity
  8
ASSI
100
AcDbLine
 62
7
  6
CONTINUOUS
 10
-3.2173358544
 20
-73.4614219405
 11
-3.1112698372
 21
-73.27771021
  0
LINE
  5
41E
100
AcDbEntity
  8
0
100
AcDbLine
 62
7
  6
CONTINUOUS
 10
-14.6901433792
 20
-57.5175141481
 11
-17.1908073028
 21
-59.1126896867
  0
LINE
  5
41F
100
AcDbEntity
  8
0
100
AcDbLine
 62
7
  6
CONTINUOUS
 10
-14.7078210487
 20
-52.8244590425
 11
-15.0260191002
 21
-53.0081826095
  0
LINE
  5
420
100
AcDbEntity
  8
0
100
AcDbLine
 62
7
  6
CONTINUOUS
 10
-15.0613744393
 20
-53.0285963392
 11
-15.3795724908
 21
-53.2123199062
  0
LINE
  5
421
100
AcDbEntity
  8
0
100
AcDbLine
 62
7
  6
CONTINUOUS
 10
-15.4149278299
 20
-53.2327336359
 11
-15.7331258814
 21
-53.4164572029
  0
LINE
  5
422
100
AcDbEntity
  8
0
100
AcDbLine
 62
7
  6
CONTINUOUS
 10
-15.7684812205
 20
-53.4368709325
 11
-16.086679272
 21
-53.6205944995
  0
LINE
  5
423
100
AcDbEntity
  8
0
100
AcDbLine
 62
7
  6
CONTINUOUS
 10
-16.1220346111
 20
-53.6410082292
 11
-16.4402326626
 21
-53.8247317962
  0
LINE
  5
424
100
AcDbEntity
  8
0
100
AcDbLine
 62
7
  6
CONTINUOUS
 10
-16.2281006282
 20
-53.8247317962
 11
-16.1220346111
 21
-53.7634906072
  0
LINE
  5
425
100
AcDbEntity
  8
0
100
AcDbLine
 62
7
  6
CONTINUOUS
 10
-15.8745472376
 20
-53.6205944995
 11
-15.7684812205
 21
-53.5593533105
  0
LINE
  5
426
100
AcDbEntity
  8
0
100
AcDbLine
 62
7
  6
CONTINUOUS
 10
-15.520993847
 20
-53.4164572029
 11
-15.4149278299
 21
-53.3552160139
  0
LINE
  5
427
100
AcDbEntity
  8
0
100
AcDbLine
 62
7
  6
CONTINUOUS
 10
-15.1674404565
 20
-53.2123199062
 11
-15.0613744393
 21
-53.1510787172
  0
LINE
  5
428
100
AcDbEntity
  8
0
100
AcDbLine
 62
7
  6
CONTINUOUS
 10
-14.8138870659
 20
-53.0081826095
 11
-14.7078210487
 21
-52.9469414205
  0
LINE
  5
429
100
AcDbEntity
  8
0
100
AcDbLine
 62
7
  6
CONTINUOUS
 10
-15.9668546393
 20
-52.720092118
 11
-16.4579103321
 21
-53.0024100237
  0
LINE
  5
42A
100
AcDbEntity
  8
0
100
AcDbLine
 62
7
  6
CONTINUOUS
 10
-16.1572017233
 20
-52.783230894
 11
-16.4579103321
 21
-52.9560002643
  0
LINE
  5
42B
100
AcDbEntity
  8
0
100
AcDbLine
 62
7
  6
CONTINUOUS
 10
-15.1010850084
 20
-52.3562050915
 11
-16.4579103321
 21
-53.1261401478
  0
LINE
  5
42C
100
AcDbEntity
  8
RACCORDO
100
AcDbLine
 62
7
  6
CONTINUOUS
 10
-17.0334698329
 20
-55.3807598579
 11
-16.4579103321
 21
-55.0598413509
  0
LINE
  5
42D
100
AcDbEntity
  8
RACCORDO
100
AcDbLine
 62
7
  6
CONTINUOUS
 10
-17.0968986818
 20
-55.5188099206
 11
-16.521339181
 21
-55.1978914135
  0
LINE
  5
42E
100
AcDbEntity
  8
RACCORDO
100
AcDbLine
 62
7
  6
CONTINUOUS
 10
15.2584122086
 20
-33.499819041
 11
16.6651053286
 21
-32.7433450034
  0
LINE
  5
42F
100
AcDbEntity
  8
RACCORDO
100
AcDbLine
 62
7
  6
CONTINUOUS
 10
15.1057673702
 20
-33.8244734561
 11
16.5139932707
 21
-33.0671751388
  0
LINE
  5
430
100
AcDbEntity
  8
0
100
AcDbLine
 62
7
  6
CONTINUOUS
 10
-14.6901433792
 20
-52.6015767297
 11
-16.4579103321
 21
-53.5152897279
  0
LINE
  5
431
100
AcDbEntity
  8
0
100
AcDbLine
 62
7
  6
CONTINUOUS
 10
-16.6700746801
 20
48.591090782
 11
-11.013188117
 21
45.3248753778
  0
LINE
  5
432
100
AcDbEntity
  8
0
100
AcDbLine
 62
7
  6
CONTINUOUS
 10
-5.7098872581
 20
42.2628159279
 11
4.8967144597
 21
36.138697028
  0
LINE
  5
433
100
AcDbEntity
  8
0
100
AcDbLine
 62
7
  6
CONTINUOUS
 10
10.2000153186
 20
33.076637578
 11
12.9609473977
 21
31.4825099982
  0
LINE
  5
434
100
AcDbEntity
  8
0
100
AcDbLine
 62
7
  6
CONTINUOUS
 10
-16.1837397496
 20
48.881871519
 11
-16.7990165582
 21
49.237124637
  0
LINE
  5
435
100
AcDbEntity
  8
0
100
AcDbLine
 62
7
  6
CONTINUOUS
 10
-16.709608742
 20
49.2869763427
 11
-16.0337325016
 21
48.8967338723
  0
LINE
  5
436
100
AcDbEntity
  8
0
100
AcDbLine
 62
7
  6
CONTINUOUS
 10
12.9609473977
 20
33.5838636796
 11
9.1485483496
 21
35.7850951094
  0
LINE
  5
437
100
AcDbEntity
  8
0
100
AcDbLine
 62
7
  6
CONTINUOUS
 10
-2.64570446
 20
42.5949488649
 11
-6.7613542271
 21
44.9712734592
  0
LINE
  5
438
100
AcDbEntity
  8
0
100
AcDbLine
 62
7
  6
CONTINUOUS
 10
-17.1908073028
 20
55.3418625677
 11
-16.7420196177
 21
55.0827381829
  0
LINE
  5
439
100
AcDbEntity
  8
0
100
AcDbLine
 62
7
  6
CONTINUOUS
 10
-17.0030838454
 20
56.5399520947
 11
-17.1908073028
 21
56.6483412663
  0
LINE
  5
43A
100
AcDbEntity
  8
ASSI
100
AcDbLine
 62
7
  6
CONTINUOUS
 10
6.6821590822
 20
-81.6269138071
 11
6.7882250994
 21
-81.4432020766
  0
LINE
  5
43B
100
AcDbEntity
  8
ASSI
100
AcDbLine
 62
7
  6
CONTINUOUS
 10
7.0357124728
 20
-81.4227765104
 11
7.14177849
 21
-81.2390647799
  0
LINE
  5
43C
100
AcDbEntity
  8
ASSI
100
AcDbLine
 62
7
  6
CONTINUOUS
 10
7.3892658634
 20
-81.2186392138
 11
7.4953318806
 21
-81.0349274832
  0
LINE
  5
43D
100
AcDbEntity
  8
ASSI
100
AcDbLine
 62
7
  6
CONTINUOUS
 10
7.742819254
 20
-81.0145019171
 11
7.8488852712
 21
-80.8307901866
  0
LINE
  5
43E
100
AcDbEntity
  8
ASSI
100
AcDbLine
 62
7
  6
CONTINUOUS
 10
8.0963726446
 20
-80.8103646204
 11
8.2024386618
 21
-80.6266528899
  0
LINE
  5
43F
100
AcDbEntity
  8
ASSI
100
AcDbLine
 62
7
  6
CONTINUOUS
 10
8.4499260352
 20
-80.6062273238
 11
8.5559920524
 21
-80.4225155933
  0
LINE
  5
440
100
AcDbEntity
  8
ASSI
100
AcDbLine
 62
7
  6
CONTINUOUS
 10
8.8034794258
 20
-80.4020900271
 11
8.909545443
 21
-80.2183782966
  0
LINE
  5
441
100
AcDbEntity
  8
ASSI
100
AcDbLine
 62
7
  6
CONTINUOUS
 10
-3.4383245132
 20
-74.4201428181
 11
-3.2436506218
 21
-74.1774607154
  0
LINE
  5
442
100
AcDbEntity
  8
DRAFT
100
AcDbLine
 62
7
  6
CONTINUOUS
 10
-17.1908073028
 20
-61.168520895
 11
-17.7268464109
 21
-61.5122579815
  0
LINE
  5
443
100
AcDbEntity
  8
DRAFT
100
AcDbLine
 62
7
  6
CONTINUOUS
 10
-17.1908073028
 20
-67.292047971
 11
-17.7268464109
 21
-67.6357850574
  0
LINE
  5
444
100
AcDbEntity
  8
0
100
AcDbLine
 62
7
  6
CONTINUOUS
 10
-17.1908073028
 20
-59.7560702166
 11
-16.9994139397
 21
-59.6416356989
  0
LINE
  5
445
100
AcDbEntity
  8
0
100
AcDbLine
 62
7
  6
CONTINUOUS
 10
-16.1837397496
 20
-67.0569077856
 11
-16.6700746801
 21
-67.3476885226
  0
LINE
  5
446
100
AcDbEntity
  8
0
100
AcDbLine
 62
7
  6
CONTINUOUS
 10
-15.9679378095
 20
-67.4221749797
 11
-16.2495012184
 21
-67.5905223684
  0
LINE
  5
447
100
AcDbEntity
  8
0
100
AcDbLine
 62
7
  6
CONTINUOUS
 10
-17.1908073028
 20
-58.8711730869
 11
-17.1826947828
 21
-58.8664890195
  0
LINE
  5
448
100
AcDbEntity
  8
0
100
AcDbLine
 62
7
  6
CONTINUOUS
 10
-16.9352074094
 20
-58.7235929119
 11
-16.8291413922
 21
-58.6623517229
  0
LINE
  5
449
100
AcDbEntity
  8
0
100
AcDbLine
 62
7
  6
CONTINUOUS
 10
-16.5816540188
 20
-58.5194556152
 11
-16.4755880016
 21
-58.4582144262
  0
LINE
  5
44A
100
AcDbEntity
  8
0
100
AcDbLine
 62
7
  6
CONTINUOUS
 10
-16.2281006282
 20
-58.3153183185
 11
-16.1220346111
 21
-58.2540771295
  0
LINE
  5
44B
100
AcDbEntity
  8
0
100
AcDbLine
 62
7
  6
CONTINUOUS
 10
-15.8745472376
 20
-58.1111810219
 11
-15.7684812205
 21
-58.0499398329
  0
LINE
  5
44C
100
AcDbEntity
  8
0
100
AcDbLine
 62
7
  6
CONTINUOUS
 10
-15.520993847
 20
-57.9070437252
 11
-15.4149278299
 21
-57.8458025362
  0
LINE
  5
44D
100
AcDbEntity
  8
0
100
AcDbLine
 62
7
  6
CONTINUOUS
 10
-15.1674404565
 20
-57.7029064286
 11
-15.0613744393
 21
-57.6416652396
  0
LINE
  5
44E
100
AcDbEntity
  8
0
100
AcDbLine
 62
7
  6
CONTINUOUS
 10
-14.8138870659
 20
-57.4987691319
 11
-14.7078210487
 21
-57.4375279429
  0
LINE
  5
44F
100
AcDbEntity
  8
RACCORDO
100
AcDbLine
 62
7
  6
CONTINUOUS
 10
14.7635128488
 20
-48.8756970734
 11
16.1702059688
 21
-48.063492789
  0
LINE
  5
450
100
AcDbEntity
  8
RACCORDO
100
AcDbLine
 62
7
  6
CONTINUOUS
 10
-16.7420196177
 20
-60.8560411216
 11
-17.1908073028
 21
-61.1062746313
  0
LINE
  5
451
100
AcDbEntity
  8
RACCORDO
100
AcDbLine
 62
7
  6
CONTINUOUS
 10
-16.5298552697
 20
-61.2234832402
 11
-17.4651394585
 21
-61.7449758141
  0
LINE
  5
452
100
AcDbEntity
  8
0
100
AcDbLine
 62
7
  6
CONTINUOUS
 10
-14.7534526354
 20
63.3818556377
 11
-15.1010850084
 21
63.5825742131
  0
LINE
  5
453
100
AcDbEntity
  8
0
100
AcDbLine
 62
7
  6
CONTINUOUS
 10
-15.0489621437
 20
63.6118057088
 11
-14.6608492252
 21
63.3877141738
  0
LINE
  5
454
100
AcDbEntity
  8
RACCORDO
100
AcDbLine
 62
7
  6
CONTINUOUS
 10
12.7897152853
 20
-88.1539203063
 11
12.9609473977
 21
-87.8287715628
  0
LINE
  5
455
100
AcDbEntity
  8
RACCORDO
100
AcDbLine
 62
7
  6
CONTINUOUS
 10
12.9573926003
 20
-88.153307524
 11
12.9573336699
 21
-88.1534193125
  0
LINE
  5
456
100
AcDbEntity
  8
ASSI
100
AcDbLine
 62
7
  6
CONTINUOUS
 10
11.2783531599
 20
-83.4641494771
 11
11.3844191771
 21
-83.2804377466
  0
LINE
  5
457
100
AcDbEntity
  8
ASSI
100
AcDbLine
 62
7
  6
CONTINUOUS
 10
11.6319065505
 20
-83.2600121804
 11
11.7379725677
 21
-83.0763004499
  0
LINE
  5
458
100
AcDbEntity
  8
ASSI
100
AcDbLine
 62
7
  6
CONTINUOUS
 10
11.9854599411
 20
-83.0558748837
 11
12.0915259583
 21
-82.8721631532
  0
LINE
  5
459
100
AcDbEntity
  8
ASSI
100
AcDbLine
 62
7
  6
CONTINUOUS
 10
12.3390133317
 20
-82.8517375871
 11
12.4450793489
 21
-82.6680258566
  0
LINE
  5
45A
100
AcDbEntity
  8
ASSI
100
AcDbLine
 62
7
  6
CONTINUOUS
 10
12.6925667223
 20
-82.6476002904
 11
12.7986327395
 21
-82.4638885599
  0
LINE
  5
45B
100
AcDbEntity
  8
RACCORDO
100
AcDbLine
 62
7
  6
CONTINUOUS
 10
-18.2361998637
 20
-68.2520558753
 11
-17.1908073028
 21
-67.6487507513
  0
LINE
  5
45C
100
AcDbEntity
  8
RACCORDO
100
AcDbLine
 62
7
  6
CONTINUOUS
 10
-19.7456103233
 20
-69.1382607317
 11
-18.3684102465
 21
-68.3431519392
  0
LINE
  5
45D
100
AcDbEntity
  8
RACCORDO
100
AcDbLine
 62
7
  6
CONTINUOUS
 10
-19.5462789675
 20
-69.4835224899
 11
-18.1690751903
 21
-68.6883920203
  0
LINE
  5
45E
100
AcDbEntity
  8
RACCORDO
100
AcDbLine
 62
7
  6
CONTINUOUS
 10
-18.0241001381
 20
-68.619423376
 11
-16.9789659881
 21
-68.0156706712
  0
LINE
  5
45F
100
AcDbEntity
  8
RACCORDO
100
AcDbLine
 62
7
  6
CONTINUOUS
 10
15.2584122086
 20
-49.7328879083
 11
16.6651053286
 21
-48.9206836239
  0
LINE
  5
460
100
AcDbEntity
  8
RACCORDO
100
AcDbLine
 62
7
  6
CONTINUOUS
 10
-11.5788735419
 20
-70.9405236014
 11
-11.013188117
 21
-70.6139039267
  0
LINE
  5
461
100
AcDbEntity
  8
RACCORDO
100
AcDbLine
 62
7
  6
CONTINUOUS
 10
-11.3218424434
 20
-71.2820229055
 11
-10.8010560826
 21
-70.9813273878
  0
LINE
  5
462
100
AcDbEntity
  8
0
100
AcDbLine
 62
7
  6
CONTINUOUS
 10
-9.7403959108
 20
-72.1651501067
 11
-9.7663578586
 21
-72.18014021
  0
LINE
  5
463
100
AcDbEntity
  8
RACCORDO
100
AcDbLine
 62
7
  6
CONTINUOUS
 10
-17.4651394585
 20
-66.9703855856
 11
-16.5298552697
 21
-66.4488930117
  0
LINE
  5
464
100
AcDbEntity
  8
RACCORDO
100
AcDbLine
 62
7
  6
CONTINUOUS
 10
-17.5285683074
 20
-67.1084356483
 11
-16.5932841186
 21
-66.5869430743
  0
LINE
  5
465
100
AcDbEntity
  8
0
100
AcDbLine
 62
7
  6
CONTINUOUS
 10
-9.9488257307
 20
-71.8536126874
 11
-10.1437569139
 21
-71.9622347254
  0
LINE
  5
466
100
AcDbEntity
  8
0
100
AcDbLine
 62
7
  6
CONTINUOUS
 10
-16.6700746801
 20
73.4934342241
 11
-17.1908073028
 21
73.7940987142
  0
LINE
  5
467
100
AcDbEntity
  8
ASSI
100
AcDbLine
 62
7
  6
CONTINUOUS
 10
12.4715780635
 20
-83.606321168
 11
12.6662519549
 21
-83.3636390653
  0
LINE
  5
468
100
AcDbEntity
  8
ASSI
100
AcDbLine
 62
7
  6
CONTINUOUS
 10
-2.6972718588
 20
-73.37383951
 11
-4.3725559523
 21
-74.4481217119
  0
LINE
  5
469
100
AcDbEntity
  8
ASSI
100
AcDbLine
 62
7
  6
CONTINUOUS
 10
-2.690258329
 20
-73.8523874419
 11
-4.0356075961
 21
-74.6426714699
  0
LINE
  5
46A
100
AcDbEntity
  8
ASSI
100
AcDbLine
 62
7
  6
CONTINUOUS
 10
-3.5881485449
 20
-74.5533977673
 11
-3.8884442921
 21
-74.7276417172
  0
LINE
  5
46B
100
AcDbEntity
  8
ASSI
100
AcDbLine
 62
7
  6
CONTINUOUS
 10
-3.4383245132
 20
-74.4201428181
 11
-3.9286193092
 21
-74.7044451658
  0
LINE
  5
46C
100
AcDbEntity
  8
ASSI
100
AcDbLine
 62
7
  6
CONTINUOUS
 10
-9.3774388789
 20
-72.4046971545
 11
-9.3691648507
 21
-72.3999198344
  0
LINE
  5
46D
100
AcDbEntity
  8
ASSI
100
AcDbLine
 62
7
  6
CONTINUOUS
 10
-9.1216774773
 20
-72.2570237267
 11
-9.0156114601
 21
-72.1957825377
  0
LINE
  5
46E
100
AcDbEntity
  8
ASSI
100
AcDbLine
 62
7
  6
CONTINUOUS
 10
-8.7681240867
 20
-72.05288643
 11
-8.6620580695
 21
-71.991645241
  0
LINE
  5
46F
100
AcDbEntity
  8
ASSI
100
AcDbLine
 62
7
  6
CONTINUOUS
 10
-8.4145706961
 20
-71.8487491334
 11
-8.3085046789
 21
-71.7875079444
  0
LINE
  5
470
100
AcDbEntity
  8
ASSI
100
AcDbLine
 62
7
  6
CONTINUOUS
 10
-8.0610173055
 20
-71.6446118367
 11
-7.9549512883
 21
-71.5833706477
  0
LINE
  5
471
100
AcDbEntity
  8
ASSI
100
AcDbLine
 62
7
  6
CONTINUOUS
 10
-7.7074639149
 20
-71.44047454
 11
-7.6013978978
 21
-71.379233351
  0
LINE
  5
472
100
AcDbEntity
  8
ASSI
100
AcDbLine
 62
7
  6
CONTINUOUS
 10
-7.3539105243
 20
-71.2363372434
 11
-7.2478445072
 21
-71.1750960544
  0
LINE
  5
473
100
AcDbEntity
  8
ASSI
100
AcDbLine
 62
7
  6
CONTINUOUS
 10
-7.0003571337
 20
-71.0321999467
 11
-6.8942911166
 21
-70.9709587577
  0
LINE
  5
474
100
AcDbEntity
  8
RACCORDO
100
AcDbLine
 62
7
  6
CONTINUOUS
 10
-5.8598945061
 20
-73.6611010234
 11
-6.4255799311
 21
-73.9877206981
  0
LINE
  5
475
100
AcDbEntity
  8
RACCORDO
100
AcDbLine
 62
7
  6
CONTINUOUS
 10
-5.7098872581
 20
-73.6759633767
 11
-6.275572683
 21
-74.0025830514
  0
LINE
  5
476
100
AcDbEntity
  8
ASSI
100
AcDbLine
 62
7
  6
CONTINUOUS
 10
-4.5254833996
 20
-74.0942593967
 11
-4.4194173824
 21
-74.0330182077
  0
LINE
  5
477
100
AcDbEntity
  8
ASSI
100
AcDbLine
 62
7
  6
CONTINUOUS
 10
-4.171930009
 20
-73.8901221
 11
-4.0658639918
 21
-73.828880911
  0
LINE
  5
478
100
AcDbEntity
  8
ASSI
100
AcDbLine
 62
7
  6
CONTINUOUS
 10
-3.8183766184
 20
-73.6859848033
 11
-3.7123106012
 21
-73.6247436143
  0
LINE
  5
479
100
AcDbEntity
  8
ASSI
100
AcDbLine
 62
7
  6
CONTINUOUS
 10
-3.4648232278
 20
-73.4818475067
 11
-3.3587572106
 21
-73.4206063177
  0
LINE
  5
47A
100
AcDbEntity
  8
ASSI
100
AcDbLine
 62
7
  6
CONTINUOUS
 10
-3.1112698372
 20
-73.27771021
 11
-3.00520382
 21
-73.216469021
  0
LINE
  5
47B
100
AcDbEntity
  8
ASSI
100
AcDbLine
 62
7
  6
CONTINUOUS
 10
-2.8991378029
 20
-73.2776983735
 11
-3.2173358544
 21
-73.4614219405
  0
LINE
  5
47C
100
AcDbEntity
  8
ASSI
100
AcDbLine
 62
7
  6
CONTINUOUS
 10
-3.2526911935
 20
-73.4818356702
 11
-3.570889245
 21
-73.6655592372
  0
LINE
  5
47D
100
AcDbEntity
  8
ASSI
100
AcDbLine
 62
7
  6
CONTINUOUS
 10
-3.6062445841
 20
-73.6859729669
 11
-3.9244426356
 21
-73.8696965339
  0
LINE
  5
47E
100
AcDbEntity
  8
ASSI
100
AcDbLine
 62
7
  6
CONTINUOUS
 10
-3.9597979746
 20
-73.8901102635
 11
-4.2779960262
 21
-74.0738338305
  0
LINE
  5
47F
100
AcDbEntity
  8
ASSI
100
AcDbLine
 62
7
  6
CONTINUOUS
 10
-4.3133513652
 20
-74.0942475602
 11
-4.6315494168
 21
-74.2779711272
  0
LINE
  5
480
100
AcDbEntity
  8
ASSI
100
AcDbLine
 62
7
  6
CONTINUOUS
 10
-6.9547357044
 20
-70.9156332441
 11
-9.5593120749
 21
-72.2697056441
  0
LINE
  5
481
100
AcDbEntity
  8
0
100
AcDbLine
 62
7
  6
CONTINUOUS
 10
-15.9668546393
 20
63.2186871866
 11
-15.6589847924
 21
63.2659921195
  0
LINE
  5
482
100
AcDbEntity
  8
0
100
AcDbLine
 62
7
  6
CONTINUOUS
 10
-17.7268464109
 20
78.5940770256
 11
-17.6773038065
 21
78.5654717467
  0
LINE
  5
483
100
AcDbEntity
  8
DRAFT
100
AcDbLine
 62
7
  6
CONTINUOUS
 10
-17.5185180789
 20
78.5554655038
 11
-17.1908073028
 21
78.3662494089
  0
LINE
  5
484
100
AcDbEntity
  8
RACCORDO
100
AcDbLine
 62
7
  6
CONTINUOUS
 10
-19.6237252352
 20
84.2650278118
 11
12.7122623138
 21
65.5946338662
  0
LINE
  5
485
100
AcDbEntity
  8
RACCORDO
100
AcDbLine
 62
7
  6
CONTINUOUS
 10
-19.6858500215
 20
84.4023488702
 11
12.6501375487
 21
65.7319549123
  0
LINE
  5
486
100
AcDbEntity
  8
RACCORDO
100
AcDbLine
 62
7
  6
CONTINUOUS
 10
14.5550830289
 20
66.6978336881
 11
-21.5930788454
 21
87.5693293114
  0
LINE
  5
487
100
AcDbEntity
  8
RACCORDO
100
AcDbLine
 62
7
  6
CONTINUOUS
 10
14.7635128488
 20
67.0630822311
 11
-21.3823656818
 21
87.9332594805
  0
LWPOLYLINE
  5
488
100
AcDbEntity
  8
RACCORDO
100
AcDbPolyline
 62
7
  6
CONTINUOUS
 90
21
 70
0
 10
12.7123426606
 20
65.5945873225
 10
12.7254805276
 20
65.5865504426
 10
12.7433613708
 20
65.5742106384
 10
12.7619271457
 20
65.5597133703
 10
12.7808126837
 20
65.5431785079
 10
12.7997285576
 20
65.5247264506
 10
12.8184043902
 20
65.5045125371
 10
12.8366264185
 20
65.4826779431
 10
12.854156987
 20
65.4594367137
 10
12.870768913
 20
65.4350399699
 10
12.8863310758
 20
65.4096447772
 10
12.9006561559
 20
65.383548311
 10
12.9135917792
 20
65.3570585325
 10
12.925075309
 20
65.330343679
 10
12.9350015242
 20
65.3037229534
 10
12.9432993931
 20
65.2775406331
 10
12.9499668016
 20
65.2520207843
 10
12.9550103083
 20
65.2274362569
 10
12.9584593487
 20
65.2041223457
 10
12.9603903718
 20
65.1824518285
 10
12.9609468985
 20
65.1640175177
  0
LINE
  5
489
100
AcDbEntity
  8
SMUSSO
100
AcDbLine
 62
7
  6
CONTINUOUS
 10
31.0950207027
 20
75.5813867414
 11
30.8021274839
 21
76.088692677
  0
LINE
  5
48A
100
AcDbEntity
  8
RACCORDO
100
AcDbLine
 62
7
  6
CONTINUOUS
 10
4.3310290348
 20
-80.1267019513
 11
4.8967144597
 21
-79.8000822766
  0
LINE
  5
48B
100
AcDbEntity
  8
RACCORDO
100
AcDbLine
 62
7
  6
CONTINUOUS
 10
4.5880601333
 20
-80.4682012554
 11
5.1088464941
 21
-80.1675057376
  0
LINE
  5
48C
100
AcDbEntity
  8
ASSI
100
AcDbLine
 62
7
  6
CONTINUOUS
 10
6.5324636978
 20
-81.5908755044
 11
6.540737726
 21
-81.5860981842
  0
LINE
  5
48D
100
AcDbEntity
  8
ASSI
100
AcDbLine
 62
7
  6
CONTINUOUS
 10
6.7882250994
 20
-81.4432020766
 11
6.8942911166
 21
-81.3819608876
  0
LINE
  5
48E
100
AcDbEntity
  8
ASSI
100
AcDbLine
 62
7
  6
CONTINUOUS
 10
7.14177849
 20
-81.2390647799
 11
7.2478445072
 21
-81.1778235909
  0
LINE
  5
48F
100
AcDbEntity
  8
ASSI
100
AcDbLine
 62
7
  6
CONTINUOUS
 10
7.4953318806
 20
-81.0349274832
 11
7.6013978978
 21
-80.9736862942
  0
LINE
  5
490
100
AcDbEntity
  8
ASSI
100
AcDbLine
 62
7
  6
CONTINUOUS
 10
7.8488852712
 20
-80.8307901866
 11
7.9549512883
 21
-80.7695489976
  0
LINE
  5
491
100
AcDbEntity
  8
ASSI
100
AcDbLine
 62
7
  6
CONTINUOUS
 10
8.2024386618
 20
-80.6266528899
 11
8.3085046789
 21
-80.5654117009
  0
LINE
  5
492
100
AcDbEntity
  8
ASSI
100
AcDbLine
 62
7
  6
CONTINUOUS
 10
8.5559920524
 20
-80.4225155933
 11
8.6620580695
 21
-80.3612744043
  0
LINE
  5
493
100
AcDbEntity
  8
ASSI
100
AcDbLine
 62
7
  6
CONTINUOUS
 10
8.909545443
 20
-80.2183782966
 11
9.0156114601
 21
-80.1571371076
  0
LINE
  5
494
100
AcDbEntity
  8
SMUSSO
100
AcDbLine
 62
7
  6
CONTINUOUS
 10
32.5092342651
 20
75.9195798033
 11
31.0950207027
 21
75.5813867414
  0
LINE
  5
495
100
AcDbEntity
  8
RACCORDO
100
AcDbLine
 62
7
  6
CONTINUOUS
 10
16.1702059688
 20
67.8752865155
 11
-20.0239379262
 21
88.7733315814
  0
LINE
  5
496
100
AcDbEntity
  8
SMUSSO
100
AcDbLine
 62
7
  6
CONTINUOUS
 10
32.5092342651
 20
75.9195798033
 11
31.8021274839
 21
77.1443246734
  0
LINE
  5
497
100
AcDbEntity
  8
SMUSSO
100
AcDbLine
 62
7
  6
CONTINUOUS
 10
34.241645879
 20
78.5528720204
 11
34.9487526601
 21
77.3281271503
  0
LINE
  5
498
100
AcDbEntity
  8
SMUSSO
100
AcDbLine
 62
7
  6
CONTINUOUS
 10
34.4487526601
 20
78.4333306155
 11
34.9487526601
 21
77.5673052126
  0
LINE
  5
499
100
AcDbEntity
  8
ASSI
100
AcDbLine
 62
7
  6
CONTINUOUS
 10
12.9609473977
 20
-82.721410732
 11
11.5373466244
 21
-83.6343000618
  0
LINE
  5
49A
100
AcDbEntity
  8
ASSI
100
AcDbLine
 62
7
  6
CONTINUOUS
 10
12.9609473977
 20
-83.1905292958
 11
11.8742949806
 21
-83.8288498198
  0
LINE
  5
49B
100
AcDbEntity
  8
ASSI
100
AcDbLine
 62
7
  6
CONTINUOUS
 10
12.3217540318
 20
-83.7395761172
 11
12.0214582846
 21
-83.9138200671
  0
LINE
  5
49C
100
AcDbEntity
  8
ASSI
100
AcDbLine
 62
7
  6
CONTINUOUS
 10
12.4715780635
 20
-83.606321168
 11
11.9812832675
 21
-83.8906235157
  0
LINE
  5
49D
100
AcDbEntity
  8
RACCORDO
100
AcDbLine
 62
7
  6
CONTINUOUS
 10
10.0500080706
 20
-82.8472793733
 11
9.4843226456
 21
-83.1738990479
  0
LINE
  5
49E
100
AcDbEntity
  8
RACCORDO
100
AcDbLine
 62
7
  6
CONTINUOUS
 10
10.2000153186
 20
-82.8621417266
 11
9.6343298937
 21
-83.1887614012
  0
LINE
  5
49F
100
AcDbEntity
  8
ASSI
100
AcDbLine
 62
7
  6
CONTINUOUS
 10
11.3844191771
 20
-83.2804377466
 11
11.4904851943
 21
-83.2191965576
  0
LINE
  5
4A0
100
AcDbEntity
  8
ASSI
100
AcDbLine
 62
7
  6
CONTINUOUS
 10
11.7379725677
 20
-83.0763004499
 11
11.8440385849
 21
-83.0150592609
  0
LINE
  5
4A1
100
AcDbEntity
  8
ASSI
100
AcDbLine
 62
7
  6
CONTINUOUS
 10
12.0915259583
 20
-82.8721631532
 11
12.1975919755
 21
-82.8109219642
  0
LINE
  5
4A2
100
AcDbEntity
  8
ASSI
100
AcDbLine
 62
7
  6
CONTINUOUS
 10
12.4450793489
 20
-82.6680258566
 11
12.5511453661
 21
-82.6067846676
  0
LINE
  5
4A3
100
AcDbEntity
  8
ASSI
100
AcDbLine
 62
7
  6
CONTINUOUS
 10
12.7986327395
 20
-82.4638885599
 11
12.9046987567
 21
-82.4026473709
  0
LINE
  5
4A4
100
AcDbEntity
  8
ASSI
100
AcDbLine
 62
7
  6
CONTINUOUS
 10
12.9609473977
 20
-82.492640652
 11
12.6925667223
 21
-82.6476002904
  0
LINE
  5
4A5
100
AcDbEntity
  8
ASSI
100
AcDbLine
 62
7
  6
CONTINUOUS
 10
12.6572113832
 20
-82.6680140201
 11
12.3390133317
 21
-82.8517375871
  0
LINE
  5
4A6
100
AcDbEntity
  8
ASSI
100
AcDbLine
 62
7
  6
CONTINUOUS
 10
12.3036579926
 20
-82.8721513167
 11
11.9854599411
 21
-83.0558748837
  0
LINE
  5
4A7
100
AcDbEntity
  8
ASSI
100
AcDbLine
 62
7
  6
CONTINUOUS
 10
11.9501046021
 20
-83.0762886134
 11
11.6319065505
 21
-83.2600121804
  0
LINE
  5
4A8
100
AcDbEntity
  8
ASSI
100
AcDbLine
 62
7
  6
CONTINUOUS
 10
11.5965512115
 20
-83.2804259101
 11
11.2783531599
 21
-83.4641494771
  0
LINE
  5
4A9
100
AcDbEntity
  8
RACCORDO
100
AcDbLine
 62
7
  6
CONTINUOUS
 10
5.9640085553
 20
-81.2626566296
 11
5.9908911002
 21
-81.2481980676
  0
LINE
  5
4AA
100
AcDbEntity
  8
ASSI
100
AcDbLine
 62
7
  6
CONTINUOUS
 10
8.9551668723
 20
-80.101811594
 11
6.3505905018
 21
-81.4558839939
  0
LINE
  5
4AB
100
AcDbEntity
  8
0
100
AcDbLine
 62
7
  6
CONTINUOUS
 10
-17.1473394438
 20
75.5857676205
 11
-16.9352074094
 21
75.5857676205
  0
LINE
  5
4AC
100
AcDbEntity
  8
0
100
AcDbLine
 62
7
  6
CONTINUOUS
 10
-16.7937860532
 20
75.7899049172
 11
-16.5816540188
 21
75.7899049172
  0
LINE
  5
4AD
100
AcDbEntity
  8
0
100
AcDbLine
 62
7
  6
CONTINUOUS
 10
-16.4402326626
 20
75.9940422139
 11
-16.2281006282
 21
75.9940422139
  0
LINE
  5
4AE
100
AcDbEntity
  8
0
100
AcDbLine
 62
7
  6
CONTINUOUS
 10
-16.086679272
 20
76.1981795105
 11
-15.8745472376
 21
76.1981795105
  0
LINE
  5
4AF
100
AcDbEntity
  8
0
100
AcDbLine
 62
7
  6
CONTINUOUS
 10
-15.7331258814
 20
76.4023168072
 11
-15.520993847
 21
76.4023168072
  0
LINE
  5
4B0
100
AcDbEntity
  8
0
100
AcDbLine
 62
7
  6
CONTINUOUS
 10
-15.3795724908
 20
76.6064541039
 11
-15.1674404565
 21
76.6064541039
  0
LINE
  5
4B1
100
AcDbEntity
  8
0
100
AcDbLine
 62
7
  6
CONTINUOUS
 10
-15.0260191002
 20
76.8105914005
 11
-14.8138870659
 21
76.8105914005
  0
LINE
  5
4B2
100
AcDbEntity
  8
0
100
AcDbLine
 62
7
  6
CONTINUOUS
 10
-16.4402326626
 20
80.4846287362
 11
-16.2281006282
 21
80.4846287362
  0
LINE
  5
4B3
100
AcDbEntity
  8
0
100
AcDbLine
 62
7
  6
CONTINUOUS
 10
-16.086679272
 20
80.6887660329
 11
-15.8745472376
 21
80.6887660329
  0
LINE
  5
4B4
100
AcDbEntity
  8
0
100
AcDbLine
 62
7
  6
CONTINUOUS
 10
-15.7331258814
 20
80.8929033296
 11
-15.520993847
 21
80.8929033296
  0
LINE
  5
4B5
100
AcDbEntity
  8
0
100
AcDbLine
 62
7
  6
CONTINUOUS
 10
-15.3795724908
 20
81.0970406262
 11
-15.1674404565
 21
81.0970406262
  0
LINE
  5
4B6
100
AcDbEntity
  8
0
100
AcDbLine
 62
7
  6
CONTINUOUS
 10
-15.0260191002
 20
81.3011779229
 11
-14.8138870659
 21
81.3011779229
  0
LINE
  5
4B7
100
AcDbEntity
  8
SMUSSO
100
AcDbLine
 62
7
  6
CONTINUOUS
 10
30.8021274839
 20
76.088692677
 11
-34.6558594413
 21
113.8833139464
  0
LINE
  5
4B8
100
AcDbEntity
  8
RACCORDO
100
AcDbLine
 62
7
  6
CONTINUOUS
 10
15.2584122086
 20
-91.4692086933
 11
16.6651053286
 21
-90.7127346557
  0
LINE
  5
4B9
100
AcDbEntity
  8
RACCORDO
100
AcDbLine
 62
7
  6
CONTINUOUS
 10
15.1057673702
 20
-91.7938631084
 11
16.5139932707
 21
-91.0365647911
  0
LINE
  5
4BA
100
AcDbEntity
  8
0
100
AcDbLine
 62
7
  6
CONTINUOUS
 10
-15.9668546393
 20
81.5892684144
 11
-15.6589847924
 21
81.6365733474
  0
LINE
  5
4BB
100
AcDbEntity
  8
RACCORDO
100
AcDbLine
 62
7
  6
CONTINUOUS
 10
-19.6613754181
 20
84.2825905367
 11
-19.661249118
 21
84.2825856818
  0
LINE
  5
4BC
100
AcDbEntity
  8
RACCORDO
100
AcDbLine
 62
7
  6
CONTINUOUS
 10
-19.3784876162
 20
84.1234306842
 11
-19.7456103233
 21
84.1376958389
  0
LWPOLYLINE
  5
4BD
100
AcDbEntity
  8
RACCORDO
100
AcDbPolyline
 62
7
  6
CONTINUOUS
 90
9
 70
0
 10
-19.6612654413
 20
84.2825793887
 10
-19.6625045178
 20
84.2826457948
 10
-19.6641340893
 20
84.2828052675
 10
-19.6622773144
 20
84.2823844678
 10
-19.6572756265
 20
84.280882114
 10
-19.6492757654
 20
84.277857762
 10
-19.6387382151
 20
84.2730689185
 10
-19.6266615925
 20
84.2667004521
 10
-19.6237659215
 20
84.2650511136
  0
LINE
  5
4BE
100
AcDbEntity
  8
SMUSSO
100
AcDbLine
 62
7
  6
CONTINUOUS
 10
31.8021274839
 20
77.1443246734
 11
-34.241645879
 21
115.2771716902
  0
LINE
  5
4BF
100
AcDbEntity
  8
SMUSSO
100
AcDbLine
 62
7
  6
CONTINUOUS
 10
-31.8021274839
 20
116.6857190372
 11
34.4487526601
 21
78.4333306155
  0
LINE
  5
4C0
100
AcDbEntity
  8
SMUSSO
100
AcDbLine
 62
7
  6
CONTINUOUS
 10
30.8021274839
 20
-116.10841048
 11
31.0950207027
 21
-115.9393302918
  0
LINE
  5
4C1
100
AcDbEntity
  8
SMUSSO
100
AcDbLine
 62
7
  6
CONTINUOUS
 10
31.8021274839
 20
-116.6857190372
 11
34.9487526601
 21
-114.8689760068
  0
ARC
  5
4C2
100
AcDbEntity
  8
0
100
AcDbCircle
 62
7
  6
CONTINUOUS
 10
-16.1837525211
 20
48.6369231567
 40
0.3000133054
100
AcDbArc
 50
0.0016746654
 51
59.9973494253
  0
ARC
  5
4C3
100
AcDbEntity
  8
SUPERFICI
100
AcDbCircle
 62
7
  6
CONTINUOUS
 10
-16.1837525211
 20
-9.3324664956
 40
0.3000133054
100
AcDbArc
 50
0.0016746654
 51
59.9973494253
  0
ARC
  5
4C4
100
AcDbEntity
  8
0
100
AcDbCircle
 62
7
  6
CONTINUOUS
 10
-16.1837525211
 20
-67.3018561479
 40
0.3000133054
100
AcDbArc
 50
0.0016746654
 51
59.9973494253
  0
ARC
  5
4C5
100
AcDbEntity
  8
RACCORDO
100
AcDbCircle
 62
7
  6
CONTINUOUS
 10
-18.0496597683
 20
-68.5550088904
 40
0.1790282166
100
AcDbArc
 50
228.1625094896
 51
240.1188178663
  0
ARC
  5
4C6
100
AcDbEntity
  8
RACCORDO
100
AcDbCircle
 62
7
  6
CONTINUOUS
 10
-18.0496597683
 20
-10.5856192381
 40
0.1790282166
100
AcDbArc
 50
228.1625094896
 51
240.1188178662
  0
ARC
  5
4C7
100
AcDbEntity
  8
RACCORDO
100
AcDbCircle
 62
7
  6
CONTINUOUS
 10
-18.0496597683
 20
47.3837704142
 40
0.1790282166
100
AcDbArc
 50
228.1625094896
 51
240.1188178663
  0
ARC
  5
4C8
100
AcDbEntity
  8
0
100
AcDbCircle
 62
7
  6
CONTINUOUS
 10
-14.7768645071
 20
-57.4084636914
 40
0.1427973923
100
AcDbArc
 50
334.4567691741
 51
339.454083564
  0
ARC
  5
4C9
100
AcDbEntity
  8
0
100
AcDbCircle
 62
7
  6
CONTINUOUS
 10
-14.764599063
 20
-57.4143300238
 40
0.1292012548
100
AcDbArc
 50
329.1077520581
 51
334.4586303454
  0
ARC
  5
4CA
100
AcDbEntity
  8
0
100
AcDbCircle
 62
7
  6
CONTINUOUS
 10
-14.7361724777
 20
76.8727421908
 40
0.0928420983
100
AcDbArc
 50
304.988449695
 51
311.4319829769
  0
SPLINE
  5
4CB
100
AcDbEntity
  8
RACCORDO
100
AcDbSpline
 62
7
  6
CONTINUOUS
 70
0
 71
3
 72
9
 73
5
 74
3
 42
0.0000001
 43
0.0000001
 44
0.0000000001
 12
-0.1258022839
 22
-0.0751721723
 32
0.0
 13
-0.1037487076
 23
-0.1035049555
 33
0.0
 40
0.0
 40
0.0
 40
0.0
 40
0.0
 40
0.2375582814
 40
1.0
 40
1.0
 40
1.0
 40
1.0
 10
-18.0241001381
 20
-68.619423376
 30
0.0
 10
-18.0340619295
 20
-68.6253759667
 30
0.0
 10
-18.0750902903
 20
-68.651941766
 30
0.0
 10
-18.1124847143
 20
-68.6839316728
 30
0.0
 10
-18.1388521619
 20
-68.7102371715
 30
0.0
 11
-18.0241001381
 21
-68.619423376
 31
0.0
 11
-18.0533501059
 21
-68.6383039217
 31
0.0
 11
-18.1388521619
 21
-68.7102371715
 31
0.0
  0
SPLINE
  5
4CC
100
AcDbEntity
  8
RACCORDO
100
AcDbSpline
 62
7
  6
CONTINUOUS
 70
0
 71
3
 72
9
 73
5
 74
3
 42
0.0000001
 43
0.0000001
 44
0.0000000001
 12
-0.1440896835
 22
-0.0602425756
 32
0.0
 13
-0.1252946643
 23
-0.0932322471
 33
0.0
 40
0.0
 40
0.0
 40
0.0
 40
0.0
 40
0.2409283394
 40
1.0
 40
1.0
 40
1.0
 40
1.0
 10
-18.0340154362
 20
-68.6104118815
 30
0.0
 10
-18.0455871989
 20
-68.6152499294
 30
0.0
 10
-18.0929228795
 20
-68.6369757555
 30
0.0
 10
-18.1373713918
 20
-68.6648052917
 30
0.0
 10
-18.1690739347
 20
-68.6883952773
 30
0.0
 11
-18.0340154362
 21
-68.6104118815
 31
0.0
 11
-18.0682286228
 21
-68.6260729626
 31
0.0
 11
-18.1690739347
 21
-68.6883952773
 31
0.0
  0
SPLINE
  5
4CD
100
AcDbEntity
  8
RACCORDO
100
AcDbSpline
 62
7
  6
CONTINUOUS
 70
0
 71
3
 72
9
 73
5
 74
3
 42
0.0000001
 43
0.0000001
 44
0.0000000001
 12
-0.1242085342
 22
-0.0946731593
 32
0.0
 13
-0.1433862242
 23
-0.0618963471
 33
0.0
 40
0.0
 40
0.0
 40
0.0
 40
0.0
 40
0.2409316862
 40
1.0
 40
1.0
 40
1.0
 40
1.0
 10
-18.2333542709
 20
-68.2651474664
 30
0.0
 10
-18.2433295281
 20
-68.272750721
 30
0.0
 10
-18.2858100786
 20
-68.3028846698
 30
0.0
 10
-18.3321340619
 20
-68.3274657889
 30
0.0
 10
-18.3684140417
 20
-68.3431269742
 30
0.0
 11
-18.2333542709
 21
-68.2651474664
 31
0.0
 11
-18.2640224533
 21
-68.2869488361
 31
0.0
 11
-18.3684140417
 21
-68.3431269742
 31
0.0
  0
SPLINE
  5
4CE
100
AcDbEntity
  8
RACCORDO
100
AcDbSpline
 62
7
  6
CONTINUOUS
 70
0
 71
3
 72
9
 73
5
 74
3
 42
0.0000001
 43
0.0000001
 44
0.0000000001
 12
-0.1279979641
 22
-0.071367648
 32
0.0
 13
-0.1415101583
 23
-0.0381011166
 33
0.0
 40
0.0
 40
0.0
 40
0.0
 40
0.0
 40
0.2375585064
 40
1.0
 40
1.0
 40
1.0
 40
1.0
 10
-18.2361998637
 20
-68.2520558753
 30
0.0
 10
-18.2463355321
 20
-68.257707206
 30
0.0
 10
-18.2898550887
 20
-68.2799577959
 30
0.0
 10
-18.3362555117
 20
-68.2963490682
 30
0.0
 10
-18.3722199172
 20
-68.306032359
 30
0.0
 11
-18.2361998637
 21
-68.2520558753
 31
0.0
 11
-18.2671749928
 21
-68.2679481748
 31
0.0
 11
-18.3722199172
 21
-68.306032359
 31
0.0
  0
SPLINE
  5
4CF
100
AcDbEntity
  8
RACCORDO
100
AcDbSpline
 62
7
  6
CONTINUOUS
 70
0
 71
3
 72
15
 73
11
 74
9
 42
0.0000001
 43
0.0000001
 44
0.0000000001
 12
0.0000290007
 22
0.4170681613
 32
0.0
 13
0.3612088276
 23
-0.2085042804
 33
0.0
 40
0.0
 40
0.0
 40
0.0
 40
0.0
 40
0.1450844117
 40
0.2749838793
 40
0.3918358339
 40
0.5009156036
 40
0.6098397464
 40
0.7262475433
 40
0.8555331895
 40
1.0
 40
1.0
 40
1.0
 40
1.0
 10
-21.8735951359
 20
-28.5340217725
 30
0.0
 10
-21.8735937334
 20
-28.5138517429
 30
0.0
 10
-21.8705594328
 20
-28.4754911157
 30
0.0
 10
-21.8551070247
 20
-28.4227659065
 30
0.0
 10
-21.8290803755
 20
-28.3798753581
 30
0.0
 10
-21.7929541031
 20
-28.3491086841
 30
0.0
 10
-21.7485294409
 20
-28.3325827537
 30
0.0
 10
-21.6985414287
 20
-28.3309278047
 30
0.0
 10
-21.6452721301
 20
-28.3433299652
 30
0.0
 10
-21.6104730744
 20
-28.3594093437
 30
0.0
 10
-21.5930788454
 20
-28.3694499932
 30
0.0
 11
-21.8735951359
 21
-28.5340217725
 31
0.0
 11
-21.8682177982
 21
-28.4737510905
 31
0.0
 11
-21.8522874393
 21
-28.4219692052
 31
0.0
 11
-21.8264121822
 21
-28.3806703709
 31
0.0
 11
-21.791575125
 21
-28.3514119344
 31
0.0
 11
-21.7490961125
 21
-28.3353088711
 31
0.0
 11
-21.7006011316
 21
-28.3329984692
 31
0.0
 11
-21.6479195903
 21
-28.3444928837
 31
0.0
 11
-21.5930788454
 21
-28.3694499932
 31
0.0
  0
SPLINE
  5
4D0
100
AcDbEntity
  8
RACCORDO
100
AcDbSpline
 62
7
  6
CONTINUOUS
 70
0
 71
3
 72
9
 73
5
 74
3
 42
0.0000001
 43
0.0000001
 44
0.0000000001
 12
-0.0290535392
 22
-0.0551073363
 32
0.0
 13
-0.0539576766
 23
-0.0311367274
 33
0.0
 40
0.0
 40
0.0
 40
0.0
 40
0.0
 40
0.277017043
 40
1.0
 40
1.0
 40
1.0
 40
1.0
 10
12.9573329975
 20
-88.1534218461
 30
0.0
 10
12.9546502224
 20
-88.1585104032
 30
0.0
 10
12.944169422
 20
-88.1763604405
 30
0.0
 10
12.9294143742
 20
-88.192341851
 30
0.0
 10
12.9164108807
 20
-88.1998456254
 30
0.0
 11
12.9573329975
 21
-88.1534218461
 31
0.0
 11
12.9485155026
 21
-88.1682565368
 31
0.0
 11
12.9164108807
 21
-88.1998456254
 31
0.0
  0
SPLINE
  5
4D1
100
AcDbEntity
  8
RACCORDO
100
AcDbSpline
 62
7
  6
CONTINUOUS
 70
0
 71
3
 72
11
 73
7
 74
5
 42
0.0000001
 43
0.0000001
 44
0.0000000001
 12
-0.1261722059
 22
-0.072808724
 32
0.0
 13
-0.0964136199
 23
0.1092014182
 33
0.0
 40
0.0
 40
0.0
 40
0.0
 40
0.0
 40
0.2220361667
 40
0.4505038999
 40
0.7087907003
 40
1.0
 40
1.0
 40
1.0
 40
1.0
 10
12.9164108807
 20
-88.1998456254
 30
0.0
 10
12.9070726164
 20
-88.2052343487
 30
0.0
 10
12.885008889
 20
-88.2117341784
 30
0.0
 10
12.8504188143
 20
-88.2038369248
 30
0.0
 10
12.8181801732
 20
-88.1833604277
 30
0.0
 10
12.7990742441
 20
-88.164520251
 30
0.0
 10
12.7897153966
 20
-88.1539200949
 30
0.0
 11
12.9164108807
 21
-88.1998456254
 31
0.0
 11
12.8853429346
 21
-88.2088432029
 31
0.0
 11
12.8526634755
 21
-88.2025414588
 31
0.0
 11
12.8203542343
 21
-88.1832598916
 31
0.0
 11
12.7897153966
 21
-88.1539200949
 31
0.0
  0
SPLINE
  5
4D2
100
AcDbEntity
  8
RACCORDO
100
AcDbSpline
 62
7
  6
CONTINUOUS
 70
0
 71
3
 72
11
 73
7
 74
5
 42
0.0000001
 43
0.0000001
 44
0.0000000001
 12
-0.1363190161
 22
0.0787088914
 32
0.0
 13
-0.0000316866
 23
0.1574101736
 33
0.0
 40
0.0
 40
0.0
 40
0.0
 40
0.0
 40
0.2895817376
 40
0.5491318165
 40
0.7822802582
 40
1.0
 40
1.0
 40
1.0
 40
1.0
 10
13.0488153633
 20
-50.8973546224
 30
0.0
 10
13.0356568641
 20
-50.8897570699
 30
0.0
 10
13.0117778217
 20
-50.873297616
 30
0.0
 10
12.9832247471
 20
-50.8433050366
 30
0.0
 10
12.9651614632
 20
-50.8101126877
 30
0.0
 10
12.9609521768
 20
-50.7862960117
 30
0.0
 10
12.9609498772
 20
-50.7748722442
 30
0.0
 11
13.0488153633
 21
-50.8973546224
 31
0.0
 11
13.0115386104
 21
-50.8711198394
 31
0.0
 11
12.9837751675
 21
-50.8411466918
 31
0.0
 11
12.9667090711
 21
-50.8086561738
 31
0.0
 11
12.9609498772
 21
-50.7748722442
 31
0.0
  0
SPLINE
  5
4D3
100
AcDbEntity
  8
RACCORDO
100
AcDbSpline
 62
7
  6
CONTINUOUS
 70
0
 71
3
 72
11
 73
7
 74
5
 42
0.0000001
 43
0.0000001
 44
0.0000000001
 12
-0.0000000517
 22
-0.1573888098
 32
0.0
 13
0.1362846782
 23
-0.0787256244
 33
0.0
 40
0.0
 40
0.0
 40
0.0
 40
0.0
 40
0.2895872683
 40
0.5491386409
 40
0.7822847649
 40
1.0
 40
1.0
 40
1.0
 40
1.0
 10
12.6501375487
 20
-50.2068243923
 30
0.0
 10
12.6501375437
 20
-50.2220169908
 30
0.0
 10
12.6524510658
 20
-50.2509230677
 30
0.0
 10
12.6641456822
 20
-50.2906423538
 30
0.0
 10
12.6838552441
 20
-50.3228780216
 30
0.0
 10
12.702373135
 20
-50.3384300323
 30
0.0
 10
12.7122635519
 20
-50.3441432882
 30
0.0
 11
12.6501375487
 21
-50.2068243923
 31
0.0
 11
12.6542171842
 21
-50.252219238
 31
0.0
 11
12.6662898258
 21
-50.2912450394
 31
0.0
 11
12.6858902693
 21
-50.3222662518
 31
0.0
 11
12.7122635519
 21
-50.3441432882
 31
0.0
  0
SPLINE
  5
4D4
100
AcDbEntity
  8
RACCORDO
100
AcDbSpline
 62
7
  6
CONTINUOUS
 70
0
 71
3
 72
11
 73
7
 74
5
 42
0.0000001
 43
0.0000001
 44
0.0000000001
 12
0.0
 22
-0.157342478
 32
0.0
 13
0.1362077173
 23
-0.0787661927
 33
0.0
 40
0.0
 40
0.0
 40
0.0
 40
0.0
 40
0.2895781872
 40
0.5491322113
 40
0.7822857584
 40
1.0
 40
1.0
 40
1.0
 40
1.0
 10
-19.6858500215
 20
-31.5364304344
 30
0.0
 10
-19.6858500215
 20
-31.5516180843
 30
0.0
 10
-19.6835379122
 20
-31.580515227
 30
0.0
 10
-19.6718512387
 20
-31.6202238565
 30
0.0
 10
-19.6521553108
 20
-31.6524547277
 30
0.0
 10
-19.6336493741
 20
-31.6680097086
 30
0.0
 10
-19.6237645875
 20
-31.6737258826
 30
0.0
 11
-19.6858500215
 21
-31.5364304344
 31
0.0
 11
-19.6817731707
 21
-31.5818106246
 31
0.0
 11
-19.6697087167
 21
-31.6208268074
 31
0.0
 11
-19.6501211853
 21
-31.6518447808
 31
0.0
 11
-19.6237645875
 21
-31.6737258826
 31
0.0
  0
SPLINE
  5
4D5
100
AcDbEntity
  8
RACCORDO
100
AcDbSpline
 62
7
  6
CONTINUOUS
 70
0
 71
3
 72
10
 73
6
 74
4
 42
0.0000001
 43
0.0000001
 44
0.0000000001
 12
0.3008557635
 22
-0.1737074046
 32
0.0
 13
0.335457116
 23
0.0903159797
 33
0.0
 40
0.0
 40
0.0
 40
0.0
 40
0.0
 40
0.2300845876
 40
0.483607702
 40
1.0
 40
1.0
 40
1.0
 40
1.0
 10
-20.0845278361
 20
-31.7665775174
 30
0.0
 10
-20.0614537447
 20
-31.7798999829
 30
0.0
 10
-20.0089918924
 20
-31.8012413909
 30
0.0
 10
-19.894901584
 20
-31.8228279029
 30
0.0
 10
-19.8033528136
 20
-31.8166285254
 30
0.0
 10
-19.7456103233
 20
-31.8010823666
 30
0.0
 11
-20.0845278361
 21
-31.7665775174
 31
0.0
 11
-20.0109203865
 21
-31.7977393434
 31
0.0
 11
-19.9244902563
 21
-31.814679194
 31
0.0
 11
-19.7456103233
 21
-31.8010823666
 31
0.0
  0
SPLINE
  5
4D6
100
AcDbEntity
  8
RACCORDO
100
AcDbSpline
 62
7
  6
CONTINUOUS
 70
0
 71
3
 72
10
 73
6
 74
4
 42
0.0000001
 43
0.0000001
 44
0.0000000001
 12
0.3008547198
 22
-0.1737097446
 32
0.0
 13
0.3354567303
 23
0.0903184363
 33
0.0
 40
0.0
 40
0.0
 40
0.0
 40
0.0
 40
0.2300849491
 40
0.4836079614
 40
1.0
 40
1.0
 40
1.0
 40
1.0
 10
-20.0845278361
 20
-69.1037568858
 30
0.0
 10
-20.0614537885
 20
-69.1170795517
 30
0.0
 10
-20.0089919665
 20
-69.1384212833
 30
0.0
 10
-19.8949015948
 20
-69.1600080254
 30
0.0
 10
-19.8033527182
 20
-69.1538083089
 30
0.0
 10
-19.7456103233
 20
-69.1382617351
 30
0.0
 11
-20.0845278361
 21
-69.1037568858
 31
0.0
 11
-20.0109203857
 21
-69.1349191893
 31
0.0
 11
-19.9244902551
 21
-69.151859204
 31
0.0
 11
-19.7456103233
 21
-69.1382617351
 31
0.0
  0
SPLINE
  5
4D7
100
AcDbEntity
  8
RACCORDO
100
AcDbSpline
 62
7
  6
CONTINUOUS
 70
0
 71
3
 72
10
 73
6
 74
4
 42
0.0000001
 43
0.0000001
 44
0.0000000001
 12
0.0000001141
 22
0.3473993299
 32
0.0
 13
0.2459370819
 23
0.2453594223
 33
0.0
 40
0.0
 40
0.0
 40
0.0
 40
0.0
 40
0.2300791698
 40
0.4836010627
 40
1.0
 40
1.0
 40
1.0
 40
1.0
 10
-19.6858500215
 20
-69.7942871159
 30
0.0
 10
-19.6858500127
 20
-69.7676439994
 30
0.0
 10
-19.6781001633
 20
-69.711541469
 30
0.0
 10
-19.6397481085
 20
-69.601944716
 30
0.0
 10
-19.5886052985
 20
-69.5257612984
 30
0.0
 10
-19.5462714159
 20
-69.4835268501
 30
0.0
 11
-19.6858500215
 21
-69.7942871159
 31
0.0
 11
-19.6760318857
 21
-69.7149630646
 31
0.0
 11
-19.647486352
 21
-69.6316440094
 31
0.0
 11
-19.5462714159
 21
-69.4835268501
 31
0.0
  0
SPLINE
  5
4D8
100
AcDbEntity
  8
RACCORDO
100
AcDbSpline
 62
7
  6
CONTINUOUS
 70
0
 71
3
 72
10
 73
6
 74
4
 42
0.0000001
 43
0.0000001
 44
0.0000000001
 12
0.0
 22
0.3473993418
 32
0.0
 13
0.2459371687
 23
0.2453593523
 33
0.0
 40
0.0
 40
0.0
 40
0.0
 40
0.0
 40
0.2300791865
 40
0.4836010752
 40
1.0
 40
1.0
 40
1.0
 40
1.0
 10
12.6501375487
 20
-88.4646810738
 30
0.0
 10
12.6501375487
 20
-88.4380379545
 30
0.0
 10
12.6578873849
 20
-88.3819354179
 30
0.0
 10
12.6962394322
 20
-88.2723386573
 30
0.0
 10
12.7473822578
 20
-88.1961552433
 30
0.0
 10
12.7897161543
 20
-88.153920808
 30
0.0
 11
12.6501375487
 21
-88.4646810738
 31
0.0
 11
12.6599556661
 21
-88.3853570117
 31
0.0
 11
12.6885011934
 21
-88.3020379526
 31
0.0
 11
12.7897161543
 21
-88.153920808
 31
0.0
  0
SPLINE
  5
4D9
100
AcDbEntity
  8
RACCORDO
100
AcDbSpline
 62
7
  6
CONTINUOUS
 70
0
 71
3
 72
11
 73
7
 74
5
 42
0.0000001
 43
0.0000001
 44
0.0000000001
 12
-0.1363070506
 22
0.0787020424
 32
0.0
 13
-0.0000536147
 23
0.1573963806
 33
0.0
 40
0.0
 40
0.0
 40
0.0
 40
0.0
 40
0.2895790523
 40
0.5491299326
 40
0.7822805821
 40
1.0
 40
1.0
 40
1.0
 40
1.0
 10
13.0488153633
 20
-88.2345339908
 30
0.0
 10
13.0356581412
 20
-88.2269371699
 30
0.0
 10
13.0117811928
 20
-88.2104794042
 30
0.0
 10
12.983229684
 20
-88.1804904543
 30
0.0
 10
12.9651656061
 20
-88.1473023347
 30
0.0
 10
12.9609537719
 20
-88.1234882992
 30
0.0
 10
12.960949881
 20
-88.1120655498
 30
0.0
 11
13.0488153633
 21
-88.2345339908
 31
0.0
 11
13.0115419755
 21
-88.2083020978
 31
0.0
 11
12.9837797937
 21
-88.1783324878
 31
0.0
 11
12.9667126091
 21
-88.1458457799
 31
0.0
 11
12.960949881
 21
-88.1120655498
 31
0.0
  0
SPLINE
  5
4DA
100
AcDbEntity
  8
RACCORDO
100
AcDbSpline
 62
7
  6
CONTINUOUS
 70
0
 71
3
 72
12
 73
8
 74
6
 42
0.0000001
 43
0.0000001
 44
0.0000000001
 12
0.5057253542
 22
-0.2920463637
 32
0.0
 13
0.0000644726
 23
-0.5839941852
 33
0.0
 40
0.0
 40
0.0
 40
0.0
 40
0.0
 40
0.2368422946
 40
0.499192476
 40
0.7618019235
 40
0.8853942361
 40
1.0
 40
1.0
 40
1.0
 40
1.0
 10
14.5550830289
 20
-49.2409456165
 30
0.0
 10
14.5950087467
 20
-49.2640019268
 30
0.0
 10
14.6706313011
 20
-49.3275380047
 30
0.0
 10
14.7590157369
 20
-49.4478270631
 30
0.0
 10
14.8108198544
 20
-49.5643796425
 30
0.0
 10
14.8333256292
 20
-49.659432455
 30
0.0
 10
14.8378802001
 20
-49.7058227618
 30
0.0
 10
14.8378826631
 20
-49.7281324617
 30
0.0
 11
14.5550830289
 21
-49.2409456165
 31
0.0
 11
14.6627814039
 21
-49.327732525
 31
0.0
 11
14.7542468528
 21
-49.4506458134
 31
0.0
 11
14.815685288
 21
-49.5911639322
 31
0.0
 11
14.8320738282
 21
-49.661455915
 31
0.0
 11
14.8378826631
 21
-49.7281324617
 31
0.0
  0
SPLINE
  5
4DB
100
AcDbEntity
  8
RACCORDO
100
AcDbSpline
 62
7
  6
CONTINUOUS
 70
0
 71
3
 72
13
 73
9
 74
7
 42
0.0000001
 43
0.0000001
 44
0.0000000001
 12
-0.0662090449
 22
0.1972123061
 32
0.0
 13
0.2078764784
 23
-0.0079812929
 33
0.0
 40
0.0
 40
0.0
 40
0.0
 40
0.0
 40
0.279534151
 40
0.5136620017
 40
0.6222252232
 40
0.7348380503
 40
0.8596282997
 40
1.0
 40
1.0
 40
1.0
 40
1.0
 10
-19.7456100618
 20
-31.8010834758
 30
0.0
 10
-19.7517792915
 20
-31.7827076176
 30
0.0
 10
-19.7602951881
 20
-31.747859869
 30
0.0
 10
-19.7547896491
 20
-31.7028462438
 30
0.0
 10
-19.7356991824
 20
-31.6768161754
 30
0.0
 10
-19.7151830068
 20
-31.6634946983
 30
0.0
 10
-19.6896019038
 20
-31.6565640459
 30
0.0
 10
-19.6711046021
 20
-31.6558146278
 30
0.0
 10
-19.6613779438
 20
-31.656188077
 30
0.0
 11
-19.7456100618
 21
-31.8010834758
 31
0.0
 11
-19.7571799704
 21
-31.7440946941
 31
0.0
 11
-19.748387109
 21
-31.6961894282
 31
0.0
 11
-19.734943263
 21
-31.6780423436
 31
0.0
 11
-19.7154556727
 21
-31.6650404568
 31
0.0
 11
-19.6905370058
 21
-31.6577613557
 31
0.0
 11
-19.6613779438
 21
-31.656188077
 31
0.0
  0
SPLINE
  5
4DC
100
AcDbEntity
  8
RACCORDO
100
AcDbSpline
 62
7
  6
CONTINUOUS
 70
0
 71
3
 72
11
 73
7
 74
5
 42
0.0000001
 43
0.0000001
 44
0.0000000001
 12
-0.4310685118
 22
0.1088707109
 32
0.0
 13
0.1215914924
 23
0.4276545364
 33
0.0
 40
0.0
 40
0.0
 40
0.0
 40
0.0
 40
0.2417492733
 40
0.5000082522
 40
0.7582667077
 40
1.0
 40
1.0
 40
1.0
 40
1.0
 10
-19.5462810437
 20
-69.4835236885
 30
0.0
 10
-19.5810178768
 20
-69.4747505501
 30
0.0
 10
-19.6505939719
 20
-69.4442177983
 30
0.0
 10
-19.7297179967
 20
-69.3592497707
 30
0.0
 10
-19.763683001
 20
-69.2482530232
 30
0.0
 10
-19.7554076551
 20
-69.1727200402
 30
0.0
 10
-19.7456100845
 20
-69.1382605938
 30
0.0
 11
-19.5462810437
 21
-69.4835236885
 31
0.0
 11
-19.6442289445
 21
-69.4392659373
 31
0.0
 11
-19.7220277826
 21
-69.3548167325
 31
0.0
 11
-19.7562400033
 21
-69.2452092606
 31
0.0
 11
-19.7456100845
 21
-69.1382605938
 31
0.0
  0
SPLINE
  5
4DD
100
AcDbEntity
  8
RACCORDO
100
AcDbSpline
 62
7
  6
CONTINUOUS
 70
0
 71
3
 72
9
 73
5
 74
3
 42
0.0000001
 43
0.0000001
 44
0.0000000001
 12
-0.0245012758
 22
-0.4136068379
 32
0.0
 13
0.370913549
 23
-0.1846457907
 33
0.0
 40
0.0
 40
0.0
 40
0.0
 40
0.0
 40
0.4999981152
 40
1.0
 40
1.0
 40
1.0
 40
1.0
 10
-18.3684141772
 20
-68.3431542099
 30
0.0
 10
-18.3724977078
 20
-68.412088423
 30
0.0
 10
-18.3335634165
 20
-68.5531446423
 30
0.0
 10
-18.2308943482
 20
-68.6576176059
 30
0.0
 10
-18.1690751904
 20
-68.6883920203
 30
0.0
 11
-18.3684141772
 21
-68.3431542099
 31
0.0
 11
-18.3176299891
 21
-68.5439983656
 31
0.0
 11
-18.1690751904
 21
-68.6883920203
 31
0.0
  0
SPLINE
  5
4DE
100
AcDbEntity
  8
RACCORDO
100
AcDbSpline
 62
7
  6
CONTINUOUS
 70
0
 71
3
 72
10
 73
6
 74
4
 42
0.0000001
 43
0.0000001
 44
0.0000000001
 12
0.1828507333
 22
-0.3543641519
 32
0.0
 13
0.2144009064
 23
-0.336215101
 33
0.0
 40
0.0
 40
0.0
 40
0.0
 40
0.0
 40
0.2273651443
 40
0.5000028679
 40
1.0
 40
1.0
 40
1.0
 40
1.0
 10
-18.2333543669
 20
-68.2651474154
 30
0.0
 10
-18.2194964058
 20
-68.2920041009
 30
0.0
 10
-18.1877060075
 20
-68.3503819745
 30
0.0
 10
-18.122313733
 20
-68.4660955788
 30
0.0
 10
-18.069748739
 20
-68.5543770017
 30
0.0
 10
-18.0340154596
 20
-68.6104125305
 30
0.0
 11
-18.2333543669
 21
-68.2651474154
 31
0.0
 11
-18.1903971326
 21
-68.3449884939
 31
0.0
 11
-18.1369271902
 21
-68.4396471786
 31
0.0
 11
-18.0340154596
 21
-68.6104125305
 31
0.0
  0
SPLINE
  5
4DF
100
AcDbEntity
  8
RACCORDO
100
AcDbSpline
 62
7
  6
CONTINUOUS
 70
0
 71
3
 72
9
 73
5
 74
3
 42
0.0000001
 43
0.0000001
 44
0.0000000001
 12
0.0072132972
 22
-0.0113899437
 32
0.0
 13
0.0118511912
 23
-0.0064274211
 33
0.0
 40
0.0
 40
0.0
 40
0.0
 40
0.0
 40
0.2343894242
 40
1.0
 40
1.0
 40
1.0
 40
1.0
 10
-18.0340154596
 20
-68.6104125305
 30
0.0
 10
-18.0334518861
 20
-68.6113024246
 30
0.0
 10
-18.030796097
 20
-68.614939979
 30
0.0
 10
-18.0271246038
 20
-68.6177830755
 30
0.0
 10
-18.0241001381
 20
-68.619423376
 30
0.0
 11
-18.0340154596
 21
-68.6104125305
 31
0.0
 11
-18.0321511072
 21
-68.6129639869
 31
0.0
 11
-18.0241001381
 21
-68.619423376
 31
0.0
  0
SPLINE
  5
4E0
100
AcDbEntity
  8
RACCORDO
100
AcDbSpline
 62
7
  6
CONTINUOUS
 70
0
 71
3
 72
9
 73
5
 74
3
 42
0.0000001
 43
0.0000001
 44
0.0000000001
 12
-0.0003312793
 22
-0.013472688
 32
0.0
 13
0.0061959411
 23
-0.011968015
 33
0.0
 40
0.0
 40
0.0
 40
0.0
 40
0.0
 40
0.2685733876
 40
1.0
 40
1.0
 40
1.0
 40
1.0
 10
-18.2361998637
 20
-68.2520558753
 30
0.0
 10
-18.2362295213
 20
-68.2532620105
 30
0.0
 10
-18.2360885363
 20
-68.2577528931
 30
0.0
 10
-18.2348649923
 20
-68.2622295072
 30
0.0
 10
-18.2333543669
 20
-68.2651474154
 30
0.0
 11
-18.2361998637
 21
-68.2520558753
 31
0.0
 11
-18.2360757049
 21
-68.2556732444
 31
0.0
 11
-18.2333543669
 21
-68.2651474154
 31
0.0
  0
SPLINE
  5
4E1
100
AcDbEntity
  8
RACCORDO
100
AcDbSpline
 62
7
  6
CONTINUOUS
 70
0
 71
3
 72
11
 73
7
 74
5
 42
0.0000001
 43
0.0000001
 44
0.0000000001
 12
0.3303340714
 22
0.1779756193
 32
0.0
 13
0.0024728007
 23
0.3752196757
 33
0.0
 40
0.0
 40
0.0
 40
0.0
 40
0.0
 40
0.2174002984
 40
0.4501302195
 40
0.7094857245
 40
1.0
 40
1.0
 40
1.0
 40
1.0
 10
15.1059162449
 20
-91.7937795079
 30
0.0
 10
15.1298544868
 20
-91.7808821903
 30
0.0
 10
15.1749084173
 20
-91.7449553379
 30
0.0
 10
15.2231658563
 20
-91.6689629471
 30
0.0
 10
15.2521658999
 20
-91.5745263102
 30
0.0
 10
15.2581727473
 20
-91.5055442507
 30
0.0
 10
15.2584122086
 20
-91.4692086933
 30
0.0
 11
15.1059162449
 21
-91.7937795079
 31
0.0
 11
15.1700064117
 21
-91.7433129589
 31
0.0
 11
15.2179469631
 21
-91.6703221145
 31
0.0
 11
15.2478145767
 21
-91.5777013698
 31
0.0
 11
15.2584122086
 21
-91.4692086933
 31
0.0
  0
SPLINE
  5
4E2
100
AcDbEntity
  8
RACCORDO
100
AcDbSpline
 62
7
  6
CONTINUOUS
 70
0
 71
3
 72
11
 73
7
 74
5
 42
0.0000001
 43
0.0000001
 44
0.0000000001
 12
-0.0068243301
 22
1.024860587
 32
0.0
 13
-0.8841392067
 23
0.5183470434
 33
0.0
 40
0.0
 40
0.0
 40
0.0
 40
0.0
 40
0.2370060342
 40
0.4999938366
 40
0.7629849612
 40
1.0
 40
1.0
 40
1.0
 40
1.0
 10
15.2584122086
 20
-49.7328879083
 30
0.0
 10
15.2578730728
 20
-49.6519218606
 30
0.0
 10
15.226596732
 20
-49.4812219671
 30
0.0
 10
15.1202330299
 20
-49.2412113589
 30
0.0
 10
14.9655571102
 20
-49.0290911601
 30
0.0
 10
14.8333642782
 20
-48.9166490883
 30
0.0
 10
14.7635128488
 20
-48.8756970734
 30
0.0
 11
15.2584122086
 21
-49.7328879083
 31
0.0
 11
15.219588118
 21
-49.4931071459
 31
0.0
 11
15.1119076647
 21
-49.2460194774
 31
0.0
 11
14.9517619277
 21
-49.0292187063
 31
0.0
 11
14.7635128488
 21
-48.8756970734
 31
0.0
  0
SPLINE
  5
4E3
100
AcDbEntity
  8
RACCORDO
100
AcDbSpline
 62
7
  6
CONTINUOUS
 70
0
 71
3
 72
11
 73
7
 74
5
 42
0.0000001
 43
0.0000001
 44
0.0000000001
 12
-0.3262172695
 22
0.1854893057
 32
0.0
 13
-0.3193340888
 23
-0.1971033464
 33
0.0
 40
0.0
 40
0.0
 40
0.0
 40
0.0
 40
0.2905184574
 40
0.5498765043
 40
0.7826053532
 40
1.0
 40
1.0
 40
1.0
 40
1.0
 10
-21.3823656818
 20
-28.0055198241
 30
0.0
 10
-21.4139563945
 20
-27.9875571351
 30
0.0
 10
-21.4767056829
 20
-27.9582622951
 30
0.0
 10
-21.5729997556
 20
-27.9361527604
 30
0.0
 10
-21.6629483723
 20
-27.9399454232
 30
0.0
 10
-21.7165942955
 20
-27.9609998231
 30
0.0
 10
-21.7397348027
 20
-27.9752828939
 30
0.0
 11
-21.3823656818
 21
-28.0055198241
 31
0.0
 11
-21.4816318823
 21
-27.9604431856
 31
0.0
 11
-21.5767872378
 21
-27.9399930318
 31
0.0
 11
-21.6639779192
 21
-27.9450124918
 31
0.0
 11
-21.7397348027
 21
-27.9752828939
 31
0.0
  0
SPLINE
  5
4E4
100
AcDbEntity
  8
RACCORDO
100
AcDbSpline
 62
7
  6
CONTINUOUS
 70
0
 71
3
 72
11
 73
7
 74
5
 42
0.0000001
 43
0.0000001
 44
0.0000000001
 12
-0.3738480846
 22
-0.223389988
 32
0.0
 13
0.000000011
 23
-0.4355060012
 33
0.0
 40
0.0
 40
0.0
 40
0.0
 40
0.0
 40
0.2383260036
 40
0.5010975909
 40
0.7632734208
 40
1.0
 40
1.0
 40
1.0
 40
1.0
 10
14.7635128478
 20
-48.8756970729
 30
0.0
 10
14.7338136078
 20
-48.8934436206
 30
0.0
 10
14.6777591314
 20
-48.9415687988
 30
0.0
 10
14.6124061262
 20
-49.0320412555
 30
0.0
 10
14.5678244974
 20
-49.1341038384
 30
0.0
 10
14.555083028
 20
-49.2065803345
 30
0.0
 10
14.5550830289
 20
-49.2409456165
 30
0.0
 11
14.7635128478
 21
-48.8756970729
 31
0.0
 11
14.6834681512
 21
-48.9417705914
 31
0.0
 11
14.6159185145
 21
-49.0341461319
 31
0.0
 11
14.5708804054
 21
-49.1390672756
 31
0.0
 11
14.5550830289
 21
-49.2409456165
 31
0.0
  0
SPLINE
  5
4E5
100
AcDbEntity
  8
RACCORDO
100
AcDbSpline
 62
7
  6
CONTINUOUS
 70
0
 71
3
 72
11
 73
7
 74
5
 42
0.0000001
 43
0.0000001
 44
0.0000000001
 12
-0.3738480757
 22
-0.2233899999
 32
0.0
 13
0.0000000017
 23
-0.4355059997
 33
0.0
 40
0.0
 40
0.0
 40
0.0
 40
0.0
 40
0.2383260021
 40
0.5010975899
 40
0.76327342
 40
1.0
 40
1.0
 40
1.0
 40
1.0
 10
-21.3823656804
 20
-28.0055198249
 30
0.0
 10
-21.4120649195
 20
-28.0232663735
 30
0.0
 10
-21.4681193946
 20
-28.0713915521
 30
0.0
 10
-21.5334724007
 20
-28.1618640075
 30
0.0
 10
-21.578054031
 20
-28.2639265895
 30
0.0
 10
-21.5907955018
 20
-28.3364030852
 30
0.0
 10
-21.5907955017
 20
-28.3707683672
 30
0.0
 11
-21.3823656804
 21
-28.0055198249
 31
0.0
 11
-21.4624103751
 21
-28.0715933442
 31
0.0
 11
-21.5299600125
 21
-28.1639688839
 31
0.0
 11
-21.5749981232
 21
-28.2688900267
 31
0.0
 11
-21.5907955017
 21
-28.3707683672
 31
0.0
  0
SPLINE
  5
4E6
100
AcDbEntity
  8
RACCORDO
100
AcDbSpline
 62
7
  6
CONTINUOUS
 70
0
 71
3
 72
11
 73
7
 74
5
 42
0.0000001
 43
0.0000001
 44
0.0000000001
 12
-0.380376472
 22
-0.21208902
 32
0.0
 13
-0.3771557076
 23
0.2177649767
 33
0.0
 40
0.0
 40
0.0
 40
0.0
 40
0.0
 40
0.2383228673
 40
0.5010914229
 40
0.763267564
 40
1.0
 40
1.0
 40
1.0
 40
1.0
 10
15.2584122086
 20
-49.7328879099
 30
0.0
 10
15.2281947381
 20
-49.7497364644
 30
0.0
 10
15.1584909407
 20
-49.7742210131
 30
0.0
 10
15.0474630331
 20
-49.7855831825
 30
0.0
 10
14.936782208
 20
-49.7731592586
 30
0.0
 10
14.8676443262
 20
-49.7479529619
 30
0.0
 10
14.8378826631
 20
-49.7307689507
 30
0.0
 11
15.2584122086
 21
-49.7328879099
 31
0.0
 11
15.1611705396
 21
-49.7691753955
 31
0.0
 11
15.0473968437
 21
-49.7814885154
 31
0.0
 11
14.9340126624
 21
-49.7680307906
 31
0.0
 11
14.8378826631
 21
-49.7307689507
 31
0.0
  0
SPLINE
  5
4E7
100
AcDbEntity
  8
RACCORDO
100
AcDbSpline
 62
7
  6
CONTINUOUS
 70
0
 71
3
 72
11
 73
7
 74
5
 42
0.0000001
 43
0.0000001
 44
0.0000000001
 12
-0.3803764778
 22
-0.2120890063
 32
0.0
 13
-0.3771557109
 23
0.2177649678
 33
0.0
 40
0.0
 40
0.0
 40
0.0
 40
0.0
 40
0.2383228673
 40
0.5010914248
 40
0.7632675667
 40
1.0
 40
1.0
 40
1.0
 40
1.0
 10
15.2584122086
 20
-91.4692086921
 30
0.0
 10
15.2281947376
 20
-91.4860572455
 30
0.0
 10
15.1584909401
 20
-91.5105417929
 30
0.0
 10
15.0474630327
 20
-91.5219039637
 30
0.0
 10
14.9367822079
 20
-91.5094800411
 30
0.0
 10
14.8676443261
 20
-91.4842737459
 30
0.0
 10
14.8378826631
 20
-91.4670897357
 30
0.0
 11
15.2584122086
 21
-91.4692086921
 31
0.0
 11
15.1611705393
 21
-91.5054961758
 31
0.0
 11
15.0473968431
 21
-91.5178092966
 31
0.0
 11
14.9340126617
 21
-91.5043515732
 31
0.0
 11
14.8378826631
 21
-91.4670897357
 31
0.0
  0
SPLINE
  5
4E8
100
AcDbEntity
  8
RACCORDO
100
AcDbSpline
 62
7
  6
CONTINUOUS
 70
0
 71
3
 72
9
 73
5
 74
3
 42
0.0000001
 43
0.0000001
 44
0.0000000001
 12
0.0000527507
 22
-0.0373502908
 32
0.0
 13
0.007764013
 23
-0.0365344647
 33
0.0
 40
0.0
 40
0.0
 40
0.0
 40
0.0
 40
0.2547386773
 40
1.0
 40
1.0
 40
1.0
 40
1.0
 10
-18.3722199181
 20
-68.3060323615
 30
0.0
 10
-18.3722154388
 20
-68.3092038827
 30
0.0
 10
-18.3718615787
 20
-68.3216493963
 30
0.0
 10
-18.370338986
 20
-68.3340760314
 30
0.0
 10
-18.3684102465
 20
-68.3431519392
 30
0.0
 11
-18.3722199181
 21
-68.3060323615
 31
0.0
 11
-18.371959314
 21
-68.315543365
 31
0.0
 11
-18.3684102465
 21
-68.3431519392
 31
0.0
  0
SPLINE
  5
4E9
100
AcDbEntity
  8
RACCORDO
100
AcDbSpline
 62
7
  6
CONTINUOUS
 70
0
 71
3
 72
15
 73
11
 74
9
 42
0.0000001
 43
0.0000001
 44
0.0000000001
 12
-0.0000290007
 22
-0.4170681703
 32
0.0
 13
-0.3612088353
 23
0.2085042849
 33
0.0
 40
0.0
 40
0.0
 40
0.0
 40
0.0
 40
0.145084411
 40
0.2749838777
 40
0.3918358314
 40
0.5009156004
 40
0.6098397431
 40
0.7262475405
 40
0.855533188
 40
1.0
 40
1.0
 40
1.0
 40
1.0
 10
14.8378826631
 20
-91.4670897357
 30
0.0
 10
14.8378812605
 20
-91.4872597656
 30
0.0
 10
14.8348469599
 20
-91.5256203934
 30
0.0
 10
14.8193945513
 20
-91.5783456033
 30
0.0
 10
14.7933679011
 20
-91.6212361521
 30
0.0
 10
14.7572416274
 20
-91.6520028259
 30
0.0
 10
14.7128169638
 20
-91.6685287554
 30
0.0
 10
14.6628289503
 20
-91.6701837031
 30
0.0
 10
14.6095596504
 20
-91.6577815406
 30
0.0
 10
14.5747605944
 20
-91.6417021603
 30
0.0
 10
14.5573663647
 20
-91.6316615105
 30
0.0
 11
14.8378826631
 21
-91.4670897357
 31
0.0
 11
14.8325053252
 21
-91.5273604187
 31
0.0
 11
14.8165749657
 21
-91.5791423047
 31
0.0
 11
14.7906997077
 21
-91.6204411392
 31
0.0
 11
14.7558626495
 21
-91.6496995754
 31
0.0
 11
14.7133836357
 21
-91.6658026379
 31
0.0
 11
14.6648886534
 21
-91.6681130386
 31
0.0
 11
14.6122071108
 21
-91.6566186221
 31
0.0
 11
14.5573663647
 21
-91.6316615105
 31
0.0
  0
SPLINE
  5
4EA
100
AcDbEntity
  8
RACCORDO
100
AcDbSpline
 62
7
  6
CONTINUOUS
 70
0
 71
3
 72
12
 73
8
 74
6
 42
0.0000001
 43
0.0000001
 44
0.0000000001
 12
-0.5057253526
 22
0.2920463627
 32
0.0
 13
-0.0000644726
 23
0.5839941832
 33
0.0
 40
0.0
 40
0.0
 40
0.0
 40
0.0
 40
0.2368422944
 40
0.4991924756
 40
0.7618019231
 40
0.8853942359
 40
1.0
 40
1.0
 40
1.0
 40
1.0
 10
-21.5907955017
 20
-70.7601658917
 30
0.0
 10
-21.6307212193
 20
-70.7371095815
 30
0.0
 10
-21.7063437735
 20
-70.6735735039
 30
0.0
 10
-21.7947282091
 20
-70.5532844461
 30
0.0
 10
-21.8465323267
 20
-70.4367318672
 30
0.0
 10
-21.8690381016
 20
-70.341679055
 30
0.0
 10
-21.8735926729
 20
-70.2952887483
 30
0.0
 10
-21.8735951359
 20
-70.2729790484
 30
0.0
 11
-21.5907955017
 21
-70.7601658917
 31
0.0
 11
-21.6984938763
 21
-70.6733789836
 31
0.0
 11
-21.789959325
 21
-70.5504656958
 31
0.0
 11
-21.8513977603
 21
-70.4099475776
 31
0.0
 11
-21.8677863008
 21
-70.339655595
 31
0.0
 11
-21.8735951359
 21
-70.2729790484
 31
0.0
  0
SPLINE
  5
4EB
100
AcDbEntity
  8
RACCORDO
100
AcDbSpline
 62
7
  6
CONTINUOUS
 70
0
 71
3
 72
11
 73
7
 74
5
 42
0.0000001
 43
0.0000001
 44
0.0000000001
 12
0.0000141053
 22
-0.1574089984
 32
0.0
 13
0.1363179965
 23
-0.078708302
 33
0.0
 40
0.0
 40
0.0
 40
0.0
 40
0.0
 40
0.2177586874
 40
0.4509006419
 40
0.7104563331
 40
1.0
 40
1.0
 40
1.0
 40
1.0
 10
-21.961449829
 20
-70.147860197
 30
0.0
 10
-21.9614488052
 20
-70.1592859226
 30
0.0
 10
-21.9572536126
 20
-70.1831068143
 30
0.0
 10
-21.9391834353
 20
-70.2163002316
 30
0.0
 10
-21.910627028
 20
-70.2462847295
 30
0.0
 10
-21.8867518067
 20
-70.2627460607
 30
0.0
 10
-21.8735951359
 20
-70.2703425575
 30
0.0
 11
-21.961449829
 21
-70.147860197
 31
0.0
 11
-21.955700371
 21
-70.1816517432
 31
0.0
 11
-21.9386338582
 21
-70.2141405789
 31
0.0
 11
-21.9108660234
 21
-70.2441104454
 31
0.0
 11
-21.8735951359
 21
-70.2703425575
 31
0.0
  0
SPLINE
  5
4EC
100
AcDbEntity
  8
RACCORDO
100
AcDbSpline
 62
7
  6
CONTINUOUS
 70
0
 71
3
 72
11
 73
7
 74
5
 42
0.0000001
 43
0.0000001
 44
0.0000000001
 12
0.000014108
 22
-0.157408994
 32
0.0
 13
0.1363179944
 23
-0.0787082969
 33
0.0
 40
0.0
 40
0.0
 40
0.0
 40
0.0
 40
0.2177586882
 40
0.4509006427
 40
0.7104563324
 40
1.0
 40
1.0
 40
1.0
 40
1.0
 10
-21.961449829
 20
-28.4115394173
 30
0.0
 10
-21.961448805
 20
-28.4229651427
 30
0.0
 10
-21.9572536121
 20
-28.4467860337
 30
0.0
 10
-21.9391834346
 20
-28.4799794496
 30
0.0
 10
-21.9106270275
 20
-28.5099639461
 30
0.0
 10
-21.8867518066
 20
-28.5264252762
 30
0.0
 10
-21.8735951359
 20
-28.5340217725
 30
0.0
 11
-21.961449829
 21
-28.4115394173
 31
0.0
 11
-21.9557003706
 21
-28.4453309627
 31
0.0
 11
-21.9386338575
 21
-28.477819797
 31
0.0
 11
-21.9108660231
 21
-28.507789662
 31
0.0
 11
-21.8735951359
 21
-28.5340217725
 31
0.0
  0
SPLINE
  5
4ED
100
AcDbEntity
  8
RACCORDO
100
AcDbSpline
 62
7
  6
CONTINUOUS
 70
0
 71
3
 72
11
 73
7
 74
5
 42
0.0000001
 43
0.0000001
 44
0.0000000001
 12
-0.1362924929
 22
0.0787097748
 32
0.0
 13
-0.0000000006
 23
0.1573876497
 33
0.0
 40
0.0
 40
0.0
 40
0.0
 40
0.0
 40
0.2177541405
 40
0.4508937694
 40
0.7104507771
 40
1.0
 40
1.0
 40
1.0
 40
1.0
 10
14.6172144363
 20
-91.7676526954
 30
0.0
 10
14.6073216848
 20
-91.761939569
 30
0.0
 10
14.5887930979
 20
-91.7463976515
 30
0.0
 10
14.5690860575
 20
-91.7141554784
 30
0.0
 10
14.5574000957
 20
-91.6744373431
 30
0.0
 10
14.555083029
 20
-91.6455336315
 30
0.0
 10
14.5550830289
 20
-91.630343141
 30
0.0
 11
14.6172144363
 21
-91.7676526954
 31
0.0
 11
14.5908296916
 21
-91.7457802842
 31
0.0
 11
14.5712309115
 21
-91.71475955
 31
0.0
 11
14.5591632978
 21
-91.6757315804
 31
0.0
 11
14.5550830289
 21
-91.630343141
 31
0.0
  0
SPLINE
  5
4EE
100
AcDbEntity
  8
RACCORDO
100
AcDbSpline
 62
7
  6
CONTINUOUS
 70
0
 71
3
 72
11
 73
7
 74
5
 42
0.0000001
 43
0.0000001
 44
0.0000000001
 12
-0.1362924929
 22
0.0787097779
 32
0.0
 13
-0.000000004
 23
0.1573876512
 33
0.0
 40
0.0
 40
0.0
 40
0.0
 40
0.0
 40
0.2177541423
 40
0.4508937728
 40
0.710450779
 40
1.0
 40
1.0
 40
1.0
 40
1.0
 10
-21.5286640922
 20
-70.8974754473
 30
0.0
 10
-21.5385568438
 20
-70.8917623206
 30
0.0
 10
-21.5570854308
 20
-70.8762204027
 30
0.0
 10
-21.5767924716
 20
-70.8439782292
 30
0.0
 10
-21.5884784342
 20
-70.8042600939
 30
0.0
 10
-21.5907955013
 20
-70.7753563823
 30
0.0
 10
-21.5907955017
 20
-70.7601658917
 30
0.0
 11
-21.5286640922
 21
-70.8974754473
 31
0.0
 11
-21.5550488372
 21
-70.8756030355
 31
0.0
 11
-21.5746476177
 21
-70.8445823007
 31
0.0
 11
-21.586715232
 21
-70.8055543312
 31
0.0
 11
-21.5907955017
 21
-70.7601658917
 31
0.0
  0
SPLINE
  5
4EF
100
AcDbEntity
  8
RACCORDO
100
AcDbSpline
 62
7
  6
CONTINUOUS
 70
0
 71
3
 72
15
 73
11
 74
9
 42
0.0000001
 43
0.0000001
 44
0.0000000001
 12
0.0000238213
 22
-0.597984879
 32
0.0
 13
-0.5178420862
 23
0.2990409502
 33
0.0
 40
0.0
 40
0.0
 40
0.0
 40
0.0
 40
0.1446786948
 40
0.2748799313
 40
0.3916072275
 40
0.4999943582
 40
0.6083856293
 40
0.725122466
 40
0.8553266085
 40
1.0
 40
1.0
 40
1.0
 40
1.0
 10
13.0488153633
 20
-88.2345339908
 30
0.0
 10
13.0488165121
 20
-88.2633725481
 30
0.0
 10
13.0448708716
 20
-88.3183253553
 30
0.0
 10
13.0242208473
 20
-88.3942496541
 30
0.0
 10
12.9882521698
 20
-88.456470159
 30
0.0
 10
12.9367918419
 20
-88.500839272
 30
0.0
 10
12.8726283942
 20
-88.5232031457
 30
0.0
 10
12.8007574581
 20
-88.5232228753
 30
0.0
 10
12.7246790715
 20
-88.5031511595
 30
0.0
 10
12.6751102056
 20
-88.4791021633
 30
0.0
 10
12.6501375487
 20
-88.4646810738
 30
0.0
 11
13.0488153633
 21
-88.2345339908
 31
0.0
 11
13.0417406465
 21
-88.3207599142
 31
0.0
 11
13.0201807673
 21
-88.3955736663
 31
0.0
 11
12.9841957217
 21
-88.455384018
 31
0.0
 11
12.9347286038
 21
-88.4972629074
 31
0.0
 11
12.873718424
 21
-88.5191470581
 31
0.0
 11
12.8039226382
 21
-88.5203906131
 31
0.0
 11
12.728349615
 21
-88.5016578968
 31
0.0
 11
12.6501375487
 21
-88.4646810738
 31
0.0
  0
SPLINE
  5
4F0
100
AcDbEntity
  8
RACCORDO
100
AcDbSpline
 62
7
  6
CONTINUOUS
 70
0
 71
3
 72
9
 73
5
 74
3
 42
0.0000001
 43
0.0000001
 44
0.0000000001
 12
0.1563813851
 22
-0.090284346
 32
0.0
 13
0.1281480412
 23
-0.1272182387
 33
0.0
 40
0.0
 40
0.0
 40
0.0
 40
0.0
 40
0.2366293495
 40
1.0
 40
1.0
 40
1.0
 40
1.0
 10
12.6501375487
 20
-50.2068243923
 30
0.0
 10
12.6624723572
 20
-50.213945701
 30
0.0
 10
12.7134998978
 20
-50.2459290283
 30
0.0
 10
12.7600360046
 20
-50.2848890299
 30
0.0
 10
12.7926441558
 20
-50.3172605864
 30
0.0
 11
12.6501375487
 21
-50.2068243923
 31
0.0
 11
12.6863700938
 21
-50.2294727369
 31
0.0
 11
12.7926441558
 21
-50.3172605864
 31
0.0
  0
SPLINE
  5
4F1
100
AcDbEntity
  8
RACCORDO
100
AcDbSpline
 62
7
  6
CONTINUOUS
 70
0
 71
3
 72
10
 73
6
 74
4
 42
0.0000001
 43
0.0000001
 44
0.0000000001
 12
0.4592582815
 22
-0.4559260458
 32
0.0
 13
0.0000021875
 23
-0.6471373334
 33
0.0
 40
0.0
 40
0.0
 40
0.0
 40
0.0
 40
0.5173571193
 40
0.7703670028
 40
1.0
 40
1.0
 40
1.0
 40
1.0
 10
12.7926441558
 20
-50.3172605864
 30
0.0
 10
12.8718443363
 20
-50.395886115
 30
0.0
 10
12.9673477
 20
-50.538176084
 30
0.0
 10
13.0358639288
 20
-50.7434632005
 30
0.0
 10
13.0488151959
 20
-50.8478199272
 30
0.0
 10
13.0488153633
 20
-50.8973546224
 30
0.0
 11
12.7926441558
 21
-50.3172605864
 31
0.0
 11
12.9808517148
 21
-50.5941535183
 31
0.0
 11
13.0319372257
 21
-50.7497121397
 31
0.0
 11
13.0488153633
 21
-50.8973546224
 31
0.0
  0
SPLINE
  5
4F2
100
AcDbEntity
  8
RACCORDO
100
AcDbSpline
 62
7
  6
CONTINUOUS
 70
0
 71
3
 72
15
 73
11
 74
9
 42
0.0000001
 43
0.0000001
 44
0.0000000001
 12
-0.0000387078
 22
0.5979848853
 32
0.0
 13
0.5178497191
 23
-0.2990277463
 33
0.0
 40
0.0
 40
0.0
 40
0.0
 40
0.0
 40
0.1446658674
 40
0.2748627245
 40
0.391594032
 40
0.4999831839
 40
0.6083724348
 40
0.7251052566
 40
0.8553137174
 40
1.0
 40
1.0
 40
1.0
 40
1.0
 10
-20.0845278361
 20
-31.7665775174
 30
0.0
 10
-20.0845297027
 20
-31.7377415166
 30
0.0
 10
-20.0805706884
 20
-31.6827921581
 30
0.0
 10
-20.0599108915
 20
-31.6068754267
 30
0.0
 10
-20.0239542925
 20
-31.5446488032
 30
0.0
 10
-19.9725006047
 20
-31.500270055
 30
0.0
 10
-19.9083421254
 20
-31.477895741
 30
0.0
 10
-19.8364704807
 20
-31.4778623815
 30
0.0
 10
-19.7603903995
 20
-31.4979463236
 30
0.0
 10
-19.7108252718
 20
-31.5220086967
 30
0.0
 10
-19.6858500215
 20
-31.5364304344
 30
0.0
 11
-20.0845278361
 21
-31.7665775174
 31
0.0
 11
-20.0774419405
 21
-31.6803602073
 31
0.0
 11
-20.0558753142
 21
-31.6055511245
 31
0.0
 11
-20.0198970272
 21
-31.5457339068
 31
0.0
 11
-19.9704361683
 21
-31.503845754
 31
0.0
 11
-19.9094308602
 21
-31.4819516001
 31
0.0
 11
-19.8396376418
 21
-31.480698707
 31
0.0
 11
-19.7640639777
 21
-31.4994395728
 31
0.0
 11
-19.6858500215
 21
-31.5364304344
 31
0.0
  0
SPLINE
  5
4F3
100
AcDbEntity
  8
RACCORDO
100
AcDbSpline
 62
7
  6
CONTINUOUS
 70
0
 71
3
 72
11
 73
7
 74
5
 42
0.0000001
 43
0.0000001
 44
0.0000000001
 12
-0.7171285941
 22
0.4140697132
 32
0.0
 13
0.0000544718
 23
0.8280864356
 33
0.0
 40
0.0
 40
0.0
 40
0.0
 40
0.0
 40
0.2369489663
 40
0.5000027919
 40
0.7630483128
 40
1.0
 40
1.0
 40
1.0
 40
1.0
 10
-19.6858500215
 20
-69.7942871159
 30
0.0
 10
-19.7424909812
 20
-69.7615826524
 30
0.0
 10
-19.8510359802
 20
-69.6730132513
 30
0.0
 10
-19.9777390139
 20
-69.5024556622
 30
0.0
 10
-20.0620677963
 20
-69.3074448415
 30
0.0
 10
-20.0845321385
 20
-69.1691623785
 30
0.0
 10
-20.0845278361
 20
-69.1037568858
 30
0.0
 11
-19.6858500215
 21
-69.7942871159
 31
0.0
 11
-19.8396376463
 21
-69.6724290481
 31
0.0
 11
-19.9704361608
 21
-69.4982388469
 31
0.0
 11
-20.0558752905
 21
-69.2978700952
 31
0.0
 11
-20.0845278361
 21
-69.1037568858
 31
0.0
  0
SPLINE
  5
4F4
100
AcDbEntity
  8
CURVE
100
AcDbSpline
 62
7
  6
CONTINUOUS
 70
0
 71
3
 72
25
 73
21
 74
19
 42
0.0000001
 43
0.0000001
 44
0.0000000001
 12
0.5420671437
 22
-0.0842517062
 32
0.0
 13
0.5668876432
 23
-0.564262818
 33
0.0
 40
0.0
 40
0.0
 40
0.0
 40
0.0
 40
0.125
 40
0.15625
 40
0.1875
 40
0.25
 40
0.3125
 40
0.34375
 40
0.375
 40
0.4375
 40
0.46875
 40
0.5
 40
0.53125
 40
0.5625
 40
0.625
 40
0.6875
 40
0.75
 40
0.8125
 40
0.875
 40
1.0
 40
1.0
 40
1.0
 40
1.0
 10
2.0991683469
 20
-79.0309828105
 30
0.0
 10
2.1217544779
 20
-79.0344932983
 30
0.0
 10
2.1502208243
 20
-79.0395556542
 30
0.0
 10
2.1836793919
 20
-79.0436077426
 30
0.0
 10
2.207480673
 20
-79.0506243107
 30
0.0
 10
2.2377799325
 20
-79.0610704384
 30
0.0
 10
2.2678237322
 20
-79.0704302146
 30
0.0
 10
2.2920337489
 20
-79.0791849451
 30
0.0
 10
2.3167266796
 20
-79.0921711685
 30
0.0
 10
2.3412825117
 20
-79.1037916743
 30
0.0
 10
2.365887454
 20
-79.1163357134
 30
0.0
 10
2.3843309289
 20
-79.1243388603
 30
0.0
 10
2.4027907758
 20
-79.1374997704
 30
0.0
 10
2.4273930515
 20
-79.1532864161
 30
0.0
 10
2.4581863672
 20
-79.1733345738
 30
0.0
 10
2.4949603652
 20
-79.1985229323
 30
0.0
 10
2.5309760621
 20
-79.2296815007
 30
0.0
 10
2.5673920026
 20
-79.2578211565
 30
0.0
 10
2.6148230253
 20
-79.3034812849
 30
0.0
 10
2.6501821083
 20
-79.339258376
 30
0.0
 10
2.6738024268
 20
-79.3627693267
 30
0.0
 11
2.0991683469
 21
-79.0309828105
 31
0.0
 11
2.1669267398
 21
-79.0415142738
 31
0.0
 11
2.1838663381
 21
-79.0441471396
 31
0.0
 11
2.2015668633
 21
-79.0489818632
 31
0.0
 11
2.2377288405
 21
-79.0608531681
 31
0.0
 11
2.2738908178
 21
-79.072724473
 31
0.0
 11
2.2920941132
 21
-79.0797138817
 31
0.0
 11
2.310542022
 21
-79.0888108029
 31
0.0
 11
2.3474378398
 21
-79.1070046452
 31
0.0
 11
2.3658857487
 21
-79.1161015663
 31
0.0
 11
2.3843336575
 21
-79.1251984875
 31
0.0
 11
2.4027894191
 21
-79.1372796161
 31
0.0
 11
2.4212451807
 21
-79.1493607447
 31
0.0
 11
2.4581567038
 21
-79.173523002
 31
0.0
 11
2.4948339817
 21
-79.1995179673
 31
0.0
 11
2.5310427694
 21
-79.2291783486
 31
0.0
 11
2.567251557
 21
-79.2588387299
 31
0.0
 11
2.6029414714
 21
-79.2922364745
 31
0.0
 11
2.6738024268
 21
-79.3627693267
 31
0.0
  0
SPLINE
  5
4F5
100
AcDbEntity
  8
CURVE
100
AcDbSpline
 62
7
  6
CONTINUOUS
 70
0
 71
3
 72
9
 73
5
 74
3
 42
0.0000001
 43
0.0000001
 44
0.0000000001
 12
0.1109448157
 22
-0.3810872329
 32
0.0
 13
0.0103475798
 23
-0.3479090121
 33
0.0
 40
0.0
 40
0.0
 40
0.0
 40
0.0
 40
0.5
 40
1.0
 40
1.0
 40
1.0
 40
1.0
 10
-17.1908067258
 20
-53.1207566843
 30
0.0
 10
-17.1723159232
 20
-53.1842712231
 30
0.0
 10
-17.138388996
 20
-53.3117020564
 30
0.0
 10
-17.1313863709
 20
-53.4301965969
 30
0.0
 10
-17.1296617742
 20
-53.4881814322
 30
0.0
 11
-17.1908067258
 21
-53.1207566843
 31
0.0
 11
-17.1451200715
 21
-53.3094679832
 31
0.0
 11
-17.1296617742
 21
-53.4881814322
 31
0.0
  0
SPLINE
  5
4F6
100
AcDbEntity
  8
CURVE
100
AcDbSpline
 62
7
  6
CONTINUOUS
 70
0
 71
3
 72
9
 73
5
 74
3
 42
0.0000001
 43
0.0000001
 44
0.0000000001
 12
-0.0103348595
 22
-0.3357573062
 32
0.0
 13
-0.1110071496
 23
-0.2531326964
 33
0.0
 40
0.0
 40
0.0
 40
0.0
 40
0.0
 40
0.5
 40
1.0
 40
1.0
 40
1.0
 40
1.0
 10
-17.1296617742
 20
-53.4881814412
 30
0.0
 10
-17.1313842508
 20
-53.5441409922
 30
0.0
 10
-17.138382617
 20
-53.6545518832
 30
0.0
 10
-17.172305531
 20
-53.7428087516
 30
0.0
 10
-17.1908067226
 20
-53.7849975343
 30
0.0
 11
-17.1296617742
 21
-53.4881814412
 31
0.0
 11
-17.145113754
 21
-53.6490133775
 31
0.0
 11
-17.1908067226
 21
-53.7849975343
 31
0.0
  0
SPLINE
  5
4F7
100
AcDbEntity
  8
RACCORDO
100
AcDbSpline
 62
7
  6
CONTINUOUS
 70
0
 71
3
 72
9
 73
5
 74
3
 42
0.0000001
 43
0.0000001
 44
0.0000000001
 12
-0.1258022839
 22
-0.0751721723
 32
0.0
 13
-0.1037487076
 23
-0.1035049555
 33
0.0
 40
0.0
 40
0.0
 40
0.0
 40
0.0
 40
0.2375582814
 40
1.0
 40
1.0
 40
1.0
 40
1.0
 10
-18.0241001381
 20
-10.6500337237
 30
0.0
 10
-18.0340619295
 20
-10.6559863144
 30
0.0
 10
-18.0750902903
 20
-10.6825521137
 30
0.0
 10
-18.1124847143
 20
-10.7145420205
 30
0.0
 10
-18.1388521619
 20
-10.7408475192
 30
0.0
 11
-18.0241001381
 21
-10.6500337237
 31
0.0
 11
-18.0533501059
 21
-10.6689142694
 31
0.0
 11
-18.1388521619
 21
-10.7408475192
 31
0.0
  0
SPLINE
  5
4F8
100
AcDbEntity
  8
RACCORDO
100
AcDbSpline
 62
7
  6
CONTINUOUS
 70
0
 71
3
 72
9
 73
5
 74
3
 42
0.0000001
 43
0.0000001
 44
0.0000000001
 12
-0.1440896835
 22
-0.0602425756
 32
0.0
 13
-0.1252946643
 23
-0.0932322471
 33
0.0
 40
0.0
 40
0.0
 40
0.0
 40
0.0
 40
0.2409283394
 40
1.0
 40
1.0
 40
1.0
 40
1.0
 10
-18.0340154362
 20
-10.6410222292
 30
0.0
 10
-18.0455871989
 20
-10.6458602771
 30
0.0
 10
-18.0929228795
 20
-10.6675861032
 30
0.0
 10
-18.1373713918
 20
-10.6954156394
 30
0.0
 10
-18.1690739347
 20
-10.719005625
 30
0.0
 11
-18.0340154362
 21
-10.6410222292
 31
0.0
 11
-18.0682286228
 21
-10.6566833103
 31
0.0
 11
-18.1690739347
 21
-10.719005625
 31
0.0
  0
SPLINE
  5
4F9
100
AcDbEntity
  8
RACCORDO
100
AcDbSpline
 62
7
  6
CONTINUOUS
 70
0
 71
3
 72
9
 73
5
 74
3
 42
0.0000001
 43
0.0000001
 44
0.0000000001
 12
-0.1242085342
 22
-0.0946731593
 32
0.0
 13
-0.1433862242
 23
-0.0618963471
 33
0.0
 40
0.0
 40
0.0
 40
0.0
 40
0.0
 40
0.2409316862
 40
1.0
 40
1.0
 40
1.0
 40
1.0
 10
-18.2333542709
 20
-10.2957578141
 30
0.0
 10
-18.2433295281
 20
-10.3033610687
 30
0.0
 10
-18.2858100786
 20
-10.3334950175
 30
0.0
 10
-18.3321340619
 20
-10.3580761366
 30
0.0
 10
-18.3684140417
 20
-10.3737373219
 30
0.0
 11
-18.2333542709
 21
-10.2957578141
 31
0.0
 11
-18.2640224533
 21
-10.3175591838
 31
0.0
 11
-18.3684140417
 21
-10.3737373219
 31
0.0
  0
SPLINE
  5
4FA
100
AcDbEntity
  8
RACCORDO
100
AcDbSpline
 62
7
  6
CONTINUOUS
 70
0
 71
3
 72
9
 73
5
 74
3
 42
0.0000001
 43
0.0000001
 44
0.0000000001
 12
-0.1279979641
 22
-0.071367648
 32
0.0
 13
-0.1415101583
 23
-0.0381011166
 33
0.0
 40
0.0
 40
0.0
 40
0.0
 40
0.0
 40
0.2375585064
 40
1.0
 40
1.0
 40
1.0
 40
1.0
 10
-18.2361998637
 20
-10.282666223
 30
0.0
 10
-18.2463355321
 20
-10.2883175537
 30
0.0
 10
-18.2898550887
 20
-10.3105681436
 30
0.0
 10
-18.3362555117
 20
-10.326959416
 30
0.0
 10
-18.3722199172
 20
-10.3366427067
 30
0.0
 11
-18.2361998637
 21
-10.282666223
 31
0.0
 11
-18.2671749928
 21
-10.2985585225
 31
0.0
 11
-18.3722199172
 21
-10.3366427067
 31
0.0
  0
SPLINE
  5
4FB
100
AcDbEntity
  8
RACCORDO
100
AcDbSpline
 62
7
  6
CONTINUOUS
 70
0
 71
3
 72
15
 73
11
 74
9
 42
0.0000001
 43
0.0000001
 44
0.0000000001
 12
0.0000290007
 22
0.4170681613
 32
0.0
 13
0.3612088276
 23
-0.2085042804
 33
0.0
 40
0.0
 40
0.0
 40
0.0
 40
0.0
 40
0.1450844117
 40
0.2749838793
 40
0.3918358339
 40
0.5009156036
 40
0.6098397464
 40
0.7262475433
 40
0.8555331895
 40
1.0
 40
1.0
 40
1.0
 40
1.0
 10
-21.8735951359
 20
29.4353678798
 30
0.0
 10
-21.8735937334
 20
29.4555379094
 30
0.0
 10
-21.8705594328
 20
29.4938985365
 30
0.0
 10
-21.8551070247
 20
29.5466237458
 30
0.0
 10
-21.8290803755
 20
29.5895142942
 30
0.0
 10
-21.7929541031
 20
29.6202809682
 30
0.0
 10
-21.7485294409
 20
29.6368068986
 30
0.0
 10
-21.6985414287
 20
29.6384618476
 30
0.0
 10
-21.6452721301
 20
29.6260596871
 30
0.0
 10
-21.6104730744
 20
29.6099803086
 30
0.0
 10
-21.5930788454
 20
29.5999396591
 30
0.0
 11
-21.8735951359
 21
29.4353678798
 31
0.0
 11
-21.8682177982
 21
29.4956385618
 31
0.0
 11
-21.8522874393
 21
29.5474204471
 31
0.0
 11
-21.8264121822
 21
29.5887192814
 31
0.0
 11
-21.791575125
 21
29.6179777179
 31
0.0
 11
-21.7490961125
 21
29.6340807812
 31
0.0
 11
-21.7006011316
 21
29.6363911831
 31
0.0
 11
-21.6479195903
 21
29.6248967686
 31
0.0
 11
-21.5930788454
 21
29.5999396591
 31
0.0
  0
SPLINE
  5
4FC
100
AcDbEntity
  8
RACCORDO
100
AcDbSpline
 62
7
  6
CONTINUOUS
 70
0
 71
3
 72
9
 73
5
 74
3
 42
0.0000001
 43
0.0000001
 44
0.0000000001
 12
-0.0290535392
 22
-0.0551073363
 32
0.0
 13
-0.0539576766
 23
-0.0311367274
 33
0.0
 40
0.0
 40
0.0
 40
0.0
 40
0.0
 40
0.277017043
 40
1.0
 40
1.0
 40
1.0
 40
1.0
 10
12.9573329975
 20
-30.1840321938
 30
0.0
 10
12.9546502224
 20
-30.1891207509
 30
0.0
 10
12.944169422
 20
-30.2069707882
 30
0.0
 10
12.9294143742
 20
-30.2229521987
 30
0.0
 10
12.9164108807
 20
-30.2304559731
 30
0.0
 11
12.9573329975
 21
-30.1840321938
 31
0.0
 11
12.9485155026
 21
-30.1988668845
 31
0.0
 11
12.9164108807
 21
-30.2304559731
 31
0.0
  0
SPLINE
  5
4FD
100
AcDbEntity
  8
RACCORDO
100
AcDbSpline
 62
7
  6
CONTINUOUS
 70
0
 71
3
 72
11
 73
7
 74
5
 42
0.0000001
 43
0.0000001
 44
0.0000000001
 12
-0.1261722059
 22
-0.072808724
 32
0.0
 13
-0.0964136199
 23
0.1092014182
 33
0.0
 40
0.0
 40
0.0
 40
0.0
 40
0.0
 40
0.2220361667
 40
0.4505038999
 40
0.7087907003
 40
1.0
 40
1.0
 40
1.0
 40
1.0
 10
12.9164108807
 20
-30.2304559731
 30
0.0
 10
12.9070726164
 20
-30.2358446964
 30
0.0
 10
12.885008889
 20
-30.2423445261
 30
0.0
 10
12.8504188143
 20
-30.2344472725
 30
0.0
 10
12.8181801732
 20
-30.2139707754
 30
0.0
 10
12.7990742441
 20
-30.1951305988
 30
0.0
 10
12.7897153966
 20
-30.1845304426
 30
0.0
 11
12.9164108807
 21
-30.2304559731
 31
0.0
 11
12.8853429346
 21
-30.2394535506
 31
0.0
 11
12.8526634755
 21
-30.2331518065
 31
0.0
 11
12.8203542343
 21
-30.2138702393
 31
0.0
 11
12.7897153966
 21
-30.1845304426
 31
0.0
  0
SPLINE
  5
4FE
100
AcDbEntity
  8
RACCORDO
100
AcDbSpline
 62
7
  6
CONTINUOUS
 70
0
 71
3
 72
11
 73
7
 74
5
 42
0.0000001
 43
0.0000001
 44
0.0000000001
 12
-0.1363190161
 22
0.0787088914
 32
0.0
 13
-0.0000316866
 23
0.1574101736
 33
0.0
 40
0.0
 40
0.0
 40
0.0
 40
0.0
 40
0.2895817376
 40
0.5491318165
 40
0.7822802582
 40
1.0
 40
1.0
 40
1.0
 40
1.0
 10
13.0488153633
 20
7.0720350299
 30
0.0
 10
13.0356568641
 20
7.0796325824
 30
0.0
 10
13.0117778217
 20
7.0960920363
 30
0.0
 10
12.9832247471
 20
7.1260846157
 30
0.0
 10
12.9651614632
 20
7.1592769646
 30
0.0
 10
12.9609521768
 20
7.1830936406
 30
0.0
 10
12.9609498772
 20
7.1945174081
 30
0.0
 11
13.0488153633
 21
7.0720350299
 31
0.0
 11
13.0115386104
 21
7.0982698129
 31
0.0
 11
12.9837751675
 21
7.1282429605
 31
0.0
 11
12.9667090711
 21
7.1607334785
 31
0.0
 11
12.9609498772
 21
7.1945174081
 31
0.0
  0
SPLINE
  5
4FF
100
AcDbEntity
  8
RACCORDO
100
AcDbSpline
 62
7
  6
CONTINUOUS
 70
0
 71
3
 72
11
 73
7
 74
5
 42
0.0000001
 43
0.0000001
 44
0.0000000001
 12
-0.0000000517
 22
-0.1573888098
 32
0.0
 13
0.1362846782
 23
-0.0787256244
 33
0.0
 40
0.0
 40
0.0
 40
0.0
 40
0.0
 40
0.2895872683
 40
0.5491386409
 40
0.7822847649
 40
1.0
 40
1.0
 40
1.0
 40
1.0
 10
12.6501375487
 20
7.76256526
 30
0.0
 10
12.6501375437
 20
7.7473726615
 30
0.0
 10
12.6524510658
 20
7.7184665846
 30
0.0
 10
12.6641456822
 20
7.6787472984
 30
0.0
 10
12.6838552441
 20
7.6465116307
 30
0.0
 10
12.702373135
 20
7.63095962
 30
0.0
 10
12.7122635519
 20
7.6252463641
 30
0.0
 11
12.6501375487
 21
7.76256526
 31
0.0
 11
12.6542171842
 21
7.7171704143
 31
0.0
 11
12.6662898258
 21
7.6781446129
 31
0.0
 11
12.6858902693
 21
7.6471234005
 31
0.0
 11
12.7122635519
 21
7.6252463641
 31
0.0
  0
SPLINE
  5
500
100
AcDbEntity
  8
RACCORDO
100
AcDbSpline
 62
7
  6
CONTINUOUS
 70
0
 71
3
 72
11
 73
7
 74
5
 42
0.0000001
 43
0.0000001
 44
0.0000000001
 12
0.0
 22
-0.157342478
 32
0.0
 13
0.1362077173
 23
-0.0787661927
 33
0.0
 40
0.0
 40
0.0
 40
0.0
 40
0.0
 40
0.2895781872
 40
0.5491322113
 40
0.7822857584
 40
1.0
 40
1.0
 40
1.0
 40
1.0
 10
-19.6858500215
 20
26.4329592179
 30
0.0
 10
-19.6858500215
 20
26.417771568
 30
0.0
 10
-19.6835379122
 20
26.3888744253
 30
0.0
 10
-19.6718512387
 20
26.3491657957
 30
0.0
 10
-19.6521553108
 20
26.3169349245
 30
0.0
 10
-19.6336493741
 20
26.3013799437
 30
0.0
 10
-19.6237645875
 20
26.2956637697
 30
0.0
 11
-19.6858500215
 21
26.4329592179
 31
0.0
 11
-19.6817731707
 21
26.3875790277
 31
0.0
 11
-19.6697087167
 21
26.3485628449
 31
0.0
 11
-19.6501211853
 21
26.3175448715
 31
0.0
 11
-19.6237645875
 21
26.2956637697
 31
0.0
  0
SPLINE
  5
501
100
AcDbEntity
  8
RACCORDO
100
AcDbSpline
 62
7
  6
CONTINUOUS
 70
0
 71
3
 72
10
 73
6
 74
4
 42
0.0000001
 43
0.0000001
 44
0.0000000001
 12
0.3008557635
 22
-0.1737074046
 32
0.0
 13
0.335457116
 23
0.0903159797
 33
0.0
 40
0.0
 40
0.0
 40
0.0
 40
0.0
 40
0.2300845876
 40
0.483607702
 40
1.0
 40
1.0
 40
1.0
 40
1.0
 10
-20.0845278361
 20
26.2028121349
 30
0.0
 10
-20.0614537447
 20
26.1894896694
 30
0.0
 10
-20.0089918924
 20
26.1681482614
 30
0.0
 10
-19.894901584
 20
26.1465617494
 30
0.0
 10
-19.8033528136
 20
26.1527611269
 30
0.0
 10
-19.7456103233
 20
26.1683072857
 30
0.0
 11
-20.0845278361
 21
26.2028121349
 31
0.0
 11
-20.0109203865
 21
26.1716503089
 31
0.0
 11
-19.9244902563
 21
26.1547104583
 31
0.0
 11
-19.7456103233
 21
26.1683072857
 31
0.0
  0
SPLINE
  5
502
100
AcDbEntity
  8
RACCORDO
100
AcDbSpline
 62
7
  6
CONTINUOUS
 70
0
 71
3
 72
10
 73
6
 74
4
 42
0.0000001
 43
0.0000001
 44
0.0000000001
 12
0.3008547198
 22
-0.1737097446
 32
0.0
 13
0.3354567303
 23
0.0903184363
 33
0.0
 40
0.0
 40
0.0
 40
0.0
 40
0.0
 40
0.2300849491
 40
0.4836079614
 40
1.0
 40
1.0
 40
1.0
 40
1.0
 10
-20.0845278361
 20
-11.1343672335
 30
0.0
 10
-20.0614537885
 20
-11.1476898994
 30
0.0
 10
-20.0089919665
 20
-11.169031631
 30
0.0
 10
-19.8949015948
 20
-11.1906183731
 30
0.0
 10
-19.8033527182
 20
-11.1844186566
 30
0.0
 10
-19.7456103233
 20
-11.1688720828
 30
0.0
 11
-20.0845278361
 21
-11.1343672335
 31
0.0
 11
-20.0109203857
 21
-11.165529537
 31
0.0
 11
-19.9244902551
 21
-11.1824695517
 31
0.0
 11
-19.7456103233
 21
-11.1688720828
 31
0.0
  0
SPLINE
  5
503
100
AcDbEntity
  8
RACCORDO
100
AcDbSpline
 62
7
  6
CONTINUOUS
 70
0
 71
3
 72
10
 73
6
 74
4
 42
0.0000001
 43
0.0000001
 44
0.0000000001
 12
0.0000001141
 22
0.3473993299
 32
0.0
 13
0.2459370819
 23
0.2453594223
 33
0.0
 40
0.0
 40
0.0
 40
0.0
 40
0.0
 40
0.2300791698
 40
0.4836010627
 40
1.0
 40
1.0
 40
1.0
 40
1.0
 10
-19.6858500215
 20
-11.8248974636
 30
0.0
 10
-19.6858500127
 20
-11.7982543471
 30
0.0
 10
-19.6781001633
 20
-11.7421518167
 30
0.0
 10
-19.6397481085
 20
-11.6325550637
 30
0.0
 10
-19.5886052985
 20
-11.5563716461
 30
0.0
 10
-19.5462714159
 20
-11.5141371978
 30
0.0
 11
-19.6858500215
 21
-11.8248974636
 31
0.0
 11
-19.6760318857
 21
-11.7455734123
 31
0.0
 11
-19.647486352
 21
-11.6622543571
 31
0.0
 11
-19.5462714159
 21
-11.5141371978
 31
0.0
  0
SPLINE
  5
504
100
AcDbEntity
  8
RACCORDO
100
AcDbSpline
 62
7
  6
CONTINUOUS
 70
0
 71
3
 72
10
 73
6
 74
4
 42
0.0000001
 43
0.0000001
 44
0.0000000001
 12
0.0
 22
0.3473993418
 32
0.0
 13
0.2459371687
 23
0.2453593523
 33
0.0
 40
0.0
 40
0.0
 40
0.0
 40
0.0
 40
0.2300791865
 40
0.4836010752
 40
1.0
 40
1.0
 40
1.0
 40
1.0
 10
12.6501375487
 20
-30.4952914215
 30
0.0
 10
12.6501375487
 20
-30.4686483022
 30
0.0
 10
12.6578873849
 20
-30.4125457656
 30
0.0
 10
12.6962394322
 20
-30.302949005
 30
0.0
 10
12.7473822578
 20
-30.226765591
 30
0.0
 10
12.7897161543
 20
-30.1845311557
 30
0.0
 11
12.6501375487
 21
-30.4952914215
 31
0.0
 11
12.6599556661
 21
-30.4159673594
 31
0.0
 11
12.6885011934
 21
-30.3326483003
 31
0.0
 11
12.7897161543
 21
-30.1845311557
 31
0.0
  0
SPLINE
  5
505
100
AcDbEntity
  8
RACCORDO
100
AcDbSpline
 62
7
  6
CONTINUOUS
 70
0
 71
3
 72
11
 73
7
 74
5
 42
0.0000001
 43
0.0000001
 44
0.0000000001
 12
-0.1363070506
 22
0.0787020424
 32
0.0
 13
-0.0000536147
 23
0.1573963806
 33
0.0
 40
0.0
 40
0.0
 40
0.0
 40
0.0
 40
0.2895790523
 40
0.5491299326
 40
0.7822805821
 40
1.0
 40
1.0
 40
1.0
 40
1.0
 10
13.0488153633
 20
-30.2651443385
 30
0.0
 10
13.0356581412
 20
-30.2575475176
 30
0.0
 10
13.0117811928
 20
-30.2410897519
 30
0.0
 10
12.983229684
 20
-30.211100802
 30
0.0
 10
12.9651656061
 20
-30.1779126824
 30
0.0
 10
12.9609537719
 20
-30.1540986469
 30
0.0
 10
12.960949881
 20
-30.1426758975
 30
0.0
 11
13.0488153633
 21
-30.2651443385
 31
0.0
 11
13.0115419755
 21
-30.2389124455
 31
0.0
 11
12.9837797937
 21
-30.2089428355
 31
0.0
 11
12.9667126091
 21
-30.1764561276
 31
0.0
 11
12.960949881
 21
-30.1426758975
 31
0.0
  0
SPLINE
  5
506
100
AcDbEntity
  8
RACCORDO
100
AcDbSpline
 62
7
  6
CONTINUOUS
 70
0
 71
3
 72
12
 73
8
 74
6
 42
0.0000001
 43
0.0000001
 44
0.0000000001
 12
0.5057253542
 22
-0.2920463637
 32
0.0
 13
0.0000644726
 23
-0.5839941852
 33
0.0
 40
0.0
 40
0.0
 40
0.0
 40
0.0
 40
0.2368422946
 40
0.499192476
 40
0.7618019235
 40
0.8853942361
 40
1.0
 40
1.0
 40
1.0
 40
1.0
 10
14.5550830289
 20
8.7284440358
 30
0.0
 10
14.5950087467
 20
8.7053877255
 30
0.0
 10
14.6706313011
 20
8.6418516476
 30
0.0
 10
14.7590157369
 20
8.5215625892
 30
0.0
 10
14.8108198544
 20
8.4050100098
 30
0.0
 10
14.8333256292
 20
8.3099571973
 30
0.0
 10
14.8378802001
 20
8.2635668905
 30
0.0
 10
14.8378826631
 20
8.2412571906
 30
0.0
 11
14.5550830289
 21
8.7284440358
 31
0.0
 11
14.6627814039
 21
8.6416571273
 31
0.0
 11
14.7542468528
 21
8.5187438389
 31
0.0
 11
14.815685288
 21
8.3782257201
 31
0.0
 11
14.8320738282
 21
8.3079337373
 31
0.0
 11
14.8378826631
 21
8.2412571906
 31
0.0
  0
SPLINE
  5
507
100
AcDbEntity
  8
RACCORDO
100
AcDbSpline
 62
7
  6
CONTINUOUS
 70
0
 71
3
 72
13
 73
9
 74
7
 42
0.0000001
 43
0.0000001
 44
0.0000000001
 12
-0.0662090449
 22
0.1972123061
 32
0.0
 13
0.2078764784
 23
-0.0079812929
 33
0.0
 40
0.0
 40
0.0
 40
0.0
 40
0.0
 40
0.279534151
 40
0.5136620017
 40
0.6222252232
 40
0.7348380503
 40
0.8596282997
 40
1.0
 40
1.0
 40
1.0
 40
1.0
 10
-19.7456100618
 20
26.1683061765
 30
0.0
 10
-19.7517792915
 20
26.1866820347
 30
0.0
 10
-19.7602951881
 20
26.2215297833
 30
0.0
 10
-19.7547896491
 20
26.2665434085
 30
0.0
 10
-19.7356991824
 20
26.2925734769
 30
0.0
 10
-19.7151830068
 20
26.305894954
 30
0.0
 10
-19.6896019038
 20
26.3128256064
 30
0.0
 10
-19.6711046021
 20
26.3135750245
 30
0.0
 10
-19.6613779438
 20
26.3132015753
 30
0.0
 11
-19.7456100618
 21
26.1683061765
 31
0.0
 11
-19.7571799704
 21
26.2252949582
 31
0.0
 11
-19.748387109
 21
26.2732002241
 31
0.0
 11
-19.734943263
 21
26.2913473087
 31
0.0
 11
-19.7154556727
 21
26.3043491955
 31
0.0
 11
-19.6905370058
 21
26.3116282966
 31
0.0
 11
-19.6613779438
 21
26.3132015753
 31
0.0
  0
SPLINE
  5
508
100
AcDbEntity
  8
RACCORDO
100
AcDbSpline
 62
7
  6
CONTINUOUS
 70
0
 71
3
 72
11
 73
7
 74
5
 42
0.0000001
 43
0.0000001
 44
0.0000000001
 12
-0.4310685118
 22
0.1088707109
 32
0.0
 13
0.1215914924
 23
0.4276545364
 33
0.0
 40
0.0
 40
0.0
 40
0.0
 40
0.0
 40
0.2417492733
 40
0.5000082522
 40
0.7582667077
 40
1.0
 40
1.0
 40
1.0
 40
1.0
 10
-19.5462810437
 20
-11.5141340362
 30
0.0
 10
-19.5810178768
 20
-11.5053608978
 30
0.0
 10
-19.6505939719
 20
-11.474828146
 30
0.0
 10
-19.7297179967
 20
-11.3898601184
 30
0.0
 10
-19.763683001
 20
-11.2788633709
 30
0.0
 10
-19.7554076551
 20
-11.2033303879
 30
0.0
 10
-19.7456100845
 20
-11.1688709415
 30
0.0
 11
-19.5462810437
 21
-11.5141340362
 31
0.0
 11
-19.6442289445
 21
-11.469876285
 31
0.0
 11
-19.7220277826
 21
-11.3854270802
 31
0.0
 11
-19.7562400033
 21
-11.2758196083
 31
0.0
 11
-19.7456100845
 21
-11.1688709415
 31
0.0
  0
SPLINE
  5
509
100
AcDbEntity
  8
RACCORDO
100
AcDbSpline
 62
7
  6
CONTINUOUS
 70
0
 71
3
 72
9
 73
5
 74
3
 42
0.0000001
 43
0.0000001
 44
0.0000000001
 12
-0.0245012758
 22
-0.4136068379
 32
0.0
 13
0.370913549
 23
-0.1846457907
 33
0.0
 40
0.0
 40
0.0
 40
0.0
 40
0.0
 40
0.4999981152
 40
1.0
 40
1.0
 40
1.0
 40
1.0
 10
-18.3684141772
 20
-10.3737645576
 30
0.0
 10
-18.3724977078
 20
-10.4426987707
 30
0.0
 10
-18.3335634165
 20
-10.58375499
 30
0.0
 10
-18.2308943482
 20
-10.6882279536
 30
0.0
 10
-18.1690751904
 20
-10.719002368
 30
0.0
 11
-18.3684141772
 21
-10.3737645576
 31
0.0
 11
-18.3176299891
 21
-10.5746087133
 31
0.0
 11
-18.1690751904
 21
-10.719002368
 31
0.0
  0
SPLINE
  5
50A
100
AcDbEntity
  8
RACCORDO
100
AcDbSpline
 62
7
  6
CONTINUOUS
 70
0
 71
3
 72
10
 73
6
 74
4
 42
0.0000001
 43
0.0000001
 44
0.0000000001
 12
0.1828507333
 22
-0.3543641519
 32
0.0
 13
0.2144009064
 23
-0.336215101
 33
0.0
 40
0.0
 40
0.0
 40
0.0
 40
0.0
 40
0.2273651443
 40
0.5000028679
 40
1.0
 40
1.0
 40
1.0
 40
1.0
 10
-18.2333543669
 20
-10.2957577631
 30
0.0
 10
-18.2194964058
 20
-10.3226144487
 30
0.0
 10
-18.1877060075
 20
-10.3809923222
 30
0.0
 10
-18.122313733
 20
-10.4967059265
 30
0.0
 10
-18.069748739
 20
-10.5849873494
 30
0.0
 10
-18.0340154596
 20
-10.6410228782
 30
0.0
 11
-18.2333543669
 21
-10.2957577631
 31
0.0
 11
-18.1903971326
 21
-10.3755988416
 31
0.0
 11
-18.1369271902
 21
-10.4702575263
 31
0.0
 11
-18.0340154596
 21
-10.6410228782
 31
0.0
  0
SPLINE
  5
50B
100
AcDbEntity
  8
RACCORDO
100
AcDbSpline
 62
7
  6
CONTINUOUS
 70
0
 71
3
 72
9
 73
5
 74
3
 42
0.0000001
 43
0.0000001
 44
0.0000000001
 12
0.0072132972
 22
-0.0113899437
 32
0.0
 13
0.0118511912
 23
-0.0064274211
 33
0.0
 40
0.0
 40
0.0
 40
0.0
 40
0.0
 40
0.2343894242
 40
1.0
 40
1.0
 40
1.0
 40
1.0
 10
-18.0340154596
 20
-10.6410228782
 30
0.0
 10
-18.0334518861
 20
-10.6419127723
 30
0.0
 10
-18.030796097
 20
-10.6455503267
 30
0.0
 10
-18.0271246038
 20
-10.6483934232
 30
0.0
 10
-18.0241001381
 20
-10.6500337237
 30
0.0
 11
-18.0340154596
 21
-10.6410228782
 31
0.0
 11
-18.0321511072
 21
-10.6435743346
 31
0.0
 11
-18.0241001381
 21
-10.6500337237
 31
0.0
  0
SPLINE
  5
50C
100
AcDbEntity
  8
RACCORDO
100
AcDbSpline
 62
7
  6
CONTINUOUS
 70
0
 71
3
 72
9
 73
5
 74
3
 42
0.0000001
 43
0.0000001
 44
0.0000000001
 12
-0.0003312793
 22
-0.013472688
 32
0.0
 13
0.0061959411
 23
-0.011968015
 33
0.0
 40
0.0
 40
0.0
 40
0.0
 40
0.0
 40
0.2685733876
 40
1.0
 40
1.0
 40
1.0
 40
1.0
 10
-18.2361998637
 20
-10.282666223
 30
0.0
 10
-18.2362295213
 20
-10.2838723582
 30
0.0
 10
-18.2360885363
 20
-10.2883632408
 30
0.0
 10
-18.2348649923
 20
-10.2928398549
 30
0.0
 10
-18.2333543669
 20
-10.2957577631
 30
0.0
 11
-18.2361998637
 21
-10.282666223
 31
0.0
 11
-18.2360757049
 21
-10.2862835921
 31
0.0
 11
-18.2333543669
 21
-10.2957577631
 31
0.0
  0
SPLINE
  5
50D
100
AcDbEntity
  8
RACCORDO
100
AcDbSpline
 62
7
  6
CONTINUOUS
 70
0
 71
3
 72
11
 73
7
 74
5
 42
0.0000001
 43
0.0000001
 44
0.0000000001
 12
0.3303340714
 22
0.1779756193
 32
0.0
 13
0.0024728007
 23
0.3752196757
 33
0.0
 40
0.0
 40
0.0
 40
0.0
 40
0.0
 40
0.2174002984
 40
0.4501302195
 40
0.7094857245
 40
1.0
 40
1.0
 40
1.0
 40
1.0
 10
15.1059162449
 20
-33.8243898556
 30
0.0
 10
15.1298544868
 20
-33.811492538
 30
0.0
 10
15.1749084173
 20
-33.7755656856
 30
0.0
 10
15.2231658563
 20
-33.6995732949
 30
0.0
 10
15.2521658999
 20
-33.6051366579
 30
0.0
 10
15.2581727473
 20
-33.5361545984
 30
0.0
 10
15.2584122086
 20
-33.499819041
 30
0.0
 11
15.1059162449
 21
-33.8243898556
 31
0.0
 11
15.1700064117
 21
-33.7739233066
 31
0.0
 11
15.2179469631
 21
-33.7009324622
 31
0.0
 11
15.2478145767
 21
-33.6083117175
 31
0.0
 11
15.2584122086
 21
-33.499819041
 31
0.0
  0
SPLINE
  5
50E
100
AcDbEntity
  8
RACCORDO
100
AcDbSpline
 62
7
  6
CONTINUOUS
 70
0
 71
3
 72
11
 73
7
 74
5
 42
0.0000001
 43
0.0000001
 44
0.0000000001
 12
-0.0068243301
 22
1.024860587
 32
0.0
 13
-0.8841392067
 23
0.5183470434
 33
0.0
 40
0.0
 40
0.0
 40
0.0
 40
0.0
 40
0.2370060342
 40
0.4999938366
 40
0.7629849612
 40
1.0
 40
1.0
 40
1.0
 40
1.0
 10
15.2584122086
 20
8.236501744
 30
0.0
 10
15.2578730728
 20
8.3174677917
 30
0.0
 10
15.226596732
 20
8.4881676852
 30
0.0
 10
15.1202330299
 20
8.7281782934
 30
0.0
 10
14.9655571102
 20
8.9402984922
 30
0.0
 10
14.8333642782
 20
9.052740564
 30
0.0
 10
14.7635128488
 20
9.0936925789
 30
0.0
 11
15.2584122086
 21
8.236501744
 31
0.0
 11
15.219588118
 21
8.4762825064
 31
0.0
 11
15.1119076647
 21
8.7233701749
 31
0.0
 11
14.9517619277
 21
8.940170946
 31
0.0
 11
14.7635128488
 21
9.0936925789
 31
0.0
  0
SPLINE
  5
50F
100
AcDbEntity
  8
RACCORDO
100
AcDbSpline
 62
7
  6
CONTINUOUS
 70
0
 71
3
 72
11
 73
7
 74
5
 42
0.0000001
 43
0.0000001
 44
0.0000000001
 12
-0.3262172695
 22
0.1854893057
 32
0.0
 13
-0.3193340888
 23
-0.1971033464
 33
0.0
 40
0.0
 40
0.0
 40
0.0
 40
0.0
 40
0.2905184574
 40
0.5498765043
 40
0.7826053532
 40
1.0
 40
1.0
 40
1.0
 40
1.0
 10
-21.3823656818
 20
29.9638698282
 30
0.0
 10
-21.4139563945
 20
29.9818325172
 30
0.0
 10
-21.4767056829
 20
30.0111273572
 30
0.0
 10
-21.5729997556
 20
30.0332368919
 30
0.0
 10
-21.6629483723
 20
30.0294442291
 30
0.0
 10
-21.7165942955
 20
30.0083898291
 30
0.0
 10
-21.7397348027
 20
29.9941067584
 30
0.0
 11
-21.3823656818
 21
29.9638698282
 31
0.0
 11
-21.4816318823
 21
30.0089464667
 31
0.0
 11
-21.5767872378
 21
30.0293966205
 31
0.0
 11
-21.6639779192
 21
30.0243771605
 31
0.0
 11
-21.7397348027
 21
29.9941067584
 31
0.0
  0
SPLINE
  5
510
100
AcDbEntity
  8
RACCORDO
100
AcDbSpline
 62
7
  6
CONTINUOUS
 70
0
 71
3
 72
11
 73
7
 74
5
 42
0.0000001
 43
0.0000001
 44
0.0000000001
 12
-0.3738480846
 22
-0.223389988
 32
0.0
 13
0.000000011
 23
-0.4355060012
 33
0.0
 40
0.0
 40
0.0
 40
0.0
 40
0.0
 40
0.2383260036
 40
0.5010975909
 40
0.7632734208
 40
1.0
 40
1.0
 40
1.0
 40
1.0
 10
14.7635128478
 20
9.0936925794
 30
0.0
 10
14.7338136078
 20
9.0759460317
 30
0.0
 10
14.6777591314
 20
9.0278208535
 30
0.0
 10
14.6124061262
 20
8.9373483968
 30
0.0
 10
14.5678244974
 20
8.8352858139
 30
0.0
 10
14.555083028
 20
8.7628093177
 30
0.0
 10
14.5550830289
 20
8.7284440358
 30
0.0
 11
14.7635128478
 21
9.0936925794
 31
0.0
 11
14.6834681512
 21
9.0276190609
 31
0.0
 11
14.6159185145
 21
8.9352435204
 31
0.0
 11
14.5708804054
 21
8.8303223766
 31
0.0
 11
14.5550830289
 21
8.7284440358
 31
0.0
  0
SPLINE
  5
511
100
AcDbEntity
  8
RACCORDO
100
AcDbSpline
 62
7
  6
CONTINUOUS
 70
0
 71
3
 72
11
 73
7
 74
5
 42
0.0000001
 43
0.0000001
 44
0.0000000001
 12
-0.3738480757
 22
-0.2233899999
 32
0.0
 13
0.0000000017
 23
-0.4355059997
 33
0.0
 40
0.0
 40
0.0
 40
0.0
 40
0.0
 40
0.2383260021
 40
0.5010975899
 40
0.76327342
 40
1.0
 40
1.0
 40
1.0
 40
1.0
 10
-21.3823656804
 20
29.9638698274
 30
0.0
 10
-21.4120649195
 20
29.9461232788
 30
0.0
 10
-21.4681193946
 20
29.8979981002
 30
0.0
 10
-21.5334724007
 20
29.8075256448
 30
0.0
 10
-21.578054031
 20
29.7054630628
 30
0.0
 10
-21.5907955018
 20
29.632986567
 30
0.0
 10
-21.5907955017
 20
29.5986212851
 30
0.0
 11
-21.3823656804
 21
29.9638698274
 31
0.0
 11
-21.4624103751
 21
29.8977963081
 31
0.0
 11
-21.5299600125
 21
29.8054207684
 31
0.0
 11
-21.5749981232
 21
29.7004996256
 31
0.0
 11
-21.5907955017
 21
29.5986212851
 31
0.0
  0
SPLINE
  5
512
100
AcDbEntity
  8
RACCORDO
100
AcDbSpline
 62
7
  6
CONTINUOUS
 70
0
 71
3
 72
11
 73
7
 74
5
 42
0.0000001
 43
0.0000001
 44
0.0000000001
 12
-0.380376472
 22
-0.21208902
 32
0.0
 13
-0.3771557076
 23
0.2177649767
 33
0.0
 40
0.0
 40
0.0
 40
0.0
 40
0.0
 40
0.2383228673
 40
0.5010914229
 40
0.763267564
 40
1.0
 40
1.0
 40
1.0
 40
1.0
 10
15.2584122086
 20
8.2365017424
 30
0.0
 10
15.2281947381
 20
8.2196531879
 30
0.0
 10
15.1584909407
 20
8.1951686392
 30
0.0
 10
15.0474630331
 20
8.1838064698
 30
0.0
 10
14.936782208
 20
8.1962303937
 30
0.0
 10
14.8676443262
 20
8.2214366904
 30
0.0
 10
14.8378826631
 20
8.2386207016
 30
0.0
 11
15.2584122086
 21
8.2365017424
 31
0.0
 11
15.1611705396
 21
8.2002142568
 31
0.0
 11
15.0473968437
 21
8.1879011369
 31
0.0
 11
14.9340126624
 21
8.2013588617
 31
0.0
 11
14.8378826631
 21
8.2386207016
 31
0.0
  0
SPLINE
  5
513
100
AcDbEntity
  8
RACCORDO
100
AcDbSpline
 62
7
  6
CONTINUOUS
 70
0
 71
3
 72
11
 73
7
 74
5
 42
0.0000001
 43
0.0000001
 44
0.0000000001
 12
-0.3803764778
 22
-0.2120890063
 32
0.0
 13
-0.3771557109
 23
0.2177649678
 33
0.0
 40
0.0
 40
0.0
 40
0.0
 40
0.0
 40
0.2383228673
 40
0.5010914248
 40
0.7632675667
 40
1.0
 40
1.0
 40
1.0
 40
1.0
 10
15.2584122086
 20
-33.4998190398
 30
0.0
 10
15.2281947376
 20
-33.5166675932
 30
0.0
 10
15.1584909401
 20
-33.5411521406
 30
0.0
 10
15.0474630327
 20
-33.5525143114
 30
0.0
 10
14.9367822079
 20
-33.5400903888
 30
0.0
 10
14.8676443261
 20
-33.5148840936
 30
0.0
 10
14.8378826631
 20
-33.4977000834
 30
0.0
 11
15.2584122086
 21
-33.4998190398
 31
0.0
 11
15.1611705393
 21
-33.5361065236
 31
0.0
 11
15.0473968431
 21
-33.5484196443
 31
0.0
 11
14.9340126617
 21
-33.5349619209
 31
0.0
 11
14.8378826631
 21
-33.4977000834
 31
0.0
  0
SPLINE
  5
514
100
AcDbEntity
  8
RACCORDO
100
AcDbSpline
 62
7
  6
CONTINUOUS
 70
0
 71
3
 72
9
 73
5
 74
3
 42
0.0000001
 43
0.0000001
 44
0.0000000001
 12
0.0000527507
 22
-0.0373502908
 32
0.0
 13
0.007764013
 23
-0.0365344647
 33
0.0
 40
0.0
 40
0.0
 40
0.0
 40
0.0
 40
0.2547386773
 40
1.0
 40
1.0
 40
1.0
 40
1.0
 10
-18.3722199181
 20
-10.3366427092
 30
0.0
 10
-18.3722154388
 20
-10.3398142304
 30
0.0
 10
-18.3718615787
 20
-10.352259744
 30
0.0
 10
-18.370338986
 20
-10.3646863791
 30
0.0
 10
-18.3684102465
 20
-10.3737622869
 30
0.0
 11
-18.3722199181
 21
-10.3366427092
 31
0.0
 11
-18.371959314
 21
-10.3461537127
 31
0.0
 11
-18.3684102465
 21
-10.3737622869
 31
0.0
  0
SPLINE
  5
515
100
AcDbEntity
  8
RACCORDO
100
AcDbSpline
 62
7
  6
CONTINUOUS
 70
0
 71
3
 72
15
 73
11
 74
9
 42
0.0000001
 43
0.0000001
 44
0.0000000001
 12
-0.0000290007
 22
-0.4170681703
 32
0.0
 13
-0.3612088353
 23
0.2085042849
 33
0.0
 40
0.0
 40
0.0
 40
0.0
 40
0.0
 40
0.145084411
 40
0.2749838777
 40
0.3918358314
 40
0.5009156004
 40
0.6098397431
 40
0.7262475405
 40
0.855533188
 40
1.0
 40
1.0
 40
1.0
 40
1.0
 10
14.8378826631
 20
-33.4977000834
 30
0.0
 10
14.8378812605
 20
-33.5178701133
 30
0.0
 10
14.8348469599
 20
-33.5562307411
 30
0.0
 10
14.8193945513
 20
-33.608955951
 30
0.0
 10
14.7933679011
 20
-33.6518464998
 30
0.0
 10
14.7572416274
 20
-33.6826131736
 30
0.0
 10
14.7128169638
 20
-33.6991391031
 30
0.0
 10
14.6628289503
 20
-33.7007940508
 30
0.0
 10
14.6095596504
 20
-33.6883918884
 30
0.0
 10
14.5747605944
 20
-33.672312508
 30
0.0
 10
14.5573663647
 20
-33.6622718582
 30
0.0
 11
14.8378826631
 21
-33.4977000834
 31
0.0
 11
14.8325053252
 21
-33.5579707664
 31
0.0
 11
14.8165749657
 21
-33.6097526524
 31
0.0
 11
14.7906997077
 21
-33.6510514869
 31
0.0
 11
14.7558626495
 21
-33.6803099231
 31
0.0
 11
14.7133836357
 21
-33.6964129856
 31
0.0
 11
14.6648886534
 21
-33.6987233863
 31
0.0
 11
14.6122071108
 21
-33.6872289699
 31
0.0
 11
14.5573663647
 21
-33.6622718582
 31
0.0
  0
SPLINE
  5
516
100
AcDbEntity
  8
RACCORDO
100
AcDbSpline
 62
7
  6
CONTINUOUS
 70
0
 71
3
 72
12
 73
8
 74
6
 42
0.0000001
 43
0.0000001
 44
0.0000000001
 12
-0.5057253526
 22
0.2920463627
 32
0.0
 13
-0.0000644726
 23
0.5839941832
 33
0.0
 40
0.0
 40
0.0
 40
0.0
 40
0.0
 40
0.2368422944
 40
0.4991924756
 40
0.7618019231
 40
0.8853942359
 40
1.0
 40
1.0
 40
1.0
 40
1.0
 10
-21.5907955017
 20
-12.7907762394
 30
0.0
 10
-21.6307212193
 20
-12.7677199292
 30
0.0
 10
-21.7063437735
 20
-12.7041838516
 30
0.0
 10
-21.7947282091
 20
-12.5838947938
 30
0.0
 10
-21.8465323267
 20
-12.4673422149
 30
0.0
 10
-21.8690381016
 20
-12.3722894027
 30
0.0
 10
-21.8735926729
 20
-12.325899096
 30
0.0
 10
-21.8735951359
 20
-12.3035893961
 30
0.0
 11
-21.5907955017
 21
-12.7907762394
 31
0.0
 11
-21.6984938763
 21
-12.7039893313
 31
0.0
 11
-21.789959325
 21
-12.5810760436
 31
0.0
 11
-21.8513977603
 21
-12.4405579253
 31
0.0
 11
-21.8677863008
 21
-12.3702659427
 31
0.0
 11
-21.8735951359
 21
-12.3035893961
 31
0.0
  0
SPLINE
  5
517
100
AcDbEntity
  8
RACCORDO
100
AcDbSpline
 62
7
  6
CONTINUOUS
 70
0
 71
3
 72
11
 73
7
 74
5
 42
0.0000001
 43
0.0000001
 44
0.0000000001
 12
0.0000141053
 22
-0.1574089984
 32
0.0
 13
0.1363179965
 23
-0.078708302
 33
0.0
 40
0.0
 40
0.0
 40
0.0
 40
0.0
 40
0.2177586874
 40
0.4509006419
 40
0.7104563331
 40
1.0
 40
1.0
 40
1.0
 40
1.0
 10
-21.961449829
 20
-12.1784705447
 30
0.0
 10
-21.9614488052
 20
-12.1898962703
 30
0.0
 10
-21.9572536126
 20
-12.213717162
 30
0.0
 10
-21.9391834353
 20
-12.2469105793
 30
0.0
 10
-21.910627028
 20
-12.2768950772
 30
0.0
 10
-21.8867518067
 20
-12.2933564084
 30
0.0
 10
-21.8735951359
 20
-12.3009529052
 30
0.0
 11
-21.961449829
 21
-12.1784705447
 31
0.0
 11
-21.955700371
 21
-12.2122620909
 31
0.0
 11
-21.9386338582
 21
-12.2447509266
 31
0.0
 11
-21.9108660234
 21
-12.2747207931
 31
0.0
 11
-21.8735951359
 21
-12.3009529052
 31
0.0
  0
SPLINE
  5
518
100
AcDbEntity
  8
RACCORDO
100
AcDbSpline
 62
7
  6
CONTINUOUS
 70
0
 71
3
 72
11
 73
7
 74
5
 42
0.0000001
 43
0.0000001
 44
0.0000000001
 12
0.000014108
 22
-0.157408994
 32
0.0
 13
0.1363179944
 23
-0.0787082969
 33
0.0
 40
0.0
 40
0.0
 40
0.0
 40
0.0
 40
0.2177586882
 40
0.4509006427
 40
0.7104563324
 40
1.0
 40
1.0
 40
1.0
 40
1.0
 10
-21.961449829
 20
29.557850235
 30
0.0
 10
-21.961448805
 20
29.5464245096
 30
0.0
 10
-21.9572536121
 20
29.5226036186
 30
0.0
 10
-21.9391834346
 20
29.4894102027
 30
0.0
 10
-21.9106270275
 20
29.4594257062
 30
0.0
 10
-21.8867518066
 20
29.4429643761
 30
0.0
 10
-21.8735951359
 20
29.4353678798
 30
0.0
 11
-21.961449829
 21
29.557850235
 31
0.0
 11
-21.9557003706
 21
29.5240586896
 31
0.0
 11
-21.9386338575
 21
29.4915698553
 31
0.0
 11
-21.9108660231
 21
29.4615999903
 31
0.0
 11
-21.8735951359
 21
29.4353678798
 31
0.0
  0
SPLINE
  5
519
100
AcDbEntity
  8
RACCORDO
100
AcDbSpline
 62
7
  6
CONTINUOUS
 70
0
 71
3
 72
11
 73
7
 74
5
 42
0.0000001
 43
0.0000001
 44
0.0000000001
 12
-0.1362924929
 22
0.0787097748
 32
0.0
 13
-0.0000000006
 23
0.1573876497
 33
0.0
 40
0.0
 40
0.0
 40
0.0
 40
0.0
 40
0.2177541405
 40
0.4508937694
 40
0.7104507771
 40
1.0
 40
1.0
 40
1.0
 40
1.0
 10
14.6172144363
 20
-33.7982630431
 30
0.0
 10
14.6073216848
 20
-33.7925499167
 30
0.0
 10
14.5887930979
 20
-33.7770079992
 30
0.0
 10
14.5690860575
 20
-33.7447658261
 30
0.0
 10
14.5574000957
 20
-33.7050476909
 30
0.0
 10
14.555083029
 20
-33.6761439793
 30
0.0
 10
14.5550830289
 20
-33.6609534887
 30
0.0
 11
14.6172144363
 21
-33.7982630431
 31
0.0
 11
14.5908296916
 21
-33.7763906319
 31
0.0
 11
14.5712309115
 21
-33.7453698977
 31
0.0
 11
14.5591632978
 21
-33.7063419282
 31
0.0
 11
14.5550830289
 21
-33.6609534887
 31
0.0
  0
SPLINE
  5
51A
100
AcDbEntity
  8
RACCORDO
100
AcDbSpline
 62
7
  6
CONTINUOUS
 70
0
 71
3
 72
11
 73
7
 74
5
 42
0.0000001
 43
0.0000001
 44
0.0000000001
 12
-0.1362924929
 22
0.0787097779
 32
0.0
 13
-0.000000004
 23
0.1573876512
 33
0.0
 40
0.0
 40
0.0
 40
0.0
 40
0.0
 40
0.2177541423
 40
0.4508937728
 40
0.710450779
 40
1.0
 40
1.0
 40
1.0
 40
1.0
 10
-21.5286640922
 20
-12.928085795
 30
0.0
 10
-21.5385568438
 20
-12.9223726683
 30
0.0
 10
-21.5570854308
 20
-12.9068307504
 30
0.0
 10
-21.5767924716
 20
-12.874588577
 30
0.0
 10
-21.5884784342
 20
-12.8348704417
 30
0.0
 10
-21.5907955013
 20
-12.80596673
 30
0.0
 10
-21.5907955017
 20
-12.7907762394
 30
0.0
 11
-21.5286640922
 21
-12.928085795
 31
0.0
 11
-21.5550488372
 21
-12.9062133832
 31
0.0
 11
-21.5746476177
 21
-12.8751926484
 31
0.0
 11
-21.586715232
 21
-12.8361646789
 31
0.0
 11
-21.5907955017
 21
-12.7907762394
 31
0.0
  0
SPLINE
  5
51B
100
AcDbEntity
  8
RACCORDO
100
AcDbSpline
 62
7
  6
CONTINUOUS
 70
0
 71
3
 72
15
 73
11
 74
9
 42
0.0000001
 43
0.0000001
 44
0.0000000001
 12
0.0000238213
 22
-0.597984879
 32
0.0
 13
-0.5178420862
 23
0.2990409502
 33
0.0
 40
0.0
 40
0.0
 40
0.0
 40
0.0
 40
0.1446786948
 40
0.2748799313
 40
0.3916072275
 40
0.4999943582
 40
0.6083856293
 40
0.725122466
 40
0.8553266085
 40
1.0
 40
1.0
 40
1.0
 40
1.0
 10
13.0488153633
 20
-30.2651443385
 30
0.0
 10
13.0488165121
 20
-30.2939828958
 30
0.0
 10
13.0448708716
 20
-30.348935703
 30
0.0
 10
13.0242208473
 20
-30.4248600018
 30
0.0
 10
12.9882521698
 20
-30.4870805067
 30
0.0
 10
12.9367918419
 20
-30.5314496198
 30
0.0
 10
12.8726283942
 20
-30.5538134934
 30
0.0
 10
12.8007574581
 20
-30.553833223
 30
0.0
 10
12.7246790715
 20
-30.5337615072
 30
0.0
 10
12.6751102056
 20
-30.509712511
 30
0.0
 10
12.6501375487
 20
-30.4952914215
 30
0.0
 11
13.0488153633
 21
-30.2651443385
 31
0.0
 11
13.0417406465
 21
-30.3513702619
 31
0.0
 11
13.0201807673
 21
-30.426184014
 31
0.0
 11
12.9841957217
 21
-30.4859943657
 31
0.0
 11
12.9347286038
 21
-30.5278732551
 31
0.0
 11
12.873718424
 21
-30.5497574058
 31
0.0
 11
12.8039226382
 21
-30.5510009608
 31
0.0
 11
12.728349615
 21
-30.5322682445
 31
0.0
 11
12.6501375487
 21
-30.4952914215
 31
0.0
  0
SPLINE
  5
51C
100
AcDbEntity
  8
RACCORDO
100
AcDbSpline
 62
7
  6
CONTINUOUS
 70
0
 71
3
 72
9
 73
5
 74
3
 42
0.0000001
 43
0.0000001
 44
0.0000000001
 12
0.1563813851
 22
-0.090284346
 32
0.0
 13
0.1281480412
 23
-0.1272182387
 33
0.0
 40
0.0
 40
0.0
 40
0.0
 40
0.0
 40
0.2366293495
 40
1.0
 40
1.0
 40
1.0
 40
1.0
 10
12.6501375487
 20
7.76256526
 30
0.0
 10
12.6624723572
 20
7.7554439513
 30
0.0
 10
12.7134998978
 20
7.723460624
 30
0.0
 10
12.7600360046
 20
7.6845006224
 30
0.0
 10
12.7926441558
 20
7.6521290659
 30
0.0
 11
12.6501375487
 21
7.76256526
 31
0.0
 11
12.6863700938
 21
7.7399169154
 31
0.0
 11
12.7926441558
 21
7.6521290659
 31
0.0
  0
SPLINE
  5
51D
100
AcDbEntity
  8
RACCORDO
100
AcDbSpline
 62
7
  6
CONTINUOUS
 70
0
 71
3
 72
10
 73
6
 74
4
 42
0.0000001
 43
0.0000001
 44
0.0000000001
 12
0.4592582815
 22
-0.4559260458
 32
0.0
 13
0.0000021875
 23
-0.6471373334
 33
0.0
 40
0.0
 40
0.0
 40
0.0
 40
0.0
 40
0.5173571193
 40
0.7703670028
 40
1.0
 40
1.0
 40
1.0
 40
1.0
 10
12.7926441558
 20
7.6521290659
 30
0.0
 10
12.8718443363
 20
7.5735035373
 30
0.0
 10
12.9673477
 20
7.4312135683
 30
0.0
 10
13.0358639288
 20
7.2259264518
 30
0.0
 10
13.0488151959
 20
7.121569725
 30
0.0
 10
13.0488153633
 20
7.0720350299
 30
0.0
 11
12.7926441558
 21
7.6521290659
 31
0.0
 11
12.9808517148
 21
7.375236134
 31
0.0
 11
13.0319372257
 21
7.2196775126
 31
0.0
 11
13.0488153633
 21
7.0720350299
 31
0.0
  0
SPLINE
  5
51E
100
AcDbEntity
  8
RACCORDO
100
AcDbSpline
 62
7
  6
CONTINUOUS
 70
0
 71
3
 72
15
 73
11
 74
9
 42
0.0000001
 43
0.0000001
 44
0.0000000001
 12
-0.0000387078
 22
0.5979848853
 32
0.0
 13
0.5178497191
 23
-0.2990277463
 33
0.0
 40
0.0
 40
0.0
 40
0.0
 40
0.0
 40
0.1446658674
 40
0.2748627245
 40
0.391594032
 40
0.4999831839
 40
0.6083724348
 40
0.7251052566
 40
0.8553137174
 40
1.0
 40
1.0
 40
1.0
 40
1.0
 10
-20.0845278361
 20
26.2028121349
 30
0.0
 10
-20.0845297027
 20
26.2316481356
 30
0.0
 10
-20.0805706884
 20
26.2865974942
 30
0.0
 10
-20.0599108915
 20
26.3625142255
 30
0.0
 10
-20.0239542925
 20
26.4247408491
 30
0.0
 10
-19.9725006047
 20
26.4691195973
 30
0.0
 10
-19.9083421254
 20
26.4914939113
 30
0.0
 10
-19.8364704807
 20
26.4915272708
 30
0.0
 10
-19.7603903995
 20
26.4714433287
 30
0.0
 10
-19.7108252718
 20
26.4473809556
 30
0.0
 10
-19.6858500215
 20
26.4329592179
 30
0.0
 11
-20.0845278361
 21
26.2028121349
 31
0.0
 11
-20.0774419405
 21
26.289029445
 31
0.0
 11
-20.0558753142
 21
26.3638385278
 31
0.0
 11
-20.0198970272
 21
26.4236557455
 31
0.0
 11
-19.9704361683
 21
26.4655438983
 31
0.0
 11
-19.9094308602
 21
26.4874380521
 31
0.0
 11
-19.8396376418
 21
26.4886909453
 31
0.0
 11
-19.7640639777
 21
26.4699500795
 31
0.0
 11
-19.6858500215
 21
26.4329592179
 31
0.0
  0
SPLINE
  5
51F
100
AcDbEntity
  8
RACCORDO
100
AcDbSpline
 62
7
  6
CONTINUOUS
 70
0
 71
3
 72
11
 73
7
 74
5
 42
0.0000001
 43
0.0000001
 44
0.0000000001
 12
-0.7171285941
 22
0.4140697132
 32
0.0
 13
0.0000544718
 23
0.8280864356
 33
0.0
 40
0.0
 40
0.0
 40
0.0
 40
0.0
 40
0.2369489663
 40
0.5000027919
 40
0.7630483128
 40
1.0
 40
1.0
 40
1.0
 40
1.0
 10
-19.6858500215
 20
-11.8248974636
 30
0.0
 10
-19.7424909812
 20
-11.7921930001
 30
0.0
 10
-19.8510359802
 20
-11.703623599
 30
0.0
 10
-19.9777390139
 20
-11.5330660099
 30
0.0
 10
-20.0620677963
 20
-11.3380551893
 30
0.0
 10
-20.0845321385
 20
-11.1997727262
 30
0.0
 10
-20.0845278361
 20
-11.1343672335
 30
0.0
 11
-19.6858500215
 21
-11.8248974636
 31
0.0
 11
-19.8396376463
 21
-11.7030393958
 31
0.0
 11
-19.9704361608
 21
-11.5288491946
 31
0.0
 11
-20.0558752905
 21
-11.3284804429
 31
0.0
 11
-20.0845278361
 21
-11.1343672335
 31
0.0
  0
SPLINE
  5
520
100
AcDbEntity
  8
CURVE
100
AcDbSpline
 62
7
  6
CONTINUOUS
 70
0
 71
3
 72
25
 73
21
 74
19
 42
0.0000001
 43
0.0000001
 44
0.0000000001
 12
0.5420671437
 22
-0.0842517062
 32
0.0
 13
0.5668876432
 23
-0.564262818
 33
0.0
 40
0.0
 40
0.0
 40
0.0
 40
0.0
 40
0.125
 40
0.15625
 40
0.1875
 40
0.25
 40
0.3125
 40
0.34375
 40
0.375
 40
0.4375
 40
0.46875
 40
0.5
 40
0.53125
 40
0.5625
 40
0.625
 40
0.6875
 40
0.75
 40
0.8125
 40
0.875
 40
1.0
 40
1.0
 40
1.0
 40
1.0
 10
2.0991683469
 20
-21.0615931582
 30
0.0
 10
2.1217544779
 20
-21.065103646
 30
0.0
 10
2.1502208243
 20
-21.0701660019
 30
0.0
 10
2.1836793919
 20
-21.0742180903
 30
0.0
 10
2.207480673
 20
-21.0812346584
 30
0.0
 10
2.2377799325
 20
-21.0916807861
 30
0.0
 10
2.2678237322
 20
-21.1010405623
 30
0.0
 10
2.2920337489
 20
-21.1097952928
 30
0.0
 10
2.3167266796
 20
-21.1227815162
 30
0.0
 10
2.3412825117
 20
-21.134402022
 30
0.0
 10
2.365887454
 20
-21.1469460611
 30
0.0
 10
2.3843309289
 20
-21.154949208
 30
0.0
 10
2.4027907758
 20
-21.1681101181
 30
0.0
 10
2.4273930515
 20
-21.1838967638
 30
0.0
 10
2.4581863672
 20
-21.2039449215
 30
0.0
 10
2.4949603652
 20
-21.22913328
 30
0.0
 10
2.5309760621
 20
-21.2602918484
 30
0.0
 10
2.5673920026
 20
-21.2884315042
 30
0.0
 10
2.6148230253
 20
-21.3340916326
 30
0.0
 10
2.6501821083
 20
-21.3698687237
 30
0.0
 10
2.6738024268
 20
-21.3933796744
 30
0.0
 11
2.0991683469
 21
-21.0615931582
 31
0.0
 11
2.1669267398
 21
-21.0721246215
 31
0.0
 11
2.1838663381
 21
-21.0747574873
 31
0.0
 11
2.2015668633
 21
-21.0795922109
 31
0.0
 11
2.2377288405
 21
-21.0914635158
 31
0.0
 11
2.2738908178
 21
-21.1033348207
 31
0.0
 11
2.2920941132
 21
-21.1103242294
 31
0.0
 11
2.310542022
 21
-21.1194211506
 31
0.0
 11
2.3474378398
 21
-21.1376149929
 31
0.0
 11
2.3658857487
 21
-21.146711914
 31
0.0
 11
2.3843336575
 21
-21.1558088352
 31
0.0
 11
2.4027894191
 21
-21.1678899638
 31
0.0
 11
2.4212451807
 21
-21.1799710924
 31
0.0
 11
2.4581567038
 21
-21.2041333497
 31
0.0
 11
2.4948339817
 21
-21.230128315
 31
0.0
 11
2.5310427694
 21
-21.2597886963
 31
0.0
 11
2.567251557
 21
-21.2894490777
 31
0.0
 11
2.6029414714
 21
-21.3228468222
 31
0.0
 11
2.6738024268
 21
-21.3933796744
 31
0.0
  0
SPLINE
  5
521
100
AcDbEntity
  8
CURVE
100
AcDbSpline
 62
7
  6
CONTINUOUS
 70
0
 71
3
 72
9
 73
5
 74
3
 42
0.0000001
 43
0.0000001
 44
0.0000000001
 12
0.1109448157
 22
-0.3810872329
 32
0.0
 13
0.0103475798
 23
-0.3479090121
 33
0.0
 40
0.0
 40
0.0
 40
0.0
 40
0.0
 40
0.5
 40
1.0
 40
1.0
 40
1.0
 40
1.0
 10
-17.1908067258
 20
4.848632968
 30
0.0
 10
-17.1723159232
 20
4.7851184292
 30
0.0
 10
-17.138388996
 20
4.6576875959
 30
0.0
 10
-17.1313863709
 20
4.5391930554
 30
0.0
 10
-17.1296617742
 20
4.4812082201
 30
0.0
 11
-17.1908067258
 21
4.848632968
 31
0.0
 11
-17.1451200715
 21
4.6599216691
 31
0.0
 11
-17.1296617742
 21
4.4812082201
 31
0.0
  0
SPLINE
  5
522
100
AcDbEntity
  8
CURVE
100
AcDbSpline
 62
7
  6
CONTINUOUS
 70
0
 71
3
 72
9
 73
5
 74
3
 42
0.0000001
 43
0.0000001
 44
0.0000000001
 12
-0.0103348595
 22
-0.3357573062
 32
0.0
 13
-0.1110071496
 23
-0.2531326964
 33
0.0
 40
0.0
 40
0.0
 40
0.0
 40
0.0
 40
0.5
 40
1.0
 40
1.0
 40
1.0
 40
1.0
 10
-17.1296617742
 20
4.4812082111
 30
0.0
 10
-17.1313842508
 20
4.42524866
 30
0.0
 10
-17.138382617
 20
4.3148377691
 30
0.0
 10
-17.172305531
 20
4.2265809007
 30
0.0
 10
-17.1908067226
 20
4.184392118
 30
0.0
 11
-17.1296617742
 21
4.4812082111
 31
0.0
 11
-17.145113754
 21
4.3203762748
 31
0.0
 11
-17.1908067226
 21
4.184392118
 31
0.0
  0
SPLINE
  5
523
100
AcDbEntity
  8
RACCORDO
100
AcDbSpline
 62
7
  6
CONTINUOUS
 70
0
 71
3
 72
9
 73
5
 74
3
 42
0.0000001
 43
0.0000001
 44
0.0000000001
 12
-0.1258022839
 22
-0.0751721723
 32
0.0
 13
-0.1037487076
 23
-0.1035049555
 33
0.0
 40
0.0
 40
0.0
 40
0.0
 40
0.0
 40
0.2375582814
 40
1.0
 40
1.0
 40
1.0
 40
1.0
 10
-18.0241001381
 20
47.3193559286
 30
0.0
 10
-18.0340619295
 20
47.3134033379
 30
0.0
 10
-18.0750902903
 20
47.2868375386
 30
0.0
 10
-18.1124847143
 20
47.2548476318
 30
0.0
 10
-18.1388521619
 20
47.2285421331
 30
0.0
 11
-18.0241001381
 21
47.3193559286
 31
0.0
 11
-18.0533501059
 21
47.3004753829
 31
0.0
 11
-18.1388521619
 21
47.2285421331
 31
0.0
  0
SPLINE
  5
524
100
AcDbEntity
  8
RACCORDO
100
AcDbSpline
 62
7
  6
CONTINUOUS
 70
0
 71
3
 72
9
 73
5
 74
3
 42
0.0000001
 43
0.0000001
 44
0.0000000001
 12
-0.1440896835
 22
-0.0602425756
 32
0.0
 13
-0.1252946643
 23
-0.0932322471
 33
0.0
 40
0.0
 40
0.0
 40
0.0
 40
0.0
 40
0.2409283394
 40
1.0
 40
1.0
 40
1.0
 40
1.0
 10
-18.0340154362
 20
47.3283674231
 30
0.0
 10
-18.0455871989
 20
47.3235293752
 30
0.0
 10
-18.0929228795
 20
47.3018035491
 30
0.0
 10
-18.1373713918
 20
47.2739740129
 30
0.0
 10
-18.1690739347
 20
47.2503840273
 30
0.0
 11
-18.0340154362
 21
47.3283674231
 31
0.0
 11
-18.0682286228
 21
47.312706342
 31
0.0
 11
-18.1690739347
 21
47.2503840273
 31
0.0
  0
SPLINE
  5
525
100
AcDbEntity
  8
RACCORDO
100
AcDbSpline
 62
7
  6
CONTINUOUS
 70
0
 71
3
 72
9
 73
5
 74
3
 42
0.0000001
 43
0.0000001
 44
0.0000000001
 12
-0.1242085342
 22
-0.0946731593
 32
0.0
 13
-0.1433862242
 23
-0.0618963471
 33
0.0
 40
0.0
 40
0.0
 40
0.0
 40
0.0
 40
0.2409316862
 40
1.0
 40
1.0
 40
1.0
 40
1.0
 10
-18.2333542709
 20
47.6736318382
 30
0.0
 10
-18.2433295281
 20
47.6660285836
 30
0.0
 10
-18.2858100786
 20
47.6358946348
 30
0.0
 10
-18.3321340619
 20
47.6113135157
 30
0.0
 10
-18.3684140417
 20
47.5956523304
 30
0.0
 11
-18.2333542709
 21
47.6736318382
 31
0.0
 11
-18.2640224533
 21
47.6518304685
 31
0.0
 11
-18.3684140417
 21
47.5956523304
 31
0.0
  0
SPLINE
  5
526
100
AcDbEntity
  8
RACCORDO
100
AcDbSpline
 62
7
  6
CONTINUOUS
 70
0
 71
3
 72
9
 73
5
 74
3
 42
0.0000001
 43
0.0000001
 44
0.0000000001
 12
-0.1279979641
 22
-0.071367648
 32
0.0
 13
-0.1415101583
 23
-0.0381011166
 33
0.0
 40
0.0
 40
0.0
 40
0.0
 40
0.0
 40
0.2375585064
 40
1.0
 40
1.0
 40
1.0
 40
1.0
 10
-18.2361998637
 20
47.6867234292
 30
0.0
 10
-18.2463355321
 20
47.6810720986
 30
0.0
 10
-18.2898550887
 20
47.6588215087
 30
0.0
 10
-18.3362555117
 20
47.6424302363
 30
0.0
 10
-18.3722199172
 20
47.6327469456
 30
0.0
 11
-18.2361998637
 21
47.6867234292
 31
0.0
 11
-18.2671749928
 21
47.6708311298
 31
0.0
 11
-18.3722199172
 21
47.6327469456
 31
0.0
  0
SPLINE
  5
527
100
AcDbEntity
  8
RACCORDO
100
AcDbSpline
 62
7
  6
CONTINUOUS
 70
0
 71
3
 72
15
 73
11
 74
9
 42
0.0000001
 43
0.0000001
 44
0.0000000001
 12
0.0000290007
 22
0.4170681613
 32
0.0
 13
0.3612088276
 23
-0.2085042804
 33
0.0
 40
0.0
 40
0.0
 40
0.0
 40
0.0
 40
0.1450844117
 40
0.2749838793
 40
0.3918358339
 40
0.5009156036
 40
0.6098397464
 40
0.7262475433
 40
0.8555331895
 40
1.0
 40
1.0
 40
1.0
 40
1.0
 10
-21.8735951359
 20
87.4047575321
 30
0.0
 10
-21.8735937334
 20
87.4249275617
 30
0.0
 10
-21.8705594328
 20
87.4632881888
 30
0.0
 10
-21.8551070247
 20
87.516013398
 30
0.0
 10
-21.8290803755
 20
87.5589039465
 30
0.0
 10
-21.7929541031
 20
87.5896706205
 30
0.0
 10
-21.7485294409
 20
87.6061965509
 30
0.0
 10
-21.6985414287
 20
87.6078514999
 30
0.0
 10
-21.6452721301
 20
87.5954493393
 30
0.0
 10
-21.6104730744
 20
87.5793699608
 30
0.0
 10
-21.5930788454
 20
87.5693293114
 30
0.0
 11
-21.8735951359
 21
87.4047575321
 31
0.0
 11
-21.8682177982
 21
87.465028214
 31
0.0
 11
-21.8522874393
 21
87.5168100994
 31
0.0
 11
-21.8264121822
 21
87.5581089337
 31
0.0
 11
-21.791575125
 21
87.5873673702
 31
0.0
 11
-21.7490961125
 21
87.6034704335
 31
0.0
 11
-21.7006011316
 21
87.6057808354
 31
0.0
 11
-21.6479195903
 21
87.5942864209
 31
0.0
 11
-21.5930788454
 21
87.5693293114
 31
0.0
  0
SPLINE
  5
528
100
AcDbEntity
  8
RACCORDO
100
AcDbSpline
 62
7
  6
CONTINUOUS
 70
0
 71
3
 72
9
 73
5
 74
3
 42
0.0000001
 43
0.0000001
 44
0.0000000001
 12
-0.0290535392
 22
-0.0551073363
 32
0.0
 13
-0.0539576766
 23
-0.0311367274
 33
0.0
 40
0.0
 40
0.0
 40
0.0
 40
0.0
 40
0.277017043
 40
1.0
 40
1.0
 40
1.0
 40
1.0
 10
12.9573329975
 20
27.7853574585
 30
0.0
 10
12.9546502224
 20
27.7802689014
 30
0.0
 10
12.944169422
 20
27.7624188641
 30
0.0
 10
12.9294143742
 20
27.7464374536
 30
0.0
 10
12.9164108807
 20
27.7389336792
 30
0.0
 11
12.9573329975
 21
27.7853574585
 31
0.0
 11
12.9485155026
 21
27.7705227678
 31
0.0
 11
12.9164108807
 21
27.7389336792
 31
0.0
  0
SPLINE
  5
529
100
AcDbEntity
  8
RACCORDO
100
AcDbSpline
 62
7
  6
CONTINUOUS
 70
0
 71
3
 72
11
 73
7
 74
5
 42
0.0000001
 43
0.0000001
 44
0.0000000001
 12
-0.1261722059
 22
-0.072808724
 32
0.0
 13
-0.0964136199
 23
0.1092014182
 33
0.0
 40
0.0
 40
0.0
 40
0.0
 40
0.0
 40
0.2220361667
 40
0.4505038999
 40
0.7087907003
 40
1.0
 40
1.0
 40
1.0
 40
1.0
 10
12.9164108807
 20
27.7389336792
 30
0.0
 10
12.9070726164
 20
27.7335449558
 30
0.0
 10
12.885008889
 20
27.7270451262
 30
0.0
 10
12.8504188143
 20
27.7349423798
 30
0.0
 10
12.8181801732
 20
27.7554188768
 30
0.0
 10
12.7990742441
 20
27.7742590535
 30
0.0
 10
12.7897153966
 20
27.7848592097
 30
0.0
 11
12.9164108807
 21
27.7389336792
 31
0.0
 11
12.8853429346
 21
27.7299361017
 31
0.0
 11
12.8526634755
 21
27.7362378458
 31
0.0
 11
12.8203542343
 21
27.755519413
 31
0.0
 11
12.7897153966
 21
27.7848592097
 31
0.0
  0
SPLINE
  5
52A
100
AcDbEntity
  8
RACCORDO
100
AcDbSpline
 62
7
  6
CONTINUOUS
 70
0
 71
3
 72
11
 73
7
 74
5
 42
0.0000001
 43
0.0000001
 44
0.0000000001
 12
-0.1363190161
 22
0.0787088914
 32
0.0
 13
-0.0000316866
 23
0.1574101736
 33
0.0
 40
0.0
 40
0.0
 40
0.0
 40
0.0
 40
0.2895817376
 40
0.5491318165
 40
0.7822802582
 40
1.0
 40
1.0
 40
1.0
 40
1.0
 10
13.0488153633
 20
65.0414246822
 30
0.0
 10
13.0356568641
 20
65.0490222347
 30
0.0
 10
13.0117778217
 20
65.0654816886
 30
0.0
 10
12.9832247471
 20
65.095474268
 30
0.0
 10
12.9651614632
 20
65.1286666169
 30
0.0
 10
12.9609521768
 20
65.1524832929
 30
0.0
 10
12.9609498772
 20
65.1639070603
 30
0.0
 11
13.0488153633
 21
65.0414246822
 31
0.0
 11
13.0115386104
 21
65.0676594652
 31
0.0
 11
12.9837751675
 21
65.0976326128
 31
0.0
 11
12.9667090711
 21
65.1301231308
 31
0.0
 11
12.9609498772
 21
65.1639070603
 31
0.0
  0
SPLINE
  5
52B
100
AcDbEntity
  8
RACCORDO
100
AcDbSpline
 62
7
  6
CONTINUOUS
 70
0
 71
3
 72
11
 73
7
 74
5
 42
0.0000001
 43
0.0000001
 44
0.0000000001
 12
-0.0000000517
 22
-0.1573888098
 32
0.0
 13
0.1362846782
 23
-0.0787256244
 33
0.0
 40
0.0
 40
0.0
 40
0.0
 40
0.0
 40
0.2895872683
 40
0.5491386409
 40
0.7822847649
 40
1.0
 40
1.0
 40
1.0
 40
1.0
 10
12.6501375487
 20
65.7319549123
 30
0.0
 10
12.6501375437
 20
65.7167623138
 30
0.0
 10
12.6524510658
 20
65.6878562369
 30
0.0
 10
12.6641456822
 20
65.6481369507
 30
0.0
 10
12.6838552441
 20
65.615901283
 30
0.0
 10
12.702373135
 20
65.6003492723
 30
0.0
 10
12.7122635519
 20
65.5946360163
 30
0.0
 11
12.6501375487
 21
65.7319549123
 31
0.0
 11
12.6542171842
 21
65.6865600666
 31
0.0
 11
12.6662898258
 21
65.6475342652
 31
0.0
 11
12.6858902693
 21
65.6165130528
 31
0.0
 11
12.7122635519
 21
65.5946360163
 31
0.0
  0
SPLINE
  5
52C
100
AcDbEntity
  8
RACCORDO
100
AcDbSpline
 62
7
  6
CONTINUOUS
 70
0
 71
3
 72
11
 73
7
 74
5
 42
0.0000001
 43
0.0000001
 44
0.0000000001
 12
0.0
 22
-0.157342478
 32
0.0
 13
0.1362077173
 23
-0.0787661927
 33
0.0
 40
0.0
 40
0.0
 40
0.0
 40
0.0
 40
0.2895781872
 40
0.5491322113
 40
0.7822857584
 40
1.0
 40
1.0
 40
1.0
 40
1.0
 10
-19.6858500215
 20
84.4023488702
 30
0.0
 10
-19.6858500215
 20
84.3871612203
 30
0.0
 10
-19.6835379122
 20
84.3582640776
 30
0.0
 10
-19.6718512387
 20
84.318555448
 30
0.0
 10
-19.6521553108
 20
84.2863245768
 30
0.0
 10
-19.6336493741
 20
84.270769596
 30
0.0
 10
-19.6237645875
 20
84.265053422
 30
0.0
 11
-19.6858500215
 21
84.4023488702
 31
0.0
 11
-19.6817731707
 21
84.35696868
 31
0.0
 11
-19.6697087167
 21
84.3179524972
 31
0.0
 11
-19.6501211853
 21
84.2869345238
 31
0.0
 11
-19.6237645875
 21
84.265053422
 31
0.0
  0
SPLINE
  5
52D
100
AcDbEntity
  8
RACCORDO
100
AcDbSpline
 62
7
  6
CONTINUOUS
 70
0
 71
3
 72
10
 73
6
 74
4
 42
0.0000001
 43
0.0000001
 44
0.0000000001
 12
0.3008557635
 22
-0.1737074046
 32
0.0
 13
0.335457116
 23
0.0903159797
 33
0.0
 40
0.0
 40
0.0
 40
0.0
 40
0.0
 40
0.2300845876
 40
0.483607702
 40
1.0
 40
1.0
 40
1.0
 40
1.0
 10
-20.0845278361
 20
84.1722017872
 30
0.0
 10
-20.0614537447
 20
84.1588793217
 30
0.0
 10
-20.0089918924
 20
84.1375379137
 30
0.0
 10
-19.894901584
 20
84.1159514017
 30
0.0
 10
-19.8033528136
 20
84.1221507792
 30
0.0
 10
-19.7456103233
 20
84.137696938
 30
0.0
 11
-20.0845278361
 21
84.1722017872
 31
0.0
 11
-20.0109203865
 21
84.1410399612
 31
0.0
 11
-19.9244902563
 21
84.1241001106
 31
0.0
 11
-19.7456103233
 21
84.137696938
 31
0.0
  0
SPLINE
  5
52E
100
AcDbEntity
  8
RACCORDO
100
AcDbSpline
 62
7
  6
CONTINUOUS
 70
0
 71
3
 72
10
 73
6
 74
4
 42
0.0000001
 43
0.0000001
 44
0.0000000001
 12
0.3008547198
 22
-0.1737097446
 32
0.0
 13
0.3354567303
 23
0.0903184363
 33
0.0
 40
0.0
 40
0.0
 40
0.0
 40
0.0
 40
0.2300849491
 40
0.4836079614
 40
1.0
 40
1.0
 40
1.0
 40
1.0
 10
-20.0845278361
 20
46.8350224188
 30
0.0
 10
-20.0614537885
 20
46.8216997529
 30
0.0
 10
-20.0089919665
 20
46.8003580213
 30
0.0
 10
-19.8949015948
 20
46.7787712791
 30
0.0
 10
-19.8033527182
 20
46.7849709957
 30
0.0
 10
-19.7456103233
 20
46.8005175695
 30
0.0
 11
-20.0845278361
 21
46.8350224188
 31
0.0
 11
-20.0109203857
 21
46.8038601153
 31
0.0
 11
-19.9244902551
 21
46.7869201006
 31
0.0
 11
-19.7456103233
 21
46.8005175695
 31
0.0
  0
SPLINE
  5
52F
100
AcDbEntity
  8
RACCORDO
100
AcDbSpline
 62
7
  6
CONTINUOUS
 70
0
 71
3
 72
10
 73
6
 74
4
 42
0.0000001
 43
0.0000001
 44
0.0000000001
 12
0.0000001141
 22
0.3473993299
 32
0.0
 13
0.2459370819
 23
0.2453594223
 33
0.0
 40
0.0
 40
0.0
 40
0.0
 40
0.0
 40
0.2300791698
 40
0.4836010627
 40
1.0
 40
1.0
 40
1.0
 40
1.0
 10
-19.6858500215
 20
46.1444921887
 30
0.0
 10
-19.6858500127
 20
46.1711353052
 30
0.0
 10
-19.6781001633
 20
46.2272378356
 30
0.0
 10
-19.6397481085
 20
46.3368345886
 30
0.0
 10
-19.5886052985
 20
46.4130180062
 30
0.0
 10
-19.5462714159
 20
46.4552524545
 30
0.0
 11
-19.6858500215
 21
46.1444921887
 31
0.0
 11
-19.6760318857
 21
46.2238162399
 31
0.0
 11
-19.647486352
 21
46.3071352952
 31
0.0
 11
-19.5462714159
 21
46.4552524545
 31
0.0
  0
SPLINE
  5
530
100
AcDbEntity
  8
RACCORDO
100
AcDbSpline
 62
7
  6
CONTINUOUS
 70
0
 71
3
 72
10
 73
6
 74
4
 42
0.0000001
 43
0.0000001
 44
0.0000000001
 12
0.0
 22
0.3473993418
 32
0.0
 13
0.2459371687
 23
0.2453593523
 33
0.0
 40
0.0
 40
0.0
 40
0.0
 40
0.0
 40
0.2300791865
 40
0.4836010752
 40
1.0
 40
1.0
 40
1.0
 40
1.0
 10
12.6501375487
 20
27.4740982308
 30
0.0
 10
12.6501375487
 20
27.5007413501
 30
0.0
 10
12.6578873849
 20
27.5568438867
 30
0.0
 10
12.6962394322
 20
27.6664406473
 30
0.0
 10
12.7473822578
 20
27.7426240613
 30
0.0
 10
12.7897161543
 20
27.7848584966
 30
0.0
 11
12.6501375487
 21
27.4740982308
 31
0.0
 11
12.6599556661
 21
27.5534222929
 31
0.0
 11
12.6885011934
 21
27.636741352
 31
0.0
 11
12.7897161543
 21
27.7848584966
 31
0.0
  0
SPLINE
  5
531
100
AcDbEntity
  8
RACCORDO
100
AcDbSpline
 62
7
  6
CONTINUOUS
 70
0
 71
3
 72
11
 73
7
 74
5
 42
0.0000001
 43
0.0000001
 44
0.0000000001
 12
-0.1363070506
 22
0.0787020424
 32
0.0
 13
-0.0000536147
 23
0.1573963806
 33
0.0
 40
0.0
 40
0.0
 40
0.0
 40
0.0
 40
0.2895790523
 40
0.5491299326
 40
0.7822805821
 40
1.0
 40
1.0
 40
1.0
 40
1.0
 10
13.0488153633
 20
27.7042453137
 30
0.0
 10
13.0356581412
 20
27.7118421347
 30
0.0
 10
13.0117811928
 20
27.7282999004
 30
0.0
 10
12.983229684
 20
27.7582888503
 30
0.0
 10
12.9651656061
 20
27.7914769699
 30
0.0
 10
12.9609537719
 20
27.8152910054
 30
0.0
 10
12.960949881
 20
27.8267137548
 30
0.0
 11
13.0488153633
 21
27.7042453137
 31
0.0
 11
13.0115419755
 21
27.7304772068
 31
0.0
 11
12.9837797937
 21
27.7604468168
 31
0.0
 11
12.9667126091
 21
27.7929335247
 31
0.0
 11
12.960949881
 21
27.8267137548
 31
0.0
  0
SPLINE
  5
532
100
AcDbEntity
  8
RACCORDO
100
AcDbSpline
 62
7
  6
CONTINUOUS
 70
0
 71
3
 72
12
 73
8
 74
6
 42
0.0000001
 43
0.0000001
 44
0.0000000001
 12
0.5057253542
 22
-0.2920463637
 32
0.0
 13
0.0000644726
 23
-0.5839941852
 33
0.0
 40
0.0
 40
0.0
 40
0.0
 40
0.0
 40
0.2368422946
 40
0.499192476
 40
0.7618019235
 40
0.8853942361
 40
1.0
 40
1.0
 40
1.0
 40
1.0
 10
14.5550830289
 20
66.6978336881
 30
0.0
 10
14.5950087467
 20
66.6747773778
 30
0.0
 10
14.6706313011
 20
66.6112412999
 30
0.0
 10
14.7590157369
 20
66.4909522415
 30
0.0
 10
14.8108198544
 20
66.3743996621
 30
0.0
 10
14.8333256292
 20
66.2793468496
 30
0.0
 10
14.8378802001
 20
66.2329565428
 30
0.0
 10
14.8378826631
 20
66.2106468429
 30
0.0
 11
14.5550830289
 21
66.6978336881
 31
0.0
 11
14.6627814039
 21
66.6110467796
 31
0.0
 11
14.7542468528
 21
66.4881334912
 31
0.0
 11
14.815685288
 21
66.3476153723
 31
0.0
 11
14.8320738282
 21
66.2773233896
 31
0.0
 11
14.8378826631
 21
66.2106468429
 31
0.0
  0
SPLINE
  5
533
100
AcDbEntity
  8
RACCORDO
100
AcDbSpline
 62
7
  6
CONTINUOUS
 70
0
 71
3
 72
13
 73
9
 74
7
 42
0.0000001
 43
0.0000001
 44
0.0000000001
 12
-0.0662090449
 22
0.1972123061
 32
0.0
 13
0.2078764784
 23
-0.0079812929
 33
0.0
 40
0.0
 40
0.0
 40
0.0
 40
0.0
 40
0.279534151
 40
0.5136620017
 40
0.6222252232
 40
0.7348380503
 40
0.8596282997
 40
1.0
 40
1.0
 40
1.0
 40
1.0
 10
-19.7456100618
 20
84.1376958288
 30
0.0
 10
-19.7517792915
 20
84.1560716869
 30
0.0
 10
-19.7602951881
 20
84.1909194356
 30
0.0
 10
-19.7547896491
 20
84.2359330608
 30
0.0
 10
-19.7356991824
 20
84.2619631292
 30
0.0
 10
-19.7151830068
 20
84.2752846063
 30
0.0
 10
-19.6896019038
 20
84.2822152587
 30
0.0
 10
-19.6711046021
 20
84.2829646768
 30
0.0
 10
-19.6613779438
 20
84.2825912276
 30
0.0
 11
-19.7456100618
 21
84.1376958288
 31
0.0
 11
-19.7571799704
 21
84.1946846105
 31
0.0
 11
-19.748387109
 21
84.2425898764
 31
0.0
 11
-19.734943263
 21
84.260736961
 31
0.0
 11
-19.7154556727
 21
84.2737388478
 31
0.0
 11
-19.6905370058
 21
84.2810179489
 31
0.0
 11
-19.6613779438
 21
84.2825912276
 31
0.0
  0
SPLINE
  5
534
100
AcDbEntity
  8
RACCORDO
100
AcDbSpline
 62
7
  6
CONTINUOUS
 70
0
 71
3
 72
11
 73
7
 74
5
 42
0.0000001
 43
0.0000001
 44
0.0000000001
 12
-0.4310685118
 22
0.1088707109
 32
0.0
 13
0.1215914924
 23
0.4276545364
 33
0.0
 40
0.0
 40
0.0
 40
0.0
 40
0.0
 40
0.2417492733
 40
0.5000082522
 40
0.7582667077
 40
1.0
 40
1.0
 40
1.0
 40
1.0
 10
-19.5462810437
 20
46.4552556161
 30
0.0
 10
-19.5810178768
 20
46.4640287545
 30
0.0
 10
-19.6505939719
 20
46.4945615063
 30
0.0
 10
-19.7297179967
 20
46.5795295339
 30
0.0
 10
-19.763683001
 20
46.6905262814
 30
0.0
 10
-19.7554076551
 20
46.7660592644
 30
0.0
 10
-19.7456100845
 20
46.8005187108
 30
0.0
 11
-19.5462810437
 21
46.4552556161
 31
0.0
 11
-19.6442289445
 21
46.4995133673
 31
0.0
 11
-19.7220277826
 21
46.5839625721
 31
0.0
 11
-19.7562400033
 21
46.693570044
 31
0.0
 11
-19.7456100845
 21
46.8005187108
 31
0.0
  0
SPLINE
  5
535
100
AcDbEntity
  8
RACCORDO
100
AcDbSpline
 62
7
  6
CONTINUOUS
 70
0
 71
3
 72
9
 73
5
 74
3
 42
0.0000001
 43
0.0000001
 44
0.0000000001
 12
-0.0245012758
 22
-0.4136068379
 32
0.0
 13
0.370913549
 23
-0.1846457907
 33
0.0
 40
0.0
 40
0.0
 40
0.0
 40
0.0
 40
0.4999981152
 40
1.0
 40
1.0
 40
1.0
 40
1.0
 10
-18.3684141772
 20
47.5956250947
 30
0.0
 10
-18.3724977078
 20
47.5266908816
 30
0.0
 10
-18.3335634165
 20
47.3856346623
 30
0.0
 10
-18.2308943482
 20
47.2811616987
 30
0.0
 10
-18.1690751904
 20
47.2503872843
 30
0.0
 11
-18.3684141772
 21
47.5956250947
 31
0.0
 11
-18.3176299891
 21
47.394780939
 31
0.0
 11
-18.1690751904
 21
47.2503872843
 31
0.0
  0
SPLINE
  5
536
100
AcDbEntity
  8
RACCORDO
100
AcDbSpline
 62
7
  6
CONTINUOUS
 70
0
 71
3
 72
10
 73
6
 74
4
 42
0.0000001
 43
0.0000001
 44
0.0000000001
 12
0.1828507333
 22
-0.3543641519
 32
0.0
 13
0.2144009064
 23
-0.336215101
 33
0.0
 40
0.0
 40
0.0
 40
0.0
 40
0.0
 40
0.2273651443
 40
0.5000028679
 40
1.0
 40
1.0
 40
1.0
 40
1.0
 10
-18.2333543669
 20
47.6736318891
 30
0.0
 10
-18.2194964058
 20
47.6467752036
 30
0.0
 10
-18.1877060075
 20
47.58839733
 30
0.0
 10
-18.122313733
 20
47.4726837258
 30
0.0
 10
-18.069748739
 20
47.3844023029
 30
0.0
 10
-18.0340154596
 20
47.3283667741
 30
0.0
 11
-18.2333543669
 21
47.6736318891
 31
0.0
 11
-18.1903971326
 21
47.5937908107
 31
0.0
 11
-18.1369271902
 21
47.4991321259
 31
0.0
 11
-18.0340154596
 21
47.3283667741
 31
0.0
  0
SPLINE
  5
537
100
AcDbEntity
  8
RACCORDO
100
AcDbSpline
 62
7
  6
CONTINUOUS
 70
0
 71
3
 72
9
 73
5
 74
3
 42
0.0000001
 43
0.0000001
 44
0.0000000001
 12
0.0072132972
 22
-0.0113899437
 32
0.0
 13
0.0118511912
 23
-0.0064274211
 33
0.0
 40
0.0
 40
0.0
 40
0.0
 40
0.0
 40
0.2343894242
 40
1.0
 40
1.0
 40
1.0
 40
1.0
 10
-18.0340154596
 20
47.3283667741
 30
0.0
 10
-18.0334518861
 20
47.32747688
 30
0.0
 10
-18.030796097
 20
47.3238393256
 30
0.0
 10
-18.0271246038
 20
47.3209962291
 30
0.0
 10
-18.0241001381
 20
47.3193559286
 30
0.0
 11
-18.0340154596
 21
47.3283667741
 31
0.0
 11
-18.0321511072
 21
47.3258153177
 31
0.0
 11
-18.0241001381
 21
47.3193559286
 31
0.0
  0
SPLINE
  5
538
100
AcDbEntity
  8
RACCORDO
100
AcDbSpline
 62
7
  6
CONTINUOUS
 70
0
 71
3
 72
9
 73
5
 74
3
 42
0.0000001
 43
0.0000001
 44
0.0000000001
 12
-0.0003312793
 22
-0.013472688
 32
0.0
 13
0.0061959411
 23
-0.011968015
 33
0.0
 40
0.0
 40
0.0
 40
0.0
 40
0.0
 40
0.2685733876
 40
1.0
 40
1.0
 40
1.0
 40
1.0
 10
-18.2361998637
 20
47.6867234292
 30
0.0
 10
-18.2362295213
 20
47.6855172941
 30
0.0
 10
-18.2360885363
 20
47.6810264115
 30
0.0
 10
-18.2348649923
 20
47.6765497974
 30
0.0
 10
-18.2333543669
 20
47.6736318891
 30
0.0
 11
-18.2361998637
 21
47.6867234292
 31
0.0
 11
-18.2360757049
 21
47.6831060602
 31
0.0
 11
-18.2333543669
 21
47.6736318891
 31
0.0
  0
SPLINE
  5
539
100
AcDbEntity
  8
RACCORDO
100
AcDbSpline
 62
7
  6
CONTINUOUS
 70
0
 71
3
 72
11
 73
7
 74
5
 42
0.0000001
 43
0.0000001
 44
0.0000000001
 12
0.3303340714
 22
0.1779756193
 32
0.0
 13
0.0024728007
 23
0.3752196757
 33
0.0
 40
0.0
 40
0.0
 40
0.0
 40
0.0
 40
0.2174002984
 40
0.4501302195
 40
0.7094857245
 40
1.0
 40
1.0
 40
1.0
 40
1.0
 10
15.1059162449
 20
24.1449997967
 30
0.0
 10
15.1298544868
 20
24.1578971143
 30
0.0
 10
15.1749084173
 20
24.1938239667
 30
0.0
 10
15.2231658563
 20
24.2698163574
 30
0.0
 10
15.2521658999
 20
24.3642529944
 30
0.0
 10
15.2581727473
 20
24.4332350539
 30
0.0
 10
15.2584122086
 20
24.4695706113
 30
0.0
 11
15.1059162449
 21
24.1449997967
 31
0.0
 11
15.1700064117
 21
24.1954663457
 31
0.0
 11
15.2179469631
 21
24.2684571901
 31
0.0
 11
15.2478145767
 21
24.3610779347
 31
0.0
 11
15.2584122086
 21
24.4695706113
 31
0.0
  0
SPLINE
  5
53A
100
AcDbEntity
  8
RACCORDO
100
AcDbSpline
 62
7
  6
CONTINUOUS
 70
0
 71
3
 72
11
 73
7
 74
5
 42
0.0000001
 43
0.0000001
 44
0.0000000001
 12
-0.0068243301
 22
1.024860587
 32
0.0
 13
-0.8841392067
 23
0.5183470434
 33
0.0
 40
0.0
 40
0.0
 40
0.0
 40
0.0
 40
0.2370060342
 40
0.4999938366
 40
0.7629849612
 40
1.0
 40
1.0
 40
1.0
 40
1.0
 10
15.2584122086
 20
66.2058913963
 30
0.0
 10
15.2578730728
 20
66.286857444
 30
0.0
 10
15.226596732
 20
66.4575573375
 30
0.0
 10
15.1202330299
 20
66.6975679457
 30
0.0
 10
14.9655571102
 20
66.9096881445
 30
0.0
 10
14.8333642782
 20
67.0221302163
 30
0.0
 10
14.7635128488
 20
67.0630822311
 30
0.0
 11
15.2584122086
 21
66.2058913963
 31
0.0
 11
15.219588118
 21
66.4456721586
 31
0.0
 11
15.1119076647
 21
66.6927598272
 31
0.0
 11
14.9517619277
 21
66.9095605983
 31
0.0
 11
14.7635128488
 21
67.0630822311
 31
0.0
  0
SPLINE
  5
53B
100
AcDbEntity
  8
RACCORDO
100
AcDbSpline
 62
7
  6
CONTINUOUS
 70
0
 71
3
 72
11
 73
7
 74
5
 42
0.0000001
 43
0.0000001
 44
0.0000000001
 12
-0.3262172695
 22
0.1854893057
 32
0.0
 13
-0.3193340888
 23
-0.1971033464
 33
0.0
 40
0.0
 40
0.0
 40
0.0
 40
0.0
 40
0.2905184574
 40
0.5498765043
 40
0.7826053532
 40
1.0
 40
1.0
 40
1.0
 40
1.0
 10
-21.3823656818
 20
87.9332594805
 30
0.0
 10
-21.4139563945
 20
87.9512221694
 30
0.0
 10
-21.4767056829
 20
87.9805170095
 30
0.0
 10
-21.5729997556
 20
88.0026265442
 30
0.0
 10
-21.6629483723
 20
87.9988338814
 30
0.0
 10
-21.7165942955
 20
87.9777794814
 30
0.0
 10
-21.7397348027
 20
87.9634964106
 30
0.0
 11
-21.3823656818
 21
87.9332594805
 31
0.0
 11
-21.4816318823
 21
87.978336119
 31
0.0
 11
-21.5767872378
 21
87.9987862728
 31
0.0
 11
-21.6639779192
 21
87.9937668128
 31
0.0
 11
-21.7397348027
 21
87.9634964106
 31
0.0
  0
SPLINE
  5
53C
100
AcDbEntity
  8
RACCORDO
100
AcDbSpline
 62
7
  6
CONTINUOUS
 70
0
 71
3
 72
11
 73
7
 74
5
 42
0.0000001
 43
0.0000001
 44
0.0000000001
 12
-0.3738480846
 22
-0.223389988
 32
0.0
 13
0.000000011
 23
-0.4355060012
 33
0.0
 40
0.0
 40
0.0
 40
0.0
 40
0.0
 40
0.2383260036
 40
0.5010975909
 40
0.7632734208
 40
1.0
 40
1.0
 40
1.0
 40
1.0
 10
14.7635128478
 20
67.0630822317
 30
0.0
 10
14.7338136078
 20
67.045335684
 30
0.0
 10
14.6777591314
 20
66.9972105058
 30
0.0
 10
14.6124061262
 20
66.906738049
 30
0.0
 10
14.5678244974
 20
66.8046754662
 30
0.0
 10
14.555083028
 20
66.73219897
 30
0.0
 10
14.5550830289
 20
66.6978336881
 30
0.0
 11
14.7635128478
 21
67.0630822317
 31
0.0
 11
14.6834681512
 21
66.9970087132
 31
0.0
 11
14.6159185145
 21
66.9046331727
 31
0.0
 11
14.5708804054
 21
66.7997120289
 31
0.0
 11
14.5550830289
 21
66.6978336881
 31
0.0
  0
SPLINE
  5
53D
100
AcDbEntity
  8
RACCORDO
100
AcDbSpline
 62
7
  6
CONTINUOUS
 70
0
 71
3
 72
11
 73
7
 74
5
 42
0.0000001
 43
0.0000001
 44
0.0000000001
 12
-0.3738480757
 22
-0.2233899999
 32
0.0
 13
0.0000000017
 23
-0.4355059997
 33
0.0
 40
0.0
 40
0.0
 40
0.0
 40
0.0
 40
0.2383260021
 40
0.5010975899
 40
0.76327342
 40
1.0
 40
1.0
 40
1.0
 40
1.0
 10
-21.3823656804
 20
87.9332594797
 30
0.0
 10
-21.4120649195
 20
87.9155129311
 30
0.0
 10
-21.4681193946
 20
87.8673877525
 30
0.0
 10
-21.5334724007
 20
87.7769152971
 30
0.0
 10
-21.578054031
 20
87.6748527151
 30
0.0
 10
-21.5907955018
 20
87.6023762193
 30
0.0
 10
-21.5907955017
 20
87.5680109374
 30
0.0
 11
-21.3823656804
 21
87.9332594797
 31
0.0
 11
-21.4624103751
 21
87.8671859604
 31
0.0
 11
-21.5299600125
 21
87.7748104206
 31
0.0
 11
-21.5749981232
 21
87.6698892779
 31
0.0
 11
-21.5907955017
 21
87.5680109374
 31
0.0
  0
SPLINE
  5
53E
100
AcDbEntity
  8
RACCORDO
100
AcDbSpline
 62
7
  6
CONTINUOUS
 70
0
 71
3
 72
11
 73
7
 74
5
 42
0.0000001
 43
0.0000001
 44
0.0000000001
 12
-0.380376472
 22
-0.21208902
 32
0.0
 13
-0.3771557076
 23
0.2177649767
 33
0.0
 40
0.0
 40
0.0
 40
0.0
 40
0.0
 40
0.2383228673
 40
0.5010914229
 40
0.763267564
 40
1.0
 40
1.0
 40
1.0
 40
1.0
 10
15.2584122086
 20
66.2058913946
 30
0.0
 10
15.2281947381
 20
66.1890428402
 30
0.0
 10
15.1584909407
 20
66.1645582915
 30
0.0
 10
15.0474630331
 20
66.153196122
 30
0.0
 10
14.936782208
 20
66.1656200459
 30
0.0
 10
14.8676443262
 20
66.1908263427
 30
0.0
 10
14.8378826631
 20
66.2080103538
 30
0.0
 11
15.2584122086
 21
66.2058913946
 31
0.0
 11
15.1611705396
 21
66.1696039091
 31
0.0
 11
15.0473968437
 21
66.1572907891
 31
0.0
 11
14.9340126624
 21
66.170748514
 31
0.0
 11
14.8378826631
 21
66.2080103538
 31
0.0
  0
SPLINE
  5
53F
100
AcDbEntity
  8
RACCORDO
100
AcDbSpline
 62
7
  6
CONTINUOUS
 70
0
 71
3
 72
11
 73
7
 74
5
 42
0.0000001
 43
0.0000001
 44
0.0000000001
 12
-0.3803764778
 22
-0.2120890063
 32
0.0
 13
-0.3771557109
 23
0.2177649678
 33
0.0
 40
0.0
 40
0.0
 40
0.0
 40
0.0
 40
0.2383228673
 40
0.5010914248
 40
0.7632675667
 40
1.0
 40
1.0
 40
1.0
 40
1.0
 10
15.2584122086
 20
24.4695706124
 30
0.0
 10
15.2281947376
 20
24.4527220591
 30
0.0
 10
15.1584909401
 20
24.4282375117
 30
0.0
 10
15.0474630327
 20
24.4168753409
 30
0.0
 10
14.9367822079
 20
24.4292992635
 30
0.0
 10
14.8676443261
 20
24.4545055587
 30
0.0
 10
14.8378826631
 20
24.4716895689
 30
0.0
 11
15.2584122086
 21
24.4695706124
 31
0.0
 11
15.1611705393
 21
24.4332831287
 31
0.0
 11
15.0473968431
 21
24.420970008
 31
0.0
 11
14.9340126617
 21
24.4344277314
 31
0.0
 11
14.8378826631
 21
24.4716895689
 31
0.0
  0
SPLINE
  5
540
100
AcDbEntity
  8
RACCORDO
100
AcDbSpline
 62
7
  6
CONTINUOUS
 70
0
 71
3
 72
9
 73
5
 74
3
 42
0.0000001
 43
0.0000001
 44
0.0000000001
 12
0.0000527507
 22
-0.0373502908
 32
0.0
 13
0.007764013
 23
-0.0365344647
 33
0.0
 40
0.0
 40
0.0
 40
0.0
 40
0.0
 40
0.2547386773
 40
1.0
 40
1.0
 40
1.0
 40
1.0
 10
-18.3722199181
 20
47.6327469431
 30
0.0
 10
-18.3722154388
 20
47.6295754219
 30
0.0
 10
-18.3718615787
 20
47.6171299082
 30
0.0
 10
-18.370338986
 20
47.6047032732
 30
0.0
 10
-18.3684102465
 20
47.5956273653
 30
0.0
 11
-18.3722199181
 21
47.6327469431
 31
0.0
 11
-18.371959314
 21
47.6232359396
 31
0.0
 11
-18.3684102465
 21
47.5956273653
 31
0.0
  0
SPLINE
  5
541
100
AcDbEntity
  8
RACCORDO
100
AcDbSpline
 62
7
  6
CONTINUOUS
 70
0
 71
3
 72
15
 73
11
 74
9
 42
0.0000001
 43
0.0000001
 44
0.0000000001
 12
-0.0000290007
 22
-0.4170681703
 32
0.0
 13
-0.3612088353
 23
0.2085042849
 33
0.0
 40
0.0
 40
0.0
 40
0.0
 40
0.0
 40
0.145084411
 40
0.2749838777
 40
0.3918358314
 40
0.5009156004
 40
0.6098397431
 40
0.7262475405
 40
0.855533188
 40
1.0
 40
1.0
 40
1.0
 40
1.0
 10
14.8378826631
 20
24.4716895689
 30
0.0
 10
14.8378812605
 20
24.451519539
 30
0.0
 10
14.8348469599
 20
24.4131589112
 30
0.0
 10
14.8193945513
 20
24.3604337013
 30
0.0
 10
14.7933679011
 20
24.3175431525
 30
0.0
 10
14.7572416274
 20
24.2867764787
 30
0.0
 10
14.7128169638
 20
24.2702505492
 30
0.0
 10
14.6628289503
 20
24.2685956015
 30
0.0
 10
14.6095596504
 20
24.2809977639
 30
0.0
 10
14.5747605944
 20
24.2970771443
 30
0.0
 10
14.5573663647
 20
24.3071177941
 30
0.0
 11
14.8378826631
 21
24.4716895689
 31
0.0
 11
14.8325053252
 21
24.4114188859
 31
0.0
 11
14.8165749657
 21
24.3596369999
 31
0.0
 11
14.7906997077
 21
24.3183381654
 31
0.0
 11
14.7558626495
 21
24.2890797292
 31
0.0
 11
14.7133836357
 21
24.2729766667
 31
0.0
 11
14.6648886534
 21
24.270666266
 31
0.0
 11
14.6122071108
 21
24.2821606824
 31
0.0
 11
14.5573663647
 21
24.3071177941
 31
0.0
  0
SPLINE
  5
542
100
AcDbEntity
  8
RACCORDO
100
AcDbSpline
 62
7
  6
CONTINUOUS
 70
0
 71
3
 72
12
 73
8
 74
6
 42
0.0000001
 43
0.0000001
 44
0.0000000001
 12
-0.5057253526
 22
0.2920463627
 32
0.0
 13
-0.0000644726
 23
0.5839941832
 33
0.0
 40
0.0
 40
0.0
 40
0.0
 40
0.0
 40
0.2368422944
 40
0.4991924756
 40
0.7618019231
 40
0.8853942359
 40
1.0
 40
1.0
 40
1.0
 40
1.0
 10
-21.5907955017
 20
45.1786134129
 30
0.0
 10
-21.6307212193
 20
45.2016697231
 30
0.0
 10
-21.7063437735
 20
45.2652058007
 30
0.0
 10
-21.7947282091
 20
45.3854948585
 30
0.0
 10
-21.8465323267
 20
45.5020474374
 30
0.0
 10
-21.8690381016
 20
45.5971002496
 30
0.0
 10
-21.8735926729
 20
45.6434905563
 30
0.0
 10
-21.8735951359
 20
45.6658002562
 30
0.0
 11
-21.5907955017
 21
45.1786134129
 31
0.0
 11
-21.6984938763
 21
45.265400321
 31
0.0
 11
-21.789959325
 21
45.3883136087
 31
0.0
 11
-21.8513977603
 21
45.528831727
 31
0.0
 11
-21.8677863008
 21
45.5991237096
 31
0.0
 11
-21.8735951359
 21
45.6658002562
 31
0.0
  0
SPLINE
  5
543
100
AcDbEntity
  8
RACCORDO
100
AcDbSpline
 62
7
  6
CONTINUOUS
 70
0
 71
3
 72
11
 73
7
 74
5
 42
0.0000001
 43
0.0000001
 44
0.0000000001
 12
0.0000141053
 22
-0.1574089984
 32
0.0
 13
0.1363179965
 23
-0.078708302
 33
0.0
 40
0.0
 40
0.0
 40
0.0
 40
0.0
 40
0.2177586874
 40
0.4509006419
 40
0.7104563331
 40
1.0
 40
1.0
 40
1.0
 40
1.0
 10
-21.961449829
 20
45.7909191076
 30
0.0
 10
-21.9614488052
 20
45.779493382
 30
0.0
 10
-21.9572536126
 20
45.7556724903
 30
0.0
 10
-21.9391834353
 20
45.7224790729
 30
0.0
 10
-21.910627028
 20
45.6924945751
 30
0.0
 10
-21.8867518067
 20
45.6760332439
 30
0.0
 10
-21.8735951359
 20
45.6684367471
 30
0.0
 11
-21.961449829
 21
45.7909191076
 31
0.0
 11
-21.955700371
 21
45.7571275613
 31
0.0
 11
-21.9386338582
 21
45.7246387257
 31
0.0
 11
-21.9108660234
 21
45.6946688592
 31
0.0
 11
-21.8735951359
 21
45.6684367471
 31
0.0
  0
SPLINE
  5
544
100
AcDbEntity
  8
RACCORDO
100
AcDbSpline
 62
7
  6
CONTINUOUS
 70
0
 71
3
 72
11
 73
7
 74
5
 42
0.0000001
 43
0.0000001
 44
0.0000000001
 12
0.000014108
 22
-0.157408994
 32
0.0
 13
0.1363179944
 23
-0.0787082969
 33
0.0
 40
0.0
 40
0.0
 40
0.0
 40
0.0
 40
0.2177586882
 40
0.4509006427
 40
0.7104563324
 40
1.0
 40
1.0
 40
1.0
 40
1.0
 10
-21.961449829
 20
87.5272398872
 30
0.0
 10
-21.961448805
 20
87.5158141619
 30
0.0
 10
-21.9572536121
 20
87.4919932709
 30
0.0
 10
-21.9391834346
 20
87.4587998549
 30
0.0
 10
-21.9106270275
 20
87.4288153585
 30
0.0
 10
-21.8867518066
 20
87.4123540284
 30
0.0
 10
-21.8735951359
 20
87.4047575321
 30
0.0
 11
-21.961449829
 21
87.5272398872
 31
0.0
 11
-21.9557003706
 21
87.4934483419
 31
0.0
 11
-21.9386338575
 21
87.4609595076
 31
0.0
 11
-21.9108660231
 21
87.4309896426
 31
0.0
 11
-21.8735951359
 21
87.4047575321
 31
0.0
  0
SPLINE
  5
545
100
AcDbEntity
  8
RACCORDO
100
AcDbSpline
 62
7
  6
CONTINUOUS
 70
0
 71
3
 72
11
 73
7
 74
5
 42
0.0000001
 43
0.0000001
 44
0.0000000001
 12
-0.1362924929
 22
0.0787097748
 32
0.0
 13
-0.0000000006
 23
0.1573876497
 33
0.0
 40
0.0
 40
0.0
 40
0.0
 40
0.0
 40
0.2177541405
 40
0.4508937694
 40
0.7104507771
 40
1.0
 40
1.0
 40
1.0
 40
1.0
 10
14.6172144363
 20
24.1711266092
 30
0.0
 10
14.6073216848
 20
24.1768397356
 30
0.0
 10
14.5887930979
 20
24.1923816531
 30
0.0
 10
14.5690860575
 20
24.2246238262
 30
0.0
 10
14.5574000957
 20
24.2643419614
 30
0.0
 10
14.555083029
 20
24.293245673
 30
0.0
 10
14.5550830289
 20
24.3084361636
 30
0.0
 11
14.6172144363
 21
24.1711266092
 31
0.0
 11
14.5908296916
 21
24.1929990204
 31
0.0
 11
14.5712309115
 21
24.2240197546
 31
0.0
 11
14.5591632978
 21
24.2630477241
 31
0.0
 11
14.5550830289
 21
24.3084361636
 31
0.0
  0
SPLINE
  5
546
100
AcDbEntity
  8
RACCORDO
100
AcDbSpline
 62
7
  6
CONTINUOUS
 70
0
 71
3
 72
11
 73
7
 74
5
 42
0.0000001
 43
0.0000001
 44
0.0000000001
 12
-0.1362924929
 22
0.0787097779
 32
0.0
 13
-0.000000004
 23
0.1573876512
 33
0.0
 40
0.0
 40
0.0
 40
0.0
 40
0.0
 40
0.2177541423
 40
0.4508937728
 40
0.710450779
 40
1.0
 40
1.0
 40
1.0
 40
1.0
 10
-21.5286640922
 20
45.0413038573
 30
0.0
 10
-21.5385568438
 20
45.047016984
 30
0.0
 10
-21.5570854308
 20
45.0625589019
 30
0.0
 10
-21.5767924716
 20
45.0948010753
 30
0.0
 10
-21.5884784342
 20
45.1345192106
 30
0.0
 10
-21.5907955013
 20
45.1634229223
 30
0.0
 10
-21.5907955017
 20
45.1786134129
 30
0.0
 11
-21.5286640922
 21
45.0413038573
 31
0.0
 11
-21.5550488372
 21
45.0631762691
 31
0.0
 11
-21.5746476177
 21
45.0941970039
 31
0.0
 11
-21.586715232
 21
45.1332249734
 31
0.0
 11
-21.5907955017
 21
45.1786134129
 31
0.0
  0
SPLINE
  5
547
100
AcDbEntity
  8
RACCORDO
100
AcDbSpline
 62
7
  6
CONTINUOUS
 70
0
 71
3
 72
15
 73
11
 74
9
 42
0.0000001
 43
0.0000001
 44
0.0000000001
 12
0.0000238213
 22
-0.597984879
 32
0.0
 13
-0.5178420862
 23
0.2990409502
 33
0.0
 40
0.0
 40
0.0
 40
0.0
 40
0.0
 40
0.1446786948
 40
0.2748799313
 40
0.3916072275
 40
0.4999943582
 40
0.6083856293
 40
0.725122466
 40
0.8553266085
 40
1.0
 40
1.0
 40
1.0
 40
1.0
 10
13.0488153633
 20
27.7042453137
 30
0.0
 10
13.0488165121
 20
27.6754067565
 30
0.0
 10
13.0448708716
 20
27.6204539492
 30
0.0
 10
13.0242208473
 20
27.5445296505
 30
0.0
 10
12.9882521698
 20
27.4823091456
 30
0.0
 10
12.9367918419
 20
27.4379400325
 30
0.0
 10
12.8726283942
 20
27.4155761589
 30
0.0
 10
12.8007574581
 20
27.4155564292
 30
0.0
 10
12.7246790715
 20
27.4356281451
 30
0.0
 10
12.6751102056
 20
27.4596771413
 30
0.0
 10
12.6501375487
 20
27.4740982308
 30
0.0
 11
13.0488153633
 21
27.7042453137
 31
0.0
 11
13.0417406465
 21
27.6180193903
 31
0.0
 11
13.0201807673
 21
27.5432056383
 31
0.0
 11
12.9841957217
 21
27.4833952866
 31
0.0
 11
12.9347286038
 21
27.4415163971
 31
0.0
 11
12.873718424
 21
27.4196322465
 31
0.0
 11
12.8039226382
 21
27.4183886915
 31
0.0
 11
12.728349615
 21
27.4371214078
 31
0.0
 11
12.6501375487
 21
27.4740982308
 31
0.0
  0
SPLINE
  5
548
100
AcDbEntity
  8
RACCORDO
100
AcDbSpline
 62
7
  6
CONTINUOUS
 70
0
 71
3
 72
9
 73
5
 74
3
 42
0.0000001
 43
0.0000001
 44
0.0000000001
 12
0.1563813851
 22
-0.090284346
 32
0.0
 13
0.1281480412
 23
-0.1272182387
 33
0.0
 40
0.0
 40
0.0
 40
0.0
 40
0.0
 40
0.2366293495
 40
1.0
 40
1.0
 40
1.0
 40
1.0
 10
12.6501375487
 20
65.7319549123
 30
0.0
 10
12.6624723572
 20
65.7248336036
 30
0.0
 10
12.7134998978
 20
65.6928502763
 30
0.0
 10
12.7600360046
 20
65.6538902747
 30
0.0
 10
12.7926441558
 20
65.6215187181
 30
0.0
 11
12.6501375487
 21
65.7319549123
 31
0.0
 11
12.6863700938
 21
65.7093065677
 31
0.0
 11
12.7926441558
 21
65.6215187181
 31
0.0
  0
SPLINE
  5
549
100
AcDbEntity
  8
RACCORDO
100
AcDbSpline
 62
7
  6
CONTINUOUS
 70
0
 71
3
 72
10
 73
6
 74
4
 42
0.0000001
 43
0.0000001
 44
0.0000000001
 12
0.4592582815
 22
-0.4559260458
 32
0.0
 13
0.0000021875
 23
-0.6471373334
 33
0.0
 40
0.0
 40
0.0
 40
0.0
 40
0.0
 40
0.5173571193
 40
0.7703670028
 40
1.0
 40
1.0
 40
1.0
 40
1.0
 10
12.7926441558
 20
65.6215187181
 30
0.0
 10
12.8718443363
 20
65.5428931896
 30
0.0
 10
12.9673477
 20
65.4006032206
 30
0.0
 10
13.0358639288
 20
65.195316104
 30
0.0
 10
13.0488151959
 20
65.0909593773
 30
0.0
 10
13.0488153633
 20
65.0414246822
 30
0.0
 11
12.7926441558
 21
65.6215187181
 31
0.0
 11
12.9808517148
 21
65.3446257862
 31
0.0
 11
13.0319372257
 21
65.1890671649
 31
0.0
 11
13.0488153633
 21
65.0414246822
 31
0.0
  0
SPLINE
  5
54A
100
AcDbEntity
  8
RACCORDO
100
AcDbSpline
 62
7
  6
CONTINUOUS
 70
0
 71
3
 72
15
 73
11
 74
9
 42
0.0000001
 43
0.0000001
 44
0.0000000001
 12
-0.0000387078
 22
0.5979848853
 32
0.0
 13
0.5178497191
 23
-0.2990277463
 33
0.0
 40
0.0
 40
0.0
 40
0.0
 40
0.0
 40
0.1446658674
 40
0.2748627245
 40
0.391594032
 40
0.4999831839
 40
0.6083724348
 40
0.7251052566
 40
0.8553137174
 40
1.0
 40
1.0
 40
1.0
 40
1.0
 10
-20.0845278361
 20
84.1722017872
 30
0.0
 10
-20.0845297027
 20
84.2010377879
 30
0.0
 10
-20.0805706884
 20
84.2559871465
 30
0.0
 10
-20.0599108915
 20
84.3319038778
 30
0.0
 10
-20.0239542925
 20
84.3941305014
 30
0.0
 10
-19.9725006047
 20
84.4385092496
 30
0.0
 10
-19.9083421254
 20
84.4608835636
 30
0.0
 10
-19.8364704807
 20
84.460916923
 30
0.0
 10
-19.7603903995
 20
84.440832981
 30
0.0
 10
-19.7108252718
 20
84.4167706078
 30
0.0
 10
-19.6858500215
 20
84.4023488702
 30
0.0
 11
-20.0845278361
 21
84.1722017872
 31
0.0
 11
-20.0774419405
 21
84.2584190973
 31
0.0
 11
-20.0558753142
 21
84.3332281801
 31
0.0
 11
-20.0198970272
 21
84.3930453978
 31
0.0
 11
-19.9704361683
 21
84.4349335506
 31
0.0
 11
-19.9094308602
 21
84.4568277044
 31
0.0
 11
-19.8396376418
 21
84.4580805976
 31
0.0
 11
-19.7640639777
 21
84.4393397318
 31
0.0
 11
-19.6858500215
 21
84.4023488702
 31
0.0
  0
SPLINE
  5
54B
100
AcDbEntity
  8
RACCORDO
100
AcDbSpline
 62
7
  6
CONTINUOUS
 70
0
 71
3
 72
11
 73
7
 74
5
 42
0.0000001
 43
0.0000001
 44
0.0000000001
 12
-0.7171285941
 22
0.4140697132
 32
0.0
 13
0.0000544718
 23
0.8280864356
 33
0.0
 40
0.0
 40
0.0
 40
0.0
 40
0.0
 40
0.2369489663
 40
0.5000027919
 40
0.7630483128
 40
1.0
 40
1.0
 40
1.0
 40
1.0
 10
-19.6858500215
 20
46.1444921887
 30
0.0
 10
-19.7424909812
 20
46.1771966522
 30
0.0
 10
-19.8510359802
 20
46.2657660533
 30
0.0
 10
-19.9777390139
 20
46.4363236424
 30
0.0
 10
-20.0620677963
 20
46.631334463
 30
0.0
 10
-20.0845321385
 20
46.7696169261
 30
0.0
 10
-20.0845278361
 20
46.8350224188
 30
0.0
 11
-19.6858500215
 21
46.1444921887
 31
0.0
 11
-19.8396376463
 21
46.2663502565
 31
0.0
 11
-19.9704361608
 21
46.4405404577
 31
0.0
 11
-20.0558752905
 21
46.6409092094
 31
0.0
 11
-20.0845278361
 21
46.8350224188
 31
0.0
  0
SPLINE
  5
54C
100
AcDbEntity
  8
CURVE
100
AcDbSpline
 62
7
  6
CONTINUOUS
 70
0
 71
3
 72
25
 73
21
 74
19
 42
0.0000001
 43
0.0000001
 44
0.0000000001
 12
0.5420671437
 22
-0.0842517062
 32
0.0
 13
0.5668876432
 23
-0.564262818
 33
0.0
 40
0.0
 40
0.0
 40
0.0
 40
0.0
 40
0.125
 40
0.15625
 40
0.1875
 40
0.25
 40
0.3125
 40
0.34375
 40
0.375
 40
0.4375
 40
0.46875
 40
0.5
 40
0.53125
 40
0.5625
 40
0.625
 40
0.6875
 40
0.75
 40
0.8125
 40
0.875
 40
1.0
 40
1.0
 40
1.0
 40
1.0
 10
2.0991683469
 20
36.9077964941
 30
0.0
 10
2.1217544779
 20
36.9042860063
 30
0.0
 10
2.1502208243
 20
36.8992236504
 30
0.0
 10
2.1836793919
 20
36.8951715619
 30
0.0
 10
2.207480673
 20
36.8881549939
 30
0.0
 10
2.2377799325
 20
36.8777088662
 30
0.0
 10
2.2678237322
 20
36.86834909
 30
0.0
 10
2.2920337489
 20
36.8595943595
 30
0.0
 10
2.3167266796
 20
36.846608136
 30
0.0
 10
2.3412825117
 20
36.8349876303
 30
0.0
 10
2.365887454
 20
36.8224435912
 30
0.0
 10
2.3843309289
 20
36.8144404443
 30
0.0
 10
2.4027907758
 20
36.8012795342
 30
0.0
 10
2.4273930515
 20
36.7854928885
 30
0.0
 10
2.4581863672
 20
36.7654447308
 30
0.0
 10
2.4949603652
 20
36.7402563723
 30
0.0
 10
2.5309760621
 20
36.7090978039
 30
0.0
 10
2.5673920026
 20
36.680958148
 30
0.0
 10
2.6148230253
 20
36.6352980196
 30
0.0
 10
2.6501821083
 20
36.5995209286
 30
0.0
 10
2.6738024268
 20
36.5760099779
 30
0.0
 11
2.0991683469
 21
36.9077964941
 31
0.0
 11
2.1669267398
 21
36.8972650308
 31
0.0
 11
2.1838663381
 21
36.894632165
 31
0.0
 11
2.2015668633
 21
36.8897974414
 31
0.0
 11
2.2377288405
 21
36.8779261365
 31
0.0
 11
2.2738908178
 21
36.8660548316
 31
0.0
 11
2.2920941132
 21
36.8590654229
 31
0.0
 11
2.310542022
 21
36.8499685017
 31
0.0
 11
2.3474378398
 21
36.8317746594
 31
0.0
 11
2.3658857487
 21
36.8226777383
 31
0.0
 11
2.3843336575
 21
36.8135808171
 31
0.0
 11
2.4027894191
 21
36.8014996885
 31
0.0
 11
2.4212451807
 21
36.7894185598
 31
0.0
 11
2.4581567038
 21
36.7652563026
 31
0.0
 11
2.4948339817
 21
36.7392613373
 31
0.0
 11
2.5310427694
 21
36.709600956
 31
0.0
 11
2.567251557
 21
36.6799405746
 31
0.0
 11
2.6029414714
 21
36.6465428301
 31
0.0
 11
2.6738024268
 21
36.5760099779
 31
0.0
  0
SPLINE
  5
54D
100
AcDbEntity
  8
CURVE
100
AcDbSpline
 62
7
  6
CONTINUOUS
 70
0
 71
3
 72
9
 73
5
 74
3
 42
0.0000001
 43
0.0000001
 44
0.0000000001
 12
0.1109448157
 22
-0.3810872329
 32
0.0
 13
0.0103475798
 23
-0.3479090121
 33
0.0
 40
0.0
 40
0.0
 40
0.0
 40
0.0
 40
0.5
 40
1.0
 40
1.0
 40
1.0
 40
1.0
 10
-17.1908067258
 20
62.8180226203
 30
0.0
 10
-17.1723159232
 20
62.7545080815
 30
0.0
 10
-17.138388996
 20
62.6270772482
 30
0.0
 10
-17.1313863709
 20
62.5085827077
 30
0.0
 10
-17.1296617742
 20
62.4505978723
 30
0.0
 11
-17.1908067258
 21
62.8180226203
 31
0.0
 11
-17.1451200715
 21
62.6293113214
 31
0.0
 11
-17.1296617742
 21
62.4505978723
 31
0.0
  0
SPLINE
  5
54E
100
AcDbEntity
  8
CURVE
100
AcDbSpline
 62
7
  6
CONTINUOUS
 70
0
 71
3
 72
9
 73
5
 74
3
 42
0.0000001
 43
0.0000001
 44
0.0000000001
 12
-0.0103348595
 22
-0.3357573062
 32
0.0
 13
-0.1110071496
 23
-0.2531326964
 33
0.0
 40
0.0
 40
0.0
 40
0.0
 40
0.0
 40
0.5
 40
1.0
 40
1.0
 40
1.0
 40
1.0
 10
-17.1296617742
 20
62.4505978634
 30
0.0
 10
-17.1313842508
 20
62.3946383123
 30
0.0
 10
-17.138382617
 20
62.2842274214
 30
0.0
 10
-17.172305531
 20
62.195970553
 30
0.0
 10
-17.1908067226
 20
62.1537817703
 30
0.0
 11
-17.1296617742
 21
62.4505978634
 31
0.0
 11
-17.145113754
 21
62.289765927
 31
0.0
 11
-17.1908067226
 21
62.1537817703
 31
0.0
  0
SPLINE
  5
54F
100
AcDbEntity
  8
0
100
AcDbSpline
 62
7
  6
CONTINUOUS
 70
0
 71
3
 72
9
 73
5
 74
3
 42
0.0000001
 43
0.0000001
 44
0.0000000001
 12
0.0000188601
 22
-0.0959212974
 32
0.0
 13
-0.0492076068
 23
-0.0823377622
 33
0.0
 40
0.0
 40
0.0
 40
0.0
 40
0.0
 40
0.2607000112
 40
1.0
 40
1.0
 40
1.0
 40
1.0
 10
-14.6315643374
 20
76.9215907639
 30
0.0
 10
-14.6315626985
 20
76.9132552028
 30
0.0
 10
-14.6330225831
 20
76.8813934953
 30
0.0
 10
-14.6415186545
 20
76.8491230993
 30
0.0
 10
-14.6536450489
 20
76.8288323304
 30
0.0
 11
-14.6315643374
 21
76.9215907639
 31
0.0
 11
-14.6328020932
 21
76.8966147315
 31
0.0
 11
-14.6536450489
 21
76.8288323304
 31
0.0
  0
SPLINE
  5
550
100
AcDbEntity
  8
0
100
AcDbSpline
 62
7
  6
CONTINUOUS
 70
0
 71
3
 72
8
 73
4
 74
2
 42
0.0000001
 43
0.0000001
 44
0.0000000001
 12
-0.0170544733
 22
-0.0285367906
 32
0.0
 13
-0.0249380208
 23
-0.0219840533
 33
0.0
 40
0.0
 40
0.0
 40
0.0
 40
0.0
 40
1.0
 40
1.0
 40
1.0
 40
1.0
 10
-14.6536450489
 20
76.8288323304
 30
0.0
 10
-14.6593298734
 20
76.8193200669
 30
0.0
 10
-14.6664233579
 20
76.8104626064
 30
0.0
 10
-14.6747360314
 20
76.8031345886
 30
0.0
 11
-14.6536450489
 21
76.8288323304
 31
0.0
 11
-14.6747360314
 21
76.8031345886
 31
0.0
  0
SPLINE
  5
551
100
AcDbEntity
  8
0
100
AcDbSpline
 62
7
  6
CONTINUOUS
 70
0
 71
3
 72
11
 73
7
 74
5
 42
0.0000001
 43
0.0000001
 44
0.0000000001
 12
0.136283381
 22
-0.0786998189
 32
0.0
 13
-0.0
 23
-0.1573747802
 33
0.0
 40
0.0
 40
0.0
 40
0.0
 40
0.0
 40
0.2177859102
 40
0.450919006
 40
0.7102951862
 40
1.0
 40
1.0
 40
1.0
 40
1.0
 10
-9.8025076472
 20
44.0979210498
 30
0.0
 10
-9.7926141138
 20
44.0922078126
 30
0.0
 10
-9.7741061374
 20
44.0766407554
 30
0.0
 10
-9.7544022875
 20
44.0444170128
 30
0.0
 10
-9.7426987804
 20
44.0047067056
 30
0.0
 10
-9.7403959108
 20
43.9758050161
 30
0.0
 10
-9.7403959108
 20
43.9606076056
 30
0.0
 11
-9.8025076472
 21
44.0979210498
 31
0.0
 11
-9.7761355351
 21
44.0760299684
 31
0.0
 11
-9.756540439
 21
44.0450116719
 31
0.0
 11
-9.7444719023
 21
44.0060172726
 31
0.0
 11
-9.7403959108
 21
43.9606076056
 31
0.0
  0
SPLINE
  5
552
100
AcDbEntity
  8
SUPERFICI
100
AcDbSpline
 62
7
  6
CONTINUOUS
 70
0
 71
3
 72
9
 73
5
 74
3
 42
0.0000001
 43
0.0000001
 44
0.0000000001
 12
-0.0931867
 22
-0.0538047826
 32
0.0
 13
-0.0221376783
 23
-0.1053026063
 33
0.0
 40
0.0
 40
0.0
 40
0.0
 40
0.0
 40
0.467833444
 40
1.0
 40
1.0
 40
1.0
 40
1.0
 10
-6.4255798486
 20
-16.0183309981
 30
0.0
 10
-6.4401118002
 20
-16.0267215571
 30
0.0
 10
-6.4665772961
 20
-16.0532279314
 30
0.0
 10
-6.4789586427
 20
-16.0878581716
 30
0.0
 10
-6.48288562
 20
-16.1065376801
 30
0.0
 11
-6.4255798486
 21
-16.0183309981
 31
0.0
 11
-6.461792117
 21
-16.0533007492
 31
0.0
 11
-6.48288562
 21
-16.1065376801
 31
0.0
  0
SPLINE
  5
553
100
AcDbEntity
  8
SUPERFICI
100
AcDbSpline
 62
7
  6
CONTINUOUS
 70
0
 71
3
 72
11
 73
7
 74
5
 42
0.0000001
 43
0.0000001
 44
0.0000000001
 12
0.1363216183
 22
0.0787103206
 32
0.0
 13
0.1363215866
 23
-0.0787103756
 33
0.0
 40
0.0
 40
0.0
 40
0.0
 40
0.0
 40
0.2177804588
 40
0.4509077062
 40
0.7102936033
 40
1.0
 40
1.0
 40
1.0
 40
1.0
 10
-5.8598944237
 20
-15.6917113235
 30
0.0
 10
-5.8499983621
 20
-15.6859974669
 30
0.0
 10
-5.8272598409
 20
-15.6777455396
 30
0.0
 10
-5.7894916263
 20
-15.6767909078
 30
0.0
 10
-5.7492396665
 20
-15.6865129273
 30
0.0
 10
-5.72305167
 20
-15.698972758
 30
0.0
 10
-5.7098872581
 20
-15.7065737244
 30
0.0
 11
-5.8598944237
 21
-15.6917113235
 31
0.0
 11
-5.8277450914
 21
-15.6798099726
 31
0.0
 11
-5.7910770108
 21
-15.6783460087
 31
0.0
 11
-5.7512612977
 21
-15.6873936117
 31
0.0
 11
-5.7098872581
 21
-15.7065737244
 31
0.0
  0
SPLINE
  5
554
100
AcDbEntity
  8
SUPERFICI
100
AcDbSpline
 62
7
  6
CONTINUOUS
 70
0
 71
3
 72
9
 73
5
 74
3
 42
0.0000001
 43
0.0000001
 44
0.0000000001
 12
-0.0931867
 22
-0.0538047826
 32
0.0
 13
-0.0221376783
 23
-0.1053026063
 33
0.0
 40
0.0
 40
0.0
 40
0.0
 40
0.0
 40
0.467833444
 40
1.0
 40
1.0
 40
1.0
 40
1.0
 10
9.4843227281
 20
-25.204509348
 30
0.0
 10
9.4697907765
 20
-25.2128999069
 30
0.0
 10
9.4433252806
 20
-25.2394062812
 30
0.0
 10
9.430943934
 20
-25.2740365215
 30
0.0
 10
9.4270169567
 20
-25.2927160299
 30
0.0
 11
9.4843227281
 21
-25.204509348
 31
0.0
 11
9.4481104597
 21
-25.2394790991
 31
0.0
 11
9.4270169567
 21
-25.2927160299
 31
0.0
  0
SPLINE
  5
555
100
AcDbEntity
  8
SUPERFICI
100
AcDbSpline
 62
7
  6
CONTINUOUS
 70
0
 71
3
 72
11
 73
7
 74
5
 42
0.0000001
 43
0.0000001
 44
0.0000000001
 12
0.1363216183
 22
0.0787103206
 32
0.0
 13
0.1363215866
 23
-0.0787103756
 33
0.0
 40
0.0
 40
0.0
 40
0.0
 40
0.0
 40
0.2177804588
 40
0.4509077062
 40
0.7102936033
 40
1.0
 40
1.0
 40
1.0
 40
1.0
 10
10.050008153
 20
-24.8778896734
 30
0.0
 10
10.0599042146
 20
-24.8721758168
 30
0.0
 10
10.0826427358
 20
-24.8639238894
 30
0.0
 10
10.1204109504
 20
-24.8629692577
 30
0.0
 10
10.1606629102
 20
-24.8726912771
 30
0.0
 10
10.1868509067
 20
-24.8851511078
 30
0.0
 10
10.2000153186
 20
-24.8927520743
 30
0.0
 11
10.050008153
 21
-24.8778896734
 31
0.0
 11
10.0821574853
 21
-24.8659883225
 31
0.0
 11
10.1188255659
 21
-24.8645243586
 31
0.0
 11
10.158641279
 21
-24.8735719616
 31
0.0
 11
10.2000153186
 21
-24.8927520743
 31
0.0
  0
SPLINE
  5
556
100
AcDbEntity
  8
SUPERFICI
100
AcDbSpline
 62
7
  6
CONTINUOUS
 70
0
 71
3
 72
11
 73
7
 74
5
 42
0.0000001
 43
0.0000001
 44
0.0000000001
 12
-0.0000100109
 22
0.1573960521
 32
0.0
 13
-0.1363067843
 23
0.0787018289
 33
0.0
 40
0.0
 40
0.0
 40
0.0
 40
0.0
 40
0.2177904336
 40
0.4509258866
 40
0.7103007723
 40
1.0
 40
1.0
 40
1.0
 40
1.0
 10
-16.9152159491
 20
-1.5519047502
 30
0.0
 10
-16.9152166759
 20
-1.5404782987
 30
0.0
 10
-16.919443975
 20
-1.5166626999
 30
0.0
 10
-16.9374997826
 20
-1.4834812845
 30
0.0
 10
-16.9660406318
 20
-1.4534855262
 30
0.0
 10
-16.9899211887
 20
-1.4370375106
 30
0.0
 10
-17.0030838454
 20
-1.4294375576
 30
0.0
 11
-16.9152159491
 21
-1.5519047502
 31
0.0
 11
-16.9209879105
 21
-1.5181148315
 31
0.0
 11
-16.9380541604
 21
-1.4856304232
 31
0.0
 11
-16.9657924537
 21
-1.4556765642
 31
0.0
 11
-17.0030838454
 21
-1.4294375576
 31
0.0
  0
SPLINE
  5
557
100
AcDbEntity
  8
0
100
AcDbSpline
 62
7
  6
CONTINUOUS
 70
0
 71
3
 72
11
 73
7
 74
5
 42
0.0000001
 43
0.0000001
 44
0.0000000001
 12
-0.0000100109
 22
0.1573960521
 32
0.0
 13
-0.1363067843
 23
0.0787018289
 33
0.0
 40
0.0
 40
0.0
 40
0.0
 40
0.0
 40
0.2177904336
 40
0.4509258866
 40
0.7103007723
 40
1.0
 40
1.0
 40
1.0
 40
1.0
 10
-16.9152159491
 20
-59.5212944025
 30
0.0
 10
-16.9152166759
 20
-59.509867951
 30
0.0
 10
-16.919443975
 20
-59.4860523522
 30
0.0
 10
-16.9374997826
 20
-59.4528709368
 30
0.0
 10
-16.9660406318
 20
-59.4228751785
 30
0.0
 10
-16.9899211887
 20
-59.4064271629
 30
0.0
 10
-17.0030838454
 20
-59.3988272098
 30
0.0
 11
-16.9152159491
 21
-59.5212944025
 31
0.0
 11
-16.9209879105
 21
-59.4875044838
 31
0.0
 11
-16.9380541604
 21
-59.4550200755
 31
0.0
 11
-16.9657924537
 21
-59.4250662165
 31
0.0
 11
-17.0030838454
 21
-59.3988272098
 31
0.0
  0
SPLINE
  5
558
100
AcDbEntity
  8
RACCORDO
100
AcDbSpline
 62
7
  6
CONTINUOUS
 70
0
 71
3
 72
9
 73
5
 74
3
 42
0.0000001
 43
0.0000001
 44
0.0000000001
 12
-0.0931867
 22
-0.0538047826
 32
0.0
 13
-0.0221376783
 23
-0.1053026063
 33
0.0
 40
0.0
 40
0.0
 40
0.0
 40
0.0
 40
0.467833444
 40
1.0
 40
1.0
 40
1.0
 40
1.0
 10
9.4843227281
 20
-83.1738990003
 30
0.0
 10
9.4697907765
 20
-83.1822895592
 30
0.0
 10
9.4433252806
 20
-83.2087959335
 30
0.0
 10
9.430943934
 20
-83.2434261738
 30
0.0
 10
9.4270169567
 20
-83.2621056822
 30
0.0
 11
9.4843227281
 21
-83.1738990003
 31
0.0
 11
9.4481104597
 21
-83.2088687513
 31
0.0
 11
9.4270169567
 21
-83.2621056822
 31
0.0
  0
SPLINE
  5
559
100
AcDbEntity
  8
RACCORDO
100
AcDbSpline
 62
7
  6
CONTINUOUS
 70
0
 71
3
 72
11
 73
7
 74
5
 42
0.0000001
 43
0.0000001
 44
0.0000000001
 12
0.1363216183
 22
0.0787103206
 32
0.0
 13
0.1363215866
 23
-0.0787103756
 33
0.0
 40
0.0
 40
0.0
 40
0.0
 40
0.0
 40
0.2177804588
 40
0.4509077062
 40
0.7102936033
 40
1.0
 40
1.0
 40
1.0
 40
1.0
 10
10.050008153
 20
-82.8472793257
 30
0.0
 10
10.0599042146
 20
-82.8415654691
 30
0.0
 10
10.0826427358
 20
-82.8333135417
 30
0.0
 10
10.1204109504
 20
-82.83235891
 30
0.0
 10
10.1606629102
 20
-82.8420809294
 30
0.0
 10
10.1868509067
 20
-82.8545407601
 30
0.0
 10
10.2000153186
 20
-82.8621417266
 30
0.0
 11
10.050008153
 21
-82.8472793257
 31
0.0
 11
10.0821574853
 21
-82.8353779748
 31
0.0
 11
10.1188255659
 21
-82.8339140109
 31
0.0
 11
10.158641279
 21
-82.8429616139
 31
0.0
 11
10.2000153186
 21
-82.8621417266
 31
0.0
  0
SPLINE
  5
55A
100
AcDbEntity
  8
RACCORDO
100
AcDbSpline
 62
7
  6
CONTINUOUS
 70
0
 71
3
 72
9
 73
5
 74
3
 42
0.0000001
 43
0.0000001
 44
0.0000000001
 12
-0.0931867
 22
-0.0538047826
 32
0.0
 13
-0.0221376783
 23
-0.1053026063
 33
0.0
 40
0.0
 40
0.0
 40
0.0
 40
0.0
 40
0.467833444
 40
1.0
 40
1.0
 40
1.0
 40
1.0
 10
-6.4255798486
 20
-73.9877206504
 30
0.0
 10
-6.4401118002
 20
-73.9961112094
 30
0.0
 10
-6.4665772961
 20
-74.0226175837
 30
0.0
 10
-6.4789586427
 20
-74.0572478239
 30
0.0
 10
-6.48288562
 20
-74.0759273324
 30
0.0
 11
-6.4255798486
 21
-73.9877206504
 31
0.0
 11
-6.461792117
 21
-74.0226904015
 31
0.0
 11
-6.48288562
 21
-74.0759273324
 31
0.0
  0
SPLINE
  5
55B
100
AcDbEntity
  8
RACCORDO
100
AcDbSpline
 62
7
  6
CONTINUOUS
 70
0
 71
3
 72
11
 73
7
 74
5
 42
0.0000001
 43
0.0000001
 44
0.0000000001
 12
0.1363216183
 22
0.0787103206
 32
0.0
 13
0.1363215866
 23
-0.0787103756
 33
0.0
 40
0.0
 40
0.0
 40
0.0
 40
0.0
 40
0.2177804588
 40
0.4509077062
 40
0.7102936033
 40
1.0
 40
1.0
 40
1.0
 40
1.0
 10
-5.8598944237
 20
-73.6611009758
 30
0.0
 10
-5.8499983621
 20
-73.6553871192
 30
0.0
 10
-5.8272598409
 20
-73.6471351918
 30
0.0
 10
-5.7894916263
 20
-73.6461805601
 30
0.0
 10
-5.7492396665
 20
-73.6559025795
 30
0.0
 10
-5.72305167
 20
-73.6683624103
 30
0.0
 10
-5.7098872581
 20
-73.6759633767
 30
0.0
 11
-5.8598944237
 21
-73.6611009758
 31
0.0
 11
-5.8277450914
 21
-73.6491996249
 31
0.0
 11
-5.7910770108
 21
-73.647735661
 31
0.0
 11
-5.7512612977
 21
-73.656783264
 31
0.0
 11
-5.7098872581
 21
-73.6759633767
 31
0.0
  0
SPLINE
  5
55C
100
AcDbEntity
  8
ASSI
100
AcDbSpline
 62
7
  6
CONTINUOUS
 70
0
 71
3
 72
8
 73
4
 74
2
 42
0.0000001
 43
0.0000001
 44
0.0000000001
 12
-0.0275213606
 22
0.0158976969
 32
0.0
 13
-0.0293927491
 23
0.0120924918
 33
0.0
 40
0.0
 40
0.0
 40
0.0
 40
0.0
 40
1.0
 40
1.0
 40
1.0
 40
1.0
 10
9.0968247196
 20
-80.1159528286
 30
0.0
 10
9.0876509327
 20
-80.1106535963
 30
0.0
 10
9.0781369218
 20
-80.1058859595
 30
0.0
 10
9.0683393388
 20
-80.1018551289
 30
0.0
 11
9.0968247196
 21
-80.1159528286
 31
0.0
 11
9.0683393388
 21
-80.1018551289
 31
0.0
  0
SPLINE
  5
55D
100
AcDbEntity
  8
ASSI
100
AcDbSpline
 62
7
  6
CONTINUOUS
 70
0
 71
3
 72
8
 73
4
 74
2
 42
0.0000001
 43
0.0000001
 44
0.0000000001
 12
-0.0250704708
 22
0.0103142602
 32
0.0
 13
-0.0262843628
 23
0.0066366214
 33
0.0
 40
0.0
 40
0.0
 40
0.0
 40
0.0
 40
1.0
 40
1.0
 40
1.0
 40
1.0
 10
9.0683393388
 20
-80.1018551289
 30
0.0
 10
9.0599825152
 20
-80.0984170422
 30
0.0
 10
9.0513813036
 20
-80.0954987695
 30
0.0
 10
9.0426198494
 20
-80.0932865623
 30
0.0
 11
9.0683393388
 21
-80.1018551289
 31
0.0
 11
9.0426198494
 21
-80.0932865623
 31
0.0
  0
SPLINE
  5
55E
100
AcDbEntity
  8
ASSI
100
AcDbSpline
 62
7
  6
CONTINUOUS
 70
0
 71
3
 72
9
 73
5
 74
3
 42
0.0000001
 43
0.0000001
 44
0.0000000001
 12
-0.078517641
 22
0.0198251659
 32
0.0
 13
-0.0733621321
 23
-0.0342936544
 33
0.0
 40
0.0
 40
0.0
 40
0.0
 40
0.0
 40
0.5121740518
 40
1.0
 40
1.0
 40
1.0
 40
1.0
 10
9.0426198494
 20
-80.0932865623
 30
0.0
 10
9.0292149499
 20
-80.0899019172
 30
0.0
 10
9.0020404366
 20
-80.086426584
 30
0.0
 10
8.9748855035
 20
-80.0924094138
 30
0.0
 10
8.9629561863
 20
-80.0979858586
 30
0.0
 11
9.0426198494
 21
-80.0932865623
 31
0.0
 11
9.0013839251
 21
-80.0888230529
 31
0.0
 11
8.9629561863
 21
-80.0979858586
 31
0.0
  0
SPLINE
  5
55F
100
AcDbEntity
  8
0
100
AcDbSpline
 62
7
  6
CONTINUOUS
 70
0
 71
3
 72
9
 73
5
 74
3
 42
0.0000001
 43
0.0000001
 44
0.0000000001
 12
0.0221376783
 22
0.1053026063
 32
0.0
 13
0.0931867
 23
0.0538047826
 33
0.0
 40
0.0
 40
0.0
 40
0.0
 40
0.0
 40
0.532166556
 40
1.0
 40
1.0
 40
1.0
 40
1.0
 10
-6.48288562
 20
41.8628519722
 30
0.0
 10
-6.4789586427
 20
41.8815314807
 30
0.0
 10
-6.4665772961
 20
41.9161617209
 30
0.0
 10
-6.4401118002
 20
41.9426680952
 30
0.0
 10
-6.4255798486
 20
41.9510586541
 30
0.0
 11
-6.48288562
 21
41.8628519722
 31
0.0
 11
-6.461792117
 21
41.9160889031
 31
0.0
 11
-6.4255798486
 21
41.9510586541
 31
0.0
  0
SPLINE
  5
560
100
AcDbEntity
  8
0
100
AcDbSpline
 62
7
  6
CONTINUOUS
 70
0
 71
3
 72
9
 73
5
 74
3
 42
0.0000001
 43
0.0000001
 44
0.0000000001
 12
0.0221376783
 22
0.1053026063
 32
0.0
 13
0.0931867
 23
0.0538047826
 33
0.0
 40
0.0
 40
0.0
 40
0.0
 40
0.0
 40
0.532166556
 40
1.0
 40
1.0
 40
1.0
 40
1.0
 10
9.4270169567
 20
32.6766736224
 30
0.0
 10
9.430943934
 20
32.6953531308
 30
0.0
 10
9.4433252806
 20
32.729983371
 30
0.0
 10
9.4697907765
 20
32.7564897454
 30
0.0
 10
9.4843227281
 20
32.7648803043
 30
0.0
 11
9.4270169567
 21
32.6766736224
 31
0.0
 11
9.4481104597
 21
32.7299105532
 31
0.0
 11
9.4843227281
 21
32.7648803043
 31
0.0
  0
SPLINE
  5
561
100
AcDbEntity
  8
ASSI
100
AcDbSpline
 62
7
  6
CONTINUOUS
 70
0
 71
3
 72
8
 73
4
 74
2
 42
0.0000001
 43
0.0000001
 44
0.0000000001
 12
-0.0275213606
 22
0.0158976969
 32
0.0
 13
-0.0293927491
 23
0.0120924918
 33
0.0
 40
0.0
 40
0.0
 40
0.0
 40
0.0
 40
1.0
 40
1.0
 40
1.0
 40
1.0
 10
-6.8130778571
 20
-70.9297744787
 30
0.0
 10
-6.822251644
 20
-70.9244752464
 30
0.0
 10
-6.8317656549
 20
-70.9197076097
 30
0.0
 10
-6.8415632379
 20
-70.9156767791
 30
0.0
 11
-6.8130778571
 21
-70.9297744787
 31
0.0
 11
-6.8415632379
 21
-70.9156767791
 31
0.0
  0
SPLINE
  5
562
100
AcDbEntity
  8
ASSI
100
AcDbSpline
 62
7
  6
CONTINUOUS
 70
0
 71
3
 72
8
 73
4
 74
2
 42
0.0000001
 43
0.0000001
 44
0.0000000001
 12
-0.0250704708
 22
0.0103142602
 32
0.0
 13
-0.0262843628
 23
0.0066366214
 33
0.0
 40
0.0
 40
0.0
 40
0.0
 40
0.0
 40
1.0
 40
1.0
 40
1.0
 40
1.0
 10
-6.8415632379
 20
-70.9156767791
 30
0.0
 10
-6.8499200615
 20
-70.9122386923
 30
0.0
 10
-6.8585212731
 20
-70.9093204196
 30
0.0
 10
-6.8672827273
 20
-70.9071082125
 30
0.0
 11
-6.8415632379
 21
-70.9156767791
 31
0.0
 11
-6.8672827273
 21
-70.9071082125
 31
0.0
  0
SPLINE
  5
563
100
AcDbEntity
  8
ASSI
100
AcDbSpline
 62
7
  6
CONTINUOUS
 70
0
 71
3
 72
9
 73
5
 74
3
 42
0.0000001
 43
0.0000001
 44
0.0000000001
 12
-0.078517641
 22
0.0198251659
 32
0.0
 13
-0.0733621321
 23
-0.0342936544
 33
0.0
 40
0.0
 40
0.0
 40
0.0
 40
0.0
 40
0.5121740518
 40
1.0
 40
1.0
 40
1.0
 40
1.0
 10
-6.8672827273
 20
-70.9071082125
 30
0.0
 10
-6.8806876268
 20
-70.9037235673
 30
0.0
 10
-6.9078621401
 20
-70.9002482341
 30
0.0
 10
-6.9350170732
 20
-70.9062310639
 30
0.0
 10
-6.9469463904
 20
-70.9118075087
 30
0.0
 11
-6.8672827273
 21
-70.9071082125
 31
0.0
 11
-6.9085186516
 21
-70.902644703
 31
0.0
 11
-6.9469463904
 21
-70.9118075087
 31
0.0
  0
SPLINE
  5
564
100
AcDbEntity
  8
RACCORDO
100
AcDbSpline
 62
7
  6
CONTINUOUS
 70
0
 71
3
 72
11
 73
7
 74
5
 42
0.0000001
 43
0.0000001
 44
0.0000000001
 12
0.3808322389
 22
-0.2198877618
 32
0.0
 13
0.0
 23
-0.4397542745
 33
0.0
 40
0.0
 40
0.0
 40
0.0
 40
0.0
 40
0.2372413496
 40
0.5000061068
 40
0.7627675405
 40
1.0
 40
1.0
 40
1.0
 40
1.0
 10
-11.013188117
 20
-70.6139039267
 30
0.0
 10
-10.9830717322
 20
-70.6312927499
 30
0.0
 10
-10.926079722
 20
-70.6792600245
 30
0.0
 10
-10.8595616254
 20
-70.7701593053
 30
0.0
 10
-10.8140999541
 20
-70.8732140375
 30
0.0
 10
-10.8010560826
 20
-70.9465527251
 30
0.0
 10
-10.8010560826
 20
-70.9813273878
 30
0.0
 11
-11.013188117
 21
-70.6139039267
 31
0.0
 11
-10.9320030446
 21
-70.6794271611
 31
0.0
 11
-10.863188117
 21
-70.772253629
 31
0.0
 11
-10.8172062369
 21
-70.8782610644
 31
0.0
 11
-10.8010560826
 21
-70.9813273878
 31
0.0
  0
SPLINE
  5
565
100
AcDbEntity
  8
RACCORDO
100
AcDbSpline
 62
7
  6
CONTINUOUS
 70
0
 71
3
 72
11
 73
7
 74
5
 42
0.0000001
 43
0.0000001
 44
0.0000000001
 12
0.3808322389
 22
-0.2198877618
 32
0.0
 13
0.0
 23
-0.4397542745
 33
0.0
 40
0.0
 40
0.0
 40
0.0
 40
0.0
 40
0.2372413496
 40
0.5000061068
 40
0.7627675405
 40
1.0
 40
1.0
 40
1.0
 40
1.0
 10
4.8967144597
 20
-79.8000822766
 30
0.0
 10
4.9268308445
 20
-79.8174710997
 30
0.0
 10
4.9838228547
 20
-79.8654383744
 30
0.0
 10
5.0503409513
 20
-79.9563376552
 30
0.0
 10
5.0958026226
 20
-80.0593923874
 30
0.0
 10
5.1088464941
 20
-80.1327310749
 30
0.0
 10
5.1088464941
 20
-80.1675057376
 30
0.0
 11
4.8967144597
 21
-79.8000822766
 31
0.0
 11
4.9778995321
 21
-79.865605511
 31
0.0
 11
5.0467144597
 21
-79.9584319789
 31
0.0
 11
5.0926963398
 21
-80.0644394143
 31
0.0
 11
5.1088464941
 21
-80.1675057376
 31
0.0
  0
SPLINE
  5
566
100
AcDbEntity
  8
0
100
AcDbSpline
 62
7
  6
CONTINUOUS
 70
0
 71
3
 72
11
 73
7
 74
5
 42
0.0000001
 43
0.0000001
 44
0.0000000001
 12
0.0
 22
0.1573747802
 32
0.0
 13
-0.136283381
 23
0.0786998189
 33
0.0
 40
0.0
 40
0.0
 40
0.0
 40
0.0
 40
0.2897048138
 40
0.549080994
 40
0.7822140898
 40
1.0
 40
1.0
 40
1.0
 40
1.0
 10
-9.7403959108
 20
-71.978171699
 30
0.0
 10
-9.7403959108
 20
-71.9629742885
 30
0.0
 10
-9.7426987804
 20
-71.934072599
 30
0.0
 10
-9.7544022875
 20
-71.8943622917
 30
0.0
 10
-9.7741061374
 20
-71.8621385492
 30
0.0
 10
-9.7926141138
 20
-71.846571492
 30
0.0
 10
-9.8025076472
 20
-71.8408582547
 30
0.0
 11
-9.7403959108
 21
-71.978171699
 31
0.0
 11
-9.7444719023
 21
-71.932762032
 31
0.0
 11
-9.756540439
 21
-71.8937676327
 31
0.0
 11
-9.7761355351
 21
-71.8627493362
 31
0.0
 11
-9.8025076472
 21
-71.8408582547
 31
0.0
  0
SPLINE
  5
567
100
AcDbEntity
  8
0
100
AcDbSpline
 62
7
  6
CONTINUOUS
 70
0
 71
3
 72
9
 73
5
 74
3
 42
0.0000001
 43
0.0000001
 44
0.0000000001
 12
0.0356636509
 22
0.0249264817
 32
0.0
 13
0.0223702126
 23
0.0373202233
 33
0.0
 40
0.0
 40
0.0
 40
0.0
 40
0.0
 40
0.745130515
 40
1.0
 40
1.0
 40
1.0
 40
1.0
 10
-14.6829357703
 20
-57.5126808698
 30
0.0
 10
-14.6740777454
 20
-57.5064897091
 30
0.0
 10
-14.6636305659
 20
-57.4959295631
 30
0.0
 10
-14.6556275192
 20
-57.4838357931
 30
0.0
 10
-14.6537270244
 20
-57.4806651977
 30
0.0
 11
-14.6829357703
 21
-57.5126808698
 31
0.0
 11
-14.6598657511
 21
-57.4899008371
 31
0.0
 11
-14.6537270244
 21
-57.4806651977
 31
0.0
  0
SPLINE
  5
568
100
AcDbEntity
  8
0
100
AcDbSpline
 62
7
  6
CONTINUOUS
 70
0
 71
3
 72
9
 73
5
 74
3
 42
0.0000001
 43
0.0000001
 44
0.0000000001
 12
0.0253036784
 22
0.067371073
 32
0.0
 13
-0.0000095784
 23
0.0719662249
 33
0.0
 40
0.0
 40
0.0
 40
0.0
 40
0.0
 40
0.243469632
 40
1.0
 40
1.0
 40
1.0
 40
1.0
 10
-14.6431502806
 20
-57.458579566
 30
0.0
 10
-14.6410967215
 20
-57.4531119625
 30
0.0
 10
-14.6339783158
 20
-57.4301597877
 30
0.0
 10
-14.6315619601
 20
-57.4059347409
 30
0.0
 10
-14.6315643755
 20
-57.3877865294
 30
0.0
 11
-14.6431502806
 21
-57.458579566
 31
0.0
 11
-14.6379092158
 21
-57.4418601948
 31
0.0
 11
-14.6315643755
 21
-57.3877865294
 31
0.0
  0
SPLINE
  5
569
100
AcDbEntity
  8
0
100
AcDbSpline
 62
7
  6
CONTINUOUS
 70
0
 71
3
 72
9
 73
5
 74
3
 42
0.0000001
 43
0.0000001
 44
0.0000000001
 12
-0.0685559615
 22
-0.1766939093
 32
0.0
 13
-0.1597856713
 23
-0.1019274089
 33
0.0
 40
0.0
 40
0.0
 40
0.0
 40
0.0
 40
0.5194818691
 40
1.0
 40
1.0
 40
1.0
 40
1.0
 10
-14.6383795701
 20
-38.953516525
 30
0.0
 10
-14.6502507631
 20
-38.9841129524
 30
0.0
 10
-14.6818310145
 20
-39.0397938879
 30
0.0
 10
-14.7278593313
 20
-39.0850580985
 30
0.0
 10
-14.7534526354
 20
-39.1013840879
 30
0.0
 11
-14.6383795701
 21
-38.953516525
 31
0.0
 11
-14.6869604745
 21
-39.0391523532
 31
0.0
 11
-14.7534526354
 21
-39.1013840879
 31
0.0
  0
SPLINE
  5
56A
100
AcDbEntity
  8
0
100
AcDbSpline
 62
7
  6
CONTINUOUS
 70
0
 71
3
 72
9
 73
5
 74
3
 42
0.0000001
 43
0.0000001
 44
0.0000000001
 12
-0.0685559501
 22
-0.1766940193
 32
0.0
 13
-0.1597857543
 23
-0.1019274619
 33
0.0
 40
0.0
 40
0.0
 40
0.0
 40
0.0
 40
0.5194818255
 40
1.0
 40
1.0
 40
1.0
 40
1.0
 10
-14.6383795701
 20
58.6146816651
 30
0.0
 10
-14.6502507602
 20
58.5840852212
 30
0.0
 10
-14.6818309619
 20
58.5284042189
 30
0.0
 10
-14.7278593157
 20
58.4831399882
 30
0.0
 10
-14.7534526354
 20
58.4668139889
 30
0.0
 11
-14.6383795701
 21
58.6146816651
 31
0.0
 11
-14.6869604399
 21
58.529045768
 31
0.0
 11
-14.7534526354
 21
58.4668139889
 31
0.0
  0
SPLINE
  5
56B
100
AcDbEntity
  8
SUPERFICI
100
AcDbSpline
 62
7
  6
CONTINUOUS
 70
0
 71
3
 72
11
 73
7
 74
5
 42
0.0000001
 43
0.0000001
 44
0.0000000001
 12
0.3808322389
 22
-0.2198877618
 32
0.0
 13
0.0
 23
-0.4397542745
 33
0.0
 40
0.0
 40
0.0
 40
0.0
 40
0.0
 40
0.2372413496
 40
0.5000061068
 40
0.7627675405
 40
1.0
 40
1.0
 40
1.0
 40
1.0
 10
-11.013188117
 20
-12.6445142744
 30
0.0
 10
-10.9830717322
 20
-12.6619030976
 30
0.0
 10
-10.926079722
 20
-12.7098703722
 30
0.0
 10
-10.8595616254
 20
-12.800769653
 30
0.0
 10
-10.8140999541
 20
-12.9038243852
 30
0.0
 10
-10.8010560826
 20
-12.9771630728
 30
0.0
 10
-10.8010560826
 20
-13.0119377355
 30
0.0
 11
-11.013188117
 21
-12.6445142744
 31
0.0
 11
-10.9320030446
 21
-12.7100375088
 31
0.0
 11
-10.863188117
 21
-12.8028639767
 31
0.0
 11
-10.8172062369
 21
-12.9088714121
 31
0.0
 11
-10.8010560826
 21
-13.0119377355
 31
0.0
  0
SPLINE
  5
56C
100
AcDbEntity
  8
SUPERFICI
100
AcDbSpline
 62
7
  6
CONTINUOUS
 70
0
 71
3
 72
11
 73
7
 74
5
 42
0.0000001
 43
0.0000001
 44
0.0000000001
 12
0.3808322389
 22
-0.2198877618
 32
0.0
 13
0.0
 23
-0.4397542745
 33
0.0
 40
0.0
 40
0.0
 40
0.0
 40
0.0
 40
0.2372413496
 40
0.5000061068
 40
0.7627675405
 40
1.0
 40
1.0
 40
1.0
 40
1.0
 10
4.8967144597
 20
-21.8306926243
 30
0.0
 10
4.9268308445
 20
-21.8480814474
 30
0.0
 10
4.9838228547
 20
-21.8960487221
 30
0.0
 10
5.0503409513
 20
-21.9869480029
 30
0.0
 10
5.0958026226
 20
-22.0900027351
 30
0.0
 10
5.1088464941
 20
-22.1633414226
 30
0.0
 10
5.1088464941
 20
-22.1981160854
 30
0.0
 11
4.8967144597
 21
-21.8306926243
 31
0.0
 11
4.9778995321
 21
-21.8962158587
 31
0.0
 11
5.0467144597
 21
-21.9890423266
 31
0.0
 11
5.0926963398
 21
-22.095049762
 31
0.0
 11
5.1088464941
 21
-22.1981160854
 31
0.0
  0
SPLINE
  5
56D
100
AcDbEntity
  8
0
100
AcDbSpline
 62
7
  6
CONTINUOUS
 70
0
 71
3
 72
9
 73
5
 74
3
 42
0.0000001
 43
0.0000001
 44
0.0000000001
 12
-0.0176950489
 22
0.0251728456
 32
0.0
 13
-0.0266418948
 23
0.0153946858
 33
0.0
 40
0.0
 40
0.0
 40
0.0
 40
0.0
 40
0.257348278
 40
1.0
 40
1.0
 40
1.0
 40
1.0
 10
-14.6383795701
 20
63.3668715661
 30
0.0
 10
-14.6398975003
 20
63.3690309623
 30
0.0
 10
-14.6462003399
 20
63.3771264791
 30
0.0
 10
-14.6542423366
 20
63.383896833
 30
0.0
 10
-14.6608375529
 20
63.3877077963
 30
0.0
 11
-14.6383795701
 21
63.3668715661
 31
0.0
 11
-14.6432567312
 21
63.3731099338
 31
0.0
 11
-14.6608375529
 21
63.3877077963
 31
0.0
  0
SPLINE
  5
56E
100
AcDbEntity
  8
SUPERFICI
100
AcDbSpline
 62
7
  6
CONTINUOUS
 70
0
 71
3
 72
11
 73
7
 74
5
 42
0.0000001
 43
0.0000001
 44
0.0000000001
 12
0.0
 22
0.1573747802
 32
0.0
 13
-0.136283381
 23
0.0786998189
 33
0.0
 40
0.0
 40
0.0
 40
0.0
 40
0.0
 40
0.2897048138
 40
0.549080994
 40
0.7822140898
 40
1.0
 40
1.0
 40
1.0
 40
1.0
 10
-9.7403959108
 20
-14.0087820467
 30
0.0
 10
-9.7403959108
 20
-13.9935846362
 30
0.0
 10
-9.7426987804
 20
-13.9646829467
 30
0.0
 10
-9.7544022875
 20
-13.9249726395
 30
0.0
 10
-9.7741061374
 20
-13.8927488969
 30
0.0
 10
-9.7926141138
 20
-13.8771818397
 30
0.0
 10
-9.8025076472
 20
-13.8714686024
 30
0.0
 11
-9.7403959108
 21
-14.0087820467
 31
0.0
 11
-9.7444719023
 21
-13.9633723797
 31
0.0
 11
-9.756540439
 21
-13.9243779804
 31
0.0
 11
-9.7761355351
 21
-13.8933596839
 31
0.0
 11
-9.8025076472
 21
-13.8714686024
 31
0.0
  0
SPLINE
  5
56F
100
AcDbEntity
  8
0
100
AcDbSpline
 62
7
  6
CONTINUOUS
 70
0
 71
3
 72
9
 73
5
 74
3
 42
0.0000001
 43
0.0000001
 44
0.0000000001
 12
0.0129566511
 22
-0.027918426
 32
0.0
 13
0.0000105599
 23
-0.0307784536
 33
0.0
 40
0.0
 40
0.0
 40
0.0
 40
0.0
 40
0.2573480985
 40
1.0
 40
1.0
 40
1.0
 40
1.0
 10
-2.6457043634
 20
-15.3744408431
 30
0.0
 10
-2.6445929069
 20
-15.3768357611
 30
0.0
 10
-2.6407322902
 20
-15.3863445664
 30
0.0
 10
-2.6388895942
 20
-15.396697249
 30
0.0
 10
-2.6388869801
 20
-15.4043164747
 30
0.0
 11
-2.6457043634
 21
-15.3744408431
 31
0.0
 11
-2.6427395051
 21
-15.3817857953
 31
0.0
 11
-2.6388869801
 21
-15.4043164747
 31
0.0
  0
SPLINE
  5
570
100
AcDbEntity
  8
0
100
AcDbSpline
 62
7
  6
CONTINUOUS
 70
0
 71
3
 72
9
 73
5
 74
3
 42
0.0000001
 43
0.0000001
 44
0.0000000001
 12
-0.1872984818
 22
0.0289782105
 32
0.0
 13
-0.168159599
 23
-0.0874231504
 33
0.0
 40
0.0
 40
0.0
 40
0.0
 40
0.0
 40
0.5194866138
 40
1.0
 40
1.0
 40
1.0
 40
1.0
 10
-6.7613541273
 20
-12.9981162507
 30
0.0
 10
-6.7937871453
 20
-12.9930983199
 30
0.0
 10
-6.8577983759
 20
-12.9926068908
 30
0.0
 10
-6.9200120776
 20
-13.0098384306
 30
0.0
 10
-6.9469463904
 20
-13.0238410953
 30
0.0
 11
-6.7613541273
 21
-12.9981162507
 31
0.0
 11
-6.8598080076
 21
-12.997370571
 31
0.0
 11
-6.9469463904
 21
-13.0238410953
 31
0.0
  0
SPLINE
  5
571
100
AcDbEntity
  8
0
100
AcDbSpline
 62
7
  6
CONTINUOUS
 70
0
 71
3
 72
9
 73
5
 74
3
 42
0.0000001
 43
0.0000001
 44
0.0000000001
 12
-0.1872984818
 22
0.0289782105
 32
0.0
 13
-0.168159599
 23
-0.0874231504
 33
0.0
 40
0.0
 40
0.0
 40
0.0
 40
0.0
 40
0.5194866138
 40
1.0
 40
1.0
 40
1.0
 40
1.0
 10
9.1485484494
 20
-22.1842946005
 30
0.0
 10
9.1161154314
 20
-22.1792766697
 30
0.0
 10
9.0521042008
 20
-22.1787852406
 30
0.0
 10
8.9898904991
 20
-22.1960167805
 30
0.0
 10
8.9629561863
 20
-22.2100194452
 30
0.0
 11
9.1485484494
 21
-22.1842946005
 31
0.0
 11
9.0500945691
 21
-22.1835489209
 31
0.0
 11
8.9629561863
 21
-22.2100194452
 31
0.0
  0
SPLINE
  5
572
100
AcDbEntity
  8
0
100
AcDbSpline
 62
7
  6
CONTINUOUS
 70
0
 71
3
 72
9
 73
5
 74
3
 42
0.0000001
 43
0.0000001
 44
0.0000000001
 12
-0.0176950165
 22
0.0251728355
 32
0.0
 13
-0.0266417596
 23
0.0153948661
 33
0.0
 40
0.0
 40
0.0
 40
0.0
 40
0.0
 40
0.2573475234
 40
1.0
 40
1.0
 40
1.0
 40
1.0
 10
-14.6383795701
 20
5.3974817986
 30
0.0
 10
-14.639897493
 20
5.3996411876
 30
0.0
 10
-14.6462003211
 20
5.407736702
 30
0.0
 10
-14.6542422724
 20
5.4145070826
 30
0.0
 10
-14.660837462
 20
5.4183180944
 30
0.0
 11
-14.6383795701
 21
5.3974817986
 31
0.0
 11
-14.6432567056
 21
5.4037201481
 31
0.0
 11
-14.660837462
 21
5.4183180944
 31
0.0
  0
SPLINE
  5
573
100
AcDbEntity
  8
0
100
AcDbSpline
 62
7
  6
CONTINUOUS
 70
0
 71
3
 72
11
 73
7
 74
5
 42
0.0000001
 43
0.0000001
 44
0.0000000001
 12
-0.1363215866
 22
0.0787103756
 32
0.0
 13
-0.1363216183
 23
-0.0787103206
 33
0.0
 40
0.0
 40
0.0
 40
0.0
 40
0.0
 40
0.2897063967
 40
0.5490922938
 40
0.7822195412
 40
1.0
 40
1.0
 40
1.0
 40
1.0
 10
-5.7098872581
 20
42.2628159279
 30
0.0
 10
-5.72305167
 20
42.2704168943
 30
0.0
 10
-5.7492396665
 20
42.282876725
 30
0.0
 10
-5.7894916263
 20
42.2925987445
 30
0.0
 10
-5.8272598409
 20
42.2916441127
 30
0.0
 10
-5.8499983621
 20
42.2833921854
 30
0.0
 10
-5.8598944237
 20
42.2776783288
 30
0.0
 11
-5.7098872581
 21
42.2628159279
 31
0.0
 11
-5.7512612977
 21
42.2819960405
 31
0.0
 11
-5.7910770108
 21
42.2910436436
 31
0.0
 11
-5.8277450914
 21
42.2895796797
 31
0.0
 11
-5.8598944237
 21
42.2776783288
 31
0.0
  0
SPLINE
  5
574
100
AcDbEntity
  8
0
100
AcDbSpline
 62
7
  6
CONTINUOUS
 70
0
 71
3
 72
11
 73
7
 74
5
 42
0.0000001
 43
0.0000001
 44
0.0000000001
 12
0.0
 22
0.4397542745
 32
0.0
 13
-0.3808322389
 23
0.2198877618
 33
0.0
 40
0.0
 40
0.0
 40
0.0
 40
0.0
 40
0.2372324595
 40
0.4999938932
 40
0.7627586504
 40
1.0
 40
1.0
 40
1.0
 40
1.0
 10
5.1088464941
 20
35.7712735669
 30
0.0
 10
5.1088464941
 20
35.8060482296
 30
0.0
 10
5.0958026226
 20
35.8793869172
 30
0.0
 10
5.0503409513
 20
35.9824416494
 30
0.0
 10
4.9838228547
 20
36.0733409302
 30
0.0
 10
4.9268308445
 20
36.1213082048
 30
0.0
 10
4.8967144597
 20
36.138697028
 30
0.0
 11
5.1088464941
 21
35.7712735669
 31
0.0
 11
5.0926963398
 21
35.8743398903
 31
0.0
 11
5.0467144597
 21
35.9803473257
 31
0.0
 11
4.9778995321
 21
36.0731737936
 31
0.0
 11
4.8967144597
 21
36.138697028
 31
0.0
  0
SPLINE
  5
575
100
AcDbEntity
  8
0
100
AcDbSpline
 62
7
  6
CONTINUOUS
 70
0
 71
3
 72
11
 73
7
 74
5
 42
0.0000001
 43
0.0000001
 44
0.0000000001
 12
-0.1363215866
 22
0.0787103756
 32
0.0
 13
-0.1363216183
 23
-0.0787103206
 33
0.0
 40
0.0
 40
0.0
 40
0.0
 40
0.0
 40
0.2897063967
 40
0.5490922938
 40
0.7822195412
 40
1.0
 40
1.0
 40
1.0
 40
1.0
 10
10.2000153186
 20
33.076637578
 30
0.0
 10
10.1868509067
 20
33.0842385444
 30
0.0
 10
10.1606629102
 20
33.0966983752
 30
0.0
 10
10.1204109504
 20
33.1064203946
 30
0.0
 10
10.0826427358
 20
33.1054657629
 30
0.0
 10
10.0599042146
 20
33.0972138355
 30
0.0
 10
10.050008153
 20
33.0914999789
 30
0.0
 11
10.2000153186
 21
33.076637578
 31
0.0
 11
10.158641279
 21
33.0958176907
 31
0.0
 11
10.1188255659
 21
33.1048652937
 31
0.0
 11
10.0821574853
 21
33.1034013298
 31
0.0
 11
10.050008153
 21
33.0914999789
 31
0.0
  0
SPLINE
  5
576
100
AcDbEntity
  8
0
100
AcDbSpline
 62
7
  6
CONTINUOUS
 70
0
 71
3
 72
11
 73
7
 74
5
 42
0.0000001
 43
0.0000001
 44
0.0000000001
 12
0.0
 22
0.4397542745
 32
0.0
 13
-0.3808322389
 23
0.2198877618
 33
0.0
 40
0.0
 40
0.0
 40
0.0
 40
0.0
 40
0.2372324595
 40
0.4999938932
 40
0.7627586504
 40
1.0
 40
1.0
 40
1.0
 40
1.0
 10
-10.8010560826
 20
44.9574519168
 30
0.0
 10
-10.8010560826
 20
44.9922265795
 30
0.0
 10
-10.8140999541
 20
45.065565267
 30
0.0
 10
-10.8595616254
 20
45.1686199993
 30
0.0
 10
-10.926079722
 20
45.25951928
 30
0.0
 10
-10.9830717322
 20
45.3074865547
 30
0.0
 10
-11.013188117
 20
45.3248753778
 30
0.0
 11
-10.8010560826
 21
44.9574519168
 31
0.0
 11
-10.8172062369
 21
45.0605182402
 31
0.0
 11
-10.863188117
 21
45.1665256756
 31
0.0
 11
-10.9320030446
 21
45.2593521435
 31
0.0
 11
-11.013188117
 21
45.3248753778
 31
0.0
  0
SPLINE
  5
577
100
AcDbEntity
  8
SUPERFICI
100
AcDbSpline
 62
7
  6
CONTINUOUS
 70
0
 71
3
 72
9
 73
5
 74
3
 42
0.0000001
 43
0.0000001
 44
0.0000000001
 12
-0.0685559615
 22
-0.1766939093
 32
0.0
 13
-0.1597856713
 23
-0.1019274089
 33
0.0
 40
0.0
 40
0.0
 40
0.0
 40
0.0
 40
0.5194818691
 40
1.0
 40
1.0
 40
1.0
 40
1.0
 10
-14.6383795701
 20
19.0158731273
 30
0.0
 10
-14.6502507631
 20
18.9852766999
 30
0.0
 10
-14.6818310145
 20
18.9295957644
 30
0.0
 10
-14.7278593313
 20
18.8843315538
 30
0.0
 10
-14.7534526354
 20
18.8680055644
 30
0.0
 11
-14.6383795701
 21
19.0158731273
 31
0.0
 11
-14.6869604745
 21
18.9302372991
 31
0.0
 11
-14.7534526354
 21
18.8680055644
 31
0.0
  0
SPLINE
  5
578
100
AcDbEntity
  8
0
100
AcDbSpline
 62
7
  6
CONTINUOUS
 70
0
 71
3
 72
9
 73
5
 74
3
 42
0.0000001
 43
0.0000001
 44
0.0000000001
 12
-0.1872983895
 22
0.0289781452
 32
0.0
 13
-0.1681595093
 23
-0.0874231038
 33
0.0
 40
0.0
 40
0.0
 40
0.0
 40
0.0
 40
0.5194838115
 40
1.0
 40
1.0
 40
1.0
 40
1.0
 10
9.1485483496
 20
35.7850951094
 30
0.0
 10
9.1161155225
 20
35.7901130018
 30
0.0
 10
9.0521043428
 20
35.7906043987
 30
0.0
 10
8.9898906418
 20
35.773372946
 30
0.0
 10
8.9629561863
 20
35.7593702071
 30
0.0
 11
9.1485483496
 21
35.7850951094
 31
0.0
 11
9.050095053
 21
35.7858407983
 31
0.0
 11
8.9629561863
 21
35.7593702071
 31
0.0
  0
SPLINE
  5
579
100
AcDbEntity
  8
0
100
AcDbSpline
 62
7
  6
CONTINUOUS
 70
0
 71
3
 72
9
 73
5
 74
3
 42
0.0000001
 43
0.0000001
 44
0.0000000001
 12
0.0129567377
 22
-0.0279185634
 32
0.0
 13
0.0000104429
 23
-0.0307786148
 33
0.0
 40
0.0
 40
0.0
 40
0.0
 40
0.0
 40
0.2573489508
 40
1.0
 40
1.0
 40
1.0
 40
1.0
 10
-2.64570446
 20
42.5949488649
 30
0.0
 10
-2.6445929924
 20
42.5925539273
 30
0.0
 10
-2.6407323273
 20
42.583045087
 30
0.0
 10
-2.6388895622
 20
42.5726923494
 30
0.0
 10
-2.6388869771
 20
42.5650730926
 30
0.0
 11
-2.64570446
 21
42.5949488649
 31
0.0
 11
-2.6427395586
 21
42.5876038571
 31
0.0
 11
-2.6388869771
 21
42.5650730926
 31
0.0
  0
SPLINE
  5
57A
100
AcDbEntity
  8
0
100
AcDbSpline
 62
7
  6
CONTINUOUS
 70
0
 71
3
 72
9
 73
5
 74
3
 42
0.0000001
 43
0.0000001
 44
0.0000000001
 12
-0.1872983895
 22
0.0289781452
 32
0.0
 13
-0.1681595093
 23
-0.0874231038
 33
0.0
 40
0.0
 40
0.0
 40
0.0
 40
0.0
 40
0.5194838115
 40
1.0
 40
1.0
 40
1.0
 40
1.0
 10
-6.7613542271
 20
44.9712734592
 30
0.0
 10
-6.7937870542
 20
44.9762913517
 30
0.0
 10
-6.8577982339
 20
44.9767827486
 30
0.0
 10
-6.9200119349
 20
44.9595512959
 30
0.0
 10
-6.9469463904
 20
44.945548557
 30
0.0
 11
-6.7613542271
 21
44.9712734592
 31
0.0
 11
-6.8598075237
 21
44.9720191481
 31
0.0
 11
-6.9469463904
 21
44.945548557
 31
0.0
  0
SPLINE
  5
57B
100
AcDbEntity
  8
0
100
AcDbSpline
 62
7
  6
CONTINUOUS
 70
0
 71
3
 72
11
 73
7
 74
5
 42
0.0000001
 43
0.0000001
 44
0.0000000001
 12
0.1363067843
 22
-0.0787018289
 32
0.0
 13
0.0000100109
 23
-0.1573960521
 33
0.0
 40
0.0
 40
0.0
 40
0.0
 40
0.0
 40
0.2896992277
 40
0.5490741134
 40
0.7822095664
 40
1.0
 40
1.0
 40
1.0
 40
1.0
 10
-17.0030838454
 20
56.5399520947
 30
0.0
 10
-16.9899211887
 20
56.5323521417
 30
0.0
 10
-16.9660406318
 20
56.5159041261
 30
0.0
 10
-16.9374997826
 20
56.4859083678
 30
0.0
 10
-16.919443975
 20
56.4527269523
 30
0.0
 10
-16.9152166759
 20
56.4289113535
 30
0.0
 10
-16.9152159491
 20
56.4174849021
 30
0.0
 11
-17.0030838454
 21
56.5399520947
 31
0.0
 11
-16.9657924537
 21
56.5137130881
 31
0.0
 11
-16.9380541604
 21
56.4837592291
 31
0.0
 11
-16.9209879105
 21
56.4512748208
 31
0.0
 11
-16.9152159491
 21
56.4174849021
 31
0.0
  0
SPLINE
  5
57C
100
AcDbEntity
  8
0
100
AcDbSpline
 62
7
  6
CONTINUOUS
 70
0
 71
3
 72
9
 73
5
 74
3
 42
0.0000001
 43
0.0000001
 44
0.0000000001
 12
-0.0685559625
 22
-0.1766939117
 32
0.0
 13
-0.1597856735
 23
-0.1019274103
 33
0.0
 40
0.0
 40
0.0
 40
0.0
 40
0.0
 40
0.5194847149
 40
1.0
 40
1.0
 40
1.0
 40
1.0
 10
-14.6383795701
 20
0.6452919013
 30
0.0
 10
-14.6502508283
 20
0.6146953058
 30
0.0
 10
-14.6818311269
 20
0.5590143771
 30
0.0
 10
-14.7278594825
 20
0.5137502295
 30
0.0
 10
-14.7534526354
 20
0.4974243366
 30
0.0
 11
-14.6383795701
 21
0.6452919013
 31
0.0
 11
-14.6869608089
 21
0.5596556411
 31
0.0
 11
-14.7534526354
 21
0.4974243366
 31
0.0
  0
LINE
  5
57D
100
AcDbEntity
  8
ASSI
100
AcDbLine
 62
7
  6
CONTINUOUS
 10
-2.690258329
 20
-73.3695658465
 11
-2.6388868977
 21
-73.3399000663
  0
SPLINE
  5
57E
100
AcDbEntity
  8
0
100
AcDbSpline
 62
7
  6
CONTINUOUS
 70
0
 71
3
 72
11
 73
7
 74
5
 42
0.0000001
 43
0.0000001
 44
0.0000000001
 12
0.1314847245
 22
0.0786150093
 32
0.0
 13
-0.0000097437
 23
0.153194492
 33
0.0
 40
0.0
 40
0.0
 40
0.0
 40
0.0
 40
0.2886857515
 40
0.5477014767
 40
0.781242467
 40
1.0
 40
1.0
 40
1.0
 40
1.0
 10
-16.9994139397
 20
-59.6416356989
 30
0.0
 10
-16.9867613508
 20
-59.6340706879
 30
0.0
 10
-16.9638197883
 20
-59.6177569201
 30
0.0
 10
-16.9364804579
 20
-59.5882260553
 30
0.0
 10
-16.9192325849
 20
-59.5557122503
 30
0.0
 10
-16.9152152386
 20
-59.5324652189
 30
0.0
 10
-16.9152159491
 20
-59.5212944025
 30
0.0
 11
-16.9994139397
 21
-59.6416356989
 31
0.0
 11
-16.9636257484
 21
-59.6156537451
 31
0.0
 11
-16.9370527536
 21
-59.5861857779
 31
0.0
 11
-16.9207270386
 21
-59.5543505993
 31
0.0
 11
-16.9152159491
 21
-59.5212944025
 31
0.0
  0
SPLINE
  5
57F
100
AcDbEntity
  8
SUPERFICI
100
AcDbSpline
 62
7
  6
CONTINUOUS
 70
0
 71
3
 72
11
 73
7
 74
5
 42
0.0000001
 43
0.0000001
 44
0.0000000001
 12
-0.0000096035
 22
-0.1531801551
 32
0.0
 13
-0.1314724194
 23
-0.0786076521
 33
0.0
 40
0.0
 40
0.0
 40
0.0
 40
0.0
 40
0.2187656471
 40
0.4523170119
 40
0.7113236986
 40
1.0
 40
1.0
 40
1.0
 40
1.0
 10
-15.8837397906
 20
-9.3324585187
 30
0.0
 10
-15.8837404909
 20
-9.343628704
 30
0.0
 10
-15.8877612625
 20
-9.3668738659
 30
0.0
 10
-15.9050106215
 20
-9.3993831754
 30
0.0
 10
-15.932347578
 20
-9.4289104352
 30
0.0
 10
-15.955286819
 20
-9.445221272
 30
0.0
 10
-15.9679378095
 20
-9.4527853275
 30
0.0
 11
-15.8837397906
 21
-9.3324585187
 31
0.0
 11
-15.8892550677
 21
-9.3655120975
 31
0.0
 11
-15.9055829536
 21
-9.3973441858
 31
0.0
 11
-15.9321535831
 21
-9.4268074212
 31
0.0
 11
-15.9679378095
 21
-9.4527853275
 31
0.0
  0
SPLINE
  5
580
100
AcDbEntity
  8
SUPERFICI
100
AcDbSpline
 62
7
  6
CONTINUOUS
 70
0
 71
3
 72
11
 73
7
 74
5
 42
0.0000001
 43
0.0000001
 44
0.0000000001
 12
-0.1363196019
 22
0.078710191
 32
0.0
 13
-0.1363200182
 23
-0.07870947
 33
0.0
 40
0.0
 40
0.0
 40
0.0
 40
0.0
 40
0.2177888736
 40
0.4509249731
 40
0.7103011198
 40
1.0
 40
1.0
 40
1.0
 40
1.0
 10
-16.0337341591
 20
-9.0726548283
 30
0.0
 10
-16.0436304566
 20
-9.0669407604
 30
0.0
 10
-16.0663700991
 20
-9.0586896557
 30
0.0
 10
-16.1041381094
 20
-9.0577360323
 30
0.0
 10
-16.1443893121
 20
-9.067457344
 30
0.0
 10
-16.1705758308
 20
-9.0799174515
 30
0.0
 10
-16.1837397497
 20
-9.0875181333
 30
0.0
 11
-16.0337341591
 21
-9.0726548283
 31
0.0
 11
-16.0658846814
 21
-9.0607540128
 31
0.0
 11
-16.1025537697
 21
-9.0592909454
 31
0.0
 11
-16.1423675034
 21
-9.0683382128
 31
0.0
 11
-16.1837397497
 21
-9.0875181333
 31
0.0
  0
SPLINE
  5
581
100
AcDbEntity
  8
SUPERFICI
100
AcDbSpline
 62
7
  6
CONTINUOUS
 70
0
 71
3
 72
11
 73
7
 74
5
 42
0.0000001
 43
0.0000001
 44
0.0000000001
 12
-0.132665165
 22
0.0766104009
 32
0.0
 13
-0.1338225329
 23
-0.0745702972
 33
0.0
 40
0.0
 40
0.0
 40
0.0
 40
0.0
 40
0.2187478139
 40
0.4522842438
 40
0.711303178
 40
1.0
 40
1.0
 40
1.0
 40
1.0
 10
-9.8025076472
 20
-13.8714686024
 30
0.0
 10
-9.8121810522
 20
-13.8658824832
 30
0.0
 10
-9.834322016
 20
-13.8577382421
 30
0.0
 10
-9.8711038206
 20
-13.8564200925
 30
0.0
 10
-9.9103484697
 20
-13.8653338443
 30
0.0
 10
-9.9359476841
 20
-13.8770469658
 30
0.0
 10
-9.9488257307
 20
-13.8842230351
 30
0.0
 11
-9.8025076472
 21
-13.8714686024
 31
0.0
 11
-9.833889722
 21
-13.8597135692
 31
0.0
 11
-9.8696225167
 21
-13.8579358586
 31
0.0
 11
-9.9084295661
 21
-13.8662171921
 31
0.0
 11
-9.9488257307
 21
-13.8842230351
 31
0.0
  0
SPLINE
  5
582
100
AcDbEntity
  8
0
100
AcDbSpline
 62
7
  6
CONTINUOUS
 70
0
 71
3
 72
9
 73
5
 74
3
 42
0.0000001
 43
0.0000001
 44
0.0000000001
 12
-0.0829536601
 22
0.04793454
 32
0.0
 13
-0.0851104445
 23
-0.0439913866
 33
0.0
 40
0.0
 40
0.0
 40
0.0
 40
0.0
 40
0.4536581777
 40
1.0
 40
1.0
 40
1.0
 40
1.0
 10
-14.660837462
 20
5.4183180944
 30
0.0
 10
-14.6733816641
 20
5.4255667265
 30
0.0
 10
-14.7069643926
 20
5.4316018817
 30
0.0
 10
-14.7379528369
 20
5.4204774302
 30
0.0
 10
-14.7534526354
 20
5.4124659854
 30
0.0
 11
-14.660837462
 21
5.4183180944
 31
0.0
 11
-14.7033179044
 21
5.4275109759
 31
0.0
 11
-14.7534526354
 21
5.4124659854
 31
0.0
  0
SPLINE
  5
583
100
AcDbEntity
  8
0
100
AcDbSpline
 62
7
  6
CONTINUOUS
 70
0
 71
3
 72
9
 73
5
 74
3
 42
0.0000001
 43
0.0000001
 44
0.0000000001
 12
0.0000328704
 22
-0.0958059527
 32
0.0
 13
-0.0806486785
 23
-0.0517162673
 33
0.0
 40
0.0
 40
0.0
 40
0.0
 40
0.0
 40
0.4536727535
 40
1.0
 40
1.0
 40
1.0
 40
1.0
 10
-2.6388869801
 20
-15.4043164747
 30
0.0
 10
-2.6388820093
 20
-15.4188046582
 30
0.0
 10
-2.6504451649
 20
-15.4509052099
 30
0.0
 10
-2.6755714722
 20
-15.4721814311
 30
0.0
 10
-2.690258329
 20
-15.4815994331
 30
0.0
 11
-2.6388869801
 21
-15.4043164747
 31
0.0
 11
-2.6521653405
 21
-15.445703097
 31
0.0
 11
-2.690258329
 21
-15.4815994331
 31
0.0
  0
SPLINE
  5
584
100
AcDbEntity
  8
0
100
AcDbSpline
 62
7
  6
CONTINUOUS
 70
0
 71
3
 72
11
 73
7
 74
5
 42
0.0000001
 43
0.0000001
 44
0.0000000001
 12
0.3845332045
 22
-0.214406715
 32
0.0
 13
0.0000000002
 23
-0.4402681283
 33
0.0
 40
0.0
 40
0.0
 40
0.0
 40
0.0
 40
0.2382948755
 40
0.5011054867
 40
0.7633135658
 40
1.0
 40
1.0
 40
1.0
 40
1.0
 10
-16.1837397496
 20
-67.0569077856
 30
0.0
 10
-16.1531956523
 20
-67.0739384594
 30
0.0
 10
-16.0952789655
 20
-67.1212033684
 30
0.0
 10
-16.0275189889
 20
-67.211486879
 30
0.0
 10
-15.9812044205
 20
-67.3141711816
 30
0.0
 10
-15.9679378096
 20
-67.3874398153
 30
0.0
 10
-15.9679378095
 20
-67.4221749797
 30
0.0
 11
-16.1837397496
 21
-67.0569077856
 31
0.0
 11
-16.101150167
 21
-67.1216057952
 31
0.0
 11
-16.0311447345
 21
-67.2137327767
 31
0.0
 11
-15.9843673628
 21
-67.3192728193
 31
0.0
 11
-15.9679378095
 21
-67.4221749797
 31
0.0
  0
SPLINE
  5
585
100
AcDbEntity
  8
0
100
AcDbSpline
 62
7
  6
CONTINUOUS
 70
0
 71
3
 72
11
 73
7
 74
5
 42
0.0000001
 43
0.0000001
 44
0.0000000001
 12
-0.132665165
 22
0.0766104009
 32
0.0
 13
-0.1338225329
 23
-0.0745702972
 33
0.0
 40
0.0
 40
0.0
 40
0.0
 40
0.0
 40
0.2187478139
 40
0.4522842438
 40
0.711303178
 40
1.0
 40
1.0
 40
1.0
 40
1.0
 10
-9.8025076472
 20
-71.8408582547
 30
0.0
 10
-9.8121810522
 20
-71.8352721355
 30
0.0
 10
-9.834322016
 20
-71.8271278944
 30
0.0
 10
-9.8711038206
 20
-71.8258097448
 30
0.0
 10
-9.9103484697
 20
-71.8347234966
 30
0.0
 10
-9.9359476841
 20
-71.8464366181
 30
0.0
 10
-9.9488257307
 20
-71.8536126874
 30
0.0
 11
-9.8025076472
 21
-71.8408582547
 31
0.0
 11
-9.833889722
 21
-71.8291032215
 31
0.0
 11
-9.8696225167
 21
-71.8273255109
 31
0.0
 11
-9.9084295661
 21
-71.8356068444
 31
0.0
 11
-9.9488257307
 21
-71.8536126874
 31
0.0
  0
SPLINE
  5
586
100
AcDbEntity
  8
0
100
AcDbSpline
 62
7
  6
CONTINUOUS
 70
0
 71
3
 72
11
 73
7
 74
5
 42
0.0000001
 43
0.0000001
 44
0.0000000001
 12
0.1363216183
 22
0.0787103206
 32
0.0
 13
0.1363215866
 23
-0.0787103756
 33
0.0
 40
0.0
 40
0.0
 40
0.0
 40
0.0
 40
0.2177804588
 40
0.4509077062
 40
0.7102936033
 40
1.0
 40
1.0
 40
1.0
 40
1.0
 10
9.4843227281
 20
32.7648803043
 30
0.0
 10
9.4942187896
 20
32.7705941608
 30
0.0
 10
9.5169573109
 20
32.7788460882
 30
0.0
 10
9.5547255254
 20
32.7798007199
 30
0.0
 10
9.5949774853
 20
32.7700787005
 30
0.0
 10
9.6211654818
 20
32.7576188698
 30
0.0
 10
9.6343298937
 20
32.7500179034
 30
0.0
 11
9.4843227281
 21
32.7648803043
 31
0.0
 11
9.5164720603
 21
32.7767816551
 31
0.0
 11
9.553140141
 21
32.778245619
 31
0.0
 11
9.592955854
 21
32.769198016
 31
0.0
 11
9.6343298937
 21
32.7500179034
 31
0.0
  0
SPLINE
  5
587
100
AcDbEntity
  8
0
100
AcDbSpline
 62
7
  6
CONTINUOUS
 70
0
 71
3
 72
11
 73
7
 74
5
 42
0.0000001
 43
0.0000001
 44
0.0000000001
 12
0.1363216183
 22
0.0787103206
 32
0.0
 13
0.1363215866
 23
-0.0787103756
 33
0.0
 40
0.0
 40
0.0
 40
0.0
 40
0.0
 40
0.2177804588
 40
0.4509077062
 40
0.7102936033
 40
1.0
 40
1.0
 40
1.0
 40
1.0
 10
-6.4255798486
 20
41.9510586541
 30
0.0
 10
-6.4156837871
 20
41.9567725107
 30
0.0
 10
-6.3929452658
 20
41.9650244381
 30
0.0
 10
-6.3551770513
 20
41.9659790698
 30
0.0
 10
-6.3149250914
 20
41.9562570504
 30
0.0
 10
-6.2887370949
 20
41.9437972197
 30
0.0
 10
-6.275572683
 20
41.9361962532
 30
0.0
 11
-6.4255798486
 21
41.9510586541
 31
0.0
 11
-6.3934305164
 21
41.962960005
 31
0.0
 11
-6.3567624357
 21
41.9644239689
 31
0.0
 11
-6.3169467227
 21
41.9553763659
 31
0.0
 11
-6.275572683
 21
41.9361962532
 31
0.0
  0
SPLINE
  5
588
100
AcDbEntity
  8
0
100
AcDbSpline
 62
7
  6
CONTINUOUS
 70
0
 71
3
 72
11
 73
7
 74
5
 42
0.0000001
 43
0.0000001
 44
0.0000000001
 12
-0.1363196019
 22
0.078710191
 32
0.0
 13
-0.1363200182
 23
-0.07870947
 33
0.0
 40
0.0
 40
0.0
 40
0.0
 40
0.0
 40
0.2177888736
 40
0.4509249731
 40
0.7103011198
 40
1.0
 40
1.0
 40
1.0
 40
1.0
 10
-16.0337341591
 20
-67.0420444806
 30
0.0
 10
-16.0436304566
 20
-67.0363304127
 30
0.0
 10
-16.0663700991
 20
-67.028079308
 30
0.0
 10
-16.1041381094
 20
-67.0271256846
 30
0.0
 10
-16.1443893121
 20
-67.0368469963
 30
0.0
 10
-16.1705758308
 20
-67.0493071038
 30
0.0
 10
-16.1837397497
 20
-67.0569077856
 30
0.0
 11
-16.0337341591
 21
-67.0420444806
 31
0.0
 11
-16.0658846814
 21
-67.0301436651
 31
0.0
 11
-16.1025537697
 21
-67.0286805977
 31
0.0
 11
-16.1423675034
 21
-67.0377278651
 31
0.0
 11
-16.1837397497
 21
-67.0569077856
 31
0.0
  0
SPLINE
  5
589
100
AcDbEntity
  8
SUPERFICI
100
AcDbSpline
 62
7
  6
CONTINUOUS
 70
0
 71
3
 72
11
 73
7
 74
5
 42
0.0000001
 43
0.0000001
 44
0.0000000001
 12
-0.1363215866
 22
0.0787103756
 32
0.0
 13
-0.1363216183
 23
-0.0787103206
 33
0.0
 40
0.0
 40
0.0
 40
0.0
 40
0.0
 40
0.2897063967
 40
0.5490922938
 40
0.7822195412
 40
1.0
 40
1.0
 40
1.0
 40
1.0
 10
9.6343298937
 20
-25.2193717489
 30
0.0
 10
9.6211654818
 20
-25.2117707825
 30
0.0
 10
9.5949774853
 20
-25.1993109518
 30
0.0
 10
9.5547255254
 20
-25.1895889324
 30
0.0
 10
9.5169573109
 20
-25.1905435641
 30
0.0
 10
9.4942187896
 20
-25.1987954914
 30
0.0
 10
9.4843227281
 20
-25.204509348
 30
0.0
 11
9.6343298937
 21
-25.2193717489
 31
0.0
 11
9.592955854
 21
-25.2001916363
 31
0.0
 11
9.553140141
 21
-25.1911440333
 31
0.0
 11
9.5164720603
 21
-25.1926079972
 31
0.0
 11
9.4843227281
 21
-25.204509348
 31
0.0
  0
SPLINE
  5
58A
100
AcDbEntity
  8
SUPERFICI
100
AcDbSpline
 62
7
  6
CONTINUOUS
 70
0
 71
3
 72
11
 73
7
 74
5
 42
0.0000001
 43
0.0000001
 44
0.0000000001
 12
-0.0642601111
 22
0.3798729412
 32
0.0
 13
-0.3336480537
 23
0.1926442046
 33
0.0
 40
0.0
 40
0.0
 40
0.0
 40
0.0
 40
0.2491757214
 40
0.5117855836
 40
0.768099784
 40
1.0
 40
1.0
 40
1.0
 40
1.0
 10
-11.371560605
 20
-13.2838780132
 30
0.0
 10
-11.3768979581
 20
-13.2523263085
 30
0.0
 10
-11.3960191343
 20
-13.188796432
 30
0.0
 10
-11.4426080539
 20
-13.1012095124
 30
0.0
 10
-11.5035489862
 20
-13.0257518762
 30
0.0
 10
-11.5530825234
 20
-12.98602536
 30
0.0
 10
-11.5788735419
 20
-12.9711339491
 30
0.0
 11
-11.371560605
 21
-13.2838780132
 31
0.0
 11
-11.3983430701
 21
-13.191689748
 31
0.0
 11
-11.4457157321
 21
-13.1022898459
 31
0.0
 11
-11.5082613271
 21
-13.0258723445
 31
0.0
 11
-11.5788735419
 21
-12.9711339491
 31
0.0
  0
SPLINE
  5
58B
100
AcDbEntity
  8
SUPERFICI
100
AcDbSpline
 62
7
  6
CONTINUOUS
 70
0
 71
3
 72
11
 73
7
 74
5
 42
0.0000001
 43
0.0000001
 44
0.0000000001
 12
-0.1363215866
 22
0.0787103756
 32
0.0
 13
-0.1363216183
 23
-0.0787103206
 33
0.0
 40
0.0
 40
0.0
 40
0.0
 40
0.0
 40
0.2897063967
 40
0.5490922938
 40
0.7822195412
 40
1.0
 40
1.0
 40
1.0
 40
1.0
 10
-6.275572683
 20
-16.0331933991
 30
0.0
 10
-6.2887370949
 20
-16.0255924326
 30
0.0
 10
-6.3149250914
 20
-16.0131326019
 30
0.0
 10
-6.3551770513
 20
-16.0034105825
 30
0.0
 10
-6.3929452658
 20
-16.0043652142
 30
0.0
 10
-6.4156837871
 20
-16.0126171416
 30
0.0
 10
-6.4255798486
 20
-16.0183309981
 30
0.0
 11
-6.275572683
 21
-16.0331933991
 31
0.0
 11
-6.3169467227
 21
-16.0140132864
 31
0.0
 11
-6.3567624357
 21
-16.0049656834
 31
0.0
 11
-6.3934305164
 21
-16.0064296473
 31
0.0
 11
-6.4255798486
 21
-16.0183309981
 31
0.0
  0
SPLINE
  5
58C
100
AcDbEntity
  8
SUPERFICI
100
AcDbSpline
 62
7
  6
CONTINUOUS
 70
0
 71
3
 72
11
 73
7
 74
5
 42
0.0000001
 43
0.0000001
 44
0.0000000001
 12
-0.0642601111
 22
0.3798729412
 32
0.0
 13
-0.3336480537
 23
0.1926442046
 33
0.0
 40
0.0
 40
0.0
 40
0.0
 40
0.0
 40
0.2491757214
 40
0.5117855836
 40
0.768099784
 40
1.0
 40
1.0
 40
1.0
 40
1.0
 10
4.5383419717
 20
-22.4700563631
 30
0.0
 10
4.5330046186
 20
-22.4385046584
 30
0.0
 10
4.5138834424
 20
-22.3749747818
 30
0.0
 10
4.4672945228
 20
-22.2873878623
 30
0.0
 10
4.4063535905
 20
-22.211930226
 30
0.0
 10
4.3568200533
 20
-22.1722037099
 30
0.0
 10
4.3310290348
 20
-22.157312299
 30
0.0
 11
4.5383419717
 21
-22.4700563631
 31
0.0
 11
4.5115595066
 21
-22.3778680979
 31
0.0
 11
4.4641868446
 21
-22.2884681958
 31
0.0
 11
4.4016412496
 21
-22.2120506944
 31
0.0
 11
4.3310290348
 21
-22.157312299
 31
0.0
  0
SPLINE
  5
58D
100
AcDbEntity
  8
0
100
AcDbSpline
 62
7
  6
CONTINUOUS
 70
0
 71
3
 72
11
 73
7
 74
5
 42
0.0000001
 43
0.0000001
 44
0.0000000001
 12
-0.0000096035
 22
-0.1531801551
 32
0.0
 13
-0.1314724194
 23
-0.0786076521
 33
0.0
 40
0.0
 40
0.0
 40
0.0
 40
0.0
 40
0.2187656471
 40
0.4523170119
 40
0.7113236986
 40
1.0
 40
1.0
 40
1.0
 40
1.0
 10
-15.8837397906
 20
-67.301848171
 30
0.0
 10
-15.8837404909
 20
-67.3130183563
 30
0.0
 10
-15.8877612625
 20
-67.3362635182
 30
0.0
 10
-15.9050106215
 20
-67.3687728277
 30
0.0
 10
-15.932347578
 20
-67.3983000875
 30
0.0
 10
-15.955286819
 20
-67.4146109243
 30
0.0
 10
-15.9679378095
 20
-67.4221749797
 30
0.0
 11
-15.8837397906
 21
-67.301848171
 31
0.0
 11
-15.8892550677
 21
-67.3349017498
 31
0.0
 11
-15.9055829536
 21
-67.3667338381
 31
0.0
 11
-15.9321535831
 21
-67.3961970734
 31
0.0
 11
-15.9679378095
 21
-67.4221749797
 31
0.0
  0
SPLINE
  5
58E
100
AcDbEntity
  8
SUPERFICI
100
AcDbSpline
 62
7
  6
CONTINUOUS
 70
0
 71
3
 72
11
 73
7
 74
5
 42
0.0000001
 43
0.0000001
 44
0.0000000001
 12
0.1314847245
 22
0.0786150093
 32
0.0
 13
-0.0000097437
 23
0.153194492
 33
0.0
 40
0.0
 40
0.0
 40
0.0
 40
0.0
 40
0.2886857515
 40
0.5477014767
 40
0.781242467
 40
1.0
 40
1.0
 40
1.0
 40
1.0
 10
-16.9994139397
 20
-1.6722460467
 30
0.0
 10
-16.9867613508
 20
-1.6646810356
 30
0.0
 10
-16.9638197883
 20
-1.6483672678
 30
0.0
 10
-16.9364804579
 20
-1.618836403
 30
0.0
 10
-16.9192325849
 20
-1.586322598
 30
0.0
 10
-16.9152152386
 20
-1.5630755666
 30
0.0
 10
-16.9152159491
 20
-1.5519047502
 30
0.0
 11
-16.9994139397
 21
-1.6722460467
 31
0.0
 11
-16.9636257484
 21
-1.6462640928
 31
0.0
 11
-16.9370527536
 21
-1.6167961256
 31
0.0
 11
-16.9207270386
 21
-1.584960947
 31
0.0
 11
-16.9152159491
 21
-1.5519047502
 31
0.0
  0
SPLINE
  5
58F
100
AcDbEntity
  8
0
100
AcDbSpline
 62
7
  6
CONTINUOUS
 70
0
 71
3
 72
11
 73
7
 74
5
 42
0.0000001
 43
0.0000001
 44
0.0000000001
 12
-0.1363196018
 22
0.078710191
 32
0.0
 13
-0.1363200181
 23
-0.07870947
 33
0.0
 40
0.0
 40
0.0
 40
0.0
 40
0.0
 40
0.2177888735
 40
0.4509249731
 40
0.7103011198
 40
1.0
 40
1.0
 40
1.0
 40
1.0
 10
-16.0337341591
 20
48.896734824
 30
0.0
 10
-16.0436304566
 20
48.9024488919
 30
0.0
 10
-16.0663700991
 20
48.9106999966
 30
0.0
 10
-16.1041381093
 20
48.91165362
 30
0.0
 10
-16.1443893121
 20
48.9019323082
 30
0.0
 10
-16.1705758308
 20
48.8894722007
 30
0.0
 10
-16.1837397496
 20
48.881871519
 30
0.0
 11
-16.0337341591
 21
48.896734824
 31
0.0
 11
-16.0658846813
 21
48.9086356395
 31
0.0
 11
-16.1025537697
 21
48.9100987068
 31
0.0
 11
-16.1423675034
 21
48.9010514395
 31
0.0
 11
-16.1837397496
 21
48.881871519
 31
0.0
  0
SPLINE
  5
590
100
AcDbEntity
  8
0
100
AcDbSpline
 62
7
  6
CONTINUOUS
 70
0
 71
3
 72
11
 73
7
 74
5
 42
0.0000001
 43
0.0000001
 44
0.0000000001
 12
-0.0000096035
 22
-0.1531801552
 32
0.0
 13
-0.1314724194
 23
-0.0786076521
 33
0.0
 40
0.0
 40
0.0
 40
0.0
 40
0.0
 40
0.2187656472
 40
0.4523170119
 40
0.7113236985
 40
1.0
 40
1.0
 40
1.0
 40
1.0
 10
-15.8837397906
 20
48.6369311336
 30
0.0
 10
-15.8837404909
 20
48.6257609483
 30
0.0
 10
-15.8877612625
 20
48.6025157863
 30
0.0
 10
-15.9050106215
 20
48.5700064769
 30
0.0
 10
-15.9323475781
 20
48.5404792171
 30
0.0
 10
-15.9552868189
 20
48.5241683802
 30
0.0
 10
-15.9679378095
 20
48.5166043248
 30
0.0
 11
-15.8837397906
 21
48.6369311336
 31
0.0
 11
-15.8892550677
 21
48.6038775548
 31
0.0
 11
-15.9055829536
 21
48.5720454665
 31
0.0
 11
-15.9321535831
 21
48.5425822311
 31
0.0
 11
-15.9679378095
 21
48.5166043248
 31
0.0
  0
SPLINE
  5
591
100
AcDbEntity
  8
0
100
AcDbSpline
 62
7
  6
CONTINUOUS
 70
0
 71
3
 72
11
 73
7
 74
5
 42
0.0000001
 43
0.0000001
 44
0.0000000001
 12
0.0000097437
 22
-0.153194492
 32
0.0
 13
-0.1314847245
 23
-0.0786150093
 33
0.0
 40
0.0
 40
0.0
 40
0.0
 40
0.0
 40
0.218757533
 40
0.4522985233
 40
0.7113142485
 40
1.0
 40
1.0
 40
1.0
 40
1.0
 10
-16.9152159491
 20
56.4174849021
 30
0.0
 10
-16.9152152386
 20
56.4063140857
 30
0.0
 10
-16.9192325849
 20
56.3830670542
 30
0.0
 10
-16.9364804579
 20
56.3505532493
 30
0.0
 10
-16.9638197883
 20
56.3210223845
 30
0.0
 10
-16.9867613508
 20
56.3047086167
 30
0.0
 10
-16.9994139397
 20
56.2971436056
 30
0.0
 11
-16.9152159491
 21
56.4174849021
 31
0.0
 11
-16.9207270386
 21
56.3844287053
 31
0.0
 11
-16.9370527536
 21
56.3525935267
 31
0.0
 11
-16.9636257484
 21
56.3231255595
 31
0.0
 11
-16.9994139397
 21
56.2971436056
 31
0.0
  0
SPLINE
  5
592
100
AcDbEntity
  8
0
100
AcDbSpline
 62
7
  6
CONTINUOUS
 70
0
 71
3
 72
11
 73
7
 74
5
 42
0.0000001
 43
0.0000001
 44
0.0000000001
 12
0.0
 22
0.4402681283
 32
0.0
 13
-0.3845332044
 23
0.2144067152
 33
0.0
 40
0.0
 40
0.0
 40
0.0
 40
0.0
 40
0.2366864372
 40
0.4988945121
 40
0.7617051275
 40
1.0
 40
1.0
 40
1.0
 40
1.0
 10
-15.9679378095
 20
48.5166043248
 30
0.0
 10
-15.9679378095
 20
48.5513394897
 30
0.0
 10
-15.9812044208
 20
48.6246081232
 30
0.0
 10
-16.0275189892
 20
48.7272924262
 30
0.0
 10
-16.0952789656
 20
48.8175759366
 30
0.0
 10
-16.1531956527
 20
48.8648408454
 30
0.0
 10
-16.1837397496
 20
48.881871519
 30
0.0
 11
-15.9679378095
 21
48.5166043248
 31
0.0
 11
-15.9843673633
 21
48.6195064866
 31
0.0
 11
-16.0311447343
 21
48.7250465274
 31
0.0
 11
-16.1011501678
 21
48.8171735104
 31
0.0
 11
-16.1837397496
 21
48.881871519
 31
0.0
  0
LINE
  5
593
100
AcDbEntity
  8
0
100
AcDbLine
 62
7
  6
CONTINUOUS
 10
-14.6315643374
 20
-52.5679733375
 11
-14.6829357703
 21
-52.597639221
  0
SPLINE
  5
594
100
AcDbEntity
  8
0
100
AcDbSpline
 62
7
  6
CONTINUOUS
 70
0
 71
3
 72
9
 73
5
 74
3
 42
0.0000001
 43
0.0000001
 44
0.0000000001
 12
-0.0829539587
 22
0.0479339076
 32
0.0
 13
-0.085110393
 23
-0.04399136
 33
0.0
 40
0.0
 40
0.0
 40
0.0
 40
0.0
 40
0.4536529533
 40
1.0
 40
1.0
 40
1.0
 40
1.0
 10
-14.6608375529
 20
63.3877077963
 30
0.0
 10
-14.6733816557
 20
63.3949562493
 30
0.0
 10
-14.706964212
 20
63.4009917492
 30
0.0
 10
-14.7379526981
 20
63.3898671542
 30
0.0
 10
-14.7534526354
 20
63.3818556377
 30
0.0
 11
-14.6608375529
 21
63.3877077963
 31
0.0
 11
-14.7033174451
 21
63.3969007293
 31
0.0
 11
-14.7534526354
 21
63.3818556377
 31
0.0
  0
SPLINE
  5
595
100
AcDbEntity
  8
0
100
AcDbSpline
 62
7
  6
CONTINUOUS
 70
0
 71
3
 72
11
 73
7
 74
5
 42
0.0000001
 43
0.0000001
 44
0.0000000001
 12
0.3336480537
 22
-0.1926442046
 32
0.0
 13
0.0642601111
 23
-0.3798729412
 33
0.0
 40
0.0
 40
0.0
 40
0.0
 40
0.0
 40
0.231900216
 40
0.4882144164
 40
0.7508242786
 40
1.0
 40
1.0
 40
1.0
 40
1.0
 10
-11.5788735419
 20
44.9982557032
 30
0.0
 10
-11.5530825234
 20
44.9833642923
 30
0.0
 10
-11.5035489862
 20
44.9436377761
 30
0.0
 10
-11.4426080539
 20
44.8681801399
 30
0.0
 10
-11.3960191343
 20
44.7805932203
 30
0.0
 10
-11.3768979581
 20
44.7170633438
 30
0.0
 10
-11.371560605
 20
44.6855116391
 30
0.0
 11
-11.5788735419
 21
44.9982557032
 31
0.0
 11
-11.5082613271
 21
44.9435173078
 31
0.0
 11
-11.4457157321
 21
44.8670998064
 31
0.0
 11
-11.3983430701
 21
44.7776999043
 31
0.0
 11
-11.371560605
 21
44.6855116391
 31
0.0
  0
SPLINE
  5
596
100
AcDbEntity
  8
0
100
AcDbSpline
 62
7
  6
CONTINUOUS
 70
0
 71
3
 72
11
 73
7
 74
5
 42
0.0000001
 43
0.0000001
 44
0.0000000001
 12
0.3336480537
 22
-0.1926442046
 32
0.0
 13
0.0642601111
 23
-0.3798729412
 33
0.0
 40
0.0
 40
0.0
 40
0.0
 40
0.0
 40
0.231900216
 40
0.4882144164
 40
0.7508242786
 40
1.0
 40
1.0
 40
1.0
 40
1.0
 10
4.3310290348
 20
35.8120773533
 30
0.0
 10
4.3568200533
 20
35.7971859424
 30
0.0
 10
4.4063535905
 20
35.7574594263
 30
0.0
 10
4.4672945228
 20
35.68200179
 30
0.0
 10
4.5138834424
 20
35.5944148705
 30
0.0
 10
4.5330046186
 20
35.5308849939
 30
0.0
 10
4.5383419717
 20
35.4993332892
 30
0.0
 11
4.3310290348
 21
35.8120773533
 31
0.0
 11
4.4016412496
 21
35.7573389579
 31
0.0
 11
4.4641868446
 21
35.6809214565
 31
0.0
 11
4.5115595066
 21
35.5915215544
 31
0.0
 11
4.5383419717
 21
35.4993332892
 31
0.0
  0
SPLINE
  5
597
100
AcDbEntity
  8
SUPERFICI
100
AcDbSpline
 62
7
  6
CONTINUOUS
 70
0
 71
3
 72
11
 73
7
 74
5
 42
0.0000001
 43
0.0000001
 44
0.0000000001
 12
0.3845332045
 22
-0.214406715
 32
0.0
 13
0.0000000002
 23
-0.4402681283
 33
0.0
 40
0.0
 40
0.0
 40
0.0
 40
0.0
 40
0.2382948755
 40
0.5011054867
 40
0.7633135658
 40
1.0
 40
1.0
 40
1.0
 40
1.0
 10
-16.1837397496
 20
-9.0875181333
 30
0.0
 10
-16.1531956523
 20
-9.1045488071
 30
0.0
 10
-16.0952789655
 20
-9.1518137161
 30
0.0
 10
-16.0275189889
 20
-9.2420972267
 30
0.0
 10
-15.9812044205
 20
-9.3447815293
 30
0.0
 10
-15.9679378096
 20
-9.418050163
 30
0.0
 10
-15.9679378095
 20
-9.4527853275
 30
0.0
 11
-16.1837397496
 21
-9.0875181333
 31
0.0
 11
-16.101150167
 21
-9.1522161429
 31
0.0
 11
-16.0311447345
 21
-9.2443431244
 31
0.0
 11
-15.9843673628
 21
-9.349883167
 31
0.0
 11
-15.9679378095
 21
-9.4527853275
 31
0.0
  0
SPLINE
  5
598
100
AcDbEntity
  8
0
100
AcDbSpline
 62
7
  6
CONTINUOUS
 70
0
 71
3
 72
9
 73
5
 74
3
 42
0.0000001
 43
0.0000001
 44
0.0000000001
 12
0.0000325061
 22
-0.0958059126
 32
0.0
 13
-0.0806486446
 23
-0.0517162456
 33
0.0
 40
0.0
 40
0.0
 40
0.0
 40
0.0
 40
0.4536675621
 40
1.0
 40
1.0
 40
1.0
 40
1.0
 10
-2.6388869771
 20
42.5650730926
 30
0.0
 10
-2.6388820614
 20
42.550585081
 30
0.0
 10
-2.6504449178
 20
42.518484502
 30
0.0
 10
-2.6755713388
 20
42.4972083067
 30
0.0
 10
-2.690258329
 20
42.4877902192
 30
0.0
 11
-2.6388869771
 21
42.5650730926
 31
0.0
 11
-2.6521650221
 21
42.5236869106
 31
0.0
 11
-2.690258329
 21
42.4877902192
 31
0.0
  0
SPLINE
  5
599
100
AcDbEntity
  8
RACCORDO
100
AcDbSpline
 62
7
  6
CONTINUOUS
 70
0
 71
3
 72
11
 73
7
 74
5
 42
0.0000001
 43
0.0000001
 44
0.0000000001
 12
-0.0642601111
 22
0.3798729412
 32
0.0
 13
-0.3336480537
 23
0.1926442046
 33
0.0
 40
0.0
 40
0.0
 40
0.0
 40
0.0
 40
0.2491757214
 40
0.5117855836
 40
0.768099784
 40
1.0
 40
1.0
 40
1.0
 40
1.0
 10
-11.371560605
 20
-71.2532676655
 30
0.0
 10
-11.3768979581
 20
-71.2217159608
 30
0.0
 10
-11.3960191343
 20
-71.1581860842
 30
0.0
 10
-11.4426080539
 20
-71.0705991647
 30
0.0
 10
-11.5035489862
 20
-70.9951415284
 30
0.0
 10
-11.5530825234
 20
-70.9554150123
 30
0.0
 10
-11.5788735419
 20
-70.9405236014
 30
0.0
 11
-11.371560605
 21
-71.2532676655
 31
0.0
 11
-11.3983430701
 21
-71.1610794003
 31
0.0
 11
-11.4457157321
 21
-71.0716794982
 31
0.0
 11
-11.5082613271
 21
-70.9952619968
 31
0.0
 11
-11.5788735419
 21
-70.9405236014
 31
0.0
  0
SPLINE
  5
59A
100
AcDbEntity
  8
RACCORDO
100
AcDbSpline
 62
7
  6
CONTINUOUS
 70
0
 71
3
 72
11
 73
7
 74
5
 42
0.0000001
 43
0.0000001
 44
0.0000000001
 12
-0.1363215866
 22
0.0787103756
 32
0.0
 13
-0.1363216183
 23
-0.0787103206
 33
0.0
 40
0.0
 40
0.0
 40
0.0
 40
0.0
 40
0.2897063967
 40
0.5490922938
 40
0.7822195412
 40
1.0
 40
1.0
 40
1.0
 40
1.0
 10
-6.275572683
 20
-74.0025830514
 30
0.0
 10
-6.2887370949
 20
-73.9949820849
 30
0.0
 10
-6.3149250914
 20
-73.9825222542
 30
0.0
 10
-6.3551770513
 20
-73.9728002348
 30
0.0
 10
-6.3929452658
 20
-73.9737548665
 30
0.0
 10
-6.4156837871
 20
-73.9820067939
 30
0.0
 10
-6.4255798486
 20
-73.9877206504
 30
0.0
 11
-6.275572683
 21
-74.0025830514
 31
0.0
 11
-6.3169467227
 21
-73.9834029387
 31
0.0
 11
-6.3567624357
 21
-73.9743553357
 31
0.0
 11
-6.3934305164
 21
-73.9758192996
 31
0.0
 11
-6.4255798486
 21
-73.9877206504
 31
0.0
  0
SPLINE
  5
59B
100
AcDbEntity
  8
RACCORDO
100
AcDbSpline
 62
7
  6
CONTINUOUS
 70
0
 71
3
 72
11
 73
7
 74
5
 42
0.0000001
 43
0.0000001
 44
0.0000000001
 12
-0.0642601111
 22
0.3798729412
 32
0.0
 13
-0.3336480537
 23
0.1926442046
 33
0.0
 40
0.0
 40
0.0
 40
0.0
 40
0.0
 40
0.2491757214
 40
0.5117855836
 40
0.768099784
 40
1.0
 40
1.0
 40
1.0
 40
1.0
 10
4.5383419717
 20
-80.4394460154
 30
0.0
 10
4.5330046186
 20
-80.4078943107
 30
0.0
 10
4.5138834424
 20
-80.3443644341
 30
0.0
 10
4.4672945228
 20
-80.2567775146
 30
0.0
 10
4.4063535905
 20
-80.1813198783
 30
0.0
 10
4.3568200533
 20
-80.1415933622
 30
0.0
 10
4.3310290348
 20
-80.1267019513
 30
0.0
 11
4.5383419717
 21
-80.4394460154
 31
0.0
 11
4.5115595066
 21
-80.3472577502
 31
0.0
 11
4.4641868446
 21
-80.2578578481
 31
0.0
 11
4.4016412496
 21
-80.1814403467
 31
0.0
 11
4.3310290348
 21
-80.1267019513
 31
0.0
  0
SPLINE
  5
59C
100
AcDbEntity
  8
RACCORDO
100
AcDbSpline
 62
7
  6
CONTINUOUS
 70
0
 71
3
 72
11
 73
7
 74
5
 42
0.0000001
 43
0.0000001
 44
0.0000000001
 12
-0.1363215866
 22
0.0787103756
 32
0.0
 13
-0.1363216183
 23
-0.0787103206
 33
0.0
 40
0.0
 40
0.0
 40
0.0
 40
0.0
 40
0.2897063967
 40
0.5490922938
 40
0.7822195412
 40
1.0
 40
1.0
 40
1.0
 40
1.0
 10
9.6343298937
 20
-83.1887614012
 30
0.0
 10
9.6211654818
 20
-83.1811604348
 30
0.0
 10
9.5949774853
 20
-83.1687006041
 30
0.0
 10
9.5547255254
 20
-83.1589785847
 30
0.0
 10
9.5169573109
 20
-83.1599332164
 30
0.0
 10
9.4942187896
 20
-83.1681851437
 30
0.0
 10
9.4843227281
 20
-83.1738990003
 30
0.0
 11
9.6343298937
 21
-83.1887614012
 31
0.0
 11
9.592955854
 21
-83.1695812886
 31
0.0
 11
9.553140141
 21
-83.1605336855
 31
0.0
 11
9.5164720603
 21
-83.1619976495
 31
0.0
 11
9.4843227281
 21
-83.1738990003
 31
0.0
  0
SPLINE
  5
59D
100
AcDbEntity
  8
0
100
AcDbSpline
 62
7
  6
CONTINUOUS
 70
0
 71
3
 72
11
 73
7
 74
5
 42
0.0000001
 43
0.0000001
 44
0.0000000001
 12
0.1338225329
 22
0.0745702972
 32
0.0
 13
0.132665165
 23
-0.0766104009
 33
0.0
 40
0.0
 40
0.0
 40
0.0
 40
0.0
 40
0.288696822
 40
0.5477157562
 40
0.7812521861
 40
1.0
 40
1.0
 40
1.0
 40
1.0
 10
-9.9488257307
 20
44.0851666172
 30
0.0
 10
-9.9359476841
 20
44.0923426865
 30
0.0
 10
-9.9103484697
 20
44.104055808
 30
0.0
 10
-9.8711038206
 20
44.1129695598
 30
0.0
 10
-9.834322016
 20
44.1116514102
 30
0.0
 10
-9.8121810522
 20
44.1035071691
 30
0.0
 10
-9.8025076472
 20
44.0979210498
 30
0.0
 11
-9.9488257307
 21
44.0851666172
 31
0.0
 11
-9.9084295661
 21
44.1031724602
 31
0.0
 11
-9.8696225167
 21
44.1114537937
 31
0.0
 11
-9.833889722
 21
44.1096760831
 31
0.0
 11
-9.8025076472
 21
44.0979210498
 31
0.0
  0
ELLIPSE
  5
59E
100
AcDbEntity
  8
RACCORDO
100
AcDbEllipse
 62
7
  6
CONTINUOUS
 10
16.1700551832
 20
-90.4267247996
 30
0.0
 11
-0.3501235233
 21
0.606392698
 31
0.0
 40
0.5771558487
 41
-3.1588791223
 42
-2.3563950755
  0
ELLIPSE
  5
59F
100
AcDbEntity
  8
RACCORDO
100
AcDbEllipse
 62
7
  6
CONTINUOUS
 10
16.1700551832
 20
-48.635021981
 30
0.0
 11
-0.3500169276
 21
0.6062080092
 31
0.0
 40
0.5775075436
 41
-2.3560905478
 42
-0.7855988075
  0
ELLIPSE
  5
5A0
100
AcDbEntity
  8
RACCORDO
100
AcDbEllipse
 62
7
  6
CONTINUOUS
 10
-20.0237871407
 20
-27.7371510386
 30
0.0
 11
-0.3501235233
 21
0.606392698
 31
0.0
 40
0.5771558487
 41
-0.7852941622
 42
0.0172857704
  0
ELLIPSE
  5
5A1
100
AcDbEntity
  8
RACCORDO
100
AcDbEllipse
 62
7
  6
CONTINUOUS
 10
-17.760471396
 20
-68.2223041788
 30
0.0
 11
-0.1500072547
 21
0.2598034325
 31
0.0
 40
0.5775075436
 41
0.7855021057
 42
2.355993846
  0
ELLIPSE
  5
5A2
100
AcDbEntity
  8
RACCORDO
100
AcDbEllipse
 62
7
  6
CONTINUOUS
 10
-16.9783841499
 20
-67.7707293903
 30
0.0
 11
-0.1500073079
 21
0.2598034018
 31
0.0
 40
0.5789151826
 41
0.7867191038
 42
2.3547763749
  0
ELLIPSE
  5
5A3
100
AcDbEntity
  8
RACCORDO
100
AcDbEllipse
 62
7
  6
CONTINUOUS
 10
16.1700551832
 20
-32.4573351473
 30
0.0
 11
-0.3501235233
 21
0.606392698
 31
0.0
 40
0.5771558487
 41
-3.1588791223
 42
-2.3563950755
  0
ELLIPSE
  5
5A4
100
AcDbEntity
  8
RACCORDO
100
AcDbEllipse
 62
7
  6
CONTINUOUS
 10
16.1700551832
 20
9.3343676713
 30
0.0
 11
-0.3500169276
 21
0.6062080092
 31
0.0
 40
0.5775075436
 41
-2.3560905478
 42
-0.7855988075
  0
ELLIPSE
  5
5A5
100
AcDbEntity
  8
RACCORDO
100
AcDbEllipse
 62
7
  6
CONTINUOUS
 10
-20.0237871407
 20
30.2322386137
 30
0.0
 11
-0.3501235233
 21
0.606392698
 31
0.0
 40
0.5771558487
 41
-0.7852941622
 42
0.0172857704
  0
ELLIPSE
  5
5A6
100
AcDbEntity
  8
RACCORDO
100
AcDbEllipse
 62
7
  6
CONTINUOUS
 10
-17.760471396
 20
-10.2529145266
 30
0.0
 11
-0.1500072547
 21
0.2598034325
 31
0.0
 40
0.5775075436
 41
0.7855021057
 42
2.355993846
  0
ELLIPSE
  5
5A7
100
AcDbEntity
  8
RACCORDO
100
AcDbEllipse
 62
7
  6
CONTINUOUS
 10
-16.9783841499
 20
-9.801339738
 30
0.0
 11
-0.1500073079
 21
0.2598034018
 31
0.0
 40
0.5789151826
 41
0.7867191038
 42
2.3547763749
  0
ELLIPSE
  5
5A8
100
AcDbEntity
  8
RACCORDO
100
AcDbEllipse
 62
7
  6
CONTINUOUS
 10
16.1700551832
 20
25.512054505
 30
0.0
 11
-0.3501235233
 21
0.606392698
 31
0.0
 40
0.5771558487
 41
-3.1588791223
 42
-2.3563950755
  0
ELLIPSE
  5
5A9
100
AcDbEntity
  8
RACCORDO
100
AcDbEllipse
 62
7
  6
CONTINUOUS
 10
16.1700551832
 20
67.3037573236
 30
0.0
 11
-0.3500169276
 21
0.6062080092
 31
0.0
 40
0.5775075436
 41
-2.3560905478
 42
-0.7855988075
  0
ELLIPSE
  5
5AA
100
AcDbEntity
  8
RACCORDO
100
AcDbEllipse
 62
7
  6
CONTINUOUS
 10
-20.0237871407
 20
88.201628266
 30
0.0
 11
-0.3501235233
 21
0.606392698
 31
0.0
 40
0.5771558487
 41
-0.7852941622
 42
0.0172857704
  0
ELLIPSE
  5
5AB
100
AcDbEntity
  8
RACCORDO
100
AcDbEllipse
 62
7
  6
CONTINUOUS
 10
-17.760471396
 20
47.7164751257
 30
0.0
 11
-0.1500072547
 21
0.2598034325
 31
0.0
 40
0.5775075436
 41
0.7855021057
 42
2.355993846
  0
ELLIPSE
  5
5AC
100
AcDbEntity
  8
RACCORDO
100
AcDbEllipse
 62
7
  6
CONTINUOUS
 10
-16.9783841499
 20
48.1680499143
 30
0.0
 11
-0.1500073079
 21
0.2598034018
 31
0.0
 40
0.5789151826
 41
0.7867191038
 42
2.3547763749
  0
ELLIPSE
  5
5AD
100
AcDbEntity
  8
0
100
AcDbEllipse
 62
7
  6
CONTINUOUS
 10
-16.6700746801
 20
61.0014389892
 30
0.0
 11
-0.1500529453
 21
0.2598034383
 31
0.0
 40
0.5773316475
 41
-3.1502321102
 42
-2.3563951207
  0
ELLIPSE
  5
5AE
100
AcDbEntity
  8
0
100
AcDbEllipse
 62
7
  6
CONTINUOUS
 10
12.3209649896
 20
32.5455660589
 30
0.0
 11
0.2123743771
 21
0.3678550612
 31
0.0
 40
0.5773586895
 41
-2.3535969767
 42
-1.8309336332
  0
ELLIPSE
  5
5AF
100
AcDbEntity
  8
0
100
AcDbEllipse
 62
7
  6
CONTINUOUS
 10
-3.5889375871
 20
41.7317444088
 30
0.0
 11
0.2123743771
 21
0.3678550612
 31
0.0
 40
0.5773586895
 41
-2.3535969767
 42
-1.8309336332
  0
ELLIPSE
  5
5B0
100
AcDbEntity
  8
0
100
AcDbEllipse
 62
7
  6
CONTINUOUS
 10
-15.2497748699
 20
63.4968086325
 30
0.0
 11
0.2008240461
 21
0.1149900593
 31
0.0
 40
0.0035062734
 41
0.0020007819
 42
0.7351275774
  0
ELLIPSE
  5
5B1
100
AcDbEntity
  8
0
100
AcDbEllipse
 62
7
  6
CONTINUOUS
 10
-16.7420196177
 20
49.6123873284
 30
0.0
 11
-0.1500529453
 21
0.2598034383
 31
0.0
 40
0.5773316475
 41
-3.1502321102
 42
-2.3563951207
  0
ELLIPSE
  5
5B2
100
AcDbEntity
  8
0
100
AcDbEllipse
 62
7
  6
CONTINUOUS
 10
-16.7420196177
 20
79.3319054037
 30
0.0
 11
-0.1500529453
 21
0.2598034383
 31
0.0
 40
0.5773316475
 41
-3.1502321102
 42
-2.3563951207
  0
ELLIPSE
  5
5B3
100
AcDbEntity
  8
SUPERFICI
100
AcDbEllipse
 62
7
  6
CONTINUOUS
 10
-15.8576109132
 20
23.3829015046
 30
0.0
 11
0.4247590168
 21
-0.0
 31
0.0
 40
0.57733079
 41
1.8309094725
 42
2.353672532
  0
ELLIPSE
  5
5B4
100
AcDbEntity
  8
SUPERFICI
100
AcDbEllipse
 62
7
  6
CONTINUOUS
 10
-15.8576109132
 20
5.0123202768
 30
0.0
 11
0.4247590168
 21
0.0
 31
0.0
 40
0.57733079
 41
1.8309094725
 42
2.353672532
  0
ELLIPSE
  5
5B5
100
AcDbEntity
  8
SUPERFICI
100
AcDbEllipse
 62
7
  6
CONTINUOUS
 10
-2.8388872941
 20
-15.9688688458
 30
0.0
 11
0.1999995634
 21
0.1164181051
 31
0.0
 40
0.0035896273
 41
-0.7351277754
 42
-0.0020507019
  0
ELLIPSE
  5
5B6
100
AcDbEntity
  8
0
100
AcDbEllipse
 62
7
  6
CONTINUOUS
 10
-15.8576109132
 20
-34.5864881477
 30
0.0
 11
0.4247590168
 21
0.0
 31
0.0
 40
0.57733079
 41
1.8309094725
 42
2.353672532
  0
ELLIPSE
  5
5B7
100
AcDbEntity
  8
0
100
AcDbEllipse
 62
7
  6
CONTINUOUS
 10
-15.8576109132
 20
-52.9570693755
 30
0.0
 11
0.4247590168
 21
-0.0
 31
0.0
 40
0.57733079
 41
1.8309094725
 42
2.353672532
  0
ELLIPSE
  5
5B8
100
AcDbEntity
  8
ASSI
100
AcDbEllipse
 62
7
  6
CONTINUOUS
 10
-2.8388872941
 20
-73.9382584981
 30
0.0
 11
0.1999995634
 21
0.1164181051
 31
0.0
 40
0.0035896273
 41
-0.7351277754
 42
-0.0020507019
  0
ELLIPSE
  5
5B9
100
AcDbEntity
  8
RACCORDO
100
AcDbEllipse
 62
7
  6
CONTINUOUS
 10
-16.6700746801
 20
-42.6902861635
 30
0.0
 11
-0.1500529453
 21
0.2598034383
 31
0.0
 40
0.5773316475
 41
-2.3563951207
 42
-0.7855987939
  0
ELLIPSE
  5
5BA
100
AcDbEntity
  8
RACCORDO
100
AcDbEllipse
 62
7
  6
CONTINUOUS
 10
-16.6700746801
 20
-54.9373403154
 30
0.0
 11
-0.1500529453
 21
0.2598034383
 31
0.0
 40
0.5773316475
 41
-3.1502321102
 42
-2.3563951207
  0
ELLIPSE
  5
5BB
100
AcDbEntity
  8
RACCORDO
100
AcDbEllipse
 62
7
  6
CONTINUOUS
 10
-16.7420196177
 20
-61.1009822047
 30
0.0
 11
-0.1500529453
 21
0.2598034383
 31
0.0
 40
0.5773316475
 41
-2.3563951207
 42
-0.7855987939
  0
ELLIPSE
  5
5BC
100
AcDbEntity
  8
RACCORDO
100
AcDbEllipse
 62
7
  6
CONTINUOUS
 10
-16.7420196177
 20
-66.3263919762
 30
0.0
 11
-0.1500529453
 21
0.2598034383
 31
0.0
 40
0.5773316475
 41
-3.1502321102
 42
-2.3563951207
  0
ELLIPSE
  5
5BD
100
AcDbEntity
  8
RACCORDO
100
AcDbEllipse
 62
7
  6
CONTINUOUS
 10
-16.7420196177
 20
-36.6068739009
 30
0.0
 11
-0.1500529453
 21
0.2598034383
 31
0.0
 40
0.5773316475
 41
-3.1502321102
 42
-2.3563951207
  0
ELLIPSE
  5
5BE
100
AcDbEntity
  8
ASSI
100
AcDbEllipse
 62
7
  6
CONTINUOUS
 10
-3.5889375871
 20
-74.2070348958
 30
0.0
 11
0.2123743771
 21
0.3678550612
 31
0.0
 40
0.5773586895
 41
-2.3535936561
 42
-1.8309336332
  0
ELLIPSE
  5
5BF
100
AcDbEntity
  8
ASSI
100
AcDbEllipse
 62
7
  6
CONTINUOUS
 10
-6.9547357044
 20
-71.0789272995
 30
0.0
 11
0.1082601067
 21
0.1683382284
 31
0.0
 40
0.6067084637
 41
0.7621560142
 42
0.8145158917
  0
ELLIPSE
  5
5C0
100
AcDbEntity
  8
ASSI
100
AcDbEllipse
 62
7
  6
CONTINUOUS
 10
12.3209649896
 20
-83.3932132456
 30
0.0
 11
0.2123743771
 21
0.3678550612
 31
0.0
 40
0.5773586895
 41
-2.3535936561
 42
-1.8309336332
  0
ELLIPSE
  5
5C1
100
AcDbEntity
  8
ASSI
100
AcDbEllipse
 62
7
  6
CONTINUOUS
 10
8.9551668723
 20
-80.2651056494
 30
0.0
 11
0.1082601067
 21
0.1683382284
 31
0.0
 40
0.6067084637
 41
0.7621560142
 42
0.8145158917
  0
ELLIPSE
  5
5C2
100
AcDbEntity
  8
0
100
AcDbEllipse
 62
7
  6
CONTINUOUS
 10
-14.8315647354
 20
-57.4358592294
 30
0.0
 11
0.1999154856
 21
0.0095814127
 31
0.0
 40
0.6067642562
 41
-0.8144705522
 42
-0.7621106746
  0
ELLIPSE
  5
5C3
100
AcDbEntity
  8
0
100
AcDbEllipse
 62
7
  6
CONTINUOUS
 10
-15.2497748699
 20
-52.4419706721
 30
0.0
 11
0.2008240461
 21
0.1149900593
 31
0.0
 40
0.0035062734
 41
0.0019064971
 42
0.7351275774
  0
ELLIPSE
  5
5C4
100
AcDbEntity
  8
0
100
AcDbEllipse
 62
7
  6
CONTINUOUS
 10
-15.8576109132
 20
62.9817099291
 30
0.0
 11
0.4247590168
 21
0.0
 31
0.0
 40
0.57733079
 41
1.8309094725
 42
2.3536692012
  0
ELLIPSE
  5
5C5
100
AcDbEntity
  8
0
100
AcDbEllipse
 62
7
  6
CONTINUOUS
 10
-15.8576109132
 20
81.3522911569
 30
0.0
 11
0.4247590168
 21
0.0
 31
0.0
 40
0.57733079
 41
1.8309094725
 42
2.3536692012
  0
ELLIPSE
  5
5C6
100
AcDbEntity
  8
SUPERFICI
100
AcDbEllipse
 62
7
  6
CONTINUOUS
 10
-16.6700746801
 20
15.2791034888
 30
0.0
 11
-0.1500529453
 21
0.2598034383
 31
0.0
 40
0.5773316475
 41
-2.3563951207
 42
-0.7855987939
  0
ELLIPSE
  5
5C7
100
AcDbEntity
  8
SUPERFICI
100
AcDbEllipse
 62
7
  6
CONTINUOUS
 10
-16.6700746801
 20
3.0320493369
 30
0.0
 11
-0.1500529453
 21
0.2598034383
 31
0.0
 40
0.5773316475
 41
-3.1502321102
 42
-2.3563951207
  0
ELLIPSE
  5
5C8
100
AcDbEntity
  8
SUPERFICI
100
AcDbEllipse
 62
7
  6
CONTINUOUS
 10
-16.7420196177
 20
-3.1315925524
 30
0.0
 11
-0.1500529453
 21
0.2598034383
 31
0.0
 40
0.5773316475
 41
-2.3563951207
 42
-0.7855987939
  0
ELLIPSE
  5
5C9
100
AcDbEntity
  8
SUPERFICI
100
AcDbEllipse
 62
7
  6
CONTINUOUS
 10
-16.7420196177
 20
-8.3570023239
 30
0.0
 11
-0.1500529453
 21
0.2598034383
 31
0.0
 40
0.5773316475
 41
-3.1502321102
 42
-2.3563951207
  0
ELLIPSE
  5
5CA
100
AcDbEntity
  8
SUPERFICI
100
AcDbEllipse
 62
7
  6
CONTINUOUS
 10
-16.7420196177
 20
21.3625157514
 30
0.0
 11
-0.1500529453
 21
0.2598034383
 31
0.0
 40
0.5773316475
 41
-3.1502321102
 42
-2.3563951207
  0
ELLIPSE
  5
5CB
100
AcDbEntity
  8
0
100
AcDbEllipse
 62
7
  6
CONTINUOUS
 10
-14.8315647354
 20
76.873501303
 30
0.0
 11
0.1999154856
 21
0.0095814127
 31
0.0
 40
0.6067642562
 41
-0.8144705522
 42
-0.7621106746
  0
ELLIPSE
  5
5CC
100
AcDbEntity
  8
0
100
AcDbEllipse
 62
7
  6
CONTINUOUS
 10
-16.7420196177
 20
54.8377970999
 30
0.0
 11
-0.1500529453
 21
0.2598034383
 31
0.0
 40
0.5773316475
 41
-2.3563951207
 42
-0.7855987939
  0
ELLIPSE
  5
5CD
100
AcDbEntity
  8
SUPERFICI
100
AcDbEllipse
 62
7
  6
CONTINUOUS
 10
-15.2497748699
 20
5.5274189802
 30
0.0
 11
0.2008240461
 21
0.1149900593
 31
0.0
 40
0.0035062734
 41
0.0019064971
 42
0.7351275774
  0
ELLIPSE
  5
5CE
100
AcDbEntity
  8
0
100
AcDbEllipse
 62
7
  6
CONTINUOUS
 10
-16.6700746801
 20
73.2484931411
 30
0.0
 11
-0.1500529453
 21
0.2598034383
 31
0.0
 40
0.5773316475
 41
-2.3563951207
 42
-0.7855987939
  0
ELLIPSE
  5
5CF
100
AcDbEntity
  8
SUPERFICI
100
AcDbEllipse
 62
7
  6
CONTINUOUS
 10
-3.5889375871
 20
-16.2376452435
 30
0.0
 11
0.2123743771
 21
0.3678550612
 31
0.0
 40
0.5773586895
 41
-2.3535936561
 42
-1.8309336332
  0
ELLIPSE
  5
5D0
100
AcDbEntity
  8
SUPERFICI
100
AcDbEllipse
 62
7
  6
CONTINUOUS
 10
12.3209649896
 20
-25.4238235934
 30
0.0
 11
0.2123743771
 21
0.3678550612
 31
0.0
 40
0.5773586895
 41
-2.3535936561
 42
-1.8309336332
  0
ELLIPSE
  5
5D1
100
AcDbEntity
  8
0
100
AcDbEllipse
 62
7
  6
CONTINUOUS
 10
-2.8388872941
 20
42.0005208065
 30
0.0
 11
0.1999995634
 21
0.1164181051
 31
0.0
 40
0.0035896273
 41
-0.7351277754
 42
-0.0019562056
  0
ELLIPSE
  5
5D2
100
AcDbEntity
  8
0
100
AcDbEllipse
 62
7
  6
CONTINUOUS
 10
-14.8315647354
 20
-52.519921811
 30
0.0
 11
0.1999444062
 21
-0.00862956
 31
0.0
 40
0.5464172455
 41
-0.7618192766
 42
-0.709459399
  0
ELLIPSE
  5
5D3
100
AcDbEntity
  8
RACCORDO
100
AcDbEllipse
 62
7
  6
CONTINUOUS
 10
-17.6773038065
 20
-61.6224747786
 30
0.0
 11
-0.1500529453
 21
0.2598034383
 31
0.0
 40
0.5773316475
 41
-2.3563951207
 42
-1.133859984
  0
ELLIPSE
  5
5D4
100
AcDbEntity
  8
SUPERFICI
100
AcDbEllipse
 62
7
  6
CONTINUOUS
 10
-17.2456341809
 20
2.7111308299
 30
0.0
 11
-0.1500529453
 21
0.2598034383
 31
0.0
 40
0.5773316475
 41
2.6173821284
 42
3.9267901865
  0
ELLIPSE
  5
5D5
100
AcDbEntity
  8
SUPERFICI
100
AcDbEllipse
 62
7
  6
CONTINUOUS
 10
-17.6773038065
 20
20.8410231775
 30
0.0
 11
-0.1500529453
 21
0.2598034383
 31
0.0
 40
0.5773316475
 41
2.3559938597
 42
3.9267901865
  0
ELLIPSE
  5
5D6
100
AcDbEntity
  8
SUPERFICI
100
AcDbEllipse
 62
7
  6
CONTINUOUS
 10
-17.6773038065
 20
-8.8784948978
 30
0.0
 11
-0.1500529453
 21
0.2598034383
 31
0.0
 40
0.5773316475
 41
2.3559938597
 42
3.9267901865
  0
ELLIPSE
  5
5D7
100
AcDbEntity
  8
SUPERFICI
100
AcDbEllipse
 62
7
  6
CONTINUOUS
 10
-17.2456341809
 20
14.9581849818
 30
0.0
 11
-0.1500529453
 21
0.2598034383
 31
0.0
 40
0.5773316475
 41
-2.3563951207
 42
-1.0469870627
  0
ELLIPSE
  5
5D8
100
AcDbEntity
  8
RACCORDO
100
AcDbEllipse
 62
7
  6
CONTINUOUS
 10
-17.6773038065
 20
-37.1283664748
 30
0.0
 11
-0.1500529453
 21
0.2598034383
 31
0.0
 40
0.5773316475
 41
2.3559938597
 42
3.9267901865
  0
ELLIPSE
  5
5D9
100
AcDbEntity
  8
RACCORDO
100
AcDbEllipse
 62
7
  6
CONTINUOUS
 10
-17.6773038065
 20
-66.8478845501
 30
0.0
 11
-0.1500529453
 21
0.2598034383
 31
0.0
 40
0.5773316475
 41
2.3559938597
 42
3.9267901865
  0
ELLIPSE
  5
5DA
100
AcDbEntity
  8
SUPERFICI
100
AcDbEllipse
 62
7
  6
CONTINUOUS
 10
-17.6773038065
 20
-3.6530851263
 30
0.0
 11
-0.1500529453
 21
0.2598034383
 31
0.0
 40
0.5773316475
 41
-2.3563951207
 42
-1.133859984
  0
ELLIPSE
  5
5DB
100
AcDbEntity
  8
RACCORDO
100
AcDbEllipse
 62
7
  6
CONTINUOUS
 10
-17.2456341809
 20
-55.2582588224
 30
0.0
 11
-0.1500529453
 21
0.2598034383
 31
0.0
 40
0.5773316475
 41
2.6173821284
 42
3.9267901865
  0
ELLIPSE
  5
5DC
100
AcDbEntity
  8
0
100
AcDbEllipse
 62
7
  6
CONTINUOUS
 10
-17.2456341809
 20
72.9275746341
 30
0.0
 11
-0.1500529453
 21
0.2598034383
 31
0.0
 40
0.5773316475
 41
-2.3563951207
 42
-1.0469870627
  0
ELLIPSE
  5
5DD
100
AcDbEntity
  8
0
100
AcDbEllipse
 62
7
  6
CONTINUOUS
 10
-17.2456341809
 20
60.6805204822
 30
0.0
 11
-0.1500529453
 21
0.2598034383
 31
0.0
 40
0.5773316475
 41
2.6173821284
 42
3.9267901865
  0
ELLIPSE
  5
5DE
100
AcDbEntity
  8
0
100
AcDbEllipse
 62
7
  6
CONTINUOUS
 10
-17.6773038065
 20
78.8104128297
 30
0.0
 11
-0.1500529453
 21
0.2598034383
 31
0.0
 40
0.5773316475
 41
2.3559938597
 42
3.9267901865
  0
ELLIPSE
  5
5DF
100
AcDbEntity
  8
0
100
AcDbEllipse
 62
7
  6
CONTINUOUS
 10
-17.6773038065
 20
54.316304526
 30
0.0
 11
-0.1500529453
 21
0.2598034383
 31
0.0
 40
0.5773316475
 41
-2.3563951207
 42
-1.133859984
  0
ELLIPSE
  5
5E0
100
AcDbEntity
  8
0
100
AcDbEllipse
 62
7
  6
CONTINUOUS
 10
-17.6773038065
 20
49.0908947545
 30
0.0
 11
-0.1500529453
 21
0.2598034383
 31
0.0
 40
0.5773316475
 41
2.3559938597
 42
3.9267901865
  0
ELLIPSE
  5
5E1
100
AcDbEntity
  8
RACCORDO
100
AcDbEllipse
 62
7
  6
CONTINUOUS
 10
-17.2456341809
 20
-43.0112046705
 30
0.0
 11
-0.1500529453
 21
0.2598034383
 31
0.0
 40
0.5773316475
 41
-2.3563951207
 42
-1.0469870627
  0
ELLIPSE
  5
5E2
100
AcDbEntity
  8
ASSI
100
AcDbEllipse
 62
7
  6
CONTINUOUS
 10
-2.6972718588
 20
-73.5371335654
 30
0.0
 11
0.0925036689
 21
0.1774691851
 31
0.0
 40
0.5463614449
 41
0.709509901
 42
0.7618697785
  0
ENDSEC
  0
SECTION
  2
OBJECTS
  0
DICTIONARY
  5
C
100
AcDbDictionary
280
0
281
1
  3
ACAD_GROUP
350
D
  3
ACAD_MLINESTYLE
350
17
  3
ACAD_LAYOUT
350
1A
  3
ACAD_PLOTSETTINGS
350
19
  3
ACAD_PLOTSTYLENAME
350
E
  0
DICTIONARY
  5
D
102
{ACAD_REACTORS
330
C
102
}
100
AcDbDictionary
280
0
281
1
  0
ACDBDICTIONARYWDFLT
  5
E
102
{ACAD_REACTORS
330
C
102
}
100
AcDbDictionary
281
1
  3
Normal
350
F
100
AcDbDictionaryWithDefault
340
F
  0
DICTIONARY
  5
17
102
{ACAD_REACTORS
330
C
102
}
100
AcDbDictionary
280
0
281
1
  3
Standard
350
18
  0
DICTIONARY
  5
19
102
{ACAD_REACTORS
330
C
102
}
100
AcDbDictionary
281
1
  0
DICTIONARY
  5
1A
102
{ACAD_REACTORS
330
C
102
}
100
AcDbDictionary
281
1
  3
Model
350
5E3
  3
Layout1
350
5E4
  0
ACDBPLACEHOLDER
  5
F
102
{ACAD_REACTORS
330
E
102
}
  0
MLINESTYLE
  5
18
102
{ACAD_REACTORS
330
17
102
}
100
AcDbMlineStyle
  2
STANDARD
 70
0
  3

 62
256
 51
90.0
 52
90.0
 71
2
 49
0.5
 62
256
  6
BYLAYER
 49
-0.5
 62
256
  6
BYLAYER
  0
LAYOUT
  5
5E3
102
{ACAD_REACTORS
330
1A
102
}
100
AcDbPlotSettings
  1

  2
none_device
  4
ISO_A4_(297.00_x_210.00_MM)
  6

 40
0.0
 41
0.0
 42
0.0
 43
0.0
 44
297.0
 45
210.0
 46
0.0
 47
0.0
 48
0.0
 49
0.0
140
0.0
141
0.0
142
1.0
143
1.0
 70
1024
 72
1
 73
0
 74
0
  7

 75
0
147
1.0
148
0.0
149
0.0
100
AcDbLayout
  1
Model
 70
0
 71
0
 10
0.0
 20
0.0
 11
297.0
 21
210.0
 12
0.0
 22
0.0
 32
0.0
 14
0.0
 24
0.0
 34
0.0
 15
0.0
 25
0.0
 35
0.0
146
0.0
 13
0.0
 23
0.0
 33
0.0
 16
1.0
 26
0.0
 36
0.0
 17
0.0
 27
1.0
 37
0.0
 76
0
330
215
345
0
346
0
  0
LAYOUT
  5
5E4
102
{ACAD_REACTORS
330
1A
102
}
100
AcDbPlotSettings
  1

  2
none_device
  4
ISO_A4_(297.00_x_210.00_MM)
  6

 40
0.0
 41
0.0
 42
0.0
 43
0.0
 44
297.0
 45
210.0
 46
0.0
 47
0.0
 48
0.0
 49
0.0
140
0.0
141
0.0
142
1.0
143
1.0
 70
0
 72
1
 73
0
 74
0
  7

 75
0
147
1.0
148
0.0
149
0.0
100
AcDbLayout
  1
Layout1
 70
0
 71
1
 10
0.0
 20
0.0
 11
297.0
 21
210.0
 12
0.0
 22
0.0
 32
0.0
 14
0.0
 24
0.0
 34
0.0
 15
0.0
 25
0.0
 35
0.0
146
0.0
 13
0.0
 23
0.0
 33
0.0
 16
1.0
 26
0.0
 36
0.0
 17
0.0
 27
1.0
 37
0.0
 76
0
330
216
345
0
346
0
  0
ENDSEC
  0
EOF
