  0
SECTION
  2
HEADER
  9
$ACADVER
  1
AC1015
  9
$DWGCODEPAGE
  3
ANSI_1252
  9
$EXTMAX
 10
297.0
 20
210.0
 30
0.0
  9
$EXTMIN
 10
0.0
 20
0.0
 30
0.0
  9
$LIMMIN
 10
0.0
 20
0.0
  9
$LIMMAX
 10
297.0
 20
210.0
  9
$VIEWCTR
 10
148.5
 20
105.0
  9
$VIEWSIZE
 40
210.0
  9
$CLAYER
  8
0
  9
$LTSCALE
 40
16.335
  9
$CELTYPE
  6
BYLAYER
  9
$DIMSCALE
 40
1.0
  9
$DIMASZ
 40
3.0
  9
$DIMEXO
 40
1.85625
  9
$DIMDLI
 40
11.286
  9
$DIMEXE
 40
5.346
  9
$DIMCEN
 40
2.673
  9
$DIMLFAC
 40
1.0
  9
$DIMBLK
  1
_FILLED
  9
$DIMTXT
 40
3.0
  9
$DIMTOL
 70
1
  9
$DIMLIM
 70
0
  9
$DIMTFAC
 40
1.0
  9
$DIMTP
 40
0.01
  9
$DIMTM
 40
0.01
  9
$PDMODE
 70
3
  9
$PDSIZE
 40
3.0
  9
$HANDSEED
  5
5F1
  9
$TILEMODE
 70
1
  9
$MEASUREMENT
 70
1
  9
$INSUNITS
 70
4
  0
ENDSEC
  0
SECTION
  2
CLASSES
  0
CLASS
  1
ACDBDICTIONARYWDFLT
  2
AcDbDictionaryWithDefault
  3
AutoCAD 2000
 90
0
280
0
281
0
  0
CLASS
  1
ACDBPLACEHOLDER
  2
AcDbPlaceHolder
  3
AutoCAD 2000
 90
0
280
0
281
0
  0
CLASS
  1
LAYOUT
  2
AcDbLayout
  3
AutoCAD 2000
 90
0
280
0
281
0
  0
ENDSEC
  0
SECTION
  2
TABLES
  0
TABLE
  2
VPORT
  5
8
100
AcDbSymbolTable
 70
2
  0
VPORT
  5
1F4
100
AcDbSymbolTableRecord
100
AcDbViewportTableRecord
  2
*ACTIVE
 70
0
 10
0.0
 20
0.0
 11
1.0
 21
1.0
 12
148.5
 22
105.0
 13
0.0
 23
0.0
 14
1.0
 24
1.0
 15
0.0
 25
0.0
 16
0.0
 26
0.0
 36
1.0
 17
0.0
 27
0.0
 37
0.0
 40
210.0
 41
1.4142857143
 42
50.0
 43
0.0
 44
0.0
 50
0.0
 51
0.0
 71
0
 72
100
 73
1
 74
1
 75
0
 76
0
 77
0
 78
0
  0
ENDTAB
  0
TABLE
  2
LTYPE
  5
5
100
AcDbSymbolTable
 70
6
  0
LTYPE
  5
14
100
AcDbSymbolTableRecord
100
AcDbLinetypeTableRecord
  2
BYBLOCK
 70
0
  3

 72
65
 73
0
 40
0.0
  0
LTYPE
  5
15
100
AcDbSymbolTableRecord
100
AcDbLinetypeTableRecord
  2
BYLAYER
 70
0
  3

 72
65
 73
0
 40
0.0
  0
LTYPE
  5
16
100
AcDbSymbolTableRecord
100
AcDbLinetypeTableRecord
  2
CONTINUOUS
 70
64
  3
Solid line
 72
65
 73
0
 40
0.0
  0
LTYPE
  5
1F5
100
AcDbSymbolTableRecord
100
AcDbLinetypeTableRecord
  2
CENTER
 70
64
  3
____ _ ____ _ ____ _ ____ _ ____ _ ____ _ ____
 72
65
 73
4
 40
0.6
 49
0.375
 74
0
 49
-0.075
 74
0
 49
0.075
 74
0
 49
-0.075
 74
0
  0
LTYPE
  5
1F6
100
AcDbSymbolTableRecord
100
AcDbLinetypeTableRecord
  2
HIDDEN
 70
64
  3
- - - - - - - - - - - - - - - - - - - -
 72
65
 73
2
 40
0.2
 49
0.1
 74
0
 49
-0.1
 74
0
  0
LTYPE
  5
1F7
100
AcDbSymbolTableRecord
100
AcDbLinetypeTableRecord
  2
PHANTOM
 70
64
  3
_____ _ _ _____ _ _ _____ _ _ _____
 72
65
 73
6
 40
0.8
 49
0.45
 74
0
 49
-0.05
 74
0
 49
0.1
 74
0
 49
-0.05
 74
0
 49
0.1
 74
0
 49
-0.05
 74
0
  0
LTYPE
  5
1F8
100
AcDbSymbolTableRecord
100
AcDbLinetypeTableRecord
  2
DOT
 70
64
  3
. . . . . . . . . . . . . . . . . . . .
 72
65
 73
2
 40
0.2
 49
0.1
 74
0
 49
-0.1
 74
0
  0
LTYPE
  5
1F9
100
AcDbSymbolTableRecord
100
AcDbLinetypeTableRecord
  2
DASHED
 70
64
  3
- - - - - - - - - - - - - - - - - - - -
 72
65
 73
2
 40
0.2
 49
0.1
 74
0
 49
-0.1
 74
0
  0
ENDTAB
  0
TABLE
  2
LAYER
  5
2
100
AcDbSymbolTable
 70
36
  0
LAYER
  5
10
100
AcDbSymbolTableRecord
100
AcDbLayerTableRecord
  2
0
 70
0
 62
7
  6
CONTINUOUS
370
-3
390
F
  0
LAYER
  5
1FA
100
AcDbSymbolTableRecord
100
AcDbLayerTableRecord
  2
DEFAULT_1
 70
0
 62
7
  6
CENTER
370
-3
390
F
  0
LAYER
  5
1FB
100
AcDbSymbolTableRecord
100
AcDbLayerTableRecord
  2
DEFAULT_2
 70
0
 62
7
  6
HIDDEN
370
-3
390
F
  0
LAYER
  5
1FC
100
AcDbSymbolTableRecord
100
AcDbLayerTableRecord
  2
DEFAULT_3
 70
0
 62
7
  6
PHANTOM
370
-3
390
F
  0
LAYER
  5
1FD
100
AcDbSymbolTableRecord
100
AcDbLayerTableRecord
  2
ASSI
 70
0
 62
7
  6
CONTINUOUS
370
-3
390
F
  0
LAYER
  5
1FE
100
AcDbSymbolTableRecord
100
AcDbLayerTableRecord
  2
COORDINATE
 70
0
 62
7
  6
CONTINUOUS
370
-3
390
F
  0
LAYER
  5
1FF
100
AcDbSymbolTableRecord
100
AcDbLayerTableRecord
  2
COORD_ORIGINE
 70
0
 62
7
  6
CONTINUOUS
370
-3
390
F
  0
LAYER
  5
200
100
AcDbSymbolTableRecord
100
AcDbLayerTableRecord
  2
COPY_PUBLISH
 70
0
 62
7
  6
CONTINUOUS
370
-3
390
F
  0
LAYER
  5
201
100
AcDbSymbolTableRecord
100
AcDbLayerTableRecord
  2
COSMETIC
 70
0
 62
7
  6
CONTINUOUS
370
-3
390
F
  0
LAYER
  5
202
100
AcDbSymbolTableRecord
100
AcDbLayerTableRecord
  2
COSMETICI
 70
0
 62
7
  6
CONTINUOUS
370
-3
390
F
  0
LAYER
  5
203
100
AcDbSymbolTableRecord
100
AcDbLayerTableRecord
  2
CURVE
 70
0
 62
7
  6
CONTINUOUS
370
-3
390
F
  0
LAYER
  5
204
100
AcDbSymbolTableRecord
100
AcDbLayerTableRecord
  2
DRAFT
 70
0
 62
7
  6
CONTINUOUS
370
-3
390
F
  0
LAYER
  5
205
100
AcDbSymbolTableRecord
100
AcDbLayerTableRecord
  2
IMPORT_IGES
 70
0
 62
7
  6
CONTINUOUS
370
-3
390
F
  0
LAYER
  5
206
100
AcDbSymbolTableRecord
100
AcDbLayerTableRecord
  2
INTFCLR_2
 70
0
 62
7
  6
CONTINUOUS
370
-3
390
F
  0
LAYER
  5
207
100
AcDbSymbolTableRecord
100
AcDbLayerTableRecord
  2
NOTE
 70
0
 62
7
  6
CONTINUOUS
370
-3
390
F
  0
LAYER
  5
208
100
AcDbSymbolTableRecord
100
AcDbLayerTableRecord
  2
PIANI
 70
0
 62
7
  6
CONTINUOUS
370
-3
390
F
  0
LAYER
  5
209
100
AcDbSymbolTableRecord
100
AcDbLayerTableRecord
  2
PIANI_ORIGINE
 70
0
 62
7
  6
CONTINUOUS
370
-3
390
F
  0
LAYER
  5
20A
100
AcDbSymbolTableRecord
100
AcDbLayerTableRecord
  2
PIANI_RIFERIMENTO
 70
0
 62
7
  6
CONTINUOUS
370
-3
390
F
  0
LAYER
  5
20B
100
AcDbSymbolTableRecord
100
AcDbLayerTableRecord
  2
PUNTI
 70
0
 62
7
  6
CONTINUOUS
370
-3
390
F
  0
LAYER
  5
20C
100
AcDbSymbolTableRecord
100
AcDbLayerTableRecord
  2
RACCORDO
 70
0
 62
7
  6
CONTINUOUS
370
-3
390
F
  0
LAYER
  5
20D
100
AcDbSymbolTableRecord
100
AcDbLayerTableRecord
  2
SIMBOLI
 70
0
 62
7
  6
CONTINUOUS
370
-3
390
F
  0
LAYER
  5
20E
100
AcDbSymbolTableRecord
100
AcDbLayerTableRecord
  2
SMUSSO
 70
0
 62
7
  6
CONTINUOUS
370
-3
390
F
  0
LAYER
  5
20F
100
AcDbSymbolTableRecord
100
AcDbLayerTableRecord
  2
SNAPLINE
 70
0
 62
7
  6
CONTINUOUS
370
-3
390
F
  0
LAYER
  5
210
100
AcDbSymbolTableRecord
100
AcDbLayerTableRecord
  2
SUPERFICI
 70
0
 62
7
  6
CONTINUOUS
370
-3
390
F
  0
LAYER
  5
211
100
AcDbSymbolTableRecord
100
AcDbLayerTableRecord
  2
TRASH
 70
0
 62
7
  6
CONTINUOUS
370
-3
390
F
  0
LAYER
  5
212
100
AcDbSymbolTableRecord
100
AcDbLayerTableRecord
  2
XSEC_DATUMS
 70
0
 62
7
  6
CONTINUOUS
370
-3
390
F
  0
ENDTAB
  0
TABLE
  2
STYLE
  5
3
100
AcDbSymbolTable
 70
1
  0
STYLE
  5
11
100
AcDbSymbolTableRecord
100
AcDbTextStyleTableRecord
  2
STANDARD
 70
0
 40
0.0
 41
0.8
 50
0.0
 71
0
 42
0.2
  3
txt
  4

  0
STYLE
  5
213
100
AcDbSymbolTableRecord
100
AcDbTextStyleTableRecord
  2
TEXTSTYLE_1
 70
0
 40
0.0
 41
0.8
 50
0.0
 71
0
 42
0.2
  3
gdt
  4

  0
ENDTAB
  0
TABLE
  2
VIEW
  5
6
100
AcDbSymbolTable
 70
0
  0
ENDTAB
  0
TABLE
  2
UCS
  5
7
100
AcDbSymbolTable
 70
0
  0
ENDTAB
  0
TABLE
  2
APPID
  5
9
100
AcDbSymbolTable
 70
1
  0
APPID
  5
214
100
AcDbSymbolTableRecord
100
AcDbRegAppTableRecord
  2
ACAD
 70
0
  0
ENDTAB
  0
TABLE
  2
BLOCK_RECORD
  5
1
100
AcDbSymbolTable
 70
0
  0
BLOCK_RECORD
  5
215
100
AcDbSymbolTableRecord
100
AcDbBlockTableRecord
  2
*Model_Space
  0
BLOCK_RECORD
  5
216
100
AcDbSymbolTableRecord
100
AcDbBlockTableRecord
  2
*Paper_Space
  0
ENDTAB
  0
TABLE
  2
DIMSTYLE
  5
A
100
AcDbSymbolTable
 70
1
100
AcDbDimStyleTable
 71
0
  0
DIMSTYLE
105
217
100
AcDbSymbolTableRecord
100
AcDbDimStyleTableRecord
  2
STANDARD
 70
0
  3

  4

 40
1.0
 41
3.0
 42
0.0625
 43
0.38
 44
0.18
 45
0.0
 46
0.0
 47
0.01
 48
0.01
140
3.0
141
0.09
142
0.0
143
25.4
144
1.0
145
0.0
146
1.0
147
0.09
 71
1.0
 72
0.0
 73
0
 74
0
 75
0
 76
0
 77
1
 78
8
170
0
171
2
172
0
173
0
174
0
175
0
176
0
177
0
178
0
270
2
271
2
272
2
273
2
274
2
275
0
280
0
281
0
282
0
283
1
284
8
285
0
286
0
287
3
288
0
340
11
  0
ENDTAB
  0
ENDSEC
  0
SECTION
  2
BLOCKS
  0
BLOCK
  5
20
100
AcDbEntity
  8
0
100
AcDbBlockBegin
  2
*Model_Space
 70
0
 10
0.0
 20
0.0
 30
0.0
  3
*Model_Space
  1

  0
ENDBLK
  5
21
100
AcDbEntity
  8
0
100
AcDbBlockEnd
  0
BLOCK
  5
1C
100
AcDbEntity
  8
0
100
AcDbBlockBegin
  2
*Paper_Space
 70
0
 10
0.0
 20
0.0
 30
0.0
  3
*Paper_Space
  1

  0
ENDBLK
  5
1D
100
AcDbEntity
  8
0
100
AcDbBlockEnd
  0
ENDSEC
  0
SECTION
  2
ENTITIES
  0
LINE
  5
218
100
AcDbEntity
  8
DRAFT
100
AcDbLine
 62
7
  6
CONTINUOUS
 10
-32.9586606631
 20
116.0846459406
 11
-31.2885704426
 21
117.0971387826
  0
LINE
  5
219
100
AcDbEntity
  8
DRAFT
100
AcDbLine
 62
7
  6
CONTINUOUS
 10
-32.2205565914
 20
116.0176941958
 11
-30.5293352787
 21
117.0282702849
  0
LINE
  5
21A
100
AcDbEntity
  8
RACCORDO
100
AcDbLine
 62
7
  6
CONTINUOUS
 10
-35.5901981765
 20
114.9343659016
 11
-33.8224312236
 21
115.9550523849
  0
LINE
  5
21B
100
AcDbEntity
  8
SMUSSO
100
AcDbLine
 62
7
  6
CONTINUOUS
 10
-35.0901740164
 20
114.8848247239
 11
-33.3224070634
 21
115.9055112072
  0
LINE
  5
21C
100
AcDbEntity
  8
SMUSSO
100
AcDbLine
 62
7
  6
CONTINUOUS
 10
30.2464925653
 20
-116.6698703201
 11
31.6607061276
 21
-116.6698703201
  0
LINE
  5
21D
100
AcDbEntity
  8
DRAFT
100
AcDbLine
 62
7
  6
CONTINUOUS
 10
33.4284730806
 20
-114.7510231319
 11
34.0765391061
 21
-114.7510231306
  0
LINE
  5
21E
100
AcDbEntity
  8
SMUSSO
100
AcDbLine
 62
7
  6
CONTINUOUS
 10
-35.7972807976
 20
113.6600798538
 11
-35.0901740164
 21
114.8848247239
  0
LINE
  5
21F
100
AcDbEntity
  8
DRAFT
100
AcDbLine
 62
7
  6
CONTINUOUS
 10
-32.5445896041
 20
115.456452555
 11
-32.2205565914
 21
116.0176941958
  0
LWPOLYLINE
  5
220
100
AcDbEntity
  8
RACCORDO
100
AcDbPolyline
 62
7
  6
CONTINUOUS
 90
13
 70
0
 10
-21.5163239249
 20
88.2456533351
 10
-21.5416104158
 20
88.2287796178
 10
-21.5724944579
 20
88.2043813002
 10
-21.6016755772
 20
88.176670004
 10
-21.6288424427
 20
88.1456617164
 10
-21.6536106677
 20
88.1115190373
 10
-21.6755911475
 20
88.0745361638
 10
-21.6945624443
 20
88.0348465606
 10
-21.7103003777
 20
87.9926643647
 10
-21.7225953899
 20
87.9483895221
 10
-21.7313566775
 20
87.9022272346
 10
-21.7365186281
 20
87.8542339432
 10
-21.7380337472
 20
87.8094264131
  0
LINE
  5
221
100
AcDbEntity
  8
RACCORDO
100
AcDbLine
 62
7
  6
CONTINUOUS
 10
-21.5165189466
 20
88.2455400278
 11
-21.2334539295
 21
88.4205916804
  0
LINE
  5
222
100
AcDbEntity
  8
RACCORDO
100
AcDbLine
 62
7
  6
CONTINUOUS
 10
-21.1589463682
 20
88.2154252362
 11
-20.8774031016
 21
88.3895358155
  0
LINE
  5
223
100
AcDbEntity
  8
SMUSSO
100
AcDbLine
 62
7
  6
CONTINUOUS
 10
30.2464925653
 20
-116.6698703201
 11
30.9535993464
 21
-117.0780660035
  0
LINE
  5
224
100
AcDbEntity
  8
SMUSSO
100
AcDbLine
 62
7
  6
CONTINUOUS
 10
-35.7972807976
 20
-78.5370233033
 11
30.2464925653
 21
-116.6698703201
  0
LINE
  5
225
100
AcDbEntity
  8
DRAFT
100
AcDbLine
 62
7
  6
CONTINUOUS
 10
-16.6753003754
 20
78.7785966054
 11
-17.2113394835
 21
78.4348595189
  0
LINE
  5
226
100
AcDbEntity
  8
0
100
AcDbLine
 62
7
  6
CONTINUOUS
 10
-14.1598132933
 20
77.195634875
 11
-16.6346870274
 21
75.6169109192
  0
LINE
  5
227
100
AcDbEntity
  8
0
100
AcDbLine
 62
7
  6
CONTINUOUS
 10
-16.6753003754
 20
75.1764667059
 11
-16.6346870274
 21
75.2015792072
  0
LINE
  5
228
100
AcDbEntity
  8
0
100
AcDbLine
 62
7
  6
CONTINUOUS
 10
-14.5310443534
 20
81.6845526839
 11
-14.8492424049
 21
81.5008291169
  0
LINE
  5
229
100
AcDbEntity
  8
0
100
AcDbLine
 62
7
  6
CONTINUOUS
 10
-14.884597744
 20
81.4804153872
 11
-15.2027957955
 21
81.2966918202
  0
LINE
  5
22A
100
AcDbEntity
  8
0
100
AcDbLine
 62
7
  6
CONTINUOUS
 10
-15.2381511346
 20
81.2762780905
 11
-15.5563491861
 21
81.0925545236
  0
LINE
  5
22B
100
AcDbEntity
  8
0
100
AcDbLine
 62
7
  6
CONTINUOUS
 10
-15.5917045252
 20
81.0721407939
 11
-15.9099025767
 21
80.8884172269
  0
LINE
  5
22C
100
AcDbEntity
  8
0
100
AcDbLine
 62
7
  6
CONTINUOUS
 10
-15.9452579158
 20
80.8680034972
 11
-15.9995251838
 21
80.8366702568
  0
LINE
  5
22D
100
AcDbEntity
  8
0
100
AcDbLine
 62
7
  6
CONTINUOUS
 10
-15.9995251838
 20
80.7141878788
 11
-15.9452579158
 21
80.7455211192
  0
LINE
  5
22E
100
AcDbEntity
  8
0
100
AcDbLine
 62
7
  6
CONTINUOUS
 10
-15.6977705423
 20
80.8884172269
 11
-15.5917045252
 21
80.9496584159
  0
LINE
  5
22F
100
AcDbEntity
  8
0
100
AcDbLine
 62
7
  6
CONTINUOUS
 10
-15.3442171517
 20
81.0925545236
 11
-15.2381511346
 21
81.1537957125
  0
LINE
  5
230
100
AcDbEntity
  8
0
100
AcDbLine
 62
7
  6
CONTINUOUS
 10
-14.9906637612
 20
81.2966918202
 11
-14.884597744
 21
81.3579330092
  0
LINE
  5
231
100
AcDbEntity
  8
0
100
AcDbLine
 62
7
  6
CONTINUOUS
 10
-14.6371103706
 20
81.5008291169
 11
-14.5310443534
 21
81.5620703059
  0
LINE
  5
232
100
AcDbEntity
  8
0
100
AcDbLine
 62
7
  6
CONTINUOUS
 10
-16.6753003754
 20
75.8334172302
 11
-16.6523646969
 21
75.8466600035
  0
LINE
  5
233
100
AcDbEntity
  8
0
100
AcDbLine
 62
7
  6
CONTINUOUS
 10
-16.4048773235
 20
75.9895561112
 11
-16.2988113063
 21
76.0507973002
  0
LINE
  5
234
100
AcDbEntity
  8
0
100
AcDbLine
 62
7
  6
CONTINUOUS
 10
-16.0513239329
 20
76.1936934079
 11
-15.9452579158
 21
76.2549345969
  0
LINE
  5
235
100
AcDbEntity
  8
0
100
AcDbLine
 62
7
  6
CONTINUOUS
 10
-15.6977705423
 20
76.3978307045
 11
-15.5917045252
 21
76.4590718935
  0
LINE
  5
236
100
AcDbEntity
  8
0
100
AcDbLine
 62
7
  6
CONTINUOUS
 10
-15.3442171517
 20
76.6019680012
 11
-15.2381511346
 21
76.6632091902
  0
LINE
  5
237
100
AcDbEntity
  8
0
100
AcDbLine
 62
7
  6
CONTINUOUS
 10
-14.9906637612
 20
76.8061052979
 11
-14.884597744
 21
76.8673464869
  0
LINE
  5
238
100
AcDbEntity
  8
0
100
AcDbLine
 62
7
  6
CONTINUOUS
 10
-14.6371103706
 20
77.0102425945
 11
-14.5310443534
 21
77.0714837835
  0
LINE
  5
239
100
AcDbEntity
  8
0
100
AcDbLine
 62
7
  6
CONTINUOUS
 10
-14.28355698
 20
77.2143798912
 11
-14.1774909628
 21
77.2756210802
  0
LINE
  5
23A
100
AcDbEntity
  8
0
100
AcDbLine
 62
7
  6
CONTINUOUS
 10
-15.4365245534
 20
81.9930569051
 11
-15.9995251838
 21
81.6693763914
  0
LINE
  5
23B
100
AcDbEntity
  8
0
100
AcDbLine
 62
7
  6
CONTINUOUS
 10
-15.9995251838
 20
81.7158134554
 11
-15.6268705515
 21
81.9299187529
  0
LINE
  5
23C
100
AcDbEntity
  8
0
100
AcDbLine
 62
7
  6
CONTINUOUS
 10
-15.1176109457
 20
82.0466286569
 11
-15.9995251838
 21
81.5461834805
  0
LINE
  5
23D
100
AcDbEntity
  8
0
100
AcDbLine
 62
7
  6
CONTINUOUS
 10
-15.9995251838
 20
79.6131928588
 11
-16.9348093726
 21
79.0917002849
  0
LINE
  5
23E
100
AcDbEntity
  8
0
100
AcDbLine
 62
7
  6
CONTINUOUS
 10
-16.9982382215
 20
78.9536502222
 11
-16.0629540327
 21
79.4751427961
  0
LINE
  5
23F
100
AcDbEntity
  8
0
100
AcDbLine
 62
7
  6
CONTINUOUS
 10
-14.724544799
 20
81.8196771901
 11
-15.9995251838
 21
81.1606728185
  0
LWPOLYLINE
  5
240
100
AcDbEntity
  8
RACCORDO
100
AcDbPolyline
 62
7
  6
CONTINUOUS
 90
13
 70
0
 10
14.8887879409
 20
-91.5688758263
 10
14.9286641611
 20
-91.5901209492
 10
14.9727785766
 20
-91.609608164
 10
15.0171066896
 20
-91.6250691019
 10
15.0615651404
 20
-91.6365303715
 10
15.1059321805
 20
-91.6439701458
 10
15.149759213
 20
-91.6473705526
 10
15.1927498436
 20
-91.6468153197
 10
15.234677728
 20
-91.6424296494
 10
15.2750937901
 20
-91.6344039325
 10
15.3136654865
 20
-91.6229897591
 10
15.3502224077
 20
-91.6084455005
 10
15.3774524394
 20
-91.5949951211
  0
LINE
  5
241
100
AcDbEntity
  8
0
100
AcDbLine
 62
7
  6
CONTINUOUS
 10
-16.6753003754
 20
73.5986093456
 11
-16.1397445942
 21
73.8972227148
  0
LINE
  5
242
100
AcDbEntity
  8
0
100
AcDbLine
 62
7
  6
CONTINUOUS
 10
-16.503139747
 20
73.2088620892
 11
-15.9275802462
 21
73.5297805963
  0
LINE
  5
243
100
AcDbEntity
  8
RACCORDO
100
AcDbLine
 62
7
  6
CONTINUOUS
 10
-21.3052514159
 20
-70.6709021988
 11
14.8887632481
 21
-91.5688726482
  0
LINE
  5
244
100
AcDbEntity
  8
RACCORDO
100
AcDbLine
 62
7
  6
CONTINUOUS
 10
-21.3673761881
 20
-70.5335811486
 11
14.8289218059
 21
-91.4328699641
  0
LINE
  5
245
100
AcDbEntity
  8
RACCORDO
100
AcDbLine
 62
7
  6
CONTINUOUS
 10
12.8976249221
 20
-88.2242024205
 11
-19.4383626481
 21
-69.5538084626
  0
LINE
  5
246
100
AcDbEntity
  8
RACCORDO
100
AcDbLine
 62
7
  6
CONTINUOUS
 10
13.0372026587
 20
-87.9134416529
 11
-19.2987915941
 21
-69.2430438366
  0
LINE
  5
247
100
AcDbEntity
  8
RACCORDO
100
AcDbLine
 62
7
  6
CONTINUOUS
 10
-17.8913647885
 20
-68.4697585182
 11
13.2084347711
 21
-86.4263930119
  0
LINE
  5
248
100
AcDbEntity
  8
RACCORDO
100
AcDbLine
 62
7
  6
CONTINUOUS
 10
-17.7766127647
 20
-68.3789447227
 11
13.2084347711
 21
-86.269322836
  0
LINE
  5
249
100
AcDbEntity
  8
RACCORDO
100
AcDbLine
 62
7
  6
CONTINUOUS
 10
13.2084347711
 20
-85.9234260652
 11
-17.4770761762
 21
-68.205996624
  0
LINE
  5
24A
100
AcDbEntity
  8
RACCORDO
100
AcDbLine
 62
7
  6
CONTINUOUS
 10
-16.4634590606
 20
-67.6204392323
 11
13.2084347711
 21
-84.7526188546
  0
LINE
  5
24B
100
AcDbEntity
  8
ASSI
100
AcDbLine
 62
7
  6
CONTINUOUS
 10
9.9593740206
 20
-82.8499814996
 11
7.0710678119
 21
-81.1823096936
  0
LINE
  5
24C
100
AcDbEntity
  8
ASSI
100
AcDbLine
 62
7
  6
CONTINUOUS
 10
-5.9505285561
 20
-73.6638031497
 11
-8.8388347648
 21
-71.9961313437
  0
LINE
  5
24D
100
AcDbEntity
  8
ASSI
100
AcDbLine
 62
7
  6
CONTINUOUS
 10
-9.210065825
 20
-71.7613616161
 11
-9.0289819891
 21
-71.8659171534
  0
LINE
  5
24E
100
AcDbEntity
  8
DRAFT
100
AcDbLine
 62
7
  6
CONTINUOUS
 10
6.5212211861
 20
-80.8444095769
 11
6.8809205876
 21
-81.0520955033
  0
LINE
  5
24F
100
AcDbEntity
  8
ASSI
100
AcDbLine
 62
7
  6
CONTINUOUS
 10
9.971967991
 20
-82.8164138044
 11
7.2124891681
 21
-81.2231253164
  0
LINE
  5
250
100
AcDbEntity
  8
ASSI
100
AcDbLine
 62
7
  6
CONTINUOUS
 10
-5.9379345857
 20
-73.6302354545
 11
-8.6974134086
 21
-72.0369469666
  0
LINE
  5
251
100
AcDbEntity
  8
0
100
AcDbLine
 62
7
  6
CONTINUOUS
 10
13.2084347711
 20
-84.5424103278
 11
10.1646599796
 21
-82.7849729106
  0
LINE
  5
252
100
AcDbEntity
  8
RACCORDO
100
AcDbLine
 62
7
  6
CONTINUOUS
 10
4.8613591207
 20
-79.7229134606
 11
-5.7452425971
 21
-73.5987945607
  0
LINE
  5
253
100
AcDbEntity
  8
0
100
AcDbLine
 62
7
  6
CONTINUOUS
 10
-11.048543456
 20
-70.5367351107
 11
-16.6728891013
 21
-67.2893084248
  0
LINE
  5
254
100
AcDbEntity
  8
0
100
AcDbLine
 62
7
  6
CONTINUOUS
 10
-10.2707259967
 20
-70.9577570725
 11
-9.4184956448
 21
-71.4498241967
  0
LINE
  5
255
100
AcDbEntity
  8
ASSI
100
AcDbLine
 62
7
  6
CONTINUOUS
 10
10.1653349407
 20
-82.6831085382
 11
7.3185551853
 21
-81.0394135859
  0
LINE
  5
256
100
AcDbEntity
  8
ASSI
100
AcDbLine
 62
7
  6
CONTINUOUS
 10
-5.744567636
 20
-73.4969301883
 11
-8.5913473914
 21
-71.8532352361
  0
LINE
  5
257
100
AcDbEntity
  8
0
100
AcDbLine
 62
7
  6
CONTINUOUS
 10
-10.2707259967
 20
-70.860520333
 11
-9.2721906113
 21
-71.43706215
  0
LINE
  5
258
100
AcDbEntity
  8
ASSI
100
AcDbLine
 62
7
  6
CONTINUOUS
 10
10.2714009579
 20
-82.6218673492
 11
7.4246212025
 21
-80.9781723969
  0
LINE
  5
259
100
AcDbEntity
  8
ASSI
100
AcDbLine
 62
7
  6
CONTINUOUS
 10
-5.6385016188
 20
-73.4356889993
 11
-8.4852813742
 21
-71.7919940471
  0
LINE
  5
25A
100
AcDbEntity
  8
ASSI
100
AcDbLine
 62
7
  6
CONTINUOUS
 10
10.306766547
 20
-82.6014477013
 11
7.5660425587
 21
-81.0189880198
  0
LINE
  5
25B
100
AcDbEntity
  8
ASSI
100
AcDbLine
 62
7
  6
CONTINUOUS
 10
-5.6031360297
 20
-73.4152693514
 11
-8.343860018
 21
-71.8328096699
  0
LINE
  5
25C
100
AcDbEntity
  8
RACCORDO
100
AcDbLine
 62
7
  6
CONTINUOUS
 10
-17.2113394835
 20
-66.6518731577
 11
-17.1469737206
 21
-66.6890371425
  0
LINE
  5
25D
100
AcDbEntity
  8
DRAFT
100
AcDbLine
 62
7
  6
CONTINUOUS
 10
-16.988187993
 20
-66.6990433854
 11
-16.6753003754
 21
-66.8797007744
  0
LINE
  5
25E
100
AcDbEntity
  8
ASSI
100
AcDbLine
 62
7
  6
CONTINUOUS
 10
10.5188883313
 20
-82.4789712415
 11
7.6721085759
 21
-80.8352762893
  0
LINE
  5
25F
100
AcDbEntity
  8
ASSI
100
AcDbLine
 62
7
  6
CONTINUOUS
 10
-5.3910142454
 20
-73.2927928916
 11
-8.2377940008
 21
-71.6490979394
  0
LINE
  5
260
100
AcDbEntity
  8
ASSI
100
AcDbLine
 62
7
  6
CONTINUOUS
 10
10.6464365151
 20
-82.4301335863
 11
7.7781745931
 21
-80.7740351003
  0
LINE
  5
261
100
AcDbEntity
  8
ASSI
100
AcDbLine
 62
7
  6
CONTINUOUS
 10
-5.2634660616
 20
-73.2439552364
 11
-8.1317279836
 21
-71.5878567504
  0
LINE
  5
262
100
AcDbEntity
  8
RACCORDO
100
AcDbLine
 62
7
  6
CONTINUOUS
 10
13.2084347711
 20
-83.8891709784
 11
10.7303454045
 21
-82.4583532359
  0
LINE
  5
263
100
AcDbEntity
  8
RACCORDO
100
AcDbLine
 62
7
  6
CONTINUOUS
 10
5.4270445456
 20
-79.396293786
 11
-5.1795571722
 21
-73.272174886
  0
LINE
  5
264
100
AcDbEntity
  8
RACCORDO
100
AcDbLine
 62
7
  6
CONTINUOUS
 10
-10.4828580311
 20
-70.2101154361
 11
-16.1397445942
 21
-66.943900032
  0
LINE
  5
265
100
AcDbEntity
  8
ASSI
100
AcDbLine
 62
7
  6
CONTINUOUS
 10
11.8086832458
 20
-83.0603609864
 11
7.9195959493
 21
-80.8148507231
  0
LINE
  5
266
100
AcDbEntity
  8
ASSI
100
AcDbLine
 62
7
  6
CONTINUOUS
 10
-4.1012193309
 20
-73.8741826365
 11
-7.9903066274
 21
-71.6286723732
  0
LINE
  5
267
100
AcDbEntity
  8
ASSI
100
AcDbLine
 62
7
  6
CONTINUOUS
 10
11.914749263
 20
-82.8766492559
 11
8.0256619665
 21
-80.6311389926
  0
LINE
  5
268
100
AcDbEntity
  8
ASSI
100
AcDbLine
 62
7
  6
CONTINUOUS
 10
-3.9951533137
 20
-73.690470906
 11
-7.8842406102
 21
-71.4449606427
  0
LINE
  5
269
100
AcDbEntity
  8
ASSI
100
AcDbLine
 62
7
  6
CONTINUOUS
 10
12.1268812973
 20
-82.8766374194
 11
8.1317279836
 21
-80.5698978036
  0
LINE
  5
26A
100
AcDbEntity
  8
ASSI
100
AcDbLine
 62
7
  6
CONTINUOUS
 10
-3.7830212793
 20
-73.6904590695
 11
-7.7781745931
 21
-71.3837194537
  0
LINE
  5
26B
100
AcDbEntity
  8
ASSI
100
AcDbLine
 62
7
  6
CONTINUOUS
 10
12.1622366364
 20
-82.8562236898
 11
8.2731493399
 21
-80.6107134265
  0
LINE
  5
26C
100
AcDbEntity
  8
ASSI
100
AcDbLine
 62
7
  6
CONTINUOUS
 10
-3.7476659403
 20
-73.6700453399
 11
-7.6367532368
 21
-71.4245350766
  0
LINE
  5
26D
100
AcDbEntity
  8
0
100
AcDbLine
 62
7
  6
CONTINUOUS
 10
-16.2686864723
 20
-66.297866177
 11
-15.6534096638
 21
-66.653119295
  0
LINE
  5
26E
100
AcDbEntity
  8
0
100
AcDbLine
 62
7
  6
CONTINUOUS
 10
-16.1792786561
 20
-66.2480144712
 11
-15.5034024157
 21
-66.6382569417
  0
LINE
  5
26F
100
AcDbEntity
  8
ASSI
100
AcDbLine
 62
7
  6
CONTINUOUS
 10
12.2683026536
 20
-82.6725119592
 11
8.3792153571
 21
-80.4270016959
  0
LINE
  5
270
100
AcDbEntity
  8
ASSI
100
AcDbLine
 62
7
  6
CONTINUOUS
 10
-3.6415999231
 20
-73.4863336094
 11
-7.5306872196
 21
-71.2408233461
  0
LINE
  5
271
100
AcDbEntity
  8
ASSI
100
AcDbLine
 62
7
  6
CONTINUOUS
 10
12.4804346879
 20
-82.6725001228
 11
8.4852813742
 21
-80.3657605069
  0
LINE
  5
272
100
AcDbEntity
  8
ASSI
100
AcDbLine
 62
7
  6
CONTINUOUS
 10
-3.4294678888
 20
-73.4863217729
 11
-7.4246212025
 21
-71.1795821571
  0
LINE
  5
273
100
AcDbEntity
  8
ASSI
100
AcDbLine
 62
7
  6
CONTINUOUS
 10
12.515790027
 20
-82.6520863931
 11
8.6267027305
 21
-80.4065761298
  0
LINE
  5
274
100
AcDbEntity
  8
ASSI
100
AcDbLine
 62
7
  6
CONTINUOUS
 10
-3.3941125497
 20
-73.4659080432
 11
-7.2831998462
 21
-71.2203977799
  0
LINE
  5
275
100
AcDbEntity
  8
ASSI
100
AcDbLine
 62
7
  6
CONTINUOUS
 10
12.6218560442
 20
-82.4683746626
 11
8.7327687477
 21
-80.2228643993
  0
LINE
  5
276
100
AcDbEntity
  8
ASSI
100
AcDbLine
 62
7
  6
CONTINUOUS
 10
-3.2880465325
 20
-73.2821963127
 11
-7.177133829
 21
-71.0366860494
  0
LINE
  5
277
100
AcDbEntity
  8
ASSI
100
AcDbLine
 62
7
  6
CONTINUOUS
 10
12.8339880785
 20
-82.4683628261
 11
8.8388347648
 21
-80.1616232103
  0
LINE
  5
278
100
AcDbEntity
  8
ASSI
100
AcDbLine
 62
7
  6
CONTINUOUS
 10
-3.0759144982
 20
-73.2821844762
 11
-7.0710678119
 21
-70.9754448604
  0
LINE
  5
279
100
AcDbEntity
  8
ASSI
100
AcDbLine
 62
7
  6
CONTINUOUS
 10
12.8693434176
 20
-82.4479490964
 11
8.9802561211
 21
-80.2024388331
  0
LINE
  5
27A
100
AcDbEntity
  8
ASSI
100
AcDbLine
 62
7
  6
CONTINUOUS
 10
-3.0405591591
 20
-73.2617707466
 11
-6.9296464556
 21
-71.0162604833
  0
LINE
  5
27B
100
AcDbEntity
  8
ASSI
100
AcDbLine
 62
7
  6
CONTINUOUS
 10
12.9754094348
 20
-82.2642373659
 11
9.0863221382
 21
-80.0187271026
  0
LINE
  5
27C
100
AcDbEntity
  8
ASSI
100
AcDbLine
 62
7
  6
CONTINUOUS
 10
-2.9344931419
 20
-73.078059016
 11
-6.8235804385
 21
-70.8325487527
  0
LINE
  5
27D
100
AcDbEntity
  8
ASSI
100
AcDbLine
 62
7
  6
CONTINUOUS
 10
13.1875414691
 20
-82.2642255294
 11
9.1923881554
 21
-79.9574859136
  0
LINE
  5
27E
100
AcDbEntity
  8
ASSI
100
AcDbLine
 62
7
  6
CONTINUOUS
 10
-2.7223611076
 20
-73.0780471796
 11
-6.7175144213
 21
-70.7713075637
  0
LINE
  5
27F
100
AcDbEntity
  8
ASSI
100
AcDbLine
 62
7
  6
CONTINUOUS
 10
13.2052208471
 20
-82.2336059214
 11
9.3338095117
 21
-79.9983015365
  0
LINE
  5
280
100
AcDbEntity
  8
ASSI
100
AcDbLine
 62
7
  6
CONTINUOUS
 10
-2.6870057685
 20
-73.0576334499
 11
-6.576093065
 21
-70.8121231866
  0
LINE
  5
281
100
AcDbEntity
  8
ASSI
100
AcDbLine
 62
7
  6
CONTINUOUS
 10
13.2084347711
 20
-81.9905086813
 11
9.4398755288
 21
-79.8145898059
  0
LINE
  5
282
100
AcDbEntity
  8
ASSI
100
AcDbLine
 62
7
  6
CONTINUOUS
 10
-2.5809397513
 20
-72.8739217194
 11
-6.4700270479
 21
-70.6284114561
  0
LINE
  5
283
100
AcDbEntity
  8
ASSI
100
AcDbLine
 62
7
  6
CONTINUOUS
 10
13.2084347711
 20
-81.8680263033
 11
9.545941546
 21
-79.7533486169
  0
LINE
  5
284
100
AcDbEntity
  8
ASSI
100
AcDbLine
 62
7
  6
CONTINUOUS
 10
-2.368807717
 20
-72.8739098829
 11
-6.3639610307
 21
-70.5671702671
  0
LINE
  5
285
100
AcDbEntity
  8
ASSI
100
AcDbLine
 62
7
  6
CONTINUOUS
 10
-6.4244056185
 20
-70.5118447535
 11
-2.1669417729
 21
-72.9700510193
  0
LINE
  5
286
100
AcDbEntity
  8
ASSI
100
AcDbLine
 62
7
  6
CONTINUOUS
 10
9.4854969582
 20
-79.6980231033
 11
13.2084347711
 21
-81.8476007371
  0
LWPOLYLINE
  5
287
100
AcDbEntity
  8
RACCORDO
100
AcDbPolyline
 62
7
  6
CONTINUOUS
 90
3
 70
0
 10
-21.3813868333
 20
-70.6200981072
 10
-21.3345325512
 20
-70.6529978763
 10
-21.3050874291
 20
-70.6709850834
  0
LINE
  5
288
100
AcDbEntity
  8
RACCORDO
100
AcDbLine
 62
7
  6
CONTINUOUS
 10
-21.4264214307
 20
-70.5831095133
 11
-21.3813868333
 21
-70.6200981072
  0
LINE
  5
289
100
AcDbEntity
  8
0
100
AcDbLine
 62
7
  6
CONTINUOUS
 10
-14.2231225495
 20
58.8706024795
 11
-16.6753003754
 21
57.3063562619
  0
LINE
  5
28A
100
AcDbEntity
  8
0
100
AcDbLine
 62
7
  6
CONTINUOUS
 10
-16.4690838538
 20
56.7009320963
 11
-16.6753003754
 21
56.5776347792
  0
LINE
  5
28B
100
AcDbEntity
  8
0
100
AcDbLine
 62
7
  6
CONTINUOUS
 10
-15.4365245534
 20
63.6224756773
 11
-15.9275802462
 21
63.3401577715
  0
LINE
  5
28C
100
AcDbEntity
  8
0
100
AcDbLine
 62
7
  6
CONTINUOUS
 10
-15.9275802462
 20
63.3865675309
 11
-15.6268705515
 21
63.5593375251
  0
LINE
  5
28D
100
AcDbEntity
  8
0
100
AcDbLine
 62
7
  6
CONTINUOUS
 10
-14.5707549225
 20
63.9863627037
 11
-15.9275802462
 21
63.2164276475
  0
LINE
  5
28E
100
AcDbEntity
  8
0
100
AcDbLine
 62
7
  6
CONTINUOUS
 10
-15.9275802462
 20
61.2827264444
 11
-16.503139747
 21
60.9618079373
  0
LINE
  5
28F
100
AcDbEntity
  8
0
100
AcDbLine
 62
7
  6
CONTINUOUS
 10
-16.5665685959
 20
60.8237578747
 11
-15.9910090951
 21
61.1446763817
  0
LINE
  5
290
100
AcDbEntity
  8
0
100
AcDbLine
 62
7
  6
CONTINUOUS
 10
-16.6753003754
 20
55.2280281177
 11
-16.2116895318
 21
55.4865266736
  0
LINE
  5
291
100
AcDbEntity
  8
0
100
AcDbLine
 62
7
  6
CONTINUOUS
 10
-14.2231225495
 20
63.7856441284
 11
-15.9275802462
 21
62.9046540466
  0
LINE
  5
292
100
AcDbEntity
  8
0
100
AcDbLine
 62
7
  6
CONTINUOUS
 10
-16.6170093579
 20
-58.3198044212
 11
-16.4048773235
 21
-58.3198044212
  0
LINE
  5
293
100
AcDbEntity
  8
0
100
AcDbLine
 62
7
  6
CONTINUOUS
 10
-16.2634559673
 20
-58.1156671246
 11
-16.0513239329
 21
-58.1156671246
  0
LINE
  5
294
100
AcDbEntity
  8
0
100
AcDbLine
 62
7
  6
CONTINUOUS
 10
-15.9099025767
 20
-57.9115298279
 11
-15.6977705423
 21
-57.9115298279
  0
LINE
  5
295
100
AcDbEntity
  8
0
100
AcDbLine
 62
7
  6
CONTINUOUS
 10
-15.5563491861
 20
-57.7073925312
 11
-15.3442171517
 21
-57.7073925312
  0
LINE
  5
296
100
AcDbEntity
  8
0
100
AcDbLine
 62
7
  6
CONTINUOUS
 10
-15.2027957955
 20
-57.5032552346
 11
-14.9906637612
 21
-57.5032552346
  0
LINE
  5
297
100
AcDbEntity
  8
0
100
AcDbLine
 62
7
  6
CONTINUOUS
 10
-14.8492424049
 20
-57.2991179379
 11
-14.6371103706
 21
-57.2991179379
  0
LINE
  5
298
100
AcDbEntity
  8
0
100
AcDbLine
 62
7
  6
CONTINUOUS
 10
-14.4956890143
 20
-57.0949806412
 11
-14.28355698
 21
-57.0949806412
  0
LINE
  5
299
100
AcDbEntity
  8
ASSI
100
AcDbLine
 62
7
  6
CONTINUOUS
 10
-6.282431921
 20
-70.5261688148
 11
-2.1088916334
 21
-72.9359186702
  0
LINE
  5
29A
100
AcDbEntity
  8
ASSI
100
AcDbLine
 62
7
  6
CONTINUOUS
 10
9.6274706557
 20
-79.7123471647
 11
13.2084347711
 21
-81.7799509649
  0
LINE
  5
29B
100
AcDbEntity
  8
RACCORDO
100
AcDbLine
 62
7
  6
CONTINUOUS
 10
-16.2116895318
 20
-60.452252631
 11
-16.6753003754
 21
-60.1845695403
  0
LINE
  5
29C
100
AcDbEntity
  8
0
100
AcDbLine
 62
7
  6
CONTINUOUS
 10
-16.6753003754
 20
-58.8780908417
 11
-16.4727537595
 21
-58.9950387192
  0
LINE
  5
29D
100
AcDbEntity
  8
DRAFT
100
AcDbLine
 62
7
  6
CONTINUOUS
 10
-16.6753003754
 20
55.1826056061
 11
-17.2113394835
 21
54.8388685196
  0
LINE
  5
29E
100
AcDbEntity
  8
DRAFT
100
AcDbLine
 62
7
  6
CONTINUOUS
 10
-16.6753003754
 20
49.0590785302
 11
-17.2113394835
 21
48.7153414437
  0
LINE
  5
29F
100
AcDbEntity
  8
0
100
AcDbLine
 62
7
  6
CONTINUOUS
 10
-15.6534096638
 20
49.2856600096
 11
-16.1397445942
 21
48.9948792726
  0
LINE
  5
2A0
100
AcDbEntity
  8
0
100
AcDbLine
 62
7
  6
CONTINUOUS
 10
-15.4376077237
 20
48.9203928155
 11
-15.7191711325
 21
48.7520454269
  0
LINE
  5
2A1
100
AcDbEntity
  8
DRAFT
100
AcDbLine
 62
7
  6
CONTINUOUS
 10
33.045399311
 20
78.3339492323
 11
34.7366206258
 21
79.3445253202
  0
LINE
  5
2A2
100
AcDbEntity
  8
SMUSSO
100
AcDbLine
 62
7
  6
CONTINUOUS
 10
30.9535993464
 20
76.7519777071
 11
32.7213662994
 21
77.7726641904
  0
LINE
  5
2A3
100
AcDbEntity
  8
RACCORDO
100
AcDbLine
 62
7
  6
CONTINUOUS
 10
15.035068282
 20
67.3174547947
 11
15.3266148693
 21
67.4857895821
  0
LINE
  5
2A4
100
AcDbEntity
  8
RACCORDO
100
AcDbLine
 62
7
  6
CONTINUOUS
 10
-17.9887124903
 20
47.9272020826
 11
-16.6753003754
 21
48.6852599922
  0
LINE
  5
2A5
100
AcDbEntity
  8
RACCORDO
100
AcDbLine
 62
7
  6
CONTINUOUS
 10
-19.4981229498
 20
47.0409972262
 11
-18.1209228731
 21
47.8361060187
  0
LINE
  5
2A6
100
AcDbEntity
  8
RACCORDO
100
AcDbLine
 62
7
  6
CONTINUOUS
 10
-19.2987915941
 20
46.695735468
 11
-17.9215878168
 21
47.4908659376
  0
LINE
  5
2A7
100
AcDbEntity
  8
RACCORDO
100
AcDbLine
 62
7
  6
CONTINUOUS
 10
-17.7766127647
 20
47.5598345819
 11
-16.4634590606
 21
48.3183400723
  0
LINE
  5
2A8
100
AcDbEntity
  8
RACCORDO
100
AcDbLine
 62
7
  6
CONTINUOUS
 10
15.5299676418
 20
66.4602639598
 11
15.821514229
 21
66.6285987472
  0
LINE
  5
2A9
100
AcDbEntity
  8
SMUSSO
100
AcDbLine
 62
7
  6
CONTINUOUS
 10
31.6607061276
 20
75.527232837
 11
33.4284730806
 21
76.5479193203
  0
LINE
  5
2AA
100
AcDbEntity
  8
0
100
AcDbLine
 62
7
  6
CONTINUOUS
 10
-16.9348093726
 20
54.5975919811
 11
-15.9995251838
 21
55.119084555
  0
LINE
  5
2AB
100
AcDbEntity
  8
0
100
AcDbLine
 62
7
  6
CONTINUOUS
 10
-15.9995251838
 20
49.8936747836
 11
-16.9348093726
 21
49.3721822096
  0
LINE
  5
2AC
100
AcDbEntity
  8
0
100
AcDbLine
 62
7
  6
CONTINUOUS
 10
-16.9982382215
 20
49.234132147
 11
-16.0629540327
 21
49.7556247209
  0
LINE
  5
2AD
100
AcDbEntity
  8
DRAFT
100
AcDbLine
 62
7
  6
CONTINUOUS
 10
34.0765391061
 20
76.5479627207
 11
35.7972807976
 21
77.5074080162
  0
LINE
  5
2AE
100
AcDbEntity
  8
0
100
AcDbLine
 62
7
  6
CONTINUOUS
 10
-15.4365245534
 20
-52.3163036273
 11
-15.1286547065
 21
-52.2689986944
  0
LINE
  5
2AF
100
AcDbEntity
  8
0
100
AcDbLine
 62
7
  6
CONTINUOUS
 10
-15.9099025767
 20
-53.4209433055
 11
-15.6977705423
 21
-53.4209433055
  0
LINE
  5
2B0
100
AcDbEntity
  8
0
100
AcDbLine
 62
7
  6
CONTINUOUS
 10
-15.5563491861
 20
-53.2168060089
 11
-15.3442171517
 21
-53.2168060089
  0
LINE
  5
2B1
100
AcDbEntity
  8
0
100
AcDbLine
 62
7
  6
CONTINUOUS
 10
-15.2027957955
 20
-53.0126687122
 11
-14.9906637612
 21
-53.0126687122
  0
LINE
  5
2B2
100
AcDbEntity
  8
0
100
AcDbLine
 62
7
  6
CONTINUOUS
 10
-14.8492424049
 20
-52.8085314155
 11
-14.6371103706
 21
-52.8085314155
  0
LINE
  5
2B3
100
AcDbEntity
  8
0
100
AcDbLine
 62
7
  6
CONTINUOUS
 10
-14.4956890143
 20
-52.6043941189
 11
-14.28355698
 21
-52.6043941189
  0
LINE
  5
2B4
100
AcDbEntity
  8
0
100
AcDbLine
 62
7
  6
CONTINUOUS
 10
-14.5707549225
 20
-51.9524166009
 11
-14.1526056844
 21
-52.1938507303
  0
LINE
  5
2B5
100
AcDbEntity
  8
0
100
AcDbLine
 62
7
  6
CONTINUOUS
 10
-14.5186592419
 20
-51.9231694094
 11
-14.1015832476
 21
-52.1639838613
  0
LINE
  5
2B6
100
AcDbEntity
  8
0
100
AcDbLine
 62
7
  6
CONTINUOUS
 10
-10.4828580311
 20
45.7286638685
 11
-11.048543456
 21
45.4020441938
  0
LINE
  5
2B7
100
AcDbEntity
  8
0
100
AcDbLine
 62
7
  6
CONTINUOUS
 10
-10.2707259967
 20
45.3612404075
 11
-10.8063340835
 21
45.0519870109
  0
LINE
  5
2B8
100
AcDbEntity
  8
0
100
AcDbLine
 62
7
  6
CONTINUOUS
 10
-9.4184956448
 20
44.4889551078
 11
-9.6285118383
 21
44.3719272081
  0
LINE
  5
2B9
100
AcDbEntity
  8
0
100
AcDbLine
 62
7
  6
CONTINUOUS
 10
-6.4166163045
 20
45.3493370477
 11
-8.9974937683
 21
44.007585283
  0
LINE
  5
2BA
100
AcDbEntity
  8
RACCORDO
100
AcDbLine
 62
7
  6
CONTINUOUS
 10
-16.6753003754
 20
-41.7323333938
 11
-16.1397445942
 21
-42.0415565898
  0
LINE
  5
2BB
100
AcDbEntity
  8
0
100
AcDbLine
 62
7
  6
CONTINUOUS
 10
-16.6346870274
 20
-40.530959252
 11
-16.6753003754
 21
-40.5075096139
  0
LINE
  5
2BC
100
AcDbEntity
  8
RACCORDO
100
AcDbLine
 62
7
  6
CONTINUOUS
 10
-17.2113394835
 20
-36.9323550824
 11
-17.1469737206
 21
-36.9695190672
  0
LINE
  5
2BD
100
AcDbEntity
  8
DRAFT
100
AcDbLine
 62
7
  6
CONTINUOUS
 10
-16.988187993
 20
-36.9795253102
 11
-16.6753003754
 21
-37.1601826991
  0
LWPOLYLINE
  5
2BE
100
AcDbEntity
  8
RACCORDO
100
AcDbPolyline
 62
7
  6
CONTINUOUS
 90
10
 70
0
 10
-21.7068831613
 20
-70.1345323544
 10
-21.6887138572
 20
-70.19112408
 10
-21.6669640803
 20
-70.2464505073
 10
-21.6417425718
 20
-70.3005399064
 10
-21.6132608717
 20
-70.3530408803
 10
-21.5816682161
 20
-70.4037426908
 10
-21.5470737007
 20
-70.4523949553
 10
-21.5096833946
 20
-70.4986235414
 10
-21.4694001277
 20
-70.5423579958
 10
-21.4264214307
 20
-70.5831095133
  0
LINE
  5
2BF
100
AcDbEntity
  8
SMUSSO
100
AcDbLine
 62
7
  6
CONTINUOUS
 10
-35.7972807976
 20
-78.5370233033
 11
-35.7972807976
 21
114.4766290404
  0
LWPOLYLINE
  5
2C0
100
AcDbEntity
  8
RACCORDO
100
AcDbPolyline
 62
7
  6
CONTINUOUS
 90
13
 70
0
 10
-21.5163239249
 20
30.2762636828
 10
-21.5416104158
 20
30.2593899655
 10
-21.5724944579
 20
30.234991648
 10
-21.6016755772
 20
30.2072803517
 10
-21.6288424427
 20
30.1762720641
 10
-21.6536106677
 20
30.142129385
 10
-21.6755911475
 20
30.1051465115
 10
-21.6945624443
 20
30.0654569083
 10
-21.7103003777
 20
30.0232747124
 10
-21.7225953899
 20
29.9789998698
 10
-21.7313566775
 20
29.9328375824
 10
-21.7365186281
 20
29.8848442909
 10
-21.7380337472
 20
29.8400367608
  0
LINE
  5
2C1
100
AcDbEntity
  8
0
100
AcDbLine
 62
7
  6
CONTINUOUS
 10
-2.1599282431
 20
42.8915787098
 11
-3.7752274532
 21
41.8557620392
  0
LINE
  5
2C2
100
AcDbEntity
  8
RACCORDO
100
AcDbLine
 62
7
  6
CONTINUOUS
 10
-21.5165189466
 20
30.2761503755
 11
-21.2334539295
 21
30.4512020281
  0
LINE
  5
2C3
100
AcDbEntity
  8
RACCORDO
100
AcDbLine
 62
7
  6
CONTINUOUS
 10
-21.1589463682
 20
30.2460355839
 11
-20.8774031016
 21
30.4201461632
  0
LINE
  5
2C4
100
AcDbEntity
  8
0
100
AcDbLine
 62
7
  6
CONTINUOUS
 10
-2.1599282431
 20
42.4901803533
 11
-3.5052775102
 21
41.6998963253
  0
LINE
  5
2C5
100
AcDbEntity
  8
0
100
AcDbLine
 62
7
  6
CONTINUOUS
 10
-3.3581142062
 20
41.614926078
 11
-3.0578195409
 21
41.7891694002
  0
LINE
  5
2C6
100
AcDbEntity
  8
0
100
AcDbLine
 62
7
  6
CONTINUOUS
 10
-2.9079944273
 20
41.9224249771
 11
-3.3982892233
 21
41.6381226294
  0
LINE
  5
2C7
100
AcDbEntity
  8
0
100
AcDbLine
 62
7
  6
CONTINUOUS
 10
-5.3295644202
 20
42.6814667718
 11
-5.8952498452
 21
42.3548470972
  0
LINE
  5
2C8
100
AcDbEntity
  8
0
100
AcDbLine
 62
7
  6
CONTINUOUS
 10
-5.7452425971
 20
42.3399847439
 11
-5.1795571722
 21
42.6666044185
  0
LINE
  5
2C9
100
AcDbEntity
  8
RACCORDO
100
AcDbLine
 62
7
  6
CONTINUOUS
 10
-19.4138880447
 20
-31.4157101146
 11
-19.4137617446
 21
-31.4157149695
  0
LINE
  5
2CA
100
AcDbEntity
  8
RACCORDO
100
AcDbLine
 62
7
  6
CONTINUOUS
 10
-19.1310002428
 20
-31.5748699671
 11
-19.4981229498
 21
-31.5606048123
  0
LWPOLYLINE
  5
2CB
100
AcDbEntity
  8
RACCORDO
100
AcDbPolyline
 62
7
  6
CONTINUOUS
 90
9
 70
0
 10
-19.4137780679
 20
-31.4157212626
 10
-19.4150171444
 20
-31.4156548564
 10
-19.4166467159
 20
-31.4154953838
 10
-19.414789941
 20
-31.4159161834
 10
-19.4097882531
 20
-31.4174185372
 10
-19.401788392
 20
-31.4204428893
 10
-19.3912508417
 20
-31.4252317327
 10
-19.3791742191
 20
-31.4316001992
 10
-19.3762785481
 20
-31.4332495377
  0
LINE
  5
2CC
100
AcDbEntity
  8
RACCORDO
100
AcDbLine
 62
7
  6
CONTINUOUS
 10
-19.3762378618
 20
-31.4332728394
 11
12.9597496872
 21
-50.1036667851
  0
LINE
  5
2CD
100
AcDbEntity
  8
RACCORDO
100
AcDbLine
 62
7
  6
CONTINUOUS
 10
-19.4383626481
 20
-31.2959517811
 11
12.8976249221
 21
-49.966345739
  0
LINE
  5
2CE
100
AcDbEntity
  8
RACCORDO
100
AcDbLine
 62
7
  6
CONTINUOUS
 10
14.8266384621
 20
-48.986573053
 11
-21.3696595241
 21
-28.0872842419
  0
LINE
  5
2CF
100
AcDbEntity
  8
RACCORDO
100
AcDbLine
 62
7
  6
CONTINUOUS
 10
15.035068282
 20
-48.6213245099
 11
-21.1589463682
 21
-27.7233540684
  0
LINE
  5
2D0
100
AcDbEntity
  8
RACCORDO
100
AcDbLine
 62
7
  6
CONTINUOUS
 10
15.3266148693
 20
-48.4529897225
 11
-20.8774031016
 21
-27.5492434891
  0
LWPOLYLINE
  5
2D1
100
AcDbEntity
  8
RACCORDO
100
AcDbPolyline
 62
7
  6
CONTINUOUS
 90
21
 70
0
 10
12.959830034
 20
-50.1037133288
 10
12.9729679011
 20
-50.1117502086
 10
12.9908487442
 20
-50.1240900128
 10
13.0094145191
 20
-50.138587281
 10
13.0283000571
 20
-50.1551221434
 10
13.047215931
 20
-50.1735742007
 10
13.0658917636
 20
-50.1937881142
 10
13.084113792
 20
-50.2156227082
 10
13.1016443605
 20
-50.2388639375
 10
13.1182562864
 20
-50.2632606813
 10
13.1338184492
 20
-50.2886558741
 10
13.1481435293
 20
-50.3147523403
 10
13.1610791526
 20
-50.3412421188
 10
13.1725626824
 20
-50.3679569723
 10
13.1824888976
 20
-50.3945776979
 10
13.1907867665
 20
-50.4207600182
 10
13.1974541751
 20
-50.446279867
 10
13.2024976817
 20
-50.4708643943
 10
13.2059467221
 20
-50.4941783056
 10
13.2078777452
 20
-50.5158488228
 10
13.208434272
 20
-50.5342831335
  0
LWPOLYLINE
  5
2D2
100
AcDbEntity
  8
RACCORDO
100
AcDbPolyline
 62
7
  6
CONTINUOUS
 90
4
 70
0
 10
-21.736802022
 20
-69.9625311562
 10
-21.7311880605
 20
-70.0196260009
 10
-21.7211569211
 20
-70.0770744322
 10
-21.7068831613
 20
-70.1345323544
  0
LINE
  5
2D3
100
AcDbEntity
  8
RACCORDO
100
AcDbLine
 62
7
  6
CONTINUOUS
 10
-21.7380339971
 20
-69.9210825111
 11
-21.736802022
 21
-69.9625311562
  0
LINE
  5
2D4
100
AcDbEntity
  8
0
100
AcDbLine
 62
7
  6
CONTINUOUS
 10
-2.9079944273
 20
41.9224249771
 11
-2.7133205359
 21
42.1651070799
  0
LINE
  5
2D5
100
AcDbEntity
  8
DRAFT
100
AcDbLine
 62
7
  6
CONTINUOUS
 10
-16.6753003754
 20
20.8092069531
 11
-17.2113394835
 21
20.4654698667
  0
LINE
  5
2D6
100
AcDbEntity
  8
SUPERFICI
100
AcDbLine
 62
7
  6
CONTINUOUS
 10
-14.2231225495
 20
19.2717940551
 11
-16.6753003754
 21
17.7075478374
  0
LINE
  5
2D7
100
AcDbEntity
  8
0
100
AcDbLine
 62
7
  6
CONTINUOUS
 10
5.4270445456
 20
36.5424855186
 11
4.8613591207
 21
36.215865844
  0
LINE
  5
2D8
100
AcDbEntity
  8
0
100
AcDbLine
 62
7
  6
CONTINUOUS
 10
5.63917658
 20
36.1750620576
 11
5.1035684932
 21
35.865808661
  0
LINE
  5
2D9
100
AcDbEntity
  8
0
100
AcDbLine
 62
7
  6
CONTINUOUS
 10
6.6998367517
 20
34.9912393386
 11
6.659053078
 21
34.9676913566
  0
LINE
  5
2DA
100
AcDbEntity
  8
0
100
AcDbLine
 62
7
  6
CONTINUOUS
 10
10.5803381565
 20
33.495288422
 11
10.0146527315
 21
33.1686687473
  0
LINE
  5
2DB
100
AcDbEntity
  8
0
100
AcDbLine
 62
7
  6
CONTINUOUS
 10
10.1646599796
 20
33.153806394
 11
10.7303454045
 21
33.4804260687
  0
LINE
  5
2DC
100
AcDbEntity
  8
SUPERFICI
100
AcDbLine
 62
7
  6
CONTINUOUS
 10
-16.6346870274
 20
17.4384304003
 11
-16.6753003754
 21
17.4149807622
  0
LINE
  5
2DD
100
AcDbEntity
  8
SUPERFICI
100
AcDbLine
 62
7
  6
CONTINUOUS
 10
-15.4365245534
 20
24.0236672528
 11
-15.9995251838
 21
23.6999867391
  0
LINE
  5
2DE
100
AcDbEntity
  8
SUPERFICI
100
AcDbLine
 62
7
  6
CONTINUOUS
 10
-15.6268716374
 20
23.9605284767
 11
-15.9995251838
 21
23.7464238031
  0
LINE
  5
2DF
100
AcDbEntity
  8
SUPERFICI
100
AcDbLine
 62
7
  6
CONTINUOUS
 10
-15.1176109457
 20
24.0772390046
 11
-15.9995251838
 21
23.5767938282
  0
LINE
  5
2E0
100
AcDbEntity
  8
SUPERFICI
100
AcDbLine
 62
7
  6
CONTINUOUS
 10
-16.9348093726
 20
21.1223106326
 11
-15.9995251838
 21
21.6438032065
  0
LINE
  5
2E1
100
AcDbEntity
  8
SUPERFICI
100
AcDbLine
 62
7
  6
CONTINUOUS
 10
-16.9982382215
 20
20.9842605699
 11
-16.0629540327
 21
21.5057531439
  0
LINE
  5
2E2
100
AcDbEntity
  8
0
100
AcDbLine
 62
7
  6
CONTINUOUS
 10
6.4789913445
 20
35.0716567448
 11
6.5212211861
 21
35.0943697277
  0
LINE
  5
2E3
100
AcDbEntity
  8
0
100
AcDbLine
 62
7
  6
CONTINUOUS
 10
9.4932862722
 20
36.1631586978
 11
6.9124088084
 21
34.8214069331
  0
LINE
  5
2E4
100
AcDbEntity
  8
SUPERFICI
100
AcDbLine
 62
7
  6
CONTINUOUS
 10
-14.7952554771
 20
23.8911149972
 11
-15.9995251838
 21
23.2686591455
  0
LINE
  5
2E5
100
AcDbEntity
  8
0
100
AcDbLine
 62
7
  6
CONTINUOUS
 10
-15.4365245534
 20
-33.9457223995
 11
-15.1286547065
 21
-33.8984174666
  0
LWPOLYLINE
  5
2E6
100
AcDbEntity
  8
RACCORDO
100
AcDbPolyline
 62
7
  6
CONTINUOUS
 90
10
 70
0
 10
-21.7068831613
 20
-12.1651427021
 10
-21.6887138572
 20
-12.2217344277
 10
-21.6669640803
 20
-12.277060855
 10
-21.6417425718
 20
-12.3311502541
 10
-21.6132608717
 20
-12.383651228
 10
-21.5816682161
 20
-12.4343530385
 10
-21.5470737007
 20
-12.483005303
 10
-21.5096833946
 20
-12.5292338891
 10
-21.4694001277
 20
-12.5729683435
 10
-21.4264214307
 20
-12.613719861
  0
LWPOLYLINE
  5
2E7
100
AcDbEntity
  8
RACCORDO
100
AcDbPolyline
 62
7
  6
CONTINUOUS
 90
4
 70
0
 10
-21.736802022
 20
-11.9931415039
 10
-21.7311880605
 20
-12.0502363487
 10
-21.7211569211
 20
-12.1076847799
 10
-21.7068831613
 20
-12.1651427021
  0
LWPOLYLINE
  5
2E8
100
AcDbEntity
  8
RACCORDO
100
AcDbPolyline
 62
7
  6
CONTINUOUS
 90
4
 70
0
 10
-21.736802022
 20
45.9762481484
 10
-21.7311880605
 20
45.9191533036
 10
-21.7211569211
 20
45.8617048724
 10
-21.7068831613
 20
45.8042469502
  0
LINE
  5
2E9
100
AcDbEntity
  8
RACCORDO
100
AcDbLine
 62
7
  6
CONTINUOUS
 10
-21.7380339971
 20
-11.9516928588
 11
-21.736802022
 21
-11.9931415039
  0
LINE
  5
2EA
100
AcDbEntity
  8
RACCORDO
100
AcDbLine
 62
7
  6
CONTINUOUS
 10
-21.7380339971
 20
46.0176967935
 11
-21.736802022
 21
45.9762481484
  0
LINE
  5
2EB
100
AcDbEntity
  8
RACCORDO
100
AcDbLine
 62
7
  6
CONTINUOUS
 10
-21.7380437879
 20
87.8094056624
 11
-21.7380437879
 21
46.0175038687
  0
LINE
  5
2EC
100
AcDbEntity
  8
RACCORDO
100
AcDbLine
 62
7
  6
CONTINUOUS
 10
-21.7380437879
 20
29.8400160101
 11
-21.7380437879
 21
-11.9518857836
  0
LINE
  5
2ED
100
AcDbEntity
  8
RACCORDO
100
AcDbLine
 62
7
  6
CONTINUOUS
 10
-21.7380437879
 20
-28.1293736422
 11
-21.7380437879
 21
-69.9212754359
  0
LINE
  5
2EE
100
AcDbEntity
  8
RACCORDO
100
AcDbLine
 62
7
  6
CONTINUOUS
 10
-21.6501758223
 20
87.6869232878
 11
-21.6501758223
 21
45.8923850047
  0
LINE
  5
2EF
100
AcDbEntity
  8
RACCORDO
100
AcDbLine
 62
7
  6
CONTINUOUS
 10
-21.6501758223
 20
29.7175336355
 11
-21.6501758223
 21
-12.0770046475
  0
LINE
  5
2F0
100
AcDbEntity
  8
RACCORDO
100
AcDbLine
 62
7
  6
CONTINUOUS
 10
-21.6501758223
 20
-28.2518560168
 11
-21.6501758223
 21
-70.0463942998
  0
LINE
  5
2F1
100
AcDbEntity
  8
RACCORDO
100
AcDbLine
 62
7
  6
CONTINUOUS
 10
-19.8370404627
 20
-68.8632782325
 11
-19.8370404627
 21
-31.526098864
  0
LINE
  5
2F2
100
AcDbEntity
  8
RACCORDO
100
AcDbLine
 62
7
  6
CONTINUOUS
 10
-19.8370404627
 20
-10.8938885802
 11
-19.8370404627
 21
26.4432907883
  0
LINE
  5
2F3
100
AcDbEntity
  8
RACCORDO
100
AcDbLine
 62
7
  6
CONTINUOUS
 10
-19.8370404627
 20
47.0755010721
 11
-19.8370404627
 21
84.4126804405
  0
LINE
  5
2F4
100
AcDbEntity
  8
RACCORDO
100
AcDbLine
 62
7
  6
CONTINUOUS
 10
-19.4981229498
 20
-68.8977820783
 11
-19.4981229498
 21
-31.5606048123
  0
LINE
  5
2F5
100
AcDbEntity
  8
RACCORDO
100
AcDbLine
 62
7
  6
CONTINUOUS
 10
-19.4981229498
 20
-10.928392426
 11
-19.4981229498
 21
26.40878484
  0
LINE
  5
2F6
100
AcDbEntity
  8
RACCORDO
100
AcDbLine
 62
7
  6
CONTINUOUS
 10
-19.4981229498
 20
47.0409972262
 11
-19.4981229498
 21
84.3781744922
  0
LINE
  5
2F7
100
AcDbEntity
  8
RACCORDO
100
AcDbLine
 62
7
  6
CONTINUOUS
 10
-18.1247325446
 20
83.7829029801
 11
-18.1247325446
 21
47.8732255964
  0
LINE
  5
2F8
100
AcDbEntity
  8
RACCORDO
100
AcDbLine
 62
7
  6
CONTINUOUS
 10
-18.1247325446
 20
25.8135133278
 11
-18.1247325446
 21
-10.0961640559
  0
LINE
  5
2F9
100
AcDbEntity
  8
RACCORDO
100
AcDbLine
 62
7
  6
CONTINUOUS
 10
-18.1247325446
 20
-32.1558763245
 11
-18.1247325446
 21
-68.0655537081
  0
LINE
  5
2FA
100
AcDbEntity
  8
RACCORDO
100
AcDbLine
 62
7
  6
CONTINUOUS
 10
-17.9887124903
 20
83.7043667054
 11
-17.9887124903
 21
47.9272020826
  0
LINE
  5
2FB
100
AcDbEntity
  8
RACCORDO
100
AcDbLine
 62
7
  6
CONTINUOUS
 10
-17.9887124903
 20
25.7349770531
 11
-17.9887124903
 21
-10.0421875697
  0
LINE
  5
2FC
100
AcDbEntity
  8
RACCORDO
100
AcDbLine
 62
7
  6
CONTINUOUS
 10
-17.9887124903
 20
-32.2344125991
 11
-17.9887124903
 21
-68.011577222
  0
LINE
  5
2FD
100
AcDbEntity
  8
RACCORDO
100
AcDbLine
 62
7
  6
CONTINUOUS
 10
-17.6891759018
 20
-67.8386291234
 11
-17.6891759018
 21
-32.4073612713
  0
LINE
  5
2FE
100
AcDbEntity
  8
RACCORDO
100
AcDbLine
 62
7
  6
CONTINUOUS
 10
-17.6891759018
 20
-9.8692394711
 11
-17.6891759018
 21
25.562028381
  0
LINE
  5
2FF
100
AcDbEntity
  8
RACCORDO
100
AcDbLine
 62
7
  6
CONTINUOUS
 10
-17.6891759018
 20
48.1001501812
 11
-17.6891759018
 21
83.5314180333
  0
LINE
  5
300
100
AcDbEntity
  8
DRAFT
100
AcDbLine
 62
7
  6
CONTINUOUS
 10
-17.2113394835
 20
-67.2234378609
 11
-17.2113394835
 21
-61.0999107849
  0
LINE
  5
301
100
AcDbEntity
  8
DRAFT
100
AcDbLine
 62
7
  6
CONTINUOUS
 10
-17.2113394835
 20
-37.5039197856
 11
-17.2113394835
 21
-32.6832580305
  0
LINE
  5
302
100
AcDbEntity
  8
DRAFT
100
AcDbLine
 62
7
  6
CONTINUOUS
 10
-17.2113394835
 20
-9.2540482086
 11
-17.2113394835
 21
-3.1305211327
  0
LINE
  5
303
100
AcDbEntity
  8
DRAFT
100
AcDbLine
 62
7
  6
CONTINUOUS
 10
-17.2113394835
 20
20.4654698667
 11
-17.2113394835
 21
25.2861316218
  0
LINE
  5
304
100
AcDbEntity
  8
DRAFT
100
AcDbLine
 62
7
  6
CONTINUOUS
 10
-17.2113394835
 20
48.7153414437
 11
-17.2113394835
 21
54.8388685196
  0
LINE
  5
305
100
AcDbEntity
  8
DRAFT
100
AcDbLine
 62
7
  6
CONTINUOUS
 10
-17.2113394835
 20
78.4348595189
 11
-17.2113394835
 21
83.2555212741
  0
LINE
  5
306
100
AcDbEntity
  8
0
100
AcDbLine
 62
7
  6
CONTINUOUS
 10
-16.9705627485
 20
78.9690814182
 11
-16.9705627485
 21
78.9536596163
  0
LINE
  5
307
100
AcDbEntity
  8
0
100
AcDbLine
 62
7
  6
CONTINUOUS
 10
-16.9348093726
 20
83.0958562538
 11
-16.9348093726
 21
79.0917002849
  0
LINE
  5
308
100
AcDbEntity
  8
0
100
AcDbLine
 62
7
  6
CONTINUOUS
 10
-16.9348093726
 20
54.5975919811
 11
-16.9348093726
 21
49.3721822096
  0
LINE
  5
309
100
AcDbEntity
  8
RACCORDO
100
AcDbLine
 62
7
  6
CONTINUOUS
 10
-16.9348093726
 20
-66.5665970949
 11
-16.9348093726
 21
-61.3411873235
  0
LINE
  5
30A
100
AcDbEntity
  8
RACCORDO
100
AcDbLine
 62
7
  6
CONTINUOUS
 10
-16.9348093726
 20
-36.8470790197
 11
-16.9348093726
 21
-32.8429230508
  0
LINE
  5
30B
100
AcDbEntity
  8
SUPERFICI
100
AcDbLine
 62
7
  6
CONTINUOUS
 10
-16.9348093726
 20
-8.5972074427
 11
-16.9348093726
 21
-3.3717976712
  0
LINE
  5
30C
100
AcDbEntity
  8
SUPERFICI
100
AcDbLine
 62
7
  6
CONTINUOUS
 10
-16.9348093726
 20
21.1223106326
 11
-16.9348093726
 21
25.1264666015
  0
LINE
  5
30D
100
AcDbEntity
  8
0
100
AcDbLine
 62
7
  6
CONTINUOUS
 10
-16.7584307141
 20
79.0873612758
 11
-16.7584307141
 21
78.8265950211
  0
LINE
  5
30E
100
AcDbEntity
  8
DRAFT
100
AcDbLine
 62
7
  6
CONTINUOUS
 10
-16.6753003754
 20
78.7785966054
 11
-16.6753003754
 21
55.1826056061
  0
LINE
  5
30F
100
AcDbEntity
  8
RACCORDO
100
AcDbLine
 62
7
  6
CONTINUOUS
 10
-16.6753003754
 20
49.0590785302
 11
-16.6753003754
 21
48.6852599922
  0
LINE
  5
310
100
AcDbEntity
  8
DRAFT
100
AcDbLine
 62
7
  6
CONTINUOUS
 10
-16.6753003754
 20
20.8092069531
 11
-16.6753003754
 21
-2.7867840462
  0
LINE
  5
311
100
AcDbEntity
  8
RACCORDO
100
AcDbLine
 62
7
  6
CONTINUOUS
 10
-16.6753003754
 20
-8.9103111221
 11
-16.6753003754
 21
-9.2841296601
  0
LINE
  5
312
100
AcDbEntity
  8
DRAFT
100
AcDbLine
 62
7
  6
CONTINUOUS
 10
-16.6753003754
 20
-37.1601826991
 11
-16.6753003754
 21
-60.7561736985
  0
LINE
  5
313
100
AcDbEntity
  8
RACCORDO
100
AcDbLine
 62
7
  6
CONTINUOUS
 10
-16.6753003754
 20
-66.8797007744
 11
-16.6753003754
 21
-67.2535193123
  0
LINE
  5
314
100
AcDbEntity
  8
0
100
AcDbLine
 62
7
  6
CONTINUOUS
 10
-16.6523646969
 20
79.1465012045
 11
-16.6523646969
 21
75.8466600035
  0
LINE
  5
315
100
AcDbEntity
  8
0
100
AcDbLine
 62
7
  6
CONTINUOUS
 10
-16.6523646969
 20
-58.4627005289
 11
-16.6523646969
 21
-55.124474705
  0
LINE
  5
316
100
AcDbEntity
  8
SUPERFICI
100
AcDbLine
 62
7
  6
CONTINUOUS
 10
-16.6346870274
 20
17.4384304003
 11
-16.6346870274
 21
17.2321895549
  0
LINE
  5
317
100
AcDbEntity
  8
DRAFT
100
AcDbLine
 62
7
  6
CONTINUOUS
 10
-16.6346870274
 20
-40.530959252
 11
-16.6346870274
 21
-40.7372000974
  0
LINE
  5
318
100
AcDbEntity
  8
0
100
AcDbLine
 62
7
  6
CONTINUOUS
 10
-16.6346870274
 20
75.2015792072
 11
-16.6346870274
 21
75.6169109192
  0
LINE
  5
319
100
AcDbEntity
  8
0
100
AcDbLine
 62
7
  6
CONTINUOUS
 10
-16.6170093579
 20
79.1662145141
 11
-16.6170093579
 21
75.9895561112
  0
LINE
  5
31A
100
AcDbEntity
  8
0
100
AcDbLine
 62
7
  6
CONTINUOUS
 10
-16.6170093579
 20
-58.3198044212
 11
-16.6170093579
 21
-55.1280196903
  0
LINE
  5
31B
100
AcDbEntity
  8
0
100
AcDbLine
 62
7
  6
CONTINUOUS
 10
-16.503139747
 20
73.2088620892
 11
-16.503139747
 21
60.9618079373
  0
LINE
  5
31C
100
AcDbEntity
  8
RACCORDO
100
AcDbLine
 62
7
  6
CONTINUOUS
 10
-16.503139747
 20
-54.9769713672
 11
-16.503139747
 21
-42.7299172154
  0
LINE
  5
31D
100
AcDbEntity
  8
SUPERFICI
100
AcDbLine
 62
7
  6
CONTINUOUS
 10
-16.503139747
 20
2.992418285
 11
-16.503139747
 21
15.2394724369
  0
LINE
  5
31E
100
AcDbEntity
  8
SUPERFICI
100
AcDbLine
 62
7
  6
CONTINUOUS
 10
-16.4690838538
 20
-1.268457556
 11
-16.4690838538
 21
-2.3342467231
  0
LINE
  5
31F
100
AcDbEntity
  8
0
100
AcDbLine
 62
7
  6
CONTINUOUS
 10
-16.4690838538
 20
-59.2378472083
 11
-16.4690838538
 21
-60.3036363754
  0
LINE
  5
320
100
AcDbEntity
  8
0
100
AcDbLine
 62
7
  6
CONTINUOUS
 10
-16.4690838538
 20
55.6351429292
 11
-16.4690838538
 21
56.7009320963
  0
LINE
  5
321
100
AcDbEntity
  8
0
100
AcDbLine
 62
7
  6
CONTINUOUS
 10
-16.4048773235
 20
79.2844943717
 11
-16.4048773235
 21
75.9895561112
  0
LINE
  5
322
100
AcDbEntity
  8
0
100
AcDbLine
 62
7
  6
CONTINUOUS
 10
-16.4048773235
 20
-58.3198044212
 11
-16.4048773235
 21
-55.0248661607
  0
LINE
  5
323
100
AcDbEntity
  8
0
100
AcDbLine
 62
7
  6
CONTINUOUS
 10
-16.3848857939
 20
56.8212582074
 11
-16.3848857939
 21
55.5865280246
  0
LINE
  5
324
100
AcDbEntity
  8
SUPERFICI
100
AcDbLine
 62
7
  6
CONTINUOUS
 10
-16.3848857939
 20
-1.1481314449
 11
-16.3848857939
 21
-2.3828616277
  0
LINE
  5
325
100
AcDbEntity
  8
0
100
AcDbLine
 62
7
  6
CONTINUOUS
 10
-16.3848857939
 20
-59.1175210972
 11
-16.3848857939
 21
-60.35225128
  0
LINE
  5
326
100
AcDbEntity
  8
0
100
AcDbLine
 62
7
  6
CONTINUOUS
 10
-16.2988113063
 20
79.3436343005
 11
-16.2988113063
 21
76.0507973002
  0
LINE
  5
327
100
AcDbEntity
  8
0
100
AcDbLine
 62
7
  6
CONTINUOUS
 10
-16.2988113063
 20
-58.2585632322
 11
-16.2988113063
 21
-54.965726232
  0
LINE
  5
328
100
AcDbEntity
  8
0
100
AcDbLine
 62
7
  6
CONTINUOUS
 10
-16.2634559673
 20
79.36334761
 11
-16.2634559673
 21
76.1936934079
  0
LINE
  5
329
100
AcDbEntity
  8
0
100
AcDbLine
 62
7
  6
CONTINUOUS
 10
-16.2634559673
 20
-58.1156671246
 11
-16.2634559673
 21
-54.9460129224
  0
LINE
  5
32A
100
AcDbEntity
  8
0
100
AcDbLine
 62
7
  6
CONTINUOUS
 10
-16.0513239329
 20
79.4829789265
 11
-16.0513239329
 21
76.1936934079
  0
LINE
  5
32B
100
AcDbEntity
  8
0
100
AcDbLine
 62
7
  6
CONTINUOUS
 10
-16.0513239329
 20
-58.1156671246
 11
-16.0513239329
 21
-54.8277330648
  0
LINE
  5
32C
100
AcDbEntity
  8
0
100
AcDbLine
 62
7
  6
CONTINUOUS
 10
-15.9995251838
 20
82.5558348851
 11
-15.9995251838
 21
79.6131928588
  0
LINE
  5
32D
100
AcDbEntity
  8
0
100
AcDbLine
 62
7
  6
CONTINUOUS
 10
-15.9995251838
 20
55.119084555
 11
-15.9995251838
 21
49.8936747836
  0
LINE
  5
32E
100
AcDbEntity
  8
RACCORDO
100
AcDbLine
 62
7
  6
CONTINUOUS
 10
-15.9995251838
 20
-66.045104521
 11
-15.9995251838
 21
-60.8196947495
  0
LINE
  5
32F
100
AcDbEntity
  8
RACCORDO
100
AcDbLine
 62
7
  6
CONTINUOUS
 10
-15.9995251838
 20
-36.3255864458
 11
-15.9995251838
 21
-33.3829444195
  0
LINE
  5
330
100
AcDbEntity
  8
SUPERFICI
100
AcDbLine
 62
7
  6
CONTINUOUS
 10
-15.9995251838
 20
-8.0757148687
 11
-15.9995251838
 21
-2.8503050972
  0
LINE
  5
331
100
AcDbEntity
  8
SUPERFICI
100
AcDbLine
 62
7
  6
CONTINUOUS
 10
-15.9995251838
 20
21.6438032065
 11
-15.9995251838
 21
24.5864452328
  0
LINE
  5
332
100
AcDbEntity
  8
0
100
AcDbLine
 62
7
  6
CONTINUOUS
 10
-15.9452579158
 20
-58.0544259356
 11
-15.9452579158
 21
-54.7431684387
  0
LINE
  5
333
100
AcDbEntity
  8
0
100
AcDbLine
 62
7
  6
CONTINUOUS
 10
-15.9452579158
 20
76.2549345969
 11
-15.9452579158
 21
80.8680034972
  0
LINE
  5
334
100
AcDbEntity
  8
0
100
AcDbLine
 62
7
  6
CONTINUOUS
 10
-15.9275802462
 20
73.5297805963
 11
-15.9275802462
 21
61.2827264444
  0
LINE
  5
335
100
AcDbEntity
  8
RACCORDO
100
AcDbLine
 62
7
  6
CONTINUOUS
 10
-15.9275802462
 20
-54.6560528602
 11
-15.9275802462
 21
-42.4089987083
  0
LINE
  5
336
100
AcDbEntity
  8
SUPERFICI
100
AcDbLine
 62
7
  6
CONTINUOUS
 10
-15.9275802462
 20
3.3133367921
 11
-15.9275802462
 21
15.560390944
  0
LINE
  5
337
100
AcDbEntity
  8
0
100
AcDbLine
 62
7
  6
CONTINUOUS
 10
-15.9099025767
 20
80.8884172269
 11
-15.9099025767
 21
76.3978307045
  0
LINE
  5
338
100
AcDbEntity
  8
0
100
AcDbLine
 62
7
  6
CONTINUOUS
 10
-15.9099025767
 20
-57.9115298279
 11
-15.9099025767
 21
-53.4209433055
  0
LINE
  5
339
100
AcDbEntity
  8
0
100
AcDbLine
 62
7
  6
CONTINUOUS
 10
-15.6977705423
 20
80.8884172269
 11
-15.6977705423
 21
76.3978307045
  0
LINE
  5
33A
100
AcDbEntity
  8
0
100
AcDbLine
 62
7
  6
CONTINUOUS
 10
-15.6977705423
 20
-57.9115298279
 11
-15.6977705423
 21
-53.4209433055
  0
LINE
  5
33B
100
AcDbEntity
  8
0
100
AcDbLine
 62
7
  6
CONTINUOUS
 10
-15.5917045252
 20
-57.8502886389
 11
-15.5917045252
 21
-53.2372197385
  0
LINE
  5
33C
100
AcDbEntity
  8
0
100
AcDbLine
 62
7
  6
CONTINUOUS
 10
-15.5917045252
 20
76.4590718935
 11
-15.5917045252
 21
81.0721407939
  0
LINE
  5
33D
100
AcDbEntity
  8
0
100
AcDbLine
 62
7
  6
CONTINUOUS
 10
-15.5563491861
 20
81.0925545236
 11
-15.5563491861
 21
76.6019680012
  0
LINE
  5
33E
100
AcDbEntity
  8
0
100
AcDbLine
 62
7
  6
CONTINUOUS
 10
-15.5563491861
 20
-57.7073925312
 11
-15.5563491861
 21
-53.2168060089
  0
LINE
  5
33F
100
AcDbEntity
  8
SUPERFICI
100
AcDbLine
 62
7
  6
CONTINUOUS
 10
-15.4376077237
 20
-9.0489968368
 11
-15.4376077237
 21
-9.3799154089
  0
LINE
  5
340
100
AcDbEntity
  8
0
100
AcDbLine
 62
7
  6
CONTINUOUS
 10
-15.4376077237
 20
-67.0183864891
 11
-15.4376077237
 21
-67.3493050612
  0
LINE
  5
341
100
AcDbEntity
  8
0
100
AcDbLine
 62
7
  6
CONTINUOUS
 10
-15.4376077237
 20
48.5894742434
 11
-15.4376077237
 21
48.9203928155
  0
LINE
  5
342
100
AcDbEntity
  8
0
100
AcDbLine
 62
7
  6
CONTINUOUS
 10
-15.3534096638
 20
49.0407189266
 11
-15.3534096638
 21
48.5408593388
  0
LINE
  5
343
100
AcDbEntity
  8
SUPERFICI
100
AcDbLine
 62
7
  6
CONTINUOUS
 10
-15.3534096638
 20
-8.9286707257
 11
-15.3534096638
 21
-9.4285303134
  0
LINE
  5
344
100
AcDbEntity
  8
0
100
AcDbLine
 62
7
  6
CONTINUOUS
 10
-15.3534096638
 20
-66.898060378
 11
-15.3534096638
 21
-67.3979199657
  0
LINE
  5
345
100
AcDbEntity
  8
0
100
AcDbLine
 62
7
  6
CONTINUOUS
 10
-15.3442171517
 20
81.0925545236
 11
-15.3442171517
 21
76.6019680012
  0
LINE
  5
346
100
AcDbEntity
  8
0
100
AcDbLine
 62
7
  6
CONTINUOUS
 10
-15.3442171517
 20
-57.7073925312
 11
-15.3442171517
 21
-53.2168060089
  0
LINE
  5
347
100
AcDbEntity
  8
0
100
AcDbLine
 62
7
  6
CONTINUOUS
 10
13.2084347711
 20
33.3581360865
 11
12.1346751235
 21
32.6695836893
  0
LINE
  5
348
100
AcDbEntity
  8
SUPERFICI
100
AcDbLine
 62
7
  6
CONTINUOUS
 10
-16.6753003754
 20
17.2070770536
 11
-16.6346870274
 21
17.2321895549
  0
LINE
  5
349
100
AcDbEntity
  8
0
100
AcDbLine
 62
7
  6
CONTINUOUS
 10
13.2084347711
 20
32.9858912516
 11
12.4046250665
 21
32.5137179755
  0
LINE
  5
34A
100
AcDbEntity
  8
0
100
AcDbLine
 62
7
  6
CONTINUOUS
 10
12.5517883705
 20
32.4287477281
 11
12.8520830358
 21
32.6029910503
  0
LINE
  5
34B
100
AcDbEntity
  8
0
100
AcDbLine
 62
7
  6
CONTINUOUS
 10
13.0019081494
 20
32.7362466272
 11
12.5116133534
 21
32.4519442795
  0
LINE
  5
34C
100
AcDbEntity
  8
SUPERFICI
100
AcDbLine
 62
7
  6
CONTINUOUS
 10
-16.1397445942
 20
15.9278330625
 11
-16.6753003754
 21
15.6292196933
  0
LINE
  5
34D
100
AcDbEntity
  8
SUPERFICI
100
AcDbLine
 62
7
  6
CONTINUOUS
 10
-15.9275802462
 20
15.560390944
 11
-16.503139747
 21
15.2394724369
  0
LWPOLYLINE
  5
34E
100
AcDbEntity
  8
RACCORDO
100
AcDbPolyline
 62
7
  6
CONTINUOUS
 90
13
 70
0
 10
14.8887879409
 20
-33.599486174
 10
14.9286641611
 20
-33.6207312969
 10
14.9727785766
 20
-33.6402185117
 10
15.0171066896
 20
-33.6556794496
 10
15.0615651404
 20
-33.6671407193
 10
15.1059321805
 20
-33.6745804935
 10
15.149759213
 20
-33.6779809003
 10
15.1927498436
 20
-33.6774256674
 10
15.234677728
 20
-33.6730399971
 10
15.2750937901
 20
-33.6650142802
 10
15.3136654865
 20
-33.6536001068
 10
15.3502224077
 20
-33.6390558482
 10
15.3774524394
 20
-33.6256054688
  0
LINE
  5
34F
100
AcDbEntity
  8
RACCORDO
100
AcDbLine
 62
7
  6
CONTINUOUS
 10
-21.3052514159
 20
-12.7015125465
 11
14.8887632481
 21
-33.5994829959
  0
LINE
  5
350
100
AcDbEntity
  8
RACCORDO
100
AcDbLine
 62
7
  6
CONTINUOUS
 10
-21.3673761881
 20
-12.5641914963
 11
14.8289218059
 21
-33.4634803118
  0
LINE
  5
351
100
AcDbEntity
  8
RACCORDO
100
AcDbLine
 62
7
  6
CONTINUOUS
 10
12.8976249221
 20
-30.2548127682
 11
-19.4383626481
 21
-11.5844188103
  0
LINE
  5
352
100
AcDbEntity
  8
RACCORDO
100
AcDbLine
 62
7
  6
CONTINUOUS
 10
13.0372026587
 20
-29.9440520007
 11
-19.2987915941
 21
-11.2736541843
  0
LINE
  5
353
100
AcDbEntity
  8
RACCORDO
100
AcDbLine
 62
7
  6
CONTINUOUS
 10
-17.8913647885
 20
-10.5003688659
 11
13.2084347711
 21
-28.4570033596
  0
LINE
  5
354
100
AcDbEntity
  8
RACCORDO
100
AcDbLine
 62
7
  6
CONTINUOUS
 10
-17.7766127647
 20
-10.4095550704
 11
13.2084347711
 21
-28.2999331837
  0
LINE
  5
355
100
AcDbEntity
  8
RACCORDO
100
AcDbLine
 62
7
  6
CONTINUOUS
 10
13.2084347711
 20
-27.9540364129
 11
-17.4770761762
 21
-10.2366069717
  0
LINE
  5
356
100
AcDbEntity
  8
RACCORDO
100
AcDbLine
 62
7
  6
CONTINUOUS
 10
-16.4634590606
 20
-9.65104958
 11
13.2084347711
 21
-26.7832292023
  0
LINE
  5
357
100
AcDbEntity
  8
0
100
AcDbLine
 62
7
  6
CONTINUOUS
 10
6.5212211861
 20
-22.8750199246
 11
6.6998367517
 21
-22.9781503137
  0
LINE
  5
358
100
AcDbEntity
  8
0
100
AcDbLine
 62
7
  6
CONTINUOUS
 10
13.2084347711
 20
-26.5730206755
 11
10.1646599796
 21
-24.8155832583
  0
LINE
  5
359
100
AcDbEntity
  8
SUPERFICI
100
AcDbLine
 62
7
  6
CONTINUOUS
 10
4.8613591207
 20
-21.7535238083
 11
-5.7452425971
 21
-15.6294049084
  0
LINE
  5
35A
100
AcDbEntity
  8
0
100
AcDbLine
 62
7
  6
CONTINUOUS
 10
-11.048543456
 20
-12.5673454585
 11
-16.6728891013
 21
-9.3199187725
  0
LINE
  5
35B
100
AcDbEntity
  8
SUPERFICI
100
AcDbLine
 62
7
  6
CONTINUOUS
 10
-10.2707259967
 20
-12.9883674202
 11
-9.4184956448
 21
-13.4804345444
  0
LINE
  5
35C
100
AcDbEntity
  8
SUPERFICI
100
AcDbLine
 62
7
  6
CONTINUOUS
 10
-10.2707259967
 20
-12.8911306807
 11
-9.2721906113
 21
-13.4676724977
  0
LINE
  5
35D
100
AcDbEntity
  8
SUPERFICI
100
AcDbLine
 62
7
  6
CONTINUOUS
 10
-17.2113394835
 20
-8.6824835054
 11
-17.1469737206
 21
-8.7196474902
  0
LINE
  5
35E
100
AcDbEntity
  8
DRAFT
100
AcDbLine
 62
7
  6
CONTINUOUS
 10
-16.988187993
 20
-8.7296537331
 11
-16.6753003754
 21
-8.9103111221
  0
LINE
  5
35F
100
AcDbEntity
  8
SUPERFICI
100
AcDbLine
 62
7
  6
CONTINUOUS
 10
13.2084347711
 20
-25.9197813261
 11
10.7303454045
 21
-24.4889635836
  0
LINE
  5
360
100
AcDbEntity
  8
SUPERFICI
100
AcDbLine
 62
7
  6
CONTINUOUS
 10
5.4270445456
 20
-21.4269041337
 11
-5.1795571722
 21
-15.3027852338
  0
LINE
  5
361
100
AcDbEntity
  8
SUPERFICI
100
AcDbLine
 62
7
  6
CONTINUOUS
 10
-10.4828580311
 20
-12.2407257838
 11
-16.1397445942
 21
-8.9745103797
  0
LINE
  5
362
100
AcDbEntity
  8
SUPERFICI
100
AcDbLine
 62
7
  6
CONTINUOUS
 10
-16.2686864723
 20
-8.3284765247
 11
-15.6534096638
 21
-8.6837296427
  0
LINE
  5
363
100
AcDbEntity
  8
SUPERFICI
100
AcDbLine
 62
7
  6
CONTINUOUS
 10
-16.1792786561
 20
-8.2786248189
 11
-15.5034024157
 21
-8.6688672894
  0
LWPOLYLINE
  5
364
100
AcDbEntity
  8
RACCORDO
100
AcDbPolyline
 62
7
  6
CONTINUOUS
 90
3
 70
0
 10
-21.3813868333
 20
-12.6507084549
 10
-21.3345325512
 20
-12.683608224
 10
-21.3050874291
 20
-12.7015954311
  0
LINE
  5
365
100
AcDbEntity
  8
RACCORDO
100
AcDbLine
 62
7
  6
CONTINUOUS
 10
-21.4264214307
 20
-12.613719861
 11
-21.3813868333
 21
-12.6507084549
  0
LINE
  5
366
100
AcDbEntity
  8
0
100
AcDbLine
 62
7
  6
CONTINUOUS
 10
-15.2381511346
 20
-57.6461513422
 11
-15.2381511346
 21
-53.0330824419
  0
LINE
  5
367
100
AcDbEntity
  8
0
100
AcDbLine
 62
7
  6
CONTINUOUS
 10
-15.2381511346
 20
76.6632091902
 11
-15.2381511346
 21
81.2762780905
  0
LINE
  5
368
100
AcDbEntity
  8
0
100
AcDbLine
 62
7
  6
CONTINUOUS
 10
-15.2027957955
 20
81.2966918202
 11
-15.2027957955
 21
76.8061052979
  0
LINE
  5
369
100
AcDbEntity
  8
0
100
AcDbLine
 62
7
  6
CONTINUOUS
 10
-15.2027957955
 20
-57.5032552346
 11
-15.2027957955
 21
-53.0126687122
  0
LINE
  5
36A
100
AcDbEntity
  8
0
100
AcDbLine
 62
7
  6
CONTINUOUS
 10
-14.9906637612
 20
81.2966918202
 11
-14.9906637612
 21
76.8061052979
  0
LINE
  5
36B
100
AcDbEntity
  8
0
100
AcDbLine
 62
7
  6
CONTINUOUS
 10
-14.9906637612
 20
-57.5032552346
 11
-14.9906637612
 21
-53.0126687122
  0
LINE
  5
36C
100
AcDbEntity
  8
0
100
AcDbLine
 62
7
  6
CONTINUOUS
 10
-14.884597744
 20
-57.4420140456
 11
-14.884597744
 21
-52.8289451452
  0
LINE
  5
36D
100
AcDbEntity
  8
0
100
AcDbLine
 62
7
  6
CONTINUOUS
 10
-14.884597744
 20
76.8673464869
 11
-14.884597744
 21
81.4804153872
  0
LINE
  5
36E
100
AcDbEntity
  8
0
100
AcDbLine
 62
7
  6
CONTINUOUS
 10
-14.8492424049
 20
81.5008291169
 11
-14.8492424049
 21
77.0102425945
  0
LINE
  5
36F
100
AcDbEntity
  8
0
100
AcDbLine
 62
7
  6
CONTINUOUS
 10
-14.8492424049
 20
-57.2991179379
 11
-14.8492424049
 21
-52.8085314155
  0
LINE
  5
370
100
AcDbEntity
  8
0
100
AcDbLine
 62
7
  6
CONTINUOUS
 10
-14.6371103706
 20
81.5008291169
 11
-14.6371103706
 21
77.0102425945
  0
LINE
  5
371
100
AcDbEntity
  8
0
100
AcDbLine
 62
7
  6
CONTINUOUS
 10
-14.6371103706
 20
-57.2991179379
 11
-14.6371103706
 21
-52.8085314155
  0
LINE
  5
372
100
AcDbEntity
  8
0
100
AcDbLine
 62
7
  6
CONTINUOUS
 10
-14.5310443534
 20
-57.2378767489
 11
-14.5310443534
 21
-52.6248078485
  0
LINE
  5
373
100
AcDbEntity
  8
0
100
AcDbLine
 62
7
  6
CONTINUOUS
 10
-14.5310443534
 20
77.0714837835
 11
-14.5310443534
 21
81.6845526839
  0
LINE
  5
374
100
AcDbEntity
  8
0
100
AcDbLine
 62
7
  6
CONTINUOUS
 10
-14.4956890143
 20
81.6845526839
 11
-14.4956890143
 21
77.2143798912
  0
LINE
  5
375
100
AcDbEntity
  8
0
100
AcDbLine
 62
7
  6
CONTINUOUS
 10
-14.4956890143
 20
-57.0949806412
 11
-14.4956890143
 21
-52.6043941189
  0
LINE
  5
376
100
AcDbEntity
  8
0
100
AcDbLine
 62
7
  6
CONTINUOUS
 10
-14.28355698
 20
81.5650563503
 11
-14.28355698
 21
77.2143798912
  0
LINE
  5
377
100
AcDbEntity
  8
0
100
AcDbLine
 62
7
  6
CONTINUOUS
 10
-14.28355698
 20
-57.0949806412
 11
-14.28355698
 21
-52.6043941189
  0
LINE
  5
378
100
AcDbEntity
  8
0
100
AcDbLine
 62
7
  6
CONTINUOUS
 10
-14.1774909628
 20
81.5038151613
 11
-14.1774909628
 21
77.2756210802
  0
LINE
  5
379
100
AcDbEntity
  8
0
100
AcDbLine
 62
7
  6
CONTINUOUS
 10
-14.1774909628
 20
-57.0337394522
 11
-14.1774909628
 21
-52.4206705519
  0
LINE
  5
37A
100
AcDbEntity
  8
0
100
AcDbLine
 62
7
  6
CONTINUOUS
 10
-14.1598132933
 20
-52.197788239
 11
-14.1598132933
 21
-57.1137256574
  0
LINE
  5
37B
100
AcDbEntity
  8
0
100
AcDbLine
 62
7
  6
CONTINUOUS
 10
-14.1598132933
 20
77.195634875
 11
-14.1598132933
 21
81.4936082965
  0
LINE
  5
37C
100
AcDbEntity
  8
SUPERFICI
100
AcDbLine
 62
7
  6
CONTINUOUS
 10
-14.1080494842
 20
23.4943308696
 11
-14.1080494842
 21
19.419661618
  0
LINE
  5
37D
100
AcDbEntity
  8
0
100
AcDbLine
 62
7
  6
CONTINUOUS
 10
-14.1080494842
 20
5.8012702893
 11
-14.1080494842
 21
1.0490803919
  0
LINE
  5
37E
100
AcDbEntity
  8
0
100
AcDbLine
 62
7
  6
CONTINUOUS
 10
-14.1080494842
 20
-34.4750587827
 11
-14.1080494842
 21
-38.5497280343
  0
LINE
  5
37F
100
AcDbEntity
  8
0
100
AcDbLine
 62
7
  6
CONTINUOUS
 10
-14.1080494842
 20
59.0184701557
 11
-14.1080494842
 21
63.7706600568
  0
LINE
  5
380
100
AcDbEntity
  8
0
100
AcDbLine
 62
7
  6
CONTINUOUS
 10
-14.1012346495
 20
81.4597857217
 11
-14.1012346495
 21
77.3257444044
  0
LINE
  5
381
100
AcDbEntity
  8
0
100
AcDbLine
 62
7
  6
CONTINUOUS
 10
-14.1012346495
 20
-52.1645879311
 11
-14.1012346495
 21
-56.9836324792
  0
LINE
  5
382
100
AcDbEntity
  8
0
100
AcDbLine
 62
7
  6
CONTINUOUS
 10
-10.2707259967
 20
45.3612404075
 11
-10.2707259967
 21
44.7427336144
  0
LINE
  5
383
100
AcDbEntity
  8
RACCORDO
100
AcDbLine
 62
7
  6
CONTINUOUS
 10
-10.2707259967
 20
-71.1960456902
 11
-10.2707259967
 21
-70.5775388971
  0
LINE
  5
384
100
AcDbEntity
  8
SUPERFICI
100
AcDbLine
 62
7
  6
CONTINUOUS
 10
-10.2707259967
 20
-13.2266560379
 11
-10.2707259967
 21
-12.6081492448
  0
LINE
  5
385
100
AcDbEntity
  8
0
100
AcDbLine
 62
7
  6
CONTINUOUS
 10
-9.210065825
 20
-71.7613616161
 11
-9.210065825
 21
-71.5743832083
  0
LINE
  5
386
100
AcDbEntity
  8
0
100
AcDbLine
 62
7
  6
CONTINUOUS
 10
-9.210065825
 20
-13.604993556
 11
-9.210065825
 21
-13.8390679279
  0
LINE
  5
387
100
AcDbEntity
  8
0
100
AcDbLine
 62
7
  6
CONTINUOUS
 10
-9.210065825
 20
44.1303217244
 11
-9.210065825
 21
44.3643960963
  0
LINE
  5
388
100
AcDbEntity
  8
SMUSSO
100
AcDbLine
 62
7
  6
CONTINUOUS
 10
30.2464925653
 20
75.527232837
 11
30.9535993464
 21
76.7519777071
  0
LINE
  5
389
100
AcDbEntity
  8
DRAFT
100
AcDbLine
 62
7
  6
CONTINUOUS
 10
32.7213662994
 20
77.7727075908
 11
33.045399311
 21
78.3339492323
  0
LINE
  5
38A
100
AcDbEntity
  8
0
100
AcDbLine
 62
7
  6
CONTINUOUS
 10
13.0019081494
 20
32.7362466272
 11
13.1965820408
 21
32.97892873
  0
LINE
  5
38B
100
AcDbEntity
  8
0
100
AcDbLine
 62
7
  6
CONTINUOUS
 10
-14.2231225495
 20
0.9012128272
 11
-16.6753003754
 21
-0.6630333904
  0
LINE
  5
38C
100
AcDbEntity
  8
SUPERFICI
100
AcDbLine
 62
7
  6
CONTINUOUS
 10
-16.6753003754
 20
-1.3917548731
 11
-16.4690838538
 21
-1.268457556
  0
LINE
  5
38D
100
AcDbEntity
  8
SUPERFICI
100
AcDbLine
 62
7
  6
CONTINUOUS
 10
-15.4365245534
 20
5.653086025
 11
-15.9275802462
 21
5.3707681192
  0
LINE
  5
38E
100
AcDbEntity
  8
SUPERFICI
100
AcDbLine
 62
7
  6
CONTINUOUS
 10
-15.6268716374
 20
5.5899472489
 11
-15.9275802462
 21
5.4171778786
  0
LINE
  5
38F
100
AcDbEntity
  8
SUPERFICI
100
AcDbLine
 62
7
  6
CONTINUOUS
 10
-14.5707549225
 20
6.0169730514
 11
-15.9275802462
 21
5.2470379952
  0
LINE
  5
390
100
AcDbEntity
  8
SUPERFICI
100
AcDbLine
 62
7
  6
CONTINUOUS
 10
-16.503139747
 20
2.992418285
 11
-15.9275802462
 21
3.3133367921
  0
LINE
  5
391
100
AcDbEntity
  8
SUPERFICI
100
AcDbLine
 62
7
  6
CONTINUOUS
 10
-16.5665685959
 20
2.8543682224
 11
-15.9910090951
 21
3.1752867294
  0
LINE
  5
392
100
AcDbEntity
  8
RACCORDO
100
AcDbLine
 62
7
  6
CONTINUOUS
 10
15.5299676418
 20
24.6683621622
 11
15.821514229
 21
24.8251464821
  0
LINE
  5
393
100
AcDbEntity
  8
RACCORDO
100
AcDbLine
 62
7
  6
CONTINUOUS
 10
15.3773228035
 20
24.3437077471
 11
15.6704021712
 21
24.5013163466
  0
LINE
  5
394
100
AcDbEntity
  8
0
100
AcDbLine
 62
7
  6
CONTINUOUS
 10
-14.2231225495
 20
5.8162544761
 11
-15.9275802462
 21
4.9352643943
  0
LINE
  5
395
100
AcDbEntity
  8
0
100
AcDbLine
 62
7
  6
CONTINUOUS
 10
-6.2310240414
 20
-12.59432776
 11
-2.1153742775
 21
-14.9706523525
  0
LINE
  5
396
100
AcDbEntity
  8
0
100
AcDbLine
 62
7
  6
CONTINUOUS
 10
9.6788785353
 20
-21.7805061099
 11
13.2084347711
 21
-23.8184276447
  0
LINE
  5
397
100
AcDbEntity
  8
SUPERFICI
100
AcDbLine
 62
7
  6
CONTINUOUS
 10
-16.2116895318
 20
-2.4828629787
 11
-16.6753003754
 21
-2.215179888
  0
LINE
  5
398
100
AcDbEntity
  8
SUPERFICI
100
AcDbLine
 62
7
  6
CONTINUOUS
 10
-16.6753003754
 20
-0.9087011894
 11
-16.4727537595
 21
-1.0256490669
  0
LINE
  5
399
100
AcDbEntity
  8
0
100
AcDbLine
 62
7
  6
CONTINUOUS
 10
-2.1599282431
 20
-15.0778109425
 11
-2.1599282431
 21
-15.479209299
  0
LINE
  5
39A
100
AcDbEntity
  8
ASSI
100
AcDbLine
 62
7
  6
CONTINUOUS
 10
-2.1599282431
 20
-72.9657773559
 11
-2.1599282431
 21
-73.4485989513
  0
LINE
  5
39B
100
AcDbEntity
  8
0
100
AcDbLine
 62
7
  6
CONTINUOUS
 10
-2.1599282431
 20
42.4901803533
 11
-2.1599282431
 21
42.8915787098
  0
LINE
  5
39C
100
AcDbEntity
  8
0
100
AcDbLine
 62
7
  6
CONTINUOUS
 10
-2.1085572082
 20
42.968848235
 11
-2.1085572082
 21
42.52068301
  0
LINE
  5
39D
100
AcDbEntity
  8
SUPERFICI
100
AcDbLine
 62
7
  6
CONTINUOUS
 10
-2.1085572082
 20
-15.0005414173
 11
-2.1085572082
 21
-15.4486752344
  0
LINE
  5
39E
100
AcDbEntity
  8
ASSI
100
AcDbLine
 62
7
  6
CONTINUOUS
 10
-2.1085572082
 20
-72.9364982055
 11
-2.1085572082
 21
-73.4180648867
  0
LINE
  5
39F
100
AcDbEntity
  8
RACCORDO
100
AcDbLine
 62
7
  6
CONTINUOUS
 10
13.0372026587
 20
28.0253376516
 11
13.2084347711
 21
28.3504863951
  0
LINE
  5
3A0
100
AcDbEntity
  8
RACCORDO
100
AcDbLine
 62
7
  6
CONTINUOUS
 10
13.2048799737
 20
28.0259504339
 11
13.2048210433
 21
28.0258386454
  0
LINE
  5
3A1
100
AcDbEntity
  8
DRAFT
100
AcDbLine
 62
7
  6
CONTINUOUS
 10
-16.6753003754
 20
-2.7867840462
 11
-17.2113394835
 21
-3.1305211327
  0
LINE
  5
3A2
100
AcDbEntity
  8
DRAFT
100
AcDbLine
 62
7
  6
CONTINUOUS
 10
-16.6753003754
 20
-8.9103111221
 11
-17.2113394835
 21
-9.2540482086
  0
LINE
  5
3A3
100
AcDbEntity
  8
SUPERFICI
100
AcDbLine
 62
7
  6
CONTINUOUS
 10
-15.6534096638
 20
-8.6837296427
 11
-16.1397445942
 21
-8.9745103797
  0
LINE
  5
3A4
100
AcDbEntity
  8
SUPERFICI
100
AcDbLine
 62
7
  6
CONTINUOUS
 10
-15.4376077237
 20
-9.0489968368
 11
-15.7191711325
 21
-9.2173442254
  0
LINE
  5
3A5
100
AcDbEntity
  8
RACCORDO
100
AcDbLine
 62
7
  6
CONTINUOUS
 10
15.035068282
 20
9.3480651424
 11
15.3266148693
 21
9.5163999298
  0
LINE
  5
3A6
100
AcDbEntity
  8
RACCORDO
100
AcDbLine
 62
7
  6
CONTINUOUS
 10
-17.9887124903
 20
-10.0421875697
 11
-16.6753003754
 21
-9.2841296601
  0
LINE
  5
3A7
100
AcDbEntity
  8
RACCORDO
100
AcDbLine
 62
7
  6
CONTINUOUS
 10
-19.4981229498
 20
-10.928392426
 11
-18.1209228731
 21
-10.1332836336
  0
LINE
  5
3A8
100
AcDbEntity
  8
RACCORDO
100
AcDbLine
 62
7
  6
CONTINUOUS
 10
-19.2987915941
 20
-11.2736541843
 11
-17.9215878168
 21
-10.4785237147
  0
LINE
  5
3A9
100
AcDbEntity
  8
RACCORDO
100
AcDbLine
 62
7
  6
CONTINUOUS
 10
-17.7766127647
 20
-10.4095550704
 11
-16.4634590606
 21
-9.65104958
  0
LINE
  5
3AA
100
AcDbEntity
  8
RACCORDO
100
AcDbLine
 62
7
  6
CONTINUOUS
 10
15.5299676418
 20
8.4908743075
 11
15.821514229
 21
8.6592090949
  0
LINE
  5
3AB
100
AcDbEntity
  8
SUPERFICI
100
AcDbLine
 62
7
  6
CONTINUOUS
 10
-16.2116895318
 20
-2.4828629787
 11
-16.6753003754
 21
-2.7413615346
  0
LINE
  5
3AC
100
AcDbEntity
  8
SUPERFICI
100
AcDbLine
 62
7
  6
CONTINUOUS
 10
-15.9995251838
 20
-2.8503050972
 11
-16.9348093726
 21
-3.3717976712
  0
LINE
  5
3AD
100
AcDbEntity
  8
SUPERFICI
100
AcDbLine
 62
7
  6
CONTINUOUS
 10
-16.9348093726
 20
-8.5972074427
 11
-15.9995251838
 21
-8.0757148687
  0
LINE
  5
3AE
100
AcDbEntity
  8
SUPERFICI
100
AcDbLine
 62
7
  6
CONTINUOUS
 10
-16.9982382215
 20
-8.7352575053
 11
-16.0629540327
 21
-8.2137649314
  0
LINE
  5
3AF
100
AcDbEntity
  8
0
100
AcDbLine
 62
7
  6
CONTINUOUS
 10
-14.5707549225
 20
6.0169730514
 11
-14.2231225495
 21
5.8162544761
  0
LINE
  5
3B0
100
AcDbEntity
  8
SUPERFICI
100
AcDbLine
 62
7
  6
CONTINUOUS
 10
-14.5186592419
 20
6.0462202429
 11
-14.1305191394
 21
5.8221130122
  0
LWPOLYLINE
  5
3B1
100
AcDbEntity
  8
RACCORDO
100
AcDbPolyline
 62
7
  6
CONTINUOUS
 90
10
 70
0
 10
-21.7068831613
 20
45.8042469502
 10
-21.6887138572
 20
45.7476552246
 10
-21.6669640803
 20
45.6923287973
 10
-21.6417425718
 20
45.6382393982
 10
-21.6132608717
 20
45.5857384243
 10
-21.5816682161
 20
45.5350366138
 10
-21.5470737007
 20
45.4863843493
 10
-21.5096833946
 20
45.4401557632
 10
-21.4694001277
 20
45.3964213088
 10
-21.4264214307
 20
45.3556697912
  0
LINE
  5
3B2
100
AcDbEntity
  8
RACCORDO
100
AcDbLine
 62
7
  6
CONTINUOUS
 10
5.63917658
 20
-80.3822240401
 11
5.63917658
 21
-79.763717247
  0
LINE
  5
3B3
100
AcDbEntity
  8
0
100
AcDbLine
 62
7
  6
CONTINUOUS
 10
5.63917658
 20
36.1750620576
 11
5.63917658
 21
35.5565552645
  0
LINE
  5
3B4
100
AcDbEntity
  8
SUPERFICI
100
AcDbLine
 62
7
  6
CONTINUOUS
 10
5.63917658
 20
-22.4128343878
 11
5.63917658
 21
-21.7943275947
  0
LINE
  5
3B5
100
AcDbEntity
  8
0
100
AcDbLine
 62
7
  6
CONTINUOUS
 10
6.6998367517
 20
34.9912393386
 11
6.6998367517
 21
34.9441433745
  0
LINE
  5
3B6
100
AcDbEntity
  8
0
100
AcDbLine
 62
7
  6
CONTINUOUS
 10
6.6998367517
 20
-22.9781503137
 11
6.6998367517
 21
-23.0252462778
  0
LINE
  5
3B7
100
AcDbEntity
  8
SUPERFICI
100
AcDbLine
 62
7
  6
CONTINUOUS
 10
-2.9079944273
 20
-16.0469646752
 11
-2.7133205359
 21
-15.8042825724
  0
LINE
  5
3B8
100
AcDbEntity
  8
SUPERFICI
100
AcDbLine
 62
7
  6
CONTINUOUS
 10
-11.048543456
 20
-12.5673454585
 11
-10.4828580311
 21
-12.2407257838
  0
LINE
  5
3B9
100
AcDbEntity
  8
SUPERFICI
100
AcDbLine
 62
7
  6
CONTINUOUS
 10
-10.8063340835
 20
-12.9174026414
 11
-10.2707259967
 21
-12.6081492448
  0
LINE
  5
3BA
100
AcDbEntity
  8
SUPERFICI
100
AcDbLine
 62
7
  6
CONTINUOUS
 10
-9.4184956448
 20
-13.4804345444
 11
-9.6285118383
 21
-13.5974624441
  0
LINE
  5
3BB
100
AcDbEntity
  8
0
100
AcDbLine
 62
7
  6
CONTINUOUS
 10
-6.4166163045
 20
-12.6200526046
 11
-8.9974937683
 21
-13.9618043693
  0
LINE
  5
3BC
100
AcDbEntity
  8
SUPERFICI
100
AcDbLine
 62
7
  6
CONTINUOUS
 10
-15.4365245534
 20
5.653086025
 11
-15.1286547065
 21
5.7003909579
  0
LINE
  5
3BD
100
AcDbEntity
  8
SUPERFICI
100
AcDbLine
 62
7
  6
CONTINUOUS
 10
-16.6753003754
 20
16.2370562585
 11
-16.1397445942
 21
15.9278330625
  0
LINE
  5
3BE
100
AcDbEntity
  8
SUPERFICI
100
AcDbLine
 62
7
  6
CONTINUOUS
 10
-16.6346870274
 20
17.4384304003
 11
-16.6753003754
 21
17.4618800384
  0
LINE
  5
3BF
100
AcDbEntity
  8
RACCORDO
100
AcDbLine
 62
7
  6
CONTINUOUS
 10
13.2084347711
 20
65.4043857135
 11
13.2084347711
 21
28.0672063696
  0
LINE
  5
3C0
100
AcDbEntity
  8
RACCORDO
100
AcDbLine
 62
7
  6
CONTINUOUS
 10
13.2084347711
 20
7.4349960612
 11
13.2084347711
 21
-29.9021832827
  0
LINE
  5
3C1
100
AcDbEntity
  8
RACCORDO
100
AcDbLine
 62
7
  6
CONTINUOUS
 10
13.2084347711
 20
-50.5343935911
 11
13.2084347711
 21
-87.871572935
  0
LINE
  5
3C2
100
AcDbEntity
  8
RACCORDO
100
AcDbLine
 62
7
  6
CONTINUOUS
 10
13.2963027367
 20
65.2819033355
 11
13.2963027367
 21
27.9447239671
  0
LINE
  5
3C3
100
AcDbEntity
  8
RACCORDO
100
AcDbLine
 62
7
  6
CONTINUOUS
 10
13.2963027367
 20
7.3125136832
 11
13.2963027367
 21
-30.0246656852
  0
LINE
  5
3C4
100
AcDbEntity
  8
RACCORDO
100
AcDbLine
 62
7
  6
CONTINUOUS
 10
13.2963027367
 20
-50.6568759691
 11
13.2963027367
 21
-87.9940553375
  0
LINE
  5
3C5
100
AcDbEntity
  8
RACCORDO
100
AcDbLine
 62
7
  6
CONTINUOUS
 10
15.1094380963
 20
-91.2682981848
 11
15.1094380963
 21
-49.4737598991
  0
LINE
  5
3C6
100
AcDbEntity
  8
RACCORDO
100
AcDbLine
 62
7
  6
CONTINUOUS
 10
15.1094380963
 20
-33.2989085325
 11
15.1094380963
 21
8.4956297532
  0
LINE
  5
3C7
100
AcDbEntity
  8
RACCORDO
100
AcDbLine
 62
7
  6
CONTINUOUS
 10
15.1094380963
 20
24.6704811198
 11
15.1094380963
 21
66.4650194055
  0
LINE
  5
3C8
100
AcDbEntity
  8
RACCORDO
100
AcDbLine
 62
7
  6
CONTINUOUS
 10
15.5299676418
 20
-91.2704171423
 11
15.5299676418
 21
-49.4785153448
  0
LINE
  5
3C9
100
AcDbEntity
  8
RACCORDO
100
AcDbLine
 62
7
  6
CONTINUOUS
 10
15.5299676418
 20
-33.3010274901
 11
15.5299676418
 21
8.4908743075
  0
LINE
  5
3CA
100
AcDbEntity
  8
RACCORDO
100
AcDbLine
 62
7
  6
CONTINUOUS
 10
15.5299676418
 20
24.6683621622
 11
15.5299676418
 21
66.4602639598
  0
LINE
  5
3CB
100
AcDbEntity
  8
RACCORDO
100
AcDbLine
 62
7
  6
CONTINUOUS
 10
15.821514229
 20
-91.1136328225
 11
15.821514229
 21
-49.3101805574
  0
LINE
  5
3CC
100
AcDbEntity
  8
RACCORDO
100
AcDbLine
 62
7
  6
CONTINUOUS
 10
15.821514229
 20
-33.1442431702
 11
15.821514229
 21
8.6592090949
  0
LINE
  5
3CD
100
AcDbEntity
  8
RACCORDO
100
AcDbLine
 62
7
  6
CONTINUOUS
 10
15.821514229
 20
24.8251464821
 11
15.821514229
 21
66.6285987472
  0
LWPOLYLINE
  5
3CE
100
AcDbEntity
  8
RACCORDO
100
AcDbPolyline
 62
7
  6
CONTINUOUS
 90
6
 70
0
 10
13.2084345968
 20
28.0671924074
 10
13.2080224549
 20
28.0522771517
 10
13.2069522452
 20
28.0401125241
 10
13.205560408
 20
28.0311009827
 10
13.2042969343
 20
28.0255419632
 10
13.2040973121
 20
28.0248285684
  0
LWPOLYLINE
  5
3CF
100
AcDbEntity
  8
RACCORDO
100
AcDbPolyline
 62
7
  6
CONTINUOUS
 90
6
 70
0
 10
13.2084345968
 20
-29.9021972449
 10
13.2080224549
 20
-29.9171125006
 10
13.2069522452
 20
-29.9292771282
 10
13.205560408
 20
-29.9382886696
 10
13.2042969343
 20
-29.9438476891
 10
13.2040973121
 20
-29.9445610839
  0
LWPOLYLINE
  5
3D0
100
AcDbEntity
  8
RACCORDO
100
AcDbPolyline
 62
7
  6
CONTINUOUS
 90
6
 70
0
 10
13.2084345968
 20
-87.8715868972
 10
13.2080224549
 20
-87.8865021529
 10
13.2069522452
 20
-87.8986667805
 10
13.205560408
 20
-87.9076783219
 10
13.2042969343
 20
-87.9132373414
 10
13.2040973121
 20
-87.9139507362
  0
LWPOLYLINE
  5
3D1
100
AcDbEntity
  8
RACCORDO
100
AcDbPolyline
 62
7
  6
CONTINUOUS
 90
13
 70
0
 10
-21.5163239249
 20
-27.6931259695
 10
-21.5416104158
 20
-27.7099996868
 10
-21.5724944579
 20
-27.7343980043
 10
-21.6016755772
 20
-27.7621093006
 10
-21.6288424427
 20
-27.7931175882
 10
-21.6536106677
 20
-27.8272602673
 10
-21.6755911475
 20
-27.8642431408
 10
-21.6945624443
 20
-27.903932744
 10
-21.7103003777
 20
-27.9461149399
 10
-21.7225953899
 20
-27.9903897825
 10
-21.7313566775
 20
-28.0365520699
 10
-21.7365186281
 20
-28.0845453614
 10
-21.7380337472
 20
-28.1293528915
  0
LINE
  5
3D2
100
AcDbEntity
  8
0
100
AcDbLine
 62
7
  6
CONTINUOUS
 10
-2.1599282431
 20
-15.0778109425
 11
-3.7752274532
 21
-16.1136276131
  0
LINE
  5
3D3
100
AcDbEntity
  8
RACCORDO
100
AcDbLine
 62
7
  6
CONTINUOUS
 10
-21.5165189466
 20
-27.6932392768
 11
-21.2334539295
 21
-27.5181876242
  0
LINE
  5
3D4
100
AcDbEntity
  8
RACCORDO
100
AcDbLine
 62
7
  6
CONTINUOUS
 10
-21.1589463682
 20
-27.7233540684
 11
-20.8774031016
 21
-27.5492434891
  0
LINE
  5
3D5
100
AcDbEntity
  8
SUPERFICI
100
AcDbLine
 62
7
  6
CONTINUOUS
 10
-2.1599282431
 20
-15.479209299
 11
-3.5052775102
 21
-16.269493327
  0
LINE
  5
3D6
100
AcDbEntity
  8
SUPERFICI
100
AcDbLine
 62
7
  6
CONTINUOUS
 10
-3.057818459
 20
-16.1802196244
 11
-3.3581142062
 21
-16.3544635743
  0
LINE
  5
3D7
100
AcDbEntity
  8
SUPERFICI
100
AcDbLine
 62
7
  6
CONTINUOUS
 10
-2.9079944273
 20
-16.0469646752
 11
-3.3982892233
 21
-16.3312670229
  0
LINE
  5
3D8
100
AcDbEntity
  8
SUPERFICI
100
AcDbLine
 62
7
  6
CONTINUOUS
 10
-5.3295644202
 20
-15.2879228805
 11
-5.8952498452
 21
-15.6145425551
  0
LINE
  5
3D9
100
AcDbEntity
  8
SUPERFICI
100
AcDbLine
 62
7
  6
CONTINUOUS
 10
-5.1795571722
 20
-15.3027852338
 11
-5.7452425971
 21
-15.6294049084
  0
LINE
  5
3DA
100
AcDbEntity
  8
SUPERFICI
100
AcDbLine
 62
7
  6
CONTINUOUS
 10
-17.2113394835
 20
21.0370345699
 11
-17.1469737206
 21
20.9998705851
  0
LINE
  5
3DB
100
AcDbEntity
  8
DRAFT
100
AcDbLine
 62
7
  6
CONTINUOUS
 10
-16.988187993
 20
20.9898643421
 11
-16.6753003754
 21
20.8092069531
  0
LINE
  5
3DC
100
AcDbEntity
  8
RACCORDO
100
AcDbLine
 62
7
  6
CONTINUOUS
 10
-19.3762378618
 20
26.5361168129
 11
12.9597496872
 21
7.8657228672
  0
LINE
  5
3DD
100
AcDbEntity
  8
RACCORDO
100
AcDbLine
 62
7
  6
CONTINUOUS
 10
-19.4383626481
 20
26.6734378712
 11
12.8976249221
 21
8.0030439133
  0
LINE
  5
3DE
100
AcDbEntity
  8
RACCORDO
100
AcDbLine
 62
7
  6
CONTINUOUS
 10
14.8266384621
 20
8.9828165993
 11
-21.3696595241
 21
29.8821054104
  0
LINE
  5
3DF
100
AcDbEntity
  8
RACCORDO
100
AcDbLine
 62
7
  6
CONTINUOUS
 10
15.035068282
 20
9.3480651424
 11
-21.1589463682
 21
30.2460355839
  0
LINE
  5
3E0
100
AcDbEntity
  8
RACCORDO
100
AcDbLine
 62
7
  6
CONTINUOUS
 10
15.3266148693
 20
9.5163999298
 11
-20.8774031016
 21
30.4201461632
  0
LWPOLYLINE
  5
3E1
100
AcDbEntity
  8
RACCORDO
100
AcDbPolyline
 62
7
  6
CONTINUOUS
 90
21
 70
0
 10
12.959830034
 20
7.8656763235
 10
12.9729679011
 20
7.8576394437
 10
12.9908487442
 20
7.8452996395
 10
13.0094145191
 20
7.8308023713
 10
13.0283000571
 20
7.8142675089
 10
13.047215931
 20
7.7958154516
 10
13.0658917636
 20
7.7756015381
 10
13.084113792
 20
7.7537669441
 10
13.1016443605
 20
7.7305257148
 10
13.1182562864
 20
7.7061289709
 10
13.1338184492
 20
7.6807337782
 10
13.1481435293
 20
7.654637312
 10
13.1610791526
 20
7.6281475335
 10
13.1725626824
 20
7.60143268
 10
13.1824888976
 20
7.5748119544
 10
13.1907867665
 20
7.5486296341
 10
13.1974541751
 20
7.5231097853
 10
13.2024976817
 20
7.4985252579
 10
13.2059467221
 20
7.4752113467
 10
13.2078777452
 20
7.4535408295
 10
13.208434272
 20
7.4351065188
  0
LINE
  5
3E2
100
AcDbEntity
  8
RACCORDO
100
AcDbLine
 62
7
  6
CONTINUOUS
 10
13.0372026587
 20
-29.9440520007
 11
13.2084347711
 21
-29.6189032572
  0
LINE
  5
3E3
100
AcDbEntity
  8
DRAFT
100
AcDbLine
 62
7
  6
CONTINUOUS
 10
-16.6753003754
 20
-37.1601826991
 11
-17.2113394835
 21
-37.5039197856
  0
LINE
  5
3E4
100
AcDbEntity
  8
0
100
AcDbLine
 62
7
  6
CONTINUOUS
 10
-14.2231225495
 20
-38.6975955972
 11
-16.6753003754
 21
-40.2618418149
  0
LINE
  5
3E5
100
AcDbEntity
  8
SUPERFICI
100
AcDbLine
 62
7
  6
CONTINUOUS
 10
4.8613591207
 20
-21.7535238083
 11
5.4270445456
 21
-21.4269041337
  0
LINE
  5
3E6
100
AcDbEntity
  8
SUPERFICI
100
AcDbLine
 62
7
  6
CONTINUOUS
 10
5.1035684932
 20
-22.1035809913
 11
5.63917658
 21
-21.7943275947
  0
LINE
  5
3E7
100
AcDbEntity
  8
0
100
AcDbLine
 62
7
  6
CONTINUOUS
 10
6.6998367517
 20
-22.9781503137
 11
6.659053078
 21
-23.0016982957
  0
LINE
  5
3E8
100
AcDbEntity
  8
0
100
AcDbLine
 62
7
  6
CONTINUOUS
 10
-15.4365245534
 20
-33.9457223995
 11
-15.9995251838
 21
-34.2694029132
  0
LINE
  5
3E9
100
AcDbEntity
  8
0
100
AcDbLine
 62
7
  6
CONTINUOUS
 10
-15.6268716374
 20
-34.0088611756
 11
-15.9995251838
 21
-34.2229658492
  0
LINE
  5
3EA
100
AcDbEntity
  8
0
100
AcDbLine
 62
7
  6
CONTINUOUS
 10
-15.1176109457
 20
-33.8921506476
 11
-15.9995251838
 21
-34.3925958241
  0
LINE
  5
3EB
100
AcDbEntity
  8
RACCORDO
100
AcDbLine
 62
7
  6
CONTINUOUS
 10
-16.9348093726
 20
-36.8470790197
 11
-15.9995251838
 21
-36.3255864458
  0
LINE
  5
3EC
100
AcDbEntity
  8
RACCORDO
100
AcDbLine
 62
7
  6
CONTINUOUS
 10
-16.9982382215
 20
-36.9851290824
 11
-16.0629540327
 21
-36.4636365084
  0
LINE
  5
3ED
100
AcDbEntity
  8
SUPERFICI
100
AcDbLine
 62
7
  6
CONTINUOUS
 10
6.4789913445
 20
-22.8977329075
 11
6.5212211861
 21
-22.8750199246
  0
LINE
  5
3EE
100
AcDbEntity
  8
0
100
AcDbLine
 62
7
  6
CONTINUOUS
 10
9.4932862722
 20
-21.8062309545
 11
6.9124088084
 21
-23.1479827192
  0
LINE
  5
3EF
100
AcDbEntity
  8
0
100
AcDbLine
 62
7
  6
CONTINUOUS
 10
-14.7952554771
 20
-34.0782746551
 11
-15.9995251838
 21
-34.7007305068
  0
LWPOLYLINE
  5
3F0
100
AcDbEntity
  8
RACCORDO
100
AcDbPolyline
 62
7
  6
CONTINUOUS
 90
9
 70
0
 10
-19.4137780679
 20
26.5536683897
 10
-19.4150171444
 20
26.5537347958
 10
-19.4166467159
 20
26.5538942685
 10
-19.414789941
 20
26.5534734689
 10
-19.4097882531
 20
26.5519711151
 10
-19.401788392
 20
26.548946763
 10
-19.3912508417
 20
26.5441579196
 10
-19.3791742191
 20
26.5377894531
 10
-19.3762785481
 20
26.5361401146
  0
LWPOLYLINE
  5
3F1
100
AcDbEntity
  8
RACCORDO
100
AcDbPolyline
 62
7
  6
CONTINUOUS
 90
3
 70
0
 10
-21.3813868333
 20
45.3186811974
 10
-21.3345325512
 20
45.2857814283
 10
-21.3050874291
 20
45.2677942212
  0
LINE
  5
3F2
100
AcDbEntity
  8
RACCORDO
100
AcDbLine
 62
7
  6
CONTINUOUS
 10
-21.4264214307
 20
45.3556697912
 11
-21.3813868333
 21
45.3186811974
  0
LINE
  5
3F3
100
AcDbEntity
  8
SMUSSO
100
AcDbLine
 62
7
  6
CONTINUOUS
 10
30.2464925653
 20
-116.6698703201
 11
30.2464925653
 21
75.527232837
  0
LINE
  5
3F4
100
AcDbEntity
  8
SMUSSO
100
AcDbLine
 62
7
  6
CONTINUOUS
 10
31.6607061276
 20
-116.6698703201
 11
31.6607061276
 21
75.527232837
  0
LINE
  5
3F5
100
AcDbEntity
  8
SMUSSO
100
AcDbLine
 62
7
  6
CONTINUOUS
 10
33.4284730806
 20
76.9561939136
 11
33.4284730806
 21
-115.6491838368
  0
LINE
  5
3F6
100
AcDbEntity
  8
RACCORDO
100
AcDbLine
 62
7
  6
CONTINUOUS
 10
13.2048799737
 20
-29.9434392184
 11
13.2048210433
 21
-29.9435510069
  0
LINE
  5
3F7
100
AcDbEntity
  8
ASSI
100
AcDbLine
 62
7
  6
CONTINUOUS
 10
-8.6974134086
 20
-72.0369469666
 11
-8.5913473914
 21
-71.8532352361
  0
LINE
  5
3F8
100
AcDbEntity
  8
ASSI
100
AcDbLine
 62
7
  6
CONTINUOUS
 10
-8.343860018
 20
-71.8328096699
 11
-8.2377940008
 21
-71.6490979394
  0
LINE
  5
3F9
100
AcDbEntity
  8
ASSI
100
AcDbLine
 62
7
  6
CONTINUOUS
 10
-7.9903066274
 20
-71.6286723732
 11
-7.8842406102
 21
-71.4449606427
  0
LINE
  5
3FA
100
AcDbEntity
  8
ASSI
100
AcDbLine
 62
7
  6
CONTINUOUS
 10
-7.6367532368
 20
-71.4245350766
 11
-7.5306872196
 21
-71.2408233461
  0
LINE
  5
3FB
100
AcDbEntity
  8
ASSI
100
AcDbLine
 62
7
  6
CONTINUOUS
 10
-7.2831998462
 20
-71.2203977799
 11
-7.177133829
 21
-71.0366860494
  0
LINE
  5
3FC
100
AcDbEntity
  8
ASSI
100
AcDbLine
 62
7
  6
CONTINUOUS
 10
-6.9296464556
 20
-71.0162604833
 11
-6.8235804385
 21
-70.8325487527
  0
LINE
  5
3FD
100
AcDbEntity
  8
ASSI
100
AcDbLine
 62
7
  6
CONTINUOUS
 10
-6.576093065
 20
-70.8121231866
 11
-6.4700270479
 21
-70.6284114561
  0
LINE
  5
3FE
100
AcDbEntity
  8
ASSI
100
AcDbLine
 62
7
  6
CONTINUOUS
 10
-4.1012193309
 20
-73.8741826365
 11
-3.9951533137
 21
-73.690470906
  0
LINE
  5
3FF
100
AcDbEntity
  8
ASSI
100
AcDbLine
 62
7
  6
CONTINUOUS
 10
-3.7476659403
 20
-73.6700453399
 11
-3.6415999231
 21
-73.4863336094
  0
LINE
  5
400
100
AcDbEntity
  8
SUPERFICI
100
AcDbLine
 62
7
  6
CONTINUOUS
 10
13.0019081494
 20
-25.233143025
 11
13.1965820408
 21
-24.9904609223
  0
LINE
  5
401
100
AcDbEntity
  8
0
100
AcDbLine
 62
7
  6
CONTINUOUS
 10
13.2084347711
 20
-24.6112535658
 11
12.1346751235
 21
-25.299805963
  0
LINE
  5
402
100
AcDbEntity
  8
RACCORDO
100
AcDbLine
 62
7
  6
CONTINUOUS
 10
-16.6753003754
 20
-40.7623125987
 11
-16.6346870274
 21
-40.7372000974
  0
LINE
  5
403
100
AcDbEntity
  8
SUPERFICI
100
AcDbLine
 62
7
  6
CONTINUOUS
 10
13.2084347711
 20
-24.9834984007
 11
12.4046250665
 21
-25.4556716768
  0
LINE
  5
404
100
AcDbEntity
  8
SUPERFICI
100
AcDbLine
 62
7
  6
CONTINUOUS
 10
12.8520841177
 20
-25.3663979743
 11
12.5517883705
 21
-25.5406419242
  0
LINE
  5
405
100
AcDbEntity
  8
SUPERFICI
100
AcDbLine
 62
7
  6
CONTINUOUS
 10
13.0019081494
 20
-25.233143025
 11
12.5116133534
 21
-25.5174453728
  0
LINE
  5
406
100
AcDbEntity
  8
SUPERFICI
100
AcDbLine
 62
7
  6
CONTINUOUS
 10
10.5803381565
 20
-24.4741012303
 11
10.0146527315
 21
-24.800720905
  0
LINE
  5
407
100
AcDbEntity
  8
SUPERFICI
100
AcDbLine
 62
7
  6
CONTINUOUS
 10
10.7303454045
 20
-24.4889635836
 11
10.1646599796
 21
-24.8155832583
  0
LINE
  5
408
100
AcDbEntity
  8
0
100
AcDbLine
 62
7
  6
CONTINUOUS
 10
-16.6346870274
 20
-40.530959252
 11
-16.6753003754
 21
-40.5544088901
  0
LINE
  5
409
100
AcDbEntity
  8
RACCORDO
100
AcDbLine
 62
7
  6
CONTINUOUS
 10
-16.1397445942
 20
-42.0415565898
 11
-16.6753003754
 21
-42.340169959
  0
LINE
  5
40A
100
AcDbEntity
  8
RACCORDO
100
AcDbLine
 62
7
  6
CONTINUOUS
 10
-15.9275802462
 20
-42.4089987083
 11
-16.503139747
 21
-42.7299172154
  0
LINE
  5
40B
100
AcDbEntity
  8
SUPERFICI
100
AcDbLine
 62
7
  6
CONTINUOUS
 10
-15.4365245534
 20
24.0236672528
 11
-15.1286547065
 21
24.0709721857
  0
LINE
  5
40C
100
AcDbEntity
  8
RACCORDO
100
AcDbLine
 62
7
  6
CONTINUOUS
 10
-19.4138880447
 20
26.5536795377
 11
-19.4137617446
 21
26.5536746828
  0
LINE
  5
40D
100
AcDbEntity
  8
RACCORDO
100
AcDbLine
 62
7
  6
CONTINUOUS
 10
-19.1310002428
 20
26.3945196852
 11
-19.4981229498
 21
26.40878484
  0
LWPOLYLINE
  5
40E
100
AcDbEntity
  8
RACCORDO
100
AcDbPolyline
 62
7
  6
CONTINUOUS
 90
13
 70
0
 10
14.8887879409
 20
24.3699034783
 10
14.9286641611
 20
24.3486583554
 10
14.9727785766
 20
24.3291711405
 10
15.0171066896
 20
24.3137102026
 10
15.0615651404
 20
24.302248933
 10
15.1059321805
 20
24.2948091588
 10
15.149759213
 20
24.291408752
 10
15.1927498436
 20
24.2919639849
 10
15.234677728
 20
24.2963496552
 10
15.2750937901
 20
24.3043753721
 10
15.3136654865
 20
24.3157895455
 10
15.3502224077
 20
24.3303338041
 10
15.3774524394
 20
24.3437841835
  0
LINE
  5
40F
100
AcDbEntity
  8
RACCORDO
100
AcDbLine
 62
7
  6
CONTINUOUS
 10
-21.3052514159
 20
45.2678771058
 11
14.8887632481
 21
24.3699066564
  0
LINE
  5
410
100
AcDbEntity
  8
RACCORDO
100
AcDbLine
 62
7
  6
CONTINUOUS
 10
-21.3673761881
 20
45.405198156
 11
14.8289218059
 21
24.5059093405
  0
LINE
  5
411
100
AcDbEntity
  8
RACCORDO
100
AcDbLine
 62
7
  6
CONTINUOUS
 10
12.8976249221
 20
27.7145768841
 11
-19.4383626481
 21
46.384970842
  0
LINE
  5
412
100
AcDbEntity
  8
RACCORDO
100
AcDbLine
 62
7
  6
CONTINUOUS
 10
13.0372026587
 20
28.0253376516
 11
-19.2987915941
 21
46.695735468
  0
LINE
  5
413
100
AcDbEntity
  8
RACCORDO
100
AcDbLine
 62
7
  6
CONTINUOUS
 10
-17.8913647885
 20
47.4690207864
 11
13.2084347711
 21
29.5123862927
  0
LINE
  5
414
100
AcDbEntity
  8
RACCORDO
100
AcDbLine
 62
7
  6
CONTINUOUS
 10
-17.7766127647
 20
47.5598345819
 11
13.2084347711
 21
29.6694564686
  0
LINE
  5
415
100
AcDbEntity
  8
RACCORDO
100
AcDbLine
 62
7
  6
CONTINUOUS
 10
13.2084347711
 20
30.0153532394
 11
-17.4770761762
 21
47.7327826806
  0
LINE
  5
416
100
AcDbEntity
  8
RACCORDO
100
AcDbLine
 62
7
  6
CONTINUOUS
 10
-16.4634590606
 20
48.3183400723
 11
13.2084347711
 21
31.18616045
  0
LINE
  5
417
100
AcDbEntity
  8
0
100
AcDbLine
 62
7
  6
CONTINUOUS
 10
6.6998367517
 20
34.9912393386
 11
6.5212211861
 21
35.0943697277
  0
LINE
  5
418
100
AcDbEntity
  8
DRAFT
100
AcDbLine
 62
7
  6
CONTINUOUS
 10
34.0765391061
 20
-114.7510231306
 11
34.0765391061
 21
76.5479627207
  0
LINE
  5
419
100
AcDbEntity
  8
DRAFT
100
AcDbLine
 62
7
  6
CONTINUOUS
 10
35.7972807976
 20
78.3239572017
 11
35.7972807976
 21
-113.7915778375
  0
LINE
  5
41A
100
AcDbEntity
  8
ASSI
100
AcDbLine
 62
7
  6
CONTINUOUS
 10
-3.3941125497
 20
-73.4659080432
 11
-3.2880465325
 21
-73.2821963127
  0
LINE
  5
41B
100
AcDbEntity
  8
ASSI
100
AcDbLine
 62
7
  6
CONTINUOUS
 10
-3.0405591591
 20
-73.2617707466
 11
-2.9344931419
 21
-73.078059016
  0
LINE
  5
41C
100
AcDbEntity
  8
ASSI
100
AcDbLine
 62
7
  6
CONTINUOUS
 10
-2.6870057685
 20
-73.0576334499
 11
-2.5809397513
 21
-72.8739217194
  0
LINE
  5
41D
100
AcDbEntity
  8
0
100
AcDbLine
 62
7
  6
CONTINUOUS
 10
-14.1598132933
 20
-57.1137256574
 11
-16.6753003754
 21
-58.7183569008
  0
LINE
  5
41E
100
AcDbEntity
  8
0
100
AcDbLine
 62
7
  6
CONTINUOUS
 10
-14.1774909628
 20
-52.4206705519
 11
-14.4956890143
 21
-52.6043941189
  0
LINE
  5
41F
100
AcDbEntity
  8
0
100
AcDbLine
 62
7
  6
CONTINUOUS
 10
-14.5310443534
 20
-52.6248078485
 11
-14.8492424049
 21
-52.8085314155
  0
LINE
  5
420
100
AcDbEntity
  8
0
100
AcDbLine
 62
7
  6
CONTINUOUS
 10
-14.884597744
 20
-52.8289451452
 11
-15.2027957955
 21
-53.0126687122
  0
LINE
  5
421
100
AcDbEntity
  8
0
100
AcDbLine
 62
7
  6
CONTINUOUS
 10
-15.2381511346
 20
-53.0330824419
 11
-15.5563491861
 21
-53.2168060089
  0
LINE
  5
422
100
AcDbEntity
  8
0
100
AcDbLine
 62
7
  6
CONTINUOUS
 10
-15.5917045252
 20
-53.2372197385
 11
-15.9099025767
 21
-53.4209433055
  0
LINE
  5
423
100
AcDbEntity
  8
0
100
AcDbLine
 62
7
  6
CONTINUOUS
 10
-15.6977705423
 20
-53.4209433055
 11
-15.5917045252
 21
-53.3597021165
  0
LINE
  5
424
100
AcDbEntity
  8
0
100
AcDbLine
 62
7
  6
CONTINUOUS
 10
-15.3442171517
 20
-53.2168060089
 11
-15.2381511346
 21
-53.1555648199
  0
LINE
  5
425
100
AcDbEntity
  8
0
100
AcDbLine
 62
7
  6
CONTINUOUS
 10
-14.9906637612
 20
-53.0126687122
 11
-14.884597744
 21
-52.9514275232
  0
LINE
  5
426
100
AcDbEntity
  8
0
100
AcDbLine
 62
7
  6
CONTINUOUS
 10
-14.6371103706
 20
-52.8085314155
 11
-14.5310443534
 21
-52.7472902265
  0
LINE
  5
427
100
AcDbEntity
  8
0
100
AcDbLine
 62
7
  6
CONTINUOUS
 10
-14.28355698
 20
-52.6043941189
 11
-14.1774909628
 21
-52.5431529299
  0
LINE
  5
428
100
AcDbEntity
  8
0
100
AcDbLine
 62
7
  6
CONTINUOUS
 10
-15.4365245534
 20
-52.3163036273
 11
-15.9275802462
 21
-52.5986215331
  0
LINE
  5
429
100
AcDbEntity
  8
0
100
AcDbLine
 62
7
  6
CONTINUOUS
 10
-15.6268716374
 20
-52.3794424034
 11
-15.9275802462
 21
-52.5522117737
  0
LINE
  5
42A
100
AcDbEntity
  8
0
100
AcDbLine
 62
7
  6
CONTINUOUS
 10
-14.5707549225
 20
-51.9524166009
 11
-15.9275802462
 21
-52.7223516571
  0
LINE
  5
42B
100
AcDbEntity
  8
RACCORDO
100
AcDbLine
 62
7
  6
CONTINUOUS
 10
-16.503139747
 20
-54.9769713672
 11
-15.9275802462
 21
-54.6560528602
  0
LINE
  5
42C
100
AcDbEntity
  8
RACCORDO
100
AcDbLine
 62
7
  6
CONTINUOUS
 10
-16.5665685959
 20
-55.1150214299
 11
-15.9910090951
 21
-54.7941029229
  0
LINE
  5
42D
100
AcDbEntity
  8
RACCORDO
100
AcDbLine
 62
7
  6
CONTINUOUS
 10
15.5299676418
 20
-33.3010274901
 11
15.821514229
 21
-33.1442431702
  0
LINE
  5
42E
100
AcDbEntity
  8
RACCORDO
100
AcDbLine
 62
7
  6
CONTINUOUS
 10
15.3773228035
 20
-33.6256819052
 11
15.6704021712
 21
-33.4680733056
  0
LINE
  5
42F
100
AcDbEntity
  8
0
100
AcDbLine
 62
7
  6
CONTINUOUS
 10
-14.1598132933
 20
-52.197788239
 11
-15.9275802462
 21
-53.1115012372
  0
LINE
  5
430
100
AcDbEntity
  8
0
100
AcDbLine
 62
7
  6
CONTINUOUS
 10
-16.6728891013
 20
48.6494708798
 11
-11.048543456
 21
45.4020441938
  0
LINE
  5
431
100
AcDbEntity
  8
0
100
AcDbLine
 62
7
  6
CONTINUOUS
 10
-5.7452425971
 20
42.3399847439
 11
4.8613591207
 21
36.215865844
  0
LINE
  5
432
100
AcDbEntity
  8
0
100
AcDbLine
 62
7
  6
CONTINUOUS
 10
10.1646599796
 20
33.153806394
 11
13.2084347711
 21
31.3963689768
  0
LINE
  5
433
100
AcDbEntity
  8
0
100
AcDbLine
 62
7
  6
CONTINUOUS
 10
-9.4184956448
 20
44.4889551078
 11
-10.2707259967
 21
44.9810222321
  0
LINE
  5
434
100
AcDbEntity
  8
0
100
AcDbLine
 62
7
  6
CONTINUOUS
 10
-10.2707259967
 20
45.0782589716
 11
-9.2721906113
 21
44.5017171546
  0
LINE
  5
435
100
AcDbEntity
  8
0
100
AcDbLine
 62
7
  6
CONTINUOUS
 10
-17.2113394835
 20
49.2869061469
 11
-17.1469737206
 21
49.2497421621
  0
LINE
  5
436
100
AcDbEntity
  8
DRAFT
100
AcDbLine
 62
7
  6
CONTINUOUS
 10
-16.988187993
 20
49.2397359192
 11
-16.6753003754
 21
49.0590785302
  0
LINE
  5
437
100
AcDbEntity
  8
0
100
AcDbLine
 62
7
  6
CONTINUOUS
 10
-16.1397445942
 20
48.9948792726
 11
-10.4828580311
 21
45.7286638685
  0
LINE
  5
438
100
AcDbEntity
  8
0
100
AcDbLine
 62
7
  6
CONTINUOUS
 10
-5.1795571722
 20
42.6666044185
 11
5.4270445456
 21
36.5424855186
  0
LINE
  5
439
100
AcDbEntity
  8
0
100
AcDbLine
 62
7
  6
CONTINUOUS
 10
10.7303454045
 20
33.4804260687
 11
13.2084347711
 21
32.0496083261
  0
LINE
  5
43A
100
AcDbEntity
  8
0
100
AcDbLine
 62
7
  6
CONTINUOUS
 10
-15.6534096638
 20
49.2856600096
 11
-16.2686864723
 21
49.6409131276
  0
LINE
  5
43B
100
AcDbEntity
  8
0
100
AcDbLine
 62
7
  6
CONTINUOUS
 10
-16.1792786561
 20
49.6907648334
 11
-15.5034024157
 21
49.3005223629
  0
LINE
  5
43C
100
AcDbEntity
  8
0
100
AcDbLine
 62
7
  6
CONTINUOUS
 10
13.2084347711
 20
34.1509620076
 11
9.6788784355
 21
36.1888836
  0
LINE
  5
43D
100
AcDbEntity
  8
0
100
AcDbLine
 62
7
  6
CONTINUOUS
 10
-2.1153743741
 20
42.9987373556
 11
-6.2310241412
 21
45.3750619499
  0
LINE
  5
43E
100
AcDbEntity
  8
0
100
AcDbLine
 62
7
  6
CONTINUOUS
 10
-16.6753003754
 20
55.7542097642
 11
-16.2116895318
 21
55.4865266736
  0
LINE
  5
43F
100
AcDbEntity
  8
0
100
AcDbLine
 62
7
  6
CONTINUOUS
 10
-16.4727537595
 20
56.9437405854
 11
-16.6753003754
 21
57.0606884629
  0
LINE
  5
440
100
AcDbEntity
  8
ASSI
100
AcDbLine
 62
7
  6
CONTINUOUS
 10
7.2124891681
 20
-81.2231253164
 11
7.3185551853
 21
-81.0394135859
  0
LINE
  5
441
100
AcDbEntity
  8
ASSI
100
AcDbLine
 62
7
  6
CONTINUOUS
 10
7.5660425587
 20
-81.0189880198
 11
7.6721085759
 21
-80.8352762893
  0
LINE
  5
442
100
AcDbEntity
  8
ASSI
100
AcDbLine
 62
7
  6
CONTINUOUS
 10
7.9195959493
 20
-80.8148507231
 11
8.0256619665
 21
-80.6311389926
  0
LINE
  5
443
100
AcDbEntity
  8
ASSI
100
AcDbLine
 62
7
  6
CONTINUOUS
 10
8.2731493399
 20
-80.6107134265
 11
8.3792153571
 21
-80.4270016959
  0
LINE
  5
444
100
AcDbEntity
  8
ASSI
100
AcDbLine
 62
7
  6
CONTINUOUS
 10
8.6267027305
 20
-80.4065761298
 11
8.7327687477
 21
-80.2228643993
  0
LINE
  5
445
100
AcDbEntity
  8
ASSI
100
AcDbLine
 62
7
  6
CONTINUOUS
 10
8.9802561211
 20
-80.2024388331
 11
9.0863221382
 21
-80.0187271026
  0
LINE
  5
446
100
AcDbEntity
  8
ASSI
100
AcDbLine
 62
7
  6
CONTINUOUS
 10
9.3338095117
 20
-79.9983015365
 11
9.4398755288
 21
-79.8145898059
  0
LINE
  5
447
100
AcDbEntity
  8
ASSI
100
AcDbLine
 62
7
  6
CONTINUOUS
 10
-2.9079944273
 20
-74.0163543275
 11
-2.7133205359
 21
-73.7736722247
  0
LINE
  5
448
100
AcDbEntity
  8
DRAFT
100
AcDbLine
 62
7
  6
CONTINUOUS
 10
-16.6753003754
 20
-60.7561736985
 11
-17.2113394835
 21
-61.0999107849
  0
LINE
  5
449
100
AcDbEntity
  8
DRAFT
100
AcDbLine
 62
7
  6
CONTINUOUS
 10
-16.6753003754
 20
-66.8797007744
 11
-17.2113394835
 21
-67.2234378609
  0
LINE
  5
44A
100
AcDbEntity
  8
0
100
AcDbLine
 62
7
  6
CONTINUOUS
 10
-16.6753003754
 20
-59.3611445254
 11
-16.4690838538
 21
-59.2378472083
  0
LINE
  5
44B
100
AcDbEntity
  8
0
100
AcDbLine
 62
7
  6
CONTINUOUS
 10
-15.6534096638
 20
-66.653119295
 11
-16.1397445942
 21
-66.943900032
  0
LINE
  5
44C
100
AcDbEntity
  8
0
100
AcDbLine
 62
7
  6
CONTINUOUS
 10
-15.4376077237
 20
-67.0183864891
 11
-15.7191711325
 21
-67.1867338777
  0
LINE
  5
44D
100
AcDbEntity
  8
0
100
AcDbLine
 62
7
  6
CONTINUOUS
 10
-16.6753003754
 20
-58.4759433022
 11
-16.6523646969
 21
-58.4627005289
  0
LINE
  5
44E
100
AcDbEntity
  8
0
100
AcDbLine
 62
7
  6
CONTINUOUS
 10
-16.4048773235
 20
-58.3198044212
 11
-16.2988113063
 21
-58.2585632322
  0
LINE
  5
44F
100
AcDbEntity
  8
0
100
AcDbLine
 62
7
  6
CONTINUOUS
 10
-16.0513239329
 20
-58.1156671246
 11
-15.9452579158
 21
-58.0544259356
  0
LINE
  5
450
100
AcDbEntity
  8
0
100
AcDbLine
 62
7
  6
CONTINUOUS
 10
-15.6977705423
 20
-57.9115298279
 11
-15.5917045252
 21
-57.8502886389
  0
LINE
  5
451
100
AcDbEntity
  8
0
100
AcDbLine
 62
7
  6
CONTINUOUS
 10
-15.3442171517
 20
-57.7073925312
 11
-15.2381511346
 21
-57.6461513422
  0
LINE
  5
452
100
AcDbEntity
  8
0
100
AcDbLine
 62
7
  6
CONTINUOUS
 10
-14.9906637612
 20
-57.5032552346
 11
-14.884597744
 21
-57.4420140456
  0
LINE
  5
453
100
AcDbEntity
  8
0
100
AcDbLine
 62
7
  6
CONTINUOUS
 10
-14.6371103706
 20
-57.2991179379
 11
-14.5310443534
 21
-57.2378767489
  0
LINE
  5
454
100
AcDbEntity
  8
0
100
AcDbLine
 62
7
  6
CONTINUOUS
 10
-14.28355698
 20
-57.0949806412
 11
-14.1774909628
 21
-57.0337394522
  0
LINE
  5
455
100
AcDbEntity
  8
RACCORDO
100
AcDbLine
 62
7
  6
CONTINUOUS
 10
15.035068282
 20
-48.6213245099
 11
15.3266148693
 21
-48.4529897225
  0
LINE
  5
456
100
AcDbEntity
  8
RACCORDO
100
AcDbLine
 62
7
  6
CONTINUOUS
 10
-17.9887124903
 20
-68.011577222
 11
-16.6753003754
 21
-67.2535193123
  0
LINE
  5
457
100
AcDbEntity
  8
RACCORDO
100
AcDbLine
 62
7
  6
CONTINUOUS
 10
-19.4981229498
 20
-68.8977820783
 11
-18.1209228731
 21
-68.1026732859
  0
LINE
  5
458
100
AcDbEntity
  8
RACCORDO
100
AcDbLine
 62
7
  6
CONTINUOUS
 10
-16.2116895318
 20
-60.452252631
 11
-16.6753003754
 21
-60.7107511869
  0
LINE
  5
459
100
AcDbEntity
  8
RACCORDO
100
AcDbLine
 62
7
  6
CONTINUOUS
 10
-15.9995251838
 20
-60.8196947495
 11
-16.9348093726
 21
-61.3411873235
  0
LINE
  5
45A
100
AcDbEntity
  8
RACCORDO
100
AcDbLine
 62
7
  6
CONTINUOUS
 10
-16.9348093726
 20
-66.5665970949
 11
-15.9995251838
 21
-66.045104521
  0
LINE
  5
45B
100
AcDbEntity
  8
RACCORDO
100
AcDbLine
 62
7
  6
CONTINUOUS
 10
-16.9982382215
 20
-66.7046471576
 11
-16.0629540327
 21
-66.1831545837
  0
LINE
  5
45C
100
AcDbEntity
  8
0
100
AcDbLine
 62
7
  6
CONTINUOUS
 10
-14.2231225495
 20
63.7856441284
 11
-14.5707549225
 21
63.9863627037
  0
LINE
  5
45D
100
AcDbEntity
  8
0
100
AcDbLine
 62
7
  6
CONTINUOUS
 10
-14.5186320578
 20
64.0155941994
 11
-14.1305191394
 21
63.7915026645
  0
LINE
  5
45E
100
AcDbEntity
  8
RACCORDO
100
AcDbLine
 62
7
  6
CONTINUOUS
 10
13.0372026587
 20
-87.9134416529
 11
13.2084347711
 21
-87.5882929095
  0
LINE
  5
45F
100
AcDbEntity
  8
RACCORDO
100
AcDbLine
 62
7
  6
CONTINUOUS
 10
13.2048799737
 20
-87.9128288707
 11
13.2048210433
 21
-87.9129406592
  0
LINE
  5
460
100
AcDbEntity
  8
ASSI
100
AcDbLine
 62
7
  6
CONTINUOUS
 10
11.8086832458
 20
-83.0603609864
 11
11.914749263
 21
-82.8766492559
  0
LINE
  5
461
100
AcDbEntity
  8
ASSI
100
AcDbLine
 62
7
  6
CONTINUOUS
 10
12.1622366364
 20
-82.8562236898
 11
12.2683026536
 21
-82.6725119592
  0
LINE
  5
462
100
AcDbEntity
  8
ASSI
100
AcDbLine
 62
7
  6
CONTINUOUS
 10
12.515790027
 20
-82.6520863931
 11
12.6218560442
 21
-82.4683746626
  0
LINE
  5
463
100
AcDbEntity
  8
ASSI
100
AcDbLine
 62
7
  6
CONTINUOUS
 10
12.8693434176
 20
-82.4479490964
 11
12.9754094348
 21
-82.2642373659
  0
LINE
  5
464
100
AcDbEntity
  8
RACCORDO
100
AcDbLine
 62
7
  6
CONTINUOUS
 10
-19.2987915941
 20
-69.2430438366
 11
-17.9215878168
 21
-68.447913367
  0
LINE
  5
465
100
AcDbEntity
  8
RACCORDO
100
AcDbLine
 62
7
  6
CONTINUOUS
 10
-17.7766127647
 20
-68.3789447227
 11
-16.4634590606
 21
-67.6204392323
  0
LINE
  5
466
100
AcDbEntity
  8
RACCORDO
100
AcDbLine
 62
7
  6
CONTINUOUS
 10
15.5299676418
 20
-49.4785153448
 11
15.821514229
 21
-49.3101805574
  0
LINE
  5
467
100
AcDbEntity
  8
RACCORDO
100
AcDbLine
 62
7
  6
CONTINUOUS
 10
-11.048543456
 20
-70.5367351107
 11
-10.4828580311
 21
-70.2101154361
  0
LINE
  5
468
100
AcDbEntity
  8
RACCORDO
100
AcDbLine
 62
7
  6
CONTINUOUS
 10
-10.8063340835
 20
-70.8867922937
 11
-10.2707259967
 21
-70.5775388971
  0
LINE
  5
469
100
AcDbEntity
  8
0
100
AcDbLine
 62
7
  6
CONTINUOUS
 10
-9.210065825
 20
-71.7613616161
 11
-9.2508494987
 21
-71.7849095981
  0
LINE
  5
46A
100
AcDbEntity
  8
ASSI
100
AcDbLine
 62
7
  6
CONTINUOUS
 10
-8.861930519
 20
-72.0094665427
 11
-8.8388347648
 21
-71.9961313437
  0
LINE
  5
46B
100
AcDbEntity
  8
ASSI
100
AcDbLine
 62
7
  6
CONTINUOUS
 10
-8.5913473914
 20
-71.8532352361
 11
-8.4852813742
 21
-71.7919940471
  0
LINE
  5
46C
100
AcDbEntity
  8
ASSI
100
AcDbLine
 62
7
  6
CONTINUOUS
 10
-8.2377940008
 20
-71.6490979394
 11
-8.1317279836
 21
-71.5878567504
  0
LINE
  5
46D
100
AcDbEntity
  8
ASSI
100
AcDbLine
 62
7
  6
CONTINUOUS
 10
-7.8842406102
 20
-71.4449606427
 11
-7.7781745931
 21
-71.3837194537
  0
LINE
  5
46E
100
AcDbEntity
  8
ASSI
100
AcDbLine
 62
7
  6
CONTINUOUS
 10
-7.5306872196
 20
-71.2408233461
 11
-7.4246212025
 21
-71.1795821571
  0
LINE
  5
46F
100
AcDbEntity
  8
ASSI
100
AcDbLine
 62
7
  6
CONTINUOUS
 10
-7.177133829
 20
-71.0366860494
 11
-7.0710678119
 21
-70.9754448604
  0
LINE
  5
470
100
AcDbEntity
  8
ASSI
100
AcDbLine
 62
7
  6
CONTINUOUS
 10
-6.8235804385
 20
-70.8325487527
 11
-6.7175144213
 21
-70.7713075637
  0
LINE
  5
471
100
AcDbEntity
  8
ASSI
100
AcDbLine
 62
7
  6
CONTINUOUS
 10
-6.4700270479
 20
-70.6284114561
 11
-6.3639610307
 21
-70.5671702671
  0
LINE
  5
472
100
AcDbEntity
  8
0
100
AcDbLine
 62
7
  6
CONTINUOUS
 10
-9.4184956448
 20
-71.4498241967
 11
-9.6285118383
 21
-71.5668520964
  0
LINE
  5
473
100
AcDbEntity
  8
0
100
AcDbLine
 62
7
  6
CONTINUOUS
 10
-16.1397445942
 20
73.8972227148
 11
-16.6753003754
 21
74.2064459107
  0
LINE
  5
474
100
AcDbEntity
  8
ASSI
100
AcDbLine
 62
7
  6
CONTINUOUS
 10
13.0019081494
 20
-83.2025326773
 11
13.1965820408
 21
-82.9598505746
  0
LINE
  5
475
100
AcDbEntity
  8
ASSI
100
AcDbLine
 62
7
  6
CONTINUOUS
 10
-2.1669417729
 20
-72.9700510193
 11
-3.8422258664
 21
-74.0443332213
  0
LINE
  5
476
100
AcDbEntity
  8
ASSI
100
AcDbLine
 62
7
  6
CONTINUOUS
 10
-2.1599282431
 20
-73.4485989513
 11
-3.5052775102
 21
-74.2388829792
  0
LINE
  5
477
100
AcDbEntity
  8
ASSI
100
AcDbLine
 62
7
  6
CONTINUOUS
 10
-3.057818459
 20
-74.1496092767
 11
-3.3581142062
 21
-74.3238532266
  0
LINE
  5
478
100
AcDbEntity
  8
ASSI
100
AcDbLine
 62
7
  6
CONTINUOUS
 10
-2.9079944273
 20
-74.0163543275
 11
-3.3982892233
 21
-74.3006566752
  0
LINE
  5
479
100
AcDbEntity
  8
RACCORDO
100
AcDbLine
 62
7
  6
CONTINUOUS
 10
-5.3295644202
 20
-73.2573125327
 11
-5.8952498452
 21
-73.5839322074
  0
LINE
  5
47A
100
AcDbEntity
  8
RACCORDO
100
AcDbLine
 62
7
  6
CONTINUOUS
 10
-5.1795571722
 20
-73.272174886
 11
-5.7452425971
 21
-73.5987945607
  0
LINE
  5
47B
100
AcDbEntity
  8
ASSI
100
AcDbLine
 62
7
  6
CONTINUOUS
 10
-3.9951533137
 20
-73.690470906
 11
-3.8890872965
 21
-73.629229717
  0
LINE
  5
47C
100
AcDbEntity
  8
ASSI
100
AcDbLine
 62
7
  6
CONTINUOUS
 10
-3.6415999231
 20
-73.4863336094
 11
-3.5355339059
 21
-73.4250924204
  0
LINE
  5
47D
100
AcDbEntity
  8
ASSI
100
AcDbLine
 62
7
  6
CONTINUOUS
 10
-3.2880465325
 20
-73.2821963127
 11
-3.1819805153
 21
-73.2209551237
  0
LINE
  5
47E
100
AcDbEntity
  8
ASSI
100
AcDbLine
 62
7
  6
CONTINUOUS
 10
-2.9344931419
 20
-73.078059016
 11
-2.8284271247
 21
-73.016817827
  0
LINE
  5
47F
100
AcDbEntity
  8
ASSI
100
AcDbLine
 62
7
  6
CONTINUOUS
 10
-2.5809397513
 20
-72.8739217194
 11
-2.4748737342
 21
-72.8126805304
  0
LINE
  5
480
100
AcDbEntity
  8
ASSI
100
AcDbLine
 62
7
  6
CONTINUOUS
 10
-2.368807717
 20
-72.8739098829
 11
-2.6870057685
 21
-73.0576334499
  0
LINE
  5
481
100
AcDbEntity
  8
ASSI
100
AcDbLine
 62
7
  6
CONTINUOUS
 10
-2.7223611076
 20
-73.0780471796
 11
-3.0405591591
 21
-73.2617707466
  0
LINE
  5
482
100
AcDbEntity
  8
ASSI
100
AcDbLine
 62
7
  6
CONTINUOUS
 10
-3.0759144982
 20
-73.2821844762
 11
-3.3941125497
 21
-73.4659080432
  0
LINE
  5
483
100
AcDbEntity
  8
ASSI
100
AcDbLine
 62
7
  6
CONTINUOUS
 10
-3.4294678888
 20
-73.4863217729
 11
-3.7476659403
 21
-73.6700453399
  0
LINE
  5
484
100
AcDbEntity
  8
ASSI
100
AcDbLine
 62
7
  6
CONTINUOUS
 10
-3.7830212793
 20
-73.6904590695
 11
-4.1012193309
 21
-73.8741826365
  0
LINE
  5
485
100
AcDbEntity
  8
ASSI
100
AcDbLine
 62
7
  6
CONTINUOUS
 10
-6.4244056185
 20
-70.5118447535
 11
-9.0289819891
 21
-71.8659171534
  0
LINE
  5
486
100
AcDbEntity
  8
0
100
AcDbLine
 62
7
  6
CONTINUOUS
 10
-15.4365245534
 20
63.6224756773
 11
-15.1286547065
 21
63.6697806102
  0
LINE
  5
487
100
AcDbEntity
  8
0
100
AcDbLine
 62
7
  6
CONTINUOUS
 10
-17.2113394835
 20
79.0064242221
 11
-17.1469737206
 21
78.9692602374
  0
LINE
  5
488
100
AcDbEntity
  8
DRAFT
100
AcDbLine
 62
7
  6
CONTINUOUS
 10
-16.988187993
 20
78.9592539944
 11
-16.6753003754
 21
78.7785966054
  0
LINE
  5
489
100
AcDbEntity
  8
RACCORDO
100
AcDbLine
 62
7
  6
CONTINUOUS
 10
-19.3762378618
 20
84.5055064652
 11
12.9597496872
 21
65.8351125195
  0
LINE
  5
48A
100
AcDbEntity
  8
RACCORDO
100
AcDbLine
 62
7
  6
CONTINUOUS
 10
-19.4383626481
 20
84.6428275235
 11
12.8976249221
 21
65.9724335656
  0
LINE
  5
48B
100
AcDbEntity
  8
RACCORDO
100
AcDbLine
 62
7
  6
CONTINUOUS
 10
14.8266384621
 20
66.9522062516
 11
-21.3696595241
 21
87.8514950627
  0
LINE
  5
48C
100
AcDbEntity
  8
RACCORDO
100
AcDbLine
 62
7
  6
CONTINUOUS
 10
15.035068282
 20
67.3174547947
 11
-21.1589463682
 21
88.2154252362
  0
LINE
  5
48D
100
AcDbEntity
  8
RACCORDO
100
AcDbLine
 62
7
  6
CONTINUOUS
 10
15.3266148693
 20
67.4857895821
 11
-20.8774031016
 21
88.3895358155
  0
LWPOLYLINE
  5
48E
100
AcDbEntity
  8
RACCORDO
100
AcDbPolyline
 62
7
  6
CONTINUOUS
 90
21
 70
0
 10
12.959830034
 20
65.8350659758
 10
12.9729679011
 20
65.827029096
 10
12.9908487442
 20
65.8146892918
 10
13.0094145191
 20
65.8001920236
 10
13.0283000571
 20
65.7836571612
 10
13.047215931
 20
65.7652051039
 10
13.0658917636
 20
65.7449911904
 10
13.084113792
 20
65.7231565964
 10
13.1016443605
 20
65.6999153671
 10
13.1182562864
 20
65.6755186232
 10
13.1338184492
 20
65.6501234305
 10
13.1481435293
 20
65.6240269643
 10
13.1610791526
 20
65.5975371858
 10
13.1725626824
 20
65.5708223323
 10
13.1824888976
 20
65.5442016067
 10
13.1907867665
 20
65.5180192864
 10
13.1974541751
 20
65.4924994376
 10
13.2024976817
 20
65.4679149102
 10
13.2059467221
 20
65.444600999
 10
13.2078777452
 20
65.4229304818
 10
13.208434272
 20
65.4044961711
  0
LINE
  5
48F
100
AcDbEntity
  8
RACCORDO
100
AcDbLine
 62
7
  6
CONTINUOUS
 10
4.8613591207
 20
-79.7229134606
 11
5.4270445456
 21
-79.396293786
  0
LINE
  5
490
100
AcDbEntity
  8
RACCORDO
100
AcDbLine
 62
7
  6
CONTINUOUS
 10
5.1035684932
 20
-80.0729706435
 11
5.63917658
 21
-79.763717247
  0
LINE
  5
491
100
AcDbEntity
  8
ASSI
100
AcDbLine
 62
7
  6
CONTINUOUS
 10
7.0479720577
 20
-81.1956448926
 11
7.0710678119
 21
-81.1823096936
  0
LINE
  5
492
100
AcDbEntity
  8
ASSI
100
AcDbLine
 62
7
  6
CONTINUOUS
 10
7.3185551853
 20
-81.0394135859
 11
7.4246212025
 21
-80.9781723969
  0
LINE
  5
493
100
AcDbEntity
  8
ASSI
100
AcDbLine
 62
7
  6
CONTINUOUS
 10
7.6721085759
 20
-80.8352762893
 11
7.7781745931
 21
-80.7740351003
  0
LINE
  5
494
100
AcDbEntity
  8
ASSI
100
AcDbLine
 62
7
  6
CONTINUOUS
 10
8.0256619665
 20
-80.6311389926
 11
8.1317279836
 21
-80.5698978036
  0
LINE
  5
495
100
AcDbEntity
  8
ASSI
100
AcDbLine
 62
7
  6
CONTINUOUS
 10
8.3792153571
 20
-80.4270016959
 11
8.4852813742
 21
-80.3657605069
  0
LINE
  5
496
100
AcDbEntity
  8
ASSI
100
AcDbLine
 62
7
  6
CONTINUOUS
 10
8.7327687477
 20
-80.2228643993
 11
8.8388347648
 21
-80.1616232103
  0
LINE
  5
497
100
AcDbEntity
  8
ASSI
100
AcDbLine
 62
7
  6
CONTINUOUS
 10
9.0863221382
 20
-80.0187271026
 11
9.1923881554
 21
-79.9574859136
  0
LINE
  5
498
100
AcDbEntity
  8
ASSI
100
AcDbLine
 62
7
  6
CONTINUOUS
 10
9.4398755288
 20
-79.8145898059
 11
9.545941546
 21
-79.7533486169
  0
LINE
  5
499
100
AcDbEntity
  8
RACCORDO
100
AcDbLine
 62
7
  6
CONTINUOUS
 10
6.4789913445
 20
-80.8671225598
 11
6.5212211861
 21
-80.8444095769
  0
LINE
  5
49A
100
AcDbEntity
  8
ASSI
100
AcDbLine
 62
7
  6
CONTINUOUS
 10
13.2084347711
 20
-82.4989961904
 11
12.0676767103
 21
-83.2305115712
  0
LINE
  5
49B
100
AcDbEntity
  8
ASSI
100
AcDbLine
 62
7
  6
CONTINUOUS
 10
13.2084347711
 20
-82.9528880529
 11
12.4046250665
 21
-83.4250613291
  0
LINE
  5
49C
100
AcDbEntity
  8
ASSI
100
AcDbLine
 62
7
  6
CONTINUOUS
 10
12.8520841177
 20
-83.3357876266
 11
12.5517883705
 21
-83.5100315765
  0
LINE
  5
49D
100
AcDbEntity
  8
ASSI
100
AcDbLine
 62
7
  6
CONTINUOUS
 10
13.0019081494
 20
-83.2025326773
 11
12.5116133534
 21
-83.4868350251
  0
LINE
  5
49E
100
AcDbEntity
  8
RACCORDO
100
AcDbLine
 62
7
  6
CONTINUOUS
 10
10.5803381565
 20
-82.4434908826
 11
10.0146527315
 21
-82.7701105573
  0
LINE
  5
49F
100
AcDbEntity
  8
RACCORDO
100
AcDbLine
 62
7
  6
CONTINUOUS
 10
10.7303454045
 20
-82.4583532359
 11
10.1646599796
 21
-82.7849729106
  0
LINE
  5
4A0
100
AcDbEntity
  8
ASSI
100
AcDbLine
 62
7
  6
CONTINUOUS
 10
11.914749263
 20
-82.8766492559
 11
12.0208152802
 21
-82.8154080669
  0
LINE
  5
4A1
100
AcDbEntity
  8
ASSI
100
AcDbLine
 62
7
  6
CONTINUOUS
 10
12.2683026536
 20
-82.6725119592
 11
12.3743686708
 21
-82.6112707702
  0
LINE
  5
4A2
100
AcDbEntity
  8
ASSI
100
AcDbLine
 62
7
  6
CONTINUOUS
 10
12.6218560442
 20
-82.4683746626
 11
12.7279220614
 21
-82.4071334736
  0
LINE
  5
4A3
100
AcDbEntity
  8
ASSI
100
AcDbLine
 62
7
  6
CONTINUOUS
 10
12.9754094348
 20
-82.2642373659
 11
13.081475452
 21
-82.2029961769
  0
LINE
  5
4A4
100
AcDbEntity
  8
ASSI
100
AcDbLine
 62
7
  6
CONTINUOUS
 10
13.1875414691
 20
-82.2642255294
 11
12.8693434176
 21
-82.4479490964
  0
LINE
  5
4A5
100
AcDbEntity
  8
ASSI
100
AcDbLine
 62
7
  6
CONTINUOUS
 10
12.8339880785
 20
-82.4683628261
 11
12.515790027
 21
-82.6520863931
  0
LINE
  5
4A6
100
AcDbEntity
  8
ASSI
100
AcDbLine
 62
7
  6
CONTINUOUS
 10
12.4804346879
 20
-82.6725001228
 11
12.1622366364
 21
-82.8562236898
  0
LINE
  5
4A7
100
AcDbEntity
  8
ASSI
100
AcDbLine
 62
7
  6
CONTINUOUS
 10
12.1268812973
 20
-82.8766374194
 11
11.8086832458
 21
-83.0603609864
  0
LINE
  5
4A8
100
AcDbEntity
  8
ASSI
100
AcDbLine
 62
7
  6
CONTINUOUS
 10
9.4854969582
 20
-79.6980231033
 11
6.8809205876
 21
-81.0520955033
  0
LINE
  5
4A9
100
AcDbEntity
  8
SMUSSO
100
AcDbLine
 62
7
  6
CONTINUOUS
 10
30.2464925653
 20
75.527232837
 11
31.6607061276
 21
75.527232837
  0
LINE
  5
4AA
100
AcDbEntity
  8
0
100
AcDbLine
 62
7
  6
CONTINUOUS
 10
-16.6170093579
 20
75.9895561112
 11
-16.4048773235
 21
75.9895561112
  0
LINE
  5
4AB
100
AcDbEntity
  8
0
100
AcDbLine
 62
7
  6
CONTINUOUS
 10
-16.2634559673
 20
76.1936934079
 11
-16.0513239329
 21
76.1936934079
  0
LINE
  5
4AC
100
AcDbEntity
  8
0
100
AcDbLine
 62
7
  6
CONTINUOUS
 10
-15.9099025767
 20
76.3978307045
 11
-15.6977705423
 21
76.3978307045
  0
LINE
  5
4AD
100
AcDbEntity
  8
DRAFT
100
AcDbLine
 62
7
  6
CONTINUOUS
 10
33.4284730806
 20
76.5479627207
 11
34.0765391061
 21
76.5479627207
  0
LINE
  5
4AE
100
AcDbEntity
  8
0
100
AcDbLine
 62
7
  6
CONTINUOUS
 10
-15.5563491861
 20
76.6019680012
 11
-15.3442171517
 21
76.6019680012
  0
LINE
  5
4AF
100
AcDbEntity
  8
0
100
AcDbLine
 62
7
  6
CONTINUOUS
 10
-15.2027957955
 20
76.8061052979
 11
-14.9906637612
 21
76.8061052979
  0
LINE
  5
4B0
100
AcDbEntity
  8
0
100
AcDbLine
 62
7
  6
CONTINUOUS
 10
-14.8492424049
 20
77.0102425945
 11
-14.6371103706
 21
77.0102425945
  0
LINE
  5
4B1
100
AcDbEntity
  8
0
100
AcDbLine
 62
7
  6
CONTINUOUS
 10
-14.4956890143
 20
77.2143798912
 11
-14.28355698
 21
77.2143798912
  0
LINE
  5
4B2
100
AcDbEntity
  8
0
100
AcDbLine
 62
7
  6
CONTINUOUS
 10
-15.9099025767
 20
80.8884172269
 11
-15.6977705423
 21
80.8884172269
  0
LINE
  5
4B3
100
AcDbEntity
  8
0
100
AcDbLine
 62
7
  6
CONTINUOUS
 10
-15.5563491861
 20
81.0925545236
 11
-15.3442171517
 21
81.0925545236
  0
LINE
  5
4B4
100
AcDbEntity
  8
0
100
AcDbLine
 62
7
  6
CONTINUOUS
 10
-15.2027957955
 20
81.2966918202
 11
-14.9906637612
 21
81.2966918202
  0
LINE
  5
4B5
100
AcDbEntity
  8
0
100
AcDbLine
 62
7
  6
CONTINUOUS
 10
-14.8492424049
 20
81.5008291169
 11
-14.6371103706
 21
81.5008291169
  0
LINE
  5
4B6
100
AcDbEntity
  8
SMUSSO
100
AcDbLine
 62
7
  6
CONTINUOUS
 10
30.2464925653
 20
75.527232837
 11
-35.7972807976
 21
113.6600798538
  0
LINE
  5
4B7
100
AcDbEntity
  8
SMUSSO
100
AcDbLine
 62
7
  6
CONTINUOUS
 10
30.9535993464
 20
76.7519777071
 11
-35.0901740164
 21
114.8848247239
  0
LINE
  5
4B8
100
AcDbEntity
  8
RACCORDO
100
AcDbLine
 62
7
  6
CONTINUOUS
 10
15.5299676418
 20
-91.2704171423
 11
15.821514229
 21
-91.1136328225
  0
LINE
  5
4B9
100
AcDbEntity
  8
RACCORDO
100
AcDbLine
 62
7
  6
CONTINUOUS
 10
15.3773228035
 20
-91.5950715575
 11
15.6704021712
 21
-91.4374629579
  0
LINE
  5
4BA
100
AcDbEntity
  8
0
100
AcDbLine
 62
7
  6
CONTINUOUS
 10
-15.4365245534
 20
81.9930569051
 11
-15.1286547065
 21
82.040361838
  0
LINE
  5
4BB
100
AcDbEntity
  8
RACCORDO
100
AcDbLine
 62
7
  6
CONTINUOUS
 10
-19.4138880447
 20
84.52306919
 11
-19.4137617446
 21
84.5230643351
  0
LINE
  5
4BC
100
AcDbEntity
  8
RACCORDO
100
AcDbLine
 62
7
  6
CONTINUOUS
 10
-19.1310002428
 20
84.3639093375
 11
-19.4981229498
 21
84.3781744922
  0
LWPOLYLINE
  5
4BD
100
AcDbEntity
  8
RACCORDO
100
AcDbPolyline
 62
7
  6
CONTINUOUS
 90
9
 70
0
 10
-19.4137780679
 20
84.523058042
 10
-19.4150171444
 20
84.5231244481
 10
-19.4166467159
 20
84.5232839208
 10
-19.414789941
 20
84.5228631211
 10
-19.4097882531
 20
84.5213607674
 10
-19.401788392
 20
84.5183364153
 10
-19.3912508417
 20
84.5135475719
 10
-19.3791742191
 20
84.5071791054
 10
-19.3762785481
 20
84.5055297669
  0
LINE
  5
4BE
100
AcDbEntity
  8
SMUSSO
100
AcDbLine
 62
7
  6
CONTINUOUS
 10
33.07491969
 20
77.5685663487
 11
-33.3224070634
 21
115.9055112072
  0
LINE
  5
4BF
100
AcDbEntity
  8
DRAFT
100
AcDbLine
 62
7
  6
CONTINUOUS
 10
33.045399311
 20
78.3339492323
 11
-32.2205565914
 21
116.0176941958
  0
LINE
  5
4C0
100
AcDbEntity
  8
DRAFT
100
AcDbLine
 62
7
  6
CONTINUOUS
 10
35.443727407
 20
78.9363296367
 11
-30.5293352787
 21
117.0282702849
  0
LINE
  5
4C1
100
AcDbEntity
  8
SMUSSO
100
AcDbLine
 62
7
  6
CONTINUOUS
 10
31.6607061276
 20
-116.6698703201
 11
33.4284730806
 21
-115.6491838368
  0
LINE
  5
4C2
100
AcDbEntity
  8
RACCORDO
100
AcDbLine
 62
7
  6
CONTINUOUS
 10
31.4536235066
 20
-117.1276071812
 11
33.2213904595
 21
-116.1069206979
  0
LINE
  5
4C3
100
AcDbEntity
  8
DRAFT
100
AcDbLine
 62
7
  6
CONTINUOUS
 10
34.0765391061
 20
-114.7510231306
 11
35.7972807976
 21
-113.7915778375
  0
LINE
  5
4C4
100
AcDbEntity
  8
DRAFT
100
AcDbLine
 62
7
  6
CONTINUOUS
 10
33.7655065112
 20
-115.4236181687
 11
35.4773436878
 21
-114.4834285173
  0
ARC
  5
4C5
100
AcDbEntity
  8
0
100
AcDbCircle
 62
7
  6
CONTINUOUS
 10
-15.6534224352
 20
49.0407116474
 40
0.3000133054
100
AcDbArc
 50
0.0016746654
 51
59.9973494253
  0
ARC
  5
4C6
100
AcDbEntity
  8
SUPERFICI
100
AcDbCircle
 62
7
  6
CONTINUOUS
 10
-15.6534224352
 20
-8.9286780049
 40
0.3000133054
100
AcDbArc
 50
0.0016746654
 51
59.9973494253
  0
ARC
  5
4C7
100
AcDbEntity
  8
0
100
AcDbCircle
 62
7
  6
CONTINUOUS
 10
-15.6534224352
 20
-66.8980676572
 40
0.3000133054
100
AcDbArc
 50
0.0016746654
 51
59.9973494253
  0
ARC
  5
4C8
100
AcDbEntity
  8
RACCORDO
100
AcDbCircle
 62
7
  6
CONTINUOUS
 10
-17.8021723434
 20
-68.3145301659
 40
0.1790283039
100
AcDbArc
 50
228.1625124162
 51
240.1188149396
  0
ARC
  5
4C9
100
AcDbEntity
  8
RACCORDO
100
AcDbCircle
 62
7
  6
CONTINUOUS
 10
-17.8021723434
 20
-10.3451405136
 40
0.1790283039
100
AcDbArc
 50
228.1625124162
 51
240.1188149396
  0
ARC
  5
4CA
100
AcDbEntity
  8
RACCORDO
100
AcDbCircle
 62
7
  6
CONTINUOUS
 10
-17.8021723434
 20
47.6242491387
 40
0.1790283039
100
AcDbArc
 50
228.1625124162
 51
240.1188149396
  0
ARC
  5
4CB
100
AcDbEntity
  8
0
100
AcDbCircle
 62
7
  6
CONTINUOUS
 10
-14.2465344212
 20
-57.0046752008
 40
0.1427973923
100
AcDbArc
 50
334.4567691741
 51
339.454083564
  0
ARC
  5
4CC
100
AcDbEntity
  8
0
100
AcDbCircle
 62
7
  6
CONTINUOUS
 10
-14.2342689771
 20
-57.0105415331
 40
0.1292012548
100
AcDbArc
 50
329.1077520581
 51
334.4586303454
  0
ARC
  5
4CD
100
AcDbEntity
  8
0
100
AcDbCircle
 62
7
  6
CONTINUOUS
 10
-14.2058423919
 20
77.2765306814
 40
0.0928420983
100
AcDbArc
 50
304.9884496952
 51
311.4319829769
  0
SPLINE
  5
4CE
100
AcDbEntity
  8
RACCORDO
100
AcDbSpline
 62
7
  6
CONTINUOUS
 70
0
 71
3
 72
9
 73
5
 74
3
 42
0.0000001
 43
0.0000001
 44
0.0000000001
 12
-0.1258022839
 22
-0.0751721723
 32
0.0
 13
-0.1037487076
 23
-0.1035049555
 33
0.0
 40
0.0
 40
0.0
 40
0.0
 40
0.0
 40
0.2375582814
 40
1.0
 40
1.0
 40
1.0
 40
1.0
 10
-17.7766127647
 20
-68.3789447227
 30
0.0
 10
-17.7865745561
 20
-68.3848973134
 30
0.0
 10
-17.8276029169
 20
-68.4114631127
 30
0.0
 10
-17.8649973409
 20
-68.4434530195
 30
0.0
 10
-17.8913647885
 20
-68.4697585182
 30
0.0
 11
-17.7766127647
 21
-68.3789447227
 31
0.0
 11
-17.8058627325
 21
-68.3978252684
 31
0.0
 11
-17.8913647885
 21
-68.4697585182
 31
0.0
  0
SPLINE
  5
4CF
100
AcDbEntity
  8
RACCORDO
100
AcDbSpline
 62
7
  6
CONTINUOUS
 70
0
 71
3
 72
9
 73
5
 74
3
 42
0.0000001
 43
0.0000001
 44
0.0000000001
 12
-0.1440896839
 22
-0.0602425744
 32
0.0
 13
-0.1252946641
 23
-0.0932322472
 33
0.0
 40
0.0
 40
0.0
 40
0.0
 40
0.0
 40
0.24092834
 40
1.0
 40
1.0
 40
1.0
 40
1.0
 10
-17.7865280628
 20
-68.3699332283
 30
0.0
 10
-17.7980998256
 20
-68.3747712761
 30
0.0
 10
-17.8454355062
 20
-68.3964971018
 30
0.0
 10
-17.8898840186
 20
-68.4243266379
 30
0.0
 10
-17.9215865615
 20
-68.4479166235
 30
0.0
 11
-17.7865280628
 21
-68.3699332283
 31
0.0
 11
-17.8207412496
 21
-68.3855943091
 31
0.0
 11
-17.9215865615
 21
-68.4479166235
 31
0.0
  0
SPLINE
  5
4D0
100
AcDbEntity
  8
RACCORDO
100
AcDbSpline
 62
7
  6
CONTINUOUS
 70
0
 71
3
 72
9
 73
5
 74
3
 42
0.0000001
 43
0.0000001
 44
0.0000000001
 12
-0.1242085342
 22
-0.0946731593
 32
0.0
 13
-0.1433862242
 23
-0.0618963471
 33
0.0
 40
0.0
 40
0.0
 40
0.0
 40
0.0
 40
0.2409316862
 40
1.0
 40
1.0
 40
1.0
 40
1.0
 10
-17.9858668975
 20
-68.024668813
 30
0.0
 10
-17.9958421547
 20
-68.0322720677
 30
0.0
 10
-18.0383227052
 20
-68.0624060165
 30
0.0
 10
-18.0846466885
 20
-68.0869871356
 30
0.0
 10
-18.1209266683
 20
-68.1026483209
 30
0.0
 11
-17.9858668975
 21
-68.024668813
 31
0.0
 11
-18.0165350799
 21
-68.0464701828
 31
0.0
 11
-18.1209266683
 21
-68.1026483209
 31
0.0
  0
SPLINE
  5
4D1
100
AcDbEntity
  8
RACCORDO
100
AcDbSpline
 62
7
  6
CONTINUOUS
 70
0
 71
3
 72
9
 73
5
 74
3
 42
0.0000001
 43
0.0000001
 44
0.0000000001
 12
-0.1279979636
 22
-0.0713676488
 32
0.0
 13
-0.1415101585
 23
-0.0381011157
 33
0.0
 40
0.0
 40
0.0
 40
0.0
 40
0.0
 40
0.237558507
 40
1.0
 40
1.0
 40
1.0
 40
1.0
 10
-17.9887124903
 20
-68.011577222
 30
0.0
 10
-17.9988481587
 20
-68.0172285527
 30
0.0
 10
-18.0423677152
 20
-68.0394791428
 30
0.0
 10
-18.0887681383
 20
-68.0558704152
 30
0.0
 10
-18.1247325438
 20
-68.0655537057
 30
0.0
 11
-17.9887124903
 21
-68.011577222
 31
0.0
 11
-18.0196876194
 21
-68.0274695217
 31
0.0
 11
-18.1247325438
 21
-68.0655537057
 31
0.0
  0
SPLINE
  5
4D2
100
AcDbEntity
  8
RACCORDO
100
AcDbSpline
 62
7
  6
CONTINUOUS
 70
0
 71
3
 72
15
 73
11
 74
9
 42
0.0000001
 43
0.0000001
 44
0.0000000001
 12
0.0000238213
 22
-0.597984879
 32
0.0
 13
-0.5178420862
 23
0.2990409502
 33
0.0
 40
0.0
 40
0.0
 40
0.0
 40
0.0
 40
0.1446786948
 40
0.2748799313
 40
0.3916072275
 40
0.4999943582
 40
0.6083856293
 40
0.725122466
 40
0.8553266085
 40
1.0
 40
1.0
 40
1.0
 40
1.0
 10
13.2963027367
 20
-87.9940553375
 30
0.0
 10
13.2963038856
 20
-88.0228938948
 30
0.0
 10
13.292358245
 20
-88.077846702
 30
0.0
 10
13.2717082207
 20
-88.1537710008
 30
0.0
 10
13.2357395432
 20
-88.2159915057
 30
0.0
 10
13.1842792153
 20
-88.2603606187
 30
0.0
 10
13.1201157676
 20
-88.2827244924
 30
0.0
 10
13.0482448315
 20
-88.282744222
 30
0.0
 10
12.9721664449
 20
-88.2626725061
 30
0.0
 10
12.9225975791
 20
-88.23862351
 30
0.0
 10
12.8976249221
 20
-88.2242024205
 30
0.0
 11
13.2963027367
 21
-87.9940553375
 31
0.0
 11
13.2892280199
 21
-88.0802812609
 31
0.0
 11
13.2676681407
 21
-88.155095013
 31
0.0
 11
13.2316830951
 21
-88.2149053647
 31
0.0
 11
13.1822159772
 21
-88.2567842541
 31
0.0
 11
13.1212057974
 21
-88.2786684048
 31
0.0
 11
13.0514100116
 21
-88.2799119598
 31
0.0
 11
12.9758369884
 21
-88.2611792434
 31
0.0
 11
12.8976249221
 21
-88.2242024205
 31
0.0
  0
SPLINE
  5
4D3
100
AcDbEntity
  8
RACCORDO
100
AcDbSpline
 62
7
  6
CONTINUOUS
 70
0
 71
3
 72
9
 73
5
 74
3
 42
0.0000001
 43
0.0000001
 44
0.0000000001
 12
0.1563813851
 22
-0.090284346
 32
0.0
 13
0.1281480412
 23
-0.1272182387
 33
0.0
 40
0.0
 40
0.0
 40
0.0
 40
0.0
 40
0.2366293495
 40
1.0
 40
1.0
 40
1.0
 40
1.0
 10
12.8976249221
 20
-49.966345739
 30
0.0
 10
12.9099597306
 20
-49.9734670477
 30
0.0
 10
12.9609872712
 20
-50.0054503749
 30
0.0
 10
13.007523378
 20
-50.0444103766
 30
0.0
 10
13.0401315292
 20
-50.0767819331
 30
0.0
 11
12.8976249221
 21
-49.966345739
 31
0.0
 11
12.9338574672
 21
-49.9889940836
 31
0.0
 11
13.0401315292
 21
-50.0767819331
 31
0.0
  0
SPLINE
  5
4D4
100
AcDbEntity
  8
RACCORDO
100
AcDbSpline
 62
7
  6
CONTINUOUS
 70
0
 71
3
 72
10
 73
6
 74
4
 42
0.0000001
 43
0.0000001
 44
0.0000000001
 12
0.4592582815
 22
-0.4559260458
 32
0.0
 13
0.0000021875
 23
-0.6471373334
 33
0.0
 40
0.0
 40
0.0
 40
0.0
 40
0.0
 40
0.5173571193
 40
0.7703670028
 40
1.0
 40
1.0
 40
1.0
 40
1.0
 10
13.0401315292
 20
-50.0767819331
 30
0.0
 10
13.1193317097
 20
-50.1554074617
 30
0.0
 10
13.2148350734
 20
-50.2976974307
 30
0.0
 10
13.2833513022
 20
-50.5029845472
 30
0.0
 10
13.2963025693
 20
-50.6073412739
 30
0.0
 10
13.2963027367
 20
-50.6568759691
 30
0.0
 11
13.0401315292
 21
-50.0767819331
 31
0.0
 11
13.2283390882
 21
-50.353674865
 31
0.0
 11
13.2794245991
 21
-50.5092334864
 31
0.0
 11
13.2963027367
 21
-50.6568759691
 31
0.0
  0
SPLINE
  5
4D5
100
AcDbEntity
  8
RACCORDO
100
AcDbSpline
 62
7
  6
CONTINUOUS
 70
0
 71
3
 72
11
 73
7
 74
5
 42
0.0000001
 43
0.0000001
 44
0.0000000001
 12
0.3303340714
 22
0.1779756193
 32
0.0
 13
0.0024728007
 23
0.3752196757
 33
0.0
 40
0.0
 40
0.0
 40
0.0
 40
0.0
 40
0.2174002984
 40
0.4501302195
 40
0.7094857245
 40
1.0
 40
1.0
 40
1.0
 40
1.0
 10
15.3774716782
 20
-91.594987957
 30
0.0
 10
15.4014099201
 20
-91.5820906394
 30
0.0
 10
15.4464638505
 20
-91.5461637869
 30
0.0
 10
15.4947212896
 20
-91.4701713962
 30
0.0
 10
15.5237213331
 20
-91.3757347592
 30
0.0
 10
15.5297281805
 20
-91.3067526998
 30
0.0
 10
15.5299676418
 20
-91.2704171423
 30
0.0
 11
15.3774716782
 21
-91.594987957
 31
0.0
 11
15.4415618449
 21
-91.544521408
 31
0.0
 11
15.4895023963
 21
-91.4715305636
 31
0.0
 11
15.5193700099
 21
-91.3789098189
 31
0.0
 11
15.5299676418
 21
-91.2704171423
 31
0.0
  0
SPLINE
  5
4D6
100
AcDbEntity
  8
RACCORDO
100
AcDbSpline
 62
7
  6
CONTINUOUS
 70
0
 71
3
 72
15
 73
11
 74
9
 42
0.0000001
 43
0.0000001
 44
0.0000000001
 12
-0.0000387078
 22
0.5979848853
 32
0.0
 13
0.5178497191
 23
-0.2990277463
 33
0.0
 40
0.0
 40
0.0
 40
0.0
 40
0.0
 40
0.1446658674
 40
0.2748627245
 40
0.391594032
 40
0.4999831839
 40
0.6083724348
 40
0.7251052566
 40
0.8553137174
 40
1.0
 40
1.0
 40
1.0
 40
1.0
 10
-19.8370404627
 20
-31.526098864
 30
0.0
 10
-19.8370423293
 20
-31.4972628633
 30
0.0
 10
-19.833083315
 20
-31.4423135048
 30
0.0
 10
-19.8124235181
 20
-31.3663967734
 30
0.0
 10
-19.7764669191
 20
-31.3041701499
 30
0.0
 10
-19.7250132313
 20
-31.2597914017
 30
0.0
 10
-19.660854752
 20
-31.2374170877
 30
0.0
 10
-19.5889831073
 20
-31.2373837282
 30
0.0
 10
-19.5129030261
 20
-31.2574676703
 30
0.0
 10
-19.4633378984
 20
-31.2815300434
 30
0.0
 10
-19.4383626481
 20
-31.2959517811
 30
0.0
 11
-19.8370404627
 21
-31.526098864
 31
0.0
 11
-19.829954567
 21
-31.439881554
 31
0.0
 11
-19.8083879407
 21
-31.3650724712
 31
0.0
 11
-19.7724096538
 21
-31.3052552535
 31
0.0
 11
-19.7229487949
 21
-31.2633671007
 31
0.0
 11
-19.6619434868
 21
-31.2414729468
 31
0.0
 11
-19.5921502684
 21
-31.2402200536
 31
0.0
 11
-19.5165766043
 21
-31.2589609194
 31
0.0
 11
-19.4383626481
 21
-31.2959517811
 31
0.0
  0
SPLINE
  5
4D7
100
AcDbEntity
  8
RACCORDO
100
AcDbSpline
 62
7
  6
CONTINUOUS
 70
0
 71
3
 72
11
 73
7
 74
5
 42
0.0000001
 43
0.0000001
 44
0.0000000001
 12
-0.1363190161
 22
0.0787088914
 32
0.0
 13
-0.0000316866
 23
0.1574101736
 33
0.0
 40
0.0
 40
0.0
 40
0.0
 40
0.0
 40
0.2895817376
 40
0.5491318165
 40
0.7822802582
 40
1.0
 40
1.0
 40
1.0
 40
1.0
 10
13.2963027367
 20
-50.6568759691
 30
0.0
 10
13.2831442376
 20
-50.6492784166
 30
0.0
 10
13.2592651951
 20
-50.6328189626
 30
0.0
 10
13.2307121205
 20
-50.6028263833
 30
0.0
 10
13.2126488367
 20
-50.5696340344
 30
0.0
 10
13.2084395502
 20
-50.5458173584
 30
0.0
 10
13.2084372506
 20
-50.5343935909
 30
0.0
 11
13.2963027367
 21
-50.6568759691
 31
0.0
 11
13.2590259839
 21
-50.6306411861
 31
0.0
 11
13.231262541
 21
-50.6006680385
 31
0.0
 11
13.2141964445
 21
-50.5681775205
 31
0.0
 11
13.2084372506
 21
-50.5343935909
 31
0.0
  0
SPLINE
  5
4D8
100
AcDbEntity
  8
RACCORDO
100
AcDbSpline
 62
7
  6
CONTINUOUS
 70
0
 71
3
 72
11
 73
7
 74
5
 42
0.0000001
 43
0.0000001
 44
0.0000000001
 12
-0.0000000517
 22
-0.1573888098
 32
0.0
 13
0.1362846782
 23
-0.0787256244
 33
0.0
 40
0.0
 40
0.0
 40
0.0
 40
0.0
 40
0.2895872683
 40
0.5491386409
 40
0.7822847649
 40
1.0
 40
1.0
 40
1.0
 40
1.0
 10
12.8976249221
 20
-49.966345739
 30
0.0
 10
12.8976249171
 20
-49.9815383375
 30
0.0
 10
12.8999384392
 20
-50.0104444143
 30
0.0
 10
12.9116330556
 20
-50.0501637005
 30
0.0
 10
12.9313426176
 20
-50.0823993683
 30
0.0
 10
12.9498605084
 20
-50.097951379
 30
0.0
 10
12.9597509253
 20
-50.1036646349
 30
0.0
 11
12.8976249221
 21
-49.966345739
 31
0.0
 11
12.9017045576
 21
-50.0117405847
 31
0.0
 11
12.9137771992
 21
-50.0507663861
 31
0.0
 11
12.9333776427
 21
-50.0817875985
 31
0.0
 11
12.9597509253
 21
-50.1036646349
 31
0.0
  0
SPLINE
  5
4D9
100
AcDbEntity
  8
RACCORDO
100
AcDbSpline
 62
7
  6
CONTINUOUS
 70
0
 71
3
 72
11
 73
7
 74
5
 42
0.0000001
 43
0.0000001
 44
0.0000000001
 12
0.0
 22
-0.157342478
 32
0.0
 13
0.1362077173
 23
-0.0787661927
 33
0.0
 40
0.0
 40
0.0
 40
0.0
 40
0.0
 40
0.2895781872
 40
0.5491322113
 40
0.7822857584
 40
1.0
 40
1.0
 40
1.0
 40
1.0
 10
-19.4383626481
 20
-31.2959517811
 30
0.0
 10
-19.4383626481
 20
-31.3111394309
 30
0.0
 10
-19.4360505388
 20
-31.3400365737
 30
0.0
 10
-19.4243638653
 20
-31.3797452032
 30
0.0
 10
-19.4046679374
 20
-31.4119760744
 30
0.0
 10
-19.3861620007
 20
-31.4275310553
 30
0.0
 10
-19.3762772141
 20
-31.4332472293
 30
0.0
 11
-19.4383626481
 21
-31.2959517811
 31
0.0
 11
-19.4342857973
 21
-31.3413319713
 31
0.0
 11
-19.4222213433
 21
-31.3803481541
 31
0.0
 11
-19.4026338118
 21
-31.4113661274
 31
0.0
 11
-19.3762772141
 21
-31.4332472293
 31
0.0
  0
SPLINE
  5
4DA
100
AcDbEntity
  8
RACCORDO
100
AcDbSpline
 62
7
  6
CONTINUOUS
 70
0
 71
3
 72
10
 73
6
 74
4
 42
0.0000001
 43
0.0000001
 44
0.0000000001
 12
0.3008557635
 22
-0.1737074046
 32
0.0
 13
0.335457116
 23
0.0903159797
 33
0.0
 40
0.0
 40
0.0
 40
0.0
 40
0.0
 40
0.2300845876
 40
0.483607702
 40
1.0
 40
1.0
 40
1.0
 40
1.0
 10
-19.8370404627
 20
-31.526098864
 30
0.0
 10
-19.8139663713
 20
-31.5394213296
 30
0.0
 10
-19.761504519
 20
-31.5607627376
 30
0.0
 10
-19.6474142106
 20
-31.5823492496
 30
0.0
 10
-19.5558654402
 20
-31.5761498721
 30
0.0
 10
-19.4981229498
 20
-31.5606037133
 30
0.0
 11
-19.8370404627
 21
-31.526098864
 31
0.0
 11
-19.7634330131
 21
-31.5572606901
 31
0.0
 11
-19.6770028829
 21
-31.5742005407
 31
0.0
 11
-19.4981229498
 21
-31.5606037133
 31
0.0
  0
SPLINE
  5
4DB
100
AcDbEntity
  8
RACCORDO
100
AcDbSpline
 62
7
  6
CONTINUOUS
 70
0
 71
3
 72
10
 73
6
 74
4
 42
0.0000001
 43
0.0000001
 44
0.0000000001
 12
0.3008547198
 22
-0.1737097446
 32
0.0
 13
0.3354567303
 23
0.0903184363
 33
0.0
 40
0.0
 40
0.0
 40
0.0
 40
0.0
 40
0.2300849491
 40
0.4836079614
 40
1.0
 40
1.0
 40
1.0
 40
1.0
 10
-19.8370404627
 20
-68.8632782325
 30
0.0
 10
-19.8139664151
 20
-68.8766008984
 30
0.0
 10
-19.7615045931
 20
-68.89794263
 30
0.0
 10
-19.6474142214
 20
-68.9195293721
 30
0.0
 10
-19.5558653448
 20
-68.9133296556
 30
0.0
 10
-19.4981229498
 20
-68.8977830817
 30
0.0
 11
-19.8370404627
 21
-68.8632782325
 31
0.0
 11
-19.7634330123
 21
-68.8944405359
 31
0.0
 11
-19.6770028817
 21
-68.9113805507
 31
0.0
 11
-19.4981229498
 21
-68.8977830817
 31
0.0
  0
SPLINE
  5
4DC
100
AcDbEntity
  8
RACCORDO
100
AcDbSpline
 62
7
  6
CONTINUOUS
 70
0
 71
3
 72
11
 73
7
 74
5
 42
0.0000001
 43
0.0000001
 44
0.0000000001
 12
0.0000141053
 22
-0.1574089984
 32
0.0
 13
0.1363179965
 23
-0.078708302
 33
0.0
 40
0.0
 40
0.0
 40
0.0
 40
0.0
 40
0.2177586874
 40
0.4509006419
 40
0.7104563331
 40
1.0
 40
1.0
 40
1.0
 40
1.0
 10
-21.7380305154
 20
-69.9212754539
 30
0.0
 10
-21.7380294916
 20
-69.9327011795
 30
0.0
 10
-21.733834299
 20
-69.9565220712
 30
0.0
 10
-21.7157641217
 20
-69.9897154885
 30
0.0
 10
-21.6872077144
 20
-70.0196999864
 30
0.0
 10
-21.6633324931
 20
-70.0361613176
 30
0.0
 10
-21.6501758223
 20
-70.0437578143
 30
0.0
 11
-21.7380305154
 21
-69.9212754539
 31
0.0
 11
-21.7322810574
 21
-69.9550670001
 31
0.0
 11
-21.7152145446
 21
-69.9875558358
 31
0.0
 11
-21.6874467098
 21
-70.0175257023
 31
0.0
 11
-21.6501758223
 21
-70.0437578143
 31
0.0
  0
SPLINE
  5
4DD
100
AcDbEntity
  8
RACCORDO
100
AcDbSpline
 62
7
  6
CONTINUOUS
 70
0
 71
3
 72
10
 73
6
 74
4
 42
0.0000001
 43
0.0000001
 44
0.0000000001
 12
0.0000001141
 22
0.3473993299
 32
0.0
 13
0.2459370819
 23
0.2453594223
 33
0.0
 40
0.0
 40
0.0
 40
0.0
 40
0.0
 40
0.2300791698
 40
0.4836010627
 40
1.0
 40
1.0
 40
1.0
 40
1.0
 10
-19.4383626481
 20
-69.5538084626
 30
0.0
 10
-19.4383626393
 20
-69.5271653461
 30
0.0
 10
-19.4306127899
 20
-69.4710628157
 30
0.0
 10
-19.3922607351
 20
-69.3614660627
 30
0.0
 10
-19.3411179251
 20
-69.2852826451
 30
0.0
 10
-19.2987840425
 20
-69.2430481968
 30
0.0
 11
-19.4383626481
 21
-69.5538084626
 31
0.0
 11
-19.4285445122
 21
-69.4744844113
 31
0.0
 11
-19.3999989786
 21
-69.391165356
 31
0.0
 11
-19.2987840425
 21
-69.2430481968
 31
0.0
  0
SPLINE
  5
4DE
100
AcDbEntity
  8
RACCORDO
100
AcDbSpline
 62
7
  6
CONTINUOUS
 70
0
 71
3
 72
10
 73
6
 74
4
 42
0.0000001
 43
0.0000001
 44
0.0000000001
 12
-0.0
 22
0.3473993418
 32
0.0
 13
0.2459371687
 23
0.2453593523
 33
0.0
 40
0.0
 40
0.0
 40
0.0
 40
0.0
 40
0.2300791865
 40
0.4836010752
 40
1.0
 40
1.0
 40
1.0
 40
1.0
 10
12.8976249221
 20
-88.2242024205
 30
0.0
 10
12.8976249221
 20
-88.1975593012
 30
0.0
 10
12.9053747583
 20
-88.1414567646
 30
0.0
 10
12.9437268056
 20
-88.031860004
 30
0.0
 10
12.9948696312
 20
-87.9556765899
 30
0.0
 10
13.0372035277
 20
-87.9134421547
 30
0.0
 11
12.8976249221
 21
-88.2242024205
 31
0.0
 11
12.9074430395
 21
-88.1448783583
 31
0.0
 11
12.9359885669
 21
-88.0615592993
 31
0.0
 11
13.0372035277
 21
-87.9134421547
 31
0.0
  0
SPLINE
  5
4DF
100
AcDbEntity
  8
RACCORDO
100
AcDbSpline
 62
7
  6
CONTINUOUS
 70
0
 71
3
 72
11
 73
7
 74
5
 42
0.0000001
 43
0.0000001
 44
0.0000000001
 12
-0.1363070506
 22
0.0787020424
 32
0.0
 13
-0.0000536147
 23
0.1573963806
 33
0.0
 40
0.0
 40
0.0
 40
0.0
 40
0.0
 40
0.2895790523
 40
0.5491299326
 40
0.7822805821
 40
1.0
 40
1.0
 40
1.0
 40
1.0
 10
13.2963027367
 20
-87.9940553375
 30
0.0
 10
13.2831455146
 20
-87.9864585166
 30
0.0
 10
13.2592685662
 20
-87.9700007509
 30
0.0
 10
13.2307170574
 20
-87.9400118009
 30
0.0
 10
13.2126529796
 20
-87.9068236814
 30
0.0
 10
13.2084411454
 20
-87.8830096459
 30
0.0
 10
13.2084372544
 20
-87.8715868964
 30
0.0
 11
13.2963027367
 21
-87.9940553375
 31
0.0
 11
13.2590293489
 21
-87.9678234445
 31
0.0
 11
13.2312671671
 21
-87.9378538345
 31
0.0
 11
13.2141999825
 21
-87.9053671266
 31
0.0
 11
13.2084372544
 21
-87.8715868964
 31
0.0
  0
SPLINE
  5
4E0
100
AcDbEntity
  8
RACCORDO
100
AcDbSpline
 62
7
  6
CONTINUOUS
 70
0
 71
3
 72
11
 73
7
 74
5
 42
0.0000001
 43
0.0000001
 44
0.0000000001
 12
-0.7171285941
 22
0.4140697132
 32
0.0
 13
0.0000544718
 23
0.8280864356
 33
0.0
 40
0.0
 40
0.0
 40
0.0
 40
0.0
 40
0.2369489663
 40
0.5000027919
 40
0.7630483128
 40
1.0
 40
1.0
 40
1.0
 40
1.0
 10
-19.4383626481
 20
-69.5538084626
 30
0.0
 10
-19.4950036078
 20
-69.521103999
 30
0.0
 10
-19.6035486068
 20
-69.432534598
 30
0.0
 10
-19.7302516405
 20
-69.2619770089
 30
0.0
 10
-19.8145804229
 20
-69.0669661882
 30
0.0
 10
-19.8370447651
 20
-68.9286837252
 30
0.0
 10
-19.8370404627
 20
-68.8632782325
 30
0.0
 11
-19.4383626481
 21
-69.5538084626
 31
0.0
 11
-19.5921502729
 21
-69.4319503948
 31
0.0
 11
-19.7229487874
 21
-69.2577601936
 31
0.0
 11
-19.8083879171
 21
-69.0573914419
 31
0.0
 11
-19.8370404627
 21
-68.8632782325
 31
0.0
  0
SPLINE
  5
4E1
100
AcDbEntity
  8
RACCORDO
100
AcDbSpline
 62
7
  6
CONTINUOUS
 70
0
 71
3
 72
11
 73
7
 74
5
 42
0.0000001
 43
0.0000001
 44
0.0000000001
 12
0.000014108
 22
-0.157408994
 32
0.0
 13
0.1363179944
 23
-0.0787082969
 33
0.0
 40
0.0
 40
0.0
 40
0.0
 40
0.0
 40
0.2177586882
 40
0.4509006427
 40
0.7104563324
 40
1.0
 40
1.0
 40
1.0
 40
1.0
 10
-21.7380305154
 20
-28.1293736616
 30
0.0
 10
-21.7380294914
 20
-28.140799387
 30
0.0
 10
-21.7338342985
 20
-28.164620278
 30
0.0
 10
-21.715764121
 20
-28.1978136939
 30
0.0
 10
-21.6872077139
 20
-28.2277981904
 30
0.0
 10
-21.663332493
 20
-28.2442595205
 30
0.0
 10
-21.6501758223
 20
-28.2518560168
 30
0.0
 11
-21.7380305154
 21
-28.1293736616
 31
0.0
 11
-21.732281057
 21
-28.1631652069
 31
0.0
 11
-21.7152145439
 21
-28.1956540413
 31
0.0
 11
-21.6874467095
 21
-28.2256239063
 31
0.0
 11
-21.6501758223
 21
-28.2518560168
 31
0.0
  0
SPLINE
  5
4E2
100
AcDbEntity
  8
RACCORDO
100
AcDbSpline
 62
7
  6
CONTINUOUS
 70
0
 71
3
 72
13
 73
9
 74
7
 42
0.0000001
 43
0.0000001
 44
0.0000000001
 12
-0.0662090449
 22
0.1972123061
 32
0.0
 13
0.2078764784
 23
-0.0079812929
 33
0.0
 40
0.0
 40
0.0
 40
0.0
 40
0.0
 40
0.279534151
 40
0.5136620017
 40
0.6222252232
 40
0.7348380503
 40
0.8596282997
 40
1.0
 40
1.0
 40
1.0
 40
1.0
 10
-19.4981226884
 20
-31.5606048225
 30
0.0
 10
-19.5042919181
 20
-31.5422289643
 30
0.0
 10
-19.5128078146
 20
-31.5073812157
 30
0.0
 10
-19.5073022757
 20
-31.4623675905
 30
0.0
 10
-19.488211809
 20
-31.4363375221
 30
0.0
 10
-19.4676956334
 20
-31.423016045
 30
0.0
 10
-19.4421145304
 20
-31.4160853926
 30
0.0
 10
-19.4236172286
 20
-31.4153359744
 30
0.0
 10
-19.4138905704
 20
-31.4157094237
 30
0.0
 11
-19.4981226884
 21
-31.5606048225
 31
0.0
 11
-19.509692597
 21
-31.5036160407
 31
0.0
 11
-19.5008997355
 21
-31.4557107749
 31
0.0
 11
-19.4874558896
 21
-31.4375636903
 31
0.0
 11
-19.4679682993
 21
-31.4245618035
 31
0.0
 11
-19.4430496324
 21
-31.4172827024
 31
0.0
 11
-19.4138905704
 21
-31.4157094237
 31
0.0
  0
SPLINE
  5
4E3
100
AcDbEntity
  8
RACCORDO
100
AcDbSpline
 62
7
  6
CONTINUOUS
 70
0
 71
3
 72
11
 73
7
 74
5
 42
0.0000001
 43
0.0000001
 44
0.0000000001
 12
-0.4310685118
 22
0.1088707109
 32
0.0
 13
0.1215914924
 23
0.4276545364
 33
0.0
 40
0.0
 40
0.0
 40
0.0
 40
0.0
 40
0.2417492733
 40
0.5000082522
 40
0.7582667077
 40
1.0
 40
1.0
 40
1.0
 40
1.0
 10
-19.2987936703
 20
-69.2430450352
 30
0.0
 10
-19.3335305034
 20
-69.2342718968
 30
0.0
 10
-19.4031065985
 20
-69.203739145
 30
0.0
 10
-19.4822306232
 20
-69.1187711174
 30
0.0
 10
-19.5161956276
 20
-69.0077743698
 30
0.0
 10
-19.5079202817
 20
-68.9322413869
 30
0.0
 10
-19.4981227111
 20
-68.8977819405
 30
0.0
 11
-19.2987936703
 21
-69.2430450352
 31
0.0
 11
-19.3967415711
 21
-69.1987872839
 31
0.0
 11
-19.4745404092
 21
-69.1143380792
 31
0.0
 11
-19.5087526299
 21
-69.0047306072
 31
0.0
 11
-19.4981227111
 21
-68.8977819405
 31
0.0
  0
SPLINE
  5
4E4
100
AcDbEntity
  8
RACCORDO
100
AcDbSpline
 62
7
  6
CONTINUOUS
 70
0
 71
3
 72
9
 73
5
 74
3
 42
0.0000001
 43
0.0000001
 44
0.0000000001
 12
-0.0245012758
 22
-0.4136068379
 32
0.0
 13
0.370913549
 23
-0.1846457907
 33
0.0
 40
0.0
 40
0.0
 40
0.0
 40
0.0
 40
0.4999981152
 40
1.0
 40
1.0
 40
1.0
 40
1.0
 10
-18.1209268038
 20
-68.1026755565
 30
0.0
 10
-18.1250103344
 20
-68.1716097697
 30
0.0
 10
-18.0860760431
 20
-68.312665989
 30
0.0
 10
-17.9834069748
 20
-68.4171389526
 30
0.0
 10
-17.9215878169
 20
-68.447913367
 30
0.0
 11
-18.1209268038
 21
-68.1026755565
 31
0.0
 11
-18.0701426157
 21
-68.3035197123
 31
0.0
 11
-17.9215878169
 21
-68.447913367
 31
0.0
  0
SPLINE
  5
4E5
100
AcDbEntity
  8
RACCORDO
100
AcDbSpline
 62
7
  6
CONTINUOUS
 70
0
 71
3
 72
10
 73
6
 74
4
 42
0.0000001
 43
0.0000001
 44
0.0000000001
 12
0.1828507333
 22
-0.3543641519
 32
0.0
 13
0.2144009064
 23
-0.336215101
 33
0.0
 40
0.0
 40
0.0
 40
0.0
 40
0.0
 40
0.2273651443
 40
0.5000028679
 40
1.0
 40
1.0
 40
1.0
 40
1.0
 10
-17.9858669935
 20
-68.0246687621
 30
0.0
 10
-17.9720090324
 20
-68.0515254476
 30
0.0
 10
-17.9402186341
 20
-68.1099033212
 30
0.0
 10
-17.8748263596
 20
-68.2256169254
 30
0.0
 10
-17.8222613656
 20
-68.3138983484
 30
0.0
 10
-17.7865280862
 20
-68.3699338772
 30
0.0
 11
-17.9858669935
 21
-68.0246687621
 31
0.0
 11
-17.9429097592
 21
-68.1045098406
 31
0.0
 11
-17.8894398168
 21
-68.1991685253
 31
0.0
 11
-17.7865280862
 21
-68.3699338772
 31
0.0
  0
SPLINE
  5
4E6
100
AcDbEntity
  8
RACCORDO
100
AcDbSpline
 62
7
  6
CONTINUOUS
 70
0
 71
3
 72
9
 73
5
 74
3
 42
0.0000001
 43
0.0000001
 44
0.0000000001
 12
0.007213303
 22
-0.0113899398
 32
0.0
 13
0.0118511902
 23
-0.0064274226
 33
0.0
 40
0.0
 40
0.0
 40
0.0
 40
0.0
 40
0.2343894454
 40
1.0
 40
1.0
 40
1.0
 40
1.0
 10
-17.7865280862
 20
-68.3699338772
 30
0.0
 10
-17.7859645121
 20
-68.370823771
 30
0.0
 10
-17.7833087229
 20
-68.3744613252
 30
0.0
 10
-17.7796372301
 20
-68.3773044218
 30
0.0
 10
-17.7766127647
 20
-68.3789447227
 30
0.0
 11
-17.7865280862
 21
-68.3699338772
 31
0.0
 11
-17.7846637331
 21
-68.3724853334
 31
0.0
 11
-17.7766127647
 21
-68.3789447227
 31
0.0
  0
SPLINE
  5
4E7
100
AcDbEntity
  8
RACCORDO
100
AcDbSpline
 62
7
  6
CONTINUOUS
 70
0
 71
3
 72
9
 73
5
 74
3
 42
0.0000001
 43
0.0000001
 44
0.0000000001
 12
-0.0003312848
 22
-0.0134726882
 32
0.0
 13
0.0061959692
 23
-0.0119680008
 33
0.0
 40
0.0
 40
0.0
 40
0.0
 40
0.0
 40
0.2685734322
 40
1.0
 40
1.0
 40
1.0
 40
1.0
 10
-17.9887124903
 20
-68.011577222
 30
0.0
 10
-17.9887421484
 20
-68.0127833574
 30
0.0
 10
-17.9886011642
 20
-68.0172742397
 30
0.0
 10
-17.9873776257
 20
-68.0217508575
 30
0.0
 10
-17.9858669935
 20
-68.0246687621
 30
0.0
 11
-17.9887124903
 21
-68.011577222
 31
0.0
 11
-17.9885883327
 21
-68.0151945918
 31
0.0
 11
-17.9858669935
 21
-68.0246687621
 31
0.0
  0
SPLINE
  5
4E8
100
AcDbEntity
  8
RACCORDO
100
AcDbSpline
 62
7
  6
CONTINUOUS
 70
0
 71
3
 72
11
 73
7
 74
5
 42
0.0000001
 43
0.0000001
 44
0.0000000001
 12
-0.0068243301
 22
1.024860587
 32
0.0
 13
-0.8841392067
 23
0.5183470434
 33
0.0
 40
0.0
 40
0.0
 40
0.0
 40
0.0
 40
0.2370060342
 40
0.4999938366
 40
0.7629849612
 40
1.0
 40
1.0
 40
1.0
 40
1.0
 10
15.5299676418
 20
-49.4785153448
 30
0.0
 10
15.529428506
 20
-49.397549297
 30
0.0
 10
15.4981521652
 20
-49.2268494035
 30
0.0
 10
15.3917884631
 20
-48.9868387954
 30
0.0
 10
15.2371125434
 20
-48.7747185965
 30
0.0
 10
15.1049197115
 20
-48.6622765248
 30
0.0
 10
15.035068282
 20
-48.6213245099
 30
0.0
 11
15.5299676418
 21
-49.4785153448
 31
0.0
 11
15.4911435512
 21
-49.2387345824
 31
0.0
 11
15.3834630979
 21
-48.9916469139
 31
0.0
 11
15.223317361
 21
-48.7748461428
 31
0.0
 11
15.035068282
 21
-48.6213245099
 31
0.0
  0
SPLINE
  5
4E9
100
AcDbEntity
  8
RACCORDO
100
AcDbSpline
 62
7
  6
CONTINUOUS
 70
0
 71
3
 72
11
 73
7
 74
5
 42
0.0000001
 43
0.0000001
 44
0.0000000001
 12
-0.3262172695
 22
0.1854893057
 32
0.0
 13
-0.3193340888
 23
-0.1971033464
 33
0.0
 40
0.0
 40
0.0
 40
0.0
 40
0.0
 40
0.2905184574
 40
0.5498765043
 40
0.7826053532
 40
1.0
 40
1.0
 40
1.0
 40
1.0
 10
-21.1589463682
 20
-27.7233540684
 30
0.0
 10
-21.1905370809
 20
-27.7053913794
 30
0.0
 10
-21.2532863693
 20
-27.6760965394
 30
0.0
 10
-21.349580442
 20
-27.6539870047
 30
0.0
 10
-21.4395290587
 20
-27.6577796675
 30
0.0
 10
-21.4931749819
 20
-27.6788340674
 30
0.0
 10
-21.5163154891
 20
-27.6931171382
 30
0.0
 11
-21.1589463682
 21
-27.7233540684
 31
0.0
 11
-21.2582125687
 21
-27.6782774299
 31
0.0
 11
-21.3533679242
 21
-27.6578272761
 31
0.0
 11
-21.4405586056
 21
-27.6628467361
 31
0.0
 11
-21.5163154891
 21
-27.6931171382
 31
0.0
  0
SPLINE
  5
4EA
100
AcDbEntity
  8
RACCORDO
100
AcDbSpline
 62
7
  6
CONTINUOUS
 70
0
 71
3
 72
11
 73
7
 74
5
 42
0.0000001
 43
0.0000001
 44
0.0000000001
 12
-0.3738480846
 22
-0.223389988
 32
0.0
 13
0.000000011
 23
-0.4355060012
 33
0.0
 40
0.0
 40
0.0
 40
0.0
 40
0.0
 40
0.2383260036
 40
0.5010975909
 40
0.7632734208
 40
1.0
 40
1.0
 40
1.0
 40
1.0
 10
15.035068281
 20
-48.6213245093
 30
0.0
 10
15.005369041
 20
-48.639071057
 30
0.0
 10
14.9493145647
 20
-48.6871962352
 30
0.0
 10
14.8839615595
 20
-48.777668692
 30
0.0
 10
14.8393799306
 20
-48.8797312749
 30
0.0
 10
14.8266384613
 20
-48.952207771
 30
0.0
 10
14.8266384621
 20
-48.986573053
 30
0.0
 11
15.035068281
 21
-48.6213245093
 31
0.0
 11
14.9550235845
 21
-48.6873980278
 31
0.0
 11
14.8874739478
 21
-48.7797735684
 31
0.0
 11
14.8424358386
 21
-48.8846947121
 31
0.0
 11
14.8266384621
 21
-48.986573053
 31
0.0
  0
SPLINE
  5
4EB
100
AcDbEntity
  8
RACCORDO
100
AcDbSpline
 62
7
  6
CONTINUOUS
 70
0
 71
3
 72
11
 73
7
 74
5
 42
0.0000001
 43
0.0000001
 44
0.0000000001
 12
-0.3738480757
 22
-0.2233899999
 32
0.0
 13
0.0000000017
 23
-0.4355059997
 33
0.0
 40
0.0
 40
0.0
 40
0.0
 40
0.0
 40
0.2383260021
 40
0.5010975899
 40
0.76327342
 40
1.0
 40
1.0
 40
1.0
 40
1.0
 10
-21.1589463668
 20
-27.7233540692
 30
0.0
 10
-21.1886456059
 20
-27.7411006177
 30
0.0
 10
-21.244700081
 20
-27.7892257964
 30
0.0
 10
-21.3100530871
 20
-27.8796982518
 30
0.0
 10
-21.3546347174
 20
-27.9817608338
 30
0.0
 10
-21.3673761882
 20
-28.0542373295
 30
0.0
 10
-21.3673761881
 20
-28.0886026115
 30
0.0
 11
-21.1589463668
 21
-27.7233540692
 31
0.0
 11
-21.2389910615
 21
-27.7894275885
 31
0.0
 11
-21.3065406989
 21
-27.8818031282
 31
0.0
 11
-21.3515788096
 21
-27.986724271
 31
0.0
 11
-21.3673761881
 21
-28.0886026115
 31
0.0
  0
SPLINE
  5
4EC
100
AcDbEntity
  8
RACCORDO
100
AcDbSpline
 62
7
  6
CONTINUOUS
 70
0
 71
3
 72
11
 73
7
 74
5
 42
0.0000001
 43
0.0000001
 44
0.0000000001
 12
-0.380376472
 22
-0.21208902
 32
0.0
 13
-0.3771557076
 23
0.2177649767
 33
0.0
 40
0.0
 40
0.0
 40
0.0
 40
0.0
 40
0.2383228673
 40
0.5010914229
 40
0.763267564
 40
1.0
 40
1.0
 40
1.0
 40
1.0
 10
15.5299676418
 20
-49.4785153464
 30
0.0
 10
15.4997501713
 20
-49.4953639009
 30
0.0
 10
15.430046374
 20
-49.5198484495
 30
0.0
 10
15.3190184663
 20
-49.531210619
 30
0.0
 10
15.2083376413
 20
-49.5187866951
 30
0.0
 10
15.1391997594
 20
-49.4935803983
 30
0.0
 10
15.1094380963
 20
-49.4763963872
 30
0.0
 11
15.5299676418
 21
-49.4785153464
 31
0.0
 11
15.4327259728
 21
-49.514802832
 31
0.0
 11
15.3189522769
 21
-49.5271159519
 31
0.0
 11
15.2055680956
 21
-49.513658227
 31
0.0
 11
15.1094380963
 21
-49.4763963872
 31
0.0
  0
SPLINE
  5
4ED
100
AcDbEntity
  8
RACCORDO
100
AcDbSpline
 62
7
  6
CONTINUOUS
 70
0
 71
3
 72
11
 73
7
 74
5
 42
0.0000001
 43
0.0000001
 44
0.0000000001
 12
-0.3803764778
 22
-0.2120890063
 32
0.0
 13
-0.3771557109
 23
0.2177649678
 33
0.0
 40
0.0
 40
0.0
 40
0.0
 40
0.0
 40
0.2383228673
 40
0.5010914248
 40
0.7632675667
 40
1.0
 40
1.0
 40
1.0
 40
1.0
 10
15.5299676418
 20
-91.2704171412
 30
0.0
 10
15.4997501708
 20
-91.2872656946
 30
0.0
 10
15.4300463733
 20
-91.311750242
 30
0.0
 10
15.3190184659
 20
-91.3231124127
 30
0.0
 10
15.2083376411
 20
-91.3106884902
 30
0.0
 10
15.1391997594
 20
-91.285482195
 30
0.0
 10
15.1094380963
 20
-91.2682981848
 30
0.0
 11
15.5299676418
 21
-91.2704171412
 31
0.0
 11
15.4327259725
 21
-91.3067046249
 31
0.0
 11
15.3189522763
 21
-91.3190177456
 31
0.0
 11
15.2055680949
 21
-91.3055600222
 31
0.0
 11
15.1094380963
 21
-91.2682981848
 31
0.0
  0
SPLINE
  5
4EE
100
AcDbEntity
  8
RACCORDO
100
AcDbSpline
 62
7
  6
CONTINUOUS
 70
0
 71
3
 72
9
 73
5
 74
3
 42
0.0000001
 43
0.0000001
 44
0.0000000001
 12
0.0000527323
 22
-0.0373502916
 32
0.0
 13
0.0077640379
 23
-0.0365344601
 33
0.0
 40
0.0
 40
0.0
 40
0.0
 40
0.0
 40
0.2547387322
 40
1.0
 40
1.0
 40
1.0
 40
1.0
 10
-18.1247325446
 20
-68.0655537081
 30
0.0
 10
-18.124728067
 20
-68.0687252301
 30
0.0
 10
-18.1243742204
 20
-68.0811707444
 30
0.0
 10
-18.1228516187
 20
-68.0935973799
 30
0.0
 10
-18.1209228731
 20
-68.1026732859
 30
0.0
 11
-18.1247325446
 21
-68.0655537081
 31
0.0
 11
-18.1244719475
 21
-68.0750647141
 31
0.0
 11
-18.1209228731
 21
-68.1026732859
 31
0.0
  0
SPLINE
  5
4EF
100
AcDbEntity
  8
RACCORDO
100
AcDbSpline
 62
7
  6
CONTINUOUS
 70
0
 71
3
 72
11
 73
7
 74
5
 42
0.0000001
 43
0.0000001
 44
0.0000000001
 12
-0.1362924929
 22
0.0787097748
 32
0.0
 13
-0.0000000006
 23
0.1573876497
 33
0.0
 40
0.0
 40
0.0
 40
0.0
 40
0.0
 40
0.2177541405
 40
0.4508937694
 40
0.7104507771
 40
1.0
 40
1.0
 40
1.0
 40
1.0
 10
14.8887698696
 20
-91.5688611445
 30
0.0
 10
14.878877118
 20
-91.563148018
 30
0.0
 10
14.8603485312
 20
-91.5476061005
 30
0.0
 10
14.8406414907
 20
-91.5153639275
 30
0.0
 10
14.8289555289
 20
-91.4756457922
 30
0.0
 10
14.8266384622
 20
-91.4467420806
 30
0.0
 10
14.8266384621
 20
-91.4315515901
 30
0.0
 11
14.8887698696
 21
-91.5688611445
 31
0.0
 11
14.8623851249
 21
-91.5469887333
 31
0.0
 11
14.8427863447
 21
-91.5159679991
 31
0.0
 11
14.830718731
 21
-91.4769400295
 31
0.0
 11
14.8266384621
 21
-91.4315515901
 31
0.0
  0
SPLINE
  5
4F0
100
AcDbEntity
  8
RACCORDO
100
AcDbSpline
 62
7
  6
CONTINUOUS
 70
0
 71
3
 72
11
 73
7
 74
5
 42
0.0000001
 43
0.0000001
 44
0.0000000001
 12
-0.1362924929
 22
0.0787097779
 32
0.0
 13
-0.000000004
 23
0.1573876512
 33
0.0
 40
0.0
 40
0.0
 40
0.0
 40
0.0
 40
0.2177541423
 40
0.4508937728
 40
0.710450779
 40
1.0
 40
1.0
 40
1.0
 40
1.0
 10
-21.3052447786
 20
-70.6708907042
 30
0.0
 10
-21.3151375302
 20
-70.6651775774
 30
0.0
 10
-21.3336661172
 20
-70.6496356595
 30
0.0
 10
-21.353373158
 20
-70.6173934861
 30
0.0
 10
-21.3650591206
 20
-70.5776753508
 30
0.0
 10
-21.3673761877
 20
-70.5487716392
 30
0.0
 10
-21.3673761881
 20
-70.5335811486
 30
0.0
 11
-21.3052447786
 21
-70.6708907042
 31
0.0
 11
-21.3316295236
 21
-70.6490182923
 31
0.0
 11
-21.3512283041
 21
-70.6179975576
 31
0.0
 11
-21.3632959184
 21
-70.5789695881
 31
0.0
 11
-21.3673761881
 21
-70.5335811486
 31
0.0
  0
SPLINE
  5
4F1
100
AcDbEntity
  8
RACCORDO
100
AcDbSpline
 62
7
  6
CONTINUOUS
 70
0
 71
3
 72
15
 73
11
 74
9
 42
0.0000001
 43
0.0000001
 44
0.0000000001
 12
0.0000290007
 22
0.4170681701
 32
0.0
 13
0.3612088352
 23
-0.2085042848
 33
0.0
 40
0.0
 40
0.0
 40
0.0
 40
0.0
 40
0.145084411
 40
0.2749838777
 40
0.3918358314
 40
0.5009156004
 40
0.6098397432
 40
0.7262475406
 40
0.855533188
 40
1.0
 40
1.0
 40
1.0
 40
1.0
 10
-21.6501758223
 20
-28.2518560168
 30
0.0
 10
-21.6501744198
 20
-28.2316859869
 30
0.0
 10
-21.6471401191
 20
-28.1933253591
 30
0.0
 10
-21.6316877105
 20
-28.1406001492
 30
0.0
 10
-21.6056610604
 20
-28.0977096005
 30
0.0
 10
-21.5695347867
 20
-28.0669429266
 30
0.0
 10
-21.5251101231
 20
-28.0504169971
 30
0.0
 10
-21.4751221096
 20
-28.0487620494
 30
0.0
 10
-21.4218528097
 20
-28.0611642118
 30
0.0
 10
-21.3870537537
 20
-28.0772435921
 30
0.0
 10
-21.3696595241
 20
-28.0872842419
 30
0.0
 11
-21.6501758223
 21
-28.2518560168
 31
0.0
 11
-21.6447984844
 21
-28.1915853338
 31
0.0
 11
-21.6288681249
 21
-28.1398034478
 31
0.0
 11
-21.602992867
 21
-28.0985046134
 31
0.0
 11
-21.5681558087
 21
-28.0692461771
 31
0.0
 11
-21.5256767949
 21
-28.0531431146
 31
0.0
 11
-21.4771818127
 21
-28.0508327139
 31
0.0
 11
-21.4245002702
 21
-28.0623271303
 31
0.0
 11
-21.3696595241
 21
-28.0872842419
 31
0.0
  0
SPLINE
  5
4F2
100
AcDbEntity
  8
RACCORDO
100
AcDbSpline
 62
7
  6
CONTINUOUS
 70
0
 71
3
 72
12
 73
8
 74
6
 42
0.0000001
 43
0.0000001
 44
0.0000000001
 12
0.505725355
 22
-0.2920463641
 32
0.0
 13
0.0000644726
 23
-0.5839941861
 33
0.0
 40
0.0
 40
0.0
 40
0.0
 40
0.0
 40
0.2368422947
 40
0.4991924762
 40
0.7618019237
 40
0.8853942362
 40
1.0
 40
1.0
 40
1.0
 40
1.0
 10
14.8266384621
 20
-48.986573053
 30
0.0
 10
14.86656418
 20
-49.0096293633
 30
0.0
 10
14.9421867346
 20
-49.0731654414
 30
0.0
 10
15.0305711704
 20
-49.1934545
 30
0.0
 10
15.0823752879
 20
-49.3100070797
 30
0.0
 10
15.1048810626
 20
-49.4050598924
 30
0.0
 10
15.1094356333
 20
-49.4514501992
 30
0.0
 10
15.1094380963
 20
-49.4737598991
 30
0.0
 11
14.8266384621
 21
-48.986573053
 31
0.0
 11
14.9343368373
 21
-49.0733599617
 31
0.0
 11
15.0258022863
 21
-49.1962732503
 31
0.0
 11
15.0872407215
 21
-49.3367913695
 31
0.0
 11
15.1036292616
 21
-49.4070833524
 31
0.0
 11
15.1094380963
 21
-49.4737598991
 31
0.0
  0
SPLINE
  5
4F3
100
AcDbEntity
  8
RACCORDO
100
AcDbSpline
 62
7
  6
CONTINUOUS
 70
0
 71
3
 72
15
 73
11
 74
9
 42
0.0000001
 43
0.0000001
 44
0.0000000001
 12
-0.0000290007
 22
-0.4170681613
 32
0.0
 13
-0.3612088275
 23
0.2085042803
 33
0.0
 40
0.0
 40
0.0
 40
0.0
 40
0.0
 40
0.1450844117
 40
0.2749838793
 40
0.3918358339
 40
0.5009156036
 40
0.6098397465
 40
0.7262475433
 40
0.8555331895
 40
1.0
 40
1.0
 40
1.0
 40
1.0
 10
15.1094380963
 20
-91.2682981848
 30
0.0
 10
15.1094366938
 20
-91.2884682144
 30
0.0
 10
15.1064023932
 20
-91.3268288415
 30
0.0
 10
15.0909499852
 20
-91.3795540507
 30
0.0
 10
15.064923336
 20
-91.4224445991
 30
0.0
 10
15.0287970635
 20
-91.4532112732
 30
0.0
 10
14.9843724013
 20
-91.4697372036
 30
0.0
 10
14.9343843891
 20
-91.4713921526
 30
0.0
 10
14.8811150905
 20
-91.4589899921
 30
0.0
 10
14.8463160349
 20
-91.4429106136
 30
0.0
 10
14.8289218059
 20
-91.4328699641
 30
0.0
 11
15.1094380963
 21
-91.2682981848
 31
0.0
 11
15.1040607586
 21
-91.3285688667
 31
0.0
 11
15.0881303997
 21
-91.3803507521
 31
0.0
 11
15.0622551426
 21
-91.4216495863
 31
0.0
 11
15.0274180855
 21
-91.4509080228
 31
0.0
 11
14.984939073
 21
-91.4670110861
 31
0.0
 11
14.9364440921
 21
-91.4693214881
 31
0.0
 11
14.8837625508
 21
-91.4578270736
 31
0.0
 11
14.8289218059
 21
-91.4328699641
 31
0.0
  0
SPLINE
  5
4F4
100
AcDbEntity
  8
RACCORDO
100
AcDbSpline
 62
7
  6
CONTINUOUS
 70
0
 71
3
 72
12
 73
8
 74
6
 42
0.0000001
 43
0.0000001
 44
0.0000000001
 12
-0.5057253573
 22
0.2920463654
 32
0.0
 13
-0.0000644726
 23
0.5839941887
 33
0.0
 40
0.0
 40
0.0
 40
0.0
 40
0.0
 40
0.2368422949
 40
0.4991924767
 40
0.7618019242
 40
0.8853942365
 40
1.0
 40
1.0
 40
1.0
 40
1.0
 10
-21.3673761881
 20
-70.5335811486
 30
0.0
 10
-21.4073019062
 20
-70.5105248381
 30
0.0
 10
-21.4829244611
 20
-70.4469887596
 30
0.0
 10
-21.5713088972
 20
-70.3266997002
 30
0.0
 10
-21.6231130146
 20
-70.2101471199
 30
0.0
 10
-21.645618789
 20
-70.1150943068
 30
0.0
 10
-21.6501733593
 20
-70.0687039998
 30
0.0
 10
-21.6501758223
 20
-70.0463942998
 30
0.0
 11
-21.3673761881
 21
-70.5335811486
 31
0.0
 11
-21.4750745638
 21
-70.4467942393
 31
0.0
 11
-21.5665400131
 21
-70.3238809498
 31
0.0
 11
-21.6279784481
 21
-70.1833628299
 31
0.0
 11
-21.6443669879
 21
-70.1130708468
 31
0.0
 11
-21.6501758223
 21
-70.0463942998
 31
0.0
  0
SPLINE
  5
4F5
100
AcDbEntity
  8
RACCORDO
100
AcDbSpline
 62
7
  6
CONTINUOUS
 70
0
 71
3
 72
9
 73
5
 74
3
 42
0.0000001
 43
0.0000001
 44
0.0000000001
 12
-0.0290535392
 22
-0.0551073363
 32
0.0
 13
-0.0539576766
 23
-0.0311367274
 33
0.0
 40
0.0
 40
0.0
 40
0.0
 40
0.0
 40
0.277017043
 40
1.0
 40
1.0
 40
1.0
 40
1.0
 10
13.204820371
 20
-87.9129431928
 30
0.0
 10
13.2021375958
 20
-87.9180317499
 30
0.0
 10
13.1916567954
 20
-87.9358817872
 30
0.0
 10
13.1769017476
 20
-87.9518631977
 30
0.0
 10
13.1638982541
 20
-87.9593669721
 30
0.0
 11
13.204820371
 21
-87.9129431928
 31
0.0
 11
13.196002876
 21
-87.9277778835
 31
0.0
 11
13.1638982541
 21
-87.9593669721
 31
0.0
  0
SPLINE
  5
4F6
100
AcDbEntity
  8
RACCORDO
100
AcDbSpline
 62
7
  6
CONTINUOUS
 70
0
 71
3
 72
11
 73
7
 74
5
 42
0.0000001
 43
0.0000001
 44
0.0000000001
 12
-0.1261722059
 22
-0.072808724
 32
0.0
 13
-0.0964136199
 23
0.1092014182
 33
0.0
 40
0.0
 40
0.0
 40
0.0
 40
0.0
 40
0.2220361667
 40
0.4505038999
 40
0.7087907003
 40
1.0
 40
1.0
 40
1.0
 40
1.0
 10
13.1638982541
 20
-87.9593669721
 30
0.0
 10
13.1545599898
 20
-87.9647556954
 30
0.0
 10
13.1324962624
 20
-87.9712555251
 30
0.0
 10
13.0979061877
 20
-87.9633582714
 30
0.0
 10
13.0656675466
 20
-87.9428817744
 30
0.0
 10
13.0465616176
 20
-87.9240415977
 30
0.0
 10
13.03720277
 20
-87.9134414416
 30
0.0
 11
13.1638982541
 21
-87.9593669721
 31
0.0
 11
13.132830308
 21
-87.9683645496
 31
0.0
 11
13.1001508489
 21
-87.9620628055
 31
0.0
 11
13.0678416077
 21
-87.9427812383
 31
0.0
 11
13.03720277
 21
-87.9134414416
 31
0.0
  0
SPLINE
  5
4F7
100
AcDbEntity
  8
RACCORDO
100
AcDbSpline
 62
7
  6
CONTINUOUS
 70
0
 71
3
 72
9
 73
5
 74
3
 42
0.0000001
 43
0.0000001
 44
0.0000000001
 12
-0.1258022839
 22
-0.0751721723
 32
0.0
 13
-0.1037487076
 23
-0.1035049555
 33
0.0
 40
0.0
 40
0.0
 40
0.0
 40
0.0
 40
0.2375582814
 40
1.0
 40
1.0
 40
1.0
 40
1.0
 10
-17.7766127647
 20
-10.4095550704
 30
0.0
 10
-17.7865745561
 20
-10.4155076611
 30
0.0
 10
-17.8276029169
 20
-10.4420734604
 30
0.0
 10
-17.8649973409
 20
-10.4740633672
 30
0.0
 10
-17.8913647885
 20
-10.5003688659
 30
0.0
 11
-17.7766127647
 21
-10.4095550704
 31
0.0
 11
-17.8058627325
 21
-10.4284356161
 31
0.0
 11
-17.8913647885
 21
-10.5003688659
 31
0.0
  0
SPLINE
  5
4F8
100
AcDbEntity
  8
RACCORDO
100
AcDbSpline
 62
7
  6
CONTINUOUS
 70
0
 71
3
 72
9
 73
5
 74
3
 42
0.0000001
 43
0.0000001
 44
0.0000000001
 12
-0.1440896839
 22
-0.0602425744
 32
0.0
 13
-0.1252946641
 23
-0.0932322472
 33
0.0
 40
0.0
 40
0.0
 40
0.0
 40
0.0
 40
0.24092834
 40
1.0
 40
1.0
 40
1.0
 40
1.0
 10
-17.7865280628
 20
-10.400543576
 30
0.0
 10
-17.7980998256
 20
-10.4053816238
 30
0.0
 10
-17.8454355062
 20
-10.4271074495
 30
0.0
 10
-17.8898840186
 20
-10.4549369857
 30
0.0
 10
-17.9215865615
 20
-10.4785269712
 30
0.0
 11
-17.7865280628
 21
-10.400543576
 31
0.0
 11
-17.8207412496
 21
-10.4162046569
 31
0.0
 11
-17.9215865615
 21
-10.4785269712
 31
0.0
  0
SPLINE
  5
4F9
100
AcDbEntity
  8
RACCORDO
100
AcDbSpline
 62
7
  6
CONTINUOUS
 70
0
 71
3
 72
9
 73
5
 74
3
 42
0.0000001
 43
0.0000001
 44
0.0000000001
 12
-0.1242085342
 22
-0.0946731593
 32
0.0
 13
-0.1433862242
 23
-0.0618963471
 33
0.0
 40
0.0
 40
0.0
 40
0.0
 40
0.0
 40
0.2409316862
 40
1.0
 40
1.0
 40
1.0
 40
1.0
 10
-17.9858668975
 20
-10.0552791608
 30
0.0
 10
-17.9958421547
 20
-10.0628824154
 30
0.0
 10
-18.0383227052
 20
-10.0930163642
 30
0.0
 10
-18.0846466885
 20
-10.1175974833
 30
0.0
 10
-18.1209266683
 20
-10.1332586686
 30
0.0
 11
-17.9858668975
 21
-10.0552791608
 31
0.0
 11
-18.0165350799
 21
-10.0770805305
 31
0.0
 11
-18.1209266683
 21
-10.1332586686
 31
0.0
  0
SPLINE
  5
4FA
100
AcDbEntity
  8
RACCORDO
100
AcDbSpline
 62
7
  6
CONTINUOUS
 70
0
 71
3
 72
9
 73
5
 74
3
 42
0.0000001
 43
0.0000001
 44
0.0000000001
 12
-0.1279979636
 22
-0.0713676488
 32
0.0
 13
-0.1415101585
 23
-0.0381011157
 33
0.0
 40
0.0
 40
0.0
 40
0.0
 40
0.0
 40
0.237558507
 40
1.0
 40
1.0
 40
1.0
 40
1.0
 10
-17.9887124903
 20
-10.0421875697
 30
0.0
 10
-17.9988481587
 20
-10.0478389004
 30
0.0
 10
-18.0423677152
 20
-10.0700894905
 30
0.0
 10
-18.0887681383
 20
-10.0864807629
 30
0.0
 10
-18.1247325438
 20
-10.0961640534
 30
0.0
 11
-17.9887124903
 21
-10.0421875697
 31
0.0
 11
-18.0196876194
 21
-10.0580798694
 31
0.0
 11
-18.1247325438
 21
-10.0961640534
 31
0.0
  0
SPLINE
  5
4FB
100
AcDbEntity
  8
RACCORDO
100
AcDbSpline
 62
7
  6
CONTINUOUS
 70
0
 71
3
 72
15
 73
11
 74
9
 42
0.0000001
 43
0.0000001
 44
0.0000000001
 12
0.0000238213
 22
-0.597984879
 32
0.0
 13
-0.5178420862
 23
0.2990409502
 33
0.0
 40
0.0
 40
0.0
 40
0.0
 40
0.0
 40
0.1446786948
 40
0.2748799313
 40
0.3916072275
 40
0.4999943582
 40
0.6083856293
 40
0.725122466
 40
0.8553266085
 40
1.0
 40
1.0
 40
1.0
 40
1.0
 10
13.2963027367
 20
-30.0246656852
 30
0.0
 10
13.2963038856
 20
-30.0535042425
 30
0.0
 10
13.292358245
 20
-30.1084570497
 30
0.0
 10
13.2717082207
 20
-30.1843813485
 30
0.0
 10
13.2357395432
 20
-30.2466018534
 30
0.0
 10
13.1842792153
 20
-30.2909709664
 30
0.0
 10
13.1201157676
 20
-30.3133348401
 30
0.0
 10
13.0482448315
 20
-30.3133545697
 30
0.0
 10
12.9721664449
 20
-30.2932828538
 30
0.0
 10
12.9225975791
 20
-30.2692338577
 30
0.0
 10
12.8976249221
 20
-30.2548127682
 30
0.0
 11
13.2963027367
 21
-30.0246656852
 31
0.0
 11
13.2892280199
 21
-30.1108916086
 31
0.0
 11
13.2676681407
 21
-30.1857053607
 31
0.0
 11
13.2316830951
 21
-30.2455157124
 31
0.0
 11
13.1822159772
 21
-30.2873946018
 31
0.0
 11
13.1212057974
 21
-30.3092787525
 31
0.0
 11
13.0514100116
 21
-30.3105223075
 31
0.0
 11
12.9758369884
 21
-30.2917895911
 31
0.0
 11
12.8976249221
 21
-30.2548127682
 31
0.0
  0
SPLINE
  5
4FC
100
AcDbEntity
  8
RACCORDO
100
AcDbSpline
 62
7
  6
CONTINUOUS
 70
0
 71
3
 72
9
 73
5
 74
3
 42
0.0000001
 43
0.0000001
 44
0.0000000001
 12
0.1563813851
 22
-0.090284346
 32
0.0
 13
0.1281480412
 23
-0.1272182387
 33
0.0
 40
0.0
 40
0.0
 40
0.0
 40
0.0
 40
0.2366293495
 40
1.0
 40
1.0
 40
1.0
 40
1.0
 10
12.8976249221
 20
8.0030439133
 30
0.0
 10
12.9099597306
 20
7.9959226046
 30
0.0
 10
12.9609872712
 20
7.9639392773
 30
0.0
 10
13.007523378
 20
7.9249792757
 30
0.0
 10
13.0401315292
 20
7.8926077192
 30
0.0
 11
12.8976249221
 21
8.0030439133
 31
0.0
 11
12.9338574672
 21
7.9803955687
 31
0.0
 11
13.0401315292
 21
7.8926077192
 31
0.0
  0
SPLINE
  5
4FD
100
AcDbEntity
  8
RACCORDO
100
AcDbSpline
 62
7
  6
CONTINUOUS
 70
0
 71
3
 72
10
 73
6
 74
4
 42
0.0000001
 43
0.0000001
 44
0.0000000001
 12
0.4592582815
 22
-0.4559260458
 32
0.0
 13
0.0000021875
 23
-0.6471373334
 33
0.0
 40
0.0
 40
0.0
 40
0.0
 40
0.0
 40
0.5173571193
 40
0.7703670028
 40
1.0
 40
1.0
 40
1.0
 40
1.0
 10
13.0401315292
 20
7.8926077192
 30
0.0
 10
13.1193317097
 20
7.8139821906
 30
0.0
 10
13.2148350734
 20
7.6716922216
 30
0.0
 10
13.2833513022
 20
7.4664051051
 30
0.0
 10
13.2963025693
 20
7.3620483784
 30
0.0
 10
13.2963027367
 20
7.3125136832
 30
0.0
 11
13.0401315292
 21
7.8926077192
 31
0.0
 11
13.2283390882
 21
7.6157147873
 31
0.0
 11
13.2794245991
 21
7.4601561659
 31
0.0
 11
13.2963027367
 21
7.3125136832
 31
0.0
  0
SPLINE
  5
4FE
100
AcDbEntity
  8
RACCORDO
100
AcDbSpline
 62
7
  6
CONTINUOUS
 70
0
 71
3
 72
11
 73
7
 74
5
 42
0.0000001
 43
0.0000001
 44
0.0000000001
 12
0.3303340714
 22
0.1779756193
 32
0.0
 13
0.0024728007
 23
0.3752196757
 33
0.0
 40
0.0
 40
0.0
 40
0.0
 40
0.0
 40
0.2174002984
 40
0.4501302195
 40
0.7094857245
 40
1.0
 40
1.0
 40
1.0
 40
1.0
 10
15.3774716782
 20
-33.6255983047
 30
0.0
 10
15.4014099201
 20
-33.6127009871
 30
0.0
 10
15.4464638505
 20
-33.5767741346
 30
0.0
 10
15.4947212896
 20
-33.5007817439
 30
0.0
 10
15.5237213331
 20
-33.406345107
 30
0.0
 10
15.5297281805
 20
-33.3373630475
 30
0.0
 10
15.5299676418
 20
-33.3010274901
 30
0.0
 11
15.3774716782
 21
-33.6255983047
 31
0.0
 11
15.4415618449
 21
-33.5751317557
 31
0.0
 11
15.4895023963
 21
-33.5021409113
 31
0.0
 11
15.5193700099
 21
-33.4095201666
 31
0.0
 11
15.5299676418
 21
-33.3010274901
 31
0.0
  0
SPLINE
  5
4FF
100
AcDbEntity
  8
RACCORDO
100
AcDbSpline
 62
7
  6
CONTINUOUS
 70
0
 71
3
 72
15
 73
11
 74
9
 42
0.0000001
 43
0.0000001
 44
0.0000000001
 12
-0.0000387078
 22
0.5979848853
 32
0.0
 13
0.5178497191
 23
-0.2990277463
 33
0.0
 40
0.0
 40
0.0
 40
0.0
 40
0.0
 40
0.1446658674
 40
0.2748627245
 40
0.391594032
 40
0.4999831839
 40
0.6083724348
 40
0.7251052566
 40
0.8553137174
 40
1.0
 40
1.0
 40
1.0
 40
1.0
 10
-19.8370404627
 20
26.4432907883
 30
0.0
 10
-19.8370423293
 20
26.472126789
 30
0.0
 10
-19.833083315
 20
26.5270761475
 30
0.0
 10
-19.8124235181
 20
26.6029928789
 30
0.0
 10
-19.7764669191
 20
26.6652195024
 30
0.0
 10
-19.7250132313
 20
26.7095982506
 30
0.0
 10
-19.660854752
 20
26.7319725646
 30
0.0
 10
-19.5889831073
 20
26.7320059241
 30
0.0
 10
-19.5129030261
 20
26.711921982
 30
0.0
 10
-19.4633378984
 20
26.6878596089
 30
0.0
 10
-19.4383626481
 20
26.6734378712
 30
0.0
 11
-19.8370404627
 21
26.4432907883
 31
0.0
 11
-19.829954567
 21
26.5295080983
 31
0.0
 11
-19.8083879407
 21
26.6043171811
 31
0.0
 11
-19.7724096538
 21
26.6641343988
 31
0.0
 11
-19.7229487949
 21
26.7060225516
 31
0.0
 11
-19.6619434868
 21
26.7279167055
 31
0.0
 11
-19.5921502684
 21
26.7291695986
 31
0.0
 11
-19.5165766043
 21
26.7104287328
 31
0.0
 11
-19.4383626481
 21
26.6734378712
 31
0.0
  0
SPLINE
  5
500
100
AcDbEntity
  8
RACCORDO
100
AcDbSpline
 62
7
  6
CONTINUOUS
 70
0
 71
3
 72
11
 73
7
 74
5
 42
0.0000001
 43
0.0000001
 44
0.0000000001
 12
-0.1363190161
 22
0.0787088914
 32
0.0
 13
-0.0000316866
 23
0.1574101736
 33
0.0
 40
0.0
 40
0.0
 40
0.0
 40
0.0
 40
0.2895817376
 40
0.5491318165
 40
0.7822802582
 40
1.0
 40
1.0
 40
1.0
 40
1.0
 10
13.2963027367
 20
7.3125136832
 30
0.0
 10
13.2831442376
 20
7.3201112357
 30
0.0
 10
13.2592651951
 20
7.3365706897
 30
0.0
 10
13.2307121205
 20
7.366563269
 30
0.0
 10
13.2126488367
 20
7.3997556179
 30
0.0
 10
13.2084395502
 20
7.4235722939
 30
0.0
 10
13.2084372506
 20
7.4349960614
 30
0.0
 11
13.2963027367
 21
7.3125136832
 31
0.0
 11
13.2590259839
 21
7.3387484662
 31
0.0
 11
13.231262541
 21
7.3687216138
 31
0.0
 11
13.2141964445
 21
7.4012121318
 31
0.0
 11
13.2084372506
 21
7.4349960614
 31
0.0
  0
SPLINE
  5
501
100
AcDbEntity
  8
RACCORDO
100
AcDbSpline
 62
7
  6
CONTINUOUS
 70
0
 71
3
 72
11
 73
7
 74
5
 42
0.0000001
 43
0.0000001
 44
0.0000000001
 12
-0.0000000517
 22
-0.1573888098
 32
0.0
 13
0.1362846782
 23
-0.0787256244
 33
0.0
 40
0.0
 40
0.0
 40
0.0
 40
0.0
 40
0.2895872683
 40
0.5491386409
 40
0.7822847649
 40
1.0
 40
1.0
 40
1.0
 40
1.0
 10
12.8976249221
 20
8.0030439133
 30
0.0
 10
12.8976249171
 20
7.9878513148
 30
0.0
 10
12.8999384392
 20
7.9589452379
 30
0.0
 10
12.9116330556
 20
7.9192259518
 30
0.0
 10
12.9313426176
 20
7.886990284
 30
0.0
 10
12.9498605084
 20
7.8714382733
 30
0.0
 10
12.9597509253
 20
7.8657250174
 30
0.0
 11
12.8976249221
 21
8.0030439133
 31
0.0
 11
12.9017045576
 21
7.9576490676
 31
0.0
 11
12.9137771992
 21
7.9186232662
 31
0.0
 11
12.9333776427
 21
7.8876020538
 31
0.0
 11
12.9597509253
 21
7.8657250174
 31
0.0
  0
SPLINE
  5
502
100
AcDbEntity
  8
RACCORDO
100
AcDbSpline
 62
7
  6
CONTINUOUS
 70
0
 71
3
 72
11
 73
7
 74
5
 42
0.0000001
 43
0.0000001
 44
0.0000000001
 12
0.0
 22
-0.157342478
 32
0.0
 13
0.1362077173
 23
-0.0787661927
 33
0.0
 40
0.0
 40
0.0
 40
0.0
 40
0.0
 40
0.2895781872
 40
0.5491322113
 40
0.7822857584
 40
1.0
 40
1.0
 40
1.0
 40
1.0
 10
-19.4383626481
 20
26.6734378712
 30
0.0
 10
-19.4383626481
 20
26.6582502214
 30
0.0
 10
-19.4360505388
 20
26.6293530786
 30
0.0
 10
-19.4243638653
 20
26.5896444491
 30
0.0
 10
-19.4046679374
 20
26.5574135779
 30
0.0
 10
-19.3861620007
 20
26.541858597
 30
0.0
 10
-19.3762772141
 20
26.536142423
 30
0.0
 11
-19.4383626481
 21
26.6734378712
 31
0.0
 11
-19.4342857973
 21
26.628057681
 31
0.0
 11
-19.4222213433
 21
26.5890414982
 31
0.0
 11
-19.4026338118
 21
26.5580235248
 31
0.0
 11
-19.3762772141
 21
26.536142423
 31
0.0
  0
SPLINE
  5
503
100
AcDbEntity
  8
RACCORDO
100
AcDbSpline
 62
7
  6
CONTINUOUS
 70
0
 71
3
 72
10
 73
6
 74
4
 42
0.0000001
 43
0.0000001
 44
0.0000000001
 12
0.3008557635
 22
-0.1737074046
 32
0.0
 13
0.335457116
 23
0.0903159797
 33
0.0
 40
0.0
 40
0.0
 40
0.0
 40
0.0
 40
0.2300845876
 40
0.483607702
 40
1.0
 40
1.0
 40
1.0
 40
1.0
 10
-19.8370404627
 20
26.4432907883
 30
0.0
 10
-19.8139663713
 20
26.4299683227
 30
0.0
 10
-19.761504519
 20
26.4086269147
 30
0.0
 10
-19.6474142106
 20
26.3870404027
 30
0.0
 10
-19.5558654402
 20
26.3932397802
 30
0.0
 10
-19.4981229498
 20
26.408785939
 30
0.0
 11
-19.8370404627
 21
26.4432907883
 31
0.0
 11
-19.7634330131
 21
26.4121289622
 31
0.0
 11
-19.6770028829
 21
26.3951891116
 31
0.0
 11
-19.4981229498
 21
26.408785939
 31
0.0
  0
SPLINE
  5
504
100
AcDbEntity
  8
RACCORDO
100
AcDbSpline
 62
7
  6
CONTINUOUS
 70
0
 71
3
 72
10
 73
6
 74
4
 42
0.0000001
 43
0.0000001
 44
0.0000000001
 12
0.3008547198
 22
-0.1737097446
 32
0.0
 13
0.3354567303
 23
0.0903184363
 33
0.0
 40
0.0
 40
0.0
 40
0.0
 40
0.0
 40
0.2300849491
 40
0.4836079614
 40
1.0
 40
1.0
 40
1.0
 40
1.0
 10
-19.8370404627
 20
-10.8938885802
 30
0.0
 10
-19.8139664151
 20
-10.9072112461
 30
0.0
 10
-19.7615045931
 20
-10.9285529777
 30
0.0
 10
-19.6474142214
 20
-10.9501397198
 30
0.0
 10
-19.5558653448
 20
-10.9439400033
 30
0.0
 10
-19.4981229498
 20
-10.9283934294
 30
0.0
 11
-19.8370404627
 21
-10.8938885802
 31
0.0
 11
-19.7634330123
 21
-10.9250508837
 31
0.0
 11
-19.6770028817
 21
-10.9419908984
 31
0.0
 11
-19.4981229498
 21
-10.9283934294
 31
0.0
  0
SPLINE
  5
505
100
AcDbEntity
  8
RACCORDO
100
AcDbSpline
 62
7
  6
CONTINUOUS
 70
0
 71
3
 72
11
 73
7
 74
5
 42
0.0000001
 43
0.0000001
 44
0.0000000001
 12
0.0000141053
 22
-0.1574089984
 32
0.0
 13
0.1363179965
 23
-0.078708302
 33
0.0
 40
0.0
 40
0.0
 40
0.0
 40
0.0
 40
0.2177586874
 40
0.4509006419
 40
0.7104563331
 40
1.0
 40
1.0
 40
1.0
 40
1.0
 10
-21.7380305154
 20
-11.9518858016
 30
0.0
 10
-21.7380294916
 20
-11.9633115272
 30
0.0
 10
-21.733834299
 20
-11.9871324189
 30
0.0
 10
-21.7157641217
 20
-12.0203258362
 30
0.0
 10
-21.6872077144
 20
-12.0503103341
 30
0.0
 10
-21.6633324931
 20
-12.0667716653
 30
0.0
 10
-21.6501758223
 20
-12.0743681621
 30
0.0
 11
-21.7380305154
 21
-11.9518858016
 31
0.0
 11
-21.7322810574
 21
-11.9856773478
 31
0.0
 11
-21.7152145446
 21
-12.0181661835
 31
0.0
 11
-21.6874467098
 21
-12.04813605
 31
0.0
 11
-21.6501758223
 21
-12.0743681621
 31
0.0
  0
SPLINE
  5
506
100
AcDbEntity
  8
RACCORDO
100
AcDbSpline
 62
7
  6
CONTINUOUS
 70
0
 71
3
 72
10
 73
6
 74
4
 42
0.0000001
 43
0.0000001
 44
0.0000000001
 12
0.0000001141
 22
0.3473993299
 32
0.0
 13
0.2459370819
 23
0.2453594223
 33
0.0
 40
0.0
 40
0.0
 40
0.0
 40
0.0
 40
0.2300791698
 40
0.4836010627
 40
1.0
 40
1.0
 40
1.0
 40
1.0
 10
-19.4383626481
 20
-11.5844188103
 30
0.0
 10
-19.4383626393
 20
-11.5577756938
 30
0.0
 10
-19.4306127899
 20
-11.5016731634
 30
0.0
 10
-19.3922607351
 20
-11.3920764104
 30
0.0
 10
-19.3411179251
 20
-11.3158929928
 30
0.0
 10
-19.2987840425
 20
-11.2736585445
 30
0.0
 11
-19.4383626481
 21
-11.5844188103
 31
0.0
 11
-19.4285445122
 21
-11.505094759
 31
0.0
 11
-19.3999989786
 21
-11.4217757038
 31
0.0
 11
-19.2987840425
 21
-11.2736585445
 31
0.0
  0
SPLINE
  5
507
100
AcDbEntity
  8
RACCORDO
100
AcDbSpline
 62
7
  6
CONTINUOUS
 70
0
 71
3
 72
10
 73
6
 74
4
 42
0.0000001
 43
0.0000001
 44
0.0000000001
 12
-0.0
 22
0.3473993418
 32
0.0
 13
0.2459371687
 23
0.2453593523
 33
0.0
 40
0.0
 40
0.0
 40
0.0
 40
0.0
 40
0.2300791865
 40
0.4836010752
 40
1.0
 40
1.0
 40
1.0
 40
1.0
 10
12.8976249221
 20
-30.2548127682
 30
0.0
 10
12.8976249221
 20
-30.2281696489
 30
0.0
 10
12.9053747583
 20
-30.1720671123
 30
0.0
 10
12.9437268056
 20
-30.0624703517
 30
0.0
 10
12.9948696312
 20
-29.9862869376
 30
0.0
 10
13.0372035277
 20
-29.9440525024
 30
0.0
 11
12.8976249221
 21
-30.2548127682
 31
0.0
 11
12.9074430395
 21
-30.175488706
 31
0.0
 11
12.9359885669
 21
-30.092169647
 31
0.0
 11
13.0372035277
 21
-29.9440525024
 31
0.0
  0
SPLINE
  5
508
100
AcDbEntity
  8
RACCORDO
100
AcDbSpline
 62
7
  6
CONTINUOUS
 70
0
 71
3
 72
11
 73
7
 74
5
 42
0.0000001
 43
0.0000001
 44
0.0000000001
 12
-0.1363070506
 22
0.0787020424
 32
0.0
 13
-0.0000536147
 23
0.1573963806
 33
0.0
 40
0.0
 40
0.0
 40
0.0
 40
0.0
 40
0.2895790523
 40
0.5491299326
 40
0.7822805821
 40
1.0
 40
1.0
 40
1.0
 40
1.0
 10
13.2963027367
 20
-30.0246656852
 30
0.0
 10
13.2831455146
 20
-30.0170688643
 30
0.0
 10
13.2592685662
 20
-30.0006110986
 30
0.0
 10
13.2307170574
 20
-29.9706221486
 30
0.0
 10
13.2126529796
 20
-29.9374340291
 30
0.0
 10
13.2084411454
 20
-29.9136199936
 30
0.0
 10
13.2084372544
 20
-29.9021972442
 30
0.0
 11
13.2963027367
 21
-30.0246656852
 31
0.0
 11
13.2590293489
 21
-29.9984337922
 31
0.0
 11
13.2312671671
 21
-29.9684641822
 31
0.0
 11
13.2141999825
 21
-29.9359774743
 31
0.0
 11
13.2084372544
 21
-29.9021972442
 31
0.0
  0
SPLINE
  5
509
100
AcDbEntity
  8
RACCORDO
100
AcDbSpline
 62
7
  6
CONTINUOUS
 70
0
 71
3
 72
11
 73
7
 74
5
 42
0.0000001
 43
0.0000001
 44
0.0000000001
 12
-0.7171285941
 22
0.4140697132
 32
0.0
 13
0.0000544718
 23
0.8280864356
 33
0.0
 40
0.0
 40
0.0
 40
0.0
 40
0.0
 40
0.2369489663
 40
0.5000027919
 40
0.7630483128
 40
1.0
 40
1.0
 40
1.0
 40
1.0
 10
-19.4383626481
 20
-11.5844188103
 30
0.0
 10
-19.4950036078
 20
-11.5517143468
 30
0.0
 10
-19.6035486068
 20
-11.4631449457
 30
0.0
 10
-19.7302516405
 20
-11.2925873566
 30
0.0
 10
-19.8145804229
 20
-11.0975765359
 30
0.0
 10
-19.8370447651
 20
-10.9592940729
 30
0.0
 10
-19.8370404627
 20
-10.8938885802
 30
0.0
 11
-19.4383626481
 21
-11.5844188103
 31
0.0
 11
-19.5921502729
 21
-11.4625607425
 31
0.0
 11
-19.7229487874
 21
-11.2883705413
 31
0.0
 11
-19.8083879171
 21
-11.0880017896
 31
0.0
 11
-19.8370404627
 21
-10.8938885802
 31
0.0
  0
SPLINE
  5
50A
100
AcDbEntity
  8
RACCORDO
100
AcDbSpline
 62
7
  6
CONTINUOUS
 70
0
 71
3
 72
11
 73
7
 74
5
 42
0.0000001
 43
0.0000001
 44
0.0000000001
 12
0.000014108
 22
-0.157408994
 32
0.0
 13
0.1363179944
 23
-0.0787082969
 33
0.0
 40
0.0
 40
0.0
 40
0.0
 40
0.0
 40
0.2177586882
 40
0.4509006427
 40
0.7104563324
 40
1.0
 40
1.0
 40
1.0
 40
1.0
 10
-21.7380305154
 20
29.8400159907
 30
0.0
 10
-21.7380294914
 20
29.8285902653
 30
0.0
 10
-21.7338342985
 20
29.8047693743
 30
0.0
 10
-21.715764121
 20
29.7715759584
 30
0.0
 10
-21.6872077139
 20
29.7415914619
 30
0.0
 10
-21.663332493
 20
29.7251301318
 30
0.0
 10
-21.6501758223
 20
29.7175336355
 30
0.0
 11
-21.7380305154
 21
29.8400159907
 31
0.0
 11
-21.732281057
 21
29.8062244453
 31
0.0
 11
-21.7152145439
 21
29.773735611
 31
0.0
 11
-21.6874467095
 21
29.743765746
 31
0.0
 11
-21.6501758223
 21
29.7175336355
 31
0.0
  0
SPLINE
  5
50B
100
AcDbEntity
  8
RACCORDO
100
AcDbSpline
 62
7
  6
CONTINUOUS
 70
0
 71
3
 72
13
 73
9
 74
7
 42
0.0000001
 43
0.0000001
 44
0.0000000001
 12
-0.0662090449
 22
0.1972123061
 32
0.0
 13
0.2078764784
 23
-0.0079812929
 33
0.0
 40
0.0
 40
0.0
 40
0.0
 40
0.0
 40
0.279534151
 40
0.5136620017
 40
0.6222252232
 40
0.7348380503
 40
0.8596282997
 40
1.0
 40
1.0
 40
1.0
 40
1.0
 10
-19.4981226884
 20
26.4087848298
 30
0.0
 10
-19.5042919181
 20
26.427160688
 30
0.0
 10
-19.5128078146
 20
26.4620084366
 30
0.0
 10
-19.5073022757
 20
26.5070220618
 30
0.0
 10
-19.488211809
 20
26.5330521302
 30
0.0
 10
-19.4676956334
 20
26.5463736073
 30
0.0
 10
-19.4421145304
 20
26.5533042597
 30
0.0
 10
-19.4236172286
 20
26.5540536779
 30
0.0
 10
-19.4138905704
 20
26.5536802286
 30
0.0
 11
-19.4981226884
 21
26.4087848298
 31
0.0
 11
-19.509692597
 21
26.4657736116
 31
0.0
 11
-19.5008997355
 21
26.5136788774
 31
0.0
 11
-19.4874558896
 21
26.531825962
 31
0.0
 11
-19.4679682993
 21
26.5448278488
 31
0.0
 11
-19.4430496324
 21
26.5521069499
 31
0.0
 11
-19.4138905704
 21
26.5536802286
 31
0.0
  0
SPLINE
  5
50C
100
AcDbEntity
  8
RACCORDO
100
AcDbSpline
 62
7
  6
CONTINUOUS
 70
0
 71
3
 72
11
 73
7
 74
5
 42
0.0000001
 43
0.0000001
 44
0.0000000001
 12
-0.4310685118
 22
0.1088707109
 32
0.0
 13
0.1215914924
 23
0.4276545364
 33
0.0
 40
0.0
 40
0.0
 40
0.0
 40
0.0
 40
0.2417492733
 40
0.5000082522
 40
0.7582667077
 40
1.0
 40
1.0
 40
1.0
 40
1.0
 10
-19.2987936703
 20
-11.2736553829
 30
0.0
 10
-19.3335305034
 20
-11.2648822445
 30
0.0
 10
-19.4031065985
 20
-11.2343494927
 30
0.0
 10
-19.4822306232
 20
-11.1493814651
 30
0.0
 10
-19.5161956276
 20
-11.0383847176
 30
0.0
 10
-19.5079202817
 20
-10.9628517346
 30
0.0
 10
-19.4981227111
 20
-10.9283922882
 30
0.0
 11
-19.2987936703
 21
-11.2736553829
 31
0.0
 11
-19.3967415711
 21
-11.2293976317
 31
0.0
 11
-19.4745404092
 21
-11.1449484269
 31
0.0
 11
-19.5087526299
 21
-11.035340955
 31
0.0
 11
-19.4981227111
 21
-10.9283922882
 31
0.0
  0
SPLINE
  5
50D
100
AcDbEntity
  8
RACCORDO
100
AcDbSpline
 62
7
  6
CONTINUOUS
 70
0
 71
3
 72
9
 73
5
 74
3
 42
0.0000001
 43
0.0000001
 44
0.0000000001
 12
-0.0245012758
 22
-0.4136068379
 32
0.0
 13
0.370913549
 23
-0.1846457907
 33
0.0
 40
0.0
 40
0.0
 40
0.0
 40
0.0
 40
0.4999981152
 40
1.0
 40
1.0
 40
1.0
 40
1.0
 10
-18.1209268038
 20
-10.1332859043
 30
0.0
 10
-18.1250103344
 20
-10.2022201174
 30
0.0
 10
-18.0860760431
 20
-10.3432763367
 30
0.0
 10
-17.9834069748
 20
-10.4477493003
 30
0.0
 10
-17.9215878169
 20
-10.4785237147
 30
0.0
 11
-18.1209268038
 21
-10.1332859043
 31
0.0
 11
-18.0701426157
 21
-10.33413006
 31
0.0
 11
-17.9215878169
 21
-10.4785237147
 31
0.0
  0
SPLINE
  5
50E
100
AcDbEntity
  8
RACCORDO
100
AcDbSpline
 62
7
  6
CONTINUOUS
 70
0
 71
3
 72
10
 73
6
 74
4
 42
0.0000001
 43
0.0000001
 44
0.0000000001
 12
0.1828507333
 22
-0.3543641519
 32
0.0
 13
0.2144009064
 23
-0.336215101
 33
0.0
 40
0.0
 40
0.0
 40
0.0
 40
0.0
 40
0.2273651443
 40
0.5000028679
 40
1.0
 40
1.0
 40
1.0
 40
1.0
 10
-17.9858669935
 20
-10.0552791098
 30
0.0
 10
-17.9720090324
 20
-10.0821357953
 30
0.0
 10
-17.9402186341
 20
-10.1405136689
 30
0.0
 10
-17.8748263596
 20
-10.2562272731
 30
0.0
 10
-17.8222613656
 20
-10.3445086961
 30
0.0
 10
-17.7865280862
 20
-10.4005442249
 30
0.0
 11
-17.9858669935
 21
-10.0552791098
 31
0.0
 11
-17.9429097592
 21
-10.1351201883
 31
0.0
 11
-17.8894398168
 21
-10.229778873
 31
0.0
 11
-17.7865280862
 21
-10.4005442249
 31
0.0
  0
SPLINE
  5
50F
100
AcDbEntity
  8
RACCORDO
100
AcDbSpline
 62
7
  6
CONTINUOUS
 70
0
 71
3
 72
9
 73
5
 74
3
 42
0.0000001
 43
0.0000001
 44
0.0000000001
 12
0.007213303
 22
-0.0113899398
 32
0.0
 13
0.0118511902
 23
-0.0064274226
 33
0.0
 40
0.0
 40
0.0
 40
0.0
 40
0.0
 40
0.2343894454
 40
1.0
 40
1.0
 40
1.0
 40
1.0
 10
-17.7865280862
 20
-10.4005442249
 30
0.0
 10
-17.7859645121
 20
-10.4014341188
 30
0.0
 10
-17.7833087229
 20
-10.4050716729
 30
0.0
 10
-17.7796372301
 20
-10.4079147695
 30
0.0
 10
-17.7766127647
 20
-10.4095550704
 30
0.0
 11
-17.7865280862
 21
-10.4005442249
 31
0.0
 11
-17.7846637331
 21
-10.4030956811
 31
0.0
 11
-17.7766127647
 21
-10.4095550704
 31
0.0
  0
SPLINE
  5
510
100
AcDbEntity
  8
RACCORDO
100
AcDbSpline
 62
7
  6
CONTINUOUS
 70
0
 71
3
 72
9
 73
5
 74
3
 42
0.0000001
 43
0.0000001
 44
0.0000000001
 12
-0.0003312848
 22
-0.0134726882
 32
0.0
 13
0.0061959692
 23
-0.0119680008
 33
0.0
 40
0.0
 40
0.0
 40
0.0
 40
0.0
 40
0.2685734322
 40
1.0
 40
1.0
 40
1.0
 40
1.0
 10
-17.9887124903
 20
-10.0421875697
 30
0.0
 10
-17.9887421484
 20
-10.0433937051
 30
0.0
 10
-17.9886011642
 20
-10.0478845874
 30
0.0
 10
-17.9873776257
 20
-10.0523612052
 30
0.0
 10
-17.9858669935
 20
-10.0552791098
 30
0.0
 11
-17.9887124903
 21
-10.0421875697
 31
0.0
 11
-17.9885883327
 21
-10.0458049395
 31
0.0
 11
-17.9858669935
 21
-10.0552791098
 31
0.0
  0
SPLINE
  5
511
100
AcDbEntity
  8
RACCORDO
100
AcDbSpline
 62
7
  6
CONTINUOUS
 70
0
 71
3
 72
11
 73
7
 74
5
 42
0.0000001
 43
0.0000001
 44
0.0000000001
 12
-0.0068243301
 22
1.024860587
 32
0.0
 13
-0.8841392067
 23
0.5183470434
 33
0.0
 40
0.0
 40
0.0
 40
0.0
 40
0.0
 40
0.2370060342
 40
0.4999938366
 40
0.7629849612
 40
1.0
 40
1.0
 40
1.0
 40
1.0
 10
15.5299676418
 20
8.4908743075
 30
0.0
 10
15.529428506
 20
8.5718403553
 30
0.0
 10
15.4981521652
 20
8.7425402488
 30
0.0
 10
15.3917884631
 20
8.9825508569
 30
0.0
 10
15.2371125434
 20
9.1946710558
 30
0.0
 10
15.1049197115
 20
9.3071131275
 30
0.0
 10
15.035068282
 20
9.3480651424
 30
0.0
 11
15.5299676418
 21
8.4908743075
 31
0.0
 11
15.4911435512
 21
8.7306550699
 31
0.0
 11
15.3834630979
 21
8.9777427384
 31
0.0
 11
15.223317361
 21
9.1945435095
 31
0.0
 11
15.035068282
 21
9.3480651424
 31
0.0
  0
SPLINE
  5
512
100
AcDbEntity
  8
RACCORDO
100
AcDbSpline
 62
7
  6
CONTINUOUS
 70
0
 71
3
 72
11
 73
7
 74
5
 42
0.0000001
 43
0.0000001
 44
0.0000000001
 12
-0.3262172695
 22
0.1854893057
 32
0.0
 13
-0.3193340888
 23
-0.1971033464
 33
0.0
 40
0.0
 40
0.0
 40
0.0
 40
0.0
 40
0.2905184574
 40
0.5498765043
 40
0.7826053532
 40
1.0
 40
1.0
 40
1.0
 40
1.0
 10
-21.1589463682
 20
30.2460355839
 30
0.0
 10
-21.1905370809
 20
30.2639982729
 30
0.0
 10
-21.2532863693
 20
30.2932931129
 30
0.0
 10
-21.349580442
 20
30.3154026476
 30
0.0
 10
-21.4395290587
 20
30.3116099848
 30
0.0
 10
-21.4931749819
 20
30.2905555849
 30
0.0
 10
-21.5163154891
 20
30.2762725141
 30
0.0
 11
-21.1589463682
 21
30.2460355839
 31
0.0
 11
-21.2582125687
 21
30.2911122224
 31
0.0
 11
-21.3533679242
 21
30.3115623762
 31
0.0
 11
-21.4405586056
 21
30.3065429162
 31
0.0
 11
-21.5163154891
 21
30.2762725141
 31
0.0
  0
SPLINE
  5
513
100
AcDbEntity
  8
RACCORDO
100
AcDbSpline
 62
7
  6
CONTINUOUS
 70
0
 71
3
 72
11
 73
7
 74
5
 42
0.0000001
 43
0.0000001
 44
0.0000000001
 12
-0.3738480846
 22
-0.223389988
 32
0.0
 13
0.000000011
 23
-0.4355060012
 33
0.0
 40
0.0
 40
0.0
 40
0.0
 40
0.0
 40
0.2383260036
 40
0.5010975909
 40
0.7632734208
 40
1.0
 40
1.0
 40
1.0
 40
1.0
 10
15.035068281
 20
9.3480651429
 30
0.0
 10
15.005369041
 20
9.3303185953
 30
0.0
 10
14.9493145647
 20
9.2821934171
 30
0.0
 10
14.8839615595
 20
9.1917209603
 30
0.0
 10
14.8393799306
 20
9.0896583774
 30
0.0
 10
14.8266384613
 20
9.0171818813
 30
0.0
 10
14.8266384621
 20
8.9828165993
 30
0.0
 11
15.035068281
 21
9.3480651429
 31
0.0
 11
14.9550235845
 21
9.2819916244
 31
0.0
 11
14.8874739478
 21
9.1896160839
 31
0.0
 11
14.8424358386
 21
9.0846949402
 31
0.0
 11
14.8266384621
 21
8.9828165993
 31
0.0
  0
SPLINE
  5
514
100
AcDbEntity
  8
RACCORDO
100
AcDbSpline
 62
7
  6
CONTINUOUS
 70
0
 71
3
 72
11
 73
7
 74
5
 42
0.0000001
 43
0.0000001
 44
0.0000000001
 12
-0.3738480757
 22
-0.2233899999
 32
0.0
 13
0.0000000017
 23
-0.4355059997
 33
0.0
 40
0.0
 40
0.0
 40
0.0
 40
0.0
 40
0.2383260021
 40
0.5010975899
 40
0.76327342
 40
1.0
 40
1.0
 40
1.0
 40
1.0
 10
-21.1589463668
 20
30.2460355831
 30
0.0
 10
-21.1886456059
 20
30.2282890345
 30
0.0
 10
-21.244700081
 20
30.1801638559
 30
0.0
 10
-21.3100530871
 20
30.0896914005
 30
0.0
 10
-21.3546347174
 20
29.9876288185
 30
0.0
 10
-21.3673761882
 20
29.9151523228
 30
0.0
 10
-21.3673761881
 20
29.8807870408
 30
0.0
 11
-21.1589463668
 21
30.2460355831
 31
0.0
 11
-21.2389910615
 21
30.1799620638
 31
0.0
 11
-21.3065406989
 21
30.0875865241
 31
0.0
 11
-21.3515788096
 21
29.9826653813
 31
0.0
 11
-21.3673761881
 21
29.8807870408
 31
0.0
  0
SPLINE
  5
515
100
AcDbEntity
  8
RACCORDO
100
AcDbSpline
 62
7
  6
CONTINUOUS
 70
0
 71
3
 72
11
 73
7
 74
5
 42
0.0000001
 43
0.0000001
 44
0.0000000001
 12
-0.380376472
 22
-0.21208902
 32
0.0
 13
-0.3771557076
 23
0.2177649767
 33
0.0
 40
0.0
 40
0.0
 40
0.0
 40
0.0
 40
0.2383228673
 40
0.5010914229
 40
0.763267564
 40
1.0
 40
1.0
 40
1.0
 40
1.0
 10
15.5299676418
 20
8.4908743059
 30
0.0
 10
15.4997501713
 20
8.4740257514
 30
0.0
 10
15.430046374
 20
8.4495412027
 30
0.0
 10
15.3190184663
 20
8.4381790333
 30
0.0
 10
15.2083376413
 20
8.4506029572
 30
0.0
 10
15.1391997594
 20
8.4758092539
 30
0.0
 10
15.1094380963
 20
8.4929932651
 30
0.0
 11
15.5299676418
 21
8.4908743059
 31
0.0
 11
15.4327259728
 21
8.4545868203
 31
0.0
 11
15.3189522769
 21
8.4422737004
 31
0.0
 11
15.2055680956
 21
8.4557314253
 31
0.0
 11
15.1094380963
 21
8.4929932651
 31
0.0
  0
SPLINE
  5
516
100
AcDbEntity
  8
RACCORDO
100
AcDbSpline
 62
7
  6
CONTINUOUS
 70
0
 71
3
 72
11
 73
7
 74
5
 42
0.0000001
 43
0.0000001
 44
0.0000000001
 12
-0.3803764778
 22
-0.2120890063
 32
0.0
 13
-0.3771557109
 23
0.2177649678
 33
0.0
 40
0.0
 40
0.0
 40
0.0
 40
0.0
 40
0.2383228673
 40
0.5010914248
 40
0.7632675667
 40
1.0
 40
1.0
 40
1.0
 40
1.0
 10
15.5299676418
 20
-33.3010274889
 30
0.0
 10
15.4997501708
 20
-33.3178760423
 30
0.0
 10
15.4300463733
 20
-33.3423605897
 30
0.0
 10
15.3190184659
 20
-33.3537227604
 30
0.0
 10
15.2083376411
 20
-33.3412988379
 30
0.0
 10
15.1391997594
 20
-33.3160925427
 30
0.0
 10
15.1094380963
 20
-33.2989085325
 30
0.0
 11
15.5299676418
 21
-33.3010274889
 31
0.0
 11
15.4327259725
 21
-33.3373149726
 31
0.0
 11
15.3189522763
 21
-33.3496280933
 31
0.0
 11
15.2055680949
 21
-33.3361703699
 31
0.0
 11
15.1094380963
 21
-33.2989085325
 31
0.0
  0
SPLINE
  5
517
100
AcDbEntity
  8
RACCORDO
100
AcDbSpline
 62
7
  6
CONTINUOUS
 70
0
 71
3
 72
9
 73
5
 74
3
 42
0.0000001
 43
0.0000001
 44
0.0000000001
 12
0.0000527323
 22
-0.0373502916
 32
0.0
 13
0.0077640379
 23
-0.0365344601
 33
0.0
 40
0.0
 40
0.0
 40
0.0
 40
0.0
 40
0.2547387322
 40
1.0
 40
1.0
 40
1.0
 40
1.0
 10
-18.1247325446
 20
-10.0961640559
 30
0.0
 10
-18.124728067
 20
-10.0993355778
 30
0.0
 10
-18.1243742204
 20
-10.1117810921
 30
0.0
 10
-18.1228516187
 20
-10.1242077276
 30
0.0
 10
-18.1209228731
 20
-10.1332836336
 30
0.0
 11
-18.1247325446
 21
-10.0961640559
 31
0.0
 11
-18.1244719475
 21
-10.1056750618
 31
0.0
 11
-18.1209228731
 21
-10.1332836336
 31
0.0
  0
SPLINE
  5
518
100
AcDbEntity
  8
RACCORDO
100
AcDbSpline
 62
7
  6
CONTINUOUS
 70
0
 71
3
 72
11
 73
7
 74
5
 42
0.0000001
 43
0.0000001
 44
0.0000000001
 12
-0.1362924929
 22
0.0787097748
 32
0.0
 13
-0.0000000006
 23
0.1573876497
 33
0.0
 40
0.0
 40
0.0
 40
0.0
 40
0.0
 40
0.2177541405
 40
0.4508937694
 40
0.7104507771
 40
1.0
 40
1.0
 40
1.0
 40
1.0
 10
14.8887698696
 20
-33.5994714922
 30
0.0
 10
14.878877118
 20
-33.5937583657
 30
0.0
 10
14.8603485312
 20
-33.5782164482
 30
0.0
 10
14.8406414907
 20
-33.5459742752
 30
0.0
 10
14.8289555289
 20
-33.5062561399
 30
0.0
 10
14.8266384622
 20
-33.4773524283
 30
0.0
 10
14.8266384621
 20
-33.4621619378
 30
0.0
 11
14.8887698696
 21
-33.5994714922
 31
0.0
 11
14.8623851249
 21
-33.577599081
 31
0.0
 11
14.8427863447
 21
-33.5465783468
 31
0.0
 11
14.830718731
 21
-33.5075503772
 31
0.0
 11
14.8266384621
 21
-33.4621619378
 31
0.0
  0
SPLINE
  5
519
100
AcDbEntity
  8
RACCORDO
100
AcDbSpline
 62
7
  6
CONTINUOUS
 70
0
 71
3
 72
11
 73
7
 74
5
 42
0.0000001
 43
0.0000001
 44
0.0000000001
 12
-0.1362924929
 22
0.0787097779
 32
0.0
 13
-0.000000004
 23
0.1573876512
 33
0.0
 40
0.0
 40
0.0
 40
0.0
 40
0.0
 40
0.2177541423
 40
0.4508937728
 40
0.710450779
 40
1.0
 40
1.0
 40
1.0
 40
1.0
 10
-21.3052447786
 20
-12.7015010519
 30
0.0
 10
-21.3151375302
 20
-12.6957879252
 30
0.0
 10
-21.3336661172
 20
-12.6802460073
 30
0.0
 10
-21.353373158
 20
-12.6480038338
 30
0.0
 10
-21.3650591206
 20
-12.6082856985
 30
0.0
 10
-21.3673761877
 20
-12.5793819869
 30
0.0
 10
-21.3673761881
 20
-12.5641914963
 30
0.0
 11
-21.3052447786
 21
-12.7015010519
 31
0.0
 11
-21.3316295236
 21
-12.6796286401
 31
0.0
 11
-21.3512283041
 21
-12.6486079053
 31
0.0
 11
-21.3632959184
 21
-12.6095799358
 31
0.0
 11
-21.3673761881
 21
-12.5641914963
 31
0.0
  0
SPLINE
  5
51A
100
AcDbEntity
  8
RACCORDO
100
AcDbSpline
 62
7
  6
CONTINUOUS
 70
0
 71
3
 72
15
 73
11
 74
9
 42
0.0000001
 43
0.0000001
 44
0.0000000001
 12
0.0000290007
 22
0.4170681701
 32
0.0
 13
0.3612088352
 23
-0.2085042848
 33
0.0
 40
0.0
 40
0.0
 40
0.0
 40
0.0
 40
0.145084411
 40
0.2749838777
 40
0.3918358314
 40
0.5009156004
 40
0.6098397432
 40
0.7262475406
 40
0.855533188
 40
1.0
 40
1.0
 40
1.0
 40
1.0
 10
-21.6501758223
 20
29.7175336355
 30
0.0
 10
-21.6501744198
 20
29.7377036654
 30
0.0
 10
-21.6471401191
 20
29.7760642932
 30
0.0
 10
-21.6316877105
 20
29.8287895031
 30
0.0
 10
-21.6056610604
 20
29.8716800518
 30
0.0
 10
-21.5695347867
 20
29.9024467257
 30
0.0
 10
-21.5251101231
 20
29.9189726552
 30
0.0
 10
-21.4751221096
 20
29.9206276029
 30
0.0
 10
-21.4218528097
 20
29.9082254405
 30
0.0
 10
-21.3870537537
 20
29.8921460602
 30
0.0
 10
-21.3696595241
 20
29.8821054104
 30
0.0
 11
-21.6501758223
 21
29.7175336355
 31
0.0
 11
-21.6447984844
 21
29.7778043184
 31
0.0
 11
-21.6288681249
 21
29.8295862045
 31
0.0
 11
-21.602992867
 21
29.8708850389
 31
0.0
 11
-21.5681558087
 21
29.9001434752
 31
0.0
 11
-21.5256767949
 21
29.9162465377
 31
0.0
 11
-21.4771818127
 21
29.9185569384
 31
0.0
 11
-21.4245002702
 21
29.907062522
 31
0.0
 11
-21.3696595241
 21
29.8821054104
 31
0.0
  0
SPLINE
  5
51B
100
AcDbEntity
  8
RACCORDO
100
AcDbSpline
 62
7
  6
CONTINUOUS
 70
0
 71
3
 72
12
 73
8
 74
6
 42
0.0000001
 43
0.0000001
 44
0.0000000001
 12
0.505725355
 22
-0.2920463641
 32
0.0
 13
0.0000644726
 23
-0.5839941861
 33
0.0
 40
0.0
 40
0.0
 40
0.0
 40
0.0
 40
0.2368422947
 40
0.4991924762
 40
0.7618019237
 40
0.8853942362
 40
1.0
 40
1.0
 40
1.0
 40
1.0
 10
14.8266384621
 20
8.9828165993
 30
0.0
 10
14.86656418
 20
8.959760289
 30
0.0
 10
14.9421867346
 20
8.8962242109
 30
0.0
 10
15.0305711704
 20
8.7759351522
 30
0.0
 10
15.0823752879
 20
8.6593825726
 30
0.0
 10
15.1048810626
 20
8.5643297599
 30
0.0
 10
15.1094356333
 20
8.5179394531
 30
0.0
 10
15.1094380963
 20
8.4956297532
 30
0.0
 11
14.8266384621
 21
8.9828165993
 31
0.0
 11
14.9343368373
 21
8.8960296906
 31
0.0
 11
15.0258022863
 21
8.7731164019
 31
0.0
 11
15.0872407215
 21
8.6325982828
 31
0.0
 11
15.1036292616
 21
8.5623062999
 31
0.0
 11
15.1094380963
 21
8.4956297532
 31
0.0
  0
SPLINE
  5
51C
100
AcDbEntity
  8
RACCORDO
100
AcDbSpline
 62
7
  6
CONTINUOUS
 70
0
 71
3
 72
15
 73
11
 74
9
 42
0.0000001
 43
0.0000001
 44
0.0000000001
 12
-0.0000290007
 22
-0.4170681613
 32
0.0
 13
-0.3612088275
 23
0.2085042803
 33
0.0
 40
0.0
 40
0.0
 40
0.0
 40
0.0
 40
0.1450844117
 40
0.2749838793
 40
0.3918358339
 40
0.5009156036
 40
0.6098397465
 40
0.7262475433
 40
0.8555331895
 40
1.0
 40
1.0
 40
1.0
 40
1.0
 10
15.1094380963
 20
-33.2989085325
 30
0.0
 10
15.1094366938
 20
-33.3190785621
 30
0.0
 10
15.1064023932
 20
-33.3574391892
 30
0.0
 10
15.0909499852
 20
-33.4101643984
 30
0.0
 10
15.064923336
 20
-33.4530549468
 30
0.0
 10
15.0287970635
 20
-33.4838216209
 30
0.0
 10
14.9843724013
 20
-33.5003475513
 30
0.0
 10
14.9343843891
 20
-33.5020025003
 30
0.0
 10
14.8811150905
 20
-33.4896003398
 30
0.0
 10
14.8463160349
 20
-33.4735209613
 30
0.0
 10
14.8289218059
 20
-33.4634803118
 30
0.0
 11
15.1094380963
 21
-33.2989085325
 31
0.0
 11
15.1040607586
 21
-33.3591792144
 31
0.0
 11
15.0881303997
 21
-33.4109610998
 31
0.0
 11
15.0622551426
 21
-33.452259934
 31
0.0
 11
15.0274180855
 21
-33.4815183705
 31
0.0
 11
14.984939073
 21
-33.4976214338
 31
0.0
 11
14.9364440921
 21
-33.4999318358
 31
0.0
 11
14.8837625508
 21
-33.4884374213
 31
0.0
 11
14.8289218059
 21
-33.4634803118
 31
0.0
  0
SPLINE
  5
51D
100
AcDbEntity
  8
RACCORDO
100
AcDbSpline
 62
7
  6
CONTINUOUS
 70
0
 71
3
 72
12
 73
8
 74
6
 42
0.0000001
 43
0.0000001
 44
0.0000000001
 12
-0.5057253573
 22
0.2920463654
 32
0.0
 13
-0.0000644726
 23
0.5839941887
 33
0.0
 40
0.0
 40
0.0
 40
0.0
 40
0.0
 40
0.2368422949
 40
0.4991924767
 40
0.7618019242
 40
0.8853942365
 40
1.0
 40
1.0
 40
1.0
 40
1.0
 10
-21.3673761881
 20
-12.5641914963
 30
0.0
 10
-21.4073019062
 20
-12.5411351858
 30
0.0
 10
-21.4829244611
 20
-12.4775991074
 30
0.0
 10
-21.5713088972
 20
-12.3573100479
 30
0.0
 10
-21.6231130146
 20
-12.2407574676
 30
0.0
 10
-21.645618789
 20
-12.1457046545
 30
0.0
 10
-21.6501733593
 20
-12.0993143475
 30
0.0
 10
-21.6501758223
 20
-12.0770046475
 30
0.0
 11
-21.3673761881
 21
-12.5641914963
 31
0.0
 11
-21.4750745638
 21
-12.477404587
 31
0.0
 11
-21.5665400131
 21
-12.3544912975
 31
0.0
 11
-21.6279784481
 21
-12.2139731776
 31
0.0
 11
-21.6443669879
 21
-12.1436811945
 31
0.0
 11
-21.6501758223
 21
-12.0770046475
 31
0.0
  0
SPLINE
  5
51E
100
AcDbEntity
  8
RACCORDO
100
AcDbSpline
 62
7
  6
CONTINUOUS
 70
0
 71
3
 72
9
 73
5
 74
3
 42
0.0000001
 43
0.0000001
 44
0.0000000001
 12
-0.0290535392
 22
-0.0551073363
 32
0.0
 13
-0.0539576766
 23
-0.0311367274
 33
0.0
 40
0.0
 40
0.0
 40
0.0
 40
0.0
 40
0.277017043
 40
1.0
 40
1.0
 40
1.0
 40
1.0
 10
13.204820371
 20
-29.9435535405
 30
0.0
 10
13.2021375958
 20
-29.9486420976
 30
0.0
 10
13.1916567954
 20
-29.9664921349
 30
0.0
 10
13.1769017476
 20
-29.9824735454
 30
0.0
 10
13.1638982541
 20
-29.9899773198
 30
0.0
 11
13.204820371
 21
-29.9435535405
 31
0.0
 11
13.196002876
 21
-29.9583882312
 31
0.0
 11
13.1638982541
 21
-29.9899773198
 31
0.0
  0
SPLINE
  5
51F
100
AcDbEntity
  8
RACCORDO
100
AcDbSpline
 62
7
  6
CONTINUOUS
 70
0
 71
3
 72
11
 73
7
 74
5
 42
0.0000001
 43
0.0000001
 44
0.0000000001
 12
-0.1261722059
 22
-0.072808724
 32
0.0
 13
-0.0964136199
 23
0.1092014182
 33
0.0
 40
0.0
 40
0.0
 40
0.0
 40
0.0
 40
0.2220361667
 40
0.4505038999
 40
0.7087907003
 40
1.0
 40
1.0
 40
1.0
 40
1.0
 10
13.1638982541
 20
-29.9899773198
 30
0.0
 10
13.1545599898
 20
-29.9953660431
 30
0.0
 10
13.1324962624
 20
-30.0018658728
 30
0.0
 10
13.0979061877
 20
-29.9939686192
 30
0.0
 10
13.0656675466
 20
-29.9734921221
 30
0.0
 10
13.0465616176
 20
-29.9546519454
 30
0.0
 10
13.03720277
 20
-29.9440517893
 30
0.0
 11
13.1638982541
 21
-29.9899773198
 31
0.0
 11
13.132830308
 21
-29.9989748973
 31
0.0
 11
13.1001508489
 21
-29.9926731532
 31
0.0
 11
13.0678416077
 21
-29.973391586
 31
0.0
 11
13.03720277
 21
-29.9440517893
 31
0.0
  0
SPLINE
  5
520
100
AcDbEntity
  8
RACCORDO
100
AcDbSpline
 62
7
  6
CONTINUOUS
 70
0
 71
3
 72
9
 73
5
 74
3
 42
0.0000001
 43
0.0000001
 44
0.0000000001
 12
-0.1258022839
 22
-0.0751721723
 32
0.0
 13
-0.1037487076
 23
-0.1035049555
 33
0.0
 40
0.0
 40
0.0
 40
0.0
 40
0.0
 40
0.2375582814
 40
1.0
 40
1.0
 40
1.0
 40
1.0
 10
-17.7766127647
 20
47.5598345819
 30
0.0
 10
-17.7865745561
 20
47.5538819912
 30
0.0
 10
-17.8276029169
 20
47.5273161919
 30
0.0
 10
-17.8649973409
 20
47.4953262851
 30
0.0
 10
-17.8913647885
 20
47.4690207864
 30
0.0
 11
-17.7766127647
 21
47.5598345819
 31
0.0
 11
-17.8058627325
 21
47.5409540362
 31
0.0
 11
-17.8913647885
 21
47.4690207864
 31
0.0
  0
SPLINE
  5
521
100
AcDbEntity
  8
RACCORDO
100
AcDbSpline
 62
7
  6
CONTINUOUS
 70
0
 71
3
 72
9
 73
5
 74
3
 42
0.0000001
 43
0.0000001
 44
0.0000000001
 12
-0.1440896839
 22
-0.0602425744
 32
0.0
 13
-0.1252946641
 23
-0.0932322472
 33
0.0
 40
0.0
 40
0.0
 40
0.0
 40
0.0
 40
0.24092834
 40
1.0
 40
1.0
 40
1.0
 40
1.0
 10
-17.7865280628
 20
47.5688460763
 30
0.0
 10
-17.7980998256
 20
47.5640080285
 30
0.0
 10
-17.8454355062
 20
47.5422822028
 30
0.0
 10
-17.8898840186
 20
47.5144526666
 30
0.0
 10
-17.9215865615
 20
47.4908626811
 30
0.0
 11
-17.7865280628
 21
47.5688460763
 31
0.0
 11
-17.8207412496
 21
47.5531849954
 31
0.0
 11
-17.9215865615
 21
47.4908626811
 31
0.0
  0
SPLINE
  5
522
100
AcDbEntity
  8
RACCORDO
100
AcDbSpline
 62
7
  6
CONTINUOUS
 70
0
 71
3
 72
9
 73
5
 74
3
 42
0.0000001
 43
0.0000001
 44
0.0000000001
 12
-0.1242085342
 22
-0.0946731593
 32
0.0
 13
-0.1433862242
 23
-0.0618963471
 33
0.0
 40
0.0
 40
0.0
 40
0.0
 40
0.0
 40
0.2409316862
 40
1.0
 40
1.0
 40
1.0
 40
1.0
 10
-17.9858668975
 20
47.9141104915
 30
0.0
 10
-17.9958421547
 20
47.9065072369
 30
0.0
 10
-18.0383227052
 20
47.8763732881
 30
0.0
 10
-18.0846466885
 20
47.851792169
 30
0.0
 10
-18.1209266683
 20
47.8361309837
 30
0.0
 11
-17.9858668975
 21
47.9141104915
 31
0.0
 11
-18.0165350799
 21
47.8923091218
 31
0.0
 11
-18.1209266683
 21
47.8361309837
 31
0.0
  0
SPLINE
  5
523
100
AcDbEntity
  8
RACCORDO
100
AcDbSpline
 62
7
  6
CONTINUOUS
 70
0
 71
3
 72
9
 73
5
 74
3
 42
0.0000001
 43
0.0000001
 44
0.0000000001
 12
-0.1279979636
 22
-0.0713676488
 32
0.0
 13
-0.1415101585
 23
-0.0381011157
 33
0.0
 40
0.0
 40
0.0
 40
0.0
 40
0.0
 40
0.237558507
 40
1.0
 40
1.0
 40
1.0
 40
1.0
 10
-17.9887124903
 20
47.9272020826
 30
0.0
 10
-17.9988481587
 20
47.9215507519
 30
0.0
 10
-18.0423677152
 20
47.8993001617
 30
0.0
 10
-18.0887681383
 20
47.8829088894
 30
0.0
 10
-18.1247325438
 20
47.8732255989
 30
0.0
 11
-17.9887124903
 21
47.9272020826
 31
0.0
 11
-18.0196876194
 21
47.9113097829
 31
0.0
 11
-18.1247325438
 21
47.8732255989
 31
0.0
  0
SPLINE
  5
524
100
AcDbEntity
  8
RACCORDO
100
AcDbSpline
 62
7
  6
CONTINUOUS
 70
0
 71
3
 72
15
 73
11
 74
9
 42
0.0000001
 43
0.0000001
 44
0.0000000001
 12
0.0000238213
 22
-0.597984879
 32
0.0
 13
-0.5178420862
 23
0.2990409502
 33
0.0
 40
0.0
 40
0.0
 40
0.0
 40
0.0
 40
0.1446786948
 40
0.2748799313
 40
0.3916072275
 40
0.4999943582
 40
0.6083856293
 40
0.725122466
 40
0.8553266085
 40
1.0
 40
1.0
 40
1.0
 40
1.0
 10
13.2963027367
 20
27.9447239671
 30
0.0
 10
13.2963038856
 20
27.9158854098
 30
0.0
 10
13.292358245
 20
27.8609326026
 30
0.0
 10
13.2717082207
 20
27.7850083038
 30
0.0
 10
13.2357395432
 20
27.7227877989
 30
0.0
 10
13.1842792153
 20
27.6784186859
 30
0.0
 10
13.1201157676
 20
27.6560548122
 30
0.0
 10
13.0482448315
 20
27.6560350826
 30
0.0
 10
12.9721664449
 20
27.6761067984
 30
0.0
 10
12.9225975791
 20
27.7001557946
 30
0.0
 10
12.8976249221
 20
27.7145768841
 30
0.0
 11
13.2963027367
 21
27.9447239671
 31
0.0
 11
13.2892280199
 21
27.8584980437
 31
0.0
 11
13.2676681407
 21
27.7836842916
 31
0.0
 11
13.2316830951
 21
27.7238739399
 31
0.0
 11
13.1822159772
 21
27.6819950505
 31
0.0
 11
13.1212057974
 21
27.6601108998
 31
0.0
 11
13.0514100116
 21
27.6588673448
 31
0.0
 11
12.9758369884
 21
27.6776000611
 31
0.0
 11
12.8976249221
 21
27.7145768841
 31
0.0
  0
SPLINE
  5
525
100
AcDbEntity
  8
RACCORDO
100
AcDbSpline
 62
7
  6
CONTINUOUS
 70
0
 71
3
 72
9
 73
5
 74
3
 42
0.0000001
 43
0.0000001
 44
0.0000000001
 12
0.1563813851
 22
-0.090284346
 32
0.0
 13
0.1281480412
 23
-0.1272182387
 33
0.0
 40
0.0
 40
0.0
 40
0.0
 40
0.0
 40
0.2366293495
 40
1.0
 40
1.0
 40
1.0
 40
1.0
 10
12.8976249221
 20
65.9724335656
 30
0.0
 10
12.9099597306
 20
65.9653122569
 30
0.0
 10
12.9609872712
 20
65.9333289296
 30
0.0
 10
13.007523378
 20
65.894368928
 30
0.0
 10
13.0401315292
 20
65.8619973715
 30
0.0
 11
12.8976249221
 21
65.9724335656
 31
0.0
 11
12.9338574672
 21
65.949785221
 31
0.0
 11
13.0401315292
 21
65.8619973715
 31
0.0
  0
SPLINE
  5
526
100
AcDbEntity
  8
RACCORDO
100
AcDbSpline
 62
7
  6
CONTINUOUS
 70
0
 71
3
 72
10
 73
6
 74
4
 42
0.0000001
 43
0.0000001
 44
0.0000000001
 12
0.4592582815
 22
-0.4559260458
 32
0.0
 13
0.0000021875
 23
-0.6471373334
 33
0.0
 40
0.0
 40
0.0
 40
0.0
 40
0.0
 40
0.5173571193
 40
0.7703670028
 40
1.0
 40
1.0
 40
1.0
 40
1.0
 10
13.0401315292
 20
65.8619973715
 30
0.0
 10
13.1193317097
 20
65.7833718429
 30
0.0
 10
13.2148350734
 20
65.6410818739
 30
0.0
 10
13.2833513022
 20
65.4357947574
 30
0.0
 10
13.2963025693
 20
65.3314380307
 30
0.0
 10
13.2963027367
 20
65.2819033355
 30
0.0
 11
13.0401315292
 21
65.8619973715
 31
0.0
 11
13.2283390882
 21
65.5851044396
 31
0.0
 11
13.2794245991
 21
65.4295458182
 31
0.0
 11
13.2963027367
 21
65.2819033355
 31
0.0
  0
SPLINE
  5
527
100
AcDbEntity
  8
RACCORDO
100
AcDbSpline
 62
7
  6
CONTINUOUS
 70
0
 71
3
 72
11
 73
7
 74
5
 42
0.0000001
 43
0.0000001
 44
0.0000000001
 12
0.3303340714
 22
0.1779756193
 32
0.0
 13
0.0024728007
 23
0.3752196757
 33
0.0
 40
0.0
 40
0.0
 40
0.0
 40
0.0
 40
0.2174002984
 40
0.4501302195
 40
0.7094857245
 40
1.0
 40
1.0
 40
1.0
 40
1.0
 10
15.3774716782
 20
24.3437913476
 30
0.0
 10
15.4014099201
 20
24.3566886652
 30
0.0
 10
15.4464638505
 20
24.3926155177
 30
0.0
 10
15.4947212896
 20
24.4686079084
 30
0.0
 10
15.5237213331
 20
24.5630445453
 30
0.0
 10
15.5297281805
 20
24.6320266048
 30
0.0
 10
15.5299676418
 20
24.6683621622
 30
0.0
 11
15.3774716782
 21
24.3437913476
 31
0.0
 11
15.4415618449
 21
24.3942578966
 31
0.0
 11
15.4895023963
 21
24.467248741
 31
0.0
 11
15.5193700099
 21
24.5598694857
 31
0.0
 11
15.5299676418
 21
24.6683621622
 31
0.0
  0
SPLINE
  5
528
100
AcDbEntity
  8
RACCORDO
100
AcDbSpline
 62
7
  6
CONTINUOUS
 70
0
 71
3
 72
15
 73
11
 74
9
 42
0.0000001
 43
0.0000001
 44
0.0000000001
 12
-0.0000387078
 22
0.5979848853
 32
0.0
 13
0.5178497191
 23
-0.2990277463
 33
0.0
 40
0.0
 40
0.0
 40
0.0
 40
0.0
 40
0.1446658674
 40
0.2748627245
 40
0.391594032
 40
0.4999831839
 40
0.6083724348
 40
0.7251052566
 40
0.8553137174
 40
1.0
 40
1.0
 40
1.0
 40
1.0
 10
-19.8370404627
 20
84.4126804405
 30
0.0
 10
-19.8370423293
 20
84.4415164413
 30
0.0
 10
-19.833083315
 20
84.4964657998
 30
0.0
 10
-19.8124235181
 20
84.5723825311
 30
0.0
 10
-19.7764669191
 20
84.6346091547
 30
0.0
 10
-19.7250132313
 20
84.6789879029
 30
0.0
 10
-19.660854752
 20
84.7013622169
 30
0.0
 10
-19.5889831073
 20
84.7013955764
 30
0.0
 10
-19.5129030261
 20
84.6813116343
 30
0.0
 10
-19.4633378984
 20
84.6572492612
 30
0.0
 10
-19.4383626481
 20
84.6428275235
 30
0.0
 11
-19.8370404627
 21
84.4126804405
 31
0.0
 11
-19.829954567
 21
84.4988977506
 31
0.0
 11
-19.8083879407
 21
84.5737068334
 31
0.0
 11
-19.7724096538
 21
84.6335240511
 31
0.0
 11
-19.7229487949
 21
84.6754122039
 31
0.0
 11
-19.6619434868
 21
84.6973063578
 31
0.0
 11
-19.5921502684
 21
84.6985592509
 31
0.0
 11
-19.5165766043
 21
84.6798183851
 31
0.0
 11
-19.4383626481
 21
84.6428275235
 31
0.0
  0
SPLINE
  5
529
100
AcDbEntity
  8
RACCORDO
100
AcDbSpline
 62
7
  6
CONTINUOUS
 70
0
 71
3
 72
11
 73
7
 74
5
 42
0.0000001
 43
0.0000001
 44
0.0000000001
 12
-0.1363190161
 22
0.0787088914
 32
0.0
 13
-0.0000316866
 23
0.1574101736
 33
0.0
 40
0.0
 40
0.0
 40
0.0
 40
0.0
 40
0.2895817376
 40
0.5491318165
 40
0.7822802582
 40
1.0
 40
1.0
 40
1.0
 40
1.0
 10
13.2963027367
 20
65.2819033355
 30
0.0
 10
13.2831442376
 20
65.289500888
 30
0.0
 10
13.2592651951
 20
65.3059603419
 30
0.0
 10
13.2307121205
 20
65.3359529213
 30
0.0
 10
13.2126488367
 20
65.3691452702
 30
0.0
 10
13.2084395502
 20
65.3929619462
 30
0.0
 10
13.2084372506
 20
65.4043857137
 30
0.0
 11
13.2963027367
 21
65.2819033355
 31
0.0
 11
13.2590259839
 21
65.3081381185
 31
0.0
 11
13.231262541
 21
65.3381112661
 31
0.0
 11
13.2141964445
 21
65.3706017841
 31
0.0
 11
13.2084372506
 21
65.4043857137
 31
0.0
  0
SPLINE
  5
52A
100
AcDbEntity
  8
RACCORDO
100
AcDbSpline
 62
7
  6
CONTINUOUS
 70
0
 71
3
 72
11
 73
7
 74
5
 42
0.0000001
 43
0.0000001
 44
0.0000000001
 12
-0.0000000517
 22
-0.1573888098
 32
0.0
 13
0.1362846782
 23
-0.0787256244
 33
0.0
 40
0.0
 40
0.0
 40
0.0
 40
0.0
 40
0.2895872683
 40
0.5491386409
 40
0.7822847649
 40
1.0
 40
1.0
 40
1.0
 40
1.0
 10
12.8976249221
 20
65.9724335656
 30
0.0
 10
12.8976249171
 20
65.9572409671
 30
0.0
 10
12.8999384392
 20
65.9283348902
 30
0.0
 10
12.9116330556
 20
65.8886156041
 30
0.0
 10
12.9313426176
 20
65.8563799363
 30
0.0
 10
12.9498605084
 20
65.8408279256
 30
0.0
 10
12.9597509253
 20
65.8351146697
 30
0.0
 11
12.8976249221
 21
65.9724335656
 31
0.0
 11
12.9017045576
 21
65.9270387199
 31
0.0
 11
12.9137771992
 21
65.8880129185
 31
0.0
 11
12.9333776427
 21
65.8569917061
 31
0.0
 11
12.9597509253
 21
65.8351146697
 31
0.0
  0
SPLINE
  5
52B
100
AcDbEntity
  8
RACCORDO
100
AcDbSpline
 62
7
  6
CONTINUOUS
 70
0
 71
3
 72
11
 73
7
 74
5
 42
0.0000001
 43
0.0000001
 44
0.0000000001
 12
0.0
 22
-0.157342478
 32
0.0
 13
0.1362077173
 23
-0.0787661927
 33
0.0
 40
0.0
 40
0.0
 40
0.0
 40
0.0
 40
0.2895781872
 40
0.5491322113
 40
0.7822857584
 40
1.0
 40
1.0
 40
1.0
 40
1.0
 10
-19.4383626481
 20
84.6428275235
 30
0.0
 10
-19.4383626481
 20
84.6276398736
 30
0.0
 10
-19.4360505388
 20
84.5987427309
 30
0.0
 10
-19.4243638653
 20
84.5590341013
 30
0.0
 10
-19.4046679374
 20
84.5268032301
 30
0.0
 10
-19.3861620007
 20
84.5112482493
 30
0.0
 10
-19.3762772141
 20
84.5055320753
 30
0.0
 11
-19.4383626481
 21
84.6428275235
 31
0.0
 11
-19.4342857973
 21
84.5974473333
 31
0.0
 11
-19.4222213433
 21
84.5584311505
 31
0.0
 11
-19.4026338118
 21
84.5274131771
 31
0.0
 11
-19.3762772141
 21
84.5055320753
 31
0.0
  0
SPLINE
  5
52C
100
AcDbEntity
  8
RACCORDO
100
AcDbSpline
 62
7
  6
CONTINUOUS
 70
0
 71
3
 72
10
 73
6
 74
4
 42
0.0000001
 43
0.0000001
 44
0.0000000001
 12
0.3008557635
 22
-0.1737074046
 32
0.0
 13
0.335457116
 23
0.0903159797
 33
0.0
 40
0.0
 40
0.0
 40
0.0
 40
0.0
 40
0.2300845876
 40
0.483607702
 40
1.0
 40
1.0
 40
1.0
 40
1.0
 10
-19.8370404627
 20
84.4126804405
 30
0.0
 10
-19.8139663713
 20
84.399357975
 30
0.0
 10
-19.761504519
 20
84.378016567
 30
0.0
 10
-19.6474142106
 20
84.356430055
 30
0.0
 10
-19.5558654402
 20
84.3626294325
 30
0.0
 10
-19.4981229498
 20
84.3781755913
 30
0.0
 11
-19.8370404627
 21
84.4126804405
 31
0.0
 11
-19.7634330131
 21
84.3815186145
 31
0.0
 11
-19.6770028829
 21
84.3645787639
 31
0.0
 11
-19.4981229498
 21
84.3781755913
 31
0.0
  0
SPLINE
  5
52D
100
AcDbEntity
  8
RACCORDO
100
AcDbSpline
 62
7
  6
CONTINUOUS
 70
0
 71
3
 72
10
 73
6
 74
4
 42
0.0000001
 43
0.0000001
 44
0.0000000001
 12
0.3008547198
 22
-0.1737097446
 32
0.0
 13
0.3354567303
 23
0.0903184363
 33
0.0
 40
0.0
 40
0.0
 40
0.0
 40
0.0
 40
0.2300849491
 40
0.4836079614
 40
1.0
 40
1.0
 40
1.0
 40
1.0
 10
-19.8370404627
 20
47.0755010721
 30
0.0
 10
-19.8139664151
 20
47.0621784062
 30
0.0
 10
-19.7615045931
 20
47.0408366746
 30
0.0
 10
-19.6474142214
 20
47.0192499325
 30
0.0
 10
-19.5558653448
 20
47.025449649
 30
0.0
 10
-19.4981229498
 20
47.0409962228
 30
0.0
 11
-19.8370404627
 21
47.0755010721
 31
0.0
 11
-19.7634330123
 21
47.0443387686
 31
0.0
 11
-19.6770028817
 21
47.0273987539
 31
0.0
 11
-19.4981229498
 21
47.0409962228
 31
0.0
  0
SPLINE
  5
52E
100
AcDbEntity
  8
RACCORDO
100
AcDbSpline
 62
7
  6
CONTINUOUS
 70
0
 71
3
 72
11
 73
7
 74
5
 42
0.0000001
 43
0.0000001
 44
0.0000000001
 12
0.0000141053
 22
-0.1574089984
 32
0.0
 13
0.1363179965
 23
-0.078708302
 33
0.0
 40
0.0
 40
0.0
 40
0.0
 40
0.0
 40
0.2177586874
 40
0.4509006419
 40
0.7104563331
 40
1.0
 40
1.0
 40
1.0
 40
1.0
 10
-21.7380305154
 20
46.0175038507
 30
0.0
 10
-21.7380294916
 20
46.0060781251
 30
0.0
 10
-21.733834299
 20
45.9822572334
 30
0.0
 10
-21.7157641217
 20
45.9490638161
 30
0.0
 10
-21.6872077144
 20
45.9190793182
 30
0.0
 10
-21.6633324931
 20
45.902617987
 30
0.0
 10
-21.6501758223
 20
45.8950214902
 30
0.0
 11
-21.7380305154
 21
46.0175038507
 31
0.0
 11
-21.7322810574
 21
45.9837123045
 31
0.0
 11
-21.7152145446
 21
45.9512234688
 31
0.0
 11
-21.6874467098
 21
45.9212536023
 31
0.0
 11
-21.6501758223
 21
45.8950214902
 31
0.0
  0
SPLINE
  5
52F
100
AcDbEntity
  8
RACCORDO
100
AcDbSpline
 62
7
  6
CONTINUOUS
 70
0
 71
3
 72
10
 73
6
 74
4
 42
0.0000001
 43
0.0000001
 44
0.0000000001
 12
0.0000001141
 22
0.3473993299
 32
0.0
 13
0.2459370819
 23
0.2453594223
 33
0.0
 40
0.0
 40
0.0
 40
0.0
 40
0.0
 40
0.2300791698
 40
0.4836010627
 40
1.0
 40
1.0
 40
1.0
 40
1.0
 10
-19.4383626481
 20
46.384970842
 30
0.0
 10
-19.4383626393
 20
46.4116139585
 30
0.0
 10
-19.4306127899
 20
46.4677164889
 30
0.0
 10
-19.3922607351
 20
46.5773132419
 30
0.0
 10
-19.3411179251
 20
46.6534966595
 30
0.0
 10
-19.2987840425
 20
46.6957311078
 30
0.0
 11
-19.4383626481
 21
46.384970842
 31
0.0
 11
-19.4285445122
 21
46.4642948933
 31
0.0
 11
-19.3999989786
 21
46.5476139485
 31
0.0
 11
-19.2987840425
 21
46.6957311078
 31
0.0
  0
SPLINE
  5
530
100
AcDbEntity
  8
RACCORDO
100
AcDbSpline
 62
7
  6
CONTINUOUS
 70
0
 71
3
 72
10
 73
6
 74
4
 42
0.0000001
 43
0.0000001
 44
0.0000000001
 12
-0.0
 22
0.3473993418
 32
0.0
 13
0.2459371687
 23
0.2453593523
 33
0.0
 40
0.0
 40
0.0
 40
0.0
 40
0.0
 40
0.2300791865
 40
0.4836010752
 40
1.0
 40
1.0
 40
1.0
 40
1.0
 10
12.8976249221
 20
27.7145768841
 30
0.0
 10
12.8976249221
 20
27.7412200034
 30
0.0
 10
12.9053747583
 20
27.79732254
 30
0.0
 10
12.9437268056
 20
27.9069193006
 30
0.0
 10
12.9948696312
 20
27.9831027146
 30
0.0
 10
13.0372035277
 20
28.0253371499
 30
0.0
 11
12.8976249221
 21
27.7145768841
 31
0.0
 11
12.9074430395
 21
27.7939009462
 31
0.0
 11
12.9359885669
 21
27.8772200053
 31
0.0
 11
13.0372035277
 21
28.0253371499
 31
0.0
  0
SPLINE
  5
531
100
AcDbEntity
  8
RACCORDO
100
AcDbSpline
 62
7
  6
CONTINUOUS
 70
0
 71
3
 72
11
 73
7
 74
5
 42
0.0000001
 43
0.0000001
 44
0.0000000001
 12
-0.1363070506
 22
0.0787020424
 32
0.0
 13
-0.0000536147
 23
0.1573963806
 33
0.0
 40
0.0
 40
0.0
 40
0.0
 40
0.0
 40
0.2895790523
 40
0.5491299326
 40
0.7822805821
 40
1.0
 40
1.0
 40
1.0
 40
1.0
 10
13.2963027367
 20
27.9447239671
 30
0.0
 10
13.2831455146
 20
27.952320788
 30
0.0
 10
13.2592685662
 20
27.9687785537
 30
0.0
 10
13.2307170574
 20
27.9987675036
 30
0.0
 10
13.2126529796
 20
28.0319556232
 30
0.0
 10
13.2084411454
 20
28.0557696587
 30
0.0
 10
13.2084372544
 20
28.0671924081
 30
0.0
 11
13.2963027367
 21
27.9447239671
 31
0.0
 11
13.2590293489
 21
27.9709558601
 31
0.0
 11
13.2312671671
 21
28.0009254701
 31
0.0
 11
13.2141999825
 21
28.033412178
 31
0.0
 11
13.2084372544
 21
28.0671924081
 31
0.0
  0
SPLINE
  5
532
100
AcDbEntity
  8
RACCORDO
100
AcDbSpline
 62
7
  6
CONTINUOUS
 70
0
 71
3
 72
11
 73
7
 74
5
 42
0.0000001
 43
0.0000001
 44
0.0000000001
 12
-0.7171285941
 22
0.4140697132
 32
0.0
 13
0.0000544718
 23
0.8280864356
 33
0.0
 40
0.0
 40
0.0
 40
0.0
 40
0.0
 40
0.2369489663
 40
0.5000027919
 40
0.7630483128
 40
1.0
 40
1.0
 40
1.0
 40
1.0
 10
-19.4383626481
 20
46.384970842
 30
0.0
 10
-19.4950036078
 20
46.4176753055
 30
0.0
 10
-19.6035486068
 20
46.5062447066
 30
0.0
 10
-19.7302516405
 20
46.6768022957
 30
0.0
 10
-19.8145804229
 20
46.8718131164
 30
0.0
 10
-19.8370447651
 20
47.0100955794
 30
0.0
 10
-19.8370404627
 20
47.0755010721
 30
0.0
 11
-19.4383626481
 21
46.384970842
 31
0.0
 11
-19.5921502729
 21
46.5068289098
 31
0.0
 11
-19.7229487874
 21
46.681019111
 31
0.0
 11
-19.8083879171
 21
46.8813878627
 31
0.0
 11
-19.8370404627
 21
47.0755010721
 31
0.0
  0
SPLINE
  5
533
100
AcDbEntity
  8
RACCORDO
100
AcDbSpline
 62
7
  6
CONTINUOUS
 70
0
 71
3
 72
11
 73
7
 74
5
 42
0.0000001
 43
0.0000001
 44
0.0000000001
 12
0.000014108
 22
-0.157408994
 32
0.0
 13
0.1363179944
 23
-0.0787082969
 33
0.0
 40
0.0
 40
0.0
 40
0.0
 40
0.0
 40
0.2177586882
 40
0.4509006427
 40
0.7104563324
 40
1.0
 40
1.0
 40
1.0
 40
1.0
 10
-21.7380305154
 20
87.809405643
 30
0.0
 10
-21.7380294914
 20
87.7979799176
 30
0.0
 10
-21.7338342985
 20
87.7741590266
 30
0.0
 10
-21.715764121
 20
87.7409656107
 30
0.0
 10
-21.6872077139
 20
87.7109811142
 30
0.0
 10
-21.663332493
 20
87.6945197841
 30
0.0
 10
-21.6501758223
 20
87.6869232878
 30
0.0
 11
-21.7380305154
 21
87.809405643
 31
0.0
 11
-21.732281057
 21
87.7756140976
 31
0.0
 11
-21.7152145439
 21
87.7431252633
 31
0.0
 11
-21.6874467095
 21
87.7131553983
 31
0.0
 11
-21.6501758223
 21
87.6869232878
 31
0.0
  0
SPLINE
  5
534
100
AcDbEntity
  8
RACCORDO
100
AcDbSpline
 62
7
  6
CONTINUOUS
 70
0
 71
3
 72
13
 73
9
 74
7
 42
0.0000001
 43
0.0000001
 44
0.0000000001
 12
-0.0662090449
 22
0.1972123061
 32
0.0
 13
0.2078764784
 23
-0.0079812929
 33
0.0
 40
0.0
 40
0.0
 40
0.0
 40
0.0
 40
0.279534151
 40
0.5136620017
 40
0.6222252232
 40
0.7348380503
 40
0.8596282997
 40
1.0
 40
1.0
 40
1.0
 40
1.0
 10
-19.4981226884
 20
84.3781744821
 30
0.0
 10
-19.5042919181
 20
84.3965503403
 30
0.0
 10
-19.5128078146
 20
84.4313980889
 30
0.0
 10
-19.5073022757
 20
84.4764117141
 30
0.0
 10
-19.488211809
 20
84.5024417825
 30
0.0
 10
-19.4676956334
 20
84.5157632596
 30
0.0
 10
-19.4421145304
 20
84.522693912
 30
0.0
 10
-19.4236172286
 20
84.5234433301
 30
0.0
 10
-19.4138905704
 20
84.5230698809
 30
0.0
 11
-19.4981226884
 21
84.3781744821
 31
0.0
 11
-19.509692597
 21
84.4351632638
 31
0.0
 11
-19.5008997355
 21
84.4830685297
 31
0.0
 11
-19.4874558896
 21
84.5012156143
 31
0.0
 11
-19.4679682993
 21
84.5142175011
 31
0.0
 11
-19.4430496324
 21
84.5214966022
 31
0.0
 11
-19.4138905704
 21
84.5230698809
 31
0.0
  0
SPLINE
  5
535
100
AcDbEntity
  8
RACCORDO
100
AcDbSpline
 62
7
  6
CONTINUOUS
 70
0
 71
3
 72
11
 73
7
 74
5
 42
0.0000001
 43
0.0000001
 44
0.0000000001
 12
-0.4310685118
 22
0.1088707109
 32
0.0
 13
0.1215914924
 23
0.4276545364
 33
0.0
 40
0.0
 40
0.0
 40
0.0
 40
0.0
 40
0.2417492733
 40
0.5000082522
 40
0.7582667077
 40
1.0
 40
1.0
 40
1.0
 40
1.0
 10
-19.2987936703
 20
46.6957342694
 30
0.0
 10
-19.3335305034
 20
46.7045074078
 30
0.0
 10
-19.4031065985
 20
46.7350401596
 30
0.0
 10
-19.4822306232
 20
46.8200081872
 30
0.0
 10
-19.5161956276
 20
46.9310049347
 30
0.0
 10
-19.5079202817
 20
47.0065379177
 30
0.0
 10
-19.4981227111
 20
47.0409973641
 30
0.0
 11
-19.2987936703
 21
46.6957342694
 31
0.0
 11
-19.3967415711
 21
46.7399920206
 31
0.0
 11
-19.4745404092
 21
46.8244412254
 31
0.0
 11
-19.5087526299
 21
46.9340486973
 31
0.0
 11
-19.4981227111
 21
47.0409973641
 31
0.0
  0
SPLINE
  5
536
100
AcDbEntity
  8
RACCORDO
100
AcDbSpline
 62
7
  6
CONTINUOUS
 70
0
 71
3
 72
9
 73
5
 74
3
 42
0.0000001
 43
0.0000001
 44
0.0000000001
 12
-0.0245012758
 22
-0.4136068379
 32
0.0
 13
0.370913549
 23
-0.1846457907
 33
0.0
 40
0.0
 40
0.0
 40
0.0
 40
0.0
 40
0.4999981152
 40
1.0
 40
1.0
 40
1.0
 40
1.0
 10
-18.1209268038
 20
47.836103748
 30
0.0
 10
-18.1250103344
 20
47.7671695349
 30
0.0
 10
-18.0860760431
 20
47.6261133156
 30
0.0
 10
-17.9834069748
 20
47.521640352
 30
0.0
 10
-17.9215878169
 20
47.4908659376
 30
0.0
 11
-18.1209268038
 21
47.836103748
 31
0.0
 11
-18.0701426157
 21
47.6352595923
 31
0.0
 11
-17.9215878169
 21
47.4908659376
 31
0.0
  0
SPLINE
  5
537
100
AcDbEntity
  8
RACCORDO
100
AcDbSpline
 62
7
  6
CONTINUOUS
 70
0
 71
3
 72
10
 73
6
 74
4
 42
0.0000001
 43
0.0000001
 44
0.0000000001
 12
0.1828507333
 22
-0.3543641519
 32
0.0
 13
0.2144009064
 23
-0.336215101
 33
0.0
 40
0.0
 40
0.0
 40
0.0
 40
0.0
 40
0.2273651443
 40
0.5000028679
 40
1.0
 40
1.0
 40
1.0
 40
1.0
 10
-17.9858669935
 20
47.9141105425
 30
0.0
 10
-17.9720090324
 20
47.887253857
 30
0.0
 10
-17.9402186341
 20
47.8288759834
 30
0.0
 10
-17.8748263596
 20
47.7131623791
 30
0.0
 10
-17.8222613656
 20
47.6248809562
 30
0.0
 10
-17.7865280862
 20
47.5688454274
 30
0.0
 11
-17.9858669935
 21
47.9141105425
 31
0.0
 11
-17.9429097592
 21
47.834269464
 31
0.0
 11
-17.8894398168
 21
47.7396107793
 31
0.0
 11
-17.7865280862
 21
47.5688454274
 31
0.0
  0
SPLINE
  5
538
100
AcDbEntity
  8
RACCORDO
100
AcDbSpline
 62
7
  6
CONTINUOUS
 70
0
 71
3
 72
9
 73
5
 74
3
 42
0.0000001
 43
0.0000001
 44
0.0000000001
 12
0.007213303
 22
-0.0113899398
 32
0.0
 13
0.0118511902
 23
-0.0064274226
 33
0.0
 40
0.0
 40
0.0
 40
0.0
 40
0.0
 40
0.2343894454
 40
1.0
 40
1.0
 40
1.0
 40
1.0
 10
-17.7865280862
 20
47.5688454274
 30
0.0
 10
-17.7859645121
 20
47.5679555335
 30
0.0
 10
-17.7833087229
 20
47.5643179794
 30
0.0
 10
-17.7796372301
 20
47.5614748828
 30
0.0
 10
-17.7766127647
 20
47.5598345819
 30
0.0
 11
-17.7865280862
 21
47.5688454274
 31
0.0
 11
-17.7846637331
 21
47.5662939712
 31
0.0
 11
-17.7766127647
 21
47.5598345819
 31
0.0
  0
SPLINE
  5
539
100
AcDbEntity
  8
RACCORDO
100
AcDbSpline
 62
7
  6
CONTINUOUS
 70
0
 71
3
 72
9
 73
5
 74
3
 42
0.0000001
 43
0.0000001
 44
0.0000000001
 12
-0.0003312848
 22
-0.0134726882
 32
0.0
 13
0.0061959692
 23
-0.0119680008
 33
0.0
 40
0.0
 40
0.0
 40
0.0
 40
0.0
 40
0.2685734322
 40
1.0
 40
1.0
 40
1.0
 40
1.0
 10
-17.9887124903
 20
47.9272020826
 30
0.0
 10
-17.9887421484
 20
47.9259959472
 30
0.0
 10
-17.9886011642
 20
47.9215050649
 30
0.0
 10
-17.9873776257
 20
47.917028447
 30
0.0
 10
-17.9858669935
 20
47.9141105425
 30
0.0
 11
-17.9887124903
 21
47.9272020826
 31
0.0
 11
-17.9885883327
 21
47.9235847128
 31
0.0
 11
-17.9858669935
 21
47.9141105425
 31
0.0
  0
SPLINE
  5
53A
100
AcDbEntity
  8
RACCORDO
100
AcDbSpline
 62
7
  6
CONTINUOUS
 70
0
 71
3
 72
11
 73
7
 74
5
 42
0.0000001
 43
0.0000001
 44
0.0000000001
 12
-0.0068243301
 22
1.024860587
 32
0.0
 13
-0.8841392067
 23
0.5183470434
 33
0.0
 40
0.0
 40
0.0
 40
0.0
 40
0.0
 40
0.2370060342
 40
0.4999938366
 40
0.7629849612
 40
1.0
 40
1.0
 40
1.0
 40
1.0
 10
15.5299676418
 20
66.4602639598
 30
0.0
 10
15.529428506
 20
66.5412300076
 30
0.0
 10
15.4981521652
 20
66.7119299011
 30
0.0
 10
15.3917884631
 20
66.9519405092
 30
0.0
 10
15.2371125434
 20
67.164060708
 30
0.0
 10
15.1049197115
 20
67.2765027798
 30
0.0
 10
15.035068282
 20
67.3174547947
 30
0.0
 11
15.5299676418
 21
66.4602639598
 31
0.0
 11
15.4911435512
 21
66.7000447222
 31
0.0
 11
15.3834630979
 21
66.9471323907
 31
0.0
 11
15.223317361
 21
67.1639331618
 31
0.0
 11
15.035068282
 21
67.3174547947
 31
0.0
  0
SPLINE
  5
53B
100
AcDbEntity
  8
RACCORDO
100
AcDbSpline
 62
7
  6
CONTINUOUS
 70
0
 71
3
 72
11
 73
7
 74
5
 42
0.0000001
 43
0.0000001
 44
0.0000000001
 12
-0.3262172695
 22
0.1854893057
 32
0.0
 13
-0.3193340888
 23
-0.1971033464
 33
0.0
 40
0.0
 40
0.0
 40
0.0
 40
0.0
 40
0.2905184574
 40
0.5498765043
 40
0.7826053532
 40
1.0
 40
1.0
 40
1.0
 40
1.0
 10
-21.1589463682
 20
88.2154252362
 30
0.0
 10
-21.1905370809
 20
88.2333879252
 30
0.0
 10
-21.2532863693
 20
88.2626827652
 30
0.0
 10
-21.349580442
 20
88.2847922999
 30
0.0
 10
-21.4395290587
 20
88.2809996371
 30
0.0
 10
-21.4931749819
 20
88.2599452371
 30
0.0
 10
-21.5163154891
 20
88.2456621664
 30
0.0
 11
-21.1589463682
 21
88.2154252362
 31
0.0
 11
-21.2582125687
 21
88.2605018747
 31
0.0
 11
-21.3533679242
 21
88.2809520285
 31
0.0
 11
-21.4405586056
 21
88.2759325685
 31
0.0
 11
-21.5163154891
 21
88.2456621664
 31
0.0
  0
SPLINE
  5
53C
100
AcDbEntity
  8
RACCORDO
100
AcDbSpline
 62
7
  6
CONTINUOUS
 70
0
 71
3
 72
11
 73
7
 74
5
 42
0.0000001
 43
0.0000001
 44
0.0000000001
 12
-0.3738480846
 22
-0.223389988
 32
0.0
 13
0.000000011
 23
-0.4355060012
 33
0.0
 40
0.0
 40
0.0
 40
0.0
 40
0.0
 40
0.2383260036
 40
0.5010975909
 40
0.7632734208
 40
1.0
 40
1.0
 40
1.0
 40
1.0
 10
15.035068281
 20
67.3174547952
 30
0.0
 10
15.005369041
 20
67.2997082475
 30
0.0
 10
14.9493145647
 20
67.2515830693
 30
0.0
 10
14.8839615595
 20
67.1611106126
 30
0.0
 10
14.8393799306
 20
67.0590480297
 30
0.0
 10
14.8266384613
 20
66.9865715336
 30
0.0
 10
14.8266384621
 20
66.9522062516
 30
0.0
 11
15.035068281
 21
67.3174547952
 31
0.0
 11
14.9550235845
 21
67.2513812767
 31
0.0
 11
14.8874739478
 21
67.1590057362
 31
0.0
 11
14.8424358386
 21
67.0540845925
 31
0.0
 11
14.8266384621
 21
66.9522062516
 31
0.0
  0
SPLINE
  5
53D
100
AcDbEntity
  8
RACCORDO
100
AcDbSpline
 62
7
  6
CONTINUOUS
 70
0
 71
3
 72
11
 73
7
 74
5
 42
0.0000001
 43
0.0000001
 44
0.0000000001
 12
-0.3738480757
 22
-0.2233899999
 32
0.0
 13
0.0000000017
 23
-0.4355059997
 33
0.0
 40
0.0
 40
0.0
 40
0.0
 40
0.0
 40
0.2383260021
 40
0.5010975899
 40
0.76327342
 40
1.0
 40
1.0
 40
1.0
 40
1.0
 10
-21.1589463668
 20
88.2154252354
 30
0.0
 10
-21.1886456059
 20
88.1976786868
 30
0.0
 10
-21.244700081
 20
88.1495535082
 30
0.0
 10
-21.3100530871
 20
88.0590810528
 30
0.0
 10
-21.3546347174
 20
87.9570184708
 30
0.0
 10
-21.3673761882
 20
87.8845419751
 30
0.0
 10
-21.3673761881
 20
87.8501766931
 30
0.0
 11
-21.1589463668
 21
88.2154252354
 31
0.0
 11
-21.2389910615
 21
88.1493517161
 31
0.0
 11
-21.3065406989
 21
88.0569761764
 31
0.0
 11
-21.3515788096
 21
87.9520550336
 31
0.0
 11
-21.3673761881
 21
87.8501766931
 31
0.0
  0
SPLINE
  5
53E
100
AcDbEntity
  8
RACCORDO
100
AcDbSpline
 62
7
  6
CONTINUOUS
 70
0
 71
3
 72
11
 73
7
 74
5
 42
0.0000001
 43
0.0000001
 44
0.0000000001
 12
-0.380376472
 22
-0.21208902
 32
0.0
 13
-0.3771557076
 23
0.2177649767
 33
0.0
 40
0.0
 40
0.0
 40
0.0
 40
0.0
 40
0.2383228673
 40
0.5010914229
 40
0.763267564
 40
1.0
 40
1.0
 40
1.0
 40
1.0
 10
15.5299676418
 20
66.4602639582
 30
0.0
 10
15.4997501713
 20
66.4434154037
 30
0.0
 10
15.430046374
 20
66.418930855
 30
0.0
 10
15.3190184663
 20
66.4075686856
 30
0.0
 10
15.2083376413
 20
66.4199926095
 30
0.0
 10
15.1391997594
 20
66.4451989062
 30
0.0
 10
15.1094380963
 20
66.4623829174
 30
0.0
 11
15.5299676418
 21
66.4602639582
 31
0.0
 11
15.4327259728
 21
66.4239764726
 31
0.0
 11
15.3189522769
 21
66.4116633527
 31
0.0
 11
15.2055680956
 21
66.4251210775
 31
0.0
 11
15.1094380963
 21
66.4623829174
 31
0.0
  0
SPLINE
  5
53F
100
AcDbEntity
  8
RACCORDO
100
AcDbSpline
 62
7
  6
CONTINUOUS
 70
0
 71
3
 72
11
 73
7
 74
5
 42
0.0000001
 43
0.0000001
 44
0.0000000001
 12
-0.3803764778
 22
-0.2120890063
 32
0.0
 13
-0.3771557109
 23
0.2177649678
 33
0.0
 40
0.0
 40
0.0
 40
0.0
 40
0.0
 40
0.2383228673
 40
0.5010914248
 40
0.7632675667
 40
1.0
 40
1.0
 40
1.0
 40
1.0
 10
15.5299676418
 20
24.6683621634
 30
0.0
 10
15.4997501708
 20
24.65151361
 30
0.0
 10
15.4300463733
 20
24.6270290626
 30
0.0
 10
15.3190184659
 20
24.6156668919
 30
0.0
 10
15.2083376411
 20
24.6280908144
 30
0.0
 10
15.1391997594
 20
24.6532971096
 30
0.0
 10
15.1094380963
 20
24.6704811198
 30
0.0
 11
15.5299676418
 21
24.6683621634
 31
0.0
 11
15.4327259725
 21
24.6320746797
 31
0.0
 11
15.3189522763
 21
24.6197615589
 31
0.0
 11
15.2055680949
 21
24.6332192824
 31
0.0
 11
15.1094380963
 21
24.6704811198
 31
0.0
  0
SPLINE
  5
540
100
AcDbEntity
  8
RACCORDO
100
AcDbSpline
 62
7
  6
CONTINUOUS
 70
0
 71
3
 72
9
 73
5
 74
3
 42
0.0000001
 43
0.0000001
 44
0.0000000001
 12
0.0000527323
 22
-0.0373502916
 32
0.0
 13
0.0077640379
 23
-0.0365344601
 33
0.0
 40
0.0
 40
0.0
 40
0.0
 40
0.0
 40
0.2547387322
 40
1.0
 40
1.0
 40
1.0
 40
1.0
 10
-18.1247325446
 20
47.8732255964
 30
0.0
 10
-18.124728067
 20
47.8700540745
 30
0.0
 10
-18.1243742204
 20
47.8576085602
 30
0.0
 10
-18.1228516187
 20
47.8451819247
 30
0.0
 10
-18.1209228731
 20
47.8361060187
 30
0.0
 11
-18.1247325446
 21
47.8732255964
 31
0.0
 11
-18.1244719475
 21
47.8637145905
 31
0.0
 11
-18.1209228731
 21
47.8361060187
 31
0.0
  0
SPLINE
  5
541
100
AcDbEntity
  8
RACCORDO
100
AcDbSpline
 62
7
  6
CONTINUOUS
 70
0
 71
3
 72
11
 73
7
 74
5
 42
0.0000001
 43
0.0000001
 44
0.0000000001
 12
-0.1362924929
 22
0.0787097748
 32
0.0
 13
-0.0000000006
 23
0.1573876497
 33
0.0
 40
0.0
 40
0.0
 40
0.0
 40
0.0
 40
0.2177541405
 40
0.4508937694
 40
0.7104507771
 40
1.0
 40
1.0
 40
1.0
 40
1.0
 10
14.8887698696
 20
24.3699181601
 30
0.0
 10
14.878877118
 20
24.3756312866
 30
0.0
 10
14.8603485312
 20
24.3911732041
 30
0.0
 10
14.8406414907
 20
24.4234153771
 30
0.0
 10
14.8289555289
 20
24.4631335124
 30
0.0
 10
14.8266384622
 20
24.492037224
 30
0.0
 10
14.8266384621
 20
24.5072277145
 30
0.0
 11
14.8887698696
 21
24.3699181601
 31
0.0
 11
14.8623851249
 21
24.3917905713
 31
0.0
 11
14.8427863447
 21
24.4228113055
 31
0.0
 11
14.830718731
 21
24.4618392751
 31
0.0
 11
14.8266384621
 21
24.5072277145
 31
0.0
  0
SPLINE
  5
542
100
AcDbEntity
  8
RACCORDO
100
AcDbSpline
 62
7
  6
CONTINUOUS
 70
0
 71
3
 72
11
 73
7
 74
5
 42
0.0000001
 43
0.0000001
 44
0.0000000001
 12
-0.1362924929
 22
0.0787097779
 32
0.0
 13
-0.000000004
 23
0.1573876512
 33
0.0
 40
0.0
 40
0.0
 40
0.0
 40
0.0
 40
0.2177541423
 40
0.4508937728
 40
0.710450779
 40
1.0
 40
1.0
 40
1.0
 40
1.0
 10
-21.3052447786
 20
45.2678886004
 30
0.0
 10
-21.3151375302
 20
45.2736017271
 30
0.0
 10
-21.3336661172
 20
45.289143645
 30
0.0
 10
-21.353373158
 20
45.3213858184
 30
0.0
 10
-21.3650591206
 20
45.3611039537
 30
0.0
 10
-21.3673761877
 20
45.3900076654
 30
0.0
 10
-21.3673761881
 20
45.405198156
 30
0.0
 11
-21.3052447786
 21
45.2678886004
 31
0.0
 11
-21.3316295236
 21
45.2897610122
 31
0.0
 11
-21.3512283041
 21
45.320781747
 31
0.0
 11
-21.3632959184
 21
45.3598097165
 31
0.0
 11
-21.3673761881
 21
45.405198156
 31
0.0
  0
SPLINE
  5
543
100
AcDbEntity
  8
RACCORDO
100
AcDbSpline
 62
7
  6
CONTINUOUS
 70
0
 71
3
 72
15
 73
11
 74
9
 42
0.0000001
 43
0.0000001
 44
0.0000000001
 12
0.0000290007
 22
0.4170681701
 32
0.0
 13
0.3612088352
 23
-0.2085042848
 33
0.0
 40
0.0
 40
0.0
 40
0.0
 40
0.0
 40
0.145084411
 40
0.2749838777
 40
0.3918358314
 40
0.5009156004
 40
0.6098397432
 40
0.7262475406
 40
0.855533188
 40
1.0
 40
1.0
 40
1.0
 40
1.0
 10
-21.6501758223
 20
87.6869232878
 30
0.0
 10
-21.6501744198
 20
87.7070933177
 30
0.0
 10
-21.6471401191
 20
87.7454539455
 30
0.0
 10
-21.6316877105
 20
87.7981791554
 30
0.0
 10
-21.6056610604
 20
87.8410697041
 30
0.0
 10
-21.5695347867
 20
87.871836378
 30
0.0
 10
-21.5251101231
 20
87.8883623074
 30
0.0
 10
-21.4751221096
 20
87.8900172552
 30
0.0
 10
-21.4218528097
 20
87.8776150928
 30
0.0
 10
-21.3870537537
 20
87.8615357124
 30
0.0
 10
-21.3696595241
 20
87.8514950627
 30
0.0
 11
-21.6501758223
 21
87.6869232878
 31
0.0
 11
-21.6447984844
 21
87.7471939707
 31
0.0
 11
-21.6288681249
 21
87.7989758567
 31
0.0
 11
-21.602992867
 21
87.8402746912
 31
0.0
 11
-21.5681558087
 21
87.8695331275
 31
0.0
 11
-21.5256767949
 21
87.8856361899
 31
0.0
 11
-21.4771818127
 21
87.8879465907
 31
0.0
 11
-21.4245002702
 21
87.8764521743
 31
0.0
 11
-21.3696595241
 21
87.8514950627
 31
0.0
  0
SPLINE
  5
544
100
AcDbEntity
  8
RACCORDO
100
AcDbSpline
 62
7
  6
CONTINUOUS
 70
0
 71
3
 72
12
 73
8
 74
6
 42
0.0000001
 43
0.0000001
 44
0.0000000001
 12
0.505725355
 22
-0.2920463641
 32
0.0
 13
0.0000644726
 23
-0.5839941861
 33
0.0
 40
0.0
 40
0.0
 40
0.0
 40
0.0
 40
0.2368422947
 40
0.4991924762
 40
0.7618019237
 40
0.8853942362
 40
1.0
 40
1.0
 40
1.0
 40
1.0
 10
14.8266384621
 20
66.9522062516
 30
0.0
 10
14.86656418
 20
66.9291499412
 30
0.0
 10
14.9421867346
 20
66.8656138632
 30
0.0
 10
15.0305711704
 20
66.7453248045
 30
0.0
 10
15.0823752879
 20
66.6287722249
 30
0.0
 10
15.1048810626
 20
66.5337194122
 30
0.0
 10
15.1094356333
 20
66.4873291054
 30
0.0
 10
15.1094380963
 20
66.4650194055
 30
0.0
 11
14.8266384621
 21
66.9522062516
 31
0.0
 11
14.9343368373
 21
66.8654193429
 31
0.0
 11
15.0258022863
 21
66.7425060542
 31
0.0
 11
15.0872407215
 21
66.6019879351
 31
0.0
 11
15.1036292616
 21
66.5316959522
 31
0.0
 11
15.1094380963
 21
66.4650194055
 31
0.0
  0
SPLINE
  5
545
100
AcDbEntity
  8
RACCORDO
100
AcDbSpline
 62
7
  6
CONTINUOUS
 70
0
 71
3
 72
15
 73
11
 74
9
 42
0.0000001
 43
0.0000001
 44
0.0000000001
 12
-0.0000290007
 22
-0.4170681613
 32
0.0
 13
-0.3612088275
 23
0.2085042803
 33
0.0
 40
0.0
 40
0.0
 40
0.0
 40
0.0
 40
0.1450844117
 40
0.2749838793
 40
0.3918358339
 40
0.5009156036
 40
0.6098397465
 40
0.7262475433
 40
0.8555331895
 40
1.0
 40
1.0
 40
1.0
 40
1.0
 10
15.1094380963
 20
24.6704811198
 30
0.0
 10
15.1094366938
 20
24.6503110902
 30
0.0
 10
15.1064023932
 20
24.6119504631
 30
0.0
 10
15.0909499852
 20
24.5592252539
 30
0.0
 10
15.064923336
 20
24.5163347055
 30
0.0
 10
15.0287970635
 20
24.4855680314
 30
0.0
 10
14.9843724013
 20
24.469042101
 30
0.0
 10
14.9343843891
 20
24.467387152
 30
0.0
 10
14.8811150905
 20
24.4797893125
 30
0.0
 10
14.8463160349
 20
24.495868691
 30
0.0
 10
14.8289218059
 20
24.5059093405
 30
0.0
 11
15.1094380963
 21
24.6704811198
 31
0.0
 11
15.1040607586
 21
24.6102104379
 31
0.0
 11
15.0881303997
 21
24.5584285525
 31
0.0
 11
15.0622551426
 21
24.5171297182
 31
0.0
 11
15.0274180855
 21
24.4878712817
 31
0.0
 11
14.984939073
 21
24.4717682184
 31
0.0
 11
14.9364440921
 21
24.4694578165
 31
0.0
 11
14.8837625508
 21
24.480952231
 31
0.0
 11
14.8289218059
 21
24.5059093405
 31
0.0
  0
SPLINE
  5
546
100
AcDbEntity
  8
RACCORDO
100
AcDbSpline
 62
7
  6
CONTINUOUS
 70
0
 71
3
 72
12
 73
8
 74
6
 42
0.0000001
 43
0.0000001
 44
0.0000000001
 12
-0.5057253573
 22
0.2920463654
 32
0.0
 13
-0.0000644726
 23
0.5839941887
 33
0.0
 40
0.0
 40
0.0
 40
0.0
 40
0.0
 40
0.2368422949
 40
0.4991924767
 40
0.7618019242
 40
0.8853942365
 40
1.0
 40
1.0
 40
1.0
 40
1.0
 10
-21.3673761881
 20
45.405198156
 30
0.0
 10
-21.4073019062
 20
45.4282544665
 30
0.0
 10
-21.4829244611
 20
45.4917905449
 30
0.0
 10
-21.5713088972
 20
45.6120796044
 30
0.0
 10
-21.6231130146
 20
45.7286321847
 30
0.0
 10
-21.645618789
 20
45.8236849978
 30
0.0
 10
-21.6501733593
 20
45.8700753048
 30
0.0
 10
-21.6501758223
 20
45.8923850047
 30
0.0
 11
-21.3673761881
 21
45.405198156
 31
0.0
 11
-21.4750745638
 21
45.4919850652
 31
0.0
 11
-21.5665400131
 21
45.6148983547
 31
0.0
 11
-21.6279784481
 21
45.7554164747
 31
0.0
 11
-21.6443669879
 21
45.8257084578
 31
0.0
 11
-21.6501758223
 21
45.8923850047
 31
0.0
  0
SPLINE
  5
547
100
AcDbEntity
  8
RACCORDO
100
AcDbSpline
 62
7
  6
CONTINUOUS
 70
0
 71
3
 72
9
 73
5
 74
3
 42
0.0000001
 43
0.0000001
 44
0.0000000001
 12
-0.0290535392
 22
-0.0551073363
 32
0.0
 13
-0.0539576766
 23
-0.0311367274
 33
0.0
 40
0.0
 40
0.0
 40
0.0
 40
0.0
 40
0.277017043
 40
1.0
 40
1.0
 40
1.0
 40
1.0
 10
13.204820371
 20
28.0258361118
 30
0.0
 10
13.2021375958
 20
28.0207475547
 30
0.0
 10
13.1916567954
 20
28.0028975174
 30
0.0
 10
13.1769017476
 20
27.9869161069
 30
0.0
 10
13.1638982541
 20
27.9794123325
 30
0.0
 11
13.204820371
 21
28.0258361118
 31
0.0
 11
13.196002876
 21
28.0110014211
 31
0.0
 11
13.1638982541
 21
27.9794123325
 31
0.0
  0
SPLINE
  5
548
100
AcDbEntity
  8
RACCORDO
100
AcDbSpline
 62
7
  6
CONTINUOUS
 70
0
 71
3
 72
11
 73
7
 74
5
 42
0.0000001
 43
0.0000001
 44
0.0000000001
 12
-0.1261722059
 22
-0.072808724
 32
0.0
 13
-0.0964136199
 23
0.1092014182
 33
0.0
 40
0.0
 40
0.0
 40
0.0
 40
0.0
 40
0.2220361667
 40
0.4505038999
 40
0.7087907003
 40
1.0
 40
1.0
 40
1.0
 40
1.0
 10
13.1638982541
 20
27.9794123325
 30
0.0
 10
13.1545599898
 20
27.9740236092
 30
0.0
 10
13.1324962624
 20
27.9675237795
 30
0.0
 10
13.0979061877
 20
27.9754210331
 30
0.0
 10
13.0656675466
 20
27.9958975302
 30
0.0
 10
13.0465616176
 20
28.0147377069
 30
0.0
 10
13.03720277
 20
28.025337863
 30
0.0
 11
13.1638982541
 21
27.9794123325
 31
0.0
 11
13.132830308
 21
27.970414755
 31
0.0
 11
13.1001508489
 21
27.9767164991
 31
0.0
 11
13.0678416077
 21
27.9959980663
 31
0.0
 11
13.03720277
 21
28.025337863
 31
0.0
  0
SPLINE
  5
549
100
AcDbEntity
  8
0
100
AcDbSpline
 62
7
  6
CONTINUOUS
 70
0
 71
3
 72
9
 73
5
 74
3
 42
0.0000001
 43
0.0000001
 44
0.0000000001
 12
0.0000188601
 22
-0.0959212975
 32
0.0
 13
-0.0492076068
 23
-0.0823377622
 33
0.0
 40
0.0
 40
0.0
 40
0.0
 40
0.0
 40
0.2607000112
 40
1.0
 40
1.0
 40
1.0
 40
1.0
 10
-14.1012342515
 20
77.3253792545
 30
0.0
 10
-14.1012326126
 20
77.3170436934
 30
0.0
 10
-14.1026924972
 20
77.2851819859
 30
0.0
 10
-14.1111885686
 20
77.25291159
 30
0.0
 10
-14.123314963
 20
77.2326208211
 30
0.0
 11
-14.1012342515
 21
77.3253792545
 31
0.0
 11
-14.1024720073
 21
77.3004032221
 31
0.0
 11
-14.123314963
 21
77.2326208211
 31
0.0
  0
SPLINE
  5
54A
100
AcDbEntity
  8
0
100
AcDbSpline
 62
7
  6
CONTINUOUS
 70
0
 71
3
 72
8
 73
4
 74
2
 42
0.0000001
 43
0.0000001
 44
0.0000000001
 12
-0.0170544733
 22
-0.0285367906
 32
0.0
 13
-0.0249380208
 23
-0.0219840533
 33
0.0
 40
0.0
 40
0.0
 40
0.0
 40
0.0
 40
1.0
 40
1.0
 40
1.0
 40
1.0
 10
-14.123314963
 20
77.2326208211
 30
0.0
 10
-14.1289997875
 20
77.2231085575
 30
0.0
 10
-14.136093272
 20
77.214251097
 30
0.0
 10
-14.1444059455
 20
77.2069230793
 30
0.0
 11
-14.123314963
 21
77.2326208211
 31
0.0
 11
-14.1444059455
 21
77.2069230793
 31
0.0
  0
SPLINE
  5
54B
100
AcDbEntity
  8
0
100
AcDbSpline
 62
7
  6
CONTINUOUS
 70
0
 71
3
 72
11
 73
7
 74
5
 42
0.0000001
 43
0.0000001
 44
0.0000000001
 12
0.136283381
 22
-0.0786998189
 32
0.0
 13
0.0
 23
-0.1573747802
 33
0.0
 40
0.0
 40
0.0
 40
0.0
 40
0.0
 40
0.2177859102
 40
0.450919006
 40
0.7102951862
 40
1.0
 40
1.0
 40
1.0
 40
1.0
 10
-9.2721775613
 20
44.5017095405
 30
0.0
 10
-9.2622840279
 20
44.4959963033
 30
0.0
 10
-9.2437760515
 20
44.480429246
 30
0.0
 10
-9.2240722016
 20
44.4482055035
 30
0.0
 10
-9.2123686945
 20
44.4084951963
 30
0.0
 10
-9.210065825
 20
44.3795935067
 30
0.0
 10
-9.210065825
 20
44.3643960963
 30
0.0
 11
-9.2721775613
 21
44.5017095405
 31
0.0
 11
-9.2458054492
 21
44.4798184591
 31
0.0
 11
-9.2262103531
 21
44.4488001625
 31
0.0
 11
-9.2141418164
 21
44.4098057633
 31
0.0
 11
-9.210065825
 21
44.3643960963
 31
0.0
  0
SPLINE
  5
54C
100
AcDbEntity
  8
SUPERFICI
100
AcDbSpline
 62
7
  6
CONTINUOUS
 70
0
 71
3
 72
9
 73
5
 74
3
 42
0.0000001
 43
0.0000001
 44
0.0000000001
 12
-0.1066410086
 22
-0.0615731245
 32
0.0
 13
-0.0163254074
 23
-0.1220534123
 33
0.0
 40
0.0
 40
0.0
 40
0.0
 40
0.0
 40
0.4614877741
 40
1.0
 40
1.0
 40
1.0
 40
1.0
 10
-5.8952497627
 20
-15.6145425075
 30
0.0
 10
-5.9116542699
 20
-15.6240142556
 30
0.0
 10
-5.9411121133
 20
-15.6557340522
 30
0.0
 10
-5.9522905683
 20
-15.6964322703
 30
0.0
 10
-5.9552210454
 20
-15.7183413552
 30
0.0
 11
-5.8952497627
 21
-15.6145425075
 31
0.0
 11
-5.93495016
 21
-15.6552029953
 31
0.0
 11
-5.9552210454
 21
-15.7183413552
 31
0.0
  0
SPLINE
  5
54D
100
AcDbEntity
  8
SUPERFICI
100
AcDbSpline
 62
7
  6
CONTINUOUS
 70
0
 71
3
 72
11
 73
7
 74
5
 42
0.0000001
 43
0.0000001
 44
0.0000000001
 12
0.1363216183
 22
0.0787103206
 32
0.0
 13
0.1363215866
 23
-0.0787103756
 33
0.0
 40
0.0
 40
0.0
 40
0.0
 40
0.0
 40
0.2177804588
 40
0.4509077062
 40
0.7102936033
 40
1.0
 40
1.0
 40
1.0
 40
1.0
 10
-5.3295643378
 20
-15.2879228328
 30
0.0
 10
-5.3196682762
 20
-15.2822089763
 30
0.0
 10
-5.296929755
 20
-15.2739570489
 30
0.0
 10
-5.2591615404
 20
-15.2730024172
 30
0.0
 10
-5.2189095806
 20
-15.2827244366
 30
0.0
 10
-5.1927215841
 20
-15.2951842673
 30
0.0
 10
-5.1795571722
 20
-15.3027852338
 30
0.0
 11
-5.3295643378
 21
-15.2879228328
 31
0.0
 11
-5.2974150055
 21
-15.276021482
 31
0.0
 11
-5.2607469249
 21
-15.2745575181
 31
0.0
 11
-5.2209312118
 21
-15.2836051211
 31
0.0
 11
-5.1795571722
 21
-15.3027852338
 31
0.0
  0
SPLINE
  5
54E
100
AcDbEntity
  8
SUPERFICI
100
AcDbSpline
 62
7
  6
CONTINUOUS
 70
0
 71
3
 72
9
 73
5
 74
3
 42
0.0000001
 43
0.0000001
 44
0.0000000001
 12
-0.1066410086
 22
-0.0615731245
 32
0.0
 13
-0.0163254074
 23
-0.1220534123
 33
0.0
 40
0.0
 40
0.0
 40
0.0
 40
0.0
 40
0.4614877741
 40
1.0
 40
1.0
 40
1.0
 40
1.0
 10
10.014652814
 20
-24.8007208574
 30
0.0
 10
9.9982483068
 20
-24.8101926054
 30
0.0
 10
9.9687904634
 20
-24.8419124021
 30
0.0
 10
9.9576120084
 20
-24.8826106202
 30
0.0
 10
9.9546815313
 20
-24.9045197051
 30
0.0
 11
10.014652814
 21
-24.8007208574
 31
0.0
 11
9.9749524167
 21
-24.8413813452
 31
0.0
 11
9.9546815313
 21
-24.9045197051
 31
0.0
  0
SPLINE
  5
54F
100
AcDbEntity
  8
SUPERFICI
100
AcDbSpline
 62
7
  6
CONTINUOUS
 70
0
 71
3
 72
11
 73
7
 74
5
 42
0.0000001
 43
0.0000001
 44
0.0000000001
 12
0.1363216183
 22
0.0787103206
 32
0.0
 13
0.1363215866
 23
-0.0787103756
 33
0.0
 40
0.0
 40
0.0
 40
0.0
 40
0.0
 40
0.2177804588
 40
0.4509077062
 40
0.7102936033
 40
1.0
 40
1.0
 40
1.0
 40
1.0
 10
10.5803382389
 20
-24.4741011827
 30
0.0
 10
10.5902343005
 20
-24.4683873261
 30
0.0
 10
10.6129728217
 20
-24.4601353988
 30
0.0
 10
10.6507410363
 20
-24.4591807671
 30
0.0
 10
10.6909929961
 20
-24.4689027865
 30
0.0
 10
10.7171809926
 20
-24.4813626172
 30
0.0
 10
10.7303454045
 20
-24.4889635836
 30
0.0
 11
10.5803382389
 21
-24.4741011827
 31
0.0
 11
10.6124875712
 21
-24.4621998319
 31
0.0
 11
10.6491556518
 21
-24.4607358679
 31
0.0
 11
10.6889713649
 21
-24.469783471
 31
0.0
 11
10.7303454045
 21
-24.4889635836
 31
0.0
  0
SPLINE
  5
550
100
AcDbEntity
  8
SUPERFICI
100
AcDbSpline
 62
7
  6
CONTINUOUS
 70
0
 71
3
 72
11
 73
7
 74
5
 42
0.0000001
 43
0.0000001
 44
0.0000000001
 12
-0.0000100109
 22
0.1573960521
 32
0.0
 13
-0.1363067843
 23
0.0787018289
 33
0.0
 40
0.0
 40
0.0
 40
0.0
 40
0.0
 40
0.2177904336
 40
0.4509258866
 40
0.7103007723
 40
1.0
 40
1.0
 40
1.0
 40
1.0
 10
-16.3848858632
 20
-1.1481162596
 30
0.0
 10
-16.38488659
 20
-1.1366898081
 30
0.0
 10
-16.3891138891
 20
-1.1128742093
 30
0.0
 10
-16.4071696967
 20
-1.0796927938
 30
0.0
 10
-16.4357105459
 20
-1.0496970356
 30
0.0
 10
-16.4595911028
 20
-1.0332490199
 30
0.0
 10
-16.4727537595
 20
-1.0256490669
 30
0.0
 11
-16.3848858632
 21
-1.1481162596
 31
0.0
 11
-16.3906578246
 21
-1.1143263409
 31
0.0
 11
-16.4077240745
 21
-1.0818419325
 31
0.0
 11
-16.4354623678
 21
-1.0518880735
 31
0.0
 11
-16.4727537595
 21
-1.0256490669
 31
0.0
  0
SPLINE
  5
551
100
AcDbEntity
  8
0
100
AcDbSpline
 62
7
  6
CONTINUOUS
 70
0
 71
3
 72
11
 73
7
 74
5
 42
0.0000001
 43
0.0000001
 44
0.0000000001
 12
-0.0000100109
 22
0.1573960521
 32
0.0
 13
-0.1363067843
 23
0.0787018289
 33
0.0
 40
0.0
 40
0.0
 40
0.0
 40
0.0
 40
0.2177904336
 40
0.4509258866
 40
0.7103007723
 40
1.0
 40
1.0
 40
1.0
 40
1.0
 10
-16.3848858632
 20
-59.1175059119
 30
0.0
 10
-16.38488659
 20
-59.1060794604
 30
0.0
 10
-16.3891138891
 20
-59.0822638616
 30
0.0
 10
-16.4071696967
 20
-59.0490824461
 30
0.0
 10
-16.4357105459
 20
-59.0190866879
 30
0.0
 10
-16.4595911028
 20
-59.0026386722
 30
0.0
 10
-16.4727537595
 20
-58.9950387192
 30
0.0
 11
-16.3848858632
 21
-59.1175059119
 31
0.0
 11
-16.3906578246
 21
-59.0837159931
 31
0.0
 11
-16.4077240745
 21
-59.0512315848
 31
0.0
 11
-16.4354623678
 21
-59.0212777258
 31
0.0
 11
-16.4727537595
 21
-58.9950387192
 31
0.0
  0
SPLINE
  5
552
100
AcDbEntity
  8
RACCORDO
100
AcDbSpline
 62
7
  6
CONTINUOUS
 70
0
 71
3
 72
9
 73
5
 74
3
 42
0.0000001
 43
0.0000001
 44
0.0000000001
 12
-0.1066410086
 22
-0.0615731245
 32
0.0
 13
-0.0163254074
 23
-0.1220534123
 33
0.0
 40
0.0
 40
0.0
 40
0.0
 40
0.0
 40
0.4614877741
 40
1.0
 40
1.0
 40
1.0
 40
1.0
 10
10.014652814
 20
-82.7701105097
 30
0.0
 10
9.9982483068
 20
-82.7795822577
 30
0.0
 10
9.9687904634
 20
-82.8113020543
 30
0.0
 10
9.9576120084
 20
-82.8520002725
 30
0.0
 10
9.9546815313
 20
-82.8739093574
 30
0.0
 11
10.014652814
 21
-82.7701105097
 31
0.0
 11
9.9749524167
 21
-82.8107709975
 31
0.0
 11
9.9546815313
 21
-82.8739093574
 31
0.0
  0
SPLINE
  5
553
100
AcDbEntity
  8
RACCORDO
100
AcDbSpline
 62
7
  6
CONTINUOUS
 70
0
 71
3
 72
11
 73
7
 74
5
 42
0.0000001
 43
0.0000001
 44
0.0000000001
 12
0.1363216183
 22
0.0787103206
 32
0.0
 13
0.1363215866
 23
-0.0787103756
 33
0.0
 40
0.0
 40
0.0
 40
0.0
 40
0.0
 40
0.2177804588
 40
0.4509077062
 40
0.7102936033
 40
1.0
 40
1.0
 40
1.0
 40
1.0
 10
10.5803382389
 20
-82.443490835
 30
0.0
 10
10.5902343005
 20
-82.4377769784
 30
0.0
 10
10.6129728217
 20
-82.4295250511
 30
0.0
 10
10.6507410363
 20
-82.4285704193
 30
0.0
 10
10.6909929961
 20
-82.4382924388
 30
0.0
 10
10.7171809926
 20
-82.4507522695
 30
0.0
 10
10.7303454045
 20
-82.4583532359
 30
0.0
 11
10.5803382389
 21
-82.443490835
 31
0.0
 11
10.6124875712
 21
-82.4315894841
 31
0.0
 11
10.6491556518
 21
-82.4301255202
 31
0.0
 11
10.6889713649
 21
-82.4391731233
 31
0.0
 11
10.7303454045
 21
-82.4583532359
 31
0.0
  0
SPLINE
  5
554
100
AcDbEntity
  8
RACCORDO
100
AcDbSpline
 62
7
  6
CONTINUOUS
 70
0
 71
3
 72
9
 73
5
 74
3
 42
0.0000001
 43
0.0000001
 44
0.0000000001
 12
-0.1066410086
 22
-0.0615731245
 32
0.0
 13
-0.0163254074
 23
-0.1220534123
 33
0.0
 40
0.0
 40
0.0
 40
0.0
 40
0.0
 40
0.4614877741
 40
1.0
 40
1.0
 40
1.0
 40
1.0
 10
-5.8952497627
 20
-73.5839321598
 30
0.0
 10
-5.9116542699
 20
-73.5934039079
 30
0.0
 10
-5.9411121133
 20
-73.6251237045
 30
0.0
 10
-5.9522905683
 20
-73.6658219226
 30
0.0
 10
-5.9552210454
 20
-73.6877310075
 30
0.0
 11
-5.8952497627
 21
-73.5839321598
 31
0.0
 11
-5.93495016
 21
-73.6245926476
 31
0.0
 11
-5.9552210454
 21
-73.6877310075
 31
0.0
  0
SPLINE
  5
555
100
AcDbEntity
  8
RACCORDO
100
AcDbSpline
 62
7
  6
CONTINUOUS
 70
0
 71
3
 72
11
 73
7
 74
5
 42
0.0000001
 43
0.0000001
 44
0.0000000001
 12
0.1363216183
 22
0.0787103206
 32
0.0
 13
0.1363215866
 23
-0.0787103756
 33
0.0
 40
0.0
 40
0.0
 40
0.0
 40
0.0
 40
0.2177804588
 40
0.4509077062
 40
0.7102936033
 40
1.0
 40
1.0
 40
1.0
 40
1.0
 10
-5.3295643378
 20
-73.2573124851
 30
0.0
 10
-5.3196682762
 20
-73.2515986285
 30
0.0
 10
-5.296929755
 20
-73.2433467012
 30
0.0
 10
-5.2591615404
 20
-73.2423920695
 30
0.0
 10
-5.2189095806
 20
-73.2521140889
 30
0.0
 10
-5.1927215841
 20
-73.2645739196
 30
0.0
 10
-5.1795571722
 20
-73.272174886
 30
0.0
 11
-5.3295643378
 21
-73.2573124851
 31
0.0
 11
-5.2974150055
 21
-73.2454111343
 31
0.0
 11
-5.2607469249
 21
-73.2439471704
 31
0.0
 11
-5.2209312118
 21
-73.2529947734
 31
0.0
 11
-5.1795571722
 21
-73.272174886
 31
0.0
  0
SPLINE
  5
556
100
AcDbEntity
  8
ASSI
100
AcDbSpline
 62
7
  6
CONTINUOUS
 70
0
 71
3
 72
8
 73
4
 74
2
 42
0.0000001
 43
0.0000001
 44
0.0000000001
 12
-0.0275213606
 22
0.0158976969
 32
0.0
 13
-0.0293927491
 23
0.0120924918
 33
0.0
 40
0.0
 40
0.0
 40
0.0
 40
0.0
 40
1.0
 40
1.0
 40
1.0
 40
1.0
 10
9.6271548055
 20
-79.7121643379
 30
0.0
 10
9.6179810186
 20
-79.7068651056
 30
0.0
 10
9.6084670077
 20
-79.7020974689
 30
0.0
 10
9.5986694247
 20
-79.6980666383
 30
0.0
 11
9.6271548055
 21
-79.7121643379
 31
0.0
 11
9.5986694247
 21
-79.6980666383
 31
0.0
  0
SPLINE
  5
557
100
AcDbEntity
  8
ASSI
100
AcDbSpline
 62
7
  6
CONTINUOUS
 70
0
 71
3
 72
8
 73
4
 74
2
 42
0.0000001
 43
0.0000001
 44
0.0000000001
 12
-0.0250704708
 22
0.0103142602
 32
0.0
 13
-0.0262843628
 23
0.0066366214
 33
0.0
 40
0.0
 40
0.0
 40
0.0
 40
0.0
 40
1.0
 40
1.0
 40
1.0
 40
1.0
 10
9.5986694247
 20
-79.6980666383
 30
0.0
 10
9.5903126011
 20
-79.6946285516
 30
0.0
 10
9.5817113895
 20
-79.6917102788
 30
0.0
 10
9.5729499353
 20
-79.6894980717
 30
0.0
 11
9.5986694247
 21
-79.6980666383
 31
0.0
 11
9.5729499353
 21
-79.6894980717
 31
0.0
  0
SPLINE
  5
558
100
AcDbEntity
  8
ASSI
100
AcDbSpline
 62
7
  6
CONTINUOUS
 70
0
 71
3
 72
9
 73
5
 74
3
 42
0.0000001
 43
0.0000001
 44
0.0000000001
 12
-0.078517641
 22
0.0198251659
 32
0.0
 13
-0.0733621321
 23
-0.0342936544
 33
0.0
 40
0.0
 40
0.0
 40
0.0
 40
0.0
 40
0.5121740518
 40
1.0
 40
1.0
 40
1.0
 40
1.0
 10
9.5729499353
 20
-79.6894980717
 30
0.0
 10
9.5595450358
 20
-79.6861134265
 30
0.0
 10
9.5323705225
 20
-79.6826380933
 30
0.0
 10
9.5052155894
 20
-79.6886209231
 30
0.0
 10
9.4932862722
 20
-79.694197368
 30
0.0
 11
9.5729499353
 21
-79.6894980717
 31
0.0
 11
9.531714011
 21
-79.6850345622
 31
0.0
 11
9.4932862722
 21
-79.694197368
 31
0.0
  0
SPLINE
  5
559
100
AcDbEntity
  8
0
100
AcDbSpline
 62
7
  6
CONTINUOUS
 70
0
 71
3
 72
9
 73
5
 74
3
 42
0.0000001
 43
0.0000001
 44
0.0000000001
 12
0.0163254074
 22
0.1220534123
 32
0.0
 13
0.1066410086
 23
0.0615731245
 33
0.0
 40
0.0
 40
0.0
 40
0.0
 40
0.0
 40
0.5385122259
 40
1.0
 40
1.0
 40
1.0
 40
1.0
 10
-5.9552210454
 20
42.2510482971
 30
0.0
 10
-5.9522905683
 20
42.272957382
 30
0.0
 10
-5.9411121133
 20
42.3136556001
 30
0.0
 10
-5.9116542699
 20
42.3453753967
 30
0.0
 10
-5.8952497627
 20
42.3548471448
 30
0.0
 11
-5.9552210454
 21
42.2510482971
 31
0.0
 11
-5.93495016
 21
42.314186657
 31
0.0
 11
-5.8952497627
 21
42.3548471448
 31
0.0
  0
SPLINE
  5
55A
100
AcDbEntity
  8
0
100
AcDbSpline
 62
7
  6
CONTINUOUS
 70
0
 71
3
 72
9
 73
5
 74
3
 42
0.0000001
 43
0.0000001
 44
0.0000000001
 12
0.0163254074
 22
0.1220534123
 32
0.0
 13
0.1066410086
 23
0.0615731245
 33
0.0
 40
0.0
 40
0.0
 40
0.0
 40
0.0
 40
0.5385122259
 40
1.0
 40
1.0
 40
1.0
 40
1.0
 10
9.9546815313
 20
33.0648699472
 30
0.0
 10
9.9576120084
 20
33.0867790321
 30
0.0
 10
9.9687904634
 20
33.1274772502
 30
0.0
 10
9.9982483068
 20
33.1591970469
 30
0.0
 10
10.014652814
 20
33.1686687949
 30
0.0
 11
9.9546815313
 21
33.0648699472
 31
0.0
 11
9.9749524167
 21
33.1280083071
 31
0.0
 11
10.014652814
 21
33.1686687949
 31
0.0
  0
SPLINE
  5
55B
100
AcDbEntity
  8
ASSI
100
AcDbSpline
 62
7
  6
CONTINUOUS
 70
0
 71
3
 72
8
 73
4
 74
2
 42
0.0000001
 43
0.0000001
 44
0.0000000001
 12
-0.0275213606
 22
0.0158976969
 32
0.0
 13
-0.0293927491
 23
0.0120924918
 33
0.0
 40
0.0
 40
0.0
 40
0.0
 40
0.0
 40
1.0
 40
1.0
 40
1.0
 40
1.0
 10
-6.2827477712
 20
-70.5259859881
 30
0.0
 10
-6.2919215581
 20
-70.5206867557
 30
0.0
 10
-6.301435569
 20
-70.515919119
 30
0.0
 10
-6.311233152
 20
-70.5118882884
 30
0.0
 11
-6.2827477712
 21
-70.5259859881
 31
0.0
 11
-6.311233152
 21
-70.5118882884
 31
0.0
  0
SPLINE
  5
55C
100
AcDbEntity
  8
ASSI
100
AcDbSpline
 62
7
  6
CONTINUOUS
 70
0
 71
3
 72
8
 73
4
 74
2
 42
0.0000001
 43
0.0000001
 44
0.0000000001
 12
-0.0250704708
 22
0.0103142602
 32
0.0
 13
-0.0262843628
 23
0.0066366214
 33
0.0
 40
0.0
 40
0.0
 40
0.0
 40
0.0
 40
1.0
 40
1.0
 40
1.0
 40
1.0
 10
-6.311233152
 20
-70.5118882884
 30
0.0
 10
-6.3195899756
 20
-70.5084502017
 30
0.0
 10
-6.3281911872
 20
-70.5055319289
 30
0.0
 10
-6.3369526414
 20
-70.5033197218
 30
0.0
 11
-6.311233152
 21
-70.5118882884
 31
0.0
 11
-6.3369526414
 21
-70.5033197218
 31
0.0
  0
SPLINE
  5
55D
100
AcDbEntity
  8
ASSI
100
AcDbSpline
 62
7
  6
CONTINUOUS
 70
0
 71
3
 72
9
 73
5
 74
3
 42
0.0000001
 43
0.0000001
 44
0.0000000001
 12
-0.078517641
 22
0.0198251659
 32
0.0
 13
-0.0733621321
 23
-0.0342936544
 33
0.0
 40
0.0
 40
0.0
 40
0.0
 40
0.0
 40
0.5121740518
 40
1.0
 40
1.0
 40
1.0
 40
1.0
 10
-6.3369526414
 20
-70.5033197218
 30
0.0
 10
-6.3503575409
 20
-70.4999350766
 30
0.0
 10
-6.3775320542
 20
-70.4964597435
 30
0.0
 10
-6.4046869873
 20
-70.5024425733
 30
0.0
 10
-6.4166163045
 20
-70.5080190181
 30
0.0
 11
-6.3369526414
 21
-70.5033197218
 31
0.0
 11
-6.3781885657
 21
-70.4988562124
 31
0.0
 11
-6.4166163045
 21
-70.5080190181
 31
0.0
  0
SPLINE
  5
55E
100
AcDbEntity
  8
RACCORDO
100
AcDbSpline
 62
7
  6
CONTINUOUS
 70
0
 71
3
 72
11
 73
7
 74
5
 42
0.0000001
 43
0.0000001
 44
0.0000000001
 12
0.3808322389
 22
-0.2198877618
 32
0.0
 13
0.0
 23
-0.4397542745
 33
0.0
 40
0.0
 40
0.0
 40
0.0
 40
0.0
 40
0.2372413496
 40
0.5000061068
 40
0.7627675405
 40
1.0
 40
1.0
 40
1.0
 40
1.0
 10
-10.4828580311
 20
-70.2101154361
 30
0.0
 10
-10.4527416463
 20
-70.2275042592
 30
0.0
 10
-10.3957496361
 20
-70.2754715339
 30
0.0
 10
-10.3292315395
 20
-70.3663708147
 30
0.0
 10
-10.2837698683
 20
-70.4694255469
 30
0.0
 10
-10.2707259967
 20
-70.5427642344
 30
0.0
 10
-10.2707259967
 20
-70.5775388971
 30
0.0
 11
-10.4828580311
 21
-70.2101154361
 31
0.0
 11
-10.4016729587
 21
-70.2756386704
 31
0.0
 11
-10.3328580311
 21
-70.3684651384
 31
0.0
 11
-10.286876151
 21
-70.4744725737
 31
0.0
 11
-10.2707259967
 21
-70.5775388971
 31
0.0
  0
SPLINE
  5
55F
100
AcDbEntity
  8
RACCORDO
100
AcDbSpline
 62
7
  6
CONTINUOUS
 70
0
 71
3
 72
11
 73
7
 74
5
 42
0.0000001
 43
0.0000001
 44
0.0000000001
 12
0.3808322389
 22
-0.2198877618
 32
0.0
 13
-0.0
 23
-0.4397542745
 33
0.0
 40
0.0
 40
0.0
 40
0.0
 40
0.0
 40
0.2372413496
 40
0.5000061068
 40
0.7627675405
 40
1.0
 40
1.0
 40
1.0
 40
1.0
 10
5.4270445456
 20
-79.396293786
 30
0.0
 10
5.4571609304
 20
-79.4136826091
 30
0.0
 10
5.5141529406
 20
-79.4616498838
 30
0.0
 10
5.5806710372
 20
-79.5525491646
 30
0.0
 10
5.6261327084
 20
-79.6556038968
 30
0.0
 10
5.63917658
 20
-79.7289425843
 30
0.0
 10
5.63917658
 20
-79.763717247
 30
0.0
 11
5.4270445456
 21
-79.396293786
 31
0.0
 11
5.508229618
 21
-79.4618170203
 31
0.0
 11
5.5770445456
 21
-79.5546434882
 31
0.0
 11
5.6230264257
 21
-79.6606509236
 31
0.0
 11
5.63917658
 21
-79.763717247
 31
0.0
  0
SPLINE
  5
560
100
AcDbEntity
  8
0
100
AcDbSpline
 62
7
  6
CONTINUOUS
 70
0
 71
3
 72
11
 73
7
 74
5
 42
0.0000001
 43
0.0000001
 44
0.0000000001
 12
0.0
 22
0.1573747802
 32
0.0
 13
-0.136283381
 23
0.0786998189
 33
0.0
 40
0.0
 40
0.0
 40
0.0
 40
0.0
 40
0.2897048138
 40
0.549080994
 40
0.7822140898
 40
1.0
 40
1.0
 40
1.0
 40
1.0
 10
-9.210065825
 20
-71.5743832083
 30
0.0
 10
-9.210065825
 20
-71.5591857978
 30
0.0
 10
-9.2123686945
 20
-71.5302841083
 30
0.0
 10
-9.2240722016
 20
-71.4905738011
 30
0.0
 10
-9.2437760515
 20
-71.4583500586
 30
0.0
 10
-9.2622840279
 20
-71.4427830013
 30
0.0
 10
-9.2721775613
 20
-71.4370697641
 30
0.0
 11
-9.210065825
 21
-71.5743832083
 31
0.0
 11
-9.2141418164
 21
-71.5289735413
 31
0.0
 11
-9.2262103531
 21
-71.489979142
 31
0.0
 11
-9.2458054492
 21
-71.4589608455
 31
0.0
 11
-9.2721775613
 21
-71.4370697641
 31
0.0
  0
SPLINE
  5
561
100
AcDbEntity
  8
0
100
AcDbSpline
 62
7
  6
CONTINUOUS
 70
0
 71
3
 72
9
 73
5
 74
3
 42
0.0000001
 43
0.0000001
 44
0.0000000001
 12
0.0356636509
 22
0.0249264817
 32
0.0
 13
0.0223702126
 23
0.0373202233
 33
0.0
 40
0.0
 40
0.0
 40
0.0
 40
0.0
 40
0.745130515
 40
1.0
 40
1.0
 40
1.0
 40
1.0
 10
-14.1526056844
 20
-57.1088923792
 30
0.0
 10
-14.1437476596
 20
-57.1027012185
 30
0.0
 10
-14.13330048
 20
-57.0921410725
 30
0.0
 10
-14.1252974333
 20
-57.0800473024
 30
0.0
 10
-14.1233969385
 20
-57.076876707
 30
0.0
 11
-14.1526056844
 21
-57.1088923792
 31
0.0
 11
-14.1295356652
 21
-57.0861123465
 31
0.0
 11
-14.1233969385
 21
-57.076876707
 31
0.0
  0
SPLINE
  5
562
100
AcDbEntity
  8
0
100
AcDbSpline
 62
7
  6
CONTINUOUS
 70
0
 71
3
 72
9
 73
5
 74
3
 42
0.0000001
 43
0.0000001
 44
0.0000000001
 12
0.0253036784
 22
0.067371073
 32
0.0
 13
-0.0000095784
 23
0.0719662249
 33
0.0
 40
0.0
 40
0.0
 40
0.0
 40
0.0
 40
0.243469632
 40
1.0
 40
1.0
 40
1.0
 40
1.0
 10
-14.1128201947
 20
-57.0547910753
 30
0.0
 10
-14.1107666356
 20
-57.0493234719
 30
0.0
 10
-14.1036482299
 20
-57.0263712971
 30
0.0
 10
-14.1012318742
 20
-57.0021462503
 30
0.0
 10
-14.1012342896
 20
-56.9839980387
 30
0.0
 11
-14.1128201947
 21
-57.0547910753
 31
0.0
 11
-14.10757913
 21
-57.0380717041
 31
0.0
 11
-14.1012342896
 21
-56.9839980387
 31
0.0
  0
SPLINE
  5
563
100
AcDbEntity
  8
0
100
AcDbSpline
 62
7
  6
CONTINUOUS
 70
0
 71
3
 72
9
 73
5
 74
3
 42
0.0000001
 43
0.0000001
 44
0.0000000001
 12
-0.0685559615
 22
-0.1766939093
 32
0.0
 13
-0.1597856713
 23
-0.1019274089
 33
0.0
 40
0.0
 40
0.0
 40
0.0
 40
0.0
 40
0.5194818691
 40
1.0
 40
1.0
 40
1.0
 40
1.0
 10
-14.1080494842
 20
-38.5497280343
 30
0.0
 10
-14.1199206772
 20
-38.5803244617
 30
0.0
 10
-14.1515009286
 20
-38.6360053973
 30
0.0
 10
-14.1975292454
 20
-38.6812696079
 30
0.0
 10
-14.2231225495
 20
-38.6975955972
 30
0.0
 11
-14.1080494842
 21
-38.5497280343
 31
0.0
 11
-14.1566303886
 21
-38.6353638626
 31
0.0
 11
-14.2231225495
 21
-38.6975955972
 31
0.0
  0
SPLINE
  5
564
100
AcDbEntity
  8
0
100
AcDbSpline
 62
7
  6
CONTINUOUS
 70
0
 71
3
 72
9
 73
5
 74
3
 42
0.0000001
 43
0.0000001
 44
0.0000000001
 12
-0.0685559501
 22
-0.1766940193
 32
0.0
 13
-0.1597857543
 23
-0.1019274619
 33
0.0
 40
0.0
 40
0.0
 40
0.0
 40
0.0
 40
0.5194818255
 40
1.0
 40
1.0
 40
1.0
 40
1.0
 10
-14.1080494842
 20
59.0184701557
 30
0.0
 10
-14.1199206743
 20
58.9878737118
 30
0.0
 10
-14.1515008761
 20
58.9321927095
 30
0.0
 10
-14.1975292298
 20
58.8869284788
 30
0.0
 10
-14.2231225495
 20
58.8706024795
 30
0.0
 11
-14.1080494842
 21
59.0184701557
 31
0.0
 11
-14.1566303541
 21
58.9328342586
 31
0.0
 11
-14.2231225495
 21
58.8706024795
 31
0.0
  0
SPLINE
  5
565
100
AcDbEntity
  8
SUPERFICI
100
AcDbSpline
 62
7
  6
CONTINUOUS
 70
0
 71
3
 72
11
 73
7
 74
5
 42
0.0000001
 43
0.0000001
 44
0.0000000001
 12
0.3808322389
 22
-0.2198877618
 32
0.0
 13
0.0
 23
-0.4397542745
 33
0.0
 40
0.0
 40
0.0
 40
0.0
 40
0.0
 40
0.2372413496
 40
0.5000061068
 40
0.7627675405
 40
1.0
 40
1.0
 40
1.0
 40
1.0
 10
-10.4828580311
 20
-12.2407257838
 30
0.0
 10
-10.4527416463
 20
-12.2581146069
 30
0.0
 10
-10.3957496361
 20
-12.3060818816
 30
0.0
 10
-10.3292315395
 20
-12.3969811624
 30
0.0
 10
-10.2837698683
 20
-12.5000358946
 30
0.0
 10
-10.2707259967
 20
-12.5733745821
 30
0.0
 10
-10.2707259967
 20
-12.6081492448
 30
0.0
 11
-10.4828580311
 21
-12.2407257838
 31
0.0
 11
-10.4016729587
 21
-12.3062490182
 31
0.0
 11
-10.3328580311
 21
-12.3990754861
 31
0.0
 11
-10.286876151
 21
-12.5050829214
 31
0.0
 11
-10.2707259967
 21
-12.6081492448
 31
0.0
  0
SPLINE
  5
566
100
AcDbEntity
  8
SUPERFICI
100
AcDbSpline
 62
7
  6
CONTINUOUS
 70
0
 71
3
 72
11
 73
7
 74
5
 42
0.0000001
 43
0.0000001
 44
0.0000000001
 12
0.3808322389
 22
-0.2198877618
 32
0.0
 13
0.0
 23
-0.4397542745
 33
0.0
 40
0.0
 40
0.0
 40
0.0
 40
0.0
 40
0.2372413496
 40
0.5000061068
 40
0.7627675405
 40
1.0
 40
1.0
 40
1.0
 40
1.0
 10
5.4270445456
 20
-21.4269041337
 30
0.0
 10
5.4571609304
 20
-21.4442929568
 30
0.0
 10
5.5141529406
 20
-21.4922602315
 30
0.0
 10
5.5806710372
 20
-21.5831595123
 30
0.0
 10
5.6261327084
 20
-21.6862142445
 30
0.0
 10
5.63917658
 20
-21.759552932
 30
0.0
 10
5.63917658
 20
-21.7943275947
 30
0.0
 11
5.4270445456
 21
-21.4269041337
 31
0.0
 11
5.508229618
 21
-21.492427368
 31
0.0
 11
5.5770445456
 21
-21.585253836
 31
0.0
 11
5.6230264257
 21
-21.6912612713
 31
0.0
 11
5.63917658
 21
-21.7943275947
 31
0.0
  0
SPLINE
  5
567
100
AcDbEntity
  8
0
100
AcDbSpline
 62
7
  6
CONTINUOUS
 70
0
 71
3
 72
9
 73
5
 74
3
 42
0.0000001
 43
0.0000001
 44
0.0000000001
 12
-0.0176950489
 22
0.0251728456
 32
0.0
 13
-0.0266418948
 23
0.0153946858
 33
0.0
 40
0.0
 40
0.0
 40
0.0
 40
0.0
 40
0.257348278
 40
1.0
 40
1.0
 40
1.0
 40
1.0
 10
-14.1080494842
 20
63.7706600568
 30
0.0
 10
-14.1095674144
 20
63.7728194529
 30
0.0
 10
-14.115870254
 20
63.7809149698
 30
0.0
 10
-14.1239122507
 20
63.7876853237
 30
0.0
 10
-14.130507467
 20
63.791496287
 30
0.0
 11
-14.1080494842
 21
63.7706600568
 31
0.0
 11
-14.1129266454
 21
63.7768984245
 31
0.0
 11
-14.130507467
 21
63.791496287
 31
0.0
  0
SPLINE
  5
568
100
AcDbEntity
  8
SUPERFICI
100
AcDbSpline
 62
7
  6
CONTINUOUS
 70
0
 71
3
 72
11
 73
7
 74
5
 42
0.0000001
 43
0.0000001
 44
0.0000000001
 12
0.0
 22
0.1573747802
 32
0.0
 13
-0.136283381
 23
0.0786998189
 33
0.0
 40
0.0
 40
0.0
 40
0.0
 40
0.0
 40
0.2897048138
 40
0.549080994
 40
0.7822140898
 40
1.0
 40
1.0
 40
1.0
 40
1.0
 10
-9.210065825
 20
-13.604993556
 30
0.0
 10
-9.210065825
 20
-13.5897961456
 30
0.0
 10
-9.2123686945
 20
-13.560894456
 30
0.0
 10
-9.2240722016
 20
-13.5211841488
 30
0.0
 10
-9.2437760515
 20
-13.4889604063
 30
0.0
 10
-9.2622840279
 20
-13.473393349
 30
0.0
 10
-9.2721775613
 20
-13.4676801118
 30
0.0
 11
-9.210065825
 21
-13.604993556
 31
0.0
 11
-9.2141418164
 21
-13.559583889
 31
0.0
 11
-9.2262103531
 21
-13.5205894898
 31
0.0
 11
-9.2458054492
 21
-13.4895711932
 31
0.0
 11
-9.2721775613
 21
-13.4676801118
 31
0.0
  0
SPLINE
  5
569
100
AcDbEntity
  8
0
100
AcDbSpline
 62
7
  6
CONTINUOUS
 70
0
 71
3
 72
9
 73
5
 74
3
 42
0.0000001
 43
0.0000001
 44
0.0000000001
 12
0.0129566511
 22
-0.027918426
 32
0.0
 13
0.0000105599
 23
-0.0307784536
 33
0.0
 40
0.0
 40
0.0
 40
0.0
 40
0.0
 40
0.2573480985
 40
1.0
 40
1.0
 40
1.0
 40
1.0
 10
-2.1153742775
 20
-14.9706523525
 30
0.0
 10
-2.114262821
 20
-14.9730472704
 30
0.0
 10
-2.1104022043
 20
-14.9825560757
 30
0.0
 10
-2.1085595083
 20
-14.9929087584
 30
0.0
 10
-2.1085568942
 20
-15.0005279841
 30
0.0
 11
-2.1153742775
 21
-14.9706523525
 31
0.0
 11
-2.1124094192
 21
-14.9779973047
 31
0.0
 11
-2.1085568942
 21
-15.0005279841
 31
0.0
  0
SPLINE
  5
56A
100
AcDbEntity
  8
0
100
AcDbSpline
 62
7
  6
CONTINUOUS
 70
0
 71
3
 72
9
 73
5
 74
3
 42
0.0000001
 43
0.0000001
 44
0.0000000001
 12
-0.1872984818
 22
0.0289782105
 32
0.0
 13
-0.168159599
 23
-0.0874231504
 33
0.0
 40
0.0
 40
0.0
 40
0.0
 40
0.0
 40
0.5194866138
 40
1.0
 40
1.0
 40
1.0
 40
1.0
 10
-6.2310240414
 20
-12.59432776
 30
0.0
 10
-6.2634570594
 20
-12.5893098292
 30
0.0
 10
-6.32746829
 20
-12.5888184001
 30
0.0
 10
-6.3896819917
 20
-12.60604994
 30
0.0
 10
-6.4166163045
 20
-12.6200526046
 30
0.0
 11
-6.2310240414
 21
-12.59432776
 31
0.0
 11
-6.3294779217
 21
-12.5935820803
 31
0.0
 11
-6.4166163045
 21
-12.6200526046
 31
0.0
  0
SPLINE
  5
56B
100
AcDbEntity
  8
0
100
AcDbSpline
 62
7
  6
CONTINUOUS
 70
0
 71
3
 72
9
 73
5
 74
3
 42
0.0000001
 43
0.0000001
 44
0.0000000001
 12
-0.1872984818
 22
0.0289782105
 32
0.0
 13
-0.168159599
 23
-0.0874231504
 33
0.0
 40
0.0
 40
0.0
 40
0.0
 40
0.0
 40
0.5194866138
 40
1.0
 40
1.0
 40
1.0
 40
1.0
 10
9.6788785353
 20
-21.7805061099
 30
0.0
 10
9.6464455173
 20
-21.7754881791
 30
0.0
 10
9.5824342867
 20
-21.77499675
 30
0.0
 10
9.520220585
 20
-21.7922282898
 30
0.0
 10
9.4932862722
 20
-21.8062309545
 30
0.0
 11
9.6788785353
 21
-21.7805061099
 31
0.0
 11
9.580424655
 21
-21.7797604302
 31
0.0
 11
9.4932862722
 21
-21.8062309545
 31
0.0
  0
SPLINE
  5
56C
100
AcDbEntity
  8
0
100
AcDbSpline
 62
7
  6
CONTINUOUS
 70
0
 71
3
 72
9
 73
5
 74
3
 42
0.0000001
 43
0.0000001
 44
0.0000000001
 12
-0.0176950165
 22
0.0251728355
 32
0.0
 13
-0.0266417596
 23
0.0153948661
 33
0.0
 40
0.0
 40
0.0
 40
0.0
 40
0.0
 40
0.2573475234
 40
1.0
 40
1.0
 40
1.0
 40
1.0
 10
-14.1080494842
 20
5.8012702893
 30
0.0
 10
-14.1095674071
 20
5.8034296782
 30
0.0
 10
-14.1158702352
 20
5.8115251927
 30
0.0
 10
-14.1239121865
 20
5.8182955733
 30
0.0
 10
-14.1305073761
 20
5.8221065851
 30
0.0
 11
-14.1080494842
 21
5.8012702893
 31
0.0
 11
-14.1129266197
 21
5.8075086388
 31
0.0
 11
-14.1305073761
 21
5.8221065851
 31
0.0
  0
SPLINE
  5
56D
100
AcDbEntity
  8
0
100
AcDbSpline
 62
7
  6
CONTINUOUS
 70
0
 71
3
 72
11
 73
7
 74
5
 42
0.0000001
 43
0.0000001
 44
0.0000000001
 12
-0.1363215866
 22
0.0787103756
 32
0.0
 13
-0.1363216183
 23
-0.0787103206
 33
0.0
 40
0.0
 40
0.0
 40
0.0
 40
0.0
 40
0.2897063967
 40
0.5490922938
 40
0.7822195412
 40
1.0
 40
1.0
 40
1.0
 40
1.0
 10
-5.1795571722
 20
42.6666044185
 30
0.0
 10
-5.1927215841
 20
42.674205385
 30
0.0
 10
-5.2189095806
 20
42.6866652157
 30
0.0
 10
-5.2591615404
 20
42.6963872351
 30
0.0
 10
-5.296929755
 20
42.6954326034
 30
0.0
 10
-5.3196682762
 20
42.687180676
 30
0.0
 10
-5.3295643378
 20
42.6814668195
 30
0.0
 11
-5.1795571722
 21
42.6666044185
 31
0.0
 11
-5.2209312118
 21
42.6857845312
 31
0.0
 11
-5.2607469249
 21
42.6948321342
 31
0.0
 11
-5.2974150055
 21
42.6933681703
 31
0.0
 11
-5.3295643378
 21
42.6814668195
 31
0.0
  0
SPLINE
  5
56E
100
AcDbEntity
  8
0
100
AcDbSpline
 62
7
  6
CONTINUOUS
 70
0
 71
3
 72
11
 73
7
 74
5
 42
0.0000001
 43
0.0000001
 44
0.0000000001
 12
0.0
 22
0.4397542745
 32
0.0
 13
-0.3808322389
 23
0.2198877618
 33
0.0
 40
0.0
 40
0.0
 40
0.0
 40
0.0
 40
0.2372324595
 40
0.4999938932
 40
0.7627586504
 40
1.0
 40
1.0
 40
1.0
 40
1.0
 10
5.63917658
 20
36.1750620576
 30
0.0
 10
5.63917658
 20
36.2098367203
 30
0.0
 10
5.6261327084
 20
36.2831754078
 30
0.0
 10
5.5806710372
 20
36.38623014
 30
0.0
 10
5.5141529406
 20
36.4771294208
 30
0.0
 10
5.4571609304
 20
36.5250966955
 30
0.0
 10
5.4270445456
 20
36.5424855186
 30
0.0
 11
5.63917658
 21
36.1750620576
 31
0.0
 11
5.6230264257
 21
36.278128381
 31
0.0
 11
5.5770445456
 21
36.3841358163
 31
0.0
 11
5.508229618
 21
36.4769622843
 31
0.0
 11
5.4270445456
 21
36.5424855186
 31
0.0
  0
SPLINE
  5
56F
100
AcDbEntity
  8
0
100
AcDbSpline
 62
7
  6
CONTINUOUS
 70
0
 71
3
 72
11
 73
7
 74
5
 42
0.0000001
 43
0.0000001
 44
0.0000000001
 12
-0.1363215866
 22
0.0787103756
 32
0.0
 13
-0.1363216183
 23
-0.0787103206
 33
0.0
 40
0.0
 40
0.0
 40
0.0
 40
0.0
 40
0.2897063967
 40
0.5490922938
 40
0.7822195412
 40
1.0
 40
1.0
 40
1.0
 40
1.0
 10
10.7303454045
 20
33.4804260687
 30
0.0
 10
10.7171809926
 20
33.4880270351
 30
0.0
 10
10.6909929961
 20
33.5004868658
 30
0.0
 10
10.6507410363
 20
33.5102088852
 30
0.0
 10
10.6129728217
 20
33.5092542535
 30
0.0
 10
10.5902343005
 20
33.5010023262
 30
0.0
 10
10.5803382389
 20
33.4952884696
 30
0.0
 11
10.7303454045
 21
33.4804260687
 31
0.0
 11
10.6889713649
 21
33.4996061813
 31
0.0
 11
10.6491556518
 21
33.5086537843
 31
0.0
 11
10.6124875712
 21
33.5071898204
 31
0.0
 11
10.5803382389
 21
33.4952884696
 31
0.0
  0
SPLINE
  5
570
100
AcDbEntity
  8
0
100
AcDbSpline
 62
7
  6
CONTINUOUS
 70
0
 71
3
 72
11
 73
7
 74
5
 42
0.0000001
 43
0.0000001
 44
0.0000000001
 12
0.0
 22
0.4397542745
 32
0.0
 13
-0.3808322389
 23
0.2198877618
 33
0.0
 40
0.0
 40
0.0
 40
0.0
 40
0.0
 40
0.2372324595
 40
0.4999938932
 40
0.7627586504
 40
1.0
 40
1.0
 40
1.0
 40
1.0
 10
-10.2707259967
 20
45.3612404075
 30
0.0
 10
-10.2707259967
 20
45.3960150702
 30
0.0
 10
-10.2837698683
 20
45.4693537577
 30
0.0
 10
-10.3292315395
 20
45.5724084899
 30
0.0
 10
-10.3957496361
 20
45.6633077707
 30
0.0
 10
-10.4527416463
 20
45.7112750454
 30
0.0
 10
-10.4828580311
 20
45.7286638685
 30
0.0
 11
-10.2707259967
 21
45.3612404075
 31
0.0
 11
-10.286876151
 21
45.4643067309
 31
0.0
 11
-10.3328580311
 21
45.5703141662
 31
0.0
 11
-10.4016729587
 21
45.6631406341
 31
0.0
 11
-10.4828580311
 21
45.7286638685
 31
0.0
  0
SPLINE
  5
571
100
AcDbEntity
  8
SUPERFICI
100
AcDbSpline
 62
7
  6
CONTINUOUS
 70
0
 71
3
 72
9
 73
5
 74
3
 42
0.0000001
 43
0.0000001
 44
0.0000000001
 12
-0.0685559615
 22
-0.1766939093
 32
0.0
 13
-0.1597856713
 23
-0.1019274089
 33
0.0
 40
0.0
 40
0.0
 40
0.0
 40
0.0
 40
0.5194818691
 40
1.0
 40
1.0
 40
1.0
 40
1.0
 10
-14.1080494842
 20
19.419661618
 30
0.0
 10
-14.1199206772
 20
19.3890651906
 30
0.0
 10
-14.1515009286
 20
19.333384255
 30
0.0
 10
-14.1975292454
 20
19.2881200444
 30
0.0
 10
-14.2231225495
 20
19.2717940551
 30
0.0
 11
-14.1080494842
 21
19.419661618
 31
0.0
 11
-14.1566303886
 21
19.3340257897
 31
0.0
 11
-14.2231225495
 21
19.2717940551
 31
0.0
  0
SPLINE
  5
572
100
AcDbEntity
  8
0
100
AcDbSpline
 62
7
  6
CONTINUOUS
 70
0
 71
3
 72
9
 73
5
 74
3
 42
0.0000001
 43
0.0000001
 44
0.0000000001
 12
-0.1872983895
 22
0.0289781452
 32
0.0
 13
-0.1681595093
 23
-0.0874231038
 33
0.0
 40
0.0
 40
0.0
 40
0.0
 40
0.0
 40
0.5194838115
 40
1.0
 40
1.0
 40
1.0
 40
1.0
 10
9.6788784355
 20
36.1888836
 30
0.0
 10
9.6464456084
 20
36.1939014924
 30
0.0
 10
9.5824344287
 20
36.1943928893
 30
0.0
 10
9.5202207277
 20
36.1771614366
 30
0.0
 10
9.4932862722
 20
36.1631586978
 30
0.0
 11
9.6788784355
 21
36.1888836
 31
0.0
 11
9.5804251389
 21
36.1896292889
 31
0.0
 11
9.4932862722
 21
36.1631586978
 31
0.0
  0
SPLINE
  5
573
100
AcDbEntity
  8
0
100
AcDbSpline
 62
7
  6
CONTINUOUS
 70
0
 71
3
 72
9
 73
5
 74
3
 42
0.0000001
 43
0.0000001
 44
0.0000000001
 12
0.0129567377
 22
-0.0279185634
 32
0.0
 13
0.0000104429
 23
-0.0307786148
 33
0.0
 40
0.0
 40
0.0
 40
0.0
 40
0.0
 40
0.2573489508
 40
1.0
 40
1.0
 40
1.0
 40
1.0
 10
-2.1153743741
 20
42.9987373556
 30
0.0
 10
-2.1142629065
 20
42.9963424179
 30
0.0
 10
-2.1104022414
 20
42.9868335777
 30
0.0
 10
-2.1085594763
 20
42.9764808401
 30
0.0
 10
-2.1085568912
 20
42.9688615832
 30
0.0
 11
-2.1153743741
 21
42.9987373556
 31
0.0
 11
-2.1124094727
 21
42.9913923478
 31
0.0
 11
-2.1085568912
 21
42.9688615832
 31
0.0
  0
SPLINE
  5
574
100
AcDbEntity
  8
0
100
AcDbSpline
 62
7
  6
CONTINUOUS
 70
0
 71
3
 72
9
 73
5
 74
3
 42
0.0000001
 43
0.0000001
 44
0.0000000001
 12
-0.1872983895
 22
0.0289781452
 32
0.0
 13
-0.1681595093
 23
-0.0874231038
 33
0.0
 40
0.0
 40
0.0
 40
0.0
 40
0.0
 40
0.5194838115
 40
1.0
 40
1.0
 40
1.0
 40
1.0
 10
-6.2310241412
 20
45.3750619499
 30
0.0
 10
-6.2634569683
 20
45.3800798423
 30
0.0
 10
-6.327468148
 20
45.3805712392
 30
0.0
 10
-6.389681849
 20
45.3633397865
 30
0.0
 10
-6.4166163045
 20
45.3493370477
 30
0.0
 11
-6.2310241412
 21
45.3750619499
 31
0.0
 11
-6.3294774378
 21
45.3758076388
 31
0.0
 11
-6.4166163045
 21
45.3493370477
 31
0.0
  0
SPLINE
  5
575
100
AcDbEntity
  8
0
100
AcDbSpline
 62
7
  6
CONTINUOUS
 70
0
 71
3
 72
11
 73
7
 74
5
 42
0.0000001
 43
0.0000001
 44
0.0000000001
 12
0.1363067843
 22
-0.0787018289
 32
0.0
 13
0.0000100109
 23
-0.1573960521
 33
0.0
 40
0.0
 40
0.0
 40
0.0
 40
0.0
 40
0.2896992277
 40
0.5490741134
 40
0.7822095664
 40
1.0
 40
1.0
 40
1.0
 40
1.0
 10
-16.4727537595
 20
56.9437405854
 30
0.0
 10
-16.4595911028
 20
56.9361406324
 30
0.0
 10
-16.4357105459
 20
56.9196926167
 30
0.0
 10
-16.4071696967
 20
56.8896968585
 30
0.0
 10
-16.3891138891
 20
56.856515443
 30
0.0
 10
-16.38488659
 20
56.8326998442
 30
0.0
 10
-16.3848858632
 20
56.8212733927
 30
0.0
 11
-16.4727537595
 21
56.9437405854
 31
0.0
 11
-16.4354623678
 21
56.9175015788
 31
0.0
 11
-16.4077240745
 21
56.8875477198
 31
0.0
 11
-16.3906578246
 21
56.8550633114
 31
0.0
 11
-16.3848858632
 21
56.8212733927
 31
0.0
  0
SPLINE
  5
576
100
AcDbEntity
  8
0
100
AcDbSpline
 62
7
  6
CONTINUOUS
 70
0
 71
3
 72
9
 73
5
 74
3
 42
0.0000001
 43
0.0000001
 44
0.0000000001
 12
-0.0685559625
 22
-0.1766939117
 32
0.0
 13
-0.1597856735
 23
-0.1019274103
 33
0.0
 40
0.0
 40
0.0
 40
0.0
 40
0.0
 40
0.5194847149
 40
1.0
 40
1.0
 40
1.0
 40
1.0
 10
-14.1080494842
 20
1.0490803919
 30
0.0
 10
-14.1199207424
 20
1.0184837965
 30
0.0
 10
-14.151501041
 20
0.9628028677
 30
0.0
 10
-14.1975293966
 20
0.9175387201
 30
0.0
 10
-14.2231225495
 20
0.9012128272
 30
0.0
 11
-14.1080494842
 21
1.0490803919
 31
0.0
 11
-14.156630723
 21
0.9634441317
 31
0.0
 11
-14.2231225495
 21
0.9012128272
 31
0.0
  0
LINE
  5
577
100
AcDbEntity
  8
ASSI
100
AcDbLine
 62
7
  6
CONTINUOUS
 10
-2.1599282431
 20
-72.9657773559
 11
-2.1085568118
 21
-72.9361115757
  0
SPLINE
  5
578
100
AcDbEntity
  8
0
100
AcDbSpline
 62
7
  6
CONTINUOUS
 70
0
 71
3
 72
11
 73
7
 74
5
 42
0.0000001
 43
0.0000001
 44
0.0000000001
 12
0.1314847245
 22
0.0786150093
 32
0.0
 13
-0.0000097437
 23
0.153194492
 33
0.0
 40
0.0
 40
0.0
 40
0.0
 40
0.0
 40
0.2886857515
 40
0.5477014767
 40
0.781242467
 40
1.0
 40
1.0
 40
1.0
 40
1.0
 10
-16.4690838538
 20
-59.2378472083
 30
0.0
 10
-16.4564312649
 20
-59.2302821973
 30
0.0
 10
-16.4334897024
 20
-59.2139684295
 30
0.0
 10
-16.406150372
 20
-59.1844375647
 30
0.0
 10
-16.388902499
 20
-59.1519237597
 30
0.0
 10
-16.3848851527
 20
-59.1286767282
 30
0.0
 10
-16.3848858632
 20
-59.1175059119
 30
0.0
 11
-16.4690838538
 21
-59.2378472083
 31
0.0
 11
-16.4332956625
 21
-59.2118652544
 31
0.0
 11
-16.4067226677
 21
-59.1823972873
 31
0.0
 11
-16.3903969527
 21
-59.1505621086
 31
0.0
 11
-16.3848858632
 21
-59.1175059119
 31
0.0
  0
SPLINE
  5
579
100
AcDbEntity
  8
SUPERFICI
100
AcDbSpline
 62
7
  6
CONTINUOUS
 70
0
 71
3
 72
11
 73
7
 74
5
 42
0.0000001
 43
0.0000001
 44
0.0000000001
 12
-0.0000096035
 22
-0.1531801551
 32
0.0
 13
-0.1314724194
 23
-0.0786076521
 33
0.0
 40
0.0
 40
0.0
 40
0.0
 40
0.0
 40
0.2187656471
 40
0.4523170119
 40
0.7113236986
 40
1.0
 40
1.0
 40
1.0
 40
1.0
 10
-15.3534097047
 20
-8.9286700281
 30
0.0
 10
-15.353410405
 20
-8.9398402133
 30
0.0
 10
-15.3574311766
 20
-8.9630853753
 30
0.0
 10
-15.3746805356
 20
-8.9955946847
 30
0.0
 10
-15.4020174922
 20
-9.0251219446
 30
0.0
 10
-15.4249567331
 20
-9.0414327814
 30
0.0
 10
-15.4376077237
 20
-9.0489968368
 30
0.0
 11
-15.3534097047
 21
-8.9286700281
 31
0.0
 11
-15.3589249819
 21
-8.9617236068
 31
0.0
 11
-15.3752528677
 21
-8.9935556952
 31
0.0
 11
-15.4018234972
 21
-9.0230189305
 31
0.0
 11
-15.4376077237
 21
-9.0489968368
 31
0.0
  0
SPLINE
  5
57A
100
AcDbEntity
  8
SUPERFICI
100
AcDbSpline
 62
7
  6
CONTINUOUS
 70
0
 71
3
 72
11
 73
7
 74
5
 42
0.0000001
 43
0.0000001
 44
0.0000000001
 12
-0.1363196019
 22
0.078710191
 32
0.0
 13
-0.1363200182
 23
-0.07870947
 33
0.0
 40
0.0
 40
0.0
 40
0.0
 40
0.0
 40
0.2177888736
 40
0.4509249731
 40
0.7103011198
 40
1.0
 40
1.0
 40
1.0
 40
1.0
 10
-15.5034040732
 20
-8.6688663377
 30
0.0
 10
-15.5133003707
 20
-8.6631522697
 30
0.0
 10
-15.5360400132
 20
-8.6549011651
 30
0.0
 10
-15.5738080235
 20
-8.6539475417
 30
0.0
 10
-15.6140592262
 20
-8.6636688534
 30
0.0
 10
-15.6402457449
 20
-8.6761289609
 30
0.0
 10
-15.6534096638
 20
-8.6837296426
 30
0.0
 11
-15.5034040732
 21
-8.6688663377
 31
0.0
 11
-15.5355545955
 21
-8.6569655221
 31
0.0
 11
-15.5722236839
 21
-8.6555024548
 31
0.0
 11
-15.6120374175
 21
-8.6645497222
 31
0.0
 11
-15.6534096638
 21
-8.6837296426
 31
0.0
  0
SPLINE
  5
57B
100
AcDbEntity
  8
SUPERFICI
100
AcDbSpline
 62
7
  6
CONTINUOUS
 70
0
 71
3
 72
11
 73
7
 74
5
 42
0.0000001
 43
0.0000001
 44
0.0000000001
 12
-0.132665165
 22
0.0766104009
 32
0.0
 13
-0.1338225329
 23
-0.0745702972
 33
0.0
 40
0.0
 40
0.0
 40
0.0
 40
0.0
 40
0.2187478139
 40
0.4522842438
 40
0.711303178
 40
1.0
 40
1.0
 40
1.0
 40
1.0
 10
-9.2721775613
 20
-13.4676801118
 30
0.0
 10
-9.2818509663
 20
-13.4620939926
 30
0.0
 10
-9.3039919301
 20
-13.4539497515
 30
0.0
 10
-9.3407737347
 20
-13.4526316018
 30
0.0
 10
-9.3800183838
 20
-13.4615453536
 30
0.0
 10
-9.4056175982
 20
-13.4732584752
 30
0.0
 10
-9.4184956448
 20
-13.4804345444
 30
0.0
 11
-9.2721775613
 21
-13.4676801118
 31
0.0
 11
-9.3035596361
 21
-13.4559250786
 31
0.0
 11
-9.3392924308
 21
-13.4541473679
 31
0.0
 11
-9.3780994802
 21
-13.4624287014
 31
0.0
 11
-9.4184956448
 21
-13.4804345444
 31
0.0
  0
SPLINE
  5
57C
100
AcDbEntity
  8
0
100
AcDbSpline
 62
7
  6
CONTINUOUS
 70
0
 71
3
 72
9
 73
5
 74
3
 42
0.0000001
 43
0.0000001
 44
0.0000000001
 12
-0.0829536601
 22
0.04793454
 32
0.0
 13
-0.0851104445
 23
-0.0439913866
 33
0.0
 40
0.0
 40
0.0
 40
0.0
 40
0.0
 40
0.4536581777
 40
1.0
 40
1.0
 40
1.0
 40
1.0
 10
-14.1305073761
 20
5.8221065851
 30
0.0
 10
-14.1430515782
 20
5.8293552171
 30
0.0
 10
-14.1766343067
 20
5.8353903723
 30
0.0
 10
-14.207622751
 20
5.8242659208
 30
0.0
 10
-14.2231225495
 20
5.8162544761
 30
0.0
 11
-14.1305073761
 21
5.8221065851
 31
0.0
 11
-14.1729878185
 21
5.8312994666
 31
0.0
 11
-14.2231225495
 21
5.8162544761
 31
0.0
  0
SPLINE
  5
57D
100
AcDbEntity
  8
0
100
AcDbSpline
 62
7
  6
CONTINUOUS
 70
0
 71
3
 72
9
 73
5
 74
3
 42
0.0000001
 43
0.0000001
 44
0.0000000001
 12
0.0000328704
 22
-0.0958059527
 32
0.0
 13
-0.0806486785
 23
-0.0517162673
 33
0.0
 40
0.0
 40
0.0
 40
0.0
 40
0.0
 40
0.4536727535
 40
1.0
 40
1.0
 40
1.0
 40
1.0
 10
-2.1085568942
 20
-15.0005279841
 30
0.0
 10
-2.1085519234
 20
-15.0150161675
 30
0.0
 10
-2.120115079
 20
-15.0471167192
 30
0.0
 10
-2.1452413863
 20
-15.0683929405
 30
0.0
 10
-2.1599282431
 20
-15.0778109425
 30
0.0
 11
-2.1085568942
 21
-15.0005279841
 31
0.0
 11
-2.1218352546
 21
-15.0419146064
 31
0.0
 11
-2.1599282431
 21
-15.0778109425
 31
0.0
  0
SPLINE
  5
57E
100
AcDbEntity
  8
0
100
AcDbSpline
 62
7
  6
CONTINUOUS
 70
0
 71
3
 72
11
 73
7
 74
5
 42
0.0000001
 43
0.0000001
 44
0.0000000001
 12
0.3845332045
 22
-0.214406715
 32
0.0
 13
0.0000000002
 23
-0.4402681283
 33
0.0
 40
0.0
 40
0.0
 40
0.0
 40
0.0
 40
0.2382948755
 40
0.5011054867
 40
0.7633135658
 40
1.0
 40
1.0
 40
1.0
 40
1.0
 10
-15.6534096638
 20
-66.653119295
 30
0.0
 10
-15.6228655664
 20
-66.6701499688
 30
0.0
 10
-15.5649488796
 20
-66.7174148777
 30
0.0
 10
-15.497188903
 20
-66.8076983884
 30
0.0
 10
-15.4508743346
 20
-66.910382691
 30
0.0
 10
-15.4376077237
 20
-66.9836513246
 30
0.0
 10
-15.4376077237
 20
-67.0183864891
 30
0.0
 11
-15.6534096638
 21
-66.653119295
 31
0.0
 11
-15.5708200811
 21
-66.7178173046
 31
0.0
 11
-15.5008146486
 21
-66.8099442861
 31
0.0
 11
-15.4540372769
 21
-66.9154843286
 31
0.0
 11
-15.4376077237
 21
-67.0183864891
 31
0.0
  0
SPLINE
  5
57F
100
AcDbEntity
  8
0
100
AcDbSpline
 62
7
  6
CONTINUOUS
 70
0
 71
3
 72
11
 73
7
 74
5
 42
0.0000001
 43
0.0000001
 44
0.0000000001
 12
-0.132665165
 22
0.0766104009
 32
0.0
 13
-0.1338225329
 23
-0.0745702972
 33
0.0
 40
0.0
 40
0.0
 40
0.0
 40
0.0
 40
0.2187478139
 40
0.4522842438
 40
0.711303178
 40
1.0
 40
1.0
 40
1.0
 40
1.0
 10
-9.2721775613
 20
-71.4370697641
 30
0.0
 10
-9.2818509663
 20
-71.4314836448
 30
0.0
 10
-9.3039919301
 20
-71.4233394038
 30
0.0
 10
-9.3407737347
 20
-71.4220212541
 30
0.0
 10
-9.3800183838
 20
-71.4309350059
 30
0.0
 10
-9.4056175982
 20
-71.4426481275
 30
0.0
 10
-9.4184956448
 20
-71.4498241967
 30
0.0
 11
-9.2721775613
 21
-71.4370697641
 31
0.0
 11
-9.3035596361
 21
-71.4253147309
 31
0.0
 11
-9.3392924308
 21
-71.4235370202
 31
0.0
 11
-9.3780994802
 21
-71.4318183537
 31
0.0
 11
-9.4184956448
 21
-71.4498241967
 31
0.0
  0
SPLINE
  5
580
100
AcDbEntity
  8
0
100
AcDbSpline
 62
7
  6
CONTINUOUS
 70
0
 71
3
 72
11
 73
7
 74
5
 42
0.0000001
 43
0.0000001
 44
0.0000000001
 12
0.1363216183
 22
0.0787103206
 32
0.0
 13
0.1363215866
 23
-0.0787103756
 33
0.0
 40
0.0
 40
0.0
 40
0.0
 40
0.0
 40
0.2177804588
 40
0.4509077062
 40
0.7102936033
 40
1.0
 40
1.0
 40
1.0
 40
1.0
 10
10.014652814
 20
33.1686687949
 30
0.0
 10
10.0245488755
 20
33.1743826515
 30
0.0
 10
10.0472873967
 20
33.1826345788
 30
0.0
 10
10.0850556113
 20
33.1835892106
 30
0.0
 10
10.1253075712
 20
33.1738671911
 30
0.0
 10
10.1514955677
 20
33.1614073604
 30
0.0
 10
10.1646599796
 20
33.153806394
 30
0.0
 11
10.014652814
 21
33.1686687949
 31
0.0
 11
10.0468021462
 21
33.1805701458
 31
0.0
 11
10.0834702268
 21
33.1820341097
 31
0.0
 11
10.1232859399
 21
33.1729865067
 31
0.0
 11
10.1646599796
 21
33.153806394
 31
0.0
  0
SPLINE
  5
581
100
AcDbEntity
  8
0
100
AcDbSpline
 62
7
  6
CONTINUOUS
 70
0
 71
3
 72
11
 73
7
 74
5
 42
0.0000001
 43
0.0000001
 44
0.0000000001
 12
0.1363216183
 22
0.0787103206
 32
0.0
 13
0.1363215866
 23
-0.0787103756
 33
0.0
 40
0.0
 40
0.0
 40
0.0
 40
0.0
 40
0.2177804588
 40
0.4509077062
 40
0.7102936033
 40
1.0
 40
1.0
 40
1.0
 40
1.0
 10
-5.8952497627
 20
42.3548471448
 30
0.0
 10
-5.8853537012
 20
42.3605610014
 30
0.0
 10
-5.86261518
 20
42.3688129287
 30
0.0
 10
-5.8248469654
 20
42.3697675604
 30
0.0
 10
-5.7845950055
 20
42.360045541
 30
0.0
 10
-5.758407009
 20
42.3475857103
 30
0.0
 10
-5.7452425971
 20
42.3399847439
 30
0.0
 11
-5.8952497627
 21
42.3548471448
 31
0.0
 11
-5.8631004305
 21
42.3667484956
 31
0.0
 11
-5.8264323499
 21
42.3682124596
 31
0.0
 11
-5.7866166368
 21
42.3591648565
 31
0.0
 11
-5.7452425971
 21
42.3399847439
 31
0.0
  0
SPLINE
  5
582
100
AcDbEntity
  8
0
100
AcDbSpline
 62
7
  6
CONTINUOUS
 70
0
 71
3
 72
11
 73
7
 74
5
 42
0.0000001
 43
0.0000001
 44
0.0000000001
 12
-0.1363196019
 22
0.078710191
 32
0.0
 13
-0.1363200182
 23
-0.07870947
 33
0.0
 40
0.0
 40
0.0
 40
0.0
 40
0.0
 40
0.2177888736
 40
0.4509249731
 40
0.7103011198
 40
1.0
 40
1.0
 40
1.0
 40
1.0
 10
-15.5034040732
 20
-66.63825599
 30
0.0
 10
-15.5133003707
 20
-66.632541922
 30
0.0
 10
-15.5360400132
 20
-66.6242908174
 30
0.0
 10
-15.5738080235
 20
-66.623337194
 30
0.0
 10
-15.6140592262
 20
-66.6330585057
 30
0.0
 10
-15.6402457449
 20
-66.6455186132
 30
0.0
 10
-15.6534096638
 20
-66.6531192949
 30
0.0
 11
-15.5034040732
 21
-66.63825599
 31
0.0
 11
-15.5355545955
 21
-66.6263551744
 31
0.0
 11
-15.5722236839
 21
-66.6248921071
 31
0.0
 11
-15.6120374175
 21
-66.6339393745
 31
0.0
 11
-15.6534096638
 21
-66.6531192949
 31
0.0
  0
SPLINE
  5
583
100
AcDbEntity
  8
SUPERFICI
100
AcDbSpline
 62
7
  6
CONTINUOUS
 70
0
 71
3
 72
11
 73
7
 74
5
 42
0.0000001
 43
0.0000001
 44
0.0000000001
 12
-0.1363215866
 22
0.0787103756
 32
0.0
 13
-0.1363216183
 23
-0.0787103206
 33
0.0
 40
0.0
 40
0.0
 40
0.0
 40
0.0
 40
0.2897063967
 40
0.5490922938
 40
0.7822195412
 40
1.0
 40
1.0
 40
1.0
 40
1.0
 10
10.1646599796
 20
-24.8155832583
 30
0.0
 10
10.1514955677
 20
-24.8079822919
 30
0.0
 10
10.1253075712
 20
-24.7955224611
 30
0.0
 10
10.0850556113
 20
-24.7858004417
 30
0.0
 10
10.0472873967
 20
-24.7867550734
 30
0.0
 10
10.0245488755
 20
-24.7950070008
 30
0.0
 10
10.014652814
 20
-24.8007208574
 30
0.0
 11
10.1646599796
 21
-24.8155832583
 31
0.0
 11
10.1232859399
 21
-24.7964031456
 31
0.0
 11
10.0834702268
 21
-24.7873555426
 31
0.0
 11
10.0468021462
 21
-24.7888195065
 31
0.0
 11
10.014652814
 21
-24.8007208574
 31
0.0
  0
SPLINE
  5
584
100
AcDbEntity
  8
SUPERFICI
100
AcDbSpline
 62
7
  6
CONTINUOUS
 70
0
 71
3
 72
11
 73
7
 74
5
 42
0.0000001
 43
0.0000001
 44
0.0000000001
 12
-0.0464961916
 22
0.4013114562
 32
0.0
 13
-0.3498651772
 23
0.2020077685
 33
0.0
 40
0.0
 40
0.0
 40
0.0
 40
0.0
 40
0.2455415948
 40
0.5082744478
 40
0.7665682291
 40
1.0
 40
1.0
 40
1.0
 40
1.0
 10
-10.8385650078
 20
-12.898759754
 30
0.0
 10
-10.8423705908
 20
-12.8659135357
 30
0.0
 10
-10.8597955452
 20
-12.7989256307
 30
0.0
 10
-10.9063235941
 20
-12.7060494341
 30
0.0
 10
-10.9692788826
 20
-12.625482328
 30
0.0
 10
-11.0213202401
 20
-12.5830638022
 30
0.0
 10
-11.048543456
 20
-12.5673454585
 30
0.0
 11
-10.8385650078
 21
-12.898759754
 31
0.0
 11
-10.8623393676
 21
-12.8024530123
 31
0.0
 11
-10.9096067867
 21
-12.7074154775
 31
0.0
 11
-10.9743912509
 21
-12.6256119053
 31
0.0
 11
-11.048543456
 21
-12.5673454585
 31
0.0
  0
SPLINE
  5
585
100
AcDbEntity
  8
SUPERFICI
100
AcDbSpline
 62
7
  6
CONTINUOUS
 70
0
 71
3
 72
11
 73
7
 74
5
 42
0.0000001
 43
0.0000001
 44
0.0000000001
 12
-0.1363215866
 22
0.0787103756
 32
0.0
 13
-0.1363216183
 23
-0.0787103206
 33
0.0
 40
0.0
 40
0.0
 40
0.0
 40
0.0
 40
0.2897063967
 40
0.5490922938
 40
0.7822195412
 40
1.0
 40
1.0
 40
1.0
 40
1.0
 10
-5.7452425971
 20
-15.6294049084
 30
0.0
 10
-5.758407009
 20
-15.621803942
 30
0.0
 10
-5.7845950055
 20
-15.6093441113
 30
0.0
 10
-5.8248469654
 20
-15.5996220918
 30
0.0
 10
-5.86261518
 20
-15.6005767236
 30
0.0
 10
-5.8853537012
 20
-15.6088286509
 30
0.0
 10
-5.8952497627
 20
-15.6145425075
 30
0.0
 11
-5.7452425971
 21
-15.6294049084
 31
0.0
 11
-5.7866166368
 21
-15.6102247958
 31
0.0
 11
-5.8264323499
 21
-15.6011771927
 31
0.0
 11
-5.8631004305
 21
-15.6026411566
 31
0.0
 11
-5.8952497627
 21
-15.6145425075
 31
0.0
  0
SPLINE
  5
586
100
AcDbEntity
  8
SUPERFICI
100
AcDbSpline
 62
7
  6
CONTINUOUS
 70
0
 71
3
 72
11
 73
7
 74
5
 42
0.0000001
 43
0.0000001
 44
0.0000000001
 12
-0.0464961916
 22
0.4013114562
 32
0.0
 13
-0.3498651772
 23
0.2020077685
 33
0.0
 40
0.0
 40
0.0
 40
0.0
 40
0.0
 40
0.2455415948
 40
0.5082744478
 40
0.7665682291
 40
1.0
 40
1.0
 40
1.0
 40
1.0
 10
5.0713375689
 20
-22.0849381039
 30
0.0
 10
5.0675319859
 20
-22.0520918856
 30
0.0
 10
5.0501070315
 20
-21.9851039806
 30
0.0
 10
5.0035789826
 20
-21.892227784
 30
0.0
 10
4.940623694
 20
-21.8116606779
 30
0.0
 10
4.8885823366
 20
-21.769242152
 30
0.0
 10
4.8613591207
 20
-21.7535238083
 30
0.0
 11
5.0713375689
 21
-22.0849381039
 31
0.0
 11
5.0475632091
 21
-21.9886313622
 31
0.0
 11
5.00029579
 21
-21.8935938274
 31
0.0
 11
4.9355113258
 21
-21.8117902551
 31
0.0
 11
4.8613591207
 21
-21.7535238083
 31
0.0
  0
SPLINE
  5
587
100
AcDbEntity
  8
0
100
AcDbSpline
 62
7
  6
CONTINUOUS
 70
0
 71
3
 72
11
 73
7
 74
5
 42
0.0000001
 43
0.0000001
 44
0.0000000001
 12
-0.0000096035
 22
-0.1531801551
 32
0.0
 13
-0.1314724194
 23
-0.0786076521
 33
0.0
 40
0.0
 40
0.0
 40
0.0
 40
0.0
 40
0.2187656471
 40
0.4523170119
 40
0.7113236986
 40
1.0
 40
1.0
 40
1.0
 40
1.0
 10
-15.3534097047
 20
-66.8980596804
 30
0.0
 10
-15.353410405
 20
-66.9092298656
 30
0.0
 10
-15.3574311766
 20
-66.9324750276
 30
0.0
 10
-15.3746805356
 20
-66.964984337
 30
0.0
 10
-15.4020174922
 20
-66.9945115969
 30
0.0
 10
-15.4249567331
 20
-67.0108224337
 30
0.0
 10
-15.4376077237
 20
-67.0183864891
 30
0.0
 11
-15.3534097047
 21
-66.8980596804
 31
0.0
 11
-15.3589249819
 21
-66.9311132591
 31
0.0
 11
-15.3752528677
 21
-66.9629453475
 31
0.0
 11
-15.4018234972
 21
-66.9924085828
 31
0.0
 11
-15.4376077237
 21
-67.0183864891
 31
0.0
  0
SPLINE
  5
588
100
AcDbEntity
  8
SUPERFICI
100
AcDbSpline
 62
7
  6
CONTINUOUS
 70
0
 71
3
 72
11
 73
7
 74
5
 42
0.0000001
 43
0.0000001
 44
0.0000000001
 12
0.1314847245
 22
0.0786150093
 32
0.0
 13
-0.0000097437
 23
0.153194492
 33
0.0
 40
0.0
 40
0.0
 40
0.0
 40
0.0
 40
0.2886857515
 40
0.5477014767
 40
0.781242467
 40
1.0
 40
1.0
 40
1.0
 40
1.0
 10
-16.4690838538
 20
-1.268457556
 30
0.0
 10
-16.4564312649
 20
-1.260892545
 30
0.0
 10
-16.4334897024
 20
-1.2445787772
 30
0.0
 10
-16.406150372
 20
-1.2150479124
 30
0.0
 10
-16.388902499
 20
-1.1825341074
 30
0.0
 10
-16.3848851527
 20
-1.159287076
 30
0.0
 10
-16.3848858632
 20
-1.1481162596
 30
0.0
 11
-16.4690838538
 21
-1.268457556
 31
0.0
 11
-16.4332956625
 21
-1.2424756022
 31
0.0
 11
-16.4067226677
 21
-1.213007635
 31
0.0
 11
-16.3903969527
 21
-1.1811724563
 31
0.0
 11
-16.3848858632
 21
-1.1481162596
 31
0.0
  0
SPLINE
  5
589
100
AcDbEntity
  8
0
100
AcDbSpline
 62
7
  6
CONTINUOUS
 70
0
 71
3
 72
11
 73
7
 74
5
 42
0.0000001
 43
0.0000001
 44
0.0000000001
 12
-0.1363196018
 22
0.078710191
 32
0.0
 13
-0.1363200181
 23
-0.07870947
 33
0.0
 40
0.0
 40
0.0
 40
0.0
 40
0.0
 40
0.2177888735
 40
0.4509249731
 40
0.7103011198
 40
1.0
 40
1.0
 40
1.0
 40
1.0
 10
-15.5034040732
 20
49.3005233146
 30
0.0
 10
-15.5133003707
 20
49.3062373826
 30
0.0
 10
-15.5360400132
 20
49.3144884872
 30
0.0
 10
-15.5738080235
 20
49.3154421106
 30
0.0
 10
-15.6140592262
 20
49.3057207989
 30
0.0
 10
-15.6402457449
 20
49.2932606914
 30
0.0
 10
-15.6534096638
 20
49.2856600096
 30
0.0
 11
-15.5034040732
 21
49.3005233146
 31
0.0
 11
-15.5355545955
 21
49.3124241302
 31
0.0
 11
-15.5722236838
 21
49.3138871975
 31
0.0
 11
-15.6120374175
 21
49.3048399301
 31
0.0
 11
-15.6534096638
 21
49.2856600096
 31
0.0
  0
SPLINE
  5
58A
100
AcDbEntity
  8
0
100
AcDbSpline
 62
7
  6
CONTINUOUS
 70
0
 71
3
 72
11
 73
7
 74
5
 42
0.0000001
 43
0.0000001
 44
0.0000000001
 12
-0.0000096035
 22
-0.1531801552
 32
0.0
 13
-0.1314724194
 23
-0.0786076521
 33
0.0
 40
0.0
 40
0.0
 40
0.0
 40
0.0
 40
0.2187656472
 40
0.4523170119
 40
0.7113236985
 40
1.0
 40
1.0
 40
1.0
 40
1.0
 10
-15.3534097047
 20
49.0407196242
 30
0.0
 10
-15.353410405
 20
49.029549439
 30
0.0
 10
-15.3574311766
 20
49.006304277
 30
0.0
 10
-15.3746805357
 20
48.9737949676
 30
0.0
 10
-15.4020174922
 20
48.9442677077
 30
0.0
 10
-15.4249567331
 20
48.9279568709
 30
0.0
 10
-15.4376077237
 20
48.9203928154
 30
0.0
 11
-15.3534097047
 21
49.0407196242
 31
0.0
 11
-15.3589249819
 21
49.0076660454
 31
0.0
 11
-15.3752528677
 21
48.9758339571
 31
0.0
 11
-15.4018234972
 21
48.9463707218
 31
0.0
 11
-15.4376077237
 21
48.9203928154
 31
0.0
  0
SPLINE
  5
58B
100
AcDbEntity
  8
0
100
AcDbSpline
 62
7
  6
CONTINUOUS
 70
0
 71
3
 72
11
 73
7
 74
5
 42
0.0000001
 43
0.0000001
 44
0.0000000001
 12
0.0000097437
 22
-0.153194492
 32
0.0
 13
-0.1314847245
 23
-0.0786150093
 33
0.0
 40
0.0
 40
0.0
 40
0.0
 40
0.0
 40
0.218757533
 40
0.4522985233
 40
0.7113142485
 40
1.0
 40
1.0
 40
1.0
 40
1.0
 10
-16.3848858632
 20
56.8212733927
 30
0.0
 10
-16.3848851527
 20
56.8101025763
 30
0.0
 10
-16.388902499
 20
56.7868555449
 30
0.0
 10
-16.406150372
 20
56.7543417399
 30
0.0
 10
-16.4334897024
 20
56.7248108751
 30
0.0
 10
-16.4564312649
 20
56.7084971073
 30
0.0
 10
-16.4690838538
 20
56.7009320963
 30
0.0
 11
-16.3848858632
 21
56.8212733927
 31
0.0
 11
-16.3903969527
 21
56.788217196
 31
0.0
 11
-16.4067226677
 21
56.7563820173
 31
0.0
 11
-16.4332956625
 21
56.7269140501
 31
0.0
 11
-16.4690838538
 21
56.7009320963
 31
0.0
  0
SPLINE
  5
58C
100
AcDbEntity
  8
0
100
AcDbSpline
 62
7
  6
CONTINUOUS
 70
0
 71
3
 72
11
 73
7
 74
5
 42
0.0000001
 43
0.0000001
 44
0.0000000001
 12
0.0
 22
0.4402681283
 32
0.0
 13
-0.3845332044
 23
0.2144067152
 33
0.0
 40
0.0
 40
0.0
 40
0.0
 40
0.0
 40
0.2366864372
 40
0.4988945121
 40
0.7617051275
 40
1.0
 40
1.0
 40
1.0
 40
1.0
 10
-15.4376077237
 20
48.9203928155
 30
0.0
 10
-15.4376077236
 20
48.9551279804
 30
0.0
 10
-15.4508743349
 20
49.0283966139
 30
0.0
 10
-15.4971889033
 20
49.1310809168
 30
0.0
 10
-15.5649488797
 20
49.2213644272
 30
0.0
 10
-15.6228655668
 20
49.268629336
 30
0.0
 10
-15.6534096638
 20
49.2856600096
 30
0.0
 11
-15.4376077237
 21
48.9203928155
 31
0.0
 11
-15.4540372774
 21
49.0232949772
 31
0.0
 11
-15.5008146484
 21
49.1288350181
 31
0.0
 11
-15.570820082
 21
49.2209620011
 31
0.0
 11
-15.6534096638
 21
49.2856600096
 31
0.0
  0
LINE
  5
58D
100
AcDbEntity
  8
0
100
AcDbLine
 62
7
  6
CONTINUOUS
 10
-14.1012342515
 20
-52.1641848468
 11
-14.1526056844
 21
-52.1938507303
  0
SPLINE
  5
58E
100
AcDbEntity
  8
0
100
AcDbSpline
 62
7
  6
CONTINUOUS
 70
0
 71
3
 72
9
 73
5
 74
3
 42
0.0000001
 43
0.0000001
 44
0.0000000001
 12
-0.0829539587
 22
0.0479339076
 32
0.0
 13
-0.085110393
 23
-0.04399136
 33
0.0
 40
0.0
 40
0.0
 40
0.0
 40
0.0
 40
0.4536529533
 40
1.0
 40
1.0
 40
1.0
 40
1.0
 10
-14.130507467
 20
63.791496287
 30
0.0
 10
-14.1430515698
 20
63.7987447399
 30
0.0
 10
-14.1766341261
 20
63.8047802398
 30
0.0
 10
-14.2076226122
 20
63.7936556449
 30
0.0
 10
-14.2231225495
 20
63.7856441284
 30
0.0
 11
-14.130507467
 21
63.791496287
 31
0.0
 11
-14.1729873592
 21
63.8006892199
 31
0.0
 11
-14.2231225495
 21
63.7856441284
 31
0.0
  0
SPLINE
  5
58F
100
AcDbEntity
  8
0
100
AcDbSpline
 62
7
  6
CONTINUOUS
 70
0
 71
3
 72
11
 73
7
 74
5
 42
0.0000001
 43
0.0000001
 44
0.0000000001
 12
0.3498651772
 22
-0.2020077685
 32
0.0
 13
0.0464961916
 23
-0.4013114562
 33
0.0
 40
0.0
 40
0.0
 40
0.0
 40
0.0
 40
0.2334317709
 40
0.4917255522
 40
0.7544584052
 40
1.0
 40
1.0
 40
1.0
 40
1.0
 10
-11.048543456
 20
45.4020441938
 30
0.0
 10
-11.0213202401
 20
45.3863258501
 30
0.0
 10
-10.9692788826
 20
45.3439073243
 30
0.0
 10
-10.9063235941
 20
45.2633402182
 30
0.0
 10
-10.8597955452
 20
45.1704640216
 30
0.0
 10
-10.8423705908
 20
45.1034761166
 30
0.0
 10
-10.8385650078
 20
45.0706298983
 30
0.0
 11
-11.048543456
 21
45.4020441938
 31
0.0
 11
-10.9743912509
 21
45.343777747
 31
0.0
 11
-10.9096067867
 21
45.2619741748
 31
0.0
 11
-10.8623393676
 21
45.16693664
 31
0.0
 11
-10.8385650078
 21
45.0706298983
 31
0.0
  0
SPLINE
  5
590
100
AcDbEntity
  8
0
100
AcDbSpline
 62
7
  6
CONTINUOUS
 70
0
 71
3
 72
11
 73
7
 74
5
 42
0.0000001
 43
0.0000001
 44
0.0000000001
 12
0.3498651772
 22
-0.2020077685
 32
0.0
 13
0.0464961916
 23
-0.4013114562
 33
0.0
 40
0.0
 40
0.0
 40
0.0
 40
0.0
 40
0.2334317709
 40
0.4917255522
 40
0.7544584052
 40
1.0
 40
1.0
 40
1.0
 40
1.0
 10
4.8613591207
 20
36.215865844
 30
0.0
 10
4.8885823366
 20
36.2001475002
 30
0.0
 10
4.940623694
 20
36.1577289744
 30
0.0
 10
5.0035789826
 20
36.0771618683
 30
0.0
 10
5.0501070315
 20
35.9842856717
 30
0.0
 10
5.0675319859
 20
35.9172977667
 30
0.0
 10
5.0713375689
 20
35.8844515484
 30
0.0
 11
4.8613591207
 21
36.215865844
 31
0.0
 11
4.9355113258
 21
36.1575993971
 31
0.0
 11
5.00029579
 21
36.0757958249
 31
0.0
 11
5.0475632091
 21
35.9807582901
 31
0.0
 11
5.0713375689
 21
35.8844515484
 31
0.0
  0
SPLINE
  5
591
100
AcDbEntity
  8
SUPERFICI
100
AcDbSpline
 62
7
  6
CONTINUOUS
 70
0
 71
3
 72
11
 73
7
 74
5
 42
0.0000001
 43
0.0000001
 44
0.0000000001
 12
0.3845332045
 22
-0.214406715
 32
0.0
 13
0.0000000002
 23
-0.4402681283
 33
0.0
 40
0.0
 40
0.0
 40
0.0
 40
0.0
 40
0.2382948755
 40
0.5011054867
 40
0.7633135658
 40
1.0
 40
1.0
 40
1.0
 40
1.0
 10
-15.6534096638
 20
-8.6837296427
 30
0.0
 10
-15.6228655664
 20
-8.7007603165
 30
0.0
 10
-15.5649488796
 20
-8.7480252255
 30
0.0
 10
-15.497188903
 20
-8.8383087361
 30
0.0
 10
-15.4508743346
 20
-8.9409930387
 30
0.0
 10
-15.4376077237
 20
-9.0142616723
 30
0.0
 10
-15.4376077237
 20
-9.0489968368
 30
0.0
 11
-15.6534096638
 21
-8.6837296427
 31
0.0
 11
-15.5708200811
 21
-8.7484276523
 31
0.0
 11
-15.5008146486
 21
-8.8405546338
 31
0.0
 11
-15.4540372769
 21
-8.9460946763
 31
0.0
 11
-15.4376077237
 21
-9.0489968368
 31
0.0
  0
SPLINE
  5
592
100
AcDbEntity
  8
0
100
AcDbSpline
 62
7
  6
CONTINUOUS
 70
0
 71
3
 72
9
 73
5
 74
3
 42
0.0000001
 43
0.0000001
 44
0.0000000001
 12
0.0000325061
 22
-0.0958059126
 32
0.0
 13
-0.0806486446
 23
-0.0517162456
 33
0.0
 40
0.0
 40
0.0
 40
0.0
 40
0.0
 40
0.4536675621
 40
1.0
 40
1.0
 40
1.0
 40
1.0
 10
-2.1085568912
 20
42.9688615832
 30
0.0
 10
-2.1085519755
 20
42.9543735716
 30
0.0
 10
-2.1201148319
 20
42.9222729926
 30
0.0
 10
-2.1452412529
 20
42.9009967973
 30
0.0
 10
-2.1599282431
 20
42.8915787098
 30
0.0
 11
-2.1085568912
 21
42.9688615832
 31
0.0
 11
-2.1218349362
 21
42.9274754013
 31
0.0
 11
-2.1599282431
 21
42.8915787098
 31
0.0
  0
SPLINE
  5
593
100
AcDbEntity
  8
RACCORDO
100
AcDbSpline
 62
7
  6
CONTINUOUS
 70
0
 71
3
 72
11
 73
7
 74
5
 42
0.0000001
 43
0.0000001
 44
0.0000000001
 12
-0.0464961916
 22
0.4013114562
 32
0.0
 13
-0.3498651772
 23
0.2020077685
 33
0.0
 40
0.0
 40
0.0
 40
0.0
 40
0.0
 40
0.2455415948
 40
0.5082744478
 40
0.7665682291
 40
1.0
 40
1.0
 40
1.0
 40
1.0
 10
-10.8385650078
 20
-70.8681494063
 30
0.0
 10
-10.8423705908
 20
-70.835303188
 30
0.0
 10
-10.8597955452
 20
-70.768315283
 30
0.0
 10
-10.9063235941
 20
-70.6754390864
 30
0.0
 10
-10.9692788826
 20
-70.5948719803
 30
0.0
 10
-11.0213202401
 20
-70.5524534545
 30
0.0
 10
-11.048543456
 20
-70.5367351107
 30
0.0
 11
-10.8385650078
 21
-70.8681494063
 31
0.0
 11
-10.8623393676
 21
-70.7718426646
 31
0.0
 11
-10.9096067867
 21
-70.6768051298
 31
0.0
 11
-10.9743912509
 21
-70.5950015576
 31
0.0
 11
-11.048543456
 21
-70.5367351107
 31
0.0
  0
SPLINE
  5
594
100
AcDbEntity
  8
RACCORDO
100
AcDbSpline
 62
7
  6
CONTINUOUS
 70
0
 71
3
 72
11
 73
7
 74
5
 42
0.0000001
 43
0.0000001
 44
0.0000000001
 12
-0.1363215866
 22
0.0787103756
 32
0.0
 13
-0.1363216183
 23
-0.0787103206
 33
0.0
 40
0.0
 40
0.0
 40
0.0
 40
0.0
 40
0.2897063967
 40
0.5490922938
 40
0.7822195412
 40
1.0
 40
1.0
 40
1.0
 40
1.0
 10
-5.7452425971
 20
-73.5987945607
 30
0.0
 10
-5.758407009
 20
-73.5911935943
 30
0.0
 10
-5.7845950055
 20
-73.5787337636
 30
0.0
 10
-5.8248469654
 20
-73.5690117441
 30
0.0
 10
-5.86261518
 20
-73.5699663759
 30
0.0
 10
-5.8853537012
 20
-73.5782183032
 30
0.0
 10
-5.8952497627
 20
-73.5839321598
 30
0.0
 11
-5.7452425971
 21
-73.5987945607
 31
0.0
 11
-5.7866166368
 21
-73.5796144481
 31
0.0
 11
-5.8264323499
 21
-73.570566845
 31
0.0
 11
-5.8631004305
 21
-73.5720308089
 31
0.0
 11
-5.8952497627
 21
-73.5839321598
 31
0.0
  0
SPLINE
  5
595
100
AcDbEntity
  8
RACCORDO
100
AcDbSpline
 62
7
  6
CONTINUOUS
 70
0
 71
3
 72
11
 73
7
 74
5
 42
0.0000001
 43
0.0000001
 44
0.0000000001
 12
-0.0464961916
 22
0.4013114562
 32
0.0
 13
-0.3498651772
 23
0.2020077685
 33
0.0
 40
0.0
 40
0.0
 40
0.0
 40
0.0
 40
0.2455415948
 40
0.5082744478
 40
0.7665682291
 40
1.0
 40
1.0
 40
1.0
 40
1.0
 10
5.0713375689
 20
-80.0543277562
 30
0.0
 10
5.0675319859
 20
-80.0214815378
 30
0.0
 10
5.0501070315
 20
-79.9544936329
 30
0.0
 10
5.0035789826
 20
-79.8616174363
 30
0.0
 10
4.940623694
 20
-79.7810503302
 30
0.0
 10
4.8885823366
 20
-79.7386318043
 30
0.0
 10
4.8613591207
 20
-79.7229134606
 30
0.0
 11
5.0713375689
 21
-80.0543277562
 31
0.0
 11
5.0475632091
 21
-79.9580210145
 31
0.0
 11
5.00029579
 21
-79.8629834796
 31
0.0
 11
4.9355113258
 21
-79.7811799074
 31
0.0
 11
4.8613591207
 21
-79.7229134606
 31
0.0
  0
SPLINE
  5
596
100
AcDbEntity
  8
RACCORDO
100
AcDbSpline
 62
7
  6
CONTINUOUS
 70
0
 71
3
 72
11
 73
7
 74
5
 42
0.0000001
 43
0.0000001
 44
0.0000000001
 12
-0.1363215866
 22
0.0787103756
 32
0.0
 13
-0.1363216183
 23
-0.0787103206
 33
0.0
 40
0.0
 40
0.0
 40
0.0
 40
0.0
 40
0.2897063967
 40
0.5490922938
 40
0.7822195412
 40
1.0
 40
1.0
 40
1.0
 40
1.0
 10
10.1646599796
 20
-82.7849729106
 30
0.0
 10
10.1514955677
 20
-82.7773719442
 30
0.0
 10
10.1253075712
 20
-82.7649121134
 30
0.0
 10
10.0850556113
 20
-82.755190094
 30
0.0
 10
10.0472873967
 20
-82.7561447257
 30
0.0
 10
10.0245488755
 20
-82.7643966531
 30
0.0
 10
10.014652814
 20
-82.7701105097
 30
0.0
 11
10.1646599796
 21
-82.7849729106
 31
0.0
 11
10.1232859399
 21
-82.7657927979
 31
0.0
 11
10.0834702268
 21
-82.7567451949
 31
0.0
 11
10.0468021462
 21
-82.7582091588
 31
0.0
 11
10.014652814
 21
-82.7701105097
 31
0.0
  0
SPLINE
  5
597
100
AcDbEntity
  8
0
100
AcDbSpline
 62
7
  6
CONTINUOUS
 70
0
 71
3
 72
11
 73
7
 74
5
 42
0.0000001
 43
0.0000001
 44
0.0000000001
 12
0.1338225329
 22
0.0745702972
 32
0.0
 13
0.132665165
 23
-0.0766104009
 33
0.0
 40
0.0
 40
0.0
 40
0.0
 40
0.0
 40
0.288696822
 40
0.5477157562
 40
0.7812521861
 40
1.0
 40
1.0
 40
1.0
 40
1.0
 10
-9.4184956448
 20
44.4889551078
 30
0.0
 10
-9.4056175982
 20
44.4961311771
 30
0.0
 10
-9.3800183838
 20
44.5078442986
 30
0.0
 10
-9.3407737347
 20
44.5167580505
 30
0.0
 10
-9.3039919301
 20
44.5154399008
 30
0.0
 10
-9.2818509663
 20
44.5072956597
 30
0.0
 10
-9.2721775613
 20
44.5017095405
 30
0.0
 11
-9.4184956448
 21
44.4889551078
 31
0.0
 11
-9.3780994802
 21
44.5069609509
 31
0.0
 11
-9.3392924308
 21
44.5152422843
 31
0.0
 11
-9.3035596361
 21
44.5134645737
 31
0.0
 11
-9.2721775613
 21
44.5017095405
 31
0.0
  0
SPLINE
  5
598
100
AcDbEntity
  8
SMUSSO
100
AcDbSpline
 62
7
  6
CONTINUOUS
 70
0
 71
3
 72
11
 73
7
 74
5
 42
0.0000001
 43
0.0000001
 44
0.0000000001
 12
0.634720567
 22
-0.3664796997
 32
0.0
 13
0.0000000006
 23
-0.7329239855
 33
0.0
 40
0.0
 40
0.0
 40
0.0
 40
0.0
 40
0.2372223809
 40
0.5000061068
 40
0.7627865084
 40
1.0
 40
1.0
 40
1.0
 40
1.0
 10
35.443727407
 20
78.9363296367
 30
0.0
 10
35.4939173817
 20
78.9073505744
 30
0.0
 10
35.5889052861
 20
78.8274069242
 30
0.0
 10
35.6997721543
 20
78.6759043494
 30
0.0
 10
35.7755431877
 20
78.5041416535
 30
0.0
 10
35.7972807975
 20
78.3819103542
 30
0.0
 10
35.7972807976
 20
78.3239572017
 30
0.0
 11
35.443727407
 21
78.9363296367
 31
0.0
 11
35.5790264319
 21
78.8271346259
 31
0.0
 11
35.693727407
 21
78.6724134662
 31
0.0
 11
35.7703681482
 21
78.4957210521
 31
0.0
 11
35.7972807976
 21
78.3239572017
 31
0.0
  0
SPLINE
  5
599
100
AcDbEntity
  8
DRAFT
100
AcDbSpline
 62
7
  6
CONTINUOUS
 70
0
 71
3
 72
9
 73
5
 74
3
 42
0.0000001
 43
0.0000001
 44
0.0000000001
 12
0.3439167535
 22
-0.0396184634
 32
0.0
 13
0.3034424164
 23
0.1666464998
 33
0.0
 40
0.0
 40
0.0
 40
0.0
 40
0.0
 40
0.5179198131
 40
1.0
 40
1.0
 40
1.0
 40
1.0
 10
33.4285750431
 20
-115.4822546913
 30
0.0
 10
33.48794881
 20
-115.4890944204
 30
0.0
 10
33.6051177887
 20
-115.4882806799
 30
0.0
 10
33.7167462315
 20
-115.4503964368
 30
0.0
 10
33.7655074238
 20
-115.4236174449
 30
0.0
 11
33.4285750431
 21
-115.4822546913
 31
0.0
 11
33.6078308826
 21
-115.4783076896
 31
0.0
 11
33.7655074238
 21
-115.4236174449
 31
0.0
  0
SPLINE
  5
59A
100
AcDbEntity
  8
DRAFT
100
AcDbSpline
 62
7
  6
CONTINUOUS
 70
0
 71
3
 72
11
 73
7
 74
5
 42
0.0000001
 43
0.0000001
 44
0.0000000001
 12
0.0
 22
-0.7975203522
 32
0.0
 13
-0.6990399922
 23
-0.3839033753
 33
0.0
 40
0.0
 40
0.0
 40
0.0
 40
0.0
 40
0.2902059834
 40
0.5493244351
 40
0.7821734094
 40
1.0
 40
1.0
 40
1.0
 40
1.0
 10
35.7972807976
 20
-113.7915778375
 30
0.0
 10
35.7972807976
 20
-113.8687262302
 30
0.0
 10
35.7854744601
 20
-114.0152831515
 30
0.0
 10
35.7250554092
 20
-114.2162551027
 30
0.0
 10
35.623429948
 20
-114.3784569211
 30
0.0
 10
35.5281011259
 20
-114.4555529849
 30
0.0
 10
35.4773446265
 20
-114.4834277727
 30
0.0
 11
35.7972807976
 21
-113.7915778375
 31
0.0
 11
35.7762586164
 21
-114.0220663153
 31
0.0
 11
35.714028151
 21
-114.219125994
 31
0.0
 11
35.6130564446
 21
-114.3749780762
 31
0.0
 11
35.4773446265
 21
-114.4834277727
 31
0.0
  0
SPLINE
  5
59B
100
AcDbEntity
  8
DRAFT
100
AcDbSpline
 62
7
  6
CONTINUOUS
 70
0
 71
3
 72
11
 73
7
 74
5
 42
0.0000001
 43
0.0000001
 44
0.0000000001
 12
0.6819670763
 22
0.4134729514
 32
0.0
 13
0.6906953604
 23
-0.3987215744
 33
0.0
 40
0.0
 40
0.0
 40
0.0
 40
0.0
 40
0.2178265534
 40
0.4506754916
 40
0.7097938992
 40
1.0
 40
1.0
 40
1.0
 40
1.0
 10
-31.2885693117
 20
117.0971392301
 30
0.0
 10
-31.2390524658
 20
117.1271610261
 30
0.0
 10
-31.1246233483
 20
117.1711765537
 30
0.0
 10
-30.9333401033
 20
117.1780965361
 30
0.0
 10
-30.7290810201
 20
117.1299463765
 30
0.0
 10
-30.5962522943
 20
117.0668998506
 30
0.0
 10
-30.5294376252
 20
117.0283293728
 30
0.0
 11
-31.2885693117
 21
117.0971392301
 31
0.0
 11
-31.1267967371
 21
117.1604532924
 31
0.0
 11
-30.9413395427
 21
117.1699816515
 31
0.0
 11
-30.7395631271
 21
117.1253562215
 31
0.0
 11
-30.5294376252
 21
117.0283293728
 31
0.0
  0
SPLINE
  5
59C
100
AcDbEntity
  8
DRAFT
100
AcDbSpline
 62
7
  6
CONTINUOUS
 70
0
 71
3
 72
9
 73
5
 74
3
 42
0.0000001
 43
0.0000001
 44
0.0000000001
 12
-0.2959994751
 22
-0.1794628815
 32
0.0
 13
-0.137631681
 23
-0.3176163338
 33
0.0
 40
0.0
 40
0.0
 40
0.0
 40
0.0
 40
0.4820832229
 40
1.0
 40
1.0
 40
1.0
 40
1.0
 10
-32.9586595636
 20
116.0846463756
 30
0.0
 10
-33.0062250239
 20
116.0558076942
 30
0.0
 10
-33.0948351915
 20
115.9780821171
 30
0.0
 10
-33.1541169465
 20
115.8770281801
 30
0.0
 10
-33.177877532
 20
115.8221952374
 30
0.0
 11
-32.9586595636
 21
116.0846463756
 31
0.0
 11
-33.084843927
 21
115.9754456912
 31
0.0
 11
-33.177877532
 21
115.8221952374
 31
0.0
  0
SPLINE
  5
59D
100
AcDbEntity
  8
DRAFT
100
AcDbSpline
 62
7
  6
CONTINUOUS
 70
0
 71
3
 72
11
 73
7
 74
5
 42
0.0000001
 43
0.0000001
 44
0.0000000001
 12
-0.6715382343
 22
0.3877377601
 32
0.0
 13
-0.663084158
 23
-0.4020243402
 33
0.0
 40
0.0
 40
0.0
 40
0.0
 40
0.0
 40
0.2902115704
 40
0.5493320929
 40
0.7821787869
 40
1.0
 40
1.0
 40
1.0
 40
1.0
 10
-32.2205565914
 20
116.0176941958
 30
0.0
 10
-32.2855193132
 20
116.0552028572
 30
0.0
 10
-32.4146669665
 20
116.1165151373
 30
0.0
 10
-32.6132683223
 20
116.1633473913
 30
0.0
 10
-32.7992545613
 20
116.1566299345
 30
0.0
 10
-32.9105149651
 20
116.1138361855
 30
0.0
 10
-32.9586595636
 20
116.0846463756
 30
0.0
 11
-32.2205565914
 21
116.0176941958
 31
0.0
 11
-32.4248601385
 21
116.1120528459
 31
0.0
 11
-32.62104803
 21
116.155457279
 31
0.0
 11
-32.8013688815
 21
116.1462025909
 31
0.0
 11
-32.9586595636
 21
116.0846463756
 31
0.0
  0
SPLINE
  5
59E
100
AcDbEntity
  8
DRAFT
100
AcDbSpline
 62
7
  6
CONTINUOUS
 70
0
 71
3
 72
13
 73
9
 74
7
 42
0.0000001
 43
0.0000001
 44
0.0000000001
 12
1.9064768663
 22
-1.1007758488
 32
0.0
 13
0.0000000018
 23
-2.2014453232
 33
0.0
 40
0.0
 40
0.0
 40
0.0
 40
0.0
 40
0.1142620818
 40
0.2375408518
 40
0.5000060651
 40
0.7624679584
 40
0.8857428522
 40
1.0
 40
1.0
 40
1.0
 40
1.0
 10
34.7366206258
 20
79.3445253202
 30
0.0
 10
34.8092332977
 20
79.3025996735
 30
0.0
 10
34.9526700544
 20
79.2020628932
 30
0.0
 10
35.22117457
 20
78.9507148109
 30
0.0
 10
35.5048353571
 20
78.5632960119
 30
0.0
 10
35.6985191523
 20
78.1239317787
 30
0.0
 10
35.7819356535
 20
77.765733869
 30
0.0
 10
35.7972807975
 20
77.5912516374
 30
0.0
 10
35.7972807976
 20
77.5074080162
 30
0.0
 11
34.7366206258
 21
79.3445253202
 31
0.0
 11
34.9435518427
 21
79.2015123447
 31
0.0
 11
35.1425151682
 21
79.0169400661
 31
0.0
 11
35.4866206254
 21
78.5527768094
 31
0.0
 11
35.7165413909
 21
78.0226974851
 31
0.0
 11
35.7768995455
 21
77.7581117855
 31
0.0
 11
35.7972807976
 21
77.5074080162
 31
0.0
  0
SPLINE
  5
59F
100
AcDbEntity
  8
DRAFT
100
AcDbSpline
 62
7
  6
CONTINUOUS
 70
0
 71
3
 72
13
 73
9
 74
7
 42
0.0000001
 43
0.0000001
 44
0.0000000001
 12
0.0
 22
2.1401745251
 32
0.0
 13
-1.8534156543
 23
1.0701389677
 33
0.0
 40
0.0
 40
0.0
 40
0.0
 40
0.0
 40
0.1142571478
 40
0.2375320416
 40
0.4999939349
 40
0.7624591482
 40
0.8857379182
 40
1.0
 40
1.0
 40
1.0
 40
1.0
 10
34.0765391061
 20
76.5479627207
 30
0.0
 10
34.0765391061
 20
76.6294727997
 30
0.0
 10
34.0616210494
 20
76.7990988282
 30
0.0
 10
33.9805262029
 20
77.1473273457
 30
0.0
 10
33.7922330303
 20
77.5744631594
 30
0.0
 10
33.5164671122
 20
77.9510992881
 30
0.0
 10
33.2554356352
 20
78.1954518309
 30
0.0
 10
33.1159910214
 20
78.2931904636
 30
0.0
 10
33.045399311
 20
78.3339492323
 30
0.0
 11
34.0765391061
 21
76.5479627207
 31
0.0
 11
34.0567251068
 21
76.7916888831
 31
0.0
 11
33.9980468452
 21
77.0489106129
 31
0.0
 11
33.7745252524
 21
77.5642367281
 31
0.0
 11
33.439996965
 21
78.0154813568
 31
0.0
 11
33.2465712023
 21
78.1949166053
 31
0.0
 11
33.045399311
 21
78.3339492323
 31
0.0
  0
SPLINE
  5
5A0
100
AcDbEntity
  8
DRAFT
100
AcDbSpline
 62
7
  6
CONTINUOUS
 70
0
 71
3
 72
11
 73
7
 74
5
 42
0.0000001
 43
0.0000001
 44
0.0000000001
 12
0.6795842569
 22
0.3732185468
 32
0.0
 13
-0.0000000007
 23
0.7753237039
 33
0.0
 40
0.0
 40
0.0
 40
0.0
 40
0.0
 40
0.2178265906
 40
0.4506755649
 40
0.7097940165
 40
1.0
 40
1.0
 40
1.0
 40
1.0
 10
33.7655074238
 20
-115.4236174449
 30
0.0
 10
33.8148512644
 20
-115.3965184703
 30
0.0
 10
33.9075268873
 20
-115.3215681501
 30
0.0
 10
34.0063239007
 20
-115.1638807452
 30
0.0
 10
34.0650613638
 20
-114.9685022609
 30
0.0
 10
34.0765391062
 20
-114.8260243232
 30
0.0
 10
34.0765391061
 20
-114.7510231306
 30
0.0
 11
33.7655074238
 21
-115.4236174449
 31
0.0
 11
33.8974421
 21
-115.3181861288
 31
0.0
 11
33.995603554
 21
-115.1666717337
 31
0.0
 11
34.0561020161
 21
-114.9750966352
 31
0.0
 11
34.0765391061
 21
-114.7510231306
 31
0.0
  0
SPLINE
  5
5A1
100
AcDbEntity
  8
SMUSSO
100
AcDbSpline
 62
7
  6
CONTINUOUS
 70
0
 71
3
 72
11
 73
7
 74
5
 42
0.0000001
 43
0.0000001
 44
0.0000000001
 12
0.4543421689
 22
0.2623314052
 32
0.0
 13
0.4543642046
 23
-0.262293237
 33
0.0
 40
0.0
 40
0.0
 40
0.0
 40
0.0
 40
0.2177717752
 40
0.4509547616
 40
0.7101912408
 40
1.0
 40
1.0
 40
1.0
 40
1.0
 10
-33.8224298787
 20
115.9550500555
 30
0.0
 10
-33.7894489118
 20
115.9740928474
 30
0.0
 10
-33.7136635115
 20
116.0016214178
 30
0.0
 10
-33.5878036054
 20
116.0047752341
 30
0.0
 10
-33.4536368823
 20
115.9724320836
 30
0.0
 10
-33.366368309
 20
115.9308889527
 30
0.0
 10
-33.3224754002
 20
115.9055506602
 30
0.0
 11
-33.8224298787
 21
115.9550500555
 31
0.0
 11
-33.715289688
 21
115.9947278637
 31
0.0
 11
-33.5930503293
 21
115.9996034709
 31
0.0
 11
-33.4604194928
 21
115.969495761
 31
0.0
 11
-33.3224754002
 21
115.9055506602
 31
0.0
  0
SPLINE
  5
5A2
100
AcDbEntity
  8
SMUSSO
100
AcDbSpline
 62
7
  6
CONTINUOUS
 70
0
 71
3
 72
11
 73
7
 74
5
 42
0.0000001
 43
0.0000001
 44
0.0000000001
 12
-0.45434217
 22
-0.2623314062
 32
0.0
 13
-0.0000000006
 23
-0.5246375646
 33
0.0
 40
0.0
 40
0.0
 40
0.0
 40
0.0
 40
0.2177718081
 40
0.450954831
 40
0.7101913958
 40
1.0
 40
1.0
 40
1.0
 40
1.0
 10
-35.5901968316
 20
114.9343635722
 30
0.0
 10
-35.6231778036
 20
114.9153207774
 30
0.0
 10
-35.6849080535
 20
114.863449517
 30
0.0
 10
-35.7505633153
 20
114.7560248638
 30
0.0
 10
-35.7896292643
 20
114.6236593139
 30
0.0
 10
-35.7972807975
 20
114.5273105339
 30
0.0
 10
-35.7972807976
 20
114.4766290404
 30
0.0
 11
-35.5901968316
 21
114.9343635722
 31
0.0
 11
-35.6781248597
 21
114.8614114317
 31
0.0
 11
-35.7434611738
 21
114.7579831802
 31
0.0
 11
-35.7836952972
 21
114.6280653576
 31
0.0
 11
-35.7972807976
 21
114.4766290404
 31
0.0
  0
SPLINE
  5
5A3
100
AcDbEntity
  8
SMUSSO
100
AcDbSpline
 62
7
  6
CONTINUOUS
 70
0
 71
3
 72
11
 73
7
 74
5
 42
0.0000001
 43
0.0000001
 44
0.0000000001
 12
0.6347205663
 22
-0.3664797009
 32
0.0
 13
0.0000000001
 23
-0.7329239854
 33
0.0
 40
0.0
 40
0.0
 40
0.0
 40
0.0
 40
0.2372223367
 40
0.5000061076
 40
0.7627865546
 40
1.0
 40
1.0
 40
1.0
 40
1.0
 10
33.07491969
 20
77.5685663487
 30
0.0
 10
33.1251096553
 20
77.5395872917
 30
0.0
 10
33.2200975615
 20
77.4596436443
 30
0.0
 10
33.3309644399
 20
77.308141062
 30
0.0
 10
33.4067354741
 20
77.1363783538
 30
0.0
 10
33.4284730806
 20
77.0141470549
 30
0.0
 10
33.4284730806
 20
76.9561939136
 30
0.0
 11
33.07491969
 21
77.5685663487
 31
0.0
 11
33.2102186922
 21
77.4593713614
 31
0.0
 11
33.3249196903
 21
77.3046501777
 31
0.0
 11
33.4015604407
 21
77.1279577313
 31
0.0
 11
33.4284730806
 21
76.9561939136
 31
0.0
  0
SPLINE
  5
5A4
100
AcDbEntity
  8
SMUSSO
100
AcDbSpline
 62
7
  6
CONTINUOUS
 70
0
 71
3
 72
11
 73
7
 74
5
 42
0.0000001
 43
0.0000001
 44
0.0000000001
 12
0.4544100728
 22
-0.2623706796
 32
0.0
 13
0.4544101019
 23
0.2623706292
 33
0.0
 40
0.0
 40
0.0
 40
0.0
 40
0.0
 40
0.2898141456
 40
0.5490527547
 40
0.7822335352
 40
1.0
 40
1.0
 40
1.0
 40
1.0
 10
30.9535993464
 20
-117.0780660035
 30
0.0
 10
30.9974975021
 20
-117.1034122483
 30
0.0
 10
31.0847769519
 20
-117.1449693138
 30
0.0
 10
31.2189623216
 20
-117.1773276228
 30
0.0
 10
31.3448405736
 20
-117.1741806615
 30
0.0
 10
31.4206370678
 20
-117.1466500267
 30
0.0
 10
31.4536221617
 20
-117.1276048519
 30
0.0
 11
30.9535993464
 21
-117.0780660035
 31
0.0
 11
31.0915614352
 21
-117.1420330561
 31
0.0
 11
31.2242110075
 21
-117.1721551392
 31
0.0
 11
31.3464677489
 21
-117.1672854228
 31
0.0
 11
31.4536221617
 21
-117.1276048519
 31
0.0
  0
SPLINE
  5
5A5
100
AcDbEntity
  8
SMUSSO
100
AcDbSpline
 62
7
  6
CONTINUOUS
 70
0
 71
3
 72
11
 73
7
 74
5
 42
0.0000001
 43
0.0000001
 44
0.0000000001
 12
-0.0000000005
 22
-0.5246375645
 32
0.0
 13
-0.4543421701
 23
-0.2623314059
 33
0.0
 40
0.0
 40
0.0
 40
0.0
 40
0.0
 40
0.2898086042
 40
0.549045169
 40
0.7822281919
 40
1.0
 40
1.0
 40
1.0
 40
1.0
 10
33.4284730806
 20
-115.6491838368
 30
0.0
 10
33.4284730805
 20
-115.6998653302
 30
0.0
 10
33.4208215474
 20
-115.7962141102
 30
0.0
 10
33.3817555983
 20
-115.9285796601
 30
0.0
 10
33.3161003366
 20
-116.0360043133
 30
0.0
 10
33.2543700867
 20
-116.0878755737
 30
0.0
 10
33.2213891147
 20
-116.1069183685
 30
0.0
 11
33.4284730806
 21
-115.6491838368
 31
0.0
 11
33.4148875802
 21
-115.8006201539
 31
0.0
 11
33.3746534569
 21
-115.9305379765
 31
0.0
 11
33.3093171428
 21
-116.0339662279
 31
0.0
 11
33.2213891147
 21
-116.1069183685
 31
0.0
  0
SPLINE
  5
5A6
100
AcDbEntity
  8
SMUSSO
100
AcDbSpline
 62
7
  6
CONTINUOUS
 70
0
 71
3
 72
11
 73
7
 74
5
 42
0.0000001
 43
0.0000001
 44
0.0000000001
 12
0.0000000034
 22
1.4658469134
 32
0.0
 13
-1.2694402184
 23
0.7329588703
 33
0.0
 40
0.0
 40
0.0
 40
0.0
 40
0.0
 40
0.2372123996
 40
0.4999938932
 40
0.7627787109
 40
1.0
 40
1.0
 40
1.0
 40
1.0
 10
31.6607061276
 20
75.527232837
 30
0.0
 10
31.6607061279
 20
75.6431385249
 30
0.0
 10
31.6172290864
 20
75.8876006107
 30
0.0
 10
31.4656878148
 20
76.2311265397
 30
0.0
 10
31.2439532156
 20
76.5341312696
 30
0.0
 10
31.0539787615
 20
76.694019891
 30
0.0
 10
30.9535993464
 20
76.7519777071
 30
0.0
 11
31.6607061276
 21
75.527232837
 31
0.0
 11
31.6068799656
 21
75.8707585284
 31
0.0
 11
31.4535980016
 21
76.2241445898
 31
0.0
 11
31.2241952246
 21
76.5335879425
 31
0.0
 11
30.9535993464
 21
76.7519777071
 31
0.0
  0
SPLINE
  5
5A7
100
AcDbEntity
  8
SMUSSO
100
AcDbSpline
 62
7
  6
CONTINUOUS
 70
0
 71
3
 72
11
 73
7
 74
5
 42
0.0000001
 43
0.0000001
 44
0.0000000001
 12
1.2694402168
 22
-0.7329588731
 32
0.0
 13
0.0000000001
 23
-1.4658469134
 33
0.0
 40
0.0
 40
0.0
 40
0.0
 40
0.0
 40
0.2372212893
 40
0.5000061074
 40
0.7627876014
 40
1.0
 40
1.0
 40
1.0
 40
1.0
 10
32.7213662994
 20
77.7726641904
 30
0.0
 10
32.8217457144
 20
77.7147063741
 30
0.0
 10
33.011720169
 20
77.5548177528
 30
0.0
 10
33.2334547682
 20
77.2518130223
 30
0.0
 10
33.3849960396
 20
76.9082870932
 30
0.0
 10
33.4284730806
 20
76.6638250077
 30
0.0
 10
33.4284730806
 20
76.5479193203
 30
0.0
 11
32.7213662994
 21
77.7726641904
 31
0.0
 11
32.9919621778
 21
77.5542744255
 31
0.0
 11
33.221364955
 21
77.2448310723
 31
0.0
 11
33.374646919
 21
76.8914450103
 31
0.0
 11
33.4284730806
 21
76.5479193203
 31
0.0
  0
SPLINE
  5
5A8
100
AcDbEntity
  8
SMUSSO
100
AcDbSpline
 62
7
  6
CONTINUOUS
 70
0
 71
3
 72
11
 73
7
 74
5
 42
0.0000001
 43
0.0000001
 44
0.0000000001
 12
-0.4544100716
 22
0.2623706816
 32
0.0
 13
-0.4544101019
 23
-0.2623706292
 33
0.0
 40
0.0
 40
0.0
 40
0.0
 40
0.0
 40
0.2898141456
 40
0.5490527547
 40
0.7822335352
 40
1.0
 40
1.0
 40
1.0
 40
1.0
 10
-35.0901740164
 20
114.8848247239
 30
0.0
 10
-35.1340721719
 20
114.9101709689
 30
0.0
 10
-35.2213516219
 20
114.951728034
 30
0.0
 10
-35.3555369915
 20
114.9840863432
 30
0.0
 10
-35.4814152435
 20
114.9809393819
 30
0.0
 10
-35.5572117378
 20
114.953408747
 30
0.0
 10
-35.5901968316
 20
114.9343635722
 30
0.0
 11
-35.0901740164
 21
114.8848247239
 31
0.0
 11
-35.2281361052
 21
114.9487917765
 31
0.0
 11
-35.3607856774
 21
114.9789138595
 31
0.0
 11
-35.4830424189
 21
114.9740441431
 31
0.0
 11
-35.5901968316
 21
114.9343635722
 31
0.0
  0
SPLINE
  5
5A9
100
AcDbEntity
  8
SMUSSO
100
AcDbSpline
 62
7
  6
CONTINUOUS
 70
0
 71
3
 72
11
 73
7
 74
5
 42
0.0000001
 43
0.0000001
 44
0.0000000001
 12
0.45434217
 22
0.2623314062
 32
0.0
 13
-0.0000000006
 23
0.5246375646
 33
0.0
 40
0.0
 40
0.0
 40
0.0
 40
0.0
 40
0.2177718081
 40
0.450954831
 40
0.7101913958
 40
1.0
 40
1.0
 40
1.0
 40
1.0
 10
31.4536221617
 20
-117.1276048519
 30
0.0
 10
31.4866031336
 20
-117.108562057
 30
0.0
 10
31.5483333836
 20
-117.0566907966
 30
0.0
 10
31.6139886453
 20
-116.9492661434
 30
0.0
 10
31.6530545943
 20
-116.8169005936
 30
0.0
 10
31.6607061277
 20
-116.7205518135
 30
0.0
 10
31.6607061276
 20
-116.6698703201
 30
0.0
 11
31.4536221617
 21
-117.1276048519
 31
0.0
 11
31.5415501897
 21
-117.0546527113
 31
0.0
 11
31.6068865039
 21
-116.9512244599
 31
0.0
 11
31.6471206272
 21
-116.8213066373
 31
0.0
 11
31.6607061276
 21
-116.6698703201
 31
0.0
  0
ELLIPSE
  5
5AA
100
AcDbEntity
  8
RACCORDO
100
AcDbEllipse
 62
7
  6
CONTINUOUS
 10
-20.877252316
 20
-28.1209468045
 30
0.0
 11
-0.3501235233
 21
0.606392698
 31
0.0
 40
0.5771558487
 41
-0.7852941622
 42
0.0172857704
  0
ELLIPSE
  5
5AB
100
AcDbEntity
  8
RACCORDO
100
AcDbEllipse
 62
7
  6
CONTINUOUS
 10
15.3264640837
 20
-90.8276229664
 30
0.0
 11
-0.3501235233
 21
0.606392698
 31
0.0
 40
0.5771558487
 41
-3.1588791223
 42
-2.3563950755
  0
ELLIPSE
  5
5AC
100
AcDbEntity
  8
RACCORDO
100
AcDbEllipse
 62
7
  6
CONTINUOUS
 10
15.3264640837
 20
-49.0245189145
 30
0.0
 11
-0.3500169276
 21
0.6062080092
 31
0.0
 40
0.5775075436
 41
-2.3560905478
 42
-0.7855988075
  0
ELLIPSE
  5
5AD
100
AcDbEntity
  8
RACCORDO
100
AcDbEllipse
 62
7
  6
CONTINUOUS
 10
-17.4770115538
 20
-67.9610555418
 30
0.0
 11
-0.1500072547
 21
0.2598034325
 31
0.0
 40
0.5775075436
 41
0.7855021057
 42
2.355993846
  0
ELLIPSE
  5
5AE
100
AcDbEntity
  8
RACCORDO
100
AcDbEllipse
 62
7
  6
CONTINUOUS
 10
-16.4628772225
 20
-67.3754979514
 30
0.0
 11
-0.1500073079
 21
0.2598034018
 31
0.0
 40
0.5789151826
 41
0.7867191038
 42
2.3547763749
  0
ELLIPSE
  5
5AF
100
AcDbEntity
  8
RACCORDO
100
AcDbEllipse
 62
7
  6
CONTINUOUS
 10
-20.877252316
 20
29.8484428478
 30
0.0
 11
-0.3501235233
 21
0.606392698
 31
0.0
 40
0.5771558487
 41
-0.7852941622
 42
0.0172857704
  0
ELLIPSE
  5
5B0
100
AcDbEntity
  8
RACCORDO
100
AcDbEllipse
 62
7
  6
CONTINUOUS
 10
15.3264640837
 20
-32.8582333142
 30
0.0
 11
-0.3501235233
 21
0.606392698
 31
0.0
 40
0.5771558487
 41
-3.1588791223
 42
-2.3563950755
  0
ELLIPSE
  5
5B1
100
AcDbEntity
  8
RACCORDO
100
AcDbEllipse
 62
7
  6
CONTINUOUS
 10
15.3264640837
 20
8.9448707378
 30
0.0
 11
-0.3500169276
 21
0.6062080092
 31
0.0
 40
0.5775075436
 41
-2.3560905478
 42
-0.7855988075
  0
ELLIPSE
  5
5B2
100
AcDbEntity
  8
RACCORDO
100
AcDbEllipse
 62
7
  6
CONTINUOUS
 10
-17.4770115538
 20
-9.9916658895
 30
0.0
 11
-0.1500072547
 21
0.2598034325
 31
0.0
 40
0.5775075436
 41
0.7855021057
 42
2.355993846
  0
ELLIPSE
  5
5B3
100
AcDbEntity
  8
RACCORDO
100
AcDbEllipse
 62
7
  6
CONTINUOUS
 10
-16.4628772225
 20
-9.4061082991
 30
0.0
 11
-0.1500073079
 21
0.2598034018
 31
0.0
 40
0.5789151826
 41
0.7867191038
 42
2.3547763749
  0
ELLIPSE
  5
5B4
100
AcDbEntity
  8
RACCORDO
100
AcDbEllipse
 62
7
  6
CONTINUOUS
 10
-20.877252316
 20
87.8178325001
 30
0.0
 11
-0.3501235233
 21
0.606392698
 31
0.0
 40
0.5771558487
 41
-0.7852941622
 42
0.0172857704
  0
ELLIPSE
  5
5B5
100
AcDbEntity
  8
RACCORDO
100
AcDbEllipse
 62
7
  6
CONTINUOUS
 10
15.3264640837
 20
25.1111563381
 30
0.0
 11
-0.3501235233
 21
0.606392698
 31
0.0
 40
0.5771558487
 41
-3.1588791223
 42
-2.3563950755
  0
ELLIPSE
  5
5B6
100
AcDbEntity
  8
RACCORDO
100
AcDbEllipse
 62
7
  6
CONTINUOUS
 10
15.3264640837
 20
66.9142603901
 30
0.0
 11
-0.3500169276
 21
0.6062080092
 31
0.0
 40
0.5775075436
 41
-2.3560905478
 42
-0.7855988075
  0
ELLIPSE
  5
5B7
100
AcDbEntity
  8
RACCORDO
100
AcDbEllipse
 62
7
  6
CONTINUOUS
 10
-17.4770115538
 20
47.9777237628
 30
0.0
 11
-0.1500072547
 21
0.2598034325
 31
0.0
 40
0.5775075436
 41
0.7855021057
 42
2.355993846
  0
ELLIPSE
  5
5B8
100
AcDbEntity
  8
RACCORDO
100
AcDbEllipse
 62
7
  6
CONTINUOUS
 10
-16.4628772225
 20
48.5632813532
 30
0.0
 11
-0.1500073079
 21
0.2598034018
 31
0.0
 40
0.5789151826
 41
0.7867191038
 42
2.3547763749
  0
ELLIPSE
  5
5B9
100
AcDbEntity
  8
0
100
AcDbEllipse
 62
7
  6
CONTINUOUS
 10
-16.1397445942
 20
61.4052274799
 30
0.0
 11
-0.1500529453
 21
0.2598034383
 31
0.0
 40
0.5773316475
 41
-3.1502321102
 42
-2.3563951207
  0
ELLIPSE
  5
5BA
100
AcDbEntity
  8
0
100
AcDbEllipse
 62
7
  6
CONTINUOUS
 10
12.8512950755
 20
32.9493545496
 30
0.0
 11
0.2123743771
 21
0.3678550612
 31
0.0
 40
0.5773586895
 41
-2.3535969767
 42
-1.8309336332
  0
ELLIPSE
  5
5BB
100
AcDbEntity
  8
0
100
AcDbEllipse
 62
7
  6
CONTINUOUS
 10
-3.0586075012
 20
42.1355328995
 30
0.0
 11
0.2123743771
 21
0.3678550612
 31
0.0
 40
0.5773586895
 41
-2.3535969767
 42
-1.8309336332
  0
ELLIPSE
  5
5BC
100
AcDbEntity
  8
0
100
AcDbEllipse
 62
7
  6
CONTINUOUS
 10
-14.719444784
 20
63.9005971232
 30
0.0
 11
0.2008240461
 21
0.1149900593
 31
0.0
 40
0.0035062734
 41
0.0020007819
 42
0.7351275774
  0
ELLIPSE
  5
5BD
100
AcDbEntity
  8
0
100
AcDbEllipse
 62
7
  6
CONTINUOUS
 10
-16.2116895318
 20
50.0161758191
 30
0.0
 11
-0.1500529453
 21
0.2598034383
 31
0.0
 40
0.5773316475
 41
-3.1502321102
 42
-2.3563951207
  0
ELLIPSE
  5
5BE
100
AcDbEntity
  8
0
100
AcDbEllipse
 62
7
  6
CONTINUOUS
 10
-16.2116895318
 20
79.7356938943
 30
0.0
 11
-0.1500529453
 21
0.2598034383
 31
0.0
 40
0.5773316475
 41
-3.1502321102
 42
-2.3563951207
  0
ELLIPSE
  5
5BF
100
AcDbEntity
  8
SUPERFICI
100
AcDbEllipse
 62
7
  6
CONTINUOUS
 10
-15.3272808273
 20
23.7866899953
 30
0.0
 11
0.4247590168
 21
-0.0
 31
0.0
 40
0.57733079
 41
1.8309094725
 42
2.353672532
  0
ELLIPSE
  5
5C0
100
AcDbEntity
  8
SUPERFICI
100
AcDbEllipse
 62
7
  6
CONTINUOUS
 10
-15.3272808273
 20
5.4161087674
 30
0.0
 11
0.4247590168
 21
0.0
 31
0.0
 40
0.57733079
 41
1.8309094725
 42
2.353672532
  0
ELLIPSE
  5
5C1
100
AcDbEntity
  8
SUPERFICI
100
AcDbEllipse
 62
7
  6
CONTINUOUS
 10
-2.3085572082
 20
-15.5650803551
 30
0.0
 11
0.1999995634
 21
0.1164181051
 31
0.0
 40
0.0035896273
 41
-0.7351277754
 42
-0.0020507019
  0
ELLIPSE
  5
5C2
100
AcDbEntity
  8
0
100
AcDbEllipse
 62
7
  6
CONTINUOUS
 10
-15.3272808273
 20
-34.182699657
 30
0.0
 11
0.4247590168
 21
0.0
 31
0.0
 40
0.57733079
 41
1.8309094725
 42
2.353672532
  0
ELLIPSE
  5
5C3
100
AcDbEntity
  8
0
100
AcDbEllipse
 62
7
  6
CONTINUOUS
 10
-15.3272808273
 20
-52.5532808848
 30
0.0
 11
0.4247590168
 21
-0.0
 31
0.0
 40
0.57733079
 41
1.8309094725
 42
2.353672532
  0
ELLIPSE
  5
5C4
100
AcDbEntity
  8
ASSI
100
AcDbEllipse
 62
7
  6
CONTINUOUS
 10
-2.3085572082
 20
-73.5344700074
 30
0.0
 11
0.1999995634
 21
0.1164181051
 31
0.0
 40
0.0035896273
 41
-0.7351277754
 42
-0.0020507019
  0
ELLIPSE
  5
5C5
100
AcDbEntity
  8
RACCORDO
100
AcDbEllipse
 62
7
  6
CONTINUOUS
 10
-16.1397445942
 20
-42.2864976728
 30
0.0
 11
-0.1500529453
 21
0.2598034383
 31
0.0
 40
0.5773316475
 41
-2.3563951207
 42
-0.7855987939
  0
ELLIPSE
  5
5C6
100
AcDbEntity
  8
RACCORDO
100
AcDbEllipse
 62
7
  6
CONTINUOUS
 10
-16.1397445942
 20
-54.5335518247
 30
0.0
 11
-0.1500529453
 21
0.2598034383
 31
0.0
 40
0.5773316475
 41
-3.1502321102
 42
-2.3563951207
  0
ELLIPSE
  5
5C7
100
AcDbEntity
  8
RACCORDO
100
AcDbEllipse
 62
7
  6
CONTINUOUS
 10
-16.2116895318
 20
-60.697193714
 30
0.0
 11
-0.1500529453
 21
0.2598034383
 31
0.0
 40
0.5773316475
 41
-2.3563951207
 42
-0.7855987939
  0
ELLIPSE
  5
5C8
100
AcDbEntity
  8
RACCORDO
100
AcDbEllipse
 62
7
  6
CONTINUOUS
 10
-16.2116895318
 20
-65.9226034855
 30
0.0
 11
-0.1500529453
 21
0.2598034383
 31
0.0
 40
0.5773316475
 41
-3.1502321102
 42
-2.3563951207
  0
ELLIPSE
  5
5C9
100
AcDbEntity
  8
RACCORDO
100
AcDbEllipse
 62
7
  6
CONTINUOUS
 10
-16.2116895318
 20
-36.2030854103
 30
0.0
 11
-0.1500529453
 21
0.2598034383
 31
0.0
 40
0.5773316475
 41
-3.1502321102
 42
-2.3563951207
  0
ELLIPSE
  5
5CA
100
AcDbEntity
  8
ASSI
100
AcDbEllipse
 62
7
  6
CONTINUOUS
 10
-3.0586075012
 20
-73.8032464051
 30
0.0
 11
0.2123743771
 21
0.3678550612
 31
0.0
 40
0.5773586895
 41
-2.3535936561
 42
-1.8309336332
  0
ELLIPSE
  5
5CB
100
AcDbEntity
  8
ASSI
100
AcDbEllipse
 62
7
  6
CONTINUOUS
 10
-6.4244056185
 20
-70.6751388088
 30
0.0
 11
0.1082601067
 21
0.1683382284
 31
0.0
 40
0.6067084637
 41
0.7621560142
 42
0.8145158917
  0
ELLIPSE
  5
5CC
100
AcDbEntity
  8
ASSI
100
AcDbEllipse
 62
7
  6
CONTINUOUS
 10
12.8512950755
 20
-82.989424755
 30
0.0
 11
0.2123743771
 21
0.3678550612
 31
0.0
 40
0.5773586895
 41
-2.3535936561
 42
-1.8309336332
  0
ELLIPSE
  5
5CD
100
AcDbEntity
  8
ASSI
100
AcDbEllipse
 62
7
  6
CONTINUOUS
 10
9.4854969582
 20
-79.8613171587
 30
0.0
 11
0.1082601067
 21
0.1683382284
 31
0.0
 40
0.6067084637
 41
0.7621560142
 42
0.8145158917
  0
ELLIPSE
  5
5CE
100
AcDbEntity
  8
0
100
AcDbEllipse
 62
7
  6
CONTINUOUS
 10
-14.3012346495
 20
-57.0320707388
 30
0.0
 11
0.1999154856
 21
0.0095814127
 31
0.0
 40
0.6067642562
 41
-0.8144705522
 42
-0.7621106746
  0
ELLIPSE
  5
5CF
100
AcDbEntity
  8
0
100
AcDbEllipse
 62
7
  6
CONTINUOUS
 10
-14.719444784
 20
-52.0381821814
 30
0.0
 11
0.2008240461
 21
0.1149900593
 31
0.0
 40
0.0035062734
 41
0.0019064971
 42
0.7351275774
  0
ELLIPSE
  5
5D0
100
AcDbEntity
  8
0
100
AcDbEllipse
 62
7
  6
CONTINUOUS
 10
-15.3272808273
 20
63.3854984197
 30
0.0
 11
0.4247590168
 21
0.0
 31
0.0
 40
0.57733079
 41
1.8309094725
 42
2.3536692012
  0
ELLIPSE
  5
5D1
100
AcDbEntity
  8
0
100
AcDbEllipse
 62
7
  6
CONTINUOUS
 10
-15.3272808273
 20
81.7560796476
 30
0.0
 11
0.4247590168
 21
0.0
 31
0.0
 40
0.57733079
 41
1.8309094725
 42
2.3536692012
  0
ELLIPSE
  5
5D2
100
AcDbEntity
  8
SUPERFICI
100
AcDbEllipse
 62
7
  6
CONTINUOUS
 10
-16.1397445942
 20
15.6828919795
 30
0.0
 11
-0.1500529453
 21
0.2598034383
 31
0.0
 40
0.5773316475
 41
-2.3563951207
 42
-0.7855987939
  0
ELLIPSE
  5
5D3
100
AcDbEntity
  8
SUPERFICI
100
AcDbEllipse
 62
7
  6
CONTINUOUS
 10
-16.1397445942
 20
3.4358378276
 30
0.0
 11
-0.1500529453
 21
0.2598034383
 31
0.0
 40
0.5773316475
 41
-3.1502321102
 42
-2.3563951207
  0
ELLIPSE
  5
5D4
100
AcDbEntity
  8
SUPERFICI
100
AcDbEllipse
 62
7
  6
CONTINUOUS
 10
-16.2116895318
 20
-2.7278040617
 30
0.0
 11
-0.1500529453
 21
0.2598034383
 31
0.0
 40
0.5773316475
 41
-2.3563951207
 42
-0.7855987939
  0
ELLIPSE
  5
5D5
100
AcDbEntity
  8
SUPERFICI
100
AcDbEllipse
 62
7
  6
CONTINUOUS
 10
-16.2116895318
 20
-7.9532138332
 30
0.0
 11
-0.1500529453
 21
0.2598034383
 31
0.0
 40
0.5773316475
 41
-3.1502321102
 42
-2.3563951207
  0
ELLIPSE
  5
5D6
100
AcDbEntity
  8
SUPERFICI
100
AcDbEllipse
 62
7
  6
CONTINUOUS
 10
-16.2116895318
 20
21.766304242
 30
0.0
 11
-0.1500529453
 21
0.2598034383
 31
0.0
 40
0.5773316475
 41
-3.1502321102
 42
-2.3563951207
  0
ELLIPSE
  5
5D7
100
AcDbEntity
  8
0
100
AcDbEllipse
 62
7
  6
CONTINUOUS
 10
-14.3012346495
 20
77.2772897937
 30
0.0
 11
0.1999154856
 21
0.0095814127
 31
0.0
 40
0.6067642562
 41
-0.8144705522
 42
-0.7621106746
  0
ELLIPSE
  5
5D8
100
AcDbEntity
  8
0
100
AcDbEllipse
 62
7
  6
CONTINUOUS
 10
-16.2116895318
 20
55.2415855905
 30
0.0
 11
-0.1500529453
 21
0.2598034383
 31
0.0
 40
0.5773316475
 41
-2.3563951207
 42
-0.7855987939
  0
ELLIPSE
  5
5D9
100
AcDbEntity
  8
SUPERFICI
100
AcDbEllipse
 62
7
  6
CONTINUOUS
 10
-14.719444784
 20
5.9312074709
 30
0.0
 11
0.2008240461
 21
0.1149900593
 31
0.0
 40
0.0035062734
 41
0.0019064971
 42
0.7351275774
  0
ELLIPSE
  5
5DA
100
AcDbEntity
  8
0
100
AcDbEllipse
 62
7
  6
CONTINUOUS
 10
-16.1397445942
 20
73.6522816318
 30
0.0
 11
-0.1500529453
 21
0.2598034383
 31
0.0
 40
0.5773316475
 41
-2.3563951207
 42
-0.7855987939
  0
ELLIPSE
  5
5DB
100
AcDbEntity
  8
SUPERFICI
100
AcDbEllipse
 62
7
  6
CONTINUOUS
 10
-3.0586075012
 20
-15.8338567528
 30
0.0
 11
0.2123743771
 21
0.3678550612
 31
0.0
 40
0.5773586895
 41
-2.3535936561
 42
-1.8309336332
  0
ELLIPSE
  5
5DC
100
AcDbEntity
  8
SUPERFICI
100
AcDbEllipse
 62
7
  6
CONTINUOUS
 10
12.8512950755
 20
-25.0200351027
 30
0.0
 11
0.2123743771
 21
0.3678550612
 31
0.0
 40
0.5773586895
 41
-2.3535936561
 42
-1.8309336332
  0
ELLIPSE
  5
5DD
100
AcDbEntity
  8
0
100
AcDbEllipse
 62
7
  6
CONTINUOUS
 10
-2.3085572082
 20
42.4043092972
 30
0.0
 11
0.1999995634
 21
0.1164181051
 31
0.0
 40
0.0035896273
 41
-0.7351277754
 42
-0.0019562056
  0
ELLIPSE
  5
5DE
100
AcDbEntity
  8
0
100
AcDbEllipse
 62
7
  6
CONTINUOUS
 10
-14.3012346495
 20
-52.1161333204
 30
0.0
 11
0.1999444062
 21
-0.00862956
 31
0.0
 40
0.5464172455
 41
-0.7618192766
 42
-0.709459399
  0
ELLIPSE
  5
5DF
100
AcDbEntity
  8
RACCORDO
100
AcDbEllipse
 62
7
  6
CONTINUOUS
 10
-17.1469737206
 20
-61.218686288
 30
0.0
 11
-0.1500529453
 21
0.2598034383
 31
0.0
 40
0.5773316475
 41
-2.3563951207
 42
-1.0774465703
  0
ELLIPSE
  5
5E0
100
AcDbEntity
  8
SUPERFICI
100
AcDbEllipse
 62
7
  6
CONTINUOUS
 10
-16.715304095
 20
3.1149193205
 30
0.0
 11
-0.1500529453
 21
0.2598034383
 31
0.0
 40
0.5773316475
 41
2.5457885314
 42
3.9267901865
  0
ELLIPSE
  5
5E1
100
AcDbEntity
  8
SUPERFICI
100
AcDbEllipse
 62
7
  6
CONTINUOUS
 10
-17.1469737206
 20
21.2448116681
 30
0.0
 11
-0.1500529453
 21
0.2598034383
 31
0.0
 40
0.5773316475
 41
2.3559938597
 42
3.9267901865
  0
ELLIPSE
  5
5E2
100
AcDbEntity
  8
SUPERFICI
100
AcDbEllipse
 62
7
  6
CONTINUOUS
 10
-17.1469737206
 20
-8.4747064072
 30
0.0
 11
-0.1500529453
 21
0.2598034383
 31
0.0
 40
0.5773316475
 41
2.3559938597
 42
3.9267901865
  0
ELLIPSE
  5
5E3
100
AcDbEntity
  8
SUPERFICI
100
AcDbEllipse
 62
7
  6
CONTINUOUS
 10
-16.715304095
 20
15.3619734724
 30
0.0
 11
-0.1500529453
 21
0.2598034383
 31
0.0
 40
0.5773316475
 41
-2.3563951207
 42
-0.9753934656
  0
ELLIPSE
  5
5E4
100
AcDbEntity
  8
RACCORDO
100
AcDbEllipse
 62
7
  6
CONTINUOUS
 10
-17.1469737206
 20
-36.7245779842
 30
0.0
 11
-0.1500529453
 21
0.2598034383
 31
0.0
 40
0.5773316475
 41
2.3559938597
 42
3.9267901865
  0
ELLIPSE
  5
5E5
100
AcDbEntity
  8
RACCORDO
100
AcDbEllipse
 62
7
  6
CONTINUOUS
 10
-17.1469737206
 20
-66.4440960594
 30
0.0
 11
-0.1500529453
 21
0.2598034383
 31
0.0
 40
0.5773316475
 41
2.3559938597
 42
3.9267901865
  0
ELLIPSE
  5
5E6
100
AcDbEntity
  8
SUPERFICI
100
AcDbEllipse
 62
7
  6
CONTINUOUS
 10
-17.1469737206
 20
-3.2492966357
 30
0.0
 11
-0.1500529453
 21
0.2598034383
 31
0.0
 40
0.5773316475
 41
-2.3563951207
 42
-1.0774465703
  0
ELLIPSE
  5
5E7
100
AcDbEntity
  8
RACCORDO
100
AcDbEllipse
 62
7
  6
CONTINUOUS
 10
-16.715304095
 20
-54.8544703317
 30
0.0
 11
-0.1500529453
 21
0.2598034383
 31
0.0
 40
0.5773316475
 41
2.5457885314
 42
3.9267901865
  0
ELLIPSE
  5
5E8
100
AcDbEntity
  8
0
100
AcDbEllipse
 62
7
  6
CONTINUOUS
 10
-16.715304095
 20
73.3313631247
 30
0.0
 11
-0.1500529453
 21
0.2598034383
 31
0.0
 40
0.5773316475
 41
-2.3563951207
 42
-0.9753934656
  0
ELLIPSE
  5
5E9
100
AcDbEntity
  8
0
100
AcDbEllipse
 62
7
  6
CONTINUOUS
 10
-16.715304095
 20
61.0843089728
 30
0.0
 11
-0.1500529453
 21
0.2598034383
 31
0.0
 40
0.5773316475
 41
2.5457885314
 42
3.9267901865
  0
ELLIPSE
  5
5EA
100
AcDbEntity
  8
0
100
AcDbEllipse
 62
7
  6
CONTINUOUS
 10
-17.1469737206
 20
79.2142013204
 30
0.0
 11
-0.1500529453
 21
0.2598034383
 31
0.0
 40
0.5773316475
 41
2.3559938597
 42
3.9267901865
  0
ELLIPSE
  5
5EB
100
AcDbEntity
  8
0
100
AcDbEllipse
 62
7
  6
CONTINUOUS
 10
-17.1469737206
 20
54.7200930166
 30
0.0
 11
-0.1500529453
 21
0.2598034383
 31
0.0
 40
0.5773316475
 41
-2.3563951207
 42
-1.0774465703
  0
ELLIPSE
  5
5EC
100
AcDbEntity
  8
0
100
AcDbEllipse
 62
7
  6
CONTINUOUS
 10
-17.1469737206
 20
49.4946832451
 30
0.0
 11
-0.1500529453
 21
0.2598034383
 31
0.0
 40
0.5773316475
 41
2.3559938597
 42
3.9267901865
  0
ELLIPSE
  5
5ED
100
AcDbEntity
  8
RACCORDO
100
AcDbEllipse
 62
7
  6
CONTINUOUS
 10
-16.715304095
 20
-42.6074161799
 30
0.0
 11
-0.1500529453
 21
0.2598034383
 31
0.0
 40
0.5773316475
 41
-2.3563951207
 42
-0.9753934656
  0
ELLIPSE
  5
5EE
100
AcDbEntity
  8
ASSI
100
AcDbEllipse
 62
7
  6
CONTINUOUS
 10
-2.1669417729
 20
-73.1333450747
 30
0.0
 11
0.0925036689
 21
0.1774691851
 31
0.0
 40
0.5463614449
 41
0.709509901
 42
0.7618697785
  0
ENDSEC
  0
SECTION
  2
OBJECTS
  0
DICTIONARY
  5
C
100
AcDbDictionary
280
0
281
1
  3
ACAD_GROUP
350
D
  3
ACAD_MLINESTYLE
350
17
  3
ACAD_LAYOUT
350
1A
  3
ACAD_PLOTSETTINGS
350
19
  3
ACAD_PLOTSTYLENAME
350
E
  0
DICTIONARY
  5
D
102
{ACAD_REACTORS
330
C
102
}
100
AcDbDictionary
280
0
281
1
  0
ACDBDICTIONARYWDFLT
  5
E
102
{ACAD_REACTORS
330
C
102
}
100
AcDbDictionary
281
1
  3
Normal
350
F
100
AcDbDictionaryWithDefault
340
F
  0
DICTIONARY
  5
17
102
{ACAD_REACTORS
330
C
102
}
100
AcDbDictionary
280
0
281
1
  3
Standard
350
18
  0
DICTIONARY
  5
19
102
{ACAD_REACTORS
330
C
102
}
100
AcDbDictionary
281
1
  0
DICTIONARY
  5
1A
102
{ACAD_REACTORS
330
C
102
}
100
AcDbDictionary
281
1
  3
Model
350
5EF
  3
Layout1
350
5F0
  0
ACDBPLACEHOLDER
  5
F
102
{ACAD_REACTORS
330
E
102
}
  0
MLINESTYLE
  5
18
102
{ACAD_REACTORS
330
17
102
}
100
AcDbMlineStyle
  2
STANDARD
 70
0
  3

 62
256
 51
90.0
 52
90.0
 71
2
 49
0.5
 62
256
  6
BYLAYER
 49
-0.5
 62
256
  6
BYLAYER
  0
LAYOUT
  5
5EF
102
{ACAD_REACTORS
330
1A
102
}
100
AcDbPlotSettings
  1

  2
none_device
  4
ISO_A4_(297.00_x_210.00_MM)
  6

 40
0.0
 41
0.0
 42
0.0
 43
0.0
 44
297.0
 45
210.0
 46
0.0
 47
0.0
 48
0.0
 49
0.0
140
0.0
141
0.0
142
1.0
143
1.0
 70
1024
 72
1
 73
0
 74
0
  7

 75
0
147
1.0
148
0.0
149
0.0
100
AcDbLayout
  1
Model
 70
0
 71
0
 10
0.0
 20
0.0
 11
297.0
 21
210.0
 12
0.0
 22
0.0
 32
0.0
 14
0.0
 24
0.0
 34
0.0
 15
0.0
 25
0.0
 35
0.0
146
0.0
 13
0.0
 23
0.0
 33
0.0
 16
1.0
 26
0.0
 36
0.0
 17
0.0
 27
1.0
 37
0.0
 76
0
330
215
345
0
346
0
  0
LAYOUT
  5
5F0
102
{ACAD_REACTORS
330
1A
102
}
100
AcDbPlotSettings
  1

  2
none_device
  4
ISO_A4_(297.00_x_210.00_MM)
  6

 40
0.0
 41
0.0
 42
0.0
 43
0.0
 44
297.0
 45
210.0
 46
0.0
 47
0.0
 48
0.0
 49
0.0
140
0.0
141
0.0
142
1.0
143
1.0
 70
0
 72
1
 73
0
 74
0
  7

 75
0
147
1.0
148
0.0
149
0.0
100
AcDbLayout
  1
Layout1
 70
0
 71
1
 10
0.0
 20
0.0
 11
297.0
 21
210.0
 12
0.0
 22
0.0
 32
0.0
 14
0.0
 24
0.0
 34
0.0
 15
0.0
 25
0.0
 35
0.0
146
0.0
 13
0.0
 23
0.0
 33
0.0
 16
1.0
 26
0.0
 36
0.0
 17
0.0
 27
1.0
 37
0.0
 76
0
330
216
345
0
346
0
  0
ENDSEC
  0
EOF
