  0
SECTION
  2
HEADER
  9
$ACADVER
  1
AC1015
  9
$DWGCODEPAGE
  3
ANSI_1252
  9
$EXTMAX
 10
297.0
 20
210.0
 30
0.0
  9
$EXTMIN
 10
0.0
 20
0.0
 30
0.0
  9
$LIMMIN
 10
0.0
 20
0.0
  9
$LIMMAX
 10
297.0
 20
210.0
  9
$VIEWCTR
 10
148.5
 20
105.0
  9
$VIEWSIZE
 40
210.0
  9
$CLAYER
  8
0
  9
$LTSCALE
 40
16.335
  9
$CELTYPE
  6
BYLAYER
  9
$DIMSCALE
 40
1.0
  9
$DIMASZ
 40
3.0
  9
$DIMEXO
 40
1.85625
  9
$DIMDLI
 40
11.286
  9
$DIMEXE
 40
5.346
  9
$DIMCEN
 40
2.673
  9
$DIMLFAC
 40
1.0
  9
$DIMBLK
  1
_FILLED
  9
$DIMTXT
 40
3.0
  9
$DIMTOL
 70
1
  9
$DIMLIM
 70
0
  9
$DIMTFAC
 40
1.0
  9
$DIMTP
 40
0.01
  9
$DIMTM
 40
0.01
  9
$PDMODE
 70
3
  9
$PDSIZE
 40
3.0
  9
$HANDSEED
  5
5F6
  9
$TILEMODE
 70
1
  9
$MEASUREMENT
 70
1
  9
$INSUNITS
 70
4
  0
ENDSEC
  0
SECTION
  2
CLASSES
  0
CLASS
  1
ACDBDICTIONARYWDFLT
  2
AcDbDictionaryWithDefault
  3
AutoCAD 2000
 90
0
280
0
281
0
  0
CLASS
  1
ACDBPLACEHOLDER
  2
AcDbPlaceHolder
  3
AutoCAD 2000
 90
0
280
0
281
0
  0
CLASS
  1
LAYOUT
  2
AcDbLayout
  3
AutoCAD 2000
 90
0
280
0
281
0
  0
ENDSEC
  0
SECTION
  2
TABLES
  0
TABLE
  2
VPORT
  5
8
100
AcDbSymbolTable
 70
2
  0
VPORT
  5
1F4
100
AcDbSymbolTableRecord
100
AcDbViewportTableRecord
  2
*ACTIVE
 70
0
 10
0.0
 20
0.0
 11
1.0
 21
1.0
 12
148.5
 22
105.0
 13
0.0
 23
0.0
 14
1.0
 24
1.0
 15
0.0
 25
0.0
 16
0.0
 26
0.0
 36
1.0
 17
0.0
 27
0.0
 37
0.0
 40
210.0
 41
1.4142857143
 42
50.0
 43
0.0
 44
0.0
 50
0.0
 51
0.0
 71
0
 72
100
 73
1
 74
1
 75
0
 76
0
 77
0
 78
0
  0
ENDTAB
  0
TABLE
  2
LTYPE
  5
5
100
AcDbSymbolTable
 70
6
  0
LTYPE
  5
14
100
AcDbSymbolTableRecord
100
AcDbLinetypeTableRecord
  2
BYBLOCK
 70
0
  3

 72
65
 73
0
 40
0.0
  0
LTYPE
  5
15
100
AcDbSymbolTableRecord
100
AcDbLinetypeTableRecord
  2
BYLAYER
 70
0
  3

 72
65
 73
0
 40
0.0
  0
LTYPE
  5
16
100
AcDbSymbolTableRecord
100
AcDbLinetypeTableRecord
  2
CONTINUOUS
 70
64
  3
Solid line
 72
65
 73
0
 40
0.0
  0
LTYPE
  5
1F5
100
AcDbSymbolTableRecord
100
AcDbLinetypeTableRecord
  2
CENTER
 70
64
  3
____ _ ____ _ ____ _ ____ _ ____ _ ____ _ ____
 72
65
 73
4
 40
0.6
 49
0.375
 74
0
 49
-0.075
 74
0
 49
0.075
 74
0
 49
-0.075
 74
0
  0
LTYPE
  5
1F6
100
AcDbSymbolTableRecord
100
AcDbLinetypeTableRecord
  2
HIDDEN
 70
64
  3
- - - - - - - - - - - - - - - - - - - -
 72
65
 73
2
 40
0.2
 49
0.1
 74
0
 49
-0.1
 74
0
  0
LTYPE
  5
1F7
100
AcDbSymbolTableRecord
100
AcDbLinetypeTableRecord
  2
PHANTOM
 70
64
  3
_____ _ _ _____ _ _ _____ _ _ _____
 72
65
 73
6
 40
0.8
 49
0.45
 74
0
 49
-0.05
 74
0
 49
0.1
 74
0
 49
-0.05
 74
0
 49
0.1
 74
0
 49
-0.05
 74
0
  0
LTYPE
  5
1F8
100
AcDbSymbolTableRecord
100
AcDbLinetypeTableRecord
  2
DOT
 70
64
  3
. . . . . . . . . . . . . . . . . . . .
 72
65
 73
2
 40
0.2
 49
0.1
 74
0
 49
-0.1
 74
0
  0
LTYPE
  5
1F9
100
AcDbSymbolTableRecord
100
AcDbLinetypeTableRecord
  2
DASHED
 70
64
  3
- - - - - - - - - - - - - - - - - - - -
 72
65
 73
2
 40
0.2
 49
0.1
 74
0
 49
-0.1
 74
0
  0
ENDTAB
  0
TABLE
  2
LAYER
  5
2
100
AcDbSymbolTable
 70
36
  0
LAYER
  5
10
100
AcDbSymbolTableRecord
100
AcDbLayerTableRecord
  2
0
 70
0
 62
7
  6
CONTINUOUS
370
-3
390
F
  0
LAYER
  5
1FA
100
AcDbSymbolTableRecord
100
AcDbLayerTableRecord
  2
DEFAULT_1
 70
0
 62
7
  6
CENTER
370
-3
390
F
  0
LAYER
  5
1FB
100
AcDbSymbolTableRecord
100
AcDbLayerTableRecord
  2
DEFAULT_2
 70
0
 62
7
  6
HIDDEN
370
-3
390
F
  0
LAYER
  5
1FC
100
AcDbSymbolTableRecord
100
AcDbLayerTableRecord
  2
DEFAULT_3
 70
0
 62
7
  6
PHANTOM
370
-3
390
F
  0
LAYER
  5
1FD
100
AcDbSymbolTableRecord
100
AcDbLayerTableRecord
  2
ASSI
 70
0
 62
7
  6
CONTINUOUS
370
-3
390
F
  0
LAYER
  5
1FE
100
AcDbSymbolTableRecord
100
AcDbLayerTableRecord
  2
COORDINATE
 70
0
 62
7
  6
CONTINUOUS
370
-3
390
F
  0
LAYER
  5
1FF
100
AcDbSymbolTableRecord
100
AcDbLayerTableRecord
  2
COORD_ORIGINE
 70
0
 62
7
  6
CONTINUOUS
370
-3
390
F
  0
LAYER
  5
200
100
AcDbSymbolTableRecord
100
AcDbLayerTableRecord
  2
COPY_PUBLISH
 70
0
 62
7
  6
CONTINUOUS
370
-3
390
F
  0
LAYER
  5
201
100
AcDbSymbolTableRecord
100
AcDbLayerTableRecord
  2
COSMETIC
 70
0
 62
7
  6
CONTINUOUS
370
-3
390
F
  0
LAYER
  5
202
100
AcDbSymbolTableRecord
100
AcDbLayerTableRecord
  2
COSMETICI
 70
0
 62
7
  6
CONTINUOUS
370
-3
390
F
  0
LAYER
  5
203
100
AcDbSymbolTableRecord
100
AcDbLayerTableRecord
  2
CURVE
 70
0
 62
7
  6
CONTINUOUS
370
-3
390
F
  0
LAYER
  5
204
100
AcDbSymbolTableRecord
100
AcDbLayerTableRecord
  2
DRAFT
 70
0
 62
7
  6
CONTINUOUS
370
-3
390
F
  0
LAYER
  5
205
100
AcDbSymbolTableRecord
100
AcDbLayerTableRecord
  2
IMPORT_IGES
 70
0
 62
7
  6
CONTINUOUS
370
-3
390
F
  0
LAYER
  5
206
100
AcDbSymbolTableRecord
100
AcDbLayerTableRecord
  2
INTFCLR_2
 70
0
 62
7
  6
CONTINUOUS
370
-3
390
F
  0
LAYER
  5
207
100
AcDbSymbolTableRecord
100
AcDbLayerTableRecord
  2
NOTE
 70
0
 62
7
  6
CONTINUOUS
370
-3
390
F
  0
LAYER
  5
208
100
AcDbSymbolTableRecord
100
AcDbLayerTableRecord
  2
PIANI
 70
0
 62
7
  6
CONTINUOUS
370
-3
390
F
  0
LAYER
  5
209
100
AcDbSymbolTableRecord
100
AcDbLayerTableRecord
  2
PIANI_ORIGINE
 70
0
 62
7
  6
CONTINUOUS
370
-3
390
F
  0
LAYER
  5
20A
100
AcDbSymbolTableRecord
100
AcDbLayerTableRecord
  2
PIANI_RIFERIMENTO
 70
0
 62
7
  6
CONTINUOUS
370
-3
390
F
  0
LAYER
  5
20B
100
AcDbSymbolTableRecord
100
AcDbLayerTableRecord
  2
PUNTI
 70
0
 62
7
  6
CONTINUOUS
370
-3
390
F
  0
LAYER
  5
20C
100
AcDbSymbolTableRecord
100
AcDbLayerTableRecord
  2
RACCORDO
 70
0
 62
7
  6
CONTINUOUS
370
-3
390
F
  0
LAYER
  5
20D
100
AcDbSymbolTableRecord
100
AcDbLayerTableRecord
  2
SIMBOLI
 70
0
 62
7
  6
CONTINUOUS
370
-3
390
F
  0
LAYER
  5
20E
100
AcDbSymbolTableRecord
100
AcDbLayerTableRecord
  2
SMUSSO
 70
0
 62
7
  6
CONTINUOUS
370
-3
390
F
  0
LAYER
  5
20F
100
AcDbSymbolTableRecord
100
AcDbLayerTableRecord
  2
SNAPLINE
 70
0
 62
7
  6
CONTINUOUS
370
-3
390
F
  0
LAYER
  5
210
100
AcDbSymbolTableRecord
100
AcDbLayerTableRecord
  2
SUPERFICI
 70
0
 62
7
  6
CONTINUOUS
370
-3
390
F
  0
LAYER
  5
211
100
AcDbSymbolTableRecord
100
AcDbLayerTableRecord
  2
TRASH
 70
0
 62
7
  6
CONTINUOUS
370
-3
390
F
  0
LAYER
  5
212
100
AcDbSymbolTableRecord
100
AcDbLayerTableRecord
  2
XSEC_DATUMS
 70
0
 62
7
  6
CONTINUOUS
370
-3
390
F
  0
ENDTAB
  0
TABLE
  2
STYLE
  5
3
100
AcDbSymbolTable
 70
1
  0
STYLE
  5
11
100
AcDbSymbolTableRecord
100
AcDbTextStyleTableRecord
  2
STANDARD
 70
0
 40
0.0
 41
0.8
 50
0.0
 71
0
 42
0.2
  3
txt
  4

  0
STYLE
  5
213
100
AcDbSymbolTableRecord
100
AcDbTextStyleTableRecord
  2
TEXTSTYLE_1
 70
0
 40
0.0
 41
0.8
 50
0.0
 71
0
 42
0.2
  3
gdt
  4

  0
ENDTAB
  0
TABLE
  2
VIEW
  5
6
100
AcDbSymbolTable
 70
0
  0
ENDTAB
  0
TABLE
  2
UCS
  5
7
100
AcDbSymbolTable
 70
0
  0
ENDTAB
  0
TABLE
  2
APPID
  5
9
100
AcDbSymbolTable
 70
1
  0
APPID
  5
214
100
AcDbSymbolTableRecord
100
AcDbRegAppTableRecord
  2
ACAD
 70
0
  0
ENDTAB
  0
TABLE
  2
BLOCK_RECORD
  5
1
100
AcDbSymbolTable
 70
0
  0
BLOCK_RECORD
  5
215
100
AcDbSymbolTableRecord
100
AcDbBlockTableRecord
  2
*Model_Space
  0
BLOCK_RECORD
  5
216
100
AcDbSymbolTableRecord
100
AcDbBlockTableRecord
  2
*Paper_Space
  0
ENDTAB
  0
TABLE
  2
DIMSTYLE
  5
A
100
AcDbSymbolTable
 70
1
100
AcDbDimStyleTable
 71
0
  0
DIMSTYLE
105
217
100
AcDbSymbolTableRecord
100
AcDbDimStyleTableRecord
  2
STANDARD
 70
0
  3

  4

 40
1.0
 41
3.0
 42
0.0625
 43
0.38
 44
0.18
 45
0.0
 46
0.0
 47
0.01
 48
0.01
140
3.0
141
0.09
142
0.0
143
25.4
144
1.0
145
0.0
146
1.0
147
0.09
 71
1.0
 72
0.0
 73
0
 74
0
 75
0
 76
0
 77
1
 78
8
170
0
171
2
172
0
173
0
174
0
175
0
176
0
177
0
178
0
270
2
271
2
272
2
273
2
274
2
275
0
280
0
281
0
282
0
283
1
284
8
285
0
286
0
287
3
288
0
340
11
  0
ENDTAB
  0
ENDSEC
  0
SECTION
  2
BLOCKS
  0
BLOCK
  5
20
100
AcDbEntity
  8
0
100
AcDbBlockBegin
  2
*Model_Space
 70
0
 10
0.0
 20
0.0
 30
0.0
  3
*Model_Space
  1

  0
ENDBLK
  5
21
100
AcDbEntity
  8
0
100
AcDbBlockEnd
  0
BLOCK
  5
1C
100
AcDbEntity
  8
0
100
AcDbBlockBegin
  2
*Paper_Space
 70
0
 10
0.0
 20
0.0
 30
0.0
  3
*Paper_Space
  1

  0
ENDBLK
  5
1D
100
AcDbEntity
  8
0
100
AcDbBlockEnd
  0
ENDSEC
  0
SECTION
  2
ENTITIES
  0
LINE
  5
218
100
AcDbEntity
  8
DRAFT
100
AcDbLine
 62
7
  6
CONTINUOUS
 10
-33.3122140536
 20
115.8886466275
 11
-31.6421238332
 21
116.9011394695
  0
LINE
  5
219
100
AcDbEntity
  8
DRAFT
100
AcDbLine
 62
7
  6
CONTINUOUS
 10
-32.5741099819
 20
115.8216948827
 11
-30.8828886693
 21
116.8322709718
  0
LINE
  5
21A
100
AcDbEntity
  8
RACCORDO
100
AcDbLine
 62
7
  6
CONTINUOUS
 10
-35.3056729974
 20
115.1067851575
 11
-34.1759846141
 21
115.7590530717
  0
LINE
  5
21B
100
AcDbEntity
  8
SMUSSO
100
AcDbLine
 62
7
  6
CONTINUOUS
 10
-34.7366206258
 20
115.0971000041
 11
-33.675960454
 21
115.709511894
  0
LINE
  5
21C
100
AcDbEntity
  8
DRAFT
100
AcDbLine
 62
7
  6
CONTINUOUS
 10
33.07491969
 20
-114.947022445
 11
33.7229857155
 21
-114.9470224437
  0
LINE
  5
21D
100
AcDbEntity
  8
DRAFT
100
AcDbLine
 62
7
  6
CONTINUOUS
 10
-32.8981429947
 20
115.2604532418
 11
-32.5741099819
 21
115.8216948827
  0
LWPOLYLINE
  5
21E
100
AcDbEntity
  8
RACCORDO
100
AcDbPolyline
 62
7
  6
CONTINUOUS
 90
13
 70
0
 10
-21.8698773155
 20
88.0496540219
 10
-21.8951638064
 20
88.0327803047
 10
-21.9260478485
 20
88.0083819871
 10
-21.9552289678
 20
87.9806706908
 10
-21.9823958333
 20
87.9496624032
 10
-22.0071640583
 20
87.9155197242
 10
-22.0291445381
 20
87.8785368506
 10
-22.0481158349
 20
87.8388472474
 10
-22.0638537683
 20
87.7966650516
 10
-22.0761487805
 20
87.7523902089
 10
-22.0849100681
 20
87.7062279215
 10
-22.0900720187
 20
87.6582346301
 10
-22.0915871378
 20
87.6134270999
  0
LINE
  5
21F
100
AcDbEntity
  8
RACCORDO
100
AcDbLine
 62
7
  6
CONTINUOUS
 10
-21.8700723372
 20
88.0495407146
 11
-21.5870073201
 21
88.2245923673
  0
LINE
  5
220
100
AcDbEntity
  8
RACCORDO
100
AcDbLine
 62
7
  6
CONTINUOUS
 10
-21.5124997588
 20
88.019425923
 11
-21.2309564922
 21
88.1935365024
  0
LINE
  5
221
100
AcDbEntity
  8
SMUSSO
100
AcDbLine
 62
7
  6
CONTINUOUS
 10
-34.7366206258
 20
-78.7329437066
 11
31.307152737
 21
-116.8657907234
  0
LINE
  5
222
100
AcDbEntity
  8
SMUSSO
100
AcDbLine
 62
7
  6
CONTINUOUS
 10
-32.6153002822
 20
-76.6920441991
 11
26.3574052687
 21
-110.7421452826
  0
LINE
  5
223
100
AcDbEntity
  8
DRAFT
100
AcDbLine
 62
7
  6
CONTINUOUS
 10
-17.028853766
 20
78.5825972923
 11
-17.564892874
 21
78.2388602058
  0
LINE
  5
224
100
AcDbEntity
  8
0
100
AcDbLine
 62
7
  6
CONTINUOUS
 10
-14.5133666839
 20
76.9996355618
 11
-16.988240418
 21
75.420911606
  0
LINE
  5
225
100
AcDbEntity
  8
0
100
AcDbLine
 62
7
  6
CONTINUOUS
 10
-17.028853766
 20
74.9804673928
 11
-16.988240418
 21
75.005579894
  0
LINE
  5
226
100
AcDbEntity
  8
0
100
AcDbLine
 62
7
  6
CONTINUOUS
 10
-14.884597744
 20
81.4885533707
 11
-15.2027957955
 21
81.3048298037
  0
LINE
  5
227
100
AcDbEntity
  8
0
100
AcDbLine
 62
7
  6
CONTINUOUS
 10
-15.2381511346
 20
81.2844160741
 11
-15.5563491861
 21
81.1006925071
  0
LINE
  5
228
100
AcDbEntity
  8
0
100
AcDbLine
 62
7
  6
CONTINUOUS
 10
-15.5917045252
 20
81.0802787774
 11
-15.9099025767
 21
80.8965552104
  0
LINE
  5
229
100
AcDbEntity
  8
0
100
AcDbLine
 62
7
  6
CONTINUOUS
 10
-15.9452579158
 20
80.8761414807
 11
-16.2634559673
 21
80.6924179137
  0
LINE
  5
22A
100
AcDbEntity
  8
0
100
AcDbLine
 62
7
  6
CONTINUOUS
 10
-16.2988113063
 20
80.6720041841
 11
-16.3530785744
 21
80.6406709436
  0
LINE
  5
22B
100
AcDbEntity
  8
0
100
AcDbLine
 62
7
  6
CONTINUOUS
 10
-16.3530785744
 20
80.5181885656
 11
-16.2988113063
 21
80.5495218061
  0
LINE
  5
22C
100
AcDbEntity
  8
0
100
AcDbLine
 62
7
  6
CONTINUOUS
 10
-16.0513239329
 20
80.6924179137
 11
-15.9452579158
 21
80.7536591027
  0
LINE
  5
22D
100
AcDbEntity
  8
0
100
AcDbLine
 62
7
  6
CONTINUOUS
 10
-15.6977705423
 20
80.8965552104
 11
-15.5917045252
 21
80.9577963994
  0
LINE
  5
22E
100
AcDbEntity
  8
0
100
AcDbLine
 62
7
  6
CONTINUOUS
 10
-15.3442171517
 20
81.1006925071
 11
-15.2381511346
 21
81.1619336961
  0
LINE
  5
22F
100
AcDbEntity
  8
0
100
AcDbLine
 62
7
  6
CONTINUOUS
 10
-14.9906637612
 20
81.3048298037
 11
-14.884597744
 21
81.3660709927
  0
LINE
  5
230
100
AcDbEntity
  8
0
100
AcDbLine
 62
7
  6
CONTINUOUS
 10
-17.028853766
 20
75.6374179171
 11
-17.0059180875
 21
75.6506606904
  0
LINE
  5
231
100
AcDbEntity
  8
0
100
AcDbLine
 62
7
  6
CONTINUOUS
 10
-16.7584307141
 20
75.793556798
 11
-16.6523646969
 21
75.854797987
  0
LINE
  5
232
100
AcDbEntity
  8
0
100
AcDbLine
 62
7
  6
CONTINUOUS
 10
-16.4048773235
 20
75.9976940947
 11
-16.2988113063
 21
76.0589352837
  0
LINE
  5
233
100
AcDbEntity
  8
0
100
AcDbLine
 62
7
  6
CONTINUOUS
 10
-16.0513239329
 20
76.2018313914
 11
-15.9452579158
 21
76.2630725804
  0
LINE
  5
234
100
AcDbEntity
  8
0
100
AcDbLine
 62
7
  6
CONTINUOUS
 10
-15.6977705423
 20
76.405968688
 11
-15.5917045252
 21
76.467209877
  0
LINE
  5
235
100
AcDbEntity
  8
0
100
AcDbLine
 62
7
  6
CONTINUOUS
 10
-15.3442171517
 20
76.6101059847
 11
-15.2381511346
 21
76.6713471737
  0
LINE
  5
236
100
AcDbEntity
  8
0
100
AcDbLine
 62
7
  6
CONTINUOUS
 10
-14.9906637612
 20
76.8142432814
 11
-14.884597744
 21
76.8754844704
  0
LINE
  5
237
100
AcDbEntity
  8
0
100
AcDbLine
 62
7
  6
CONTINUOUS
 10
-14.6371103706
 20
77.018380578
 11
-14.5310443534
 21
77.079621767
  0
LINE
  5
238
100
AcDbEntity
  8
0
100
AcDbLine
 62
7
  6
CONTINUOUS
 10
-15.790077944
 20
81.7970575919
 11
-16.3530785744
 21
81.4733770782
  0
LINE
  5
239
100
AcDbEntity
  8
0
100
AcDbLine
 62
7
  6
CONTINUOUS
 10
-16.3530785744
 20
81.5198141422
 11
-15.9804239421
 21
81.7339194398
  0
LINE
  5
23A
100
AcDbEntity
  8
0
100
AcDbLine
 62
7
  6
CONTINUOUS
 10
-15.4711643363
 20
81.8506293438
 11
-16.3530785744
 21
81.3501841673
  0
LINE
  5
23B
100
AcDbEntity
  8
0
100
AcDbLine
 62
7
  6
CONTINUOUS
 10
-16.3530785744
 20
79.4171935457
 11
-17.2883627632
 21
78.8957009717
  0
LINE
  5
23C
100
AcDbEntity
  8
0
100
AcDbLine
 62
7
  6
CONTINUOUS
 10
-17.3517916121
 20
78.7576509091
 11
-16.4165074233
 21
79.279143483
  0
LINE
  5
23D
100
AcDbEntity
  8
0
100
AcDbLine
 62
7
  6
CONTINUOUS
 10
-17.028853766
 20
73.4026100324
 11
-16.4932979848
 21
73.7012234016
  0
LINE
  5
23E
100
AcDbEntity
  8
0
100
AcDbLine
 62
7
  6
CONTINUOUS
 10
-15.0780981896
 20
81.623677877
 11
-16.3530785744
 21
80.9646735053
  0
LWPOLYLINE
  5
23F
100
AcDbEntity
  8
RACCORDO
100
AcDbPolyline
 62
7
  6
CONTINUOUS
 90
13
 70
0
 10
14.5352345503
 20
-91.7648751395
 10
14.5751107705
 20
-91.7861202624
 10
14.619225186
 20
-91.8056074772
 10
14.663553299
 20
-91.8210684151
 10
14.7080117498
 20
-91.8325296847
 10
14.7523787899
 20
-91.839969459
 10
14.7962058224
 20
-91.8433698657
 10
14.839196453
 20
-91.8428146329
 10
14.8811243374
 20
-91.8384289625
 10
14.9215403995
 20
-91.8304032456
 10
14.9601120959
 20
-91.8189890723
 10
14.9966690171
 20
-91.8044448137
 10
15.0238990488
 20
-91.7909944343
  0
LINE
  5
240
100
AcDbEntity
  8
0
100
AcDbLine
 62
7
  6
CONTINUOUS
 10
-16.8566931376
 20
73.0128627761
 11
-16.2811336368
 21
73.3337812831
  0
LINE
  5
241
100
AcDbEntity
  8
RACCORDO
100
AcDbLine
 62
7
  6
CONTINUOUS
 10
-21.6588048065
 20
-70.8669015119
 11
14.5352098575
 21
-91.7648719614
  0
LINE
  5
242
100
AcDbEntity
  8
RACCORDO
100
AcDbLine
 62
7
  6
CONTINUOUS
 10
-21.7209295787
 20
-70.7295804617
 11
14.4753684153
 21
-91.6288692773
  0
LINE
  5
243
100
AcDbEntity
  8
RACCORDO
100
AcDbLine
 62
7
  6
CONTINUOUS
 10
12.5440715315
 20
-88.4202017336
 11
-19.7919160387
 21
-69.7498077757
  0
LINE
  5
244
100
AcDbEntity
  8
RACCORDO
100
AcDbLine
 62
7
  6
CONTINUOUS
 10
12.6836492681
 20
-88.1094409661
 11
-19.6523449846
 21
-69.4390431498
  0
LINE
  5
245
100
AcDbEntity
  8
RACCORDO
100
AcDbLine
 62
7
  6
CONTINUOUS
 10
-18.2449181791
 20
-68.6657578313
 11
12.8548813805
 21
-86.622392325
  0
LINE
  5
246
100
AcDbEntity
  8
RACCORDO
100
AcDbLine
 62
7
  6
CONTINUOUS
 10
-18.1301661553
 20
-68.5749440358
 11
12.8548813805
 21
-86.4653221491
  0
LINE
  5
247
100
AcDbEntity
  8
RACCORDO
100
AcDbLine
 62
7
  6
CONTINUOUS
 10
12.8548813805
 20
-86.1194253784
 11
-17.8306295668
 21
-68.4019959372
  0
LINE
  5
248
100
AcDbEntity
  8
RACCORDO
100
AcDbLine
 62
7
  6
CONTINUOUS
 10
-16.8170124512
 20
-67.8164385455
 11
12.8548813805
 21
-84.9486181677
  0
LINE
  5
249
100
AcDbEntity
  8
ASSI
100
AcDbLine
 62
7
  6
CONTINUOUS
 10
9.60582063
 20
-83.0459808127
 11
6.7175144213
 21
-81.3783090067
  0
LINE
  5
24A
100
AcDbEntity
  8
ASSI
100
AcDbLine
 62
7
  6
CONTINUOUS
 10
-6.3040819467
 20
-73.8598024628
 11
-9.1923881554
 21
-72.1921306569
  0
LINE
  5
24B
100
AcDbEntity
  8
ASSI
100
AcDbLine
 62
7
  6
CONTINUOUS
 10
-9.5636192155
 20
-71.9573609292
 11
-9.3825353797
 21
-72.0619164666
  0
LINE
  5
24C
100
AcDbEntity
  8
DRAFT
100
AcDbLine
 62
7
  6
CONTINUOUS
 10
6.1676677955
 20
-81.0404088901
 11
6.527367197
 21
-81.2480948164
  0
LINE
  5
24D
100
AcDbEntity
  8
ASSI
100
AcDbLine
 62
7
  6
CONTINUOUS
 10
9.6184146004
 20
-83.0124131175
 11
6.8589357775
 21
-81.4191246296
  0
LINE
  5
24E
100
AcDbEntity
  8
ASSI
100
AcDbLine
 62
7
  6
CONTINUOUS
 10
-6.2914879763
 20
-73.8262347677
 11
-9.0509667992
 21
-72.2329462797
  0
LINE
  5
24F
100
AcDbEntity
  8
0
100
AcDbLine
 62
7
  6
CONTINUOUS
 10
12.8548813805
 20
-84.7384096409
 11
9.811106589
 21
-82.9809722237
  0
LINE
  5
250
100
AcDbEntity
  8
RACCORDO
100
AcDbLine
 62
7
  6
CONTINUOUS
 10
4.5078057301
 20
-79.9189127738
 11
-6.0987959877
 21
-73.7947938739
  0
LINE
  5
251
100
AcDbEntity
  8
0
100
AcDbLine
 62
7
  6
CONTINUOUS
 10
-11.4020968466
 20
-70.7327344239
 11
-17.0264424919
 21
-67.4853077379
  0
LINE
  5
252
100
AcDbEntity
  8
0
100
AcDbLine
 62
7
  6
CONTINUOUS
 10
-10.6242793873
 20
-71.1537563857
 11
-9.7720490354
 21
-71.6458235099
  0
LINE
  5
253
100
AcDbEntity
  8
ASSI
100
AcDbLine
 62
7
  6
CONTINUOUS
 10
9.8117815501
 20
-82.8791078513
 11
6.9650017947
 21
-81.2354128991
  0
LINE
  5
254
100
AcDbEntity
  8
ASSI
100
AcDbLine
 62
7
  6
CONTINUOUS
 10
-6.0981210266
 20
-73.6929295015
 11
-8.944900782
 21
-72.0492345492
  0
LINE
  5
255
100
AcDbEntity
  8
0
100
AcDbLine
 62
7
  6
CONTINUOUS
 10
-10.6242793873
 20
-71.0565196461
 11
-9.6257440019
 21
-71.6330614631
  0
LINE
  5
256
100
AcDbEntity
  8
ASSI
100
AcDbLine
 62
7
  6
CONTINUOUS
 10
9.9178475673
 20
-82.8178666623
 11
7.0710678119
 21
-81.1741717101
  0
LINE
  5
257
100
AcDbEntity
  8
ASSI
100
AcDbLine
 62
7
  6
CONTINUOUS
 10
-5.9920550094
 20
-73.6316883125
 11
-8.8388347648
 21
-71.9879933602
  0
LINE
  5
258
100
AcDbEntity
  8
ASSI
100
AcDbLine
 62
7
  6
CONTINUOUS
 10
9.9532131564
 20
-82.7974470144
 11
7.2124891681
 21
-81.2149873329
  0
LINE
  5
259
100
AcDbEntity
  8
ASSI
100
AcDbLine
 62
7
  6
CONTINUOUS
 10
-5.9566894203
 20
-73.6112686646
 11
-8.6974134086
 21
-72.0288089831
  0
LINE
  5
25A
100
AcDbEntity
  8
RACCORDO
100
AcDbLine
 62
7
  6
CONTINUOUS
 10
-17.564892874
 20
-66.8478724709
 11
-17.5005271112
 21
-66.8850364556
  0
LINE
  5
25B
100
AcDbEntity
  8
DRAFT
100
AcDbLine
 62
7
  6
CONTINUOUS
 10
-17.3417413836
 20
-66.8950426986
 11
-17.028853766
 21
-67.0757000876
  0
LINE
  5
25C
100
AcDbEntity
  8
ASSI
100
AcDbLine
 62
7
  6
CONTINUOUS
 10
10.1653349407
 20
-82.6749705547
 11
7.3185551853
 21
-81.0312756024
  0
LINE
  5
25D
100
AcDbEntity
  8
ASSI
100
AcDbLine
 62
7
  6
CONTINUOUS
 10
-5.744567636
 20
-73.4887922048
 11
-8.5913473914
 21
-71.8450972525
  0
LINE
  5
25E
100
AcDbEntity
  8
ASSI
100
AcDbLine
 62
7
  6
CONTINUOUS
 10
10.2928831245
 20
-82.6261328994
 11
7.4246212025
 21
-80.9700344134
  0
LINE
  5
25F
100
AcDbEntity
  8
ASSI
100
AcDbLine
 62
7
  6
CONTINUOUS
 10
-5.6170194522
 20
-73.4399545496
 11
-8.4852813742
 21
-71.7838560635
  0
LINE
  5
260
100
AcDbEntity
  8
RACCORDO
100
AcDbLine
 62
7
  6
CONTINUOUS
 10
12.8548813805
 20
-84.0851702916
 11
10.3767920139
 21
-82.6543525491
  0
LINE
  5
261
100
AcDbEntity
  8
RACCORDO
100
AcDbLine
 62
7
  6
CONTINUOUS
 10
5.073491155
 20
-79.5922930991
 11
-5.5331105628
 21
-73.4681741992
  0
LINE
  5
262
100
AcDbEntity
  8
RACCORDO
100
AcDbLine
 62
7
  6
CONTINUOUS
 10
-10.8364114217
 20
-70.4061147492
 11
-16.4932979848
 21
-67.1398993451
  0
LINE
  5
263
100
AcDbEntity
  8
ASSI
100
AcDbLine
 62
7
  6
CONTINUOUS
 10
11.4551298552
 20
-83.2563602996
 11
7.5660425587
 21
-81.0108500363
  0
LINE
  5
264
100
AcDbEntity
  8
ASSI
100
AcDbLine
 62
7
  6
CONTINUOUS
 10
-4.4547727215
 20
-74.0701819497
 11
-8.343860018
 21
-71.8246716864
  0
LINE
  5
265
100
AcDbEntity
  8
ASSI
100
AcDbLine
 62
7
  6
CONTINUOUS
 10
11.5611958724
 20
-83.0726485691
 11
7.6721085759
 21
-80.8271383058
  0
LINE
  5
266
100
AcDbEntity
  8
ASSI
100
AcDbLine
 62
7
  6
CONTINUOUS
 10
-4.3487067043
 20
-73.8864702192
 11
-8.2377940008
 21
-71.6409599559
  0
LINE
  5
267
100
AcDbEntity
  8
ASSI
100
AcDbLine
 62
7
  6
CONTINUOUS
 10
11.7733279068
 20
-83.0726367326
 11
7.7781745931
 21
-80.7658971168
  0
LINE
  5
268
100
AcDbEntity
  8
ASSI
100
AcDbLine
 62
7
  6
CONTINUOUS
 10
-4.1365746699
 20
-73.8864583827
 11
-8.1317279836
 21
-71.5797187669
  0
LINE
  5
269
100
AcDbEntity
  8
ASSI
100
AcDbLine
 62
7
  6
CONTINUOUS
 10
11.8086832458
 20
-83.0522230029
 11
7.9195959493
 21
-80.8067127396
  0
LINE
  5
26A
100
AcDbEntity
  8
ASSI
100
AcDbLine
 62
7
  6
CONTINUOUS
 10
-4.1012193309
 20
-73.866044653
 11
-7.9903066274
 21
-71.6205343897
  0
LINE
  5
26B
100
AcDbEntity
  8
0
100
AcDbLine
 62
7
  6
CONTINUOUS
 10
-16.6222398629
 20
-66.4938654901
 11
-16.0069630543
 21
-66.8491186081
  0
LINE
  5
26C
100
AcDbEntity
  8
0
100
AcDbLine
 62
7
  6
CONTINUOUS
 10
-16.5328320467
 20
-66.4440137843
 11
-15.8569558063
 21
-66.8342562548
  0
LINE
  5
26D
100
AcDbEntity
  8
ASSI
100
AcDbLine
 62
7
  6
CONTINUOUS
 10
11.914749263
 20
-82.8685112724
 11
8.0256619665
 21
-80.6230010091
  0
LINE
  5
26E
100
AcDbEntity
  8
ASSI
100
AcDbLine
 62
7
  6
CONTINUOUS
 10
-3.9951533137
 20
-73.6823329225
 11
-7.8842406102
 21
-71.4368226592
  0
LINE
  5
26F
100
AcDbEntity
  8
ASSI
100
AcDbLine
 62
7
  6
CONTINUOUS
 10
12.1268812973
 20
-82.8684994359
 11
8.1317279836
 21
-80.5617598201
  0
LINE
  5
270
100
AcDbEntity
  8
ASSI
100
AcDbLine
 62
7
  6
CONTINUOUS
 10
-3.7830212793
 20
-73.682321086
 11
-7.7781745931
 21
-71.3755814702
  0
LINE
  5
271
100
AcDbEntity
  8
ASSI
100
AcDbLine
 62
7
  6
CONTINUOUS
 10
12.1622366364
 20
-82.8480857062
 11
8.2731493399
 21
-80.6025754429
  0
LINE
  5
272
100
AcDbEntity
  8
ASSI
100
AcDbLine
 62
7
  6
CONTINUOUS
 10
-3.7476659403
 20
-73.6619073564
 11
-7.6367532368
 21
-71.4163970931
  0
LINE
  5
273
100
AcDbEntity
  8
ASSI
100
AcDbLine
 62
7
  6
CONTINUOUS
 10
12.2683026536
 20
-82.6643739757
 11
8.3792153571
 21
-80.4188637124
  0
LINE
  5
274
100
AcDbEntity
  8
ASSI
100
AcDbLine
 62
7
  6
CONTINUOUS
 10
-3.6415999231
 20
-73.4781956259
 11
-7.5306872196
 21
-71.2326853626
  0
LINE
  5
275
100
AcDbEntity
  8
ASSI
100
AcDbLine
 62
7
  6
CONTINUOUS
 10
12.4804346879
 20
-82.6643621393
 11
8.4852813742
 21
-80.3576225234
  0
LINE
  5
276
100
AcDbEntity
  8
ASSI
100
AcDbLine
 62
7
  6
CONTINUOUS
 10
-3.4294678888
 20
-73.4781837894
 11
-7.4246212025
 21
-71.1714441736
  0
LINE
  5
277
100
AcDbEntity
  8
ASSI
100
AcDbLine
 62
7
  6
CONTINUOUS
 10
12.515790027
 20
-82.6439484096
 11
8.6267027305
 21
-80.3984381463
  0
LINE
  5
278
100
AcDbEntity
  8
ASSI
100
AcDbLine
 62
7
  6
CONTINUOUS
 10
-3.3941125497
 20
-73.4577700597
 11
-7.2831998462
 21
-71.2122597964
  0
LINE
  5
279
100
AcDbEntity
  8
ASSI
100
AcDbLine
 62
7
  6
CONTINUOUS
 10
12.6218560442
 20
-82.4602366791
 11
8.7327687477
 21
-80.2147264158
  0
LINE
  5
27A
100
AcDbEntity
  8
ASSI
100
AcDbLine
 62
7
  6
CONTINUOUS
 10
-3.2880465325
 20
-73.2740583292
 11
-7.177133829
 21
-71.0285480659
  0
LINE
  5
27B
100
AcDbEntity
  8
ASSI
100
AcDbLine
 62
7
  6
CONTINUOUS
 10
12.8339880785
 20
-82.4602248426
 11
8.8388347648
 21
-80.1534852268
  0
LINE
  5
27C
100
AcDbEntity
  8
ASSI
100
AcDbLine
 62
7
  6
CONTINUOUS
 10
-3.0759144982
 20
-73.2740464927
 11
-7.0710678119
 21
-70.9673068769
  0
LINE
  5
27D
100
AcDbEntity
  8
ASSI
100
AcDbLine
 62
7
  6
CONTINUOUS
 10
12.8516674565
 20
-82.4296052345
 11
8.9802561211
 21
-80.1943008496
  0
LINE
  5
27E
100
AcDbEntity
  8
ASSI
100
AcDbLine
 62
7
  6
CONTINUOUS
 10
-3.0405591591
 20
-73.253632763
 11
-6.9296464556
 21
-71.0081224997
  0
LINE
  5
27F
100
AcDbEntity
  8
ASSI
100
AcDbLine
 62
7
  6
CONTINUOUS
 10
12.8548813805
 20
-82.1865079944
 11
9.0863221382
 21
-80.0105891191
  0
LINE
  5
280
100
AcDbEntity
  8
ASSI
100
AcDbLine
 62
7
  6
CONTINUOUS
 10
-2.9344931419
 20
-73.0699210325
 11
-6.8235804385
 21
-70.8244107692
  0
LINE
  5
281
100
AcDbEntity
  8
ASSI
100
AcDbLine
 62
7
  6
CONTINUOUS
 10
12.8548813805
 20
-82.0640256164
 11
9.1923881554
 21
-79.9493479301
  0
LINE
  5
282
100
AcDbEntity
  8
ASSI
100
AcDbLine
 62
7
  6
CONTINUOUS
 10
-2.7223611076
 20
-73.069909196
 11
-6.7175144213
 21
-70.7631695802
  0
LINE
  5
283
100
AcDbEntity
  8
ASSI
100
AcDbLine
 62
7
  6
CONTINUOUS
 10
-6.7779590091
 20
-70.7078440666
 11
-2.5204951635
 21
-73.1660503325
  0
LINE
  5
284
100
AcDbEntity
  8
ASSI
100
AcDbLine
 62
7
  6
CONTINUOUS
 10
9.1319435676
 20
-79.8940224165
 11
12.8548813805
 21
-82.0436000503
  0
LINE
  5
285
100
AcDbEntity
  8
ASSI
100
AcDbLine
 62
7
  6
CONTINUOUS
 10
-6.6359853116
 20
-70.722168128
 11
-2.462445024
 21
-73.1319179833
  0
LINE
  5
286
100
AcDbEntity
  8
ASSI
100
AcDbLine
 62
7
  6
CONTINUOUS
 10
9.2739172651
 20
-79.9083464779
 11
12.8548813805
 21
-81.9759502781
  0
LWPOLYLINE
  5
287
100
AcDbEntity
  8
RACCORDO
100
AcDbPolyline
 62
7
  6
CONTINUOUS
 90
3
 70
0
 10
-21.7349402239
 20
-70.8160974204
 10
-21.6880859418
 20
-70.8489971895
 10
-21.6586408197
 20
-70.8669843965
  0
LINE
  5
288
100
AcDbEntity
  8
RACCORDO
100
AcDbLine
 62
7
  6
CONTINUOUS
 10
-21.7799748212
 20
-70.7791088265
 11
-21.7349402239
 21
-70.8160974204
  0
LINE
  5
289
100
AcDbEntity
  8
0
100
AcDbLine
 62
7
  6
CONTINUOUS
 10
-14.5766759401
 20
58.6746031664
 11
-17.028853766
 21
57.1103569487
  0
LINE
  5
28A
100
AcDbEntity
  8
0
100
AcDbLine
 62
7
  6
CONTINUOUS
 10
-16.8226372444
 20
56.5049327831
 11
-17.028853766
 21
56.381635466
  0
LINE
  5
28B
100
AcDbEntity
  8
0
100
AcDbLine
 62
7
  6
CONTINUOUS
 10
-15.790077944
 20
63.4264763641
 11
-16.2811336368
 21
63.1441584583
  0
LINE
  5
28C
100
AcDbEntity
  8
0
100
AcDbLine
 62
7
  6
CONTINUOUS
 10
-16.2811336368
 20
63.1905682177
 11
-15.9804239421
 21
63.3633382119
  0
LINE
  5
28D
100
AcDbEntity
  8
0
100
AcDbLine
 62
7
  6
CONTINUOUS
 10
-14.9243083131
 20
63.7903633906
 11
-16.2811336368
 21
63.0204283343
  0
LINE
  5
28E
100
AcDbEntity
  8
0
100
AcDbLine
 62
7
  6
CONTINUOUS
 10
-16.2811336368
 20
61.0867271312
 11
-16.8566931376
 21
60.7658086242
  0
LINE
  5
28F
100
AcDbEntity
  8
0
100
AcDbLine
 62
7
  6
CONTINUOUS
 10
-16.9201219865
 20
60.6277585615
 11
-16.3445624857
 21
60.9486770685
  0
LINE
  5
290
100
AcDbEntity
  8
0
100
AcDbLine
 62
7
  6
CONTINUOUS
 10
-17.028853766
 20
55.0320288046
 11
-16.5652429224
 21
55.2905273604
  0
LINE
  5
291
100
AcDbEntity
  8
0
100
AcDbLine
 62
7
  6
CONTINUOUS
 10
-14.5766759401
 20
63.5896448152
 11
-16.2811336368
 21
62.7086547335
  0
LINE
  5
292
100
AcDbEntity
  8
0
100
AcDbLine
 62
7
  6
CONTINUOUS
 10
-16.9705627485
 20
-58.5158037344
 11
-16.7584307141
 21
-58.5158037344
  0
LINE
  5
293
100
AcDbEntity
  8
0
100
AcDbLine
 62
7
  6
CONTINUOUS
 10
-16.6170093579
 20
-58.3116664377
 11
-16.4048773235
 21
-58.3116664377
  0
LINE
  5
294
100
AcDbEntity
  8
0
100
AcDbLine
 62
7
  6
CONTINUOUS
 10
-16.2634559673
 20
-58.107529141
 11
-16.0513239329
 21
-58.107529141
  0
LINE
  5
295
100
AcDbEntity
  8
0
100
AcDbLine
 62
7
  6
CONTINUOUS
 10
-15.9099025767
 20
-57.9033918444
 11
-15.6977705423
 21
-57.9033918444
  0
LINE
  5
296
100
AcDbEntity
  8
0
100
AcDbLine
 62
7
  6
CONTINUOUS
 10
-15.5563491861
 20
-57.6992545477
 11
-15.3442171517
 21
-57.6992545477
  0
LINE
  5
297
100
AcDbEntity
  8
0
100
AcDbLine
 62
7
  6
CONTINUOUS
 10
-15.2027957955
 20
-57.4951172511
 11
-14.9906637612
 21
-57.4951172511
  0
LINE
  5
298
100
AcDbEntity
  8
0
100
AcDbLine
 62
7
  6
CONTINUOUS
 10
-14.8492424049
 20
-57.2909799544
 11
-14.6371103706
 21
-57.2909799544
  0
LINE
  5
299
100
AcDbEntity
  8
RACCORDO
100
AcDbLine
 62
7
  6
CONTINUOUS
 10
-16.5652429224
 20
-60.6482519442
 11
-17.028853766
 21
-60.3805688535
  0
LINE
  5
29A
100
AcDbEntity
  8
0
100
AcDbLine
 62
7
  6
CONTINUOUS
 10
-17.028853766
 20
-59.0740901548
 11
-16.8263071501
 21
-59.1910380324
  0
LINE
  5
29B
100
AcDbEntity
  8
DRAFT
100
AcDbLine
 62
7
  6
CONTINUOUS
 10
-17.028853766
 20
54.986606293
 11
-17.564892874
 21
54.6428692065
  0
LINE
  5
29C
100
AcDbEntity
  8
DRAFT
100
AcDbLine
 62
7
  6
CONTINUOUS
 10
-17.028853766
 20
48.863079217
 11
-17.564892874
 21
48.5193421305
  0
LINE
  5
29D
100
AcDbEntity
  8
0
100
AcDbLine
 62
7
  6
CONTINUOUS
 10
-16.0069630543
 20
49.0896606965
 11
-16.4932979848
 21
48.7988799595
  0
LINE
  5
29E
100
AcDbEntity
  8
0
100
AcDbLine
 62
7
  6
CONTINUOUS
 10
-15.7911611142
 20
48.7243935023
 11
-16.0727245231
 21
48.5560461137
  0
LINE
  5
29F
100
AcDbEntity
  8
DRAFT
100
AcDbLine
 62
7
  6
CONTINUOUS
 10
32.6918459204
 20
78.1379499191
 11
34.3830672352
 21
79.148526007
  0
LINE
  5
2A0
100
AcDbEntity
  8
SMUSSO
100
AcDbLine
 62
7
  6
CONTINUOUS
 10
31.307152737
 20
76.9642529872
 11
32.3678129088
 21
77.5766648772
  0
LINE
  5
2A1
100
AcDbEntity
  8
RACCORDO
100
AcDbLine
 62
7
  6
CONTINUOUS
 10
14.6815148914
 20
67.1214554815
 11
14.9730614787
 21
67.2897902689
  0
LINE
  5
2A2
100
AcDbEntity
  8
RACCORDO
100
AcDbLine
 62
7
  6
CONTINUOUS
 10
-18.3422658809
 20
47.7312027694
 11
-17.028853766
 21
48.4892606791
  0
LINE
  5
2A3
100
AcDbEntity
  8
RACCORDO
100
AcDbLine
 62
7
  6
CONTINUOUS
 10
-19.8516763404
 20
46.8449979131
 11
-18.4744762637
 21
47.6401067055
  0
LINE
  5
2A4
100
AcDbEntity
  8
SMUSSO
100
AcDbLine
 62
7
  6
CONTINUOUS
 10
31.7381171433
 20
76.3965603597
 11
26.3574052687
 21
73.2902551065
  0
LINE
  5
2A5
100
AcDbEntity
  8
RACCORDO
100
AcDbLine
 62
7
  6
CONTINUOUS
 10
-19.6523449846
 20
46.4997361548
 11
-18.2751412074
 21
47.2948666245
  0
LINE
  5
2A6
100
AcDbEntity
  8
RACCORDO
100
AcDbLine
 62
7
  6
CONTINUOUS
 10
-18.1301661553
 20
47.3638352687
 11
-16.8170124512
 21
48.1223407591
  0
LINE
  5
2A7
100
AcDbEntity
  8
RACCORDO
100
AcDbLine
 62
7
  6
CONTINUOUS
 10
15.1764142512
 20
66.2642646466
 11
15.4679608385
 21
66.432599434
  0
LINE
  5
2A8
100
AcDbEntity
  8
SMUSSO
100
AcDbLine
 62
7
  6
CONTINUOUS
 10
32.0142595182
 20
75.7395081171
 11
33.07491969
 21
76.3519200071
  0
LINE
  5
2A9
100
AcDbEntity
  8
0
100
AcDbLine
 62
7
  6
CONTINUOUS
 10
-17.2883627632
 20
54.401592668
 11
-16.3530785744
 21
54.9230852419
  0
LINE
  5
2AA
100
AcDbEntity
  8
0
100
AcDbLine
 62
7
  6
CONTINUOUS
 10
-16.3530785744
 20
49.6976754704
 11
-17.2883627632
 21
49.1761828965
  0
LINE
  5
2AB
100
AcDbEntity
  8
0
100
AcDbLine
 62
7
  6
CONTINUOUS
 10
-17.3517916121
 20
49.0381328338
 11
-16.4165074233
 21
49.5596254077
  0
LINE
  5
2AC
100
AcDbEntity
  8
DRAFT
100
AcDbLine
 62
7
  6
CONTINUOUS
 10
33.7229857155
 20
76.3519634075
 11
35.443727407
 21
77.311408703
  0
LINE
  5
2AD
100
AcDbEntity
  8
0
100
AcDbLine
 62
7
  6
CONTINUOUS
 10
-15.790077944
 20
-52.5123029405
 11
-15.4822080971
 21
-52.4649980076
  0
LINE
  5
2AE
100
AcDbEntity
  8
0
100
AcDbLine
 62
7
  6
CONTINUOUS
 10
-16.2634559673
 20
-53.6169426187
 11
-16.0513239329
 21
-53.6169426187
  0
LINE
  5
2AF
100
AcDbEntity
  8
0
100
AcDbLine
 62
7
  6
CONTINUOUS
 10
-15.9099025767
 20
-53.412805322
 11
-15.6977705423
 21
-53.412805322
  0
LINE
  5
2B0
100
AcDbEntity
  8
0
100
AcDbLine
 62
7
  6
CONTINUOUS
 10
-15.5563491861
 20
-53.2086680254
 11
-15.3442171517
 21
-53.2086680254
  0
LINE
  5
2B1
100
AcDbEntity
  8
0
100
AcDbLine
 62
7
  6
CONTINUOUS
 10
-15.2027957955
 20
-53.0045307287
 11
-14.9906637612
 21
-53.0045307287
  0
LINE
  5
2B2
100
AcDbEntity
  8
0
100
AcDbLine
 62
7
  6
CONTINUOUS
 10
-14.8492424049
 20
-52.800393432
 11
-14.6371103706
 21
-52.800393432
  0
LINE
  5
2B3
100
AcDbEntity
  8
0
100
AcDbLine
 62
7
  6
CONTINUOUS
 10
-14.9243083131
 20
-52.148415914
 11
-14.506159075
 21
-52.3898500435
  0
LINE
  5
2B4
100
AcDbEntity
  8
0
100
AcDbLine
 62
7
  6
CONTINUOUS
 10
-14.8722126325
 20
-52.1191687226
 11
-14.4551366382
 21
-52.3599831745
  0
LINE
  5
2B5
100
AcDbEntity
  8
SMUSSO
100
AcDbLine
 62
7
  6
CONTINUOUS
 10
31.7381171433
 20
-116.9552061361
 11
26.3574052687
 21
-110.7421452826
  0
LINE
  5
2B6
100
AcDbEntity
  8
0
100
AcDbLine
 62
7
  6
CONTINUOUS
 10
-10.8364114217
 20
45.5326645553
 11
-11.4020968466
 21
45.2060448807
  0
LINE
  5
2B7
100
AcDbEntity
  8
0
100
AcDbLine
 62
7
  6
CONTINUOUS
 10
-10.6242793873
 20
45.1652410943
 11
-11.1598874741
 21
44.8559876978
  0
LINE
  5
2B8
100
AcDbEntity
  8
0
100
AcDbLine
 62
7
  6
CONTINUOUS
 10
-9.7720490354
 20
44.2929557947
 11
-9.9820652289
 21
44.175927895
  0
LINE
  5
2B9
100
AcDbEntity
  8
0
100
AcDbLine
 62
7
  6
CONTINUOUS
 10
-6.7701696951
 20
45.1533377345
 11
-9.3510471589
 21
43.8115859699
  0
LINE
  5
2BA
100
AcDbEntity
  8
RACCORDO
100
AcDbLine
 62
7
  6
CONTINUOUS
 10
-17.028853766
 20
-41.928332707
 11
-16.4932979848
 21
-42.2375559029
  0
LINE
  5
2BB
100
AcDbEntity
  8
0
100
AcDbLine
 62
7
  6
CONTINUOUS
 10
-16.988240418
 20
-40.7269585651
 11
-17.028853766
 21
-40.703508927
  0
LINE
  5
2BC
100
AcDbEntity
  8
RACCORDO
100
AcDbLine
 62
7
  6
CONTINUOUS
 10
-17.564892874
 20
-37.1283543956
 11
-17.5005271112
 21
-37.1655183804
  0
LINE
  5
2BD
100
AcDbEntity
  8
DRAFT
100
AcDbLine
 62
7
  6
CONTINUOUS
 10
-17.3417413836
 20
-37.1755246233
 11
-17.028853766
 21
-37.3561820123
  0
LWPOLYLINE
  5
2BE
100
AcDbEntity
  8
RACCORDO
100
AcDbPolyline
 62
7
  6
CONTINUOUS
 90
10
 70
0
 10
-22.0604365519
 20
-70.3305316675
 10
-22.0422672478
 20
-70.3871233932
 10
-22.0205174709
 20
-70.4424498204
 10
-21.9952959624
 20
-70.4965392195
 10
-21.9668142623
 20
-70.5490401934
 10
-21.9352216067
 20
-70.5997420039
 10
-21.9006270913
 20
-70.6483942684
 10
-21.8632367852
 20
-70.6946228545
 10
-21.8229535183
 20
-70.7383573089
 10
-21.7799748212
 20
-70.7791088265
  0
LINE
  5
2BF
100
AcDbEntity
  8
SMUSSO
100
AcDbLine
 62
7
  6
CONTINUOUS
 10
-35.443727407
 20
114.6889043206
 11
-35.443727407
 21
-77.5081988364
  0
LINE
  5
2C0
100
AcDbEntity
  8
SMUSSO
100
AcDbLine
 62
7
  6
CONTINUOUS
 10
-32.6153002822
 20
107.34035619
 11
-32.6153002822
 21
-76.6920441991
  0
LWPOLYLINE
  5
2C1
100
AcDbEntity
  8
RACCORDO
100
AcDbPolyline
 62
7
  6
CONTINUOUS
 90
13
 70
0
 10
-21.8698773155
 20
30.0802643697
 10
-21.8951638064
 20
30.0633906524
 10
-21.9260478485
 20
30.0389923348
 10
-21.9552289678
 20
30.0112810385
 10
-21.9823958333
 20
29.9802727509
 10
-22.0071640583
 20
29.9461300719
 10
-22.0291445381
 20
29.9091471983
 10
-22.0481158349
 20
29.8694575951
 10
-22.0638537683
 20
29.8272753993
 10
-22.0761487805
 20
29.7830005566
 10
-22.0849100681
 20
29.7368382692
 10
-22.0900720187
 20
29.6888449778
 10
-22.0915871378
 20
29.6440374477
  0
LINE
  5
2C2
100
AcDbEntity
  8
0
100
AcDbLine
 62
7
  6
CONTINUOUS
 10
-2.5134816337
 20
42.6955793967
 11
-4.1287808438
 21
41.659762726
  0
LINE
  5
2C3
100
AcDbEntity
  8
RACCORDO
100
AcDbLine
 62
7
  6
CONTINUOUS
 10
-21.8700723372
 20
30.0801510623
 11
-21.5870073201
 21
30.255202715
  0
LINE
  5
2C4
100
AcDbEntity
  8
RACCORDO
100
AcDbLine
 62
7
  6
CONTINUOUS
 10
-21.5124997588
 20
30.0500362707
 11
-21.2309564922
 21
30.2241468501
  0
LINE
  5
2C5
100
AcDbEntity
  8
0
100
AcDbLine
 62
7
  6
CONTINUOUS
 10
-2.5134816337
 20
42.2941810401
 11
-3.8588309008
 21
41.5038970122
  0
LINE
  5
2C6
100
AcDbEntity
  8
0
100
AcDbLine
 62
7
  6
CONTINUOUS
 10
-3.7116675968
 20
41.4189267648
 11
-3.4113729315
 21
41.593170087
  0
LINE
  5
2C7
100
AcDbEntity
  8
0
100
AcDbLine
 62
7
  6
CONTINUOUS
 10
-3.2615478179
 20
41.726425664
 11
-3.7518426139
 21
41.4421233162
  0
LINE
  5
2C8
100
AcDbEntity
  8
0
100
AcDbLine
 62
7
  6
CONTINUOUS
 10
-5.6831178108
 20
42.4854674587
 11
-6.2488032358
 21
42.158847784
  0
LINE
  5
2C9
100
AcDbEntity
  8
0
100
AcDbLine
 62
7
  6
CONTINUOUS
 10
-6.0987959877
 20
42.1439854307
 11
-5.5331105628
 21
42.4706051054
  0
LINE
  5
2CA
100
AcDbEntity
  8
RACCORDO
100
AcDbLine
 62
7
  6
CONTINUOUS
 10
-19.7674414353
 20
-31.6117094277
 11
-19.7673151352
 21
-31.6117142827
  0
LINE
  5
2CB
100
AcDbEntity
  8
RACCORDO
100
AcDbLine
 62
7
  6
CONTINUOUS
 10
-19.4845536334
 20
-31.7708692802
 11
-19.8516763404
 21
-31.7566041255
  0
LWPOLYLINE
  5
2CC
100
AcDbEntity
  8
RACCORDO
100
AcDbPolyline
 62
7
  6
CONTINUOUS
 90
9
 70
0
 10
-19.7673314585
 20
-31.6117205757
 10
-19.768570535
 20
-31.6116541696
 10
-19.7702001065
 20
-31.6114946969
 10
-19.7683433316
 20
-31.6119154966
 10
-19.7633416437
 20
-31.6134178504
 10
-19.7553417826
 20
-31.6164422025
 10
-19.7448042323
 20
-31.6212310459
 10
-19.7327276097
 20
-31.6275995123
 10
-19.7298319387
 20
-31.6292488509
  0
LINE
  5
2CD
100
AcDbEntity
  8
RACCORDO
100
AcDbLine
 62
7
  6
CONTINUOUS
 10
-19.7297912524
 20
-31.6292721526
 11
12.6061962966
 21
-50.2996660982
  0
LINE
  5
2CE
100
AcDbEntity
  8
RACCORDO
100
AcDbLine
 62
7
  6
CONTINUOUS
 10
-19.7919160387
 20
-31.4919510942
 11
12.5440715315
 21
-50.1623450522
  0
LINE
  5
2CF
100
AcDbEntity
  8
RACCORDO
100
AcDbLine
 62
7
  6
CONTINUOUS
 10
14.4730850715
 20
-49.1825723661
 11
-21.7232129147
 21
-28.2832835551
  0
LINE
  5
2D0
100
AcDbEntity
  8
RACCORDO
100
AcDbLine
 62
7
  6
CONTINUOUS
 10
14.6815148914
 20
-48.8173238231
 11
-21.5124997588
 21
-27.9193533816
  0
LINE
  5
2D1
100
AcDbEntity
  8
RACCORDO
100
AcDbLine
 62
7
  6
CONTINUOUS
 10
14.9730614787
 20
-48.6489890357
 11
-21.2309564922
 21
-27.7452428022
  0
LWPOLYLINE
  5
2D2
100
AcDbEntity
  8
RACCORDO
100
AcDbPolyline
 62
7
  6
CONTINUOUS
 90
21
 70
0
 10
12.6062766434
 20
-50.299712642
 10
12.6194145105
 20
-50.3077495218
 10
12.6372953536
 20
-50.320089326
 10
12.6558611285
 20
-50.3345865941
 10
12.6747466665
 20
-50.3511214566
 10
12.6936625404
 20
-50.3695735138
 10
12.712338373
 20
-50.3897874273
 10
12.7305604014
 20
-50.4116220214
 10
12.7480909699
 20
-50.4348632507
 10
12.7647028958
 20
-50.4592599945
 10
12.7802650586
 20
-50.4846551873
 10
12.7945901387
 20
-50.5107516535
 10
12.807525762
 20
-50.5372414319
 10
12.8190092918
 20
-50.5639562855
 10
12.828935507
 20
-50.590577011
 10
12.8372333759
 20
-50.6167593313
 10
12.8439007845
 20
-50.6422791801
 10
12.8489442911
 20
-50.6668637075
 10
12.8523933315
 20
-50.6901776187
 10
12.8543243546
 20
-50.711848136
 10
12.8548808814
 20
-50.7302824467
  0
LWPOLYLINE
  5
2D3
100
AcDbEntity
  8
RACCORDO
100
AcDbPolyline
 62
7
  6
CONTINUOUS
 90
4
 70
0
 10
-22.0903554125
 20
-70.1585304693
 10
-22.0847414511
 20
-70.2156253141
 10
-22.0747103117
 20
-70.2730737453
 10
-22.0604365519
 20
-70.3305316675
  0
LINE
  5
2D4
100
AcDbEntity
  8
RACCORDO
100
AcDbLine
 62
7
  6
CONTINUOUS
 10
-22.0915873877
 20
-70.1170818243
 11
-22.0903554125
 21
-70.1585304693
  0
LINE
  5
2D5
100
AcDbEntity
  8
0
100
AcDbLine
 62
7
  6
CONTINUOUS
 10
-3.2615478179
 20
41.726425664
 11
-3.0668739265
 21
41.9691077667
  0
LINE
  5
2D6
100
AcDbEntity
  8
DRAFT
100
AcDbLine
 62
7
  6
CONTINUOUS
 10
-17.028853766
 20
20.61320764
 11
-17.564892874
 21
20.2694705535
  0
LINE
  5
2D7
100
AcDbEntity
  8
SUPERFICI
100
AcDbLine
 62
7
  6
CONTINUOUS
 10
-14.5766759401
 20
19.0757947419
 11
-17.028853766
 21
17.5115485243
  0
LINE
  5
2D8
100
AcDbEntity
  8
SUPERFICI
100
AcDbLine
 62
7
  6
CONTINUOUS
 10
-17.028853766
 20
17.0110777405
 11
-16.988240418
 21
17.0361902418
  0
LINE
  5
2D9
100
AcDbEntity
  8
0
100
AcDbLine
 62
7
  6
CONTINUOUS
 10
5.073491155
 20
36.3464862055
 11
4.5078057301
 21
36.0198665308
  0
LINE
  5
2DA
100
AcDbEntity
  8
0
100
AcDbLine
 62
7
  6
CONTINUOUS
 10
5.2856231894
 20
35.9790627444
 11
4.7500151026
 21
35.6698093479
  0
LINE
  5
2DB
100
AcDbEntity
  8
0
100
AcDbLine
 62
7
  6
CONTINUOUS
 10
6.3462833611
 20
34.7952400255
 11
6.3054996874
 21
34.7716920434
  0
LINE
  5
2DC
100
AcDbEntity
  8
0
100
AcDbLine
 62
7
  6
CONTINUOUS
 10
10.2267847659
 20
33.2992891088
 11
9.6610993409
 21
32.9726694341
  0
LINE
  5
2DD
100
AcDbEntity
  8
0
100
AcDbLine
 62
7
  6
CONTINUOUS
 10
9.811106589
 20
32.9578070808
 11
10.3767920139
 21
33.2844267555
  0
LINE
  5
2DE
100
AcDbEntity
  8
SUPERFICI
100
AcDbLine
 62
7
  6
CONTINUOUS
 10
-16.988240418
 20
17.2424310872
 11
-17.028853766
 21
17.218981449
  0
LINE
  5
2DF
100
AcDbEntity
  8
SUPERFICI
100
AcDbLine
 62
7
  6
CONTINUOUS
 10
-15.790077944
 20
23.8276679396
 11
-16.3530785744
 21
23.5039874259
  0
LINE
  5
2E0
100
AcDbEntity
  8
SUPERFICI
100
AcDbLine
 62
7
  6
CONTINUOUS
 10
-15.980425028
 20
23.7645291636
 11
-16.3530785744
 21
23.5504244899
  0
LINE
  5
2E1
100
AcDbEntity
  8
SUPERFICI
100
AcDbLine
 62
7
  6
CONTINUOUS
 10
-15.4711643363
 20
23.8812396915
 11
-16.3530785744
 21
23.380794515
  0
LINE
  5
2E2
100
AcDbEntity
  8
SUPERFICI
100
AcDbLine
 62
7
  6
CONTINUOUS
 10
-17.2883627632
 20
20.9263113195
 11
-16.3530785744
 21
21.4478038934
  0
LINE
  5
2E3
100
AcDbEntity
  8
SUPERFICI
100
AcDbLine
 62
7
  6
CONTINUOUS
 10
-17.3517916121
 20
20.7882612568
 11
-16.4165074233
 21
21.3097538307
  0
LINE
  5
2E4
100
AcDbEntity
  8
0
100
AcDbLine
 62
7
  6
CONTINUOUS
 10
6.125437954
 20
34.8756574316
 11
6.1676677955
 21
34.8983704145
  0
LINE
  5
2E5
100
AcDbEntity
  8
0
100
AcDbLine
 62
7
  6
CONTINUOUS
 10
9.1397328816
 20
35.9671593846
 11
6.5588554178
 21
34.62540762
  0
LINE
  5
2E6
100
AcDbEntity
  8
SUPERFICI
100
AcDbLine
 62
7
  6
CONTINUOUS
 10
-15.1488088677
 20
23.695115684
 11
-16.3530785744
 21
23.0726598323
  0
LINE
  5
2E7
100
AcDbEntity
  8
0
100
AcDbLine
 62
7
  6
CONTINUOUS
 10
-15.790077944
 20
-34.1417217126
 11
-15.4822080971
 21
-34.0944167797
  0
LINE
  5
2E8
100
AcDbEntity
  8
RACCORDO
100
AcDbLine
 62
7
  6
CONTINUOUS
 10
-21.7799748212
 20
-12.8097191742
 11
-21.7349402239
 21
-12.8467077681
  0
LWPOLYLINE
  5
2E9
100
AcDbEntity
  8
RACCORDO
100
AcDbPolyline
 62
7
  6
CONTINUOUS
 90
10
 70
0
 10
-22.0604365519
 20
-12.3611420152
 10
-22.0422672478
 20
-12.4177337409
 10
-22.0205174709
 20
-12.4730601681
 10
-21.9952959624
 20
-12.5271495672
 10
-21.9668142623
 20
-12.5796505411
 10
-21.9352216067
 20
-12.6303523517
 10
-21.9006270913
 20
-12.6790046161
 10
-21.8632367852
 20
-12.7252332022
 10
-21.8229535183
 20
-12.7689676566
 10
-21.7799748212
 20
-12.8097191742
  0
LWPOLYLINE
  5
2EA
100
AcDbEntity
  8
RACCORDO
100
AcDbPolyline
 62
7
  6
CONTINUOUS
 90
4
 70
0
 10
-22.0903554125
 20
-12.189140817
 10
-22.0847414511
 20
-12.2462356618
 10
-22.0747103117
 20
-12.303684093
 10
-22.0604365519
 20
-12.3611420152
  0
LWPOLYLINE
  5
2EB
100
AcDbEntity
  8
RACCORDO
100
AcDbPolyline
 62
7
  6
CONTINUOUS
 90
4
 70
0
 10
-22.0903554125
 20
45.7802488353
 10
-22.0847414511
 20
45.7231539905
 10
-22.0747103117
 20
45.6657055592
 10
-22.0604365519
 20
45.6082476371
  0
LINE
  5
2EC
100
AcDbEntity
  8
RACCORDO
100
AcDbLine
 62
7
  6
CONTINUOUS
 10
-22.0915873877
 20
-12.147692172
 11
-22.0903554125
 21
-12.189140817
  0
LINE
  5
2ED
100
AcDbEntity
  8
RACCORDO
100
AcDbLine
 62
7
  6
CONTINUOUS
 10
-22.0915873877
 20
45.8216974803
 11
-22.0903554125
 21
45.7802488353
  0
LINE
  5
2EE
100
AcDbEntity
  8
RACCORDO
100
AcDbLine
 62
7
  6
CONTINUOUS
 10
-22.0915971785
 20
87.6134063493
 11
-22.0915971785
 21
45.8215045555
  0
LINE
  5
2EF
100
AcDbEntity
  8
RACCORDO
100
AcDbLine
 62
7
  6
CONTINUOUS
 10
-22.0915971785
 20
29.644016697
 11
-22.0915971785
 21
-12.1478850968
  0
LINE
  5
2F0
100
AcDbEntity
  8
RACCORDO
100
AcDbLine
 62
7
  6
CONTINUOUS
 10
-22.0915971785
 20
-28.3253729553
 11
-22.0915971785
 21
-70.1172747491
  0
LINE
  5
2F1
100
AcDbEntity
  8
RACCORDO
100
AcDbLine
 62
7
  6
CONTINUOUS
 10
-22.0037292129
 20
87.4909239746
 11
-22.0037292129
 21
45.6963856916
  0
LINE
  5
2F2
100
AcDbEntity
  8
RACCORDO
100
AcDbLine
 62
7
  6
CONTINUOUS
 10
-22.0037292129
 20
29.5215343223
 11
-22.0037292129
 21
-12.2730039607
  0
LINE
  5
2F3
100
AcDbEntity
  8
RACCORDO
100
AcDbLine
 62
7
  6
CONTINUOUS
 10
-22.0037292129
 20
-28.44785533
 11
-22.0037292129
 21
-70.242393613
  0
LINE
  5
2F4
100
AcDbEntity
  8
RACCORDO
100
AcDbLine
 62
7
  6
CONTINUOUS
 10
-20.1905938533
 20
-69.0592775456
 11
-20.1905938533
 21
-31.7220981772
  0
LINE
  5
2F5
100
AcDbEntity
  8
RACCORDO
100
AcDbLine
 62
7
  6
CONTINUOUS
 10
-20.1905938533
 20
-11.0898878933
 11
-20.1905938533
 21
26.2472914751
  0
LINE
  5
2F6
100
AcDbEntity
  8
RACCORDO
100
AcDbLine
 62
7
  6
CONTINUOUS
 10
-20.1905938533
 20
46.879501759
 11
-20.1905938533
 21
84.2166811274
  0
LINE
  5
2F7
100
AcDbEntity
  8
RACCORDO
100
AcDbLine
 62
7
  6
CONTINUOUS
 10
-19.8516763404
 20
-69.0937813915
 11
-19.8516763404
 21
-31.7566041255
  0
LINE
  5
2F8
100
AcDbEntity
  8
RACCORDO
100
AcDbLine
 62
7
  6
CONTINUOUS
 10
-19.8516763404
 20
-11.1243917392
 11
-19.8516763404
 21
26.2127855268
  0
LINE
  5
2F9
100
AcDbEntity
  8
RACCORDO
100
AcDbLine
 62
7
  6
CONTINUOUS
 10
-19.8516763404
 20
46.8449979131
 11
-19.8516763404
 21
84.1821751791
  0
LINE
  5
2FA
100
AcDbEntity
  8
RACCORDO
100
AcDbLine
 62
7
  6
CONTINUOUS
 10
-18.4782859352
 20
83.5869036669
 11
-18.4782859352
 21
47.6772262833
  0
LINE
  5
2FB
100
AcDbEntity
  8
RACCORDO
100
AcDbLine
 62
7
  6
CONTINUOUS
 10
-18.4782859352
 20
25.6175140146
 11
-18.4782859352
 21
-10.292163369
  0
LINE
  5
2FC
100
AcDbEntity
  8
RACCORDO
100
AcDbLine
 62
7
  6
CONTINUOUS
 10
-18.4782859352
 20
-32.3518756376
 11
-18.4782859352
 21
-68.2615530213
  0
LINE
  5
2FD
100
AcDbEntity
  8
RACCORDO
100
AcDbLine
 62
7
  6
CONTINUOUS
 10
-18.3422658809
 20
83.5083673923
 11
-18.3422658809
 21
47.7312027694
  0
LINE
  5
2FE
100
AcDbEntity
  8
RACCORDO
100
AcDbLine
 62
7
  6
CONTINUOUS
 10
-18.3422658809
 20
25.53897774
 11
-18.3422658809
 21
-10.2381868829
  0
LINE
  5
2FF
100
AcDbEntity
  8
RACCORDO
100
AcDbLine
 62
7
  6
CONTINUOUS
 10
-18.3422658809
 20
-32.4304119123
 11
-18.3422658809
 21
-68.2075765352
  0
LINE
  5
300
100
AcDbEntity
  8
RACCORDO
100
AcDbLine
 62
7
  6
CONTINUOUS
 10
-18.0427292924
 20
-68.0346284365
 11
-18.0427292924
 21
-32.6033605844
  0
LINE
  5
301
100
AcDbEntity
  8
RACCORDO
100
AcDbLine
 62
7
  6
CONTINUOUS
 10
-18.0427292924
 20
-10.0652387842
 11
-18.0427292924
 21
25.3660290679
  0
LINE
  5
302
100
AcDbEntity
  8
RACCORDO
100
AcDbLine
 62
7
  6
CONTINUOUS
 10
-18.0427292924
 20
47.9041508681
 11
-18.0427292924
 21
83.3354187202
  0
LINE
  5
303
100
AcDbEntity
  8
DRAFT
100
AcDbLine
 62
7
  6
CONTINUOUS
 10
-17.564892874
 20
-67.419437174
 11
-17.564892874
 21
-61.2959100981
  0
LINE
  5
304
100
AcDbEntity
  8
DRAFT
100
AcDbLine
 62
7
  6
CONTINUOUS
 10
-17.564892874
 20
-37.6999190988
 11
-17.564892874
 21
-32.8792573437
  0
LINE
  5
305
100
AcDbEntity
  8
DRAFT
100
AcDbLine
 62
7
  6
CONTINUOUS
 10
-17.564892874
 20
-9.4500475218
 11
-17.564892874
 21
-3.3265204458
  0
LINE
  5
306
100
AcDbEntity
  8
DRAFT
100
AcDbLine
 62
7
  6
CONTINUOUS
 10
-17.564892874
 20
20.2694705535
 11
-17.564892874
 21
25.0901323086
  0
LINE
  5
307
100
AcDbEntity
  8
DRAFT
100
AcDbLine
 62
7
  6
CONTINUOUS
 10
-17.564892874
 20
48.5193421305
 11
-17.564892874
 21
54.6428692065
  0
LINE
  5
308
100
AcDbEntity
  8
DRAFT
100
AcDbLine
 62
7
  6
CONTINUOUS
 10
-17.564892874
 20
78.2388602058
 11
-17.564892874
 21
83.0595219609
  0
LINE
  5
309
100
AcDbEntity
  8
0
100
AcDbLine
 62
7
  6
CONTINUOUS
 10
-17.3241161391
 20
78.7730821051
 11
-17.3241161391
 21
78.7576603031
  0
LINE
  5
30A
100
AcDbEntity
  8
0
100
AcDbLine
 62
7
  6
CONTINUOUS
 10
-17.2883627632
 20
82.8998569406
 11
-17.2883627632
 21
78.8957009717
  0
LINE
  5
30B
100
AcDbEntity
  8
0
100
AcDbLine
 62
7
  6
CONTINUOUS
 10
-17.2883627632
 20
54.401592668
 11
-17.2883627632
 21
49.1761828965
  0
LINE
  5
30C
100
AcDbEntity
  8
RACCORDO
100
AcDbLine
 62
7
  6
CONTINUOUS
 10
-17.2883627632
 20
-66.7625964081
 11
-17.2883627632
 21
-61.5371866366
  0
LINE
  5
30D
100
AcDbEntity
  8
RACCORDO
100
AcDbLine
 62
7
  6
CONTINUOUS
 10
-17.2883627632
 20
-37.0430783328
 11
-17.2883627632
 21
-33.038922364
  0
LINE
  5
30E
100
AcDbEntity
  8
SUPERFICI
100
AcDbLine
 62
7
  6
CONTINUOUS
 10
-17.2883627632
 20
-8.7932067558
 11
-17.2883627632
 21
-3.5677969843
  0
LINE
  5
30F
100
AcDbEntity
  8
SUPERFICI
100
AcDbLine
 62
7
  6
CONTINUOUS
 10
-17.2883627632
 20
20.9263113195
 11
-17.2883627632
 21
24.9304672883
  0
LINE
  5
310
100
AcDbEntity
  8
0
100
AcDbLine
 62
7
  6
CONTINUOUS
 10
-17.1119841047
 20
78.8913619626
 11
-17.1119841047
 21
78.630595708
  0
LINE
  5
311
100
AcDbEntity
  8
DRAFT
100
AcDbLine
 62
7
  6
CONTINUOUS
 10
-17.028853766
 20
78.5825972923
 11
-17.028853766
 21
54.986606293
  0
LINE
  5
312
100
AcDbEntity
  8
RACCORDO
100
AcDbLine
 62
7
  6
CONTINUOUS
 10
-17.028853766
 20
48.863079217
 11
-17.028853766
 21
48.4892606791
  0
LINE
  5
313
100
AcDbEntity
  8
DRAFT
100
AcDbLine
 62
7
  6
CONTINUOUS
 10
-17.028853766
 20
20.61320764
 11
-17.028853766
 21
-2.9827833593
  0
LINE
  5
314
100
AcDbEntity
  8
RACCORDO
100
AcDbLine
 62
7
  6
CONTINUOUS
 10
-17.028853766
 20
-9.1063104353
 11
-17.028853766
 21
-9.4801289732
  0
LINE
  5
315
100
AcDbEntity
  8
DRAFT
100
AcDbLine
 62
7
  6
CONTINUOUS
 10
-17.028853766
 20
-37.3561820123
 11
-17.028853766
 21
-60.9521730116
  0
LINE
  5
316
100
AcDbEntity
  8
RACCORDO
100
AcDbLine
 62
7
  6
CONTINUOUS
 10
-17.028853766
 20
-67.0757000876
 11
-17.028853766
 21
-67.4495186255
  0
LINE
  5
317
100
AcDbEntity
  8
0
100
AcDbLine
 62
7
  6
CONTINUOUS
 10
-17.0059180875
 20
78.9505018914
 11
-17.0059180875
 21
75.6506606904
  0
LINE
  5
318
100
AcDbEntity
  8
0
100
AcDbLine
 62
7
  6
CONTINUOUS
 10
-17.0059180875
 20
-58.658699842
 11
-17.0059180875
 21
-55.3204740182
  0
LINE
  5
319
100
AcDbEntity
  8
SUPERFICI
100
AcDbLine
 62
7
  6
CONTINUOUS
 10
-16.988240418
 20
17.2424310872
 11
-16.988240418
 21
17.0361902418
  0
LINE
  5
31A
100
AcDbEntity
  8
DRAFT
100
AcDbLine
 62
7
  6
CONTINUOUS
 10
-16.988240418
 20
-40.7269585651
 11
-16.988240418
 21
-40.9331994105
  0
LINE
  5
31B
100
AcDbEntity
  8
0
100
AcDbLine
 62
7
  6
CONTINUOUS
 10
-16.988240418
 20
75.005579894
 11
-16.988240418
 21
75.420911606
  0
LINE
  5
31C
100
AcDbEntity
  8
0
100
AcDbLine
 62
7
  6
CONTINUOUS
 10
-16.9705627485
 20
78.970215201
 11
-16.9705627485
 21
75.793556798
  0
LINE
  5
31D
100
AcDbEntity
  8
0
100
AcDbLine
 62
7
  6
CONTINUOUS
 10
-16.9705627485
 20
-58.5158037344
 11
-16.9705627485
 21
-55.3240190034
  0
LINE
  5
31E
100
AcDbEntity
  8
0
100
AcDbLine
 62
7
  6
CONTINUOUS
 10
-16.8566931376
 20
73.0128627761
 11
-16.8566931376
 21
60.7658086242
  0
LINE
  5
31F
100
AcDbEntity
  8
RACCORDO
100
AcDbLine
 62
7
  6
CONTINUOUS
 10
-16.8566931376
 20
-55.1729706804
 11
-16.8566931376
 21
-42.9259165285
  0
LINE
  5
320
100
AcDbEntity
  8
SUPERFICI
100
AcDbLine
 62
7
  6
CONTINUOUS
 10
-16.8566931376
 20
2.7964189719
 11
-16.8566931376
 21
15.0434731238
  0
LINE
  5
321
100
AcDbEntity
  8
SUPERFICI
100
AcDbLine
 62
7
  6
CONTINUOUS
 10
-16.8226372444
 20
-1.4644568692
 11
-16.8226372444
 21
-2.5302460363
  0
LINE
  5
322
100
AcDbEntity
  8
0
100
AcDbLine
 62
7
  6
CONTINUOUS
 10
-16.8226372444
 20
-59.4338465214
 11
-16.8226372444
 21
-60.4996356886
  0
LINE
  5
323
100
AcDbEntity
  8
0
100
AcDbLine
 62
7
  6
CONTINUOUS
 10
-16.8226372444
 20
55.439143616
 11
-16.8226372444
 21
56.5049327831
  0
LINE
  5
324
100
AcDbEntity
  8
0
100
AcDbLine
 62
7
  6
CONTINUOUS
 10
-16.7584307141
 20
79.0884950585
 11
-16.7584307141
 21
75.793556798
  0
LINE
  5
325
100
AcDbEntity
  8
0
100
AcDbLine
 62
7
  6
CONTINUOUS
 10
-16.7584307141
 20
-58.5158037344
 11
-16.7584307141
 21
-55.2208654739
  0
LINE
  5
326
100
AcDbEntity
  8
0
100
AcDbLine
 62
7
  6
CONTINUOUS
 10
-16.7384391845
 20
56.6252588942
 11
-16.7384391845
 21
55.3905287115
  0
LINE
  5
327
100
AcDbEntity
  8
SUPERFICI
100
AcDbLine
 62
7
  6
CONTINUOUS
 10
-16.7384391845
 20
-1.3441307581
 11
-16.7384391845
 21
-2.5788609408
  0
LINE
  5
328
100
AcDbEntity
  8
0
100
AcDbLine
 62
7
  6
CONTINUOUS
 10
-16.7384391845
 20
-59.3135204104
 11
-16.7384391845
 21
-60.5482505931
  0
LINE
  5
329
100
AcDbEntity
  8
0
100
AcDbLine
 62
7
  6
CONTINUOUS
 10
-16.6523646969
 20
79.1476349873
 11
-16.6523646969
 21
75.854797987
  0
LINE
  5
32A
100
AcDbEntity
  8
0
100
AcDbLine
 62
7
  6
CONTINUOUS
 10
-16.6523646969
 20
-58.4545625454
 11
-16.6523646969
 21
-55.1617255451
  0
LINE
  5
32B
100
AcDbEntity
  8
0
100
AcDbLine
 62
7
  6
CONTINUOUS
 10
-16.6170093579
 20
79.1673482969
 11
-16.6170093579
 21
75.9976940947
  0
LINE
  5
32C
100
AcDbEntity
  8
0
100
AcDbLine
 62
7
  6
CONTINUOUS
 10
-16.6170093579
 20
-58.3116664377
 11
-16.6170093579
 21
-55.1420122355
  0
LINE
  5
32D
100
AcDbEntity
  8
0
100
AcDbLine
 62
7
  6
CONTINUOUS
 10
-16.4048773235
 20
79.2869796133
 11
-16.4048773235
 21
75.9976940947
  0
LINE
  5
32E
100
AcDbEntity
  8
0
100
AcDbLine
 62
7
  6
CONTINUOUS
 10
-16.4048773235
 20
-58.3116664377
 11
-16.4048773235
 21
-55.023732378
  0
LINE
  5
32F
100
AcDbEntity
  8
0
100
AcDbLine
 62
7
  6
CONTINUOUS
 10
-16.3530785744
 20
82.3598355719
 11
-16.3530785744
 21
79.4171935457
  0
LINE
  5
330
100
AcDbEntity
  8
0
100
AcDbLine
 62
7
  6
CONTINUOUS
 10
-16.3530785744
 20
54.9230852419
 11
-16.3530785744
 21
49.6976754704
  0
LINE
  5
331
100
AcDbEntity
  8
RACCORDO
100
AcDbLine
 62
7
  6
CONTINUOUS
 10
-16.3530785744
 20
-66.2411038342
 11
-16.3530785744
 21
-61.0156940627
  0
LINE
  5
332
100
AcDbEntity
  8
RACCORDO
100
AcDbLine
 62
7
  6
CONTINUOUS
 10
-16.3530785744
 20
-36.5215857589
 11
-16.3530785744
 21
-33.5789437327
  0
LINE
  5
333
100
AcDbEntity
  8
SUPERFICI
100
AcDbLine
 62
7
  6
CONTINUOUS
 10
-16.3530785744
 20
-8.2717141819
 11
-16.3530785744
 21
-3.0463044104
  0
LINE
  5
334
100
AcDbEntity
  8
SUPERFICI
100
AcDbLine
 62
7
  6
CONTINUOUS
 10
-16.3530785744
 20
21.4478038934
 11
-16.3530785744
 21
24.3904459196
  0
LINE
  5
335
100
AcDbEntity
  8
0
100
AcDbLine
 62
7
  6
CONTINUOUS
 10
-16.2988113063
 20
-58.2504252487
 11
-16.2988113063
 21
-54.9391677518
  0
LINE
  5
336
100
AcDbEntity
  8
0
100
AcDbLine
 62
7
  6
CONTINUOUS
 10
-16.2988113063
 20
76.0589352837
 11
-16.2988113063
 21
80.6720041841
  0
LINE
  5
337
100
AcDbEntity
  8
0
100
AcDbLine
 62
7
  6
CONTINUOUS
 10
-16.2811336368
 20
73.3337812831
 11
-16.2811336368
 21
61.0867271312
  0
LINE
  5
338
100
AcDbEntity
  8
RACCORDO
100
AcDbLine
 62
7
  6
CONTINUOUS
 10
-16.2811336368
 20
-54.8520521734
 11
-16.2811336368
 21
-42.6049980215
  0
LINE
  5
339
100
AcDbEntity
  8
SUPERFICI
100
AcDbLine
 62
7
  6
CONTINUOUS
 10
-16.2811336368
 20
3.1173374789
 11
-16.2811336368
 21
15.3643916308
  0
LINE
  5
33A
100
AcDbEntity
  8
0
100
AcDbLine
 62
7
  6
CONTINUOUS
 10
-16.2634559673
 20
80.6924179137
 11
-16.2634559673
 21
76.2018313914
  0
LINE
  5
33B
100
AcDbEntity
  8
0
100
AcDbLine
 62
7
  6
CONTINUOUS
 10
-16.2634559673
 20
-58.107529141
 11
-16.2634559673
 21
-53.6169426187
  0
LINE
  5
33C
100
AcDbEntity
  8
0
100
AcDbLine
 62
7
  6
CONTINUOUS
 10
-16.0513239329
 20
80.6924179137
 11
-16.0513239329
 21
76.2018313914
  0
LINE
  5
33D
100
AcDbEntity
  8
0
100
AcDbLine
 62
7
  6
CONTINUOUS
 10
-16.0513239329
 20
-58.107529141
 11
-16.0513239329
 21
-53.6169426187
  0
LINE
  5
33E
100
AcDbEntity
  8
0
100
AcDbLine
 62
7
  6
CONTINUOUS
 10
-15.9452579158
 20
-58.0462879521
 11
-15.9452579158
 21
-53.4332190517
  0
LINE
  5
33F
100
AcDbEntity
  8
0
100
AcDbLine
 62
7
  6
CONTINUOUS
 10
-15.9452579158
 20
76.2630725804
 11
-15.9452579158
 21
80.8761414807
  0
LINE
  5
340
100
AcDbEntity
  8
0
100
AcDbLine
 62
7
  6
CONTINUOUS
 10
-15.9099025767
 20
80.8965552104
 11
-15.9099025767
 21
76.405968688
  0
LINE
  5
341
100
AcDbEntity
  8
0
100
AcDbLine
 62
7
  6
CONTINUOUS
 10
-15.9099025767
 20
-57.9033918444
 11
-15.9099025767
 21
-53.412805322
  0
LINE
  5
342
100
AcDbEntity
  8
SUPERFICI
100
AcDbLine
 62
7
  6
CONTINUOUS
 10
-15.7911611142
 20
-9.24499615
 11
-15.7911611142
 21
-9.5759147221
  0
LINE
  5
343
100
AcDbEntity
  8
0
100
AcDbLine
 62
7
  6
CONTINUOUS
 10
-15.7911611142
 20
-67.2143858022
 11
-15.7911611142
 21
-67.5453043744
  0
LINE
  5
344
100
AcDbEntity
  8
0
100
AcDbLine
 62
7
  6
CONTINUOUS
 10
-15.7911611142
 20
48.3934749302
 11
-15.7911611142
 21
48.7243935023
  0
LINE
  5
345
100
AcDbEntity
  8
0
100
AcDbLine
 62
7
  6
CONTINUOUS
 10
-15.7069630543
 20
48.8447196134
 11
-15.7069630543
 21
48.3448600257
  0
LINE
  5
346
100
AcDbEntity
  8
SUPERFICI
100
AcDbLine
 62
7
  6
CONTINUOUS
 10
-15.7069630543
 20
-9.1246700389
 11
-15.7069630543
 21
-9.6245296266
  0
LINE
  5
347
100
AcDbEntity
  8
0
100
AcDbLine
 62
7
  6
CONTINUOUS
 10
-15.7069630543
 20
-67.0940596912
 11
-15.7069630543
 21
-67.5939192789
  0
LINE
  5
348
100
AcDbEntity
  8
0
100
AcDbLine
 62
7
  6
CONTINUOUS
 10
-15.6977705423
 20
80.8965552104
 11
-15.6977705423
 21
76.405968688
  0
LINE
  5
349
100
AcDbEntity
  8
0
100
AcDbLine
 62
7
  6
CONTINUOUS
 10
-15.6977705423
 20
-57.9033918444
 11
-15.6977705423
 21
-53.412805322
  0
LINE
  5
34A
100
AcDbEntity
  8
0
100
AcDbLine
 62
7
  6
CONTINUOUS
 10
-15.5917045252
 20
-57.8421506554
 11
-15.5917045252
 21
-53.229081755
  0
LINE
  5
34B
100
AcDbEntity
  8
0
100
AcDbLine
 62
7
  6
CONTINUOUS
 10
-15.5917045252
 20
76.467209877
 11
-15.5917045252
 21
81.0802787774
  0
LINE
  5
34C
100
AcDbEntity
  8
0
100
AcDbLine
 62
7
  6
CONTINUOUS
 10
-15.5563491861
 20
81.1006925071
 11
-15.5563491861
 21
76.6101059847
  0
LINE
  5
34D
100
AcDbEntity
  8
0
100
AcDbLine
 62
7
  6
CONTINUOUS
 10
-15.5563491861
 20
-57.6992545477
 11
-15.5563491861
 21
-53.2086680254
  0
LINE
  5
34E
100
AcDbEntity
  8
0
100
AcDbLine
 62
7
  6
CONTINUOUS
 10
-15.3442171517
 20
81.1006925071
 11
-15.3442171517
 21
76.6101059847
  0
LINE
  5
34F
100
AcDbEntity
  8
0
100
AcDbLine
 62
7
  6
CONTINUOUS
 10
-15.3442171517
 20
-57.6992545477
 11
-15.3442171517
 21
-53.2086680254
  0
LINE
  5
350
100
AcDbEntity
  8
0
100
AcDbLine
 62
7
  6
CONTINUOUS
 10
-15.2381511346
 20
-57.6380133587
 11
-15.2381511346
 21
-53.0249444584
  0
LINE
  5
351
100
AcDbEntity
  8
0
100
AcDbLine
 62
7
  6
CONTINUOUS
 10
-15.2381511346
 20
76.6713471737
 11
-15.2381511346
 21
81.2844160741
  0
LINE
  5
352
100
AcDbEntity
  8
0
100
AcDbLine
 62
7
  6
CONTINUOUS
 10
12.8548813805
 20
33.1621367733
 11
11.7811217329
 21
32.4735843761
  0
LINE
  5
353
100
AcDbEntity
  8
0
100
AcDbLine
 62
7
  6
CONTINUOUS
 10
12.8548813805
 20
32.7898919385
 11
12.0510716759
 21
32.3177186623
  0
LINE
  5
354
100
AcDbEntity
  8
0
100
AcDbLine
 62
7
  6
CONTINUOUS
 10
12.1982349799
 20
32.232748415
 11
12.4985296452
 21
32.4069917371
  0
LINE
  5
355
100
AcDbEntity
  8
0
100
AcDbLine
 62
7
  6
CONTINUOUS
 10
12.6483547588
 20
32.5402473141
 11
12.1580599628
 21
32.2559449664
  0
LINE
  5
356
100
AcDbEntity
  8
SUPERFICI
100
AcDbLine
 62
7
  6
CONTINUOUS
 10
-16.4932979848
 20
15.7318337494
 11
-17.028853766
 21
15.4332203801
  0
LINE
  5
357
100
AcDbEntity
  8
SUPERFICI
100
AcDbLine
 62
7
  6
CONTINUOUS
 10
-16.2811336368
 20
15.3643916308
 11
-16.8566931376
 21
15.0434731238
  0
LWPOLYLINE
  5
358
100
AcDbEntity
  8
RACCORDO
100
AcDbPolyline
 62
7
  6
CONTINUOUS
 90
13
 70
0
 10
14.5352345503
 20
-33.7954854872
 10
14.5751107705
 20
-33.8167306101
 10
14.619225186
 20
-33.8362178249
 10
14.663553299
 20
-33.8516787628
 10
14.7080117498
 20
-33.8631400324
 10
14.7523787899
 20
-33.8705798067
 10
14.7962058224
 20
-33.8739802135
 10
14.839196453
 20
-33.8734249806
 10
14.8811243374
 20
-33.8690393102
 10
14.9215403995
 20
-33.8610135933
 10
14.9601120959
 20
-33.84959942
 10
14.9966690171
 20
-33.8350551614
 10
15.0238990488
 20
-33.821604782
  0
LINE
  5
359
100
AcDbEntity
  8
RACCORDO
100
AcDbLine
 62
7
  6
CONTINUOUS
 10
-21.6588048065
 20
-12.8975118596
 11
14.5352098575
 21
-33.7954823091
  0
LINE
  5
35A
100
AcDbEntity
  8
RACCORDO
100
AcDbLine
 62
7
  6
CONTINUOUS
 10
-21.7209295787
 20
-12.7601908094
 11
14.4753684153
 21
-33.659479625
  0
LINE
  5
35B
100
AcDbEntity
  8
RACCORDO
100
AcDbLine
 62
7
  6
CONTINUOUS
 10
12.5440715315
 20
-30.4508120813
 11
-19.7919160387
 21
-11.7804181234
  0
LINE
  5
35C
100
AcDbEntity
  8
RACCORDO
100
AcDbLine
 62
7
  6
CONTINUOUS
 10
12.6836492681
 20
-30.1400513138
 11
-19.6523449846
 21
-11.4696534975
  0
LINE
  5
35D
100
AcDbEntity
  8
RACCORDO
100
AcDbLine
 62
7
  6
CONTINUOUS
 10
-18.2449181791
 20
-10.6963681791
 11
12.8548813805
 21
-28.6530026727
  0
LINE
  5
35E
100
AcDbEntity
  8
RACCORDO
100
AcDbLine
 62
7
  6
CONTINUOUS
 10
-18.1301661553
 20
-10.6055543835
 11
12.8548813805
 21
-28.4959324968
  0
LINE
  5
35F
100
AcDbEntity
  8
RACCORDO
100
AcDbLine
 62
7
  6
CONTINUOUS
 10
12.8548813805
 20
-28.1500357261
 11
-17.8306295668
 21
-10.4326062849
  0
LINE
  5
360
100
AcDbEntity
  8
RACCORDO
100
AcDbLine
 62
7
  6
CONTINUOUS
 10
-16.8170124512
 20
-9.8470488932
 11
12.8548813805
 21
-26.9792285154
  0
LINE
  5
361
100
AcDbEntity
  8
0
100
AcDbLine
 62
7
  6
CONTINUOUS
 10
6.1676677955
 20
-23.0710192378
 11
6.3462833611
 21
-23.1741496268
  0
LINE
  5
362
100
AcDbEntity
  8
0
100
AcDbLine
 62
7
  6
CONTINUOUS
 10
12.8548813805
 20
-26.7690199886
 11
9.811106589
 21
-25.0115825714
  0
LINE
  5
363
100
AcDbEntity
  8
SUPERFICI
100
AcDbLine
 62
7
  6
CONTINUOUS
 10
4.5078057301
 20
-21.9495231215
 11
-6.0987959877
 21
-15.8254042216
  0
LINE
  5
364
100
AcDbEntity
  8
0
100
AcDbLine
 62
7
  6
CONTINUOUS
 10
-11.4020968466
 20
-12.7633447716
 11
-17.0264424919
 21
-9.5159180856
  0
LINE
  5
365
100
AcDbEntity
  8
SUPERFICI
100
AcDbLine
 62
7
  6
CONTINUOUS
 10
-10.6242793873
 20
-13.1843667334
 11
-9.7720490354
 21
-13.6764338576
  0
LINE
  5
366
100
AcDbEntity
  8
SUPERFICI
100
AcDbLine
 62
7
  6
CONTINUOUS
 10
-10.6242793873
 20
-13.0871299938
 11
-9.6257440019
 21
-13.6636718108
  0
LINE
  5
367
100
AcDbEntity
  8
SUPERFICI
100
AcDbLine
 62
7
  6
CONTINUOUS
 10
-17.564892874
 20
-8.8784828186
 11
-17.5005271112
 21
-8.9156468033
  0
LINE
  5
368
100
AcDbEntity
  8
DRAFT
100
AcDbLine
 62
7
  6
CONTINUOUS
 10
-17.3417413836
 20
-8.9256530463
 11
-17.028853766
 21
-9.1063104353
  0
LINE
  5
369
100
AcDbEntity
  8
SUPERFICI
100
AcDbLine
 62
7
  6
CONTINUOUS
 10
12.8548813805
 20
-26.1157806393
 11
10.3767920139
 21
-24.6849628968
  0
LINE
  5
36A
100
AcDbEntity
  8
SUPERFICI
100
AcDbLine
 62
7
  6
CONTINUOUS
 10
5.073491155
 20
-21.6229034468
 11
-5.5331105628
 21
-15.4987845469
  0
LINE
  5
36B
100
AcDbEntity
  8
SUPERFICI
100
AcDbLine
 62
7
  6
CONTINUOUS
 10
-10.8364114217
 20
-12.436725097
 11
-16.4932979848
 21
-9.1705096928
  0
LINE
  5
36C
100
AcDbEntity
  8
SUPERFICI
100
AcDbLine
 62
7
  6
CONTINUOUS
 10
-16.6222398629
 20
-8.5244758378
 11
-16.0069630543
 21
-8.8797289558
  0
LINE
  5
36D
100
AcDbEntity
  8
SUPERFICI
100
AcDbLine
 62
7
  6
CONTINUOUS
 10
-16.5328320467
 20
-8.474624132
 11
-15.8569558063
 21
-8.8648666025
  0
LWPOLYLINE
  5
36E
100
AcDbEntity
  8
RACCORDO
100
AcDbPolyline
 62
7
  6
CONTINUOUS
 90
3
 70
0
 10
-21.7349402239
 20
-12.8467077681
 10
-21.6880859418
 20
-12.8796075372
 10
-21.6586408197
 20
-12.8975947442
  0
LINE
  5
36F
100
AcDbEntity
  8
0
100
AcDbLine
 62
7
  6
CONTINUOUS
 10
-15.2027957955
 20
81.3048298037
 11
-15.2027957955
 21
76.8142432814
  0
LINE
  5
370
100
AcDbEntity
  8
0
100
AcDbLine
 62
7
  6
CONTINUOUS
 10
-15.2027957955
 20
-57.4951172511
 11
-15.2027957955
 21
-53.0045307287
  0
LINE
  5
371
100
AcDbEntity
  8
0
100
AcDbLine
 62
7
  6
CONTINUOUS
 10
-14.9906637612
 20
81.3048298037
 11
-14.9906637612
 21
76.8142432814
  0
LINE
  5
372
100
AcDbEntity
  8
0
100
AcDbLine
 62
7
  6
CONTINUOUS
 10
-14.9906637612
 20
-57.4951172511
 11
-14.9906637612
 21
-53.0045307287
  0
LINE
  5
373
100
AcDbEntity
  8
0
100
AcDbLine
 62
7
  6
CONTINUOUS
 10
-14.884597744
 20
-57.4338760621
 11
-14.884597744
 21
-52.8208071617
  0
LINE
  5
374
100
AcDbEntity
  8
0
100
AcDbLine
 62
7
  6
CONTINUOUS
 10
-14.884597744
 20
76.8754844704
 11
-14.884597744
 21
81.4885533707
  0
LINE
  5
375
100
AcDbEntity
  8
0
100
AcDbLine
 62
7
  6
CONTINUOUS
 10
-14.8492424049
 20
81.4885533707
 11
-14.8492424049
 21
77.018380578
  0
LINE
  5
376
100
AcDbEntity
  8
0
100
AcDbLine
 62
7
  6
CONTINUOUS
 10
-14.8492424049
 20
-57.2909799544
 11
-14.8492424049
 21
-52.800393432
  0
LINE
  5
377
100
AcDbEntity
  8
0
100
AcDbLine
 62
7
  6
CONTINUOUS
 10
-14.6371103706
 20
81.3690570371
 11
-14.6371103706
 21
77.018380578
  0
LINE
  5
378
100
AcDbEntity
  8
0
100
AcDbLine
 62
7
  6
CONTINUOUS
 10
-14.6371103706
 20
-57.2909799544
 11
-14.6371103706
 21
-52.800393432
  0
LINE
  5
379
100
AcDbEntity
  8
0
100
AcDbLine
 62
7
  6
CONTINUOUS
 10
-14.5310443534
 20
81.3078158481
 11
-14.5310443534
 21
77.079621767
  0
LINE
  5
37A
100
AcDbEntity
  8
0
100
AcDbLine
 62
7
  6
CONTINUOUS
 10
-14.5310443534
 20
-57.2297387654
 11
-14.5310443534
 21
-52.616669865
  0
LINE
  5
37B
100
AcDbEntity
  8
0
100
AcDbLine
 62
7
  6
CONTINUOUS
 10
-14.5133666839
 20
-52.3937875522
 11
-14.5133666839
 21
-57.3097249706
  0
LINE
  5
37C
100
AcDbEntity
  8
0
100
AcDbLine
 62
7
  6
CONTINUOUS
 10
-14.5133666839
 20
76.9996355618
 11
-14.5133666839
 21
81.2976089833
  0
LINE
  5
37D
100
AcDbEntity
  8
SUPERFICI
100
AcDbLine
 62
7
  6
CONTINUOUS
 10
-14.4616028748
 20
23.2983315564
 11
-14.4616028748
 21
19.2236623048
  0
LINE
  5
37E
100
AcDbEntity
  8
0
100
AcDbLine
 62
7
  6
CONTINUOUS
 10
-14.4616028748
 20
5.6052709761
 11
-14.4616028748
 21
0.8530810788
  0
LINE
  5
37F
100
AcDbEntity
  8
0
100
AcDbLine
 62
7
  6
CONTINUOUS
 10
-14.4616028748
 20
-34.6710580959
 11
-14.4616028748
 21
-38.7457273475
  0
LINE
  5
380
100
AcDbEntity
  8
0
100
AcDbLine
 62
7
  6
CONTINUOUS
 10
-14.4616028748
 20
58.8224708426
 11
-14.4616028748
 21
63.5746607436
  0
LINE
  5
381
100
AcDbEntity
  8
0
100
AcDbLine
 62
7
  6
CONTINUOUS
 10
-14.4547880401
 20
81.2637864086
 11
-14.4547880401
 21
77.1297450912
  0
LINE
  5
382
100
AcDbEntity
  8
0
100
AcDbLine
 62
7
  6
CONTINUOUS
 10
-14.4547880401
 20
-52.3605872442
 11
-14.4547880401
 21
-57.1796317923
  0
LINE
  5
383
100
AcDbEntity
  8
0
100
AcDbLine
 62
7
  6
CONTINUOUS
 10
-10.6242793873
 20
45.1652410943
 11
-10.6242793873
 21
44.5467343012
  0
LINE
  5
384
100
AcDbEntity
  8
RACCORDO
100
AcDbLine
 62
7
  6
CONTINUOUS
 10
-10.6242793873
 20
-71.3920450034
 11
-10.6242793873
 21
-70.7735382103
  0
LINE
  5
385
100
AcDbEntity
  8
SUPERFICI
100
AcDbLine
 62
7
  6
CONTINUOUS
 10
-10.6242793873
 20
-13.4226553511
 11
-10.6242793873
 21
-12.804148558
  0
LINE
  5
386
100
AcDbEntity
  8
0
100
AcDbLine
 62
7
  6
CONTINUOUS
 10
-9.5636192155
 20
-71.9573609292
 11
-9.5636192155
 21
-71.7703825215
  0
LINE
  5
387
100
AcDbEntity
  8
0
100
AcDbLine
 62
7
  6
CONTINUOUS
 10
-9.5636192155
 20
-13.8009928692
 11
-9.5636192155
 21
-14.0350672411
  0
LINE
  5
388
100
AcDbEntity
  8
0
100
AcDbLine
 62
7
  6
CONTINUOUS
 10
-9.5636192155
 20
43.9343224112
 11
-9.5636192155
 21
44.1683967831
  0
LINE
  5
389
100
AcDbEntity
  8
DRAFT
100
AcDbLine
 62
7
  6
CONTINUOUS
 10
32.3678129088
 20
77.5767082777
 11
32.6918459205
 21
78.1379499191
  0
LINE
  5
38A
100
AcDbEntity
  8
0
100
AcDbLine
 62
7
  6
CONTINUOUS
 10
12.6483547588
 20
32.5402473141
 11
12.8430286502
 21
32.7829294168
  0
LINE
  5
38B
100
AcDbEntity
  8
0
100
AcDbLine
 62
7
  6
CONTINUOUS
 10
-14.5766759401
 20
0.7052135141
 11
-17.028853766
 21
-0.8590327036
  0
LINE
  5
38C
100
AcDbEntity
  8
SUPERFICI
100
AcDbLine
 62
7
  6
CONTINUOUS
 10
-17.028853766
 20
-1.5877541863
 11
-16.8226372444
 21
-1.4644568692
  0
LINE
  5
38D
100
AcDbEntity
  8
SUPERFICI
100
AcDbLine
 62
7
  6
CONTINUOUS
 10
-15.790077944
 20
5.4570867118
 11
-16.2811336368
 21
5.174768806
  0
LINE
  5
38E
100
AcDbEntity
  8
SUPERFICI
100
AcDbLine
 62
7
  6
CONTINUOUS
 10
-15.980425028
 20
5.3939479357
 11
-16.2811336368
 21
5.2211785655
  0
LINE
  5
38F
100
AcDbEntity
  8
SUPERFICI
100
AcDbLine
 62
7
  6
CONTINUOUS
 10
-14.9243083131
 20
5.8209737383
 11
-16.2811336368
 21
5.051038682
  0
LINE
  5
390
100
AcDbEntity
  8
SUPERFICI
100
AcDbLine
 62
7
  6
CONTINUOUS
 10
-16.8566931376
 20
2.7964189719
 11
-16.2811336368
 21
3.1173374789
  0
LINE
  5
391
100
AcDbEntity
  8
SUPERFICI
100
AcDbLine
 62
7
  6
CONTINUOUS
 10
-16.9201219865
 20
2.6583689092
 11
-16.3445624857
 21
2.9792874162
  0
LINE
  5
392
100
AcDbEntity
  8
RACCORDO
100
AcDbLine
 62
7
  6
CONTINUOUS
 10
15.1764142512
 20
24.4723628491
 11
15.4679608385
 21
24.6291471689
  0
LINE
  5
393
100
AcDbEntity
  8
RACCORDO
100
AcDbLine
 62
7
  6
CONTINUOUS
 10
15.0237694129
 20
24.147708434
 11
15.3168487806
 21
24.3053170335
  0
LINE
  5
394
100
AcDbEntity
  8
0
100
AcDbLine
 62
7
  6
CONTINUOUS
 10
-14.5766759401
 20
5.6202551629
 11
-16.2811336368
 21
4.7392650812
  0
LINE
  5
395
100
AcDbEntity
  8
0
100
AcDbLine
 62
7
  6
CONTINUOUS
 10
-6.584577432
 20
-12.7903270732
 11
-2.4689276681
 21
-15.1666516656
  0
LINE
  5
396
100
AcDbEntity
  8
0
100
AcDbLine
 62
7
  6
CONTINUOUS
 10
9.3253251447
 20
-21.976505423
 11
12.8548813805
 21
-24.0144269579
  0
LINE
  5
397
100
AcDbEntity
  8
SUPERFICI
100
AcDbLine
 62
7
  6
CONTINUOUS
 10
-16.5652429224
 20
-2.6788622919
 11
-17.028853766
 21
-2.4111792012
  0
LINE
  5
398
100
AcDbEntity
  8
SUPERFICI
100
AcDbLine
 62
7
  6
CONTINUOUS
 10
-17.028853766
 20
-1.1047005026
 11
-16.8263071501
 21
-1.2216483801
  0
LWPOLYLINE
  5
399
100
AcDbEntity
  8
RACCORDO
100
AcDbPolyline
 62
7
  6
CONTINUOUS
 90
10
 70
0
 10
-22.0604365519
 20
45.6082476371
 10
-22.0422672478
 20
45.5516559114
 10
-22.0205174709
 20
45.4963294841
 10
-21.9952959624
 20
45.4422400851
 10
-21.9668142623
 20
45.3897391112
 10
-21.9352216067
 20
45.3390373006
 10
-21.9006270913
 20
45.2903850362
 10
-21.8632367852
 20
45.2441564501
 10
-21.8229535183
 20
45.2004219956
 10
-21.7799748212
 20
45.1596704781
  0
LINE
  5
39A
100
AcDbEntity
  8
0
100
AcDbLine
 62
7
  6
CONTINUOUS
 10
-2.5134816337
 20
-15.2738102556
 11
-2.5134816337
 21
-15.6752086122
  0
LINE
  5
39B
100
AcDbEntity
  8
ASSI
100
AcDbLine
 62
7
  6
CONTINUOUS
 10
-2.5134816337
 20
-73.1617766691
 11
-2.5134816337
 21
-73.6445982644
  0
LINE
  5
39C
100
AcDbEntity
  8
0
100
AcDbLine
 62
7
  6
CONTINUOUS
 10
-2.5134816337
 20
42.2941810401
 11
-2.5134816337
 21
42.6955793967
  0
LINE
  5
39D
100
AcDbEntity
  8
0
100
AcDbLine
 62
7
  6
CONTINUOUS
 10
-2.4621105988
 20
42.7728489219
 11
-2.4621105988
 21
42.3246836969
  0
LINE
  5
39E
100
AcDbEntity
  8
SUPERFICI
100
AcDbLine
 62
7
  6
CONTINUOUS
 10
-2.4621105988
 20
-15.1965407304
 11
-2.4621105988
 21
-15.6446745476
  0
LINE
  5
39F
100
AcDbEntity
  8
ASSI
100
AcDbLine
 62
7
  6
CONTINUOUS
 10
-2.4621105988
 20
-73.1324975187
 11
-2.4621105988
 21
-73.6140641999
  0
LINE
  5
3A0
100
AcDbEntity
  8
RACCORDO
100
AcDbLine
 62
7
  6
CONTINUOUS
 10
12.6836492681
 20
27.8293383385
 11
12.8548813805
 21
28.1544870819
  0
LINE
  5
3A1
100
AcDbEntity
  8
RACCORDO
100
AcDbLine
 62
7
  6
CONTINUOUS
 10
12.8513265831
 20
27.8299511207
 11
12.8512676527
 21
27.8298393322
  0
LINE
  5
3A2
100
AcDbEntity
  8
DRAFT
100
AcDbLine
 62
7
  6
CONTINUOUS
 10
-17.028853766
 20
-2.9827833593
 11
-17.564892874
 21
-3.3265204458
  0
LINE
  5
3A3
100
AcDbEntity
  8
DRAFT
100
AcDbLine
 62
7
  6
CONTINUOUS
 10
-17.028853766
 20
-9.1063104353
 11
-17.564892874
 21
-9.4500475218
  0
LINE
  5
3A4
100
AcDbEntity
  8
SUPERFICI
100
AcDbLine
 62
7
  6
CONTINUOUS
 10
-16.0069630543
 20
-8.8797289558
 11
-16.4932979848
 21
-9.1705096928
  0
LINE
  5
3A5
100
AcDbEntity
  8
SUPERFICI
100
AcDbLine
 62
7
  6
CONTINUOUS
 10
-15.7911611142
 20
-9.24499615
 11
-16.0727245231
 21
-9.4133435386
  0
LINE
  5
3A6
100
AcDbEntity
  8
RACCORDO
100
AcDbLine
 62
7
  6
CONTINUOUS
 10
14.6815148914
 20
9.1520658292
 11
14.9730614787
 21
9.3204006166
  0
LINE
  5
3A7
100
AcDbEntity
  8
RACCORDO
100
AcDbLine
 62
7
  6
CONTINUOUS
 10
-18.3422658809
 20
-10.2381868829
 11
-17.028853766
 21
-9.4801289732
  0
LINE
  5
3A8
100
AcDbEntity
  8
RACCORDO
100
AcDbLine
 62
7
  6
CONTINUOUS
 10
-19.8516763404
 20
-11.1243917392
 11
-18.4744762637
 21
-10.3292829468
  0
LINE
  5
3A9
100
AcDbEntity
  8
RACCORDO
100
AcDbLine
 62
7
  6
CONTINUOUS
 10
-19.6523449846
 20
-11.4696534975
 11
-18.2751412074
 21
-10.6745230278
  0
LINE
  5
3AA
100
AcDbEntity
  8
RACCORDO
100
AcDbLine
 62
7
  6
CONTINUOUS
 10
-18.1301661553
 20
-10.6055543835
 11
-16.8170124512
 21
-9.8470488932
  0
LINE
  5
3AB
100
AcDbEntity
  8
RACCORDO
100
AcDbLine
 62
7
  6
CONTINUOUS
 10
15.1764142512
 20
8.2948749943
 11
15.4679608385
 21
8.4632097817
  0
LINE
  5
3AC
100
AcDbEntity
  8
SUPERFICI
100
AcDbLine
 62
7
  6
CONTINUOUS
 10
-16.5652429224
 20
-2.6788622919
 11
-17.028853766
 21
-2.9373608477
  0
LINE
  5
3AD
100
AcDbEntity
  8
SUPERFICI
100
AcDbLine
 62
7
  6
CONTINUOUS
 10
-16.3530785744
 20
-3.0463044104
 11
-17.2883627632
 21
-3.5677969843
  0
LINE
  5
3AE
100
AcDbEntity
  8
SUPERFICI
100
AcDbLine
 62
7
  6
CONTINUOUS
 10
-17.2883627632
 20
-8.7932067558
 11
-16.3530785744
 21
-8.2717141819
  0
LINE
  5
3AF
100
AcDbEntity
  8
SUPERFICI
100
AcDbLine
 62
7
  6
CONTINUOUS
 10
-17.3517916121
 20
-8.9312568185
 11
-16.4165074233
 21
-8.4097642446
  0
LINE
  5
3B0
100
AcDbEntity
  8
0
100
AcDbLine
 62
7
  6
CONTINUOUS
 10
-14.9243083131
 20
5.8209737383
 11
-14.5766759401
 21
5.6202551629
  0
LINE
  5
3B1
100
AcDbEntity
  8
SUPERFICI
100
AcDbLine
 62
7
  6
CONTINUOUS
 10
-14.8722126325
 20
5.8502209297
 11
-14.4840725299
 21
5.626113699
  0
LINE
  5
3B2
100
AcDbEntity
  8
RACCORDO
100
AcDbLine
 62
7
  6
CONTINUOUS
 10
5.2856231894
 20
-80.5782233532
 11
5.2856231894
 21
-79.9597165602
  0
LINE
  5
3B3
100
AcDbEntity
  8
0
100
AcDbLine
 62
7
  6
CONTINUOUS
 10
5.2856231894
 20
35.9790627444
 11
5.2856231894
 21
35.3605559513
  0
LINE
  5
3B4
100
AcDbEntity
  8
SUPERFICI
100
AcDbLine
 62
7
  6
CONTINUOUS
 10
5.2856231894
 20
-22.608833701
 11
5.2856231894
 21
-21.9903269079
  0
LINE
  5
3B5
100
AcDbEntity
  8
0
100
AcDbLine
 62
7
  6
CONTINUOUS
 10
6.3462833611
 20
34.7952400255
 11
6.3462833611
 21
34.7481440613
  0
LINE
  5
3B6
100
AcDbEntity
  8
0
100
AcDbLine
 62
7
  6
CONTINUOUS
 10
6.3462833611
 20
-23.1741496268
 11
6.3462833611
 21
-23.2212455909
  0
LINE
  5
3B7
100
AcDbEntity
  8
SUPERFICI
100
AcDbLine
 62
7
  6
CONTINUOUS
 10
-3.2615478179
 20
-16.2429639883
 11
-3.0668739265
 21
-16.0002818856
  0
LINE
  5
3B8
100
AcDbEntity
  8
SUPERFICI
100
AcDbLine
 62
7
  6
CONTINUOUS
 10
-11.4020968466
 20
-12.7633447716
 11
-10.8364114217
 21
-12.436725097
  0
LINE
  5
3B9
100
AcDbEntity
  8
SUPERFICI
100
AcDbLine
 62
7
  6
CONTINUOUS
 10
-11.1598874741
 20
-13.1134019545
 11
-10.6242793873
 21
-12.804148558
  0
LINE
  5
3BA
100
AcDbEntity
  8
SUPERFICI
100
AcDbLine
 62
7
  6
CONTINUOUS
 10
-9.7720490354
 20
-13.6764338576
 11
-9.9820652289
 21
-13.7934617573
  0
LINE
  5
3BB
100
AcDbEntity
  8
0
100
AcDbLine
 62
7
  6
CONTINUOUS
 10
-6.7701696951
 20
-12.8160519178
 11
-9.3510471589
 21
-14.1578036824
  0
LINE
  5
3BC
100
AcDbEntity
  8
SUPERFICI
100
AcDbLine
 62
7
  6
CONTINUOUS
 10
-15.790077944
 20
5.4570867118
 11
-15.4822080971
 21
5.5043916447
  0
LINE
  5
3BD
100
AcDbEntity
  8
SUPERFICI
100
AcDbLine
 62
7
  6
CONTINUOUS
 10
-17.028853766
 20
16.0410569453
 11
-16.4932979848
 21
15.7318337494
  0
LINE
  5
3BE
100
AcDbEntity
  8
SUPERFICI
100
AcDbLine
 62
7
  6
CONTINUOUS
 10
-16.988240418
 20
17.2424310872
 11
-17.028853766
 21
17.2658807253
  0
LINE
  5
3BF
100
AcDbEntity
  8
SMUSSO
100
AcDbLine
 62
7
  6
CONTINUOUS
 10
-35.3056562195
 20
115.1067948435
 11
-32.6153002822
 21
107.34035619
  0
LINE
  5
3C0
100
AcDbEntity
  8
RACCORDO
100
AcDbLine
 62
7
  6
CONTINUOUS
 10
12.8548813805
 20
65.2083864003
 11
12.8548813805
 21
27.8712070564
  0
LINE
  5
3C1
100
AcDbEntity
  8
RACCORDO
100
AcDbLine
 62
7
  6
CONTINUOUS
 10
12.8548813805
 20
7.2389967481
 11
12.8548813805
 21
-30.0981825959
  0
LINE
  5
3C2
100
AcDbEntity
  8
RACCORDO
100
AcDbLine
 62
7
  6
CONTINUOUS
 10
12.8548813805
 20
-50.7303929042
 11
12.8548813805
 21
-88.0675722481
  0
LINE
  5
3C3
100
AcDbEntity
  8
RACCORDO
100
AcDbLine
 62
7
  6
CONTINUOUS
 10
12.9427493461
 20
65.0859040223
 11
12.9427493461
 21
27.7487246539
  0
LINE
  5
3C4
100
AcDbEntity
  8
RACCORDO
100
AcDbLine
 62
7
  6
CONTINUOUS
 10
12.9427493461
 20
7.1165143701
 11
12.9427493461
 21
-30.2206649984
  0
LINE
  5
3C5
100
AcDbEntity
  8
RACCORDO
100
AcDbLine
 62
7
  6
CONTINUOUS
 10
12.9427493461
 20
-50.8528752822
 11
12.9427493461
 21
-88.1900546507
  0
LINE
  5
3C6
100
AcDbEntity
  8
RACCORDO
100
AcDbLine
 62
7
  6
CONTINUOUS
 10
14.7558847057
 20
-91.4642974979
 11
14.7558847057
 21
-49.6697592123
  0
LINE
  5
3C7
100
AcDbEntity
  8
RACCORDO
100
AcDbLine
 62
7
  6
CONTINUOUS
 10
14.7558847057
 20
-33.4949078456
 11
14.7558847057
 21
8.29963044
  0
LINE
  5
3C8
100
AcDbEntity
  8
RACCORDO
100
AcDbLine
 62
7
  6
CONTINUOUS
 10
14.7558847057
 20
24.4744818067
 11
14.7558847057
 21
66.2690200923
  0
LINE
  5
3C9
100
AcDbEntity
  8
RACCORDO
100
AcDbLine
 62
7
  6
CONTINUOUS
 10
15.1764142512
 20
-91.4664164555
 11
15.1764142512
 21
-49.6745146579
  0
LINE
  5
3CA
100
AcDbEntity
  8
RACCORDO
100
AcDbLine
 62
7
  6
CONTINUOUS
 10
15.1764142512
 20
-33.4970268032
 11
15.1764142512
 21
8.2948749943
  0
LINE
  5
3CB
100
AcDbEntity
  8
RACCORDO
100
AcDbLine
 62
7
  6
CONTINUOUS
 10
15.1764142512
 20
24.4723628491
 11
15.1764142512
 21
66.2642646466
  0
LINE
  5
3CC
100
AcDbEntity
  8
RACCORDO
100
AcDbLine
 62
7
  6
CONTINUOUS
 10
15.4679608385
 20
-91.3096321357
 11
15.4679608385
 21
-49.5061798706
  0
LINE
  5
3CD
100
AcDbEntity
  8
RACCORDO
100
AcDbLine
 62
7
  6
CONTINUOUS
 10
15.4679608385
 20
-33.3402424834
 11
15.4679608385
 21
8.4632097817
  0
LINE
  5
3CE
100
AcDbEntity
  8
RACCORDO
100
AcDbLine
 62
7
  6
CONTINUOUS
 10
15.4679608385
 20
24.6291471689
 11
15.4679608385
 21
66.432599434
  0
LWPOLYLINE
  5
3CF
100
AcDbEntity
  8
RACCORDO
100
AcDbPolyline
 62
7
  6
CONTINUOUS
 90
6
 70
0
 10
12.8548812062
 20
27.8711930943
 10
12.8544690643
 20
27.8562778385
 10
12.8533988546
 20
27.8441132109
 10
12.8520070174
 20
27.8351016695
 10
12.8507435437
 20
27.82954265
 10
12.8505439215
 20
27.8288292552
  0
LWPOLYLINE
  5
3D0
100
AcDbEntity
  8
RACCORDO
100
AcDbPolyline
 62
7
  6
CONTINUOUS
 90
6
 70
0
 10
12.8548812062
 20
-30.098196558
 10
12.8544690643
 20
-30.1131118138
 10
12.8533988546
 20
-30.1252764414
 10
12.8520070174
 20
-30.1342879828
 10
12.8507435437
 20
-30.1398470023
 10
12.8505439215
 20
-30.1405603971
  0
LWPOLYLINE
  5
3D1
100
AcDbEntity
  8
RACCORDO
100
AcDbPolyline
 62
7
  6
CONTINUOUS
 90
6
 70
0
 10
12.8548812062
 20
-88.0675862103
 10
12.8544690643
 20
-88.0825014661
 10
12.8533988546
 20
-88.0946660936
 10
12.8520070174
 20
-88.1036776351
 10
12.8507435437
 20
-88.1092366546
 10
12.8505439215
 20
-88.1099500494
  0
LWPOLYLINE
  5
3D2
100
AcDbEntity
  8
RACCORDO
100
AcDbPolyline
 62
7
  6
CONTINUOUS
 90
13
 70
0
 10
-21.8698773155
 20
-27.8891252826
 10
-21.8951638064
 20
-27.9059989999
 10
-21.9260478485
 20
-27.9303973175
 10
-21.9552289678
 20
-27.9581086138
 10
-21.9823958333
 20
-27.9891169014
 10
-22.0071640583
 20
-28.0232595804
 10
-22.0291445381
 20
-28.060242454
 10
-22.0481158349
 20
-28.0999320572
 10
-22.0638537683
 20
-28.142114253
 10
-22.0761487805
 20
-28.1863890957
 10
-22.0849100681
 20
-28.2325513831
 10
-22.0900720187
 20
-28.2805446745
 10
-22.0915871378
 20
-28.3253522046
  0
LINE
  5
3D3
100
AcDbEntity
  8
0
100
AcDbLine
 62
7
  6
CONTINUOUS
 10
-2.5134816337
 20
-15.2738102556
 11
-4.1287808438
 21
-16.3096269263
  0
LINE
  5
3D4
100
AcDbEntity
  8
RACCORDO
100
AcDbLine
 62
7
  6
CONTINUOUS
 10
-21.8700723372
 20
-27.88923859
 11
-21.5870073201
 21
-27.7141869373
  0
LINE
  5
3D5
100
AcDbEntity
  8
RACCORDO
100
AcDbLine
 62
7
  6
CONTINUOUS
 10
-21.5124997588
 20
-27.9193533816
 11
-21.2309564922
 21
-27.7452428022
  0
LINE
  5
3D6
100
AcDbEntity
  8
SUPERFICI
100
AcDbLine
 62
7
  6
CONTINUOUS
 10
-2.5134816337
 20
-15.6752086122
 11
-3.8588309008
 21
-16.4654926401
  0
LINE
  5
3D7
100
AcDbEntity
  8
SUPERFICI
100
AcDbLine
 62
7
  6
CONTINUOUS
 10
-3.4113718496
 20
-16.3762189376
 11
-3.7116675968
 21
-16.5504628874
  0
LINE
  5
3D8
100
AcDbEntity
  8
SUPERFICI
100
AcDbLine
 62
7
  6
CONTINUOUS
 10
-3.2615478179
 20
-16.2429639883
 11
-3.7518426139
 21
-16.527266336
  0
LINE
  5
3D9
100
AcDbEntity
  8
SUPERFICI
100
AcDbLine
 62
7
  6
CONTINUOUS
 10
-5.6831178108
 20
-15.4839221936
 11
-6.2488032358
 21
-15.8105418683
  0
LINE
  5
3DA
100
AcDbEntity
  8
SUPERFICI
100
AcDbLine
 62
7
  6
CONTINUOUS
 10
-5.5331105628
 20
-15.4987845469
 11
-6.0987959877
 21
-15.8254042216
  0
LINE
  5
3DB
100
AcDbEntity
  8
SUPERFICI
100
AcDbLine
 62
7
  6
CONTINUOUS
 10
-17.564892874
 20
20.8410352567
 11
-17.5005271112
 21
20.8038712719
  0
LINE
  5
3DC
100
AcDbEntity
  8
DRAFT
100
AcDbLine
 62
7
  6
CONTINUOUS
 10
-17.3417413836
 20
20.793865029
 11
-17.028853766
 21
20.61320764
  0
LINE
  5
3DD
100
AcDbEntity
  8
RACCORDO
100
AcDbLine
 62
7
  6
CONTINUOUS
 10
-19.7297912524
 20
26.3401174997
 11
12.6061962966
 21
7.6697235541
  0
LINE
  5
3DE
100
AcDbEntity
  8
RACCORDO
100
AcDbLine
 62
7
  6
CONTINUOUS
 10
-19.7919160387
 20
26.4774385581
 11
12.5440715315
 21
7.8070446001
  0
LINE
  5
3DF
100
AcDbEntity
  8
RACCORDO
100
AcDbLine
 62
7
  6
CONTINUOUS
 10
14.4730850715
 20
8.7868172861
 11
-21.7232129147
 21
29.6861060972
  0
LINE
  5
3E0
100
AcDbEntity
  8
RACCORDO
100
AcDbLine
 62
7
  6
CONTINUOUS
 10
14.6815148914
 20
9.1520658292
 11
-21.5124997588
 21
30.0500362707
  0
LINE
  5
3E1
100
AcDbEntity
  8
RACCORDO
100
AcDbLine
 62
7
  6
CONTINUOUS
 10
14.9730614787
 20
9.3204006166
 11
-21.2309564922
 21
30.2241468501
  0
LWPOLYLINE
  5
3E2
100
AcDbEntity
  8
RACCORDO
100
AcDbPolyline
 62
7
  6
CONTINUOUS
 90
21
 70
0
 10
12.6062766434
 20
7.6696770103
 10
12.6194145105
 20
7.6616401305
 10
12.6372953536
 20
7.6493003263
 10
12.6558611285
 20
7.6348030582
 10
12.6747466665
 20
7.6182681957
 10
12.6936625404
 20
7.5998161385
 10
12.712338373
 20
7.579602225
 10
12.7305604014
 20
7.5577676309
 10
12.7480909699
 20
7.5345264016
 10
12.7647028958
 20
7.5101296578
 10
12.7802650586
 20
7.484734465
 10
12.7945901387
 20
7.4586379988
 10
12.807525762
 20
7.4321482204
 10
12.8190092918
 20
7.4054333668
 10
12.828935507
 20
7.3788126413
 10
12.8372333759
 20
7.352630321
 10
12.8439007845
 20
7.3271104722
 10
12.8489442911
 20
7.3025259448
 10
12.8523933315
 20
7.2792120336
 10
12.8543243546
 20
7.2575415163
 10
12.8548808814
 20
7.2391072056
  0
LINE
  5
3E3
100
AcDbEntity
  8
RACCORDO
100
AcDbLine
 62
7
  6
CONTINUOUS
 10
12.6836492681
 20
-30.1400513138
 11
12.8548813805
 21
-29.8149025704
  0
LINE
  5
3E4
100
AcDbEntity
  8
RACCORDO
100
AcDbLine
 62
7
  6
CONTINUOUS
 10
12.8513265831
 20
-30.1394385316
 11
12.8512676527
 21
-30.1395503201
  0
LINE
  5
3E5
100
AcDbEntity
  8
DRAFT
100
AcDbLine
 62
7
  6
CONTINUOUS
 10
-17.028853766
 20
-37.3561820123
 11
-17.564892874
 21
-37.6999190988
  0
LINE
  5
3E6
100
AcDbEntity
  8
0
100
AcDbLine
 62
7
  6
CONTINUOUS
 10
-14.5766759401
 20
-38.8935949104
 11
-17.028853766
 21
-40.457841128
  0
LINE
  5
3E7
100
AcDbEntity
  8
SUPERFICI
100
AcDbLine
 62
7
  6
CONTINUOUS
 10
4.5078057301
 20
-21.9495231215
 11
5.073491155
 21
-21.6229034468
  0
LINE
  5
3E8
100
AcDbEntity
  8
SUPERFICI
100
AcDbLine
 62
7
  6
CONTINUOUS
 10
4.7500151026
 20
-22.2995803044
 11
5.2856231894
 21
-21.9903269079
  0
LINE
  5
3E9
100
AcDbEntity
  8
0
100
AcDbLine
 62
7
  6
CONTINUOUS
 10
6.3462833611
 20
-23.1741496268
 11
6.3054996874
 21
-23.1976976089
  0
LINE
  5
3EA
100
AcDbEntity
  8
0
100
AcDbLine
 62
7
  6
CONTINUOUS
 10
-15.790077944
 20
-34.1417217126
 11
-16.3530785744
 21
-34.4654022264
  0
LINE
  5
3EB
100
AcDbEntity
  8
0
100
AcDbLine
 62
7
  6
CONTINUOUS
 10
-15.980425028
 20
-34.2048604887
 11
-16.3530785744
 21
-34.4189651623
  0
LINE
  5
3EC
100
AcDbEntity
  8
0
100
AcDbLine
 62
7
  6
CONTINUOUS
 10
-15.4711643363
 20
-34.0881499608
 11
-16.3530785744
 21
-34.5885951373
  0
LINE
  5
3ED
100
AcDbEntity
  8
RACCORDO
100
AcDbLine
 62
7
  6
CONTINUOUS
 10
-17.2883627632
 20
-37.0430783328
 11
-16.3530785744
 21
-36.5215857589
  0
LINE
  5
3EE
100
AcDbEntity
  8
RACCORDO
100
AcDbLine
 62
7
  6
CONTINUOUS
 10
-17.3517916121
 20
-37.1811283955
 11
-16.4165074233
 21
-36.6596358216
  0
LINE
  5
3EF
100
AcDbEntity
  8
SUPERFICI
100
AcDbLine
 62
7
  6
CONTINUOUS
 10
6.125437954
 20
-23.0937322207
 11
6.1676677955
 21
-23.0710192378
  0
LINE
  5
3F0
100
AcDbEntity
  8
0
100
AcDbLine
 62
7
  6
CONTINUOUS
 10
9.1397328816
 20
-22.0022302677
 11
6.5588554178
 21
-23.3439820323
  0
LINE
  5
3F1
100
AcDbEntity
  8
0
100
AcDbLine
 62
7
  6
CONTINUOUS
 10
-15.1488088677
 20
-34.2742739683
 11
-16.3530785744
 21
-34.89672982
  0
LINE
  5
3F2
100
AcDbEntity
  8
RACCORDO
100
AcDbLine
 62
7
  6
CONTINUOUS
 10
-19.4845536334
 20
26.198520372
 11
-19.8516763404
 21
26.2127855268
  0
LWPOLYLINE
  5
3F3
100
AcDbEntity
  8
RACCORDO
100
AcDbPolyline
 62
7
  6
CONTINUOUS
 90
9
 70
0
 10
-19.7673314585
 20
26.3576690765
 10
-19.768570535
 20
26.3577354827
 10
-19.7702001065
 20
26.3578949554
 10
-19.7683433316
 20
26.3574741557
 10
-19.7633416437
 20
26.3559718019
 10
-19.7553417826
 20
26.3529474498
 10
-19.7448042323
 20
26.3481586064
 10
-19.7327276097
 20
26.3417901399
 10
-19.7298319387
 20
26.3401408014
  0
LWPOLYLINE
  5
3F4
100
AcDbEntity
  8
RACCORDO
100
AcDbPolyline
 62
7
  6
CONTINUOUS
 90
3
 70
0
 10
-21.7349402239
 20
45.1226818842
 10
-21.6880859418
 20
45.0897821151
 10
-21.6586408197
 20
45.0717949081
  0
LINE
  5
3F5
100
AcDbEntity
  8
RACCORDO
100
AcDbLine
 62
7
  6
CONTINUOUS
 10
-21.7799748212
 20
45.1596704781
 11
-21.7349402239
 21
45.1226818842
  0
LINE
  5
3F6
100
AcDbEntity
  8
SMUSSO
100
AcDbLine
 62
7
  6
CONTINUOUS
 10
26.3574052687
 20
-110.7421452826
 11
26.3574052687
 21
73.2902551065
  0
LINE
  5
3F7
100
AcDbEntity
  8
SMUSSO
100
AcDbLine
 62
7
  6
CONTINUOUS
 10
32.0142595182
 20
-116.4575950399
 11
32.0142595182
 21
75.7395081171
  0
LINE
  5
3F8
100
AcDbEntity
  8
SMUSSO
100
AcDbLine
 62
7
  6
CONTINUOUS
 10
33.07491969
 20
76.7601946004
 11
33.07491969
 21
-115.8451831499
  0
LINE
  5
3F9
100
AcDbEntity
  8
ASSI
100
AcDbLine
 62
7
  6
CONTINUOUS
 10
-9.0509667992
 20
-72.2329462797
 11
-8.944900782
 21
-72.0492345492
  0
LINE
  5
3FA
100
AcDbEntity
  8
ASSI
100
AcDbLine
 62
7
  6
CONTINUOUS
 10
-8.6974134086
 20
-72.0288089831
 11
-8.5913473914
 21
-71.8450972525
  0
LINE
  5
3FB
100
AcDbEntity
  8
ASSI
100
AcDbLine
 62
7
  6
CONTINUOUS
 10
-8.343860018
 20
-71.8246716864
 11
-8.2377940008
 21
-71.6409599559
  0
LINE
  5
3FC
100
AcDbEntity
  8
ASSI
100
AcDbLine
 62
7
  6
CONTINUOUS
 10
-7.9903066274
 20
-71.6205343897
 11
-7.8842406102
 21
-71.4368226592
  0
LINE
  5
3FD
100
AcDbEntity
  8
ASSI
100
AcDbLine
 62
7
  6
CONTINUOUS
 10
-7.6367532368
 20
-71.4163970931
 11
-7.5306872196
 21
-71.2326853626
  0
LINE
  5
3FE
100
AcDbEntity
  8
ASSI
100
AcDbLine
 62
7
  6
CONTINUOUS
 10
-7.2831998462
 20
-71.2122597964
 11
-7.177133829
 21
-71.0285480659
  0
LINE
  5
3FF
100
AcDbEntity
  8
ASSI
100
AcDbLine
 62
7
  6
CONTINUOUS
 10
-6.9296464556
 20
-71.0081224997
 11
-6.8235804385
 21
-70.8244107692
  0
LINE
  5
400
100
AcDbEntity
  8
ASSI
100
AcDbLine
 62
7
  6
CONTINUOUS
 10
-4.4547727215
 20
-74.0701819497
 11
-4.3487067043
 21
-73.8864702192
  0
LINE
  5
401
100
AcDbEntity
  8
ASSI
100
AcDbLine
 62
7
  6
CONTINUOUS
 10
-4.1012193309
 20
-73.866044653
 11
-3.9951533137
 21
-73.6823329225
  0
LINE
  5
402
100
AcDbEntity
  8
ASSI
100
AcDbLine
 62
7
  6
CONTINUOUS
 10
-3.7476659403
 20
-73.6619073564
 11
-3.6415999231
 21
-73.4781956259
  0
LINE
  5
403
100
AcDbEntity
  8
SUPERFICI
100
AcDbLine
 62
7
  6
CONTINUOUS
 10
12.6483547588
 20
-25.4291423382
 11
12.8430286502
 21
-25.1864602355
  0
LINE
  5
404
100
AcDbEntity
  8
0
100
AcDbLine
 62
7
  6
CONTINUOUS
 10
12.8548813805
 20
-24.807252879
 11
11.7811217329
 21
-25.4958052762
  0
LINE
  5
405
100
AcDbEntity
  8
RACCORDO
100
AcDbLine
 62
7
  6
CONTINUOUS
 10
-17.028853766
 20
-40.9583119118
 11
-16.988240418
 21
-40.9331994105
  0
LINE
  5
406
100
AcDbEntity
  8
SUPERFICI
100
AcDbLine
 62
7
  6
CONTINUOUS
 10
12.8548813805
 20
-25.1794977138
 11
12.0510716759
 21
-25.65167099
  0
LINE
  5
407
100
AcDbEntity
  8
SUPERFICI
100
AcDbLine
 62
7
  6
CONTINUOUS
 10
12.4985307271
 20
-25.5623972874
 11
12.1982349799
 21
-25.7366412373
  0
LINE
  5
408
100
AcDbEntity
  8
SUPERFICI
100
AcDbLine
 62
7
  6
CONTINUOUS
 10
12.6483547588
 20
-25.4291423382
 11
12.1580599628
 21
-25.7134446859
  0
LINE
  5
409
100
AcDbEntity
  8
SUPERFICI
100
AcDbLine
 62
7
  6
CONTINUOUS
 10
10.2267847659
 20
-24.6701005435
 11
9.6610993409
 21
-24.9967202181
  0
LINE
  5
40A
100
AcDbEntity
  8
SUPERFICI
100
AcDbLine
 62
7
  6
CONTINUOUS
 10
10.3767920139
 20
-24.6849628968
 11
9.811106589
 21
-25.0115825714
  0
LINE
  5
40B
100
AcDbEntity
  8
0
100
AcDbLine
 62
7
  6
CONTINUOUS
 10
-16.988240418
 20
-40.7269585651
 11
-17.028853766
 21
-40.7504082032
  0
LINE
  5
40C
100
AcDbEntity
  8
RACCORDO
100
AcDbLine
 62
7
  6
CONTINUOUS
 10
-16.4932979848
 20
-42.2375559029
 11
-17.028853766
 21
-42.5361692722
  0
LINE
  5
40D
100
AcDbEntity
  8
RACCORDO
100
AcDbLine
 62
7
  6
CONTINUOUS
 10
-16.2811336368
 20
-42.6049980215
 11
-16.8566931376
 21
-42.9259165285
  0
LINE
  5
40E
100
AcDbEntity
  8
SUPERFICI
100
AcDbLine
 62
7
  6
CONTINUOUS
 10
-15.790077944
 20
23.8276679396
 11
-15.4822080971
 21
23.8749728726
  0
LINE
  5
40F
100
AcDbEntity
  8
RACCORDO
100
AcDbLine
 62
7
  6
CONTINUOUS
 10
-19.7674414353
 20
26.3576802246
 11
-19.7673151352
 21
26.3576753696
  0
LWPOLYLINE
  5
410
100
AcDbEntity
  8
RACCORDO
100
AcDbPolyline
 62
7
  6
CONTINUOUS
 90
13
 70
0
 10
14.5352345503
 20
24.1739041651
 10
14.5751107705
 20
24.1526590422
 10
14.619225186
 20
24.1331718274
 10
14.663553299
 20
24.1177108895
 10
14.7080117498
 20
24.1062496199
 10
14.7523787899
 20
24.0988098456
 10
14.7962058224
 20
24.0954094388
 10
14.839196453
 20
24.0959646717
 10
14.8811243374
 20
24.100350342
 10
14.9215403995
 20
24.108376059
 10
14.9601120959
 20
24.1197902323
 10
14.9966690171
 20
24.1343344909
 10
15.0238990488
 20
24.1477848703
  0
LINE
  5
411
100
AcDbEntity
  8
RACCORDO
100
AcDbLine
 62
7
  6
CONTINUOUS
 10
-21.6588048065
 20
45.0718777927
 11
14.5352098575
 21
24.1739073432
  0
LINE
  5
412
100
AcDbEntity
  8
RACCORDO
100
AcDbLine
 62
7
  6
CONTINUOUS
 10
-21.7209295787
 20
45.2091988429
 11
14.4753684153
 21
24.3099100273
  0
LINE
  5
413
100
AcDbEntity
  8
RACCORDO
100
AcDbLine
 62
7
  6
CONTINUOUS
 10
12.5440715315
 20
27.518577571
 11
-19.7919160387
 21
46.1889715289
  0
LINE
  5
414
100
AcDbEntity
  8
RACCORDO
100
AcDbLine
 62
7
  6
CONTINUOUS
 10
12.6836492681
 20
27.8293383385
 11
-19.6523449846
 21
46.4997361548
  0
LINE
  5
415
100
AcDbEntity
  8
RACCORDO
100
AcDbLine
 62
7
  6
CONTINUOUS
 10
-18.2449181791
 20
47.2730214732
 11
12.8548813805
 21
29.3163869796
  0
LINE
  5
416
100
AcDbEntity
  8
RACCORDO
100
AcDbLine
 62
7
  6
CONTINUOUS
 10
-18.1301661553
 20
47.3638352687
 11
12.8548813805
 21
29.4734571554
  0
LINE
  5
417
100
AcDbEntity
  8
RACCORDO
100
AcDbLine
 62
7
  6
CONTINUOUS
 10
12.8548813805
 20
29.8193539262
 11
-17.8306295668
 21
47.5367833674
  0
LINE
  5
418
100
AcDbEntity
  8
RACCORDO
100
AcDbLine
 62
7
  6
CONTINUOUS
 10
-16.8170124512
 20
48.1223407591
 11
12.8548813805
 21
30.9901611369
  0
LINE
  5
419
100
AcDbEntity
  8
0
100
AcDbLine
 62
7
  6
CONTINUOUS
 10
6.3462833611
 20
34.7952400255
 11
6.1676677955
 21
34.8983704145
  0
LINE
  5
41A
100
AcDbEntity
  8
0
100
AcDbLine
 62
7
  6
CONTINUOUS
 10
-17.0264424919
 20
48.4534715667
 11
-11.4020968466
 21
45.2060448807
  0
LINE
  5
41B
100
AcDbEntity
  8
0
100
AcDbLine
 62
7
  6
CONTINUOUS
 10
-6.0987959877
 20
42.1439854307
 11
4.5078057301
 21
36.0198665308
  0
LINE
  5
41C
100
AcDbEntity
  8
0
100
AcDbLine
 62
7
  6
CONTINUOUS
 10
9.811106589
 20
32.9578070808
 11
12.8548813805
 21
31.2003696637
  0
LINE
  5
41D
100
AcDbEntity
  8
0
100
AcDbLine
 62
7
  6
CONTINUOUS
 10
-9.7720490354
 20
44.2929557947
 11
-10.6242793873
 21
44.7850229189
  0
LINE
  5
41E
100
AcDbEntity
  8
0
100
AcDbLine
 62
7
  6
CONTINUOUS
 10
-10.6242793873
 20
44.8822596584
 11
-9.6257440019
 21
44.3057178415
  0
LINE
  5
41F
100
AcDbEntity
  8
DRAFT
100
AcDbLine
 62
7
  6
CONTINUOUS
 10
33.7229857155
 20
-114.9470224437
 11
33.7229857155
 21
76.3519634075
  0
LINE
  5
420
100
AcDbEntity
  8
DRAFT
100
AcDbLine
 62
7
  6
CONTINUOUS
 10
35.443727407
 20
78.1279578885
 11
35.443727407
 21
-113.9875771507
  0
LINE
  5
421
100
AcDbEntity
  8
ASSI
100
AcDbLine
 62
7
  6
CONTINUOUS
 10
-3.3941125497
 20
-73.4577700597
 11
-3.2880465325
 21
-73.2740583292
  0
LINE
  5
422
100
AcDbEntity
  8
ASSI
100
AcDbLine
 62
7
  6
CONTINUOUS
 10
-3.0405591591
 20
-73.253632763
 11
-2.9344931419
 21
-73.0699210325
  0
LINE
  5
423
100
AcDbEntity
  8
0
100
AcDbLine
 62
7
  6
CONTINUOUS
 10
-14.5133666839
 20
-57.3097249706
 11
-17.028853766
 21
-58.9143562139
  0
LINE
  5
424
100
AcDbEntity
  8
0
100
AcDbLine
 62
7
  6
CONTINUOUS
 10
-14.5310443534
 20
-52.616669865
 11
-14.8492424049
 21
-52.800393432
  0
LINE
  5
425
100
AcDbEntity
  8
0
100
AcDbLine
 62
7
  6
CONTINUOUS
 10
-14.884597744
 20
-52.8208071617
 11
-15.2027957955
 21
-53.0045307287
  0
LINE
  5
426
100
AcDbEntity
  8
0
100
AcDbLine
 62
7
  6
CONTINUOUS
 10
-15.2381511346
 20
-53.0249444584
 11
-15.5563491861
 21
-53.2086680254
  0
LINE
  5
427
100
AcDbEntity
  8
0
100
AcDbLine
 62
7
  6
CONTINUOUS
 10
-15.5917045252
 20
-53.229081755
 11
-15.9099025767
 21
-53.412805322
  0
LINE
  5
428
100
AcDbEntity
  8
0
100
AcDbLine
 62
7
  6
CONTINUOUS
 10
-15.9452579158
 20
-53.4332190517
 11
-16.2634559673
 21
-53.6169426187
  0
LINE
  5
429
100
AcDbEntity
  8
0
100
AcDbLine
 62
7
  6
CONTINUOUS
 10
-16.0513239329
 20
-53.6169426187
 11
-15.9452579158
 21
-53.5557014297
  0
LINE
  5
42A
100
AcDbEntity
  8
0
100
AcDbLine
 62
7
  6
CONTINUOUS
 10
-15.6977705423
 20
-53.412805322
 11
-15.5917045252
 21
-53.351564133
  0
LINE
  5
42B
100
AcDbEntity
  8
0
100
AcDbLine
 62
7
  6
CONTINUOUS
 10
-15.3442171517
 20
-53.2086680254
 11
-15.2381511346
 21
-53.1474268364
  0
LINE
  5
42C
100
AcDbEntity
  8
0
100
AcDbLine
 62
7
  6
CONTINUOUS
 10
-14.9906637612
 20
-53.0045307287
 11
-14.884597744
 21
-52.9432895397
  0
LINE
  5
42D
100
AcDbEntity
  8
0
100
AcDbLine
 62
7
  6
CONTINUOUS
 10
-14.6371103706
 20
-52.800393432
 11
-14.5310443534
 21
-52.739152243
  0
LINE
  5
42E
100
AcDbEntity
  8
0
100
AcDbLine
 62
7
  6
CONTINUOUS
 10
-15.790077944
 20
-52.5123029405
 11
-16.2811336368
 21
-52.7946208462
  0
LINE
  5
42F
100
AcDbEntity
  8
0
100
AcDbLine
 62
7
  6
CONTINUOUS
 10
-15.980425028
 20
-52.5754417165
 11
-16.2811336368
 21
-52.7482110868
  0
LINE
  5
430
100
AcDbEntity
  8
0
100
AcDbLine
 62
7
  6
CONTINUOUS
 10
-14.9243083131
 20
-52.148415914
 11
-16.2811336368
 21
-52.9183509703
  0
LINE
  5
431
100
AcDbEntity
  8
RACCORDO
100
AcDbLine
 62
7
  6
CONTINUOUS
 10
-16.8566931376
 20
-55.1729706804
 11
-16.2811336368
 21
-54.8520521734
  0
LINE
  5
432
100
AcDbEntity
  8
RACCORDO
100
AcDbLine
 62
7
  6
CONTINUOUS
 10
-16.9201219865
 20
-55.3110207431
 11
-16.3445624857
 21
-54.990102236
  0
LINE
  5
433
100
AcDbEntity
  8
RACCORDO
100
AcDbLine
 62
7
  6
CONTINUOUS
 10
15.1764142512
 20
-33.4970268032
 11
15.4679608385
 21
-33.3402424834
  0
LINE
  5
434
100
AcDbEntity
  8
RACCORDO
100
AcDbLine
 62
7
  6
CONTINUOUS
 10
15.0237694129
 20
-33.8216812183
 11
15.3168487806
 21
-33.6640726188
  0
LINE
  5
435
100
AcDbEntity
  8
0
100
AcDbLine
 62
7
  6
CONTINUOUS
 10
-14.5133666839
 20
-52.3937875522
 11
-16.2811336368
 21
-53.3075005504
  0
LINE
  5
436
100
AcDbEntity
  8
0
100
AcDbLine
 62
7
  6
CONTINUOUS
 10
-17.564892874
 20
49.0909068337
 11
-17.5005271112
 21
49.0537428489
  0
LINE
  5
437
100
AcDbEntity
  8
DRAFT
100
AcDbLine
 62
7
  6
CONTINUOUS
 10
-17.3417413836
 20
49.043736606
 11
-17.028853766
 21
48.863079217
  0
LINE
  5
438
100
AcDbEntity
  8
0
100
AcDbLine
 62
7
  6
CONTINUOUS
 10
-16.4932979848
 20
48.7988799595
 11
-10.8364114217
 21
45.5326645553
  0
LINE
  5
439
100
AcDbEntity
  8
0
100
AcDbLine
 62
7
  6
CONTINUOUS
 10
-5.5331105628
 20
42.4706051054
 11
5.073491155
 21
36.3464862055
  0
LINE
  5
43A
100
AcDbEntity
  8
0
100
AcDbLine
 62
7
  6
CONTINUOUS
 10
10.3767920139
 20
33.2844267555
 11
12.8548813805
 21
31.853609013
  0
LINE
  5
43B
100
AcDbEntity
  8
0
100
AcDbLine
 62
7
  6
CONTINUOUS
 10
-16.0069630543
 20
49.0896606965
 11
-16.6222398629
 21
49.4449138145
  0
LINE
  5
43C
100
AcDbEntity
  8
0
100
AcDbLine
 62
7
  6
CONTINUOUS
 10
-16.5328320467
 20
49.4947655202
 11
-15.8569558063
 21
49.1045230498
  0
LINE
  5
43D
100
AcDbEntity
  8
0
100
AcDbLine
 62
7
  6
CONTINUOUS
 10
12.8548813805
 20
33.9549626944
 11
9.3253250449
 21
35.9928842869
  0
LINE
  5
43E
100
AcDbEntity
  8
0
100
AcDbLine
 62
7
  6
CONTINUOUS
 10
-2.4689277647
 20
42.8027380424
 11
-6.5845775318
 21
45.1790626367
  0
LINE
  5
43F
100
AcDbEntity
  8
0
100
AcDbLine
 62
7
  6
CONTINUOUS
 10
-17.028853766
 20
55.5582104511
 11
-16.5652429224
 21
55.2905273604
  0
LINE
  5
440
100
AcDbEntity
  8
0
100
AcDbLine
 62
7
  6
CONTINUOUS
 10
-16.8263071501
 20
56.7477412722
 11
-17.028853766
 21
56.8646891497
  0
LINE
  5
441
100
AcDbEntity
  8
ASSI
100
AcDbLine
 62
7
  6
CONTINUOUS
 10
6.8589357775
 20
-81.4191246296
 11
6.9650017947
 21
-81.2354128991
  0
LINE
  5
442
100
AcDbEntity
  8
ASSI
100
AcDbLine
 62
7
  6
CONTINUOUS
 10
7.2124891681
 20
-81.2149873329
 11
7.3185551853
 21
-81.0312756024
  0
LINE
  5
443
100
AcDbEntity
  8
ASSI
100
AcDbLine
 62
7
  6
CONTINUOUS
 10
7.5660425587
 20
-81.0108500363
 11
7.6721085759
 21
-80.8271383058
  0
LINE
  5
444
100
AcDbEntity
  8
ASSI
100
AcDbLine
 62
7
  6
CONTINUOUS
 10
7.9195959493
 20
-80.8067127396
 11
8.0256619665
 21
-80.6230010091
  0
LINE
  5
445
100
AcDbEntity
  8
ASSI
100
AcDbLine
 62
7
  6
CONTINUOUS
 10
8.2731493399
 20
-80.6025754429
 11
8.3792153571
 21
-80.4188637124
  0
LINE
  5
446
100
AcDbEntity
  8
ASSI
100
AcDbLine
 62
7
  6
CONTINUOUS
 10
8.6267027305
 20
-80.3984381463
 11
8.7327687477
 21
-80.2147264158
  0
LINE
  5
447
100
AcDbEntity
  8
ASSI
100
AcDbLine
 62
7
  6
CONTINUOUS
 10
8.9802561211
 20
-80.1943008496
 11
9.0863221382
 21
-80.0105891191
  0
LINE
  5
448
100
AcDbEntity
  8
ASSI
100
AcDbLine
 62
7
  6
CONTINUOUS
 10
-3.2615478179
 20
-74.2123536406
 11
-3.0668739265
 21
-73.9696715379
  0
LINE
  5
449
100
AcDbEntity
  8
DRAFT
100
AcDbLine
 62
7
  6
CONTINUOUS
 10
-17.028853766
 20
-60.9521730116
 11
-17.564892874
 21
-61.2959100981
  0
LINE
  5
44A
100
AcDbEntity
  8
DRAFT
100
AcDbLine
 62
7
  6
CONTINUOUS
 10
-17.028853766
 20
-67.0757000876
 11
-17.564892874
 21
-67.419437174
  0
LINE
  5
44B
100
AcDbEntity
  8
0
100
AcDbLine
 62
7
  6
CONTINUOUS
 10
-17.028853766
 20
-59.5571438386
 11
-16.8226372444
 21
-59.4338465214
  0
LINE
  5
44C
100
AcDbEntity
  8
0
100
AcDbLine
 62
7
  6
CONTINUOUS
 10
-16.0069630543
 20
-66.8491186081
 11
-16.4932979848
 21
-67.1398993451
  0
LINE
  5
44D
100
AcDbEntity
  8
0
100
AcDbLine
 62
7
  6
CONTINUOUS
 10
-15.7911611142
 20
-67.2143858022
 11
-16.0727245231
 21
-67.3827331909
  0
LINE
  5
44E
100
AcDbEntity
  8
0
100
AcDbLine
 62
7
  6
CONTINUOUS
 10
-17.028853766
 20
-58.6719426153
 11
-17.0059180875
 21
-58.658699842
  0
LINE
  5
44F
100
AcDbEntity
  8
0
100
AcDbLine
 62
7
  6
CONTINUOUS
 10
-16.7584307141
 20
-58.5158037344
 11
-16.6523646969
 21
-58.4545625454
  0
LINE
  5
450
100
AcDbEntity
  8
0
100
AcDbLine
 62
7
  6
CONTINUOUS
 10
-16.4048773235
 20
-58.3116664377
 11
-16.2988113063
 21
-58.2504252487
  0
LINE
  5
451
100
AcDbEntity
  8
0
100
AcDbLine
 62
7
  6
CONTINUOUS
 10
-16.0513239329
 20
-58.107529141
 11
-15.9452579158
 21
-58.0462879521
  0
LINE
  5
452
100
AcDbEntity
  8
0
100
AcDbLine
 62
7
  6
CONTINUOUS
 10
-15.6977705423
 20
-57.9033918444
 11
-15.5917045252
 21
-57.8421506554
  0
LINE
  5
453
100
AcDbEntity
  8
0
100
AcDbLine
 62
7
  6
CONTINUOUS
 10
-15.3442171517
 20
-57.6992545477
 11
-15.2381511346
 21
-57.6380133587
  0
LINE
  5
454
100
AcDbEntity
  8
0
100
AcDbLine
 62
7
  6
CONTINUOUS
 10
-14.9906637612
 20
-57.4951172511
 11
-14.884597744
 21
-57.4338760621
  0
LINE
  5
455
100
AcDbEntity
  8
0
100
AcDbLine
 62
7
  6
CONTINUOUS
 10
-14.6371103706
 20
-57.2909799544
 11
-14.5310443534
 21
-57.2297387654
  0
LINE
  5
456
100
AcDbEntity
  8
RACCORDO
100
AcDbLine
 62
7
  6
CONTINUOUS
 10
14.6815148914
 20
-48.8173238231
 11
14.9730614787
 21
-48.6489890357
  0
LINE
  5
457
100
AcDbEntity
  8
RACCORDO
100
AcDbLine
 62
7
  6
CONTINUOUS
 10
-18.3422658809
 20
-68.2075765352
 11
-17.028853766
 21
-67.4495186255
  0
LINE
  5
458
100
AcDbEntity
  8
RACCORDO
100
AcDbLine
 62
7
  6
CONTINUOUS
 10
-19.8516763404
 20
-69.0937813915
 11
-18.4744762637
 21
-68.2986725991
  0
LINE
  5
459
100
AcDbEntity
  8
RACCORDO
100
AcDbLine
 62
7
  6
CONTINUOUS
 10
-16.5652429224
 20
-60.6482519442
 11
-17.028853766
 21
-60.9067505
  0
LINE
  5
45A
100
AcDbEntity
  8
RACCORDO
100
AcDbLine
 62
7
  6
CONTINUOUS
 10
-16.3530785744
 20
-61.0156940627
 11
-17.2883627632
 21
-61.5371866366
  0
LINE
  5
45B
100
AcDbEntity
  8
RACCORDO
100
AcDbLine
 62
7
  6
CONTINUOUS
 10
-17.2883627632
 20
-66.7625964081
 11
-16.3530785744
 21
-66.2411038342
  0
LINE
  5
45C
100
AcDbEntity
  8
RACCORDO
100
AcDbLine
 62
7
  6
CONTINUOUS
 10
-17.3517916121
 20
-66.9006464708
 11
-16.4165074233
 21
-66.3791538968
  0
LINE
  5
45D
100
AcDbEntity
  8
0
100
AcDbLine
 62
7
  6
CONTINUOUS
 10
-14.5766759401
 20
63.5896448152
 11
-14.9243083131
 21
63.7903633906
  0
LINE
  5
45E
100
AcDbEntity
  8
0
100
AcDbLine
 62
7
  6
CONTINUOUS
 10
-14.8721854484
 20
63.8195948863
 11
-14.4840725299
 21
63.5955033513
  0
LINE
  5
45F
100
AcDbEntity
  8
RACCORDO
100
AcDbLine
 62
7
  6
CONTINUOUS
 10
12.6836492681
 20
-88.1094409661
 11
12.8548813805
 21
-87.7842922227
  0
LINE
  5
460
100
AcDbEntity
  8
RACCORDO
100
AcDbLine
 62
7
  6
CONTINUOUS
 10
12.8513265831
 20
-88.1088281839
 11
12.8512676527
 21
-88.1089399724
  0
LINE
  5
461
100
AcDbEntity
  8
ASSI
100
AcDbLine
 62
7
  6
CONTINUOUS
 10
11.4551298552
 20
-83.2563602996
 11
11.5611958724
 21
-83.0726485691
  0
LINE
  5
462
100
AcDbEntity
  8
ASSI
100
AcDbLine
 62
7
  6
CONTINUOUS
 10
11.8086832458
 20
-83.0522230029
 11
11.914749263
 21
-82.8685112724
  0
LINE
  5
463
100
AcDbEntity
  8
ASSI
100
AcDbLine
 62
7
  6
CONTINUOUS
 10
12.1622366364
 20
-82.8480857062
 11
12.2683026536
 21
-82.6643739757
  0
LINE
  5
464
100
AcDbEntity
  8
ASSI
100
AcDbLine
 62
7
  6
CONTINUOUS
 10
12.515790027
 20
-82.6439484096
 11
12.6218560442
 21
-82.4602366791
  0
LINE
  5
465
100
AcDbEntity
  8
RACCORDO
100
AcDbLine
 62
7
  6
CONTINUOUS
 10
-19.6523449846
 20
-69.4390431498
 11
-18.2751412074
 21
-68.6439126801
  0
LINE
  5
466
100
AcDbEntity
  8
RACCORDO
100
AcDbLine
 62
7
  6
CONTINUOUS
 10
-18.1301661553
 20
-68.5749440358
 11
-16.8170124512
 21
-67.8164385455
  0
LINE
  5
467
100
AcDbEntity
  8
RACCORDO
100
AcDbLine
 62
7
  6
CONTINUOUS
 10
15.1764142512
 20
-49.6745146579
 11
15.4679608385
 21
-49.5061798706
  0
LINE
  5
468
100
AcDbEntity
  8
RACCORDO
100
AcDbLine
 62
7
  6
CONTINUOUS
 10
-11.4020968466
 20
-70.7327344239
 11
-10.8364114217
 21
-70.4061147492
  0
LINE
  5
469
100
AcDbEntity
  8
RACCORDO
100
AcDbLine
 62
7
  6
CONTINUOUS
 10
-11.1598874741
 20
-71.0827916068
 11
-10.6242793873
 21
-70.7735382103
  0
LINE
  5
46A
100
AcDbEntity
  8
0
100
AcDbLine
 62
7
  6
CONTINUOUS
 10
-9.5636192155
 20
-71.9573609292
 11
-9.6044028893
 21
-71.9809089113
  0
LINE
  5
46B
100
AcDbEntity
  8
ASSI
100
AcDbLine
 62
7
  6
CONTINUOUS
 10
-9.2154839096
 20
-72.2054658559
 11
-9.1923881554
 21
-72.1921306569
  0
LINE
  5
46C
100
AcDbEntity
  8
ASSI
100
AcDbLine
 62
7
  6
CONTINUOUS
 10
-8.944900782
 20
-72.0492345492
 11
-8.8388347648
 21
-71.9879933602
  0
LINE
  5
46D
100
AcDbEntity
  8
ASSI
100
AcDbLine
 62
7
  6
CONTINUOUS
 10
-8.5913473914
 20
-71.8450972525
 11
-8.4852813742
 21
-71.7838560635
  0
LINE
  5
46E
100
AcDbEntity
  8
ASSI
100
AcDbLine
 62
7
  6
CONTINUOUS
 10
-8.2377940008
 20
-71.6409599559
 11
-8.1317279836
 21
-71.5797187669
  0
LINE
  5
46F
100
AcDbEntity
  8
ASSI
100
AcDbLine
 62
7
  6
CONTINUOUS
 10
-7.8842406102
 20
-71.4368226592
 11
-7.7781745931
 21
-71.3755814702
  0
LINE
  5
470
100
AcDbEntity
  8
ASSI
100
AcDbLine
 62
7
  6
CONTINUOUS
 10
-7.5306872196
 20
-71.2326853626
 11
-7.4246212025
 21
-71.1714441736
  0
LINE
  5
471
100
AcDbEntity
  8
ASSI
100
AcDbLine
 62
7
  6
CONTINUOUS
 10
-7.177133829
 20
-71.0285480659
 11
-7.0710678119
 21
-70.9673068769
  0
LINE
  5
472
100
AcDbEntity
  8
ASSI
100
AcDbLine
 62
7
  6
CONTINUOUS
 10
-6.8235804385
 20
-70.8244107692
 11
-6.7175144213
 21
-70.7631695802
  0
LINE
  5
473
100
AcDbEntity
  8
SMUSSO
100
AcDbLine
 62
7
  6
CONTINUOUS
 10
-35.3056562195
 20
-78.2449716522
 11
-32.6153002822
 21
-76.6920441991
  0
LINE
  5
474
100
AcDbEntity
  8
0
100
AcDbLine
 62
7
  6
CONTINUOUS
 10
-9.7720490354
 20
-71.6458235099
 11
-9.9820652289
 21
-71.7628514096
  0
LINE
  5
475
100
AcDbEntity
  8
0
100
AcDbLine
 62
7
  6
CONTINUOUS
 10
-16.4932979848
 20
73.7012234016
 11
-17.028853766
 21
74.0104465976
  0
LINE
  5
476
100
AcDbEntity
  8
ASSI
100
AcDbLine
 62
7
  6
CONTINUOUS
 10
12.6483547588
 20
-83.3985319905
 11
12.8430286502
 21
-83.1558498878
  0
LINE
  5
477
100
AcDbEntity
  8
ASSI
100
AcDbLine
 62
7
  6
CONTINUOUS
 10
-2.5204951635
 20
-73.1660503325
 11
-4.195779257
 21
-74.2403325344
  0
LINE
  5
478
100
AcDbEntity
  8
ASSI
100
AcDbLine
 62
7
  6
CONTINUOUS
 10
-2.5134816337
 20
-73.6445982644
 11
-3.8588309008
 21
-74.4348822924
  0
LINE
  5
479
100
AcDbEntity
  8
ASSI
100
AcDbLine
 62
7
  6
CONTINUOUS
 10
-3.4113718496
 20
-74.3456085898
 11
-3.7116675968
 21
-74.5198525397
  0
LINE
  5
47A
100
AcDbEntity
  8
ASSI
100
AcDbLine
 62
7
  6
CONTINUOUS
 10
-3.2615478179
 20
-74.2123536406
 11
-3.7518426139
 21
-74.4966559883
  0
LINE
  5
47B
100
AcDbEntity
  8
RACCORDO
100
AcDbLine
 62
7
  6
CONTINUOUS
 10
-5.6831178108
 20
-73.4533118459
 11
-6.2488032358
 21
-73.7799315206
  0
LINE
  5
47C
100
AcDbEntity
  8
RACCORDO
100
AcDbLine
 62
7
  6
CONTINUOUS
 10
-5.5331105628
 20
-73.4681741992
 11
-6.0987959877
 21
-73.7947938739
  0
LINE
  5
47D
100
AcDbEntity
  8
ASSI
100
AcDbLine
 62
7
  6
CONTINUOUS
 10
-4.3487067043
 20
-73.8864702192
 11
-4.2426406871
 21
-73.8252290302
  0
LINE
  5
47E
100
AcDbEntity
  8
ASSI
100
AcDbLine
 62
7
  6
CONTINUOUS
 10
-3.9951533137
 20
-73.6823329225
 11
-3.8890872965
 21
-73.6210917335
  0
LINE
  5
47F
100
AcDbEntity
  8
ASSI
100
AcDbLine
 62
7
  6
CONTINUOUS
 10
-3.6415999231
 20
-73.4781956259
 11
-3.5355339059
 21
-73.4169544369
  0
LINE
  5
480
100
AcDbEntity
  8
ASSI
100
AcDbLine
 62
7
  6
CONTINUOUS
 10
-3.2880465325
 20
-73.2740583292
 11
-3.1819805153
 21
-73.2128171402
  0
LINE
  5
481
100
AcDbEntity
  8
ASSI
100
AcDbLine
 62
7
  6
CONTINUOUS
 10
-2.9344931419
 20
-73.0699210325
 11
-2.8284271247
 21
-73.0086798435
  0
LINE
  5
482
100
AcDbEntity
  8
ASSI
100
AcDbLine
 62
7
  6
CONTINUOUS
 10
-2.7223611076
 20
-73.069909196
 11
-3.0405591591
 21
-73.253632763
  0
LINE
  5
483
100
AcDbEntity
  8
ASSI
100
AcDbLine
 62
7
  6
CONTINUOUS
 10
-3.0759144982
 20
-73.2740464927
 11
-3.3941125497
 21
-73.4577700597
  0
LINE
  5
484
100
AcDbEntity
  8
ASSI
100
AcDbLine
 62
7
  6
CONTINUOUS
 10
-3.4294678888
 20
-73.4781837894
 11
-3.7476659403
 21
-73.6619073564
  0
LINE
  5
485
100
AcDbEntity
  8
ASSI
100
AcDbLine
 62
7
  6
CONTINUOUS
 10
-3.7830212793
 20
-73.682321086
 11
-4.1012193309
 21
-73.866044653
  0
LINE
  5
486
100
AcDbEntity
  8
ASSI
100
AcDbLine
 62
7
  6
CONTINUOUS
 10
-4.1365746699
 20
-73.8864583827
 11
-4.4547727215
 21
-74.0701819497
  0
LINE
  5
487
100
AcDbEntity
  8
ASSI
100
AcDbLine
 62
7
  6
CONTINUOUS
 10
-6.7779590091
 20
-70.7078440666
 11
-9.3825353797
 21
-72.0619164666
  0
LINE
  5
488
100
AcDbEntity
  8
0
100
AcDbLine
 62
7
  6
CONTINUOUS
 10
-15.790077944
 20
63.4264763641
 11
-15.4822080971
 21
63.473781297
  0
LINE
  5
489
100
AcDbEntity
  8
0
100
AcDbLine
 62
7
  6
CONTINUOUS
 10
-17.564892874
 20
78.810424909
 11
-17.5005271112
 21
78.7732609242
  0
LINE
  5
48A
100
AcDbEntity
  8
DRAFT
100
AcDbLine
 62
7
  6
CONTINUOUS
 10
-17.3417413836
 20
78.7632546813
 11
-17.028853766
 21
78.5825972923
  0
LINE
  5
48B
100
AcDbEntity
  8
RACCORDO
100
AcDbLine
 62
7
  6
CONTINUOUS
 10
-19.7297912524
 20
84.309507152
 11
12.6061962966
 21
65.6391132063
  0
LINE
  5
48C
100
AcDbEntity
  8
RACCORDO
100
AcDbLine
 62
7
  6
CONTINUOUS
 10
-19.7919160387
 20
84.4468282103
 11
12.5440715315
 21
65.7764342524
  0
LINE
  5
48D
100
AcDbEntity
  8
RACCORDO
100
AcDbLine
 62
7
  6
CONTINUOUS
 10
14.4730850715
 20
66.7562069384
 11
-21.7232129147
 21
87.6554957495
  0
LINE
  5
48E
100
AcDbEntity
  8
RACCORDO
100
AcDbLine
 62
7
  6
CONTINUOUS
 10
14.6815148914
 20
67.1214554815
 11
-21.5124997588
 21
88.019425923
  0
LINE
  5
48F
100
AcDbEntity
  8
RACCORDO
100
AcDbLine
 62
7
  6
CONTINUOUS
 10
14.9730614787
 20
67.2897902689
 11
-21.2309564922
 21
88.1935365024
  0
LWPOLYLINE
  5
490
100
AcDbEntity
  8
RACCORDO
100
AcDbPolyline
 62
7
  6
CONTINUOUS
 90
21
 70
0
 10
12.6062766434
 20
65.6390666626
 10
12.6194145105
 20
65.6310297828
 10
12.6372953536
 20
65.6186899786
 10
12.6558611285
 20
65.6041927105
 10
12.6747466665
 20
65.587657848
 10
12.6936625404
 20
65.5692057908
 10
12.712338373
 20
65.5489918773
 10
12.7305604014
 20
65.5271572832
 10
12.7480909699
 20
65.5039160539
 10
12.7647028958
 20
65.4795193101
 10
12.7802650586
 20
65.4541241173
 10
12.7945901387
 20
65.4280276511
 10
12.807525762
 20
65.4015378727
 10
12.8190092918
 20
65.3748230191
 10
12.828935507
 20
65.3482022936
 10
12.8372333759
 20
65.3220199733
 10
12.8439007845
 20
65.2965001245
 10
12.8489442911
 20
65.2719155971
 10
12.8523933315
 20
65.2486016858
 10
12.8543243546
 20
65.2269311686
 10
12.8548808814
 20
65.2084968579
  0
LINE
  5
491
100
AcDbEntity
  8
RACCORDO
100
AcDbLine
 62
7
  6
CONTINUOUS
 10
4.5078057301
 20
-79.9189127738
 11
5.073491155
 21
-79.5922930991
  0
LINE
  5
492
100
AcDbEntity
  8
RACCORDO
100
AcDbLine
 62
7
  6
CONTINUOUS
 10
4.7500151026
 20
-80.2689699567
 11
5.2856231894
 21
-79.9597165602
  0
LINE
  5
493
100
AcDbEntity
  8
ASSI
100
AcDbLine
 62
7
  6
CONTINUOUS
 10
6.6944186671
 20
-81.3916442057
 11
6.7175144213
 21
-81.3783090067
  0
LINE
  5
494
100
AcDbEntity
  8
ASSI
100
AcDbLine
 62
7
  6
CONTINUOUS
 10
6.9650017947
 20
-81.2354128991
 11
7.0710678119
 21
-81.1741717101
  0
LINE
  5
495
100
AcDbEntity
  8
ASSI
100
AcDbLine
 62
7
  6
CONTINUOUS
 10
7.3185551853
 20
-81.0312756024
 11
7.4246212025
 21
-80.9700344134
  0
LINE
  5
496
100
AcDbEntity
  8
ASSI
100
AcDbLine
 62
7
  6
CONTINUOUS
 10
7.6721085759
 20
-80.8271383058
 11
7.7781745931
 21
-80.7658971168
  0
LINE
  5
497
100
AcDbEntity
  8
ASSI
100
AcDbLine
 62
7
  6
CONTINUOUS
 10
8.0256619665
 20
-80.6230010091
 11
8.1317279836
 21
-80.5617598201
  0
LINE
  5
498
100
AcDbEntity
  8
ASSI
100
AcDbLine
 62
7
  6
CONTINUOUS
 10
8.3792153571
 20
-80.4188637124
 11
8.4852813742
 21
-80.3576225234
  0
LINE
  5
499
100
AcDbEntity
  8
ASSI
100
AcDbLine
 62
7
  6
CONTINUOUS
 10
8.7327687477
 20
-80.2147264158
 11
8.8388347648
 21
-80.1534852268
  0
LINE
  5
49A
100
AcDbEntity
  8
ASSI
100
AcDbLine
 62
7
  6
CONTINUOUS
 10
9.0863221382
 20
-80.0105891191
 11
9.1923881554
 21
-79.9493479301
  0
LINE
  5
49B
100
AcDbEntity
  8
RACCORDO
100
AcDbLine
 62
7
  6
CONTINUOUS
 10
6.125437954
 20
-81.063121873
 11
6.1676677955
 21
-81.0404088901
  0
LINE
  5
49C
100
AcDbEntity
  8
ASSI
100
AcDbLine
 62
7
  6
CONTINUOUS
 10
12.8548813805
 20
-82.6949955036
 11
11.7141233197
 21
-83.4265108843
  0
LINE
  5
49D
100
AcDbEntity
  8
ASSI
100
AcDbLine
 62
7
  6
CONTINUOUS
 10
12.8548813805
 20
-83.1488873661
 11
12.0510716759
 21
-83.6210606423
  0
LINE
  5
49E
100
AcDbEntity
  8
ASSI
100
AcDbLine
 62
7
  6
CONTINUOUS
 10
12.4985307271
 20
-83.5317869397
 11
12.1982349799
 21
-83.7060308896
  0
LINE
  5
49F
100
AcDbEntity
  8
ASSI
100
AcDbLine
 62
7
  6
CONTINUOUS
 10
12.6483547588
 20
-83.3985319905
 11
12.1580599628
 21
-83.6828343382
  0
LINE
  5
4A0
100
AcDbEntity
  8
RACCORDO
100
AcDbLine
 62
7
  6
CONTINUOUS
 10
10.2267847659
 20
-82.6394901958
 11
9.6610993409
 21
-82.9661098704
  0
LINE
  5
4A1
100
AcDbEntity
  8
RACCORDO
100
AcDbLine
 62
7
  6
CONTINUOUS
 10
10.3767920139
 20
-82.6543525491
 11
9.811106589
 21
-82.9809722237
  0
LINE
  5
4A2
100
AcDbEntity
  8
ASSI
100
AcDbLine
 62
7
  6
CONTINUOUS
 10
11.5611958724
 20
-83.0726485691
 11
11.6672618896
 21
-83.0114073801
  0
LINE
  5
4A3
100
AcDbEntity
  8
ASSI
100
AcDbLine
 62
7
  6
CONTINUOUS
 10
11.914749263
 20
-82.8685112724
 11
12.0208152802
 21
-82.8072700834
  0
LINE
  5
4A4
100
AcDbEntity
  8
ASSI
100
AcDbLine
 62
7
  6
CONTINUOUS
 10
12.2683026536
 20
-82.6643739757
 11
12.3743686708
 21
-82.6031327867
  0
LINE
  5
4A5
100
AcDbEntity
  8
ASSI
100
AcDbLine
 62
7
  6
CONTINUOUS
 10
12.6218560442
 20
-82.4602366791
 11
12.7279220614
 21
-82.3989954901
  0
LINE
  5
4A6
100
AcDbEntity
  8
ASSI
100
AcDbLine
 62
7
  6
CONTINUOUS
 10
12.8339880785
 20
-82.4602248426
 11
12.515790027
 21
-82.6439484096
  0
LINE
  5
4A7
100
AcDbEntity
  8
ASSI
100
AcDbLine
 62
7
  6
CONTINUOUS
 10
12.4804346879
 20
-82.6643621393
 11
12.1622366364
 21
-82.8480857062
  0
LINE
  5
4A8
100
AcDbEntity
  8
ASSI
100
AcDbLine
 62
7
  6
CONTINUOUS
 10
12.1268812973
 20
-82.8684994359
 11
11.8086832458
 21
-83.0522230029
  0
LINE
  5
4A9
100
AcDbEntity
  8
ASSI
100
AcDbLine
 62
7
  6
CONTINUOUS
 10
11.7733279068
 20
-83.0726367326
 11
11.4551298552
 21
-83.2563602996
  0
LINE
  5
4AA
100
AcDbEntity
  8
ASSI
100
AcDbLine
 62
7
  6
CONTINUOUS
 10
9.1319435676
 20
-79.8940224165
 11
6.527367197
 21
-81.2480948164
  0
LINE
  5
4AB
100
AcDbEntity
  8
0
100
AcDbLine
 62
7
  6
CONTINUOUS
 10
-16.9705627485
 20
75.793556798
 11
-16.7584307141
 21
75.793556798
  0
LINE
  5
4AC
100
AcDbEntity
  8
0
100
AcDbLine
 62
7
  6
CONTINUOUS
 10
-16.6170093579
 20
75.9976940947
 11
-16.4048773235
 21
75.9976940947
  0
LINE
  5
4AD
100
AcDbEntity
  8
0
100
AcDbLine
 62
7
  6
CONTINUOUS
 10
-16.2634559673
 20
76.2018313914
 11
-16.0513239329
 21
76.2018313914
  0
LINE
  5
4AE
100
AcDbEntity
  8
DRAFT
100
AcDbLine
 62
7
  6
CONTINUOUS
 10
33.07491969
 20
76.3519634075
 11
33.7229857155
 21
76.3519634075
  0
LINE
  5
4AF
100
AcDbEntity
  8
0
100
AcDbLine
 62
7
  6
CONTINUOUS
 10
-15.9099025767
 20
76.405968688
 11
-15.6977705423
 21
76.405968688
  0
LINE
  5
4B0
100
AcDbEntity
  8
0
100
AcDbLine
 62
7
  6
CONTINUOUS
 10
-15.5563491861
 20
76.6101059847
 11
-15.3442171517
 21
76.6101059847
  0
LINE
  5
4B1
100
AcDbEntity
  8
0
100
AcDbLine
 62
7
  6
CONTINUOUS
 10
-15.2027957955
 20
76.8142432814
 11
-14.9906637612
 21
76.8142432814
  0
LINE
  5
4B2
100
AcDbEntity
  8
0
100
AcDbLine
 62
7
  6
CONTINUOUS
 10
-14.8492424049
 20
77.018380578
 11
-14.6371103706
 21
77.018380578
  0
LINE
  5
4B3
100
AcDbEntity
  8
0
100
AcDbLine
 62
7
  6
CONTINUOUS
 10
-16.2634559673
 20
80.6924179137
 11
-16.0513239329
 21
80.6924179137
  0
LINE
  5
4B4
100
AcDbEntity
  8
0
100
AcDbLine
 62
7
  6
CONTINUOUS
 10
-15.9099025767
 20
80.8965552104
 11
-15.6977705423
 21
80.8965552104
  0
LINE
  5
4B5
100
AcDbEntity
  8
0
100
AcDbLine
 62
7
  6
CONTINUOUS
 10
-15.5563491861
 20
81.1006925071
 11
-15.3442171517
 21
81.1006925071
  0
LINE
  5
4B6
100
AcDbEntity
  8
0
100
AcDbLine
 62
7
  6
CONTINUOUS
 10
-15.2027957955
 20
81.3048298037
 11
-14.9906637612
 21
81.3048298037
  0
LINE
  5
4B7
100
AcDbEntity
  8
SMUSSO
100
AcDbLine
 62
7
  6
CONTINUOUS
 10
26.3574052687
 20
73.2902551065
 11
-32.6153002822
 21
107.34035619
  0
LINE
  5
4B8
100
AcDbEntity
  8
SMUSSO
100
AcDbLine
 62
7
  6
CONTINUOUS
 10
31.307152737
 20
76.9642529872
 11
-34.7366206258
 21
115.0971000041
  0
LINE
  5
4B9
100
AcDbEntity
  8
RACCORDO
100
AcDbLine
 62
7
  6
CONTINUOUS
 10
15.1764142512
 20
-91.4664164555
 11
15.4679608385
 21
-91.3096321357
  0
LINE
  5
4BA
100
AcDbEntity
  8
RACCORDO
100
AcDbLine
 62
7
  6
CONTINUOUS
 10
15.0237694129
 20
-91.7910708706
 11
15.3168487806
 21
-91.6334622711
  0
LINE
  5
4BB
100
AcDbEntity
  8
0
100
AcDbLine
 62
7
  6
CONTINUOUS
 10
-15.790077944
 20
81.7970575919
 11
-15.4822080971
 21
81.8443625249
  0
LINE
  5
4BC
100
AcDbEntity
  8
RACCORDO
100
AcDbLine
 62
7
  6
CONTINUOUS
 10
-19.7674414353
 20
84.3270698769
 11
-19.7673151352
 21
84.3270650219
  0
LINE
  5
4BD
100
AcDbEntity
  8
RACCORDO
100
AcDbLine
 62
7
  6
CONTINUOUS
 10
-19.4845536334
 20
84.1679100243
 11
-19.8516763404
 21
84.1821751791
  0
LWPOLYLINE
  5
4BE
100
AcDbEntity
  8
RACCORDO
100
AcDbPolyline
 62
7
  6
CONTINUOUS
 90
9
 70
0
 10
-19.7673314585
 20
84.3270587288
 10
-19.768570535
 20
84.327125135
 10
-19.7702001065
 20
84.3272846077
 10
-19.7683433316
 20
84.326863808
 10
-19.7633416437
 20
84.3253614542
 10
-19.7553417826
 20
84.3223371021
 10
-19.7448042323
 20
84.3175482587
 10
-19.7327276097
 20
84.3111797922
 10
-19.7298319387
 20
84.3095304537
  0
LINE
  5
4BF
100
AcDbEntity
  8
SMUSSO
100
AcDbLine
 62
7
  6
CONTINUOUS
 10
32.7213662994
 20
77.3725670355
 11
-33.675960454
 21
115.709511894
  0
LINE
  5
4C0
100
AcDbEntity
  8
DRAFT
100
AcDbLine
 62
7
  6
CONTINUOUS
 10
32.6918459204
 20
78.1379499191
 11
-32.5741099819
 21
115.8216948827
  0
LINE
  5
4C1
100
AcDbEntity
  8
DRAFT
100
AcDbLine
 62
7
  6
CONTINUOUS
 10
35.0901740164
 20
78.7403303236
 11
-30.8828886693
 21
116.8322709718
  0
LINE
  5
4C2
100
AcDbEntity
  8
SMUSSO
100
AcDbLine
 62
7
  6
CONTINUOUS
 10
31.7381496036
 20
-116.9551873305
 11
31.7381171433
 21
-116.9552061361
  0
LINE
  5
4C3
100
AcDbEntity
  8
SMUSSO
100
AcDbLine
 62
7
  6
CONTINUOUS
 10
32.0142595182
 20
-116.4575950399
 11
33.07491969
 21
-115.8451831499
  0
LINE
  5
4C4
100
AcDbEntity
  8
RACCORDO
100
AcDbLine
 62
7
  6
CONTINUOUS
 10
31.7381486857
 20
-116.9551879252
 11
32.867837069
 21
-116.3029200111
  0
LINE
  5
4C5
100
AcDbEntity
  8
DRAFT
100
AcDbLine
 62
7
  6
CONTINUOUS
 10
33.7229857155
 20
-114.9470224437
 11
35.443727407
 21
-113.9875771507
  0
LINE
  5
4C6
100
AcDbEntity
  8
DRAFT
100
AcDbLine
 62
7
  6
CONTINUOUS
 10
33.4119531207
 20
-115.6196174819
 11
35.1237902972
 21
-114.6794278304
  0
ARC
  5
4C7
100
AcDbEntity
  8
0
100
AcDbCircle
 62
7
  6
CONTINUOUS
 10
-16.0069758258
 20
48.8447123342
 40
0.3000133054
100
AcDbArc
 50
0.0016746654
 51
59.9973494253
  0
ARC
  5
4C8
100
AcDbEntity
  8
SUPERFICI
100
AcDbCircle
 62
7
  6
CONTINUOUS
 10
-16.0069758258
 20
-9.1246773181
 40
0.3000133054
100
AcDbArc
 50
0.0016746654
 51
59.9973494253
  0
ARC
  5
4C9
100
AcDbEntity
  8
0
100
AcDbCircle
 62
7
  6
CONTINUOUS
 10
-16.0069758258
 20
-67.0940669704
 40
0.3000133054
100
AcDbArc
 50
0.0016746654
 51
59.9973494253
  0
ARC
  5
4CA
100
AcDbEntity
  8
RACCORDO
100
AcDbCircle
 62
7
  6
CONTINUOUS
 10
-18.155725734
 20
-68.5105294791
 40
0.1790283039
100
AcDbArc
 50
228.1625124162
 51
240.1188149396
  0
ARC
  5
4CB
100
AcDbEntity
  8
RACCORDO
100
AcDbCircle
 62
7
  6
CONTINUOUS
 10
-18.155725734
 20
-10.5411398268
 40
0.1790283039
100
AcDbArc
 50
228.1625124162
 51
240.1188149396
  0
ARC
  5
4CC
100
AcDbEntity
  8
RACCORDO
100
AcDbCircle
 62
7
  6
CONTINUOUS
 10
-18.155725734
 20
47.4282498255
 40
0.1790283039
100
AcDbArc
 50
228.1625124162
 51
240.1188149396
  0
ARC
  5
4CD
100
AcDbEntity
  8
0
100
AcDbCircle
 62
7
  6
CONTINUOUS
 10
-14.6000878118
 20
-57.2006745139
 40
0.1427973923
100
AcDbArc
 50
334.4567691741
 51
339.454083564
  0
ARC
  5
4CE
100
AcDbEntity
  8
0
100
AcDbCircle
 62
7
  6
CONTINUOUS
 10
-14.5878223677
 20
-57.2065408463
 40
0.1292012548
100
AcDbArc
 50
329.1077520581
 51
334.4586303454
  0
ARC
  5
4CF
100
AcDbEntity
  8
0
100
AcDbCircle
 62
7
  6
CONTINUOUS
 10
-14.5593957824
 20
77.0805313683
 40
0.0928420983
100
AcDbArc
 50
304.9884496952
 51
311.4319829768
  0
SPLINE
  5
4D0
100
AcDbEntity
  8
RACCORDO
100
AcDbSpline
 62
7
  6
CONTINUOUS
 70
0
 71
3
 72
9
 73
5
 74
3
 42
0.0000001
 43
0.0000001
 44
0.0000000001
 12
-0.1258022839
 22
-0.0751721723
 32
0.0
 13
-0.1037487076
 23
-0.1035049555
 33
0.0
 40
0.0
 40
0.0
 40
0.0
 40
0.0
 40
0.2375582814
 40
1.0
 40
1.0
 40
1.0
 40
1.0
 10
-18.1301661553
 20
-68.5749440358
 30
0.0
 10
-18.1401279467
 20
-68.5808966265
 30
0.0
 10
-18.1811563075
 20
-68.6074624258
 30
0.0
 10
-18.2185507315
 20
-68.6394523326
 30
0.0
 10
-18.2449181791
 20
-68.6657578313
 30
0.0
 11
-18.1301661553
 21
-68.5749440358
 31
0.0
 11
-18.1594161231
 21
-68.5938245815
 31
0.0
 11
-18.2449181791
 21
-68.6657578313
 31
0.0
  0
SPLINE
  5
4D1
100
AcDbEntity
  8
RACCORDO
100
AcDbSpline
 62
7
  6
CONTINUOUS
 70
0
 71
3
 72
9
 73
5
 74
3
 42
0.0000001
 43
0.0000001
 44
0.0000000001
 12
-0.1440896839
 22
-0.0602425744
 32
0.0
 13
-0.1252946641
 23
-0.0932322472
 33
0.0
 40
0.0
 40
0.0
 40
0.0
 40
0.0
 40
0.24092834
 40
1.0
 40
1.0
 40
1.0
 40
1.0
 10
-18.1400814534
 20
-68.5659325414
 30
0.0
 10
-18.1516532162
 20
-68.5707705892
 30
0.0
 10
-18.1989888968
 20
-68.592496415
 30
0.0
 10
-18.2434374092
 20
-68.6203259511
 30
0.0
 10
-18.2751399521
 20
-68.6439159367
 30
0.0
 11
-18.1400814534
 21
-68.5659325414
 31
0.0
 11
-18.1742946402
 21
-68.5815936223
 31
0.0
 11
-18.2751399521
 21
-68.6439159367
 31
0.0
  0
SPLINE
  5
4D2
100
AcDbEntity
  8
RACCORDO
100
AcDbSpline
 62
7
  6
CONTINUOUS
 70
0
 71
3
 72
9
 73
5
 74
3
 42
0.0000001
 43
0.0000001
 44
0.0000000001
 12
-0.1242085342
 22
-0.0946731593
 32
0.0
 13
-0.1433862242
 23
-0.0618963471
 33
0.0
 40
0.0
 40
0.0
 40
0.0
 40
0.0
 40
0.2409316862
 40
1.0
 40
1.0
 40
1.0
 40
1.0
 10
-18.3394202881
 20
-68.2206681262
 30
0.0
 10
-18.3493955453
 20
-68.2282713808
 30
0.0
 10
-18.3918760958
 20
-68.2584053296
 30
0.0
 10
-18.4382000791
 20
-68.2829864487
 30
0.0
 10
-18.4744800589
 20
-68.298647634
 30
0.0
 11
-18.3394202881
 21
-68.2206681262
 31
0.0
 11
-18.3700884705
 21
-68.2424694959
 31
0.0
 11
-18.4744800589
 21
-68.298647634
 31
0.0
  0
SPLINE
  5
4D3
100
AcDbEntity
  8
RACCORDO
100
AcDbSpline
 62
7
  6
CONTINUOUS
 70
0
 71
3
 72
9
 73
5
 74
3
 42
0.0000001
 43
0.0000001
 44
0.0000000001
 12
-0.1279979636
 22
-0.0713676488
 32
0.0
 13
-0.1415101585
 23
-0.0381011157
 33
0.0
 40
0.0
 40
0.0
 40
0.0
 40
0.0
 40
0.237558507
 40
1.0
 40
1.0
 40
1.0
 40
1.0
 10
-18.3422658809
 20
-68.2075765352
 30
0.0
 10
-18.3524015493
 20
-68.2132278659
 30
0.0
 10
-18.3959211058
 20
-68.235478456
 30
0.0
 10
-18.4423215288
 20
-68.2518697283
 30
0.0
 10
-18.4782859344
 20
-68.2615530188
 30
0.0
 11
-18.3422658809
 21
-68.2075765352
 31
0.0
 11
-18.37324101
 21
-68.2234688348
 31
0.0
 11
-18.4782859344
 21
-68.2615530188
 31
0.0
  0
SPLINE
  5
4D4
100
AcDbEntity
  8
RACCORDO
100
AcDbSpline
 62
7
  6
CONTINUOUS
 70
0
 71
3
 72
15
 73
11
 74
9
 42
0.0000001
 43
0.0000001
 44
0.0000000001
 12
0.0000238213
 22
-0.597984879
 32
0.0
 13
-0.5178420862
 23
0.2990409502
 33
0.0
 40
0.0
 40
0.0
 40
0.0
 40
0.0
 40
0.1446786948
 40
0.2748799313
 40
0.3916072275
 40
0.4999943582
 40
0.6083856293
 40
0.725122466
 40
0.8553266085
 40
1.0
 40
1.0
 40
1.0
 40
1.0
 10
12.9427493461
 20
-88.1900546507
 30
0.0
 10
12.942750495
 20
-88.218893208
 30
0.0
 10
12.9388048544
 20
-88.2738460152
 30
0.0
 10
12.9181548301
 20
-88.3497703139
 30
0.0
 10
12.8821861526
 20
-88.4119908189
 30
0.0
 10
12.8307258247
 20
-88.4563599319
 30
0.0
 10
12.766562377
 20
-88.4787238055
 30
0.0
 10
12.6946914409
 20
-88.4787435352
 30
0.0
 10
12.6186130543
 20
-88.4586718193
 30
0.0
 10
12.5690441885
 20
-88.4346228231
 30
0.0
 10
12.5440715315
 20
-88.4202017336
 30
0.0
 11
12.9427493461
 21
-88.1900546507
 31
0.0
 11
12.9356746293
 21
-88.2762805741
 31
0.0
 11
12.9141147501
 21
-88.3510943261
 31
0.0
 11
12.8781297045
 21
-88.4109046779
 31
0.0
 11
12.8286625866
 21
-88.4527835673
 31
0.0
 11
12.7676524068
 21
-88.474667718
 31
0.0
 11
12.697856621
 21
-88.475911273
 31
0.0
 11
12.6222835979
 21
-88.4571785566
 31
0.0
 11
12.5440715315
 21
-88.4202017336
 31
0.0
  0
SPLINE
  5
4D5
100
AcDbEntity
  8
RACCORDO
100
AcDbSpline
 62
7
  6
CONTINUOUS
 70
0
 71
3
 72
9
 73
5
 74
3
 42
0.0000001
 43
0.0000001
 44
0.0000000001
 12
0.1563813851
 22
-0.090284346
 32
0.0
 13
0.1281480412
 23
-0.1272182387
 33
0.0
 40
0.0
 40
0.0
 40
0.0
 40
0.0
 40
0.2366293495
 40
1.0
 40
1.0
 40
1.0
 40
1.0
 10
12.5440715315
 20
-50.1623450522
 30
0.0
 10
12.55640634
 20
-50.1694663608
 30
0.0
 10
12.6074338806
 20
-50.2014496881
 30
0.0
 10
12.6539699874
 20
-50.2404096897
 30
0.0
 10
12.6865781386
 20
-50.2727812463
 30
0.0
 11
12.5440715315
 21
-50.1623450522
 31
0.0
 11
12.5803040766
 21
-50.1849933968
 31
0.0
 11
12.6865781386
 21
-50.2727812463
 31
0.0
  0
SPLINE
  5
4D6
100
AcDbEntity
  8
RACCORDO
100
AcDbSpline
 62
7
  6
CONTINUOUS
 70
0
 71
3
 72
10
 73
6
 74
4
 42
0.0000001
 43
0.0000001
 44
0.0000000001
 12
0.4592582815
 22
-0.4559260458
 32
0.0
 13
0.0000021875
 23
-0.6471373334
 33
0.0
 40
0.0
 40
0.0
 40
0.0
 40
0.0
 40
0.5173571193
 40
0.7703670028
 40
1.0
 40
1.0
 40
1.0
 40
1.0
 10
12.6865781386
 20
-50.2727812463
 30
0.0
 10
12.7657783191
 20
-50.3514067748
 30
0.0
 10
12.8612816828
 20
-50.4936967438
 30
0.0
 10
12.9297979117
 20
-50.6989838604
 30
0.0
 10
12.9427491787
 20
-50.8033405871
 30
0.0
 10
12.9427493461
 20
-50.8528752822
 30
0.0
 11
12.6865781386
 21
-50.2727812463
 31
0.0
 11
12.8747856976
 21
-50.5496741782
 31
0.0
 11
12.9258712085
 21
-50.7052327996
 31
0.0
 11
12.9427493461
 21
-50.8528752822
 31
0.0
  0
SPLINE
  5
4D7
100
AcDbEntity
  8
RACCORDO
100
AcDbSpline
 62
7
  6
CONTINUOUS
 70
0
 71
3
 72
11
 73
7
 74
5
 42
0.0000001
 43
0.0000001
 44
0.0000000001
 12
0.3303340714
 22
0.1779756193
 32
0.0
 13
0.0024728007
 23
0.3752196757
 33
0.0
 40
0.0
 40
0.0
 40
0.0
 40
0.0
 40
0.2174002984
 40
0.4501302195
 40
0.7094857245
 40
1.0
 40
1.0
 40
1.0
 40
1.0
 10
15.0239182876
 20
-91.7909872701
 30
0.0
 10
15.0478565295
 20
-91.7780899525
 30
0.0
 10
15.0929104599
 20
-91.7421631001
 30
0.0
 10
15.141167899
 20
-91.6661707094
 30
0.0
 10
15.1701679425
 20
-91.5717340724
 30
0.0
 10
15.1761747899
 20
-91.5027520129
 30
0.0
 10
15.1764142512
 20
-91.4664164555
 30
0.0
 11
15.0239182876
 21
-91.7909872701
 31
0.0
 11
15.0880084543
 21
-91.7405207211
 31
0.0
 11
15.1359490057
 21
-91.6675298767
 31
0.0
 11
15.1658166193
 21
-91.5749091321
 31
0.0
 11
15.1764142512
 21
-91.4664164555
 31
0.0
  0
SPLINE
  5
4D8
100
AcDbEntity
  8
RACCORDO
100
AcDbSpline
 62
7
  6
CONTINUOUS
 70
0
 71
3
 72
15
 73
11
 74
9
 42
0.0000001
 43
0.0000001
 44
0.0000000001
 12
-0.0000387078
 22
0.5979848853
 32
0.0
 13
0.5178497191
 23
-0.2990277463
 33
0.0
 40
0.0
 40
0.0
 40
0.0
 40
0.0
 40
0.1446658674
 40
0.2748627245
 40
0.391594032
 40
0.4999831839
 40
0.6083724348
 40
0.7251052566
 40
0.8553137174
 40
1.0
 40
1.0
 40
1.0
 40
1.0
 10
-20.1905938533
 20
-31.7220981772
 30
0.0
 10
-20.1905957199
 20
-31.6932621765
 30
0.0
 10
-20.1866367056
 20
-31.6383128179
 30
0.0
 10
-20.1659769087
 20
-31.5623960866
 30
0.0
 10
-20.1300203097
 20
-31.500169463
 30
0.0
 10
-20.0785666219
 20
-31.4557907148
 30
0.0
 10
-20.0144081426
 20
-31.4334164009
 30
0.0
 10
-19.9425364979
 20
-31.4333830414
 30
0.0
 10
-19.8664564167
 20
-31.4534669834
 30
0.0
 10
-19.8168912889
 20
-31.4775293566
 30
0.0
 10
-19.7919160387
 20
-31.4919510942
 30
0.0
 11
-20.1905938533
 21
-31.7220981772
 31
0.0
 11
-20.1835079576
 21
-31.6358808672
 31
0.0
 11
-20.1619413313
 21
-31.5610717843
 31
0.0
 11
-20.1259630443
 21
-31.5012545667
 31
0.0
 11
-20.0765021854
 21
-31.4593664138
 31
0.0
 11
-20.0154968774
 21
-31.43747226
 31
0.0
 11
-19.945703659
 21
-31.4362193668
 31
0.0
 11
-19.8701299949
 21
-31.4549602326
 31
0.0
 11
-19.7919160387
 21
-31.4919510942
 31
0.0
  0
SPLINE
  5
4D9
100
AcDbEntity
  8
RACCORDO
100
AcDbSpline
 62
7
  6
CONTINUOUS
 70
0
 71
3
 72
11
 73
7
 74
5
 42
0.0000001
 43
0.0000001
 44
0.0000000001
 12
-0.1363190161
 22
0.0787088914
 32
0.0
 13
-0.0000316866
 23
0.1574101736
 33
0.0
 40
0.0
 40
0.0
 40
0.0
 40
0.0
 40
0.2895817376
 40
0.5491318165
 40
0.7822802582
 40
1.0
 40
1.0
 40
1.0
 40
1.0
 10
12.9427493461
 20
-50.8528752822
 30
0.0
 10
12.929590847
 20
-50.8452777297
 30
0.0
 10
12.9057118045
 20
-50.8288182758
 30
0.0
 10
12.8771587299
 20
-50.7988256964
 30
0.0
 10
12.8590954461
 20
-50.7656333476
 30
0.0
 10
12.8548861596
 20
-50.7418166715
 30
0.0
 10
12.85488386
 20
-50.7303929041
 30
0.0
 11
12.9427493461
 21
-50.8528752822
 31
0.0
 11
12.9054725933
 21
-50.8266404992
 31
0.0
 11
12.8777091504
 21
-50.7966673516
 31
0.0
 11
12.8606430539
 21
-50.7641768336
 31
0.0
 11
12.85488386
 21
-50.7303929041
 31
0.0
  0
SPLINE
  5
4DA
100
AcDbEntity
  8
RACCORDO
100
AcDbSpline
 62
7
  6
CONTINUOUS
 70
0
 71
3
 72
11
 73
7
 74
5
 42
0.0000001
 43
0.0000001
 44
0.0000000001
 12
-0.0000000517
 22
-0.1573888098
 32
0.0
 13
0.1362846782
 23
-0.0787256244
 33
0.0
 40
0.0
 40
0.0
 40
0.0
 40
0.0
 40
0.2895872683
 40
0.5491386409
 40
0.7822847649
 40
1.0
 40
1.0
 40
1.0
 40
1.0
 10
12.5440715315
 20
-50.1623450522
 30
0.0
 10
12.5440715265
 20
-50.1775376507
 30
0.0
 10
12.5463850486
 20
-50.2064437275
 30
0.0
 10
12.558079665
 20
-50.2461630137
 30
0.0
 10
12.577789227
 20
-50.2783986815
 30
0.0
 10
12.5963071178
 20
-50.2939506921
 30
0.0
 10
12.6061975347
 20
-50.2996639481
 30
0.0
 11
12.5440715315
 21
-50.1623450522
 31
0.0
 11
12.548151167
 21
-50.2077398978
 31
0.0
 11
12.5602238086
 21
-50.2467656992
 31
0.0
 11
12.5798242521
 21
-50.2777869116
 31
0.0
 11
12.6061975347
 21
-50.2996639481
 31
0.0
  0
SPLINE
  5
4DB
100
AcDbEntity
  8
RACCORDO
100
AcDbSpline
 62
7
  6
CONTINUOUS
 70
0
 71
3
 72
11
 73
7
 74
5
 42
0.0000001
 43
0.0000001
 44
0.0000000001
 12
0.0
 22
-0.157342478
 32
0.0
 13
0.1362077173
 23
-0.0787661927
 33
0.0
 40
0.0
 40
0.0
 40
0.0
 40
0.0
 40
0.2895781872
 40
0.5491322113
 40
0.7822857584
 40
1.0
 40
1.0
 40
1.0
 40
1.0
 10
-19.7919160387
 20
-31.4919510942
 30
0.0
 10
-19.7919160387
 20
-31.5071387441
 30
0.0
 10
-19.7896039294
 20
-31.5360358868
 30
0.0
 10
-19.7779172559
 20
-31.5757445164
 30
0.0
 10
-19.758221328
 20
-31.6079753876
 30
0.0
 10
-19.7397153913
 20
-31.6235303685
 30
0.0
 10
-19.7298306047
 20
-31.6292465424
 30
0.0
 11
-19.7919160387
 21
-31.4919510942
 31
0.0
 11
-19.7878391879
 21
-31.5373312844
 31
0.0
 11
-19.7757747339
 21
-31.5763474673
 31
0.0
 11
-19.7561872024
 21
-31.6073654406
 31
0.0
 11
-19.7298306047
 21
-31.6292465424
 31
0.0
  0
SPLINE
  5
4DC
100
AcDbEntity
  8
RACCORDO
100
AcDbSpline
 62
7
  6
CONTINUOUS
 70
0
 71
3
 72
10
 73
6
 74
4
 42
0.0000001
 43
0.0000001
 44
0.0000000001
 12
0.3008557635
 22
-0.1737074046
 32
0.0
 13
0.335457116
 23
0.0903159797
 33
0.0
 40
0.0
 40
0.0
 40
0.0
 40
0.0
 40
0.2300845876
 40
0.483607702
 40
1.0
 40
1.0
 40
1.0
 40
1.0
 10
-20.1905938533
 20
-31.7220981772
 30
0.0
 10
-20.1675197619
 20
-31.7354206427
 30
0.0
 10
-20.1150579096
 20
-31.7567620507
 30
0.0
 10
-20.0009676012
 20
-31.7783485627
 30
0.0
 10
-19.9094188308
 20
-31.7721491852
 30
0.0
 10
-19.8516763404
 20
-31.7566030265
 30
0.0
 11
-20.1905938533
 21
-31.7220981772
 31
0.0
 11
-20.1169864037
 21
-31.7532600032
 31
0.0
 11
-20.0305562735
 21
-31.7701998539
 31
0.0
 11
-19.8516763404
 21
-31.7566030265
 31
0.0
  0
SPLINE
  5
4DD
100
AcDbEntity
  8
RACCORDO
100
AcDbSpline
 62
7
  6
CONTINUOUS
 70
0
 71
3
 72
10
 73
6
 74
4
 42
0.0000001
 43
0.0000001
 44
0.0000000001
 12
0.3008547198
 22
-0.1737097446
 32
0.0
 13
0.3354567303
 23
0.0903184363
 33
0.0
 40
0.0
 40
0.0
 40
0.0
 40
0.0
 40
0.2300849491
 40
0.4836079614
 40
1.0
 40
1.0
 40
1.0
 40
1.0
 10
-20.1905938533
 20
-69.0592775456
 30
0.0
 10
-20.1675198057
 20
-69.0726002115
 30
0.0
 10
-20.1150579837
 20
-69.0939419431
 30
0.0
 10
-20.000967612
 20
-69.1155286853
 30
0.0
 10
-19.9094187354
 20
-69.1093289687
 30
0.0
 10
-19.8516763404
 20
-69.0937823949
 30
0.0
 11
-20.1905938533
 21
-69.0592775456
 31
0.0
 11
-20.1169864029
 21
-69.0904398491
 31
0.0
 11
-20.0305562723
 21
-69.1073798638
 31
0.0
 11
-19.8516763404
 21
-69.0937823949
 31
0.0
  0
SPLINE
  5
4DE
100
AcDbEntity
  8
RACCORDO
100
AcDbSpline
 62
7
  6
CONTINUOUS
 70
0
 71
3
 72
11
 73
7
 74
5
 42
0.0000001
 43
0.0000001
 44
0.0000000001
 12
0.0000141053
 22
-0.1574089984
 32
0.0
 13
0.1363179965
 23
-0.078708302
 33
0.0
 40
0.0
 40
0.0
 40
0.0
 40
0.0
 40
0.2177586874
 40
0.4509006419
 40
0.7104563331
 40
1.0
 40
1.0
 40
1.0
 40
1.0
 10
-22.091583906
 20
-70.117274767
 30
0.0
 10
-22.0915828821
 20
-70.1287004927
 30
0.0
 10
-22.0873876895
 20
-70.1525213844
 30
0.0
 10
-22.0693175123
 20
-70.1857148017
 30
0.0
 10
-22.040761105
 20
-70.2156992995
 30
0.0
 10
-22.0168858837
 20
-70.2321606307
 30
0.0
 10
-22.0037292129
 20
-70.2397571275
 30
0.0
 11
-22.091583906
 21
-70.117274767
 31
0.0
 11
-22.085834448
 21
-70.1510663133
 31
0.0
 11
-22.0687679352
 21
-70.1835551489
 31
0.0
 11
-22.0410001004
 21
-70.2135250154
 31
0.0
 11
-22.0037292129
 21
-70.2397571275
 31
0.0
  0
SPLINE
  5
4DF
100
AcDbEntity
  8
RACCORDO
100
AcDbSpline
 62
7
  6
CONTINUOUS
 70
0
 71
3
 72
10
 73
6
 74
4
 42
0.0000001
 43
0.0000001
 44
0.0000000001
 12
0.0000001141
 22
0.3473993299
 32
0.0
 13
0.2459370819
 23
0.2453594223
 33
0.0
 40
0.0
 40
0.0
 40
0.0
 40
0.0
 40
0.2300791698
 40
0.4836010627
 40
1.0
 40
1.0
 40
1.0
 40
1.0
 10
-19.7919160387
 20
-69.7498077757
 30
0.0
 10
-19.7919160299
 20
-69.7231646592
 30
0.0
 10
-19.7841661805
 20
-69.6670621288
 30
0.0
 10
-19.7458141257
 20
-69.5574653759
 30
0.0
 10
-19.6946713157
 20
-69.4812819582
 30
0.0
 10
-19.6523374331
 20
-69.4390475099
 30
0.0
 11
-19.7919160387
 21
-69.7498077757
 31
0.0
 11
-19.7820979028
 21
-69.6704837245
 31
0.0
 11
-19.7535523692
 21
-69.5871646692
 31
0.0
 11
-19.6523374331
 21
-69.4390475099
 31
0.0
  0
SPLINE
  5
4E0
100
AcDbEntity
  8
RACCORDO
100
AcDbSpline
 62
7
  6
CONTINUOUS
 70
0
 71
3
 72
10
 73
6
 74
4
 42
0.0000001
 43
0.0000001
 44
0.0000000001
 12
-0.0
 22
0.3473993418
 32
0.0
 13
0.2459371687
 23
0.2453593523
 33
0.0
 40
0.0
 40
0.0
 40
0.0
 40
0.0
 40
0.2300791865
 40
0.4836010752
 40
1.0
 40
1.0
 40
1.0
 40
1.0
 10
12.5440715315
 20
-88.4202017336
 30
0.0
 10
12.5440715315
 20
-88.3935586143
 30
0.0
 10
12.5518213677
 20
-88.3374560777
 30
0.0
 10
12.590173415
 20
-88.2278593172
 30
0.0
 10
12.6413162406
 20
-88.1516759031
 30
0.0
 10
12.6836501371
 20
-88.1094414679
 30
0.0
 11
12.5440715315
 21
-88.4202017336
 31
0.0
 11
12.5538896489
 21
-88.3408776715
 31
0.0
 11
12.5824351763
 21
-88.2575586124
 31
0.0
 11
12.6836501371
 21
-88.1094414679
 31
0.0
  0
SPLINE
  5
4E1
100
AcDbEntity
  8
RACCORDO
100
AcDbSpline
 62
7
  6
CONTINUOUS
 70
0
 71
3
 72
11
 73
7
 74
5
 42
0.0000001
 43
0.0000001
 44
0.0000000001
 12
-0.1363070506
 22
0.0787020424
 32
0.0
 13
-0.0000536147
 23
0.1573963806
 33
0.0
 40
0.0
 40
0.0
 40
0.0
 40
0.0
 40
0.2895790523
 40
0.5491299326
 40
0.7822805821
 40
1.0
 40
1.0
 40
1.0
 40
1.0
 10
12.9427493461
 20
-88.1900546507
 30
0.0
 10
12.929592124
 20
-88.1824578297
 30
0.0
 10
12.9057151756
 20
-88.166000064
 30
0.0
 10
12.8771636668
 20
-88.1360111141
 30
0.0
 10
12.859099589
 20
-88.1028229945
 30
0.0
 10
12.8548877548
 20
-88.0790089591
 30
0.0
 10
12.8548838638
 20
-88.0675862096
 30
0.0
 11
12.9427493461
 21
-88.1900546507
 31
0.0
 11
12.9054759583
 21
-88.1638227576
 31
0.0
 11
12.8777137766
 21
-88.1338531476
 31
0.0
 11
12.8606465919
 21
-88.1013664397
 31
0.0
 11
12.8548838638
 21
-88.0675862096
 31
0.0
  0
SPLINE
  5
4E2
100
AcDbEntity
  8
RACCORDO
100
AcDbSpline
 62
7
  6
CONTINUOUS
 70
0
 71
3
 72
11
 73
7
 74
5
 42
0.0000001
 43
0.0000001
 44
0.0000000001
 12
-0.7171285941
 22
0.4140697132
 32
0.0
 13
0.0000544718
 23
0.8280864356
 33
0.0
 40
0.0
 40
0.0
 40
0.0
 40
0.0
 40
0.2369489663
 40
0.5000027919
 40
0.7630483128
 40
1.0
 40
1.0
 40
1.0
 40
1.0
 10
-19.7919160387
 20
-69.7498077757
 30
0.0
 10
-19.8485569984
 20
-69.7171033122
 30
0.0
 10
-19.9571019974
 20
-69.6285339111
 30
0.0
 10
-20.0838050311
 20
-69.457976322
 30
0.0
 10
-20.1681338135
 20
-69.2629655014
 30
0.0
 10
-20.1905981557
 20
-69.1246830383
 30
0.0
 10
-20.1905938533
 20
-69.0592775456
 30
0.0
 11
-19.7919160387
 21
-69.7498077757
 31
0.0
 11
-19.9457036635
 21
-69.6279497079
 31
0.0
 11
-20.076502178
 21
-69.4537595067
 31
0.0
 11
-20.1619413077
 21
-69.253390755
 31
0.0
 11
-20.1905938533
 21
-69.0592775456
 31
0.0
  0
SPLINE
  5
4E3
100
AcDbEntity
  8
RACCORDO
100
AcDbSpline
 62
7
  6
CONTINUOUS
 70
0
 71
3
 72
11
 73
7
 74
5
 42
0.0000001
 43
0.0000001
 44
0.0000000001
 12
0.000014108
 22
-0.157408994
 32
0.0
 13
0.1363179944
 23
-0.0787082969
 33
0.0
 40
0.0
 40
0.0
 40
0.0
 40
0.0
 40
0.2177586882
 40
0.4509006427
 40
0.7104563324
 40
1.0
 40
1.0
 40
1.0
 40
1.0
 10
-22.091583906
 20
-28.3253729748
 30
0.0
 10
-22.0915828819
 20
-28.3367987001
 30
0.0
 10
-22.0873876891
 20
-28.3606195912
 30
0.0
 10
-22.0693175116
 20
-28.3938130071
 30
0.0
 10
-22.0407611045
 20
-28.4237975036
 30
0.0
 10
-22.0168858835
 20
-28.4402588336
 30
0.0
 10
-22.0037292129
 20
-28.44785533
 30
0.0
 11
-22.091583906
 21
-28.3253729748
 31
0.0
 11
-22.0858344476
 21
-28.3591645201
 31
0.0
 11
-22.0687679345
 21
-28.3916533545
 31
0.0
 11
-22.0410001001
 21
-28.4216232194
 31
0.0
 11
-22.0037292129
 21
-28.44785533
 31
0.0
  0
SPLINE
  5
4E4
100
AcDbEntity
  8
RACCORDO
100
AcDbSpline
 62
7
  6
CONTINUOUS
 70
0
 71
3
 72
13
 73
9
 74
7
 42
0.0000001
 43
0.0000001
 44
0.0000000001
 12
-0.0662090449
 22
0.1972123061
 32
0.0
 13
0.2078764784
 23
-0.0079812929
 33
0.0
 40
0.0
 40
0.0
 40
0.0
 40
0.0
 40
0.279534151
 40
0.5136620017
 40
0.6222252232
 40
0.7348380503
 40
0.8596282997
 40
1.0
 40
1.0
 40
1.0
 40
1.0
 10
-19.851676079
 20
-31.7566041357
 30
0.0
 10
-19.8578453087
 20
-31.7382282775
 30
0.0
 10
-19.8663612052
 20
-31.7033805289
 30
0.0
 10
-19.8608556663
 20
-31.6583669036
 30
0.0
 10
-19.8417651996
 20
-31.6323368352
 30
0.0
 10
-19.8212490239
 20
-31.6190153581
 30
0.0
 10
-19.795667921
 20
-31.6120847057
 30
0.0
 10
-19.7771706192
 20
-31.6113352876
 30
0.0
 10
-19.767443961
 20
-31.6117087368
 30
0.0
 11
-19.851676079
 21
-31.7566041357
 31
0.0
 11
-19.8632459876
 21
-31.6996153539
 31
0.0
 11
-19.8544531261
 21
-31.6517100881
 31
0.0
 11
-19.8410092802
 21
-31.6335630034
 31
0.0
 11
-19.8215216899
 21
-31.6205611166
 31
0.0
 11
-19.796603023
 21
-31.6132820155
 31
0.0
 11
-19.767443961
 21
-31.6117087368
 31
0.0
  0
SPLINE
  5
4E5
100
AcDbEntity
  8
RACCORDO
100
AcDbSpline
 62
7
  6
CONTINUOUS
 70
0
 71
3
 72
11
 73
7
 74
5
 42
0.0000001
 43
0.0000001
 44
0.0000000001
 12
-0.4310685118
 22
0.1088707109
 32
0.0
 13
0.1215914924
 23
0.4276545364
 33
0.0
 40
0.0
 40
0.0
 40
0.0
 40
0.0
 40
0.2417492733
 40
0.5000082522
 40
0.7582667077
 40
1.0
 40
1.0
 40
1.0
 40
1.0
 10
-19.6523470609
 20
-69.4390443484
 30
0.0
 10
-19.687083894
 20
-69.4302712099
 30
0.0
 10
-19.7566599891
 20
-69.3997384581
 30
0.0
 10
-19.8357840138
 20
-69.3147704306
 30
0.0
 10
-19.8697490182
 20
-69.203773683
 30
0.0
 10
-19.8614736723
 20
-69.1282407
 30
0.0
 10
-19.8516761017
 20
-69.0937812537
 30
0.0
 11
-19.6523470609
 21
-69.4390443484
 31
0.0
 11
-19.7502949617
 21
-69.3947865971
 31
0.0
 11
-19.8280937998
 21
-69.3103373923
 31
0.0
 11
-19.8623060204
 21
-69.2007299204
 31
0.0
 11
-19.8516761017
 21
-69.0937812537
 31
0.0
  0
SPLINE
  5
4E6
100
AcDbEntity
  8
RACCORDO
100
AcDbSpline
 62
7
  6
CONTINUOUS
 70
0
 71
3
 72
9
 73
5
 74
3
 42
0.0000001
 43
0.0000001
 44
0.0000000001
 12
-0.0245012758
 22
-0.4136068379
 32
0.0
 13
0.370913549
 23
-0.1846457907
 33
0.0
 40
0.0
 40
0.0
 40
0.0
 40
0.0
 40
0.4999981152
 40
1.0
 40
1.0
 40
1.0
 40
1.0
 10
-18.4744801944
 20
-68.2986748697
 30
0.0
 10
-18.478563725
 20
-68.3676090828
 30
0.0
 10
-18.4396294337
 20
-68.5086653021
 30
0.0
 10
-18.3369603654
 20
-68.6131382657
 30
0.0
 10
-18.2751412075
 20
-68.6439126802
 30
0.0
 11
-18.4744801944
 21
-68.2986748697
 31
0.0
 11
-18.4236960063
 21
-68.4995190254
 31
0.0
 11
-18.2751412075
 21
-68.6439126802
 31
0.0
  0
SPLINE
  5
4E7
100
AcDbEntity
  8
RACCORDO
100
AcDbSpline
 62
7
  6
CONTINUOUS
 70
0
 71
3
 72
10
 73
6
 74
4
 42
0.0000001
 43
0.0000001
 44
0.0000000001
 12
0.1828507333
 22
-0.3543641519
 32
0.0
 13
0.2144009064
 23
-0.336215101
 33
0.0
 40
0.0
 40
0.0
 40
0.0
 40
0.0
 40
0.2273651443
 40
0.5000028679
 40
1.0
 40
1.0
 40
1.0
 40
1.0
 10
-18.3394203841
 20
-68.2206680753
 30
0.0
 10
-18.325562423
 20
-68.2475247608
 30
0.0
 10
-18.2937720247
 20
-68.3059026344
 30
0.0
 10
-18.2283797502
 20
-68.4216162386
 30
0.0
 10
-18.1758147562
 20
-68.5098976616
 30
0.0
 10
-18.1400814768
 20
-68.5659331903
 30
0.0
 11
-18.3394203841
 21
-68.2206680753
 31
0.0
 11
-18.2964631498
 21
-68.3005091538
 31
0.0
 11
-18.2429932074
 21
-68.3951678385
 31
0.0
 11
-18.1400814768
 21
-68.5659331903
 31
0.0
  0
SPLINE
  5
4E8
100
AcDbEntity
  8
RACCORDO
100
AcDbSpline
 62
7
  6
CONTINUOUS
 70
0
 71
3
 72
9
 73
5
 74
3
 42
0.0000001
 43
0.0000001
 44
0.0000000001
 12
0.007213303
 22
-0.0113899398
 32
0.0
 13
0.0118511902
 23
-0.0064274226
 33
0.0
 40
0.0
 40
0.0
 40
0.0
 40
0.0
 40
0.2343894454
 40
1.0
 40
1.0
 40
1.0
 40
1.0
 10
-18.1400814768
 20
-68.5659331903
 30
0.0
 10
-18.1395179027
 20
-68.5668230842
 30
0.0
 10
-18.1368621135
 20
-68.5704606383
 30
0.0
 10
-18.1331906207
 20
-68.573303735
 30
0.0
 10
-18.1301661553
 20
-68.5749440358
 30
0.0
 11
-18.1400814768
 21
-68.5659331903
 31
0.0
 11
-18.1382171237
 21
-68.5684846466
 31
0.0
 11
-18.1301661553
 21
-68.5749440358
 31
0.0
  0
SPLINE
  5
4E9
100
AcDbEntity
  8
RACCORDO
100
AcDbSpline
 62
7
  6
CONTINUOUS
 70
0
 71
3
 72
9
 73
5
 74
3
 42
0.0000001
 43
0.0000001
 44
0.0000000001
 12
-0.0003312848
 22
-0.0134726882
 32
0.0
 13
0.0061959692
 23
-0.0119680008
 33
0.0
 40
0.0
 40
0.0
 40
0.0
 40
0.0
 40
0.2685734322
 40
1.0
 40
1.0
 40
1.0
 40
1.0
 10
-18.3422658809
 20
-68.2075765352
 30
0.0
 10
-18.342295539
 20
-68.2087826705
 30
0.0
 10
-18.3421545548
 20
-68.2132735528
 30
0.0
 10
-18.3409310163
 20
-68.2177501707
 30
0.0
 10
-18.3394203841
 20
-68.2206680753
 30
0.0
 11
-18.3422658809
 21
-68.2075765352
 31
0.0
 11
-18.3421417233
 21
-68.211193905
 31
0.0
 11
-18.3394203841
 21
-68.2206680753
 31
0.0
  0
SPLINE
  5
4EA
100
AcDbEntity
  8
RACCORDO
100
AcDbSpline
 62
7
  6
CONTINUOUS
 70
0
 71
3
 72
11
 73
7
 74
5
 42
0.0000001
 43
0.0000001
 44
0.0000000001
 12
-0.0068243301
 22
1.024860587
 32
0.0
 13
-0.8841392067
 23
0.5183470434
 33
0.0
 40
0.0
 40
0.0
 40
0.0
 40
0.0
 40
0.2370060342
 40
0.4999938366
 40
0.7629849612
 40
1.0
 40
1.0
 40
1.0
 40
1.0
 10
15.1764142512
 20
-49.6745146579
 30
0.0
 10
15.1758751154
 20
-49.5935486102
 30
0.0
 10
15.1445987747
 20
-49.4228487167
 30
0.0
 10
15.0382350725
 20
-49.1828381085
 30
0.0
 10
14.8835591528
 20
-48.9707179097
 30
0.0
 10
14.7513663209
 20
-48.8582758379
 30
0.0
 10
14.6815148914
 20
-48.8173238231
 30
0.0
 11
15.1764142512
 21
-49.6745146579
 31
0.0
 11
15.1375901606
 21
-49.4347338956
 31
0.0
 11
15.0299097073
 21
-49.187646227
 31
0.0
 11
14.8697639704
 21
-48.9708454559
 31
0.0
 11
14.6815148914
 21
-48.8173238231
 31
0.0
  0
SPLINE
  5
4EB
100
AcDbEntity
  8
RACCORDO
100
AcDbSpline
 62
7
  6
CONTINUOUS
 70
0
 71
3
 72
11
 73
7
 74
5
 42
0.0000001
 43
0.0000001
 44
0.0000000001
 12
-0.3262172695
 22
0.1854893057
 32
0.0
 13
-0.3193340888
 23
-0.1971033464
 33
0.0
 40
0.0
 40
0.0
 40
0.0
 40
0.0
 40
0.2905184574
 40
0.5498765043
 40
0.7826053532
 40
1.0
 40
1.0
 40
1.0
 40
1.0
 10
-21.5124997588
 20
-27.9193533816
 30
0.0
 10
-21.5440904715
 20
-27.9013906926
 30
0.0
 10
-21.6068397599
 20
-27.8720958526
 30
0.0
 10
-21.7031338326
 20
-27.8499863179
 30
0.0
 10
-21.7930824493
 20
-27.8537789807
 30
0.0
 10
-21.8467283725
 20
-27.8748333806
 30
0.0
 10
-21.8698688797
 20
-27.8891164514
 30
0.0
 11
-21.5124997588
 21
-27.9193533816
 31
0.0
 11
-21.6117659593
 21
-27.8742767431
 31
0.0
 11
-21.7069213148
 21
-27.8538265892
 31
0.0
 11
-21.7941119962
 21
-27.8588460492
 31
0.0
 11
-21.8698688797
 21
-27.8891164514
 31
0.0
  0
SPLINE
  5
4EC
100
AcDbEntity
  8
RACCORDO
100
AcDbSpline
 62
7
  6
CONTINUOUS
 70
0
 71
3
 72
11
 73
7
 74
5
 42
0.0000001
 43
0.0000001
 44
0.0000000001
 12
-0.3738480846
 22
-0.223389988
 32
0.0
 13
0.000000011
 23
-0.4355060012
 33
0.0
 40
0.0
 40
0.0
 40
0.0
 40
0.0
 40
0.2383260036
 40
0.5010975909
 40
0.7632734208
 40
1.0
 40
1.0
 40
1.0
 40
1.0
 10
14.6815148904
 20
-48.8173238225
 30
0.0
 10
14.6518156505
 20
-48.8350703702
 30
0.0
 10
14.5957611741
 20
-48.8831955484
 30
0.0
 10
14.5304081689
 20
-48.9736680052
 30
0.0
 10
14.48582654
 20
-49.075730588
 30
0.0
 10
14.4730850707
 20
-49.1482070842
 30
0.0
 10
14.4730850715
 20
-49.1825723661
 30
0.0
 11
14.6815148904
 21
-48.8173238225
 31
0.0
 11
14.6014701939
 21
-48.883397341
 31
0.0
 11
14.5339205572
 21
-48.9757728816
 31
0.0
 11
14.488882448
 21
-49.0806940253
 31
0.0
 11
14.4730850715
 21
-49.1825723661
 31
0.0
  0
SPLINE
  5
4ED
100
AcDbEntity
  8
RACCORDO
100
AcDbSpline
 62
7
  6
CONTINUOUS
 70
0
 71
3
 72
11
 73
7
 74
5
 42
0.0000001
 43
0.0000001
 44
0.0000000001
 12
-0.3738480757
 22
-0.2233899999
 32
0.0
 13
0.0000000017
 23
-0.4355059997
 33
0.0
 40
0.0
 40
0.0
 40
0.0
 40
0.0
 40
0.2383260021
 40
0.5010975899
 40
0.76327342
 40
1.0
 40
1.0
 40
1.0
 40
1.0
 10
-21.5124997574
 20
-27.9193533824
 30
0.0
 10
-21.5421989965
 20
-27.9370999309
 30
0.0
 10
-21.5982534716
 20
-27.9852251096
 30
0.0
 10
-21.6636064777
 20
-28.0756975649
 30
0.0
 10
-21.708188108
 20
-28.1777601469
 30
0.0
 10
-21.7209295788
 20
-28.2502366427
 30
0.0
 10
-21.7209295787
 20
-28.2846019246
 30
0.0
 11
-21.5124997574
 21
-27.9193533824
 31
0.0
 11
-21.5925444521
 21
-27.9854269016
 31
0.0
 11
-21.6600940895
 21
-28.0778024414
 31
0.0
 11
-21.7051322002
 21
-28.1827235841
 31
0.0
 11
-21.7209295787
 21
-28.2846019246
 31
0.0
  0
SPLINE
  5
4EE
100
AcDbEntity
  8
RACCORDO
100
AcDbSpline
 62
7
  6
CONTINUOUS
 70
0
 71
3
 72
11
 73
7
 74
5
 42
0.0000001
 43
0.0000001
 44
0.0000000001
 12
-0.380376472
 22
-0.21208902
 32
0.0
 13
-0.3771557076
 23
0.2177649767
 33
0.0
 40
0.0
 40
0.0
 40
0.0
 40
0.0
 40
0.2383228673
 40
0.5010914229
 40
0.763267564
 40
1.0
 40
1.0
 40
1.0
 40
1.0
 10
15.1764142512
 20
-49.6745146596
 30
0.0
 10
15.1461967807
 20
-49.691363214
 30
0.0
 10
15.0764929834
 20
-49.7158477627
 30
0.0
 10
14.9654650757
 20
-49.7272099322
 30
0.0
 10
14.8547842507
 20
-49.7147860083
 30
0.0
 10
14.7856463688
 20
-49.6895797115
 30
0.0
 10
14.7558847057
 20
-49.6723957004
 30
0.0
 11
15.1764142512
 21
-49.6745146596
 31
0.0
 11
15.0791725822
 21
-49.7108021452
 31
0.0
 11
14.9653988864
 21
-49.7231152651
 31
0.0
 11
14.852014705
 21
-49.7096575402
 31
0.0
 11
14.7558847057
 21
-49.6723957004
 31
0.0
  0
SPLINE
  5
4EF
100
AcDbEntity
  8
RACCORDO
100
AcDbSpline
 62
7
  6
CONTINUOUS
 70
0
 71
3
 72
11
 73
7
 74
5
 42
0.0000001
 43
0.0000001
 44
0.0000000001
 12
-0.3803764778
 22
-0.2120890063
 32
0.0
 13
-0.3771557109
 23
0.2177649678
 33
0.0
 40
0.0
 40
0.0
 40
0.0
 40
0.0
 40
0.2383228673
 40
0.5010914248
 40
0.7632675667
 40
1.0
 40
1.0
 40
1.0
 40
1.0
 10
15.1764142512
 20
-91.4664164544
 30
0.0
 10
15.1461967802
 20
-91.4832650077
 30
0.0
 10
15.0764929827
 20
-91.5077495551
 30
0.0
 10
14.9654650753
 20
-91.5191117259
 30
0.0
 10
14.8547842505
 20
-91.5066878034
 30
0.0
 10
14.7856463688
 20
-91.4814815082
 30
0.0
 10
14.7558847057
 20
-91.4642974979
 30
0.0
 11
15.1764142512
 21
-91.4664164544
 31
0.0
 11
15.0791725819
 21
-91.5027039381
 31
0.0
 11
14.9653988857
 21
-91.5150170588
 31
0.0
 11
14.8520147043
 21
-91.5015593354
 31
0.0
 11
14.7558847057
 21
-91.4642974979
 31
0.0
  0
SPLINE
  5
4F0
100
AcDbEntity
  8
RACCORDO
100
AcDbSpline
 62
7
  6
CONTINUOUS
 70
0
 71
3
 72
9
 73
5
 74
3
 42
0.0000001
 43
0.0000001
 44
0.0000000001
 12
0.0000527323
 22
-0.0373502916
 32
0.0
 13
0.0077640379
 23
-0.0365344601
 33
0.0
 40
0.0
 40
0.0
 40
0.0
 40
0.0
 40
0.2547387322
 40
1.0
 40
1.0
 40
1.0
 40
1.0
 10
-18.4782859352
 20
-68.2615530213
 30
0.0
 10
-18.4782814576
 20
-68.2647245433
 30
0.0
 10
-18.477927611
 20
-68.2771700576
 30
0.0
 10
-18.4764050093
 20
-68.289596693
 30
0.0
 10
-18.4744762637
 20
-68.2986725991
 30
0.0
 11
-18.4782859352
 21
-68.2615530213
 31
0.0
 11
-18.4780253381
 21
-68.2710640273
 31
0.0
 11
-18.4744762637
 21
-68.2986725991
 31
0.0
  0
SPLINE
  5
4F1
100
AcDbEntity
  8
RACCORDO
100
AcDbSpline
 62
7
  6
CONTINUOUS
 70
0
 71
3
 72
11
 73
7
 74
5
 42
0.0000001
 43
0.0000001
 44
0.0000000001
 12
-0.1362924929
 22
0.0787097748
 32
0.0
 13
-0.0000000006
 23
0.1573876497
 33
0.0
 40
0.0
 40
0.0
 40
0.0
 40
0.0
 40
0.2177541405
 40
0.4508937694
 40
0.7104507771
 40
1.0
 40
1.0
 40
1.0
 40
1.0
 10
14.535216479
 20
-91.7648604576
 30
0.0
 10
14.5253237274
 20
-91.7591473312
 30
0.0
 10
14.5067951406
 20
-91.7436054137
 30
0.0
 10
14.4870881001
 20
-91.7113632406
 30
0.0
 10
14.4754021383
 20
-91.6716451054
 30
0.0
 10
14.4730850716
 20
-91.6427413938
 30
0.0
 10
14.4730850715
 20
-91.6275509032
 30
0.0
 11
14.535216479
 21
-91.7648604576
 31
0.0
 11
14.5088317343
 21
-91.7429880465
 31
0.0
 11
14.4892329541
 21
-91.7119673122
 31
0.0
 11
14.4771653404
 21
-91.6729393427
 31
0.0
 11
14.4730850715
 21
-91.6275509032
 31
0.0
  0
SPLINE
  5
4F2
100
AcDbEntity
  8
RACCORDO
100
AcDbSpline
 62
7
  6
CONTINUOUS
 70
0
 71
3
 72
11
 73
7
 74
5
 42
0.0000001
 43
0.0000001
 44
0.0000000001
 12
-0.1362924929
 22
0.0787097779
 32
0.0
 13
-0.000000004
 23
0.1573876512
 33
0.0
 40
0.0
 40
0.0
 40
0.0
 40
0.0
 40
0.2177541423
 40
0.4508937728
 40
0.710450779
 40
1.0
 40
1.0
 40
1.0
 40
1.0
 10
-21.6587981692
 20
-70.8668900173
 30
0.0
 10
-21.6686909208
 20
-70.8611768906
 30
0.0
 10
-21.6872195078
 20
-70.8456349727
 30
0.0
 10
-21.7069265486
 20
-70.8133927993
 30
0.0
 10
-21.7186125112
 20
-70.773674664
 30
0.0
 10
-21.7209295783
 20
-70.7447709523
 30
0.0
 10
-21.7209295787
 20
-70.7295804617
 30
0.0
 11
-21.6587981692
 21
-70.8668900173
 31
0.0
 11
-21.6851829142
 21
-70.8450176055
 31
0.0
 11
-21.7047816947
 21
-70.8139968708
 31
0.0
 11
-21.716849309
 21
-70.7749689012
 31
0.0
 11
-21.7209295787
 21
-70.7295804617
 31
0.0
  0
SPLINE
  5
4F3
100
AcDbEntity
  8
RACCORDO
100
AcDbSpline
 62
7
  6
CONTINUOUS
 70
0
 71
3
 72
15
 73
11
 74
9
 42
0.0000001
 43
0.0000001
 44
0.0000000001
 12
0.0000290007
 22
0.4170681701
 32
0.0
 13
0.3612088352
 23
-0.2085042848
 33
0.0
 40
0.0
 40
0.0
 40
0.0
 40
0.0
 40
0.145084411
 40
0.2749838777
 40
0.3918358314
 40
0.5009156004
 40
0.6098397432
 40
0.7262475406
 40
0.855533188
 40
1.0
 40
1.0
 40
1.0
 40
1.0
 10
-22.0037292129
 20
-28.44785533
 30
0.0
 10
-22.0037278103
 20
-28.4276853
 30
0.0
 10
-22.0006935097
 20
-28.3893246723
 30
0.0
 10
-21.9852411011
 20
-28.3365994623
 30
0.0
 10
-21.959214451
 20
-28.2937089136
 30
0.0
 10
-21.9230881773
 20
-28.2629422398
 30
0.0
 10
-21.8786635137
 20
-28.2464163103
 30
0.0
 10
-21.8286755002
 20
-28.2447613625
 30
0.0
 10
-21.7754062003
 20
-28.2571635249
 30
0.0
 10
-21.7406071443
 20
-28.2732429053
 30
0.0
 10
-21.7232129147
 20
-28.2832835551
 30
0.0
 11
-22.0037292129
 21
-28.44785533
 31
0.0
 11
-21.998351875
 21
-28.387584647
 31
0.0
 11
-21.9824215155
 21
-28.335802761
 31
0.0
 11
-21.9565462576
 21
-28.2945039265
 31
0.0
 11
-21.9217091993
 21
-28.2652454903
 31
0.0
 11
-21.8792301855
 21
-28.2491424278
 31
0.0
 11
-21.8307352033
 21
-28.246832027
 31
0.0
 11
-21.7780536608
 21
-28.2583264434
 31
0.0
 11
-21.7232129147
 21
-28.2832835551
 31
0.0
  0
SPLINE
  5
4F4
100
AcDbEntity
  8
RACCORDO
100
AcDbSpline
 62
7
  6
CONTINUOUS
 70
0
 71
3
 72
12
 73
8
 74
6
 42
0.0000001
 43
0.0000001
 44
0.0000000001
 12
0.505725355
 22
-0.2920463641
 32
0.0
 13
0.0000644726
 23
-0.5839941861
 33
0.0
 40
0.0
 40
0.0
 40
0.0
 40
0.0
 40
0.2368422947
 40
0.4991924762
 40
0.7618019237
 40
0.8853942362
 40
1.0
 40
1.0
 40
1.0
 40
1.0
 10
14.4730850715
 20
-49.1825723661
 30
0.0
 10
14.5130107894
 20
-49.2056286765
 30
0.0
 10
14.588633344
 20
-49.2691647545
 30
0.0
 10
14.6770177798
 20
-49.3894538132
 30
0.0
 10
14.7288218973
 20
-49.5060063928
 30
0.0
 10
14.751327672
 20
-49.6010592055
 30
0.0
 10
14.7558822427
 20
-49.6474495124
 30
0.0
 10
14.7558847057
 20
-49.6697592123
 30
0.0
 11
14.4730850715
 21
-49.1825723661
 31
0.0
 11
14.5807834468
 21
-49.2693592748
 31
0.0
 11
14.6722488958
 21
-49.3922725635
 31
0.0
 11
14.7336873309
 21
-49.5327906827
 31
0.0
 11
14.750075871
 21
-49.6030826655
 31
0.0
 11
14.7558847057
 21
-49.6697592123
 31
0.0
  0
SPLINE
  5
4F5
100
AcDbEntity
  8
RACCORDO
100
AcDbSpline
 62
7
  6
CONTINUOUS
 70
0
 71
3
 72
15
 73
11
 74
9
 42
0.0000001
 43
0.0000001
 44
0.0000000001
 12
-0.0000290007
 22
-0.4170681613
 32
0.0
 13
-0.3612088275
 23
0.2085042803
 33
0.0
 40
0.0
 40
0.0
 40
0.0
 40
0.0
 40
0.1450844117
 40
0.2749838793
 40
0.3918358339
 40
0.5009156036
 40
0.6098397465
 40
0.7262475433
 40
0.8555331895
 40
1.0
 40
1.0
 40
1.0
 40
1.0
 10
14.7558847057
 20
-91.4642974979
 30
0.0
 10
14.7558833032
 20
-91.4844675275
 30
0.0
 10
14.7528490026
 20
-91.5228281547
 30
0.0
 10
14.7373965946
 20
-91.5755533639
 30
0.0
 10
14.7113699454
 20
-91.6184439123
 30
0.0
 10
14.6752436729
 20
-91.6492105863
 30
0.0
 10
14.6308190107
 20
-91.6657365167
 30
0.0
 10
14.5808309985
 20
-91.6673914658
 30
0.0
 10
14.5275617
 20
-91.6549893052
 30
0.0
 10
14.4927626443
 20
-91.6389099267
 30
0.0
 10
14.4753684153
 20
-91.6288692773
 30
0.0
 11
14.7558847057
 21
-91.4642974979
 31
0.0
 11
14.750507368
 21
-91.5245681799
 31
0.0
 11
14.7345770091
 21
-91.5763500652
 31
0.0
 11
14.708701752
 21
-91.6176488995
 31
0.0
 11
14.6738646949
 21
-91.646907336
 31
0.0
 11
14.6313856824
 21
-91.6630103993
 31
0.0
 11
14.5828907015
 21
-91.6653208013
 31
0.0
 11
14.5302091602
 21
-91.6538263868
 31
0.0
 11
14.4753684153
 21
-91.6288692773
 31
0.0
  0
SPLINE
  5
4F6
100
AcDbEntity
  8
RACCORDO
100
AcDbSpline
 62
7
  6
CONTINUOUS
 70
0
 71
3
 72
12
 73
8
 74
6
 42
0.0000001
 43
0.0000001
 44
0.0000000001
 12
-0.5057253573
 22
0.2920463654
 32
0.0
 13
-0.0000644726
 23
0.5839941887
 33
0.0
 40
0.0
 40
0.0
 40
0.0
 40
0.0
 40
0.2368422949
 40
0.4991924767
 40
0.7618019242
 40
0.8853942365
 40
1.0
 40
1.0
 40
1.0
 40
1.0
 10
-21.7209295787
 20
-70.7295804617
 30
0.0
 10
-21.7608552968
 20
-70.7065241512
 30
0.0
 10
-21.8364778517
 20
-70.6429880728
 30
0.0
 10
-21.9248622878
 20
-70.5226990133
 30
0.0
 10
-21.9766664052
 20
-70.4061464331
 30
0.0
 10
-21.9991721796
 20
-70.3110936199
 30
0.0
 10
-22.0037267499
 20
-70.264703313
 30
0.0
 10
-22.0037292129
 20
-70.242393613
 30
0.0
 11
-21.7209295787
 21
-70.7295804617
 31
0.0
 11
-21.8286279544
 21
-70.6427935525
 31
0.0
 11
-21.9200934037
 21
-70.519880263
 31
0.0
 11
-21.9815318387
 21
-70.379362143
 31
0.0
 11
-21.9979203785
 21
-70.3090701599
 31
0.0
 11
-22.0037292129
 21
-70.242393613
 31
0.0
  0
SPLINE
  5
4F7
100
AcDbEntity
  8
RACCORDO
100
AcDbSpline
 62
7
  6
CONTINUOUS
 70
0
 71
3
 72
9
 73
5
 74
3
 42
0.0000001
 43
0.0000001
 44
0.0000000001
 12
-0.0290535392
 22
-0.0551073363
 32
0.0
 13
-0.0539576766
 23
-0.0311367274
 33
0.0
 40
0.0
 40
0.0
 40
0.0
 40
0.0
 40
0.277017043
 40
1.0
 40
1.0
 40
1.0
 40
1.0
 10
12.8512669804
 20
-88.1089425059
 30
0.0
 10
12.8485842052
 20
-88.1140310631
 30
0.0
 10
12.8381034048
 20
-88.1318811004
 30
0.0
 10
12.823348357
 20
-88.1478625108
 30
0.0
 10
12.8103448635
 20
-88.1553662852
 30
0.0
 11
12.8512669804
 21
-88.1089425059
 31
0.0
 11
12.8424494854
 21
-88.1237771966
 31
0.0
 11
12.8103448635
 21
-88.1553662852
 31
0.0
  0
SPLINE
  5
4F8
100
AcDbEntity
  8
RACCORDO
100
AcDbSpline
 62
7
  6
CONTINUOUS
 70
0
 71
3
 72
11
 73
7
 74
5
 42
0.0000001
 43
0.0000001
 44
0.0000000001
 12
-0.1261722059
 22
-0.072808724
 32
0.0
 13
-0.0964136199
 23
0.1092014182
 33
0.0
 40
0.0
 40
0.0
 40
0.0
 40
0.0
 40
0.2220361667
 40
0.4505038999
 40
0.7087907003
 40
1.0
 40
1.0
 40
1.0
 40
1.0
 10
12.8103448635
 20
-88.1553662852
 30
0.0
 10
12.8010065992
 20
-88.1607550086
 30
0.0
 10
12.7789428719
 20
-88.1672548382
 30
0.0
 10
12.7443527971
 20
-88.1593575846
 30
0.0
 10
12.712114156
 20
-88.1388810876
 30
0.0
 10
12.693008227
 20
-88.1200409109
 30
0.0
 10
12.6836493794
 20
-88.1094407547
 30
0.0
 11
12.8103448635
 21
-88.1553662852
 31
0.0
 11
12.7792769174
 21
-88.1643638627
 31
0.0
 11
12.7465974583
 21
-88.1580621186
 31
0.0
 11
12.7142882171
 21
-88.1387805514
 31
0.0
 11
12.6836493794
 21
-88.1094407547
 31
0.0
  0
SPLINE
  5
4F9
100
AcDbEntity
  8
RACCORDO
100
AcDbSpline
 62
7
  6
CONTINUOUS
 70
0
 71
3
 72
9
 73
5
 74
3
 42
0.0000001
 43
0.0000001
 44
0.0000000001
 12
-0.1258022839
 22
-0.0751721723
 32
0.0
 13
-0.1037487076
 23
-0.1035049555
 33
0.0
 40
0.0
 40
0.0
 40
0.0
 40
0.0
 40
0.2375582814
 40
1.0
 40
1.0
 40
1.0
 40
1.0
 10
-18.1301661553
 20
-10.6055543835
 30
0.0
 10
-18.1401279467
 20
-10.6115069742
 30
0.0
 10
-18.1811563075
 20
-10.6380727736
 30
0.0
 10
-18.2185507315
 20
-10.6700626803
 30
0.0
 10
-18.2449181791
 20
-10.6963681791
 30
0.0
 11
-18.1301661553
 21
-10.6055543835
 31
0.0
 11
-18.1594161231
 21
-10.6244349292
 31
0.0
 11
-18.2449181791
 21
-10.6963681791
 31
0.0
  0
SPLINE
  5
4FA
100
AcDbEntity
  8
RACCORDO
100
AcDbSpline
 62
7
  6
CONTINUOUS
 70
0
 71
3
 72
9
 73
5
 74
3
 42
0.0000001
 43
0.0000001
 44
0.0000000001
 12
-0.1440896839
 22
-0.0602425744
 32
0.0
 13
-0.1252946641
 23
-0.0932322472
 33
0.0
 40
0.0
 40
0.0
 40
0.0
 40
0.0
 40
0.24092834
 40
1.0
 40
1.0
 40
1.0
 40
1.0
 10
-18.1400814534
 20
-10.5965428891
 30
0.0
 10
-18.1516532162
 20
-10.6013809369
 30
0.0
 10
-18.1989888968
 20
-10.6231067627
 30
0.0
 10
-18.2434374092
 20
-10.6509362988
 30
0.0
 10
-18.2751399521
 20
-10.6745262844
 30
0.0
 11
-18.1400814534
 21
-10.5965428891
 31
0.0
 11
-18.1742946402
 21
-10.61220397
 31
0.0
 11
-18.2751399521
 21
-10.6745262844
 31
0.0
  0
SPLINE
  5
4FB
100
AcDbEntity
  8
RACCORDO
100
AcDbSpline
 62
7
  6
CONTINUOUS
 70
0
 71
3
 72
9
 73
5
 74
3
 42
0.0000001
 43
0.0000001
 44
0.0000000001
 12
-0.1242085342
 22
-0.0946731593
 32
0.0
 13
-0.1433862242
 23
-0.0618963471
 33
0.0
 40
0.0
 40
0.0
 40
0.0
 40
0.0
 40
0.2409316862
 40
1.0
 40
1.0
 40
1.0
 40
1.0
 10
-18.3394202881
 20
-10.2512784739
 30
0.0
 10
-18.3493955453
 20
-10.2588817285
 30
0.0
 10
-18.3918760958
 20
-10.2890156773
 30
0.0
 10
-18.4382000791
 20
-10.3135967964
 30
0.0
 10
-18.4744800589
 20
-10.3292579817
 30
0.0
 11
-18.3394202881
 21
-10.2512784739
 31
0.0
 11
-18.3700884705
 21
-10.2730798436
 31
0.0
 11
-18.4744800589
 21
-10.3292579817
 31
0.0
  0
SPLINE
  5
4FC
100
AcDbEntity
  8
RACCORDO
100
AcDbSpline
 62
7
  6
CONTINUOUS
 70
0
 71
3
 72
9
 73
5
 74
3
 42
0.0000001
 43
0.0000001
 44
0.0000000001
 12
-0.1279979636
 22
-0.0713676488
 32
0.0
 13
-0.1415101585
 23
-0.0381011157
 33
0.0
 40
0.0
 40
0.0
 40
0.0
 40
0.0
 40
0.237558507
 40
1.0
 40
1.0
 40
1.0
 40
1.0
 10
-18.3422658809
 20
-10.2381868829
 30
0.0
 10
-18.3524015493
 20
-10.2438382136
 30
0.0
 10
-18.3959211058
 20
-10.2660888037
 30
0.0
 10
-18.4423215288
 20
-10.282480076
 30
0.0
 10
-18.4782859344
 20
-10.2921633665
 30
0.0
 11
-18.3422658809
 21
-10.2381868829
 31
0.0
 11
-18.37324101
 21
-10.2540791825
 31
0.0
 11
-18.4782859344
 21
-10.2921633665
 31
0.0
  0
SPLINE
  5
4FD
100
AcDbEntity
  8
RACCORDO
100
AcDbSpline
 62
7
  6
CONTINUOUS
 70
0
 71
3
 72
15
 73
11
 74
9
 42
0.0000001
 43
0.0000001
 44
0.0000000001
 12
0.0000238213
 22
-0.597984879
 32
0.0
 13
-0.5178420862
 23
0.2990409502
 33
0.0
 40
0.0
 40
0.0
 40
0.0
 40
0.0
 40
0.1446786948
 40
0.2748799313
 40
0.3916072275
 40
0.4999943582
 40
0.6083856293
 40
0.725122466
 40
0.8553266085
 40
1.0
 40
1.0
 40
1.0
 40
1.0
 10
12.9427493461
 20
-30.2206649984
 30
0.0
 10
12.942750495
 20
-30.2495035557
 30
0.0
 10
12.9388048544
 20
-30.3044563629
 30
0.0
 10
12.9181548301
 20
-30.3803806616
 30
0.0
 10
12.8821861526
 20
-30.4426011666
 30
0.0
 10
12.8307258247
 20
-30.4869702796
 30
0.0
 10
12.766562377
 20
-30.5093341532
 30
0.0
 10
12.6946914409
 20
-30.5093538829
 30
0.0
 10
12.6186130543
 20
-30.489282167
 30
0.0
 10
12.5690441885
 20
-30.4652331708
 30
0.0
 10
12.5440715315
 20
-30.4508120813
 30
0.0
 11
12.9427493461
 21
-30.2206649984
 31
0.0
 11
12.9356746293
 21
-30.3068909218
 31
0.0
 11
12.9141147501
 21
-30.3817046738
 31
0.0
 11
12.8781297045
 21
-30.4415150256
 31
0.0
 11
12.8286625866
 21
-30.483393915
 31
0.0
 11
12.7676524068
 21
-30.5052780657
 31
0.0
 11
12.697856621
 21
-30.5065216207
 31
0.0
 11
12.6222835979
 21
-30.4877889043
 31
0.0
 11
12.5440715315
 21
-30.4508120813
 31
0.0
  0
SPLINE
  5
4FE
100
AcDbEntity
  8
RACCORDO
100
AcDbSpline
 62
7
  6
CONTINUOUS
 70
0
 71
3
 72
9
 73
5
 74
3
 42
0.0000001
 43
0.0000001
 44
0.0000000001
 12
0.1563813851
 22
-0.090284346
 32
0.0
 13
0.1281480412
 23
-0.1272182387
 33
0.0
 40
0.0
 40
0.0
 40
0.0
 40
0.0
 40
0.2366293495
 40
1.0
 40
1.0
 40
1.0
 40
1.0
 10
12.5440715315
 20
7.8070446001
 30
0.0
 10
12.55640634
 20
7.7999232914
 30
0.0
 10
12.6074338806
 20
7.7679399642
 30
0.0
 10
12.6539699874
 20
7.7289799626
 30
0.0
 10
12.6865781386
 20
7.696608406
 30
0.0
 11
12.5440715315
 21
7.8070446001
 31
0.0
 11
12.5803040766
 21
7.7843962555
 31
0.0
 11
12.6865781386
 21
7.696608406
 31
0.0
  0
SPLINE
  5
4FF
100
AcDbEntity
  8
RACCORDO
100
AcDbSpline
 62
7
  6
CONTINUOUS
 70
0
 71
3
 72
10
 73
6
 74
4
 42
0.0000001
 43
0.0000001
 44
0.0000000001
 12
0.4592582815
 22
-0.4559260458
 32
0.0
 13
0.0000021875
 23
-0.6471373334
 33
0.0
 40
0.0
 40
0.0
 40
0.0
 40
0.0
 40
0.5173571193
 40
0.7703670028
 40
1.0
 40
1.0
 40
1.0
 40
1.0
 10
12.6865781386
 20
7.696608406
 30
0.0
 10
12.7657783191
 20
7.6179828775
 30
0.0
 10
12.8612816828
 20
7.4756929084
 30
0.0
 10
12.9297979117
 20
7.2704057919
 30
0.0
 10
12.9427491787
 20
7.1660490652
 30
0.0
 10
12.9427493461
 20
7.1165143701
 30
0.0
 11
12.6865781386
 21
7.696608406
 31
0.0
 11
12.8747856976
 21
7.4197154741
 31
0.0
 11
12.9258712085
 21
7.2641568527
 31
0.0
 11
12.9427493461
 21
7.1165143701
 31
0.0
  0
SPLINE
  5
500
100
AcDbEntity
  8
RACCORDO
100
AcDbSpline
 62
7
  6
CONTINUOUS
 70
0
 71
3
 72
11
 73
7
 74
5
 42
0.0000001
 43
0.0000001
 44
0.0000000001
 12
0.3303340714
 22
0.1779756193
 32
0.0
 13
0.0024728007
 23
0.3752196757
 33
0.0
 40
0.0
 40
0.0
 40
0.0
 40
0.0
 40
0.2174002984
 40
0.4501302195
 40
0.7094857245
 40
1.0
 40
1.0
 40
1.0
 40
1.0
 10
15.0239182876
 20
-33.8215976178
 30
0.0
 10
15.0478565295
 20
-33.8087003002
 30
0.0
 10
15.0929104599
 20
-33.7727734478
 30
0.0
 10
15.141167899
 20
-33.6967810571
 30
0.0
 10
15.1701679425
 20
-33.6023444201
 30
0.0
 10
15.1761747899
 20
-33.5333623606
 30
0.0
 10
15.1764142512
 20
-33.4970268032
 30
0.0
 11
15.0239182876
 21
-33.8215976178
 31
0.0
 11
15.0880084543
 21
-33.7711310689
 31
0.0
 11
15.1359490057
 21
-33.6981402244
 31
0.0
 11
15.1658166193
 21
-33.6055194798
 31
0.0
 11
15.1764142512
 21
-33.4970268032
 31
0.0
  0
SPLINE
  5
501
100
AcDbEntity
  8
RACCORDO
100
AcDbSpline
 62
7
  6
CONTINUOUS
 70
0
 71
3
 72
15
 73
11
 74
9
 42
0.0000001
 43
0.0000001
 44
0.0000000001
 12
-0.0000387078
 22
0.5979848853
 32
0.0
 13
0.5178497191
 23
-0.2990277463
 33
0.0
 40
0.0
 40
0.0
 40
0.0
 40
0.0
 40
0.1446658674
 40
0.2748627245
 40
0.391594032
 40
0.4999831839
 40
0.6083724348
 40
0.7251052566
 40
0.8553137174
 40
1.0
 40
1.0
 40
1.0
 40
1.0
 10
-20.1905938533
 20
26.2472914751
 30
0.0
 10
-20.1905957199
 20
26.2761274758
 30
0.0
 10
-20.1866367056
 20
26.3310768344
 30
0.0
 10
-20.1659769087
 20
26.4069935657
 30
0.0
 10
-20.1300203097
 20
26.4692201893
 30
0.0
 10
-20.0785666219
 20
26.5135989375
 30
0.0
 10
-20.0144081426
 20
26.5359732514
 30
0.0
 10
-19.9425364979
 20
26.5360066109
 30
0.0
 10
-19.8664564167
 20
26.5159226689
 30
0.0
 10
-19.8168912889
 20
26.4918602957
 30
0.0
 10
-19.7919160387
 20
26.4774385581
 30
0.0
 11
-20.1905938533
 21
26.2472914751
 31
0.0
 11
-20.1835079576
 21
26.3335087851
 31
0.0
 11
-20.1619413313
 21
26.408317868
 31
0.0
 11
-20.1259630443
 21
26.4681350856
 31
0.0
 11
-20.0765021854
 21
26.5100232385
 31
0.0
 11
-20.0154968774
 21
26.5319173923
 31
0.0
 11
-19.945703659
 21
26.5331702855
 31
0.0
 11
-19.8701299949
 21
26.5144294197
 31
0.0
 11
-19.7919160387
 21
26.4774385581
 31
0.0
  0
SPLINE
  5
502
100
AcDbEntity
  8
RACCORDO
100
AcDbSpline
 62
7
  6
CONTINUOUS
 70
0
 71
3
 72
11
 73
7
 74
5
 42
0.0000001
 43
0.0000001
 44
0.0000000001
 12
-0.1363190161
 22
0.0787088914
 32
0.0
 13
-0.0000316866
 23
0.1574101736
 33
0.0
 40
0.0
 40
0.0
 40
0.0
 40
0.0
 40
0.2895817376
 40
0.5491318165
 40
0.7822802582
 40
1.0
 40
1.0
 40
1.0
 40
1.0
 10
12.9427493461
 20
7.1165143701
 30
0.0
 10
12.929590847
 20
7.1241119226
 30
0.0
 10
12.9057118045
 20
7.1405713765
 30
0.0
 10
12.8771587299
 20
7.1705639559
 30
0.0
 10
12.8590954461
 20
7.2037563047
 30
0.0
 10
12.8548861596
 20
7.2275729808
 30
0.0
 10
12.85488386
 20
7.2389967482
 30
0.0
 11
12.9427493461
 21
7.1165143701
 31
0.0
 11
12.9054725933
 21
7.1427491531
 31
0.0
 11
12.8777091504
 21
7.1727223007
 31
0.0
 11
12.8606430539
 21
7.2052128186
 31
0.0
 11
12.85488386
 21
7.2389967482
 31
0.0
  0
SPLINE
  5
503
100
AcDbEntity
  8
RACCORDO
100
AcDbSpline
 62
7
  6
CONTINUOUS
 70
0
 71
3
 72
11
 73
7
 74
5
 42
0.0000001
 43
0.0000001
 44
0.0000000001
 12
-0.0000000517
 22
-0.1573888098
 32
0.0
 13
0.1362846782
 23
-0.0787256244
 33
0.0
 40
0.0
 40
0.0
 40
0.0
 40
0.0
 40
0.2895872683
 40
0.5491386409
 40
0.7822847649
 40
1.0
 40
1.0
 40
1.0
 40
1.0
 10
12.5440715315
 20
7.8070446001
 30
0.0
 10
12.5440715265
 20
7.7918520016
 30
0.0
 10
12.5463850486
 20
7.7629459248
 30
0.0
 10
12.558079665
 20
7.7232266386
 30
0.0
 10
12.577789227
 20
7.6909909708
 30
0.0
 10
12.5963071178
 20
7.6754389602
 30
0.0
 10
12.6061975347
 20
7.6697257042
 30
0.0
 11
12.5440715315
 21
7.8070446001
 31
0.0
 11
12.548151167
 21
7.7616497544
 31
0.0
 11
12.5602238086
 21
7.7226239531
 31
0.0
 11
12.5798242521
 21
7.6916027407
 31
0.0
 11
12.6061975347
 21
7.6697257042
 31
0.0
  0
SPLINE
  5
504
100
AcDbEntity
  8
RACCORDO
100
AcDbSpline
 62
7
  6
CONTINUOUS
 70
0
 71
3
 72
11
 73
7
 74
5
 42
0.0000001
 43
0.0000001
 44
0.0000000001
 12
0.0
 22
-0.157342478
 32
0.0
 13
0.1362077173
 23
-0.0787661927
 33
0.0
 40
0.0
 40
0.0
 40
0.0
 40
0.0
 40
0.2895781872
 40
0.5491322113
 40
0.7822857584
 40
1.0
 40
1.0
 40
1.0
 40
1.0
 10
-19.7919160387
 20
26.4774385581
 30
0.0
 10
-19.7919160387
 20
26.4622509082
 30
0.0
 10
-19.7896039294
 20
26.4333537655
 30
0.0
 10
-19.7779172559
 20
26.3936451359
 30
0.0
 10
-19.758221328
 20
26.3614142647
 30
0.0
 10
-19.7397153913
 20
26.3458592838
 30
0.0
 10
-19.7298306047
 20
26.3401431099
 30
0.0
 11
-19.7919160387
 21
26.4774385581
 31
0.0
 11
-19.7878391879
 21
26.4320583679
 31
0.0
 11
-19.7757747339
 21
26.393042185
 31
0.0
 11
-19.7561872024
 21
26.3620242117
 31
0.0
 11
-19.7298306047
 21
26.3401431099
 31
0.0
  0
SPLINE
  5
505
100
AcDbEntity
  8
RACCORDO
100
AcDbSpline
 62
7
  6
CONTINUOUS
 70
0
 71
3
 72
10
 73
6
 74
4
 42
0.0000001
 43
0.0000001
 44
0.0000000001
 12
0.3008557635
 22
-0.1737074046
 32
0.0
 13
0.335457116
 23
0.0903159797
 33
0.0
 40
0.0
 40
0.0
 40
0.0
 40
0.0
 40
0.2300845876
 40
0.483607702
 40
1.0
 40
1.0
 40
1.0
 40
1.0
 10
-20.1905938533
 20
26.2472914751
 30
0.0
 10
-20.1675197619
 20
26.2339690096
 30
0.0
 10
-20.1150579096
 20
26.2126276016
 30
0.0
 10
-20.0009676012
 20
26.1910410896
 30
0.0
 10
-19.9094188308
 20
26.1972404671
 30
0.0
 10
-19.8516763404
 20
26.2127866258
 30
0.0
 11
-20.1905938533
 21
26.2472914751
 31
0.0
 11
-20.1169864037
 21
26.2161296491
 31
0.0
 11
-20.0305562735
 21
26.1991897984
 31
0.0
 11
-19.8516763404
 21
26.2127866258
 31
0.0
  0
SPLINE
  5
506
100
AcDbEntity
  8
RACCORDO
100
AcDbSpline
 62
7
  6
CONTINUOUS
 70
0
 71
3
 72
10
 73
6
 74
4
 42
0.0000001
 43
0.0000001
 44
0.0000000001
 12
0.3008547198
 22
-0.1737097446
 32
0.0
 13
0.3354567303
 23
0.0903184363
 33
0.0
 40
0.0
 40
0.0
 40
0.0
 40
0.0
 40
0.2300849491
 40
0.4836079614
 40
1.0
 40
1.0
 40
1.0
 40
1.0
 10
-20.1905938533
 20
-11.0898878933
 30
0.0
 10
-20.1675198057
 20
-11.1032105593
 30
0.0
 10
-20.1150579837
 20
-11.1245522909
 30
0.0
 10
-20.000967612
 20
-11.146139033
 30
0.0
 10
-19.9094187354
 20
-11.1399393164
 30
0.0
 10
-19.8516763404
 20
-11.1243927426
 30
0.0
 11
-20.1905938533
 21
-11.0898878933
 31
0.0
 11
-20.1169864029
 21
-11.1210501968
 31
0.0
 11
-20.0305562723
 21
-11.1379902116
 31
0.0
 11
-19.8516763404
 21
-11.1243927426
 31
0.0
  0
SPLINE
  5
507
100
AcDbEntity
  8
RACCORDO
100
AcDbSpline
 62
7
  6
CONTINUOUS
 70
0
 71
3
 72
11
 73
7
 74
5
 42
0.0000001
 43
0.0000001
 44
0.0000000001
 12
0.0000141053
 22
-0.1574089984
 32
0.0
 13
0.1363179965
 23
-0.078708302
 33
0.0
 40
0.0
 40
0.0
 40
0.0
 40
0.0
 40
0.2177586874
 40
0.4509006419
 40
0.7104563331
 40
1.0
 40
1.0
 40
1.0
 40
1.0
 10
-22.091583906
 20
-12.1478851148
 30
0.0
 10
-22.0915828821
 20
-12.1593108404
 30
0.0
 10
-22.0873876895
 20
-12.1831317321
 30
0.0
 10
-22.0693175123
 20
-12.2163251494
 30
0.0
 10
-22.040761105
 20
-12.2463096473
 30
0.0
 10
-22.0168858837
 20
-12.2627709784
 30
0.0
 10
-22.0037292129
 20
-12.2703674752
 30
0.0
 11
-22.091583906
 21
-12.1478851148
 31
0.0
 11
-22.085834448
 21
-12.181676661
 31
0.0
 11
-22.0687679352
 21
-12.2141654966
 31
0.0
 11
-22.0410001004
 21
-12.2441353632
 31
0.0
 11
-22.0037292129
 21
-12.2703674752
 31
0.0
  0
SPLINE
  5
508
100
AcDbEntity
  8
RACCORDO
100
AcDbSpline
 62
7
  6
CONTINUOUS
 70
0
 71
3
 72
10
 73
6
 74
4
 42
0.0000001
 43
0.0000001
 44
0.0000000001
 12
0.0000001141
 22
0.3473993299
 32
0.0
 13
0.2459370819
 23
0.2453594223
 33
0.0
 40
0.0
 40
0.0
 40
0.0
 40
0.0
 40
0.2300791698
 40
0.4836010627
 40
1.0
 40
1.0
 40
1.0
 40
1.0
 10
-19.7919160387
 20
-11.7804181234
 30
0.0
 10
-19.7919160299
 20
-11.753775007
 30
0.0
 10
-19.7841661805
 20
-11.6976724765
 30
0.0
 10
-19.7458141257
 20
-11.5880757236
 30
0.0
 10
-19.6946713157
 20
-11.511892306
 30
0.0
 10
-19.6523374331
 20
-11.4696578576
 30
0.0
 11
-19.7919160387
 21
-11.7804181234
 31
0.0
 11
-19.7820979028
 21
-11.7010940722
 31
0.0
 11
-19.7535523692
 21
-11.6177750169
 31
0.0
 11
-19.6523374331
 21
-11.4696578576
 31
0.0
  0
SPLINE
  5
509
100
AcDbEntity
  8
RACCORDO
100
AcDbSpline
 62
7
  6
CONTINUOUS
 70
0
 71
3
 72
10
 73
6
 74
4
 42
0.0000001
 43
0.0000001
 44
0.0000000001
 12
-0.0
 22
0.3473993418
 32
0.0
 13
0.2459371687
 23
0.2453593523
 33
0.0
 40
0.0
 40
0.0
 40
0.0
 40
0.0
 40
0.2300791865
 40
0.4836010752
 40
1.0
 40
1.0
 40
1.0
 40
1.0
 10
12.5440715315
 20
-30.4508120813
 30
0.0
 10
12.5440715315
 20
-30.424168962
 30
0.0
 10
12.5518213677
 20
-30.3680664254
 30
0.0
 10
12.590173415
 20
-30.2584696649
 30
0.0
 10
12.6413162406
 20
-30.1822862508
 30
0.0
 10
12.6836501371
 20
-30.1400518156
 30
0.0
 11
12.5440715315
 21
-30.4508120813
 31
0.0
 11
12.5538896489
 21
-30.3714880192
 31
0.0
 11
12.5824351763
 21
-30.2881689601
 31
0.0
 11
12.6836501371
 21
-30.1400518156
 31
0.0
  0
SPLINE
  5
50A
100
AcDbEntity
  8
RACCORDO
100
AcDbSpline
 62
7
  6
CONTINUOUS
 70
0
 71
3
 72
11
 73
7
 74
5
 42
0.0000001
 43
0.0000001
 44
0.0000000001
 12
-0.1363070506
 22
0.0787020424
 32
0.0
 13
-0.0000536147
 23
0.1573963806
 33
0.0
 40
0.0
 40
0.0
 40
0.0
 40
0.0
 40
0.2895790523
 40
0.5491299326
 40
0.7822805821
 40
1.0
 40
1.0
 40
1.0
 40
1.0
 10
12.9427493461
 20
-30.2206649984
 30
0.0
 10
12.929592124
 20
-30.2130681774
 30
0.0
 10
12.9057151756
 20
-30.1966104118
 30
0.0
 10
12.8771636668
 20
-30.1666214618
 30
0.0
 10
12.859099589
 20
-30.1334333422
 30
0.0
 10
12.8548877548
 20
-30.1096193068
 30
0.0
 10
12.8548838638
 20
-30.0981965573
 30
0.0
 11
12.9427493461
 21
-30.2206649984
 31
0.0
 11
12.9054759583
 21
-30.1944331054
 31
0.0
 11
12.8777137766
 21
-30.1644634953
 31
0.0
 11
12.8606465919
 21
-30.1319767874
 31
0.0
 11
12.8548838638
 21
-30.0981965573
 31
0.0
  0
SPLINE
  5
50B
100
AcDbEntity
  8
RACCORDO
100
AcDbSpline
 62
7
  6
CONTINUOUS
 70
0
 71
3
 72
11
 73
7
 74
5
 42
0.0000001
 43
0.0000001
 44
0.0000000001
 12
-0.7171285941
 22
0.4140697132
 32
0.0
 13
0.0000544718
 23
0.8280864356
 33
0.0
 40
0.0
 40
0.0
 40
0.0
 40
0.0
 40
0.2369489663
 40
0.5000027919
 40
0.7630483128
 40
1.0
 40
1.0
 40
1.0
 40
1.0
 10
-19.7919160387
 20
-11.7804181234
 30
0.0
 10
-19.8485569984
 20
-11.7477136599
 30
0.0
 10
-19.9571019974
 20
-11.6591442588
 30
0.0
 10
-20.0838050311
 20
-11.4885866698
 30
0.0
 10
-20.1681338135
 20
-11.2935758491
 30
0.0
 10
-20.1905981557
 20
-11.155293386
 30
0.0
 10
-20.1905938533
 20
-11.0898878933
 30
0.0
 11
-19.7919160387
 21
-11.7804181234
 31
0.0
 11
-19.9457036635
 21
-11.6585600556
 31
0.0
 11
-20.076502178
 21
-11.4843698545
 31
0.0
 11
-20.1619413077
 21
-11.2840011027
 31
0.0
 11
-20.1905938533
 21
-11.0898878933
 31
0.0
  0
SPLINE
  5
50C
100
AcDbEntity
  8
RACCORDO
100
AcDbSpline
 62
7
  6
CONTINUOUS
 70
0
 71
3
 72
11
 73
7
 74
5
 42
0.0000001
 43
0.0000001
 44
0.0000000001
 12
0.000014108
 22
-0.157408994
 32
0.0
 13
0.1363179944
 23
-0.0787082969
 33
0.0
 40
0.0
 40
0.0
 40
0.0
 40
0.0
 40
0.2177586882
 40
0.4509006427
 40
0.7104563324
 40
1.0
 40
1.0
 40
1.0
 40
1.0
 10
-22.091583906
 20
29.6440166775
 30
0.0
 10
-22.0915828819
 20
29.6325909522
 30
0.0
 10
-22.0873876891
 20
29.6087700611
 30
0.0
 10
-22.0693175116
 20
29.5755766452
 30
0.0
 10
-22.0407611045
 20
29.5455921487
 30
0.0
 10
-22.0168858835
 20
29.5291308187
 30
0.0
 10
-22.0037292129
 20
29.5215343223
 30
0.0
 11
-22.091583906
 21
29.6440166775
 31
0.0
 11
-22.0858344476
 21
29.6102251322
 31
0.0
 11
-22.0687679345
 21
29.5777362978
 31
0.0
 11
-22.0410001001
 21
29.5477664329
 31
0.0
 11
-22.0037292129
 21
29.5215343223
 31
0.0
  0
SPLINE
  5
50D
100
AcDbEntity
  8
RACCORDO
100
AcDbSpline
 62
7
  6
CONTINUOUS
 70
0
 71
3
 72
13
 73
9
 74
7
 42
0.0000001
 43
0.0000001
 44
0.0000000001
 12
-0.0662090449
 22
0.1972123061
 32
0.0
 13
0.2078764784
 23
-0.0079812929
 33
0.0
 40
0.0
 40
0.0
 40
0.0
 40
0.0
 40
0.279534151
 40
0.5136620017
 40
0.6222252232
 40
0.7348380503
 40
0.8596282997
 40
1.0
 40
1.0
 40
1.0
 40
1.0
 10
-19.851676079
 20
26.2127855166
 30
0.0
 10
-19.8578453087
 20
26.2311613748
 30
0.0
 10
-19.8663612052
 20
26.2660091234
 30
0.0
 10
-19.8608556663
 20
26.3110227487
 30
0.0
 10
-19.8417651996
 20
26.3370528171
 30
0.0
 10
-19.8212490239
 20
26.3503742941
 30
0.0
 10
-19.795667921
 20
26.3573049466
 30
0.0
 10
-19.7771706192
 20
26.3580543647
 30
0.0
 10
-19.767443961
 20
26.3576809155
 30
0.0
 11
-19.851676079
 21
26.2127855166
 31
0.0
 11
-19.8632459876
 21
26.2697742984
 31
0.0
 11
-19.8544531261
 21
26.3176795642
 31
0.0
 11
-19.8410092802
 21
26.3358266489
 31
0.0
 11
-19.8215216899
 21
26.3488285357
 31
0.0
 11
-19.796603023
 21
26.3561076368
 31
0.0
 11
-19.767443961
 21
26.3576809155
 31
0.0
  0
SPLINE
  5
50E
100
AcDbEntity
  8
RACCORDO
100
AcDbSpline
 62
7
  6
CONTINUOUS
 70
0
 71
3
 72
11
 73
7
 74
5
 42
0.0000001
 43
0.0000001
 44
0.0000000001
 12
-0.4310685118
 22
0.1088707109
 32
0.0
 13
0.1215914924
 23
0.4276545364
 33
0.0
 40
0.0
 40
0.0
 40
0.0
 40
0.0
 40
0.2417492733
 40
0.5000082522
 40
0.7582667077
 40
1.0
 40
1.0
 40
1.0
 40
1.0
 10
-19.6523470609
 20
-11.4696546961
 30
0.0
 10
-19.687083894
 20
-11.4608815576
 30
0.0
 10
-19.7566599891
 20
-11.4303488058
 30
0.0
 10
-19.8357840138
 20
-11.3453807783
 30
0.0
 10
-19.8697490182
 20
-11.2343840307
 30
0.0
 10
-19.8614736723
 20
-11.1588510477
 30
0.0
 10
-19.8516761017
 20
-11.1243916014
 30
0.0
 11
-19.6523470609
 21
-11.4696546961
 31
0.0
 11
-19.7502949617
 21
-11.4253969448
 31
0.0
 11
-19.8280937998
 21
-11.3409477401
 31
0.0
 11
-19.8623060204
 21
-11.2313402681
 31
0.0
 11
-19.8516761017
 21
-11.1243916014
 31
0.0
  0
SPLINE
  5
50F
100
AcDbEntity
  8
RACCORDO
100
AcDbSpline
 62
7
  6
CONTINUOUS
 70
0
 71
3
 72
9
 73
5
 74
3
 42
0.0000001
 43
0.0000001
 44
0.0000000001
 12
-0.0245012758
 22
-0.4136068379
 32
0.0
 13
0.370913549
 23
-0.1846457907
 33
0.0
 40
0.0
 40
0.0
 40
0.0
 40
0.0
 40
0.4999981152
 40
1.0
 40
1.0
 40
1.0
 40
1.0
 10
-18.4744801944
 20
-10.3292852174
 30
0.0
 10
-18.478563725
 20
-10.3982194305
 30
0.0
 10
-18.4396294337
 20
-10.5392756498
 30
0.0
 10
-18.3369603654
 20
-10.6437486134
 30
0.0
 10
-18.2751412075
 20
-10.6745230279
 30
0.0
 11
-18.4744801944
 21
-10.3292852174
 31
0.0
 11
-18.4236960063
 21
-10.5301293731
 31
0.0
 11
-18.2751412075
 21
-10.6745230279
 31
0.0
  0
SPLINE
  5
510
100
AcDbEntity
  8
RACCORDO
100
AcDbSpline
 62
7
  6
CONTINUOUS
 70
0
 71
3
 72
10
 73
6
 74
4
 42
0.0000001
 43
0.0000001
 44
0.0000000001
 12
0.1828507333
 22
-0.3543641519
 32
0.0
 13
0.2144009064
 23
-0.336215101
 33
0.0
 40
0.0
 40
0.0
 40
0.0
 40
0.0
 40
0.2273651443
 40
0.5000028679
 40
1.0
 40
1.0
 40
1.0
 40
1.0
 10
-18.3394203841
 20
-10.251278423
 30
0.0
 10
-18.325562423
 20
-10.2781351085
 30
0.0
 10
-18.2937720247
 20
-10.3365129821
 30
0.0
 10
-18.2283797502
 20
-10.4522265863
 30
0.0
 10
-18.1758147562
 20
-10.5405080093
 30
0.0
 10
-18.1400814768
 20
-10.596543538
 30
0.0
 11
-18.3394203841
 21
-10.251278423
 31
0.0
 11
-18.2964631498
 21
-10.3311195015
 31
0.0
 11
-18.2429932074
 21
-10.4257781862
 31
0.0
 11
-18.1400814768
 21
-10.596543538
 31
0.0
  0
SPLINE
  5
511
100
AcDbEntity
  8
RACCORDO
100
AcDbSpline
 62
7
  6
CONTINUOUS
 70
0
 71
3
 72
9
 73
5
 74
3
 42
0.0000001
 43
0.0000001
 44
0.0000000001
 12
0.007213303
 22
-0.0113899398
 32
0.0
 13
0.0118511902
 23
-0.0064274226
 33
0.0
 40
0.0
 40
0.0
 40
0.0
 40
0.0
 40
0.2343894454
 40
1.0
 40
1.0
 40
1.0
 40
1.0
 10
-18.1400814768
 20
-10.596543538
 30
0.0
 10
-18.1395179027
 20
-10.5974334319
 30
0.0
 10
-18.1368621135
 20
-10.601070986
 30
0.0
 10
-18.1331906207
 20
-10.6039140827
 30
0.0
 10
-18.1301661553
 20
-10.6055543835
 30
0.0
 11
-18.1400814768
 21
-10.596543538
 31
0.0
 11
-18.1382171237
 21
-10.5990949943
 31
0.0
 11
-18.1301661553
 21
-10.6055543835
 31
0.0
  0
SPLINE
  5
512
100
AcDbEntity
  8
RACCORDO
100
AcDbSpline
 62
7
  6
CONTINUOUS
 70
0
 71
3
 72
9
 73
5
 74
3
 42
0.0000001
 43
0.0000001
 44
0.0000000001
 12
-0.0003312848
 22
-0.0134726882
 32
0.0
 13
0.0061959692
 23
-0.0119680008
 33
0.0
 40
0.0
 40
0.0
 40
0.0
 40
0.0
 40
0.2685734322
 40
1.0
 40
1.0
 40
1.0
 40
1.0
 10
-18.3422658809
 20
-10.2381868829
 30
0.0
 10
-18.342295539
 20
-10.2393930183
 30
0.0
 10
-18.3421545548
 20
-10.2438839005
 30
0.0
 10
-18.3409310163
 20
-10.2483605184
 30
0.0
 10
-18.3394203841
 20
-10.251278423
 30
0.0
 11
-18.3422658809
 21
-10.2381868829
 31
0.0
 11
-18.3421417233
 21
-10.2418042527
 31
0.0
 11
-18.3394203841
 21
-10.251278423
 31
0.0
  0
SPLINE
  5
513
100
AcDbEntity
  8
RACCORDO
100
AcDbSpline
 62
7
  6
CONTINUOUS
 70
0
 71
3
 72
11
 73
7
 74
5
 42
0.0000001
 43
0.0000001
 44
0.0000000001
 12
-0.0068243301
 22
1.024860587
 32
0.0
 13
-0.8841392067
 23
0.5183470434
 33
0.0
 40
0.0
 40
0.0
 40
0.0
 40
0.0
 40
0.2370060342
 40
0.4999938366
 40
0.7629849612
 40
1.0
 40
1.0
 40
1.0
 40
1.0
 10
15.1764142512
 20
8.2948749943
 30
0.0
 10
15.1758751154
 20
8.3758410421
 30
0.0
 10
15.1445987747
 20
8.5465409356
 30
0.0
 10
15.0382350725
 20
8.7865515438
 30
0.0
 10
14.8835591528
 20
8.9986717426
 30
0.0
 10
14.7513663209
 20
9.1111138143
 30
0.0
 10
14.6815148914
 20
9.1520658292
 30
0.0
 11
15.1764142512
 21
8.2948749943
 31
0.0
 11
15.1375901606
 21
8.5346557567
 31
0.0
 11
15.0299097073
 21
8.7817434253
 31
0.0
 11
14.8697639704
 21
8.9985441963
 31
0.0
 11
14.6815148914
 21
9.1520658292
 31
0.0
  0
SPLINE
  5
514
100
AcDbEntity
  8
RACCORDO
100
AcDbSpline
 62
7
  6
CONTINUOUS
 70
0
 71
3
 72
11
 73
7
 74
5
 42
0.0000001
 43
0.0000001
 44
0.0000000001
 12
-0.3262172695
 22
0.1854893057
 32
0.0
 13
-0.3193340888
 23
-0.1971033464
 33
0.0
 40
0.0
 40
0.0
 40
0.0
 40
0.0
 40
0.2905184574
 40
0.5498765043
 40
0.7826053532
 40
1.0
 40
1.0
 40
1.0
 40
1.0
 10
-21.5124997588
 20
30.0500362707
 30
0.0
 10
-21.5440904715
 20
30.0679989597
 30
0.0
 10
-21.6068397599
 20
30.0972937997
 30
0.0
 10
-21.7031338326
 20
30.1194033344
 30
0.0
 10
-21.7930824493
 20
30.1156106716
 30
0.0
 10
-21.8467283725
 20
30.0945562717
 30
0.0
 10
-21.8698688797
 20
30.0802732009
 30
0.0
 11
-21.5124997588
 21
30.0500362707
 31
0.0
 11
-21.6117659593
 21
30.0951129092
 31
0.0
 11
-21.7069213148
 21
30.1155630631
 31
0.0
 11
-21.7941119962
 21
30.1105436031
 31
0.0
 11
-21.8698688797
 21
30.0802732009
 31
0.0
  0
SPLINE
  5
515
100
AcDbEntity
  8
RACCORDO
100
AcDbSpline
 62
7
  6
CONTINUOUS
 70
0
 71
3
 72
11
 73
7
 74
5
 42
0.0000001
 43
0.0000001
 44
0.0000000001
 12
-0.3738480846
 22
-0.223389988
 32
0.0
 13
0.000000011
 23
-0.4355060012
 33
0.0
 40
0.0
 40
0.0
 40
0.0
 40
0.0
 40
0.2383260036
 40
0.5010975909
 40
0.7632734208
 40
1.0
 40
1.0
 40
1.0
 40
1.0
 10
14.6815148904
 20
9.1520658298
 30
0.0
 10
14.6518156505
 20
9.1343192821
 30
0.0
 10
14.5957611741
 20
9.0861941039
 30
0.0
 10
14.5304081689
 20
8.9957216471
 30
0.0
 10
14.48582654
 20
8.8936590643
 30
0.0
 10
14.4730850707
 20
8.8211825681
 30
0.0
 10
14.4730850715
 20
8.7868172861
 30
0.0
 11
14.6815148904
 21
9.1520658298
 31
0.0
 11
14.6014701939
 21
9.0859923113
 31
0.0
 11
14.5339205572
 21
8.9936167707
 31
0.0
 11
14.488882448
 21
8.888695627
 31
0.0
 11
14.4730850715
 21
8.7868172861
 31
0.0
  0
SPLINE
  5
516
100
AcDbEntity
  8
RACCORDO
100
AcDbSpline
 62
7
  6
CONTINUOUS
 70
0
 71
3
 72
11
 73
7
 74
5
 42
0.0000001
 43
0.0000001
 44
0.0000000001
 12
-0.3738480757
 22
-0.2233899999
 32
0.0
 13
0.0000000017
 23
-0.4355059997
 33
0.0
 40
0.0
 40
0.0
 40
0.0
 40
0.0
 40
0.2383260021
 40
0.5010975899
 40
0.76327342
 40
1.0
 40
1.0
 40
1.0
 40
1.0
 10
-21.5124997574
 20
30.0500362699
 30
0.0
 10
-21.5421989965
 20
30.0322897214
 30
0.0
 10
-21.5982534716
 20
29.9841645427
 30
0.0
 10
-21.6636064777
 20
29.8936920874
 30
0.0
 10
-21.708188108
 20
29.7916295054
 30
0.0
 10
-21.7209295788
 20
29.7191530096
 30
0.0
 10
-21.7209295787
 20
29.6847877277
 30
0.0
 11
-21.5124997574
 21
30.0500362699
 31
0.0
 11
-21.5925444521
 21
29.9839627507
 31
0.0
 11
-21.6600940895
 21
29.8915872109
 31
0.0
 11
-21.7051322002
 21
29.7866660682
 31
0.0
 11
-21.7209295787
 21
29.6847877277
 31
0.0
  0
SPLINE
  5
517
100
AcDbEntity
  8
RACCORDO
100
AcDbSpline
 62
7
  6
CONTINUOUS
 70
0
 71
3
 72
11
 73
7
 74
5
 42
0.0000001
 43
0.0000001
 44
0.0000000001
 12
-0.380376472
 22
-0.21208902
 32
0.0
 13
-0.3771557076
 23
0.2177649767
 33
0.0
 40
0.0
 40
0.0
 40
0.0
 40
0.0
 40
0.2383228673
 40
0.5010914229
 40
0.763267564
 40
1.0
 40
1.0
 40
1.0
 40
1.0
 10
15.1764142512
 20
8.2948749927
 30
0.0
 10
15.1461967807
 20
8.2780264383
 30
0.0
 10
15.0764929834
 20
8.2535418896
 30
0.0
 10
14.9654650757
 20
8.2421797201
 30
0.0
 10
14.8547842507
 20
8.254603644
 30
0.0
 10
14.7856463688
 20
8.2798099408
 30
0.0
 10
14.7558847057
 20
8.2969939519
 30
0.0
 11
15.1764142512
 21
8.2948749927
 31
0.0
 11
15.0791725822
 21
8.2585875071
 31
0.0
 11
14.9653988864
 21
8.2462743872
 31
0.0
 11
14.852014705
 21
8.2597321121
 31
0.0
 11
14.7558847057
 21
8.2969939519
 31
0.0
  0
SPLINE
  5
518
100
AcDbEntity
  8
RACCORDO
100
AcDbSpline
 62
7
  6
CONTINUOUS
 70
0
 71
3
 72
11
 73
7
 74
5
 42
0.0000001
 43
0.0000001
 44
0.0000000001
 12
-0.3803764778
 22
-0.2120890063
 32
0.0
 13
-0.3771557109
 23
0.2177649678
 33
0.0
 40
0.0
 40
0.0
 40
0.0
 40
0.0
 40
0.2383228673
 40
0.5010914248
 40
0.7632675667
 40
1.0
 40
1.0
 40
1.0
 40
1.0
 10
15.1764142512
 20
-33.4970268021
 30
0.0
 10
15.1461967802
 20
-33.5138753554
 30
0.0
 10
15.0764929827
 20
-33.5383599028
 30
0.0
 10
14.9654650753
 20
-33.5497220736
 30
0.0
 10
14.8547842505
 20
-33.5372981511
 30
0.0
 10
14.7856463688
 20
-33.5120918559
 30
0.0
 10
14.7558847057
 20
-33.4949078456
 30
0.0
 11
15.1764142512
 21
-33.4970268021
 31
0.0
 11
15.0791725819
 21
-33.5333142858
 31
0.0
 11
14.9653988857
 21
-33.5456274065
 31
0.0
 11
14.8520147043
 21
-33.5321696831
 31
0.0
 11
14.7558847057
 21
-33.4949078456
 31
0.0
  0
SPLINE
  5
519
100
AcDbEntity
  8
RACCORDO
100
AcDbSpline
 62
7
  6
CONTINUOUS
 70
0
 71
3
 72
9
 73
5
 74
3
 42
0.0000001
 43
0.0000001
 44
0.0000000001
 12
0.0000527323
 22
-0.0373502916
 32
0.0
 13
0.0077640379
 23
-0.0365344601
 33
0.0
 40
0.0
 40
0.0
 40
0.0
 40
0.0
 40
0.2547387322
 40
1.0
 40
1.0
 40
1.0
 40
1.0
 10
-18.4782859352
 20
-10.292163369
 30
0.0
 10
-18.4782814576
 20
-10.295334891
 30
0.0
 10
-18.477927611
 20
-10.3077804053
 30
0.0
 10
-18.4764050093
 20
-10.3202070408
 30
0.0
 10
-18.4744762637
 20
-10.3292829468
 30
0.0
 11
-18.4782859352
 21
-10.292163369
 31
0.0
 11
-18.4780253381
 21
-10.301674375
 31
0.0
 11
-18.4744762637
 21
-10.3292829468
 31
0.0
  0
SPLINE
  5
51A
100
AcDbEntity
  8
RACCORDO
100
AcDbSpline
 62
7
  6
CONTINUOUS
 70
0
 71
3
 72
11
 73
7
 74
5
 42
0.0000001
 43
0.0000001
 44
0.0000000001
 12
-0.1362924929
 22
0.0787097748
 32
0.0
 13
-0.0000000006
 23
0.1573876497
 33
0.0
 40
0.0
 40
0.0
 40
0.0
 40
0.0
 40
0.2177541405
 40
0.4508937694
 40
0.7104507771
 40
1.0
 40
1.0
 40
1.0
 40
1.0
 10
14.535216479
 20
-33.7954708053
 30
0.0
 10
14.5253237274
 20
-33.7897576789
 30
0.0
 10
14.5067951406
 20
-33.7742157614
 30
0.0
 10
14.4870881001
 20
-33.7419735883
 30
0.0
 10
14.4754021383
 20
-33.7022554531
 30
0.0
 10
14.4730850716
 20
-33.6733517415
 30
0.0
 10
14.4730850715
 20
-33.6581612509
 30
0.0
 11
14.535216479
 21
-33.7954708053
 31
0.0
 11
14.5088317343
 21
-33.7735983942
 31
0.0
 11
14.4892329541
 21
-33.7425776599
 31
0.0
 11
14.4771653404
 21
-33.7035496904
 31
0.0
 11
14.4730850715
 21
-33.6581612509
 31
0.0
  0
SPLINE
  5
51B
100
AcDbEntity
  8
RACCORDO
100
AcDbSpline
 62
7
  6
CONTINUOUS
 70
0
 71
3
 72
11
 73
7
 74
5
 42
0.0000001
 43
0.0000001
 44
0.0000000001
 12
-0.1362924929
 22
0.0787097779
 32
0.0
 13
-0.000000004
 23
0.1573876512
 33
0.0
 40
0.0
 40
0.0
 40
0.0
 40
0.0
 40
0.2177541423
 40
0.4508937728
 40
0.710450779
 40
1.0
 40
1.0
 40
1.0
 40
1.0
 10
-21.6587981692
 20
-12.897500365
 30
0.0
 10
-21.6686909208
 20
-12.8917872383
 30
0.0
 10
-21.6872195078
 20
-12.8762453204
 30
0.0
 10
-21.7069265486
 20
-12.844003147
 30
0.0
 10
-21.7186125112
 20
-12.8042850117
 30
0.0
 10
-21.7209295783
 20
-12.7753813
 30
0.0
 10
-21.7209295787
 20
-12.7601908094
 30
0.0
 11
-21.6587981692
 21
-12.897500365
 31
0.0
 11
-21.6851829142
 21
-12.8756279532
 31
0.0
 11
-21.7047816947
 21
-12.8446072185
 31
0.0
 11
-21.716849309
 21
-12.8055792489
 31
0.0
 11
-21.7209295787
 21
-12.7601908094
 31
0.0
  0
SPLINE
  5
51C
100
AcDbEntity
  8
RACCORDO
100
AcDbSpline
 62
7
  6
CONTINUOUS
 70
0
 71
3
 72
15
 73
11
 74
9
 42
0.0000001
 43
0.0000001
 44
0.0000000001
 12
0.0000290007
 22
0.4170681701
 32
0.0
 13
0.3612088352
 23
-0.2085042848
 33
0.0
 40
0.0
 40
0.0
 40
0.0
 40
0.0
 40
0.145084411
 40
0.2749838777
 40
0.3918358314
 40
0.5009156004
 40
0.6098397432
 40
0.7262475406
 40
0.855533188
 40
1.0
 40
1.0
 40
1.0
 40
1.0
 10
-22.0037292129
 20
29.5215343223
 30
0.0
 10
-22.0037278103
 20
29.5417043523
 30
0.0
 10
-22.0006935097
 20
29.58006498
 30
0.0
 10
-21.9852411011
 20
29.63279019
 30
0.0
 10
-21.959214451
 20
29.6756807387
 30
0.0
 10
-21.9230881773
 20
29.7064474125
 30
0.0
 10
-21.8786635137
 20
29.722973342
 30
0.0
 10
-21.8286755002
 20
29.7246282898
 30
0.0
 10
-21.7754062003
 20
29.7122261273
 30
0.0
 10
-21.7406071443
 20
29.696146747
 30
0.0
 10
-21.7232129147
 20
29.6861060972
 30
0.0
 11
-22.0037292129
 21
29.5215343223
 31
0.0
 11
-21.998351875
 21
29.5818050053
 31
0.0
 11
-21.9824215155
 21
29.6335868913
 31
0.0
 11
-21.9565462576
 21
29.6748857258
 31
0.0
 11
-21.9217091993
 21
29.704144162
 31
0.0
 11
-21.8792301855
 21
29.7202472245
 31
0.0
 11
-21.8307352033
 21
29.7225576253
 31
0.0
 11
-21.7780536608
 21
29.7110632088
 31
0.0
 11
-21.7232129147
 21
29.6861060972
 31
0.0
  0
SPLINE
  5
51D
100
AcDbEntity
  8
RACCORDO
100
AcDbSpline
 62
7
  6
CONTINUOUS
 70
0
 71
3
 72
12
 73
8
 74
6
 42
0.0000001
 43
0.0000001
 44
0.0000000001
 12
0.505725355
 22
-0.2920463641
 32
0.0
 13
0.0000644726
 23
-0.5839941861
 33
0.0
 40
0.0
 40
0.0
 40
0.0
 40
0.0
 40
0.2368422947
 40
0.4991924762
 40
0.7618019237
 40
0.8853942362
 40
1.0
 40
1.0
 40
1.0
 40
1.0
 10
14.4730850715
 20
8.7868172861
 30
0.0
 10
14.5130107894
 20
8.7637609758
 30
0.0
 10
14.588633344
 20
8.7002248978
 30
0.0
 10
14.6770177798
 20
8.5799358391
 30
0.0
 10
14.7288218973
 20
8.4633832595
 30
0.0
 10
14.751327672
 20
8.3683304468
 30
0.0
 10
14.7558822427
 20
8.3219401399
 30
0.0
 10
14.7558847057
 20
8.29963044
 30
0.0
 11
14.4730850715
 21
8.7868172861
 31
0.0
 11
14.5807834468
 21
8.7000303775
 31
0.0
 11
14.6722488958
 21
8.5771170888
 31
0.0
 11
14.7336873309
 21
8.4365989696
 31
0.0
 11
14.750075871
 21
8.3663069868
 31
0.0
 11
14.7558847057
 21
8.29963044
 31
0.0
  0
SPLINE
  5
51E
100
AcDbEntity
  8
RACCORDO
100
AcDbSpline
 62
7
  6
CONTINUOUS
 70
0
 71
3
 72
15
 73
11
 74
9
 42
0.0000001
 43
0.0000001
 44
0.0000000001
 12
-0.0000290007
 22
-0.4170681613
 32
0.0
 13
-0.3612088275
 23
0.2085042803
 33
0.0
 40
0.0
 40
0.0
 40
0.0
 40
0.0
 40
0.1450844117
 40
0.2749838793
 40
0.3918358339
 40
0.5009156036
 40
0.6098397465
 40
0.7262475433
 40
0.8555331895
 40
1.0
 40
1.0
 40
1.0
 40
1.0
 10
14.7558847057
 20
-33.4949078456
 30
0.0
 10
14.7558833032
 20
-33.5150778752
 30
0.0
 10
14.7528490026
 20
-33.5534385024
 30
0.0
 10
14.7373965946
 20
-33.6061637116
 30
0.0
 10
14.7113699454
 20
-33.64905426
 30
0.0
 10
14.6752436729
 20
-33.679820934
 30
0.0
 10
14.6308190107
 20
-33.6963468645
 30
0.0
 10
14.5808309985
 20
-33.6980018135
 30
0.0
 10
14.5275617
 20
-33.6855996529
 30
0.0
 10
14.4927626443
 20
-33.6695202744
 30
0.0
 10
14.4753684153
 20
-33.659479625
 30
0.0
 11
14.7558847057
 21
-33.4949078456
 31
0.0
 11
14.750507368
 21
-33.5551785276
 31
0.0
 11
14.7345770091
 21
-33.6069604129
 31
0.0
 11
14.708701752
 21
-33.6482592472
 31
0.0
 11
14.6738646949
 21
-33.6775176837
 31
0.0
 11
14.6313856824
 21
-33.693620747
 31
0.0
 11
14.5828907015
 21
-33.695931149
 31
0.0
 11
14.5302091602
 21
-33.6844367345
 31
0.0
 11
14.4753684153
 21
-33.659479625
 31
0.0
  0
SPLINE
  5
51F
100
AcDbEntity
  8
RACCORDO
100
AcDbSpline
 62
7
  6
CONTINUOUS
 70
0
 71
3
 72
12
 73
8
 74
6
 42
0.0000001
 43
0.0000001
 44
0.0000000001
 12
-0.5057253573
 22
0.2920463654
 32
0.0
 13
-0.0000644726
 23
0.5839941887
 33
0.0
 40
0.0
 40
0.0
 40
0.0
 40
0.0
 40
0.2368422949
 40
0.4991924767
 40
0.7618019242
 40
0.8853942365
 40
1.0
 40
1.0
 40
1.0
 40
1.0
 10
-21.7209295787
 20
-12.7601908094
 30
0.0
 10
-21.7608552968
 20
-12.737134499
 30
0.0
 10
-21.8364778517
 20
-12.6735984205
 30
0.0
 10
-21.9248622878
 20
-12.5533093611
 30
0.0
 10
-21.9766664052
 20
-12.4367567808
 30
0.0
 10
-21.9991721796
 20
-12.3417039676
 30
0.0
 10
-22.0037267499
 20
-12.2953136607
 30
0.0
 10
-22.0037292129
 20
-12.2730039607
 30
0.0
 11
-21.7209295787
 21
-12.7601908094
 31
0.0
 11
-21.8286279544
 21
-12.6734039002
 31
0.0
 11
-21.9200934037
 21
-12.5504906107
 31
0.0
 11
-21.9815318387
 21
-12.4099724907
 31
0.0
 11
-21.9979203785
 21
-12.3396805076
 31
0.0
 11
-22.0037292129
 21
-12.2730039607
 31
0.0
  0
SPLINE
  5
520
100
AcDbEntity
  8
RACCORDO
100
AcDbSpline
 62
7
  6
CONTINUOUS
 70
0
 71
3
 72
9
 73
5
 74
3
 42
0.0000001
 43
0.0000001
 44
0.0000000001
 12
-0.0290535392
 22
-0.0551073363
 32
0.0
 13
-0.0539576766
 23
-0.0311367274
 33
0.0
 40
0.0
 40
0.0
 40
0.0
 40
0.0
 40
0.277017043
 40
1.0
 40
1.0
 40
1.0
 40
1.0
 10
12.8512669804
 20
-30.1395528537
 30
0.0
 10
12.8485842052
 20
-30.1446414108
 30
0.0
 10
12.8381034048
 20
-30.1624914481
 30
0.0
 10
12.823348357
 20
-30.1784728585
 30
0.0
 10
12.8103448635
 20
-30.185976633
 30
0.0
 11
12.8512669804
 21
-30.1395528537
 31
0.0
 11
12.8424494854
 21
-30.1543875444
 31
0.0
 11
12.8103448635
 21
-30.185976633
 31
0.0
  0
SPLINE
  5
521
100
AcDbEntity
  8
RACCORDO
100
AcDbSpline
 62
7
  6
CONTINUOUS
 70
0
 71
3
 72
11
 73
7
 74
5
 42
0.0000001
 43
0.0000001
 44
0.0000000001
 12
-0.1261722059
 22
-0.072808724
 32
0.0
 13
-0.0964136199
 23
0.1092014182
 33
0.0
 40
0.0
 40
0.0
 40
0.0
 40
0.0
 40
0.2220361667
 40
0.4505038999
 40
0.7087907003
 40
1.0
 40
1.0
 40
1.0
 40
1.0
 10
12.8103448635
 20
-30.185976633
 30
0.0
 10
12.8010065992
 20
-30.1913653563
 30
0.0
 10
12.7789428719
 20
-30.1978651859
 30
0.0
 10
12.7443527971
 20
-30.1899679323
 30
0.0
 10
12.712114156
 20
-30.1694914353
 30
0.0
 10
12.693008227
 20
-30.1506512586
 30
0.0
 10
12.6836493794
 20
-30.1400511024
 30
0.0
 11
12.8103448635
 21
-30.185976633
 31
0.0
 11
12.7792769174
 21
-30.1949742104
 31
0.0
 11
12.7465974583
 21
-30.1886724663
 31
0.0
 11
12.7142882171
 21
-30.1693908991
 31
0.0
 11
12.6836493794
 21
-30.1400511024
 31
0.0
  0
SPLINE
  5
522
100
AcDbEntity
  8
RACCORDO
100
AcDbSpline
 62
7
  6
CONTINUOUS
 70
0
 71
3
 72
9
 73
5
 74
3
 42
0.0000001
 43
0.0000001
 44
0.0000000001
 12
-0.1258022839
 22
-0.0751721723
 32
0.0
 13
-0.1037487076
 23
-0.1035049555
 33
0.0
 40
0.0
 40
0.0
 40
0.0
 40
0.0
 40
0.2375582814
 40
1.0
 40
1.0
 40
1.0
 40
1.0
 10
-18.1301661553
 20
47.3638352687
 30
0.0
 10
-18.1401279467
 20
47.3578826781
 30
0.0
 10
-18.1811563075
 20
47.3313168787
 30
0.0
 10
-18.2185507315
 20
47.2993269719
 30
0.0
 10
-18.2449181791
 20
47.2730214732
 30
0.0
 11
-18.1301661553
 21
47.3638352687
 31
0.0
 11
-18.1594161231
 21
47.3449547231
 31
0.0
 11
-18.2449181791
 21
47.2730214732
 31
0.0
  0
SPLINE
  5
523
100
AcDbEntity
  8
RACCORDO
100
AcDbSpline
 62
7
  6
CONTINUOUS
 70
0
 71
3
 72
9
 73
5
 74
3
 42
0.0000001
 43
0.0000001
 44
0.0000000001
 12
-0.1440896839
 22
-0.0602425744
 32
0.0
 13
-0.1252946641
 23
-0.0932322472
 33
0.0
 40
0.0
 40
0.0
 40
0.0
 40
0.0
 40
0.24092834
 40
1.0
 40
1.0
 40
1.0
 40
1.0
 10
-18.1400814534
 20
47.3728467632
 30
0.0
 10
-18.1516532162
 20
47.3680087154
 30
0.0
 10
-18.1989888968
 20
47.3462828896
 30
0.0
 10
-18.2434374092
 20
47.3184533535
 30
0.0
 10
-18.2751399521
 20
47.2948633679
 30
0.0
 11
-18.1400814534
 21
47.3728467632
 31
0.0
 11
-18.1742946402
 21
47.3571856823
 31
0.0
 11
-18.2751399521
 21
47.2948633679
 31
0.0
  0
SPLINE
  5
524
100
AcDbEntity
  8
RACCORDO
100
AcDbSpline
 62
7
  6
CONTINUOUS
 70
0
 71
3
 72
9
 73
5
 74
3
 42
0.0000001
 43
0.0000001
 44
0.0000000001
 12
-0.1242085342
 22
-0.0946731593
 32
0.0
 13
-0.1433862242
 23
-0.0618963471
 33
0.0
 40
0.0
 40
0.0
 40
0.0
 40
0.0
 40
0.2409316862
 40
1.0
 40
1.0
 40
1.0
 40
1.0
 10
-18.3394202881
 20
47.7181111784
 30
0.0
 10
-18.3493955453
 20
47.7105079237
 30
0.0
 10
-18.3918760958
 20
47.680373975
 30
0.0
 10
-18.4382000791
 20
47.6557928559
 30
0.0
 10
-18.4744800589
 20
47.6401316706
 30
0.0
 11
-18.3394202881
 21
47.7181111784
 31
0.0
 11
-18.3700884705
 21
47.6963098086
 31
0.0
 11
-18.4744800589
 21
47.6401316706
 31
0.0
  0
SPLINE
  5
525
100
AcDbEntity
  8
RACCORDO
100
AcDbSpline
 62
7
  6
CONTINUOUS
 70
0
 71
3
 72
9
 73
5
 74
3
 42
0.0000001
 43
0.0000001
 44
0.0000000001
 12
-0.1279979636
 22
-0.0713676488
 32
0.0
 13
-0.1415101585
 23
-0.0381011157
 33
0.0
 40
0.0
 40
0.0
 40
0.0
 40
0.0
 40
0.237558507
 40
1.0
 40
1.0
 40
1.0
 40
1.0
 10
-18.3422658809
 20
47.7312027694
 30
0.0
 10
-18.3524015493
 20
47.7255514387
 30
0.0
 10
-18.3959211058
 20
47.7033008486
 30
0.0
 10
-18.4423215288
 20
47.6869095763
 30
0.0
 10
-18.4782859344
 20
47.6772262857
 30
0.0
 11
-18.3422658809
 21
47.7312027694
 31
0.0
 11
-18.37324101
 21
47.7153104698
 31
0.0
 11
-18.4782859344
 21
47.6772262857
 31
0.0
  0
SPLINE
  5
526
100
AcDbEntity
  8
RACCORDO
100
AcDbSpline
 62
7
  6
CONTINUOUS
 70
0
 71
3
 72
15
 73
11
 74
9
 42
0.0000001
 43
0.0000001
 44
0.0000000001
 12
0.0000238213
 22
-0.597984879
 32
0.0
 13
-0.5178420862
 23
0.2990409502
 33
0.0
 40
0.0
 40
0.0
 40
0.0
 40
0.0
 40
0.1446786948
 40
0.2748799313
 40
0.3916072275
 40
0.4999943582
 40
0.6083856293
 40
0.725122466
 40
0.8553266085
 40
1.0
 40
1.0
 40
1.0
 40
1.0
 10
12.9427493461
 20
27.7487246539
 30
0.0
 10
12.942750495
 20
27.7198860966
 30
0.0
 10
12.9388048544
 20
27.6649332894
 30
0.0
 10
12.9181548301
 20
27.5890089906
 30
0.0
 10
12.8821861526
 20
27.5267884857
 30
0.0
 10
12.8307258247
 20
27.4824193727
 30
0.0
 10
12.766562377
 20
27.460055499
 30
0.0
 10
12.6946914409
 20
27.4600357694
 30
0.0
 10
12.6186130543
 20
27.4801074853
 30
0.0
 10
12.5690441885
 20
27.5041564815
 30
0.0
 10
12.5440715315
 20
27.518577571
 30
0.0
 11
12.9427493461
 21
27.7487246539
 31
0.0
 11
12.9356746293
 21
27.6624987305
 31
0.0
 11
12.9141147501
 21
27.5876849785
 31
0.0
 11
12.8781297045
 21
27.5278746267
 31
0.0
 11
12.8286625866
 21
27.4859957373
 31
0.0
 11
12.7676524068
 21
27.4641115866
 31
0.0
 11
12.697856621
 21
27.4628680316
 31
0.0
 11
12.6222835979
 21
27.481600748
 31
0.0
 11
12.5440715315
 21
27.518577571
 31
0.0
  0
SPLINE
  5
527
100
AcDbEntity
  8
RACCORDO
100
AcDbSpline
 62
7
  6
CONTINUOUS
 70
0
 71
3
 72
9
 73
5
 74
3
 42
0.0000001
 43
0.0000001
 44
0.0000000001
 12
0.1563813851
 22
-0.090284346
 32
0.0
 13
0.1281480412
 23
-0.1272182387
 33
0.0
 40
0.0
 40
0.0
 40
0.0
 40
0.0
 40
0.2366293495
 40
1.0
 40
1.0
 40
1.0
 40
1.0
 10
12.5440715315
 20
65.7764342524
 30
0.0
 10
12.55640634
 20
65.7693129437
 30
0.0
 10
12.6074338806
 20
65.7373296165
 30
0.0
 10
12.6539699874
 20
65.6983696149
 30
0.0
 10
12.6865781386
 20
65.6659980583
 30
0.0
 11
12.5440715315
 21
65.7764342524
 31
0.0
 11
12.5803040766
 21
65.7537859078
 31
0.0
 11
12.6865781386
 21
65.6659980583
 31
0.0
  0
SPLINE
  5
528
100
AcDbEntity
  8
RACCORDO
100
AcDbSpline
 62
7
  6
CONTINUOUS
 70
0
 71
3
 72
10
 73
6
 74
4
 42
0.0000001
 43
0.0000001
 44
0.0000000001
 12
0.4592582815
 22
-0.4559260458
 32
0.0
 13
0.0000021875
 23
-0.6471373334
 33
0.0
 40
0.0
 40
0.0
 40
0.0
 40
0.0
 40
0.5173571193
 40
0.7703670028
 40
1.0
 40
1.0
 40
1.0
 40
1.0
 10
12.6865781386
 20
65.6659980583
 30
0.0
 10
12.7657783191
 20
65.5873725297
 30
0.0
 10
12.8612816828
 20
65.4450825607
 30
0.0
 10
12.9297979117
 20
65.2397954442
 30
0.0
 10
12.9427491787
 20
65.1354387175
 30
0.0
 10
12.9427493461
 20
65.0859040223
 30
0.0
 11
12.6865781386
 21
65.6659980583
 31
0.0
 11
12.8747856976
 21
65.3891051264
 31
0.0
 11
12.9258712085
 21
65.233546505
 31
0.0
 11
12.9427493461
 21
65.0859040223
 31
0.0
  0
SPLINE
  5
529
100
AcDbEntity
  8
RACCORDO
100
AcDbSpline
 62
7
  6
CONTINUOUS
 70
0
 71
3
 72
11
 73
7
 74
5
 42
0.0000001
 43
0.0000001
 44
0.0000000001
 12
0.3303340714
 22
0.1779756193
 32
0.0
 13
0.0024728007
 23
0.3752196757
 33
0.0
 40
0.0
 40
0.0
 40
0.0
 40
0.0
 40
0.2174002984
 40
0.4501302195
 40
0.7094857245
 40
1.0
 40
1.0
 40
1.0
 40
1.0
 10
15.0239182876
 20
24.1477920345
 30
0.0
 10
15.0478565295
 20
24.160689352
 30
0.0
 10
15.0929104599
 20
24.1966162045
 30
0.0
 10
15.141167899
 20
24.2726085952
 30
0.0
 10
15.1701679425
 20
24.3670452322
 30
0.0
 10
15.1761747899
 20
24.4360272917
 30
0.0
 10
15.1764142512
 20
24.4723628491
 30
0.0
 11
15.0239182876
 21
24.1477920345
 31
0.0
 11
15.0880084543
 21
24.1982585834
 31
0.0
 11
15.1359490057
 21
24.2712494279
 31
0.0
 11
15.1658166193
 21
24.3638701725
 31
0.0
 11
15.1764142512
 21
24.4723628491
 31
0.0
  0
SPLINE
  5
52A
100
AcDbEntity
  8
RACCORDO
100
AcDbSpline
 62
7
  6
CONTINUOUS
 70
0
 71
3
 72
15
 73
11
 74
9
 42
0.0000001
 43
0.0000001
 44
0.0000000001
 12
-0.0000387078
 22
0.5979848853
 32
0.0
 13
0.5178497191
 23
-0.2990277463
 33
0.0
 40
0.0
 40
0.0
 40
0.0
 40
0.0
 40
0.1446658674
 40
0.2748627245
 40
0.391594032
 40
0.4999831839
 40
0.6083724348
 40
0.7251052566
 40
0.8553137174
 40
1.0
 40
1.0
 40
1.0
 40
1.0
 10
-20.1905938533
 20
84.2166811274
 30
0.0
 10
-20.1905957199
 20
84.2455171281
 30
0.0
 10
-20.1866367056
 20
84.3004664867
 30
0.0
 10
-20.1659769087
 20
84.376383218
 30
0.0
 10
-20.1300203097
 20
84.4386098416
 30
0.0
 10
-20.0785666219
 20
84.4829885897
 30
0.0
 10
-20.0144081426
 20
84.5053629037
 30
0.0
 10
-19.9425364979
 20
84.5053962632
 30
0.0
 10
-19.8664564167
 20
84.4853123212
 30
0.0
 10
-19.8168912889
 20
84.461249948
 30
0.0
 10
-19.7919160387
 20
84.4468282103
 30
0.0
 11
-20.1905938533
 21
84.2166811274
 31
0.0
 11
-20.1835079576
 21
84.3028984374
 31
0.0
 11
-20.1619413313
 21
84.3777075202
 31
0.0
 11
-20.1259630443
 21
84.4375247379
 31
0.0
 11
-20.0765021854
 21
84.4794128908
 31
0.0
 11
-20.0154968774
 21
84.5013070446
 31
0.0
 11
-19.945703659
 21
84.5025599378
 31
0.0
 11
-19.8701299949
 21
84.483819072
 31
0.0
 11
-19.7919160387
 21
84.4468282103
 31
0.0
  0
SPLINE
  5
52B
100
AcDbEntity
  8
RACCORDO
100
AcDbSpline
 62
7
  6
CONTINUOUS
 70
0
 71
3
 72
11
 73
7
 74
5
 42
0.0000001
 43
0.0000001
 44
0.0000000001
 12
-0.1363190161
 22
0.0787088914
 32
0.0
 13
-0.0000316866
 23
0.1574101736
 33
0.0
 40
0.0
 40
0.0
 40
0.0
 40
0.0
 40
0.2895817376
 40
0.5491318165
 40
0.7822802582
 40
1.0
 40
1.0
 40
1.0
 40
1.0
 10
12.9427493461
 20
65.0859040223
 30
0.0
 10
12.929590847
 20
65.0935015749
 30
0.0
 10
12.9057118045
 20
65.1099610288
 30
0.0
 10
12.8771587299
 20
65.1399536082
 30
0.0
 10
12.8590954461
 20
65.173145957
 30
0.0
 10
12.8548861596
 20
65.1969626331
 30
0.0
 10
12.85488386
 20
65.2083864005
 30
0.0
 11
12.9427493461
 21
65.0859040223
 31
0.0
 11
12.9054725933
 21
65.1121388054
 31
0.0
 11
12.8777091504
 21
65.142111953
 31
0.0
 11
12.8606430539
 21
65.1746024709
 31
0.0
 11
12.85488386
 21
65.2083864005
 31
0.0
  0
SPLINE
  5
52C
100
AcDbEntity
  8
RACCORDO
100
AcDbSpline
 62
7
  6
CONTINUOUS
 70
0
 71
3
 72
11
 73
7
 74
5
 42
0.0000001
 43
0.0000001
 44
0.0000000001
 12
-0.0000000517
 22
-0.1573888098
 32
0.0
 13
0.1362846782
 23
-0.0787256244
 33
0.0
 40
0.0
 40
0.0
 40
0.0
 40
0.0
 40
0.2895872683
 40
0.5491386409
 40
0.7822847649
 40
1.0
 40
1.0
 40
1.0
 40
1.0
 10
12.5440715315
 20
65.7764342524
 30
0.0
 10
12.5440715265
 20
65.7612416539
 30
0.0
 10
12.5463850486
 20
65.7323355771
 30
0.0
 10
12.558079665
 20
65.6926162909
 30
0.0
 10
12.577789227
 20
65.6603806231
 30
0.0
 10
12.5963071178
 20
65.6448286125
 30
0.0
 10
12.6061975347
 20
65.6391153565
 30
0.0
 11
12.5440715315
 21
65.7764342524
 31
0.0
 11
12.548151167
 21
65.7310394067
 31
0.0
 11
12.5602238086
 21
65.6920136054
 31
0.0
 11
12.5798242521
 21
65.6609923929
 31
0.0
 11
12.6061975347
 21
65.6391153565
 31
0.0
  0
SPLINE
  5
52D
100
AcDbEntity
  8
RACCORDO
100
AcDbSpline
 62
7
  6
CONTINUOUS
 70
0
 71
3
 72
11
 73
7
 74
5
 42
0.0000001
 43
0.0000001
 44
0.0000000001
 12
0.0
 22
-0.157342478
 32
0.0
 13
0.1362077173
 23
-0.0787661927
 33
0.0
 40
0.0
 40
0.0
 40
0.0
 40
0.0
 40
0.2895781872
 40
0.5491322113
 40
0.7822857584
 40
1.0
 40
1.0
 40
1.0
 40
1.0
 10
-19.7919160387
 20
84.4468282103
 30
0.0
 10
-19.7919160387
 20
84.4316405605
 30
0.0
 10
-19.7896039294
 20
84.4027434178
 30
0.0
 10
-19.7779172559
 20
84.3630347882
 30
0.0
 10
-19.758221328
 20
84.330803917
 30
0.0
 10
-19.7397153913
 20
84.3152489361
 30
0.0
 10
-19.7298306047
 20
84.3095327622
 30
0.0
 11
-19.7919160387
 21
84.4468282103
 31
0.0
 11
-19.7878391879
 21
84.4014480202
 31
0.0
 11
-19.7757747339
 21
84.3624318373
 31
0.0
 11
-19.7561872024
 21
84.331413864
 31
0.0
 11
-19.7298306047
 21
84.3095327622
 31
0.0
  0
SPLINE
  5
52E
100
AcDbEntity
  8
RACCORDO
100
AcDbSpline
 62
7
  6
CONTINUOUS
 70
0
 71
3
 72
10
 73
6
 74
4
 42
0.0000001
 43
0.0000001
 44
0.0000000001
 12
0.3008557635
 22
-0.1737074046
 32
0.0
 13
0.335457116
 23
0.0903159797
 33
0.0
 40
0.0
 40
0.0
 40
0.0
 40
0.0
 40
0.2300845876
 40
0.483607702
 40
1.0
 40
1.0
 40
1.0
 40
1.0
 10
-20.1905938533
 20
84.2166811274
 30
0.0
 10
-20.1675197619
 20
84.2033586619
 30
0.0
 10
-20.1150579096
 20
84.1820172539
 30
0.0
 10
-20.0009676012
 20
84.1604307419
 30
0.0
 10
-19.9094188308
 20
84.1666301194
 30
0.0
 10
-19.8516763404
 20
84.1821762781
 30
0.0
 11
-20.1905938533
 21
84.2166811274
 31
0.0
 11
-20.1169864037
 21
84.1855193013
 31
0.0
 11
-20.0305562735
 21
84.1685794507
 31
0.0
 11
-19.8516763404
 21
84.1821762781
 31
0.0
  0
SPLINE
  5
52F
100
AcDbEntity
  8
RACCORDO
100
AcDbSpline
 62
7
  6
CONTINUOUS
 70
0
 71
3
 72
10
 73
6
 74
4
 42
0.0000001
 43
0.0000001
 44
0.0000000001
 12
0.3008547198
 22
-0.1737097446
 32
0.0
 13
0.3354567303
 23
0.0903184363
 33
0.0
 40
0.0
 40
0.0
 40
0.0
 40
0.0
 40
0.2300849491
 40
0.4836079614
 40
1.0
 40
1.0
 40
1.0
 40
1.0
 10
-20.1905938533
 20
46.879501759
 30
0.0
 10
-20.1675198057
 20
46.866179093
 30
0.0
 10
-20.1150579837
 20
46.8448373614
 30
0.0
 10
-20.000967612
 20
46.8232506193
 30
0.0
 10
-19.9094187354
 20
46.8294503359
 30
0.0
 10
-19.8516763404
 20
46.8449969097
 30
0.0
 11
-20.1905938533
 21
46.879501759
 31
0.0
 11
-20.1169864029
 21
46.8483394555
 31
0.0
 11
-20.0305562723
 21
46.8313994407
 31
0.0
 11
-19.8516763404
 21
46.8449969097
 31
0.0
  0
SPLINE
  5
530
100
AcDbEntity
  8
RACCORDO
100
AcDbSpline
 62
7
  6
CONTINUOUS
 70
0
 71
3
 72
11
 73
7
 74
5
 42
0.0000001
 43
0.0000001
 44
0.0000000001
 12
0.0000141053
 22
-0.1574089984
 32
0.0
 13
0.1363179965
 23
-0.078708302
 33
0.0
 40
0.0
 40
0.0
 40
0.0
 40
0.0
 40
0.2177586874
 40
0.4509006419
 40
0.7104563331
 40
1.0
 40
1.0
 40
1.0
 40
1.0
 10
-22.091583906
 20
45.8215045375
 30
0.0
 10
-22.0915828821
 20
45.8100788119
 30
0.0
 10
-22.0873876895
 20
45.7862579202
 30
0.0
 10
-22.0693175123
 20
45.7530645029
 30
0.0
 10
-22.040761105
 20
45.723080005
 30
0.0
 10
-22.0168858837
 20
45.7066186739
 30
0.0
 10
-22.0037292129
 20
45.6990221771
 30
0.0
 11
-22.091583906
 21
45.8215045375
 31
0.0
 11
-22.085834448
 21
45.7877129913
 31
0.0
 11
-22.0687679352
 21
45.7552241557
 31
0.0
 11
-22.0410001004
 21
45.7252542891
 31
0.0
 11
-22.0037292129
 21
45.6990221771
 31
0.0
  0
SPLINE
  5
531
100
AcDbEntity
  8
RACCORDO
100
AcDbSpline
 62
7
  6
CONTINUOUS
 70
0
 71
3
 72
10
 73
6
 74
4
 42
0.0000001
 43
0.0000001
 44
0.0000000001
 12
0.0000001141
 22
0.3473993299
 32
0.0
 13
0.2459370819
 23
0.2453594223
 33
0.0
 40
0.0
 40
0.0
 40
0.0
 40
0.0
 40
0.2300791698
 40
0.4836010627
 40
1.0
 40
1.0
 40
1.0
 40
1.0
 10
-19.7919160387
 20
46.1889715289
 30
0.0
 10
-19.7919160299
 20
46.2156146453
 30
0.0
 10
-19.7841661805
 20
46.2717171758
 30
0.0
 10
-19.7458141257
 20
46.3813139287
 30
0.0
 10
-19.6946713157
 20
46.4574973463
 30
0.0
 10
-19.6523374331
 20
46.4997317947
 30
0.0
 11
-19.7919160387
 21
46.1889715289
 31
0.0
 11
-19.7820979028
 21
46.2682955801
 31
0.0
 11
-19.7535523692
 21
46.3516146354
 31
0.0
 11
-19.6523374331
 21
46.4997317947
 31
0.0
  0
SPLINE
  5
532
100
AcDbEntity
  8
RACCORDO
100
AcDbSpline
 62
7
  6
CONTINUOUS
 70
0
 71
3
 72
10
 73
6
 74
4
 42
0.0000001
 43
0.0000001
 44
0.0000000001
 12
-0.0
 22
0.3473993418
 32
0.0
 13
0.2459371687
 23
0.2453593523
 33
0.0
 40
0.0
 40
0.0
 40
0.0
 40
0.0
 40
0.2300791865
 40
0.4836010752
 40
1.0
 40
1.0
 40
1.0
 40
1.0
 10
12.5440715315
 20
27.518577571
 30
0.0
 10
12.5440715315
 20
27.5452206903
 30
0.0
 10
12.5518213677
 20
27.6013232269
 30
0.0
 10
12.590173415
 20
27.7109199874
 30
0.0
 10
12.6413162406
 20
27.7871034015
 30
0.0
 10
12.6836501371
 20
27.8293378367
 30
0.0
 11
12.5440715315
 21
27.518577571
 31
0.0
 11
12.5538896489
 21
27.5979016331
 31
0.0
 11
12.5824351763
 21
27.6812206921
 31
0.0
 11
12.6836501371
 21
27.8293378367
 31
0.0
  0
SPLINE
  5
533
100
AcDbEntity
  8
RACCORDO
100
AcDbSpline
 62
7
  6
CONTINUOUS
 70
0
 71
3
 72
11
 73
7
 74
5
 42
0.0000001
 43
0.0000001
 44
0.0000000001
 12
-0.1363070506
 22
0.0787020424
 32
0.0
 13
-0.0000536147
 23
0.1573963806
 33
0.0
 40
0.0
 40
0.0
 40
0.0
 40
0.0
 40
0.2895790523
 40
0.5491299326
 40
0.7822805821
 40
1.0
 40
1.0
 40
1.0
 40
1.0
 10
12.9427493461
 20
27.7487246539
 30
0.0
 10
12.929592124
 20
27.7563214749
 30
0.0
 10
12.9057151756
 20
27.7727792405
 30
0.0
 10
12.8771636668
 20
27.8027681905
 30
0.0
 10
12.859099589
 20
27.8359563101
 30
0.0
 10
12.8548877548
 20
27.8597703455
 30
0.0
 10
12.8548838638
 20
27.871193095
 30
0.0
 11
12.9427493461
 21
27.7487246539
 31
0.0
 11
12.9054759583
 21
27.7749565469
 31
0.0
 11
12.8777137766
 21
27.804926157
 31
0.0
 11
12.8606465919
 21
27.8374128649
 31
0.0
 11
12.8548838638
 21
27.871193095
 31
0.0
  0
SPLINE
  5
534
100
AcDbEntity
  8
RACCORDO
100
AcDbSpline
 62
7
  6
CONTINUOUS
 70
0
 71
3
 72
11
 73
7
 74
5
 42
0.0000001
 43
0.0000001
 44
0.0000000001
 12
-0.7171285941
 22
0.4140697132
 32
0.0
 13
0.0000544718
 23
0.8280864356
 33
0.0
 40
0.0
 40
0.0
 40
0.0
 40
0.0
 40
0.2369489663
 40
0.5000027919
 40
0.7630483128
 40
1.0
 40
1.0
 40
1.0
 40
1.0
 10
-19.7919160387
 20
46.1889715289
 30
0.0
 10
-19.8485569984
 20
46.2216759924
 30
0.0
 10
-19.9571019974
 20
46.3102453934
 30
0.0
 10
-20.0838050311
 20
46.4808029825
 30
0.0
 10
-20.1681338135
 20
46.6758138032
 30
0.0
 10
-20.1905981557
 20
46.8140962663
 30
0.0
 10
-20.1905938533
 20
46.879501759
 30
0.0
 11
-19.7919160387
 21
46.1889715289
 31
0.0
 11
-19.9457036635
 21
46.3108295967
 31
0.0
 11
-20.076502178
 21
46.4850197978
 31
0.0
 11
-20.1619413077
 21
46.6853885495
 31
0.0
 11
-20.1905938533
 21
46.879501759
 31
0.0
  0
SPLINE
  5
535
100
AcDbEntity
  8
RACCORDO
100
AcDbSpline
 62
7
  6
CONTINUOUS
 70
0
 71
3
 72
11
 73
7
 74
5
 42
0.0000001
 43
0.0000001
 44
0.0000000001
 12
0.000014108
 22
-0.157408994
 32
0.0
 13
0.1363179944
 23
-0.0787082969
 33
0.0
 40
0.0
 40
0.0
 40
0.0
 40
0.0
 40
0.2177586882
 40
0.4509006427
 40
0.7104563324
 40
1.0
 40
1.0
 40
1.0
 40
1.0
 10
-22.091583906
 20
87.6134063298
 30
0.0
 10
-22.0915828819
 20
87.6019806045
 30
0.0
 10
-22.0873876891
 20
87.5781597134
 30
0.0
 10
-22.0693175116
 20
87.5449662975
 30
0.0
 10
-22.0407611045
 20
87.514981801
 30
0.0
 10
-22.0168858835
 20
87.4985204709
 30
0.0
 10
-22.0037292129
 20
87.4909239746
 30
0.0
 11
-22.091583906
 21
87.6134063298
 31
0.0
 11
-22.0858344476
 21
87.5796147845
 31
0.0
 11
-22.0687679345
 21
87.5471259501
 31
0.0
 11
-22.0410001001
 21
87.5171560852
 31
0.0
 11
-22.0037292129
 21
87.4909239746
 31
0.0
  0
SPLINE
  5
536
100
AcDbEntity
  8
RACCORDO
100
AcDbSpline
 62
7
  6
CONTINUOUS
 70
0
 71
3
 72
13
 73
9
 74
7
 42
0.0000001
 43
0.0000001
 44
0.0000000001
 12
-0.0662090449
 22
0.1972123061
 32
0.0
 13
0.2078764784
 23
-0.0079812929
 33
0.0
 40
0.0
 40
0.0
 40
0.0
 40
0.0
 40
0.279534151
 40
0.5136620017
 40
0.6222252232
 40
0.7348380503
 40
0.8596282997
 40
1.0
 40
1.0
 40
1.0
 40
1.0
 10
-19.851676079
 20
84.1821751689
 30
0.0
 10
-19.8578453087
 20
84.2005510271
 30
0.0
 10
-19.8663612052
 20
84.2353987757
 30
0.0
 10
-19.8608556663
 20
84.2804124009
 30
0.0
 10
-19.8417651996
 20
84.3064424694
 30
0.0
 10
-19.8212490239
 20
84.3197639464
 30
0.0
 10
-19.795667921
 20
84.3266945989
 30
0.0
 10
-19.7771706192
 20
84.327444017
 30
0.0
 10
-19.767443961
 20
84.3270705678
 30
0.0
 11
-19.851676079
 21
84.1821751689
 31
0.0
 11
-19.8632459876
 21
84.2391639507
 31
0.0
 11
-19.8544531261
 21
84.2870692165
 31
0.0
 11
-19.8410092802
 21
84.3052163012
 31
0.0
 11
-19.8215216899
 21
84.318218188
 31
0.0
 11
-19.796603023
 21
84.3254972891
 31
0.0
 11
-19.767443961
 21
84.3270705678
 31
0.0
  0
SPLINE
  5
537
100
AcDbEntity
  8
RACCORDO
100
AcDbSpline
 62
7
  6
CONTINUOUS
 70
0
 71
3
 72
11
 73
7
 74
5
 42
0.0000001
 43
0.0000001
 44
0.0000000001
 12
-0.4310685118
 22
0.1088707109
 32
0.0
 13
0.1215914924
 23
0.4276545364
 33
0.0
 40
0.0
 40
0.0
 40
0.0
 40
0.0
 40
0.2417492733
 40
0.5000082522
 40
0.7582667077
 40
1.0
 40
1.0
 40
1.0
 40
1.0
 10
-19.6523470609
 20
46.4997349562
 30
0.0
 10
-19.687083894
 20
46.5085080946
 30
0.0
 10
-19.7566599891
 20
46.5390408465
 30
0.0
 10
-19.8357840138
 20
46.624008874
 30
0.0
 10
-19.8697490182
 20
46.7350056216
 30
0.0
 10
-19.8614736723
 20
46.8105386046
 30
0.0
 10
-19.8516761017
 20
46.8449980509
 30
0.0
 11
-19.6523470609
 21
46.4997349562
 31
0.0
 11
-19.7502949617
 21
46.5439927075
 31
0.0
 11
-19.8280937998
 21
46.6284419122
 31
0.0
 11
-19.8623060204
 21
46.7380493842
 31
0.0
 11
-19.8516761017
 21
46.8449980509
 31
0.0
  0
SPLINE
  5
538
100
AcDbEntity
  8
RACCORDO
100
AcDbSpline
 62
7
  6
CONTINUOUS
 70
0
 71
3
 72
9
 73
5
 74
3
 42
0.0000001
 43
0.0000001
 44
0.0000000001
 12
-0.0245012758
 22
-0.4136068379
 32
0.0
 13
0.370913549
 23
-0.1846457907
 33
0.0
 40
0.0
 40
0.0
 40
0.0
 40
0.0
 40
0.4999981152
 40
1.0
 40
1.0
 40
1.0
 40
1.0
 10
-18.4744801944
 20
47.6401044349
 30
0.0
 10
-18.478563725
 20
47.5711702218
 30
0.0
 10
-18.4396294337
 20
47.4301140025
 30
0.0
 10
-18.3369603654
 20
47.3256410389
 30
0.0
 10
-18.2751412075
 20
47.2948666244
 30
0.0
 11
-18.4744801944
 21
47.6401044349
 31
0.0
 11
-18.4236960063
 21
47.4392602791
 31
0.0
 11
-18.2751412075
 21
47.2948666244
 31
0.0
  0
SPLINE
  5
539
100
AcDbEntity
  8
RACCORDO
100
AcDbSpline
 62
7
  6
CONTINUOUS
 70
0
 71
3
 72
10
 73
6
 74
4
 42
0.0000001
 43
0.0000001
 44
0.0000000001
 12
0.1828507333
 22
-0.3543641519
 32
0.0
 13
0.2144009064
 23
-0.336215101
 33
0.0
 40
0.0
 40
0.0
 40
0.0
 40
0.0
 40
0.2273651443
 40
0.5000028679
 40
1.0
 40
1.0
 40
1.0
 40
1.0
 10
-18.3394203841
 20
47.7181112293
 30
0.0
 10
-18.325562423
 20
47.6912545438
 30
0.0
 10
-18.2937720247
 20
47.6328766702
 30
0.0
 10
-18.2283797502
 20
47.517163066
 30
0.0
 10
-18.1758147562
 20
47.428881643
 30
0.0
 10
-18.1400814768
 20
47.3728461143
 30
0.0
 11
-18.3394203841
 21
47.7181112293
 31
0.0
 11
-18.2964631498
 21
47.6382701508
 31
0.0
 11
-18.2429932074
 21
47.5436114661
 31
0.0
 11
-18.1400814768
 21
47.3728461143
 31
0.0
  0
SPLINE
  5
53A
100
AcDbEntity
  8
RACCORDO
100
AcDbSpline
 62
7
  6
CONTINUOUS
 70
0
 71
3
 72
9
 73
5
 74
3
 42
0.0000001
 43
0.0000001
 44
0.0000000001
 12
0.007213303
 22
-0.0113899398
 32
0.0
 13
0.0118511902
 23
-0.0064274226
 33
0.0
 40
0.0
 40
0.0
 40
0.0
 40
0.0
 40
0.2343894454
 40
1.0
 40
1.0
 40
1.0
 40
1.0
 10
-18.1400814768
 20
47.3728461143
 30
0.0
 10
-18.1395179027
 20
47.3719562204
 30
0.0
 10
-18.1368621135
 20
47.3683186663
 30
0.0
 10
-18.1331906207
 20
47.3654755696
 30
0.0
 10
-18.1301661553
 20
47.3638352687
 30
0.0
 11
-18.1400814768
 21
47.3728461143
 31
0.0
 11
-18.1382171237
 21
47.370294658
 31
0.0
 11
-18.1301661553
 21
47.3638352687
 31
0.0
  0
SPLINE
  5
53B
100
AcDbEntity
  8
RACCORDO
100
AcDbSpline
 62
7
  6
CONTINUOUS
 70
0
 71
3
 72
9
 73
5
 74
3
 42
0.0000001
 43
0.0000001
 44
0.0000000001
 12
-0.0003312848
 22
-0.0134726882
 32
0.0
 13
0.0061959692
 23
-0.0119680008
 33
0.0
 40
0.0
 40
0.0
 40
0.0
 40
0.0
 40
0.2685734322
 40
1.0
 40
1.0
 40
1.0
 40
1.0
 10
-18.3422658809
 20
47.7312027694
 30
0.0
 10
-18.342295539
 20
47.729996634
 30
0.0
 10
-18.3421545548
 20
47.7255057518
 30
0.0
 10
-18.3409310163
 20
47.7210291339
 30
0.0
 10
-18.3394203841
 20
47.7181112293
 30
0.0
 11
-18.3422658809
 21
47.7312027694
 31
0.0
 11
-18.3421417233
 21
47.7275853996
 31
0.0
 11
-18.3394203841
 21
47.7181112293
 31
0.0
  0
SPLINE
  5
53C
100
AcDbEntity
  8
RACCORDO
100
AcDbSpline
 62
7
  6
CONTINUOUS
 70
0
 71
3
 72
11
 73
7
 74
5
 42
0.0000001
 43
0.0000001
 44
0.0000000001
 12
-0.0068243301
 22
1.024860587
 32
0.0
 13
-0.8841392067
 23
0.5183470434
 33
0.0
 40
0.0
 40
0.0
 40
0.0
 40
0.0
 40
0.2370060342
 40
0.4999938366
 40
0.7629849612
 40
1.0
 40
1.0
 40
1.0
 40
1.0
 10
15.1764142512
 20
66.2642646466
 30
0.0
 10
15.1758751154
 20
66.3452306944
 30
0.0
 10
15.1445987747
 20
66.5159305879
 30
0.0
 10
15.0382350725
 20
66.755941196
 30
0.0
 10
14.8835591528
 20
66.9680613949
 30
0.0
 10
14.7513663209
 20
67.0805034666
 30
0.0
 10
14.6815148914
 20
67.1214554815
 30
0.0
 11
15.1764142512
 21
66.2642646466
 31
0.0
 11
15.1375901606
 21
66.504045409
 31
0.0
 11
15.0299097073
 21
66.7511330776
 31
0.0
 11
14.8697639704
 21
66.9679338486
 31
0.0
 11
14.6815148914
 21
67.1214554815
 31
0.0
  0
SPLINE
  5
53D
100
AcDbEntity
  8
RACCORDO
100
AcDbSpline
 62
7
  6
CONTINUOUS
 70
0
 71
3
 72
11
 73
7
 74
5
 42
0.0000001
 43
0.0000001
 44
0.0000000001
 12
-0.3262172695
 22
0.1854893057
 32
0.0
 13
-0.3193340888
 23
-0.1971033464
 33
0.0
 40
0.0
 40
0.0
 40
0.0
 40
0.0
 40
0.2905184574
 40
0.5498765043
 40
0.7826053532
 40
1.0
 40
1.0
 40
1.0
 40
1.0
 10
-21.5124997588
 20
88.019425923
 30
0.0
 10
-21.5440904715
 20
88.037388612
 30
0.0
 10
-21.6068397599
 20
88.066683452
 30
0.0
 10
-21.7031338326
 20
88.0887929867
 30
0.0
 10
-21.7930824493
 20
88.0850003239
 30
0.0
 10
-21.8467283725
 20
88.063945924
 30
0.0
 10
-21.8698688797
 20
88.0496628532
 30
0.0
 11
-21.5124997588
 21
88.019425923
 31
0.0
 11
-21.6117659593
 21
88.0645025615
 31
0.0
 11
-21.7069213148
 21
88.0849527154
 31
0.0
 11
-21.7941119962
 21
88.0799332554
 31
0.0
 11
-21.8698688797
 21
88.0496628532
 31
0.0
  0
SPLINE
  5
53E
100
AcDbEntity
  8
RACCORDO
100
AcDbSpline
 62
7
  6
CONTINUOUS
 70
0
 71
3
 72
11
 73
7
 74
5
 42
0.0000001
 43
0.0000001
 44
0.0000000001
 12
-0.3738480846
 22
-0.223389988
 32
0.0
 13
0.000000011
 23
-0.4355060012
 33
0.0
 40
0.0
 40
0.0
 40
0.0
 40
0.0
 40
0.2383260036
 40
0.5010975909
 40
0.7632734208
 40
1.0
 40
1.0
 40
1.0
 40
1.0
 10
14.6815148904
 20
67.1214554821
 30
0.0
 10
14.6518156505
 20
67.1037089344
 30
0.0
 10
14.5957611741
 20
67.0555837562
 30
0.0
 10
14.5304081689
 20
66.9651112994
 30
0.0
 10
14.48582654
 20
66.8630487166
 30
0.0
 10
14.4730850707
 20
66.7905722204
 30
0.0
 10
14.4730850715
 20
66.7562069384
 30
0.0
 11
14.6815148904
 21
67.1214554821
 31
0.0
 11
14.6014701939
 21
67.0553819636
 31
0.0
 11
14.5339205572
 21
66.963006423
 31
0.0
 11
14.488882448
 21
66.8580852793
 31
0.0
 11
14.4730850715
 21
66.7562069384
 31
0.0
  0
SPLINE
  5
53F
100
AcDbEntity
  8
RACCORDO
100
AcDbSpline
 62
7
  6
CONTINUOUS
 70
0
 71
3
 72
11
 73
7
 74
5
 42
0.0000001
 43
0.0000001
 44
0.0000000001
 12
-0.3738480757
 22
-0.2233899999
 32
0.0
 13
0.0000000017
 23
-0.4355059997
 33
0.0
 40
0.0
 40
0.0
 40
0.0
 40
0.0
 40
0.2383260021
 40
0.5010975899
 40
0.76327342
 40
1.0
 40
1.0
 40
1.0
 40
1.0
 10
-21.5124997574
 20
88.0194259222
 30
0.0
 10
-21.5421989965
 20
88.0016793737
 30
0.0
 10
-21.5982534716
 20
87.953554195
 30
0.0
 10
-21.6636064777
 20
87.8630817396
 30
0.0
 10
-21.708188108
 20
87.7610191577
 30
0.0
 10
-21.7209295788
 20
87.6885426619
 30
0.0
 10
-21.7209295787
 20
87.6541773799
 30
0.0
 11
-21.5124997574
 21
88.0194259222
 31
0.0
 11
-21.5925444521
 21
87.953352403
 31
0.0
 11
-21.6600940895
 21
87.8609768632
 31
0.0
 11
-21.7051322002
 21
87.7560557205
 31
0.0
 11
-21.7209295787
 21
87.6541773799
 31
0.0
  0
SPLINE
  5
540
100
AcDbEntity
  8
RACCORDO
100
AcDbSpline
 62
7
  6
CONTINUOUS
 70
0
 71
3
 72
11
 73
7
 74
5
 42
0.0000001
 43
0.0000001
 44
0.0000000001
 12
-0.380376472
 22
-0.21208902
 32
0.0
 13
-0.3771557076
 23
0.2177649767
 33
0.0
 40
0.0
 40
0.0
 40
0.0
 40
0.0
 40
0.2383228673
 40
0.5010914229
 40
0.763267564
 40
1.0
 40
1.0
 40
1.0
 40
1.0
 10
15.1764142512
 20
66.264264645
 30
0.0
 10
15.1461967807
 20
66.2474160906
 30
0.0
 10
15.0764929834
 20
66.2229315419
 30
0.0
 10
14.9654650757
 20
66.2115693724
 30
0.0
 10
14.8547842507
 20
66.2239932963
 30
0.0
 10
14.7856463688
 20
66.2491995931
 30
0.0
 10
14.7558847057
 20
66.2663836042
 30
0.0
 11
15.1764142512
 21
66.264264645
 31
0.0
 11
15.0791725822
 21
66.2279771594
 31
0.0
 11
14.9653988864
 21
66.2156640395
 31
0.0
 11
14.852014705
 21
66.2291217644
 31
0.0
 11
14.7558847057
 21
66.2663836042
 31
0.0
  0
SPLINE
  5
541
100
AcDbEntity
  8
RACCORDO
100
AcDbSpline
 62
7
  6
CONTINUOUS
 70
0
 71
3
 72
11
 73
7
 74
5
 42
0.0000001
 43
0.0000001
 44
0.0000000001
 12
-0.3803764778
 22
-0.2120890063
 32
0.0
 13
-0.3771557109
 23
0.2177649678
 33
0.0
 40
0.0
 40
0.0
 40
0.0
 40
0.0
 40
0.2383228673
 40
0.5010914248
 40
0.7632675667
 40
1.0
 40
1.0
 40
1.0
 40
1.0
 10
15.1764142512
 20
24.4723628502
 30
0.0
 10
15.1461967802
 20
24.4555142968
 30
0.0
 10
15.0764929827
 20
24.4310297494
 30
0.0
 10
14.9654650753
 20
24.4196675787
 30
0.0
 10
14.8547842505
 20
24.4320915012
 30
0.0
 10
14.7856463688
 20
24.4572977964
 30
0.0
 10
14.7558847057
 20
24.4744818067
 30
0.0
 11
15.1764142512
 21
24.4723628502
 31
0.0
 11
15.0791725819
 21
24.4360753665
 31
0.0
 11
14.9653988857
 21
24.4237622458
 31
0.0
 11
14.8520147043
 21
24.4372199692
 31
0.0
 11
14.7558847057
 21
24.4744818067
 31
0.0
  0
SPLINE
  5
542
100
AcDbEntity
  8
RACCORDO
100
AcDbSpline
 62
7
  6
CONTINUOUS
 70
0
 71
3
 72
9
 73
5
 74
3
 42
0.0000001
 43
0.0000001
 44
0.0000000001
 12
0.0000527323
 22
-0.0373502916
 32
0.0
 13
0.0077640379
 23
-0.0365344601
 33
0.0
 40
0.0
 40
0.0
 40
0.0
 40
0.0
 40
0.2547387322
 40
1.0
 40
1.0
 40
1.0
 40
1.0
 10
-18.4782859352
 20
47.6772262833
 30
0.0
 10
-18.4782814576
 20
47.6740547613
 30
0.0
 10
-18.477927611
 20
47.661609247
 30
0.0
 10
-18.4764050093
 20
47.6491826115
 30
0.0
 10
-18.4744762637
 20
47.6401067055
 30
0.0
 11
-18.4782859352
 21
47.6772262833
 31
0.0
 11
-18.4780253381
 21
47.6677152773
 31
0.0
 11
-18.4744762637
 21
47.6401067055
 31
0.0
  0
SPLINE
  5
543
100
AcDbEntity
  8
RACCORDO
100
AcDbSpline
 62
7
  6
CONTINUOUS
 70
0
 71
3
 72
11
 73
7
 74
5
 42
0.0000001
 43
0.0000001
 44
0.0000000001
 12
-0.1362924929
 22
0.0787097748
 32
0.0
 13
-0.0000000006
 23
0.1573876497
 33
0.0
 40
0.0
 40
0.0
 40
0.0
 40
0.0
 40
0.2177541405
 40
0.4508937694
 40
0.7104507771
 40
1.0
 40
1.0
 40
1.0
 40
1.0
 10
14.535216479
 20
24.1739188469
 30
0.0
 10
14.5253237274
 20
24.1796319734
 30
0.0
 10
14.5067951406
 20
24.1951738909
 30
0.0
 10
14.4870881001
 20
24.227416064
 30
0.0
 10
14.4754021383
 20
24.2671341992
 30
0.0
 10
14.4730850716
 20
24.2960379108
 30
0.0
 10
14.4730850715
 20
24.3112284014
 30
0.0
 11
14.535216479
 21
24.1739188469
 31
0.0
 11
14.5088317343
 21
24.1957912581
 31
0.0
 11
14.4892329541
 21
24.2268119924
 31
0.0
 11
14.4771653404
 21
24.2658399619
 31
0.0
 11
14.4730850715
 21
24.3112284014
 31
0.0
  0
SPLINE
  5
544
100
AcDbEntity
  8
RACCORDO
100
AcDbSpline
 62
7
  6
CONTINUOUS
 70
0
 71
3
 72
11
 73
7
 74
5
 42
0.0000001
 43
0.0000001
 44
0.0000000001
 12
-0.1362924929
 22
0.0787097779
 32
0.0
 13
-0.000000004
 23
0.1573876512
 33
0.0
 40
0.0
 40
0.0
 40
0.0
 40
0.0
 40
0.2177541423
 40
0.4508937728
 40
0.710450779
 40
1.0
 40
1.0
 40
1.0
 40
1.0
 10
-21.6587981692
 20
45.0718892873
 30
0.0
 10
-21.6686909208
 20
45.077602414
 30
0.0
 10
-21.6872195078
 20
45.0931443319
 30
0.0
 10
-21.7069265486
 20
45.1253865053
 30
0.0
 10
-21.7186125112
 20
45.1651046406
 30
0.0
 10
-21.7209295783
 20
45.1940083523
 30
0.0
 10
-21.7209295787
 20
45.2091988429
 30
0.0
 11
-21.6587981692
 21
45.0718892873
 31
0.0
 11
-21.6851829142
 21
45.0937616991
 31
0.0
 11
-21.7047816947
 21
45.1247824338
 31
0.0
 11
-21.716849309
 21
45.1638104033
 31
0.0
 11
-21.7209295787
 21
45.2091988429
 31
0.0
  0
SPLINE
  5
545
100
AcDbEntity
  8
RACCORDO
100
AcDbSpline
 62
7
  6
CONTINUOUS
 70
0
 71
3
 72
15
 73
11
 74
9
 42
0.0000001
 43
0.0000001
 44
0.0000000001
 12
0.0000290007
 22
0.4170681701
 32
0.0
 13
0.3612088352
 23
-0.2085042848
 33
0.0
 40
0.0
 40
0.0
 40
0.0
 40
0.0
 40
0.145084411
 40
0.2749838777
 40
0.3918358314
 40
0.5009156004
 40
0.6098397432
 40
0.7262475406
 40
0.855533188
 40
1.0
 40
1.0
 40
1.0
 40
1.0
 10
-22.0037292129
 20
87.4909239746
 30
0.0
 10
-22.0037278103
 20
87.5110940046
 30
0.0
 10
-22.0006935097
 20
87.5494546323
 30
0.0
 10
-21.9852411011
 20
87.6021798422
 30
0.0
 10
-21.959214451
 20
87.645070391
 30
0.0
 10
-21.9230881773
 20
87.6758370648
 30
0.0
 10
-21.8786635137
 20
87.6923629943
 30
0.0
 10
-21.8286755002
 20
87.6940179421
 30
0.0
 10
-21.7754062003
 20
87.6816157796
 30
0.0
 10
-21.7406071443
 20
87.6655363993
 30
0.0
 10
-21.7232129147
 20
87.6554957495
 30
0.0
 11
-22.0037292129
 21
87.4909239746
 31
0.0
 11
-21.998351875
 21
87.5511946576
 31
0.0
 11
-21.9824215155
 21
87.6029765436
 31
0.0
 11
-21.9565462576
 21
87.6442753781
 31
0.0
 11
-21.9217091993
 21
87.6735338143
 31
0.0
 11
-21.8792301855
 21
87.6896368768
 31
0.0
 11
-21.8307352033
 21
87.6919472776
 31
0.0
 11
-21.7780536608
 21
87.6804528611
 31
0.0
 11
-21.7232129147
 21
87.6554957495
 31
0.0
  0
SPLINE
  5
546
100
AcDbEntity
  8
RACCORDO
100
AcDbSpline
 62
7
  6
CONTINUOUS
 70
0
 71
3
 72
12
 73
8
 74
6
 42
0.0000001
 43
0.0000001
 44
0.0000000001
 12
0.505725355
 22
-0.2920463641
 32
0.0
 13
0.0000644726
 23
-0.5839941861
 33
0.0
 40
0.0
 40
0.0
 40
0.0
 40
0.0
 40
0.2368422947
 40
0.4991924762
 40
0.7618019237
 40
0.8853942362
 40
1.0
 40
1.0
 40
1.0
 40
1.0
 10
14.4730850715
 20
66.7562069384
 30
0.0
 10
14.5130107894
 20
66.7331506281
 30
0.0
 10
14.588633344
 20
66.6696145501
 30
0.0
 10
14.6770177798
 20
66.5493254914
 30
0.0
 10
14.7288218973
 20
66.4327729118
 30
0.0
 10
14.751327672
 20
66.3377200991
 30
0.0
 10
14.7558822427
 20
66.2913297922
 30
0.0
 10
14.7558847057
 20
66.2690200923
 30
0.0
 11
14.4730850715
 21
66.7562069384
 31
0.0
 11
14.5807834468
 21
66.6694200298
 31
0.0
 11
14.6722488958
 21
66.5465067411
 31
0.0
 11
14.7336873309
 21
66.4059886219
 31
0.0
 11
14.750075871
 21
66.3356966391
 31
0.0
 11
14.7558847057
 21
66.2690200923
 31
0.0
  0
SPLINE
  5
547
100
AcDbEntity
  8
RACCORDO
100
AcDbSpline
 62
7
  6
CONTINUOUS
 70
0
 71
3
 72
15
 73
11
 74
9
 42
0.0000001
 43
0.0000001
 44
0.0000000001
 12
-0.0000290007
 22
-0.4170681613
 32
0.0
 13
-0.3612088275
 23
0.2085042803
 33
0.0
 40
0.0
 40
0.0
 40
0.0
 40
0.0
 40
0.1450844117
 40
0.2749838793
 40
0.3918358339
 40
0.5009156036
 40
0.6098397465
 40
0.7262475433
 40
0.8555331895
 40
1.0
 40
1.0
 40
1.0
 40
1.0
 10
14.7558847057
 20
24.4744818067
 30
0.0
 10
14.7558833032
 20
24.4543117771
 30
0.0
 10
14.7528490026
 20
24.4159511499
 30
0.0
 10
14.7373965946
 20
24.3632259407
 30
0.0
 10
14.7113699454
 20
24.3203353923
 30
0.0
 10
14.6752436729
 20
24.2895687183
 30
0.0
 10
14.6308190107
 20
24.2730427878
 30
0.0
 10
14.5808309985
 20
24.2713878388
 30
0.0
 10
14.5275617
 20
24.2837899994
 30
0.0
 10
14.4927626443
 20
24.2998693779
 30
0.0
 10
14.4753684153
 20
24.3099100273
 30
0.0
 11
14.7558847057
 21
24.4744818067
 31
0.0
 11
14.750507368
 21
24.4142111247
 31
0.0
 11
14.7345770091
 21
24.3624292393
 31
0.0
 11
14.708701752
 21
24.3211304051
 31
0.0
 11
14.6738646949
 21
24.2918719686
 31
0.0
 11
14.6313856824
 21
24.2757689053
 31
0.0
 11
14.5828907015
 21
24.2734585033
 31
0.0
 11
14.5302091602
 21
24.2849529178
 31
0.0
 11
14.4753684153
 21
24.3099100273
 31
0.0
  0
SPLINE
  5
548
100
AcDbEntity
  8
RACCORDO
100
AcDbSpline
 62
7
  6
CONTINUOUS
 70
0
 71
3
 72
12
 73
8
 74
6
 42
0.0000001
 43
0.0000001
 44
0.0000000001
 12
-0.5057253573
 22
0.2920463654
 32
0.0
 13
-0.0000644726
 23
0.5839941887
 33
0.0
 40
0.0
 40
0.0
 40
0.0
 40
0.0
 40
0.2368422949
 40
0.4991924767
 40
0.7618019242
 40
0.8853942365
 40
1.0
 40
1.0
 40
1.0
 40
1.0
 10
-21.7209295787
 20
45.2091988429
 30
0.0
 10
-21.7608552968
 20
45.2322551533
 30
0.0
 10
-21.8364778517
 20
45.2957912318
 30
0.0
 10
-21.9248622878
 20
45.4160802912
 30
0.0
 10
-21.9766664052
 20
45.5326328715
 30
0.0
 10
-21.9991721796
 20
45.6276856846
 30
0.0
 10
-22.0037267499
 20
45.6740759916
 30
0.0
 10
-22.0037292129
 20
45.6963856916
 30
0.0
 11
-21.7209295787
 21
45.2091988429
 31
0.0
 11
-21.8286279544
 21
45.2959857521
 31
0.0
 11
-21.9200934037
 21
45.4188990416
 31
0.0
 11
-21.9815318387
 21
45.5594171615
 31
0.0
 11
-21.9979203785
 21
45.6297091447
 31
0.0
 11
-22.0037292129
 21
45.6963856916
 31
0.0
  0
SPLINE
  5
549
100
AcDbEntity
  8
RACCORDO
100
AcDbSpline
 62
7
  6
CONTINUOUS
 70
0
 71
3
 72
9
 73
5
 74
3
 42
0.0000001
 43
0.0000001
 44
0.0000000001
 12
-0.0290535392
 22
-0.0551073363
 32
0.0
 13
-0.0539576766
 23
-0.0311367274
 33
0.0
 40
0.0
 40
0.0
 40
0.0
 40
0.0
 40
0.277017043
 40
1.0
 40
1.0
 40
1.0
 40
1.0
 10
12.8512669804
 20
27.8298367986
 30
0.0
 10
12.8485842052
 20
27.8247482415
 30
0.0
 10
12.8381034048
 20
27.8068982042
 30
0.0
 10
12.823348357
 20
27.7909167937
 30
0.0
 10
12.8103448635
 20
27.7834130193
 30
0.0
 11
12.8512669804
 21
27.8298367986
 31
0.0
 11
12.8424494854
 21
27.8150021079
 31
0.0
 11
12.8103448635
 21
27.7834130193
 31
0.0
  0
SPLINE
  5
54A
100
AcDbEntity
  8
RACCORDO
100
AcDbSpline
 62
7
  6
CONTINUOUS
 70
0
 71
3
 72
11
 73
7
 74
5
 42
0.0000001
 43
0.0000001
 44
0.0000000001
 12
-0.1261722059
 22
-0.072808724
 32
0.0
 13
-0.0964136199
 23
0.1092014182
 33
0.0
 40
0.0
 40
0.0
 40
0.0
 40
0.0
 40
0.2220361667
 40
0.4505038999
 40
0.7087907003
 40
1.0
 40
1.0
 40
1.0
 40
1.0
 10
12.8103448635
 20
27.7834130193
 30
0.0
 10
12.8010065992
 20
27.778024296
 30
0.0
 10
12.7789428719
 20
27.7715244664
 30
0.0
 10
12.7443527971
 20
27.77942172
 30
0.0
 10
12.712114156
 20
27.799898217
 30
0.0
 10
12.693008227
 20
27.8187383937
 30
0.0
 10
12.6836493794
 20
27.8293385499
 30
0.0
 11
12.8103448635
 21
27.7834130193
 31
0.0
 11
12.7792769174
 21
27.7744154419
 31
0.0
 11
12.7465974583
 21
27.780717186
 31
0.0
 11
12.7142882171
 21
27.7999987532
 31
0.0
 11
12.6836493794
 21
27.8293385499
 31
0.0
  0
SPLINE
  5
54B
100
AcDbEntity
  8
0
100
AcDbSpline
 62
7
  6
CONTINUOUS
 70
0
 71
3
 72
9
 73
5
 74
3
 42
0.0000001
 43
0.0000001
 44
0.0000000001
 12
0.0000188601
 22
-0.0959212975
 32
0.0
 13
-0.0492076068
 23
-0.0823377622
 33
0.0
 40
0.0
 40
0.0
 40
0.0
 40
0.0
 40
0.2607000112
 40
1.0
 40
1.0
 40
1.0
 40
1.0
 10
-14.4547876421
 20
77.1293799414
 30
0.0
 10
-14.4547860032
 20
77.1210443803
 30
0.0
 10
-14.4562458878
 20
77.0891826727
 30
0.0
 10
-14.4647419592
 20
77.0569122768
 30
0.0
 10
-14.4768683536
 20
77.0366215079
 30
0.0
 11
-14.4547876421
 21
77.1293799414
 31
0.0
 11
-14.4560253979
 21
77.1044039089
 31
0.0
 11
-14.4768683536
 21
77.0366215079
 31
0.0
  0
SPLINE
  5
54C
100
AcDbEntity
  8
0
100
AcDbSpline
 62
7
  6
CONTINUOUS
 70
0
 71
3
 72
8
 73
4
 74
2
 42
0.0000001
 43
0.0000001
 44
0.0000000001
 12
-0.0170544733
 22
-0.0285367906
 32
0.0
 13
-0.0249380208
 23
-0.0219840533
 33
0.0
 40
0.0
 40
0.0
 40
0.0
 40
0.0
 40
1.0
 40
1.0
 40
1.0
 40
1.0
 10
-14.4768683536
 20
77.0366215079
 30
0.0
 10
-14.4825531781
 20
77.0271092444
 30
0.0
 10
-14.4896466626
 20
77.0182517839
 30
0.0
 10
-14.4979593361
 20
77.0109237661
 30
0.0
 11
-14.4768683536
 21
77.0366215079
 31
0.0
 11
-14.4979593361
 21
77.0109237661
 31
0.0
  0
SPLINE
  5
54D
100
AcDbEntity
  8
0
100
AcDbSpline
 62
7
  6
CONTINUOUS
 70
0
 71
3
 72
11
 73
7
 74
5
 42
0.0000001
 43
0.0000001
 44
0.0000000001
 12
0.136283381
 22
-0.0786998189
 32
0.0
 13
0.0
 23
-0.1573747802
 33
0.0
 40
0.0
 40
0.0
 40
0.0
 40
0.0
 40
0.2177859102
 40
0.450919006
 40
0.7102951862
 40
1.0
 40
1.0
 40
1.0
 40
1.0
 10
-9.6257309519
 20
44.3057102273
 30
0.0
 10
-9.6158374185
 20
44.2999969901
 30
0.0
 10
-9.5973294421
 20
44.2844299329
 30
0.0
 10
-9.5776255922
 20
44.2522061903
 30
0.0
 10
-9.5659220851
 20
44.2124958831
 30
0.0
 10
-9.5636192155
 20
44.1835941936
 30
0.0
 10
-9.5636192155
 20
44.1683967831
 30
0.0
 11
-9.6257309519
 21
44.3057102273
 31
0.0
 11
-9.5993588398
 21
44.2838191459
 31
0.0
 11
-9.5797637437
 21
44.2528008494
 31
0.0
 11
-9.567695207
 21
44.2138064501
 31
0.0
 11
-9.5636192155
 21
44.1683967831
 31
0.0
  0
SPLINE
  5
54E
100
AcDbEntity
  8
SUPERFICI
100
AcDbSpline
 62
7
  6
CONTINUOUS
 70
0
 71
3
 72
9
 73
5
 74
3
 42
0.0000001
 43
0.0000001
 44
0.0000000001
 12
-0.1066410086
 22
-0.0615731245
 32
0.0
 13
-0.0163254074
 23
-0.1220534123
 33
0.0
 40
0.0
 40
0.0
 40
0.0
 40
0.0
 40
0.4614877741
 40
1.0
 40
1.0
 40
1.0
 40
1.0
 10
-6.2488031533
 20
-15.8105418207
 30
0.0
 10
-6.2652076605
 20
-15.8200135687
 30
0.0
 10
-6.2946655038
 20
-15.8517333653
 30
0.0
 10
-6.3058439588
 20
-15.8924315835
 30
0.0
 10
-6.308774436
 20
-15.9143406684
 30
0.0
 11
-6.2488031533
 21
-15.8105418207
 31
0.0
 11
-6.2885035506
 21
-15.8512023085
 31
0.0
 11
-6.308774436
 21
-15.9143406684
 31
0.0
  0
SPLINE
  5
54F
100
AcDbEntity
  8
SUPERFICI
100
AcDbSpline
 62
7
  6
CONTINUOUS
 70
0
 71
3
 72
11
 73
7
 74
5
 42
0.0000001
 43
0.0000001
 44
0.0000000001
 12
0.1363216183
 22
0.0787103206
 32
0.0
 13
0.1363215866
 23
-0.0787103756
 33
0.0
 40
0.0
 40
0.0
 40
0.0
 40
0.0
 40
0.2177804588
 40
0.4509077062
 40
0.7102936033
 40
1.0
 40
1.0
 40
1.0
 40
1.0
 10
-5.6831177284
 20
-15.483922146
 30
0.0
 10
-5.6732216668
 20
-15.4782082894
 30
0.0
 10
-5.6504831456
 20
-15.4699563621
 30
0.0
 10
-5.612714931
 20
-15.4690017303
 30
0.0
 10
-5.5724629712
 20
-15.4787237498
 30
0.0
 10
-5.5462749747
 20
-15.4911835805
 30
0.0
 10
-5.5331105628
 20
-15.4987845469
 30
0.0
 11
-5.6831177284
 21
-15.483922146
 31
0.0
 11
-5.6509683961
 21
-15.4720207951
 31
0.0
 11
-5.6143003155
 21
-15.4705568312
 31
0.0
 11
-5.5744846024
 21
-15.4796044343
 31
0.0
 11
-5.5331105628
 21
-15.4987845469
 31
0.0
  0
SPLINE
  5
550
100
AcDbEntity
  8
SUPERFICI
100
AcDbSpline
 62
7
  6
CONTINUOUS
 70
0
 71
3
 72
9
 73
5
 74
3
 42
0.0000001
 43
0.0000001
 44
0.0000000001
 12
-0.1066410086
 22
-0.0615731245
 32
0.0
 13
-0.0163254074
 23
-0.1220534123
 33
0.0
 40
0.0
 40
0.0
 40
0.0
 40
0.0
 40
0.4614877741
 40
1.0
 40
1.0
 40
1.0
 40
1.0
 10
9.6610994234
 20
-24.9967201705
 30
0.0
 10
9.6446949162
 20
-25.0061919186
 30
0.0
 10
9.6152370729
 20
-25.0379117152
 30
0.0
 10
9.6040586178
 20
-25.0786099333
 30
0.0
 10
9.6011281407
 20
-25.1005190182
 30
0.0
 11
9.6610994234
 21
-24.9967201705
 31
0.0
 11
9.6213990261
 21
-25.0373806584
 31
0.0
 11
9.6011281407
 21
-25.1005190182
 31
0.0
  0
SPLINE
  5
551
100
AcDbEntity
  8
SUPERFICI
100
AcDbSpline
 62
7
  6
CONTINUOUS
 70
0
 71
3
 72
11
 73
7
 74
5
 42
0.0000001
 43
0.0000001
 44
0.0000000001
 12
0.1363216183
 22
0.0787103206
 32
0.0
 13
0.1363215866
 23
-0.0787103756
 33
0.0
 40
0.0
 40
0.0
 40
0.0
 40
0.0
 40
0.2177804588
 40
0.4509077062
 40
0.7102936033
 40
1.0
 40
1.0
 40
1.0
 40
1.0
 10
10.2267848483
 20
-24.6701004959
 30
0.0
 10
10.2366809099
 20
-24.6643866393
 30
0.0
 10
10.2594194311
 20
-24.6561347119
 30
0.0
 10
10.2971876457
 20
-24.6551800802
 30
0.0
 10
10.3374396055
 20
-24.6649020996
 30
0.0
 10
10.363627602
 20
-24.6773619304
 30
0.0
 10
10.3767920139
 20
-24.6849628968
 30
0.0
 11
10.2267848483
 21
-24.6701004959
 31
0.0
 11
10.2589341806
 21
-24.658199145
 31
0.0
 11
10.2956022612
 21
-24.6567351811
 31
0.0
 11
10.3354179743
 21
-24.6657827841
 31
0.0
 11
10.3767920139
 21
-24.6849628968
 31
0.0
  0
SPLINE
  5
552
100
AcDbEntity
  8
SUPERFICI
100
AcDbSpline
 62
7
  6
CONTINUOUS
 70
0
 71
3
 72
11
 73
7
 74
5
 42
0.0000001
 43
0.0000001
 44
0.0000000001
 12
-0.0000100109
 22
0.1573960521
 32
0.0
 13
-0.1363067843
 23
0.0787018289
 33
0.0
 40
0.0
 40
0.0
 40
0.0
 40
0.0
 40
0.2177904336
 40
0.4509258866
 40
0.7103007723
 40
1.0
 40
1.0
 40
1.0
 40
1.0
 10
-16.7384392538
 20
-1.3441155727
 30
0.0
 10
-16.7384399806
 20
-1.3326891213
 30
0.0
 10
-16.7426672797
 20
-1.3088735225
 30
0.0
 10
-16.7607230873
 20
-1.275692107
 30
0.0
 10
-16.7892639365
 20
-1.2456963487
 30
0.0
 10
-16.8131444934
 20
-1.2292483331
 30
0.0
 10
-16.8263071501
 20
-1.2216483801
 30
0.0
 11
-16.7384392538
 21
-1.3441155727
 31
0.0
 11
-16.7442112152
 21
-1.310325654
 31
0.0
 11
-16.7612774651
 21
-1.2778412457
 31
0.0
 11
-16.7890157584
 21
-1.2478873867
 31
0.0
 11
-16.8263071501
 21
-1.2216483801
 31
0.0
  0
SPLINE
  5
553
100
AcDbEntity
  8
0
100
AcDbSpline
 62
7
  6
CONTINUOUS
 70
0
 71
3
 72
11
 73
7
 74
5
 42
0.0000001
 43
0.0000001
 44
0.0000000001
 12
-0.0000100109
 22
0.1573960521
 32
0.0
 13
-0.1363067843
 23
0.0787018289
 33
0.0
 40
0.0
 40
0.0
 40
0.0
 40
0.0
 40
0.2177904336
 40
0.4509258866
 40
0.7103007723
 40
1.0
 40
1.0
 40
1.0
 40
1.0
 10
-16.7384392538
 20
-59.313505225
 30
0.0
 10
-16.7384399806
 20
-59.3020787735
 30
0.0
 10
-16.7426672797
 20
-59.2782631747
 30
0.0
 10
-16.7607230873
 20
-59.2450817593
 30
0.0
 10
-16.7892639365
 20
-59.215086001
 30
0.0
 10
-16.8131444934
 20
-59.1986379854
 30
0.0
 10
-16.8263071501
 20
-59.1910380324
 30
0.0
 11
-16.7384392538
 21
-59.313505225
 31
0.0
 11
-16.7442112152
 21
-59.2797153063
 31
0.0
 11
-16.7612774651
 21
-59.247230898
 31
0.0
 11
-16.7890157584
 21
-59.217277039
 31
0.0
 11
-16.8263071501
 21
-59.1910380324
 31
0.0
  0
SPLINE
  5
554
100
AcDbEntity
  8
RACCORDO
100
AcDbSpline
 62
7
  6
CONTINUOUS
 70
0
 71
3
 72
9
 73
5
 74
3
 42
0.0000001
 43
0.0000001
 44
0.0000000001
 12
-0.1066410086
 22
-0.0615731245
 32
0.0
 13
-0.0163254074
 23
-0.1220534123
 33
0.0
 40
0.0
 40
0.0
 40
0.0
 40
0.0
 40
0.4614877741
 40
1.0
 40
1.0
 40
1.0
 40
1.0
 10
9.6610994234
 20
-82.9661098228
 30
0.0
 10
9.6446949162
 20
-82.9755815709
 30
0.0
 10
9.6152370729
 20
-83.0073013675
 30
0.0
 10
9.6040586178
 20
-83.0479995856
 30
0.0
 10
9.6011281407
 20
-83.0699086705
 30
0.0
 11
9.6610994234
 21
-82.9661098228
 31
0.0
 11
9.6213990261
 21
-83.0067703107
 31
0.0
 11
9.6011281407
 21
-83.0699086705
 31
0.0
  0
SPLINE
  5
555
100
AcDbEntity
  8
RACCORDO
100
AcDbSpline
 62
7
  6
CONTINUOUS
 70
0
 71
3
 72
11
 73
7
 74
5
 42
0.0000001
 43
0.0000001
 44
0.0000000001
 12
0.1363216183
 22
0.0787103206
 32
0.0
 13
0.1363215866
 23
-0.0787103756
 33
0.0
 40
0.0
 40
0.0
 40
0.0
 40
0.0
 40
0.2177804588
 40
0.4509077062
 40
0.7102936033
 40
1.0
 40
1.0
 40
1.0
 40
1.0
 10
10.2267848483
 20
-82.6394901482
 30
0.0
 10
10.2366809099
 20
-82.6337762916
 30
0.0
 10
10.2594194311
 20
-82.6255243642
 30
0.0
 10
10.2971876457
 20
-82.6245697325
 30
0.0
 10
10.3374396055
 20
-82.6342917519
 30
0.0
 10
10.363627602
 20
-82.6467515826
 30
0.0
 10
10.3767920139
 20
-82.6543525491
 30
0.0
 11
10.2267848483
 21
-82.6394901482
 31
0.0
 11
10.2589341806
 21
-82.6275887973
 31
0.0
 11
10.2956022612
 21
-82.6261248334
 31
0.0
 11
10.3354179743
 21
-82.6351724364
 31
0.0
 11
10.3767920139
 21
-82.6543525491
 31
0.0
  0
SPLINE
  5
556
100
AcDbEntity
  8
RACCORDO
100
AcDbSpline
 62
7
  6
CONTINUOUS
 70
0
 71
3
 72
9
 73
5
 74
3
 42
0.0000001
 43
0.0000001
 44
0.0000000001
 12
-0.1066410086
 22
-0.0615731245
 32
0.0
 13
-0.0163254074
 23
-0.1220534123
 33
0.0
 40
0.0
 40
0.0
 40
0.0
 40
0.0
 40
0.4614877741
 40
1.0
 40
1.0
 40
1.0
 40
1.0
 10
-6.2488031533
 20
-73.7799314729
 30
0.0
 10
-6.2652076605
 20
-73.789403221
 30
0.0
 10
-6.2946655038
 20
-73.8211230176
 30
0.0
 10
-6.3058439588
 20
-73.8618212357
 30
0.0
 10
-6.308774436
 20
-73.8837303207
 30
0.0
 11
-6.2488031533
 21
-73.7799314729
 31
0.0
 11
-6.2885035506
 21
-73.8205919608
 31
0.0
 11
-6.308774436
 21
-73.8837303207
 31
0.0
  0
SPLINE
  5
557
100
AcDbEntity
  8
RACCORDO
100
AcDbSpline
 62
7
  6
CONTINUOUS
 70
0
 71
3
 72
11
 73
7
 74
5
 42
0.0000001
 43
0.0000001
 44
0.0000000001
 12
0.1363216183
 22
0.0787103206
 32
0.0
 13
0.1363215866
 23
-0.0787103756
 33
0.0
 40
0.0
 40
0.0
 40
0.0
 40
0.0
 40
0.2177804588
 40
0.4509077062
 40
0.7102936033
 40
1.0
 40
1.0
 40
1.0
 40
1.0
 10
-5.6831177284
 20
-73.4533117983
 30
0.0
 10
-5.6732216668
 20
-73.4475979417
 30
0.0
 10
-5.6504831456
 20
-73.4393460144
 30
0.0
 10
-5.612714931
 20
-73.4383913826
 30
0.0
 10
-5.5724629712
 20
-73.4481134021
 30
0.0
 10
-5.5462749747
 20
-73.4605732328
 30
0.0
 10
-5.5331105628
 20
-73.4681741992
 30
0.0
 11
-5.6831177284
 21
-73.4533117983
 31
0.0
 11
-5.6509683961
 21
-73.4414104474
 31
0.0
 11
-5.6143003155
 21
-73.4399464835
 31
0.0
 11
-5.5744846024
 21
-73.4489940865
 31
0.0
 11
-5.5331105628
 21
-73.4681741992
 31
0.0
  0
SPLINE
  5
558
100
AcDbEntity
  8
ASSI
100
AcDbSpline
 62
7
  6
CONTINUOUS
 70
0
 71
3
 72
8
 73
4
 74
2
 42
0.0000001
 43
0.0000001
 44
0.0000000001
 12
-0.0275213606
 22
0.0158976969
 32
0.0
 13
-0.0293927491
 23
0.0120924918
 33
0.0
 40
0.0
 40
0.0
 40
0.0
 40
0.0
 40
1.0
 40
1.0
 40
1.0
 40
1.0
 10
9.2736014149
 20
-79.9081636511
 30
0.0
 10
9.264427628
 20
-79.9028644188
 30
0.0
 10
9.2549136171
 20
-79.8980967821
 30
0.0
 10
9.2451160341
 20
-79.8940659515
 30
0.0
 11
9.2736014149
 21
-79.9081636511
 31
0.0
 11
9.2451160341
 21
-79.8940659515
 31
0.0
  0
SPLINE
  5
559
100
AcDbEntity
  8
ASSI
100
AcDbSpline
 62
7
  6
CONTINUOUS
 70
0
 71
3
 72
8
 73
4
 74
2
 42
0.0000001
 43
0.0000001
 44
0.0000000001
 12
-0.0250704708
 22
0.0103142602
 32
0.0
 13
-0.0262843628
 23
0.0066366214
 33
0.0
 40
0.0
 40
0.0
 40
0.0
 40
0.0
 40
1.0
 40
1.0
 40
1.0
 40
1.0
 10
9.2451160341
 20
-79.8940659515
 30
0.0
 10
9.2367592105
 20
-79.8906278647
 30
0.0
 10
9.2281579989
 20
-79.887709592
 30
0.0
 10
9.2193965447
 20
-79.8854973848
 30
0.0
 11
9.2451160341
 21
-79.8940659515
 31
0.0
 11
9.2193965447
 21
-79.8854973848
 31
0.0
  0
SPLINE
  5
55A
100
AcDbEntity
  8
ASSI
100
AcDbSpline
 62
7
  6
CONTINUOUS
 70
0
 71
3
 72
9
 73
5
 74
3
 42
0.0000001
 43
0.0000001
 44
0.0000000001
 12
-0.078517641
 22
0.0198251659
 32
0.0
 13
-0.0733621321
 23
-0.0342936544
 33
0.0
 40
0.0
 40
0.0
 40
0.0
 40
0.0
 40
0.5121740518
 40
1.0
 40
1.0
 40
1.0
 40
1.0
 10
9.2193965447
 20
-79.8854973848
 30
0.0
 10
9.2059916452
 20
-79.8821127397
 30
0.0
 10
9.1788171319
 20
-79.8786374065
 30
0.0
 10
9.1516621988
 20
-79.8846202363
 30
0.0
 10
9.1397328816
 20
-79.8901966811
 30
0.0
 11
9.2193965447
 21
-79.8854973848
 31
0.0
 11
9.1781606204
 21
-79.8810338754
 31
0.0
 11
9.1397328816
 21
-79.8901966811
 31
0.0
  0
SPLINE
  5
55B
100
AcDbEntity
  8
0
100
AcDbSpline
 62
7
  6
CONTINUOUS
 70
0
 71
3
 72
9
 73
5
 74
3
 42
0.0000001
 43
0.0000001
 44
0.0000000001
 12
0.0163254074
 22
0.1220534123
 32
0.0
 13
0.1066410086
 23
0.0615731245
 33
0.0
 40
0.0
 40
0.0
 40
0.0
 40
0.0
 40
0.5385122259
 40
1.0
 40
1.0
 40
1.0
 40
1.0
 10
-6.308774436
 20
42.0550489839
 30
0.0
 10
-6.3058439588
 20
42.0769580688
 30
0.0
 10
-6.2946655038
 20
42.117656287
 30
0.0
 10
-6.2652076605
 20
42.1493760836
 30
0.0
 10
-6.2488031533
 20
42.1588478316
 30
0.0
 11
-6.308774436
 21
42.0550489839
 31
0.0
 11
-6.2885035506
 21
42.1181873438
 31
0.0
 11
-6.2488031533
 21
42.1588478316
 31
0.0
  0
SPLINE
  5
55C
100
AcDbEntity
  8
0
100
AcDbSpline
 62
7
  6
CONTINUOUS
 70
0
 71
3
 72
9
 73
5
 74
3
 42
0.0000001
 43
0.0000001
 44
0.0000000001
 12
0.0163254074
 22
0.1220534123
 32
0.0
 13
0.1066410086
 23
0.0615731245
 33
0.0
 40
0.0
 40
0.0
 40
0.0
 40
0.0
 40
0.5385122259
 40
1.0
 40
1.0
 40
1.0
 40
1.0
 10
9.6011281407
 20
32.8688706341
 30
0.0
 10
9.6040586178
 20
32.890779719
 30
0.0
 10
9.6152370729
 20
32.9314779371
 30
0.0
 10
9.6446949162
 20
32.9631977337
 30
0.0
 10
9.6610994234
 20
32.9726694818
 30
0.0
 11
9.6011281407
 21
32.8688706341
 31
0.0
 11
9.6213990261
 21
32.9320089939
 31
0.0
 11
9.6610994234
 21
32.9726694818
 31
0.0
  0
SPLINE
  5
55D
100
AcDbEntity
  8
ASSI
100
AcDbSpline
 62
7
  6
CONTINUOUS
 70
0
 71
3
 72
8
 73
4
 74
2
 42
0.0000001
 43
0.0000001
 44
0.0000000001
 12
-0.0275213606
 22
0.0158976969
 32
0.0
 13
-0.0293927491
 23
0.0120924918
 33
0.0
 40
0.0
 40
0.0
 40
0.0
 40
0.0
 40
1.0
 40
1.0
 40
1.0
 40
1.0
 10
-6.6363011618
 20
-70.7219853012
 30
0.0
 10
-6.6454749487
 20
-70.7166860689
 30
0.0
 10
-6.6549889596
 20
-70.7119184322
 30
0.0
 10
-6.6647865426
 20
-70.7078876016
 30
0.0
 11
-6.6363011618
 21
-70.7219853012
 31
0.0
 11
-6.6647865426
 21
-70.7078876016
 31
0.0
  0
SPLINE
  5
55E
100
AcDbEntity
  8
ASSI
100
AcDbSpline
 62
7
  6
CONTINUOUS
 70
0
 71
3
 72
8
 73
4
 74
2
 42
0.0000001
 43
0.0000001
 44
0.0000000001
 12
-0.0250704708
 22
0.0103142602
 32
0.0
 13
-0.0262843628
 23
0.0066366214
 33
0.0
 40
0.0
 40
0.0
 40
0.0
 40
0.0
 40
1.0
 40
1.0
 40
1.0
 40
1.0
 10
-6.6647865426
 20
-70.7078876016
 30
0.0
 10
-6.6731433662
 20
-70.7044495148
 30
0.0
 10
-6.6817445778
 20
-70.7015312421
 30
0.0
 10
-6.690506032
 20
-70.699319035
 30
0.0
 11
-6.6647865426
 21
-70.7078876016
 31
0.0
 11
-6.690506032
 21
-70.699319035
 31
0.0
  0
SPLINE
  5
55F
100
AcDbEntity
  8
ASSI
100
AcDbSpline
 62
7
  6
CONTINUOUS
 70
0
 71
3
 72
9
 73
5
 74
3
 42
0.0000001
 43
0.0000001
 44
0.0000000001
 12
-0.078517641
 22
0.0198251659
 32
0.0
 13
-0.0733621321
 23
-0.0342936544
 33
0.0
 40
0.0
 40
0.0
 40
0.0
 40
0.0
 40
0.5121740518
 40
1.0
 40
1.0
 40
1.0
 40
1.0
 10
-6.690506032
 20
-70.699319035
 30
0.0
 10
-6.7039109315
 20
-70.6959343898
 30
0.0
 10
-6.7310854448
 20
-70.6924590566
 30
0.0
 10
-6.7582403779
 20
-70.6984418864
 30
0.0
 10
-6.7701696951
 20
-70.7040183312
 30
0.0
 11
-6.690506032
 21
-70.699319035
 31
0.0
 11
-6.7317419563
 21
-70.6948555255
 31
0.0
 11
-6.7701696951
 21
-70.7040183312
 31
0.0
  0
SPLINE
  5
560
100
AcDbEntity
  8
RACCORDO
100
AcDbSpline
 62
7
  6
CONTINUOUS
 70
0
 71
3
 72
11
 73
7
 74
5
 42
0.0000001
 43
0.0000001
 44
0.0000000001
 12
0.3808322389
 22
-0.2198877618
 32
0.0
 13
-0.0
 23
-0.4397542745
 33
0.0
 40
0.0
 40
0.0
 40
0.0
 40
0.0
 40
0.2372413496
 40
0.5000061068
 40
0.7627675405
 40
1.0
 40
1.0
 40
1.0
 40
1.0
 10
-10.8364114217
 20
-70.4061147492
 30
0.0
 10
-10.8062950369
 20
-70.4235035724
 30
0.0
 10
-10.7493030267
 20
-70.471470847
 30
0.0
 10
-10.6827849301
 20
-70.5623701278
 30
0.0
 10
-10.6373232588
 20
-70.66542486
 30
0.0
 10
-10.6242793873
 20
-70.7387635476
 30
0.0
 10
-10.6242793873
 20
-70.7735382103
 30
0.0
 11
-10.8364114217
 21
-70.4061147492
 31
0.0
 11
-10.7552263493
 21
-70.4716379836
 31
0.0
 11
-10.6864114217
 21
-70.5644644515
 31
0.0
 11
-10.6404295416
 21
-70.6704718869
 31
0.0
 11
-10.6242793873
 21
-70.7735382103
 31
0.0
  0
SPLINE
  5
561
100
AcDbEntity
  8
RACCORDO
100
AcDbSpline
 62
7
  6
CONTINUOUS
 70
0
 71
3
 72
11
 73
7
 74
5
 42
0.0000001
 43
0.0000001
 44
0.0000000001
 12
0.3808322389
 22
-0.2198877618
 32
0.0
 13
-0.0
 23
-0.4397542745
 33
0.0
 40
0.0
 40
0.0
 40
0.0
 40
0.0
 40
0.2372413496
 40
0.5000061068
 40
0.7627675405
 40
1.0
 40
1.0
 40
1.0
 40
1.0
 10
5.073491155
 20
-79.5922930991
 30
0.0
 10
5.1036075398
 20
-79.6096819222
 30
0.0
 10
5.16059955
 20
-79.6576491969
 30
0.0
 10
5.2271176466
 20
-79.7485484777
 30
0.0
 10
5.2725793178
 20
-79.8516032099
 30
0.0
 10
5.2856231894
 20
-79.9249418974
 30
0.0
 10
5.2856231894
 20
-79.9597165602
 30
0.0
 11
5.073491155
 21
-79.5922930991
 31
0.0
 11
5.1546762274
 21
-79.6578163335
 31
0.0
 11
5.223491155
 21
-79.7506428014
 31
0.0
 11
5.2694730351
 21
-79.8566502368
 31
0.0
 11
5.2856231894
 21
-79.9597165602
 31
0.0
  0
SPLINE
  5
562
100
AcDbEntity
  8
0
100
AcDbSpline
 62
7
  6
CONTINUOUS
 70
0
 71
3
 72
11
 73
7
 74
5
 42
0.0000001
 43
0.0000001
 44
0.0000000001
 12
0.0
 22
0.1573747802
 32
0.0
 13
-0.136283381
 23
0.0786998189
 33
0.0
 40
0.0
 40
0.0
 40
0.0
 40
0.0
 40
0.2897048138
 40
0.549080994
 40
0.7822140898
 40
1.0
 40
1.0
 40
1.0
 40
1.0
 10
-9.5636192155
 20
-71.7703825215
 30
0.0
 10
-9.5636192155
 20
-71.755185111
 30
0.0
 10
-9.5659220851
 20
-71.7262834215
 30
0.0
 10
-9.5776255922
 20
-71.6865731143
 30
0.0
 10
-9.5973294421
 20
-71.6543493717
 30
0.0
 10
-9.6158374185
 20
-71.6387823145
 30
0.0
 10
-9.6257309519
 20
-71.6330690772
 30
0.0
 11
-9.5636192155
 21
-71.7703825215
 31
0.0
 11
-9.567695207
 21
-71.7249728545
 31
0.0
 11
-9.5797637437
 21
-71.6859784552
 31
0.0
 11
-9.5993588398
 21
-71.6549601587
 31
0.0
 11
-9.6257309519
 21
-71.6330690772
 31
0.0
  0
SPLINE
  5
563
100
AcDbEntity
  8
0
100
AcDbSpline
 62
7
  6
CONTINUOUS
 70
0
 71
3
 72
9
 73
5
 74
3
 42
0.0000001
 43
0.0000001
 44
0.0000000001
 12
0.0356636509
 22
0.0249264817
 32
0.0
 13
0.0223702126
 23
0.0373202233
 33
0.0
 40
0.0
 40
0.0
 40
0.0
 40
0.0
 40
0.745130515
 40
1.0
 40
1.0
 40
1.0
 40
1.0
 10
-14.506159075
 20
-57.3048916923
 30
0.0
 10
-14.4973010501
 20
-57.2987005316
 30
0.0
 10
-14.4868538706
 20
-57.2881403856
 30
0.0
 10
-14.4788508239
 20
-57.2760466156
 30
0.0
 10
-14.4769503291
 20
-57.2728760202
 30
0.0
 11
-14.506159075
 21
-57.3048916923
 31
0.0
 11
-14.4830890558
 21
-57.2821116596
 31
0.0
 11
-14.4769503291
 21
-57.2728760202
 31
0.0
  0
SPLINE
  5
564
100
AcDbEntity
  8
0
100
AcDbSpline
 62
7
  6
CONTINUOUS
 70
0
 71
3
 72
9
 73
5
 74
3
 42
0.0000001
 43
0.0000001
 44
0.0000000001
 12
0.0253036784
 22
0.067371073
 32
0.0
 13
-0.0000095784
 23
0.0719662249
 33
0.0
 40
0.0
 40
0.0
 40
0.0
 40
0.0
 40
0.243469632
 40
1.0
 40
1.0
 40
1.0
 40
1.0
 10
-14.4663735853
 20
-57.2507903885
 30
0.0
 10
-14.4643200262
 20
-57.245322785
 30
0.0
 10
-14.4572016205
 20
-57.2223706102
 30
0.0
 10
-14.4547852648
 20
-57.1981455634
 30
0.0
 10
-14.4547876802
 20
-57.1799973519
 30
0.0
 11
-14.4663735853
 21
-57.2507903885
 31
0.0
 11
-14.4611325205
 21
-57.2340710173
 31
0.0
 11
-14.4547876802
 21
-57.1799973519
 31
0.0
  0
SPLINE
  5
565
100
AcDbEntity
  8
0
100
AcDbSpline
 62
7
  6
CONTINUOUS
 70
0
 71
3
 72
9
 73
5
 74
3
 42
0.0000001
 43
0.0000001
 44
0.0000000001
 12
-0.0685559615
 22
-0.1766939093
 32
0.0
 13
-0.1597856713
 23
-0.1019274089
 33
0.0
 40
0.0
 40
0.0
 40
0.0
 40
0.0
 40
0.5194818691
 40
1.0
 40
1.0
 40
1.0
 40
1.0
 10
-14.4616028748
 20
-38.7457273475
 30
0.0
 10
-14.4734740678
 20
-38.7763237749
 30
0.0
 10
-14.5050543192
 20
-38.8320047104
 30
0.0
 10
-14.551082636
 20
-38.877268921
 30
0.0
 10
-14.5766759401
 20
-38.8935949104
 30
0.0
 11
-14.4616028748
 21
-38.7457273475
 31
0.0
 11
-14.5101837792
 21
-38.8313631757
 31
0.0
 11
-14.5766759401
 21
-38.8935949104
 31
0.0
  0
SPLINE
  5
566
100
AcDbEntity
  8
0
100
AcDbSpline
 62
7
  6
CONTINUOUS
 70
0
 71
3
 72
9
 73
5
 74
3
 42
0.0000001
 43
0.0000001
 44
0.0000000001
 12
-0.0685559501
 22
-0.1766940193
 32
0.0
 13
-0.1597857543
 23
-0.1019274619
 33
0.0
 40
0.0
 40
0.0
 40
0.0
 40
0.0
 40
0.5194818255
 40
1.0
 40
1.0
 40
1.0
 40
1.0
 10
-14.4616028748
 20
58.8224708426
 30
0.0
 10
-14.4734740649
 20
58.7918743987
 30
0.0
 10
-14.5050542667
 20
58.7361933964
 30
0.0
 10
-14.5510826204
 20
58.6909291657
 30
0.0
 10
-14.5766759401
 20
58.6746031664
 30
0.0
 11
-14.4616028748
 21
58.8224708426
 31
0.0
 11
-14.5101837447
 21
58.7368349455
 31
0.0
 11
-14.5766759401
 21
58.6746031664
 31
0.0
  0
SPLINE
  5
567
100
AcDbEntity
  8
SUPERFICI
100
AcDbSpline
 62
7
  6
CONTINUOUS
 70
0
 71
3
 72
11
 73
7
 74
5
 42
0.0000001
 43
0.0000001
 44
0.0000000001
 12
0.3808322389
 22
-0.2198877618
 32
0.0
 13
0.0
 23
-0.4397542745
 33
0.0
 40
0.0
 40
0.0
 40
0.0
 40
0.0
 40
0.2372413496
 40
0.5000061068
 40
0.7627675405
 40
1.0
 40
1.0
 40
1.0
 40
1.0
 10
-10.8364114217
 20
-12.436725097
 30
0.0
 10
-10.8062950369
 20
-12.4541139201
 30
0.0
 10
-10.7493030267
 20
-12.5020811948
 30
0.0
 10
-10.6827849301
 20
-12.5929804755
 30
0.0
 10
-10.6373232588
 20
-12.6960352078
 30
0.0
 10
-10.6242793873
 20
-12.7693738953
 30
0.0
 10
-10.6242793873
 20
-12.804148558
 30
0.0
 11
-10.8364114217
 21
-12.436725097
 31
0.0
 11
-10.7552263493
 21
-12.5022483313
 31
0.0
 11
-10.6864114217
 21
-12.5950747992
 31
0.0
 11
-10.6404295416
 21
-12.7010822346
 31
0.0
 11
-10.6242793873
 21
-12.804148558
 31
0.0
  0
SPLINE
  5
568
100
AcDbEntity
  8
SUPERFICI
100
AcDbSpline
 62
7
  6
CONTINUOUS
 70
0
 71
3
 72
11
 73
7
 74
5
 42
0.0000001
 43
0.0000001
 44
0.0000000001
 12
0.3808322389
 22
-0.2198877618
 32
0.0
 13
0.0
 23
-0.4397542745
 33
0.0
 40
0.0
 40
0.0
 40
0.0
 40
0.0
 40
0.2372413496
 40
0.5000061068
 40
0.7627675405
 40
1.0
 40
1.0
 40
1.0
 40
1.0
 10
5.073491155
 20
-21.6229034468
 30
0.0
 10
5.1036075398
 20
-21.64029227
 30
0.0
 10
5.16059955
 20
-21.6882595446
 30
0.0
 10
5.2271176466
 20
-21.7791588254
 30
0.0
 10
5.2725793178
 20
-21.8822135576
 30
0.0
 10
5.2856231894
 20
-21.9555522451
 30
0.0
 10
5.2856231894
 20
-21.9903269079
 30
0.0
 11
5.073491155
 21
-21.6229034468
 31
0.0
 11
5.1546762274
 21
-21.6884266812
 31
0.0
 11
5.223491155
 21
-21.7812531491
 31
0.0
 11
5.2694730351
 21
-21.8872605845
 31
0.0
 11
5.2856231894
 21
-21.9903269079
 31
0.0
  0
SPLINE
  5
569
100
AcDbEntity
  8
0
100
AcDbSpline
 62
7
  6
CONTINUOUS
 70
0
 71
3
 72
9
 73
5
 74
3
 42
0.0000001
 43
0.0000001
 44
0.0000000001
 12
-0.0176950489
 22
0.0251728456
 32
0.0
 13
-0.0266418948
 23
0.0153946858
 33
0.0
 40
0.0
 40
0.0
 40
0.0
 40
0.0
 40
0.257348278
 40
1.0
 40
1.0
 40
1.0
 40
1.0
 10
-14.4616028748
 20
63.5746607436
 30
0.0
 10
-14.463120805
 20
63.5768201398
 30
0.0
 10
-14.4694236446
 20
63.5849156566
 30
0.0
 10
-14.4774656413
 20
63.5916860105
 30
0.0
 10
-14.4840608576
 20
63.5954969738
 30
0.0
 11
-14.4616028748
 21
63.5746607436
 31
0.0
 11
-14.4664800359
 21
63.5808991113
 31
0.0
 11
-14.4840608576
 21
63.5954969738
 31
0.0
  0
SPLINE
  5
56A
100
AcDbEntity
  8
SUPERFICI
100
AcDbSpline
 62
7
  6
CONTINUOUS
 70
0
 71
3
 72
11
 73
7
 74
5
 42
0.0000001
 43
0.0000001
 44
0.0000000001
 12
0.0
 22
0.1573747802
 32
0.0
 13
-0.136283381
 23
0.0786998189
 33
0.0
 40
0.0
 40
0.0
 40
0.0
 40
0.0
 40
0.2897048138
 40
0.549080994
 40
0.7822140898
 40
1.0
 40
1.0
 40
1.0
 40
1.0
 10
-9.5636192155
 20
-13.8009928692
 30
0.0
 10
-9.5636192155
 20
-13.7857954587
 30
0.0
 10
-9.5659220851
 20
-13.7568937692
 30
0.0
 10
-9.5776255922
 20
-13.717183462
 30
0.0
 10
-9.5973294421
 20
-13.6849597194
 30
0.0
 10
-9.6158374185
 20
-13.6693926622
 30
0.0
 10
-9.6257309519
 20
-13.6636794249
 30
0.0
 11
-9.5636192155
 21
-13.8009928692
 31
0.0
 11
-9.567695207
 21
-13.7555832022
 31
0.0
 11
-9.5797637437
 21
-13.7165888029
 31
0.0
 11
-9.5993588398
 21
-13.6855705064
 31
0.0
 11
-9.6257309519
 21
-13.6636794249
 31
0.0
  0
SPLINE
  5
56B
100
AcDbEntity
  8
0
100
AcDbSpline
 62
7
  6
CONTINUOUS
 70
0
 71
3
 72
9
 73
5
 74
3
 42
0.0000001
 43
0.0000001
 44
0.0000000001
 12
0.0129566511
 22
-0.027918426
 32
0.0
 13
0.0000105599
 23
-0.0307784536
 33
0.0
 40
0.0
 40
0.0
 40
0.0
 40
0.0
 40
0.2573480985
 40
1.0
 40
1.0
 40
1.0
 40
1.0
 10
-2.4689276681
 20
-15.1666516656
 30
0.0
 10
-2.4678162116
 20
-15.1690465836
 30
0.0
 10
-2.4639555949
 20
-15.1785553889
 30
0.0
 10
-2.4621128989
 20
-15.1889080716
 30
0.0
 10
-2.4621102848
 20
-15.1965272973
 30
0.0
 11
-2.4689276681
 21
-15.1666516656
 31
0.0
 11
-2.4659628098
 21
-15.1739966178
 31
0.0
 11
-2.4621102848
 21
-15.1965272973
 31
0.0
  0
SPLINE
  5
56C
100
AcDbEntity
  8
0
100
AcDbSpline
 62
7
  6
CONTINUOUS
 70
0
 71
3
 72
9
 73
5
 74
3
 42
0.0000001
 43
0.0000001
 44
0.0000000001
 12
-0.1872984818
 22
0.0289782105
 32
0.0
 13
-0.168159599
 23
-0.0874231504
 33
0.0
 40
0.0
 40
0.0
 40
0.0
 40
0.0
 40
0.5194866138
 40
1.0
 40
1.0
 40
1.0
 40
1.0
 10
-6.584577432
 20
-12.7903270732
 30
0.0
 10
-6.61701045
 20
-12.7853091424
 30
0.0
 10
-6.6810216806
 20
-12.7848177133
 30
0.0
 10
-6.7432353823
 20
-12.8020492531
 30
0.0
 10
-6.7701696951
 20
-12.8160519178
 30
0.0
 11
-6.584577432
 21
-12.7903270732
 31
0.0
 11
-6.6830313123
 21
-12.7895813935
 31
0.0
 11
-6.7701696951
 21
-12.8160519178
 31
0.0
  0
SPLINE
  5
56D
100
AcDbEntity
  8
0
100
AcDbSpline
 62
7
  6
CONTINUOUS
 70
0
 71
3
 72
9
 73
5
 74
3
 42
0.0000001
 43
0.0000001
 44
0.0000000001
 12
-0.1872984818
 22
0.0289782105
 32
0.0
 13
-0.168159599
 23
-0.0874231504
 33
0.0
 40
0.0
 40
0.0
 40
0.0
 40
0.0
 40
0.5194866138
 40
1.0
 40
1.0
 40
1.0
 40
1.0
 10
9.3253251447
 20
-21.976505423
 30
0.0
 10
9.2928921267
 20
-21.9714874922
 30
0.0
 10
9.2288808961
 20
-21.9709960631
 30
0.0
 10
9.1666671944
 20
-21.988227603
 30
0.0
 10
9.1397328816
 20
-22.0022302677
 30
0.0
 11
9.3253251447
 21
-21.976505423
 31
0.0
 11
9.2268712644
 21
-21.9757597434
 31
0.0
 11
9.1397328816
 21
-22.0022302677
 31
0.0
  0
SPLINE
  5
56E
100
AcDbEntity
  8
0
100
AcDbSpline
 62
7
  6
CONTINUOUS
 70
0
 71
3
 72
9
 73
5
 74
3
 42
0.0000001
 43
0.0000001
 44
0.0000000001
 12
-0.0176950165
 22
0.0251728355
 32
0.0
 13
-0.0266417596
 23
0.0153948661
 33
0.0
 40
0.0
 40
0.0
 40
0.0
 40
0.0
 40
0.2573475234
 40
1.0
 40
1.0
 40
1.0
 40
1.0
 10
-14.4616028748
 20
5.6052709761
 30
0.0
 10
-14.4631207977
 20
5.6074303651
 30
0.0
 10
-14.4694236258
 20
5.6155258795
 30
0.0
 10
-14.4774655771
 20
5.6222962601
 30
0.0
 10
-14.4840607667
 20
5.6261072719
 30
0.0
 11
-14.4616028748
 21
5.6052709761
 31
0.0
 11
-14.4664800103
 21
5.6115093256
 31
0.0
 11
-14.4840607667
 21
5.6261072719
 31
0.0
  0
SPLINE
  5
56F
100
AcDbEntity
  8
0
100
AcDbSpline
 62
7
  6
CONTINUOUS
 70
0
 71
3
 72
11
 73
7
 74
5
 42
0.0000001
 43
0.0000001
 44
0.0000000001
 12
-0.1363215866
 22
0.0787103756
 32
0.0
 13
-0.1363216183
 23
-0.0787103206
 33
0.0
 40
0.0
 40
0.0
 40
0.0
 40
0.0
 40
0.2897063967
 40
0.5490922938
 40
0.7822195412
 40
1.0
 40
1.0
 40
1.0
 40
1.0
 10
-5.5331105628
 20
42.4706051054
 30
0.0
 10
-5.5462749747
 20
42.4782060718
 30
0.0
 10
-5.5724629712
 20
42.4906659025
 30
0.0
 10
-5.612714931
 20
42.500387922
 30
0.0
 10
-5.6504831456
 20
42.4994332902
 30
0.0
 10
-5.6732216668
 20
42.4911813629
 30
0.0
 10
-5.6831177284
 20
42.4854675063
 30
0.0
 11
-5.5331105628
 21
42.4706051054
 31
0.0
 11
-5.5744846024
 21
42.489785218
 31
0.0
 11
-5.6143003155
 21
42.4988328211
 31
0.0
 11
-5.6509683961
 21
42.4973688572
 31
0.0
 11
-5.6831177284
 21
42.4854675063
 31
0.0
  0
SPLINE
  5
570
100
AcDbEntity
  8
0
100
AcDbSpline
 62
7
  6
CONTINUOUS
 70
0
 71
3
 72
11
 73
7
 74
5
 42
0.0000001
 43
0.0000001
 44
0.0000000001
 12
0.0
 22
0.4397542745
 32
0.0
 13
-0.3808322389
 23
0.2198877618
 33
0.0
 40
0.0
 40
0.0
 40
0.0
 40
0.0
 40
0.2372324595
 40
0.4999938932
 40
0.7627586504
 40
1.0
 40
1.0
 40
1.0
 40
1.0
 10
5.2856231894
 20
35.9790627444
 30
0.0
 10
5.2856231894
 20
36.0138374071
 30
0.0
 10
5.2725793178
 20
36.0871760947
 30
0.0
 10
5.2271176466
 20
36.1902308269
 30
0.0
 10
5.16059955
 20
36.2811301077
 30
0.0
 10
5.1036075398
 20
36.3290973823
 30
0.0
 10
5.073491155
 20
36.3464862055
 30
0.0
 11
5.2856231894
 21
35.9790627444
 31
0.0
 11
5.2694730351
 21
36.0821290678
 31
0.0
 11
5.223491155
 21
36.1881365032
 31
0.0
 11
5.1546762274
 21
36.2809629711
 31
0.0
 11
5.073491155
 21
36.3464862055
 31
0.0
  0
SPLINE
  5
571
100
AcDbEntity
  8
0
100
AcDbSpline
 62
7
  6
CONTINUOUS
 70
0
 71
3
 72
11
 73
7
 74
5
 42
0.0000001
 43
0.0000001
 44
0.0000000001
 12
-0.1363215866
 22
0.0787103756
 32
0.0
 13
-0.1363216183
 23
-0.0787103206
 33
0.0
 40
0.0
 40
0.0
 40
0.0
 40
0.0
 40
0.2897063967
 40
0.5490922938
 40
0.7822195412
 40
1.0
 40
1.0
 40
1.0
 40
1.0
 10
10.3767920139
 20
33.2844267555
 30
0.0
 10
10.363627602
 20
33.2920277219
 30
0.0
 10
10.3374396055
 20
33.3044875527
 30
0.0
 10
10.2971876457
 20
33.3142095721
 30
0.0
 10
10.2594194311
 20
33.3132549404
 30
0.0
 10
10.2366809099
 20
33.305003013
 30
0.0
 10
10.2267848483
 20
33.2992891564
 30
0.0
 11
10.3767920139
 21
33.2844267555
 31
0.0
 11
10.3354179743
 21
33.3036068682
 31
0.0
 11
10.2956022612
 21
33.3126544712
 31
0.0
 11
10.2589341806
 21
33.3111905073
 31
0.0
 11
10.2267848483
 21
33.2992891564
 31
0.0
  0
SPLINE
  5
572
100
AcDbEntity
  8
0
100
AcDbSpline
 62
7
  6
CONTINUOUS
 70
0
 71
3
 72
11
 73
7
 74
5
 42
0.0000001
 43
0.0000001
 44
0.0000000001
 12
0.0
 22
0.4397542745
 32
0.0
 13
-0.3808322389
 23
0.2198877618
 33
0.0
 40
0.0
 40
0.0
 40
0.0
 40
0.0
 40
0.2372324595
 40
0.4999938932
 40
0.7627586504
 40
1.0
 40
1.0
 40
1.0
 40
1.0
 10
-10.6242793873
 20
45.1652410943
 30
0.0
 10
-10.6242793873
 20
45.200015757
 30
0.0
 10
-10.6373232588
 20
45.2733544445
 30
0.0
 10
-10.6827849301
 20
45.3764091767
 30
0.0
 10
-10.7493030267
 20
45.4673084575
 30
0.0
 10
-10.8062950369
 20
45.5152757322
 30
0.0
 10
-10.8364114217
 20
45.5326645553
 30
0.0
 11
-10.6242793873
 21
45.1652410943
 31
0.0
 11
-10.6404295416
 21
45.2683074177
 31
0.0
 11
-10.6864114217
 21
45.374314853
 31
0.0
 11
-10.7552263493
 21
45.467141321
 31
0.0
 11
-10.8364114217
 21
45.5326645553
 31
0.0
  0
SPLINE
  5
573
100
AcDbEntity
  8
SUPERFICI
100
AcDbSpline
 62
7
  6
CONTINUOUS
 70
0
 71
3
 72
9
 73
5
 74
3
 42
0.0000001
 43
0.0000001
 44
0.0000000001
 12
-0.0685559615
 22
-0.1766939093
 32
0.0
 13
-0.1597856713
 23
-0.1019274089
 33
0.0
 40
0.0
 40
0.0
 40
0.0
 40
0.0
 40
0.5194818691
 40
1.0
 40
1.0
 40
1.0
 40
1.0
 10
-14.4616028748
 20
19.2236623048
 30
0.0
 10
-14.4734740678
 20
19.1930658774
 30
0.0
 10
-14.5050543192
 20
19.1373849419
 30
0.0
 10
-14.551082636
 20
19.0921207312
 30
0.0
 10
-14.5766759401
 20
19.0757947419
 30
0.0
 11
-14.4616028748
 21
19.2236623048
 31
0.0
 11
-14.5101837792
 21
19.1380264766
 31
0.0
 11
-14.5766759401
 21
19.0757947419
 31
0.0
  0
SPLINE
  5
574
100
AcDbEntity
  8
0
100
AcDbSpline
 62
7
  6
CONTINUOUS
 70
0
 71
3
 72
9
 73
5
 74
3
 42
0.0000001
 43
0.0000001
 44
0.0000000001
 12
-0.1872983895
 22
0.0289781452
 32
0.0
 13
-0.1681595093
 23
-0.0874231038
 33
0.0
 40
0.0
 40
0.0
 40
0.0
 40
0.0
 40
0.5194838115
 40
1.0
 40
1.0
 40
1.0
 40
1.0
 10
9.3253250449
 20
35.9928842869
 30
0.0
 10
9.2928922178
 20
35.9979021793
 30
0.0
 10
9.2288810381
 20
35.9983935762
 30
0.0
 10
9.1666673371
 20
35.9811621235
 30
0.0
 10
9.1397328816
 20
35.9671593846
 30
0.0
 11
9.3253250449
 21
35.9928842869
 31
0.0
 11
9.2268717483
 21
35.9936299758
 31
0.0
 11
9.1397328816
 21
35.9671593846
 31
0.0
  0
SPLINE
  5
575
100
AcDbEntity
  8
0
100
AcDbSpline
 62
7
  6
CONTINUOUS
 70
0
 71
3
 72
9
 73
5
 74
3
 42
0.0000001
 43
0.0000001
 44
0.0000000001
 12
0.0129567377
 22
-0.0279185634
 32
0.0
 13
0.0000104429
 23
-0.0307786148
 33
0.0
 40
0.0
 40
0.0
 40
0.0
 40
0.0
 40
0.2573489508
 40
1.0
 40
1.0
 40
1.0
 40
1.0
 10
-2.4689277647
 20
42.8027380424
 30
0.0
 10
-2.4678162971
 20
42.8003431048
 30
0.0
 10
-2.463955632
 20
42.7908342645
 30
0.0
 10
-2.4621128669
 20
42.7804815269
 30
0.0
 10
-2.4621102818
 20
42.7728622701
 30
0.0
 11
-2.4689277647
 21
42.8027380424
 31
0.0
 11
-2.4659628633
 21
42.7953930346
 31
0.0
 11
-2.4621102818
 21
42.7728622701
 31
0.0
  0
SPLINE
  5
576
100
AcDbEntity
  8
0
100
AcDbSpline
 62
7
  6
CONTINUOUS
 70
0
 71
3
 72
9
 73
5
 74
3
 42
0.0000001
 43
0.0000001
 44
0.0000000001
 12
-0.1872983895
 22
0.0289781452
 32
0.0
 13
-0.1681595093
 23
-0.0874231038
 33
0.0
 40
0.0
 40
0.0
 40
0.0
 40
0.0
 40
0.5194838115
 40
1.0
 40
1.0
 40
1.0
 40
1.0
 10
-6.5845775318
 20
45.1790626367
 30
0.0
 10
-6.6170103589
 20
45.1840805292
 30
0.0
 10
-6.6810215386
 20
45.1845719261
 30
0.0
 10
-6.7432352396
 20
45.1673404734
 30
0.0
 10
-6.7701696951
 20
45.1533377345
 30
0.0
 11
-6.5845775318
 21
45.1790626367
 31
0.0
 11
-6.6830308284
 21
45.1798083256
 31
0.0
 11
-6.7701696951
 21
45.1533377345
 31
0.0
  0
SPLINE
  5
577
100
AcDbEntity
  8
0
100
AcDbSpline
 62
7
  6
CONTINUOUS
 70
0
 71
3
 72
11
 73
7
 74
5
 42
0.0000001
 43
0.0000001
 44
0.0000000001
 12
0.1363067843
 22
-0.0787018289
 32
0.0
 13
0.0000100109
 23
-0.1573960521
 33
0.0
 40
0.0
 40
0.0
 40
0.0
 40
0.0
 40
0.2896992277
 40
0.5490741134
 40
0.7822095664
 40
1.0
 40
1.0
 40
1.0
 40
1.0
 10
-16.8263071501
 20
56.7477412722
 30
0.0
 10
-16.8131444934
 20
56.7401413192
 30
0.0
 10
-16.7892639365
 20
56.7236933036
 30
0.0
 10
-16.7607230873
 20
56.6936975453
 30
0.0
 10
-16.7426672797
 20
56.6605161298
 30
0.0
 10
-16.7384399806
 20
56.636700531
 30
0.0
 10
-16.7384392538
 20
56.6252740796
 30
0.0
 11
-16.8263071501
 21
56.7477412722
 31
0.0
 11
-16.7890157584
 21
56.7215022656
 31
0.0
 11
-16.7612774651
 21
56.6915484066
 31
0.0
 11
-16.7442112152
 21
56.6590639983
 31
0.0
 11
-16.7384392538
 21
56.6252740796
 31
0.0
  0
SPLINE
  5
578
100
AcDbEntity
  8
0
100
AcDbSpline
 62
7
  6
CONTINUOUS
 70
0
 71
3
 72
9
 73
5
 74
3
 42
0.0000001
 43
0.0000001
 44
0.0000000001
 12
-0.0685559625
 22
-0.1766939117
 32
0.0
 13
-0.1597856735
 23
-0.1019274103
 33
0.0
 40
0.0
 40
0.0
 40
0.0
 40
0.0
 40
0.5194847149
 40
1.0
 40
1.0
 40
1.0
 40
1.0
 10
-14.4616028748
 20
0.8530810788
 30
0.0
 10
-14.473474133
 20
0.8224844833
 30
0.0
 10
-14.5050544316
 20
0.7668035546
 30
0.0
 10
-14.5510827872
 20
0.7215394069
 30
0.0
 10
-14.5766759401
 20
0.7052135141
 30
0.0
 11
-14.4616028748
 21
0.8530810788
 31
0.0
 11
-14.5101841136
 21
0.7674448186
 31
0.0
 11
-14.5766759401
 21
0.7052135141
 31
0.0
  0
LINE
  5
579
100
AcDbEntity
  8
ASSI
100
AcDbLine
 62
7
  6
CONTINUOUS
 10
-2.5134816337
 20
-73.1617766691
 11
-2.4621102024
 21
-73.1321108888
  0
SPLINE
  5
57A
100
AcDbEntity
  8
0
100
AcDbSpline
 62
7
  6
CONTINUOUS
 70
0
 71
3
 72
11
 73
7
 74
5
 42
0.0000001
 43
0.0000001
 44
0.0000000001
 12
0.1314847245
 22
0.0786150093
 32
0.0
 13
-0.0000097437
 23
0.153194492
 33
0.0
 40
0.0
 40
0.0
 40
0.0
 40
0.0
 40
0.2886857515
 40
0.5477014767
 40
0.781242467
 40
1.0
 40
1.0
 40
1.0
 40
1.0
 10
-16.8226372444
 20
-59.4338465214
 30
0.0
 10
-16.8099846555
 20
-59.4262815104
 30
0.0
 10
-16.787043093
 20
-59.4099677426
 30
0.0
 10
-16.7597037626
 20
-59.3804368778
 30
0.0
 10
-16.7424558896
 20
-59.3479230728
 30
0.0
 10
-16.7384385433
 20
-59.3246760414
 30
0.0
 10
-16.7384392538
 20
-59.313505225
 30
0.0
 11
-16.8226372444
 21
-59.4338465214
 31
0.0
 11
-16.7868490531
 21
-59.4078645676
 31
0.0
 11
-16.7602760583
 21
-59.3783966004
 31
0.0
 11
-16.7439503433
 21
-59.3465614218
 31
0.0
 11
-16.7384392538
 21
-59.313505225
 31
0.0
  0
SPLINE
  5
57B
100
AcDbEntity
  8
SUPERFICI
100
AcDbSpline
 62
7
  6
CONTINUOUS
 70
0
 71
3
 72
11
 73
7
 74
5
 42
0.0000001
 43
0.0000001
 44
0.0000000001
 12
-0.0000096035
 22
-0.1531801551
 32
0.0
 13
-0.1314724194
 23
-0.0786076521
 33
0.0
 40
0.0
 40
0.0
 40
0.0
 40
0.0
 40
0.2187656471
 40
0.4523170119
 40
0.7113236986
 40
1.0
 40
1.0
 40
1.0
 40
1.0
 10
-15.7069630953
 20
-9.1246693412
 30
0.0
 10
-15.7069637956
 20
-9.1358395265
 30
0.0
 10
-15.7109845672
 20
-9.1590846885
 30
0.0
 10
-15.7282339262
 20
-9.1915939979
 30
0.0
 10
-15.7555708828
 20
-9.2211212577
 30
0.0
 10
-15.7785101237
 20
-9.2374320945
 30
0.0
 10
-15.7911611142
 20
-9.24499615
 30
0.0
 11
-15.7069630953
 21
-9.1246693412
 31
0.0
 11
-15.7124783724
 21
-9.15772292
 31
0.0
 11
-15.7288062583
 21
-9.1895550083
 31
0.0
 11
-15.7553768878
 21
-9.2190182437
 31
0.0
 11
-15.7911611142
 21
-9.24499615
 31
0.0
  0
SPLINE
  5
57C
100
AcDbEntity
  8
SUPERFICI
100
AcDbSpline
 62
7
  6
CONTINUOUS
 70
0
 71
3
 72
11
 73
7
 74
5
 42
0.0000001
 43
0.0000001
 44
0.0000000001
 12
-0.1363196019
 22
0.078710191
 32
0.0
 13
-0.1363200182
 23
-0.07870947
 33
0.0
 40
0.0
 40
0.0
 40
0.0
 40
0.0
 40
0.2177888736
 40
0.4509249731
 40
0.7103011198
 40
1.0
 40
1.0
 40
1.0
 40
1.0
 10
-15.8569574638
 20
-8.8648656508
 30
0.0
 10
-15.8668537613
 20
-8.8591515829
 30
0.0
 10
-15.8895934038
 20
-8.8509004782
 30
0.0
 10
-15.9273614141
 20
-8.8499468548
 30
0.0
 10
-15.9676126168
 20
-8.8596681666
 30
0.0
 10
-15.9937991355
 20
-8.872128274
 30
0.0
 10
-16.0069630544
 20
-8.8797289558
 30
0.0
 11
-15.8569574638
 21
-8.8648656508
 31
0.0
 11
-15.8891079861
 21
-8.8529648353
 31
0.0
 11
-15.9257770744
 21
-8.851501768
 31
0.0
 11
-15.9655908081
 21
-8.8605490353
 31
0.0
 11
-16.0069630544
 21
-8.8797289558
 31
0.0
  0
SPLINE
  5
57D
100
AcDbEntity
  8
SUPERFICI
100
AcDbSpline
 62
7
  6
CONTINUOUS
 70
0
 71
3
 72
11
 73
7
 74
5
 42
0.0000001
 43
0.0000001
 44
0.0000000001
 12
-0.132665165
 22
0.0766104009
 32
0.0
 13
-0.1338225329
 23
-0.0745702972
 33
0.0
 40
0.0
 40
0.0
 40
0.0
 40
0.0
 40
0.2187478139
 40
0.4522842438
 40
0.711303178
 40
1.0
 40
1.0
 40
1.0
 40
1.0
 10
-9.6257309519
 20
-13.6636794249
 30
0.0
 10
-9.6354043569
 20
-13.6580933057
 30
0.0
 10
-9.6575453207
 20
-13.6499490646
 30
0.0
 10
-9.6943271253
 20
-13.648630915
 30
0.0
 10
-9.7335717744
 20
-13.6575446668
 30
0.0
 10
-9.7591709888
 20
-13.6692577883
 30
0.0
 10
-9.7720490354
 20
-13.6764338576
 30
0.0
 11
-9.6257309519
 21
-13.6636794249
 31
0.0
 11
-9.6571130267
 21
-13.6519243917
 31
0.0
 11
-9.6928458214
 21
-13.6501466811
 31
0.0
 11
-9.7316528708
 21
-13.6584280146
 31
0.0
 11
-9.7720490354
 21
-13.6764338576
 31
0.0
  0
SPLINE
  5
57E
100
AcDbEntity
  8
0
100
AcDbSpline
 62
7
  6
CONTINUOUS
 70
0
 71
3
 72
9
 73
5
 74
3
 42
0.0000001
 43
0.0000001
 44
0.0000000001
 12
-0.0829536601
 22
0.04793454
 32
0.0
 13
-0.0851104445
 23
-0.0439913866
 33
0.0
 40
0.0
 40
0.0
 40
0.0
 40
0.0
 40
0.4536581777
 40
1.0
 40
1.0
 40
1.0
 40
1.0
 10
-14.4840607667
 20
5.6261072719
 30
0.0
 10
-14.4966049688
 20
5.633355904
 30
0.0
 10
-14.5301876973
 20
5.6393910592
 30
0.0
 10
-14.5611761416
 20
5.6282666077
 30
0.0
 10
-14.5766759401
 20
5.6202551629
 30
0.0
 11
-14.4840607667
 21
5.6261072719
 31
0.0
 11
-14.5265412091
 21
5.6353001534
 31
0.0
 11
-14.5766759401
 21
5.6202551629
 31
0.0
  0
SPLINE
  5
57F
100
AcDbEntity
  8
0
100
AcDbSpline
 62
7
  6
CONTINUOUS
 70
0
 71
3
 72
9
 73
5
 74
3
 42
0.0000001
 43
0.0000001
 44
0.0000000001
 12
0.0000328704
 22
-0.0958059527
 32
0.0
 13
-0.0806486785
 23
-0.0517162673
 33
0.0
 40
0.0
 40
0.0
 40
0.0
 40
0.0
 40
0.4536727535
 40
1.0
 40
1.0
 40
1.0
 40
1.0
 10
-2.4621102848
 20
-15.1965272973
 30
0.0
 10
-2.462105314
 20
-15.2110154807
 30
0.0
 10
-2.4736684696
 20
-15.2431160324
 30
0.0
 10
-2.4987947769
 20
-15.2643922536
 30
0.0
 10
-2.5134816337
 20
-15.2738102556
 30
0.0
 11
-2.4621102848
 21
-15.1965272973
 31
0.0
 11
-2.4753886452
 21
-15.2379139195
 31
0.0
 11
-2.5134816337
 21
-15.2738102556
 31
0.0
  0
SPLINE
  5
580
100
AcDbEntity
  8
0
100
AcDbSpline
 62
7
  6
CONTINUOUS
 70
0
 71
3
 72
11
 73
7
 74
5
 42
0.0000001
 43
0.0000001
 44
0.0000000001
 12
0.3845332045
 22
-0.214406715
 32
0.0
 13
0.0000000002
 23
-0.4402681283
 33
0.0
 40
0.0
 40
0.0
 40
0.0
 40
0.0
 40
0.2382948755
 40
0.5011054867
 40
0.7633135658
 40
1.0
 40
1.0
 40
1.0
 40
1.0
 10
-16.0069630543
 20
-66.8491186081
 30
0.0
 10
-15.976418957
 20
-66.8661492819
 30
0.0
 10
-15.9185022702
 20
-66.9134141909
 30
0.0
 10
-15.8507422936
 20
-67.0036977015
 30
0.0
 10
-15.8044277252
 20
-67.1063820041
 30
0.0
 10
-15.7911611143
 20
-67.1796506378
 30
0.0
 10
-15.7911611142
 20
-67.2143858022
 30
0.0
 11
-16.0069630543
 21
-66.8491186081
 31
0.0
 11
-15.9243734717
 21
-66.9138166177
 31
0.0
 11
-15.8543680392
 21
-67.0059435992
 31
0.0
 11
-15.8075906675
 21
-67.1114836418
 31
0.0
 11
-15.7911611142
 21
-67.2143858022
 31
0.0
  0
SPLINE
  5
581
100
AcDbEntity
  8
0
100
AcDbSpline
 62
7
  6
CONTINUOUS
 70
0
 71
3
 72
11
 73
7
 74
5
 42
0.0000001
 43
0.0000001
 44
0.0000000001
 12
-0.132665165
 22
0.0766104009
 32
0.0
 13
-0.1338225329
 23
-0.0745702972
 33
0.0
 40
0.0
 40
0.0
 40
0.0
 40
0.0
 40
0.2187478139
 40
0.4522842438
 40
0.711303178
 40
1.0
 40
1.0
 40
1.0
 40
1.0
 10
-9.6257309519
 20
-71.6330690772
 30
0.0
 10
-9.6354043569
 20
-71.627482958
 30
0.0
 10
-9.6575453207
 20
-71.6193387169
 30
0.0
 10
-9.6943271253
 20
-71.6180205673
 30
0.0
 10
-9.7335717744
 20
-71.6269343191
 30
0.0
 10
-9.7591709888
 20
-71.6386474406
 30
0.0
 10
-9.7720490354
 20
-71.6458235099
 30
0.0
 11
-9.6257309519
 21
-71.6330690772
 31
0.0
 11
-9.6571130267
 21
-71.621314044
 31
0.0
 11
-9.6928458214
 21
-71.6195363334
 31
0.0
 11
-9.7316528708
 21
-71.6278176669
 31
0.0
 11
-9.7720490354
 21
-71.6458235099
 31
0.0
  0
SPLINE
  5
582
100
AcDbEntity
  8
0
100
AcDbSpline
 62
7
  6
CONTINUOUS
 70
0
 71
3
 72
11
 73
7
 74
5
 42
0.0000001
 43
0.0000001
 44
0.0000000001
 12
0.1363216183
 22
0.0787103206
 32
0.0
 13
0.1363215866
 23
-0.0787103756
 33
0.0
 40
0.0
 40
0.0
 40
0.0
 40
0.0
 40
0.2177804588
 40
0.4509077062
 40
0.7102936033
 40
1.0
 40
1.0
 40
1.0
 40
1.0
 10
9.6610994234
 20
32.9726694818
 30
0.0
 10
9.6709954849
 20
32.9783833383
 30
0.0
 10
9.6937340062
 20
32.9866352657
 30
0.0
 10
9.7315022207
 20
32.9875898974
 30
0.0
 10
9.7717541806
 20
32.977867878
 30
0.0
 10
9.7979421771
 20
32.9654080473
 30
0.0
 10
9.811106589
 20
32.9578070808
 30
0.0
 11
9.6610994234
 21
32.9726694818
 31
0.0
 11
9.6932487556
 21
32.9845708326
 31
0.0
 11
9.7299168363
 21
32.9860347965
 31
0.0
 11
9.7697325493
 21
32.9769871935
 31
0.0
 11
9.811106589
 21
32.9578070808
 31
0.0
  0
SPLINE
  5
583
100
AcDbEntity
  8
0
100
AcDbSpline
 62
7
  6
CONTINUOUS
 70
0
 71
3
 72
11
 73
7
 74
5
 42
0.0000001
 43
0.0000001
 44
0.0000000001
 12
0.1363216183
 22
0.0787103206
 32
0.0
 13
0.1363215866
 23
-0.0787103756
 33
0.0
 40
0.0
 40
0.0
 40
0.0
 40
0.0
 40
0.2177804588
 40
0.4509077062
 40
0.7102936033
 40
1.0
 40
1.0
 40
1.0
 40
1.0
 10
-6.2488031533
 20
42.1588478316
 30
0.0
 10
-6.2389070918
 20
42.1645616882
 30
0.0
 10
-6.2161685705
 20
42.1728136156
 30
0.0
 10
-6.178400356
 20
42.1737682473
 30
0.0
 10
-6.1381483961
 20
42.1640462279
 30
0.0
 10
-6.1119603996
 20
42.1515863971
 30
0.0
 10
-6.0987959877
 20
42.1439854307
 30
0.0
 11
-6.2488031533
 21
42.1588478316
 31
0.0
 11
-6.2166538211
 21
42.1707491825
 31
0.0
 11
-6.1799857404
 21
42.1722131464
 31
0.0
 11
-6.1401700274
 21
42.1631655434
 31
0.0
 11
-6.0987959877
 21
42.1439854307
 31
0.0
  0
SPLINE
  5
584
100
AcDbEntity
  8
0
100
AcDbSpline
 62
7
  6
CONTINUOUS
 70
0
 71
3
 72
11
 73
7
 74
5
 42
0.0000001
 43
0.0000001
 44
0.0000000001
 12
-0.1363196019
 22
0.078710191
 32
0.0
 13
-0.1363200182
 23
-0.07870947
 33
0.0
 40
0.0
 40
0.0
 40
0.0
 40
0.0
 40
0.2177888736
 40
0.4509249731
 40
0.7103011198
 40
1.0
 40
1.0
 40
1.0
 40
1.0
 10
-15.8569574638
 20
-66.8342553031
 30
0.0
 10
-15.8668537613
 20
-66.8285412352
 30
0.0
 10
-15.8895934038
 20
-66.8202901305
 30
0.0
 10
-15.9273614141
 20
-66.8193365071
 30
0.0
 10
-15.9676126168
 20
-66.8290578188
 30
0.0
 10
-15.9937991355
 20
-66.8415179263
 30
0.0
 10
-16.0069630544
 20
-66.8491186081
 30
0.0
 11
-15.8569574638
 21
-66.8342553031
 31
0.0
 11
-15.8891079861
 21
-66.8223544876
 31
0.0
 11
-15.9257770744
 21
-66.8208914202
 31
0.0
 11
-15.9655908081
 21
-66.8299386876
 31
0.0
 11
-16.0069630544
 21
-66.8491186081
 31
0.0
  0
SPLINE
  5
585
100
AcDbEntity
  8
SUPERFICI
100
AcDbSpline
 62
7
  6
CONTINUOUS
 70
0
 71
3
 72
11
 73
7
 74
5
 42
0.0000001
 43
0.0000001
 44
0.0000000001
 12
-0.1363215866
 22
0.0787103756
 32
0.0
 13
-0.1363216183
 23
-0.0787103206
 33
0.0
 40
0.0
 40
0.0
 40
0.0
 40
0.0
 40
0.2897063967
 40
0.5490922938
 40
0.7822195412
 40
1.0
 40
1.0
 40
1.0
 40
1.0
 10
9.811106589
 20
-25.0115825714
 30
0.0
 10
9.7979421771
 20
-25.003981605
 30
0.0
 10
9.7717541806
 20
-24.9915217743
 30
0.0
 10
9.7315022207
 20
-24.9817997549
 30
0.0
 10
9.6937340062
 20
-24.9827543866
 30
0.0
 10
9.6709954849
 20
-24.991006314
 30
0.0
 10
9.6610994234
 20
-24.9967201705
 30
0.0
 11
9.811106589
 21
-25.0115825714
 31
0.0
 11
9.7697325493
 21
-24.9924024588
 31
0.0
 11
9.7299168363
 21
-24.9833548558
 31
0.0
 11
9.6932487556
 21
-24.9848188197
 31
0.0
 11
9.6610994234
 21
-24.9967201705
 31
0.0
  0
SPLINE
  5
586
100
AcDbEntity
  8
SUPERFICI
100
AcDbSpline
 62
7
  6
CONTINUOUS
 70
0
 71
3
 72
11
 73
7
 74
5
 42
0.0000001
 43
0.0000001
 44
0.0000000001
 12
-0.0464961916
 22
0.4013114562
 32
0.0
 13
-0.3498651772
 23
0.2020077685
 33
0.0
 40
0.0
 40
0.0
 40
0.0
 40
0.0
 40
0.2455415948
 40
0.5082744478
 40
0.7665682291
 40
1.0
 40
1.0
 40
1.0
 40
1.0
 10
-11.1921183984
 20
-13.0947590672
 30
0.0
 10
-11.1959239814
 20
-13.0619128488
 30
0.0
 10
-11.2133489358
 20
-12.9949249439
 30
0.0
 10
-11.2598769847
 20
-12.9020487473
 30
0.0
 10
-11.3228322732
 20
-12.8214816412
 30
0.0
 10
-11.3748736307
 20
-12.7790631153
 30
0.0
 10
-11.4020968466
 20
-12.7633447716
 30
0.0
 11
-11.1921183984
 21
-13.0947590672
 31
0.0
 11
-11.2158927582
 21
-12.9984523255
 31
0.0
 11
-11.2631601773
 21
-12.9034147906
 31
0.0
 11
-11.3279446415
 21
-12.8216112184
 31
0.0
 11
-11.4020968466
 21
-12.7633447716
 31
0.0
  0
SPLINE
  5
587
100
AcDbEntity
  8
SUPERFICI
100
AcDbSpline
 62
7
  6
CONTINUOUS
 70
0
 71
3
 72
11
 73
7
 74
5
 42
0.0000001
 43
0.0000001
 44
0.0000000001
 12
-0.1363215866
 22
0.0787103756
 32
0.0
 13
-0.1363216183
 23
-0.0787103206
 33
0.0
 40
0.0
 40
0.0
 40
0.0
 40
0.0
 40
0.2897063967
 40
0.5490922938
 40
0.7822195412
 40
1.0
 40
1.0
 40
1.0
 40
1.0
 10
-6.0987959877
 20
-15.8254042216
 30
0.0
 10
-6.1119603996
 20
-15.8178032551
 30
0.0
 10
-6.1381483961
 20
-15.8053434244
 30
0.0
 10
-6.178400356
 20
-15.795621405
 30
0.0
 10
-6.2161685705
 20
-15.7965760367
 30
0.0
 10
-6.2389070918
 20
-15.8048279641
 30
0.0
 10
-6.2488031533
 20
-15.8105418207
 30
0.0
 11
-6.0987959877
 21
-15.8254042216
 31
0.0
 11
-6.1401700274
 21
-15.8062241089
 31
0.0
 11
-6.1799857404
 21
-15.7971765059
 31
0.0
 11
-6.2166538211
 21
-15.7986404698
 31
0.0
 11
-6.2488031533
 21
-15.8105418207
 31
0.0
  0
SPLINE
  5
588
100
AcDbEntity
  8
SUPERFICI
100
AcDbSpline
 62
7
  6
CONTINUOUS
 70
0
 71
3
 72
11
 73
7
 74
5
 42
0.0000001
 43
0.0000001
 44
0.0000000001
 12
-0.0464961916
 22
0.4013114562
 32
0.0
 13
-0.3498651772
 23
0.2020077685
 33
0.0
 40
0.0
 40
0.0
 40
0.0
 40
0.0
 40
0.2455415948
 40
0.5082744478
 40
0.7665682291
 40
1.0
 40
1.0
 40
1.0
 40
1.0
 10
4.7177841783
 20
-22.280937417
 30
0.0
 10
4.7139785953
 20
-22.2480911987
 30
0.0
 10
4.6965536409
 20
-22.1811032937
 30
0.0
 10
4.650025592
 20
-22.0882270972
 30
0.0
 10
4.5870703035
 20
-22.007659991
 30
0.0
 10
4.535028946
 20
-21.9652414652
 30
0.0
 10
4.5078057301
 20
-21.9495231215
 30
0.0
 11
4.7177841783
 21
-22.280937417
 31
0.0
 11
4.6940098185
 21
-22.1846306753
 31
0.0
 11
4.6467423994
 21
-22.0895931405
 31
0.0
 11
4.5819579352
 21
-22.0077895683
 31
0.0
 11
4.5078057301
 21
-21.9495231215
 31
0.0
  0
SPLINE
  5
589
100
AcDbEntity
  8
0
100
AcDbSpline
 62
7
  6
CONTINUOUS
 70
0
 71
3
 72
11
 73
7
 74
5
 42
0.0000001
 43
0.0000001
 44
0.0000000001
 12
-0.0000096035
 22
-0.1531801551
 32
0.0
 13
-0.1314724194
 23
-0.0786076521
 33
0.0
 40
0.0
 40
0.0
 40
0.0
 40
0.0
 40
0.2187656471
 40
0.4523170119
 40
0.7113236986
 40
1.0
 40
1.0
 40
1.0
 40
1.0
 10
-15.7069630953
 20
-67.0940589935
 30
0.0
 10
-15.7069637956
 20
-67.1052291788
 30
0.0
 10
-15.7109845672
 20
-67.1284743407
 30
0.0
 10
-15.7282339262
 20
-67.1609836502
 30
0.0
 10
-15.7555708828
 20
-67.19051091
 30
0.0
 10
-15.7785101237
 20
-67.2068217468
 30
0.0
 10
-15.7911611142
 20
-67.2143858022
 30
0.0
 11
-15.7069630953
 21
-67.0940589935
 31
0.0
 11
-15.7124783724
 21
-67.1271125723
 31
0.0
 11
-15.7288062583
 21
-67.1589446606
 31
0.0
 11
-15.7553768878
 21
-67.188407896
 31
0.0
 11
-15.7911611142
 21
-67.2143858022
 31
0.0
  0
SPLINE
  5
58A
100
AcDbEntity
  8
SUPERFICI
100
AcDbSpline
 62
7
  6
CONTINUOUS
 70
0
 71
3
 72
11
 73
7
 74
5
 42
0.0000001
 43
0.0000001
 44
0.0000000001
 12
0.1314847245
 22
0.0786150093
 32
0.0
 13
-0.0000097437
 23
0.153194492
 33
0.0
 40
0.0
 40
0.0
 40
0.0
 40
0.0
 40
0.2886857515
 40
0.5477014767
 40
0.781242467
 40
1.0
 40
1.0
 40
1.0
 40
1.0
 10
-16.8226372444
 20
-1.4644568692
 30
0.0
 10
-16.8099846555
 20
-1.4568918581
 30
0.0
 10
-16.787043093
 20
-1.4405780903
 30
0.0
 10
-16.7597037626
 20
-1.4110472255
 30
0.0
 10
-16.7424558896
 20
-1.3785334206
 30
0.0
 10
-16.7384385433
 20
-1.3552863891
 30
0.0
 10
-16.7384392538
 20
-1.3441155727
 30
0.0
 11
-16.8226372444
 21
-1.4644568692
 31
0.0
 11
-16.7868490531
 21
-1.4384749153
 31
0.0
 11
-16.7602760583
 21
-1.4090069481
 31
0.0
 11
-16.7439503433
 21
-1.3771717695
 31
0.0
 11
-16.7384392538
 21
-1.3441155727
 31
0.0
  0
SPLINE
  5
58B
100
AcDbEntity
  8
0
100
AcDbSpline
 62
7
  6
CONTINUOUS
 70
0
 71
3
 72
11
 73
7
 74
5
 42
0.0000001
 43
0.0000001
 44
0.0000000001
 12
-0.1363196018
 22
0.078710191
 32
0.0
 13
-0.1363200181
 23
-0.07870947
 33
0.0
 40
0.0
 40
0.0
 40
0.0
 40
0.0
 40
0.2177888735
 40
0.4509249731
 40
0.7103011198
 40
1.0
 40
1.0
 40
1.0
 40
1.0
 10
-15.8569574638
 20
49.1045240015
 30
0.0
 10
-15.8668537613
 20
49.1102380694
 30
0.0
 10
-15.8895934038
 20
49.1184891741
 30
0.0
 10
-15.927361414
 20
49.1194427975
 30
0.0
 10
-15.9676126168
 20
49.1097214857
 30
0.0
 10
-15.9937991355
 20
49.0972613782
 30
0.0
 10
-16.0069630543
 20
49.0896606965
 30
0.0
 11
-15.8569574638
 21
49.1045240015
 31
0.0
 11
-15.889107986
 21
49.116424817
 31
0.0
 11
-15.9257770744
 21
49.1178878843
 31
0.0
 11
-15.9655908081
 21
49.108840617
 31
0.0
 11
-16.0069630543
 21
49.0896606965
 31
0.0
  0
SPLINE
  5
58C
100
AcDbEntity
  8
0
100
AcDbSpline
 62
7
  6
CONTINUOUS
 70
0
 71
3
 72
11
 73
7
 74
5
 42
0.0000001
 43
0.0000001
 44
0.0000000001
 12
-0.0000096035
 22
-0.1531801552
 32
0.0
 13
-0.1314724194
 23
-0.0786076521
 33
0.0
 40
0.0
 40
0.0
 40
0.0
 40
0.0
 40
0.2187656472
 40
0.4523170119
 40
0.7113236985
 40
1.0
 40
1.0
 40
1.0
 40
1.0
 10
-15.7069630953
 20
48.8447203111
 30
0.0
 10
-15.7069637956
 20
48.8335501258
 30
0.0
 10
-15.7109845672
 20
48.8103049638
 30
0.0
 10
-15.7282339262
 20
48.7777956544
 30
0.0
 10
-15.7555708828
 20
48.7482683946
 30
0.0
 10
-15.7785101237
 20
48.7319575577
 30
0.0
 10
-15.7911611142
 20
48.7243935023
 30
0.0
 11
-15.7069630953
 21
48.8447203111
 31
0.0
 11
-15.7124783724
 21
48.8116667323
 31
0.0
 11
-15.7288062583
 21
48.779834644
 31
0.0
 11
-15.7553768878
 21
48.7503714086
 31
0.0
 11
-15.7911611142
 21
48.7243935023
 31
0.0
  0
SPLINE
  5
58D
100
AcDbEntity
  8
0
100
AcDbSpline
 62
7
  6
CONTINUOUS
 70
0
 71
3
 72
11
 73
7
 74
5
 42
0.0000001
 43
0.0000001
 44
0.0000000001
 12
0.0000097437
 22
-0.153194492
 32
0.0
 13
-0.1314847245
 23
-0.0786150093
 33
0.0
 40
0.0
 40
0.0
 40
0.0
 40
0.0
 40
0.218757533
 40
0.4522985233
 40
0.7113142485
 40
1.0
 40
1.0
 40
1.0
 40
1.0
 10
-16.7384392538
 20
56.6252740796
 30
0.0
 10
-16.7384385433
 20
56.6141032632
 30
0.0
 10
-16.7424558896
 20
56.5908562317
 30
0.0
 10
-16.7597037626
 20
56.5583424268
 30
0.0
 10
-16.787043093
 20
56.528811562
 30
0.0
 10
-16.8099846555
 20
56.5124977941
 30
0.0
 10
-16.8226372444
 20
56.5049327831
 30
0.0
 11
-16.7384392538
 21
56.6252740796
 31
0.0
 11
-16.7439503433
 21
56.5922178828
 31
0.0
 11
-16.7602760583
 21
56.5603827042
 31
0.0
 11
-16.7868490531
 21
56.530914737
 31
0.0
 11
-16.8226372444
 21
56.5049327831
 31
0.0
  0
SPLINE
  5
58E
100
AcDbEntity
  8
0
100
AcDbSpline
 62
7
  6
CONTINUOUS
 70
0
 71
3
 72
11
 73
7
 74
5
 42
0.0000001
 43
0.0000001
 44
0.0000000001
 12
0.0
 22
0.4402681283
 32
0.0
 13
-0.3845332044
 23
0.2144067152
 33
0.0
 40
0.0
 40
0.0
 40
0.0
 40
0.0
 40
0.2366864372
 40
0.4988945121
 40
0.7617051275
 40
1.0
 40
1.0
 40
1.0
 40
1.0
 10
-15.7911611142
 20
48.7243935023
 30
0.0
 10
-15.7911611142
 20
48.7591286672
 30
0.0
 10
-15.8044277255
 20
48.8323973007
 30
0.0
 10
-15.8507422939
 20
48.9350816037
 30
0.0
 10
-15.9185022703
 20
49.0253651141
 30
0.0
 10
-15.9764189574
 20
49.0726300228
 30
0.0
 10
-16.0069630543
 20
49.0896606965
 30
0.0
 11
-15.7911611142
 21
48.7243935023
 31
0.0
 11
-15.807590668
 21
48.827295664
 31
0.0
 11
-15.854368039
 21
48.9328357049
 31
0.0
 11
-15.9243734725
 21
49.0249626879
 31
0.0
 11
-16.0069630543
 21
49.0896606965
 31
0.0
  0
LINE
  5
58F
100
AcDbEntity
  8
0
100
AcDbLine
 62
7
  6
CONTINUOUS
 10
-14.4547876421
 20
-52.36018416
 11
-14.506159075
 21
-52.3898500435
  0
SPLINE
  5
590
100
AcDbEntity
  8
0
100
AcDbSpline
 62
7
  6
CONTINUOUS
 70
0
 71
3
 72
9
 73
5
 74
3
 42
0.0000001
 43
0.0000001
 44
0.0000000001
 12
-0.0829539587
 22
0.0479339076
 32
0.0
 13
-0.085110393
 23
-0.04399136
 33
0.0
 40
0.0
 40
0.0
 40
0.0
 40
0.0
 40
0.4536529533
 40
1.0
 40
1.0
 40
1.0
 40
1.0
 10
-14.4840608576
 20
63.5954969738
 30
0.0
 10
-14.4966049604
 20
63.6027454267
 30
0.0
 10
-14.5301875167
 20
63.6087809267
 30
0.0
 10
-14.5611760028
 20
63.5976563317
 30
0.0
 10
-14.5766759401
 20
63.5896448152
 30
0.0
 11
-14.4840608576
 21
63.5954969738
 31
0.0
 11
-14.5265407498
 21
63.6046899068
 31
0.0
 11
-14.5766759401
 21
63.5896448152
 31
0.0
  0
SPLINE
  5
591
100
AcDbEntity
  8
0
100
AcDbSpline
 62
7
  6
CONTINUOUS
 70
0
 71
3
 72
11
 73
7
 74
5
 42
0.0000001
 43
0.0000001
 44
0.0000000001
 12
0.3498651772
 22
-0.2020077685
 32
0.0
 13
0.0464961916
 23
-0.4013114562
 33
0.0
 40
0.0
 40
0.0
 40
0.0
 40
0.0
 40
0.2334317709
 40
0.4917255522
 40
0.7544584052
 40
1.0
 40
1.0
 40
1.0
 40
1.0
 10
-11.4020968466
 20
45.2060448807
 30
0.0
 10
-11.3748736307
 20
45.190326537
 30
0.0
 10
-11.3228322732
 20
45.1479080111
 30
0.0
 10
-11.2598769847
 20
45.067340905
 30
0.0
 10
-11.2133489358
 20
44.9744647084
 30
0.0
 10
-11.1959239814
 20
44.9074768035
 30
0.0
 10
-11.1921183984
 20
44.8746305851
 30
0.0
 11
-11.4020968466
 21
45.2060448807
 31
0.0
 11
-11.3279446415
 21
45.1477784339
 31
0.0
 11
-11.2631601773
 21
45.0659748617
 31
0.0
 11
-11.2158927582
 21
44.9709373268
 31
0.0
 11
-11.1921183984
 21
44.8746305851
 31
0.0
  0
SPLINE
  5
592
100
AcDbEntity
  8
0
100
AcDbSpline
 62
7
  6
CONTINUOUS
 70
0
 71
3
 72
11
 73
7
 74
5
 42
0.0000001
 43
0.0000001
 44
0.0000000001
 12
0.3498651772
 22
-0.2020077685
 32
0.0
 13
0.0464961916
 23
-0.4013114562
 33
0.0
 40
0.0
 40
0.0
 40
0.0
 40
0.0
 40
0.2334317709
 40
0.4917255522
 40
0.7544584052
 40
1.0
 40
1.0
 40
1.0
 40
1.0
 10
4.5078057301
 20
36.0198665308
 30
0.0
 10
4.535028946
 20
36.0041481871
 30
0.0
 10
4.5870703035
 20
35.9617296613
 30
0.0
 10
4.650025592
 20
35.8811625551
 30
0.0
 10
4.6965536409
 20
35.7882863586
 30
0.0
 10
4.7139785953
 20
35.7212984536
 30
0.0
 10
4.7177841783
 20
35.6884522352
 30
0.0
 11
4.5078057301
 21
36.0198665308
 31
0.0
 11
4.5819579352
 21
35.961600084
 31
0.0
 11
4.6467423994
 21
35.8797965118
 31
0.0
 11
4.6940098185
 21
35.784758977
 31
0.0
 11
4.7177841783
 21
35.6884522352
 31
0.0
  0
SPLINE
  5
593
100
AcDbEntity
  8
SUPERFICI
100
AcDbSpline
 62
7
  6
CONTINUOUS
 70
0
 71
3
 72
11
 73
7
 74
5
 42
0.0000001
 43
0.0000001
 44
0.0000000001
 12
0.3845332045
 22
-0.214406715
 32
0.0
 13
0.0000000002
 23
-0.4402681283
 33
0.0
 40
0.0
 40
0.0
 40
0.0
 40
0.0
 40
0.2382948755
 40
0.5011054867
 40
0.7633135658
 40
1.0
 40
1.0
 40
1.0
 40
1.0
 10
-16.0069630543
 20
-8.8797289558
 30
0.0
 10
-15.976418957
 20
-8.8967596296
 30
0.0
 10
-15.9185022702
 20
-8.9440245386
 30
0.0
 10
-15.8507422936
 20
-9.0343080492
 30
0.0
 10
-15.8044277252
 20
-9.1369923518
 30
0.0
 10
-15.7911611143
 20
-9.2102609855
 30
0.0
 10
-15.7911611142
 20
-9.24499615
 30
0.0
 11
-16.0069630543
 21
-8.8797289558
 31
0.0
 11
-15.9243734717
 21
-8.9444269654
 31
0.0
 11
-15.8543680392
 21
-9.0365539469
 31
0.0
 11
-15.8075906675
 21
-9.1420939895
 31
0.0
 11
-15.7911611142
 21
-9.24499615
 31
0.0
  0
SPLINE
  5
594
100
AcDbEntity
  8
0
100
AcDbSpline
 62
7
  6
CONTINUOUS
 70
0
 71
3
 72
9
 73
5
 74
3
 42
0.0000001
 43
0.0000001
 44
0.0000000001
 12
0.0000325061
 22
-0.0958059126
 32
0.0
 13
-0.0806486446
 23
-0.0517162456
 33
0.0
 40
0.0
 40
0.0
 40
0.0
 40
0.0
 40
0.4536675621
 40
1.0
 40
1.0
 40
1.0
 40
1.0
 10
-2.4621102818
 20
42.7728622701
 30
0.0
 10
-2.4621053661
 20
42.7583742585
 30
0.0
 10
-2.4736682225
 20
42.7262736794
 30
0.0
 10
-2.4987946435
 20
42.7049974842
 30
0.0
 10
-2.5134816337
 20
42.6955793967
 30
0.0
 11
-2.4621102818
 21
42.7728622701
 31
0.0
 11
-2.4753883268
 21
42.7314760881
 31
0.0
 11
-2.5134816337
 21
42.6955793967
 31
0.0
  0
SPLINE
  5
595
100
AcDbEntity
  8
RACCORDO
100
AcDbSpline
 62
7
  6
CONTINUOUS
 70
0
 71
3
 72
11
 73
7
 74
5
 42
0.0000001
 43
0.0000001
 44
0.0000000001
 12
-0.0464961916
 22
0.4013114562
 32
0.0
 13
-0.3498651772
 23
0.2020077685
 33
0.0
 40
0.0
 40
0.0
 40
0.0
 40
0.0
 40
0.2455415948
 40
0.5082744478
 40
0.7665682291
 40
1.0
 40
1.0
 40
1.0
 40
1.0
 10
-11.1921183984
 20
-71.0641487195
 30
0.0
 10
-11.1959239814
 20
-71.0313025011
 30
0.0
 10
-11.2133489358
 20
-70.9643145961
 30
0.0
 10
-11.2598769847
 20
-70.8714383996
 30
0.0
 10
-11.3228322732
 20
-70.7908712934
 30
0.0
 10
-11.3748736307
 20
-70.7484527676
 30
0.0
 10
-11.4020968466
 20
-70.7327344239
 30
0.0
 11
-11.1921183984
 21
-71.0641487195
 31
0.0
 11
-11.2158927582
 21
-70.9678419777
 31
0.0
 11
-11.2631601773
 21
-70.8728044429
 31
0.0
 11
-11.3279446415
 21
-70.7910008707
 31
0.0
 11
-11.4020968466
 21
-70.7327344239
 31
0.0
  0
SPLINE
  5
596
100
AcDbEntity
  8
RACCORDO
100
AcDbSpline
 62
7
  6
CONTINUOUS
 70
0
 71
3
 72
11
 73
7
 74
5
 42
0.0000001
 43
0.0000001
 44
0.0000000001
 12
-0.1363215866
 22
0.0787103756
 32
0.0
 13
-0.1363216183
 23
-0.0787103206
 33
0.0
 40
0.0
 40
0.0
 40
0.0
 40
0.0
 40
0.2897063967
 40
0.5490922938
 40
0.7822195412
 40
1.0
 40
1.0
 40
1.0
 40
1.0
 10
-6.0987959877
 20
-73.7947938739
 30
0.0
 10
-6.1119603996
 20
-73.7871929074
 30
0.0
 10
-6.1381483961
 20
-73.7747330767
 30
0.0
 10
-6.178400356
 20
-73.7650110573
 30
0.0
 10
-6.2161685705
 20
-73.765965689
 30
0.0
 10
-6.2389070918
 20
-73.7742176164
 30
0.0
 10
-6.2488031533
 20
-73.7799314729
 30
0.0
 11
-6.0987959877
 21
-73.7947938739
 31
0.0
 11
-6.1401700274
 21
-73.7756137612
 31
0.0
 11
-6.1799857404
 21
-73.7665661582
 31
0.0
 11
-6.2166538211
 21
-73.7680301221
 31
0.0
 11
-6.2488031533
 21
-73.7799314729
 31
0.0
  0
SPLINE
  5
597
100
AcDbEntity
  8
RACCORDO
100
AcDbSpline
 62
7
  6
CONTINUOUS
 70
0
 71
3
 72
11
 73
7
 74
5
 42
0.0000001
 43
0.0000001
 44
0.0000000001
 12
-0.0464961916
 22
0.4013114562
 32
0.0
 13
-0.3498651772
 23
0.2020077685
 33
0.0
 40
0.0
 40
0.0
 40
0.0
 40
0.0
 40
0.2455415948
 40
0.5082744478
 40
0.7665682291
 40
1.0
 40
1.0
 40
1.0
 40
1.0
 10
4.7177841783
 20
-80.2503270693
 30
0.0
 10
4.7139785953
 20
-80.217480851
 30
0.0
 10
4.6965536409
 20
-80.150492946
 30
0.0
 10
4.650025592
 20
-80.0576167495
 30
0.0
 10
4.5870703035
 20
-79.9770496433
 30
0.0
 10
4.535028946
 20
-79.9346311175
 30
0.0
 10
4.5078057301
 20
-79.9189127738
 30
0.0
 11
4.7177841783
 21
-80.2503270693
 31
0.0
 11
4.6940098185
 21
-80.1540203276
 31
0.0
 11
4.6467423994
 21
-80.0589827928
 31
0.0
 11
4.5819579352
 21
-79.9771792206
 31
0.0
 11
4.5078057301
 21
-79.9189127738
 31
0.0
  0
SPLINE
  5
598
100
AcDbEntity
  8
RACCORDO
100
AcDbSpline
 62
7
  6
CONTINUOUS
 70
0
 71
3
 72
11
 73
7
 74
5
 42
0.0000001
 43
0.0000001
 44
0.0000000001
 12
-0.1363215866
 22
0.0787103756
 32
0.0
 13
-0.1363216183
 23
-0.0787103206
 33
0.0
 40
0.0
 40
0.0
 40
0.0
 40
0.0
 40
0.2897063967
 40
0.5490922938
 40
0.7822195412
 40
1.0
 40
1.0
 40
1.0
 40
1.0
 10
9.811106589
 20
-82.9809722237
 30
0.0
 10
9.7979421771
 20
-82.9733712573
 30
0.0
 10
9.7717541806
 20
-82.9609114266
 30
0.0
 10
9.7315022207
 20
-82.9511894072
 30
0.0
 10
9.6937340062
 20
-82.9521440389
 30
0.0
 10
9.6709954849
 20
-82.9603959662
 30
0.0
 10
9.6610994234
 20
-82.9661098228
 30
0.0
 11
9.811106589
 21
-82.9809722237
 31
0.0
 11
9.7697325493
 21
-82.9617921111
 31
0.0
 11
9.7299168363
 21
-82.9527445081
 31
0.0
 11
9.6932487556
 21
-82.954208472
 31
0.0
 11
9.6610994234
 21
-82.9661098228
 31
0.0
  0
SPLINE
  5
599
100
AcDbEntity
  8
0
100
AcDbSpline
 62
7
  6
CONTINUOUS
 70
0
 71
3
 72
11
 73
7
 74
5
 42
0.0000001
 43
0.0000001
 44
0.0000000001
 12
0.1338225329
 22
0.0745702972
 32
0.0
 13
0.132665165
 23
-0.0766104009
 33
0.0
 40
0.0
 40
0.0
 40
0.0
 40
0.0
 40
0.288696822
 40
0.5477157562
 40
0.7812521861
 40
1.0
 40
1.0
 40
1.0
 40
1.0
 10
-9.7720490354
 20
44.2929557947
 30
0.0
 10
-9.7591709888
 20
44.300131864
 30
0.0
 10
-9.7335717744
 20
44.3118449855
 30
0.0
 10
-9.6943271253
 20
44.3207587373
 30
0.0
 10
-9.6575453207
 20
44.3194405876
 30
0.0
 10
-9.6354043569
 20
44.3112963466
 30
0.0
 10
-9.6257309519
 20
44.3057102273
 30
0.0
 11
-9.7720490354
 21
44.2929557947
 31
0.0
 11
-9.7316528708
 21
44.3109616377
 31
0.0
 11
-9.6928458214
 21
44.3192429712
 31
0.0
 11
-9.6571130267
 21
44.3174652606
 31
0.0
 11
-9.6257309519
 21
44.3057102273
 31
0.0
  0
SPLINE
  5
59A
100
AcDbEntity
  8
SMUSSO
100
AcDbSpline
 62
7
  6
CONTINUOUS
 70
0
 71
3
 72
11
 73
7
 74
5
 42
0.0000001
 43
0.0000001
 44
0.0000000001
 12
0.4543421689
 22
0.2623314052
 32
0.0
 13
0.4543642046
 23
-0.262293237
 33
0.0
 40
0.0
 40
0.0
 40
0.0
 40
0.0
 40
0.2177717752
 40
0.4509547616
 40
0.7101912408
 40
1.0
 40
1.0
 40
1.0
 40
1.0
 10
-34.1759832693
 20
115.7590507424
 30
0.0
 10
-34.1430023024
 20
115.7780935343
 30
0.0
 10
-34.0672169021
 20
115.8056221047
 30
0.0
 10
-33.941356996
 20
115.8087759209
 30
0.0
 10
-33.8071902729
 20
115.7764327705
 30
0.0
 10
-33.7199216996
 20
115.7348896395
 30
0.0
 10
-33.6760287908
 20
115.709551347
 30
0.0
 11
-34.1759832693
 21
115.7590507424
 31
0.0
 11
-34.0688430786
 21
115.7987285505
 31
0.0
 11
-33.9466037198
 21
115.8036041577
 31
0.0
 11
-33.8139728833
 21
115.7734964479
 31
0.0
 11
-33.6760287908
 21
115.709551347
 31
0.0
  0
SPLINE
  5
59B
100
AcDbEntity
  8
SMUSSO
100
AcDbSpline
 62
7
  6
CONTINUOUS
 70
0
 71
3
 72
11
 73
7
 74
5
 42
0.0000001
 43
0.0000001
 44
0.0000000001
 12
0.6347205663
 22
-0.3664797009
 32
0.0
 13
0.0000000001
 23
-0.7329239854
 33
0.0
 40
0.0
 40
0.0
 40
0.0
 40
0.0
 40
0.2372223367
 40
0.5000061076
 40
0.7627865546
 40
1.0
 40
1.0
 40
1.0
 40
1.0
 10
32.7213662994
 20
77.3725670355
 30
0.0
 10
32.7715562647
 20
77.3435879785
 30
0.0
 10
32.8665441709
 20
77.2636443312
 30
0.0
 10
32.9774110493
 20
77.1121417488
 30
0.0
 10
33.0531820835
 20
76.9403790406
 30
0.0
 10
33.07491969
 20
76.8181477417
 30
0.0
 10
33.07491969
 20
76.7601946004
 30
0.0
 11
32.7213662994
 21
77.3725670355
 31
0.0
 11
32.8566653016
 21
77.2633720482
 31
0.0
 11
32.9713662997
 21
77.1086508645
 31
0.0
 11
33.0480070501
 21
76.9319584181
 31
0.0
 11
33.07491969
 21
76.7601946004
 31
0.0
  0
SPLINE
  5
59C
100
AcDbEntity
  8
SMUSSO
100
AcDbSpline
 62
7
  6
CONTINUOUS
 70
0
 71
3
 72
11
 73
7
 74
5
 42
0.0000001
 43
0.0000001
 44
0.0000000001
 12
-0.0000000005
 22
-0.5246375645
 32
0.0
 13
-0.4543421701
 23
-0.2623314059
 33
0.0
 40
0.0
 40
0.0
 40
0.0
 40
0.0
 40
0.2898086042
 40
0.549045169
 40
0.7822281919
 40
1.0
 40
1.0
 40
1.0
 40
1.0
 10
33.07491969
 20
-115.8451831499
 30
0.0
 10
33.0749196899
 20
-115.8958646433
 30
0.0
 10
33.0672681568
 20
-115.9922134234
 30
0.0
 10
33.0282022077
 20
-116.1245789732
 30
0.0
 10
32.962546946
 20
-116.2320036264
 30
0.0
 10
32.9008166961
 20
-116.2838748868
 30
0.0
 10
32.8678357241
 20
-116.3029176817
 30
0.0
 11
33.07491969
 21
-115.8451831499
 31
0.0
 11
33.0613341896
 21
-115.9966194671
 31
0.0
 11
33.0211000663
 21
-116.1265372897
 31
0.0
 11
32.9557637522
 21
-116.2299655411
 31
0.0
 11
32.8678357241
 21
-116.3029176817
 31
0.0
  0
SPLINE
  5
59D
100
AcDbEntity
  8
SMUSSO
100
AcDbSpline
 62
7
  6
CONTINUOUS
 70
0
 71
3
 72
11
 73
7
 74
5
 42
0.0000001
 43
0.0000001
 44
0.0000000001
 12
1.2694402168
 22
-0.7329588731
 32
0.0
 13
0.0000000001
 23
-1.4658469134
 33
0.0
 40
0.0
 40
0.0
 40
0.0
 40
0.0
 40
0.2372212893
 40
0.5000061074
 40
0.7627876014
 40
1.0
 40
1.0
 40
1.0
 40
1.0
 10
32.3678129088
 20
77.5766648772
 30
0.0
 10
32.4681923238
 20
77.5187070609
 30
0.0
 10
32.6581667784
 20
77.3588184396
 30
0.0
 10
32.8799013776
 20
77.0558137091
 30
0.0
 10
33.031442649
 20
76.7122877801
 30
0.0
 10
33.07491969
 20
76.4678256946
 30
0.0
 10
33.07491969
 20
76.3519200071
 30
0.0
 11
32.3678129088
 21
77.5766648772
 31
0.0
 11
32.6384087872
 21
77.3582751124
 31
0.0
 11
32.8678115644
 21
77.0488317592
 31
0.0
 11
33.0210935284
 21
76.6954456972
 31
0.0
 11
33.07491969
 21
76.3519200071
 31
0.0
  0
SPLINE
  5
59E
100
AcDbEntity
  8
SMUSSO
100
AcDbSpline
 62
7
  6
CONTINUOUS
 70
0
 71
3
 72
11
 73
7
 74
5
 42
0.0000001
 43
0.0000001
 44
0.0000000001
 12
0.634720567
 22
-0.3664796997
 32
0.0
 13
0.0000000006
 23
-0.7329239855
 33
0.0
 40
0.0
 40
0.0
 40
0.0
 40
0.0
 40
0.2372223809
 40
0.5000061068
 40
0.7627865084
 40
1.0
 40
1.0
 40
1.0
 40
1.0
 10
35.0901740164
 20
78.7403303236
 30
0.0
 10
35.1403639911
 20
78.7113512613
 30
0.0
 10
35.2353518955
 20
78.631407611
 30
0.0
 10
35.3462187637
 20
78.4799050362
 30
0.0
 10
35.4219897971
 20
78.3081423403
 30
0.0
 10
35.4437274069
 20
78.1859110411
 30
0.0
 10
35.443727407
 20
78.1279578885
 30
0.0
 11
35.0901740164
 21
78.7403303236
 31
0.0
 11
35.2254730413
 21
78.6311353128
 31
0.0
 11
35.3401740164
 21
78.4764141531
 31
0.0
 11
35.4168147576
 21
78.299721739
 31
0.0
 11
35.443727407
 21
78.1279578885
 31
0.0
  0
SPLINE
  5
59F
100
AcDbEntity
  8
DRAFT
100
AcDbSpline
 62
7
  6
CONTINUOUS
 70
0
 71
3
 72
9
 73
5
 74
3
 42
0.0000001
 43
0.0000001
 44
0.0000000001
 12
0.3439167535
 22
-0.0396184634
 32
0.0
 13
0.3034424164
 23
0.1666464998
 33
0.0
 40
0.0
 40
0.0
 40
0.0
 40
0.0
 40
0.5179198131
 40
1.0
 40
1.0
 40
1.0
 40
1.0
 10
33.0750216525
 20
-115.6782540045
 30
0.0
 10
33.1343954194
 20
-115.6850937336
 30
0.0
 10
33.2515643981
 20
-115.6842799931
 30
0.0
 10
33.363192841
 20
-115.6463957499
 30
0.0
 10
33.4119540332
 20
-115.619616758
 30
0.0
 11
33.0750216525
 21
-115.6782540045
 31
0.0
 11
33.254277492
 21
-115.6743070027
 31
0.0
 11
33.4119540332
 21
-115.619616758
 31
0.0
  0
SPLINE
  5
5A0
100
AcDbEntity
  8
DRAFT
100
AcDbSpline
 62
7
  6
CONTINUOUS
 70
0
 71
3
 72
11
 73
7
 74
5
 42
0.0000001
 43
0.0000001
 44
0.0000000001
 12
0.0
 22
-0.7975203522
 32
0.0
 13
-0.6990399922
 23
-0.3839033753
 33
0.0
 40
0.0
 40
0.0
 40
0.0
 40
0.0
 40
0.2902059834
 40
0.5493244351
 40
0.7821734094
 40
1.0
 40
1.0
 40
1.0
 40
1.0
 10
35.443727407
 20
-113.9875771507
 30
0.0
 10
35.443727407
 20
-114.0647255434
 30
0.0
 10
35.4319210695
 20
-114.2112824646
 30
0.0
 10
35.3715020186
 20
-114.4122544158
 30
0.0
 10
35.2698765574
 20
-114.5744562342
 30
0.0
 10
35.1745477353
 20
-114.651552298
 30
0.0
 10
35.1237912359
 20
-114.6794270858
 30
0.0
 11
35.443727407
 21
-113.9875771507
 31
0.0
 11
35.4227052258
 21
-114.2180656284
 31
0.0
 11
35.3604747604
 21
-114.4151253072
 31
0.0
 11
35.259503054
 21
-114.5709773894
 31
0.0
 11
35.1237912359
 21
-114.6794270858
 31
0.0
  0
SPLINE
  5
5A1
100
AcDbEntity
  8
DRAFT
100
AcDbSpline
 62
7
  6
CONTINUOUS
 70
0
 71
3
 72
11
 73
7
 74
5
 42
0.0000001
 43
0.0000001
 44
0.0000000001
 12
0.6819670763
 22
0.4134729514
 32
0.0
 13
0.6906953604
 23
-0.3987215744
 33
0.0
 40
0.0
 40
0.0
 40
0.0
 40
0.0
 40
0.2178265534
 40
0.4506754916
 40
0.7097938992
 40
1.0
 40
1.0
 40
1.0
 40
1.0
 10
-31.6421227023
 20
116.901139917
 30
0.0
 10
-31.5926058564
 20
116.9311617129
 30
0.0
 10
-31.4781767389
 20
116.9751772406
 30
0.0
 10
-31.2868934939
 20
116.982097223
 30
0.0
 10
-31.0826344107
 20
116.9339470633
 30
0.0
 10
-30.9498056849
 20
116.8709005374
 30
0.0
 10
-30.8829910158
 20
116.8323300596
 30
0.0
 11
-31.6421227023
 21
116.901139917
 31
0.0
 11
-31.4803501277
 21
116.9644539792
 31
0.0
 11
-31.2948929333
 21
116.9739823384
 31
0.0
 11
-31.0931165177
 21
116.9293569084
 31
0.0
 11
-30.8829910158
 21
116.8323300596
 31
0.0
  0
SPLINE
  5
5A2
100
AcDbEntity
  8
DRAFT
100
AcDbSpline
 62
7
  6
CONTINUOUS
 70
0
 71
3
 72
9
 73
5
 74
3
 42
0.0000001
 43
0.0000001
 44
0.0000000001
 12
-0.2959994751
 22
-0.1794628815
 32
0.0
 13
-0.137631681
 23
-0.3176163338
 33
0.0
 40
0.0
 40
0.0
 40
0.0
 40
0.0
 40
0.4820832229
 40
1.0
 40
1.0
 40
1.0
 40
1.0
 10
-33.3122129542
 20
115.8886470625
 30
0.0
 10
-33.3597784145
 20
115.859808381
 30
0.0
 10
-33.4483885821
 20
115.7820828039
 30
0.0
 10
-33.5076703371
 20
115.6810288669
 30
0.0
 10
-33.5314309226
 20
115.6261959242
 30
0.0
 11
-33.3122129542
 21
115.8886470625
 31
0.0
 11
-33.4383973176
 21
115.779446378
 31
0.0
 11
-33.5314309226
 21
115.6261959242
 31
0.0
  0
SPLINE
  5
5A3
100
AcDbEntity
  8
DRAFT
100
AcDbSpline
 62
7
  6
CONTINUOUS
 70
0
 71
3
 72
11
 73
7
 74
5
 42
0.0000001
 43
0.0000001
 44
0.0000000001
 12
-0.6715382343
 22
0.3877377601
 32
0.0
 13
-0.663084158
 23
-0.4020243402
 33
0.0
 40
0.0
 40
0.0
 40
0.0
 40
0.0
 40
0.2902115704
 40
0.5493320929
 40
0.7821787869
 40
1.0
 40
1.0
 40
1.0
 40
1.0
 10
-32.5741099819
 20
115.8216948827
 30
0.0
 10
-32.6390727038
 20
115.8592035441
 30
0.0
 10
-32.7682203571
 20
115.9205158242
 30
0.0
 10
-32.9668217129
 20
115.9673480781
 30
0.0
 10
-33.1528079519
 20
115.9606306213
 30
0.0
 10
-33.2640683557
 20
115.9178368723
 30
0.0
 10
-33.3122129542
 20
115.8886470625
 30
0.0
 11
-32.5741099819
 21
115.8216948827
 31
0.0
 11
-32.7784135291
 21
115.9160535328
 31
0.0
 11
-32.9746014206
 21
115.9594579659
 31
0.0
 11
-33.1549222721
 21
115.9502032777
 31
0.0
 11
-33.3122129542
 21
115.8886470625
 31
0.0
  0
SPLINE
  5
5A4
100
AcDbEntity
  8
DRAFT
100
AcDbSpline
 62
7
  6
CONTINUOUS
 70
0
 71
3
 72
13
 73
9
 74
7
 42
0.0000001
 43
0.0000001
 44
0.0000000001
 12
1.9064768663
 22
-1.1007758488
 32
0.0
 13
0.0000000018
 23
-2.2014453232
 33
0.0
 40
0.0
 40
0.0
 40
0.0
 40
0.0
 40
0.1142620818
 40
0.2375408518
 40
0.5000060651
 40
0.7624679584
 40
0.8857428522
 40
1.0
 40
1.0
 40
1.0
 40
1.0
 10
34.3830672352
 20
79.148526007
 30
0.0
 10
34.4556799071
 20
79.1066003603
 30
0.0
 10
34.5991166638
 20
79.0060635801
 30
0.0
 10
34.8676211794
 20
78.7547154977
 30
0.0
 10
35.1512819665
 20
78.3672966987
 30
0.0
 10
35.3449657617
 20
77.9279324655
 30
0.0
 10
35.4283822629
 20
77.5697345558
 30
0.0
 10
35.4437274069
 20
77.3952523242
 30
0.0
 10
35.443727407
 20
77.311408703
 30
0.0
 11
34.3830672352
 21
79.148526007
 31
0.0
 11
34.5899984521
 21
79.0055130315
 31
0.0
 11
34.7889617776
 21
78.8209407529
 31
0.0
 11
35.1330672348
 21
78.3567774962
 31
0.0
 11
35.3629880003
 21
77.8266981719
 31
0.0
 11
35.4233461549
 21
77.5621124723
 31
0.0
 11
35.443727407
 21
77.311408703
 31
0.0
  0
SPLINE
  5
5A5
100
AcDbEntity
  8
DRAFT
100
AcDbSpline
 62
7
  6
CONTINUOUS
 70
0
 71
3
 72
13
 73
9
 74
7
 42
0.0000001
 43
0.0000001
 44
0.0000000001
 12
0.0
 22
2.1401745251
 32
0.0
 13
-1.8534156543
 23
1.0701389677
 33
0.0
 40
0.0
 40
0.0
 40
0.0
 40
0.0
 40
0.1142571478
 40
0.2375320416
 40
0.4999939349
 40
0.7624591482
 40
0.8857379182
 40
1.0
 40
1.0
 40
1.0
 40
1.0
 10
33.7229857155
 20
76.3519634075
 30
0.0
 10
33.7229857155
 20
76.4334734865
 30
0.0
 10
33.7080676588
 20
76.603099515
 30
0.0
 10
33.6269728123
 20
76.9513280326
 30
0.0
 10
33.4386796397
 20
77.3784638462
 30
0.0
 10
33.1629137216
 20
77.755099975
 30
0.0
 10
32.9018822446
 20
77.9994525178
 30
0.0
 10
32.7624376308
 20
78.0971911504
 30
0.0
 10
32.6918459204
 20
78.1379499191
 30
0.0
 11
33.7229857155
 21
76.3519634075
 31
0.0
 11
33.7031717162
 21
76.59568957
 31
0.0
 11
33.6444934546
 21
76.8529112997
 31
0.0
 11
33.4209718618
 21
77.368237415
 31
0.0
 11
33.0864435744
 21
77.8194820437
 31
0.0
 11
32.8930178117
 21
77.9989172921
 31
0.0
 11
32.6918459204
 21
78.1379499191
 31
0.0
  0
SPLINE
  5
5A6
100
AcDbEntity
  8
DRAFT
100
AcDbSpline
 62
7
  6
CONTINUOUS
 70
0
 71
3
 72
11
 73
7
 74
5
 42
0.0000001
 43
0.0000001
 44
0.0000000001
 12
0.6795842569
 22
0.3732185468
 32
0.0
 13
-0.0000000007
 23
0.7753237039
 33
0.0
 40
0.0
 40
0.0
 40
0.0
 40
0.0
 40
0.2178265906
 40
0.4506755649
 40
0.7097940165
 40
1.0
 40
1.0
 40
1.0
 40
1.0
 10
33.4119540332
 20
-115.619616758
 30
0.0
 10
33.4612978738
 20
-115.5925177835
 30
0.0
 10
33.5539734967
 20
-115.5175674633
 30
0.0
 10
33.6527705101
 20
-115.3598800584
 30
0.0
 10
33.7115079732
 20
-115.1645015741
 30
0.0
 10
33.7229857156
 20
-115.0220236364
 30
0.0
 10
33.7229857155
 20
-114.9470224437
 30
0.0
 11
33.4119540332
 21
-115.619616758
 31
0.0
 11
33.5438887094
 21
-115.5141854419
 31
0.0
 11
33.6420501634
 21
-115.3626710469
 31
0.0
 11
33.7025486255
 21
-115.1710959483
 31
0.0
 11
33.7229857155
 21
-114.9470224437
 31
0.0
  0
ELLIPSE
  5
5A7
100
AcDbEntity
  8
RACCORDO
100
AcDbEllipse
 62
7
  6
CONTINUOUS
 10
-21.2308057066
 20
-28.3169461176
 30
0.0
 11
-0.3501235233
 21
0.606392698
 31
0.0
 40
0.5771558487
 41
-0.7852941622
 42
0.0172857704
  0
ELLIPSE
  5
5A8
100
AcDbEntity
  8
RACCORDO
100
AcDbEllipse
 62
7
  6
CONTINUOUS
 10
14.9729106931
 20
-91.0236222796
 30
0.0
 11
-0.3501235233
 21
0.606392698
 31
0.0
 40
0.5771558487
 41
-3.1588791223
 42
-2.3563950755
  0
ELLIPSE
  5
5A9
100
AcDbEntity
  8
RACCORDO
100
AcDbEllipse
 62
7
  6
CONTINUOUS
 10
14.9729106931
 20
-49.2205182277
 30
0.0
 11
-0.3500169276
 21
0.6062080092
 31
0.0
 40
0.5775075436
 41
-2.3560905478
 42
-0.7855988075
  0
ELLIPSE
  5
5AA
100
AcDbEntity
  8
RACCORDO
100
AcDbEllipse
 62
7
  6
CONTINUOUS
 10
-17.8305649444
 20
-68.1570548549
 30
0.0
 11
-0.1500072547
 21
0.2598034325
 31
0.0
 40
0.5775075436
 41
0.7855021057
 42
2.355993846
  0
ELLIPSE
  5
5AB
100
AcDbEntity
  8
RACCORDO
100
AcDbEllipse
 62
7
  6
CONTINUOUS
 10
-16.8164306131
 20
-67.5714972645
 30
0.0
 11
-0.1500073079
 21
0.2598034018
 31
0.0
 40
0.5789151826
 41
0.7867191038
 42
2.3547763749
  0
ELLIPSE
  5
5AC
100
AcDbEntity
  8
RACCORDO
100
AcDbEllipse
 62
7
  6
CONTINUOUS
 10
-21.2308057066
 20
29.6524435347
 30
0.0
 11
-0.3501235233
 21
0.606392698
 31
0.0
 40
0.5771558487
 41
-0.7852941622
 42
0.0172857704
  0
ELLIPSE
  5
5AD
100
AcDbEntity
  8
RACCORDO
100
AcDbEllipse
 62
7
  6
CONTINUOUS
 10
14.9729106931
 20
-33.0542326273
 30
0.0
 11
-0.3501235233
 21
0.606392698
 31
0.0
 40
0.5771558487
 41
-3.1588791223
 42
-2.3563950755
  0
ELLIPSE
  5
5AE
100
AcDbEntity
  8
RACCORDO
100
AcDbEllipse
 62
7
  6
CONTINUOUS
 10
14.9729106931
 20
8.7488714246
 30
0.0
 11
-0.3500169276
 21
0.6062080092
 31
0.0
 40
0.5775075436
 41
-2.3560905478
 42
-0.7855988075
  0
ELLIPSE
  5
5AF
100
AcDbEntity
  8
RACCORDO
100
AcDbEllipse
 62
7
  6
CONTINUOUS
 10
-17.8305649444
 20
-10.1876652026
 30
0.0
 11
-0.1500072547
 21
0.2598034325
 31
0.0
 40
0.5775075436
 41
0.7855021057
 42
2.355993846
  0
ELLIPSE
  5
5B0
100
AcDbEntity
  8
RACCORDO
100
AcDbEllipse
 62
7
  6
CONTINUOUS
 10
-16.8164306131
 20
-9.6021076123
 30
0.0
 11
-0.1500073079
 21
0.2598034018
 31
0.0
 40
0.5789151826
 41
0.7867191038
 42
2.3547763749
  0
ELLIPSE
  5
5B1
100
AcDbEntity
  8
RACCORDO
100
AcDbEllipse
 62
7
  6
CONTINUOUS
 10
-21.2308057066
 20
87.621833187
 30
0.0
 11
-0.3501235233
 21
0.606392698
 31
0.0
 40
0.5771558487
 41
-0.7852941622
 42
0.0172857704
  0
ELLIPSE
  5
5B2
100
AcDbEntity
  8
RACCORDO
100
AcDbEllipse
 62
7
  6
CONTINUOUS
 10
14.9729106931
 20
24.915157025
 30
0.0
 11
-0.3501235233
 21
0.606392698
 31
0.0
 40
0.5771558487
 41
-3.1588791223
 42
-2.3563950755
  0
ELLIPSE
  5
5B3
100
AcDbEntity
  8
RACCORDO
100
AcDbEllipse
 62
7
  6
CONTINUOUS
 10
14.9729106931
 20
66.7182610769
 30
0.0
 11
-0.3500169276
 21
0.6062080092
 31
0.0
 40
0.5775075436
 41
-2.3560905478
 42
-0.7855988075
  0
ELLIPSE
  5
5B4
100
AcDbEntity
  8
RACCORDO
100
AcDbEllipse
 62
7
  6
CONTINUOUS
 10
-17.8305649444
 20
47.7817244497
 30
0.0
 11
-0.1500072547
 21
0.2598034325
 31
0.0
 40
0.5775075436
 41
0.7855021057
 42
2.355993846
  0
ELLIPSE
  5
5B5
100
AcDbEntity
  8
RACCORDO
100
AcDbEllipse
 62
7
  6
CONTINUOUS
 10
-16.8164306131
 20
48.36728204
 30
0.0
 11
-0.1500073079
 21
0.2598034018
 31
0.0
 40
0.5789151826
 41
0.7867191038
 42
2.3547763749
  0
ELLIPSE
  5
5B6
100
AcDbEntity
  8
0
100
AcDbEllipse
 62
7
  6
CONTINUOUS
 10
-16.4932979848
 20
61.2092281667
 30
0.0
 11
-0.1500529453
 21
0.2598034383
 31
0.0
 40
0.5773316475
 41
-3.1502321102
 42
-2.3563951207
  0
ELLIPSE
  5
5B7
100
AcDbEntity
  8
0
100
AcDbEllipse
 62
7
  6
CONTINUOUS
 10
12.4977416849
 20
32.7533552364
 30
0.0
 11
0.2123743771
 21
0.3678550612
 31
0.0
 40
0.5773586895
 41
-2.3535969767
 42
-1.8309336332
  0
ELLIPSE
  5
5B8
100
AcDbEntity
  8
0
100
AcDbEllipse
 62
7
  6
CONTINUOUS
 10
-3.4121608918
 20
41.9395335863
 30
0.0
 11
0.2123743771
 21
0.3678550612
 31
0.0
 40
0.5773586895
 41
-2.3535969767
 42
-1.8309336332
  0
ELLIPSE
  5
5B9
100
AcDbEntity
  8
0
100
AcDbEllipse
 62
7
  6
CONTINUOUS
 10
-15.0729981746
 20
63.70459781
 30
0.0
 11
0.2008240461
 21
0.1149900593
 31
0.0
 40
0.0035062734
 41
0.0020007819
 42
0.7351275774
  0
ELLIPSE
  5
5BA
100
AcDbEntity
  8
0
100
AcDbEllipse
 62
7
  6
CONTINUOUS
 10
-16.5652429224
 20
49.8201765059
 30
0.0
 11
-0.1500529453
 21
0.2598034383
 31
0.0
 40
0.5773316475
 41
-3.1502321102
 42
-2.3563951207
  0
ELLIPSE
  5
5BB
100
AcDbEntity
  8
0
100
AcDbEllipse
 62
7
  6
CONTINUOUS
 10
-16.5652429224
 20
79.5396945812
 30
0.0
 11
-0.1500529453
 21
0.2598034383
 31
0.0
 40
0.5773316475
 41
-3.1502321102
 42
-2.3563951207
  0
ELLIPSE
  5
5BC
100
AcDbEntity
  8
SUPERFICI
100
AcDbEllipse
 62
7
  6
CONTINUOUS
 10
-15.6808342179
 20
23.5906906821
 30
0.0
 11
0.4247590168
 21
-0.0
 31
0.0
 40
0.57733079
 41
1.8309094725
 42
2.353672532
  0
ELLIPSE
  5
5BD
100
AcDbEntity
  8
SUPERFICI
100
AcDbEllipse
 62
7
  6
CONTINUOUS
 10
-15.6808342179
 20
5.2201094543
 30
0.0
 11
0.4247590168
 21
0.0
 31
0.0
 40
0.57733079
 41
1.8309094725
 42
2.353672532
  0
ELLIPSE
  5
5BE
100
AcDbEntity
  8
SUPERFICI
100
AcDbEllipse
 62
7
  6
CONTINUOUS
 10
-2.6621105988
 20
-15.7610796683
 30
0.0
 11
0.1999995634
 21
0.1164181051
 31
0.0
 40
0.0035896273
 41
-0.7351277754
 42
-0.0020507019
  0
ELLIPSE
  5
5BF
100
AcDbEntity
  8
0
100
AcDbEllipse
 62
7
  6
CONTINUOUS
 10
-15.6808342179
 20
-34.3786989702
 30
0.0
 11
0.4247590168
 21
0.0
 31
0.0
 40
0.57733079
 41
1.8309094725
 42
2.353672532
  0
ELLIPSE
  5
5C0
100
AcDbEntity
  8
0
100
AcDbEllipse
 62
7
  6
CONTINUOUS
 10
-15.6808342179
 20
-52.749280198
 30
0.0
 11
0.4247590168
 21
-0.0
 31
0.0
 40
0.57733079
 41
1.8309094725
 42
2.353672532
  0
ELLIPSE
  5
5C1
100
AcDbEntity
  8
ASSI
100
AcDbEllipse
 62
7
  6
CONTINUOUS
 10
-2.6621105988
 20
-73.7304693206
 30
0.0
 11
0.1999995634
 21
0.1164181051
 31
0.0
 40
0.0035896273
 41
-0.7351277754
 42
-0.0020507019
  0
ELLIPSE
  5
5C2
100
AcDbEntity
  8
RACCORDO
100
AcDbEllipse
 62
7
  6
CONTINUOUS
 10
-16.4932979848
 20
-42.482496986
 30
0.0
 11
-0.1500529453
 21
0.2598034383
 31
0.0
 40
0.5773316475
 41
-2.3563951207
 42
-0.7855987939
  0
ELLIPSE
  5
5C3
100
AcDbEntity
  8
RACCORDO
100
AcDbEllipse
 62
7
  6
CONTINUOUS
 10
-16.4932979848
 20
-54.7295511379
 30
0.0
 11
-0.1500529453
 21
0.2598034383
 31
0.0
 40
0.5773316475
 41
-3.1502321102
 42
-2.3563951207
  0
ELLIPSE
  5
5C4
100
AcDbEntity
  8
RACCORDO
100
AcDbEllipse
 62
7
  6
CONTINUOUS
 10
-16.5652429224
 20
-60.8931930272
 30
0.0
 11
-0.1500529453
 21
0.2598034383
 31
0.0
 40
0.5773316475
 41
-2.3563951207
 42
-0.7855987939
  0
ELLIPSE
  5
5C5
100
AcDbEntity
  8
RACCORDO
100
AcDbEllipse
 62
7
  6
CONTINUOUS
 10
-16.5652429224
 20
-66.1186027987
 30
0.0
 11
-0.1500529453
 21
0.2598034383
 31
0.0
 40
0.5773316475
 41
-3.1502321102
 42
-2.3563951207
  0
ELLIPSE
  5
5C6
100
AcDbEntity
  8
RACCORDO
100
AcDbEllipse
 62
7
  6
CONTINUOUS
 10
-16.5652429224
 20
-36.3990847234
 30
0.0
 11
-0.1500529453
 21
0.2598034383
 31
0.0
 40
0.5773316475
 41
-3.1502321102
 42
-2.3563951207
  0
ELLIPSE
  5
5C7
100
AcDbEntity
  8
ASSI
100
AcDbEllipse
 62
7
  6
CONTINUOUS
 10
-3.4121608918
 20
-73.9992457183
 30
0.0
 11
0.2123743771
 21
0.3678550612
 31
0.0
 40
0.5773586895
 41
-2.3535936561
 42
-1.8309336332
  0
ELLIPSE
  5
5C8
100
AcDbEntity
  8
ASSI
100
AcDbEllipse
 62
7
  6
CONTINUOUS
 10
-6.7779590091
 20
-70.871138122
 30
0.0
 11
0.1082601067
 21
0.1683382284
 31
0.0
 40
0.6067084637
 41
0.7621560142
 42
0.8145158917
  0
ELLIPSE
  5
5C9
100
AcDbEntity
  8
ASSI
100
AcDbEllipse
 62
7
  6
CONTINUOUS
 10
12.4977416849
 20
-83.1854240682
 30
0.0
 11
0.2123743771
 21
0.3678550612
 31
0.0
 40
0.5773586895
 41
-2.3535936561
 42
-1.8309336332
  0
ELLIPSE
  5
5CA
100
AcDbEntity
  8
ASSI
100
AcDbEllipse
 62
7
  6
CONTINUOUS
 10
9.1319435676
 20
-80.0573164719
 30
0.0
 11
0.1082601067
 21
0.1683382284
 31
0.0
 40
0.6067084637
 41
0.7621560142
 42
0.8145158917
  0
ELLIPSE
  5
5CB
100
AcDbEntity
  8
0
100
AcDbEllipse
 62
7
  6
CONTINUOUS
 10
-14.6547880401
 20
-57.2280700519
 30
0.0
 11
0.1999154856
 21
0.0095814127
 31
0.0
 40
0.6067642562
 41
-0.8144705522
 42
-0.7621106746
  0
ELLIPSE
  5
5CC
100
AcDbEntity
  8
0
100
AcDbEllipse
 62
7
  6
CONTINUOUS
 10
-15.0729981746
 20
-52.2341814946
 30
0.0
 11
0.2008240461
 21
0.1149900593
 31
0.0
 40
0.0035062734
 41
0.0019064971
 42
0.7351275774
  0
ELLIPSE
  5
5CD
100
AcDbEntity
  8
0
100
AcDbEllipse
 62
7
  6
CONTINUOUS
 10
-15.6808342179
 20
63.1894991066
 30
0.0
 11
0.4247590168
 21
-0.0
 31
0.0
 40
0.57733079
 41
1.8309094725
 42
2.3536692012
  0
ELLIPSE
  5
5CE
100
AcDbEntity
  8
0
100
AcDbEllipse
 62
7
  6
CONTINUOUS
 10
-15.6808342179
 20
81.5600803344
 30
0.0
 11
0.4247590168
 21
-0.0
 31
0.0
 40
0.57733079
 41
1.8309094725
 42
2.3536692012
  0
ELLIPSE
  5
5CF
100
AcDbEntity
  8
SUPERFICI
100
AcDbEllipse
 62
7
  6
CONTINUOUS
 10
-16.4932979848
 20
15.4868926663
 30
0.0
 11
-0.1500529453
 21
0.2598034383
 31
0.0
 40
0.5773316475
 41
-2.3563951207
 42
-0.7855987939
  0
ELLIPSE
  5
5D0
100
AcDbEntity
  8
SUPERFICI
100
AcDbEllipse
 62
7
  6
CONTINUOUS
 10
-16.4932979848
 20
3.2398385144
 30
0.0
 11
-0.1500529453
 21
0.2598034383
 31
0.0
 40
0.5773316475
 41
-3.1502321102
 42
-2.3563951207
  0
ELLIPSE
  5
5D1
100
AcDbEntity
  8
SUPERFICI
100
AcDbEllipse
 62
7
  6
CONTINUOUS
 10
-16.5652429224
 20
-2.9238033749
 30
0.0
 11
-0.1500529453
 21
0.2598034383
 31
0.0
 40
0.5773316475
 41
-2.3563951207
 42
-0.7855987939
  0
ELLIPSE
  5
5D2
100
AcDbEntity
  8
SUPERFICI
100
AcDbEllipse
 62
7
  6
CONTINUOUS
 10
-16.5652429224
 20
-8.1492131464
 30
0.0
 11
-0.1500529453
 21
0.2598034383
 31
0.0
 40
0.5773316475
 41
-3.1502321102
 42
-2.3563951207
  0
ELLIPSE
  5
5D3
100
AcDbEntity
  8
SUPERFICI
100
AcDbEllipse
 62
7
  6
CONTINUOUS
 10
-16.5652429224
 20
21.5703049289
 30
0.0
 11
-0.1500529453
 21
0.2598034383
 31
0.0
 40
0.5773316475
 41
-3.1502321102
 42
-2.3563951207
  0
ELLIPSE
  5
5D4
100
AcDbEntity
  8
0
100
AcDbEllipse
 62
7
  6
CONTINUOUS
 10
-14.6547880401
 20
77.0812904805
 30
0.0
 11
0.1999154856
 21
0.0095814127
 31
0.0
 40
0.6067642562
 41
-0.8144705522
 42
-0.7621106746
  0
ELLIPSE
  5
5D5
100
AcDbEntity
  8
0
100
AcDbEllipse
 62
7
  6
CONTINUOUS
 10
-16.5652429224
 20
55.0455862774
 30
0.0
 11
-0.1500529453
 21
0.2598034383
 31
0.0
 40
0.5773316475
 41
-2.3563951207
 42
-0.7855987939
  0
ELLIPSE
  5
5D6
100
AcDbEntity
  8
SUPERFICI
100
AcDbEllipse
 62
7
  6
CONTINUOUS
 10
-15.0729981746
 20
5.7352081577
 30
0.0
 11
0.2008240461
 21
0.1149900593
 31
0.0
 40
0.0035062734
 41
0.0019064971
 42
0.7351275774
  0
ELLIPSE
  5
5D7
100
AcDbEntity
  8
0
100
AcDbEllipse
 62
7
  6
CONTINUOUS
 10
-16.4932979848
 20
73.4562823186
 30
0.0
 11
-0.1500529453
 21
0.2598034383
 31
0.0
 40
0.5773316475
 41
-2.3563951207
 42
-0.7855987939
  0
ELLIPSE
  5
5D8
100
AcDbEntity
  8
SUPERFICI
100
AcDbEllipse
 62
7
  6
CONTINUOUS
 10
-3.4121608918
 20
-16.029856066
 30
0.0
 11
0.2123743771
 21
0.3678550612
 31
0.0
 40
0.5773586895
 41
-2.3535936561
 42
-1.8309336332
  0
ELLIPSE
  5
5D9
100
AcDbEntity
  8
SUPERFICI
100
AcDbEllipse
 62
7
  6
CONTINUOUS
 10
12.4977416849
 20
-25.2160344159
 30
0.0
 11
0.2123743771
 21
0.3678550612
 31
0.0
 40
0.5773586895
 41
-2.3535936561
 42
-1.8309336332
  0
ELLIPSE
  5
5DA
100
AcDbEntity
  8
0
100
AcDbEllipse
 62
7
  6
CONTINUOUS
 10
-2.6621105988
 20
42.208309984
 30
0.0
 11
0.1999995634
 21
0.1164181051
 31
0.0
 40
0.0035896273
 41
-0.7351277754
 42
-0.0019562056
  0
ELLIPSE
  5
5DB
100
AcDbEntity
  8
0
100
AcDbEllipse
 62
7
  6
CONTINUOUS
 10
-14.6547880401
 20
-52.3121326335
 30
0.0
 11
0.1999444062
 21
-0.00862956
 31
0.0
 40
0.5464172455
 41
-0.7618192766
 42
-0.709459399
  0
ELLIPSE
  5
5DC
100
AcDbEntity
  8
RACCORDO
100
AcDbEllipse
 62
7
  6
CONTINUOUS
 10
-17.5005271112
 20
-61.4146856011
 30
0.0
 11
-0.1500529453
 21
0.2598034383
 31
0.0
 40
0.5773316475
 41
-2.3563951207
 42
-1.0774465703
  0
ELLIPSE
  5
5DD
100
AcDbEntity
  8
SUPERFICI
100
AcDbEllipse
 62
7
  6
CONTINUOUS
 10
-17.0688574856
 20
2.9189200074
 30
0.0
 11
-0.1500529453
 21
0.2598034383
 31
0.0
 40
0.5773316475
 41
2.5457885314
 42
3.9267901865
  0
ELLIPSE
  5
5DE
100
AcDbEntity
  8
SUPERFICI
100
AcDbEllipse
 62
7
  6
CONTINUOUS
 10
-17.5005271112
 20
21.048812355
 30
0.0
 11
-0.1500529453
 21
0.2598034383
 31
0.0
 40
0.5773316475
 41
2.3559938597
 42
3.9267901865
  0
ELLIPSE
  5
5DF
100
AcDbEntity
  8
SUPERFICI
100
AcDbEllipse
 62
7
  6
CONTINUOUS
 10
-17.5005271112
 20
-8.6707057203
 30
0.0
 11
-0.1500529453
 21
0.2598034383
 31
0.0
 40
0.5773316475
 41
2.3559938597
 42
3.9267901865
  0
ELLIPSE
  5
5E0
100
AcDbEntity
  8
SUPERFICI
100
AcDbEllipse
 62
7
  6
CONTINUOUS
 10
-17.0688574856
 20
15.1659741593
 30
0.0
 11
-0.1500529453
 21
0.2598034383
 31
0.0
 40
0.5773316475
 41
-2.3563951207
 42
-0.9753934656
  0
ELLIPSE
  5
5E1
100
AcDbEntity
  8
RACCORDO
100
AcDbEllipse
 62
7
  6
CONTINUOUS
 10
-17.5005271112
 20
-36.9205772973
 30
0.0
 11
-0.1500529453
 21
0.2598034383
 31
0.0
 40
0.5773316475
 41
2.3559938597
 42
3.9267901865
  0
ELLIPSE
  5
5E2
100
AcDbEntity
  8
RACCORDO
100
AcDbEllipse
 62
7
  6
CONTINUOUS
 10
-17.5005271112
 20
-66.6400953726
 30
0.0
 11
-0.1500529453
 21
0.2598034383
 31
0.0
 40
0.5773316475
 41
2.3559938597
 42
3.9267901865
  0
ELLIPSE
  5
5E3
100
AcDbEntity
  8
SUPERFICI
100
AcDbEllipse
 62
7
  6
CONTINUOUS
 10
-17.5005271112
 20
-3.4452959488
 30
0.0
 11
-0.1500529453
 21
0.2598034383
 31
0.0
 40
0.5773316475
 41
-2.3563951207
 42
-1.0774465703
  0
ELLIPSE
  5
5E4
100
AcDbEntity
  8
RACCORDO
100
AcDbEllipse
 62
7
  6
CONTINUOUS
 10
-17.0688574856
 20
-55.0504696449
 30
0.0
 11
-0.1500529453
 21
0.2598034383
 31
0.0
 40
0.5773316475
 41
2.5457885314
 42
3.9267901865
  0
ELLIPSE
  5
5E5
100
AcDbEntity
  8
0
100
AcDbEllipse
 62
7
  6
CONTINUOUS
 10
-17.0688574856
 20
73.1353638116
 30
0.0
 11
-0.1500529453
 21
0.2598034383
 31
0.0
 40
0.5773316475
 41
-2.3563951207
 42
-0.9753934656
  0
ELLIPSE
  5
5E6
100
AcDbEntity
  8
0
100
AcDbEllipse
 62
7
  6
CONTINUOUS
 10
-17.0688574856
 20
60.8883096597
 30
0.0
 11
-0.1500529453
 21
0.2598034383
 31
0.0
 40
0.5773316475
 41
2.5457885314
 42
3.9267901865
  0
ELLIPSE
  5
5E7
100
AcDbEntity
  8
0
100
AcDbEllipse
 62
7
  6
CONTINUOUS
 10
-17.5005271112
 20
79.0182020072
 30
0.0
 11
-0.1500529453
 21
0.2598034383
 31
0.0
 40
0.5773316475
 41
2.3559938597
 42
3.9267901865
  0
ELLIPSE
  5
5E8
100
AcDbEntity
  8
0
100
AcDbEllipse
 62
7
  6
CONTINUOUS
 10
-17.5005271112
 20
54.5240937035
 30
0.0
 11
-0.1500529453
 21
0.2598034383
 31
0.0
 40
0.5773316475
 41
-2.3563951207
 42
-1.0774465703
  0
ELLIPSE
  5
5E9
100
AcDbEntity
  8
0
100
AcDbEllipse
 62
7
  6
CONTINUOUS
 10
-17.5005271112
 20
49.298683932
 30
0.0
 11
-0.1500529453
 21
0.2598034383
 31
0.0
 40
0.5773316475
 41
2.3559938597
 42
3.9267901865
  0
ELLIPSE
  5
5EA
100
AcDbEntity
  8
RACCORDO
100
AcDbEllipse
 62
7
  6
CONTINUOUS
 10
-17.0688574856
 20
-42.803415493
 30
0.0
 11
-0.1500529453
 21
0.2598034383
 31
0.0
 40
0.5773316475
 41
-2.3563951207
 42
-0.9753934656
  0
ELLIPSE
  5
5EB
100
AcDbEntity
  8
ASSI
100
AcDbEllipse
 62
7
  6
CONTINUOUS
 10
-2.5204951635
 20
-73.3293443879
 30
0.0
 11
0.0925036689
 21
0.1774691851
 31
0.0
 40
0.5463614449
 41
0.709509901
 42
0.7618697785
  0
ELLIPSE
  5
5EC
100
AcDbEntity
  8
SMUSSO
100
AcDbEllipse
 62
7
  6
CONTINUOUS
 10
-34.9723228862
 20
114.1445381962
 30
0.0
 11
-0.304720959
 21
0.9748424485
 31
0.0
 40
0.368958844
 41
0.0825760677
 42
0.8679254863
  0
ELLIPSE
  5
5ED
100
AcDbEntity
  8
SMUSSO
100
AcDbEllipse
 62
7
  6
CONTINUOUS
 10
-34.9723228862
 20
-78.0525649609
 30
0.0
 11
-0.6918989454
 21
0.7512919132
 31
0.0
 40
0.368944188
 41
1.4881847674
 42
2.2735829308
  0
ELLIPSE
  5
5EE
100
AcDbEntity
  8
SMUSSO
100
AcDbEllipse
 62
7
  6
CONTINUOUS
 10
-34.9723228862
 20
-78.0525649609
 30
0.0
 11
-0.304720959
 21
0.9748424485
 31
0.0
 40
0.368958844
 41
0.8679254863
 42
1.6533236497
  0
ELLIPSE
  5
5EF
100
AcDbEntity
  8
SMUSSO
100
AcDbEllipse
 62
7
  6
CONTINUOUS
 10
31.0714504766
 20
-116.1854119777
 30
0.0
 11
-0.6918989454
 21
0.7512919132
 31
0.0
 40
0.368944188
 41
-4.0096023764
 42
-3.224204213
  0
ELLIPSE
  5
5F0
100
AcDbEntity
  8
SMUSSO
100
AcDbEllipse
 62
7
  6
CONTINUOUS
 10
-34.9723228862
 20
114.1445381962
 30
0.0
 11
-0.125886301
 21
1.0324916607
 31
0.0
 40
0.7115295703
 41
-0.4914581939
 42
0.2939399695
  0
ELLIPSE
  5
5F1
100
AcDbEntity
  8
SMUSSO
100
AcDbEllipse
 62
7
  6
CONTINUOUS
 10
31.0714504766
 20
-116.1854119777
 30
0.0
 11
0.8312656652
 21
-0.6252150779
 31
0.0
 40
0.7115057303
 41
-0.2939860098
 42
0.4913634087
  0
ELLIPSE
  5
5F2
100
AcDbEntity
  8
SMUSSO
100
AcDbEllipse
 62
7
  6
CONTINUOUS
 10
31.0714504766
 20
76.0116911793
 30
0.0
 11
-0.125886301
 21
1.0324916607
 31
0.0
 40
0.7115295703
 41
-1.2768563573
 42
-0.4914581939
  0
ELLIPSE
  5
5F3
100
AcDbEntity
  8
SMUSSO
100
AcDbEllipse
 62
7
  6
CONTINUOUS
 10
31.0714504766
 20
76.0116911793
 30
0.0
 11
0.8312656652
 21
-0.6252150779
 31
0.0
 40
0.7115057303
 41
0.4913634087
 42
1.2767615721
  0
ENDSEC
  0
SECTION
  2
OBJECTS
  0
DICTIONARY
  5
C
100
AcDbDictionary
280
0
281
1
  3
ACAD_GROUP
350
D
  3
ACAD_MLINESTYLE
350
17
  3
ACAD_LAYOUT
350
1A
  3
ACAD_PLOTSETTINGS
350
19
  3
ACAD_PLOTSTYLENAME
350
E
  0
DICTIONARY
  5
D
102
{ACAD_REACTORS
330
C
102
}
100
AcDbDictionary
280
0
281
1
  0
ACDBDICTIONARYWDFLT
  5
E
102
{ACAD_REACTORS
330
C
102
}
100
AcDbDictionary
281
1
  3
Normal
350
F
100
AcDbDictionaryWithDefault
340
F
  0
DICTIONARY
  5
17
102
{ACAD_REACTORS
330
C
102
}
100
AcDbDictionary
280
0
281
1
  3
Standard
350
18
  0
DICTIONARY
  5
19
102
{ACAD_REACTORS
330
C
102
}
100
AcDbDictionary
281
1
  0
DICTIONARY
  5
1A
102
{ACAD_REACTORS
330
C
102
}
100
AcDbDictionary
281
1
  3
Model
350
5F4
  3
Layout1
350
5F5
  0
ACDBPLACEHOLDER
  5
F
102
{ACAD_REACTORS
330
E
102
}
  0
MLINESTYLE
  5
18
102
{ACAD_REACTORS
330
17
102
}
100
AcDbMlineStyle
  2
STANDARD
 70
0
  3

 62
256
 51
90.0
 52
90.0
 71
2
 49
0.5
 62
256
  6
BYLAYER
 49
-0.5
 62
256
  6
BYLAYER
  0
LAYOUT
  5
5F4
102
{ACAD_REACTORS
330
1A
102
}
100
AcDbPlotSettings
  1

  2
none_device
  4
ISO_A4_(297.00_x_210.00_MM)
  6

 40
0.0
 41
0.0
 42
0.0
 43
0.0
 44
297.0
 45
210.0
 46
0.0
 47
0.0
 48
0.0
 49
0.0
140
0.0
141
0.0
142
1.0
143
1.0
 70
1024
 72
1
 73
0
 74
0
  7

 75
0
147
1.0
148
0.0
149
0.0
100
AcDbLayout
  1
Model
 70
0
 71
0
 10
0.0
 20
0.0
 11
297.0
 21
210.0
 12
0.0
 22
0.0
 32
0.0
 14
0.0
 24
0.0
 34
0.0
 15
0.0
 25
0.0
 35
0.0
146
0.0
 13
0.0
 23
0.0
 33
0.0
 16
1.0
 26
0.0
 36
0.0
 17
0.0
 27
1.0
 37
0.0
 76
0
330
215
345
0
346
0
  0
LAYOUT
  5
5F5
102
{ACAD_REACTORS
330
1A
102
}
100
AcDbPlotSettings
  1

  2
none_device
  4
ISO_A4_(297.00_x_210.00_MM)
  6

 40
0.0
 41
0.0
 42
0.0
 43
0.0
 44
297.0
 45
210.0
 46
0.0
 47
0.0
 48
0.0
 49
0.0
140
0.0
141
0.0
142
1.0
143
1.0
 70
0
 72
1
 73
0
 74
0
  7

 75
0
147
1.0
148
0.0
149
0.0
100
AcDbLayout
  1
Layout1
 70
0
 71
1
 10
0.0
 20
0.0
 11
297.0
 21
210.0
 12
0.0
 22
0.0
 32
0.0
 14
0.0
 24
0.0
 34
0.0
 15
0.0
 25
0.0
 35
0.0
146
0.0
 13
0.0
 23
0.0
 33
0.0
 16
1.0
 26
0.0
 36
0.0
 17
0.0
 27
1.0
 37
0.0
 76
0
330
216
345
0
346
0
  0
ENDSEC
  0
EOF
