  0
SECTION
  2
HEADER
  9
$ACADVER
  1
AC1015
  9
$DWGCODEPAGE
  3
ANSI_1252
  9
$EXTMAX
 10
297.0
 20
210.0
 30
0.0
  9
$EXTMIN
 10
0.0
 20
0.0
 30
0.0
  9
$LIMMIN
 10
0.0
 20
0.0
  9
$LIMMAX
 10
297.0
 20
210.0
  9
$VIEWCTR
 10
148.5
 20
105.0
  9
$VIEWSIZE
 40
210.0
  9
$CLAYER
  8
0
  9
$LTSCALE
 40
16.335
  9
$CELTYPE
  6
BYLAYER
  9
$DIMSCALE
 40
1.0
  9
$DIMASZ
 40
3.0
  9
$DIMEXO
 40
0.5
  9
$DIMDLI
 40
11.286
  9
$DIMEXE
 40
1.5
  9
$DIMCEN
 40
2.673
  9
$DIMLFAC
 40
1.0
  9
$DIMBLK
  1
_FILLED
  9
$DIMTXT
 40
3.0
  9
$DIMTOL
 70
1
  9
$DIMLIM
 70
0
  9
$DIMTFAC
 40
1.0
  9
$DIMTP
 40
0.01
  9
$DIMTM
 40
0.01
  9
$DIMGAP
 40
0.625
  9
$DIMDSEP
 70
44
  9
$PDMODE
 70
3
  9
$PDSIZE
 40
3.0
  9
$HANDSEED
  5
443
  9
$TILEMODE
 70
1
  9
$MEASUREMENT
 70
1
  9
$INSUNITS
 70
4
  0
ENDSEC
  0
SECTION
  2
CLASSES
  0
CLASS
  1
ACDBDICTIONARYWDFLT
  2
AcDbDictionaryWithDefault
  3
AutoCAD 2000
 90
0
280
0
281
0
  0
CLASS
  1
ACDBPLACEHOLDER
  2
AcDbPlaceHolder
  3
AutoCAD 2000
 90
0
280
0
281
0
  0
CLASS
  1
LAYOUT
  2
AcDbLayout
  3
AutoCAD 2000
 90
0
280
0
281
0
  0
ENDSEC
  0
SECTION
  2
TABLES
  0
TABLE
  2
VPORT
  5
8
100
AcDbSymbolTable
 70
2
  0
VPORT
  5
1F4
100
AcDbSymbolTableRecord
100
AcDbViewportTableRecord
  2
*ACTIVE
 70
0
 10
0.0
 20
0.0
 11
1.0
 21
1.0
 12
148.5
 22
105.0
 13
0.0
 23
0.0
 14
1.0
 24
1.0
 15
0.0
 25
0.0
 16
0.0
 26
0.0
 36
1.0
 17
0.0
 27
0.0
 37
0.0
 40
210.0
 41
1.4142857143
 42
50.0
 43
0.0
 44
0.0
 50
0.0
 51
0.0
 71
0
 72
100
 73
1
 74
1
 75
0
 76
0
 77
0
 78
0
  0
ENDTAB
  0
TABLE
  2
LTYPE
  5
5
100
AcDbSymbolTable
 70
6
  0
LTYPE
  5
14
100
AcDbSymbolTableRecord
100
AcDbLinetypeTableRecord
  2
BYBLOCK
 70
0
  3

 72
65
 73
0
 40
0.0
  0
LTYPE
  5
15
100
AcDbSymbolTableRecord
100
AcDbLinetypeTableRecord
  2
BYLAYER
 70
0
  3

 72
65
 73
0
 40
0.0
  0
LTYPE
  5
16
100
AcDbSymbolTableRecord
100
AcDbLinetypeTableRecord
  2
CONTINUOUS
 70
64
  3
Solid line
 72
65
 73
0
 40
0.0
  0
LTYPE
  5
1F5
100
AcDbSymbolTableRecord
100
AcDbLinetypeTableRecord
  2
CENTER
 70
64
  3
____ _ ____ _ ____ _ ____ _ ____ _ ____ _ ____
 72
65
 73
4
 40
0.6
 49
0.375
 74
0
 49
-0.075
 74
0
 49
0.075
 74
0
 49
-0.075
 74
0
  0
LTYPE
  5
1F6
100
AcDbSymbolTableRecord
100
AcDbLinetypeTableRecord
  2
HIDDEN
 70
64
  3
- - - - - - - - - - - - - - - - - - - -
 72
65
 73
2
 40
0.2
 49
0.1
 74
0
 49
-0.1
 74
0
  0
LTYPE
  5
1F7
100
AcDbSymbolTableRecord
100
AcDbLinetypeTableRecord
  2
PHANTOM
 70
64
  3
_____ _ _ _____ _ _ _____ _ _ _____
 72
65
 73
6
 40
0.8
 49
0.45
 74
0
 49
-0.05
 74
0
 49
0.1
 74
0
 49
-0.05
 74
0
 49
0.1
 74
0
 49
-0.05
 74
0
  0
LTYPE
  5
1F8
100
AcDbSymbolTableRecord
100
AcDbLinetypeTableRecord
  2
DOT
 70
64
  3
. . . . . . . . . . . . . . . . . . . .
 72
65
 73
2
 40
0.2
 49
0.1
 74
0
 49
-0.1
 74
0
  0
LTYPE
  5
1F9
100
AcDbSymbolTableRecord
100
AcDbLinetypeTableRecord
  2
DASHED
 70
64
  3
- - - - - - - - - - - - - - - - - - - -
 72
65
 73
2
 40
0.2
 49
0.1
 74
0
 49
-0.1
 74
0
  0
ENDTAB
  0
TABLE
  2
LAYER
  5
2
100
AcDbSymbolTable
 70
36
  0
LAYER
  5
10
100
AcDbSymbolTableRecord
100
AcDbLayerTableRecord
  2
0
 70
0
 62
7
  6
CONTINUOUS
370
-3
390
F
  0
LAYER
  5
1FA
100
AcDbSymbolTableRecord
100
AcDbLayerTableRecord
  2
DEFAULT_1
 70
0
 62
7
  6
CENTER
370
-3
390
F
  0
LAYER
  5
1FB
100
AcDbSymbolTableRecord
100
AcDbLayerTableRecord
  2
DEFAULT_2
 70
0
 62
7
  6
HIDDEN
370
-3
390
F
  0
LAYER
  5
1FC
100
AcDbSymbolTableRecord
100
AcDbLayerTableRecord
  2
DEFAULT_3
 70
0
 62
7
  6
PHANTOM
370
-3
390
F
  0
LAYER
  5
1FD
100
AcDbSymbolTableRecord
100
AcDbLayerTableRecord
  2
ASSI
 70
0
 62
7
  6
CONTINUOUS
370
-3
390
F
  0
LAYER
  5
1FE
100
AcDbSymbolTableRecord
100
AcDbLayerTableRecord
  2
COORDINATE
 70
0
 62
7
  6
CONTINUOUS
370
-3
390
F
  0
LAYER
  5
1FF
100
AcDbSymbolTableRecord
100
AcDbLayerTableRecord
  2
COORD_ORIGINE
 70
0
 62
7
  6
CONTINUOUS
370
-3
390
F
  0
LAYER
  5
200
100
AcDbSymbolTableRecord
100
AcDbLayerTableRecord
  2
COPY_PUBLISH
 70
0
 62
7
  6
CONTINUOUS
370
-3
390
F
  0
LAYER
  5
201
100
AcDbSymbolTableRecord
100
AcDbLayerTableRecord
  2
COSMETIC
 70
0
 62
7
  6
CONTINUOUS
370
-3
390
F
  0
LAYER
  5
202
100
AcDbSymbolTableRecord
100
AcDbLayerTableRecord
  2
CURVE
 70
0
 62
7
  6
CONTINUOUS
370
-3
390
F
  0
LAYER
  5
203
100
AcDbSymbolTableRecord
100
AcDbLayerTableRecord
  2
DRAFT
 70
0
 62
7
  6
CONTINUOUS
370
-3
390
F
  0
LAYER
  5
204
100
AcDbSymbolTableRecord
100
AcDbLayerTableRecord
  2
IMPORT_IGES
 70
0
 62
7
  6
CONTINUOUS
370
-3
390
F
  0
LAYER
  5
205
100
AcDbSymbolTableRecord
100
AcDbLayerTableRecord
  2
INTFCLR_2
 70
0
 62
7
  6
CONTINUOUS
370
-3
390
F
  0
LAYER
  5
206
100
AcDbSymbolTableRecord
100
AcDbLayerTableRecord
  2
PIANI
 70
0
 62
7
  6
CONTINUOUS
370
-3
390
F
  0
LAYER
  5
207
100
AcDbSymbolTableRecord
100
AcDbLayerTableRecord
  2
PIANI_ORIGINE
 70
0
 62
7
  6
CONTINUOUS
370
-3
390
F
  0
LAYER
  5
208
100
AcDbSymbolTableRecord
100
AcDbLayerTableRecord
  2
PIANI_RIFERIMENTO
 70
0
 62
7
  6
CONTINUOUS
370
-3
390
F
  0
LAYER
  5
209
100
AcDbSymbolTableRecord
100
AcDbLayerTableRecord
  2
PUNTI
 70
0
 62
7
  6
CONTINUOUS
370
-3
390
F
  0
LAYER
  5
20A
100
AcDbSymbolTableRecord
100
AcDbLayerTableRecord
  2
RACCORDO
 70
0
 62
7
  6
CONTINUOUS
370
-3
390
F
  0
LAYER
  5
20B
100
AcDbSymbolTableRecord
100
AcDbLayerTableRecord
  2
SMUSSO
 70
0
 62
7
  6
CONTINUOUS
370
-3
390
F
  0
LAYER
  5
20C
100
AcDbSymbolTableRecord
100
AcDbLayerTableRecord
  2
SNAPLINE
 70
0
 62
7
  6
CONTINUOUS
370
-3
390
F
  0
LAYER
  5
20D
100
AcDbSymbolTableRecord
100
AcDbLayerTableRecord
  2
SUPERFICI
 70
0
 62
7
  6
CONTINUOUS
370
-3
390
F
  0
LAYER
  5
20E
100
AcDbSymbolTableRecord
100
AcDbLayerTableRecord
  2
TRASH
 70
0
 62
7
  6
CONTINUOUS
370
-3
390
F
  0
LAYER
  5
20F
100
AcDbSymbolTableRecord
100
AcDbLayerTableRecord
  2
XSEC_DATUMS
 70
0
 62
7
  6
CONTINUOUS
370
-3
390
F
  0
ENDTAB
  0
TABLE
  2
STYLE
  5
3
100
AcDbSymbolTable
 70
1
  0
STYLE
  5
11
100
AcDbSymbolTableRecord
100
AcDbTextStyleTableRecord
  2
STANDARD
 70
0
 40
0.0
 41
0.8
 50
0.0
 71
0
 42
0.2
  3
txt
  4

  0
STYLE
  5
210
100
AcDbSymbolTableRecord
100
AcDbTextStyleTableRecord
  2
TEXTSTYLE_1
 70
0
 40
0.0
 41
0.8
 50
0.0
 71
0
 42
0.2
  3
gdt
  4

  0
ENDTAB
  0
TABLE
  2
VIEW
  5
6
100
AcDbSymbolTable
 70
0
  0
ENDTAB
  0
TABLE
  2
UCS
  5
7
100
AcDbSymbolTable
 70
0
  0
ENDTAB
  0
TABLE
  2
APPID
  5
9
100
AcDbSymbolTable
 70
1
  0
APPID
  5
211
100
AcDbSymbolTableRecord
100
AcDbRegAppTableRecord
  2
ACAD
 70
0
  0
ENDTAB
  0
TABLE
  2
BLOCK_RECORD
  5
1
100
AcDbSymbolTable
 70
0
  0
BLOCK_RECORD
  5
212
100
AcDbSymbolTableRecord
100
AcDbBlockTableRecord
  2
*Model_Space
  0
BLOCK_RECORD
  5
213
100
AcDbSymbolTableRecord
100
AcDbBlockTableRecord
  2
*Paper_Space
  0
ENDTAB
  0
TABLE
  2
DIMSTYLE
  5
A
100
AcDbSymbolTable
 70
1
100
AcDbDimStyleTable
 71
0
  0
DIMSTYLE
105
214
100
AcDbSymbolTableRecord
100
AcDbDimStyleTableRecord
  2
STANDARD
 70
0
  3

  4

 40
1.0
 41
3.0
 42
0.5
 43
0.38
 44
1.5
 45
0.0
 46
0.0
 47
0.01
 48
0.01
140
3.0
141
0.09
142
0.0
143
25.4
144
1.0
145
0.0
146
1.0
147
0.625
 71
1.0
 72
0.0
 73
0
 74
0
 75
0
 76
0
 77
1
 78
8
170
0
171
2
172
0
173
0
174
0
175
0
176
0
177
0
178
0
270
2
271
2
272
2
273
2
274
2
275
0
280
0
281
0
282
0
283
1
284
8
285
0
286
0
287
3
288
0
340
11
278
44
  0
ENDTAB
  0
ENDSEC
  0
SECTION
  2
BLOCKS
  0
BLOCK
  5
20
100
AcDbEntity
  8
0
100
AcDbBlockBegin
  2
*Model_Space
 70
0
 10
0.0
 20
0.0
 30
0.0
  3
*Model_Space
  1

  0
ENDBLK
  5
21
100
AcDbEntity
  8
0
100
AcDbBlockEnd
  0
BLOCK
  5
1C
100
AcDbEntity
  8
0
100
AcDbBlockBegin
  2
*Paper_Space
 70
0
 10
0.0
 20
0.0
 30
0.0
  3
*Paper_Space
  1

  0
ENDBLK
  5
1D
100
AcDbEntity
  8
0
100
AcDbBlockEnd
  0
ENDSEC
  0
SECTION
  2
ENTITIES
  0
LINE
  5
215
100
AcDbEntity
  8
SMUSSO
100
AcDbLine
 62
7
  6
CONTINUOUS
 10
-34.3900871951
 20
56.9882174026
 11
-35.0971939763
 21
56.4757453894
  0
LINE
  5
216
100
AcDbEntity
  8
SMUSSO
100
AcDbLine
 62
7
  6
CONTINUOUS
 10
-34.8043007575
 20
55.6221919988
 11
-35.0971939763
 21
55.4099191406
  0
LINE
  5
217
100
AcDbEntity
  8
SMUSSO
100
AcDbLine
 62
7
  6
CONTINUOUS
 10
-34.3900871951
 20
56.9882174026
 11
-31.2434620188
 21
58.5615299907
  0
LINE
  5
218
100
AcDbEntity
  8
SMUSSO
100
AcDbLine
 62
7
  6
CONTINUOUS
 10
-34.3900871951
 20
56.9882174026
 11
-34.8043007575
 21
55.6221919988
  0
LINE
  5
219
100
AcDbEntity
  8
SMUSSO
100
AcDbLine
 62
7
  6
CONTINUOUS
 10
31.8658182021
 20
-57.2863156306
 11
30.4516046397
 21
-56.927596163
  0
LWPOLYLINE
  5
21A
100
AcDbEntity
  8
RACCORDO
100
AcDbPolyline
 62
7
  6
CONTINUOUS
 90
16
 70
0
 10
-29.7686009974
 20
34.039526632
 10
-29.7905062812
 20
34.0267136434
 10
-29.8121371957
 20
34.011274509
 10
-29.8332619782
 20
33.9933746503
 10
-29.8536542891
 20
33.9732058538
 10
-29.8730956367
 20
33.9509842162
 10
-29.8913777181
 20
33.9269478296
 10
-29.908304662
 20
33.9013542127
 10
-29.9236950937
 20
33.8744776016
 10
-29.9373840887
 20
33.8466060182
 10
-29.949224991
 20
33.818038087
 10
-29.9590909403
 20
33.7890799051
 10
-29.9668762232
 20
33.7600418191
 10
-29.9724974519
 20
33.7312349738
 10
-29.9758944385
 20
33.702967977
 10
-29.9770308187
 20
33.6755436716
  0
LWPOLYLINE
  5
21B
100
AcDbEntity
  8
RACCORDO
100
AcDbPolyline
 62
7
  6
CONTINUOUS
 90
13
 70
0
 10
-30.0904187246
 20
34.054811456
 10
-30.1100341123
 20
34.0435768501
 10
-30.1478479612
 20
34.0179430763
 10
-30.1832776283
 20
33.9883051782
 10
-30.215949201
 20
33.9548458605
 10
-30.2454992682
 20
33.9178232083
 10
-30.2718259805
 20
33.8772239278
 10
-30.2946508462
 20
33.8332197706
 10
-30.313668065
 20
33.7860831297
 10
-30.3287260983
 20
33.7357688121
 10
-30.3395962119
 20
33.6823113364
 10
-30.3459780165
 20
33.6259458028
 10
-30.347688367
 20
33.5766925965
  0
LINE
  5
21C
100
AcDbEntity
  8
RACCORDO
100
AcDbLine
 62
7
  6
CONTINUOUS
 10
-30.090459438
 20
34.054791169
 11
-28.4526192686
 21
34.9384435461
  0
LINE
  5
21D
100
AcDbEntity
  8
RACCORDO
100
AcDbLine
 62
7
  6
CONTINUOUS
 10
-29.7686009988
 20
34.0395266327
 11
-28.1322675686
 21
34.9223660585
  0
LINE
  5
21E
100
AcDbEntity
  8
SMUSSO
100
AcDbLine
 62
7
  6
CONTINUOUS
 10
-34.3900871951
 20
-25.0243883358
 11
-34.8043007575
 21
-24.658362932
  0
LINE
  5
21F
100
AcDbEntity
  8
SMUSSO
100
AcDbLine
 62
7
  6
CONTINUOUS
 10
-35.0971939763
 20
-24.153196855
 11
-34.8043007575
 21
-24.658362932
  0
LINE
  5
220
100
AcDbEntity
  8
SMUSSO
100
AcDbLine
 62
7
  6
CONTINUOUS
 10
-34.3900871951
 20
-25.0243883358
 11
31.1587114209
 21
-57.7987876438
  0
LINE
  5
221
100
AcDbEntity
  8
SMUSSO
100
AcDbLine
 62
7
  6
CONTINUOUS
 10
-34.8043007575
 20
-24.658362932
 11
30.1587114209
 21
-57.1398690212
  0
LWPOLYLINE
  5
222
100
AcDbEntity
  8
RACCORDO
100
AcDbPolyline
 62
7
  6
CONTINUOUS
 90
12
 70
0
 10
-30.3462259051
 20
-10.7393016386
 10
-30.3402244697
 20
-10.7987838167
 10
-30.3297699961
 20
-10.8581279038
 10
-30.3150500051
 20
-10.9171032058
 10
-30.2962517065
 20
-10.9753031102
 10
-30.2735044571
 20
-11.0325340722
 10
-30.2469240685
 20
-11.0884836402
 10
-30.2167974662
 20
-11.1425142123
 10
-30.1831689342
 20
-11.194490928
 10
-30.146186855
 20
-11.2439904472
 10
-30.1064671974
 20
-11.2901289487
 10
-30.0641372639
 20
-11.3327051217
  0
LINE
  5
223
100
AcDbEntity
  8
SMUSSO
100
AcDbLine
 62
7
  6
CONTINUOUS
 10
-35.0971939763
 20
56.4757453894
 11
-35.0971939763
 21
-24.153196855
  0
LWPOLYLINE
  5
224
100
AcDbEntity
  8
RACCORDO
100
AcDbPolyline
 62
7
  6
CONTINUOUS
 90
22
 70
0
 10
-30.2598304528
 20
33.4705860871
 10
-30.2590365218
 20
33.4960122145
 10
-30.2567187062
 20
33.5203008797
 10
-30.252877006
 20
33.5434520826
 10
-30.2474741498
 20
33.5655954454
 10
-30.2405474091
 20
33.5866013458
 10
-30.2322085982
 20
33.6060809179
 10
-30.2224347552
 20
33.6239958791
 10
-30.211248842
 20
33.6403845118
 10
-30.1988315593
 20
33.6549727971
 10
-30.1851591757
 20
33.667731496
 10
-30.1702554226
 20
33.6786898475
 10
-30.154372194
 20
33.6876615488
 10
-30.1374943542
 20
33.6946104238
 10
-30.1196370389
 20
33.6995726486
 10
-30.1010975486
 20
33.7024704494
 10
-30.0818570348
 20
33.7032654368
 10
-30.061934346
 20
33.7019960001
 10
-30.0416833292
 20
33.6986995328
 10
-30.0212219333
 20
33.6933884994
 10
-30.0004322093
 20
33.6860504354
 10
-29.9793141572
 20
33.6766853409
  0
LINE
  5
225
100
AcDbEntity
  8
DRAFT
100
AcDbLine
 62
7
  6
CONTINUOUS
 10
-25.8450621738
 20
24.2711446942
 11
-26.358871061
 21
23.9858234041
  0
LINE
  5
226
100
AcDbEntity
  8
RACCORDO
100
AcDbLine
 62
7
  6
CONTINUOUS
 10
-25.4185795343
 20
24.5983622452
 11
-25.5267286942
 21
24.5400132922
  0
LINE
  5
227
100
AcDbEntity
  8
RACCORDO
100
AcDbLine
 62
7
  6
CONTINUOUS
 10
-25.3756776857
 20
24.464487788
 11
-26.3109618744
 21
23.9932395783
  0
LINE
  5
228
100
AcDbEntity
  8
RACCORDO
100
AcDbLine
 62
7
  6
CONTINUOUS
 10
-25.1635779601
 20
24.098669874
 11
-26.0988621488
 21
23.6274216643
  0
LINE
  5
229
100
AcDbEntity
  8
RACCORDO
100
AcDbLine
 62
7
  6
CONTINUOUS
 10
-25.6671925233
 20
25.0462573713
 11
-25.0916330225
 21
25.3120698221
  0
LINE
  5
22A
100
AcDbEntity
  8
RACCORDO
100
AcDbLine
 62
7
  6
CONTINUOUS
 10
-25.7483298678
 20
24.8824829924
 11
-25.172770367
 21
25.1482954432
  0
LINE
  5
22B
100
AcDbEntity
  8
SMUSSO
100
AcDbLine
 62
7
  6
CONTINUOUS
 10
31.1587114209
 20
-57.7987876438
 11
30.1587114209
 21
-57.1398690212
  0
LWPOLYLINE
  5
22C
100
AcDbEntity
  8
RACCORDO
100
AcDbPolyline
 62
7
  6
CONTINUOUS
 90
9
 70
0
 10
-30.3476984185
 20
-10.6928272635
 10
-30.3471493834
 20
-10.7018980749
 10
-30.3436698345
 20
-10.7173268444
 10
-30.3370191466
 20
-10.7324930907
 10
-30.3272685961
 20
-10.7472343152
 10
-30.3145227094
 20
-10.7613925415
 10
-30.2989181045
 20
-10.7748160727
 10
-30.2806219988
 20
-10.7873611121
 10
-30.2598304528
 20
-10.7988932652
  0
LWPOLYLINE
  5
22D
100
AcDbEntity
  8
RACCORDO
100
AcDbPolyline
 62
7
  6
CONTINUOUS
 90
9
 70
0
 10
-30.3476984185
 20
33.5766520835
 10
-30.3471493779
 20
33.5675812285
 10
-30.3436698184
 20
33.5521524561
 10
-30.3370191199
 20
33.53698621
 10
-30.3272685601
 20
33.5222449885
 10
-30.314522669
 20
33.5080867696
 10
-30.2989180674
 20
33.49466325
 10
-30.2806219747
 20
33.4821182248
 10
-30.2598304528
 20
33.4705860871
  0
LWPOLYLINE
  5
22E
100
AcDbEntity
  8
RACCORDO
100
AcDbPolyline
 62
7
  6
CONTINUOUS
 90
10
 70
0
 10
-28.2021568686
 20
30.7230386842
 10
-28.2010583955
 20
30.6971823529
 10
-28.1977743526
 20
30.6726922758
 10
-28.1923387512
 20
30.6498220845
 10
-28.184807885
 20
30.6288086343
 10
-28.1752597474
 20
30.6098695509
 10
-28.1637932238
 20
30.5932009772
 10
-28.1505270673
 20
30.5789755411
 10
-28.1355986689
 20
30.5673405686
 10
-28.1242057389
 20
30.5607849589
  0
LWPOLYLINE
  5
22F
100
AcDbEntity
  8
RACCORDO
100
AcDbPolyline
 62
7
  6
CONTINUOUS
 90
6
 70
0
 10
-26.6543190796
 20
-8.2667340476
 10
-26.6542877797
 20
-8.2674812251
 10
-26.6542227112
 20
-8.2682180952
 10
-26.6541238399
 20
-8.2689446688
 10
-26.6539911312
 20
-8.2696609567
 10
-26.6538245505
 20
-8.2703669695
  0
LINE
  5
230
100
AcDbEntity
  8
RACCORDO
100
AcDbLine
 62
7
  6
CONTINUOUS
 10
-30.3476886476
 20
-10.692669049
 11
-30.3462259051
 21
-10.7393016386
  0
LWPOLYLINE
  5
231
100
AcDbEntity
  8
RACCORDO
100
AcDbPolyline
 62
7
  6
CONTINUOUS
 90
7
 70
0
 10
-26.7148576122
 20
-8.2909296127
 10
-26.7148385777
 20
-8.2929359168
 10
-26.7147832995
 20
-8.2949421992
 10
-26.7146917775
 20
-8.2969484598
 10
-26.7145640116
 20
-8.2989546987
 10
-26.714400002
 20
-8.3009609158
 10
-26.7141997486
 20
-8.3029671112
  0
LINE
  5
232
100
AcDbEntity
  8
RACCORDO
100
AcDbLine
 62
7
  6
CONTINUOUS
 10
-30.3476984185
 20
33.5766521007
 11
-30.3476984185
 21
-10.6928272476
  0
LINE
  5
233
100
AcDbEntity
  8
RACCORDO
100
AcDbLine
 62
7
  6
CONTINUOUS
 10
-30.2598304528
 20
33.4705860871
 11
-30.2598304528
 21
-10.8016897778
  0
LINE
  5
234
100
AcDbEntity
  8
RACCORDO
100
AcDbLine
 62
7
  6
CONTINUOUS
 10
-28.6073796403
 20
-9.3862861912
 11
-28.6073796403
 21
30.4055282006
  0
LINE
  5
235
100
AcDbEntity
  8
RACCORDO
100
AcDbLine
 62
7
  6
CONTINUOUS
 10
-28.2231746751
 20
-9.4030932634
 11
-28.2231746751
 21
30.3887216293
  0
LINE
  5
236
100
AcDbEntity
  8
RACCORDO
100
AcDbLine
 62
7
  6
CONTINUOUS
 10
-26.7148576122
 20
29.8561108938
 11
-26.7148576122
 21
-8.2909296127
  0
LINE
  5
237
100
AcDbEntity
  8
RACCORDO
100
AcDbLine
 62
7
  6
CONTINUOUS
 10
-26.6543166451
 20
29.8258404102
 11
-26.6543166451
 21
-8.2659765517
  0
LWPOLYLINE
  5
238
100
AcDbEntity
  8
RACCORDO
100
AcDbPolyline
 62
7
  6
CONTINUOUS
 90
19
 70
0
 10
-28.6073796403
 20
30.4055282006
 10
-28.6054676971
 20
30.453697278
 10
-28.6005262862
 20
30.4986914603
 10
-28.5925554075
 20
30.5405107475
 10
-28.5813864508
 20
30.5793353387
 10
-28.5671880265
 20
30.6149850348
 10
-28.5504659651
 20
30.6469192386
 10
-28.5312049998
 20
30.6750353103
 10
-28.5094203975
 20
30.6994358896
 10
-28.4856637903
 20
30.7198882985
 10
-28.4599576747
 20
30.7363399728
 10
-28.4322795541
 20
30.7488434766
 10
-28.4031135704
 20
30.7573238241
 10
-28.3724612505
 20
30.7617756857
 10
-28.3403210674
 20
30.762204391
 10
-28.3071725817
 20
30.7585509432
 10
-28.2731756467
 20
30.7507956766
 10
-28.238170409
 20
30.738958257
 10
-28.2021568686
 20
30.7230386842
  0
LWPOLYLINE
  5
239
100
AcDbEntity
  8
RACCORDO
100
AcDbPolyline
 62
7
  6
CONTINUOUS
 90
13
 70
0
 10
-28.2021568686
 20
-10.1090194466
 10
-28.2010583972
 20
-10.0820646308
 10
-28.1977743544
 20
-10.0542905012
 10
-28.1923387517
 20
-10.0259847009
 10
-28.1848078835
 20
-9.9974403795
 10
-28.1752597438
 20
-9.9689531563
 10
-28.1637932183
 20
-9.9408180591
 10
-28.1505270604
 20
-9.913326469
 10
-28.1355986614
 20
-9.8867631027
 10
-28.1191626274
 20
-9.861403063
 10
-28.1013891783
 20
-9.8375089908
 10
-28.082462385
 20
-9.8153283451
 10
-28.062578263
 20
-9.7950908394
  0
LINE
  5
23A
100
AcDbEntity
  8
DRAFT
100
AcDbLine
 62
7
  6
CONTINUOUS
 10
-25.8450621738
 20
17.7759541658
 11
-26.358871061
 21
17.4906328757
  0
LINE
  5
23B
100
AcDbEntity
  8
RACCORDO
100
AcDbLine
 62
7
  6
CONTINUOUS
 10
-25.8450621738
 20
17.5595901591
 11
-25.3037327481
 21
17.8323420411
  0
LINE
  5
23C
100
AcDbEntity
  8
RACCORDO
100
AcDbLine
 62
7
  6
CONTINUOUS
 10
-26.0988621488
 20
18.178502424
 11
-25.1635779601
 21
18.6104476566
  0
LINE
  5
23D
100
AcDbEntity
  8
RACCORDO
100
AcDbLine
 62
7
  6
CONTINUOUS
 10
-26.1799994934
 20
18.0147280451
 11
-25.2447153046
 21
18.4466732777
  0
LWPOLYLINE
  5
23E
100
AcDbEntity
  8
RACCORDO
100
AcDbPolyline
 62
7
  6
CONTINUOUS
 90
4
 70
0
 10
-30.0192950218
 20
-11.3714957302
 10
-29.9726050104
 20
-11.405849447
 10
-29.9243932731
 20
-11.4355074433
 10
-29.8990118956
 20
-11.4489254613
  0
LINE
  5
23F
100
AcDbEntity
  8
RACCORDO
100
AcDbLine
 62
7
  6
CONTINUOUS
 10
-30.0641372639
 20
-11.3327051217
 11
-30.0192950218
 21
-11.3714957302
  0
LWPOLYLINE
  5
240
100
AcDbEntity
  8
RACCORDO
100
AcDbPolyline
 62
7
  6
CONTINUOUS
 90
22
 70
0
 10
-26.6538245505
 20
-8.2703669695
 10
-26.6500796696
 20
-8.2823963549
 10
-26.6455698913
 20
-8.2951412194
 10
-26.6402306806
 20
-8.3085870919
 10
-26.6339422209
 20
-8.3226442403
 10
-26.6267002029
 20
-8.3373428869
 10
-26.6186019077
 20
-8.3528348659
 10
-26.6095681534
 20
-8.3690573306
 10
-26.5995398373
 20
-8.3859393617
 10
-26.5886236482
 20
-8.4035974035
 10
-26.576690868
 20
-8.4220004989
 10
-26.5637373998
 20
-8.4409209
 10
-26.5500825884
 20
-8.4601552446
 10
-26.5356943188
 20
-8.4796253085
 10
-26.52060135
 20
-8.4990402019
 10
-26.5053120704
 20
-8.5179178668
 10
-26.4900395396
 20
-8.5360407149
 10
-26.4747591522
 20
-8.5533402365
 10
-26.4596928853
 20
-8.5696351967
 10
-26.4449951461
 20
-8.5847988543
 10
-26.4307440133
 20
-8.5987406078
 10
-26.417059938
 20
-8.6113650708
  0
LWPOLYLINE
  5
241
100
AcDbEntity
  8
RACCORDO
100
AcDbPolyline
 62
7
  6
CONTINUOUS
 90
18
 70
0
 10
-24.3857256656
 20
-7.8633420513
 10
-24.3863138845
 20
-7.844465037
 10
-24.3879833022
 20
-7.8264392972
 10
-24.3907865766
 20
-7.8082376426
 10
-24.3947707449
 20
-7.789935516
 10
-24.399979496
 20
-7.7716115144
 10
-24.4064469348
 20
-7.7533644643
 10
-24.4142070143
 20
-7.735280428
 10
-24.4233005487
 20
-7.717431595
 10
-24.4337500528
 20
-7.699928798
 10
-24.4455689525
 20
-7.682888973
 10
-24.4587823753
 20
-7.6664092057
 10
-24.4733883338
 20
-7.6506208981
 10
-24.489371898
 20
-7.6356606828
 10
-24.5067302817
 20
-7.621649433
 10
-24.5254317578
 20
-7.6087308075
 10
-24.5454155583
 20
-7.5970597201
 10
-24.5525639241
 20
-7.5933653096
  0
LINE
  5
242
100
AcDbEntity
  8
RACCORDO
100
AcDbLine
 62
7
  6
CONTINUOUS
 10
-26.358871061
 20
-8.117114629
 11
-26.358871061
 21
29.6781176182
  0
LINE
  5
243
100
AcDbEntity
  8
RACCORDO
100
AcDbLine
 62
7
  6
CONTINUOUS
 10
-26.0988621488
 20
23.6274216643
 11
-26.0988621488
 21
18.178502424
  0
LINE
  5
244
100
AcDbEntity
  8
RACCORDO
100
AcDbLine
 62
7
  6
CONTINUOUS
 10
-26.0988621488
 20
4.574862781
 11
-26.0988621488
 21
-0.8740564593
  0
LINE
  5
245
100
AcDbEntity
  8
RACCORDO
100
AcDbLine
 62
7
  6
CONTINUOUS
 10
-25.8450621738
 20
29.4212131746
 11
-25.8450621738
 21
24.2711446942
  0
LINE
  5
246
100
AcDbEntity
  8
DRAFT
100
AcDbLine
 62
7
  6
CONTINUOUS
 10
-25.8450621738
 20
17.7759541658
 11
-25.8450621738
 21
5.218585811
  0
LINE
  5
247
100
AcDbEntity
  8
RACCORDO
100
AcDbLine
 62
7
  6
CONTINUOUS
 10
-25.8450621738
 20
-1.2766047174
 11
-25.8450621738
 21
-7.8721856586
  0
LINE
  5
248
100
AcDbEntity
  8
RACCORDO
100
AcDbLine
 62
7
  6
CONTINUOUS
 10
-25.6671925233
 20
-8.0857580312
 11
-25.6671925233
 21
-1.8760336544
  0
LINE
  5
249
100
AcDbEntity
  8
RACCORDO
100
AcDbLine
 62
7
  6
CONTINUOUS
 10
-25.6671925233
 20
5.993698488
 11
-25.6671925233
 21
17.1765252288
  0
LINE
  5
24A
100
AcDbEntity
  8
RACCORDO
100
AcDbLine
 62
7
  6
CONTINUOUS
 10
-25.6671925233
 20
25.0462573713
 11
-25.6671925233
 21
29.3322783493
  0
LINE
  5
24B
100
AcDbEntity
  8
RACCORDO
100
AcDbLine
 62
7
  6
CONTINUOUS
 10
-25.4965527662
 20
24.5562938977
 11
-25.4965527662
 21
24.5249253282
  0
LINE
  5
24C
100
AcDbEntity
  8
RACCORDO
100
AcDbLine
 62
7
  6
CONTINUOUS
 10
-25.4965527662
 20
5.5037350145
 11
-25.4965527662
 21
5.472366445
  0
LINE
  5
24D
100
AcDbEntity
  8
RACCORDO
100
AcDbLine
 62
7
  6
CONTINUOUS
 10
-25.4185795343
 20
25.0347726239
 11
-25.4185795343
 21
24.5983622452
  0
LINE
  5
24E
100
AcDbEntity
  8
RACCORDO
100
AcDbLine
 62
7
  6
CONTINUOUS
 10
-25.4185795343
 20
18.3663770148
 11
-25.4185795343
 21
17.8897654342
  0
LINE
  5
24F
100
AcDbEntity
  8
RACCORDO
100
AcDbLine
 62
7
  6
CONTINUOUS
 10
-25.4185795343
 20
5.9822137407
 11
-25.4185795343
 21
5.5458033619
  0
LINE
  5
250
100
AcDbEntity
  8
RACCORDO
100
AcDbLine
 62
7
  6
CONTINUOUS
 10
-25.4185795343
 20
-1.1627934491
 11
-25.4185795343
 21
-0.6861818685
  0
LINE
  5
251
100
AcDbEntity
  8
RACCORDO
100
AcDbLine
 62
7
  6
CONTINUOUS
 10
-25.2782494344
 20
25.0995817144
 11
-25.2782494344
 21
24.7772339963
  0
LINE
  5
252
100
AcDbEntity
  8
RACCORDO
100
AcDbLine
 62
7
  6
CONTINUOUS
 10
-25.2782494344
 20
18.4311861053
 11
-25.2782494344
 21
17.8174587196
  0
LINE
  5
253
100
AcDbEntity
  8
RACCORDO
100
AcDbLine
 62
7
  6
CONTINUOUS
 10
-25.2782494344
 20
6.0470228312
 11
-25.2782494344
 21
5.724675113
  0
LINE
  5
254
100
AcDbEntity
  8
RACCORDO
100
AcDbLine
 62
7
  6
CONTINUOUS
 10
-25.2782494344
 20
-1.2351001636
 11
-25.2782494344
 21
-0.621372778
  0
LINE
  5
255
100
AcDbEntity
  8
RACCORDO
100
AcDbLine
 62
7
  6
CONTINUOUS
 10
-25.1635779601
 20
24.098669874
 11
-25.1635779601
 21
18.6104476566
  0
LINE
  5
256
100
AcDbEntity
  8
RACCORDO
100
AcDbLine
 62
7
  6
CONTINUOUS
 10
-25.1635779601
 20
5.0461109907
 11
-25.1635779601
 21
-0.4421112267
  0
LINE
  5
257
100
AcDbEntity
  8
RACCORDO
100
AcDbLine
 62
7
  6
CONTINUOUS
 10
-25.0916330225
 20
-7.7957591329
 11
-25.0916330225
 21
-1.5860347561
  0
LINE
  5
258
100
AcDbEntity
  8
RACCORDO
100
AcDbLine
 62
7
  6
CONTINUOUS
 10
-25.0916330225
 20
6.2595109388
 11
-25.0916330225
 21
17.4665241271
  0
LINE
  5
259
100
AcDbEntity
  8
RACCORDO
100
AcDbLine
 62
7
  6
CONTINUOUS
 10
-25.0916330225
 20
25.3120698221
 11
-25.0916330225
 21
29.0444985989
  0
LINE
  5
25A
100
AcDbEntity
  8
RACCORDO
100
AcDbLine
 62
7
  6
CONTINUOUS
 10
-24.5260562414
 20
-7.9862820013
 11
-24.5260562414
 21
-8.0785475234
  0
LINE
  5
25B
100
AcDbEntity
  8
RACCORDO
100
AcDbLine
 62
7
  6
CONTINUOUS
 10
-24.3857261416
 20
-7.8640974257
 11
-24.3857261416
 21
-8.1487125734
  0
LWPOLYLINE
  5
25C
100
AcDbEntity
  8
RACCORDO
100
AcDbPolyline
 62
7
  6
CONTINUOUS
 90
22
 70
0
 10
-26.7141997486
 20
-8.3029671112
 10
-26.7168787363
 20
-8.3192293117
 10
-26.7187012027
 20
-8.3361232748
 10
-26.7196242434
 20
-8.3536523544
 10
-26.7196212058
 20
-8.3717909545
 10
-26.7186442209
 20
-8.3905452266
 10
-26.716616966
 20
-8.4099556868
 10
-26.7135564972
 20
-8.4300149362
 10
-26.7093887566
 20
-8.4506489716
 10
-26.703895931
 20
-8.4717819352
 10
-26.6970383536
 20
-8.493440459
 10
-26.6888388756
 20
-8.5154122731
 10
-26.679198501
 20
-8.5372377991
 10
-26.6680811525
 20
-8.5588371943
 10
-26.6556276282
 20
-8.5799880016
 10
-26.6420593537
 20
-8.6000310207
 10
-26.6275022062
 20
-8.6186962397
 10
-26.6120427498
 20
-8.6359812713
 10
-26.5958688384
 20
-8.6516792861
 10
-26.5791175825
 20
-8.6656520545
 10
-26.5618748191
 20
-8.6778152852
 10
-26.5442509971
 20
-8.6880676912
  0
LINE
  5
25D
100
AcDbEntity
  8
RACCORDO
100
AcDbLine
 62
7
  6
CONTINUOUS
 10
-25.6671925233
 20
17.1765252288
 11
-25.0916330225
 21
17.4665241271
  0
LWPOLYLINE
  5
25E
100
AcDbEntity
  8
ASSI
100
AcDbPolyline
 62
7
  6
CONTINUOUS
 90
4
 70
0
 10
16.4195024689
 20
-27.0061324543
 10
16.432916008
 20
-27.0069640255
 10
16.4463430934
 20
-27.0092294181
 10
16.4597555408
 20
-27.0126133256
  0
LWPOLYLINE
  5
25F
100
AcDbEntity
  8
0
100
AcDbPolyline
 62
7
  6
CONTINUOUS
 90
6
 70
0
 10
-1.7695652049
 20
-24.547698764
 10
-1.7623845566
 20
-24.5492292008
 10
-1.7552062484
 20
-24.5497007036
 10
-1.7480302804
 20
-24.5491132723
 10
-1.7408763268
 20
-24.5472470027
 10
-1.7337247134
 20
-24.544321799
  0
LWPOLYLINE
  5
260
100
AcDbEntity
  8
0
100
AcDbPolyline
 62
7
  6
CONTINUOUS
 90
5
 70
0
 10
-1.8705570414
 20
-24.194499448
 10
-1.8824224044
 20
-24.191810512
 10
-1.90374907
 20
-24.1853321513
 10
-1.9260871796
 20
-24.1768820532
 10
-1.9494367332
 20
-24.1664602178
  0
LWPOLYLINE
  5
261
100
AcDbEntity
  8
0
100
AcDbPolyline
 62
7
  6
CONTINUOUS
 90
10
 70
0
 10
-2.2679833738
 20
-23.6493944211
 10
-2.2406262697
 20
-23.6575003806
 10
-2.2133771795
 20
-23.6666435599
 10
-2.1862361033
 20
-23.676823959
 10
-2.1592208705
 20
-23.6880265769
 10
-2.1323136517
 20
-23.7002664145
 10
-2.1054609583
 20
-23.7135884748
 10
-2.0786449608
 20
-23.7280077588
 10
-2.0518834888
 20
-23.7435092655
 10
-2.0251765422
 20
-23.7600929949
  0
LWPOLYLINE
  5
262
100
AcDbEntity
  8
RACCORDO
100
AcDbPolyline
 62
7
  6
CONTINUOUS
 90
11
 70
0
 10
21.6618879841
 20
-37.2293758517
 10
21.6960840042
 20
-37.2451696224
 10
21.7461856646
 20
-37.2637833393
 10
21.7968216313
 20
-37.2772956014
 10
21.8476521315
 20
-37.2856258309
 10
21.8980832052
 20
-37.2887215535
 10
21.9476510273
 20
-37.2866347893
 10
21.9959610166
 20
-37.2794953886
 10
22.0423851462
 20
-37.2675583666
 10
22.0864344575
 20
-37.251167128
 10
22.0971311101
 20
-37.2463714985
  0
LINE
  5
263
100
AcDbEntity
  8
RACCORDO
100
AcDbLine
 62
7
  6
CONTINUOUS
 10
-29.8990628628
 20
-11.4489126241
 11
21.661743497
 21
-37.229315804
  0
LINE
  5
264
100
AcDbEntity
  8
0
100
AcDbLine
 62
7
  6
CONTINUOUS
 10
-6.7752530293
 20
-22.9044601442
 11
-6.5021217213
 21
-23.0410257982
  0
LINE
  5
265
100
AcDbEntity
  8
0
100
AcDbLine
 62
7
  6
CONTINUOUS
 10
-5.9098299895
 20
-23.3371716641
 11
-5.5998937736
 21
-23.492139772
  0
LINE
  5
266
100
AcDbEntity
  8
0
100
AcDbLine
 62
7
  6
CONTINUOUS
 10
-5.4330455646
 20
-23.5755638765
 11
-5.1365380136
 21
-23.723817652
  0
LINE
  5
267
100
AcDbEntity
  8
0
100
AcDbLine
 62
7
  6
CONTINUOUS
 10
-4.7060613047
 20
-23.9390560065
 11
-4.6625933296
 21
-23.9607899941
  0
LINE
  5
268
100
AcDbEntity
  8
0
100
AcDbLine
 62
7
  6
CONTINUOUS
 10
-4.2304018867
 20
-24.1768857155
 11
-3.9272022771
 21
-24.3284855203
  0
LINE
  5
269
100
AcDbEntity
  8
0
100
AcDbLine
 62
7
  6
CONTINUOUS
 10
-3.8785342387
 20
-24.3528195395
 11
-3.5719610226
 21
-24.5061061475
  0
LINE
  5
26A
100
AcDbEntity
  8
0
100
AcDbLine
 62
7
  6
CONTINUOUS
 10
-2.9840667879
 20
-24.8000532649
 11
-2.6574074966
 21
-24.9633829105
  0
LINE
  5
26B
100
AcDbEntity
  8
0
100
AcDbLine
 62
7
  6
CONTINUOUS
 10
-2.5663951634
 20
-25.0088894216
 11
-2.2577063662
 21
-25.1632338202
  0
LINE
  5
26C
100
AcDbEntity
  8
0
100
AcDbLine
 62
7
  6
CONTINUOUS
 10
-1.7830823092
 20
-25.4005458487
 11
-1.4849600128
 21
-25.5496069968
  0
LINE
  5
26D
100
AcDbEntity
  8
RACCORDO
100
AcDbLine
 62
7
  6
CONTINUOUS
 10
-29.9770308187
 20
-11.2866504839
 11
-6.7796328916
 21
-22.8853494474
  0
LINE
  5
26E
100
AcDbEntity
  8
RACCORDO
100
AcDbLine
 62
7
  6
CONTINUOUS
 10
-6.4852009557
 20
-23.0325654154
 11
-5.9098299895
 21
-23.3202508984
  0
LINE
  5
26F
100
AcDbEntity
  8
RACCORDO
100
AcDbLine
 62
7
  6
CONTINUOUS
 10
-5.582973008
 20
-23.4836793892
 11
-5.4317980817
 21
-23.5592668523
  0
LINE
  5
270
100
AcDbEntity
  8
RACCORDO
100
AcDbLine
 62
7
  6
CONTINUOUS
 10
-5.119617248
 20
-23.7153572692
 11
-4.7112423875
 21
-23.9195446994
  0
LINE
  5
271
100
AcDbEntity
  8
RACCORDO
100
AcDbLine
 62
7
  6
CONTINUOUS
 10
-4.6456725639
 20
-23.9523296112
 11
-4.2313130652
 21
-24.1595093606
  0
LINE
  5
272
100
AcDbEntity
  8
RACCORDO
100
AcDbLine
 62
7
  6
CONTINUOUS
 10
-3.9102815115
 20
-24.3200251375
 11
-3.8717659324
 21
-24.339282927
  0
LINE
  5
273
100
AcDbEntity
  8
RACCORDO
100
AcDbLine
 62
7
  6
CONTINUOUS
 10
-3.555040257
 20
-24.4976457647
 11
-2.9878090121
 21
-24.7812613871
  0
LINE
  5
274
100
AcDbEntity
  8
RACCORDO
100
AcDbLine
 62
7
  6
CONTINUOUS
 10
-2.640486731
 20
-24.9549225277
 11
-2.5657863766
 21
-24.9922727049
  0
LINE
  5
275
100
AcDbEntity
  8
RACCORDO
100
AcDbLine
 62
7
  6
CONTINUOUS
 10
-2.2407852561
 20
-25.1547732651
 11
-1.7871433337
 21
-25.3815942264
  0
LINE
  5
276
100
AcDbEntity
  8
RACCORDO
100
AcDbLine
 62
7
  6
CONTINUOUS
 10
-1.4680389028
 20
-25.5411464418
 11
21.5860588804
 21
-37.0681953334
  0
LINE
  5
277
100
AcDbEntity
  8
0
100
AcDbLine
 62
7
  6
CONTINUOUS
 10
-3.4864378717
 20
-24.1858307398
 11
-3.0643566416
 21
-24.3968713548
  0
LINE
  5
278
100
AcDbEntity
  8
0
100
AcDbLine
 62
7
  6
CONTINUOUS
 10
-3.1262970743
 20
-24.0849841481
 11
-3.4230386777
 21
-23.9366133464
  0
LINE
  5
279
100
AcDbEntity
  8
0
100
AcDbLine
 62
7
  6
CONTINUOUS
 10
-2.2577063662
 20
-24.4515731918
 11
-2.0915261506
 21
-24.5346632996
  0
LINE
  5
27A
100
AcDbEntity
  8
0
100
AcDbLine
 62
7
  6
CONTINUOUS
 10
-3.1561417041
 20
-23.928640477
 11
-3.2816173214
 21
-23.8659026683
  0
LINE
  5
27B
100
AcDbEntity
  8
0
100
AcDbLine
 62
7
  6
CONTINUOUS
 10
-2.0908580894
 20
-24.237170896
 11
-2.2679833738
 21
-24.1486082538
  0
LINE
  5
27C
100
AcDbEntity
  8
0
100
AcDbLine
 62
7
  6
CONTINUOUS
 10
-1.9494367332
 20
-24.1664602178
 11
-2.1265620176
 21
-24.0778975756
  0
LINE
  5
27D
100
AcDbEntity
  8
0
100
AcDbLine
 62
7
  6
CONTINUOUS
 10
-3.1129808394
 20
-22.9170961777
 11
-3.4128061354
 21
-22.7671835297
  0
LINE
  5
27E
100
AcDbEntity
  8
0
100
AcDbLine
 62
7
  6
CONTINUOUS
 10
-4.0660476434
 20
-22.4405627757
 11
-4.3726986411
 21
-22.2872372768
  0
LINE
  5
27F
100
AcDbEntity
  8
0
100
AcDbLine
 62
7
  6
CONTINUOUS
 10
-4.9892971686
 20
-21.9789380131
 11
-5.2989767047
 21
-21.824098245
  0
LINE
  5
280
100
AcDbEntity
  8
0
100
AcDbLine
 62
7
  6
CONTINUOUS
 10
-6.0248472714
 20
-21.4611629617
 11
-6.3345720624
 21
-21.3063005662
  0
LINE
  5
281
100
AcDbEntity
  8
0
100
AcDbLine
 62
7
  6
CONTINUOUS
 10
-6.9092773415
 20
-21.0189479267
 11
-7.2459634069
 21
-20.8506048939
  0
LINE
  5
282
100
AcDbEntity
  8
0
100
AcDbLine
 62
7
  6
CONTINUOUS
 10
-5.5998937736
 20
-21.6735305914
 11
-5.9098299895
 21
-21.5185624834
  0
LINE
  5
283
100
AcDbEntity
  8
0
100
AcDbLine
 62
7
  6
CONTINUOUS
 10
-2.9715594832
 20
-22.8463854996
 11
-3.2713847792
 21
-22.6964728515
  0
LINE
  5
284
100
AcDbEntity
  8
0
100
AcDbLine
 62
7
  6
CONTINUOUS
 10
-3.9246262871
 20
-22.3698520976
 11
-4.2312772849
 21
-22.2165265987
  0
LINE
  5
285
100
AcDbEntity
  8
0
100
AcDbLine
 62
7
  6
CONTINUOUS
 10
-4.8478758123
 20
-21.908227335
 11
-5.1575553485
 21
-21.7533875669
  0
LINE
  5
286
100
AcDbEntity
  8
0
100
AcDbLine
 62
7
  6
CONTINUOUS
 10
-5.8834259152
 20
-21.3904522835
 11
-6.1931507062
 21
-21.2355898881
  0
LINE
  5
287
100
AcDbEntity
  8
0
100
AcDbLine
 62
7
  6
CONTINUOUS
 10
-6.7678559852
 20
-20.9482372485
 11
-7.1045420507
 21
-20.7798942158
  0
LINE
  5
288
100
AcDbEntity
  8
0
100
AcDbLine
 62
7
  6
CONTINUOUS
 10
-5.4584724174
 20
-21.6028199133
 11
-5.7684086333
 21
-21.4478518053
  0
LWPOLYLINE
  5
289
100
AcDbEntity
  8
RACCORDO
100
AcDbPolyline
 62
7
  6
CONTINUOUS
 90
22
 70
0
 10
-29.9770308187
 20
-11.2866504839
 10
-29.9981152856
 20
-11.2751358875
 10
-30.0188931417
 20
-11.2619082267
 10
-30.039364387
 20
-11.2469675015
 10
-30.0596500736
 20
-11.230207538
 10
-30.0796291494
 20
-11.2117345101
 10
-30.0989384585
 20
-11.1918669399
 10
-30.1175561176
 20
-11.1705876465
 10
-30.13550401
 20
-11.1479138107
 10
-30.1524846294
 20
-11.1242154979
 10
-30.1684837906
 20
-11.0994707361
 10
-30.1835156788
 20
-11.0737014971
 10
-30.1973253432
 20
-11.0473437625
 10
-30.2098894251
 20
-11.0203906742
 10
-30.2212312833
 20
-10.9928490901
 10
-30.231166043
 20
-10.965175565
 10
-30.2396700545
 20
-10.937358839
 10
-30.2467669676
 20
-10.9094101719
 10
-30.2523428565
 20
-10.8818198988
 10
-30.2563597461
 20
-10.8547514645
 10
-30.2588556115
 20
-10.8280414242
 10
-30.2598304528
 20
-10.8016897778
  0
LWPOLYLINE
  5
28A
100
AcDbEntity
  8
RACCORDO
100
AcDbPolyline
 62
7
  6
CONTINUOUS
 90
19
 70
0
 10
-28.2021568686
 20
-10.1090194466
 10
-28.2381444051
 20
-10.0889462489
 10
-28.2731327292
 20
-10.0657924975
 10
-28.3071218409
 20
-10.0395581924
 10
-28.3402757889
 20
-10.0100604991
 10
-28.3724305244
 20
-9.9774822522
 10
-28.4030939013
 20
-9.942371955
 10
-28.4322615981
 20
-9.9047281384
 10
-28.4599379363
 20
-9.8645522716
 10
-28.4856437338
 20
-9.8223972648
 10
-28.5094038952
 20
-9.778184811
 10
-28.5311935159
 20
-9.7319932173
 10
-28.5504587002
 20
-9.6846103148
 10
-28.5671833054
 20
-9.6359500058
 10
-28.5813834742
 20
-9.586098388
 10
-28.5925537389
 20
-9.5361015852
 10
-28.6005256102
 20
-9.4863083055
 10
-28.6054675773
 20
-9.4363698408
 10
-28.6073796403
 20
-9.3862861912
  0
LWPOLYLINE
  5
28B
100
AcDbEntity
  8
RACCORDO
100
AcDbPolyline
 62
7
  6
CONTINUOUS
 90
10
 70
0
 10
-29.8990628628
 20
-11.4489126241
 10
-29.9083046999
 20
-11.4437348452
 10
-29.9236951333
 20
-11.4322486533
 10
-29.9373841264
 20
-11.4180660532
 10
-29.9492250239
 20
-11.4013390146
 10
-29.9590909663
 20
-11.3822467755
 10
-29.9668762405
 20
-11.3609939731
 10
-29.9724974605
 20
-11.3378083672
 10
-29.9758944406
 20
-11.3129383777
 10
-29.9770308187
 20
-11.2866504839
  0
LWPOLYLINE
  5
28C
100
AcDbEntity
  8
RACCORDO
100
AcDbPolyline
 62
7
  6
CONTINUOUS
 90
10
 70
0
 10
21.6617434943
 20
-37.2293158026
 10
21.6525016976
 20
-37.224138049
 10
21.6371112664
 20
-37.2126518694
 10
21.6234222716
 20
-37.1984692809
 10
21.6115813695
 20
-37.1817422519
 10
21.6017154204
 20
-37.1626500192
 10
21.5939301376
 20
-37.141397216
 10
21.5883089088
 20
-37.1182115994
 10
21.5849119222
 20
-37.0933415893
 10
21.5837755418
 20
-37.0670536641
  0
LWPOLYLINE
  5
28D
100
AcDbEntity
  8
0
100
AcDbPolyline
 62
7
  6
CONTINUOUS
 90
13
 70
0
 10
-2.0915261506
 20
-24.5346632996
 10
-2.072111608
 20
-24.5457174117
 10
-2.0536663847
 20
-24.5584203244
 10
-2.0361904805
 20
-24.5727720378
 10
-2.0197611767
 20
-24.5886908717
 10
-2.0043011921
 20
-24.6062585063
 10
-1.9895786831
 20
-24.6257199818
 10
-1.9754296012
 20
-24.6472086938
 10
-1.9620179949
 20
-24.6705912468
 10
-1.9496041666
 20
-24.6957124947
 10
-1.9382748836
 20
-24.7225207222
 10
-1.9279433786
 20
-24.7510676445
 10
-1.9186096515
 20
-24.7813532617
  0
LWPOLYLINE
  5
28E
100
AcDbEntity
  8
RACCORDO
100
AcDbPolyline
 62
7
  6
CONTINUOUS
 90
7
 70
0
 10
-26.544250338
 20
-8.6880672223
 10
-26.5412065228
 20
-8.6900487861
 10
-26.5381027096
 20
-8.6919768919
 10
-26.5349388987
 20
-8.6938515395
 10
-26.5317150899
 20
-8.6956727289
 10
-26.5284312833
 20
-8.6974404602
 10
-26.5250874789
 20
-8.6991547333
  0
LWPOLYLINE
  5
28F
100
AcDbEntity
  8
RACCORDO
100
AcDbPolyline
 62
7
  6
CONTINUOUS
 90
6
 70
0
 10
-26.417059938
 20
-8.6113650708
 10
-26.4160946539
 20
-8.6121845755
 10
-26.4150671271
 20
-8.6129674574
 10
-26.4139774001
 20
-8.6137136194
 10
-26.4128255163
 20
-8.6144229641
 10
-26.4116115197
 20
-8.6150953936
  0
LINE
  5
290
100
AcDbEntity
  8
RACCORDO
100
AcDbLine
 62
7
  6
CONTINUOUS
 10
-19.2933574168
 20
-10.9547441329
 11
-19.2933574168
 21
-11.4074896009
  0
LWPOLYLINE
  5
291
100
AcDbEntity
  8
RACCORDO
100
AcDbPolyline
 62
7
  6
CONTINUOUS
 90
8
 70
0
 10
-4.7720401007
 20
-17.3963313097
 10
-4.7874341983
 20
-17.3917999265
 10
-4.8036102437
 20
-17.3893481281
 10
-4.8204439937
 20
-17.3889854151
 10
-4.8377726354
 20
-17.390700054
 10
-4.8554512502
 20
-17.3944549778
 10
-4.8733579413
 20
-17.40020219
 10
-4.8913600751
 20
-17.407879362
  0
LWPOLYLINE
  5
292
100
AcDbEntity
  8
RACCORDO
100
AcDbPolyline
 62
7
  6
CONTINUOUS
 90
3
 70
0
 10
-4.8180452302
 20
-17.3795530776
 10
-4.7893943705
 20
-17.388724072
 10
-4.7608920138
 20
-17.4011734619
  0
LWPOLYLINE
  5
293
100
AcDbEntity
  8
ASSI
100
AcDbPolyline
 62
7
  6
CONTINUOUS
 90
3
 70
0
 10
16.4597555408
 20
-27.0126133256
 10
16.473055598
 20
-27.0170587883
 10
16.4861676481
 20
-27.0225636631
  0
LWPOLYLINE
  5
294
100
AcDbEntity
  8
RACCORDO
100
AcDbPolyline
 62
7
  6
CONTINUOUS
 90
19
 70
0
 10
-28.0625941808
 20
-9.795084271
 10
-28.0832910363
 20
-9.7873486074
 10
-28.1030792997
 20
-9.7773967246
 10
-28.1218509981
 20
-9.7653327591
 10
-28.1394748506
 20
-9.7512901364
 10
-28.1558674849
 20
-9.7353651193
 10
-28.1709945002
 20
-9.7176017534
 10
-28.1847452494
 20
-9.6981172754
 10
-28.1970213746
 20
-9.6770294967
 10
-28.2078033084
 20
-9.6543702404
 10
-28.216980623
 20
-9.6302336859
 10
-28.2244438709
 20
-9.6047818736
 10
-28.2301657874
 20
-9.5781491135
 10
-28.234008682
 20
-9.5504461397
 10
-28.2358825354
 20
-9.5218618169
 10
-28.2358280773
 20
-9.492657042
 10
-28.2337865974
 20
-9.4630308468
 10
-28.2296021506
 20
-9.4331189014
 10
-28.2231747464
 20
-9.4030933154
  0
LWPOLYLINE
  5
295
100
AcDbEntity
  8
RACCORDO
100
AcDbPolyline
 62
7
  6
CONTINUOUS
 90
9
 70
0
 10
-3.2226520243
 20
-18.1702934687
 10
-3.2337494402
 20
-18.1654766397
 10
-3.2491435375
 20
-18.1609452563
 10
-3.265319586
 20
-18.1584934573
 10
-3.282153341
 20
-18.1581307446
 10
-3.2994819858
 20
-18.1598453847
 10
-3.3171606001
 20
-18.1636003094
 10
-3.3350672881
 20
-18.1693475213
 10
-3.3530694166
 20
-18.1770246913
  0
LWPOLYLINE
  5
296
100
AcDbEntity
  8
RACCORDO
100
AcDbPolyline
 62
7
  6
CONTINUOUS
 90
13
 70
0
 10
-28.6073796403
 20
-9.3862861912
 10
-28.5813182534
 20
-9.3978825238
 10
-28.5527405801
 20
-9.4078876749
 10
-28.5220330845
 20
-9.4161663421
 10
-28.4896110328
 20
-9.4226065706
 10
-28.4559128777
 20
-9.4271212673
 10
-28.4213943288
 20
-9.4296493788
 10
-28.3865221904
 20
-9.4301567166
 10
-28.3517680482
 20
-9.4286364198
 10
-28.3176018925
 20
-9.425109048
 10
-28.2844857618
 20
-9.4196223027
 10
-28.2528674951
 20
-9.4122503827
 10
-28.2231746751
 20
-9.4030929807
  0
LWPOLYLINE
  5
297
100
AcDbEntity
  8
RACCORDO
100
AcDbPolyline
 62
7
  6
CONTINUOUS
 90
11
 70
0
 10
-24.5525968217
 20
-7.5933437858
 10
-24.5567633609
 20
-7.5913995676
 10
-24.5716534501
 20
-7.586355464
 10
-24.5880846847
 20
-7.5834650894
 10
-24.6060011719
 20
-7.5826858021
 10
-24.6252766968
 20
-7.5839933851
 10
-24.6457751254
 20
-7.5873580379
 10
-24.6674329943
 20
-7.5927347416
 10
-24.6901451833
 20
-7.6000819589
 10
-24.7137617638
 20
-7.6093467853
 10
-24.7381559671
 20
-7.6204640873
  0
LINE
  5
298
100
AcDbEntity
  8
ASSI
100
AcDbLine
 62
7
  6
CONTINUOUS
 10
16.4861676481
 20
-27.0225636631
 11
16.4944229968
 21
-27.0265157041
  0
LINE
  5
299
100
AcDbEntity
  8
RACCORDO
100
AcDbLine
 62
7
  6
CONTINUOUS
 10
-3.2226124112
 20
-18.1703132631
 11
-3.2226520243
 21
-18.1702934687
  0
LINE
  5
29A
100
AcDbEntity
  8
RACCORDO
100
AcDbLine
 62
7
  6
CONTINUOUS
 10
19.8089015917
 20
-34.1145486768
 11
-28.2021568686
 21
-10.1090194466
  0
LINE
  5
29B
100
AcDbEntity
  8
RACCORDO
100
AcDbLine
 62
7
  6
CONTINUOUS
 10
19.9484705245
 20
-33.8006152332
 11
-28.0625930489
 21
-9.7950834465
  0
LINE
  5
29C
100
AcDbEntity
  8
RACCORDO
100
AcDbLine
 62
7
  6
CONTINUOUS
 10
-26.5250874789
 20
-8.6991547333
 11
20.1262563979
 21
-32.0248266717
  0
LINE
  5
29D
100
AcDbEntity
  8
RACCORDO
100
AcDbLine
 62
7
  6
CONTINUOUS
 10
-26.4116115197
 20
-8.6150953936
 11
20.1262563979
 21
-31.8840267365
  0
LINE
  5
29E
100
AcDbEntity
  8
RACCORDO
100
AcDbLine
 62
7
  6
CONTINUOUS
 10
20.1262563979
 20
-31.6194464096
 11
-26.1467713353
 21
-8.482932543
  0
LINE
  5
29F
100
AcDbEntity
  8
RACCORDO
100
AcDbLine
 62
7
  6
CONTINUOUS
 10
-12.2547705479
 20
-15.2253030054
 11
-7.8057466185
 21
-17.4498149701
  0
LINE
  5
2A0
100
AcDbEntity
  8
RACCORDO
100
AcDbLine
 62
7
  6
CONTINUOUS
 10
3.6551320288
 20
-23.1802542937
 11
8.1041559582
 21
-25.4047662584
  0
LINE
  5
2A1
100
AcDbEntity
  8
RACCORDO
100
AcDbLine
 62
7
  6
CONTINUOUS
 10
-25.633220859
 20
-8.2375578798
 11
-12.4344216392
 21
-14.8369574897
  0
LINE
  5
2A2
100
AcDbEntity
  8
DRAFT
100
AcDbLine
 62
7
  6
CONTINUOUS
 10
-7.1311207803
 20
-17.4886079191
 11
3.4754809375
 21
-22.791908778
  0
LINE
  5
2A3
100
AcDbEntity
  8
RACCORDO
100
AcDbLine
 62
7
  6
CONTINUOUS
 10
8.7787817964
 20
-25.4435592075
 11
20.1262563979
 21
-31.1172965082
  0
LINE
  5
2A4
100
AcDbEntity
  8
ASSI
100
AcDbLine
 62
7
  6
CONTINUOUS
 10
16.6846026202
 20
-29.2694677517
 11
14.3295700287
 21
-28.091951456
  0
LINE
  5
2A5
100
AcDbEntity
  8
ASSI
100
AcDbLine
 62
7
  6
CONTINUOUS
 10
-15.1352025332
 20
-13.359565175
 11
-17.4902351247
 21
-12.1820488793
  0
LINE
  5
2A6
100
AcDbEntity
  8
RACCORDO
100
AcDbLine
 62
7
  6
CONTINUOUS
 10
20.1262563979
 20
-30.9824824918
 11
16.7690884238
 21
-29.3038985047
  0
LINE
  5
2A7
100
AcDbEntity
  8
RACCORDO
100
AcDbLine
 62
7
  6
CONTINUOUS
 10
11.7486302773
 20
-26.7936694315
 11
9.5167127557
 21
-25.6777106707
  0
LINE
  5
2A8
100
AcDbEntity
  8
RACCORDO
100
AcDbLine
 62
7
  6
CONTINUOUS
 10
3.0911033687
 20
-22.4649059772
 11
0.6824091518
 21
-21.2605588687
  0
LINE
  5
2A9
100
AcDbEntity
  8
RACCORDO
100
AcDbLine
 62
7
  6
CONTINUOUS
 10
-3.9844956041
 20
-18.9271064908
 11
-6.393189821
 21
-17.7227593824
  0
LINE
  5
2AA
100
AcDbEntity
  8
RACCORDO
100
AcDbLine
 62
7
  6
CONTINUOUS
 10
-12.818799208
 20
-14.5099546888
 11
-15.0507167296
 21
-13.393995928
  0
LINE
  5
2AB
100
AcDbEntity
  8
RACCORDO
100
AcDbLine
 62
7
  6
CONTINUOUS
 10
-20.0711748761
 20
-10.8837668548
 11
-25.6671925233
 21
-8.0857580312
  0
LINE
  5
2AC
100
AcDbEntity
  8
ASSI
100
AcDbLine
 62
7
  6
CONTINUOUS
 10
16.8922946149
 20
-29.1611817147
 11
14.541702063
 21
-27.9858854388
  0
LINE
  5
2AD
100
AcDbEntity
  8
ASSI
100
AcDbLine
 62
7
  6
CONTINUOUS
 10
-14.9275105385
 20
-13.251279138
 11
-17.2781030904
 21
-12.0759828621
  0
LINE
  5
2AE
100
AcDbEntity
  8
ASSI
100
AcDbLine
 62
7
  6
CONTINUOUS
 10
17.0307559446
 20
-29.0889910233
 11
14.6831234193
 21
-27.9151747607
  0
LINE
  5
2AF
100
AcDbEntity
  8
ASSI
100
AcDbLine
 62
7
  6
CONTINUOUS
 10
-14.7890492088
 20
-13.1790884466
 11
-17.1366817341
 21
-12.005272184
  0
LINE
  5
2B0
100
AcDbEntity
  8
RACCORDO
100
AcDbLine
 62
7
  6
CONTINUOUS
 10
-11.3515771056
 20
-14.7380094224
 11
-6.8704624297
 21
-16.9785667604
  0
LINE
  5
2B1
100
AcDbEntity
  8
RACCORDO
100
AcDbLine
 62
7
  6
CONTINUOUS
 10
4.5583254711
 20
-22.6929607108
 11
9.039440147
 21
-24.9335180487
  0
LINE
  5
2B2
100
AcDbEntity
  8
ASSI
100
AcDbLine
 62
7
  6
CONTINUOUS
 10
17.2539274856
 20
-28.9884447595
 11
14.8952554536
 21
-27.8091087435
  0
LINE
  5
2B3
100
AcDbEntity
  8
ASSI
100
AcDbLine
 62
7
  6
CONTINUOUS
 10
-14.5658776678
 20
-13.0785421828
 11
-16.9245496998
 21
-11.8992061668
  0
LINE
  5
2B4
100
AcDbEntity
  8
RACCORDO
100
AcDbLine
 62
7
  6
CONTINUOUS
 10
20.1262563979
 20
-30.4047038431
 11
17.3347738487
 21
-29.0089625685
  0
LINE
  5
2B5
100
AcDbEntity
  8
RACCORDO
100
AcDbLine
 62
7
  6
CONTINUOUS
 10
12.3143157023
 20
-26.4987334953
 11
10.0725241049
 21
-25.3778376966
  0
LINE
  5
2B6
100
AcDbEntity
  8
RACCORDO
100
AcDbLine
 62
7
  6
CONTINUOUS
 10
3.6666628694
 20
-22.1749070789
 11
1.2480945767
 21
-20.9656229325
  0
LINE
  5
2B7
100
AcDbEntity
  8
RACCORDO
100
AcDbLine
 62
7
  6
CONTINUOUS
 10
-3.4188101791
 20
-18.6321705546
 11
-5.8373784718
 21
-17.4228864083
  0
LINE
  5
2B8
100
AcDbEntity
  8
RACCORDO
100
AcDbLine
 62
7
  6
CONTINUOUS
 10
-12.2432397073
 20
-14.2199557905
 11
-14.4850313047
 21
-13.0990599918
  0
LINE
  5
2B9
100
AcDbEntity
  8
RACCORDO
100
AcDbLine
 62
7
  6
CONTINUOUS
 10
-19.5054894511
 20
-10.5888309186
 11
-25.0916007137
 21
-7.7957752873
  0
LINE
  5
2BA
100
AcDbEntity
  8
ASSI
100
AcDbLine
 62
7
  6
CONTINUOUS
 10
18.9257641064
 20
-29.6829417136
 11
15.0366768099
 21
-27.7383980654
  0
LINE
  5
2BB
100
AcDbEntity
  8
ASSI
100
AcDbLine
 62
7
  6
CONTINUOUS
 10
-12.894041047
 20
-13.7730391369
 11
-16.7831283435
 21
-11.8284954887
  0
LINE
  5
2BC
100
AcDbEntity
  8
ASSI
100
AcDbLine
 62
7
  6
CONTINUOUS
 10
19.1378961407
 20
-29.5768756964
 11
15.2488088442
 21
-27.6323320482
  0
LINE
  5
2BD
100
AcDbEntity
  8
ASSI
100
AcDbLine
 62
7
  6
CONTINUOUS
 10
-12.6819090127
 20
-13.6669731198
 11
-16.5709963092
 21
-11.7224294715
  0
LINE
  5
2BE
100
AcDbEntity
  8
RACCORDO
100
AcDbLine
 62
7
  6
CONTINUOUS
 10
-25.0916330225
 20
-7.4437255596
 11
-24.7381559671
 21
-7.6204640873
  0
LINE
  5
2BF
100
AcDbEntity
  8
RACCORDO
100
AcDbLine
 62
7
  6
CONTINUOUS
 10
-25.0916330225
 20
-7.3238256746
 11
-24.5527995187
 21
-7.5932424266
  0
LINE
  5
2C0
100
AcDbEntity
  8
ASSI
100
AcDbLine
 62
7
  6
CONTINUOUS
 10
19.279317497
 20
-29.5061650183
 11
15.3902302004
 21
-27.5616213701
  0
LINE
  5
2C1
100
AcDbEntity
  8
ASSI
100
AcDbLine
 62
7
  6
CONTINUOUS
 10
-12.5404876564
 20
-13.5962624416
 11
-16.4295749529
 21
-11.6517187934
  0
LINE
  5
2C2
100
AcDbEntity
  8
RACCORDO
100
AcDbLine
 62
7
  6
CONTINUOUS
 10
-4.8913600751
 20
-17.407879362
 11
-3.3530694165
 21
-18.1770246913
  0
LINE
  5
2C3
100
AcDbEntity
  8
RACCORDO
100
AcDbLine
 62
7
  6
CONTINUOUS
 10
-4.760898211
 20
-17.4011703631
 11
-3.2226075523
 21
-18.1703156924
  0
LINE
  5
2C4
100
AcDbEntity
  8
ASSI
100
AcDbLine
 62
7
  6
CONTINUOUS
 10
19.4914495313
 20
-29.4000990012
 11
15.6023622348
 21
-27.4555553529
  0
LINE
  5
2C5
100
AcDbEntity
  8
ASSI
100
AcDbLine
 62
7
  6
CONTINUOUS
 10
-12.3283556221
 20
-13.4901964245
 11
-16.2174429186
 21
-11.5456527762
  0
LINE
  5
2C6
100
AcDbEntity
  8
ASSI
100
AcDbLine
 62
7
  6
CONTINUOUS
 10
19.6328708876
 20
-29.329388323
 11
15.743783591
 21
-27.3848446748
  0
LINE
  5
2C7
100
AcDbEntity
  8
ASSI
100
AcDbLine
 62
7
  6
CONTINUOUS
 10
-12.1869342658
 20
-13.4194857463
 11
-16.0760215624
 21
-11.4749420981
  0
LINE
  5
2C8
100
AcDbEntity
  8
ASSI
100
AcDbLine
 62
7
  6
CONTINUOUS
 10
19.8450029219
 20
-29.2233223059
 11
15.9559156254
 21
-27.2787786576
  0
LINE
  5
2C9
100
AcDbEntity
  8
ASSI
100
AcDbLine
 62
7
  6
CONTINUOUS
 10
-11.9748022315
 20
-13.3134197292
 11
-15.863889528
 21
-11.3688760809
  0
LWPOLYLINE
  5
2CA
100
AcDbEntity
  8
RACCORDO
100
AcDbPolyline
 62
7
  6
CONTINUOUS
 90
14
 70
0
 10
-3.2226520243
 20
-18.1702934687
 10
-3.2090696783
 20
-18.177522933
 10
-3.1871429092
 20
-18.1912047763
 10
-3.1664466374
 20
-18.2067464655
 10
-3.1471102346
 20
-18.2240696228
 10
-3.1292872888
 20
-18.2430655438
 10
-3.1131349207
 20
-18.2635977034
 10
-3.0987833221
 20
-18.2855359385
 10
-3.086360032
 20
-18.3087301589
 10
-3.0759855002
 20
-18.3330069793
 10
-3.0677623812
 20
-18.358184832
 10
-3.0617747483
 20
-18.3840834319
 10
-3.0580953737
 20
-18.4104926295
 10
-3.0567716311
 20
-18.4386399305
  0
LWPOLYLINE
  5
2CB
100
AcDbEntity
  8
RACCORDO
100
AcDbPolyline
 62
7
  6
CONTINUOUS
 90
19
 70
0
 10
-24.7381559654
 20
-7.6204640865
 10
-24.7193685847
 20
-7.6305437476
 10
-24.7007518003
 20
-7.6425366874
 10
-24.6824472142
 20
-7.6563518425
 10
-24.6645941275
 20
-7.6718842335
 10
-24.647328313
 20
-7.6890158856
 10
-24.6307809998
 20
-7.7076167673
 10
-24.6150780076
 20
-7.7275457131
 10
-24.6003390425
 20
-7.7486510818
 10
-24.5866765687
 20
-7.7707719939
 10
-24.5741945985
 20
-7.7937401781
 10
-24.5629881543
 20
-7.8173809293
 10
-24.5531427016
 20
-7.8415139882
 10
-24.5447331935
 20
-7.8659555943
 10
-24.5378235609
 20
-7.8905199106
 10
-24.5324663663
 20
-7.9150200287
 10
-24.5287023679
 20
-7.939269532
 10
-24.5265602099
 20
-7.9630839139
 10
-24.5260561921
 20
-7.9862819768
  0
LWPOLYLINE
  5
2CC
100
AcDbEntity
  8
RACCORDO
100
AcDbPolyline
 62
7
  6
CONTINUOUS
 90
19
 70
0
 10
-3.3530694165
 20
-18.1770246913
 10
-3.3342788464
 20
-18.1871065586
 10
-3.3156593936
 20
-18.1991020367
 10
-3.2973527089
 20
-18.2129198681
 10
-3.279498059
 20
-18.2284549353
 10
-3.2622312805
 20
-18.2455890496
 10
-3.245683745
 20
-18.2641918466
 10
-3.229981353
 20
-18.2841217803
 10
-3.2152435448
 20
-18.3052272452
 10
-3.2015824096
 20
-18.3273477252
 10
-3.1891018624
 20
-18.3503149768
 10
-3.1778968792
 20
-18.3739542409
 10
-3.1680527345
 20
-18.3980856145
 10
-3.1596443241
 20
-18.4225254801
 10
-3.152735597
 20
-18.447087938
 10
-3.1473791011
 20
-18.4715861564
 10
-3.1436155853
 20
-18.495833772
 10
-3.1414736836
 20
-18.5196463073
 10
-3.1409696909
 20
-18.5428426053
  0
LWPOLYLINE
  5
2CD
100
AcDbEntity
  8
RACCORDO
100
AcDbPolyline
 62
7
  6
CONTINUOUS
 90
8
 70
0
 10
20.2141243635
 20
-33.7970381932
 10
20.1909316083
 20
-33.7840074359
 10
20.1709212594
 20
-33.7697185397
 10
20.1543639155
 20
-33.7543647416
 10
20.1414834791
 20
-33.7381536796
 10
20.1324541257
 20
-33.7213045823
 10
20.1273979516
 20
-33.7040453039
 10
20.1262565252
 20
-33.6911103548
  0
LWPOLYLINE
  5
2CE
100
AcDbEntity
  8
0
100
AcDbPolyline
 62
7
  6
CONTINUOUS
 90
16
 70
0
 10
-2.0251765422
 20
-23.7600929949
 10
-2.0046979635
 20
-23.7746652019
 10
-1.9852859192
 20
-23.7905362346
 10
-1.9669404093
 20
-23.8077060931
 10
-1.9495474622
 20
-23.8263519958
 10
-1.9332210494
 20
-23.8462967243
 10
-1.9183030866
 20
-23.8670086227
 10
-1.9049176062
 20
-23.8883377258
 10
-1.8929405758
 20
-23.9104339988
 10
-1.8823418126
 20
-23.9332156814
 10
-1.873019867
 20
-23.956995524
 10
-1.8650761888
 20
-23.9814607762
 10
-1.8587849442
 20
-24.0055914268
 10
-1.8542375221
 20
-24.029047472
 10
-1.8513425336
 20
-24.0521689155
 10
-1.8500999787
 20
-24.0749557573
  0
LINE
  5
2CF
100
AcDbEntity
  8
ASSI
100
AcDbLine
 62
7
  6
CONTINUOUS
 10
-12.894041047
 20
-13.7730391369
 11
-12.7879750298
 21
-13.8499099389
  0
LINE
  5
2D0
100
AcDbEntity
  8
ASSI
100
AcDbLine
 62
7
  6
CONTINUOUS
 10
-12.5404876564
 20
-13.5962624416
 11
-12.4344216392
 21
-13.6731332436
  0
LINE
  5
2D1
100
AcDbEntity
  8
ASSI
100
AcDbLine
 62
7
  6
CONTINUOUS
 10
-12.1869342658
 20
-13.4194857463
 11
-12.0808682486
 21
-13.4963565483
  0
LINE
  5
2D2
100
AcDbEntity
  8
ASSI
100
AcDbLine
 62
7
  6
CONTINUOUS
 10
-11.8333808752
 20
-13.242709051
 11
-11.7273148581
 21
-13.319579853
  0
LINE
  5
2D3
100
AcDbEntity
  8
ASSI
100
AcDbLine
 62
7
  6
CONTINUOUS
 10
-11.4798274846
 20
-13.0659323557
 11
-11.3737614675
 21
-13.1428031577
  0
LWPOLYLINE
  5
2D4
100
AcDbEntity
  8
0
100
AcDbPolyline
 62
7
  6
CONTINUOUS
 90
13
 70
0
 10
-1.6600994412
 20
-23.5425075663
 10
-1.7097874838
 20
-23.4990744292
 10
-1.7621736429
 20
-23.4576243831
 10
-1.8172579185
 20
-23.418157428
 10
-1.8751438511
 20
-23.3807889959
 10
-1.9357279001
 20
-23.3454036549
 10
-1.9986994447
 20
-23.3116551088
 10
-2.0639946136
 20
-23.2794990195
 10
-2.131677278
 20
-23.2489797253
 10
-2.2016284303
 20
-23.2198839442
 10
-2.2738084013
 20
-23.1921405823
 10
-2.3482568603
 20
-23.1658207337
 10
-2.4249738071
 20
-23.1409243982
  0
LWPOLYLINE
  5
2D5
100
AcDbEntity
  8
0
100
AcDbPolyline
 62
7
  6
CONTINUOUS
 90
13
 70
0
 10
-1.8015207974
 20
-23.6132182444
 10
-1.8510597109
 20
-23.5698844669
 10
-1.9033594037
 20
-23.5284924839
 10
-1.958419876
 20
-23.4890422954
 10
-2.0163765744
 20
-23.4516281586
 10
-2.0770940522
 20
-23.4161558163
 10
-2.1401659696
 20
-23.3823424967
 10
-2.2054877271
 20
-23.3501717736
 10
-2.2731639242
 20
-23.3196600732
 10
-2.3431020205
 20
-23.2905739026
 10
-2.415271169
 20
-23.2628354308
 10
-2.4897022166
 20
-23.2365224887
 10
-2.5663951634
 20
-23.2116350764
  0
LINE
  5
2D6
100
AcDbEntity
  8
0
100
AcDbLine
 62
7
  6
CONTINUOUS
 10
-1.7536694225
 20
-24.5752061636
 11
-1.7695652049
 21
-24.5584445163
  0
LWPOLYLINE
  5
2D7
100
AcDbEntity
  8
RACCORDO
100
AcDbPolyline
 62
7
  6
CONTINUOUS
 90
15
 70
0
 10
-28.2231747301
 20
30.3887216309
 10
-28.2296018214
 20
30.4128148856
 10
-28.2337862214
 20
30.4355602247
 10
-28.235827924
 20
30.4568146953
 10
-28.2358828148
 20
30.4764522907
 10
-28.2340096494
 20
30.4943661508
 10
-28.2301678861
 20
30.5104668859
 10
-28.2244478932
 20
30.5246712512
 10
-28.2169870682
 20
30.5369337818
 10
-28.2078117707
 20
30.5472335287
 10
-28.1970302134
 20
30.5555268816
 10
-28.1847537947
 20
30.5618021893
 10
-28.1710045488
 20
30.5660679939
 10
-28.1558840483
 20
30.5683020045
 10
-28.142372056
 20
30.5686063279
  0
LINE
  5
2D8
100
AcDbEntity
  8
DRAFT
100
AcDbLine
 62
7
  6
CONTINUOUS
 10
-25.8450621738
 20
5.218585811
 11
-26.358871061
 21
4.9332645208
  0
LINE
  5
2D9
100
AcDbEntity
  8
RACCORDO
100
AcDbLine
 62
7
  6
CONTINUOUS
 10
-25.4185795343
 20
5.5458033619
 11
-25.5267286942
 21
5.487454409
  0
LINE
  5
2DA
100
AcDbEntity
  8
RACCORDO
100
AcDbLine
 62
7
  6
CONTINUOUS
 10
-25.3756776857
 20
5.4119289047
 11
-26.3109618744
 21
4.940680695
  0
LINE
  5
2DB
100
AcDbEntity
  8
RACCORDO
100
AcDbLine
 62
7
  6
CONTINUOUS
 10
-25.1635779601
 20
5.0461109907
 11
-26.0988621488
 21
4.574862781
  0
LINE
  5
2DC
100
AcDbEntity
  8
RACCORDO
100
AcDbLine
 62
7
  6
CONTINUOUS
 10
-25.6671925233
 20
5.993698488
 11
-25.0916330225
 21
6.2595109388
  0
LINE
  5
2DD
100
AcDbEntity
  8
RACCORDO
100
AcDbLine
 62
7
  6
CONTINUOUS
 10
-25.7483298678
 20
5.8299241091
 11
-25.172770367
 21
6.0957365599
  0
LWPOLYLINE
  5
2DE
100
AcDbEntity
  8
RACCORDO
100
AcDbPolyline
 62
7
  6
CONTINUOUS
 90
8
 70
0
 10
-5.0115416339
 20
-17.3933415687
 10
-4.9960367893
 20
-17.3890152186
 10
-4.9797638044
 20
-17.3868227013
 10
-4.9628464613
 20
-17.3867806818
 10
-4.9454134412
 20
-17.3888894755
 10
-4.9275973605
 20
-17.3931330418
 10
-4.9095337647
 20
-17.3994790968
 10
-4.8913600751
 20
-17.407879362
  0
LWPOLYLINE
  5
2DF
100
AcDbEntity
  8
ASSI
100
AcDbPolyline
 62
7
  6
CONTINUOUS
 90
3
 70
0
 10
-15.3600496126
 20
-11.1027107489
 10
-15.3467495554
 20
-11.1071562116
 10
-15.3336375053
 20
-11.1126610864
  0
LINE
  5
2E0
100
AcDbEntity
  8
ASSI
100
AcDbLine
 62
7
  6
CONTINUOUS
 10
-15.3336375053
 20
-11.1126610864
 11
-15.3253821566
 21
-11.1166131274
  0
LINE
  5
2E1
100
AcDbEntity
  8
ASSI
100
AcDbLine
 62
7
  6
CONTINUOUS
 10
19.9864242782
 20
-29.1526116277
 11
16.0973369816
 21
-27.2080679795
  0
LINE
  5
2E2
100
AcDbEntity
  8
ASSI
100
AcDbLine
 62
7
  6
CONTINUOUS
 10
-11.8333808752
 20
-13.242709051
 11
-15.7224681718
 21
-11.2981654028
  0
LINE
  5
2E3
100
AcDbEntity
  8
ASSI
100
AcDbLine
 62
7
  6
CONTINUOUS
 10
20.1262563979
 20
-29.0103956532
 11
16.309469016
 21
-27.1020019623
  0
LINE
  5
2E4
100
AcDbEntity
  8
ASSI
100
AcDbLine
 62
7
  6
CONTINUOUS
 10
-11.6212488409
 20
-13.1366430339
 11
-15.5103361374
 21
-11.1920993856
  0
LINE
  5
2E5
100
AcDbEntity
  8
ASSI
100
AcDbLine
 62
7
  6
CONTINUOUS
 10
-15.4470370385
 20
-11.1061653722
 11
-15.3927525746
 21
-11.1333076042
  0
LINE
  5
2E6
100
AcDbEntity
  8
ASSI
100
AcDbLine
 62
7
  6
CONTINUOUS
 10
-11.3737614675
 20
-13.1428031577
 11
-11.1895731929
 21
-13.234897295
  0
LINE
  5
2E7
100
AcDbEntity
  8
ASSI
100
AcDbLine
 62
7
  6
CONTINUOUS
 10
16.3727681149
 20
-27.0160679489
 11
16.4270525788
 21
-27.0432101809
  0
LINE
  5
2E8
100
AcDbEntity
  8
ASSI
100
AcDbLine
 62
7
  6
CONTINUOUS
 10
20.1262563979
 20
-28.868974297
 11
16.4508903722
 21
-27.0312912842
  0
LINE
  5
2E9
100
AcDbEntity
  8
ASSI
100
AcDbLine
 62
7
  6
CONTINUOUS
 10
-11.4798274846
 20
-13.0659323557
 11
-15.3689147812
 21
-11.1213887075
  0
LINE
  5
2EA
100
AcDbEntity
  8
ASSI
100
AcDbLine
 62
7
  6
CONTINUOUS
 10
-15.3252800824
 20
-11.1166421333
 11
-11.1324447109
 21
-13.213059819
  0
LINE
  5
2EB
100
AcDbEntity
  8
ASSI
100
AcDbLine
 62
7
  6
CONTINUOUS
 10
16.494525071
 20
-27.02654471
 11
20.1262563979
 21
-28.8424103734
  0
LINE
  5
2EC
100
AcDbEntity
  8
DRAFT
100
AcDbLine
 62
7
  6
CONTINUOUS
 10
-26.358871061
 20
-1.0197002738
 11
-25.8450621738
 21
-1.2766047174
  0
LINE
  5
2ED
100
AcDbEntity
  8
RACCORDO
100
AcDbLine
 62
7
  6
CONTINUOUS
 10
-26.3109618744
 20
-1.0277746476
 11
-26.358871061
 21
-1.0038200544
  0
LWPOLYLINE
  5
2EE
100
AcDbEntity
  8
ASSI
100
AcDbPolyline
 62
7
  6
CONTINUOUS
 90
4
 70
0
 10
-11.1322051226
 20
-13.2131796695
 10
-11.1317717612
 20
-13.2134622945
 10
-11.1311803286
 20
-13.2145590977
 10
-11.1311701401
 20
-13.2148604602
  0
LINE
  5
2EF
100
AcDbEntity
  8
ASSI
100
AcDbLine
 62
7
  6
CONTINUOUS
 10
18.9257641064
 20
-29.6829417136
 11
19.0318301236
 21
-29.7598125156
  0
LWPOLYLINE
  5
2F0
100
AcDbEntity
  8
0
100
AcDbPolyline
 62
7
  6
CONTINUOUS
 90
4
 70
0
 10
-1.5802358366
 20
-24.5469027246
 10
-1.5956155772
 20
-24.5251139177
 10
-1.6115849145
 20
-24.5053909555
 10
-1.6255407709
 20
-24.4905095512
  0
LINE
  5
2F1
100
AcDbEntity
  8
DRAFT
100
AcDbLine
 62
7
  6
CONTINUOUS
 10
-12.4344216392
 20
-15.2576131773
 11
-12.4344216392
 21
-14.8369574897
  0
LINE
  5
2F2
100
AcDbEntity
  8
RACCORDO
100
AcDbLine
 62
7
  6
CONTINUOUS
 10
-12.0311399817
 20
-15.0236857934
 11
-12.0311399817
 21
-14.5857737045
  0
LINE
  5
2F3
100
AcDbEntity
  8
ASSI
100
AcDbLine
 62
7
  6
CONTINUOUS
 10
-11.1825596631
 20
-13.2312400095
 11
-11.1825596631
 21
-13.7433661444
  0
LINE
  5
2F4
100
AcDbEntity
  8
ASSI
100
AcDbLine
 62
7
  6
CONTINUOUS
 10
-11.1311886282
 20
-13.2153335547
 11
-11.1311886282
 21
-13.726016835
  0
LINE
  5
2F5
100
AcDbEntity
  8
ASSI
100
AcDbLine
 62
7
  6
CONTINUOUS
 10
-17.3734542639
 20
-12.2404393097
 11
-17.2781030904
 21
-12.0759828621
  0
LINE
  5
2F6
100
AcDbEntity
  8
RACCORDO
100
AcDbLine
 62
7
  6
CONTINUOUS
 10
-28.2231746751
 20
-9.4030932634
 11
-26.7141997486
 21
-8.3029671112
  0
LINE
  5
2F7
100
AcDbEntity
  8
DRAFT
100
AcDbLine
 62
7
  6
CONTINUOUS
 10
-25.8450621738
 20
-1.2766047174
 11
-26.358871061
 21
-1.5619260076
  0
LINE
  5
2F8
100
AcDbEntity
  8
RACCORDO
100
AcDbLine
 62
7
  6
CONTINUOUS
 10
-25.8450621738
 20
-1.4929687242
 11
-25.3037327481
 21
-1.2202168421
  0
LINE
  5
2F9
100
AcDbEntity
  8
RACCORDO
100
AcDbLine
 62
7
  6
CONTINUOUS
 10
-25.6671925233
 20
-1.8760336544
 11
-25.0916330225
 21
-1.5860347561
  0
LINE
  5
2FA
100
AcDbEntity
  8
RACCORDO
100
AcDbLine
 62
7
  6
CONTINUOUS
 10
-26.0988621488
 20
-0.8740564593
 11
-25.1635779601
 21
-0.4421112267
  0
LINE
  5
2FB
100
AcDbEntity
  8
RACCORDO
100
AcDbLine
 62
7
  6
CONTINUOUS
 10
-26.1799994934
 20
-1.0378308382
 11
-25.2447153046
 21
-0.6058856056
  0
LWPOLYLINE
  5
2FC
100
AcDbEntity
  8
ASSI
100
AcDbPolyline
 62
7
  6
CONTINUOUS
 90
4
 70
0
 10
-15.4003026845
 20
-11.0962298776
 10
-15.3868891454
 20
-11.0970614488
 10
-15.37346206
 20
-11.0993268414
 10
-15.3600496126
 20
-11.1027107489
  0
LINE
  5
2FD
100
AcDbEntity
  8
RACCORDO
100
AcDbLine
 62
7
  6
CONTINUOUS
 10
-25.3037327481
 20
-1.2202168421
 11
-25.9141037175
 21
-0.9150313574
  0
LINE
  5
2FE
100
AcDbEntity
  8
ASSI
100
AcDbLine
 62
7
  6
CONTINUOUS
 10
19.279317497
 20
-29.5061650183
 11
19.3853835142
 21
-29.5830358203
  0
LINE
  5
2FF
100
AcDbEntity
  8
ASSI
100
AcDbLine
 62
7
  6
CONTINUOUS
 10
19.6328708876
 20
-29.329388323
 11
19.7389369047
 21
-29.406259125
  0
LINE
  5
300
100
AcDbEntity
  8
ASSI
100
AcDbLine
 62
7
  6
CONTINUOUS
 10
19.9864242782
 20
-29.1526116277
 11
20.0924902953
 21
-29.2294824297
  0
LINE
  5
301
100
AcDbEntity
  8
0
100
AcDbLine
 62
7
  6
CONTINUOUS
 10
-5.0696534903
 20
-22.5698135114
 11
-4.7060613047
 21
-23.9390560065
  0
LINE
  5
302
100
AcDbEntity
  8
0
100
AcDbLine
 62
7
  6
CONTINUOUS
 10
-4.6826348571
 20
-23.1419058333
 11
-4.9892971686
 21
-21.9789380131
  0
LINE
  5
303
100
AcDbEntity
  8
0
100
AcDbLine
 62
7
  6
CONTINUOUS
 10
-4.5899573654
 20
-22.8863418367
 11
-4.8478758123
 21
-21.908227335
  0
LINE
  5
304
100
AcDbEntity
  8
0
100
AcDbLine
 62
7
  6
CONTINUOUS
 10
-7.2459634069
 20
-20.8506048939
 11
-6.7752530293
 21
-22.9044601442
  0
LINE
  5
305
100
AcDbEntity
  8
0
100
AcDbLine
 62
7
  6
CONTINUOUS
 10
-6.6262472457
 20
-22.4121927105
 11
-6.9092773415
 21
-21.0189479267
  0
LINE
  5
306
100
AcDbEntity
  8
0
100
AcDbLine
 62
7
  6
CONTINUOUS
 10
-6.5382439076
 20
-22.0785263385
 11
-6.7678559852
 21
-20.9482372485
  0
LINE
  5
307
100
AcDbEntity
  8
0
100
AcDbLine
 62
7
  6
CONTINUOUS
 10
-3.9272022771
 20
-24.3284855203
 11
-4.0660476434
 21
-22.4405627757
  0
LINE
  5
308
100
AcDbEntity
  8
0
100
AcDbLine
 62
7
  6
CONTINUOUS
 10
-3.7987645456
 20
-24.0812325408
 11
-3.9246262871
 21
-22.3698520976
  0
LINE
  5
309
100
AcDbEntity
  8
0
100
AcDbLine
 62
7
  6
CONTINUOUS
 10
-4.2940789737
 20
-22.9625509709
 11
-4.2304018867
 21
-24.1768857155
  0
LINE
  5
30A
100
AcDbEntity
  8
RACCORDO
100
AcDbLine
 62
7
  6
CONTINUOUS
 10
-6.6583627041
 20
-17.7249869572
 11
-6.6583627041
 21
-17.3443846744
  0
LINE
  5
30B
100
AcDbEntity
  8
0
100
AcDbLine
 62
7
  6
CONTINUOUS
 10
-5.9098299895
 20
-21.5185624834
 11
-5.9098299895
 21
-23.3371716641
  0
LINE
  5
30C
100
AcDbEntity
  8
0
100
AcDbLine
 62
7
  6
CONTINUOUS
 10
-5.5998937736
 20
-23.492139772
 11
-5.5998937736
 21
-21.6735305914
  0
LINE
  5
30D
100
AcDbEntity
  8
0
100
AcDbLine
 62
7
  6
CONTINUOUS
 10
-5.4584724174
 20
-23.4214290939
 11
-5.4584724174
 21
-21.6028199133
  0
LINE
  5
30E
100
AcDbEntity
  8
ASSI
100
AcDbLine
 62
7
  6
CONTINUOUS
 10
-11.6819379119
 20
-14.1030304147
 11
-11.6763016619
 21
-14.0800863113
  0
LINE
  5
30F
100
AcDbEntity
  8
ASSI
100
AcDbLine
 62
7
  6
CONTINUOUS
 10
-17.0199008733
 20
-12.0636626144
 11
-16.9245496998
 21
-11.8992061668
  0
LINE
  5
310
100
AcDbEntity
  8
ASSI
100
AcDbLine
 62
7
  6
CONTINUOUS
 10
-16.6663474827
 20
-11.8868859191
 11
-16.5709963092
 21
-11.7224294715
  0
LINE
  5
311
100
AcDbEntity
  8
ASSI
100
AcDbLine
 62
7
  6
CONTINUOUS
 10
-16.3127940921
 20
-11.7101092238
 11
-16.2174429186
 21
-11.5456527762
  0
LINE
  5
312
100
AcDbEntity
  8
ASSI
100
AcDbLine
 62
7
  6
CONTINUOUS
 10
-15.9592407016
 20
-11.5333325285
 11
-15.863889528
 21
-11.3688760809
  0
LINE
  5
313
100
AcDbEntity
  8
ASSI
100
AcDbLine
 62
7
  6
CONTINUOUS
 10
-15.605687311
 20
-11.3565558332
 11
-15.5103361374
 21
-11.1920993856
  0
LINE
  5
314
100
AcDbEntity
  8
RACCORDO
100
AcDbLine
 62
7
  6
CONTINUOUS
 10
-28.0625930489
 20
-9.7950834465
 11
-26.544250338
 21
-8.6880672223
  0
LWPOLYLINE
  5
315
100
AcDbEntity
  8
RACCORDO
100
AcDbPolyline
 62
7
  6
CONTINUOUS
 90
10
 70
0
 10
-26.6538293811
 20
-8.2703645765
 10
-26.6601373578
 20
-8.2742139361
 10
-26.666550143
 20
-8.278009151
 10
-26.6730657652
 20
-8.2817490512
 10
-26.6796822214
 20
-8.2854324842
 10
-26.6863974776
 20
-8.2890583143
 10
-26.6932094696
 20
-8.2926254241
 10
-26.7001161031
 20
-8.2961327137
 10
-26.7071152549
 20
-8.299579102
 10
-26.7142047735
 20
-8.3029635266
  0
LWPOLYLINE
  5
316
100
AcDbEntity
  8
RACCORDO
100
AcDbPolyline
 62
7
  6
CONTINUOUS
 90
10
 70
0
 10
-26.410335455
 20
-8.6157308101
 10
-26.4233533076
 20
-8.622811976
 10
-26.4363451128
 20
-8.6304670504
 10
-26.4492932349
 20
-8.6386856418
 10
-26.4621800973
 20
-8.6474565938
 10
-26.4749882065
 20
-8.6567680001
 10
-26.487700176
 20
-8.6666072208
 10
-26.5002987497
 20
-8.6769608996
 10
-26.5127668257
 20
-8.6878149818
 10
-26.5250874789
 20
-8.6991547333
  0
LWPOLYLINE
  5
317
100
AcDbEntity
  8
RACCORDO
100
AcDbPolyline
 62
7
  6
CONTINUOUS
 90
12
 70
0
 10
-24.5260562414
 20
-7.9862820013
 10
-24.5024458099
 20
-7.9738083362
 10
-24.4806792626
 20
-7.9613487426
 10
-24.4608848125
 20
-7.9489658878
 10
-24.4431929578
 20
-7.9367442833
 10
-24.427701331
 20
-7.9247404314
 10
-24.4144883968
 20
-7.9129790524
 10
-24.4036576967
 20
-7.9015510902
 10
-24.3953043477
 20
-7.8905283733
 10
-24.3895035406
 20
-7.8799096306
 10
-24.3863373143
 20
-7.8697958211
 10
-24.3857262215
 20
-7.8634359585
  0
LINE
  5
318
100
AcDbEntity
  8
RACCORDO
100
AcDbLine
 62
7
  6
CONTINUOUS
 10
-26.6543166451
 20
-8.2659765517
 11
-26.358871061
 21
-8.117114629
  0
LINE
  5
319
100
AcDbEntity
  8
RACCORDO
100
AcDbLine
 62
7
  6
CONTINUOUS
 10
-25.6671925233
 20
-8.0857580312
 11
-25.0916330225
 21
-7.7957591329
  0
LINE
  5
31A
100
AcDbEntity
  8
SMUSSO
100
AcDbLine
 62
7
  6
CONTINUOUS
 10
31.1587114209
 20
24.2138180946
 11
34.3053365972
 21
25.7871306827
  0
LINE
  5
31B
100
AcDbEntity
  8
SMUSSO
100
AcDbLine
 62
7
  6
CONTINUOUS
 10
31.8658182021
 20
22.9942393002
 11
35.0124433784
 21
24.5675518884
  0
LINE
  5
31C
100
AcDbEntity
  8
RACCORDO
100
AcDbLine
 62
7
  6
CONTINUOUS
 10
-26.3109618744
 20
4.940680695
 11
-26.3291443658
 21
4.9497719407
  0
LINE
  5
31D
100
AcDbEntity
  8
RACCORDO
100
AcDbLine
 62
7
  6
CONTINUOUS
 10
-25.3756776857
 20
5.4119289047
 11
-25.8450621738
 21
5.6466211488
  0
LWPOLYLINE
  5
31E
100
AcDbEntity
  8
0
100
AcDbPolyline
 62
7
  6
CONTINUOUS
 90
6
 70
0
 10
-1.9186096515
 20
-24.7813532617
 10
-1.902848981
 20
-24.8457490056
 10
-1.8874322505
 20
-24.9112352508
 10
-1.87235946
 20
-24.9778119974
 10
-1.8578551706
 20
-25.0454654364
 10
-1.8292047288
 20
-25.1840852453
  0
LINE
  5
31F
100
AcDbEntity
  8
0
100
AcDbLine
 62
7
  6
CONTINUOUS
 10
-2.6574074966
 20
-24.9633829105
 11
-3.1129808394
 21
-22.9170961777
  0
LINE
  5
320
100
AcDbEntity
  8
0
100
AcDbLine
 62
7
  6
CONTINUOUS
 10
-2.5663951634
 20
-24.6662513573
 11
-2.9715594832
 21
-22.8463854996
  0
LINE
  5
321
100
AcDbEntity
  8
0
100
AcDbLine
 62
7
  6
CONTINUOUS
 10
-1.8292047288
 20
-25.1840852453
 11
-1.7830823092
 21
-25.4005458487
  0
LINE
  5
322
100
AcDbEntity
  8
0
100
AcDbLine
 62
7
  6
CONTINUOUS
 10
-3.0643566416
 20
-24.3968713548
 11
-2.9840667879
 21
-24.8000532649
  0
LINE
  5
323
100
AcDbEntity
  8
0
100
AcDbLine
 62
7
  6
CONTINUOUS
 10
-1.5545338713
 20
-25.1896397528
 11
-1.5909145141
 21
-25.0044388355
  0
LINE
  5
324
100
AcDbEntity
  8
0
100
AcDbLine
 62
7
  6
CONTINUOUS
 10
-1.4131392538
 20
-25.1187909263
 11
-1.4494931579
 21
-24.9337281573
  0
LINE
  5
325
100
AcDbEntity
  8
0
100
AcDbLine
 62
7
  6
CONTINUOUS
 10
-1.4849600128
 20
-25.5496069968
 11
-1.5545338713
 21
-25.1896397528
  0
LINE
  5
326
100
AcDbEntity
  8
0
100
AcDbLine
 62
7
  6
CONTINUOUS
 10
-1.3435386566
 20
-25.4788963187
 11
-1.4131392538
 21
-25.1187909263
  0
LINE
  5
327
100
AcDbEntity
  8
0
100
AcDbLine
 62
7
  6
CONTINUOUS
 10
-3.2687168653
 20
-23.3389057701
 11
-3.1262970743
 21
-24.0849841481
  0
LWPOLYLINE
  5
328
100
AcDbEntity
  8
0
100
AcDbPolyline
 62
7
  6
CONTINUOUS
 90
13
 70
0
 10
-1.4494931579
 20
-24.9337281573
 10
-1.4567099127
 20
-24.8953603534
 10
-1.4645306014
 20
-24.8579091032
 10
-1.4729552241
 20
-24.8213744068
 10
-1.4819301279
 20
-24.7856358804
 10
-1.4915089656
 20
-24.7508139077
 10
-1.5018526954
 20
-24.7172696397
 10
-1.5130173363
 20
-24.684999586
 10
-1.5249468692
 20
-24.654007237
 10
-1.5376341955
 20
-24.6246642142
 10
-1.5511330147
 20
-24.5969555519
 10
-1.5653896273
 20
-24.5708962159
 10
-1.5802358366
 20
-24.5469027246
  0
LWPOLYLINE
  5
329
100
AcDbEntity
  8
0
100
AcDbPolyline
 62
7
  6
CONTINUOUS
 90
15
 70
0
 10
-1.5909145141
 20
-25.0044388355
 10
-1.5978403764
 20
-24.9672962539
 10
-1.6054953107
 20
-24.9305532747
 10
-1.613879317
 20
-24.8942098977
 10
-1.62295862
 20
-24.8579734713
 10
-1.6327669951
 20
-24.8221366471
 10
-1.6434057677
 20
-24.7875773806
 10
-1.6549738422
 20
-24.7543435549
 10
-1.6673723143
 20
-24.7223872869
 10
-1.6804057963
 20
-24.6924428823
 10
-1.6940827117
 20
-24.6646828757
 10
-1.7083946371
 20
-24.6389347325
 10
-1.7231209148
 20
-24.6154151547
 10
-1.7381879925
 20
-24.5941963764
 10
-1.7536694225
 20
-24.5752061636
  0
LINE
  5
32A
100
AcDbEntity
  8
RACCORDO
100
AcDbLine
 62
7
  6
CONTINUOUS
 10
-3.2066781448
 20
-19.4508292369
 11
-3.2066781448
 21
-18.9980837689
  0
LINE
  5
32B
100
AcDbEntity
  8
RACCORDO
100
AcDbLine
 62
7
  6
CONTINUOUS
 10
-3.1409696909
 20
-18.5428426053
 11
-3.1409696909
 21
-19.4836834639
  0
LINE
  5
32C
100
AcDbEntity
  8
RACCORDO
100
AcDbLine
 62
7
  6
CONTINUOUS
 10
-3.056771631
 20
-18.4386438497
 11
-3.056771631
 21
-19.5257824938
  0
LINE
  5
32D
100
AcDbEntity
  8
0
100
AcDbLine
 62
7
  6
CONTINUOUS
 10
-2.5663951634
 20
-23.2116350764
 11
-2.5663951634
 21
-25.0088894216
  0
LINE
  5
32E
100
AcDbEntity
  8
0
100
AcDbLine
 62
7
  6
CONTINUOUS
 10
-2.2679833738
 20
-24.1486082538
 11
-2.2679833738
 21
-23.6493944211
  0
LINE
  5
32F
100
AcDbEntity
  8
0
100
AcDbLine
 62
7
  6
CONTINUOUS
 10
-2.2577063662
 20
-25.1632338202
 11
-2.2577063662
 21
-24.4515731918
  0
LINE
  5
330
100
AcDbEntity
  8
0
100
AcDbLine
 62
7
  6
CONTINUOUS
 10
-2.1265620176
 20
-24.0778975756
 11
-2.1265620176
 21
-23.7031198942
  0
LINE
  5
331
100
AcDbEntity
  8
0
100
AcDbLine
 62
7
  6
CONTINUOUS
 10
-2.11628501
 20
-25.092523142
 11
-2.11628501
 21
-24.5222838699
  0
LINE
  5
332
100
AcDbEntity
  8
0
100
AcDbLine
 62
7
  6
CONTINUOUS
 10
-1.7695652049
 20
-24.5584445163
 11
-1.7695652049
 21
-24.547698764
  0
LWPOLYLINE
  5
333
100
AcDbEntity
  8
0
100
AcDbPolyline
 62
7
  6
CONTINUOUS
 90
11
 70
0
 10
-1.8500999787
 20
-24.0749557573
 10
-1.8512024839
 20
-24.1045667829
 10
-1.853994165
 20
-24.1318935249
 10
-1.8584750218
 20
-24.1569359831
 10
-1.8648362345
 20
-24.1798438297
 10
-1.872886623
 20
-24.2004673926
 10
-1.8820526471
 20
-24.2183576557
 10
-1.8920885631
 20
-24.2332752945
 10
-1.9032401146
 20
-24.2454596335
 10
-1.9156709923
 20
-24.2551796304
 10
-1.9243499753
 20
-24.2601827216
  0
LINE
  5
334
100
AcDbEntity
  8
0
100
AcDbLine
 62
7
  6
CONTINUOUS
 10
-5.1365380136
 20
-23.723817652
 11
-5.0696534903
 21
-22.5698135114
  0
LINE
  5
335
100
AcDbEntity
  8
0
100
AcDbLine
 62
7
  6
CONTINUOUS
 10
-4.9951166574
 20
-23.6531069739
 11
-4.9569333015
 21
-22.9943035822
  0
LINE
  5
336
100
AcDbEntity
  8
0
100
AcDbLine
 62
7
  6
CONTINUOUS
 10
-5.2989767047
 20
-21.824098245
 11
-5.4330455646
 21
-23.5755638765
  0
LWPOLYLINE
  5
337
100
AcDbEntity
  8
RACCORDO
100
AcDbPolyline
 62
7
  6
CONTINUOUS
 90
10
 70
0
 10
-3.056771631
 20
-18.4386432464
 10
-3.0577336691
 20
-18.4506469464
 10
-3.0609329468
 20
-18.4635410029
 10
-3.0663425715
 20
-18.4762302882
 10
-3.073912889
 20
-18.4886211748
 10
-3.0835781354
 20
-18.5006223016
 10
-3.0952323856
 20
-18.5121238182
 10
-3.1087596186
 20
-18.5230388165
 10
-3.1240485127
 20
-18.5333010605
 10
-3.1409696909
 20
-18.5428426053
  0
LINE
  5
338
100
AcDbEntity
  8
0
100
AcDbLine
 62
7
  6
CONTINUOUS
 10
-6.3345720624
 20
-21.3063005662
 11
-6.6262472457
 21
-22.4121927105
  0
LINE
  5
339
100
AcDbEntity
  8
0
100
AcDbLine
 62
7
  6
CONTINUOUS
 10
-6.5021217213
 20
-23.0410257982
 11
-6.0248472714
 21
-21.4611629617
  0
LINE
  5
33A
100
AcDbEntity
  8
ASSI
100
AcDbLine
 62
7
  6
CONTINUOUS
 10
-12.7879750298
 20
-13.8499099389
 11
-12.6819090127
 21
-13.6669731198
  0
LINE
  5
33B
100
AcDbEntity
  8
ASSI
100
AcDbLine
 62
7
  6
CONTINUOUS
 10
-12.4344216392
 20
-13.6731332436
 11
-12.3283556221
 21
-13.4901964245
  0
LINE
  5
33C
100
AcDbEntity
  8
ASSI
100
AcDbLine
 62
7
  6
CONTINUOUS
 10
-12.0808682486
 20
-13.4963565483
 11
-11.9748022315
 21
-13.3134197292
  0
LINE
  5
33D
100
AcDbEntity
  8
ASSI
100
AcDbLine
 62
7
  6
CONTINUOUS
 10
-11.7273148581
 20
-13.319579853
 11
-11.6212488409
 21
-13.1366430339
  0
LINE
  5
33E
100
AcDbEntity
  8
ASSI
100
AcDbLine
 62
7
  6
CONTINUOUS
 10
-11.9306258473
 20
-14.4156572456
 11
-11.6819379119
 21
-14.1030304147
  0
LINE
  5
33F
100
AcDbEntity
  8
RACCORDO
100
AcDbLine
 62
7
  6
CONTINUOUS
 10
-26.410335455
 20
-8.6157308101
 11
-26.1467713353
 21
-8.482932543
  0
LINE
  5
340
100
AcDbEntity
  8
RACCORDO
100
AcDbLine
 62
7
  6
CONTINUOUS
 10
-24.7381559671
 20
-7.6204640873
 11
-25.0916007137
 21
-7.7957752873
  0
LINE
  5
341
100
AcDbEntity
  8
RACCORDO
100
AcDbLine
 62
7
  6
CONTINUOUS
 10
-24.5260562414
 20
-7.9862820013
 11
-24.6186916222
 21
-8.0322298331
  0
LINE
  5
342
100
AcDbEntity
  8
RACCORDO
100
AcDbLine
 62
7
  6
CONTINUOUS
 10
-26.3566694429
 20
-8.1216301183
 11
-25.8450621738
 21
-7.8721856586
  0
LINE
  5
343
100
AcDbEntity
  8
RACCORDO
100
AcDbLine
 62
7
  6
CONTINUOUS
 10
-26.1447949186
 20
-8.4869861475
 11
-25.633220859
 21
-8.2375578798
  0
LWPOLYLINE
  5
344
100
AcDbEntity
  8
RACCORDO
100
AcDbPolyline
 62
7
  6
CONTINUOUS
 90
10
 70
0
 10
-26.6543166451
 20
-8.2659765517
 10
-26.6606466492
 20
-8.2689800082
 10
-26.6670805251
 20
-8.271927775
 10
-26.6736163131
 20
-8.2748189543
 10
-26.6802520223
 20
-8.2776526653
 10
-26.6869856314
 20
-8.2804280448
 10
-26.6938150894
 20
-8.2831442476
 10
-26.7007383161
 20
-8.2858004461
 10
-26.7077532026
 20
-8.2883958313
 10
-26.7148576122
 20
-8.2909296126
  0
LWPOLYLINE
  5
345
100
AcDbEntity
  8
RACCORDO
100
AcDbPolyline
 62
7
  6
CONTINUOUS
 90
10
 70
0
 10
-26.4170599312
 20
-8.6113646085
 10
-26.4314119275
 20
-8.6177102372
 10
-26.4457528655
 20
-8.624625859
 10
-26.4600631345
 20
-8.6321020151
 10
-26.4743231654
 20
-8.6401284803
 10
-26.488513458
 20
-8.6486942768
 10
-26.5026146073
 20
-8.657787689
 10
-26.5166073299
 20
-8.6673962803
 10
-26.5304724908
 20
-8.6775069092
 10
-26.5441911292
 20
-8.6881057481
  0
LINE
  5
346
100
AcDbEntity
  8
DRAFT
100
AcDbLine
 62
7
  6
CONTINUOUS
 10
3.4754809375
 20
-23.2125644657
 11
3.4754809375
 21
-22.791908778
  0
LINE
  5
347
100
AcDbEntity
  8
RACCORDO
100
AcDbLine
 62
7
  6
CONTINUOUS
 10
3.878762595
 20
-22.9786370817
 11
3.878762595
 21
-22.5407249929
  0
LINE
  5
348
100
AcDbEntity
  8
0
100
AcDbLine
 62
7
  6
CONTINUOUS
 10
-3.4230386777
 20
-23.9366133464
 11
-3.2687168653
 21
-23.3389057701
  0
LINE
  5
349
100
AcDbEntity
  8
0
100
AcDbLine
 62
7
  6
CONTINUOUS
 10
-3.2816173214
 20
-23.8659026683
 11
-3.2163631594
 21
-23.6131651813
  0
LINE
  5
34A
100
AcDbEntity
  8
0
100
AcDbLine
 62
7
  6
CONTINUOUS
 10
-3.5719610226
 20
-24.5061061475
 11
-3.4864378717
 21
-24.1858307398
  0
LINE
  5
34B
100
AcDbEntity
  8
0
100
AcDbLine
 62
7
  6
CONTINUOUS
 10
-3.4305396664
 20
-24.4353954694
 11
-3.3783321294
 21
-24.2398836109
  0
LINE
  5
34C
100
AcDbEntity
  8
0
100
AcDbLine
 62
7
  6
CONTINUOUS
 10
-3.4128061354
 20
-22.7671835297
 11
-3.8785342387
 21
-24.3528195395
  0
LINE
  5
34D
100
AcDbEntity
  8
0
100
AcDbLine
 62
7
  6
CONTINUOUS
 10
-6.3607003651
 20
-22.9703151201
 11
-5.8834259152
 21
-21.3904522835
  0
LINE
  5
34E
100
AcDbEntity
  8
0
100
AcDbLine
 62
7
  6
CONTINUOUS
 10
-4.3726986411
 20
-22.2872372768
 11
-4.6826348571
 21
-23.1419058333
  0
LINE
  5
34F
100
AcDbEntity
  8
0
100
AcDbLine
 62
7
  6
CONTINUOUS
 10
-4.6625933296
 20
-23.9607899941
 11
-4.2940789737
 21
-22.9625509709
  0
LINE
  5
350
100
AcDbEntity
  8
0
100
AcDbLine
 62
7
  6
CONTINUOUS
 10
-4.5211719733
 20
-23.8900793159
 11
-4.2797360732
 21
-23.2360729434
  0
LINE
  5
351
100
AcDbEntity
  8
ASSI
100
AcDbLine
 62
7
  6
CONTINUOUS
 10
-11.4444721456
 20
-13.9619556768
 11
-11.189767272
 21
-13.7773596259
  0
LWPOLYLINE
  5
352
100
AcDbEntity
  8
RACCORDO
100
AcDbPolyline
 62
7
  6
CONTINUOUS
 90
16
 70
0
 10
21.7922053607
 20
8.2591234529
 10
21.7703000685
 20
8.2463104597
 10
21.7486691461
 20
8.2308713189
 10
21.7275443564
 20
8.212971452
 10
21.7071520393
 20
8.1928026458
 10
21.6877106867
 20
8.1705809973
 10
21.6694286015
 20
8.1465445989
 10
21.6525016544
 20
8.1209509683
 10
21.6371112213
 20
8.0940743432
 10
21.6234222286
 20
8.0662027501
 10
21.6115813317
 20
8.0376348144
 10
21.60171539
 20
8.0086766332
 10
21.5939301167
 20
7.9796385571
 10
21.5883088977
 20
7.9508317317
 10
21.5849119187
 20
7.9225647627
 10
21.5837755418
 20
7.8951404913
  0
LINE
  5
353
100
AcDbEntity
  8
RACCORDO
100
AcDbLine
 62
7
  6
CONTINUOUS
 10
-20.0711748761
 20
-10.8837668548
 11
-19.5054894511
 21
-10.5888309186
  0
LINE
  5
354
100
AcDbEntity
  8
RACCORDO
100
AcDbLine
 62
7
  6
CONTINUOUS
 10
-19.736626674
 20
-11.1858549723
 11
-19.2933574168
 21
-10.9547441329
  0
LINE
  5
355
100
AcDbEntity
  8
RACCORDO
100
AcDbLine
 62
7
  6
CONTINUOUS
 10
21.7922053617
 20
8.2591234525
 11
23.4866782321
 21
9.1128931582
  0
LINE
  5
356
100
AcDbEntity
  8
RACCORDO
100
AcDbLine
 62
7
  6
CONTINUOUS
 10
22.2871047215
 20
7.4055483198
 11
23.9815775919
 21
8.2593180255
  0
LINE
  5
357
100
AcDbEntity
  8
ASSI
100
AcDbLine
 62
7
  6
CONTINUOUS
 10
-17.6172369924
 20
-12.2455498131
 11
-17.4902351247
 21
-12.1820488793
  0
LINE
  5
358
100
AcDbEntity
  8
ASSI
100
AcDbLine
 62
7
  6
CONTINUOUS
 10
-17.2781030904
 20
-12.0759828621
 11
-17.1366817341
 21
-12.005272184
  0
LINE
  5
359
100
AcDbEntity
  8
ASSI
100
AcDbLine
 62
7
  6
CONTINUOUS
 10
-16.9245496998
 20
-11.8992061668
 11
-16.7831283435
 21
-11.8284954887
  0
LINE
  5
35A
100
AcDbEntity
  8
ASSI
100
AcDbLine
 62
7
  6
CONTINUOUS
 10
-16.5709963092
 20
-11.7224294715
 11
-16.4295749529
 21
-11.6517187934
  0
LINE
  5
35B
100
AcDbEntity
  8
ASSI
100
AcDbLine
 62
7
  6
CONTINUOUS
 10
-16.2174429186
 20
-11.5456527762
 11
-16.0760215624
 21
-11.4749420981
  0
LINE
  5
35C
100
AcDbEntity
  8
ASSI
100
AcDbLine
 62
7
  6
CONTINUOUS
 10
-15.863889528
 20
-11.3688760809
 11
-15.7224681718
 21
-11.2981654028
  0
LINE
  5
35D
100
AcDbEntity
  8
ASSI
100
AcDbLine
 62
7
  6
CONTINUOUS
 10
-15.5103361374
 20
-11.1920993856
 11
-15.3689147812
 21
-11.1213887075
  0
LINE
  5
35E
100
AcDbEntity
  8
0
100
AcDbLine
 62
7
  6
CONTINUOUS
 10
-15.4470370385
 20
-11.1061653722
 11
-17.7881017447
 21
-12.1601174369
  0
LWPOLYLINE
  5
35F
100
AcDbEntity
  8
RACCORDO
100
AcDbPolyline
 62
7
  6
CONTINUOUS
 90
16
 70
0
 10
22.2871047215
 20
7.4055483181
 10
22.2636804709
 20
7.3953551595
 10
22.2382743399
 20
7.3864273105
 10
22.2111585403
 20
7.378860428
 10
22.1826236021
 20
7.3727355866
 10
22.1529752604
 20
7.3681184105
 10
22.12253118
 20
7.3650583698
 10
22.0916175314
 20
7.3635882507
 10
22.0605655561
 20
7.3637238071
 10
22.0297080174
 20
7.3654635818
 10
21.9993755251
 20
7.3687889258
 10
21.9698930762
 20
7.3736642012
 10
21.9415766238
 20
7.3800371446
 10
21.9147295614
 20
7.387839447
 10
21.8896394825
 20
7.3969874998
 10
21.866575176
 20
7.4073832727
  0
LINE
  5
360
100
AcDbEntity
  8
DRAFT
100
AcDbLine
 62
7
  6
CONTINUOUS
 10
-26.358871061
 20
18.0328586094
 11
-25.8450621738
 21
17.7759541658
  0
LINE
  5
361
100
AcDbEntity
  8
RACCORDO
100
AcDbLine
 62
7
  6
CONTINUOUS
 10
-26.3109618744
 20
18.0247842356
 11
-26.358871061
 21
18.0487388289
  0
LINE
  5
362
100
AcDbEntity
  8
RACCORDO
100
AcDbLine
 62
7
  6
CONTINUOUS
 10
-25.3037327481
 20
17.8323420411
 11
-25.9141037175
 21
18.1375275258
  0
LINE
  5
363
100
AcDbEntity
  8
RACCORDO
100
AcDbLine
 62
7
  6
CONTINUOUS
 10
9.2515398726
 20
-25.6799382456
 11
9.2515398726
 21
-25.2993359627
  0
LINE
  5
364
100
AcDbEntity
  8
SMUSSO
100
AcDbLine
 62
7
  6
CONTINUOUS
 10
31.1587114209
 20
24.2138180946
 11
30.1587114209
 21
23.1406859096
  0
LINE
  5
365
100
AcDbEntity
  8
0
100
AcDbLine
 62
7
  6
CONTINUOUS
 10
-11.1895731929
 20
-13.234897295
 11
-12.6222300564
 21
-14.030460616
  0
LINE
  5
366
100
AcDbEntity
  8
RACCORDO
100
AcDbLine
 62
7
  6
CONTINUOUS
 10
-11.4888706914
 20
-14.7311190707
 11
-12.3920641337
 21
-15.2184126536
  0
LINE
  5
367
100
AcDbEntity
  8
RACCORDO
100
AcDbLine
 62
7
  6
CONTINUOUS
 10
-11.3515771056
 20
-14.7380094224
 11
-12.2547705479
 21
-15.2253030054
  0
LINE
  5
368
100
AcDbEntity
  8
RACCORDO
100
AcDbLine
 62
7
  6
CONTINUOUS
 10
-14.620904632
 20
-13.0914215633
 11
-15.186590057
 21
-13.3863574995
  0
LINE
  5
369
100
AcDbEntity
  8
RACCORDO
100
AcDbLine
 62
7
  6
CONTINUOUS
 10
-14.4850313047
 20
-13.0990599918
 11
-15.0507167296
 21
-13.393995928
  0
LINE
  5
36A
100
AcDbEntity
  8
0
100
AcDbLine
 62
7
  6
CONTINUOUS
 10
-11.4444721456
 20
-13.9619556768
 11
-12.1331931269
 21
-14.3128991105
  0
LINE
  5
36B
100
AcDbEntity
  8
RACCORDO
100
AcDbLine
 62
7
  6
CONTINUOUS
 10
-12.818799208
 20
-14.5099546888
 11
-12.2432397073
 21
-14.2199557905
  0
LINE
  5
36C
100
AcDbEntity
  8
RACCORDO
100
AcDbLine
 62
7
  6
CONTINUOUS
 10
-12.4822253746
 20
-14.813055622
 11
-12.0311399817
 21
-14.5857737045
  0
LINE
  5
36D
100
AcDbEntity
  8
0
100
AcDbLine
 62
7
  6
CONTINUOUS
 10
-11.9306258473
 20
-14.4156572456
 11
-12.0484836446
 21
-14.4748504862
  0
LINE
  5
36E
100
AcDbEntity
  8
ASSI
100
AcDbLine
 62
7
  6
CONTINUOUS
 10
-13.0155570307
 20
-13.8337971288
 11
-12.894041047
 21
-13.7730391369
  0
LINE
  5
36F
100
AcDbEntity
  8
ASSI
100
AcDbLine
 62
7
  6
CONTINUOUS
 10
-12.6819090127
 20
-13.6669731198
 11
-12.5404876564
 21
-13.5962624416
  0
LINE
  5
370
100
AcDbEntity
  8
ASSI
100
AcDbLine
 62
7
  6
CONTINUOUS
 10
-12.3283556221
 20
-13.4901964245
 11
-12.1869342658
 21
-13.4194857463
  0
LINE
  5
371
100
AcDbEntity
  8
ASSI
100
AcDbLine
 62
7
  6
CONTINUOUS
 10
-11.9748022315
 20
-13.3134197292
 11
-11.8333808752
 21
-13.242709051
  0
LINE
  5
372
100
AcDbEntity
  8
ASSI
100
AcDbLine
 62
7
  6
CONTINUOUS
 10
-11.6212488409
 20
-13.1366430339
 11
-11.4798274846
 21
-13.0659323557
  0
LINE
  5
373
100
AcDbEntity
  8
ASSI
100
AcDbLine
 62
7
  6
CONTINUOUS
 10
-11.3737614675
 20
-13.1428031577
 11
-12.8856532202
 21
-13.8987490341
  0
LINE
  5
374
100
AcDbEntity
  8
0
100
AcDbLine
 62
7
  6
CONTINUOUS
 10
-11.1825596631
 20
-13.7433661444
 11
-12.1976406463
 21
-14.2490838429
  0
LWPOLYLINE
  5
375
100
AcDbEntity
  8
ASSI
100
AcDbPolyline
 62
7
  6
CONTINUOUS
 90
10
 70
0
 10
-11.1825596631
 20
-13.2312400095
 10
-11.1722562305
 20
-13.2261808197
 10
-11.1630932693
 20
-13.222067397
 10
-11.1551273309
 20
-13.2188175544
 10
-11.1484945051
 20
-13.2163060461
 10
-11.1431338182
 20
-13.2144718006
 10
-11.1387937723
 20
-13.2133386691
 10
-11.1354717175
 20
-13.2128361497
 10
-11.1331978854
 20
-13.2128699828
 10
-11.1322051226
 20
-13.2131796695
  0
LINE
  5
376
100
AcDbEntity
  8
DRAFT
100
AcDbLine
 62
7
  6
CONTINUOUS
 10
-12.4344216392
 20
-14.8369574897
 11
-12.9710132981
 21
-15.0708115616
  0
LWPOLYLINE
  5
377
100
AcDbEntity
  8
ASSI
100
AcDbPolyline
 62
7
  6
CONTINUOUS
 90
4
 70
0
 10
-15.4392477245
 20
-11.1028959788
 10
-15.4266353297
 20
-11.0991750714
 10
-15.413604735
 20
-11.0969586445
 10
-15.4003026845
 20
-11.0962298776
  0
LINE
  5
378
100
AcDbEntity
  8
RACCORDO
100
AcDbLine
 62
7
  6
CONTINUOUS
 10
-26.3109618744
 20
23.9932395783
 11
-26.3291443658
 21
24.0023308239
  0
LINE
  5
379
100
AcDbEntity
  8
RACCORDO
100
AcDbLine
 62
7
  6
CONTINUOUS
 10
12.5264477366
 20
-26.8646467096
 11
12.5264477366
 21
-27.3173921776
  0
LINE
  5
37A
100
AcDbEntity
  8
RACCORDO
100
AcDbLine
 62
7
  6
CONTINUOUS
 10
-6.5304834067
 20
-17.7158690306
 11
-5.9746720575
 21
-17.4159960564
  0
LINE
  5
37B
100
AcDbEntity
  8
RACCORDO
100
AcDbLine
 62
7
  6
CONTINUOUS
 10
-6.393189821
 20
-17.7227593824
 11
-5.8373784718
 21
-17.4228864083
  0
LINE
  5
37C
100
AcDbEntity
  8
RACCORDO
100
AcDbLine
 62
7
  6
CONTINUOUS
 10
-7.8057466185
 20
-17.4498149701
 11
-6.8704624297
 21
-16.9785667604
  0
LINE
  5
37D
100
AcDbEntity
  8
RACCORDO
100
AcDbLine
 62
7
  6
CONTINUOUS
 10
-7.0375031594
 20
-17.5354167296
 11
-6.6583627041
 21
-17.3443846744
  0
LINE
  5
37E
100
AcDbEntity
  8
RACCORDO
100
AcDbLine
 62
7
  6
CONTINUOUS
 10
-5.0208459026
 20
-17.3971412501
 11
-5.472079516
 21
-17.6055358861
  0
LINE
  5
37F
100
AcDbEntity
  8
RACCORDO
100
AcDbLine
 62
7
  6
CONTINUOUS
 10
-4.8913600751
 20
-17.407879362
 11
-5.3987414752
 21
-17.6422049066
  0
LINE
  5
380
100
AcDbEntity
  8
DRAFT
100
AcDbLine
 62
7
  6
CONTINUOUS
 10
-7.1311207803
 20
-17.4886079191
 11
-7.6677124392
 21
-17.7224619911
  0
LINE
  5
381
100
AcDbEntity
  8
SMUSSO
100
AcDbLine
 62
7
  6
CONTINUOUS
 10
31.8658182021
 20
22.9942393002
 11
30.4516046397
 21
22.6355198326
  0
LINE
  5
382
100
AcDbEntity
  8
RACCORDO
100
AcDbLine
 62
7
  6
CONTINUOUS
 10
-25.3756776857
 20
24.464487788
 11
-25.8450621738
 21
24.699180032
  0
LINE
  5
383
100
AcDbEntity
  8
RACCORDO
100
AcDbLine
 62
7
  6
CONTINUOUS
 10
-3.9844956041
 20
-18.9271064908
 11
-3.4188101791
 21
-18.6321705546
  0
LINE
  5
384
100
AcDbEntity
  8
RACCORDO
100
AcDbLine
 62
7
  6
CONTINUOUS
 10
-3.649947402
 20
-19.2291946083
 11
-3.2066781448
 21
-18.9980837689
  0
LINE
  5
385
100
AcDbEntity
  8
0
100
AcDbLine
 62
7
  6
CONTINUOUS
 10
-7.1045420507
 20
-20.7798942158
 11
-7.2459634069
 21
-20.8506048939
  0
LINE
  5
386
100
AcDbEntity
  8
0
100
AcDbLine
 62
7
  6
CONTINUOUS
 10
-6.7678559852
 20
-20.9482372485
 11
-6.9092773415
 21
-21.0189479267
  0
LINE
  5
387
100
AcDbEntity
  8
0
100
AcDbLine
 62
7
  6
CONTINUOUS
 10
-6.1931507062
 20
-21.2355898881
 11
-6.3345720624
 21
-21.3063005662
  0
LINE
  5
388
100
AcDbEntity
  8
0
100
AcDbLine
 62
7
  6
CONTINUOUS
 10
-5.8834259152
 20
-21.3904522835
 11
-6.0248472714
 21
-21.4611629617
  0
LINE
  5
389
100
AcDbEntity
  8
0
100
AcDbLine
 62
7
  6
CONTINUOUS
 10
-5.7684086333
 20
-21.4478518053
 11
-5.9098299895
 21
-21.5185624834
  0
LINE
  5
38A
100
AcDbEntity
  8
0
100
AcDbLine
 62
7
  6
CONTINUOUS
 10
-5.4584724174
 20
-21.6028199133
 11
-5.5998937736
 21
-21.6735305914
  0
LINE
  5
38B
100
AcDbEntity
  8
0
100
AcDbLine
 62
7
  6
CONTINUOUS
 10
-5.1575553485
 20
-21.7533875669
 11
-5.2989767047
 21
-21.824098245
  0
LINE
  5
38C
100
AcDbEntity
  8
0
100
AcDbLine
 62
7
  6
CONTINUOUS
 10
-4.8478758123
 20
-21.908227335
 11
-4.9892971686
 21
-21.9789380131
  0
LINE
  5
38D
100
AcDbEntity
  8
0
100
AcDbLine
 62
7
  6
CONTINUOUS
 10
-6.3607003651
 20
-22.9703151201
 11
-6.5021217213
 21
-23.0410257982
  0
LINE
  5
38E
100
AcDbEntity
  8
0
100
AcDbLine
 62
7
  6
CONTINUOUS
 10
-4.2312772849
 20
-22.2165265987
 11
-4.3726986411
 21
-22.2872372768
  0
LINE
  5
38F
100
AcDbEntity
  8
0
100
AcDbLine
 62
7
  6
CONTINUOUS
 10
-3.9246262871
 20
-22.3698520976
 11
-4.0660476434
 21
-22.4405627757
  0
LINE
  5
390
100
AcDbEntity
  8
RACCORDO
100
AcDbLine
 62
7
  6
CONTINUOUS
 10
-3.3530694165
 20
-18.1770246913
 11
-3.8430419391
 21
-18.4200546746
  0
LINE
  5
391
100
AcDbEntity
  8
RACCORDO
100
AcDbLine
 62
7
  6
CONTINUOUS
 10
-3.1409696909
 20
-18.5428426053
 11
-3.3757866657
 21
-18.6593135559
  0
LWPOLYLINE
  5
392
100
AcDbEntity
  8
RACCORDO
100
AcDbPolyline
 62
7
  6
CONTINUOUS
 90
8
 70
0
 10
-5.0208459026
 20
-17.3971412501
 10
-4.9942010518
 20
-17.3863530584
 10
-4.9662421983
 20
-17.3780653026
 10
-4.9372572169
 20
-17.3724806958
 10
-4.9075004176
 20
-17.3697564899
 10
-4.8774026558
 20
-17.3700187489
 10
-4.8475017651
 20
-17.3732925169
 10
-4.8180452302
 20
-17.3795530776
  0
LWPOLYLINE
  5
393
100
AcDbEntity
  8
RACCORDO
100
AcDbPolyline
 62
7
  6
CONTINUOUS
 90
13
 70
0
 10
-28.6073796403
 20
30.4055282006
 10
-28.5813185255
 20
30.3939320282
 10
-28.5527411122
 20
30.3839269769
 10
-28.5220338414
 20
30.3756483559
 10
-28.4896119571
 20
30.3692081288
 10
-28.4559138999
 20
30.3646933998
 10
-28.4213953783
 20
30.362165234
 10
-28.3865231904
 20
30.3616578305
 10
-28.3517689259
 20
30.3631780623
 10
-28.3176025964
 20
30.3667053795
 10
-28.284486255
 20
30.3721920872
 10
-28.2528677484
 20
30.3795639936
 10
-28.2231746751
 20
30.3887214112
  0
LWPOLYLINE
  5
394
100
AcDbEntity
  8
RACCORDO
100
AcDbPolyline
 62
7
  6
CONTINUOUS
 90
11
 70
0
 10
-29.7686009988
 20
34.0395266327
 10
-29.8058486052
 20
34.0561865073
 10
-29.8428697794
 20
34.0693723084
 10
-29.8794557793
 20
34.0790113645
 10
-29.9153992084
 20
34.0850513891
 10
-29.9504989995
 20
34.0874588307
 10
-29.9845615307
 20
34.0862189994
 10
-30.0173959897
 20
34.0813391041
 10
-30.0488173514
 20
34.0728472155
 10
-30.0786512414
 20
34.0607901528
 10
-30.0903542754
 20
34.0548479375
  0
LINE
  5
395
100
AcDbEntity
  8
RACCORDO
100
AcDbLine
 62
7
  6
CONTINUOUS
 10
-28.1241889129
 20
30.5607765441
 11
19.886869554
 21
6.5552473107
  0
LINE
  5
396
100
AcDbEntity
  8
RACCORDO
100
AcDbLine
 62
7
  6
CONTINUOUS
 10
-28.2021568686
 20
30.7230386842
 11
19.8089015917
 21
6.7175094541
  0
LINE
  5
397
100
AcDbEntity
  8
RACCORDO
100
AcDbLine
 62
7
  6
CONTINUOUS
 10
21.5837755418
 20
7.8951404913
 11
-29.9793141572
 21
33.6766853409
  0
LINE
  5
398
100
AcDbEntity
  8
RACCORDO
100
AcDbLine
 62
7
  6
CONTINUOUS
 10
21.7922053617
 20
8.2591234525
 11
-29.7686009988
 21
34.0395266327
  0
LINE
  5
399
100
AcDbEntity
  8
RACCORDO
100
AcDbLine
 62
7
  6
CONTINUOUS
 10
23.4866782321
 20
9.1128931582
 11
-28.1322675686
 21
34.9223660585
  0
LWPOLYLINE
  5
39A
100
AcDbEntity
  8
RACCORDO
100
AcDbPolyline
 62
7
  6
CONTINUOUS
 90
22
 70
0
 10
19.8869009991
 20
6.555231412
 10
19.8935145012
 20
6.5517460799
 10
19.9069607792
 20
6.5436405285
 10
19.9221125633
 20
6.533004101
 10
19.9384364349
 20
6.5198552568
 10
19.955586386
 20
6.5041766326
 10
19.9732293817
 20
6.4860055956
 10
19.9909253543
 20
6.4655710108
 10
20.0083305852
 20
6.4431061768
 10
20.0251971606
 20
6.4187994925
 10
20.0413122217
 20
6.3928347355
 10
20.0564340323
 20
6.3655053113
 10
20.0703666622
 20
6.3371092402
 10
20.0829976452
 20
6.307822593
 10
20.0941690891
 20
6.2779704858
 10
20.1037584137
 20
6.2478920152
 10
20.1117104672
 20
6.2178020741
 10
20.1179592823
 20
6.1880115369
 10
20.1224574255
 20
6.1588974112
 10
20.1252013765
 20
6.1308569586
 10
20.126241178
 20
6.104281653
 10
20.1262557956
 20
6.100974269
  0
LWPOLYLINE
  5
39B
100
AcDbEntity
  8
RACCORDO
100
AcDbPolyline
 62
7
  6
CONTINUOUS
 90
22
 70
0
 10
21.5837755418
 20
7.8951404913
 10
21.6049761328
 20
7.8835568086
 10
21.6258647679
 20
7.8702430104
 10
21.6464414473
 20
7.8551990967
 10
21.6668290325
 20
7.8383169689
 10
21.686904662
 20
7.8197047257
 10
21.706299751
 20
7.7996866629
 10
21.7249920244
 20
7.778245227
 10
21.7430037575
 20
7.7553979715
 10
21.7600331911
 20
7.7315218531
 10
21.7760657135
 20
7.7065945774
 10
21.7911159365
 20
7.6806384389
 10
21.8049259374
 20
7.6540972767
 10
21.8174718574
 20
7.6269640466
 10
21.8287775551
 20
7.5992457928
 10
21.8386566835
 20
7.5714074875
 10
21.847085113
 20
7.5434338713
 10
21.8540869732
 20
7.5153402036
 10
21.8595483054
 20
7.4876372348
 10
21.8634311235
 20
7.4604952152
 10
21.8657734137
 20
7.4337438945
 10
21.866575176
 20
7.4073832727
  0
LWPOLYLINE
  5
39C
100
AcDbEntity
  8
RACCORDO
100
AcDbPolyline
 62
7
  6
CONTINUOUS
 90
6
 70
0
 10
19.8089015917
 20
6.7175094541
 10
19.8448891283
 20
6.6974362564
 10
19.8798774524
 20
6.674282505
 10
19.9138665641
 20
6.6480481999
 10
19.947020512
 20
6.6185505066
 10
19.9791752476
 20
6.5859722597
  0
LWPOLYLINE
  5
39D
100
AcDbEntity
  8
RACCORDO
100
AcDbPolyline
 62
7
  6
CONTINUOUS
 90
8
 70
0
 10
20.2141243635
 20
5.9947761987
 10
20.1909316984
 20
6.0078068922
 10
20.1709213961
 20
6.0220957288
 10
20.1543640617
 20
6.0374494766
 10
20.1414836048
 20
6.0536605025
 10
20.1324542113
 20
6.07050958
 10
20.1273979884
 20
6.0877688545
 10
20.1262563979
 20
6.1008422159
  0
LWPOLYLINE
  5
39E
100
AcDbEntity
  8
RACCORDO
100
AcDbPolyline
 62
7
  6
CONTINUOUS
 90
10
 70
0
 10
19.8089015917
 20
6.7175094541
 10
19.8100000682
 20
6.6916531121
 10
19.8132841152
 20
6.6671630275
 10
19.8187197212
 20
6.6442928316
 10
19.8262505917
 20
6.6232793795
 10
19.8357987329
 20
6.6043402967
 10
19.8472652589
 20
6.5876717253
 10
19.8605314164
 20
6.5734462929
 10
19.8754598139
 20
6.5618113248
 10
19.8868695545
 20
6.5552473104
  0
LWPOLYLINE
  5
39F
100
AcDbEntity
  8
RACCORDO
100
AcDbPolyline
 62
7
  6
CONTINUOUS
 90
22
 70
0
 10
22.2871047215
 20
7.4055483198
 10
22.285452831
 20
7.4514069042
 10
22.2810602698
 20
7.4984004248
 10
22.2739535044
 20
7.5462670708
 10
22.2641752677
 20
7.5947406267
 10
22.2517804903
 20
7.6435502818
 10
22.2368359462
 20
7.6924221444
 10
22.2194256569
 20
7.7410833763
 10
22.1996484595
 20
7.7892625754
 10
22.1776136107
 20
7.8366896191
 10
22.153444204
 20
7.8830990654
 10
22.1272761794
 20
7.9282321831
 10
22.0992555057
 20
7.971837211
 10
22.0695377148
 20
8.013670143
 10
22.03828929
 20
8.053496961
 10
22.005686431
 20
8.0910954948
 10
21.9719100468
 20
8.1262547067
 10
21.9371483439
 20
8.1587779141
 10
21.9015979674
 20
8.1884846874
 10
21.8654573666
 20
8.2152088349
 10
21.828925706
 20
8.2387993803
 10
21.7922053617
 20
8.2591234525
  0
LINE
  5
3A0
100
AcDbEntity
  8
RACCORDO
100
AcDbLine
 62
7
  6
CONTINUOUS
 10
20.1262563979
 20
6.1008422159
 11
20.1262563979
 21
-33.6909721547
  0
LINE
  5
3A1
100
AcDbEntity
  8
RACCORDO
100
AcDbLine
 62
7
  6
CONTINUOUS
 10
20.2141243635
 20
5.9947761987
 11
20.2141243635
 21
-33.7970381932
  0
LINE
  5
3A2
100
AcDbEntity
  8
RACCORDO
100
AcDbLine
 62
7
  6
CONTINUOUS
 10
21.866575176
 20
-36.8620960796
 11
21.866575176
 21
7.4073832727
  0
LINE
  5
3A3
100
AcDbEntity
  8
RACCORDO
100
AcDbLine
 62
7
  6
CONTINUOUS
 10
22.2871047215
 20
-36.8639310325
 11
22.2871047215
 21
7.4055483198
  0
LWPOLYLINE
  5
3A4
100
AcDbEntity
  8
RACCORDO
100
AcDbPolyline
 62
7
  6
CONTINUOUS
 90
8
 70
0
 10
20.1262559722
 20
-33.6911103555
 10
20.1261151115
 20
-33.701562082
 10
20.1252168632
 20
-33.7189503953
 10
20.1235469167
 20
-33.7348898773
 10
20.1212390896
 20
-33.7489497202
 10
20.1185972319
 20
-33.760402882
 10
20.1159596526
 20
-33.7690410947
 10
20.1154606503
 20
-33.7704376914
  0
LWPOLYLINE
  5
3A5
100
AcDbEntity
  8
RACCORDO
100
AcDbPolyline
 62
7
  6
CONTINUOUS
 90
22
 70
0
 10
21.866575176
 20
-36.8620960796
 10
21.8657812449
 20
-36.8875222071
 10
21.8634634293
 20
-36.9118108723
 10
21.8596217292
 20
-36.9349620752
 10
21.854218873
 20
-36.9571054379
 10
21.8472921323
 20
-36.9781113384
 10
21.8389533214
 20
-36.9975909104
 10
21.8291794784
 20
-37.0155058716
 10
21.8179935652
 20
-37.0318945044
 10
21.8055762824
 20
-37.0464827896
 10
21.7919038989
 20
-37.0592414886
 10
21.7770001458
 20
-37.07019984
 10
21.7611169171
 20
-37.0791715413
 10
21.7442390774
 20
-37.0861204163
 10
21.726381762
 20
-37.0910826412
 10
21.7078422718
 20
-37.0939804419
 10
21.6886017579
 20
-37.0947754293
 10
21.6686790692
 20
-37.0935059926
 10
21.6484280524
 20
-37.0902095253
 10
21.6279666564
 20
-37.0848984919
 10
21.6071769324
 20
-37.0775604279
 10
21.5860588804
 20
-37.0681953334
  0
LWPOLYLINE
  5
3A6
100
AcDbEntity
  8
RACCORDO
100
AcDbPolyline
 62
7
  6
CONTINUOUS
 90
19
 70
0
 10
20.2141243635
 20
-33.7970381932
 10
20.2122202469
 20
-33.8451935573
 10
20.2072842751
 20
-33.8901790671
 10
20.1993164482
 20
-33.9319947226
 10
20.1881487499
 20
-33.9708219316
 10
20.1739491964
 20
-34.0064792863
 10
20.1572218369
 20
-34.0384225634
 10
20.1379505739
 20
-34.0665500171
 10
20.1161515048
 20
-34.0909633933
 10
20.0923769715
 20
-34.1114237059
 10
20.0666443393
 20
-34.1278759311
 10
20.0389362427
 20
-34.1403750928
 10
20.0097529277
 20
-34.1488472757
 10
19.9791045631
 20
-34.1532832976
 10
19.94698098
 20
-34.1536923407
 10
19.9138519174
 20
-34.1500280371
 10
19.879873955
 20
-34.1422749305
 10
19.8448905131
 20
-34.1304484771
 10
19.8089015917
 20
-34.1145486768
  0
LWPOLYLINE
  5
3A7
100
AcDbEntity
  8
RACCORDO
100
AcDbPolyline
 62
7
  6
CONTINUOUS
 90
13
 70
0
 10
19.8089015917
 20
-34.1145486768
 10
19.8100000648
 20
-34.0875938724
 10
19.8132841077
 20
-34.0598197524
 10
19.8187197091
 20
-34.0315139597
 10
19.8262505754
 20
-34.0029696432
 10
19.8357987129
 20
-33.9744824223
 10
19.8472652365
 20
-33.9463473249
 10
19.860531393
 20
-33.9188557324
 10
19.8754597914
 20
-33.8922923615
 10
19.8918958257
 20
-33.8669323157
 10
19.9096692761
 20
-33.8430382366
 10
19.9285960718
 20
-33.8208575832
 10
19.9484801973
 20
-33.8006200696
  0
LINE
  5
3A8
100
AcDbEntity
  8
RACCORDO
100
AcDbLine
 62
7
  6
CONTINUOUS
 10
4.4210318853
 20
-22.686070359
 11
3.517838443
 21
-23.173363942
  0
LINE
  5
3A9
100
AcDbEntity
  8
RACCORDO
100
AcDbLine
 62
7
  6
CONTINUOUS
 10
4.5583254711
 20
-22.6929607108
 11
3.6551320288
 21
-23.1802542937
  0
LINE
  5
3AA
100
AcDbEntity
  8
RACCORDO
100
AcDbLine
 62
7
  6
CONTINUOUS
 10
1.1122212494
 20
-20.957984504
 11
0.5465358244
 21
-21.2529204402
  0
LINE
  5
3AB
100
AcDbEntity
  8
RACCORDO
100
AcDbLine
 62
7
  6
CONTINUOUS
 10
1.2480945767
 20
-20.9656229325
 11
0.6824091518
 21
-21.2605588687
  0
LINE
  5
3AC
100
AcDbEntity
  8
RACCORDO
100
AcDbLine
 62
7
  6
CONTINUOUS
 10
3.0911033687
 20
-22.4649059772
 11
3.6666628694
 21
-22.1749070789
  0
LINE
  5
3AD
100
AcDbEntity
  8
RACCORDO
100
AcDbLine
 62
7
  6
CONTINUOUS
 10
3.4276772021
 20
-22.7680069104
 11
3.878762595
 21
-22.5407249929
  0
LINE
  5
3AE
100
AcDbEntity
  8
0
100
AcDbLine
 62
7
  6
CONTINUOUS
 10
-5.4584724174
 20
-23.4214290939
 11
-5.5998937736
 21
-23.492139772
  0
LINE
  5
3AF
100
AcDbEntity
  8
0
100
AcDbLine
 62
7
  6
CONTINUOUS
 10
-3.2713847792
 20
-22.6964728515
 11
-3.4128061354
 21
-22.7671835297
  0
LINE
  5
3B0
100
AcDbEntity
  8
0
100
AcDbLine
 62
7
  6
CONTINUOUS
 10
-4.9951166574
 20
-23.6531069739
 11
-5.1365380136
 21
-23.723817652
  0
LINE
  5
3B1
100
AcDbEntity
  8
0
100
AcDbLine
 62
7
  6
CONTINUOUS
 10
-2.9715594832
 20
-22.8463854996
 11
-3.1129808394
 21
-22.9170961777
  0
LINE
  5
3B2
100
AcDbEntity
  8
0
100
AcDbLine
 62
7
  6
CONTINUOUS
 10
-4.5211719733
 20
-23.8900793159
 11
-4.6625933296
 21
-23.9607899941
  0
LINE
  5
3B3
100
AcDbEntity
  8
0
100
AcDbLine
 62
7
  6
CONTINUOUS
 10
-2.4249738071
 20
-23.1409243982
 11
-2.5663951634
 21
-23.2116350764
  0
LINE
  5
3B4
100
AcDbEntity
  8
0
100
AcDbLine
 62
7
  6
CONTINUOUS
 10
-3.2816173214
 20
-23.8659026683
 11
-3.4230386777
 21
-23.9366133464
  0
LINE
  5
3B5
100
AcDbEntity
  8
0
100
AcDbLine
 62
7
  6
CONTINUOUS
 10
-3.8617789585
 20
-24.2957738609
 11
-3.9272022771
 21
-24.3284855203
  0
LINE
  5
3B6
100
AcDbEntity
  8
0
100
AcDbLine
 62
7
  6
CONTINUOUS
 10
-1.6600994412
 20
-23.5425075663
 11
-1.8015207974
 21
-23.6132182444
  0
LINE
  5
3B7
100
AcDbEntity
  8
0
100
AcDbLine
 62
7
  6
CONTINUOUS
 10
-3.4305396664
 20
-24.4353954694
 11
-3.5719610226
 21
-24.5061061475
  0
LINE
  5
3B8
100
AcDbEntity
  8
0
100
AcDbLine
 62
7
  6
CONTINUOUS
 10
-2.1265620176
 20
-24.0778975756
 11
-2.2679833738
 21
-24.1486082538
  0
LINE
  5
3B9
100
AcDbEntity
  8
0
100
AcDbLine
 62
7
  6
CONTINUOUS
 10
-1.9494367332
 20
-24.1664602178
 11
-2.0908580894
 21
-24.237170896
  0
LINE
  5
3BA
100
AcDbEntity
  8
0
100
AcDbLine
 62
7
  6
CONTINUOUS
 10
-2.5663951634
 20
-24.9178767439
 11
-2.6574074966
 21
-24.9633829105
  0
LINE
  5
3BB
100
AcDbEntity
  8
0
100
AcDbLine
 62
7
  6
CONTINUOUS
 10
-1.765266904
 20
-24.5562953658
 11
-1.7695652049
 21
-24.5584445163
  0
LINE
  5
3BC
100
AcDbEntity
  8
0
100
AcDbLine
 62
7
  6
CONTINUOUS
 10
-1.726533917
 20
-24.5410061243
 11
-1.5851125608
 21
-24.4702954462
  0
LINE
  5
3BD
100
AcDbEntity
  8
0
100
AcDbLine
 62
7
  6
CONTINUOUS
 10
-2.11628501
 20
-25.092523142
 11
-2.2577063662
 21
-25.1632338202
  0
LINE
  5
3BE
100
AcDbEntity
  8
0
100
AcDbLine
 62
7
  6
CONTINUOUS
 10
-1.4494931579
 20
-24.9337281573
 11
-1.5909145141
 21
-25.0044388355
  0
LINE
  5
3BF
100
AcDbEntity
  8
0
100
AcDbLine
 62
7
  6
CONTINUOUS
 10
-1.3435386566
 20
-25.4788963187
 11
-1.4849600128
 21
-25.5496069968
  0
LWPOLYLINE
  5
3C0
100
AcDbEntity
  8
0
100
AcDbPolyline
 62
7
  6
CONTINUOUS
 90
49
 70
0
 10
-1.5850838419
 20
-24.4703545049
 10
-1.5800193972
 20
-24.4678806619
 10
-1.5731437221
 20
-24.464216451
 10
-1.5661910799
 20
-24.4603285754
 10
-1.5591373022
 20
-24.4563112076
 10
-1.5520065576
 20
-24.4520701751
 10
-1.5448362037
 20
-24.447486478
 10
-1.5376232497
 20
-24.4425804474
 10
-1.5303706864
 20
-24.4373317523
 10
-1.5231248444
 20
-24.4315603997
 10
-1.5158784755
 20
-24.4252656173
 10
-1.5086388279
 20
-24.4184481773
 10
-1.5014739758
 20
-24.4109304036
 10
-1.4943806719
 20
-24.4026856602
 10
-1.4873621636
 20
-24.3937405831
 10
-1.4804962669
 20
-24.3839974041
 10
-1.473774777
 20
-24.3734521435
 10
-1.4672058986
 20
-24.362108781
 10
-1.4608920623
 20
-24.3498814867
 10
-1.4548210614
 20
-24.3367632177
 10
-1.4490051026
 20
-24.3227610169
 10
-1.4435832366
 20
-24.3078101835
 10
-1.4385553337
 20
-24.2919232138
 10
-1.4339215236
 20
-24.2750876114
 10
-1.4298212462
 20
-24.2572011867
 10
-1.4262513969
 20
-24.2382901069
 10
-1.4232150804
 20
-24.2183282047
 10
-1.4208610506
 20
-24.1971347891
 10
-1.4191667106
 20
-24.1747262183
 10
-1.4181546572
 20
-24.1510861341
 10
-1.4180414345
 20
-24.1259847709
 10
-1.4187432371
 20
-24.0994216403
 10
-1.4203438703
 20
-24.0713972307
 10
-1.423311294
 20
-24.0416832412
 10
-1.4276136501
 20
-24.0100713197
 10
-1.4332827967
 20
-23.9767698183
 10
-1.4408822675
 20
-23.9421754927
 10
-1.4506028304
 20
-23.9059932463
 10
-1.4622537175
 20
-23.8685181757
 10
-1.4758261586
 20
-23.831032326
 10
-1.4915153027
 20
-23.7935213607
 10
-1.5091260008
 20
-23.7559996163
 10
-1.5280640355
 20
-23.7197921473
 10
-1.548437943
 20
-23.6849809964
 10
-1.5701391872
 20
-23.6514841208
 10
-1.5922479417
 20
-23.6203804473
 10
-1.6144575979
 20
-23.5920296182
 10
-1.6370747643
 20
-23.5660719912
 10
-1.6600994412
 20
-23.5425075663
  0
LWPOLYLINE
  5
3C1
100
AcDbEntity
  8
0
100
AcDbPolyline
 62
7
  6
CONTINUOUS
 90
46
 70
0
 10
-1.7265342264
 20
-24.5410054839
 10
-1.7192351585
 20
-24.5374465815
 10
-1.711897217
 20
-24.5334965677
 10
-1.704492413
 20
-24.5292884818
 10
-1.6970070411
 20
-24.5249226945
 10
-1.6894548065
 20
-24.5202988351
 10
-1.6818666453
 20
-24.5152569408
 10
-1.6742350987
 20
-24.5098213016
 10
-1.6665676255
 20
-24.5039676276
 10
-1.6589175371
 20
-24.4974630864
 10
-1.6512758236
 20
-24.4902950072
 10
-1.643651495
 20
-24.4824760609
 10
-1.6361248934
 20
-24.4738114281
 10
-1.6286869787
 20
-24.464275237
 10
-1.6213467911
 20
-24.4538933595
 10
-1.6142117935
 20
-24.442548592
 10
-1.6072682135
 20
-24.4302362605
 10
-1.6005298235
 20
-24.4169610391
 10
-1.5941454031
 20
-24.4026197464
 10
-1.588104748
 20
-24.3872179121
 10
-1.5824180625
 20
-24.3707500064
 10
-1.5772647393
 20
-24.3530962587
 10
-1.5726420628
 20
-24.3342734285
 10
-1.5685527487
 20
-24.3142647562
 10
-1.5651843359
 20
-24.292900192
 10
-1.5625252828
 20
-24.2701622111
 10
-1.5605871312
 20
-24.2460683383
 10
-1.5595920454
 20
-24.2205010986
 10
-1.5594856472
 20
-24.1934617887
 10
-1.560322315
 20
-24.1649491119
 10
-1.5624873484
 20
-24.134841702
 10
-1.5658685064
 20
-24.1031442538
 10
-1.5705780301
 20
-24.0698520725
 10
-1.5773379429
 20
-24.0348297083
 10
-1.5862163604
 20
-23.9977798219
 10
-1.5971451671
 20
-23.9589997527
 10
-1.6106420386
 20
-23.9192460682
 10
-1.6273673961
 20
-23.8776731619
 10
-1.6466608184
 20
-23.8351266403
 10
-1.6670587183
 20
-23.7948998913
 10
-1.6883766469
 20
-23.7579286053
 10
-1.7107990529
 20
-23.7232770919
 10
-1.7334156951
 20
-23.6914316675
 10
-1.7559231597
 20
-23.6625544375
 10
-1.7786248605
 20
-23.6364832964
 10
-1.8015207974
 20
-23.6132182444
  0
LWPOLYLINE
  5
3C2
100
AcDbEntity
  8
0
100
AcDbPolyline
 62
7
  6
CONTINUOUS
 90
10
 70
0
 10
-1.9243499753
 20
-24.2601827216
 10
-1.9293170821
 20
-24.2624852563
 10
-1.944242498
 20
-24.26732654
 10
-1.960803272
 20
-24.2698225264
 10
-1.9792797263
 20
-24.269961578
 10
-1.9993915387
 20
-24.2677553323
 10
-2.0206537747
 20
-24.2633577455
 10
-2.0429047894
 20
-24.2568201367
 10
-2.0663062276
 20
-24.2480911868
 10
-2.0908580894
 20
-24.237170896
  0
LINE
  5
3C3
100
AcDbEntity
  8
0
100
AcDbLine
 62
7
  6
CONTINUOUS
 10
-1.7337247134
 20
-24.544321799
 11
-1.7265342264
 21
-24.5410054839
  0
LINE
  5
3C4
100
AcDbEntity
  8
DRAFT
100
AcDbLine
 62
7
  6
CONTINUOUS
 10
3.4754809375
 20
-22.791908778
 11
2.9388892786
 21
-23.02576285
  0
LWPOLYLINE
  5
3C5
100
AcDbEntity
  8
RACCORDO
100
AcDbPolyline
 62
7
  6
CONTINUOUS
 90
10
 70
0
 10
19.9791752476
 20
6.5859722597
 10
20.0098386245
 20
6.5508619624
 10
20.0390063213
 20
6.5132181459
 10
20.0666826595
 20
6.473042279
 10
20.092388457
 20
6.4308872722
 10
20.1161486183
 20
6.3866748185
 10
20.137938239
 20
6.3404832248
 10
20.1572034233
 20
6.2931003223
 10
20.1739280285
 20
6.2444400133
 10
20.1881281974
 20
6.1945883955
  0
LWPOLYLINE
  5
3C6
100
AcDbEntity
  8
RACCORDO
100
AcDbPolyline
 62
7
  6
CONTINUOUS
 90
5
 70
0
 10
20.1881281974
 20
6.1945883955
 10
20.199298462
 20
6.1445915927
 10
20.2072703333
 20
6.094798313
 10
20.2122123005
 20
6.0448598483
 10
20.2141243635
 20
5.9947761987
  0
LINE
  5
3C7
100
AcDbEntity
  8
RACCORDO
100
AcDbLine
 62
7
  6
CONTINUOUS
 10
23.9815775919
 20
-36.0813673081
 11
23.9815775919
 21
8.2593180255
  0
LINE
  5
3C8
100
AcDbEntity
  8
ASSI
100
AcDbLine
 62
7
  6
CONTINUOUS
 10
14.4463508895
 20
-28.1503418864
 11
14.541702063
 21
-27.9858854388
  0
LINE
  5
3C9
100
AcDbEntity
  8
ASSI
100
AcDbLine
 62
7
  6
CONTINUOUS
 10
14.7999042801
 20
-27.9735651911
 11
14.8952554536
 21
-27.8091087435
  0
LINE
  5
3CA
100
AcDbEntity
  8
ASSI
100
AcDbLine
 62
7
  6
CONTINUOUS
 10
15.1534576707
 20
-27.7967884958
 11
15.2488088442
 21
-27.6323320482
  0
LINE
  5
3CB
100
AcDbEntity
  8
ASSI
100
AcDbLine
 62
7
  6
CONTINUOUS
 10
15.5070110612
 20
-27.6200118005
 11
15.6023622348
 21
-27.4555553529
  0
LINE
  5
3CC
100
AcDbEntity
  8
ASSI
100
AcDbLine
 62
7
  6
CONTINUOUS
 10
15.8605644518
 20
-27.4432351052
 11
15.9559156254
 21
-27.2787786576
  0
LINE
  5
3CD
100
AcDbEntity
  8
RACCORDO
100
AcDbLine
 62
7
  6
CONTINUOUS
 10
9.37941917
 20
-25.6708203189
 11
9.9352305192
 21
-25.3709473448
  0
LINE
  5
3CE
100
AcDbEntity
  8
RACCORDO
100
AcDbLine
 62
7
  6
CONTINUOUS
 10
9.5167127557
 20
-25.6777106707
 11
10.0725241049
 21
-25.3778376966
  0
LINE
  5
3CF
100
AcDbEntity
  8
RACCORDO
100
AcDbLine
 62
7
  6
CONTINUOUS
 10
8.1041559582
 20
-25.4047662584
 11
9.039440147
 21
-24.9335180487
  0
LINE
  5
3D0
100
AcDbEntity
  8
RACCORDO
100
AcDbLine
 62
7
  6
CONTINUOUS
 10
8.8723994173
 20
-25.4903680179
 11
9.2515398726
 21
-25.2993359627
  0
LINE
  5
3D1
100
AcDbEntity
  8
DRAFT
100
AcDbLine
 62
7
  6
CONTINUOUS
 10
8.7787817964
 20
-25.4435592075
 11
8.2421901375
 21
-25.6774132794
  0
LWPOLYLINE
  5
3D2
100
AcDbEntity
  8
RACCORDO
100
AcDbPolyline
 62
7
  6
CONTINUOUS
 90
6
 70
0
 10
-28.1448304464
 20
30.5687781925
 10
-28.1447932124
 20
30.5687699412
 10
-28.1431408231
 20
30.5683853481
 10
-28.1390167253
 20
30.567127035
 10
-28.1327157226
 20
30.5647137045
 10
-28.1242058246
 20
30.5607847879
  0
LINE
  5
3D3
100
AcDbEntity
  8
SMUSSO
100
AcDbLine
 62
7
  6
CONTINUOUS
 10
30.4516046397
 20
-56.927596163
 11
30.4516046397
 21
22.6355198326
  0
LINE
  5
3D4
100
AcDbEntity
  8
SMUSSO
100
AcDbLine
 62
7
  6
CONTINUOUS
 10
31.8658182021
 20
-57.2863156306
 11
31.8658182021
 21
22.9942393002
  0
LWPOLYLINE
  5
3D5
100
AcDbEntity
  8
RACCORDO
100
AcDbPolyline
 62
7
  6
CONTINUOUS
 90
3
 70
0
 10
20.1154606503
 20
-33.7704376914
 10
20.1136995783
 20
-33.7748301784
 10
20.1123830165
 20
-33.7775368531
  0
LINE
  5
3D6
100
AcDbEntity
  8
ASSI
100
AcDbLine
 62
7
  6
CONTINUOUS
 10
16.2141178424
 20
-27.2664584099
 11
16.309469016
 21
-27.1020019623
  0
LINE
  5
3D7
100
AcDbEntity
  8
ASSI
100
AcDbLine
 62
7
  6
CONTINUOUS
 10
19.0318301236
 20
-29.7598125156
 11
19.1378961407
 21
-29.5768756964
  0
LINE
  5
3D8
100
AcDbEntity
  8
ASSI
100
AcDbLine
 62
7
  6
CONTINUOUS
 10
19.3853835142
 20
-29.5830358203
 11
19.4914495313
 21
-29.4000990012
  0
LINE
  5
3D9
100
AcDbEntity
  8
ASSI
100
AcDbLine
 62
7
  6
CONTINUOUS
 10
19.7389369047
 20
-29.406259125
 11
19.8450029219
 21
-29.2233223059
  0
LINE
  5
3DA
100
AcDbEntity
  8
ASSI
100
AcDbLine
 62
7
  6
CONTINUOUS
 10
20.0924902953
 20
-29.2294824297
 11
20.1262563979
 21
-29.1712445176
  0
LINE
  5
3DB
100
AcDbEntity
  8
RACCORDO
100
AcDbLine
 62
7
  6
CONTINUOUS
 10
11.7486302773
 20
-26.7936694315
 11
12.3143157023
 21
-26.4987334953
  0
LINE
  5
3DC
100
AcDbEntity
  8
RACCORDO
100
AcDbLine
 62
7
  6
CONTINUOUS
 10
12.0831784794
 20
-27.095757549
 11
12.5264477366
 21
-26.8646467096
  0
LINE
  5
3DD
100
AcDbEntity
  8
ASSI
100
AcDbLine
 62
7
  6
CONTINUOUS
 10
14.202568161
 20
-28.1554523898
 11
14.3295700287
 21
-28.091951456
  0
LINE
  5
3DE
100
AcDbEntity
  8
ASSI
100
AcDbLine
 62
7
  6
CONTINUOUS
 10
14.541702063
 20
-27.9858854388
 11
14.6831234193
 21
-27.9151747607
  0
LINE
  5
3DF
100
AcDbEntity
  8
ASSI
100
AcDbLine
 62
7
  6
CONTINUOUS
 10
14.8952554536
 20
-27.8091087435
 11
15.0366768099
 21
-27.7383980654
  0
LINE
  5
3E0
100
AcDbEntity
  8
ASSI
100
AcDbLine
 62
7
  6
CONTINUOUS
 10
15.2488088442
 20
-27.6323320482
 11
15.3902302004
 21
-27.5616213701
  0
LINE
  5
3E1
100
AcDbEntity
  8
ASSI
100
AcDbLine
 62
7
  6
CONTINUOUS
 10
15.6023622348
 20
-27.4555553529
 11
15.743783591
 21
-27.3848446748
  0
LINE
  5
3E2
100
AcDbEntity
  8
ASSI
100
AcDbLine
 62
7
  6
CONTINUOUS
 10
15.9559156254
 20
-27.2787786576
 11
16.0973369816
 21
-27.2080679795
  0
LINE
  5
3E3
100
AcDbEntity
  8
ASSI
100
AcDbLine
 62
7
  6
CONTINUOUS
 10
16.309469016
 20
-27.1020019623
 11
16.4508903722
 21
-27.0312912842
  0
LINE
  5
3E4
100
AcDbEntity
  8
0
100
AcDbLine
 62
7
  6
CONTINUOUS
 10
16.3727681149
 20
-27.0160679489
 11
14.0317034087
 21
-28.0700200136
  0
LWPOLYLINE
  5
3E5
100
AcDbEntity
  8
ASSI
100
AcDbPolyline
 62
7
  6
CONTINUOUS
 90
4
 70
0
 10
16.3805574289
 20
-27.0127985555
 10
16.3931698237
 20
-27.0090776481
 10
16.4062004184
 20
-27.0068612212
 10
16.4195024689
 20
-27.0061324543
  0
LINE
  5
3E6
100
AcDbEntity
  8
RACCORDO
100
AcDbLine
 62
7
  6
CONTINUOUS
 10
-27.7529492298
 20
30.3751567026
 11
-28.2231746751
 21
30.3887216293
  0
LINE
  5
3E7
100
AcDbEntity
  8
RACCORDO
100
AcDbLine
 62
7
  6
CONTINUOUS
 10
-28.142372056
 20
30.5686063279
 11
-28.1422944316
 21
30.568604086
  0
LINE
  5
3E8
100
AcDbEntity
  8
SMUSSO
100
AcDbLine
 62
7
  6
CONTINUOUS
 10
35.0124433784
 20
-55.7130030425
 11
35.0124433784
 21
24.7417455451
  0
LINE
  5
3E9
100
AcDbEntity
  8
RACCORDO
100
AcDbLine
 62
7
  6
CONTINUOUS
 10
20.1125377859
 20
-33.7773288131
 11
20.1137499948
 21
-33.7756913966
  0
LINE
  5
3EA
100
AcDbEntity
  8
ASSI
100
AcDbLine
 62
7
  6
CONTINUOUS
 10
19.9115994384
 20
-30.2973753634
 11
20.1262563979
 21
-30.0275290402
  0
LINE
  5
3EB
100
AcDbEntity
  8
0
100
AcDbLine
 62
7
  6
CONTINUOUS
 10
20.1262563979
 20
-29.4246606552
 11
19.197575097
 21
-29.9403631927
  0
LINE
  5
3EC
100
AcDbEntity
  8
RACCORDO
100
AcDbLine
 62
7
  6
CONTINUOUS
 10
17.1989005214
 20
-29.00132414
 11
16.6332150964
 21
-29.2962600762
  0
LINE
  5
3ED
100
AcDbEntity
  8
RACCORDO
100
AcDbLine
 62
7
  6
CONTINUOUS
 10
17.3347738487
 20
-29.0089625685
 11
16.7690884238
 21
-29.3038985047
  0
LINE
  5
3EE
100
AcDbEntity
  8
0
100
AcDbLine
 62
7
  6
CONTINUOUS
 10
20.1262563979
 20
-29.9987772862
 11
19.7241730401
 21
-30.2036621642
  0
LINE
  5
3EF
100
AcDbEntity
  8
ASSI
100
AcDbLine
 62
7
  6
CONTINUOUS
 10
18.8042481227
 20
-29.7436997055
 11
18.9257641064
 21
-29.6829417136
  0
LINE
  5
3F0
100
AcDbEntity
  8
ASSI
100
AcDbLine
 62
7
  6
CONTINUOUS
 10
19.1378961407
 20
-29.5768756964
 11
19.279317497
 21
-29.5061650183
  0
LINE
  5
3F1
100
AcDbEntity
  8
ASSI
100
AcDbLine
 62
7
  6
CONTINUOUS
 10
19.4914495313
 20
-29.4000990012
 11
19.6328708876
 21
-29.329388323
  0
LINE
  5
3F2
100
AcDbEntity
  8
ASSI
100
AcDbLine
 62
7
  6
CONTINUOUS
 10
19.8450029219
 20
-29.2233223059
 11
19.9864242782
 21
-29.1526116277
  0
LINE
  5
3F3
100
AcDbEntity
  8
ASSI
100
AcDbLine
 62
7
  6
CONTINUOUS
 10
20.1262563979
 20
-29.2125993785
 11
18.9341519332
 21
-29.8086516108
  0
LINE
  5
3F4
100
AcDbEntity
  8
0
100
AcDbLine
 62
7
  6
CONTINUOUS
 10
20.1262563979
 20
-29.907845678
 11
19.6285044136
 21
-30.1558278509
  0
LINE
  5
3F5
100
AcDbEntity
  8
SMUSSO
100
AcDbLine
 62
7
  6
CONTINUOUS
 10
30.1587114209
 20
23.1406859096
 11
-34.8043007575
 21
55.6221919988
  0
LINE
  5
3F6
100
AcDbEntity
  8
SMUSSO
100
AcDbLine
 62
7
  6
CONTINUOUS
 10
31.1587114209
 20
24.2138180946
 11
-34.3900871951
 21
56.9882174026
  0
LINE
  5
3F7
100
AcDbEntity
  8
RACCORDO
100
AcDbLine
 62
7
  6
CONTINUOUS
 10
19.9484705245
 20
-33.8006152332
 11
20.1262563979
 21
-33.5775496616
  0
LWPOLYLINE
  5
3F8
100
AcDbEntity
  8
RACCORDO
100
AcDbPolyline
 62
7
  6
CONTINUOUS
 90
4
 70
0
 10
20.1137195279
 20
-33.7757331491
 10
20.1016146099
 20
-33.7894975166
 10
20.0877724033
 20
-33.8021376382
 10
20.0733949033
 20
-33.8122311875
  0
LWPOLYLINE
  5
3F9
100
AcDbEntity
  8
RACCORDO
100
AcDbPolyline
 62
7
  6
CONTINUOUS
 90
9
 70
0
 10
20.0733949033
 20
-33.8122311875
 10
20.0585666709
 20
-33.8197794169
 10
20.0433382004
 20
-33.8247788871
 10
20.0278158484
 20
-33.8272097465
 10
20.0121000004
 20
-33.8270682899
 10
19.9962085107
 20
-33.8243475314
 10
19.9802136221
 20
-33.8190303052
 10
19.9642601417
 20
-33.8111161363
 10
19.9484710415
 20
-33.800614584
  0
LINE
  5
3FA
100
AcDbEntity
  8
SMUSSO
100
AcDbLine
 62
7
  6
CONTINUOUS
 10
-31.2434620188
 20
58.5615299907
 11
34.3053365972
 21
25.7871306827
  0
LINE
  5
3FB
100
AcDbEntity
  8
SMUSSO
100
AcDbLine
 62
7
  6
CONTINUOUS
 10
30.4516046397
 20
22.6355198326
 11
30.1587114209
 21
23.1406859096
  0
LINE
  5
3FC
100
AcDbEntity
  8
SMUSSO
100
AcDbLine
 62
7
  6
CONTINUOUS
 10
31.8658182021
 20
22.9942393002
 11
31.1587114209
 21
24.2138180946
  0
LWPOLYLINE
  5
3FD
100
AcDbEntity
  8
RACCORDO
100
AcDbPolyline
 62
7
  6
CONTINUOUS
 90
13
 70
0
 10
22.0971287052
 20
-37.2463725215
 10
22.1272765856
 20
-37.229844899
 10
22.1534445695
 20
-37.2108797499
 10
22.1776139604
 20
-37.1885804754
 10
22.1996488317
 20
-37.1630719272
 10
22.2194260581
 20
-37.1344966477
 10
22.2368363308
 20
-37.1030138503
 10
22.2517808129
 20
-37.0688003068
 10
22.2641755117
 20
-37.0320473989
 10
22.273953664
 20
-36.9929592268
 10
22.281060351
 20
-36.9517542949
 10
22.2854528545
 20
-36.9086643264
 10
22.2871047215
 20
-36.8639310325
  0
LINE
  5
3FE
100
AcDbEntity
  8
RACCORDO
100
AcDbLine
 62
7
  6
CONTINUOUS
 10
22.2871047215
 20
-36.8639310325
 11
23.9815775919
 21
-36.0813673081
  0
LINE
  5
3FF
100
AcDbEntity
  8
RACCORDO
100
AcDbLine
 62
7
  6
CONTINUOUS
 10
22.0963675439
 20
-37.2467255322
 11
23.7922571213
 21
-36.4635075255
  0
LWPOLYLINE
  5
400
100
AcDbEntity
  8
RACCORDO
100
AcDbPolyline
 62
7
  6
CONTINUOUS
 90
16
 70
0
 10
22.2871047215
 20
-36.8639310313
 10
22.2636804623
 20
-36.8741241924
 10
22.2382743215
 20
-36.8830520431
 10
22.211158511
 20
-36.8906189266
 10
22.1826235612
 20
-36.8967437682
 10
22.1529752076
 20
-36.9013609437
 10
22.1225311153
 20
-36.9044209827
 10
22.0916174536
 20
-36.905891099
 10
22.0605654659
 20
-36.9057555386
 10
22.0297079206
 20
-36.9040157591
 10
21.9993754277
 20
-36.9006904102
 10
21.9698929839
 20
-36.8958151307
 10
21.9415765451
 20
-36.8894421857
 10
21.9147295046
 20
-36.8816398855
 10
21.8896394528
 20
-36.8724918398
 10
21.866575176
 20
-36.8620960796
  0
LINE
  5
401
100
AcDbEntity
  8
SMUSSO
100
AcDbLine
 62
7
  6
CONTINUOUS
 10
34.3053365972
 20
25.7871306827
 11
34.5124433784
 21
25.6041179808
  0
LINE
  5
402
100
AcDbEntity
  8
SMUSSO
100
AcDbLine
 62
7
  6
CONTINUOUS
 10
34.3053365972
 20
25.7871306827
 11
35.0124433784
 21
24.5675518884
  0
LINE
  5
403
100
AcDbEntity
  8
SMUSSO
100
AcDbLine
 62
7
  6
CONTINUOUS
 10
34.5124433784
 20
25.6041179808
 11
35.0124433784
 21
24.7417455451
  0
LINE
  5
404
100
AcDbEntity
  8
SMUSSO
100
AcDbLine
 62
7
  6
CONTINUOUS
 10
30.1587114209
 20
-57.1398690212
 11
30.4516046397
 21
-56.927596163
  0
LINE
  5
405
100
AcDbEntity
  8
SMUSSO
100
AcDbLine
 62
7
  6
CONTINUOUS
 10
31.1587114209
 20
-57.7987876438
 11
31.8658182021
 21
-57.2863156306
  0
LINE
  5
406
100
AcDbEntity
  8
SMUSSO
100
AcDbLine
 62
7
  6
CONTINUOUS
 10
35.0124433784
 20
-55.7130030425
 11
34.3053365972
 21
-56.2254750557
  0
LINE
  5
407
100
AcDbEntity
  8
SMUSSO
100
AcDbLine
 62
7
  6
CONTINUOUS
 10
31.8658182021
 20
-57.2863156306
 11
35.0124433784
 21
-55.7130030425
  0
LINE
  5
408
100
AcDbEntity
  8
SMUSSO
100
AcDbLine
 62
7
  6
CONTINUOUS
 10
31.1587114209
 20
-57.7987876438
 11
34.3053365972
 21
-56.2254750557
  0
ELLIPSE
  5
409
100
AcDbEntity
  8
RACCORDO
100
AcDbEllipse
 62
7
  6
CONTINUOUS
 10
23.4865274465
 20
-35.8336575615
 30
0.0
 11
-0.313181275
 21
0.626269159
 31
0.0
 40
0.6121897086
 41
-3.160544254
 42
-2.2557347926
  0
ELLIPSE
  5
40A
100
AcDbEntity
  8
RACCORDO
100
AcDbEllipse
 62
7
  6
CONTINUOUS
 10
23.4865274465
 20
8.5066584243
 30
0.0
 11
-0.3130130858
 21
0.6261196575
 31
0.0
 40
0.6125552124
 41
-2.255296188
 42
-0.6848044477
  0
ELLIPSE
  5
40B
100
AcDbEntity
  8
RACCORDO
100
AcDbEllipse
 62
7
  6
CONTINUOUS
 10
-28.132116783
 20
34.3159805391
 30
0.0
 11
-0.313181275
 21
0.626269159
 31
0.0
 40
0.6121897086
 41
-0.6846338794
 42
0.019259411
  0
ELLIPSE
  5
40C
100
AcDbEntity
  8
RACCORDO
100
AcDbEllipse
 62
7
  6
CONTINUOUS
 10
-26.146706713
 20
-8.223117657
 30
0.0
 11
-0.1341484654
 21
0.2683369961
 31
0.0
 40
0.6125552124
 41
0.8862964655
 42
2.4567882058
  0
ELLIPSE
  5
40D
100
AcDbEntity
  8
RACCORDO
100
AcDbEllipse
 62
7
  6
CONTINUOUS
 10
-25.6326390209
 20
-7.9776846318
 30
0.0
 11
-0.1340229113
 21
0.2684080287
 31
0.0
 40
0.6140178746
 41
0.8880524522
 42
2.4561097232
  0
ELLIPSE
  5
40E
100
AcDbEntity
  8
RACCORDO
100
AcDbEllipse
 62
7
  6
CONTINUOUS
 10
-11.3515124832
 20
-14.9978889308
 30
0.0
 11
-0.1342205464
 21
0.2684010681
 31
0.0
 40
0.6121897086
 41
-0.6846338794
 42
0.0192594208
  0
ELLIPSE
  5
40F
100
AcDbEntity
  8
RACCORDO
100
AcDbEllipse
 62
7
  6
CONTINUOUS
 10
4.5583900935
 20
-22.9528402191
 30
0.0
 11
-0.1342205464
 21
0.2684010681
 31
0.0
 40
0.6121897086
 41
-0.6846338794
 42
0.0192594208
  0
ELLIPSE
  5
410
100
AcDbEntity
  8
RACCORDO
100
AcDbEllipse
 62
7
  6
CONTINUOUS
 10
-5.8373138494
 20
-17.6827659166
 30
0.0
 11
-0.1342205464
 21
0.2684010681
 31
0.0
 40
0.6121897086
 41
-0.6846338794
 42
0.019259411
  0
ELLIPSE
  5
411
100
AcDbEntity
  8
RACCORDO
100
AcDbEllipse
 62
7
  6
CONTINUOUS
 10
17.3347738487
 20
-29.2688097656
 30
0.0
 11
-0.1341371037
 21
0.2683722998
 31
0.0
 40
0.6123537661
 41
-0.6845550499
 42
0.0106825902
  0
ELLIPSE
  5
412
100
AcDbEntity
  8
RACCORDO
100
AcDbEllipse
 62
7
  6
CONTINUOUS
 10
1.2480945767
 20
-21.2254701296
 30
0.0
 11
-0.1341371037
 21
0.2683722998
 31
0.0
 40
0.6123537661
 41
-0.6845550499
 42
0.0106825902
  0
ELLIPSE
  5
413
100
AcDbEntity
  8
RACCORDO
100
AcDbEllipse
 62
7
  6
CONTINUOUS
 10
10.0725887273
 20
-25.6377172049
 30
0.0
 11
-0.1342205464
 21
0.2684010681
 31
0.0
 40
0.6121897086
 41
-0.6846338794
 42
0.019259411
  0
ELLIPSE
  5
414
100
AcDbEntity
  8
RACCORDO
100
AcDbEllipse
 62
7
  6
CONTINUOUS
 10
-14.4850313047
 20
-13.3589071889
 30
0.0
 11
-0.1341371037
 21
0.2683722998
 31
0.0
 40
0.6123537661
 41
-0.6845550499
 42
0.0106825902
  0
ELLIPSE
  5
415
100
AcDbEntity
  8
RACCORDO
100
AcDbEllipse
 62
7
  6
CONTINUOUS
 10
-3.4188101791
 20
-18.8920177517
 30
0.0
 11
-0.1341371037
 21
0.2683722998
 31
0.0
 40
0.6123537661
 41
-2.2553513767
 42
-0.6845550499
  0
ELLIPSE
  5
416
100
AcDbEntity
  8
RACCORDO
100
AcDbEllipse
 62
7
  6
CONTINUOUS
 10
-19.5054894511
 20
-10.8486781157
 30
0.0
 11
-0.1341371037
 21
0.2683722998
 31
0.0
 40
0.6123537661
 41
-2.2553513767
 42
-0.6845550499
  0
ELLIPSE
  5
417
100
AcDbEntity
  8
RACCORDO
100
AcDbEllipse
 62
7
  6
CONTINUOUS
 10
-25.3037973705
 20
-1.4800317281
 30
0.0
 11
-0.1341484654
 21
0.2683369961
 31
0.0
 40
0.6125552124
 41
-2.255296188
 42
-0.6848044477
  0
ELLIPSE
  5
418
100
AcDbEntity
  8
RACCORDO
100
AcDbEllipse
 62
7
  6
CONTINUOUS
 10
-25.3037973705
 20
25.418231142
 30
0.0
 11
-0.1342205464
 21
0.2684010681
 31
0.0
 40
0.6121897086
 41
-3.160544254
 42
-2.2557347926
  0
ELLIPSE
  5
419
100
AcDbEntity
  8
RACCORDO
100
AcDbEllipse
 62
7
  6
CONTINUOUS
 10
-12.2433043297
 20
-14.4797706765
 30
0.0
 11
-0.1341484654
 21
0.2683369961
 31
0.0
 40
0.6125552124
 41
-2.255296188
 42
-0.6848044477
  0
ELLIPSE
  5
41A
100
AcDbEntity
  8
RACCORDO
100
AcDbEllipse
 62
7
  6
CONTINUOUS
 10
3.666598247
 20
-22.4347219648
 30
0.0
 11
-0.1341484654
 21
0.2683369961
 31
0.0
 40
0.6125552124
 41
-2.255296188
 42
-0.6848044477
  0
ELLIPSE
  5
41B
100
AcDbEntity
  8
RACCORDO
100
AcDbEllipse
 62
7
  6
CONTINUOUS
 10
12.3143157023
 20
-26.7585806924
 30
0.0
 11
-0.1341371037
 21
0.2683722998
 31
0.0
 40
0.6123537661
 41
-2.2553513767
 42
-0.6845550499
  0
ELLIPSE
  5
41C
100
AcDbEntity
  8
RACCORDO
100
AcDbEllipse
 62
7
  6
CONTINUOUS
 10
-25.3037973705
 20
17.5725271552
 30
0.0
 11
-0.1341484654
 21
0.2683369961
 31
0.0
 40
0.6125552124
 41
-2.255296188
 42
-0.6848044477
  0
ELLIPSE
  5
41D
100
AcDbEntity
  8
RACCORDO
100
AcDbEllipse
 62
7
  6
CONTINUOUS
 10
-25.3037973705
 20
6.3656722588
 30
0.0
 11
-0.1342205464
 21
0.2684010681
 31
0.0
 40
0.6121897086
 41
-3.160544254
 42
-2.2557347926
  0
ELLIPSE
  5
41E
100
AcDbEntity
  8
ASSI
100
AcDbEllipse
 62
7
  6
CONTINUOUS
 10
16.3727681149
 20
-27.1892730297
 30
0.0
 11
0.0974129977
 21
0.1748074534
 31
0.0
 40
0.6437101552
 41
0.6611775963
 42
0.7135374739
  0
ELLIPSE
  5
41F
100
AcDbEntity
  8
ASSI
100
AcDbEllipse
 62
7
  6
CONTINUOUS
 10
-15.4470370385
 20
-11.279370453
 30
0.0
 11
0.0974129977
 21
0.1748074534
 31
0.0
 40
0.6437101552
 41
0.6611775963
 42
0.7135374739
  0
ELLIPSE
  5
420
100
AcDbEntity
  8
ASSI
100
AcDbEllipse
 62
7
  6
CONTINUOUS
 10
-12.0812389212
 20
-14.2188309989
 30
0.0
 11
0.2227969873
 21
0.3604931982
 31
0.0
 40
0.5587445887
 41
-2.1584747401
 42
-1.7805701384
  0
ELLIPSE
  5
421
100
AcDbEntity
  8
RACCORDO
100
AcDbEllipse
 62
7
  6
CONTINUOUS
 10
9.0393755246
 20
-25.1933329347
 30
0.0
 11
-0.1341484654
 21
0.2683369961
 31
0.0
 40
0.6125552124
 41
-2.255296188
 42
-0.6848044477
  0
ELLIPSE
  5
422
100
AcDbEntity
  8
RACCORDO
100
AcDbEllipse
 62
7
  6
CONTINUOUS
 10
-6.8705270521
 20
-17.2383816463
 30
0.0
 11
-0.1341484654
 21
0.2683369961
 31
0.0
 40
0.6125552124
 41
-2.255296188
 42
-0.6848044477
  0
ELLIPSE
  5
423
100
AcDbEntity
  8
RACCORDO
100
AcDbEllipse
 62
7
  6
CONTINUOUS
 10
-25.3757423081
 20
5.1521140188
 30
0.0
 11
-0.1341484654
 21
0.2683369961
 31
0.0
 40
0.6125552124
 41
-2.255296188
 42
-0.6848044477
  0
ELLIPSE
  5
424
100
AcDbEntity
  8
RACCORDO
100
AcDbEllipse
 62
7
  6
CONTINUOUS
 10
-25.3757423081
 20
-0.3359499067
 30
0.0
 11
-0.1342205464
 21
0.2684010681
 31
0.0
 40
0.6121897086
 41
-3.160544254
 42
-2.2557347926
  0
ELLIPSE
  5
425
100
AcDbEntity
  8
RACCORDO
100
AcDbEllipse
 62
7
  6
CONTINUOUS
 10
-25.3757423081
 20
24.204672902
 30
0.0
 11
-0.1341484654
 21
0.2683369961
 31
0.0
 40
0.6125552124
 41
-2.255296188
 42
-0.6848044477
  0
ELLIPSE
  5
426
100
AcDbEntity
  8
RACCORDO
100
AcDbEllipse
 62
7
  6
CONTINUOUS
 10
-25.3757423081
 20
18.7166089766
 30
0.0
 11
-0.1342205464
 21
0.2684010681
 31
0.0
 40
0.6121897086
 41
-3.160544254
 42
-2.2557347926
  0
ELLIPSE
  5
427
100
AcDbEntity
  8
RACCORDO
100
AcDbEllipse
 62
7
  6
CONTINUOUS
 10
-25.7782494344
 20
24.7718949279
 30
0.0
 11
0.4999863728
 21
0.0072295547
 31
0.0
 40
0.5106100819
 41
-0.775327905
 42
-0.0072939168
  0
ELLIPSE
  5
428
100
AcDbEntity
  8
RACCORDO
100
AcDbEllipse
 62
7
  6
CONTINUOUS
 10
-25.7782494344
 20
5.7193360446
 30
0.0
 11
0.4999863728
 21
0.0072295547
 31
0.0
 40
0.5106100819
 41
-0.775327905
 42
-0.0072939168
  0
ELLIPSE
  5
429
100
AcDbEntity
  8
RACCORDO
100
AcDbEllipse
 62
7
  6
CONTINUOUS
 10
-6.3931251986
 20
-17.9826388907
 30
0.0
 11
-0.1342205464
 21
0.2684010681
 31
0.0
 40
0.6121897086
 41
-0.6846338794
 42
0.3837650063
  0
ELLIPSE
  5
42A
100
AcDbEntity
  8
RACCORDO
100
AcDbEllipse
 62
7
  6
CONTINUOUS
 10
-3.9844956041
 20
-19.1869536879
 30
0.0
 11
-0.1341371037
 21
0.2683722998
 31
0.0
 40
0.6123537661
 41
-1.7529559873
 42
-0.6845550499
  0
ELLIPSE
  5
42B
100
AcDbEntity
  8
RACCORDO
100
AcDbEllipse
 62
7
  6
CONTINUOUS
 10
0.6824091518
 20
-21.5204060658
 30
0.0
 11
-0.1341371037
 21
0.2683722998
 31
0.0
 40
0.6123537661
 41
-0.6845550499
 42
0.3838458874
  0
ELLIPSE
  5
42C
100
AcDbEntity
  8
RACCORDO
100
AcDbEllipse
 62
7
  6
CONTINUOUS
 10
3.0910387463
 20
-22.7247208631
 30
0.0
 11
-0.1341484654
 21
0.2683369961
 31
0.0
 40
0.6125552124
 41
-1.7532033366
 42
-0.6848044477
  0
ELLIPSE
  5
42D
100
AcDbEntity
  8
RACCORDO
100
AcDbEllipse
 62
7
  6
CONTINUOUS
 10
-25.8793568713
 20
17.2825282569
 30
0.0
 11
-0.1341484654
 21
0.2683369961
 31
0.0
 40
0.6125552124
 41
-2.255296188
 42
-0.8469459614
  0
ELLIPSE
  5
42E
100
AcDbEntity
  8
ASSI
100
AcDbEllipse
 62
7
  6
CONTINUOUS
 10
-11.1895731929
 20
-13.4081023757
 30
0.0
 11
0.0823576675
 21
0.1823694112
 31
0.0
 40
0.5796795686
 41
0.6094740628
 42
0.6618339404
  0
ELLIPSE
  5
42F
100
AcDbEntity
  8
RACCORDO
100
AcDbEllipse
 62
7
  6
CONTINUOUS
 10
16.7690884238
 20
-29.5637457018
 30
0.0
 11
-0.1341371037
 21
0.2683722998
 31
0.0
 40
0.6123537661
 41
-0.6845550499
 42
0.3838458874
  0
ELLIPSE
  5
430
100
AcDbEntity
  8
RACCORDO
100
AcDbEllipse
 62
7
  6
CONTINUOUS
 10
9.5167773781
 20
-25.937590179
 30
0.0
 11
-0.1342205464
 21
0.2684010681
 31
0.0
 40
0.6121897086
 41
-0.6846338794
 42
0.3837650063
  0
ELLIPSE
  5
431
100
AcDbEntity
  8
RACCORDO
100
AcDbEllipse
 62
7
  6
CONTINUOUS
 10
11.7486302773
 20
-27.0535166286
 30
0.0
 11
-0.1341371037
 21
0.2683722998
 31
0.0
 40
0.6123537661
 41
-1.7529559873
 42
-0.6845550499
  0
ELLIPSE
  5
432
100
AcDbEntity
  8
RACCORDO
100
AcDbEllipse
 62
7
  6
CONTINUOUS
 10
-15.0507167296
 20
-13.6538431251
 30
0.0
 11
-0.1341371037
 21
0.2683722998
 31
0.0
 40
0.6123537661
 41
-0.6845550499
 42
0.3838458874
  0
ELLIPSE
  5
433
100
AcDbEntity
  8
RACCORDO
100
AcDbEllipse
 62
7
  6
CONTINUOUS
 10
-12.8188638304
 20
-14.7697695747
 30
0.0
 11
-0.1341484654
 21
0.2683369961
 31
0.0
 40
0.6125552124
 41
-1.7532033366
 42
-0.6848044477
  0
ELLIPSE
  5
434
100
AcDbEntity
  8
RACCORDO
100
AcDbEllipse
 62
7
  6
CONTINUOUS
 10
-25.8793568713
 20
-1.7700306263
 30
0.0
 11
-0.1341484654
 21
0.2683369961
 31
0.0
 40
0.6125552124
 41
-2.255296188
 42
-0.8469459614
  0
ELLIPSE
  5
435
100
AcDbEntity
  8
RACCORDO
100
AcDbEllipse
 62
7
  6
CONTINUOUS
 10
-20.0711748761
 20
-11.1436140519
 30
0.0
 11
-0.1341371037
 21
0.2683722998
 31
0.0
 40
0.6123537661
 41
-1.7529559873
 42
-0.6845550499
  0
ELLIPSE
  5
436
100
AcDbEntity
  8
RACCORDO
100
AcDbEllipse
 62
7
  6
CONTINUOUS
 10
-26.3110264968
 20
4.6808658091
 30
0.0
 11
-0.1341484654
 21
0.2683369961
 31
0.0
 40
0.6125552124
 41
-2.255296188
 42
-0.6848044477
  0
ELLIPSE
  5
437
100
AcDbEntity
  8
RACCORDO
100
AcDbEllipse
 62
7
  6
CONTINUOUS
 10
-26.3110264968
 20
23.7334246923
 30
0.0
 11
-0.1341484654
 21
0.2683369961
 31
0.0
 40
0.6125552124
 41
-2.255296188
 42
-0.6848044477
  0
ELLIPSE
  5
438
100
AcDbEntity
  8
RACCORDO
100
AcDbEllipse
 62
7
  6
CONTINUOUS
 10
-26.3110264968
 20
18.2846637439
 30
0.0
 11
-0.1342205464
 21
0.2684010681
 31
0.0
 40
0.6121897086
 41
2.4569587742
 42
4.0274505145
  0
ELLIPSE
  5
439
100
AcDbEntity
  8
RACCORDO
100
AcDbEllipse
 62
7
  6
CONTINUOUS
 10
-26.3110264968
 20
-0.7678951393
 30
0.0
 11
-0.1342205464
 21
0.2684010681
 31
0.0
 40
0.6121897086
 41
2.4569587742
 42
4.0274505145
  0
ELLIPSE
  5
43A
100
AcDbEntity
  8
ASSI
100
AcDbEllipse
 62
7
  6
CONTINUOUS
 10
-11.3311886282
 20
-13.8494953755
 30
0.0
 11
0.1997674032
 21
0.1243735635
 31
0.0
 40
0.0775313764
 41
5.4495541764
 42
6.9679906257
  0
ELLIPSE
  5
43B
100
AcDbEntity
  8
RACCORDO
100
AcDbEllipse
 62
7
  6
CONTINUOUS
 10
8.1040913358
 20
-25.6645811444
 30
0.0
 11
-0.1341484654
 21
0.2683369961
 31
0.0
 40
0.6125552124
 41
4.4548343439
 42
5.5983808594
  0
ELLIPSE
  5
43C
100
AcDbEntity
  8
RACCORDO
100
AcDbEllipse
 62
7
  6
CONTINUOUS
 10
3.6551966512
 20
-23.440133802
 30
0.0
 11
-0.1342205464
 21
0.2684010681
 31
0.0
 40
0.6121897086
 41
-0.6846338794
 42
0.6678777033
  0
ELLIPSE
  5
43D
100
AcDbEntity
  8
RACCORDO
100
AcDbEllipse
 62
7
  6
CONTINUOUS
 10
-7.8058112409
 20
-17.709629856
 30
0.0
 11
-0.1341484654
 21
0.2683369961
 31
0.0
 40
0.6125552124
 41
4.4548343439
 42
5.5983808594
  0
ELLIPSE
  5
43E
100
AcDbEntity
  8
RACCORDO
100
AcDbEllipse
 62
7
  6
CONTINUOUS
 10
-12.2547059255
 20
-15.4851825137
 30
0.0
 11
-0.1342205464
 21
0.2684010681
 31
0.0
 40
0.6121897086
 41
-0.6846338794
 42
0.6678777033
  0
ELLIPSE
  5
43F
100
AcDbEntity
  8
RACCORDO
100
AcDbEllipse
 62
7
  6
CONTINUOUS
 10
-25.8793568713
 20
6.0998598079
 30
0.0
 11
-0.1342205464
 21
0.2684010681
 31
0.0
 40
0.6121897086
 41
2.6191002879
 42
4.0274505145
  0
ELLIPSE
  5
440
100
AcDbEntity
  8
RACCORDO
100
AcDbEllipse
 62
7
  6
CONTINUOUS
 10
-25.8793568713
 20
25.1524186912
 30
0.0
 11
-0.1342205464
 21
0.2684010681
 31
0.0
 40
0.6121897086
 41
2.6191002879
 42
4.0274505145
  0
ENDSEC
  0
SECTION
  2
OBJECTS
  0
DICTIONARY
  5
C
100
AcDbDictionary
280
0
281
1
  3
ACAD_GROUP
350
D
  3
ACAD_MLINESTYLE
350
17
  3
ACAD_LAYOUT
350
1A
  3
ACAD_PLOTSETTINGS
350
19
  3
ACAD_PLOTSTYLENAME
350
E
  0
DICTIONARY
  5
D
102
{ACAD_REACTORS
330
C
102
}
100
AcDbDictionary
280
0
281
1
  0
ACDBDICTIONARYWDFLT
  5
E
102
{ACAD_REACTORS
330
C
102
}
100
AcDbDictionary
281
1
  3
Normal
350
F
100
AcDbDictionaryWithDefault
340
F
  0
DICTIONARY
  5
17
102
{ACAD_REACTORS
330
C
102
}
100
AcDbDictionary
280
0
281
1
  3
Standard
350
18
  0
DICTIONARY
  5
19
102
{ACAD_REACTORS
330
C
102
}
100
AcDbDictionary
281
1
  0
DICTIONARY
  5
1A
102
{ACAD_REACTORS
330
C
102
}
100
AcDbDictionary
281
1
  3
Model
350
441
  3
Layout1
350
442
  0
ACDBPLACEHOLDER
  5
F
102
{ACAD_REACTORS
330
E
102
}
  0
MLINESTYLE
  5
18
102
{ACAD_REACTORS
330
17
102
}
100
AcDbMlineStyle
  2
STANDARD
 70
0
  3

 62
256
 51
90.0
 52
90.0
 71
2
 49
0.5
 62
256
  6
BYLAYER
 49
-0.5
 62
256
  6
BYLAYER
  0
LAYOUT
  5
441
102
{ACAD_REACTORS
330
1A
102
}
100
AcDbPlotSettings
  1

  2
none_device
  4
ISO_A4_(297.00_x_210.00_MM)
  6

 40
0.0
 41
0.0
 42
0.0
 43
0.0
 44
297.0
 45
210.0
 46
0.0
 47
0.0
 48
0.0
 49
0.0
140
0.0
141
0.0
142
1.0
143
1.0
 70
1024
 72
1
 73
0
 74
0
  7

 75
0
147
1.0
148
0.0
149
0.0
100
AcDbLayout
  1
Model
 70
0
 71
0
 10
0.0
 20
0.0
 11
297.0
 21
210.0
 12
0.0
 22
0.0
 32
0.0
 14
0.0
 24
0.0
 34
0.0
 15
0.0
 25
0.0
 35
0.0
146
0.0
 13
0.0
 23
0.0
 33
0.0
 16
1.0
 26
0.0
 36
0.0
 17
0.0
 27
1.0
 37
0.0
 76
0
330
212
345
0
346
0
  0
LAYOUT
  5
442
102
{ACAD_REACTORS
330
1A
102
}
100
AcDbPlotSettings
  1

  2
none_device
  4
ISO_A4_(297.00_x_210.00_MM)
  6

 40
0.0
 41
0.0
 42
0.0
 43
0.0
 44
297.0
 45
210.0
 46
0.0
 47
0.0
 48
0.0
 49
0.0
140
0.0
141
0.0
142
1.0
143
1.0
 70
0
 72
1
 73
0
 74
0
  7

 75
0
147
1.0
148
0.0
149
0.0
100
AcDbLayout
  1
Layout1
 70
0
 71
1
 10
0.0
 20
0.0
 11
297.0
 21
210.0
 12
0.0
 22
0.0
 32
0.0
 14
0.0
 24
0.0
 34
0.0
 15
0.0
 25
0.0
 35
0.0
146
0.0
 13
0.0
 23
0.0
 33
0.0
 16
1.0
 26
0.0
 36
0.0
 17
0.0
 27
1.0
 37
0.0
 76
0
330
213
345
0
346
0
  0
ENDSEC
  0
EOF
