  0
SECTION
  2
HEADER
  9
$ACADVER
  1
AC1015
  9
$DWGCODEPAGE
  3
ANSI_1252
  9
$EXTMAX
 10
297.0
 20
210.0
 30
0.0
  9
$EXTMIN
 10
0.0
 20
0.0
 30
0.0
  9
$LIMMIN
 10
0.0
 20
0.0
  9
$LIMMAX
 10
297.0
 20
210.0
  9
$VIEWCTR
 10
148.5
 20
105.0
  9
$VIEWSIZE
 40
210.0
  9
$CLAYER
  8
0
  9
$LTSCALE
 40
16.335
  9
$CELTYPE
  6
BYLAYER
  9
$DIMSCALE
 40
1.0
  9
$DIMASZ
 40
3.0
  9
$DIMEXO
 40
0.5
  9
$DIMDLI
 40
11.286
  9
$DIMEXE
 40
1.5
  9
$DIMCEN
 40
2.673
  9
$DIMLFAC
 40
1.0
  9
$DIMBLK
  1
_FILLED
  9
$DIMTXT
 40
3.0
  9
$DIMTOL
 70
1
  9
$DIMLIM
 70
0
  9
$DIMTFAC
 40
1.0
  9
$DIMTP
 40
0.01
  9
$DIMTM
 40
0.01
  9
$DIMGAP
 40
0.625
  9
$DIMDSEP
 70
44
  9
$PDMODE
 70
3
  9
$PDSIZE
 40
3.0
  9
$HANDSEED
  5
46E
  9
$TILEMODE
 70
1
  9
$MEASUREMENT
 70
1
  9
$INSUNITS
 70
4
  0
ENDSEC
  0
SECTION
  2
CLASSES
  0
CLASS
  1
ACDBDICTIONARYWDFLT
  2
AcDbDictionaryWithDefault
  3
AutoCAD 2000
 90
0
280
0
281
0
  0
CLASS
  1
ACDBPLACEHOLDER
  2
AcDbPlaceHolder
  3
AutoCAD 2000
 90
0
280
0
281
0
  0
CLASS
  1
LAYOUT
  2
AcDbLayout
  3
AutoCAD 2000
 90
0
280
0
281
0
  0
ENDSEC
  0
SECTION
  2
TABLES
  0
TABLE
  2
VPORT
  5
8
100
AcDbSymbolTable
 70
2
  0
VPORT
  5
1F4
100
AcDbSymbolTableRecord
100
AcDbViewportTableRecord
  2
*ACTIVE
 70
0
 10
0.0
 20
0.0
 11
1.0
 21
1.0
 12
148.5
 22
105.0
 13
0.0
 23
0.0
 14
1.0
 24
1.0
 15
0.0
 25
0.0
 16
0.0
 26
0.0
 36
1.0
 17
0.0
 27
0.0
 37
0.0
 40
210.0
 41
1.4142857143
 42
50.0
 43
0.0
 44
0.0
 50
0.0
 51
0.0
 71
0
 72
100
 73
1
 74
1
 75
0
 76
0
 77
0
 78
0
  0
ENDTAB
  0
TABLE
  2
LTYPE
  5
5
100
AcDbSymbolTable
 70
6
  0
LTYPE
  5
14
100
AcDbSymbolTableRecord
100
AcDbLinetypeTableRecord
  2
BYBLOCK
 70
0
  3

 72
65
 73
0
 40
0.0
  0
LTYPE
  5
15
100
AcDbSymbolTableRecord
100
AcDbLinetypeTableRecord
  2
BYLAYER
 70
0
  3

 72
65
 73
0
 40
0.0
  0
LTYPE
  5
16
100
AcDbSymbolTableRecord
100
AcDbLinetypeTableRecord
  2
CONTINUOUS
 70
64
  3
Solid line
 72
65
 73
0
 40
0.0
  0
LTYPE
  5
1F5
100
AcDbSymbolTableRecord
100
AcDbLinetypeTableRecord
  2
CENTER
 70
64
  3
____ _ ____ _ ____ _ ____ _ ____ _ ____ _ ____
 72
65
 73
4
 40
0.6
 49
0.375
 74
0
 49
-0.075
 74
0
 49
0.075
 74
0
 49
-0.075
 74
0
  0
LTYPE
  5
1F6
100
AcDbSymbolTableRecord
100
AcDbLinetypeTableRecord
  2
HIDDEN
 70
64
  3
- - - - - - - - - - - - - - - - - - - -
 72
65
 73
2
 40
0.2
 49
0.1
 74
0
 49
-0.1
 74
0
  0
LTYPE
  5
1F7
100
AcDbSymbolTableRecord
100
AcDbLinetypeTableRecord
  2
PHANTOM
 70
64
  3
_____ _ _ _____ _ _ _____ _ _ _____
 72
65
 73
6
 40
0.8
 49
0.45
 74
0
 49
-0.05
 74
0
 49
0.1
 74
0
 49
-0.05
 74
0
 49
0.1
 74
0
 49
-0.05
 74
0
  0
LTYPE
  5
1F8
100
AcDbSymbolTableRecord
100
AcDbLinetypeTableRecord
  2
DOT
 70
64
  3
. . . . . . . . . . . . . . . . . . . .
 72
65
 73
2
 40
0.2
 49
0.1
 74
0
 49
-0.1
 74
0
  0
LTYPE
  5
1F9
100
AcDbSymbolTableRecord
100
AcDbLinetypeTableRecord
  2
DASHED
 70
64
  3
- - - - - - - - - - - - - - - - - - - -
 72
65
 73
2
 40
0.2
 49
0.1
 74
0
 49
-0.1
 74
0
  0
ENDTAB
  0
TABLE
  2
LAYER
  5
2
100
AcDbSymbolTable
 70
36
  0
LAYER
  5
10
100
AcDbSymbolTableRecord
100
AcDbLayerTableRecord
  2
0
 70
0
 62
7
  6
CONTINUOUS
370
-3
390
F
  0
LAYER
  5
1FA
100
AcDbSymbolTableRecord
100
AcDbLayerTableRecord
  2
DEFAULT_1
 70
0
 62
7
  6
CENTER
370
-3
390
F
  0
LAYER
  5
1FB
100
AcDbSymbolTableRecord
100
AcDbLayerTableRecord
  2
DEFAULT_2
 70
0
 62
7
  6
HIDDEN
370
-3
390
F
  0
LAYER
  5
1FC
100
AcDbSymbolTableRecord
100
AcDbLayerTableRecord
  2
DEFAULT_3
 70
0
 62
7
  6
PHANTOM
370
-3
390
F
  0
LAYER
  5
1FD
100
AcDbSymbolTableRecord
100
AcDbLayerTableRecord
  2
ASSI
 70
0
 62
7
  6
CONTINUOUS
370
-3
390
F
  0
LAYER
  5
1FE
100
AcDbSymbolTableRecord
100
AcDbLayerTableRecord
  2
COORDINATE
 70
0
 62
7
  6
CONTINUOUS
370
-3
390
F
  0
LAYER
  5
1FF
100
AcDbSymbolTableRecord
100
AcDbLayerTableRecord
  2
COORD_ORIGINE
 70
0
 62
7
  6
CONTINUOUS
370
-3
390
F
  0
LAYER
  5
200
100
AcDbSymbolTableRecord
100
AcDbLayerTableRecord
  2
COPY_PUBLISH
 70
0
 62
7
  6
CONTINUOUS
370
-3
390
F
  0
LAYER
  5
201
100
AcDbSymbolTableRecord
100
AcDbLayerTableRecord
  2
COSMETIC
 70
0
 62
7
  6
CONTINUOUS
370
-3
390
F
  0
LAYER
  5
202
100
AcDbSymbolTableRecord
100
AcDbLayerTableRecord
  2
CURVE
 70
0
 62
7
  6
CONTINUOUS
370
-3
390
F
  0
LAYER
  5
203
100
AcDbSymbolTableRecord
100
AcDbLayerTableRecord
  2
DRAFT
 70
0
 62
7
  6
CONTINUOUS
370
-3
390
F
  0
LAYER
  5
204
100
AcDbSymbolTableRecord
100
AcDbLayerTableRecord
  2
IMPORT_IGES
 70
0
 62
7
  6
CONTINUOUS
370
-3
390
F
  0
LAYER
  5
205
100
AcDbSymbolTableRecord
100
AcDbLayerTableRecord
  2
INTFCLR_2
 70
0
 62
7
  6
CONTINUOUS
370
-3
390
F
  0
LAYER
  5
206
100
AcDbSymbolTableRecord
100
AcDbLayerTableRecord
  2
PIANI
 70
0
 62
7
  6
CONTINUOUS
370
-3
390
F
  0
LAYER
  5
207
100
AcDbSymbolTableRecord
100
AcDbLayerTableRecord
  2
PIANI_ORIGINE
 70
0
 62
7
  6
CONTINUOUS
370
-3
390
F
  0
LAYER
  5
208
100
AcDbSymbolTableRecord
100
AcDbLayerTableRecord
  2
PIANI_RIFERIMENTO
 70
0
 62
7
  6
CONTINUOUS
370
-3
390
F
  0
LAYER
  5
209
100
AcDbSymbolTableRecord
100
AcDbLayerTableRecord
  2
PUNTI
 70
0
 62
7
  6
CONTINUOUS
370
-3
390
F
  0
LAYER
  5
20A
100
AcDbSymbolTableRecord
100
AcDbLayerTableRecord
  2
RACCORDO
 70
0
 62
7
  6
CONTINUOUS
370
-3
390
F
  0
LAYER
  5
20B
100
AcDbSymbolTableRecord
100
AcDbLayerTableRecord
  2
SMUSSO
 70
0
 62
7
  6
CONTINUOUS
370
-3
390
F
  0
LAYER
  5
20C
100
AcDbSymbolTableRecord
100
AcDbLayerTableRecord
  2
SNAPLINE
 70
0
 62
7
  6
CONTINUOUS
370
-3
390
F
  0
LAYER
  5
20D
100
AcDbSymbolTableRecord
100
AcDbLayerTableRecord
  2
SUPERFICI
 70
0
 62
7
  6
CONTINUOUS
370
-3
390
F
  0
LAYER
  5
20E
100
AcDbSymbolTableRecord
100
AcDbLayerTableRecord
  2
TRASH
 70
0
 62
7
  6
CONTINUOUS
370
-3
390
F
  0
LAYER
  5
20F
100
AcDbSymbolTableRecord
100
AcDbLayerTableRecord
  2
XSEC_DATUMS
 70
0
 62
7
  6
CONTINUOUS
370
-3
390
F
  0
ENDTAB
  0
TABLE
  2
STYLE
  5
3
100
AcDbSymbolTable
 70
1
  0
STYLE
  5
11
100
AcDbSymbolTableRecord
100
AcDbTextStyleTableRecord
  2
STANDARD
 70
0
 40
0.0
 41
0.8
 50
0.0
 71
0
 42
0.2
  3
txt
  4

  0
STYLE
  5
210
100
AcDbSymbolTableRecord
100
AcDbTextStyleTableRecord
  2
TEXTSTYLE_1
 70
0
 40
0.0
 41
0.8
 50
0.0
 71
0
 42
0.2
  3
gdt
  4

  0
ENDTAB
  0
TABLE
  2
VIEW
  5
6
100
AcDbSymbolTable
 70
0
  0
ENDTAB
  0
TABLE
  2
UCS
  5
7
100
AcDbSymbolTable
 70
0
  0
ENDTAB
  0
TABLE
  2
APPID
  5
9
100
AcDbSymbolTable
 70
1
  0
APPID
  5
211
100
AcDbSymbolTableRecord
100
AcDbRegAppTableRecord
  2
ACAD
 70
0
  0
ENDTAB
  0
TABLE
  2
BLOCK_RECORD
  5
1
100
AcDbSymbolTable
 70
0
  0
BLOCK_RECORD
  5
212
100
AcDbSymbolTableRecord
100
AcDbBlockTableRecord
  2
*Model_Space
  0
BLOCK_RECORD
  5
213
100
AcDbSymbolTableRecord
100
AcDbBlockTableRecord
  2
*Paper_Space
  0
ENDTAB
  0
TABLE
  2
DIMSTYLE
  5
A
100
AcDbSymbolTable
 70
1
100
AcDbDimStyleTable
 71
0
  0
DIMSTYLE
105
214
100
AcDbSymbolTableRecord
100
AcDbDimStyleTableRecord
  2
STANDARD
 70
0
  3

  4

 40
1.0
 41
3.0
 42
0.5
 43
0.38
 44
1.5
 45
0.0
 46
0.0
 47
0.01
 48
0.01
140
3.0
141
0.09
142
0.0
143
25.4
144
1.0
145
0.0
146
1.0
147
0.625
 71
1.0
 72
0.0
 73
0
 74
0
 75
0
 76
0
 77
1
 78
8
170
0
171
2
172
0
173
0
174
0
175
0
176
0
177
0
178
0
270
2
271
2
272
2
273
2
274
2
275
0
280
0
281
0
282
0
283
1
284
8
285
0
286
0
287
3
288
0
340
11
278
44
  0
ENDTAB
  0
ENDSEC
  0
SECTION
  2
BLOCKS
  0
BLOCK
  5
20
100
AcDbEntity
  8
0
100
AcDbBlockBegin
  2
*Model_Space
 70
0
 10
0.0
 20
0.0
 30
0.0
  3
*Model_Space
  1

  0
ENDBLK
  5
21
100
AcDbEntity
  8
0
100
AcDbBlockEnd
  0
BLOCK
  5
1C
100
AcDbEntity
  8
0
100
AcDbBlockBegin
  2
*Paper_Space
 70
0
 10
0.0
 20
0.0
 30
0.0
  3
*Paper_Space
  1

  0
ENDBLK
  5
1D
100
AcDbEntity
  8
0
100
AcDbBlockEnd
  0
ENDSEC
  0
SECTION
  2
ENTITIES
  0
LWPOLYLINE
  5
215
100
AcDbEntity
  8
SMUSSO
100
AcDbPolyline
 62
7
  6
CONTINUOUS
 90
15
 70
0
 10
-36.1599166775
 20
57.4621280785
 10
-36.1789314268
 20
57.4519269849
 10
-36.2127041473
 20
57.4300727905
 10
-36.2443352884
 20
57.4045260362
 10
-36.2736897246
 20
57.3753959553
 10
-36.3006420783
 20
57.3428071259
 10
-36.3250777197
 20
57.3068987063
 10
-36.3468912321
 20
57.2678248515
 10
-36.365987183
 20
57.2257538934
 10
-36.3822813867
 20
57.1808671928
 10
-36.3957064579
 20
57.1333557671
 10
-36.4062100828
 20
57.0834204813
 10
-36.4137490028
 20
57.0312743069
 10
-36.4182892067
 20
56.9771414057
 10
-36.4198112733
 20
56.921253573
  0
LINE
  5
216
100
AcDbEntity
  8
DRAFT
100
AcDbLine
 62
7
  6
CONTINUOUS
 10
-33.4733130757
 20
58.4404831868
 11
-31.3741137559
 21
59.5486705361
  0
LINE
  5
217
100
AcDbEntity
  8
DRAFT
100
AcDbLine
 62
7
  6
CONTINUOUS
 10
-32.8152688458
 20
58.4048474318
 11
-30.6922463464
 21
59.5117446599
  0
LINE
  5
218
100
AcDbEntity
  8
RACCORDO
100
AcDbLine
 62
7
  6
CONTINUOUS
 10
-36.1599168491
 20
57.4621279927
 11
-34.3921511347
 21
58.3460108499
  0
LINE
  5
219
100
AcDbEntity
  8
SMUSSO
100
AcDbLine
 62
7
  6
CONTINUOUS
 10
-35.7127044921
 20
57.4337255862
 11
-33.9449375392
 21
58.3176090627
  0
LWPOLYLINE
  5
21A
100
AcDbEntity
  8
DRAFT
100
AcDbPolyline
 62
7
  6
CONTINUOUS
 90
12
 70
0
 10
-31.3741137559
 20
59.5486705361
 10
-31.3379353477
 20
59.5661472751
 10
-31.2815175646
 20
59.5874528733
 10
-31.2225764317
 20
59.6028715968
 10
-31.161364344
 20
59.6123374201
 10
-31.098143421
 20
59.6158098092
 10
-31.0331843843
 20
59.6132738947
 10
-30.9667653987
 20
59.6047405359
 10
-30.8991708803
 20
59.5902462739
 10
-30.8306902795
 20
59.5698531753
 10
-30.7616168405
 20
59.5436485666
 10
-30.6922463464
 20
59.5117446599
  0
LWPOLYLINE
  5
21B
100
AcDbEntity
  8
DRAFT
100
AcDbPolyline
 62
7
  6
CONTINUOUS
 90
12
 70
0
 10
-33.4733130757
 20
58.4404831868
 10
-33.438398675
 20
58.4573493205
 10
-33.3839520245
 20
58.4779105409
 10
-33.3270701852
 20
58.492790563
 10
-33.267996734
 20
58.5019256682
 10
-33.2069846325
 20
58.5052767385
 10
-33.1442951438
 20
58.5028294243
 10
-33.0801967141
 20
58.4945942052
 10
-33.0149638224
 20
58.4806063458
 10
-32.9488758062
 20
58.4609257442
 10
-32.8822156645
 20
58.4356366757
 10
-32.8152688461
 20
58.404847432
  0
LWPOLYLINE
  5
21C
100
AcDbEntity
  8
SMUSSO
100
AcDbPolyline
 62
7
  6
CONTINUOUS
 90
12
 70
0
 10
-34.3921511392
 20
58.3460108476
 10
-34.3753964964
 20
58.353877639
 10
-34.3377845885
 20
58.368081342
 10
-34.2984904001
 20
58.3783604639
 10
-34.2576822287
 20
58.3846709699
 10
-34.2155349305
 20
58.3869858339
 10
-34.1722290967
 20
58.38529518
 10
-34.1279500794
 20
58.3796062858
 10
-34.0828872933
 20
58.3699434887
 10
-34.0372336313
 20
58.3563481193
 10
-33.9911846508
 20
58.3388783824
 10
-33.9449375392
 20
58.3176090627
  0
LWPOLYLINE
  5
21D
100
AcDbEntity
  8
DRAFT
100
AcDbPolyline
 62
7
  6
CONTINUOUS
 90
8
 70
0
 10
-33.7127530751
 20
58.2015168306
 10
-33.7017347679
 20
58.2212543264
 10
-33.6663633674
 20
58.2732343672
 10
-33.6273474494
 20
58.3204096645
 10
-33.5848540861
 20
58.3625782063
 10
-33.5390652407
 20
58.3995594206
 10
-33.490176988
 20
58.4311949481
 10
-33.4733130757
 20
58.4404831868
  0
LINE
  5
21E
100
AcDbEntity
  8
SMUSSO
100
AcDbLine
 62
7
  6
CONTINUOUS
 10
-36.4198112733
 20
56.2141467918
 11
-35.7127044921
 21
57.4337255862
  0
LINE
  5
21F
100
AcDbEntity
  8
DRAFT
100
AcDbLine
 62
7
  6
CONTINUOUS
 10
-33.1083688432
 20
57.8993247146
 11
-32.8152688461
 21
58.404847432
  0
LINE
  5
220
100
AcDbEntity
  8
SMUSSO
100
AcDbLine
 62
7
  6
CONTINUOUS
 10
29.6239620895
 20
-57.6945126031
 11
31.0381756519
 21
-57.6945126031
  0
LINE
  5
221
100
AcDbEntity
  8
DRAFT
100
AcDbLine
 62
7
  6
CONTINUOUS
 10
32.8412979439
 20
-55.9277287553
 11
33.4742897339
 21
-55.9277287534
  0
LWPOLYLINE
  5
222
100
AcDbEntity
  8
RACCORDO
100
AcDbPolyline
 62
7
  6
CONTINUOUS
 90
16
 70
0
 10
-29.4648726977
 20
34.7476113492
 10
-29.4867779815
 20
34.7347983606
 10
-29.508408896
 20
34.7193592263
 10
-29.5295336785
 20
34.7014593675
 10
-29.5499259895
 20
34.681290571
 10
-29.569367337
 20
34.6590689335
 10
-29.5876494185
 20
34.6350325468
 10
-29.6045763623
 20
34.6094389299
 10
-29.619966794
 20
34.5825623188
 10
-29.633655789
 20
34.5546907354
 10
-29.6454966914
 20
34.5261228043
 10
-29.6553626406
 20
34.4971646224
 10
-29.6631479235
 20
34.4681265363
 10
-29.6687691523
 20
34.439319691
 10
-29.6721661388
 20
34.4110526942
 10
-29.673302519
 20
34.3836283888
  0
LWPOLYLINE
  5
223
100
AcDbEntity
  8
RACCORDO
100
AcDbPolyline
 62
7
  6
CONTINUOUS
 90
13
 70
0
 10
-29.786690425
 20
34.7628961732
 10
-29.8063058126
 20
34.7516615673
 10
-29.8441196615
 20
34.7260277935
 10
-29.8795493286
 20
34.6963898954
 10
-29.9122209013
 20
34.6629305777
 10
-29.9417709686
 20
34.6259079255
 10
-29.9680976808
 20
34.585308645
 10
-29.9909225466
 20
34.5413044879
 10
-30.0099397654
 20
34.494167847
 10
-30.0249977986
 20
34.4438535293
 10
-30.0358679123
 20
34.3903960536
 10
-30.0422497168
 20
34.33403052
 10
-30.0439600674
 20
34.2847773137
  0
LINE
  5
224
100
AcDbEntity
  8
RACCORDO
100
AcDbLine
 62
7
  6
CONTINUOUS
 10
-29.7867311383
 20
34.7628758862
 11
-29.5036811324
 21
34.9155878889
  0
LINE
  5
225
100
AcDbEntity
  8
RACCORDO
100
AcDbLine
 62
7
  6
CONTINUOUS
 10
-29.4648726991
 20
34.7476113499
 11
-29.1833294325
 21
34.8995104013
  0
LWPOLYLINE
  5
226
100
AcDbEntity
  8
SMUSSO
100
AcDbPolyline
 62
7
  6
CONTINUOUS
 90
4
 70
0
 10
-35.8541115557
 20
-25.0968828441
 10
-35.8049875705
 20
-25.1315345544
 10
-35.7589433897
 20
-25.1601161625
 10
-35.7127044921
 20
-25.1850979349
  0
LINE
  5
227
100
AcDbEntity
  8
SMUSSO
100
AcDbLine
 62
7
  6
CONTINUOUS
 10
-36.4198112733
 20
-24.6726259217
 11
-35.7127044921
 21
-25.1850979349
  0
LINE
  5
228
100
AcDbEntity
  8
SMUSSO
100
AcDbLine
 62
7
  6
CONTINUOUS
 10
-36.4198112733
 20
-24.6726259217
 11
-35.8541202739
 21
-25.0968941712
  0
LWPOLYLINE
  5
229
100
AcDbEntity
  8
SMUSSO
100
AcDbPolyline
 62
7
  6
CONTINUOUS
 90
12
 70
0
 10
30.3310688707
 20
-58.2069846163
 10
30.3773255359
 20
-58.2282490527
 10
30.4233802713
 20
-58.2457159037
 10
30.4690358883
 20
-58.2593103613
 10
30.5140948456
 20
-58.2689752304
 10
30.5583662213
 20
-58.2746681105
 10
30.6016665397
 20
-58.2763615733
 10
30.643813306
 20
-58.2740469051
 10
30.6846230907
 20
-58.267735493
 10
30.7239184376
 20
-58.2574557149
 10
30.7615299642
 20
-58.2432521471
 10
30.7782838763
 20
-58.2353856984
  0
LINE
  5
22A
100
AcDbEntity
  8
SMUSSO
100
AcDbLine
 62
7
  6
CONTINUOUS
 10
-35.7127044921
 20
-25.1850979349
 11
30.3310688707
 21
-58.2069846163
  0
LINE
  5
22B
100
AcDbEntity
  8
SMUSSO
100
AcDbLine
 62
7
  6
CONTINUOUS
 10
-36.4198112733
 20
-24.6726259217
 11
29.6239620895
 21
-57.6945126031
  0
LINE
  5
22C
100
AcDbEntity
  8
SMUSSO
100
AcDbLine
 62
7
  6
CONTINUOUS
 10
-36.4198112733
 20
-24.6726259217
 11
-36.4198112733
 21
56.921253573
  0
LINE
  5
22D
100
AcDbEntity
  8
DRAFT
100
AcDbLine
 62
7
  6
CONTINUOUS
 10
-25.5413338741
 20
24.9792294114
 11
-26.0551427613
 21
24.6939081213
  0
LINE
  5
22E
100
AcDbEntity
  8
RACCORDO
100
AcDbLine
 62
7
  6
CONTINUOUS
 10
-25.0794958955
 20
25.3241246319
 11
-25.1876450555
 21
25.265775679
  0
LINE
  5
22F
100
AcDbEntity
  8
RACCORDO
100
AcDbLine
 62
7
  6
CONTINUOUS
 10
-25.036594047
 20
25.1902501747
 11
-25.9718782357
 21
24.719001965
  0
LINE
  5
230
100
AcDbEntity
  8
RACCORDO
100
AcDbLine
 62
7
  6
CONTINUOUS
 10
-24.8244943214
 20
24.8244322607
 11
-25.7597785101
 21
24.353184051
  0
LINE
  5
231
100
AcDbEntity
  8
RACCORDO
100
AcDbLine
 62
7
  6
CONTINUOUS
 10
-25.3281088845
 20
25.772019758
 11
-24.7525493838
 21
26.0378322088
  0
LINE
  5
232
100
AcDbEntity
  8
RACCORDO
100
AcDbLine
 62
7
  6
CONTINUOUS
 10
-25.4092462291
 20
25.6082453791
 11
-24.8336867283
 21
25.8740578299
  0
LWPOLYLINE
  5
233
100
AcDbEntity
  8
RACCORDO
100
AcDbPolyline
 62
7
  6
CONTINUOUS
 90
12
 70
0
 10
-30.0424976054
 20
-10.0312169214
 10
-30.03649617
 20
-10.0906990995
 10
-30.0260416964
 20
-10.1500431865
 10
-30.0113217054
 20
-10.2090184886
 10
-29.9925234068
 20
-10.267218393
 10
-29.9697761575
 20
-10.324449355
 10
-29.9431957688
 20
-10.380398923
 10
-29.9130691665
 20
-10.4344294951
 10
-29.8794406345
 20
-10.4864062108
 10
-29.8424585553
 20
-10.53590573
 10
-29.8027388978
 20
-10.5820442315
 10
-29.7604089642
 20
-10.6246204045
  0
LWPOLYLINE
  5
234
100
AcDbEntity
  8
RACCORDO
100
AcDbPolyline
 62
7
  6
CONTINUOUS
 90
9
 70
0
 10
-30.0439701188
 20
-9.9847425463
 10
-30.0434210837
 20
-9.9938133577
 10
-30.0399415348
 20
-10.0092421272
 10
-30.0332908469
 20
-10.0244083735
 10
-30.0235402964
 20
-10.039149598
 10
-30.0107944097
 20
-10.0533078243
 10
-29.9951898048
 20
-10.0667313555
 10
-29.9768936992
 20
-10.0792763949
 10
-29.9561021532
 20
-10.090808548
  0
LWPOLYLINE
  5
235
100
AcDbEntity
  8
RACCORDO
100
AcDbPolyline
 62
7
  6
CONTINUOUS
 90
9
 70
0
 10
-30.0439701188
 20
34.2847368007
 10
-30.0434210782
 20
34.2756659457
 10
-30.0399415188
 20
34.2602371733
 10
-30.0332908202
 20
34.2450709272
 10
-30.0235402605
 20
34.2303297057
 10
-30.0107943693
 20
34.2161714868
 10
-29.9951897678
 20
34.2027479672
 10
-29.9768936751
 20
34.190202942
 10
-29.9561021532
 20
34.1786708043
  0
LINE
  5
236
100
AcDbEntity
  8
RACCORDO
100
AcDbLine
 62
7
  6
CONTINUOUS
 10
-30.043960348
 20
-9.9845843318
 11
-30.0424976054
 21
-10.0312169214
  0
LINE
  5
237
100
AcDbEntity
  8
RACCORDO
100
AcDbLine
 62
7
  6
CONTINUOUS
 10
-30.0439701188
 20
34.2847368179
 11
-30.0439701188
 21
-9.9847425304
  0
LINE
  5
238
100
AcDbEntity
  8
RACCORDO
100
AcDbLine
 62
7
  6
CONTINUOUS
 10
-29.9561021532
 20
34.1786708043
 11
-29.9561021532
 21
-10.0936050606
  0
LINE
  5
239
100
AcDbEntity
  8
RACCORDO
100
AcDbLine
 62
7
  6
CONTINUOUS
 10
-28.3036513407
 20
-8.678201474
 11
-28.3036513407
 21
31.1136129178
  0
LINE
  5
23A
100
AcDbEntity
  8
RACCORDO
100
AcDbLine
 62
7
  6
CONTINUOUS
 10
-27.9194463754
 20
-8.6950085462
 11
-27.9194463754
 21
31.0968063465
  0
LWPOLYLINE
  5
23B
100
AcDbEntity
  8
RACCORDO
100
AcDbPolyline
 62
7
  6
CONTINUOUS
 90
22
 70
0
 10
-29.9561021532
 20
34.1786708043
 10
-29.9553082221
 20
34.2040969313
 10
-29.9529904066
 20
34.2283855961
 10
-29.9491487066
 20
34.2515367987
 10
-29.9437458506
 20
34.2736801611
 10
-29.9368191101
 20
34.2946860613
 10
-29.9284802995
 20
34.3141656332
 10
-29.9187064568
 20
34.3320805943
 10
-29.907520544
 20
34.348469227
 10
-29.8951032616
 20
34.3630575122
 10
-29.8814308785
 20
34.3758162113
 10
-29.8665271258
 20
34.3867745628
 10
-29.8506438976
 20
34.3957462644
 10
-29.8337660583
 20
34.4026951397
 10
-29.8159087435
 20
34.4076573649
 10
-29.7973692538
 20
34.4105551661
 10
-29.7781287404
 20
34.4113501541
 10
-29.7582060521
 20
34.4100807179
 10
-29.7379550357
 20
34.4067842513
 10
-29.7174936402
 20
34.4014732186
 10
-29.6967039165
 20
34.3941351554
 10
-29.6755858646
 20
34.3847700616
  0
LWPOLYLINE
  5
23C
100
AcDbEntity
  8
RACCORDO
100
AcDbPolyline
 62
7
  6
CONTINUOUS
 90
19
 70
0
 10
-28.3036513407
 20
31.1136129178
 10
-28.3017393974
 20
31.1617819952
 10
-28.2967979865
 20
31.2067761775
 10
-28.2888271078
 20
31.2485954647
 10
-28.2776581512
 20
31.2874200559
 10
-28.2634597268
 20
31.323069752
 10
-28.2467376655
 20
31.3550039558
 10
-28.2274767001
 20
31.3831200275
 10
-28.2056920979
 20
31.4075206068
 10
-28.1819354906
 20
31.4279730157
 10
-28.156229375
 20
31.44442469
 10
-28.1285512545
 20
31.4569281938
 10
-28.0993852707
 20
31.4654085413
 10
-28.0687329508
 20
31.4698604029
 10
-28.0365927678
 20
31.4702891082
 10
-28.003444282
 20
31.4666356604
 10
-27.969447347
 20
31.4588803939
 10
-27.9344421093
 20
31.4470429742
 10
-27.8984285689
 20
31.4311234015
  0
LWPOLYLINE
  5
23D
100
AcDbEntity
  8
RACCORDO
100
AcDbPolyline
 62
7
  6
CONTINUOUS
 90
13
 70
0
 10
-27.8984285689
 20
-9.4009347294
 10
-27.8973300976
 20
-9.3739799136
 10
-27.8940460547
 20
-9.3462057839
 10
-27.888610452
 20
-9.3178999837
 10
-27.8810795838
 20
-9.2893556623
 10
-27.8715314442
 20
-9.2608684391
 10
-27.8600649186
 20
-9.2327333419
 10
-27.8467987607
 20
-9.2052417518
 10
-27.8318703617
 20
-9.1786783855
 10
-27.8154343277
 20
-9.1533183458
 10
-27.7976608786
 20
-9.1294242736
 10
-27.7787340854
 20
-9.1072436279
 10
-27.7588499634
 20
-9.0870061222
  0
LINE
  5
23E
100
AcDbEntity
  8
DRAFT
100
AcDbLine
 62
7
  6
CONTINUOUS
 10
-25.5413338741
 20
18.4840388831
 11
-26.0551427613
 21
18.1987175929
  0
LINE
  5
23F
100
AcDbEntity
  8
RACCORDO
100
AcDbLine
 62
7
  6
CONTINUOUS
 10
-25.5402086101
 20
18.2681055296
 11
-24.9646491094
 21
18.5581044279
  0
LINE
  5
240
100
AcDbEntity
  8
RACCORDO
100
AcDbLine
 62
7
  6
CONTINUOUS
 10
-25.7597785101
 20
18.9042648107
 11
-24.8244943214
 21
19.3362100433
  0
LINE
  5
241
100
AcDbEntity
  8
RACCORDO
100
AcDbLine
 62
7
  6
CONTINUOUS
 10
-25.8409158546
 20
18.7404904318
 11
-24.9056316659
 21
19.1724356644
  0
LINE
  5
242
100
AcDbEntity
  8
SMUSSO
100
AcDbLine
 62
7
  6
CONTINUOUS
 10
29.6239620895
 20
-57.6945126031
 11
30.3310688707
 21
-58.2069846163
  0
LINE
  5
243
100
AcDbEntity
  8
RACCORDO
100
AcDbLine
 62
7
  6
CONTINUOUS
 10
-29.7604089642
 20
-10.6246204045
 11
-29.7155667221
 21
-10.663411013
  0
LWPOLYLINE
  5
244
100
AcDbEntity
  8
RACCORDO
100
AcDbPolyline
 62
7
  6
CONTINUOUS
 90
22
 70
0
 10
-26.3500962508
 20
-7.5622822523
 10
-26.3463513166
 20
-7.5743117968
 10
-26.3418415088
 20
-7.5870567217
 10
-26.3365023069
 20
-7.6005025495
 10
-26.330213907
 20
-7.6145595637
 10
-26.3229720166
 20
-7.6292579646
 10
-26.3148739454
 20
-7.6447495251
 10
-26.305840563
 20
-7.6609713737
 10
-26.2958127675
 20
-7.6778526278
 10
-26.2848972022
 20
-7.6955097708
 10
-26.2729652192
 20
-7.7139117552
 10
-26.2600126915
 20
-7.7328309762
 10
-26.2463587065
 20
-7.7520644441
 10
-26.2319710491
 20
-7.7715339277
 10
-26.216878493
 20
-7.7909485381
 10
-26.2015892543
 20
-7.8098265157
 10
-26.1863161251
 20
-7.827950422
 10
-26.1710346455
 20
-7.8452513663
 10
-26.1559672699
 20
-7.8615476423
 10
-26.1412685967
 20
-7.8767123823
 10
-26.1270165621
 20
-7.8906550882
 10
-26.1133316383
 20
-7.9032803536
  0
LWPOLYLINE
  5
245
100
AcDbEntity
  8
RACCORDO
100
AcDbPolyline
 62
7
  6
CONTINUOUS
 90
10
 70
0
 10
-27.8984285689
 20
31.4311234015
 10
-27.8973300958
 20
31.4052670701
 10
-27.894046053
 20
31.380776993
 10
-27.8886104515
 20
31.3579068017
 10
-27.8810795853
 20
31.3368933515
 10
-27.8715314477
 20
31.3179542681
 10
-27.8600649242
 20
31.3012856944
 10
-27.8467987677
 20
31.2870602583
 10
-27.8318703693
 20
31.2754252858
 10
-27.8204774393
 20
31.2688696761
  0
LWPOLYLINE
  5
246
100
AcDbEntity
  8
RACCORDO
100
AcDbPolyline
 62
7
  6
CONTINUOUS
 90
6
 70
0
 10
-26.3505907804
 20
-7.5586493323
 10
-26.3505594807
 20
-7.5593965109
 10
-26.3504944123
 20
-7.5601333813
 10
-26.3503955409
 20
-7.5608599546
 10
-26.350262832
 20
-7.5615762414
 10
-26.3500962508
 20
-7.5622822523
  0
LWPOLYLINE
  5
247
100
AcDbEntity
  8
RACCORDO
100
AcDbPolyline
 62
7
  6
CONTINUOUS
 90
18
 70
0
 10
-24.0466420269
 20
-7.1375796646
 10
-24.0472302458
 20
-7.1187026503
 10
-24.0488996635
 20
-7.1006769105
 10
-24.0517029379
 20
-7.0824752559
 10
-24.0556871061
 20
-7.0641731293
 10
-24.0608958573
 20
-7.0458491277
 10
-24.067363296
 20
-7.0276020775
 10
-24.0751233756
 20
-7.0095180412
 10
-24.08421691
 20
-6.9916692082
 10
-24.0946664141
 20
-6.9741664113
 10
-24.1064853138
 20
-6.9571265863
 10
-24.1196987365
 20
-6.940646819
 10
-24.1343046951
 20
-6.9248585114
 10
-24.1502882592
 20
-6.909898296
 10
-24.167646643
 20
-6.8958870463
 10
-24.1863481191
 20
-6.8829684208
 10
-24.2063319196
 20
-6.8712973333
 10
-24.2134802854
 20
-6.8676029229
  0
LWPOLYLINE
  5
248
100
AcDbEntity
  8
RACCORDO
100
AcDbPolyline
 62
7
  6
CONTINUOUS
 90
7
 70
0
 10
-26.4111293125
 20
-7.5828448954
 10
-26.4111102764
 20
-7.5848511986
 10
-26.4110549971
 20
-7.5868574803
 10
-26.4109634748
 20
-7.5888637408
 10
-26.4108357093
 20
-7.5908699798
 10
-26.4106717007
 20
-7.5928761976
 10
-26.410471449
 20
-7.5948823939
  0
LINE
  5
249
100
AcDbEntity
  8
RACCORDO
100
AcDbLine
 62
7
  6
CONTINUOUS
 10
-26.4111293125
 20
30.564195611
 11
-26.4111293125
 21
-7.5828448954
  0
LINE
  5
24A
100
AcDbEntity
  8
RACCORDO
100
AcDbLine
 62
7
  6
CONTINUOUS
 10
-26.3505883454
 20
30.5339251275
 11
-26.3505883454
 21
-7.5578918345
  0
LINE
  5
24B
100
AcDbEntity
  8
RACCORDO
100
AcDbLine
 62
7
  6
CONTINUOUS
 10
-26.0551427613
 20
-7.4090299118
 11
-26.0551427613
 21
30.3862023354
  0
LINE
  5
24C
100
AcDbEntity
  8
RACCORDO
100
AcDbLine
 62
7
  6
CONTINUOUS
 10
-25.7597785101
 20
24.353184051
 11
-25.7597785101
 21
18.9042648107
  0
LINE
  5
24D
100
AcDbEntity
  8
RACCORDO
100
AcDbLine
 62
7
  6
CONTINUOUS
 10
-25.7597785101
 20
5.3006251678
 11
-25.7597785101
 21
-0.1482940725
  0
LINE
  5
24E
100
AcDbEntity
  8
RACCORDO
100
AcDbLine
 62
7
  6
CONTINUOUS
 10
-25.5413338741
 20
30.1292978918
 11
-25.5413338741
 21
24.9792294114
  0
LINE
  5
24F
100
AcDbEntity
  8
DRAFT
100
AcDbLine
 62
7
  6
CONTINUOUS
 10
-25.5413338741
 20
18.4840388831
 11
-25.5413338741
 21
5.9266705282
  0
LINE
  5
250
100
AcDbEntity
  8
RACCORDO
100
AcDbLine
 62
7
  6
CONTINUOUS
 10
-25.5413338741
 20
-0.5685200002
 11
-25.5413338741
 21
-7.1641009414
  0
LINE
  5
251
100
AcDbEntity
  8
RACCORDO
100
AcDbLine
 62
7
  6
CONTINUOUS
 10
-25.3281088845
 20
-7.3599956445
 11
-25.3281088845
 21
-1.1502712677
  0
LINE
  5
252
100
AcDbEntity
  8
RACCORDO
100
AcDbLine
 62
7
  6
CONTINUOUS
 10
-25.3281088845
 20
6.7194608747
 11
-25.3281088845
 21
17.9022876156
  0
LINE
  5
253
100
AcDbEntity
  8
RACCORDO
100
AcDbLine
 62
7
  6
CONTINUOUS
 10
-25.3281088845
 20
25.772019758
 11
-25.3281088845
 21
30.022685397
  0
LINE
  5
254
100
AcDbEntity
  8
RACCORDO
100
AcDbLine
 62
7
  6
CONTINUOUS
 10
-25.1574691275
 20
25.2820562845
 11
-25.1574691275
 21
25.250687715
  0
LINE
  5
255
100
AcDbEntity
  8
RACCORDO
100
AcDbLine
 62
7
  6
CONTINUOUS
 10
-25.1574691275
 20
6.2294974012
 11
-25.1574691275
 21
6.1981288317
  0
LINE
  5
256
100
AcDbEntity
  8
RACCORDO
100
AcDbLine
 62
7
  6
CONTINUOUS
 10
-25.0794958955
 20
25.7605350107
 11
-25.0794958955
 21
25.3241246319
  0
LINE
  5
257
100
AcDbEntity
  8
RACCORDO
100
AcDbLine
 62
7
  6
CONTINUOUS
 10
-25.0794958955
 20
19.0921394015
 11
-25.0794958955
 21
18.6155278209
  0
LINE
  5
258
100
AcDbEntity
  8
RACCORDO
100
AcDbLine
 62
7
  6
CONTINUOUS
 10
-25.0794958955
 20
6.7079761274
 11
-25.0794958955
 21
6.2715657487
  0
LINE
  5
259
100
AcDbEntity
  8
RACCORDO
100
AcDbLine
 62
7
  6
CONTINUOUS
 10
-25.0794958955
 20
-0.4370310623
 11
-25.0794958955
 21
0.0395805183
  0
LINE
  5
25A
100
AcDbEntity
  8
RACCORDO
100
AcDbLine
 62
7
  6
CONTINUOUS
 10
-24.9391657957
 20
25.8253441012
 11
-24.9391657957
 21
25.502996383
  0
LINE
  5
25B
100
AcDbEntity
  8
RACCORDO
100
AcDbLine
 62
7
  6
CONTINUOUS
 10
-24.9391657957
 20
19.156948492
 11
-24.9391657957
 21
18.5432211064
  0
LINE
  5
25C
100
AcDbEntity
  8
RACCORDO
100
AcDbLine
 62
7
  6
CONTINUOUS
 10
-24.9391657957
 20
6.7727852179
 11
-24.9391657957
 21
6.4504374997
  0
LINE
  5
25D
100
AcDbEntity
  8
RACCORDO
100
AcDbLine
 62
7
  6
CONTINUOUS
 10
-24.9391657957
 20
-0.5093377769
 11
-24.9391657957
 21
0.1043896088
  0
LINE
  5
25E
100
AcDbEntity
  8
RACCORDO
100
AcDbLine
 62
7
  6
CONTINUOUS
 10
-24.8244943214
 20
24.8244322607
 11
-24.8244943214
 21
19.3362100433
  0
LINE
  5
25F
100
AcDbEntity
  8
RACCORDO
100
AcDbLine
 62
7
  6
CONTINUOUS
 10
-24.8244943214
 20
5.7718733775
 11
-24.8244943214
 21
0.2836511601
  0
LINE
  5
260
100
AcDbEntity
  8
RACCORDO
100
AcDbLine
 62
7
  6
CONTINUOUS
 10
-24.7525493838
 20
-7.0699967462
 11
-24.7525493838
 21
-0.8602723694
  0
LINE
  5
261
100
AcDbEntity
  8
RACCORDO
100
AcDbLine
 62
7
  6
CONTINUOUS
 10
-24.7525493838
 20
6.9852733256
 11
-24.7525493838
 21
18.1922865139
  0
LINE
  5
262
100
AcDbEntity
  8
RACCORDO
100
AcDbLine
 62
7
  6
CONTINUOUS
 10
-24.7525493838
 20
26.0378322088
 11
-24.7525493838
 21
29.7349056466
  0
LINE
  5
263
100
AcDbEntity
  8
RACCORDO
100
AcDbLine
 62
7
  6
CONTINUOUS
 10
-24.1869726027
 20
-7.2605196146
 11
-24.1869726027
 21
-7.3527851367
  0
LINE
  5
264
100
AcDbEntity
  8
RACCORDO
100
AcDbLine
 62
7
  6
CONTINUOUS
 10
-24.0466425029
 20
-7.1383350389
 11
-24.0466425029
 21
-7.4229501866
  0
LWPOLYLINE
  5
265
100
AcDbEntity
  8
RACCORDO
100
AcDbPolyline
 62
7
  6
CONTINUOUS
 90
22
 70
0
 10
-26.410471449
 20
-7.5948823939
 10
-26.4131504485
 20
-7.6111447901
 10
-26.4149729137
 20
-7.6280388263
 10
-26.4158959512
 20
-7.645567849
 10
-26.4158929065
 20
-7.6637062695
 10
-26.4149159338
 20
-7.6824602214
 10
-26.4128887647
 20
-7.7018701746
 10
-26.4098284742
 20
-7.7219286848
 10
-26.4056610172
 20
-7.742561794
 10
-26.4001686254
 20
-7.7636937385
 10
-26.3933117011
 20
-7.7853510591
 10
-26.3851130383
 20
-7.8073216129
 10
-26.3754734583
 20
-7.82914624
 10
-26.364356899
 20
-7.85074516
 10
-26.3519040872
 20
-7.8718958651
 10
-26.3383361022
 20
-7.8919393513
 10
-26.3237785962
 20
-7.9106057855
 10
-26.3083183433
 20
-7.9278924344
 10
-26.2921435164
 20
-7.9435918926
 10
-26.2753913454
 20
-7.957565758
 10
-26.2581475878
 20
-7.9697298842
 10
-26.2405227128
 20
-7.9799829643
  0
LINE
  5
266
100
AcDbEntity
  8
RACCORDO
100
AcDbLine
 62
7
  6
CONTINUOUS
 10
-25.3281088845
 20
17.9022876156
 11
-24.7525493838
 21
18.1922865139
  0
LWPOLYLINE
  5
267
100
AcDbEntity
  8
ASSI
100
AcDbPolyline
 62
7
  6
CONTINUOUS
 90
4
 70
0
 10
16.7585861076
 20
-26.2803700676
 10
16.7719996467
 20
-26.2812016388
 10
16.7854267321
 20
-26.2834670314
 10
16.7988391795
 20
-26.2868509389
  0
LWPOLYLINE
  5
268
100
AcDbEntity
  8
0
100
AcDbPolyline
 62
7
  6
CONTINUOUS
 90
6
 70
0
 10
-1.4658369052
 20
-23.8396140468
 10
-1.4586554345
 20
-23.8411444634
 10
-1.4514763609
 20
-23.841615818
 10
-1.4442996843
 20
-23.8410281105
 10
-1.4371450887
 20
-23.8391613773
 10
-1.4299928901
 20
-23.8362355821
  0
LWPOLYLINE
  5
269
100
AcDbEntity
  8
0
100
AcDbPolyline
 62
7
  6
CONTINUOUS
 90
5
 70
0
 10
-1.5668286694
 20
-23.4864147581
 10
-1.578695952
 20
-23.4837252989
 10
-1.600022218
 20
-23.4772469856
 10
-1.6223597118
 20
-23.4687970528
 10
-1.6457084335
 20
-23.4583755006
  0
LWPOLYLINE
  5
26A
100
AcDbEntity
  8
0
100
AcDbPolyline
 62
7
  6
CONTINUOUS
 90
10
 70
0
 10
-1.9642550742
 20
-22.9413097039
 10
-1.9368981335
 20
-22.9494156014
 10
-1.9096491521
 20
-22.958558738
 10
-1.8825081298
 20
-22.9687391137
 10
-1.8554928777
 20
-22.9799417325
 10
-1.8285855848
 20
-22.9921815904
 10
-1.8017328182
 20
-23.0055036751
 10
-1.7749167667
 20
-23.0199229825
 10
-1.7481552415
 20
-23.0354245167
 10
-1.7214482426
 20
-23.0520082777
  0
LWPOLYLINE
  5
26B
100
AcDbEntity
  8
RACCORDO
100
AcDbPolyline
 62
7
  6
CONTINUOUS
 90
11
 70
0
 10
21.9656162838
 20
-36.5212911345
 10
21.9998123038
 20
-36.5370849052
 10
22.0499139643
 20
-36.5556986221
 10
22.1005499309
 20
-36.5692108842
 10
22.1513804311
 20
-36.5775411137
 10
22.2018115048
 20
-36.5806368363
 10
22.2513793269
 20
-36.5785500721
 10
22.2996893162
 20
-36.5714106714
 10
22.3461134459
 20
-36.5594736493
 10
22.3901627572
 20
-36.5430824108
 10
22.4008594098
 20
-36.5382867813
  0
LINE
  5
26C
100
AcDbEntity
  8
RACCORDO
100
AcDbLine
 62
7
  6
CONTINUOUS
 10
-29.5953345632
 20
-10.7408279068
 11
21.9654717967
 21
-36.5212310868
  0
LINE
  5
26D
100
AcDbEntity
  8
0
100
AcDbLine
 62
7
  6
CONTINUOUS
 10
-2.2626668637
 20
-24.3008047044
 11
-1.9539780665
 21
-24.455149103
  0
LINE
  5
26E
100
AcDbEntity
  8
0
100
AcDbLine
 62
7
  6
CONTINUOUS
 10
-1.4793540095
 20
-24.6924611315
 11
-1.1812317132
 21
-24.8415222796
  0
LINE
  5
26F
100
AcDbEntity
  8
0
100
AcDbLine
 62
7
  6
CONTINUOUS
 10
-6.4715247296
 20
-22.196375427
 11
-6.1983934216
 21
-22.332941081
  0
LINE
  5
270
100
AcDbEntity
  8
0
100
AcDbLine
 62
7
  6
CONTINUOUS
 10
-5.6061016898
 20
-22.6290869469
 11
-5.2961654739
 21
-22.7840550548
  0
LINE
  5
271
100
AcDbEntity
  8
0
100
AcDbLine
 62
7
  6
CONTINUOUS
 10
-5.129317265
 20
-22.8674791593
 11
-4.8328097139
 21
-23.0157329348
  0
LINE
  5
272
100
AcDbEntity
  8
0
100
AcDbLine
 62
7
  6
CONTINUOUS
 10
-4.402333005
 20
-23.2309712893
 11
-4.3588650299
 21
-23.2527052768
  0
LINE
  5
273
100
AcDbEntity
  8
0
100
AcDbLine
 62
7
  6
CONTINUOUS
 10
-3.926673587
 20
-23.4688009983
 11
-3.6234739775
 21
-23.6204008031
  0
LINE
  5
274
100
AcDbEntity
  8
0
100
AcDbLine
 62
7
  6
CONTINUOUS
 10
-3.574805939
 20
-23.6447348223
 11
-3.268232723
 21
-23.7980214303
  0
LINE
  5
275
100
AcDbEntity
  8
0
100
AcDbLine
 62
7
  6
CONTINUOUS
 10
-2.6803384882
 20
-24.0919685477
 11
-2.353679197
 21
-24.2552981933
  0
LINE
  5
276
100
AcDbEntity
  8
RACCORDO
100
AcDbLine
 62
7
  6
CONTINUOUS
 10
-29.673302519
 20
-10.5785657667
 11
-6.475904592
 21
-22.1772647302
  0
LINE
  5
277
100
AcDbEntity
  8
RACCORDO
100
AcDbLine
 62
7
  6
CONTINUOUS
 10
-6.181472656
 20
-22.3244806981
 11
-5.6061016898
 21
-22.6121661812
  0
LINE
  5
278
100
AcDbEntity
  8
RACCORDO
100
AcDbLine
 62
7
  6
CONTINUOUS
 10
-5.2792447083
 20
-22.775594672
 11
-5.128069782
 21
-22.8511821351
  0
LINE
  5
279
100
AcDbEntity
  8
RACCORDO
100
AcDbLine
 62
7
  6
CONTINUOUS
 10
-4.8158889483
 20
-23.007272552
 11
-4.4075140879
 21
-23.2114599822
  0
LINE
  5
27A
100
AcDbEntity
  8
RACCORDO
100
AcDbLine
 62
7
  6
CONTINUOUS
 10
-4.3419442643
 20
-23.244244894
 11
-3.9275847655
 21
-23.4514246434
  0
LINE
  5
27B
100
AcDbEntity
  8
RACCORDO
100
AcDbLine
 62
7
  6
CONTINUOUS
 10
-3.6065532118
 20
-23.6119404202
 11
-3.5680376328
 21
-23.6311982098
  0
LINE
  5
27C
100
AcDbEntity
  8
RACCORDO
100
AcDbLine
 62
7
  6
CONTINUOUS
 10
-3.2513119573
 20
-23.7895610475
 11
-2.6840807125
 21
-24.0731766699
  0
LINE
  5
27D
100
AcDbEntity
  8
RACCORDO
100
AcDbLine
 62
7
  6
CONTINUOUS
 10
-2.3367584313
 20
-24.2468378105
 11
-2.262058077
 21
-24.2841879877
  0
LINE
  5
27E
100
AcDbEntity
  8
RACCORDO
100
AcDbLine
 62
7
  6
CONTINUOUS
 10
-1.9370569565
 20
-24.4466885479
 11
-1.4834150348
 21
-24.6735095088
  0
LINE
  5
27F
100
AcDbEntity
  8
RACCORDO
100
AcDbLine
 62
7
  6
CONTINUOUS
 10
-1.1643106031
 20
-24.8330617246
 11
21.8897871846
 21
-36.3601106185
  0
LINE
  5
280
100
AcDbEntity
  8
0
100
AcDbLine
 62
7
  6
CONTINUOUS
 10
-3.182709572
 20
-23.4777460225
 11
-2.7606283419
 21
-23.6887866376
  0
LINE
  5
281
100
AcDbEntity
  8
0
100
AcDbLine
 62
7
  6
CONTINUOUS
 10
-2.8225687746
 20
-23.3768994309
 11
-3.119310378
 21
-23.2285286292
  0
LINE
  5
282
100
AcDbEntity
  8
0
100
AcDbLine
 62
7
  6
CONTINUOUS
 10
-1.9539780665
 20
-23.7434884746
 11
-1.7877978509
 21
-23.8265785824
  0
LINE
  5
283
100
AcDbEntity
  8
0
100
AcDbLine
 62
7
  6
CONTINUOUS
 10
-2.8524134044
 20
-23.2205557598
 11
-2.9778890218
 21
-23.1578179511
  0
LWPOLYLINE
  5
284
100
AcDbEntity
  8
RACCORDO
100
AcDbPolyline
 62
7
  6
CONTINUOUS
 90
22
 70
0
 10
-29.673302519
 20
-10.5785657667
 10
-29.6943869859
 20
-10.5670511703
 10
-29.715164842
 20
-10.5538235095
 10
-29.7356360874
 20
-10.5388827843
 10
-29.7559217739
 20
-10.5221228208
 10
-29.7759008497
 20
-10.5036497929
 10
-29.7952101588
 20
-10.4837822227
 10
-29.8138278179
 20
-10.4625029293
 10
-29.8317757103
 20
-10.4398290935
 10
-29.8487563297
 20
-10.4161307807
 10
-29.8647554909
 20
-10.3913860189
 10
-29.8797873791
 20
-10.36561678
 10
-29.8935970435
 20
-10.3392590453
 10
-29.9061611254
 20
-10.312305957
 10
-29.9175029836
 20
-10.2847643729
 10
-29.9274377433
 20
-10.2570908478
 10
-29.9359417548
 20
-10.2292741218
 10
-29.9430386679
 20
-10.2013254547
 10
-29.9486145568
 20
-10.1737351816
 10
-29.9526314464
 20
-10.1466667473
 10
-29.9551273118
 20
-10.119956707
 10
-29.9561021532
 20
-10.0936050606
  0
LWPOLYLINE
  5
285
100
AcDbEntity
  8
RACCORDO
100
AcDbPolyline
 62
7
  6
CONTINUOUS
 90
10
 70
0
 10
-29.5953345632
 20
-10.7408279068
 10
-29.6045764003
 20
-10.735650128
 10
-29.6199668336
 20
-10.7241639361
 10
-29.6336558268
 20
-10.709981336
 10
-29.6454967242
 20
-10.6932542974
 10
-29.6553626666
 20
-10.6741620583
 10
-29.6631479409
 20
-10.6529092559
 10
-29.6687691608
 20
-10.62972365
 10
-29.6721661409
 20
-10.6048536605
 10
-29.673302519
 20
-10.5785657667
  0
LWPOLYLINE
  5
286
100
AcDbEntity
  8
RACCORDO
100
AcDbPolyline
 62
7
  6
CONTINUOUS
 90
4
 70
0
 10
-29.7155667221
 20
-10.663411013
 10
-29.6688767107
 20
-10.6977647298
 10
-29.6206649734
 20
-10.7274227261
 10
-29.5952835959
 20
-10.7408407441
  0
LWPOLYLINE
  5
287
100
AcDbEntity
  8
RACCORDO
100
AcDbPolyline
 62
7
  6
CONTINUOUS
 90
6
 70
0
 10
-26.1133316383
 20
-7.9032803536
 10
-26.1123663521
 20
-7.9040998596
 10
-26.111338824
 20
-7.9048827423
 10
-26.1102490966
 20
-7.9056289045
 10
-26.1090972133
 20
-7.9063382489
 10
-26.1078832179
 20
-7.9070106777
  0
LINE
  5
288
100
AcDbEntity
  8
RACCORDO
100
AcDbLine
 62
7
  6
CONTINUOUS
 10
-18.954273778
 20
-10.2289817462
 11
-18.954273778
 21
-10.7170825532
  0
LWPOLYLINE
  5
289
100
AcDbEntity
  8
ASSI
100
AcDbPolyline
 62
7
  6
CONTINUOUS
 90
3
 70
0
 10
16.7988391795
 20
-26.2868509389
 10
16.8121392367
 20
-26.2912964016
 10
16.8252512868
 20
-26.2968012764
  0
LWPOLYLINE
  5
28A
100
AcDbEntity
  8
RACCORDO
100
AcDbPolyline
 62
7
  6
CONTINUOUS
 90
19
 70
0
 10
-27.7588658819
 20
-9.0869995535
 10
-27.7795627558
 20
-9.0792638797
 10
-27.7993510324
 20
-9.0693119871
 10
-27.8181227381
 20
-9.0572480135
 10
-27.8357465891
 20
-9.0432053873
 10
-27.8521392157
 20
-9.0272803709
 10
-27.8672662239
 20
-9.009517006
 10
-27.8810169696
 20
-8.9900325268
 10
-27.8932930919
 20
-8.9689447468
 10
-27.9040750227
 20
-8.9462854903
 10
-27.9132523339
 20
-8.922148938
 10
-27.9207155782
 20
-8.8966971292
 10
-27.9264374919
 20
-8.8700643728
 10
-27.9302803844
 20
-8.8423614024
 10
-27.9321542363
 20
-8.813777083
 10
-27.9320997772
 20
-8.784572312
 10
-27.9300582968
 20
-8.7549461209
 10
-27.9258738501
 20
-8.7250341798
 10
-27.9194464467
 20
-8.6950085982
  0
LWPOLYLINE
  5
28B
100
AcDbEntity
  8
RACCORDO
100
AcDbPolyline
 62
7
  6
CONTINUOUS
 90
13
 70
0
 10
-28.3036513407
 20
-8.678201474
 10
-28.2775899537
 20
-8.6897978066
 10
-28.2490122804
 20
-8.6998029577
 10
-28.2183047848
 20
-8.7080816249
 10
-28.1858827332
 20
-8.7145218534
 10
-28.152184578
 20
-8.7190365501
 10
-28.1176660291
 20
-8.7215646616
 10
-28.0827938907
 20
-8.7220719994
 10
-28.0480397485
 20
-8.7205517026
 10
-28.0138735928
 20
-8.7170243308
 10
-27.9807574621
 20
-8.7115375855
 10
-27.9491391954
 20
-8.7041656655
 10
-27.9194463754
 20
-8.6950082635
  0
LWPOLYLINE
  5
28C
100
AcDbEntity
  8
RACCORDO
100
AcDbPolyline
 62
7
  6
CONTINUOUS
 90
4
 70
0
 10
-18.8268790152
 20
-10.7652548415
 10
-18.8552344636
 20
-10.7524985457
 10
-18.8908580983
 20
-10.740131613
 10
-18.9247365766
 20
-10.7318511539
  0
LINE
  5
28D
100
AcDbEntity
  8
0
100
AcDbLine
 62
7
  6
CONTINUOUS
 10
-1.7871297898
 20
-23.5290861788
 11
-1.9642550742
 21
-23.4405235365
  0
LINE
  5
28E
100
AcDbEntity
  8
0
100
AcDbLine
 62
7
  6
CONTINUOUS
 10
-1.6457084335
 20
-23.4583755006
 11
-1.8228337179
 21
-23.3698128584
  0
LINE
  5
28F
100
AcDbEntity
  8
0
100
AcDbLine
 62
7
  6
CONTINUOUS
 10
-2.8092525397
 20
-22.2090114605
 11
-3.1090778358
 21
-22.0590988125
  0
LINE
  5
290
100
AcDbEntity
  8
0
100
AcDbLine
 62
7
  6
CONTINUOUS
 10
-3.7623193437
 20
-21.7324780585
 11
-4.0689703415
 21
-21.5791525596
  0
LINE
  5
291
100
AcDbEntity
  8
0
100
AcDbLine
 62
7
  6
CONTINUOUS
 10
-4.6855688689
 20
-21.2708532959
 11
-4.995248405
 21
-21.1160135278
  0
LINE
  5
292
100
AcDbEntity
  8
0
100
AcDbLine
 62
7
  6
CONTINUOUS
 10
-5.7211189718
 20
-20.7530782445
 11
-6.0308437627
 21
-20.598215849
  0
LINE
  5
293
100
AcDbEntity
  8
0
100
AcDbLine
 62
7
  6
CONTINUOUS
 10
-6.6055490418
 20
-20.3108632094
 11
-6.9422351072
 21
-20.1425201767
  0
LINE
  5
294
100
AcDbEntity
  8
0
100
AcDbLine
 62
7
  6
CONTINUOUS
 10
-5.2961654739
 20
-20.9654458742
 11
-5.6061016898
 21
-20.8104777662
  0
LINE
  5
295
100
AcDbEntity
  8
0
100
AcDbLine
 62
7
  6
CONTINUOUS
 10
-2.6678311835
 20
-22.1383007824
 11
-2.9676564795
 21
-21.9883881343
  0
LINE
  5
296
100
AcDbEntity
  8
0
100
AcDbLine
 62
7
  6
CONTINUOUS
 10
-3.6208979874
 20
-21.6617673804
 11
-3.9275489852
 21
-21.5084418815
  0
LINE
  5
297
100
AcDbEntity
  8
0
100
AcDbLine
 62
7
  6
CONTINUOUS
 10
-4.5441475127
 20
-21.2001426178
 11
-4.8538270488
 21
-21.0453028497
  0
LINE
  5
298
100
AcDbEntity
  8
0
100
AcDbLine
 62
7
  6
CONTINUOUS
 10
-5.5796976155
 20
-20.6823675663
 11
-5.8894224065
 21
-20.5275051708
  0
LINE
  5
299
100
AcDbEntity
  8
0
100
AcDbLine
 62
7
  6
CONTINUOUS
 10
-6.4641276856
 20
-20.2401525313
 11
-6.800813751
 21
-20.0718094986
  0
LINE
  5
29A
100
AcDbEntity
  8
0
100
AcDbLine
 62
7
  6
CONTINUOUS
 10
-5.1547441177
 20
-20.894735196
 11
-5.4646803336
 21
-20.7397670881
  0
LINE
  5
29B
100
AcDbEntity
  8
RACCORDO
100
AcDbLine
 62
7
  6
CONTINUOUS
 10
20.1126298914
 20
-33.4064639596
 11
-27.8984285689
 21
-9.4009347294
  0
LINE
  5
29C
100
AcDbEntity
  8
RACCORDO
100
AcDbLine
 62
7
  6
CONTINUOUS
 10
20.2521988242
 20
-33.092530516
 11
-27.7588647499
 21
-9.0869987289
  0
LINE
  5
29D
100
AcDbEntity
  8
RACCORDO
100
AcDbLine
 62
7
  6
CONTINUOUS
 10
-26.2213591792
 20
-7.9910700161
 11
20.4299846975
 21
-31.3167419545
  0
LINE
  5
29E
100
AcDbEntity
  8
RACCORDO
100
AcDbLine
 62
7
  6
CONTINUOUS
 10
-26.1078832179
 20
-7.9070106777
 11
20.4299846975
 21
-31.1759420193
  0
LINE
  5
29F
100
AcDbEntity
  8
RACCORDO
100
AcDbLine
 62
7
  6
CONTINUOUS
 10
20.4299846975
 20
-30.9113616924
 11
-25.8430430357
 21
-7.7748478258
  0
LINE
  5
2A0
100
AcDbEntity
  8
RACCORDO
100
AcDbLine
 62
7
  6
CONTINUOUS
 10
-11.9156869092
 20
-14.4995406186
 11
-7.4666629798
 21
-16.7240525834
  0
LINE
  5
2A1
100
AcDbEntity
  8
RACCORDO
100
AcDbLine
 62
7
  6
CONTINUOUS
 10
3.9942156675
 20
-22.454491907
 11
8.4432395969
 21
-24.6790038717
  0
LINE
  5
2A2
100
AcDbEntity
  8
RACCORDO
100
AcDbLine
 62
7
  6
CONTINUOUS
 10
-25.3294925594
 20
-7.5294731626
 11
-12.1306933396
 21
-14.1288727725
  0
LINE
  5
2A3
100
AcDbEntity
  8
DRAFT
100
AcDbLine
 62
7
  6
CONTINUOUS
 10
-6.8273924807
 20
-16.7805232019
 11
3.7792092371
 21
-22.0838240608
  0
LINE
  5
2A4
100
AcDbEntity
  8
RACCORDO
100
AcDbLine
 62
7
  6
CONTINUOUS
 10
9.082510096
 20
-24.7354744903
 11
20.4299846975
 21
-30.409211791
  0
LINE
  5
2A5
100
AcDbEntity
  8
RACCORDO
100
AcDbLine
 62
7
  6
CONTINUOUS
 10
-18.954273778
 20
-10.7015574521
 11
-18.8272365699
 21
-10.7650760562
  0
LINE
  5
2A6
100
AcDbEntity
  8
RACCORDO
100
AcDbLine
 62
7
  6
CONTINUOUS
 10
-6.3192790654
 20
-17.0190548084
 11
-6.2478908093
 21
-17.0547489364
  0
LINE
  5
2A7
100
AcDbEntity
  8
RACCORDO
100
AcDbLine
 62
7
  6
CONTINUOUS
 10
-2.7176879923
 20
-18.819850345
 11
0.8276982118
 21
-20.592543447
  0
LINE
  5
2A8
100
AcDbEntity
  8
RACCORDO
100
AcDbLine
 62
7
  6
CONTINUOUS
 10
9.5906235113
 20
-24.9740060967
 11
9.6620117674
 21
-25.0097002248
  0
LINE
  5
2A9
100
AcDbEntity
  8
ASSI
100
AcDbLine
 62
7
  6
CONTINUOUS
 10
16.9162714409
 20
-28.6314193122
 11
14.5272323112
 21
-27.4368997473
  0
LINE
  5
2AA
100
AcDbEntity
  8
ASSI
100
AcDbLine
 62
7
  6
CONTINUOUS
 10
-14.9035337124
 20
-12.7215167355
 11
-17.2925728422
 21
-11.5269971706
  0
LINE
  5
2AB
100
AcDbEntity
  8
ASSI
100
AcDbLine
 62
7
  6
CONTINUOUS
 10
17.0236862589
 20
-28.543705365
 11
14.6686536674
 21
-27.3661890692
  0
LINE
  5
2AC
100
AcDbEntity
  8
ASSI
100
AcDbLine
 62
7
  6
CONTINUOUS
 10
-14.7961188945
 20
-12.6338027883
 11
-17.151151486
 21
-11.4562864925
  0
LINE
  5
2AD
100
AcDbEntity
  8
RACCORDO
100
AcDbLine
 62
7
  6
CONTINUOUS
 10
20.4299846975
 20
-30.2390424355
 11
17.1081720625
 21
-28.578136118
  0
LINE
  5
2AE
100
AcDbEntity
  8
RACCORDO
100
AcDbLine
 62
7
  6
CONTINUOUS
 10
12.0877139161
 20
-26.0679070448
 11
9.8557963945
 21
-24.951948284
  0
LINE
  5
2AF
100
AcDbEntity
  8
RACCORDO
100
AcDbLine
 62
7
  6
CONTINUOUS
 10
3.4301870074
 20
-21.7391435904
 11
1.0214927905
 21
-20.534796482
  0
LINE
  5
2B0
100
AcDbEntity
  8
RACCORDO
100
AcDbLine
 62
7
  6
CONTINUOUS
 10
-3.6454119653
 20
-18.2013441041
 11
-6.0541061822
 21
-16.9969969956
  0
LINE
  5
2B1
100
AcDbEntity
  8
RACCORDO
100
AcDbLine
 62
7
  6
CONTINUOUS
 10
-12.4797155693
 20
-13.7841923021
 11
-14.7116330909
 21
-12.6682335413
  0
LINE
  5
2B2
100
AcDbEntity
  8
RACCORDO
100
AcDbLine
 62
7
  6
CONTINUOUS
 10
-19.7320912373
 20
-10.1580044681
 11
-25.3281088845
 21
-7.3599956445
  0
LINE
  5
2B3
100
AcDbEntity
  8
ASSI
100
AcDbLine
 62
7
  6
CONTINUOUS
 10
17.2313782536
 20
-28.435419328
 11
14.8807857018
 21
-27.260123052
  0
LINE
  5
2B4
100
AcDbEntity
  8
ASSI
100
AcDbLine
 62
7
  6
CONTINUOUS
 10
-14.5884268998
 20
-12.5255167513
 11
-16.9390194516
 21
-11.3502204753
  0
LINE
  5
2B5
100
AcDbEntity
  8
ASSI
100
AcDbLine
 62
7
  6
CONTINUOUS
 10
17.3698395833
 20
-28.3632286366
 11
15.022207058
 21
-27.1894123739
  0
LINE
  5
2B6
100
AcDbEntity
  8
ASSI
100
AcDbLine
 62
7
  6
CONTINUOUS
 10
-14.4499655701
 20
-12.4533260599
 11
-16.7975980954
 21
-11.2795097972
  0
LINE
  5
2B7
100
AcDbEntity
  8
RACCORDO
100
AcDbLine
 62
7
  6
CONTINUOUS
 10
-11.0124934669
 20
-14.0122470357
 11
-6.531378791
 21
-16.2528043736
  0
LINE
  5
2B8
100
AcDbEntity
  8
RACCORDO
100
AcDbLine
 62
7
  6
CONTINUOUS
 10
4.8974091098
 20
-21.9671983241
 11
9.3785237857
 21
-24.207755662
  0
LINE
  5
2B9
100
AcDbEntity
  8
ASSI
100
AcDbLine
 62
7
  6
CONTINUOUS
 10
17.5930111243
 20
-28.2626823727
 11
15.2343390923
 21
-27.0833463567
  0
LINE
  5
2BA
100
AcDbEntity
  8
ASSI
100
AcDbLine
 62
7
  6
CONTINUOUS
 10
-14.2267940291
 20
-12.352779796
 11
-16.5854660611
 21
-11.17344378
  0
LINE
  5
2BB
100
AcDbEntity
  8
RACCORDO
100
AcDbLine
 62
7
  6
CONTINUOUS
 10
20.4299846975
 20
-29.6612637868
 11
17.6738574874
 21
-28.2832001818
  0
LINE
  5
2BC
100
AcDbEntity
  8
RACCORDO
100
AcDbLine
 62
7
  6
CONTINUOUS
 10
12.653399341
 20
-25.7729711086
 11
10.4116077436
 21
-24.6520753099
  0
LINE
  5
2BD
100
AcDbEntity
  8
RACCORDO
100
AcDbLine
 62
7
  6
CONTINUOUS
 10
4.0057465082
 20
-21.4491446921
 11
1.5871782154
 21
-20.2398605458
  0
LINE
  5
2BE
100
AcDbEntity
  8
RACCORDO
100
AcDbLine
 62
7
  6
CONTINUOUS
 10
-3.0797265404
 20
-17.9064081679
 11
-5.4982948331
 21
-16.6971240215
  0
LINE
  5
2BF
100
AcDbEntity
  8
RACCORDO
100
AcDbLine
 62
7
  6
CONTINUOUS
 10
-11.9041560685
 20
-13.4941934038
 11
-14.145947666
 21
-12.3732976051
  0
LINE
  5
2C0
100
AcDbEntity
  8
RACCORDO
100
AcDbLine
 62
7
  6
CONTINUOUS
 10
-19.1664058124
 20
-9.8630685319
 11
-24.752517075
 21
-7.0700129005
  0
LWPOLYLINE
  5
2C1
100
AcDbEntity
  8
RACCORDO
100
AcDbPolyline
 62
7
  6
CONTINUOUS
 90
19
 70
0
 10
-24.3990723267
 20
-6.8947016998
 10
-24.3802849459
 20
-6.9047813608
 10
-24.3616681615
 20
-6.9167743007
 10
-24.3433635755
 20
-6.9305894557
 10
-24.3255104888
 20
-6.9461218468
 10
-24.3082446743
 20
-6.9632534989
 10
-24.2916973611
 20
-6.9818543805
 10
-24.2759943689
 20
-7.0017833264
 10
-24.2612554038
 20
-7.022888695
 10
-24.2475929299
 20
-7.0450096072
 10
-24.2351109598
 20
-7.0679777913
 10
-24.2239045155
 20
-7.0916185426
 10
-24.2140590629
 20
-7.1157516014
 10
-24.2056495548
 20
-7.1401932075
 10
-24.1987399222
 20
-7.1647575238
 10
-24.1933827275
 20
-7.1892576419
 10
-24.1896187292
 20
-7.2135071452
 10
-24.1874765712
 20
-7.2373215271
 10
-24.1869725534
 20
-7.2605195901
  0
LWPOLYLINE
  5
2C2
100
AcDbEntity
  8
RACCORDO
100
AcDbPolyline
 62
7
  6
CONTINUOUS
 90
19
 70
0
 10
-27.8984285689
 20
-9.4009347294
 10
-27.9344161405
 20
-9.3808615046
 10
-27.9694044888
 20
-9.3577077331
 10
-28.0033936138
 20
-9.3314734148
 10
-28.0365475603
 20
-9.3019757178
 10
-28.0687022836
 20
-9.269397474
 10
-28.0993656494
 20
-9.2342871795
 10
-28.1285333411
 20
-9.196643362
 10
-28.1562096753
 20
-9.1564674938
 10
-28.1819154683
 20
-9.1143124879
 10
-28.2056756235
 20
-9.070100039
 10
-28.2274652374
 20
-9.0239084523
 10
-28.2467304158
 20
-8.9765255568
 10
-28.2634550164
 20
-8.9278652543
 10
-28.2776551815
 20
-8.8780136429
 10
-28.2888254433
 20
-8.8280168468
 10
-28.2967973124
 20
-8.778223574
 10
-28.3017392782
 20
-8.7282851164
 10
-28.3036513407
 20
-8.678201474
  0
LWPOLYLINE
  5
2C3
100
AcDbEntity
  8
RACCORDO
100
AcDbPolyline
 62
7
  6
CONTINUOUS
 90
10
 70
0
 10
21.9654717939
 20
-36.5212310854
 10
21.9562299973
 20
-36.5160533318
 10
21.940839566
 20
-36.5045671521
 10
21.9271505713
 20
-36.4903845637
 10
21.9153096692
 20
-36.4736575347
 10
21.9054437201
 20
-36.454565302
 10
21.8976584372
 20
-36.4333124988
 10
21.8920372085
 20
-36.4101268822
 10
21.8886402218
 20
-36.3852568721
 10
21.8875038415
 20
-36.3589689469
  0
LWPOLYLINE
  5
2C4
100
AcDbEntity
  8
RACCORDO
100
AcDbPolyline
 62
7
  6
CONTINUOUS
 90
8
 70
0
 10
20.5178526632
 20
-33.0889534759
 10
20.494659908
 20
-33.0759227187
 10
20.474649559
 20
-33.0616338225
 10
20.4580922152
 20
-33.0462800244
 10
20.4452117787
 20
-33.0300689624
 10
20.4361824253
 20
-33.0132198651
 10
20.4311262512
 20
-32.9959605866
 10
20.4299848249
 20
-32.9830256376
  0
LWPOLYLINE
  5
2C5
100
AcDbEntity
  8
0
100
AcDbPolyline
 62
7
  6
CONTINUOUS
 90
13
 70
0
 10
-1.7877978509
 20
-23.8265785824
 10
-1.7683829107
 20
-23.8376329544
 10
-1.7499373387
 20
-23.8503361793
 10
-1.7324611349
 20
-23.8646882571
 10
-1.7160315604
 20
-23.8806075621
 10
-1.7005713542
 20
-23.89817572
 10
-1.6858487329
 20
-23.9176376073
 10
-1.6716996717
 20
-23.9391266441
 10
-1.6582881955
 20
-23.9625094103
 10
-1.6458745963
 20
-23.9876305219
 10
-1.6345456379
 20
-24.0144381841
 10
-1.6242145564
 20
-24.0429841916
 10
-1.6148813519
 20
-24.0732685445
  0
LWPOLYLINE
  5
2C6
100
AcDbEntity
  8
RACCORDO
100
AcDbPolyline
 62
7
  6
CONTINUOUS
 90
7
 70
0
 10
-26.2405220538
 20
-7.9799824955
 10
-26.237478227
 20
-7.9819640665
 10
-26.2343744059
 20
-7.9838921771
 10
-26.2312105906
 20
-7.9857668274
 10
-26.2279867811
 20
-7.9875880173
 10
-26.2247029773
 20
-7.9893557469
 10
-26.2213591792
 20
-7.9910700161
  0
LWPOLYLINE
  5
2C7
100
AcDbEntity
  8
0
100
AcDbPolyline
 62
7
  6
CONTINUOUS
 90
16
 70
0
 10
-1.7214482426
 20
-23.0520082777
 10
-1.7009696638
 20
-23.0665804847
 10
-1.6815576195
 20
-23.0824515174
 10
-1.6632121097
 20
-23.0996213758
 10
-1.6458191625
 20
-23.1182672786
 10
-1.6294927498
 20
-23.1382120071
 10
-1.6145747869
 20
-23.1589239055
 10
-1.6011893066
 20
-23.1802530086
 10
-1.5892122761
 20
-23.2023492816
 10
-1.5786135129
 20
-23.2251309642
 10
-1.5692915674
 20
-23.2489108068
 10
-1.5613478891
 20
-23.273376059
 10
-1.5550566446
 20
-23.2975067096
 10
-1.5505092224
 20
-23.3209627548
 10
-1.5476142339
 20
-23.3440841983
 10
-1.5463716791
 20
-23.3668710401
  0
LINE
  5
2C8
100
AcDbEntity
  8
ASSI
100
AcDbLine
 62
7
  6
CONTINUOUS
 10
-12.5549574083
 20
-13.0472767502
 11
-12.4488913911
 21
-13.1241475522
  0
LINE
  5
2C9
100
AcDbEntity
  8
ASSI
100
AcDbLine
 62
7
  6
CONTINUOUS
 10
-12.2014040177
 20
-12.8705000549
 11
-12.0953380005
 21
-12.9473708569
  0
LWPOLYLINE
  5
2CA
100
AcDbEntity
  8
0
100
AcDbPolyline
 62
7
  6
CONTINUOUS
 90
13
 70
0
 10
-1.3563711415
 20
-22.834422849
 10
-1.4060617787
 20
-22.790987808
 10
-1.4584501189
 20
-22.7495362977
 10
-1.513536162
 20
-22.7100683181
 10
-1.5714234881
 20
-22.6726993612
 10
-1.6320085172
 20
-22.6373139351
 10
-1.6949805089
 20
-22.6035655632
 10
-1.7602755749
 20
-22.5714098954
 10
-1.8279576034
 20
-22.5408912819
 10
-1.8979075185
 20
-22.5117962963
 10
-1.9700856282
 20
-22.4840537966
 10
-2.0445316246
 20
-22.4577349248
 10
-2.1212455075
 20
-22.432839681
  0
LWPOLYLINE
  5
2CB
100
AcDbEntity
  8
0
100
AcDbPolyline
 62
7
  6
CONTINUOUS
 90
13
 70
0
 10
-1.4977924978
 20
-22.9051335272
 10
-1.5473340119
 20
-22.8617978407
 10
-1.599635889
 20
-22.8204043906
 10
-1.654698129
 20
-22.7809531771
 10
-1.7126562164
 20
-22.7435385187
 10
-1.7733746668
 20
-22.7080660969
 10
-1.8364470262
 20
-22.6742529554
 10
-1.9017686807
 20
-22.6420826539
 10
-1.9694442442
 20
-22.6115716327
 10
-2.0393811054
 20
-22.5824862562
 10
-2.1115483939
 20
-22.5547486459
 10
-2.1859769799
 20
-22.5284366802
 10
-2.2626668637
 20
-22.5035503591
  0
LWPOLYLINE
  5
2CC
100
AcDbEntity
  8
RACCORDO
100
AcDbPolyline
 62
7
  6
CONTINUOUS
 90
5
 70
0
 10
-18.7453380223
 20
-10.8215504311
 10
-18.7598471107
 20
-10.8084350746
 10
-18.789415259
 20
-10.786790486
 10
-18.821268112
 20
-10.7681177268
 10
-18.8268790152
 20
-10.7652548415
  0
LWPOLYLINE
  5
2CD
100
AcDbEntity
  8
RACCORDO
100
AcDbPolyline
 62
7
  6
CONTINUOUS
 90
15
 70
0
 10
-27.9194464305
 20
31.0968063481
 10
-27.9258735217
 20
31.1208996028
 10
-27.9300579218
 20
31.1436449419
 10
-27.9320996243
 20
31.1648994126
 10
-27.9321545152
 20
31.1845370079
 10
-27.9302813498
 20
31.202450868
 10
-27.9264395864
 20
31.2185516032
 10
-27.9207195936
 20
31.2327559684
 10
-27.9132587686
 20
31.245018499
 10
-27.9040834711
 20
31.255318246
 10
-27.8933019137
 20
31.2636115988
 10
-27.8810254951
 20
31.2698869065
 10
-27.8672762491
 20
31.2741527111
 10
-27.8521557486
 20
31.2763867218
 10
-27.8386437563
 20
31.2766910451
  0
LINE
  5
2CE
100
AcDbEntity
  8
DRAFT
100
AcDbLine
 62
7
  6
CONTINUOUS
 10
-25.5413338741
 20
5.9266705282
 11
-26.0551427613
 21
5.641349238
  0
LINE
  5
2CF
100
AcDbEntity
  8
RACCORDO
100
AcDbLine
 62
7
  6
CONTINUOUS
 10
-25.0794958955
 20
6.2715657487
 11
-25.1876450555
 21
6.2132167957
  0
LINE
  5
2D0
100
AcDbEntity
  8
RACCORDO
100
AcDbLine
 62
7
  6
CONTINUOUS
 10
-25.036594047
 20
6.1376912915
 11
-25.9718782357
 21
5.6664430817
  0
LINE
  5
2D1
100
AcDbEntity
  8
RACCORDO
100
AcDbLine
 62
7
  6
CONTINUOUS
 10
-24.8244943214
 20
5.7718733775
 11
-25.7597785101
 21
5.3006251678
  0
LINE
  5
2D2
100
AcDbEntity
  8
RACCORDO
100
AcDbLine
 62
7
  6
CONTINUOUS
 10
-25.3281088845
 20
6.7194608747
 11
-24.7525493838
 21
6.9852733256
  0
LINE
  5
2D3
100
AcDbEntity
  8
RACCORDO
100
AcDbLine
 62
7
  6
CONTINUOUS
 10
-25.4092462291
 20
6.5556864958
 11
-24.8336867283
 21
6.8214989467
  0
LWPOLYLINE
  5
2D4
100
AcDbEntity
  8
RACCORDO
100
AcDbPolyline
 62
7
  6
CONTINUOUS
 90
8
 70
0
 10
-4.432956462
 20
-16.6705689229
 10
-4.4483505596
 20
-16.6660375398
 10
-4.464526605
 20
-16.6635857414
 10
-4.4813603549
 20
-16.6632230284
 10
-4.4986889967
 20
-16.6649376672
 10
-4.5163676115
 20
-16.6686925911
 10
-4.5342743026
 20
-16.6744398033
 10
-4.5522764364
 20
-16.6821169753
  0
LWPOLYLINE
  5
2D5
100
AcDbEntity
  8
RACCORDO
100
AcDbPolyline
 62
7
  6
CONTINUOUS
 90
3
 70
0
 10
-4.4789615915
 20
-16.6537906908
 10
-4.4503107318
 20
-16.6629616853
 10
-4.4218083751
 20
-16.6754110752
  0
LWPOLYLINE
  5
2D6
100
AcDbEntity
  8
ASSI
100
AcDbPolyline
 62
7
  6
CONTINUOUS
 90
3
 70
0
 10
-15.0209659739
 20
-10.3769483622
 10
-15.0076659167
 20
-10.3813938249
 10
-14.9945538666
 20
-10.3868986997
  0
LWPOLYLINE
  5
2D7
100
AcDbEntity
  8
RACCORDO
100
AcDbPolyline
 62
7
  6
CONTINUOUS
 90
9
 70
0
 10
-2.8835683856
 20
-17.444531082
 10
-2.8946658014
 20
-17.439714253
 10
-2.9100598988
 20
-17.4351828696
 10
-2.9262359473
 20
-17.4327310706
 10
-2.9430697023
 20
-17.4323683579
 10
-2.9603983471
 20
-17.4340829979
 10
-2.9780769613
 20
-17.4378379226
 10
-2.9959836494
 20
-17.4435851346
 10
-3.0139857778
 20
-17.4512623045
  0
LWPOLYLINE
  5
2D8
100
AcDbEntity
  8
RACCORDO
100
AcDbPolyline
 62
7
  6
CONTINUOUS
 90
11
 70
0
 10
-24.213513183
 20
-6.867581399
 10
-24.2176797222
 20
-6.8656371809
 10
-24.2325698114
 20
-6.8605930772
 10
-24.2490010459
 20
-6.8577027026
 10
-24.2669175332
 20
-6.8569234154
 10
-24.2861930581
 20
-6.8582309984
 10
-24.3066914866
 20
-6.8615956512
 10
-24.3283493555
 20
-6.8669723548
 10
-24.3510615446
 20
-6.8743195722
 10
-24.374678125
 20
-6.8835843985
 10
-24.3990723283
 20
-6.8947017006
  0
LINE
  5
2D9
100
AcDbEntity
  8
ASSI
100
AcDbLine
 62
7
  6
CONTINUOUS
 10
16.8252512868
 20
-26.2968012764
 11
16.8335066355
 21
-26.3007533174
  0
LINE
  5
2DA
100
AcDbEntity
  8
ASSI
100
AcDbLine
 62
7
  6
CONTINUOUS
 10
-14.9945538666
 20
-10.3868986997
 11
-14.9862985179
 21
-10.3908507407
  0
LINE
  5
2DB
100
AcDbEntity
  8
RACCORDO
100
AcDbLine
 62
7
  6
CONTINUOUS
 10
-2.8835287725
 20
-17.4445508764
 11
-2.8835683856
 21
-17.444531082
  0
LINE
  5
2DC
100
AcDbEntity
  8
ASSI
100
AcDbLine
 62
7
  6
CONTINUOUS
 10
19.2648477451
 20
-28.9571793269
 11
15.3757604486
 21
-27.0126356786
  0
LINE
  5
2DD
100
AcDbEntity
  8
ASSI
100
AcDbLine
 62
7
  6
CONTINUOUS
 10
-12.5549574083
 20
-13.0472767502
 11
-16.4440447048
 21
-11.1027331019
  0
LINE
  5
2DE
100
AcDbEntity
  8
ASSI
100
AcDbLine
 62
7
  6
CONTINUOUS
 10
19.4769797795
 20
-28.8511133097
 11
15.5878924829
 21
-26.9065696614
  0
LINE
  5
2DF
100
AcDbEntity
  8
ASSI
100
AcDbLine
 62
7
  6
CONTINUOUS
 10
-12.3428253739
 20
-12.941210733
 11
-16.2319126705
 21
-10.9966670847
  0
LINE
  5
2E0
100
AcDbEntity
  8
RACCORDO
100
AcDbLine
 62
7
  6
CONTINUOUS
 10
-24.7525493838
 20
-6.7179631729
 11
-24.3990723283
 21
-6.8947017006
  0
LINE
  5
2E1
100
AcDbEntity
  8
RACCORDO
100
AcDbLine
 62
7
  6
CONTINUOUS
 10
-24.7525493838
 20
-6.5980632879
 11
-24.2137158799
 21
-6.8674800398
  0
LINE
  5
2E2
100
AcDbEntity
  8
ASSI
100
AcDbLine
 62
7
  6
CONTINUOUS
 10
19.6184011357
 20
-28.7804026316
 11
15.7293138392
 21
-26.8358589833
  0
LINE
  5
2E3
100
AcDbEntity
  8
ASSI
100
AcDbLine
 62
7
  6
CONTINUOUS
 10
-12.2014040177
 20
-12.8705000549
 11
-16.0904913142
 21
-10.9259564066
  0
LINE
  5
2E4
100
AcDbEntity
  8
RACCORDO
100
AcDbLine
 62
7
  6
CONTINUOUS
 10
-4.5522764364
 20
-16.6821169753
 11
-3.0139857778
 21
-17.4512623046
  0
LINE
  5
2E5
100
AcDbEntity
  8
RACCORDO
100
AcDbLine
 62
7
  6
CONTINUOUS
 10
-4.4218145722
 20
-16.6754079764
 11
-2.8835239136
 21
-17.4445533057
  0
LINE
  5
2E6
100
AcDbEntity
  8
ASSI
100
AcDbLine
 62
7
  6
CONTINUOUS
 10
19.8305331701
 20
-28.6743366144
 11
15.9414458735
 21
-26.7297929661
  0
LINE
  5
2E7
100
AcDbEntity
  8
ASSI
100
AcDbLine
 62
7
  6
CONTINUOUS
 10
-11.9892719833
 20
-12.7644340377
 11
-15.8783592799
 21
-10.8198903895
  0
LINE
  5
2E8
100
AcDbEntity
  8
ASSI
100
AcDbLine
 62
7
  6
CONTINUOUS
 10
19.9719545263
 20
-28.6036259363
 11
16.0828672298
 21
-26.659082288
  0
LINE
  5
2E9
100
AcDbEntity
  8
ASSI
100
AcDbLine
 62
7
  6
CONTINUOUS
 10
-11.8478506271
 20
-12.6937233596
 11
-15.7369379236
 21
-10.7491797113
  0
LINE
  5
2EA
100
AcDbEntity
  8
ASSI
100
AcDbLine
 62
7
  6
CONTINUOUS
 10
20.1840865606
 20
-28.4975599191
 11
16.2949992641
 21
-26.5530162709
  0
LINE
  5
2EB
100
AcDbEntity
  8
ASSI
100
AcDbLine
 62
7
  6
CONTINUOUS
 10
-11.6357185927
 20
-12.5876573424
 11
-15.5248058893
 21
-10.6431136942
  0
LINE
  5
2EC
100
AcDbEntity
  8
ASSI
100
AcDbLine
 62
7
  6
CONTINUOUS
 10
20.3255079169
 20
-28.426849241
 11
16.4364206204
 21
-26.4823055927
  0
LINE
  5
2ED
100
AcDbEntity
  8
ASSI
100
AcDbLine
 62
7
  6
CONTINUOUS
 10
-11.4942972365
 20
-12.5169466643
 11
-15.383384533
 21
-10.572403016
  0
LINE
  5
2EE
100
AcDbEntity
  8
ASSI
100
AcDbLine
 62
7
  6
CONTINUOUS
 10
20.4299846975
 20
-28.266955597
 11
16.6485526547
 21
-26.3762395756
  0
LINE
  5
2EF
100
AcDbEntity
  8
ASSI
100
AcDbLine
 62
7
  6
CONTINUOUS
 10
-11.2821652022
 20
-12.4108806471
 11
-15.1712524987
 21
-10.4663369989
  0
LINE
  5
2F0
100
AcDbEntity
  8
ASSI
100
AcDbLine
 62
7
  6
CONTINUOUS
 10
-15.1079533998
 20
-10.3804029855
 11
-15.0536689358
 21
-10.4075452174
  0
LINE
  5
2F1
100
AcDbEntity
  8
ASSI
100
AcDbLine
 62
7
  6
CONTINUOUS
 10
-11.0346778287
 20
-12.417040771
 11
-10.8504895542
 21
-12.5091349082
  0
LINE
  5
2F2
100
AcDbEntity
  8
ASSI
100
AcDbLine
 62
7
  6
CONTINUOUS
 10
16.7118517536
 20
-26.2903055622
 11
16.7661362176
 21
-26.3174477941
  0
LINE
  5
2F3
100
AcDbEntity
  8
ASSI
100
AcDbLine
 62
7
  6
CONTINUOUS
 10
20.4299846975
 20
-28.1255342407
 11
16.789974011
 21
-26.3055288974
  0
LINE
  5
2F4
100
AcDbEntity
  8
ASSI
100
AcDbLine
 62
7
  6
CONTINUOUS
 10
-11.1407438459
 20
-12.340169969
 11
-15.0298311424
 21
-10.3956263207
  0
LINE
  5
2F5
100
AcDbEntity
  8
ASSI
100
AcDbLine
 62
7
  6
CONTINUOUS
 10
-14.9861964436
 20
-10.3908797465
 11
-10.7933610722
 21
-12.4872974323
  0
LINE
  5
2F6
100
AcDbEntity
  8
ASSI
100
AcDbLine
 62
7
  6
CONTINUOUS
 10
16.8336087098
 20
-26.3007823232
 11
20.4299846975
 21
-28.0989703171
  0
LWPOLYLINE
  5
2F7
100
AcDbEntity
  8
RACCORDO
100
AcDbPolyline
 62
7
  6
CONTINUOUS
 90
14
 70
0
 10
-2.8835683856
 20
-17.444531082
 10
-2.8699860395
 20
-17.4517605462
 10
-2.8480592705
 20
-17.4654423895
 10
-2.8273629987
 20
-17.4809840787
 10
-2.8080265958
 20
-17.4983072361
 10
-2.7902036501
 20
-17.517303157
 10
-2.774051282
 20
-17.5378353167
 10
-2.7596996834
 20
-17.5597735517
 10
-2.7472763932
 20
-17.5829677722
 10
-2.7369018615
 20
-17.6072445925
 10
-2.7286787425
 20
-17.6324224452
 10
-2.7226911096
 20
-17.6583210451
 10
-2.719011735
 20
-17.6847302427
 10
-2.7176879924
 20
-17.7128775438
  0
LWPOLYLINE
  5
2F8
100
AcDbEntity
  8
RACCORDO
100
AcDbPolyline
 62
7
  6
CONTINUOUS
 90
19
 70
0
 10
-3.0139857778
 20
-17.4512623046
 10
-2.9951952076
 20
-17.4613441719
 10
-2.9765757549
 20
-17.47333965
 10
-2.9582690702
 20
-17.4871574813
 10
-2.9404144202
 20
-17.5026925485
 10
-2.9231476418
 20
-17.5198266628
 10
-2.9066001062
 20
-17.5384294599
 10
-2.8908977143
 20
-17.5583593935
 10
-2.876159906
 20
-17.5794648585
 10
-2.8624987709
 20
-17.6015853384
 10
-2.8500182237
 20
-17.62455259
 10
-2.8388132405
 20
-17.6481918542
 10
-2.8289690957
 20
-17.6723232278
 10
-2.8205606853
 20
-17.6967630933
 10
-2.8136519583
 20
-17.7213255513
 10
-2.8082954624
 20
-17.7458237697
 10
-2.8045319466
 20
-17.7700713853
 10
-2.8023900449
 20
-17.7938839206
 10
-2.8018860522
 20
-17.8170802185
  0
LWPOLYLINE
  5
2F9
100
AcDbEntity
  8
ASSI
100
AcDbPolyline
 62
7
  6
CONTINUOUS
 90
4
 70
0
 10
-10.7931214839
 20
-12.4874172827
 10
-10.7926881225
 20
-12.4876999077
 10
-10.7920966898
 20
-12.488796711
 10
-10.7920865013
 20
-12.4890980734
  0
LWPOLYLINE
  5
2FA
100
AcDbEntity
  8
DRAFT
100
AcDbPolyline
 62
7
  6
CONTINUOUS
 90
6
 70
0
 10
12.7946044562
 20
-25.9098269853
 10
12.7989907663
 20
-25.9127918575
 10
12.8350015166
 20
-25.9414949694
 10
12.8704073491
 20
-25.9742940314
 10
12.9048600995
 20
-26.0108109575
 10
12.9373152749
 20
-26.04991149
  0
LINE
  5
2FB
100
AcDbEntity
  8
ASSI
100
AcDbLine
 62
7
  6
CONTINUOUS
 10
-11.8478506271
 20
-12.6937233596
 11
-11.7417846099
 21
-12.7705941616
  0
LINE
  5
2FC
100
AcDbEntity
  8
ASSI
100
AcDbLine
 62
7
  6
CONTINUOUS
 10
-11.4942972365
 20
-12.5169466643
 11
-11.3882312193
 21
-12.5938174663
  0
LINE
  5
2FD
100
AcDbEntity
  8
ASSI
100
AcDbLine
 62
7
  6
CONTINUOUS
 10
-11.1407438459
 20
-12.340169969
 11
-11.0346778287
 21
-12.417040771
  0
LINE
  5
2FE
100
AcDbEntity
  8
0
100
AcDbLine
 62
7
  6
CONTINUOUS
 10
-1.4499401949
 20
-23.8671226198
 11
-1.4658369052
 21
-23.8503597991
  0
LWPOLYLINE
  5
2FF
100
AcDbEntity
  8
0
100
AcDbPolyline
 62
7
  6
CONTINUOUS
 90
4
 70
0
 10
-1.2765052394
 20
-23.8388214797
 10
-1.2918855484
 20
-23.8170316029
 10
-1.3078556516
 20
-23.7973074833
 10
-1.3218124931
 20
-23.7824248449
  0
LINE
  5
300
100
AcDbEntity
  8
DRAFT
100
AcDbLine
 62
7
  6
CONTINUOUS
 10
-12.1306933396
 20
-14.6310226738
 11
-12.1306933396
 21
-14.1288727725
  0
LINE
  5
301
100
AcDbEntity
  8
RACCORDO
100
AcDbLine
 62
7
  6
CONTINUOUS
 10
-11.6920563429
 20
-14.2979234066
 11
-11.6920563429
 21
-13.8600113178
  0
LINE
  5
302
100
AcDbEntity
  8
ASSI
100
AcDbLine
 62
7
  6
CONTINUOUS
 10
-10.8434760244
 20
-12.5054776228
 11
-10.8434760244
 21
-13.0176037577
  0
LINE
  5
303
100
AcDbEntity
  8
ASSI
100
AcDbLine
 62
7
  6
CONTINUOUS
 10
-10.7921049895
 20
-12.489571168
 11
-10.7921049895
 21
-13.0002544482
  0
LINE
  5
304
100
AcDbEntity
  8
RACCORDO
100
AcDbLine
 62
7
  6
CONTINUOUS
 10
-27.9194463754
 20
-8.6950085462
 11
-26.410471449
 21
-7.5948823939
  0
LINE
  5
305
100
AcDbEntity
  8
DRAFT
100
AcDbLine
 62
7
  6
CONTINUOUS
 10
-25.5413338741
 20
-0.5685200002
 11
-26.0551427613
 21
-0.8538412904
  0
LINE
  5
306
100
AcDbEntity
  8
RACCORDO
100
AcDbLine
 62
7
  6
CONTINUOUS
 10
-25.5402086101
 20
-0.7844533537
 11
-24.9646491094
 21
-0.4944544554
  0
LINE
  5
307
100
AcDbEntity
  8
RACCORDO
100
AcDbLine
 62
7
  6
CONTINUOUS
 10
-25.3281088845
 20
-1.1502712677
 11
-24.7525493838
 21
-0.8602723694
  0
LINE
  5
308
100
AcDbEntity
  8
RACCORDO
100
AcDbLine
 62
7
  6
CONTINUOUS
 10
-25.7597785101
 20
-0.1482940725
 11
-24.8244943214
 21
0.2836511601
  0
LINE
  5
309
100
AcDbEntity
  8
RACCORDO
100
AcDbLine
 62
7
  6
CONTINUOUS
 10
-25.8409158546
 20
-0.3120684514
 11
-24.9056316659
 21
0.1198767812
  0
LWPOLYLINE
  5
30A
100
AcDbEntity
  8
ASSI
100
AcDbPolyline
 62
7
  6
CONTINUOUS
 90
4
 70
0
 10
-15.0612190458
 20
-10.3704674909
 10
-15.0478055067
 20
-10.3712990621
 10
-15.0343784213
 20
-10.3735644547
 10
-15.0209659739
 20
-10.3769483622
  0
LINE
  5
30B
100
AcDbEntity
  8
DRAFT
100
AcDbLine
 62
7
  6
CONTINUOUS
 10
-26.0551427613
 20
-0.3116155566
 11
-25.5413338741
 21
-0.5685200002
  0
LINE
  5
30C
100
AcDbEntity
  8
RACCORDO
100
AcDbLine
 62
7
  6
CONTINUOUS
 10
-25.9718782357
 20
-0.3020122609
 11
-26.0551427613
 21
-0.2603799981
  0
LINE
  5
30D
100
AcDbEntity
  8
RACCORDO
100
AcDbLine
 62
7
  6
CONTINUOUS
 10
-24.9646491094
 20
-0.4944544554
 11
-25.5750200788
 21
-0.1892689707
  0
LINE
  5
30E
100
AcDbEntity
  8
ASSI
100
AcDbLine
 62
7
  6
CONTINUOUS
 10
19.2648477451
 20
-28.9571793269
 11
19.3709137623
 21
-29.0340501289
  0
LINE
  5
30F
100
AcDbEntity
  8
ASSI
100
AcDbLine
 62
7
  6
CONTINUOUS
 10
19.6184011357
 20
-28.7804026316
 11
19.7244671529
 21
-28.8572734336
  0
LINE
  5
310
100
AcDbEntity
  8
ASSI
100
AcDbLine
 62
7
  6
CONTINUOUS
 10
19.9719545263
 20
-28.6036259363
 11
20.0780205435
 21
-28.6804967383
  0
LINE
  5
311
100
AcDbEntity
  8
ASSI
100
AcDbLine
 62
7
  6
CONTINUOUS
 10
20.3255079169
 20
-28.426849241
 11
20.4315739341
 21
-28.503720043
  0
LINE
  5
312
100
AcDbEntity
  8
0
100
AcDbLine
 62
7
  6
CONTINUOUS
 10
-4.7659251906
 20
-21.8617287942
 11
-4.402333005
 21
-23.2309712893
  0
LINE
  5
313
100
AcDbEntity
  8
0
100
AcDbLine
 62
7
  6
CONTINUOUS
 10
-4.3789065574
 20
-22.4338211161
 11
-4.6855688689
 21
-21.2708532959
  0
LINE
  5
314
100
AcDbEntity
  8
0
100
AcDbLine
 62
7
  6
CONTINUOUS
 10
-4.2862290657
 20
-22.1782571195
 11
-4.5441475127
 21
-21.2001426178
  0
LINE
  5
315
100
AcDbEntity
  8
0
100
AcDbLine
 62
7
  6
CONTINUOUS
 10
-6.9422351072
 20
-20.1425201767
 11
-6.4715247296
 21
-22.196375427
  0
LINE
  5
316
100
AcDbEntity
  8
0
100
AcDbLine
 62
7
  6
CONTINUOUS
 10
-6.322518946
 20
-21.7041079933
 11
-6.6055490418
 21
-20.3108632094
  0
LINE
  5
317
100
AcDbEntity
  8
0
100
AcDbLine
 62
7
  6
CONTINUOUS
 10
-6.234515608
 20
-21.3704416213
 11
-6.4641276856
 21
-20.2401525313
  0
LINE
  5
318
100
AcDbEntity
  8
0
100
AcDbLine
 62
7
  6
CONTINUOUS
 10
-3.6234739775
 20
-23.6204008031
 11
-3.7623193437
 21
-21.7324780585
  0
LINE
  5
319
100
AcDbEntity
  8
0
100
AcDbLine
 62
7
  6
CONTINUOUS
 10
-3.495036246
 20
-23.3731478235
 11
-3.6208979874
 21
-21.6617673804
  0
LINE
  5
31A
100
AcDbEntity
  8
0
100
AcDbLine
 62
7
  6
CONTINUOUS
 10
-3.990350674
 20
-22.2544662537
 11
-3.926673587
 21
-23.4688009983
  0
LINE
  5
31B
100
AcDbEntity
  8
RACCORDO
100
AcDbLine
 62
7
  6
CONTINUOUS
 10
-6.3192790654
 20
-17.0345799096
 11
-6.3192790654
 21
-16.6186222876
  0
LINE
  5
31C
100
AcDbEntity
  8
0
100
AcDbLine
 62
7
  6
CONTINUOUS
 10
-5.6061016898
 20
-20.8104777662
 11
-5.6061016898
 21
-22.6290869469
  0
LINE
  5
31D
100
AcDbEntity
  8
0
100
AcDbLine
 62
7
  6
CONTINUOUS
 10
-5.2961654739
 20
-22.7840550548
 11
-5.2961654739
 21
-20.9654458742
  0
LINE
  5
31E
100
AcDbEntity
  8
0
100
AcDbLine
 62
7
  6
CONTINUOUS
 10
-5.1547441177
 20
-22.7133443767
 11
-5.1547441177
 21
-20.894735196
  0
LINE
  5
31F
100
AcDbEntity
  8
ASSI
100
AcDbLine
 62
7
  6
CONTINUOUS
 10
-11.3428542732
 20
-13.377268028
 11
-11.3372180232
 21
-13.3543239245
  0
LINE
  5
320
100
AcDbEntity
  8
ASSI
100
AcDbLine
 62
7
  6
CONTINUOUS
 10
-17.3019832923
 20
-11.5432277961
 11
-17.2925728422
 21
-11.5269971706
  0
LINE
  5
321
100
AcDbEntity
  8
ASSI
100
AcDbLine
 62
7
  6
CONTINUOUS
 10
-17.0343706252
 20
-11.5146769229
 11
-16.9390194516
 21
-11.3502204753
  0
LINE
  5
322
100
AcDbEntity
  8
ASSI
100
AcDbLine
 62
7
  6
CONTINUOUS
 10
-16.6808172346
 20
-11.3379002276
 11
-16.5854660611
 21
-11.17344378
  0
LINE
  5
323
100
AcDbEntity
  8
ASSI
100
AcDbLine
 62
7
  6
CONTINUOUS
 10
-16.327263844
 20
-11.1611235323
 11
-16.2319126705
 21
-10.9966670847
  0
LINE
  5
324
100
AcDbEntity
  8
ASSI
100
AcDbLine
 62
7
  6
CONTINUOUS
 10
-15.9737104534
 20
-10.984346837
 11
-15.8783592799
 21
-10.8198903895
  0
LINE
  5
325
100
AcDbEntity
  8
ASSI
100
AcDbLine
 62
7
  6
CONTINUOUS
 10
-15.6201570628
 20
-10.8075701417
 11
-15.5248058893
 21
-10.6431136942
  0
LINE
  5
326
100
AcDbEntity
  8
ASSI
100
AcDbLine
 62
7
  6
CONTINUOUS
 10
-15.2666036722
 20
-10.6307934464
 11
-15.1712524987
 21
-10.4663369989
  0
LINE
  5
327
100
AcDbEntity
  8
RACCORDO
100
AcDbLine
 62
7
  6
CONTINUOUS
 10
-27.7588647499
 20
-9.0869987289
 11
-26.2405220538
 21
-7.9799824955
  0
LWPOLYLINE
  5
328
100
AcDbEntity
  8
RACCORDO
100
AcDbPolyline
 62
7
  6
CONTINUOUS
 90
10
 70
0
 10
-26.3501010826
 20
-7.5622798587
 10
-26.3564090594
 20
-7.5661292183
 10
-26.3628218445
 20
-7.5699244331
 10
-26.3693374668
 20
-7.5736643333
 10
-26.375953923
 20
-7.5773477661
 10
-26.3826691793
 20
-7.5809735962
 10
-26.3894811713
 20
-7.5845407059
 10
-26.396387805
 20
-7.5880479954
 10
-26.4033869569
 20
-7.5914943836
 10
-26.4104764757
 20
-7.5948788081
  0
LWPOLYLINE
  5
329
100
AcDbEntity
  8
RACCORDO
100
AcDbPolyline
 62
7
  6
CONTINUOUS
 90
10
 70
0
 10
-26.1066071554
 20
-7.9076460929
 10
-26.1196250079
 20
-7.9147272588
 10
-26.1326168132
 20
-7.9223823332
 10
-26.1455649353
 20
-7.9306009246
 10
-26.1584517976
 20
-7.9393718766
 10
-26.1712599068
 20
-7.9486832828
 10
-26.1839718763
 20
-7.9585225036
 10
-26.1965704501
 20
-7.9688761824
 10
-26.209038526
 20
-7.9797302646
 10
-26.2213591792
 20
-7.9910700161
  0
LWPOLYLINE
  5
32A
100
AcDbEntity
  8
RACCORDO
100
AcDbPolyline
 62
7
  6
CONTINUOUS
 90
12
 70
0
 10
-24.1869726027
 20
-7.2605196146
 10
-24.1633621712
 20
-7.2480459494
 10
-24.1415956239
 20
-7.2355863558
 10
-24.1218011738
 20
-7.223203501
 10
-24.104109319
 20
-7.2109818965
 10
-24.0886176923
 20
-7.1989780447
 10
-24.0754047581
 20
-7.1872166657
 10
-24.0645740579
 20
-7.1757887035
 10
-24.056220709
 20
-7.1647659866
 10
-24.0504199019
 20
-7.1541472438
 10
-24.0472536756
 20
-7.1440334344
 10
-24.0466425828
 20
-7.1376735718
  0
LINE
  5
32B
100
AcDbEntity
  8
DRAFT
100
AcDbLine
 62
7
  6
CONTINUOUS
 10
32.4506870545
 20
25.7718694817
 11
34.5737095578
 21
26.8787667078
  0
LINE
  5
32C
100
AcDbEntity
  8
RACCORDO
100
AcDbLine
 62
7
  6
CONTINUOUS
 10
-26.3505883454
 20
-7.5578918345
 11
-26.0551427613
 21
-7.4090299118
  0
LINE
  5
32D
100
AcDbEntity
  8
RACCORDO
100
AcDbLine
 62
7
  6
CONTINUOUS
 10
-25.3281088845
 20
-7.3599956445
 11
-24.7525493838
 21
-7.0699967462
  0
LINE
  5
32E
100
AcDbEntity
  8
SMUSSO
100
AcDbLine
 62
7
  6
CONTINUOUS
 10
30.3310688707
 20
24.4118389048
 11
32.0988358236
 21
25.2957223812
  0
LINE
  5
32F
100
AcDbEntity
  8
SMUSSO
100
AcDbLine
 62
7
  6
CONTINUOUS
 10
31.0381756519
 20
23.1922601104
 11
32.8059426048
 21
24.0761435869
  0
LINE
  5
330
100
AcDbEntity
  8
DRAFT
100
AcDbLine
 62
7
  6
CONTINUOUS
 10
33.4742897339
 20
24.006416014
 11
35.6343697296
 21
25.0493985171
  0
LINE
  5
331
100
AcDbEntity
  8
RACCORDO
100
AcDbLine
 62
7
  6
CONTINUOUS
 10
-25.9718782357
 20
5.6664430817
 11
-25.9919136219
 21
5.6764607748
  0
LINE
  5
332
100
AcDbEntity
  8
RACCORDO
100
AcDbLine
 62
7
  6
CONTINUOUS
 10
-25.036594047
 20
6.1376912915
 11
-25.5413338741
 21
6.390061205
  0
LWPOLYLINE
  5
333
100
AcDbEntity
  8
DRAFT
100
AcDbPolyline
 62
7
  6
CONTINUOUS
 90
17
 70
0
 10
12.9373152749
 20
-26.04991149
 10
12.9676246044
 20
-26.0915222011
 10
12.9959363589
 20
-26.1357165185
 10
13.0216508589
 20
-26.1815804671
 10
13.0447983335
 20
-26.2293712394
 10
13.0653485536
 20
-26.2788316429
 10
13.0826111515
 20
-26.3282761247
 10
13.0964220456
 20
-26.3774455029
 10
13.1069453175
 20
-26.4265989594
 10
13.1139828457
 20
-26.4748284863
 10
13.1174685895
 20
-26.5223773759
 10
13.1174685895
 20
-26.569002336
 10
13.1139828457
 20
-26.6130654819
 10
13.1069453175
 20
-26.6542574806
 10
13.0964220456
 20
-26.6928876651
 10
13.0826111515
 20
-26.7282461494
 10
13.0795324359
 20
-26.7339856602
  0
LWPOLYLINE
  5
334
100
AcDbEntity
  8
0
100
AcDbPolyline
 62
7
  6
CONTINUOUS
 90
6
 70
0
 10
-1.6148813519
 20
-24.0732685445
 10
-1.5991204468
 20
-24.1376653849
 10
-1.58370354
 20
-24.2031524557
 10
-1.5686306314
 20
-24.2697297571
 10
-1.5541262816
 20
-24.3373834843
 10
-1.5254758952
 20
-24.4760030443
  0
LINE
  5
335
100
AcDbEntity
  8
0
100
AcDbLine
 62
7
  6
CONTINUOUS
 10
-2.353679197
 20
-24.2552981933
 11
-2.8092525397
 21
-22.2090114605
  0
LINE
  5
336
100
AcDbEntity
  8
0
100
AcDbLine
 62
7
  6
CONTINUOUS
 10
-2.2626668637
 20
-23.9581666401
 11
-2.6678311835
 21
-22.1383007824
  0
LINE
  5
337
100
AcDbEntity
  8
0
100
AcDbLine
 62
7
  6
CONTINUOUS
 10
-1.5254758952
 20
-24.4760030443
 11
-1.4793540095
 21
-24.6924611315
  0
LINE
  5
338
100
AcDbEntity
  8
0
100
AcDbLine
 62
7
  6
CONTINUOUS
 10
-2.7606283419
 20
-23.6887866376
 11
-2.6803384882
 21
-24.0919685477
  0
LINE
  5
339
100
AcDbEntity
  8
0
100
AcDbLine
 62
7
  6
CONTINUOUS
 10
-1.2508057368
 20
-24.4815541821
 11
-1.2871862145
 21
-24.2963541182
  0
LINE
  5
33A
100
AcDbEntity
  8
0
100
AcDbLine
 62
7
  6
CONTINUOUS
 10
-1.1094111126
 20
-24.4107053902
 11
-1.1457648582
 21
-24.2256434401
  0
LINE
  5
33B
100
AcDbEntity
  8
0
100
AcDbLine
 62
7
  6
CONTINUOUS
 10
-1.1812317132
 20
-24.8415222796
 11
-1.2508057368
 21
-24.4815541821
  0
LINE
  5
33C
100
AcDbEntity
  8
0
100
AcDbLine
 62
7
  6
CONTINUOUS
 10
-1.0398103569
 20
-24.7708116015
 11
-1.1094111126
 21
-24.4107053902
  0
LINE
  5
33D
100
AcDbEntity
  8
0
100
AcDbLine
 62
7
  6
CONTINUOUS
 10
-2.9649885656
 20
-22.6308210529
 11
-2.8225687746
 21
-23.3768994309
  0
LWPOLYLINE
  5
33E
100
AcDbEntity
  8
0
100
AcDbPolyline
 62
7
  6
CONTINUOUS
 90
13
 70
0
 10
-1.1457648582
 20
-24.2256434401
 10
-1.1529812648
 20
-24.1872774083
 10
-1.1608015999
 20
-24.1498276645
 10
-1.1692258633
 20
-24.1132942087
 10
-1.1782003835
 20
-24.0775566657
 10
-1.1877788322
 20
-24.0427354108
 10
-1.1981222244
 20
-24.0091915695
 10
-1.2092865721
 20
-23.9769216275
 10
-1.2212158633
 20
-23.9459290991
 10
-1.2339030777
 20
-23.9165856532
 10
-1.2474019181
 20
-23.888876288
 10
-1.2616586816
 20
-23.8628160052
 10
-1.2765052394
 20
-23.8388214797
  0
LWPOLYLINE
  5
33F
100
AcDbEntity
  8
0
100
AcDbPolyline
 62
7
  6
CONTINUOUS
 90
15
 70
0
 10
-1.2871862145
 20
-24.2963541182
 10
-1.294111742
 20
-24.259213279
 10
-1.3017663255
 20
-24.2224718035
 10
-1.310149965
 20
-24.1861296918
 10
-1.319228858
 20
-24.1498943265
 10
-1.3290368069
 20
-24.114058325
 10
-1.3396752188
 20
-24.0794995395
 10
-1.3512430019
 20
-24.0462657831
 10
-1.363641248
 20
-24.0143092428
 10
-1.37667464
 20
-23.9843643313
 10
-1.3903516096
 20
-23.9566035601
 10
-1.4046637251
 20
-23.9308544178
 10
-1.4193903736
 20
-23.9073337828
 10
-1.4344580177
 20
-23.8861139477
 10
-1.4499401949
 20
-23.8671226198
  0
LINE
  5
340
100
AcDbEntity
  8
RACCORDO
100
AcDbLine
 62
7
  6
CONTINUOUS
 10
-2.867594506
 20
-18.7604221892
 11
-2.867594506
 21
-18.2723213822
  0
LINE
  5
341
100
AcDbEntity
  8
RACCORDO
100
AcDbLine
 62
7
  6
CONTINUOUS
 10
-2.8018860522
 20
-17.8170802185
 11
-2.8018860522
 21
-18.7932764162
  0
LINE
  5
342
100
AcDbEntity
  8
RACCORDO
100
AcDbLine
 62
7
  6
CONTINUOUS
 10
-2.7176879923
 20
-17.712881463
 11
-2.7176879923
 21
-18.8353754461
  0
LINE
  5
343
100
AcDbEntity
  8
0
100
AcDbLine
 62
7
  6
CONTINUOUS
 10
-2.2626668637
 20
-22.5035503591
 11
-2.2626668637
 21
-24.3008047044
  0
LINE
  5
344
100
AcDbEntity
  8
0
100
AcDbLine
 62
7
  6
CONTINUOUS
 10
-1.9642550742
 20
-23.4405235365
 11
-1.9642550742
 21
-22.9413097039
  0
LINE
  5
345
100
AcDbEntity
  8
0
100
AcDbLine
 62
7
  6
CONTINUOUS
 10
-1.9539780665
 20
-24.455149103
 11
-1.9539780665
 21
-23.7434884746
  0
LINE
  5
346
100
AcDbEntity
  8
0
100
AcDbLine
 62
7
  6
CONTINUOUS
 10
-1.8228337179
 20
-23.3698128584
 11
-1.8228337179
 21
-22.9950351831
  0
LINE
  5
347
100
AcDbEntity
  8
0
100
AcDbLine
 62
7
  6
CONTINUOUS
 10
-1.8125567103
 20
-24.3844384248
 11
-1.8125567103
 21
-23.8141991527
  0
LINE
  5
348
100
AcDbEntity
  8
0
100
AcDbLine
 62
7
  6
CONTINUOUS
 10
-1.4658369052
 20
-23.8503597991
 11
-1.4658369052
 21
-23.8396140468
  0
LWPOLYLINE
  5
349
100
AcDbEntity
  8
0
100
AcDbPolyline
 62
7
  6
CONTINUOUS
 90
11
 70
0
 10
-1.5463716791
 20
-23.3668710401
 10
-1.5474742275
 20
-23.3964821989
 10
-1.5502659223
 20
-23.4238090005
 10
-1.5547467636
 20
-23.4488514447
 10
-1.5611078835
 20
-23.4717591347
 10
-1.5691581498
 20
-23.4923824674
 10
-1.5783241656
 20
-23.5102726335
 10
-1.5883602525
 20
-23.5251904577
 10
-1.5995120888
 20
-23.5373751152
 10
-1.6119433129
 20
-23.5470953232
 10
-1.6206216851
 20
-23.5520979853
  0
LINE
  5
34A
100
AcDbEntity
  8
0
100
AcDbLine
 62
7
  6
CONTINUOUS
 10
-4.8328097139
 20
-23.0157329348
 11
-4.7659251906
 21
-21.8617287942
  0
LINE
  5
34B
100
AcDbEntity
  8
0
100
AcDbLine
 62
7
  6
CONTINUOUS
 10
-4.6913883577
 20
-22.9450222567
 11
-4.6532050018
 21
-22.286218865
  0
LINE
  5
34C
100
AcDbEntity
  8
0
100
AcDbLine
 62
7
  6
CONTINUOUS
 10
-4.995248405
 20
-21.1160135278
 11
-5.129317265
 21
-22.8674791593
  0
LWPOLYLINE
  5
34D
100
AcDbEntity
  8
RACCORDO
100
AcDbPolyline
 62
7
  6
CONTINUOUS
 90
10
 70
0
 10
-2.7176879923
 20
-17.7128808597
 10
-2.7186500303
 20
-17.7248845596
 10
-2.7218493081
 20
-17.7377786162
 10
-2.7272589328
 20
-17.7504679014
 10
-2.7348292503
 20
-17.7628587881
 10
-2.7444944967
 20
-17.7748599148
 10
-2.7561487468
 20
-17.7863614315
 10
-2.7696759799
 20
-17.7972764298
 10
-2.784964874
 20
-17.8075386738
 10
-2.8018860522
 20
-17.8170802185
  0
LINE
  5
34E
100
AcDbEntity
  8
0
100
AcDbLine
 62
7
  6
CONTINUOUS
 10
-6.0308437627
 20
-20.598215849
 11
-6.322518946
 21
-21.7041079933
  0
LINE
  5
34F
100
AcDbEntity
  8
ASSI
100
AcDbLine
 62
7
  6
CONTINUOUS
 10
-12.4488913911
 20
-13.1241475522
 11
-12.3428253739
 21
-12.941210733
  0
LINE
  5
350
100
AcDbEntity
  8
ASSI
100
AcDbLine
 62
7
  6
CONTINUOUS
 10
-12.0953380005
 20
-12.9473708569
 11
-11.9892719833
 21
-12.7644340377
  0
LINE
  5
351
100
AcDbEntity
  8
ASSI
100
AcDbLine
 62
7
  6
CONTINUOUS
 10
-11.7417846099
 20
-12.7705941616
 11
-11.6357185927
 21
-12.5876573424
  0
LINE
  5
352
100
AcDbEntity
  8
ASSI
100
AcDbLine
 62
7
  6
CONTINUOUS
 10
-11.3882312193
 20
-12.5938174663
 11
-11.2821652022
 21
-12.4108806471
  0
LINE
  5
353
100
AcDbEntity
  8
ASSI
100
AcDbLine
 62
7
  6
CONTINUOUS
 10
-11.5915422086
 20
-13.6898948589
 11
-11.3428542732
 21
-13.377268028
  0
LINE
  5
354
100
AcDbEntity
  8
RACCORDO
100
AcDbLine
 62
7
  6
CONTINUOUS
 10
-26.1066071554
 20
-7.9076460929
 11
-25.8430430357
 21
-7.7748478258
  0
LINE
  5
355
100
AcDbEntity
  8
RACCORDO
100
AcDbLine
 62
7
  6
CONTINUOUS
 10
-24.3990723283
 20
-6.8947017006
 11
-24.752517075
 21
-7.0700129005
  0
LINE
  5
356
100
AcDbEntity
  8
RACCORDO
100
AcDbLine
 62
7
  6
CONTINUOUS
 10
-24.1869726027
 20
-7.2605196146
 11
-24.2796079835
 21
-7.3064674463
  0
LINE
  5
357
100
AcDbEntity
  8
RACCORDO
100
AcDbLine
 62
7
  6
CONTINUOUS
 10
-26.0529411433
 20
-7.4135454011
 11
-25.5413338741
 21
-7.1641009414
  0
LINE
  5
358
100
AcDbEntity
  8
RACCORDO
100
AcDbLine
 62
7
  6
CONTINUOUS
 10
-25.8410666189
 20
-7.7789014303
 11
-25.3294925594
 21
-7.5294731626
  0
LWPOLYLINE
  5
359
100
AcDbEntity
  8
RACCORDO
100
AcDbPolyline
 62
7
  6
CONTINUOUS
 90
10
 70
0
 10
-26.3505883454
 20
-7.5578918345
 10
-26.3569183495
 20
-7.560895291
 10
-26.3633522255
 20
-7.5638430578
 10
-26.3698880135
 20
-7.5667342371
 10
-26.3765237226
 20
-7.5695679481
 10
-26.3832573317
 20
-7.5723433276
 10
-26.3900867897
 20
-7.5750595303
 10
-26.3970100165
 20
-7.5777157289
 10
-26.404024903
 20
-7.5803111141
 10
-26.4111293125
 20
-7.5828448954
  0
LWPOLYLINE
  5
35A
100
AcDbEntity
  8
RACCORDO
100
AcDbPolyline
 62
7
  6
CONTINUOUS
 90
10
 70
0
 10
-26.1133316315
 20
-7.9032798913
 10
-26.1276836278
 20
-7.90962552
 10
-26.1420245657
 20
-7.9165411419
 10
-26.1563348347
 20
-7.9240172981
 10
-26.1705948656
 20
-7.9320437633
 10
-26.1847851582
 20
-7.9406095597
 10
-26.1988863074
 20
-7.949702972
 10
-26.2128790301
 20
-7.9593115632
 10
-26.226744191
 20
-7.9694221922
 10
-26.2404628295
 20
-7.9800210311
  0
LINE
  5
35B
100
AcDbEntity
  8
DRAFT
100
AcDbLine
 62
7
  6
CONTINUOUS
 10
3.7792092371
 20
-22.5859739622
 11
3.7792092371
 21
-22.0838240608
  0
LINE
  5
35C
100
AcDbEntity
  8
RACCORDO
100
AcDbLine
 62
7
  6
CONTINUOUS
 10
4.2178462338
 20
-22.252874695
 11
4.2178462338
 21
-21.8149626061
  0
LINE
  5
35D
100
AcDbEntity
  8
0
100
AcDbLine
 62
7
  6
CONTINUOUS
 10
-3.119310378
 20
-23.2285286292
 11
-2.9649885656
 21
-22.6308210529
  0
LINE
  5
35E
100
AcDbEntity
  8
0
100
AcDbLine
 62
7
  6
CONTINUOUS
 10
-2.9778890218
 20
-23.1578179511
 11
-2.9126348597
 21
-22.905080464
  0
LINE
  5
35F
100
AcDbEntity
  8
0
100
AcDbLine
 62
7
  6
CONTINUOUS
 10
-3.268232723
 20
-23.7980214303
 11
-3.182709572
 21
-23.4777460225
  0
LINE
  5
360
100
AcDbEntity
  8
0
100
AcDbLine
 62
7
  6
CONTINUOUS
 10
-3.1268113667
 20
-23.7273107522
 11
-3.0746038298
 21
-23.5317988937
  0
LINE
  5
361
100
AcDbEntity
  8
0
100
AcDbLine
 62
7
  6
CONTINUOUS
 10
-3.1090778358
 20
-22.0590988125
 11
-3.574805939
 21
-23.6447348223
  0
LINE
  5
362
100
AcDbEntity
  8
0
100
AcDbLine
 62
7
  6
CONTINUOUS
 10
-6.1983934216
 20
-22.332941081
 11
-5.7211189718
 21
-20.7530782445
  0
LINE
  5
363
100
AcDbEntity
  8
0
100
AcDbLine
 62
7
  6
CONTINUOUS
 10
-6.0569720654
 20
-22.2622304028
 11
-5.5796976155
 21
-20.6823675663
  0
LINE
  5
364
100
AcDbEntity
  8
0
100
AcDbLine
 62
7
  6
CONTINUOUS
 10
-4.0689703415
 20
-21.5791525596
 11
-4.3789065574
 21
-22.4338211161
  0
LINE
  5
365
100
AcDbEntity
  8
0
100
AcDbLine
 62
7
  6
CONTINUOUS
 10
-4.3588650299
 20
-23.2527052768
 11
-3.990350674
 21
-22.2544662537
  0
LINE
  5
366
100
AcDbEntity
  8
0
100
AcDbLine
 62
7
  6
CONTINUOUS
 10
-4.2174436736
 20
-23.1819945987
 11
-3.9760077735
 21
-22.5279882262
  0
LINE
  5
367
100
AcDbEntity
  8
ASSI
100
AcDbLine
 62
7
  6
CONTINUOUS
 10
-11.1053885069
 20
-13.23619329
 11
-10.8506836332
 21
-13.0515972392
  0
LWPOLYLINE
  5
368
100
AcDbEntity
  8
RACCORDO
100
AcDbPolyline
 62
7
  6
CONTINUOUS
 90
16
 70
0
 10
22.0959336604
 20
8.9672081702
 10
22.0740283682
 20
8.9543951769
 10
22.0523974458
 20
8.9389560361
 10
22.031272656
 20
8.9210561692
 10
22.0108803389
 20
8.900887363
 10
21.9914389864
 20
8.8786657145
 10
21.9731569012
 20
8.8546293161
 10
21.9562299541
 20
8.8290356856
 10
21.940839521
 20
8.8021590604
 10
21.9271505283
 20
8.7742874673
 10
21.9153096314
 20
8.7457195316
 10
21.9054436897
 20
8.7167613505
 10
21.8976584163
 20
8.6877232743
 10
21.8920371973
 20
8.6589164489
 10
21.8886402183
 20
8.6306494799
 10
21.8875038415
 20
8.6032252085
  0
LINE
  5
369
100
AcDbEntity
  8
RACCORDO
100
AcDbLine
 62
7
  6
CONTINUOUS
 10
-19.7320912373
 20
-10.1580044681
 11
-19.1664058124
 21
-9.8630685319
  0
LINE
  5
36A
100
AcDbEntity
  8
RACCORDO
100
AcDbLine
 62
7
  6
CONTINUOUS
 10
-19.4321583677
 20
-10.4781402584
 11
-18.954273778
 21
-10.2289817462
  0
LINE
  5
36B
100
AcDbEntity
  8
RACCORDO
100
AcDbLine
 62
7
  6
CONTINUOUS
 10
-14.2818209933
 20
-12.3656591766
 11
-14.8475064183
 21
-12.6605951127
  0
LINE
  5
36C
100
AcDbEntity
  8
RACCORDO
100
AcDbLine
 62
7
  6
CONTINUOUS
 10
-14.145947666
 20
-12.3732976051
 11
-14.7116330909
 21
-12.6682335413
  0
LINE
  5
36D
100
AcDbEntity
  8
RACCORDO
100
AcDbLine
 62
7
  6
CONTINUOUS
 10
22.0959336614
 20
8.9672081697
 11
22.3874802486
 21
9.1141055608
  0
LINE
  5
36E
100
AcDbEntity
  8
RACCORDO
100
AcDbLine
 62
7
  6
CONTINUOUS
 10
22.5908330211
 20
8.113633037
 11
22.8823796084
 21
8.2605304282
  0
LINE
  5
36F
100
AcDbEntity
  8
ASSI
100
AcDbLine
 62
7
  6
CONTINUOUS
 10
-17.2925728422
 20
-11.5269971706
 11
-17.151151486
 21
-11.4562864925
  0
LINE
  5
370
100
AcDbEntity
  8
ASSI
100
AcDbLine
 62
7
  6
CONTINUOUS
 10
-16.9390194516
 20
-11.3502204753
 11
-16.7975980954
 21
-11.2795097972
  0
LINE
  5
371
100
AcDbEntity
  8
ASSI
100
AcDbLine
 62
7
  6
CONTINUOUS
 10
-16.5854660611
 20
-11.17344378
 11
-16.4440447048
 21
-11.1027331019
  0
LINE
  5
372
100
AcDbEntity
  8
ASSI
100
AcDbLine
 62
7
  6
CONTINUOUS
 10
-16.2319126705
 20
-10.9966670847
 11
-16.0904913142
 21
-10.9259564066
  0
LINE
  5
373
100
AcDbEntity
  8
ASSI
100
AcDbLine
 62
7
  6
CONTINUOUS
 10
-15.8783592799
 20
-10.8198903895
 11
-15.7369379236
 21
-10.7491797113
  0
LINE
  5
374
100
AcDbEntity
  8
ASSI
100
AcDbLine
 62
7
  6
CONTINUOUS
 10
-15.5248058893
 20
-10.6431136942
 11
-15.383384533
 21
-10.572403016
  0
LINE
  5
375
100
AcDbEntity
  8
ASSI
100
AcDbLine
 62
7
  6
CONTINUOUS
 10
-15.1712524987
 20
-10.4663369989
 11
-15.0298311424
 21
-10.3956263207
  0
LINE
  5
376
100
AcDbEntity
  8
0
100
AcDbLine
 62
7
  6
CONTINUOUS
 10
-15.1079533998
 20
-10.3804029855
 11
-17.4862263399
 21
-11.4511062723
  0
LWPOLYLINE
  5
377
100
AcDbEntity
  8
RACCORDO
100
AcDbPolyline
 62
7
  6
CONTINUOUS
 90
16
 70
0
 10
22.5908330211
 20
8.1136330353
 10
22.5674087706
 20
8.1034398767
 10
22.5420026396
 20
8.0945120277
 10
22.51488684
 20
8.0869451452
 10
22.4863519017
 20
8.0808203039
 10
22.4567035601
 20
8.0762031277
 10
22.4262594796
 20
8.0731430871
 10
22.395345831
 20
8.0716729679
 10
22.3642938558
 20
8.0718085243
 10
22.333436317
 20
8.073548299
 10
22.3031038247
 20
8.0768736431
 10
22.2736213759
 20
8.0817489184
 10
22.2453049234
 20
8.0881218618
 10
22.218457861
 20
8.0959241642
 10
22.1933677822
 20
8.105072217
 10
22.1703034756
 20
8.1154679899
  0
LINE
  5
378
100
AcDbEntity
  8
DRAFT
100
AcDbLine
 62
7
  6
CONTINUOUS
 10
-26.0551427613
 20
18.7409433266
 11
-25.5413338741
 21
18.4840388831
  0
LINE
  5
379
100
AcDbEntity
  8
RACCORDO
100
AcDbLine
 62
7
  6
CONTINUOUS
 10
-25.9718782357
 20
18.7505466224
 11
-26.0551427613
 21
18.7921788851
  0
LINE
  5
37A
100
AcDbEntity
  8
RACCORDO
100
AcDbLine
 62
7
  6
CONTINUOUS
 10
-24.9646491094
 20
18.5581044279
 11
-25.5750200788
 21
18.8632899126
  0
LINE
  5
37B
100
AcDbEntity
  8
0
100
AcDbLine
 62
7
  6
CONTINUOUS
 10
-10.8504895542
 20
-12.5091349082
 11
-12.2831464176
 21
-13.3046982292
  0
LINE
  5
37C
100
AcDbEntity
  8
RACCORDO
100
AcDbLine
 62
7
  6
CONTINUOUS
 10
-11.1497870527
 20
-14.0053566839
 11
-12.052980495
 21
-14.4926502669
  0
LINE
  5
37D
100
AcDbEntity
  8
RACCORDO
100
AcDbLine
 62
7
  6
CONTINUOUS
 10
-11.0124934669
 20
-14.0122470357
 11
-11.9156869092
 21
-14.4995406186
  0
LINE
  5
37E
100
AcDbEntity
  8
0
100
AcDbLine
 62
7
  6
CONTINUOUS
 10
-11.1053885069
 20
-13.23619329
 11
-11.7941094881
 21
-13.5871367238
  0
LINE
  5
37F
100
AcDbEntity
  8
RACCORDO
100
AcDbLine
 62
7
  6
CONTINUOUS
 10
-12.4797155693
 20
-13.7841923021
 11
-11.9041560685
 21
-13.4941934038
  0
LINE
  5
380
100
AcDbEntity
  8
RACCORDO
100
AcDbLine
 62
7
  6
CONTINUOUS
 10
-12.1783612811
 20
-14.1050388017
 11
-11.6920563429
 21
-13.8600113178
  0
LINE
  5
381
100
AcDbEntity
  8
0
100
AcDbLine
 62
7
  6
CONTINUOUS
 10
-11.5915422086
 20
-13.6898948589
 11
-11.7094000058
 21
-13.7490880995
  0
LINE
  5
382
100
AcDbEntity
  8
ASSI
100
AcDbLine
 62
7
  6
CONTINUOUS
 10
-12.676473392
 20
-13.1080347421
 11
-12.5549574083
 21
-13.0472767502
  0
LINE
  5
383
100
AcDbEntity
  8
ASSI
100
AcDbLine
 62
7
  6
CONTINUOUS
 10
-12.3428253739
 20
-12.941210733
 11
-12.2014040177
 21
-12.8705000549
  0
LINE
  5
384
100
AcDbEntity
  8
ASSI
100
AcDbLine
 62
7
  6
CONTINUOUS
 10
-11.9892719833
 20
-12.7644340377
 11
-11.8478506271
 21
-12.6937233596
  0
LINE
  5
385
100
AcDbEntity
  8
ASSI
100
AcDbLine
 62
7
  6
CONTINUOUS
 10
-11.6357185927
 20
-12.5876573424
 11
-11.4942972365
 21
-12.5169466643
  0
LINE
  5
386
100
AcDbEntity
  8
ASSI
100
AcDbLine
 62
7
  6
CONTINUOUS
 10
-11.2821652022
 20
-12.4108806471
 11
-11.1407438459
 21
-12.340169969
  0
LINE
  5
387
100
AcDbEntity
  8
ASSI
100
AcDbLine
 62
7
  6
CONTINUOUS
 10
-11.0346778287
 20
-12.417040771
 11
-12.5465695814
 21
-13.1729866473
  0
LINE
  5
388
100
AcDbEntity
  8
0
100
AcDbLine
 62
7
  6
CONTINUOUS
 10
-10.8434760244
 20
-13.0176037577
 11
-11.8585570076
 21
-13.5233214561
  0
LWPOLYLINE
  5
389
100
AcDbEntity
  8
ASSI
100
AcDbPolyline
 62
7
  6
CONTINUOUS
 90
10
 70
0
 10
-10.8434760244
 20
-12.5054776228
 10
-10.8331725918
 20
-12.500418433
 10
-10.8240096305
 20
-12.4963050103
 10
-10.8160436921
 20
-12.4930551677
 10
-10.8094108663
 20
-12.4905436593
 10
-10.8040501795
 20
-12.4887094138
 10
-10.7997101335
 20
-12.4875762823
 10
-10.7963880788
 20
-12.4870737629
 10
-10.7941142467
 20
-12.4871075961
 10
-10.7931214839
 20
-12.4874172827
  0
LINE
  5
38A
100
AcDbEntity
  8
DRAFT
100
AcDbLine
 62
7
  6
CONTINUOUS
 10
-12.1306933396
 20
-14.1288727725
 11
-12.6672849984
 21
-14.3627268444
  0
LWPOLYLINE
  5
38B
100
AcDbEntity
  8
ASSI
100
AcDbPolyline
 62
7
  6
CONTINUOUS
 90
4
 70
0
 10
-15.1001640858
 20
-10.3771335921
 10
-15.087551691
 20
-10.3734126847
 10
-15.0745210963
 20
-10.3711962578
 10
-15.0612190458
 20
-10.3704674909
  0
LINE
  5
38C
100
AcDbEntity
  8
RACCORDO
100
AcDbLine
 62
7
  6
CONTINUOUS
 10
9.5906235113
 20
-24.9895311979
 11
9.5906235113
 21
-24.573573576
  0
LINE
  5
38D
100
AcDbEntity
  8
RACCORDO
100
AcDbLine
 62
7
  6
CONTINUOUS
 10
12.8655313754
 20
-26.1388843229
 11
12.8655313754
 21
-26.6269851299
  0
LINE
  5
38E
100
AcDbEntity
  8
RACCORDO
100
AcDbLine
 62
7
  6
CONTINUOUS
 10
-6.1913997679
 20
-16.9901066438
 11
-5.6355884188
 21
-16.6902336697
  0
LINE
  5
38F
100
AcDbEntity
  8
RACCORDO
100
AcDbLine
 62
7
  6
CONTINUOUS
 10
-6.0541061822
 20
-16.9969969956
 11
-5.4982948331
 21
-16.6971240215
  0
LINE
  5
390
100
AcDbEntity
  8
RACCORDO
100
AcDbLine
 62
7
  6
CONTINUOUS
 10
-7.4666629798
 20
-16.7240525834
 11
-6.531378791
 21
-16.2528043736
  0
LINE
  5
391
100
AcDbEntity
  8
RACCORDO
100
AcDbLine
 62
7
  6
CONTINUOUS
 10
-6.733639066
 20
-16.8273999093
 11
-6.3192790654
 21
-16.6186222876
  0
LINE
  5
392
100
AcDbEntity
  8
RACCORDO
100
AcDbLine
 62
7
  6
CONTINUOUS
 10
-4.6817622639
 20
-16.6713788634
 11
-5.1329958773
 21
-16.8797734994
  0
LINE
  5
393
100
AcDbEntity
  8
RACCORDO
100
AcDbLine
 62
7
  6
CONTINUOUS
 10
-4.5522764364
 20
-16.6821169753
 11
-5.0596578364
 21
-16.9164425198
  0
LINE
  5
394
100
AcDbEntity
  8
DRAFT
100
AcDbLine
 62
7
  6
CONTINUOUS
 10
-6.8273924807
 20
-16.7805232019
 11
-7.3639841395
 21
-17.0143772738
  0
LWPOLYLINE
  5
395
100
AcDbEntity
  8
RACCORDO
100
AcDbPolyline
 62
7
  6
CONTINUOUS
 90
9
 70
0
 10
-4.6817622639
 20
-16.6713788634
 10
-4.6724579951
 20
-16.667579182
 10
-4.6569531506
 20
-16.6632528319
 10
-4.6406801657
 20
-16.6610603146
 10
-4.6237628226
 20
-16.661018295
 10
-4.6063298024
 20
-16.6631270887
 10
-4.5885137217
 20
-16.6673706551
 10
-4.570450126
 20
-16.6737167101
 10
-4.5522764364
 20
-16.6821169753
  0
LINE
  5
396
100
AcDbEntity
  8
RACCORDO
100
AcDbLine
 62
7
  6
CONTINUOUS
 10
-25.9718782357
 20
24.719001965
 11
-25.9919136219
 21
24.7290196581
  0
LINE
  5
397
100
AcDbEntity
  8
RACCORDO
100
AcDbLine
 62
7
  6
CONTINUOUS
 10
-25.036594047
 20
25.1902501747
 11
-25.5413338741
 21
25.4426200883
  0
LINE
  5
398
100
AcDbEntity
  8
SMUSSO
100
AcDbLine
 62
7
  6
CONTINUOUS
 10
29.6239620895
 20
23.1922601104
 11
30.3310688707
 21
24.4118389048
  0
LINE
  5
399
100
AcDbEntity
  8
DRAFT
100
AcDbLine
 62
7
  6
CONTINUOUS
 10
32.1555527689
 20
25.2628381293
 11
32.4506870561
 21
25.7718694809
  0
LINE
  5
39A
100
AcDbEntity
  8
RACCORDO
100
AcDbLine
 62
7
  6
CONTINUOUS
 10
-3.6454119653
 20
-18.2013441041
 11
-3.0797265404
 21
-17.9064081679
  0
LINE
  5
39B
100
AcDbEntity
  8
RACCORDO
100
AcDbLine
 62
7
  6
CONTINUOUS
 10
-3.3454790957
 20
-18.5214798944
 11
-2.867594506
 21
-18.2723213822
  0
LINE
  5
39C
100
AcDbEntity
  8
0
100
AcDbLine
 62
7
  6
CONTINUOUS
 10
-6.800813751
 20
-20.0718094986
 11
-6.9422351072
 21
-20.1425201767
  0
LINE
  5
39D
100
AcDbEntity
  8
0
100
AcDbLine
 62
7
  6
CONTINUOUS
 10
-6.4641276856
 20
-20.2401525313
 11
-6.6055490418
 21
-20.3108632094
  0
LINE
  5
39E
100
AcDbEntity
  8
0
100
AcDbLine
 62
7
  6
CONTINUOUS
 10
-5.8894224065
 20
-20.5275051708
 11
-6.0308437627
 21
-20.598215849
  0
LINE
  5
39F
100
AcDbEntity
  8
0
100
AcDbLine
 62
7
  6
CONTINUOUS
 10
-5.5796976155
 20
-20.6823675663
 11
-5.7211189718
 21
-20.7530782445
  0
LINE
  5
3A0
100
AcDbEntity
  8
0
100
AcDbLine
 62
7
  6
CONTINUOUS
 10
-5.4646803336
 20
-20.7397670881
 11
-5.6061016898
 21
-20.8104777662
  0
LINE
  5
3A1
100
AcDbEntity
  8
0
100
AcDbLine
 62
7
  6
CONTINUOUS
 10
-5.1547441177
 20
-20.894735196
 11
-5.2961654739
 21
-20.9654458742
  0
LINE
  5
3A2
100
AcDbEntity
  8
0
100
AcDbLine
 62
7
  6
CONTINUOUS
 10
-4.8538270488
 20
-21.0453028497
 11
-4.995248405
 21
-21.1160135278
  0
LINE
  5
3A3
100
AcDbEntity
  8
0
100
AcDbLine
 62
7
  6
CONTINUOUS
 10
-4.5441475127
 20
-21.2001426178
 11
-4.6855688689
 21
-21.2708532959
  0
LINE
  5
3A4
100
AcDbEntity
  8
0
100
AcDbLine
 62
7
  6
CONTINUOUS
 10
-6.0569720654
 20
-22.2622304028
 11
-6.1983934216
 21
-22.332941081
  0
LINE
  5
3A5
100
AcDbEntity
  8
0
100
AcDbLine
 62
7
  6
CONTINUOUS
 10
-3.9275489852
 20
-21.5084418815
 11
-4.0689703415
 21
-21.5791525596
  0
LINE
  5
3A6
100
AcDbEntity
  8
0
100
AcDbLine
 62
7
  6
CONTINUOUS
 10
-3.6208979874
 20
-21.6617673804
 11
-3.7623193437
 21
-21.7324780585
  0
LINE
  5
3A7
100
AcDbEntity
  8
0
100
AcDbLine
 62
7
  6
CONTINUOUS
 10
-5.1547441177
 20
-22.7133443767
 11
-5.2961654739
 21
-22.7840550548
  0
LINE
  5
3A8
100
AcDbEntity
  8
RACCORDO
100
AcDbLine
 62
7
  6
CONTINUOUS
 10
-3.0139857778
 20
-17.4512623046
 11
-3.5039583004
 21
-17.6942922879
  0
LINE
  5
3A9
100
AcDbEntity
  8
RACCORDO
100
AcDbLine
 62
7
  6
CONTINUOUS
 10
-2.8018860522
 20
-17.8170802185
 11
-3.036703027
 21
-17.9335511692
  0
LWPOLYLINE
  5
3AA
100
AcDbEntity
  8
RACCORDO
100
AcDbPolyline
 62
7
  6
CONTINUOUS
 90
8
 70
0
 10
-4.6817622639
 20
-16.6713788634
 10
-4.6551174131
 20
-16.6605906716
 10
-4.6271585596
 20
-16.6523029158
 10
-4.5981735782
 20
-16.6467183091
 10
-4.5684167788
 20
-16.6439941032
 10
-4.5383190171
 20
-16.6442563622
 10
-4.5084181264
 20
-16.6475301302
 10
-4.4789615915
 20
-16.6537906908
  0
LWPOLYLINE
  5
3AB
100
AcDbEntity
  8
RACCORDO
100
AcDbPolyline
 62
7
  6
CONTINUOUS
 90
13
 70
0
 10
-28.3036513407
 20
31.1136129178
 10
-28.2775902258
 20
31.1020167454
 10
-28.2490128126
 20
31.0920116941
 10
-28.2183055417
 20
31.0837330731
 10
-28.1858836574
 20
31.077292846
 10
-28.1521856002
 20
31.072778117
 10
-28.1176670787
 20
31.0702499512
 10
-28.0827948907
 20
31.0697425477
 10
-28.0480406262
 20
31.0712627795
 10
-28.0138742967
 20
31.0747900967
 10
-27.9807579554
 20
31.0802768044
 10
-27.9491394487
 20
31.0876487108
 10
-27.9194463754
 20
31.0968061284
  0
LINE
  5
3AC
100
AcDbEntity
  8
RACCORDO
100
AcDbLine
 62
7
  6
CONTINUOUS
 10
-27.8204606132
 20
31.2688612613
 11
20.1905978536
 21
7.2633320279
  0
LINE
  5
3AD
100
AcDbEntity
  8
RACCORDO
100
AcDbLine
 62
7
  6
CONTINUOUS
 10
-27.8984285689
 20
31.4311234015
 11
20.1126298914
 21
7.4255941713
  0
LINE
  5
3AE
100
AcDbEntity
  8
RACCORDO
100
AcDbLine
 62
7
  6
CONTINUOUS
 10
21.8875038415
 20
8.6032252085
 11
-29.6755858646
 21
34.3847700616
  0
LINE
  5
3AF
100
AcDbEntity
  8
RACCORDO
100
AcDbLine
 62
7
  6
CONTINUOUS
 10
22.0959336614
 20
8.9672081697
 11
-29.4648726991
 21
34.7476113499
  0
LINE
  5
3B0
100
AcDbEntity
  8
RACCORDO
100
AcDbLine
 62
7
  6
CONTINUOUS
 10
22.3874802486
 20
9.1141055608
 11
-29.1833294325
 21
34.8995104013
  0
LWPOLYLINE
  5
3B1
100
AcDbEntity
  8
RACCORDO
100
AcDbPolyline
 62
7
  6
CONTINUOUS
 90
22
 70
0
 10
20.1906292988
 20
7.2633161291
 10
20.1972428009
 20
7.2598307972
 10
20.210689079
 20
7.2517252457
 10
20.2258408632
 20
7.241088818
 10
20.2421647348
 20
7.2279399738
 10
20.2593146861
 20
7.2122613494
 10
20.276957682
 20
7.1940903121
 10
20.2946536549
 20
7.1736557269
 10
20.3120588861
 20
7.1511908924
 10
20.3289254617
 20
7.1268842076
 10
20.3450405229
 20
7.1009194501
 10
20.3601623335
 20
7.0735900255
 10
20.3740949635
 20
7.045193954
 10
20.3867259463
 20
7.0159073066
 10
20.39789739
 20
6.9860551993
 10
20.4074867145
 20
6.9559767287
 10
20.4154387677
 20
6.9258867878
 10
20.4216875826
 20
6.8960962509
 10
20.4261857255
 20
6.8669821257
 10
20.4289296763
 20
6.8389416737
 10
20.4299694777
 20
6.8123663688
 10
20.4299840953
 20
6.8090589862
  0
LWPOLYLINE
  5
3B2
100
AcDbEntity
  8
RACCORDO
100
AcDbPolyline
 62
7
  6
CONTINUOUS
 90
22
 70
0
 10
21.8875038415
 20
8.6032252085
 10
21.9087044324
 20
8.5916415258
 10
21.9295930676
 20
8.5783277276
 10
21.950169747
 20
8.5632838139
 10
21.9705573322
 20
8.5464016861
 10
21.9906329617
 20
8.5277894429
 10
22.0100280507
 20
8.5077713801
 10
22.0287203241
 20
8.4863299442
 10
22.0467320571
 20
8.4634826887
 10
22.0637614908
 20
8.4396065703
 10
22.0797940132
 20
8.4146792947
 10
22.0948442362
 20
8.3887231561
 10
22.108654237
 20
8.3621819939
 10
22.121200157
 20
8.3350487638
 10
22.1325058548
 20
8.30733051
 10
22.1423849832
 20
8.2794922048
 10
22.1508134127
 20
8.2515185885
 10
22.1578152728
 20
8.2234249208
 10
22.1632766051
 20
8.195721952
 10
22.1671594232
 20
8.1685799324
 10
22.1695017134
 20
8.1418286117
 10
22.1703034756
 20
8.1154679899
  0
LWPOLYLINE
  5
3B3
100
AcDbEntity
  8
RACCORDO
100
AcDbPolyline
 62
7
  6
CONTINUOUS
 90
6
 70
0
 10
20.1126298914
 20
7.4255941713
 10
20.148617463
 20
7.4055209465
 10
20.1836058112
 20
7.382367175
 10
20.2175949363
 20
7.3561328567
 10
20.2507488828
 20
7.3266351597
 10
20.2829036061
 20
7.2940569159
  0
LWPOLYLINE
  5
3B4
100
AcDbEntity
  8
RACCORDO
100
AcDbPolyline
 62
7
  6
CONTINUOUS
 90
8
 70
0
 10
20.5178526632
 20
6.7028609159
 10
20.494659998
 20
6.7158916094
 10
20.4746496958
 20
6.730180446
 10
20.4580923614
 20
6.7455341938
 10
20.4452119045
 20
6.7617452197
 10
20.436182511
 20
6.7785942972
 10
20.4311262881
 20
6.7958535717
 10
20.4299846975
 20
6.8089269331
  0
LWPOLYLINE
  5
3B5
100
AcDbEntity
  8
RACCORDO
100
AcDbPolyline
 62
7
  6
CONTINUOUS
 90
10
 70
0
 10
20.1126298914
 20
7.4255941713
 10
20.1137283678
 20
7.3997378293
 10
20.1170124149
 20
7.3752477447
 10
20.1224480209
 20
7.3523775488
 10
20.1299788914
 20
7.3313640967
 10
20.1395270326
 20
7.3124250139
 10
20.1509935586
 20
7.2957564425
 10
20.164259716
 20
7.2815310101
 10
20.1791881136
 20
7.269896042
 10
20.1905978542
 20
7.2633320277
  0
LWPOLYLINE
  5
3B6
100
AcDbEntity
  8
RACCORDO
100
AcDbPolyline
 62
7
  6
CONTINUOUS
 90
22
 70
0
 10
22.5908330211
 20
8.113633037
 10
22.5891811307
 20
8.1594916214
 10
22.5847885695
 20
8.206485142
 10
22.5776818041
 20
8.254351788
 10
22.5679035673
 20
8.3028253439
 10
22.55550879
 20
8.351634999
 10
22.5405642459
 20
8.4005068617
 10
22.5231539566
 20
8.4491680935
 10
22.5033767591
 20
8.4973472927
 10
22.4813419104
 20
8.5447743363
 10
22.4571725037
 20
8.5911837826
 10
22.4310044791
 20
8.6363169003
 10
22.4029838054
 20
8.6799219282
 10
22.3732660145
 20
8.7217548602
 10
22.3420175896
 20
8.7615816782
 10
22.3094147306
 20
8.799180212
 10
22.2756383464
 20
8.8343394239
 10
22.2408766436
 20
8.8668626313
 10
22.2053262671
 20
8.8965694046
 10
22.1691856662
 20
8.9232935521
 10
22.1326540057
 20
8.9468840975
 10
22.0959336614
 20
8.9672081697
  0
LINE
  5
3B7
100
AcDbEntity
  8
RACCORDO
100
AcDbLine
 62
7
  6
CONTINUOUS
 10
20.4299846975
 20
6.8089269331
 11
20.4299846975
 21
-32.9828874375
  0
LINE
  5
3B8
100
AcDbEntity
  8
RACCORDO
100
AcDbLine
 62
7
  6
CONTINUOUS
 10
20.5178526632
 20
6.7028609159
 11
20.5178526632
 21
-33.0889534759
  0
LINE
  5
3B9
100
AcDbEntity
  8
RACCORDO
100
AcDbLine
 62
7
  6
CONTINUOUS
 10
22.1703034756
 20
-36.1540113624
 11
22.1703034756
 21
8.1154679899
  0
LINE
  5
3BA
100
AcDbEntity
  8
RACCORDO
100
AcDbLine
 62
7
  6
CONTINUOUS
 10
22.5908330211
 20
-36.1558463153
 11
22.5908330211
 21
8.113633037
  0
LINE
  5
3BB
100
AcDbEntity
  8
RACCORDO
100
AcDbLine
 62
7
  6
CONTINUOUS
 10
22.8823796084
 20
-36.0212004398
 11
22.8823796084
 21
8.2605304282
  0
LWPOLYLINE
  5
3BC
100
AcDbEntity
  8
RACCORDO
100
AcDbPolyline
 62
7
  6
CONTINUOUS
 90
8
 70
0
 10
20.4299842719
 20
-32.9830256383
 10
20.4298434111
 20
-32.9934773648
 10
20.4289451629
 20
-33.0108656781
 10
20.4272752164
 20
-33.0268051601
 10
20.4249673893
 20
-33.040865003
 10
20.4223255315
 20
-33.0523181648
 10
20.4196879523
 20
-33.0609563775
 10
20.41918895
 20
-33.0623529742
  0
LWPOLYLINE
  5
3BD
100
AcDbEntity
  8
RACCORDO
100
AcDbPolyline
 62
7
  6
CONTINUOUS
 90
19
 70
0
 10
20.5178526632
 20
-33.0889534759
 10
20.5159485465
 20
-33.13710884
 10
20.5110125748
 20
-33.1820943498
 10
20.5030447479
 20
-33.2239100054
 10
20.4918770495
 20
-33.2627372143
 10
20.477677496
 20
-33.298394569
 10
20.4609501366
 20
-33.3303378461
 10
20.4416788735
 20
-33.3584652999
 10
20.4198798045
 20
-33.3828786761
 10
20.3961052712
 20
-33.4033389887
 10
20.3703726389
 20
-33.4197912139
 10
20.3426645424
 20
-33.4322903756
 10
20.3134812274
 20
-33.4407625585
 10
20.2828328628
 20
-33.4451985804
 10
20.2507092797
 20
-33.4456076235
 10
20.2175802171
 20
-33.4419433199
 10
20.1836022547
 20
-33.4341902133
 10
20.1486188128
 20
-33.4223637599
 10
20.1126298914
 20
-33.4064639596
  0
LWPOLYLINE
  5
3BE
100
AcDbEntity
  8
RACCORDO
100
AcDbPolyline
 62
7
  6
CONTINUOUS
 90
13
 70
0
 10
20.1126298914
 20
-33.4064639596
 10
20.1137283645
 20
-33.3795091551
 10
20.1170124073
 20
-33.3517350352
 10
20.1224480088
 20
-33.3234292424
 10
20.129978875
 20
-33.294884926
 10
20.1395270126
 20
-33.2663977051
 10
20.1509935362
 20
-33.2382626077
 10
20.1642596927
 20
-33.2107710152
 10
20.1791880911
 20
-33.1842076442
 10
20.1956241254
 20
-33.1588475985
 10
20.2133975758
 20
-33.1349535194
 10
20.2323243715
 20
-33.112772866
 10
20.252208497
 20
-33.0925353524
  0
LINE
  5
3BF
100
AcDbEntity
  8
RACCORDO
100
AcDbLine
 62
7
  6
CONTINUOUS
 10
4.760115524
 20
-21.9603079723
 11
3.8569220817
 21
-22.4476015552
  0
LINE
  5
3C0
100
AcDbEntity
  8
RACCORDO
100
AcDbLine
 62
7
  6
CONTINUOUS
 10
4.8974091098
 20
-21.9671983241
 11
3.9942156675
 21
-22.454491907
  0
LINE
  5
3C1
100
AcDbEntity
  8
RACCORDO
100
AcDbLine
 62
7
  6
CONTINUOUS
 10
1.4513048881
 20
-20.2322221173
 11
0.8856194631
 21
-20.5271580534
  0
LINE
  5
3C2
100
AcDbEntity
  8
RACCORDO
100
AcDbLine
 62
7
  6
CONTINUOUS
 10
1.5871782154
 20
-20.2398605458
 11
1.0214927905
 21
-20.534796482
  0
LINE
  5
3C3
100
AcDbEntity
  8
RACCORDO
100
AcDbLine
 62
7
  6
CONTINUOUS
 10
3.4301870074
 20
-21.7391435904
 11
4.0057465082
 21
-21.4491446921
  0
LINE
  5
3C4
100
AcDbEntity
  8
RACCORDO
100
AcDbLine
 62
7
  6
CONTINUOUS
 10
3.7315412956
 20
-22.05999009
 11
4.2178462338
 21
-21.8149626061
  0
LINE
  5
3C5
100
AcDbEntity
  8
0
100
AcDbLine
 62
7
  6
CONTINUOUS
 10
-2.9676564795
 20
-21.9883881343
 11
-3.1090778358
 21
-22.0590988125
  0
LINE
  5
3C6
100
AcDbEntity
  8
0
100
AcDbLine
 62
7
  6
CONTINUOUS
 10
-4.6913883577
 20
-22.9450222567
 11
-4.8328097139
 21
-23.0157329348
  0
LINE
  5
3C7
100
AcDbEntity
  8
0
100
AcDbLine
 62
7
  6
CONTINUOUS
 10
-2.6678311835
 20
-22.1383007824
 11
-2.8092525397
 21
-22.2090114605
  0
LINE
  5
3C8
100
AcDbEntity
  8
0
100
AcDbLine
 62
7
  6
CONTINUOUS
 10
-4.2174436736
 20
-23.1819945987
 11
-4.3588650299
 21
-23.2527052768
  0
LINE
  5
3C9
100
AcDbEntity
  8
0
100
AcDbLine
 62
7
  6
CONTINUOUS
 10
-2.1212455075
 20
-22.432839681
 11
-2.2626668637
 21
-22.5035503591
  0
LINE
  5
3CA
100
AcDbEntity
  8
0
100
AcDbLine
 62
7
  6
CONTINUOUS
 10
-2.9778890218
 20
-23.1578179511
 11
-3.119310378
 21
-23.2285286292
  0
LINE
  5
3CB
100
AcDbEntity
  8
0
100
AcDbLine
 62
7
  6
CONTINUOUS
 10
-3.5580506588
 20
-23.5876891437
 11
-3.6234739775
 21
-23.6204008031
  0
LINE
  5
3CC
100
AcDbEntity
  8
0
100
AcDbLine
 62
7
  6
CONTINUOUS
 10
-1.3563711415
 20
-22.834422849
 11
-1.4977924978
 21
-22.9051335272
  0
LINE
  5
3CD
100
AcDbEntity
  8
0
100
AcDbLine
 62
7
  6
CONTINUOUS
 10
-3.1268113667
 20
-23.7273107522
 11
-3.268232723
 21
-23.7980214303
  0
LINE
  5
3CE
100
AcDbEntity
  8
0
100
AcDbLine
 62
7
  6
CONTINUOUS
 10
-1.8228337179
 20
-23.3698128584
 11
-1.9642550742
 21
-23.4405235365
  0
LINE
  5
3CF
100
AcDbEntity
  8
0
100
AcDbLine
 62
7
  6
CONTINUOUS
 10
-1.6457084335
 20
-23.4583755006
 11
-1.7871297898
 21
-23.5290861788
  0
LINE
  5
3D0
100
AcDbEntity
  8
0
100
AcDbLine
 62
7
  6
CONTINUOUS
 10
-2.2626668637
 20
-24.2097920267
 11
-2.353679197
 21
-24.2552981933
  0
LINE
  5
3D1
100
AcDbEntity
  8
0
100
AcDbLine
 62
7
  6
CONTINUOUS
 10
-1.4615386043
 20
-23.8482106486
 11
-1.4658369052
 21
-23.8503597991
  0
LINE
  5
3D2
100
AcDbEntity
  8
0
100
AcDbLine
 62
7
  6
CONTINUOUS
 10
-1.4228056174
 20
-23.8329214071
 11
-1.2813842611
 21
-23.762210729
  0
LINE
  5
3D3
100
AcDbEntity
  8
0
100
AcDbLine
 62
7
  6
CONTINUOUS
 10
-1.8125567103
 20
-24.3844384248
 11
-1.9539780665
 21
-24.455149103
  0
LINE
  5
3D4
100
AcDbEntity
  8
0
100
AcDbLine
 62
7
  6
CONTINUOUS
 10
-1.1457648582
 20
-24.2256434401
 11
-1.2871862145
 21
-24.2963541182
  0
LINE
  5
3D5
100
AcDbEntity
  8
0
100
AcDbLine
 62
7
  6
CONTINUOUS
 10
-1.0398103569
 20
-24.7708116015
 11
-1.1812317132
 21
-24.8415222796
  0
LWPOLYLINE
  5
3D6
100
AcDbEntity
  8
0
100
AcDbPolyline
 62
7
  6
CONTINUOUS
 90
49
 70
0
 10
-1.2813555927
 20
-23.7622696847
 10
-1.2762873075
 20
-23.7597939776
 10
-1.2694111992
 20
-23.756129476
 10
-1.2624581638
 20
-23.7522412941
 10
-1.2554040389
 20
-23.7482235925
 10
-1.2482729869
 20
-23.7439822106
 10
-1.2411023676
 20
-23.739398129
 10
-1.2338891895
 20
-23.7344916769
 10
-1.2266364441
 20
-23.7292425251
 10
-1.219390466
 20
-23.7234706668
 10
-1.2121440082
 20
-23.7171753136
 10
-1.2049043178
 20
-23.7103572538
 10
-1.1977394704
 20
-23.7028388466
 10
-1.1906462179
 20
-23.6945934532
 10
-1.1836278085
 20
-23.6856477122
 10
-1.1767620626
 20
-23.6759038992
 10
-1.1700407737
 20
-23.6653580241
 10
-1.1634721483
 20
-23.6540140769
 10
-1.1571586264
 20
-23.6417863034
 10
-1.1510880119
 20
-23.628667658
 10
-1.1452725008
 20
-23.6146651862
 10
-1.1398511214
 20
-23.5997142701
 10
-1.1348237553
 20
-23.5838274062
 10
-1.1301905208
 20
-23.5669920979
 10
-1.1260908005
 20
-23.5491062376
 10
-1.1225214962
 20
-23.5301960127
 10
-1.119485706
 20
-23.5102352358
 10
-1.1171321079
 20
-23.4890432362
 10
-1.1154381016
 20
-23.4666364132
 10
-1.1144262874
 20
-23.4429983674
 10
-1.1143131435
 20
-23.4178992302
 10
-1.1150148637
 20
-23.3913385293
 10
-1.1166152543
 20
-23.363316737
 10
-1.1195822121
 20
-23.3336054004
 10
-1.1238838374
 20
-23.3019962318
 10
-1.1295520298
 20
-23.268697519
 10
-1.1371503847
 20
-23.2341056726
 10
-1.1468695927
 20
-23.1979255911
 10
-1.1585189632
 20
-23.160452376
 10
-1.1720900202
 20
-23.1229677433
 10
-1.1877778829
 20
-23.0854572784
 10
-1.2053874321
 20
-23.0479353959
 10
-1.2243248334
 20
-23.0117270557
 10
-1.2446986355
 20
-22.9769142245
 10
-1.2664002898
 20
-22.9434149356
 10
-1.2885103156
 20
-22.9123082477
 10
-1.3107222194
 20
-22.8839538471
 10
-1.3333424947
 20
-22.8579920476
 10
-1.3563711415
 20
-22.834422849
  0
LWPOLYLINE
  5
3D7
100
AcDbEntity
  8
0
100
AcDbPolyline
 62
7
  6
CONTINUOUS
 90
46
 70
0
 10
-1.4228059986
 20
-23.832920618
 10
-1.4155022341
 20
-23.8293594202
 10
-1.4081637768
 20
-23.8254090535
 10
-1.4007584985
 20
-23.8212005808
 10
-1.3932726947
 20
-23.8168343525
 10
-1.38572007
 20
-23.8122100182
 10
-1.378131572
 20
-23.8071675922
 10
-1.3704997417
 20
-23.8017313588
 10
-1.3628320383
 20
-23.7958770337
 10
-1.3551817868
 20
-23.7893717778
 10
-1.3475399798
 20
-23.7822028953
 10
-1.3399156247
 20
-23.7743830819
 10
-1.3323890695
 20
-23.7657175865
 10
-1.3249512758
 20
-23.7561805427
 10
-1.3176112819
 20
-23.7457978169
 10
-1.3104765499
 20
-23.7344522575
 10
-1.3035333109
 20
-23.7221391888
 10
-1.2967953339
 20
-23.7088632865
 10
-1.290411388
 20
-23.6945214259
 10
-1.2843712785
 20
-23.67911914
 10
-1.2786852001
 20
-23.6626508959
 10
-1.2735325063
 20
-23.6449969695
 10
-1.2689104861
 20
-23.6261741106
 10
-1.2648218503
 20
-23.6061655696
 10
-1.2614540849
 20
-23.5848013737
 10
-1.2587956547
 20
-23.5620639928
 10
-1.2568580948
 20
-23.5379709571
 10
-1.2558634963
 20
-23.5124048853
 10
-1.2557574956
 20
-23.4853670746
 10
-1.2565944563
 20
-23.4568562279
 10
-1.2587595593
 20
-23.4267510722
 10
-1.2621406161
 20
-23.3950562943
 10
-1.2668498152
 20
-23.3617672075
 10
-1.2736089035
 20
-23.3267484787
 10
-1.2824857017
 20
-23.289703413
 10
-1.293412389
 20
-23.2509287052
 10
-1.3069072495
 20
-23.2111791069
 10
-1.3236306108
 20
-23.1696084937
 10
-1.3429221454
 20
-23.1270629899
 10
-1.3633191547
 20
-23.0868357203
 10
-1.3846377124
 20
-23.0498617168
 10
-1.4070617447
 20
-23.0152059475
 10
-1.4296803314
 20
-22.983356441
 10
-1.4521898325
 20
-22.9544758735
 10
-1.4748938879
 20
-22.9284015689
 10
-1.4977924978
 20
-22.9051335272
  0
LWPOLYLINE
  5
3D8
100
AcDbEntity
  8
0
100
AcDbPolyline
 62
7
  6
CONTINUOUS
 90
10
 70
0
 10
-1.6206216851
 20
-23.5520979853
 10
-1.6255898603
 20
-23.5544009526
 10
-1.6405157954
 20
-23.5592421324
 10
-1.6570769502
 20
-23.561737966
 10
-1.6755536157
 20
-23.5618767741
 10
-1.6956655009
 20
-23.5596702361
 10
-1.716927565
 20
-23.5552724934
 10
-1.7391781277
 20
-23.5487349265
 10
-1.7625788693
 20
-23.540006155
 10
-1.7871297898
 20
-23.5290861788
  0
LINE
  5
3D9
100
AcDbEntity
  8
0
100
AcDbLine
 62
7
  6
CONTINUOUS
 10
-1.4299928901
 20
-23.8362355821
 11
-1.4228059986
 21
-23.832920618
  0
LINE
  5
3DA
100
AcDbEntity
  8
DRAFT
100
AcDbLine
 62
7
  6
CONTINUOUS
 10
3.7792092371
 20
-22.0838240608
 11
3.2426175783
 21
-22.3176781327
  0
LINE
  5
3DB
100
AcDbEntity
  8
SMUSSO
100
AcDbLine
 62
7
  6
CONTINUOUS
 10
29.6239620895
 20
23.1922601104
 11
31.0381756519
 21
23.1922601104
  0
LINE
  5
3DC
100
AcDbEntity
  8
DRAFT
100
AcDbLine
 62
7
  6
CONTINUOUS
 10
32.8412979439
 20
24.006416014
 11
33.4742897339
 21
24.0064160144
  0
LWPOLYLINE
  5
3DD
100
AcDbEntity
  8
RACCORDO
100
AcDbPolyline
 62
7
  6
CONTINUOUS
 90
11
 70
0
 10
-29.4648726991
 20
34.7476113499
 10
-29.5021203055
 20
34.7642712245
 10
-29.5391414797
 20
34.7774570256
 10
-29.5757274796
 20
34.7870960817
 10
-29.6116709087
 20
34.7931361063
 10
-29.6467706999
 20
34.7955435479
 10
-29.6808332311
 20
34.7943037166
 10
-29.7136676901
 20
34.7894238214
 10
-29.7450890518
 20
34.7809319327
 10
-29.7749229417
 20
34.76887487
 10
-29.7866259757
 20
34.7629326547
  0
LWPOLYLINE
  5
3DE
100
AcDbEntity
  8
RACCORDO
100
AcDbPolyline
 62
7
  6
CONTINUOUS
 90
10
 70
0
 10
20.2829036061
 20
7.2940569159
 10
20.3135669719
 20
7.2589466214
 10
20.3427346636
 20
7.2213028039
 10
20.3704109978
 20
7.1811269357
 10
20.3961167908
 20
7.1389719298
 10
20.419876946
 20
7.0947594809
 10
20.4416665599
 20
7.0485678942
 10
20.4609317383
 20
7.0011849987
 10
20.4776563389
 20
6.9525246962
 10
20.491856504
 20
6.9026730848
  0
LWPOLYLINE
  5
3DF
100
AcDbEntity
  8
RACCORDO
100
AcDbPolyline
 62
7
  6
CONTINUOUS
 90
5
 70
0
 10
20.491856504
 20
6.9026730848
 10
20.5030267658
 20
6.8526762887
 10
20.5109986349
 20
6.8028830159
 10
20.5159406007
 20
6.7529445583
 10
20.5178526632
 20
6.7028609159
  0
LWPOLYLINE
  5
3E0
100
AcDbEntity
  8
RACCORDO
100
AcDbPolyline
 62
7
  6
CONTINUOUS
 90
22
 70
0
 10
22.1703034756
 20
-36.1540113624
 10
22.1695095446
 20
-36.1794374896
 10
22.1671917291
 20
-36.2037261545
 10
22.163350029
 20
-36.2268773572
 10
22.1579471729
 20
-36.2490207198
 10
22.1510204323
 20
-36.2700266201
 10
22.1426816217
 20
-36.289506192
 10
22.1329077788
 20
-36.3074211531
 10
22.1217218659
 20
-36.3238097858
 10
22.1093045834
 20
-36.3383980711
 10
22.0956322001
 20
-36.3511567701
 10
22.0807284473
 20
-36.3621151216
 10
22.064845219
 20
-36.3710868231
 10
22.0479673795
 20
-36.3780356983
 10
22.0301100645
 20
-36.3829979234
 10
22.0115705746
 20
-36.3858957244
 10
21.992330061
 20
-36.3866907121
 10
21.9724073726
 20
-36.3854212758
 10
21.952156356
 20
-36.3821248089
 10
21.9316949603
 20
-36.376813776
 10
21.9109052365
 20
-36.3694757125
 10
21.8897871846
 20
-36.3601106185
  0
LINE
  5
3E1
100
AcDbEntity
  8
ASSI
100
AcDbLine
 62
7
  6
CONTINUOUS
 10
14.5178218611
 20
-27.4531303728
 11
14.5272323112
 21
-27.4368997473
  0
LINE
  5
3E2
100
AcDbEntity
  8
ASSI
100
AcDbLine
 62
7
  6
CONTINUOUS
 10
14.7854345282
 20
-27.4245794996
 11
14.8807857018
 21
-27.260123052
  0
LINE
  5
3E3
100
AcDbEntity
  8
ASSI
100
AcDbLine
 62
7
  6
CONTINUOUS
 10
15.1389879188
 20
-27.2478028043
 11
15.2343390923
 21
-27.0833463567
  0
LINE
  5
3E4
100
AcDbEntity
  8
ASSI
100
AcDbLine
 62
7
  6
CONTINUOUS
 10
15.4925413094
 20
-27.071026109
 11
15.5878924829
 21
-26.9065696614
  0
LINE
  5
3E5
100
AcDbEntity
  8
ASSI
100
AcDbLine
 62
7
  6
CONTINUOUS
 10
15.8460947
 20
-26.8942494137
 11
15.9414458735
 21
-26.7297929661
  0
LINE
  5
3E6
100
AcDbEntity
  8
ASSI
100
AcDbLine
 62
7
  6
CONTINUOUS
 10
16.1996480906
 20
-26.7174727184
 11
16.2949992641
 21
-26.5530162709
  0
LINE
  5
3E7
100
AcDbEntity
  8
RACCORDO
100
AcDbLine
 62
7
  6
CONTINUOUS
 10
9.7185028088
 20
-24.9450579322
 11
10.2743141579
 21
-24.6451849581
  0
LINE
  5
3E8
100
AcDbEntity
  8
RACCORDO
100
AcDbLine
 62
7
  6
CONTINUOUS
 10
9.8557963945
 20
-24.951948284
 11
10.4116077436
 21
-24.6520753099
  0
LINE
  5
3E9
100
AcDbEntity
  8
RACCORDO
100
AcDbLine
 62
7
  6
CONTINUOUS
 10
8.4432395969
 20
-24.6790038717
 11
9.3785237857
 21
-24.207755662
  0
LINE
  5
3EA
100
AcDbEntity
  8
RACCORDO
100
AcDbLine
 62
7
  6
CONTINUOUS
 10
9.1762635107
 20
-24.7823511976
 11
9.5906235113
 21
-24.573573576
  0
LINE
  5
3EB
100
AcDbEntity
  8
DRAFT
100
AcDbLine
 62
7
  6
CONTINUOUS
 10
9.082510096
 20
-24.7354744903
 11
8.5459184372
 21
-24.9693285622
  0
LWPOLYLINE
  5
3EC
100
AcDbEntity
  8
RACCORDO
100
AcDbPolyline
 62
7
  6
CONTINUOUS
 90
6
 70
0
 10
-27.8411021467
 20
31.2768629097
 10
-27.8410649127
 20
31.2768546584
 10
-27.8394125235
 20
31.2764700653
 10
-27.8352884256
 20
31.2752117522
 10
-27.8289874229
 20
31.2727984217
 10
-27.8204775249
 20
31.2688695051
  0
LWPOLYLINE
  5
3ED
100
AcDbEntity
  8
SMUSSO
100
AcDbPolyline
 62
7
  6
CONTINUOUS
 90
25
 70
0
 10
31.0381756519
 20
23.1922601104
 10
31.0366713513
 20
23.249662701
 10
31.032141701
 20
23.3083315291
 10
31.0246061221
 20
23.3680153781
 10
31.0140948461
 20
23.4284576542
 10
31.0006549117
 20
23.4894005481
 10
30.984349972
 20
23.5505861433
 10
30.9652527713
 20
23.6117538954
 10
30.943442136
 20
23.6726403996
 10
30.9190087599
 20
23.7329835794
 10
30.8920561567
 20
23.7925244793
 10
30.8627008593
 20
23.8510086947
 10
30.8310692155
 20
23.9081861091
 10
30.7972969976
 20
23.9638120403
 10
30.7615284996
 20
24.0176481278
 10
30.7239165649
 20
24.0694636756
 10
30.6846214694
 20
24.1190364096
 10
30.6438122603
 20
24.1661544415
 10
30.6016657123
 20
24.2106170169
 10
30.558364717
 20
24.2522349477
 10
30.5140923069
 20
24.2908288242
 10
30.4690328897
 20
24.3262307933
 10
30.4233776978
 20
24.3582883986
 10
30.3773239619
 20
24.3868652293
 10
30.3310688707
 20
24.4118389048
  0
LINE
  5
3EE
100
AcDbEntity
  8
SMUSSO
100
AcDbLine
 62
7
  6
CONTINUOUS
 10
29.6239620895
 20
-57.6945126031
 11
29.6239620895
 21
23.1922601104
  0
LINE
  5
3EF
100
AcDbEntity
  8
SMUSSO
100
AcDbLine
 62
7
  6
CONTINUOUS
 10
31.0381756519
 20
-57.6945126031
 11
31.0381756519
 21
23.1922601104
  0
LWPOLYLINE
  5
3F0
100
AcDbEntity
  8
RACCORDO
100
AcDbPolyline
 62
7
  6
CONTINUOUS
 90
3
 70
0
 10
20.41918895
 20
-33.0623529742
 10
20.4174278779
 20
-33.0667454611
 10
20.4161113162
 20
-33.0694521359
  0
LINE
  5
3F1
100
AcDbEntity
  8
ASSI
100
AcDbLine
 62
7
  6
CONTINUOUS
 10
16.5532014812
 20
-26.5406960231
 11
16.6485526547
 21
-26.3762395756
  0
LINE
  5
3F2
100
AcDbEntity
  8
ASSI
100
AcDbLine
 62
7
  6
CONTINUOUS
 10
19.3709137623
 20
-29.0340501289
 11
19.4769797795
 21
-28.8511133097
  0
LINE
  5
3F3
100
AcDbEntity
  8
ASSI
100
AcDbLine
 62
7
  6
CONTINUOUS
 10
19.7244671529
 20
-28.8572734336
 11
19.8305331701
 21
-28.6743366144
  0
LINE
  5
3F4
100
AcDbEntity
  8
ASSI
100
AcDbLine
 62
7
  6
CONTINUOUS
 10
20.0780205435
 20
-28.6804967383
 11
20.1840865606
 21
-28.4975599191
  0
LINE
  5
3F5
100
AcDbEntity
  8
RACCORDO
100
AcDbLine
 62
7
  6
CONTINUOUS
 10
12.0877139161
 20
-26.0679070448
 11
12.653399341
 21
-25.7729711086
  0
LINE
  5
3F6
100
AcDbEntity
  8
RACCORDO
100
AcDbLine
 62
7
  6
CONTINUOUS
 10
12.3876467857
 20
-26.3880428351
 11
12.8655313754
 21
-26.1388843229
  0
LINE
  5
3F7
100
AcDbEntity
  8
ASSI
100
AcDbLine
 62
7
  6
CONTINUOUS
 10
14.5272323112
 20
-27.4368997473
 11
14.6686536674
 21
-27.3661890692
  0
LINE
  5
3F8
100
AcDbEntity
  8
ASSI
100
AcDbLine
 62
7
  6
CONTINUOUS
 10
14.8807857018
 20
-27.260123052
 11
15.022207058
 21
-27.1894123739
  0
LINE
  5
3F9
100
AcDbEntity
  8
ASSI
100
AcDbLine
 62
7
  6
CONTINUOUS
 10
15.2343390923
 20
-27.0833463567
 11
15.3757604486
 21
-27.0126356786
  0
LINE
  5
3FA
100
AcDbEntity
  8
ASSI
100
AcDbLine
 62
7
  6
CONTINUOUS
 10
15.5878924829
 20
-26.9065696614
 11
15.7293138392
 21
-26.8358589833
  0
LINE
  5
3FB
100
AcDbEntity
  8
ASSI
100
AcDbLine
 62
7
  6
CONTINUOUS
 10
15.9414458735
 20
-26.7297929661
 11
16.0828672298
 21
-26.659082288
  0
LINE
  5
3FC
100
AcDbEntity
  8
ASSI
100
AcDbLine
 62
7
  6
CONTINUOUS
 10
16.2949992641
 20
-26.5530162709
 11
16.4364206204
 21
-26.4823055927
  0
LINE
  5
3FD
100
AcDbEntity
  8
ASSI
100
AcDbLine
 62
7
  6
CONTINUOUS
 10
16.6485526547
 20
-26.3762395756
 11
16.789974011
 21
-26.3055288974
  0
LINE
  5
3FE
100
AcDbEntity
  8
0
100
AcDbLine
 62
7
  6
CONTINUOUS
 10
16.7118517536
 20
-26.2903055622
 11
14.3335788135
 21
-27.361008849
  0
LWPOLYLINE
  5
3FF
100
AcDbEntity
  8
ASSI
100
AcDbPolyline
 62
7
  6
CONTINUOUS
 90
4
 70
0
 10
16.7196410676
 20
-26.2870361688
 10
16.7322534624
 20
-26.2833152614
 10
16.7452840571
 20
-26.2810988345
 10
16.7585861076
 20
-26.2803700676
  0
LINE
  5
400
100
AcDbEntity
  8
RACCORDO
100
AcDbLine
 62
7
  6
CONTINUOUS
 10
-27.4492209301
 20
31.0832414198
 11
-27.9194463754
 21
31.0968063465
  0
LINE
  5
401
100
AcDbEntity
  8
RACCORDO
100
AcDbLine
 62
7
  6
CONTINUOUS
 10
-27.8386437563
 20
31.2766910451
 11
-27.8385661319
 21
31.2766888032
  0
LWPOLYLINE
  5
402
100
AcDbEntity
  8
SMUSSO
100
AcDbPolyline
 62
7
  6
CONTINUOUS
 90
3
 70
0
 10
32.8412979439
 20
24.006416014
 10
32.8397310982
 20
24.0642315082
 10
32.8352030166
 20
24.1228079094
  0
LINE
  5
403
100
AcDbEntity
  8
SMUSSO
100
AcDbLine
 62
7
  6
CONTINUOUS
 10
32.8059426048
 20
24.4296969775
 11
32.8059426048
 21
-56.8106291266
  0
LINE
  5
404
100
AcDbEntity
  8
SMUSSO
100
AcDbLine
 62
7
  6
CONTINUOUS
 10
32.8412979439
 20
-55.9277287553
 11
32.8412979439
 21
24.006416014
  0
LINE
  5
405
100
AcDbEntity
  8
DRAFT
100
AcDbLine
 62
7
  6
CONTINUOUS
 10
33.4742897339
 20
-55.9277287534
 11
33.4742897339
 21
24.0064160144
  0
LINE
  5
406
100
AcDbEntity
  8
DRAFT
100
AcDbLine
 62
7
  6
CONTINUOUS
 10
35.6343697296
 20
-54.8847462531
 11
35.6343697296
 21
25.7565052974
  0
LWPOLYLINE
  5
407
100
AcDbEntity
  8
SMUSSO
100
AcDbPolyline
 62
7
  6
CONTINUOUS
 90
15
 70
0
 10
32.8059426048
 20
-56.8106291281
 10
32.804428632
 20
-56.8665129669
 10
32.7998931972
 20
-56.9206435246
 10
32.7923557229
 20
-56.9727890048
 10
32.7818484877
 20
-57.0227261091
 10
32.7684164857
 20
-57.0702410038
 10
32.7521172322
 20
-57.1151302328
 10
32.7330205197
 20
-57.1572015772
 10
32.7112081244
 20
-57.1962748745
 10
32.686773453
 20
-57.2321828011
 10
32.6598211404
 20
-57.264771592
 10
32.6304665998
 20
-57.2939016991
 10
32.5988355313
 20
-57.3194483836
 10
32.5650633864
 20
-57.3413022493
 10
32.5460494237
 20
-57.3515029247
  0
LWPOLYLINE
  5
408
100
AcDbEntity
  8
DRAFT
100
AcDbPolyline
 62
7
  6
CONTINUOUS
 90
15
 70
0
 10
33.4742897339
 20
-55.9277287534
 10
33.4720981221
 20
-56.0086257189
 10
33.4655326715
 20
-56.0869846596
 10
33.4546214961
 20
-56.1624700303
 10
33.4394113193
 20
-56.2347585913
 10
33.4199672733
 20
-56.3035407916
 10
33.3963726206
 20
-56.3685220952
 10
33.3687283972
 20
-56.429424242
 10
33.3371529798
 20
-56.4859864398
 10
33.3017815793
 20
-56.5379664806
 10
33.2627656613
 20
-56.5851417779
 10
33.220272298
 20
-56.6273103197
 10
33.1744834526
 20
-56.664291534
 10
33.1255951999
 20
-56.6959270615
 10
33.0872908262
 20
-56.715935531
  0
LINE
  5
409
100
AcDbEntity
  8
RACCORDO
100
AcDbLine
 62
7
  6
CONTINUOUS
 10
20.4162660856
 20
-33.0692440959
 11
20.4174782945
 21
-33.0676066794
  0
LINE
  5
40A
100
AcDbEntity
  8
ASSI
100
AcDbLine
 62
7
  6
CONTINUOUS
 10
20.2506830771
 20
-29.5716129766
 11
20.4299846975
 21
-29.3462120247
  0
LINE
  5
40B
100
AcDbEntity
  8
RACCORDO
100
AcDbLine
 62
7
  6
CONTINUOUS
 10
20.2521988242
 20
-33.092530516
 11
20.4299846975
 21
-32.8694648344
  0
LINE
  5
40C
100
AcDbEntity
  8
0
100
AcDbLine
 62
7
  6
CONTINUOUS
 10
20.4299846975
 20
-28.7185313094
 11
19.5366587357
 21
-29.2146008059
  0
LINE
  5
40D
100
AcDbEntity
  8
RACCORDO
100
AcDbLine
 62
7
  6
CONTINUOUS
 10
17.5379841601
 20
-28.2755617532
 11
16.9722987351
 21
-28.5704976894
  0
LINE
  5
40E
100
AcDbEntity
  8
RACCORDO
100
AcDbLine
 62
7
  6
CONTINUOUS
 10
17.6738574874
 20
-28.2832001818
 11
17.1081720625
 21
-28.578136118
  0
LINE
  5
40F
100
AcDbEntity
  8
0
100
AcDbLine
 62
7
  6
CONTINUOUS
 10
20.4299846975
 20
-29.2910305029
 11
20.0632566788
 21
-29.4778997775
  0
LINE
  5
410
100
AcDbEntity
  8
ASSI
100
AcDbLine
 62
7
  6
CONTINUOUS
 10
19.1433317614
 20
-29.0179373188
 11
19.2648477451
 21
-28.9571793269
  0
LINE
  5
411
100
AcDbEntity
  8
ASSI
100
AcDbLine
 62
7
  6
CONTINUOUS
 10
19.4769797795
 20
-28.8511133097
 11
19.6184011357
 21
-28.7804026316
  0
LINE
  5
412
100
AcDbEntity
  8
ASSI
100
AcDbLine
 62
7
  6
CONTINUOUS
 10
19.8305331701
 20
-28.6743366144
 11
19.9719545263
 21
-28.6036259363
  0
LINE
  5
413
100
AcDbEntity
  8
ASSI
100
AcDbLine
 62
7
  6
CONTINUOUS
 10
20.1840865606
 20
-28.4975599191
 11
20.3255079169
 21
-28.426849241
  0
LINE
  5
414
100
AcDbEntity
  8
ASSI
100
AcDbLine
 62
7
  6
CONTINUOUS
 10
20.4315739341
 20
-28.503720043
 11
19.2732355719
 21
-29.082889224
  0
LINE
  5
415
100
AcDbEntity
  8
0
100
AcDbLine
 62
7
  6
CONTINUOUS
 10
20.4299846975
 20
-29.1996974728
 11
19.9675880523
 21
-29.4300654642
  0
LWPOLYLINE
  5
416
100
AcDbEntity
  8
SMUSSO
100
AcDbPolyline
 62
7
  6
CONTINUOUS
 90
12
 70
0
 10
-35.7127044921
 20
57.4337255862
 10
-35.7589418186
 20
57.4549996919
 10
-35.8049850017
 20
57.4724723192
 10
-35.8506368526
 20
57.4860686599
 10
-35.8957039202
 20
57.4957294737
 10
-35.9399911925
 20
57.5014144055
 10
-35.9833029233
 20
57.5031021621
 10
-36.0254507211
 20
57.5007869782
 10
-36.0662570531
 20
57.4944772925
 10
-36.1055498833
 20
57.4841987727
 10
-36.1431620675
 20
57.4699948762
 10
-36.1599166775
 20
57.4621280785
  0
LINE
  5
417
100
AcDbEntity
  8
SMUSSO
100
AcDbLine
 62
7
  6
CONTINUOUS
 10
29.6239620895
 20
23.1922601104
 11
-36.4198112733
 21
56.2141467918
  0
LINE
  5
418
100
AcDbEntity
  8
SMUSSO
100
AcDbLine
 62
7
  6
CONTINUOUS
 10
30.3310688707
 20
24.4118389048
 11
-35.7127044921
 21
57.4337255862
  0
LINE
  5
419
100
AcDbEntity
  8
SMUSSO
100
AcDbLine
 62
7
  6
CONTINUOUS
 10
-33.9449375392
 20
58.3176090627
 11
32.0988358236
 21
25.2957223812
  0
LINE
  5
41A
100
AcDbEntity
  8
DRAFT
100
AcDbLine
 62
7
  6
CONTINUOUS
 10
32.4506870561
 20
25.7718694809
 11
-32.8152688461
 21
58.404847432
  0
LWPOLYLINE
  5
41B
100
AcDbEntity
  8
SMUSSO
100
AcDbPolyline
 62
7
  6
CONTINUOUS
 90
4
 70
0
 10
32.0988358236
 20
25.2957223812
 10
32.145082865
 20
25.2707446301
 10
32.1911318638
 20
25.2421653801
 10
32.2402571804
 20
25.2075144364
  0
LWPOLYLINE
  5
41C
100
AcDbEntity
  8
SMUSSO
100
AcDbPolyline
 62
7
  6
CONTINUOUS
 90
4
 70
0
 10
32.8352030166
 20
24.1228079094
 10
32.8277136991
 20
24.1821452175
 10
32.8172060258
 20
24.2425034912
 10
32.8059426048
 20
24.2936146134
  0
LWPOLYLINE
  5
41D
100
AcDbEntity
  8
DRAFT
100
AcDbPolyline
 62
7
  6
CONTINUOUS
 90
15
 70
0
 10
35.6343697296
 20
-54.8847462531
 10
35.6320987749
 20
-54.9685719303
 10
35.6252956349
 20
-55.0497677022
 10
35.6139894418
 20
-55.1279858715
 10
35.5982286106
 20
-55.2028914959
 10
35.5780806316
 20
-55.2741638183
 10
35.5536317815
 20
-55.34149764
 10
35.5249867539
 20
-55.4046046275
 10
35.4922682114
 20
-55.4632145468
 10
35.4556162596
 20
-55.5170764211
 10
35.415187848
 20
-55.5659596058
 10
35.3711560972
 20
-55.6096547755
 10
35.3237095579
 20
-55.6479748207
 10
35.2730514034
 20
-55.6807556492
 10
35.2333602974
 20
-55.7014884847
  0
LWPOLYLINE
  5
41E
100
AcDbEntity
  8
RACCORDO
100
AcDbPolyline
 62
7
  6
CONTINUOUS
 90
4
 70
0
 10
20.4174478276
 20
-33.0676484319
 10
20.4053429096
 20
-33.0814127993
 10
20.391500703
 20
-33.094052921
 10
20.3771232029
 20
-33.1041464703
  0
LWPOLYLINE
  5
41F
100
AcDbEntity
  8
RACCORDO
100
AcDbPolyline
 62
7
  6
CONTINUOUS
 90
9
 70
0
 10
20.3771232029
 20
-33.1041464703
 10
20.3622949706
 20
-33.1116946997
 10
20.3470665001
 20
-33.1166941699
 10
20.331544148
 20
-33.1191250293
 10
20.3158283001
 20
-33.1189835727
 10
20.2999368104
 20
-33.1162628142
 10
20.2839419218
 20
-33.110945588
 10
20.2679884414
 20
-33.103031419
 10
20.2521993412
 20
-33.0925298667
  0
LINE
  5
420
100
AcDbEntity
  8
DRAFT
100
AcDbLine
 62
7
  6
CONTINUOUS
 10
34.5737095578
 20
26.8787667078
 11
-30.6922463457
 21
59.5117446595
  0
LWPOLYLINE
  5
421
100
AcDbEntity
  8
DRAFT
100
AcDbPolyline
 62
7
  6
CONTINUOUS
 90
25
 70
0
 10
32.4506870561
 20
25.7718694809
 10
32.5176338736
 20
25.7357119069
 10
32.5842940148
 20
25.6943408342
 10
32.6503820306
 20
25.6479334202
 10
32.7156149222
 20
25.5966883884
 10
32.7797133521
 20
25.5408251779
 10
32.8424028409
 20
25.4805830036
 10
32.9034149425
 20
25.416219832
 10
32.9624883938
 20
25.3480112758
 10
33.0193702332
 20
25.2762494147
 10
33.0738168839
 20
25.2012415439
 10
33.1255951971
 20
25.1233088586
 10
33.1744834499
 20
25.0427850786
 10
33.2202722955
 20
24.960015019
 10
33.262765659
 20
24.875353114
 10
33.3017815772
 20
24.7891618988
 10
33.3371529779
 20
24.7018104575
 10
33.3687283955
 20
24.6136728423
 10
33.3963726192
 20
24.5251264721
 10
33.4199672721
 20
24.436550516
 10
33.4394113182
 20
24.3483242697
 10
33.4546214953
 20
24.2608255317
 10
33.465532671
 20
24.174428985
 10
33.472098122
 20
24.0895045928
 10
33.4742897339
 20
24.0064160144
  0
LWPOLYLINE
  5
422
100
AcDbEntity
  8
DRAFT
100
AcDbPolyline
 62
7
  6
CONTINUOUS
 90
4
 70
0
 10
34.5737095542
 20
26.8787667096
 10
34.6430800501
 20
26.8413001215
 10
34.7121534904
 20
26.7984312905
 10
34.7858415922
 20
26.746454791
  0
LINE
  5
423
100
AcDbEntity
  8
SMUSSO
100
AcDbLine
 62
7
  6
CONTINUOUS
 10
32.5230998924
 20
24.9953824024
 11
32.2402571799
 21
25.2075144368
  0
LINE
  5
424
100
AcDbEntity
  8
SMUSSO
100
AcDbLine
 62
7
  6
CONTINUOUS
 10
35.3515281042
 20
26.322189907
 11
34.7858415922
 21
26.7464547911
  0
LWPOLYLINE
  5
425
100
AcDbEntity
  8
SMUSSO
100
AcDbPolyline
 62
7
  6
CONTINUOUS
 90
17
 70
0
 10
32.5233211591
 20
24.9952043075
 10
32.5438874856
 20
24.9789853403
 10
32.5732232519
 20
24.952953669
 10
32.6018687312
 20
24.9240989144
 10
32.6291731742
 20
24.8930765557
 10
32.655103558
 20
24.8598397647
 10
32.6796929056
 20
24.8244353697
 10
32.7023895366
 20
24.7876593346
 10
32.723151078
 20
24.7494810485
 10
32.7420199028
 20
24.7099311225
 10
32.7585714496
 20
24.669897354
 10
32.7727540559
 20
24.6293650336
 10
32.7846193842
 20
24.5883488708
 10
32.7938978606
 20
24.5477807912
 10
32.8004996272
 20
24.5079714367
 10
32.8045145419
 20
24.4686101655
 10
32.8059426048
 20
24.4296969775
  0
LWPOLYLINE
  5
426
100
AcDbEntity
  8
SMUSSO
100
AcDbPolyline
 62
7
  6
CONTINUOUS
 90
22
 70
0
 10
32.2402571804
 20
25.2075144364
 10
32.2818486669
 20
25.1747068132
 10
32.3261280077
 20
25.1361163673
 10
32.3694340521
 20
25.0945009179
 10
32.4115813612
 20
25.0500386627
 10
32.452389448
 20
25.00292
 10
32.49168356
 20
24.9533467055
 10
32.5292954319
 20
24.901531063
 10
32.5650640058
 20
24.847694953
 10
32.598836116
 20
24.7920689089
 10
32.630467143
 20
24.7348911341
 10
32.65982164
 20
24.6764064695
 10
32.6867739121
 20
24.6168653421
 10
32.7112085651
 20
24.5565226599
 10
32.7330209379
 20
24.4956368749
 10
32.7521175789
 20
24.4344688671
 10
32.7684166984
 20
24.3732807095
 10
32.7818485689
 20
24.3123342748
 10
32.7923557335
 20
24.2518902764
 10
32.7998931903
 20
24.1922074596
 10
32.8044286274
 20
24.1335414884
 10
32.8059426048
 20
24.0761435869
  0
LWPOLYLINE
  5
427
100
AcDbEntity
  8
RACCORDO
100
AcDbPolyline
 62
7
  6
CONTINUOUS
 90
13
 70
0
 10
22.4008570048
 20
-36.5382878043
 10
22.4310048853
 20
-36.5217601818
 10
22.4571728692
 20
-36.5027950327
 10
22.4813422601
 20
-36.4804957581
 10
22.5033771314
 20
-36.45498721
 10
22.5231543578
 20
-36.4264119304
 10
22.5405646305
 20
-36.3949291331
 10
22.5555091126
 20
-36.3607155896
 10
22.5679038114
 20
-36.3239626817
 10
22.5776819636
 20
-36.2848745096
 10
22.5847886507
 20
-36.2436695777
 10
22.5891811542
 20
-36.2005796092
 10
22.5908330211
 20
-36.1558463153
  0
LINE
  5
428
100
AcDbEntity
  8
RACCORDO
100
AcDbLine
 62
7
  6
CONTINUOUS
 10
22.5908330211
 20
-36.1558463153
 11
22.8823796084
 21
-36.0212004398
  0
LINE
  5
429
100
AcDbEntity
  8
RACCORDO
100
AcDbLine
 62
7
  6
CONTINUOUS
 10
22.4000958435
 20
-36.538640815
 11
22.6930591378
 21
-36.4033406572
  0
LWPOLYLINE
  5
42A
100
AcDbEntity
  8
RACCORDO
100
AcDbPolyline
 62
7
  6
CONTINUOUS
 90
16
 70
0
 10
22.5908330211
 20
-36.1558463141
 10
22.567408762
 20
-36.1660394752
 10
22.5420026211
 20
-36.1749673259
 10
22.5148868106
 20
-36.1825342094
 10
22.4863518608
 20
-36.188659051
 10
22.4567035073
 20
-36.1932762265
 10
22.4262594149
 20
-36.1963362655
 10
22.3953457532
 20
-36.1978063818
 10
22.3642937656
 20
-36.1976708214
 10
22.3334362202
 20
-36.1959310419
 10
22.3031037274
 20
-36.192605693
 10
22.2736212836
 20
-36.1877304135
 10
22.2453048448
 20
-36.1813574685
 10
22.2184578043
 20
-36.1735551683
 10
22.1933677525
 20
-36.1644071226
 10
22.1703034756
 20
-36.1540113624
  0
LWPOLYLINE
  5
42B
100
AcDbEntity
  8
SMUSSO
100
AcDbPolyline
 62
7
  6
CONTINUOUS
 90
25
 70
0
 10
35.3514884589
 20
26.3222107989
 10
35.3621903573
 20
26.3139681772
 10
35.3821197116
 20
26.2974764957
 10
35.4016417601
 20
26.2798117033
 10
35.420746435
 20
26.2609640793
 10
35.4394438041
 20
26.2409433442
 10
35.4575443944
 20
26.2199522142
 10
35.475042443
 20
26.1979804509
 10
35.4919437126
 20
26.1750382927
 10
35.5080760182
 20
26.1513591703
 10
35.5234311929
 20
26.126935723
 10
35.5380174037
 20
26.1017753116
 10
35.5516869666
 20
26.0761334495
 10
35.564430232
 20
26.0500057871
 10
35.5762568495
 20
26.023396674
 10
35.5870480847
 20
25.996574672
 10
35.5967937977
 20
25.969537388
 10
35.6055041285
 20
25.9422872152
 10
35.6130907623
 20
25.9150998947
 10
35.6195415411
 20
25.8879688983
 10
35.6248686229
 20
25.8609007542
 10
35.6290201668
 20
25.8341907895
 10
35.6319788924
 20
25.8079374462
 10
35.63376208
 20
25.7820422822
 10
35.6343697296
 20
25.7565052974
  0
LWPOLYLINE
  5
42C
100
AcDbEntity
  8
DRAFT
100
AcDbPolyline
 62
7
  6
CONTINUOUS
 90
22
 70
0
 10
34.7858415922
 20
26.746454791
 10
34.8482286109
 20
26.6972435311
 10
34.9146475964
 20
26.6393579044
 10
34.9796066329
 20
26.5769347824
 10
35.0428275559
 20
26.5102414703
 10
35.1040396436
 20
26.4395635592
 10
35.1629807765
 20
26.3652037029
 10
35.2193985596
 20
26.2874803216
 10
35.2730514032
 20
26.2067262387
 10
35.3237095577
 20
26.1232872558
 10
35.3711560971
 20
26.0375206712
 10
35.4151878479
 20
25.9497937507
 10
35.4556162595
 20
25.8604821544
 10
35.4922682113
 20
25.7699683283
 10
35.5249867538
 20
25.6786398665
 10
35.5536317814
 20
25.5868878515
 10
35.5780806316
 20
25.4951051795
 10
35.5982286106
 20
25.4036848779
 10
35.6139894418
 20
25.3130184227
 10
35.6252956347
 20
25.2234940615
 10
35.6320987747
 20
25.1354951513
 10
35.6343697296
 20
25.0493985171
  0
LWPOLYLINE
  5
42D
100
AcDbEntity
  8
SMUSSO
100
AcDbPolyline
 62
7
  6
CONTINUOUS
 90
6
 70
0
 10
32.8059426048
 20
-56.1795720294
 10
32.817206046
 20
-56.1397242359
 10
32.8277137093
 20
-56.0898736558
 10
32.8352030207
 20
-56.0380256842
 10
32.8397310989
 20
-55.983977384
 10
32.8412979439
 20
-55.9277287553
  0
LWPOLYLINE
  5
42E
100
AcDbEntity
  8
SMUSSO
100
AcDbPolyline
 62
7
  6
CONTINUOUS
 90
15
 70
0
 10
30.7782838763
 20
-58.2353856984
 10
30.7972977299
 20
-58.2251850527
 10
30.8310692155
 20
-58.2033314758
 10
30.8627001269
 20
-58.1777848364
 10
30.8920546919
 20
-58.1486546911
 10
30.9190068869
 20
-58.1160659409
 10
30.9434405144
 20
-58.0801585283
 10
30.9652517253
 20
-58.0410858243
 10
30.9843491446
 20
-57.999014132
 10
31.0006534086
 20
-57.9541224012
 10
31.01409231
 20
-57.9066040604
 10
31.0246031266
 20
-57.8566651788
 10
31.0321391301
 20
-57.8045204626
 10
31.0366697789
 20
-57.750392339
 10
31.0381756519
 20
-57.6945126031
  0
LINE
  5
42F
100
AcDbEntity
  8
SMUSSO
100
AcDbLine
 62
7
  6
CONTINUOUS
 10
31.0381756519
 20
-57.6945126031
 11
32.8059426048
 21
-56.8106291266
  0
LINE
  5
430
100
AcDbEntity
  8
RACCORDO
100
AcDbLine
 62
7
  6
CONTINUOUS
 10
30.7782837048
 20
-58.2353857842
 11
32.5460494191
 21
-57.351502927
  0
LINE
  5
431
100
AcDbEntity
  8
DRAFT
100
AcDbLine
 62
7
  6
CONTINUOUS
 10
33.4742897339
 20
-55.9277287514
 11
35.6343697296
 21
-54.8847462531
  0
LINE
  5
432
100
AcDbEntity
  8
DRAFT
100
AcDbLine
 62
7
  6
CONTINUOUS
 10
33.0872908262
 20
-56.715935531
 11
35.2333602974
 21
-55.7014884847
  0
LWPOLYLINE
  5
433
100
AcDbEntity
  8
DRAFT
100
AcDbPolyline
 62
7
  6
CONTINUOUS
 90
7
 70
0
 10
33.0872908262
 20
-56.715935531
 10
33.073816887
 20
-56.7220814339
 10
33.0193702364
 20
-56.7426426543
 10
32.9624883971
 20
-56.7575226764
 10
32.9034149459
 20
-56.7666577816
 10
32.8424028444
 20
-56.7700088519
 10
32.8059426048
 20
-56.7685854927
  0
ELLIPSE
  5
434
100
AcDbEntity
  8
RACCORDO
100
AcDbEllipse
 62
7
  6
CONTINUOUS
 10
-29.1831786469
 20
34.2931248819
 30
0.0
 11
-0.313181275
 21
0.626269159
 31
0.0
 40
0.6121897086
 41
-0.6846338794
 42
0.019259411
  0
ELLIPSE
  5
435
100
AcDbEntity
  8
RACCORDO
100
AcDbEllipse
 62
7
  6
CONTINUOUS
 10
22.387329463
 20
-35.7734906932
 30
0.0
 11
-0.313181275
 21
0.626269159
 31
0.0
 40
0.6121897086
 41
-3.160544254
 42
-2.2557347926
  0
ELLIPSE
  5
436
100
AcDbEntity
  8
RACCORDO
100
AcDbEllipse
 62
7
  6
CONTINUOUS
 10
22.387329463
 20
8.507870827
 30
0.0
 11
-0.3130130858
 21
0.6261196575
 31
0.0
 40
0.6125552124
 41
-2.255296188
 42
-0.6848044477
  0
ELLIPSE
  5
437
100
AcDbEntity
  8
RACCORDO
100
AcDbEllipse
 62
7
  6
CONTINUOUS
 10
-25.8429784133
 20
-7.5150329398
 30
0.0
 11
-0.1341484654
 21
0.2683369961
 31
0.0
 40
0.6125552124
 41
0.8862964655
 42
2.4567882058
  0
ELLIPSE
  5
438
100
AcDbEntity
  8
RACCORDO
100
AcDbEllipse
 62
7
  6
CONTINUOUS
 10
-25.3289107212
 20
-7.2695999145
 30
0.0
 11
-0.1340229113
 21
0.2684080287
 31
0.0
 40
0.6140178746
 41
0.8880524522
 42
2.4561097232
  0
ELLIPSE
  5
439
100
AcDbEntity
  8
RACCORDO
100
AcDbEllipse
 62
7
  6
CONTINUOUS
 10
-11.0124288445
 20
-14.272126544
 30
0.0
 11
-0.1342205464
 21
0.2684010681
 31
0.0
 40
0.6121897086
 41
-0.6846338794
 42
0.0192594208
  0
ELLIPSE
  5
43A
100
AcDbEntity
  8
RACCORDO
100
AcDbEllipse
 62
7
  6
CONTINUOUS
 10
4.8974737322
 20
-22.2270778324
 30
0.0
 11
-0.1342205464
 21
0.2684010681
 31
0.0
 40
0.6121897086
 41
-0.6846338794
 42
0.0192594208
  0
ELLIPSE
  5
43B
100
AcDbEntity
  8
RACCORDO
100
AcDbEllipse
 62
7
  6
CONTINUOUS
 10
-5.4982302107
 20
-16.9570035298
 30
0.0
 11
-0.1342205464
 21
0.2684010681
 31
0.0
 40
0.6121897086
 41
-0.6846338794
 42
0.019259411
  0
ELLIPSE
  5
43C
100
AcDbEntity
  8
RACCORDO
100
AcDbEllipse
 62
7
  6
CONTINUOUS
 10
17.6738574874
 20
-28.5430473789
 30
0.0
 11
-0.1341371037
 21
0.2683722998
 31
0.0
 40
0.6123537661
 41
-0.6845550499
 42
0.0106825902
  0
ELLIPSE
  5
43D
100
AcDbEntity
  8
RACCORDO
100
AcDbEllipse
 62
7
  6
CONTINUOUS
 10
1.5871782154
 20
-20.4997077429
 30
0.0
 11
-0.1341371037
 21
0.2683722998
 31
0.0
 40
0.6123537661
 41
-0.6845550499
 42
0.0106825902
  0
ELLIPSE
  5
43E
100
AcDbEntity
  8
RACCORDO
100
AcDbEllipse
 62
7
  6
CONTINUOUS
 10
10.411672366
 20
-24.9119548182
 30
0.0
 11
-0.1342205464
 21
0.2684010681
 31
0.0
 40
0.6121897086
 41
-0.6846338794
 42
0.019259411
  0
ELLIPSE
  5
43F
100
AcDbEntity
  8
RACCORDO
100
AcDbEllipse
 62
7
  6
CONTINUOUS
 10
-14.145947666
 20
-12.6331448022
 30
0.0
 11
-0.1341371037
 21
0.2683722998
 31
0.0
 40
0.6123537661
 41
-0.6845550499
 42
0.0106825902
  0
ELLIPSE
  5
440
100
AcDbEntity
  8
RACCORDO
100
AcDbEllipse
 62
7
  6
CONTINUOUS
 10
-3.0797265404
 20
-18.166255365
 30
0.0
 11
-0.1341371037
 21
0.2683722998
 31
0.0
 40
0.6123537661
 41
-2.2553513767
 42
-0.6845550499
  0
ELLIPSE
  5
441
100
AcDbEntity
  8
RACCORDO
100
AcDbEllipse
 62
7
  6
CONTINUOUS
 10
-19.1664058124
 20
-10.122915729
 30
0.0
 11
-0.1341371037
 21
0.2683722998
 31
0.0
 40
0.6123537661
 41
-2.2553513767
 42
-0.6845550499
  0
ELLIPSE
  5
442
100
AcDbEntity
  8
RACCORDO
100
AcDbEllipse
 62
7
  6
CONTINUOUS
 10
-24.9647137318
 20
-0.7542693413
 30
0.0
 11
-0.1341484654
 21
0.2683369961
 31
0.0
 40
0.6125552124
 41
-2.255296188
 42
-0.6848044477
  0
ELLIPSE
  5
443
100
AcDbEntity
  8
RACCORDO
100
AcDbEllipse
 62
7
  6
CONTINUOUS
 10
-24.9647137318
 20
26.1439935288
 30
0.0
 11
-0.1342205464
 21
0.2684010681
 31
0.0
 40
0.6121897086
 41
-3.160544254
 42
-2.2557347926
  0
ELLIPSE
  5
444
100
AcDbEntity
  8
RACCORDO
100
AcDbEllipse
 62
7
  6
CONTINUOUS
 10
-11.9042206909
 20
-13.7540082897
 30
0.0
 11
-0.1341484654
 21
0.2683369961
 31
0.0
 40
0.6125552124
 41
-2.255296188
 42
-0.6848044477
  0
ELLIPSE
  5
445
100
AcDbEntity
  8
RACCORDO
100
AcDbEllipse
 62
7
  6
CONTINUOUS
 10
4.0056818858
 20
-21.7089595781
 30
0.0
 11
-0.1341484654
 21
0.2683369961
 31
0.0
 40
0.6125552124
 41
-2.255296188
 42
-0.6848044477
  0
ELLIPSE
  5
446
100
AcDbEntity
  8
RACCORDO
100
AcDbEllipse
 62
7
  6
CONTINUOUS
 10
12.653399341
 20
-26.0328183057
 30
0.0
 11
-0.1341371037
 21
0.2683722998
 31
0.0
 40
0.6123537661
 41
-2.2553513767
 42
-0.6845550499
  0
ELLIPSE
  5
447
100
AcDbEntity
  8
RACCORDO
100
AcDbEllipse
 62
7
  6
CONTINUOUS
 10
-24.9647137318
 20
18.2982895419
 30
0.0
 11
-0.1341484654
 21
0.2683369961
 31
0.0
 40
0.6125552124
 41
-2.255296188
 42
-0.6848044477
  0
ELLIPSE
  5
448
100
AcDbEntity
  8
RACCORDO
100
AcDbEllipse
 62
7
  6
CONTINUOUS
 10
-24.9647137318
 20
7.0914346455
 30
0.0
 11
-0.1342205464
 21
0.2684010681
 31
0.0
 40
0.6121897086
 41
-3.160544254
 42
-2.2557347926
  0
ELLIPSE
  5
449
100
AcDbEntity
  8
ASSI
100
AcDbEllipse
 62
7
  6
CONTINUOUS
 10
16.7118517536
 20
-26.4635106429
 30
0.0
 11
0.0974129977
 21
0.1748074534
 31
0.0
 40
0.6437101552
 41
0.6611775963
 42
0.7135374739
  0
ELLIPSE
  5
44A
100
AcDbEntity
  8
ASSI
100
AcDbEllipse
 62
7
  6
CONTINUOUS
 10
-15.1079533998
 20
-10.5536080662
 30
0.0
 11
0.0974129977
 21
0.1748074534
 31
0.0
 40
0.6437101552
 41
0.6611775963
 42
0.7135374739
  0
ELLIPSE
  5
44B
100
AcDbEntity
  8
ASSI
100
AcDbEllipse
 62
7
  6
CONTINUOUS
 10
-11.7421552825
 20
-13.4930686122
 30
0.0
 11
0.2227969873
 21
0.3604931982
 31
0.0
 40
0.5587445887
 41
-2.1584747401
 42
-1.7805701384
  0
ELLIPSE
  5
44C
100
AcDbEntity
  8
RACCORDO
100
AcDbEllipse
 62
7
  6
CONTINUOUS
 10
9.3784591633
 20
-24.4675705479
 30
0.0
 11
-0.1341484654
 21
0.2683369961
 31
0.0
 40
0.6125552124
 41
-2.255296188
 42
-0.6848044477
  0
ELLIPSE
  5
44D
100
AcDbEntity
  8
RACCORDO
100
AcDbEllipse
 62
7
  6
CONTINUOUS
 10
-6.5314434134
 20
-16.5126192596
 30
0.0
 11
-0.1341484654
 21
0.2683369961
 31
0.0
 40
0.6125552124
 41
-2.255296188
 42
-0.6848044477
  0
ELLIPSE
  5
44E
100
AcDbEntity
  8
RACCORDO
100
AcDbEllipse
 62
7
  6
CONTINUOUS
 10
-25.0366586694
 20
5.8778764055
 30
0.0
 11
-0.1341484654
 21
0.2683369961
 31
0.0
 40
0.6125552124
 41
-2.255296188
 42
-0.6848044477
  0
ELLIPSE
  5
44F
100
AcDbEntity
  8
RACCORDO
100
AcDbEllipse
 62
7
  6
CONTINUOUS
 10
-25.0366586694
 20
0.38981248
 30
0.0
 11
-0.1342205464
 21
0.2684010681
 31
0.0
 40
0.6121897086
 41
-3.160544254
 42
-2.2557347926
  0
ELLIPSE
  5
450
100
AcDbEntity
  8
RACCORDO
100
AcDbEllipse
 62
7
  6
CONTINUOUS
 10
-25.0366586694
 20
24.9304352888
 30
0.0
 11
-0.1341484654
 21
0.2683369961
 31
0.0
 40
0.6125552124
 41
-2.255296188
 42
-0.6848044477
  0
ELLIPSE
  5
451
100
AcDbEntity
  8
RACCORDO
100
AcDbEllipse
 62
7
  6
CONTINUOUS
 10
-25.0366586694
 20
19.4423713633
 30
0.0
 11
-0.1342205464
 21
0.2684010681
 31
0.0
 40
0.6121897086
 41
-3.160544254
 42
-2.2557347926
  0
ELLIPSE
  5
452
100
AcDbEntity
  8
RACCORDO
100
AcDbEllipse
 62
7
  6
CONTINUOUS
 10
-25.4391657957
 20
25.4976573146
 30
0.0
 11
0.4999863728
 21
0.0072295547
 31
0.0
 40
0.5106100819
 41
-0.775327905
 42
-0.0072939168
  0
ELLIPSE
  5
453
100
AcDbEntity
  8
RACCORDO
100
AcDbEllipse
 62
7
  6
CONTINUOUS
 10
-25.4391657957
 20
6.4450984314
 30
0.0
 11
0.4999863728
 21
0.0072295547
 31
0.0
 40
0.5106100819
 41
-0.775327905
 42
-0.0072939168
  0
ELLIPSE
  5
454
100
AcDbEntity
  8
RACCORDO
100
AcDbEllipse
 62
7
  6
CONTINUOUS
 10
-6.0540415598
 20
-17.2568765039
 30
0.0
 11
-0.1342205464
 21
0.2684010681
 31
0.0
 40
0.6121897086
 41
-0.6846338794
 42
0.5337148086
  0
ELLIPSE
  5
455
100
AcDbEntity
  8
RACCORDO
100
AcDbEllipse
 62
7
  6
CONTINUOUS
 10
-3.6454119653
 20
-18.4611913012
 30
0.0
 11
-0.1341371037
 21
0.2683722998
 31
0.0
 40
0.6123537661
 41
-1.9029001035
 42
-0.6845550499
  0
ELLIPSE
  5
456
100
AcDbEntity
  8
RACCORDO
100
AcDbEllipse
 62
7
  6
CONTINUOUS
 10
1.0214927905
 20
-20.7946436791
 30
0.0
 11
-0.1341371037
 21
0.2683722998
 31
0.0
 40
0.6123537661
 41
-0.6845550499
 42
0.5337900036
  0
ELLIPSE
  5
457
100
AcDbEntity
  8
RACCORDO
100
AcDbEllipse
 62
7
  6
CONTINUOUS
 10
3.430122385
 20
-21.9989584763
 30
0.0
 11
-0.1341484654
 21
0.2683369961
 31
0.0
 40
0.6125552124
 41
-1.9031531349
 42
-0.6848044477
  0
ELLIPSE
  5
458
100
AcDbEntity
  8
RACCORDO
100
AcDbEllipse
 62
7
  6
CONTINUOUS
 10
-25.5402732325
 20
18.0082906436
 30
0.0
 11
-0.1341484654
 21
0.2683369961
 31
0.0
 40
0.6125552124
 41
-2.255296188
 42
-0.6848044477
  0
ELLIPSE
  5
459
100
AcDbEntity
  8
ASSI
100
AcDbEllipse
 62
7
  6
CONTINUOUS
 10
-10.8504895542
 20
-12.682339989
 30
0.0
 11
0.0823576675
 21
0.1823694112
 31
0.0
 40
0.5796795686
 41
0.6094740628
 42
0.6618339404
  0
ELLIPSE
  5
45A
100
AcDbEntity
  8
RACCORDO
100
AcDbEllipse
 62
7
  6
CONTINUOUS
 10
17.1081720625
 20
-28.8379833151
 30
0.0
 11
-0.1341371037
 21
0.2683722998
 31
0.0
 40
0.6123537661
 41
-0.6845550499
 42
0.5337900036
  0
ELLIPSE
  5
45B
100
AcDbEntity
  8
RACCORDO
100
AcDbEllipse
 62
7
  6
CONTINUOUS
 10
9.8558610169
 20
-25.2118277923
 30
0.0
 11
-0.1342205464
 21
0.2684010681
 31
0.0
 40
0.6121897086
 41
-0.6846338794
 42
0.5337148086
  0
ELLIPSE
  5
45C
100
AcDbEntity
  8
RACCORDO
100
AcDbEllipse
 62
7
  6
CONTINUOUS
 10
12.0877139161
 20
-26.3277542419
 30
0.0
 11
-0.1341371037
 21
0.2683722998
 31
0.0
 40
0.6123537661
 41
-1.9029001035
 42
-0.6845550499
  0
ELLIPSE
  5
45D
100
AcDbEntity
  8
RACCORDO
100
AcDbEllipse
 62
7
  6
CONTINUOUS
 10
-14.7116330909
 20
-12.9280807384
 30
0.0
 11
-0.1341371037
 21
0.2683722998
 31
0.0
 40
0.6123537661
 41
-0.6845550499
 42
0.5337900036
  0
ELLIPSE
  5
45E
100
AcDbEntity
  8
RACCORDO
100
AcDbEllipse
 62
7
  6
CONTINUOUS
 10
-12.4797801917
 20
-14.044007188
 30
0.0
 11
-0.1341484654
 21
0.2683369961
 31
0.0
 40
0.6125552124
 41
-1.9031531349
 42
-0.6848044477
  0
ELLIPSE
  5
45F
100
AcDbEntity
  8
RACCORDO
100
AcDbEllipse
 62
7
  6
CONTINUOUS
 10
-25.5402732325
 20
-1.0442682396
 30
0.0
 11
-0.1341484654
 21
0.2683369961
 31
0.0
 40
0.6125552124
 41
-2.255296188
 42
-0.6848044477
  0
ELLIPSE
  5
460
100
AcDbEntity
  8
RACCORDO
100
AcDbEllipse
 62
7
  6
CONTINUOUS
 10
-19.7320912373
 20
-10.4178516652
 30
0.0
 11
-0.1341371037
 21
0.2683722998
 31
0.0
 40
0.6123537661
 41
-1.9029001035
 42
-0.6845550499
  0
ELLIPSE
  5
461
100
AcDbEntity
  8
RACCORDO
100
AcDbEllipse
 62
7
  6
CONTINUOUS
 10
-25.9719428581
 20
5.4066281958
 30
0.0
 11
-0.1341484654
 21
0.2683369961
 31
0.0
 40
0.6125552124
 41
-2.255296188
 42
-0.6848044477
  0
ELLIPSE
  5
462
100
AcDbEntity
  8
RACCORDO
100
AcDbEllipse
 62
7
  6
CONTINUOUS
 10
-25.9719428581
 20
24.4591870791
 30
0.0
 11
-0.1341484654
 21
0.2683369961
 31
0.0
 40
0.6125552124
 41
-2.255296188
 42
-0.6848044477
  0
ELLIPSE
  5
463
100
AcDbEntity
  8
RACCORDO
100
AcDbEllipse
 62
7
  6
CONTINUOUS
 10
-25.9719428581
 20
19.0104261307
 30
0.0
 11
-0.1342205464
 21
0.2684010681
 31
0.0
 40
0.6121897086
 41
2.4569587742
 42
4.0274505145
  0
ELLIPSE
  5
464
100
AcDbEntity
  8
RACCORDO
100
AcDbEllipse
 62
7
  6
CONTINUOUS
 10
-25.9719428581
 20
-0.0421327526
 30
0.0
 11
-0.1342205464
 21
0.2684010681
 31
0.0
 40
0.6121897086
 41
2.4569587742
 42
4.0274505145
  0
ELLIPSE
  5
465
100
AcDbEntity
  8
ASSI
100
AcDbEllipse
 62
7
  6
CONTINUOUS
 10
-10.9921049895
 20
-13.1237329887
 30
0.0
 11
0.1997674032
 21
0.1243735635
 31
0.0
 40
0.0775313764
 41
5.4495541764
 42
6.9679906257
  0
ELLIPSE
  5
466
100
AcDbEntity
  8
RACCORDO
100
AcDbEllipse
 62
7
  6
CONTINUOUS
 10
8.4431749745
 20
-24.9388187576
 30
0.0
 11
-0.1341484654
 21
0.2683369961
 31
0.0
 40
0.6125552124
 41
-1.8355328362
 42
-0.6848044477
  0
ELLIPSE
  5
467
100
AcDbEntity
  8
RACCORDO
100
AcDbEllipse
 62
7
  6
CONTINUOUS
 10
3.9942802899
 20
-22.7143714153
 30
0.0
 11
-0.1342205464
 21
0.2684010681
 31
0.0
 40
0.6121897086
 41
-0.6846338794
 42
0.8057535591
  0
ELLIPSE
  5
468
100
AcDbEntity
  8
RACCORDO
100
AcDbEllipse
 62
7
  6
CONTINUOUS
 10
-7.4667276022
 20
-16.9838674693
 30
0.0
 11
-0.1341484654
 21
0.2683369961
 31
0.0
 40
0.6125552124
 41
-1.8355328362
 42
-0.6848044477
  0
ELLIPSE
  5
469
100
AcDbEntity
  8
RACCORDO
100
AcDbEllipse
 62
7
  6
CONTINUOUS
 10
-11.9156222868
 20
-14.7594201269
 30
0.0
 11
-0.1342205464
 21
0.2684010681
 31
0.0
 40
0.6121897086
 41
-0.6846338794
 42
0.8057535591
  0
ELLIPSE
  5
46A
100
AcDbEntity
  8
RACCORDO
100
AcDbEllipse
 62
7
  6
CONTINUOUS
 10
-25.5402732325
 20
6.8256221947
 30
0.0
 11
-0.1342205464
 21
0.2684010681
 31
0.0
 40
0.6121897086
 41
2.4569587742
 42
4.0274505145
  0
ELLIPSE
  5
46B
100
AcDbEntity
  8
RACCORDO
100
AcDbEllipse
 62
7
  6
CONTINUOUS
 10
-25.5402732325
 20
25.8781810779
 30
0.0
 11
-0.1342205464
 21
0.2684010681
 31
0.0
 40
0.6121897086
 41
2.4569587742
 42
4.0274505145
  0
ENDSEC
  0
SECTION
  2
OBJECTS
  0
DICTIONARY
  5
C
100
AcDbDictionary
280
0
281
1
  3
ACAD_GROUP
350
D
  3
ACAD_MLINESTYLE
350
17
  3
ACAD_LAYOUT
350
1A
  3
ACAD_PLOTSETTINGS
350
19
  3
ACAD_PLOTSTYLENAME
350
E
  0
DICTIONARY
  5
D
102
{ACAD_REACTORS
330
C
102
}
100
AcDbDictionary
280
0
281
1
  0
ACDBDICTIONARYWDFLT
  5
E
102
{ACAD_REACTORS
330
C
102
}
100
AcDbDictionary
281
1
  3
Normal
350
F
100
AcDbDictionaryWithDefault
340
F
  0
DICTIONARY
  5
17
102
{ACAD_REACTORS
330
C
102
}
100
AcDbDictionary
280
0
281
1
  3
Standard
350
18
  0
DICTIONARY
  5
19
102
{ACAD_REACTORS
330
C
102
}
100
AcDbDictionary
281
1
  0
DICTIONARY
  5
1A
102
{ACAD_REACTORS
330
C
102
}
100
AcDbDictionary
281
1
  3
Model
350
46C
  3
Layout1
350
46D
  0
ACDBPLACEHOLDER
  5
F
102
{ACAD_REACTORS
330
E
102
}
  0
MLINESTYLE
  5
18
102
{ACAD_REACTORS
330
17
102
}
100
AcDbMlineStyle
  2
STANDARD
 70
0
  3

 62
256
 51
90.0
 52
90.0
 71
2
 49
0.5
 62
256
  6
BYLAYER
 49
-0.5
 62
256
  6
BYLAYER
  0
LAYOUT
  5
46C
102
{ACAD_REACTORS
330
1A
102
}
100
AcDbPlotSettings
  1

  2
none_device
  4
ISO_A4_(297.00_x_210.00_MM)
  6

 40
0.0
 41
0.0
 42
0.0
 43
0.0
 44
297.0
 45
210.0
 46
0.0
 47
0.0
 48
0.0
 49
0.0
140
0.0
141
0.0
142
1.0
143
1.0
 70
1024
 72
1
 73
0
 74
0
  7

 75
0
147
1.0
148
0.0
149
0.0
100
AcDbLayout
  1
Model
 70
0
 71
0
 10
0.0
 20
0.0
 11
297.0
 21
210.0
 12
0.0
 22
0.0
 32
0.0
 14
0.0
 24
0.0
 34
0.0
 15
0.0
 25
0.0
 35
0.0
146
0.0
 13
0.0
 23
0.0
 33
0.0
 16
1.0
 26
0.0
 36
0.0
 17
0.0
 27
1.0
 37
0.0
 76
0
330
212
345
0
346
0
  0
LAYOUT
  5
46D
102
{ACAD_REACTORS
330
1A
102
}
100
AcDbPlotSettings
  1

  2
none_device
  4
ISO_A4_(297.00_x_210.00_MM)
  6

 40
0.0
 41
0.0
 42
0.0
 43
0.0
 44
297.0
 45
210.0
 46
0.0
 47
0.0
 48
0.0
 49
0.0
140
0.0
141
0.0
142
1.0
143
1.0
 70
0
 72
1
 73
0
 74
0
  7

 75
0
147
1.0
148
0.0
149
0.0
100
AcDbLayout
  1
Layout1
 70
0
 71
1
 10
0.0
 20
0.0
 11
297.0
 21
210.0
 12
0.0
 22
0.0
 32
0.0
 14
0.0
 24
0.0
 34
0.0
 15
0.0
 25
0.0
 35
0.0
146
0.0
 13
0.0
 23
0.0
 33
0.0
 16
1.0
 26
0.0
 36
0.0
 17
0.0
 27
1.0
 37
0.0
 76
0
330
213
345
0
346
0
  0
ENDSEC
  0
EOF
