  0
SECTION
  2
HEADER
  9
$ACADVER
  1
AC1015
  9
$DWGCODEPAGE
  3
ANSI_1252
  9
$EXTMAX
 10
297.0
 20
210.0
 30
0.0
  9
$EXTMIN
 10
0.0
 20
0.0
 30
0.0
  9
$LIMMIN
 10
0.0
 20
0.0
  9
$LIMMAX
 10
297.0
 20
210.0
  9
$VIEWCTR
 10
148.5
 20
105.0
  9
$VIEWSIZE
 40
210.0
  9
$CLAYER
  8
0
  9
$LTSCALE
 40
16.335
  9
$CELTYPE
  6
BYLAYER
  9
$DIMSCALE
 40
1.0
  9
$DIMASZ
 40
3.0
  9
$DIMEXO
 40
0.5
  9
$DIMDLI
 40
11.286
  9
$DIMEXE
 40
1.5
  9
$DIMCEN
 40
2.673
  9
$DIMLFAC
 40
1.0
  9
$DIMBLK
  1
_FILLED
  9
$DIMTXT
 40
3.0
  9
$DIMTOL
 70
1
  9
$DIMLIM
 70
0
  9
$DIMTFAC
 40
1.0
  9
$DIMTP
 40
0.01
  9
$DIMTM
 40
0.01
  9
$DIMGAP
 40
0.625
  9
$DIMDSEP
 70
44
  9
$PDMODE
 70
3
  9
$PDSIZE
 40
3.0
  9
$HANDSEED
  5
454
  9
$TILEMODE
 70
1
  9
$MEASUREMENT
 70
1
  9
$INSUNITS
 70
4
  0
ENDSEC
  0
SECTION
  2
CLASSES
  0
CLASS
  1
ACDBDICTIONARYWDFLT
  2
AcDbDictionaryWithDefault
  3
AutoCAD 2000
 90
0
280
0
281
0
  0
CLASS
  1
ACDBPLACEHOLDER
  2
AcDbPlaceHolder
  3
AutoCAD 2000
 90
0
280
0
281
0
  0
CLASS
  1
LAYOUT
  2
AcDbLayout
  3
AutoCAD 2000
 90
0
280
0
281
0
  0
ENDSEC
  0
SECTION
  2
TABLES
  0
TABLE
  2
VPORT
  5
8
100
AcDbSymbolTable
 70
2
  0
VPORT
  5
1F4
100
AcDbSymbolTableRecord
100
AcDbViewportTableRecord
  2
*ACTIVE
 70
0
 10
0.0
 20
0.0
 11
1.0
 21
1.0
 12
148.5
 22
105.0
 13
0.0
 23
0.0
 14
1.0
 24
1.0
 15
0.0
 25
0.0
 16
0.0
 26
0.0
 36
1.0
 17
0.0
 27
0.0
 37
0.0
 40
210.0
 41
1.4142857143
 42
50.0
 43
0.0
 44
0.0
 50
0.0
 51
0.0
 71
0
 72
100
 73
1
 74
1
 75
0
 76
0
 77
0
 78
0
  0
ENDTAB
  0
TABLE
  2
LTYPE
  5
5
100
AcDbSymbolTable
 70
6
  0
LTYPE
  5
14
100
AcDbSymbolTableRecord
100
AcDbLinetypeTableRecord
  2
BYBLOCK
 70
0
  3

 72
65
 73
0
 40
0.0
  0
LTYPE
  5
15
100
AcDbSymbolTableRecord
100
AcDbLinetypeTableRecord
  2
BYLAYER
 70
0
  3

 72
65
 73
0
 40
0.0
  0
LTYPE
  5
16
100
AcDbSymbolTableRecord
100
AcDbLinetypeTableRecord
  2
CONTINUOUS
 70
64
  3
Solid line
 72
65
 73
0
 40
0.0
  0
LTYPE
  5
1F5
100
AcDbSymbolTableRecord
100
AcDbLinetypeTableRecord
  2
CENTER
 70
64
  3
____ _ ____ _ ____ _ ____ _ ____ _ ____ _ ____
 72
65
 73
4
 40
0.6
 49
0.375
 74
0
 49
-0.075
 74
0
 49
0.075
 74
0
 49
-0.075
 74
0
  0
LTYPE
  5
1F6
100
AcDbSymbolTableRecord
100
AcDbLinetypeTableRecord
  2
HIDDEN
 70
64
  3
- - - - - - - - - - - - - - - - - - - -
 72
65
 73
2
 40
0.2
 49
0.1
 74
0
 49
-0.1
 74
0
  0
LTYPE
  5
1F7
100
AcDbSymbolTableRecord
100
AcDbLinetypeTableRecord
  2
PHANTOM
 70
64
  3
_____ _ _ _____ _ _ _____ _ _ _____
 72
65
 73
6
 40
0.8
 49
0.45
 74
0
 49
-0.05
 74
0
 49
0.1
 74
0
 49
-0.05
 74
0
 49
0.1
 74
0
 49
-0.05
 74
0
  0
LTYPE
  5
1F8
100
AcDbSymbolTableRecord
100
AcDbLinetypeTableRecord
  2
DOT
 70
64
  3
. . . . . . . . . . . . . . . . . . . .
 72
65
 73
2
 40
0.2
 49
0.1
 74
0
 49
-0.1
 74
0
  0
LTYPE
  5
1F9
100
AcDbSymbolTableRecord
100
AcDbLinetypeTableRecord
  2
DASHED
 70
64
  3
- - - - - - - - - - - - - - - - - - - -
 72
65
 73
2
 40
0.2
 49
0.1
 74
0
 49
-0.1
 74
0
  0
ENDTAB
  0
TABLE
  2
LAYER
  5
2
100
AcDbSymbolTable
 70
36
  0
LAYER
  5
10
100
AcDbSymbolTableRecord
100
AcDbLayerTableRecord
  2
0
 70
0
 62
7
  6
CONTINUOUS
370
-3
390
F
  0
LAYER
  5
1FA
100
AcDbSymbolTableRecord
100
AcDbLayerTableRecord
  2
DEFAULT_1
 70
0
 62
7
  6
CENTER
370
-3
390
F
  0
LAYER
  5
1FB
100
AcDbSymbolTableRecord
100
AcDbLayerTableRecord
  2
DEFAULT_2
 70
0
 62
7
  6
HIDDEN
370
-3
390
F
  0
LAYER
  5
1FC
100
AcDbSymbolTableRecord
100
AcDbLayerTableRecord
  2
DEFAULT_3
 70
0
 62
7
  6
PHANTOM
370
-3
390
F
  0
LAYER
  5
1FD
100
AcDbSymbolTableRecord
100
AcDbLayerTableRecord
  2
ASSI
 70
0
 62
7
  6
CONTINUOUS
370
-3
390
F
  0
LAYER
  5
1FE
100
AcDbSymbolTableRecord
100
AcDbLayerTableRecord
  2
COORDINATE
 70
0
 62
7
  6
CONTINUOUS
370
-3
390
F
  0
LAYER
  5
1FF
100
AcDbSymbolTableRecord
100
AcDbLayerTableRecord
  2
COORD_ORIGINE
 70
0
 62
7
  6
CONTINUOUS
370
-3
390
F
  0
LAYER
  5
200
100
AcDbSymbolTableRecord
100
AcDbLayerTableRecord
  2
COPY_PUBLISH
 70
0
 62
7
  6
CONTINUOUS
370
-3
390
F
  0
LAYER
  5
201
100
AcDbSymbolTableRecord
100
AcDbLayerTableRecord
  2
COSMETIC
 70
0
 62
7
  6
CONTINUOUS
370
-3
390
F
  0
LAYER
  5
202
100
AcDbSymbolTableRecord
100
AcDbLayerTableRecord
  2
CURVE
 70
0
 62
7
  6
CONTINUOUS
370
-3
390
F
  0
LAYER
  5
203
100
AcDbSymbolTableRecord
100
AcDbLayerTableRecord
  2
DRAFT
 70
0
 62
7
  6
CONTINUOUS
370
-3
390
F
  0
LAYER
  5
204
100
AcDbSymbolTableRecord
100
AcDbLayerTableRecord
  2
IMPORT_IGES
 70
0
 62
7
  6
CONTINUOUS
370
-3
390
F
  0
LAYER
  5
205
100
AcDbSymbolTableRecord
100
AcDbLayerTableRecord
  2
INTFCLR_2
 70
0
 62
7
  6
CONTINUOUS
370
-3
390
F
  0
LAYER
  5
206
100
AcDbSymbolTableRecord
100
AcDbLayerTableRecord
  2
PIANI
 70
0
 62
7
  6
CONTINUOUS
370
-3
390
F
  0
LAYER
  5
207
100
AcDbSymbolTableRecord
100
AcDbLayerTableRecord
  2
PIANI_ORIGINE
 70
0
 62
7
  6
CONTINUOUS
370
-3
390
F
  0
LAYER
  5
208
100
AcDbSymbolTableRecord
100
AcDbLayerTableRecord
  2
PIANI_RIFERIMENTO
 70
0
 62
7
  6
CONTINUOUS
370
-3
390
F
  0
LAYER
  5
209
100
AcDbSymbolTableRecord
100
AcDbLayerTableRecord
  2
PUNTI
 70
0
 62
7
  6
CONTINUOUS
370
-3
390
F
  0
LAYER
  5
20A
100
AcDbSymbolTableRecord
100
AcDbLayerTableRecord
  2
RACCORDO
 70
0
 62
7
  6
CONTINUOUS
370
-3
390
F
  0
LAYER
  5
20B
100
AcDbSymbolTableRecord
100
AcDbLayerTableRecord
  2
SMUSSO
 70
0
 62
7
  6
CONTINUOUS
370
-3
390
F
  0
LAYER
  5
20C
100
AcDbSymbolTableRecord
100
AcDbLayerTableRecord
  2
SNAPLINE
 70
0
 62
7
  6
CONTINUOUS
370
-3
390
F
  0
LAYER
  5
20D
100
AcDbSymbolTableRecord
100
AcDbLayerTableRecord
  2
SUPERFICI
 70
0
 62
7
  6
CONTINUOUS
370
-3
390
F
  0
LAYER
  5
20E
100
AcDbSymbolTableRecord
100
AcDbLayerTableRecord
  2
TRASH
 70
0
 62
7
  6
CONTINUOUS
370
-3
390
F
  0
LAYER
  5
20F
100
AcDbSymbolTableRecord
100
AcDbLayerTableRecord
  2
XSEC_DATUMS
 70
0
 62
7
  6
CONTINUOUS
370
-3
390
F
  0
ENDTAB
  0
TABLE
  2
STYLE
  5
3
100
AcDbSymbolTable
 70
1
  0
STYLE
  5
11
100
AcDbSymbolTableRecord
100
AcDbTextStyleTableRecord
  2
STANDARD
 70
0
 40
0.0
 41
0.8
 50
0.0
 71
0
 42
0.2
  3
txt
  4

  0
STYLE
  5
210
100
AcDbSymbolTableRecord
100
AcDbTextStyleTableRecord
  2
TEXTSTYLE_1
 70
0
 40
0.0
 41
0.8
 50
0.0
 71
0
 42
0.2
  3
gdt
  4

  0
ENDTAB
  0
TABLE
  2
VIEW
  5
6
100
AcDbSymbolTable
 70
0
  0
ENDTAB
  0
TABLE
  2
UCS
  5
7
100
AcDbSymbolTable
 70
0
  0
ENDTAB
  0
TABLE
  2
APPID
  5
9
100
AcDbSymbolTable
 70
1
  0
APPID
  5
211
100
AcDbSymbolTableRecord
100
AcDbRegAppTableRecord
  2
ACAD
 70
0
  0
ENDTAB
  0
TABLE
  2
BLOCK_RECORD
  5
1
100
AcDbSymbolTable
 70
0
  0
BLOCK_RECORD
  5
212
100
AcDbSymbolTableRecord
100
AcDbBlockTableRecord
  2
*Model_Space
  0
BLOCK_RECORD
  5
213
100
AcDbSymbolTableRecord
100
AcDbBlockTableRecord
  2
*Paper_Space
  0
ENDTAB
  0
TABLE
  2
DIMSTYLE
  5
A
100
AcDbSymbolTable
 70
1
100
AcDbDimStyleTable
 71
0
  0
DIMSTYLE
105
214
100
AcDbSymbolTableRecord
100
AcDbDimStyleTableRecord
  2
STANDARD
 70
0
  3

  4

 40
1.0
 41
3.0
 42
0.5
 43
0.38
 44
1.5
 45
0.0
 46
0.0
 47
0.01
 48
0.01
140
3.0
141
0.09
142
0.0
143
25.4
144
1.0
145
0.0
146
1.0
147
0.625
 71
1.0
 72
0.0
 73
0
 74
0
 75
0
 76
0
 77
1
 78
8
170
0
171
2
172
0
173
0
174
0
175
0
176
0
177
0
178
0
270
2
271
2
272
2
273
2
274
2
275
0
280
0
281
0
282
0
283
1
284
8
285
0
286
0
287
3
288
0
340
11
278
44
  0
ENDTAB
  0
ENDSEC
  0
SECTION
  2
BLOCKS
  0
BLOCK
  5
20
100
AcDbEntity
  8
0
100
AcDbBlockBegin
  2
*Model_Space
 70
0
 10
0.0
 20
0.0
 30
0.0
  3
*Model_Space
  1

  0
ENDBLK
  5
21
100
AcDbEntity
  8
0
100
AcDbBlockEnd
  0
BLOCK
  5
1C
100
AcDbEntity
  8
0
100
AcDbBlockBegin
  2
*Paper_Space
 70
0
 10
0.0
 20
0.0
 30
0.0
  3
*Paper_Space
  1

  0
ENDBLK
  5
1D
100
AcDbEntity
  8
0
100
AcDbBlockEnd
  0
ENDSEC
  0
SECTION
  2
ENTITIES
  0
LINE
  5
215
100
AcDbEntity
  8
RACCORDO
100
AcDbLine
 62
7
  6
CONTINUOUS
 10
-35.9457722689
 20
56.9316377513
 11
-32.4455937021
 21
58.6817270347
  0
LINE
  5
216
100
AcDbEntity
  8
RACCORDO
100
AcDbLine
 62
7
  6
CONTINUOUS
 10
-35.4985586734
 20
56.9032359641
 11
-31.9983801066
 21
58.6533252475
  0
LWPOLYLINE
  5
217
100
AcDbEntity
  8
RACCORDO
100
AcDbPolyline
 62
7
  6
CONTINUOUS
 90
12
 70
0
 10
-32.4455937021
 20
58.6817270347
 10
-32.4288393378
 20
58.6895937033
 10
-32.3912274702
 20
58.7037974268
 10
-32.3519333022
 20
58.7140765794
 10
-32.3111251292
 20
58.7203871201
 10
-32.2689777762
 20
58.7227020167
 10
-32.2256717734
 20
58.7210113741
 10
-32.1813925254
 20
58.7153224498
 10
-32.1363295933
 20
58.705659605
 10
-32.0906759253
 20
58.6920642116
 10
-32.0446270337
 20
58.6745944898
 10
-31.9983801066
 20
58.6533252475
  0
LWPOLYLINE
  5
218
100
AcDbEntity
  8
RACCORDO
100
AcDbPolyline
 62
7
  6
CONTINUOUS
 90
10
 70
0
 10
-32.4455937021
 20
58.6817270347
 10
-32.3968466934
 20
58.7037735526
 10
-32.3460055113
 20
58.7221386019
 10
-32.2933379414
 20
58.7366071445
 10
-32.2392425643
 20
58.7469803095
 10
-32.1839263764
 20
58.7531448575
 10
-32.127361142
 20
58.7549921995
 10
-32.069839769
 20
58.7523727647
 10
-32.011687305
 20
58.7451735285
 10
-31.9528565236
 20
58.7332314999
  0
LWPOLYLINE
  5
219
100
AcDbEntity
  8
RACCORDO
100
AcDbPolyline
 62
7
  6
CONTINUOUS
 90
16
 70
0
 10
-30.2760317117
 20
33.7044693107
 10
-30.2979369955
 20
33.6916563221
 10
-30.31956791
 20
33.6762171878
 10
-30.3406926925
 20
33.6583173291
 10
-30.3610850035
 20
33.6381485325
 10
-30.380526351
 20
33.615926895
 10
-30.3988084325
 20
33.5918905083
 10
-30.4157353764
 20
33.5662968915
 10
-30.431125808
 20
33.5394202804
 10
-30.444814803
 20
33.511548697
 10
-30.4566557054
 20
33.4829807658
 10
-30.4665216546
 20
33.4540225839
 10
-30.4743069375
 20
33.4249844978
 10
-30.4799281663
 20
33.3961776525
 10
-30.4833251528
 20
33.3679106557
 10
-30.484461533
 20
33.3404863503
  0
LWPOLYLINE
  5
21A
100
AcDbEntity
  8
RACCORDO
100
AcDbPolyline
 62
7
  6
CONTINUOUS
 90
13
 70
0
 10
-30.597849439
 20
33.7197541347
 10
-30.6174648266
 20
33.7085195289
 10
-30.6552786756
 20
33.6828857551
 10
-30.6907083426
 20
33.6532478569
 10
-30.7233799153
 20
33.6197885392
 10
-30.7529299826
 20
33.5827658871
 10
-30.7792566948
 20
33.5421666065
 10
-30.8020815606
 20
33.4981624494
 10
-30.8210987794
 20
33.4510258085
 10
-30.8361568126
 20
33.4007114908
 10
-30.8470269263
 20
33.3472540152
 10
-30.8534087308
 20
33.2908884816
 10
-30.8551190814
 20
33.2416352753
  0
LINE
  5
21B
100
AcDbEntity
  8
RACCORDO
100
AcDbLine
 62
7
  6
CONTINUOUS
 10
-30.5978901523
 20
33.7197338478
 11
-28.9600499829
 21
34.6033862248
  0
LINE
  5
21C
100
AcDbEntity
  8
RACCORDO
100
AcDbLine
 62
7
  6
CONTINUOUS
 10
-30.2760317131
 20
33.7044693114
 11
-28.639698283
 21
34.5873087373
  0
LWPOLYLINE
  5
21D
100
AcDbEntity
  8
RACCORDO
100
AcDbPolyline
 62
7
  6
CONTINUOUS
 90
22
 70
0
 10
-36.2056654546
 20
-24.8495621532
 10
-36.2046710945
 20
-24.8824734239
 10
-36.2017457829
 20
-24.9158957057
 10
-36.1968895196
 20
-24.9498289984
 10
-36.1900512166
 20
-24.9845012181
 10
-36.181281962
 20
-25.0196844489
 10
-36.1707350202
 20
-25.0546949426
 10
-36.158385367
 20
-25.0894900757
 10
-36.1442580265
 20
-25.1241124718
 10
-36.1285813362
 20
-25.1580062545
 10
-36.1113240331
 20
-25.1911712846
 10
-36.0925173802
 20
-25.2236077013
 10
-36.0724835025
 20
-25.2547600453
 10
-36.0512094793
 20
-25.284596491
 10
-36.0287082314
 20
-25.3131488641
 10
-36.005340647
 20
-25.3399571826
 10
-35.9810622735
 20
-25.36501295
 10
-35.9559175635
 20
-25.3883246628
 10
-35.930400763
 20
-25.4094578285
 10
-35.9046766206
 20
-25.4282676162
 10
-35.8785803876
 20
-25.4448988568
 10
-35.852112064
 20
-25.4593515504
  0
LWPOLYLINE
  5
21E
100
AcDbEntity
  8
RACCORDO
100
AcDbPolyline
 62
7
  6
CONTINUOUS
 90
16
 70
0
 10
-36.352112064
 20
56.2139872556
 10
-36.3498494475
 20
56.2816488893
 10
-36.3431915316
 20
56.3469826318
 10
-36.3323323698
 20
56.4098379736
 10
-36.3174631908
 20
56.4700919781
 10
-36.2987754375
 20
56.5276279334
 10
-36.2764952867
 20
56.582261938
 10
-36.2509561673
 20
56.6336728409
 10
-36.2223484621
 20
56.6819118866
 10
-36.1906687742
 20
56.7272312518
 10
-36.1561515186
 20
56.7694415601
 10
-36.1190386333
 20
56.8083955526
 10
-36.0792420727
 20
56.8442572741
 10
-36.0368685704
 20
56.8769163984
 10
-35.9922860585
 20
56.9060914308
 10
-35.9457722689
 20
56.9316377513
  0
LWPOLYLINE
  5
21F
100
AcDbEntity
  8
RACCORDO
100
AcDbPolyline
 62
7
  6
CONTINUOUS
 90
19
 70
0
 10
-35.852112064
 20
56.2934465669
 10
-35.8507666896
 20
56.3318587567
 10
-35.8467408043
 20
56.3713239888
 10
-35.8400650462
 20
56.4115419098
 10
-35.8307902215
 20
56.4522064338
 10
-35.8189869151
 20
56.4930080837
 10
-35.8047449511
 20
56.5336363474
 10
-35.7881727113
 20
56.573782029
 10
-35.7693963209
 20
56.6131395838
 10
-35.7485586868
 20
56.651409457
 10
-35.7258183965
 20
56.688300391
 10
-35.7013485175
 20
56.7235316228
 10
-35.6753352933
 20
56.7568350055
 10
-35.6479767096
 20
56.7879570753
 10
-35.619480977
 20
56.8166609858
 10
-35.5900649585
 20
56.8427282931
 10
-35.5599525252
 20
56.8659606131
 10
-35.5293728536
 20
56.8861811329
 10
-35.4985586732
 20
56.903235964
  0
LWPOLYLINE
  5
220
100
AcDbEntity
  8
RACCORDO
100
AcDbPolyline
 62
7
  6
CONTINUOUS
 90
22
 70
0
 10
30.1916612988
 20
-58.4812382318
 10
30.218127293
 20
-58.4932533915
 10
30.2442222183
 20
-58.5027180937
 10
30.2699460747
 20
-58.5096323383
 10
30.295464098
 20
-58.5140161734
 10
30.3206110524
 20
-58.515849551
 10
30.3448912299
 20
-58.5150723269
 10
30.3682596123
 20
-58.5116313436
 10
30.3907612177
 20
-58.5055797587
 10
30.4120353934
 20
-58.4970169003
 10
30.4320692626
 20
-58.4858980416
 10
30.450875702
 20
-58.4722679095
 10
30.4681326881
 20
-58.4563600136
 10
30.4838089604
 20
-58.4381428989
 10
30.4979357793
 20
-58.4176480204
 10
30.5102849033
 20
-58.3952032533
 10
30.5208312473
 20
-58.3707416118
 10
30.5295998962
 20
-58.3443300817
 10
30.5364378636
 20
-58.3164974948
 10
30.5412941538
 20
-58.2874201284
 10
30.5442197624
 20
-58.2569217052
 10
30.5452146894
 20
-58.2250022252
  0
LWPOLYLINE
  5
221
100
AcDbEntity
  8
RACCORDO
100
AcDbPolyline
 62
7
  6
CONTINUOUS
 90
19
 70
0
 10
30.5452146894
 20
-58.2250022252
 10
30.5773742751
 20
-58.2397366407
 10
30.6119798618
 20
-58.253013541
 10
30.64876808
 20
-58.2647318808
 10
30.6874589491
 20
-58.2748024766
 10
30.7277580083
 20
-58.2831486851
 10
30.7693585574
 20
-58.2897069865
 10
30.8119439912
 20
-58.2944274681
 10
30.8551902086
 20
-58.2972742044
 10
30.89876808
 20
-58.2982255299
 10
30.9423459514
 20
-58.2972742044
 10
30.9855921688
 20
-58.2944274681
 10
31.0281776026
 20
-58.2897069865
 10
31.0697781517
 20
-58.2831486851
 10
31.1100772109
 20
-58.2748024766
 10
31.14876808
 20
-58.2647318808
 10
31.1855562982
 20
-58.253013541
 10
31.2201618848
 20
-58.2397366407
 10
31.2523214706
 20
-58.2250022252
  0
LINE
  5
222
100
AcDbEntity
  8
RACCORDO
100
AcDbLine
 62
7
  6
CONTINUOUS
 10
-35.7221654712
 20
-25.7297884506
 11
30.3216078916
 21
-58.751675132
  0
LINE
  5
223
100
AcDbEntity
  8
RACCORDO
100
AcDbLine
 62
7
  6
CONTINUOUS
 10
-35.852112064
 20
-25.4593515504
 11
30.1916612988
 21
-58.4812382318
  0
LWPOLYLINE
  5
224
100
AcDbEntity
  8
RACCORDO
100
AcDbPolyline
 62
7
  6
CONTINUOUS
 90
10
 70
0
 10
-36.2056654546
 20
-24.8495621532
 10
-36.235134255
 20
-24.8334823785
 10
-36.261688036
 20
-24.8161796028
 10
-36.2851247062
 20
-24.7977855096
 10
-36.3052658948
 20
-24.7784400905
 10
-36.3219583165
 20
-24.7582905733
 10
-36.3350749334
 20
-24.7374903009
 10
-36.3445159169
 20
-24.7161975694
 10
-36.3502094059
 20
-24.6945744344
 10
-36.352112064
 20
-24.6727854579
  0
LWPOLYLINE
  5
225
100
AcDbEntity
  8
RACCORDO
100
AcDbPolyline
 62
7
  6
CONTINUOUS
 90
19
 70
0
 10
-35.7221654712
 20
-25.7297884506
 10
-35.782528522
 20
-25.6967256143
 10
-35.8409489755
 20
-25.6589633577
 10
-35.8973265664
 20
-25.6166688334
 10
-35.9519470802
 20
-25.5696226077
 10
-36.0043037624
 20
-25.5181989705
 10
-36.0532430431
 20
-25.463677562
 10
-36.0985431547
 20
-25.4066558294
 10
-36.1405069184
 20
-25.3470323223
 10
-36.1789116753
 20
-25.2853227647
 10
-36.2137082137
 20
-25.2218040858
 10
-36.24490621
 20
-25.1565775098
 10
-36.2723753953
 20
-25.0899578292
 10
-36.2960737768
 20
-25.0219896277
 10
-36.3158474933
 20
-24.9529083615
 10
-36.331463361
 20
-24.8832875154
 10
-36.3428006459
 20
-24.8133767293
 10
-36.3497475171
 20
-24.7431558202
 10
-36.352112064
 20
-24.6727854579
  0
LWPOLYLINE
  5
226
100
AcDbEntity
  8
RACCORDO
100
AcDbPolyline
 62
7
  6
CONTINUOUS
 90
12
 70
0
 10
-35.852112064
 20
-25.4593515504
 10
-35.8507666866
 20
-25.4964184053
 10
-35.8467407936
 20
-25.5318577817
 10
-35.8400650244
 20
-25.5653999646
 10
-35.8307901856
 20
-25.5967896775
 10
-35.8189868645
 20
-25.625788026
 10
-35.8047448913
 20
-25.6521743149
 10
-35.7881726561
 20
-25.6757477288
 10
-35.7693962836
 20
-25.6963288598
 10
-35.7485586734
 20
-25.7137610729
 10
-35.7258184123
 20
-25.7279116986
 10
-35.7221654712
 20
-25.7297884506
  0
LINE
  5
227
100
AcDbEntity
  8
RACCORDO
100
AcDbLine
 62
7
  6
CONTINUOUS
 10
-36.352112064
 20
56.2139872556
 11
-36.352112064
 21
-24.6727854579
  0
LINE
  5
228
100
AcDbEntity
  8
RACCORDO
100
AcDbLine
 62
7
  6
CONTINUOUS
 10
-36.2056654546
 20
56.0372105603
 11
-36.2056654546
 21
-24.8495621532
  0
LINE
  5
229
100
AcDbEntity
  8
DRAFT
100
AcDbLine
 62
7
  6
CONTINUOUS
 10
-26.3524928882
 20
23.936087373
 11
-26.8663017753
 21
23.6507660828
  0
LINE
  5
22A
100
AcDbEntity
  8
RACCORDO
100
AcDbLine
 62
7
  6
CONTINUOUS
 10
-25.9260102486
 20
24.2633049239
 11
-26.0341594086
 21
24.204955971
  0
LINE
  5
22B
100
AcDbEntity
  8
RACCORDO
100
AcDbLine
 62
7
  6
CONTINUOUS
 10
-25.8831084
 20
24.1294304667
 11
-26.8183925888
 21
23.658182257
  0
LINE
  5
22C
100
AcDbEntity
  8
RACCORDO
100
AcDbLine
 62
7
  6
CONTINUOUS
 10
-25.6710086744
 20
23.7636125527
 11
-26.6062928632
 21
23.292364343
  0
LINE
  5
22D
100
AcDbEntity
  8
RACCORDO
100
AcDbLine
 62
7
  6
CONTINUOUS
 10
-26.1746232376
 20
24.71120005
 11
-25.5990637368
 21
24.9770125008
  0
LINE
  5
22E
100
AcDbEntity
  8
RACCORDO
100
AcDbLine
 62
7
  6
CONTINUOUS
 10
-26.2557605821
 20
24.5474256711
 11
-25.6802010814
 21
24.813238122
  0
LWPOLYLINE
  5
22F
100
AcDbEntity
  8
RACCORDO
100
AcDbPolyline
 62
7
  6
CONTINUOUS
 90
12
 70
0
 10
-30.8536566194
 20
-11.0743589598
 10
-30.847655184
 20
-11.1338411379
 10
-30.8372007104
 20
-11.193185225
 10
-30.8224807194
 20
-11.252160527
 10
-30.8036824208
 20
-11.3103604314
 10
-30.7809351715
 20
-11.3675913935
 10
-30.7543547828
 20
-11.4235409615
 10
-30.7242281805
 20
-11.4775715335
 10
-30.6905996485
 20
-11.5295482493
 10
-30.6536175693
 20
-11.5790477685
 10
-30.6138979118
 20
-11.6251862699
 10
-30.5715679782
 20
-11.667762443
  0
LWPOLYLINE
  5
230
100
AcDbEntity
  8
RACCORDO
100
AcDbPolyline
 62
7
  6
CONTINUOUS
 90
9
 70
0
 10
-30.8551291328
 20
-11.0278845847
 10
-30.8545800977
 20
-11.0369553961
 10
-30.8511005488
 20
-11.0523841657
 10
-30.8444498609
 20
-11.067550412
 10
-30.8346993104
 20
-11.0822916365
 10
-30.8219534237
 20
-11.0964498627
 10
-30.8063488188
 20
-11.1098733939
 10
-30.7880527132
 20
-11.1224184333
 10
-30.7672611672
 20
-11.1339505865
  0
LWPOLYLINE
  5
231
100
AcDbEntity
  8
RACCORDO
100
AcDbPolyline
 62
7
  6
CONTINUOUS
 90
9
 70
0
 10
-30.8551291328
 20
33.2415947622
 10
-30.8545800922
 20
33.2325239072
 10
-30.8511005328
 20
33.2170951348
 10
-30.8444498342
 20
33.2019288887
 10
-30.8346992745
 20
33.1871876673
 10
-30.8219533833
 20
33.1730294484
 10
-30.8063487818
 20
33.1596059287
 10
-30.7880526891
 20
33.1470609035
 10
-30.7672611672
 20
33.1355287658
  0
LINE
  5
232
100
AcDbEntity
  8
RACCORDO
100
AcDbLine
 62
7
  6
CONTINUOUS
 10
-30.855119362
 20
-11.0277263702
 11
-30.8536566194
 21
-11.0743589598
  0
LINE
  5
233
100
AcDbEntity
  8
RACCORDO
100
AcDbLine
 62
7
  6
CONTINUOUS
 10
-30.8551291328
 20
33.2415947794
 11
-30.8551291328
 21
-11.0278845688
  0
LINE
  5
234
100
AcDbEntity
  8
RACCORDO
100
AcDbLine
 62
7
  6
CONTINUOUS
 10
-30.7672611672
 20
33.1355287658
 11
-30.7672611672
 21
-11.136747099
  0
LINE
  5
235
100
AcDbEntity
  8
RACCORDO
100
AcDbLine
 62
7
  6
CONTINUOUS
 10
-29.1148103547
 20
-9.7213435125
 11
-29.1148103547
 21
30.0704708794
  0
LINE
  5
236
100
AcDbEntity
  8
RACCORDO
100
AcDbLine
 62
7
  6
CONTINUOUS
 10
-28.7306053894
 20
-9.7381505846
 11
-28.7306053894
 21
30.053664308
  0
LWPOLYLINE
  5
237
100
AcDbEntity
  8
RACCORDO
100
AcDbPolyline
 62
7
  6
CONTINUOUS
 90
22
 70
0
 10
-30.7672611672
 20
33.1355287658
 10
-30.7664672361
 20
33.1609548933
 10
-30.7641494205
 20
33.1852435585
 10
-30.7603077203
 20
33.2083947614
 10
-30.7549048642
 20
33.2305381241
 10
-30.7479781234
 20
33.2515440246
 10
-30.7396393126
 20
33.2710235966
 10
-30.7298654695
 20
33.2889385578
 10
-30.7186795564
 20
33.3053271906
 10
-30.7062622736
 20
33.3199154759
 10
-30.6925898901
 20
33.3326741748
 10
-30.677686137
 20
33.3436325262
 10
-30.6618029083
 20
33.3526042276
 10
-30.6449250685
 20
33.3595531025
 10
-30.6270677532
 20
33.3645153274
 10
-30.608528263
 20
33.3674131281
 10
-30.5892877491
 20
33.3682081155
 10
-30.5693650603
 20
33.3669386788
 10
-30.5491140435
 20
33.3636422115
 10
-30.5286526476
 20
33.3583311781
 10
-30.5078629236
 20
33.3509931142
 10
-30.4867448716
 20
33.3416280196
  0
LWPOLYLINE
  5
238
100
AcDbEntity
  8
RACCORDO
100
AcDbPolyline
 62
7
  6
CONTINUOUS
 90
19
 70
0
 10
-29.1148103547
 20
30.0704708794
 10
-29.1128984114
 20
30.1186399567
 10
-29.1079570005
 20
30.163634139
 10
-29.0999861218
 20
30.2054534262
 10
-29.0888171652
 20
30.2442780175
 10
-29.0746187408
 20
30.2799277136
 10
-29.0578966795
 20
30.3118619174
 10
-29.0386357141
 20
30.3399779891
 10
-29.0168511119
 20
30.3643785684
 10
-28.9930945046
 20
30.3848309773
 10
-28.967388389
 20
30.4012826515
 10
-28.9397102685
 20
30.4137861553
 10
-28.9105442847
 20
30.4222665028
 10
-28.8798919648
 20
30.4267183644
 10
-28.8477517818
 20
30.4271470697
 10
-28.814603296
 20
30.4234936219
 10
-28.780606361
 20
30.4157383554
 10
-28.7456011233
 20
30.4039009358
 10
-28.7095875829
 20
30.387981363
  0
LWPOLYLINE
  5
239
100
AcDbEntity
  8
RACCORDO
100
AcDbPolyline
 62
7
  6
CONTINUOUS
 90
13
 70
0
 10
-28.7095875829
 20
-10.4440767679
 10
-28.7084891116
 20
-10.417121952
 10
-28.7052050687
 20
-10.3893478224
 10
-28.699769466
 20
-10.3610420222
 10
-28.6922385978
 20
-10.3324977008
 10
-28.6826904582
 20
-10.3040104776
 10
-28.6712239326
 20
-10.2758753803
 10
-28.6579577747
 20
-10.2483837903
 10
-28.6430293757
 20
-10.2218204239
 10
-28.6265933417
 20
-10.1964603842
 10
-28.6088198926
 20
-10.1725663121
 10
-28.5898930994
 20
-10.1503856664
 10
-28.5700089774
 20
-10.1301481607
  0
LINE
  5
23A
100
AcDbEntity
  8
DRAFT
100
AcDbLine
 62
7
  6
CONTINUOUS
 10
-26.3524928882
 20
17.4408968446
 11
-26.8663017753
 21
17.1555755544
  0
LINE
  5
23B
100
AcDbEntity
  8
RACCORDO
100
AcDbLine
 62
7
  6
CONTINUOUS
 10
-26.3524928882
 20
17.2245328378
 11
-25.8111634624
 21
17.4972847199
  0
LINE
  5
23C
100
AcDbEntity
  8
RACCORDO
100
AcDbLine
 62
7
  6
CONTINUOUS
 10
-26.6062928632
 20
17.8434451027
 11
-25.6710086744
 21
18.2753903354
  0
LINE
  5
23D
100
AcDbEntity
  8
RACCORDO
100
AcDbLine
 62
7
  6
CONTINUOUS
 10
-26.6874302077
 20
17.6796707238
 11
-25.7521460189
 21
18.1116159565
  0
LWPOLYLINE
  5
23E
100
AcDbEntity
  8
RACCORDO
100
AcDbPolyline
 62
7
  6
CONTINUOUS
 90
4
 70
0
 10
-30.5267257361
 20
-11.7065530515
 10
-30.4800357247
 20
-11.7409067683
 10
-30.4318239874
 20
-11.7705647646
 10
-30.4064426099
 20
-11.7839827826
  0
LINE
  5
23F
100
AcDbEntity
  8
RACCORDO
100
AcDbLine
 62
7
  6
CONTINUOUS
 10
-30.5715679782
 20
-11.667762443
 11
-30.5267257361
 21
-11.7065530515
  0
LWPOLYLINE
  5
240
100
AcDbEntity
  8
RACCORDO
100
AcDbPolyline
 62
7
  6
CONTINUOUS
 90
22
 70
0
 10
-27.1612552648
 20
-8.6054242908
 10
-27.1575103839
 20
-8.6174536762
 10
-27.1530006056
 20
-8.6301985407
 10
-27.147661395
 20
-8.6436444132
 10
-27.1413729352
 20
-8.6577015615
 10
-27.1341309172
 20
-8.6724002082
 10
-27.126032622
 20
-8.6878921872
 10
-27.1169988677
 20
-8.7041146519
 10
-27.1069705516
 20
-8.7209966829
 10
-27.0960543625
 20
-8.7386547247
 10
-27.0841215823
 20
-8.7570578201
 10
-27.0711681142
 20
-8.7759782212
 10
-27.0575133027
 20
-8.7952125658
 10
-27.0431250331
 20
-8.8146826297
 10
-27.0280320643
 20
-8.8340975232
 10
-27.0127427847
 20
-8.852975188
 10
-26.997470254
 20
-8.8710980362
 10
-26.9821898665
 20
-8.8883975578
 10
-26.9671235997
 20
-8.9046925179
 10
-26.9524258604
 20
-8.9198561755
 10
-26.9381747276
 20
-8.9337979291
 10
-26.9244906523
 20
-8.946422392
  0
LWPOLYLINE
  5
241
100
AcDbEntity
  8
RACCORDO
100
AcDbPolyline
 62
7
  6
CONTINUOUS
 90
10
 70
0
 10
-28.7095875829
 20
30.387981363
 10
-28.7084891098
 20
30.3621250316
 10
-28.705205067
 20
30.3376349545
 10
-28.6997694655
 20
30.3147647633
 10
-28.6922385993
 20
30.293751313
 10
-28.6826904617
 20
30.2748122297
 10
-28.6712239382
 20
30.2581436559
 10
-28.6579577817
 20
30.2439182199
 10
-28.6430293833
 20
30.2322832473
 10
-28.6316364533
 20
30.2257276377
  0
LWPOLYLINE
  5
242
100
AcDbEntity
  8
RACCORDO
100
AcDbPolyline
 62
7
  6
CONTINUOUS
 90
6
 70
0
 10
-27.1617497939
 20
-8.6017913689
 10
-27.161718494
 20
-8.6025385464
 10
-27.1616534255
 20
-8.6032754165
 10
-27.1615545542
 20
-8.6040019901
 10
-27.1614218456
 20
-8.604718278
 10
-27.1612552648
 20
-8.6054242908
  0
LWPOLYLINE
  5
243
100
AcDbEntity
  8
RACCORDO
100
AcDbPolyline
 62
7
  6
CONTINUOUS
 90
18
 70
0
 10
-24.89315638
 20
-8.1983993726
 10
-24.8937445988
 20
-8.1795223583
 10
-24.8954140165
 20
-8.1614966185
 10
-24.8982172909
 20
-8.1432949638
 10
-24.9022014592
 20
-8.1249928373
 10
-24.9074102103
 20
-8.1066688357
 10
-24.9138776491
 20
-8.0884217855
 10
-24.9216377286
 20
-8.0703377492
 10
-24.930731263
 20
-8.0524889162
 10
-24.9411807671
 20
-8.0349861193
 10
-24.9529996669
 20
-8.0179462942
 10
-24.9662130896
 20
-8.001466527
 10
-24.9808190481
 20
-7.9856782194
 10
-24.9968026123
 20
-7.970718004
 10
-25.0141609961
 20
-7.9567067543
 10
-25.0328624722
 20
-7.9437881288
 10
-25.0528462726
 20
-7.9321170413
 10
-25.0599946384
 20
-7.9284226309
  0
LWPOLYLINE
  5
244
100
AcDbEntity
  8
RACCORDO
100
AcDbPolyline
 62
7
  6
CONTINUOUS
 90
7
 70
0
 10
-27.2222883265
 20
-8.6259869339
 10
-27.2222692921
 20
-8.6279932381
 10
-27.2222140138
 20
-8.6299995205
 10
-27.2221224918
 20
-8.6320057811
 10
-27.221994726
 20
-8.63401202
 10
-27.2218307164
 20
-8.6360182371
 10
-27.221630463
 20
-8.6380244324
  0
LINE
  5
245
100
AcDbEntity
  8
RACCORDO
100
AcDbLine
 62
7
  6
CONTINUOUS
 10
-27.2222883265
 20
29.5210535725
 11
-27.2222883265
 21
-8.6259869339
  0
LINE
  5
246
100
AcDbEntity
  8
RACCORDO
100
AcDbLine
 62
7
  6
CONTINUOUS
 10
-27.1617473594
 20
29.490783089
 11
-27.1617473594
 21
-8.6010338729
  0
LINE
  5
247
100
AcDbEntity
  8
RACCORDO
100
AcDbLine
 62
7
  6
CONTINUOUS
 10
-26.8663017753
 20
-8.4521719502
 11
-26.8663017753
 21
29.3430602969
  0
LINE
  5
248
100
AcDbEntity
  8
RACCORDO
100
AcDbLine
 62
7
  6
CONTINUOUS
 10
-26.6062928632
 20
23.292364343
 11
-26.6062928632
 21
17.8434451027
  0
LINE
  5
249
100
AcDbEntity
  8
RACCORDO
100
AcDbLine
 62
7
  6
CONTINUOUS
 10
-26.6062928632
 20
4.2398054598
 11
-26.6062928632
 21
-1.2091137805
  0
LINE
  5
24A
100
AcDbEntity
  8
RACCORDO
100
AcDbLine
 62
7
  6
CONTINUOUS
 10
-26.3524928882
 20
29.0861558533
 11
-26.3524928882
 21
23.936087373
  0
LINE
  5
24B
100
AcDbEntity
  8
DRAFT
100
AcDbLine
 62
7
  6
CONTINUOUS
 10
-26.3524928882
 20
17.4408968446
 11
-26.3524928882
 21
4.8835284897
  0
LINE
  5
24C
100
AcDbEntity
  8
RACCORDO
100
AcDbLine
 62
7
  6
CONTINUOUS
 10
-26.3524928882
 20
-1.6116620387
 11
-26.3524928882
 21
-8.2072429798
  0
LINE
  5
24D
100
AcDbEntity
  8
RACCORDO
100
AcDbLine
 62
7
  6
CONTINUOUS
 10
-26.1746232376
 20
-8.4208153525
 11
-26.1746232376
 21
-2.2110909757
  0
LINE
  5
24E
100
AcDbEntity
  8
RACCORDO
100
AcDbLine
 62
7
  6
CONTINUOUS
 10
-26.1746232376
 20
5.6586411667
 11
-26.1746232376
 21
16.8414679076
  0
LINE
  5
24F
100
AcDbEntity
  8
RACCORDO
100
AcDbLine
 62
7
  6
CONTINUOUS
 10
-26.1746232376
 20
24.71120005
 11
-26.1746232376
 21
28.9972210281
  0
LINE
  5
250
100
AcDbEntity
  8
RACCORDO
100
AcDbLine
 62
7
  6
CONTINUOUS
 10
-26.0039834805
 20
24.2212365765
 11
-26.0039834805
 21
24.189868007
  0
LINE
  5
251
100
AcDbEntity
  8
RACCORDO
100
AcDbLine
 62
7
  6
CONTINUOUS
 10
-26.0039834805
 20
5.1686776932
 11
-26.0039834805
 21
5.1373091237
  0
LINE
  5
252
100
AcDbEntity
  8
RACCORDO
100
AcDbLine
 62
7
  6
CONTINUOUS
 10
-25.9260102486
 20
24.6997153027
 11
-25.9260102486
 21
24.2633049239
  0
LINE
  5
253
100
AcDbEntity
  8
RACCORDO
100
AcDbLine
 62
7
  6
CONTINUOUS
 10
-25.9260102486
 20
18.0313196935
 11
-25.9260102486
 21
17.554708113
  0
LINE
  5
254
100
AcDbEntity
  8
RACCORDO
100
AcDbLine
 62
7
  6
CONTINUOUS
 10
-25.9260102486
 20
5.6471564194
 11
-25.9260102486
 21
5.2107460407
  0
LINE
  5
255
100
AcDbEntity
  8
RACCORDO
100
AcDbLine
 62
7
  6
CONTINUOUS
 10
-25.9260102486
 20
-1.4978507703
 11
-25.9260102486
 21
-1.0212391897
  0
LINE
  5
256
100
AcDbEntity
  8
RACCORDO
100
AcDbLine
 62
7
  6
CONTINUOUS
 10
-25.7856801488
 20
24.7645243932
 11
-25.7856801488
 21
24.442176675
  0
LINE
  5
257
100
AcDbEntity
  8
RACCORDO
100
AcDbLine
 62
7
  6
CONTINUOUS
 10
-25.7856801488
 20
18.096128784
 11
-25.7856801488
 21
17.4824013984
  0
LINE
  5
258
100
AcDbEntity
  8
RACCORDO
100
AcDbLine
 62
7
  6
CONTINUOUS
 10
-25.7856801488
 20
5.7119655099
 11
-25.7856801488
 21
5.3896177918
  0
LINE
  5
259
100
AcDbEntity
  8
RACCORDO
100
AcDbLine
 62
7
  6
CONTINUOUS
 10
-25.7856801488
 20
-1.5701574849
 11
-25.7856801488
 21
-0.9564300992
  0
LINE
  5
25A
100
AcDbEntity
  8
RACCORDO
100
AcDbLine
 62
7
  6
CONTINUOUS
 10
-25.6710086744
 20
23.7636125527
 11
-25.6710086744
 21
18.2753903354
  0
LINE
  5
25B
100
AcDbEntity
  8
RACCORDO
100
AcDbLine
 62
7
  6
CONTINUOUS
 10
-25.6710086744
 20
4.7110536695
 11
-25.6710086744
 21
-0.7771685479
  0
LINE
  5
25C
100
AcDbEntity
  8
RACCORDO
100
AcDbLine
 62
7
  6
CONTINUOUS
 10
-25.5990637368
 20
-8.1308164542
 11
-25.5990637368
 21
-1.9210920774
  0
LINE
  5
25D
100
AcDbEntity
  8
RACCORDO
100
AcDbLine
 62
7
  6
CONTINUOUS
 10
-25.5990637368
 20
5.9244536176
 11
-25.5990637368
 21
17.1314668059
  0
LINE
  5
25E
100
AcDbEntity
  8
RACCORDO
100
AcDbLine
 62
7
  6
CONTINUOUS
 10
-25.5990637368
 20
24.9770125008
 11
-25.5990637368
 21
28.7094412777
  0
LINE
  5
25F
100
AcDbEntity
  8
RACCORDO
100
AcDbLine
 62
7
  6
CONTINUOUS
 10
-25.0334869558
 20
-8.3213393225
 11
-25.0334869558
 21
-8.4136048447
  0
LINE
  5
260
100
AcDbEntity
  8
RACCORDO
100
AcDbLine
 62
7
  6
CONTINUOUS
 10
-24.8931568559
 20
-8.1991547469
 11
-24.8931568559
 21
-8.4837698946
  0
LWPOLYLINE
  5
261
100
AcDbEntity
  8
RACCORDO
100
AcDbPolyline
 62
7
  6
CONTINUOUS
 90
22
 70
0
 10
-27.221630463
 20
-8.6380244324
 10
-27.2243094506
 20
-8.6542866329
 10
-27.2261319171
 20
-8.6711805961
 10
-27.2270549577
 20
-8.6887096757
 10
-27.2270519201
 20
-8.7068482758
 10
-27.2260749352
 20
-8.7256025478
 10
-27.2240476803
 20
-8.745013008
 10
-27.2209872116
 20
-8.7650722574
 10
-27.2168194709
 20
-8.7857062928
 10
-27.2113266453
 20
-8.8068392565
 10
-27.2044690679
 20
-8.8284977802
 10
-27.1962695899
 20
-8.8504695944
 10
-27.1866292153
 20
-8.8722951203
 10
-27.1755118669
 20
-8.8938945156
 10
-27.1630583425
 20
-8.9150453229
 10
-27.149490068
 20
-8.935088342
 10
-27.1349329205
 20
-8.9537535609
 10
-27.1194734641
 20
-8.9710385926
 10
-27.1032995528
 20
-8.9867366073
 10
-27.0865482968
 20
-9.0007093758
 10
-27.0693055335
 20
-9.0128726064
 10
-27.0516817114
 20
-9.0231250124
  0
LINE
  5
262
100
AcDbEntity
  8
RACCORDO
100
AcDbLine
 62
7
  6
CONTINUOUS
 10
-26.1746232376
 20
16.8414679076
 11
-25.5990637368
 21
17.1314668059
  0
LWPOLYLINE
  5
263
100
AcDbEntity
  8
ASSI
100
AcDbPolyline
 62
7
  6
CONTINUOUS
 90
4
 70
0
 10
15.9120717546
 20
-27.3411897756
 10
15.9254852936
 20
-27.3420213468
 10
15.938912379
 20
-27.3442867394
 10
15.9523248265
 20
-27.3476706469
  0
LWPOLYLINE
  5
264
100
AcDbEntity
  8
0
100
AcDbPolyline
 62
7
  6
CONTINUOUS
 90
6
 70
0
 10
-2.2769959192
 20
-24.8827560852
 10
-2.2698152709
 20
-24.8842865221
 10
-2.2626369627
 20
-24.8847580248
 10
-2.2554609948
 20
-24.8841705935
 10
-2.2483070412
 20
-24.8823043239
 10
-2.2411554277
 20
-24.8793791203
  0
LWPOLYLINE
  5
265
100
AcDbEntity
  8
0
100
AcDbPolyline
 62
7
  6
CONTINUOUS
 90
5
 70
0
 10
-2.3779877557
 20
-24.5295567692
 10
-2.3898531188
 20
-24.5268678333
 10
-2.4111797843
 20
-24.5203894725
 10
-2.4335178939
 20
-24.5119393745
 10
-2.4568674475
 20
-24.5015175391
  0
LWPOLYLINE
  5
266
100
AcDbEntity
  8
0
100
AcDbPolyline
 62
7
  6
CONTINUOUS
 90
10
 70
0
 10
-2.7754140882
 20
-23.9844517424
 10
-2.7480569841
 20
-23.9925577019
 10
-2.7208078939
 20
-24.0017008812
 10
-2.6936668176
 20
-24.0118812802
 10
-2.6666515849
 20
-24.0230838981
 10
-2.639744366
 20
-24.0353237358
 10
-2.6128916726
 20
-24.0486457961
 10
-2.5860756752
 20
-24.0630650801
 10
-2.5593142032
 20
-24.0785665868
 10
-2.5326072566
 20
-24.0951503161
  0
LWPOLYLINE
  5
267
100
AcDbEntity
  8
RACCORDO
100
AcDbPolyline
 62
7
  6
CONTINUOUS
 90
11
 70
0
 10
21.1544572698
 20
-37.5644331729
 10
21.1886532898
 20
-37.5802269437
 10
21.2387549503
 20
-37.5988406606
 10
21.2893909169
 20
-37.6123529227
 10
21.3402214171
 20
-37.6206831522
 10
21.3906524908
 20
-37.6237788748
 10
21.4402203129
 20
-37.6216921105
 10
21.4885303022
 20
-37.6145527098
 10
21.5349544319
 20
-37.6026156878
 10
21.5790037432
 20
-37.5862244493
 10
21.5897003958
 20
-37.5814288198
  0
LINE
  5
268
100
AcDbEntity
  8
RACCORDO
100
AcDbLine
 62
7
  6
CONTINUOUS
 10
-30.4064935772
 20
-11.7839699453
 11
21.1543127827
 21
-37.5643731252
  0
LINE
  5
269
100
AcDbEntity
  8
0
100
AcDbLine
 62
7
  6
CONTINUOUS
 10
-3.0738258777
 20
-25.3439467428
 11
-2.7651370805
 21
-25.4982911414
  0
LINE
  5
26A
100
AcDbEntity
  8
0
100
AcDbLine
 62
7
  6
CONTINUOUS
 10
-2.2905130235
 20
-25.7356031699
 11
-1.9923907272
 21
-25.8846643181
  0
LINE
  5
26B
100
AcDbEntity
  8
0
100
AcDbLine
 62
7
  6
CONTINUOUS
 10
-7.2826837436
 20
-23.2395174654
 11
-7.0095524356
 21
-23.3760831194
  0
LINE
  5
26C
100
AcDbEntity
  8
0
100
AcDbLine
 62
7
  6
CONTINUOUS
 10
-6.4172607038
 20
-23.6722289853
 11
-6.1073244879
 21
-23.8271970933
  0
LINE
  5
26D
100
AcDbEntity
  8
0
100
AcDbLine
 62
7
  6
CONTINUOUS
 10
-5.940476279
 20
-23.9106211978
 11
-5.6439687279
 21
-24.0588749733
  0
LINE
  5
26E
100
AcDbEntity
  8
0
100
AcDbLine
 62
7
  6
CONTINUOUS
 10
-5.213492019
 20
-24.2741133277
 11
-5.1700240439
 21
-24.2958473153
  0
LINE
  5
26F
100
AcDbEntity
  8
0
100
AcDbLine
 62
7
  6
CONTINUOUS
 10
-4.7378326011
 20
-24.5119430367
 11
-4.4346329915
 21
-24.6635428415
  0
LINE
  5
270
100
AcDbEntity
  8
0
100
AcDbLine
 62
7
  6
CONTINUOUS
 10
-4.385964953
 20
-24.6878768607
 11
-4.079391737
 21
-24.8411634688
  0
LINE
  5
271
100
AcDbEntity
  8
0
100
AcDbLine
 62
7
  6
CONTINUOUS
 10
-3.4914975022
 20
-25.1351105861
 11
-3.164838211
 21
-25.2984402318
  0
LINE
  5
272
100
AcDbEntity
  8
RACCORDO
100
AcDbLine
 62
7
  6
CONTINUOUS
 10
-30.484461533
 20
-11.6217078051
 11
-7.287063606
 21
-23.2204067686
  0
LINE
  5
273
100
AcDbEntity
  8
RACCORDO
100
AcDbLine
 62
7
  6
CONTINUOUS
 10
-6.99263167
 20
-23.3676227366
 11
-6.4172607038
 21
-23.6553082197
  0
LINE
  5
274
100
AcDbEntity
  8
RACCORDO
100
AcDbLine
 62
7
  6
CONTINUOUS
 10
-6.0904037223
 20
-23.8187367105
 11
-5.939228796
 21
-23.8943241736
  0
LINE
  5
275
100
AcDbEntity
  8
RACCORDO
100
AcDbLine
 62
7
  6
CONTINUOUS
 10
-5.6270479623
 20
-24.0504145905
 11
-5.2186731019
 21
-24.2546020207
  0
LINE
  5
276
100
AcDbEntity
  8
RACCORDO
100
AcDbLine
 62
7
  6
CONTINUOUS
 10
-5.1531032783
 20
-24.2873869325
 11
-4.7387437795
 21
-24.4945666819
  0
LINE
  5
277
100
AcDbEntity
  8
RACCORDO
100
AcDbLine
 62
7
  6
CONTINUOUS
 10
-4.4177122258
 20
-24.6550824587
 11
-4.3791966468
 21
-24.6743402482
  0
LINE
  5
278
100
AcDbEntity
  8
RACCORDO
100
AcDbLine
 62
7
  6
CONTINUOUS
 10
-4.0624709713
 20
-24.8327030859
 11
-3.4952397265
 21
-25.1163187084
  0
LINE
  5
279
100
AcDbEntity
  8
RACCORDO
100
AcDbLine
 62
7
  6
CONTINUOUS
 10
-3.1479174453
 20
-25.2899798489
 11
-3.073217091
 21
-25.3273300261
  0
LINE
  5
27A
100
AcDbEntity
  8
RACCORDO
100
AcDbLine
 62
7
  6
CONTINUOUS
 10
-2.7482159705
 20
-25.4898305864
 11
-2.294574048
 21
-25.7166515476
  0
LINE
  5
27B
100
AcDbEntity
  8
RACCORDO
100
AcDbLine
 62
7
  6
CONTINUOUS
 10
-1.9754696171
 20
-25.8762037631
 11
21.0786281661
 21
-37.4032526547
  0
LINE
  5
27C
100
AcDbEntity
  8
0
100
AcDbLine
 62
7
  6
CONTINUOUS
 10
-3.993868586
 20
-24.520888061
 11
-3.5717873559
 21
-24.731928676
  0
LINE
  5
27D
100
AcDbEntity
  8
0
100
AcDbLine
 62
7
  6
CONTINUOUS
 10
-3.6337277886
 20
-24.4200414693
 11
-3.930469392
 21
-24.2716706677
  0
LINE
  5
27E
100
AcDbEntity
  8
0
100
AcDbLine
 62
7
  6
CONTINUOUS
 10
-2.7651370805
 20
-24.7866305131
 11
-2.5989568649
 21
-24.8697206209
  0
LINE
  5
27F
100
AcDbEntity
  8
0
100
AcDbLine
 62
7
  6
CONTINUOUS
 10
-3.6635724184
 20
-24.2636977982
 11
-3.7890480358
 21
-24.2009599895
  0
LINE
  5
280
100
AcDbEntity
  8
0
100
AcDbLine
 62
7
  6
CONTINUOUS
 10
-2.5982888038
 20
-24.5722282172
 11
-2.7754140882
 21
-24.483665575
  0
LINE
  5
281
100
AcDbEntity
  8
0
100
AcDbLine
 62
7
  6
CONTINUOUS
 10
-2.4568674475
 20
-24.5015175391
 11
-2.6339927319
 21
-24.4129548969
  0
LWPOLYLINE
  5
282
100
AcDbEntity
  8
RACCORDO
100
AcDbPolyline
 62
7
  6
CONTINUOUS
 90
22
 70
0
 10
-30.484461533
 20
-11.6217078051
 10
-30.5055459999
 20
-11.6101932087
 10
-30.526323856
 20
-11.5969655479
 10
-30.5467951014
 20
-11.5820248228
 10
-30.5670807879
 20
-11.5652648592
 10
-30.5870598637
 20
-11.5467918313
 10
-30.6063691728
 20
-11.5269242612
 10
-30.6249868319
 20
-11.5056449677
 10
-30.6429347244
 20
-11.482971132
 10
-30.6599153438
 20
-11.4592728192
 10
-30.675914505
 20
-11.4345280573
 10
-30.6909463931
 20
-11.4087588184
 10
-30.7047560575
 20
-11.3824010837
 10
-30.7173201395
 20
-11.3554479954
 10
-30.7286619976
 20
-11.3279064113
 10
-30.7385967573
 20
-11.3002328863
 10
-30.7471007688
 20
-11.2724161602
 10
-30.7541976819
 20
-11.2444674932
 10
-30.7597735708
 20
-11.21687722
 10
-30.7637904604
 20
-11.1898087858
 10
-30.7662863258
 20
-11.1630987454
 10
-30.7672611672
 20
-11.136747099
  0
LWPOLYLINE
  5
283
100
AcDbEntity
  8
RACCORDO
100
AcDbPolyline
 62
7
  6
CONTINUOUS
 90
19
 70
0
 10
-28.7095875829
 20
-10.4440767679
 10
-28.7455751195
 20
-10.4240035701
 10
-28.7805634436
 20
-10.4008498187
 10
-28.8145525552
 20
-10.3746155136
 10
-28.8477065032
 20
-10.3451178204
 10
-28.8798612387
 20
-10.3125395735
 10
-28.9105246156
 20
-10.2774292762
 10
-28.9396923125
 20
-10.2397854597
 10
-28.9673686506
 20
-10.1996095928
 10
-28.9930744481
 20
-10.157454586
 10
-29.0168346095
 20
-10.1132421323
 10
-29.0386242302
 20
-10.0670505386
 10
-29.0578894145
 20
-10.019667636
 10
-29.0746140197
 20
-9.9710073271
 10
-29.0888141885
 20
-9.9211557092
 10
-29.0999844532
 20
-9.8711589065
 10
-29.1079563245
 20
-9.8213656268
 10
-29.1128982917
 20
-9.7714271621
 10
-29.1148103547
 20
-9.7213435125
  0
LWPOLYLINE
  5
284
100
AcDbEntity
  8
RACCORDO
100
AcDbPolyline
 62
7
  6
CONTINUOUS
 90
10
 70
0
 10
-30.4064935772
 20
-11.7839699453
 10
-30.4157354143
 20
-11.7787921665
 10
-30.4311258476
 20
-11.7673059746
 10
-30.4448148408
 20
-11.7531233744
 10
-30.4566557382
 20
-11.7363963358
 10
-30.4665216806
 20
-11.7173040967
 10
-30.4743069549
 20
-11.6960512944
 10
-30.4799281748
 20
-11.6728656885
 10
-30.4833251549
 20
-11.647995699
 10
-30.484461533
 20
-11.6217078051
  0
LWPOLYLINE
  5
285
100
AcDbEntity
  8
0
100
AcDbPolyline
 62
7
  6
CONTINUOUS
 90
13
 70
0
 10
-2.5989568649
 20
-24.8697206209
 10
-2.5795423224
 20
-24.8807747329
 10
-2.561097099
 20
-24.8934776457
 10
-2.5436211948
 20
-24.907829359
 10
-2.527191891
 20
-24.923748193
 10
-2.5117319064
 20
-24.9413158275
 10
-2.4970093974
 20
-24.9607773031
 10
-2.4828603155
 20
-24.9822660151
 10
-2.4694487092
 20
-25.0056485681
 10
-2.4570348809
 20
-25.030769816
 10
-2.4457055979
 20
-25.0575780434
 10
-2.4353740929
 20
-25.0861249657
 10
-2.4260403659
 20
-25.1164105829
  0
LWPOLYLINE
  5
286
100
AcDbEntity
  8
RACCORDO
100
AcDbPolyline
 62
7
  6
CONTINUOUS
 90
6
 70
0
 10
-26.9244906523
 20
-8.946422392
 10
-26.9235253682
 20
-8.9472418967
 10
-26.9224978414
 20
-8.9480247786
 10
-26.9214081144
 20
-8.9487709407
 10
-26.9202562306
 20
-8.9494802853
 10
-26.919042234
 20
-8.9501527149
  0
LINE
  5
287
100
AcDbEntity
  8
RACCORDO
100
AcDbLine
 62
7
  6
CONTINUOUS
 10
-19.8007881311
 20
-11.2898014542
 11
-19.8007881311
 21
-11.7425469222
  0
LWPOLYLINE
  5
288
100
AcDbEntity
  8
RACCORDO
100
AcDbPolyline
 62
7
  6
CONTINUOUS
 90
8
 70
0
 10
-5.2794708151
 20
-17.7313886309
 10
-5.2948649126
 20
-17.7268572478
 10
-5.311040958
 20
-17.7244054493
 10
-5.327874708
 20
-17.7240427363
 10
-5.3452033498
 20
-17.7257573752
 10
-5.3628819646
 20
-17.7295122991
 10
-5.3807886556
 20
-17.7352595113
 10
-5.3987907895
 20
-17.7429366832
  0
LWPOLYLINE
  5
289
100
AcDbEntity
  8
RACCORDO
100
AcDbPolyline
 62
7
  6
CONTINUOUS
 90
3
 70
0
 10
-5.3254759445
 20
-17.7146103988
 10
-5.2968250849
 20
-17.7237813933
 10
-5.2683227282
 20
-17.7362307832
  0
LWPOLYLINE
  5
28A
100
AcDbEntity
  8
ASSI
100
AcDbPolyline
 62
7
  6
CONTINUOUS
 90
3
 70
0
 10
15.9523248265
 20
-27.3476706469
 10
15.9656248837
 20
-27.3521161096
 10
15.9787369337
 20
-27.3576209844
  0
LWPOLYLINE
  5
28B
100
AcDbEntity
  8
RACCORDO
100
AcDbPolyline
 62
7
  6
CONTINUOUS
 90
19
 70
0
 10
-28.5700248951
 20
-10.1301415923
 10
-28.5907217506
 20
-10.1224059287
 10
-28.610510014
 20
-10.1124540459
 10
-28.6292817125
 20
-10.1003900803
 10
-28.6469055649
 20
-10.0863474576
 10
-28.6632981992
 20
-10.0704224406
 10
-28.6784252145
 20
-10.0526590747
 10
-28.6921759638
 20
-10.0331745967
 10
-28.704452089
 20
-10.012086818
 10
-28.7152340227
 20
-9.9894275617
 10
-28.7244113374
 20
-9.9652910072
 10
-28.7318745852
 20
-9.9398391949
 10
-28.7375965017
 20
-9.9132064348
 10
-28.7414393964
 20
-9.885503461
 10
-28.7433132497
 20
-9.8569191381
 10
-28.7432587917
 20
-9.8277143632
 10
-28.7412173118
 20
-9.7980881681
 10
-28.7370328649
 20
-9.7681762226
 10
-28.7306054607
 20
-9.7381506366
  0
LWPOLYLINE
  5
28C
100
AcDbEntity
  8
RACCORDO
100
AcDbPolyline
 62
7
  6
CONTINUOUS
 90
9
 70
0
 10
-3.7300827387
 20
-18.5053507899
 10
-3.7411801545
 20
-18.500533961
 10
-3.7565742519
 20
-18.4960025775
 10
-3.7727503004
 20
-18.4935507786
 10
-3.7895840553
 20
-18.4931880659
 10
-3.8069127001
 20
-18.4949027059
 10
-3.8245913144
 20
-18.4986576306
 10
-3.8424980025
 20
-18.5044048426
 10
-3.8605001309
 20
-18.5120820125
  0
LWPOLYLINE
  5
28D
100
AcDbEntity
  8
RACCORDO
100
AcDbPolyline
 62
7
  6
CONTINUOUS
 90
13
 70
0
 10
-29.1148103547
 20
-9.7213435125
 10
-29.0887489677
 20
-9.732939845
 10
-29.0601712944
 20
-9.7429449962
 10
-29.0294637988
 20
-9.7512236634
 10
-28.9970417472
 20
-9.7576638918
 10
-28.963343592
 20
-9.7621785886
 10
-28.9288250431
 20
-9.7647067
 10
-28.8939529047
 20
-9.7652140378
 10
-28.8591987625
 20
-9.7636937411
 10
-28.8250326068
 20
-9.7601663692
 10
-28.7919164761
 20
-9.7546796239
 10
-28.7602982094
 20
-9.747307704
 10
-28.7306053894
 20
-9.7381503019
  0
LINE
  5
28E
100
AcDbEntity
  8
RACCORDO
100
AcDbLine
 62
7
  6
CONTINUOUS
 10
-3.7300431256
 20
-18.5053705844
 11
-3.7300827387
 21
-18.5053507899
  0
LINE
  5
28F
100
AcDbEntity
  8
0
100
AcDbLine
 62
7
  6
CONTINUOUS
 10
-3.6204115537
 20
-23.2521534989
 11
-3.9202368498
 21
-23.1022408509
  0
LINE
  5
290
100
AcDbEntity
  8
0
100
AcDbLine
 62
7
  6
CONTINUOUS
 10
-4.5734783577
 20
-22.775620097
 11
-4.8801293555
 21
-22.6222945981
  0
LINE
  5
291
100
AcDbEntity
  8
0
100
AcDbLine
 62
7
  6
CONTINUOUS
 10
-5.4967278829
 20
-22.3139953343
 11
-5.806407419
 21
-22.1591555663
  0
LINE
  5
292
100
AcDbEntity
  8
0
100
AcDbLine
 62
7
  6
CONTINUOUS
 10
-6.5322779858
 20
-21.7962202829
 11
-6.8420027767
 21
-21.6413578874
  0
LINE
  5
293
100
AcDbEntity
  8
0
100
AcDbLine
 62
7
  6
CONTINUOUS
 10
-7.4167080558
 20
-21.3540052479
 11
-7.7533941212
 21
-21.1856622152
  0
LINE
  5
294
100
AcDbEntity
  8
0
100
AcDbLine
 62
7
  6
CONTINUOUS
 10
-6.1073244879
 20
-22.0085879126
 11
-6.4172607038
 21
-21.8536198047
  0
LINE
  5
295
100
AcDbEntity
  8
0
100
AcDbLine
 62
7
  6
CONTINUOUS
 10
-3.4789901975
 20
-23.1814428208
 11
-3.7788154935
 21
-23.0315301728
  0
LINE
  5
296
100
AcDbEntity
  8
0
100
AcDbLine
 62
7
  6
CONTINUOUS
 10
-4.4320570014
 20
-22.7049094188
 11
-4.7387079992
 21
-22.5515839199
  0
LINE
  5
297
100
AcDbEntity
  8
0
100
AcDbLine
 62
7
  6
CONTINUOUS
 10
-5.3553065267
 20
-22.2432846562
 11
-5.6649860628
 21
-22.0884448882
  0
LINE
  5
298
100
AcDbEntity
  8
0
100
AcDbLine
 62
7
  6
CONTINUOUS
 10
-6.3908566295
 20
-21.7255096048
 11
-6.7005814205
 21
-21.5706472093
  0
LINE
  5
299
100
AcDbEntity
  8
0
100
AcDbLine
 62
7
  6
CONTINUOUS
 10
-7.2752866996
 20
-21.2832945698
 11
-7.611972765
 21
-21.1149515371
  0
LINE
  5
29A
100
AcDbEntity
  8
0
100
AcDbLine
 62
7
  6
CONTINUOUS
 10
-5.9659031317
 20
-21.9378772345
 11
-6.2758393476
 21
-21.7829091266
  0
LINE
  5
29B
100
AcDbEntity
  8
RACCORDO
100
AcDbLine
 62
7
  6
CONTINUOUS
 10
19.3014708774
 20
-34.449605998
 11
-28.7095875829
 21
-10.4440767679
  0
LINE
  5
29C
100
AcDbEntity
  8
RACCORDO
100
AcDbLine
 62
7
  6
CONTINUOUS
 10
19.4410398102
 20
-34.1356725544
 11
-28.5700237633
 21
-10.1301407677
  0
LINE
  5
29D
100
AcDbEntity
  8
RACCORDO
100
AcDbLine
 62
7
  6
CONTINUOUS
 10
-27.0325181932
 20
-9.0342120546
 11
19.6188256835
 21
-32.3598839929
  0
LINE
  5
29E
100
AcDbEntity
  8
RACCORDO
100
AcDbLine
 62
7
  6
CONTINUOUS
 10
-26.919042234
 20
-8.9501527149
 11
19.6188256835
 21
-32.2190840578
  0
LINE
  5
29F
100
AcDbEntity
  8
RACCORDO
100
AcDbLine
 62
7
  6
CONTINUOUS
 10
19.6188256835
 20
-31.9545037308
 11
-26.6542020497
 21
-8.8179898642
  0
LINE
  5
2A0
100
AcDbEntity
  8
RACCORDO
100
AcDbLine
 62
7
  6
CONTINUOUS
 10
-12.7622012623
 20
-15.5603603266
 11
-8.3131773328
 21
-17.7848722913
  0
LINE
  5
2A1
100
AcDbEntity
  8
RACCORDO
100
AcDbLine
 62
7
  6
CONTINUOUS
 10
3.1477013144
 20
-23.515311615
 11
7.5967252439
 21
-25.7398235797
  0
LINE
  5
2A2
100
AcDbEntity
  8
RACCORDO
100
AcDbLine
 62
7
  6
CONTINUOUS
 10
-26.1406515734
 20
-8.572615201
 11
-12.9418523536
 21
-15.1720148109
  0
LINE
  5
2A3
100
AcDbEntity
  8
DRAFT
100
AcDbLine
 62
7
  6
CONTINUOUS
 10
-7.6385514947
 20
-17.8236652404
 11
2.9680502231
 21
-23.1269660993
  0
LINE
  5
2A4
100
AcDbEntity
  8
RACCORDO
100
AcDbLine
 62
7
  6
CONTINUOUS
 10
8.271351082
 20
-25.7786165287
 11
19.6188256835
 21
-31.4523538295
  0
LINE
  5
2A5
100
AcDbEntity
  8
ASSI
100
AcDbLine
 62
7
  6
CONTINUOUS
 10
16.1771719059
 20
-29.604525073
 11
13.8221393143
 21
-28.4270087772
  0
LINE
  5
2A6
100
AcDbEntity
  8
ASSI
100
AcDbLine
 62
7
  6
CONTINUOUS
 10
-15.6426332475
 20
-13.6946224963
 11
-17.9976658391
 21
-12.5171062005
  0
LINE
  5
2A7
100
AcDbEntity
  8
RACCORDO
100
AcDbLine
 62
7
  6
CONTINUOUS
 10
19.6188256835
 20
-31.317539813
 11
16.2616577094
 21
-29.638955826
  0
LINE
  5
2A8
100
AcDbEntity
  8
RACCORDO
100
AcDbLine
 62
7
  6
CONTINUOUS
 10
11.241199563
 20
-27.1287267527
 11
9.0092820414
 21
-26.012767992
  0
LINE
  5
2A9
100
AcDbEntity
  8
RACCORDO
100
AcDbLine
 62
7
  6
CONTINUOUS
 10
2.5836726543
 20
-22.7999632984
 11
0.1749784374
 21
-21.59561619
  0
LINE
  5
2AA
100
AcDbEntity
  8
RACCORDO
100
AcDbLine
 62
7
  6
CONTINUOUS
 10
-4.4919263184
 20
-19.262163812
 11
-6.9006205353
 21
-18.0578167036
  0
LINE
  5
2AB
100
AcDbEntity
  8
RACCORDO
100
AcDbLine
 62
7
  6
CONTINUOUS
 10
-13.3262299224
 20
-14.8450120101
 11
-15.558147444
 21
-13.7290532493
  0
LINE
  5
2AC
100
AcDbEntity
  8
RACCORDO
100
AcDbLine
 62
7
  6
CONTINUOUS
 10
-20.5786055904
 20
-11.2188241761
 11
-26.1746232376
 21
-8.4208153525
  0
LINE
  5
2AD
100
AcDbEntity
  8
ASSI
100
AcDbLine
 62
7
  6
CONTINUOUS
 10
16.3848639005
 20
-29.4962390359
 11
14.0342713487
 21
-28.32094276
  0
LINE
  5
2AE
100
AcDbEntity
  8
ASSI
100
AcDbLine
 62
7
  6
CONTINUOUS
 10
-15.4349412529
 20
-13.5863364592
 11
-17.7855338047
 21
-12.4110401833
  0
LINE
  5
2AF
100
AcDbEntity
  8
ASSI
100
AcDbLine
 62
7
  6
CONTINUOUS
 10
16.5233252303
 20
-29.4240483446
 11
14.1756927049
 21
-28.2502320819
  0
LINE
  5
2B0
100
AcDbEntity
  8
ASSI
100
AcDbLine
 62
7
  6
CONTINUOUS
 10
-15.2964799231
 20
-13.5141457679
 11
-17.6441124485
 21
-12.3403295052
  0
LINE
  5
2B1
100
AcDbEntity
  8
RACCORDO
100
AcDbLine
 62
7
  6
CONTINUOUS
 10
-11.8590078199
 20
-15.0730667437
 11
-7.3778931441
 21
-17.3136240816
  0
LINE
  5
2B2
100
AcDbEntity
  8
RACCORDO
100
AcDbLine
 62
7
  6
CONTINUOUS
 10
4.0508947568
 20
-23.028018032
 11
8.5320094326
 21
-25.26857537
  0
LINE
  5
2B3
100
AcDbEntity
  8
ASSI
100
AcDbLine
 62
7
  6
CONTINUOUS
 10
16.7464967713
 20
-29.3235020807
 11
14.3878247393
 21
-28.1441660647
  0
LINE
  5
2B4
100
AcDbEntity
  8
ASSI
100
AcDbLine
 62
7
  6
CONTINUOUS
 10
-15.0733083821
 20
-13.413599504
 11
-17.4319804141
 21
-12.234263488
  0
LINE
  5
2B5
100
AcDbEntity
  8
RACCORDO
100
AcDbLine
 62
7
  6
CONTINUOUS
 10
19.6188256835
 20
-30.7397611643
 11
16.8273431344
 21
-29.3440198898
  0
LINE
  5
2B6
100
AcDbEntity
  8
RACCORDO
100
AcDbLine
 62
7
  6
CONTINUOUS
 10
11.806884988
 20
-26.8337908166
 11
9.5650933905
 21
-25.7128950178
  0
LINE
  5
2B7
100
AcDbEntity
  8
RACCORDO
100
AcDbLine
 62
7
  6
CONTINUOUS
 10
3.1592321551
 20
-22.5099644001
 11
0.7406638624
 21
-21.3006802538
  0
LINE
  5
2B8
100
AcDbEntity
  8
RACCORDO
100
AcDbLine
 62
7
  6
CONTINUOUS
 10
-3.9262408934
 20
-18.9672278759
 11
-6.3448091862
 21
-17.7579437295
  0
LINE
  5
2B9
100
AcDbEntity
  8
RACCORDO
100
AcDbLine
 62
7
  6
CONTINUOUS
 10
-12.7506704216
 20
-14.5550131118
 11
-14.992462019
 21
-13.4341173131
  0
LINE
  5
2BA
100
AcDbEntity
  8
RACCORDO
100
AcDbLine
 62
7
  6
CONTINUOUS
 10
-20.0129201654
 20
-10.9238882399
 11
-25.5990314281
 21
-8.1308326085
  0
LINE
  5
2BB
100
AcDbEntity
  8
ASSI
100
AcDbLine
 62
7
  6
CONTINUOUS
 10
18.418333392
 20
-30.0179990349
 11
14.5292460955
 21
-28.0734553866
  0
LINE
  5
2BC
100
AcDbEntity
  8
ASSI
100
AcDbLine
 62
7
  6
CONTINUOUS
 10
-13.4014717613
 20
-14.1080964582
 11
-17.2905590579
 21
-12.1635528099
  0
LINE
  5
2BD
100
AcDbEntity
  8
ASSI
100
AcDbLine
 62
7
  6
CONTINUOUS
 10
18.6304654264
 20
-29.9119330177
 11
14.7413781299
 21
-27.9673893694
  0
LINE
  5
2BE
100
AcDbEntity
  8
ASSI
100
AcDbLine
 62
7
  6
CONTINUOUS
 10
-13.189339727
 20
-14.002030441
 11
-17.0784270235
 21
-12.0574867927
  0
LINE
  5
2BF
100
AcDbEntity
  8
RACCORDO
100
AcDbLine
 62
7
  6
CONTINUOUS
 10
-25.5990637368
 20
-7.7787828808
 11
-25.2455866814
 21
-7.9555214086
  0
LINE
  5
2C0
100
AcDbEntity
  8
RACCORDO
100
AcDbLine
 62
7
  6
CONTINUOUS
 10
-25.5990637368
 20
-7.6588829959
 11
-25.060230233
 21
-7.9282997478
  0
LINE
  5
2C1
100
AcDbEntity
  8
ASSI
100
AcDbLine
 62
7
  6
CONTINUOUS
 10
18.7718867826
 20
-29.8412223396
 11
14.8827994861
 21
-27.8966786913
  0
LINE
  5
2C2
100
AcDbEntity
  8
ASSI
100
AcDbLine
 62
7
  6
CONTINUOUS
 10
-13.0479183708
 20
-13.9313197629
 11
-16.9370056673
 21
-11.9867761146
  0
LINE
  5
2C3
100
AcDbEntity
  8
RACCORDO
100
AcDbLine
 62
7
  6
CONTINUOUS
 10
-5.3987907895
 20
-17.7429366832
 11
-3.8605001309
 21
-18.5120820125
  0
LINE
  5
2C4
100
AcDbEntity
  8
RACCORDO
100
AcDbLine
 62
7
  6
CONTINUOUS
 10
-5.2683289253
 20
-17.7362276844
 11
-3.7300382667
 21
-18.5053730137
  0
LINE
  5
2C5
100
AcDbEntity
  8
ASSI
100
AcDbLine
 62
7
  6
CONTINUOUS
 10
18.984018817
 20
-29.7351563224
 11
15.0949315205
 21
-27.7906126741
  0
LINE
  5
2C6
100
AcDbEntity
  8
ASSI
100
AcDbLine
 62
7
  6
CONTINUOUS
 10
-12.8357863364
 20
-13.8252537457
 11
-16.7248736329
 21
-11.8807100974
  0
LWPOLYLINE
  5
2C7
100
AcDbEntity
  8
RACCORDO
100
AcDbPolyline
 62
7
  6
CONTINUOUS
 90
19
 70
0
 10
-25.2455866798
 20
-7.9555214077
 10
-25.226799299
 20
-7.9656010688
 10
-25.2081825146
 20
-7.9775940087
 10
-25.1898779285
 20
-7.9914091637
 10
-25.1720248419
 20
-8.0069415548
 10
-25.1547590274
 20
-8.0240732069
 10
-25.1382117141
 20
-8.0426740885
 10
-25.1225087219
 20
-8.0626030344
 10
-25.1077697569
 20
-8.083708403
 10
-25.094107283
 20
-8.1058293152
 10
-25.0816253128
 20
-8.1287974993
 10
-25.0704188686
 20
-8.1524382505
 10
-25.0605734159
 20
-8.1765713094
 10
-25.0521639079
 20
-8.2010129155
 10
-25.0452542753
 20
-8.2255772318
 10
-25.0398970806
 20
-8.2500773499
 10
-25.0361330822
 20
-8.2743268532
 10
-25.0339909243
 20
-8.2981412351
 10
-25.0334869064
 20
-8.3213392981
  0
LWPOLYLINE
  5
2C8
100
AcDbEntity
  8
RACCORDO
100
AcDbPolyline
 62
7
  6
CONTINUOUS
 90
19
 70
0
 10
-3.8605001309
 20
-18.5120820125
 10
-3.8417095607
 20
-18.5221638798
 10
-3.823090108
 20
-18.534159358
 10
-3.8047834232
 20
-18.5479771893
 10
-3.7869287733
 20
-18.5635122565
 10
-3.7696619948
 20
-18.5806463708
 10
-3.7531144593
 20
-18.5992491679
 10
-3.7374120674
 20
-18.6191791015
 10
-3.7226742591
 20
-18.6402845665
 10
-3.7090131239
 20
-18.6624050464
 10
-3.6965325767
 20
-18.685372298
 10
-3.6853275936
 20
-18.7090115622
 10
-3.6754834488
 20
-18.7331429358
 10
-3.6670750384
 20
-18.7575828013
 10
-3.6601663114
 20
-18.7821452592
 10
-3.6548098155
 20
-18.8066434777
 10
-3.6510462996
 20
-18.8308910932
 10
-3.648904398
 20
-18.8547036286
 10
-3.6484004052
 20
-18.8778999265
  0
LWPOLYLINE
  5
2C9
100
AcDbEntity
  8
RACCORDO
100
AcDbPolyline
 62
7
  6
CONTINUOUS
 90
10
 70
0
 10
21.1543127799
 20
-37.5643731238
 10
21.1450709833
 20
-37.5591953703
 10
21.129680552
 20
-37.5477091906
 10
21.1159915573
 20
-37.5335266021
 10
21.1041506552
 20
-37.5167995732
 10
21.0942847061
 20
-37.4977073404
 10
21.0864994232
 20
-37.4764545373
 10
21.0808781945
 20
-37.4532689207
 10
21.0774812078
 20
-37.4283989105
 10
21.0763448275
 20
-37.4021109854
  0
LWPOLYLINE
  5
2CA
100
AcDbEntity
  8
RACCORDO
100
AcDbPolyline
 62
7
  6
CONTINUOUS
 90
8
 70
0
 10
19.7066936492
 20
-34.1320955144
 10
19.683500894
 20
-34.1190647571
 10
19.663490545
 20
-34.1047758609
 10
19.6469332012
 20
-34.0894220628
 10
19.6340527647
 20
-34.0732110008
 10
19.6250234113
 20
-34.0563619036
 10
19.6199672372
 20
-34.0391026251
 10
19.6188258109
 20
-34.026167676
  0
LWPOLYLINE
  5
2CB
100
AcDbEntity
  8
RACCORDO
100
AcDbPolyline
 62
7
  6
CONTINUOUS
 90
7
 70
0
 10
-27.0516810524
 20
-9.0231245435
 10
-27.0486372371
 20
-9.0251061074
 10
-27.045533424
 20
-9.0270342131
 10
-27.042369613
 20
-9.0289088607
 10
-27.0391458043
 20
-9.0307300501
 10
-27.0358619977
 20
-9.0324977814
 10
-27.0325181932
 20
-9.0342120546
  0
LWPOLYLINE
  5
2CC
100
AcDbEntity
  8
0
100
AcDbPolyline
 62
7
  6
CONTINUOUS
 90
16
 70
0
 10
-2.5326072566
 20
-24.0951503161
 10
-2.5121286778
 20
-24.1097225231
 10
-2.4927166335
 20
-24.1255935559
 10
-2.4743711237
 20
-24.1427634143
 10
-2.4569781765
 20
-24.1614093171
 10
-2.4406517638
 20
-24.1813540456
 10
-2.4257338009
 20
-24.202065944
 10
-2.4123483206
 20
-24.2233950471
 10
-2.4003712901
 20
-24.24549132
 10
-2.3897725269
 20
-24.2682730027
 10
-2.3804505814
 20
-24.2920528453
 10
-2.3725069031
 20
-24.3165180975
 10
-2.3662156586
 20
-24.3406487481
 10
-2.3616682364
 20
-24.3641047932
 10
-2.3587732479
 20
-24.3872262367
 10
-2.3575306931
 20
-24.4100130786
  0
LINE
  5
2CD
100
AcDbEntity
  8
ASSI
100
AcDbLine
 62
7
  6
CONTINUOUS
 10
-13.4014717613
 20
-14.1080964582
 11
-13.2954057442
 21
-14.1849672602
  0
LINE
  5
2CE
100
AcDbEntity
  8
ASSI
100
AcDbLine
 62
7
  6
CONTINUOUS
 10
-13.0479183708
 20
-13.9313197629
 11
-12.9418523536
 21
-14.0081905649
  0
LINE
  5
2CF
100
AcDbEntity
  8
ASSI
100
AcDbLine
 62
7
  6
CONTINUOUS
 10
-12.6943649802
 20
-13.7545430676
 11
-12.588298963
 21
-13.8314138696
  0
LINE
  5
2D0
100
AcDbEntity
  8
ASSI
100
AcDbLine
 62
7
  6
CONTINUOUS
 10
-12.3408115896
 20
-13.5777663723
 11
-12.2347455724
 21
-13.6546371743
  0
LWPOLYLINE
  5
2D1
100
AcDbEntity
  8
0
100
AcDbPolyline
 62
7
  6
CONTINUOUS
 90
13
 70
0
 10
-2.1675301555
 20
-23.8775648875
 10
-2.2172181981
 20
-23.8341317504
 10
-2.2696043572
 20
-23.7926817043
 10
-2.3246886329
 20
-23.7532147492
 10
-2.3825745654
 20
-23.7158463172
 10
-2.4431586145
 20
-23.6804609761
 10
-2.506130159
 20
-23.64671243
 10
-2.5714253279
 20
-23.6145563408
 10
-2.6391079923
 20
-23.5840370465
 10
-2.7090591446
 20
-23.5549412654
 10
-2.7812391157
 20
-23.5271979036
 10
-2.8556875746
 20
-23.5008780549
 10
-2.9324045215
 20
-23.4759817195
  0
LWPOLYLINE
  5
2D2
100
AcDbEntity
  8
0
100
AcDbPolyline
 62
7
  6
CONTINUOUS
 90
13
 70
0
 10
-2.3089515118
 20
-23.9482755656
 10
-2.3584904252
 20
-23.9049417882
 10
-2.4107901181
 20
-23.8635498052
 10
-2.4658505904
 20
-23.8240996167
 10
-2.5238072887
 20
-23.7866854799
 10
-2.5845247665
 20
-23.7512131375
 10
-2.647596684
 20
-23.717399818
 10
-2.7129184414
 20
-23.6852290948
 10
-2.7805946385
 20
-23.6547173945
 10
-2.8505327348
 20
-23.6256312239
 10
-2.9227018833
 20
-23.597892752
 10
-2.997132931
 20
-23.5715798099
 10
-3.0738258777
 20
-23.5466923976
  0
LINE
  5
2D3
100
AcDbEntity
  8
0
100
AcDbLine
 62
7
  6
CONTINUOUS
 10
-2.2611001368
 20
-24.9102634849
 11
-2.2769959192
 21
-24.8935018375
  0
LWPOLYLINE
  5
2D4
100
AcDbEntity
  8
RACCORDO
100
AcDbPolyline
 62
7
  6
CONTINUOUS
 90
15
 70
0
 10
-28.7306054445
 20
30.0536643096
 10
-28.7370325357
 20
30.0777575644
 10
-28.7412169358
 20
30.1005029034
 10
-28.7432586383
 20
30.1217573741
 10
-28.7433135292
 20
30.1413949695
 10
-28.7414403638
 20
30.1593088296
 10
-28.7375986004
 20
30.1754095647
 10
-28.7318786076
 20
30.18961393
 10
-28.7244177826
 20
30.2018764605
 10
-28.7152424851
 20
30.2121762075
 10
-28.7044609277
 20
30.2204695603
 10
-28.6921845091
 20
30.2267448681
 10
-28.6784352631
 20
30.2310106727
 10
-28.6633147626
 20
30.2332446833
 10
-28.6498027703
 20
30.2335490067
  0
LINE
  5
2D5
100
AcDbEntity
  8
DRAFT
100
AcDbLine
 62
7
  6
CONTINUOUS
 10
-26.3524928882
 20
4.8835284897
 11
-26.8663017753
 21
4.5982071996
  0
LINE
  5
2D6
100
AcDbEntity
  8
RACCORDO
100
AcDbLine
 62
7
  6
CONTINUOUS
 10
-25.9260102486
 20
5.2107460407
 11
-26.0341594086
 21
5.1523970877
  0
LINE
  5
2D7
100
AcDbEntity
  8
RACCORDO
100
AcDbLine
 62
7
  6
CONTINUOUS
 10
-25.8831084
 20
5.0768715835
 11
-26.8183925888
 21
4.6056233738
  0
LINE
  5
2D8
100
AcDbEntity
  8
RACCORDO
100
AcDbLine
 62
7
  6
CONTINUOUS
 10
-25.6710086744
 20
4.7110536695
 11
-26.6062928632
 21
4.2398054598
  0
LINE
  5
2D9
100
AcDbEntity
  8
RACCORDO
100
AcDbLine
 62
7
  6
CONTINUOUS
 10
-26.1746232376
 20
5.6586411667
 11
-25.5990637368
 21
5.9244536176
  0
LINE
  5
2DA
100
AcDbEntity
  8
RACCORDO
100
AcDbLine
 62
7
  6
CONTINUOUS
 10
-26.2557605821
 20
5.4948667879
 11
-25.6802010814
 21
5.7606792387
  0
LWPOLYLINE
  5
2DB
100
AcDbEntity
  8
RACCORDO
100
AcDbPolyline
 62
7
  6
CONTINUOUS
 90
8
 70
0
 10
-5.5189723482
 20
-17.72839889
 10
-5.5034675036
 20
-17.7240725399
 10
-5.4871945187
 20
-17.7218800226
 10
-5.4702771756
 20
-17.721838003
 10
-5.4528441555
 20
-17.7239467967
 10
-5.4350280748
 20
-17.7281903631
 10
-5.416964479
 20
-17.7345364181
 10
-5.3987907895
 20
-17.7429366832
  0
LWPOLYLINE
  5
2DC
100
AcDbEntity
  8
ASSI
100
AcDbPolyline
 62
7
  6
CONTINUOUS
 90
3
 70
0
 10
-15.8674803269
 20
-11.4377680702
 10
-15.8541802697
 20
-11.4422135329
 10
-15.8410682197
 20
-11.4477184077
  0
LWPOLYLINE
  5
2DD
100
AcDbEntity
  8
RACCORDO
100
AcDbPolyline
 62
7
  6
CONTINUOUS
 90
11
 70
0
 10
-25.060027536
 20
-7.928401107
 10
-25.0641940753
 20
-7.9264568888
 10
-25.0790841644
 20
-7.9214127852
 10
-25.095515399
 20
-7.9185224106
 10
-25.1134318863
 20
-7.9177431234
 10
-25.1327074111
 20
-7.9190507064
 10
-25.1532058397
 20
-7.9224153592
 10
-25.1748637086
 20
-7.9277920628
 10
-25.1975758977
 20
-7.9351392802
 10
-25.2211924781
 20
-7.9444041065
 10
-25.2455866814
 20
-7.9555214086
  0
LINE
  5
2DE
100
AcDbEntity
  8
ASSI
100
AcDbLine
 62
7
  6
CONTINUOUS
 10
15.9787369337
 20
-27.3576209844
 11
15.9869922825
 21
-27.3615730253
  0
LINE
  5
2DF
100
AcDbEntity
  8
ASSI
100
AcDbLine
 62
7
  6
CONTINUOUS
 10
-15.8410682197
 20
-11.4477184077
 11
-15.8328128709
 21
-11.4516704486
  0
LINE
  5
2E0
100
AcDbEntity
  8
ASSI
100
AcDbLine
 62
7
  6
CONTINUOUS
 10
19.1254401732
 20
-29.6644456443
 11
15.2363528767
 21
-27.719901996
  0
LINE
  5
2E1
100
AcDbEntity
  8
ASSI
100
AcDbLine
 62
7
  6
CONTINUOUS
 10
-12.6943649802
 20
-13.7545430676
 11
-16.5834522767
 21
-11.8099994193
  0
LINE
  5
2E2
100
AcDbEntity
  8
ASSI
100
AcDbLine
 62
7
  6
CONTINUOUS
 10
19.3375722076
 20
-29.5583796271
 11
15.4484849111
 21
-27.6138359788
  0
LINE
  5
2E3
100
AcDbEntity
  8
ASSI
100
AcDbLine
 62
7
  6
CONTINUOUS
 10
-12.4822329458
 20
-13.6484770504
 11
-16.3713202423
 21
-11.7039334021
  0
LINE
  5
2E4
100
AcDbEntity
  8
ASSI
100
AcDbLine
 62
7
  6
CONTINUOUS
 10
19.4789935638
 20
-29.487668949
 11
15.5899062673
 21
-27.5431253007
  0
LINE
  5
2E5
100
AcDbEntity
  8
ASSI
100
AcDbLine
 62
7
  6
CONTINUOUS
 10
-12.3408115896
 20
-13.5777663723
 11
-16.2298988861
 21
-11.633222724
  0
LINE
  5
2E6
100
AcDbEntity
  8
ASSI
100
AcDbLine
 62
7
  6
CONTINUOUS
 10
19.6188256835
 20
-29.3454529745
 11
15.8020383017
 21
-27.4370592835
  0
LINE
  5
2E7
100
AcDbEntity
  8
ASSI
100
AcDbLine
 62
7
  6
CONTINUOUS
 10
-12.1286795552
 20
-13.4717003551
 11
-16.0177668517
 21
-11.5271567068
  0
LINE
  5
2E8
100
AcDbEntity
  8
ASSI
100
AcDbLine
 62
7
  6
CONTINUOUS
 10
-15.9544677528
 20
-11.4412226934
 11
-15.9001832889
 21
-11.4683649254
  0
LINE
  5
2E9
100
AcDbEntity
  8
ASSI
100
AcDbLine
 62
7
  6
CONTINUOUS
 10
-11.8811921818
 20
-13.477860479
 11
-11.6970039073
 21
-13.5699546162
  0
LINE
  5
2EA
100
AcDbEntity
  8
ASSI
100
AcDbLine
 62
7
  6
CONTINUOUS
 10
15.8653374006
 20
-27.3511252701
 11
15.9196218645
 21
-27.3782675021
  0
LINE
  5
2EB
100
AcDbEntity
  8
ASSI
100
AcDbLine
 62
7
  6
CONTINUOUS
 10
19.6188256835
 20
-29.2040316182
 11
15.9434596579
 21
-27.3663486054
  0
LINE
  5
2EC
100
AcDbEntity
  8
ASSI
100
AcDbLine
 62
7
  6
CONTINUOUS
 10
-11.987258199
 20
-13.400989677
 11
-15.8763454955
 21
-11.4564460287
  0
LINE
  5
2ED
100
AcDbEntity
  8
ASSI
100
AcDbLine
 62
7
  6
CONTINUOUS
 10
-15.8327107967
 20
-11.4516994545
 11
-11.6398754252
 21
-13.5481171403
  0
LINE
  5
2EE
100
AcDbEntity
  8
ASSI
100
AcDbLine
 62
7
  6
CONTINUOUS
 10
15.9870943567
 20
-27.3616020312
 11
19.6188256835
 21
-29.1774676946
  0
LWPOLYLINE
  5
2EF
100
AcDbEntity
  8
RACCORDO
100
AcDbPolyline
 62
7
  6
CONTINUOUS
 90
14
 70
0
 10
-3.7300827387
 20
-18.5053507899
 10
-3.7165003926
 20
-18.5125802542
 10
-3.6945736236
 20
-18.5262620975
 10
-3.6738773518
 20
-18.5418037867
 10
-3.6545409489
 20
-18.5591269441
 10
-3.6367180031
 20
-18.578122865
 10
-3.620565635
 20
-18.5986550247
 10
-3.6062140365
 20
-18.6205932597
 10
-3.5937907463
 20
-18.6437874801
 10
-3.5834162146
 20
-18.6680643005
 10
-3.5751930955
 20
-18.6932421532
 10
-3.5692054627
 20
-18.7191407531
 10
-3.565526088
 20
-18.7455499507
 10
-3.5642023454
 20
-18.7736972518
  0
LWPOLYLINE
  5
2F0
100
AcDbEntity
  8
ASSI
100
AcDbPolyline
 62
7
  6
CONTINUOUS
 90
4
 70
0
 10
-11.639635837
 20
-13.5482369907
 10
-11.6392024755
 20
-13.5485196157
 10
-11.6386110429
 20
-13.549616419
 10
-11.6386008544
 20
-13.5499177814
  0
LINE
  5
2F1
100
AcDbEntity
  8
ASSI
100
AcDbLine
 62
7
  6
CONTINUOUS
 10
-11.987258199
 20
-13.400989677
 11
-11.8811921818
 21
-13.477860479
  0
LWPOLYLINE
  5
2F2
100
AcDbEntity
  8
0
100
AcDbPolyline
 62
7
  6
CONTINUOUS
 90
4
 70
0
 10
-2.087666551
 20
-24.8819600458
 10
-2.1030462915
 20
-24.8601712389
 10
-2.1190156289
 20
-24.8404482768
 10
-2.1329714852
 20
-24.8255668725
  0
LINE
  5
2F3
100
AcDbEntity
  8
DRAFT
100
AcDbLine
 62
7
  6
CONTINUOUS
 10
-12.9418523536
 20
-15.5926704986
 11
-12.9418523536
 21
-15.1720148109
  0
LINE
  5
2F4
100
AcDbEntity
  8
RACCORDO
100
AcDbLine
 62
7
  6
CONTINUOUS
 10
-12.538570696
 20
-15.3587431146
 11
-12.538570696
 21
-14.9208310258
  0
LINE
  5
2F5
100
AcDbEntity
  8
ASSI
100
AcDbLine
 62
7
  6
CONTINUOUS
 10
-11.6899903775
 20
-13.5662973308
 11
-11.6899903775
 21
-14.0784234657
  0
LINE
  5
2F6
100
AcDbEntity
  8
ASSI
100
AcDbLine
 62
7
  6
CONTINUOUS
 10
-11.6386193425
 20
-13.5503908759
 11
-11.6386193425
 21
-14.0610741562
  0
LINE
  5
2F7
100
AcDbEntity
  8
ASSI
100
AcDbLine
 62
7
  6
CONTINUOUS
 10
-17.8808849783
 20
-12.5754966309
 11
-17.7855338047
 21
-12.4110401833
  0
LINE
  5
2F8
100
AcDbEntity
  8
RACCORDO
100
AcDbLine
 62
7
  6
CONTINUOUS
 10
-28.7306053894
 20
-9.7381505846
 11
-27.221630463
 21
-8.6380244324
  0
LINE
  5
2F9
100
AcDbEntity
  8
DRAFT
100
AcDbLine
 62
7
  6
CONTINUOUS
 10
-26.3524928882
 20
-1.6116620387
 11
-26.8663017753
 21
-1.8969833288
  0
LINE
  5
2FA
100
AcDbEntity
  8
RACCORDO
100
AcDbLine
 62
7
  6
CONTINUOUS
 10
-26.3524928882
 20
-1.8280260454
 11
-25.8111634624
 21
-1.5552741634
  0
LINE
  5
2FB
100
AcDbEntity
  8
RACCORDO
100
AcDbLine
 62
7
  6
CONTINUOUS
 10
-26.1746232376
 20
-2.2110909757
 11
-25.5990637368
 21
-1.9210920774
  0
LINE
  5
2FC
100
AcDbEntity
  8
RACCORDO
100
AcDbLine
 62
7
  6
CONTINUOUS
 10
-26.6062928632
 20
-1.2091137805
 11
-25.6710086744
 21
-0.7771685479
  0
LINE
  5
2FD
100
AcDbEntity
  8
RACCORDO
100
AcDbLine
 62
7
  6
CONTINUOUS
 10
-26.6874302077
 20
-1.3728881594
 11
-25.7521460189
 21
-0.9409429268
  0
LWPOLYLINE
  5
2FE
100
AcDbEntity
  8
ASSI
100
AcDbPolyline
 62
7
  6
CONTINUOUS
 90
4
 70
0
 10
-15.9077333988
 20
-11.4312871989
 10
-15.8943198598
 20
-11.4321187701
 10
-15.8808927744
 20
-11.4343841627
 10
-15.8674803269
 20
-11.4377680702
  0
LINE
  5
2FF
100
AcDbEntity
  8
DRAFT
100
AcDbLine
 62
7
  6
CONTINUOUS
 10
-26.8663017753
 20
-1.3547575951
 11
-26.3524928882
 21
-1.6116620387
  0
LINE
  5
300
100
AcDbEntity
  8
RACCORDO
100
AcDbLine
 62
7
  6
CONTINUOUS
 10
-26.8183925888
 20
-1.3628319689
 11
-26.8663017753
 21
-1.3388773756
  0
LINE
  5
301
100
AcDbEntity
  8
RACCORDO
100
AcDbLine
 62
7
  6
CONTINUOUS
 10
-25.8111634624
 20
-1.5552741634
 11
-26.4215344319
 21
-1.2500886787
  0
LINE
  5
302
100
AcDbEntity
  8
ASSI
100
AcDbLine
 62
7
  6
CONTINUOUS
 10
18.418333392
 20
-30.0179990349
 11
18.5243994092
 21
-30.0948698369
  0
LINE
  5
303
100
AcDbEntity
  8
ASSI
100
AcDbLine
 62
7
  6
CONTINUOUS
 10
18.7718867826
 20
-29.8412223396
 11
18.8779527998
 21
-29.9180931416
  0
LINE
  5
304
100
AcDbEntity
  8
ASSI
100
AcDbLine
 62
7
  6
CONTINUOUS
 10
19.1254401732
 20
-29.6644456443
 11
19.2315061904
 21
-29.7413164463
  0
LINE
  5
305
100
AcDbEntity
  8
ASSI
100
AcDbLine
 62
7
  6
CONTINUOUS
 10
19.4789935638
 20
-29.487668949
 11
19.585059581
 21
-29.564539751
  0
LINE
  5
306
100
AcDbEntity
  8
0
100
AcDbLine
 62
7
  6
CONTINUOUS
 10
-5.5770842046
 20
-22.9048708327
 11
-5.213492019
 21
-24.2741133277
  0
LINE
  5
307
100
AcDbEntity
  8
0
100
AcDbLine
 62
7
  6
CONTINUOUS
 10
-5.1900655714
 20
-23.4769631545
 11
-5.4967278829
 21
-22.3139953343
  0
LINE
  5
308
100
AcDbEntity
  8
0
100
AcDbLine
 62
7
  6
CONTINUOUS
 10
-5.0973880797
 20
-23.221399158
 11
-5.3553065267
 21
-22.2432846562
  0
LINE
  5
309
100
AcDbEntity
  8
0
100
AcDbLine
 62
7
  6
CONTINUOUS
 10
-7.7533941212
 20
-21.1856622152
 11
-7.2826837436
 21
-23.2395174654
  0
LINE
  5
30A
100
AcDbEntity
  8
0
100
AcDbLine
 62
7
  6
CONTINUOUS
 10
-7.13367796
 20
-22.7472500317
 11
-7.4167080558
 21
-21.3540052479
  0
LINE
  5
30B
100
AcDbEntity
  8
0
100
AcDbLine
 62
7
  6
CONTINUOUS
 10
-7.045674622
 20
-22.4135836597
 11
-7.2752866996
 21
-21.2832945698
  0
LINE
  5
30C
100
AcDbEntity
  8
0
100
AcDbLine
 62
7
  6
CONTINUOUS
 10
-4.4346329915
 20
-24.6635428415
 11
-4.5734783577
 21
-22.775620097
  0
LINE
  5
30D
100
AcDbEntity
  8
0
100
AcDbLine
 62
7
  6
CONTINUOUS
 10
-4.30619526
 20
-24.416289862
 11
-4.4320570014
 21
-22.7049094188
  0
LINE
  5
30E
100
AcDbEntity
  8
0
100
AcDbLine
 62
7
  6
CONTINUOUS
 10
-4.801509688
 20
-23.2976082922
 11
-4.7378326011
 21
-24.5119430367
  0
LINE
  5
30F
100
AcDbEntity
  8
RACCORDO
100
AcDbLine
 62
7
  6
CONTINUOUS
 10
-7.1657934184
 20
-18.0600442785
 11
-7.1657934184
 21
-17.6794419956
  0
LINE
  5
310
100
AcDbEntity
  8
0
100
AcDbLine
 62
7
  6
CONTINUOUS
 10
-6.4172607038
 20
-21.8536198047
 11
-6.4172607038
 21
-23.6722289853
  0
LINE
  5
311
100
AcDbEntity
  8
0
100
AcDbLine
 62
7
  6
CONTINUOUS
 10
-6.1073244879
 20
-23.8271970933
 11
-6.1073244879
 21
-22.0085879126
  0
LINE
  5
312
100
AcDbEntity
  8
0
100
AcDbLine
 62
7
  6
CONTINUOUS
 10
-5.9659031317
 20
-23.7564864152
 11
-5.9659031317
 21
-21.9378772345
  0
LINE
  5
313
100
AcDbEntity
  8
ASSI
100
AcDbLine
 62
7
  6
CONTINUOUS
 10
-12.1893686263
 20
-14.438087736
 11
-12.1837323763
 21
-14.4151436325
  0
LINE
  5
314
100
AcDbEntity
  8
ASSI
100
AcDbLine
 62
7
  6
CONTINUOUS
 10
-17.5273315877
 20
-12.3987199356
 11
-17.4319804141
 21
-12.234263488
  0
LINE
  5
315
100
AcDbEntity
  8
ASSI
100
AcDbLine
 62
7
  6
CONTINUOUS
 10
-17.1737781971
 20
-12.2219432403
 11
-17.0784270235
 21
-12.0574867927
  0
LINE
  5
316
100
AcDbEntity
  8
ASSI
100
AcDbLine
 62
7
  6
CONTINUOUS
 10
-16.8202248065
 20
-12.045166545
 11
-16.7248736329
 21
-11.8807100974
  0
LINE
  5
317
100
AcDbEntity
  8
ASSI
100
AcDbLine
 62
7
  6
CONTINUOUS
 10
-16.4666714159
 20
-11.8683898497
 11
-16.3713202423
 21
-11.7039334021
  0
LINE
  5
318
100
AcDbEntity
  8
ASSI
100
AcDbLine
 62
7
  6
CONTINUOUS
 10
-16.1131180253
 20
-11.6916131544
 11
-16.0177668517
 21
-11.5271567068
  0
LINE
  5
319
100
AcDbEntity
  8
RACCORDO
100
AcDbLine
 62
7
  6
CONTINUOUS
 10
-28.5700237633
 20
-10.1301407677
 11
-27.0516810524
 21
-9.0231245435
  0
LWPOLYLINE
  5
31A
100
AcDbEntity
  8
RACCORDO
100
AcDbPolyline
 62
7
  6
CONTINUOUS
 90
10
 70
0
 10
-27.1612600954
 20
-8.6054218978
 10
-27.1675680722
 20
-8.6092712574
 10
-27.1739808573
 20
-8.6130664722
 10
-27.1804964795
 20
-8.6168063725
 10
-27.1871129357
 20
-8.6204898054
 10
-27.193828192
 20
-8.6241156356
 10
-27.2006401839
 20
-8.6276827453
 10
-27.2075468174
 20
-8.6311900349
 10
-27.2145459693
 20
-8.6346364233
 10
-27.2216354878
 20
-8.6380208478
  0
LWPOLYLINE
  5
31B
100
AcDbEntity
  8
RACCORDO
100
AcDbPolyline
 62
7
  6
CONTINUOUS
 90
10
 70
0
 10
-26.9177661694
 20
-8.9507881313
 10
-26.9307840219
 20
-8.9578692973
 10
-26.9437758272
 20
-8.9655243717
 10
-26.9567239493
 20
-8.973742963
 10
-26.9696108116
 20
-8.982513915
 10
-26.9824189208
 20
-8.9918253213
 10
-26.9951308903
 20
-9.001664542
 10
-27.0077294641
 20
-9.0120182209
 10
-27.02019754
 20
-9.022872303
 10
-27.0325181932
 20
-9.0342120546
  0
LWPOLYLINE
  5
31C
100
AcDbEntity
  8
RACCORDO
100
AcDbPolyline
 62
7
  6
CONTINUOUS
 90
12
 70
0
 10
-25.0334869558
 20
-8.3213393225
 10
-25.0098765242
 20
-8.3088656574
 10
-24.9881099769
 20
-8.2964060638
 10
-24.9683155268
 20
-8.284023209
 10
-24.9506236721
 20
-8.2718016045
 10
-24.9351320453
 20
-8.2597977526
 10
-24.9219191111
 20
-8.2480363737
 10
-24.911088411
 20
-8.2366084115
 10
-24.902735062
 20
-8.2255856946
 10
-24.8969342549
 20
-8.2149669518
 10
-24.8937680286
 20
-8.2048531424
 10
-24.8931569359
 20
-8.1984932798
  0
LINE
  5
31D
100
AcDbEntity
  8
RACCORDO
100
AcDbLine
 62
7
  6
CONTINUOUS
 10
-27.1617473594
 20
-8.6010338729
 11
-26.8663017753
 21
-8.4521719502
  0
LINE
  5
31E
100
AcDbEntity
  8
RACCORDO
100
AcDbLine
 62
7
  6
CONTINUOUS
 10
30.5452146894
 20
23.8813492827
 11
34.0453932563
 21
25.6314385661
  0
LINE
  5
31F
100
AcDbEntity
  8
RACCORDO
100
AcDbLine
 62
7
  6
CONTINUOUS
 10
31.2523214706
 20
22.6617704883
 11
34.7525000375
 21
24.4118597717
  0
LINE
  5
320
100
AcDbEntity
  8
RACCORDO
100
AcDbLine
 62
7
  6
CONTINUOUS
 10
-26.8183925888
 20
4.6056233738
 11
-26.8365750801
 21
4.6147146194
  0
LINE
  5
321
100
AcDbEntity
  8
RACCORDO
100
AcDbLine
 62
7
  6
CONTINUOUS
 10
-25.8831084
 20
5.0768715835
 11
-26.3524928882
 21
5.3115638275
  0
LWPOLYLINE
  5
322
100
AcDbEntity
  8
0
100
AcDbPolyline
 62
7
  6
CONTINUOUS
 90
6
 70
0
 10
-2.4260403659
 20
-25.1164105829
 10
-2.4102796953
 20
-25.1808063268
 10
-2.3948629648
 20
-25.2462925721
 10
-2.3797901743
 20
-25.3128693187
 10
-2.365285885
 20
-25.3805227576
 10
-2.3366354431
 20
-25.5191425666
  0
LINE
  5
323
100
AcDbEntity
  8
0
100
AcDbLine
 62
7
  6
CONTINUOUS
 10
-3.164838211
 20
-25.2984402318
 11
-3.6204115537
 21
-23.2521534989
  0
LINE
  5
324
100
AcDbEntity
  8
0
100
AcDbLine
 62
7
  6
CONTINUOUS
 10
-3.0738258777
 20
-25.0013086785
 11
-3.4789901975
 21
-23.1814428208
  0
LINE
  5
325
100
AcDbEntity
  8
0
100
AcDbLine
 62
7
  6
CONTINUOUS
 10
-2.3366354431
 20
-25.5191425666
 11
-2.2905130235
 21
-25.7356031699
  0
LINE
  5
326
100
AcDbEntity
  8
0
100
AcDbLine
 62
7
  6
CONTINUOUS
 10
-3.5717873559
 20
-24.731928676
 11
-3.4914975022
 21
-25.1351105861
  0
LINE
  5
327
100
AcDbEntity
  8
0
100
AcDbLine
 62
7
  6
CONTINUOUS
 10
-2.0619645856
 20
-25.5246970741
 11
-2.0983452285
 21
-25.3394961567
  0
LINE
  5
328
100
AcDbEntity
  8
0
100
AcDbLine
 62
7
  6
CONTINUOUS
 10
-1.9205699681
 20
-25.4538482476
 11
-1.9569238722
 21
-25.2687854786
  0
LINE
  5
329
100
AcDbEntity
  8
0
100
AcDbLine
 62
7
  6
CONTINUOUS
 10
-1.9923907272
 20
-25.8846643181
 11
-2.0619645856
 21
-25.5246970741
  0
LINE
  5
32A
100
AcDbEntity
  8
0
100
AcDbLine
 62
7
  6
CONTINUOUS
 10
-1.8509693709
 20
-25.81395364
 11
-1.9205699681
 21
-25.4538482476
  0
LINE
  5
32B
100
AcDbEntity
  8
0
100
AcDbLine
 62
7
  6
CONTINUOUS
 10
-3.7761475796
 20
-23.6739630914
 11
-3.6337277886
 21
-24.4200414693
  0
LWPOLYLINE
  5
32C
100
AcDbEntity
  8
0
100
AcDbPolyline
 62
7
  6
CONTINUOUS
 90
13
 70
0
 10
-1.9569238722
 20
-25.2687854786
 10
-1.964140627
 20
-25.2304176747
 10
-1.9719613158
 20
-25.1929664245
 10
-1.9803859384
 20
-25.156431728
 10
-1.9893608422
 20
-25.1206932016
 10
-1.99893968
 20
-25.085871229
 10
-2.0092834098
 20
-25.0523269609
 10
-2.0204480506
 20
-25.0200569073
 10
-2.0323775835
 20
-24.9890645583
 10
-2.0450649098
 20
-24.9597215354
 10
-2.058563729
 20
-24.9320128732
 10
-2.0728203416
 20
-24.9059535371
 10
-2.087666551
 20
-24.8819600458
  0
LWPOLYLINE
  5
32D
100
AcDbEntity
  8
0
100
AcDbPolyline
 62
7
  6
CONTINUOUS
 90
15
 70
0
 10
-2.0983452285
 20
-25.3394961567
 10
-2.1052710907
 20
-25.3023535752
 10
-2.112926025
 20
-25.2656105959
 10
-2.1213100313
 20
-25.229267219
 10
-2.1303893344
 20
-25.1930307925
 10
-2.1401977095
 20
-25.1571939683
 10
-2.1508364821
 20
-25.1226347018
 10
-2.1624045566
 20
-25.0894008762
 10
-2.1748030286
 20
-25.0574446082
 10
-2.1878365106
 20
-25.0275002036
 10
-2.201513426
 20
-24.9997401969
 10
-2.2158253514
 20
-24.9739920537
 10
-2.2305516292
 20
-24.9504724759
 10
-2.2456187068
 20
-24.9292536977
 10
-2.2611001368
 20
-24.9102634849
  0
LINE
  5
32E
100
AcDbEntity
  8
RACCORDO
100
AcDbLine
 62
7
  6
CONTINUOUS
 10
-3.7141088591
 20
-19.7858865582
 11
-3.7141088591
 21
-19.3331410902
  0
LINE
  5
32F
100
AcDbEntity
  8
RACCORDO
100
AcDbLine
 62
7
  6
CONTINUOUS
 10
-3.6484004052
 20
-18.8778999265
 11
-3.6484004052
 21
-19.8187407851
  0
LINE
  5
330
100
AcDbEntity
  8
RACCORDO
100
AcDbLine
 62
7
  6
CONTINUOUS
 10
-3.5642023453
 20
-18.773701171
 11
-3.5642023453
 21
-19.860839815
  0
LINE
  5
331
100
AcDbEntity
  8
0
100
AcDbLine
 62
7
  6
CONTINUOUS
 10
-3.0738258777
 20
-23.5466923976
 11
-3.0738258777
 21
-25.3439467428
  0
LINE
  5
332
100
AcDbEntity
  8
0
100
AcDbLine
 62
7
  6
CONTINUOUS
 10
-2.7754140882
 20
-24.483665575
 11
-2.7754140882
 21
-23.9844517424
  0
LINE
  5
333
100
AcDbEntity
  8
0
100
AcDbLine
 62
7
  6
CONTINUOUS
 10
-2.7651370805
 20
-25.4982911414
 11
-2.7651370805
 21
-24.7866305131
  0
LINE
  5
334
100
AcDbEntity
  8
0
100
AcDbLine
 62
7
  6
CONTINUOUS
 10
-2.6339927319
 20
-24.4129548969
 11
-2.6339927319
 21
-24.0381772155
  0
LINE
  5
335
100
AcDbEntity
  8
0
100
AcDbLine
 62
7
  6
CONTINUOUS
 10
-2.6237157243
 20
-25.4275804633
 11
-2.6237157243
 21
-24.8573411912
  0
LINE
  5
336
100
AcDbEntity
  8
0
100
AcDbLine
 62
7
  6
CONTINUOUS
 10
-2.2769959192
 20
-24.8935018375
 11
-2.2769959192
 21
-24.8827560852
  0
LWPOLYLINE
  5
337
100
AcDbEntity
  8
0
100
AcDbPolyline
 62
7
  6
CONTINUOUS
 90
11
 70
0
 10
-2.3575306931
 20
-24.4100130786
 10
-2.3586331983
 20
-24.4396241042
 10
-2.3614248793
 20
-24.4669508461
 10
-2.3659057361
 20
-24.4919933044
 10
-2.3722669488
 20
-24.5149011509
 10
-2.3803173373
 20
-24.5355247138
 10
-2.3894833614
 20
-24.553414977
 10
-2.3995192774
 20
-24.5683326157
 10
-2.410670829
 20
-24.5805169547
 10
-2.4231017066
 20
-24.5902369517
 10
-2.4317806896
 20
-24.5952400429
  0
LINE
  5
338
100
AcDbEntity
  8
0
100
AcDbLine
 62
7
  6
CONTINUOUS
 10
-5.6439687279
 20
-24.0588749733
 11
-5.5770842046
 21
-22.9048708327
  0
LINE
  5
339
100
AcDbEntity
  8
0
100
AcDbLine
 62
7
  6
CONTINUOUS
 10
-5.5025473717
 20
-23.9881642952
 11
-5.4643640158
 21
-23.3293609034
  0
LINE
  5
33A
100
AcDbEntity
  8
0
100
AcDbLine
 62
7
  6
CONTINUOUS
 10
-5.806407419
 20
-22.1591555663
 11
-5.940476279
 21
-23.9106211978
  0
LWPOLYLINE
  5
33B
100
AcDbEntity
  8
RACCORDO
100
AcDbPolyline
 62
7
  6
CONTINUOUS
 90
10
 70
0
 10
-3.5642023453
 20
-18.7737005677
 10
-3.5651643834
 20
-18.7857042676
 10
-3.5683636612
 20
-18.7985983242
 10
-3.5737732859
 20
-18.8112876094
 10
-3.5813436034
 20
-18.8236784961
 10
-3.5910088498
 20
-18.8356796228
 10
-3.6026630999
 20
-18.8471811395
 10
-3.6161903329
 20
-18.8580961378
 10
-3.6314792271
 20
-18.8683583818
 10
-3.6484004052
 20
-18.8778999265
  0
LINE
  5
33C
100
AcDbEntity
  8
0
100
AcDbLine
 62
7
  6
CONTINUOUS
 10
-6.8420027767
 20
-21.6413578874
 11
-7.13367796
 21
-22.7472500317
  0
LINE
  5
33D
100
AcDbEntity
  8
ASSI
100
AcDbLine
 62
7
  6
CONTINUOUS
 10
-13.2954057442
 20
-14.1849672602
 11
-13.189339727
 21
-14.002030441
  0
LINE
  5
33E
100
AcDbEntity
  8
ASSI
100
AcDbLine
 62
7
  6
CONTINUOUS
 10
-12.9418523536
 20
-14.0081905649
 11
-12.8357863364
 21
-13.8252537457
  0
LINE
  5
33F
100
AcDbEntity
  8
ASSI
100
AcDbLine
 62
7
  6
CONTINUOUS
 10
-12.588298963
 20
-13.8314138696
 11
-12.4822329458
 21
-13.6484770504
  0
LINE
  5
340
100
AcDbEntity
  8
ASSI
100
AcDbLine
 62
7
  6
CONTINUOUS
 10
-12.2347455724
 20
-13.6546371743
 11
-12.1286795552
 21
-13.4717003551
  0
LINE
  5
341
100
AcDbEntity
  8
ASSI
100
AcDbLine
 62
7
  6
CONTINUOUS
 10
-12.4380565616
 20
-14.7507145669
 11
-12.1893686263
 21
-14.438087736
  0
LINE
  5
342
100
AcDbEntity
  8
RACCORDO
100
AcDbLine
 62
7
  6
CONTINUOUS
 10
-26.1746232376
 20
-8.4208153525
 11
-25.5990637368
 21
-8.1308164542
  0
LINE
  5
343
100
AcDbEntity
  8
RACCORDO
100
AcDbLine
 62
7
  6
CONTINUOUS
 10
-26.9177661694
 20
-8.9507881313
 11
-26.6542020497
 21
-8.8179898642
  0
LINE
  5
344
100
AcDbEntity
  8
RACCORDO
100
AcDbLine
 62
7
  6
CONTINUOUS
 10
-25.2455866814
 20
-7.9555214086
 11
-25.5990314281
 21
-8.1308326085
  0
LINE
  5
345
100
AcDbEntity
  8
RACCORDO
100
AcDbLine
 62
7
  6
CONTINUOUS
 10
-25.0334869558
 20
-8.3213393225
 11
-25.1261223365
 21
-8.3672871543
  0
LINE
  5
346
100
AcDbEntity
  8
RACCORDO
100
AcDbLine
 62
7
  6
CONTINUOUS
 10
-26.8641001573
 20
-8.4566874395
 11
-26.3524928882
 21
-8.2072429798
  0
LINE
  5
347
100
AcDbEntity
  8
RACCORDO
100
AcDbLine
 62
7
  6
CONTINUOUS
 10
-26.6522256329
 20
-8.8220434687
 11
-26.1406515734
 21
-8.572615201
  0
LWPOLYLINE
  5
348
100
AcDbEntity
  8
RACCORDO
100
AcDbPolyline
 62
7
  6
CONTINUOUS
 90
10
 70
0
 10
-27.1617473594
 20
-8.6010338729
 10
-27.1680773635
 20
-8.6040373294
 10
-27.1745112395
 20
-8.6069850963
 10
-27.1810470274
 20
-8.6098762756
 10
-27.1876827366
 20
-8.6127099866
 10
-27.1944163457
 20
-8.6154853661
 10
-27.2012458037
 20
-8.6182015688
 10
-27.2081690305
 20
-8.6208577673
 10
-27.215183917
 20
-8.6234531526
 10
-27.2222883265
 20
-8.6259869339
  0
LWPOLYLINE
  5
349
100
AcDbEntity
  8
RACCORDO
100
AcDbPolyline
 62
7
  6
CONTINUOUS
 90
10
 70
0
 10
-26.9244906455
 20
-8.9464219298
 10
-26.9388426418
 20
-8.9527675584
 10
-26.9531835799
 20
-8.9596831802
 10
-26.9674938488
 20
-8.9671593364
 10
-26.9817538798
 20
-8.9751858016
 10
-26.9959441724
 20
-8.983751598
 10
-27.0100453216
 20
-8.9928450103
 10
-27.0240380442
 20
-9.0024536015
 10
-27.0379032051
 20
-9.0125642305
 10
-27.0516218435
 20
-9.0231630694
  0
LINE
  5
34A
100
AcDbEntity
  8
DRAFT
100
AcDbLine
 62
7
  6
CONTINUOUS
 10
2.9680502231
 20
-23.5476217869
 11
2.9680502231
 21
-23.1269660993
  0
LINE
  5
34B
100
AcDbEntity
  8
RACCORDO
100
AcDbLine
 62
7
  6
CONTINUOUS
 10
3.3713318807
 20
-23.313694403
 11
3.3713318807
 21
-22.8757823141
  0
LINE
  5
34C
100
AcDbEntity
  8
0
100
AcDbLine
 62
7
  6
CONTINUOUS
 10
-3.930469392
 20
-24.2716706677
 11
-3.7761475796
 21
-23.6739630914
  0
LINE
  5
34D
100
AcDbEntity
  8
0
100
AcDbLine
 62
7
  6
CONTINUOUS
 10
-3.7890480358
 20
-24.2009599895
 11
-3.7237938737
 21
-23.9482225025
  0
LINE
  5
34E
100
AcDbEntity
  8
0
100
AcDbLine
 62
7
  6
CONTINUOUS
 10
-4.079391737
 20
-24.8411634688
 11
-3.993868586
 21
-24.520888061
  0
LINE
  5
34F
100
AcDbEntity
  8
0
100
AcDbLine
 62
7
  6
CONTINUOUS
 10
-3.9379703807
 20
-24.7704527906
 11
-3.8857628438
 21
-24.5749409321
  0
LINE
  5
350
100
AcDbEntity
  8
0
100
AcDbLine
 62
7
  6
CONTINUOUS
 10
-3.9202368498
 20
-23.1022408509
 11
-4.385964953
 21
-24.6878768607
  0
LINE
  5
351
100
AcDbEntity
  8
0
100
AcDbLine
 62
7
  6
CONTINUOUS
 10
-7.0095524356
 20
-23.3760831194
 11
-6.5322779858
 21
-21.7962202829
  0
LINE
  5
352
100
AcDbEntity
  8
0
100
AcDbLine
 62
7
  6
CONTINUOUS
 10
-6.8681310794
 20
-23.3053724413
 11
-6.3908566295
 21
-21.7255096048
  0
LINE
  5
353
100
AcDbEntity
  8
0
100
AcDbLine
 62
7
  6
CONTINUOUS
 10
-4.8801293555
 20
-22.6222945981
 11
-5.1900655714
 21
-23.4769631545
  0
LINE
  5
354
100
AcDbEntity
  8
0
100
AcDbLine
 62
7
  6
CONTINUOUS
 10
-5.1700240439
 20
-24.2958473153
 11
-4.801509688
 21
-23.2976082922
  0
LINE
  5
355
100
AcDbEntity
  8
0
100
AcDbLine
 62
7
  6
CONTINUOUS
 10
-5.0286026876
 20
-24.2251366372
 11
-4.7871667875
 21
-23.5711302647
  0
LINE
  5
356
100
AcDbEntity
  8
ASSI
100
AcDbLine
 62
7
  6
CONTINUOUS
 10
-11.9519028599
 20
-14.297012998
 11
-11.6971979863
 21
-14.1124169472
  0
LWPOLYLINE
  5
357
100
AcDbEntity
  8
RACCORDO
100
AcDbPolyline
 62
7
  6
CONTINUOUS
 90
16
 70
0
 10
21.2847746464
 20
7.9240661317
 10
21.2628693542
 20
7.9112531385
 10
21.2412384318
 20
7.8958139977
 10
21.220113642
 20
7.8779141308
 10
21.1997213249
 20
7.8577453245
 10
21.1802799724
 20
7.8355236761
 10
21.1619978872
 20
7.8114872776
 10
21.1450709401
 20
7.7858936471
 10
21.129680507
 20
7.759017022
 10
21.1159915143
 20
7.7311454289
 10
21.1041506174
 20
7.7025774931
 10
21.0942846757
 20
7.673619312
 10
21.0864994023
 20
7.6445812359
 10
21.0808781833
 20
7.6157744105
 10
21.0774812043
 20
7.5875074414
 10
21.0763448275
 20
7.5600831701
  0
LINE
  5
358
100
AcDbEntity
  8
RACCORDO
100
AcDbLine
 62
7
  6
CONTINUOUS
 10
-20.5786055904
 20
-11.2188241761
 11
-20.0129201654
 21
-10.9238882399
  0
LINE
  5
359
100
AcDbEntity
  8
RACCORDO
100
AcDbLine
 62
7
  6
CONTINUOUS
 10
-20.2440573884
 20
-11.5209122935
 11
-19.8007881311
 21
-11.2898014542
  0
LINE
  5
35A
100
AcDbEntity
  8
RACCORDO
100
AcDbLine
 62
7
  6
CONTINUOUS
 10
21.2847746474
 20
7.9240661312
 11
22.9792475178
 21
8.7778358369
  0
LINE
  5
35B
100
AcDbEntity
  8
RACCORDO
100
AcDbLine
 62
7
  6
CONTINUOUS
 10
21.7796740071
 20
7.0704909986
 11
23.4741468775
 21
7.9242607043
  0
LINE
  5
35C
100
AcDbEntity
  8
ASSI
100
AcDbLine
 62
7
  6
CONTINUOUS
 10
-18.1246677067
 20
-12.5806071343
 11
-17.9976658391
 21
-12.5171062005
  0
LINE
  5
35D
100
AcDbEntity
  8
ASSI
100
AcDbLine
 62
7
  6
CONTINUOUS
 10
-17.7855338047
 20
-12.4110401833
 11
-17.6441124485
 21
-12.3403295052
  0
LINE
  5
35E
100
AcDbEntity
  8
ASSI
100
AcDbLine
 62
7
  6
CONTINUOUS
 10
-17.4319804141
 20
-12.234263488
 11
-17.2905590579
 21
-12.1635528099
  0
LINE
  5
35F
100
AcDbEntity
  8
ASSI
100
AcDbLine
 62
7
  6
CONTINUOUS
 10
-17.0784270235
 20
-12.0574867927
 11
-16.9370056673
 21
-11.9867761146
  0
LINE
  5
360
100
AcDbEntity
  8
ASSI
100
AcDbLine
 62
7
  6
CONTINUOUS
 10
-16.7248736329
 20
-11.8807100974
 11
-16.5834522767
 21
-11.8099994193
  0
LINE
  5
361
100
AcDbEntity
  8
ASSI
100
AcDbLine
 62
7
  6
CONTINUOUS
 10
-16.3713202423
 20
-11.7039334021
 11
-16.2298988861
 21
-11.633222724
  0
LINE
  5
362
100
AcDbEntity
  8
ASSI
100
AcDbLine
 62
7
  6
CONTINUOUS
 10
-16.0177668517
 20
-11.5271567068
 11
-15.8763454955
 21
-11.4564460287
  0
LINE
  5
363
100
AcDbEntity
  8
0
100
AcDbLine
 62
7
  6
CONTINUOUS
 10
-15.9544677528
 20
-11.4412226934
 11
-18.2955324591
 21
-12.4951747582
  0
LWPOLYLINE
  5
364
100
AcDbEntity
  8
RACCORDO
100
AcDbPolyline
 62
7
  6
CONTINUOUS
 90
16
 70
0
 10
21.7796740071
 20
7.0704909969
 10
21.7562497566
 20
7.0602978382
 10
21.7308436256
 20
7.0513699893
 10
21.703727826
 20
7.0438031068
 10
21.6751928877
 20
7.0376782654
 10
21.6455445461
 20
7.0330610893
 10
21.6151004656
 20
7.0300010486
 10
21.584186817
 20
7.0285309295
 10
21.5531348418
 20
7.0286664859
 10
21.522277303
 20
7.0304062605
 10
21.4919448107
 20
7.0337316046
 10
21.4624623619
 20
7.0386068799
 10
21.4341459094
 20
7.0449798233
 10
21.407298847
 20
7.0527821258
 10
21.3822087682
 20
7.0619301785
 10
21.3591444616
 20
7.0723259514
  0
LINE
  5
365
100
AcDbEntity
  8
DRAFT
100
AcDbLine
 62
7
  6
CONTINUOUS
 10
-26.8663017753
 20
17.6978012882
 11
-26.3524928882
 21
17.4408968446
  0
LINE
  5
366
100
AcDbEntity
  8
RACCORDO
100
AcDbLine
 62
7
  6
CONTINUOUS
 10
-26.8183925888
 20
17.6897269144
 11
-26.8663017753
 21
17.7136815076
  0
LINE
  5
367
100
AcDbEntity
  8
RACCORDO
100
AcDbLine
 62
7
  6
CONTINUOUS
 10
-25.8111634624
 20
17.4972847199
 11
-26.4215344319
 21
17.8024702046
  0
LINE
  5
368
100
AcDbEntity
  8
RACCORDO
100
AcDbLine
 62
7
  6
CONTINUOUS
 10
8.7441091583
 20
-26.0149955668
 11
8.7441091583
 21
-25.634393284
  0
LINE
  5
369
100
AcDbEntity
  8
0
100
AcDbLine
 62
7
  6
CONTINUOUS
 10
-11.6970039073
 20
-13.5699546162
 11
-13.1296607707
 21
-14.3655179372
  0
LINE
  5
36A
100
AcDbEntity
  8
RACCORDO
100
AcDbLine
 62
7
  6
CONTINUOUS
 10
-11.9963014057
 20
-15.0661763919
 11
-12.8994948481
 21
-15.5534699749
  0
LINE
  5
36B
100
AcDbEntity
  8
RACCORDO
100
AcDbLine
 62
7
  6
CONTINUOUS
 10
-11.8590078199
 20
-15.0730667437
 11
-12.7622012623
 21
-15.5603603266
  0
LINE
  5
36C
100
AcDbEntity
  8
RACCORDO
100
AcDbLine
 62
7
  6
CONTINUOUS
 10
-15.1283353464
 20
-13.4264788845
 11
-15.6940207713
 21
-13.7214148207
  0
LINE
  5
36D
100
AcDbEntity
  8
RACCORDO
100
AcDbLine
 62
7
  6
CONTINUOUS
 10
-14.992462019
 20
-13.4341173131
 11
-15.558147444
 21
-13.7290532493
  0
LINE
  5
36E
100
AcDbEntity
  8
0
100
AcDbLine
 62
7
  6
CONTINUOUS
 10
-11.9519028599
 20
-14.297012998
 11
-12.6406238412
 21
-14.6479564318
  0
LINE
  5
36F
100
AcDbEntity
  8
RACCORDO
100
AcDbLine
 62
7
  6
CONTINUOUS
 10
-13.3262299224
 20
-14.8450120101
 11
-12.7506704216
 21
-14.5550131118
  0
LINE
  5
370
100
AcDbEntity
  8
RACCORDO
100
AcDbLine
 62
7
  6
CONTINUOUS
 10
-12.9896560889
 20
-15.1481129433
 11
-12.538570696
 21
-14.9208310258
  0
LINE
  5
371
100
AcDbEntity
  8
0
100
AcDbLine
 62
7
  6
CONTINUOUS
 10
-12.4380565616
 20
-14.7507145669
 11
-12.5559143589
 21
-14.8099078075
  0
LINE
  5
372
100
AcDbEntity
  8
ASSI
100
AcDbLine
 62
7
  6
CONTINUOUS
 10
-13.5229877451
 20
-14.16885445
 11
-13.4014717613
 21
-14.1080964582
  0
LINE
  5
373
100
AcDbEntity
  8
ASSI
100
AcDbLine
 62
7
  6
CONTINUOUS
 10
-13.189339727
 20
-14.002030441
 11
-13.0479183708
 21
-13.9313197629
  0
LINE
  5
374
100
AcDbEntity
  8
ASSI
100
AcDbLine
 62
7
  6
CONTINUOUS
 10
-12.8357863364
 20
-13.8252537457
 11
-12.6943649802
 21
-13.7545430676
  0
LINE
  5
375
100
AcDbEntity
  8
ASSI
100
AcDbLine
 62
7
  6
CONTINUOUS
 10
-12.4822329458
 20
-13.6484770504
 11
-12.3408115896
 21
-13.5777663723
  0
LINE
  5
376
100
AcDbEntity
  8
ASSI
100
AcDbLine
 62
7
  6
CONTINUOUS
 10
-12.1286795552
 20
-13.4717003551
 11
-11.987258199
 21
-13.400989677
  0
LINE
  5
377
100
AcDbEntity
  8
ASSI
100
AcDbLine
 62
7
  6
CONTINUOUS
 10
-11.8811921818
 20
-13.477860479
 11
-13.3930839345
 21
-14.2338063553
  0
LINE
  5
378
100
AcDbEntity
  8
0
100
AcDbLine
 62
7
  6
CONTINUOUS
 10
-11.6899903775
 20
-14.0784234657
 11
-12.7050713607
 21
-14.5841411641
  0
LWPOLYLINE
  5
379
100
AcDbEntity
  8
ASSI
100
AcDbPolyline
 62
7
  6
CONTINUOUS
 90
10
 70
0
 10
-11.6899903775
 20
-13.5662973308
 10
-11.6796869448
 20
-13.561238141
 10
-11.6705239836
 20
-13.5571247183
 10
-11.6625580452
 20
-13.5538748757
 10
-11.6559252194
 20
-13.5513633673
 10
-11.6505645326
 20
-13.5495291218
 10
-11.6462244866
 20
-13.5483959903
 10
-11.6429024319
 20
-13.5478934709
 10
-11.6406285997
 20
-13.547927304
 10
-11.639635837
 20
-13.5482369907
  0
LINE
  5
37A
100
AcDbEntity
  8
DRAFT
100
AcDbLine
 62
7
  6
CONTINUOUS
 10
-12.9418523536
 20
-15.1720148109
 11
-13.4784440124
 21
-15.4058688829
  0
LWPOLYLINE
  5
37B
100
AcDbEntity
  8
ASSI
100
AcDbPolyline
 62
7
  6
CONTINUOUS
 90
4
 70
0
 10
-15.9466784388
 20
-11.4379533001
 10
-15.934066044
 20
-11.4342323927
 10
-15.9210354494
 20
-11.4320159658
 10
-15.9077333988
 20
-11.4312871989
  0
LINE
  5
37C
100
AcDbEntity
  8
RACCORDO
100
AcDbLine
 62
7
  6
CONTINUOUS
 10
-26.8183925888
 20
23.658182257
 11
-26.8365750801
 21
23.6672735027
  0
LINE
  5
37D
100
AcDbEntity
  8
RACCORDO
100
AcDbLine
 62
7
  6
CONTINUOUS
 10
12.0190170223
 20
-27.1997040309
 11
12.0190170223
 21
-27.6524494989
  0
LINE
  5
37E
100
AcDbEntity
  8
RACCORDO
100
AcDbLine
 62
7
  6
CONTINUOUS
 10
-7.037914121
 20
-18.0509263518
 11
-6.4821027719
 21
-17.7510533777
  0
LINE
  5
37F
100
AcDbEntity
  8
RACCORDO
100
AcDbLine
 62
7
  6
CONTINUOUS
 10
-6.9006205353
 20
-18.0578167036
 11
-6.3448091862
 21
-17.7579437295
  0
LINE
  5
380
100
AcDbEntity
  8
RACCORDO
100
AcDbLine
 62
7
  6
CONTINUOUS
 10
-8.3131773328
 20
-17.7848722913
 11
-7.3778931441
 21
-17.3136240816
  0
LINE
  5
381
100
AcDbEntity
  8
RACCORDO
100
AcDbLine
 62
7
  6
CONTINUOUS
 10
-7.5449338738
 20
-17.8704740508
 11
-7.1657934184
 21
-17.6794419956
  0
LINE
  5
382
100
AcDbEntity
  8
RACCORDO
100
AcDbLine
 62
7
  6
CONTINUOUS
 10
-5.528276617
 20
-17.7321985713
 11
-5.9795102304
 21
-17.9405932074
  0
LINE
  5
383
100
AcDbEntity
  8
RACCORDO
100
AcDbLine
 62
7
  6
CONTINUOUS
 10
-5.3987907895
 20
-17.7429366832
 11
-5.9061721895
 21
-17.9772622278
  0
LINE
  5
384
100
AcDbEntity
  8
DRAFT
100
AcDbLine
 62
7
  6
CONTINUOUS
 10
-7.6385514947
 20
-17.8236652404
 11
-8.1751431535
 21
-18.0575193123
  0
LINE
  5
385
100
AcDbEntity
  8
RACCORDO
100
AcDbLine
 62
7
  6
CONTINUOUS
 10
-25.8831084
 20
24.1294304667
 11
-26.3524928882
 21
24.3641227108
  0
LINE
  5
386
100
AcDbEntity
  8
RACCORDO
100
AcDbLine
 62
7
  6
CONTINUOUS
 10
-4.4919263184
 20
-19.262163812
 11
-3.9262408934
 21
-18.9672278759
  0
LINE
  5
387
100
AcDbEntity
  8
RACCORDO
100
AcDbLine
 62
7
  6
CONTINUOUS
 10
-4.1573781164
 20
-19.5642519295
 11
-3.7141088591
 21
-19.3331410902
  0
LINE
  5
388
100
AcDbEntity
  8
0
100
AcDbLine
 62
7
  6
CONTINUOUS
 10
-7.611972765
 20
-21.1149515371
 11
-7.7533941212
 21
-21.1856622152
  0
LINE
  5
389
100
AcDbEntity
  8
0
100
AcDbLine
 62
7
  6
CONTINUOUS
 10
-7.2752866996
 20
-21.2832945698
 11
-7.4167080558
 21
-21.3540052479
  0
LINE
  5
38A
100
AcDbEntity
  8
0
100
AcDbLine
 62
7
  6
CONTINUOUS
 10
-6.7005814205
 20
-21.5706472093
 11
-6.8420027767
 21
-21.6413578874
  0
LINE
  5
38B
100
AcDbEntity
  8
0
100
AcDbLine
 62
7
  6
CONTINUOUS
 10
-6.3908566295
 20
-21.7255096048
 11
-6.5322779858
 21
-21.7962202829
  0
LINE
  5
38C
100
AcDbEntity
  8
0
100
AcDbLine
 62
7
  6
CONTINUOUS
 10
-6.2758393476
 20
-21.7829091266
 11
-6.4172607038
 21
-21.8536198047
  0
LINE
  5
38D
100
AcDbEntity
  8
0
100
AcDbLine
 62
7
  6
CONTINUOUS
 10
-5.9659031317
 20
-21.9378772345
 11
-6.1073244879
 21
-22.0085879126
  0
LINE
  5
38E
100
AcDbEntity
  8
0
100
AcDbLine
 62
7
  6
CONTINUOUS
 10
-5.6649860628
 20
-22.0884448882
 11
-5.806407419
 21
-22.1591555663
  0
LINE
  5
38F
100
AcDbEntity
  8
0
100
AcDbLine
 62
7
  6
CONTINUOUS
 10
-5.3553065267
 20
-22.2432846562
 11
-5.4967278829
 21
-22.3139953343
  0
LINE
  5
390
100
AcDbEntity
  8
0
100
AcDbLine
 62
7
  6
CONTINUOUS
 10
-6.8681310794
 20
-23.3053724413
 11
-7.0095524356
 21
-23.3760831194
  0
LINE
  5
391
100
AcDbEntity
  8
0
100
AcDbLine
 62
7
  6
CONTINUOUS
 10
-4.7387079992
 20
-22.5515839199
 11
-4.8801293555
 21
-22.6222945981
  0
LINE
  5
392
100
AcDbEntity
  8
0
100
AcDbLine
 62
7
  6
CONTINUOUS
 10
-4.4320570014
 20
-22.7049094188
 11
-4.5734783577
 21
-22.775620097
  0
LINE
  5
393
100
AcDbEntity
  8
0
100
AcDbLine
 62
7
  6
CONTINUOUS
 10
-5.9659031317
 20
-23.7564864152
 11
-6.1073244879
 21
-23.8271970933
  0
LINE
  5
394
100
AcDbEntity
  8
RACCORDO
100
AcDbLine
 62
7
  6
CONTINUOUS
 10
-3.8605001309
 20
-18.5120820125
 11
-4.3504726534
 21
-18.7551119959
  0
LINE
  5
395
100
AcDbEntity
  8
RACCORDO
100
AcDbLine
 62
7
  6
CONTINUOUS
 10
-3.6484004052
 20
-18.8778999265
 11
-3.8832173801
 21
-18.9943708771
  0
LWPOLYLINE
  5
396
100
AcDbEntity
  8
RACCORDO
100
AcDbPolyline
 62
7
  6
CONTINUOUS
 90
8
 70
0
 10
-5.528276617
 20
-17.7321985713
 10
-5.5016317662
 20
-17.7214103796
 10
-5.4736729127
 20
-17.7131226238
 10
-5.4446879312
 20
-17.7075380171
 10
-5.4149311319
 20
-17.7048138112
 10
-5.3848333702
 20
-17.7050760702
 10
-5.3549324795
 20
-17.7083498382
 10
-5.3254759445
 20
-17.7146103988
  0
LWPOLYLINE
  5
397
100
AcDbEntity
  8
RACCORDO
100
AcDbPolyline
 62
7
  6
CONTINUOUS
 90
13
 70
0
 10
-29.1148103547
 20
30.0704708794
 10
-29.0887492398
 20
30.058874707
 10
-29.0601718266
 20
30.0488696556
 10
-29.0294645557
 20
30.0405910346
 10
-28.9970426714
 20
30.0341508075
 10
-28.9633446142
 20
30.0296360785
 10
-28.9288260927
 20
30.0271079127
 10
-28.8939539047
 20
30.0266005093
 10
-28.8591996402
 20
30.0281207411
 10
-28.8250333107
 20
30.0316480582
 10
-28.7919169694
 20
30.037134766
 10
-28.7602984627
 20
30.0445066723
 10
-28.7306053894
 20
30.0536640899
  0
LWPOLYLINE
  5
398
100
AcDbEntity
  8
RACCORDO
100
AcDbPolyline
 62
7
  6
CONTINUOUS
 90
11
 70
0
 10
-30.2760317131
 20
33.7044693114
 10
-30.3132793195
 20
33.7211291861
 10
-30.3503004937
 20
33.7343149871
 10
-30.3868864936
 20
33.7439540433
 10
-30.4228299227
 20
33.7499940678
 10
-30.4579297139
 20
33.7524015094
 10
-30.4919922451
 20
33.7511616781
 10
-30.5248267041
 20
33.7462817829
 10
-30.5562480658
 20
33.7377898942
 10
-30.5860819557
 20
33.7257328316
 10
-30.5977849897
 20
33.7197906163
  0
LINE
  5
399
100
AcDbEntity
  8
RACCORDO
100
AcDbLine
 62
7
  6
CONTINUOUS
 10
-28.6316196272
 20
30.2257192229
 11
19.3794388396
 21
6.2201899895
  0
LINE
  5
39A
100
AcDbEntity
  8
RACCORDO
100
AcDbLine
 62
7
  6
CONTINUOUS
 10
-28.7095875829
 20
30.387981363
 11
19.3014708774
 21
6.3824521328
  0
LINE
  5
39B
100
AcDbEntity
  8
RACCORDO
100
AcDbLine
 62
7
  6
CONTINUOUS
 10
21.0763448275
 20
7.5600831701
 11
-30.4867448716
 21
33.3416280196
  0
LINE
  5
39C
100
AcDbEntity
  8
RACCORDO
100
AcDbLine
 62
7
  6
CONTINUOUS
 10
21.2847746474
 20
7.9240661312
 11
-30.2760317131
 21
33.7044693114
  0
LINE
  5
39D
100
AcDbEntity
  8
RACCORDO
100
AcDbLine
 62
7
  6
CONTINUOUS
 10
22.9792475178
 20
8.7778358369
 11
-28.639698283
 21
34.5873087373
  0
LWPOLYLINE
  5
39E
100
AcDbEntity
  8
RACCORDO
100
AcDbPolyline
 62
7
  6
CONTINUOUS
 90
22
 70
0
 10
19.3794702847
 20
6.2201740907
 10
19.3860837869
 20
6.2166887587
 10
19.3995300648
 20
6.2085832073
 10
19.4146818489
 20
6.1979467798
 10
19.4310057205
 20
6.1847979356
 10
19.4481556717
 20
6.1691193113
 10
19.4657986673
 20
6.1509482743
 10
19.4834946399
 20
6.1305136896
 10
19.5008998709
 20
6.1080488555
 10
19.5177664463
 20
6.0837421713
 10
19.5338815074
 20
6.0577774142
 10
19.5490033179
 20
6.0304479901
 10
19.5629359479
 20
6.0020519189
 10
19.5755669308
 20
5.9727652718
 10
19.5867383747
 20
5.9429131645
 10
19.5963276994
 20
5.9128346939
 10
19.6042797528
 20
5.8827447528
 10
19.610528568
 20
5.8529542156
 10
19.6150267111
 20
5.8238400899
 10
19.6177706621
 20
5.7957996374
 10
19.6188104637
 20
5.7692243318
 10
19.6188250813
 20
5.7659169478
  0
LWPOLYLINE
  5
39F
100
AcDbEntity
  8
RACCORDO
100
AcDbPolyline
 62
7
  6
CONTINUOUS
 90
22
 70
0
 10
21.0763448275
 20
7.5600831701
 10
21.0975454184
 20
7.5484994873
 10
21.1184340536
 20
7.5351856891
 10
21.139010733
 20
7.5201417755
 10
21.1593983182
 20
7.5032596477
 10
21.1794739477
 20
7.4846474044
 10
21.1988690367
 20
7.4646293416
 10
21.2175613101
 20
7.4431879057
 10
21.2355730431
 20
7.4203406502
 10
21.2526024768
 20
7.3964645318
 10
21.2686349992
 20
7.3715372562
 10
21.2836852222
 20
7.3455811176
 10
21.297495223
 20
7.3190399554
 10
21.310041143
 20
7.2919067253
 10
21.3213468408
 20
7.2641884716
 10
21.3312259692
 20
7.2363501663
 10
21.3396543987
 20
7.2083765501
 10
21.3466562588
 20
7.1802828824
 10
21.3521175911
 20
7.1525799136
 10
21.3560004092
 20
7.1254378939
 10
21.3583426994
 20
7.0986865732
 10
21.3591444616
 20
7.0723259514
  0
LWPOLYLINE
  5
3A0
100
AcDbEntity
  8
RACCORDO
100
AcDbPolyline
 62
7
  6
CONTINUOUS
 90
6
 70
0
 10
19.3014708774
 20
6.3824521328
 10
19.3374584139
 20
6.3623789351
 10
19.3724467381
 20
6.3392251837
 10
19.4064358497
 20
6.3129908786
 10
19.4395897977
 20
6.2834931854
 10
19.4717445332
 20
6.2509149384
  0
LWPOLYLINE
  5
3A1
100
AcDbEntity
  8
RACCORDO
100
AcDbPolyline
 62
7
  6
CONTINUOUS
 90
8
 70
0
 10
19.7066936492
 20
5.6597188775
 10
19.683500984
 20
5.6727495709
 10
19.6634906818
 20
5.6870384076
 10
19.6469333474
 20
5.7023921554
 10
19.6340528904
 20
5.7186031812
 10
19.625023497
 20
5.7354522588
 10
19.6199672741
 20
5.7527115332
 10
19.6188256835
 20
5.7657848946
  0
LWPOLYLINE
  5
3A2
100
AcDbEntity
  8
RACCORDO
100
AcDbPolyline
 62
7
  6
CONTINUOUS
 90
10
 70
0
 10
19.3014708774
 20
6.3824521328
 10
19.3025693538
 20
6.3565957909
 10
19.3058534009
 20
6.3321057062
 10
19.3112890069
 20
6.3092355103
 10
19.3188198774
 20
6.2882220583
 10
19.3283680186
 20
6.2692829755
 10
19.3398345446
 20
6.252614404
 10
19.353100702
 20
6.2383889717
 10
19.3680290996
 20
6.2267540036
 10
19.3794388401
 20
6.2201899892
  0
LWPOLYLINE
  5
3A3
100
AcDbEntity
  8
RACCORDO
100
AcDbPolyline
 62
7
  6
CONTINUOUS
 90
22
 70
0
 10
21.7796740071
 20
7.0704909986
 10
21.7780221167
 20
7.1163495829
 10
21.7736295555
 20
7.1633431035
 10
21.7665227901
 20
7.2112097495
 10
21.7567445533
 20
7.2596833055
 10
21.744349776
 20
7.3084929606
 10
21.7294052319
 20
7.3573648232
 10
21.7119949426
 20
7.4060260551
 10
21.6922177451
 20
7.4542052542
 10
21.6701828964
 20
7.5016322978
 10
21.6460134897
 20
7.5480417442
 10
21.6198454651
 20
7.5931748618
 10
21.5918247914
 20
7.6367798897
 10
21.5621070004
 20
7.6786128217
 10
21.5308585756
 20
7.7184396398
 10
21.4982557166
 20
7.7560381735
 10
21.4644793324
 20
7.7911973854
 10
21.4297176296
 20
7.8237205929
 10
21.3941672531
 20
7.8534273662
 10
21.3580266522
 20
7.8801515137
 10
21.3214949917
 20
7.9037420591
 10
21.2847746474
 20
7.9240661312
  0
LINE
  5
3A4
100
AcDbEntity
  8
RACCORDO
100
AcDbLine
 62
7
  6
CONTINUOUS
 10
19.6188256835
 20
5.7657848946
 11
19.6188256835
 21
-34.0260294759
  0
LINE
  5
3A5
100
AcDbEntity
  8
RACCORDO
100
AcDbLine
 62
7
  6
CONTINUOUS
 10
19.7066936492
 20
5.6597188775
 11
19.7066936492
 21
-34.1320955144
  0
LINE
  5
3A6
100
AcDbEntity
  8
RACCORDO
100
AcDbLine
 62
7
  6
CONTINUOUS
 10
21.3591444616
 20
-37.1971534009
 11
21.3591444616
 21
7.0723259514
  0
LINE
  5
3A7
100
AcDbEntity
  8
RACCORDO
100
AcDbLine
 62
7
  6
CONTINUOUS
 10
21.7796740071
 20
-37.1989883537
 11
21.7796740071
 21
7.0704909986
  0
LWPOLYLINE
  5
3A8
100
AcDbEntity
  8
RACCORDO
100
AcDbPolyline
 62
7
  6
CONTINUOUS
 90
8
 70
0
 10
19.6188252579
 20
-34.0261676767
 10
19.6186843971
 20
-34.0366194032
 10
19.6177861489
 20
-34.0540077165
 10
19.6161162024
 20
-34.0699471985
 10
19.6138083753
 20
-34.0840070414
 10
19.6111665175
 20
-34.0954602033
 10
19.6085289383
 20
-34.104098416
 10
19.608029936
 20
-34.1054950127
  0
LWPOLYLINE
  5
3A9
100
AcDbEntity
  8
RACCORDO
100
AcDbPolyline
 62
7
  6
CONTINUOUS
 90
22
 70
0
 10
21.3591444616
 20
-37.1971534009
 10
21.3583505306
 20
-37.2225795283
 10
21.356032715
 20
-37.2468681935
 10
21.3521910148
 20
-37.2700193964
 10
21.3467881587
 20
-37.2921627592
 10
21.3398614179
 20
-37.3131686596
 10
21.3315226071
 20
-37.3326482317
 10
21.321748764
 20
-37.3505631929
 10
21.3105628508
 20
-37.3669518256
 10
21.2981455681
 20
-37.3815401109
 10
21.2844731846
 20
-37.3942988098
 10
21.2695694315
 20
-37.4052571613
 10
21.2536862028
 20
-37.4142288626
 10
21.236808363
 20
-37.4211777376
 10
21.2189510477
 20
-37.4261399624
 10
21.2004115575
 20
-37.4290377632
 10
21.1811710436
 20
-37.4298327506
 10
21.1612483548
 20
-37.4285633138
 10
21.140997338
 20
-37.4252668465
 10
21.1205359421
 20
-37.4199558132
 10
21.0997462181
 20
-37.4126177492
 10
21.0786281661
 20
-37.4032526547
  0
LWPOLYLINE
  5
3AA
100
AcDbEntity
  8
RACCORDO
100
AcDbPolyline
 62
7
  6
CONTINUOUS
 90
19
 70
0
 10
19.7066936492
 20
-34.1320955144
 10
19.7047895325
 20
-34.1802508785
 10
19.6998535608
 20
-34.2252363883
 10
19.6918857339
 20
-34.2670520438
 10
19.6807180355
 20
-34.3058792528
 10
19.666518482
 20
-34.3415366075
 10
19.6497911226
 20
-34.3734798846
 10
19.6305198595
 20
-34.4016073384
 10
19.6087207905
 20
-34.4260207146
 10
19.5849462572
 20
-34.4464810271
 10
19.5592136249
 20
-34.4629332524
 10
19.5315055284
 20
-34.475432414
 10
19.5023222134
 20
-34.4839045969
 10
19.4716738488
 20
-34.4883406188
 10
19.4395502657
 20
-34.488749662
 10
19.4064212031
 20
-34.4850853583
 10
19.3724432407
 20
-34.4773322517
 10
19.3374597988
 20
-34.4655057983
 10
19.3014708774
 20
-34.449605998
  0
LWPOLYLINE
  5
3AB
100
AcDbEntity
  8
RACCORDO
100
AcDbPolyline
 62
7
  6
CONTINUOUS
 90
13
 70
0
 10
19.3014708774
 20
-34.449605998
 10
19.3025693505
 20
-34.4226511936
 10
19.3058533933
 20
-34.3948770736
 10
19.3112889948
 20
-34.3665712809
 10
19.318819861
 20
-34.3380269644
 10
19.3283679986
 20
-34.3095397435
 10
19.3398345222
 20
-34.2814046462
 10
19.3531006786
 20
-34.2539130537
 10
19.3680290771
 20
-34.2273496827
 10
19.3844651114
 20
-34.201989637
 10
19.4022385618
 20
-34.1780955579
 10
19.4211653575
 20
-34.1559149045
 10
19.441049483
 20
-34.1356773908
  0
LINE
  5
3AC
100
AcDbEntity
  8
RACCORDO
100
AcDbLine
 62
7
  6
CONTINUOUS
 10
3.913601171
 20
-23.0211276803
 11
3.0104077286
 21
-23.5084212632
  0
LINE
  5
3AD
100
AcDbEntity
  8
RACCORDO
100
AcDbLine
 62
7
  6
CONTINUOUS
 10
4.0508947568
 20
-23.028018032
 11
3.1477013144
 21
-23.515311615
  0
LINE
  5
3AE
100
AcDbEntity
  8
RACCORDO
100
AcDbLine
 62
7
  6
CONTINUOUS
 10
0.604790535
 20
-21.2930418252
 11
0.0391051101
 21
-21.5879777614
  0
LINE
  5
3AF
100
AcDbEntity
  8
RACCORDO
100
AcDbLine
 62
7
  6
CONTINUOUS
 10
0.7406638624
 20
-21.3006802538
 11
0.1749784374
 21
-21.59561619
  0
LINE
  5
3B0
100
AcDbEntity
  8
RACCORDO
100
AcDbLine
 62
7
  6
CONTINUOUS
 10
2.5836726543
 20
-22.7999632984
 11
3.1592321551
 21
-22.5099644001
  0
LINE
  5
3B1
100
AcDbEntity
  8
RACCORDO
100
AcDbLine
 62
7
  6
CONTINUOUS
 10
2.9202464878
 20
-23.1030642316
 11
3.3713318807
 21
-22.8757823141
  0
LINE
  5
3B2
100
AcDbEntity
  8
0
100
AcDbLine
 62
7
  6
CONTINUOUS
 10
-3.7788154935
 20
-23.0315301728
 11
-3.9202368498
 21
-23.1022408509
  0
LINE
  5
3B3
100
AcDbEntity
  8
0
100
AcDbLine
 62
7
  6
CONTINUOUS
 10
-5.5025473717
 20
-23.9881642952
 11
-5.6439687279
 21
-24.0588749733
  0
LINE
  5
3B4
100
AcDbEntity
  8
0
100
AcDbLine
 62
7
  6
CONTINUOUS
 10
-3.4789901975
 20
-23.1814428208
 11
-3.6204115537
 21
-23.2521534989
  0
LINE
  5
3B5
100
AcDbEntity
  8
0
100
AcDbLine
 62
7
  6
CONTINUOUS
 10
-5.0286026876
 20
-24.2251366372
 11
-5.1700240439
 21
-24.2958473153
  0
LINE
  5
3B6
100
AcDbEntity
  8
0
100
AcDbLine
 62
7
  6
CONTINUOUS
 10
-2.9324045215
 20
-23.4759817195
 11
-3.0738258777
 21
-23.5466923976
  0
LINE
  5
3B7
100
AcDbEntity
  8
0
100
AcDbLine
 62
7
  6
CONTINUOUS
 10
-3.7890480358
 20
-24.2009599895
 11
-3.930469392
 21
-24.2716706677
  0
LINE
  5
3B8
100
AcDbEntity
  8
0
100
AcDbLine
 62
7
  6
CONTINUOUS
 10
-4.3692096728
 20
-24.6308311822
 11
-4.4346329915
 21
-24.6635428415
  0
LINE
  5
3B9
100
AcDbEntity
  8
0
100
AcDbLine
 62
7
  6
CONTINUOUS
 10
-2.1675301555
 20
-23.8775648875
 11
-2.3089515118
 21
-23.9482755656
  0
LINE
  5
3BA
100
AcDbEntity
  8
0
100
AcDbLine
 62
7
  6
CONTINUOUS
 10
-3.9379703807
 20
-24.7704527906
 11
-4.079391737
 21
-24.8411634688
  0
LINE
  5
3BB
100
AcDbEntity
  8
0
100
AcDbLine
 62
7
  6
CONTINUOUS
 10
-2.6339927319
 20
-24.4129548969
 11
-2.7754140882
 21
-24.483665575
  0
LINE
  5
3BC
100
AcDbEntity
  8
0
100
AcDbLine
 62
7
  6
CONTINUOUS
 10
-2.4568674475
 20
-24.5015175391
 11
-2.5982888038
 21
-24.5722282172
  0
LINE
  5
3BD
100
AcDbEntity
  8
0
100
AcDbLine
 62
7
  6
CONTINUOUS
 10
-3.0738258777
 20
-25.2529340651
 11
-3.164838211
 21
-25.2984402318
  0
LINE
  5
3BE
100
AcDbEntity
  8
0
100
AcDbLine
 62
7
  6
CONTINUOUS
 10
-2.2726976183
 20
-24.8913526871
 11
-2.2769959192
 21
-24.8935018375
  0
LINE
  5
3BF
100
AcDbEntity
  8
0
100
AcDbLine
 62
7
  6
CONTINUOUS
 10
-2.2339646314
 20
-24.8760634455
 11
-2.0925432751
 21
-24.8053527674
  0
LINE
  5
3C0
100
AcDbEntity
  8
0
100
AcDbLine
 62
7
  6
CONTINUOUS
 10
-2.6237157243
 20
-25.4275804633
 11
-2.7651370805
 21
-25.4982911414
  0
LINE
  5
3C1
100
AcDbEntity
  8
0
100
AcDbLine
 62
7
  6
CONTINUOUS
 10
-1.9569238722
 20
-25.2687854786
 11
-2.0983452285
 21
-25.3394961567
  0
LINE
  5
3C2
100
AcDbEntity
  8
0
100
AcDbLine
 62
7
  6
CONTINUOUS
 10
-1.8509693709
 20
-25.81395364
 11
-1.9923907272
 21
-25.8846643181
  0
LWPOLYLINE
  5
3C3
100
AcDbEntity
  8
0
100
AcDbPolyline
 62
7
  6
CONTINUOUS
 90
49
 70
0
 10
-2.0925145563
 20
-24.8054118261
 10
-2.0874501116
 20
-24.8029379831
 10
-2.0805744364
 20
-24.7992737723
 10
-2.0736217942
 20
-24.7953858967
 10
-2.0665680166
 20
-24.7913685289
 10
-2.0594372719
 20
-24.7871274963
 10
-2.052266918
 20
-24.7825437992
 10
-2.045053964
 20
-24.7776377687
 10
-2.0378014008
 20
-24.7723890736
 10
-2.0305555587
 20
-24.7666177209
 10
-2.0233091899
 20
-24.7603229385
 10
-2.0160695422
 20
-24.7535054985
 10
-2.0089046901
 20
-24.7459877248
 10
-2.0018113863
 20
-24.7377429815
 10
-1.994792878
 20
-24.7287979044
 10
-1.9879269812
 20
-24.7190547253
 10
-1.9812054913
 20
-24.7085094648
 10
-1.9746366129
 20
-24.6971661022
 10
-1.9683227766
 20
-24.6849388079
 10
-1.9622517757
 20
-24.6718205389
 10
-1.9564358169
 20
-24.6578183381
 10
-1.951013951
 20
-24.6428675048
 10
-1.945986048
 20
-24.626980535
 10
-1.9413522379
 20
-24.6101449327
 10
-1.9372519605
 20
-24.592258508
 10
-1.9336821113
 20
-24.5733474281
 10
-1.9306457948
 20
-24.5533855259
 10
-1.9282917649
 20
-24.5321921104
 10
-1.9265974249
 20
-24.5097835396
 10
-1.9255853716
 20
-24.4861434554
 10
-1.9254721488
 20
-24.4610420921
 10
-1.9261739515
 20
-24.4344789616
 10
-1.9277745847
 20
-24.406454552
 10
-1.9307420084
 20
-24.3767405625
 10
-1.9350443645
 20
-24.3451286409
 10
-1.9407135111
 20
-24.3118271395
 10
-1.9483129818
 20
-24.2772328139
 10
-1.9580335447
 20
-24.2410505675
 10
-1.9696844319
 20
-24.2035754969
 10
-1.983256873
 20
-24.1660896472
 10
-1.9989460171
 20
-24.1285786819
 10
-2.0165567151
 20
-24.0910569376
 10
-2.0354947498
 20
-24.0548494686
 10
-2.0558686574
 20
-24.0200383176
 10
-2.0775699015
 20
-23.986541442
 10
-2.0996786561
 20
-23.9554377686
 10
-2.1218883122
 20
-23.9270869395
 10
-2.1445054787
 20
-23.9011293124
 10
-2.1675301555
 20
-23.8775648875
  0
LWPOLYLINE
  5
3C4
100
AcDbEntity
  8
0
100
AcDbPolyline
 62
7
  6
CONTINUOUS
 90
46
 70
0
 10
-2.2339649407
 20
-24.8760628052
 10
-2.2266658728
 20
-24.8725039028
 10
-2.2193279314
 20
-24.8685538889
 10
-2.2119231273
 20
-24.864345803
 10
-2.2044377554
 20
-24.8599800157
 10
-2.1968855209
 20
-24.8553561563
 10
-2.1892973596
 20
-24.8503142621
 10
-2.1816658131
 20
-24.8448786229
 10
-2.1739983398
 20
-24.8390249488
 10
-2.1663482515
 20
-24.8325204077
 10
-2.1587065379
 20
-24.8253523284
 10
-2.1510822093
 20
-24.8175333821
 10
-2.1435556078
 20
-24.8088687494
 10
-2.1361176931
 20
-24.7993325582
 10
-2.1287775055
 20
-24.7889506807
 10
-2.1216425078
 20
-24.7776059132
 10
-2.1146989279
 20
-24.7652935818
 10
-2.1079605379
 20
-24.7520183604
 10
-2.1015761175
 20
-24.7376770676
 10
-2.0955354624
 20
-24.7222752333
 10
-2.0898487768
 20
-24.7058073277
 10
-2.0846954536
 20
-24.68815358
 10
-2.0800727772
 20
-24.6693307497
 10
-2.075983463
 20
-24.6493220774
 10
-2.0726150502
 20
-24.6279575133
 10
-2.0699559972
 20
-24.6052195323
 10
-2.0680178455
 20
-24.5811256596
 10
-2.0670227598
 20
-24.5555584198
 10
-2.0669163616
 20
-24.52851911
 10
-2.0677530293
 20
-24.5000064331
 10
-2.0699180628
 20
-24.4698990233
 10
-2.0732992207
 20
-24.438201575
 10
-2.0780087445
 20
-24.4049093937
 10
-2.0847686572
 20
-24.3698870295
 10
-2.0936470748
 20
-24.3328371432
 10
-2.1045758814
 20
-24.2940570739
 10
-2.1180727529
 20
-24.2543033895
 10
-2.1347981104
 20
-24.2127304831
 10
-2.1540915328
 20
-24.1701839616
 10
-2.1744894326
 20
-24.1299572126
 10
-2.1958073612
 20
-24.0929859266
 10
-2.2182297673
 20
-24.0583344132
 10
-2.2408464095
 20
-24.0264889887
 10
-2.2633538741
 20
-23.9976117587
 10
-2.2860555748
 20
-23.9715406177
 10
-2.3089515118
 20
-23.9482755656
  0
LWPOLYLINE
  5
3C5
100
AcDbEntity
  8
0
100
AcDbPolyline
 62
7
  6
CONTINUOUS
 90
10
 70
0
 10
-2.4317806896
 20
-24.5952400429
 10
-2.4367477964
 20
-24.5975425775
 10
-2.4516732123
 20
-24.6023838613
 10
-2.4682339863
 20
-24.6048798476
 10
-2.4867104406
 20
-24.6050188993
 10
-2.506822253
 20
-24.6028126535
 10
-2.528084489
 20
-24.5984150668
 10
-2.5503355037
 20
-24.5918774579
 10
-2.573736942
 20
-24.583148508
 10
-2.5982888038
 20
-24.5722282172
  0
LINE
  5
3C6
100
AcDbEntity
  8
0
100
AcDbLine
 62
7
  6
CONTINUOUS
 10
-2.2411554277
 20
-24.8793791203
 11
-2.2339649407
 21
-24.8760628052
  0
LINE
  5
3C7
100
AcDbEntity
  8
DRAFT
100
AcDbLine
 62
7
  6
CONTINUOUS
 10
2.9680502231
 20
-23.1269660993
 11
2.4314585643
 21
-23.3608201712
  0
LWPOLYLINE
  5
3C8
100
AcDbEntity
  8
RACCORDO
100
AcDbPolyline
 62
7
  6
CONTINUOUS
 90
6
 70
0
 10
-28.6522611607
 20
30.2337208712
 10
-28.6522239267
 20
30.2337126199
 10
-28.6505715375
 20
30.2333280269
 10
-28.6464474396
 20
30.2320697138
 10
-28.6401464369
 20
30.2296563833
 10
-28.6316365389
 20
30.2257274666
  0
LWPOLYLINE
  5
3C9
100
AcDbEntity
  8
RACCORDO
100
AcDbPolyline
 62
7
  6
CONTINUOUS
 90
10
 70
0
 10
19.4717445332
 20
6.2509149384
 10
19.5024079101
 20
6.2158046412
 10
19.531575607
 20
6.1781608246
 10
19.5592519451
 20
6.1379849578
 10
19.5849577426
 20
6.095829951
 10
19.608717904
 20
6.0516174973
 10
19.6305075247
 20
6.0054259036
 10
19.649772709
 20
5.958043001
 10
19.6664973142
 20
5.909382692
 10
19.680697483
 20
5.8595310742
  0
LWPOLYLINE
  5
3CA
100
AcDbEntity
  8
RACCORDO
100
AcDbPolyline
 62
7
  6
CONTINUOUS
 90
5
 70
0
 10
19.680697483
 20
5.8595310742
 10
19.6918677477
 20
5.8095342715
 10
19.699839619
 20
5.7597409917
 10
19.7047815862
 20
5.7098025271
 10
19.7066936492
 20
5.6597188775
  0
LINE
  5
3CB
100
AcDbEntity
  8
RACCORDO
100
AcDbLine
 62
7
  6
CONTINUOUS
 10
23.4741468775
 20
-36.4164246293
 11
23.4741468775
 21
7.9242607043
  0
LINE
  5
3CC
100
AcDbEntity
  8
ASSI
100
AcDbLine
 62
7
  6
CONTINUOUS
 10
13.9389201751
 20
-28.4853992076
 11
14.0342713487
 21
-28.32094276
  0
LINE
  5
3CD
100
AcDbEntity
  8
ASSI
100
AcDbLine
 62
7
  6
CONTINUOUS
 10
14.2924735657
 20
-28.3086225123
 11
14.3878247393
 21
-28.1441660647
  0
LINE
  5
3CE
100
AcDbEntity
  8
ASSI
100
AcDbLine
 62
7
  6
CONTINUOUS
 10
14.6460269563
 20
-28.131845817
 11
14.7413781299
 21
-27.9673893694
  0
LINE
  5
3CF
100
AcDbEntity
  8
ASSI
100
AcDbLine
 62
7
  6
CONTINUOUS
 10
14.9995803469
 20
-27.9550691217
 11
15.0949315205
 21
-27.7906126741
  0
LINE
  5
3D0
100
AcDbEntity
  8
ASSI
100
AcDbLine
 62
7
  6
CONTINUOUS
 10
15.3531337375
 20
-27.7782924264
 11
15.4484849111
 21
-27.6138359788
  0
LINE
  5
3D1
100
AcDbEntity
  8
ASSI
100
AcDbLine
 62
7
  6
CONTINUOUS
 10
15.7066871281
 20
-27.6015157311
 11
15.8020383017
 21
-27.4370592835
  0
LINE
  5
3D2
100
AcDbEntity
  8
RACCORDO
100
AcDbLine
 62
7
  6
CONTINUOUS
 10
8.8719884557
 20
-26.0058776401
 11
9.4277998048
 21
-25.706004666
  0
LINE
  5
3D3
100
AcDbEntity
  8
RACCORDO
100
AcDbLine
 62
7
  6
CONTINUOUS
 10
9.0092820414
 20
-26.012767992
 11
9.5650933905
 21
-25.7128950178
  0
LINE
  5
3D4
100
AcDbEntity
  8
RACCORDO
100
AcDbLine
 62
7
  6
CONTINUOUS
 10
7.5967252439
 20
-25.7398235797
 11
8.5320094326
 21
-25.26857537
  0
LINE
  5
3D5
100
AcDbEntity
  8
RACCORDO
100
AcDbLine
 62
7
  6
CONTINUOUS
 10
8.3649687029
 20
-25.8254253392
 11
8.7441091583
 21
-25.634393284
  0
LINE
  5
3D6
100
AcDbEntity
  8
DRAFT
100
AcDbLine
 62
7
  6
CONTINUOUS
 10
8.271351082
 20
-25.7786165287
 11
7.7347594232
 21
-26.0124706007
  0
LWPOLYLINE
  5
3D7
100
AcDbEntity
  8
RACCORDO
100
AcDbPolyline
 62
7
  6
CONTINUOUS
 90
12
 70
0
 10
30.1916612988
 20
-58.4812382318
 10
30.1930066733
 20
-58.5183050471
 10
30.1970325585
 20
-58.5537443939
 10
30.2037083166
 20
-58.5872865569
 10
30.2129831413
 20
-58.6186762561
 10
30.2247864477
 20
-58.6476745997
 10
30.2390284117
 20
-58.6740608994
 10
30.2556006515
 20
-58.6976343412
 10
30.274377042
 20
-58.7182155055
 10
30.295214676
 20
-58.7356477446
 10
30.3179549664
 20
-58.7497983883
 10
30.3216078916
 20
-58.751675132
  0
LWPOLYLINE
  5
3D8
100
AcDbEntity
  8
RACCORDO
100
AcDbPolyline
 62
7
  6
CONTINUOUS
 90
22
 70
0
 10
30.5452146894
 20
22.6617704883
 10
30.5442203293
 20
22.694681759
 10
30.5412950176
 20
22.7281040408
 10
30.5364387544
 20
22.7620373335
 10
30.5296004514
 20
22.7967095532
 10
30.5208311968
 20
22.831892784
 10
30.510284255
 20
22.8669032778
 10
30.4979346018
 20
22.9016984108
 10
30.4838072613
 20
22.9363208069
 10
30.4681305709
 20
22.9702145896
 10
30.4508732679
 20
23.0033796197
 10
30.4320666149
 20
23.0358160364
 10
30.4120327373
 20
23.0669683805
 10
30.3907587141
 20
23.0968048261
 10
30.3682574661
 20
23.1253571992
 10
30.3448898818
 20
23.1521655177
 10
30.3206115083
 20
23.1772212851
 10
30.2954667983
 20
23.2005329979
 10
30.2699499978
 20
23.2216661636
 10
30.2442258553
 20
23.2404759513
 10
30.2181296223
 20
23.257107192
 10
30.1916612988
 20
23.2715598855
  0
LWPOLYLINE
  5
3D9
100
AcDbEntity
  8
RACCORDO
100
AcDbPolyline
 62
7
  6
CONTINUOUS
 90
25
 70
0
 10
31.2523214706
 20
22.6617704883
 10
31.2508075052
 20
22.7191681579
 10
31.2462720921
 20
22.7778340082
 10
31.2387346524
 20
22.8375168238
 10
31.2282274671
 20
22.8979610114
 10
31.2147955271
 20
22.9589077633
 10
31.1984963294
 20
23.0200961669
 10
31.1793996394
 20
23.0812642665
 10
31.1575872376
 20
23.1421500679
 10
31.1331525678
 20
23.2024927335
 10
31.1062002955
 20
23.2620338116
 10
31.0768458181
 20
23.3205183972
 10
31.0452148099
 20
23.3776961067
 10
31.0114427047
 20
23.433322117
 10
30.9756741305
 20
23.4871582051
 10
30.9380622618
 20
23.5389738232
 10
30.8987681616
 20
23.5885470851
 10
30.8579600909
 20
23.6356657143
 10
30.8158127972
 20
23.6801279408
 10
30.772506763
 20
23.7217433699
 10
30.7282274305
 20
23.7603337992
 10
30.6831644092
 20
23.7957339801
 10
30.6375106653
 20
23.8277923241
 10
30.5914616957
 20
23.8563715518
 10
30.5452146894
 20
23.8813492827
  0
LINE
  5
3DA
100
AcDbEntity
  8
RACCORDO
100
AcDbLine
 62
7
  6
CONTINUOUS
 10
30.5452146894
 20
-58.2250022252
 11
30.5452146894
 21
22.6617704883
  0
LINE
  5
3DB
100
AcDbEntity
  8
RACCORDO
100
AcDbLine
 62
7
  6
CONTINUOUS
 10
31.2523214706
 20
-58.2250022252
 11
31.2523214706
 21
22.6617704883
  0
LWPOLYLINE
  5
3DC
100
AcDbEntity
  8
RACCORDO
100
AcDbPolyline
 62
7
  6
CONTINUOUS
 90
19
 70
0
 10
30.1916612988
 20
23.2715598855
 10
30.1930066762
 20
23.3099721178
 10
30.1970325692
 20
23.3494373873
 10
30.2037083384
 20
23.3896553393
 10
30.2129831772
 20
23.430319891
 10
30.2247864984
 20
23.4711215606
 10
30.2390284715
 20
23.5117498228
 10
30.2556007067
 20
23.5518954719
 10
30.2743770792
 20
23.5912529753
 10
30.2952146894
 20
23.6295227986
 10
30.3179549506
 20
23.6664136854
 10
30.3424247956
 20
23.7016448738
 10
30.3684379941
 20
23.7349482331
 10
30.39579657
 20
23.7660703047
 10
30.4242923081
 20
23.7947742308
 10
30.4537083385
 20
23.8208415572
 10
30.4838207874
 20
23.8440738958
 10
30.514400481
 20
23.8642944344
 10
30.5452146894
 20
23.8813492827
  0
LWPOLYLINE
  5
3DD
100
AcDbEntity
  8
RACCORDO
100
AcDbPolyline
 62
7
  6
CONTINUOUS
 90
3
 70
0
 10
19.608029936
 20
-34.1054950127
 10
19.6062688639
 20
-34.1098874996
 10
19.6049523022
 20
-34.1125941743
  0
LINE
  5
3DE
100
AcDbEntity
  8
ASSI
100
AcDbLine
 62
7
  6
CONTINUOUS
 10
18.5243994092
 20
-30.0948698369
 11
18.6304654264
 21
-29.9119330177
  0
LINE
  5
3DF
100
AcDbEntity
  8
ASSI
100
AcDbLine
 62
7
  6
CONTINUOUS
 10
18.8779527998
 20
-29.9180931416
 11
18.984018817
 21
-29.7351563224
  0
LINE
  5
3E0
100
AcDbEntity
  8
ASSI
100
AcDbLine
 62
7
  6
CONTINUOUS
 10
19.2315061904
 20
-29.7413164463
 11
19.3375722076
 21
-29.5583796271
  0
LINE
  5
3E1
100
AcDbEntity
  8
ASSI
100
AcDbLine
 62
7
  6
CONTINUOUS
 10
19.585059581
 20
-29.564539751
 11
19.6188256835
 21
-29.5063018388
  0
LINE
  5
3E2
100
AcDbEntity
  8
RACCORDO
100
AcDbLine
 62
7
  6
CONTINUOUS
 10
11.241199563
 20
-27.1287267527
 11
11.806884988
 21
-26.8337908166
  0
LINE
  5
3E3
100
AcDbEntity
  8
RACCORDO
100
AcDbLine
 62
7
  6
CONTINUOUS
 10
11.575747765
 20
-27.4308148702
 11
12.0190170223
 21
-27.1997040309
  0
LINE
  5
3E4
100
AcDbEntity
  8
ASSI
100
AcDbLine
 62
7
  6
CONTINUOUS
 10
13.6951374467
 20
-28.490509711
 11
13.8221393143
 21
-28.4270087772
  0
LINE
  5
3E5
100
AcDbEntity
  8
ASSI
100
AcDbLine
 62
7
  6
CONTINUOUS
 10
14.0342713487
 20
-28.32094276
 11
14.1756927049
 21
-28.2502320819
  0
LINE
  5
3E6
100
AcDbEntity
  8
ASSI
100
AcDbLine
 62
7
  6
CONTINUOUS
 10
14.3878247393
 20
-28.1441660647
 11
14.5292460955
 21
-28.0734553866
  0
LINE
  5
3E7
100
AcDbEntity
  8
ASSI
100
AcDbLine
 62
7
  6
CONTINUOUS
 10
14.7413781299
 20
-27.9673893694
 11
14.8827994861
 21
-27.8966786913
  0
LINE
  5
3E8
100
AcDbEntity
  8
ASSI
100
AcDbLine
 62
7
  6
CONTINUOUS
 10
15.0949315205
 20
-27.7906126741
 11
15.2363528767
 21
-27.719901996
  0
LINE
  5
3E9
100
AcDbEntity
  8
ASSI
100
AcDbLine
 62
7
  6
CONTINUOUS
 10
15.4484849111
 20
-27.6138359788
 11
15.5899062673
 21
-27.5431253007
  0
LINE
  5
3EA
100
AcDbEntity
  8
ASSI
100
AcDbLine
 62
7
  6
CONTINUOUS
 10
15.8020383017
 20
-27.4370592835
 11
15.9434596579
 21
-27.3663486054
  0
LINE
  5
3EB
100
AcDbEntity
  8
0
100
AcDbLine
 62
7
  6
CONTINUOUS
 10
15.8653374006
 20
-27.3511252701
 11
13.5242726943
 21
-28.4050773349
  0
LWPOLYLINE
  5
3EC
100
AcDbEntity
  8
ASSI
100
AcDbPolyline
 62
7
  6
CONTINUOUS
 90
4
 70
0
 10
15.8731267145
 20
-27.3478558768
 10
15.8857391094
 20
-27.3441349694
 10
15.898769704
 20
-27.3419185425
 10
15.9120717546
 20
-27.3411897756
  0
LINE
  5
3ED
100
AcDbEntity
  8
RACCORDO
100
AcDbLine
 62
7
  6
CONTINUOUS
 10
-28.2603799442
 20
30.0400993813
 11
-28.7306053894
 21
30.053664308
  0
LINE
  5
3EE
100
AcDbEntity
  8
RACCORDO
100
AcDbLine
 62
7
  6
CONTINUOUS
 10
-28.6498027703
 20
30.2335490067
 11
-28.6497251459
 21
30.2335467647
  0
LWPOLYLINE
  5
3EF
100
AcDbEntity
  8
RACCORDO
100
AcDbPolyline
 62
7
  6
CONTINUOUS
 90
10
 70
0
 10
-36.2056654546
 20
56.0372105603
 10
-36.2351342856
 20
56.0532903532
 10
-36.2616880862
 20
56.0705931465
 10
-36.2851247659
 20
56.0889872556
 10
-36.3052659575
 20
56.1083326902
 10
-36.3219583744
 20
56.1284822198
 10
-36.3350749772
 20
56.1492824943
 10
-36.3445159405
 20
56.1705752112
 10
-36.3502094131
 20
56.1921983199
 10
-36.352112064
 20
56.2139872556
  0
LINE
  5
3F0
100
AcDbEntity
  8
RACCORDO
100
AcDbLine
 62
7
  6
CONTINUOUS
 10
34.7525000375
 20
24.4118597717
 11
34.7525000375
 21
-56.4749129417
  0
LINE
  5
3F1
100
AcDbEntity
  8
RACCORDO
100
AcDbLine
 62
7
  6
CONTINUOUS
 10
34.8989466469
 20
24.588636467
 11
34.8989466469
 21
-56.2981362464
  0
LWPOLYLINE
  5
3F2
100
AcDbEntity
  8
RACCORDO
100
AcDbPolyline
 62
7
  6
CONTINUOUS
 90
13
 70
0
 10
34.7525000375
 20
-56.4749129417
 10
34.7509860669
 20
-56.5307967403
 10
34.7464506383
 20
-56.5849272653
 10
34.7389131729
 20
-56.6370727214
 10
34.7284059476
 20
-56.687009813
 10
34.7149739559
 20
-56.7345247024
 10
34.6986747148
 20
-56.7794139252
 10
34.6795780194
 20
-56.8214852593
 10
34.6577656448
 20
-56.8605585473
 10
34.6333309952
 20
-56.8964664701
 10
34.6063787014
 20
-56.9290552665
 10
34.5770241788
 20
-56.958185383
 10
34.5453931357
 20
-56.9837320742
  0
LWPOLYLINE
  5
3F3
100
AcDbEntity
  8
RACCORDO
100
AcDbPolyline
 62
7
  6
CONTINUOUS
 90
10
 70
0
 10
34.8989466469
 20
24.588636467
 10
34.8970439959
 20
24.5668475313
 10
34.8913505234
 20
24.5452244226
 10
34.88190956
 20
24.5239317057
 10
34.8687929572
 20
24.5031314312
 10
34.8521005404
 20
24.4829819016
 10
34.8319593487
 20
24.463636467
 10
34.808522669
 20
24.4452423579
 10
34.7819688684
 20
24.4279395646
 10
34.7525000375
 20
24.4118597717
  0
LINE
  5
3F4
100
AcDbEntity
  8
RACCORDO
100
AcDbLine
 62
7
  6
CONTINUOUS
 10
19.6051070716
 20
-34.1123861344
 11
19.6063192805
 21
-34.1107487179
  0
LINE
  5
3F5
100
AcDbEntity
  8
ASSI
100
AcDbLine
 62
7
  6
CONTINUOUS
 10
19.404168724
 20
-30.6324326846
 11
19.6188256835
 21
-30.3625863615
  0
LINE
  5
3F6
100
AcDbEntity
  8
RACCORDO
100
AcDbLine
 62
7
  6
CONTINUOUS
 10
19.4410398102
 20
-34.1356725544
 11
19.6188256835
 21
-33.9126069828
  0
LINE
  5
3F7
100
AcDbEntity
  8
0
100
AcDbLine
 62
7
  6
CONTINUOUS
 10
19.6188256835
 20
-29.7597179764
 11
18.6901443827
 21
-30.2754205139
  0
LINE
  5
3F8
100
AcDbEntity
  8
RACCORDO
100
AcDbLine
 62
7
  6
CONTINUOUS
 10
16.691469807
 20
-29.3363814612
 11
16.1257843821
 21
-29.6313173974
  0
LINE
  5
3F9
100
AcDbEntity
  8
RACCORDO
100
AcDbLine
 62
7
  6
CONTINUOUS
 10
16.8273431344
 20
-29.3440198898
 11
16.2616577094
 21
-29.638955826
  0
LINE
  5
3FA
100
AcDbEntity
  8
0
100
AcDbLine
 62
7
  6
CONTINUOUS
 10
19.6188256835
 20
-30.3338346075
 11
19.2167423258
 21
-30.5387194855
  0
LINE
  5
3FB
100
AcDbEntity
  8
ASSI
100
AcDbLine
 62
7
  6
CONTINUOUS
 10
18.2968174083
 20
-30.0787570267
 11
18.418333392
 21
-30.0179990349
  0
LINE
  5
3FC
100
AcDbEntity
  8
ASSI
100
AcDbLine
 62
7
  6
CONTINUOUS
 10
18.6304654264
 20
-29.9119330177
 11
18.7718867826
 21
-29.8412223396
  0
LINE
  5
3FD
100
AcDbEntity
  8
ASSI
100
AcDbLine
 62
7
  6
CONTINUOUS
 10
18.984018817
 20
-29.7351563224
 11
19.1254401732
 21
-29.6644456443
  0
LINE
  5
3FE
100
AcDbEntity
  8
ASSI
100
AcDbLine
 62
7
  6
CONTINUOUS
 10
19.3375722076
 20
-29.5583796271
 11
19.4789935638
 21
-29.487668949
  0
LINE
  5
3FF
100
AcDbEntity
  8
ASSI
100
AcDbLine
 62
7
  6
CONTINUOUS
 10
19.6188256835
 20
-29.5476566997
 11
18.4267212189
 21
-30.143708932
  0
LINE
  5
400
100
AcDbEntity
  8
0
100
AcDbLine
 62
7
  6
CONTINUOUS
 10
19.6188256835
 20
-30.2429029993
 11
19.1210736992
 21
-30.4908851722
  0
LWPOLYLINE
  5
401
100
AcDbEntity
  8
RACCORDO
100
AcDbPolyline
 62
7
  6
CONTINUOUS
 90
22
 70
0
 10
-35.852112064
 20
56.2934465669
 10
-35.8785780583
 20
56.3054617266
 10
-35.9046729835
 20
56.3149264288
 10
-35.9303968399
 20
56.3218406734
 10
-35.9559148632
 20
56.3262245085
 10
-35.9810618176
 20
56.3280578861
 10
-36.0053419951
 20
56.3272806621
 10
-36.0287103775
 20
56.3238396788
 10
-36.051211983
 20
56.3177880938
 10
-36.0724861586
 20
56.3092252354
 10
-36.0925200278
 20
56.2981063767
 10
-36.1113264672
 20
56.2844762446
 10
-36.1285834533
 20
56.2685683487
 10
-36.1442597256
 20
56.250351234
 10
-36.1583865446
 20
56.2298563555
 10
-36.1707356686
 20
56.2074115884
 10
-36.1812820125
 20
56.1829499469
 10
-36.1900506614
 20
56.1565384168
 10
-36.1968886288
 20
56.1287058299
 10
-36.201744919
 20
56.0996284635
 10
-36.2046705276
 20
56.0691300403
 10
-36.2056654546
 20
56.0372105603
  0
LWPOLYLINE
  5
402
100
AcDbEntity
  8
RACCORDO
100
AcDbPolyline
 62
7
  6
CONTINUOUS
 90
19
 70
0
 10
30.5452146894
 20
22.6617704883
 10
30.5773742387
 20
22.6470360881
 10
30.6119797902
 20
22.6337591976
 10
30.6487679765
 20
22.6220408625
 10
30.6874588146
 20
22.6119702682
 10
30.7277578491
 20
22.6036240574
 10
30.769358394
 20
22.5970657489
 10
30.811943857
 20
22.5923452572
 10
30.855190127
 20
22.5894985126
 10
30.8987680532
 20
22.5885471836
 10
30.9423459804
 20
22.5894985103
 10
30.9855922535
 20
22.5923452528
 10
31.0281777214
 20
22.5970657429
 10
31.0697782737
 20
22.6036240506
 10
31.1100773169
 20
22.6119702616
 10
31.1487681635
 20
22.6220408568
 10
31.1855563572
 20
22.6337591931
 10
31.2201619154
 20
22.6470360855
 10
31.2523214706
 20
22.6617704881
  0
LWPOLYLINE
  5
403
100
AcDbEntity
  8
RACCORDO
100
AcDbPolyline
 62
7
  6
CONTINUOUS
 90
12
 70
0
 10
-35.4985586734
 20
56.9032359641
 10
-35.5448056006
 20
56.9245052063
 10
-35.5908544921
 20
56.9419749281
 10
-35.6365081602
 20
56.9555703216
 10
-35.6815710923
 20
56.9652331663
 10
-35.7258503402
 20
56.9709220906
 10
-35.769156343
 20
56.9726127333
 10
-35.8113036961
 20
56.9702978366
 10
-35.8521118691
 20
56.963987296
 10
-35.8914060371
 20
56.9537081434
 10
-35.9290179047
 20
56.9395044199
 10
-35.9457722689
 20
56.9316377513
  0
LINE
  5
404
100
AcDbEntity
  8
RACCORDO
100
AcDbLine
 62
7
  6
CONTINUOUS
 10
30.1916612988
 20
23.2715598855
 11
-35.852112064
 21
56.2934465669
  0
LINE
  5
405
100
AcDbEntity
  8
RACCORDO
100
AcDbLine
 62
7
  6
CONTINUOUS
 10
30.5452146894
 20
23.8813492827
 11
-35.4985586734
 21
56.9032359641
  0
LWPOLYLINE
  5
406
100
AcDbEntity
  8
RACCORDO
100
AcDbPolyline
 62
7
  6
CONTINUOUS
 90
16
 70
0
 10
34.8989466469
 20
-56.2981362464
 10
34.8966840303
 20
-56.3657978802
 10
34.8900261145
 20
-56.4311316227
 10
34.8791669526
 20
-56.4939869645
 10
34.8642977737
 20
-56.5542409689
 10
34.8456100203
 20
-56.6117769243
 10
34.8233298695
 20
-56.6664109289
 10
34.7977907502
 20
-56.7178218318
 10
34.7691830449
 20
-56.7660608774
 10
34.737503357
 20
-56.8113802426
 10
34.7029861014
 20
-56.853590551
 10
34.6658732161
 20
-56.8925445435
 10
34.6260766556
 20
-56.928406265
 10
34.5837031533
 20
-56.9610653892
 10
34.5391206413
 20
-56.9902404216
 10
34.4926068518
 20
-57.0157867421
  0
LWPOLYLINE
  5
407
100
AcDbEntity
  8
RACCORDO
100
AcDbPolyline
 62
7
  6
CONTINUOUS
 90
10
 70
0
 10
34.8989466469
 20
-56.2981362464
 10
34.897043994
 20
-56.3199251931
 10
34.8913505121
 20
-56.3415483229
 10
34.8819095359
 20
-56.3628410528
 10
34.8687929236
 20
-56.3836413286
 10
34.8521005029
 20
-56.4037908522
 10
34.8319593122
 20
-56.4231362781
 10
34.8085226377
 20
-56.4415303777
 10
34.781968849
 20
-56.4588331599
 10
34.7525000375
 20
-56.4749129407
  0
LWPOLYLINE
  5
408
100
AcDbEntity
  8
RACCORDO
100
AcDbPolyline
 62
7
  6
CONTINUOUS
 90
4
 70
0
 10
19.6062888136
 20
-34.1107904703
 10
19.5941838956
 20
-34.1245548378
 10
19.580341689
 20
-34.1371949594
 10
19.5659641889
 20
-34.1472885088
  0
LWPOLYLINE
  5
409
100
AcDbEntity
  8
RACCORDO
100
AcDbPolyline
 62
7
  6
CONTINUOUS
 90
9
 70
0
 10
19.5659641889
 20
-34.1472885088
 10
19.5511359566
 20
-34.1548367382
 10
19.535907486
 20
-34.1598362084
 10
19.520385134
 20
-34.1622670677
 10
19.5046692861
 20
-34.1621256111
 10
19.4887777964
 20
-34.1594048527
 10
19.4727829078
 20
-34.1540876264
 10
19.4568294274
 20
-34.1461734575
 10
19.4410403272
 20
-34.1356719052
  0
LWPOLYLINE
  5
40A
100
AcDbEntity
  8
RACCORDO
100
AcDbPolyline
 62
7
  6
CONTINUOUS
 90
9
 70
0
 10
34.2690000509
 20
25.6456394613
 10
34.2481831124
 20
25.6545240646
 10
34.2221698944
 20
25.6618142237
 10
34.1948113126
 20
25.665577712
 10
34.1663155787
 20
25.6657858923
 10
34.1368995573
 20
25.662437183
 10
34.10678712
 20
25.6555570705
 10
34.0762074428
 20
25.6451979181
 10
34.0453932554
 20
25.6314385665
  0
LWPOLYLINE
  5
40B
100
AcDbEntity
  8
RACCORDO
100
AcDbPolyline
 62
7
  6
CONTINUOUS
 90
9
 70
0
 10
-31.7747733088
 20
58.6675261411
 10
-31.7955902127
 20
58.6764107325
 10
-31.8216034113
 20
58.6837008933
 10
-31.8489619872
 20
58.6874643889
 10
-31.8774577252
 20
58.687672577
 10
-31.9068737556
 20
58.684323873
 10
-31.9369862046
 20
58.6774437626
 10
-31.9675658982
 20
58.6670846076
 10
-31.9983801066
 20
58.6533252475
  0
LINE
  5
40C
100
AcDbEntity
  8
RACCORDO
100
AcDbLine
 62
7
  6
CONTINUOUS
 10
-31.9983801066
 20
58.6533252475
 11
34.0453932563
 21
25.6314385661
  0
LINE
  5
40D
100
AcDbEntity
  8
RACCORDO
100
AcDbLine
 62
7
  6
CONTINUOUS
 10
-31.7747733088
 20
58.6675261411
 11
34.269000054
 21
25.6456394597
  0
LWPOLYLINE
  5
40E
100
AcDbEntity
  8
RACCORDO
100
AcDbPolyline
 62
7
  6
CONTINUOUS
 90
25
 70
0
 10
34.0453932563
 20
25.6314385661
 10
34.0916402626
 20
25.6064608353
 10
34.1376892322
 20
25.5778816075
 10
34.1833429761
 20
25.5458232635
 10
34.2284059974
 20
25.5104230826
 10
34.2726853298
 20
25.4718326534
 10
34.3159913641
 20
25.4302172243
 10
34.3581386578
 20
25.3857549978
 10
34.3989467285
 20
25.3386363685
 10
34.4382408287
 20
25.2890631066
 10
34.4758526973
 20
25.2372474886
 10
34.5116212716
 20
25.1834114005
 10
34.5453933768
 20
25.1277853901
 10
34.5770243849
 20
25.0706076807
 10
34.6063788624
 20
25.012123095
 10
34.6333311347
 20
24.9525820169
 10
34.6577658045
 20
24.8922393513
 10
34.6795782063
 20
24.8313535499
 10
34.6986748963
 20
24.7701854504
 10
34.714974094
 20
24.7089970467
 10
34.728406034
 20
24.6480502949
 10
34.7389132193
 20
24.5876061072
 10
34.7464506589
 20
24.5279232916
 10
34.7509860721
 20
24.4692574413
 10
34.7525000375
 20
24.4118597717
  0
LWPOLYLINE
  5
40F
100
AcDbEntity
  8
RACCORDO
100
AcDbPolyline
 62
7
  6
CONTINUOUS
 90
19
 70
0
 10
34.269000054
 20
25.6456394597
 10
34.3293631048
 20
25.6125766235
 10
34.3877835583
 20
25.5748143669
 10
34.4441611492
 20
25.5325198425
 10
34.498781663
 20
25.4854736168
 10
34.5511383452
 20
25.4340499796
 10
34.600077626
 20
25.3795285711
 10
34.6453777376
 20
25.3225068386
 10
34.6873415012
 20
25.2628833315
 10
34.7257462582
 20
25.2011737739
 10
34.7605427966
 20
25.1376550949
 10
34.7917407929
 20
25.072428519
 10
34.8192099781
 20
25.0058088384
 10
34.8429083597
 20
24.9378406368
 10
34.8626820761
 20
24.8687593707
 10
34.8782979438
 20
24.7991385245
 10
34.8896352288
 20
24.7292277384
 10
34.8965821
 20
24.6590068294
 10
34.8989466469
 20
24.588636467
  0
LWPOLYLINE
  5
410
100
AcDbEntity
  8
RACCORDO
100
AcDbPolyline
 62
7
  6
CONTINUOUS
 90
13
 70
0
 10
21.5896979908
 20
-37.5814298428
 10
21.6198458713
 20
-37.5649022202
 10
21.6460138552
 20
-37.5459370712
 10
21.6701832461
 20
-37.5236377966
 10
21.6922181174
 20
-37.4981292484
 10
21.7119953438
 20
-37.4695539689
 10
21.7294056165
 20
-37.4380711716
 10
21.7443500986
 20
-37.4038576281
 10
21.7567447974
 20
-37.3671047201
 10
21.7665229496
 20
-37.328016548
 10
21.7736296367
 20
-37.2868116162
 10
21.7780221402
 20
-37.2437216477
 10
21.7796740071
 20
-37.1989883537
  0
LINE
  5
411
100
AcDbEntity
  8
RACCORDO
100
AcDbLine
 62
7
  6
CONTINUOUS
 10
21.7796740071
 20
-37.1989883537
 11
23.4741468775
 21
-36.4164246293
  0
LINE
  5
412
100
AcDbEntity
  8
RACCORDO
100
AcDbLine
 62
7
  6
CONTINUOUS
 10
21.5889368295
 20
-37.5817828534
 11
23.284826407
 21
-36.7985648467
  0
LWPOLYLINE
  5
413
100
AcDbEntity
  8
RACCORDO
100
AcDbPolyline
 62
7
  6
CONTINUOUS
 90
16
 70
0
 10
21.7796740071
 20
-37.1989883525
 10
21.756249748
 20
-37.2091815136
 10
21.7308436071
 20
-37.2181093643
 10
21.7037277966
 20
-37.2256762479
 10
21.6751928468
 20
-37.2318010895
 10
21.6455444932
 20
-37.236418265
 10
21.6151004009
 20
-37.239478304
 10
21.5841867392
 20
-37.2409484203
 10
21.5531347516
 20
-37.2408128598
 10
21.5222772062
 20
-37.2390730803
 10
21.4919447134
 20
-37.2357477314
 10
21.4624622696
 20
-37.230872452
 10
21.4341458308
 20
-37.2244995069
 10
21.4072987903
 20
-37.2166972068
 10
21.3822087385
 20
-37.2075491611
 10
21.3591444616
 20
-37.1971534009
  0
LWPOLYLINE
  5
414
100
AcDbEntity
  8
RACCORDO
100
AcDbPolyline
 62
7
  6
CONTINUOUS
 90
4
 70
0
 10
-31.9528565236
 20
58.7332314999
 10
-31.893502624
 20
58.7163686607
 10
-31.8340392538
 20
58.6944932707
 10
-31.7747733088
 20
58.6675261411
  0
LWPOLYLINE
  5
415
100
AcDbEntity
  8
RACCORDO
100
AcDbPolyline
 62
7
  6
CONTINUOUS
 90
3
 70
0
 10
34.5453931357
 20
-56.9837320742
 10
34.5116210365
 20
-57.0055859396
 10
34.4926068626
 20
-57.0157867367
  0
LWPOLYLINE
  5
416
100
AcDbEntity
  8
RACCORDO
100
AcDbPolyline
 62
7
  6
CONTINUOUS
 90
15
 70
0
 10
30.9924282958
 20
-58.7658760202
 10
31.0114424696
 20
-58.755675223
 10
31.0452145688
 20
-58.7338213576
 10
31.0768456119
 20
-58.7082746665
 10
31.1062001345
 20
-58.6791445499
 10
31.1331524283
 20
-58.6465557536
 10
31.157587078
 20
-58.6106478307
 10
31.1793994526
 20
-58.5715745427
 10
31.1984961479
 20
-58.5295032086
 10
31.214795389
 20
-58.4846139858
 10
31.2282273808
 20
-58.4370990964
 10
31.238734606
 20
-58.3871620048
 10
31.2462720714
 20
-58.3350165487
 10
31.2508075
 20
-58.2808860237
 10
31.2523214706
 20
-58.2250022252
  0
LINE
  5
417
100
AcDbEntity
  8
RACCORDO
100
AcDbLine
 62
7
  6
CONTINUOUS
 10
31.2523214706
 20
-58.2250022252
 11
34.7525000375
 21
-56.4749129417
  0
LINE
  5
418
100
AcDbEntity
  8
RACCORDO
100
AcDbLine
 62
7
  6
CONTINUOUS
 10
30.9924282849
 20
-58.7658760256
 11
34.4926068518
 21
-57.0157867421
  0
LWPOLYLINE
  5
419
100
AcDbEntity
  8
RACCORDO
100
AcDbPolyline
 62
7
  6
CONTINUOUS
 90
13
 70
0
 10
30.9924282849
 20
-58.7658760256
 10
30.9436812762
 20
-58.7879225434
 10
30.8928400942
 20
-58.8062875928
 10
30.8401725243
 20
-58.8207561353
 10
30.7860771471
 20
-58.8311293003
 10
30.7307609593
 20
-58.8372938484
 10
30.6741957249
 20
-58.8391411903
 10
30.6166743519
 20
-58.8365217555
 10
30.5585218879
 20
-58.8293225194
 10
30.4996911064
 20
-58.8173804908
 10
30.4403372069
 20
-58.8005176515
 10
30.3808738366
 20
-58.7786422616
 10
30.3216078916
 20
-58.751675132
  0
ELLIPSE
  5
41A
100
AcDbEntity
  8
RACCORDO
100
AcDbEllipse
 62
7
  6
CONTINUOUS
 10
22.9790967322
 20
-36.1687148827
 30
0.0
 11
-0.313181275
 21
0.626269159
 31
0.0
 40
0.6121897086
 41
-3.160544254
 42
-2.2557347926
  0
ELLIPSE
  5
41B
100
AcDbEntity
  8
RACCORDO
100
AcDbEllipse
 62
7
  6
CONTINUOUS
 10
22.9790967322
 20
8.1716011031
 30
0.0
 11
-0.3130130858
 21
0.6261196575
 31
0.0
 40
0.6125552124
 41
-2.255296188
 42
-0.6848044477
  0
ELLIPSE
  5
41C
100
AcDbEntity
  8
RACCORDO
100
AcDbEllipse
 62
7
  6
CONTINUOUS
 10
-28.6395474974
 20
33.9809232179
 30
0.0
 11
-0.313181275
 21
0.626269159
 31
0.0
 40
0.6121897086
 41
-0.6846338794
 42
0.019259411
  0
ELLIPSE
  5
41D
100
AcDbEntity
  8
RACCORDO
100
AcDbEllipse
 62
7
  6
CONTINUOUS
 10
-26.6541374273
 20
-8.5581749783
 30
0.0
 11
-0.1341484654
 21
0.2683369961
 31
0.0
 40
0.6125552124
 41
0.8862964655
 42
2.4567882058
  0
ELLIPSE
  5
41E
100
AcDbEntity
  8
RACCORDO
100
AcDbEllipse
 62
7
  6
CONTINUOUS
 10
-26.1400697352
 20
-8.312741953
 30
0.0
 11
-0.1340229113
 21
0.2684080287
 31
0.0
 40
0.6140178746
 41
0.8880524522
 42
2.4561097232
  0
ELLIPSE
  5
41F
100
AcDbEntity
  8
RACCORDO
100
AcDbEllipse
 62
7
  6
CONTINUOUS
 10
-11.8589431975
 20
-15.332946252
 30
0.0
 11
-0.1342205464
 21
0.2684010681
 31
0.0
 40
0.6121897086
 41
-0.6846338794
 42
0.0192594208
  0
ELLIPSE
  5
420
100
AcDbEntity
  8
RACCORDO
100
AcDbEllipse
 62
7
  6
CONTINUOUS
 10
4.0509593792
 20
-23.2878975404
 30
0.0
 11
-0.1342205464
 21
0.2684010681
 31
0.0
 40
0.6121897086
 41
-0.6846338794
 42
0.0192594208
  0
ELLIPSE
  5
421
100
AcDbEntity
  8
RACCORDO
100
AcDbEllipse
 62
7
  6
CONTINUOUS
 10
-6.3447445638
 20
-18.0178232378
 30
0.0
 11
-0.1342205464
 21
0.2684010681
 31
0.0
 40
0.6121897086
 41
-0.6846338794
 42
0.019259411
  0
ELLIPSE
  5
422
100
AcDbEntity
  8
RACCORDO
100
AcDbEllipse
 62
7
  6
CONTINUOUS
 10
16.8273431344
 20
-29.6038670869
 30
0.0
 11
-0.1341371037
 21
0.2683722998
 31
0.0
 40
0.6123537661
 41
-0.6845550499
 42
0.0106825902
  0
ELLIPSE
  5
423
100
AcDbEntity
  8
RACCORDO
100
AcDbEllipse
 62
7
  6
CONTINUOUS
 10
0.7406638624
 20
-21.5605274509
 30
0.0
 11
-0.1341371037
 21
0.2683722998
 31
0.0
 40
0.6123537661
 41
-0.6845550499
 42
0.0106825902
  0
ELLIPSE
  5
424
100
AcDbEntity
  8
RACCORDO
100
AcDbEllipse
 62
7
  6
CONTINUOUS
 10
9.5651580129
 20
-25.9727745262
 30
0.0
 11
-0.1342205464
 21
0.2684010681
 31
0.0
 40
0.6121897086
 41
-0.6846338794
 42
0.019259411
  0
ELLIPSE
  5
425
100
AcDbEntity
  8
RACCORDO
100
AcDbEllipse
 62
7
  6
CONTINUOUS
 10
-14.992462019
 20
-13.6939645102
 30
0.0
 11
-0.1341371037
 21
0.2683722998
 31
0.0
 40
0.6123537661
 41
-0.6845550499
 42
0.0106825902
  0
ELLIPSE
  5
426
100
AcDbEntity
  8
RACCORDO
100
AcDbEllipse
 62
7
  6
CONTINUOUS
 10
-3.9262408934
 20
-19.227075073
 30
0.0
 11
-0.1341371037
 21
0.2683722998
 31
0.0
 40
0.6123537661
 41
-2.2553513767
 42
-0.6845550499
  0
ELLIPSE
  5
427
100
AcDbEntity
  8
RACCORDO
100
AcDbEllipse
 62
7
  6
CONTINUOUS
 10
-20.0129201654
 20
-11.183735437
 30
0.0
 11
-0.1341371037
 21
0.2683722998
 31
0.0
 40
0.6123537661
 41
-2.2553513767
 42
-0.6845550499
  0
ELLIPSE
  5
428
100
AcDbEntity
  8
RACCORDO
100
AcDbEllipse
 62
7
  6
CONTINUOUS
 10
-25.8112280848
 20
-1.8150890493
 30
0.0
 11
-0.1341484654
 21
0.2683369961
 31
0.0
 40
0.6125552124
 41
-2.255296188
 42
-0.6848044477
  0
ELLIPSE
  5
429
100
AcDbEntity
  8
RACCORDO
100
AcDbEllipse
 62
7
  6
CONTINUOUS
 10
-25.8112280848
 20
25.0831738208
 30
0.0
 11
-0.1342205464
 21
0.2684010681
 31
0.0
 40
0.6121897086
 41
-3.160544254
 42
-2.2557347926
  0
ELLIPSE
  5
42A
100
AcDbEntity
  8
RACCORDO
100
AcDbEllipse
 62
7
  6
CONTINUOUS
 10
-12.750735044
 20
-14.8148279977
 30
0.0
 11
-0.1341484654
 21
0.2683369961
 31
0.0
 40
0.6125552124
 41
-2.255296188
 42
-0.6848044477
  0
ELLIPSE
  5
42B
100
AcDbEntity
  8
RACCORDO
100
AcDbEllipse
 62
7
  6
CONTINUOUS
 10
3.1591675327
 20
-22.769779286
 30
0.0
 11
-0.1341484654
 21
0.2683369961
 31
0.0
 40
0.6125552124
 41
-2.255296188
 42
-0.6848044477
  0
ELLIPSE
  5
42C
100
AcDbEntity
  8
RACCORDO
100
AcDbEllipse
 62
7
  6
CONTINUOUS
 10
11.806884988
 20
-27.0936380137
 30
0.0
 11
-0.1341371037
 21
0.2683722998
 31
0.0
 40
0.6123537661
 41
-2.2553513767
 42
-0.6845550499
  0
ELLIPSE
  5
42D
100
AcDbEntity
  8
RACCORDO
100
AcDbEllipse
 62
7
  6
CONTINUOUS
 10
-25.8112280848
 20
17.2374698339
 30
0.0
 11
-0.1341484654
 21
0.2683369961
 31
0.0
 40
0.6125552124
 41
-2.255296188
 42
-0.6848044477
  0
ELLIPSE
  5
42E
100
AcDbEntity
  8
RACCORDO
100
AcDbEllipse
 62
7
  6
CONTINUOUS
 10
-25.8112280848
 20
6.0306149375
 30
0.0
 11
-0.1342205464
 21
0.2684010681
 31
0.0
 40
0.6121897086
 41
-3.160544254
 42
-2.2557347926
  0
ELLIPSE
  5
42F
100
AcDbEntity
  8
ASSI
100
AcDbEllipse
 62
7
  6
CONTINUOUS
 10
15.8653374006
 20
-27.5243303509
 30
0.0
 11
0.0974129977
 21
0.1748074534
 31
0.0
 40
0.6437101552
 41
0.6611775963
 42
0.7135374739
  0
ELLIPSE
  5
430
100
AcDbEntity
  8
ASSI
100
AcDbEllipse
 62
7
  6
CONTINUOUS
 10
-15.9544677528
 20
-11.6144277742
 30
0.0
 11
0.0974129977
 21
0.1748074534
 31
0.0
 40
0.6437101552
 41
0.6611775963
 42
0.7135374739
  0
ELLIPSE
  5
431
100
AcDbEntity
  8
ASSI
100
AcDbEllipse
 62
7
  6
CONTINUOUS
 10
-12.5886696355
 20
-14.5538883202
 30
0.0
 11
0.2227969873
 21
0.3604931982
 31
0.0
 40
0.5587445887
 41
-2.1584747401
 42
-1.7805701384
  0
ELLIPSE
  5
432
100
AcDbEntity
  8
RACCORDO
100
AcDbEllipse
 62
7
  6
CONTINUOUS
 10
8.5319448102
 20
-25.5283902559
 30
0.0
 11
-0.1341484654
 21
0.2683369961
 31
0.0
 40
0.6125552124
 41
-2.255296188
 42
-0.6848044477
  0
ELLIPSE
  5
433
100
AcDbEntity
  8
RACCORDO
100
AcDbEllipse
 62
7
  6
CONTINUOUS
 10
-7.3779577665
 20
-17.5734389676
 30
0.0
 11
-0.1341484654
 21
0.2683369961
 31
0.0
 40
0.6125552124
 41
-2.255296188
 42
-0.6848044477
  0
ELLIPSE
  5
434
100
AcDbEntity
  8
RACCORDO
100
AcDbEllipse
 62
7
  6
CONTINUOUS
 10
-25.8831730224
 20
4.8170566975
 30
0.0
 11
-0.1341484654
 21
0.2683369961
 31
0.0
 40
0.6125552124
 41
-2.255296188
 42
-0.6848044477
  0
ELLIPSE
  5
435
100
AcDbEntity
  8
RACCORDO
100
AcDbEllipse
 62
7
  6
CONTINUOUS
 10
-25.8831730224
 20
-0.671007228
 30
0.0
 11
-0.1342205464
 21
0.2684010681
 31
0.0
 40
0.6121897086
 41
-3.160544254
 42
-2.2557347926
  0
ELLIPSE
  5
436
100
AcDbEntity
  8
RACCORDO
100
AcDbEllipse
 62
7
  6
CONTINUOUS
 10
-25.8831730224
 20
23.8696155808
 30
0.0
 11
-0.1341484654
 21
0.2683369961
 31
0.0
 40
0.6125552124
 41
-2.255296188
 42
-0.6848044477
  0
ELLIPSE
  5
437
100
AcDbEntity
  8
RACCORDO
100
AcDbEllipse
 62
7
  6
CONTINUOUS
 10
-25.8831730224
 20
18.3815516553
 30
0.0
 11
-0.1342205464
 21
0.2684010681
 31
0.0
 40
0.6121897086
 41
-3.160544254
 42
-2.2557347926
  0
ELLIPSE
  5
438
100
AcDbEntity
  8
RACCORDO
100
AcDbEllipse
 62
7
  6
CONTINUOUS
 10
-26.2856801488
 20
24.4368376066
 30
0.0
 11
0.4999863728
 21
0.0072295547
 31
0.0
 40
0.5106100819
 41
-0.775327905
 42
-0.0072939168
  0
ELLIPSE
  5
439
100
AcDbEntity
  8
RACCORDO
100
AcDbEllipse
 62
7
  6
CONTINUOUS
 10
-26.2856801488
 20
5.3842787234
 30
0.0
 11
0.4999863728
 21
0.0072295547
 31
0.0
 40
0.5106100819
 41
-0.775327905
 42
-0.0072939168
  0
ELLIPSE
  5
43A
100
AcDbEntity
  8
RACCORDO
100
AcDbEllipse
 62
7
  6
CONTINUOUS
 10
-6.9005559129
 20
-18.3176962119
 30
0.0
 11
-0.1342205464
 21
0.2684010681
 31
0.0
 40
0.6121897086
 41
-0.6846338794
 42
0.3837650063
  0
ELLIPSE
  5
43B
100
AcDbEntity
  8
RACCORDO
100
AcDbEllipse
 62
7
  6
CONTINUOUS
 10
-4.4919263184
 20
-19.5220110092
 30
0.0
 11
-0.1341371037
 21
0.2683722998
 31
0.0
 40
0.6123537661
 41
-1.7529559873
 42
-0.6845550499
  0
ELLIPSE
  5
43C
100
AcDbEntity
  8
RACCORDO
100
AcDbEllipse
 62
7
  6
CONTINUOUS
 10
0.1749784374
 20
-21.8554633871
 30
0.0
 11
-0.1341371037
 21
0.2683722998
 31
0.0
 40
0.6123537661
 41
-0.6845550499
 42
0.3838458874
  0
ELLIPSE
  5
43D
100
AcDbEntity
  8
RACCORDO
100
AcDbEllipse
 62
7
  6
CONTINUOUS
 10
2.5836080319
 20
-23.0597781843
 30
0.0
 11
-0.1341484654
 21
0.2683369961
 31
0.0
 40
0.6125552124
 41
-1.7532033366
 42
-0.6848044477
  0
ELLIPSE
  5
43E
100
AcDbEntity
  8
RACCORDO
100
AcDbEllipse
 62
7
  6
CONTINUOUS
 10
-26.3867875856
 20
16.9474709357
 30
0.0
 11
-0.1341484654
 21
0.2683369961
 31
0.0
 40
0.6125552124
 41
-2.255296188
 42
-0.8469459614
  0
ELLIPSE
  5
43F
100
AcDbEntity
  8
ASSI
100
AcDbEllipse
 62
7
  6
CONTINUOUS
 10
-11.6970039073
 20
-13.743159697
 30
0.0
 11
0.0823576675
 21
0.1823694112
 31
0.0
 40
0.5796795686
 41
0.6094740628
 42
0.6618339404
  0
ELLIPSE
  5
440
100
AcDbEntity
  8
RACCORDO
100
AcDbEllipse
 62
7
  6
CONTINUOUS
 10
16.2616577094
 20
-29.8988030231
 30
0.0
 11
-0.1341371037
 21
0.2683722998
 31
0.0
 40
0.6123537661
 41
-0.6845550499
 42
0.3838458874
  0
ELLIPSE
  5
441
100
AcDbEntity
  8
RACCORDO
100
AcDbEllipse
 62
7
  6
CONTINUOUS
 10
9.0093466638
 20
-26.2726475003
 30
0.0
 11
-0.1342205464
 21
0.2684010681
 31
0.0
 40
0.6121897086
 41
-0.6846338794
 42
0.3837650063
  0
ELLIPSE
  5
442
100
AcDbEntity
  8
RACCORDO
100
AcDbEllipse
 62
7
  6
CONTINUOUS
 10
11.241199563
 20
-27.3885739499
 30
0.0
 11
-0.1341371037
 21
0.2683722998
 31
0.0
 40
0.6123537661
 41
-1.7529559873
 42
-0.6845550499
  0
ELLIPSE
  5
443
100
AcDbEntity
  8
RACCORDO
100
AcDbEllipse
 62
7
  6
CONTINUOUS
 10
-15.558147444
 20
-13.9889004464
 30
0.0
 11
-0.1341371037
 21
0.2683722998
 31
0.0
 40
0.6123537661
 41
-0.6845550499
 42
0.3838458874
  0
ELLIPSE
  5
444
100
AcDbEntity
  8
RACCORDO
100
AcDbEllipse
 62
7
  6
CONTINUOUS
 10
-13.3262945448
 20
-15.104826896
 30
0.0
 11
-0.1341484654
 21
0.2683369961
 31
0.0
 40
0.6125552124
 41
-1.7532033366
 42
-0.6848044477
  0
ELLIPSE
  5
445
100
AcDbEntity
  8
RACCORDO
100
AcDbEllipse
 62
7
  6
CONTINUOUS
 10
-26.3867875856
 20
-2.1050879476
 30
0.0
 11
-0.1341484654
 21
0.2683369961
 31
0.0
 40
0.6125552124
 41
-2.255296188
 42
-0.8469459614
  0
ELLIPSE
  5
446
100
AcDbEntity
  8
RACCORDO
100
AcDbEllipse
 62
7
  6
CONTINUOUS
 10
-20.5786055904
 20
-11.4786713732
 30
0.0
 11
-0.1341371037
 21
0.2683722998
 31
0.0
 40
0.6123537661
 41
-1.7529559873
 42
-0.6845550499
  0
ELLIPSE
  5
447
100
AcDbEntity
  8
RACCORDO
100
AcDbEllipse
 62
7
  6
CONTINUOUS
 10
-26.8184572112
 20
4.3458084878
 30
0.0
 11
-0.1341484654
 21
0.2683369961
 31
0.0
 40
0.6125552124
 41
-2.255296188
 42
-0.6848044477
  0
ELLIPSE
  5
448
100
AcDbEntity
  8
RACCORDO
100
AcDbEllipse
 62
7
  6
CONTINUOUS
 10
-26.8184572112
 20
23.3983673711
 30
0.0
 11
-0.1341484654
 21
0.2683369961
 31
0.0
 40
0.6125552124
 41
-2.255296188
 42
-0.6848044477
  0
ELLIPSE
  5
449
100
AcDbEntity
  8
RACCORDO
100
AcDbEllipse
 62
7
  6
CONTINUOUS
 10
-26.8184572112
 20
17.9496064227
 30
0.0
 11
-0.1342205464
 21
0.2684010681
 31
0.0
 40
0.6121897086
 41
2.4569587742
 42
4.0274505145
  0
ELLIPSE
  5
44A
100
AcDbEntity
  8
RACCORDO
100
AcDbEllipse
 62
7
  6
CONTINUOUS
 10
-26.8184572112
 20
-1.1029524606
 30
0.0
 11
-0.1342205464
 21
0.2684010681
 31
0.0
 40
0.6121897086
 41
2.4569587742
 42
4.0274505145
  0
ELLIPSE
  5
44B
100
AcDbEntity
  8
ASSI
100
AcDbEllipse
 62
7
  6
CONTINUOUS
 10
-11.8386193425
 20
-14.1845526967
 30
0.0
 11
0.1997674032
 21
0.1243735635
 31
0.0
 40
0.0775313764
 41
5.4495541764
 42
6.9679906257
  0
ELLIPSE
  5
44C
100
AcDbEntity
  8
RACCORDO
100
AcDbEllipse
 62
7
  6
CONTINUOUS
 10
7.5966606215
 20
-25.9996384656
 30
0.0
 11
-0.1341484654
 21
0.2683369961
 31
0.0
 40
0.6125552124
 41
4.4548343439
 42
5.5983808594
  0
ELLIPSE
  5
44D
100
AcDbEntity
  8
RACCORDO
100
AcDbEllipse
 62
7
  6
CONTINUOUS
 10
3.1477659368
 20
-23.7751911233
 30
0.0
 11
-0.1342205464
 21
0.2684010681
 31
0.0
 40
0.6121897086
 41
-0.6846338794
 42
0.6678777033
  0
ELLIPSE
  5
44E
100
AcDbEntity
  8
RACCORDO
100
AcDbEllipse
 62
7
  6
CONTINUOUS
 10
-8.3132419552
 20
-18.0446871773
 30
0.0
 11
-0.1341484654
 21
0.2683369961
 31
0.0
 40
0.6125552124
 41
4.4548343439
 42
5.5983808594
  0
ELLIPSE
  5
44F
100
AcDbEntity
  8
RACCORDO
100
AcDbEllipse
 62
7
  6
CONTINUOUS
 10
-12.7621366399
 20
-15.8202398349
 30
0.0
 11
-0.1342205464
 21
0.2684010681
 31
0.0
 40
0.6121897086
 41
-0.6846338794
 42
0.6678777033
  0
ELLIPSE
  5
450
100
AcDbEntity
  8
RACCORDO
100
AcDbEllipse
 62
7
  6
CONTINUOUS
 10
-26.3867875856
 20
5.7648024867
 30
0.0
 11
-0.1342205464
 21
0.2684010681
 31
0.0
 40
0.6121897086
 41
2.6191002879
 42
4.0274505145
  0
ELLIPSE
  5
451
100
AcDbEntity
  8
RACCORDO
100
AcDbEllipse
 62
7
  6
CONTINUOUS
 10
-26.3867875856
 20
24.81736137
 30
0.0
 11
-0.1342205464
 21
0.2684010681
 31
0.0
 40
0.6121897086
 41
2.6191002879
 42
4.0274505145
  0
ENDSEC
  0
SECTION
  2
OBJECTS
  0
DICTIONARY
  5
C
100
AcDbDictionary
280
0
281
1
  3
ACAD_GROUP
350
D
  3
ACAD_MLINESTYLE
350
17
  3
ACAD_LAYOUT
350
1A
  3
ACAD_PLOTSETTINGS
350
19
  3
ACAD_PLOTSTYLENAME
350
E
  0
DICTIONARY
  5
D
102
{ACAD_REACTORS
330
C
102
}
100
AcDbDictionary
280
0
281
1
  0
ACDBDICTIONARYWDFLT
  5
E
102
{ACAD_REACTORS
330
C
102
}
100
AcDbDictionary
281
1
  3
Normal
350
F
100
AcDbDictionaryWithDefault
340
F
  0
DICTIONARY
  5
17
102
{ACAD_REACTORS
330
C
102
}
100
AcDbDictionary
280
0
281
1
  3
Standard
350
18
  0
DICTIONARY
  5
19
102
{ACAD_REACTORS
330
C
102
}
100
AcDbDictionary
281
1
  0
DICTIONARY
  5
1A
102
{ACAD_REACTORS
330
C
102
}
100
AcDbDictionary
281
1
  3
Model
350
452
  3
Layout1
350
453
  0
ACDBPLACEHOLDER
  5
F
102
{ACAD_REACTORS
330
E
102
}
  0
MLINESTYLE
  5
18
102
{ACAD_REACTORS
330
17
102
}
100
AcDbMlineStyle
  2
STANDARD
 70
0
  3

 62
256
 51
90.0
 52
90.0
 71
2
 49
0.5
 62
256
  6
BYLAYER
 49
-0.5
 62
256
  6
BYLAYER
  0
LAYOUT
  5
452
102
{ACAD_REACTORS
330
1A
102
}
100
AcDbPlotSettings
  1

  2
none_device
  4
ISO_A4_(297.00_x_210.00_MM)
  6

 40
0.0
 41
0.0
 42
0.0
 43
0.0
 44
297.0
 45
210.0
 46
0.0
 47
0.0
 48
0.0
 49
0.0
140
0.0
141
0.0
142
1.0
143
1.0
 70
1024
 72
1
 73
0
 74
0
  7

 75
0
147
1.0
148
0.0
149
0.0
100
AcDbLayout
  1
Model
 70
0
 71
0
 10
0.0
 20
0.0
 11
297.0
 21
210.0
 12
0.0
 22
0.0
 32
0.0
 14
0.0
 24
0.0
 34
0.0
 15
0.0
 25
0.0
 35
0.0
146
0.0
 13
0.0
 23
0.0
 33
0.0
 16
1.0
 26
0.0
 36
0.0
 17
0.0
 27
1.0
 37
0.0
 76
0
330
212
345
0
346
0
  0
LAYOUT
  5
453
102
{ACAD_REACTORS
330
1A
102
}
100
AcDbPlotSettings
  1

  2
none_device
  4
ISO_A4_(297.00_x_210.00_MM)
  6

 40
0.0
 41
0.0
 42
0.0
 43
0.0
 44
297.0
 45
210.0
 46
0.0
 47
0.0
 48
0.0
 49
0.0
140
0.0
141
0.0
142
1.0
143
1.0
 70
0
 72
1
 73
0
 74
0
  7

 75
0
147
1.0
148
0.0
149
0.0
100
AcDbLayout
  1
Layout1
 70
0
 71
1
 10
0.0
 20
0.0
 11
297.0
 21
210.0
 12
0.0
 22
0.0
 32
0.0
 14
0.0
 24
0.0
 34
0.0
 15
0.0
 25
0.0
 35
0.0
146
0.0
 13
0.0
 23
0.0
 33
0.0
 16
1.0
 26
0.0
 36
0.0
 17
0.0
 27
1.0
 37
0.0
 76
0
330
213
345
0
346
0
  0
ENDSEC
  0
EOF
