  0
SECTION
  2
HEADER
  9
$ACADVER
  1
AC1015
  9
$DWGCODEPAGE
  3
ANSI_1252
  9
$EXTMAX
 10
297.0
 20
210.0
 30
0.0
  9
$EXTMIN
 10
0.0
 20
0.0
 30
0.0
  9
$LIMMIN
 10
0.0
 20
0.0
  9
$LIMMAX
 10
297.0
 20
210.0
  9
$VIEWCTR
 10
148.5
 20
105.0
  9
$VIEWSIZE
 40
210.0
  9
$CLAYER
  8
0
  9
$LTSCALE
 40
16.335
  9
$CELTYPE
  6
BYLAYER
  9
$DIMSCALE
 40
1.0
  9
$DIMASZ
 40
3.0
  9
$DIMEXO
 40
0.5
  9
$DIMDLI
 40
11.286
  9
$DIMEXE
 40
1.5
  9
$DIMCEN
 40
2.673
  9
$DIMLFAC
 40
1.0
  9
$DIMBLK
  1
_FILLED
  9
$DIMTXT
 40
3.0
  9
$DIMTOL
 70
1
  9
$DIMLIM
 70
0
  9
$DIMTFAC
 40
1.0
  9
$DIMTP
 40
0.01
  9
$DIMTM
 40
0.01
  9
$DIMGAP
 40
0.625
  9
$DIMDSEP
 70
44
  9
$PDMODE
 70
3
  9
$PDSIZE
 40
3.0
  9
$HANDSEED
  5
46E
  9
$TILEMODE
 70
1
  9
$MEASUREMENT
 70
1
  9
$INSUNITS
 70
4
  0
ENDSEC
  0
SECTION
  2
CLASSES
  0
CLASS
  1
ACDBDICTIONARYWDFLT
  2
AcDbDictionaryWithDefault
  3
AutoCAD 2000
 90
0
280
0
281
0
  0
CLASS
  1
ACDBPLACEHOLDER
  2
AcDbPlaceHolder
  3
AutoCAD 2000
 90
0
280
0
281
0
  0
CLASS
  1
LAYOUT
  2
AcDbLayout
  3
AutoCAD 2000
 90
0
280
0
281
0
  0
ENDSEC
  0
SECTION
  2
TABLES
  0
TABLE
  2
VPORT
  5
8
100
AcDbSymbolTable
 70
2
  0
VPORT
  5
1F4
100
AcDbSymbolTableRecord
100
AcDbViewportTableRecord
  2
*ACTIVE
 70
0
 10
0.0
 20
0.0
 11
1.0
 21
1.0
 12
148.5
 22
105.0
 13
0.0
 23
0.0
 14
1.0
 24
1.0
 15
0.0
 25
0.0
 16
0.0
 26
0.0
 36
1.0
 17
0.0
 27
0.0
 37
0.0
 40
210.0
 41
1.4142857143
 42
50.0
 43
0.0
 44
0.0
 50
0.0
 51
0.0
 71
0
 72
100
 73
1
 74
1
 75
0
 76
0
 77
0
 78
0
  0
ENDTAB
  0
TABLE
  2
LTYPE
  5
5
100
AcDbSymbolTable
 70
6
  0
LTYPE
  5
14
100
AcDbSymbolTableRecord
100
AcDbLinetypeTableRecord
  2
BYBLOCK
 70
0
  3

 72
65
 73
0
 40
0.0
  0
LTYPE
  5
15
100
AcDbSymbolTableRecord
100
AcDbLinetypeTableRecord
  2
BYLAYER
 70
0
  3

 72
65
 73
0
 40
0.0
  0
LTYPE
  5
16
100
AcDbSymbolTableRecord
100
AcDbLinetypeTableRecord
  2
CONTINUOUS
 70
64
  3
Solid line
 72
65
 73
0
 40
0.0
  0
LTYPE
  5
1F5
100
AcDbSymbolTableRecord
100
AcDbLinetypeTableRecord
  2
CENTER
 70
64
  3
____ _ ____ _ ____ _ ____ _ ____ _ ____ _ ____
 72
65
 73
4
 40
0.6
 49
0.375
 74
0
 49
-0.075
 74
0
 49
0.075
 74
0
 49
-0.075
 74
0
  0
LTYPE
  5
1F6
100
AcDbSymbolTableRecord
100
AcDbLinetypeTableRecord
  2
HIDDEN
 70
64
  3
- - - - - - - - - - - - - - - - - - - -
 72
65
 73
2
 40
0.2
 49
0.1
 74
0
 49
-0.1
 74
0
  0
LTYPE
  5
1F7
100
AcDbSymbolTableRecord
100
AcDbLinetypeTableRecord
  2
PHANTOM
 70
64
  3
_____ _ _ _____ _ _ _____ _ _ _____
 72
65
 73
6
 40
0.8
 49
0.45
 74
0
 49
-0.05
 74
0
 49
0.1
 74
0
 49
-0.05
 74
0
 49
0.1
 74
0
 49
-0.05
 74
0
  0
LTYPE
  5
1F8
100
AcDbSymbolTableRecord
100
AcDbLinetypeTableRecord
  2
DOT
 70
64
  3
. . . . . . . . . . . . . . . . . . . .
 72
65
 73
2
 40
0.2
 49
0.1
 74
0
 49
-0.1
 74
0
  0
LTYPE
  5
1F9
100
AcDbSymbolTableRecord
100
AcDbLinetypeTableRecord
  2
DASHED
 70
64
  3
- - - - - - - - - - - - - - - - - - - -
 72
65
 73
2
 40
0.2
 49
0.1
 74
0
 49
-0.1
 74
0
  0
ENDTAB
  0
TABLE
  2
LAYER
  5
2
100
AcDbSymbolTable
 70
36
  0
LAYER
  5
10
100
AcDbSymbolTableRecord
100
AcDbLayerTableRecord
  2
0
 70
0
 62
7
  6
CONTINUOUS
370
-3
390
F
  0
LAYER
  5
1FA
100
AcDbSymbolTableRecord
100
AcDbLayerTableRecord
  2
DEFAULT_1
 70
0
 62
7
  6
CENTER
370
-3
390
F
  0
LAYER
  5
1FB
100
AcDbSymbolTableRecord
100
AcDbLayerTableRecord
  2
DEFAULT_2
 70
0
 62
7
  6
HIDDEN
370
-3
390
F
  0
LAYER
  5
1FC
100
AcDbSymbolTableRecord
100
AcDbLayerTableRecord
  2
DEFAULT_3
 70
0
 62
7
  6
PHANTOM
370
-3
390
F
  0
LAYER
  5
1FD
100
AcDbSymbolTableRecord
100
AcDbLayerTableRecord
  2
ASSI
 70
0
 62
7
  6
CONTINUOUS
370
-3
390
F
  0
LAYER
  5
1FE
100
AcDbSymbolTableRecord
100
AcDbLayerTableRecord
  2
COORDINATE
 70
0
 62
7
  6
CONTINUOUS
370
-3
390
F
  0
LAYER
  5
1FF
100
AcDbSymbolTableRecord
100
AcDbLayerTableRecord
  2
COORD_ORIGINE
 70
0
 62
7
  6
CONTINUOUS
370
-3
390
F
  0
LAYER
  5
200
100
AcDbSymbolTableRecord
100
AcDbLayerTableRecord
  2
COPY_PUBLISH
 70
0
 62
7
  6
CONTINUOUS
370
-3
390
F
  0
LAYER
  5
201
100
AcDbSymbolTableRecord
100
AcDbLayerTableRecord
  2
COSMETIC
 70
0
 62
7
  6
CONTINUOUS
370
-3
390
F
  0
LAYER
  5
202
100
AcDbSymbolTableRecord
100
AcDbLayerTableRecord
  2
CURVE
 70
0
 62
7
  6
CONTINUOUS
370
-3
390
F
  0
LAYER
  5
203
100
AcDbSymbolTableRecord
100
AcDbLayerTableRecord
  2
DRAFT
 70
0
 62
7
  6
CONTINUOUS
370
-3
390
F
  0
LAYER
  5
204
100
AcDbSymbolTableRecord
100
AcDbLayerTableRecord
  2
IMPORT_IGES
 70
0
 62
7
  6
CONTINUOUS
370
-3
390
F
  0
LAYER
  5
205
100
AcDbSymbolTableRecord
100
AcDbLayerTableRecord
  2
INTFCLR_2
 70
0
 62
7
  6
CONTINUOUS
370
-3
390
F
  0
LAYER
  5
206
100
AcDbSymbolTableRecord
100
AcDbLayerTableRecord
  2
PIANI
 70
0
 62
7
  6
CONTINUOUS
370
-3
390
F
  0
LAYER
  5
207
100
AcDbSymbolTableRecord
100
AcDbLayerTableRecord
  2
PIANI_ORIGINE
 70
0
 62
7
  6
CONTINUOUS
370
-3
390
F
  0
LAYER
  5
208
100
AcDbSymbolTableRecord
100
AcDbLayerTableRecord
  2
PIANI_RIFERIMENTO
 70
0
 62
7
  6
CONTINUOUS
370
-3
390
F
  0
LAYER
  5
209
100
AcDbSymbolTableRecord
100
AcDbLayerTableRecord
  2
PUNTI
 70
0
 62
7
  6
CONTINUOUS
370
-3
390
F
  0
LAYER
  5
20A
100
AcDbSymbolTableRecord
100
AcDbLayerTableRecord
  2
RACCORDO
 70
0
 62
7
  6
CONTINUOUS
370
-3
390
F
  0
LAYER
  5
20B
100
AcDbSymbolTableRecord
100
AcDbLayerTableRecord
  2
SMUSSO
 70
0
 62
7
  6
CONTINUOUS
370
-3
390
F
  0
LAYER
  5
20C
100
AcDbSymbolTableRecord
100
AcDbLayerTableRecord
  2
SNAPLINE
 70
0
 62
7
  6
CONTINUOUS
370
-3
390
F
  0
LAYER
  5
20D
100
AcDbSymbolTableRecord
100
AcDbLayerTableRecord
  2
SUPERFICI
 70
0
 62
7
  6
CONTINUOUS
370
-3
390
F
  0
LAYER
  5
20E
100
AcDbSymbolTableRecord
100
AcDbLayerTableRecord
  2
TRASH
 70
0
 62
7
  6
CONTINUOUS
370
-3
390
F
  0
LAYER
  5
20F
100
AcDbSymbolTableRecord
100
AcDbLayerTableRecord
  2
XSEC_DATUMS
 70
0
 62
7
  6
CONTINUOUS
370
-3
390
F
  0
ENDTAB
  0
TABLE
  2
STYLE
  5
3
100
AcDbSymbolTable
 70
1
  0
STYLE
  5
11
100
AcDbSymbolTableRecord
100
AcDbTextStyleTableRecord
  2
STANDARD
 70
0
 40
0.0
 41
0.8
 50
0.0
 71
0
 42
0.2
  3
txt
  4

  0
STYLE
  5
210
100
AcDbSymbolTableRecord
100
AcDbTextStyleTableRecord
  2
TEXTSTYLE_1
 70
0
 40
0.0
 41
0.8
 50
0.0
 71
0
 42
0.2
  3
gdt
  4

  0
ENDTAB
  0
TABLE
  2
VIEW
  5
6
100
AcDbSymbolTable
 70
0
  0
ENDTAB
  0
TABLE
  2
UCS
  5
7
100
AcDbSymbolTable
 70
0
  0
ENDTAB
  0
TABLE
  2
APPID
  5
9
100
AcDbSymbolTable
 70
1
  0
APPID
  5
211
100
AcDbSymbolTableRecord
100
AcDbRegAppTableRecord
  2
ACAD
 70
0
  0
ENDTAB
  0
TABLE
  2
BLOCK_RECORD
  5
1
100
AcDbSymbolTable
 70
0
  0
BLOCK_RECORD
  5
212
100
AcDbSymbolTableRecord
100
AcDbBlockTableRecord
  2
*Model_Space
  0
BLOCK_RECORD
  5
213
100
AcDbSymbolTableRecord
100
AcDbBlockTableRecord
  2
*Paper_Space
  0
ENDTAB
  0
TABLE
  2
DIMSTYLE
  5
A
100
AcDbSymbolTable
 70
1
100
AcDbDimStyleTable
 71
0
  0
DIMSTYLE
105
214
100
AcDbSymbolTableRecord
100
AcDbDimStyleTableRecord
  2
STANDARD
 70
0
  3

  4

 40
1.0
 41
3.0
 42
0.5
 43
0.38
 44
1.5
 45
0.0
 46
0.0
 47
0.01
 48
0.01
140
3.0
141
0.09
142
0.0
143
25.4
144
1.0
145
0.0
146
1.0
147
0.625
 71
1.0
 72
0.0
 73
0
 74
0
 75
0
 76
0
 77
1
 78
8
170
0
171
2
172
0
173
0
174
0
175
0
176
0
177
0
178
0
270
2
271
2
272
2
273
2
274
2
275
0
280
0
281
0
282
0
283
1
284
8
285
0
286
0
287
3
288
0
340
11
278
44
  0
ENDTAB
  0
ENDSEC
  0
SECTION
  2
BLOCKS
  0
BLOCK
  5
20
100
AcDbEntity
  8
0
100
AcDbBlockBegin
  2
*Model_Space
 70
0
 10
0.0
 20
0.0
 30
0.0
  3
*Model_Space
  1

  0
ENDBLK
  5
21
100
AcDbEntity
  8
0
100
AcDbBlockEnd
  0
BLOCK
  5
1C
100
AcDbEntity
  8
0
100
AcDbBlockBegin
  2
*Paper_Space
 70
0
 10
0.0
 20
0.0
 30
0.0
  3
*Paper_Space
  1

  0
ENDBLK
  5
1D
100
AcDbEntity
  8
0
100
AcDbBlockEnd
  0
ENDSEC
  0
SECTION
  2
ENTITIES
  0
LINE
  5
215
100
AcDbEntity
  8
DRAFT
100
AcDbLine
 62
7
  6
CONTINUOUS
 10
-33.7220285351
 20
57.0106111703
 11
-31.6228292153
 21
58.1187985195
  0
LINE
  5
216
100
AcDbEntity
  8
DRAFT
100
AcDbLine
 62
7
  6
CONTINUOUS
 10
-33.0639843052
 20
56.9749754153
 11
-30.9409618058
 21
58.0818726434
  0
LINE
  5
217
100
AcDbEntity
  8
RACCORDO
100
AcDbLine
 62
7
  6
CONTINUOUS
 10
-35.755551519
 20
56.3587963708
 11
-34.640866594
 21
56.9161388333
  0
LINE
  5
218
100
AcDbEntity
  8
SMUSSO
100
AcDbLine
 62
7
  6
CONTINUOUS
 10
-35.2543131703
 20
56.3574069602
 11
-34.1936529985
 21
56.8877370461
  0
LWPOLYLINE
  5
219
100
AcDbEntity
  8
DRAFT
100
AcDbPolyline
 62
7
  6
CONTINUOUS
 90
12
 70
0
 10
-31.6228292153
 20
58.1187985195
 10
-31.586650807
 20
58.1362752585
 10
-31.530233024
 20
58.1575808568
 10
-31.4712918911
 20
58.1729995803
 10
-31.4100798033
 20
58.1824654036
 10
-31.3468588803
 20
58.1859377927
 10
-31.2818998437
 20
58.1834018782
 10
-31.215480858
 20
58.1748685194
 10
-31.1478863397
 20
58.1603742573
 10
-31.0794057388
 20
58.1399811588
 10
-31.0103322998
 20
58.11377655
 10
-30.9409618058
 20
58.0818726434
  0
LWPOLYLINE
  5
21A
100
AcDbEntity
  8
DRAFT
100
AcDbPolyline
 62
7
  6
CONTINUOUS
 90
12
 70
0
 10
-33.7220285351
 20
57.0106111703
 10
-33.6871141344
 20
57.027477304
 10
-33.6326674838
 20
57.0480385244
 10
-33.5757856445
 20
57.0629185465
 10
-33.5167121934
 20
57.0720536516
 10
-33.4557000918
 20
57.075404722
 10
-33.3930106032
 20
57.0729574078
 10
-33.3289121734
 20
57.0647221887
 10
-33.2636792818
 20
57.0507343293
 10
-33.1975912656
 20
57.0310537277
 10
-33.1309311238
 20
57.0057646592
 10
-33.0639843055
 20
56.9749754155
  0
LWPOLYLINE
  5
21B
100
AcDbEntity
  8
SMUSSO
100
AcDbPolyline
 62
7
  6
CONTINUOUS
 90
12
 70
0
 10
-34.6408665986
 20
56.9161388311
 10
-34.6241119557
 20
56.9240056225
 10
-34.5865000479
 20
56.9382093255
 10
-34.5472058595
 20
56.9484884473
 10
-34.5063976881
 20
56.9547989533
 10
-34.4642503899
 20
56.9571138174
 10
-34.4209445561
 20
56.9554231635
 10
-34.3766655387
 20
56.9497342692
 10
-34.3316027526
 20
56.9400714722
 10
-34.2859490906
 20
56.9264761028
 10
-34.2399001102
 20
56.9090063658
 10
-34.1936529985
 20
56.8877370461
  0
LWPOLYLINE
  5
21C
100
AcDbEntity
  8
DRAFT
100
AcDbPolyline
 62
7
  6
CONTINUOUS
 90
8
 70
0
 10
-33.9614685344
 20
56.7716448141
 10
-33.9504502273
 20
56.7913823099
 10
-33.9150788267
 20
56.8433623507
 10
-33.8760629087
 20
56.890537648
 10
-33.8335695455
 20
56.9327061898
 10
-33.7877807001
 20
56.9696874041
 10
-33.7388924474
 20
57.0013229315
 10
-33.7220285351
 20
57.0106111703
  0
LINE
  5
21D
100
AcDbEntity
  8
DRAFT
100
AcDbLine
 62
7
  6
CONTINUOUS
 10
-33.3570843025
 20
56.4694526981
 11
-33.0639843055
 21
56.9749754155
  0
LINE
  5
21E
100
AcDbEntity
  8
DRAFT
100
AcDbLine
 62
7
  6
CONTINUOUS
 10
32.5925824845
 20
-57.3576007719
 11
33.2255742746
 21
-57.3576007699
  0
LWPOLYLINE
  5
21F
100
AcDbEntity
  8
RACCORDO
100
AcDbPolyline
 62
7
  6
CONTINUOUS
 90
16
 70
0
 10
-29.7135881571
 20
33.3177393327
 10
-29.7354934409
 20
33.304926344
 10
-29.7571243554
 20
33.2894872097
 10
-29.7782491379
 20
33.271587351
 10
-29.7986414488
 20
33.2514185545
 10
-29.8180827964
 20
33.2291969169
 10
-29.8363648778
 20
33.2051605303
 10
-29.8532918217
 20
33.1795669134
 10
-29.8686822533
 20
33.1526903023
 10
-29.8823712484
 20
33.1248187189
 10
-29.8942121507
 20
33.0962507877
 10
-29.9040781
 20
33.0672926058
 10
-29.9118633829
 20
33.0382545198
 10
-29.9174846116
 20
33.0094476745
 10
-29.9208815982
 20
32.9811806777
 10
-29.9220179784
 20
32.9537563723
  0
LWPOLYLINE
  5
220
100
AcDbEntity
  8
RACCORDO
100
AcDbPolyline
 62
7
  6
CONTINUOUS
 90
13
 70
0
 10
-30.0354058843
 20
33.3330241566
 10
-30.055021272
 20
33.3217895508
 10
-30.0928351209
 20
33.296155777
 10
-30.128264788
 20
33.2665178788
 10
-30.1609363607
 20
33.2330585612
 10
-30.1904864279
 20
33.196035909
 10
-30.2168131402
 20
33.1554366284
 10
-30.2396380059
 20
33.1114324713
 10
-30.2586552247
 20
33.0642958304
 10
-30.273713258
 20
33.0139815128
 10
-30.2845833716
 20
32.9605240371
 10
-30.2909651762
 20
32.9041585035
 10
-30.2926755267
 20
32.8549052972
  0
LINE
  5
221
100
AcDbEntity
  8
RACCORDO
100
AcDbLine
 62
7
  6
CONTINUOUS
 10
-30.0354465977
 20
33.3330038697
 11
-29.7523965918
 21
33.4857158724
  0
LINE
  5
222
100
AcDbEntity
  8
RACCORDO
100
AcDbLine
 62
7
  6
CONTINUOUS
 10
-29.7135881585
 20
33.3177393334
 11
-29.4320448918
 21
33.4696383848
  0
LINE
  5
223
100
AcDbEntity
  8
SMUSSO
100
AcDbLine
 62
7
  6
CONTINUOUS
 10
-35.2543131703
 20
-26.2614165608
 11
30.7894601925
 21
-59.2833032422
  0
LINE
  5
224
100
AcDbEntity
  8
SMUSSO
100
AcDbLine
 62
7
  6
CONTINUOUS
 10
-35.9614199515
 20
55.844934947
 11
-35.9614199515
 21
-25.0418377664
  0
LINE
  5
225
100
AcDbEntity
  8
SMUSSO
100
AcDbLine
 62
7
  6
CONTINUOUS
 10
-33.1329928268
 20
48.6863808034
 11
-33.1329928268
 21
-23.5401378722
  0
LINE
  5
226
100
AcDbEntity
  8
DRAFT
100
AcDbLine
 62
7
  6
CONTINUOUS
 10
-25.7900493335
 20
23.5493573949
 11
-26.3038582207
 21
23.2640361048
  0
LINE
  5
227
100
AcDbEntity
  8
RACCORDO
100
AcDbLine
 62
7
  6
CONTINUOUS
 10
-25.3282113549
 20
23.8942526154
 11
-25.4363605149
 21
23.8359036625
  0
LINE
  5
228
100
AcDbEntity
  8
RACCORDO
100
AcDbLine
 62
7
  6
CONTINUOUS
 10
-25.2853095063
 20
23.7603781582
 11
-26.2205936951
 21
23.2891299485
  0
LINE
  5
229
100
AcDbEntity
  8
RACCORDO
100
AcDbLine
 62
7
  6
CONTINUOUS
 10
-25.0732097807
 20
23.3945602442
 11
-26.0084939695
 21
22.9233120345
  0
LINE
  5
22A
100
AcDbEntity
  8
RACCORDO
100
AcDbLine
 62
7
  6
CONTINUOUS
 10
-25.5768243439
 20
24.3421477415
 11
-25.0012648431
 21
24.6079601923
  0
LINE
  5
22B
100
AcDbEntity
  8
RACCORDO
100
AcDbLine
 62
7
  6
CONTINUOUS
 10
-25.6579616884
 20
24.1783733626
 11
-25.0824021876
 21
24.4441858134
  0
LINE
  5
22C
100
AcDbEntity
  8
SMUSSO
100
AcDbLine
 62
7
  6
CONTINUOUS
 10
-33.1329928268
 20
-23.5401378722
 11
25.8397127242
 21
-53.0264906477
  0
LWPOLYLINE
  5
22D
100
AcDbEntity
  8
RACCORDO
100
AcDbPolyline
 62
7
  6
CONTINUOUS
 90
12
 70
0
 10
-30.2912130648
 20
-11.4610889379
 10
-30.2852116294
 20
-11.520571116
 10
-30.2747571558
 20
-11.5799152031
 10
-30.2600371648
 20
-11.6388905051
 10
-30.2412388662
 20
-11.6970904095
 10
-30.2184916168
 20
-11.7543213715
 10
-30.1919112282
 20
-11.8102709395
 10
-30.1617846259
 20
-11.8643015116
 10
-30.1281560939
 20
-11.9162782274
 10
-30.0911740146
 20
-11.9657777465
 10
-30.0514543571
 20
-12.011916248
 10
-30.0091244235
 20
-12.0544924211
  0
LWPOLYLINE
  5
22E
100
AcDbEntity
  8
RACCORDO
100
AcDbPolyline
 62
7
  6
CONTINUOUS
 90
9
 70
0
 10
-30.2926855782
 20
-11.4146145628
 10
-30.2921365431
 20
-11.4236853742
 10
-30.2886569942
 20
-11.4391141438
 10
-30.2820063063
 20
-11.45428039
 10
-30.2722557558
 20
-11.4690216145
 10
-30.2595098691
 20
-11.4831798408
 10
-30.2439052642
 20
-11.496603372
 10
-30.2256091585
 20
-11.5091484114
 10
-30.2048176125
 20
-11.5206805645
  0
LWPOLYLINE
  5
22F
100
AcDbEntity
  8
RACCORDO
100
AcDbPolyline
 62
7
  6
CONTINUOUS
 90
9
 70
0
 10
-30.2926855782
 20
32.8548647842
 10
-30.2921365376
 20
32.8457939291
 10
-30.2886569781
 20
32.8303651567
 10
-30.2820062796
 20
32.8151989106
 10
-30.2722557198
 20
32.8004576892
 10
-30.2595098286
 20
32.7862994703
 10
-30.2439052271
 20
32.7728759507
 10
-30.2256091344
 20
32.7603309254
 10
-30.2048176125
 20
32.7487987878
  0
LINE
  5
230
100
AcDbEntity
  8
RACCORDO
100
AcDbLine
 62
7
  6
CONTINUOUS
 10
-30.2926758073
 20
-11.4144563483
 11
-30.2912130648
 21
-11.4610889379
  0
LINE
  5
231
100
AcDbEntity
  8
RACCORDO
100
AcDbLine
 62
7
  6
CONTINUOUS
 10
-30.2926855782
 20
32.8548648014
 11
-30.2926855782
 21
-11.4146145469
  0
LINE
  5
232
100
AcDbEntity
  8
RACCORDO
100
AcDbLine
 62
7
  6
CONTINUOUS
 10
-30.2048176125
 20
32.7487987878
 11
-30.2048176125
 21
-11.5234770771
  0
LINE
  5
233
100
AcDbEntity
  8
RACCORDO
100
AcDbLine
 62
7
  6
CONTINUOUS
 10
-28.5523668
 20
-10.1080734906
 11
-28.5523668
 21
29.6837409013
  0
LINE
  5
234
100
AcDbEntity
  8
RACCORDO
100
AcDbLine
 62
7
  6
CONTINUOUS
 10
-28.1681618348
 20
-10.1248805627
 11
-28.1681618348
 21
29.66693433
  0
LWPOLYLINE
  5
235
100
AcDbEntity
  8
RACCORDO
100
AcDbPolyline
 62
7
  6
CONTINUOUS
 90
22
 70
0
 10
-30.2048176125
 20
32.7487987878
 10
-30.2040236815
 20
32.7742249148
 10
-30.201705866
 20
32.7985135796
 10
-30.1978641659
 20
32.8216647822
 10
-30.1924613099
 20
32.8438081446
 10
-30.1855345694
 20
32.8648140448
 10
-30.1771957588
 20
32.8842936167
 10
-30.1674219161
 20
32.9022085777
 10
-30.1562360033
 20
32.9185972104
 10
-30.1438187209
 20
32.9331854957
 10
-30.1301463378
 20
32.9459441947
 10
-30.1152425852
 20
32.9569025463
 10
-30.099359357
 20
32.9658742479
 10
-30.0824815177
 20
32.9728231232
 10
-30.0646242029
 20
32.9777853484
 10
-30.0460847131
 20
32.9806831496
 10
-30.0268441998
 20
32.9814781375
 10
-30.0069215115
 20
32.9802087014
 10
-29.9866704951
 20
32.9769122348
 10
-29.9662090995
 20
32.9716012021
 10
-29.9454193758
 20
32.9642631388
 10
-29.924301324
 20
32.9548980451
  0
LWPOLYLINE
  5
236
100
AcDbEntity
  8
RACCORDO
100
AcDbPolyline
 62
7
  6
CONTINUOUS
 90
19
 70
0
 10
-28.5523668
 20
29.6837409013
 10
-28.5504548568
 20
29.7319099787
 10
-28.5455134458
 20
29.776904161
 10
-28.5375425672
 20
29.8187234482
 10
-28.5263736105
 20
29.8575480394
 10
-28.5121751861
 20
29.8931977355
 10
-28.4954531248
 20
29.9251319393
 10
-28.4761921595
 20
29.953248011
 10
-28.4544075572
 20
29.9776485903
 10
-28.43065095
 20
29.9981009992
 10
-28.4049448344
 20
30.0145526734
 10
-28.3772667138
 20
30.0270561772
 10
-28.3481007301
 20
30.0355365247
 10
-28.3174484102
 20
30.0399883863
 10
-28.2853082271
 20
30.0404170916
 10
-28.2521597414
 20
30.0367636439
 10
-28.2181628064
 20
30.0290083773
 10
-28.1831575687
 20
30.0171709577
 10
-28.1471440283
 20
30.0012513849
  0
LWPOLYLINE
  5
237
100
AcDbEntity
  8
RACCORDO
100
AcDbPolyline
 62
7
  6
CONTINUOUS
 90
13
 70
0
 10
-28.1471440283
 20
-10.8308067459
 10
-28.1460455569
 20
-10.8038519301
 10
-28.1427615141
 20
-10.7760778005
 10
-28.1373259114
 20
-10.7477720003
 10
-28.1297950432
 20
-10.7192276788
 10
-28.1202469035
 20
-10.6907404556
 10
-28.108780378
 20
-10.6626053584
 10
-28.09551422
 20
-10.6351137683
 10
-28.0805858211
 20
-10.608550402
 10
-28.0641497871
 20
-10.5831903623
 10
-28.046376338
 20
-10.5592962902
 10
-28.0274495447
 20
-10.5371156445
 10
-28.0075654227
 20
-10.5168781387
  0
LINE
  5
238
100
AcDbEntity
  8
DRAFT
100
AcDbLine
 62
7
  6
CONTINUOUS
 10
-25.7900493335
 20
17.0541668665
 11
-26.3038582207
 21
16.7688455764
  0
LINE
  5
239
100
AcDbEntity
  8
RACCORDO
100
AcDbLine
 62
7
  6
CONTINUOUS
 10
-25.7889240695
 20
16.838233513
 11
-25.2133645687
 21
17.1282324113
  0
LINE
  5
23A
100
AcDbEntity
  8
RACCORDO
100
AcDbLine
 62
7
  6
CONTINUOUS
 10
-26.0084939695
 20
17.4743927942
 11
-25.0732097807
 21
17.9063380268
  0
LINE
  5
23B
100
AcDbEntity
  8
RACCORDO
100
AcDbLine
 62
7
  6
CONTINUOUS
 10
-26.089631314
 20
17.3106184153
 11
-25.1543471252
 21
17.7425636479
  0
LINE
  5
23C
100
AcDbEntity
  8
RACCORDO
100
AcDbLine
 62
7
  6
CONTINUOUS
 10
-30.0091244235
 20
-12.0544924211
 11
-29.9642821815
 21
-12.0932830296
  0
LWPOLYLINE
  5
23D
100
AcDbEntity
  8
RACCORDO
100
AcDbPolyline
 62
7
  6
CONTINUOUS
 90
22
 70
0
 10
-26.5988117102
 20
-8.9921542689
 10
-26.5950667759
 20
-9.0041838133
 10
-26.5905569682
 20
-9.0169287382
 10
-26.5852177663
 20
-9.0303745661
 10
-26.5789293664
 20
-9.0444315803
 10
-26.5716874759
 20
-9.0591299811
 10
-26.5635894048
 20
-9.0746215417
 10
-26.5545560224
 20
-9.0908433902
 10
-26.5445282268
 20
-9.1077246443
 10
-26.5336126616
 20
-9.1253817874
 10
-26.5216806786
 20
-9.1437837717
 10
-26.5087281509
 20
-9.1627029927
 10
-26.4950741658
 20
-9.1819364606
 10
-26.4806865084
 20
-9.2014059442
 10
-26.4655939523
 20
-9.2208205546
 10
-26.4503047136
 20
-9.2396985322
 10
-26.4350315844
 20
-9.2578224386
 10
-26.4197501048
 20
-9.2751233828
 10
-26.4046827292
 20
-9.2914196588
 10
-26.3899840561
 20
-9.3065843988
 10
-26.3757320215
 20
-9.3205271047
 10
-26.3620470977
 20
-9.3331523701
  0
LWPOLYLINE
  5
23E
100
AcDbEntity
  8
RACCORDO
100
AcDbPolyline
 62
7
  6
CONTINUOUS
 90
10
 70
0
 10
-28.1471440283
 20
30.0012513849
 10
-28.1460455552
 20
29.9753950536
 10
-28.1427615123
 20
29.9509049765
 10
-28.1373259109
 20
29.9280347852
 10
-28.1297950446
 20
29.9070213349
 10
-28.1202469071
 20
29.8880822516
 10
-28.1087803835
 20
29.8714136778
 10
-28.095514227
 20
29.8571882418
 10
-28.0805858286
 20
29.8455532693
 10
-28.0691928986
 20
29.8389976596
  0
LWPOLYLINE
  5
23F
100
AcDbEntity
  8
RACCORDO
100
AcDbPolyline
 62
7
  6
CONTINUOUS
 90
6
 70
0
 10
-26.5993062397
 20
-8.9885213488
 10
-26.5992749401
 20
-8.9892685274
 10
-26.5992098717
 20
-8.9900053979
 10
-26.5991110003
 20
-8.9907319711
 10
-26.5989782913
 20
-8.9914482579
 10
-26.5988117102
 20
-8.9921542689
  0
LWPOLYLINE
  5
240
100
AcDbEntity
  8
RACCORDO
100
AcDbPolyline
 62
7
  6
CONTINUOUS
 90
18
 70
0
 10
-24.2953574863
 20
-8.5674516811
 10
-24.2959457051
 20
-8.5485746668
 10
-24.2976151228
 20
-8.530548927
 10
-24.3004183972
 20
-8.5123472724
 10
-24.3044025655
 20
-8.4940451458
 10
-24.3096113166
 20
-8.4757211442
 10
-24.3160787554
 20
-8.4574740941
 10
-24.3238388349
 20
-8.4393900578
 10
-24.3329323693
 20
-8.4215412248
 10
-24.3433818734
 20
-8.4040384278
 10
-24.3552007732
 20
-8.3869986028
 10
-24.3684141959
 20
-8.3705188355
 10
-24.3830201544
 20
-8.3547305279
 10
-24.3990037186
 20
-8.3397703126
 10
-24.4163621024
 20
-8.3257590628
 10
-24.4350635785
 20
-8.3128404373
 10
-24.4550473789
 20
-8.3011693499
 10
-24.4621957447
 20
-8.2974749394
  0
LWPOLYLINE
  5
241
100
AcDbEntity
  8
RACCORDO
100
AcDbPolyline
 62
7
  6
CONTINUOUS
 90
7
 70
0
 10
-26.6598447719
 20
-9.012716912
 10
-26.6598257357
 20
-9.0147232151
 10
-26.6597704565
 20
-9.0167294969
 10
-26.6596789341
 20
-9.0187357573
 10
-26.6595511687
 20
-9.0207419964
 10
-26.65938716
 20
-9.0227482141
 10
-26.6591869083
 20
-9.0247544105
  0
LINE
  5
242
100
AcDbEntity
  8
RACCORDO
100
AcDbLine
 62
7
  6
CONTINUOUS
 10
-26.6598447719
 20
29.1343235945
 11
-26.6598447719
 21
-9.012716912
  0
LINE
  5
243
100
AcDbEntity
  8
RACCORDO
100
AcDbLine
 62
7
  6
CONTINUOUS
 10
-26.5993038048
 20
29.1040531109
 11
-26.5993038048
 21
-8.987763851
  0
LINE
  5
244
100
AcDbEntity
  8
RACCORDO
100
AcDbLine
 62
7
  6
CONTINUOUS
 10
-26.3038582207
 20
-8.8389019283
 11
-26.3038582207
 21
28.9563303189
  0
LINE
  5
245
100
AcDbEntity
  8
RACCORDO
100
AcDbLine
 62
7
  6
CONTINUOUS
 10
-26.0084939695
 20
22.9233120345
 11
-26.0084939695
 21
17.4743927942
  0
LINE
  5
246
100
AcDbEntity
  8
RACCORDO
100
AcDbLine
 62
7
  6
CONTINUOUS
 10
-26.0084939695
 20
3.8707531512
 11
-26.0084939695
 21
-1.5781660891
  0
LINE
  5
247
100
AcDbEntity
  8
RACCORDO
100
AcDbLine
 62
7
  6
CONTINUOUS
 10
-25.7900493335
 20
28.6994258753
 11
-25.7900493335
 21
23.5493573949
  0
LINE
  5
248
100
AcDbEntity
  8
DRAFT
100
AcDbLine
 62
7
  6
CONTINUOUS
 10
-25.7900493335
 20
17.0541668665
 11
-25.7900493335
 21
4.4967985116
  0
LINE
  5
249
100
AcDbEntity
  8
RACCORDO
100
AcDbLine
 62
7
  6
CONTINUOUS
 10
-25.7900493335
 20
-1.9983920167
 11
-25.7900493335
 21
-8.5939729579
  0
LINE
  5
24A
100
AcDbEntity
  8
RACCORDO
100
AcDbLine
 62
7
  6
CONTINUOUS
 10
-25.5768243439
 20
-8.789867661
 11
-25.5768243439
 21
-2.5801432842
  0
LINE
  5
24B
100
AcDbEntity
  8
RACCORDO
100
AcDbLine
 62
7
  6
CONTINUOUS
 10
-25.5768243439
 20
5.2895888582
 11
-25.5768243439
 21
16.4724155991
  0
LINE
  5
24C
100
AcDbEntity
  8
RACCORDO
100
AcDbLine
 62
7
  6
CONTINUOUS
 10
-25.5768243439
 20
24.3421477415
 11
-25.5768243439
 21
28.5928133805
  0
LINE
  5
24D
100
AcDbEntity
  8
RACCORDO
100
AcDbLine
 62
7
  6
CONTINUOUS
 10
-25.4061845868
 20
23.8521842679
 11
-25.4061845868
 21
23.8208156984
  0
LINE
  5
24E
100
AcDbEntity
  8
RACCORDO
100
AcDbLine
 62
7
  6
CONTINUOUS
 10
-25.4061845868
 20
4.7996253847
 11
-25.4061845868
 21
4.7682568152
  0
LINE
  5
24F
100
AcDbEntity
  8
RACCORDO
100
AcDbLine
 62
7
  6
CONTINUOUS
 10
-25.3282113549
 20
24.3306629941
 11
-25.3282113549
 21
23.8942526154
  0
LINE
  5
250
100
AcDbEntity
  8
RACCORDO
100
AcDbLine
 62
7
  6
CONTINUOUS
 10
-25.3282113549
 20
17.662267385
 11
-25.3282113549
 21
17.1856558044
  0
LINE
  5
251
100
AcDbEntity
  8
RACCORDO
100
AcDbLine
 62
7
  6
CONTINUOUS
 10
-25.3282113549
 20
5.2781041109
 11
-25.3282113549
 21
4.8416937321
  0
LINE
  5
252
100
AcDbEntity
  8
RACCORDO
100
AcDbLine
 62
7
  6
CONTINUOUS
 10
-25.3282113549
 20
-1.8669030788
 11
-25.3282113549
 21
-1.3902914983
  0
LINE
  5
253
100
AcDbEntity
  8
RACCORDO
100
AcDbLine
 62
7
  6
CONTINUOUS
 10
-25.1878812551
 20
24.3954720846
 11
-25.1878812551
 21
24.0731243665
  0
LINE
  5
254
100
AcDbEntity
  8
RACCORDO
100
AcDbLine
 62
7
  6
CONTINUOUS
 10
-25.1878812551
 20
17.7270764755
 11
-25.1878812551
 21
17.1133490898
  0
LINE
  5
255
100
AcDbEntity
  8
RACCORDO
100
AcDbLine
 62
7
  6
CONTINUOUS
 10
-25.1878812551
 20
5.3429132014
 11
-25.1878812551
 21
5.0205654832
  0
LINE
  5
256
100
AcDbEntity
  8
RACCORDO
100
AcDbLine
 62
7
  6
CONTINUOUS
 10
-25.1878812551
 20
-1.9392097934
 11
-25.1878812551
 21
-1.3254824078
  0
LINE
  5
257
100
AcDbEntity
  8
RACCORDO
100
AcDbLine
 62
7
  6
CONTINUOUS
 10
-25.0732097807
 20
23.3945602442
 11
-25.0732097807
 21
17.9063380268
  0
LINE
  5
258
100
AcDbEntity
  8
RACCORDO
100
AcDbLine
 62
7
  6
CONTINUOUS
 10
-25.0732097807
 20
4.3420013609
 11
-25.0732097807
 21
-1.1462208564
  0
LINE
  5
259
100
AcDbEntity
  8
RACCORDO
100
AcDbLine
 62
7
  6
CONTINUOUS
 10
-25.0012648431
 20
-8.4998687627
 11
-25.0012648431
 21
-2.2901443859
  0
LINE
  5
25A
100
AcDbEntity
  8
RACCORDO
100
AcDbLine
 62
7
  6
CONTINUOUS
 10
-25.0012648431
 20
5.555401309
 11
-25.0012648431
 21
16.7624144973
  0
LINE
  5
25B
100
AcDbEntity
  8
RACCORDO
100
AcDbLine
 62
7
  6
CONTINUOUS
 10
-25.0012648431
 20
24.6079601923
 11
-25.0012648431
 21
28.3050336301
  0
LINE
  5
25C
100
AcDbEntity
  8
RACCORDO
100
AcDbLine
 62
7
  6
CONTINUOUS
 10
-24.4356880621
 20
-8.6903916311
 11
-24.4356880621
 21
-8.7826571532
  0
LINE
  5
25D
100
AcDbEntity
  8
RACCORDO
100
AcDbLine
 62
7
  6
CONTINUOUS
 10
-24.2953579622
 20
-8.5682070554
 11
-24.2953579622
 21
-8.8528222031
  0
LWPOLYLINE
  5
25E
100
AcDbEntity
  8
RACCORDO
100
AcDbPolyline
 62
7
  6
CONTINUOUS
 90
22
 70
0
 10
-26.6591869083
 20
-9.0247544105
 10
-26.6618659079
 20
-9.0410168066
 10
-26.6636883731
 20
-9.0579108429
 10
-26.6646114105
 20
-9.0754398655
 10
-26.6646083659
 20
-9.0935782861
 10
-26.6636313932
 20
-9.112332238
 10
-26.661604224
 20
-9.1317421911
 10
-26.6585439336
 20
-9.1518007014
 10
-26.6543764766
 20
-9.1724338106
 10
-26.6488840847
 20
-9.1935657551
 10
-26.6420271605
 20
-9.2152230757
 10
-26.6338284977
 20
-9.2371936294
 10
-26.6241889176
 20
-9.2590182565
 10
-26.6130723583
 20
-9.2806171765
 10
-26.6006195465
 20
-9.3017678816
 10
-26.5870515616
 20
-9.3218113678
 10
-26.5724940555
 20
-9.3404778021
 10
-26.5570338026
 20
-9.357764451
 10
-26.5408589758
 20
-9.3734639091
 10
-26.5241068047
 20
-9.3874377745
 10
-26.5068630472
 20
-9.3996019008
 10
-26.4892381721
 20
-9.4098549809
  0
LINE
  5
25F
100
AcDbEntity
  8
RACCORDO
100
AcDbLine
 62
7
  6
CONTINUOUS
 10
-25.5768243439
 20
16.4724155991
 11
-25.0012648431
 21
16.7624144973
  0
LWPOLYLINE
  5
260
100
AcDbEntity
  8
ASSI
100
AcDbPolyline
 62
7
  6
CONTINUOUS
 90
4
 70
0
 10
16.5098706483
 20
-27.7102420841
 10
16.5232841873
 20
-27.7110736553
 10
16.5367112727
 20
-27.7133390479
 10
16.5501237202
 20
-27.7167229554
  0
LWPOLYLINE
  5
261
100
AcDbEntity
  8
0
100
AcDbPolyline
 62
7
  6
CONTINUOUS
 90
6
 70
0
 10
-1.7145523646
 20
-25.2694860633
 10
-1.7073708939
 20
-25.2710164799
 10
-1.7001918203
 20
-25.2714878345
 10
-1.6930151437
 20
-25.270900127
 10
-1.685860548
 20
-25.2690333939
 10
-1.6787083494
 20
-25.2661075986
  0
LWPOLYLINE
  5
262
100
AcDbEntity
  8
0
100
AcDbPolyline
 62
7
  6
CONTINUOUS
 90
5
 70
0
 10
-1.8155441287
 20
-24.9162867746
 10
-1.8274114114
 20
-24.9135973154
 10
-1.8487376773
 20
-24.9071190021
 10
-1.8710751712
 20
-24.8986690694
 10
-1.8944238929
 20
-24.8882475172
  0
LWPOLYLINE
  5
263
100
AcDbEntity
  8
0
100
AcDbPolyline
 62
7
  6
CONTINUOUS
 90
10
 70
0
 10
-2.2129705335
 20
-24.3711817205
 10
-2.1856135929
 20
-24.3792876179
 10
-2.1583646115
 20
-24.3884307545
 10
-2.1312235892
 20
-24.3986111302
 10
-2.1042083371
 20
-24.409813749
 10
-2.0773010442
 20
-24.422053607
 10
-2.0504482775
 20
-24.4353756917
 10
-2.0236322261
 20
-24.4497949991
 10
-1.9968707009
 20
-24.4652965332
 10
-1.9701637019
 20
-24.4818802942
  0
LWPOLYLINE
  5
264
100
AcDbEntity
  8
RACCORDO
100
AcDbPolyline
 62
7
  6
CONTINUOUS
 90
11
 70
0
 10
21.7169008244
 20
-37.951163151
 10
21.7510968445
 20
-37.9669569218
 10
21.8011985049
 20
-37.9855706386
 10
21.8518344716
 20
-37.9990829008
 10
21.9026649718
 20
-38.0074131302
 10
21.9530960455
 20
-38.0105088529
 10
22.0026638676
 20
-38.0084220886
 10
22.0509738569
 20
-38.0012826879
 10
22.0973979865
 20
-37.9893456659
 10
22.1414472978
 20
-37.9729544273
 10
22.1521439504
 20
-37.9681587979
  0
LINE
  5
265
100
AcDbEntity
  8
RACCORDO
100
AcDbLine
 62
7
  6
CONTINUOUS
 10
-29.8440500225
 20
-12.1706999234
 11
21.7167563373
 21
-37.9511031033
  0
LINE
  5
266
100
AcDbEntity
  8
0
100
AcDbLine
 62
7
  6
CONTINUOUS
 10
-6.7202401889
 20
-23.6262474435
 11
-6.447108881
 21
-23.7628130975
  0
LINE
  5
267
100
AcDbEntity
  8
0
100
AcDbLine
 62
7
  6
CONTINUOUS
 10
-5.8548171492
 20
-24.0589589634
 11
-5.5448809333
 21
-24.2139270713
  0
LINE
  5
268
100
AcDbEntity
  8
0
100
AcDbLine
 62
7
  6
CONTINUOUS
 10
-5.3780327243
 20
-24.2973511758
 11
-5.0815251733
 21
-24.4456049513
  0
LINE
  5
269
100
AcDbEntity
  8
0
100
AcDbLine
 62
7
  6
CONTINUOUS
 10
-4.6510484644
 20
-24.6608433058
 11
-4.6075804892
 21
-24.6825772934
  0
LINE
  5
26A
100
AcDbEntity
  8
0
100
AcDbLine
 62
7
  6
CONTINUOUS
 10
-4.1753890464
 20
-24.8986730148
 11
-3.8721894368
 21
-25.0502728196
  0
LINE
  5
26B
100
AcDbEntity
  8
0
100
AcDbLine
 62
7
  6
CONTINUOUS
 10
-3.8235213984
 20
-25.0746068388
 11
-3.5169481823
 21
-25.2278934468
  0
LINE
  5
26C
100
AcDbEntity
  8
0
100
AcDbLine
 62
7
  6
CONTINUOUS
 10
-2.5113823231
 20
-25.7306767209
 11
-2.2026935259
 21
-25.8850211195
  0
LINE
  5
26D
100
AcDbEntity
  8
0
100
AcDbLine
 62
7
  6
CONTINUOUS
 10
-2.9290539476
 20
-25.5218405642
 11
-2.6023946563
 21
-25.6851702098
  0
LINE
  5
26E
100
AcDbEntity
  8
0
100
AcDbLine
 62
7
  6
CONTINUOUS
 10
-1.7280694689
 20
-26.122333148
 11
-1.4299471725
 21
-26.2713942962
  0
LINE
  5
26F
100
AcDbEntity
  8
RACCORDO
100
AcDbLine
 62
7
  6
CONTINUOUS
 10
-29.9220179784
 20
-12.0084377832
 11
-6.7246200513
 21
-23.6071367467
  0
LINE
  5
270
100
AcDbEntity
  8
RACCORDO
100
AcDbLine
 62
7
  6
CONTINUOUS
 10
-6.4301881154
 20
-23.7543527147
 11
-5.8548171492
 21
-24.0420381978
  0
LINE
  5
271
100
AcDbEntity
  8
RACCORDO
100
AcDbLine
 62
7
  6
CONTINUOUS
 10
-5.5279601677
 20
-24.2054666885
 11
-5.3767852414
 21
-24.2810541517
  0
LINE
  5
272
100
AcDbEntity
  8
RACCORDO
100
AcDbLine
 62
7
  6
CONTINUOUS
 10
-5.0646044077
 20
-24.4371445685
 11
-4.6562295472
 21
-24.6413319988
  0
LINE
  5
273
100
AcDbEntity
  8
RACCORDO
100
AcDbLine
 62
7
  6
CONTINUOUS
 10
-4.5906597236
 20
-24.6741169106
 11
-4.1763002249
 21
-24.8812966599
  0
LINE
  5
274
100
AcDbEntity
  8
RACCORDO
100
AcDbLine
 62
7
  6
CONTINUOUS
 10
-3.8552686712
 20
-25.0418124368
 11
-3.8167530921
 21
-25.0610702263
  0
LINE
  5
275
100
AcDbEntity
  8
RACCORDO
100
AcDbLine
 62
7
  6
CONTINUOUS
 10
-3.5000274167
 20
-25.219433064
 11
-2.9327961718
 21
-25.5030486865
  0
LINE
  5
276
100
AcDbEntity
  8
RACCORDO
100
AcDbLine
 62
7
  6
CONTINUOUS
 10
-2.5854738907
 20
-25.676709827
 11
-2.5107735363
 21
-25.7140600042
  0
LINE
  5
277
100
AcDbEntity
  8
RACCORDO
100
AcDbLine
 62
7
  6
CONTINUOUS
 10
-2.1857724158
 20
-25.8765605644
 11
-1.7321304942
 21
-26.1033815253
  0
LINE
  5
278
100
AcDbEntity
  8
RACCORDO
100
AcDbLine
 62
7
  6
CONTINUOUS
 10
-1.4130260625
 20
-26.2629337411
 11
21.6410717253
 21
-37.789982635
  0
LINE
  5
279
100
AcDbEntity
  8
0
100
AcDbLine
 62
7
  6
CONTINUOUS
 10
-3.4314250314
 20
-24.9076180391
 11
-3.0093438013
 21
-25.1186586541
  0
LINE
  5
27A
100
AcDbEntity
  8
0
100
AcDbLine
 62
7
  6
CONTINUOUS
 10
-3.071284234
 20
-24.8067714474
 11
-3.3680258374
 21
-24.6584006457
  0
LINE
  5
27B
100
AcDbEntity
  8
0
100
AcDbLine
 62
7
  6
CONTINUOUS
 10
-2.2026935259
 20
-25.1733604911
 11
-2.0365133103
 21
-25.2564505989
  0
LINE
  5
27C
100
AcDbEntity
  8
0
100
AcDbLine
 62
7
  6
CONTINUOUS
 10
-3.1011288638
 20
-24.6504277763
 11
-3.2266044811
 21
-24.5876899676
  0
LINE
  5
27D
100
AcDbEntity
  8
0
100
AcDbLine
 62
7
  6
CONTINUOUS
 10
-2.0358452491
 20
-24.9589581953
 11
-2.2129705335
 21
-24.8703955531
  0
LINE
  5
27E
100
AcDbEntity
  8
0
100
AcDbLine
 62
7
  6
CONTINUOUS
 10
-1.8944238929
 20
-24.8882475172
 11
-2.0715491773
 21
-24.799684875
  0
LWPOLYLINE
  5
27F
100
AcDbEntity
  8
RACCORDO
100
AcDbPolyline
 62
7
  6
CONTINUOUS
 90
22
 70
0
 10
-29.9220179784
 20
-12.0084377832
 10
-29.9431024452
 20
-11.9969231868
 10
-29.9638803014
 20
-11.983695526
 10
-29.9843515467
 20
-11.9687548009
 10
-30.0046372333
 20
-11.9519948373
 10
-30.0246163091
 20
-11.9335218094
 10
-30.0439256181
 20
-11.9136542393
 10
-30.0625432773
 20
-11.8923749458
 10
-30.0804911697
 20
-11.8697011101
 10
-30.0974717891
 20
-11.8460027973
 10
-30.1134709503
 20
-11.8212580354
 10
-30.1285028385
 20
-11.7954887965
 10
-30.1423125029
 20
-11.7691310618
 10
-30.1548765848
 20
-11.7421779735
 10
-30.166218443
 20
-11.7146363894
 10
-30.1761532026
 20
-11.6869628644
 10
-30.1846572142
 20
-11.6591461383
 10
-30.1917541272
 20
-11.6311974713
 10
-30.1973300162
 20
-11.6036071981
 10
-30.2013469058
 20
-11.5765387639
 10
-30.2038427712
 20
-11.5498287235
 10
-30.2048176125
 20
-11.5234770771
  0
LWPOLYLINE
  5
280
100
AcDbEntity
  8
RACCORDO
100
AcDbPolyline
 62
7
  6
CONTINUOUS
 90
19
 70
0
 10
-28.1471440283
 20
-10.8308067459
 10
-28.1831315998
 20
-10.8107335212
 10
-28.2181199481
 20
-10.7875797496
 10
-28.2521090732
 20
-10.7613454314
 10
-28.2852630197
 20
-10.7318477343
 10
-28.3174177429
 20
-10.6992694905
 10
-28.3480811088
 20
-10.6641591961
 10
-28.3772488004
 20
-10.6265153786
 10
-28.4049251347
 20
-10.5863395104
 10
-28.4306309276
 20
-10.5441845045
 10
-28.4543910828
 20
-10.4999720555
 10
-28.4761806968
 20
-10.4537804688
 10
-28.4954458751
 20
-10.4063975734
 10
-28.5121704758
 20
-10.3577372708
 10
-28.5263706409
 20
-10.3078856595
 10
-28.5375409027
 20
-10.2578888634
 10
-28.5455127718
 20
-10.2080955905
 10
-28.5504547376
 20
-10.1581571329
 10
-28.5523668
 20
-10.1080734906
  0
LWPOLYLINE
  5
281
100
AcDbEntity
  8
RACCORDO
100
AcDbPolyline
 62
7
  6
CONTINUOUS
 90
10
 70
0
 10
-29.8440500225
 20
-12.1706999234
 10
-29.8532918596
 20
-12.1655221445
 10
-29.868682293
 20
-12.1540359526
 10
-29.8823712861
 20
-12.1398533525
 10
-29.8942121836
 20
-12.1231263139
 10
-29.904078126
 20
-12.1040340748
 10
-29.9118634002
 20
-12.0827812725
 10
-29.9174846202
 20
-12.0595956666
 10
-29.9208816003
 20
-12.0347256771
 10
-29.9220179784
 20
-12.0084377832
  0
LWPOLYLINE
  5
282
100
AcDbEntity
  8
0
100
AcDbPolyline
 62
7
  6
CONTINUOUS
 90
13
 70
0
 10
-2.0365133103
 20
-25.2564505989
 10
-2.0170983701
 20
-25.267504971
 10
-1.9986527981
 20
-25.2802081959
 10
-1.9811765943
 20
-25.2945602736
 10
-1.9647470198
 20
-25.3104795787
 10
-1.9492868135
 20
-25.3280477366
 10
-1.9345641923
 20
-25.3475096238
 10
-1.9204151311
 20
-25.3689986607
 10
-1.9070036549
 20
-25.3923814268
 10
-1.8945900556
 20
-25.4175025384
 10
-1.8832610972
 20
-25.4443102006
 10
-1.8729300158
 20
-25.4728562081
 10
-1.8635968112
 20
-25.503140561
  0
LWPOLYLINE
  5
283
100
AcDbEntity
  8
RACCORDO
100
AcDbPolyline
 62
7
  6
CONTINUOUS
 90
4
 70
0
 10
-29.9642821815
 20
-12.0932830296
 10
-29.9175921701
 20
-12.1276367463
 10
-29.8693804328
 20
-12.1572947426
 10
-29.8439990553
 20
-12.1707127607
  0
LWPOLYLINE
  5
284
100
AcDbEntity
  8
RACCORDO
100
AcDbPolyline
 62
7
  6
CONTINUOUS
 90
6
 70
0
 10
-26.3620470977
 20
-9.3331523701
 10
-26.3610818115
 20
-9.3339718761
 10
-26.3600542834
 20
-9.3347547588
 10
-26.358964556
 20
-9.3355009211
 10
-26.3578126726
 20
-9.3362102654
 10
-26.3565986773
 20
-9.3368826942
  0
LINE
  5
285
100
AcDbEntity
  8
RACCORDO
100
AcDbLine
 62
7
  6
CONTINUOUS
 10
-19.2029892374
 20
-11.6588537627
 11
-19.2029892374
 21
-12.1469545698
  0
LWPOLYLINE
  5
286
100
AcDbEntity
  8
RACCORDO
100
AcDbPolyline
 62
7
  6
CONTINUOUS
 90
8
 70
0
 10
-4.6816719214
 20
-18.1004409395
 10
-4.6970660189
 20
-18.0959095563
 10
-4.7132420643
 20
-18.0934577579
 10
-4.7300758143
 20
-18.0930950449
 10
-4.747404456
 20
-18.0948096837
 10
-4.7650830709
 20
-18.0985646076
 10
-4.7829897619
 20
-18.1043118198
 10
-4.8009918958
 20
-18.1119889918
  0
LWPOLYLINE
  5
287
100
AcDbEntity
  8
RACCORDO
100
AcDbPolyline
 62
7
  6
CONTINUOUS
 90
3
 70
0
 10
-4.7276770508
 20
-18.0836627074
 10
-4.6990261912
 20
-18.0928337018
 10
-4.6705238345
 20
-18.1052830917
  0
LWPOLYLINE
  5
288
100
AcDbEntity
  8
ASSI
100
AcDbPolyline
 62
7
  6
CONTINUOUS
 90
3
 70
0
 10
16.5501237202
 20
-27.7167229554
 10
16.5634237774
 20
-27.7211684181
 10
16.5765358274
 20
-27.7266732929
  0
LWPOLYLINE
  5
289
100
AcDbEntity
  8
RACCORDO
100
AcDbPolyline
 62
7
  6
CONTINUOUS
 90
19
 70
0
 10
-28.0075813412
 20
-10.5168715701
 10
-28.0282782152
 20
-10.5091358962
 10
-28.0480664917
 20
-10.4991840036
 10
-28.0668381974
 20
-10.4871200301
 10
-28.0844620485
 20
-10.4730774038
 10
-28.100854675
 20
-10.4571523874
 10
-28.1159816833
 20
-10.4393890225
 10
-28.1297324289
 20
-10.4199045433
 10
-28.1420085513
 20
-10.3988167633
 10
-28.1527904821
 20
-10.3761575069
 10
-28.1619677932
 20
-10.3520209545
 10
-28.1694310376
 20
-10.3265691457
 10
-28.1751529512
 20
-10.2999363893
 10
-28.1789958438
 20
-10.2722334189
 10
-28.1808696956
 20
-10.2436490996
 10
-28.1808152366
 20
-10.2144443285
 10
-28.1787737562
 20
-10.1848181375
 10
-28.1745893095
 20
-10.1549061963
 10
-28.1681619061
 20
-10.1248806147
  0
LWPOLYLINE
  5
28A
100
AcDbEntity
  8
RACCORDO
100
AcDbPolyline
 62
7
  6
CONTINUOUS
 90
9
 70
0
 10
-3.132283845
 20
-18.8744030985
 10
-3.1433812608
 20
-18.8695862695
 10
-3.1587753582
 20
-18.8650548861
 10
-3.1749514067
 20
-18.8626030871
 10
-3.1917851616
 20
-18.8622403744
 10
-3.2091138064
 20
-18.8639550145
 10
-3.2267924207
 20
-18.8677099392
 10
-3.2446991088
 20
-18.8734571511
 10
-3.2627012372
 20
-18.8811343211
  0
LWPOLYLINE
  5
28B
100
AcDbEntity
  8
RACCORDO
100
AcDbPolyline
 62
7
  6
CONTINUOUS
 90
13
 70
0
 10
-28.5523668
 20
-10.1080734906
 10
-28.5263054131
 20
-10.1196698231
 10
-28.4977277398
 20
-10.1296749742
 10
-28.4670202442
 20
-10.1379536414
 10
-28.4345981925
 20
-10.1443938699
 10
-28.4009000374
 20
-10.1489085666
 10
-28.3663814885
 20
-10.1514366781
 10
-28.3315093501
 20
-10.1519440159
 10
-28.2967552079
 20
-10.1504237192
 10
-28.2625890521
 20
-10.1468963473
 10
-28.2294729215
 20
-10.141409602
 10
-28.1978546547
 20
-10.1340376821
 10
-28.1681618348
 20
-10.12488028
  0
LWPOLYLINE
  5
28C
100
AcDbEntity
  8
RACCORDO
100
AcDbPolyline
 62
7
  6
CONTINUOUS
 90
4
 70
0
 10
-19.0755944745
 20
-12.1951268581
 10
-19.103949923
 20
-12.1823705623
 10
-19.1395735577
 20
-12.1700036295
 10
-19.173452036
 20
-12.1617231705
  0
LINE
  5
28D
100
AcDbEntity
  8
0
100
AcDbLine
 62
7
  6
CONTINUOUS
 10
-3.0579679991
 20
-23.638883477
 11
-3.3577932951
 21
-23.488970829
  0
LINE
  5
28E
100
AcDbEntity
  8
0
100
AcDbLine
 62
7
  6
CONTINUOUS
 10
-4.011034803
 20
-23.162350075
 11
-4.3176858008
 21
-23.0090245761
  0
LINE
  5
28F
100
AcDbEntity
  8
0
100
AcDbLine
 62
7
  6
CONTINUOUS
 10
-4.9342843282
 20
-22.7007253124
 11
-5.2439638644
 21
-22.5458855443
  0
LINE
  5
290
100
AcDbEntity
  8
0
100
AcDbLine
 62
7
  6
CONTINUOUS
 10
-5.9698344311
 20
-22.182950261
 11
-6.2795592221
 21
-22.0280878655
  0
LINE
  5
291
100
AcDbEntity
  8
0
100
AcDbLine
 62
7
  6
CONTINUOUS
 10
-6.8542645011
 20
-21.740735226
 11
-7.1909505666
 21
-21.5723921933
  0
LINE
  5
292
100
AcDbEntity
  8
0
100
AcDbLine
 62
7
  6
CONTINUOUS
 10
-5.5448809333
 20
-22.3953178907
 11
-5.8548171492
 21
-22.2403497827
  0
LINE
  5
293
100
AcDbEntity
  8
0
100
AcDbLine
 62
7
  6
CONTINUOUS
 10
-2.9165466428
 20
-23.5681727989
 11
-3.2163719389
 21
-23.4182601509
  0
LINE
  5
294
100
AcDbEntity
  8
0
100
AcDbLine
 62
7
  6
CONTINUOUS
 10
-3.8696134468
 20
-23.0916393969
 11
-4.1762644446
 21
-22.938313898
  0
LINE
  5
295
100
AcDbEntity
  8
0
100
AcDbLine
 62
7
  6
CONTINUOUS
 10
-4.792862972
 20
-22.6300146343
 11
-5.1025425082
 21
-22.4751748662
  0
LINE
  5
296
100
AcDbEntity
  8
0
100
AcDbLine
 62
7
  6
CONTINUOUS
 10
-5.8284130749
 20
-22.1122395829
 11
-6.1381378659
 21
-21.9573771874
  0
LINE
  5
297
100
AcDbEntity
  8
0
100
AcDbLine
 62
7
  6
CONTINUOUS
 10
-6.7128431449
 20
-21.6700245479
 11
-7.0495292103
 21
-21.5016815151
  0
LINE
  5
298
100
AcDbEntity
  8
0
100
AcDbLine
 62
7
  6
CONTINUOUS
 10
-5.4034595771
 20
-22.3246072126
 11
-5.713395793
 21
-22.1696391046
  0
LINE
  5
299
100
AcDbEntity
  8
RACCORDO
100
AcDbLine
 62
7
  6
CONTINUOUS
 10
19.8639144321
 20
-34.8363359761
 11
-28.1471440283
 21
-10.8308067459
  0
LINE
  5
29A
100
AcDbEntity
  8
RACCORDO
100
AcDbLine
 62
7
  6
CONTINUOUS
 10
20.0034833648
 20
-34.5224025325
 11
-28.0075802093
 21
-10.5168707455
  0
LINE
  5
29B
100
AcDbEntity
  8
RACCORDO
100
AcDbLine
 62
7
  6
CONTINUOUS
 10
-26.4700746386
 20
-9.4209420326
 11
20.1812692382
 21
-32.746613971
  0
LINE
  5
29C
100
AcDbEntity
  8
RACCORDO
100
AcDbLine
 62
7
  6
CONTINUOUS
 10
-26.3565986773
 20
-9.3368826942
 11
20.1812692382
 21
-32.6058140359
  0
LINE
  5
29D
100
AcDbEntity
  8
RACCORDO
100
AcDbLine
 62
7
  6
CONTINUOUS
 10
20.1812692382
 20
-32.3412337089
 11
-26.091758495
 21
-9.2047198423
  0
LINE
  5
29E
100
AcDbEntity
  8
RACCORDO
100
AcDbLine
 62
7
  6
CONTINUOUS
 10
-12.1644023686
 20
-15.9294126352
 11
-7.7153784391
 21
-18.1539245999
  0
LINE
  5
29F
100
AcDbEntity
  8
RACCORDO
100
AcDbLine
 62
7
  6
CONTINUOUS
 10
3.7455002081
 20
-23.8843639235
 11
8.1945241376
 21
-26.1088758882
  0
LINE
  5
2A0
100
AcDbEntity
  8
RACCORDO
100
AcDbLine
 62
7
  6
CONTINUOUS
 10
-25.5782080187
 20
-8.9593451791
 11
-12.3794087989
 21
-15.558744789
  0
LINE
  5
2A1
100
AcDbEntity
  8
DRAFT
100
AcDbLine
 62
7
  6
CONTINUOUS
 10
-7.07610794
 20
-18.2103952184
 11
3.5304937778
 21
-23.5136960773
  0
LINE
  5
2A2
100
AcDbEntity
  8
RACCORDO
100
AcDbLine
 62
7
  6
CONTINUOUS
 10
8.8337946367
 20
-26.1653465068
 11
20.1812692382
 21
-31.8390838075
  0
LINE
  5
2A3
100
AcDbEntity
  8
RACCORDO
100
AcDbLine
 62
7
  6
CONTINUOUS
 10
-19.2029892374
 20
-12.1314294686
 11
-19.0759520292
 21
-12.1949480727
  0
LINE
  5
2A4
100
AcDbEntity
  8
RACCORDO
100
AcDbLine
 62
7
  6
CONTINUOUS
 10
-6.5679945247
 20
-18.4489268249
 11
-6.4966062687
 21
-18.484620953
  0
LINE
  5
2A5
100
AcDbEntity
  8
RACCORDO
100
AcDbLine
 62
7
  6
CONTINUOUS
 10
-2.9664034516
 20
-20.2497223615
 11
0.5789827524
 21
-22.0224154635
  0
LINE
  5
2A6
100
AcDbEntity
  8
RACCORDO
100
AcDbLine
 62
7
  6
CONTINUOUS
 10
9.341908052
 20
-26.4038781133
 11
9.413296308
 21
-26.4395722413
  0
LINE
  5
2A7
100
AcDbEntity
  8
ASSI
100
AcDbLine
 62
7
  6
CONTINUOUS
 10
16.6675559816
 20
-30.0612913288
 11
14.2785168518
 21
-28.8667717639
  0
LINE
  5
2A8
100
AcDbEntity
  8
ASSI
100
AcDbLine
 62
7
  6
CONTINUOUS
 10
-15.1522491718
 20
-14.1513887521
 11
-17.5412883016
 21
-12.9568691872
  0
LINE
  5
2A9
100
AcDbEntity
  8
ASSI
100
AcDbLine
 62
7
  6
CONTINUOUS
 10
16.7749707996
 20
-29.9735773815
 11
14.419938208
 21
-28.7960610857
  0
LINE
  5
2AA
100
AcDbEntity
  8
ASSI
100
AcDbLine
 62
7
  6
CONTINUOUS
 10
-15.0448343538
 20
-14.0636748048
 11
-17.3998669454
 21
-12.8861585091
  0
LINE
  5
2AB
100
AcDbEntity
  8
RACCORDO
100
AcDbLine
 62
7
  6
CONTINUOUS
 10
20.1812692382
 20
-31.668914452
 11
16.8594566031
 21
-30.0080081345
  0
LINE
  5
2AC
100
AcDbEntity
  8
RACCORDO
100
AcDbLine
 62
7
  6
CONTINUOUS
 10
11.8389984567
 20
-27.4977790613
 11
9.6070809351
 21
-26.3818203005
  0
LINE
  5
2AD
100
AcDbEntity
  8
RACCORDO
100
AcDbLine
 62
7
  6
CONTINUOUS
 10
3.181471548
 20
-23.169015607
 11
0.7727773311
 21
-21.9646684985
  0
LINE
  5
2AE
100
AcDbEntity
  8
RACCORDO
100
AcDbLine
 62
7
  6
CONTINUOUS
 10
-3.8941274247
 20
-19.6312161206
 11
-6.3028216416
 21
-18.4268690121
  0
LINE
  5
2AF
100
AcDbEntity
  8
RACCORDO
100
AcDbLine
 62
7
  6
CONTINUOUS
 10
-12.7284310287
 20
-15.2140643186
 11
-14.9603485503
 21
-14.0981055578
  0
LINE
  5
2B0
100
AcDbEntity
  8
RACCORDO
100
AcDbLine
 62
7
  6
CONTINUOUS
 10
-19.9808066967
 20
-11.5878764846
 11
-25.5768243439
 21
-8.789867661
  0
LINE
  5
2B1
100
AcDbEntity
  8
ASSI
100
AcDbLine
 62
7
  6
CONTINUOUS
 10
16.9826627942
 20
-29.8652913445
 11
14.6320702424
 21
-28.6899950686
  0
LINE
  5
2B2
100
AcDbEntity
  8
ASSI
100
AcDbLine
 62
7
  6
CONTINUOUS
 10
-14.8371423592
 20
-13.9553887678
 11
-17.187734911
 21
-12.7800924919
  0
LINE
  5
2B3
100
AcDbEntity
  8
ASSI
100
AcDbLine
 62
7
  6
CONTINUOUS
 10
17.121124124
 20
-29.7931006531
 11
14.7734915986
 21
-28.6192843905
  0
LINE
  5
2B4
100
AcDbEntity
  8
ASSI
100
AcDbLine
 62
7
  6
CONTINUOUS
 10
-14.6986810294
 20
-13.8831980764
 11
-17.0463135548
 21
-12.7093818138
  0
LINE
  5
2B5
100
AcDbEntity
  8
RACCORDO
100
AcDbLine
 62
7
  6
CONTINUOUS
 10
-11.2612089262
 20
-15.4421190522
 11
-6.7800942504
 21
-17.6826763902
  0
LINE
  5
2B6
100
AcDbEntity
  8
RACCORDO
100
AcDbLine
 62
7
  6
CONTINUOUS
 10
4.6486936505
 20
-23.3970703406
 11
9.1298083263
 21
-25.6376276785
  0
LINE
  5
2B7
100
AcDbEntity
  8
ASSI
100
AcDbLine
 62
7
  6
CONTINUOUS
 10
17.344295665
 20
-29.6925543893
 11
14.985623633
 21
-28.5132183733
  0
LINE
  5
2B8
100
AcDbEntity
  8
ASSI
100
AcDbLine
 62
7
  6
CONTINUOUS
 10
-14.4755094884
 20
-13.7826518126
 11
-16.8341815204
 21
-12.6033157966
  0
LINE
  5
2B9
100
AcDbEntity
  8
RACCORDO
100
AcDbLine
 62
7
  6
CONTINUOUS
 10
20.1812692382
 20
-31.0911358034
 11
17.4251420281
 21
-29.7130721983
  0
LINE
  5
2BA
100
AcDbEntity
  8
RACCORDO
100
AcDbLine
 62
7
  6
CONTINUOUS
 10
12.4046838817
 20
-27.2028431251
 11
10.1628922842
 21
-26.0819473264
  0
LINE
  5
2BB
100
AcDbEntity
  8
RACCORDO
100
AcDbLine
 62
7
  6
CONTINUOUS
 10
3.7570310488
 20
-22.8790167087
 11
1.3384627561
 21
-21.6697325623
  0
LINE
  5
2BC
100
AcDbEntity
  8
RACCORDO
100
AcDbLine
 62
7
  6
CONTINUOUS
 10
-3.3284419997
 20
-19.3362801844
 11
-5.7470102925
 21
-18.126996038
  0
LINE
  5
2BD
100
AcDbEntity
  8
RACCORDO
100
AcDbLine
 62
7
  6
CONTINUOUS
 10
-12.1528715279
 20
-14.9240654203
 11
-14.3946631253
 21
-13.8031696216
  0
LINE
  5
2BE
100
AcDbEntity
  8
RACCORDO
100
AcDbLine
 62
7
  6
CONTINUOUS
 10
-19.4151212717
 20
-11.2929405484
 11
-25.0012325344
 21
-8.4998849171
  0
LINE
  5
2BF
100
AcDbEntity
  8
ASSI
100
AcDbLine
 62
7
  6
CONTINUOUS
 10
19.0161322857
 20
-30.3870513434
 11
15.1270449892
 21
-28.4425076952
  0
LINE
  5
2C0
100
AcDbEntity
  8
ASSI
100
AcDbLine
 62
7
  6
CONTINUOUS
 10
-12.8036728676
 20
-14.4771487667
 11
-16.6927601642
 21
-12.5326051185
  0
LINE
  5
2C1
100
AcDbEntity
  8
ASSI
100
AcDbLine
 62
7
  6
CONTINUOUS
 10
19.2282643201
 20
-30.2809853262
 11
15.3391770236
 21
-28.336441678
  0
LINE
  5
2C2
100
AcDbEntity
  8
ASSI
100
AcDbLine
 62
7
  6
CONTINUOUS
 10
-12.5915408333
 20
-14.3710827495
 11
-16.4806281298
 21
-12.4265391013
  0
LINE
  5
2C3
100
AcDbEntity
  8
RACCORDO
100
AcDbLine
 62
7
  6
CONTINUOUS
 10
-25.0012648431
 20
-8.1478351894
 11
-24.6477877877
 21
-8.3245737171
  0
LWPOLYLINE
  5
2C4
100
AcDbEntity
  8
RACCORDO
100
AcDbPolyline
 62
7
  6
CONTINUOUS
 90
19
 70
0
 10
-24.6477877861
 20
-8.3245737163
 10
-24.6290004053
 20
-8.3346533774
 10
-24.6103836209
 20
-8.3466463172
 10
-24.5920790348
 20
-8.3604614723
 10
-24.5742259482
 20
-8.3759938633
 10
-24.5569601337
 20
-8.3931255154
 10
-24.5404128204
 20
-8.4117263971
 10
-24.5247098282
 20
-8.4316553429
 10
-24.5099708632
 20
-8.4527607116
 10
-24.4963083893
 20
-8.4748816237
 10
-24.4838264191
 20
-8.4978498079
 10
-24.4726199749
 20
-8.5214905591
 10
-24.4627745222
 20
-8.545623618
 10
-24.4543650142
 20
-8.5700652241
 10
-24.4474553816
 20
-8.5946295403
 10
-24.4420981869
 20
-8.6191296585
 10
-24.4383341885
 20
-8.6433791618
 10
-24.4361920306
 20
-8.6671935436
 10
-24.4356880127
 20
-8.6903916066
  0
LWPOLYLINE
  5
2C5
100
AcDbEntity
  8
RACCORDO
100
AcDbPolyline
 62
7
  6
CONTINUOUS
 90
10
 70
0
 10
21.7167563346
 20
-37.9511031019
 10
21.707514538
 20
-37.9459253483
 10
21.6921241067
 20
-37.9344391687
 10
21.6784351119
 20
-37.9202565802
 10
21.6665942098
 20
-37.9035295512
 10
21.6567282607
 20
-37.8844373185
 10
21.6489429779
 20
-37.8631845153
 10
21.6433217491
 20
-37.8399988988
 10
21.6399247625
 20
-37.8151288886
 10
21.6387883821
 20
-37.7888409634
  0
LWPOLYLINE
  5
2C6
100
AcDbEntity
  8
RACCORDO
100
AcDbPolyline
 62
7
  6
CONTINUOUS
 90
8
 70
0
 10
20.2691372038
 20
-34.5188254925
 10
20.2459444486
 20
-34.5057947352
 10
20.2259340997
 20
-34.491505839
 10
20.2093767558
 20
-34.4761520409
 10
20.1964963194
 20
-34.4599409789
 10
20.187466966
 20
-34.4430918817
 10
20.1824107919
 20
-34.4258326032
 10
20.1812693655
 20
-34.4128976541
  0
LWPOLYLINE
  5
2C7
100
AcDbEntity
  8
RACCORDO
100
AcDbPolyline
 62
7
  6
CONTINUOUS
 90
7
 70
0
 10
-26.4892375131
 20
-9.409854512
 10
-26.4861936863
 20
-9.411836083
 10
-26.4830898653
 20
-9.4137641936
 10
-26.47992605
 20
-9.4156388439
 10
-26.4767022404
 20
-9.4174600338
 10
-26.4734184366
 20
-9.4192277634
 10
-26.4700746386
 20
-9.4209420326
  0
LWPOLYLINE
  5
2C8
100
AcDbEntity
  8
0
100
AcDbPolyline
 62
7
  6
CONTINUOUS
 90
16
 70
0
 10
-1.9701637019
 20
-24.4818802942
 10
-1.9496851232
 20
-24.4964525012
 10
-1.9302730789
 20
-24.5123235339
 10
-1.911927569
 20
-24.5294933924
 10
-1.8945346218
 20
-24.5481392952
 10
-1.8782082091
 20
-24.5680840237
 10
-1.8632902463
 20
-24.588795922
 10
-1.8499047659
 20
-24.6101250251
 10
-1.8379277354
 20
-24.6322212981
 10
-1.8273289723
 20
-24.6550029807
 10
-1.8180070267
 20
-24.6787828233
 10
-1.8100633485
 20
-24.7032480756
 10
-1.8037721039
 20
-24.7273787261
 10
-1.7992246818
 20
-24.7508347713
 10
-1.7963296933
 20
-24.7739562148
 10
-1.7950871384
 20
-24.7967430566
  0
LINE
  5
2C9
100
AcDbEntity
  8
ASSI
100
AcDbLine
 62
7
  6
CONTINUOUS
 10
-12.8036728676
 20
-14.4771487667
 11
-12.6976068505
 21
-14.5540195687
  0
LINE
  5
2CA
100
AcDbEntity
  8
ASSI
100
AcDbLine
 62
7
  6
CONTINUOUS
 10
-12.4501194771
 20
-14.3003720714
 11
-12.3440534599
 21
-14.3772428734
  0
LINE
  5
2CB
100
AcDbEntity
  8
ASSI
100
AcDbLine
 62
7
  6
CONTINUOUS
 10
-12.0965660865
 20
-14.1235953761
 11
-11.9905000693
 21
-14.2004661781
  0
LWPOLYLINE
  5
2CC
100
AcDbEntity
  8
0
100
AcDbPolyline
 62
7
  6
CONTINUOUS
 90
13
 70
0
 10
-1.6050866009
 20
-24.2642948656
 10
-1.6547772381
 20
-24.2208598246
 10
-1.7071655782
 20
-24.1794083142
 10
-1.7622516213
 20
-24.1399403346
 10
-1.8201389475
 20
-24.1025713778
 10
-1.8807239766
 20
-24.0671859516
 10
-1.9436959682
 20
-24.0334375797
 10
-2.0089910342
 20
-24.001281912
 10
-2.0766730628
 20
-23.9707632984
 10
-2.1466229779
 20
-23.9416683129
 10
-2.2188010876
 20
-23.9139258131
 10
-2.2932470839
 20
-23.8876069414
 10
-2.3699609668
 20
-23.8627116976
  0
LWPOLYLINE
  5
2CD
100
AcDbEntity
  8
0
100
AcDbPolyline
 62
7
  6
CONTINUOUS
 90
13
 70
0
 10
-1.7465079571
 20
-24.3350055437
 10
-1.7960494713
 20
-24.2916698572
 10
-1.8483513484
 20
-24.2502764072
 10
-1.9034135883
 20
-24.2108251936
 10
-1.9613716758
 20
-24.1734105353
 10
-2.0220901261
 20
-24.1379381134
 10
-2.0851624856
 20
-24.1041249719
 10
-2.15048414
 20
-24.0719546704
 10
-2.2181597036
 20
-24.0414436493
 10
-2.2880965648
 20
-24.0123582728
 10
-2.3602638532
 20
-23.9846206624
 10
-2.4346924393
 20
-23.9583086967
 10
-2.5113823231
 20
-23.9334223757
  0
LWPOLYLINE
  5
2CE
100
AcDbEntity
  8
RACCORDO
100
AcDbPolyline
 62
7
  6
CONTINUOUS
 90
5
 70
0
 10
-18.9940534817
 20
-12.2514224476
 10
-19.0085625701
 20
-12.2383070911
 10
-19.0381307184
 20
-12.2166625026
 10
-19.0699835713
 20
-12.1979897433
 10
-19.0755944745
 20
-12.1951268581
  0
LINE
  5
2CF
100
AcDbEntity
  8
0
100
AcDbLine
 62
7
  6
CONTINUOUS
 10
-1.6986556543
 20
-25.2969946363
 11
-1.7145523646
 21
-25.2802318156
  0
LWPOLYLINE
  5
2D0
100
AcDbEntity
  8
RACCORDO
100
AcDbPolyline
 62
7
  6
CONTINUOUS
 90
15
 70
0
 10
-28.1681618898
 20
29.6669343316
 10
-28.174588981
 20
29.6910275863
 10
-28.1787733811
 20
29.7137729253
 10
-28.1808150837
 20
29.735027396
 10
-28.1808699745
 20
29.7546649914
 10
-28.1789968091
 20
29.7725788515
 10
-28.1751550458
 20
29.7886795866
 10
-28.1694350529
 20
29.8028839519
 10
-28.1619742279
 20
29.8151464825
 10
-28.1527989304
 20
29.8254462294
 10
-28.1420173731
 20
29.8337395822
 10
-28.1297409544
 20
29.84001489
 10
-28.1159917085
 20
29.8442806946
 10
-28.1008712079
 20
29.8465147052
 10
-28.0873592157
 20
29.8468190286
  0
LINE
  5
2D1
100
AcDbEntity
  8
DRAFT
100
AcDbLine
 62
7
  6
CONTINUOUS
 10
-25.7900493335
 20
4.4967985116
 11
-26.3038582207
 21
4.2114772215
  0
LINE
  5
2D2
100
AcDbEntity
  8
RACCORDO
100
AcDbLine
 62
7
  6
CONTINUOUS
 10
-25.3282113549
 20
4.8416937321
 11
-25.4363605149
 21
4.7833447792
  0
LINE
  5
2D3
100
AcDbEntity
  8
RACCORDO
100
AcDbLine
 62
7
  6
CONTINUOUS
 10
-25.2853095063
 20
4.7078192749
 11
-26.2205936951
 21
4.2365710652
  0
LINE
  5
2D4
100
AcDbEntity
  8
RACCORDO
100
AcDbLine
 62
7
  6
CONTINUOUS
 10
-25.0732097807
 20
4.3420013609
 11
-26.0084939695
 21
3.8707531512
  0
LINE
  5
2D5
100
AcDbEntity
  8
RACCORDO
100
AcDbLine
 62
7
  6
CONTINUOUS
 10
-25.5768243439
 20
5.2895888582
 11
-25.0012648431
 21
5.555401309
  0
LINE
  5
2D6
100
AcDbEntity
  8
RACCORDO
100
AcDbLine
 62
7
  6
CONTINUOUS
 10
-25.6579616884
 20
5.1258144793
 11
-25.0824021876
 21
5.3916269302
  0
LWPOLYLINE
  5
2D7
100
AcDbEntity
  8
RACCORDO
100
AcDbPolyline
 62
7
  6
CONTINUOUS
 90
8
 70
0
 10
-4.9211734545
 20
-18.0974511985
 10
-4.9056686099
 20
-18.0931248484
 10
-4.889395625
 20
-18.0909323311
 10
-4.8724782819
 20
-18.0908903115
 10
-4.8550452618
 20
-18.0929991053
 10
-4.8372291811
 20
-18.0972426716
 10
-4.8191655853
 20
-18.1035887266
 10
-4.8009918958
 20
-18.1119889918
  0
LWPOLYLINE
  5
2D8
100
AcDbEntity
  8
ASSI
100
AcDbPolyline
 62
7
  6
CONTINUOUS
 90
3
 70
0
 10
-15.2696814332
 20
-11.8068203787
 10
-15.256381376
 20
-11.8112658414
 10
-15.243269326
 20
-11.8167707162
  0
LWPOLYLINE
  5
2D9
100
AcDbEntity
  8
RACCORDO
100
AcDbPolyline
 62
7
  6
CONTINUOUS
 90
11
 70
0
 10
-24.4622286423
 20
-8.2974534155
 10
-24.4663951816
 20
-8.2955091974
 10
-24.4812852707
 20
-8.2904650937
 10
-24.4977165053
 20
-8.2875747192
 10
-24.5156329926
 20
-8.2867954319
 10
-24.5349085174
 20
-8.2881030149
 10
-24.555406946
 20
-8.2914676677
 10
-24.5770648149
 20
-8.2968443714
 10
-24.599777004
 20
-8.3041915887
 10
-24.6233935844
 20
-8.3134564151
 10
-24.6477877877
 20
-8.3245737171
  0
LINE
  5
2DA
100
AcDbEntity
  8
ASSI
100
AcDbLine
 62
7
  6
CONTINUOUS
 10
16.5765358274
 20
-27.7266732929
 11
16.5847911762
 21
-27.7306253339
  0
LINE
  5
2DB
100
AcDbEntity
  8
ASSI
100
AcDbLine
 62
7
  6
CONTINUOUS
 10
-15.243269326
 20
-11.8167707162
 11
-15.2350139772
 21
-11.8207227572
  0
LINE
  5
2DC
100
AcDbEntity
  8
RACCORDO
100
AcDbLine
 62
7
  6
CONTINUOUS
 10
-3.1322442319
 20
-18.8744228929
 11
-3.132283845
 21
-18.8744030985
  0
LINE
  5
2DD
100
AcDbEntity
  8
RACCORDO
100
AcDbLine
 62
7
  6
CONTINUOUS
 10
-25.0012648431
 20
-8.0279353044
 11
-24.4624313393
 21
-8.2973520563
  0
LINE
  5
2DE
100
AcDbEntity
  8
ASSI
100
AcDbLine
 62
7
  6
CONTINUOUS
 10
19.3696856763
 20
-30.2102746481
 11
15.4805983798
 21
-28.2657309999
  0
LINE
  5
2DF
100
AcDbEntity
  8
ASSI
100
AcDbLine
 62
7
  6
CONTINUOUS
 10
-12.4501194771
 20
-14.3003720714
 11
-16.3392067736
 21
-12.3558284232
  0
LINE
  5
2E0
100
AcDbEntity
  8
RACCORDO
100
AcDbLine
 62
7
  6
CONTINUOUS
 10
-4.8009918958
 20
-18.1119889918
 11
-3.2627012371
 21
-18.8811343211
  0
LINE
  5
2E1
100
AcDbEntity
  8
RACCORDO
100
AcDbLine
 62
7
  6
CONTINUOUS
 10
-4.6705300316
 20
-18.1052799929
 11
-3.132239373
 21
-18.8744253222
  0
LINE
  5
2E2
100
AcDbEntity
  8
ASSI
100
AcDbLine
 62
7
  6
CONTINUOUS
 10
19.5818177107
 20
-30.1042086309
 11
15.6927304142
 21
-28.1596649827
  0
LINE
  5
2E3
100
AcDbEntity
  8
ASSI
100
AcDbLine
 62
7
  6
CONTINUOUS
 10
-12.2379874427
 20
-14.1943060542
 11
-16.1270747392
 21
-12.249762406
  0
LINE
  5
2E4
100
AcDbEntity
  8
ASSI
100
AcDbLine
 62
7
  6
CONTINUOUS
 10
19.7232390669
 20
-30.0334979528
 11
15.8341517704
 21
-28.0889543046
  0
LINE
  5
2E5
100
AcDbEntity
  8
ASSI
100
AcDbLine
 62
7
  6
CONTINUOUS
 10
-12.0965660865
 20
-14.1235953761
 11
-15.985653383
 21
-12.1790517279
  0
LINE
  5
2E6
100
AcDbEntity
  8
ASSI
100
AcDbLine
 62
7
  6
CONTINUOUS
 10
19.9353711013
 20
-29.9274319356
 11
16.0462838048
 21
-27.9828882874
  0
LINE
  5
2E7
100
AcDbEntity
  8
ASSI
100
AcDbLine
 62
7
  6
CONTINUOUS
 10
-11.8844340521
 20
-14.0175293589
 11
-15.7735213486
 21
-12.0729857107
  0
LINE
  5
2E8
100
AcDbEntity
  8
ASSI
100
AcDbLine
 62
7
  6
CONTINUOUS
 10
20.0767924575
 20
-29.8567212575
 11
16.187705161
 21
-27.9121776093
  0
LINE
  5
2E9
100
AcDbEntity
  8
ASSI
100
AcDbLine
 62
7
  6
CONTINUOUS
 10
-11.7430126959
 20
-13.9468186808
 11
-15.6320999924
 21
-12.0022750326
  0
LINE
  5
2EA
100
AcDbEntity
  8
ASSI
100
AcDbLine
 62
7
  6
CONTINUOUS
 10
20.1812692382
 20
-29.6968276135
 11
16.3998371954
 21
-27.8061115921
  0
LINE
  5
2EB
100
AcDbEntity
  8
ASSI
100
AcDbLine
 62
7
  6
CONTINUOUS
 10
-11.5308806615
 20
-13.8407526637
 11
-15.419967958
 21
-11.8962090154
  0
LINE
  5
2EC
100
AcDbEntity
  8
ASSI
100
AcDbLine
 62
7
  6
CONTINUOUS
 10
-15.3566688591
 20
-11.810275002
 11
-15.3023843952
 21
-11.837417234
  0
LINE
  5
2ED
100
AcDbEntity
  8
ASSI
100
AcDbLine
 62
7
  6
CONTINUOUS
 10
-11.2833932881
 20
-13.8469127875
 11
-11.0992050136
 21
-13.9390069248
  0
LINE
  5
2EE
100
AcDbEntity
  8
ASSI
100
AcDbLine
 62
7
  6
CONTINUOUS
 10
16.4631362943
 20
-27.7201775787
 11
16.5174207582
 21
-27.7473198107
  0
LINE
  5
2EF
100
AcDbEntity
  8
ASSI
100
AcDbLine
 62
7
  6
CONTINUOUS
 10
20.1812692382
 20
-29.5554062573
 11
16.5412585516
 21
-27.735400914
  0
LINE
  5
2F0
100
AcDbEntity
  8
ASSI
100
AcDbLine
 62
7
  6
CONTINUOUS
 10
-11.3894593053
 20
-13.7700419855
 11
-15.2785466018
 21
-11.8254983373
  0
LINE
  5
2F1
100
AcDbEntity
  8
ASSI
100
AcDbLine
 62
7
  6
CONTINUOUS
 10
-15.234911903
 20
-11.8207517631
 11
-11.0420765315
 21
-13.9171694488
  0
LINE
  5
2F2
100
AcDbEntity
  8
ASSI
100
AcDbLine
 62
7
  6
CONTINUOUS
 10
16.5848932504
 20
-27.7306543398
 11
20.1812692382
 21
-29.5288423336
  0
LWPOLYLINE
  5
2F3
100
AcDbEntity
  8
RACCORDO
100
AcDbPolyline
 62
7
  6
CONTINUOUS
 90
14
 70
0
 10
-3.132283845
 20
-18.8744030985
 10
-3.1187014989
 20
-18.8816325628
 10
-3.0967747299
 20
-18.8953144061
 10
-3.0760784581
 20
-18.9108560953
 10
-3.0567420552
 20
-18.9281792526
 10
-3.0389191094
 20
-18.9471751735
 10
-3.0227667413
 20
-18.9677073332
 10
-3.0084151428
 20
-18.9896455682
 10
-2.9959918526
 20
-19.0128397887
 10
-2.9856173209
 20
-19.037116609
 10
-2.9773942018
 20
-19.0622944618
 10
-2.971406569
 20
-19.0881930616
 10
-2.9677271943
 20
-19.1146022593
 10
-2.9664034517
 20
-19.1427495603
  0
LWPOLYLINE
  5
2F4
100
AcDbEntity
  8
RACCORDO
100
AcDbPolyline
 62
7
  6
CONTINUOUS
 90
19
 70
0
 10
-3.2627012371
 20
-18.8811343211
 10
-3.243910667
 20
-18.8912161884
 10
-3.2252912143
 20
-18.9032116665
 10
-3.2069845295
 20
-18.9170294979
 10
-3.1891298796
 20
-18.932564565
 10
-3.1718631011
 20
-18.9496986794
 10
-3.1553155656
 20
-18.9683014764
 10
-3.1396131737
 20
-18.98823141
 10
-3.1248753654
 20
-19.009336875
 10
-3.1112142302
 20
-19.031457355
 10
-3.098733683
 20
-19.0544246066
 10
-3.0875286999
 20
-19.0780638707
 10
-3.0776845551
 20
-19.1021952443
 10
-3.0692761447
 20
-19.1266351099
 10
-3.0623674177
 20
-19.1511975678
 10
-3.0570109217
 20
-19.1756957862
 10
-3.0532474059
 20
-19.1999434018
 10
-3.0511055042
 20
-19.2237559371
 10
-3.0506015115
 20
-19.2469522351
  0
LWPOLYLINE
  5
2F5
100
AcDbEntity
  8
ASSI
100
AcDbPolyline
 62
7
  6
CONTINUOUS
 90
4
 70
0
 10
-11.0418369433
 20
-13.9172892992
 10
-11.0414035818
 20
-13.9175719243
 10
-11.0408121492
 20
-13.9186687275
 10
-11.0408019607
 20
-13.91897009
  0
LWPOLYLINE
  5
2F6
100
AcDbEntity
  8
DRAFT
100
AcDbPolyline
 62
7
  6
CONTINUOUS
 90
6
 70
0
 10
12.5458889969
 20
-27.3396990018
 10
12.5502753069
 20
-27.3426638741
 10
12.5862860573
 20
-27.3713669859
 10
12.6216918898
 20
-27.4041660479
 10
12.6561446401
 20
-27.4406829741
 10
12.6885998156
 20
-27.4797835065
  0
LINE
  5
2F7
100
AcDbEntity
  8
ASSI
100
AcDbLine
 62
7
  6
CONTINUOUS
 10
-11.7430126959
 20
-13.9468186808
 11
-11.6369466787
 21
-14.0236894828
  0
LINE
  5
2F8
100
AcDbEntity
  8
ASSI
100
AcDbLine
 62
7
  6
CONTINUOUS
 10
-11.3894593053
 20
-13.7700419855
 11
-11.2833932881
 21
-13.8469127875
  0
LINE
  5
2F9
100
AcDbEntity
  8
SMUSSO
100
AcDbLine
 62
7
  6
CONTINUOUS
 10
31.2204245988
 20
-59.314168071
 11
25.8397127242
 21
-53.0264906477
  0
LWPOLYLINE
  5
2FA
100
AcDbEntity
  8
0
100
AcDbPolyline
 62
7
  6
CONTINUOUS
 90
4
 70
0
 10
-1.5252206987
 20
-25.2686934962
 10
-1.5406010077
 20
-25.2469036195
 10
-1.5565711109
 20
-25.2271794999
 10
-1.5705279524
 20
-25.2122968615
  0
LINE
  5
2FB
100
AcDbEntity
  8
SMUSSO
100
AcDbLine
 62
7
  6
CONTINUOUS
 10
-35.823348764
 20
56.3192361953
 11
-33.1329928268
 21
48.6863808034
  0
LINE
  5
2FC
100
AcDbEntity
  8
DRAFT
100
AcDbLine
 62
7
  6
CONTINUOUS
 10
-12.3794087989
 20
-16.0608946903
 11
-12.3794087989
 21
-15.558744789
  0
LINE
  5
2FD
100
AcDbEntity
  8
RACCORDO
100
AcDbLine
 62
7
  6
CONTINUOUS
 10
-11.9407718023
 20
-15.7277954231
 11
-11.9407718023
 21
-15.2898833343
  0
LINE
  5
2FE
100
AcDbEntity
  8
ASSI
100
AcDbLine
 62
7
  6
CONTINUOUS
 10
-11.0921914837
 20
-13.9353496393
 11
-11.0921914837
 21
-14.4474757742
  0
LINE
  5
2FF
100
AcDbEntity
  8
ASSI
100
AcDbLine
 62
7
  6
CONTINUOUS
 10
-11.0408204488
 20
-13.9194431845
 11
-11.0408204488
 21
-14.4301264648
  0
LINE
  5
300
100
AcDbEntity
  8
ASSI
100
AcDbLine
 62
7
  6
CONTINUOUS
 10
-17.5506987516
 20
-12.9730998126
 11
-17.5412883016
 21
-12.9568691872
  0
LINE
  5
301
100
AcDbEntity
  8
RACCORDO
100
AcDbLine
 62
7
  6
CONTINUOUS
 10
-28.1681618348
 20
-10.1248805627
 11
-26.6591869083
 21
-9.0247544105
  0
LINE
  5
302
100
AcDbEntity
  8
DRAFT
100
AcDbLine
 62
7
  6
CONTINUOUS
 10
-25.7900493335
 20
-1.9983920167
 11
-26.3038582207
 21
-2.2837133069
  0
LINE
  5
303
100
AcDbEntity
  8
RACCORDO
100
AcDbLine
 62
7
  6
CONTINUOUS
 10
-25.7889240695
 20
-2.2143253702
 11
-25.2133645687
 21
-1.9243264719
  0
LINE
  5
304
100
AcDbEntity
  8
RACCORDO
100
AcDbLine
 62
7
  6
CONTINUOUS
 10
-25.5768243439
 20
-2.5801432842
 11
-25.0012648431
 21
-2.2901443859
  0
LINE
  5
305
100
AcDbEntity
  8
RACCORDO
100
AcDbLine
 62
7
  6
CONTINUOUS
 10
-26.0084939695
 20
-1.5781660891
 11
-25.0732097807
 21
-1.1462208564
  0
LINE
  5
306
100
AcDbEntity
  8
RACCORDO
100
AcDbLine
 62
7
  6
CONTINUOUS
 10
-26.089631314
 20
-1.741940468
 11
-25.1543471252
 21
-1.3099952353
  0
LWPOLYLINE
  5
307
100
AcDbEntity
  8
ASSI
100
AcDbPolyline
 62
7
  6
CONTINUOUS
 90
4
 70
0
 10
-15.3099345051
 20
-11.8003395074
 10
-15.2965209661
 20
-11.8011710786
 10
-15.2830938807
 20
-11.8034364712
 10
-15.2696814332
 20
-11.8068203787
  0
LINE
  5
308
100
AcDbEntity
  8
DRAFT
100
AcDbLine
 62
7
  6
CONTINUOUS
 10
-26.3038582207
 20
-1.7414875732
 11
-25.7900493335
 21
-1.9983920167
  0
LINE
  5
309
100
AcDbEntity
  8
RACCORDO
100
AcDbLine
 62
7
  6
CONTINUOUS
 10
-26.2205936951
 20
-1.7318842774
 11
-26.3038582207
 21
-1.6902520146
  0
LINE
  5
30A
100
AcDbEntity
  8
RACCORDO
100
AcDbLine
 62
7
  6
CONTINUOUS
 10
-25.2133645687
 20
-1.9243264719
 11
-25.8237355382
 21
-1.6191409872
  0
LINE
  5
30B
100
AcDbEntity
  8
ASSI
100
AcDbLine
 62
7
  6
CONTINUOUS
 10
19.0161322857
 20
-30.3870513434
 11
19.1221983029
 21
-30.4639221454
  0
LINE
  5
30C
100
AcDbEntity
  8
ASSI
100
AcDbLine
 62
7
  6
CONTINUOUS
 10
19.3696856763
 20
-30.2102746481
 11
19.4757516935
 21
-30.2871454501
  0
LINE
  5
30D
100
AcDbEntity
  8
ASSI
100
AcDbLine
 62
7
  6
CONTINUOUS
 10
19.7232390669
 20
-30.0334979528
 11
19.8293050841
 21
-30.1103687548
  0
LINE
  5
30E
100
AcDbEntity
  8
ASSI
100
AcDbLine
 62
7
  6
CONTINUOUS
 10
20.0767924575
 20
-29.8567212575
 11
20.1828584747
 21
-29.9335920595
  0
LINE
  5
30F
100
AcDbEntity
  8
0
100
AcDbLine
 62
7
  6
CONTINUOUS
 10
-5.01464065
 20
-23.2916008107
 11
-4.6510484644
 21
-24.6608433058
  0
LINE
  5
310
100
AcDbEntity
  8
0
100
AcDbLine
 62
7
  6
CONTINUOUS
 10
-4.6276220167
 20
-23.8636931326
 11
-4.9342843282
 21
-22.7007253124
  0
LINE
  5
311
100
AcDbEntity
  8
0
100
AcDbLine
 62
7
  6
CONTINUOUS
 10
-4.5349445251
 20
-23.608129136
 11
-4.792862972
 21
-22.6300146343
  0
LINE
  5
312
100
AcDbEntity
  8
0
100
AcDbLine
 62
7
  6
CONTINUOUS
 10
-7.1909505666
 20
-21.5723921933
 11
-6.7202401889
 21
-23.6262474435
  0
LINE
  5
313
100
AcDbEntity
  8
0
100
AcDbLine
 62
7
  6
CONTINUOUS
 10
-6.5712344054
 20
-23.1339800098
 11
-6.8542645011
 21
-21.740735226
  0
LINE
  5
314
100
AcDbEntity
  8
0
100
AcDbLine
 62
7
  6
CONTINUOUS
 10
-6.4832310673
 20
-22.8003136378
 11
-6.7128431449
 21
-21.6700245479
  0
LINE
  5
315
100
AcDbEntity
  8
0
100
AcDbLine
 62
7
  6
CONTINUOUS
 10
-3.8721894368
 20
-25.0502728196
 11
-4.011034803
 21
-23.162350075
  0
LINE
  5
316
100
AcDbEntity
  8
0
100
AcDbLine
 62
7
  6
CONTINUOUS
 10
-3.7437517053
 20
-24.8030198401
 11
-3.8696134468
 21
-23.0916393969
  0
LINE
  5
317
100
AcDbEntity
  8
0
100
AcDbLine
 62
7
  6
CONTINUOUS
 10
-4.2390661334
 20
-23.6843382702
 11
-4.1753890464
 21
-24.8986730148
  0
LINE
  5
318
100
AcDbEntity
  8
RACCORDO
100
AcDbLine
 62
7
  6
CONTINUOUS
 10
-6.5679945247
 20
-18.4644519261
 11
-6.5679945247
 21
-18.0484943042
  0
LINE
  5
319
100
AcDbEntity
  8
0
100
AcDbLine
 62
7
  6
CONTINUOUS
 10
-5.8548171492
 20
-22.2403497827
 11
-5.8548171492
 21
-24.0589589634
  0
LINE
  5
31A
100
AcDbEntity
  8
0
100
AcDbLine
 62
7
  6
CONTINUOUS
 10
-5.5448809333
 20
-24.2139270713
 11
-5.5448809333
 21
-22.3953178907
  0
LINE
  5
31B
100
AcDbEntity
  8
0
100
AcDbLine
 62
7
  6
CONTINUOUS
 10
-5.4034595771
 20
-24.1432163932
 11
-5.4034595771
 21
-22.3246072126
  0
LINE
  5
31C
100
AcDbEntity
  8
ASSI
100
AcDbLine
 62
7
  6
CONTINUOUS
 10
-11.5915697326
 20
-14.8071400445
 11
-11.5859334825
 21
-14.7841959411
  0
LINE
  5
31D
100
AcDbEntity
  8
ASSI
100
AcDbLine
 62
7
  6
CONTINUOUS
 10
-17.2830860846
 20
-12.9445489394
 11
-17.187734911
 21
-12.7800924919
  0
LINE
  5
31E
100
AcDbEntity
  8
ASSI
100
AcDbLine
 62
7
  6
CONTINUOUS
 10
-16.929532694
 20
-12.7677722442
 11
-16.8341815204
 21
-12.6033157966
  0
LINE
  5
31F
100
AcDbEntity
  8
ASSI
100
AcDbLine
 62
7
  6
CONTINUOUS
 10
-16.5759793034
 20
-12.5909955489
 11
-16.4806281298
 21
-12.4265391013
  0
LINE
  5
320
100
AcDbEntity
  8
ASSI
100
AcDbLine
 62
7
  6
CONTINUOUS
 10
-16.2224259128
 20
-12.4142188536
 11
-16.1270747392
 21
-12.249762406
  0
LINE
  5
321
100
AcDbEntity
  8
ASSI
100
AcDbLine
 62
7
  6
CONTINUOUS
 10
-15.8688725222
 20
-12.2374421583
 11
-15.7735213486
 21
-12.0729857107
  0
LINE
  5
322
100
AcDbEntity
  8
ASSI
100
AcDbLine
 62
7
  6
CONTINUOUS
 10
-15.5153191316
 20
-12.060665463
 11
-15.419967958
 21
-11.8962090154
  0
LINE
  5
323
100
AcDbEntity
  8
RACCORDO
100
AcDbLine
 62
7
  6
CONTINUOUS
 10
-28.0075802093
 20
-10.5168707455
 11
-26.4892375131
 21
-9.409854512
  0
LWPOLYLINE
  5
324
100
AcDbEntity
  8
RACCORDO
100
AcDbPolyline
 62
7
  6
CONTINUOUS
 90
10
 70
0
 10
-26.5988165419
 20
-8.9921518752
 10
-26.6051245187
 20
-8.9960012348
 10
-26.6115373039
 20
-8.9997964496
 10
-26.6180529261
 20
-9.0035363498
 10
-26.6246693824
 20
-9.0072197826
 10
-26.6313846387
 20
-9.0108456127
 10
-26.6381966307
 20
-9.0144127224
 10
-26.6451032643
 20
-9.0179200119
 10
-26.6521024163
 20
-9.0213664002
 10
-26.659191935
 20
-9.0247508246
  0
LWPOLYLINE
  5
325
100
AcDbEntity
  8
RACCORDO
100
AcDbPolyline
 62
7
  6
CONTINUOUS
 90
10
 70
0
 10
-26.3553226147
 20
-9.3375181094
 10
-26.3683404673
 20
-9.3445992753
 10
-26.3813322725
 20
-9.3522543497
 10
-26.3942803946
 20
-9.3604729411
 10
-26.407167257
 20
-9.3692438931
 10
-26.4199753662
 20
-9.3785552994
 10
-26.4326873357
 20
-9.3883945201
 10
-26.4452859094
 20
-9.3987481989
 10
-26.4577539854
 20
-9.4096022811
 10
-26.4700746386
 20
-9.4209420326
  0
LWPOLYLINE
  5
326
100
AcDbEntity
  8
RACCORDO
100
AcDbPolyline
 62
7
  6
CONTINUOUS
 90
12
 70
0
 10
-24.4356880621
 20
-8.6903916311
 10
-24.4120776305
 20
-8.677917966
 10
-24.3903110832
 20
-8.6654583724
 10
-24.3705166331
 20
-8.6530755176
 10
-24.3528247784
 20
-8.6408539131
 10
-24.3373331516
 20
-8.6288500612
 10
-24.3241202174
 20
-8.6170886822
 10
-24.3132895173
 20
-8.60566072
 10
-24.3049361683
 20
-8.5946380031
 10
-24.2991353612
 20
-8.5840192603
 10
-24.2959691349
 20
-8.5739054509
 10
-24.2953580422
 20
-8.5675455883
  0
LINE
  5
327
100
AcDbEntity
  8
DRAFT
100
AcDbLine
 62
7
  6
CONTINUOUS
 10
32.2019715952
 20
24.3419974651
 11
34.3249940984
 21
25.4488946913
  0
LINE
  5
328
100
AcDbEntity
  8
RACCORDO
100
AcDbLine
 62
7
  6
CONTINUOUS
 10
-26.5993038048
 20
-8.987763851
 11
-26.3038582207
 21
-8.8389019283
  0
LINE
  5
329
100
AcDbEntity
  8
RACCORDO
100
AcDbLine
 62
7
  6
CONTINUOUS
 10
-25.5768243439
 20
-8.789867661
 11
-25.0012648431
 21
-8.4998687627
  0
LINE
  5
32A
100
AcDbEntity
  8
SMUSSO
100
AcDbLine
 62
7
  6
CONTINUOUS
 10
30.7894601925
 20
23.3355202788
 11
31.8501203643
 21
23.8658503647
  0
LINE
  5
32B
100
AcDbEntity
  8
SMUSSO
100
AcDbLine
 62
7
  6
CONTINUOUS
 10
31.4965669737
 20
22.1159414844
 11
32.5572271455
 21
22.6462715703
  0
LINE
  5
32C
100
AcDbEntity
  8
RACCORDO
100
AcDbLine
 62
7
  6
CONTINUOUS
 10
-26.3016566026
 20
-8.8434174176
 11
-25.7900493335
 21
-8.5939729579
  0
LINE
  5
32D
100
AcDbEntity
  8
DRAFT
100
AcDbLine
 62
7
  6
CONTINUOUS
 10
33.2255742746
 20
22.5765439974
 11
35.3856542702
 21
23.6195265005
  0
LINE
  5
32E
100
AcDbEntity
  8
RACCORDO
100
AcDbLine
 62
7
  6
CONTINUOUS
 10
-26.2205936951
 20
4.2365710652
 11
-26.2406290812
 21
4.2465887583
  0
LINE
  5
32F
100
AcDbEntity
  8
RACCORDO
100
AcDbLine
 62
7
  6
CONTINUOUS
 10
-25.2853095063
 20
4.7078192749
 11
-25.7900493335
 21
4.9601891885
  0
LWPOLYLINE
  5
330
100
AcDbEntity
  8
DRAFT
100
AcDbPolyline
 62
7
  6
CONTINUOUS
 90
17
 70
0
 10
12.6885998156
 20
-27.4797835065
 10
12.718909145
 20
-27.5213942176
 10
12.7472208996
 20
-27.565588535
 10
12.7729353995
 20
-27.6114524836
 10
12.7960828741
 20
-27.6592432559
 10
12.8166330942
 20
-27.7087036594
 10
12.8338956922
 20
-27.7581481412
 10
12.8477065862
 20
-27.8073175194
 10
12.8582298582
 20
-27.8564709759
 10
12.8652673863
 20
-27.9047005028
 10
12.8687531301
 20
-27.9522493925
 10
12.8687531301
 20
-27.9988743526
 10
12.8652673863
 20
-28.0429374984
 10
12.8582298582
 20
-28.0841294972
 10
12.8477065862
 20
-28.1227596817
 10
12.8338956922
 20
-28.1581181659
 10
12.8308169766
 20
-28.1638576767
  0
LWPOLYLINE
  5
331
100
AcDbEntity
  8
0
100
AcDbPolyline
 62
7
  6
CONTINUOUS
 90
6
 70
0
 10
-1.8635968112
 20
-25.503140561
 10
-1.8478359062
 20
-25.5675374014
 10
-1.8324189993
 20
-25.6330244723
 10
-1.8173460908
 20
-25.6996017736
 10
-1.802841741
 20
-25.7672555009
 10
-1.7741913546
 20
-25.9058750608
  0
LINE
  5
332
100
AcDbEntity
  8
0
100
AcDbLine
 62
7
  6
CONTINUOUS
 10
-2.6023946563
 20
-25.6851702098
 11
-3.0579679991
 21
-23.638883477
  0
LINE
  5
333
100
AcDbEntity
  8
0
100
AcDbLine
 62
7
  6
CONTINUOUS
 10
-2.5113823231
 20
-25.3880386566
 11
-2.9165466428
 21
-23.5681727989
  0
LINE
  5
334
100
AcDbEntity
  8
0
100
AcDbLine
 62
7
  6
CONTINUOUS
 10
-1.7741913546
 20
-25.9058750608
 11
-1.7280694689
 21
-26.122333148
  0
LINE
  5
335
100
AcDbEntity
  8
0
100
AcDbLine
 62
7
  6
CONTINUOUS
 10
-3.0093438013
 20
-25.1186586541
 11
-2.9290539476
 21
-25.5218405642
  0
LINE
  5
336
100
AcDbEntity
  8
0
100
AcDbLine
 62
7
  6
CONTINUOUS
 10
-1.4995211962
 20
-25.9114261986
 11
-1.5359016738
 21
-25.7262261348
  0
LINE
  5
337
100
AcDbEntity
  8
0
100
AcDbLine
 62
7
  6
CONTINUOUS
 10
-1.358126572
 20
-25.8405774068
 11
-1.3944803176
 21
-25.6555154567
  0
LINE
  5
338
100
AcDbEntity
  8
0
100
AcDbLine
 62
7
  6
CONTINUOUS
 10
-1.4299471725
 20
-26.2713942962
 11
-1.4995211962
 21
-25.9114261986
  0
LINE
  5
339
100
AcDbEntity
  8
0
100
AcDbLine
 62
7
  6
CONTINUOUS
 10
-1.2885258163
 20
-26.200683618
 11
-1.358126572
 21
-25.8405774068
  0
LINE
  5
33A
100
AcDbEntity
  8
0
100
AcDbLine
 62
7
  6
CONTINUOUS
 10
-3.213704025
 20
-24.0606930695
 11
-3.071284234
 21
-24.8067714474
  0
LWPOLYLINE
  5
33B
100
AcDbEntity
  8
0
100
AcDbPolyline
 62
7
  6
CONTINUOUS
 90
13
 70
0
 10
-1.3944803176
 20
-25.6555154567
 10
-1.4016967242
 20
-25.6171494248
 10
-1.4095170592
 20
-25.579699681
 10
-1.4179413227
 20
-25.5431662252
 10
-1.4269158429
 20
-25.5074286823
 10
-1.4364942915
 20
-25.4726074273
 10
-1.4468376838
 20
-25.4390635861
 10
-1.4580020314
 20
-25.406793644
 10
-1.4699313227
 20
-25.3758011156
 10
-1.4826185371
 20
-25.3464576698
 10
-1.4961173775
 20
-25.3187483045
 10
-1.510374141
 20
-25.2926880218
 10
-1.5252206987
 20
-25.2686934962
  0
LWPOLYLINE
  5
33C
100
AcDbEntity
  8
0
100
AcDbPolyline
 62
7
  6
CONTINUOUS
 90
15
 70
0
 10
-1.5359016738
 20
-25.7262261348
 10
-1.5428272014
 20
-25.6890852955
 10
-1.5504817849
 20
-25.65234382
 10
-1.5588654243
 20
-25.6160017084
 10
-1.5679443173
 20
-25.5797663431
 10
-1.5777522663
 20
-25.5439303415
 10
-1.5883906782
 20
-25.509371556
 10
-1.5999584613
 20
-25.4761377997
 10
-1.6123567074
 20
-25.4441812593
 10
-1.6253900993
 20
-25.4142363478
 10
-1.639067069
 20
-25.3864755767
 10
-1.6533791844
 20
-25.3607264344
 10
-1.668105833
 20
-25.3372057993
 10
-1.6831734771
 20
-25.3159859642
 10
-1.6986556543
 20
-25.2969946363
  0
LINE
  5
33D
100
AcDbEntity
  8
RACCORDO
100
AcDbLine
 62
7
  6
CONTINUOUS
 10
-3.1163099654
 20
-20.1902942058
 11
-3.1163099654
 21
-19.7021933987
  0
LINE
  5
33E
100
AcDbEntity
  8
RACCORDO
100
AcDbLine
 62
7
  6
CONTINUOUS
 10
-3.0506015115
 20
-19.2469522351
 11
-3.0506015115
 21
-20.2231484327
  0
LINE
  5
33F
100
AcDbEntity
  8
RACCORDO
100
AcDbLine
 62
7
  6
CONTINUOUS
 10
-2.9664034516
 20
-19.1427534795
 11
-2.9664034516
 21
-20.2652474627
  0
LINE
  5
340
100
AcDbEntity
  8
0
100
AcDbLine
 62
7
  6
CONTINUOUS
 10
-2.5113823231
 20
-23.9334223757
 11
-2.5113823231
 21
-25.7306767209
  0
LINE
  5
341
100
AcDbEntity
  8
0
100
AcDbLine
 62
7
  6
CONTINUOUS
 10
-2.2129705335
 20
-24.8703955531
 11
-2.2129705335
 21
-24.3711817205
  0
LINE
  5
342
100
AcDbEntity
  8
0
100
AcDbLine
 62
7
  6
CONTINUOUS
 10
-2.2026935259
 20
-25.8850211195
 11
-2.2026935259
 21
-25.1733604911
  0
LINE
  5
343
100
AcDbEntity
  8
0
100
AcDbLine
 62
7
  6
CONTINUOUS
 10
-2.0715491773
 20
-24.799684875
 11
-2.0715491773
 21
-24.4249071996
  0
LINE
  5
344
100
AcDbEntity
  8
0
100
AcDbLine
 62
7
  6
CONTINUOUS
 10
-2.0612721697
 20
-25.8143104414
 11
-2.0612721697
 21
-25.2440711692
  0
LINE
  5
345
100
AcDbEntity
  8
0
100
AcDbLine
 62
7
  6
CONTINUOUS
 10
-1.7145523646
 20
-25.2802318156
 11
-1.7145523646
 21
-25.2694860633
  0
LWPOLYLINE
  5
346
100
AcDbEntity
  8
0
100
AcDbPolyline
 62
7
  6
CONTINUOUS
 90
11
 70
0
 10
-1.7950871384
 20
-24.7967430566
 10
-1.7961896869
 20
-24.8263542155
 10
-1.7989813817
 20
-24.853681017
 10
-1.8034622229
 20
-24.8787234612
 10
-1.8098233428
 20
-24.9016311512
 10
-1.8178736091
 20
-24.9222544839
 10
-1.8270396249
 20
-24.94014465
 10
-1.8370757118
 20
-24.9550624742
 10
-1.8482275482
 20
-24.9672471318
 10
-1.8606587723
 20
-24.9769673397
 10
-1.8693371445
 20
-24.9819700018
  0
LINE
  5
347
100
AcDbEntity
  8
0
100
AcDbLine
 62
7
  6
CONTINUOUS
 10
-5.0815251733
 20
-24.4456049513
 11
-5.01464065
 21
-23.2916008107
  0
LINE
  5
348
100
AcDbEntity
  8
0
100
AcDbLine
 62
7
  6
CONTINUOUS
 10
-4.9401038171
 20
-24.3748942732
 11
-4.9019204611
 21
-23.7160908815
  0
LINE
  5
349
100
AcDbEntity
  8
0
100
AcDbLine
 62
7
  6
CONTINUOUS
 10
-5.2439638644
 20
-22.5458855443
 11
-5.3780327243
 21
-24.2973511758
  0
LWPOLYLINE
  5
34A
100
AcDbEntity
  8
RACCORDO
100
AcDbPolyline
 62
7
  6
CONTINUOUS
 90
10
 70
0
 10
-2.9664034516
 20
-19.1427528762
 10
-2.9673654897
 20
-19.1547565762
 10
-2.9705647675
 20
-19.1676506327
 10
-2.9759743922
 20
-19.1803399179
 10
-2.9835447097
 20
-19.1927308046
 10
-2.993209956
 20
-19.2047319313
 10
-3.0048642062
 20
-19.216233448
 10
-3.0183914392
 20
-19.2271484463
 10
-3.0336803334
 20
-19.2374106903
 10
-3.0506015115
 20
-19.2469522351
  0
LINE
  5
34B
100
AcDbEntity
  8
0
100
AcDbLine
 62
7
  6
CONTINUOUS
 10
-6.2795592221
 20
-22.0280878655
 11
-6.5712344054
 21
-23.1339800098
  0
LINE
  5
34C
100
AcDbEntity
  8
ASSI
100
AcDbLine
 62
7
  6
CONTINUOUS
 10
-12.6976068505
 20
-14.5540195687
 11
-12.5915408333
 21
-14.3710827495
  0
LINE
  5
34D
100
AcDbEntity
  8
ASSI
100
AcDbLine
 62
7
  6
CONTINUOUS
 10
-12.3440534599
 20
-14.3772428734
 11
-12.2379874427
 21
-14.1943060542
  0
LINE
  5
34E
100
AcDbEntity
  8
ASSI
100
AcDbLine
 62
7
  6
CONTINUOUS
 10
-11.9905000693
 20
-14.2004661781
 11
-11.8844340521
 21
-14.0175293589
  0
LINE
  5
34F
100
AcDbEntity
  8
ASSI
100
AcDbLine
 62
7
  6
CONTINUOUS
 10
-11.6369466787
 20
-14.0236894828
 11
-11.5308806615
 21
-13.8407526637
  0
LINE
  5
350
100
AcDbEntity
  8
ASSI
100
AcDbLine
 62
7
  6
CONTINUOUS
 10
-11.8402576679
 20
-15.1197668754
 11
-11.5915697326
 21
-14.8071400445
  0
LINE
  5
351
100
AcDbEntity
  8
SMUSSO
100
AcDbLine
 62
7
  6
CONTINUOUS
 10
-35.823348764
 20
-25.7922813896
 11
-33.1329928268
 21
-23.5401378722
  0
LINE
  5
352
100
AcDbEntity
  8
SMUSSO
100
AcDbLine
 62
7
  6
CONTINUOUS
 10
31.2204245988
 20
22.7973495139
 11
25.8397127242
 21
19.2000280279
  0
LINE
  5
353
100
AcDbEntity
  8
RACCORDO
100
AcDbLine
 62
7
  6
CONTINUOUS
 10
-26.3553226147
 20
-9.3375181094
 11
-26.091758495
 21
-9.2047198423
  0
LINE
  5
354
100
AcDbEntity
  8
RACCORDO
100
AcDbLine
 62
7
  6
CONTINUOUS
 10
-24.6477877877
 20
-8.3245737171
 11
-25.0012325344
 21
-8.4998849171
  0
LINE
  5
355
100
AcDbEntity
  8
RACCORDO
100
AcDbLine
 62
7
  6
CONTINUOUS
 10
-24.4356880621
 20
-8.6903916311
 11
-24.5283234428
 21
-8.7363394629
  0
LINE
  5
356
100
AcDbEntity
  8
RACCORDO
100
AcDbLine
 62
7
  6
CONTINUOUS
 10
-26.0897820783
 20
-9.2087734468
 11
-25.5782080187
 21
-8.9593451791
  0
LWPOLYLINE
  5
357
100
AcDbEntity
  8
RACCORDO
100
AcDbPolyline
 62
7
  6
CONTINUOUS
 90
10
 70
0
 10
-26.5993038048
 20
-8.987763851
 10
-26.6056338089
 20
-8.9907673075
 10
-26.6120676848
 20
-8.9937150743
 10
-26.6186034728
 20
-8.9966062536
 10
-26.625239182
 20
-8.9994399646
 10
-26.6319727911
 20
-9.0022153441
 10
-26.6388022491
 20
-9.0049315469
 10
-26.6457254758
 20
-9.0075877454
 10
-26.6527403623
 20
-9.0101831306
 10
-26.6598447719
 20
-9.012716912
  0
LWPOLYLINE
  5
358
100
AcDbEntity
  8
RACCORDO
100
AcDbPolyline
 62
7
  6
CONTINUOUS
 90
10
 70
0
 10
-26.3620470909
 20
-9.3331519078
 10
-26.3763990871
 20
-9.3394975365
 10
-26.3907400251
 20
-9.3464131584
 10
-26.405050294
 20
-9.3538893146
 10
-26.4193103249
 20
-9.3619157798
 10
-26.4335006175
 20
-9.3704815762
 10
-26.4476017668
 20
-9.3795749885
 10
-26.4615944894
 20
-9.3891835798
 10
-26.4754596504
 20
-9.3992942087
 10
-26.4891782889
 20
-9.4098930476
  0
LINE
  5
359
100
AcDbEntity
  8
DRAFT
100
AcDbLine
 62
7
  6
CONTINUOUS
 10
3.5304937778
 20
-24.0158459787
 11
3.5304937778
 21
-23.5136960773
  0
LINE
  5
35A
100
AcDbEntity
  8
RACCORDO
100
AcDbLine
 62
7
  6
CONTINUOUS
 10
3.9691307744
 20
-23.6827467115
 11
3.9691307744
 21
-23.2448346227
  0
LINE
  5
35B
100
AcDbEntity
  8
0
100
AcDbLine
 62
7
  6
CONTINUOUS
 10
-3.3680258374
 20
-24.6584006457
 11
-3.213704025
 21
-24.0606930695
  0
LINE
  5
35C
100
AcDbEntity
  8
0
100
AcDbLine
 62
7
  6
CONTINUOUS
 10
-3.2266044811
 20
-24.5876899676
 11
-3.1613503191
 21
-24.3349524806
  0
LINE
  5
35D
100
AcDbEntity
  8
0
100
AcDbLine
 62
7
  6
CONTINUOUS
 10
-3.5169481823
 20
-25.2278934468
 11
-3.4314250314
 21
-24.9076180391
  0
LINE
  5
35E
100
AcDbEntity
  8
0
100
AcDbLine
 62
7
  6
CONTINUOUS
 10
-3.3755268261
 20
-25.1571827687
 11
-3.3233192891
 21
-24.9616709102
  0
LINE
  5
35F
100
AcDbEntity
  8
0
100
AcDbLine
 62
7
  6
CONTINUOUS
 10
-3.3577932951
 20
-23.488970829
 11
-3.8235213984
 21
-25.0746068388
  0
LINE
  5
360
100
AcDbEntity
  8
0
100
AcDbLine
 62
7
  6
CONTINUOUS
 10
-6.447108881
 20
-23.7628130975
 11
-5.9698344311
 21
-22.182950261
  0
LINE
  5
361
100
AcDbEntity
  8
0
100
AcDbLine
 62
7
  6
CONTINUOUS
 10
-6.3056875248
 20
-23.6921024194
 11
-5.8284130749
 21
-22.1122395829
  0
LINE
  5
362
100
AcDbEntity
  8
0
100
AcDbLine
 62
7
  6
CONTINUOUS
 10
-4.3176858008
 20
-23.0090245761
 11
-4.6276220167
 21
-23.8636931326
  0
LINE
  5
363
100
AcDbEntity
  8
0
100
AcDbLine
 62
7
  6
CONTINUOUS
 10
-4.6075804892
 20
-24.6825772934
 11
-4.2390661334
 21
-23.6843382702
  0
LINE
  5
364
100
AcDbEntity
  8
0
100
AcDbLine
 62
7
  6
CONTINUOUS
 10
-4.466159133
 20
-24.6118666153
 11
-4.2247232329
 21
-23.9578602427
  0
LINE
  5
365
100
AcDbEntity
  8
ASSI
100
AcDbLine
 62
7
  6
CONTINUOUS
 10
-11.3541039662
 20
-14.6660653066
 11
-11.0993990926
 21
-14.4814692557
  0
LWPOLYLINE
  5
366
100
AcDbEntity
  8
RACCORDO
100
AcDbPolyline
 62
7
  6
CONTINUOUS
 90
16
 70
0
 10
21.847218201
 20
7.5373361536
 10
21.8253129088
 20
7.5245231604
 10
21.8036819864
 20
7.5090840196
 10
21.7825571967
 20
7.4911841527
 10
21.7621648796
 20
7.4710153464
 10
21.742723527
 20
7.448793698
 10
21.7244414418
 20
7.4247572995
 10
21.7075144947
 20
7.399163669
 10
21.6921240616
 20
7.3722870439
 10
21.6784350689
 20
7.3444154508
 10
21.666594172
 20
7.3158475151
 10
21.6567282303
 20
7.2868893339
 10
21.648942957
 20
7.2578512578
 10
21.643321738
 20
7.2290444324
 10
21.639924759
 20
7.2007774633
 10
21.6387883821
 20
7.173353192
  0
LINE
  5
367
100
AcDbEntity
  8
RACCORDO
100
AcDbLine
 62
7
  6
CONTINUOUS
 10
-19.9808066967
 20
-11.5878764846
 11
-19.4151212717
 21
-11.2929405484
  0
LINE
  5
368
100
AcDbEntity
  8
RACCORDO
100
AcDbLine
 62
7
  6
CONTINUOUS
 10
-19.6808738271
 20
-11.9080122749
 11
-19.2029892374
 21
-11.6588537627
  0
LINE
  5
369
100
AcDbEntity
  8
RACCORDO
100
AcDbLine
 62
7
  6
CONTINUOUS
 10
-14.5305364527
 20
-13.7955311931
 11
-15.0962218776
 21
-14.0904671293
  0
LINE
  5
36A
100
AcDbEntity
  8
RACCORDO
100
AcDbLine
 62
7
  6
CONTINUOUS
 10
-14.3946631253
 20
-13.8031696216
 11
-14.9603485503
 21
-14.0981055578
  0
LINE
  5
36B
100
AcDbEntity
  8
RACCORDO
100
AcDbLine
 62
7
  6
CONTINUOUS
 10
21.847218202
 20
7.5373361531
 11
22.1387647893
 21
7.6842335443
  0
LINE
  5
36C
100
AcDbEntity
  8
RACCORDO
100
AcDbLine
 62
7
  6
CONTINUOUS
 10
22.3421175618
 20
6.6837610205
 11
22.633664149
 21
6.8306584116
  0
LINE
  5
36D
100
AcDbEntity
  8
ASSI
100
AcDbLine
 62
7
  6
CONTINUOUS
 10
-17.5412883016
 20
-12.9568691872
 11
-17.3998669454
 21
-12.8861585091
  0
LINE
  5
36E
100
AcDbEntity
  8
ASSI
100
AcDbLine
 62
7
  6
CONTINUOUS
 10
-17.187734911
 20
-12.7800924919
 11
-17.0463135548
 21
-12.7093818138
  0
LINE
  5
36F
100
AcDbEntity
  8
ASSI
100
AcDbLine
 62
7
  6
CONTINUOUS
 10
-16.8341815204
 20
-12.6033157966
 11
-16.6927601642
 21
-12.5326051185
  0
LINE
  5
370
100
AcDbEntity
  8
ASSI
100
AcDbLine
 62
7
  6
CONTINUOUS
 10
-16.4806281298
 20
-12.4265391013
 11
-16.3392067736
 21
-12.3558284232
  0
LINE
  5
371
100
AcDbEntity
  8
ASSI
100
AcDbLine
 62
7
  6
CONTINUOUS
 10
-16.1270747392
 20
-12.249762406
 11
-15.985653383
 21
-12.1790517279
  0
LINE
  5
372
100
AcDbEntity
  8
ASSI
100
AcDbLine
 62
7
  6
CONTINUOUS
 10
-15.7735213486
 20
-12.0729857107
 11
-15.6320999924
 21
-12.0022750326
  0
LINE
  5
373
100
AcDbEntity
  8
ASSI
100
AcDbLine
 62
7
  6
CONTINUOUS
 10
-15.419967958
 20
-11.8962090154
 11
-15.2785466018
 21
-11.8254983373
  0
LINE
  5
374
100
AcDbEntity
  8
0
100
AcDbLine
 62
7
  6
CONTINUOUS
 10
-15.3566688591
 20
-11.810275002
 11
-17.7349417992
 21
-12.8809782888
  0
LWPOLYLINE
  5
375
100
AcDbEntity
  8
RACCORDO
100
AcDbPolyline
 62
7
  6
CONTINUOUS
 90
16
 70
0
 10
22.3421175618
 20
6.6837610188
 10
22.3186933112
 20
6.6735678601
 10
22.2932871802
 20
6.6646400112
 10
22.2661713806
 20
6.6570731287
 10
22.2376364424
 20
6.6509482873
 10
22.2079881007
 20
6.6463311112
 10
22.1775440203
 20
6.6432710705
 10
22.1466303717
 20
6.6418009514
 10
22.1155783964
 20
6.6419365078
 10
22.0847208577
 20
6.6436762824
 10
22.0543883654
 20
6.6470016265
 10
22.0249059165
 20
6.6518769019
 10
21.9965894641
 20
6.6582498452
 10
21.9697424017
 20
6.6660521477
 10
21.9446523228
 20
6.6752002005
 10
21.9215880163
 20
6.6855959734
  0
LINE
  5
376
100
AcDbEntity
  8
DRAFT
100
AcDbLine
 62
7
  6
CONTINUOUS
 10
-26.3038582207
 20
17.3110713101
 11
-25.7900493335
 21
17.0541668665
  0
LINE
  5
377
100
AcDbEntity
  8
RACCORDO
100
AcDbLine
 62
7
  6
CONTINUOUS
 10
-26.2205936951
 20
17.3206746058
 11
-26.3038582207
 21
17.3623068686
  0
LINE
  5
378
100
AcDbEntity
  8
RACCORDO
100
AcDbLine
 62
7
  6
CONTINUOUS
 10
-25.2133645687
 20
17.1282324113
 11
-25.8237355382
 21
17.4334178961
  0
LINE
  5
379
100
AcDbEntity
  8
RACCORDO
100
AcDbLine
 62
7
  6
CONTINUOUS
 10
9.341908052
 20
-26.4194032144
 11
9.341908052
 21
-26.0034455925
  0
LINE
  5
37A
100
AcDbEntity
  8
0
100
AcDbLine
 62
7
  6
CONTINUOUS
 10
-11.0992050136
 20
-13.9390069248
 11
-12.531861877
 21
-14.7345702458
  0
LINE
  5
37B
100
AcDbEntity
  8
RACCORDO
100
AcDbLine
 62
7
  6
CONTINUOUS
 10
-11.398502512
 20
-15.4352287005
 11
-12.3016959543
 21
-15.9225222834
  0
LINE
  5
37C
100
AcDbEntity
  8
RACCORDO
100
AcDbLine
 62
7
  6
CONTINUOUS
 10
-11.2612089262
 20
-15.4421190522
 11
-12.1644023686
 21
-15.9294126352
  0
LINE
  5
37D
100
AcDbEntity
  8
0
100
AcDbLine
 62
7
  6
CONTINUOUS
 10
-11.3541039662
 20
-14.6660653066
 11
-12.0428249475
 21
-15.0170087403
  0
LINE
  5
37E
100
AcDbEntity
  8
RACCORDO
100
AcDbLine
 62
7
  6
CONTINUOUS
 10
-12.7284310287
 20
-15.2140643186
 11
-12.1528715279
 21
-14.9240654203
  0
LINE
  5
37F
100
AcDbEntity
  8
RACCORDO
100
AcDbLine
 62
7
  6
CONTINUOUS
 10
-12.4270767405
 20
-15.5349108182
 11
-11.9407718023
 21
-15.2898833343
  0
LINE
  5
380
100
AcDbEntity
  8
0
100
AcDbLine
 62
7
  6
CONTINUOUS
 10
-11.8402576679
 20
-15.1197668754
 11
-11.9581154652
 21
-15.178960116
  0
LINE
  5
381
100
AcDbEntity
  8
ASSI
100
AcDbLine
 62
7
  6
CONTINUOUS
 10
-12.9251888514
 20
-14.5379067586
 11
-12.8036728676
 21
-14.4771487667
  0
LINE
  5
382
100
AcDbEntity
  8
ASSI
100
AcDbLine
 62
7
  6
CONTINUOUS
 10
-12.5915408333
 20
-14.3710827495
 11
-12.4501194771
 21
-14.3003720714
  0
LINE
  5
383
100
AcDbEntity
  8
ASSI
100
AcDbLine
 62
7
  6
CONTINUOUS
 10
-12.2379874427
 20
-14.1943060542
 11
-12.0965660865
 21
-14.1235953761
  0
LINE
  5
384
100
AcDbEntity
  8
ASSI
100
AcDbLine
 62
7
  6
CONTINUOUS
 10
-11.8844340521
 20
-14.0175293589
 11
-11.7430126959
 21
-13.9468186808
  0
LINE
  5
385
100
AcDbEntity
  8
ASSI
100
AcDbLine
 62
7
  6
CONTINUOUS
 10
-11.5308806615
 20
-13.8407526637
 11
-11.3894593053
 21
-13.7700419855
  0
LINE
  5
386
100
AcDbEntity
  8
ASSI
100
AcDbLine
 62
7
  6
CONTINUOUS
 10
-11.2833932881
 20
-13.8469127875
 11
-12.7952850408
 21
-14.6028586639
  0
LINE
  5
387
100
AcDbEntity
  8
0
100
AcDbLine
 62
7
  6
CONTINUOUS
 10
-11.0921914837
 20
-14.4474757742
 11
-12.107272467
 21
-14.9531934726
  0
LWPOLYLINE
  5
388
100
AcDbEntity
  8
ASSI
100
AcDbPolyline
 62
7
  6
CONTINUOUS
 90
10
 70
0
 10
-11.0921914837
 20
-13.9353496393
 10
-11.0818880511
 20
-13.9302904495
 10
-11.0727250899
 20
-13.9261770268
 10
-11.0647591515
 20
-13.9229271842
 10
-11.0581263257
 20
-13.9204156759
 10
-11.0527656389
 20
-13.9185814303
 10
-11.0484255929
 20
-13.9174482989
 10
-11.0451035381
 20
-13.9169457795
 10
-11.042829706
 20
-13.9169796126
 10
-11.0418369433
 20
-13.9172892992
  0
LINE
  5
389
100
AcDbEntity
  8
DRAFT
100
AcDbLine
 62
7
  6
CONTINUOUS
 10
-12.3794087989
 20
-15.558744789
 11
-12.9160004577
 21
-15.7925988609
  0
LWPOLYLINE
  5
38A
100
AcDbEntity
  8
ASSI
100
AcDbPolyline
 62
7
  6
CONTINUOUS
 90
4
 70
0
 10
-15.3488795451
 20
-11.8070056086
 10
-15.3362671503
 20
-11.8032847012
 10
-15.3232365557
 20
-11.8010682743
 10
-15.3099345051
 20
-11.8003395074
  0
LINE
  5
38B
100
AcDbEntity
  8
RACCORDO
100
AcDbLine
 62
7
  6
CONTINUOUS
 10
-26.2205936951
 20
23.2891299485
 11
-26.2406290812
 21
23.2991476415
  0
LINE
  5
38C
100
AcDbEntity
  8
RACCORDO
100
AcDbLine
 62
7
  6
CONTINUOUS
 10
12.616815916
 20
-27.5687563394
 11
12.616815916
 21
-28.0568571465
  0
LINE
  5
38D
100
AcDbEntity
  8
RACCORDO
100
AcDbLine
 62
7
  6
CONTINUOUS
 10
-6.4401152273
 20
-18.4199786603
 11
-5.8843038782
 21
-18.1201056862
  0
LINE
  5
38E
100
AcDbEntity
  8
RACCORDO
100
AcDbLine
 62
7
  6
CONTINUOUS
 10
-6.3028216416
 20
-18.4268690121
 11
-5.7470102925
 21
-18.126996038
  0
LINE
  5
38F
100
AcDbEntity
  8
RACCORDO
100
AcDbLine
 62
7
  6
CONTINUOUS
 10
-7.7153784391
 20
-18.1539245999
 11
-6.7800942504
 21
-17.6826763902
  0
LINE
  5
390
100
AcDbEntity
  8
RACCORDO
100
AcDbLine
 62
7
  6
CONTINUOUS
 10
-6.9823545254
 20
-18.2572719258
 11
-6.5679945247
 21
-18.0484943042
  0
LINE
  5
391
100
AcDbEntity
  8
RACCORDO
100
AcDbLine
 62
7
  6
CONTINUOUS
 10
-4.9304777233
 20
-18.1012508799
 11
-5.3817113367
 21
-18.3096455159
  0
LINE
  5
392
100
AcDbEntity
  8
RACCORDO
100
AcDbLine
 62
7
  6
CONTINUOUS
 10
-4.8009918958
 20
-18.1119889918
 11
-5.3083732958
 21
-18.3463145364
  0
LINE
  5
393
100
AcDbEntity
  8
DRAFT
100
AcDbLine
 62
7
  6
CONTINUOUS
 10
-7.07610794
 20
-18.2103952184
 11
-7.6126995988
 21
-18.4442492904
  0
LINE
  5
394
100
AcDbEntity
  8
RACCORDO
100
AcDbLine
 62
7
  6
CONTINUOUS
 10
-25.2853095063
 20
23.7603781582
 11
-25.7900493335
 21
24.0127480718
  0
LINE
  5
395
100
AcDbEntity
  8
DRAFT
100
AcDbLine
 62
7
  6
CONTINUOUS
 10
31.9068373095
 20
23.8329661128
 11
32.2019715968
 21
24.3419974643
  0
LINE
  5
396
100
AcDbEntity
  8
RACCORDO
100
AcDbLine
 62
7
  6
CONTINUOUS
 10
-3.8941274247
 20
-19.6312161206
 11
-3.3284419997
 21
-19.3362801844
  0
LINE
  5
397
100
AcDbEntity
  8
RACCORDO
100
AcDbLine
 62
7
  6
CONTINUOUS
 10
-3.5941945551
 20
-19.9513519109
 11
-3.1163099654
 21
-19.7021933987
  0
LINE
  5
398
100
AcDbEntity
  8
0
100
AcDbLine
 62
7
  6
CONTINUOUS
 10
-7.0495292103
 20
-21.5016815151
 11
-7.1909505666
 21
-21.5723921933
  0
LINE
  5
399
100
AcDbEntity
  8
0
100
AcDbLine
 62
7
  6
CONTINUOUS
 10
-6.7128431449
 20
-21.6700245479
 11
-6.8542645011
 21
-21.740735226
  0
LINE
  5
39A
100
AcDbEntity
  8
0
100
AcDbLine
 62
7
  6
CONTINUOUS
 10
-6.1381378659
 20
-21.9573771874
 11
-6.2795592221
 21
-22.0280878655
  0
LINE
  5
39B
100
AcDbEntity
  8
0
100
AcDbLine
 62
7
  6
CONTINUOUS
 10
-5.8284130749
 20
-22.1122395829
 11
-5.9698344311
 21
-22.182950261
  0
LINE
  5
39C
100
AcDbEntity
  8
0
100
AcDbLine
 62
7
  6
CONTINUOUS
 10
-5.713395793
 20
-22.1696391046
 11
-5.8548171492
 21
-22.2403497827
  0
LINE
  5
39D
100
AcDbEntity
  8
0
100
AcDbLine
 62
7
  6
CONTINUOUS
 10
-5.4034595771
 20
-22.3246072126
 11
-5.5448809333
 21
-22.3953178907
  0
LINE
  5
39E
100
AcDbEntity
  8
0
100
AcDbLine
 62
7
  6
CONTINUOUS
 10
-5.1025425082
 20
-22.4751748662
 11
-5.2439638644
 21
-22.5458855443
  0
LINE
  5
39F
100
AcDbEntity
  8
0
100
AcDbLine
 62
7
  6
CONTINUOUS
 10
-4.792862972
 20
-22.6300146343
 11
-4.9342843282
 21
-22.7007253124
  0
LINE
  5
3A0
100
AcDbEntity
  8
0
100
AcDbLine
 62
7
  6
CONTINUOUS
 10
-6.3056875248
 20
-23.6921024194
 11
-6.447108881
 21
-23.7628130975
  0
LINE
  5
3A1
100
AcDbEntity
  8
0
100
AcDbLine
 62
7
  6
CONTINUOUS
 10
-4.1762644446
 20
-22.938313898
 11
-4.3176858008
 21
-23.0090245761
  0
LINE
  5
3A2
100
AcDbEntity
  8
0
100
AcDbLine
 62
7
  6
CONTINUOUS
 10
-3.8696134468
 20
-23.0916393969
 11
-4.011034803
 21
-23.162350075
  0
LINE
  5
3A3
100
AcDbEntity
  8
0
100
AcDbLine
 62
7
  6
CONTINUOUS
 10
-5.4034595771
 20
-24.1432163932
 11
-5.5448809333
 21
-24.2139270713
  0
LINE
  5
3A4
100
AcDbEntity
  8
RACCORDO
100
AcDbLine
 62
7
  6
CONTINUOUS
 10
-3.2627012371
 20
-18.8811343211
 11
-3.7526737597
 21
-19.1241643044
  0
LINE
  5
3A5
100
AcDbEntity
  8
RACCORDO
100
AcDbLine
 62
7
  6
CONTINUOUS
 10
-3.0506015115
 20
-19.2469522351
 11
-3.2854184864
 21
-19.3634231857
  0
LWPOLYLINE
  5
3A6
100
AcDbEntity
  8
RACCORDO
100
AcDbPolyline
 62
7
  6
CONTINUOUS
 90
8
 70
0
 10
-4.9304777233
 20
-18.1012508799
 10
-4.9038328725
 20
-18.0904626882
 10
-4.875874019
 20
-18.0821749323
 10
-4.8468890375
 20
-18.0765903256
 10
-4.8171322382
 20
-18.0738661197
 10
-4.7870344765
 20
-18.0741283787
 10
-4.7571335858
 20
-18.0774021467
 10
-4.7276770508
 20
-18.0836627074
  0
LWPOLYLINE
  5
3A7
100
AcDbEntity
  8
RACCORDO
100
AcDbPolyline
 62
7
  6
CONTINUOUS
 90
13
 70
0
 10
-28.5523668
 20
29.6837409013
 10
-28.5263056852
 20
29.6721447289
 10
-28.4977282719
 20
29.6621396775
 10
-28.4670210011
 20
29.6538610565
 10
-28.4345991168
 20
29.6474208294
 10
-28.4009010596
 20
29.6429061004
 10
-28.366382538
 20
29.6403779346
 10
-28.3315103501
 20
29.6398705312
 10
-28.2967560856
 20
29.641390763
 10
-28.2625897561
 20
29.6449180802
 10
-28.2294734147
 20
29.6504047879
 10
-28.1978549081
 20
29.6577766942
 10
-28.1681618348
 20
29.6669341118
  0
LWPOLYLINE
  5
3A8
100
AcDbEntity
  8
RACCORDO
100
AcDbPolyline
 62
7
  6
CONTINUOUS
 90
11
 70
0
 10
-29.7135881585
 20
33.3177393334
 10
-29.7508357649
 20
33.334399208
 10
-29.7878569391
 20
33.3475850091
 10
-29.824442939
 20
33.3572240652
 10
-29.8603863681
 20
33.3632640897
 10
-29.8954861592
 20
33.3656715314
 10
-29.9295486904
 20
33.3644317
 10
-29.9623831494
 20
33.3595518048
 10
-29.9938045111
 20
33.3510599162
 10
-30.0236384011
 20
33.3390028535
 10
-30.035341435
 20
33.3330606382
  0
LINE
  5
3A9
100
AcDbEntity
  8
RACCORDO
100
AcDbLine
 62
7
  6
CONTINUOUS
 10
-28.0691760726
 20
29.8389892448
 11
19.9418823943
 21
5.8334600114
  0
LINE
  5
3AA
100
AcDbEntity
  8
RACCORDO
100
AcDbLine
 62
7
  6
CONTINUOUS
 10
-28.1471440283
 20
30.0012513849
 11
19.8639144321
 21
5.9957221548
  0
LINE
  5
3AB
100
AcDbEntity
  8
RACCORDO
100
AcDbLine
 62
7
  6
CONTINUOUS
 10
21.6387883821
 20
7.173353192
 11
-29.924301324
 21
32.9548980451
  0
LINE
  5
3AC
100
AcDbEntity
  8
RACCORDO
100
AcDbLine
 62
7
  6
CONTINUOUS
 10
21.847218202
 20
7.5373361531
 11
-29.7135881585
 21
33.3177393334
  0
LINE
  5
3AD
100
AcDbEntity
  8
RACCORDO
100
AcDbLine
 62
7
  6
CONTINUOUS
 10
22.1387647893
 20
7.6842335443
 11
-29.4320448918
 21
33.4696383848
  0
LWPOLYLINE
  5
3AE
100
AcDbEntity
  8
RACCORDO
100
AcDbPolyline
 62
7
  6
CONTINUOUS
 90
22
 70
0
 10
19.9419138395
 20
5.8334441126
 10
19.9485273415
 20
5.8299587806
 10
19.9619736196
 20
5.8218532291
 10
19.9771254038
 20
5.8112168015
 10
19.9934492755
 20
5.7980679573
 10
20.0105992267
 20
5.7823893328
 10
20.0282422226
 20
5.7642182955
 10
20.0459381955
 20
5.7437837103
 10
20.0633434267
 20
5.7213188758
 10
20.0802100023
 20
5.6970121911
 10
20.0963250636
 20
5.6710474336
 10
20.1114468742
 20
5.6437180089
 10
20.1253795041
 20
5.6153219374
 10
20.1380104869
 20
5.5860352901
 10
20.1491819307
 20
5.5561831828
 10
20.1587712551
 20
5.5261047121
 10
20.1667233083
 20
5.4960147713
 10
20.1729721232
 20
5.4662242344
 10
20.1774702661
 20
5.4371101091
 10
20.1802142169
 20
5.4090696572
 10
20.1812540183
 20
5.3824943523
 10
20.181268636
 20
5.3791869697
  0
LWPOLYLINE
  5
3AF
100
AcDbEntity
  8
RACCORDO
100
AcDbPolyline
 62
7
  6
CONTINUOUS
 90
22
 70
0
 10
21.6387883821
 20
7.173353192
 10
21.6599889731
 20
7.1617695093
 10
21.6808776082
 20
7.1484557111
 10
21.7014542877
 20
7.1334117974
 10
21.7218418729
 20
7.1165296696
 10
21.7419175023
 20
7.0979174264
 10
21.7613125913
 20
7.0778993636
 10
21.7800048648
 20
7.0564579277
 10
21.7980165978
 20
7.0336106722
 10
21.8150460315
 20
7.0097345537
 10
21.8310785538
 20
6.9848072781
 10
21.8461287769
 20
6.9588511396
 10
21.8599387777
 20
6.9323099773
 10
21.8724846977
 20
6.9051767472
 10
21.8837903954
 20
6.8774584935
 10
21.8936695238
 20
6.8496201882
 10
21.9020979533
 20
6.821646572
 10
21.9090998135
 20
6.7935529043
 10
21.9145611457
 20
6.7658499355
 10
21.9184439638
 20
6.7387079159
 10
21.920786254
 20
6.7119565951
 10
21.9215880163
 20
6.6855959734
  0
LWPOLYLINE
  5
3B0
100
AcDbEntity
  8
RACCORDO
100
AcDbPolyline
 62
7
  6
CONTINUOUS
 90
6
 70
0
 10
19.8639144321
 20
5.9957221548
 10
19.8999020036
 20
5.97564893
 10
19.9348903519
 20
5.9524951585
 10
19.9688794769
 20
5.9262608402
 10
20.0020334235
 20
5.8967631432
 10
20.0341881467
 20
5.8641848994
  0
LWPOLYLINE
  5
3B1
100
AcDbEntity
  8
RACCORDO
100
AcDbPolyline
 62
7
  6
CONTINUOUS
 90
8
 70
0
 10
20.2691372038
 20
5.2729888994
 10
20.2459445387
 20
5.2860195929
 10
20.2259342364
 20
5.3003084295
 10
20.2093769021
 20
5.3156621773
 10
20.1964964451
 20
5.3318732031
 10
20.1874670516
 20
5.3487222807
 10
20.1824108287
 20
5.3659815551
 10
20.1812692382
 20
5.3790549166
  0
LWPOLYLINE
  5
3B2
100
AcDbEntity
  8
RACCORDO
100
AcDbPolyline
 62
7
  6
CONTINUOUS
 90
10
 70
0
 10
19.8639144321
 20
5.9957221548
 10
19.8650129085
 20
5.9698658128
 10
19.8682969555
 20
5.9453757281
 10
19.8737325615
 20
5.9225055323
 10
19.8812634321
 20
5.9014920802
 10
19.8908115732
 20
5.8825529974
 10
19.9022780992
 20
5.865884426
 10
19.9155442567
 20
5.8516589936
 10
19.9304726542
 20
5.8400240255
 10
19.9418823948
 20
5.8334600111
  0
LWPOLYLINE
  5
3B3
100
AcDbEntity
  8
RACCORDO
100
AcDbPolyline
 62
7
  6
CONTINUOUS
 90
22
 70
0
 10
22.3421175618
 20
6.6837610205
 10
22.3404656713
 20
6.7296196049
 10
22.3360731102
 20
6.7766131254
 10
22.3289663447
 20
6.8244797714
 10
22.319188108
 20
6.8729533274
 10
22.3067933306
 20
6.9217629825
 10
22.2918487865
 20
6.9706348451
 10
22.2744384972
 20
7.019296077
 10
22.2546612998
 20
7.0674752761
 10
22.232626451
 20
7.1149023198
 10
22.2084570443
 20
7.1613117661
 10
22.1822890198
 20
7.2064448838
 10
22.154268346
 20
7.2500499116
 10
22.1245505551
 20
7.2918828436
 10
22.0933021303
 20
7.3317096617
 10
22.0606992713
 20
7.3693081954
 10
22.0269228871
 20
7.4044674073
 10
21.9921611842
 20
7.4369906148
 10
21.9566108077
 20
7.4666973881
 10
21.9204702069
 20
7.4934215356
 10
21.8839385463
 20
7.517012081
 10
21.847218202
 20
7.5373361531
  0
LINE
  5
3B4
100
AcDbEntity
  8
RACCORDO
100
AcDbLine
 62
7
  6
CONTINUOUS
 10
20.1812692382
 20
5.3790549166
 11
20.1812692382
 21
-34.412759454
  0
LINE
  5
3B5
100
AcDbEntity
  8
RACCORDO
100
AcDbLine
 62
7
  6
CONTINUOUS
 10
20.2691372038
 20
5.2729888994
 11
20.2691372038
 21
-34.5188254925
  0
LINE
  5
3B6
100
AcDbEntity
  8
RACCORDO
100
AcDbLine
 62
7
  6
CONTINUOUS
 10
21.9215880163
 20
-37.5838833789
 11
21.9215880163
 21
6.6855959734
  0
LINE
  5
3B7
100
AcDbEntity
  8
RACCORDO
100
AcDbLine
 62
7
  6
CONTINUOUS
 10
22.3421175618
 20
-37.5857183318
 11
22.3421175618
 21
6.6837610205
  0
LINE
  5
3B8
100
AcDbEntity
  8
RACCORDO
100
AcDbLine
 62
7
  6
CONTINUOUS
 10
22.633664149
 20
-37.4510724563
 11
22.633664149
 21
6.8306584116
  0
LWPOLYLINE
  5
3B9
100
AcDbEntity
  8
RACCORDO
100
AcDbPolyline
 62
7
  6
CONTINUOUS
 90
8
 70
0
 10
20.1812688125
 20
-34.4128976548
 10
20.1811279518
 20
-34.4233493813
 10
20.1802297035
 20
-34.4407376946
 10
20.1785597571
 20
-34.4566771766
 10
20.17625193
 20
-34.4707370195
 10
20.1736100722
 20
-34.4821901813
 10
20.170972493
 20
-34.490828394
 10
20.1704734907
 20
-34.4922249908
  0
LWPOLYLINE
  5
3BA
100
AcDbEntity
  8
RACCORDO
100
AcDbPolyline
 62
7
  6
CONTINUOUS
 90
22
 70
0
 10
21.9215880163
 20
-37.5838833789
 10
21.9207940853
 20
-37.6093095061
 10
21.9184762697
 20
-37.633598171
 10
21.9146345696
 20
-37.6567493738
 10
21.9092317136
 20
-37.6788927363
 10
21.902304973
 20
-37.6998986366
 10
21.8939661623
 20
-37.7193782085
 10
21.8841923195
 20
-37.7372931696
 10
21.8730064065
 20
-37.7536818023
 10
21.860589124
 20
-37.7682700876
 10
21.8469167408
 20
-37.7810287866
 10
21.832012988
 20
-37.7919871381
 10
21.8161297596
 20
-37.8009588396
 10
21.7992519201
 20
-37.8079077148
 10
21.7813946051
 20
-37.8128699399
 10
21.7628551152
 20
-37.8157677409
 10
21.7436146017
 20
-37.8165627287
 10
21.7236919132
 20
-37.8152932923
 10
21.7034408967
 20
-37.8119968255
 10
21.682979501
 20
-37.8066857925
 10
21.6621897772
 20
-37.799347729
 10
21.6410717253
 20
-37.789982635
  0
LWPOLYLINE
  5
3BB
100
AcDbEntity
  8
RACCORDO
100
AcDbPolyline
 62
7
  6
CONTINUOUS
 90
19
 70
0
 10
20.2691372038
 20
-34.5188254925
 10
20.2672330872
 20
-34.5669808566
 10
20.2622971154
 20
-34.6119663664
 10
20.2543292885
 20
-34.6537820219
 10
20.2431615902
 20
-34.6926092309
 10
20.2289620367
 20
-34.7282665856
 10
20.2122346772
 20
-34.7602098627
 10
20.1929634142
 20
-34.7883373165
 10
20.1711643451
 20
-34.8127506926
 10
20.1473898118
 20
-34.8332110052
 10
20.1216571796
 20
-34.8496632305
 10
20.093949083
 20
-34.8621623921
 10
20.064765768
 20
-34.870634575
 10
20.0341174034
 20
-34.8750705969
 10
20.0019938203
 20
-34.8754796401
 10
19.9688647577
 20
-34.8718153364
 10
19.9348867953
 20
-34.8640622298
 10
19.8999033534
 20
-34.8522357764
 10
19.8639144321
 20
-34.8363359761
  0
LWPOLYLINE
  5
3BC
100
AcDbEntity
  8
RACCORDO
100
AcDbPolyline
 62
7
  6
CONTINUOUS
 90
13
 70
0
 10
19.8639144321
 20
-34.8363359761
 10
19.8650129051
 20
-34.8093811717
 10
19.868296948
 20
-34.7816070517
 10
19.8737325494
 20
-34.753301259
 10
19.8812634157
 20
-34.7247569425
 10
19.8908115532
 20
-34.6962697216
 10
19.9022780768
 20
-34.6681346243
 10
19.9155442333
 20
-34.6406430317
 10
19.9304726317
 20
-34.6140796608
 10
19.946908666
 20
-34.588719615
 10
19.9646821164
 20
-34.5648255359
 10
19.9836089121
 20
-34.5426448826
 10
20.0034930376
 20
-34.5224073689
  0
LINE
  5
3BD
100
AcDbEntity
  8
RACCORDO
100
AcDbLine
 62
7
  6
CONTINUOUS
 10
4.5114000647
 20
-23.3901799888
 11
3.6082066223
 21
-23.8774735717
  0
LINE
  5
3BE
100
AcDbEntity
  8
RACCORDO
100
AcDbLine
 62
7
  6
CONTINUOUS
 10
4.6486936505
 20
-23.3970703406
 11
3.7455002081
 21
-23.8843639235
  0
LINE
  5
3BF
100
AcDbEntity
  8
RACCORDO
100
AcDbLine
 62
7
  6
CONTINUOUS
 10
1.2025894287
 20
-21.6620941338
 11
0.6369040038
 21
-21.95703007
  0
LINE
  5
3C0
100
AcDbEntity
  8
RACCORDO
100
AcDbLine
 62
7
  6
CONTINUOUS
 10
1.3384627561
 20
-21.6697325623
 11
0.7727773311
 21
-21.9646684985
  0
LINE
  5
3C1
100
AcDbEntity
  8
RACCORDO
100
AcDbLine
 62
7
  6
CONTINUOUS
 10
3.181471548
 20
-23.169015607
 11
3.7570310488
 21
-22.8790167087
  0
LINE
  5
3C2
100
AcDbEntity
  8
RACCORDO
100
AcDbLine
 62
7
  6
CONTINUOUS
 10
3.4828258362
 20
-23.4898621066
 11
3.9691307744
 21
-23.2448346227
  0
LINE
  5
3C3
100
AcDbEntity
  8
0
100
AcDbLine
 62
7
  6
CONTINUOUS
 10
-3.2163719389
 20
-23.4182601509
 11
-3.3577932951
 21
-23.488970829
  0
LINE
  5
3C4
100
AcDbEntity
  8
0
100
AcDbLine
 62
7
  6
CONTINUOUS
 10
-4.9401038171
 20
-24.3748942732
 11
-5.0815251733
 21
-24.4456049513
  0
LINE
  5
3C5
100
AcDbEntity
  8
0
100
AcDbLine
 62
7
  6
CONTINUOUS
 10
-2.9165466428
 20
-23.5681727989
 11
-3.0579679991
 21
-23.638883477
  0
LINE
  5
3C6
100
AcDbEntity
  8
0
100
AcDbLine
 62
7
  6
CONTINUOUS
 10
-4.466159133
 20
-24.6118666153
 11
-4.6075804892
 21
-24.6825772934
  0
LINE
  5
3C7
100
AcDbEntity
  8
0
100
AcDbLine
 62
7
  6
CONTINUOUS
 10
-2.3699609668
 20
-23.8627116976
 11
-2.5113823231
 21
-23.9334223757
  0
LINE
  5
3C8
100
AcDbEntity
  8
0
100
AcDbLine
 62
7
  6
CONTINUOUS
 10
-3.2266044811
 20
-24.5876899676
 11
-3.3680258374
 21
-24.6584006457
  0
LINE
  5
3C9
100
AcDbEntity
  8
0
100
AcDbLine
 62
7
  6
CONTINUOUS
 10
-3.8067661182
 20
-25.0175611603
 11
-3.8721894368
 21
-25.0502728196
  0
LINE
  5
3CA
100
AcDbEntity
  8
0
100
AcDbLine
 62
7
  6
CONTINUOUS
 10
-1.6050866009
 20
-24.2642948656
 11
-1.7465079571
 21
-24.3350055437
  0
LINE
  5
3CB
100
AcDbEntity
  8
0
100
AcDbLine
 62
7
  6
CONTINUOUS
 10
-3.3755268261
 20
-25.1571827687
 11
-3.5169481823
 21
-25.2278934468
  0
LINE
  5
3CC
100
AcDbEntity
  8
0
100
AcDbLine
 62
7
  6
CONTINUOUS
 10
-2.0715491773
 20
-24.799684875
 11
-2.2129705335
 21
-24.8703955531
  0
LINE
  5
3CD
100
AcDbEntity
  8
0
100
AcDbLine
 62
7
  6
CONTINUOUS
 10
-1.8944238929
 20
-24.8882475172
 11
-2.0358452491
 21
-24.9589581953
  0
LINE
  5
3CE
100
AcDbEntity
  8
0
100
AcDbLine
 62
7
  6
CONTINUOUS
 10
-2.5113823231
 20
-25.6396640432
 11
-2.6023946563
 21
-25.6851702098
  0
LINE
  5
3CF
100
AcDbEntity
  8
0
100
AcDbLine
 62
7
  6
CONTINUOUS
 10
-1.7102540637
 20
-25.2780826652
 11
-1.7145523646
 21
-25.2802318156
  0
LINE
  5
3D0
100
AcDbEntity
  8
0
100
AcDbLine
 62
7
  6
CONTINUOUS
 10
-1.6715210767
 20
-25.2627934236
 11
-1.5300997205
 21
-25.1920827455
  0
LINE
  5
3D1
100
AcDbEntity
  8
0
100
AcDbLine
 62
7
  6
CONTINUOUS
 10
-2.0612721697
 20
-25.8143104414
 11
-2.2026935259
 21
-25.8850211195
  0
LINE
  5
3D2
100
AcDbEntity
  8
0
100
AcDbLine
 62
7
  6
CONTINUOUS
 10
-1.3944803176
 20
-25.6555154567
 11
-1.5359016738
 21
-25.7262261348
  0
LINE
  5
3D3
100
AcDbEntity
  8
0
100
AcDbLine
 62
7
  6
CONTINUOUS
 10
-1.2885258163
 20
-26.200683618
 11
-1.4299471725
 21
-26.2713942962
  0
LWPOLYLINE
  5
3D4
100
AcDbEntity
  8
0
100
AcDbPolyline
 62
7
  6
CONTINUOUS
 90
49
 70
0
 10
-1.5300710521
 20
-25.1921417013
 10
-1.5250027669
 20
-25.1896659941
 10
-1.5181266586
 20
-25.1860014925
 10
-1.5111736232
 20
-25.1821133107
 10
-1.5041194983
 20
-25.178095609
 10
-1.4969884463
 20
-25.1738542271
 10
-1.489817827
 20
-25.1692701455
 10
-1.4826046489
 20
-25.1643636934
 10
-1.4753519034
 20
-25.1591145416
 10
-1.4681059254
 20
-25.1533426834
 10
-1.4608594676
 20
-25.1470473301
 10
-1.4536197772
 20
-25.1402292704
 10
-1.4464549298
 20
-25.1327108632
 10
-1.4393616773
 20
-25.1244654697
 10
-1.4323432678
 20
-25.1155197287
 10
-1.4254775219
 20
-25.1057759157
 10
-1.418756233
 20
-25.0952300406
 10
-1.4121876077
 20
-25.0838860934
 10
-1.4058740858
 20
-25.0716583199
 10
-1.3998034713
 20
-25.0585396745
 10
-1.3939879602
 20
-25.0445372027
 10
-1.3885665807
 20
-25.0295862866
 10
-1.3835392146
 20
-25.0136994227
 10
-1.3789059802
 20
-24.9968641144
 10
-1.3748062599
 20
-24.9789782541
 10
-1.3712369555
 20
-24.9600680293
 10
-1.3682011654
 20
-24.9401072523
 10
-1.3658475672
 20
-24.9189152527
 10
-1.364153561
 20
-24.8965084297
 10
-1.3631417467
 20
-24.8728703839
 10
-1.3630286028
 20
-24.8477712467
 10
-1.3637303231
 20
-24.8212105459
 10
-1.3653307137
 20
-24.7931887535
 10
-1.3682976714
 20
-24.7634774169
 10
-1.3725992967
 20
-24.7318682483
 10
-1.3782674891
 20
-24.6985695355
 10
-1.3858658441
 20
-24.6639776892
 10
-1.3955850521
 20
-24.6277976076
 10
-1.4072344226
 20
-24.5903243925
 10
-1.4208054795
 20
-24.5528397598
 10
-1.4364933423
 20
-24.5153292949
 10
-1.4541028915
 20
-24.4778074125
 10
-1.4730402928
 20
-24.4415990722
 10
-1.4934140949
 20
-24.4067862411
 10
-1.5151157491
 20
-24.3732869521
 10
-1.5372257749
 20
-24.3421802642
 10
-1.5594376787
 20
-24.3138258637
 10
-1.582057954
 20
-24.2878640641
 10
-1.6050866009
 20
-24.2642948656
  0
LWPOLYLINE
  5
3D5
100
AcDbEntity
  8
0
100
AcDbPolyline
 62
7
  6
CONTINUOUS
 90
46
 70
0
 10
-1.6715214579
 20
-25.2627926345
 10
-1.6642176935
 20
-25.2592314367
 10
-1.6568792361
 20
-25.25528107
 10
-1.6494739579
 20
-25.2510725973
 10
-1.6419881541
 20
-25.246706369
 10
-1.6344355293
 20
-25.2420820347
 10
-1.6268470314
 20
-25.2370396087
 10
-1.6192152011
 20
-25.2316033753
 10
-1.6115474976
 20
-25.2257490502
 10
-1.6038972461
 20
-25.2192437944
 10
-1.5962554391
 20
-25.2120749118
 10
-1.5886310841
 20
-25.2042550984
 10
-1.5811045288
 20
-25.1955896031
 10
-1.5736667351
 20
-25.1860525592
 10
-1.5663267412
 20
-25.1756698334
 10
-1.5591920093
 20
-25.164324274
 10
-1.5522487703
 20
-25.1520112053
 10
-1.5455107932
 20
-25.138735303
 10
-1.5391268473
 20
-25.1243934424
 10
-1.5330867378
 20
-25.1089911566
 10
-1.5274006595
 20
-25.0925229124
 10
-1.5222479656
 20
-25.0748689861
 10
-1.5176259454
 20
-25.0560461271
 10
-1.5135373097
 20
-25.0360375861
 10
-1.5101695443
 20
-25.0146733903
 10
-1.5075111141
 20
-24.9919360093
 10
-1.5055735542
 20
-24.9678429736
 10
-1.5045789556
 20
-24.9422769018
 10
-1.504472955
 20
-24.9152390911
 10
-1.5053099157
 20
-24.8867282444
 10
-1.5074750187
 20
-24.8566230887
 10
-1.5108560755
 20
-24.8249283109
 10
-1.5155652746
 20
-24.7916392241
 10
-1.5223243628
 20
-24.7566204952
 10
-1.531201161
 20
-24.7195754295
 10
-1.5421278483
 20
-24.6808007217
 10
-1.5556227088
 20
-24.6410511234
 10
-1.5723460702
 20
-24.5994805102
 10
-1.5916376048
 20
-24.5569350065
 10
-1.612034614
 20
-24.5167077369
 10
-1.6333531717
 20
-24.4797337334
 10
-1.6557772041
 20
-24.445077964
 10
-1.6783957908
 20
-24.4132284575
 10
-1.7009052918
 20
-24.3843478901
 10
-1.7236093473
 20
-24.3582735855
 10
-1.7465079571
 20
-24.3350055437
  0
LWPOLYLINE
  5
3D6
100
AcDbEntity
  8
0
100
AcDbPolyline
 62
7
  6
CONTINUOUS
 90
10
 70
0
 10
-1.8693371445
 20
-24.9819700018
 10
-1.8743053196
 20
-24.9842729691
 10
-1.8892312548
 20
-24.9891141489
 10
-1.9057924096
 20
-24.9916099825
 10
-1.9242690751
 20
-24.9917487906
 10
-1.9443809603
 20
-24.9895422526
 10
-1.9656430244
 20
-24.9851445099
 10
-1.9878935871
 20
-24.978606943
 10
-2.0112943287
 20
-24.9698781715
 10
-2.0358452491
 20
-24.9589581953
  0
LINE
  5
3D7
100
AcDbEntity
  8
0
100
AcDbLine
 62
7
  6
CONTINUOUS
 10
-1.6787083494
 20
-25.2661075986
 11
-1.6715214579
 21
-25.2627926345
  0
LINE
  5
3D8
100
AcDbEntity
  8
DRAFT
100
AcDbLine
 62
7
  6
CONTINUOUS
 10
3.5304937778
 20
-23.5136960773
 11
2.993902119
 21
-23.7475501493
  0
LINE
  5
3D9
100
AcDbEntity
  8
DRAFT
100
AcDbLine
 62
7
  6
CONTINUOUS
 10
32.5925824845
 20
22.5765439974
 11
33.2255742746
 21
22.5765439978
  0
LWPOLYLINE
  5
3DA
100
AcDbEntity
  8
RACCORDO
100
AcDbPolyline
 62
7
  6
CONTINUOUS
 90
10
 70
0
 10
20.0341881467
 20
5.8641848994
 10
20.0648515126
 20
5.8290746049
 10
20.0940192042
 20
5.7914307874
 10
20.1216955385
 20
5.7512549192
 10
20.1474013314
 20
5.7090999133
 10
20.1711614866
 20
5.6648874643
 10
20.1929511005
 20
5.6186958776
 10
20.2122162789
 20
5.5713129822
 10
20.2289408796
 20
5.5226526796
 10
20.2431410447
 20
5.4728010683
  0
LWPOLYLINE
  5
3DB
100
AcDbEntity
  8
RACCORDO
100
AcDbPolyline
 62
7
  6
CONTINUOUS
 90
5
 70
0
 10
20.2431410447
 20
5.4728010683
 10
20.2543113064
 20
5.4228042722
 10
20.2622831756
 20
5.3730109994
 10
20.2672251414
 20
5.3230725417
 10
20.2691372038
 20
5.2729888994
  0
LINE
  5
3DC
100
AcDbEntity
  8
SMUSSO
100
AcDbLine
 62
7
  6
CONTINUOUS
 10
25.8397127242
 20
-53.0264906477
 11
25.8397127242
 21
19.2000280279
  0
LINE
  5
3DD
100
AcDbEntity
  8
ASSI
100
AcDbLine
 62
7
  6
CONTINUOUS
 10
14.2691064017
 20
-28.8830023893
 11
14.2785168518
 21
-28.8667717639
  0
LINE
  5
3DE
100
AcDbEntity
  8
ASSI
100
AcDbLine
 62
7
  6
CONTINUOUS
 10
14.5367190688
 20
-28.8544515161
 11
14.6320702424
 21
-28.6899950686
  0
LINE
  5
3DF
100
AcDbEntity
  8
ASSI
100
AcDbLine
 62
7
  6
CONTINUOUS
 10
14.8902724594
 20
-28.6776748209
 11
14.985623633
 21
-28.5132183733
  0
LINE
  5
3E0
100
AcDbEntity
  8
ASSI
100
AcDbLine
 62
7
  6
CONTINUOUS
 10
15.24382585
 20
-28.5008981256
 11
15.3391770236
 21
-28.336441678
  0
LINE
  5
3E1
100
AcDbEntity
  8
ASSI
100
AcDbLine
 62
7
  6
CONTINUOUS
 10
15.5973792406
 20
-28.3241214303
 11
15.6927304142
 21
-28.1596649827
  0
LINE
  5
3E2
100
AcDbEntity
  8
ASSI
100
AcDbLine
 62
7
  6
CONTINUOUS
 10
15.9509326312
 20
-28.147344735
 11
16.0462838048
 21
-27.9828882874
  0
LINE
  5
3E3
100
AcDbEntity
  8
ASSI
100
AcDbLine
 62
7
  6
CONTINUOUS
 10
16.3044860218
 20
-27.9705680397
 11
16.3998371954
 21
-27.8061115921
  0
LINE
  5
3E4
100
AcDbEntity
  8
RACCORDO
100
AcDbLine
 62
7
  6
CONTINUOUS
 10
9.4697873494
 20
-26.3749299487
 11
10.0255986985
 21
-26.0750569746
  0
LINE
  5
3E5
100
AcDbEntity
  8
RACCORDO
100
AcDbLine
 62
7
  6
CONTINUOUS
 10
9.6070809351
 20
-26.3818203005
 11
10.1628922842
 21
-26.0819473264
  0
LINE
  5
3E6
100
AcDbEntity
  8
RACCORDO
100
AcDbLine
 62
7
  6
CONTINUOUS
 10
8.1945241376
 20
-26.1088758882
 11
9.1298083263
 21
-25.6376276785
  0
LINE
  5
3E7
100
AcDbEntity
  8
RACCORDO
100
AcDbLine
 62
7
  6
CONTINUOUS
 10
8.9275480513
 20
-26.2122232141
 11
9.341908052
 21
-26.0034455925
  0
LINE
  5
3E8
100
AcDbEntity
  8
DRAFT
100
AcDbLine
 62
7
  6
CONTINUOUS
 10
8.8337946367
 20
-26.1653465068
 11
8.2972029779
 21
-26.3992005787
  0
LWPOLYLINE
  5
3E9
100
AcDbEntity
  8
RACCORDO
100
AcDbPolyline
 62
7
  6
CONTINUOUS
 90
6
 70
0
 10
-28.0898176061
 20
29.8469908931
 10
-28.0897803721
 20
29.8469826419
 10
-28.0881279828
 20
29.8465980488
 10
-28.084003885
 20
29.8453397357
 10
-28.0777028823
 20
29.8429264052
 10
-28.0691929843
 20
29.8389974886
  0
LINE
  5
3EA
100
AcDbEntity
  8
SMUSSO
100
AcDbLine
 62
7
  6
CONTINUOUS
 10
31.4965669737
 20
-58.770831229
 11
31.4965669737
 21
22.1159414844
  0
LWPOLYLINE
  5
3EB
100
AcDbEntity
  8
RACCORDO
100
AcDbPolyline
 62
7
  6
CONTINUOUS
 90
3
 70
0
 10
20.1704734907
 20
-34.4922249908
 10
20.1687124186
 20
-34.4966174777
 10
20.1673958568
 20
-34.4993241524
  0
LINE
  5
3EC
100
AcDbEntity
  8
ASSI
100
AcDbLine
 62
7
  6
CONTINUOUS
 10
19.1221983029
 20
-30.4639221454
 11
19.2282643201
 21
-30.2809853262
  0
LINE
  5
3ED
100
AcDbEntity
  8
ASSI
100
AcDbLine
 62
7
  6
CONTINUOUS
 10
19.4757516935
 20
-30.2871454501
 11
19.5818177107
 21
-30.1042086309
  0
LINE
  5
3EE
100
AcDbEntity
  8
ASSI
100
AcDbLine
 62
7
  6
CONTINUOUS
 10
19.8293050841
 20
-30.1103687548
 11
19.9353711013
 21
-29.9274319356
  0
LINE
  5
3EF
100
AcDbEntity
  8
RACCORDO
100
AcDbLine
 62
7
  6
CONTINUOUS
 10
11.8389984567
 20
-27.4977790613
 11
12.4046838817
 21
-27.2028431251
  0
LINE
  5
3F0
100
AcDbEntity
  8
RACCORDO
100
AcDbLine
 62
7
  6
CONTINUOUS
 10
12.1389313263
 20
-27.8179148516
 11
12.616815916
 21
-27.5687563394
  0
LINE
  5
3F1
100
AcDbEntity
  8
ASSI
100
AcDbLine
 62
7
  6
CONTINUOUS
 10
14.2785168518
 20
-28.8667717639
 11
14.419938208
 21
-28.7960610857
  0
LINE
  5
3F2
100
AcDbEntity
  8
ASSI
100
AcDbLine
 62
7
  6
CONTINUOUS
 10
14.6320702424
 20
-28.6899950686
 11
14.7734915986
 21
-28.6192843905
  0
LINE
  5
3F3
100
AcDbEntity
  8
ASSI
100
AcDbLine
 62
7
  6
CONTINUOUS
 10
14.985623633
 20
-28.5132183733
 11
15.1270449892
 21
-28.4425076952
  0
LINE
  5
3F4
100
AcDbEntity
  8
ASSI
100
AcDbLine
 62
7
  6
CONTINUOUS
 10
15.3391770236
 20
-28.336441678
 11
15.4805983798
 21
-28.2657309999
  0
LINE
  5
3F5
100
AcDbEntity
  8
ASSI
100
AcDbLine
 62
7
  6
CONTINUOUS
 10
15.6927304142
 20
-28.1596649827
 11
15.8341517704
 21
-28.0889543046
  0
LINE
  5
3F6
100
AcDbEntity
  8
ASSI
100
AcDbLine
 62
7
  6
CONTINUOUS
 10
16.0462838048
 20
-27.9828882874
 11
16.187705161
 21
-27.9121776093
  0
LINE
  5
3F7
100
AcDbEntity
  8
ASSI
100
AcDbLine
 62
7
  6
CONTINUOUS
 10
16.3998371954
 20
-27.8061115921
 11
16.5412585516
 21
-27.735400914
  0
LINE
  5
3F8
100
AcDbEntity
  8
0
100
AcDbLine
 62
7
  6
CONTINUOUS
 10
16.4631362943
 20
-27.7201775787
 11
14.0848633542
 21
-28.7908808655
  0
LWPOLYLINE
  5
3F9
100
AcDbEntity
  8
ASSI
100
AcDbPolyline
 62
7
  6
CONTINUOUS
 90
4
 70
0
 10
16.4709256083
 20
-27.7169081853
 10
16.4835380031
 20
-27.7131872779
 10
16.4965685977
 20
-27.710970851
 10
16.5098706483
 20
-27.7102420841
  0
LINE
  5
3FA
100
AcDbEntity
  8
RACCORDO
100
AcDbLine
 62
7
  6
CONTINUOUS
 10
-27.6979363895
 20
29.6533694033
 11
-28.1681618348
 21
29.66693433
  0
LINE
  5
3FB
100
AcDbEntity
  8
RACCORDO
100
AcDbLine
 62
7
  6
CONTINUOUS
 10
-28.0873592157
 20
29.8468190286
 11
-28.0872815913
 21
29.8468167866
  0
LINE
  5
3FC
100
AcDbEntity
  8
SMUSSO
100
AcDbLine
 62
7
  6
CONTINUOUS
 10
25.8397127242
 20
19.2000280279
 11
-33.1329928268
 21
48.6863808034
  0
LWPOLYLINE
  5
3FD
100
AcDbEntity
  8
SMUSSO
100
AcDbPolyline
 62
7
  6
CONTINUOUS
 90
3
 70
0
 10
32.5925824845
 20
22.5765439974
 10
32.5910156389
 20
22.6343594917
 10
32.5864875573
 20
22.6929358928
  0
LINE
  5
3FE
100
AcDbEntity
  8
SMUSSO
100
AcDbLine
 62
7
  6
CONTINUOUS
 10
32.5572271455
 20
22.9998249609
 11
32.5572271455
 21
-58.2405011431
  0
LINE
  5
3FF
100
AcDbEntity
  8
SMUSSO
100
AcDbLine
 62
7
  6
CONTINUOUS
 10
32.5925824845
 20
-57.3576007719
 11
32.5925824845
 21
22.5765439974
  0
LINE
  5
400
100
AcDbEntity
  8
DRAFT
100
AcDbLine
 62
7
  6
CONTINUOUS
 10
33.2255742746
 20
-57.3576007699
 11
33.2255742746
 21
22.5765439978
  0
LINE
  5
401
100
AcDbEntity
  8
DRAFT
100
AcDbLine
 62
7
  6
CONTINUOUS
 10
35.3856542702
 20
-56.3146182696
 11
35.3856542702
 21
24.3266332809
  0
LWPOLYLINE
  5
402
100
AcDbEntity
  8
SMUSSO
100
AcDbPolyline
 62
7
  6
CONTINUOUS
 90
15
 70
0
 10
32.5572271455
 20
-58.2405011446
 10
32.5557131726
 20
-58.2963849834
 10
32.5511777378
 20
-58.3505155412
 10
32.5436402635
 20
-58.4026610213
 10
32.5331330283
 20
-58.4525981257
 10
32.5197010264
 20
-58.5001130204
 10
32.5034017728
 20
-58.5450022493
 10
32.4843050604
 20
-58.5870735938
 10
32.462492665
 20
-58.6261468911
 10
32.4380579936
 20
-58.6620548176
 10
32.4111056811
 20
-58.6946436085
 10
32.3817511405
 20
-58.7237737156
 10
32.3501200719
 20
-58.7493204001
 10
32.316347927
 20
-58.7711742658
 10
32.2973339643
 20
-58.7813749413
  0
LWPOLYLINE
  5
403
100
AcDbEntity
  8
DRAFT
100
AcDbPolyline
 62
7
  6
CONTINUOUS
 90
15
 70
0
 10
33.2255742746
 20
-57.3576007699
 10
33.2233826628
 20
-57.4384977354
 10
33.2168172121
 20
-57.5168566761
 10
33.2059060367
 20
-57.5923420469
 10
33.1906958599
 20
-57.6646306078
 10
33.1712518139
 20
-57.7334128081
 10
33.1476571613
 20
-57.7983941117
 10
33.1200129379
 20
-57.8592962585
 10
33.0884375205
 20
-57.9158584564
 10
33.0530661199
 20
-57.9678384972
 10
33.0140502019
 20
-58.0150137944
 10
32.9715568387
 20
-58.0571823363
 10
32.9257679933
 20
-58.0941635505
 10
32.8768797406
 20
-58.125799078
 10
32.8385753668
 20
-58.1458075475
  0
LWPOLYLINE
  5
404
100
AcDbEntity
  8
DRAFT
100
AcDbPolyline
 62
7
  6
CONTINUOUS
 90
15
 70
0
 10
35.3856542702
 20
-56.3146182696
 10
35.3833833155
 20
-56.3984439469
 10
35.3765801755
 20
-56.4796397187
 10
35.3652739824
 20
-56.557857888
 10
35.3495131512
 20
-56.6327635125
 10
35.3293651722
 20
-56.7040358348
 10
35.3049163221
 20
-56.7713696566
 10
35.2762712946
 20
-56.834476644
 10
35.243552752
 20
-56.8930865633
 10
35.2069008003
 20
-56.9469484377
 10
35.1664723887
 20
-56.9958316223
 10
35.1224406378
 20
-57.039526792
 10
35.0749940985
 20
-57.0778468372
 10
35.024335944
 20
-57.1106276657
 10
34.9846448381
 20
-57.1313605012
  0
LINE
  5
405
100
AcDbEntity
  8
RACCORDO
100
AcDbLine
 62
7
  6
CONTINUOUS
 10
20.1675506263
 20
-34.4991161124
 11
20.1687628352
 21
-34.497478696
  0
LINE
  5
406
100
AcDbEntity
  8
ASSI
100
AcDbLine
 62
7
  6
CONTINUOUS
 10
20.0019676177
 20
-31.0014849931
 11
20.1812692382
 21
-30.7760840412
  0
LINE
  5
407
100
AcDbEntity
  8
RACCORDO
100
AcDbLine
 62
7
  6
CONTINUOUS
 10
20.0034833648
 20
-34.5224025325
 11
20.1812692382
 21
-34.2993368509
  0
LINE
  5
408
100
AcDbEntity
  8
0
100
AcDbLine
 62
7
  6
CONTINUOUS
 10
20.1812692382
 20
-30.148403326
 11
19.2879432764
 21
-30.6444728225
  0
LINE
  5
409
100
AcDbEntity
  8
RACCORDO
100
AcDbLine
 62
7
  6
CONTINUOUS
 10
17.2892687007
 20
-29.7054337698
 11
16.7235832758
 21
-30.000369706
  0
LINE
  5
40A
100
AcDbEntity
  8
RACCORDO
100
AcDbLine
 62
7
  6
CONTINUOUS
 10
17.4251420281
 20
-29.7130721983
 11
16.8594566031
 21
-30.0080081345
  0
LINE
  5
40B
100
AcDbEntity
  8
0
100
AcDbLine
 62
7
  6
CONTINUOUS
 10
20.1812692382
 20
-30.7209025195
 11
19.8145412195
 21
-30.907771794
  0
LINE
  5
40C
100
AcDbEntity
  8
ASSI
100
AcDbLine
 62
7
  6
CONTINUOUS
 10
18.894616302
 20
-30.4478093353
 11
19.0161322857
 21
-30.3870513434
  0
LINE
  5
40D
100
AcDbEntity
  8
ASSI
100
AcDbLine
 62
7
  6
CONTINUOUS
 10
19.2282643201
 20
-30.2809853262
 11
19.3696856763
 21
-30.2102746481
  0
LINE
  5
40E
100
AcDbEntity
  8
ASSI
100
AcDbLine
 62
7
  6
CONTINUOUS
 10
19.5818177107
 20
-30.1042086309
 11
19.7232390669
 21
-30.0334979528
  0
LINE
  5
40F
100
AcDbEntity
  8
ASSI
100
AcDbLine
 62
7
  6
CONTINUOUS
 10
19.9353711013
 20
-29.9274319356
 11
20.0767924575
 21
-29.8567212575
  0
LINE
  5
410
100
AcDbEntity
  8
ASSI
100
AcDbLine
 62
7
  6
CONTINUOUS
 10
20.1828584747
 20
-29.9335920595
 11
19.0245201126
 21
-30.5127612406
  0
LINE
  5
411
100
AcDbEntity
  8
0
100
AcDbLine
 62
7
  6
CONTINUOUS
 10
20.1812692382
 20
-30.6295694894
 11
19.7188725929
 21
-30.8599374807
  0
LINE
  5
412
100
AcDbEntity
  8
SMUSSO
100
AcDbLine
 62
7
  6
CONTINUOUS
 10
30.7894601925
 20
23.3355202788
 11
-35.2543131703
 21
56.3574069602
  0
LINE
  5
413
100
AcDbEntity
  8
SMUSSO
100
AcDbLine
 62
7
  6
CONTINUOUS
 10
-34.1936529985
 20
56.8877370461
 11
31.8501203643
 21
23.8658503647
  0
LINE
  5
414
100
AcDbEntity
  8
DRAFT
100
AcDbLine
 62
7
  6
CONTINUOUS
 10
32.2019715968
 20
24.3419974643
 11
-33.0639843055
 21
56.9749754155
  0
LWPOLYLINE
  5
415
100
AcDbEntity
  8
SMUSSO
100
AcDbPolyline
 62
7
  6
CONTINUOUS
 90
4
 70
0
 10
31.8501203643
 20
23.8658503647
 10
31.8963674056
 20
23.8408726136
 10
31.9424164045
 20
23.8122933636
 10
31.9915417211
 20
23.7776424198
  0
LWPOLYLINE
  5
416
100
AcDbEntity
  8
SMUSSO
100
AcDbPolyline
 62
7
  6
CONTINUOUS
 90
4
 70
0
 10
32.5864875573
 20
22.6929358928
 10
32.5789982397
 20
22.7522732009
 10
32.5684905665
 20
22.8126314747
 10
32.5572271455
 20
22.8637425969
  0
LWPOLYLINE
  5
417
100
AcDbEntity
  8
RACCORDO
100
AcDbPolyline
 62
7
  6
CONTINUOUS
 90
4
 70
0
 10
20.1687323682
 20
-34.4975204484
 10
20.1566274503
 20
-34.5112848159
 10
20.1427852436
 20
-34.5239249375
 10
20.1284077436
 20
-34.5340184868
  0
LWPOLYLINE
  5
418
100
AcDbEntity
  8
RACCORDO
100
AcDbPolyline
 62
7
  6
CONTINUOUS
 90
9
 70
0
 10
20.1284077436
 20
-34.5340184868
 10
20.1135795112
 20
-34.5415667162
 10
20.0983510407
 20
-34.5465661865
 10
20.0828286887
 20
-34.5489970458
 10
20.0671128407
 20
-34.5488555892
 10
20.051221351
 20
-34.5461348308
 10
20.0352264625
 20
-34.5408176045
 10
20.019272982
 20
-34.5329034356
 10
20.0034838818
 20
-34.5224018833
  0
LINE
  5
419
100
AcDbEntity
  8
DRAFT
100
AcDbLine
 62
7
  6
CONTINUOUS
 10
34.3249940984
 20
25.4488946913
 11
-30.9409618051
 21
58.081872643
  0
LWPOLYLINE
  5
41A
100
AcDbEntity
  8
DRAFT
100
AcDbPolyline
 62
7
  6
CONTINUOUS
 90
25
 70
0
 10
32.2019715968
 20
24.3419974643
 10
32.2689184143
 20
24.3058398903
 10
32.3355785554
 20
24.2644688177
 10
32.4016665713
 20
24.2180614037
 10
32.4668994628
 20
24.1668163719
 10
32.5309978927
 20
24.1109531614
 10
32.5936873815
 20
24.0507109871
 10
32.6546994831
 20
23.9863478155
 10
32.7137729344
 20
23.9181392593
 10
32.7706547738
 20
23.8463773982
 10
32.8251014246
 20
23.7713695273
 10
32.8768797377
 20
23.6934368421
 10
32.9257679906
 20
23.612913062
 10
32.9715568362
 20
23.5301430025
 10
33.0140501996
 20
23.4454810975
 10
33.0530661178
 20
23.3592898823
 10
33.0884375186
 20
23.271938441
 10
33.1200129362
 20
23.1838008258
 10
33.1476571598
 20
23.0952544556
 10
33.1712518127
 20
23.0066784994
 10
33.1906958589
 20
22.9184522532
 10
33.205906036
 20
22.8309535152
 10
33.2168172117
 20
22.7445569685
 10
33.2233826626
 20
22.6596325762
 10
33.2255742746
 20
22.5765439978
  0
LWPOLYLINE
  5
41B
100
AcDbEntity
  8
DRAFT
100
AcDbPolyline
 62
7
  6
CONTINUOUS
 90
4
 70
0
 10
34.3249940948
 20
25.4488946931
 10
34.3943645907
 20
25.411428105
 10
34.4634380311
 20
25.368559274
 10
34.5371261328
 20
25.3165827745
  0
LINE
  5
41C
100
AcDbEntity
  8
SMUSSO
100
AcDbLine
 62
7
  6
CONTINUOUS
 10
32.2743844331
 20
23.5655103858
 11
31.9915417205
 21
23.7776424202
  0
LINE
  5
41D
100
AcDbEntity
  8
SMUSSO
100
AcDbLine
 62
7
  6
CONTINUOUS
 10
35.1028126449
 20
24.8923178905
 11
34.5371261328
 21
25.3165827745
  0
LWPOLYLINE
  5
41E
100
AcDbEntity
  8
SMUSSO
100
AcDbPolyline
 62
7
  6
CONTINUOUS
 90
25
 70
0
 10
35.1027729995
 20
24.8923387824
 10
35.113474898
 20
24.8840961606
 10
35.1334042522
 20
24.8676044792
 10
35.1529263008
 20
24.8499396868
 10
35.1720309756
 20
24.8310920627
 10
35.1907283448
 20
24.8110713277
 10
35.208828935
 20
24.7900801977
 10
35.2263269836
 20
24.7681084344
 10
35.2432282532
 20
24.7451662761
 10
35.2593605589
 20
24.7214871538
 10
35.2747157336
 20
24.6970637065
 10
35.2893019443
 20
24.6719032951
 10
35.3029715073
 20
24.646261433
 10
35.3157147726
 20
24.6201337706
 10
35.3275413901
 20
24.5935246575
 10
35.3383326253
 20
24.5667026555
 10
35.3480783384
 20
24.5396653715
 10
35.3567886692
 20
24.5124151986
 10
35.3643753029
 20
24.4852278782
 10
35.3708260818
 20
24.4580968817
 10
35.3761531636
 20
24.4310287377
 10
35.3803047074
 20
24.4043187729
 10
35.383263433
 20
24.3780654297
 10
35.3850466206
 20
24.3521702656
 10
35.3856542702
 20
24.3266332809
  0
LWPOLYLINE
  5
41F
100
AcDbEntity
  8
SMUSSO
100
AcDbPolyline
 62
7
  6
CONTINUOUS
 90
17
 70
0
 10
32.2746056997
 20
23.5653322909
 10
32.2951720262
 20
23.5491133238
 10
32.3245077925
 20
23.5230816525
 10
32.3531532718
 20
23.4942268979
 10
32.3804577149
 20
23.4632045392
 10
32.4063880987
 20
23.4299677482
 10
32.4309774462
 20
23.3945633531
 10
32.4536740772
 20
23.3577873181
 10
32.4744356186
 20
23.319609032
 10
32.4933044434
 20
23.280059106
 10
32.5098559902
 20
23.2400253375
 10
32.5240385965
 20
23.1994930171
 10
32.5359039248
 20
23.1584768543
 10
32.5451824012
 20
23.1179087747
 10
32.5517841678
 20
23.0780994202
 10
32.5557990826
 20
23.038738149
 10
32.5572271455
 20
22.9998249609
  0
LWPOLYLINE
  5
420
100
AcDbEntity
  8
SMUSSO
100
AcDbPolyline
 62
7
  6
CONTINUOUS
 90
22
 70
0
 10
31.9915417211
 20
23.7776424198
 10
32.0331332075
 20
23.7448347967
 10
32.0774125484
 20
23.7062443508
 10
32.1207185928
 20
23.6646289014
 10
32.1628659019
 20
23.6201666462
 10
32.2036739886
 20
23.5730479835
 10
32.2429681007
 20
23.523474689
 10
32.2805799725
 20
23.4716590465
 10
32.3163485464
 20
23.4178229365
 10
32.3501206567
 20
23.3621968924
 10
32.3817516837
 20
23.3050191176
 10
32.4111061806
 20
23.2465344529
 10
32.4380584527
 20
23.1869933256
 10
32.4624931058
 20
23.1266506434
 10
32.4843054786
 20
23.0657648584
 10
32.5034021196
 20
23.0045968505
 10
32.5197012391
 20
22.9434086929
 10
32.5331331095
 20
22.8824622583
 10
32.5436402741
 20
22.8220182598
 10
32.551177731
 20
22.762335443
 10
32.555713168
 20
22.7036694719
 10
32.5572271455
 20
22.6462715703
  0
LWPOLYLINE
  5
421
100
AcDbEntity
  8
RACCORDO
100
AcDbPolyline
 62
7
  6
CONTINUOUS
 90
13
 70
0
 10
22.1521415455
 20
-37.9681598209
 10
22.1822894259
 20
-37.9516321983
 10
22.2084574098
 20
-37.9326670493
 10
22.2326268007
 20
-37.9103677747
 10
22.254661672
 20
-37.8848592265
 10
22.2744388984
 20
-37.856283947
 10
22.2918491711
 20
-37.8248011496
 10
22.3067936532
 20
-37.7905876062
 10
22.319188352
 20
-37.7538346982
 10
22.3289665043
 20
-37.7147465261
 10
22.3360731913
 20
-37.6735415942
 10
22.3404656948
 20
-37.6304516257
 10
22.3421175618
 20
-37.5857183318
  0
LINE
  5
422
100
AcDbEntity
  8
RACCORDO
100
AcDbLine
 62
7
  6
CONTINUOUS
 10
22.3421175618
 20
-37.5857183318
 11
22.633664149
 21
-37.4510724563
  0
LINE
  5
423
100
AcDbEntity
  8
RACCORDO
100
AcDbLine
 62
7
  6
CONTINUOUS
 10
22.1513803842
 20
-37.9685128315
 11
22.4443436785
 21
-37.8332126737
  0
LWPOLYLINE
  5
424
100
AcDbEntity
  8
RACCORDO
100
AcDbPolyline
 62
7
  6
CONTINUOUS
 90
16
 70
0
 10
22.3421175618
 20
-37.5857183306
 10
22.3186933026
 20
-37.5959114917
 10
22.2932871618
 20
-37.6048393424
 10
22.2661713513
 20
-37.6124062259
 10
22.2376364015
 20
-37.6185310676
 10
22.2079880479
 20
-37.6231482431
 10
22.1775439556
 20
-37.626208282
 10
22.1466302939
 20
-37.6276783983
 10
22.1155783062
 20
-37.6275428379
 10
22.0847207609
 20
-37.6258030584
 10
22.054388268
 20
-37.6224777095
 10
22.0249058242
 20
-37.6176024301
 10
21.9965893854
 20
-37.611229485
 10
21.9697423449
 20
-37.6034271848
 10
21.9446522931
 20
-37.5942791391
 10
21.9215880163
 20
-37.5838833789
  0
LWPOLYLINE
  5
425
100
AcDbEntity
  8
DRAFT
100
AcDbPolyline
 62
7
  6
CONTINUOUS
 90
22
 70
0
 10
34.5371261328
 20
25.3165827745
 10
34.5995131515
 20
25.2673715146
 10
34.665932137
 20
25.2094858879
 10
34.7308911735
 20
25.1470627659
 10
34.7941120965
 20
25.0803694538
 10
34.8553241843
 20
25.0096915427
 10
34.9142653172
 20
24.9353316863
 10
34.9706831002
 20
24.857608305
 10
35.0243359439
 20
24.7768542222
 10
35.0749940984
 20
24.6934152392
 10
35.1224406377
 20
24.6076486547
 10
35.1664723886
 20
24.5199217342
 10
35.2069008002
 20
24.4306101379
 10
35.2435527519
 20
24.3400963118
 10
35.2762712945
 20
24.24876785
 10
35.304916322
 20
24.157015835
 10
35.3293651722
 20
24.0652331629
 10
35.3495131512
 20
23.9738128614
 10
35.3652739824
 20
23.8831464061
 10
35.3765801754
 20
23.7936220449
 10
35.3833833153
 20
23.7056231348
 10
35.3856542702
 20
23.6195265005
  0
LWPOLYLINE
  5
426
100
AcDbEntity
  8
SMUSSO
100
AcDbPolyline
 62
7
  6
CONTINUOUS
 90
6
 70
0
 10
32.5572271455
 20
-57.6094440459
 10
32.5684905867
 20
-57.5695962525
 10
32.57899825
 20
-57.5197456723
 10
32.5864875613
 20
-57.4678977007
 10
32.5910156395
 20
-57.4138494006
 10
32.5925824845
 20
-57.3576007719
  0
LINE
  5
427
100
AcDbEntity
  8
SMUSSO
100
AcDbLine
 62
7
  6
CONTINUOUS
 10
31.4965669737
 20
-58.770831229
 11
32.5572271455
 21
-58.2405011431
  0
LINE
  5
428
100
AcDbEntity
  8
RACCORDO
100
AcDbLine
 62
7
  6
CONTINUOUS
 10
31.22268922
 20
-59.3186973134
 11
32.2973339598
 21
-58.7813749435
  0
LINE
  5
429
100
AcDbEntity
  8
DRAFT
100
AcDbLine
 62
7
  6
CONTINUOUS
 10
33.2255742746
 20
-57.357600768
 11
35.3856542702
 21
-56.3146182696
  0
LINE
  5
42A
100
AcDbEntity
  8
DRAFT
100
AcDbLine
 62
7
  6
CONTINUOUS
 10
32.8385753668
 20
-58.1458075475
 11
34.9846448381
 21
-57.1313605012
  0
LWPOLYLINE
  5
42B
100
AcDbEntity
  8
DRAFT
100
AcDbPolyline
 62
7
  6
CONTINUOUS
 90
7
 70
0
 10
32.8385753668
 20
-58.1458075475
 10
32.8251014276
 20
-58.1519534504
 10
32.770654777
 20
-58.1725146709
 10
32.7137729377
 20
-58.1873946929
 10
32.6546994865
 20
-58.1965297981
 10
32.593687385
 20
-58.1998808685
 10
32.5572271455
 20
-58.1984575092
  0
ELLIPSE
  5
42C
100
AcDbEntity
  8
RACCORDO
100
AcDbEllipse
 62
7
  6
CONTINUOUS
 10
-29.4318941062
 20
32.8632528654
 30
0.0
 11
-0.313181275
 21
0.626269159
 31
0.0
 40
0.6121897086
 41
-0.6846338794
 42
0.019259411
  0
ELLIPSE
  5
42D
100
AcDbEntity
  8
RACCORDO
100
AcDbEllipse
 62
7
  6
CONTINUOUS
 10
22.1386140037
 20
-37.2033627097
 30
0.0
 11
-0.313181275
 21
0.626269159
 31
0.0
 40
0.6121897086
 41
-3.160544254
 42
-2.2557347926
  0
ELLIPSE
  5
42E
100
AcDbEntity
  8
RACCORDO
100
AcDbEllipse
 62
7
  6
CONTINUOUS
 10
22.1386140037
 20
7.0779988104
 30
0.0
 11
-0.3130130858
 21
0.6261196575
 31
0.0
 40
0.6125552124
 41
-2.255296188
 42
-0.6848044477
  0
ELLIPSE
  5
42F
100
AcDbEntity
  8
RACCORDO
100
AcDbEllipse
 62
7
  6
CONTINUOUS
 10
-26.0916938726
 20
-8.9449049564
 30
0.0
 11
-0.1341484654
 21
0.2683369961
 31
0.0
 40
0.6125552124
 41
0.8862964655
 42
2.4567882058
  0
ELLIPSE
  5
430
100
AcDbEntity
  8
RACCORDO
100
AcDbEllipse
 62
7
  6
CONTINUOUS
 10
-25.5776261806
 20
-8.6994719311
 30
0.0
 11
-0.1340229113
 21
0.2684080287
 31
0.0
 40
0.6140178746
 41
0.8880524522
 42
2.4561097232
  0
ELLIPSE
  5
431
100
AcDbEntity
  8
RACCORDO
100
AcDbEllipse
 62
7
  6
CONTINUOUS
 10
-11.2611443038
 20
-15.7019985606
 30
0.0
 11
-0.1342205464
 21
0.2684010681
 31
0.0
 40
0.6121897086
 41
-0.6846338794
 42
0.0192594208
  0
ELLIPSE
  5
432
100
AcDbEntity
  8
RACCORDO
100
AcDbEllipse
 62
7
  6
CONTINUOUS
 10
4.6487582729
 20
-23.6569498489
 30
0.0
 11
-0.1342205464
 21
0.2684010681
 31
0.0
 40
0.6121897086
 41
-0.6846338794
 42
0.0192594208
  0
ELLIPSE
  5
433
100
AcDbEntity
  8
RACCORDO
100
AcDbEllipse
 62
7
  6
CONTINUOUS
 10
-5.7469456701
 20
-18.3868755464
 30
0.0
 11
-0.1342205464
 21
0.2684010681
 31
0.0
 40
0.6121897086
 41
-0.6846338794
 42
0.019259411
  0
ELLIPSE
  5
434
100
AcDbEntity
  8
RACCORDO
100
AcDbEllipse
 62
7
  6
CONTINUOUS
 10
17.4251420281
 20
-29.9729193954
 30
0.0
 11
-0.1341371037
 21
0.2683722998
 31
0.0
 40
0.6123537661
 41
-0.6845550499
 42
0.0106825902
  0
ELLIPSE
  5
435
100
AcDbEntity
  8
RACCORDO
100
AcDbEllipse
 62
7
  6
CONTINUOUS
 10
1.3384627561
 20
-21.9295797594
 30
0.0
 11
-0.1341371037
 21
0.2683722998
 31
0.0
 40
0.6123537661
 41
-0.6845550499
 42
0.0106825902
  0
ELLIPSE
  5
436
100
AcDbEntity
  8
RACCORDO
100
AcDbEllipse
 62
7
  6
CONTINUOUS
 10
10.1629569066
 20
-26.3418268347
 30
0.0
 11
-0.1342205464
 21
0.2684010681
 31
0.0
 40
0.6121897086
 41
-0.6846338794
 42
0.019259411
  0
ELLIPSE
  5
437
100
AcDbEntity
  8
RACCORDO
100
AcDbEllipse
 62
7
  6
CONTINUOUS
 10
-14.3946631253
 20
-14.0630168187
 30
0.0
 11
-0.1341371037
 21
0.2683722998
 31
0.0
 40
0.6123537661
 41
-0.6845550499
 42
0.0106825902
  0
ELLIPSE
  5
438
100
AcDbEntity
  8
RACCORDO
100
AcDbEllipse
 62
7
  6
CONTINUOUS
 10
-3.3284419997
 20
-19.5961273815
 30
0.0
 11
-0.1341371037
 21
0.2683722998
 31
0.0
 40
0.6123537661
 41
-2.2553513767
 42
-0.6845550499
  0
ELLIPSE
  5
439
100
AcDbEntity
  8
RACCORDO
100
AcDbEllipse
 62
7
  6
CONTINUOUS
 10
-19.4151212717
 20
-11.5527877455
 30
0.0
 11
-0.1341371037
 21
0.2683722998
 31
0.0
 40
0.6123537661
 41
-2.2553513767
 42
-0.6845550499
  0
ELLIPSE
  5
43A
100
AcDbEntity
  8
RACCORDO
100
AcDbEllipse
 62
7
  6
CONTINUOUS
 10
-25.2134291911
 20
-2.1841413579
 30
0.0
 11
-0.1341484654
 21
0.2683369961
 31
0.0
 40
0.6125552124
 41
-2.255296188
 42
-0.6848044477
  0
ELLIPSE
  5
43B
100
AcDbEntity
  8
RACCORDO
100
AcDbEllipse
 62
7
  6
CONTINUOUS
 10
-25.2134291911
 20
24.7141215123
 30
0.0
 11
-0.1342205464
 21
0.2684010681
 31
0.0
 40
0.6121897086
 41
-3.160544254
 42
-2.2557347926
  0
ELLIPSE
  5
43C
100
AcDbEntity
  8
RACCORDO
100
AcDbEllipse
 62
7
  6
CONTINUOUS
 10
-12.1529361503
 20
-15.1838803062
 30
0.0
 11
-0.1341484654
 21
0.2683369961
 31
0.0
 40
0.6125552124
 41
-2.255296188
 42
-0.6848044477
  0
ELLIPSE
  5
43D
100
AcDbEntity
  8
RACCORDO
100
AcDbEllipse
 62
7
  6
CONTINUOUS
 10
3.7569664264
 20
-23.1388315946
 30
0.0
 11
-0.1341484654
 21
0.2683369961
 31
0.0
 40
0.6125552124
 41
-2.255296188
 42
-0.6848044477
  0
ELLIPSE
  5
43E
100
AcDbEntity
  8
RACCORDO
100
AcDbEllipse
 62
7
  6
CONTINUOUS
 10
12.4046838817
 20
-27.4626903222
 30
0.0
 11
-0.1341371037
 21
0.2683722998
 31
0.0
 40
0.6123537661
 41
-2.2553513767
 42
-0.6845550499
  0
ELLIPSE
  5
43F
100
AcDbEntity
  8
RACCORDO
100
AcDbEllipse
 62
7
  6
CONTINUOUS
 10
-25.2134291911
 20
16.8684175254
 30
0.0
 11
-0.1341484654
 21
0.2683369961
 31
0.0
 40
0.6125552124
 41
-2.255296188
 42
-0.6848044477
  0
ELLIPSE
  5
440
100
AcDbEntity
  8
RACCORDO
100
AcDbEllipse
 62
7
  6
CONTINUOUS
 10
-25.2134291911
 20
5.661562629
 30
0.0
 11
-0.1342205464
 21
0.2684010681
 31
0.0
 40
0.6121897086
 41
-3.160544254
 42
-2.2557347926
  0
ELLIPSE
  5
441
100
AcDbEntity
  8
ASSI
100
AcDbEllipse
 62
7
  6
CONTINUOUS
 10
16.4631362943
 20
-27.8933826594
 30
0.0
 11
0.0974129977
 21
0.1748074534
 31
0.0
 40
0.6437101552
 41
0.6611775963
 42
0.7135374739
  0
ELLIPSE
  5
442
100
AcDbEntity
  8
ASSI
100
AcDbEllipse
 62
7
  6
CONTINUOUS
 10
-15.3566688591
 20
-11.9834800827
 30
0.0
 11
0.0974129977
 21
0.1748074534
 31
0.0
 40
0.6437101552
 41
0.6611775963
 42
0.7135374739
  0
ELLIPSE
  5
443
100
AcDbEntity
  8
ASSI
100
AcDbEllipse
 62
7
  6
CONTINUOUS
 10
-11.9908707418
 20
-14.9229406287
 30
0.0
 11
0.2227969873
 21
0.3604931982
 31
0.0
 40
0.5587445887
 41
-2.1584747401
 42
-1.7805701384
  0
ELLIPSE
  5
444
100
AcDbEntity
  8
RACCORDO
100
AcDbEllipse
 62
7
  6
CONTINUOUS
 10
9.1297437039
 20
-25.8974425644
 30
0.0
 11
-0.1341484654
 21
0.2683369961
 31
0.0
 40
0.6125552124
 41
-2.255296188
 42
-0.6848044477
  0
ELLIPSE
  5
445
100
AcDbEntity
  8
RACCORDO
100
AcDbEllipse
 62
7
  6
CONTINUOUS
 10
-6.7801588728
 20
-17.9424912761
 30
0.0
 11
-0.1341484654
 21
0.2683369961
 31
0.0
 40
0.6125552124
 41
-2.255296188
 42
-0.6848044477
  0
ELLIPSE
  5
446
100
AcDbEntity
  8
RACCORDO
100
AcDbEllipse
 62
7
  6
CONTINUOUS
 10
-25.2853741287
 20
4.448004389
 30
0.0
 11
-0.1341484654
 21
0.2683369961
 31
0.0
 40
0.6125552124
 41
-2.255296188
 42
-0.6848044477
  0
ELLIPSE
  5
447
100
AcDbEntity
  8
RACCORDO
100
AcDbEllipse
 62
7
  6
CONTINUOUS
 10
-25.2853741287
 20
-1.0400595365
 30
0.0
 11
-0.1342205464
 21
0.2684010681
 31
0.0
 40
0.6121897086
 41
-3.160544254
 42
-2.2557347926
  0
ELLIPSE
  5
448
100
AcDbEntity
  8
RACCORDO
100
AcDbEllipse
 62
7
  6
CONTINUOUS
 10
-25.2853741287
 20
23.5005632723
 30
0.0
 11
-0.1341484654
 21
0.2683369961
 31
0.0
 40
0.6125552124
 41
-2.255296188
 42
-0.6848044477
  0
ELLIPSE
  5
449
100
AcDbEntity
  8
RACCORDO
100
AcDbEllipse
 62
7
  6
CONTINUOUS
 10
-25.2853741287
 20
18.0124993468
 30
0.0
 11
-0.1342205464
 21
0.2684010681
 31
0.0
 40
0.6121897086
 41
-3.160544254
 42
-2.2557347926
  0
ELLIPSE
  5
44A
100
AcDbEntity
  8
RACCORDO
100
AcDbEllipse
 62
7
  6
CONTINUOUS
 10
-25.6878812551
 20
24.0677852981
 30
0.0
 11
0.4999863728
 21
0.0072295547
 31
0.0
 40
0.5106100819
 41
-0.775327905
 42
-0.0072939168
  0
ELLIPSE
  5
44B
100
AcDbEntity
  8
RACCORDO
100
AcDbEllipse
 62
7
  6
CONTINUOUS
 10
-25.6878812551
 20
5.0152264148
 30
0.0
 11
0.4999863728
 21
0.0072295547
 31
0.0
 40
0.5106100819
 41
-0.775327905
 42
-0.0072939168
  0
ELLIPSE
  5
44C
100
AcDbEntity
  8
RACCORDO
100
AcDbEllipse
 62
7
  6
CONTINUOUS
 10
-6.3027570192
 20
-18.6867485205
 30
0.0
 11
-0.1342205464
 21
0.2684010681
 31
0.0
 40
0.6121897086
 41
-0.6846338794
 42
0.5337148086
  0
ELLIPSE
  5
44D
100
AcDbEntity
  8
RACCORDO
100
AcDbEllipse
 62
7
  6
CONTINUOUS
 10
-3.8941274247
 20
-19.8910633177
 30
0.0
 11
-0.1341371037
 21
0.2683722998
 31
0.0
 40
0.6123537661
 41
-1.9029001035
 42
-0.6845550499
  0
ELLIPSE
  5
44E
100
AcDbEntity
  8
RACCORDO
100
AcDbEllipse
 62
7
  6
CONTINUOUS
 10
0.7727773311
 20
-22.2245156956
 30
0.0
 11
-0.1341371037
 21
0.2683722998
 31
0.0
 40
0.6123537661
 41
-0.6845550499
 42
0.5337900036
  0
ELLIPSE
  5
44F
100
AcDbEntity
  8
RACCORDO
100
AcDbEllipse
 62
7
  6
CONTINUOUS
 10
3.1814069256
 20
-23.4288304929
 30
0.0
 11
-0.1341484654
 21
0.2683369961
 31
0.0
 40
0.6125552124
 41
-1.9031531349
 42
-0.6848044477
  0
ELLIPSE
  5
450
100
AcDbEntity
  8
RACCORDO
100
AcDbEllipse
 62
7
  6
CONTINUOUS
 10
-25.7889886919
 20
16.5784186271
 30
0.0
 11
-0.1341484654
 21
0.2683369961
 31
0.0
 40
0.6125552124
 41
-2.255296188
 42
-0.6848044477
  0
ELLIPSE
  5
451
100
AcDbEntity
  8
ASSI
100
AcDbEllipse
 62
7
  6
CONTINUOUS
 10
-11.0992050136
 20
-14.1122120055
 30
0.0
 11
0.0823576675
 21
0.1823694112
 31
0.0
 40
0.5796795686
 41
0.6094740628
 42
0.6618339404
  0
ELLIPSE
  5
452
100
AcDbEntity
  8
RACCORDO
100
AcDbEllipse
 62
7
  6
CONTINUOUS
 10
16.8594566031
 20
-30.2678553316
 30
0.0
 11
-0.1341371037
 21
0.2683722998
 31
0.0
 40
0.6123537661
 41
-0.6845550499
 42
0.5337900036
  0
ELLIPSE
  5
453
100
AcDbEntity
  8
RACCORDO
100
AcDbEllipse
 62
7
  6
CONTINUOUS
 10
9.6071455575
 20
-26.6416998088
 30
0.0
 11
-0.1342205464
 21
0.2684010681
 31
0.0
 40
0.6121897086
 41
-0.6846338794
 42
0.5337148086
  0
ELLIPSE
  5
454
100
AcDbEntity
  8
RACCORDO
100
AcDbEllipse
 62
7
  6
CONTINUOUS
 10
11.8389984567
 20
-27.7576262584
 30
0.0
 11
-0.1341371037
 21
0.2683722998
 31
0.0
 40
0.6123537661
 41
-1.9029001035
 42
-0.6845550499
  0
ELLIPSE
  5
455
100
AcDbEntity
  8
RACCORDO
100
AcDbEllipse
 62
7
  6
CONTINUOUS
 10
-14.9603485503
 20
-14.3579527549
 30
0.0
 11
-0.1341371037
 21
0.2683722998
 31
0.0
 40
0.6123537661
 41
-0.6845550499
 42
0.5337900036
  0
ELLIPSE
  5
456
100
AcDbEntity
  8
RACCORDO
100
AcDbEllipse
 62
7
  6
CONTINUOUS
 10
-12.7284956511
 20
-15.4738792045
 30
0.0
 11
-0.1341484654
 21
0.2683369961
 31
0.0
 40
0.6125552124
 41
-1.9031531349
 42
-0.6848044477
  0
ELLIPSE
  5
457
100
AcDbEntity
  8
RACCORDO
100
AcDbEllipse
 62
7
  6
CONTINUOUS
 10
-25.7889886919
 20
-2.4741402561
 30
0.0
 11
-0.1341484654
 21
0.2683369961
 31
0.0
 40
0.6125552124
 41
-2.255296188
 42
-0.6848044477
  0
ELLIPSE
  5
458
100
AcDbEntity
  8
RACCORDO
100
AcDbEllipse
 62
7
  6
CONTINUOUS
 10
-19.9808066967
 20
-11.8477236817
 30
0.0
 11
-0.1341371037
 21
0.2683722998
 31
0.0
 40
0.6123537661
 41
-1.9029001035
 42
-0.6845550499
  0
ELLIPSE
  5
459
100
AcDbEntity
  8
RACCORDO
100
AcDbEllipse
 62
7
  6
CONTINUOUS
 10
-26.2206583175
 20
3.9767561793
 30
0.0
 11
-0.1341484654
 21
0.2683369961
 31
0.0
 40
0.6125552124
 41
-2.255296188
 42
-0.6848044477
  0
ELLIPSE
  5
45A
100
AcDbEntity
  8
RACCORDO
100
AcDbEllipse
 62
7
  6
CONTINUOUS
 10
-26.2206583175
 20
23.0293150625
 30
0.0
 11
-0.1341484654
 21
0.2683369961
 31
0.0
 40
0.6125552124
 41
-2.255296188
 42
-0.6848044477
  0
ELLIPSE
  5
45B
100
AcDbEntity
  8
RACCORDO
100
AcDbEllipse
 62
7
  6
CONTINUOUS
 10
-26.2206583175
 20
17.5805541141
 30
0.0
 11
-0.1342205464
 21
0.2684010681
 31
0.0
 40
0.6121897086
 41
2.4569587742
 42
4.0274505145
  0
ELLIPSE
  5
45C
100
AcDbEntity
  8
RACCORDO
100
AcDbEllipse
 62
7
  6
CONTINUOUS
 10
-26.2206583175
 20
-1.4720047691
 30
0.0
 11
-0.1342205464
 21
0.2684010681
 31
0.0
 40
0.6121897086
 41
2.4569587742
 42
4.0274505145
  0
ELLIPSE
  5
45D
100
AcDbEntity
  8
ASSI
100
AcDbEllipse
 62
7
  6
CONTINUOUS
 10
-11.2408204488
 20
-14.5536050053
 30
0.0
 11
0.1997674032
 21
0.1243735635
 31
0.0
 40
0.0775313764
 41
5.4495541764
 42
6.9679906257
  0
ELLIPSE
  5
45E
100
AcDbEntity
  8
RACCORDO
100
AcDbEllipse
 62
7
  6
CONTINUOUS
 10
8.1944595152
 20
-26.3686907742
 30
0.0
 11
-0.1341484654
 21
0.2683369961
 31
0.0
 40
0.6125552124
 41
-1.8355328362
 42
-0.6848044477
  0
ELLIPSE
  5
45F
100
AcDbEntity
  8
RACCORDO
100
AcDbEllipse
 62
7
  6
CONTINUOUS
 10
3.7455648305
 20
-24.1442434318
 30
0.0
 11
-0.1342205464
 21
0.2684010681
 31
0.0
 40
0.6121897086
 41
-0.6846338794
 42
0.8057535591
  0
ELLIPSE
  5
460
100
AcDbEntity
  8
RACCORDO
100
AcDbEllipse
 62
7
  6
CONTINUOUS
 10
-7.7154430615
 20
-18.4137394858
 30
0.0
 11
-0.1341484654
 21
0.2683369961
 31
0.0
 40
0.6125552124
 41
-1.8355328362
 42
-0.6848044477
  0
ELLIPSE
  5
461
100
AcDbEntity
  8
RACCORDO
100
AcDbEllipse
 62
7
  6
CONTINUOUS
 10
-12.1643377462
 20
-16.1892921435
 30
0.0
 11
-0.1342205464
 21
0.2684010681
 31
0.0
 40
0.6121897086
 41
-0.6846338794
 42
0.8057535591
  0
ELLIPSE
  5
462
100
AcDbEntity
  8
RACCORDO
100
AcDbEllipse
 62
7
  6
CONTINUOUS
 10
-25.7889886919
 20
5.3957501782
 30
0.0
 11
-0.1342205464
 21
0.2684010681
 31
0.0
 40
0.6121897086
 41
2.4569587742
 42
4.0274505145
  0
ELLIPSE
  5
463
100
AcDbEntity
  8
RACCORDO
100
AcDbEllipse
 62
7
  6
CONTINUOUS
 10
-25.7889886919
 20
24.4483090614
 30
0.0
 11
-0.1342205464
 21
0.2684010681
 31
0.0
 40
0.6121897086
 41
2.4569587742
 42
4.0274505145
  0
ELLIPSE
  5
464
100
AcDbEntity
  8
SMUSSO
100
AcDbEllipse
 62
7
  6
CONTINUOUS
 10
-35.4900154307
 20
55.3735304263
 30
0.0
 11
-0.268640788
 21
0.9802821504
 31
0.0
 40
0.3951602023
 41
0.1790466627
 42
0.9644448261
  0
ELLIPSE
  5
465
100
AcDbEntity
  8
SMUSSO
100
AcDbEllipse
 62
7
  6
CONTINUOUS
 10
-35.4900154307
 20
-25.5132422872
 30
0.0
 11
-0.6685268303
 21
0.7774608711
 31
0.0
 40
0.423927136
 41
1.5651843117
 42
2.3505824751
  0
ELLIPSE
  5
466
100
AcDbEntity
  8
SMUSSO
100
AcDbEllipse
 62
7
  6
CONTINUOUS
 10
-35.4900154307
 20
-25.5132422872
 30
0.0
 11
-0.268640788
 21
0.9802821504
 31
0.0
 40
0.3951602023
 41
0.9644448261
 42
1.7498429895
  0
ELLIPSE
  5
467
100
AcDbEntity
  8
SMUSSO
100
AcDbEllipse
 62
7
  6
CONTINUOUS
 10
-35.4900154307
 20
55.3735304263
 30
0.0
 11
-0.0351548098
 21
1.0451726698
 31
0.0
 40
0.7123478368
 41
-0.3689331855
 42
0.4164649779
  0
ELLIPSE
  5
468
100
AcDbEntity
  8
SMUSSO
100
AcDbEllipse
 62
7
  6
CONTINUOUS
 10
30.5537579321
 20
22.3516437448
 30
0.0
 11
0.7972192175
 21
-0.6616331853
 31
0.0
 40
0.76072271
 41
0.5631481298
 42
1.3485462932
  0
ELLIPSE
  5
469
100
AcDbEntity
  8
SMUSSO
100
AcDbEllipse
 62
7
  6
CONTINUOUS
 10
30.5537579321
 20
22.3516437448
 30
0.0
 11
-0.0351548098
 21
1.0451726698
 31
0.0
 40
0.7123478368
 41
-1.1543313489
 42
-0.3689331855
  0
ELLIPSE
  5
46A
100
AcDbEntity
  8
SMUSSO
100
AcDbEllipse
 62
7
  6
CONTINUOUS
 10
30.5537579321
 20
-58.5351289686
 30
0.0
 11
-0.6685268303
 21
0.7774608711
 31
0.0
 40
0.423927136
 41
2.3505824751
 42
3.1359806385
  0
ELLIPSE
  5
46B
100
AcDbEntity
  8
SMUSSO
100
AcDbEllipse
 62
7
  6
CONTINUOUS
 10
30.5537579321
 20
-58.5351289686
 30
0.0
 11
0.7972192175
 21
-0.6616331853
 31
0.0
 40
0.76072271
 41
-0.2222500336
 42
0.5631481298
  0
ENDSEC
  0
SECTION
  2
OBJECTS
  0
DICTIONARY
  5
C
100
AcDbDictionary
280
0
281
1
  3
ACAD_GROUP
350
D
  3
ACAD_MLINESTYLE
350
17
  3
ACAD_LAYOUT
350
1A
  3
ACAD_PLOTSETTINGS
350
19
  3
ACAD_PLOTSTYLENAME
350
E
  0
DICTIONARY
  5
D
102
{ACAD_REACTORS
330
C
102
}
100
AcDbDictionary
280
0
281
1
  0
ACDBDICTIONARYWDFLT
  5
E
102
{ACAD_REACTORS
330
C
102
}
100
AcDbDictionary
281
1
  3
Normal
350
F
100
AcDbDictionaryWithDefault
340
F
  0
DICTIONARY
  5
17
102
{ACAD_REACTORS
330
C
102
}
100
AcDbDictionary
280
0
281
1
  3
Standard
350
18
  0
DICTIONARY
  5
19
102
{ACAD_REACTORS
330
C
102
}
100
AcDbDictionary
281
1
  0
DICTIONARY
  5
1A
102
{ACAD_REACTORS
330
C
102
}
100
AcDbDictionary
281
1
  3
Model
350
46C
  3
Layout1
350
46D
  0
ACDBPLACEHOLDER
  5
F
102
{ACAD_REACTORS
330
E
102
}
  0
MLINESTYLE
  5
18
102
{ACAD_REACTORS
330
17
102
}
100
AcDbMlineStyle
  2
STANDARD
 70
0
  3

 62
256
 51
90.0
 52
90.0
 71
2
 49
0.5
 62
256
  6
BYLAYER
 49
-0.5
 62
256
  6
BYLAYER
  0
LAYOUT
  5
46C
102
{ACAD_REACTORS
330
1A
102
}
100
AcDbPlotSettings
  1

  2
none_device
  4
ISO_A4_(297.00_x_210.00_MM)
  6

 40
0.0
 41
0.0
 42
0.0
 43
0.0
 44
297.0
 45
210.0
 46
0.0
 47
0.0
 48
0.0
 49
0.0
140
0.0
141
0.0
142
1.0
143
1.0
 70
1024
 72
1
 73
0
 74
0
  7

 75
0
147
1.0
148
0.0
149
0.0
100
AcDbLayout
  1
Model
 70
0
 71
0
 10
0.0
 20
0.0
 11
297.0
 21
210.0
 12
0.0
 22
0.0
 32
0.0
 14
0.0
 24
0.0
 34
0.0
 15
0.0
 25
0.0
 35
0.0
146
0.0
 13
0.0
 23
0.0
 33
0.0
 16
1.0
 26
0.0
 36
0.0
 17
0.0
 27
1.0
 37
0.0
 76
0
330
212
345
0
346
0
  0
LAYOUT
  5
46D
102
{ACAD_REACTORS
330
1A
102
}
100
AcDbPlotSettings
  1

  2
none_device
  4
ISO_A4_(297.00_x_210.00_MM)
  6

 40
0.0
 41
0.0
 42
0.0
 43
0.0
 44
297.0
 45
210.0
 46
0.0
 47
0.0
 48
0.0
 49
0.0
140
0.0
141
0.0
142
1.0
143
1.0
 70
0
 72
1
 73
0
 74
0
  7

 75
0
147
1.0
148
0.0
149
0.0
100
AcDbLayout
  1
Layout1
 70
0
 71
1
 10
0.0
 20
0.0
 11
297.0
 21
210.0
 12
0.0
 22
0.0
 32
0.0
 14
0.0
 24
0.0
 34
0.0
 15
0.0
 25
0.0
 35
0.0
146
0.0
 13
0.0
 23
0.0
 33
0.0
 16
1.0
 26
0.0
 36
0.0
 17
0.0
 27
1.0
 37
0.0
 76
0
330
213
345
0
346
0
  0
ENDSEC
  0
EOF
