  0
SECTION
  2
HEADER
  9
$ACADVER
  1
AC1015
  9
$DWGCODEPAGE
  3
ANSI_1252
  9
$EXTMAX
 10
297.0
 20
210.0
 30
0.0
  9
$EXTMIN
 10
0.0
 20
0.0
 30
0.0
  9
$LIMMIN
 10
0.0
 20
0.0
  9
$LIMMAX
 10
297.0
 20
210.0
  9
$VIEWCTR
 10
148.5
 20
105.0
  9
$VIEWSIZE
 40
210.0
  9
$CLAYER
  8
0
  9
$LTSCALE
 40
16.335
  9
$CELTYPE
  6
BYLAYER
  9
$DIMSCALE
 40
1.0
  9
$DIMASZ
 40
3.0
  9
$DIMEXO
 40
0.5
  9
$DIMDLI
 40
11.286
  9
$DIMEXE
 40
1.5
  9
$DIMCEN
 40
2.673
  9
$DIMLFAC
 40
1.0
  9
$DIMBLK
  1
_FILLED
  9
$DIMTXT
 40
3.0
  9
$DIMTOL
 70
1
  9
$DIMLIM
 70
0
  9
$DIMTFAC
 40
1.0
  9
$DIMTP
 40
0.01
  9
$DIMTM
 40
0.01
  9
$DIMGAP
 40
0.625
  9
$DIMDSEP
 70
44
  9
$PDMODE
 70
3
  9
$PDSIZE
 40
3.0
  9
$HANDSEED
  5
53C
  9
$TILEMODE
 70
1
  9
$MEASUREMENT
 70
1
  9
$INSUNITS
 70
4
  0
ENDSEC
  0
SECTION
  2
CLASSES
  0
CLASS
  1
ACDBDICTIONARYWDFLT
  2
AcDbDictionaryWithDefault
  3
AutoCAD 2000
 90
0
280
0
281
0
  0
CLASS
  1
ACDBPLACEHOLDER
  2
AcDbPlaceHolder
  3
AutoCAD 2000
 90
0
280
0
281
0
  0
CLASS
  1
LAYOUT
  2
AcDbLayout
  3
AutoCAD 2000
 90
0
280
0
281
0
  0
ENDSEC
  0
SECTION
  2
TABLES
  0
TABLE
  2
VPORT
  5
8
100
AcDbSymbolTable
 70
2
  0
VPORT
  5
1F4
100
AcDbSymbolTableRecord
100
AcDbViewportTableRecord
  2
*ACTIVE
 70
0
 10
0.0
 20
0.0
 11
1.0
 21
1.0
 12
148.5
 22
105.0
 13
0.0
 23
0.0
 14
1.0
 24
1.0
 15
0.0
 25
0.0
 16
0.0
 26
0.0
 36
1.0
 17
0.0
 27
0.0
 37
0.0
 40
210.0
 41
1.4142857143
 42
50.0
 43
0.0
 44
0.0
 50
0.0
 51
0.0
 71
0
 72
100
 73
1
 74
1
 75
0
 76
0
 77
0
 78
0
  0
ENDTAB
  0
TABLE
  2
LTYPE
  5
5
100
AcDbSymbolTable
 70
6
  0
LTYPE
  5
14
100
AcDbSymbolTableRecord
100
AcDbLinetypeTableRecord
  2
BYBLOCK
 70
0
  3

 72
65
 73
0
 40
0.0
  0
LTYPE
  5
15
100
AcDbSymbolTableRecord
100
AcDbLinetypeTableRecord
  2
BYLAYER
 70
0
  3

 72
65
 73
0
 40
0.0
  0
LTYPE
  5
16
100
AcDbSymbolTableRecord
100
AcDbLinetypeTableRecord
  2
CONTINUOUS
 70
64
  3
Solid line
 72
65
 73
0
 40
0.0
  0
LTYPE
  5
1F5
100
AcDbSymbolTableRecord
100
AcDbLinetypeTableRecord
  2
CENTER
 70
64
  3
____ _ ____ _ ____ _ ____ _ ____ _ ____ _ ____
 72
65
 73
4
 40
0.6
 49
0.375
 74
0
 49
-0.075
 74
0
 49
0.075
 74
0
 49
-0.075
 74
0
  0
LTYPE
  5
1F6
100
AcDbSymbolTableRecord
100
AcDbLinetypeTableRecord
  2
HIDDEN
 70
64
  3
- - - - - - - - - - - - - - - - - - - -
 72
65
 73
2
 40
0.2
 49
0.1
 74
0
 49
-0.1
 74
0
  0
LTYPE
  5
1F7
100
AcDbSymbolTableRecord
100
AcDbLinetypeTableRecord
  2
PHANTOM
 70
64
  3
_____ _ _ _____ _ _ _____ _ _ _____
 72
65
 73
6
 40
0.8
 49
0.45
 74
0
 49
-0.05
 74
0
 49
0.1
 74
0
 49
-0.05
 74
0
 49
0.1
 74
0
 49
-0.05
 74
0
  0
LTYPE
  5
1F8
100
AcDbSymbolTableRecord
100
AcDbLinetypeTableRecord
  2
DOT
 70
64
  3
. . . . . . . . . . . . . . . . . . . .
 72
65
 73
2
 40
0.2
 49
0.1
 74
0
 49
-0.1
 74
0
  0
LTYPE
  5
1F9
100
AcDbSymbolTableRecord
100
AcDbLinetypeTableRecord
  2
DASHED
 70
64
  3
- - - - - - - - - - - - - - - - - - - -
 72
65
 73
2
 40
0.2
 49
0.1
 74
0
 49
-0.1
 74
0
  0
ENDTAB
  0
TABLE
  2
LAYER
  5
2
100
AcDbSymbolTable
 70
36
  0
LAYER
  5
10
100
AcDbSymbolTableRecord
100
AcDbLayerTableRecord
  2
0
 70
0
 62
7
  6
CONTINUOUS
370
-3
390
F
  0
LAYER
  5
1FA
100
AcDbSymbolTableRecord
100
AcDbLayerTableRecord
  2
DEFAULT_1
 70
0
 62
7
  6
CENTER
370
-3
390
F
  0
LAYER
  5
1FB
100
AcDbSymbolTableRecord
100
AcDbLayerTableRecord
  2
DEFAULT_2
 70
0
 62
7
  6
HIDDEN
370
-3
390
F
  0
LAYER
  5
1FC
100
AcDbSymbolTableRecord
100
AcDbLayerTableRecord
  2
DEFAULT_3
 70
0
 62
7
  6
PHANTOM
370
-3
390
F
  0
LAYER
  5
1FD
100
AcDbSymbolTableRecord
100
AcDbLayerTableRecord
  2
ASSI
 70
0
 62
7
  6
CONTINUOUS
370
-3
390
F
  0
LAYER
  5
1FE
100
AcDbSymbolTableRecord
100
AcDbLayerTableRecord
  2
COORDINATE
 70
0
 62
7
  6
CONTINUOUS
370
-3
390
F
  0
LAYER
  5
1FF
100
AcDbSymbolTableRecord
100
AcDbLayerTableRecord
  2
COORD_ORIGINE
 70
0
 62
7
  6
CONTINUOUS
370
-3
390
F
  0
LAYER
  5
200
100
AcDbSymbolTableRecord
100
AcDbLayerTableRecord
  2
COPY_PUBLISH
 70
0
 62
7
  6
CONTINUOUS
370
-3
390
F
  0
LAYER
  5
201
100
AcDbSymbolTableRecord
100
AcDbLayerTableRecord
  2
COSMETIC
 70
0
 62
7
  6
CONTINUOUS
370
-3
390
F
  0
LAYER
  5
202
100
AcDbSymbolTableRecord
100
AcDbLayerTableRecord
  2
COSMETICI
 70
0
 62
7
  6
CONTINUOUS
370
-3
390
F
  0
LAYER
  5
203
100
AcDbSymbolTableRecord
100
AcDbLayerTableRecord
  2
CURVE
 70
0
 62
7
  6
CONTINUOUS
370
-3
390
F
  0
LAYER
  5
204
100
AcDbSymbolTableRecord
100
AcDbLayerTableRecord
  2
DRAFT
 70
0
 62
7
  6
CONTINUOUS
370
-3
390
F
  0
LAYER
  5
205
100
AcDbSymbolTableRecord
100
AcDbLayerTableRecord
  2
IMPORT_IGES
 70
0
 62
7
  6
CONTINUOUS
370
-3
390
F
  0
LAYER
  5
206
100
AcDbSymbolTableRecord
100
AcDbLayerTableRecord
  2
INTFCLR_2
 70
0
 62
7
  6
CONTINUOUS
370
-3
390
F
  0
LAYER
  5
207
100
AcDbSymbolTableRecord
100
AcDbLayerTableRecord
  2
NOTE
 70
0
 62
7
  6
CONTINUOUS
370
-3
390
F
  0
LAYER
  5
208
100
AcDbSymbolTableRecord
100
AcDbLayerTableRecord
  2
PIANI
 70
0
 62
7
  6
CONTINUOUS
370
-3
390
F
  0
LAYER
  5
209
100
AcDbSymbolTableRecord
100
AcDbLayerTableRecord
  2
PIANI_ORIGINE
 70
0
 62
7
  6
CONTINUOUS
370
-3
390
F
  0
LAYER
  5
20A
100
AcDbSymbolTableRecord
100
AcDbLayerTableRecord
  2
PIANI_RIFERIMENTO
 70
0
 62
7
  6
CONTINUOUS
370
-3
390
F
  0
LAYER
  5
20B
100
AcDbSymbolTableRecord
100
AcDbLayerTableRecord
  2
PUNTI
 70
0
 62
7
  6
CONTINUOUS
370
-3
390
F
  0
LAYER
  5
20C
100
AcDbSymbolTableRecord
100
AcDbLayerTableRecord
  2
RACCORDO
 70
0
 62
7
  6
CONTINUOUS
370
-3
390
F
  0
LAYER
  5
20D
100
AcDbSymbolTableRecord
100
AcDbLayerTableRecord
  2
SIMBOLI
 70
0
 62
7
  6
CONTINUOUS
370
-3
390
F
  0
LAYER
  5
20E
100
AcDbSymbolTableRecord
100
AcDbLayerTableRecord
  2
SMUSSO
 70
0
 62
7
  6
CONTINUOUS
370
-3
390
F
  0
LAYER
  5
20F
100
AcDbSymbolTableRecord
100
AcDbLayerTableRecord
  2
SNAPLINE
 70
0
 62
7
  6
CONTINUOUS
370
-3
390
F
  0
LAYER
  5
210
100
AcDbSymbolTableRecord
100
AcDbLayerTableRecord
  2
SUPERFICI
 70
0
 62
7
  6
CONTINUOUS
370
-3
390
F
  0
LAYER
  5
211
100
AcDbSymbolTableRecord
100
AcDbLayerTableRecord
  2
TRASH
 70
0
 62
7
  6
CONTINUOUS
370
-3
390
F
  0
LAYER
  5
212
100
AcDbSymbolTableRecord
100
AcDbLayerTableRecord
  2
XSEC_DATUMS
 70
0
 62
7
  6
CONTINUOUS
370
-3
390
F
  0
ENDTAB
  0
TABLE
  2
STYLE
  5
3
100
AcDbSymbolTable
 70
1
  0
STYLE
  5
11
100
AcDbSymbolTableRecord
100
AcDbTextStyleTableRecord
  2
STANDARD
 70
0
 40
0.0
 41
0.8
 50
0.0
 71
0
 42
0.2
  3
txt
  4

  0
STYLE
  5
213
100
AcDbSymbolTableRecord
100
AcDbTextStyleTableRecord
  2
TEXTSTYLE_1
 70
0
 40
0.0
 41
0.8
 50
0.0
 71
0
 42
0.2
  3
gdt
  4

  0
ENDTAB
  0
TABLE
  2
VIEW
  5
6
100
AcDbSymbolTable
 70
0
  0
ENDTAB
  0
TABLE
  2
UCS
  5
7
100
AcDbSymbolTable
 70
0
  0
ENDTAB
  0
TABLE
  2
APPID
  5
9
100
AcDbSymbolTable
 70
1
  0
APPID
  5
214
100
AcDbSymbolTableRecord
100
AcDbRegAppTableRecord
  2
ACAD
 70
0
  0
ENDTAB
  0
TABLE
  2
BLOCK_RECORD
  5
1
100
AcDbSymbolTable
 70
0
  0
BLOCK_RECORD
  5
215
100
AcDbSymbolTableRecord
100
AcDbBlockTableRecord
  2
*Model_Space
  0
BLOCK_RECORD
  5
216
100
AcDbSymbolTableRecord
100
AcDbBlockTableRecord
  2
*Paper_Space
  0
ENDTAB
  0
TABLE
  2
DIMSTYLE
  5
A
100
AcDbSymbolTable
 70
1
100
AcDbDimStyleTable
 71
0
  0
DIMSTYLE
105
217
100
AcDbSymbolTableRecord
100
AcDbDimStyleTableRecord
  2
STANDARD
 70
0
  3

  4

 40
1.0
 41
3.0
 42
0.5
 43
0.38
 44
1.5
 45
0.0
 46
0.0
 47
0.01
 48
0.01
140
3.0
141
0.09
142
0.0
143
25.4
144
1.0
145
0.0
146
1.0
147
0.625
 71
1.0
 72
0.0
 73
0
 74
0
 75
0
 76
0
 77
1
 78
8
170
0
171
2
172
0
173
0
174
0
175
0
176
0
177
0
178
0
270
2
271
2
272
2
273
2
274
2
275
0
280
0
281
0
282
0
283
1
284
8
285
0
286
0
287
3
288
0
340
11
278
44
  0
ENDTAB
  0
ENDSEC
  0
SECTION
  2
BLOCKS
  0
BLOCK
  5
20
100
AcDbEntity
  8
0
100
AcDbBlockBegin
  2
*Model_Space
 70
0
 10
0.0
 20
0.0
 30
0.0
  3
*Model_Space
  1

  0
ENDBLK
  5
21
100
AcDbEntity
  8
0
100
AcDbBlockEnd
  0
BLOCK
  5
1C
100
AcDbEntity
  8
0
100
AcDbBlockBegin
  2
*Paper_Space
 70
0
 10
0.0
 20
0.0
 30
0.0
  3
*Paper_Space
  1

  0
ENDBLK
  5
1D
100
AcDbEntity
  8
0
100
AcDbBlockEnd
  0
ENDSEC
  0
SECTION
  2
ENTITIES
  0
LINE
  5
218
100
AcDbEntity
  8
SMUSSO
100
AcDbLine
 62
7
  6
CONTINUOUS
 10
-54.6327320333
 20
71.9910488171
 11
-58.4864639908
 21
69.7660311933
  0
LINE
  5
219
100
AcDbEntity
  8
SMUSSO
100
AcDbLine
 62
7
  6
CONTINUOUS
 10
-58.193570772
 20
68.7803691329
 11
-58.4864639908
 21
68.6112889447
  0
LINE
  5
21A
100
AcDbEntity
  8
SMUSSO
100
AcDbLine
 62
7
  6
CONTINUOUS
 10
-57.7793572096
 20
70.1742268768
 11
-58.193570772
 21
68.7803691329
  0
LWPOLYLINE
  5
21B
100
AcDbEntity
  8
RACCORDO
100
AcDbPolyline
 62
7
  6
CONTINUOUS
 90
13
 70
0
 10
-45.5249033606
 20
42.9626146195
 10
-45.5500250427
 20
42.9458586369
 10
-45.5807631645
 20
42.9216089108
 10
-45.6098584313
 20
42.8940520746
 10
-45.6369902953
 20
42.8631933032
 10
-45.6617605129
 20
42.8291716051
 10
-45.6837787359
 20
42.7922669383
 10
-45.7028204174
 20
42.7526162823
 10
-45.7186495593
 20
42.7104259012
 10
-45.7310389354
 20
42.6660656137
 10
-45.7398883932
 20
42.6197354549
 10
-45.7451187052
 20
42.5714981582
 10
-45.7466557278
 20
42.5263535858
  0
LINE
  5
21C
100
AcDbEntity
  8
SMUSSO
100
AcDbLine
 62
7
  6
CONTINUOUS
 10
-58.4864639908
 20
69.7660311933
 11
-58.4864639908
 21
-6.3991195901
  0
LWPOLYLINE
  5
21D
100
AcDbEntity
  8
RACCORDO
100
AcDbPolyline
 62
7
  6
CONTINUOUS
 90
19
 70
0
 10
-45.1675643856
 20
42.9323556967
 10
-45.1858314892
 20
42.9205286967
 10
-45.2039350847
 20
42.9069829162
 10
-45.2217404348
 20
42.8918191704
 10
-45.239115022
 20
42.8751503168
 10
-45.2559295347
 20
42.8571004143
 10
-45.2720588299
 20
42.8378038005
 10
-45.2873828641
 20
42.8174040917
 10
-45.3017875872
 20
42.7960531142
 10
-45.3151657908
 20
42.7739097743
 10
-45.327417913
 20
42.7511388631
 10
-45.3384527591
 20
42.7279098664
 10
-45.3481881869
 20
42.7043957055
 10
-45.3565517457
 20
42.6807713889
 10
-45.3634811971
 20
42.6572127392
 10
-45.3689249696
 20
42.6338951212
 10
-45.3728425598
 20
42.6109920826
 10
-45.3752048276
 20
42.5886740624
 10
-45.3759942058
 20
42.5671071538
  0
LINE
  5
21E
100
AcDbEntity
  8
RACCORDO
100
AcDbLine
 62
7
  6
CONTINUOUS
 10
-45.5251055925
 20
42.9624898893
 11
-43.887329886
 21
43.9753149533
  0
LINE
  5
21F
100
AcDbEntity
  8
RACCORDO
100
AcDbLine
 62
7
  6
CONTINUOUS
 10
-45.1675643859
 20
42.9323556969
 11
-43.5312309558
 21
43.9442888356
  0
LINE
  5
220
100
AcDbEntity
  8
SMUSSO
100
AcDbLine
 62
7
  6
CONTINUOUS
 10
56.2769665958
 20
-72.1837299625
 11
54.8627530334
 21
-71.8455369006
  0
LWPOLYLINE
  5
221
100
AcDbEntity
  8
RACCORDO
100
AcDbPolyline
 62
7
  6
CONTINUOUS
 90
12
 70
0
 10
-40.8528982605
 20
34.3221515772
 10
-40.8280322065
 20
34.3382059827
 10
-40.8054933295
 20
34.3550779358
 10
-40.7852816295
 20
34.3727674366
 10
-40.7673120236
 20
34.391379814
 10
-40.7516695947
 20
34.4108097392
 10
-40.7386095916
 20
34.4307412247
 10
-40.728174369
 20
34.451182556
 10
-40.7203215723
 20
34.4721254477
 10
-40.7151793859
 20
34.4932290567
 10
-40.712792312
 20
34.5144960312
 10
-40.712596238
 20
34.5226848169
  0
LINE
  5
222
100
AcDbEntity
  8
DRAFT
100
AcDbLine
 62
7
  6
CONTINUOUS
 10
-41.244025561
 20
33.7650378398
 11
-41.7578344481
 21
33.4355559657
  0
LINE
  5
223
100
AcDbEntity
  8
RACCORDO
100
AcDbLine
 62
7
  6
CONTINUOUS
 10
-40.8528982605
 20
34.3221515772
 11
-41.0892840783
 21
34.1808159708
  0
LINE
  5
224
100
AcDbEntity
  8
RACCORDO
100
AcDbLine
 62
7
  6
CONTINUOUS
 10
-40.8099964119
 20
34.0195587725
 11
-41.2457224911
 21
33.7679768295
  0
LINE
  5
225
100
AcDbEntity
  8
RACCORDO
100
AcDbLine
 62
7
  6
CONTINUOUS
 10
-40.5978966863
 20
33.6521912718
 11
-41.533180875
 21
33.1121716937
  0
LINE
  5
226
100
AcDbEntity
  8
RACCORDO
100
AcDbLine
 62
7
  6
CONTINUOUS
 10
-41.0916371736
 20
34.7333204884
 11
-40.5259517487
 21
35.0485389297
  0
LINE
  5
227
100
AcDbEntity
  8
RACCORDO
100
AcDbLine
 62
7
  6
CONTINUOUS
 10
-41.1551028619
 20
34.5952123149
 11
-40.5894174369
 21
34.9104307562
  0
LINE
  5
228
100
AcDbEntity
  8
SMUSSO
100
AcDbLine
 62
7
  6
CONTINUOUS
 10
-58.4864639908
 20
-6.3991195901
 11
-58.193570772
 21
-6.9064255258
  0
LWPOLYLINE
  5
229
100
AcDbEntity
  8
RACCORDO
100
AcDbPolyline
 62
7
  6
CONTINUOUS
 90
5
 70
0
 10
-45.7461884343
 20
0.7646854592
 10
-45.7427250677
 20
0.7158226831
 10
-45.7360039609
 20
0.6668729462
 10
-45.7261632576
 20
0.6179573868
 10
-45.7133476859
 20
0.5693310751
  0
LINE
  5
22A
100
AcDbEntity
  8
RACCORDO
100
AcDbLine
 62
7
  6
CONTINUOUS
 10
-45.7466557179
 20
0.7901516128
 11
-45.7461884343
 21
0.7646854592
  0
LWPOLYLINE
  5
22B
100
AcDbEntity
  8
RACCORDO
100
AcDbPolyline
 62
7
  6
CONTINUOUS
 90
11
 70
0
 10
-45.7466618056
 20
0.7900153447
 10
-45.7466503763
 20
0.7885033554
 10
-45.7453083287
 20
0.7735800303
 10
-45.7417435814
 20
0.7587790263
 10
-45.7359826764
 20
0.744210524
 10
-45.7280685008
 20
0.7299829501
 10
-45.7180599657
 20
0.7162021906
 10
-45.7060315867
 20
0.7029708233
 10
-45.6920729082
 20
0.6903873223
 10
-45.676287828
 20
0.6785453272
 10
-45.65879384
 20
0.6675329635
  0
LWPOLYLINE
  5
22C
100
AcDbEntity
  8
RACCORDO
100
AcDbPolyline
 62
7
  6
CONTINUOUS
 90
11
 70
0
 10
-45.7466618056
 20
42.5263361217
 10
-45.7466503761
 20
42.5248241197
 10
-45.7453083263
 20
42.5099007931
 10
-45.7417435764
 20
42.4950997879
 10
-45.7359826686
 20
42.4805312856
 10
-45.7280684906
 20
42.466303713
 10
-45.718059954
 20
42.4525229559
 10
-45.7060315748
 20
42.4392915922
 10
-45.692072898
 20
42.4267080959
 10
-45.6762878217
 20
42.4148661062
 10
-45.65879384
 20
42.4038537485
  0
LINE
  5
22D
100
AcDbEntity
  8
RACCORDO
100
AcDbLine
 62
7
  6
CONTINUOUS
 10
-45.7466618056
 20
42.5263361218
 11
-45.7466618056
 21
0.7900153447
  0
LINE
  5
22E
100
AcDbEntity
  8
RACCORDO
100
AcDbLine
 62
7
  6
CONTINUOUS
 10
-45.65879384
 20
42.4038537485
 11
-45.65879384
 21
0.6675329635
  0
LINE
  5
22F
100
AcDbEntity
  8
RACCORDO
100
AcDbLine
 62
7
  6
CONTINUOUS
 10
-44.0063430275
 20
1.8241520785
 11
-44.0063430275
 21
39.3390258554
  0
LINE
  5
230
100
AcDbEntity
  8
RACCORDO
100
AcDbLine
 62
7
  6
CONTINUOUS
 10
-43.6221380622
 20
1.8047438769
 11
-43.6221380622
 21
39.3196179391
  0
LWPOLYLINE
  5
231
100
AcDbEntity
  8
RACCORDO
100
AcDbPolyline
 62
7
  6
CONTINUOUS
 90
25
 70
0
 10
-45.65879384
 20
42.4038537485
 10
-45.6581796484
 20
42.4249161933
 10
-45.6563796878
 20
42.4450480961
 10
-45.6533939582
 20
42.4642494569
 10
-45.6491998786
 20
42.4826023545
 10
-45.6438200299
 20
42.50002471
 10
-45.6373221551
 20
42.5162702872
 10
-45.6296924258
 20
42.5313165309
 10
-45.6209446703
 20
42.5451859963
 10
-45.6111881165
 20
42.5577001123
 10
-45.6004088335
 20
42.5688420113
 10
-45.5886207523
 20
42.5786285609
 10
-45.5759748933
 20
42.586931794
 10
-45.5624588039
 20
42.5937319513
 10
-45.5480849367
 20
42.599048792
 10
-45.5330416699
 20
42.6028136262
 10
-45.5173219475
 20
42.6050052444
 10
-45.5009328255
 20
42.605644856
 10
-45.4840838496
 20
42.604727399
 10
-45.4667618292
 20
42.6022292208
 10
-45.4489799548
 20
42.598173974
 10
-45.4309873436
 20
42.5926275543
 10
-45.4128670346
 20
42.585611927
 10
-45.3945359886
 20
42.5771051268
 10
-45.3759942058
 20
42.5671071538
  0
LWPOLYLINE
  5
232
100
AcDbEntity
  8
RACCORDO
100
AcDbPolyline
 62
7
  6
CONTINUOUS
 90
22
 70
0
 10
-44.0063430275
 20
39.3390258554
 10
-44.0049706384
 20
39.3778522559
 10
-44.0013264476
 20
39.4143098174
 10
-43.9954104548
 20
39.4483985399
 10
-43.9871223084
 20
39.4802289066
 10
-43.9765623601
 20
39.5096904343
 10
-43.9640316657
 20
39.5364516741
 10
-43.9495127529
 20
39.5604561044
 10
-43.9330230941
 20
39.5817602468
 10
-43.9149161624
 20
39.6002022165
 10
-43.8952017066
 20
39.61574006
 10
-43.873869978
 20
39.6284157308
 10
-43.851245203
 20
39.6381932045
 10
-43.8273345003
 20
39.6450623837
 10
-43.8021307512
 20
39.6490333658
 10
-43.7759368263
 20
39.6501004183
 10
-43.748759796
 20
39.6482650985
 10
-43.7205925899
 20
39.6435258491
 10
-43.6917168669
 20
39.6358722659
 10
-43.6622265134
 20
39.6253008808
 10
-43.632027643
 20
39.6118151619
 10
-43.6011202557
 20
39.5954151091
  0
LWPOLYLINE
  5
233
100
AcDbEntity
  8
RACCORDO
100
AcDbPolyline
 62
7
  6
CONTINUOUS
 90
13
 70
0
 10
-43.6011202557
 20
1.0998217253
 10
-43.6000217854
 20
1.1253506365
 10
-43.5967377365
 20
1.1518836385
 10
-43.5913021233
 20
1.1791459401
 10
-43.5837712429
 20
1.2068551972
 10
-43.5742230916
 20
1.2347244384
 10
-43.5627565565
 20
1.2624650375
 10
-43.5494903931
 20
1.2897896989
 10
-43.5345619942
 20
1.3164154358
 10
-43.5181259654
 20
1.3420665026
 10
-43.5003525267
 20
1.3664772461
 10
-43.4814257498
 20
1.389394857
 10
-43.4615416502
 20
1.4105819911
  0
LWPOLYLINE
  5
234
100
AcDbEntity
  8
RACCORDO
100
AcDbPolyline
 62
7
  6
CONTINUOUS
 90
12
 70
0
 10
-40.8528982605
 20
27.8720363906
 10
-40.8280292641
 20
27.8880930337
 10
-40.8054881859
 20
27.9049670782
 10
-40.785275026
 20
27.9226585241
 10
-40.7673048098
 20
27.9412726832
 10
-40.7516625118
 20
27.9607042436
 10
-40.7386030556
 20
27.9806372697
 10
-40.7281687124
 20
28.0010800132
 10
-40.720317211
 20
28.0220242224
 10
-40.7151766613
 20
28.0431292067
 10
-40.7127914626
 20
28.06439762
 10
-40.712596178
 20
28.0725693156
  0
LINE
  5
235
100
AcDbEntity
  8
DRAFT
100
AcDbLine
 62
7
  6
CONTINUOUS
 10
-41.244025561
 20
27.6415107638
 11
-41.7578344481
 21
27.3120288898
  0
LINE
  5
236
100
AcDbEntity
  8
RACCORDO
100
AcDbLine
 62
7
  6
CONTINUOUS
 10
-41.088064766
 20
27.7314298136
 11
-40.8528982605
 21
27.8720363906
  0
LINE
  5
237
100
AcDbEntity
  8
RACCORDO
100
AcDbLine
 62
7
  6
CONTINUOUS
 10
-41.244025561
 20
27.2371943981
 11
-40.7380514743
 21
27.5293365257
  0
LINE
  5
238
100
AcDbEntity
  8
RACCORDO
100
AcDbLine
 62
7
  6
CONTINUOUS
 10
-41.1015112494
 20
26.8296492846
 11
-40.5259517487
 21
27.161969025
  0
LINE
  5
239
100
AcDbEntity
  8
RACCORDO
100
AcDbLine
 62
7
  6
CONTINUOUS
 10
-41.533180875
 20
27.9750468693
 11
-40.5978966863
 21
28.478012439
  0
LINE
  5
23A
100
AcDbEntity
  8
RACCORDO
100
AcDbLine
 62
7
  6
CONTINUOUS
 10
-41.5979431856
 20
27.8362625256
 11
-40.6626589968
 21
28.3392280953
  0
LWPOLYLINE
  5
23B
100
AcDbEntity
  8
RACCORDO
100
AcDbPolyline
 62
7
  6
CONTINUOUS
 90
11
 70
0
 10
-45.7133476859
 20
0.5693310751
 10
-45.6976660789
 20
0.5211006422
 10
-45.6792083477
 20
0.4733861584
 10
-45.6581430299
 20
0.4265462151
 10
-45.6345681704
 20
0.3807119985
 10
-45.6085589784
 20
0.3360346853
 10
-45.5803397798
 20
0.292903299
 10
-45.5499943124
 20
0.2514520352
 10
-45.5175900652
 20
0.2118421594
 10
-45.4833708565
 20
0.1744193743
 10
-45.4473949703
 20
0.1393207641
  0
LWPOLYLINE
  5
23C
100
AcDbEntity
  8
RACCORDO
100
AcDbPolyline
 62
7
  6
CONTINUOUS
 90
9
 70
0
 10
-43.6011202557
 20
39.5954151091
 10
-43.6000217826
 20
39.5711547475
 10
-43.5967377398
 20
39.5484141277
 10
-43.5913021383
 20
39.5274287628
 10
-43.5837712721
 20
39.5084159879
 10
-43.5742231345
 20
39.4915727089
 10
-43.562756611
 20
39.4770733632
 10
-43.5494904545
 20
39.4650681134
 10
-43.5389979917
 20
39.4580955071
  0
LWPOLYLINE
  5
23D
100
AcDbEntity
  8
RACCORDO
100
AcDbPolyline
 62
7
  6
CONTINUOUS
 90
7
 70
0
 10
-42.1138209993
 20
2.965216254
 10
-42.1138034614
 20
2.9633352354
 10
-42.1137490812
 20
2.9614532995
 10
-42.1136578585
 20
2.9595704465
 10
-42.1135297933
 20
2.9576866763
 10
-42.1133648858
 20
2.9558019889
 10
-42.1131631358
 20
2.9539163843
  0
LINE
  5
23E
100
AcDbEntity
  8
RACCORDO
100
AcDbLine
 62
7
  6
CONTINUOUS
 10
-42.1138209993
 20
38.6352161733
 11
-42.1138209993
 21
2.965216254
  0
LINE
  5
23F
100
AcDbEntity
  8
RACCORDO
100
AcDbLine
 62
7
  6
CONTINUOUS
 10
-42.0532800322
 20
38.6002605777
 11
-42.0532800322
 21
2.9940314234
  0
LINE
  5
240
100
AcDbEntity
  8
RACCORDO
100
AcDbLine
 62
7
  6
CONTINUOUS
 10
-41.7578344481
 20
3.1646174352
 11
-41.7578344481
 21
38.4296740002
  0
LINE
  5
241
100
AcDbEntity
  8
RACCORDO
100
AcDbLine
 62
7
  6
CONTINUOUS
 10
-41.533180875
 20
33.1121716937
 11
-41.533180875
 21
27.9750468693
  0
LINE
  5
242
100
AcDbEntity
  8
RACCORDO
100
AcDbLine
 62
7
  6
CONTINUOUS
 10
-41.533180875
 20
15.1498256043
 11
-41.533180875
 21
10.0127007799
  0
LINE
  5
243
100
AcDbEntity
  8
RACCORDO
100
AcDbLine
 62
7
  6
CONTINUOUS
 10
-41.244025561
 20
38.1330071883
 11
-41.244025561
 21
33.7650378398
  0
LINE
  5
244
100
AcDbEntity
  8
DRAFT
100
AcDbLine
 62
7
  6
CONTINUOUS
 10
-41.244025561
 20
27.6415107638
 11
-41.244025561
 21
15.8026917503
  0
LINE
  5
245
100
AcDbEntity
  8
RACCORDO
100
AcDbLine
 62
7
  6
CONTINUOUS
 10
-41.244025561
 20
9.6791646744
 11
-41.244025561
 21
3.4609916588
  0
LINE
  5
246
100
AcDbEntity
  8
RACCORDO
100
AcDbLine
 62
7
  6
CONTINUOUS
 10
-41.1015112494
 20
16.7766009495
 11
-41.1015112494
 21
26.8296492846
  0
LINE
  5
247
100
AcDbEntity
  8
RACCORDO
100
AcDbLine
 62
7
  6
CONTINUOUS
 10
-41.0916371736
 20
3.2521474329
 11
-41.0916371736
 21
8.8615274105
  0
LINE
  5
248
100
AcDbEntity
  8
RACCORDO
100
AcDbLine
 62
7
  6
CONTINUOUS
 10
-41.0916371736
 20
34.7333204884
 11
-41.0916371736
 21
38.0450200434
  0
LINE
  5
249
100
AcDbEntity
  8
RACCORDO
100
AcDbLine
 62
7
  6
CONTINUOUS
 10
-41.0650302948
 20
34.1953173619
 11
-41.0650302948
 21
34.1668121402
  0
LINE
  5
24A
100
AcDbEntity
  8
RACCORDO
100
AcDbLine
 62
7
  6
CONTINUOUS
 10
-41.0650302948
 20
16.2329712725
 11
-41.0650302948
 21
16.2044660507
  0
LINE
  5
24B
100
AcDbEntity
  8
RACCORDO
100
AcDbLine
 62
7
  6
CONTINUOUS
 10
-40.9451905642
 20
27.8168546168
 11
-40.9451905642
 21
27.6489360402
  0
LINE
  5
24C
100
AcDbEntity
  8
RACCORDO
100
AcDbLine
 62
7
  6
CONTINUOUS
 10
-40.924700195
 20
34.2792210408
 11
-40.924700195
 21
34.0857872993
  0
LINE
  5
24D
100
AcDbEntity
  8
RACCORDO
100
AcDbLine
 62
7
  6
CONTINUOUS
 10
-40.924700195
 20
16.3168749514
 11
-40.924700195
 21
16.1234412098
  0
LINE
  5
24E
100
AcDbEntity
  8
RACCORDO
100
AcDbLine
 62
7
  6
CONTINUOUS
 10
-40.8528982605
 20
34.7636106141
 11
-40.8528982605
 21
34.3221515772
  0
LINE
  5
24F
100
AcDbEntity
  8
RACCORDO
100
AcDbLine
 62
7
  6
CONTINUOUS
 10
-40.8528982605
 20
28.2369235757
 11
-40.8528982605
 21
27.8720363906
  0
LINE
  5
250
100
AcDbEntity
  8
RACCORDO
100
AcDbLine
 62
7
  6
CONTINUOUS
 10
-40.8528982605
 20
16.8063397006
 11
-40.8528982605
 21
16.3598054878
  0
LINE
  5
251
100
AcDbEntity
  8
RACCORDO
100
AcDbLine
 62
7
  6
CONTINUOUS
 10
-40.8528982605
 20
10.2745774862
 11
-40.8528982605
 21
9.6333015312
  0
LINE
  5
252
100
AcDbEntity
  8
RACCORDO
100
AcDbLine
 62
7
  6
CONTINUOUS
 10
-40.7125681606
 20
34.8418071406
 11
-40.7125681606
 21
34.5226950957
  0
LINE
  5
253
100
AcDbEntity
  8
RACCORDO
100
AcDbLine
 62
7
  6
CONTINUOUS
 10
-40.7125681606
 20
28.3123885621
 11
-40.7125681606
 21
28.072579909
  0
LINE
  5
254
100
AcDbEntity
  8
RACCORDO
100
AcDbLine
 62
7
  6
CONTINUOUS
 10
-40.7125681606
 20
16.881804687
 11
-40.7125681606
 21
16.5603490063
  0
LINE
  5
255
100
AcDbEntity
  8
RACCORDO
100
AcDbLine
 62
7
  6
CONTINUOUS
 10
-40.7125681606
 20
10.3500424727
 11
-40.7125681606
 21
9.5502524296
  0
LINE
  5
256
100
AcDbEntity
  8
RACCORDO
100
AcDbLine
 62
7
  6
CONTINUOUS
 10
-40.5978966863
 20
33.6521912718
 11
-40.5978966863
 21
28.478012439
  0
LINE
  5
257
100
AcDbEntity
  8
RACCORDO
100
AcDbLine
 62
7
  6
CONTINUOUS
 10
-40.5978966863
 20
15.6898451824
 11
-40.5978966863
 21
10.5156663496
  0
LINE
  5
258
100
AcDbEntity
  8
RACCORDO
100
AcDbLine
 62
7
  6
CONTINUOUS
 10
-40.5259517487
 20
3.5901683409
 11
-40.5259517487
 21
9.1995483185
  0
LINE
  5
259
100
AcDbEntity
  8
RACCORDO
100
AcDbLine
 62
7
  6
CONTINUOUS
 10
-40.5259517487
 20
17.0861182231
 11
-40.5259517487
 21
27.161969025
  0
LINE
  5
25A
100
AcDbEntity
  8
RACCORDO
100
AcDbLine
 62
7
  6
CONTINUOUS
 10
-40.5259517487
 20
35.0485389297
 11
-40.5259517487
 21
37.7184003687
  0
LINE
  5
25B
100
AcDbEntity
  8
RACCORDO
100
AcDbLine
 62
7
  6
CONTINUOUS
 10
-39.8200448678
 20
3.4641317869
 11
-39.8200448678
 21
3.182586555
  0
LWPOLYLINE
  5
25C
100
AcDbEntity
  8
RACCORDO
100
AcDbPolyline
 62
7
  6
CONTINUOUS
 90
7
 70
0
 10
-42.0532800322
 20
2.9940314234
 10
-42.0532833153
 20
2.9933198183
 10
-42.0532525383
 20
2.9926198313
 10
-42.0531876568
 20
2.9919314422
 10
-42.0530886263
 20
2.9912546307
 10
-42.0529554017
 20
2.9905893767
 10
-42.0527879376
 20
2.9899356602
  0
LWPOLYLINE
  5
25D
100
AcDbEntity
  8
RACCORDO
100
AcDbPolyline
 62
7
  6
CONTINUOUS
 90
12
 70
0
 10
-39.8200448678
 20
3.4641313447
 10
-39.8202633082
 20
3.4555990879
 10
-39.8227265216
 20
3.4342720754
 10
-39.8279199048
 20
3.4130957617
 10
-39.8358159217
 20
3.392195871
 10
-39.8463620277
 20
3.3717054758
 10
-39.8594981121
 20
3.3517313581
 10
-39.8751445694
 20
3.3323865359
 10
-39.8931797408
 20
3.3138044792
 10
-39.9134774797
 20
3.2960902505
 10
-39.935921161
 20
3.2793236165
 10
-39.9603749676
 20
3.2635882684
  0
LWPOLYLINE
  5
25E
100
AcDbEntity
  8
RACCORDO
100
AcDbPolyline
 62
7
  6
CONTINUOUS
 90
22
 70
0
 10
-42.1131631358
 20
2.9539163843
 10
-42.1158396078
 20
2.9383899748
 10
-42.1176628936
 20
2.9221814394
 10
-42.1185860553
 20
2.9052747293
 10
-42.1185834665
 20
2.8876874185
 10
-42.1175986915
 20
2.8693955526
 10
-42.1155344056
 20
2.8503281406
 10
-42.1123978389
 20
2.8304502143
 10
-42.1081117121
 20
2.8098471447
 10
-42.10244876
 20
2.7886429188
 10
-42.095346364
 20
2.7667695679
 10
-42.0868492798
 20
2.7444546918
 10
-42.0769316564
 20
2.7222950413
 10
-42.0655627738
 20
2.7003931851
 10
-42.0528997682
 20
2.678924964
 10
-42.0392634485
 20
2.6585861378
 10
-42.0248496771
 20
2.6397071786
 10
-42.0096774028
 20
2.6221874199
 10
-41.9938223214
 20
2.6060460394
 10
-41.9773800761
 20
2.5913693866
 10
-41.9604652015
 20
2.5782993287
 10
-41.9431821233
 20
2.566940251
  0
LWPOLYLINE
  5
25F
100
AcDbEntity
  8
RACCORDO
100
AcDbPolyline
 62
7
  6
CONTINUOUS
 90
11
 70
0
 10
26.3805608642
 20
-35.1295280958
 10
26.3996961942
 20
-35.1246311494
 10
26.4196873989
 20
-35.1216657432
 10
26.4404476245
 20
-35.1206451543
 10
26.4618888977
 20
-35.1215726841
 10
26.4839151076
 20
-35.1244436326
 10
26.5064345808
 20
-35.1292459824
 10
26.529362979
 20
-35.1359622079
 10
26.5526063482
 20
-35.1445676186
 10
26.5760608449
 20
-35.155027278
 10
26.5996257571
 20
-35.1672988299
  0
LWPOLYLINE
  5
260
100
AcDbEntity
  8
0
100
AcDbPolyline
 62
7
  6
CONTINUOUS
 90
5
 70
0
 10
26.8694405732
 20
-34.8809956388
 10
26.9066360248
 20
-34.8765830478
 10
26.9442253097
 20
-34.8749663688
 10
26.9819302017
 20
-34.8761878285
 10
27.0194952056
 20
-34.8802573241
  0
LWPOLYLINE
  5
261
100
AcDbEntity
  8
RACCORDO
100
AcDbPolyline
 62
7
  6
CONTINUOUS
 90
22
 70
0
 10
-42.0527879376
 20
2.9899356602
 10
-42.0490585134
 20
2.9789213681
 10
-42.0445547459
 20
2.9671488942
 10
-42.0392068912
 20
2.9546220223
 10
-42.0328910345
 20
2.9414318268
 10
-42.0255964642
 20
2.9275261355
 10
-42.0174078372
 20
2.9127054813
 10
-42.0082221439
 20
2.8970041105
 10
-41.9979826839
 20
2.8805002843
 10
-41.9868245378
 20
2.8630823336
 10
-41.9746016328
 20
2.8447412211
 10
-41.9613178648
 20
2.8257307207
 10
-41.9473848675
 20
2.8063552437
 10
-41.9328169195
 20
2.7866886556
 10
-41.9176322351
 20
2.7669991451
 10
-41.902372196
 20
2.7478327918
 10
-41.8873264168
 20
2.7294564476
 10
-41.8724295642
 20
2.7118266542
 10
-41.8577474344
 20
2.6949701129
 10
-41.8433715449
 20
2.6789758484
 10
-41.8294257757
 20
2.6639781566
 10
-41.8160233251
 20
2.6500745646
  0
LWPOLYLINE
  5
262
100
AcDbEntity
  8
RACCORDO
100
AcDbPolyline
 62
7
  6
CONTINUOUS
 90
11
 70
0
 10
-33.6680264579
 20
-1.1300817902
 10
-33.6709162031
 20
-1.1018008798
 10
-33.6756852068
 20
-1.0750946089
 10
-33.6823799352
 20
-1.0498346164
 10
-33.690953922
 20
-1.0261492632
 10
-33.7012677692
 20
-1.0044236326
 10
-33.7133499179
 20
-0.9846897596
 10
-33.7271719268
 20
-0.9669156091
 10
-33.742509074
 20
-0.9513901581
 10
-33.7593861272
 20
-0.9381501658
 10
-33.7705801502
 20
-0.9310879841
  0
LINE
  5
263
100
AcDbEntity
  8
RACCORDO
100
AcDbLine
 62
7
  6
CONTINUOUS
 10
-33.6670159712
 20
-1.1599373399
 11
-33.6680264579
 21
-1.1300817902
  0
LINE
  5
264
100
AcDbEntity
  8
0
100
AcDbLine
 62
7
  6
CONTINUOUS
 10
-34.4104455689
 20
-0.5411727121
 11
-34.409933814
 21
-0.5568387412
  0
LINE
  5
265
100
AcDbEntity
  8
RACCORDO
100
AcDbLine
 62
7
  6
CONTINUOUS
 10
-34.7276761429
 20
-0.1659806485
 11
-34.7276761429
 21
-0.5460722259
  0
LWPOLYLINE
  5
266
100
AcDbEntity
  8
RACCORDO
100
AcDbPolyline
 62
7
  6
CONTINUOUS
 90
12
 70
0
 10
-40.8528982605
 20
16.3598054878
 10
-40.8280322065
 20
16.3758598932
 10
-40.8054933295
 20
16.3927318464
 10
-40.7852816295
 20
16.4104213471
 10
-40.7673120236
 20
16.4290337246
 10
-40.7516695947
 20
16.4484636497
 10
-40.7386095916
 20
16.4683951353
 10
-40.728174369
 20
16.4888364666
 10
-40.7203215723
 20
16.5097793582
 10
-40.7151793859
 20
16.5308829672
 10
-40.712792312
 20
16.5521499418
 10
-40.712596238
 20
16.5603387275
  0
LINE
  5
267
100
AcDbEntity
  8
DRAFT
100
AcDbLine
 62
7
  6
CONTINUOUS
 10
-41.244025561
 20
15.8026917503
 11
-41.7578344481
 21
15.4732098763
  0
LINE
  5
268
100
AcDbEntity
  8
DRAFT
100
AcDbLine
 62
7
  6
CONTINUOUS
 10
-41.244025561
 20
9.6791646744
 11
-41.7578344481
 21
9.3496828003
  0
LINE
  5
269
100
AcDbEntity
  8
RACCORDO
100
AcDbLine
 62
7
  6
CONTINUOUS
 10
-40.8528982605
 20
16.3598054878
 11
-41.0892840783
 21
16.2184698813
  0
LINE
  5
26A
100
AcDbEntity
  8
RACCORDO
100
AcDbLine
 62
7
  6
CONTINUOUS
 10
-40.8099964119
 20
16.0572126831
 11
-41.2457224911
 21
15.80563074
  0
LINE
  5
26B
100
AcDbEntity
  8
RACCORDO
100
AcDbLine
 62
7
  6
CONTINUOUS
 10
-40.5978966863
 20
15.6898451824
 11
-41.533180875
 21
15.1498256043
  0
LINE
  5
26C
100
AcDbEntity
  8
RACCORDO
100
AcDbLine
 62
7
  6
CONTINUOUS
 10
-41.1015112494
 20
16.7766009495
 11
-40.5259517487
 21
17.0861182231
  0
LINE
  5
26D
100
AcDbEntity
  8
RACCORDO
100
AcDbLine
 62
7
  6
CONTINUOUS
 10
-41.16627356
 20
16.6378166057
 11
-40.5907140592
 21
16.9473338794
  0
LWPOLYLINE
  5
26E
100
AcDbEntity
  8
0
100
AcDbPolyline
 62
7
  6
CONTINUOUS
 90
4
 70
0
 10
32.8049888961
 20
-36.5053156565
 10
32.8184024352
 20
-36.5054006687
 10
32.8318295206
 20
-36.5069624596
 10
32.845241968
 20
-36.509694357
  0
LWPOLYLINE
  5
26F
100
AcDbEntity
  8
0
100
AcDbPolyline
 62
7
  6
CONTINUOUS
 90
12
 70
0
 10
28.9302439567
 20
-37.2167804265
 10
29.0084141723
 20
-37.2314743733
 10
29.0285981165
 20
-37.2355100291
 10
29.0490279385
 20
-37.2398847429
 10
29.0696414614
 20
-37.2446720942
 10
29.0903719172
 20
-37.249950074
 10
29.1113322617
 20
-37.2558596667
 10
29.1322922541
 20
-37.2624709427
 10
29.1526856828
 20
-37.2696992144
 10
29.1723704826
 20
-37.2775384547
 10
29.1914022763
 20
-37.2860681661
 10
29.2095523633
 20
-37.2952311191
  0
LINE
  5
270
100
AcDbEntity
  8
0
100
AcDbLine
 62
7
  6
CONTINUOUS
 10
28.9114172289
 20
-37.2130801833
 11
28.9302439567
 21
-37.2167804265
  0
LINE
  5
271
100
AcDbEntity
  8
SMUSSO
100
AcDbLine
 62
7
  6
CONTINUOUS
 10
-58.193570772
 20
-6.9064255258
 11
55.5698598146
 21
-72.591925646
  0
LWPOLYLINE
  5
272
100
AcDbEntity
  8
RACCORDO
100
AcDbPolyline
 62
7
  6
CONTINUOUS
 90
15
 70
0
 10
-43.6221381016
 20
39.3196179373
 10
-43.627752676
 20
39.3386240039
 10
-43.6317302538
 20
39.3566161078
 10
-43.6341327757
 20
39.3735088158
 10
-43.6350612749
 20
39.3892241431
 10
-43.6345471531
 20
39.40369837
 10
-43.6325513794
 20
39.4168816274
 10
-43.6291288008
 20
39.4287253463
 10
-43.6243667603
 20
39.4391941633
 10
-43.6182749501
 20
39.4482688565
 10
-43.6109202396
 20
39.4559225158
 10
-43.6023778345
 20
39.4621484388
 10
-43.5926655332
 20
39.4669548484
 10
-43.5818493578
 20
39.4703313089
 10
-43.5699975314
 20
39.4722759681
  0
LWPOLYLINE
  5
273
100
AcDbEntity
  8
RACCORDO
100
AcDbPolyline
 62
7
  6
CONTINUOUS
 90
25
 70
0
 10
-27.4717367693
 20
-4.3625944787
 10
-27.4724779293
 20
-4.3354370665
 10
-27.4747072498
 20
-4.3075103121
 10
-27.4784131124
 20
-4.2789329925
 10
-27.4835758725
 20
-4.2498259462
 10
-27.4901731005
 20
-4.2203136421
 10
-27.4981798189
 20
-4.1905236166
 10
-27.5075600537
 20
-4.1605825647
 10
-27.5182717366
 20
-4.130617686
 10
-27.5302722576
 20
-4.1007582107
 10
-27.5435088852
 20
-4.0711311876
 10
-27.5579232816
 20
-4.0418624911
 10
-27.5734568131
 20
-4.0130781761
 10
-27.5900419819
 20
-3.9849008597
 10
-27.607606383
 20
-3.957450343
 10
-27.6260775693
 20
-3.9308447447
 10
-27.6453758188
 20
-3.9051976245
 10
-27.6654173857
 20
-3.8806181896
 10
-27.686118739
 20
-3.8572121524
 10
-27.7073947346
 20
-3.8350760805
 10
-27.7291497747
 20
-3.8143085827
 10
-27.7512805661
 20
-3.7950084398
 10
-27.7736883199
 20
-3.7772591565
 10
-27.796279828
 20
-3.7611309266
 10
-27.8189582505
 20
-3.7466904489
  0
LINE
  5
274
100
AcDbEntity
  8
DRAFT
100
AcDbLine
 62
7
  6
CONTINUOUS
 10
-27.8333850264
 20
-4.966355258
 11
-27.8333850264
 21
-4.5267495109
  0
LINE
  5
275
100
AcDbEntity
  8
0
100
AcDbLine
 62
7
  6
CONTINUOUS
 10
-27.1120120813
 20
-4.1691461826
 11
-27.1120120813
 21
-4.5202474079
  0
LINE
  5
276
100
AcDbEntity
  8
0
100
AcDbLine
 62
7
  6
CONTINUOUS
 10
-26.9593412666
 20
-3.96147729
 11
-26.9593412666
 21
-4.425833486
  0
LINE
  5
277
100
AcDbEntity
  8
0
100
AcDbLine
 62
7
  6
CONTINUOUS
 10
-26.6168783893
 20
-2.2275530289
 11
-26.6168783893
 21
-2.7103746243
  0
LINE
  5
278
100
AcDbEntity
  8
0
100
AcDbLine
 62
7
  6
CONTINUOUS
 10
-26.5655073544
 20
-2.1983714436
 11
-26.5655073544
 21
-2.6798327464
  0
LWPOLYLINE
  5
279
100
AcDbEntity
  8
0
100
AcDbPolyline
 62
7
  6
CONTINUOUS
 90
12
 70
0
 10
-26.9593412667
 20
-3.9614840244
 10
-26.9599023831
 20
-3.9751505482
 10
-26.9631235511
 20
-3.9969195642
 10
-26.9691850169
 20
-4.0184805265
 10
-26.9780510366
 20
-4.039712151
 10
-26.989671437
 20
-4.0604958759
 10
-27.0039900436
 20
-4.0807259942
 10
-27.0209179275
 20
-4.1002726093
 10
-27.0403196481
 20
-4.1189896951
 10
-27.062056494
 20
-4.1367643745
 10
-27.0860032365
 20
-4.1535128507
 10
-27.1120120813
 20
-4.1691461826
  0
LINE
  5
27A
100
AcDbEntity
  8
0
100
AcDbLine
 62
7
  6
CONTINUOUS
 10
-33.1720412243
 20
-1.3089295044
 11
-33.0659752072
 21
-1.1252177739
  0
LINE
  5
27B
100
AcDbEntity
  8
0
100
AcDbLine
 62
7
  6
CONTINUOUS
 10
-32.8184878337
 20
-1.1047922077
 11
-32.7124218166
 21
-0.9210804772
  0
LINE
  5
27C
100
AcDbEntity
  8
0
100
AcDbLine
 62
7
  6
CONTINUOUS
 10
-32.4649344431
 20
-0.9006549111
 11
-32.358868426
 21
-0.7169431805
  0
LINE
  5
27D
100
AcDbEntity
  8
0
100
AcDbLine
 62
7
  6
CONTINUOUS
 10
-32.1113810526
 20
-0.6965176144
 11
-32.0053150354
 21
-0.5128058839
  0
LINE
  5
27E
100
AcDbEntity
  8
0
100
AcDbLine
 62
7
  6
CONTINUOUS
 10
-31.757827662
 20
-0.4923803177
 11
-31.6517616448
 21
-0.3086685872
  0
LINE
  5
27F
100
AcDbEntity
  8
0
100
AcDbLine
 62
7
  6
CONTINUOUS
 10
-31.4042742714
 20
-0.2882430211
 11
-31.2982082542
 21
-0.1045312906
  0
LINE
  5
280
100
AcDbEntity
  8
0
100
AcDbLine
 62
7
  6
CONTINUOUS
 10
-31.0507208808
 20
-0.0841057244
 11
-30.9446548636
 21
0.0996060061
  0
LINE
  5
281
100
AcDbEntity
  8
RACCORDO
100
AcDbLine
 62
7
  6
CONTINUOUS
 10
-43.6221380622
 20
1.8047438769
 11
-42.1131631358
 21
2.9539163843
  0
LINE
  5
282
100
AcDbEntity
  8
RACCORDO
100
AcDbLine
 62
7
  6
CONTINUOUS
 10
-43.4615348285
 20
1.4105780523
 11
-41.943181834
 21
2.5669404691
  0
LWPOLYLINE
  5
283
100
AcDbEntity
  8
RACCORDO
100
AcDbPolyline
 62
7
  6
CONTINUOUS
 90
10
 70
0
 10
-42.052792378
 20
2.9899382218
 10
-42.0591003581
 20
2.9856725484
 10
-42.0655131398
 20
2.9814698372
 10
-42.072028752
 20
2.9773313833
 10
-42.0786451917
 20
2.9732584617
 10
-42.0853604252
 20
2.9692523275
 10
-42.0921723881
 20
2.9653142151
 10
-42.0990789867
 20
2.9614453382
 10
-42.1060780978
 20
2.957646889
 10
-42.1131675699
 20
2.953920038
  0
LWPOLYLINE
  5
284
100
AcDbEntity
  8
RACCORDO
100
AcDbPolyline
 62
7
  6
CONTINUOUS
 90
10
 70
0
 10
-41.8092988422
 20
2.6450718197
 10
-41.8223166947
 20
2.6370159794
 10
-41.8353085
 20
2.6284218315
 10
-41.8482566221
 20
2.6193010421
 10
-41.8611434844
 20
2.6096659923
 10
-41.8739515936
 20
2.5995297614
 10
-41.8866635631
 20
2.588906109
 10
-41.8992621369
 20
2.5778094561
 10
-41.9117302128
 20
2.5662548662
 10
-41.924050866
 20
2.5542580242
  0
LINE
  5
285
100
AcDbEntity
  8
RACCORDO
100
AcDbLine
 62
7
  6
CONTINUOUS
 10
-41.244025561
 20
9.2646875326
 11
-40.738083783
 21
9.5670090909
  0
LINE
  5
286
100
AcDbEntity
  8
RACCORDO
100
AcDbLine
 62
7
  6
CONTINUOUS
 10
-41.0916371736
 20
8.8615274105
 11
-40.5259517487
 21
9.1995483185
  0
LINE
  5
287
100
AcDbEntity
  8
RACCORDO
100
AcDbLine
 62
7
  6
CONTINUOUS
 10
-41.0916371736
 20
3.2521474329
 11
-40.5259517487
 21
3.5901683409
  0
LINE
  5
288
100
AcDbEntity
  8
RACCORDO
100
AcDbLine
 62
7
  6
CONTINUOUS
 10
-42.0532800322
 20
2.9940314234
 11
-41.244025561
 21
3.4609916588
  0
LINE
  5
289
100
AcDbEntity
  8
RACCORDO
100
AcDbLine
 62
7
  6
CONTINUOUS
 10
-41.533180875
 20
10.0127007799
 11
-40.5978966863
 21
10.5156663496
  0
LINE
  5
28A
100
AcDbEntity
  8
RACCORDO
100
AcDbLine
 62
7
  6
CONTINUOUS
 10
-41.5979431856
 20
9.8739164361
 11
-40.6626589968
 21
10.3768820058
  0
LWPOLYLINE
  5
28B
100
AcDbEntity
  8
RACCORDO
100
AcDbPolyline
 62
7
  6
CONTINUOUS
 90
11
 70
0
 10
10.4706582876
 20
-25.9433497459
 10
10.4897936175
 20
-25.9384527996
 10
10.5097848223
 20
-25.9354873933
 10
10.5305450478
 20
-25.9344668044
 10
10.551986321
 20
-25.9353943342
 10
10.5740125309
 20
-25.9382652827
 10
10.5965320041
 20
-25.9430676325
 10
10.6194604023
 20
-25.9497838581
 10
10.6427037715
 20
-25.9583892687
 10
10.6661582682
 20
-25.9688489281
 10
10.6897231804
 20
-25.98112048
  0
LWPOLYLINE
  5
28C
100
AcDbEntity
  8
0
100
AcDbPolyline
 62
7
  6
CONTINUOUS
 90
5
 70
0
 10
10.9595379965
 20
-25.6948172889
 10
10.9967334481
 20
-25.6904046979
 10
11.034322733
 20
-25.688788019
 10
11.072027625
 20
-25.6900094786
 10
11.1095926289
 20
-25.6940789742
  0
LWPOLYLINE
  5
28D
100
AcDbEntity
  8
0
100
AcDbPolyline
 62
7
  6
CONTINUOUS
 90
6
 70
0
 10
27.0194952056
 20
-34.8802573241
 10
27.0566740859
 20
-34.8871583509
 10
27.0932385835
 20
-34.8968535126
 10
27.1290149473
 20
-34.9093046192
 10
27.1639811739
 20
-34.9245418283
 10
27.1969241112
 20
-34.941960347
  0
LWPOLYLINE
  5
28E
100
AcDbEntity
  8
0
100
AcDbPolyline
 62
7
  6
CONTINUOUS
 90
4
 70
0
 10
32.845241968
 20
-36.509694357
 10
32.8585420252
 20
-36.5135368629
 10
32.8716540753
 20
-36.5184812249
 10
32.884608485
 20
-36.5243134434
  0
LWPOLYLINE
  5
28F
100
AcDbEntity
  8
RACCORDO
100
AcDbPolyline
 62
7
  6
CONTINUOUS
 90
13
 70
0
 10
38.0667614221
 20
-48.1025357543
 10
38.1069558424
 20
-48.1239384233
 10
38.1513291999
 20
-48.1434925432
 10
38.1958576488
 20
-48.1589608325
 10
38.240447125
 20
-48.1703819749
 10
38.2848749899
 20
-48.1777441258
 10
38.328708236
 20
-48.1810575166
 10
38.3716513631
 20
-48.1804246919
 10
38.4134737695
 20
-48.1759729891
 10
38.4537370811
 20
-48.1678993937
 10
38.4921218585
 20
-48.1564784797
 10
38.5284646196
 20
-48.1419861742
 10
38.5555258514
 20
-48.1286091108
  0
LWPOLYLINE
  5
290
100
AcDbEntity
  8
RACCORDO
100
AcDbPolyline
 62
7
  6
CONTINUOUS
 90
4
 70
0
 10
-45.4096996048
 20
0.1066921662
 10
-45.3704546047
 20
0.0768004806
 10
-45.3297068265
 20
0.0498262045
 10
-45.3137563842
 20
0.0403304205
  0
LINE
  5
291
100
AcDbEntity
  8
RACCORDO
100
AcDbLine
 62
7
  6
CONTINUOUS
 10
-45.4473949703
 20
0.1393207641
 11
-45.4096996048
 21
0.1066921662
  0
LWPOLYLINE
  5
292
100
AcDbEntity
  8
RACCORDO
100
AcDbPolyline
 62
7
  6
CONTINUOUS
 90
6
 70
0
 10
-41.8160233251
 20
2.6500745646
 10
-41.8150508915
 20
2.6491374846
 10
-41.8140190744
 20
2.6482416527
 10
-41.8129279173
 20
2.6473871196
 10
-41.8117774636
 20
2.646573936
 10
-41.8105677572
 20
2.6458021526
  0
LINE
  5
293
100
AcDbEntity
  8
DRAFT
100
AcDbLine
 62
7
  6
CONTINUOUS
 10
-23.0279656191
 20
-7.6760705688
 11
-23.0279656191
 21
-7.8461510008
  0
LINE
  5
294
100
AcDbEntity
  8
DRAFT
100
AcDbLine
 62
7
  6
CONTINUOUS
 10
-22.0926814303
 20
-7.8413598194
 11
-22.0926814303
 21
-7.1360509906
  0
LINE
  5
295
100
AcDbEntity
  8
RACCORDO
100
AcDbLine
 62
7
  6
CONTINUOUS
 10
-18.8177735662
 20
-9.3520346365
 11
-18.8177735662
 21
-9.7322505758
  0
LINE
  5
296
100
AcDbEntity
  8
RACCORDO
100
AcDbLine
 62
7
  6
CONTINUOUS
 10
-17.6366744494
 20
-10.2788555764
 11
-17.6366744494
 21
-10.2551960982
  0
LINE
  5
297
100
AcDbEntity
  8
0
100
AcDbLine
 62
7
  6
CONTINUOUS
 10
-28.222293756
 20
-2.9420278777
 11
-28.1162277389
 21
-2.7583161472
  0
LINE
  5
298
100
AcDbEntity
  8
0
100
AcDbLine
 62
7
  6
CONTINUOUS
 10
-27.8687403654
 20
-2.737890581
 11
-27.7626743483
 21
-2.5541788505
  0
LINE
  5
299
100
AcDbEntity
  8
0
100
AcDbLine
 62
7
  6
CONTINUOUS
 10
-27.5151869748
 20
-2.5337532844
 11
-27.4091209577
 21
-2.3500415539
  0
LINE
  5
29A
100
AcDbEntity
  8
0
100
AcDbLine
 62
7
  6
CONTINUOUS
 10
-27.1616335843
 20
-2.3296159877
 11
-27.0555675671
 21
-2.1459042572
  0
LINE
  5
29B
100
AcDbEntity
  8
0
100
AcDbLine
 62
7
  6
CONTINUOUS
 10
-27.3649445735
 20
-3.2781300004
 11
-27.1702706821
 21
-3.0354478977
  0
LINE
  5
29C
100
AcDbEntity
  8
RACCORDO
100
AcDbLine
 62
7
  6
CONTINUOUS
 10
-35.6469149585
 20
0.1084330642
 11
-35.0812295335
 21
0.4464539723
  0
LINE
  5
29D
100
AcDbEntity
  8
RACCORDO
100
AcDbLine
 62
7
  6
CONTINUOUS
 10
-35.0511777032
 20
-0.3592864795
 11
-34.7276761429
 21
-0.1659806485
  0
LINE
  5
29E
100
AcDbEntity
  8
RACCORDO
100
AcDbLine
 62
7
  6
CONTINUOUS
 10
-40.3138745103
 20
3.8758674362
 11
-40.5259517487
 21
3.7534162763
  0
LINE
  5
29F
100
AcDbEntity
  8
RACCORDO
100
AcDbLine
 62
7
  6
CONTINUOUS
 10
-41.8092988422
 20
2.6450718197
 11
-41.0321842462
 21
3.0940717388
  0
LWPOLYLINE
  5
2A0
100
AcDbEntity
  8
RACCORDO
100
AcDbPolyline
 62
7
  6
CONTINUOUS
 90
10
 70
0
 10
-42.0532800322
 20
2.9940314234
 10
-42.0596100375
 20
2.9905630807
 10
-42.0660439143
 20
2.9871590537
 10
-42.072579703
 20
2.9838203792
 10
-42.0792154126
 20
2.9805480741
 10
-42.085949022
 20
2.9773431354
 10
-42.0927784798
 20
2.9742065391
 10
-42.0997017059
 20
2.9711392408
 10
-42.1067165913
 20
2.9681421748
 10
-42.1138209993
 20
2.965216254
  0
LWPOLYLINE
  5
2A1
100
AcDbEntity
  8
RACCORDO
100
AcDbPolyline
 62
7
  6
CONTINUOUS
 90
10
 70
0
 10
-41.8160233223
 20
2.6500747485
 10
-41.8303756998
 20
2.6428586181
 10
-41.8447169371
 20
2.6351095162
 10
-41.8590274222
 20
2.6268380399
 10
-41.8732875851
 20
2.6180555007
 10
-41.8874779244
 20
2.6087739087
 10
-41.9015790344
 20
2.5990059569
 10
-41.9155716316
 20
2.5887650031
 10
-41.9294365805
 20
2.578065052
 10
-41.9431549204
 20
2.5669207362
  0
LWPOLYLINE
  5
2A2
100
AcDbEntity
  8
0
100
AcDbPolyline
 62
7
  6
CONTINUOUS
 90
6
 70
0
 10
11.1095926289
 20
-25.6940789742
 10
11.1467715092
 20
-25.700980001
 10
11.1833360068
 20
-25.7106751627
 10
11.2191123706
 20
-25.7231262693
 10
11.2540785972
 20
-25.7383634784
 10
11.2870215345
 20
-25.7557819971
  0
LWPOLYLINE
  5
2A3
100
AcDbEntity
  8
ASSI
100
AcDbPolyline
 62
7
  6
CONTINUOUS
 90
8
 70
0
 10
16.936330675
 20
-27.3237832776
 10
16.9231499859
 20
-27.3209663928
 10
16.9104793825
 20
-27.3194120304
 10
16.898339034
 20
-27.3190520623
 10
16.8868065046
 20
-27.3198074176
 10
16.8759225107
 20
-27.3216237851
 10
16.8656955442
 20
-27.3244771843
 10
16.8561412794
 20
-27.3283297407
  0
LWPOLYLINE
  5
2A4
100
AcDbEntity
  8
0
100
AcDbPolyline
 62
7
  6
CONTINUOUS
 90
5
 70
0
 10
-1.3497419532
 20
-24.1600196732
 10
-1.3504001659
 20
-24.1598677386
 10
-1.3708212409
 20
-24.1533912626
 10
-1.3922906014
 20
-24.1449920881
 10
-1.4148493689
 20
-24.1345787448
  0
LWPOLYLINE
  5
2A5
100
AcDbEntity
  8
0
100
AcDbPolyline
 62
7
  6
CONTINUOUS
 90
8
 70
0
 10
-1.2586260153
 20
-24.530621647
 10
-1.2521165181
 20
-24.5327397381
 10
-1.2455894484
 20
-24.5339818124
 10
-1.2390448062
 20
-24.5343478698
 10
-1.2324947733
 20
-24.5336775528
 10
-1.2259271679
 20
-24.532131219
 10
-1.2193054444
 20
-24.5301899408
 10
-1.2126238893
 20
-24.5279445522
  0
LWPOLYLINE
  5
2A6
100
AcDbEntity
  8
0
100
AcDbPolyline
 62
7
  6
CONTINUOUS
 90
10
 70
0
 10
-1.7570441843
 20
-23.6308880796
 10
-1.7296283013
 20
-23.641457262
 10
-1.7023401252
 20
-23.6529842286
 10
-1.6751796561
 20
-23.6654689794
 10
-1.6481713879
 20
-23.6788930533
 10
-1.6212908266
 20
-23.6932749115
 10
-1.5944644906
 20
-23.7086699374
 10
-1.567667886
 20
-23.725096592
 10
-1.5409255067
 20
-23.7425364144
 10
-1.5142373527
 20
-23.7609894044
  0
LWPOLYLINE
  5
2A7
100
AcDbEntity
  8
0
100
AcDbPolyline
 62
7
  6
CONTINUOUS
 90
11
 70
0
 10
27.1893976669
 20
-34.9378680135
 10
27.1696965274
 20
-34.9293400533
 10
27.148761008
 20
-34.9232520638
 10
27.1267136636
 20
-34.9196429422
 10
27.1036958989
 20
-34.9185336593
 10
27.0798298343
 20
-34.9199255768
 10
27.0552535422
 20
-34.9238062839
 10
27.0301446088
 20
-34.9301367858
 10
27.0046575482
 20
-34.9388598651
 10
26.9789193912
 20
-34.9499141522
 10
26.9530705038
 20
-34.9632235622
  0
LWPOLYLINE
  5
2A8
100
AcDbEntity
  8
0
100
AcDbPolyline
 62
7
  6
CONTINUOUS
 90
11
 70
0
 10
11.2794950902
 20
-25.7516896636
 10
11.2597939507
 20
-25.7431617034
 10
11.2388584313
 20
-25.7370737139
 10
11.2168110869
 20
-25.7334645923
 10
11.1937933222
 20
-25.7323553094
 10
11.1699272576
 20
-25.7337472269
 10
11.1453509655
 20
-25.737627934
 10
11.1202420321
 20
-25.743958436
 10
11.0947549715
 20
-25.7526815152
 10
11.0690168145
 20
-25.7637358024
 10
11.0431679271
 20
-25.7770452123
  0
LINE
  5
2A9
100
AcDbEntity
  8
0
100
AcDbLine
 62
7
  6
CONTINUOUS
 10
-1.4148493689
 20
-24.1345787448
 11
-1.4384975436
 21
-24.1221512325
  0
LWPOLYLINE
  5
2AA
100
AcDbEntity
  8
RACCORDO
100
AcDbPolyline
 62
7
  6
CONTINUOUS
 90
16
 70
0
 10
-44.0063430275
 20
1.8241520785
 10
-43.9857070204
 20
1.8132976103
 10
-43.9634129605
 20
1.8035976284
 10
-43.9396538792
 20
1.7951361193
 10
-43.9146354924
 20
1.7879863462
 10
-43.88857442
 20
1.7822102148
 10
-43.8616963094
 20
1.7778577374
 10
-43.8342338828
 20
1.7749665995
 10
-43.8064249212
 20
1.7735618337
 10
-43.7785102062
 20
1.7736556032
 10
-43.7507314353
 20
1.775247096
 10
-43.7233291286
 20
1.7783225324
 10
-43.6965405468
 20
1.7828552839
 10
-43.6705976366
 20
1.788806104
 10
-43.6457250225
 20
1.7961234681
 10
-43.6221380622
 20
1.8047440193
  0
LWPOLYLINE
  5
2AB
100
AcDbEntity
  8
RACCORDO
100
AcDbPolyline
 62
7
  6
CONTINUOUS
 90
12
 70
0
 10
29.8690301566
 20
-37.6758013836
 10
29.8618319882
 20
-37.6718722725
 10
29.8422236839
 20
-37.6633083787
 10
29.8213793871
 20
-37.6572115642
 10
29.7993189773
 20
-37.6535421486
 10
29.776401119
 20
-37.6523597905
 10
29.7526117954
 20
-37.6537051452
 10
29.7279650232
 20
-37.6575375574
 10
29.7028615164
 20
-37.6637947184
 10
29.6774348464
 20
-37.672455859
 10
29.6515514417
 20
-37.6835417484
 10
29.6252113025
 20
-37.6970523868
  0
LINE
  5
2AC
100
AcDbEntity
  8
0
100
AcDbLine
 62
7
  6
CONTINUOUS
 10
29.2095523633
 20
-37.2952311191
 11
29.2206082549
 21
-37.3013784287
  0
LINE
  5
2AD
100
AcDbEntity
  8
RACCORDO
100
AcDbLine
 62
7
  6
CONTINUOUS
 10
-45.3138694154
 20
0.0403885686
 11
38.0667420917
 21
-48.1025315111
  0
LINE
  5
2AE
100
AcDbEntity
  8
0
100
AcDbLine
 62
7
  6
CONTINUOUS
 10
-6.2643138397
 20
-22.4508177659
 11
-5.9911825318
 21
-22.60852036
  0
LINE
  5
2AF
100
AcDbEntity
  8
0
100
AcDbLine
 62
7
  6
CONTINUOUS
 10
-5.3988907999
 20
-22.9505021828
 11
-5.088954584
 21
-23.1294554694
  0
LINE
  5
2B0
100
AcDbEntity
  8
0
100
AcDbLine
 62
7
  6
CONTINUOUS
 10
-4.9221063751
 20
-23.2257915342
 11
-4.625598824
 21
-23.396991278
  0
LINE
  5
2B1
100
AcDbEntity
  8
0
100
AcDbLine
 62
7
  6
CONTINUOUS
 10
-4.1951221151
 20
-23.6455431346
 11
-4.15165414
 21
-23.6706409987
  0
LINE
  5
2B2
100
AcDbEntity
  8
0
100
AcDbLine
 62
7
  6
CONTINUOUS
 10
-3.7194626972
 20
-23.9201829211
 11
-3.4162630876
 21
-24.0952465757
  0
LINE
  5
2B3
100
AcDbEntity
  8
0
100
AcDbLine
 62
7
  6
CONTINUOUS
 10
-3.3675950491
 20
-24.1233468912
 11
-3.0610218331
 21
-24.3003584238
  0
LINE
  5
2B4
100
AcDbEntity
  8
0
100
AcDbLine
 62
7
  6
CONTINUOUS
 10
-2.4731275983
 20
-24.6398011869
 11
-2.1464683071
 21
-24.8284101677
  0
LINE
  5
2B5
100
AcDbEntity
  8
0
100
AcDbLine
 62
7
  6
CONTINUOUS
 10
-2.0554559738
 20
-24.880959873
 11
-1.7467671766
 21
-25.0591929157
  0
LINE
  5
2B6
100
AcDbEntity
  8
0
100
AcDbLine
 62
7
  6
CONTINUOUS
 10
-1.2721431196
 20
-25.3332348978
 11
-0.9740208233
 21
-25.5053669754
  0
LINE
  5
2B7
100
AcDbEntity
  8
RACCORDO
100
AcDbLine
 62
7
  6
CONTINUOUS
 10
-45.3759942058
 20
0.1777096293
 11
-6.276925106
 21
-22.3976028425
  0
LINE
  5
2B8
100
AcDbEntity
  8
RACCORDO
100
AcDbLine
 62
7
  6
CONTINUOUS
 10
-5.9514056584
 20
-22.5855536918
 11
-5.3988907999
 21
-22.9045688464
  0
LINE
  5
2B9
100
AcDbEntity
  8
RACCORDO
100
AcDbLine
 62
7
  6
CONTINUOUS
 10
-5.0491777107
 20
-23.1064888012
 11
-4.9185144039
 21
-23.181932157
  0
LINE
  5
2BA
100
AcDbEntity
  8
RACCORDO
100
AcDbLine
 62
7
  6
CONTINUOUS
 10
-4.5858219507
 20
-23.3740246099
 11
-4.2100403956
 21
-23.5909961701
  0
LINE
  5
2BB
100
AcDbEntity
  8
RACCORDO
100
AcDbLine
 62
7
  6
CONTINUOUS
 10
-4.1118772666
 20
-23.6476743305
 11
-3.7220863216
 21
-23.8727347369
  0
LINE
  5
2BC
100
AcDbEntity
  8
RACCORDO
100
AcDbLine
 62
7
  6
CONTINUOUS
 10
-3.3764862142
 20
-24.0722799076
 11
-3.3551172678
 21
-24.0846180694
  0
LINE
  5
2BD
100
AcDbEntity
  8
RACCORDO
100
AcDbLine
 62
7
  6
CONTINUOUS
 10
-3.0212449597
 20
-24.2773917557
 11
-2.4839028653
 21
-24.5876463465
  0
LINE
  5
2BE
100
AcDbEntity
  8
RACCORDO
100
AcDbLine
 62
7
  6
CONTINUOUS
 10
-2.1066914337
 20
-24.8054434996
 11
-2.0558741039
 21
-24.8347847889
  0
LINE
  5
2BF
100
AcDbEntity
  8
RACCORDO
100
AcDbLine
 62
7
  6
CONTINUOUS
 10
-1.7069900221
 20
-25.0362260852
 11
-1.2838353525
 21
-25.280550288
  0
LINE
  5
2C0
100
AcDbEntity
  8
RACCORDO
100
AcDbLine
 62
7
  6
CONTINUOUS
 10
-0.9342436687
 20
-25.4824001448
 11
38.0046173081
 21
-47.9652104543
  0
LINE
  5
2C1
100
AcDbEntity
  8
0
100
AcDbLine
 62
7
  6
CONTINUOUS
 10
-2.9754986821
 20
-24.0074748958
 11
-2.553417452
 21
-24.2511793081
  0
LINE
  5
2C2
100
AcDbEntity
  8
0
100
AcDbLine
 62
7
  6
CONTINUOUS
 10
-2.6153578847
 20
-23.9505731325
 11
-2.9120994881
 21
-23.7792382498
  0
LINE
  5
2C3
100
AcDbEntity
  8
0
100
AcDbLine
 62
7
  6
CONTINUOUS
 10
-1.7467671766
 20
-24.3882544563
 11
-1.580586961
 21
-24.4842048301
  0
LINE
  5
2C4
100
AcDbEntity
  8
0
100
AcDbLine
 62
7
  6
CONTINUOUS
 10
-2.6519134747
 20
-23.7661565557
 11
-2.7706781319
 21
-23.6975833311
  0
LINE
  5
2C5
100
AcDbEntity
  8
0
100
AcDbLine
 62
7
  6
CONTINUOUS
 10
-1.5799188999
 20
-24.2038061512
 11
-1.7570441843
 21
-24.1015362319
  0
LINE
  5
2C6
100
AcDbEntity
  8
0
100
AcDbLine
 62
7
  6
CONTINUOUS
 10
-1.4384975436
 20
-24.1221512325
 11
-1.615622828
 21
-24.0198813132
  0
LINE
  5
2C7
100
AcDbEntity
  8
0
100
AcDbLine
 62
7
  6
CONTINUOUS
 10
-2.6020416498
 20
-22.8509247633
 11
-2.9018669459
 21
-22.677809395
  0
LINE
  5
2C8
100
AcDbEntity
  8
0
100
AcDbLine
 62
7
  6
CONTINUOUS
 10
-3.5551084538
 20
-22.3006359354
 11
-3.8617594516
 21
-22.1235794925
  0
LINE
  5
2C9
100
AcDbEntity
  8
0
100
AcDbLine
 62
7
  6
CONTINUOUS
 10
-4.478357979
 20
-21.7675632306
 11
-4.7880375151
 21
-21.5887581476
  0
LINE
  5
2CA
100
AcDbEntity
  8
0
100
AcDbLine
 62
7
  6
CONTINUOUS
 10
-5.5139080819
 20
-21.1696495797
 11
-5.8236328728
 21
-20.9908183671
  0
LINE
  5
2CB
100
AcDbEntity
  8
0
100
AcDbLine
 62
7
  6
CONTINUOUS
 10
-6.3983381519
 20
-20.6589907417
 11
-6.7350242173
 21
-20.4645924272
  0
LINE
  5
2CC
100
AcDbEntity
  8
0
100
AcDbLine
 62
7
  6
CONTINUOUS
 10
-5.088954584
 20
-21.4149095281
 11
-5.3988907999
 21
-21.2359562415
  0
LINE
  5
2CD
100
AcDbEntity
  8
0
100
AcDbLine
 62
7
  6
CONTINUOUS
 10
-2.4606202936
 20
-22.7692698446
 11
-2.7604455896
 21
-22.5961544763
  0
LINE
  5
2CE
100
AcDbEntity
  8
0
100
AcDbLine
 62
7
  6
CONTINUOUS
 10
-3.4136870976
 20
-22.2189810167
 11
-3.7203380953
 21
-22.0419245738
  0
LINE
  5
2CF
100
AcDbEntity
  8
0
100
AcDbLine
 62
7
  6
CONTINUOUS
 10
-4.3369366228
 20
-21.6859083119
 11
-4.6466161589
 21
-21.5071032289
  0
LINE
  5
2D0
100
AcDbEntity
  8
0
100
AcDbLine
 62
7
  6
CONTINUOUS
 10
-5.3724867256
 20
-21.087994661
 11
-5.6822115166
 21
-20.9091634484
  0
LINE
  5
2D1
100
AcDbEntity
  8
0
100
AcDbLine
 62
7
  6
CONTINUOUS
 10
-6.2569167957
 20
-20.5773358231
 11
-6.5936028611
 21
-20.3829375086
  0
LINE
  5
2D2
100
AcDbEntity
  8
0
100
AcDbLine
 62
7
  6
CONTINUOUS
 10
-4.9475332278
 20
-21.3332546095
 11
-5.2574694437
 21
-21.1543013228
  0
LINE
  5
2D3
100
AcDbEntity
  8
RACCORDO
100
AcDbLine
 62
7
  6
CONTINUOUS
 10
36.229743358
 20
-44.9935184096
 11
-43.6011202557
 21
1.0998217253
  0
LINE
  5
2D4
100
AcDbEntity
  8
RACCORDO
100
AcDbLine
 62
7
  6
CONTINUOUS
 10
36.3693254914
 20
-44.6827601807
 11
-43.4615348285
 21
1.4105780523
  0
LINE
  5
2D5
100
AcDbEntity
  8
RACCORDO
100
AcDbLine
 62
7
  6
CONTINUOUS
 10
-41.924050866
 20
2.5542580242
 11
36.5470981641
 21
-42.7539999514
  0
LINE
  5
2D6
100
AcDbEntity
  8
RACCORDO
100
AcDbLine
 62
7
  6
CONTINUOUS
 10
-41.8105677572
 20
2.6458021526
 11
36.5470981641
 21
-42.5969297755
  0
LINE
  5
2D7
100
AcDbEntity
  8
RACCORDO
100
AcDbLine
 62
7
  6
CONTINUOUS
 10
36.5470981641
 20
-42.2925730411
 11
-41.5457347225
 21
2.7972499345
  0
LINE
  5
2D8
100
AcDbEntity
  8
RACCORDO
100
AcDbLine
 62
7
  6
CONTINUOUS
 10
-27.6890892741
 20
-4.9847961879
 11
-23.0279656191
 21
-7.6760705688
  0
LINE
  5
2D9
100
AcDbEntity
  8
RACCORDO
100
AcDbLine
 62
7
  6
CONTINUOUS
 10
-11.7791866974
 20
-14.1709745378
 11
-7.330162768
 21
-16.7397851953
  0
LINE
  5
2DA
100
AcDbEntity
  8
RACCORDO
100
AcDbLine
 62
7
  6
CONTINUOUS
 10
4.1307158793
 20
-23.3571528877
 11
8.5797398087
 21
-25.9259635452
  0
LINE
  5
2DB
100
AcDbEntity
  8
RACCORDO
100
AcDbLine
 62
7
  6
CONTINUOUS
 10
20.040618456
 20
-32.5433312376
 11
24.4896423854
 21
-35.1121418951
  0
LWPOLYLINE
  5
2DC
100
AcDbEntity
  8
RACCORDO
100
AcDbPolyline
 62
7
  6
CONTINUOUS
 90
11
 70
0
 10
-45.3138694154
 20
0.0403885686
 10
-45.3151658004
 20
0.0411501372
 10
-45.327417923
 20
0.0497726077
 10
-45.338452769
 20
0.0602588441
 10
-45.348188196
 20
0.0725307802
 10
-45.3565517532
 20
0.0864970711
 10
-45.3634812027
 20
0.1020537654
 10
-45.3689249731
 20
0.1190850512
 10
-45.3728425614
 20
0.1374641528
 10
-45.3752048279
 20
0.1570542812
 10
-45.3759942058
 20
0.1777096293
  0
LWPOLYLINE
  5
2DD
100
AcDbEntity
  8
RACCORDO
100
AcDbPolyline
 62
7
  6
CONTINUOUS
 90
11
 70
0
 10
38.0667420917
 20
-48.1025315111
 10
38.0654457176
 20
-48.101769949
 10
38.0531935955
 20
-48.0931474814
 10
38.0421587497
 20
-48.0826612482
 10
38.0324233223
 20
-48.070389315
 10
38.024059764
 20
-48.0564230262
 10
38.0171303132
 20
-48.0408663329
 10
38.0116865415
 20
-48.0238350466
 10
38.0077689521
 20
-48.0054559424
 10
38.0054066852
 20
-47.9858658094
 10
38.0046173081
 20
-47.9652104543
  0
LWPOLYLINE
  5
2DE
100
AcDbEntity
  8
RACCORDO
100
AcDbPolyline
 62
7
  6
CONTINUOUS
 90
25
 70
0
 10
-45.3759942058
 20
0.1777096293
 10
-45.3945425312
 20
0.1891283844
 10
-45.4128778994
 20
0.2017933447
 10
-45.4310003105
 20
0.2157045103
 10
-45.4489921406
 20
0.2309355175
 10
-45.4667710134
 20
0.2474127298
 10
-45.4840898007
 20
0.2649152384
 10
-45.5009358831
 20
0.283451724
 10
-45.5173218799
 20
0.3030135057
 10
-45.5330385198
 20
0.3233536316
 10
-45.5480781606
 20
0.3444837745
 10
-45.5624484445
 20
0.3663922616
 10
-45.5759630275
 20
0.3887971222
 10
-45.5886110241
 20
0.4117064498
 10
-45.6004033198
 20
0.4351121511
 10
-45.6111862272
 20
0.4587079754
 10
-45.6209449062
 20
0.4824935014
 10
-45.6296941969
 20
0.5064691506
 10
-45.6373249325
 20
0.5303299365
 10
-45.6438232242
 20
0.5540830706
 10
-45.6492029607
 20
0.5777213414
 10
-45.6533966407
 20
0.6009181282
 10
-45.6563817637
 20
0.6235645574
 10
-45.6581808301
 20
0.6457695025
 10
-45.65879384
 20
0.6675329635
  0
LWPOLYLINE
  5
2DF
100
AcDbEntity
  8
RACCORDO
100
AcDbPolyline
 62
7
  6
CONTINUOUS
 90
22
 70
0
 10
-43.6011202557
 20
1.0998217253
 10
-43.6320167727
 20
1.119105631
 10
-43.6622050707
 20
1.1404839149
 10
-43.6916851498
 20
1.1639565769
 10
-43.7205485605
 20
1.1896321084
 10
-43.7487037523
 20
1.217402018
 10
-43.7758760733
 20
1.2469408318
 10
-43.802078607
 20
1.2782628147
 10
-43.8272982699
 20
1.3113537017
 10
-43.8512211601
 20
1.3458452248
 10
-43.8738491762
 20
1.3817492197
 10
-43.8951804195
 20
1.4190538506
 10
-43.9148952926
 20
1.4573553421
 10
-43.9330055279
 20
1.4967097617
 10
-43.9494993929
 20
1.537061042
 10
-43.9640220928
 20
1.5778372047
 10
-43.9765557779
 20
1.6190742822
 10
-43.9871182979
 20
1.6607362423
 10
-43.9954084075
 20
1.7021430095
 10
-44.0013256913
 20
1.743067892
 10
-44.0049705647
 20
1.7837375817
 10
-44.0063430275
 20
1.8241520785
  0
LWPOLYLINE
  5
2E0
100
AcDbEntity
  8
0
100
AcDbPolyline
 62
7
  6
CONTINUOUS
 90
11
 70
0
 10
-34.5130198701
 20
-0.341920787
 10
-34.5019165858
 20
-0.3489282512
 10
-34.4850130431
 20
-0.3622049661
 10
-34.469630082
 20
-0.3777397462
 10
-34.4558519072
 20
-0.3954478917
 10
-34.4437533354
 20
-0.415233707
 10
-34.4334002926
 20
-0.4369906882
 10
-34.424850666
 20
-0.4605990673
 10
-34.4181524548
 20
-0.4859266426
 10
-34.4133422013
 20
-0.5128333359
 10
-34.4104455689
 20
-0.5411727121
  0
LWPOLYLINE
  5
2E1
100
AcDbEntity
  8
RACCORDO
100
AcDbPolyline
 62
7
  6
CONTINUOUS
 90
9
 70
0
 10
36.6349661298
 20
-44.7371291559
 10
36.6161668635
 20
-44.7252141948
 10
36.5993670924
 20
-44.7123418942
 10
36.5847122765
 20
-44.6986237076
 10
36.5723293039
 20
-44.6841784123
 10
36.5623253923
 20
-44.6691310815
 10
36.5547871608
 20
-44.6536120011
 10
36.5497798792
 20
-44.6377555417
 10
36.5473469035
 20
-44.6216989951
  0
LWPOLYLINE
  5
2E2
100
AcDbEntity
  8
0
100
AcDbPolyline
 62
7
  6
CONTINUOUS
 90
13
 70
0
 10
-1.580586961
 20
-24.4842048301
 10
-1.5612986917
 20
-24.4965932673
 10
-1.5429643122
 20
-24.510419293
 10
-1.5255838224
 20
-24.5256829072
 10
-1.5092425145
 20
-24.5422786109
 10
-1.4938550963
 20
-24.5603119031
 10
-1.4791656914
 20
-24.5800992806
 10
-1.4649966126
 20
-24.6017901178
 10
-1.4515255471
 20
-24.6252350404
 10
-1.4390296808
 20
-24.6503024216
 10
-1.4276014087
 20
-24.6769483858
 10
-1.4171483358
 20
-24.7052168086
 10
-1.407670462
 20
-24.7351076901
  0
LWPOLYLINE
  5
2E3
100
AcDbEntity
  8
0
100
AcDbPolyline
 62
7
  6
CONTINUOUS
 90
22
 70
0
 10
-27.4531709091
 20
-3.5497416407
 10
-27.4272270615
 20
-3.5664061299
 10
-27.4014628791
 20
-3.5852808739
 10
-27.3760225017
 20
-3.6062602764
 10
-27.3510482572
 20
-3.6292269666
 10
-27.326679866
 20
-3.6540524558
 10
-27.3030536587
 20
-3.6805978558
 10
-27.280301814
 20
-3.7087146565
 10
-27.2585516187
 20
-3.7382455564
 10
-27.2379247559
 20
-3.7690253426
 10
-27.218536624
 20
-3.8008818154
 10
-27.2004956915
 20
-3.8336367515
 10
-27.1839028896
 20
-3.8671069008
 10
-27.168851048
 20
-3.9011050122
 10
-27.1554243753
 20
-3.9354408806
 10
-27.1436979881
 20
-3.9699224117
 10
-27.1337374904
 20
-4.004356696
 10
-27.125598607
 20
-4.0385510883
 10
-27.1193268715
 20
-4.0723142855
 10
-27.1149573715
 20
-4.1054573969
 10
-27.1125145526
 20
-4.137795001
 10
-27.1120120813
 20
-4.1691461826
  0
LWPOLYLINE
  5
2E4
100
AcDbEntity
  8
RACCORDO
100
AcDbPolyline
 62
7
  6
CONTINUOUS
 90
7
 70
0
 10
-41.943181834
 20
2.5669404691
 10
-41.9401356993
 20
2.5646935497
 10
-41.9370326206
 20
2.5624999017
 10
-41.9338725979
 20
2.5603595252
 10
-41.9306556313
 20
2.5582724201
 10
-41.9273817206
 20
2.5562385864
 10
-41.924050866
 20
2.5542580242
  0
LWPOLYLINE
  5
2E5
100
AcDbEntity
  8
0
100
AcDbPolyline
 62
7
  6
CONTINUOUS
 90
16
 70
0
 10
-1.5142373527
 20
-23.7609894044
 10
-1.4937587739
 20
-23.7768984614
 10
-1.4743467296
 20
-23.793918973
 10
-1.4560012198
 20
-23.812050939
 10
-1.4386082726
 20
-23.8314735183
 10
-1.4222818599
 20
-23.8520075522
 10
-1.407363897
 20
-23.8731155644
 10
-1.3939784167
 20
-23.8946430237
 10
-1.3820013862
 20
-23.9167444614
 10
-1.371402623
 20
-23.9393459949
 10
-1.3620806775
 20
-23.9627532321
 10
-1.3541369992
 20
-23.986660565
 10
-1.3478457547
 20
-24.0100772878
 10
-1.3432983325
 20
-24.0326731651
 10
-1.340403344
 20
-24.0547784322
 10
-1.3391607892
 20
-24.0763930891
  0
LWPOLYLINE
  5
2E6
100
AcDbEntity
  8
0
100
AcDbPolyline
 62
7
  6
CONTINUOUS
 90
16
 70
0
 10
-1.1491602516
 20
-23.5645711954
 10
-1.1877796647
 20
-23.5279929009
 10
-1.2283049771
 20
-23.4923758226
 10
-1.2707361888
 20
-23.4577199607
 10
-1.315155589
 20
-23.4240903103
 10
-1.3614808884
 20
-23.3914218762
 10
-1.4094652197
 20
-23.3595196727
 10
-1.4590344818
 20
-23.3283197813
 10
-1.5102627758
 20
-23.2978861207
 10
-1.5631255367
 20
-23.2682154606
 10
-1.6176346563
 20
-23.2393554712
 10
-1.6737782429
 20
-23.2112584824
 10
-1.7314960563
 20
-23.1837782545
 10
-1.7907680165
 20
-23.1568660409
 10
-1.8516142036
 20
-23.1305705882
 10
-1.9140346176
 20
-23.1048918964
  0
LWPOLYLINE
  5
2E7
100
AcDbEntity
  8
0
100
AcDbPolyline
 62
7
  6
CONTINUOUS
 90
16
 70
0
 10
-1.2905816079
 20
-23.6462261141
 10
-1.3290228017
 20
-23.6097909254
 10
-1.369424906
 20
-23.5742702505
 10
-1.4117879208
 20
-23.5396640894
 10
-1.4562164188
 20
-23.5060183202
 10
-1.5026058272
 20
-23.4732870649
 10
-1.5506424285
 20
-23.4413326891
 10
-1.6002230145
 20
-23.4101149792
 10
-1.6514507933
 20
-23.3796741488
 10
-1.7043216716
 20
-23.349993204
 10
-1.7588560575
 20
-23.321114048
 10
-1.8150335428
 20
-23.2929947777
 10
-1.8727888089
 20
-23.2654926896
 10
-1.9321000831
 20
-23.2385602158
 10
-1.992989138
 20
-23.2122449243
 10
-2.0554559738
 20
-23.186546815
  0
LWPOLYLINE
  5
2E8
100
AcDbEntity
  8
RACCORDO
100
AcDbPolyline
 62
7
  6
CONTINUOUS
 90
25
 70
0
 10
-11.5618341926
 20
-13.5487728285
 10
-11.5625753526
 20
-13.5216154163
 10
-11.5648046731
 20
-13.493688662
 10
-11.5685105357
 20
-13.4651113424
 10
-11.5736732958
 20
-13.436004296
 10
-11.5802705238
 20
-13.4064919919
 10
-11.5882772422
 20
-13.3767019664
 10
-11.597657477
 20
-13.3467609146
 10
-11.6083691599
 20
-13.3167960359
 10
-11.6203696809
 20
-13.2869365606
 10
-11.6336063085
 20
-13.2573095375
 10
-11.6480207049
 20
-13.2280408409
 10
-11.6635542364
 20
-13.199256526
 10
-11.6801394052
 20
-13.1710792095
 10
-11.6977038063
 20
-13.1436286929
 10
-11.7161749926
 20
-13.1170230946
 10
-11.7354732421
 20
-13.0913759744
 10
-11.755514809
 20
-13.0667965394
 10
-11.7762161623
 20
-13.0433905023
 10
-11.7974921579
 20
-13.0212544303
 10
-11.819247198
 20
-13.0004869326
 10
-11.8413779894
 20
-12.9811867897
 10
-11.8637857432
 20
-12.9634375064
 10
-11.8863772513
 20
-12.9473092765
 10
-11.9090556738
 20
-12.9328687988
  0
LINE
  5
2E9
100
AcDbEntity
  8
DRAFT
100
AcDbLine
 62
7
  6
CONTINUOUS
 10
-11.9234824497
 20
-14.1525336079
 11
-11.9234824497
 21
-13.7129278608
  0
LINE
  5
2EA
100
AcDbEntity
  8
0
100
AcDbLine
 62
7
  6
CONTINUOUS
 10
-11.2021095046
 20
-13.3553245325
 11
-11.2021095046
 21
-13.7064257578
  0
LINE
  5
2EB
100
AcDbEntity
  8
0
100
AcDbLine
 62
7
  6
CONTINUOUS
 10
-26.6238919191
 20
-2.2318266923
 11
-27.9652785329
 21
-3.0919958844
  0
LINE
  5
2EC
100
AcDbEntity
  8
RACCORDO
100
AcDbLine
 62
7
  6
CONTINUOUS
 10
-30.030102332
 20
-2.5921233249
 11
-30.5957877569
 21
-2.9301442329
  0
LINE
  5
2ED
100
AcDbEntity
  8
RACCORDO
100
AcDbLine
 62
7
  6
CONTINUOUS
 10
-29.7779286746
 20
-2.6156054777
 11
-30.3436140996
 21
-2.9536263857
  0
LWPOLYLINE
  5
2EE
100
AcDbEntity
  8
0
100
AcDbPolyline
 62
7
  6
CONTINUOUS
 90
11
 70
0
 10
-26.6168783893
 20
-2.2275530289
 10
-26.6065749567
 20
-2.2214305349
 10
-26.5974119955
 20
-2.2161744558
 10
-26.5894460571
 20
-2.2117133017
 10
-26.5828132313
 20
-2.2079277868
 10
-26.5774525444
 20
-2.2047695031
 10
-26.5731124985
 20
-2.202281175
 10
-26.5697904437
 20
-2.2004011792
 10
-26.5675166116
 20
-2.1990387289
 10
-26.5660904874
 20
-2.198224949
 10
-26.5654990548
 20
-2.1979106584
  0
LINE
  5
2EF
100
AcDbEntity
  8
0
100
AcDbLine
 62
7
  6
CONTINUOUS
 10
-26.6168783893
 20
-2.7103746243
 11
-27.6128982512
 21
-3.2954558427
  0
LINE
  5
2F0
100
AcDbEntity
  8
0
100
AcDbLine
 62
7
  6
CONTINUOUS
 10
-33.6031383742
 20
-1.1953662398
 11
-33.4859321353
 21
-1.1276928264
  0
LINE
  5
2F1
100
AcDbEntity
  8
0
100
AcDbLine
 62
7
  6
CONTINUOUS
 10
-33.3953032304
 20
-1.3153676471
 11
-33.2781072415
 21
-1.2477001519
  0
LINE
  5
2F2
100
AcDbEntity
  8
0
100
AcDbLine
 62
7
  6
CONTINUOUS
 10
-33.0659752072
 20
-1.1252177739
 11
-32.9245538509
 21
-1.0435628552
  0
LINE
  5
2F3
100
AcDbEntity
  8
0
100
AcDbLine
 62
7
  6
CONTINUOUS
 10
-32.7124218166
 20
-0.9210804772
 11
-32.5710004603
 21
-0.8394255585
  0
LINE
  5
2F4
100
AcDbEntity
  8
0
100
AcDbLine
 62
7
  6
CONTINUOUS
 10
-32.358868426
 20
-0.7169431805
 11
-32.2174470697
 21
-0.6352882619
  0
LINE
  5
2F5
100
AcDbEntity
  8
0
100
AcDbLine
 62
7
  6
CONTINUOUS
 10
-32.0053150354
 20
-0.5128058839
 11
-31.8638936791
 21
-0.4311509652
  0
LINE
  5
2F6
100
AcDbEntity
  8
0
100
AcDbLine
 62
7
  6
CONTINUOUS
 10
-31.6517616448
 20
-0.3086685872
 11
-31.5103402885
 21
-0.2270136685
  0
LINE
  5
2F7
100
AcDbEntity
  8
0
100
AcDbLine
 62
7
  6
CONTINUOUS
 10
-31.2982082542
 20
-0.1045312906
 11
-31.156786898
 21
-0.0228763719
  0
LINE
  5
2F8
100
AcDbEntity
  8
0
100
AcDbLine
 62
7
  6
CONTINUOUS
 10
-30.9446548636
 20
0.0996060061
 11
-30.8032335074
 21
0.1812609248
  0
LINE
  5
2F9
100
AcDbEntity
  8
0
100
AcDbLine
 62
7
  6
CONTINUOUS
 10
-28.1162277389
 20
-2.7583161472
 11
-27.9748063826
 21
-2.6766612285
  0
LINE
  5
2FA
100
AcDbEntity
  8
0
100
AcDbLine
 62
7
  6
CONTINUOUS
 10
-27.7626743483
 20
-2.5541788505
 11
-27.621252992
 21
-2.4725239319
  0
LINE
  5
2FB
100
AcDbEntity
  8
0
100
AcDbLine
 62
7
  6
CONTINUOUS
 10
-27.4091209577
 20
-2.3500415539
 11
-27.2676996014
 21
-2.2683866352
  0
LINE
  5
2FC
100
AcDbEntity
  8
0
100
AcDbLine
 62
7
  6
CONTINUOUS
 10
-27.0555675671
 20
-2.1459042572
 11
-26.9141462108
 21
-2.0642493385
  0
LINE
  5
2FD
100
AcDbEntity
  8
0
100
AcDbLine
 62
7
  6
CONTINUOUS
 10
-26.8080801937
 20
-2.125478691
 11
-28.222293756
 21
-2.9420278777
  0
LINE
  5
2FE
100
AcDbEntity
  8
RACCORDO
100
AcDbLine
 62
7
  6
CONTINUOUS
 10
-28.9478563415
 20
-2.7983971551
 11
-29.2137222134
 21
-2.9413712173
  0
LINE
  5
2FF
100
AcDbEntity
  8
0
100
AcDbLine
 62
7
  6
CONTINUOUS
 10
-30.8813557647
 20
0.2263795735
 11
-33.4859321353
 21
-1.1276928264
  0
LWPOLYLINE
  5
300
100
AcDbEntity
  8
0
100
AcDbPolyline
 62
7
  6
CONTINUOUS
 90
11
 70
0
 10
-34.7276761429
 20
-0.3484416509
 10
-34.7048754254
 20
-0.338672636
 10
-34.6792792808
 20
-0.329952506
 10
-34.6541339259
 20
-0.3236616236
 10
-34.6295780736
 20
-0.3198362174
 10
-34.6057490598
 20
-0.3184986084
 10
-34.582777363
 20
-0.3196569397
 10
-34.5607891047
 20
-0.3233059473
 10
-34.5399075654
 20
-0.3294256858
 10
-34.5202479693
 20
-0.3379820235
 10
-34.5130198701
 20
-0.341920787
  0
LWPOLYLINE
  5
301
100
AcDbEntity
  8
0
100
AcDbPolyline
 62
7
  6
CONTINUOUS
 90
6
 70
0
 10
-12.7197446818
 20
-11.9316083547
 10
-12.683341843
 20
-11.9390132323
 10
-12.6475427429
 20
-11.949115422
 10
-12.6126104048
 20
-11.9618442775
 10
-12.5786095875
 20
-11.9771887638
 10
-12.5511145918
 20
-11.99194096
  0
LWPOLYLINE
  5
302
100
AcDbEntity
  8
ASSI
100
AcDbPolyline
 62
7
  6
CONTINUOUS
 90
8
 70
0
 10
1.0264280983
 20
-18.1376049278
 10
1.0132474092
 20
-18.1347880429
 10
1.0005768058
 20
-18.1332336805
 10
0.9884364573
 20
-18.1328737125
 10
0.9769039279
 20
-18.1336290677
 10
0.966019934
 20
-18.1354454352
 10
0.9557929675
 20
-18.1382988344
 10
0.9462387027
 20
-18.1421513908
  0
LWPOLYLINE
  5
303
100
AcDbEntity
  8
ASSI
100
AcDbPolyline
 62
7
  6
CONTINUOUS
 90
8
 70
0
 10
-14.8834744784
 20
-8.9514265779
 10
-14.8966551675
 20
-8.948609693
 10
-14.9093257709
 20
-8.9470553306
 10
-14.9214661194
 20
-8.9466953626
 10
-14.9329986488
 20
-8.9474507178
 10
-14.9438826427
 20
-8.9492670853
 10
-14.9541096092
 20
-8.9521204846
 10
-14.963663874
 20
-8.9559730409
  0
LWPOLYLINE
  5
304
100
AcDbEntity
  8
RACCORDO
100
AcDbPolyline
 62
7
  6
CONTINUOUS
 90
22
 70
0
 10
-43.4615342071
 20
1.4105785257
 10
-43.479388209
 20
1.4181719063
 10
-43.4965637465
 20
1.4273135494
 10
-43.5129910001
 20
1.4379293361
 10
-43.5285781581
 20
1.4499210776
 10
-43.5432795208
 20
1.4632300581
 10
-43.5570969074
 20
1.477847879
 10
-43.5699724907
 20
1.4937107743
 10
-43.5818325775
 20
1.5107340776
 10
-43.5926550943
 20
1.5288871548
 10
-43.6023693925
 20
1.5480934887
 10
-43.6109120837
 20
1.5682708157
 10
-43.6182674842
 20
1.5893808337
 10
-43.6243610993
 20
1.6113622407
 10
-43.6291251278
 20
1.6341008499
 10
-43.6325493786
 20
1.6574751865
 10
-43.6345463376
 20
1.6814062388
 10
-43.6350612649
 20
1.7057778237
 10
-43.6341332265
 20
1.7304085183
 10
-43.6317308585
 20
1.7551688252
 10
-43.6277531235
 20
1.7799819049
 10
-43.6221381015
 20
1.804743847
  0
LWPOLYLINE
  5
305
100
AcDbEntity
  8
0
100
AcDbPolyline
 62
7
  6
CONTINUOUS
 90
11
 70
0
 10
-12.558639051
 20
-11.9878494933
 10
-12.5783392023
 20
-11.9793212534
 10
-12.5992739381
 20
-11.9732327448
 10
-12.6213206167
 20
-11.9696229704
 10
-12.6443377293
 20
-11.9685129486
 10
-12.6682027504
 20
-11.9699040028
 10
-12.6927780072
 20
-11.9737836907
 10
-12.7178870893
 20
-11.9801133746
 10
-12.7433759424
 20
-11.9888363297
 10
-12.7691171787
 20
-11.9998914311
 10
-12.7949704152
 20
-12.0132028955
  0
LWPOLYLINE
  5
306
100
AcDbEntity
  8
0
100
AcDbPolyline
 62
7
  6
CONTINUOUS
 90
11
 70
0
 10
-28.4685416276
 20
-2.8016711435
 10
-28.488241779
 20
-2.7931429035
 10
-28.5091765148
 20
-2.787054395
 10
-28.5312231934
 20
-2.7834446205
 10
-28.554240306
 20
-2.7823345987
 10
-28.5781053271
 20
-2.7837256529
 10
-28.6026805839
 20
-2.7876053408
 10
-28.627789666
 20
-2.7939350248
 10
-28.6532785191
 20
-2.8026579798
 10
-28.6790197554
 20
-2.8137130813
 10
-28.7048729919
 20
-2.8270245456
  0
LINE
  5
307
100
AcDbEntity
  8
0
100
AcDbLine
 62
7
  6
CONTINUOUS
 10
32.884608485
 20
-36.5243134434
 11
32.8973529741
 21
-36.5309883034
  0
LINE
  5
308
100
AcDbEntity
  8
0
100
AcDbLine
 62
7
  6
CONTINUOUS
 10
-30.7550018218
 20
0.220399956
 11
-30.7422573327
 21
0.2137250961
  0
LWPOLYLINE
  5
309
100
AcDbEntity
  8
ASSI
100
AcDbPolyline
 62
7
  6
CONTINUOUS
 90
5
 70
0
 10
16.989857661
 20
-27.3462163203
 10
16.9778066513
 20
-27.3396698445
 10
16.9638166469
 20
-27.3331577052
 10
16.9499460466
 20
-27.32786204
 10
16.936330675
 20
-27.3237832776
  0
LWPOLYLINE
  5
30A
100
AcDbEntity
  8
ASSI
100
AcDbPolyline
 62
7
  6
CONTINUOUS
 90
5
 70
0
 10
1.0799550843
 20
-18.1600379704
 10
1.0679040746
 20
-18.1534914947
 10
1.0539140702
 20
-18.1469793553
 10
1.0400434699
 20
-18.1416836901
 10
1.0264280983
 20
-18.1376049278
  0
LWPOLYLINE
  5
30B
100
AcDbEntity
  8
ASSI
100
AcDbPolyline
 62
7
  6
CONTINUOUS
 90
5
 70
0
 10
-14.8299474924
 20
-8.9738596206
 10
-14.8419985021
 20
-8.9673131448
 10
-14.8559885065
 20
-8.9608010055
 10
-14.8698591068
 20
-8.9555053402
 10
-14.8834744784
 20
-8.9514265779
  0
LWPOLYLINE
  5
30C
100
AcDbEntity
  8
0
100
AcDbPolyline
 62
7
  6
CONTINUOUS
 90
12
 70
0
 10
28.4486139229
 20
-35.6646703563
 10
28.4411039464
 20
-35.6605872528
 10
28.4214037958
 20
-35.6520590138
 10
28.4004690637
 20
-35.6459705066
 10
28.3784223906
 20
-35.6423607328
 10
28.3554052803
 20
-35.6412507104
 10
28.3315402539
 20
-35.6426417643
 10
28.3069649877
 20
-35.6465214539
 10
28.2818558996
 20
-35.6528511403
 10
28.2563670469
 20
-35.6615740964
 10
28.230625815
 20
-35.6726291969
 10
28.2047725869
 20
-35.6859406574
  0
LINE
  5
30D
100
AcDbEntity
  8
0
100
AcDbLine
 62
7
  6
CONTINUOUS
 10
27.1969118413
 20
-34.9419532618
 11
27.1893976669
 21
-34.9378680135
  0
LWPOLYLINE
  5
30E
100
AcDbEntity
  8
0
100
AcDbPolyline
 62
7
  6
CONTINUOUS
 90
12
 70
0
 10
12.5387113462
 20
-26.4784920064
 10
12.5312013697
 20
-26.4744089029
 10
12.5115012191
 20
-26.465880664
 10
12.490566487
 20
-26.4597921567
 10
12.4685198139
 20
-26.4561823829
 10
12.4455027036
 20
-26.4550723605
 10
12.4216376772
 20
-26.4564634145
 10
12.397062411
 20
-26.460343104
 10
12.3719533229
 20
-26.4666727904
 10
12.3464644702
 20
-26.4753957465
 10
12.3207232383
 20
-26.4864508471
 10
12.2948700102
 20
-26.4997623075
  0
LINE
  5
30F
100
AcDbEntity
  8
0
100
AcDbLine
 62
7
  6
CONTINUOUS
 10
11.2870092646
 20
-25.7557749119
 11
11.2794950902
 21
-25.7516896636
  0
LWPOLYLINE
  5
310
100
AcDbEntity
  8
0
100
AcDbPolyline
 62
7
  6
CONTINUOUS
 90
12
 70
0
 10
-11.2994269964
 20
-12.7146496894
 10
-11.3069411743
 20
-12.7105644394
 10
-11.3266423131
 20
-12.7020364802
 10
-11.3475778288
 20
-12.6959484921
 10
-11.3696251678
 20
-12.6923393711
 10
-11.3926429302
 20
-12.6912300877
 10
-11.4165090003
 20
-12.692622005
 10
-11.4410853018
 20
-12.6965027139
 10
-11.4661942412
 20
-12.7028332184
 10
-11.4916813013
 20
-12.7115562987
 10
-11.5174194536
 20
-12.7226105849
 10
-11.5432683321
 20
-12.7359199907
  0
LINE
  5
311
100
AcDbEntity
  8
0
100
AcDbLine
 62
7
  6
CONTINUOUS
 10
-12.5511290774
 20
-11.9919325953
 11
-12.558639051
 21
-11.9878494933
  0
LWPOLYLINE
  5
312
100
AcDbEntity
  8
0
100
AcDbPolyline
 62
7
  6
CONTINUOUS
 90
12
 70
0
 10
-27.2093295776
 20
-3.5284713369
 10
-27.2168437656
 20
-3.524386082
 10
-27.2365449022
 20
-3.5158581258
 10
-27.2574804074
 20
-3.5097701418
 10
-27.2795277305
 20
-3.5061610227
 10
-27.3025454861
 20
-3.5050517377
 10
-27.326411572
 20
-3.5064436546
 10
-27.3509879014
 20
-3.5103243687
 10
-27.3760968584
 20
-3.5166548806
 10
-27.4015839171
 20
-3.5253779639
 10
-27.4273220558
 20
-3.5364322472
 10
-27.4531709086
 20
-3.549741641
  0
LINE
  5
313
100
AcDbEntity
  8
0
100
AcDbLine
 62
7
  6
CONTINUOUS
 10
-28.4610316541
 20
-2.8057542454
 11
-28.4685416276
 21
-2.8016711435
  0
LWPOLYLINE
  5
314
100
AcDbEntity
  8
RACCORDO
100
AcDbPolyline
 62
7
  6
CONTINUOUS
 90
12
 70
0
 10
-40.0700331725
 20
3.8971377363
 10
-40.0775431498
 20
3.9012208403
 10
-40.0972433017
 20
3.9097490798
 10
-40.1181780385
 20
3.915837588
 10
-40.1402247184
 20
3.9194473619
 10
-40.1632418318
 20
3.920557383
 10
-40.1871068527
 20
3.9191663281
 10
-40.2116821087
 20
3.9152866397
 10
-40.2367911897
 20
3.9089569555
 10
-40.2622800413
 20
3.9002340005
 10
-40.2880212757
 20
3.8891788995
 10
-40.3138745101
 20
3.875867436
  0
LWPOLYLINE
  5
315
100
AcDbEntity
  8
RACCORDO
100
AcDbPolyline
 62
7
  6
CONTINUOUS
 90
12
 70
0
 10
-33.7705801502
 20
-0.9310879841
 10
-33.7777783186
 20
-0.927158873
 10
-33.7973866229
 20
-0.9185949792
 10
-33.8182309197
 20
-0.9124981647
 10
-33.8402913294
 20
-0.9088287491
 10
-33.8632091878
 20
-0.907646391
 10
-33.8869985114
 20
-0.9089917457
 10
-33.9116452836
 20
-0.9128241579
 10
-33.9367487904
 20
-0.9190813189
 10
-33.9621754604
 20
-0.9277424595
 10
-33.9880588651
 20
-0.9388283489
 10
-34.0143990043
 20
-0.9523389873
  0
LINE
  5
316
100
AcDbEntity
  8
0
100
AcDbLine
 62
7
  6
CONTINUOUS
 10
-34.4300579435
 20
-0.5505177196
 11
-34.4190020519
 21
-0.5566650292
  0
LINE
  5
317
100
AcDbEntity
  8
RACCORDO
100
AcDbLine
 62
7
  6
CONTINUOUS
 10
-41.0321842462
 20
3.0940717388
 11
-27.8333850264
 21
-4.5267495109
  0
LINE
  5
318
100
AcDbEntity
  8
DRAFT
100
AcDbLine
 62
7
  6
CONTINUOUS
 10
-22.5300841675
 20
-7.5888089609
 11
-11.9234824497
 21
-13.7129278608
  0
LINE
  5
319
100
AcDbEntity
  8
DRAFT
100
AcDbLine
 62
7
  6
CONTINUOUS
 10
-6.6201815908
 20
-16.7749873107
 11
3.986420127
 21
-22.8991062106
  0
LINE
  5
31A
100
AcDbEntity
  8
DRAFT
100
AcDbLine
 62
7
  6
CONTINUOUS
 10
9.2897209859
 20
-25.9611656606
 11
19.8963227037
 21
-32.0852845605
  0
LINE
  5
31B
100
AcDbEntity
  8
RACCORDO
100
AcDbLine
 62
7
  6
CONTINUOUS
 10
25.1996235626
 20
-35.1473440105
 11
36.5470981641
 21
-41.6992336281
  0
LINE
  5
31C
100
AcDbEntity
  8
0
100
AcDbLine
 62
7
  6
CONTINUOUS
 10
29.6252113025
 20
-37.6970523868
 11
28.9119341638
 21
-37.2852151064
  0
LINE
  5
31D
100
AcDbEntity
  8
0
100
AcDbLine
 62
7
  6
CONTINUOUS
 10
-34.0143990043
 20
-0.9523389873
 11
-34.7276761429
 21
-0.5405017069
  0
LINE
  5
31E
100
AcDbEntity
  8
RACCORDO
100
AcDbLine
 62
7
  6
CONTINUOUS
 10
36.5470981641
 20
-41.5754853093
 11
33.2959962072
 21
-39.6983397852
  0
LINE
  5
31F
100
AcDbEntity
  8
RACCORDO
100
AcDbLine
 62
7
  6
CONTINUOUS
 10
27.9926953483
 20
-36.6362803352
 11
26.043599
 21
-35.5108965317
  0
LINE
  5
320
100
AcDbEntity
  8
RACCORDO
100
AcDbLine
 62
7
  6
CONTINUOUS
 10
19.4765897959
 20
-31.7191877211
 11
17.3959138584
 21
-30.5178315119
  0
LINE
  5
321
100
AcDbEntity
  8
RACCORDO
100
AcDbLine
 62
7
  6
CONTINUOUS
 10
12.0729725437
 20
-27.4444319088
 11
10.1336964233
 21
-26.3247181818
  0
LINE
  5
322
100
AcDbEntity
  8
RACCORDO
100
AcDbLine
 62
7
  6
CONTINUOUS
 10
3.5666872192
 20
-22.5330093713
 11
1.4860112817
 21
-21.331653162
  0
LINE
  5
323
100
AcDbEntity
  8
RACCORDO
100
AcDbLine
 62
7
  6
CONTINUOUS
 10
-3.836930033
 20
-18.258253559
 11
-5.9176059704
 21
-17.0568973497
  0
LINE
  5
324
100
AcDbEntity
  8
RACCORDO
100
AcDbLine
 62
7
  6
CONTINUOUS
 10
-12.4846151746
 20
-13.2651885392
 11
-14.423891295
 21
-12.1454748121
  0
LINE
  5
325
100
AcDbEntity
  8
RACCORDO
100
AcDbLine
 62
7
  6
CONTINUOUS
 10
-19.7468326097
 20
-9.0720752091
 11
-21.8275085471
 21
-7.8707189998
  0
LINE
  5
326
100
AcDbEntity
  8
RACCORDO
100
AcDbLine
 62
7
  6
CONTINUOUS
 10
-28.3945177513
 20
-4.0790101893
 11
-30.3436140996
 21
-2.9536263857
  0
LINE
  5
327
100
AcDbEntity
  8
RACCORDO
100
AcDbLine
 62
7
  6
CONTINUOUS
 10
-35.6469149585
 20
0.1084330642
 11
-41.0916371736
 21
3.2521474329
  0
LINE
  5
328
100
AcDbEntity
  8
0
100
AcDbLine
 62
7
  6
CONTINUOUS
 10
33.1576220673
 20
-39.6068576195
 11
30.3615030653
 21
-37.9924135514
  0
LINE
  5
329
100
AcDbEntity
  8
0
100
AcDbLine
 62
7
  6
CONTINUOUS
 10
-30.4819882395
 20
-2.86214422
 11
-33.2781072415
 21
-1.2477001519
  0
LINE
  5
32A
100
AcDbEntity
  8
DRAFT
100
AcDbLine
 62
7
  6
CONTINUOUS
 10
-17.6366744494
 20
-10.2788555764
 11
-17.5760295586
 21
-10.3138711763
  0
LINE
  5
32B
100
AcDbEntity
  8
DRAFT
100
AcDbLine
 62
7
  6
CONTINUOUS
 10
-1.7267718727
 20
-19.4650339263
 11
-1.6661269819
 21
-19.5000495261
  0
LINE
  5
32C
100
AcDbEntity
  8
DRAFT
100
AcDbLine
 62
7
  6
CONTINUOUS
 10
14.183130704
 20
-28.6512122761
 11
14.2437755948
 21
-28.686227876
  0
LINE
  5
32D
100
AcDbEntity
  8
RACCORDO
100
AcDbLine
 62
7
  6
CONTINUOUS
 10
-22.0926814303
 20
-7.6753297713
 11
-21.8821947183
 21
-7.7968621608
  0
LINE
  5
32E
100
AcDbEntity
  8
RACCORDO
100
AcDbLine
 62
7
  6
CONTINUOUS
 10
-18.8177735662
 20
-9.5662205278
 11
-17.9779938891
 21
-10.0510987885
  0
LINE
  5
32F
100
AcDbEntity
  8
RACCORDO
100
AcDbLine
 62
7
  6
CONTINUOUS
 10
-6.1827788536
 20
-16.8615081212
 11
-5.9722921416
 21
-16.9830405107
  0
LINE
  5
330
100
AcDbEntity
  8
RACCORDO
100
AcDbLine
 62
7
  6
CONTINUOUS
 10
-2.9078709896
 20
-18.7523988776
 11
-2.0680913124
 21
-19.2372771383
  0
LINE
  5
331
100
AcDbEntity
  8
RACCORDO
100
AcDbLine
 62
7
  6
CONTINUOUS
 10
4.3543464455
 20
-22.9455122077
 11
4.4928882199
 21
-23.0255044919
  0
LINE
  5
332
100
AcDbEntity
  8
RACCORDO
100
AcDbLine
 62
7
  6
CONTINUOUS
 10
9.7271237231
 20
-26.0476864711
 11
10.0189805005
 21
-26.2162009165
  0
LINE
  5
333
100
AcDbEntity
  8
RACCORDO
100
AcDbLine
 62
7
  6
CONTINUOUS
 10
13.0020315871
 20
-27.9385772275
 11
13.8418112643
 21
-28.4234554882
  0
LINE
  5
334
100
AcDbEntity
  8
RACCORDO
100
AcDbLine
 62
7
  6
CONTINUOUS
 10
20.2642490222
 20
-32.1316905576
 11
20.4027907966
 21
-32.2116828418
  0
LINE
  5
335
100
AcDbEntity
  8
RACCORDO
100
AcDbLine
 62
7
  6
CONTINUOUS
 10
25.6370262998
 20
-35.2338648209
 11
25.9288830772
 21
-35.4023792664
  0
LINE
  5
336
100
AcDbEntity
  8
0
100
AcDbLine
 62
7
  6
CONTINUOUS
 10
29.2206082549
 20
-37.3013784287
 11
29.2206818762
 21
-37.3014209357
  0
LINE
  5
337
100
AcDbEntity
  8
RACCORDO
100
AcDbLine
 62
7
  6
CONTINUOUS
 10
29.8690530251
 20
-37.6757823088
 11
29.2202957939
 21
-37.3011980144
  0
LINE
  5
338
100
AcDbEntity
  8
RACCORDO
100
AcDbLine
 62
7
  6
CONTINUOUS
 10
-33.7705572817
 20
-0.9310689093
 11
-34.4193145129
 21
-0.5564846149
  0
LINE
  5
339
100
AcDbEntity
  8
0
100
AcDbLine
 62
7
  6
CONTINUOUS
 10
-34.4190020519
 20
-0.5566650292
 11
-34.4189284305
 21
-0.5567075362
  0
LINE
  5
33A
100
AcDbEntity
  8
RACCORDO
100
AcDbLine
 62
7
  6
CONTINUOUS
 10
-34.7276761429
 20
-0.2179809454
 11
-34.5130197644
 21
-0.3419208481
  0
LINE
  5
33B
100
AcDbEntity
  8
RACCORDO
100
AcDbLine
 62
7
  6
CONTINUOUS
 10
-22.0926814303
 20
-7.5132685388
 11
-21.7466696321
 21
-7.7130514145
  0
LINE
  5
33C
100
AcDbEntity
  8
RACCORDO
100
AcDbLine
 62
7
  6
CONTINUOUS
 10
-18.8177735662
 20
-9.4041592952
 11
-17.7383816169
 21
-10.0273866788
  0
LINE
  5
33D
100
AcDbEntity
  8
RACCORDO
100
AcDbLine
 62
7
  6
CONTINUOUS
 10
-6.1827788536
 20
-16.6994468886
 11
-5.8367670554
 21
-16.8992297644
  0
LINE
  5
33E
100
AcDbEntity
  8
RACCORDO
100
AcDbLine
 62
7
  6
CONTINUOUS
 10
-2.9078709896
 20
-18.5903376451
 11
-1.8284790402
 21
-19.2135650287
  0
LINE
  5
33F
100
AcDbEntity
  8
RACCORDO
100
AcDbLine
 62
7
  6
CONTINUOUS
 10
4.3543464455
 20
-22.7834509752
 11
4.6284133062
 21
-22.9416937456
  0
LINE
  5
340
100
AcDbEntity
  8
RACCORDO
100
AcDbLine
 62
7
  6
CONTINUOUS
 10
9.7271237231
 20
-25.8856252385
 11
10.1545055868
 21
-26.1323901703
  0
LINE
  5
341
100
AcDbEntity
  8
RACCORDO
100
AcDbLine
 62
7
  6
CONTINUOUS
 10
13.0020315871
 20
-27.776515995
 11
14.0814235365
 21
-28.3997433786
  0
LINE
  5
342
100
AcDbEntity
  8
RACCORDO
100
AcDbLine
 62
7
  6
CONTINUOUS
 10
20.2642490222
 20
-31.9696293251
 11
20.5383158829
 21
-32.1278720955
  0
LINE
  5
343
100
AcDbEntity
  8
RACCORDO
100
AcDbLine
 62
7
  6
CONTINUOUS
 10
25.6370262998
 20
-35.0718035884
 11
26.0644081635
 21
-35.3185685201
  0
LINE
  5
344
100
AcDbEntity
  8
RACCORDO
100
AcDbLine
 62
7
  6
CONTINUOUS
 10
28.9119341638
 20
-36.9626943449
 11
29.1265905424
 21
-37.0866342476
  0
LINE
  5
345
100
AcDbEntity
  8
0
100
AcDbLine
 62
7
  6
CONTINUOUS
 10
33.3661151923
 20
-39.4822741809
 11
30.5736350996
 21
-37.8699311734
  0
LINE
  5
346
100
AcDbEntity
  8
0
100
AcDbLine
 62
7
  6
CONTINUOUS
 10
-30.2734951145
 20
-2.7375607814
 11
-33.0659752072
 21
-1.1252177739
  0
LINE
  5
347
100
AcDbEntity
  8
0
100
AcDbLine
 62
7
  6
CONTINUOUS
 10
33.5051106089
 20
-39.3992185551
 11
30.7150564559
 21
-37.7882762547
  0
LINE
  5
348
100
AcDbEntity
  8
0
100
AcDbLine
 62
7
  6
CONTINUOUS
 10
-30.1344996978
 20
-2.6545051556
 11
-32.9245538509
 21
-1.0435628552
  0
LINE
  5
349
100
AcDbEntity
  8
RACCORDO
100
AcDbLine
 62
7
  6
CONTINUOUS
 10
-26.7858958318
 20
-4.426247815
 11
-22.0926814303
 21
-7.1360509906
  0
LINE
  5
34A
100
AcDbEntity
  8
RACCORDO
100
AcDbLine
 62
7
  6
CONTINUOUS
 10
-10.8759932551
 20
-13.6124261649
 11
-6.3948785792
 21
-16.1997656172
  0
LINE
  5
34B
100
AcDbEntity
  8
RACCORDO
100
AcDbLine
 62
7
  6
CONTINUOUS
 10
5.0339093216
 20
-22.7986045148
 11
9.5150239975
 21
-25.385943967
  0
LINE
  5
34C
100
AcDbEntity
  8
RACCORDO
100
AcDbLine
 62
7
  6
CONTINUOUS
 10
20.9438118983
 20
-31.9847828646
 11
25.4249265742
 21
-34.5721223169
  0
LINE
  5
34D
100
AcDbEntity
  8
RACCORDO
100
AcDbLine
 62
7
  6
CONTINUOUS
 10
36.5470981641
 20
-40.9108447266
 11
33.8616816321
 21
-39.3603188772
  0
LINE
  5
34E
100
AcDbEntity
  8
RACCORDO
100
AcDbLine
 62
7
  6
CONTINUOUS
 10
28.5583807732
 20
-36.2982594272
 11
26.5994103492
 21
-35.167174456
  0
LINE
  5
34F
100
AcDbEntity
  8
RACCORDO
100
AcDbLine
 62
7
  6
CONTINUOUS
 10
20.0521492966
 20
-31.3868679807
 11
17.9517252076
 21
-30.1741094362
  0
LINE
  5
350
100
AcDbEntity
  8
RACCORDO
100
AcDbLine
 62
7
  6
CONTINUOUS
 10
12.6485320444
 20
-27.1121121685
 11
10.6895077725
 21
-25.9809961062
  0
LINE
  5
351
100
AcDbEntity
  8
RACCORDO
100
AcDbLine
 62
7
  6
CONTINUOUS
 10
4.1422467199
 20
-22.2006896309
 11
2.0418226309
 21
-20.9879310863
  0
LINE
  5
352
100
AcDbEntity
  8
RACCORDO
100
AcDbLine
 62
7
  6
CONTINUOUS
 10
-3.2613705323
 20
-17.9259338186
 11
-5.3617946213
 21
-16.7131752741
  0
LINE
  5
353
100
AcDbEntity
  8
RACCORDO
100
AcDbLine
 62
7
  6
CONTINUOUS
 10
-11.9090556738
 20
-12.9328687988
 11
-13.8680799458
 21
-11.8017527365
  0
LINE
  5
354
100
AcDbEntity
  8
RACCORDO
100
AcDbLine
 62
7
  6
CONTINUOUS
 10
-19.1712731089
 20
-8.7397554687
 11
-21.271697198
 21
-7.5269969242
  0
LINE
  5
355
100
AcDbEntity
  8
RACCORDO
100
AcDbLine
 62
7
  6
CONTINUOUS
 10
-27.8189582505
 20
-3.7466904489
 11
-29.7779286746
 21
-2.6156054777
  0
LINE
  5
356
100
AcDbEntity
  8
RACCORDO
100
AcDbLine
 62
7
  6
CONTINUOUS
 10
-35.0812295335
 20
0.4464539723
 11
-40.5259517487
 21
3.5901683409
  0
LINE
  5
357
100
AcDbEntity
  8
0
100
AcDbLine
 62
7
  6
CONTINUOUS
 10
33.8617619318
 20
-39.360179803
 11
30.9271884902
 21
-37.6657938767
  0
LINE
  5
358
100
AcDbEntity
  8
0
100
AcDbLine
 62
7
  6
CONTINUOUS
 10
-29.777848375
 20
-2.6154664035
 11
-32.7124218166
 21
-0.9210804772
  0
LINE
  5
359
100
AcDbEntity
  8
0
100
AcDbLine
 62
7
  6
CONTINUOUS
 10
35.0637631602
 20
-39.8908785739
 11
31.0686098465
 21
-37.584138958
  0
LINE
  5
35A
100
AcDbEntity
  8
0
100
AcDbLine
 62
7
  6
CONTINUOUS
 10
-29.0671100742
 20
-2.8625279534
 11
-32.5710004603
 21
-0.8394255585
  0
LINE
  5
35B
100
AcDbEntity
  8
RACCORDO
100
AcDbLine
 62
7
  6
CONTINUOUS
 10
-40.5259517487
 20
3.9983181757
 11
-40.3138745103
 21
3.8758674362
  0
LINE
  5
35C
100
AcDbEntity
  8
0
100
AcDbLine
 62
7
  6
CONTINUOUS
 10
-28.7048729919
 20
-2.8270245456
 11
-27.4531709091
 21
-3.5497416407
  0
LINE
  5
35D
100
AcDbEntity
  8
0
100
AcDbLine
 62
7
  6
CONTINUOUS
 10
-12.7949704152
 20
-12.0132028955
 11
-11.5432683324
 21
-12.7359199906
  0
LINE
  5
35E
100
AcDbEntity
  8
0
100
AcDbLine
 62
7
  6
CONTINUOUS
 10
11.0431679271
 20
-25.7770452123
 11
12.2948700099
 21
-26.4997623074
  0
LINE
  5
35F
100
AcDbEntity
  8
0
100
AcDbLine
 62
7
  6
CONTINUOUS
 10
26.9530705038
 20
-34.9632235622
 11
28.2047725866
 21
-35.6859406573
  0
LINE
  5
360
100
AcDbEntity
  8
0
100
AcDbLine
 62
7
  6
CONTINUOUS
 10
35.1698291773
 20
-39.7071668433
 11
31.2807418808
 21
-37.46165658
  0
LINE
  5
361
100
AcDbEntity
  8
0
100
AcDbLine
 62
7
  6
CONTINUOUS
 10
-28.8312254835
 20
-2.7537600038
 11
-32.358868426
 21
-0.7169431805
  0
LINE
  5
362
100
AcDbEntity
  8
RACCORDO
100
AcDbLine
 62
7
  6
CONTINUOUS
 10
-40.5259517487
 20
4.1603794082
 11
-40.0700327877
 21
3.8971375142
  0
LINE
  5
363
100
AcDbEntity
  8
0
100
AcDbLine
 62
7
  6
CONTINUOUS
 10
-12.5511286926
 20
-11.9919328175
 11
-11.2994266098
 21
-12.7146499126
  0
LINE
  5
364
100
AcDbEntity
  8
0
100
AcDbLine
 62
7
  6
CONTINUOUS
 10
11.2870096497
 20
-25.7557751343
 11
12.5387117325
 21
-26.4784922294
  0
LINE
  5
365
100
AcDbEntity
  8
0
100
AcDbLine
 62
7
  6
CONTINUOUS
 10
27.1969122264
 20
-34.9419534842
 11
28.4486143092
 21
-35.6646705793
  0
LINE
  5
366
100
AcDbEntity
  8
0
100
AcDbLine
 62
7
  6
CONTINUOUS
 10
35.4173165508
 20
-39.6867412772
 11
31.4221632371
 21
-37.3800016614
  0
LINE
  5
367
100
AcDbEntity
  8
0
100
AcDbLine
 62
7
  6
CONTINUOUS
 10
-27.2093291865
 20
-3.5284715627
 11
-32.2174470697
 21
-0.6352882619
  0
LINE
  5
368
100
AcDbEntity
  8
0
100
AcDbLine
 62
7
  6
CONTINUOUS
 10
35.5233825679
 20
-39.5030295467
 11
31.6342952714
 21
-37.2575192834
  0
LINE
  5
369
100
AcDbEntity
  8
0
100
AcDbLine
 62
7
  6
CONTINUOUS
 10
-28.1162277389
 20
-2.7583161472
 11
-32.0053150354
 21
-0.5128058839
  0
LINE
  5
36A
100
AcDbEntity
  8
0
100
AcDbLine
 62
7
  6
CONTINUOUS
 10
35.7708699414
 20
-39.4826039805
 11
31.7757166276
 21
-37.1758643647
  0
LINE
  5
36B
100
AcDbEntity
  8
0
100
AcDbLine
 62
7
  6
CONTINUOUS
 10
-31.8638936791
 20
-0.4311509652
 11
-27.8687403654
 21
-2.737890581
  0
LINE
  5
36C
100
AcDbEntity
  8
0
100
AcDbLine
 62
7
  6
CONTINUOUS
 10
35.8769359585
 20
-39.29889225
 11
31.987848662
 21
-37.0533819867
  0
LINE
  5
36D
100
AcDbEntity
  8
0
100
AcDbLine
 62
7
  6
CONTINUOUS
 10
-27.7626743483
 20
-2.5541788505
 11
-31.6517616448
 21
-0.3086685872
  0
LINE
  5
36E
100
AcDbEntity
  8
0
100
AcDbLine
 62
7
  6
CONTINUOUS
 10
36.1244233319
 20
-39.2784666839
 11
32.1292700182
 21
-36.971727068
  0
LINE
  5
36F
100
AcDbEntity
  8
0
100
AcDbLine
 62
7
  6
CONTINUOUS
 10
-31.5103402885
 20
-0.2270136685
 11
-27.5151869748
 21
-2.5337532844
  0
LINE
  5
370
100
AcDbEntity
  8
0
100
AcDbLine
 62
7
  6
CONTINUOUS
 10
36.2304893491
 20
-39.0947549533
 11
32.3414020526
 21
-36.84924469
  0
LINE
  5
371
100
AcDbEntity
  8
0
100
AcDbLine
 62
7
  6
CONTINUOUS
 10
-27.4091209577
 20
-2.3500415539
 11
-31.2982082542
 21
-0.1045312906
  0
LINE
  5
372
100
AcDbEntity
  8
0
100
AcDbLine
 62
7
  6
CONTINUOUS
 10
36.4779767225
 20
-39.0743293872
 11
32.4828234088
 21
-36.7675897714
  0
LINE
  5
373
100
AcDbEntity
  8
0
100
AcDbLine
 62
7
  6
CONTINUOUS
 10
-31.156786898
 20
-0.0228763719
 11
-27.1616335843
 21
-2.3296159877
  0
LINE
  5
374
100
AcDbEntity
  8
0
100
AcDbLine
 62
7
  6
CONTINUOUS
 10
36.5470981641
 20
-38.8692863218
 11
32.6949554432
 21
-36.6451073934
  0
LINE
  5
375
100
AcDbEntity
  8
0
100
AcDbLine
 62
7
  6
CONTINUOUS
 10
-27.0555675671
 20
-2.1459042572
 11
-30.9446548636
 21
0.0996060061
  0
LINE
  5
376
100
AcDbEntity
  8
0
100
AcDbLine
 62
7
  6
CONTINUOUS
 10
36.5470981641
 20
-38.7059764844
 11
32.8363767994
 21
-36.5634524747
  0
LINE
  5
377
100
AcDbEntity
  8
0
100
AcDbLine
 62
7
  6
CONTINUOUS
 10
-30.8813557647
 20
0.2263795735
 11
-30.8032283818
 21
0.1812698019
  0
LINE
  5
378
100
AcDbEntity
  8
0
100
AcDbLine
 62
7
  6
CONTINUOUS
 10
-26.8080801937
 20
-2.125478691
 11
-26.6238919191
 21
-2.2318266923
  0
LINE
  5
379
100
AcDbEntity
  8
ASSI
100
AcDbLine
 62
7
  6
CONTINUOUS
 10
-14.971453188
 20
-8.9597987763
 11
-10.7139893424
 21
-11.4180050422
  0
LINE
  5
37A
100
AcDbEntity
  8
ASSI
100
AcDbLine
 62
7
  6
CONTINUOUS
 10
0.9384493887
 20
-18.1459771262
 11
5.1959132343
 21
-20.6041833921
  0
LINE
  5
37B
100
AcDbEntity
  8
ASSI
100
AcDbLine
 62
7
  6
CONTINUOUS
 10
16.8483519654
 20
-27.3321554761
 11
21.105815811
 21
-29.790361742
  0
LINE
  5
37C
100
AcDbEntity
  8
0
100
AcDbLine
 62
7
  6
CONTINUOUS
 10
32.7582545421
 20
-36.518333826
 11
32.8363819249
 21
-36.5634435976
  0
LINE
  5
37D
100
AcDbEntity
  8
0
100
AcDbLine
 62
7
  6
CONTINUOUS
 10
-30.8032335074
 20
0.1812609248
 11
-26.8080801937
 21
-2.125478691
  0
LINE
  5
37E
100
AcDbEntity
  8
0
100
AcDbLine
 62
7
  6
CONTINUOUS
 10
-30.7422573327
 20
0.2137250961
 11
-26.5659266066
 21
-2.1976453651
  0
LINE
  5
37F
100
AcDbEntity
  8
ASSI
100
AcDbLine
 62
7
  6
CONTINUOUS
 10
-14.8292885068
 20
-8.9742331093
 11
-10.6561443596
 21
-11.3837542381
  0
LINE
  5
380
100
AcDbEntity
  8
ASSI
100
AcDbLine
 62
7
  6
CONTINUOUS
 10
1.0806140699
 20
-18.1604114592
 11
5.2537582171
 21
-20.569932588
  0
LINE
  5
381
100
AcDbEntity
  8
ASSI
100
AcDbLine
 62
7
  6
CONTINUOUS
 10
16.9905166466
 20
-27.3465898091
 11
21.1636607938
 21
-29.7561109379
  0
LINE
  5
382
100
AcDbEntity
  8
0
100
AcDbLine
 62
7
  6
CONTINUOUS
 10
32.8973529741
 20
-36.5309883034
 11
36.5470981641
 21
-38.6383148758
  0
LINE
  5
383
100
AcDbEntity
  8
RACCORDO
100
AcDbLine
 62
7
  6
CONTINUOUS
 10
-41.7452806006
 20
9.8902607259
 11
-41.7578344481
 21
9.8975091601
  0
LINE
  5
384
100
AcDbEntity
  8
DRAFT
100
AcDbLine
 62
7
  6
CONTINUOUS
 10
-41.5893382489
 20
9.8785438926
 11
-41.244025561
 21
9.6791646744
  0
LINE
  5
385
100
AcDbEntity
  8
RACCORDO
100
AcDbLine
 62
7
  6
CONTINUOUS
 10
-40.738083783
 20
9.5670090909
 11
-41.4279536511
 21
9.9653313067
  0
LWPOLYLINE
  5
386
100
AcDbEntity
  8
RACCORDO
100
AcDbPolyline
 62
7
  6
CONTINUOUS
 90
22
 70
0
 10
-40.3138745103
 20
3.8758674362
 10
-40.2870189332
 20
3.85972348
 10
-40.260347979
 20
3.8413680721
 10
-40.2340107445
 20
3.8209038236
 10
-40.2081544613
 20
3.7984451344
 10
-40.182923672
 20
3.774117554
 10
-40.1584594229
 20
3.7480570794
 10
-40.1348984749
 20
3.7204093948
 10
-40.1123725394
 20
3.6913290574
 10
-40.0910075415
 20
3.6609786332
 10
-40.0709229169
 20
3.6295277882
 10
-40.0522309432
 20
3.5971523401
 10
-40.0350361131
 20
3.5640332756
 10
-40.0194345499
 20
3.5303557379
 10
-40.0055134698
 20
3.4963079926
 10
-39.9933506952
 20
3.4620803746
 10
-39.9830142188
 20
3.4278642245
 10
-39.9745618239
 20
3.3938508187
 10
-39.9680407615
 20
3.3602303002
 10
-39.9634874858
 20
3.3271906158
 10
-39.9609274508
 20
3.2949164652
 10
-39.9603749676
 20
3.2635882684
  0
LWPOLYLINE
  5
387
100
AcDbEntity
  8
0
100
AcDbPolyline
 62
7
  6
CONTINUOUS
 90
22
 70
0
 10
12.2948700099
 20
-26.4997623074
 10
12.321725587
 20
-26.5159062636
 10
12.3483965413
 20
-26.5342616715
 10
12.3747337758
 20
-26.55472592
 10
12.400590059
 20
-26.5771846092
 10
12.4258208483
 20
-26.6015121896
 10
12.4502850974
 20
-26.6275726642
 10
12.4738460454
 20
-26.6552203488
 10
12.4963719809
 20
-26.6843006862
 10
12.5177369787
 20
-26.7146511104
 10
12.5378216034
 20
-26.7461019554
 10
12.5565135771
 20
-26.7784774034
 10
12.5737084071
 20
-26.811596468
 10
12.5893099704
 20
-26.8452740057
 10
12.6032310504
 20
-26.879321751
 10
12.6153938251
 20
-26.913549369
 10
12.6257303015
 20
-26.9477655191
 10
12.6341826964
 20
-26.9817789249
 10
12.6407037588
 20
-27.0153994434
 10
12.6452570345
 20
-27.0484391278
 10
12.6478170695
 20
-27.0807132784
 10
12.6483695526
 20
-27.1120414752
  0
LWPOLYLINE
  5
388
100
AcDbEntity
  8
0
100
AcDbPolyline
 62
7
  6
CONTINUOUS
 90
22
 70
0
 10
28.2047725866
 20
-35.6859406573
 10
28.2316281637
 20
-35.7020846134
 10
28.258299118
 20
-35.7204400213
 10
28.2846363525
 20
-35.7409042699
 10
28.3104926357
 20
-35.7633629591
 10
28.335723425
 20
-35.7876905395
 10
28.3601876741
 20
-35.8137510141
 10
28.3837486221
 20
-35.8413986987
 10
28.4062745576
 20
-35.8704790361
 10
28.4276395554
 20
-35.9008294603
 10
28.4477241801
 20
-35.9322803053
 10
28.4664161538
 20
-35.9646557533
 10
28.4836109838
 20
-35.9977748179
 10
28.4992125471
 20
-36.0314523556
 10
28.5131336271
 20
-36.0655001009
 10
28.5252964018
 20
-36.0997277189
 10
28.5356328782
 20
-36.133943869
 10
28.5440852731
 20
-36.1679572748
 10
28.5506063355
 20
-36.2015777932
 10
28.5551596112
 20
-36.2346174776
 10
28.5577196462
 20
-36.2668916283
 10
28.5582721293
 20
-36.298219825
  0
LWPOLYLINE
  5
389
100
AcDbEntity
  8
0
100
AcDbPolyline
 62
7
  6
CONTINUOUS
 90
16
 70
0
 10
-27.2093259122
 20
-3.5284734533
 10
-27.1872261557
 20
-3.5420093337
 10
-27.1571256631
 20
-3.5631486204
 10
-27.1285939184
 20
-3.5865023686
 10
-27.1017897225
 20
-3.6119677861
 10
-27.076883313
 20
-3.6394122131
 10
-27.0540155357
 20
-3.6687127909
 10
-27.0333292589
 20
-3.6997259397
 10
-27.0149621687
 20
-3.7322891196
 10
-26.9990358432
 20
-3.7662366251
 10
-26.9856601204
 20
-3.801395524
 10
-26.974937834
 20
-3.8375687977
 10
-26.9669574413
 20
-3.8745395614
 10
-26.9617843472
 20
-3.9121101749
 10
-26.9594716829
 20
-3.9500580398
 10
-26.9593412667
 20
-3.9614840244
  0
LWPOLYLINE
  5
38A
100
AcDbEntity
  8
0
100
AcDbPolyline
 62
7
  6
CONTINUOUS
 90
16
 70
0
 10
-11.2994233355
 20
-12.7146518032
 10
-11.2773235792
 20
-12.7281876834
 10
-11.2472230865
 20
-12.7493269701
 10
-11.2186913419
 20
-12.7726807183
 10
-11.1918871459
 20
-12.7981461358
 10
-11.1669807364
 20
-12.8255905628
 10
-11.1441129591
 20
-12.8548911406
 10
-11.1234266824
 20
-12.8859042894
 10
-11.1050595921
 20
-12.9184674693
 10
-11.0891332666
 20
-12.9524149748
 10
-11.0757575438
 20
-12.9875738737
 10
-11.0650352573
 20
-13.0237471473
 10
-11.0570548647
 20
-13.0607179111
 10
-11.0518817706
 20
-13.0982885246
 10
-11.0495691062
 20
-13.1362363894
 10
-11.04943869
 20
-13.1476623743
  0
LWPOLYLINE
  5
38B
100
AcDbEntity
  8
0
100
AcDbPolyline
 62
7
  6
CONTINUOUS
 90
11
 70
0
 10
29.1265904367
 20
-37.0866341865
 10
29.137693721
 20
-37.0936416507
 10
29.1545972636
 20
-37.1069183656
 10
29.1699802247
 20
-37.1224531457
 10
29.1837583996
 20
-37.1401612912
 10
29.1958569714
 20
-37.1599471065
 10
29.2062100142
 20
-37.1817040877
 10
29.2147596408
 20
-37.2053124668
 10
29.221457852
 20
-37.2306400421
 10
29.2262681055
 20
-37.2575467354
 10
29.2291647378
 20
-37.2858861116
  0
LWPOLYLINE
  5
38C
100
AcDbEntity
  8
0
100
AcDbPolyline
 62
7
  6
CONTINUOUS
 90
22
 70
0
 10
-11.5432683324
 20
-12.7359199906
 10
-11.517324485
 20
-12.7525844796
 10
-11.4915603029
 20
-12.7714592234
 10
-11.4661199256
 20
-12.7924386258
 10
-11.4411456812
 20
-12.8154053159
 10
-11.41677729
 20
-12.8402308049
 10
-11.3931510828
 20
-12.8667762048
 10
-11.3703992381
 20
-12.8948930054
 10
-11.3486490429
 20
-12.924423905
 10
-11.3280221801
 20
-12.9552036911
 10
-11.3086340482
 20
-12.9870601639
 10
-11.2905931155
 20
-13.0198150999
 10
-11.2740003136
 20
-13.0532852493
 10
-11.2589484719
 20
-13.0872833607
 10
-11.2455217991
 20
-13.1216192293
 10
-11.2337954118
 20
-13.1561007605
 10
-11.223834914
 20
-13.1905350448
 10
-11.2156960305
 20
-13.2247294372
 10
-11.2094242949
 20
-13.2584926346
 10
-11.2050547949
 20
-13.2916357462
 10
-11.202611976
 20
-13.3239733506
 10
-11.2021095046
 20
-13.3553245325
  0
LWPOLYLINE
  5
38D
100
AcDbEntity
  8
0
100
AcDbPolyline
 62
7
  6
CONTINUOUS
 90
4
 70
0
 10
-1.070110464
 20
-24.5187171707
 10
-1.0852882503
 20
-24.4969233949
 10
-1.1009863153
 20
-24.4770502028
 10
-1.1057280597
 20
-24.4718014127
  0
LINE
  5
38E
100
AcDbEntity
  8
0
100
AcDbLine
 62
7
  6
CONTINUOUS
 10
-6.7350242173
 20
-20.4645924272
 11
-6.2643138397
 21
-22.4508177659
  0
LINE
  5
38F
100
AcDbEntity
  8
0
100
AcDbLine
 62
7
  6
CONTINUOUS
 10
-3.4162630876
 20
-24.0952465757
 11
-3.5551084538
 21
-22.3006359354
  0
LINE
  5
390
100
AcDbEntity
  8
0
100
AcDbLine
 62
7
  6
CONTINUOUS
 10
-3.2859549544
 20
-23.8699505053
 11
-3.4136870976
 21
-22.2189810167
  0
LINE
  5
391
100
AcDbEntity
  8
0
100
AcDbLine
 62
7
  6
CONTINUOUS
 10
-3.7831397841
 20
-22.7685843756
 11
-3.7194626972
 21
-23.9201829211
  0
LINE
  5
392
100
AcDbEntity
  8
0
100
AcDbLine
 62
7
  6
CONTINUOUS
 10
-11.0494386899
 20
-13.1476556398
 11
-11.0494386899
 21
-13.6120118359
  0
LINE
  5
393
100
AcDbEntity
  8
ASSI
100
AcDbLine
 62
7
  6
CONTINUOUS
 10
-10.7069758126
 20
-11.4137313788
 11
-10.7069758126
 21
-11.8149059465
  0
LINE
  5
394
100
AcDbEntity
  8
ASSI
100
AcDbLine
 62
7
  6
CONTINUOUS
 10
-10.6556047777
 20
-11.3846889731
 11
-10.6556047777
 21
-11.7843786974
  0
LINE
  5
395
100
AcDbEntity
  8
RACCORDO
100
AcDbLine
 62
7
  6
CONTINUOUS
 10
-6.1827788536
 20
-17.0275381692
 11
-6.1827788536
 21
-16.5671331178
  0
LINE
  5
396
100
AcDbEntity
  8
0
100
AcDbLine
 62
7
  6
CONTINUOUS
 10
-5.3988907999
 20
-21.2359562415
 11
-5.3988907999
 21
-22.9505021828
  0
LINE
  5
397
100
AcDbEntity
  8
0
100
AcDbLine
 62
7
  6
CONTINUOUS
 10
-5.088954584
 20
-23.1294554694
 11
-5.088954584
 21
-21.4149095281
  0
LINE
  5
398
100
AcDbEntity
  8
0
100
AcDbLine
 62
7
  6
CONTINUOUS
 10
-4.9475332278
 20
-23.0478005507
 11
-4.9475332278
 21
-21.3332546095
  0
LWPOLYLINE
  5
399
100
AcDbEntity
  8
0
100
AcDbPolyline
 62
7
  6
CONTINUOUS
 90
12
 70
0
 10
-11.04943869
 20
-13.1476623743
 10
-11.0499998064
 20
-13.1613288981
 10
-11.0532209744
 20
-13.1830979141
 10
-11.0592824402
 20
-13.2046588764
 10
-11.0681484599
 20
-13.2258905009
 10
-11.0797688603
 20
-13.2466742258
 10
-11.0940874669
 20
-13.2669043441
 10
-11.1110153508
 20
-13.2864509592
 10
-11.1304170714
 20
-13.3051680449
 10
-11.1521539173
 20
-13.3229427244
 10
-11.1761006598
 20
-13.3396912006
 10
-11.2021095046
 20
-13.3553245325
  0
LINE
  5
39A
100
AcDbEntity
  8
ASSI
100
AcDbLine
 62
7
  6
CONTINUOUS
 10
-11.2589592313
 20
-12.350607795
 11
-11.1917119221
 21
-12.0996492577
  0
LINE
  5
39B
100
AcDbEntity
  8
RACCORDO
100
AcDbLine
 62
7
  6
CONTINUOUS
 10
-26.9384890436
 20
-4.4129381585
 11
-27.8416824859
 21
-4.9714865314
  0
LINE
  5
39C
100
AcDbEntity
  8
RACCORDO
100
AcDbLine
 62
7
  6
CONTINUOUS
 10
-26.7858958318
 20
-4.426247815
 11
-27.6890892741
 21
-4.9847961879
  0
LINE
  5
39D
100
AcDbEntity
  8
0
100
AcDbLine
 62
7
  6
CONTINUOUS
 10
-27.3649445735
 20
-3.2781300004
 11
-27.5036281227
 21
-3.3585470454
  0
LINE
  5
39E
100
AcDbEntity
  8
RACCORDO
100
AcDbLine
 62
7
  6
CONTINUOUS
 10
-28.3945177513
 20
-4.0790101893
 11
-27.8189582505
 21
-3.7466904489
  0
LINE
  5
39F
100
AcDbEntity
  8
RACCORDO
100
AcDbLine
 62
7
  6
CONTINUOUS
 10
-27.8333850264
 20
-4.5714049574
 11
-27.4717367693
 21
-4.3625944787
  0
LINE
  5
3A0
100
AcDbEntity
  8
0
100
AcDbLine
 62
7
  6
CONTINUOUS
 10
-28.7048729919
 20
-2.8270245456
 11
-29.0708757413
 21
-3.0238489799
  0
LINE
  5
3A1
100
AcDbEntity
  8
0
100
AcDbLine
 62
7
  6
CONTINUOUS
 10
-27.8191736585
 20
-3.746566075
 11
-27.4531709091
 21
-3.5497416407
  0
LINE
  5
3A2
100
AcDbEntity
  8
0
100
AcDbLine
 62
7
  6
CONTINUOUS
 10
-27.4717367693
 20
-4.3625944787
 11
-27.1120120813
 21
-4.1691461826
  0
LINE
  5
3A3
100
AcDbEntity
  8
DRAFT
100
AcDbLine
 62
7
  6
CONTINUOUS
 10
-27.8333850264
 20
-4.5267495109
 11
-28.3756131526
 21
-4.8070131995
  0
LINE
  5
3A4
100
AcDbEntity
  8
0
100
AcDbLine
 62
7
  6
CONTINUOUS
 10
-28.9478563415
 20
-2.7983971551
 11
-28.9427277491
 21
-2.7957526328
  0
LWPOLYLINE
  5
3A5
100
AcDbEntity
  8
0
100
AcDbPolyline
 62
7
  6
CONTINUOUS
 90
6
 70
0
 10
-28.9478563415
 20
-2.7983971551
 10
-28.9159086883
 20
-2.7826569746
 10
-28.8826297508
 20
-2.7691240833
 10
-28.848205278
 20
-2.7579415125
 10
-28.8128425396
 20
-2.7492329501
 10
-28.7767585373
 20
-2.7430974955
  0
LWPOLYLINE
  5
3A6
100
AcDbEntity
  8
0
100
AcDbPolyline
 62
7
  6
CONTINUOUS
 90
11
 70
0
 10
-28.9427277491
 20
-2.7957526328
 10
-28.9227406045
 20
-2.7874387252
 10
-28.9015700219
 20
-2.781647812
 10
-28.8793343498
 20
-2.7784122658
 10
-28.8561578909
 20
-2.7777501742
 10
-28.8321702072
 20
-2.7796652383
 10
-28.8075053956
 20
-2.7841467525
 10
-28.7823013381
 20
-2.7911696641
 10
-28.7566989315
 20
-2.8006947133
 10
-28.7308412993
 20
-2.8126686529
 10
-28.7048729919
 20
-2.8270245456
  0
LWPOLYLINE
  5
3A7
100
AcDbEntity
  8
0
100
AcDbPolyline
 62
7
  6
CONTINUOUS
 90
4
 70
0
 10
-30.8735664507
 20
0.2302053089
 10
-30.8609540559
 20
0.2348213532
 10
-30.8479234612
 20
0.2378790232
 10
-30.8346214107
 20
0.239397743
  0
LINE
  5
3A8
100
AcDbEntity
  8
SMUSSO
100
AcDbLine
 62
7
  6
CONTINUOUS
 10
56.2769665958
 20
3.5030646962
 11
54.8627530334
 21
3.1648716343
  0
LWPOLYLINE
  5
3A9
100
AcDbEntity
  8
0
100
AcDbPolyline
 62
7
  6
CONTINUOUS
 90
5
 70
0
 10
-12.8668559606
 20
-11.9292758454
 10
-12.8302639997
 20
-11.9257874277
 10
-12.7933964442
 20
-11.924998525
 10
-12.7564900056
 20
-11.9269362288
 10
-12.7197446818
 20
-11.9316083547
  0
LWPOLYLINE
  5
3AA
100
AcDbEntity
  8
0
100
AcDbPolyline
 62
7
  6
CONTINUOUS
 90
12
 70
0
 10
-34.7093663501
 20
-0.472067027
 10
-34.6311961345
 20
-0.4867609738
 10
-34.6110121903
 20
-0.4907966296
 10
-34.5905823683
 20
-0.4951713434
 10
-34.5699688454
 20
-0.4999586947
 10
-34.5492383896
 20
-0.5052366745
 10
-34.5282780451
 20
-0.5111462672
 10
-34.5073180527
 20
-0.5177575432
 10
-34.486924624
 20
-0.5249858149
 10
-34.4672398242
 20
-0.5328250552
 10
-34.4482080305
 20
-0.5413547666
 10
-34.4300579435
 20
-0.5505177196
  0
LINE
  5
3AB
100
AcDbEntity
  8
0
100
AcDbLine
 62
7
  6
CONTINUOUS
 10
-34.7281930779
 20
-0.4683667838
 11
-34.7093663501
 21
-0.472067027
  0
LWPOLYLINE
  5
3AC
100
AcDbEntity
  8
0
100
AcDbPolyline
 62
7
  6
CONTINUOUS
 90
6
 70
0
 10
-28.6296472585
 20
-2.7454300048
 10
-28.5932444197
 20
-2.7528348825
 10
-28.5574453196
 20
-2.7629370721
 10
-28.5225129815
 20
-2.7756659276
 10
-28.4885121642
 20
-2.7910104139
 10
-28.4610171685
 20
-2.8057626102
  0
LWPOLYLINE
  5
3AD
100
AcDbEntity
  8
0
100
AcDbPolyline
 62
7
  6
CONTINUOUS
 90
4
 70
0
 10
-30.7943683388
 20
0.2350190425
 10
-30.7810682816
 20
0.2311765366
 10
-30.7679562315
 20
0.2262321746
 10
-30.7550018218
 20
0.220399956
  0
LINE
  5
3AE
100
AcDbEntity
  8
RACCORDO
100
AcDbLine
 62
7
  6
CONTINUOUS
 10
-40.8099964119
 20
16.0572126831
 11
-41.244025561
 21
16.3078156741
  0
LINE
  5
3AF
100
AcDbEntity
  8
0
100
AcDbLine
 62
7
  6
CONTINUOUS
 10
-4.5587143007
 20
-22.3161104259
 11
-4.1951221151
 21
-23.6455431346
  0
LINE
  5
3B0
100
AcDbEntity
  8
0
100
AcDbLine
 62
7
  6
CONTINUOUS
 10
-4.1716956675
 20
-22.8964901157
 11
-4.478357979
 21
-21.7675632306
  0
LINE
  5
3B1
100
AcDbEntity
  8
0
100
AcDbLine
 62
7
  6
CONTINUOUS
 10
-4.0741630712
 20
-22.6532659426
 11
-4.3369366228
 21
-21.6859083119
  0
LWPOLYLINE
  5
3B2
100
AcDbEntity
  8
0
100
AcDbPolyline
 62
7
  6
CONTINUOUS
 90
6
 70
0
 10
-1.407670462
 20
-24.7351076901
 10
-1.3919938704
 20
-24.797109843
 10
-1.3766403684
 20
-24.8601972455
 10
-1.361609956
 20
-24.9243698975
 10
-1.3471274199
 20
-24.989589323
 10
-1.3184572561
 20
-25.1233993503
  0
LINE
  5
3B3
100
AcDbEntity
  8
0
100
AcDbLine
 62
7
  6
CONTINUOUS
 10
-2.1464683071
 20
-24.8284101677
 11
-2.6020416498
 21
-22.8509247633
  0
LINE
  5
3B4
100
AcDbEntity
  8
0
100
AcDbLine
 62
7
  6
CONTINUOUS
 10
-2.0554559738
 20
-24.5279472156
 11
-2.4606202936
 21
-22.7692698446
  0
LINE
  5
3B5
100
AcDbEntity
  8
0
100
AcDbLine
 62
7
  6
CONTINUOUS
 10
-1.3184572561
 20
-25.1233993503
 11
-1.2721431196
 21
-25.3332348978
  0
LINE
  5
3B6
100
AcDbEntity
  8
0
100
AcDbLine
 62
7
  6
CONTINUOUS
 10
-6.1153080561
 20
-22.0025128652
 11
-6.3983381519
 21
-20.6589907417
  0
LINE
  5
3B7
100
AcDbEntity
  8
0
100
AcDbLine
 62
7
  6
CONTINUOUS
 10
-6.0236554161
 20
-21.6846096737
 11
-6.2569167957
 21
-20.5773358231
  0
LINE
  5
3B8
100
AcDbEntity
  8
0
100
AcDbLine
 62
7
  6
CONTINUOUS
 10
-2.553417452
 20
-24.2511793081
 11
-2.4731275983
 21
-24.6398011869
  0
LINE
  5
3B9
100
AcDbEntity
  8
0
100
AcDbLine
 62
7
  6
CONTINUOUS
 10
-1.0435351767
 20
-25.158918999
 11
-1.0799753246
 21
-24.9801630829
  0
LINE
  5
3BA
100
AcDbEntity
  8
0
100
AcDbLine
 62
7
  6
CONTINUOUS
 10
-0.9021424708
 20
-25.0771214842
 11
-0.9385539683
 21
-24.8985081642
  0
LINE
  5
3BB
100
AcDbEntity
  8
0
100
AcDbLine
 62
7
  6
CONTINUOUS
 10
-0.9740208233
 20
-25.5053669754
 11
-1.0435351767
 21
-25.158918999
  0
LINE
  5
3BC
100
AcDbEntity
  8
0
100
AcDbLine
 62
7
  6
CONTINUOUS
 10
-0.832599467
 20
-25.4237120567
 11
-0.9021424708
 21
-25.0771214842
  0
LINE
  5
3BD
100
AcDbEntity
  8
0
100
AcDbLine
 62
7
  6
CONTINUOUS
 10
-2.7577776757
 20
-23.2320901211
 11
-2.6153578847
 21
-23.9505731325
  0
LWPOLYLINE
  5
3BE
100
AcDbEntity
  8
0
100
AcDbPolyline
 62
7
  6
CONTINUOUS
 90
13
 70
0
 10
-0.9385539683
 20
-24.8985081642
 10
-0.9458959115
 20
-24.8609585436
 10
-0.9538435069
 20
-24.8242995614
 10
-0.9623967546
 20
-24.7885312176
 10
-0.9715088457
 20
-24.753542496
 10
-0.981226589
 20
-24.7194444128
 10
-0.9916904113
 20
-24.6865700167
 10
-1.0029586543
 20
-24.6549181017
 10
-1.0149729762
 20
-24.624489874
 10
-1.0276987781
 20
-24.5956220003
 10
-1.0411882605
 20
-24.5683066264
 10
-1.0553892229
 20
-24.5425516067
 10
-1.070110464
 20
-24.5187171707
  0
LWPOLYLINE
  5
3BF
100
AcDbEntity
  8
0
100
AcDbPolyline
 62
7
  6
CONTINUOUS
 90
16
 70
0
 10
-1.0799753246
 20
-24.9801630829
 10
-1.0870348092
 20
-24.9437431746
 10
-1.0948297402
 20
-24.907712166
 10
-1.1033601176
 20
-24.8720700572
 10
-1.1126032899
 20
-24.8365302474
 10
-1.1225819086
 20
-24.8013793373
 10
-1.1333639275
 20
-24.7674771295
 10
-1.1450460366
 20
-24.7348861753
 10
-1.157531546
 20
-24.7035439234
 10
-1.1705983394
 20
-24.6741225217
 10
-1.1842514827
 20
-24.6467913436
 10
-1.19848591
 20
-24.6213810156
 10
-1.2130643083
 20
-24.5980555657
 10
-1.2279075731
 20
-24.57686967
 10
-1.2430948087
 20
-24.5577686524
 10
-1.2586260153
 20
-24.540752513
  0
LINE
  5
3C0
100
AcDbEntity
  8
RACCORDO
100
AcDbLine
 62
7
  6
CONTINUOUS
 10
-2.9078709896
 20
-18.5382129864
 11
-2.9078709896
 21
-18.9184289257
  0
LINE
  5
3C1
100
AcDbEntity
  8
0
100
AcDbLine
 62
7
  6
CONTINUOUS
 10
-2.0554559738
 20
-23.186546815
 11
-2.0554559738
 21
-24.880959873
  0
LINE
  5
3C2
100
AcDbEntity
  8
0
100
AcDbLine
 62
7
  6
CONTINUOUS
 10
-1.7570441843
 20
-24.1015362319
 11
-1.7570441843
 21
-23.6308880796
  0
LINE
  5
3C3
100
AcDbEntity
  8
0
100
AcDbLine
 62
7
  6
CONTINUOUS
 10
-1.7467671766
 20
-25.0591929157
 11
-1.7467671766
 21
-24.3882544563
  0
LINE
  5
3C4
100
AcDbEntity
  8
RACCORDO
100
AcDbLine
 62
7
  6
CONTINUOUS
 10
-1.7267718727
 20
-19.4650339263
 11
-1.7267718727
 21
-19.4413744481
  0
LINE
  5
3C5
100
AcDbEntity
  8
0
100
AcDbLine
 62
7
  6
CONTINUOUS
 10
-1.615622828
 20
-24.0198813132
 11
-1.615622828
 21
-23.6965276474
  0
LINE
  5
3C6
100
AcDbEntity
  8
0
100
AcDbLine
 62
7
  6
CONTINUOUS
 10
-1.6053458204
 20
-24.9775379971
 11
-1.6053458204
 21
-24.469909375
  0
LINE
  5
3C7
100
AcDbEntity
  8
0
100
AcDbLine
 62
7
  6
CONTINUOUS
 10
-1.2586260153
 20
-24.540752513
 11
-1.2586260153
 21
-24.530621647
  0
LWPOLYLINE
  5
3C8
100
AcDbEntity
  8
0
100
AcDbPolyline
 62
7
  6
CONTINUOUS
 90
10
 70
0
 10
-1.3391607892
 20
-24.0763930891
 10
-1.3402475423
 20
-24.1041485656
 10
-1.3430341421
 20
-24.129595581
 10
-1.3475205887
 20
-24.1527341355
 10
-1.3539151437
 20
-24.1737067277
 10
-1.3620095454
 20
-24.1923708589
 10
-1.3711790091
 20
-24.2082990326
 10
-1.3811545955
 20
-24.2212436728
 10
-1.392205244
 20
-24.2314523556
 10
-1.401615412
 20
-24.2376775382
  0
LINE
  5
3C9
100
AcDbEntity
  8
0
100
AcDbLine
 62
7
  6
CONTINUOUS
 10
-4.625598824
 20
-23.396991278
 11
-4.5587143007
 21
-22.3161104259
  0
LINE
  5
3CA
100
AcDbEntity
  8
0
100
AcDbLine
 62
7
  6
CONTINUOUS
 10
-4.4841774678
 20
-23.3153363594
 11
-4.447507011
 21
-22.7227269987
  0
LINE
  5
3CB
100
AcDbEntity
  8
0
100
AcDbLine
 62
7
  6
CONTINUOUS
 10
-4.7880375151
 20
-21.5887581476
 11
-4.9221063751
 21
-23.2257915342
  0
LINE
  5
3CC
100
AcDbEntity
  8
0
100
AcDbLine
 62
7
  6
CONTINUOUS
 10
-5.8236328728
 20
-20.9908183671
 11
-6.1153080561
 21
-22.0025128652
  0
LINE
  5
3CD
100
AcDbEntity
  8
RACCORDO
100
AcDbLine
 62
7
  6
CONTINUOUS
 10
-21.9801017591
 20
-7.8574093434
 11
-21.42429041
 21
-7.5136872678
  0
LINE
  5
3CE
100
AcDbEntity
  8
RACCORDO
100
AcDbLine
 62
7
  6
CONTINUOUS
 10
-21.8275085471
 20
-7.8707189998
 11
-21.271697198
 21
-7.5269969242
  0
LINE
  5
3CF
100
AcDbEntity
  8
DRAFT
100
AcDbLine
 62
7
  6
CONTINUOUS
 10
-17.7518348458
 20
-10.3477102337
 11
-17.6366744494
 21
-10.2788555764
  0
LINE
  5
3D0
100
AcDbEntity
  8
DRAFT
100
AcDbLine
 62
7
  6
CONTINUOUS
 10
-23.0279656191
 20
-7.6760705688
 11
-22.0926814303
 21
-7.1360509906
  0
LINE
  5
3D1
100
AcDbEntity
  8
RACCORDO
100
AcDbLine
 62
7
  6
CONTINUOUS
 10
-19.7468326097
 20
-9.0720752091
 11
-19.1712731089
 21
-8.7397554687
  0
LINE
  5
3D2
100
AcDbEntity
  8
RACCORDO
100
AcDbLine
 62
7
  6
CONTINUOUS
 10
-19.147029561
 20
-9.542142291
 11
-18.8177735662
 21
-9.3520346365
  0
LINE
  5
3D3
100
AcDbEntity
  8
RACCORDO
100
AcDbLine
 62
7
  6
CONTINUOUS
 10
-18.1217706183
 20
-10.134113955
 11
-17.9779938891
 21
-10.0510987885
  0
LINE
  5
3D4
100
AcDbEntity
  8
ASSI
100
AcDbLine
 62
7
  6
CONTINUOUS
 10
-14.971453188
 20
-8.9597987763
 11
-17.5760295586
 21
-10.3138711763
  0
LINE
  5
3D5
100
AcDbEntity
  8
DRAFT
100
AcDbLine
 62
7
  6
CONTINUOUS
 10
-22.5300841675
 20
-7.5888089609
 11
-23.0723122937
 21
-7.8690726495
  0
LWPOLYLINE
  5
3D6
100
AcDbEntity
  8
0
100
AcDbPolyline
 62
7
  6
CONTINUOUS
 90
5
 70
0
 10
-28.7767585373
 20
-2.7430974955
 10
-28.7401665764
 20
-2.7396090778
 10
-28.7032990209
 20
-2.7388201751
 10
-28.6663925823
 20
-2.7407578789
 10
-28.6296472585
 20
-2.7454300048
  0
LWPOLYLINE
  5
3D7
100
AcDbEntity
  8
0
100
AcDbPolyline
 62
7
  6
CONTINUOUS
 90
4
 70
0
 10
-30.8346214107
 20
0.239397743
 10
-30.8212078716
 20
0.2393127308
 10
-30.8077807862
 20
0.2377509399
 10
-30.7943683388
 20
0.2350190425
  0
LINE
  5
3D8
100
AcDbEntity
  8
DRAFT
100
AcDbLine
 62
7
  6
CONTINUOUS
 10
3.986420127
 20
-23.3387119577
 11
3.986420127
 21
-22.8991062106
  0
LINE
  5
3D9
100
AcDbEntity
  8
RACCORDO
100
AcDbLine
 62
7
  6
CONTINUOUS
 10
4.3543464455
 20
-23.1111808033
 11
4.3543464455
 21
-22.5680571315
  0
LINE
  5
3DA
100
AcDbEntity
  8
ASSI
100
AcDbLine
 62
7
  6
CONTINUOUS
 10
5.2029267641
 20
-20.5999097286
 11
5.2029267641
 21
-21.0010842963
  0
LINE
  5
3DB
100
AcDbEntity
  8
ASSI
100
AcDbLine
 62
7
  6
CONTINUOUS
 10
5.254297799
 20
-20.570867323
 11
5.254297799
 21
-20.9705570473
  0
LINE
  5
3DC
100
AcDbEntity
  8
0
100
AcDbLine
 62
7
  6
CONTINUOUS
 10
-2.9120994881
 20
-23.7792382498
 11
-2.7577776757
 21
-23.2320901211
  0
LINE
  5
3DD
100
AcDbEntity
  8
0
100
AcDbLine
 62
7
  6
CONTINUOUS
 10
-2.7706781319
 20
-23.6975833311
 11
-2.708914035
 21
-23.4785986683
  0
LINE
  5
3DE
100
AcDbEntity
  8
0
100
AcDbLine
 62
7
  6
CONTINUOUS
 10
-3.0610218331
 20
-24.3003584238
 11
-2.9754986821
 21
-24.0074748958
  0
LINE
  5
3DF
100
AcDbEntity
  8
0
100
AcDbLine
 62
7
  6
CONTINUOUS
 10
-2.9196004768
 20
-24.2187035052
 11
-2.8748843968
 21
-24.0655683232
  0
LINE
  5
3E0
100
AcDbEntity
  8
0
100
AcDbLine
 62
7
  6
CONTINUOUS
 10
-2.9018669459
 20
-22.677809395
 11
-3.3675950491
 21
-24.1233468912
  0
LINE
  5
3E1
100
AcDbEntity
  8
0
100
AcDbLine
 62
7
  6
CONTINUOUS
 10
-5.9911825318
 20
-22.60852036
 11
-5.5139080819
 21
-21.1696495797
  0
LINE
  5
3E2
100
AcDbEntity
  8
0
100
AcDbLine
 62
7
  6
CONTINUOUS
 10
-5.8497611755
 20
-22.5268654413
 11
-5.3724867256
 21
-21.087994661
  0
LINE
  5
3E3
100
AcDbEntity
  8
0
100
AcDbLine
 62
7
  6
CONTINUOUS
 10
-3.8617594516
 20
-22.1235794925
 11
-4.1716956675
 21
-22.8964901157
  0
LINE
  5
3E4
100
AcDbEntity
  8
0
100
AcDbLine
 62
7
  6
CONTINUOUS
 10
-4.15165414
 20
-23.6706409987
 11
-3.7831397841
 21
-22.7685843756
  0
LINE
  5
3E5
100
AcDbEntity
  8
0
100
AcDbLine
 62
7
  6
CONTINUOUS
 10
-4.0102327838
 20
-23.58898608
 11
-3.7702570258
 21
-23.0015687422
  0
LINE
  5
3E6
100
AcDbEntity
  8
ASSI
100
AcDbLine
 62
7
  6
CONTINUOUS
 10
-10.7139893424
 20
-11.4180050422
 11
-12.0553759562
 21
-12.2781742342
  0
LWPOLYLINE
  5
3E7
100
AcDbEntity
  8
ASSI
100
AcDbPolyline
 62
7
  6
CONTINUOUS
 90
8
 70
0
 10
-11.3136464753
 20
-12.4285877649
 10
-11.30695371
 20
-12.4243368392
 10
-11.2961580738
 20
-12.4156894411
 10
-11.2863236824
 20
-12.4054293573
 10
-11.2776651419
 20
-12.3937698269
 10
-11.2702539875
 20
-12.3807819296
 10
-11.264018684
 20
-12.3663945856
 10
-11.2589592313
 20
-12.350607795
  0
LINE
  5
3E8
100
AcDbEntity
  8
RACCORDO
100
AcDbLine
 62
7
  6
CONTINUOUS
 10
-14.1224363246
 20
-11.7795912238
 11
-14.6782476737
 21
-12.1233132995
  0
LINE
  5
3E9
100
AcDbEntity
  8
RACCORDO
100
AcDbLine
 62
7
  6
CONTINUOUS
 10
-13.8680799458
 20
-11.8017527365
 11
-14.423891295
 21
-12.1454748121
  0
LINE
  5
3EA
100
AcDbEntity
  8
RACCORDO
100
AcDbLine
 62
7
  6
CONTINUOUS
 10
-11.0285864669
 20
-13.5991165084
 11
-11.9317799092
 21
-14.1576648813
  0
LINE
  5
3EB
100
AcDbEntity
  8
RACCORDO
100
AcDbLine
 62
7
  6
CONTINUOUS
 10
-10.8759932551
 20
-13.6124261649
 11
-11.7791866974
 21
-14.1709745378
  0
LINE
  5
3EC
100
AcDbEntity
  8
ASSI
100
AcDbLine
 62
7
  6
CONTINUOUS
 10
-10.6596499584
 20
-11.3864273362
 11
-10.657321803
 21
-11.3850585384
  0
LINE
  5
3ED
100
AcDbEntity
  8
ASSI
100
AcDbLine
 62
7
  6
CONTINUOUS
 10
-10.7069758126
 20
-11.8149059465
 11
-11.7730905907
 21
-12.4411622664
  0
LINE
  5
3EE
100
AcDbEntity
  8
ASSI
100
AcDbLine
 62
7
  6
CONTINUOUS
 10
-10.7069758126
 20
-11.4137313788
 11
-10.6988996224
 21
-11.4090254006
  0
LINE
  5
3EF
100
AcDbEntity
  8
ASSI
100
AcDbLine
 62
7
  6
CONTINUOUS
 10
-11.3136708057
 20
-12.4285998483
 11
-11.5536662928
 21
-12.567855106
  0
LINE
  5
3F0
100
AcDbEntity
  8
ASSI
100
AcDbLine
 62
7
  6
CONTINUOUS
 10
-11.2589592313
 20
-12.350607795
 11
-11.5937255461
 21
-12.5447253952
  0
LINE
  5
3F1
100
AcDbEntity
  8
RACCORDO
100
AcDbLine
 62
7
  6
CONTINUOUS
 10
-11.9090556738
 20
-12.9328687988
 11
-12.4846151746
 21
-13.2651885392
  0
LINE
  5
3F2
100
AcDbEntity
  8
RACCORDO
100
AcDbLine
 62
7
  6
CONTINUOUS
 10
-11.5618341926
 20
-13.5487728285
 11
-11.9234824497
 21
-13.7575833073
  0
LINE
  5
3F3
100
AcDbEntity
  8
ASSI
100
AcDbLine
 62
7
  6
CONTINUOUS
 10
-10.6988996224
 20
-11.4090254006
 11
-10.6596499584
 21
-11.3864273362
  0
LINE
  5
3F4
100
AcDbEntity
  8
RACCORDO
100
AcDbLine
 62
7
  6
CONTINUOUS
 10
-13.0379537648
 20
-11.984575505
 11
-13.3038196367
 21
-12.1275495671
  0
LINE
  5
3F5
100
AcDbEntity
  8
0
100
AcDbLine
 62
7
  6
CONTINUOUS
 10
-12.7949704152
 20
-12.0132028955
 11
-13.1609731647
 21
-12.2100273298
  0
LINE
  5
3F6
100
AcDbEntity
  8
0
100
AcDbLine
 62
7
  6
CONTINUOUS
 10
-11.5432683324
 20
-12.7359199906
 11
-11.9092710818
 21
-12.9327444249
  0
LINE
  5
3F7
100
AcDbEntity
  8
0
100
AcDbLine
 62
7
  6
CONTINUOUS
 10
-11.2021095046
 20
-13.3553245325
 11
-11.5618341926
 21
-13.5487728285
  0
LINE
  5
3F8
100
AcDbEntity
  8
ASSI
100
AcDbLine
 62
7
  6
CONTINUOUS
 10
-10.6559748296
 20
-11.3842707501
 11
-10.6556048134
 21
-11.3840727611
  0
LINE
  5
3F9
100
AcDbEntity
  8
DRAFT
100
AcDbLine
 62
7
  6
CONTINUOUS
 10
-11.9234824497
 20
-13.7129278608
 11
-12.4657105759
 21
-13.9931915494
  0
LINE
  5
3FA
100
AcDbEntity
  8
0
100
AcDbLine
 62
7
  6
CONTINUOUS
 10
-13.0379537648
 20
-11.984575505
 11
-13.0328251724
 21
-11.9819309827
  0
LWPOLYLINE
  5
3FB
100
AcDbEntity
  8
0
100
AcDbPolyline
 62
7
  6
CONTINUOUS
 90
6
 70
0
 10
-13.0379537648
 20
-11.984575505
 10
-13.0060061116
 20
-11.9688353245
 10
-12.9727271741
 20
-11.9553024332
 10
-12.9383027013
 20
-11.9441198623
 10
-12.9029399629
 20
-11.9354113
 10
-12.8668559606
 20
-11.9292758454
  0
LWPOLYLINE
  5
3FC
100
AcDbEntity
  8
0
100
AcDbPolyline
 62
7
  6
CONTINUOUS
 90
11
 70
0
 10
-13.0328251724
 20
-11.9819309827
 10
-13.0128380278
 20
-11.973617075
 10
-12.9916674452
 20
-11.9678261618
 10
-12.9694317731
 20
-11.9645906157
 10
-12.9462553142
 20
-11.963928524
 10
-12.9222676305
 20
-11.9658435882
 10
-12.8976028189
 20
-11.9703251024
 10
-12.8723987614
 20
-11.977348014
 10
-12.8467963548
 20
-11.9868730632
 10
-12.8209387226
 20
-11.9988470028
 10
-12.7949704152
 20
-12.0132028955
  0
LINE
  5
3FD
100
AcDbEntity
  8
RACCORDO
100
AcDbLine
 62
7
  6
CONTINUOUS
 10
-41.7452806006
 20
27.8526068153
 11
-41.7578344481
 21
27.8598552495
  0
LINE
  5
3FE
100
AcDbEntity
  8
DRAFT
100
AcDbLine
 62
7
  6
CONTINUOUS
 10
-41.5893382489
 20
27.840889982
 11
-41.244025561
 21
27.6415107638
  0
LINE
  5
3FF
100
AcDbEntity
  8
RACCORDO
100
AcDbLine
 62
7
  6
CONTINUOUS
 10
-40.7380514743
 20
27.5293365257
 11
-41.4279536511
 21
27.9276773961
  0
LINE
  5
400
100
AcDbEntity
  8
RACCORDO
100
AcDbLine
 62
7
  6
CONTINUOUS
 10
9.7271237231
 20
-26.2137165191
 11
9.7271237231
 21
-25.7533114677
  0
LINE
  5
401
100
AcDbEntity
  8
0
100
AcDbLine
 62
7
  6
CONTINUOUS
 10
12.7886996525
 20
-26.9114979567
 11
12.7886996525
 21
-27.2268134389
  0
LINE
  5
402
100
AcDbEntity
  8
RACCORDO
100
AcDbLine
 62
7
  6
CONTINUOUS
 10
13.0020315871
 20
-27.7243913362
 11
13.0020315871
 21
-28.1046072756
  0
LWPOLYLINE
  5
403
100
AcDbEntity
  8
0
100
AcDbPolyline
 62
7
  6
CONTINUOUS
 90
12
 70
0
 10
12.7886996525
 20
-26.9114983988
 10
12.788481212
 20
-26.9200306557
 10
12.7860179987
 20
-26.9413576682
 10
12.7808246155
 20
-26.9625339819
 10
12.7729285986
 20
-26.9834338725
 10
12.7623824926
 20
-27.0039242678
 10
12.7492464082
 20
-27.0238983855
 10
12.7335999509
 20
-27.0432432077
 10
12.7155647795
 20
-27.0618252644
 10
12.6952670406
 20
-27.079539493
 10
12.6728233592
 20
-27.0963061271
 10
12.6483695526
 20
-27.1120414752
  0
LINE
  5
404
100
AcDbEntity
  8
ASSI
100
AcDbLine
 62
7
  6
CONTINUOUS
 10
4.6509433454
 20
-21.5367861449
 11
4.7181906546
 21
-21.2858276076
  0
LINE
  5
405
100
AcDbEntity
  8
RACCORDO
100
AcDbLine
 62
7
  6
CONTINUOUS
 10
-6.0701991824
 20
-17.0435876933
 11
-5.5143878333
 21
-16.6998656177
  0
LINE
  5
406
100
AcDbEntity
  8
RACCORDO
100
AcDbLine
 62
7
  6
CONTINUOUS
 10
-5.9176059704
 20
-17.0568973497
 11
-5.3617946213
 21
-16.7131752741
  0
LINE
  5
407
100
AcDbEntity
  8
RACCORDO
100
AcDbLine
 62
7
  6
CONTINUOUS
 10
-7.330162768
 20
-16.7397851953
 11
-6.3948785792
 21
-16.1997656172
  0
LINE
  5
408
100
AcDbEntity
  8
RACCORDO
100
AcDbLine
 62
7
  6
CONTINUOUS
 10
-6.5814762977
 20
-16.7973352619
 11
-6.1827788536
 21
-16.5671331178
  0
LINE
  5
409
100
AcDbEntity
  8
DRAFT
100
AcDbLine
 62
7
  6
CONTINUOUS
 10
-6.6201815908
 20
-16.7749873107
 11
-7.162409717
 21
-17.0552509994
  0
LINE
  5
40A
100
AcDbEntity
  8
RACCORDO
100
AcDbLine
 62
7
  6
CONTINUOUS
 10
-40.8099964119
 20
34.0195587725
 11
-41.244025561
 21
34.2701617635
  0
LINE
  5
40B
100
AcDbEntity
  8
RACCORDO
100
AcDbLine
 62
7
  6
CONTINUOUS
 10
-43.5389954694
 20
39.4580940507
 11
36.2918681656
 21
-6.6352460964
  0
LINE
  5
40C
100
AcDbEntity
  8
RACCORDO
100
AcDbLine
 62
7
  6
CONTINUOUS
 10
-43.6011202557
 20
39.5954151091
 11
36.229743358
 21
-6.4979250258
  0
LWPOLYLINE
  5
40D
100
AcDbEntity
  8
RACCORDO
100
AcDbPolyline
 62
7
  6
CONTINUOUS
 90
24
 70
0
 10
36.2918792229
 20
-6.6352522519
 10
36.294366706
 20
-6.636707851
 10
36.3078651481
 20
-6.6452545521
 10
36.3226592694
 20
-6.6558179308
 10
36.3383863779
 20
-6.6683655463
 10
36.3548294832
 20
-6.6829199034
 10
36.3717543461
 20
-6.6994588924
 10
36.3888162851
 20
-6.7178005355
 10
36.4057656694
 20
-6.737790316
 10
36.4224160517
 20
-6.7593081902
 10
36.4385692078
 20
-6.7821879656
 10
36.4540350087
 20
-6.8062247001
 10
36.4686492113
 20
-6.8312057375
 10
36.4822826464
 20
-6.8569460117
 10
36.4947994837
 20
-6.8832022531
 10
36.5060920327
 20
-6.9097279127
 10
36.5160909798
 20
-6.9363230267
 10
36.5247319273
 20
-6.9627580106
 10
36.5319612779
 20
-6.9887632231
 10
36.5377494404
 20
-7.0140459148
 10
36.542112283
 20
-7.0383970983
 10
36.5450765538
 20
-7.0615528264
 10
36.546692834
 20
-7.0830922056
 10
36.5470973993
 20
-7.0996740751
  0
LINE
  5
40E
100
AcDbEntity
  8
RACCORDO
100
AcDbLine
 62
7
  6
CONTINUOUS
 10
14.183130704
 20
-28.6512122761
 11
14.183130704
 21
-28.627552798
  0
LINE
  5
40F
100
AcDbEntity
  8
DRAFT
100
AcDbLine
 62
7
  6
CONTINUOUS
 10
19.8963227037
 20
-32.5248903076
 11
19.8963227037
 21
-32.0852845605
  0
LINE
  5
410
100
AcDbEntity
  8
RACCORDO
100
AcDbLine
 62
7
  6
CONTINUOUS
 10
1.7874662521
 20
-20.9657695737
 11
1.231654903
 21
-21.3094916494
  0
LINE
  5
411
100
AcDbEntity
  8
RACCORDO
100
AcDbLine
 62
7
  6
CONTINUOUS
 10
2.0418226309
 20
-20.9879310863
 11
1.4860112817
 21
-21.331653162
  0
LINE
  5
412
100
AcDbEntity
  8
DRAFT
100
AcDbLine
 62
7
  6
CONTINUOUS
 10
-1.8419322691
 20
-19.5338885835
 11
-1.7267718727
 21
-19.4650339263
  0
LINE
  5
413
100
AcDbEntity
  8
RACCORDO
100
AcDbLine
 62
7
  6
CONTINUOUS
 10
-3.836930033
 20
-18.258253559
 11
-3.2613705323
 21
-17.9259338186
  0
LINE
  5
414
100
AcDbEntity
  8
0
100
AcDbLine
 62
7
  6
CONTINUOUS
 10
-6.5936028611
 20
-20.3829375086
 11
-6.7350242173
 21
-20.4645924272
  0
LINE
  5
415
100
AcDbEntity
  8
RACCORDO
100
AcDbLine
 62
7
  6
CONTINUOUS
 10
-3.2371269843
 20
-18.7283206408
 11
-2.9078709896
 21
-18.5382129864
  0
LINE
  5
416
100
AcDbEntity
  8
0
100
AcDbLine
 62
7
  6
CONTINUOUS
 10
-6.2569167957
 20
-20.5773358231
 11
-6.3983381519
 21
-20.6589907417
  0
LINE
  5
417
100
AcDbEntity
  8
0
100
AcDbLine
 62
7
  6
CONTINUOUS
 10
-5.6822115166
 20
-20.9091634484
 11
-5.8236328728
 21
-20.9908183671
  0
LINE
  5
418
100
AcDbEntity
  8
0
100
AcDbLine
 62
7
  6
CONTINUOUS
 10
-5.3724867256
 20
-21.087994661
 11
-5.5139080819
 21
-21.1696495797
  0
LINE
  5
419
100
AcDbEntity
  8
RACCORDO
100
AcDbLine
 62
7
  6
CONTINUOUS
 10
-2.2118680416
 20
-19.3202923049
 11
-2.0680913124
 21
-19.2372771383
  0
LINE
  5
41A
100
AcDbEntity
  8
0
100
AcDbLine
 62
7
  6
CONTINUOUS
 10
-5.2574694437
 20
-21.1543013228
 11
-5.3988907999
 21
-21.2359562415
  0
LINE
  5
41B
100
AcDbEntity
  8
0
100
AcDbLine
 62
7
  6
CONTINUOUS
 10
-4.9475332278
 20
-21.3332546095
 11
-5.088954584
 21
-21.4149095281
  0
LINE
  5
41C
100
AcDbEntity
  8
0
100
AcDbLine
 62
7
  6
CONTINUOUS
 10
-4.6466161589
 20
-21.5071032289
 11
-4.7880375151
 21
-21.5887581476
  0
LINE
  5
41D
100
AcDbEntity
  8
0
100
AcDbLine
 62
7
  6
CONTINUOUS
 10
-5.8497611755
 20
-22.5268654413
 11
-5.9911825318
 21
-22.60852036
  0
LINE
  5
41E
100
AcDbEntity
  8
0
100
AcDbLine
 62
7
  6
CONTINUOUS
 10
-4.3369366228
 20
-21.6859083119
 11
-4.478357979
 21
-21.7675632306
  0
LINE
  5
41F
100
AcDbEntity
  8
0
100
AcDbLine
 62
7
  6
CONTINUOUS
 10
-3.7203380953
 20
-22.0419245738
 11
-3.8617594516
 21
-22.1235794925
  0
LINE
  5
420
100
AcDbEntity
  8
0
100
AcDbLine
 62
7
  6
CONTINUOUS
 10
-4.9475332278
 20
-23.0478005507
 11
-5.088954584
 21
-23.1294554694
  0
LINE
  5
421
100
AcDbEntity
  8
0
100
AcDbLine
 62
7
  6
CONTINUOUS
 10
-3.4136870976
 20
-22.2189810167
 11
-3.5551084538
 21
-22.3006359354
  0
LINE
  5
422
100
AcDbEntity
  8
0
100
AcDbLine
 62
7
  6
CONTINUOUS
 10
-4.4841774678
 20
-23.3153363594
 11
-4.625598824
 21
-23.396991278
  0
LINE
  5
423
100
AcDbEntity
  8
0
100
AcDbLine
 62
7
  6
CONTINUOUS
 10
-2.7604455896
 20
-22.5961544763
 11
-2.9018669459
 21
-22.677809395
  0
LINE
  5
424
100
AcDbEntity
  8
0
100
AcDbLine
 62
7
  6
CONTINUOUS
 10
-4.0102327838
 20
-23.58898608
 11
-4.15165414
 21
-23.6706409987
  0
LINE
  5
425
100
AcDbEntity
  8
0
100
AcDbLine
 62
7
  6
CONTINUOUS
 10
-2.4606202936
 20
-22.7692698446
 11
-2.6020416498
 21
-22.8509247633
  0
LINE
  5
426
100
AcDbEntity
  8
0
100
AcDbLine
 62
7
  6
CONTINUOUS
 10
-1.9140346176
 20
-23.1048918964
 11
-2.0554559738
 21
-23.186546815
  0
LINE
  5
427
100
AcDbEntity
  8
0
100
AcDbLine
 62
7
  6
CONTINUOUS
 10
-2.7706781319
 20
-23.6975833311
 11
-2.9120994881
 21
-23.7792382498
  0
LINE
  5
428
100
AcDbEntity
  8
0
100
AcDbLine
 62
7
  6
CONTINUOUS
 10
-3.3453500185
 20
-24.0543022584
 11
-3.4162630876
 21
-24.0952465757
  0
LINE
  5
429
100
AcDbEntity
  8
0
100
AcDbLine
 62
7
  6
CONTINUOUS
 10
-2.9196004768
 20
-24.2187035052
 11
-3.0610218331
 21
-24.3003584238
  0
LINE
  5
42A
100
AcDbEntity
  8
0
100
AcDbLine
 62
7
  6
CONTINUOUS
 10
-1.1491602516
 20
-23.5645711954
 11
-1.2905816079
 21
-23.6462261141
  0
LINE
  5
42B
100
AcDbEntity
  8
ASSI
100
AcDbLine
 62
7
  6
CONTINUOUS
 10
0.9384493887
 20
-18.1459771262
 11
-1.6661269819
 21
-19.5000495261
  0
LWPOLYLINE
  5
42C
100
AcDbEntity
  8
RACCORDO
100
AcDbPolyline
 62
7
  6
CONTINUOUS
 90
16
 70
0
 10
-44.0063430275
 20
39.3390258554
 10
-43.9857072101
 20
39.3281715038
 10
-43.9634133358
 20
39.3184716012
 10
-43.9396544251
 20
39.3100101373
 10
-43.9146361836
 20
39.3028603796
 10
-43.8885752238
 20
39.2970842387
 10
-43.8616971893
 20
39.2927317326
 10
-43.8342347968
 20
39.2898405523
 10
-43.8064258258
 20
39.2884357368
 10
-43.7785110628
 20
39.2885294553
 10
-43.7507322053
 20
39.2901209011
 10
-43.7233297776
 20
39.2931962999
 10
-43.6965410518
 20
39.2977290269
 10
-43.6705979823
 20
39.3036798385
 10
-43.6457251976
 20
39.3109972131
 10
-43.6221380622
 20
39.3196177962
  0
LWPOLYLINE
  5
42D
100
AcDbEntity
  8
RACCORDO
100
AcDbPolyline
 62
7
  6
CONTINUOUS
 90
14
 70
0
 10
-45.1675643859
 20
42.9323556969
 10
-45.2001648725
 20
42.9496824818
 10
-45.2326116293
 20
42.9644958962
 10
-45.2647645494
 20
42.9767333321
 10
-45.2964839855
 20
42.9863436918
 10
-45.3276340659
 20
42.9932859736
 10
-45.3580832758
 20
42.9975294296
 10
-45.387700817
 20
42.9990562281
 10
-45.4163589338
 20
42.9978604934
 10
-45.4439361708
 20
42.9939466687
 10
-45.4703144374
 20
42.9873315686
 10
-45.4953801513
 20
42.978043962
 10
-45.5190264677
 20
42.9661233642
 10
-45.5249172507
 20
42.9626062528
  0
LINE
  5
42E
100
AcDbEntity
  8
RACCORDO
100
AcDbLine
 62
7
  6
CONTINUOUS
 10
-43.5491948796
 20
39.4636423133
 11
-43.5389978898
 21
39.4580956816
  0
LINE
  5
42F
100
AcDbEntity
  8
RACCORDO
100
AcDbLine
 62
7
  6
CONTINUOUS
 10
38.0046173081
 20
-5.5758129298
 11
-45.3759942058
 21
42.5671071538
  0
LINE
  5
430
100
AcDbEntity
  8
RACCORDO
100
AcDbLine
 62
7
  6
CONTINUOUS
 10
38.213047128
 20
-5.2105643867
 11
-45.1675643859
 21
42.9323556969
  0
LINE
  5
431
100
AcDbEntity
  8
RACCORDO
100
AcDbLine
 62
7
  6
CONTINUOUS
 10
39.9075199983
 20
-4.2322002321
 11
-43.5312309558
 21
43.9442888356
  0
LWPOLYLINE
  5
432
100
AcDbEntity
  8
RACCORDO
100
AcDbPolyline
 62
7
  6
CONTINUOUS
 90
25
 70
0
 10
38.0046173081
 20
-5.5758129298
 10
38.0231656335
 20
-5.5872316849
 10
38.0415010017
 20
-5.5998966452
 10
38.0596234128
 20
-5.6138078108
 10
38.0776152428
 20
-5.6290388179
 10
38.0953941157
 20
-5.6455160303
 10
38.1127129029
 20
-5.6630185388
 10
38.1295589854
 20
-5.6815550245
 10
38.1459449821
 20
-5.7011168062
 10
38.1616616221
 20
-5.7214569321
 10
38.1767012628
 20
-5.742587075
 10
38.1910715468
 20
-5.7644955621
 10
38.2045861298
 20
-5.7869004227
 10
38.2172341264
 20
-5.8098097503
 10
38.229026422
 20
-5.8332154515
 10
38.2398093295
 20
-5.8568112759
 10
38.2495680085
 20
-5.8805968019
 10
38.2583172992
 20
-5.9045724511
 10
38.2659480348
 20
-5.928433237
 10
38.2724463265
 20
-5.9521863711
 10
38.277826063
 20
-5.9758246419
 10
38.282019743
 20
-5.9990214287
 10
38.285004866
 20
-6.0216678579
 10
38.2868039324
 20
-6.043872803
 10
38.2874169422
 20
-6.065636264
  0
LWPOLYLINE
  5
433
100
AcDbEntity
  8
RACCORDO
100
AcDbPolyline
 62
7
  6
CONTINUOUS
 90
6
 70
0
 10
36.229743358
 20
-6.4979250258
 10
36.260639875
 20
-6.5172089315
 10
36.290828173
 20
-6.5385872154
 10
36.320308252
 20
-6.5620598774
 10
36.3491716628
 20
-6.5877354089
 10
36.3773268546
 20
-6.6155053185
  0
LWPOLYLINE
  5
434
100
AcDbEntity
  8
RACCORDO
100
AcDbPolyline
 62
7
  6
CONTINUOUS
 90
10
 70
0
 10
36.6349661298
 20
-7.222255379
 10
36.6161668507
 20
-7.2103404071
 10
36.5993670716
 20
-7.1974680964
 10
36.584712252
 20
-7.1837499006
 10
36.5723292795
 20
-7.1693045976
 10
36.562325371
 20
-7.154257261
 10
36.5547871447
 20
-7.1387381768
 10
36.5497798695
 20
-7.1228817158
 10
36.5473469006
 20
-7.1068251699
 10
36.5470981641
 20
-7.099773001
  0
LWPOLYLINE
  5
435
100
AcDbEntity
  8
RACCORDO
100
AcDbPolyline
 62
7
  6
CONTINUOUS
 90
11
 70
0
 10
29.9715838489
 20
-37.8747951897
 10
29.9686941037
 20
-37.8465142793
 10
29.9639251
 20
-37.8198080084
 10
29.9572303716
 20
-37.7945480159
 10
29.9486563848
 20
-37.7708626627
 10
29.9383425376
 20
-37.7491370321
 10
29.9262603889
 20
-37.7294031591
 10
29.9124383799
 20
-37.7116290086
 10
29.8971012328
 20
-37.6961035576
 10
29.8802241796
 20
-37.6828635653
 10
29.8690301566
 20
-37.6758013836
  0
LINE
  5
436
100
AcDbEntity
  8
RACCORDO
100
AcDbLine
 62
7
  6
CONTINUOUS
 10
20.2642490222
 20
-32.2973591532
 11
20.2642490222
 21
-31.7542354814
  0
LINE
  5
437
100
AcDbEntity
  8
ASSI
100
AcDbLine
 62
7
  6
CONTINUOUS
 10
21.1128293408
 20
-29.7860880785
 11
21.1128293408
 21
-30.1872626462
  0
LINE
  5
438
100
AcDbEntity
  8
ASSI
100
AcDbLine
 62
7
  6
CONTINUOUS
 10
21.1642003757
 20
-29.7570456729
 11
21.1642003757
 21
-30.1567353971
  0
LINE
  5
439
100
AcDbEntity
  8
RACCORDO
100
AcDbLine
 62
7
  6
CONTINUOUS
 10
25.6370262998
 20
-35.399894869
 11
25.6370262998
 21
-34.9394898176
  0
LWPOLYLINE
  5
43A
100
AcDbEntity
  8
RACCORDO
100
AcDbPolyline
 62
7
  6
CONTINUOUS
 90
19
 70
0
 10
38.2130471279
 20
-5.2105643867
 10
38.1947800213
 20
-5.2223913871
 10
38.1766764229
 20
-5.2359371685
 10
38.1588710701
 20
-5.2511009154
 10
38.1414964805
 20
-5.2677697707
 10
38.1246819657
 20
-5.285819675
 10
38.1085526688
 20
-5.305116291
 10
38.0932286333
 20
-5.3255160021
 10
38.0788239093
 20
-5.3468669821
 10
38.0654457052
 20
-5.3690103247
 10
38.0531935828
 20
-5.391781239
 10
38.0421587371
 20
-5.4150102389
 10
38.0324233107
 20
-5.4385244017
 10
38.0240597542
 20
-5.4621487184
 10
38.0171303057
 20
-5.4857073668
 10
38.0116865364
 20
-5.5090249815
 10
38.0077689494
 20
-5.5319280151
 10
38.0054066843
 20
-5.5542460288
 10
38.0046173081
 20
-5.5758129298
  0
LINE
  5
43B
100
AcDbEntity
  8
ASSI
100
AcDbLine
 62
7
  6
CONTINUOUS
 10
5.1959132343
 20
-20.6041833921
 11
3.3866193637
 21
-21.7643998656
  0
LWPOLYLINE
  5
43C
100
AcDbEntity
  8
ASSI
100
AcDbPolyline
 62
7
  6
CONTINUOUS
 90
8
 70
0
 10
4.5962561014
 20
-21.6147661148
 10
4.6029488667
 20
-21.6105151891
 10
4.6137445029
 20
-21.6018677909
 10
4.6235788943
 20
-21.5916077072
 10
4.6322374348
 20
-21.5799481768
 10
4.6396485892
 20
-21.5669602795
 10
4.6458838927
 20
-21.5525729355
 10
4.6509433454
 20
-21.5367861449
  0
LINE
  5
43D
100
AcDbEntity
  8
RACCORDO
100
AcDbLine
 62
7
  6
CONTINUOUS
 10
4.8813161098
 20
-22.7852948583
 11
3.9781226675
 21
-23.3438432312
  0
LINE
  5
43E
100
AcDbEntity
  8
RACCORDO
100
AcDbLine
 62
7
  6
CONTINUOUS
 10
5.0339093216
 20
-22.7986045148
 11
4.1307158793
 21
-23.3571528877
  0
LWPOLYLINE
  5
43F
100
AcDbEntity
  8
0
100
AcDbPolyline
 62
7
  6
CONTINUOUS
 90
44
 70
0
 10
-1.0237081702
 20
-24.4244725354
 10
-1.0200099662
 20
-24.422258175
 10
-1.0131831508
 20
-24.4179192099
 10
-1.0063352315
 20
-24.4131995752
 10
-0.9995176466
 20
-24.4079301859
 10
-0.9927253078
 20
-24.4020905691
 10
-0.9859633035
 20
-24.3957011978
 10
-0.9792983362
 20
-24.3886544058
 10
-0.9727298033
 20
-24.3809478376
 10
-0.9662583076
 20
-24.3725838486
 10
-0.9599523594
 20
-24.363461839
 10
-0.9537988063
 20
-24.3535789701
 10
-0.9478108008
 20
-24.3429380806
 10
-0.9420963113
 20
-24.3314470873
 10
-0.9366462508
 20
-24.3191074889
 10
-0.9314697063
 20
-24.3059177866
 10
-0.9267019068
 20
-24.2917814011
 10
-0.9223421315
 20
-24.2767149224
 10
-0.9183911013
 20
-24.2607017605
 10
-0.9149862084
 20
-24.243595565
 10
-0.9121182015
 20
-24.2254061507
 10
-0.909796332
 20
-24.2061237029
 10
-0.9081857462
 20
-24.1855724279
 10
-0.9072591082
 20
-24.1637522009
 10
-0.907043754
 20
-24.1406631466
 10
-0.9077868372
 20
-24.1161298455
 10
-0.9094056703
 20
-24.0901410267
 10
-0.911982941
 20
-24.0627079611
 10
-0.9160138649
 20
-24.0336890419
 10
-0.9215395983
 20
-24.0028348788
 10
-0.9285189851
 20
-23.9703948621
 10
-0.9373237724
 20
-23.9369755551
 10
-0.948149135
 20
-23.9023828933
 10
-0.9607998982
 20
-23.8668109412
 10
-0.9750622853
 20
-23.8314484553
 10
-0.9910889526
 20
-23.7963191697
 10
-1.0087272438
 20
-23.7613993503
 10
-1.0273054139
 20
-23.7278065517
 10
-1.0468961459
 20
-23.6956088889
 10
-1.0674267567
 20
-23.664738247
 10
-1.0880074521
 20
-23.6361078356
 10
-1.108341634
 20
-23.6100220582
 10
-1.1287259005
 20
-23.5861765115
 10
-1.1491602516
 20
-23.5645711954
  0
LINE
  5
440
100
AcDbEntity
  8
ASSI
100
AcDbLine
 62
7
  6
CONTINUOUS
 10
5.2502526183
 20
-20.5726056861
 11
5.2525807737
 21
-20.5712368883
  0
LINE
  5
441
100
AcDbEntity
  8
ASSI
100
AcDbLine
 62
7
  6
CONTINUOUS
 10
5.2029267641
 20
-21.0010842963
 11
3.6472791994
 21
-21.9149015879
  0
LINE
  5
442
100
AcDbEntity
  8
ASSI
100
AcDbLine
 62
7
  6
CONTINUOUS
 10
5.2029267641
 20
-20.5999097286
 11
5.2110029543
 21
-20.5952037505
  0
LINE
  5
443
100
AcDbEntity
  8
ASSI
100
AcDbLine
 62
7
  6
CONTINUOUS
 10
4.596231771
 20
-21.6147781982
 11
3.8636680642
 21
-22.0398418065
  0
LINE
  5
444
100
AcDbEntity
  8
ASSI
100
AcDbLine
 62
7
  6
CONTINUOUS
 10
4.6509433454
 20
-21.5367861449
 11
3.8234465852
 21
-22.0166184286
  0
LINE
  5
445
100
AcDbEntity
  8
0
100
AcDbLine
 62
7
  6
CONTINUOUS
 10
-1.615622828
 20
-24.0198813132
 11
-1.7570441843
 21
-24.1015362319
  0
LINE
  5
446
100
AcDbEntity
  8
0
100
AcDbLine
 62
7
  6
CONTINUOUS
 10
-1.4384975436
 20
-24.1221512325
 11
-1.5799188999
 21
-24.2038061512
  0
LINE
  5
447
100
AcDbEntity
  8
0
100
AcDbLine
 62
7
  6
CONTINUOUS
 10
-2.0554559738
 20
-24.7758607872
 11
-2.1464683071
 21
-24.8284101677
  0
LINE
  5
448
100
AcDbEntity
  8
0
100
AcDbLine
 62
7
  6
CONTINUOUS
 10
-1.2542390803
 20
-24.5382195517
 11
-1.2586260153
 21
-24.540752513
  0
LWPOLYLINE
  5
449
100
AcDbEntity
  8
0
100
AcDbPolyline
 62
7
  6
CONTINUOUS
 90
42
 70
0
 10
-1.1651283268
 20
-24.5061296323
 10
-1.1639691926
 20
-24.5054603162
 10
-1.1568119798
 20
-24.5010318065
 10
-1.1496280112
 20
-24.4961469017
 10
-1.1424249396
 20
-24.4907953067
 10
-1.1352611501
 20
-24.4847756808
 10
-1.1281293543
 20
-24.4780638147
 10
-1.1210368405
 20
-24.4706839178
 10
-1.1140638594
 20
-24.462507277
 10
-1.1072002136
 20
-24.4535288335
 10
-1.1004561005
 20
-24.4437536461
 10
-1.0939423621
 20
-24.4330681789
 10
-1.0876456045
 20
-24.42147173
 10
-1.0815792218
 20
-24.4089650012
 10
-1.0758942374
 20
-24.3954365617
 10
-1.0705854285
 20
-24.3809005724
 10
-1.065658018
 20
-24.3653428724
 10
-1.0612786987
 20
-24.3486095477
 10
-1.0574407666
 20
-24.3307074072
 10
-1.0541509256
 20
-24.311629642
 10
-1.0515959808
 20
-24.2912019118
 10
-1.0497603956
 20
-24.2694081244
 10
-1.0486597066
 20
-24.2462643719
 10
-1.0485273287
 20
-24.2216445912
 10
-1.0492857465
 20
-24.1955743858
 10
-1.0510124755
 20
-24.1680281521
 10
-1.0541734769
 20
-24.1388030166
 10
-1.0586729888
 20
-24.1078894964
 10
-1.0646067731
 20
-24.0752970743
 10
-1.0727280766
 20
-24.0408513255
 10
-1.0833502112
 20
-24.0038590351
 10
-1.0961598649
 20
-23.9650134178
 10
-1.1109703484
 20
-23.9262196938
 10
-1.128193942
 20
-23.8873563639
 10
-1.1474183654
 20
-23.8485449271
 10
-1.1672200881
 20
-23.8120551009
 10
-1.1872996018
 20
-23.7786502458
 10
-1.2079564148
 20
-23.7475670013
 10
-1.2286655224
 20
-23.7187850023
 10
-1.249251923
 20
-23.6922974606
 10
-1.2698906181
 20
-23.6681111646
 10
-1.2905816079
 20
-23.6462261141
  0
LINE
  5
44A
100
AcDbEntity
  8
0
100
AcDbLine
 62
7
  6
CONTINUOUS
 10
-1.1088341401
 20
-24.4735948246
 11
-1.0237204739
 21
-24.4244512604
  0
LINE
  5
44B
100
AcDbEntity
  8
0
100
AcDbLine
 62
7
  6
CONTINUOUS
 10
-1.6053458204
 20
-24.9775379971
 11
-1.7467671766
 21
-25.0591929157
  0
LINE
  5
44C
100
AcDbEntity
  8
0
100
AcDbLine
 62
7
  6
CONTINUOUS
 10
-0.9385539683
 20
-24.8985081642
 11
-1.0799753246
 21
-24.9801630829
  0
LINE
  5
44D
100
AcDbEntity
  8
RACCORDO
100
AcDbLine
 62
7
  6
CONTINUOUS
 10
3.5666872192
 20
-22.5330093713
 11
4.1422467199
 21
-22.2006896309
  0
LINE
  5
44E
100
AcDbEntity
  8
0
100
AcDbLine
 62
7
  6
CONTINUOUS
 10
-0.832599467
 20
-25.4237120567
 11
-0.9740208233
 21
-25.5053669754
  0
LINE
  5
44F
100
AcDbEntity
  8
RACCORDO
100
AcDbLine
 62
7
  6
CONTINUOUS
 10
3.8837040639
 20
-22.8397992431
 11
4.3543464455
 21
-22.5680571315
  0
LINE
  5
450
100
AcDbEntity
  8
RACCORDO
100
AcDbLine
 62
7
  6
CONTINUOUS
 10
38.213047128
 20
-5.2105643867
 11
39.9075199983
 21
-4.2322002321
  0
LINE
  5
451
100
AcDbEntity
  8
SMUSSO
100
AcDbLine
 62
7
  6
CONTINUOUS
 10
55.5698598146
 20
4.7278095663
 11
58.7164849909
 21
6.5446315066
  0
LINE
  5
452
100
AcDbEntity
  8
RACCORDO
100
AcDbLine
 62
7
  6
CONTINUOUS
 10
38.7079464877
 20
-6.0677552216
 11
40.4024193581
 21
-5.089391067
  0
LINE
  5
453
100
AcDbEntity
  8
SMUSSO
100
AcDbLine
 62
7
  6
CONTINUOUS
 10
56.2769665958
 20
3.5030646962
 11
59.423591772
 21
5.3198866365
  0
LINE
  5
454
100
AcDbEntity
  8
ASSI
100
AcDbLine
 62
7
  6
CONTINUOUS
 10
5.2110029543
 20
-20.5952037505
 11
5.2502526183
 21
-20.5726056861
  0
LINE
  5
455
100
AcDbEntity
  8
0
100
AcDbLine
 62
7
  6
CONTINUOUS
 10
-1.1711073023
 20
-24.5094221357
 11
-1.1651283268
 21
-24.5061296323
  0
LWPOLYLINE
  5
456
100
AcDbEntity
  8
0
100
AcDbPolyline
 62
7
  6
CONTINUOUS
 90
11
 70
0
 10
-1.401615412
 20
-24.2376775382
 10
-1.4045129882
 20
-24.239240312
 10
-1.4179961594
 20
-24.2446966268
 10
-1.4327364263
 20
-24.2477322153
 10
-1.4491608279
 20
-24.248395055
 10
-1.4675602012
 20
-24.2466579596
 10
-1.4876437092
 20
-24.2425481153
 10
-1.5089658802
 20
-24.2361950586
 10
-1.5313782237
 20
-24.2276419685
 10
-1.5550292303
 20
-24.216845666
 10
-1.5799188999
 20
-24.2038061512
  0
LINE
  5
457
100
AcDbEntity
  8
ASSI
100
AcDbLine
 62
7
  6
CONTINUOUS
 10
5.2539277471
 20
-20.5704490999
 11
5.2542977633
 21
-20.570251111
  0
LINE
  5
458
100
AcDbEntity
  8
DRAFT
100
AcDbLine
 62
7
  6
CONTINUOUS
 10
3.986420127
 20
-22.8991062106
 11
3.4441920008
 21
-23.1793698993
  0
LWPOLYLINE
  5
459
100
AcDbEntity
  8
RACCORDO
100
AcDbPolyline
 62
7
  6
CONTINUOUS
 90
19
 70
0
 10
38.7079464877
 20
-6.0677552219
 10
38.6885710063
 20
-6.0776624563
 10
38.6677887153
 20
-6.0865686014
 10
38.6457542886
 20
-6.0944073725
 10
38.6226317188
 20
-6.1011204291
 10
38.5985930973
 20
-6.1066578087
 10
38.573817333
 20
-6.1109782991
 10
38.5484888212
 20
-6.1140497448
 10
38.5227960711
 20
-6.1158492862
 10
38.4969303031
 20
-6.1163635302
 10
38.4710840112
 20
-6.1155886486
 10
38.4454495721
 20
-6.1135304081
 10
38.4202178119
 20
-6.1102041335
 10
38.3955765192
 20
-6.1056345874
 10
38.3717090819
 20
-6.0998557843
 10
38.3487931586
 20
-6.0929107486
 10
38.3269993005
 20
-6.0848511821
 10
38.3064896857
 20
-6.0757370741
 10
38.2874169422
 20
-6.065636264
  0
LWPOLYLINE
  5
45A
100
AcDbEntity
  8
0
100
AcDbPolyline
 62
7
  6
CONTINUOUS
 90
7
 70
0
 10
-1.2126238893
 20
-24.5279445522
 10
-1.2058882161
 20
-24.5253042192
 10
-1.1990790193
 20
-24.5224775124
 10
-1.1921834993
 20
-24.5195705759
 10
-1.1852144557
 20
-24.5164772656
 10
-1.1781908826
 20
-24.5130877196
 10
-1.1711073023
 20
-24.5094221357
  0
LWPOLYLINE
  5
45B
100
AcDbEntity
  8
RACCORDO
100
AcDbPolyline
 62
7
  6
CONTINUOUS
 90
12
 70
0
 10
36.3773268546
 20
-6.6155053185
 10
36.4044991756
 20
-6.6450441323
 10
36.4307017093
 20
-6.6763661151
 10
36.4559213722
 20
-6.7094570022
 10
36.4798442624
 20
-6.7439485253
 10
36.5024722784
 20
-6.7798525202
 10
36.5238035218
 20
-6.817157151
 10
36.5435183949
 20
-6.8554586425
 10
36.5616286301
 20
-6.8948130622
 10
36.5781224951
 20
-6.9351643424
 10
36.5926451951
 20
-6.9759405052
 10
36.6051788802
 20
-7.0171775827
  0
LINE
  5
45C
100
AcDbEntity
  8
RACCORDO
100
AcDbLine
 62
7
  6
CONTINUOUS
 10
29.9725943356
 20
-37.9046507394
 11
29.9715838489
 21
-37.8747951897
  0
LINE
  5
45D
100
AcDbEntity
  8
0
100
AcDbLine
 62
7
  6
CONTINUOUS
 10
29.2291647378
 20
-37.2858861116
 11
29.2296764928
 21
-37.3015521407
  0
LINE
  5
45E
100
AcDbEntity
  8
0
100
AcDbLine
 62
7
  6
CONTINUOUS
 10
28.6986022292
 20
-36.0976763065
 11
28.6986022292
 21
-36.4130251608
  0
LINE
  5
45F
100
AcDbEntity
  8
RACCORDO
100
AcDbLine
 62
7
  6
CONTINUOUS
 10
28.9119341638
 20
-36.910694048
 11
28.9119341638
 21
-37.2907856254
  0
LWPOLYLINE
  5
460
100
AcDbEntity
  8
0
100
AcDbPolyline
 62
7
  6
CONTINUOUS
 90
12
 70
0
 10
28.6986022292
 20
-36.0976767487
 10
28.6983837887
 20
-36.1062090056
 10
28.6959205754
 20
-36.1275360181
 10
28.6907271922
 20
-36.1487123318
 10
28.6828311753
 20
-36.1696122224
 10
28.6722850693
 20
-36.1901026177
 10
28.6591489849
 20
-36.2100767353
 10
28.6435025276
 20
-36.2294215576
 10
28.6254673562
 20
-36.2480036143
 10
28.6051696173
 20
-36.2657178429
 10
28.5827259359
 20
-36.282484477
 10
28.5582721293
 20
-36.298219825
  0
LINE
  5
461
100
AcDbEntity
  8
ASSI
100
AcDbLine
 62
7
  6
CONTINUOUS
 10
20.5608459221
 20
-30.7229644948
 11
20.6280932313
 21
-30.4720059575
  0
LINE
  5
462
100
AcDbEntity
  8
RACCORDO
100
AcDbLine
 62
7
  6
CONTINUOUS
 10
10.4308357893
 20
-25.961503428
 11
9.8793400446
 21
-26.3025566692
  0
LINE
  5
463
100
AcDbEntity
  8
RACCORDO
100
AcDbLine
 62
7
  6
CONTINUOUS
 10
10.6895077725
 20
-25.9809961062
 11
10.1336964233
 21
-26.3247181818
  0
LINE
  5
464
100
AcDbEntity
  8
RACCORDO
100
AcDbLine
 62
7
  6
CONTINUOUS
 10
10.430841606
 20
-25.9614998164
 11
10.4353166764
 21
-25.9588249968
  0
LINE
  5
465
100
AcDbEntity
  8
DRAFT
100
AcDbLine
 62
7
  6
CONTINUOUS
 10
14.0679703076
 20
-28.7200669334
 11
14.183130704
 21
-28.6512122761
  0
LINE
  5
466
100
AcDbEntity
  8
RACCORDO
100
AcDbLine
 62
7
  6
CONTINUOUS
 10
8.5797398087
 20
-25.9259635452
 11
9.5150239975
 21
-25.385943967
  0
LINE
  5
467
100
AcDbEntity
  8
RACCORDO
100
AcDbLine
 62
7
  6
CONTINUOUS
 10
9.328426279
 20
-25.9835136118
 11
9.7271237231
 21
-25.7533114677
  0
LINE
  5
468
100
AcDbEntity
  8
RACCORDO
100
AcDbLine
 62
7
  6
CONTINUOUS
 10
10.7869848458
 20
-25.755775506
 11
10.4353167377
 21
-25.9588249614
  0
LINE
  5
469
100
AcDbEntity
  8
0
100
AcDbLine
 62
7
  6
CONTINUOUS
 10
11.0431679271
 20
-25.7770452123
 11
10.6897231804
 21
-25.98112048
  0
LINE
  5
46A
100
AcDbEntity
  8
0
100
AcDbLine
 62
7
  6
CONTINUOUS
 10
12.2948700099
 20
-26.4997623074
 11
11.9414252633
 21
-26.7038375751
  0
LINE
  5
46B
100
AcDbEntity
  8
RACCORDO
100
AcDbLine
 62
7
  6
CONTINUOUS
 10
12.0729725437
 20
-27.4444319088
 11
12.6485320444
 21
-27.1121121685
  0
LINE
  5
46C
100
AcDbEntity
  8
RACCORDO
100
AcDbLine
 62
7
  6
CONTINUOUS
 10
12.6727755923
 20
-27.9144989907
 11
13.0020315871
 21
-27.7243913362
  0
LINE
  5
46D
100
AcDbEntity
  8
RACCORDO
100
AcDbLine
 62
7
  6
CONTINUOUS
 10
13.6980345351
 20
-28.5064706548
 11
13.8418112643
 21
-28.4234554882
  0
LINE
  5
46E
100
AcDbEntity
  8
0
100
AcDbLine
 62
7
  6
CONTINUOUS
 10
10.7869848458
 20
-25.7557755061
 11
10.7968455205
 21
-25.7504870211
  0
LWPOLYLINE
  5
46F
100
AcDbEntity
  8
0
100
AcDbPolyline
 62
7
  6
CONTINUOUS
 90
6
 70
0
 10
10.7869848458
 20
-25.755775506
 10
10.8190016905
 20
-25.7388055919
 10
10.8524707362
 20
-25.7240768559
 10
10.8871995193
 20
-25.7117477976
 10
10.9229614458
 20
-25.7019587577
 10
10.9595379965
 20
-25.6948172889
  0
LINE
  5
470
100
AcDbEntity
  8
ASSI
100
AcDbLine
 62
7
  6
CONTINUOUS
 10
16.8483519654
 20
-27.3321554761
 11
14.2437755948
 21
-28.686227876
  0
LINE
  5
471
100
AcDbEntity
  8
DRAFT
100
AcDbLine
 62
7
  6
CONTINUOUS
 10
9.2897209859
 20
-25.9611656606
 11
8.7474928597
 21
-26.2414293492
  0
LWPOLYLINE
  5
472
100
AcDbEntity
  8
RACCORDO
100
AcDbPolyline
 62
7
  6
CONTINUOUS
 90
3
 70
0
 10
10.4353166764
 20
-25.9588249968
 10
10.4524615633
 20
-25.9501569468
 10
10.4706582876
 20
-25.9433497459
  0
LWPOLYLINE
  5
473
100
AcDbEntity
  8
0
100
AcDbPolyline
 62
7
  6
CONTINUOUS
 90
11
 70
0
 10
10.7968455205
 20
-25.7504870211
 10
10.8175351883
 20
-25.7417709674
 10
10.8394526544
 20
-25.7355557435
 10
10.8624753002
 20
-25.731876121
 10
10.8864743236
 20
-25.7307526856
 10
10.9113154604
 20
-25.7321917226
 10
10.9368597351
 20
-25.7361851812
 10
10.9629642383
 20
-25.7427107197
 10
10.9894829263
 20
-25.7517318304
 10
11.0162674386
 20
-25.7631980441
 10
11.0431679271
 20
-25.7770452123
  0
LINE
  5
474
100
AcDbEntity
  8
SMUSSO
100
AcDbLine
 62
7
  6
CONTINUOUS
 10
54.5698598146
 20
3.6721775699
 11
-58.193570772
 21
68.7803691329
  0
LINE
  5
475
100
AcDbEntity
  8
SMUSSO
100
AcDbLine
 62
7
  6
CONTINUOUS
 10
55.5698598146
 20
4.7278095663
 11
-57.7793572096
 21
70.1742268768
  0
LWPOLYLINE
  5
476
100
AcDbEntity
  8
RACCORDO
100
AcDbPolyline
 62
7
  6
CONTINUOUS
 90
9
 70
0
 10
36.229743358
 20
-6.4979250258
 10
36.2308418433
 20
-6.5221854424
 10
36.2341259045
 20
-6.5449260999
 10
36.2395615274
 20
-6.5659114861
 10
36.2470924148
 20
-6.5849242671
 10
36.2566405705
 20
-6.60176754
 10
36.268107107
 20
-6.616266871
 10
36.281373269
 20
-6.6282721003
 10
36.2918681723
 20
-6.6352461002
  0
LINE
  5
477
100
AcDbEntity
  8
RACCORDO
100
AcDbLine
 62
7
  6
CONTINUOUS
 10
36.5473469035
 20
-44.6216989951
 11
36.5470984279
 21
-44.6148764752
  0
LWPOLYLINE
  5
478
100
AcDbEntity
  8
RACCORDO
100
AcDbPolyline
 62
7
  6
CONTINUOUS
 90
25
 70
0
 10
38.7079464877
 20
-6.0677552216
 10
38.7066506108
 20
-6.0299007166
 10
38.703254892
 20
-5.9909777154
 10
38.6977751694
 20
-5.9511521295
 10
38.6902370199
 20
-5.9105932805
 10
38.680672876
 20
-5.8694747044
 10
38.6691218724
 20
-5.8279734082
 10
38.6556339711
 20
-5.7862667674
 10
38.6402679675
 20
-5.7445327059
 10
38.623088443
 20
-5.7029504638
 10
38.6041690112
 20
-5.6616980025
 10
38.5835913837
 20
-5.6209514698
 10
38.5614432109
 20
-5.5808853864
 10
38.5378190033
 20
-5.5416714773
 10
38.512820179
 20
-5.5034773553
 10
38.4865539658
 20
-5.4664660539
 10
38.4591319714
 20
-5.4307963202
 10
38.4306715755
 20
-5.3966210084
 10
38.4012958594
 20
-5.3640858469
 10
38.3711295883
 20
-5.3333307718
 10
38.3403013389
 20
-5.304487655
 10
38.308944797
 20
-5.277678842
 10
38.2771940206
 20
-5.2530191722
 10
38.2451828755
 20
-5.2306154647
 10
38.213047128
 20
-5.2105643867
  0
LINE
  5
479
100
AcDbEntity
  8
RACCORDO
100
AcDbLine
 62
7
  6
CONTINUOUS
 10
36.5470981641
 20
-7.099773001
 11
36.5470981641
 21
-44.6146467849
  0
LINE
  5
47A
100
AcDbEntity
  8
RACCORDO
100
AcDbLine
 62
7
  6
CONTINUOUS
 10
36.6349661298
 20
-7.222255379
 11
36.6349661298
 21
-44.7371291559
  0
LINE
  5
47B
100
AcDbEntity
  8
RACCORDO
100
AcDbLine
 62
7
  6
CONTINUOUS
 10
38.2874169422
 20
-47.801957049
 11
38.2874169422
 21
-6.065636264
  0
LWPOLYLINE
  5
47C
100
AcDbEntity
  8
RACCORDO
100
AcDbPolyline
 62
7
  6
CONTINUOUS
 90
5
 70
0
 10
36.5470984762
 20
-44.6148764753
 10
36.5469459306
 20
-44.6244610063
 10
36.546106939
 20
-44.6388290417
 10
36.5446603679
 20
-44.6511968081
 10
36.5432165687
 20
-44.6593490429
  0
LWPOLYLINE
  5
47D
100
AcDbEntity
  8
RACCORDO
100
AcDbPolyline
 62
7
  6
CONTINUOUS
 90
22
 70
0
 10
36.6349661298
 20
-44.7371291559
 10
36.6335868019
 20
-44.7760241603
 10
36.629933312
 20
-44.8125332062
 10
36.6240056601
 20
-44.8466562936
 10
36.6157035772
 20
-44.8784987563
 10
36.6051273322
 20
-44.9079552604
 10
36.5925777317
 20
-44.9347098045
 10
36.5780372946
 20
-44.9587120379
 10
36.5615235021
 20
-44.9800123111
 10
36.5433896041
 20
-44.998445675
 10
36.523642112
 20
-45.0139691009
 10
36.5022745145
 20
-45.0266256174
 10
36.4796205285
 20
-45.0363793609
 10
36.4556892245
 20
-45.0432177201
 10
36.430471532
 20
-45.0471533063
 10
36.4042739561
 20
-45.0481880901
 10
36.3771016504
 20
-45.04632145
 10
36.3489494613
 20
-45.0415540075
 10
36.3201084331
 20
-45.0338895987
 10
36.2906755805
 20
-45.023329502
 10
36.2605538888
 20
-45.009872439
 10
36.229743358
 20
-44.9935184096
  0
LWPOLYLINE
  5
47E
100
AcDbEntity
  8
RACCORDO
100
AcDbPolyline
 62
7
  6
CONTINUOUS
 90
13
 70
0
 10
36.229743358
 20
-44.9935184096
 10
36.2308418311
 20
-44.9679895589
 10
36.2341258739
 20
-44.9414566086
 10
36.2395614754
 20
-44.9141943474
 10
36.2470923416
 20
-44.886485117
 10
36.2566404792
 20
-44.8586158881
 10
36.2681070028
 20
-44.8308752884
 10
36.2813731592
 20
-44.8035506136
 10
36.2963015577
 20
-44.7769248517
 10
36.312737592
 20
-44.7512737526
 10
36.3305110424
 20
-44.726862972
 10
36.349437838
 20
-44.7039453201
 10
36.3693219636
 20
-44.6827581438
  0
LINE
  5
47F
100
AcDbEntity
  8
SMUSSO
100
AcDbLine
 62
7
  6
CONTINUOUS
 10
55.5698598146
 20
4.7278095663
 11
54.5698598146
 21
3.6721775699
  0
LINE
  5
480
100
AcDbEntity
  8
ASSI
100
AcDbLine
 62
7
  6
CONTINUOUS
 10
21.105815811
 20
-29.790361742
 11
19.2965219404
 21
-30.9505782155
  0
LWPOLYLINE
  5
481
100
AcDbEntity
  8
ASSI
100
AcDbPolyline
 62
7
  6
CONTINUOUS
 90
8
 70
0
 10
20.5061586781
 20
-30.8009444646
 10
20.5128514434
 20
-30.796693539
 10
20.5236470796
 20
-30.7880461408
 10
20.533481471
 20
-30.7777860571
 10
20.5421400115
 20
-30.7661265267
 10
20.5495511659
 20
-30.7531386293
 10
20.5557864694
 20
-30.7387512854
 10
20.5608459221
 20
-30.7229644948
  0
LINE
  5
482
100
AcDbEntity
  8
RACCORDO
100
AcDbLine
 62
7
  6
CONTINUOUS
 10
17.6973688288
 20
-30.1519479236
 11
17.1415574797
 21
-30.4956699992
  0
LINE
  5
483
100
AcDbEntity
  8
RACCORDO
100
AcDbLine
 62
7
  6
CONTINUOUS
 10
17.9517252076
 20
-30.1741094362
 11
17.3959138584
 21
-30.5178315119
  0
LINE
  5
484
100
AcDbEntity
  8
RACCORDO
100
AcDbLine
 62
7
  6
CONTINUOUS
 10
20.7912186865
 20
-31.9714732081
 11
19.8880252442
 21
-32.5300215811
  0
LINE
  5
485
100
AcDbEntity
  8
RACCORDO
100
AcDbLine
 62
7
  6
CONTINUOUS
 10
20.9438118983
 20
-31.9847828646
 11
20.040618456
 21
-32.5433312376
  0
LINE
  5
486
100
AcDbEntity
  8
ASSI
100
AcDbLine
 62
7
  6
CONTINUOUS
 10
21.160155195
 20
-29.758784036
 11
21.1624833504
 21
-29.7574152382
  0
LINE
  5
487
100
AcDbEntity
  8
ASSI
100
AcDbLine
 62
7
  6
CONTINUOUS
 10
21.1128293408
 20
-30.1872626462
 11
19.5571817761
 21
-31.1010799378
  0
LINE
  5
488
100
AcDbEntity
  8
ASSI
100
AcDbLine
 62
7
  6
CONTINUOUS
 10
21.1128293408
 20
-29.7860880785
 11
21.120905531
 21
-29.7813821003
  0
LINE
  5
489
100
AcDbEntity
  8
ASSI
100
AcDbLine
 62
7
  6
CONTINUOUS
 10
20.5061343477
 20
-30.8009565481
 11
19.7735706409
 21
-31.2260201563
  0
LINE
  5
48A
100
AcDbEntity
  8
ASSI
100
AcDbLine
 62
7
  6
CONTINUOUS
 10
20.5608459221
 20
-30.7229644948
 11
19.7333491618
 21
-31.2027967784
  0
LINE
  5
48B
100
AcDbEntity
  8
RACCORDO
100
AcDbLine
 62
7
  6
CONTINUOUS
 10
19.4765897959
 20
-31.7191877211
 11
20.0521492966
 21
-31.3868679807
  0
LINE
  5
48C
100
AcDbEntity
  8
RACCORDO
100
AcDbLine
 62
7
  6
CONTINUOUS
 10
19.7936066406
 20
-32.025977593
 11
20.2642490222
 21
-31.7542354814
  0
LINE
  5
48D
100
AcDbEntity
  8
ASSI
100
AcDbLine
 62
7
  6
CONTINUOUS
 10
21.120905531
 20
-29.7813821003
 11
21.160155195
 21
-29.758784036
  0
LINE
  5
48E
100
AcDbEntity
  8
ASSI
100
AcDbLine
 62
7
  6
CONTINUOUS
 10
21.1638303238
 20
-29.7566274498
 11
21.16420034
 21
-29.7564294609
  0
LINE
  5
48F
100
AcDbEntity
  8
DRAFT
100
AcDbLine
 62
7
  6
CONTINUOUS
 10
19.8963227037
 20
-32.0852845605
 11
19.3540945775
 21
-32.3655482492
  0
LWPOLYLINE
  5
490
100
AcDbEntity
  8
RACCORDO
100
AcDbPolyline
 62
7
  6
CONTINUOUS
 90
7
 70
0
 10
-43.5709446197
 20
39.4727368743
 10
-43.5725147625
 20
39.4729070785
 10
-43.5718302947
 20
39.4727606273
 10
-43.5690104992
 20
39.4719916976
 10
-43.5642226705
 20
39.4703555564
 10
-43.5575634001
 20
39.4676289039
 10
-43.5491948796
 20
39.4636423133
  0
LINE
  5
491
100
AcDbEntity
  8
SMUSSO
100
AcDbLine
 62
7
  6
CONTINUOUS
 10
58.7164849909
 20
6.5446315066
 11
58.923591772
 21
6.4250901018
  0
LINE
  5
492
100
AcDbEntity
  8
SMUSSO
100
AcDbLine
 62
7
  6
CONTINUOUS
 10
-54.6327320333
 20
71.9910488171
 11
58.7164849909
 21
6.5446315066
  0
LWPOLYLINE
  5
493
100
AcDbEntity
  8
RACCORDO
100
AcDbPolyline
 62
7
  6
CONTINUOUS
 90
6
 70
0
 10
36.6051788802
 20
-7.0171775827
 10
36.6157414002
 20
-7.0588395428
 10
36.6240315098
 20
-7.1002463099
 10
36.6299487936
 20
-7.1411711925
 10
36.6335936669
 20
-7.1818408822
 10
36.6349661298
 20
-7.222255379
  0
LINE
  5
494
100
AcDbEntity
  8
RACCORDO
100
AcDbLine
 62
7
  6
CONTINUOUS
 10
38.7079464877
 20
-47.8040760066
 11
38.7079464877
 21
-6.0677552216
  0
LINE
  5
495
100
AcDbEntity
  8
RACCORDO
100
AcDbLine
 62
7
  6
CONTINUOUS
 10
40.4024193581
 20
-46.8928433321
 11
40.4024193581
 21
-5.089391067
  0
LWPOLYLINE
  5
496
100
AcDbEntity
  8
RACCORDO
100
AcDbPolyline
 62
7
  6
CONTINUOUS
 90
25
 70
0
 10
38.2874169422
 20
-47.801957049
 10
38.2868027507
 20
-47.8230194938
 10
38.2850027901
 20
-47.8431513966
 10
38.2820170605
 20
-47.8623527574
 10
38.2778229809
 20
-47.880705655
 10
38.2724431322
 20
-47.8981280105
 10
38.2659452574
 20
-47.9143735877
 10
38.2583155281
 20
-47.9294198314
 10
38.2495677726
 20
-47.9432892967
 10
38.2398112188
 20
-47.9558034128
 10
38.2290319358
 20
-47.9669453118
 10
38.2172438546
 20
-47.9767318614
 10
38.2045979956
 20
-47.9850350945
 10
38.1910819062
 20
-47.9918352518
 10
38.176708039
 20
-47.9971520925
 10
38.1616647722
 20
-48.0009169267
 10
38.1459450498
 20
-48.0031085449
 10
38.1295559278
 20
-48.0037481565
 10
38.1127069518
 20
-48.0028306995
 10
38.0953849315
 20
-48.0003325213
 10
38.0776030571
 20
-47.9962772744
 10
38.0596104459
 20
-47.9907308547
 10
38.0414901368
 20
-47.9837152274
 10
38.0231590909
 20
-47.9752084273
 10
38.0046173081
 20
-47.9652104543
  0
LINE
  5
497
100
AcDbEntity
  8
RACCORDO
100
AcDbLine
 62
7
  6
CONTINUOUS
 10
26.340738366
 20
-35.1476817779
 11
25.7892426213
 21
-35.488735019
  0
LINE
  5
498
100
AcDbEntity
  8
RACCORDO
100
AcDbLine
 62
7
  6
CONTINUOUS
 10
26.5994103492
 20
-35.167174456
 11
26.043599
 21
-35.5108965317
  0
LINE
  5
499
100
AcDbEntity
  8
RACCORDO
100
AcDbLine
 62
7
  6
CONTINUOUS
 10
26.3407441827
 20
-35.1476781662
 11
26.3452192531
 21
-35.1450033467
  0
LINE
  5
49A
100
AcDbEntity
  8
RACCORDO
100
AcDbLine
 62
7
  6
CONTINUOUS
 10
24.4896423854
 20
-35.1121418951
 11
25.4249265742
 21
-34.5721223169
  0
LINE
  5
49B
100
AcDbEntity
  8
RACCORDO
100
AcDbLine
 62
7
  6
CONTINUOUS
 10
25.2383288557
 20
-35.1696919616
 11
25.6370262998
 21
-34.9394898176
  0
LINE
  5
49C
100
AcDbEntity
  8
RACCORDO
100
AcDbLine
 62
7
  6
CONTINUOUS
 10
26.6968874225
 20
-34.9419538559
 11
26.3452193144
 21
-35.1450033113
  0
LINE
  5
49D
100
AcDbEntity
  8
0
100
AcDbLine
 62
7
  6
CONTINUOUS
 10
26.9530705038
 20
-34.9632235622
 11
26.5996257571
 21
-35.1672988299
  0
LINE
  5
49E
100
AcDbEntity
  8
0
100
AcDbLine
 62
7
  6
CONTINUOUS
 10
26.6968874225
 20
-34.9419538559
 11
26.7067480972
 21
-34.9366653709
  0
LWPOLYLINE
  5
49F
100
AcDbEntity
  8
0
100
AcDbPolyline
 62
7
  6
CONTINUOUS
 90
6
 70
0
 10
26.6968874225
 20
-34.9419538559
 10
26.7289042672
 20
-34.9249839418
 10
26.7623733129
 20
-34.9102552057
 10
26.797102096
 20
-34.8979261475
 10
26.8328640225
 20
-34.8881371076
 10
26.8694405732
 20
-34.8809956388
  0
LINE
  5
4A0
100
AcDbEntity
  8
DRAFT
100
AcDbLine
 62
7
  6
CONTINUOUS
 10
25.1996235626
 20
-35.1473440105
 11
24.6573954364
 21
-35.4276076991
  0
LWPOLYLINE
  5
4A1
100
AcDbEntity
  8
RACCORDO
100
AcDbPolyline
 62
7
  6
CONTINUOUS
 90
3
 70
0
 10
26.3452192531
 20
-35.1450033467
 10
26.36236414
 20
-35.1363352967
 10
26.3805608642
 20
-35.1295280958
  0
LWPOLYLINE
  5
4A2
100
AcDbEntity
  8
0
100
AcDbPolyline
 62
7
  6
CONTINUOUS
 90
11
 70
0
 10
26.7067480972
 20
-34.9366653709
 10
26.727437765
 20
-34.9279493173
 10
26.7493552311
 20
-34.9217340934
 10
26.7723778769
 20
-34.9180544708
 10
26.7963769003
 20
-34.9169310355
 10
26.8212180371
 20
-34.9183700725
 10
26.8467623118
 20
-34.9223635311
 10
26.872866815
 20
-34.9288890695
 10
26.899385503
 20
-34.9379101803
 10
26.9261700153
 20
-34.949376394
 10
26.9530705038
 20
-34.9632235622
  0
LINE
  5
4A3
100
AcDbEntity
  8
RACCORDO
100
AcDbLine
 62
7
  6
CONTINUOUS
 10
-43.5699975314
 20
39.4722759681
 11
-43.5644462083
 21
39.4726802262
  0
LINE
  5
4A4
100
AcDbEntity
  8
RACCORDO
100
AcDbLine
 62
7
  6
CONTINUOUS
 10
-43.323486142
 20
39.333661666
 11
-43.6221380622
 21
39.3196179391
  0
LINE
  5
4A5
100
AcDbEntity
  8
RACCORDO
100
AcDbLine
 62
7
  6
CONTINUOUS
 10
-43.5644462083
 20
39.4726802262
 11
-43.5643922225
 21
39.4726827494
  0
LINE
  5
4A6
100
AcDbEntity
  8
RACCORDO
100
AcDbLine
 62
7
  6
CONTINUOUS
 10
36.5432165687
 20
-44.6593490429
 11
36.5428425149
 21
-44.6610888287
  0
LWPOLYLINE
  5
4A7
100
AcDbEntity
  8
RACCORDO
100
AcDbPolyline
 62
7
  6
CONTINUOUS
 90
3
 70
0
 10
36.5428425149
 20
-44.6610888287
 10
36.5411227038
 20
-44.6677128825
 10
36.5400515202
 20
-44.6708647002
  0
LINE
  5
4A8
100
AcDbEntity
  8
RACCORDO
100
AcDbLine
 62
7
  6
CONTINUOUS
 10
36.5400515202
 20
-44.6708647002
 11
36.5399560102
 21
-44.6711081872
  0
LINE
  5
4A9
100
AcDbEntity
  8
0
100
AcDbLine
 62
7
  6
CONTINUOUS
 10
30.4675690825
 20
-38.0536429039
 11
30.5736350996
 21
-37.8699311734
  0
LINE
  5
4AA
100
AcDbEntity
  8
0
100
AcDbLine
 62
7
  6
CONTINUOUS
 10
30.821122473
 20
-37.8495056072
 11
30.9271884902
 21
-37.6657938767
  0
LINE
  5
4AB
100
AcDbEntity
  8
0
100
AcDbLine
 62
7
  6
CONTINUOUS
 10
31.1746758636
 20
-37.6453683106
 11
31.2807418808
 21
-37.46165658
  0
LINE
  5
4AC
100
AcDbEntity
  8
0
100
AcDbLine
 62
7
  6
CONTINUOUS
 10
31.5282292542
 20
-37.4412310139
 11
31.6342952714
 21
-37.2575192834
  0
LINE
  5
4AD
100
AcDbEntity
  8
0
100
AcDbLine
 62
7
  6
CONTINUOUS
 10
31.8817826448
 20
-37.2370937172
 11
31.987848662
 21
-37.0533819867
  0
LINE
  5
4AE
100
AcDbEntity
  8
0
100
AcDbLine
 62
7
  6
CONTINUOUS
 10
32.2353360354
 20
-37.0329564206
 11
32.3414020526
 21
-36.84924469
  0
LINE
  5
4AF
100
AcDbEntity
  8
0
100
AcDbLine
 62
7
  6
CONTINUOUS
 10
32.588889426
 20
-36.8288191239
 11
32.6949554432
 21
-36.6451073934
  0
LINE
  5
4B0
100
AcDbEntity
  8
0
100
AcDbLine
 62
7
  6
CONTINUOUS
 10
35.0637631602
 20
-39.8908785739
 11
35.1698291773
 21
-39.7071668433
  0
LINE
  5
4B1
100
AcDbEntity
  8
0
100
AcDbLine
 62
7
  6
CONTINUOUS
 10
35.4173165508
 20
-39.6867412772
 11
35.5233825679
 21
-39.5030295467
  0
LINE
  5
4B2
100
AcDbEntity
  8
0
100
AcDbLine
 62
7
  6
CONTINUOUS
 10
35.7708699414
 20
-39.4826039805
 11
35.8769359585
 21
-39.29889225
  0
LINE
  5
4B3
100
AcDbEntity
  8
0
100
AcDbLine
 62
7
  6
CONTINUOUS
 10
36.1244233319
 20
-39.2784666839
 11
36.2304893491
 21
-39.0947549533
  0
LINE
  5
4B4
100
AcDbEntity
  8
0
100
AcDbLine
 62
7
  6
CONTINUOUS
 10
36.4779767225
 20
-39.0743293872
 11
36.5470981641
 21
-38.9546075386
  0
LINE
  5
4B5
100
AcDbEntity
  8
RACCORDO
100
AcDbLine
 62
7
  6
CONTINUOUS
 10
27.9926953483
 20
-36.6362803352
 11
28.5583807732
 21
-36.2982594272
  0
LINE
  5
4B6
100
AcDbEntity
  8
RACCORDO
100
AcDbLine
 62
7
  6
CONTINUOUS
 10
28.5884326035
 20
-37.103999879
 11
28.9119341638
 21
-36.910694048
  0
LINE
  5
4B7
100
AcDbEntity
  8
RACCORDO
100
AcDbLine
 62
7
  6
CONTINUOUS
 10
33.6095079748
 20
-39.3368367244
 11
33.0438225498
 21
-39.6748576324
  0
LINE
  5
4B8
100
AcDbEntity
  8
0
100
AcDbLine
 62
7
  6
CONTINUOUS
 10
28.2047725866
 20
-35.6859406573
 11
27.85132784
 21
-35.890015925
  0
LINE
  5
4B9
100
AcDbEntity
  8
0
100
AcDbLine
 62
7
  6
CONTINUOUS
 10
30.0364719326
 20
-37.9400796393
 11
30.1536781715
 21
-37.8724062259
  0
LINE
  5
4BA
100
AcDbEntity
  8
0
100
AcDbLine
 62
7
  6
CONTINUOUS
 10
30.2443070763
 20
-38.0600810466
 11
30.3615030653
 21
-37.9924135514
  0
LINE
  5
4BB
100
AcDbEntity
  8
0
100
AcDbLine
 62
7
  6
CONTINUOUS
 10
30.5736350996
 20
-37.8699311734
 11
30.7150564559
 21
-37.7882762547
  0
LINE
  5
4BC
100
AcDbEntity
  8
0
100
AcDbLine
 62
7
  6
CONTINUOUS
 10
30.9271884902
 20
-37.6657938767
 11
31.0686098465
 21
-37.584138958
  0
LINE
  5
4BD
100
AcDbEntity
  8
0
100
AcDbLine
 62
7
  6
CONTINUOUS
 10
31.2807418808
 20
-37.46165658
 11
31.4221632371
 21
-37.3800016614
  0
LINE
  5
4BE
100
AcDbEntity
  8
0
100
AcDbLine
 62
7
  6
CONTINUOUS
 10
31.6342952714
 20
-37.2575192834
 11
31.7757166276
 21
-37.1758643647
  0
LINE
  5
4BF
100
AcDbEntity
  8
0
100
AcDbLine
 62
7
  6
CONTINUOUS
 10
31.987848662
 20
-37.0533819867
 11
32.1292700182
 21
-36.971727068
  0
LINE
  5
4C0
100
AcDbEntity
  8
0
100
AcDbLine
 62
7
  6
CONTINUOUS
 10
32.3414020526
 20
-36.84924469
 11
32.4828234088
 21
-36.7675897714
  0
LINE
  5
4C1
100
AcDbEntity
  8
0
100
AcDbLine
 62
7
  6
CONTINUOUS
 10
32.6949554432
 20
-36.6451073934
 11
32.8363767994
 21
-36.5634524747
  0
LINE
  5
4C2
100
AcDbEntity
  8
0
100
AcDbLine
 62
7
  6
CONTINUOUS
 10
32.7582545421
 20
-36.518333826
 11
30.1536781715
 21
-37.8724062259
  0
LWPOLYLINE
  5
4C3
100
AcDbEntity
  8
0
100
AcDbPolyline
 62
7
  6
CONTINUOUS
 90
11
 70
0
 10
28.9119341638
 20
-37.0931550504
 10
28.9347348814
 20
-37.0833860355
 10
28.960331026
 20
-37.0746659055
 10
28.9854763809
 20
-37.0683750231
 10
29.0100322332
 20
-37.0645496169
 10
29.033861247
 20
-37.0632120079
 10
29.0568329438
 20
-37.0643703392
 10
29.0788212021
 20
-37.0680193468
 10
29.0997027414
 20
-37.0741390852
 10
29.1193623375
 20
-37.082695423
 10
29.1265904367
 20
-37.0866341865
  0
LWPOLYLINE
  5
4C4
100
AcDbEntity
  8
0
100
AcDbPolyline
 62
7
  6
CONTINUOUS
 90
4
 70
0
 10
32.7660438561
 20
-36.5145080906
 10
32.7786562509
 20
-36.5098920463
 10
32.7916868456
 20
-36.5068343763
 10
32.8049888961
 20
-36.5053156565
  0
LINE
  5
4C5
100
AcDbEntity
  8
SMUSSO
100
AcDbLine
 62
7
  6
CONTINUOUS
 10
54.8627530334
 20
3.1648716343
 11
54.5698598146
 21
3.6721775699
  0
LINE
  5
4C6
100
AcDbEntity
  8
SMUSSO
100
AcDbLine
 62
7
  6
CONTINUOUS
 10
56.2769665958
 20
3.5030646962
 11
55.5698598146
 21
4.7278095663
  0
LINE
  5
4C7
100
AcDbEntity
  8
SMUSSO
100
AcDbLine
 62
7
  6
CONTINUOUS
 10
54.8627530334
 20
-71.8455369006
 11
54.8627530334
 21
3.1648716343
  0
LINE
  5
4C8
100
AcDbEntity
  8
SMUSSO
100
AcDbLine
 62
7
  6
CONTINUOUS
 10
56.2769665958
 20
-72.1837299625
 11
56.2769665958
 21
3.5030646962
  0
LINE
  5
4C9
100
AcDbEntity
  8
RACCORDO
100
AcDbLine
 62
7
  6
CONTINUOUS
 10
36.3693254914
 20
-44.6827601807
 11
36.5470981641
 21
-44.4454710281
  0
LWPOLYLINE
  5
4CA
100
AcDbEntity
  8
RACCORDO
100
AcDbPolyline
 62
7
  6
CONTINUOUS
 90
5
 70
0
 10
36.5440968593
 20
-44.6646982292
 10
36.5374409869
 20
-44.6730710211
 10
36.5262587184
 20
-44.6850852412
 10
36.5145946189
 20
-44.6952250061
 10
36.5024973684
 20
-44.7034976628
  0
LINE
  5
4CB
100
AcDbEntity
  8
0
100
AcDbLine
 62
7
  6
CONTINUOUS
 10
36.2746657333
 20
-40.0228433999
 11
36.4693396247
 21
-39.7801612972
  0
LINE
  5
4CC
100
AcDbEntity
  8
0
100
AcDbLine
 62
7
  6
CONTINUOUS
 10
36.5470981641
 20
-39.277044566
 11
35.2064245171
 21
-40.1367565654
  0
LINE
  5
4CD
100
AcDbEntity
  8
RACCORDO
100
AcDbLine
 62
7
  6
CONTINUOUS
 10
33.8616816321
 20
-39.3603188772
 11
33.2959962072
 21
-39.6983397852
  0
LINE
  5
4CE
100
AcDbEntity
  8
0
100
AcDbLine
 62
7
  6
CONTINUOUS
 10
36.5470981641
 20
-39.734484436
 11
35.537179269
 21
-40.3277302138
  0
LINE
  5
4CF
100
AcDbEntity
  8
0
100
AcDbLine
 62
7
  6
CONTINUOUS
 10
36.1248219308
 20
-40.156109821
 11
35.6834732176
 21
-40.4121985062
  0
LINE
  5
4D0
100
AcDbEntity
  8
0
100
AcDbLine
 62
7
  6
CONTINUOUS
 10
36.2746657333
 20
-40.0228433999
 11
35.6432517385
 21
-40.3889751283
  0
LINE
  5
4D1
100
AcDbEntity
  8
0
100
AcDbLine
 62
7
  6
CONTINUOUS
 10
34.8162757868
 20
-39.91130414
 11
34.957697143
 21
-39.8296492213
  0
LINE
  5
4D2
100
AcDbEntity
  8
0
100
AcDbLine
 62
7
  6
CONTINUOUS
 10
35.1698291773
 20
-39.7071668433
 11
35.3112505336
 21
-39.6255119247
  0
LINE
  5
4D3
100
AcDbEntity
  8
0
100
AcDbLine
 62
7
  6
CONTINUOUS
 10
35.5233825679
 20
-39.5030295467
 11
35.6648039242
 21
-39.421374628
  0
LINE
  5
4D4
100
AcDbEntity
  8
0
100
AcDbLine
 62
7
  6
CONTINUOUS
 10
35.8769359585
 20
-39.29889225
 11
36.0183573148
 21
-39.2172373313
  0
LINE
  5
4D5
100
AcDbEntity
  8
0
100
AcDbLine
 62
7
  6
CONTINUOUS
 10
36.2304893491
 20
-39.0947549533
 11
36.3719107054
 21
-39.0131000347
  0
LINE
  5
4D6
100
AcDbEntity
  8
0
100
AcDbLine
 62
7
  6
CONTINUOUS
 10
36.5470981641
 20
-39.0344195331
 11
34.9221709701
 21
-39.9726321299
  0
LINE
  5
4D7
100
AcDbEntity
  8
RACCORDO
100
AcDbLine
 62
7
  6
CONTINUOUS
 10
36.5024973684
 20
-44.7034976628
 11
36.4900149228
 21
-44.7098937024
  0
LWPOLYLINE
  5
4D8
100
AcDbEntity
  8
RACCORDO
100
AcDbPolyline
 62
7
  6
CONTINUOUS
 90
10
 70
0
 10
36.4900149228
 20
-44.7098937024
 10
36.4772153843
 20
-44.7144023283
 10
36.4641586797
 20
-44.7170278473
 10
36.4508683603
 20
-44.717773035
 10
36.4374113796
 20
-44.7166370576
 10
36.4238529334
 20
-44.7136238706
 10
36.4102017474
 20
-44.7087279558
 10
36.3965039572
 20
-44.7019447731
 10
36.3828526011
 20
-44.6932847723
 10
36.3693252661
 20
-44.6827604814
  0
LINE
  5
4D9
100
AcDbEntity
  8
SMUSSO
100
AcDbLine
 62
7
  6
CONTINUOUS
 10
58.7164849909
 20
6.5446315066
 11
59.423591772
 21
5.3198866365
  0
LINE
  5
4DA
100
AcDbEntity
  8
SMUSSO
100
AcDbLine
 62
7
  6
CONTINUOUS
 10
58.923591772
 20
6.4250901018
 11
59.423591772
 21
5.5590646989
  0
LINE
  5
4DB
100
AcDbEntity
  8
SMUSSO
100
AcDbLine
 62
7
  6
CONTINUOUS
 10
59.423591772
 20
-70.3669080222
 11
59.423591772
 21
5.5590646989
  0
LWPOLYLINE
  5
4DC
100
AcDbEntity
  8
RACCORDO
100
AcDbPolyline
 62
7
  6
CONTINUOUS
 90
14
 70
0
 10
38.5555043061
 20
-48.1286213111
 10
38.5614437877
 20
-48.1253070695
 10
38.5835918767
 20
-48.1107915782
 10
38.6041693989
 20
-48.0937303788
 10
38.6230887775
 20
-48.0741961674
 10
38.6402683384
 20
-48.0522728304
 10
38.6556343973
 20
-48.0280542581
 10
38.6691222921
 20
-48.0016435303
 10
38.6806732195
 20
-47.9731542984
 10
38.6902372662
 20
-47.9427087049
 10
38.6977753236
 20
-47.9104359769
 10
38.7032549701
 20
-47.8764742636
 10
38.7066506345
 20
-47.8409700619
 10
38.7079464877
 20
-47.8040760066
  0
LINE
  5
4DD
100
AcDbEntity
  8
RACCORDO
100
AcDbLine
 62
7
  6
CONTINUOUS
 10
38.7079464877
 20
-47.8040760066
 11
40.4024193581
 21
-46.8928433321
  0
LINE
  5
4DE
100
AcDbEntity
  8
RACCORDO
100
AcDbLine
 62
7
  6
CONTINUOUS
 10
38.5553020192
 20
-48.1287302228
 11
40.2512573322
 21
-47.2167003387
  0
LWPOLYLINE
  5
4DF
100
AcDbEntity
  8
RACCORDO
100
AcDbPolyline
 62
7
  6
CONTINUOUS
 90
19
 70
0
 10
38.7079464877
 20
-47.8040760065
 10
38.6885710043
 20
-47.8139832402
 10
38.6677887113
 20
-47.8228893846
 10
38.6457542822
 20
-47.830728155
 10
38.6226317098
 20
-47.8374412108
 10
38.5985930856
 20
-47.8429785896
 10
38.5738173186
 20
-47.8472990791
 10
38.5484888041
 20
-47.8503705238
 10
38.5227960514
 20
-47.8521700642
 10
38.4969302809
 20
-47.8526843071
 10
38.4710839861
 20
-47.8519094244
 10
38.4454495444
 20
-47.8498511827
 10
38.4202177833
 20
-47.8465249071
 10
38.3955764917
 20
-47.8419553603
 10
38.371709057
 20
-47.8361765572
 10
38.3487931381
 20
-47.8292315225
 10
38.326999286
 20
-47.8211719582
 10
38.3064896781
 20
-47.8120578538
 10
38.2874169422
 20
-47.801957049
  0
LINE
  5
4E0
100
AcDbEntity
  8
SMUSSO
100
AcDbLine
 62
7
  6
CONTINUOUS
 10
54.5698598146
 20
-72.0146170888
 11
54.8627530334
 21
-71.8455369006
  0
LINE
  5
4E1
100
AcDbEntity
  8
SMUSSO
100
AcDbLine
 62
7
  6
CONTINUOUS
 10
55.5698598146
 20
-72.591925646
 11
59.423591772
 21
-70.3669080222
  0
ARC
  5
4E2
100
AcDbEntity
  8
0
100
AcDbCircle
 62
7
  6
CONTINUOUS
 10
28.1986022292
 20
-36.0976763065
 40
0.5
100
AcDbArc
 50
0.2703450501
 51
59.7296550152
  0
ARC
  5
4E3
100
AcDbEntity
  8
0
100
AcDbCircle
 62
7
  6
CONTINUOUS
 10
12.2886996525
 20
-26.9114979567
 40
0.5
100
AcDbArc
 50
0.2703450501
 51
59.7296550152
  0
ARC
  5
4E4
100
AcDbEntity
  8
RACCORDO
100
AcDbCircle
 62
7
  6
CONTINUOUS
 10
-40.3200448678
 20
3.4641317869
 40
0.5
100
AcDbArc
 50
0.2703450501
 51
59.729655018
  0
ELLIPSE
  5
4E5
100
AcDbEntity
  8
RACCORDO
100
AcDbEllipse
 62
7
  6
CONTINUOUS
 10
39.9073692128
 20
-46.6068334761
 30
0.0
 11
-0.3501235233
 21
0.606392698
 31
0.0
 40
0.5771558487
 41
-3.1591112814
 42
-2.3563950755
  0
ELLIPSE
  5
4E6
100
AcDbEntity
  8
RACCORDO
100
AcDbEllipse
 62
7
  6
CONTINUOUS
 10
39.9073692128
 20
-4.8037294241
 30
0.0
 11
-0.3500169276
 21
0.6062080092
 31
0.0
 40
0.5775075436
 41
-2.3560905478
 42
-0.7855988075
  0
ELLIPSE
  5
4E7
100
AcDbEntity
  8
RACCORDO
100
AcDbEllipse
 62
7
  6
CONTINUOUS
 10
-43.5310801702
 20
43.3725855202
 30
0.0
 11
-0.3501235233
 21
0.606392698
 31
0.0
 40
0.5771558487
 41
-0.7852941622
 42
0.0175189984
  0
ELLIPSE
  5
4E8
100
AcDbEntity
  8
RACCORDO
100
AcDbEllipse
 62
7
  6
CONTINUOUS
 10
-41.5456701001
 20
3.0421910168
 30
0.0
 11
-0.1500072547
 21
0.2598034325
 31
0.0
 40
0.5775075436
 41
0.7855021057
 42
2.355993846
  0
ELLIPSE
  5
4E9
100
AcDbEntity
  8
RACCORDO
100
AcDbEllipse
 62
7
  6
CONTINUOUS
 10
-41.031602408
 20
3.3390130197
 30
0.0
 11
-0.1500073079
 21
0.2598034018
 31
0.0
 40
0.5789151826
 41
0.7867191038
 42
2.3547763749
  0
ELLIPSE
  5
4EA
100
AcDbEntity
  8
RACCORDO
100
AcDbEllipse
 62
7
  6
CONTINUOUS
 10
-5.3617299989
 20
-16.9581909806
 30
0.0
 11
-0.1500529386
 21
0.2598825848
 31
0.0
 40
0.5771558487
 41
-0.7852941622
 42
0.0172857704
  0
ELLIPSE
  5
4EB
100
AcDbEntity
  8
RACCORDO
100
AcDbEllipse
 62
7
  6
CONTINUOUS
 10
-21.2716325756
 20
-7.7720126308
 30
0.0
 11
-0.1500529386
 21
0.2598825848
 31
0.0
 40
0.5771558487
 41
-0.7852941622
 42
0.0172857704
  0
ELLIPSE
  5
4EC
100
AcDbEntity
  8
RACCORDO
100
AcDbEllipse
 62
7
  6
CONTINUOUS
 10
20.9438765207
 20
-32.2297985712
 30
0.0
 11
-0.1500529386
 21
0.2598825848
 31
0.0
 40
0.5771558487
 41
-0.7852941622
 42
0.0172857759
  0
ELLIPSE
  5
4ED
100
AcDbEntity
  8
RACCORDO
100
AcDbEllipse
 62
7
  6
CONTINUOUS
 10
-26.7858312094
 20
-4.6712635216
 30
0.0
 11
-0.1500529386
 21
0.2598825848
 31
0.0
 40
0.5771558487
 41
-0.7852941622
 42
0.0172857759
  0
ELLIPSE
  5
4EE
100
AcDbEntity
  8
RACCORDO
100
AcDbEllipse
 62
7
  6
CONTINUOUS
 10
-10.8759286327
 20
-13.8574418715
 30
0.0
 11
-0.1500529386
 21
0.2598825848
 31
0.0
 40
0.5771558487
 41
-0.7852941622
 42
0.0172857759
  0
ELLIPSE
  5
4EF
100
AcDbEntity
  8
RACCORDO
100
AcDbEllipse
 62
7
  6
CONTINUOUS
 10
5.033973944
 20
-23.0436202214
 30
0.0
 11
-0.1500529386
 21
0.2598825848
 31
0.0
 40
0.5771558487
 41
-0.7852941622
 42
0.0172857759
  0
ELLIPSE
  5
4F0
100
AcDbEntity
  8
RACCORDO
100
AcDbEllipse
 62
7
  6
CONTINUOUS
 10
33.8616816321
 20
-39.7686162012
 30
0.0
 11
-0.2499740017
 21
0.433071683
 31
0.0
 40
0.5773316645
 41
-0.7852941758
 42
0.0087624365
  0
ELLIPSE
  5
4F1
100
AcDbEntity
  8
RACCORDO
100
AcDbEllipse
 62
7
  6
CONTINUOUS
 10
17.9518329115
 20
-30.5824689472
 30
0.0
 11
-0.2500882309
 21
0.4331376414
 31
0.0
 40
0.5771558487
 41
-0.7852941622
 42
0.0175190048
  0
ELLIPSE
  5
4F2
100
AcDbEntity
  8
RACCORDO
100
AcDbEllipse
 62
7
  6
CONTINUOUS
 10
2.0419303349
 20
-21.3962905973
 30
0.0
 11
-0.2500882309
 21
0.4331376414
 31
0.0
 40
0.5771558487
 41
-0.7852941622
 42
0.0175190048
  0
ELLIPSE
  5
4F3
100
AcDbEntity
  8
RACCORDO
100
AcDbEllipse
 62
7
  6
CONTINUOUS
 10
-13.8679722418
 20
-12.2101122475
 30
0.0
 11
-0.2500882309
 21
0.4331376414
 31
0.0
 40
0.5771558487
 41
-0.7852941622
 42
0.0175190048
  0
ELLIPSE
  5
4F4
100
AcDbEntity
  8
RACCORDO
100
AcDbEllipse
 62
7
  6
CONTINUOUS
 10
-29.7779286746
 20
-3.0239028018
 30
0.0
 11
-0.2499740017
 21
0.433071683
 31
0.0
 40
0.5773316645
 41
-0.7852941758
 42
0.0087624365
  0
ELLIPSE
  5
4F5
100
AcDbEntity
  8
ASSI
100
AcDbEllipse
 62
7
  6
CONTINUOUS
 10
20.9642003757
 20
-30.2731337023
 30
0.0
 11
0.1999995634
 21
0.1164181051
 31
0.0
 40
0.0035896273
 41
-0.7351277754
 42
-0.0020157638
  0
ELLIPSE
  5
4F6
100
AcDbEntity
  8
ASSI
100
AcDbEllipse
 62
7
  6
CONTINUOUS
 10
5.054297799
 20
-21.0869553525
 30
0.0
 11
0.1999995634
 21
0.1164181051
 31
0.0
 40
0.0035896273
 41
-0.7351277754
 42
-0.0020157638
  0
ELLIPSE
  5
4F7
100
AcDbEntity
  8
ASSI
100
AcDbEllipse
 62
7
  6
CONTINUOUS
 10
-10.8556047777
 20
-11.9007770026
 30
0.0
 11
0.1999995634
 21
0.1164181051
 31
0.0
 40
0.0035896273
 41
-0.7351277754
 42
-0.0020157638
  0
ELLIPSE
  5
4F8
100
AcDbEntity
  8
0
100
AcDbEllipse
 62
7
  6
CONTINUOUS
 10
-26.7655073544
 20
-2.7962456804
 30
0.0
 11
0.1999995634
 21
0.1164181051
 31
0.0
 40
0.0035896273
 41
-0.7351277754
 42
-0.0020757973
  0
ELLIPSE
  5
4F9
100
AcDbEntity
  8
RACCORDO
100
AcDbEllipse
 62
7
  6
CONTINUOUS
 10
28.5583807732
 20
-36.7065567513
 30
0.0
 11
-0.2499740017
 21
0.433071683
 31
0.0
 40
0.5773316645
 41
-2.3560905026
 42
-0.7852941758
  0
ELLIPSE
  5
4FA
100
AcDbEntity
  8
RACCORDO
100
AcDbEllipse
 62
7
  6
CONTINUOUS
 10
12.6484243405
 20
-27.5203473056
 30
0.0
 11
-0.2500120911
 21
0.4330057209
 31
0.0
 40
0.5775075436
 41
-2.3560905478
 42
-0.7855988075
  0
ELLIPSE
  5
4FB
100
AcDbEntity
  8
RACCORDO
100
AcDbEllipse
 62
7
  6
CONTINUOUS
 10
20.0520846742
 20
-31.631809063
 30
0.0
 11
-0.1500072547
 21
0.2598034325
 31
0.0
 40
0.5775075436
 41
-2.3560905478
 42
-0.7855988075
  0
ELLIPSE
  5
4FC
100
AcDbEntity
  8
RACCORDO
100
AcDbEllipse
 62
7
  6
CONTINUOUS
 10
-19.1713808129
 20
-9.1479906058
 30
0.0
 11
-0.2500120911
 21
0.4330057209
 31
0.0
 40
0.5775075436
 41
-2.3560905478
 42
-0.7855988075
  0
ELLIPSE
  5
4FD
100
AcDbEntity
  8
RACCORDO
100
AcDbEllipse
 62
7
  6
CONTINUOUS
 10
-3.2614782362
 20
-18.3341689557
 30
0.0
 11
-0.2500120911
 21
0.4330057209
 31
0.0
 40
0.5775075436
 41
-2.3560905478
 42
-0.7855988075
  0
ELLIPSE
  5
4FE
100
AcDbEntity
  8
RACCORDO
100
AcDbEllipse
 62
7
  6
CONTINUOUS
 10
4.1421820975
 20
-22.4456307131
 30
0.0
 11
-0.1500072547
 21
0.2598034325
 31
0.0
 40
0.5775075436
 41
-2.3560905478
 42
-0.7855988075
  0
ELLIPSE
  5
4FF
100
AcDbEntity
  8
RACCORDO
100
AcDbEllipse
 62
7
  6
CONTINUOUS
 10
-40.738083783
 20
35.1710213077
 30
0.0
 11
-0.149984401
 21
0.2598430098
 31
0.0
 40
0.5773316645
 41
-3.1502296861
 42
-2.3560905026
  0
ELLIPSE
  5
500
100
AcDbEntity
  8
RACCORDO
100
AcDbEllipse
 62
7
  6
CONTINUOUS
 10
-40.7381160967
 20
27.2843954434
 30
0.0
 11
-0.1500072547
 21
0.2598034325
 31
0.0
 40
0.5775075436
 41
-2.3560905478
 42
-0.7855988075
  0
ELLIPSE
  5
501
100
AcDbEntity
  8
RACCORDO
100
AcDbEllipse
 62
7
  6
CONTINUOUS
 10
-40.7381160967
 20
17.2086938757
 30
0.0
 11
-0.1500529386
 21
0.2598825848
 31
0.0
 40
0.5771558487
 41
-3.1588791223
 42
-2.3563950755
  0
ELLIPSE
  5
502
100
AcDbEntity
  8
RACCORDO
100
AcDbEllipse
 62
7
  6
CONTINUOUS
 10
-40.738083783
 20
9.3220306965
 30
0.0
 11
-0.149984401
 21
0.2598430098
 31
0.0
 40
0.5773316645
 41
-2.3560905026
 42
-0.7852941758
  0
ELLIPSE
  5
503
100
AcDbEntity
  8
RACCORDO
100
AcDbEllipse
 62
7
  6
CONTINUOUS
 10
-35.0812295335
 20
0.0381566482
 30
0.0
 11
-0.2499740017
 21
0.433071683
 31
0.0
 40
0.5773316645
 41
-2.3560905026
 42
-0.7852941758
  0
ELLIPSE
  5
504
100
AcDbEntity
  8
0
100
AcDbEllipse
 62
7
  6
CONTINUOUS
 10
32.7582545421
 20
-36.6816278813
 30
0.0
 11
0.1082601067
 21
0.1683382284
 31
0.0
 40
0.6067084637
 41
0.7621560142
 42
0.8145158917
  0
ELLIPSE
  5
505
100
AcDbEntity
  8
0
100
AcDbEllipse
 62
7
  6
CONTINUOUS
 10
-30.8813557647
 20
0.0630855182
 30
0.0
 11
0.1082601067
 21
0.1683382284
 31
0.0
 40
0.6067084637
 41
0.7621560142
 42
0.8145158917
  0
ELLIPSE
  5
506
100
AcDbEntity
  8
ASSI
100
AcDbEllipse
 62
7
  6
CONTINUOUS
 10
-14.971453188
 20
-9.1230928317
 30
0.0
 11
0.1082601067
 21
0.1683382284
 31
0.0
 40
0.6067084637
 41
0.7621560142
 42
0.8145158917
  0
ELLIPSE
  5
507
100
AcDbEntity
  8
ASSI
100
AcDbEllipse
 62
7
  6
CONTINUOUS
 10
0.9384493887
 20
-18.3092711816
 30
0.0
 11
0.1082601067
 21
0.1683382284
 31
0.0
 40
0.6067084637
 41
0.7621560142
 42
0.8145158917
  0
ELLIPSE
  5
508
100
AcDbEntity
  8
ASSI
100
AcDbEllipse
 62
7
  6
CONTINUOUS
 10
16.8483519654
 20
-27.4954495314
 30
0.0
 11
0.1082601067
 21
0.1683382284
 31
0.0
 40
0.6067084637
 41
0.7621560142
 42
0.8145158917
  0
ELLIPSE
  5
509
100
AcDbEntity
  8
0
100
AcDbEllipse
 62
7
  6
CONTINUOUS
 10
36.1240526594
 20
-39.8097354776
 30
0.0
 11
0.2123743771
 21
0.3678550612
 31
0.0
 40
0.5773586895
 41
-2.353653638
 42
-1.8309336332
  0
ELLIPSE
  5
50A
100
AcDbEntity
  8
0
100
AcDbEllipse
 62
7
  6
CONTINUOUS
 10
-27.5155576474
 20
-3.0650220781
 30
0.0
 11
0.2123743771
 21
0.3678550612
 31
0.0
 40
0.5773586895
 41
-2.195063028
 42
-1.8309336332
  0
ELLIPSE
  5
50B
100
AcDbEntity
  8
RACCORDO
100
AcDbEllipse
 62
7
  6
CONTINUOUS
 10
9.5149593751
 20
-25.6308850493
 30
0.0
 11
-0.1500072547
 21
0.2598034325
 31
0.0
 40
0.5775075436
 41
-2.3560905478
 42
-0.7855988075
  0
ELLIPSE
  5
50C
100
AcDbEntity
  8
RACCORDO
100
AcDbEllipse
 62
7
  6
CONTINUOUS
 10
-6.3949432016
 20
-16.4447066994
 30
0.0
 11
-0.1500072547
 21
0.2598034325
 31
0.0
 40
0.5775075436
 41
-2.3560905478
 42
-0.7855988075
  0
ELLIPSE
  5
50D
100
AcDbEntity
  8
RACCORDO
100
AcDbEllipse
 62
7
  6
CONTINUOUS
 10
25.4248619518
 20
-34.8170633992
 30
0.0
 11
-0.1500072547
 21
0.2598034325
 31
0.0
 40
0.5775075436
 41
-2.3560905478
 42
-0.7855988075
  0
ELLIPSE
  5
50E
100
AcDbEntity
  8
RACCORDO
100
AcDbEllipse
 62
7
  6
CONTINUOUS
 10
-40.8100610343
 20
10.6382420022
 30
0.0
 11
-0.1500529386
 21
0.2598825848
 31
0.0
 40
0.5771558487
 41
-3.1588791223
 42
-2.3563950755
  0
ELLIPSE
  5
50F
100
AcDbEntity
  8
RACCORDO
100
AcDbEllipse
 62
7
  6
CONTINUOUS
 10
-40.8100610343
 20
15.8122716008
 30
0.0
 11
-0.1500072547
 21
0.2598034325
 31
0.0
 40
0.5775075436
 41
-2.3560905478
 42
-0.7855988075
  0
ELLIPSE
  5
510
100
AcDbEntity
  8
RACCORDO
100
AcDbEllipse
 62
7
  6
CONTINUOUS
 10
-40.8100610343
 20
28.6005880916
 30
0.0
 11
-0.1500529386
 21
0.2598825848
 31
0.0
 40
0.5771558487
 41
-3.1588791223
 42
-2.3563950755
  0
ELLIPSE
  5
511
100
AcDbEntity
  8
RACCORDO
100
AcDbEllipse
 62
7
  6
CONTINUOUS
 10
-40.8100610343
 20
33.7746176902
 30
0.0
 11
-0.1500072547
 21
0.2598034325
 31
0.0
 40
0.5775075436
 41
-2.3560905478
 42
-0.7855988075
  0
ELLIPSE
  5
512
100
AcDbEntity
  8
RACCORDO
100
AcDbEllipse
 62
7
  6
CONTINUOUS
 10
24.489577763
 20
-35.3570829773
 30
0.0
 11
-0.1500072547
 21
0.2598034325
 31
0.0
 40
0.5775075436
 41
4.2004504415
 42
5.4975864996
  0
ELLIPSE
  5
513
100
AcDbEntity
  8
RACCORDO
100
AcDbEllipse
 62
7
  6
CONTINUOUS
 10
20.0406830784
 20
-32.7883469441
 30
0.0
 11
-0.1500529386
 21
0.2598825848
 31
0.0
 40
0.5771558487
 41
-0.7852941622
 42
0.6775624163
  0
ELLIPSE
  5
514
100
AcDbEntity
  8
RACCORDO
100
AcDbEllipse
 62
7
  6
CONTINUOUS
 10
4.1307805017
 20
-23.6021685943
 30
0.0
 11
-0.1500529386
 21
0.2598825848
 31
0.0
 40
0.5771558487
 41
-0.7852941622
 42
0.6775624163
  0
ELLIPSE
  5
515
100
AcDbEntity
  8
RACCORDO
100
AcDbEllipse
 62
7
  6
CONTINUOUS
 10
8.5796751863
 20
-26.1709046275
 30
0.0
 11
-0.1500072547
 21
0.2598034325
 31
0.0
 40
0.5775075436
 41
4.2004504415
 42
5.4975864996
  0
ELLIPSE
  5
516
100
AcDbEntity
  8
RACCORDO
100
AcDbEllipse
 62
7
  6
CONTINUOUS
 10
-2.0741539659
 20
-19.6490749745
 30
0.0
 11
0.2435694555
 21
0.4367051162
 31
0.0
 40
0.5671693725
 41
5.4894081695
 42
7.0427512038
  0
ELLIPSE
  5
517
100
AcDbEntity
  8
RACCORDO
100
AcDbEllipse
 62
7
  6
CONTINUOUS
 10
-11.779122075
 20
-14.4159902444
 30
0.0
 11
-0.1500529386
 21
0.2598825848
 31
0.0
 40
0.5771558487
 41
-0.7852941622
 42
0.6775624163
  0
ELLIPSE
  5
518
100
AcDbEntity
  8
RACCORDO
100
AcDbEllipse
 62
7
  6
CONTINUOUS
 10
-7.3302273904
 20
-16.9847262776
 30
0.0
 11
-0.1500072547
 21
0.2598034325
 31
0.0
 40
0.5775075436
 41
4.2004504415
 42
5.4975864996
  0
ELLIPSE
  5
519
100
AcDbEntity
  8
RACCORDO
100
AcDbEllipse
 62
7
  6
CONTINUOUS
 10
-17.9840565426
 20
-10.4628966247
 30
0.0
 11
0.2435694555
 21
0.4367051162
 31
0.0
 40
0.5671693725
 41
5.4894081695
 42
7.0427512038
  0
ELLIPSE
  5
51A
100
AcDbEntity
  8
RACCORDO
100
AcDbEllipse
 62
7
  6
CONTINUOUS
 10
-27.6890246517
 20
-5.2298118945
 30
0.0
 11
-0.1500529386
 21
0.2598825848
 31
0.0
 40
0.5771558487
 41
-0.7852941622
 42
0.6775624163
  0
ELLIPSE
  5
51B
100
AcDbEntity
  8
RACCORDO
100
AcDbEllipse
 62
7
  6
CONTINUOUS
 10
13.8357486108
 20
-28.8352533244
 30
0.0
 11
0.2435694555
 21
0.4367051162
 31
0.0
 40
0.5671693725
 41
5.4894081695
 42
7.0427512038
  0
ELLIPSE
  5
51C
100
AcDbEntity
  8
RACCORDO
100
AcDbEllipse
 62
7
  6
CONTINUOUS
 10
-41.3136755975
 20
16.8991766021
 30
0.0
 11
-0.1500529386
 21
0.2598825848
 31
0.0
 40
0.5771558487
 41
2.6906863621
 42
3.9267902317
  0
ELLIPSE
  5
51D
100
AcDbEntity
  8
RACCORDO
100
AcDbEllipse
 62
7
  6
CONTINUOUS
 10
-41.303769208
 20
34.8558028664
 30
0.0
 11
-0.149984401
 21
0.2598430098
 31
0.0
 40
0.5773316645
 41
2.6420243223
 42
3.9270948046
  0
ELLIPSE
  5
51E
100
AcDbEntity
  8
RACCORDO
100
AcDbEllipse
 62
7
  6
CONTINUOUS
 10
10.1338041273
 20
-26.7330776928
 30
0.0
 11
-0.2500882309
 21
0.4331376414
 31
0.0
 40
0.5771558487
 41
-0.7852941622
 42
0.0175190048
  0
ELLIPSE
  5
51F
100
AcDbEntity
  8
RACCORDO
100
AcDbEllipse
 62
7
  6
CONTINUOUS
 10
12.0728648397
 20
-27.852667046
 30
0.0
 11
-0.2500120911
 21
0.4330057209
 31
0.0
 40
0.5775075436
 41
-1.5846694756
 42
-0.7855988075
  0
ELLIPSE
  5
520
100
AcDbEntity
  8
RACCORDO
100
AcDbEllipse
 62
7
  6
CONTINUOUS
 10
17.3960215624
 20
-30.9261910229
 30
0.0
 11
-0.2500882309
 21
0.4331376414
 31
0.0
 40
0.5771558487
 41
-0.7852941622
 42
0.0175190048
  0
ELLIPSE
  5
521
100
AcDbEntity
  8
RACCORDO
100
AcDbEllipse
 62
7
  6
CONTINUOUS
 10
19.4765251735
 20
-31.9641288034
 30
0.0
 11
-0.1500072547
 21
0.2598034325
 31
0.0
 40
0.5775075436
 41
-1.8385792048
 42
-0.7855988075
  0
ELLIPSE
  5
522
100
AcDbEntity
  8
RACCORDO
100
AcDbEllipse
 62
7
  6
CONTINUOUS
 10
-41.745345223
 20
28.0976225219
 30
0.0
 11
-0.1500529386
 21
0.2598825848
 31
0.0
 40
0.5771558487
 41
2.3562984914
 42
3.9267902317
  0
ELLIPSE
  5
523
100
AcDbEntity
  8
RACCORDO
100
AcDbEllipse
 62
7
  6
CONTINUOUS
 10
-41.745345223
 20
10.1352764325
 30
0.0
 11
-0.1500529386
 21
0.2598825848
 31
0.0
 40
0.5771558487
 41
2.3562984914
 42
3.9267902317
  0
ELLIPSE
  5
524
100
AcDbEntity
  8
RACCORDO
100
AcDbEllipse
 62
7
  6
CONTINUOUS
 10
-21.8274439248
 20
-8.1157347064
 30
0.0
 11
-0.1500529386
 21
0.2598825848
 31
0.0
 40
0.5771558487
 41
-0.7852941622
 42
0.2676862305
  0
ELLIPSE
  5
525
100
AcDbEntity
  8
RACCORDO
100
AcDbEllipse
 62
7
  6
CONTINUOUS
 10
-19.7469403137
 20
-9.4803103462
 30
0.0
 11
-0.2500120911
 21
0.4330057209
 31
0.0
 40
0.5775075436
 41
-1.5846694756
 42
-0.7855988075
  0
ELLIPSE
  5
526
100
AcDbEntity
  8
RACCORDO
100
AcDbEllipse
 62
7
  6
CONTINUOUS
 10
-14.423783591
 20
-12.5538343231
 30
0.0
 11
-0.2500882309
 21
0.4331376414
 31
0.0
 40
0.5771558487
 41
-0.7852941622
 42
0.0175190048
  0
ELLIPSE
  5
527
100
AcDbEntity
  8
RACCORDO
100
AcDbEllipse
 62
7
  6
CONTINUOUS
 10
-12.4847228786
 20
-13.6734236763
 30
0.0
 11
-0.2500120911
 21
0.4330057209
 31
0.0
 40
0.5775075436
 41
-1.5846694784
 42
-0.7855988075
  0
ELLIPSE
  5
528
100
AcDbEntity
  8
RACCORDO
100
AcDbEllipse
 62
7
  6
CONTINUOUS
 10
-5.9175413481
 20
-17.3019130563
 30
0.0
 11
-0.1500529386
 21
0.2598825848
 31
0.0
 40
0.5771558487
 41
-0.7852941622
 42
0.2676862305
  0
ELLIPSE
  5
529
100
AcDbEntity
  8
RACCORDO
100
AcDbEllipse
 62
7
  6
CONTINUOUS
 10
-3.837037737
 20
-18.6664886961
 30
0.0
 11
-0.2500120911
 21
0.4330057209
 31
0.0
 40
0.5775075436
 41
-1.5846694756
 42
-0.7855988075
  0
ELLIPSE
  5
52A
100
AcDbEntity
  8
RACCORDO
100
AcDbEllipse
 62
7
  6
CONTINUOUS
 10
1.4861189857
 20
-21.740012673
 30
0.0
 11
-0.2500882309
 21
0.4331376414
 31
0.0
 40
0.5771558487
 41
-0.7852941622
 42
0.0175190048
  0
ELLIPSE
  5
52B
100
AcDbEntity
  8
RACCORDO
100
AcDbEllipse
 62
7
  6
CONTINUOUS
 10
3.5666225968
 20
-22.7779504535
 30
0.0
 11
-0.1500072547
 21
0.2598034325
 31
0.0
 40
0.5775075436
 41
-1.8385792048
 42
-0.7855988075
  0
ELLIPSE
  5
52C
100
AcDbEntity
  8
RACCORDO
100
AcDbEllipse
 62
7
  6
CONTINUOUS
 10
-41.3136755975
 20
26.952075703
 30
0.0
 11
-0.1500072547
 21
0.2598034325
 31
0.0
 40
0.5775075436
 41
-2.3560905478
 42
-1.1199866802
  0
ELLIPSE
  5
52D
100
AcDbEntity
  8
0
100
AcDbEllipse
 62
7
  6
CONTINUOUS
 10
-26.6238919191
 20
-2.3951207477
 30
0.0
 11
0.0925036689
 21
0.1774691851
 31
0.0
 40
0.5463614449
 41
0.709509901
 42
0.7618697785
  0
ELLIPSE
  5
52E
100
AcDbEntity
  8
RACCORDO
100
AcDbEllipse
 62
7
  6
CONTINUOUS
 10
-30.3436140996
 20
-3.3619237098
 30
0.0
 11
-0.2499740017
 21
0.433071683
 31
0.0
 40
0.5773316645
 41
-0.7852941758
 42
0.0087624365
  0
ELLIPSE
  5
52F
100
AcDbEntity
  8
RACCORDO
100
AcDbEllipse
 62
7
  6
CONTINUOUS
 10
-28.3946254553
 20
-4.4872453264
 30
0.0
 11
-0.2500120911
 21
0.4330057209
 31
0.0
 40
0.5775075436
 41
-1.5846694756
 42
-0.7855988075
  0
ELLIPSE
  5
530
100
AcDbEntity
  8
RACCORDO
100
AcDbEllipse
 62
7
  6
CONTINUOUS
 10
-41.303769208
 20
8.9840097885
 30
0.0
 11
-0.149984401
 21
0.2598430098
 31
0.0
 40
0.5773316645
 41
-2.3560905026
 42
-1.07102002
  0
ELLIPSE
  5
531
100
AcDbEntity
  8
RACCORDO
100
AcDbEllipse
 62
7
  6
CONTINUOUS
 10
-35.6469149585
 20
-0.2998642598
 30
0.0
 11
-0.2499740017
 21
0.433071683
 31
0.0
 40
0.5773316645
 41
-1.5843629629
 42
-0.7852941758
  0
ELLIPSE
  5
532
100
AcDbEntity
  8
RACCORDO
100
AcDbEllipse
 62
7
  6
CONTINUOUS
 10
33.2959962072
 20
-40.1066371093
 30
0.0
 11
-0.2499740017
 21
0.433071683
 31
0.0
 40
0.5773316645
 41
-0.7852941758
 42
0.0087624365
  0
ELLIPSE
  5
533
100
AcDbEntity
  8
RACCORDO
100
AcDbEllipse
 62
7
  6
CONTINUOUS
 10
26.043706704
 20
-35.9192560427
 30
0.0
 11
-0.2500882309
 21
0.4331376414
 31
0.0
 40
0.5771558487
 41
-0.7852941622
 42
0.0175190048
  0
ELLIPSE
  5
534
100
AcDbEntity
  8
RACCORDO
100
AcDbEllipse
 62
7
  6
CONTINUOUS
 10
27.9926953483
 20
-37.0445776593
 30
0.0
 11
-0.2499740017
 21
0.433071683
 31
0.0
 40
0.5773316645
 41
-1.5843629629
 42
-0.7852941758
  0
ELLIPSE
  5
535
100
AcDbEntity
  8
ASSI
100
AcDbEllipse
 62
7
  6
CONTINUOUS
 10
-10.7139893424
 20
-11.5812990976
 30
0.0
 11
0.0925036689
 21
0.1774691851
 31
0.0
 40
0.5463614449
 41
0.709509901
 42
0.7618697785
  0
ELLIPSE
  5
536
100
AcDbEntity
  8
ASSI
100
AcDbEllipse
 62
7
  6
CONTINUOUS
 10
5.1959132343
 20
-20.7674774474
 30
0.0
 11
0.0925036689
 21
0.1774691851
 31
0.0
 40
0.5463614449
 41
0.709509901
 42
0.7618697785
  0
ELLIPSE
  5
537
100
AcDbEntity
  8
ASSI
100
AcDbEllipse
 62
7
  6
CONTINUOUS
 10
21.105815811
 20
-29.9536557973
 30
0.0
 11
0.0925036689
 21
0.1774691851
 31
0.0
 40
0.5463614449
 41
0.709509901
 42
0.7618697785
  0
ELLIPSE
  5
538
100
AcDbEntity
  8
RACCORDO
100
AcDbEllipse
 62
7
  6
CONTINUOUS
 10
-41.745345223
 20
15.2722520226
 30
0.0
 11
-0.1500072547
 21
0.2598034325
 31
0.0
 40
0.5775075436
 41
3.9270947593
 42
5.3671355592
  0
ELLIPSE
  5
539
100
AcDbEntity
  8
RACCORDO
100
AcDbEllipse
 62
7
  6
CONTINUOUS
 10
-41.745345223
 20
33.2345981121
 30
0.0
 11
-0.1500072547
 21
0.2598034325
 31
0.0
 40
0.5775075436
 41
3.9270947593
 42
5.3671355592
  0
ENDSEC
  0
SECTION
  2
OBJECTS
  0
DICTIONARY
  5
C
100
AcDbDictionary
280
0
281
1
  3
ACAD_GROUP
350
D
  3
ACAD_MLINESTYLE
350
17
  3
ACAD_LAYOUT
350
1A
  3
ACAD_PLOTSETTINGS
350
19
  3
ACAD_PLOTSTYLENAME
350
E
  0
DICTIONARY
  5
D
102
{ACAD_REACTORS
330
C
102
}
100
AcDbDictionary
280
0
281
1
  0
ACDBDICTIONARYWDFLT
  5
E
102
{ACAD_REACTORS
330
C
102
}
100
AcDbDictionary
281
1
  3
Normal
350
F
100
AcDbDictionaryWithDefault
340
F
  0
DICTIONARY
  5
17
102
{ACAD_REACTORS
330
C
102
}
100
AcDbDictionary
280
0
281
1
  3
Standard
350
18
  0
DICTIONARY
  5
19
102
{ACAD_REACTORS
330
C
102
}
100
AcDbDictionary
281
1
  0
DICTIONARY
  5
1A
102
{ACAD_REACTORS
330
C
102
}
100
AcDbDictionary
281
1
  3
Model
350
53A
  3
Layout1
350
53B
  0
ACDBPLACEHOLDER
  5
F
102
{ACAD_REACTORS
330
E
102
}
  0
MLINESTYLE
  5
18
102
{ACAD_REACTORS
330
17
102
}
100
AcDbMlineStyle
  2
STANDARD
 70
0
  3

 62
256
 51
90.0
 52
90.0
 71
2
 49
0.5
 62
256
  6
BYLAYER
 49
-0.5
 62
256
  6
BYLAYER
  0
LAYOUT
  5
53A
102
{ACAD_REACTORS
330
1A
102
}
100
AcDbPlotSettings
  1

  2
none_device
  4
ISO_A4_(297.00_x_210.00_MM)
  6

 40
0.0
 41
0.0
 42
0.0
 43
0.0
 44
297.0
 45
210.0
 46
0.0
 47
0.0
 48
0.0
 49
0.0
140
0.0
141
0.0
142
1.0
143
1.0
 70
1024
 72
1
 73
0
 74
0
  7

 75
0
147
1.0
148
0.0
149
0.0
100
AcDbLayout
  1
Model
 70
0
 71
0
 10
0.0
 20
0.0
 11
297.0
 21
210.0
 12
0.0
 22
0.0
 32
0.0
 14
0.0
 24
0.0
 34
0.0
 15
0.0
 25
0.0
 35
0.0
146
0.0
 13
0.0
 23
0.0
 33
0.0
 16
1.0
 26
0.0
 36
0.0
 17
0.0
 27
1.0
 37
0.0
 76
0
330
215
345
0
346
0
  0
LAYOUT
  5
53B
102
{ACAD_REACTORS
330
1A
102
}
100
AcDbPlotSettings
  1

  2
none_device
  4
ISO_A4_(297.00_x_210.00_MM)
  6

 40
0.0
 41
0.0
 42
0.0
 43
0.0
 44
297.0
 45
210.0
 46
0.0
 47
0.0
 48
0.0
 49
0.0
140
0.0
141
0.0
142
1.0
143
1.0
 70
0
 72
1
 73
0
 74
0
  7

 75
0
147
1.0
148
0.0
149
0.0
100
AcDbLayout
  1
Layout1
 70
0
 71
1
 10
0.0
 20
0.0
 11
297.0
 21
210.0
 12
0.0
 22
0.0
 32
0.0
 14
0.0
 24
0.0
 34
0.0
 15
0.0
 25
0.0
 35
0.0
146
0.0
 13
0.0
 23
0.0
 33
0.0
 16
1.0
 26
0.0
 36
0.0
 17
0.0
 27
1.0
 37
0.0
 76
0
330
216
345
0
346
0
  0
ENDSEC
  0
EOF
