  0
SECTION
  2
HEADER
  9
$ACADVER
  1
AC1015
  9
$DWGCODEPAGE
  3
ANSI_1252
  9
$EXTMAX
 10
297.0
 20
210.0
 30
0.0
  9
$EXTMIN
 10
0.0
 20
0.0
 30
0.0
  9
$LIMMIN
 10
0.0
 20
0.0
  9
$LIMMAX
 10
297.0
 20
210.0
  9
$VIEWCTR
 10
148.5
 20
105.0
  9
$VIEWSIZE
 40
210.0
  9
$CLAYER
  8
0
  9
$LTSCALE
 40
16.335
  9
$CELTYPE
  6
BYLAYER
  9
$DIMSCALE
 40
1.0
  9
$DIMASZ
 40
3.0
  9
$DIMEXO
 40
0.5
  9
$DIMDLI
 40
11.286
  9
$DIMEXE
 40
1.5
  9
$DIMCEN
 40
2.673
  9
$DIMLFAC
 40
1.0
  9
$DIMBLK
  1
_FILLED
  9
$DIMTXT
 40
3.0
  9
$DIMTOL
 70
1
  9
$DIMLIM
 70
0
  9
$DIMTFAC
 40
1.0
  9
$DIMTP
 40
0.01
  9
$DIMTM
 40
0.01
  9
$DIMGAP
 40
0.625
  9
$DIMDSEP
 70
44
  9
$PDMODE
 70
3
  9
$PDSIZE
 40
3.0
  9
$HANDSEED
  5
571
  9
$TILEMODE
 70
1
  9
$MEASUREMENT
 70
1
  9
$INSUNITS
 70
4
  0
ENDSEC
  0
SECTION
  2
CLASSES
  0
CLASS
  1
ACDBDICTIONARYWDFLT
  2
AcDbDictionaryWithDefault
  3
AutoCAD 2000
 90
0
280
0
281
0
  0
CLASS
  1
ACDBPLACEHOLDER
  2
AcDbPlaceHolder
  3
AutoCAD 2000
 90
0
280
0
281
0
  0
CLASS
  1
LAYOUT
  2
AcDbLayout
  3
AutoCAD 2000
 90
0
280
0
281
0
  0
ENDSEC
  0
SECTION
  2
TABLES
  0
TABLE
  2
VPORT
  5
8
100
AcDbSymbolTable
 70
2
  0
VPORT
  5
1F4
100
AcDbSymbolTableRecord
100
AcDbViewportTableRecord
  2
*ACTIVE
 70
0
 10
0.0
 20
0.0
 11
1.0
 21
1.0
 12
148.5
 22
105.0
 13
0.0
 23
0.0
 14
1.0
 24
1.0
 15
0.0
 25
0.0
 16
0.0
 26
0.0
 36
1.0
 17
0.0
 27
0.0
 37
0.0
 40
210.0
 41
1.4142857143
 42
50.0
 43
0.0
 44
0.0
 50
0.0
 51
0.0
 71
0
 72
100
 73
1
 74
1
 75
0
 76
0
 77
0
 78
0
  0
ENDTAB
  0
TABLE
  2
LTYPE
  5
5
100
AcDbSymbolTable
 70
6
  0
LTYPE
  5
14
100
AcDbSymbolTableRecord
100
AcDbLinetypeTableRecord
  2
BYBLOCK
 70
0
  3

 72
65
 73
0
 40
0.0
  0
LTYPE
  5
15
100
AcDbSymbolTableRecord
100
AcDbLinetypeTableRecord
  2
BYLAYER
 70
0
  3

 72
65
 73
0
 40
0.0
  0
LTYPE
  5
16
100
AcDbSymbolTableRecord
100
AcDbLinetypeTableRecord
  2
CONTINUOUS
 70
64
  3
Solid line
 72
65
 73
0
 40
0.0
  0
LTYPE
  5
1F5
100
AcDbSymbolTableRecord
100
AcDbLinetypeTableRecord
  2
CENTER
 70
64
  3
____ _ ____ _ ____ _ ____ _ ____ _ ____ _ ____
 72
65
 73
4
 40
0.6
 49
0.375
 74
0
 49
-0.075
 74
0
 49
0.075
 74
0
 49
-0.075
 74
0
  0
LTYPE
  5
1F6
100
AcDbSymbolTableRecord
100
AcDbLinetypeTableRecord
  2
HIDDEN
 70
64
  3
- - - - - - - - - - - - - - - - - - - -
 72
65
 73
2
 40
0.2
 49
0.1
 74
0
 49
-0.1
 74
0
  0
LTYPE
  5
1F7
100
AcDbSymbolTableRecord
100
AcDbLinetypeTableRecord
  2
PHANTOM
 70
64
  3
_____ _ _ _____ _ _ _____ _ _ _____
 72
65
 73
6
 40
0.8
 49
0.45
 74
0
 49
-0.05
 74
0
 49
0.1
 74
0
 49
-0.05
 74
0
 49
0.1
 74
0
 49
-0.05
 74
0
  0
LTYPE
  5
1F8
100
AcDbSymbolTableRecord
100
AcDbLinetypeTableRecord
  2
DOT
 70
64
  3
. . . . . . . . . . . . . . . . . . . .
 72
65
 73
2
 40
0.2
 49
0.1
 74
0
 49
-0.1
 74
0
  0
LTYPE
  5
1F9
100
AcDbSymbolTableRecord
100
AcDbLinetypeTableRecord
  2
DASHED
 70
64
  3
- - - - - - - - - - - - - - - - - - - -
 72
65
 73
2
 40
0.2
 49
0.1
 74
0
 49
-0.1
 74
0
  0
ENDTAB
  0
TABLE
  2
LAYER
  5
2
100
AcDbSymbolTable
 70
36
  0
LAYER
  5
10
100
AcDbSymbolTableRecord
100
AcDbLayerTableRecord
  2
0
 70
0
 62
7
  6
CONTINUOUS
370
-3
390
F
  0
LAYER
  5
1FA
100
AcDbSymbolTableRecord
100
AcDbLayerTableRecord
  2
DEFAULT_1
 70
0
 62
7
  6
CENTER
370
-3
390
F
  0
LAYER
  5
1FB
100
AcDbSymbolTableRecord
100
AcDbLayerTableRecord
  2
DEFAULT_2
 70
0
 62
7
  6
HIDDEN
370
-3
390
F
  0
LAYER
  5
1FC
100
AcDbSymbolTableRecord
100
AcDbLayerTableRecord
  2
DEFAULT_3
 70
0
 62
7
  6
PHANTOM
370
-3
390
F
  0
LAYER
  5
1FD
100
AcDbSymbolTableRecord
100
AcDbLayerTableRecord
  2
ASSI
 70
0
 62
7
  6
CONTINUOUS
370
-3
390
F
  0
LAYER
  5
1FE
100
AcDbSymbolTableRecord
100
AcDbLayerTableRecord
  2
COORDINATE
 70
0
 62
7
  6
CONTINUOUS
370
-3
390
F
  0
LAYER
  5
1FF
100
AcDbSymbolTableRecord
100
AcDbLayerTableRecord
  2
COORD_ORIGINE
 70
0
 62
7
  6
CONTINUOUS
370
-3
390
F
  0
LAYER
  5
200
100
AcDbSymbolTableRecord
100
AcDbLayerTableRecord
  2
COPY_PUBLISH
 70
0
 62
7
  6
CONTINUOUS
370
-3
390
F
  0
LAYER
  5
201
100
AcDbSymbolTableRecord
100
AcDbLayerTableRecord
  2
COSMETIC
 70
0
 62
7
  6
CONTINUOUS
370
-3
390
F
  0
LAYER
  5
202
100
AcDbSymbolTableRecord
100
AcDbLayerTableRecord
  2
COSMETICI
 70
0
 62
7
  6
CONTINUOUS
370
-3
390
F
  0
LAYER
  5
203
100
AcDbSymbolTableRecord
100
AcDbLayerTableRecord
  2
CURVE
 70
0
 62
7
  6
CONTINUOUS
370
-3
390
F
  0
LAYER
  5
204
100
AcDbSymbolTableRecord
100
AcDbLayerTableRecord
  2
DRAFT
 70
0
 62
7
  6
CONTINUOUS
370
-3
390
F
  0
LAYER
  5
205
100
AcDbSymbolTableRecord
100
AcDbLayerTableRecord
  2
IMPORT_IGES
 70
0
 62
7
  6
CONTINUOUS
370
-3
390
F
  0
LAYER
  5
206
100
AcDbSymbolTableRecord
100
AcDbLayerTableRecord
  2
INTFCLR_2
 70
0
 62
7
  6
CONTINUOUS
370
-3
390
F
  0
LAYER
  5
207
100
AcDbSymbolTableRecord
100
AcDbLayerTableRecord
  2
NOTE
 70
0
 62
7
  6
CONTINUOUS
370
-3
390
F
  0
LAYER
  5
208
100
AcDbSymbolTableRecord
100
AcDbLayerTableRecord
  2
PIANI
 70
0
 62
7
  6
CONTINUOUS
370
-3
390
F
  0
LAYER
  5
209
100
AcDbSymbolTableRecord
100
AcDbLayerTableRecord
  2
PIANI_ORIGINE
 70
0
 62
7
  6
CONTINUOUS
370
-3
390
F
  0
LAYER
  5
20A
100
AcDbSymbolTableRecord
100
AcDbLayerTableRecord
  2
PIANI_RIFERIMENTO
 70
0
 62
7
  6
CONTINUOUS
370
-3
390
F
  0
LAYER
  5
20B
100
AcDbSymbolTableRecord
100
AcDbLayerTableRecord
  2
PUNTI
 70
0
 62
7
  6
CONTINUOUS
370
-3
390
F
  0
LAYER
  5
20C
100
AcDbSymbolTableRecord
100
AcDbLayerTableRecord
  2
RACCORDO
 70
0
 62
7
  6
CONTINUOUS
370
-3
390
F
  0
LAYER
  5
20D
100
AcDbSymbolTableRecord
100
AcDbLayerTableRecord
  2
SIMBOLI
 70
0
 62
7
  6
CONTINUOUS
370
-3
390
F
  0
LAYER
  5
20E
100
AcDbSymbolTableRecord
100
AcDbLayerTableRecord
  2
SMUSSO
 70
0
 62
7
  6
CONTINUOUS
370
-3
390
F
  0
LAYER
  5
20F
100
AcDbSymbolTableRecord
100
AcDbLayerTableRecord
  2
SNAPLINE
 70
0
 62
7
  6
CONTINUOUS
370
-3
390
F
  0
LAYER
  5
210
100
AcDbSymbolTableRecord
100
AcDbLayerTableRecord
  2
SUPERFICI
 70
0
 62
7
  6
CONTINUOUS
370
-3
390
F
  0
LAYER
  5
211
100
AcDbSymbolTableRecord
100
AcDbLayerTableRecord
  2
TRASH
 70
0
 62
7
  6
CONTINUOUS
370
-3
390
F
  0
LAYER
  5
212
100
AcDbSymbolTableRecord
100
AcDbLayerTableRecord
  2
XSEC_DATUMS
 70
0
 62
7
  6
CONTINUOUS
370
-3
390
F
  0
ENDTAB
  0
TABLE
  2
STYLE
  5
3
100
AcDbSymbolTable
 70
1
  0
STYLE
  5
11
100
AcDbSymbolTableRecord
100
AcDbTextStyleTableRecord
  2
STANDARD
 70
0
 40
0.0
 41
0.8
 50
0.0
 71
0
 42
0.2
  3
txt
  4

  0
STYLE
  5
213
100
AcDbSymbolTableRecord
100
AcDbTextStyleTableRecord
  2
TEXTSTYLE_1
 70
0
 40
0.0
 41
0.8
 50
0.0
 71
0
 42
0.2
  3
gdt
  4

  0
ENDTAB
  0
TABLE
  2
VIEW
  5
6
100
AcDbSymbolTable
 70
0
  0
ENDTAB
  0
TABLE
  2
UCS
  5
7
100
AcDbSymbolTable
 70
0
  0
ENDTAB
  0
TABLE
  2
APPID
  5
9
100
AcDbSymbolTable
 70
1
  0
APPID
  5
214
100
AcDbSymbolTableRecord
100
AcDbRegAppTableRecord
  2
ACAD
 70
0
  0
ENDTAB
  0
TABLE
  2
BLOCK_RECORD
  5
1
100
AcDbSymbolTable
 70
0
  0
BLOCK_RECORD
  5
215
100
AcDbSymbolTableRecord
100
AcDbBlockTableRecord
  2
*Model_Space
  0
BLOCK_RECORD
  5
216
100
AcDbSymbolTableRecord
100
AcDbBlockTableRecord
  2
*Paper_Space
  0
ENDTAB
  0
TABLE
  2
DIMSTYLE
  5
A
100
AcDbSymbolTable
 70
1
100
AcDbDimStyleTable
 71
0
  0
DIMSTYLE
105
217
100
AcDbSymbolTableRecord
100
AcDbDimStyleTableRecord
  2
STANDARD
 70
0
  3

  4

 40
1.0
 41
3.0
 42
0.5
 43
0.38
 44
1.5
 45
0.0
 46
0.0
 47
0.01
 48
0.01
140
3.0
141
0.09
142
0.0
143
25.4
144
1.0
145
0.0
146
1.0
147
0.625
 71
1.0
 72
0.0
 73
0
 74
0
 75
0
 76
0
 77
1
 78
8
170
0
171
2
172
0
173
0
174
0
175
0
176
0
177
0
178
0
270
2
271
2
272
2
273
2
274
2
275
0
280
0
281
0
282
0
283
1
284
8
285
0
286
0
287
3
288
0
340
11
278
44
  0
ENDTAB
  0
ENDSEC
  0
SECTION
  2
BLOCKS
  0
BLOCK
  5
20
100
AcDbEntity
  8
0
100
AcDbBlockBegin
  2
*Model_Space
 70
0
 10
0.0
 20
0.0
 30
0.0
  3
*Model_Space
  1

  0
ENDBLK
  5
21
100
AcDbEntity
  8
0
100
AcDbBlockEnd
  0
BLOCK
  5
1C
100
AcDbEntity
  8
0
100
AcDbBlockBegin
  2
*Paper_Space
 70
0
 10
0.0
 20
0.0
 30
0.0
  3
*Paper_Space
  1

  0
ENDBLK
  5
1D
100
AcDbEntity
  8
0
100
AcDbBlockEnd
  0
ENDSEC
  0
SECTION
  2
ENTITIES
  0
LWPOLYLINE
  5
218
100
AcDbEntity
  8
SMUSSO
100
AcDbPolyline
 62
7
  6
CONTINUOUS
 90
15
 70
0
 10
-59.8394450683
 20
70.7114785138
 10
-59.853751794
 20
70.7027311073
 10
-59.8810962218
 20
70.6830404666
 10
-59.9066076303
 20
70.6605158358
 10
-59.9301997714
 20
70.6352333881
 10
-59.9517930706
 20
70.607278525
 10
-59.9713150348
 20
70.5767455066
 10
-59.9886990383
 20
70.5437379758
 10
-60.0038848005
 20
70.5083684619
 10
-60.0168192657
 20
70.4707576091
 10
-60.0274603266
 20
70.4310317229
 10
-60.0357755113
 20
70.3893231831
 10
-60.0417378588
 20
70.3457724399
 10
-60.0453260146
 20
70.3005275364
 10
-60.0465278487
 20
70.2537415606
  0
LINE
  5
219
100
AcDbEntity
  8
DRAFT
100
AcDbLine
 62
7
  6
CONTINUOUS
 10
-57.1746943201
 20
71.8686281357
 11
-55.078198086
 21
73.1396297885
  0
LINE
  5
21A
100
AcDbEntity
  8
DRAFT
100
AcDbLine
 62
7
  6
CONTINUOUS
 10
-56.4419854212
 20
71.8021657748
 11
-54.318962922
 21
73.0707612908
  0
LINE
  5
21B
100
AcDbEntity
  8
RACCORDO
100
AcDbLine
 62
7
  6
CONTINUOUS
 10
-59.8394449538
 20
70.7114785798
 11
-58.0716782747
 21
71.7321649051
  0
LINE
  5
21C
100
AcDbEntity
  8
SMUSSO
100
AcDbLine
 62
7
  6
CONTINUOUS
 10
-59.3394210675
 20
70.6619372441
 11
-57.5716541145
 21
71.6826237274
  0
LWPOLYLINE
  5
21D
100
AcDbEntity
  8
DRAFT
100
AcDbPolyline
 62
7
  6
CONTINUOUS
 90
15
 70
0
 10
-55.078198086
 20
73.1396297885
 10
-55.0468320947
 20
73.1571368511
 10
-55.0007421377
 20
73.1778854276
 10
-54.9523452556
 20
73.1941275146
 10
-54.9018052083
 20
73.2058081538
 10
-54.8492930071
 20
73.2128878217
 10
-54.7949863368
 20
73.215342563
 10
-54.7390689539
 20
73.2131640715
 10
-54.6817300652
 20
73.2063597187
 10
-54.6231636873
 20
73.1949525283
 10
-54.5635679903
 20
73.1789810985
 10
-54.5031446272
 20
73.1584994718
 10
-54.4420980517
 20
73.1335769514
 10
-54.3806348259
 20
73.1042978674
 10
-54.3190654263
 20
73.0708204697
  0
LWPOLYLINE
  5
21E
100
AcDbEntity
  8
DRAFT
100
AcDbPolyline
 62
7
  6
CONTINUOUS
 90
15
 70
0
 10
-57.1746943201
 20
71.8686281357
 10
-57.1444241988
 20
71.8855235338
 10
-57.0999445393
 20
71.9055471937
 10
-57.0532385544
 20
71.9212218123
 10
-57.0044642824
 20
71.9324943518
 10
-56.95378676
 20
71.9393266693
 10
-56.9013774638
 20
71.9416956466
 10
-56.8474137304
 20
71.9395932676
 10
-56.792078156
 20
71.9330266463
 10
-56.7355579785
 20
71.9220180019
 10
-56.6780444445
 20
71.9066045843
 10
-56.6197321613
 20
71.8868385476
 10
-56.5608184395
 20
71.8627867737
 10
-56.5015026242
 20
71.8345306463
 10
-56.4419854216
 20
71.802165775
  0
LWPOLYLINE
  5
21F
100
AcDbEntity
  8
SMUSSO
100
AcDbPolyline
 62
7
  6
CONTINUOUS
 90
13
 70
0
 10
-58.0716782747
 20
71.7321649051
 10
-58.0378794887
 20
71.7492035488
 10
-58.0021082458
 20
71.7624463026
 10
-57.9644938051
 20
71.771850398
 10
-57.9251972795
 20
71.777375661
 10
-57.884387022
 20
71.7789985221
 10
-57.8422382759
 20
71.7767121742
 10
-57.7989316523
 20
71.7705266358
 10
-57.7546526168
 20
71.7604686121
 10
-57.7095911481
 20
71.7465815011
 10
-57.6639403541
 20
71.728925106
 10
-57.6178956239
 20
71.7075752851
 10
-57.5717224485
 20
71.6826631787
  0
LINE
  5
220
100
AcDbEntity
  8
SMUSSO
100
AcDbLine
 62
7
  6
CONTINUOUS
 10
-60.0465278487
 20
69.437192374
 11
-59.3394210675
 21
70.6619372441
  0
LINE
  5
221
100
AcDbEntity
  8
DRAFT
100
AcDbLine
 62
7
  6
CONTINUOUS
 10
-56.7584813162
 20
71.2539788048
 11
-56.4419854216
 21
71.802165775
  0
LWPOLYLINE
  5
222
100
AcDbEntity
  8
DRAFT
100
AcDbPolyline
 62
7
  6
CONTINUOUS
 90
9
 70
0
 10
-57.4018281685
 20
71.5845873093
 10
-57.3818738859
 20
71.6310623145
 10
-57.3567101837
 20
71.6788430529
 10
-57.3284513426
 20
71.7230418451
 10
-57.2971929813
 20
71.7635091364
 10
-57.2630408684
 20
71.8001079982
 10
-57.2261105638
 20
71.8327145917
 10
-57.1865270279
 20
71.8612185864
 10
-57.1746943201
 20
71.8686281357
  0
LINE
  5
223
100
AcDbEntity
  8
SMUSSO
100
AcDbLine
 62
7
  6
CONTINUOUS
 10
53.7976639223
 20
-72.5533410043
 11
55.2118774847
 21
-72.5533410043
  0
LINE
  5
224
100
AcDbEntity
  8
DRAFT
100
AcDbLine
 62
7
  6
CONTINUOUS
 10
57.0149997767
 20
-70.6140800864
 11
57.6479915668
 21
-70.6140800858
  0
LINE
  5
225
100
AcDbEntity
  8
SMUSSO
100
AcDbLine
 62
7
  6
CONTINUOUS
 10
-60.0465278487
 20
-6.8211314785
 11
-60.0465278487
 21
70.2537415606
  0
LWPOLYLINE
  5
226
100
AcDbEntity
  8
RACCORDO
100
AcDbPolyline
 62
7
  6
CONTINUOUS
 90
13
 70
0
 10
-45.4586216218
 20
43.8177997393
 10
-45.4837433039
 20
43.8010437567
 10
-45.5144814256
 20
43.7767940305
 10
-45.5435766924
 20
43.7492371944
 10
-45.5707085564
 20
43.7183784229
 10
-45.5954787741
 20
43.6843567248
 10
-45.6174969971
 20
43.647452058
 10
-45.6365386785
 20
43.6078014021
 10
-45.6523678204
 20
43.5656110209
 10
-45.6647571966
 20
43.5212507335
 10
-45.6736066544
 20
43.4749205746
 10
-45.6788369663
 20
43.426683278
 10
-45.680373989
 20
43.3815387055
  0
LWPOLYLINE
  5
227
100
AcDbEntity
  8
RACCORDO
100
AcDbPolyline
 62
7
  6
CONTINUOUS
 90
19
 70
0
 10
-45.1012826468
 20
43.7875408165
 10
-45.1195497504
 20
43.7757138165
 10
-45.1376533458
 20
43.7621680359
 10
-45.1554586959
 20
43.7470042902
 10
-45.1728332831
 20
43.7303354365
 10
-45.1896477959
 20
43.712285534
 10
-45.205777091
 20
43.6929889202
 10
-45.2211011253
 20
43.6725892114
 10
-45.2355058483
 20
43.6512382339
 10
-45.248884052
 20
43.629094894
 10
-45.2611361742
 20
43.6063239828
 10
-45.2721710202
 20
43.5830949862
 10
-45.281906448
 20
43.5595808252
 10
-45.2902700068
 20
43.5359565087
 10
-45.2971994582
 20
43.5123978589
 10
-45.3026432307
 20
43.489080241
 10
-45.3065608209
 20
43.4661772023
 10
-45.3089230888
 20
43.4438591822
 10
-45.3097124669
 20
43.4222922736
  0
LINE
  5
228
100
AcDbEntity
  8
RACCORDO
100
AcDbLine
 62
7
  6
CONTINUOUS
 10
-45.4588238536
 20
43.8176750091
 11
-45.1758383107
 21
43.9926775137
  0
LINE
  5
229
100
AcDbEntity
  8
RACCORDO
100
AcDbLine
 62
7
  6
CONTINUOUS
 10
-45.1012826471
 20
43.7875408166
 11
-44.8197393804
 21
43.961651396
  0
LWPOLYLINE
  5
22A
100
AcDbEntity
  8
RACCORDO
100
AcDbPolyline
 62
7
  6
CONTINUOUS
 90
12
 70
0
 10
-40.7159058435
 20
35.2181641563
 10
-40.6910397895
 20
35.2342185618
 10
-40.6685009125
 20
35.2510905149
 10
-40.6482892125
 20
35.2687800157
 10
-40.6303196066
 20
35.2873923931
 10
-40.6146771777
 20
35.3068223183
 10
-40.6016171746
 20
35.3267538038
 10
-40.5911819521
 20
35.3471951351
 10
-40.5833291553
 20
35.3681380268
 10
-40.5781869689
 20
35.3892416357
 10
-40.575799895
 20
35.4105086103
 10
-40.575603821
 20
35.418697396
  0
LINE
  5
22B
100
AcDbEntity
  8
DRAFT
100
AcDbLine
 62
7
  6
CONTINUOUS
 10
-41.1777438221
 20
34.6202229595
 11
-41.6915527092
 21
34.2907410855
  0
LINE
  5
22C
100
AcDbEntity
  8
RACCORDO
100
AcDbLine
 62
7
  6
CONTINUOUS
 10
-40.7159058435
 20
35.2181641563
 11
-40.9522916613
 21
35.0768285499
  0
LINE
  5
22D
100
AcDbEntity
  8
RACCORDO
100
AcDbLine
 62
7
  6
CONTINUOUS
 10
-40.6730039949
 20
34.9155713516
 11
-41.1794408109
 21
34.6231620507
  0
LINE
  5
22E
100
AcDbEntity
  8
RACCORDO
100
AcDbLine
 62
7
  6
CONTINUOUS
 10
-40.4609042693
 20
34.5482038509
 11
-41.3961884581
 21
34.0081842728
  0
LINE
  5
22F
100
AcDbEntity
  8
RACCORDO
100
AcDbLine
 62
7
  6
CONTINUOUS
 10
-40.9546447567
 20
35.6293330675
 11
-40.3889593317
 21
35.9445515088
  0
LINE
  5
230
100
AcDbEntity
  8
RACCORDO
100
AcDbLine
 62
7
  6
CONTINUOUS
 10
-41.0181104449
 20
35.491224894
 11
-40.4524250199
 21
35.8064433353
  0
LWPOLYLINE
  5
231
100
AcDbEntity
  8
RACCORDO
100
AcDbPolyline
 62
7
  6
CONTINUOUS
 90
5
 70
0
 10
-45.6799066955
 20
1.6198705789
 10
-45.6764433288
 20
1.5710078029
 10
-45.669722222
 20
1.522058066
 10
-45.6598815187
 20
1.4731425065
 10
-45.647065947
 20
1.4245161949
  0
LINE
  5
232
100
AcDbEntity
  8
RACCORDO
100
AcDbLine
 62
7
  6
CONTINUOUS
 10
-45.6803739791
 20
1.6453367326
 11
-45.6799066955
 21
1.6198705789
  0
LWPOLYLINE
  5
233
100
AcDbEntity
  8
RACCORDO
100
AcDbPolyline
 62
7
  6
CONTINUOUS
 90
11
 70
0
 10
-45.6803800667
 20
1.6452004644
 10
-45.6803686374
 20
1.6436884752
 10
-45.6790265898
 20
1.6287651501
 10
-45.6754618426
 20
1.6139641461
 10
-45.6697009376
 20
1.5993956437
 10
-45.6617867619
 20
1.5851680699
 10
-45.6517782269
 20
1.5713873104
 10
-45.6397498479
 20
1.5581559431
 10
-45.6257911694
 20
1.545572442
 10
-45.6100060892
 20
1.5337304469
 10
-45.5925121011
 20
1.5227180833
  0
LWPOLYLINE
  5
234
100
AcDbEntity
  8
RACCORDO
100
AcDbPolyline
 62
7
  6
CONTINUOUS
 90
11
 70
0
 10
-45.6803800667
 20
43.3815212415
 10
-45.6803686372
 20
43.3800092394
 10
-45.6790265874
 20
43.3650859128
 10
-45.6754618375
 20
43.3502849076
 10
-45.6697009297
 20
43.3357164053
 10
-45.6617867518
 20
43.3214888328
 10
-45.6517782151
 20
43.3077080757
 10
-45.6397498359
 20
43.294476712
 10
-45.6257911591
 20
43.2818932156
 10
-45.6100060828
 20
43.2700512259
 10
-45.5925121011
 20
43.2590388682
  0
LINE
  5
235
100
AcDbEntity
  8
RACCORDO
100
AcDbLine
 62
7
  6
CONTINUOUS
 10
-45.6803800667
 20
43.3815212415
 11
-45.6803800667
 21
1.6452004644
  0
LINE
  5
236
100
AcDbEntity
  8
RACCORDO
100
AcDbLine
 62
7
  6
CONTINUOUS
 10
-45.5925121011
 20
43.2590388682
 11
-45.5925121011
 21
1.5227180833
  0
LINE
  5
237
100
AcDbEntity
  8
RACCORDO
100
AcDbLine
 62
7
  6
CONTINUOUS
 10
-43.9400612886
 20
2.6793371982
 11
-43.9400612886
 21
40.1942109752
  0
LINE
  5
238
100
AcDbEntity
  8
RACCORDO
100
AcDbLine
 62
7
  6
CONTINUOUS
 10
-43.5558563234
 20
2.6599289967
 11
-43.5558563234
 21
40.1748030589
  0
LWPOLYLINE
  5
239
100
AcDbEntity
  8
RACCORDO
100
AcDbPolyline
 62
7
  6
CONTINUOUS
 90
25
 70
0
 10
-45.5925121011
 20
43.2590388682
 10
-45.5918979095
 20
43.2801013131
 10
-45.590097949
 20
43.3002332159
 10
-45.5871122193
 20
43.3194345767
 10
-45.5829181397
 20
43.3377874743
 10
-45.5775382911
 20
43.3552098298
 10
-45.5710404162
 20
43.371455407
 10
-45.5634106869
 20
43.3865016507
 10
-45.5546629314
 20
43.400371116
 10
-45.5449063776
 20
43.4128852321
 10
-45.5341270947
 20
43.424027131
 10
-45.5223390135
 20
43.4338136807
 10
-45.5096931545
 20
43.4421169138
 10
-45.4961770651
 20
43.4489170711
 10
-45.4818031979
 20
43.4542339118
 10
-45.466759931
 20
43.4579987459
 10
-45.4510402087
 20
43.4601903641
 10
-45.4346510867
 20
43.4608299758
 10
-45.4178021107
 20
43.4599125188
 10
-45.4004800903
 20
43.4574143406
 10
-45.382698216
 20
43.4533590937
 10
-45.3647056048
 20
43.447812674
 10
-45.3465852957
 20
43.4407970467
 10
-45.3282542498
 20
43.4322902466
 10
-45.3097124669
 20
43.4222922736
  0
LWPOLYLINE
  5
23A
100
AcDbEntity
  8
RACCORDO
100
AcDbPolyline
 62
7
  6
CONTINUOUS
 90
22
 70
0
 10
-43.9400612886
 20
40.1942109752
 10
-43.9386888996
 20
40.2330373756
 10
-43.9350447087
 20
40.2694949371
 10
-43.929128716
 20
40.3035836597
 10
-43.9208405695
 20
40.3354140263
 10
-43.9102806212
 20
40.3648755541
 10
-43.8977499269
 20
40.3916367938
 10
-43.8832310141
 20
40.4156412242
 10
-43.8667413553
 20
40.4369453666
 10
-43.8486344235
 20
40.4553873363
 10
-43.8289199678
 20
40.4709251798
 10
-43.8075882391
 20
40.4836008506
 10
-43.7849634641
 20
40.4933783242
 10
-43.7610527614
 20
40.5002475035
 10
-43.7358490123
 20
40.5042184856
 10
-43.7096550874
 20
40.5052855381
 10
-43.6824780572
 20
40.5034502183
 10
-43.654310851
 20
40.4987109689
 10
-43.6254351281
 20
40.4910573857
 10
-43.5959447745
 20
40.4804860006
 10
-43.5657459041
 20
40.4670002816
 10
-43.5348385169
 20
40.4506002288
  0
LWPOLYLINE
  5
23B
100
AcDbEntity
  8
RACCORDO
100
AcDbPolyline
 62
7
  6
CONTINUOUS
 90
13
 70
0
 10
-43.5348385169
 20
1.955006845
 10
-43.5337400466
 20
1.9805357563
 10
-43.5304559977
 20
2.0070687583
 10
-43.5250203844
 20
2.0343310599
 10
-43.517489504
 20
2.0620403169
 10
-43.5079413527
 20
2.0899095581
 10
-43.4964748177
 20
2.1176501573
 10
-43.4832086543
 20
2.1449748187
 10
-43.4682802553
 20
2.1716005556
 10
-43.4518442265
 20
2.1972516223
 10
-43.4340707878
 20
2.2216623658
 10
-43.415144011
 20
2.2445799768
 10
-43.3952599113
 20
2.2657671108
  0
LWPOLYLINE
  5
23C
100
AcDbEntity
  8
RACCORDO
100
AcDbPolyline
 62
7
  6
CONTINUOUS
 90
12
 70
0
 10
-40.7159058435
 20
28.7680489696
 10
-40.6910368471
 20
28.7841056128
 10
-40.668495769
 20
28.8009796573
 10
-40.648282609
 20
28.8186711032
 10
-40.6303123928
 20
28.8372852623
 10
-40.6146700948
 20
28.8567168227
 10
-40.6016106386
 20
28.8766498488
 10
-40.5911762954
 20
28.8970925923
 10
-40.583324794
 20
28.9180368015
 10
-40.5781842443
 20
28.9391417858
 10
-40.5757990456
 20
28.9604101991
 10
-40.575603761
 20
28.9685818947
  0
LINE
  5
23D
100
AcDbEntity
  8
DRAFT
100
AcDbLine
 62
7
  6
CONTINUOUS
 10
-41.1777438221
 20
28.4966958836
 11
-41.6915527092
 21
28.1672140095
  0
LINE
  5
23E
100
AcDbEntity
  8
RACCORDO
100
AcDbLine
 62
7
  6
CONTINUOUS
 10
-40.9510723491
 20
28.6274423927
 11
-40.7159058435
 21
28.7680489696
  0
LINE
  5
23F
100
AcDbEntity
  8
RACCORDO
100
AcDbLine
 62
7
  6
CONTINUOUS
 10
-41.1766185581
 20
28.0930293644
 11
-40.6010590573
 21
28.4253491048
  0
LINE
  5
240
100
AcDbEntity
  8
RACCORDO
100
AcDbLine
 62
7
  6
CONTINUOUS
 10
-40.9645188325
 20
27.7256618637
 11
-40.3889593317
 21
28.0579816041
  0
LINE
  5
241
100
AcDbEntity
  8
RACCORDO
100
AcDbLine
 62
7
  6
CONTINUOUS
 10
-41.3961884581
 20
28.8710594484
 11
-40.4609042693
 21
29.3740250181
  0
LINE
  5
242
100
AcDbEntity
  8
RACCORDO
100
AcDbLine
 62
7
  6
CONTINUOUS
 10
-41.4609507686
 20
28.7322751046
 11
-40.5256665798
 21
29.2352406744
  0
LWPOLYLINE
  5
243
100
AcDbEntity
  8
RACCORDO
100
AcDbPolyline
 62
7
  6
CONTINUOUS
 90
9
 70
0
 10
-43.5348385169
 20
40.4506002288
 10
-43.5337400438
 20
40.4263398673
 10
-43.5304560009
 20
40.4035992474
 10
-43.5250203995
 20
40.3826138826
 10
-43.5174895332
 20
40.3636011077
 10
-43.5079413957
 20
40.3467578287
 10
-43.4964748721
 20
40.332258483
 10
-43.4832087156
 20
40.3202532332
 10
-43.4727162528
 20
40.3132806269
  0
LWPOLYLINE
  5
244
100
AcDbEntity
  8
RACCORDO
100
AcDbPolyline
 62
7
  6
CONTINUOUS
 90
7
 70
0
 10
-42.0475392604
 20
3.8204013738
 10
-42.0475217239
 20
3.8185203524
 10
-42.0474673444
 20
3.8166384149
 10
-42.0473761219
 20
3.8147555614
 10
-42.0472480565
 20
3.8128717917
 10
-42.0470831482
 20
3.8109871059
 10
-42.0468813969
 20
3.809101504
  0
LINE
  5
245
100
AcDbEntity
  8
RACCORDO
100
AcDbLine
 62
7
  6
CONTINUOUS
 10
-42.0475392604
 20
39.4904012931
 11
-42.0475392604
 21
3.8204013738
  0
LINE
  5
246
100
AcDbEntity
  8
RACCORDO
100
AcDbLine
 62
7
  6
CONTINUOUS
 10
-41.9869982934
 20
39.4554456975
 11
-41.9869982934
 21
3.8492165431
  0
LINE
  5
247
100
AcDbEntity
  8
RACCORDO
100
AcDbLine
 62
7
  6
CONTINUOUS
 10
-41.6915527092
 20
4.019802555
 11
-41.6915527092
 21
39.28485912
  0
LINE
  5
248
100
AcDbEntity
  8
RACCORDO
100
AcDbLine
 62
7
  6
CONTINUOUS
 10
-41.3961884581
 20
34.0081842728
 11
-41.3961884581
 21
28.8710594484
  0
LINE
  5
249
100
AcDbEntity
  8
RACCORDO
100
AcDbLine
 62
7
  6
CONTINUOUS
 10
-41.3961884581
 20
16.0458381833
 11
-41.3961884581
 21
10.9087133589
  0
LINE
  5
24A
100
AcDbEntity
  8
RACCORDO
100
AcDbLine
 62
7
  6
CONTINUOUS
 10
-41.1777438221
 20
38.9881923081
 11
-41.1777438221
 21
34.6202229595
  0
LINE
  5
24B
100
AcDbEntity
  8
DRAFT
100
AcDbLine
 62
7
  6
CONTINUOUS
 10
-41.1777438221
 20
28.4966958836
 11
-41.1777438221
 21
16.6578768701
  0
LINE
  5
24C
100
AcDbEntity
  8
RACCORDO
100
AcDbLine
 62
7
  6
CONTINUOUS
 10
-41.1777438221
 20
10.5343497941
 11
-41.1777438221
 21
4.3161767785
  0
LINE
  5
24D
100
AcDbEntity
  8
RACCORDO
100
AcDbLine
 62
7
  6
CONTINUOUS
 10
-40.9645188325
 20
17.6726135285
 11
-40.9645188325
 21
27.7256618637
  0
LINE
  5
24E
100
AcDbEntity
  8
RACCORDO
100
AcDbLine
 62
7
  6
CONTINUOUS
 10
-40.9546447567
 20
4.148160012
 11
-40.9546447567
 21
9.7575399896
  0
LINE
  5
24F
100
AcDbEntity
  8
RACCORDO
100
AcDbLine
 62
7
  6
CONTINUOUS
 10
-40.9546447567
 20
35.6293330675
 11
-40.9546447567
 21
38.8593777038
  0
LINE
  5
250
100
AcDbEntity
  8
RACCORDO
100
AcDbLine
 62
7
  6
CONTINUOUS
 10
-40.9280378778
 20
35.091329941
 11
-40.9280378778
 21
35.0628247193
  0
LINE
  5
251
100
AcDbEntity
  8
RACCORDO
100
AcDbLine
 62
7
  6
CONTINUOUS
 10
-40.9280378778
 20
17.1289838515
 11
-40.9280378778
 21
17.1004786298
  0
LINE
  5
252
100
AcDbEntity
  8
RACCORDO
100
AcDbLine
 62
7
  6
CONTINUOUS
 10
-40.8081981472
 20
28.7128671959
 11
-40.8081981472
 21
28.5449486192
  0
LINE
  5
253
100
AcDbEntity
  8
RACCORDO
100
AcDbLine
 62
7
  6
CONTINUOUS
 10
-40.787707778
 20
35.1752336199
 11
-40.787707778
 21
34.9817998784
  0
LINE
  5
254
100
AcDbEntity
  8
RACCORDO
100
AcDbLine
 62
7
  6
CONTINUOUS
 10
-40.787707778
 20
17.2128875305
 11
-40.787707778
 21
17.0194537889
  0
LINE
  5
255
100
AcDbEntity
  8
RACCORDO
100
AcDbLine
 62
7
  6
CONTINUOUS
 10
-40.7159058435
 20
35.6596231932
 11
-40.7159058435
 21
35.2181641563
  0
LINE
  5
256
100
AcDbEntity
  8
RACCORDO
100
AcDbLine
 62
7
  6
CONTINUOUS
 10
-40.7159058435
 20
29.1329361548
 11
-40.7159058435
 21
28.7680489696
  0
LINE
  5
257
100
AcDbEntity
  8
RACCORDO
100
AcDbLine
 62
7
  6
CONTINUOUS
 10
-40.7159058435
 20
17.7023522797
 11
-40.7159058435
 21
17.2558180669
  0
LINE
  5
258
100
AcDbEntity
  8
RACCORDO
100
AcDbLine
 62
7
  6
CONTINUOUS
 10
-40.7159058435
 20
11.1705900653
 11
-40.7159058435
 21
10.5293141103
  0
LINE
  5
259
100
AcDbEntity
  8
RACCORDO
100
AcDbLine
 62
7
  6
CONTINUOUS
 10
-40.5755757437
 20
35.7378197197
 11
-40.5755757437
 21
35.4187076748
  0
LINE
  5
25A
100
AcDbEntity
  8
RACCORDO
100
AcDbLine
 62
7
  6
CONTINUOUS
 10
-40.5755757437
 20
29.2084011412
 11
-40.5755757437
 21
28.9685924881
  0
LINE
  5
25B
100
AcDbEntity
  8
RACCORDO
100
AcDbLine
 62
7
  6
CONTINUOUS
 10
-40.5755757437
 20
17.7778172661
 11
-40.5755757437
 21
17.4563615854
  0
LINE
  5
25C
100
AcDbEntity
  8
RACCORDO
100
AcDbLine
 62
7
  6
CONTINUOUS
 10
-40.5755757437
 20
11.2460550517
 11
-40.5755757437
 21
10.4462650087
  0
LINE
  5
25D
100
AcDbEntity
  8
RACCORDO
100
AcDbLine
 62
7
  6
CONTINUOUS
 10
-40.4609042693
 20
34.5482038509
 11
-40.4609042693
 21
29.3740250181
  0
LINE
  5
25E
100
AcDbEntity
  8
RACCORDO
100
AcDbLine
 62
7
  6
CONTINUOUS
 10
-40.4609042693
 20
16.5858577615
 11
-40.4609042693
 21
11.4116789287
  0
LINE
  5
25F
100
AcDbEntity
  8
RACCORDO
100
AcDbLine
 62
7
  6
CONTINUOUS
 10
-40.3889593317
 20
4.48618092
 11
-40.3889593317
 21
10.0955608976
  0
LINE
  5
260
100
AcDbEntity
  8
RACCORDO
100
AcDbLine
 62
7
  6
CONTINUOUS
 10
-40.3889593317
 20
17.9821308022
 11
-40.3889593317
 21
28.0579816041
  0
LINE
  5
261
100
AcDbEntity
  8
RACCORDO
100
AcDbLine
 62
7
  6
CONTINUOUS
 10
-40.3889593317
 20
35.9445515088
 11
-40.3889593317
 21
38.5327580291
  0
LINE
  5
262
100
AcDbEntity
  8
RACCORDO
100
AcDbLine
 62
7
  6
CONTINUOUS
 10
-39.6830524508
 20
4.360144366
 11
-39.6830524508
 21
4.0785991341
  0
LWPOLYLINE
  5
263
100
AcDbEntity
  8
RACCORDO
100
AcDbPolyline
 62
7
  6
CONTINUOUS
 90
7
 70
0
 10
-41.9869982934
 20
3.8492165431
 10
-41.9870015771
 20
3.848504937
 10
-41.9869708005
 20
3.8478049495
 10
-41.9869059191
 20
3.8471165601
 10
-41.9868068885
 20
3.8464397488
 10
-41.9866736635
 20
3.8457744954
 10
-41.9865061988
 20
3.84512078
  0
LWPOLYLINE
  5
264
100
AcDbEntity
  8
RACCORDO
100
AcDbPolyline
 62
7
  6
CONTINUOUS
 90
12
 70
0
 10
-39.6830524508
 20
4.3601439238
 10
-39.6832708913
 20
4.351611667
 10
-39.6857341046
 20
4.3302846545
 10
-39.6909274879
 20
4.3091083408
 10
-39.6988235047
 20
4.2882084501
 10
-39.7093696107
 20
4.2677180548
 10
-39.7225056951
 20
4.2477439372
 10
-39.7381521524
 20
4.228399115
 10
-39.7561873238
 20
4.2098170583
 10
-39.7764850627
 20
4.1921028296
 10
-39.7989287441
 20
4.1753361955
 10
-39.8233825507
 20
4.1596008475
  0
LWPOLYLINE
  5
265
100
AcDbEntity
  8
RACCORDO
100
AcDbPolyline
 62
7
  6
CONTINUOUS
 90
22
 70
0
 10
-42.0468813969
 20
3.809101504
 10
-42.0495578558
 20
3.7935751165
 10
-42.0513811358
 20
3.7773666921
 10
-42.052304308
 20
3.7604601886
 10
-42.0523017404
 20
3.742873153
 10
-42.0513170172
 20
3.7245816655
 10
-42.0492528716
 20
3.7055148386
 10
-42.0461165832
 20
3.6856378553
 10
-42.0418308651
 20
3.6650359451
 10
-42.0361684052
 20
3.6438327491
 10
-42.0290666123
 20
3.6219602633
 10
-42.0205701854
 20
3.5996460898
 10
-42.0106530515
 20
3.5774866844
 10
-41.9992843668
 20
3.5555844137
 10
-41.9866213304
 20
3.5341153432
 10
-41.9729848133
 20
3.5137755868
 10
-41.9585706756
 20
3.4948956965
 10
-41.9433978862
 20
3.4773749726
 10
-41.9275422534
 20
3.4612327511
 10
-41.9110994649
 20
3.4465554316
 10
-41.894184032
 20
3.4334848425
 10
-41.8769003892
 20
3.4221253741
  0
LWPOLYLINE
  5
266
100
AcDbEntity
  8
RACCORDO
100
AcDbPolyline
 62
7
  6
CONTINUOUS
 90
11
 70
0
 10
26.5175532812
 20
-34.2335155167
 10
26.5366886112
 20
-34.2286185703
 10
26.5566798159
 20
-34.2256531641
 10
26.5774400415
 20
-34.2246325752
 10
26.5988813146
 20
-34.225560105
 10
26.6209075245
 20
-34.2284310535
 10
26.6434269977
 20
-34.2332334033
 10
26.666355396
 20
-34.2399496288
 10
26.6895987652
 20
-34.2485550395
 10
26.7130532619
 20
-34.2590146989
 10
26.7366181741
 20
-34.2712862508
  0
LWPOLYLINE
  5
267
100
AcDbEntity
  8
0
100
AcDbPolyline
 62
7
  6
CONTINUOUS
 90
5
 70
0
 10
27.0064329901
 20
-33.9849830597
 10
27.0436284417
 20
-33.9805704687
 10
27.0812177267
 20
-33.9789537897
 10
27.1189226187
 20
-33.9801752494
 10
27.1564876226
 20
-33.984244745
  0
LWPOLYLINE
  5
268
100
AcDbEntity
  8
SMUSSO
100
AcDbPolyline
 62
7
  6
CONTINUOUS
 90
15
 70
0
 10
54.5047707035
 20
-72.9615366877
 10
54.545891301
 20
-72.9838909446
 10
54.5868703855
 20
-73.0034082553
 10
54.627569309
 20
-73.0200225724
 10
54.6678490973
 20
-73.0336784069
 10
54.7075747141
 20
-73.0443288257
 10
54.7466155222
 20
-73.0519356077
 10
54.7848412666
 20
-73.0564719477
 10
54.8221207444
 20
-73.0579235694
 10
54.8583260409
 20
-73.0562865846
 10
54.8933338964
 20
-73.0515669669
 10
54.9270266098
 20
-73.0437802503
 10
54.9592906629
 20
-73.0329525013
 10
54.9900170557
 20
-73.0191202585
 10
55.004795023
 20
-73.0110777734
  0
LWPOLYLINE
  5
269
100
AcDbEntity
  8
RACCORDO
100
AcDbPolyline
 62
7
  6
CONTINUOUS
 90
22
 70
0
 10
-41.9865061988
 20
3.84512078
 10
-41.9827767801
 20
3.8341064947
 10
-41.978273047
 20
3.8223341019
 10
-41.9729252668
 20
3.8098073901
 10
-41.9666095282
 20
3.7966174012
 10
-41.9593151373
 20
3.7827119995
 10
-41.9511267992
 20
3.7678918279
 10
-41.9419416056
 20
3.7521912509
 10
-41.9317028242
 20
3.7356884041
 10
-41.9205453594
 20
3.7182713563
 10
-41.908323099
 20
3.6999310755
 10
-41.8950399472
 20
3.6809212974
 10
-41.8811073471
 20
3.6615461232
 10
-41.8665393745
 20
3.6418792724
 10
-41.8513543218
 20
3.6221891444
 10
-41.8360938014
 20
3.6030220567
 10
-41.8210474765
 20
3.584644907
 10
-41.8061499644
 20
3.5670142504
 10
-41.791467197
 20
3.5501569295
 10
-41.7770907512
 20
3.5341620089
 10
-41.7631444773
 20
3.5191637507
 10
-41.7497415863
 20
3.5052596844
  0
LWPOLYLINE
  5
26A
100
AcDbEntity
  8
RACCORDO
100
AcDbPolyline
 62
7
  6
CONTINUOUS
 90
11
 70
0
 10
-45.647065947
 20
1.4245161949
 10
-45.63138434
 20
1.3762857619
 10
-45.6129266088
 20
1.3285712782
 10
-45.591861291
 20
1.2817313349
 10
-45.5682864316
 20
1.2358971183
 10
-45.5422772396
 20
1.1912198051
 10
-45.5140580409
 20
1.1480884188
 10
-45.4837125735
 20
1.106637155
 10
-45.4513083263
 20
1.0670272792
 10
-45.4170891176
 20
1.0296044941
 10
-45.3811132314
 20
0.9945058839
  0
LWPOLYLINE
  5
26B
100
AcDbEntity
  8
RACCORDO
100
AcDbPolyline
 62
7
  6
CONTINUOUS
 90
11
 70
0
 10
-33.5310340409
 20
-0.2340692111
 10
-33.5339237861
 20
-0.2057883007
 10
-33.5386927898
 20
-0.1790820298
 10
-33.5453875182
 20
-0.1538220373
 10
-33.5539615051
 20
-0.1301366842
 10
-33.5642753522
 20
-0.1084110535
 10
-33.5763575009
 20
-0.0886771805
 10
-33.5901795099
 20
-0.07090303
 10
-33.6055166571
 20
-0.055377579
 10
-33.6223937102
 20
-0.0421375867
 10
-33.6335877332
 20
-0.035075405
  0
LINE
  5
26C
100
AcDbEntity
  8
RACCORDO
100
AcDbLine
 62
7
  6
CONTINUOUS
 10
-33.5300235542
 20
-0.2639247608
 11
-33.5310340409
 21
-0.2340692111
  0
LINE
  5
26D
100
AcDbEntity
  8
0
100
AcDbLine
 62
7
  6
CONTINUOUS
 10
-34.273453152
 20
0.354839867
 11
-34.272941397
 21
0.3391738379
  0
LINE
  5
26E
100
AcDbEntity
  8
RACCORDO
100
AcDbLine
 62
7
  6
CONTINUOUS
 10
-34.590683726
 20
0.7300319306
 11
-34.590683726
 21
0.2682854345
  0
LINE
  5
26F
100
AcDbEntity
  8
RACCORDO
100
AcDbLine
 62
7
  6
CONTINUOUS
 10
-33.5300235542
 20
-0.2904345473
 11
-33.5300235542
 21
-0.2639247608
  0
LWPOLYLINE
  5
270
100
AcDbEntity
  8
RACCORDO
100
AcDbPolyline
 62
7
  6
CONTINUOUS
 90
12
 70
0
 10
-40.7159058435
 20
17.2558180669
 10
-40.6910397895
 20
17.2718724723
 10
-40.6685009125
 20
17.2887444255
 10
-40.6482892125
 20
17.3064339262
 10
-40.6303196066
 20
17.3250463037
 10
-40.6146771777
 20
17.3444762288
 10
-40.6016171746
 20
17.3644077144
 10
-40.5911819521
 20
17.3848490456
 10
-40.5833291553
 20
17.4057919373
 10
-40.5781869689
 20
17.4268955463
 10
-40.575799895
 20
17.4481625209
 10
-40.575603821
 20
17.4563513066
  0
LINE
  5
271
100
AcDbEntity
  8
DRAFT
100
AcDbLine
 62
7
  6
CONTINUOUS
 10
-41.1777438221
 20
16.6578768701
 11
-41.6915527092
 21
16.328394996
  0
LINE
  5
272
100
AcDbEntity
  8
DRAFT
100
AcDbLine
 62
7
  6
CONTINUOUS
 10
-41.1777438221
 20
10.5343497941
 11
-41.6915527092
 21
10.2048679201
  0
LINE
  5
273
100
AcDbEntity
  8
RACCORDO
100
AcDbLine
 62
7
  6
CONTINUOUS
 10
-40.7159058435
 20
17.2558180669
 11
-40.9522916613
 21
17.1144824604
  0
LINE
  5
274
100
AcDbEntity
  8
RACCORDO
100
AcDbLine
 62
7
  6
CONTINUOUS
 10
-40.6730039949
 20
16.9532252621
 11
-41.1794408109
 21
16.6608159613
  0
LINE
  5
275
100
AcDbEntity
  8
RACCORDO
100
AcDbLine
 62
7
  6
CONTINUOUS
 10
-40.4609042693
 20
16.5858577615
 11
-41.3961884581
 21
16.0458381833
  0
LINE
  5
276
100
AcDbEntity
  8
RACCORDO
100
AcDbLine
 62
7
  6
CONTINUOUS
 10
-40.9645188325
 20
17.6726135285
 11
-40.3889593317
 21
17.9821308022
  0
LINE
  5
277
100
AcDbEntity
  8
RACCORDO
100
AcDbLine
 62
7
  6
CONTINUOUS
 10
-41.029281143
 20
17.5338291848
 11
-40.4537216422
 21
17.8433464585
  0
LWPOLYLINE
  5
278
100
AcDbEntity
  8
0
100
AcDbPolyline
 62
7
  6
CONTINUOUS
 90
4
 70
0
 10
32.9419813131
 20
-35.6093030774
 10
32.9553948521
 20
-35.6093880896
 10
32.9688219375
 20
-35.6109498805
 10
32.982234385
 20
-35.6136817779
  0
LINE
  5
279
100
AcDbEntity
  8
SMUSSO
100
AcDbLine
 62
7
  6
CONTINUOUS
 10
53.7976639223
 20
-72.5533410043
 11
54.5047707035
 21
-72.9615366877
  0
LINE
  5
27A
100
AcDbEntity
  8
SMUSSO
100
AcDbLine
 62
7
  6
CONTINUOUS
 10
-60.0465278487
 20
-6.8211314785
 11
53.7976639223
 21
-72.5533410043
  0
LWPOLYLINE
  5
27B
100
AcDbEntity
  8
RACCORDO
100
AcDbPolyline
 62
7
  6
CONTINUOUS
 90
25
 70
0
 10
-27.3347443523
 20
-3.4665818996
 10
-27.3354855123
 20
-3.4394244874
 10
-27.3377148328
 20
-3.411497733
 10
-27.3414206954
 20
-3.3829204134
 10
-27.3465834555
 20
-3.3538133671
 10
-27.3531806835
 20
-3.324301063
 10
-27.361187402
 20
-3.2945110375
 10
-27.3705676367
 20
-3.2645699856
 10
-27.3812793196
 20
-3.2346051069
 10
-27.3932798407
 20
-3.2047456316
 10
-27.4065164683
 20
-3.1751186085
 10
-27.4209308646
 20
-3.145849912
 10
-27.4364643961
 20
-3.117065597
 10
-27.453049565
 20
-3.0888882806
 10
-27.4706139661
 20
-3.0614377639
 10
-27.4890851523
 20
-3.0348321656
 10
-27.5083834018
 20
-3.0091850454
 10
-27.5284249687
 20
-2.9846056105
 10
-27.549126322
 20
-2.9611995733
 10
-27.5704023176
 20
-2.9390635014
 10
-27.5921573577
 20
-2.9182960036
 10
-27.6142881491
 20
-2.8989958607
 10
-27.6366959029
 20
-2.8812465774
 10
-27.659287411
 20
-2.8651183475
 10
-27.6819658336
 20
-2.8506778698
  0
LINE
  5
27C
100
AcDbEntity
  8
DRAFT
100
AcDbLine
 62
7
  6
CONTINUOUS
 10
-27.7671032875
 20
-4.2112236628
 11
-27.7671032875
 21
-3.6715643911
  0
LINE
  5
27D
100
AcDbEntity
  8
RACCORDO
100
AcDbLine
 62
7
  6
CONTINUOUS
 10
-27.7641965828
 20
-4.2112236628
 11
-27.7641965828
 21
-4.266582099
  0
LINE
  5
27E
100
AcDbEntity
  8
0
100
AcDbLine
 62
7
  6
CONTINUOUS
 10
-26.9750196643
 20
-3.2731336035
 11
-26.9750196643
 21
-3.6242348289
  0
LINE
  5
27F
100
AcDbEntity
  8
0
100
AcDbLine
 62
7
  6
CONTINUOUS
 10
-26.8223488496
 20
-3.0654647109
 11
-26.8223488496
 21
-3.5298209069
  0
LINE
  5
280
100
AcDbEntity
  8
0
100
AcDbLine
 62
7
  6
CONTINUOUS
 10
-26.4798859723
 20
-1.3315404498
 11
-26.4798859723
 21
-1.8143620452
  0
LINE
  5
281
100
AcDbEntity
  8
0
100
AcDbLine
 62
7
  6
CONTINUOUS
 10
-26.4285149374
 20
-1.3023588645
 11
-26.4285149374
 21
-1.7838201673
  0
LWPOLYLINE
  5
282
100
AcDbEntity
  8
0
100
AcDbPolyline
 62
7
  6
CONTINUOUS
 90
12
 70
0
 10
-26.8223488497
 20
-3.0654714453
 10
-26.8229099661
 20
-3.0791379691
 10
-26.8261311341
 20
-3.1009069851
 10
-26.8321925999
 20
-3.1224679474
 10
-26.8410586197
 20
-3.1436995719
 10
-26.85267902
 20
-3.1644832968
 10
-26.8669976267
 20
-3.1847134151
 10
-26.8839255105
 20
-3.2042600302
 10
-26.9033272312
 20
-3.222977116
 10
-26.9250640771
 20
-3.2407517954
 10
-26.9490108195
 20
-3.2575002716
 10
-26.9750196643
 20
-3.2731336035
  0
LINE
  5
283
100
AcDbEntity
  8
0
100
AcDbLine
 62
7
  6
CONTINUOUS
 10
-33.3057799593
 20
-0.4736018968
 11
-33.2825361808
 21
-0.4333424914
  0
LINE
  5
284
100
AcDbEntity
  8
0
100
AcDbLine
 62
7
  6
CONTINUOUS
 10
-33.0350488074
 20
-0.4129169253
 11
-32.9289827902
 21
-0.2292051948
  0
LINE
  5
285
100
AcDbEntity
  8
0
100
AcDbLine
 62
7
  6
CONTINUOUS
 10
-32.6814954168
 20
-0.2087796286
 11
-32.5754293996
 21
-0.0250678981
  0
LINE
  5
286
100
AcDbEntity
  8
0
100
AcDbLine
 62
7
  6
CONTINUOUS
 10
-32.3279420262
 20
-0.004642332
 11
-32.221876009
 21
0.1790693985
  0
LINE
  5
287
100
AcDbEntity
  8
0
100
AcDbLine
 62
7
  6
CONTINUOUS
 10
-31.9743886356
 20
0.1994949647
 11
-31.8683226184
 21
0.3832066952
  0
LINE
  5
288
100
AcDbEntity
  8
0
100
AcDbLine
 62
7
  6
CONTINUOUS
 10
-31.620835245
 20
0.4036322614
 11
-31.5147692278
 21
0.5873439919
  0
LINE
  5
289
100
AcDbEntity
  8
0
100
AcDbLine
 62
7
  6
CONTINUOUS
 10
-31.2672818544
 20
0.607769558
 11
-31.1612158372
 21
0.7914812885
  0
LINE
  5
28A
100
AcDbEntity
  8
0
100
AcDbLine
 62
7
  6
CONTINUOUS
 10
-30.9137284638
 20
0.8119068547
 11
-30.8076624466
 21
0.9956185852
  0
LINE
  5
28B
100
AcDbEntity
  8
RACCORDO
100
AcDbLine
 62
7
  6
CONTINUOUS
 10
-43.5558563234
 20
2.6599289967
 11
-42.0468813969
 21
3.809101504
  0
LINE
  5
28C
100
AcDbEntity
  8
RACCORDO
100
AcDbLine
 62
7
  6
CONTINUOUS
 10
-43.3952530898
 20
2.2657631722
 11
-41.8769000999
 21
3.4221255922
  0
LWPOLYLINE
  5
28D
100
AcDbEntity
  8
RACCORDO
100
AcDbPolyline
 62
7
  6
CONTINUOUS
 90
10
 70
0
 10
-41.9865106397
 20
3.8451233419
 10
-41.9928186198
 20
3.8408576685
 10
-41.9992314015
 20
3.8366549574
 10
-42.0057470137
 20
3.8325165035
 10
-42.0123634534
 20
3.8284435819
 10
-42.0190786869
 20
3.8244374477
 10
-42.0258906499
 20
3.8204993354
 10
-42.0327972486
 20
3.8166304586
 10
-42.0397963597
 20
3.8128320094
 10
-42.0468858319
 20
3.8091051585
  0
LWPOLYLINE
  5
28E
100
AcDbEntity
  8
RACCORDO
100
AcDbPolyline
 62
7
  6
CONTINUOUS
 90
10
 70
0
 10
-41.7430171033
 20
3.5002569394
 10
-41.7560349558
 20
3.4922010992
 10
-41.7690267611
 20
3.4836069512
 10
-41.7819748832
 20
3.4744861618
 10
-41.7948617456
 20
3.4648511121
 10
-41.8076698548
 20
3.4547148812
 10
-41.8203818243
 20
3.4440912287
 10
-41.832980398
 20
3.4329945759
 10
-41.845448474
 20
3.421439986
 10
-41.8577691272
 20
3.4094431439
  0
LINE
  5
28F
100
AcDbEntity
  8
RACCORDO
100
AcDbLine
 62
7
  6
CONTINUOUS
 10
-41.166776791
 20
10.125000762
 11
-40.6010913661
 21
10.46302167
  0
LINE
  5
290
100
AcDbEntity
  8
RACCORDO
100
AcDbLine
 62
7
  6
CONTINUOUS
 10
-40.9546447567
 20
9.7575399896
 11
-40.3889593317
 21
10.0955608976
  0
LINE
  5
291
100
AcDbEntity
  8
RACCORDO
100
AcDbLine
 62
7
  6
CONTINUOUS
 10
-40.9546447567
 20
4.148160012
 11
-40.3889593317
 21
4.48618092
  0
LINE
  5
292
100
AcDbEntity
  8
RACCORDO
100
AcDbLine
 62
7
  6
CONTINUOUS
 10
-41.3961884581
 20
10.9087133589
 11
-40.4609042693
 21
11.4116789287
  0
LINE
  5
293
100
AcDbEntity
  8
RACCORDO
100
AcDbLine
 62
7
  6
CONTINUOUS
 10
-41.4609507686
 20
10.7699290152
 11
-40.5256665798
 21
11.2728945849
  0
LWPOLYLINE
  5
294
100
AcDbEntity
  8
RACCORDO
100
AcDbPolyline
 62
7
  6
CONTINUOUS
 90
11
 70
0
 10
10.6076507045
 20
-25.0473371668
 10
10.6267860345
 20
-25.0424402205
 10
10.6467772392
 20
-25.0394748142
 10
10.6675374648
 20
-25.0384542253
 10
10.6889787379
 20
-25.0393817551
 10
10.7110049478
 20
-25.0422527036
 10
10.733524421
 20
-25.0470550534
 10
10.7564528193
 20
-25.053771279
 10
10.7796961885
 20
-25.0623766896
 10
10.8031506852
 20
-25.072836349
 10
10.8267155974
 20
-25.0851079009
  0
LWPOLYLINE
  5
295
100
AcDbEntity
  8
0
100
AcDbPolyline
 62
7
  6
CONTINUOUS
 90
5
 70
0
 10
11.0965304134
 20
-24.7988047098
 10
11.1337258651
 20
-24.7943921188
 10
11.17131515
 20
-24.7927754399
 10
11.209020042
 20
-24.7939968995
 10
11.2465850459
 20
-24.7980663951
  0
LWPOLYLINE
  5
296
100
AcDbEntity
  8
0
100
AcDbPolyline
 62
7
  6
CONTINUOUS
 90
6
 70
0
 10
27.1564876226
 20
-33.984244745
 10
27.1936665028
 20
-33.9911457718
 10
27.2302310004
 20
-34.0008409335
 10
27.2660073642
 20
-34.0132920401
 10
27.3009735909
 20
-34.0285292492
 10
27.3339165282
 20
-34.0459477679
  0
LWPOLYLINE
  5
297
100
AcDbEntity
  8
0
100
AcDbPolyline
 62
7
  6
CONTINUOUS
 90
12
 70
0
 10
29.0672363737
 20
-36.3207678474
 10
29.1454065893
 20
-36.3354617942
 10
29.1655905335
 20
-36.33949745
 10
29.1860203555
 20
-36.3438721638
 10
29.2066338784
 20
-36.3486595151
 10
29.2273643341
 20
-36.3539374949
 10
29.2483246787
 20
-36.3598470877
 10
29.2692846711
 20
-36.3664583636
 10
29.2896780997
 20
-36.3736866353
 10
29.3093628996
 20
-36.3815258756
 10
29.3283946933
 20
-36.390055587
 10
29.3465447803
 20
-36.39921854
  0
LINE
  5
298
100
AcDbEntity
  8
0
100
AcDbLine
 62
7
  6
CONTINUOUS
 10
29.0484096458
 20
-36.3170676042
 11
29.0672363737
 21
-36.3207678474
  0
LWPOLYLINE
  5
299
100
AcDbEntity
  8
0
100
AcDbPolyline
 62
7
  6
CONTINUOUS
 90
4
 70
0
 10
32.982234385
 20
-35.6136817779
 10
32.9955344422
 20
-35.6175242839
 10
33.0086464922
 20
-35.6224686458
 10
33.021600902
 20
-35.6283008644
  0
LWPOLYLINE
  5
29A
100
AcDbEntity
  8
RACCORDO
100
AcDbPolyline
 62
7
  6
CONTINUOUS
 90
4
 70
0
 10
-45.3434178659
 20
0.961877286
 10
-45.3041728659
 20
0.9319856004
 10
-45.2634250877
 20
0.9050113242
 10
-45.2474746453
 20
0.8955155403
  0
LINE
  5
29B
100
AcDbEntity
  8
RACCORDO
100
AcDbLine
 62
7
  6
CONTINUOUS
 10
-45.3811132314
 20
0.9945058839
 11
-45.3434178659
 21
0.961877286
  0
LWPOLYLINE
  5
29C
100
AcDbEntity
  8
RACCORDO
100
AcDbPolyline
 62
7
  6
CONTINUOUS
 90
6
 70
0
 10
-41.7497415863
 20
3.5052596844
 10
-41.7487691529
 20
3.5043226049
 10
-41.7477373361
 20
3.5034267733
 10
-41.746646179
 20
3.5025722403
 10
-41.7454957253
 20
3.5017590566
 10
-41.7442860187
 20
3.5009872729
  0
LWPOLYLINE
  5
29D
100
AcDbEntity
  8
RACCORDO
100
AcDbPolyline
 62
7
  6
CONTINUOUS
 90
15
 70
0
 10
-43.5558563628
 20
40.174803057
 10
-43.5614709371
 20
40.1938091237
 10
-43.5654485149
 20
40.2118012275
 10
-43.5678510368
 20
40.2286939356
 10
-43.5687795361
 20
40.2444092628
 10
-43.5682654143
 20
40.2588834898
 10
-43.5662696405
 20
40.2720667471
 10
-43.562847062
 20
40.283910466
 10
-43.5580850214
 20
40.2943792831
 10
-43.5519932112
 20
40.3034539763
 10
-43.5446385008
 20
40.3111076355
 10
-43.5360960956
 20
40.3173335585
 10
-43.5263837943
 20
40.3221399681
 10
-43.5155676189
 20
40.3255164287
 10
-43.5037157925
 20
40.3274610879
  0
LINE
  5
29E
100
AcDbEntity
  8
DRAFT
100
AcDbLine
 62
7
  6
CONTINUOUS
 10
-22.8909732021
 20
-6.7800579897
 11
-22.8909732021
 21
-6.9544173611
  0
LINE
  5
29F
100
AcDbEntity
  8
DRAFT
100
AcDbLine
 62
7
  6
CONTINUOUS
 10
-21.9556890133
 20
-7.0270021589
 11
-21.9556890133
 21
-6.2400384115
  0
LINE
  5
2A0
100
AcDbEntity
  8
RACCORDO
100
AcDbLine
 62
7
  6
CONTINUOUS
 10
-18.6807811493
 20
-8.4560220574
 11
-18.6807811493
 21
-8.9178929154
  0
LINE
  5
2A1
100
AcDbEntity
  8
0
100
AcDbLine
 62
7
  6
CONTINUOUS
 10
-28.0853013391
 20
-2.0460152986
 11
-27.9792353219
 21
-1.8623035681
  0
LINE
  5
2A2
100
AcDbEntity
  8
0
100
AcDbLine
 62
7
  6
CONTINUOUS
 10
-27.7317479485
 20
-1.8418780019
 11
-27.6256819313
 21
-1.6581662714
  0
LINE
  5
2A3
100
AcDbEntity
  8
0
100
AcDbLine
 62
7
  6
CONTINUOUS
 10
-27.3781945579
 20
-1.6377407053
 11
-27.2721285407
 21
-1.4540289748
  0
LINE
  5
2A4
100
AcDbEntity
  8
0
100
AcDbLine
 62
7
  6
CONTINUOUS
 10
-27.0246411673
 20
-1.4336034086
 11
-26.9185751501
 21
-1.2498916781
  0
LINE
  5
2A5
100
AcDbEntity
  8
0
100
AcDbLine
 62
7
  6
CONTINUOUS
 10
-27.2279521565
 20
-2.3821174214
 11
-27.0332782651
 21
-2.1394353186
  0
LINE
  5
2A6
100
AcDbEntity
  8
RACCORDO
100
AcDbLine
 62
7
  6
CONTINUOUS
 10
-35.5099225415
 20
1.0044456433
 11
-34.9442371166
 21
1.3424665514
  0
LINE
  5
2A7
100
AcDbEntity
  8
RACCORDO
100
AcDbLine
 62
7
  6
CONTINUOUS
 10
-34.9836829946
 20
0.4951982868
 11
-34.590683726
 21
0.7300319306
  0
LINE
  5
2A8
100
AcDbEntity
  8
RACCORDO
100
AcDbLine
 62
7
  6
CONTINUOUS
 10
-41.9869982934
 20
3.8492165431
 11
-41.1777438221
 21
4.3161767785
  0
LINE
  5
2A9
100
AcDbEntity
  8
RACCORDO
100
AcDbLine
 62
7
  6
CONTINUOUS
 10
-40.1768820934
 20
4.7718800153
 11
-40.3889593317
 21
4.6494288554
  0
LINE
  5
2AA
100
AcDbEntity
  8
RACCORDO
100
AcDbLine
 62
7
  6
CONTINUOUS
 10
-41.7430171033
 20
3.5002569394
 11
-40.9659025073
 21
3.9492568586
  0
LWPOLYLINE
  5
2AB
100
AcDbEntity
  8
RACCORDO
100
AcDbPolyline
 62
7
  6
CONTINUOUS
 90
10
 70
0
 10
-41.9869982934
 20
3.8492165431
 10
-41.9933282986
 20
3.8457482004
 10
-41.9997621755
 20
3.8423441734
 10
-42.0062979641
 20
3.8390054988
 10
-42.0129336738
 20
3.8357331938
 10
-42.0196672831
 20
3.832528255
 10
-42.026496741
 20
3.8293916587
 10
-42.0334199671
 20
3.8263243605
 10
-42.0404348525
 20
3.8233272945
 10
-42.0475392604
 20
3.8204013738
  0
LWPOLYLINE
  5
2AC
100
AcDbEntity
  8
RACCORDO
100
AcDbPolyline
 62
7
  6
CONTINUOUS
 90
10
 70
0
 10
-41.7497415834
 20
3.5052598683
 10
-41.7640939609
 20
3.4980437379
 10
-41.7784351983
 20
3.490294636
 10
-41.7927456833
 20
3.4820231597
 10
-41.8070058461
 20
3.4732406204
 10
-41.8211961854
 20
3.4639590284
 10
-41.8352972955
 20
3.4541910765
 10
-41.8492898926
 20
3.4439501226
 10
-41.8631548415
 20
3.4332501715
 10
-41.8768731815
 20
3.4221058556
  0
LWPOLYLINE
  5
2AD
100
AcDbEntity
  8
0
100
AcDbPolyline
 62
7
  6
CONTINUOUS
 90
6
 70
0
 10
11.2465850459
 20
-24.7980663951
 10
11.2837639261
 20
-24.8049674219
 10
11.3203284237
 20
-24.8146625836
 10
11.3561047875
 20
-24.8271136902
 10
11.3910710142
 20
-24.8423508993
 10
11.4240139515
 20
-24.859769418
  0
LWPOLYLINE
  5
2AE
100
AcDbEntity
  8
ASSI
100
AcDbPolyline
 62
7
  6
CONTINUOUS
 90
8
 70
0
 10
17.073323092
 20
-26.4277706986
 10
17.0601424029
 20
-26.4249538137
 10
17.0474717994
 20
-26.4233994513
 10
17.035331451
 20
-26.4230394832
 10
17.0237989215
 20
-26.4237948385
 10
17.0129149277
 20
-26.425611206
 10
17.0026879612
 20
-26.4284646052
 10
16.9931336964
 20
-26.4323171616
  0
LWPOLYLINE
  5
2AF
100
AcDbEntity
  8
0
100
AcDbPolyline
 62
7
  6
CONTINUOUS
 90
5
 70
0
 10
-1.2834601755
 20
-23.3048344914
 10
-1.284119912
 20
-23.3046821997
 10
-1.3045408826
 20
-23.2982056504
 10
-1.3260099465
 20
-23.2898065399
 10
-1.3485682539
 20
-23.2793933607
  0
LWPOLYLINE
  5
2B0
100
AcDbEntity
  8
0
100
AcDbPolyline
 62
7
  6
CONTINUOUS
 90
8
 70
0
 10
-1.1923442765
 20
-23.6754365272
 10
-1.1858342456
 20
-23.6775546897
 10
-1.1793066782
 20
-23.6787967462
 10
-1.1727615745
 20
-23.6791626965
 10
-1.1662111224
 20
-23.6784921438
 10
-1.1596431339
 20
-23.6769454849
 10
-1.1530210448
 20
-23.6750039109
 10
-1.1463391338
 20
-23.6727583094
  0
LWPOLYLINE
  5
2B1
100
AcDbEntity
  8
0
100
AcDbPolyline
 62
7
  6
CONTINUOUS
 90
10
 70
0
 10
-1.6907624454
 20
-22.7757029599
 10
-1.6633466854
 20
-22.7862720852
 10
-1.6360585911
 20
-22.7977990128
 10
-1.6088981626
 20
-22.8102837428
 10
-1.5818898797
 20
-22.823707819
 10
-1.5550092626
 20
-22.8380896975
 10
-1.5281828715
 20
-22.8534847466
 10
-1.5013862263
 20
-22.8699114221
 10
-1.4746438071
 20
-22.8873512681
 10
-1.4479556138
 20
-22.9058042846
  0
LWPOLYLINE
  5
2B2
100
AcDbEntity
  8
0
100
AcDbPolyline
 62
7
  6
CONTINUOUS
 90
11
 70
0
 10
27.3263900839
 20
-34.0418554344
 10
27.3066889443
 20
-34.0333274742
 10
27.285753425
 20
-34.0272394847
 10
27.2637060806
 20
-34.0236303631
 10
27.2406883159
 20
-34.0225210802
 10
27.2168222512
 20
-34.0239129977
 10
27.1922459592
 20
-34.0277937048
 10
27.1671370258
 20
-34.0341242067
 10
27.1416499651
 20
-34.042847286
 10
27.1159118082
 20
-34.0539015732
 10
27.0900629208
 20
-34.0672109831
  0
LWPOLYLINE
  5
2B3
100
AcDbEntity
  8
0
100
AcDbPolyline
 62
7
  6
CONTINUOUS
 90
11
 70
0
 10
11.4164875072
 20
-24.8556770845
 10
11.3967863676
 20
-24.8471491243
 10
11.3758508483
 20
-24.8410611349
 10
11.3538035039
 20
-24.8374520132
 10
11.3307857392
 20
-24.8363427303
 10
11.3069196745
 20
-24.8377346478
 10
11.2823433825
 20
-24.8416153549
 10
11.2572344491
 20
-24.8479458569
 10
11.2317473884
 20
-24.8566689361
 10
11.2060092315
 20
-24.8677232233
 10
11.1801603441
 20
-24.8810326332
  0
LINE
  5
2B4
100
AcDbEntity
  8
0
100
AcDbLine
 62
7
  6
CONTINUOUS
 10
-1.3485682539
 20
-23.2793933607
 11
-1.3722158048
 21
-23.2669661128
  0
LWPOLYLINE
  5
2B5
100
AcDbEntity
  8
RACCORDO
100
AcDbPolyline
 62
7
  6
CONTINUOUS
 90
16
 70
0
 10
-43.9400612886
 20
2.6793371982
 10
-43.9194252815
 20
2.6684827301
 10
-43.8971312217
 20
2.6587827482
 10
-43.8733721403
 20
2.650321239
 10
-43.8483537536
 20
2.6431714659
 10
-43.8222926811
 20
2.6373953346
 10
-43.7954145706
 20
2.6330428571
 10
-43.7679521439
 20
2.6301517192
 10
-43.7401431823
 20
2.6287469535
 10
-43.7122284674
 20
2.628840723
 10
-43.6844496965
 20
2.6304322158
 10
-43.6570473898
 20
2.6335076522
 10
-43.6302588079
 20
2.6380404036
 10
-43.6043158977
 20
2.6439912237
 10
-43.5794432837
 20
2.6513085878
 10
-43.5558563234
 20
2.6599291391
  0
LWPOLYLINE
  5
2B6
100
AcDbEntity
  8
RACCORDO
100
AcDbPolyline
 62
7
  6
CONTINUOUS
 90
13
 70
0
 10
38.133043161
 20
-47.2473506345
 10
38.1732375813
 20
-47.2687533036
 10
38.2176109387
 20
-47.2883074235
 10
38.2621393876
 20
-47.3037757127
 10
38.3067288639
 20
-47.3151968552
 10
38.3511567287
 20
-47.322559006
 10
38.3949899749
 20
-47.3258723968
 10
38.4379331019
 20
-47.3252395722
 10
38.4797555083
 20
-47.3207878693
 10
38.5200188199
 20
-47.312714274
 10
38.5584035973
 20
-47.3012933599
 10
38.5947463584
 20
-47.2868010544
 10
38.6218075903
 20
-47.273423991
  0
LINE
  5
2B7
100
AcDbEntity
  8
RACCORDO
100
AcDbLine
 62
7
  6
CONTINUOUS
 10
-45.2475876765
 20
0.8955736884
 11
38.1330238305
 21
-47.2473463913
  0
LINE
  5
2B8
100
AcDbEntity
  8
0
100
AcDbLine
 62
7
  6
CONTINUOUS
 10
-1.989174235
 20
-24.0257747533
 11
-1.6804854378
 21
-24.204007796
  0
LINE
  5
2B9
100
AcDbEntity
  8
0
100
AcDbLine
 62
7
  6
CONTINUOUS
 10
-1.2058613808
 20
-24.478049778
 11
-0.9077390844
 21
-24.6501818556
  0
LINE
  5
2BA
100
AcDbEntity
  8
0
100
AcDbLine
 62
7
  6
CONTINUOUS
 10
-6.1980321008
 20
-21.5956326461
 11
-5.9249007929
 21
-21.7533352402
  0
LINE
  5
2BB
100
AcDbEntity
  8
0
100
AcDbLine
 62
7
  6
CONTINUOUS
 10
-5.3326090611
 20
-22.095317063
 11
-5.0226728452
 21
-22.2742703496
  0
LINE
  5
2BC
100
AcDbEntity
  8
0
100
AcDbLine
 62
7
  6
CONTINUOUS
 10
-4.8558246362
 20
-22.3706064144
 11
-4.5593170852
 21
-22.5418061583
  0
LINE
  5
2BD
100
AcDbEntity
  8
0
100
AcDbLine
 62
7
  6
CONTINUOUS
 10
-4.1288403763
 20
-22.7903580148
 11
-4.0853724011
 21
-22.8154558789
  0
LINE
  5
2BE
100
AcDbEntity
  8
0
100
AcDbLine
 62
7
  6
CONTINUOUS
 10
-3.6531809583
 20
-23.0649978014
 11
-3.3499813487
 21
-23.240061456
  0
LINE
  5
2BF
100
AcDbEntity
  8
0
100
AcDbLine
 62
7
  6
CONTINUOUS
 10
-3.3013133103
 20
-23.2681617714
 11
-2.9947400942
 21
-23.4451733041
  0
LINE
  5
2C0
100
AcDbEntity
  8
0
100
AcDbLine
 62
7
  6
CONTINUOUS
 10
-2.4068458595
 20
-23.7846160672
 11
-2.0801865682
 21
-23.973225048
  0
LINE
  5
2C1
100
AcDbEntity
  8
RACCORDO
100
AcDbLine
 62
7
  6
CONTINUOUS
 10
-45.3097124669
 20
1.0328947491
 11
-6.2106433672
 21
-21.5424177227
  0
LINE
  5
2C2
100
AcDbEntity
  8
RACCORDO
100
AcDbLine
 62
7
  6
CONTINUOUS
 10
-5.8851239195
 20
-21.730368572
 11
-5.3326090611
 21
-22.0493837267
  0
LINE
  5
2C3
100
AcDbEntity
  8
RACCORDO
100
AcDbLine
 62
7
  6
CONTINUOUS
 10
-4.9828959718
 20
-22.2513036815
 11
-4.8522326651
 21
-22.3267470372
  0
LINE
  5
2C4
100
AcDbEntity
  8
RACCORDO
100
AcDbLine
 62
7
  6
CONTINUOUS
 10
-4.5195402118
 20
-22.5188394901
 11
-4.1437586568
 21
-22.7358110503
  0
LINE
  5
2C5
100
AcDbEntity
  8
RACCORDO
100
AcDbLine
 62
7
  6
CONTINUOUS
 10
-4.0455955278
 20
-22.7924892107
 11
-3.6558045828
 21
-23.0175496171
  0
LINE
  5
2C6
100
AcDbEntity
  8
RACCORDO
100
AcDbLine
 62
7
  6
CONTINUOUS
 10
-3.3102044753
 20
-23.2170947878
 11
-3.288835529
 21
-23.2294329496
  0
LINE
  5
2C7
100
AcDbEntity
  8
RACCORDO
100
AcDbLine
 62
7
  6
CONTINUOUS
 10
-2.9549632208
 20
-23.4222066359
 11
-2.4176211265
 21
-23.7324612267
  0
LINE
  5
2C8
100
AcDbEntity
  8
RACCORDO
100
AcDbLine
 62
7
  6
CONTINUOUS
 10
-2.0404096948
 20
-23.9502583798
 11
-1.989592365
 21
-23.9795996691
  0
LINE
  5
2C9
100
AcDbEntity
  8
RACCORDO
100
AcDbLine
 62
7
  6
CONTINUOUS
 10
-1.6407082832
 20
-24.1810409654
 11
-1.2175536154
 21
-24.4253651672
  0
LINE
  5
2CA
100
AcDbEntity
  8
RACCORDO
100
AcDbLine
 62
7
  6
CONTINUOUS
 10
-0.8679619298
 20
-24.6272150251
 11
38.0708990469
 21
-47.1100253345
  0
LINE
  5
2CB
100
AcDbEntity
  8
0
100
AcDbLine
 62
7
  6
CONTINUOUS
 10
-2.9092169432
 20
-23.152289776
 11
-2.4871357132
 21
-23.3959941884
  0
LINE
  5
2CC
100
AcDbEntity
  8
0
100
AcDbLine
 62
7
  6
CONTINUOUS
 10
-2.5490761459
 20
-23.0953880128
 11
-2.8458177492
 21
-22.92405313
  0
LINE
  5
2CD
100
AcDbEntity
  8
0
100
AcDbLine
 62
7
  6
CONTINUOUS
 10
-1.6804854378
 20
-23.5330693366
 11
-1.5143052222
 21
-23.6290197103
  0
LINE
  5
2CE
100
AcDbEntity
  8
0
100
AcDbLine
 62
7
  6
CONTINUOUS
 10
-2.5856317358
 20
-22.910971436
 11
-2.704396393
 21
-22.8423982114
  0
LINE
  5
2CF
100
AcDbEntity
  8
0
100
AcDbLine
 62
7
  6
CONTINUOUS
 10
-1.513637161
 20
-23.3486210315
 11
-1.6907624454
 21
-23.2463511121
  0
LINE
  5
2D0
100
AcDbEntity
  8
0
100
AcDbLine
 62
7
  6
CONTINUOUS
 10
-1.3722158048
 20
-23.2669661128
 11
-1.5493410892
 21
-23.1646961935
  0
LINE
  5
2D1
100
AcDbEntity
  8
0
100
AcDbLine
 62
7
  6
CONTINUOUS
 10
-2.535759911
 20
-21.9957396435
 11
-2.835585207
 21
-21.8226242753
  0
LINE
  5
2D2
100
AcDbEntity
  8
0
100
AcDbLine
 62
7
  6
CONTINUOUS
 10
-3.4888267149
 20
-21.4454508156
 11
-3.7954777127
 21
-21.2683943727
  0
LINE
  5
2D3
100
AcDbEntity
  8
0
100
AcDbLine
 62
7
  6
CONTINUOUS
 10
-4.4120762401
 20
-20.9123781108
 11
-4.7217557763
 21
-20.7335730278
  0
LINE
  5
2D4
100
AcDbEntity
  8
0
100
AcDbLine
 62
7
  6
CONTINUOUS
 10
-5.447626343
 20
-20.3144644599
 11
-5.757351134
 21
-20.1356332473
  0
LINE
  5
2D5
100
AcDbEntity
  8
0
100
AcDbLine
 62
7
  6
CONTINUOUS
 10
-6.332056413
 20
-19.803805622
 11
-6.6687424785
 21
-19.6094073075
  0
LINE
  5
2D6
100
AcDbEntity
  8
0
100
AcDbLine
 62
7
  6
CONTINUOUS
 10
-5.0226728452
 20
-20.5597244084
 11
-5.3326090611
 21
-20.3807711217
  0
LINE
  5
2D7
100
AcDbEntity
  8
0
100
AcDbLine
 62
7
  6
CONTINUOUS
 10
-2.3943385547
 20
-21.9140847248
 11
-2.6941638508
 21
-21.7409693566
  0
LINE
  5
2D8
100
AcDbEntity
  8
0
100
AcDbLine
 62
7
  6
CONTINUOUS
 10
-3.3474053587
 20
-21.363795897
 11
-3.6540563565
 21
-21.1867394541
  0
LINE
  5
2D9
100
AcDbEntity
  8
0
100
AcDbLine
 62
7
  6
CONTINUOUS
 10
-4.2706548839
 20
-20.8307231921
 11
-4.58033442
 21
-20.6519181092
  0
LINE
  5
2DA
100
AcDbEntity
  8
0
100
AcDbLine
 62
7
  6
CONTINUOUS
 10
-5.3062049868
 20
-20.2328095412
 11
-5.6159297777
 21
-20.0539783287
  0
LINE
  5
2DB
100
AcDbEntity
  8
0
100
AcDbLine
 62
7
  6
CONTINUOUS
 10
-6.1906350568
 20
-19.7221507033
 11
-6.5273211222
 21
-19.5277523888
  0
LINE
  5
2DC
100
AcDbEntity
  8
0
100
AcDbLine
 62
7
  6
CONTINUOUS
 10
-4.881251489
 20
-20.4780694897
 11
-5.1911877049
 21
-20.2991162031
  0
LINE
  5
2DD
100
AcDbEntity
  8
RACCORDO
100
AcDbLine
 62
7
  6
CONTINUOUS
 10
36.2960250969
 20
-44.1383332898
 11
-43.5348385169
 21
1.955006845
  0
LINE
  5
2DE
100
AcDbEntity
  8
RACCORDO
100
AcDbLine
 62
7
  6
CONTINUOUS
 10
36.4356072303
 20
-43.827575061
 11
-43.3952530898
 21
2.2657631722
  0
LWPOLYLINE
  5
2DF
100
AcDbEntity
  8
RACCORDO
100
AcDbPolyline
 62
7
  6
CONTINUOUS
 90
11
 70
0
 10
-45.2475876765
 20
0.8955736884
 10
-45.2488840616
 20
0.896335257
 10
-45.2611361841
 20
0.9049577274
 10
-45.2721710302
 20
0.9154439639
 10
-45.2819064571
 20
0.9277158999
 10
-45.2902700143
 20
0.9416821908
 10
-45.2971994638
 20
0.9572388852
 10
-45.3026432342
 20
0.974270171
 10
-45.3065608225
 20
0.9926492726
 10
-45.3089230891
 20
1.012239401
 10
-45.3097124669
 20
1.0328947491
  0
LWPOLYLINE
  5
2E0
100
AcDbEntity
  8
RACCORDO
100
AcDbPolyline
 62
7
  6
CONTINUOUS
 90
11
 70
0
 10
38.1330238305
 20
-47.2473463913
 10
38.1317274565
 20
-47.2465848292
 10
38.1194753344
 20
-47.2379623616
 10
38.1084404886
 20
-47.2274761284
 10
38.0987050612
 20
-47.2152041953
 10
38.0903415029
 20
-47.2012379064
 10
38.0834120521
 20
-47.1856812131
 10
38.0779682804
 20
-47.1686499268
 10
38.074050691
 20
-47.1502708227
 10
38.0716884241
 20
-47.1306806896
 10
38.0708990469
 20
-47.1100253345
  0
LWPOLYLINE
  5
2E1
100
AcDbEntity
  8
RACCORDO
100
AcDbPolyline
 62
7
  6
CONTINUOUS
 90
25
 70
0
 10
-45.3097124669
 20
1.0328947491
 10
-45.3282607923
 20
1.0443135042
 10
-45.3465961606
 20
1.0569784645
 10
-45.3647185716
 20
1.0708896301
 10
-45.3827104017
 20
1.0861206372
 10
-45.4004892746
 20
1.1025978496
 10
-45.4178080618
 20
1.1201003581
 10
-45.4346541442
 20
1.1386368437
 10
-45.451040141
 20
1.1581986255
 10
-45.4667567809
 20
1.1785387514
 10
-45.4817964217
 20
1.1996688943
 10
-45.4961667056
 20
1.2215773813
 10
-45.5096812887
 20
1.243982242
 10
-45.5223292852
 20
1.2668915696
 10
-45.5341215809
 20
1.2902972708
 10
-45.5449044883
 20
1.3138930951
 10
-45.5546631673
 20
1.3376786212
 10
-45.5634124581
 20
1.3616542704
 10
-45.5710431936
 20
1.3855150562
 10
-45.5775414854
 20
1.4092681904
 10
-45.5829212219
 20
1.4329064612
 10
-45.5871149019
 20
1.456103248
 10
-45.5901000248
 20
1.4787496771
 10
-45.5918990912
 20
1.5009546222
 10
-45.5925121011
 20
1.5227180833
  0
LWPOLYLINE
  5
2E2
100
AcDbEntity
  8
RACCORDO
100
AcDbPolyline
 62
7
  6
CONTINUOUS
 90
22
 70
0
 10
-43.5348385169
 20
1.955006845
 10
-43.5657350523
 20
1.9742907645
 10
-43.5959233653
 20
1.995669061
 10
-43.6254034557
 20
2.0191417345
 10
-43.6542668745
 20
2.0448172776
 10
-43.6824220707
 20
2.0725871978
 10
-43.709594392
 20
2.1021260173
 10
-43.7357969195
 20
2.1334479973
 10
-43.761016572
 20
2.1665388766
 10
-43.7849394535
 20
2.2010303934
 10
-43.807567465
 20
2.2369343863
 10
-43.8288987055
 20
2.2742390167
 10
-43.8486135756
 20
2.3125405067
 10
-43.866723807
 20
2.3518949228
 10
-43.8832176681
 20
2.3922461984
 10
-43.8977403644
 20
2.4330223562
 10
-43.9102740465
 20
2.4742594285
 10
-43.9208365639
 20
2.5159213829
 10
-43.9291266713
 20
2.5573281446
 10
-43.9350439537
 20
2.5982530219
 10
-43.9386888261
 20
2.6389227064
 10
-43.9400612886
 20
2.6793371982
  0
LWPOLYLINE
  5
2E3
100
AcDbEntity
  8
0
100
AcDbPolyline
 62
7
  6
CONTINUOUS
 90
13
 70
0
 10
-1.5143052222
 20
-23.6290197103
 10
-1.4950167446
 20
-23.6414082975
 10
-1.476682182
 20
-23.6552344966
 10
-1.4593015344
 20
-23.6704983077
 10
-1.4429600744
 20
-23.6870942785
 10
-1.4275725294
 20
-23.7051278613
 10
-1.4128830818
 20
-23.7249154123
 10
-1.398714092
 20
-23.7466062426
 10
-1.3852431996
 20
-23.7700510411
 10
-1.3727475064
 20
-23.7951182309
 10
-1.3613193795
 20
-23.8217639528
 10
-1.3508664517
 20
-23.850032066
 10
-1.3413887231
 20
-23.8799225703
  0
LWPOLYLINE
  5
2E4
100
AcDbEntity
  8
RACCORDO
100
AcDbPolyline
 62
7
  6
CONTINUOUS
 90
7
 70
0
 10
-41.8769000999
 20
3.4221255922
 10
-41.8738539625
 20
3.4198786731
 10
-41.870750882
 20
3.4176850251
 10
-41.8675908581
 20
3.4155446482
 10
-41.8643738911
 20
3.4134575423
 10
-41.8610999807
 20
3.4114237076
 10
-41.8577691272
 20
3.4094431439
  0
LWPOLYLINE
  5
2E5
100
AcDbEntity
  8
0
100
AcDbPolyline
 62
7
  6
CONTINUOUS
 90
16
 70
0
 10
-1.4479556138
 20
-22.9058042846
 10
-1.427477035
 20
-22.9217133416
 10
-1.4080649907
 20
-22.9387338532
 10
-1.3897194809
 20
-22.9568658193
 10
-1.3723265337
 20
-22.9762883986
 10
-1.356000121
 20
-22.9968224324
 10
-1.3410821582
 20
-23.0179304446
 10
-1.3276966778
 20
-23.0394579039
 10
-1.3157196473
 20
-23.0615593416
 10
-1.3051208841
 20
-23.0841608751
 10
-1.2957989386
 20
-23.1075681123
 10
-1.2878552604
 20
-23.1314754453
 10
-1.2815640158
 20
-23.1548921681
 10
-1.2770165937
 20
-23.1774880453
 10
-1.2741216052
 20
-23.1995933124
 10
-1.2728790503
 20
-23.2212079693
  0
LINE
  5
2E6
100
AcDbEntity
  8
RACCORDO
100
AcDbLine
 62
7
  6
CONTINUOUS
 10
-17.4996820324
 20
-9.3828429973
 11
-17.4996820324
 21
-9.3591835191
  0
LINE
  5
2E7
100
AcDbEntity
  8
0
100
AcDbLine
 62
7
  6
CONTINUOUS
 10
-26.4868995022
 20
-1.3358141132
 11
-27.828286116
 21
-2.1959833053
  0
LINE
  5
2E8
100
AcDbEntity
  8
RACCORDO
100
AcDbLine
 62
7
  6
CONTINUOUS
 10
-29.893109915
 20
-1.6961107458
 11
-30.45879534
 21
-2.0341316538
  0
LINE
  5
2E9
100
AcDbEntity
  8
RACCORDO
100
AcDbLine
 62
7
  6
CONTINUOUS
 10
-29.6409362577
 20
-1.7195928986
 11
-30.2066216826
 21
-2.0576138066
  0
LWPOLYLINE
  5
2EA
100
AcDbEntity
  8
0
100
AcDbPolyline
 62
7
  6
CONTINUOUS
 90
11
 70
0
 10
-26.4798859723
 20
-1.3315404498
 10
-26.4695825397
 20
-1.3254179558
 10
-26.4604195785
 20
-1.3201618767
 10
-26.4524536401
 20
-1.3157007226
 10
-26.4458208143
 20
-1.3119152077
 10
-26.4404601274
 20
-1.3087569241
 10
-26.4361200815
 20
-1.3062685959
 10
-26.4327980267
 20
-1.3043886002
 10
-26.4305241946
 20
-1.3030261499
 10
-26.4290980704
 20
-1.30221237
 10
-26.4285066378
 20
-1.3018980793
  0
LINE
  5
2EB
100
AcDbEntity
  8
0
100
AcDbLine
 62
7
  6
CONTINUOUS
 10
-33.576519115
 20
-0.3172805014
 11
-33.5300235542
 21
-0.2904345473
  0
LINE
  5
2EC
100
AcDbEntity
  8
0
100
AcDbLine
 62
7
  6
CONTINUOUS
 10
-33.4903610745
 20
-0.313335166
 11
-33.3489397183
 21
-0.2316802473
  0
LINE
  5
2ED
100
AcDbEntity
  8
0
100
AcDbLine
 62
7
  6
CONTINUOUS
 10
-33.2825361808
 20
-0.4333424914
 11
-33.1411148245
 21
-0.3516875728
  0
LINE
  5
2EE
100
AcDbEntity
  8
0
100
AcDbLine
 62
7
  6
CONTINUOUS
 10
-32.9289827902
 20
-0.2292051948
 11
-32.7875614339
 21
-0.1475502761
  0
LINE
  5
2EF
100
AcDbEntity
  8
0
100
AcDbLine
 62
7
  6
CONTINUOUS
 10
-32.5754293996
 20
-0.0250678981
 11
-32.4340080434
 21
0.0565870206
  0
LINE
  5
2F0
100
AcDbEntity
  8
0
100
AcDbLine
 62
7
  6
CONTINUOUS
 10
-32.221876009
 20
0.1790693985
 11
-32.0804546528
 21
0.2607243172
  0
LINE
  5
2F1
100
AcDbEntity
  8
0
100
AcDbLine
 62
7
  6
CONTINUOUS
 10
-31.8683226184
 20
0.3832066952
 11
-31.7269012622
 21
0.4648616139
  0
LINE
  5
2F2
100
AcDbEntity
  8
0
100
AcDbLine
 62
7
  6
CONTINUOUS
 10
-31.5147692278
 20
0.5873439919
 11
-31.3733478716
 21
0.6689989105
  0
LINE
  5
2F3
100
AcDbEntity
  8
0
100
AcDbLine
 62
7
  6
CONTINUOUS
 10
-31.1612158372
 20
0.7914812885
 11
-31.019794481
 21
0.8731362072
  0
LINE
  5
2F4
100
AcDbEntity
  8
0
100
AcDbLine
 62
7
  6
CONTINUOUS
 10
-30.8076624466
 20
0.9956185852
 11
-30.6662410904
 21
1.0772735039
  0
LINE
  5
2F5
100
AcDbEntity
  8
0
100
AcDbLine
 62
7
  6
CONTINUOUS
 10
-27.9792353219
 20
-1.8623035681
 11
-27.8378139656
 21
-1.7806486494
  0
LINE
  5
2F6
100
AcDbEntity
  8
0
100
AcDbLine
 62
7
  6
CONTINUOUS
 10
-27.6256819313
 20
-1.6581662714
 11
-27.484260575
 21
-1.5765113528
  0
LINE
  5
2F7
100
AcDbEntity
  8
0
100
AcDbLine
 62
7
  6
CONTINUOUS
 10
-27.2721285407
 20
-1.4540289748
 11
-27.1307071845
 21
-1.3723740561
  0
LINE
  5
2F8
100
AcDbEntity
  8
0
100
AcDbLine
 62
7
  6
CONTINUOUS
 10
-26.9185751501
 20
-1.2498916781
 11
-26.7771537939
 21
-1.1682367594
  0
LINE
  5
2F9
100
AcDbEntity
  8
0
100
AcDbLine
 62
7
  6
CONTINUOUS
 10
-26.6710877767
 20
-1.229466112
 11
-28.0853013391
 21
-2.0460152986
  0
LINE
  5
2FA
100
AcDbEntity
  8
RACCORDO
100
AcDbLine
 62
7
  6
CONTINUOUS
 10
-33.9542829173
 20
-0.0991644165
 11
-33.8774065873
 21
-0.0563264082
  0
LINE
  5
2FB
100
AcDbEntity
  8
RACCORDO
100
AcDbLine
 62
7
  6
CONTINUOUS
 10
-28.8108639245
 20
-1.902384576
 11
-29.0767297964
 21
-2.0453586382
  0
LINE
  5
2FC
100
AcDbEntity
  8
0
100
AcDbLine
 62
7
  6
CONTINUOUS
 10
-30.7443633477
 20
1.1223921526
 11
-33.3489397183
 21
-0.2316802473
  0
LWPOLYLINE
  5
2FD
100
AcDbEntity
  8
0
100
AcDbPolyline
 62
7
  6
CONTINUOUS
 90
11
 70
0
 10
-34.590683726
 20
0.5475709281
 10
-34.5678830084
 20
0.5573399431
 10
-34.5422868638
 20
0.5660600731
 10
-34.5171415089
 20
0.5723509555
 10
-34.4925856566
 20
0.5761763617
 10
-34.4687566428
 20
0.5775139707
 10
-34.445784946
 20
0.5763556394
 10
-34.4237966877
 20
0.5727066318
 10
-34.4029151484
 20
0.5665868933
 10
-34.3832555523
 20
0.5580305556
 10
-34.3760274531
 20
0.554091792
  0
LWPOLYLINE
  5
2FE
100
AcDbEntity
  8
0
100
AcDbPolyline
 62
7
  6
CONTINUOUS
 90
6
 70
0
 10
-12.5827522648
 20
-11.0355957756
 10
-12.546349426
 20
-11.0430006532
 10
-12.510550326
 20
-11.0531028429
 10
-12.4756179878
 20
-11.0658316984
 10
-12.4416171706
 20
-11.0811761847
 10
-12.4141221748
 20
-11.095928381
  0
LWPOLYLINE
  5
2FF
100
AcDbEntity
  8
ASSI
100
AcDbPolyline
 62
7
  6
CONTINUOUS
 90
8
 70
0
 10
1.1634205153
 20
-17.2415923487
 10
1.1502398262
 20
-17.2387754638
 10
1.1375692227
 20
-17.2372211014
 10
1.1254288743
 20
-17.2368611334
 10
1.1138963448
 20
-17.2376164886
 10
1.103012351
 20
-17.2394328561
 10
1.0927853845
 20
-17.2422862553
 10
1.0832311197
 20
-17.2461388117
  0
LWPOLYLINE
  5
300
100
AcDbEntity
  8
RACCORDO
100
AcDbPolyline
 62
7
  6
CONTINUOUS
 90
22
 70
0
 10
-43.3952524685
 20
2.2657636455
 10
-43.4131064802
 20
2.2733570314
 10
-43.4302820257
 20
2.2824986802
 10
-43.4467092853
 20
2.2931144728
 10
-43.462296447
 20
2.3051062205
 10
-43.4769978111
 20
2.3184152068
 10
-43.4908151971
 20
2.3330330314
 10
-43.5036907767
 20
2.3488959261
 10
-43.5155508576
 20
2.365919226
 10
-43.5263733696
 20
2.3840723003
 10
-43.5360876651
 20
2.4032786336
 10
-43.5446303544
 20
2.4234559609
 10
-43.5519857531
 20
2.4445659783
 10
-43.5580793661
 20
2.4665473837
 10
-43.5628433927
 20
2.4892859907
 10
-43.5662676419
 20
2.5126603247
 10
-43.5682645996
 20
2.5365913742
 10
-43.568779526
 20
2.5609629559
 10
-43.567851487
 20
2.5855936474
 10
-43.5654491189
 20
2.6103539511
 10
-43.561471384
 20
2.6351670277
 10
-43.5558563626
 20
2.6599289668
  0
LWPOLYLINE
  5
301
100
AcDbEntity
  8
0
100
AcDbPolyline
 62
7
  6
CONTINUOUS
 90
11
 70
0
 10
-12.421646634
 20
-11.0918369142
 10
-12.4413467854
 20
-11.0833086743
 10
-12.4622815211
 20
-11.0772201657
 10
-12.4843281997
 20
-11.0736103913
 10
-12.5073453123
 20
-11.0725003695
 10
-12.5312103334
 20
-11.0738914237
 10
-12.5557855902
 20
-11.0777711116
 10
-12.5808946724
 20
-11.0841007955
 10
-12.6063835254
 20
-11.0928237506
 10
-12.6321247617
 20
-11.103878852
 10
-12.6579779982
 20
-11.1171903164
  0
LWPOLYLINE
  5
302
100
AcDbEntity
  8
0
100
AcDbPolyline
 62
7
  6
CONTINUOUS
 90
11
 70
0
 10
-28.3315492107
 20
-1.9056585644
 10
-28.3512493621
 20
-1.8971303244
 10
-28.3721840978
 20
-1.8910418159
 10
-28.3942307764
 20
-1.8874320415
 10
-28.417247889
 20
-1.8863220196
 10
-28.4411129101
 20
-1.8877130739
 10
-28.4656881669
 20
-1.8915927617
 10
-28.4907972491
 20
-1.8979224457
 10
-28.5162861021
 20
-1.9066454007
 10
-28.5420273384
 20
-1.9177005022
 10
-28.5678805749
 20
-1.9310119665
  0
LINE
  5
303
100
AcDbEntity
  8
0
100
AcDbLine
 62
7
  6
CONTINUOUS
 10
33.021600902
 20
-35.6283008644
 11
33.0343453911
 21
-35.6349757243
  0
LINE
  5
304
100
AcDbEntity
  8
0
100
AcDbLine
 62
7
  6
CONTINUOUS
 10
-30.6180094048
 20
1.1164125351
 11
-30.6052649157
 21
1.1097376752
  0
LWPOLYLINE
  5
305
100
AcDbEntity
  8
ASSI
100
AcDbPolyline
 62
7
  6
CONTINUOUS
 90
5
 70
0
 10
17.126850078
 20
-26.4502037412
 10
17.1147990683
 20
-26.4436572655
 10
17.1008090639
 20
-26.4371451261
 10
17.0869384635
 20
-26.4318494609
 10
17.073323092
 20
-26.4277706986
  0
LWPOLYLINE
  5
306
100
AcDbEntity
  8
ASSI
100
AcDbPolyline
 62
7
  6
CONTINUOUS
 90
5
 70
0
 10
1.2169475013
 20
-17.2640253913
 10
1.2048964916
 20
-17.2574789156
 10
1.1909064872
 20
-17.2509667762
 10
1.1770358868
 20
-17.245671111
 10
1.1634205153
 20
-17.2415923487
  0
LWPOLYLINE
  5
307
100
AcDbEntity
  8
ASSI
100
AcDbPolyline
 62
7
  6
CONTINUOUS
 90
5
 70
0
 10
-14.6929550754
 20
-8.0778470415
 10
-14.7050060851
 20
-8.0713005657
 10
-14.7189960895
 20
-8.0647884264
 10
-14.7328666898
 20
-8.0594927611
 10
-14.7464820614
 20
-8.0554139988
  0
LWPOLYLINE
  5
308
100
AcDbEntity
  8
0
100
AcDbPolyline
 62
7
  6
CONTINUOUS
 90
12
 70
0
 10
28.5856063399
 20
-34.7686577772
 10
28.5780963633
 20
-34.7645746737
 10
28.5583962128
 20
-34.7560464348
 10
28.5374614807
 20
-34.7499579275
 10
28.5154148075
 20
-34.7463481537
 10
28.4923976973
 20
-34.7452381313
 10
28.4685326709
 20
-34.7466291853
 10
28.4439574047
 20
-34.7505088748
 10
28.4188483166
 20
-34.7568385612
 10
28.3933594639
 20
-34.7655615173
 10
28.367618232
 20
-34.7766166178
 10
28.3417650039
 20
-34.7899280783
  0
LINE
  5
309
100
AcDbEntity
  8
0
100
AcDbLine
 62
7
  6
CONTINUOUS
 10
27.3339042582
 20
-34.0459406827
 11
27.3263900839
 21
-34.0418554344
  0
LWPOLYLINE
  5
30A
100
AcDbEntity
  8
0
100
AcDbPolyline
 62
7
  6
CONTINUOUS
 90
12
 70
0
 10
12.6757037632
 20
-25.5824794273
 10
12.6681937866
 20
-25.5783963238
 10
12.6484936361
 20
-25.5698680849
 10
12.627558904
 20
-25.5637795776
 10
12.6055122308
 20
-25.5601698038
 10
12.5824951206
 20
-25.5590597814
 10
12.5586300942
 20
-25.5604508354
 10
12.534054828
 20
-25.564330525
 10
12.5089457399
 20
-25.5706602113
 10
12.4834568872
 20
-25.5793831674
 10
12.4577156553
 20
-25.590438268
 10
12.4318624272
 20
-25.6037497284
  0
LINE
  5
30B
100
AcDbEntity
  8
0
100
AcDbLine
 62
7
  6
CONTINUOUS
 10
11.4240016815
 20
-24.8597623328
 11
11.4164875072
 21
-24.8556770845
  0
LWPOLYLINE
  5
30C
100
AcDbEntity
  8
0
100
AcDbPolyline
 62
7
  6
CONTINUOUS
 90
12
 70
0
 10
-11.1624345795
 20
-11.8186371103
 10
-11.1699487573
 20
-11.8145518603
 10
-11.1896498961
 20
-11.8060239011
 10
-11.2105854119
 20
-11.799935913
 10
-11.2326327508
 20
-11.796326792
 10
-11.2556505133
 20
-11.7952175086
 10
-11.2795165833
 20
-11.7966094259
 10
-11.3040928848
 20
-11.8004901348
 10
-11.3292018242
 20
-11.8068206393
 10
-11.3546888843
 20
-11.8155437196
 10
-11.3804270366
 20
-11.8265980058
 10
-11.4062759151
 20
-11.8399074116
  0
LINE
  5
30D
100
AcDbEntity
  8
0
100
AcDbLine
 62
7
  6
CONTINUOUS
 10
-12.4141366604
 20
-11.0959200162
 11
-12.421646634
 21
-11.0918369142
  0
LWPOLYLINE
  5
30E
100
AcDbEntity
  8
0
100
AcDbPolyline
 62
7
  6
CONTINUOUS
 90
12
 70
0
 10
-27.0723371606
 20
-2.6324587578
 10
-27.0798513486
 20
-2.6283735029
 10
-27.0995524852
 20
-2.6198455468
 10
-27.1204879904
 20
-2.6137575627
 10
-27.1425353135
 20
-2.6101484436
 10
-27.1655530691
 20
-2.6090391586
 10
-27.189419155
 20
-2.6104310755
 10
-27.2139954845
 20
-2.6143117896
 10
-27.2391044415
 20
-2.6206423015
 10
-27.2645915001
 20
-2.6293653848
 10
-27.2903296388
 20
-2.6404196681
 10
-27.3161784916
 20
-2.6537290619
  0
LINE
  5
30F
100
AcDbEntity
  8
0
100
AcDbLine
 62
7
  6
CONTINUOUS
 10
-28.3240392371
 20
-1.9097416663
 11
-28.3315492107
 21
-1.9056585644
  0
LWPOLYLINE
  5
310
100
AcDbEntity
  8
RACCORDO
100
AcDbPolyline
 62
7
  6
CONTINUOUS
 90
12
 70
0
 10
-39.9330407555
 20
4.7931503154
 10
-39.9405507329
 20
4.7972334193
 10
-39.9602508847
 20
4.8057616589
 10
-39.9811856215
 20
4.8118501671
 10
-40.0032323014
 20
4.815459941
 10
-40.0262494149
 20
4.8165699621
 10
-40.0501144358
 20
4.8151789071
 10
-40.0746896918
 20
4.8112992187
 10
-40.0997987727
 20
4.8049695346
 10
-40.1252876243
 20
4.7962465796
 10
-40.1510288588
 20
4.7851914786
 10
-40.1768820931
 20
4.7718800151
  0
LWPOLYLINE
  5
311
100
AcDbEntity
  8
RACCORDO
100
AcDbPolyline
 62
7
  6
CONTINUOUS
 90
12
 70
0
 10
30.0060225736
 20
-36.7797888045
 10
29.9988244051
 20
-36.7758596934
 10
29.9792161008
 20
-36.7672957996
 10
29.958371804
 20
-36.7611989851
 10
29.9363113943
 20
-36.7575295695
 10
29.913393536
 20
-36.7563472114
 10
29.8896042124
 20
-36.7576925662
 10
29.8649574402
 20
-36.7615249783
 10
29.8398539334
 20
-36.7677821393
 10
29.8144272633
 20
-36.7764432799
 10
29.7885438587
 20
-36.7875291693
 10
29.7622037195
 20
-36.8010398077
  0
LWPOLYLINE
  5
312
100
AcDbEntity
  8
RACCORDO
100
AcDbPolyline
 62
7
  6
CONTINUOUS
 90
12
 70
0
 10
-33.6335877332
 20
-0.035075405
 10
-33.6407859017
 20
-0.0311462939
 10
-33.6603942059
 20
-0.0225824001
 10
-33.6812385028
 20
-0.0164855856
 10
-33.7032989125
 20
-0.0128161701
 10
-33.7262167708
 20
-0.0116338119
 10
-33.7500060944
 20
-0.0129791667
 10
-33.7746528666
 20
-0.0168115788
 10
-33.7997563734
 20
-0.0230687398
 10
-33.8251830434
 20
-0.0317298804
 10
-33.8510664481
 20
-0.0428157698
 10
-33.8774065873
 20
-0.0563264082
  0
LINE
  5
313
100
AcDbEntity
  8
0
100
AcDbLine
 62
7
  6
CONTINUOUS
 10
29.3465447803
 20
-36.39921854
 11
29.3576006719
 21
-36.4053658496
  0
LINE
  5
314
100
AcDbEntity
  8
0
100
AcDbLine
 62
7
  6
CONTINUOUS
 10
-34.2930655265
 20
0.3454948595
 11
-34.2820096349
 21
0.3393475499
  0
LINE
  5
315
100
AcDbEntity
  8
RACCORDO
100
AcDbLine
 62
7
  6
CONTINUOUS
 10
-41.8577691272
 20
3.4094431439
 11
36.613379903
 21
-41.8988148316
  0
LINE
  5
316
100
AcDbEntity
  8
RACCORDO
100
AcDbLine
 62
7
  6
CONTINUOUS
 10
-41.7442860187
 20
3.5009872729
 11
36.613379903
 21
-41.7417446557
  0
LINE
  5
317
100
AcDbEntity
  8
RACCORDO
100
AcDbLine
 62
7
  6
CONTINUOUS
 10
36.613379903
 20
-41.4373879214
 11
-41.4794529836
 21
3.6524350543
  0
LINE
  5
318
100
AcDbEntity
  8
RACCORDO
100
AcDbLine
 62
7
  6
CONTINUOUS
 10
-27.5520968572
 20
-4.0887836088
 11
-22.8909732021
 21
-6.7800579897
  0
LINE
  5
319
100
AcDbEntity
  8
RACCORDO
100
AcDbLine
 62
7
  6
CONTINUOUS
 10
-11.6421942805
 20
-13.2749619587
 11
-7.193170351
 21
-15.8437726162
  0
LINE
  5
31A
100
AcDbEntity
  8
RACCORDO
100
AcDbLine
 62
7
  6
CONTINUOUS
 10
4.2677082962
 20
-22.4611403086
 11
8.7167322257
 21
-25.0299509661
  0
LINE
  5
31B
100
AcDbEntity
  8
RACCORDO
100
AcDbLine
 62
7
  6
CONTINUOUS
 10
20.1776108729
 20
-31.6473186585
 11
24.6266348024
 21
-34.216129316
  0
LINE
  5
31C
100
AcDbEntity
  8
RACCORDO
100
AcDbLine
 62
7
  6
CONTINUOUS
 10
-40.9659025073
 20
3.9492568586
 11
-27.7671032875
 21
-3.6715643911
  0
LINE
  5
31D
100
AcDbEntity
  8
DRAFT
100
AcDbLine
 62
7
  6
CONTINUOUS
 10
-22.4638024286
 20
-6.7336238411
 11
-11.8572007108
 21
-12.857742741
  0
LINE
  5
31E
100
AcDbEntity
  8
DRAFT
100
AcDbLine
 62
7
  6
CONTINUOUS
 10
-6.5538998519
 20
-15.919802191
 11
4.0527018659
 21
-22.0439210909
  0
LINE
  5
31F
100
AcDbEntity
  8
DRAFT
100
AcDbLine
 62
7
  6
CONTINUOUS
 10
9.3560027248
 20
-25.1059805408
 11
19.9626044426
 21
-31.2300994408
  0
LINE
  5
320
100
AcDbEntity
  8
RACCORDO
100
AcDbLine
 62
7
  6
CONTINUOUS
 10
25.2659053015
 20
-34.2921588907
 11
36.613379903
 21
-40.8440485084
  0
LINE
  5
321
100
AcDbEntity
  8
0
100
AcDbLine
 62
7
  6
CONTINUOUS
 10
33.1580645247
 20
-38.7953126425
 11
30.357074126
 21
-37.1780558909
  0
LINE
  5
322
100
AcDbEntity
  8
0
100
AcDbLine
 62
7
  6
CONTINUOUS
 10
-30.481545782
 20
-2.050599243
 11
-33.2825361808
 21
-0.4333424914
  0
LINE
  5
323
100
AcDbEntity
  8
0
100
AcDbLine
 62
7
  6
CONTINUOUS
 10
-33.5300235542
 20
-0.2904345473
 11
-33.4903610745
 21
-0.313335166
  0
LINE
  5
324
100
AcDbEntity
  8
0
100
AcDbLine
 62
7
  6
CONTINUOUS
 10
30.1095867526
 20
-37.0351479468
 11
30.1492492323
 21
-37.0580485655
  0
LINE
  5
325
100
AcDbEntity
  8
0
100
AcDbLine
 62
7
  6
CONTINUOUS
 10
29.7622037195
 20
-36.8010398077
 11
29.0489265808
 21
-36.3892025273
  0
LINE
  5
326
100
AcDbEntity
  8
0
100
AcDbLine
 62
7
  6
CONTINUOUS
 10
-33.8774065873
 20
-0.0563264082
 11
-34.590683726
 21
0.3555108722
  0
LINE
  5
327
100
AcDbEntity
  8
RACCORDO
100
AcDbLine
 62
7
  6
CONTINUOUS
 10
36.613379903
 20
-40.6386452708
 11
33.4329886242
 21
-38.8023272061
  0
LINE
  5
328
100
AcDbEntity
  8
RACCORDO
100
AcDbLine
 62
7
  6
CONTINUOUS
 10
28.1296877653
 20
-35.7402677562
 11
26.180591417
 21
-34.6148839526
  0
LINE
  5
329
100
AcDbEntity
  8
RACCORDO
100
AcDbLine
 62
7
  6
CONTINUOUS
 10
19.6135822128
 20
-30.823175142
 11
17.5329062754
 21
-29.6218189328
  0
LINE
  5
32A
100
AcDbEntity
  8
RACCORDO
100
AcDbLine
 62
7
  6
CONTINUOUS
 10
12.2099649607
 20
-26.5484193298
 11
10.2706888403
 21
-25.4287056027
  0
LINE
  5
32B
100
AcDbEntity
  8
RACCORDO
100
AcDbLine
 62
7
  6
CONTINUOUS
 10
3.7036796361
 20
-21.6369967922
 11
1.6230036987
 21
-20.4356405829
  0
LINE
  5
32C
100
AcDbEntity
  8
RACCORDO
100
AcDbLine
 62
7
  6
CONTINUOUS
 10
-3.699937616
 20
-17.3622409799
 11
-5.7806135535
 21
-16.1608847706
  0
LINE
  5
32D
100
AcDbEntity
  8
RACCORDO
100
AcDbLine
 62
7
  6
CONTINUOUS
 10
-12.3476227576
 20
-12.3691759601
 11
-14.286898878
 21
-11.249462233
  0
LINE
  5
32E
100
AcDbEntity
  8
RACCORDO
100
AcDbLine
 62
7
  6
CONTINUOUS
 10
-19.6098401927
 20
-8.17606263
 11
-21.6905161302
 21
-6.9747064207
  0
LINE
  5
32F
100
AcDbEntity
  8
RACCORDO
100
AcDbLine
 62
7
  6
CONTINUOUS
 10
-28.2575253343
 20
-3.1829976102
 11
-30.2066216826
 21
-2.0576138066
  0
LINE
  5
330
100
AcDbEntity
  8
RACCORDO
100
AcDbLine
 62
7
  6
CONTINUOUS
 10
-35.5099225415
 20
1.0044456433
 11
-40.9546447567
 21
4.148160012
  0
LINE
  5
331
100
AcDbEntity
  8
0
100
AcDbLine
 62
7
  6
CONTINUOUS
 10
33.2946144842
 20
-38.7108450404
 11
30.4984954822
 21
-37.0964009723
  0
LINE
  5
332
100
AcDbEntity
  8
0
100
AcDbLine
 62
7
  6
CONTINUOUS
 10
-30.3449958226
 20
-1.9661316409
 11
-33.1411148245
 21
-0.3516875728
  0
LINE
  5
333
100
AcDbEntity
  8
DRAFT
100
AcDbLine
 62
7
  6
CONTINUOUS
 10
-17.4996820324
 20
-9.3828429973
 11
-17.4390371416
 21
-9.4178585972
  0
LINE
  5
334
100
AcDbEntity
  8
DRAFT
100
AcDbLine
 62
7
  6
CONTINUOUS
 10
-1.5897794557
 20
-18.5690213472
 11
-1.5291345649
 21
-18.604036947
  0
LINE
  5
335
100
AcDbEntity
  8
DRAFT
100
AcDbLine
 62
7
  6
CONTINUOUS
 10
14.320123121
 20
-27.755199697
 11
14.3807680118
 21
-27.7902152969
  0
LINE
  5
336
100
AcDbEntity
  8
RACCORDO
100
AcDbLine
 62
7
  6
CONTINUOUS
 10
-21.9556890133
 20
-6.7793171922
 11
-21.7452023014
 21
-6.9008495817
  0
LINE
  5
337
100
AcDbEntity
  8
RACCORDO
100
AcDbLine
 62
7
  6
CONTINUOUS
 10
-18.6807811493
 20
-8.6702079487
 11
-17.8410014721
 21
-9.1550862094
  0
LINE
  5
338
100
AcDbEntity
  8
RACCORDO
100
AcDbLine
 62
7
  6
CONTINUOUS
 10
-6.0457864366
 20
-15.9654955421
 11
-5.8352997247
 21
-16.0870279316
  0
LINE
  5
339
100
AcDbEntity
  8
RACCORDO
100
AcDbLine
 62
7
  6
CONTINUOUS
 10
-2.7708785726
 20
-17.8563862986
 11
-1.9310988954
 21
-18.3412645592
  0
LINE
  5
33A
100
AcDbEntity
  8
RACCORDO
100
AcDbLine
 62
7
  6
CONTINUOUS
 10
4.4913388625
 20
-22.0494996286
 11
4.6298806369
 21
-22.1294919128
  0
LINE
  5
33B
100
AcDbEntity
  8
RACCORDO
100
AcDbLine
 62
7
  6
CONTINUOUS
 10
9.8641161401
 20
-25.151673892
 11
10.1559729175
 21
-25.3201883374
  0
LINE
  5
33C
100
AcDbEntity
  8
RACCORDO
100
AcDbLine
 62
7
  6
CONTINUOUS
 10
13.1390240041
 20
-27.0425646484
 11
13.9788036813
 21
-27.5274429091
  0
LINE
  5
33D
100
AcDbEntity
  8
RACCORDO
100
AcDbLine
 62
7
  6
CONTINUOUS
 10
20.4012414392
 20
-31.2356779785
 11
20.5397832136
 21
-31.3156702627
  0
LINE
  5
33E
100
AcDbEntity
  8
RACCORDO
100
AcDbLine
 62
7
  6
CONTINUOUS
 10
25.7740187168
 20
-34.3378522418
 11
26.0658754942
 21
-34.5063666873
  0
LINE
  5
33F
100
AcDbEntity
  8
0
100
AcDbLine
 62
7
  6
CONTINUOUS
 10
29.3576006719
 20
-36.4053658496
 11
29.3576742932
 21
-36.4054083566
  0
LINE
  5
340
100
AcDbEntity
  8
RACCORDO
100
AcDbLine
 62
7
  6
CONTINUOUS
 10
30.0060454421
 20
-36.7797697297
 11
29.3572882109
 21
-36.4051854353
  0
LINE
  5
341
100
AcDbEntity
  8
RACCORDO
100
AcDbLine
 62
7
  6
CONTINUOUS
 10
-33.6335648647
 20
-0.0350563302
 11
-34.2823220959
 21
0.3395279642
  0
LINE
  5
342
100
AcDbEntity
  8
0
100
AcDbLine
 62
7
  6
CONTINUOUS
 10
-34.2820096349
 20
0.3393475499
 11
-34.2819360136
 21
0.3393050429
  0
LINE
  5
343
100
AcDbEntity
  8
RACCORDO
100
AcDbLine
 62
7
  6
CONTINUOUS
 10
-34.590683726
 20
0.6780316337
 11
-34.3760273474
 21
0.554091731
  0
LINE
  5
344
100
AcDbEntity
  8
RACCORDO
100
AcDbLine
 62
7
  6
CONTINUOUS
 10
-21.9556890133
 20
-6.6172559597
 11
-21.6096772151
 21
-6.8170388354
  0
LINE
  5
345
100
AcDbEntity
  8
RACCORDO
100
AcDbLine
 62
7
  6
CONTINUOUS
 10
-18.6807811493
 20
-8.5081467161
 11
-17.6013891999
 21
-9.1313740997
  0
LINE
  5
346
100
AcDbEntity
  8
RACCORDO
100
AcDbLine
 62
7
  6
CONTINUOUS
 10
-6.0457864366
 20
-15.8034343096
 11
-5.6997746384
 21
-16.0032171853
  0
LINE
  5
347
100
AcDbEntity
  8
RACCORDO
100
AcDbLine
 62
7
  6
CONTINUOUS
 10
-2.7708785726
 20
-17.694325066
 11
-1.6914866232
 21
-18.3175524496
  0
LINE
  5
348
100
AcDbEntity
  8
RACCORDO
100
AcDbLine
 62
7
  6
CONTINUOUS
 10
4.4913388625
 20
-21.8874383961
 11
4.7654057232
 21
-22.0456811666
  0
LINE
  5
349
100
AcDbEntity
  8
RACCORDO
100
AcDbLine
 62
7
  6
CONTINUOUS
 10
9.8641161401
 20
-24.9896126594
 11
10.2914980038
 21
-25.2363775912
  0
LINE
  5
34A
100
AcDbEntity
  8
RACCORDO
100
AcDbLine
 62
7
  6
CONTINUOUS
 10
13.1390240041
 20
-26.8805034159
 11
14.2184159534
 21
-27.5037307995
  0
LINE
  5
34B
100
AcDbEntity
  8
RACCORDO
100
AcDbLine
 62
7
  6
CONTINUOUS
 10
20.4012414392
 20
-31.073616746
 11
20.6753082999
 21
-31.2318595164
  0
LINE
  5
34C
100
AcDbEntity
  8
RACCORDO
100
AcDbLine
 62
7
  6
CONTINUOUS
 10
25.7740187168
 20
-34.1757910093
 11
26.2014005805
 21
-34.4225559411
  0
LINE
  5
34D
100
AcDbEntity
  8
RACCORDO
100
AcDbLine
 62
7
  6
CONTINUOUS
 10
29.0489265808
 20
-36.0666817658
 11
29.2635829594
 21
-36.1906216685
  0
LINE
  5
34E
100
AcDbEntity
  8
0
100
AcDbLine
 62
7
  6
CONTINUOUS
 10
33.5031076092
 20
-38.5862616018
 11
30.7106275166
 21
-36.9739185943
  0
LINE
  5
34F
100
AcDbEntity
  8
0
100
AcDbLine
 62
7
  6
CONTINUOUS
 10
-30.1365026975
 20
-1.8415482023
 11
-32.9289827902
 21
-0.2292051948
  0
LINE
  5
350
100
AcDbEntity
  8
0
100
AcDbLine
 62
7
  6
CONTINUOUS
 10
33.6421030259
 20
-38.503205976
 11
30.8520488728
 21
-36.8922636756
  0
LINE
  5
351
100
AcDbEntity
  8
0
100
AcDbLine
 62
7
  6
CONTINUOUS
 10
-29.9975072809
 20
-1.7584925765
 11
-32.7875614339
 21
-0.1475502761
  0
LINE
  5
352
100
AcDbEntity
  8
RACCORDO
100
AcDbLine
 62
7
  6
CONTINUOUS
 10
-26.6489034148
 20
-3.5302352359
 11
-21.9556890133
 21
-6.2400384115
  0
LINE
  5
353
100
AcDbEntity
  8
RACCORDO
100
AcDbLine
 62
7
  6
CONTINUOUS
 10
-10.7390008381
 20
-12.7164135858
 11
-6.2578861623
 21
-15.3037530381
  0
LINE
  5
354
100
AcDbEntity
  8
RACCORDO
100
AcDbLine
 62
7
  6
CONTINUOUS
 10
5.1709017386
 20
-21.9025919357
 11
9.6520164144
 21
-24.489931388
  0
LINE
  5
355
100
AcDbEntity
  8
RACCORDO
100
AcDbLine
 62
7
  6
CONTINUOUS
 10
21.0808043153
 20
-31.0887702855
 11
25.5619189911
 21
-33.6761097378
  0
LINE
  5
356
100
AcDbEntity
  8
RACCORDO
100
AcDbLine
 62
7
  6
CONTINUOUS
 10
36.613379903
 20
-39.9740046881
 11
33.9986740491
 21
-38.4643062981
  0
LINE
  5
357
100
AcDbEntity
  8
RACCORDO
100
AcDbLine
 62
7
  6
CONTINUOUS
 10
28.6953731902
 20
-35.4022468481
 11
26.7364027661
 21
-34.2711618769
  0
LINE
  5
358
100
AcDbEntity
  8
RACCORDO
100
AcDbLine
 62
7
  6
CONTINUOUS
 10
20.1891417136
 20
-30.4908554017
 11
18.0887176245
 21
-29.2780968571
  0
LINE
  5
359
100
AcDbEntity
  8
RACCORDO
100
AcDbLine
 62
7
  6
CONTINUOUS
 10
12.7855244614
 20
-26.2160995894
 11
10.8265001894
 21
-25.0849835271
  0
LINE
  5
35A
100
AcDbEntity
  8
RACCORDO
100
AcDbLine
 62
7
  6
CONTINUOUS
 10
4.2792391369
 20
-21.3046770518
 11
2.1788150478
 21
-20.0919185073
  0
LINE
  5
35B
100
AcDbEntity
  8
RACCORDO
100
AcDbLine
 62
7
  6
CONTINUOUS
 10
-3.1243781153
 20
-17.0299212395
 11
-5.2248022043
 21
-15.817162695
  0
LINE
  5
35C
100
AcDbEntity
  8
RACCORDO
100
AcDbLine
 62
7
  6
CONTINUOUS
 10
-11.7720632569
 20
-12.0368562197
 11
-13.7310875289
 21
-10.9057401574
  0
LINE
  5
35D
100
AcDbEntity
  8
RACCORDO
100
AcDbLine
 62
7
  6
CONTINUOUS
 10
-19.034280692
 20
-7.8437428896
 11
-21.134704781
 21
-6.6309843451
  0
LINE
  5
35E
100
AcDbEntity
  8
RACCORDO
100
AcDbLine
 62
7
  6
CONTINUOUS
 10
-27.6819658336
 20
-2.8506778698
 11
-29.6409362577
 21
-1.7195928986
  0
LINE
  5
35F
100
AcDbEntity
  8
RACCORDO
100
AcDbLine
 62
7
  6
CONTINUOUS
 10
-34.9442371166
 20
1.3424665514
 11
-40.3889593317
 21
4.48618092
  0
LINE
  5
360
100
AcDbEntity
  8
0
100
AcDbLine
 62
7
  6
CONTINUOUS
 10
33.9987543488
 20
-38.4641672239
 11
31.0641809072
 21
-36.7697812976
  0
LINE
  5
361
100
AcDbEntity
  8
0
100
AcDbLine
 62
7
  6
CONTINUOUS
 10
-29.640855958
 20
-1.7194538244
 11
-32.5754293996
 21
-0.0250678981
  0
LINE
  5
362
100
AcDbEntity
  8
0
100
AcDbLine
 62
7
  6
CONTINUOUS
 10
35.2007555771
 20
-38.9948659948
 11
31.2056022634
 21
-36.6881263789
  0
LINE
  5
363
100
AcDbEntity
  8
0
100
AcDbLine
 62
7
  6
CONTINUOUS
 10
-28.9301176573
 20
-1.9665153743
 11
-32.4340080434
 21
0.0565870206
  0
LINE
  5
364
100
AcDbEntity
  8
RACCORDO
100
AcDbLine
 62
7
  6
CONTINUOUS
 10
-40.3889593317
 20
4.8943307548
 11
-40.1768820934
 21
4.7718800153
  0
LINE
  5
365
100
AcDbEntity
  8
0
100
AcDbLine
 62
7
  6
CONTINUOUS
 10
-28.5678805749
 20
-1.9310119665
 11
-27.3161784921
 21
-2.6537290616
  0
LINE
  5
366
100
AcDbEntity
  8
0
100
AcDbLine
 62
7
  6
CONTINUOUS
 10
-12.6579779982
 20
-11.1171903164
 11
-11.4062759154
 21
-11.8399074115
  0
LINE
  5
367
100
AcDbEntity
  8
0
100
AcDbLine
 62
7
  6
CONTINUOUS
 10
11.1801603441
 20
-24.8810326332
 11
12.4318624269
 21
-25.6037497283
  0
LINE
  5
368
100
AcDbEntity
  8
0
100
AcDbLine
 62
7
  6
CONTINUOUS
 10
27.0900629208
 20
-34.0672109831
 11
28.3417650036
 21
-34.7899280782
  0
LINE
  5
369
100
AcDbEntity
  8
0
100
AcDbLine
 62
7
  6
CONTINUOUS
 10
35.3068215943
 20
-38.8111542642
 11
31.4177342978
 21
-36.5656440009
  0
LINE
  5
36A
100
AcDbEntity
  8
0
100
AcDbLine
 62
7
  6
CONTINUOUS
 10
-28.6942330666
 20
-1.8577474247
 11
-32.221876009
 21
0.1790693985
  0
LINE
  5
36B
100
AcDbEntity
  8
RACCORDO
100
AcDbLine
 62
7
  6
CONTINUOUS
 10
-40.3889593317
 20
5.0563919873
 11
-39.9330403708
 21
4.7931500932
  0
LINE
  5
36C
100
AcDbEntity
  8
0
100
AcDbLine
 62
7
  6
CONTINUOUS
 10
-12.4141362756
 20
-11.0959202384
 11
-11.1624341928
 21
-11.8186373335
  0
LINE
  5
36D
100
AcDbEntity
  8
0
100
AcDbLine
 62
7
  6
CONTINUOUS
 10
11.4240020667
 20
-24.8597625552
 11
12.6757041495
 21
-25.5824796503
  0
LINE
  5
36E
100
AcDbEntity
  8
0
100
AcDbLine
 62
7
  6
CONTINUOUS
 10
27.3339046434
 20
-34.0459409051
 11
28.5856067262
 21
-34.7686580002
  0
LINE
  5
36F
100
AcDbEntity
  8
0
100
AcDbLine
 62
7
  6
CONTINUOUS
 10
35.5543089677
 20
-38.7907286981
 11
31.559155654
 21
-36.4839890823
  0
LINE
  5
370
100
AcDbEntity
  8
0
100
AcDbLine
 62
7
  6
CONTINUOUS
 10
-27.0723367695
 20
-2.6324589836
 11
-32.0804546528
 21
0.2607243172
  0
LINE
  5
371
100
AcDbEntity
  8
0
100
AcDbLine
 62
7
  6
CONTINUOUS
 10
35.6603749849
 20
-38.6070169676
 11
31.7712876884
 21
-36.3615067043
  0
LINE
  5
372
100
AcDbEntity
  8
0
100
AcDbLine
 62
7
  6
CONTINUOUS
 10
-27.9792353219
 20
-1.8623035681
 11
-31.8683226184
 21
0.3832066952
  0
LINE
  5
373
100
AcDbEntity
  8
0
100
AcDbLine
 62
7
  6
CONTINUOUS
 10
35.9078623583
 20
-38.5865914014
 11
31.9127090446
 21
-36.2798517856
  0
LINE
  5
374
100
AcDbEntity
  8
0
100
AcDbLine
 62
7
  6
CONTINUOUS
 10
-31.7269012622
 20
0.4648616139
 11
-27.7317479485
 21
-1.8418780019
  0
LINE
  5
375
100
AcDbEntity
  8
0
100
AcDbLine
 62
7
  6
CONTINUOUS
 10
36.0139283755
 20
-38.4028796709
 11
32.124841079
 21
-36.1573694076
  0
LINE
  5
376
100
AcDbEntity
  8
0
100
AcDbLine
 62
7
  6
CONTINUOUS
 10
-27.6256819313
 20
-1.6581662714
 11
-31.5147692278
 21
0.5873439919
  0
LINE
  5
377
100
AcDbEntity
  8
0
100
AcDbLine
 62
7
  6
CONTINUOUS
 10
36.2614157489
 20
-38.3824541048
 11
32.2662624352
 21
-36.075714489
  0
LINE
  5
378
100
AcDbEntity
  8
0
100
AcDbLine
 62
7
  6
CONTINUOUS
 10
-31.3733478716
 20
0.6689989105
 11
-27.3781945579
 21
-1.6377407053
  0
LINE
  5
379
100
AcDbEntity
  8
0
100
AcDbLine
 62
7
  6
CONTINUOUS
 10
36.3674817661
 20
-38.1987423743
 11
32.4783944696
 21
-35.953232111
  0
LINE
  5
37A
100
AcDbEntity
  8
0
100
AcDbLine
 62
7
  6
CONTINUOUS
 10
-27.2721285407
 20
-1.4540289748
 11
-31.1612158372
 21
0.7914812885
  0
LINE
  5
37B
100
AcDbEntity
  8
0
100
AcDbLine
 62
7
  6
CONTINUOUS
 10
36.6149691395
 20
-38.1783168081
 11
32.6198158258
 21
-35.8715771923
  0
LINE
  5
37C
100
AcDbEntity
  8
0
100
AcDbLine
 62
7
  6
CONTINUOUS
 10
-31.019794481
 20
0.8731362072
 11
-27.0246411673
 21
-1.4336034086
  0
LINE
  5
37D
100
AcDbEntity
  8
0
100
AcDbLine
 62
7
  6
CONTINUOUS
 10
36.613379903
 20
-37.9324462833
 11
32.8319478602
 21
-35.7490948143
  0
LINE
  5
37E
100
AcDbEntity
  8
0
100
AcDbLine
 62
7
  6
CONTINUOUS
 10
-26.9185751501
 20
-1.2498916781
 11
-30.8076624466
 21
0.9956185852
  0
LINE
  5
37F
100
AcDbEntity
  8
0
100
AcDbLine
 62
7
  6
CONTINUOUS
 10
36.613379903
 20
-37.769136446
 11
32.9733692164
 21
-35.6674398956
  0
LINE
  5
380
100
AcDbEntity
  8
0
100
AcDbLine
 62
7
  6
CONTINUOUS
 10
-30.7443633477
 20
1.1223921526
 11
-30.6662359649
 21
1.0772823809
  0
LINE
  5
381
100
AcDbEntity
  8
0
100
AcDbLine
 62
7
  6
CONTINUOUS
 10
-26.6710877767
 20
-1.229466112
 11
-26.4868995022
 21
-1.3358141132
  0
LINE
  5
382
100
AcDbEntity
  8
ASSI
100
AcDbLine
 62
7
  6
CONTINUOUS
 10
-14.834460771
 20
-8.0637861972
 11
-10.5769969255
 21
-10.5219924631
  0
LINE
  5
383
100
AcDbEntity
  8
ASSI
100
AcDbLine
 62
7
  6
CONTINUOUS
 10
1.0754418057
 20
-17.2499645471
 11
5.3329056512
 21
-19.708170813
  0
LINE
  5
384
100
AcDbEntity
  8
ASSI
100
AcDbLine
 62
7
  6
CONTINUOUS
 10
16.9853443824
 20
-26.436142897
 11
21.2428082279
 21
-28.8943491629
  0
LINE
  5
385
100
AcDbEntity
  8
0
100
AcDbLine
 62
7
  6
CONTINUOUS
 10
32.8952469591
 20
-35.6223212469
 11
32.9733743419
 21
-35.6674310186
  0
LINE
  5
386
100
AcDbEntity
  8
0
100
AcDbLine
 62
7
  6
CONTINUOUS
 10
-30.6662410904
 20
1.0772735039
 11
-26.6710877767
 21
-1.229466112
  0
LINE
  5
387
100
AcDbEntity
  8
0
100
AcDbLine
 62
7
  6
CONTINUOUS
 10
-30.6052649157
 20
1.1097376752
 11
-26.4289341896
 21
-1.301632786
  0
LINE
  5
388
100
AcDbEntity
  8
ASSI
100
AcDbLine
 62
7
  6
CONTINUOUS
 10
-14.6922960898
 20
-8.0782205302
 11
-10.5191519426
 21
-10.487741659
  0
LINE
  5
389
100
AcDbEntity
  8
ASSI
100
AcDbLine
 62
7
  6
CONTINUOUS
 10
1.2176064869
 20
-17.2643988801
 11
5.3907506341
 21
-19.6739200089
  0
LINE
  5
38A
100
AcDbEntity
  8
ASSI
100
AcDbLine
 62
7
  6
CONTINUOUS
 10
17.1275090636
 20
-26.45057723
 11
21.3006532108
 21
-28.8600983588
  0
LINE
  5
38B
100
AcDbEntity
  8
0
100
AcDbLine
 62
7
  6
CONTINUOUS
 10
33.0343453911
 20
-35.6349757243
 11
36.613379903
 21
-37.7014748373
  0
LINE
  5
38C
100
AcDbEntity
  8
RACCORDO
100
AcDbLine
 62
7
  6
CONTINUOUS
 10
-41.166776791
 20
10.125000762
 11
-41.1777438221
 21
10.1313329883
  0
LWPOLYLINE
  5
38D
100
AcDbEntity
  8
RACCORDO
100
AcDbPolyline
 62
7
  6
CONTINUOUS
 90
22
 70
0
 10
-40.1768820934
 20
4.7718800153
 10
-40.1500265163
 20
4.7557360591
 10
-40.123355562
 20
4.7373806512
 10
-40.0970183275
 20
4.7169164026
 10
-40.0711620443
 20
4.6944577135
 10
-40.045931255
 20
4.6701301331
 10
-40.0214670059
 20
4.6440696585
 10
-39.9979060579
 20
4.6164219739
 10
-39.9753801224
 20
4.5873416365
 10
-39.9540151246
 20
4.5569912123
 10
-39.9339304999
 20
4.5255403673
 10
-39.9152385262
 20
4.4931649192
 10
-39.8980436962
 20
4.4600458546
 10
-39.8824421329
 20
4.426368317
 10
-39.8685210529
 20
4.3923205717
 10
-39.8563582782
 20
4.3580929537
 10
-39.8460218018
 20
4.3238768036
 10
-39.8375694069
 20
4.2898633978
 10
-39.8310483445
 20
4.2562428793
 10
-39.8264950688
 20
4.2232031949
 10
-39.8239350338
 20
4.1909290442
 10
-39.8233825507
 20
4.1596008475
  0
LWPOLYLINE
  5
38E
100
AcDbEntity
  8
0
100
AcDbPolyline
 62
7
  6
CONTINUOUS
 90
22
 70
0
 10
12.4318624269
 20
-25.6037497283
 10
12.458718004
 20
-25.6198936845
 10
12.4853889583
 20
-25.6382490924
 10
12.5117261927
 20
-25.6587133409
 10
12.537582476
 20
-25.6811720301
 10
12.5628132652
 20
-25.7054996105
 10
12.5872775143
 20
-25.7315600851
 10
12.6108384623
 20
-25.7592077697
 10
12.6333643979
 20
-25.7882881071
 10
12.6547293957
 20
-25.8186385313
 10
12.6748140204
 20
-25.8500893763
 10
12.6935059941
 20
-25.8824648244
 10
12.7107008241
 20
-25.9155838889
 10
12.7263023874
 20
-25.9492614266
 10
12.7402234674
 20
-25.9833091719
 10
12.752386242
 20
-26.0175367899
 10
12.7627227185
 20
-26.05175294
 10
12.7711751134
 20
-26.0857663458
 10
12.7776961758
 20
-26.1193868643
 10
12.7822494514
 20
-26.1524265487
 10
12.7848094865
 20
-26.1847006993
 10
12.7853619696
 20
-26.2160288961
  0
LWPOLYLINE
  5
38F
100
AcDbEntity
  8
0
100
AcDbPolyline
 62
7
  6
CONTINUOUS
 90
22
 70
0
 10
28.3417650036
 20
-34.7899280782
 10
28.3686205807
 20
-34.8060720343
 10
28.395291535
 20
-34.8244274423
 10
28.4216287694
 20
-34.8448916908
 10
28.4474850527
 20
-34.86735038
 10
28.4727158419
 20
-34.8916779604
 10
28.497180091
 20
-34.917738435
 10
28.520741039
 20
-34.9453861196
 10
28.5432669746
 20
-34.974466457
 10
28.5646319724
 20
-35.0048168812
 10
28.5847165971
 20
-35.0362677262
 10
28.6034085708
 20
-35.0686431742
 10
28.6206034008
 20
-35.1017622388
 10
28.6362049641
 20
-35.1354397765
 10
28.6501260441
 20
-35.1694875218
 10
28.6622888187
 20
-35.2037151398
 10
28.6726252952
 20
-35.2379312899
 10
28.6810776901
 20
-35.2719446957
 10
28.6875987525
 20
-35.3055652141
 10
28.6921520281
 20
-35.3386048985
 10
28.6947120632
 20
-35.3708790492
 10
28.6952645463
 20
-35.4022072459
  0
LWPOLYLINE
  5
390
100
AcDbEntity
  8
0
100
AcDbPolyline
 62
7
  6
CONTINUOUS
 90
16
 70
0
 10
-27.0723334952
 20
-2.6324608742
 10
-27.0502337387
 20
-2.6459967546
 10
-27.0201332461
 20
-2.6671360413
 10
-26.9916015014
 20
-2.6904897895
 10
-26.9647973055
 20
-2.715955207
 10
-26.939890896
 20
-2.743399634
 10
-26.9170231187
 20
-2.7727002118
 10
-26.896336842
 20
-2.8037133606
 10
-26.8779697518
 20
-2.8362765405
 10
-26.8620434262
 20
-2.870224046
 10
-26.8486677034
 20
-2.9053829449
 10
-26.837945417
 20
-2.9415562186
 10
-26.8299650243
 20
-2.9785269823
 10
-26.8247919303
 20
-3.0160975958
 10
-26.822479266
 20
-3.0540454607
 10
-26.8223488497
 20
-3.0654714453
  0
LWPOLYLINE
  5
391
100
AcDbEntity
  8
0
100
AcDbPolyline
 62
7
  6
CONTINUOUS
 90
16
 70
0
 10
-11.1624309185
 20
-11.8186392241
 10
-11.1403311622
 20
-11.8321751043
 10
-11.1102306696
 20
-11.8533143911
 10
-11.0816989249
 20
-11.8766681392
 10
-11.054894729
 20
-11.9021335567
 10
-11.0299883194
 20
-11.9295779837
 10
-11.0071205422
 20
-11.9588785615
 10
-10.9864342654
 20
-11.9898917103
 10
-10.9680671752
 20
-12.0224548902
 10
-10.9521408496
 20
-12.0564023957
 10
-10.9387651268
 20
-12.0915612946
 10
-10.9280428403
 20
-12.1277345682
 10
-10.9200624477
 20
-12.164705332
 10
-10.9148893536
 20
-12.2022759455
 10
-10.9125766893
 20
-12.2402238104
 10
-10.912446273
 20
-12.2516497952
  0
LWPOLYLINE
  5
392
100
AcDbEntity
  8
0
100
AcDbPolyline
 62
7
  6
CONTINUOUS
 90
11
 70
0
 10
-34.3760274531
 20
0.554091792
 10
-34.3649241688
 20
0.5470843279
 10
-34.3480206262
 20
0.533807613
 10
-34.3326376651
 20
0.5182728329
 10
-34.3188594902
 20
0.5005646874
 10
-34.3067609184
 20
0.4807788721
 10
-34.2964078756
 20
0.4590218909
 10
-34.287858249
 20
0.4354135118
 10
-34.2811600378
 20
0.4100859365
 10
-34.2763497843
 20
0.3831792432
 10
-34.273453152
 20
0.354839867
  0
LWPOLYLINE
  5
393
100
AcDbEntity
  8
0
100
AcDbPolyline
 62
7
  6
CONTINUOUS
 90
11
 70
0
 10
29.2635828537
 20
-36.1906216074
 10
29.274686138
 20
-36.1976290716
 10
29.2915896806
 20
-36.2109057865
 10
29.3069726417
 20
-36.2264405666
 10
29.3207508166
 20
-36.2441487121
 10
29.3328493884
 20
-36.2639345274
 10
29.3432024311
 20
-36.2856915086
 10
29.3517520578
 20
-36.3092998877
 10
29.358450269
 20
-36.334627463
 10
29.3632605225
 20
-36.3615341563
 10
29.3661571548
 20
-36.3898735325
  0
LWPOLYLINE
  5
394
100
AcDbEntity
  8
RACCORDO
100
AcDbPolyline
 62
7
  6
CONTINUOUS
 90
9
 70
0
 10
36.7012478686
 20
-43.8819440362
 10
36.6824486023
 20
-43.870029075
 10
36.6656488312
 20
-43.8571567745
 10
36.6509940153
 20
-43.8434385879
 10
36.6386110427
 20
-43.8289932926
 10
36.6286071312
 20
-43.8139459617
 10
36.6210688997
 20
-43.7984268814
 10
36.6160616181
 20
-43.7825704219
 10
36.6136286424
 20
-43.7665138753
  0
LWPOLYLINE
  5
395
100
AcDbEntity
  8
0
100
AcDbPolyline
 62
7
  6
CONTINUOUS
 90
22
 70
0
 10
-27.3161784921
 20
-2.6537290616
 10
-27.2902346445
 20
-2.6703935508
 10
-27.2644704621
 20
-2.6892682948
 10
-27.2390300847
 20
-2.7102476973
 10
-27.2140558403
 20
-2.7332143875
 10
-27.189687449
 20
-2.7580398767
 10
-27.1660612418
 20
-2.7845852767
 10
-27.1433093971
 20
-2.8127020774
 10
-27.1215592018
 20
-2.8422329773
 10
-27.1009323389
 20
-2.8730127635
 10
-27.0815442071
 20
-2.9048692363
 10
-27.0635032745
 20
-2.9376241724
 10
-27.0469104726
 20
-2.9710943217
 10
-27.031858631
 20
-3.0050924331
 10
-27.0184319584
 20
-3.0394283015
 10
-27.0067055711
 20
-3.0739098326
 10
-26.9967450734
 20
-3.1083441169
 10
-26.98860619
 20
-3.1425385092
 10
-26.9823344545
 20
-3.1763017064
 10
-26.9779649546
 20
-3.2094448178
 10
-26.9755221357
 20
-3.2417824219
 10
-26.9750196643
 20
-3.2731336035
  0
LWPOLYLINE
  5
396
100
AcDbEntity
  8
0
100
AcDbPolyline
 62
7
  6
CONTINUOUS
 90
22
 70
0
 10
-11.4062759154
 20
-11.8399074115
 10
-11.380332068
 20
-11.8565719006
 10
-11.3545678859
 20
-11.8754466443
 10
-11.3291275086
 20
-11.8964260467
 10
-11.3041532642
 20
-11.9193927368
 10
-11.279784873
 20
-11.9442182258
 10
-11.2561586658
 20
-11.9707636257
 10
-11.2334068211
 20
-11.9988804263
 10
-11.2116566259
 20
-12.028411326
 10
-11.1910297631
 20
-12.0591911121
 10
-11.1716416312
 20
-12.0910475848
 10
-11.1536006986
 20
-12.1238025209
 10
-11.1370078966
 20
-12.1572726702
 10
-11.1219560549
 20
-12.1912707816
 10
-11.1085293821
 20
-12.2256066502
 10
-11.0968029948
 20
-12.2600881814
 10
-11.086842497
 20
-12.2945224658
 10
-11.0787036135
 20
-12.3287168581
 10
-11.0724318779
 20
-12.3624800555
 10
-11.0680623779
 20
-12.3956231671
 10
-11.065619559
 20
-12.4279607715
 10
-11.0651170877
 20
-12.4593119534
  0
LWPOLYLINE
  5
397
100
AcDbEntity
  8
0
100
AcDbPolyline
 62
7
  6
CONTINUOUS
 90
16
 70
0
 10
-1.0828785128
 20
-22.7093860757
 10
-1.1214994429
 20
-22.672806498
 10
-1.1620260953
 20
-22.6371883716
 10
-1.20445847
 20
-22.6025316965
 10
-1.2488788735
 20
-22.568901491
 10
-1.2952049992
 20
-22.5362327368
 10
-1.3431899283
 20
-22.5043303785
 10
-1.3927595574
 20
-22.4731304895
 10
-1.4439879898
 20
-22.4426969964
 10
-1.4968506165
 20
-22.4130266228
 10
-1.5513593219
 20
-22.3841670382
 10
-1.6075022217
 20
-22.3560705732
 10
-1.6652190535
 20
-22.3285909431
 10
-1.7244897299
 20
-22.3016793861
 10
-1.7853343383
 20
-22.275384664
 10
-1.8477528787
 20
-22.2497067766
  0
LWPOLYLINE
  5
398
100
AcDbEntity
  8
0
100
AcDbPolyline
 62
7
  6
CONTINUOUS
 90
16
 70
0
 10
-1.224299869
 20
-22.7910409943
 10
-1.262742582
 20
-22.7546045192
 10
-1.3031460302
 20
-22.7190827925
 10
-1.3455102137
 20
-22.6844758141
 10
-1.3899397237
 20
-22.6508294845
 10
-1.436329969
 20
-22.6180979032
 10
-1.4843671753
 20
-22.5861433689
 10
-1.5339481296
 20
-22.5549256618
 10
-1.5851760449
 20
-22.5244850016
 10
-1.6380467868
 20
-22.4948043459
 10
-1.6925807585
 20
-22.4659255963
 10
-1.7487575568
 20
-22.4378068511
 10
-1.806511838
 20
-22.4103053632
 10
-1.8658218208
 20
-22.38337355
 10
-1.9267092864
 20
-22.357058994
 10
-1.989174235
 20
-22.3313616953
  0
LWPOLYLINE
  5
399
100
AcDbEntity
  8
0
100
AcDbPolyline
 62
7
  6
CONTINUOUS
 90
4
 70
0
 10
-1.0038270474
 20
-23.6635346026
 10
-1.0190052513
 20
-23.6417400468
 10
-1.0347038756
 20
-23.6218660041
 10
-1.0394463819
 20
-23.6166163282
  0
LWPOLYLINE
  5
39A
100
AcDbEntity
  8
RACCORDO
100
AcDbPolyline
 62
7
  6
CONTINUOUS
 90
25
 70
0
 10
-11.4248417756
 20
-12.6527602494
 10
-11.4255829356
 20
-12.6256028372
 10
-11.4278122561
 20
-12.5976760829
 10
-11.4315181187
 20
-12.5690987633
 10
-11.4366808788
 20
-12.5399917169
 10
-11.4432781068
 20
-12.5104794129
 10
-11.4512848253
 20
-12.4806893873
 10
-11.46066506
 20
-12.4507483355
 10
-11.4713767429
 20
-12.4207834568
 10
-11.483377264
 20
-12.3909239815
 10
-11.4966138916
 20
-12.3612969584
 10
-11.5110282879
 20
-12.3320282618
 10
-11.5265618194
 20
-12.3032439469
 10
-11.5431469883
 20
-12.2750666305
 10
-11.5607113894
 20
-12.2476161138
 10
-11.5791825756
 20
-12.2210105155
 10
-11.5984808251
 20
-12.1953633953
 10
-11.618522392
 20
-12.1707839604
 10
-11.6392237453
 20
-12.1473779232
 10
-11.6604997409
 20
-12.1252418512
 10
-11.682254781
 20
-12.1044743535
 10
-11.7043855724
 20
-12.0851742106
 10
-11.7267933262
 20
-12.0674249273
 10
-11.7493848343
 20
-12.0512966974
 10
-11.7720632569
 20
-12.0368562197
  0
LINE
  5
39B
100
AcDbEntity
  8
DRAFT
100
AcDbLine
 62
7
  6
CONTINUOUS
 10
-11.8572007108
 20
-13.3974020127
 11
-11.8572007108
 21
-12.857742741
  0
LINE
  5
39C
100
AcDbEntity
  8
RACCORDO
100
AcDbLine
 62
7
  6
CONTINUOUS
 10
-11.8542940061
 20
-13.3974020127
 11
-11.8542940061
 21
-13.4527604489
  0
LINE
  5
39D
100
AcDbEntity
  8
0
100
AcDbLine
 62
7
  6
CONTINUOUS
 10
-11.0651170877
 20
-12.4593119534
 11
-11.0651170877
 21
-12.8104131787
  0
LINE
  5
39E
100
AcDbEntity
  8
0
100
AcDbLine
 62
7
  6
CONTINUOUS
 10
-10.9124462729
 20
-12.2516430608
 11
-10.9124462729
 21
-12.7159992568
  0
LINE
  5
39F
100
AcDbEntity
  8
ASSI
100
AcDbLine
 62
7
  6
CONTINUOUS
 10
-10.5699833956
 20
-10.5177187997
 11
-10.5699833956
 21
-10.9188933674
  0
LINE
  5
3A0
100
AcDbEntity
  8
ASSI
100
AcDbLine
 62
7
  6
CONTINUOUS
 10
-10.5186123607
 20
-10.4886763941
 11
-10.5186123607
 21
-10.8883661183
  0
LINE
  5
3A1
100
AcDbEntity
  8
RACCORDO
100
AcDbLine
 62
7
  6
CONTINUOUS
 10
-6.0457864366
 20
-16.2131805088
 11
-6.0457864366
 21
-15.6711205387
  0
LWPOLYLINE
  5
3A2
100
AcDbEntity
  8
0
100
AcDbPolyline
 62
7
  6
CONTINUOUS
 90
12
 70
0
 10
-10.912446273
 20
-12.2516497952
 10
-10.9130073894
 20
-12.265316319
 10
-10.9162285574
 20
-12.287085335
 10
-10.9222900232
 20
-12.3086462973
 10
-10.931156043
 20
-12.3298779218
 10
-10.9427764433
 20
-12.3506616467
 10
-10.95709505
 20
-12.370891765
 10
-10.9740229338
 20
-12.3904383801
 10
-10.9934246545
 20
-12.4091554658
 10
-11.0151615004
 20
-12.4269301453
 10
-11.0391082428
 20
-12.4436786215
 10
-11.0651170877
 20
-12.4593119534
  0
LINE
  5
3A3
100
AcDbEntity
  8
ASSI
100
AcDbLine
 62
7
  6
CONTINUOUS
 10
-11.1219668144
 20
-11.4545952159
 11
-11.0547195051
 21
-11.2036366786
  0
LINE
  5
3A4
100
AcDbEntity
  8
RACCORDO
100
AcDbLine
 62
7
  6
CONTINUOUS
 10
-26.8014966266
 20
-3.5169255794
 11
-27.704690069
 21
-4.0754739524
  0
LINE
  5
3A5
100
AcDbEntity
  8
RACCORDO
100
AcDbLine
 62
7
  6
CONTINUOUS
 10
-26.6489034148
 20
-3.5302352359
 11
-27.5520968572
 21
-4.0887836088
  0
LINE
  5
3A6
100
AcDbEntity
  8
0
100
AcDbLine
 62
7
  6
CONTINUOUS
 10
-26.4798859723
 20
-1.8143620452
 11
-27.4759058342
 21
-2.3994432636
  0
LINE
  5
3A7
100
AcDbEntity
  8
0
100
AcDbLine
 62
7
  6
CONTINUOUS
 10
-27.2279521565
 20
-2.3821174214
 11
-27.3666357058
 21
-2.4625344663
  0
LINE
  5
3A8
100
AcDbEntity
  8
RACCORDO
100
AcDbLine
 62
7
  6
CONTINUOUS
 10
-28.2575253343
 20
-3.1829976102
 11
-27.6819658336
 21
-2.8506778698
  0
LINE
  5
3A9
100
AcDbEntity
  8
RACCORDO
100
AcDbLine
 62
7
  6
CONTINUOUS
 10
-27.7671032875
 20
-3.7162197023
 11
-27.3347443523
 21
-3.4665818996
  0
LINE
  5
3AA
100
AcDbEntity
  8
0
100
AcDbLine
 62
7
  6
CONTINUOUS
 10
-28.5678805749
 20
-1.9310119665
 11
-28.9338833244
 21
-2.1278364008
  0
LINE
  5
3AB
100
AcDbEntity
  8
0
100
AcDbLine
 62
7
  6
CONTINUOUS
 10
-27.6821812416
 20
-2.8505534959
 11
-27.3161784921
 21
-2.6537290616
  0
LINE
  5
3AC
100
AcDbEntity
  8
0
100
AcDbLine
 62
7
  6
CONTINUOUS
 10
-27.3347443523
 20
-3.4665818996
 11
-26.9750196643
 21
-3.2731336035
  0
LINE
  5
3AD
100
AcDbEntity
  8
DRAFT
100
AcDbLine
 62
7
  6
CONTINUOUS
 10
-27.7671032875
 20
-3.6715643911
 11
-28.3093314137
 21
-3.9518280798
  0
LINE
  5
3AE
100
AcDbEntity
  8
0
100
AcDbLine
 62
7
  6
CONTINUOUS
 10
-28.8108639245
 20
-1.902384576
 11
-28.8057353321
 21
-1.8997400537
  0
LWPOLYLINE
  5
3AF
100
AcDbEntity
  8
0
100
AcDbPolyline
 62
7
  6
CONTINUOUS
 90
6
 70
0
 10
-28.8108639245
 20
-1.902384576
 10
-28.7789162713
 20
-1.8866443955
 10
-28.7456373338
 20
-1.8731115042
 10
-28.711212861
 20
-1.8619289334
 10
-28.6758501226
 20
-1.853220371
 10
-28.6397661203
 20
-1.8470849164
  0
LWPOLYLINE
  5
3B0
100
AcDbEntity
  8
0
100
AcDbPolyline
 62
7
  6
CONTINUOUS
 90
11
 70
0
 10
-28.8057353321
 20
-1.8997400537
 10
-28.7857481875
 20
-1.8914261461
 10
-28.7645776049
 20
-1.8856352329
 10
-28.7423419328
 20
-1.8823996867
 10
-28.719165474
 20
-1.8817375951
 10
-28.6951777903
 20
-1.8836526592
 10
-28.6705129786
 20
-1.8881341734
 10
-28.6453089211
 20
-1.895157085
 10
-28.6197065145
 20
-1.9046821342
 10
-28.5938488824
 20
-1.9166560738
 10
-28.5678805749
 20
-1.9310119665
  0
LWPOLYLINE
  5
3B1
100
AcDbEntity
  8
0
100
AcDbPolyline
 62
7
  6
CONTINUOUS
 90
4
 70
0
 10
-30.7365740337
 20
1.126217888
 10
-30.7239616389
 20
1.1308339323
 10
-30.7109310442
 20
1.1338916023
 10
-30.6976289937
 20
1.1354103221
  0
LWPOLYLINE
  5
3B2
100
AcDbEntity
  8
0
100
AcDbPolyline
 62
7
  6
CONTINUOUS
 90
5
 70
0
 10
-12.7298635436
 20
-11.0332632663
 10
-12.6932715827
 20
-11.0297748486
 10
-12.6564040272
 20
-11.0289859459
 10
-12.6194975886
 20
-11.0309236497
 10
-12.5827522648
 20
-11.0355957756
  0
LWPOLYLINE
  5
3B3
100
AcDbEntity
  8
0
100
AcDbPolyline
 62
7
  6
CONTINUOUS
 90
12
 70
0
 10
-34.5723739331
 20
0.4239455521
 10
-34.4942037175
 20
0.4092516053
 10
-34.4740197733
 20
0.4052159495
 10
-34.4535899513
 20
0.4008412357
 10
-34.4329764284
 20
0.3960538844
 10
-34.4122459726
 20
0.3907759046
 10
-34.3912856281
 20
0.3848663118
 10
-34.3703256357
 20
0.3782550359
 10
-34.3499322071
 20
0.3710267642
 10
-34.3302474072
 20
0.3631875239
 10
-34.3112156135
 20
0.3546578125
 10
-34.2930655265
 20
0.3454948595
  0
LINE
  5
3B4
100
AcDbEntity
  8
0
100
AcDbLine
 62
7
  6
CONTINUOUS
 10
-34.5912006609
 20
0.4276457953
 11
-34.5723739331
 21
0.4239455521
  0
LWPOLYLINE
  5
3B5
100
AcDbEntity
  8
0
100
AcDbPolyline
 62
7
  6
CONTINUOUS
 90
6
 70
0
 10
-28.4926548415
 20
-1.8494174258
 10
-28.4562520027
 20
-1.8568223034
 10
-28.4204529027
 20
-1.866924493
 10
-28.3855205645
 20
-1.8796533485
 10
-28.3515197472
 20
-1.8949978348
 10
-28.3240247515
 20
-1.9097500311
  0
LWPOLYLINE
  5
3B6
100
AcDbEntity
  8
ASSI
100
AcDbPolyline
 62
7
  6
CONTINUOUS
 90
8
 70
0
 10
-14.7464820614
 20
-8.0554139988
 10
-14.7596627505
 20
-8.0525971139
 10
-14.772333354
 20
-8.0510427515
 10
-14.7844737024
 20
-8.0506827835
 10
-14.7960062319
 20
-8.0514381387
 10
-14.8068902257
 20
-8.0532545062
 10
-14.8171171922
 20
-8.0561079055
 10
-14.826671457
 20
-8.0599604618
  0
LWPOLYLINE
  5
3B7
100
AcDbEntity
  8
0
100
AcDbPolyline
 62
7
  6
CONTINUOUS
 90
4
 70
0
 10
-30.6573759218
 20
1.1310316216
 10
-30.6440758646
 20
1.1271891156
 10
-30.6309638145
 20
1.1222447537
 10
-30.6180094048
 20
1.1164125351
  0
LINE
  5
3B8
100
AcDbEntity
  8
DRAFT
100
AcDbLine
 62
7
  6
CONTINUOUS
 10
-41.609731285
 20
10.7837739411
 11
-41.1777438221
 21
10.5343497941
  0
LINE
  5
3B9
100
AcDbEntity
  8
RACCORDO
100
AcDbLine
 62
7
  6
CONTINUOUS
 10
-41.6082881837
 20
10.786273305
 11
-41.6915527092
 21
10.8343491985
  0
LINE
  5
3BA
100
AcDbEntity
  8
RACCORDO
100
AcDbLine
 62
7
  6
CONTINUOUS
 10
-40.6010913661
 20
10.46302167
 11
-41.2909612341
 21
10.8613438857
  0
LINE
  5
3BB
100
AcDbEntity
  8
RACCORDO
100
AcDbLine
 62
7
  6
CONTINUOUS
 10
-40.6730039949
 20
16.9532252621
 11
-41.1777438221
 21
17.2446557125
  0
LINE
  5
3BC
100
AcDbEntity
  8
0
100
AcDbLine
 62
7
  6
CONTINUOUS
 10
-4.4924325619
 20
-21.4609253061
 11
-4.1288403763
 21
-22.7903580148
  0
LINE
  5
3BD
100
AcDbEntity
  8
0
100
AcDbLine
 62
7
  6
CONTINUOUS
 10
-4.1054139286
 20
-22.0413049959
 11
-4.4120762401
 21
-20.9123781108
  0
LINE
  5
3BE
100
AcDbEntity
  8
0
100
AcDbLine
 62
7
  6
CONTINUOUS
 10
-4.0078813323
 20
-21.7980808229
 11
-4.2706548839
 21
-20.8307231921
  0
LWPOLYLINE
  5
3BF
100
AcDbEntity
  8
0
100
AcDbPolyline
 62
7
  6
CONTINUOUS
 90
6
 70
0
 10
-1.3413887231
 20
-23.8799225703
 10
-1.3257119561
 20
-23.9419255146
 10
-1.3103583222
 20
-24.0050135133
 10
-1.2953278213
 20
-24.0691865666
 10
-1.2808452396
 20
-24.1344062022
 10
-1.2521751166
 20
-24.2682160534
  0
LINE
  5
3C0
100
AcDbEntity
  8
0
100
AcDbLine
 62
7
  6
CONTINUOUS
 10
-6.6687424785
 20
-19.6094073075
 11
-6.1980321008
 21
-21.5956326461
  0
LINE
  5
3C1
100
AcDbEntity
  8
0
100
AcDbLine
 62
7
  6
CONTINUOUS
 10
-2.0801865682
 20
-23.973225048
 11
-2.535759911
 21
-21.9957396435
  0
LINE
  5
3C2
100
AcDbEntity
  8
0
100
AcDbLine
 62
7
  6
CONTINUOUS
 10
-1.989174235
 20
-23.6727620959
 11
-2.3943385547
 21
-21.9140847248
  0
LINE
  5
3C3
100
AcDbEntity
  8
0
100
AcDbLine
 62
7
  6
CONTINUOUS
 10
-1.2521751166
 20
-24.2682160534
 11
-1.2058613808
 21
-24.478049778
  0
LINE
  5
3C4
100
AcDbEntity
  8
0
100
AcDbLine
 62
7
  6
CONTINUOUS
 10
-6.0490263173
 20
-21.1473277455
 11
-6.332056413
 21
-19.803805622
  0
LINE
  5
3C5
100
AcDbEntity
  8
0
100
AcDbLine
 62
7
  6
CONTINUOUS
 10
-5.9573736772
 20
-20.8294245539
 11
-6.1906350568
 21
-19.7221507033
  0
LINE
  5
3C6
100
AcDbEntity
  8
0
100
AcDbLine
 62
7
  6
CONTINUOUS
 10
-2.4871357132
 20
-23.3959941884
 11
-2.4068458595
 21
-23.7846160672
  0
LINE
  5
3C7
100
AcDbEntity
  8
0
100
AcDbLine
 62
7
  6
CONTINUOUS
 10
-0.9772535626
 20
-24.3037332584
 11
-1.0136935857
 21
-24.1249779632
  0
LWPOLYLINE
  5
3C8
100
AcDbEntity
  8
0
100
AcDbPolyline
 62
7
  6
CONTINUOUS
 90
5
 70
0
 10
-0.7663177282
 20
-24.5685269369
 10
-0.8125165097
 20
-24.3387890496
 10
-0.8241049067
 20
-24.2805773763
 10
-0.8358608528
 20
-24.2219357627
 10
-0.8722722295
 20
-24.0433230445
  0
LINE
  5
3C9
100
AcDbEntity
  8
0
100
AcDbLine
 62
7
  6
CONTINUOUS
 10
-0.9077390844
 20
-24.6501818556
 11
-0.9772535626
 21
-24.3037332584
  0
LINE
  5
3CA
100
AcDbEntity
  8
0
100
AcDbLine
 62
7
  6
CONTINUOUS
 10
-2.6914959369
 20
-22.3769050013
 11
-2.5490761459
 21
-23.0953880128
  0
LWPOLYLINE
  5
3CB
100
AcDbEntity
  8
0
100
AcDbPolyline
 62
7
  6
CONTINUOUS
 90
16
 70
0
 10
-1.0136935857
 20
-24.1249779632
 10
-1.0207528106
 20
-24.088559347
 10
-1.028547472
 20
-24.0525294505
 10
-1.0370775701
 20
-24.0168882734
 10
-1.046320433
 20
-23.9813492376
 10
-1.0562987326
 20
-23.9461989214
 10
-1.0670804837
 20
-23.9122970597
 10
-1.07876238
 20
-23.879706156
 10
-1.0912477279
 20
-23.8483637069
 10
-1.1043144619
 20
-23.8189419374
 10
-1.1179676552
 20
-23.7916102058
 10
-1.1322022346
 20
-23.7661991539
 10
-1.1467809149
 20
-23.7428729317
 10
-1.1616246012
 20
-23.7216862558
 10
-1.1768123883
 20
-23.7025844097
 10
-1.1923442765
 20
-23.6855673932
  0
LINE
  5
3CC
100
AcDbEntity
  8
0
100
AcDbLine
 62
7
  6
CONTINUOUS
 10
-3.3499813487
 20
-23.240061456
 11
-3.4888267149
 21
-21.4454508156
  0
LINE
  5
3CD
100
AcDbEntity
  8
0
100
AcDbLine
 62
7
  6
CONTINUOUS
 10
-3.2196732155
 20
-23.0147653855
 11
-3.3474053587
 21
-21.363795897
  0
LINE
  5
3CE
100
AcDbEntity
  8
0
100
AcDbLine
 62
7
  6
CONTINUOUS
 10
-3.7168580453
 20
-21.9133992558
 11
-3.6531809583
 21
-23.0649978014
  0
LINE
  5
3CF
100
AcDbEntity
  8
0
100
AcDbLine
 62
7
  6
CONTINUOUS
 10
-5.3326090611
 20
-20.3807711217
 11
-5.3326090611
 21
-22.095317063
  0
LINE
  5
3D0
100
AcDbEntity
  8
0
100
AcDbLine
 62
7
  6
CONTINUOUS
 10
-5.0226728452
 20
-22.2742703496
 11
-5.0226728452
 21
-20.5597244084
  0
LINE
  5
3D1
100
AcDbEntity
  8
0
100
AcDbLine
 62
7
  6
CONTINUOUS
 10
-4.881251489
 20
-22.192615431
 11
-4.881251489
 21
-20.4780694897
  0
LINE
  5
3D2
100
AcDbEntity
  8
RACCORDO
100
AcDbLine
 62
7
  6
CONTINUOUS
 10
-2.7708785726
 20
-17.6422004073
 11
-2.7708785726
 21
-18.1040712653
  0
LINE
  5
3D3
100
AcDbEntity
  8
0
100
AcDbLine
 62
7
  6
CONTINUOUS
 10
-1.989174235
 20
-22.3313616953
 11
-1.989174235
 21
-24.0257747533
  0
LINE
  5
3D4
100
AcDbEntity
  8
0
100
AcDbLine
 62
7
  6
CONTINUOUS
 10
-1.6907624454
 20
-23.2463511121
 11
-1.6907624454
 21
-22.7757029599
  0
LINE
  5
3D5
100
AcDbEntity
  8
0
100
AcDbLine
 62
7
  6
CONTINUOUS
 10
-1.6804854378
 20
-24.204007796
 11
-1.6804854378
 21
-23.5330693366
  0
LINE
  5
3D6
100
AcDbEntity
  8
RACCORDO
100
AcDbLine
 62
7
  6
CONTINUOUS
 10
-1.5897794557
 20
-18.5690213472
 11
-1.5897794557
 21
-18.545361869
  0
LINE
  5
3D7
100
AcDbEntity
  8
0
100
AcDbLine
 62
7
  6
CONTINUOUS
 10
-1.5493410892
 20
-23.1646961935
 11
-1.5493410892
 21
-22.8413425319
  0
LINE
  5
3D8
100
AcDbEntity
  8
0
100
AcDbLine
 62
7
  6
CONTINUOUS
 10
-1.5390640816
 20
-24.1223528773
 11
-1.5390640816
 21
-23.6147242552
  0
LINE
  5
3D9
100
AcDbEntity
  8
0
100
AcDbLine
 62
7
  6
CONTINUOUS
 10
-1.1923442765
 20
-23.6855673932
 11
-1.1923442765
 21
-23.6754365272
  0
LWPOLYLINE
  5
3DA
100
AcDbEntity
  8
0
100
AcDbPolyline
 62
7
  6
CONTINUOUS
 90
10
 70
0
 10
-1.2728790503
 20
-23.2212079693
 10
-1.2739658368
 20
-23.2489635402
 10
-1.2767524475
 20
-23.2744105988
 10
-1.2812388825
 20
-23.2975491451
 10
-1.2876333677
 20
-23.3185216324
 10
-1.2957276771
 20
-23.3371856074
 10
-1.3048971327
 20
-23.3531137104
 10
-1.3148728431
 20
-23.3660584655
 10
-1.3259236997
 20
-23.3762673484
 10
-1.3353336723
 20
-23.3824924198
  0
LINE
  5
3DB
100
AcDbEntity
  8
0
100
AcDbLine
 62
7
  6
CONTINUOUS
 10
-4.5593170852
 20
-22.5418061583
 11
-4.4924325619
 21
-21.4609253061
  0
LINE
  5
3DC
100
AcDbEntity
  8
0
100
AcDbLine
 62
7
  6
CONTINUOUS
 10
-4.4178957289
 20
-22.4601512396
 11
-4.3812252721
 21
-21.8675418789
  0
LINE
  5
3DD
100
AcDbEntity
  8
0
100
AcDbLine
 62
7
  6
CONTINUOUS
 10
-4.7217557763
 20
-20.7335730278
 11
-4.8558246362
 21
-22.3706064144
  0
LINE
  5
3DE
100
AcDbEntity
  8
0
100
AcDbLine
 62
7
  6
CONTINUOUS
 10
-5.757351134
 20
-20.1356332473
 11
-6.0490263173
 21
-21.1473277455
  0
LINE
  5
3DF
100
AcDbEntity
  8
RACCORDO
100
AcDbLine
 62
7
  6
CONTINUOUS
 10
-21.8431093421
 20
-6.9613967643
 11
-21.287297993
 21
-6.6176746887
  0
LINE
  5
3E0
100
AcDbEntity
  8
RACCORDO
100
AcDbLine
 62
7
  6
CONTINUOUS
 10
-21.6905161302
 20
-6.9747064207
 11
-21.134704781
 21
-6.6309843451
  0
LINE
  5
3E1
100
AcDbEntity
  8
DRAFT
100
AcDbLine
 62
7
  6
CONTINUOUS
 10
-17.6843188475
 20
-9.4932377598
 11
-17.4996820324
 21
-9.3828429973
  0
LINE
  5
3E2
100
AcDbEntity
  8
DRAFT
100
AcDbLine
 62
7
  6
CONTINUOUS
 10
-22.8909732021
 20
-6.7800579897
 11
-21.9556890133
 21
-6.2400384115
  0
LINE
  5
3E3
100
AcDbEntity
  8
RACCORDO
100
AcDbLine
 62
7
  6
CONTINUOUS
 10
-19.6098401927
 20
-8.17606263
 11
-19.034280692
 21
-7.8437428896
  0
LINE
  5
3E4
100
AcDbEntity
  8
RACCORDO
100
AcDbLine
 62
7
  6
CONTINUOUS
 10
-19.0807479394
 20
-8.6869571035
 11
-18.6807811493
 21
-8.4560220574
  0
LINE
  5
3E5
100
AcDbEntity
  8
RACCORDO
100
AcDbLine
 62
7
  6
CONTINUOUS
 10
-18.055488758
 20
-9.2789289053
 11
-17.8410014721
 21
-9.1550862094
  0
LINE
  5
3E6
100
AcDbEntity
  8
ASSI
100
AcDbLine
 62
7
  6
CONTINUOUS
 10
-14.834460771
 20
-8.0637861972
 11
-17.4390371416
 21
-9.4178585972
  0
LINE
  5
3E7
100
AcDbEntity
  8
DRAFT
100
AcDbLine
 62
7
  6
CONTINUOUS
 10
-22.4638024286
 20
-6.7336238411
 11
-23.0060305548
 21
-7.0138875297
  0
LWPOLYLINE
  5
3E8
100
AcDbEntity
  8
0
100
AcDbPolyline
 62
7
  6
CONTINUOUS
 90
5
 70
0
 10
-28.6397661203
 20
-1.8470849164
 10
-28.6031741594
 20
-1.8435964987
 10
-28.5663066039
 20
-1.842807596
 10
-28.5294001653
 20
-1.8447452998
 10
-28.4926548415
 20
-1.8494174258
  0
LWPOLYLINE
  5
3E9
100
AcDbEntity
  8
0
100
AcDbPolyline
 62
7
  6
CONTINUOUS
 90
13
 70
0
 10
-0.8722722295
 20
-24.0433230445
 10
-0.8796139107
 20
-24.0057747018
 10
-0.8875612411
 20
-23.9691168067
 10
-0.8961142207
 20
-23.933349359
 10
-0.9052260262
 20
-23.8983613485
 10
-0.9149434809
 20
-23.8642637855
 10
-0.9254070545
 20
-23.8313897009
 10
-0.9366750845
 20
-23.7997378718
 10
-0.9486892333
 20
-23.7693095211
 10
-0.9614149583
 20
-23.7404413488
 10
-0.9749044638
 20
-23.7131254767
 10
-0.9891055454
 20
-23.6873697831
 10
-1.0038270474
 20
-23.6635346026
  0
LINE
  5
3EA
100
AcDbEntity
  8
DRAFT
100
AcDbLine
 62
7
  6
CONTINUOUS
 10
4.0527018659
 20
-22.5835803626
 11
4.0527018659
 21
-22.0439210909
  0
LINE
  5
3EB
100
AcDbEntity
  8
RACCORDO
100
AcDbLine
 62
7
  6
CONTINUOUS
 10
4.0556085706
 20
-22.5835803626
 11
4.0556085706
 21
-22.6389387988
  0
LINE
  5
3EC
100
AcDbEntity
  8
RACCORDO
100
AcDbLine
 62
7
  6
CONTINUOUS
 10
4.4913388625
 20
-22.2151682243
 11
4.4913388625
 21
-21.6720445524
  0
LINE
  5
3ED
100
AcDbEntity
  8
ASSI
100
AcDbLine
 62
7
  6
CONTINUOUS
 10
5.3399191811
 20
-19.7038971495
 11
5.3399191811
 21
-20.1050717173
  0
LINE
  5
3EE
100
AcDbEntity
  8
ASSI
100
AcDbLine
 62
7
  6
CONTINUOUS
 10
5.391290216
 20
-19.6748547439
 11
5.391290216
 21
-20.0745444682
  0
LINE
  5
3EF
100
AcDbEntity
  8
0
100
AcDbLine
 62
7
  6
CONTINUOUS
 10
-2.8458177492
 20
-22.92405313
 11
-2.6914959369
 21
-22.3769050013
  0
LINE
  5
3F0
100
AcDbEntity
  8
0
100
AcDbLine
 62
7
  6
CONTINUOUS
 10
-2.704396393
 20
-22.8423982114
 11
-2.6426322961
 21
-22.6234135486
  0
LINE
  5
3F1
100
AcDbEntity
  8
0
100
AcDbLine
 62
7
  6
CONTINUOUS
 10
-2.9947400942
 20
-23.4451733041
 11
-2.9092169432
 21
-23.152289776
  0
LINE
  5
3F2
100
AcDbEntity
  8
0
100
AcDbLine
 62
7
  6
CONTINUOUS
 10
-2.853318738
 20
-23.3635183854
 11
-2.8086026579
 21
-23.2103832034
  0
LINE
  5
3F3
100
AcDbEntity
  8
0
100
AcDbLine
 62
7
  6
CONTINUOUS
 10
-2.835585207
 20
-21.8226242753
 11
-3.3013133103
 21
-23.2681617714
  0
LINE
  5
3F4
100
AcDbEntity
  8
0
100
AcDbLine
 62
7
  6
CONTINUOUS
 10
-5.9249007929
 20
-21.7533352402
 11
-5.447626343
 21
-20.3144644599
  0
LINE
  5
3F5
100
AcDbEntity
  8
0
100
AcDbLine
 62
7
  6
CONTINUOUS
 10
-5.7834794367
 20
-21.6716803215
 11
-5.3062049868
 21
-20.2328095412
  0
LINE
  5
3F6
100
AcDbEntity
  8
0
100
AcDbLine
 62
7
  6
CONTINUOUS
 10
-3.7954777127
 20
-21.2683943727
 11
-4.1054139286
 21
-22.0413049959
  0
LINE
  5
3F7
100
AcDbEntity
  8
0
100
AcDbLine
 62
7
  6
CONTINUOUS
 10
-4.0853724011
 20
-22.8154558789
 11
-3.7168580453
 21
-21.9133992558
  0
LINE
  5
3F8
100
AcDbEntity
  8
0
100
AcDbLine
 62
7
  6
CONTINUOUS
 10
-3.9439510449
 20
-22.7338009602
 11
-3.7039752869
 21
-22.1463836225
  0
LINE
  5
3F9
100
AcDbEntity
  8
ASSI
100
AcDbLine
 62
7
  6
CONTINUOUS
 10
-10.5769969255
 20
-10.5219924631
 11
-11.9183835393
 21
-11.3821616551
  0
LWPOLYLINE
  5
3FA
100
AcDbEntity
  8
ASSI
100
AcDbPolyline
 62
7
  6
CONTINUOUS
 90
8
 70
0
 10
-11.1766540583
 20
-11.5325751858
 10
-11.169961293
 20
-11.5283242601
 10
-11.1591656568
 20
-11.519676862
 10
-11.1493312654
 20
-11.5094167782
 10
-11.1406727249
 20
-11.4977572478
 10
-11.1332615705
 20
-11.4847693505
 10
-11.127026267
 20
-11.4703820065
 10
-11.1219668144
 20
-11.4545952159
  0
LINE
  5
3FB
100
AcDbEntity
  8
RACCORDO
100
AcDbLine
 62
7
  6
CONTINUOUS
 10
-13.9854439076
 20
-10.8835786447
 11
-14.5412552568
 21
-11.2273007204
  0
LINE
  5
3FC
100
AcDbEntity
  8
RACCORDO
100
AcDbLine
 62
7
  6
CONTINUOUS
 10
-13.7310875289
 20
-10.9057401574
 11
-14.286898878
 21
-11.249462233
  0
LINE
  5
3FD
100
AcDbEntity
  8
RACCORDO
100
AcDbLine
 62
7
  6
CONTINUOUS
 10
-10.8915940499
 20
-12.7031039293
 11
-11.7947874923
 21
-13.2616523022
  0
LINE
  5
3FE
100
AcDbEntity
  8
RACCORDO
100
AcDbLine
 62
7
  6
CONTINUOUS
 10
-10.7390008381
 20
-12.7164135858
 11
-11.6421942805
 21
-13.2749619587
  0
LINE
  5
3FF
100
AcDbEntity
  8
ASSI
100
AcDbLine
 62
7
  6
CONTINUOUS
 10
-10.5226575414
 20
-10.4904147571
 11
-10.520329386
 21
-10.4890459593
  0
LINE
  5
400
100
AcDbEntity
  8
ASSI
100
AcDbLine
 62
7
  6
CONTINUOUS
 10
-10.5699833956
 20
-10.9188933674
 11
-11.6360981737
 21
-11.5451496874
  0
LINE
  5
401
100
AcDbEntity
  8
ASSI
100
AcDbLine
 62
7
  6
CONTINUOUS
 10
-10.5699833956
 20
-10.5177187997
 11
-10.5619072054
 21
-10.5130128215
  0
LINE
  5
402
100
AcDbEntity
  8
ASSI
100
AcDbLine
 62
7
  6
CONTINUOUS
 10
-11.1766783887
 20
-11.5325872692
 11
-11.4166738759
 21
-11.6718425269
  0
LINE
  5
403
100
AcDbEntity
  8
ASSI
100
AcDbLine
 62
7
  6
CONTINUOUS
 10
-11.1219668144
 20
-11.4545952159
 11
-11.4567331291
 21
-11.6487128162
  0
LINE
  5
404
100
AcDbEntity
  8
RACCORDO
100
AcDbLine
 62
7
  6
CONTINUOUS
 10
-11.7720632569
 20
-12.0368562197
 11
-12.3476227576
 21
-12.3691759601
  0
LINE
  5
405
100
AcDbEntity
  8
RACCORDO
100
AcDbLine
 62
7
  6
CONTINUOUS
 10
-11.4248417756
 20
-12.6527602494
 11
-11.8572007108
 21
-12.9023980521
  0
LINE
  5
406
100
AcDbEntity
  8
ASSI
100
AcDbLine
 62
7
  6
CONTINUOUS
 10
-10.5619072054
 20
-10.5130128215
 11
-10.5226575414
 21
-10.4904147571
  0
LINE
  5
407
100
AcDbEntity
  8
RACCORDO
100
AcDbLine
 62
7
  6
CONTINUOUS
 10
-12.9009613478
 20
-11.0885629259
 11
-13.1668272197
 21
-11.231536988
  0
LINE
  5
408
100
AcDbEntity
  8
0
100
AcDbLine
 62
7
  6
CONTINUOUS
 10
-12.6579779982
 20
-11.1171903164
 11
-13.0239807477
 21
-11.3140147507
  0
LINE
  5
409
100
AcDbEntity
  8
0
100
AcDbLine
 62
7
  6
CONTINUOUS
 10
-11.4062759154
 20
-11.8399074115
 11
-11.7722786649
 21
-12.0367318458
  0
LINE
  5
40A
100
AcDbEntity
  8
0
100
AcDbLine
 62
7
  6
CONTINUOUS
 10
-11.0651170877
 20
-12.4593119534
 11
-11.4248417756
 21
-12.6527602494
  0
LINE
  5
40B
100
AcDbEntity
  8
ASSI
100
AcDbLine
 62
7
  6
CONTINUOUS
 10
-10.5189824126
 20
-10.488258171
 11
-10.5186123964
 21
-10.488060182
  0
LINE
  5
40C
100
AcDbEntity
  8
DRAFT
100
AcDbLine
 62
7
  6
CONTINUOUS
 10
-11.8572007108
 20
-12.857742741
 11
-12.399428837
 21
-13.1380064296
  0
LINE
  5
40D
100
AcDbEntity
  8
0
100
AcDbLine
 62
7
  6
CONTINUOUS
 10
-12.9009613478
 20
-11.0885629259
 11
-12.8958327554
 21
-11.0859184036
  0
LWPOLYLINE
  5
40E
100
AcDbEntity
  8
0
100
AcDbPolyline
 62
7
  6
CONTINUOUS
 90
6
 70
0
 10
-12.9009613478
 20
-11.0885629259
 10
-12.8690136946
 20
-11.0728227454
 10
-12.8357347571
 20
-11.0592898541
 10
-12.8013102843
 20
-11.0481072832
 10
-12.7659475459
 20
-11.0393987209
 10
-12.7298635436
 20
-11.0332632663
  0
LWPOLYLINE
  5
40F
100
AcDbEntity
  8
0
100
AcDbPolyline
 62
7
  6
CONTINUOUS
 90
11
 70
0
 10
-12.8958327554
 20
-11.0859184036
 10
-12.8758456108
 20
-11.0776044959
 10
-12.8546750282
 20
-11.0718135828
 10
-12.8324393561
 20
-11.0685780366
 10
-12.8092628973
 20
-11.067915945
 10
-12.7852752136
 20
-11.0698310091
 10
-12.7606104019
 20
-11.0743125233
 10
-12.7354063444
 20
-11.0813354349
 10
-12.7098039378
 20
-11.0908604841
 10
-12.6839463057
 20
-11.1028344237
 10
-12.6579779982
 20
-11.1171903164
  0
LINE
  5
410
100
AcDbEntity
  8
SMUSSO
100
AcDbLine
 62
7
  6
CONTINUOUS
 10
53.7976639223
 20
3.7049828482
 11
55.2118774847
 21
3.7049828482
  0
LINE
  5
411
100
AcDbEntity
  8
DRAFT
100
AcDbLine
 62
7
  6
CONTINUOUS
 10
57.0149997767
 20
4.7461264616
 11
57.6479915668
 21
4.7461264621
  0
LWPOLYLINE
  5
412
100
AcDbEntity
  8
0
100
AcDbPolyline
 62
7
  6
CONTINUOUS
 90
4
 70
0
 10
-30.6976289937
 20
1.1354103221
 10
-30.6842154547
 20
1.1353253099
 10
-30.6707883692
 20
1.133763519
 10
-30.6573759218
 20
1.1310316216
  0
LINE
  5
413
100
AcDbEntity
  8
DRAFT
100
AcDbLine
 62
7
  6
CONTINUOUS
 10
-41.609731285
 20
28.7461200306
 11
-41.1777438221
 21
28.4966958836
  0
LINE
  5
414
100
AcDbEntity
  8
RACCORDO
100
AcDbLine
 62
7
  6
CONTINUOUS
 10
-41.6082881837
 20
28.7486193944
 11
-41.6915527092
 21
28.7966952879
  0
LINE
  5
415
100
AcDbEntity
  8
RACCORDO
100
AcDbLine
 62
7
  6
CONTINUOUS
 10
-40.6010590573
 20
28.4253491048
 11
-41.2909612341
 21
28.8236899752
  0
LINE
  5
416
100
AcDbEntity
  8
RACCORDO
100
AcDbLine
 62
7
  6
CONTINUOUS
 10
9.8641161401
 20
-25.3993588587
 11
9.8641161401
 21
-24.8572988886
  0
LINE
  5
417
100
AcDbEntity
  8
0
100
AcDbLine
 62
7
  6
CONTINUOUS
 10
12.9256920694
 20
-26.0154853776
 11
12.9256920694
 21
-26.3308008598
  0
LINE
  5
418
100
AcDbEntity
  8
RACCORDO
100
AcDbLine
 62
7
  6
CONTINUOUS
 10
13.1390240041
 20
-26.8283787571
 11
13.1390240041
 21
-27.2902496151
  0
LINE
  5
419
100
AcDbEntity
  8
ASSI
100
AcDbLine
 62
7
  6
CONTINUOUS
 10
4.7879357623
 20
-20.6407735658
 11
4.8551830716
 21
-20.3898150285
  0
LINE
  5
41A
100
AcDbEntity
  8
RACCORDO
100
AcDbLine
 62
7
  6
CONTINUOUS
 10
-5.9332067654
 20
-16.1475751142
 11
-5.3773954163
 21
-15.8038530386
  0
LINE
  5
41B
100
AcDbEntity
  8
RACCORDO
100
AcDbLine
 62
7
  6
CONTINUOUS
 10
-5.7806135535
 20
-16.1608847706
 11
-5.2248022043
 21
-15.817162695
  0
LINE
  5
41C
100
AcDbEntity
  8
RACCORDO
100
AcDbLine
 62
7
  6
CONTINUOUS
 10
-7.193170351
 20
-15.8437726162
 11
-6.2578861623
 21
-15.3037530381
  0
LINE
  5
41D
100
AcDbEntity
  8
RACCORDO
100
AcDbLine
 62
7
  6
CONTINUOUS
 10
-6.515194676
 20
-15.9421500744
 11
-6.0457864366
 21
-15.6711205387
  0
LINE
  5
41E
100
AcDbEntity
  8
RACCORDO
100
AcDbLine
 62
7
  6
CONTINUOUS
 10
-3.699937616
 20
-17.3622409799
 11
-3.1243781153
 21
-17.0299212395
  0
LINE
  5
41F
100
AcDbEntity
  8
DRAFT
100
AcDbLine
 62
7
  6
CONTINUOUS
 10
-6.5538998519
 20
-15.919802191
 11
-7.0961279781
 21
-16.2000658796
  0
LINE
  5
420
100
AcDbEntity
  8
RACCORDO
100
AcDbLine
 62
7
  6
CONTINUOUS
 10
-40.6730039949
 20
34.9155713516
 11
-41.1777438221
 21
35.2070018019
  0
LINE
  5
421
100
AcDbEntity
  8
RACCORDO
100
AcDbLine
 62
7
  6
CONTINUOUS
 10
-41.1777438221
 20
35.5131692773
 11
-41.166776791
 21
35.506837051
  0
LINE
  5
422
100
AcDbEntity
  8
RACCORDO
100
AcDbLine
 62
7
  6
CONTINUOUS
 10
-43.4727137305
 20
40.3132791705
 11
36.3581499045
 21
-5.7800609766
  0
LINE
  5
423
100
AcDbEntity
  8
RACCORDO
100
AcDbLine
 62
7
  6
CONTINUOUS
 10
-43.5348385169
 20
40.4506002288
 11
36.2960250969
 21
-5.642739906
  0
LWPOLYLINE
  5
424
100
AcDbEntity
  8
RACCORDO
100
AcDbPolyline
 62
7
  6
CONTINUOUS
 90
24
 70
0
 10
36.3581609618
 20
-5.7800671321
 10
36.3606484444
 20
-5.781522731
 10
36.3741468863
 20
-5.7900694319
 10
36.3889410074
 20
-5.8006328103
 10
36.4046681155
 20
-5.8131804254
 10
36.4211112204
 20
-5.8277347821
 10
36.438036083
 20
-5.8442737706
 10
36.4550980218
 20
-5.8626154133
 10
36.4720474057
 20
-5.8826051931
 10
36.4886977878
 20
-5.9041230667
 10
36.5048509437
 20
-5.9270028415
 10
36.5203167446
 20
-5.9510395755
 10
36.5349309472
 20
-5.9760206125
 10
36.5485643824
 20
-6.0017608864
 10
36.5610812199
 20
-6.0280171276
 10
36.5723737692
 20
-6.054542787
 10
36.5823727166
 20
-6.0811379011
 10
36.5910136644
 20
-6.1075728852
 10
36.5982430154
 20
-6.1335780981
 10
36.6040311783
 20
-6.1588607903
 10
36.6083940213
 20
-6.1832119744
 10
36.6113582923
 20
-6.2063677033
 10
36.6129745727
 20
-6.2279070834
 10
36.6133791381
 20
-6.2444889554
  0
LINE
  5
425
100
AcDbEntity
  8
RACCORDO
100
AcDbLine
 62
7
  6
CONTINUOUS
 10
14.320123121
 20
-27.755199697
 11
14.320123121
 21
-27.7315402189
  0
LWPOLYLINE
  5
426
100
AcDbEntity
  8
0
100
AcDbPolyline
 62
7
  6
CONTINUOUS
 90
12
 70
0
 10
12.9256920694
 20
-26.0154858198
 10
12.925473629
 20
-26.0240180766
 10
12.9230104157
 20
-26.0453450891
 10
12.9178170324
 20
-26.0665214028
 10
12.9099210156
 20
-26.0874212934
 10
12.8993749096
 20
-26.1079116887
 10
12.8862388252
 20
-26.1278858064
 10
12.8705923678
 20
-26.1472306286
 10
12.8525571964
 20
-26.1658126853
 10
12.8322594576
 20
-26.1835269139
 10
12.8098157762
 20
-26.200293548
 10
12.7853619696
 20
-26.2160288961
  0
LINE
  5
427
100
AcDbEntity
  8
ASSI
100
AcDbLine
 62
7
  6
CONTINUOUS
 10
5.3329056512
 20
-19.708170813
 11
3.5236117807
 21
-20.8683872866
  0
LINE
  5
428
100
AcDbEntity
  8
RACCORDO
100
AcDbLine
 62
7
  6
CONTINUOUS
 10
1.9244586691
 20
-20.0697569946
 11
1.3686473199
 21
-20.4134790703
  0
LINE
  5
429
100
AcDbEntity
  8
RACCORDO
100
AcDbLine
 62
7
  6
CONTINUOUS
 10
2.1788150478
 20
-20.0919185073
 11
1.6230036987
 21
-20.4356405829
  0
LINE
  5
42A
100
AcDbEntity
  8
DRAFT
100
AcDbLine
 62
7
  6
CONTINUOUS
 10
-1.7744162708
 20
-18.6794161097
 11
-1.5897794557
 21
-18.5690213472
  0
LINE
  5
42B
100
AcDbEntity
  8
0
100
AcDbLine
 62
7
  6
CONTINUOUS
 10
-6.5273211222
 20
-19.5277523888
 11
-6.6687424785
 21
-19.6094073075
  0
LINE
  5
42C
100
AcDbEntity
  8
RACCORDO
100
AcDbLine
 62
7
  6
CONTINUOUS
 10
-3.1708453627
 20
-17.8731354534
 11
-2.7708785726
 21
-17.6422004073
  0
LINE
  5
42D
100
AcDbEntity
  8
0
100
AcDbLine
 62
7
  6
CONTINUOUS
 10
-6.1906350568
 20
-19.7221507033
 11
-6.332056413
 21
-19.803805622
  0
LINE
  5
42E
100
AcDbEntity
  8
0
100
AcDbLine
 62
7
  6
CONTINUOUS
 10
-5.6159297777
 20
-20.0539783287
 11
-5.757351134
 21
-20.1356332473
  0
LINE
  5
42F
100
AcDbEntity
  8
0
100
AcDbLine
 62
7
  6
CONTINUOUS
 10
-5.3062049868
 20
-20.2328095412
 11
-5.447626343
 21
-20.3144644599
  0
LINE
  5
430
100
AcDbEntity
  8
RACCORDO
100
AcDbLine
 62
7
  6
CONTINUOUS
 10
-2.1455861813
 20
-18.4651072552
 11
-1.9310988954
 21
-18.3412645592
  0
LINE
  5
431
100
AcDbEntity
  8
0
100
AcDbLine
 62
7
  6
CONTINUOUS
 10
-5.1911877049
 20
-20.2991162031
 11
-5.3326090611
 21
-20.3807711217
  0
LINE
  5
432
100
AcDbEntity
  8
0
100
AcDbLine
 62
7
  6
CONTINUOUS
 10
-4.881251489
 20
-20.4780694897
 11
-5.0226728452
 21
-20.5597244084
  0
LINE
  5
433
100
AcDbEntity
  8
0
100
AcDbLine
 62
7
  6
CONTINUOUS
 10
-4.58033442
 20
-20.6519181092
 11
-4.7217557763
 21
-20.7335730278
  0
LINE
  5
434
100
AcDbEntity
  8
0
100
AcDbLine
 62
7
  6
CONTINUOUS
 10
-5.7834794367
 20
-21.6716803215
 11
-5.9249007929
 21
-21.7533352402
  0
LINE
  5
435
100
AcDbEntity
  8
0
100
AcDbLine
 62
7
  6
CONTINUOUS
 10
-4.2706548839
 20
-20.8307231921
 11
-4.4120762401
 21
-20.9123781108
  0
LINE
  5
436
100
AcDbEntity
  8
0
100
AcDbLine
 62
7
  6
CONTINUOUS
 10
-3.6540563565
 20
-21.1867394541
 11
-3.7954777127
 21
-21.2683943727
  0
LINE
  5
437
100
AcDbEntity
  8
0
100
AcDbLine
 62
7
  6
CONTINUOUS
 10
-4.881251489
 20
-22.192615431
 11
-5.0226728452
 21
-22.2742703496
  0
LINE
  5
438
100
AcDbEntity
  8
0
100
AcDbLine
 62
7
  6
CONTINUOUS
 10
-3.3474053587
 20
-21.363795897
 11
-3.4888267149
 21
-21.4454508156
  0
LINE
  5
439
100
AcDbEntity
  8
0
100
AcDbLine
 62
7
  6
CONTINUOUS
 10
-4.4178957289
 20
-22.4601512396
 11
-4.5593170852
 21
-22.5418061583
  0
LINE
  5
43A
100
AcDbEntity
  8
0
100
AcDbLine
 62
7
  6
CONTINUOUS
 10
-2.6941638508
 20
-21.7409693566
 11
-2.835585207
 21
-21.8226242753
  0
LINE
  5
43B
100
AcDbEntity
  8
0
100
AcDbLine
 62
7
  6
CONTINUOUS
 10
-3.9439510449
 20
-22.7338009602
 11
-4.0853724011
 21
-22.8154558789
  0
LINE
  5
43C
100
AcDbEntity
  8
0
100
AcDbLine
 62
7
  6
CONTINUOUS
 10
-2.3943385547
 20
-21.9140847248
 11
-2.535759911
 21
-21.9957396435
  0
LINE
  5
43D
100
AcDbEntity
  8
0
100
AcDbLine
 62
7
  6
CONTINUOUS
 10
-1.8477528787
 20
-22.2497067766
 11
-1.989174235
 21
-22.3313616953
  0
LINE
  5
43E
100
AcDbEntity
  8
0
100
AcDbLine
 62
7
  6
CONTINUOUS
 10
-2.704396393
 20
-22.8423982114
 11
-2.8458177492
 21
-22.92405313
  0
LINE
  5
43F
100
AcDbEntity
  8
0
100
AcDbLine
 62
7
  6
CONTINUOUS
 10
-3.2790682797
 20
-23.1991171387
 11
-3.3499813487
 21
-23.240061456
  0
LINE
  5
440
100
AcDbEntity
  8
0
100
AcDbLine
 62
7
  6
CONTINUOUS
 10
-2.853318738
 20
-23.3635183854
 11
-2.9947400942
 21
-23.4451733041
  0
LINE
  5
441
100
AcDbEntity
  8
0
100
AcDbLine
 62
7
  6
CONTINUOUS
 10
-1.0828785128
 20
-22.7093860757
 11
-1.224299869
 21
-22.7910409943
  0
LINE
  5
442
100
AcDbEntity
  8
0
100
AcDbLine
 62
7
  6
CONTINUOUS
 10
-1.5493410892
 20
-23.1646961935
 11
-1.6907624454
 21
-23.2463511121
  0
LINE
  5
443
100
AcDbEntity
  8
0
100
AcDbLine
 62
7
  6
CONTINUOUS
 10
-1.3722158048
 20
-23.2669661128
 11
-1.513637161
 21
-23.3486210315
  0
LINE
  5
444
100
AcDbEntity
  8
ASSI
100
AcDbLine
 62
7
  6
CONTINUOUS
 10
1.0754418057
 20
-17.2499645471
 11
-1.5291345649
 21
-18.604036947
  0
LWPOLYLINE
  5
445
100
AcDbEntity
  8
RACCORDO
100
AcDbPolyline
 62
7
  6
CONTINUOUS
 90
16
 70
0
 10
-43.9400612886
 20
40.1942109752
 10
-43.9194254712
 20
40.1833566235
 10
-43.8971315969
 20
40.1736567209
 10
-43.8733726862
 20
40.1651952571
 10
-43.8483544448
 20
40.1580454993
 10
-43.822293485
 20
40.1522693585
 10
-43.7954154505
 20
40.1479168524
 10
-43.7679530579
 20
40.145025672
 10
-43.740144087
 20
40.1436208566
 10
-43.7122293239
 20
40.143714575
 10
-43.6844504665
 20
40.1453060209
 10
-43.6570480387
 20
40.1483814196
 10
-43.6302593129
 20
40.1529141466
 10
-43.6043162435
 20
40.1588649583
 10
-43.5794434587
 20
40.1661823329
 10
-43.5558563234
 20
40.174802916
  0
LWPOLYLINE
  5
446
100
AcDbEntity
  8
RACCORDO
100
AcDbPolyline
 62
7
  6
CONTINUOUS
 90
14
 70
0
 10
-45.1012826471
 20
43.7875408166
 10
-45.1338831337
 20
43.8048676016
 10
-45.1663298905
 20
43.819681016
 10
-45.1984828105
 20
43.8319184518
 10
-45.2302022467
 20
43.8415288116
 10
-45.261352327
 20
43.8484710933
 10
-45.291801537
 20
43.8527145493
 10
-45.3214190782
 20
43.8542413478
 10
-45.350077195
 20
43.8530456132
 10
-45.377654432
 20
43.8491317885
 10
-45.4040326985
 20
43.8425166884
 10
-45.4290984124
 20
43.8332290817
 10
-45.4527447289
 20
43.821308484
 10
-45.4586355119
 20
43.8177913725
  0
LINE
  5
447
100
AcDbEntity
  8
RACCORDO
100
AcDbLine
 62
7
  6
CONTINUOUS
 10
-43.4829131407
 20
40.3188274331
 11
-43.4727161509
 21
40.3132808014
  0
LINE
  5
448
100
AcDbEntity
  8
RACCORDO
100
AcDbLine
 62
7
  6
CONTINUOUS
 10
38.0708990469
 20
-4.7206278101
 11
-45.3097124669
 21
43.4222922736
  0
LINE
  5
449
100
AcDbEntity
  8
RACCORDO
100
AcDbLine
 62
7
  6
CONTINUOUS
 10
38.2793288668
 20
-4.355379267
 11
-45.1012826471
 21
43.7875408166
  0
LINE
  5
44A
100
AcDbEntity
  8
RACCORDO
100
AcDbLine
 62
7
  6
CONTINUOUS
 10
38.5708754541
 20
-4.1870444796
 11
-44.8197393804
 21
43.961651396
  0
LWPOLYLINE
  5
44B
100
AcDbEntity
  8
RACCORDO
100
AcDbPolyline
 62
7
  6
CONTINUOUS
 90
25
 70
0
 10
38.0708990469
 20
-4.7206278101
 10
38.0894473723
 20
-4.7320465651
 10
38.1077827406
 20
-4.7447115255
 10
38.1259051516
 20
-4.758622691
 10
38.1438969817
 20
-4.7738536982
 10
38.1616758546
 20
-4.7903309106
 10
38.1789946418
 20
-4.8078334191
 10
38.1958407242
 20
-4.8263699047
 10
38.212226721
 20
-4.8459316864
 10
38.2279433609
 20
-4.8662718123
 10
38.2429830017
 20
-4.8874019552
 10
38.2573532856
 20
-4.9093104423
 10
38.2708678687
 20
-4.931715303
 10
38.2835158652
 20
-4.9546246306
 10
38.2953081609
 20
-4.9780303318
 10
38.3060910683
 20
-5.0016261561
 10
38.3158497473
 20
-5.0254116822
 10
38.3245990381
 20
-5.0493873313
 10
38.3322297736
 20
-5.0732481172
 10
38.3387280654
 20
-5.0970012513
 10
38.3441078019
 20
-5.1206395222
 10
38.3483014819
 20
-5.1438363089
 10
38.3512866048
 20
-5.1664827381
 10
38.3530856712
 20
-5.1886876832
 10
38.3536986811
 20
-5.2104511443
  0
LWPOLYLINE
  5
44C
100
AcDbEntity
  8
RACCORDO
100
AcDbPolyline
 62
7
  6
CONTINUOUS
 90
6
 70
0
 10
36.2960250969
 20
-5.642739906
 10
36.3269216323
 20
-5.6620238254
 10
36.3571099453
 20
-5.6834021219
 10
36.3865900357
 20
-5.7068747954
 10
36.4154534545
 20
-5.7325503386
 10
36.4436086507
 20
-5.7603202588
  0
LWPOLYLINE
  5
44D
100
AcDbEntity
  8
RACCORDO
100
AcDbPolyline
 62
7
  6
CONTINUOUS
 90
10
 70
0
 10
36.7012478686
 20
-6.3670702592
 10
36.6824485895
 20
-6.3551552874
 10
36.6656488104
 20
-6.3422829766
 10
36.6509939908
 20
-6.3285647808
 10
36.6386110183
 20
-6.3141194779
 10
36.6286071099
 20
-6.2990721412
 10
36.6210688835
 20
-6.2835530571
 10
36.6160616084
 20
-6.2676965961
 10
36.6136286395
 20
-6.2516400502
 10
36.613379903
 20
-6.2445878812
  0
LINE
  5
44E
100
AcDbEntity
  8
DRAFT
100
AcDbLine
 62
7
  6
CONTINUOUS
 10
19.9626044426
 20
-31.7697587124
 11
19.9626044426
 21
-31.2300994408
  0
LINE
  5
44F
100
AcDbEntity
  8
RACCORDO
100
AcDbLine
 62
7
  6
CONTINUOUS
 10
19.9655111473
 20
-31.7697587124
 11
19.9655111473
 21
-31.8251171486
  0
LINE
  5
450
100
AcDbEntity
  8
RACCORDO
100
AcDbLine
 62
7
  6
CONTINUOUS
 10
20.4012414392
 20
-31.4013465741
 11
20.4012414392
 21
-30.8582229023
  0
LINE
  5
451
100
AcDbEntity
  8
ASSI
100
AcDbLine
 62
7
  6
CONTINUOUS
 10
21.2498217578
 20
-28.8900754994
 11
21.2498217578
 21
-29.2912500671
  0
LINE
  5
452
100
AcDbEntity
  8
ASSI
100
AcDbLine
 62
7
  6
CONTINUOUS
 10
21.3011927927
 20
-28.8610330938
 11
21.3011927927
 21
-29.260722818
  0
LINE
  5
453
100
AcDbEntity
  8
RACCORDO
100
AcDbLine
 62
7
  6
CONTINUOUS
 10
25.7740187168
 20
-34.5855372085
 11
25.7740187168
 21
-34.0434772385
  0
LWPOLYLINE
  5
454
100
AcDbEntity
  8
RACCORDO
100
AcDbPolyline
 62
7
  6
CONTINUOUS
 90
19
 70
0
 10
38.2793288668
 20
-4.355379267
 10
38.2610617601
 20
-4.3672062674
 10
38.2429581617
 20
-4.3807520488
 10
38.225152809
 20
-4.3959157957
 10
38.2077782194
 20
-4.4125846509
 10
38.1909637046
 20
-4.4306345553
 10
38.1748344077
 20
-4.4499311712
 10
38.1595103721
 20
-4.4703308823
 10
38.1451056482
 20
-4.4916818624
 10
38.1317274441
 20
-4.5138252049
 10
38.1194753217
 20
-4.5365961193
 10
38.1084404759
 20
-4.5598251192
 10
38.0987050495
 20
-4.5833392819
 10
38.0903414931
 20
-4.6069635986
 10
38.0834120445
 20
-4.630522247
 10
38.0779682753
 20
-4.6538398618
 10
38.0740506882
 20
-4.6767428954
 10
38.0716884232
 20
-4.6990609091
 10
38.0708990469
 20
-4.7206278101
  0
LWPOLYLINE
  5
455
100
AcDbEntity
  8
ASSI
100
AcDbPolyline
 62
7
  6
CONTINUOUS
 90
8
 70
0
 10
4.7332485184
 20
-20.7187535357
 10
4.7399412837
 20
-20.71450261
 10
4.7507369199
 20
-20.7058552119
 10
4.7605713113
 20
-20.6955951281
 10
4.7692298518
 20
-20.6839355977
 10
4.7766410062
 20
-20.6709477004
 10
4.7828763097
 20
-20.6565603564
 10
4.7879357623
 20
-20.6407735658
  0
LINE
  5
456
100
AcDbEntity
  8
RACCORDO
100
AcDbLine
 62
7
  6
CONTINUOUS
 10
5.0183085268
 20
-21.8892822792
 11
4.1151150844
 21
-22.4478306521
  0
LINE
  5
457
100
AcDbEntity
  8
RACCORDO
100
AcDbLine
 62
7
  6
CONTINUOUS
 10
5.1709017386
 20
-21.9025919357
 11
4.2677082962
 21
-22.4611403086
  0
LWPOLYLINE
  5
458
100
AcDbEntity
  8
0
100
AcDbPolyline
 62
7
  6
CONTINUOUS
 90
44
 70
0
 10
-0.9574264254
 20
-23.569287426
 10
-0.9537238113
 20
-23.567070383
 10
-0.9468968922
 20
-23.562731088
 10
-0.9400488984
 20
-23.5580110908
 10
-0.9332312713
 20
-23.5527413121
 10
-0.9264389246
 20
-23.5469012728
 10
-0.9196769446
 20
-23.540511452
 10
-0.9130120315
 20
-23.5334642084
 10
-0.9064435785
 20
-23.5257571837
 10
-0.8999721924
 20
-23.5173927361
 10
-0.8936663941
 20
-23.5082702988
 10
-0.8875130346
 20
-23.4983870276
 10
-0.881525263
 20
-23.4877457667
 10
-0.8758110474
 20
-23.4762544816
 10
-0.8703613088
 20
-23.4639146708
 10
-0.8651851263
 20
-23.4507248358
 10
-0.8604177047
 20
-23.436588447
 10
-0.8560583288
 20
-23.4215220936
 10
-0.8521077138
 20
-23.4055091863
 10
-0.8487032112
 20
-23.3884034277
 10
-0.8458355726
 20
-23.3702146516
 10
-0.8435140463
 20
-23.3509330242
 10
-0.8419037284
 20
-23.3303827464
 10
-0.8409772795
 20
-23.3085637124
 10
-0.8407620391
 20
-23.2854760281
 10
-0.8415051215
 20
-23.2609442116
 10
-0.8431238381
 20
-23.2349570049
 10
-0.8457008774
 20
-23.207525666
 10
-0.8497314194
 20
-23.1785084873
 10
-0.8552565858
 20
-23.1476561186
 10
-0.8622352548
 20
-23.11521791
 10
-0.8710392409
 20
-23.0818002047
 10
-0.8818636764
 20
-23.0472089305
 10
-0.894513429
 20
-23.0116381596
 10
-0.9087749152
 20
-22.9762764517
 10
-0.9248007773
 20
-22.9411474974
 10
-0.942438373
 20
-22.9062276061
 10
-0.9610161929
 20
-22.8726342662
 10
-0.9806069293
 20
-22.8404355553
 10
-1.0011378897
 20
-22.8095633957
 10
-1.021719487
 20
-22.7809310424
 10
-1.0420551921
 20
-22.7548429139
 10
-1.062441534
 20
-22.7309945916
 10
-1.0828785128
 20
-22.7093860757
  0
LINE
  5
459
100
AcDbEntity
  8
DRAFT
100
AcDbLine
 62
7
  6
CONTINUOUS
 10
56.6243888896
 20
6.5190583022
 11
58.7474113907
 21
7.7876538171
  0
LINE
  5
45A
100
AcDbEntity
  8
ASSI
100
AcDbLine
 62
7
  6
CONTINUOUS
 10
5.3872450353
 20
-19.676593107
 11
5.3895731907
 21
-19.6752243092
  0
LINE
  5
45B
100
AcDbEntity
  8
ASSI
100
AcDbLine
 62
7
  6
CONTINUOUS
 10
5.3399191811
 20
-20.1050717173
 11
3.7842716164
 21
-21.0188890088
  0
LINE
  5
45C
100
AcDbEntity
  8
ASSI
100
AcDbLine
 62
7
  6
CONTINUOUS
 10
5.3399191811
 20
-19.7038971495
 11
5.3479953713
 21
-19.6991911714
  0
LINE
  5
45D
100
AcDbEntity
  8
ASSI
100
AcDbLine
 62
7
  6
CONTINUOUS
 10
4.733224188
 20
-20.7187656191
 11
4.0006604812
 21
-21.1438292274
  0
LINE
  5
45E
100
AcDbEntity
  8
ASSI
100
AcDbLine
 62
7
  6
CONTINUOUS
 10
4.7879357623
 20
-20.6407735658
 11
3.9604390021
 21
-21.1206058495
  0
LINE
  5
45F
100
AcDbEntity
  8
0
100
AcDbLine
 62
7
  6
CONTINUOUS
 10
-1.989174235
 20
-23.9206756674
 11
-2.0801865682
 21
-23.973225048
  0
LINE
  5
460
100
AcDbEntity
  8
0
100
AcDbLine
 62
7
  6
CONTINUOUS
 10
-1.1879573415
 20
-23.683034432
 11
-1.1923442765
 21
-23.6855673932
  0
LWPOLYLINE
  5
461
100
AcDbEntity
  8
0
100
AcDbPolyline
 62
7
  6
CONTINUOUS
 90
42
 70
0
 10
-1.0988465979
 20
-23.6509444954
 10
-1.0976825875
 20
-23.6502723472
 10
-1.0905252328
 20
-23.6458434661
 10
-1.0833411611
 20
-23.6409581353
 10
-1.0761380247
 20
-23.6356060716
 10
-1.0689742149
 20
-23.6295859582
 10
-1.061842445
 20
-23.6228735816
 10
-1.0547500017
 20
-23.6154931554
 10
-1.0477771367
 20
-23.6073160031
 10
-1.0409136542
 20
-23.5983370675
 10
-1.0341697501
 20
-23.5885614058
 10
-1.0276562636
 20
-23.5778755136
 10
-1.0213598045
 20
-23.5662786877
 10
-1.0152937629
 20
-23.5537716313
 10
-1.0096091492
 20
-23.5402429492
 10
-1.0043007461
 20
-23.5257068018
 10
-0.9993737708
 20
-23.5101490288
 10
-0.9949948847
 20
-23.4934157533
 10
-0.9911573864
 20
-23.4755137758
 10
-0.9878679774
 20
-23.4564362959
 10
-0.9853134226
 20
-23.4360090355
 10
-0.9834781915
 20
-23.4142159015
 10
-0.9823778148
 20
-23.3910729871
 10
-0.9822456497
 20
-23.366454293
 10
-0.9830042007
 20
-23.3403854151
 10
-0.9847309634
 20
-23.3128407575
 10
-0.9878917828
 20
-23.2836175343
 10
-0.992390928
 20
-23.2527062779
 10
-0.9983241299
 20
-23.2201164558
 10
-1.0064444251
 20
-23.1856736849
 10
-1.0170646957
 20
-23.1486855138
 10
-1.0298720597
 20
-23.109844394
 10
-1.0446809081
 20
-23.0710532964
 10
-1.0619039924
 20
-23.0321893992
 10
-1.0811285612
 20
-22.9933755242
 10
-1.1009307506
 20
-22.9568831089
 10
-1.1210109885
 20
-22.9234760083
 10
-1.141668847
 20
-22.8923903673
 10
-1.1623791791
 20
-22.8636060582
 10
-1.1829669356
 20
-22.8371163717
 10
-1.2036071655
 20
-22.8129280171
 10
-1.224299869
 20
-22.7910409943
  0
LINE
  5
462
100
AcDbEntity
  8
0
100
AcDbLine
 62
7
  6
CONTINUOUS
 10
-1.0425524012
 20
-23.6184097048
 11
-0.957438735
 21
-23.5692661407
  0
LINE
  5
463
100
AcDbEntity
  8
0
100
AcDbLine
 62
7
  6
CONTINUOUS
 10
-1.5390640816
 20
-24.1223528773
 11
-1.6804854378
 21
-24.204007796
  0
LINE
  5
464
100
AcDbEntity
  8
0
100
AcDbLine
 62
7
  6
CONTINUOUS
 10
-0.8722722295
 20
-24.0433230445
 11
-1.0136935857
 21
-24.1249779632
  0
LINE
  5
465
100
AcDbEntity
  8
RACCORDO
100
AcDbLine
 62
7
  6
CONTINUOUS
 10
3.7036796361
 20
-21.6369967922
 11
4.2792391369
 21
-21.3046770518
  0
LINE
  5
466
100
AcDbEntity
  8
0
100
AcDbLine
 62
7
  6
CONTINUOUS
 10
-0.7663177282
 20
-24.5685269369
 11
-0.9077390844
 21
-24.6501818556
  0
LINE
  5
467
100
AcDbEntity
  8
RACCORDO
100
AcDbLine
 62
7
  6
CONTINUOUS
 10
3.9499856855
 20
-21.9846140557
 11
4.4913388625
 21
-21.6720445524
  0
LINE
  5
468
100
AcDbEntity
  8
RACCORDO
100
AcDbLine
 62
7
  6
CONTINUOUS
 10
38.2793288668
 20
-4.355379267
 11
38.5708754541
 21
-4.1870444796
  0
LINE
  5
469
100
AcDbEntity
  8
SMUSSO
100
AcDbLine
 62
7
  6
CONTINUOUS
 10
54.5047707035
 20
4.9297277183
 11
56.2725376565
 21
5.9504142016
  0
LINE
  5
46A
100
AcDbEntity
  8
RACCORDO
100
AcDbLine
 62
7
  6
CONTINUOUS
 10
38.7742282266
 20
-5.2125701019
 11
39.0657748139
 21
-5.0442353145
  0
LINE
  5
46B
100
AcDbEntity
  8
SMUSSO
100
AcDbLine
 62
7
  6
CONTINUOUS
 10
55.2118774847
 20
3.7049828482
 11
56.9796444377
 21
4.7256693315
  0
LINE
  5
46C
100
AcDbEntity
  8
ASSI
100
AcDbLine
 62
7
  6
CONTINUOUS
 10
5.3479953713
 20
-19.6991911714
 11
5.3872450353
 21
-19.676593107
  0
LINE
  5
46D
100
AcDbEntity
  8
DRAFT
100
AcDbLine
 62
7
  6
CONTINUOUS
 10
57.6479915668
 20
4.7461264616
 11
59.8080715624
 21
5.950536513
  0
LINE
  5
46E
100
AcDbEntity
  8
0
100
AcDbLine
 62
7
  6
CONTINUOUS
 10
-1.1048208775
 20
-23.6542344953
 11
-1.0988465979
 21
-23.6509444954
  0
LWPOLYLINE
  5
46F
100
AcDbEntity
  8
0
100
AcDbPolyline
 62
7
  6
CONTINUOUS
 90
11
 70
0
 10
-1.3353336723
 20
-23.3824924198
 10
-1.3382316985
 20
-23.3840554264
 10
-1.3517152074
 20
-23.3895117115
 10
-1.3664558585
 20
-23.3925471917
 10
-1.3828805443
 20
-23.3932098977
 10
-1.4012800813
 20
-23.391472614
 10
-1.4213636528
 20
-23.3873625561
 10
-1.4426857023
 20
-23.3810094011
 10
-1.4650977107
 20
-23.3724563749
 10
-1.4887481969
 20
-23.3616602517
 10
-1.513637161
 20
-23.3486210315
  0
LINE
  5
470
100
AcDbEntity
  8
ASSI
100
AcDbLine
 62
7
  6
CONTINUOUS
 10
5.3909201641
 20
-19.6744365209
 11
5.3912901803
 21
-19.6742385319
  0
LINE
  5
471
100
AcDbEntity
  8
DRAFT
100
AcDbLine
 62
7
  6
CONTINUOUS
 10
4.0527018659
 20
-22.0439210909
 11
3.5104737397
 21
-22.3241847795
  0
LWPOLYLINE
  5
472
100
AcDbEntity
  8
RACCORDO
100
AcDbPolyline
 62
7
  6
CONTINUOUS
 90
19
 70
0
 10
38.7742282266
 20
-5.2125701022
 10
38.7548527451
 20
-5.2224773366
 10
38.7340704542
 20
-5.2313834816
 10
38.7120360275
 20
-5.2392222527
 10
38.6889134577
 20
-5.2459353093
 10
38.6648748361
 20
-5.251472689
 10
38.6400990718
 20
-5.2557931794
 10
38.61477056
 20
-5.258864625
 10
38.58907781
 20
-5.2606641664
 10
38.5632120419
 20
-5.2611784104
 10
38.53736575
 20
-5.2604035288
 10
38.5117313109
 20
-5.2583452883
 10
38.4864995507
 20
-5.2550190137
 10
38.461858258
 20
-5.2504494676
 10
38.4379908207
 20
-5.2446706646
 10
38.4150748975
 20
-5.2377256288
 10
38.3932810394
 20
-5.2296660623
 10
38.3727714245
 20
-5.2205519543
 10
38.3536986811
 20
-5.2104511443
  0
LWPOLYLINE
  5
473
100
AcDbEntity
  8
0
100
AcDbPolyline
 62
7
  6
CONTINUOUS
 90
7
 70
0
 10
-1.1463391338
 20
-23.6727583094
 10
-1.1396031222
 20
-23.6701177928
 10
-1.1327936099
 20
-23.6672908884
 10
-1.1258977962
 20
-23.6643837319
 10
-1.1189284819
 20
-23.6612901877
 10
-1.1119046682
 20
-23.6579003769
 10
-1.1048208775
 20
-23.6542344953
  0
LWPOLYLINE
  5
474
100
AcDbEntity
  8
RACCORDO
100
AcDbPolyline
 62
7
  6
CONTINUOUS
 90
12
 70
0
 10
36.4436086507
 20
-5.7603202588
 10
36.470780972
 20
-5.7898590782
 10
36.4969834995
 20
-5.8211810583
 10
36.522203152
 20
-5.8542719376
 10
36.5461260335
 20
-5.8887634543
 10
36.568754045
 20
-5.9246674473
 10
36.5900852855
 20
-5.9619720777
 10
36.6098001556
 20
-6.0002735676
 10
36.627910387
 20
-6.0396279837
 10
36.6444042481
 20
-6.0799792594
 10
36.6589269444
 20
-6.1207554172
 10
36.6714606265
 20
-6.1619924895
  0
LWPOLYLINE
  5
475
100
AcDbEntity
  8
RACCORDO
100
AcDbPolyline
 62
7
  6
CONTINUOUS
 90
11
 70
0
 10
30.1085762659
 20
-36.9787826106
 10
30.1056865207
 20
-36.9505017002
 10
30.100917517
 20
-36.9237954293
 10
30.0942227886
 20
-36.8985354368
 10
30.0856488017
 20
-36.8748500837
 10
30.0753349546
 20
-36.853124453
 10
30.0632528059
 20
-36.83339058
 10
30.0494307969
 20
-36.8156164295
 10
30.0340936497
 20
-36.8000909785
 10
30.0172165965
 20
-36.7868509862
 10
30.0060225736
 20
-36.7797888045
  0
LINE
  5
476
100
AcDbEntity
  8
RACCORDO
100
AcDbLine
 62
7
  6
CONTINUOUS
 10
30.1095867526
 20
-37.0086381603
 11
30.1085762659
 21
-36.9787826106
  0
LINE
  5
477
100
AcDbEntity
  8
0
100
AcDbLine
 62
7
  6
CONTINUOUS
 10
29.3661571548
 20
-36.3898735325
 11
29.3666689098
 21
-36.4055395616
  0
LINE
  5
478
100
AcDbEntity
  8
0
100
AcDbLine
 62
7
  6
CONTINUOUS
 10
28.8355946461
 20
-35.2016637274
 11
28.8355946461
 21
-35.5170125817
  0
LINE
  5
479
100
AcDbEntity
  8
RACCORDO
100
AcDbLine
 62
7
  6
CONTINUOUS
 10
29.0489265808
 20
-36.0146814689
 11
29.0489265808
 21
-36.476427965
  0
LINE
  5
47A
100
AcDbEntity
  8
RACCORDO
100
AcDbLine
 62
7
  6
CONTINUOUS
 10
30.1095867526
 20
-37.0351479468
 11
30.1095867526
 21
-37.0086381603
  0
LWPOLYLINE
  5
47B
100
AcDbEntity
  8
0
100
AcDbPolyline
 62
7
  6
CONTINUOUS
 90
12
 70
0
 10
28.8355946461
 20
-35.2016641696
 10
28.8353762057
 20
-35.2101964265
 10
28.8329129924
 20
-35.231523439
 10
28.8277196091
 20
-35.2526997527
 10
28.8198235923
 20
-35.2735996433
 10
28.8092774863
 20
-35.2940900386
 10
28.7961414019
 20
-35.3140641563
 10
28.7804949445
 20
-35.3334089785
 10
28.7624597731
 20
-35.3519910352
 10
28.7421620343
 20
-35.3697052638
 10
28.7197183529
 20
-35.3864718979
 10
28.6952645463
 20
-35.4022072459
  0
LINE
  5
47C
100
AcDbEntity
  8
ASSI
100
AcDbLine
 62
7
  6
CONTINUOUS
 10
20.697838339
 20
-29.8269519157
 11
20.7650856483
 21
-29.5759933784
  0
LINE
  5
47D
100
AcDbEntity
  8
RACCORDO
100
AcDbLine
 62
7
  6
CONTINUOUS
 10
10.5678282063
 20
-25.0654908489
 11
10.0163324615
 21
-25.4065440901
  0
LINE
  5
47E
100
AcDbEntity
  8
RACCORDO
100
AcDbLine
 62
7
  6
CONTINUOUS
 10
10.8265001894
 20
-25.0849835271
 11
10.2706888403
 21
-25.4287056027
  0
LINE
  5
47F
100
AcDbEntity
  8
RACCORDO
100
AcDbLine
 62
7
  6
CONTINUOUS
 10
10.567834023
 20
-25.0654872373
 11
10.5723090934
 21
-25.0628124177
  0
LINE
  5
480
100
AcDbEntity
  8
DRAFT
100
AcDbLine
 62
7
  6
CONTINUOUS
 10
14.1354863059
 20
-27.8655944596
 11
14.320123121
 21
-27.755199697
  0
LINE
  5
481
100
AcDbEntity
  8
RACCORDO
100
AcDbLine
 62
7
  6
CONTINUOUS
 10
8.7167322257
 20
-25.0299509661
 11
9.6520164144
 21
-24.489931388
  0
LINE
  5
482
100
AcDbEntity
  8
RACCORDO
100
AcDbLine
 62
7
  6
CONTINUOUS
 10
9.3947079007
 20
-25.1283284243
 11
9.8641161401
 21
-24.8572988886
  0
LINE
  5
483
100
AcDbEntity
  8
RACCORDO
100
AcDbLine
 62
7
  6
CONTINUOUS
 10
10.9239772627
 20
-24.859762927
 11
10.5723091547
 21
-25.0628123823
  0
LINE
  5
484
100
AcDbEntity
  8
0
100
AcDbLine
 62
7
  6
CONTINUOUS
 10
11.1801603441
 20
-24.8810326332
 11
10.8267155974
 21
-25.0851079009
  0
LINE
  5
485
100
AcDbEntity
  8
0
100
AcDbLine
 62
7
  6
CONTINUOUS
 10
12.4318624269
 20
-25.6037497283
 11
12.0784176802
 21
-25.807824996
  0
LINE
  5
486
100
AcDbEntity
  8
RACCORDO
100
AcDbLine
 62
7
  6
CONTINUOUS
 10
12.2099649607
 20
-26.5484193298
 11
12.7855244614
 21
-26.2160995894
  0
LINE
  5
487
100
AcDbEntity
  8
RACCORDO
100
AcDbLine
 62
7
  6
CONTINUOUS
 10
12.739057214
 20
-27.0593138033
 11
13.1390240041
 21
-26.8283787571
  0
LINE
  5
488
100
AcDbEntity
  8
RACCORDO
100
AcDbLine
 62
7
  6
CONTINUOUS
 10
13.7643163954
 20
-27.6512856051
 11
13.9788036813
 21
-27.5274429091
  0
LINE
  5
489
100
AcDbEntity
  8
0
100
AcDbLine
 62
7
  6
CONTINUOUS
 10
10.9239772627
 20
-24.859762927
 11
10.9338379375
 21
-24.854474442
  0
LWPOLYLINE
  5
48A
100
AcDbEntity
  8
0
100
AcDbPolyline
 62
7
  6
CONTINUOUS
 90
6
 70
0
 10
10.9239772627
 20
-24.859762927
 10
10.9559941075
 20
-24.8427930128
 10
10.9894631532
 20
-24.8280642768
 10
11.0241919363
 20
-24.8157352185
 10
11.0599538628
 20
-24.8059461786
 10
11.0965304134
 20
-24.7988047098
  0
LINE
  5
48B
100
AcDbEntity
  8
ASSI
100
AcDbLine
 62
7
  6
CONTINUOUS
 10
16.9853443824
 20
-26.436142897
 11
14.3807680118
 21
-27.7902152969
  0
LINE
  5
48C
100
AcDbEntity
  8
DRAFT
100
AcDbLine
 62
7
  6
CONTINUOUS
 10
9.3560027248
 20
-25.1059805408
 11
8.8137745986
 21
-25.3862442295
  0
LWPOLYLINE
  5
48D
100
AcDbEntity
  8
RACCORDO
100
AcDbPolyline
 62
7
  6
CONTINUOUS
 90
3
 70
0
 10
10.5723090934
 20
-25.0628124177
 10
10.5894539803
 20
-25.0541443677
 10
10.6076507045
 20
-25.0473371668
  0
LWPOLYLINE
  5
48E
100
AcDbEntity
  8
0
100
AcDbPolyline
 62
7
  6
CONTINUOUS
 90
11
 70
0
 10
10.9338379375
 20
-24.854474442
 10
10.9545276052
 20
-24.8457583883
 10
10.9764450714
 20
-24.8395431644
 10
10.9994677171
 20
-24.8358635419
 10
11.0234667406
 20
-24.8347401065
 10
11.0483078774
 20
-24.8361791435
 10
11.0738521521
 20
-24.8401726021
 10
11.0999566552
 20
-24.8466981406
 10
11.1264753433
 20
-24.8557192513
 10
11.1532598556
 20
-24.867185465
 10
11.1801603441
 20
-24.8810326332
  0
LINE
  5
48F
100
AcDbEntity
  8
SMUSSO
100
AcDbLine
 62
7
  6
CONTINUOUS
 10
53.7976639223
 20
3.7049828482
 11
-60.0465278487
 21
69.437192374
  0
LINE
  5
490
100
AcDbEntity
  8
SMUSSO
100
AcDbLine
 62
7
  6
CONTINUOUS
 10
54.5047707035
 20
4.9297277183
 11
-59.3394210675
 21
70.6619372441
  0
LWPOLYLINE
  5
491
100
AcDbEntity
  8
RACCORDO
100
AcDbPolyline
 62
7
  6
CONTINUOUS
 90
9
 70
0
 10
36.2960250969
 20
-5.642739906
 10
36.2971235821
 20
-5.6670003226
 10
36.3004076434
 20
-5.6897409801
 10
36.3058432662
 20
-5.7107263663
 10
36.3133741537
 20
-5.7297391473
 10
36.3229223093
 20
-5.7465824202
 10
36.3343888459
 20
-5.7610817513
 10
36.3476550078
 20
-5.7730869806
 10
36.3581499111
 20
-5.7800609805
  0
LINE
  5
492
100
AcDbEntity
  8
RACCORDO
100
AcDbLine
 62
7
  6
CONTINUOUS
 10
36.6136286424
 20
-43.7665138753
 11
36.6133801667
 21
-43.7596913555
  0
LINE
  5
493
100
AcDbEntity
  8
RACCORDO
100
AcDbLine
 62
7
  6
CONTINUOUS
 10
36.613379903
 20
-6.2445878812
 11
36.613379903
 21
-43.7594616652
  0
LINE
  5
494
100
AcDbEntity
  8
RACCORDO
100
AcDbLine
 62
7
  6
CONTINUOUS
 10
36.7012478686
 20
-6.3670702592
 11
36.7012478686
 21
-43.8819440362
  0
LINE
  5
495
100
AcDbEntity
  8
RACCORDO
100
AcDbLine
 62
7
  6
CONTINUOUS
 10
38.3536986811
 20
-46.9467719292
 11
38.3536986811
 21
-5.2104511443
  0
LWPOLYLINE
  5
496
100
AcDbEntity
  8
RACCORDO
100
AcDbPolyline
 62
7
  6
CONTINUOUS
 90
5
 70
0
 10
36.6133802151
 20
-43.7596913555
 10
36.6132276694
 20
-43.7692758865
 10
36.6123886778
 20
-43.7836439219
 10
36.6109421068
 20
-43.7960116884
 10
36.6094983076
 20
-43.8041639231
  0
LWPOLYLINE
  5
497
100
AcDbEntity
  8
RACCORDO
100
AcDbPolyline
 62
7
  6
CONTINUOUS
 90
22
 70
0
 10
36.7012478686
 20
-43.8819440362
 10
36.6998685408
 20
-43.9208390406
 10
36.6962150509
 20
-43.9573480864
 10
36.6902873989
 20
-43.9914711738
 10
36.681985316
 20
-44.0233136365
 10
36.671409071
 20
-44.0527701407
 10
36.6588594706
 20
-44.0795246848
 10
36.6443190335
 20
-44.1035269181
 10
36.6278052409
 20
-44.1248271914
 10
36.609671343
 20
-44.1432605552
 10
36.5899238508
 20
-44.1587839811
 10
36.5685562533
 20
-44.1714404976
 10
36.5459022673
 20
-44.1811942412
 10
36.5219709634
 20
-44.1880326003
 10
36.4967532709
 20
-44.1919681865
 10
36.470555695
 20
-44.1930029704
 10
36.4433833893
 20
-44.1911363302
 10
36.4152312002
 20
-44.1863688878
 10
36.3863901719
 20
-44.1787044789
 10
36.3569573194
 20
-44.1681443823
 10
36.3268356277
 20
-44.1546873192
 10
36.2960250969
 20
-44.1383332898
  0
LWPOLYLINE
  5
498
100
AcDbEntity
  8
RACCORDO
100
AcDbPolyline
 62
7
  6
CONTINUOUS
 90
13
 70
0
 10
36.2960250969
 20
-44.1383332898
 10
36.2971235699
 20
-44.1128044391
 10
36.3004076128
 20
-44.0862714889
 10
36.3058432143
 20
-44.0590092277
 10
36.3133740805
 20
-44.0312999972
 10
36.322922218
 20
-44.0034307683
 10
36.3343887416
 20
-43.9756901686
 10
36.3476548981
 20
-43.9483654938
 10
36.3625832965
 20
-43.921739732
 10
36.3790193308
 20
-43.8960886329
 10
36.3967927812
 20
-43.8716778522
 10
36.4157195769
 20
-43.8487602004
 10
36.4356037024
 20
-43.827573024
  0
LINE
  5
499
100
AcDbEntity
  8
ASSI
100
AcDbLine
 62
7
  6
CONTINUOUS
 10
21.2428082279
 20
-28.8943491629
 11
19.4335143574
 21
-30.0545656364
  0
LWPOLYLINE
  5
49A
100
AcDbEntity
  8
ASSI
100
AcDbPolyline
 62
7
  6
CONTINUOUS
 90
8
 70
0
 10
20.6431510951
 20
-29.9049318855
 10
20.6498438604
 20
-29.9006809599
 10
20.6606394966
 20
-29.8920335617
 10
20.670473888
 20
-29.881773478
 10
20.6791324285
 20
-29.8701139476
 10
20.6865435829
 20
-29.8571260502
 10
20.6927788864
 20
-29.8427387063
 10
20.697838339
 20
-29.8269519157
  0
LINE
  5
49B
100
AcDbEntity
  8
RACCORDO
100
AcDbLine
 62
7
  6
CONTINUOUS
 10
17.8343612458
 20
-29.2559353445
 11
17.2785498966
 21
-29.5996574201
  0
LINE
  5
49C
100
AcDbEntity
  8
RACCORDO
100
AcDbLine
 62
7
  6
CONTINUOUS
 10
18.0887176245
 20
-29.2780968571
 11
17.5329062754
 21
-29.6218189328
  0
LINE
  5
49D
100
AcDbEntity
  8
RACCORDO
100
AcDbLine
 62
7
  6
CONTINUOUS
 10
20.9282111035
 20
-31.075460629
 11
20.0250176611
 21
-31.634009002
  0
LINE
  5
49E
100
AcDbEntity
  8
RACCORDO
100
AcDbLine
 62
7
  6
CONTINUOUS
 10
21.0808043153
 20
-31.0887702855
 11
20.1776108729
 21
-31.6473186585
  0
LINE
  5
49F
100
AcDbEntity
  8
ASSI
100
AcDbLine
 62
7
  6
CONTINUOUS
 10
21.297147612
 20
-28.8627714569
 11
21.2994757674
 21
-28.8614026591
  0
LINE
  5
4A0
100
AcDbEntity
  8
ASSI
100
AcDbLine
 62
7
  6
CONTINUOUS
 10
21.2498217578
 20
-29.2912500671
 11
19.6941741931
 21
-30.2050673587
  0
LINE
  5
4A1
100
AcDbEntity
  8
ASSI
100
AcDbLine
 62
7
  6
CONTINUOUS
 10
21.2498217578
 20
-28.8900754994
 11
21.257897948
 21
-28.8853695213
  0
LINE
  5
4A2
100
AcDbEntity
  8
ASSI
100
AcDbLine
 62
7
  6
CONTINUOUS
 10
20.6431267647
 20
-29.904943969
 11
19.9105630579
 21
-30.3300075772
  0
LINE
  5
4A3
100
AcDbEntity
  8
ASSI
100
AcDbLine
 62
7
  6
CONTINUOUS
 10
20.697838339
 20
-29.8269519157
 11
19.8703415788
 21
-30.3067841993
  0
LINE
  5
4A4
100
AcDbEntity
  8
RACCORDO
100
AcDbLine
 62
7
  6
CONTINUOUS
 10
19.6135822128
 20
-30.823175142
 11
20.1891417136
 21
-30.4908554017
  0
LINE
  5
4A5
100
AcDbEntity
  8
RACCORDO
100
AcDbLine
 62
7
  6
CONTINUOUS
 10
19.8598882622
 20
-31.1707924056
 11
20.4012414392
 21
-30.8582229023
  0
LINE
  5
4A6
100
AcDbEntity
  8
ASSI
100
AcDbLine
 62
7
  6
CONTINUOUS
 10
21.257897948
 20
-28.8853695213
 11
21.297147612
 21
-28.8627714569
  0
LINE
  5
4A7
100
AcDbEntity
  8
ASSI
100
AcDbLine
 62
7
  6
CONTINUOUS
 10
21.3008227408
 20
-28.8606148707
 11
21.301192757
 21
-28.8604168818
  0
LINE
  5
4A8
100
AcDbEntity
  8
DRAFT
100
AcDbLine
 62
7
  6
CONTINUOUS
 10
19.9626044426
 20
-31.2300994408
 11
19.4203763164
 21
-31.5103631294
  0
LWPOLYLINE
  5
4A9
100
AcDbEntity
  8
RACCORDO
100
AcDbPolyline
 62
7
  6
CONTINUOUS
 90
7
 70
0
 10
-43.5046628809
 20
40.327921994
 10
-43.5062330236
 20
40.3280921983
 10
-43.5055485559
 20
40.3279457471
 10
-43.5027287603
 20
40.3271768174
 10
-43.4979409316
 20
40.3255406761
 10
-43.4912816613
 20
40.3228140236
 10
-43.4829131407
 20
40.3188274331
  0
LWPOLYLINE
  5
4AA
100
AcDbEntity
  8
SMUSSO
100
AcDbPolyline
 62
7
  6
CONTINUOUS
 90
6
 70
0
 10
-56.7584813162
 20
71.2539788048
 10
-56.8050476602
 20
71.279056862
 10
-56.8510273367
 20
71.3003763513
 10
-56.8964203456
 20
71.3179372725
 10
-56.9414163408
 20
71.3317829829
 10
-56.9785649291
 20
71.3402209198
  0
LWPOLYLINE
  5
4AB
100
AcDbEntity
  8
SMUSSO
100
AcDbPolyline
 62
7
  6
CONTINUOUS
 90
15
 70
0
 10
-59.3394210675
 20
70.6619372441
 10
-59.380529676
 20
70.6842984232
 10
-59.4215015598
 20
70.7038198915
 10
-59.4621980706
 20
70.7204356017
 10
-59.5024827663
 20
70.7340886028
 10
-59.5422180786
 20
70.7447334235
 10
-59.5812657741
 20
70.7523362288
 10
-59.6194918813
 20
70.7568723592
 10
-59.6567689139
 20
70.7583253928
 10
-59.692972511
 20
70.7566893892
 10
-59.7279809239
 20
70.7519694497
 10
-59.7616749404
 20
70.7441819807
 10
-59.7939400634
 20
70.7333536139
 10
-59.8246669467
 20
70.7195210879
 10
-59.8394450683
 20
70.7114785138
  0
LINE
  5
4AC
100
AcDbEntity
  8
SMUSSO
100
AcDbLine
 62
7
  6
CONTINUOUS
 10
-57.5716541145
 20
71.6826237274
 11
56.6260910471
 21
5.7463163599
  0
LINE
  5
4AD
100
AcDbEntity
  8
SMUSSO
100
AcDbLine
 62
7
  6
CONTINUOUS
 10
56.3078929956
 20
5.9708713317
 11
-56.7584813162
 21
71.2539788048
  0
LINE
  5
4AE
100
AcDbEntity
  8
DRAFT
100
AcDbLine
 62
7
  6
CONTINUOUS
 10
56.6243888901
 20
6.519058302
 11
-56.4419854216
 21
71.802165775
  0
LINE
  5
4AF
100
AcDbEntity
  8
DRAFT
100
AcDbLine
 62
7
  6
CONTINUOUS
 10
59.4545181718
 20
7.3794581336
 11
-54.3189629211
 21
73.0707612902
  0
LINE
  5
4B0
100
AcDbEntity
  8
SMUSSO
100
AcDbLine
 62
7
  6
CONTINUOUS
 10
58.7474455607
 20
7.7877129976
 11
59.4545181718
 21
7.3794581336
  0
LINE
  5
4B1
100
AcDbEntity
  8
DRAFT
100
AcDbLine
 62
7
  6
CONTINUOUS
 10
-54.3190654263
 20
73.0708204697
 11
-54.318962922
 21
73.0707612908
  0
LWPOLYLINE
  5
4B2
100
AcDbEntity
  8
SMUSSO
100
AcDbPolyline
 62
7
  6
CONTINUOUS
 90
31
 70
0
 10
59.4545181718
 20
7.3794581336
 10
59.4730556613
 20
7.3681884199
 10
59.4914562872
 20
7.3558943242
 10
59.5097200497
 20
7.3425758464
 10
59.527900683
 20
7.3281888238
 10
59.5459444529
 20
7.3127774191
 10
59.5636901561
 20
7.2964741207
 10
59.5811309844
 20
7.2792735914
 10
59.5982737459
 20
7.2611811683
 10
59.6149776621
 20
7.2423453519
 10
59.6312392216
 20
7.2227599991
 10
59.6470619357
 20
7.2024312531
 10
59.6623155597
 20
7.1815260426
 10
59.6769954791
 20
7.1600392674
 10
59.6911063086
 20
7.1379760279
 10
59.7045316465
 20
7.115518554
 10
59.7172654912
 20
7.0926640788
 10
59.7293138445
 20
7.0694153691
 10
59.7405783096
 20
7.045962956
 10
59.7510523889
 20
7.0223052923
 10
59.7607425801
 20
6.9984439251
 10
59.7695699795
 20
6.9745740271
 10
59.7775277412
 20
6.9506953161
 10
59.7846227111
 20
6.9268080743
 10
59.7907965233
 20
6.9031083202
 10
59.7960410851
 20
6.8795930001
 10
59.8003644892
 20
6.8562651678
 10
59.8037326478
 20
6.8333300035
 10
59.8061341982
 20
6.8108559006
 10
59.8075805031
 20
6.7887744656
 10
59.8080715624
 20
6.7670856986
  0
LWPOLYLINE
  5
4B3
100
AcDbEntity
  8
DRAFT
100
AcDbPolyline
 62
7
  6
CONTINUOUS
 90
28
 70
0
 10
56.6243888901
 20
6.519058302
 10
56.6839060924
 20
6.4826941997
 10
56.7432219073
 20
6.4424539108
 10
56.802135629
 20
6.3984735957
 10
56.8604479121
 20
6.3509020697
 10
56.9179614462
 20
6.2999002998
 10
56.9744816237
 20
6.2456408601
 10
57.0298171982
 20
6.1883073471
 10
57.0837809317
 20
6.1280937594
 10
57.1361902279
 20
6.0652038408
 10
57.1868677504
 20
5.9998503907
 10
57.2356420224
 20
5.9322545446
 10
57.2823480074
 20
5.8626450254
 10
57.326827667
 20
5.7912573696
 10
57.3689304961
 20
5.7183331306
 10
57.4085140321
 20
5.6441190609
 10
57.4454443368
 20
5.5688662773
 10
57.4795964498
 20
5.4928294116
 10
57.5108548111
 20
5.4162657482
 10
57.5391136524
 20
5.3394343546
 10
57.5642773546
 20
5.2625952037
 10
57.5862607717
 20
5.186008295
 10
57.6049895189
 20
5.1099327743
 10
57.620400224
 20
5.0346260571
 10
57.6324407419
 20
4.9603429574
 10
57.6410703316
 20
4.8873348257
 10
57.646259793
 20
4.8158486985
 10
57.6479915668
 20
4.7461264621
  0
LWPOLYLINE
  5
4B4
100
AcDbEntity
  8
DRAFT
100
AcDbPolyline
 62
7
  6
CONTINUOUS
 90
28
 70
0
 10
58.7474113895
 20
7.7876538178
 10
58.8090832942
 20
7.7499732252
 10
58.8705465206
 20
7.7082761164
 10
58.9315930966
 20
7.6627035813
 10
58.9920164598
 20
7.6134098228
 10
59.0516121567
 20
7.5605616355
 10
59.1101785346
 20
7.5043378409
 10
59.1675174233
 20
7.4449286823
 10
59.2234348062
 20
7.3825351816
 10
59.2777414765
 20
7.3173684587
 10
59.3302536777
 20
7.2496490171
 10
59.380793725
 20
7.1796059981
 10
59.4291906071
 20
7.1074764049
 10
59.4752805641
 20
7.0335043013
 10
59.5189076422
 20
6.9579399855
 10
59.5599242212
 20
6.8810391432
 10
59.598191514
 20
6.8030619826
 10
59.6335800361
 20
6.7242723536
 10
59.6659700441
 20
6.6449368554
 10
59.6952519404
 20
6.5653239342
 10
59.7213266442
 20
6.485702975
 10
59.7441059272
 20
6.4063433899
 10
59.7635127113
 20
6.3275137065
 10
59.7794813302
 20
6.2494806596
 10
59.7919577511
 20
6.1725082884
 10
59.8008997577
 20
6.0968570431
 10
59.8062770933
 20
6.0227829035
 10
59.8080715624
 20
5.950536513
  0
LWPOLYLINE
  5
4B5
100
AcDbEntity
  8
SMUSSO
100
AcDbPolyline
 62
7
  6
CONTINUOUS
 90
25
 70
0
 10
56.2725376565
 20
5.9504142016
 10
56.3187791631
 20
5.9219672252
 10
56.3648239201
 20
5.8901457265
 10
56.4104747697
 20
5.8550856821
 10
56.455536348
 20
5.8169368352
 10
56.4998155167
 20
5.7758623938
 10
56.5431222166
 20
5.7320384204
 10
56.5852709398
 20
5.6856524427
 10
56.6260811273
 20
5.6369029697
 10
56.6653775981
 20
5.5859991059
 10
56.7029920203
 20
5.5331587955
 10
56.7387632555
 20
5.4786082899
 10
56.7725377641
 20
5.4225816743
 10
56.8041708952
 20
5.3653189029
 10
56.8335271759
 20
5.3070652116
 10
56.8604806618
 20
5.2480705909
 10
56.8849159958
 20
5.1885876779
 10
56.9067285809
 20
5.1288712564
 10
56.9258248917
 20
5.069177674
 10
56.9421232902
 20
5.0097626124
 10
56.955554163
 20
4.9508804158
 10
56.9660600965
 20
4.8927835956
 10
56.9735963202
 20
4.8357209763
 10
56.9781308274
 20
4.7799366468
 10
56.9796444377
 20
4.7256693315
  0
LINE
  5
4B6
100
AcDbEntity
  8
SMUSSO
100
AcDbLine
 62
7
  6
CONTINUOUS
 10
56.3544593146
 20
5.9421757597
 11
56.3078929956
 21
5.9708713317
  0
LWPOLYLINE
  5
4B7
100
AcDbEntity
  8
SMUSSO
100
AcDbPolyline
 62
7
  6
CONTINUOUS
 90
22
 70
0
 10
56.6260910471
 20
5.7463163599
 10
56.6527496826
 20
5.7297308616
 10
56.67897177
 20
5.7111793825
 10
56.7047573092
 20
5.6906619226
 10
56.7302459137
 20
5.6680416303
 10
56.7552979701
 20
5.6434553572
 10
56.7794946382
 20
5.6173136575
 10
56.8028210339
 20
5.5895904797
 10
56.8252920414
 20
5.5603118753
 10
56.8465334729
 20
5.5299665536
 10
56.8665236384
 20
5.4985389443
 10
56.8852842279
 20
5.4660446177
 10
56.9025061243
 20
5.4330189937
 10
56.9181649911
 20
5.3994511032
 10
56.9322851646
 20
5.3653519153
 10
56.9446305369
 20
5.3312897578
 10
56.9551711196
 20
5.2972647098
 10
56.963936901
 20
5.2632766922
 10
56.9707817379
 20
5.2298937959
 10
56.9756569157
 20
5.1973053843
 10
56.978611149
 20
5.165322094
 10
56.9796444377
 20
5.1339439248
  0
LWPOLYLINE
  5
4B8
100
AcDbEntity
  8
RACCORDO
100
AcDbPolyline
 62
7
  6
CONTINUOUS
 90
6
 70
0
 10
36.6714606265
 20
-6.1619924895
 10
36.6820231439
 20
-6.2036544439
 10
36.6903132513
 20
-6.2450612055
 10
36.6962305337
 20
-6.2859860828
 10
36.6998754061
 20
-6.3266557674
 10
36.7012478686
 20
-6.3670702592
  0
LWPOLYLINE
  5
4B9
100
AcDbEntity
  8
RACCORDO
100
AcDbPolyline
 62
7
  6
CONTINUOUS
 90
25
 70
0
 10
38.7742282266
 20
-5.2125701019
 10
38.7729323497
 20
-5.1747155969
 10
38.7695366309
 20
-5.1357925956
 10
38.7640569083
 20
-5.0959670097
 10
38.7565187587
 20
-5.0554081607
 10
38.7469546149
 20
-5.0142895846
 10
38.7354036112
 20
-4.9727882884
 10
38.72191571
 20
-4.9310816476
 10
38.7065497064
 20
-4.8893475862
 10
38.6893701819
 20
-4.8477653441
 10
38.6704507501
 20
-4.8065128827
 10
38.6498731226
 20
-4.7657663501
 10
38.6277249497
 20
-4.7257002666
 10
38.6041007422
 20
-4.6864863576
 10
38.5791019179
 20
-4.6482922355
 10
38.5528357046
 20
-4.6112809342
 10
38.5254137103
 20
-4.5756112004
 10
38.4969533143
 20
-4.5414358887
 10
38.4675775983
 20
-4.5089007272
 10
38.4374113271
 20
-4.4781456521
 10
38.4065830777
 20
-4.4493025352
 10
38.3752265359
 20
-4.4224937222
 10
38.3434757594
 20
-4.3978340524
 10
38.3114646143
 20
-4.375430345
 10
38.2793288668
 20
-4.355379267
  0
LINE
  5
4BA
100
AcDbEntity
  8
RACCORDO
100
AcDbLine
 62
7
  6
CONTINUOUS
 10
38.7742282266
 20
-46.9488908868
 11
38.7742282266
 21
-5.2125701019
  0
LINE
  5
4BB
100
AcDbEntity
  8
RACCORDO
100
AcDbLine
 62
7
  6
CONTINUOUS
 10
39.0657748139
 20
-46.792106567
 11
39.0657748139
 21
-5.0442353145
  0
LWPOLYLINE
  5
4BC
100
AcDbEntity
  8
RACCORDO
100
AcDbPolyline
 62
7
  6
CONTINUOUS
 90
25
 70
0
 10
38.3536986811
 20
-46.9467719292
 10
38.3530844895
 20
-46.9678343741
 10
38.351284529
 20
-46.9879662769
 10
38.3482987993
 20
-47.0071676377
 10
38.3441047197
 20
-47.0255205352
 10
38.3387248711
 20
-47.0429428908
 10
38.3322269962
 20
-47.0591884679
 10
38.3245972669
 20
-47.0742347116
 10
38.3158495114
 20
-47.088104177
 10
38.3060929576
 20
-47.1006182931
 10
38.2953136747
 20
-47.111760192
 10
38.2835255935
 20
-47.1215467417
 10
38.2708797345
 20
-47.1298499747
 10
38.2573636451
 20
-47.1366501321
 10
38.2429897779
 20
-47.1419669728
 10
38.227946511
 20
-47.1457318069
 10
38.2122267887
 20
-47.1479234251
 10
38.1958376667
 20
-47.1485630367
 10
38.1789886907
 20
-47.1476455797
 10
38.1616666703
 20
-47.1451474015
 10
38.143884796
 20
-47.1410921547
 10
38.1258921848
 20
-47.135545735
 10
38.1077718757
 20
-47.1285301077
 10
38.0894408298
 20
-47.1200233075
 10
38.0708990469
 20
-47.1100253345
  0
LINE
  5
4BD
100
AcDbEntity
  8
SMUSSO
100
AcDbLine
 62
7
  6
CONTINUOUS
 10
53.7976639223
 20
3.7049828482
 11
54.5047707035
 21
4.9297277183
  0
LINE
  5
4BE
100
AcDbEntity
  8
RACCORDO
100
AcDbLine
 62
7
  6
CONTINUOUS
 10
26.477730783
 20
-34.2516691988
 11
25.9262350382
 21
-34.5927224399
  0
LINE
  5
4BF
100
AcDbEntity
  8
RACCORDO
100
AcDbLine
 62
7
  6
CONTINUOUS
 10
26.7364027661
 20
-34.2711618769
 11
26.180591417
 21
-34.6148839526
  0
LINE
  5
4C0
100
AcDbEntity
  8
RACCORDO
100
AcDbLine
 62
7
  6
CONTINUOUS
 10
26.4777365997
 20
-34.2516655871
 11
26.48221167
 21
-34.2489907676
  0
LINE
  5
4C1
100
AcDbEntity
  8
RACCORDO
100
AcDbLine
 62
7
  6
CONTINUOUS
 10
24.6266348024
 20
-34.216129316
 11
25.5619189911
 21
-33.6761097378
  0
LINE
  5
4C2
100
AcDbEntity
  8
RACCORDO
100
AcDbLine
 62
7
  6
CONTINUOUS
 10
25.3046104774
 20
-34.3145067742
 11
25.7740187168
 21
-34.0434772385
  0
LINE
  5
4C3
100
AcDbEntity
  8
RACCORDO
100
AcDbLine
 62
7
  6
CONTINUOUS
 10
26.8338798394
 20
-34.0459412768
 11
26.4822117314
 21
-34.2489907322
  0
LINE
  5
4C4
100
AcDbEntity
  8
0
100
AcDbLine
 62
7
  6
CONTINUOUS
 10
27.0900629208
 20
-34.0672109831
 11
26.7366181741
 21
-34.2712862508
  0
LINE
  5
4C5
100
AcDbEntity
  8
0
100
AcDbLine
 62
7
  6
CONTINUOUS
 10
28.3417650036
 20
-34.7899280782
 11
27.9883202569
 21
-34.9940033459
  0
LINE
  5
4C6
100
AcDbEntity
  8
0
100
AcDbLine
 62
7
  6
CONTINUOUS
 10
26.8338798394
 20
-34.0459412768
 11
26.8437405142
 21
-34.0406527919
  0
LWPOLYLINE
  5
4C7
100
AcDbEntity
  8
0
100
AcDbPolyline
 62
7
  6
CONTINUOUS
 90
6
 70
0
 10
26.8338798394
 20
-34.0459412768
 10
26.8658966842
 20
-34.0289713627
 10
26.8993657299
 20
-34.0142426267
 10
26.934094513
 20
-34.0019135684
 10
26.9698564395
 20
-33.9921245285
 10
27.0064329901
 20
-33.9849830597
  0
LINE
  5
4C8
100
AcDbEntity
  8
DRAFT
100
AcDbLine
 62
7
  6
CONTINUOUS
 10
25.2659053015
 20
-34.2921588907
 11
24.7236771753
 21
-34.5724225793
  0
LWPOLYLINE
  5
4C9
100
AcDbEntity
  8
RACCORDO
100
AcDbPolyline
 62
7
  6
CONTINUOUS
 90
3
 70
0
 10
26.48221167
 20
-34.2489907676
 10
26.499356557
 20
-34.2403227176
 10
26.5175532812
 20
-34.2335155167
  0
LWPOLYLINE
  5
4CA
100
AcDbEntity
  8
0
100
AcDbPolyline
 62
7
  6
CONTINUOUS
 90
11
 70
0
 10
29.0489265808
 20
-36.1971424714
 10
29.0717272984
 20
-36.1873734564
 10
29.097323443
 20
-36.1786533264
 10
29.1224687979
 20
-36.172362444
 10
29.1470246502
 20
-36.1685370378
 10
29.170853664
 20
-36.1671994288
 10
29.1938253608
 20
-36.1683577601
 10
29.215813619
 20
-36.1720067677
 10
29.2366951584
 20
-36.1781265062
 10
29.2563547545
 20
-36.1866828439
 10
29.2635828537
 20
-36.1906216074
  0
LWPOLYLINE
  5
4CB
100
AcDbEntity
  8
0
100
AcDbPolyline
 62
7
  6
CONTINUOUS
 90
11
 70
0
 10
26.8437405142
 20
-34.0406527919
 10
26.8644301819
 20
-34.0319367382
 10
26.8863476481
 20
-34.0257215143
 10
26.9093702938
 20
-34.0220418917
 10
26.9333693173
 20
-34.0209184564
 10
26.9582104541
 20
-34.0223574934
 10
26.9837547288
 20
-34.026350952
 10
27.0098592319
 20
-34.0328764904
 10
27.03637792
 20
-34.0418976012
 10
27.0631624323
 20
-34.0533638149
 10
27.0900629208
 20
-34.0672109831
  0
LWPOLYLINE
  5
4CC
100
AcDbEntity
  8
0
100
AcDbPolyline
 62
7
  6
CONTINUOUS
 90
4
 70
0
 10
32.9030362731
 20
-35.6184955115
 10
32.9156486679
 20
-35.6138794672
 10
32.9286792625
 20
-35.6108217972
 10
32.9419813131
 20
-35.6093030774
  0
LINE
  5
4CD
100
AcDbEntity
  8
RACCORDO
100
AcDbLine
 62
7
  6
CONTINUOUS
 10
-43.5037157925
 20
40.3274610879
 11
-43.4981644694
 21
40.327865346
  0
LINE
  5
4CE
100
AcDbEntity
  8
RACCORDO
100
AcDbLine
 62
7
  6
CONTINUOUS
 10
-43.2572044031
 20
40.1888467858
 11
-43.5558563234
 21
40.1748030589
  0
LINE
  5
4CF
100
AcDbEntity
  8
RACCORDO
100
AcDbLine
 62
7
  6
CONTINUOUS
 10
-43.4981644694
 20
40.327865346
 11
-43.4981104836
 21
40.3278678692
  0
LWPOLYLINE
  5
4D0
100
AcDbEntity
  8
SMUSSO
100
AcDbPolyline
 62
7
  6
CONTINUOUS
 90
5
 70
0
 10
56.5279766166
 20
5.8029664024
 10
56.4908279447
 20
5.8374267956
 10
56.4458319624
 20
5.8755413163
 10
56.4004389703
 20
5.9103990879
 10
56.3544593146
 20
5.9421757597
  0
LINE
  5
4D1
100
AcDbEntity
  8
RACCORDO
100
AcDbLine
 62
7
  6
CONTINUOUS
 10
36.6094983076
 20
-43.8041639231
 11
36.6091242537
 21
-43.8059037089
  0
LWPOLYLINE
  5
4D2
100
AcDbEntity
  8
RACCORDO
100
AcDbPolyline
 62
7
  6
CONTINUOUS
 90
3
 70
0
 10
36.6091242537
 20
-43.8059037089
 10
36.6074044427
 20
-43.8125277627
 10
36.606333259
 20
-43.8156795805
  0
LINE
  5
4D3
100
AcDbEntity
  8
RACCORDO
100
AcDbLine
 62
7
  6
CONTINUOUS
 10
36.606333259
 20
-43.8156795805
 11
36.606237749
 21
-43.8159230675
  0
LINE
  5
4D4
100
AcDbEntity
  8
0
100
AcDbLine
 62
7
  6
CONTINUOUS
 10
30.3338303475
 20
-37.2183152963
 11
30.357074126
 21
-37.1780558909
  0
LINE
  5
4D5
100
AcDbEntity
  8
0
100
AcDbLine
 62
7
  6
CONTINUOUS
 10
30.6045614994
 20
-37.1576303248
 11
30.7106275166
 21
-36.9739185943
  0
LINE
  5
4D6
100
AcDbEntity
  8
0
100
AcDbLine
 62
7
  6
CONTINUOUS
 10
30.95811489
 20
-36.9534930281
 11
31.0641809072
 21
-36.7697812976
  0
LINE
  5
4D7
100
AcDbEntity
  8
0
100
AcDbLine
 62
7
  6
CONTINUOUS
 10
31.3116682806
 20
-36.7493557315
 11
31.4177342978
 21
-36.5656440009
  0
LINE
  5
4D8
100
AcDbEntity
  8
0
100
AcDbLine
 62
7
  6
CONTINUOUS
 10
31.6652216712
 20
-36.5452184348
 11
31.7712876884
 21
-36.3615067043
  0
LINE
  5
4D9
100
AcDbEntity
  8
DRAFT
100
AcDbLine
 62
7
  6
CONTINUOUS
 10
56.3078929956
 20
5.9708713317
 11
56.6243888901
 21
6.519058302
  0
LINE
  5
4DA
100
AcDbEntity
  8
0
100
AcDbLine
 62
7
  6
CONTINUOUS
 10
32.0187750618
 20
-36.3410811381
 11
32.124841079
 21
-36.1573694076
  0
LINE
  5
4DB
100
AcDbEntity
  8
0
100
AcDbLine
 62
7
  6
CONTINUOUS
 10
32.3723284524
 20
-36.1369438415
 11
32.4783944696
 21
-35.953232111
  0
LINE
  5
4DC
100
AcDbEntity
  8
0
100
AcDbLine
 62
7
  6
CONTINUOUS
 10
32.725881843
 20
-35.9328065448
 11
32.8319478602
 21
-35.7490948143
  0
LINE
  5
4DD
100
AcDbEntity
  8
0
100
AcDbLine
 62
7
  6
CONTINUOUS
 10
35.2007555771
 20
-38.9948659948
 11
35.3068215943
 21
-38.8111542642
  0
LINE
  5
4DE
100
AcDbEntity
  8
0
100
AcDbLine
 62
7
  6
CONTINUOUS
 10
35.5543089677
 20
-38.7907286981
 11
35.6603749849
 21
-38.6070169676
  0
LINE
  5
4DF
100
AcDbEntity
  8
0
100
AcDbLine
 62
7
  6
CONTINUOUS
 10
35.9078623583
 20
-38.5865914014
 11
36.0139283755
 21
-38.4028796709
  0
LINE
  5
4E0
100
AcDbEntity
  8
0
100
AcDbLine
 62
7
  6
CONTINUOUS
 10
36.2614157489
 20
-38.3824541048
 11
36.3674817661
 21
-38.1987423743
  0
LINE
  5
4E1
100
AcDbEntity
  8
RACCORDO
100
AcDbLine
 62
7
  6
CONTINUOUS
 10
28.1296877653
 20
-35.7402677562
 11
28.6953731902
 21
-35.4022468481
  0
LINE
  5
4E2
100
AcDbEntity
  8
RACCORDO
100
AcDbLine
 62
7
  6
CONTINUOUS
 10
28.6559273122
 20
-36.2495151127
 11
29.0489265808
 21
-36.0146814689
  0
LINE
  5
4E3
100
AcDbEntity
  8
RACCORDO
100
AcDbLine
 62
7
  6
CONTINUOUS
 10
33.7465003918
 20
-38.4408241453
 11
33.1808149668
 21
-38.7788450533
  0
LINE
  5
4E4
100
AcDbEntity
  8
RACCORDO
100
AcDbLine
 62
7
  6
CONTINUOUS
 10
33.9986740491
 20
-38.4643062981
 11
33.4329886242
 21
-38.8023272061
  0
LINE
  5
4E5
100
AcDbEntity
  8
0
100
AcDbLine
 62
7
  6
CONTINUOUS
 10
30.0630911917
 20
-37.0619939009
 11
30.1095867526
 21
-37.0351479468
  0
LINE
  5
4E6
100
AcDbEntity
  8
0
100
AcDbLine
 62
7
  6
CONTINUOUS
 10
30.1492492323
 20
-37.0580485655
 11
30.2906705885
 21
-36.9763936468
  0
LINE
  5
4E7
100
AcDbEntity
  8
0
100
AcDbLine
 62
7
  6
CONTINUOUS
 10
30.357074126
 20
-37.1780558909
 11
30.4984954822
 21
-37.0964009723
  0
LINE
  5
4E8
100
AcDbEntity
  8
0
100
AcDbLine
 62
7
  6
CONTINUOUS
 10
30.7106275166
 20
-36.9739185943
 11
30.8520488728
 21
-36.8922636756
  0
LINE
  5
4E9
100
AcDbEntity
  8
0
100
AcDbLine
 62
7
  6
CONTINUOUS
 10
31.0641809072
 20
-36.7697812976
 11
31.2056022634
 21
-36.6881263789
  0
LINE
  5
4EA
100
AcDbEntity
  8
0
100
AcDbLine
 62
7
  6
CONTINUOUS
 10
31.4177342978
 20
-36.5656440009
 11
31.559155654
 21
-36.4839890823
  0
LINE
  5
4EB
100
AcDbEntity
  8
0
100
AcDbLine
 62
7
  6
CONTINUOUS
 10
31.7712876884
 20
-36.3615067043
 11
31.9127090446
 21
-36.2798517856
  0
LINE
  5
4EC
100
AcDbEntity
  8
0
100
AcDbLine
 62
7
  6
CONTINUOUS
 10
32.124841079
 20
-36.1573694076
 11
32.2662624352
 21
-36.075714489
  0
LINE
  5
4ED
100
AcDbEntity
  8
0
100
AcDbLine
 62
7
  6
CONTINUOUS
 10
32.4783944696
 20
-35.953232111
 11
32.6198158258
 21
-35.8715771923
  0
LINE
  5
4EE
100
AcDbEntity
  8
0
100
AcDbLine
 62
7
  6
CONTINUOUS
 10
32.8319478602
 20
-35.7490948143
 11
32.9733692164
 21
-35.6674398956
  0
LINE
  5
4EF
100
AcDbEntity
  8
RACCORDO
100
AcDbLine
 62
7
  6
CONTINUOUS
 10
29.6853273895
 20
-36.843877816
 11
29.7622037195
 21
-36.8010398077
  0
LINE
  5
4F0
100
AcDbEntity
  8
0
100
AcDbLine
 62
7
  6
CONTINUOUS
 10
32.8952469591
 20
-35.6223212469
 11
30.2906705885
 21
-36.9763936468
  0
LWPOLYLINE
  5
4F1
100
AcDbEntity
  8
SMUSSO
100
AcDbPolyline
 62
7
  6
CONTINUOUS
 90
5
 70
0
 10
57.0134332888
 20
4.8007993824
 10
57.0089050427
 20
4.8565049817
 10
57.0014150386
 20
4.9132432594
 10
56.9909059899
 20
4.9712662785
 10
56.9796444377
 20
5.0206366563
  0
LINE
  5
4F2
100
AcDbEntity
  8
SMUSSO
100
AcDbLine
 62
7
  6
CONTINUOUS
 10
57.0149997767
 20
4.7461264616
 11
57.0134332888
 21
4.8007993824
  0
LWPOLYLINE
  5
4F3
100
AcDbEntity
  8
SMUSSO
100
AcDbPolyline
 62
7
  6
CONTINUOUS
 90
28
 70
0
 10
55.2118774847
 20
3.7049828482
 10
55.2106871664
 20
3.7531505701
 10
55.2071058764
 20
3.8025354089
 10
55.201145745
 20
3.8529702692
 10
55.1928256774
 20
3.9042837666
 10
55.1821750837
 20
3.9563029986
 10
55.169233784
 20
4.0088541324
 10
55.154047414
 20
4.0617604176
 10
55.1366655007
 20
4.114841763
 10
55.1171450862
 20
4.1679175343
 10
55.0955514689
 20
4.2208077056
 10
55.0719584692
 20
4.2733337488
 10
55.0464464057
 20
4.3253182137
 10
55.0191017744
 20
4.3765853003
 10
54.9900169271
 20
4.4269614366
 10
54.9592902473
 20
4.4762761483
 10
54.9270257794
 20
4.5243626131
 10
54.8933326214
 20
4.5710580786
 10
54.8583245267
 20
4.6162043958
 10
54.8221193798
 20
4.6596484735
 10
54.784840257
 20
4.7012436396
 10
54.7466147576
 20
4.7408499916
 10
54.7075738963
 20
4.7783344797
 10
54.6678481162
 20
4.8135693101
 10
54.6275683031
 20
4.8464332185
 10
54.5868695763
 20
4.8768143253
 10
54.5458908271
 20
4.9046105118
 10
54.5047707035
 20
4.9297277183
  0
LINE
  5
4F4
100
AcDbEntity
  8
SMUSSO
100
AcDbLine
 62
7
  6
CONTINUOUS
 10
53.7976639223
 20
-72.5533410043
 11
53.7976639223
 21
3.7049828482
  0
LINE
  5
4F5
100
AcDbEntity
  8
SMUSSO
100
AcDbLine
 62
7
  6
CONTINUOUS
 10
55.2118774847
 20
-72.5533410043
 11
55.2118774847
 21
3.7049828482
  0
LINE
  5
4F6
100
AcDbEntity
  8
SMUSSO
100
AcDbLine
 62
7
  6
CONTINUOUS
 10
56.9796444377
 20
5.1339439248
 11
56.9796444377
 21
-71.5326545209
  0
LINE
  5
4F7
100
AcDbEntity
  8
SMUSSO
100
AcDbLine
 62
7
  6
CONTINUOUS
 10
57.0149997767
 20
-70.6140800864
 11
57.0149997767
 21
4.7461264616
  0
LINE
  5
4F8
100
AcDbEntity
  8
RACCORDO
100
AcDbLine
 62
7
  6
CONTINUOUS
 10
36.4356072303
 20
-43.827575061
 11
36.613379903
 21
-43.5902859112
  0
LWPOLYLINE
  5
4F9
100
AcDbEntity
  8
RACCORDO
100
AcDbPolyline
 62
7
  6
CONTINUOUS
 90
5
 70
0
 10
36.6103785982
 20
-43.8095131094
 10
36.6037227258
 20
-43.8178859014
 10
36.5925404573
 20
-43.8299001215
 10
36.5808763577
 20
-43.8400398864
 10
36.5687791072
 20
-43.848312543
  0
LINE
  5
4FA
100
AcDbEntity
  8
0
100
AcDbLine
 62
7
  6
CONTINUOUS
 10
36.4116581503
 20
-39.1268308209
 11
36.6063320417
 21
-38.8841487181
  0
LINE
  5
4FB
100
AcDbEntity
  8
0
100
AcDbLine
 62
7
  6
CONTINUOUS
 10
36.613379903
 20
-38.4263754742
 11
35.3434169341
 21
-39.2407439863
  0
LINE
  5
4FC
100
AcDbEntity
  8
0
100
AcDbLine
 62
7
  6
CONTINUOUS
 10
36.613379903
 20
-38.8800086689
 11
35.674171686
 21
-39.4317176347
  0
LINE
  5
4FD
100
AcDbEntity
  8
0
100
AcDbLine
 62
7
  6
CONTINUOUS
 10
36.2618143478
 20
-39.2600972419
 11
35.8204656346
 21
-39.5161859271
  0
LINE
  5
4FE
100
AcDbEntity
  8
0
100
AcDbLine
 62
7
  6
CONTINUOUS
 10
36.4116581503
 20
-39.1268308209
 11
35.7802441555
 21
-39.4929625492
  0
LINE
  5
4FF
100
AcDbEntity
  8
0
100
AcDbLine
 62
7
  6
CONTINUOUS
 10
34.9532682037
 20
-39.0152915609
 11
35.09468956
 21
-38.9336366422
  0
LINE
  5
500
100
AcDbEntity
  8
0
100
AcDbLine
 62
7
  6
CONTINUOUS
 10
35.3068215943
 20
-38.8111542642
 11
35.4482429506
 21
-38.7294993456
  0
LINE
  5
501
100
AcDbEntity
  8
0
100
AcDbLine
 62
7
  6
CONTINUOUS
 10
35.6603749849
 20
-38.6070169676
 11
35.8017963411
 21
-38.5253620489
  0
LINE
  5
502
100
AcDbEntity
  8
0
100
AcDbLine
 62
7
  6
CONTINUOUS
 10
36.0139283755
 20
-38.4028796709
 11
36.1553497317
 21
-38.3212247523
  0
LINE
  5
503
100
AcDbEntity
  8
0
100
AcDbLine
 62
7
  6
CONTINUOUS
 10
36.3674817661
 20
-38.1987423743
 11
36.5089031223
 21
-38.1170874556
  0
LINE
  5
504
100
AcDbEntity
  8
0
100
AcDbLine
 62
7
  6
CONTINUOUS
 10
36.6149691395
 20
-38.1783168081
 11
35.059163387
 21
-39.0766195508
  0
LINE
  5
505
100
AcDbEntity
  8
RACCORDO
100
AcDbLine
 62
7
  6
CONTINUOUS
 10
36.5687791072
 20
-43.848312543
 11
36.5562966617
 21
-43.8547085826
  0
LWPOLYLINE
  5
506
100
AcDbEntity
  8
RACCORDO
100
AcDbPolyline
 62
7
  6
CONTINUOUS
 90
10
 70
0
 10
36.5562966617
 20
-43.8547085826
 10
36.5434971232
 20
-43.8592172085
 10
36.5304404185
 20
-43.8618427275
 10
36.5171500991
 20
-43.8625879152
 10
36.5036931184
 20
-43.8614519378
 10
36.4901346722
 20
-43.8584387509
 10
36.4764834863
 20
-43.8535428361
 10
36.4627856961
 20
-43.8467596533
 10
36.4491343399
 20
-43.8380996526
 10
36.435607005
 20
-43.8275753617
  0
LINE
  5
507
100
AcDbEntity
  8
DRAFT
100
AcDbLine
 62
7
  6
CONTINUOUS
 10
57.6479915668
 20
-70.6140800858
 11
57.6479915668
 21
4.7461264621
  0
LINE
  5
508
100
AcDbEntity
  8
DRAFT
100
AcDbLine
 62
7
  6
CONTINUOUS
 10
59.8080715624
 20
-69.4096700361
 11
59.8080715624
 21
6.7670856986
  0
LWPOLYLINE
  5
509
100
AcDbEntity
  8
DRAFT
100
AcDbPolyline
 62
7
  6
CONTINUOUS
 90
15
 70
0
 10
57.6479915668
 20
-70.6140800858
 10
57.6462597931
 20
-70.6818025129
 10
57.6410703318
 20
-70.7472959799
 10
57.6324407423
 20
-70.8103388777
 10
57.6204002244
 20
-70.870717889
 10
57.6049895194
 20
-70.9282287104
 10
57.5862607723
 20
-70.9826767435
 10
57.5642773553
 20
-71.0338777532
 10
57.5391136531
 20
-71.0816584916
 10
57.510854812
 20
-71.1258572838
 10
57.4795964508
 20
-71.1663245751
 10
57.4454443378
 20
-71.202923437
 10
57.4085140332
 20
-71.2355300304
 10
57.3689304973
 20
-71.2640340251
 10
57.3392324651
 20
-71.2817587889
  0
LWPOLYLINE
  5
50A
100
AcDbEntity
  8
DRAFT
100
AcDbPolyline
 62
7
  6
CONTINUOUS
 90
15
 70
0
 10
59.8080715624
 20
-69.4096700361
 10
59.8062770933
 20
-69.4798442182
 10
59.8008997578
 20
-69.5477087462
 10
59.7919577511
 20
-69.6130339869
 10
59.7794813302
 20
-69.6755989001
 10
59.7635127113
 20
-69.7351917861
 10
59.7441059273
 20
-69.7916110016
 10
59.7213266443
 20
-69.8446656418
 10
59.6952519405
 20
-69.8941761866
 10
59.6659700442
 20
-69.9399751079
 10
59.6335800363
 20
-69.9819074368
 10
59.5981915141
 20
-70.0198312875
 10
59.5599242213
 20
-70.0536183376
 10
59.5189076423
 20
-70.0831542626
 10
59.4881344526
 20
-70.1015207158
  0
LWPOLYLINE
  5
50B
100
AcDbEntity
  8
SMUSSO
100
AcDbPolyline
 62
7
  6
CONTINUOUS
 90
13
 70
0
 10
56.9796444377
 20
-71.5326545209
 10
56.9781308276
 20
-71.5851739538
 10
56.9735963171
 20
-71.6357219772
 10
56.9660600806
 20
-71.6840820111
 10
56.9555541123
 20
-71.7300469491
 10
56.9421231807
 20
-71.7734196303
 10
56.9258247265
 20
-71.8140137658
 10
56.9067283956
 20
-71.8516553691
 10
56.8849158193
 20
-71.8861830883
 10
56.8604804941
 20
-71.9174486319
 10
56.8335269975
 20
-71.9453180151
 10
56.804170698
 20
-71.9696717896
 10
56.7725618166
 20
-71.9903913821
  0
LWPOLYLINE
  5
50C
100
AcDbEntity
  8
RACCORDO
100
AcDbPolyline
 62
7
  6
CONTINUOUS
 90
14
 70
0
 10
38.6217860449
 20
-47.2734361913
 10
38.6277255265
 20
-47.2701219497
 10
38.6498736156
 20
-47.2556064585
 10
38.6704511378
 20
-47.238545259
 10
38.6893705163
 20
-47.2190110476
 10
38.7065500773
 20
-47.1970877106
 10
38.7219161361
 20
-47.1728691383
 10
38.735404031
 20
-47.1464584106
 10
38.7469549584
 20
-47.1179691787
 10
38.756519005
 20
-47.0875235851
 10
38.7640570624
 20
-47.0552508571
 10
38.769536709
 20
-47.0212891438
 10
38.7729323734
 20
-46.9857849422
 10
38.7742282266
 20
-46.9488908868
  0
LINE
  5
50D
100
AcDbEntity
  8
RACCORDO
100
AcDbLine
 62
7
  6
CONTINUOUS
 10
38.7742282266
 20
-46.9488908868
 11
39.0657748139
 21
-46.792106567
  0
LINE
  5
50E
100
AcDbEntity
  8
RACCORDO
100
AcDbLine
 62
7
  6
CONTINUOUS
 10
38.6215837581
 20
-47.273545103
 11
38.9146127879
 21
-47.1159635736
  0
LWPOLYLINE
  5
50F
100
AcDbEntity
  8
RACCORDO
100
AcDbPolyline
 62
7
  6
CONTINUOUS
 90
19
 70
0
 10
38.7742282266
 20
-46.9488908868
 10
38.7548527432
 20
-46.9587981205
 10
38.7340704501
 20
-46.9677042648
 10
38.712036021
 20
-46.9755430352
 10
38.6889134487
 20
-46.982256091
 10
38.6648748245
 20
-46.9877934698
 10
38.6400990575
 20
-46.9921139593
 10
38.614770543
 20
-46.995185404
 10
38.5890777903
 20
-46.9969849445
 10
38.5632120197
 20
-46.9974991873
 10
38.537365725
 20
-46.9967243047
 10
38.5117312833
 20
-46.9946660629
 10
38.4864995222
 20
-46.9913397873
 10
38.4618582306
 20
-46.9867702406
 10
38.4379907958
 20
-46.9809914375
 10
38.415074877
 20
-46.9740464027
 10
38.3932810248
 20
-46.9659868384
 10
38.3727714169
 20
-46.9568727341
 10
38.3536986811
 20
-46.9467719292
  0
LWPOLYLINE
  5
510
100
AcDbEntity
  8
SMUSSO
100
AcDbPolyline
 62
7
  6
CONTINUOUS
 90
6
 70
0
 10
56.9796444377
 20
-70.847762831
 10
56.99090601
 20
-70.8113969266
 10
57.001415051
 20
-70.765509504
 10
57.0089050497
 20
-70.7174205115
 10
57.0134332916
 20
-70.666944039
 10
57.0149997767
 20
-70.6140800864
  0
LWPOLYLINE
  5
511
100
AcDbEntity
  8
SMUSSO
100
AcDbPolyline
 62
7
  6
CONTINUOUS
 90
15
 70
0
 10
55.004795023
 20
-73.0110777734
 10
55.0191016458
 20
-73.0023304264
 10
55.0464459901
 20
-72.9826398338
 10
55.0719576387
 20
-72.9601150644
 10
55.0955501937
 20
-72.9348323778
 10
55.1171435718
 20
-72.9068774691
 10
55.1366641359
 20
-72.8763452591
 10
55.1540464042
 20
-72.8433387302
 10
55.1692330193
 20
-72.8079687238
 10
55.1821742665
 20
-72.7703539551
 10
55.1928246976
 20
-72.7306226588
 10
55.2011447408
 20
-72.6889113137
 10
55.2071050687
 20
-72.6453617366
 10
55.2106866934
 20
-72.6001206041
 10
55.2118774847
 20
-72.5533410043
  0
LINE
  5
512
100
AcDbEntity
  8
SMUSSO
100
AcDbLine
 62
7
  6
CONTINUOUS
 10
55.2118774847
 20
-72.5533410043
 11
56.9796444377
 21
-71.5326545209
  0
LINE
  5
513
100
AcDbEntity
  8
RACCORDO
100
AcDbLine
 62
7
  6
CONTINUOUS
 10
55.0047951375
 20
-73.0110777073
 11
56.7725618166
 21
-71.9903913821
  0
LINE
  5
514
100
AcDbEntity
  8
DRAFT
100
AcDbLine
 62
7
  6
CONTINUOUS
 10
57.6479915668
 20
-70.6140800853
 11
59.8080715624
 21
-69.4096700361
  0
LINE
  5
515
100
AcDbEntity
  8
DRAFT
100
AcDbLine
 62
7
  6
CONTINUOUS
 10
57.3392324651
 20
-71.2817587889
 11
59.4881344526
 21
-70.1015207158
  0
LWPOLYLINE
  5
516
100
AcDbEntity
  8
DRAFT
100
AcDbPolyline
 62
7
  6
CONTINUOUS
 90
9
 70
0
 10
57.3392324651
 20
-71.2817587889
 10
57.3268276682
 20
-71.2883389725
 10
57.2823480087
 20
-71.3083626324
 10
57.2356420238
 20
-71.3240372511
 10
57.1868677518
 20
-71.3353097905
 10
57.1361902294
 20
-71.342142108
 10
57.0837809333
 20
-71.3445110853
 10
57.0298171998
 20
-71.3424087063
 10
56.9796444377
 20
-71.3364547511
  0
ARC
  5
517
100
AcDbEntity
  8
0
100
AcDbCircle
 62
7
  6
CONTINUOUS
 10
28.3355946461
 20
-35.2016637274
 40
0.5
100
AcDbArc
 50
0.2703450501
 51
59.7296550152
  0
ARC
  5
518
100
AcDbEntity
  8
0
100
AcDbCircle
 62
7
  6
CONTINUOUS
 10
12.4256920694
 20
-26.0154853776
 40
0.5
100
AcDbArc
 50
0.2703450501
 51
59.7296550152
  0
ARC
  5
519
100
AcDbEntity
  8
RACCORDO
100
AcDbCircle
 62
7
  6
CONTINUOUS
 10
-40.1830524508
 20
4.360144366
 40
0.5
100
AcDbArc
 50
0.2703450501
 51
59.729655018
  0
ELLIPSE
  5
51A
100
AcDbEntity
  8
RACCORDO
100
AcDbEllipse
 62
7
  6
CONTINUOUS
 10
-44.8195885948
 20
43.3899480806
 30
0.0
 11
-0.3501235233
 21
0.606392698
 31
0.0
 40
0.5771558487
 41
-0.7852941622
 42
0.0175189984
  0
ELLIPSE
  5
51B
100
AcDbEntity
  8
RACCORDO
100
AcDbEllipse
 62
7
  6
CONTINUOUS
 10
-41.4793883612
 20
3.8973761366
 30
0.0
 11
-0.1500072547
 21
0.2598034325
 31
0.0
 40
0.5775075436
 41
0.7855021057
 42
2.355993846
  0
ELLIPSE
  5
51C
100
AcDbEntity
  8
RACCORDO
100
AcDbEllipse
 62
7
  6
CONTINUOUS
 10
-40.9653206692
 20
4.1941981395
 30
0.0
 11
-0.1500073079
 21
0.2598034018
 31
0.0
 40
0.5789151826
 41
0.7867191038
 42
2.3547763749
  0
ELLIPSE
  5
51D
100
AcDbEntity
  8
RACCORDO
100
AcDbEllipse
 62
7
  6
CONTINUOUS
 10
38.5707246685
 20
-4.7585736716
 30
0.0
 11
-0.3500169276
 21
0.6062080092
 31
0.0
 40
0.5775075436
 41
-2.3560905478
 42
-0.7855988075
  0
ELLIPSE
  5
51E
100
AcDbEntity
  8
RACCORDO
100
AcDbEllipse
 62
7
  6
CONTINUOUS
 10
38.5707246685
 20
-46.5060967109
 30
0.0
 11
-0.3501235233
 21
0.606392698
 31
0.0
 40
0.5771558487
 41
-3.1591112814
 42
-2.3563950755
  0
ELLIPSE
  5
51F
100
AcDbEntity
  8
RACCORDO
100
AcDbEllipse
 62
7
  6
CONTINUOUS
 10
-5.224737582
 20
-16.0621784016
 30
0.0
 11
-0.1500529386
 21
0.2598825848
 31
0.0
 40
0.5771558487
 41
-0.7852941622
 42
0.0172857704
  0
ELLIPSE
  5
520
100
AcDbEntity
  8
RACCORDO
100
AcDbEllipse
 62
7
  6
CONTINUOUS
 10
-21.1346401586
 20
-6.8760000517
 30
0.0
 11
-0.1500529386
 21
0.2598825848
 31
0.0
 40
0.5771558487
 41
-0.7852941622
 42
0.0172857704
  0
ELLIPSE
  5
521
100
AcDbEntity
  8
RACCORDO
100
AcDbEllipse
 62
7
  6
CONTINUOUS
 10
21.0808689377
 20
-31.3337859921
 30
0.0
 11
-0.1500529386
 21
0.2598825848
 31
0.0
 40
0.5771558487
 41
-0.7852941622
 42
0.0172857759
  0
ELLIPSE
  5
522
100
AcDbEntity
  8
RACCORDO
100
AcDbEllipse
 62
7
  6
CONTINUOUS
 10
-26.6488387924
 20
-3.7752509425
 30
0.0
 11
-0.1500529386
 21
0.2598825848
 31
0.0
 40
0.5771558487
 41
-0.7852941622
 42
0.0172857759
  0
ELLIPSE
  5
523
100
AcDbEntity
  8
RACCORDO
100
AcDbEllipse
 62
7
  6
CONTINUOUS
 10
-10.7389362157
 20
-12.9614292924
 30
0.0
 11
-0.1500529386
 21
0.2598825848
 31
0.0
 40
0.5771558487
 41
-0.7852941622
 42
0.0172857759
  0
ELLIPSE
  5
524
100
AcDbEntity
  8
RACCORDO
100
AcDbEllipse
 62
7
  6
CONTINUOUS
 10
5.170966361
 20
-22.1476076423
 30
0.0
 11
-0.1500529386
 21
0.2598825848
 31
0.0
 40
0.5771558487
 41
-0.7852941622
 42
0.0172857759
  0
ELLIPSE
  5
525
100
AcDbEntity
  8
RACCORDO
100
AcDbEllipse
 62
7
  6
CONTINUOUS
 10
33.9986740491
 20
-38.8726036222
 30
0.0
 11
-0.2499740017
 21
0.433071683
 31
0.0
 40
0.5773316645
 41
-0.7852941758
 42
0.0087624365
  0
ELLIPSE
  5
526
100
AcDbEntity
  8
RACCORDO
100
AcDbEllipse
 62
7
  6
CONTINUOUS
 10
18.0888253285
 20
-29.6864563681
 30
0.0
 11
-0.2500882309
 21
0.4331376414
 31
0.0
 40
0.5771558487
 41
-0.7852941622
 42
0.0175190048
  0
ELLIPSE
  5
527
100
AcDbEntity
  8
RACCORDO
100
AcDbEllipse
 62
7
  6
CONTINUOUS
 10
2.1789227518
 20
-20.5002780182
 30
0.0
 11
-0.2500882309
 21
0.4331376414
 31
0.0
 40
0.5771558487
 41
-0.7852941622
 42
0.0175190048
  0
ELLIPSE
  5
528
100
AcDbEntity
  8
RACCORDO
100
AcDbEllipse
 62
7
  6
CONTINUOUS
 10
-13.7309798249
 20
-11.3140996684
 30
0.0
 11
-0.2500882309
 21
0.4331376414
 31
0.0
 40
0.5771558487
 41
-0.7852941622
 42
0.0175190048
  0
ELLIPSE
  5
529
100
AcDbEntity
  8
RACCORDO
100
AcDbEllipse
 62
7
  6
CONTINUOUS
 10
-29.6409362577
 20
-2.1278902227
 30
0.0
 11
-0.2499740017
 21
0.433071683
 31
0.0
 40
0.5773316645
 41
-0.7852941758
 42
0.0087624365
  0
ELLIPSE
  5
52A
100
AcDbEntity
  8
ASSI
100
AcDbEllipse
 62
7
  6
CONTINUOUS
 10
21.1011927927
 20
-29.3771211232
 30
0.0
 11
0.1999995634
 21
0.1164181051
 31
0.0
 40
0.0035896273
 41
-0.7351277754
 42
-0.0020157638
  0
ELLIPSE
  5
52B
100
AcDbEntity
  8
ASSI
100
AcDbEllipse
 62
7
  6
CONTINUOUS
 10
5.191290216
 20
-20.1909427734
 30
0.0
 11
0.1999995634
 21
0.1164181051
 31
0.0
 40
0.0035896273
 41
-0.7351277754
 42
-0.0020157638
  0
ELLIPSE
  5
52C
100
AcDbEntity
  8
ASSI
100
AcDbEllipse
 62
7
  6
CONTINUOUS
 10
-10.7186123607
 20
-11.0047644235
 30
0.0
 11
0.1999995634
 21
0.1164181051
 31
0.0
 40
0.0035896273
 41
-0.7351277754
 42
-0.0020157638
  0
ELLIPSE
  5
52D
100
AcDbEntity
  8
0
100
AcDbEllipse
 62
7
  6
CONTINUOUS
 10
-26.6285149374
 20
-1.9002331013
 30
0.0
 11
0.1999995634
 21
0.1164181051
 31
0.0
 40
0.0035896273
 41
-0.7351277754
 42
-0.0020757973
  0
ELLIPSE
  5
52E
100
AcDbEntity
  8
RACCORDO
100
AcDbEllipse
 62
7
  6
CONTINUOUS
 10
28.6953731902
 20
-35.8105441722
 30
0.0
 11
-0.2499740017
 21
0.433071683
 31
0.0
 40
0.5773316645
 41
-2.3560905026
 42
-0.7852941758
  0
ELLIPSE
  5
52F
100
AcDbEntity
  8
RACCORDO
100
AcDbEllipse
 62
7
  6
CONTINUOUS
 10
12.7854167574
 20
-26.6243347265
 30
0.0
 11
-0.2500120911
 21
0.4330057209
 31
0.0
 40
0.5775075436
 41
-2.3560905478
 42
-0.7855988075
  0
ELLIPSE
  5
530
100
AcDbEntity
  8
RACCORDO
100
AcDbEllipse
 62
7
  6
CONTINUOUS
 10
20.1890770912
 20
-30.7357964839
 30
0.0
 11
-0.1500072547
 21
0.2598034325
 31
0.0
 40
0.5775075436
 41
-2.3560905478
 42
-0.7855988075
  0
ELLIPSE
  5
531
100
AcDbEntity
  8
RACCORDO
100
AcDbEllipse
 62
7
  6
CONTINUOUS
 10
-19.034388396
 20
-8.2519780267
 30
0.0
 11
-0.2500120911
 21
0.4330057209
 31
0.0
 40
0.5775075436
 41
-2.3560905478
 42
-0.7855988075
  0
ELLIPSE
  5
532
100
AcDbEntity
  8
RACCORDO
100
AcDbEllipse
 62
7
  6
CONTINUOUS
 10
-3.1244858193
 20
-17.4381563766
 30
0.0
 11
-0.2500120911
 21
0.4330057209
 31
0.0
 40
0.5775075436
 41
-2.3560905478
 42
-0.7855988075
  0
ELLIPSE
  5
533
100
AcDbEntity
  8
RACCORDO
100
AcDbEllipse
 62
7
  6
CONTINUOUS
 10
4.2791745145
 20
-21.5496181341
 30
0.0
 11
-0.1500072547
 21
0.2598034325
 31
0.0
 40
0.5775075436
 41
-2.3560905478
 42
-0.7855988075
  0
ELLIPSE
  5
534
100
AcDbEntity
  8
RACCORDO
100
AcDbEllipse
 62
7
  6
CONTINUOUS
 10
-40.6010913661
 20
36.0670338868
 30
0.0
 11
-0.149984401
 21
0.2598430098
 31
0.0
 40
0.5773316645
 41
-3.1502296861
 42
-2.3560905026
  0
ELLIPSE
  5
535
100
AcDbEntity
  8
RACCORDO
100
AcDbEllipse
 62
7
  6
CONTINUOUS
 10
-40.6011236797
 20
28.1804080225
 30
0.0
 11
-0.1500072547
 21
0.2598034325
 31
0.0
 40
0.5775075436
 41
-2.3560905478
 42
-0.7855988075
  0
ELLIPSE
  5
536
100
AcDbEntity
  8
RACCORDO
100
AcDbEllipse
 62
7
  6
CONTINUOUS
 10
-40.6011236797
 20
18.1047064548
 30
0.0
 11
-0.1500529386
 21
0.2598825848
 31
0.0
 40
0.5771558487
 41
-3.1588791223
 42
-2.3563950755
  0
ELLIPSE
  5
537
100
AcDbEntity
  8
RACCORDO
100
AcDbEllipse
 62
7
  6
CONTINUOUS
 10
-40.6010913661
 20
10.2180432756
 30
0.0
 11
-0.149984401
 21
0.2598430098
 31
0.0
 40
0.5773316645
 41
-2.3560905026
 42
-0.7852941758
  0
ELLIPSE
  5
538
100
AcDbEntity
  8
RACCORDO
100
AcDbEllipse
 62
7
  6
CONTINUOUS
 10
-34.9442371166
 20
0.9341692273
 30
0.0
 11
-0.2499740017
 21
0.433071683
 31
0.0
 40
0.5773316645
 41
-2.3560905026
 42
-0.7852941758
  0
ELLIPSE
  5
539
100
AcDbEntity
  8
0
100
AcDbEllipse
 62
7
  6
CONTINUOUS
 10
32.8952469591
 20
-35.7856153022
 30
0.0
 11
0.1082601067
 21
0.1683382284
 31
0.0
 40
0.6067084637
 41
0.7621560142
 42
0.8145158917
  0
ELLIPSE
  5
53A
100
AcDbEntity
  8
0
100
AcDbEllipse
 62
7
  6
CONTINUOUS
 10
-30.7443633477
 20
0.9590980973
 30
0.0
 11
0.1082601067
 21
0.1683382284
 31
0.0
 40
0.6067084637
 41
0.7621560142
 42
0.8145158917
  0
ELLIPSE
  5
53B
100
AcDbEntity
  8
ASSI
100
AcDbEllipse
 62
7
  6
CONTINUOUS
 10
-14.834460771
 20
-8.2270802526
 30
0.0
 11
0.1082601067
 21
0.1683382284
 31
0.0
 40
0.6067084637
 41
0.7621560142
 42
0.8145158917
  0
ELLIPSE
  5
53C
100
AcDbEntity
  8
ASSI
100
AcDbEllipse
 62
7
  6
CONTINUOUS
 10
1.0754418057
 20
-17.4132586025
 30
0.0
 11
0.1082601067
 21
0.1683382284
 31
0.0
 40
0.6067084637
 41
0.7621560142
 42
0.8145158917
  0
ELLIPSE
  5
53D
100
AcDbEntity
  8
ASSI
100
AcDbEllipse
 62
7
  6
CONTINUOUS
 10
16.9853443824
 20
-26.5994369523
 30
0.0
 11
0.1082601067
 21
0.1683382284
 31
0.0
 40
0.6067084637
 41
0.7621560142
 42
0.8145158917
  0
ELLIPSE
  5
53E
100
AcDbEntity
  8
0
100
AcDbEllipse
 62
7
  6
CONTINUOUS
 10
36.2610450764
 20
-38.9137228985
 30
0.0
 11
0.2123743771
 21
0.3678550612
 31
0.0
 40
0.5773586895
 41
-2.353653638
 42
-1.8309336332
  0
ELLIPSE
  5
53F
100
AcDbEntity
  8
0
100
AcDbEllipse
 62
7
  6
CONTINUOUS
 10
-27.3785652304
 20
-2.169009499
 30
0.0
 11
0.2123743771
 21
0.3678550612
 31
0.0
 40
0.5773586895
 41
-2.195063028
 42
-1.8309336332
  0
ELLIPSE
  5
540
100
AcDbEntity
  8
RACCORDO
100
AcDbEllipse
 62
7
  6
CONTINUOUS
 10
9.6519517921
 20
-24.7348724702
 30
0.0
 11
-0.1500072547
 21
0.2598034325
 31
0.0
 40
0.5775075436
 41
-2.3560905478
 42
-0.7855988075
  0
ELLIPSE
  5
541
100
AcDbEntity
  8
RACCORDO
100
AcDbEllipse
 62
7
  6
CONTINUOUS
 10
-6.2579507846
 20
-15.5486941204
 30
0.0
 11
-0.1500072547
 21
0.2598034325
 31
0.0
 40
0.5775075436
 41
-2.3560905478
 42
-0.7855988075
  0
ELLIPSE
  5
542
100
AcDbEntity
  8
RACCORDO
100
AcDbEllipse
 62
7
  6
CONTINUOUS
 10
25.5618543687
 20
-33.9210508201
 30
0.0
 11
-0.1500072547
 21
0.2598034325
 31
0.0
 40
0.5775075436
 41
-2.3560905478
 42
-0.7855988075
  0
ELLIPSE
  5
543
100
AcDbEntity
  8
RACCORDO
100
AcDbEllipse
 62
7
  6
CONTINUOUS
 10
-40.6730686173
 20
11.5342545813
 30
0.0
 11
-0.1500529386
 21
0.2598825848
 31
0.0
 40
0.5771558487
 41
-3.1588791223
 42
-2.3563950755
  0
ELLIPSE
  5
544
100
AcDbEntity
  8
RACCORDO
100
AcDbEllipse
 62
7
  6
CONTINUOUS
 10
-40.6730686173
 20
16.7082841799
 30
0.0
 11
-0.1500072547
 21
0.2598034325
 31
0.0
 40
0.5775075436
 41
-2.3560905478
 42
-0.7855988075
  0
ELLIPSE
  5
545
100
AcDbEntity
  8
RACCORDO
100
AcDbEllipse
 62
7
  6
CONTINUOUS
 10
-40.6730686173
 20
29.4966006707
 30
0.0
 11
-0.1500529386
 21
0.2598825848
 31
0.0
 40
0.5771558487
 41
-3.1588791223
 42
-2.3563950755
  0
ELLIPSE
  5
546
100
AcDbEntity
  8
RACCORDO
100
AcDbEllipse
 62
7
  6
CONTINUOUS
 10
-40.6730686173
 20
34.6706302693
 30
0.0
 11
-0.1500072547
 21
0.2598034325
 31
0.0
 40
0.5775075436
 41
-2.3560905478
 42
-0.7855988075
  0
ELLIPSE
  5
547
100
AcDbEntity
  8
RACCORDO
100
AcDbEllipse
 62
7
  6
CONTINUOUS
 10
24.62657018
 20
-34.4610703982
 30
0.0
 11
-0.1500072547
 21
0.2598034325
 31
0.0
 40
0.5775075436
 41
-2.0969453617
 42
-0.7855988075
  0
ELLIPSE
  5
548
100
AcDbEntity
  8
RACCORDO
100
AcDbEllipse
 62
7
  6
CONTINUOUS
 10
20.1776754953
 20
-31.8923343651
 30
0.0
 11
-0.1500529386
 21
0.2598825848
 31
0.0
 40
0.5771558487
 41
-0.7852941622
 42
0.7851975781
  0
ELLIPSE
  5
549
100
AcDbEntity
  8
RACCORDO
100
AcDbEllipse
 62
7
  6
CONTINUOUS
 10
4.2677729186
 20
-22.7061560152
 30
0.0
 11
-0.1500529386
 21
0.2598825848
 31
0.0
 40
0.5771558487
 41
-0.7852941622
 42
0.7851975781
  0
ELLIPSE
  5
54A
100
AcDbEntity
  8
RACCORDO
100
AcDbEllipse
 62
7
  6
CONTINUOUS
 10
8.7166676033
 20
-25.2748920484
 30
0.0
 11
-0.1500072547
 21
0.2598034325
 31
0.0
 40
0.5775075436
 41
-2.0969453617
 42
-0.7855988075
  0
ELLIPSE
  5
54B
100
AcDbEntity
  8
RACCORDO
100
AcDbEllipse
 62
7
  6
CONTINUOUS
 10
-1.9371615489
 20
-18.7530623955
 30
0.0
 11
0.2435694555
 21
0.4367051162
 31
0.0
 40
0.5671693725
 41
5.4894081695
 42
7.0427512038
  0
ELLIPSE
  5
54C
100
AcDbEntity
  8
RACCORDO
100
AcDbEllipse
 62
7
  6
CONTINUOUS
 10
-11.6421296581
 20
-13.5199776653
 30
0.0
 11
-0.1500529386
 21
0.2598825848
 31
0.0
 40
0.5771558487
 41
-0.7852941622
 42
0.7851975781
  0
ELLIPSE
  5
54D
100
AcDbEntity
  8
RACCORDO
100
AcDbEllipse
 62
7
  6
CONTINUOUS
 10
-7.1932349734
 20
-16.0887136985
 30
0.0
 11
-0.1500072547
 21
0.2598034325
 31
0.0
 40
0.5775075436
 41
-2.0969453617
 42
-0.7855988075
  0
ELLIPSE
  5
54E
100
AcDbEntity
  8
RACCORDO
100
AcDbEllipse
 62
7
  6
CONTINUOUS
 10
-17.8470641256
 20
-9.5668840456
 30
0.0
 11
0.2435694555
 21
0.4367051162
 31
0.0
 40
0.5671693725
 41
5.4894081695
 42
7.0427512038
  0
ELLIPSE
  5
54F
100
AcDbEntity
  8
RACCORDO
100
AcDbEllipse
 62
7
  6
CONTINUOUS
 10
-27.5520322348
 20
-4.3337993154
 30
0.0
 11
-0.1500529386
 21
0.2598825848
 31
0.0
 40
0.5771558487
 41
-0.7852941622
 42
0.7851975781
  0
ELLIPSE
  5
550
100
AcDbEntity
  8
RACCORDO
100
AcDbEllipse
 62
7
  6
CONTINUOUS
 10
13.9727410278
 20
-27.9392407453
 30
0.0
 11
0.2435694555
 21
0.4367051162
 31
0.0
 40
0.5671693725
 41
5.4894081695
 42
7.0427512038
  0
ELLIPSE
  5
551
100
AcDbEntity
  8
RACCORDO
100
AcDbEllipse
 62
7
  6
CONTINUOUS
 10
-41.1766831805
 20
17.7951891812
 30
0.0
 11
-0.1500529386
 21
0.2598825848
 31
0.0
 40
0.5771558487
 41
2.3562984914
 42
3.9267902317
  0
ELLIPSE
  5
552
100
AcDbEntity
  8
RACCORDO
100
AcDbEllipse
 62
7
  6
CONTINUOUS
 10
-41.166776791
 20
35.7518154455
 30
0.0
 11
-0.149984401
 21
0.2598430098
 31
0.0
 40
0.5773316645
 41
2.3562984778
 42
3.9270948046
  0
ELLIPSE
  5
553
100
AcDbEntity
  8
RACCORDO
100
AcDbEllipse
 62
7
  6
CONTINUOUS
 10
10.2707965443
 20
-25.8370651137
 30
0.0
 11
-0.2500882309
 21
0.4331376414
 31
0.0
 40
0.5771558487
 41
-0.7852941622
 42
0.2653506472
  0
ELLIPSE
  5
554
100
AcDbEntity
  8
RACCORDO
100
AcDbEllipse
 62
7
  6
CONTINUOUS
 10
12.2098572567
 20
-26.9566544669
 30
0.0
 11
-0.2500120911
 21
0.4330057209
 31
0.0
 40
0.5775075436
 41
-1.8362436169
 42
-0.7855988075
  0
ELLIPSE
  5
555
100
AcDbEntity
  8
RACCORDO
100
AcDbEllipse
 62
7
  6
CONTINUOUS
 10
17.5330139794
 20
-30.0301784438
 30
0.0
 11
-0.2500882309
 21
0.4331376414
 31
0.0
 40
0.5771558487
 41
-0.7852941622
 42
0.2653506472
  0
ELLIPSE
  5
556
100
AcDbEntity
  8
RACCORDO
100
AcDbEllipse
 62
7
  6
CONTINUOUS
 10
19.6135175904
 20
-31.0681162243
 30
0.0
 11
-0.1500072547
 21
0.2598034325
 31
0.0
 40
0.5775075436
 41
-2.1940465127
 42
-0.7855988075
  0
ELLIPSE
  5
557
100
AcDbEntity
  8
RACCORDO
100
AcDbEllipse
 62
7
  6
CONTINUOUS
 10
-41.6083528061
 20
28.993635101
 30
0.0
 11
-0.1500529386
 21
0.2598825848
 31
0.0
 40
0.5771558487
 41
2.3562984914
 42
3.9267902317
  0
ELLIPSE
  5
558
100
AcDbEntity
  8
RACCORDO
100
AcDbEllipse
 62
7
  6
CONTINUOUS
 10
-41.6083528061
 20
11.0312890116
 30
0.0
 11
-0.1500529386
 21
0.2598825848
 31
0.0
 40
0.5771558487
 41
2.3562984914
 42
3.9267902317
  0
ELLIPSE
  5
559
100
AcDbEntity
  8
RACCORDO
100
AcDbEllipse
 62
7
  6
CONTINUOUS
 10
-21.6904515078
 20
-7.2197221273
 30
0.0
 11
-0.1500529386
 21
0.2598825848
 31
0.0
 40
0.5771558487
 41
-0.7852941622
 42
0.6231535431
  0
ELLIPSE
  5
55A
100
AcDbEntity
  8
RACCORDO
100
AcDbEllipse
 62
7
  6
CONTINUOUS
 10
-19.6099478967
 20
-8.5842977671
 30
0.0
 11
-0.2500120911
 21
0.4330057209
 31
0.0
 40
0.5775075436
 41
-1.8362436169
 42
-0.7855988075
  0
ELLIPSE
  5
55B
100
AcDbEntity
  8
RACCORDO
100
AcDbEllipse
 62
7
  6
CONTINUOUS
 10
-14.286791174
 20
-11.657821744
 30
0.0
 11
-0.2500882309
 21
0.4331376414
 31
0.0
 40
0.5771558487
 41
-0.7852941622
 42
0.2653506472
  0
ELLIPSE
  5
55C
100
AcDbEntity
  8
RACCORDO
100
AcDbEllipse
 62
7
  6
CONTINUOUS
 10
-12.3477304616
 20
-12.7774110972
 30
0.0
 11
-0.2500120911
 21
0.4330057209
 31
0.0
 40
0.5775075436
 41
-1.8362436139
 42
-0.7855988075
  0
ELLIPSE
  5
55D
100
AcDbEntity
  8
RACCORDO
100
AcDbEllipse
 62
7
  6
CONTINUOUS
 10
-5.7805489311
 20
-16.4059004772
 30
0.0
 11
-0.1500529386
 21
0.2598825848
 31
0.0
 40
0.5771558487
 41
-0.7852941622
 42
0.6231535431
  0
ELLIPSE
  5
55E
100
AcDbEntity
  8
RACCORDO
100
AcDbEllipse
 62
7
  6
CONTINUOUS
 10
-3.70004532
 20
-17.770476117
 30
0.0
 11
-0.2500120911
 21
0.4330057209
 31
0.0
 40
0.5775075436
 41
-1.8362436169
 42
-0.7855988075
  0
ELLIPSE
  5
55F
100
AcDbEntity
  8
RACCORDO
100
AcDbEllipse
 62
7
  6
CONTINUOUS
 10
1.6231114027
 20
-20.8440000939
 30
0.0
 11
-0.2500882309
 21
0.4331376414
 31
0.0
 40
0.5771558487
 41
-0.7852941622
 42
0.2653506472
  0
ELLIPSE
  5
560
100
AcDbEntity
  8
RACCORDO
100
AcDbEllipse
 62
7
  6
CONTINUOUS
 10
3.7036150137
 20
-21.8819378744
 30
0.0
 11
-0.1500072547
 21
0.2598034325
 31
0.0
 40
0.5775075436
 41
-2.1940465127
 42
-0.7855988075
  0
ELLIPSE
  5
561
100
AcDbEntity
  8
RACCORDO
100
AcDbEllipse
 62
7
  6
CONTINUOUS
 10
-41.1766831805
 20
27.8480882821
 30
0.0
 11
-0.1500072547
 21
0.2598034325
 31
0.0
 40
0.5775075436
 41
-2.3560905478
 42
-0.7855988075
  0
ELLIPSE
  5
562
100
AcDbEntity
  8
0
100
AcDbEllipse
 62
7
  6
CONTINUOUS
 10
-26.4868995022
 20
-1.4991081686
 30
0.0
 11
0.0925036689
 21
0.1774691851
 31
0.0
 40
0.5463614449
 41
0.709509901
 42
0.7618697785
  0
ELLIPSE
  5
563
100
AcDbEntity
  8
RACCORDO
100
AcDbEllipse
 62
7
  6
CONTINUOUS
 10
-30.2066216826
 20
-2.4659111307
 30
0.0
 11
-0.2499740017
 21
0.433071683
 31
0.0
 40
0.5773316645
 41
-0.7852941758
 42
0.2653538377
  0
ELLIPSE
  5
564
100
AcDbEntity
  8
RACCORDO
100
AcDbEllipse
 62
7
  6
CONTINUOUS
 10
-28.2576330383
 20
-3.5912327473
 30
0.0
 11
-0.2500120911
 21
0.4330057209
 31
0.0
 40
0.5775075436
 41
-1.8362436169
 42
-0.7855988075
  0
ELLIPSE
  5
565
100
AcDbEntity
  8
RACCORDO
100
AcDbEllipse
 62
7
  6
CONTINUOUS
 10
-41.166776791
 20
9.8800223676
 30
0.0
 11
-0.149984401
 21
0.2598430098
 31
0.0
 40
0.5773316645
 41
-2.3560905026
 42
-0.7852941758
  0
ELLIPSE
  5
566
100
AcDbEntity
  8
RACCORDO
100
AcDbEllipse
 62
7
  6
CONTINUOUS
 10
-35.5099225415
 20
0.5961483193
 30
0.0
 11
-0.2499740017
 21
0.433071683
 31
0.0
 40
0.5773316645
 41
-1.8359421893
 42
-0.7852941758
  0
ELLIPSE
  5
567
100
AcDbEntity
  8
RACCORDO
100
AcDbEllipse
 62
7
  6
CONTINUOUS
 10
33.4329886242
 20
-39.2106245302
 30
0.0
 11
-0.2499740017
 21
0.433071683
 31
0.0
 40
0.5773316645
 41
-0.7852941758
 42
0.2653538377
  0
ELLIPSE
  5
568
100
AcDbEntity
  8
RACCORDO
100
AcDbEllipse
 62
7
  6
CONTINUOUS
 10
26.180699121
 20
-35.0232434636
 30
0.0
 11
-0.2500882309
 21
0.4331376414
 31
0.0
 40
0.5771558487
 41
-0.7852941622
 42
0.2653506472
  0
ELLIPSE
  5
569
100
AcDbEntity
  8
RACCORDO
100
AcDbEllipse
 62
7
  6
CONTINUOUS
 10
28.1296877653
 20
-36.1485650802
 30
0.0
 11
-0.2499740017
 21
0.433071683
 31
0.0
 40
0.5773316645
 41
-1.8359421893
 42
-0.7852941758
  0
ELLIPSE
  5
56A
100
AcDbEntity
  8
ASSI
100
AcDbEllipse
 62
7
  6
CONTINUOUS
 10
-10.5769969255
 20
-10.6852865185
 30
0.0
 11
0.0925036689
 21
0.1774691851
 31
0.0
 40
0.5463614449
 41
0.709509901
 42
0.7618697785
  0
ELLIPSE
  5
56B
100
AcDbEntity
  8
ASSI
100
AcDbEllipse
 62
7
  6
CONTINUOUS
 10
5.3329056512
 20
-19.8714648683
 30
0.0
 11
0.0925036689
 21
0.1774691851
 31
0.0
 40
0.5463614449
 41
0.709509901
 42
0.7618697785
  0
ELLIPSE
  5
56C
100
AcDbEntity
  8
ASSI
100
AcDbEllipse
 62
7
  6
CONTINUOUS
 10
21.2428082279
 20
-29.0576432182
 30
0.0
 11
0.0925036689
 21
0.1774691851
 31
0.0
 40
0.5463614449
 41
0.709509901
 42
0.7618697785
  0
ELLIPSE
  5
56D
100
AcDbEntity
  8
RACCORDO
100
AcDbEllipse
 62
7
  6
CONTINUOUS
 10
-41.6083528061
 20
16.1682646017
 30
0.0
 11
-0.1500072547
 21
0.2598034325
 31
0.0
 40
0.5775075436
 41
-2.3560905478
 42
-0.9003705459
  0
ELLIPSE
  5
56E
100
AcDbEntity
  8
RACCORDO
100
AcDbEllipse
 62
7
  6
CONTINUOUS
 10
-41.6083528061
 20
34.1306106912
 30
0.0
 11
-0.1500072547
 21
0.2598034325
 31
0.0
 40
0.5775075436
 41
-2.3560905478
 42
-0.9003705459
  0
ENDSEC
  0
SECTION
  2
OBJECTS
  0
DICTIONARY
  5
C
100
AcDbDictionary
280
0
281
1
  3
ACAD_GROUP
350
D
  3
ACAD_MLINESTYLE
350
17
  3
ACAD_LAYOUT
350
1A
  3
ACAD_PLOTSETTINGS
350
19
  3
ACAD_PLOTSTYLENAME
350
E
  0
DICTIONARY
  5
D
102
{ACAD_REACTORS
330
C
102
}
100
AcDbDictionary
280
0
281
1
  0
ACDBDICTIONARYWDFLT
  5
E
102
{ACAD_REACTORS
330
C
102
}
100
AcDbDictionary
281
1
  3
Normal
350
F
100
AcDbDictionaryWithDefault
340
F
  0
DICTIONARY
  5
17
102
{ACAD_REACTORS
330
C
102
}
100
AcDbDictionary
280
0
281
1
  3
Standard
350
18
  0
DICTIONARY
  5
19
102
{ACAD_REACTORS
330
C
102
}
100
AcDbDictionary
281
1
  0
DICTIONARY
  5
1A
102
{ACAD_REACTORS
330
C
102
}
100
AcDbDictionary
281
1
  3
Model
350
56F
  3
Layout1
350
570
  0
ACDBPLACEHOLDER
  5
F
102
{ACAD_REACTORS
330
E
102
}
  0
MLINESTYLE
  5
18
102
{ACAD_REACTORS
330
17
102
}
100
AcDbMlineStyle
  2
STANDARD
 70
0
  3

 62
256
 51
90.0
 52
90.0
 71
2
 49
0.5
 62
256
  6
BYLAYER
 49
-0.5
 62
256
  6
BYLAYER
  0
LAYOUT
  5
56F
102
{ACAD_REACTORS
330
1A
102
}
100
AcDbPlotSettings
  1

  2
none_device
  4
ISO_A4_(297.00_x_210.00_MM)
  6

 40
0.0
 41
0.0
 42
0.0
 43
0.0
 44
297.0
 45
210.0
 46
0.0
 47
0.0
 48
0.0
 49
0.0
140
0.0
141
0.0
142
1.0
143
1.0
 70
1024
 72
1
 73
0
 74
0
  7

 75
0
147
1.0
148
0.0
149
0.0
100
AcDbLayout
  1
Model
 70
0
 71
0
 10
0.0
 20
0.0
 11
297.0
 21
210.0
 12
0.0
 22
0.0
 32
0.0
 14
0.0
 24
0.0
 34
0.0
 15
0.0
 25
0.0
 35
0.0
146
0.0
 13
0.0
 23
0.0
 33
0.0
 16
1.0
 26
0.0
 36
0.0
 17
0.0
 27
1.0
 37
0.0
 76
0
330
215
345
0
346
0
  0
LAYOUT
  5
570
102
{ACAD_REACTORS
330
1A
102
}
100
AcDbPlotSettings
  1

  2
none_device
  4
ISO_A4_(297.00_x_210.00_MM)
  6

 40
0.0
 41
0.0
 42
0.0
 43
0.0
 44
297.0
 45
210.0
 46
0.0
 47
0.0
 48
0.0
 49
0.0
140
0.0
141
0.0
142
1.0
143
1.0
 70
0
 72
1
 73
0
 74
0
  7

 75
0
147
1.0
148
0.0
149
0.0
100
AcDbLayout
  1
Layout1
 70
0
 71
1
 10
0.0
 20
0.0
 11
297.0
 21
210.0
 12
0.0
 22
0.0
 32
0.0
 14
0.0
 24
0.0
 34
0.0
 15
0.0
 25
0.0
 35
0.0
146
0.0
 13
0.0
 23
0.0
 33
0.0
 16
1.0
 26
0.0
 36
0.0
 17
0.0
 27
1.0
 37
0.0
 76
0
330
216
345
0
346
0
  0
ENDSEC
  0
EOF
