  0
SECTION
  2
HEADER
  9
$ACADVER
  1
AC1015
  9
$DWGCODEPAGE
  3
ANSI_1252
  9
$EXTMAX
 10
297.0
 20
210.0
 30
0.0
  9
$EXTMIN
 10
0.0
 20
0.0
 30
0.0
  9
$LIMMIN
 10
0.0
 20
0.0
  9
$LIMMAX
 10
297.0
 20
210.0
  9
$VIEWCTR
 10
148.5
 20
105.0
  9
$VIEWSIZE
 40
210.0
  9
$CLAYER
  8
0
  9
$LTSCALE
 40
16.335
  9
$CELTYPE
  6
BYLAYER
  9
$DIMSCALE
 40
1.0
  9
$DIMASZ
 40
3.0
  9
$DIMEXO
 40
0.5
  9
$DIMDLI
 40
11.286
  9
$DIMEXE
 40
1.5
  9
$DIMCEN
 40
2.673
  9
$DIMLFAC
 40
1.0
  9
$DIMBLK
  1
_FILLED
  9
$DIMTXT
 40
3.0
  9
$DIMTOL
 70
1
  9
$DIMLIM
 70
0
  9
$DIMTFAC
 40
1.0
  9
$DIMTP
 40
0.01
  9
$DIMTM
 40
0.01
  9
$DIMGAP
 40
0.625
  9
$DIMDSEP
 70
44
  9
$PDMODE
 70
3
  9
$PDSIZE
 40
3.0
  9
$HANDSEED
  5
564
  9
$TILEMODE
 70
1
  9
$MEASUREMENT
 70
1
  9
$INSUNITS
 70
4
  0
ENDSEC
  0
SECTION
  2
CLASSES
  0
CLASS
  1
ACDBDICTIONARYWDFLT
  2
AcDbDictionaryWithDefault
  3
AutoCAD 2000
 90
0
280
0
281
0
  0
CLASS
  1
ACDBPLACEHOLDER
  2
AcDbPlaceHolder
  3
AutoCAD 2000
 90
0
280
0
281
0
  0
CLASS
  1
LAYOUT
  2
AcDbLayout
  3
AutoCAD 2000
 90
0
280
0
281
0
  0
ENDSEC
  0
SECTION
  2
TABLES
  0
TABLE
  2
VPORT
  5
8
100
AcDbSymbolTable
 70
2
  0
VPORT
  5
1F4
100
AcDbSymbolTableRecord
100
AcDbViewportTableRecord
  2
*ACTIVE
 70
0
 10
0.0
 20
0.0
 11
1.0
 21
1.0
 12
148.5
 22
105.0
 13
0.0
 23
0.0
 14
1.0
 24
1.0
 15
0.0
 25
0.0
 16
0.0
 26
0.0
 36
1.0
 17
0.0
 27
0.0
 37
0.0
 40
210.0
 41
1.4142857143
 42
50.0
 43
0.0
 44
0.0
 50
0.0
 51
0.0
 71
0
 72
100
 73
1
 74
1
 75
0
 76
0
 77
0
 78
0
  0
ENDTAB
  0
TABLE
  2
LTYPE
  5
5
100
AcDbSymbolTable
 70
6
  0
LTYPE
  5
14
100
AcDbSymbolTableRecord
100
AcDbLinetypeTableRecord
  2
BYBLOCK
 70
0
  3

 72
65
 73
0
 40
0.0
  0
LTYPE
  5
15
100
AcDbSymbolTableRecord
100
AcDbLinetypeTableRecord
  2
BYLAYER
 70
0
  3

 72
65
 73
0
 40
0.0
  0
LTYPE
  5
16
100
AcDbSymbolTableRecord
100
AcDbLinetypeTableRecord
  2
CONTINUOUS
 70
64
  3
Solid line
 72
65
 73
0
 40
0.0
  0
LTYPE
  5
1F5
100
AcDbSymbolTableRecord
100
AcDbLinetypeTableRecord
  2
CENTER
 70
64
  3
____ _ ____ _ ____ _ ____ _ ____ _ ____ _ ____
 72
65
 73
4
 40
0.6
 49
0.375
 74
0
 49
-0.075
 74
0
 49
0.075
 74
0
 49
-0.075
 74
0
  0
LTYPE
  5
1F6
100
AcDbSymbolTableRecord
100
AcDbLinetypeTableRecord
  2
HIDDEN
 70
64
  3
- - - - - - - - - - - - - - - - - - - -
 72
65
 73
2
 40
0.2
 49
0.1
 74
0
 49
-0.1
 74
0
  0
LTYPE
  5
1F7
100
AcDbSymbolTableRecord
100
AcDbLinetypeTableRecord
  2
PHANTOM
 70
64
  3
_____ _ _ _____ _ _ _____ _ _ _____
 72
65
 73
6
 40
0.8
 49
0.45
 74
0
 49
-0.05
 74
0
 49
0.1
 74
0
 49
-0.05
 74
0
 49
0.1
 74
0
 49
-0.05
 74
0
  0
LTYPE
  5
1F8
100
AcDbSymbolTableRecord
100
AcDbLinetypeTableRecord
  2
DOT
 70
64
  3
. . . . . . . . . . . . . . . . . . . .
 72
65
 73
2
 40
0.2
 49
0.1
 74
0
 49
-0.1
 74
0
  0
LTYPE
  5
1F9
100
AcDbSymbolTableRecord
100
AcDbLinetypeTableRecord
  2
DASHED
 70
64
  3
- - - - - - - - - - - - - - - - - - - -
 72
65
 73
2
 40
0.2
 49
0.1
 74
0
 49
-0.1
 74
0
  0
ENDTAB
  0
TABLE
  2
LAYER
  5
2
100
AcDbSymbolTable
 70
36
  0
LAYER
  5
10
100
AcDbSymbolTableRecord
100
AcDbLayerTableRecord
  2
0
 70
0
 62
7
  6
CONTINUOUS
370
-3
390
F
  0
LAYER
  5
1FA
100
AcDbSymbolTableRecord
100
AcDbLayerTableRecord
  2
DEFAULT_1
 70
0
 62
7
  6
CENTER
370
-3
390
F
  0
LAYER
  5
1FB
100
AcDbSymbolTableRecord
100
AcDbLayerTableRecord
  2
DEFAULT_2
 70
0
 62
7
  6
HIDDEN
370
-3
390
F
  0
LAYER
  5
1FC
100
AcDbSymbolTableRecord
100
AcDbLayerTableRecord
  2
DEFAULT_3
 70
0
 62
7
  6
PHANTOM
370
-3
390
F
  0
LAYER
  5
1FD
100
AcDbSymbolTableRecord
100
AcDbLayerTableRecord
  2
ASSI
 70
0
 62
7
  6
CONTINUOUS
370
-3
390
F
  0
LAYER
  5
1FE
100
AcDbSymbolTableRecord
100
AcDbLayerTableRecord
  2
COORDINATE
 70
0
 62
7
  6
CONTINUOUS
370
-3
390
F
  0
LAYER
  5
1FF
100
AcDbSymbolTableRecord
100
AcDbLayerTableRecord
  2
COORD_ORIGINE
 70
0
 62
7
  6
CONTINUOUS
370
-3
390
F
  0
LAYER
  5
200
100
AcDbSymbolTableRecord
100
AcDbLayerTableRecord
  2
COPY_PUBLISH
 70
0
 62
7
  6
CONTINUOUS
370
-3
390
F
  0
LAYER
  5
201
100
AcDbSymbolTableRecord
100
AcDbLayerTableRecord
  2
COSMETIC
 70
0
 62
7
  6
CONTINUOUS
370
-3
390
F
  0
LAYER
  5
202
100
AcDbSymbolTableRecord
100
AcDbLayerTableRecord
  2
COSMETICI
 70
0
 62
7
  6
CONTINUOUS
370
-3
390
F
  0
LAYER
  5
203
100
AcDbSymbolTableRecord
100
AcDbLayerTableRecord
  2
CURVE
 70
0
 62
7
  6
CONTINUOUS
370
-3
390
F
  0
LAYER
  5
204
100
AcDbSymbolTableRecord
100
AcDbLayerTableRecord
  2
DRAFT
 70
0
 62
7
  6
CONTINUOUS
370
-3
390
F
  0
LAYER
  5
205
100
AcDbSymbolTableRecord
100
AcDbLayerTableRecord
  2
IMPORT_IGES
 70
0
 62
7
  6
CONTINUOUS
370
-3
390
F
  0
LAYER
  5
206
100
AcDbSymbolTableRecord
100
AcDbLayerTableRecord
  2
INTFCLR_2
 70
0
 62
7
  6
CONTINUOUS
370
-3
390
F
  0
LAYER
  5
207
100
AcDbSymbolTableRecord
100
AcDbLayerTableRecord
  2
NOTE
 70
0
 62
7
  6
CONTINUOUS
370
-3
390
F
  0
LAYER
  5
208
100
AcDbSymbolTableRecord
100
AcDbLayerTableRecord
  2
PIANI
 70
0
 62
7
  6
CONTINUOUS
370
-3
390
F
  0
LAYER
  5
209
100
AcDbSymbolTableRecord
100
AcDbLayerTableRecord
  2
PIANI_ORIGINE
 70
0
 62
7
  6
CONTINUOUS
370
-3
390
F
  0
LAYER
  5
20A
100
AcDbSymbolTableRecord
100
AcDbLayerTableRecord
  2
PIANI_RIFERIMENTO
 70
0
 62
7
  6
CONTINUOUS
370
-3
390
F
  0
LAYER
  5
20B
100
AcDbSymbolTableRecord
100
AcDbLayerTableRecord
  2
PUNTI
 70
0
 62
7
  6
CONTINUOUS
370
-3
390
F
  0
LAYER
  5
20C
100
AcDbSymbolTableRecord
100
AcDbLayerTableRecord
  2
RACCORDO
 70
0
 62
7
  6
CONTINUOUS
370
-3
390
F
  0
LAYER
  5
20D
100
AcDbSymbolTableRecord
100
AcDbLayerTableRecord
  2
SIMBOLI
 70
0
 62
7
  6
CONTINUOUS
370
-3
390
F
  0
LAYER
  5
20E
100
AcDbSymbolTableRecord
100
AcDbLayerTableRecord
  2
SMUSSO
 70
0
 62
7
  6
CONTINUOUS
370
-3
390
F
  0
LAYER
  5
20F
100
AcDbSymbolTableRecord
100
AcDbLayerTableRecord
  2
SNAPLINE
 70
0
 62
7
  6
CONTINUOUS
370
-3
390
F
  0
LAYER
  5
210
100
AcDbSymbolTableRecord
100
AcDbLayerTableRecord
  2
SUPERFICI
 70
0
 62
7
  6
CONTINUOUS
370
-3
390
F
  0
LAYER
  5
211
100
AcDbSymbolTableRecord
100
AcDbLayerTableRecord
  2
TRASH
 70
0
 62
7
  6
CONTINUOUS
370
-3
390
F
  0
LAYER
  5
212
100
AcDbSymbolTableRecord
100
AcDbLayerTableRecord
  2
XSEC_DATUMS
 70
0
 62
7
  6
CONTINUOUS
370
-3
390
F
  0
ENDTAB
  0
TABLE
  2
STYLE
  5
3
100
AcDbSymbolTable
 70
1
  0
STYLE
  5
11
100
AcDbSymbolTableRecord
100
AcDbTextStyleTableRecord
  2
STANDARD
 70
0
 40
0.0
 41
0.8
 50
0.0
 71
0
 42
0.2
  3
txt
  4

  0
STYLE
  5
213
100
AcDbSymbolTableRecord
100
AcDbTextStyleTableRecord
  2
TEXTSTYLE_1
 70
0
 40
0.0
 41
0.8
 50
0.0
 71
0
 42
0.2
  3
gdt
  4

  0
ENDTAB
  0
TABLE
  2
VIEW
  5
6
100
AcDbSymbolTable
 70
0
  0
ENDTAB
  0
TABLE
  2
UCS
  5
7
100
AcDbSymbolTable
 70
0
  0
ENDTAB
  0
TABLE
  2
APPID
  5
9
100
AcDbSymbolTable
 70
1
  0
APPID
  5
214
100
AcDbSymbolTableRecord
100
AcDbRegAppTableRecord
  2
ACAD
 70
0
  0
ENDTAB
  0
TABLE
  2
BLOCK_RECORD
  5
1
100
AcDbSymbolTable
 70
0
  0
BLOCK_RECORD
  5
215
100
AcDbSymbolTableRecord
100
AcDbBlockTableRecord
  2
*Model_Space
  0
BLOCK_RECORD
  5
216
100
AcDbSymbolTableRecord
100
AcDbBlockTableRecord
  2
*Paper_Space
  0
ENDTAB
  0
TABLE
  2
DIMSTYLE
  5
A
100
AcDbSymbolTable
 70
1
100
AcDbDimStyleTable
 71
0
  0
DIMSTYLE
105
217
100
AcDbSymbolTableRecord
100
AcDbDimStyleTableRecord
  2
STANDARD
 70
0
  3

  4

 40
1.0
 41
3.0
 42
0.5
 43
0.38
 44
1.5
 45
0.0
 46
0.0
 47
0.01
 48
0.01
140
3.0
141
0.09
142
0.0
143
25.4
144
1.0
145
0.0
146
1.0
147
0.625
 71
1.0
 72
0.0
 73
0
 74
0
 75
0
 76
0
 77
1
 78
8
170
0
171
2
172
0
173
0
174
0
175
0
176
0
177
0
178
0
270
2
271
2
272
2
273
2
274
2
275
0
280
0
281
0
282
0
283
1
284
8
285
0
286
0
287
3
288
0
340
11
278
44
  0
ENDTAB
  0
ENDSEC
  0
SECTION
  2
BLOCKS
  0
BLOCK
  5
20
100
AcDbEntity
  8
0
100
AcDbBlockBegin
  2
*Model_Space
 70
0
 10
0.0
 20
0.0
 30
0.0
  3
*Model_Space
  1

  0
ENDBLK
  5
21
100
AcDbEntity
  8
0
100
AcDbBlockEnd
  0
BLOCK
  5
1C
100
AcDbEntity
  8
0
100
AcDbBlockBegin
  2
*Paper_Space
 70
0
 10
0.0
 20
0.0
 30
0.0
  3
*Paper_Space
  1

  0
ENDBLK
  5
1D
100
AcDbEntity
  8
0
100
AcDbBlockEnd
  0
ENDSEC
  0
SECTION
  2
ENTITIES
  0
LINE
  5
218
100
AcDbEntity
  8
RACCORDO
100
AcDbLine
 62
7
  6
CONTINUOUS
 10
-59.2091522088
 20
71.0720752033
 11
-55.7089736419
 21
73.0930344402
  0
LINE
  5
219
100
AcDbEntity
  8
RACCORDO
100
AcDbLine
 62
7
  6
CONTINUOUS
 10
-58.7091280487
 20
71.0225340256
 11
-55.2089494818
 21
73.0434932626
  0
LWPOLYLINE
  5
21A
100
AcDbEntity
  8
RACCORDO
100
AcDbPolyline
 62
7
  6
CONTINUOUS
 90
12
 70
0
 10
-55.7089736419
 20
73.0930344402
 10
-55.6673054542
 20
73.1151655616
 10
-55.6237729358
 20
73.1344615994
 10
-55.578560382
 20
73.1507526027
 10
-55.5319543265
 20
73.1638680782
 10
-55.4840901489
 20
73.1737136629
 10
-55.4349188606
 20
73.1802143577
 10
-55.3846551473
 20
73.1832370997
 10
-55.3335222366
 20
73.1826732612
 10
-55.2814345629
 20
73.1784031863
 10
-55.2284990375
 20
73.1702801663
 10
-55.1750319258
 20
73.158202466
  0
LWPOLYLINE
  5
21B
100
AcDbEntity
  8
RACCORDO
100
AcDbPolyline
 62
7
  6
CONTINUOUS
 90
13
 70
0
 10
-55.7089736419
 20
73.0930344403
 10
-55.6751773191
 20
73.110072012
 10
-55.6394087654
 20
73.1233142477
 10
-55.6017969057
 20
73.132718432
 10
-55.5625027798
 20
73.1382442918
 10
-55.521694666
 20
73.1398681553
 10
-55.479547346
 20
73.1375830677
 10
-55.4362413193
 20
73.1313988228
 10
-55.391962015
 20
73.1213419077
 10
-55.3468990327
 20
73.1074553888
 10
-55.3012453349
 20
73.0897987306
 10
-55.2551964219
 20
73.0684475449
 10
-55.2089494818
 20
73.0434932626
  0
LWPOLYLINE
  5
21C
100
AcDbEntity
  8
RACCORDO
100
AcDbPolyline
 62
7
  6
CONTINUOUS
 90
11
 70
0
 10
-59.0626814393
 20
-6.6646325387
 10
-59.0616928323
 20
-6.6945691795
 10
-59.05873254
 20
-6.7231967839
 10
-59.0538171176
 20
-6.7503552547
 10
-59.0469740541
 20
-6.7758927108
 10
-59.0382416187
 20
-6.7996663363
 10
-59.0276686467
 20
-6.8215431794
 10
-59.0153142665
 20
-6.841400896
 10
-59.0012475688
 20
-6.8591284337
 10
-58.9855472202
 20
-6.8746266529
 10
-58.9683010234
 20
-6.8878088812
  0
LWPOLYLINE
  5
21D
100
AcDbEntity
  8
RACCORDO
100
AcDbPolyline
 62
7
  6
CONTINUOUS
 90
22
 70
0
 10
-59.4162348299
 20
-6.0522601036
 10
-59.4152285658
 20
-6.0834669646
 10
-59.4122947569
 20
-6.115334941
 10
-59.4074334032
 20
-6.1478640328
 10
-59.4005946654
 20
-6.1812638594
 10
-59.3918283829
 20
-6.2153248015
 10
-59.3812840733
 20
-6.2494180012
 10
-59.3689338699
 20
-6.2835206383
 10
-59.3548056396
 20
-6.3176555329
 10
-59.3391325005
 20
-6.3512622878
 10
-59.3218871106
 20
-6.3843360212
 10
-59.303096812
 20
-6.4168816148
 10
-59.2830767485
 20
-6.4483533167
 10
-59.2618090251
 20
-6.4787298798
 10
-59.2393115369
 20
-6.5080325512
 10
-59.2159531126
 20
-6.5357793204
 10
-59.1917003665
 20
-6.5619572738
 10
-59.1665866843
 20
-6.5865793248
 10
-59.1410810518
 20
-6.6092022038
 10
-59.1153397979
 20
-6.6296781542
 10
-59.0892065937
 20
-6.6481549325
 10
-59.0626814393
 20
-6.6646325387
  0
LINE
  5
21E
100
AcDbEntity
  8
RACCORDO
100
AcDbLine
 62
7
  6
CONTINUOUS
 10
-59.5626814393
 20
70.4102010455
 11
-59.5626814393
 21
-5.848122807
  0
LINE
  5
21F
100
AcDbEntity
  8
RACCORDO
100
AcDbLine
 62
7
  6
CONTINUOUS
 10
-59.4162348299
 20
70.2060637488
 11
-59.4162348299
 21
-6.0522601036
  0
LWPOLYLINE
  5
220
100
AcDbEntity
  8
RACCORDO
100
AcDbPolyline
 62
7
  6
CONTINUOUS
 90
22
 70
0
 10
-59.0626814393
 20
70.4101615905
 10
-59.0616928335
 20
70.4412398311
 10
-59.0587325445
 20
70.473285889
 10
-59.053817127
 20
70.5061205503
 10
-59.04697407
 20
70.5395601885
 10
-59.0382416421
 20
70.5734177978
 10
-59.0276686764
 20
70.6075040383
 10
-59.0153142987
 20
70.6416282887
 10
-59.0012475994
 20
70.6755997097
 10
-58.9855472454
 20
70.7092283163
 10
-58.9683010376
 20
70.7423260458
 10
-58.9496054241
 20
70.7747077992
 10
-58.9295649641
 20
70.806192475
 10
-58.908291734
 20
70.8366039964
 10
-58.8859047016
 20
70.8657722921
 10
-58.8625290667
 20
70.8935342397
 10
-58.8382955578
 20
70.919734582
 10
-58.8133396973
 20
70.9442267992
 10
-58.7878010451
 20
70.9668739253
 10
-58.7618224223
 20
70.9875493098
 10
-58.7355491133
 20
71.006137327
 10
-58.7091280488
 20
71.0225340257
  0
LWPOLYLINE
  5
221
100
AcDbEntity
  8
RACCORDO
100
AcDbPolyline
 62
7
  6
CONTINUOUS
 90
16
 70
0
 10
-59.5626814393
 20
70.4102010455
 10
-59.5606977464
 20
70.4716964822
 10
-59.5548773794
 20
70.5309435279
 10
-59.5454212169
 20
70.5878227517
 10
-59.5325601066
 20
70.6421467818
 10
-59.5164879425
 20
70.6939397651
 10
-59.497322825
 20
70.7433482645
 10
-59.475292086
 20
70.7901770475
 10
-59.4505782268
 20
70.8343847
 10
-59.4231550317
 20
70.8762221706
 10
-59.3931888691
 20
70.9155446918
 10
-59.3608789856
 20
70.9522031327
 10
-59.3261631445
 20
70.986325003
 10
-59.2891256618
 20
71.017817977
 10
-59.2500500742
 20
71.0464440661
 10
-59.2091522088
 20
71.0720752033
  0
LWPOLYLINE
  5
222
100
AcDbEntity
  8
RACCORDO
100
AcDbPolyline
 62
7
  6
CONTINUOUS
 90
13
 70
0
 10
-45.8536334357
 20
43.5863983605
 10
-45.8787551178
 20
43.5696423779
 10
-45.9094932395
 20
43.5453926517
 10
-45.9385885063
 20
43.5178358156
 10
-45.9657203703
 20
43.4869770441
 10
-45.990490588
 20
43.452955346
 10
-46.012508811
 20
43.4160506792
 10
-46.0315504924
 20
43.3764000233
 10
-46.0473796343
 20
43.3342096421
 10
-46.0597690105
 20
43.2898493547
 10
-46.0686184683
 20
43.2435191958
 10
-46.0738487802
 20
43.1952818992
 10
-46.0753858029
 20
43.1501373267
  0
LWPOLYLINE
  5
223
100
AcDbEntity
  8
RACCORDO
100
AcDbPolyline
 62
7
  6
CONTINUOUS
 90
19
 70
0
 10
-45.4962944607
 20
43.5561394377
 10
-45.5145615642
 20
43.5443124377
 10
-45.5326651597
 20
43.5307666571
 10
-45.5504705098
 20
43.5156029114
 10
-45.567845097
 20
43.4989340577
 10
-45.5846596098
 20
43.4808841552
 10
-45.6007889049
 20
43.4615875414
 10
-45.6161129392
 20
43.4411878326
 10
-45.6305176622
 20
43.4198368551
 10
-45.6438958659
 20
43.3976935152
 10
-45.6561479881
 20
43.374922604
 10
-45.6671828341
 20
43.3516936074
 10
-45.6769182619
 20
43.3281794464
 10
-45.6852818207
 20
43.3045551299
 10
-45.6922112721
 20
43.2809964801
 10
-45.6976550446
 20
43.2576788622
 10
-45.7015726348
 20
43.2347758235
 10
-45.7039349026
 20
43.2124578034
 10
-45.7047242808
 20
43.1908908948
  0
LINE
  5
224
100
AcDbEntity
  8
RACCORDO
100
AcDbLine
 62
7
  6
CONTINUOUS
 10
-45.8538356675
 20
43.5862736303
 11
-44.2160599611
 21
44.5990986943
  0
LINE
  5
225
100
AcDbEntity
  8
RACCORDO
100
AcDbLine
 62
7
  6
CONTINUOUS
 10
-45.496294461
 20
43.5561394378
 11
-43.8599610308
 21
44.5680725766
  0
LWPOLYLINE
  5
226
100
AcDbEntity
  8
RACCORDO
100
AcDbPolyline
 62
7
  6
CONTINUOUS
 90
12
 70
0
 10
-41.1462729964
 20
34.9663490478
 10
-41.1214069424
 20
34.9824034533
 10
-41.0988680654
 20
34.9992754064
 10
-41.0786563655
 20
35.0169649072
 10
-41.0606867596
 20
35.0355772847
 10
-41.0450443307
 20
35.0550072098
 10
-41.0319843276
 20
35.0749386954
 10
-41.021549105
 20
35.0953800266
 10
-41.0136963083
 20
35.1163229183
 10
-41.0085541219
 20
35.1374265273
 10
-41.006167048
 20
35.1586935019
 10
-41.005970974
 20
35.1668822876
  0
LINE
  5
227
100
AcDbEntity
  8
DRAFT
100
AcDbLine
 62
7
  6
CONTINUOUS
 10
-41.572755636
 20
34.3888215807
 11
-42.0865645231
 21
34.0593397067
  0
LINE
  5
228
100
AcDbEntity
  8
RACCORDO
100
AcDbLine
 62
7
  6
CONTINUOUS
 10
-41.1462729964
 20
34.9663490478
 11
-41.3826588143
 21
34.8250134414
  0
LINE
  5
229
100
AcDbEntity
  8
RACCORDO
100
AcDbLine
 62
7
  6
CONTINUOUS
 10
-41.1033711479
 20
34.6637562431
 11
-41.5744525955
 21
34.3917606212
  0
LINE
  5
22A
100
AcDbEntity
  8
RACCORDO
100
AcDbLine
 62
7
  6
CONTINUOUS
 10
-40.8912714223
 20
34.2963887424
 11
-41.826555611
 21
33.7563691643
  0
LINE
  5
22B
100
AcDbEntity
  8
RACCORDO
100
AcDbLine
 62
7
  6
CONTINUOUS
 10
-41.3850119096
 20
35.377517959
 11
-40.8193264847
 21
35.6927364003
  0
LINE
  5
22C
100
AcDbEntity
  8
RACCORDO
100
AcDbLine
 62
7
  6
CONTINUOUS
 10
-41.4484775978
 20
35.2394097856
 11
-40.8827921729
 21
35.5546282269
  0
LWPOLYLINE
  5
22D
100
AcDbEntity
  8
RACCORDO
100
AcDbPolyline
 62
7
  6
CONTINUOUS
 90
5
 70
0
 10
-46.0749185094
 20
1.3884692001
 10
-46.0714551427
 20
1.3396064241
 10
-46.0647340359
 20
1.2906566872
 10
-46.0548933326
 20
1.2417411277
 10
-46.0420777609
 20
1.1931148161
  0
LINE
  5
22E
100
AcDbEntity
  8
RACCORDO
100
AcDbLine
 62
7
  6
CONTINUOUS
 10
-46.075385793
 20
1.4139353538
 11
-46.0749185094
 21
1.3884692001
  0
LWPOLYLINE
  5
22F
100
AcDbEntity
  8
RACCORDO
100
AcDbPolyline
 62
7
  6
CONTINUOUS
 90
11
 70
0
 10
-46.0753918806
 20
1.4137990856
 10
-46.0753804513
 20
1.4122870964
 10
-46.0740384037
 20
1.3973637713
 10
-46.0704736565
 20
1.3825627673
 10
-46.0647127515
 20
1.3679942649
 10
-46.0567985758
 20
1.3537666911
 10
-46.0467900408
 20
1.3399859315
 10
-46.0347616617
 20
1.3267545642
 10
-46.0208029833
 20
1.3141710632
 10
-46.0050179031
 20
1.3023290681
 10
-45.987523915
 20
1.2913167045
  0
LWPOLYLINE
  5
230
100
AcDbEntity
  8
RACCORDO
100
AcDbPolyline
 62
7
  6
CONTINUOUS
 90
11
 70
0
 10
-46.0753918806
 20
43.1501198627
 10
-46.0753804511
 20
43.1486078606
 10
-46.0740384013
 20
43.133684534
 10
-46.0704736514
 20
43.1188835288
 10
-46.0647127436
 20
43.1043150265
 10
-46.0567985657
 20
43.090087454
 10
-46.046790029
 20
43.0763066969
 10
-46.0347616498
 20
43.0630753332
 10
-46.020802973
 20
43.0504918368
 10
-46.0050178967
 20
43.0386498471
 10
-45.987523915
 20
43.0276374894
  0
LINE
  5
231
100
AcDbEntity
  8
RACCORDO
100
AcDbLine
 62
7
  6
CONTINUOUS
 10
-46.0753918806
 20
43.1501198627
 11
-46.0753918806
 21
1.4137990856
  0
LINE
  5
232
100
AcDbEntity
  8
RACCORDO
100
AcDbLine
 62
7
  6
CONTINUOUS
 10
-45.987523915
 20
43.0276374894
 11
-45.987523915
 21
1.2913167045
  0
LINE
  5
233
100
AcDbEntity
  8
RACCORDO
100
AcDbLine
 62
7
  6
CONTINUOUS
 10
-44.3350731025
 20
2.4479358194
 11
-44.3350731025
 21
39.9628095964
  0
LINE
  5
234
100
AcDbEntity
  8
RACCORDO
100
AcDbLine
 62
7
  6
CONTINUOUS
 10
-43.9508681373
 20
2.4285276179
 11
-43.9508681373
 21
39.9434016801
  0
LWPOLYLINE
  5
235
100
AcDbEntity
  8
RACCORDO
100
AcDbPolyline
 62
7
  6
CONTINUOUS
 90
25
 70
0
 10
-45.987523915
 20
43.0276374894
 10
-45.9869097234
 20
43.0486999343
 10
-45.9851097629
 20
43.0688318371
 10
-45.9821240332
 20
43.0880331979
 10
-45.9779299536
 20
43.1063860955
 10
-45.972550105
 20
43.123808451
 10
-45.9660522301
 20
43.1400540282
 10
-45.9584225008
 20
43.1551002719
 10
-45.9496747453
 20
43.1689697372
 10
-45.9399181915
 20
43.1814838533
 10
-45.9291389086
 20
43.1926257522
 10
-45.9173508274
 20
43.2024123019
 10
-45.9047049683
 20
43.210715535
 10
-45.891188879
 20
43.2175156923
 10
-45.8768150118
 20
43.222832533
 10
-45.8617717449
 20
43.2265973671
 10
-45.8460520226
 20
43.2287889853
 10
-45.8296629006
 20
43.229428597
 10
-45.8128139246
 20
43.22851114
 10
-45.7954919042
 20
43.2260129618
 10
-45.7777100299
 20
43.2219577149
 10
-45.7597174187
 20
43.2164112952
 10
-45.7415971096
 20
43.2093956679
 10
-45.7232660636
 20
43.2008888678
 10
-45.7047242808
 20
43.1908908948
  0
LWPOLYLINE
  5
236
100
AcDbEntity
  8
RACCORDO
100
AcDbPolyline
 62
7
  6
CONTINUOUS
 90
22
 70
0
 10
-44.3350731025
 20
39.9628095964
 10
-44.3337007135
 20
40.0016359968
 10
-44.3300565226
 20
40.0380935583
 10
-44.3241405299
 20
40.0721822809
 10
-44.3158523834
 20
40.1040126475
 10
-44.3052924351
 20
40.1334741753
 10
-44.2927617408
 20
40.160235415
 10
-44.278242828
 20
40.1842398454
 10
-44.2617531692
 20
40.2055439878
 10
-44.2436462374
 20
40.2239859575
 10
-44.2239317817
 20
40.239523801
 10
-44.202600053
 20
40.2521994718
 10
-44.179975278
 20
40.2619769454
 10
-44.1560645753
 20
40.2688461247
 10
-44.1308608262
 20
40.2728171068
 10
-44.1046669013
 20
40.2738841593
 10
-44.0774898711
 20
40.2720488395
 10
-44.0493226649
 20
40.2673095901
 10
-44.0204469419
 20
40.2596560069
 10
-43.9909565884
 20
40.2490846218
 10
-43.960757718
 20
40.2355989028
 10
-43.9298503308
 20
40.21919885
  0
LWPOLYLINE
  5
237
100
AcDbEntity
  8
RACCORDO
100
AcDbPolyline
 62
7
  6
CONTINUOUS
 90
13
 70
0
 10
-43.9298503308
 20
1.7236054662
 10
-43.9287518604
 20
1.7491343775
 10
-43.9254678115
 20
1.7756673795
 10
-43.9200321983
 20
1.8029296811
 10
-43.9125013179
 20
1.8306389381
 10
-43.9029531666
 20
1.8585081793
 10
-43.8914866316
 20
1.8862487785
 10
-43.8782204682
 20
1.9135734399
 10
-43.8632920692
 20
1.9401991768
 10
-43.8468560404
 20
1.9658502435
 10
-43.8290826017
 20
1.990260987
 10
-43.8101558249
 20
2.013178598
 10
-43.7902717252
 20
2.034365732
  0
LWPOLYLINE
  5
238
100
AcDbEntity
  8
RACCORDO
100
AcDbPolyline
 62
7
  6
CONTINUOUS
 90
12
 70
0
 10
-41.1462729964
 20
28.5162338612
 10
-41.1214040001
 20
28.5322905043
 10
-41.0988629219
 20
28.5491645489
 10
-41.078649762
 20
28.5668559947
 10
-41.0606795458
 20
28.5854701538
 10
-41.0450372478
 20
28.6049017142
 10
-41.0319777916
 20
28.6248347404
 10
-41.0215434484
 20
28.6452774838
 10
-41.013691947
 20
28.666221693
 10
-41.0085513972
 20
28.6873266774
 10
-41.0061661986
 20
28.7085950907
 10
-41.005970914
 20
28.7167667862
  0
LINE
  5
239
100
AcDbEntity
  8
DRAFT
100
AcDbLine
 62
7
  6
CONTINUOUS
 10
-41.572755636
 20
28.2652945048
 11
-42.0865645231
 21
27.9358126307
  0
LINE
  5
23A
100
AcDbEntity
  8
RACCORDO
100
AcDbLine
 62
7
  6
CONTINUOUS
 10
-41.381439502
 20
28.3756272843
 11
-41.1462729964
 21
28.5162338612
  0
LINE
  5
23B
100
AcDbEntity
  8
RACCORDO
100
AcDbLine
 62
7
  6
CONTINUOUS
 10
-41.572755636
 20
27.8609782067
 11
-41.0314262103
 21
28.1735339963
  0
LINE
  5
23C
100
AcDbEntity
  8
RACCORDO
100
AcDbLine
 62
7
  6
CONTINUOUS
 10
-41.3948859854
 20
27.4738467553
 11
-40.8193264847
 21
27.8061664957
  0
LINE
  5
23D
100
AcDbEntity
  8
RACCORDO
100
AcDbLine
 62
7
  6
CONTINUOUS
 10
-41.826555611
 20
28.6192443399
 11
-40.8912714223
 21
29.1222099096
  0
LINE
  5
23E
100
AcDbEntity
  8
RACCORDO
100
AcDbLine
 62
7
  6
CONTINUOUS
 10
-41.8913179215
 20
28.4804599962
 11
-40.9560337328
 21
28.9834255659
  0
LWPOLYLINE
  5
23F
100
AcDbEntity
  8
RACCORDO
100
AcDbPolyline
 62
7
  6
CONTINUOUS
 90
19
 70
0
 10
-59.1056494772
 20
-6.7908237836
 10
-59.1513032458
 20
-6.7506875846
 10
-59.1952438049
 20
-6.7078276131
 10
-59.2368609726
 20
-6.662971139
 10
-59.2760189573
 20
-6.6164812168
 10
-59.3129208528
 20
-6.5682971089
 10
-59.347489202
 20
-6.5186495868
 10
-59.3796811058
 20
-6.4677189737
 10
-59.4095225217
 20
-6.415546631
 10
-59.4370048929
 20
-6.3621729362
 10
-59.4621129688
 20
-6.3075834886
 10
-59.4847267284
 20
-6.2519361143
 10
-59.5046868606
 20
-6.1955035181
 10
-59.5219449825
 20
-6.1382353407
 10
-59.5363600632
 20
-6.0802912521
 10
-59.5477241653
 20
-6.0222137009
 10
-59.5559498445
 20
-5.9641988695
 10
-59.5609758384
 20
-5.906142566
 10
-59.5626814393
 20
-5.848122807
  0
LWPOLYLINE
  5
240
100
AcDbEntity
  8
RACCORDO
100
AcDbPolyline
 62
7
  6
CONTINUOUS
 90
11
 70
0
 10
-46.0420777609
 20
1.1931148161
 10
-46.0263961539
 20
1.1448843831
 10
-46.0079384227
 20
1.0971698994
 10
-45.9868731049
 20
1.0503299561
 10
-45.9632982454
 20
1.0044957395
 10
-45.9372890535
 20
0.9598184263
 10
-45.9090698548
 20
0.91668704
 10
-45.8787243874
 20
0.8752357762
 10
-45.8463201402
 20
0.8356259004
 10
-45.8121009315
 20
0.7982031153
 10
-45.7761250453
 20
0.7631045051
  0
LWPOLYLINE
  5
241
100
AcDbEntity
  8
RACCORDO
100
AcDbPolyline
 62
7
  6
CONTINUOUS
 90
9
 70
0
 10
-43.9298503308
 20
40.21919885
 10
-43.9287518577
 20
40.1949384885
 10
-43.9254678148
 20
40.1721978686
 10
-43.9200322134
 20
40.1512125038
 10
-43.9125013471
 20
40.1321997289
 10
-43.9029532096
 20
40.1153564499
 10
-43.891486686
 20
40.1008571042
 10
-43.8782205295
 20
40.0888518544
 10
-43.8677280667
 20
40.0818792481
  0
LWPOLYLINE
  5
242
100
AcDbEntity
  8
RACCORDO
100
AcDbPolyline
 62
7
  6
CONTINUOUS
 90
7
 70
0
 10
-42.4425510743
 20
3.5889999949
 10
-42.4425335365
 20
3.5871189763
 10
-42.4424791562
 20
3.5852370405
 10
-42.4423879335
 20
3.5833541875
 10
-42.4422598684
 20
3.5814704172
 10
-42.4420949608
 20
3.5795857298
 10
-42.4418932108
 20
3.5777001252
  0
LINE
  5
243
100
AcDbEntity
  8
RACCORDO
100
AcDbLine
 62
7
  6
CONTINUOUS
 10
-42.4425510743
 20
39.2589999143
 11
-42.4425510743
 21
3.5889999949
  0
LINE
  5
244
100
AcDbEntity
  8
RACCORDO
100
AcDbLine
 62
7
  6
CONTINUOUS
 10
-42.3820101073
 20
39.2240443187
 11
-42.3820101073
 21
3.6178151643
  0
LINE
  5
245
100
AcDbEntity
  8
RACCORDO
100
AcDbLine
 62
7
  6
CONTINUOUS
 10
-42.0865645231
 20
3.7884011762
 11
-42.0865645231
 21
39.0534577412
  0
LINE
  5
246
100
AcDbEntity
  8
RACCORDO
100
AcDbLine
 62
7
  6
CONTINUOUS
 10
-41.826555611
 20
33.7563691643
 11
-41.826555611
 21
28.6192443399
  0
LINE
  5
247
100
AcDbEntity
  8
RACCORDO
100
AcDbLine
 62
7
  6
CONTINUOUS
 10
-41.826555611
 20
15.7940230749
 11
-41.826555611
 21
10.6568982505
  0
LINE
  5
248
100
AcDbEntity
  8
RACCORDO
100
AcDbLine
 62
7
  6
CONTINUOUS
 10
-41.572755636
 20
38.7567909293
 11
-41.572755636
 21
34.3888215807
  0
LINE
  5
249
100
AcDbEntity
  8
DRAFT
100
AcDbLine
 62
7
  6
CONTINUOUS
 10
-41.572755636
 20
28.2652945048
 11
-41.572755636
 21
16.4264754913
  0
LINE
  5
24A
100
AcDbEntity
  8
RACCORDO
100
AcDbLine
 62
7
  6
CONTINUOUS
 10
-41.572755636
 20
10.3029484153
 11
-41.572755636
 21
4.0847753997
  0
LINE
  5
24B
100
AcDbEntity
  8
RACCORDO
100
AcDbLine
 62
7
  6
CONTINUOUS
 10
-41.3948859854
 20
17.4207984201
 11
-41.3948859854
 21
27.4738467553
  0
LINE
  5
24C
100
AcDbEntity
  8
RACCORDO
100
AcDbLine
 62
7
  6
CONTINUOUS
 10
-41.3850119096
 20
3.8963449035
 11
-41.3850119096
 21
9.5057248811
  0
LINE
  5
24D
100
AcDbEntity
  8
RACCORDO
100
AcDbLine
 62
7
  6
CONTINUOUS
 10
-41.3850119096
 20
35.377517959
 11
-41.3850119096
 21
38.6483900547
  0
LINE
  5
24E
100
AcDbEntity
  8
RACCORDO
100
AcDbLine
 62
7
  6
CONTINUOUS
 10
-41.3584050308
 20
34.8395148325
 11
-41.3584050308
 21
34.8110096108
  0
LINE
  5
24F
100
AcDbEntity
  8
RACCORDO
100
AcDbLine
 62
7
  6
CONTINUOUS
 10
-41.3584050308
 20
16.8771687431
 11
-41.3584050308
 21
16.8486635213
  0
LINE
  5
250
100
AcDbEntity
  8
RACCORDO
100
AcDbLine
 62
7
  6
CONTINUOUS
 10
-41.2385653002
 20
28.4610520874
 11
-41.2385653002
 21
28.2931335108
  0
LINE
  5
251
100
AcDbEntity
  8
RACCORDO
100
AcDbLine
 62
7
  6
CONTINUOUS
 10
-41.218074931
 20
34.9234185114
 11
-41.218074931
 21
34.7299847699
  0
LINE
  5
252
100
AcDbEntity
  8
RACCORDO
100
AcDbLine
 62
7
  6
CONTINUOUS
 10
-41.218074931
 20
16.961072422
 11
-41.218074931
 21
16.7676386805
  0
LINE
  5
253
100
AcDbEntity
  8
RACCORDO
100
AcDbLine
 62
7
  6
CONTINUOUS
 10
-41.1462729964
 20
35.4078080847
 11
-41.1462729964
 21
34.9663490478
  0
LINE
  5
254
100
AcDbEntity
  8
RACCORDO
100
AcDbLine
 62
7
  6
CONTINUOUS
 10
-41.1462729964
 20
28.8811210463
 11
-41.1462729964
 21
28.5162338612
  0
LINE
  5
255
100
AcDbEntity
  8
RACCORDO
100
AcDbLine
 62
7
  6
CONTINUOUS
 10
-41.1462729964
 20
17.4505371712
 11
-41.1462729964
 21
17.0040029584
  0
LINE
  5
256
100
AcDbEntity
  8
RACCORDO
100
AcDbLine
 62
7
  6
CONTINUOUS
 10
-41.1462729964
 20
10.9187749568
 11
-41.1462729964
 21
10.2774990018
  0
LINE
  5
257
100
AcDbEntity
  8
RACCORDO
100
AcDbLine
 62
7
  6
CONTINUOUS
 10
-41.0059428966
 20
35.4860046112
 11
-41.0059428966
 21
35.1668925663
  0
LINE
  5
258
100
AcDbEntity
  8
RACCORDO
100
AcDbLine
 62
7
  6
CONTINUOUS
 10
-41.0059428966
 20
28.9565860327
 11
-41.0059428966
 21
28.7167773797
  0
LINE
  5
259
100
AcDbEntity
  8
RACCORDO
100
AcDbLine
 62
7
  6
CONTINUOUS
 10
-41.0059428966
 20
17.5260021576
 11
-41.0059428966
 21
17.2045464769
  0
LINE
  5
25A
100
AcDbEntity
  8
RACCORDO
100
AcDbLine
 62
7
  6
CONTINUOUS
 10
-41.0059428966
 20
10.9942399433
 11
-41.0059428966
 21
10.1944499002
  0
LINE
  5
25B
100
AcDbEntity
  8
RACCORDO
100
AcDbLine
 62
7
  6
CONTINUOUS
 10
-40.8912714223
 20
34.2963887424
 11
-40.8912714223
 21
29.1222099096
  0
LINE
  5
25C
100
AcDbEntity
  8
RACCORDO
100
AcDbLine
 62
7
  6
CONTINUOUS
 10
-40.8912714223
 20
16.334042653
 11
-40.8912714223
 21
11.1598638202
  0
LINE
  5
25D
100
AcDbEntity
  8
RACCORDO
100
AcDbLine
 62
7
  6
CONTINUOUS
 10
-40.8193264847
 20
4.2343658115
 11
-40.8193264847
 21
9.8437457891
  0
LINE
  5
25E
100
AcDbEntity
  8
RACCORDO
100
AcDbLine
 62
7
  6
CONTINUOUS
 10
-40.8193264847
 20
17.7303156938
 11
-40.8193264847
 21
27.8061664957
  0
LINE
  5
25F
100
AcDbEntity
  8
RACCORDO
100
AcDbLine
 62
7
  6
CONTINUOUS
 10
-40.8193264847
 20
35.6927364003
 11
-40.8193264847
 21
38.32177038
  0
LINE
  5
260
100
AcDbEntity
  8
RACCORDO
100
AcDbLine
 62
7
  6
CONTINUOUS
 10
-40.1134196038
 20
4.1083292575
 11
-40.1134196038
 21
3.8267840256
  0
LWPOLYLINE
  5
261
100
AcDbEntity
  8
RACCORDO
100
AcDbPolyline
 62
7
  6
CONTINUOUS
 90
7
 70
0
 10
-42.3820101073
 20
3.6178151643
 10
-42.3820133903
 20
3.6171035592
 10
-42.3819826133
 20
3.6164035723
 10
-42.3819177319
 20
3.6157151832
 10
-42.3818187013
 20
3.6150383717
 10
-42.3816854767
 20
3.6143731177
 10
-42.3815180127
 20
3.6137194012
  0
LWPOLYLINE
  5
262
100
AcDbEntity
  8
RACCORDO
100
AcDbPolyline
 62
7
  6
CONTINUOUS
 90
12
 70
0
 10
-40.1134196038
 20
4.1083288154
 10
-40.1136380442
 20
4.0997965585
 10
-40.1161012575
 20
4.078469546
 10
-40.1212946408
 20
4.0572932323
 10
-40.1291906577
 20
4.0363933417
 10
-40.1397367637
 20
4.0159029464
 10
-40.152872848
 20
3.9959288287
 10
-40.1685193054
 20
3.9765840065
 10
-40.1865544768
 20
3.9580019498
 10
-40.2068522156
 20
3.9402877212
 10
-40.229295897
 20
3.9235210871
 10
-40.2537497036
 20
3.907785739
  0
LWPOLYLINE
  5
263
100
AcDbEntity
  8
RACCORDO
100
AcDbPolyline
 62
7
  6
CONTINUOUS
 90
22
 70
0
 10
-42.4418932108
 20
3.5777001252
 10
-42.4445696829
 20
3.5621737158
 10
-42.4463929686
 20
3.5459651803
 10
-42.4473161304
 20
3.5290584703
 10
-42.4473135416
 20
3.5114711595
 10
-42.4463287665
 20
3.4931792935
 10
-42.4442644807
 20
3.4741118816
 10
-42.4411279139
 20
3.4542339553
 10
-42.4368417872
 20
3.4336308857
 10
-42.431178835
 20
3.4124266598
 10
-42.424076439
 20
3.3905533089
 10
-42.4155793548
 20
3.3682384328
 10
-42.4056617315
 20
3.3460787823
 10
-42.3942928489
 20
3.324176926
 10
-42.3816298432
 20
3.3027087049
 10
-42.3679935236
 20
3.2823698787
 10
-42.3535797521
 20
3.2634909195
 10
-42.3384074778
 20
3.2459711609
 10
-42.3225523964
 20
3.2298297803
 10
-42.3061101511
 20
3.2151531276
 10
-42.2891952766
 20
3.2020830697
 10
-42.2719121984
 20
3.1907239919
  0
LWPOLYLINE
  5
264
100
AcDbEntity
  8
RACCORDO
100
AcDbPolyline
 62
7
  6
CONTINUOUS
 90
11
 70
0
 10
26.0871861283
 20
-34.4853306251
 10
26.1063214582
 20
-34.4804336788
 10
26.126312663
 20
-34.4774682726
 10
26.1470728885
 20
-34.4764476836
 10
26.1685141617
 20
-34.4773752135
 10
26.1905403716
 20
-34.480246162
 10
26.2130598448
 20
-34.4850485118
 10
26.235988243
 20
-34.4917647373
 10
26.2592316122
 20
-34.5003701479
 10
26.2826861089
 20
-34.5108298074
 10
26.3062510212
 20
-34.5231013593
  0
LWPOLYLINE
  5
265
100
AcDbEntity
  8
0
100
AcDbPolyline
 62
7
  6
CONTINUOUS
 90
5
 70
0
 10
26.5760658372
 20
-34.2367981681
 10
26.6132612888
 20
-34.2323855771
 10
26.6508505737
 20
-34.2307688982
 10
26.6885554657
 20
-34.2319903578
 10
26.7261204696
 20
-34.2360598534
  0
LWPOLYLINE
  5
266
100
AcDbEntity
  8
RACCORDO
100
AcDbPolyline
 62
7
  6
CONTINUOUS
 90
22
 70
0
 10
54.7815103318
 20
-72.3968420645
 10
54.8080339561
 20
-72.4109945765
 10
54.8341662762
 20
-72.422695489
 10
54.8599072919
 20
-72.431944802
 10
54.8854136227
 20
-72.438775398
 10
54.9105286493
 20
-72.4431543944
 10
54.9347825132
 20
-72.4449831438
 10
54.9581415162
 20
-72.4442100124
 10
54.9806393567
 20
-72.4408866339
 10
55.0019072709
 20
-72.4350692618
 10
55.0219273586
 20
-72.4267159902
 10
55.0407175201
 20
-72.415868725
 10
55.0579626924
 20
-72.4027094379
 10
55.0736355258
 20
-72.3872016751
 10
55.08776337
 20
-72.3693818904
 10
55.1001132102
 20
-72.3495414171
 10
55.1106571682
 20
-72.3276256095
 10
55.1194231221
 20
-72.3036891133
 10
55.1262616925
 20
-72.2781871994
 10
55.1311230861
 20
-72.2512716249
 10
55.134057096
 20
-72.2227906326
 10
55.1350637224
 20
-72.1927442227
  0
LWPOLYLINE
  5
267
100
AcDbEntity
  8
RACCORDO
100
AcDbPolyline
 62
7
  6
CONTINUOUS
 90
22
 70
0
 10
55.1350637224
 20
-72.1927442227
 10
55.1624734073
 20
-72.2074286127
 10
55.1917070202
 20
-72.2208892631
 10
55.2226010747
 20
-72.2330508964
 10
55.2549827988
 20
-72.2438454999
 10
55.2886711008
 20
-72.2532127057
 10
55.323477582
 20
-72.2611001287
 10
55.3592075904
 20
-72.2674636592
 10
55.3956613094
 20
-72.2722677097
 10
55.4326348749
 20
-72.275485414
 10
55.4699215158
 20
-72.2770987775
 10
55.5073127101
 20
-72.2770987775
 10
55.544599351
 20
-72.275485414
 10
55.5815729165
 20
-72.2722677097
 10
55.6180266355
 20
-72.2674636592
 10
55.6537566439
 20
-72.2611001287
 10
55.6885631251
 20
-72.2532127057
 10
55.7222514271
 20
-72.2438454999
 10
55.7546331512
 20
-72.2330508964
 10
55.7855272057
 20
-72.2208892631
 10
55.8147608186
 20
-72.2074286127
 10
55.8421705035
 20
-72.1927442227
  0
LWPOLYLINE
  5
268
100
AcDbEntity
  8
RACCORDO
100
AcDbPolyline
 62
7
  6
CONTINUOUS
 90
4
 70
0
 10
-58.9591401287
 20
-6.8935009693
 10
-59.0096649723
 20
-6.8622669952
 10
-59.0585047259
 20
-6.8279914971
 10
-59.1056494772
 20
-6.7908237836
  0
LWPOLYLINE
  5
269
100
AcDbEntity
  8
RACCORDO
100
AcDbPolyline
 62
7
  6
CONTINUOUS
 90
22
 70
0
 10
-42.3815180127
 20
3.6137194012
 10
-42.3777885884
 20
3.602705109
 10
-42.373284821
 20
3.5909326352
 10
-42.3679369663
 20
3.5784057633
 10
-42.3616211095
 20
3.5652155678
 10
-42.3543265392
 20
3.5513098765
 10
-42.3461379122
 20
3.5364892223
 10
-42.336952219
 20
3.5207878514
 10
-42.3267127589
 20
3.5042840253
 10
-42.3155546129
 20
3.4868660746
 10
-42.3033317078
 20
3.468524962
 10
-42.2900479399
 20
3.4495144617
 10
-42.2761149425
 20
3.4301389846
 10
-42.2615469945
 20
3.4104723965
 10
-42.2463623102
 20
3.3907828861
 10
-42.231102271
 20
3.3716165328
 10
-42.2160564919
 20
3.3532401885
 10
-42.2011596393
 20
3.3356103952
 10
-42.1864775094
 20
3.3187538538
 10
-42.17210162
 20
3.3027595893
 10
-42.1581558507
 20
3.2877618975
 10
-42.1447534002
 20
3.2738583056
  0
LWPOLYLINE
  5
26A
100
AcDbEntity
  8
RACCORDO
100
AcDbPolyline
 62
7
  6
CONTINUOUS
 90
11
 70
0
 10
-33.9614011938
 20
-0.4858843195
 10
-33.964290939
 20
-0.4576034092
 10
-33.9690599428
 20
-0.4308971383
 10
-33.9757546711
 20
-0.4056371458
 10
-33.984328658
 20
-0.3819517926
 10
-33.9946425052
 20
-0.3602261619
 10
-34.0067246539
 20
-0.340492289
 10
-34.0205466628
 20
-0.3227181385
 10
-34.03588381
 20
-0.3071926875
 10
-34.0527608632
 20
-0.2939526952
 10
-34.0639548862
 20
-0.2868905135
  0
LINE
  5
26B
100
AcDbEntity
  8
RACCORDO
100
AcDbLine
 62
7
  6
CONTINUOUS
 10
-33.9603907071
 20
-0.5157398693
 11
-33.9614011938
 21
-0.4858843195
  0
LINE
  5
26C
100
AcDbEntity
  8
0
100
AcDbLine
 62
7
  6
CONTINUOUS
 10
-34.7038203049
 20
0.1030247586
 11
-34.70330855
 21
0.0873587294
  0
LINE
  5
26D
100
AcDbEntity
  8
RACCORDO
100
AcDbLine
 62
7
  6
CONTINUOUS
 10
-35.0210508789
 20
0.4782168222
 11
-35.0210508789
 21
0.0572977853
  0
LINE
  5
26E
100
AcDbEntity
  8
RACCORDO
100
AcDbLine
 62
7
  6
CONTINUOUS
 10
-33.9603907071
 20
-0.5422496558
 11
-33.9603907071
 21
-0.5157398693
  0
LWPOLYLINE
  5
26F
100
AcDbEntity
  8
RACCORDO
100
AcDbPolyline
 62
7
  6
CONTINUOUS
 90
12
 70
0
 10
-41.1462729964
 20
17.0040029584
 10
-41.1214069424
 20
17.0200573639
 10
-41.0988680654
 20
17.036929317
 10
-41.0786563655
 20
17.0546188177
 10
-41.0606867596
 20
17.0732311952
 10
-41.0450443307
 20
17.0926611204
 10
-41.0319843276
 20
17.1125926059
 10
-41.021549105
 20
17.1330339372
 10
-41.0136963083
 20
17.1539768289
 10
-41.0085541219
 20
17.1750804378
 10
-41.006167048
 20
17.1963474124
 10
-41.005970974
 20
17.2045361981
  0
LINE
  5
270
100
AcDbEntity
  8
DRAFT
100
AcDbLine
 62
7
  6
CONTINUOUS
 10
-41.572755636
 20
16.4264754913
 11
-42.0865645231
 21
16.0969936172
  0
LINE
  5
271
100
AcDbEntity
  8
DRAFT
100
AcDbLine
 62
7
  6
CONTINUOUS
 10
-41.572755636
 20
10.3029484153
 11
-42.0865645231
 21
9.9734665413
  0
LINE
  5
272
100
AcDbEntity
  8
RACCORDO
100
AcDbLine
 62
7
  6
CONTINUOUS
 10
-41.1462729964
 20
17.0040029584
 11
-41.3826588143
 21
16.862667352
  0
LINE
  5
273
100
AcDbEntity
  8
RACCORDO
100
AcDbLine
 62
7
  6
CONTINUOUS
 10
-41.1033711479
 20
16.7014101537
 11
-41.5744525955
 21
16.4294145317
  0
LINE
  5
274
100
AcDbEntity
  8
RACCORDO
100
AcDbLine
 62
7
  6
CONTINUOUS
 10
-40.8912714223
 20
16.334042653
 11
-41.826555611
 21
15.7940230749
  0
LINE
  5
275
100
AcDbEntity
  8
RACCORDO
100
AcDbLine
 62
7
  6
CONTINUOUS
 10
-41.3948859854
 20
17.4207984201
 11
-40.8193264847
 21
17.7303156938
  0
LINE
  5
276
100
AcDbEntity
  8
RACCORDO
100
AcDbLine
 62
7
  6
CONTINUOUS
 10
-41.459648296
 20
17.2820140763
 11
-40.8840887952
 21
17.59153135
  0
LWPOLYLINE
  5
277
100
AcDbEntity
  8
0
100
AcDbPolyline
 62
7
  6
CONTINUOUS
 90
4
 70
0
 10
32.5116141601
 20
-35.8611181859
 10
32.5250276992
 20
-35.8612031981
 10
32.5384547846
 20
-35.862764989
 10
32.551867232
 20
-35.8654968864
  0
LWPOLYLINE
  5
278
100
AcDbEntity
  8
0
100
AcDbPolyline
 62
7
  6
CONTINUOUS
 90
12
 70
0
 10
28.6368692207
 20
-36.5725829559
 10
28.7150394364
 20
-36.5872769027
 10
28.7352233805
 20
-36.5913125584
 10
28.7556532025
 20
-36.5956872722
 10
28.7762667254
 20
-36.6004746235
 10
28.7969971812
 20
-36.6057526034
 10
28.8179575257
 20
-36.6116621961
 10
28.8389175182
 20
-36.6182734721
 10
28.8593109468
 20
-36.6255017438
 10
28.8789957466
 20
-36.633340984
 10
28.8980275403
 20
-36.6418706955
 10
28.9161776273
 20
-36.6510336485
  0
LINE
  5
279
100
AcDbEntity
  8
0
100
AcDbLine
 62
7
  6
CONTINUOUS
 10
28.6180424929
 20
-36.5688827127
 11
28.6368692207
 21
-36.5725829559
  0
LINE
  5
27A
100
AcDbEntity
  8
RACCORDO
100
AcDbLine
 62
7
  6
CONTINUOUS
 10
-58.9591401287
 20
-6.8935009693
 11
54.8850516423
 21
-72.625710495
  0
LINE
  5
27B
100
AcDbEntity
  8
RACCORDO
100
AcDbLine
 62
7
  6
CONTINUOUS
 10
-59.0626814393
 20
-6.6646325387
 11
54.7815103318
 21
-72.3968420645
  0
LWPOLYLINE
  5
27C
100
AcDbEntity
  8
RACCORDO
100
AcDbPolyline
 62
7
  6
CONTINUOUS
 90
11
 70
0
 10
-59.4162348299
 20
-6.0522601036
 10
-59.4416672863
 20
-6.0364341048
 10
-59.4649803041
 20
-6.019554993
 10
-59.4860435072
 20
-6.0017171626
 10
-59.5047391004
 20
-5.9830203708
 10
-59.5209625309
 20
-5.9635691765
 10
-59.5346230725
 20
-5.9434723551
 10
-59.5456443289
 20
-5.9228422942
 10
-59.5539646616
 20
-5.9017943666
 10
-59.5595375378
 20
-5.8804462825
 10
-59.5623317906
 20
-5.8589174274
  0
LWPOLYLINE
  5
27D
100
AcDbEntity
  8
RACCORDO
100
AcDbPolyline
 62
7
  6
CONTINUOUS
 90
15
 70
0
 10
-43.9508681767
 20
39.9434016782
 10
-43.956482751
 20
39.9624077448
 10
-43.9604603288
 20
39.9803998487
 10
-43.9628628507
 20
39.9972925568
 10
-43.9637913499
 20
40.013007884
 10
-43.9632772282
 20
40.027482111
 10
-43.9612814544
 20
40.0406653683
 10
-43.9578588759
 20
40.0525090872
 10
-43.9530968353
 20
40.0629779043
 10
-43.9470050251
 20
40.0720525974
 10
-43.9396503147
 20
40.0797062567
 10
-43.9311079095
 20
40.0859321797
 10
-43.9213956082
 20
40.0907385893
 10
-43.9105794328
 20
40.0941150499
 10
-43.8987276064
 20
40.096059709
  0
LWPOLYLINE
  5
27E
100
AcDbEntity
  8
RACCORDO
100
AcDbPolyline
 62
7
  6
CONTINUOUS
 90
25
 70
0
 10
-27.7651115053
 20
-3.718397008
 10
-27.7658526652
 20
-3.6912395958
 10
-27.7680819858
 20
-3.6633128415
 10
-27.7717878483
 20
-3.6347355219
 10
-27.7769506085
 20
-3.6056284755
 10
-27.7835478364
 20
-3.5761161715
 10
-27.7915545549
 20
-3.5463261459
 10
-27.8009347896
 20
-3.5163850941
 10
-27.8116464725
 20
-3.4864202154
 10
-27.8236469936
 20
-3.4565607401
 10
-27.8368836212
 20
-3.426933717
 10
-27.8512980176
 20
-3.3976650204
 10
-27.8668315491
 20
-3.3688807055
 10
-27.8834167179
 20
-3.3407033891
 10
-27.900981119
 20
-3.3132528724
 10
-27.9194523052
 20
-3.2866472741
 10
-27.9387505548
 20
-3.2610001539
 10
-27.9587921217
 20
-3.2364207189
 10
-27.979493475
 20
-3.2130146818
 10
-28.0007694706
 20
-3.1908786098
 10
-28.0225245107
 20
-3.1701111121
 10
-28.0446553021
 20
-3.1508109692
 10
-28.0670630558
 20
-3.1330616859
 10
-28.0896545639
 20
-3.116933456
 10
-28.1123329865
 20
-3.1024929783
  0
LINE
  5
27F
100
AcDbEntity
  8
RACCORDO
100
AcDbLine
 62
7
  6
CONTINUOUS
 10
-28.1945637357
 20
-4.4630387713
 11
-28.1945637357
 21
-4.4775697482
  0
LINE
  5
280
100
AcDbEntity
  8
DRAFT
100
AcDbLine
 62
7
  6
CONTINUOUS
 10
-28.1621151014
 20
-4.3520173779
 11
-28.1621151014
 21
-3.9029657699
  0
LINE
  5
281
100
AcDbEntity
  8
0
100
AcDbLine
 62
7
  6
CONTINUOUS
 10
-27.4053868173
 20
-3.524948712
 11
-27.4053868173
 21
-3.8760499373
  0
LINE
  5
282
100
AcDbEntity
  8
0
100
AcDbLine
 62
7
  6
CONTINUOUS
 10
-27.2527160025
 20
-3.3172798194
 11
-27.2527160025
 21
-3.7816360154
  0
LINE
  5
283
100
AcDbEntity
  8
0
100
AcDbLine
 62
7
  6
CONTINUOUS
 10
-26.9102531253
 20
-1.5833555583
 11
-26.9102531253
 21
-2.0661771537
  0
LINE
  5
284
100
AcDbEntity
  8
0
100
AcDbLine
 62
7
  6
CONTINUOUS
 10
-26.8588820904
 20
-1.554173973
 11
-26.8588820904
 21
-2.0356352758
  0
LWPOLYLINE
  5
285
100
AcDbEntity
  8
0
100
AcDbPolyline
 62
7
  6
CONTINUOUS
 90
12
 70
0
 10
-27.2527160027
 20
-3.3172865538
 10
-27.2532771191
 20
-3.3309530776
 10
-27.2564982871
 20
-3.3527220936
 10
-27.2625597529
 20
-3.3742830559
 10
-27.2714257726
 20
-3.3955146804
 10
-27.283046173
 20
-3.4162984053
 10
-27.2973647796
 20
-3.4365285236
 10
-27.3142926635
 20
-3.4560751387
 10
-27.3336943841
 20
-3.4747922244
 10
-27.35543123
 20
-3.4925669039
 10
-27.3793779725
 20
-3.5093153801
 10
-27.4053868173
 20
-3.524948712
  0
LINE
  5
286
100
AcDbEntity
  8
0
100
AcDbLine
 62
7
  6
CONTINUOUS
 10
-33.7184685885
 20
-0.694796904
 11
-33.7129033337
 21
-0.6851575999
  0
LINE
  5
287
100
AcDbEntity
  8
0
100
AcDbLine
 62
7
  6
CONTINUOUS
 10
-33.4654159603
 20
-0.6647320338
 11
-33.3593499431
 21
-0.4810203032
  0
LINE
  5
288
100
AcDbEntity
  8
0
100
AcDbLine
 62
7
  6
CONTINUOUS
 10
-33.1118625697
 20
-0.4605947371
 11
-33.0057965525
 21
-0.2768830066
  0
LINE
  5
289
100
AcDbEntity
  8
0
100
AcDbLine
 62
7
  6
CONTINUOUS
 10
-32.7583091791
 20
-0.2564574404
 11
-32.652243162
 21
-0.0727457099
  0
LINE
  5
28A
100
AcDbEntity
  8
0
100
AcDbLine
 62
7
  6
CONTINUOUS
 10
-32.4047557885
 20
-0.0523201438
 11
-32.2986897714
 21
0.1313915867
  0
LINE
  5
28B
100
AcDbEntity
  8
0
100
AcDbLine
 62
7
  6
CONTINUOUS
 10
-32.0512023979
 20
0.1518171529
 11
-31.9451363808
 21
0.3355288834
  0
LINE
  5
28C
100
AcDbEntity
  8
0
100
AcDbLine
 62
7
  6
CONTINUOUS
 10
-31.6976490073
 20
0.3559544496
 11
-31.5915829902
 21
0.5396661801
  0
LINE
  5
28D
100
AcDbEntity
  8
0
100
AcDbLine
 62
7
  6
CONTINUOUS
 10
-31.3440956168
 20
0.5600917462
 11
-31.2380295996
 21
0.7438034767
  0
LINE
  5
28E
100
AcDbEntity
  8
RACCORDO
100
AcDbLine
 62
7
  6
CONTINUOUS
 10
-43.9508681373
 20
2.4285276179
 11
-42.4418932108
 21
3.5777001252
  0
LINE
  5
28F
100
AcDbEntity
  8
RACCORDO
100
AcDbLine
 62
7
  6
CONTINUOUS
 10
-43.7902649035
 20
2.0343617933
 11
-42.271911909
 21
3.1907242101
  0
LWPOLYLINE
  5
290
100
AcDbEntity
  8
RACCORDO
100
AcDbPolyline
 62
7
  6
CONTINUOUS
 90
10
 70
0
 10
-42.3815224531
 20
3.6137219628
 10
-42.3878304331
 20
3.6094562893
 10
-42.3942432149
 20
3.6052535782
 10
-42.400758827
 20
3.6011151243
 10
-42.4073752667
 20
3.5970422027
 10
-42.4140905002
 20
3.5930360685
 10
-42.4209024632
 20
3.5890979561
 10
-42.4278090618
 20
3.5852290792
 10
-42.4348081728
 20
3.5814306299
 10
-42.441897645
 20
3.577703779
  0
LWPOLYLINE
  5
291
100
AcDbEntity
  8
RACCORDO
100
AcDbPolyline
 62
7
  6
CONTINUOUS
 90
10
 70
0
 10
-42.1380289172
 20
3.2688555606
 10
-42.1510467697
 20
3.2607997204
 10
-42.164038575
 20
3.2522055724
 10
-42.1769866971
 20
3.243084783
 10
-42.1898735595
 20
3.2334497333
 10
-42.2026816687
 20
3.2233135024
 10
-42.2153936381
 20
3.2126898499
 10
-42.2279922119
 20
3.2015931971
 10
-42.2404602879
 20
3.1900386072
 10
-42.2527809411
 20
3.1780417651
  0
LINE
  5
292
100
AcDbEntity
  8
RACCORDO
100
AcDbLine
 62
7
  6
CONTINUOUS
 10
-41.572755636
 20
9.8877586965
 11
-41.031458519
 21
10.2112065615
  0
LINE
  5
293
100
AcDbEntity
  8
RACCORDO
100
AcDbLine
 62
7
  6
CONTINUOUS
 10
-41.3850119096
 20
9.5057248811
 11
-40.8193264847
 21
9.8437457891
  0
LINE
  5
294
100
AcDbEntity
  8
RACCORDO
100
AcDbLine
 62
7
  6
CONTINUOUS
 10
-41.3850119096
 20
3.8963449035
 11
-40.8193264847
 21
4.2343658115
  0
LINE
  5
295
100
AcDbEntity
  8
RACCORDO
100
AcDbLine
 62
7
  6
CONTINUOUS
 10
-41.826555611
 20
10.6568982505
 11
-40.8912714223
 21
11.1598638202
  0
LINE
  5
296
100
AcDbEntity
  8
RACCORDO
100
AcDbLine
 62
7
  6
CONTINUOUS
 10
-41.8913179215
 20
10.5181139067
 11
-40.9560337328
 21
11.0210794765
  0
LWPOLYLINE
  5
297
100
AcDbEntity
  8
RACCORDO
100
AcDbPolyline
 62
7
  6
CONTINUOUS
 90
11
 70
0
 10
10.1772835516
 20
-25.2991522753
 10
10.1964188815
 20
-25.2942553289
 10
10.2164100863
 20
-25.2912899227
 10
10.2371703118
 20
-25.2902693338
 10
10.258611585
 20
-25.2911968636
 10
10.2806377949
 20
-25.2940678121
 10
10.3031572681
 20
-25.2988701619
 10
10.3260856663
 20
-25.3055863874
 10
10.3493290356
 20
-25.3141917981
 10
10.3727835323
 20
-25.3246514575
 10
10.3963484445
 20
-25.3369230094
  0
LWPOLYLINE
  5
298
100
AcDbEntity
  8
0
100
AcDbPolyline
 62
7
  6
CONTINUOUS
 90
5
 70
0
 10
10.6661632605
 20
-25.0506198183
 10
10.7033587121
 20
-25.0462072273
 10
10.740947997
 20
-25.0445905483
 10
10.778652889
 20
-25.045812008
 10
10.8162178929
 20
-25.0498815036
  0
LWPOLYLINE
  5
299
100
AcDbEntity
  8
0
100
AcDbPolyline
 62
7
  6
CONTINUOUS
 90
6
 70
0
 10
26.7261204696
 20
-34.2360598534
 10
26.7632993499
 20
-34.2429608803
 10
26.7998638475
 20
-34.252656042
 10
26.8356402113
 20
-34.2651071485
 10
26.870606438
 20
-34.2803443577
 10
26.9035493752
 20
-34.2977628763
  0
LWPOLYLINE
  5
29A
100
AcDbEntity
  8
0
100
AcDbPolyline
 62
7
  6
CONTINUOUS
 90
4
 70
0
 10
32.551867232
 20
-35.8654968864
 10
32.5651672892
 20
-35.8693393923
 10
32.5782793393
 20
-35.8742837543
 10
32.591233749
 20
-35.8801159728
  0
LWPOLYLINE
  5
29B
100
AcDbEntity
  8
RACCORDO
100
AcDbPolyline
 62
7
  6
CONTINUOUS
 90
13
 70
0
 10
37.7380313471
 20
-47.4787520134
 10
37.7782257674
 20
-47.5001546824
 10
37.8225991248
 20
-47.5197088023
 10
37.8671275737
 20
-47.5351770915
 10
37.91171705
 20
-47.546598234
 10
37.9561449148
 20
-47.5539603848
 10
37.999978161
 20
-47.5572737756
 10
38.042921288
 20
-47.556640951
 10
38.0847436944
 20
-47.5521892481
 10
38.1250070061
 20
-47.5441156528
 10
38.1633917834
 20
-47.5326947387
 10
38.1997345445
 20
-47.5182024332
 10
38.2267957764
 20
-47.5048253698
  0
LWPOLYLINE
  5
29C
100
AcDbEntity
  8
RACCORDO
100
AcDbPolyline
 62
7
  6
CONTINUOUS
 90
4
 70
0
 10
-45.7384296798
 20
0.7304759072
 10
-45.6991846798
 20
0.7005842216
 10
-45.6584369015
 20
0.6736099454
 10
-45.6424864592
 20
0.6641141615
  0
LINE
  5
29D
100
AcDbEntity
  8
RACCORDO
100
AcDbLine
 62
7
  6
CONTINUOUS
 10
-45.7761250453
 20
0.7631045051
 11
-45.7384296798
 21
0.7304759072
  0
LWPOLYLINE
  5
29E
100
AcDbEntity
  8
RACCORDO
100
AcDbPolyline
 62
7
  6
CONTINUOUS
 90
6
 70
0
 10
-42.1447534002
 20
3.2738583056
 10
-42.1437809665
 20
3.2729212256
 10
-42.1427491495
 20
3.2720253936
 10
-42.1416579923
 20
3.2711708605
 10
-42.1405075387
 20
3.270357677
 10
-42.1392978323
 20
3.2695858935
  0
LINE
  5
29F
100
AcDbEntity
  8
DRAFT
100
AcDbLine
 62
7
  6
CONTINUOUS
 10
-23.321340355
 20
-7.0318730981
 11
-23.321340355
 21
-7.2040929999
  0
LINE
  5
2A0
100
AcDbEntity
  8
DRAFT
100
AcDbLine
 62
7
  6
CONTINUOUS
 10
-22.3860561663
 20
-7.2379898081
 11
-22.3860561663
 21
-6.49185352
  0
LINE
  5
2A1
100
AcDbEntity
  8
RACCORDO
100
AcDbLine
 62
7
  6
CONTINUOUS
 10
-19.1111483022
 20
-8.7078371659
 11
-19.1111483022
 21
-9.1288805645
  0
LINE
  5
2A2
100
AcDbEntity
  8
0
100
AcDbLine
 62
7
  6
CONTINUOUS
 10
-28.515668492
 20
-2.2978304071
 11
-28.4096024748
 21
-2.1141186766
  0
LINE
  5
2A3
100
AcDbEntity
  8
0
100
AcDbLine
 62
7
  6
CONTINUOUS
 10
-28.1621151014
 20
-2.0936931104
 11
-28.0560490842
 21
-1.9099813799
  0
LINE
  5
2A4
100
AcDbEntity
  8
0
100
AcDbLine
 62
7
  6
CONTINUOUS
 10
-27.8085617108
 20
-1.8895558138
 11
-27.7024956936
 21
-1.7058440832
  0
LINE
  5
2A5
100
AcDbEntity
  8
0
100
AcDbLine
 62
7
  6
CONTINUOUS
 10
-27.4550083202
 20
-1.6854185171
 11
-27.3489423031
 21
-1.5017067866
  0
LINE
  5
2A6
100
AcDbEntity
  8
0
100
AcDbLine
 62
7
  6
CONTINUOUS
 10
-27.6583193095
 20
-2.6339325298
 11
-27.4636454181
 21
-2.3912504271
  0
LINE
  5
2A7
100
AcDbEntity
  8
RACCORDO
100
AcDbLine
 62
7
  6
CONTINUOUS
 10
-35.9402896945
 20
0.7526305349
 11
-35.3746042695
 21
1.0906514429
  0
LINE
  5
2A8
100
AcDbEntity
  8
RACCORDO
100
AcDbLine
 62
7
  6
CONTINUOUS
 10
-35.3793012934
 20
0.2641470847
 11
-35.0210508789
 21
0.4782168222
  0
LINE
  5
2A9
100
AcDbEntity
  8
RACCORDO
100
AcDbLine
 62
7
  6
CONTINUOUS
 10
-42.3820101073
 20
3.6178151643
 11
-41.572755636
 21
4.0847753997
  0
LINE
  5
2AA
100
AcDbEntity
  8
RACCORDO
100
AcDbLine
 62
7
  6
CONTINUOUS
 10
-40.6072492463
 20
4.5200649068
 11
-40.8193264847
 21
4.3976137469
  0
LINE
  5
2AB
100
AcDbEntity
  8
RACCORDO
100
AcDbLine
 62
7
  6
CONTINUOUS
 10
-42.1380289172
 20
3.2688555606
 11
-41.3609143212
 21
3.7178554798
  0
LWPOLYLINE
  5
2AC
100
AcDbEntity
  8
RACCORDO
100
AcDbPolyline
 62
7
  6
CONTINUOUS
 90
10
 70
0
 10
-42.3820101073
 20
3.6178151643
 10
-42.3883401125
 20
3.6143468217
 10
-42.3947739893
 20
3.6109427947
 10
-42.401309778
 20
3.6076041201
 10
-42.4079454877
 20
3.6043318151
 10
-42.414679097
 20
3.6011268763
 10
-42.4215085549
 20
3.5979902801
 10
-42.428431781
 20
3.5949229818
 10
-42.4354466664
 20
3.5919259157
 10
-42.4425510743
 20
3.5889999949
  0
LWPOLYLINE
  5
2AD
100
AcDbEntity
  8
RACCORDO
100
AcDbPolyline
 62
7
  6
CONTINUOUS
 90
10
 70
0
 10
-42.1447533973
 20
3.2738584895
 10
-42.1591057748
 20
3.2666423591
 10
-42.1734470122
 20
3.2588932572
 10
-42.1877574973
 20
3.2506217809
 10
-42.2020176601
 20
3.2418392416
 10
-42.2162079994
 20
3.2325576497
 10
-42.2303091095
 20
3.2227896978
 10
-42.2443017066
 20
3.212548744
 10
-42.2581666555
 20
3.201848793
 10
-42.2718849955
 20
3.1907044771
  0
LWPOLYLINE
  5
2AE
100
AcDbEntity
  8
0
100
AcDbPolyline
 62
7
  6
CONTINUOUS
 90
6
 70
0
 10
10.8162178929
 20
-25.0498815036
 10
10.8533967732
 20
-25.0567825304
 10
10.8899612708
 20
-25.0664776921
 10
10.9257376346
 20
-25.0789287987
 10
10.9607038613
 20
-25.0941660078
 10
10.9936467985
 20
-25.1115845265
  0
LWPOLYLINE
  5
2AF
100
AcDbEntity
  8
ASSI
100
AcDbPolyline
 62
7
  6
CONTINUOUS
 90
8
 70
0
 10
16.642955939
 20
-26.679585807
 10
16.6297752499
 20
-26.6767689222
 10
16.6171046465
 20
-26.6752145598
 10
16.6049642981
 20
-26.6748545917
 10
16.5934317686
 20
-26.6756099469
 10
16.5825477748
 20
-26.6774263145
 10
16.5723208083
 20
-26.6802797137
 10
16.5627665434
 20
-26.6841322701
  0
LWPOLYLINE
  5
2B0
100
AcDbEntity
  8
0
100
AcDbPolyline
 62
7
  6
CONTINUOUS
 90
5
 70
0
 10
-1.6784720282
 20
-23.5362359322
 10
-1.679130241
 20
-23.5360839977
 10
-1.6995513159
 20
-23.5296075216
 10
-1.7210206764
 20
-23.5212083472
 10
-1.743579444
 20
-23.5107950038
  0
LWPOLYLINE
  5
2B1
100
AcDbEntity
  8
0
100
AcDbPolyline
 62
7
  6
CONTINUOUS
 90
8
 70
0
 10
-1.5873560904
 20
-23.906837906
 10
-1.5808465931
 20
-23.9089559971
 10
-1.5743195234
 20
-23.9101980714
 10
-1.5677748812
 20
-23.9105641288
 10
-1.5612248483
 20
-23.9098938119
 10
-1.554657243
 20
-23.9083474781
 10
-1.5480355194
 20
-23.9064061999
 10
-1.5413539644
 20
-23.9041608113
  0
LWPOLYLINE
  5
2B2
100
AcDbEntity
  8
0
100
AcDbPolyline
 62
7
  6
CONTINUOUS
 90
10
 70
0
 10
-2.0857742593
 20
-23.0071043387
 10
-2.0583583763
 20
-23.017673521
 10
-2.0310702003
 20
-23.0292004876
 10
-2.0039097312
 20
-23.0416852384
 10
-1.9769014629
 20
-23.0551093124
 10
-1.9500209017
 20
-23.0694911706
 10
-1.9231945657
 20
-23.0848861964
 10
-1.8963979611
 20
-23.1013128511
 10
-1.8696555817
 20
-23.1187526734
 10
-1.8429674277
 20
-23.1372056634
  0
LWPOLYLINE
  5
2B3
100
AcDbEntity
  8
0
100
AcDbPolyline
 62
7
  6
CONTINUOUS
 90
11
 70
0
 10
26.8960229309
 20
-34.2936705429
 10
26.8763217914
 20
-34.2851425827
 10
26.855386272
 20
-34.2790545932
 10
26.8333389276
 20
-34.2754454716
 10
26.8103211629
 20
-34.2743361887
 10
26.7864550983
 20
-34.2757281062
 10
26.7618788063
 20
-34.2796088133
 10
26.7367698728
 20
-34.2859393152
 10
26.7112828122
 20
-34.2946623944
 10
26.6855446552
 20
-34.3057166816
 10
26.6596957678
 20
-34.3190260915
  0
LWPOLYLINE
  5
2B4
100
AcDbEntity
  8
0
100
AcDbPolyline
 62
7
  6
CONTINUOUS
 90
11
 70
0
 10
10.9861203542
 20
-25.107492193
 10
10.9664192147
 20
-25.0989642328
 10
10.9454836953
 20
-25.0928762433
 10
10.9234363509
 20
-25.0892671217
 10
10.9004185862
 20
-25.0881578388
 10
10.8765525216
 20
-25.0895497563
 10
10.8519762296
 20
-25.0934304634
 10
10.8268672961
 20
-25.0997609653
 10
10.8013802355
 20
-25.1084840446
 10
10.7756420785
 20
-25.1195383318
 10
10.7497931911
 20
-25.1328477417
  0
LINE
  5
2B5
100
AcDbEntity
  8
0
100
AcDbLine
 62
7
  6
CONTINUOUS
 10
-1.743579444
 20
-23.5107950038
 11
-1.7672276187
 21
-23.4983674916
  0
LWPOLYLINE
  5
2B6
100
AcDbEntity
  8
RACCORDO
100
AcDbPolyline
 62
7
  6
CONTINUOUS
 90
16
 70
0
 10
-44.3350731025
 20
2.4479358194
 10
-44.3144370954
 20
2.4370813513
 10
-44.2921430356
 20
2.4273813694
 10
-44.2683839542
 20
2.4189198602
 10
-44.2433655675
 20
2.4117700871
 10
-44.217304495
 20
2.4059939558
 10
-44.1904263845
 20
2.4016414783
 10
-44.1629639578
 20
2.3987503404
 10
-44.1351549962
 20
2.3973455747
 10
-44.1072402813
 20
2.3974393442
 10
-44.0794615104
 20
2.399030837
 10
-44.0520592037
 20
2.4021062733
 10
-44.0252706218
 20
2.4066390248
 10
-43.9993277116
 20
2.4125898449
 10
-43.9744550976
 20
2.419907209
 10
-43.9508681373
 20
2.4285277602
  0
LWPOLYLINE
  5
2B7
100
AcDbEntity
  8
RACCORDO
100
AcDbPolyline
 62
7
  6
CONTINUOUS
 90
12
 70
0
 10
29.5756554206
 20
-37.031603913
 10
29.5684572522
 20
-37.0276748019
 10
29.5488489479
 20
-37.019110908
 10
29.5280046511
 20
-37.0130140935
 10
29.5059442414
 20
-37.009344678
 10
29.483026383
 20
-37.0081623198
 10
29.4592370595
 20
-37.0095076746
 10
29.4345902872
 20
-37.0133400868
 10
29.4094867804
 20
-37.0195972478
 10
29.3840601104
 20
-37.0282583883
 10
29.3581767058
 20
-37.0393442778
 10
29.3318365665
 20
-37.0528549162
  0
LINE
  5
2B8
100
AcDbEntity
  8
0
100
AcDbLine
 62
7
  6
CONTINUOUS
 10
28.9161776273
 20
-36.6510336485
 11
28.927233519
 21
-36.6571809581
  0
LINE
  5
2B9
100
AcDbEntity
  8
RACCORDO
100
AcDbLine
 62
7
  6
CONTINUOUS
 10
-45.6425994904
 20
0.6641723096
 11
37.7380120166
 21
-47.4787477701
  0
LINE
  5
2BA
100
AcDbEntity
  8
0
100
AcDbLine
 62
7
  6
CONTINUOUS
 10
-6.5930439147
 20
-21.827034025
 11
-6.3199126068
 21
-21.984736619
  0
LINE
  5
2BB
100
AcDbEntity
  8
0
100
AcDbLine
 62
7
  6
CONTINUOUS
 10
-5.727620875
 20
-22.3267184418
 11
-5.4176846591
 21
-22.5056717285
  0
LINE
  5
2BC
100
AcDbEntity
  8
0
100
AcDbLine
 62
7
  6
CONTINUOUS
 10
-5.2508364501
 20
-22.6020077932
 11
-4.9543288991
 21
-22.7732075371
  0
LINE
  5
2BD
100
AcDbEntity
  8
0
100
AcDbLine
 62
7
  6
CONTINUOUS
 10
-4.5238521902
 20
-23.0217593936
 11
-4.480384215
 21
-23.0468572577
  0
LINE
  5
2BE
100
AcDbEntity
  8
0
100
AcDbLine
 62
7
  6
CONTINUOUS
 10
-4.0481927722
 20
-23.2963991802
 11
-3.7449931626
 21
-23.4714628348
  0
LINE
  5
2BF
100
AcDbEntity
  8
0
100
AcDbLine
 62
7
  6
CONTINUOUS
 10
-3.6963251242
 20
-23.4995631502
 11
-3.3897519081
 21
-23.6765746829
  0
LINE
  5
2C0
100
AcDbEntity
  8
0
100
AcDbLine
 62
7
  6
CONTINUOUS
 10
-2.8018576734
 20
-24.016017446
 11
-2.4751983821
 21
-24.2046264268
  0
LINE
  5
2C1
100
AcDbEntity
  8
0
100
AcDbLine
 62
7
  6
CONTINUOUS
 10
-2.3841860489
 20
-24.2571761321
 11
-2.0754972517
 21
-24.4354091748
  0
LINE
  5
2C2
100
AcDbEntity
  8
0
100
AcDbLine
 62
7
  6
CONTINUOUS
 10
-1.6008731947
 20
-24.7094511568
 11
-1.3027508983
 21
-24.8815832344
  0
LINE
  5
2C3
100
AcDbEntity
  8
RACCORDO
100
AcDbLine
 62
7
  6
CONTINUOUS
 10
-45.7047242808
 20
0.8014933703
 11
-6.605655181
 21
-21.7738191015
  0
LINE
  5
2C4
100
AcDbEntity
  8
RACCORDO
100
AcDbLine
 62
7
  6
CONTINUOUS
 10
-6.2801357334
 20
-21.9617699509
 11
-5.727620875
 21
-22.2807851055
  0
LINE
  5
2C5
100
AcDbEntity
  8
RACCORDO
100
AcDbLine
 62
7
  6
CONTINUOUS
 10
-5.3779077857
 20
-22.4827050603
 11
-5.2472444789
 21
-22.558148416
  0
LINE
  5
2C6
100
AcDbEntity
  8
RACCORDO
100
AcDbLine
 62
7
  6
CONTINUOUS
 10
-4.9145520257
 20
-22.7502408689
 11
-4.5387704707
 21
-22.9672124291
  0
LINE
  5
2C7
100
AcDbEntity
  8
RACCORDO
100
AcDbLine
 62
7
  6
CONTINUOUS
 10
-4.4406073417
 20
-23.0238905896
 11
-4.0508163967
 21
-23.2489509959
  0
LINE
  5
2C8
100
AcDbEntity
  8
RACCORDO
100
AcDbLine
 62
7
  6
CONTINUOUS
 10
-3.7052162892
 20
-23.4484961666
 11
-3.6838473429
 21
-23.4608343284
  0
LINE
  5
2C9
100
AcDbEntity
  8
RACCORDO
100
AcDbLine
 62
7
  6
CONTINUOUS
 10
-3.3499750347
 20
-23.6536080147
 11
-2.8126329404
 21
-23.9638626055
  0
LINE
  5
2CA
100
AcDbEntity
  8
RACCORDO
100
AcDbLine
 62
7
  6
CONTINUOUS
 10
-2.4354215087
 20
-24.1816597586
 11
-2.3846041789
 21
-24.2110010479
  0
LINE
  5
2CB
100
AcDbEntity
  8
RACCORDO
100
AcDbLine
 62
7
  6
CONTINUOUS
 10
-2.0357200971
 20
-24.4124423442
 11
-1.6125654276
 21
-24.656766547
  0
LINE
  5
2CC
100
AcDbEntity
  8
RACCORDO
100
AcDbLine
 62
7
  6
CONTINUOUS
 10
-1.2629737437
 20
-24.8586164039
 11
37.675887233
 21
-47.3414267133
  0
LINE
  5
2CD
100
AcDbEntity
  8
0
100
AcDbLine
 62
7
  6
CONTINUOUS
 10
-3.3042287571
 20
-23.3836911548
 11
-2.8821475271
 21
-23.6273955672
  0
LINE
  5
2CE
100
AcDbEntity
  8
0
100
AcDbLine
 62
7
  6
CONTINUOUS
 10
-2.9440879598
 20
-23.3267893916
 11
-3.2408295631
 21
-23.1554545088
  0
LINE
  5
2CF
100
AcDbEntity
  8
0
100
AcDbLine
 62
7
  6
CONTINUOUS
 10
-2.0754972517
 20
-23.7644707154
 11
-1.9093170361
 21
-23.8604210891
  0
LINE
  5
2D0
100
AcDbEntity
  8
0
100
AcDbLine
 62
7
  6
CONTINUOUS
 10
-2.9806435497
 20
-23.1423728148
 11
-3.0994082069
 21
-23.0737995902
  0
LINE
  5
2D1
100
AcDbEntity
  8
0
100
AcDbLine
 62
7
  6
CONTINUOUS
 10
-1.9086489749
 20
-23.5800224103
 11
-2.0857742593
 21
-23.4777524909
  0
LINE
  5
2D2
100
AcDbEntity
  8
0
100
AcDbLine
 62
7
  6
CONTINUOUS
 10
-1.7672276187
 20
-23.4983674916
 11
-1.9443529031
 21
-23.3960975723
  0
LINE
  5
2D3
100
AcDbEntity
  8
0
100
AcDbLine
 62
7
  6
CONTINUOUS
 10
-2.9307717249
 20
-22.2271410223
 11
-3.2305970209
 21
-22.0540256541
  0
LINE
  5
2D4
100
AcDbEntity
  8
0
100
AcDbLine
 62
7
  6
CONTINUOUS
 10
-3.8838385288
 20
-21.6768521944
 11
-4.1904895266
 21
-21.4997957515
  0
LINE
  5
2D5
100
AcDbEntity
  8
0
100
AcDbLine
 62
7
  6
CONTINUOUS
 10
-4.807088054
 20
-21.1437794896
 11
-5.1167675902
 21
-20.9649744066
  0
LINE
  5
2D6
100
AcDbEntity
  8
0
100
AcDbLine
 62
7
  6
CONTINUOUS
 10
-5.8426381569
 20
-20.5458658387
 11
-6.1523629479
 21
-20.3670346262
  0
LINE
  5
2D7
100
AcDbEntity
  8
0
100
AcDbLine
 62
7
  6
CONTINUOUS
 10
-6.7270682269
 20
-20.0352070008
 11
-7.0637542924
 21
-19.8408086863
  0
LINE
  5
2D8
100
AcDbEntity
  8
0
100
AcDbLine
 62
7
  6
CONTINUOUS
 10
-5.4176846591
 20
-20.7911257872
 11
-5.727620875
 21
-20.6121725005
  0
LINE
  5
2D9
100
AcDbEntity
  8
0
100
AcDbLine
 62
7
  6
CONTINUOUS
 10
-2.7893503686
 20
-22.1454861036
 11
-3.0891756647
 21
-21.9723707354
  0
LINE
  5
2DA
100
AcDbEntity
  8
0
100
AcDbLine
 62
7
  6
CONTINUOUS
 10
-3.7424171726
 20
-21.5951972758
 11
-4.0490681704
 21
-21.4181408329
  0
LINE
  5
2DB
100
AcDbEntity
  8
0
100
AcDbLine
 62
7
  6
CONTINUOUS
 10
-4.6656666978
 20
-21.0621245709
 11
-4.9753462339
 21
-20.883319488
  0
LINE
  5
2DC
100
AcDbEntity
  8
0
100
AcDbLine
 62
7
  6
CONTINUOUS
 10
-5.7012168007
 20
-20.46421092
 11
-6.0109415916
 21
-20.2853797075
  0
LINE
  5
2DD
100
AcDbEntity
  8
0
100
AcDbLine
 62
7
  6
CONTINUOUS
 10
-6.5856468707
 20
-19.9535520821
 11
-6.9223329361
 21
-19.7591537676
  0
LINE
  5
2DE
100
AcDbEntity
  8
0
100
AcDbLine
 62
7
  6
CONTINUOUS
 10
-5.2762633028
 20
-20.7094708685
 11
-5.5861995187
 21
-20.5305175819
  0
LINE
  5
2DF
100
AcDbEntity
  8
RACCORDO
100
AcDbLine
 62
7
  6
CONTINUOUS
 10
35.901013283
 20
-44.3697346686
 11
-43.9298503308
 21
1.7236054662
  0
LINE
  5
2E0
100
AcDbEntity
  8
RACCORDO
100
AcDbLine
 62
7
  6
CONTINUOUS
 10
36.0405954164
 20
-44.0589764398
 11
-43.7902649035
 21
2.0343617933
  0
LINE
  5
2E1
100
AcDbEntity
  8
RACCORDO
100
AcDbLine
 62
7
  6
CONTINUOUS
 10
-42.2527809411
 20
3.1780417651
 11
36.2183680891
 21
-42.1302162104
  0
LINE
  5
2E2
100
AcDbEntity
  8
RACCORDO
100
AcDbLine
 62
7
  6
CONTINUOUS
 10
-42.1392978323
 20
3.2695858935
 11
36.2183680891
 21
-41.9731460345
  0
LINE
  5
2E3
100
AcDbEntity
  8
RACCORDO
100
AcDbLine
 62
7
  6
CONTINUOUS
 10
36.2183680891
 20
-41.6687893002
 11
-41.8744647975
 21
3.4210336755
  0
LWPOLYLINE
  5
2E4
100
AcDbEntity
  8
RACCORDO
100
AcDbPolyline
 62
7
  6
CONTINUOUS
 90
11
 70
0
 10
-45.6425994904
 20
0.6641723096
 10
-45.6438958755
 20
0.6649338782
 10
-45.656147998
 20
0.6735563486
 10
-45.6671828441
 20
0.6840425851
 10
-45.676918271
 20
0.6963145211
 10
-45.6852818282
 20
0.710280812
 10
-45.6922112777
 20
0.7258375064
 10
-45.6976550481
 20
0.7428687922
 10
-45.7015726364
 20
0.7612478938
 10
-45.7039349029
 20
0.7808380221
 10
-45.7047242808
 20
0.8014933703
  0
LWPOLYLINE
  5
2E5
100
AcDbEntity
  8
RACCORDO
100
AcDbPolyline
 62
7
  6
CONTINUOUS
 90
11
 70
0
 10
37.7380120166
 20
-47.4787477701
 10
37.7367156426
 20
-47.477986208
 10
37.7244635205
 20
-47.4693637404
 10
37.7134286747
 20
-47.4588775072
 10
37.7036932473
 20
-47.4466055741
 10
37.695329689
 20
-47.4326392852
 10
37.6884002382
 20
-47.4170825919
 10
37.6829564665
 20
-47.4000513056
 10
37.6790388771
 20
-47.3816722015
 10
37.6766766102
 20
-47.3620820684
 10
37.675887233
 20
-47.3414267133
  0
LWPOLYLINE
  5
2E6
100
AcDbEntity
  8
RACCORDO
100
AcDbPolyline
 62
7
  6
CONTINUOUS
 90
25
 70
0
 10
-45.7047242808
 20
0.8014933703
 10
-45.7232726062
 20
0.8129121254
 10
-45.7416079745
 20
0.8255770857
 10
-45.7597303855
 20
0.8394882513
 10
-45.7777222156
 20
0.8547192584
 10
-45.7955010885
 20
0.8711964708
 10
-45.8128198757
 20
0.8886989793
 10
-45.8296659581
 20
0.9072354649
 10
-45.8460519549
 20
0.9267972467
 10
-45.8617685948
 20
0.9471373726
 10
-45.8768082356
 20
0.9682675155
 10
-45.8911785195
 20
0.9901760025
 10
-45.9046931026
 20
1.0125808632
 10
-45.9173410991
 20
1.0354901908
 10
-45.9291333948
 20
1.058895892
 10
-45.9399163022
 20
1.0824917163
 10
-45.9496749812
 20
1.1062772424
 10
-45.958424272
 20
1.1302528915
 10
-45.9660550075
 20
1.1541136774
 10
-45.9725532993
 20
1.1778668115
 10
-45.9779330358
 20
1.2015050824
 10
-45.9821267157
 20
1.2247018692
 10
-45.9851118387
 20
1.2473482983
 10
-45.9869109051
 20
1.2695532434
 10
-45.987523915
 20
1.2913167045
  0
LWPOLYLINE
  5
2E7
100
AcDbEntity
  8
RACCORDO
100
AcDbPolyline
 62
7
  6
CONTINUOUS
 90
22
 70
0
 10
-43.9298503308
 20
1.7236054662
 10
-43.9607468477
 20
1.742889372
 10
-43.9909351457
 20
1.7642676559
 10
-44.0204152248
 20
1.7877403179
 10
-44.0492786355
 20
1.8134158493
 10
-44.0774338273
 20
1.841185759
 10
-44.1046061483
 20
1.8707245728
 10
-44.130808682
 20
1.9020465556
 10
-44.1560283449
 20
1.9351374427
 10
-44.1799512351
 20
1.9696289658
 10
-44.2025792512
 20
2.0055329606
 10
-44.2239104945
 20
2.0428375915
 10
-44.2436253676
 20
2.081139083
 10
-44.2617356029
 20
2.1204935027
 10
-44.2782294679
 20
2.1608447829
 10
-44.2927521678
 20
2.2016209456
 10
-44.3052858529
 20
2.2428580232
 10
-44.315848373
 20
2.2845199832
 10
-44.3241384825
 20
2.3259267504
 10
-44.3300557664
 20
2.366851633
 10
-44.3337006397
 20
2.4075213226
 10
-44.3350731025
 20
2.4479358194
  0
LWPOLYLINE
  5
2E8
100
AcDbEntity
  8
0
100
AcDbPolyline
 62
7
  6
CONTINUOUS
 90
11
 70
0
 10
-34.8063946061
 20
0.3022766836
 10
-34.7952913218
 20
0.2952692194
 10
-34.7783877791
 20
0.2819925045
 10
-34.763004818
 20
0.2664577244
 10
-34.7492266432
 20
0.2487495789
 10
-34.7371280714
 20
0.2289637637
 10
-34.7267750286
 20
0.2072067824
 10
-34.7182254019
 20
0.1835984033
 10
-34.7115271908
 20
0.158270828
 10
-34.7067169372
 20
0.1313641348
 10
-34.7038203049
 20
0.1030247586
  0
LWPOLYLINE
  5
2E9
100
AcDbEntity
  8
RACCORDO
100
AcDbPolyline
 62
7
  6
CONTINUOUS
 90
9
 70
0
 10
36.3062360547
 20
-44.113345415
 10
36.2874367884
 20
-44.1014304538
 10
36.2706370173
 20
-44.0885581533
 10
36.2559822014
 20
-44.0748399667
 10
36.2435992288
 20
-44.0603946714
 10
36.2335953173
 20
-44.0453473405
 10
36.2260570858
 20
-44.0298282602
 10
36.2210498042
 20
-44.0139718008
 10
36.2186168285
 20
-43.9979152541
  0
LWPOLYLINE
  5
2EA
100
AcDbEntity
  8
0
100
AcDbPolyline
 62
7
  6
CONTINUOUS
 90
13
 70
0
 10
-1.9093170361
 20
-23.8604210891
 10
-1.8900287668
 20
-23.8728095263
 10
-1.8716943872
 20
-23.886635552
 10
-1.8543138974
 20
-23.9018991662
 10
-1.8379725895
 20
-23.9184948699
 10
-1.8225851713
 20
-23.9365281621
 10
-1.8078957665
 20
-23.9563155396
 10
-1.7937266876
 20
-23.9780063769
 10
-1.7802556222
 20
-24.0014512994
 10
-1.7677597558
 20
-24.0265186806
 10
-1.7563314838
 20
-24.0531646448
 10
-1.7458784108
 20
-24.0814330677
 10
-1.736400537
 20
-24.1113239491
  0
LWPOLYLINE
  5
2EB
100
AcDbEntity
  8
RACCORDO
100
AcDbPolyline
 62
7
  6
CONTINUOUS
 90
7
 70
0
 10
-42.271911909
 20
3.1907242101
 10
-42.2688657743
 20
3.1884772907
 10
-42.2657626956
 20
3.1862836427
 10
-42.262602673
 20
3.1841432662
 10
-42.2593857063
 20
3.182056161
 10
-42.2561117957
 20
3.1800223274
 10
-42.2527809411
 20
3.1780417651
  0
LWPOLYLINE
  5
2EC
100
AcDbEntity
  8
0
100
AcDbPolyline
 62
7
  6
CONTINUOUS
 90
16
 70
0
 10
-1.8429674277
 20
-23.1372056634
 10
-1.8224888489
 20
-23.1531147205
 10
-1.8030768046
 20
-23.170135232
 10
-1.7847312948
 20
-23.1882671981
 10
-1.7673383476
 20
-23.2076897774
 10
-1.7510119349
 20
-23.2282238112
 10
-1.7360939721
 20
-23.2493318234
 10
-1.7227084917
 20
-23.2708592828
 10
-1.7107314612
 20
-23.2929607204
 10
-1.700132698
 20
-23.3155622539
 10
-1.6908107525
 20
-23.3389694911
 10
-1.6828670743
 20
-23.3628768241
 10
-1.6765758297
 20
-23.3862935469
 10
-1.6720284075
 20
-23.4088894241
 10
-1.669133419
 20
-23.4309946912
 10
-1.6678908642
 20
-23.4526093481
  0
LWPOLYLINE
  5
2ED
100
AcDbEntity
  8
RACCORDO
100
AcDbPolyline
 62
7
  6
CONTINUOUS
 90
25
 70
0
 10
-11.8552089286
 20
-12.9045753579
 10
-11.8559500885
 20
-12.8774179457
 10
-11.8581794091
 20
-12.8494911913
 10
-11.8618852716
 20
-12.8209138718
 10
-11.8670480318
 20
-12.7918068254
 10
-11.8736452597
 20
-12.7622945213
 10
-11.8816519782
 20
-12.7325044958
 10
-11.8910322129
 20
-12.702563444
 10
-11.9017438958
 20
-12.6725985653
 10
-11.9137444169
 20
-12.6427390899
 10
-11.9269810445
 20
-12.6131120668
 10
-11.9413954409
 20
-12.5838433703
 10
-11.9569289724
 20
-12.5550590554
 10
-11.9735141412
 20
-12.5268817389
 10
-11.9910785423
 20
-12.4994312223
 10
-12.0095497285
 20
-12.472825624
 10
-12.0288479781
 20
-12.4471785038
 10
-12.048889545
 20
-12.4225990688
 10
-12.0695908983
 20
-12.3991930317
 10
-12.0908668939
 20
-12.3770569597
 10
-12.112621934
 20
-12.3562894619
 10
-12.1347527254
 20
-12.336989319
 10
-12.1571604791
 20
-12.3192400357
 10
-12.1797519872
 20
-12.3031118059
 10
-12.2024304098
 20
-12.2886713282
  0
LINE
  5
2EE
100
AcDbEntity
  8
RACCORDO
100
AcDbLine
 62
7
  6
CONTINUOUS
 10
-17.9300491853
 20
-9.6346581058
 11
-17.9300491853
 21
-9.6109986276
  0
LINE
  5
2EF
100
AcDbEntity
  8
RACCORDO
100
AcDbLine
 62
7
  6
CONTINUOUS
 10
-12.284661159
 20
-13.6492171212
 11
-12.284661159
 21
-13.663748098
  0
LINE
  5
2F0
100
AcDbEntity
  8
DRAFT
100
AcDbLine
 62
7
  6
CONTINUOUS
 10
-12.2522125247
 20
-13.5381957278
 11
-12.2522125247
 21
-13.0891441198
  0
LINE
  5
2F1
100
AcDbEntity
  8
0
100
AcDbLine
 62
7
  6
CONTINUOUS
 10
-26.9172666551
 20
-1.5876292217
 11
-28.2586532689
 21
-2.4477984137
  0
LINE
  5
2F2
100
AcDbEntity
  8
RACCORDO
100
AcDbLine
 62
7
  6
CONTINUOUS
 10
-30.323477068
 20
-1.9479258543
 11
-30.8891624929
 21
-2.2859467623
  0
LINE
  5
2F3
100
AcDbEntity
  8
RACCORDO
100
AcDbLine
 62
7
  6
CONTINUOUS
 10
-30.0713034106
 20
-1.9714080071
 11
-30.6369888356
 21
-2.3094289151
  0
LWPOLYLINE
  5
2F4
100
AcDbEntity
  8
0
100
AcDbPolyline
 62
7
  6
CONTINUOUS
 90
11
 70
0
 10
-26.9102531253
 20
-1.5833555583
 10
-26.8999496927
 20
-1.5772330643
 10
-26.8907867314
 20
-1.5719769852
 10
-26.882820793
 20
-1.567515831
 10
-26.8761879672
 20
-1.5637303162
 10
-26.8708272804
 20
-1.5605720325
 10
-26.8664872344
 20
-1.5580837044
 10
-26.8631651797
 20
-1.5562037086
 10
-26.8608913476
 20
-1.5548412583
 10
-26.8594652234
 20
-1.5540274784
 10
-26.8588737907
 20
-1.5537131878
  0
LINE
  5
2F5
100
AcDbEntity
  8
0
100
AcDbLine
 62
7
  6
CONTINUOUS
 10
-33.9715309289
 20
-0.5486818802
 11
-33.9603907071
 21
-0.5422496558
  0
LINE
  5
2F6
100
AcDbEntity
  8
0
100
AcDbLine
 62
7
  6
CONTINUOUS
 10
-33.9207282275
 20
-0.5651502744
 11
-33.7793068712
 21
-0.4834953558
  0
LINE
  5
2F7
100
AcDbEntity
  8
0
100
AcDbLine
 62
7
  6
CONTINUOUS
 10
-33.7129033337
 20
-0.6851575999
 11
-33.5714819775
 21
-0.6035026812
  0
LINE
  5
2F8
100
AcDbEntity
  8
0
100
AcDbLine
 62
7
  6
CONTINUOUS
 10
-33.3593499431
 20
-0.4810203032
 11
-33.2179285869
 21
-0.3993653846
  0
LINE
  5
2F9
100
AcDbEntity
  8
0
100
AcDbLine
 62
7
  6
CONTINUOUS
 10
-33.0057965525
 20
-0.2768830066
 11
-32.8643751963
 21
-0.1952280879
  0
LINE
  5
2FA
100
AcDbEntity
  8
0
100
AcDbLine
 62
7
  6
CONTINUOUS
 10
-32.652243162
 20
-0.0727457099
 11
-32.5108218057
 21
0.0089092087
  0
LINE
  5
2FB
100
AcDbEntity
  8
0
100
AcDbLine
 62
7
  6
CONTINUOUS
 10
-32.2986897714
 20
0.1313915867
 11
-32.1572684151
 21
0.2130465054
  0
LINE
  5
2FC
100
AcDbEntity
  8
0
100
AcDbLine
 62
7
  6
CONTINUOUS
 10
-31.9451363808
 20
0.3355288834
 11
-31.8037150245
 21
0.4171838021
  0
LINE
  5
2FD
100
AcDbEntity
  8
0
100
AcDbLine
 62
7
  6
CONTINUOUS
 10
-31.5915829902
 20
0.5396661801
 11
-31.4501616339
 21
0.6213210987
  0
LINE
  5
2FE
100
AcDbEntity
  8
0
100
AcDbLine
 62
7
  6
CONTINUOUS
 10
-31.2380295996
 20
0.7438034767
 11
-31.0966082433
 21
0.8254583954
  0
LINE
  5
2FF
100
AcDbEntity
  8
0
100
AcDbLine
 62
7
  6
CONTINUOUS
 10
-28.4096024748
 20
-2.1141186766
 11
-28.2681811186
 21
-2.0324637579
  0
LINE
  5
300
100
AcDbEntity
  8
0
100
AcDbLine
 62
7
  6
CONTINUOUS
 10
-28.0560490842
 20
-1.9099813799
 11
-27.914627728
 21
-1.8283264612
  0
LINE
  5
301
100
AcDbEntity
  8
0
100
AcDbLine
 62
7
  6
CONTINUOUS
 10
-27.7024956936
 20
-1.7058440832
 11
-27.5610743374
 21
-1.6241891646
  0
LINE
  5
302
100
AcDbEntity
  8
0
100
AcDbLine
 62
7
  6
CONTINUOUS
 10
-27.3489423031
 20
-1.5017067866
 11
-27.2075209468
 21
-1.4200518679
  0
LINE
  5
303
100
AcDbEntity
  8
0
100
AcDbLine
 62
7
  6
CONTINUOUS
 10
-27.1014549296
 20
-1.4812812204
 11
-28.515668492
 21
-2.2978304071
  0
LINE
  5
304
100
AcDbEntity
  8
RACCORDO
100
AcDbLine
 62
7
  6
CONTINUOUS
 10
-34.3486666998
 20
-0.3309284127
 11
-34.3077737403
 21
-0.3081415167
  0
LINE
  5
305
100
AcDbEntity
  8
RACCORDO
100
AcDbLine
 62
7
  6
CONTINUOUS
 10
-29.2412310774
 20
-2.1541996845
 11
-29.5070969493
 21
-2.2971737466
  0
LINE
  5
306
100
AcDbEntity
  8
0
100
AcDbLine
 62
7
  6
CONTINUOUS
 10
-31.1747305007
 20
0.8705770442
 11
-33.7793068712
 21
-0.4834953558
  0
LWPOLYLINE
  5
307
100
AcDbEntity
  8
0
100
AcDbPolyline
 62
7
  6
CONTINUOUS
 90
11
 70
0
 10
-35.0210508789
 20
0.2957558197
 10
-34.9982501614
 20
0.3055248346
 10
-34.9726540167
 20
0.3142449646
 10
-34.9475086619
 20
0.3205358471
 10
-34.9229528096
 20
0.3243612533
 10
-34.8991237958
 20
0.3256988622
 10
-34.8761520989
 20
0.324540531
 10
-34.8541638407
 20
0.3208915233
 10
-34.8332823014
 20
0.3147717849
 10
-34.8136227052
 20
0.3062154471
 10
-34.8063946061
 20
0.3022766836
  0
LWPOLYLINE
  5
308
100
AcDbEntity
  8
0
100
AcDbPolyline
 62
7
  6
CONTINUOUS
 90
6
 70
0
 10
-13.0131194177
 20
-11.2874108841
 10
-12.9767165789
 20
-11.2948157617
 10
-12.9409174789
 20
-11.3049179514
 10
-12.9059851407
 20
-11.3176468069
 10
-12.8719843235
 20
-11.3329912931
 10
-12.8444893278
 20
-11.3477434894
  0
LWPOLYLINE
  5
309
100
AcDbEntity
  8
ASSI
100
AcDbPolyline
 62
7
  6
CONTINUOUS
 90
8
 70
0
 10
0.7330533623
 20
-17.4934074571
 10
0.7198726732
 20
-17.4905905723
 10
0.7072020698
 20
-17.4890362099
 10
0.6950617214
 20
-17.4886762418
 10
0.6835291919
 20
-17.4894315971
 10
0.6726451981
 20
-17.4912479646
 10
0.6624182316
 20
-17.4941013638
 10
0.6528639667
 20
-17.4979539202
  0
LWPOLYLINE
  5
30A
100
AcDbEntity
  8
RACCORDO
100
AcDbPolyline
 62
7
  6
CONTINUOUS
 90
22
 70
0
 10
-43.7902642822
 20
2.0343622666
 10
-43.808118284
 20
2.0419556472
 10
-43.8252938215
 20
2.0510972903
 10
-43.8417210751
 20
2.0617130771
 10
-43.8573082331
 20
2.0737048185
 10
-43.8720095958
 20
2.087013799
 10
-43.8858269824
 20
2.10163162
 10
-43.8987025658
 20
2.1174945153
 10
-43.9105626525
 20
2.1345178186
 10
-43.9213851693
 20
2.1526708958
 10
-43.9310994676
 20
2.1718772296
 10
-43.9396421587
 20
2.1920545567
 10
-43.9469975592
 20
2.2131645746
 10
-43.9530911743
 20
2.2351459816
 10
-43.9578552029
 20
2.2578845909
 10
-43.9612794536
 20
2.2812589275
 10
-43.9632764126
 20
2.3051899798
 10
-43.9637913399
 20
2.3295615647
 10
-43.9628633015
 20
2.3541922593
 10
-43.9604609336
 20
2.3789525661
 10
-43.9564831985
 20
2.4037656458
 10
-43.9508681765
 20
2.428527588
  0
LWPOLYLINE
  5
30B
100
AcDbEntity
  8
0
100
AcDbPolyline
 62
7
  6
CONTINUOUS
 90
11
 70
0
 10
-12.8520137869
 20
-11.3436520227
 10
-12.8717139383
 20
-11.3351237828
 10
-12.892648674
 20
-11.3290352742
 10
-12.9146953527
 20
-11.3254254998
 10
-12.9377124653
 20
-11.324315478
 10
-12.9615774863
 20
-11.3257065322
 10
-12.9861527432
 20
-11.3295862201
 10
-13.0112618253
 20
-11.335915904
 10
-13.0367506784
 20
-11.3446388591
 10
-13.0624919147
 20
-11.3556939605
 10
-13.0883451512
 20
-11.3690054248
  0
LWPOLYLINE
  5
30C
100
AcDbEntity
  8
0
100
AcDbPolyline
 62
7
  6
CONTINUOUS
 90
11
 70
0
 10
-28.7619163636
 20
-2.1574736728
 10
-28.781616515
 20
-2.1489454329
 10
-28.8025512507
 20
-2.1428569243
 10
-28.8245979293
 20
-2.1392471499
 10
-28.847615042
 20
-2.1381371281
 10
-28.871480063
 20
-2.1395281823
 10
-28.8960553199
 20
-2.1434078702
 10
-28.921164402
 20
-2.1497375541
 10
-28.9466532551
 20
-2.1584605092
 10
-28.9723944914
 20
-2.1695156106
 10
-28.9982477279
 20
-2.182827075
  0
LINE
  5
30D
100
AcDbEntity
  8
0
100
AcDbLine
 62
7
  6
CONTINUOUS
 10
32.591233749
 20
-35.8801159728
 11
32.6039782381
 21
-35.8867908328
  0
LINE
  5
30E
100
AcDbEntity
  8
0
100
AcDbLine
 62
7
  6
CONTINUOUS
 10
-31.0483765578
 20
0.8645974267
 11
-31.0356320687
 21
0.8579225667
  0
LWPOLYLINE
  5
30F
100
AcDbEntity
  8
ASSI
100
AcDbPolyline
 62
7
  6
CONTINUOUS
 90
5
 70
0
 10
16.696482925
 20
-26.7020188497
 10
16.6844319154
 20
-26.6954723739
 10
16.6704419109
 20
-26.6889602346
 10
16.6565713106
 20
-26.6836645693
 10
16.642955939
 20
-26.679585807
  0
LWPOLYLINE
  5
310
100
AcDbEntity
  8
ASSI
100
AcDbPolyline
 62
7
  6
CONTINUOUS
 90
5
 70
0
 10
0.7865803483
 20
-17.5158404998
 10
0.7745293387
 20
-17.5092940241
 10
0.7605393342
 20
-17.5027818847
 10
0.7466687339
 20
-17.4974862195
 10
0.7330533623
 20
-17.4934074571
  0
LWPOLYLINE
  5
311
100
AcDbEntity
  8
ASSI
100
AcDbPolyline
 62
7
  6
CONTINUOUS
 90
5
 70
0
 10
-15.1233222284
 20
-8.3296621499
 10
-15.135373238
 20
-8.3231156742
 10
-15.1493632425
 20
-8.3166035348
 10
-15.1632338428
 20
-8.3113078696
 10
-15.1768492144
 20
-8.3072291073
  0
LWPOLYLINE
  5
312
100
AcDbEntity
  8
0
100
AcDbPolyline
 62
7
  6
CONTINUOUS
 90
12
 70
0
 10
28.155239187
 20
-35.0204728856
 10
28.1477292104
 20
-35.0163897822
 10
28.1280290598
 20
-35.0078615432
 10
28.1070943277
 20
-35.001773036
 10
28.0850476546
 20
-34.9981632622
 10
28.0620305443
 20
-34.9970532397
 10
28.0381655179
 20
-34.9984442937
 10
28.0135902517
 20
-35.0023239833
 10
27.9884811636
 20
-35.0086536697
 10
27.9629923109
 20
-35.0173766258
 10
27.937251079
 20
-35.0284317263
 10
27.9113978509
 20
-35.0417431868
  0
LINE
  5
313
100
AcDbEntity
  8
0
100
AcDbLine
 62
7
  6
CONTINUOUS
 10
26.9035371053
 20
-34.2977557912
 11
26.8960229309
 21
-34.2936705429
  0
LWPOLYLINE
  5
314
100
AcDbEntity
  8
0
100
AcDbPolyline
 62
7
  6
CONTINUOUS
 90
12
 70
0
 10
12.2453366103
 20
-25.8342945358
 10
12.2378266337
 20
-25.8302114323
 10
12.2181264831
 20
-25.8216831934
 10
12.197191751
 20
-25.8155946861
 10
12.1751450779
 20
-25.8119849123
 10
12.1521279676
 20
-25.8108748899
 10
12.1282629413
 20
-25.8122659439
 10
12.103687675
 20
-25.8161456334
 10
12.0785785869
 20
-25.8224753198
 10
12.0530897342
 20
-25.8311982759
 10
12.0273485023
 20
-25.8422533764
 10
12.0014952742
 20
-25.8555648369
  0
LINE
  5
315
100
AcDbEntity
  8
0
100
AcDbLine
 62
7
  6
CONTINUOUS
 10
10.9936345286
 20
-25.1115774413
 11
10.9861203542
 21
-25.107492193
  0
LWPOLYLINE
  5
316
100
AcDbEntity
  8
0
100
AcDbPolyline
 62
7
  6
CONTINUOUS
 90
12
 70
0
 10
-11.5928017324
 20
-12.0704522187
 10
-11.6003159103
 20
-12.0663669688
 10
-11.6200170491
 20
-12.0578390096
 10
-11.6409525648
 20
-12.0517510215
 10
-11.6629999038
 20
-12.0481419005
 10
-11.6860176662
 20
-12.0470326171
 10
-11.7098837362
 20
-12.0484245344
 10
-11.7344600378
 20
-12.0523052433
 10
-11.7595689772
 20
-12.0586357477
 10
-11.7850560373
 20
-12.067358828
 10
-11.8107941896
 20
-12.0784131143
 10
-11.8366430681
 20
-12.0917225201
  0
LINE
  5
317
100
AcDbEntity
  8
0
100
AcDbLine
 62
7
  6
CONTINUOUS
 10
-12.8445038134
 20
-11.3477351247
 11
-12.8520137869
 21
-11.3436520227
  0
LWPOLYLINE
  5
318
100
AcDbEntity
  8
0
100
AcDbPolyline
 62
7
  6
CONTINUOUS
 90
12
 70
0
 10
-27.5027043135
 20
-2.8842738663
 10
-27.5102185016
 20
-2.8801886114
 10
-27.5299196382
 20
-2.8716606552
 10
-27.5508551433
 20
-2.8655726712
 10
-27.5729024664
 20
-2.8619635521
 10
-27.595920222
 20
-2.8608542671
 10
-27.619786308
 20
-2.862246184
 10
-27.6443626374
 20
-2.8661268981
 10
-27.6694715944
 20
-2.8724574099
 10
-27.6949586531
 20
-2.8811804933
 10
-27.7206967918
 20
-2.8922347766
 10
-27.7465456445
 20
-2.9055441704
  0
LINE
  5
319
100
AcDbEntity
  8
0
100
AcDbLine
 62
7
  6
CONTINUOUS
 10
-28.7544063901
 20
-2.1615567748
 11
-28.7619163636
 21
-2.1574736728
  0
LWPOLYLINE
  5
31A
100
AcDbEntity
  8
RACCORDO
100
AcDbPolyline
 62
7
  6
CONTINUOUS
 90
12
 70
0
 10
-40.3634079085
 20
4.5413352069
 10
-40.3709178858
 20
4.5454183109
 10
-40.3906180377
 20
4.5539465504
 10
-40.4115527745
 20
4.5600350586
 10
-40.4335994544
 20
4.5636448326
 10
-40.4566165678
 20
4.5647548536
 10
-40.4804815887
 20
4.5633637987
 10
-40.5050568447
 20
4.5594841103
 10
-40.5301659256
 20
4.5531544261
 10
-40.5556547772
 20
4.5444314711
 10
-40.5813960117
 20
4.5333763701
 10
-40.607249246
 20
4.5200649067
  0
LWPOLYLINE
  5
31B
100
AcDbEntity
  8
RACCORDO
100
AcDbPolyline
 62
7
  6
CONTINUOUS
 90
12
 70
0
 10
-34.0639548862
 20
-0.2868905135
 10
-34.0711530546
 20
-0.2829614024
 10
-34.0907613589
 20
-0.2743975085
 10
-34.1116056557
 20
-0.268300694
 10
-34.1336660654
 20
-0.2646312785
 10
-34.1565839238
 20
-0.2634489204
 10
-34.1803732473
 20
-0.2647942751
 10
-34.2050200195
 20
-0.2686266873
 10
-34.2301235264
 20
-0.2748838483
 10
-34.2555501964
 20
-0.2835449888
 10
-34.281433601
 20
-0.2946308783
 10
-34.3077737403
 20
-0.3081415167
  0
LINE
  5
31C
100
AcDbEntity
  8
0
100
AcDbLine
 62
7
  6
CONTINUOUS
 10
-34.7234326795
 20
0.093679751
 11
-34.7123767878
 21
0.0875324414
  0
LINE
  5
31D
100
AcDbEntity
  8
RACCORDO
100
AcDbLine
 62
7
  6
CONTINUOUS
 10
-27.9824640101
 20
-4.3405987173
 11
-23.321340355
 21
-7.0318730981
  0
LINE
  5
31E
100
AcDbEntity
  8
RACCORDO
100
AcDbLine
 62
7
  6
CONTINUOUS
 10
-12.0725614334
 20
-13.5267770672
 11
-7.623537504
 21
-16.0955877247
  0
LINE
  5
31F
100
AcDbEntity
  8
RACCORDO
100
AcDbLine
 62
7
  6
CONTINUOUS
 10
3.8373411433
 20
-22.7129554171
 11
8.2863650727
 21
-25.2817660746
  0
LINE
  5
320
100
AcDbEntity
  8
RACCORDO
100
AcDbLine
 62
7
  6
CONTINUOUS
 10
19.74724372
 20
-31.8991337669
 11
24.1962676494
 21
-34.4679444244
  0
LINE
  5
321
100
AcDbEntity
  8
RACCORDO
100
AcDbLine
 62
7
  6
CONTINUOUS
 10
-41.3609143212
 20
3.7178554798
 11
-28.1621151014
 21
-3.9029657699
  0
LINE
  5
322
100
AcDbEntity
  8
DRAFT
100
AcDbLine
 62
7
  6
CONTINUOUS
 10
-22.8588142425
 20
-6.9650252199
 11
-12.2522125247
 21
-13.0891441198
  0
LINE
  5
323
100
AcDbEntity
  8
DRAFT
100
AcDbLine
 62
7
  6
CONTINUOUS
 10
-6.9489116658
 20
-16.1512035698
 11
3.657690052
 21
-22.2753224697
  0
LINE
  5
324
100
AcDbEntity
  8
DRAFT
100
AcDbLine
 62
7
  6
CONTINUOUS
 10
8.9609909109
 20
-25.3373819196
 11
19.5675926287
 21
-31.4615008196
  0
LINE
  5
325
100
AcDbEntity
  8
RACCORDO
100
AcDbLine
 62
7
  6
CONTINUOUS
 10
24.8708934876
 20
-34.5235602695
 11
36.2183680891
 21
-41.0754498872
  0
LINE
  5
326
100
AcDbEntity
  8
0
100
AcDbLine
 62
7
  6
CONTINUOUS
 10
32.7276973718
 20
-39.047127751
 11
29.9267069731
 21
-37.4298709994
  0
LINE
  5
327
100
AcDbEntity
  8
0
100
AcDbLine
 62
7
  6
CONTINUOUS
 10
-30.911912935
 20
-2.3024143515
 11
-33.7129033337
 21
-0.6851575999
  0
LINE
  5
328
100
AcDbEntity
  8
0
100
AcDbLine
 62
7
  6
CONTINUOUS
 10
-33.9603907071
 20
-0.5422496558
 11
-33.9207282275
 21
-0.5651502744
  0
LINE
  5
329
100
AcDbEntity
  8
0
100
AcDbLine
 62
7
  6
CONTINUOUS
 10
29.6792195996
 20
-37.2869630553
 11
29.7188820793
 21
-37.3098636739
  0
LINE
  5
32A
100
AcDbEntity
  8
0
100
AcDbLine
 62
7
  6
CONTINUOUS
 10
29.3318365665
 20
-37.0528549162
 11
28.6185594279
 21
-36.6410176358
  0
LINE
  5
32B
100
AcDbEntity
  8
0
100
AcDbLine
 62
7
  6
CONTINUOUS
 10
-34.3077737403
 20
-0.3081415167
 11
-35.0210508789
 21
0.1036957637
  0
LINE
  5
32C
100
AcDbEntity
  8
RACCORDO
100
AcDbLine
 62
7
  6
CONTINUOUS
 10
36.2183680891
 20
-40.910874109
 11
33.0026214712
 21
-39.0541423146
  0
LINE
  5
32D
100
AcDbEntity
  8
RACCORDO
100
AcDbLine
 62
7
  6
CONTINUOUS
 10
27.6993206123
 20
-35.9920828646
 11
25.750224264
 21
-34.866699061
  0
LINE
  5
32E
100
AcDbEntity
  8
RACCORDO
100
AcDbLine
 62
7
  6
CONTINUOUS
 10
19.1832150599
 20
-31.0749902505
 11
17.1025391225
 21
-29.8736340412
  0
LINE
  5
32F
100
AcDbEntity
  8
RACCORDO
100
AcDbLine
 62
7
  6
CONTINUOUS
 10
11.7795978077
 20
-26.8002344382
 11
9.8403216874
 21
-25.6805207112
  0
LINE
  5
330
100
AcDbEntity
  8
RACCORDO
100
AcDbLine
 62
7
  6
CONTINUOUS
 10
3.2733124832
 20
-21.8888119006
 11
1.1926365458
 21
-20.6874556914
  0
LINE
  5
331
100
AcDbEntity
  8
RACCORDO
100
AcDbLine
 62
7
  6
CONTINUOUS
 10
-4.130304769
 20
-17.6140560884
 11
-6.2109807064
 21
-16.4126998791
  0
LINE
  5
332
100
AcDbEntity
  8
RACCORDO
100
AcDbLine
 62
7
  6
CONTINUOUS
 10
-12.7779899106
 20
-12.6209910685
 11
-14.7172660309
 21
-11.5012773415
  0
LINE
  5
333
100
AcDbEntity
  8
RACCORDO
100
AcDbLine
 62
7
  6
CONTINUOUS
 10
-20.0402073457
 20
-8.4278777385
 11
-22.1208832831
 21
-7.2265215292
  0
LINE
  5
334
100
AcDbEntity
  8
RACCORDO
100
AcDbLine
 62
7
  6
CONTINUOUS
 10
-28.6878924873
 20
-3.4348127187
 11
-30.6369888356
 21
-2.3094289151
  0
LINE
  5
335
100
AcDbEntity
  8
RACCORDO
100
AcDbLine
 62
7
  6
CONTINUOUS
 10
-35.9402896945
 20
0.7526305349
 11
-41.3850119096
 21
3.8963449035
  0
LINE
  5
336
100
AcDbEntity
  8
0
100
AcDbLine
 62
7
  6
CONTINUOUS
 10
32.8642473313
 20
-38.9626601489
 11
30.0681283293
 21
-37.3482160807
  0
LINE
  5
337
100
AcDbEntity
  8
0
100
AcDbLine
 62
7
  6
CONTINUOUS
 10
-30.7753629755
 20
-2.2179467494
 11
-33.5714819775
 21
-0.6035026812
  0
LINE
  5
338
100
AcDbEntity
  8
DRAFT
100
AcDbLine
 62
7
  6
CONTINUOUS
 10
-17.9300491853
 20
-9.6346581058
 11
-17.8694042946
 21
-9.6696737056
  0
LINE
  5
339
100
AcDbEntity
  8
DRAFT
100
AcDbLine
 62
7
  6
CONTINUOUS
 10
-2.0201466086
 20
-18.8208364556
 11
-1.9595017179
 21
-18.8558520555
  0
LINE
  5
33A
100
AcDbEntity
  8
DRAFT
100
AcDbLine
 62
7
  6
CONTINUOUS
 10
13.8897559681
 20
-28.0070148055
 11
13.9504008588
 21
-28.0420304054
  0
LINE
  5
33B
100
AcDbEntity
  8
RACCORDO
100
AcDbLine
 62
7
  6
CONTINUOUS
 10
-22.3860561663
 20
-7.0311323007
 11
-22.1755694543
 21
-7.1526646902
  0
LINE
  5
33C
100
AcDbEntity
  8
RACCORDO
100
AcDbLine
 62
7
  6
CONTINUOUS
 10
-19.1111483022
 20
-8.9220230572
 11
-18.2713686251
 21
-9.4069013178
  0
LINE
  5
33D
100
AcDbEntity
  8
RACCORDO
100
AcDbLine
 62
7
  6
CONTINUOUS
 10
-6.4761535896
 20
-16.2173106506
 11
-6.2656668776
 21
-16.33884304
  0
LINE
  5
33E
100
AcDbEntity
  8
RACCORDO
100
AcDbLine
 62
7
  6
CONTINUOUS
 10
-3.2012457255
 20
-18.108201407
 11
-2.3614660484
 21
-18.5930796677
  0
LINE
  5
33F
100
AcDbEntity
  8
RACCORDO
100
AcDbLine
 62
7
  6
CONTINUOUS
 10
4.0609717096
 20
-22.3013147371
 11
4.1995134839
 21
-22.3813070213
  0
LINE
  5
340
100
AcDbEntity
  8
RACCORDO
100
AcDbLine
 62
7
  6
CONTINUOUS
 10
9.4337489871
 20
-25.4034890004
 11
9.7256057646
 21
-25.5720034459
  0
LINE
  5
341
100
AcDbEntity
  8
RACCORDO
100
AcDbLine
 62
7
  6
CONTINUOUS
 10
12.7086568512
 20
-27.2943797569
 11
13.5484365283
 21
-27.7792580176
  0
LINE
  5
342
100
AcDbEntity
  8
RACCORDO
100
AcDbLine
 62
7
  6
CONTINUOUS
 10
19.9708742863
 20
-31.487493087
 11
20.1094160606
 21
-31.5674853712
  0
LINE
  5
343
100
AcDbEntity
  8
RACCORDO
100
AcDbLine
 62
7
  6
CONTINUOUS
 10
25.3436515638
 20
-34.5896673503
 11
25.6355083413
 21
-34.7581817958
  0
LINE
  5
344
100
AcDbEntity
  8
0
100
AcDbLine
 62
7
  6
CONTINUOUS
 10
28.927233519
 20
-36.6571809581
 11
28.9273071403
 21
-36.6572234651
  0
LINE
  5
345
100
AcDbEntity
  8
RACCORDO
100
AcDbLine
 62
7
  6
CONTINUOUS
 10
29.5756782891
 20
-37.0315848382
 11
28.9269210579
 21
-36.6570005437
  0
LINE
  5
346
100
AcDbEntity
  8
RACCORDO
100
AcDbLine
 62
7
  6
CONTINUOUS
 10
-34.0639320177
 20
-0.2868714387
 11
-34.7126892489
 21
0.0877128558
  0
LINE
  5
347
100
AcDbEntity
  8
0
100
AcDbLine
 62
7
  6
CONTINUOUS
 10
-34.7123767878
 20
0.0875324414
 11
-34.7123031665
 21
0.0874899344
  0
LINE
  5
348
100
AcDbEntity
  8
RACCORDO
100
AcDbLine
 62
7
  6
CONTINUOUS
 10
-35.0210508789
 20
0.4262165253
 11
-34.8063945003
 21
0.3022766225
  0
LINE
  5
349
100
AcDbEntity
  8
RACCORDO
100
AcDbLine
 62
7
  6
CONTINUOUS
 10
-22.3860561663
 20
-6.8690710681
 11
-22.0400443681
 21
-7.0688539439
  0
LINE
  5
34A
100
AcDbEntity
  8
RACCORDO
100
AcDbLine
 62
7
  6
CONTINUOUS
 10
-19.1111483022
 20
-8.7599618246
 11
-18.0317563529
 21
-9.3831892082
  0
LINE
  5
34B
100
AcDbEntity
  8
RACCORDO
100
AcDbLine
 62
7
  6
CONTINUOUS
 10
-6.4761535896
 20
-16.055249418
 11
-6.1301417914
 21
-16.2550322938
  0
LINE
  5
34C
100
AcDbEntity
  8
RACCORDO
100
AcDbLine
 62
7
  6
CONTINUOUS
 10
-3.2012457255
 20
-17.9461401745
 11
-2.1218537762
 21
-18.5693675581
  0
LINE
  5
34D
100
AcDbEntity
  8
RACCORDO
100
AcDbLine
 62
7
  6
CONTINUOUS
 10
4.0609717096
 20
-22.1392535046
 11
4.3350385702
 21
-22.297496275
  0
LINE
  5
34E
100
AcDbEntity
  8
RACCORDO
100
AcDbLine
 62
7
  6
CONTINUOUS
 10
9.4337489871
 20
-25.2414277679
 11
9.8611308508
 21
-25.4881926997
  0
LINE
  5
34F
100
AcDbEntity
  8
RACCORDO
100
AcDbLine
 62
7
  6
CONTINUOUS
 10
12.7086568512
 20
-27.1323185244
 11
13.7880488005
 21
-27.755545908
  0
LINE
  5
350
100
AcDbEntity
  8
RACCORDO
100
AcDbLine
 62
7
  6
CONTINUOUS
 10
19.9708742863
 20
-31.3254318544
 11
20.2449411469
 21
-31.4836746249
  0
LINE
  5
351
100
AcDbEntity
  8
RACCORDO
100
AcDbLine
 62
7
  6
CONTINUOUS
 10
25.3436515638
 20
-34.4276061178
 11
25.7710334275
 21
-34.6743710495
  0
LINE
  5
352
100
AcDbEntity
  8
RACCORDO
100
AcDbLine
 62
7
  6
CONTINUOUS
 10
28.6185594279
 20
-36.3184968742
 11
28.8332158064
 21
-36.442436777
  0
LINE
  5
353
100
AcDbEntity
  8
0
100
AcDbLine
 62
7
  6
CONTINUOUS
 10
33.0727404563
 20
-38.8380767102
 11
30.2802603637
 21
-37.2257337027
  0
LINE
  5
354
100
AcDbEntity
  8
0
100
AcDbLine
 62
7
  6
CONTINUOUS
 10
-30.5668698505
 20
-2.0933633107
 11
-33.3593499431
 21
-0.4810203032
  0
LINE
  5
355
100
AcDbEntity
  8
0
100
AcDbLine
 62
7
  6
CONTINUOUS
 10
33.211735873
 20
-38.7550210845
 11
30.4216817199
 21
-37.1440787841
  0
LINE
  5
356
100
AcDbEntity
  8
0
100
AcDbLine
 62
7
  6
CONTINUOUS
 10
-30.4278744338
 20
-2.010307685
 11
-33.2179285869
 21
-0.3993653846
  0
LINE
  5
357
100
AcDbEntity
  8
RACCORDO
100
AcDbLine
 62
7
  6
CONTINUOUS
 10
-27.0792705678
 20
-3.7820503444
 11
-22.3860561663
 21
-6.49185352
  0
LINE
  5
358
100
AcDbEntity
  8
RACCORDO
100
AcDbLine
 62
7
  6
CONTINUOUS
 10
-11.1693679911
 20
-12.9682286943
 11
-6.6882533152
 21
-15.5555681466
  0
LINE
  5
359
100
AcDbEntity
  8
RACCORDO
100
AcDbLine
 62
7
  6
CONTINUOUS
 10
4.7405345856
 20
-22.1544070441
 11
9.2216492615
 21
-24.7417464964
  0
LINE
  5
35A
100
AcDbEntity
  8
RACCORDO
100
AcDbLine
 62
7
  6
CONTINUOUS
 10
20.6504371623
 20
-31.340585394
 11
25.1315518382
 21
-33.9279248463
  0
LINE
  5
35B
100
AcDbEntity
  8
RACCORDO
100
AcDbLine
 62
7
  6
CONTINUOUS
 10
36.2183680891
 20
-40.2462335263
 11
33.5683068962
 21
-38.7161214066
  0
LINE
  5
35C
100
AcDbEntity
  8
RACCORDO
100
AcDbLine
 62
7
  6
CONTINUOUS
 10
28.2650060373
 20
-35.6540619566
 11
26.3060356132
 21
-34.5229769854
  0
LINE
  5
35D
100
AcDbEntity
  8
RACCORDO
100
AcDbLine
 62
7
  6
CONTINUOUS
 10
19.7587745606
 20
-30.7426705101
 11
17.6583504716
 21
-29.5299119656
  0
LINE
  5
35E
100
AcDbEntity
  8
RACCORDO
100
AcDbLine
 62
7
  6
CONTINUOUS
 10
12.3551573085
 20
-26.4679146978
 11
10.3961330365
 21
-25.3367986355
  0
LINE
  5
35F
100
AcDbEntity
  8
RACCORDO
100
AcDbLine
 62
7
  6
CONTINUOUS
 10
3.848871984
 20
-21.5564921603
 11
1.7484478949
 21
-20.3437336157
  0
LINE
  5
360
100
AcDbEntity
  8
RACCORDO
100
AcDbLine
 62
7
  6
CONTINUOUS
 10
-3.5547452682
 20
-17.281736348
 11
-5.6551693573
 21
-16.0689778034
  0
LINE
  5
361
100
AcDbEntity
  8
RACCORDO
100
AcDbLine
 62
7
  6
CONTINUOUS
 10
-12.2024304098
 20
-12.2886713282
 11
-14.1614546818
 21
-11.1575552658
  0
LINE
  5
362
100
AcDbEntity
  8
RACCORDO
100
AcDbLine
 62
7
  6
CONTINUOUS
 10
-19.4646478449
 20
-8.0955579981
 11
-21.565071934
 21
-6.8827994536
  0
LINE
  5
363
100
AcDbEntity
  8
RACCORDO
100
AcDbLine
 62
7
  6
CONTINUOUS
 10
-28.1123329865
 20
-3.1024929783
 11
-30.0713034106
 21
-1.9714080071
  0
LINE
  5
364
100
AcDbEntity
  8
RACCORDO
100
AcDbLine
 62
7
  6
CONTINUOUS
 10
-35.3746042695
 20
1.0906514429
 11
-40.8193264847
 21
4.2343658115
  0
LINE
  5
365
100
AcDbEntity
  8
0
100
AcDbLine
 62
7
  6
CONTINUOUS
 10
33.5683871958
 20
-38.7159823324
 11
30.6338137542
 21
-37.0215964061
  0
LINE
  5
366
100
AcDbEntity
  8
0
100
AcDbLine
 62
7
  6
CONTINUOUS
 10
-30.0712231109
 20
-1.9712689329
 11
-33.0057965525
 21
-0.2768830066
  0
LINE
  5
367
100
AcDbEntity
  8
0
100
AcDbLine
 62
7
  6
CONTINUOUS
 10
34.7703884242
 20
-39.2466811032
 11
30.7752351105
 21
-36.9399414874
  0
LINE
  5
368
100
AcDbEntity
  8
0
100
AcDbLine
 62
7
  6
CONTINUOUS
 10
-29.3604848102
 20
-2.2183304828
 11
-32.8643751963
 21
-0.1952280879
  0
LINE
  5
369
100
AcDbEntity
  8
RACCORDO
100
AcDbLine
 62
7
  6
CONTINUOUS
 10
-40.8193264847
 20
4.6425156463
 11
-40.6072492463
 21
4.5200649068
  0
LINE
  5
36A
100
AcDbEntity
  8
0
100
AcDbLine
 62
7
  6
CONTINUOUS
 10
-28.9982477279
 20
-2.182827075
 11
-27.7465456451
 21
-2.9055441701
  0
LINE
  5
36B
100
AcDbEntity
  8
0
100
AcDbLine
 62
7
  6
CONTINUOUS
 10
-13.0883451512
 20
-11.3690054248
 11
-11.8366430684
 21
-12.0917225199
  0
LINE
  5
36C
100
AcDbEntity
  8
0
100
AcDbLine
 62
7
  6
CONTINUOUS
 10
10.7497931911
 20
-25.1328477417
 11
12.001495274
 21
-25.8555648368
  0
LINE
  5
36D
100
AcDbEntity
  8
0
100
AcDbLine
 62
7
  6
CONTINUOUS
 10
26.6596957678
 20
-34.3190260915
 11
27.9113978507
 21
-35.0417431866
  0
LINE
  5
36E
100
AcDbEntity
  8
0
100
AcDbLine
 62
7
  6
CONTINUOUS
 10
34.8764544414
 20
-39.0629693727
 11
30.9873671448
 21
-36.8174591094
  0
LINE
  5
36F
100
AcDbEntity
  8
0
100
AcDbLine
 62
7
  6
CONTINUOUS
 10
-29.1246002195
 20
-2.1095625331
 11
-32.652243162
 21
-0.0727457099
  0
LINE
  5
370
100
AcDbEntity
  8
RACCORDO
100
AcDbLine
 62
7
  6
CONTINUOUS
 10
-40.8193264847
 20
4.8045768788
 11
-40.3634075237
 21
4.5413349848
  0
LINE
  5
371
100
AcDbEntity
  8
0
100
AcDbLine
 62
7
  6
CONTINUOUS
 10
-12.8445034286
 20
-11.3477353469
 11
-11.5928013458
 21
-12.070452442
  0
LINE
  5
372
100
AcDbEntity
  8
0
100
AcDbLine
 62
7
  6
CONTINUOUS
 10
10.9936349137
 20
-25.1115776637
 11
12.2453369966
 21
-25.8342947588
  0
LINE
  5
373
100
AcDbEntity
  8
0
100
AcDbLine
 62
7
  6
CONTINUOUS
 10
26.9035374904
 20
-34.2977560136
 11
28.1552395733
 21
-35.0204731087
  0
LINE
  5
374
100
AcDbEntity
  8
0
100
AcDbLine
 62
7
  6
CONTINUOUS
 10
35.1239418148
 20
-39.0425438066
 11
31.1287885011
 21
-36.7358041908
  0
LINE
  5
375
100
AcDbEntity
  8
0
100
AcDbLine
 62
7
  6
CONTINUOUS
 10
-27.5027039225
 20
-2.8842740921
 11
-32.5108218057
 21
0.0089092087
  0
LINE
  5
376
100
AcDbEntity
  8
0
100
AcDbLine
 62
7
  6
CONTINUOUS
 10
35.230007832
 20
-38.8588320761
 11
31.3409205354
 21
-36.6133218128
  0
LINE
  5
377
100
AcDbEntity
  8
0
100
AcDbLine
 62
7
  6
CONTINUOUS
 10
-28.4096024748
 20
-2.1141186766
 11
-32.2986897714
 21
0.1313915867
  0
LINE
  5
378
100
AcDbEntity
  8
0
100
AcDbLine
 62
7
  6
CONTINUOUS
 10
35.4774952054
 20
-38.8384065099
 11
31.4823418917
 21
-36.5316668941
  0
LINE
  5
379
100
AcDbEntity
  8
0
100
AcDbLine
 62
7
  6
CONTINUOUS
 10
-32.1572684151
 20
0.2130465054
 11
-28.1621151014
 21
-2.0936931104
  0
LINE
  5
37A
100
AcDbEntity
  8
0
100
AcDbLine
 62
7
  6
CONTINUOUS
 10
35.5835612226
 20
-38.6546947794
 11
31.694473926
 21
-36.4091845161
  0
LINE
  5
37B
100
AcDbEntity
  8
0
100
AcDbLine
 62
7
  6
CONTINUOUS
 10
-28.0560490842
 20
-1.9099813799
 11
-31.9451363808
 21
0.3355288834
  0
LINE
  5
37C
100
AcDbEntity
  8
0
100
AcDbLine
 62
7
  6
CONTINUOUS
 10
35.831048596
 20
-38.6342692132
 11
31.8358952823
 21
-36.3275295974
  0
LINE
  5
37D
100
AcDbEntity
  8
0
100
AcDbLine
 62
7
  6
CONTINUOUS
 10
-31.8037150245
 20
0.4171838021
 11
-27.8085617108
 21
-1.8895558138
  0
LINE
  5
37E
100
AcDbEntity
  8
0
100
AcDbLine
 62
7
  6
CONTINUOUS
 10
35.9371146131
 20
-38.4505574827
 11
32.0480273166
 21
-36.2050472194
  0
LINE
  5
37F
100
AcDbEntity
  8
0
100
AcDbLine
 62
7
  6
CONTINUOUS
 10
-27.7024956936
 20
-1.7058440832
 11
-31.5915829902
 21
0.5396661801
  0
LINE
  5
380
100
AcDbEntity
  8
0
100
AcDbLine
 62
7
  6
CONTINUOUS
 10
36.1846019866
 20
-38.4301319166
 11
32.1894486729
 21
-36.1233923008
  0
LINE
  5
381
100
AcDbEntity
  8
0
100
AcDbLine
 62
7
  6
CONTINUOUS
 10
-31.4501616339
 20
0.6213210987
 11
-27.4550083202
 21
-1.6854185171
  0
LINE
  5
382
100
AcDbEntity
  8
0
100
AcDbLine
 62
7
  6
CONTINUOUS
 10
36.2183680891
 20
-38.2046751215
 11
32.4015807072
 21
-36.0009099228
  0
LINE
  5
383
100
AcDbEntity
  8
0
100
AcDbLine
 62
7
  6
CONTINUOUS
 10
-27.3489423031
 20
-1.5017067866
 11
-31.2380295996
 21
0.7438034767
  0
LINE
  5
384
100
AcDbEntity
  8
0
100
AcDbLine
 62
7
  6
CONTINUOUS
 10
36.2183680891
 20
-38.0413652841
 11
32.5430020634
 21
-35.9192550041
  0
LINE
  5
385
100
AcDbEntity
  8
0
100
AcDbLine
 62
7
  6
CONTINUOUS
 10
-31.1747305007
 20
0.8705770442
 11
-31.0966031178
 21
0.8254672725
  0
LINE
  5
386
100
AcDbEntity
  8
0
100
AcDbLine
 62
7
  6
CONTINUOUS
 10
-27.1014549296
 20
-1.4812812204
 11
-26.9172666551
 21
-1.5876292217
  0
LINE
  5
387
100
AcDbEntity
  8
ASSI
100
AcDbLine
 62
7
  6
CONTINUOUS
 10
-15.264827924
 20
-8.3156013057
 11
-11.0073640784
 21
-10.7738075716
  0
LINE
  5
388
100
AcDbEntity
  8
ASSI
100
AcDbLine
 62
7
  6
CONTINUOUS
 10
0.6450746527
 20
-17.5017796556
 11
4.9025384983
 21
-19.9599859215
  0
LINE
  5
389
100
AcDbEntity
  8
ASSI
100
AcDbLine
 62
7
  6
CONTINUOUS
 10
16.5549772294
 20
-26.6879580055
 11
20.812441075
 21
-29.1461642713
  0
LINE
  5
38A
100
AcDbEntity
  8
0
100
AcDbLine
 62
7
  6
CONTINUOUS
 10
32.4648798061
 20
-35.8741363553
 11
32.543007189
 21
-35.919246127
  0
LINE
  5
38B
100
AcDbEntity
  8
0
100
AcDbLine
 62
7
  6
CONTINUOUS
 10
-31.0966082433
 20
0.8254583954
 11
-27.1014549296
 21
-1.4812812204
  0
LINE
  5
38C
100
AcDbEntity
  8
0
100
AcDbLine
 62
7
  6
CONTINUOUS
 10
-31.0356320687
 20
0.8579225667
 11
-26.8593013426
 21
-1.5534478945
  0
LINE
  5
38D
100
AcDbEntity
  8
ASSI
100
AcDbLine
 62
7
  6
CONTINUOUS
 10
-15.1226632428
 20
-8.3300356387
 11
-10.9495190956
 21
-10.7395567675
  0
LINE
  5
38E
100
AcDbEntity
  8
ASSI
100
AcDbLine
 62
7
  6
CONTINUOUS
 10
0.7872393339
 20
-17.5162139886
 11
4.9603834811
 21
-19.9257351174
  0
LINE
  5
38F
100
AcDbEntity
  8
ASSI
100
AcDbLine
 62
7
  6
CONTINUOUS
 10
16.6971419106
 20
-26.7023923385
 11
20.8702860578
 21
-29.1119134673
  0
LINE
  5
390
100
AcDbEntity
  8
0
100
AcDbLine
 62
7
  6
CONTINUOUS
 10
32.6039782381
 20
-35.8867908328
 11
36.2183680891
 21
-37.9737036755
  0
LINE
  5
391
100
AcDbEntity
  8
RACCORDO
100
AcDbLine
 62
7
  6
CONTINUOUS
 10
-42.0386553366
 20
10.5344581965
 11
-42.0865645231
 21
10.5621203603
  0
LINE
  5
392
100
AcDbEntity
  8
DRAFT
100
AcDbLine
 62
7
  6
CONTINUOUS
 10
-41.9262415333
 20
10.5070467422
 11
-41.572755636
 21
10.3029484153
  0
LINE
  5
393
100
AcDbEntity
  8
RACCORDO
100
AcDbLine
 62
7
  6
CONTINUOUS
 10
-41.031458519
 20
10.2112065615
 11
-41.7213283871
 21
10.6095287773
  0
LWPOLYLINE
  5
394
100
AcDbEntity
  8
RACCORDO
100
AcDbPolyline
 62
7
  6
CONTINUOUS
 90
22
 70
0
 10
-40.6072492463
 20
4.5200649068
 10
-40.5803936692
 20
4.5039209506
 10
-40.5537227149
 20
4.4855655427
 10
-40.5273854805
 20
4.4651012942
 10
-40.5015291972
 20
4.442642605
 10
-40.476298408
 20
4.4183150246
 10
-40.4518341589
 20
4.39225455
 10
-40.4282732109
 20
4.3646068654
 10
-40.4057472753
 20
4.335526528
 10
-40.3843822775
 20
4.3051761038
 10
-40.3642976528
 20
4.2737252588
 10
-40.3456056792
 20
4.2413498108
 10
-40.3284108491
 20
4.2082307462
 10
-40.3128092858
 20
4.1745532085
 10
-40.2988882058
 20
4.1405054632
 10
-40.2867254312
 20
4.1062778452
 10
-40.2763889547
 20
4.0720616951
 10
-40.2679365599
 20
4.0380482893
 10
-40.2614154974
 20
4.0044277708
 10
-40.2568622218
 20
3.9713880864
 10
-40.2543021868
 20
3.9391139358
 10
-40.2537497036
 20
3.907785739
  0
LWPOLYLINE
  5
395
100
AcDbEntity
  8
0
100
AcDbPolyline
 62
7
  6
CONTINUOUS
 90
22
 70
0
 10
12.001495274
 20
-25.8555648368
 10
12.0283508511
 20
-25.8717087929
 10
12.0550218053
 20
-25.8900642009
 10
12.0813590398
 20
-25.9105284494
 10
12.107215323
 20
-25.9329871386
 10
12.1324461123
 20
-25.957314719
 10
12.1569103614
 20
-25.9833751936
 10
12.1804713094
 20
-26.0110228782
 10
12.2029972449
 20
-26.0401032156
 10
12.2243622428
 20
-26.0704536398
 10
12.2444468674
 20
-26.1019044848
 10
12.2631388411
 20
-26.1342799328
 10
12.2803336712
 20
-26.1673989974
 10
12.2959352344
 20
-26.2010765351
 10
12.3098563145
 20
-26.2351242804
 10
12.3220190891
 20
-26.2693518984
 10
12.3323555655
 20
-26.3035680485
 10
12.3408079604
 20
-26.3375814543
 10
12.3473290228
 20
-26.3712019727
 10
12.3518822985
 20
-26.4042416571
 10
12.3544423335
 20
-26.4365158078
 10
12.3549948167
 20
-26.4678440045
  0
LWPOLYLINE
  5
396
100
AcDbEntity
  8
0
100
AcDbPolyline
 62
7
  6
CONTINUOUS
 90
22
 70
0
 10
27.9113978507
 20
-35.0417431866
 10
27.9382534278
 20
-35.0578871428
 10
27.964924382
 20
-35.0762425507
 10
27.9912616165
 20
-35.0967067993
 10
28.0171178997
 20
-35.1191654885
 10
28.042348689
 20
-35.1434930689
 10
28.0668129381
 20
-35.1695535435
 10
28.0903738861
 20
-35.197201228
 10
28.1128998216
 20
-35.2262815654
 10
28.1342648195
 20
-35.2566319897
 10
28.1543494441
 20
-35.2880828347
 10
28.1730414178
 20
-35.3204582827
 10
28.1902362479
 20
-35.3535773473
 10
28.2058378111
 20
-35.387254885
 10
28.2197588912
 20
-35.4213026303
 10
28.2319216658
 20
-35.4555302482
 10
28.2422581422
 20
-35.4897463983
 10
28.2507105371
 20
-35.5237598041
 10
28.2572315995
 20
-35.5573803226
 10
28.2617848752
 20
-35.590420007
 10
28.2643449102
 20
-35.6226941577
 10
28.2648973934
 20
-35.6540223544
  0
LWPOLYLINE
  5
397
100
AcDbEntity
  8
0
100
AcDbPolyline
 62
7
  6
CONTINUOUS
 90
16
 70
0
 10
-27.5027006482
 20
-2.8842759827
 10
-27.4806008917
 20
-2.897811863
 10
-27.450500399
 20
-2.9189511498
 10
-27.4219686544
 20
-2.9423048979
 10
-27.3951644585
 20
-2.9677703155
 10
-27.3702580489
 20
-2.9952147425
 10
-27.3473902717
 20
-3.0245153203
 10
-27.3267039949
 20
-3.0555284691
 10
-27.3083369047
 20
-3.088091649
 10
-27.2924105792
 20
-3.1220391545
 10
-27.2790348564
 20
-3.1571980534
 10
-27.2683125699
 20
-3.193371327
 10
-27.2603321773
 20
-3.2303420908
 10
-27.2551590832
 20
-3.2679127043
 10
-27.2528464189
 20
-3.3058605692
 10
-27.2527160027
 20
-3.3172865538
  0
LWPOLYLINE
  5
398
100
AcDbEntity
  8
0
100
AcDbPolyline
 62
7
  6
CONTINUOUS
 90
16
 70
0
 10
-11.5927980715
 20
-12.0704543326
 10
-11.5706983152
 20
-12.0839902128
 10
-11.5405978225
 20
-12.1051294995
 10
-11.5120660778
 20
-12.1284832477
 10
-11.4852618819
 20
-12.1539486652
 10
-11.4603554724
 20
-12.1813930922
 10
-11.4374876951
 20
-12.21069367
 10
-11.4168014183
 20
-12.2417068188
 10
-11.3984343281
 20
-12.2742699987
 10
-11.3825080026
 20
-12.3082175041
 10
-11.3691322798
 20
-12.343376403
 10
-11.3584099933
 20
-12.3795496767
 10
-11.3504296006
 20
-12.4165204404
 10
-11.3452565065
 20
-12.4540910539
 10
-11.3429438422
 20
-12.4920389188
 10
-11.342813426
 20
-12.5034649037
  0
LWPOLYLINE
  5
399
100
AcDbEntity
  8
0
100
AcDbPolyline
 62
7
  6
CONTINUOUS
 90
11
 70
0
 10
28.8332157007
 20
-36.4424367159
 10
28.844318985
 20
-36.4494441801
 10
28.8612225277
 20
-36.462720895
 10
28.8766054888
 20
-36.4782556751
 10
28.8903836636
 20
-36.4959638206
 10
28.9024822354
 20
-36.5157496358
 10
28.9128352782
 20
-36.5375066171
 10
28.9213849049
 20
-36.5611149962
 10
28.928083116
 20
-36.5864425715
 10
28.9328933696
 20
-36.6133492647
 10
28.9357900019
 20
-36.6416886409
  0
LWPOLYLINE
  5
39A
100
AcDbEntity
  8
0
100
AcDbPolyline
 62
7
  6
CONTINUOUS
 90
22
 70
0
 10
-27.7465456451
 20
-2.9055441701
 10
-27.7206017974
 20
-2.9222086593
 10
-27.6948376151
 20
-2.9410834033
 10
-27.6693972377
 20
-2.9620628058
 10
-27.6444229932
 20
-2.985029496
 10
-27.620054602
 20
-3.0098549852
 10
-27.5964283947
 20
-3.0364003852
 10
-27.57367655
 20
-3.0645171859
 10
-27.5519263547
 20
-3.0940480857
 10
-27.5312994919
 20
-3.124827872
 10
-27.51191136
 20
-3.1566843448
 10
-27.4938704275
 20
-3.1894392809
 10
-27.4772776256
 20
-3.2229094302
 10
-27.462225784
 20
-3.2569075415
 10
-27.4487991113
 20
-3.29124341
 10
-27.4370727241
 20
-3.3257249411
 10
-27.4271122264
 20
-3.3601592254
 10
-27.418973343
 20
-3.3943536177
 10
-27.4127016075
 20
-3.4281168149
 10
-27.4083321075
 20
-3.4612599263
 10
-27.4058892886
 20
-3.4935975304
 10
-27.4053868173
 20
-3.524948712
  0
LWPOLYLINE
  5
39B
100
AcDbEntity
  8
0
100
AcDbPolyline
 62
7
  6
CONTINUOUS
 90
22
 70
0
 10
-11.8366430684
 20
-12.0917225199
 10
-11.810699221
 20
-12.108387009
 10
-11.7849350388
 20
-12.1272617528
 10
-11.7594946615
 20
-12.1482411551
 10
-11.7345204172
 20
-12.1712078452
 10
-11.710152026
 20
-12.1960333343
 10
-11.6865258188
 20
-12.2225787342
 10
-11.6637739741
 20
-12.2506955347
 10
-11.6420237788
 20
-12.2802264344
 10
-11.621396916
 20
-12.3110062205
 10
-11.6020087841
 20
-12.3428626933
 10
-11.5839678515
 20
-12.3756176293
 10
-11.5673750495
 20
-12.4090877787
 10
-11.5523232078
 20
-12.4430858901
 10
-11.5388965351
 20
-12.4774217586
 10
-11.5271701477
 20
-12.5119032898
 10
-11.51720965
 20
-12.5463375742
 10
-11.5090707665
 20
-12.5805319666
 10
-11.5027990309
 20
-12.614295164
 10
-11.4984295309
 20
-12.6474382756
 10
-11.4959867119
 20
-12.6797758799
 10
-11.4954842406
 20
-12.7111270619
  0
LWPOLYLINE
  5
39C
100
AcDbEntity
  8
0
100
AcDbPolyline
 62
7
  6
CONTINUOUS
 90
16
 70
0
 10
-1.4778903267
 20
-22.9407874545
 10
-1.5165097398
 20
-22.9042091599
 10
-1.5570350522
 20
-22.8685920817
 10
-1.5994662639
 20
-22.8339362197
 10
-1.643885664
 20
-22.8003065693
 10
-1.6902109635
 20
-22.7676381352
 10
-1.7381952947
 20
-22.7357359317
 10
-1.7877645569
 20
-22.7045360404
 10
-1.8389928508
 20
-22.6741023797
 10
-1.8918556117
 20
-22.6444317197
 10
-1.9463647313
 20
-22.6155717302
 10
-2.0025083179
 20
-22.5874747414
 10
-2.0602261313
 20
-22.5599945135
 10
-2.1194980916
 20
-22.5330822999
 10
-2.1803442787
 20
-22.5067868472
 10
-2.2427646926
 20
-22.4811081554
  0
LWPOLYLINE
  5
39D
100
AcDbEntity
  8
0
100
AcDbPolyline
 62
7
  6
CONTINUOUS
 90
16
 70
0
 10
-1.6193116829
 20
-23.0224423731
 10
-1.6577528767
 20
-22.9860071844
 10
-1.698154981
 20
-22.9504865095
 10
-1.7405179959
 20
-22.9158803484
 10
-1.7849464938
 20
-22.8822345793
 10
-1.8313359022
 20
-22.849503324
 10
-1.8793725035
 20
-22.8175489481
 10
-1.9289530895
 20
-22.7863312383
 10
-1.9801808684
 20
-22.7558904078
 10
-2.0330517466
 20
-22.726209463
 10
-2.0875861325
 20
-22.6973303071
 10
-2.1437636178
 20
-22.6692110367
 10
-2.201518884
 20
-22.6417089486
 10
-2.2608301581
 20
-22.6147764749
 10
-2.3217192131
 20
-22.5884611834
 10
-2.3841860489
 20
-22.5627630741
  0
LWPOLYLINE
  5
39E
100
AcDbEntity
  8
0
100
AcDbPolyline
 62
7
  6
CONTINUOUS
 90
4
 70
0
 10
-1.3988405391
 20
-23.8949334297
 10
-1.4140183253
 20
-23.8731396539
 10
-1.4297163903
 20
-23.8532664618
 10
-1.4344581348
 20
-23.8480176718
  0
LINE
  5
39F
100
AcDbEntity
  8
0
100
AcDbLine
 62
7
  6
CONTINUOUS
 10
-3.7449931626
 20
-23.4714628348
 11
-3.8838385288
 21
-21.6768521944
  0
LINE
  5
3A0
100
AcDbEntity
  8
0
100
AcDbLine
 62
7
  6
CONTINUOUS
 10
-11.4954842406
 20
-12.7111270619
 11
-11.4954842406
 21
-13.0622282872
  0
LINE
  5
3A1
100
AcDbEntity
  8
0
100
AcDbLine
 62
7
  6
CONTINUOUS
 10
-11.3428134258
 20
-12.5034581692
 11
-11.3428134258
 21
-12.9678143652
  0
LINE
  5
3A2
100
AcDbEntity
  8
ASSI
100
AcDbLine
 62
7
  6
CONTINUOUS
 10
-11.0003505486
 20
-10.7695339081
 11
-11.0003505486
 21
-11.1707084759
  0
LINE
  5
3A3
100
AcDbEntity
  8
ASSI
100
AcDbLine
 62
7
  6
CONTINUOUS
 10
-10.9489795137
 20
-10.7404915025
 11
-10.9489795137
 21
-11.1401812268
  0
LINE
  5
3A4
100
AcDbEntity
  8
RACCORDO
100
AcDbLine
 62
7
  6
CONTINUOUS
 10
-6.4761535896
 20
-16.4241681579
 11
-6.4761535896
 21
-15.9229356472
  0
LINE
  5
3A5
100
AcDbEntity
  8
0
100
AcDbLine
 62
7
  6
CONTINUOUS
 10
-5.727620875
 20
-20.6121725005
 11
-5.727620875
 21
-22.3267184418
  0
LWPOLYLINE
  5
3A6
100
AcDbEntity
  8
0
100
AcDbPolyline
 62
7
  6
CONTINUOUS
 90
12
 70
0
 10
-11.342813426
 20
-12.5034649037
 10
-11.3433745424
 20
-12.5171314275
 10
-11.3465957104
 20
-12.5389004434
 10
-11.3526571762
 20
-12.5604614058
 10
-11.3615231959
 20
-12.5816930303
 10
-11.3731435963
 20
-12.6024767551
 10
-11.3874622029
 20
-12.6227068735
 10
-11.4043900868
 20
-12.6422534886
 10
-11.4237918074
 20
-12.6609705743
 10
-11.4455286533
 20
-12.6787452538
 10
-11.4694753958
 20
-12.69549373
 10
-11.4954842406
 20
-12.7111270619
  0
LINE
  5
3A7
100
AcDbEntity
  8
ASSI
100
AcDbLine
 62
7
  6
CONTINUOUS
 10
-11.5523339673
 20
-11.7064103244
 11
-11.4850866581
 21
-11.4554517871
  0
LINE
  5
3A8
100
AcDbEntity
  8
RACCORDO
100
AcDbLine
 62
7
  6
CONTINUOUS
 10
-27.2318637796
 20
-3.7687406879
 11
-28.1350572219
 21
-4.3272890608
  0
LINE
  5
3A9
100
AcDbEntity
  8
RACCORDO
100
AcDbLine
 62
7
  6
CONTINUOUS
 10
-27.0792705678
 20
-3.7820503444
 11
-27.9824640101
 21
-4.3405987173
  0
LINE
  5
3AA
100
AcDbEntity
  8
0
100
AcDbLine
 62
7
  6
CONTINUOUS
 10
-26.9102531253
 20
-2.0661771537
 11
-27.9062729872
 21
-2.6512583721
  0
LINE
  5
3AB
100
AcDbEntity
  8
0
100
AcDbLine
 62
7
  6
CONTINUOUS
 10
-27.6583193095
 20
-2.6339325298
 11
-27.7970028587
 21
-2.7143495747
  0
LINE
  5
3AC
100
AcDbEntity
  8
RACCORDO
100
AcDbLine
 62
7
  6
CONTINUOUS
 10
-28.6878924873
 20
-3.4348127187
 11
-28.1123329865
 21
-3.1024929783
  0
LINE
  5
3AD
100
AcDbEntity
  8
RACCORDO
100
AcDbLine
 62
7
  6
CONTINUOUS
 10
-28.1621151014
 20
-3.9476211488
 11
-27.7651115053
 21
-3.718397008
  0
LINE
  5
3AE
100
AcDbEntity
  8
0
100
AcDbLine
 62
7
  6
CONTINUOUS
 10
-28.9982477279
 20
-2.182827075
 11
-29.3642504773
 21
-2.3796515093
  0
LINE
  5
3AF
100
AcDbEntity
  8
0
100
AcDbLine
 62
7
  6
CONTINUOUS
 10
-28.1125483945
 20
-3.1023686044
 11
-27.7465456451
 21
-2.9055441701
  0
LINE
  5
3B0
100
AcDbEntity
  8
0
100
AcDbLine
 62
7
  6
CONTINUOUS
 10
-27.7651115053
 20
-3.718397008
 11
-27.4053868173
 21
-3.524948712
  0
LINE
  5
3B1
100
AcDbEntity
  8
DRAFT
100
AcDbLine
 62
7
  6
CONTINUOUS
 10
-28.1621151014
 20
-3.9029657699
 11
-28.7043432276
 21
-4.1832294586
  0
LINE
  5
3B2
100
AcDbEntity
  8
0
100
AcDbLine
 62
7
  6
CONTINUOUS
 10
-29.2412310774
 20
-2.1541996845
 11
-29.2361024851
 21
-2.1515551622
  0
LWPOLYLINE
  5
3B3
100
AcDbEntity
  8
0
100
AcDbPolyline
 62
7
  6
CONTINUOUS
 90
6
 70
0
 10
-29.2412310774
 20
-2.1541996845
 10
-29.2092834243
 20
-2.138459504
 10
-29.1760044867
 20
-2.1249266127
 10
-29.1415800139
 20
-2.1137440418
 10
-29.1062172755
 20
-2.1050354795
 10
-29.0701332732
 20
-2.0989000249
  0
LWPOLYLINE
  5
3B4
100
AcDbEntity
  8
0
100
AcDbPolyline
 62
7
  6
CONTINUOUS
 90
11
 70
0
 10
-29.2361024851
 20
-2.1515551622
 10
-29.2161153405
 20
-2.1432412545
 10
-29.1949447579
 20
-2.1374503413
 10
-29.1727090858
 20
-2.1342147952
 10
-29.1495326269
 20
-2.1335527036
 10
-29.1255449432
 20
-2.1354677677
 10
-29.1008801315
 20
-2.1399492819
 10
-29.0756760741
 20
-2.1469721935
 10
-29.0500736675
 20
-2.1564972427
 10
-29.0242160353
 20
-2.1684711823
 10
-28.9982477279
 20
-2.182827075
  0
LWPOLYLINE
  5
3B5
100
AcDbEntity
  8
0
100
AcDbPolyline
 62
7
  6
CONTINUOUS
 90
4
 70
0
 10
-31.1669411867
 20
0.8744027796
 10
-31.1543287919
 20
0.8790188238
 10
-31.1412981972
 20
0.8820764938
 10
-31.1279961467
 20
0.8835952136
  0
LWPOLYLINE
  5
3B6
100
AcDbEntity
  8
0
100
AcDbPolyline
 62
7
  6
CONTINUOUS
 90
5
 70
0
 10
-13.1602306965
 20
-11.2850783748
 10
-13.1236387356
 20
-11.2815899571
 10
-13.0867711802
 20
-11.2808010543
 10
-13.0498647415
 20
-11.2827387582
 10
-13.0131194177
 20
-11.2874108841
  0
LWPOLYLINE
  5
3B7
100
AcDbEntity
  8
0
100
AcDbPolyline
 62
7
  6
CONTINUOUS
 90
12
 70
0
 10
-35.002741086
 20
0.1721304436
 10
-34.9245708704
 20
0.1574364968
 10
-34.9043869263
 20
0.1534008411
 10
-34.8839571043
 20
0.1490261272
 10
-34.8633435814
 20
0.144238776
 10
-34.8426131256
 20
0.1389607961
 10
-34.8216527811
 20
0.1330512034
 10
-34.8006927886
 20
0.1264399274
 10
-34.78029936
 20
0.1192116557
 10
-34.7606145601
 20
0.1113724154
 10
-34.7415827664
 20
0.102842704
 10
-34.7234326795
 20
0.093679751
  0
LINE
  5
3B8
100
AcDbEntity
  8
0
100
AcDbLine
 62
7
  6
CONTINUOUS
 10
-35.0215678139
 20
0.1758306868
 11
-35.002741086
 21
0.1721304436
  0
LWPOLYLINE
  5
3B9
100
AcDbEntity
  8
0
100
AcDbPolyline
 62
7
  6
CONTINUOUS
 90
6
 70
0
 10
-28.9230219944
 20
-2.1012325342
 10
-28.8866191556
 20
-2.1086374118
 10
-28.8508200556
 20
-2.1187396015
 10
-28.8158877174
 20
-2.131468457
 10
-28.7818869002
 20
-2.1468129433
 10
-28.7543919045
 20
-2.1615651395
  0
LWPOLYLINE
  5
3BA
100
AcDbEntity
  8
ASSI
100
AcDbPolyline
 62
7
  6
CONTINUOUS
 90
8
 70
0
 10
-15.1768492144
 20
-8.3072291073
 10
-15.1900299035
 20
-8.3044122224
 10
-15.2027005069
 20
-8.30285786
 10
-15.2148408553
 20
-8.302497892
 10
-15.2263733848
 20
-8.3032532472
 10
-15.2372573786
 20
-8.3050696147
 10
-15.2474843451
 20
-8.3079230139
 10
-15.25703861
 20
-8.3117755703
  0
LWPOLYLINE
  5
3BB
100
AcDbEntity
  8
0
100
AcDbPolyline
 62
7
  6
CONTINUOUS
 90
4
 70
0
 10
-31.0877430748
 20
0.8792165131
 10
-31.0744430176
 20
0.8753740072
 10
-31.0613309675
 20
0.8704296452
 10
-31.0483765578
 20
0.8645974267
  0
LINE
  5
3BC
100
AcDbEntity
  8
RACCORDO
100
AcDbLine
 62
7
  6
CONTINUOUS
 10
-41.1033711479
 20
16.7014101537
 11
-41.572755636
 21
16.9724268743
  0
LINE
  5
3BD
100
AcDbEntity
  8
0
100
AcDbLine
 62
7
  6
CONTINUOUS
 10
-4.8874443758
 20
-21.6923266849
 11
-4.5238521902
 21
-23.0217593936
  0
LINE
  5
3BE
100
AcDbEntity
  8
0
100
AcDbLine
 62
7
  6
CONTINUOUS
 10
-4.5004257425
 20
-22.2727063747
 11
-4.807088054
 21
-21.1437794896
  0
LINE
  5
3BF
100
AcDbEntity
  8
0
100
AcDbLine
 62
7
  6
CONTINUOUS
 10
-4.4028931462
 20
-22.0294822017
 11
-4.6656666978
 21
-21.0621245709
  0
LWPOLYLINE
  5
3C0
100
AcDbEntity
  8
0
100
AcDbPolyline
 62
7
  6
CONTINUOUS
 90
6
 70
0
 10
-1.736400537
 20
-24.1113239491
 10
-1.7207239455
 20
-24.1733261021
 10
-1.7053704435
 20
-24.2364135046
 10
-1.6903400311
 20
-24.3005861565
 10
-1.6758574949
 20
-24.3658055821
 10
-1.6471873311
 20
-24.4996156093
  0
LINE
  5
3C1
100
AcDbEntity
  8
0
100
AcDbLine
 62
7
  6
CONTINUOUS
 10
-7.0637542924
 20
-19.8408086863
 11
-6.5930439147
 21
-21.827034025
  0
LINE
  5
3C2
100
AcDbEntity
  8
0
100
AcDbLine
 62
7
  6
CONTINUOUS
 10
-2.4751983821
 20
-24.2046264268
 11
-2.9307717249
 21
-22.2271410223
  0
LINE
  5
3C3
100
AcDbEntity
  8
0
100
AcDbLine
 62
7
  6
CONTINUOUS
 10
-2.3841860489
 20
-23.9041634747
 11
-2.7893503686
 21
-22.1454861036
  0
LINE
  5
3C4
100
AcDbEntity
  8
0
100
AcDbLine
 62
7
  6
CONTINUOUS
 10
-1.6471873311
 20
-24.4996156093
 11
-1.6008731947
 21
-24.7094511568
  0
LINE
  5
3C5
100
AcDbEntity
  8
0
100
AcDbLine
 62
7
  6
CONTINUOUS
 10
-6.4440381312
 20
-21.3787291243
 11
-6.7270682269
 21
-20.0352070008
  0
LINE
  5
3C6
100
AcDbEntity
  8
0
100
AcDbLine
 62
7
  6
CONTINUOUS
 10
-6.3523854911
 20
-21.0608259327
 11
-6.5856468707
 21
-19.9535520821
  0
LINE
  5
3C7
100
AcDbEntity
  8
0
100
AcDbLine
 62
7
  6
CONTINUOUS
 10
-2.8821475271
 20
-23.6273955672
 11
-2.8018576734
 21
-24.016017446
  0
LINE
  5
3C8
100
AcDbEntity
  8
0
100
AcDbLine
 62
7
  6
CONTINUOUS
 10
-1.3722652518
 20
-24.535135258
 11
-1.4087053996
 21
-24.356379342
  0
LINE
  5
3C9
100
AcDbEntity
  8
0
100
AcDbLine
 62
7
  6
CONTINUOUS
 10
-1.2308725458
 20
-24.4533377433
 11
-1.2672840434
 21
-24.2747244233
  0
LINE
  5
3CA
100
AcDbEntity
  8
0
100
AcDbLine
 62
7
  6
CONTINUOUS
 10
-1.3027508983
 20
-24.8815832344
 11
-1.3722652518
 21
-24.535135258
  0
LINE
  5
3CB
100
AcDbEntity
  8
0
100
AcDbLine
 62
7
  6
CONTINUOUS
 10
-1.1613295421
 20
-24.7999283157
 11
-1.2308725458
 21
-24.4533377433
  0
LINE
  5
3CC
100
AcDbEntity
  8
0
100
AcDbLine
 62
7
  6
CONTINUOUS
 10
-3.0865077508
 20
-22.6083063801
 11
-2.9440879598
 21
-23.3267893916
  0
LWPOLYLINE
  5
3CD
100
AcDbEntity
  8
0
100
AcDbPolyline
 62
7
  6
CONTINUOUS
 90
13
 70
0
 10
-1.2672840434
 20
-24.2747244233
 10
-1.2746259865
 20
-24.2371748027
 10
-1.282573582
 20
-24.2005158205
 10
-1.2911268297
 20
-24.1647474767
 10
-1.3002389207
 20
-24.129758755
 10
-1.3099566641
 20
-24.0956606718
 10
-1.3204204863
 20
-24.0627862757
 10
-1.3316887293
 20
-24.0311343608
 10
-1.3437030513
 20
-24.000706133
 10
-1.3564288531
 20
-23.9718382593
 10
-1.3699183356
 20
-23.9445228855
 10
-1.3841192979
 20
-23.9187678658
 10
-1.3988405391
 20
-23.8949334297
  0
LWPOLYLINE
  5
3CE
100
AcDbEntity
  8
0
100
AcDbPolyline
 62
7
  6
CONTINUOUS
 90
16
 70
0
 10
-1.4087053996
 20
-24.356379342
 10
-1.4157648843
 20
-24.3199594336
 10
-1.4235598153
 20
-24.283928425
 10
-1.4320901926
 20
-24.2482863162
 10
-1.441333365
 20
-24.2127465064
 10
-1.4513119837
 20
-24.1775955963
 10
-1.4620940026
 20
-24.1436933885
 10
-1.4737761117
 20
-24.1111024344
 10
-1.486261621
 20
-24.0797601825
 10
-1.4993284144
 20
-24.0503387808
 10
-1.5129815577
 20
-24.0230076026
 10
-1.5272159851
 20
-23.9975972746
 10
-1.5417943833
 20
-23.9742718248
 10
-1.5566376481
 20
-23.953085929
 10
-1.5718248838
 20
-23.9339849115
 10
-1.5873560904
 20
-23.9169687721
  0
LINE
  5
3CF
100
AcDbEntity
  8
0
100
AcDbLine
 62
7
  6
CONTINUOUS
 10
-3.6146850294
 20
-23.2461667643
 11
-3.7424171726
 21
-21.5951972758
  0
LINE
  5
3D0
100
AcDbEntity
  8
0
100
AcDbLine
 62
7
  6
CONTINUOUS
 10
-4.1118698592
 20
-22.1448006347
 11
-4.0481927722
 21
-23.2963991802
  0
LINE
  5
3D1
100
AcDbEntity
  8
0
100
AcDbLine
 62
7
  6
CONTINUOUS
 10
-5.4176846591
 20
-22.5056717285
 11
-5.4176846591
 21
-20.7911257872
  0
LINE
  5
3D2
100
AcDbEntity
  8
0
100
AcDbLine
 62
7
  6
CONTINUOUS
 10
-5.2762633028
 20
-22.4240168098
 11
-5.2762633028
 21
-20.7094708685
  0
LINE
  5
3D3
100
AcDbEntity
  8
RACCORDO
100
AcDbLine
 62
7
  6
CONTINUOUS
 10
-3.2012457255
 20
-17.8940155157
 11
-3.2012457255
 21
-18.3150589144
  0
LINE
  5
3D4
100
AcDbEntity
  8
0
100
AcDbLine
 62
7
  6
CONTINUOUS
 10
-2.3841860489
 20
-22.5627630741
 11
-2.3841860489
 21
-24.2571761321
  0
LINE
  5
3D5
100
AcDbEntity
  8
0
100
AcDbLine
 62
7
  6
CONTINUOUS
 10
-2.0857742593
 20
-23.4777524909
 11
-2.0857742593
 21
-23.0071043387
  0
LINE
  5
3D6
100
AcDbEntity
  8
0
100
AcDbLine
 62
7
  6
CONTINUOUS
 10
-2.0754972517
 20
-24.4354091748
 11
-2.0754972517
 21
-23.7644707154
  0
LINE
  5
3D7
100
AcDbEntity
  8
RACCORDO
100
AcDbLine
 62
7
  6
CONTINUOUS
 10
-2.0201466086
 20
-18.8208364556
 11
-2.0201466086
 21
-18.7971769775
  0
LINE
  5
3D8
100
AcDbEntity
  8
0
100
AcDbLine
 62
7
  6
CONTINUOUS
 10
-1.9443529031
 20
-23.3960975723
 11
-1.9443529031
 21
-23.0727439064
  0
LINE
  5
3D9
100
AcDbEntity
  8
0
100
AcDbLine
 62
7
  6
CONTINUOUS
 10
-1.9340758954
 20
-24.3537542561
 11
-1.9340758954
 21
-23.846125634
  0
LINE
  5
3DA
100
AcDbEntity
  8
0
100
AcDbLine
 62
7
  6
CONTINUOUS
 10
-1.5873560904
 20
-23.9169687721
 11
-1.5873560904
 21
-23.906837906
  0
LWPOLYLINE
  5
3DB
100
AcDbEntity
  8
0
100
AcDbPolyline
 62
7
  6
CONTINUOUS
 90
10
 70
0
 10
-1.6678908642
 20
-23.4526093481
 10
-1.6689776173
 20
-23.4803648246
 10
-1.6717642172
 20
-23.5058118401
 10
-1.6762506638
 20
-23.5289503945
 10
-1.6826452187
 20
-23.5499229868
 10
-1.6907396204
 20
-23.568587118
 10
-1.6999090842
 20
-23.5845152916
 10
-1.7098846706
 20
-23.5974599319
 10
-1.7209353191
 20
-23.6076686146
 10
-1.730345487
 20
-23.6138937973
  0
LINE
  5
3DC
100
AcDbEntity
  8
0
100
AcDbLine
 62
7
  6
CONTINUOUS
 10
-4.9543288991
 20
-22.7732075371
 11
-4.8874443758
 21
-21.6923266849
  0
LINE
  5
3DD
100
AcDbEntity
  8
0
100
AcDbLine
 62
7
  6
CONTINUOUS
 10
-4.8129075428
 20
-22.6915526184
 11
-4.776237086
 21
-22.0989432577
  0
LINE
  5
3DE
100
AcDbEntity
  8
0
100
AcDbLine
 62
7
  6
CONTINUOUS
 10
-5.1167675902
 20
-20.9649744066
 11
-5.2508364501
 21
-22.6020077932
  0
LINE
  5
3DF
100
AcDbEntity
  8
0
100
AcDbLine
 62
7
  6
CONTINUOUS
 10
-6.1523629479
 20
-20.3670346262
 11
-6.4440381312
 21
-21.3787291243
  0
LINE
  5
3E0
100
AcDbEntity
  8
RACCORDO
100
AcDbLine
 62
7
  6
CONTINUOUS
 10
-22.2734764951
 20
-7.2132118728
 11
-21.717665146
 21
-6.8694897972
  0
LINE
  5
3E1
100
AcDbEntity
  8
RACCORDO
100
AcDbLine
 62
7
  6
CONTINUOUS
 10
-22.1208832831
 20
-7.2265215292
 11
-21.565071934
 21
-6.8827994536
  0
LINE
  5
3E2
100
AcDbEntity
  8
DRAFT
100
AcDbLine
 62
7
  6
CONTINUOUS
 10
-18.0799477911
 20
-9.7242828157
 11
-17.9300491853
 21
-9.6346581058
  0
LINE
  5
3E3
100
AcDbEntity
  8
DRAFT
100
AcDbLine
 62
7
  6
CONTINUOUS
 10
-23.321340355
 20
-7.0318730981
 11
-22.3860561663
 21
-6.49185352
  0
LINE
  5
3E4
100
AcDbEntity
  8
RACCORDO
100
AcDbLine
 62
7
  6
CONTINUOUS
 10
-20.0402073457
 20
-8.4278777385
 11
-19.4646478449
 21
-8.0955579981
  0
LINE
  5
3E5
100
AcDbEntity
  8
RACCORDO
100
AcDbLine
 62
7
  6
CONTINUOUS
 10
-19.4757596947
 20
-8.9183585162
 11
-19.1111483022
 21
-8.7078371659
  0
LINE
  5
3E6
100
AcDbEntity
  8
RACCORDO
100
AcDbLine
 62
7
  6
CONTINUOUS
 10
-18.4505006326
 20
-9.5103302491
 11
-18.2713686251
 21
-9.4069013178
  0
LINE
  5
3E7
100
AcDbEntity
  8
ASSI
100
AcDbLine
 62
7
  6
CONTINUOUS
 10
-15.264827924
 20
-8.3156013057
 11
-17.8694042946
 21
-9.6696737056
  0
LINE
  5
3E8
100
AcDbEntity
  8
DRAFT
100
AcDbLine
 62
7
  6
CONTINUOUS
 10
-22.8588142425
 20
-6.9650252199
 11
-23.4010423687
 21
-7.2452889085
  0
LWPOLYLINE
  5
3E9
100
AcDbEntity
  8
0
100
AcDbPolyline
 62
7
  6
CONTINUOUS
 90
5
 70
0
 10
-29.0701332732
 20
-2.0989000249
 10
-29.0335413123
 20
-2.0954116072
 10
-28.9966737569
 20
-2.0946227045
 10
-28.9597673182
 20
-2.0965604083
 10
-28.9230219944
 20
-2.1012325342
  0
LWPOLYLINE
  5
3EA
100
AcDbEntity
  8
0
100
AcDbPolyline
 62
7
  6
CONTINUOUS
 90
4
 70
0
 10
-31.1279961467
 20
0.8835952136
 10
-31.1145826076
 20
0.8835102014
 10
-31.1011555222
 20
0.8819484105
 10
-31.0877430748
 20
0.8792165131
  0
LINE
  5
3EB
100
AcDbEntity
  8
RACCORDO
100
AcDbLine
 62
7
  6
CONTINUOUS
 10
3.6252414177
 20
-22.835395471
 11
3.6252414177
 21
-22.8499264479
  0
LINE
  5
3EC
100
AcDbEntity
  8
DRAFT
100
AcDbLine
 62
7
  6
CONTINUOUS
 10
3.657690052
 20
-22.7243740777
 11
3.657690052
 21
-22.2753224697
  0
LINE
  5
3ED
100
AcDbEntity
  8
RACCORDO
100
AcDbLine
 62
7
  6
CONTINUOUS
 10
4.0609717096
 20
-22.4669833327
 11
4.0609717096
 21
-21.9238596609
  0
LINE
  5
3EE
100
AcDbEntity
  8
ASSI
100
AcDbLine
 62
7
  6
CONTINUOUS
 10
4.9095520281
 20
-19.955712258
 11
4.9095520281
 21
-20.3568868257
  0
LINE
  5
3EF
100
AcDbEntity
  8
ASSI
100
AcDbLine
 62
7
  6
CONTINUOUS
 10
4.960923063
 20
-19.9266698524
 11
4.960923063
 21
-20.3263595766
  0
LINE
  5
3F0
100
AcDbEntity
  8
0
100
AcDbLine
 62
7
  6
CONTINUOUS
 10
-3.2408295631
 20
-23.1554545088
 11
-3.0865077508
 21
-22.6083063801
  0
LINE
  5
3F1
100
AcDbEntity
  8
0
100
AcDbLine
 62
7
  6
CONTINUOUS
 10
-3.0994082069
 20
-23.0737995902
 11
-3.03764411
 21
-22.8548149274
  0
LINE
  5
3F2
100
AcDbEntity
  8
0
100
AcDbLine
 62
7
  6
CONTINUOUS
 10
-3.3897519081
 20
-23.6765746829
 11
-3.3042287571
 21
-23.3836911548
  0
LINE
  5
3F3
100
AcDbEntity
  8
0
100
AcDbLine
 62
7
  6
CONTINUOUS
 10
-3.2483305519
 20
-23.5949197642
 11
-3.2036144718
 21
-23.4417845822
  0
LINE
  5
3F4
100
AcDbEntity
  8
0
100
AcDbLine
 62
7
  6
CONTINUOUS
 10
-3.2305970209
 20
-22.0540256541
 11
-3.6963251242
 21
-23.4995631502
  0
LINE
  5
3F5
100
AcDbEntity
  8
0
100
AcDbLine
 62
7
  6
CONTINUOUS
 10
-6.3199126068
 20
-21.984736619
 11
-5.8426381569
 21
-20.5458658387
  0
LINE
  5
3F6
100
AcDbEntity
  8
0
100
AcDbLine
 62
7
  6
CONTINUOUS
 10
-6.1784912506
 20
-21.9030817004
 11
-5.7012168007
 21
-20.46421092
  0
LINE
  5
3F7
100
AcDbEntity
  8
0
100
AcDbLine
 62
7
  6
CONTINUOUS
 10
-4.1904895266
 20
-21.4997957515
 11
-4.5004257425
 21
-22.2727063747
  0
LINE
  5
3F8
100
AcDbEntity
  8
0
100
AcDbLine
 62
7
  6
CONTINUOUS
 10
-4.480384215
 20
-23.0468572577
 11
-4.1118698592
 21
-22.1448006347
  0
LINE
  5
3F9
100
AcDbEntity
  8
0
100
AcDbLine
 62
7
  6
CONTINUOUS
 10
-4.3389628588
 20
-22.965202339
 11
-4.0989871008
 21
-22.3777850013
  0
LINE
  5
3FA
100
AcDbEntity
  8
ASSI
100
AcDbLine
 62
7
  6
CONTINUOUS
 10
-11.0073640784
 20
-10.7738075716
 11
-12.3487506922
 21
-11.6339767636
  0
LWPOLYLINE
  5
3FB
100
AcDbEntity
  8
ASSI
100
AcDbPolyline
 62
7
  6
CONTINUOUS
 90
8
 70
0
 10
-11.6070212112
 20
-11.7843902943
 10
-11.6003284459
 20
-11.7801393686
 10
-11.5895328098
 20
-11.7714919705
 10
-11.5796984184
 20
-11.7612318867
 10
-11.5710398778
 20
-11.7495723563
 10
-11.5636287235
 20
-11.736584459
 10
-11.55739342
 20
-11.722197115
 10
-11.5523339673
 20
-11.7064103244
  0
LINE
  5
3FC
100
AcDbEntity
  8
RACCORDO
100
AcDbLine
 62
7
  6
CONTINUOUS
 10
-14.4158110606
 20
-11.1353937532
 11
-14.9716224097
 21
-11.4791158289
  0
LINE
  5
3FD
100
AcDbEntity
  8
RACCORDO
100
AcDbLine
 62
7
  6
CONTINUOUS
 10
-14.1614546818
 20
-11.1575552658
 11
-14.7172660309
 21
-11.5012773415
  0
LINE
  5
3FE
100
AcDbEntity
  8
RACCORDO
100
AcDbLine
 62
7
  6
CONTINUOUS
 10
-11.3219612029
 20
-12.9549190378
 11
-12.2251546452
 21
-13.5134674107
  0
LINE
  5
3FF
100
AcDbEntity
  8
RACCORDO
100
AcDbLine
 62
7
  6
CONTINUOUS
 10
-11.1693679911
 20
-12.9682286943
 11
-12.0725614334
 21
-13.5267770672
  0
LINE
  5
400
100
AcDbEntity
  8
ASSI
100
AcDbLine
 62
7
  6
CONTINUOUS
 10
-10.9530246944
 20
-10.7422298656
 11
-10.9506965389
 21
-10.7408610678
  0
LINE
  5
401
100
AcDbEntity
  8
ASSI
100
AcDbLine
 62
7
  6
CONTINUOUS
 10
-11.0003505486
 20
-11.1707084759
 11
-12.0664653267
 21
-11.7969647958
  0
LINE
  5
402
100
AcDbEntity
  8
ASSI
100
AcDbLine
 62
7
  6
CONTINUOUS
 10
-11.0003505486
 20
-10.7695339081
 11
-10.9922743584
 21
-10.76482793
  0
LINE
  5
403
100
AcDbEntity
  8
ASSI
100
AcDbLine
 62
7
  6
CONTINUOUS
 10
-11.6070455417
 20
-11.7844023777
 11
-11.8470410288
 21
-11.9236576354
  0
LINE
  5
404
100
AcDbEntity
  8
ASSI
100
AcDbLine
 62
7
  6
CONTINUOUS
 10
-11.5523339673
 20
-11.7064103244
 11
-11.887100282
 21
-11.9005279246
  0
LINE
  5
405
100
AcDbEntity
  8
RACCORDO
100
AcDbLine
 62
7
  6
CONTINUOUS
 10
-12.2024304098
 20
-12.2886713282
 11
-12.7779899106
 21
-12.6209910685
  0
LINE
  5
406
100
AcDbEntity
  8
RACCORDO
100
AcDbLine
 62
7
  6
CONTINUOUS
 10
-11.8552089286
 20
-12.9045753579
 11
-12.2522125247
 21
-13.1337994986
  0
LINE
  5
407
100
AcDbEntity
  8
ASSI
100
AcDbLine
 62
7
  6
CONTINUOUS
 10
-10.9922743584
 20
-10.76482793
 11
-10.9530246944
 21
-10.7422298656
  0
LINE
  5
408
100
AcDbEntity
  8
RACCORDO
100
AcDbLine
 62
7
  6
CONTINUOUS
 10
-13.3313285007
 20
-11.3403780344
 11
-13.5971943726
 21
-11.4833520965
  0
LINE
  5
409
100
AcDbEntity
  8
0
100
AcDbLine
 62
7
  6
CONTINUOUS
 10
-13.0883451512
 20
-11.3690054248
 11
-13.4543479006
 21
-11.5658298592
  0
LINE
  5
40A
100
AcDbEntity
  8
0
100
AcDbLine
 62
7
  6
CONTINUOUS
 10
-11.8366430684
 20
-12.0917225199
 11
-12.2026458178
 21
-12.2885469543
  0
LINE
  5
40B
100
AcDbEntity
  8
0
100
AcDbLine
 62
7
  6
CONTINUOUS
 10
-11.4954842406
 20
-12.7111270619
 11
-11.8552089286
 21
-12.9045753579
  0
LINE
  5
40C
100
AcDbEntity
  8
ASSI
100
AcDbLine
 62
7
  6
CONTINUOUS
 10
-10.9493495656
 20
-10.7400732794
 11
-10.9489795493
 21
-10.7398752905
  0
LINE
  5
40D
100
AcDbEntity
  8
DRAFT
100
AcDbLine
 62
7
  6
CONTINUOUS
 10
-12.2522125247
 20
-13.0891441198
 11
-12.7944406509
 21
-13.3694078084
  0
LINE
  5
40E
100
AcDbEntity
  8
0
100
AcDbLine
 62
7
  6
CONTINUOUS
 10
-13.3313285007
 20
-11.3403780344
 11
-13.3261999084
 21
-11.3377335121
  0
LWPOLYLINE
  5
40F
100
AcDbEntity
  8
0
100
AcDbPolyline
 62
7
  6
CONTINUOUS
 90
6
 70
0
 10
-13.3313285007
 20
-11.3403780344
 10
-13.2993808476
 20
-11.3246378539
 10
-13.26610191
 20
-11.3111049625
 10
-13.2316774373
 20
-11.2999223917
 10
-13.1963146988
 20
-11.2912138294
 10
-13.1602306965
 20
-11.2850783748
  0
LWPOLYLINE
  5
410
100
AcDbEntity
  8
0
100
AcDbPolyline
 62
7
  6
CONTINUOUS
 90
11
 70
0
 10
-13.3261999084
 20
-11.3377335121
 10
-13.3062127638
 20
-11.3294196044
 10
-13.2850421812
 20
-11.3236286912
 10
-13.2628065091
 20
-11.3203931451
 10
-13.2396300502
 20
-11.3197310534
 10
-13.2156423665
 20
-11.3216461175
 10
-13.1909775548
 20
-11.3261276318
 10
-13.1657734974
 20
-11.3331505434
 10
-13.1401710908
 20
-11.3426755926
 10
-13.1143134586
 20
-11.3546495321
 10
-13.0883451512
 20
-11.3690054248
  0
LINE
  5
411
100
AcDbEntity
  8
RACCORDO
100
AcDbLine
 62
7
  6
CONTINUOUS
 10
-42.0386553366
 20
28.4968042859
 11
-42.0865645231
 21
28.5244664498
  0
LINE
  5
412
100
AcDbEntity
  8
DRAFT
100
AcDbLine
 62
7
  6
CONTINUOUS
 10
-41.9262415333
 20
28.4693928316
 11
-41.572755636
 21
28.2652945048
  0
LINE
  5
413
100
AcDbEntity
  8
RACCORDO
100
AcDbLine
 62
7
  6
CONTINUOUS
 10
-41.0314262103
 20
28.1735339963
 11
-41.7213283871
 21
28.5718748667
  0
LINE
  5
414
100
AcDbEntity
  8
RACCORDO
100
AcDbLine
 62
7
  6
CONTINUOUS
 10
9.4337489871
 20
-25.6103465078
 11
9.4337489871
 21
-25.1091139971
  0
LINE
  5
415
100
AcDbEntity
  8
0
100
AcDbLine
 62
7
  6
CONTINUOUS
 10
12.4953249165
 20
-26.267300486
 11
12.4953249165
 21
-26.5826159683
  0
LINE
  5
416
100
AcDbEntity
  8
RACCORDO
100
AcDbLine
 62
7
  6
CONTINUOUS
 10
12.7086568512
 20
-27.0801938656
 11
12.7086568512
 21
-27.5012372643
  0
LWPOLYLINE
  5
417
100
AcDbEntity
  8
0
100
AcDbPolyline
 62
7
  6
CONTINUOUS
 90
12
 70
0
 10
12.4953249165
 20
-26.2673009282
 10
12.4951064761
 20
-26.2758331851
 10
12.4926432627
 20
-26.2971601976
 10
12.4874498795
 20
-26.3183365113
 10
12.4795538626
 20
-26.3392364019
 10
12.4690077566
 20
-26.3597267972
 10
12.4558716722
 20
-26.3797009148
 10
12.4402252149
 20
-26.3990457371
 10
12.4221900435
 20
-26.4176277938
 10
12.4018923046
 20
-26.4353420224
 10
12.3794486233
 20
-26.4521086565
 10
12.3549948167
 20
-26.4678440045
  0
LINE
  5
418
100
AcDbEntity
  8
ASSI
100
AcDbLine
 62
7
  6
CONTINUOUS
 10
4.3575686094
 20
-20.8925886743
 11
4.4248159186
 21
-20.641630137
  0
LINE
  5
419
100
AcDbEntity
  8
RACCORDO
100
AcDbLine
 62
7
  6
CONTINUOUS
 10
-6.3635739184
 20
-16.3993902227
 11
-5.8077625693
 21
-16.055668147
  0
LINE
  5
41A
100
AcDbEntity
  8
RACCORDO
100
AcDbLine
 62
7
  6
CONTINUOUS
 10
-6.2109807064
 20
-16.4126998791
 11
-5.6551693573
 21
-16.0689778034
  0
LINE
  5
41B
100
AcDbEntity
  8
RACCORDO
100
AcDbLine
 62
7
  6
CONTINUOUS
 10
-7.623537504
 20
-16.0955877247
 11
-6.6882533152
 21
-15.5555681466
  0
LINE
  5
41C
100
AcDbEntity
  8
RACCORDO
100
AcDbLine
 62
7
  6
CONTINUOUS
 10
-6.9102064313
 20
-16.1735514871
 11
-6.4761535896
 21
-15.9229356472
  0
LINE
  5
41D
100
AcDbEntity
  8
DRAFT
100
AcDbLine
 62
7
  6
CONTINUOUS
 10
-6.9489116658
 20
-16.1512035698
 11
-7.491139792
 21
-16.4314672584
  0
LINE
  5
41E
100
AcDbEntity
  8
RACCORDO
100
AcDbLine
 62
7
  6
CONTINUOUS
 10
-41.1033711479
 20
34.6637562431
 11
-41.572755636
 21
34.9347729638
  0
LINE
  5
41F
100
AcDbEntity
  8
RACCORDO
100
AcDbLine
 62
7
  6
CONTINUOUS
 10
-43.8677255444
 20
40.0818777917
 11
35.9631380906
 21
-6.0114623554
  0
LINE
  5
420
100
AcDbEntity
  8
RACCORDO
100
AcDbLine
 62
7
  6
CONTINUOUS
 10
-43.9298503308
 20
40.21919885
 11
35.901013283
 21
-5.8741412848
  0
LWPOLYLINE
  5
421
100
AcDbEntity
  8
RACCORDO
100
AcDbPolyline
 62
7
  6
CONTINUOUS
 90
24
 70
0
 10
35.9631491479
 20
-6.0114685109
 10
35.9656366309
 20
-6.0129241101
 10
35.979135073
 20
-6.0214708112
 10
35.9939291944
 20
-6.0320341898
 10
36.0096563029
 20
-6.0445818053
 10
36.0260994082
 20
-6.0591361624
 10
36.0430242711
 20
-6.0756751514
 10
36.0600862101
 20
-6.0940167946
 10
36.0770355944
 20
-6.114006575
 10
36.0936859766
 20
-6.1355244492
 10
36.1098391327
 20
-6.1584042247
 10
36.1253049336
 20
-6.1824409591
 10
36.1399191363
 20
-6.2074219965
 10
36.1535525713
 20
-6.2331622708
 10
36.1660694086
 20
-6.2594185122
 10
36.1773619577
 20
-6.2859441717
 10
36.1873609047
 20
-6.3125392858
 10
36.1960018522
 20
-6.3389742697
 10
36.2032312028
 20
-6.3649794821
 10
36.2090193654
 20
-6.3902621739
 10
36.213382208
 20
-6.4146133573
 10
36.2163464787
 20
-6.4377690855
 10
36.217962759
 20
-6.4593084646
 10
36.2183673242
 20
-6.4758903342
  0
LINE
  5
422
100
AcDbEntity
  8
RACCORDO
100
AcDbLine
 62
7
  6
CONTINUOUS
 10
13.8897559681
 20
-28.0070148055
 11
13.8897559681
 21
-27.9833553274
  0
LINE
  5
423
100
AcDbEntity
  8
RACCORDO
100
AcDbLine
 62
7
  6
CONTINUOUS
 10
19.5351439944
 20
-32.0215738209
 11
19.5351439944
 21
-32.0361047978
  0
LINE
  5
424
100
AcDbEntity
  8
DRAFT
100
AcDbLine
 62
7
  6
CONTINUOUS
 10
19.5675926287
 20
-31.9105524275
 11
19.5675926287
 21
-31.4615008196
  0
LINE
  5
425
100
AcDbEntity
  8
ASSI
100
AcDbLine
 62
7
  6
CONTINUOUS
 10
4.9025384983
 20
-19.9599859215
 11
3.0932446278
 21
-21.120202395
  0
LINE
  5
426
100
AcDbEntity
  8
RACCORDO
100
AcDbLine
 62
7
  6
CONTINUOUS
 10
1.4940915161
 20
-20.3215721031
 11
0.938280167
 21
-20.6652941787
  0
LINE
  5
427
100
AcDbEntity
  8
RACCORDO
100
AcDbLine
 62
7
  6
CONTINUOUS
 10
1.7484478949
 20
-20.3437336157
 11
1.1926365458
 21
-20.6874556914
  0
LINE
  5
428
100
AcDbEntity
  8
DRAFT
100
AcDbLine
 62
7
  6
CONTINUOUS
 10
-2.1700452144
 20
-18.9104611656
 11
-2.0201466086
 21
-18.8208364556
  0
LINE
  5
429
100
AcDbEntity
  8
RACCORDO
100
AcDbLine
 62
7
  6
CONTINUOUS
 10
-4.130304769
 20
-17.6140560884
 11
-3.5547452682
 21
-17.281736348
  0
LINE
  5
42A
100
AcDbEntity
  8
0
100
AcDbLine
 62
7
  6
CONTINUOUS
 10
-6.9223329361
 20
-19.7591537676
 11
-7.0637542924
 21
-19.8408086863
  0
LINE
  5
42B
100
AcDbEntity
  8
RACCORDO
100
AcDbLine
 62
7
  6
CONTINUOUS
 10
-3.565857118
 20
-18.104536866
 11
-3.2012457255
 21
-17.8940155157
  0
LINE
  5
42C
100
AcDbEntity
  8
0
100
AcDbLine
 62
7
  6
CONTINUOUS
 10
-6.5856468707
 20
-19.9535520821
 11
-6.7270682269
 21
-20.0352070008
  0
LINE
  5
42D
100
AcDbEntity
  8
0
100
AcDbLine
 62
7
  6
CONTINUOUS
 10
-6.0109415916
 20
-20.2853797075
 11
-6.1523629479
 21
-20.3670346262
  0
LINE
  5
42E
100
AcDbEntity
  8
0
100
AcDbLine
 62
7
  6
CONTINUOUS
 10
-5.7012168007
 20
-20.46421092
 11
-5.8426381569
 21
-20.5458658387
  0
LINE
  5
42F
100
AcDbEntity
  8
RACCORDO
100
AcDbLine
 62
7
  6
CONTINUOUS
 10
-2.5405980559
 20
-18.696508599
 11
-2.3614660484
 21
-18.5930796677
  0
LINE
  5
430
100
AcDbEntity
  8
0
100
AcDbLine
 62
7
  6
CONTINUOUS
 10
-5.5861995187
 20
-20.5305175819
 11
-5.727620875
 21
-20.6121725005
  0
LINE
  5
431
100
AcDbEntity
  8
0
100
AcDbLine
 62
7
  6
CONTINUOUS
 10
-5.2762633028
 20
-20.7094708685
 11
-5.4176846591
 21
-20.7911257872
  0
LINE
  5
432
100
AcDbEntity
  8
0
100
AcDbLine
 62
7
  6
CONTINUOUS
 10
-4.9753462339
 20
-20.883319488
 11
-5.1167675902
 21
-20.9649744066
  0
LINE
  5
433
100
AcDbEntity
  8
0
100
AcDbLine
 62
7
  6
CONTINUOUS
 10
-6.1784912506
 20
-21.9030817004
 11
-6.3199126068
 21
-21.984736619
  0
LINE
  5
434
100
AcDbEntity
  8
0
100
AcDbLine
 62
7
  6
CONTINUOUS
 10
-4.6656666978
 20
-21.0621245709
 11
-4.807088054
 21
-21.1437794896
  0
LINE
  5
435
100
AcDbEntity
  8
0
100
AcDbLine
 62
7
  6
CONTINUOUS
 10
-4.0490681704
 20
-21.4181408329
 11
-4.1904895266
 21
-21.4997957515
  0
LINE
  5
436
100
AcDbEntity
  8
0
100
AcDbLine
 62
7
  6
CONTINUOUS
 10
-5.2762633028
 20
-22.4240168098
 11
-5.4176846591
 21
-22.5056717285
  0
LINE
  5
437
100
AcDbEntity
  8
0
100
AcDbLine
 62
7
  6
CONTINUOUS
 10
-3.7424171726
 20
-21.5951972758
 11
-3.8838385288
 21
-21.6768521944
  0
LINE
  5
438
100
AcDbEntity
  8
0
100
AcDbLine
 62
7
  6
CONTINUOUS
 10
-4.8129075428
 20
-22.6915526184
 11
-4.9543288991
 21
-22.7732075371
  0
LINE
  5
439
100
AcDbEntity
  8
0
100
AcDbLine
 62
7
  6
CONTINUOUS
 10
-3.0891756647
 20
-21.9723707354
 11
-3.2305970209
 21
-22.0540256541
  0
LINE
  5
43A
100
AcDbEntity
  8
0
100
AcDbLine
 62
7
  6
CONTINUOUS
 10
-4.3389628588
 20
-22.965202339
 11
-4.480384215
 21
-23.0468572577
  0
LINE
  5
43B
100
AcDbEntity
  8
0
100
AcDbLine
 62
7
  6
CONTINUOUS
 10
-2.7893503686
 20
-22.1454861036
 11
-2.9307717249
 21
-22.2271410223
  0
LINE
  5
43C
100
AcDbEntity
  8
0
100
AcDbLine
 62
7
  6
CONTINUOUS
 10
-2.2427646926
 20
-22.4811081554
 11
-2.3841860489
 21
-22.5627630741
  0
LINE
  5
43D
100
AcDbEntity
  8
0
100
AcDbLine
 62
7
  6
CONTINUOUS
 10
-3.0994082069
 20
-23.0737995902
 11
-3.2408295631
 21
-23.1554545088
  0
LINE
  5
43E
100
AcDbEntity
  8
0
100
AcDbLine
 62
7
  6
CONTINUOUS
 10
-3.6740800936
 20
-23.4305185175
 11
-3.7449931626
 21
-23.4714628348
  0
LINE
  5
43F
100
AcDbEntity
  8
0
100
AcDbLine
 62
7
  6
CONTINUOUS
 10
-3.2483305519
 20
-23.5949197642
 11
-3.3897519081
 21
-23.6765746829
  0
LINE
  5
440
100
AcDbEntity
  8
0
100
AcDbLine
 62
7
  6
CONTINUOUS
 10
-1.4778903267
 20
-22.9407874545
 11
-1.6193116829
 21
-23.0224423731
  0
LINE
  5
441
100
AcDbEntity
  8
0
100
AcDbLine
 62
7
  6
CONTINUOUS
 10
-1.9443529031
 20
-23.3960975723
 11
-2.0857742593
 21
-23.4777524909
  0
LINE
  5
442
100
AcDbEntity
  8
ASSI
100
AcDbLine
 62
7
  6
CONTINUOUS
 10
0.6450746527
 20
-17.5017796556
 11
-1.9595017179
 21
-18.8558520555
  0
LWPOLYLINE
  5
443
100
AcDbEntity
  8
RACCORDO
100
AcDbPolyline
 62
7
  6
CONTINUOUS
 90
16
 70
0
 10
-44.3350731025
 20
39.9628095964
 10
-44.3144372851
 20
39.9519552447
 10
-44.2921434108
 20
39.9422553421
 10
-44.2683845001
 20
39.9337938783
 10
-44.2433662587
 20
39.9266441205
 10
-44.2173052989
 20
39.9208679797
 10
-44.1904272644
 20
39.9165154736
 10
-44.1629648718
 20
39.9136242932
 10
-44.1351559009
 20
39.9122194777
 10
-44.1072411378
 20
39.9123131962
 10
-44.0794622804
 20
39.9139046421
 10
-44.0520598526
 20
39.9169800408
 10
-44.0252711268
 20
39.9215127678
 10
-43.9993280574
 20
39.9274635795
 10
-43.9744552726
 20
39.9347809541
 10
-43.9508681373
 20
39.9434015372
  0
LWPOLYLINE
  5
444
100
AcDbEntity
  8
RACCORDO
100
AcDbPolyline
 62
7
  6
CONTINUOUS
 90
14
 70
0
 10
-45.496294461
 20
43.5561394378
 10
-45.5288949476
 20
43.5734662227
 10
-45.5613417044
 20
43.5882796372
 10
-45.5934946244
 20
43.600517073
 10
-45.6252140606
 20
43.6101274328
 10
-45.6563641409
 20
43.6170697145
 10
-45.6868133509
 20
43.6213131705
 10
-45.7164308921
 20
43.622839969
 10
-45.7450890089
 20
43.6216442344
 10
-45.7726662458
 20
43.6177304097
 10
-45.7990445124
 20
43.6111153096
 10
-45.8241102263
 20
43.6018277029
 10
-45.8477565428
 20
43.5899071052
 10
-45.8536473258
 20
43.5863899937
  0
LINE
  5
445
100
AcDbEntity
  8
RACCORDO
100
AcDbLine
 62
7
  6
CONTINUOUS
 10
-43.8779249546
 20
40.0874260543
 11
-43.8677279648
 21
40.0818794225
  0
LINE
  5
446
100
AcDbEntity
  8
RACCORDO
100
AcDbLine
 62
7
  6
CONTINUOUS
 10
37.675887233
 20
-4.9520291889
 11
-45.7047242808
 21
43.1908908948
  0
LINE
  5
447
100
AcDbEntity
  8
RACCORDO
100
AcDbLine
 62
7
  6
CONTINUOUS
 10
37.8843170529
 20
-4.5867806458
 11
-45.496294461
 21
43.5561394378
  0
LINE
  5
448
100
AcDbEntity
  8
RACCORDO
100
AcDbLine
 62
7
  6
CONTINUOUS
 10
39.5787899233
 20
-3.6084164912
 11
-43.8599610308
 21
44.5680725766
  0
LWPOLYLINE
  5
449
100
AcDbEntity
  8
RACCORDO
100
AcDbPolyline
 62
7
  6
CONTINUOUS
 90
25
 70
0
 10
37.675887233
 20
-4.9520291889
 10
37.6944355585
 20
-4.963447944
 10
37.7127709267
 20
-4.9761129043
 10
37.7308933378
 20
-4.9900240698
 10
37.7488851678
 20
-5.005255077
 10
37.7666640407
 20
-5.0217322894
 10
37.7839828279
 20
-5.0392347979
 10
37.8008289103
 20
-5.0577712835
 10
37.8172149071
 20
-5.0773330653
 10
37.8329315471
 20
-5.0976731912
 10
37.8479711878
 20
-5.1188033341
 10
37.8623414717
 20
-5.1407118211
 10
37.8758560548
 20
-5.1631166818
 10
37.8885040513
 20
-5.1860260094
 10
37.900296347
 20
-5.2094317106
 10
37.9110792544
 20
-5.2330275349
 10
37.9208379334
 20
-5.256813061
 10
37.9295872242
 20
-5.2807887101
 10
37.9372179597
 20
-5.304649496
 10
37.9437162515
 20
-5.3284026301
 10
37.949095988
 20
-5.352040901
 10
37.953289668
 20
-5.3752376877
 10
37.9562747909
 20
-5.3978841169
 10
37.9580738573
 20
-5.420089062
 10
37.9586868672
 20
-5.4418525231
  0
LWPOLYLINE
  5
44A
100
AcDbEntity
  8
RACCORDO
100
AcDbPolyline
 62
7
  6
CONTINUOUS
 90
6
 70
0
 10
35.901013283
 20
-5.8741412848
 10
35.9319097999
 20
-5.8934251905
 10
35.9620980979
 20
-5.9148034744
 10
35.991578177
 20
-5.9382761364
 10
36.0204415877
 20
-5.9639516679
 10
36.0485967795
 20
-5.9917215775
  0
LWPOLYLINE
  5
44B
100
AcDbEntity
  8
RACCORDO
100
AcDbPolyline
 62
7
  6
CONTINUOUS
 90
10
 70
0
 10
36.3062360547
 20
-6.598471638
 10
36.2874367756
 20
-6.5865566662
 10
36.2706369965
 20
-6.5736843554
 10
36.2559821769
 20
-6.5599661596
 10
36.2435992044
 20
-6.5455208567
 10
36.233595296
 20
-6.53047352
 10
36.2260570696
 20
-6.5149544359
 10
36.2210497945
 20
-6.4990979749
 10
36.2186168256
 20
-6.483041429
 10
36.2183680891
 20
-6.47598926
  0
LWPOLYLINE
  5
44C
100
AcDbEntity
  8
RACCORDO
100
AcDbPolyline
 62
7
  6
CONTINUOUS
 90
11
 70
0
 10
29.678209113
 20
-37.230597719
 10
29.6753193677
 20
-37.2023168087
 10
29.670550364
 20
-37.1756105378
 10
29.6638556357
 20
-37.1503505452
 10
29.6552816488
 20
-37.1266651921
 10
29.6449678016
 20
-37.1049395614
 10
29.6328856529
 20
-37.0852056885
 10
29.619063644
 20
-37.067431538
 10
29.6037264968
 20
-37.051906087
 10
29.5868494436
 20
-37.0386660947
 10
29.5756554206
 20
-37.031603913
  0
LINE
  5
44D
100
AcDbEntity
  8
RACCORDO
100
AcDbLine
 62
7
  6
CONTINUOUS
 10
19.9708742863
 20
-31.6531616826
 11
19.9708742863
 21
-31.1100380108
  0
LINE
  5
44E
100
AcDbEntity
  8
ASSI
100
AcDbLine
 62
7
  6
CONTINUOUS
 10
20.8194546048
 20
-29.1418906079
 11
20.8194546048
 21
-29.5430651756
  0
LINE
  5
44F
100
AcDbEntity
  8
ASSI
100
AcDbLine
 62
7
  6
CONTINUOUS
 10
20.8708256397
 20
-29.1128482023
 11
20.8708256397
 21
-29.5125379265
  0
LINE
  5
450
100
AcDbEntity
  8
RACCORDO
100
AcDbLine
 62
7
  6
CONTINUOUS
 10
25.3436515638
 20
-34.7965248577
 11
25.3436515638
 21
-34.295292347
  0
LWPOLYLINE
  5
451
100
AcDbEntity
  8
RACCORDO
100
AcDbPolyline
 62
7
  6
CONTINUOUS
 90
19
 70
0
 10
37.8843170529
 20
-4.5867806458
 10
37.8660499462
 20
-4.5986076462
 10
37.8479463478
 20
-4.6121534276
 10
37.8301409951
 20
-4.6273171745
 10
37.8127664055
 20
-4.6439860297
 10
37.7959518907
 20
-4.6620359341
 10
37.7798225938
 20
-4.68133255
 10
37.7644985582
 20
-4.7017322611
 10
37.7500938343
 20
-4.7230832412
 10
37.7367156302
 20
-4.7452265837
 10
37.7244635078
 20
-4.7679974981
 10
37.713428662
 20
-4.791226498
 10
37.7036932356
 20
-4.8147406607
 10
37.6953296792
 20
-4.8383649774
 10
37.6884002306
 20
-4.8619236258
 10
37.6829564614
 20
-4.8852412406
 10
37.6790388743
 20
-4.9081442742
 10
37.6766766093
 20
-4.9304622879
 10
37.675887233
 20
-4.9520291889
  0
LWPOLYLINE
  5
452
100
AcDbEntity
  8
ASSI
100
AcDbPolyline
 62
7
  6
CONTINUOUS
 90
8
 70
0
 10
4.3028813655
 20
-20.9705686441
 10
4.3095741308
 20
-20.9663177185
 10
4.3203697669
 20
-20.9576703203
 10
4.3302041583
 20
-20.9474102366
 10
4.3388626989
 20
-20.9357507062
 10
4.3462738532
 20
-20.9227628088
 10
4.3525091567
 20
-20.9083754649
 10
4.3575686094
 20
-20.8925886743
  0
LINE
  5
453
100
AcDbEntity
  8
RACCORDO
100
AcDbLine
 62
7
  6
CONTINUOUS
 10
4.5879413738
 20
-22.1410973876
 11
3.6847479315
 21
-22.6996457606
  0
LINE
  5
454
100
AcDbEntity
  8
RACCORDO
100
AcDbLine
 62
7
  6
CONTINUOUS
 10
4.7405345856
 20
-22.1544070441
 11
3.8373411433
 21
-22.7129554171
  0
LWPOLYLINE
  5
455
100
AcDbEntity
  8
0
100
AcDbPolyline
 62
7
  6
CONTINUOUS
 90
44
 70
0
 10
-1.3524382453
 20
-23.8006887945
 10
-1.3487400412
 20
-23.798474434
 10
-1.3419132258
 20
-23.794135469
 10
-1.3350653065
 20
-23.7894158342
 10
-1.3282477216
 20
-23.7841464449
 10
-1.3214553829
 20
-23.7783068282
 10
-1.3146933785
 20
-23.7719174569
 10
-1.3080284112
 20
-23.7648706649
 10
-1.3014598784
 20
-23.7571640966
 10
-1.2949883826
 20
-23.7488001076
 10
-1.2886824345
 20
-23.739678098
 10
-1.2825288814
 20
-23.7297952291
 10
-1.2765408759
 20
-23.7191543396
 10
-1.2708263864
 20
-23.7076633463
 10
-1.2653763259
 20
-23.6953237479
 10
-1.2601997813
 20
-23.6821340457
 10
-1.2554319819
 20
-23.6679976601
 10
-1.2510722065
 20
-23.6529311815
 10
-1.2471211763
 20
-23.6369180195
 10
-1.2437162834
 20
-23.6198118241
 10
-1.2408482765
 20
-23.6016224098
 10
-1.238526407
 20
-23.582339962
 10
-1.2369158212
 20
-23.5617886869
 10
-1.2359891833
 20
-23.5399684599
 10
-1.235773829
 20
-23.5168794056
 10
-1.2365169122
 20
-23.4923461045
 10
-1.2381357454
 20
-23.4663572858
 10
-1.240713016
 20
-23.4389242202
 10
-1.2447439399
 20
-23.4099053009
 10
-1.2502696734
 20
-23.3790511379
 10
-1.2572490601
 20
-23.3466111212
 10
-1.2660538475
 20
-23.3131918141
 10
-1.27687921
 20
-23.2785991523
 10
-1.2895299732
 20
-23.2430272002
 10
-1.3037923603
 20
-23.2076647144
 10
-1.3198190276
 20
-23.1725354287
 10
-1.3374573189
 20
-23.1376156093
 10
-1.356035489
 20
-23.1040228108
 10
-1.3756262209
 20
-23.071825148
 10
-1.3961568318
 20
-23.040954506
 10
-1.4167375272
 20
-23.0123240947
 10
-1.4370717091
 20
-22.9862383173
 10
-1.4574559756
 20
-22.9623927706
 10
-1.4778903267
 20
-22.9407874545
  0
LINE
  5
456
100
AcDbEntity
  8
ASSI
100
AcDbLine
 62
7
  6
CONTINUOUS
 10
4.9568778823
 20
-19.9284082155
 11
4.9592060378
 21
-19.9270394177
  0
LINE
  5
457
100
AcDbEntity
  8
ASSI
100
AcDbLine
 62
7
  6
CONTINUOUS
 10
4.9095520281
 20
-20.3568868257
 11
3.3539044634
 21
-21.2707041173
  0
LINE
  5
458
100
AcDbEntity
  8
ASSI
100
AcDbLine
 62
7
  6
CONTINUOUS
 10
4.9095520281
 20
-19.955712258
 11
4.9176282183
 21
-19.9510062799
  0
LINE
  5
459
100
AcDbEntity
  8
ASSI
100
AcDbLine
 62
7
  6
CONTINUOUS
 10
4.302857035
 20
-20.9705807276
 11
3.5702933282
 21
-21.3956443358
  0
LINE
  5
45A
100
AcDbEntity
  8
ASSI
100
AcDbLine
 62
7
  6
CONTINUOUS
 10
4.3575686094
 20
-20.8925886743
 11
3.5300718492
 21
-21.3724209579
  0
LINE
  5
45B
100
AcDbEntity
  8
0
100
AcDbLine
 62
7
  6
CONTINUOUS
 10
-1.7672276187
 20
-23.4983674916
 11
-1.9086489749
 21
-23.5800224103
  0
LINE
  5
45C
100
AcDbEntity
  8
0
100
AcDbLine
 62
7
  6
CONTINUOUS
 10
-2.3841860489
 20
-24.1520770462
 11
-2.4751983821
 21
-24.2046264268
  0
LINE
  5
45D
100
AcDbEntity
  8
0
100
AcDbLine
 62
7
  6
CONTINUOUS
 10
-1.5829691554
 20
-23.9144358108
 11
-1.5873560904
 21
-23.9169687721
  0
LWPOLYLINE
  5
45E
100
AcDbEntity
  8
0
100
AcDbPolyline
 62
7
  6
CONTINUOUS
 90
42
 70
0
 10
-1.4938584019
 20
-23.8823458914
 10
-1.4926992676
 20
-23.8816765753
 10
-1.4855420548
 20
-23.8772480655
 10
-1.4783580862
 20
-23.8723631608
 10
-1.4711550146
 20
-23.8670115658
 10
-1.4639912251
 20
-23.8609919398
 10
-1.4568594293
 20
-23.8542800738
 10
-1.4497669155
 20
-23.8469001769
 10
-1.4427939344
 20
-23.8387235361
 10
-1.4359302887
 20
-23.8297450925
 10
-1.4291861755
 20
-23.8199699052
 10
-1.4226724371
 20
-23.8092844379
 10
-1.4163756796
 20
-23.797687989
 10
-1.4103092968
 20
-23.7851812603
 10
-1.4046243125
 20
-23.7716528207
 10
-1.3993155035
 20
-23.7571168314
 10
-1.3943880931
 20
-23.7415591314
 10
-1.3900087738
 20
-23.7248258067
 10
-1.3861708416
 20
-23.7069236662
 10
-1.3828810006
 20
-23.687845901
 10
-1.3803260559
 20
-23.6674181709
 10
-1.3784904706
 20
-23.6456243834
 10
-1.3773897816
 20
-23.622480631
 10
-1.3772574037
 20
-23.5978608503
 10
-1.3780158216
 20
-23.5717906448
 10
-1.3797425506
 20
-23.5442444111
 10
-1.382903552
 20
-23.5150192756
 10
-1.3874030639
 20
-23.4841057554
 10
-1.3933368482
 20
-23.4515133334
 10
-1.4014581516
 20
-23.4170675846
 10
-1.4120802862
 20
-23.3800752941
 10
-1.4248899399
 20
-23.3412296769
 10
-1.4397004234
 20
-23.3024359529
 10
-1.456924017
 20
-23.2635726229
 10
-1.4761484404
 20
-23.2247611862
 10
-1.4959501632
 20
-23.1882713599
 10
-1.5160296768
 20
-23.1548665049
 10
-1.5366864898
 20
-23.1237832603
 10
-1.5573955974
 20
-23.0950012614
 10
-1.577981998
 20
-23.0685137197
 10
-1.5986206932
 20
-23.0443274236
 10
-1.6193116829
 20
-23.0224423731
  0
LINE
  5
45F
100
AcDbEntity
  8
0
100
AcDbLine
 62
7
  6
CONTINUOUS
 10
-1.4375642151
 20
-23.8498110836
 11
-1.3524505489
 21
-23.8006675195
  0
LINE
  5
460
100
AcDbEntity
  8
0
100
AcDbLine
 62
7
  6
CONTINUOUS
 10
-1.9340758954
 20
-24.3537542561
 11
-2.0754972517
 21
-24.4354091748
  0
LINE
  5
461
100
AcDbEntity
  8
0
100
AcDbLine
 62
7
  6
CONTINUOUS
 10
-1.2672840434
 20
-24.2747244233
 11
-1.4087053996
 21
-24.356379342
  0
LINE
  5
462
100
AcDbEntity
  8
RACCORDO
100
AcDbLine
 62
7
  6
CONTINUOUS
 10
3.2733124832
 20
-21.8888119006
 11
3.848871984
 21
-21.5564921603
  0
LINE
  5
463
100
AcDbEntity
  8
0
100
AcDbLine
 62
7
  6
CONTINUOUS
 10
-1.1613295421
 20
-24.7999283157
 11
-1.3027508983
 21
-24.8815832344
  0
LINE
  5
464
100
AcDbEntity
  8
RACCORDO
100
AcDbLine
 62
7
  6
CONTINUOUS
 10
3.5549739302
 20
-22.2160154683
 11
4.0609717096
 21
-21.9238596609
  0
LINE
  5
465
100
AcDbEntity
  8
RACCORDO
100
AcDbLine
 62
7
  6
CONTINUOUS
 10
37.8843170529
 20
-4.5867806458
 11
39.5787899233
 21
-3.6084164912
  0
LINE
  5
466
100
AcDbEntity
  8
RACCORDO
100
AcDbLine
 62
7
  6
CONTINUOUS
 10
55.1350637224
 20
5.2903244998
 11
58.6352422892
 21
7.3112837368
  0
LINE
  5
467
100
AcDbEntity
  8
RACCORDO
100
AcDbLine
 62
7
  6
CONTINUOUS
 10
38.3792164127
 20
-5.4439714807
 11
40.0736892831
 21
-4.4656073261
  0
LINE
  5
468
100
AcDbEntity
  8
RACCORDO
100
AcDbLine
 62
7
  6
CONTINUOUS
 10
55.8421705035
 20
4.0655796297
 11
59.3423490704
 21
6.0865388667
  0
LINE
  5
469
100
AcDbEntity
  8
ASSI
100
AcDbLine
 62
7
  6
CONTINUOUS
 10
4.9176282183
 20
-19.9510062799
 11
4.9568778823
 21
-19.9284082155
  0
LINE
  5
46A
100
AcDbEntity
  8
0
100
AcDbLine
 62
7
  6
CONTINUOUS
 10
-1.4998373774
 20
-23.8856383948
 11
-1.4938584019
 21
-23.8823458914
  0
LWPOLYLINE
  5
46B
100
AcDbEntity
  8
0
100
AcDbPolyline
 62
7
  6
CONTINUOUS
 90
11
 70
0
 10
-1.730345487
 20
-23.6138937973
 10
-1.7332430632
 20
-23.6154565711
 10
-1.7467262345
 20
-23.6209128859
 10
-1.7614665013
 20
-23.6239484744
 10
-1.777890903
 20
-23.6246113141
 10
-1.7962902762
 20
-23.6228742186
 10
-1.8163737842
 20
-23.6187643743
 10
-1.8376959552
 20
-23.6124113177
 10
-1.8601082987
 20
-23.6038582275
 10
-1.8837593053
 20
-23.5930619251
 10
-1.9086489749
 20
-23.5800224103
  0
LINE
  5
46C
100
AcDbEntity
  8
ASSI
100
AcDbLine
 62
7
  6
CONTINUOUS
 10
4.9605530111
 20
-19.9262516293
 11
4.9609230274
 21
-19.9260536404
  0
LINE
  5
46D
100
AcDbEntity
  8
DRAFT
100
AcDbLine
 62
7
  6
CONTINUOUS
 10
3.657690052
 20
-22.2753224697
 11
3.1154619258
 21
-22.5555861583
  0
LWPOLYLINE
  5
46E
100
AcDbEntity
  8
RACCORDO
100
AcDbPolyline
 62
7
  6
CONTINUOUS
 90
19
 70
0
 10
38.3792164127
 20
-5.443971481
 10
38.3598409312
 20
-5.4538787154
 10
38.3390586403
 20
-5.4627848604
 10
38.3170242136
 20
-5.4706236316
 10
38.2939016438
 20
-5.4773366881
 10
38.2698630222
 20
-5.4828740678
 10
38.2450872579
 20
-5.4871945582
 10
38.2197587461
 20
-5.4902660038
 10
38.1940659961
 20
-5.4920655452
 10
38.1682002281
 20
-5.4925797892
 10
38.1423539361
 20
-5.4918049076
 10
38.116719497
 20
-5.4897466671
 10
38.0914877368
 20
-5.4864203926
 10
38.0668464442
 20
-5.4818508464
 10
38.0429790068
 20
-5.4760720434
 10
38.0200630836
 20
-5.4691270076
 10
37.9982692255
 20
-5.4610674411
 10
37.9777596106
 20
-5.4519533331
 10
37.9586868672
 20
-5.4418525231
  0
LWPOLYLINE
  5
46F
100
AcDbEntity
  8
0
100
AcDbPolyline
 62
7
  6
CONTINUOUS
 90
7
 70
0
 10
-1.5413539644
 20
-23.9041608113
 10
-1.5346182911
 20
-23.9015204783
 10
-1.5278090944
 20
-23.8986937715
 10
-1.5209135743
 20
-23.8957868349
 10
-1.5139445307
 20
-23.8926935246
 10
-1.5069209576
 20
-23.8893039787
 10
-1.4998373774
 20
-23.8856383948
  0
LWPOLYLINE
  5
470
100
AcDbEntity
  8
RACCORDO
100
AcDbPolyline
 62
7
  6
CONTINUOUS
 90
12
 70
0
 10
36.0485967795
 20
-5.9917215775
 10
36.0757691005
 20
-6.0212603914
 10
36.1019716342
 20
-6.0525823742
 10
36.1271912971
 20
-6.0856732613
 10
36.1511141874
 20
-6.1201647843
 10
36.1737422034
 20
-6.1560687792
 10
36.1950734468
 20
-6.1933734101
 10
36.2147883199
 20
-6.2316749016
 10
36.2328985551
 20
-6.2710293212
 10
36.2493924201
 20
-6.3113806015
 10
36.26391512
 20
-6.3521567642
 10
36.2764488051
 20
-6.3933938418
  0
LINE
  5
471
100
AcDbEntity
  8
RACCORDO
100
AcDbLine
 62
7
  6
CONTINUOUS
 10
29.6792195996
 20
-37.2604532688
 11
29.678209113
 21
-37.230597719
  0
LINE
  5
472
100
AcDbEntity
  8
0
100
AcDbLine
 62
7
  6
CONTINUOUS
 10
28.9357900019
 20
-36.6416886409
 11
28.9363017568
 21
-36.6573546701
  0
LINE
  5
473
100
AcDbEntity
  8
0
100
AcDbLine
 62
7
  6
CONTINUOUS
 10
28.4052274932
 20
-35.4534788359
 11
28.4052274932
 21
-35.7688276902
  0
LINE
  5
474
100
AcDbEntity
  8
RACCORDO
100
AcDbLine
 62
7
  6
CONTINUOUS
 10
28.6185594279
 20
-36.2664965773
 11
28.6185594279
 21
-36.6874156142
  0
LINE
  5
475
100
AcDbEntity
  8
RACCORDO
100
AcDbLine
 62
7
  6
CONTINUOUS
 10
29.6792195996
 20
-37.2869630553
 11
29.6792195996
 21
-37.2604532688
  0
LWPOLYLINE
  5
476
100
AcDbEntity
  8
0
100
AcDbPolyline
 62
7
  6
CONTINUOUS
 90
12
 70
0
 10
28.4052274932
 20
-35.4534792781
 10
28.4050090528
 20
-35.462011535
 10
28.4025458394
 20
-35.4833385475
 10
28.3973524562
 20
-35.5045148611
 10
28.3894564393
 20
-35.5254147518
 10
28.3789103333
 20
-35.5459051471
 10
28.3657742489
 20
-35.5658792647
 10
28.3501277916
 20
-35.5852240869
 10
28.3320926202
 20
-35.6038061437
 10
28.3117948813
 20
-35.6215203723
 10
28.2893512
 20
-35.6382870064
 10
28.2648973934
 20
-35.6540223544
  0
LINE
  5
477
100
AcDbEntity
  8
ASSI
100
AcDbLine
 62
7
  6
CONTINUOUS
 10
20.2674711861
 20
-30.0787670242
 11
20.3347184953
 21
-29.8278084869
  0
LINE
  5
478
100
AcDbEntity
  8
RACCORDO
100
AcDbLine
 62
7
  6
CONTINUOUS
 10
10.1374610533
 20
-25.3173059574
 11
9.5859653086
 21
-25.6583591985
  0
LINE
  5
479
100
AcDbEntity
  8
RACCORDO
100
AcDbLine
 62
7
  6
CONTINUOUS
 10
10.3961330365
 20
-25.3367986355
 11
9.8403216874
 21
-25.6805207112
  0
LINE
  5
47A
100
AcDbEntity
  8
RACCORDO
100
AcDbLine
 62
7
  6
CONTINUOUS
 10
10.1374668701
 20
-25.3173023457
 11
10.1419419404
 21
-25.3146275262
  0
LINE
  5
47B
100
AcDbEntity
  8
DRAFT
100
AcDbLine
 62
7
  6
CONTINUOUS
 10
13.7398573623
 20
-28.0966395154
 11
13.8897559681
 21
-28.0070148055
  0
LINE
  5
47C
100
AcDbEntity
  8
RACCORDO
100
AcDbLine
 62
7
  6
CONTINUOUS
 10
8.2863650727
 20
-25.2817660746
 11
9.2216492615
 21
-24.7417464964
  0
LINE
  5
47D
100
AcDbEntity
  8
RACCORDO
100
AcDbLine
 62
7
  6
CONTINUOUS
 10
8.9996961454
 20
-25.359729837
 11
9.4337489871
 21
-25.1091139971
  0
LINE
  5
47E
100
AcDbEntity
  8
RACCORDO
100
AcDbLine
 62
7
  6
CONTINUOUS
 10
10.4936101098
 20
-25.1115780354
 11
10.1419420017
 21
-25.3146274908
  0
LINE
  5
47F
100
AcDbEntity
  8
0
100
AcDbLine
 62
7
  6
CONTINUOUS
 10
10.7497931911
 20
-25.1328477417
 11
10.3963484445
 21
-25.3369230094
  0
LINE
  5
480
100
AcDbEntity
  8
0
100
AcDbLine
 62
7
  6
CONTINUOUS
 10
12.001495274
 20
-25.8555648368
 11
11.6480505273
 21
-26.0596401045
  0
LINE
  5
481
100
AcDbEntity
  8
RACCORDO
100
AcDbLine
 62
7
  6
CONTINUOUS
 10
11.7795978077
 20
-26.8002344382
 11
12.3551573085
 21
-26.4679146978
  0
LINE
  5
482
100
AcDbEntity
  8
RACCORDO
100
AcDbLine
 62
7
  6
CONTINUOUS
 10
12.3440454587
 20
-27.2907152159
 11
12.7086568512
 21
-27.0801938656
  0
LINE
  5
483
100
AcDbEntity
  8
RACCORDO
100
AcDbLine
 62
7
  6
CONTINUOUS
 10
13.3693045208
 20
-27.8826869488
 11
13.5484365283
 21
-27.7792580176
  0
LINE
  5
484
100
AcDbEntity
  8
0
100
AcDbLine
 62
7
  6
CONTINUOUS
 10
10.4936101098
 20
-25.1115780354
 11
10.5034707846
 21
-25.1062895505
  0
LWPOLYLINE
  5
485
100
AcDbEntity
  8
0
100
AcDbPolyline
 62
7
  6
CONTINUOUS
 90
6
 70
0
 10
10.4936101098
 20
-25.1115780354
 10
10.5256269546
 20
-25.0946081213
 10
10.5590960003
 20
-25.0798793853
 10
10.5938247833
 20
-25.067550327
 10
10.6295867098
 20
-25.0577612871
 10
10.6661632605
 20
-25.0506198183
  0
LINE
  5
486
100
AcDbEntity
  8
ASSI
100
AcDbLine
 62
7
  6
CONTINUOUS
 10
16.5549772294
 20
-26.6879580055
 11
13.9504008588
 21
-28.0420304054
  0
LINE
  5
487
100
AcDbEntity
  8
DRAFT
100
AcDbLine
 62
7
  6
CONTINUOUS
 10
8.9609909109
 20
-25.3373819196
 11
8.4187627847
 21
-25.6176456083
  0
LWPOLYLINE
  5
488
100
AcDbEntity
  8
RACCORDO
100
AcDbPolyline
 62
7
  6
CONTINUOUS
 90
3
 70
0
 10
10.1419419404
 20
-25.3146275262
 10
10.1590868273
 20
-25.3059594762
 10
10.1772835516
 20
-25.2991522753
  0
LWPOLYLINE
  5
489
100
AcDbEntity
  8
0
100
AcDbPolyline
 62
7
  6
CONTINUOUS
 90
11
 70
0
 10
10.5034707846
 20
-25.1062895505
 10
10.5241604523
 20
-25.0975734968
 10
10.5460779184
 20
-25.0913582729
 10
10.5691005642
 20
-25.0876786503
 10
10.5930995876
 20
-25.086555215
 10
10.6179407244
 20
-25.087994252
 10
10.6434849991
 20
-25.0919877106
 10
10.6695895023
 20
-25.098513249
 10
10.6961081904
 20
-25.1075343598
 10
10.7228927026
 20
-25.1190005735
 10
10.7497931911
 20
-25.1328477417
  0
LWPOLYLINE
  5
48A
100
AcDbEntity
  8
RACCORDO
100
AcDbPolyline
 62
7
  6
CONTINUOUS
 90
22
 70
0
 10
55.1350637224
 20
4.0655796297
 10
55.1624733904
 20
4.0508952481
 10
55.1917069862
 20
4.0374346038
 10
55.2226010243
 20
4.0252729743
 10
55.2549827313
 20
4.0144783731
 10
55.2886710177
 20
4.0051111676
 10
55.3234774909
 20
3.9972237421
 10
55.3592075025
 20
3.9908602069
 10
55.3956612338
 20
3.986056151
 10
55.432634818
 20
3.9828384421
 10
55.4699214865
 20
3.9812250756
 10
55.5073127143
 20
3.9812250751
 10
55.5445993834
 20
3.9828384406
 10
55.581572969
 20
3.9860561485
 10
55.6180267023
 20
3.9908602036
 10
55.6537567166
 20
3.9972237384
 10
55.688563193
 20
4.0051111638
 10
55.7222514829
 20
4.0144783696
 10
55.7546331933
 20
4.0252729713
 10
55.7855272344
 20
4.0374346016
 10
55.814760833
 20
4.050895247
 10
55.8421705035
 20
4.0655796298
  0
LINE
  5
48B
100
AcDbEntity
  8
RACCORDO
100
AcDbLine
 62
7
  6
CONTINUOUS
 10
54.7815103318
 20
4.6779520648
 11
-59.0626814393
 21
70.4101615905
  0
LINE
  5
48C
100
AcDbEntity
  8
RACCORDO
100
AcDbLine
 62
7
  6
CONTINUOUS
 10
55.1350637224
 20
5.2903244998
 11
-58.7091280487
 21
71.0225340256
  0
LWPOLYLINE
  5
48D
100
AcDbEntity
  8
RACCORDO
100
AcDbPolyline
 62
7
  6
CONTINUOUS
 90
12
 70
0
 10
-59.4162348299
 20
70.2060637488
 10
-59.4416673008
 20
70.2218897574
 10
-59.4649803292
 20
70.2387688791
 10
-59.4860435389
 20
70.2566067189
 10
-59.504739136
 20
70.2753035206
 10
-59.5209625672
 20
70.294754724
 10
-59.5346231044
 20
70.31485155
 10
-59.5456443524
 20
70.335481609
 10
-59.5539646759
 20
70.3565295295
 10
-59.5595375442
 20
70.3778776028
 10
-59.5623317917
 20
70.399406442
 10
-59.5626814393
 20
70.4102010455
  0
LWPOLYLINE
  5
48E
100
AcDbEntity
  8
RACCORDO
100
AcDbPolyline
 62
7
  6
CONTINUOUS
 90
9
 70
0
 10
35.901013283
 20
-5.8741412848
 10
35.9021117683
 20
-5.8984017014
 10
35.9053958295
 20
-5.9211423589
 10
35.9108314523
 20
-5.9421277451
 10
35.9183623398
 20
-5.9611405262
 10
35.9279104954
 20
-5.9779837991
 10
35.939377032
 20
-5.9924831301
 10
35.9526431939
 20
-6.0044883594
 10
35.9631380972
 20
-6.0114623593
  0
LINE
  5
48F
100
AcDbEntity
  8
RACCORDO
100
AcDbLine
 62
7
  6
CONTINUOUS
 10
36.2186168285
 20
-43.9979152541
 11
36.2183683528
 21
-43.9910927343
  0
LWPOLYLINE
  5
490
100
AcDbEntity
  8
RACCORDO
100
AcDbPolyline
 62
7
  6
CONTINUOUS
 90
25
 70
0
 10
38.3792164127
 20
-5.4439714807
 10
38.3779205358
 20
-5.4061169757
 10
38.374524817
 20
-5.3671939744
 10
38.3690450944
 20
-5.3273683885
 10
38.3615069449
 20
-5.2868095395
 10
38.351942801
 20
-5.2456909634
 10
38.3403917974
 20
-5.2041896672
 10
38.3269038961
 20
-5.1624830264
 10
38.3115378925
 20
-5.120748965
 10
38.294358368
 20
-5.0791667229
 10
38.2754389362
 20
-5.0379142615
 10
38.2548613087
 20
-4.9971677289
 10
38.2327131358
 20
-4.9571016454
 10
38.2090889283
 20
-4.9178877364
 10
38.184090104
 20
-4.8796936143
 10
38.1578238907
 20
-4.842682313
 10
38.1304018964
 20
-4.8070125792
 10
38.1019415005
 20
-4.7728372675
 10
38.0725657844
 20
-4.740302106
 10
38.0423995132
 20
-4.7095470309
 10
38.0115712638
 20
-4.680703914
 10
37.980214722
 20
-4.653895101
 10
37.9484639456
 20
-4.6292354312
 10
37.9164528005
 20
-4.6068317238
 10
37.8843170529
 20
-4.5867806458
  0
LINE
  5
491
100
AcDbEntity
  8
RACCORDO
100
AcDbLine
 62
7
  6
CONTINUOUS
 10
36.2183680891
 20
-6.47598926
 11
36.2183680891
 21
-43.990863044
  0
LINE
  5
492
100
AcDbEntity
  8
RACCORDO
100
AcDbLine
 62
7
  6
CONTINUOUS
 10
36.3062360547
 20
-6.598471638
 11
36.3062360547
 21
-44.113345415
  0
LINE
  5
493
100
AcDbEntity
  8
RACCORDO
100
AcDbLine
 62
7
  6
CONTINUOUS
 10
37.9586868672
 20
-47.178173308
 11
37.9586868672
 21
-5.4418525231
  0
LINE
  5
494
100
AcDbEntity
  8
RACCORDO
100
AcDbLine
 62
7
  6
CONTINUOUS
 10
38.3792164127
 20
-47.1802922656
 11
38.3792164127
 21
-5.4439714807
  0
LWPOLYLINE
  5
495
100
AcDbEntity
  8
RACCORDO
100
AcDbPolyline
 62
7
  6
CONTINUOUS
 90
5
 70
0
 10
36.2183684012
 20
-43.9910927344
 10
36.2182158555
 20
-44.0006772653
 10
36.2173768639
 20
-44.0150453007
 10
36.2159302929
 20
-44.0274130672
 10
36.2144864937
 20
-44.0355653019
  0
LWPOLYLINE
  5
496
100
AcDbEntity
  8
RACCORDO
100
AcDbPolyline
 62
7
  6
CONTINUOUS
 90
22
 70
0
 10
36.3062360547
 20
-44.113345415
 10
36.3048567269
 20
-44.1522404194
 10
36.301203237
 20
-44.1887494652
 10
36.295275585
 20
-44.2228725526
 10
36.2869735021
 20
-44.2547150153
 10
36.2763972571
 20
-44.2841715195
 10
36.2638476567
 20
-44.3109260636
 10
36.2493072196
 20
-44.3349282969
 10
36.232793427
 20
-44.3562285702
 10
36.2146595291
 20
-44.374661934
 10
36.1949120369
 20
-44.3901853599
 10
36.1735444394
 20
-44.4028418764
 10
36.1508904534
 20
-44.41259562
 10
36.1269591495
 20
-44.4194339791
 10
36.101741457
 20
-44.4233695653
 10
36.0755438811
 20
-44.4244043492
 10
36.0483715754
 20
-44.422537709
 10
36.0202193863
 20
-44.4177702666
 10
35.9913783581
 20
-44.4101058577
 10
35.9619455055
 20
-44.3995457611
 10
35.9318238138
 20
-44.3860886981
 10
35.901013283
 20
-44.3697346686
  0
LWPOLYLINE
  5
497
100
AcDbEntity
  8
RACCORDO
100
AcDbPolyline
 62
7
  6
CONTINUOUS
 90
13
 70
0
 10
35.901013283
 20
-44.3697346686
 10
35.902111756
 20
-44.3442058179
 10
35.9053957989
 20
-44.3176728677
 10
35.9108314004
 20
-44.2904106065
 10
35.9183622666
 20
-44.262701376
 10
35.9279104041
 20
-44.2348321471
 10
35.9393769277
 20
-44.2070915474
 10
35.9526430842
 20
-44.1797668726
 10
35.9675714826
 20
-44.1531411108
 10
35.9840075169
 20
-44.1274900117
 10
36.0017809673
 20
-44.103079231
 10
36.020707763
 20
-44.0801615792
 10
36.0405918885
 20
-44.0589744028
  0
LINE
  5
498
100
AcDbEntity
  8
ASSI
100
AcDbLine
 62
7
  6
CONTINUOUS
 10
20.812441075
 20
-29.1461642713
 11
19.0031472045
 21
-30.3063807449
  0
LWPOLYLINE
  5
499
100
AcDbEntity
  8
ASSI
100
AcDbPolyline
 62
7
  6
CONTINUOUS
 90
8
 70
0
 10
20.2127839422
 20
-30.156746994
 10
20.2194767075
 20
-30.1524960683
 10
20.2302723436
 20
-30.1438486702
 10
20.240106735
 20
-30.1335885864
 10
20.2487652756
 20
-30.121929056
 10
20.2561764299
 20
-30.1089411587
 10
20.2624117334
 20
-30.0945538147
 10
20.2674711861
 20
-30.0787670242
  0
LINE
  5
49A
100
AcDbEntity
  8
RACCORDO
100
AcDbLine
 62
7
  6
CONTINUOUS
 10
17.4039940928
 20
-29.507750453
 11
16.8481827437
 21
-29.8514725286
  0
LINE
  5
49B
100
AcDbEntity
  8
RACCORDO
100
AcDbLine
 62
7
  6
CONTINUOUS
 10
17.6583504716
 20
-29.5299119656
 11
17.1025391225
 21
-29.8736340412
  0
LINE
  5
49C
100
AcDbEntity
  8
RACCORDO
100
AcDbLine
 62
7
  6
CONTINUOUS
 10
20.4978439505
 20
-31.3272757375
 11
19.5946505082
 21
-31.8858241104
  0
LINE
  5
49D
100
AcDbEntity
  8
RACCORDO
100
AcDbLine
 62
7
  6
CONTINUOUS
 10
20.6504371623
 20
-31.340585394
 11
19.74724372
 21
-31.8991337669
  0
LINE
  5
49E
100
AcDbEntity
  8
ASSI
100
AcDbLine
 62
7
  6
CONTINUOUS
 10
20.866780459
 20
-29.1145865653
 11
20.8691086145
 21
-29.1132177676
  0
LINE
  5
49F
100
AcDbEntity
  8
ASSI
100
AcDbLine
 62
7
  6
CONTINUOUS
 10
20.8194546048
 20
-29.5430651756
 11
19.2638070401
 21
-30.4568824672
  0
LINE
  5
4A0
100
AcDbEntity
  8
ASSI
100
AcDbLine
 62
7
  6
CONTINUOUS
 10
20.8194546048
 20
-29.1418906079
 11
20.827530795
 21
-29.1371846297
  0
LINE
  5
4A1
100
AcDbEntity
  8
ASSI
100
AcDbLine
 62
7
  6
CONTINUOUS
 10
20.2127596117
 20
-30.1567590775
 11
19.4801959049
 21
-30.5818226857
  0
LINE
  5
4A2
100
AcDbEntity
  8
ASSI
100
AcDbLine
 62
7
  6
CONTINUOUS
 10
20.2674711861
 20
-30.0787670242
 11
19.4399744259
 21
-30.5585993078
  0
LINE
  5
4A3
100
AcDbEntity
  8
RACCORDO
100
AcDbLine
 62
7
  6
CONTINUOUS
 10
19.1832150599
 20
-31.0749902505
 11
19.7587745606
 21
-30.7426705101
  0
LINE
  5
4A4
100
AcDbEntity
  8
RACCORDO
100
AcDbLine
 62
7
  6
CONTINUOUS
 10
19.4648765069
 20
-31.4021938182
 11
19.9708742863
 21
-31.1100380108
  0
LINE
  5
4A5
100
AcDbEntity
  8
ASSI
100
AcDbLine
 62
7
  6
CONTINUOUS
 10
20.827530795
 20
-29.1371846297
 11
20.866780459
 21
-29.1145865653
  0
LINE
  5
4A6
100
AcDbEntity
  8
ASSI
100
AcDbLine
 62
7
  6
CONTINUOUS
 10
20.8704555878
 20
-29.1124299792
 11
20.8708256041
 21
-29.1122319903
  0
LINE
  5
4A7
100
AcDbEntity
  8
DRAFT
100
AcDbLine
 62
7
  6
CONTINUOUS
 10
19.5675926287
 20
-31.4615008196
 11
19.0253645025
 21
-31.7417645082
  0
LWPOLYLINE
  5
4A8
100
AcDbEntity
  8
RACCORDO
100
AcDbPolyline
 62
7
  6
CONTINUOUS
 90
7
 70
0
 10
-43.8996746948
 20
40.0965206152
 10
-43.9012448375
 20
40.0966908195
 10
-43.9005603698
 20
40.0965443683
 10
-43.8977405742
 20
40.0957754386
 10
-43.8929527455
 20
40.0941392973
 10
-43.8862934752
 20
40.0914126448
 10
-43.8779249546
 20
40.0874260543
  0
LWPOLYLINE
  5
4A9
100
AcDbEntity
  8
RACCORDO
100
AcDbPolyline
 62
7
  6
CONTINUOUS
 90
22
 70
0
 10
-59.0626814393
 20
70.4101615905
 10
-59.0892050636
 20
70.4243141026
 10
-59.1153373837
 20
70.4360150151
 10
-59.1410783994
 20
70.4452643281
 10
-59.1665847302
 20
70.4520949241
 10
-59.1916997568
 20
70.4564739205
 10
-59.2159536207
 20
70.4583026699
 10
-59.2393126237
 20
70.4575295384
 10
-59.2618104642
 20
70.4542061599
 10
-59.2830783784
 20
70.4483887879
 10
-59.3030984661
 20
70.4400355162
 10
-59.3218886276
 20
70.429188251
 10
-59.3391337999
 20
70.4160289639
 10
-59.3548066333
 20
70.4005212011
 10
-59.3689344775
 20
70.3827014164
 10
-59.3812843177
 20
70.3628609432
 10
-59.3918282757
 20
70.3409451355
 10
-59.4005942296
 20
70.3170086394
 10
-59.4074328
 20
70.2915067255
 10
-59.4122941936
 20
70.2645911509
 10
-59.4152282035
 20
70.2361101587
 10
-59.4162348299
 20
70.2060637488
  0
LWPOLYLINE
  5
4AA
100
AcDbEntity
  8
RACCORDO
100
AcDbPolyline
 62
7
  6
CONTINUOUS
 90
12
 70
0
 10
58.8852543693
 20
7.3360543256
 10
58.875719665
 20
7.3411547556
 10
58.8556792074
 20
7.3494972097
 10
58.8344059793
 20
7.3553429381
 10
58.8120189487
 20
7.3586592505
 10
58.7886433148
 20
7.3594276016
 10
58.7644098059
 20
7.357643696
 10
58.7394539445
 20
7.3533175115
 10
58.7139152909
 20
7.3464732424
 10
58.6879366666
 20
7.3371491644
 10
58.6616633556
 20
7.3253974224
 10
58.6352422889
 20
7.311283737
  0
LWPOLYLINE
  5
4AB
100
AcDbEntity
  8
RACCORDO
100
AcDbPolyline
 62
7
  6
CONTINUOUS
 90
13
 70
0
 10
-58.7091280487
 20
71.0225340256
 10
-58.7553749888
 20
71.0474883079
 10
-58.8014239018
 20
71.0688394936
 10
-58.8470775996
 20
71.0864961518
 10
-58.8921405819
 20
71.1003826707
 10
-58.9364198861
 20
71.1104395858
 10
-58.9797259128
 20
71.1166238307
 10
-59.0218732329
 20
71.1189089183
 10
-59.0626813466
 20
71.1172850549
 10
-59.1019754726
 20
71.111759195
 10
-59.1395873323
 20
71.1023550107
 10
-59.1753558859
 20
71.089112775
 10
-59.2091522088
 20
71.0720752033
  0
LINE
  5
4AC
100
AcDbEntity
  8
RACCORDO
100
AcDbLine
 62
7
  6
CONTINUOUS
 10
-55.2089494818
 20
73.0434932626
 11
58.6352422892
 21
7.3112837368
  0
LINE
  5
4AD
100
AcDbEntity
  8
RACCORDO
100
AcDbLine
 62
7
  6
CONTINUOUS
 10
-54.9589374017
 20
73.0682638514
 11
58.8852543693
 21
7.3360543256
  0
LWPOLYLINE
  5
4AE
100
AcDbEntity
  8
RACCORDO
100
AcDbPolyline
 62
7
  6
CONTINUOUS
 90
25
 70
0
 10
58.6352422892
 20
7.3112837368
 10
58.6814892866
 20
7.2828331745
 10
58.7275382485
 20
7.2510081897
 10
58.773191986
 20
7.2159450617
 10
58.8182550029
 20
7.177793936
 10
58.8625343322
 20
7.1367181812
 10
58.9058403629
 20
7.0928936901
 10
58.9479876519
 20
7.0465081254
 10
58.9887957178
 20
6.9977601173
 10
59.0280898135
 20
6.9468584128
 10
59.0657016772
 20
6.8940209784
 10
59.1014702471
 20
6.8394740744
 10
59.1352423518
 20
6.7834512875
 10
59.1668733679
 20
6.7261925293
 10
59.1962278551
 20
6.6679429786
 10
59.2231801274
 20
6.608952039
 10
59.2476147784
 20
6.549472291
 10
59.2694271596
 20
6.4897584626
 10
59.2885238487
 20
6.4300663084
 10
59.304823069
 20
6.3706514615
 10
59.3182550363
 20
6.3117683226
 10
59.3287622395
 20
6.2536690216
 10
59.3362996874
 20
6.1966023426
 10
59.3408351042
 20
6.140812658
 10
59.3423490704
 20
6.0865388667
  0
LWPOLYLINE
  5
4AF
100
AcDbEntity
  8
RACCORDO
100
AcDbPolyline
 62
7
  6
CONTINUOUS
 90
22
 70
0
 10
58.8852543693
 20
7.3360543256
 10
58.9357792128
 20
7.3048203515
 10
58.9846189665
 20
7.2705448535
 10
59.0317637178
 20
7.23337714
 10
59.0774174864
 20
7.193240941
 10
59.1213580455
 20
7.1503809695
 10
59.1629752132
 20
7.1055244954
 10
59.2021331978
 20
7.0590345732
 10
59.2390350933
 20
7.0108504653
 10
59.2736034426
 20
6.9612029431
 10
59.3057953464
 20
6.9102723301
 10
59.3356367622
 20
6.8580999873
 10
59.3631191335
 20
6.8047262926
 10
59.3882272094
 20
6.750136845
 10
59.410840969
 20
6.6944894706
 10
59.4308011012
 20
6.6380568745
 10
59.448059223
 20
6.5807886971
 10
59.4624743038
 20
6.5228446085
 10
59.4738384058
 20
6.4647670573
 10
59.4820640851
 20
6.4067522258
 10
59.487090079
 20
6.3486959224
 10
59.4887956798
 20
6.2906761633
  0
LWPOLYLINE
  5
4B0
100
AcDbEntity
  8
RACCORDO
100
AcDbPolyline
 62
7
  6
CONTINUOUS
 90
6
 70
0
 10
36.2764488051
 20
-6.3933938418
 10
36.2870113252
 20
-6.4350558018
 10
36.2953014347
 20
-6.476462569
 10
36.3012187186
 20
-6.5173874515
 10
36.3048635919
 20
-6.5580571412
 10
36.3062360547
 20
-6.598471638
  0
LINE
  5
4B1
100
AcDbEntity
  8
RACCORDO
100
AcDbLine
 62
7
  6
CONTINUOUS
 10
40.0736892831
 20
-46.2690595912
 11
40.0736892831
 21
-4.4656073261
  0
LWPOLYLINE
  5
4B2
100
AcDbEntity
  8
RACCORDO
100
AcDbPolyline
 62
7
  6
CONTINUOUS
 90
25
 70
0
 10
37.9586868672
 20
-47.178173308
 10
37.9580726756
 20
-47.1992357529
 10
37.9562727151
 20
-47.2193676557
 10
37.9532869854
 20
-47.2385690165
 10
37.9490929058
 20
-47.256921914
 10
37.9437130572
 20
-47.2743442696
 10
37.9372151824
 20
-47.2905898467
 10
37.929585453
 20
-47.3056360904
 10
37.9208376975
 20
-47.3195055558
 10
37.9110811437
 20
-47.3320196719
 10
37.9003018608
 20
-47.3431615708
 10
37.8885137796
 20
-47.3529481205
 10
37.8758679206
 20
-47.3612513535
 10
37.8623518312
 20
-47.3680515109
 10
37.847977964
 20
-47.3733683516
 10
37.8329346971
 20
-47.3771331857
 10
37.8172149748
 20
-47.3793248039
 10
37.8008258528
 20
-47.3799644155
 10
37.7839768768
 20
-47.3790469586
 10
37.7666548564
 20
-47.3765487803
 10
37.7488729821
 20
-47.3724935335
 10
37.7308803709
 20
-47.3669471138
 10
37.7127600618
 20
-47.3599314865
 10
37.6944290159
 20
-47.3514246863
 10
37.675887233
 20
-47.3414267133
  0
LINE
  5
4B3
100
AcDbEntity
  8
RACCORDO
100
AcDbLine
 62
7
  6
CONTINUOUS
 10
36.2144864937
 20
-44.0355653019
 11
36.2141124398
 21
-44.0373050877
  0
LINE
  5
4B4
100
AcDbEntity
  8
0
100
AcDbLine
 62
7
  6
CONTINUOUS
 10
29.9211417183
 20
-37.4395103034
 11
29.9267069731
 21
-37.4298709994
  0
LINE
  5
4B5
100
AcDbEntity
  8
RACCORDO
100
AcDbLine
 62
7
  6
CONTINUOUS
 10
26.04736363
 20
-34.5034843072
 11
25.4958678853
 21
-34.8445375484
  0
LINE
  5
4B6
100
AcDbEntity
  8
RACCORDO
100
AcDbLine
 62
7
  6
CONTINUOUS
 10
26.3060356132
 20
-34.5229769854
 11
25.750224264
 21
-34.866699061
  0
LINE
  5
4B7
100
AcDbEntity
  8
RACCORDO
100
AcDbLine
 62
7
  6
CONTINUOUS
 10
26.0473694467
 20
-34.5034806956
 11
26.0518445171
 21
-34.5008058761
  0
LINE
  5
4B8
100
AcDbEntity
  8
RACCORDO
100
AcDbLine
 62
7
  6
CONTINUOUS
 10
24.1962676494
 20
-34.4679444244
 11
25.1315518382
 21
-33.9279248463
  0
LINE
  5
4B9
100
AcDbEntity
  8
RACCORDO
100
AcDbLine
 62
7
  6
CONTINUOUS
 10
24.9095987221
 20
-34.5459081868
 11
25.3436515638
 21
-34.295292347
  0
LINE
  5
4BA
100
AcDbEntity
  8
RACCORDO
100
AcDbLine
 62
7
  6
CONTINUOUS
 10
26.4035126865
 20
-34.2977563853
 11
26.0518445784
 21
-34.5008058406
  0
LINE
  5
4BB
100
AcDbEntity
  8
0
100
AcDbLine
 62
7
  6
CONTINUOUS
 10
26.6596957678
 20
-34.3190260915
 11
26.3062510212
 21
-34.5231013593
  0
LINE
  5
4BC
100
AcDbEntity
  8
0
100
AcDbLine
 62
7
  6
CONTINUOUS
 10
27.9113978507
 20
-35.0417431866
 11
27.557953104
 21
-35.2458184544
  0
LINE
  5
4BD
100
AcDbEntity
  8
0
100
AcDbLine
 62
7
  6
CONTINUOUS
 10
26.4035126865
 20
-34.2977563853
 11
26.4133733613
 21
-34.2924679003
  0
LWPOLYLINE
  5
4BE
100
AcDbEntity
  8
0
100
AcDbPolyline
 62
7
  6
CONTINUOUS
 90
6
 70
0
 10
26.4035126865
 20
-34.2977563853
 10
26.4355295313
 20
-34.2807864712
 10
26.468998577
 20
-34.2660577351
 10
26.50372736
 20
-34.2537286768
 10
26.5394892865
 20
-34.243939637
 10
26.5760658372
 20
-34.2367981681
  0
LINE
  5
4BF
100
AcDbEntity
  8
DRAFT
100
AcDbLine
 62
7
  6
CONTINUOUS
 10
24.8708934876
 20
-34.5235602695
 11
24.3286653614
 21
-34.8038239582
  0
LWPOLYLINE
  5
4C0
100
AcDbEntity
  8
RACCORDO
100
AcDbPolyline
 62
7
  6
CONTINUOUS
 90
3
 70
0
 10
26.0518445171
 20
-34.5008058761
 10
26.068989404
 20
-34.4921378261
 10
26.0871861283
 20
-34.4853306251
  0
LWPOLYLINE
  5
4C1
100
AcDbEntity
  8
0
100
AcDbPolyline
 62
7
  6
CONTINUOUS
 90
11
 70
0
 10
26.4133733613
 20
-34.2924679003
 10
26.434063029
 20
-34.2837518467
 10
26.4559804951
 20
-34.2775366228
 10
26.4790031409
 20
-34.2738570002
 10
26.5030021643
 20
-34.2727335649
 10
26.5278433011
 20
-34.2741726019
 10
26.5533875758
 20
-34.2781660605
 10
26.579492079
 20
-34.2846915989
 10
26.6060107671
 20
-34.2937127096
 10
26.6327952793
 20
-34.3051789234
 10
26.6596957678
 20
-34.3190260915
  0
LINE
  5
4C2
100
AcDbEntity
  8
RACCORDO
100
AcDbLine
 62
7
  6
CONTINUOUS
 10
-43.8987276064
 20
40.096059709
 11
-43.8931762833
 21
40.0964639672
  0
LINE
  5
4C3
100
AcDbEntity
  8
RACCORDO
100
AcDbLine
 62
7
  6
CONTINUOUS
 10
-43.652216217
 20
39.957445407
 11
-43.9508681373
 21
39.9434016801
  0
LINE
  5
4C4
100
AcDbEntity
  8
RACCORDO
100
AcDbLine
 62
7
  6
CONTINUOUS
 10
-43.8931762833
 20
40.0964639672
 11
-43.8931222975
 21
40.0964664904
  0
LWPOLYLINE
  5
4C5
100
AcDbEntity
  8
RACCORDO
100
AcDbPolyline
 62
7
  6
CONTINUOUS
 90
3
 70
0
 10
36.2141124398
 20
-44.0373050877
 10
36.2123926288
 20
-44.0439291415
 10
36.2113214451
 20
-44.0470809593
  0
LINE
  5
4C6
100
AcDbEntity
  8
RACCORDO
100
AcDbLine
 62
7
  6
CONTINUOUS
 10
36.2113214451
 20
-44.0470809593
 11
36.2112259351
 21
-44.0473244463
  0
LINE
  5
4C7
100
AcDbEntity
  8
0
100
AcDbLine
 62
7
  6
CONTINUOUS
 10
30.1741943465
 20
-37.4094454333
 11
30.2802603637
 21
-37.2257337027
  0
LINE
  5
4C8
100
AcDbEntity
  8
0
100
AcDbLine
 62
7
  6
CONTINUOUS
 10
30.5277477371
 20
-37.2053081366
 11
30.6338137542
 21
-37.0215964061
  0
LINE
  5
4C9
100
AcDbEntity
  8
0
100
AcDbLine
 62
7
  6
CONTINUOUS
 10
30.8813011277
 20
-37.0011708399
 11
30.9873671448
 21
-36.8174591094
  0
LINE
  5
4CA
100
AcDbEntity
  8
0
100
AcDbLine
 62
7
  6
CONTINUOUS
 10
31.2348545183
 20
-36.7970335433
 11
31.3409205354
 21
-36.6133218128
  0
LINE
  5
4CB
100
AcDbEntity
  8
0
100
AcDbLine
 62
7
  6
CONTINUOUS
 10
31.5884079088
 20
-36.5928962466
 11
31.694473926
 21
-36.4091845161
  0
LINE
  5
4CC
100
AcDbEntity
  8
0
100
AcDbLine
 62
7
  6
CONTINUOUS
 10
31.9419612994
 20
-36.3887589499
 11
32.0480273166
 21
-36.2050472194
  0
LINE
  5
4CD
100
AcDbEntity
  8
0
100
AcDbLine
 62
7
  6
CONTINUOUS
 10
32.29551469
 20
-36.1846216533
 11
32.4015807072
 21
-36.0009099228
  0
LINE
  5
4CE
100
AcDbEntity
  8
0
100
AcDbLine
 62
7
  6
CONTINUOUS
 10
34.7703884242
 20
-39.2466811032
 11
34.8764544414
 21
-39.0629693727
  0
LINE
  5
4CF
100
AcDbEntity
  8
0
100
AcDbLine
 62
7
  6
CONTINUOUS
 10
35.1239418148
 20
-39.0425438066
 11
35.230007832
 21
-38.8588320761
  0
LINE
  5
4D0
100
AcDbEntity
  8
0
100
AcDbLine
 62
7
  6
CONTINUOUS
 10
35.4774952054
 20
-38.8384065099
 11
35.5835612226
 21
-38.6546947794
  0
LINE
  5
4D1
100
AcDbEntity
  8
0
100
AcDbLine
 62
7
  6
CONTINUOUS
 10
35.831048596
 20
-38.6342692132
 11
35.9371146131
 21
-38.4505574827
  0
LINE
  5
4D2
100
AcDbEntity
  8
0
100
AcDbLine
 62
7
  6
CONTINUOUS
 10
36.1846019866
 20
-38.4301319166
 11
36.2183680891
 21
-38.3716473115
  0
LINE
  5
4D3
100
AcDbEntity
  8
RACCORDO
100
AcDbLine
 62
7
  6
CONTINUOUS
 10
27.6993206123
 20
-35.9920828646
 11
28.2650060373
 21
-35.6540619566
  0
LINE
  5
4D4
100
AcDbEntity
  8
RACCORDO
100
AcDbLine
 62
7
  6
CONTINUOUS
 10
28.2603090134
 20
-36.4805663148
 11
28.6185594279
 21
-36.2664965773
  0
LINE
  5
4D5
100
AcDbEntity
  8
RACCORDO
100
AcDbLine
 62
7
  6
CONTINUOUS
 10
33.3161332388
 20
-38.6926392538
 11
32.7504478139
 21
-39.0306601618
  0
LINE
  5
4D6
100
AcDbEntity
  8
RACCORDO
100
AcDbLine
 62
7
  6
CONTINUOUS
 10
33.5683068962
 20
-38.7161214066
 11
33.0026214712
 21
-39.0541423146
  0
LINE
  5
4D7
100
AcDbEntity
  8
0
100
AcDbLine
 62
7
  6
CONTINUOUS
 10
29.6680793779
 20
-37.2933952797
 11
29.6792195996
 21
-37.2869630553
  0
LINE
  5
4D8
100
AcDbEntity
  8
0
100
AcDbLine
 62
7
  6
CONTINUOUS
 10
29.7188820793
 20
-37.3098636739
 11
29.8603034355
 21
-37.2282087553
  0
LINE
  5
4D9
100
AcDbEntity
  8
0
100
AcDbLine
 62
7
  6
CONTINUOUS
 10
29.9267069731
 20
-37.4298709994
 11
30.0681283293
 21
-37.3482160807
  0
LINE
  5
4DA
100
AcDbEntity
  8
0
100
AcDbLine
 62
7
  6
CONTINUOUS
 10
30.2802603637
 20
-37.2257337027
 11
30.4216817199
 21
-37.1440787841
  0
LINE
  5
4DB
100
AcDbEntity
  8
0
100
AcDbLine
 62
7
  6
CONTINUOUS
 10
30.6338137542
 20
-37.0215964061
 11
30.7752351105
 21
-36.9399414874
  0
LINE
  5
4DC
100
AcDbEntity
  8
0
100
AcDbLine
 62
7
  6
CONTINUOUS
 10
30.9873671448
 20
-36.8174591094
 11
31.1287885011
 21
-36.7358041908
  0
LINE
  5
4DD
100
AcDbEntity
  8
0
100
AcDbLine
 62
7
  6
CONTINUOUS
 10
31.3409205354
 20
-36.6133218128
 11
31.4823418917
 21
-36.5316668941
  0
LINE
  5
4DE
100
AcDbEntity
  8
0
100
AcDbLine
 62
7
  6
CONTINUOUS
 10
31.694473926
 20
-36.4091845161
 11
31.8358952823
 21
-36.3275295974
  0
LINE
  5
4DF
100
AcDbEntity
  8
0
100
AcDbLine
 62
7
  6
CONTINUOUS
 10
32.0480273166
 20
-36.2050472194
 11
32.1894486729
 21
-36.1233923008
  0
LINE
  5
4E0
100
AcDbEntity
  8
0
100
AcDbLine
 62
7
  6
CONTINUOUS
 10
32.4015807072
 20
-36.0009099228
 11
32.5430020634
 21
-35.9192550041
  0
LINE
  5
4E1
100
AcDbEntity
  8
RACCORDO
100
AcDbLine
 62
7
  6
CONTINUOUS
 10
29.290943607
 20
-37.0756418122
 11
29.3318365665
 21
-37.0528549162
  0
LINE
  5
4E2
100
AcDbEntity
  8
0
100
AcDbLine
 62
7
  6
CONTINUOUS
 10
32.4648798061
 20
-35.8741363553
 11
29.8603034355
 21
-37.2282087553
  0
LWPOLYLINE
  5
4E3
100
AcDbEntity
  8
0
100
AcDbPolyline
 62
7
  6
CONTINUOUS
 90
11
 70
0
 10
28.6185594279
 20
-36.4489575798
 10
28.6413601454
 20
-36.4391885649
 10
28.66695629
 20
-36.4304684349
 10
28.6921016449
 20
-36.4241775524
 10
28.7166574972
 20
-36.4203521462
 10
28.740486511
 20
-36.4190145373
 10
28.7634582079
 20
-36.4201728685
 10
28.7854464661
 20
-36.4238218762
 10
28.8063280054
 20
-36.4299416146
 10
28.8259876015
 20
-36.4384979524
 10
28.8332157007
 20
-36.4424367159
  0
LWPOLYLINE
  5
4E4
100
AcDbEntity
  8
0
100
AcDbPolyline
 62
7
  6
CONTINUOUS
 90
4
 70
0
 10
32.4726691201
 20
-35.8703106199
 10
32.4852815149
 20
-35.8656945757
 10
32.4983121096
 20
-35.8626369057
 10
32.5116141601
 20
-35.8611181859
  0
LWPOLYLINE
  5
4E5
100
AcDbEntity
  8
RACCORDO
100
AcDbPolyline
 62
7
  6
CONTINUOUS
 90
11
 70
0
 10
-54.9684721042
 20
73.0733642805
 10
-54.9885125484
 20
73.0817067303
 10
-55.0097857653
 20
73.0875524584
 10
-55.0321727865
 20
73.0908687731
 10
-55.0555484147
 20
73.0916371282
 10
-55.0797819239
 20
73.0898532269
 10
-55.1047377905
 20
73.0855270453
 10
-55.1302764511
 20
73.0786827772
 10
-55.1562550833
 20
73.0693586987
 10
-55.1825284038
 20
73.0576069536
 10
-55.2089494818
 20
73.0434932626
  0
LWPOLYLINE
  5
4E6
100
AcDbEntity
  8
RACCORDO
100
AcDbPolyline
 62
7
  6
CONTINUOUS
 90
12
 70
0
 10
54.7815103318
 20
-72.3968420645
 10
54.7824989376
 20
-72.4267786878
 10
54.7854592266
 20
-72.4554062782
 10
54.7903746441
 20
-72.4825647386
 10
54.797217701
 20
-72.5081021862
 10
54.8059501289
 20
-72.5318758067
 10
54.8165230947
 20
-72.5537526513
 10
54.8288774724
 20
-72.573610376
 10
54.8429441716
 20
-72.5913379253
 10
54.8586445256
 20
-72.6068361567
 10
54.8758907335
 20
-72.6200183976
 10
54.8850516423
 20
-72.625710495
  0
LWPOLYLINE
  5
4E7
100
AcDbEntity
  8
RACCORDO
100
AcDbPolyline
 62
7
  6
CONTINUOUS
 90
22
 70
0
 10
55.1350637224
 20
4.0655796297
 10
55.1340574583
 20
4.0967864906
 10
55.1311236494
 20
4.128654467
 10
55.1262622957
 20
4.1611835589
 10
55.1194235579
 20
4.1945833855
 10
55.1106572754
 20
4.2286443276
 10
55.1001129658
 20
4.2627375273
 10
55.0877627624
 20
4.2968401643
 10
55.0736345321
 20
4.330975059
 10
55.057961393
 20
4.3645818139
 10
55.0407160031
 20
4.3976555472
 10
55.0219257045
 20
4.4302011408
 10
55.001905641
 20
4.4616728427
 10
54.9806379176
 20
4.4920494059
 10
54.9581404294
 20
4.5213520773
 10
54.9347820051
 20
4.5490988465
 10
54.910529259
 20
4.5752767998
 10
54.8854155768
 20
4.5998988509
 10
54.8599099443
 20
4.6225217299
 10
54.8341686903
 20
4.6429976802
 10
54.8080354862
 20
4.6614744585
 10
54.7815103318
 20
4.6779520648
  0
LWPOLYLINE
  5
4E8
100
AcDbEntity
  8
RACCORDO
100
AcDbPolyline
 62
7
  6
CONTINUOUS
 90
25
 70
0
 10
55.8421705035
 20
4.0655796297
 10
55.8406565373
 20
4.1198534211
 10
55.8361211205
 20
4.1756431056
 10
55.8285836726
 20
4.2327097846
 10
55.8180764695
 20
4.2908090856
 10
55.8046445021
 20
4.3496922245
 10
55.7883452818
 20
4.4091070714
 10
55.7692485927
 20
4.4687992257
 10
55.7474362115
 20
4.528513054
 10
55.7230015605
 20
4.587992802
 10
55.6960492883
 20
4.6469837417
 10
55.666694801
 20
4.7052332923
 10
55.6350637849
 20
4.7624920506
 10
55.6012916802
 20
4.8185148374
 10
55.5655231103
 20
4.8730617414
 10
55.5279112466
 20
4.9258991758
 10
55.4886171509
 20
4.9768008803
 10
55.447809085
 20
5.0255488884
 10
55.405661796
 20
5.0719344531
 10
55.3623557653
 20
5.1157589442
 10
55.318076436
 20
5.156834699
 10
55.2730134192
 20
5.1949858247
 10
55.2273596816
 20
5.2300489527
 10
55.1813107198
 20
5.2618739375
 10
55.1350637224
 20
5.2903244998
  0
LINE
  5
4E9
100
AcDbEntity
  8
RACCORDO
100
AcDbLine
 62
7
  6
CONTINUOUS
 10
55.1350637224
 20
-72.1927442227
 11
55.1350637224
 21
4.0655796297
  0
LINE
  5
4EA
100
AcDbEntity
  8
RACCORDO
100
AcDbLine
 62
7
  6
CONTINUOUS
 10
55.8421705035
 20
-72.1927442227
 11
55.8421705035
 21
4.0655796297
  0
LWPOLYLINE
  5
4EB
100
AcDbEntity
  8
RACCORDO
100
AcDbPolyline
 62
7
  6
CONTINUOUS
 90
22
 70
0
 10
54.7815103318
 20
4.6779520648
 10
54.7824989388
 20
4.7090303242
 10
54.785459231
 20
4.7410763999
 10
54.7903746534
 20
4.7739110773
 10
54.7972177169
 20
4.8073507315
 10
54.8059501523
 20
4.8412083545
 10
54.8165231243
 20
4.8752946007
 10
54.8288775045
 20
4.9094188459
 10
54.8429442023
 20
4.9433902535
 10
54.8586445509
 20
4.9770188417
 10
54.8758907476
 20
5.0101165457
 10
54.8945863447
 20
5.0424982698
 10
54.9146267889
 20
5.0739829222
 10
54.9359000058
 20
5.104394428
 10
54.9582870271
 20
5.1335627137
 10
54.9816626553
 20
5.1613246583
 10
55.0058961645
 20
5.187525006
 10
55.0308520311
 20
5.2120172336
 10
55.0563906917
 20
5.2346643707
 10
55.0823693238
 20
5.2553397653
 10
55.1086426444
 20
5.2739277923
 10
55.1350637224
 20
5.2903244998
  0
LINE
  5
4EC
100
AcDbEntity
  8
RACCORDO
100
AcDbLine
 62
7
  6
CONTINUOUS
 10
36.0405954164
 20
-44.0589764398
 11
36.2183680891
 21
-43.8216872872
  0
LWPOLYLINE
  5
4ED
100
AcDbEntity
  8
RACCORDO
100
AcDbPolyline
 62
7
  6
CONTINUOUS
 90
5
 70
0
 10
36.2153667843
 20
-44.0409144882
 10
36.2087109119
 20
-44.0492872802
 10
36.1975286434
 20
-44.0613015003
 10
36.1858645438
 20
-44.0714412652
 10
36.1737672933
 20
-44.0797139218
  0
LINE
  5
4EE
100
AcDbEntity
  8
0
100
AcDbLine
 62
7
  6
CONTINUOUS
 10
35.9812909973
 20
-39.3786459293
 11
36.1759648887
 21
-39.1359638266
  0
LINE
  5
4EF
100
AcDbEntity
  8
0
100
AcDbLine
 62
7
  6
CONTINUOUS
 10
36.2183680891
 20
-38.655518839
 11
34.9130497812
 21
-39.4925590948
  0
LINE
  5
4F0
100
AcDbEntity
  8
0
100
AcDbLine
 62
7
  6
CONTINUOUS
 10
36.2183680891
 20
-39.1110553714
 11
35.243804533
 21
-39.6835327432
  0
LINE
  5
4F1
100
AcDbEntity
  8
0
100
AcDbLine
 62
7
  6
CONTINUOUS
 10
35.8314471948
 20
-39.5119123503
 11
35.3900984816
 21
-39.7680010356
  0
LINE
  5
4F2
100
AcDbEntity
  8
0
100
AcDbLine
 62
7
  6
CONTINUOUS
 10
35.9812909973
 20
-39.3786459293
 11
35.3498770026
 21
-39.7447776577
  0
LINE
  5
4F3
100
AcDbEntity
  8
0
100
AcDbLine
 62
7
  6
CONTINUOUS
 10
34.5229010508
 20
-39.2671066694
 11
34.664322407
 21
-39.1854517507
  0
LINE
  5
4F4
100
AcDbEntity
  8
0
100
AcDbLine
 62
7
  6
CONTINUOUS
 10
34.8764544414
 20
-39.0629693727
 11
35.0178757976
 21
-38.9813144541
  0
LINE
  5
4F5
100
AcDbEntity
  8
0
100
AcDbLine
 62
7
  6
CONTINUOUS
 10
35.230007832
 20
-38.8588320761
 11
35.3714291882
 21
-38.7771771574
  0
LINE
  5
4F6
100
AcDbEntity
  8
0
100
AcDbLine
 62
7
  6
CONTINUOUS
 10
35.5835612226
 20
-38.6546947794
 11
35.7249825788
 21
-38.5730398607
  0
LINE
  5
4F7
100
AcDbEntity
  8
0
100
AcDbLine
 62
7
  6
CONTINUOUS
 10
35.9371146131
 20
-38.4505574827
 11
36.0785359694
 21
-38.3689025641
  0
LINE
  5
4F8
100
AcDbEntity
  8
0
100
AcDbLine
 62
7
  6
CONTINUOUS
 10
36.2183680891
 20
-38.4106357922
 11
34.6287962341
 21
-39.3284346592
  0
LINE
  5
4F9
100
AcDbEntity
  8
RACCORDO
100
AcDbLine
 62
7
  6
CONTINUOUS
 10
36.1737672933
 20
-44.0797139218
 11
36.1612848478
 21
-44.0861099614
  0
LWPOLYLINE
  5
4FA
100
AcDbEntity
  8
RACCORDO
100
AcDbPolyline
 62
7
  6
CONTINUOUS
 90
10
 70
0
 10
36.1612848478
 20
-44.0861099614
 10
36.1484853093
 20
-44.0906185874
 10
36.1354286046
 20
-44.0932441063
 10
36.1221382852
 20
-44.093989294
 10
36.1086813045
 20
-44.0928533166
 10
36.0951228583
 20
-44.0898401297
 10
36.0814716724
 20
-44.0849442149
 10
36.0677738822
 20
-44.0781610321
 10
36.054122526
 20
-44.0695010314
 10
36.0405951911
 20
-44.0589767405
  0
LWPOLYLINE
  5
4FB
100
AcDbEntity
  8
RACCORDO
100
AcDbPolyline
 62
7
  6
CONTINUOUS
 90
5
 70
0
 10
-55.1750319258
 20
73.158202466
 10
-55.1211818942
 20
73.1420624301
 10
-55.0670877386
 20
73.1217492886
 10
-55.012944301
 20
73.0971764442
 10
-54.9589374017
 20
73.0682638514
  0
LINE
  5
4FC
100
AcDbEntity
  8
RACCORDO
100
AcDbLine
 62
7
  6
CONTINUOUS
 10
59.3423490704
 20
6.0865388667
 11
59.3423490704
 21
-70.1717849858
  0
LINE
  5
4FD
100
AcDbEntity
  8
RACCORDO
100
AcDbLine
 62
7
  6
CONTINUOUS
 10
59.4887956798
 20
6.2906761633
 11
59.4887956798
 21
-69.9676476891
  0
LWPOLYLINE
  5
4FE
100
AcDbEntity
  8
RACCORDO
100
AcDbPolyline
 62
7
  6
CONTINUOUS
 90
13
 70
0
 10
59.3423490704
 20
-70.1717849858
 10
59.3408351004
 20
-70.2243105509
 10
59.3362996734
 20
-70.2748629002
 10
59.3287622105
 20
-70.3232255606
 10
59.318254988
 20
-70.3691914355
 10
59.3048229992
 20
-70.4125636917
 10
59.2885237619
 20
-70.4531566024
 10
59.2694270716
 20
-70.4907963422
 10
59.247614703
 20
-70.5253217315
 10
59.2231800604
 20
-70.5565849268
 10
59.1962277751
 20
-70.5844520552
 10
59.1668732621
 20
-70.6088037837
 10
59.1352664494
 20
-70.6295218469
  0
LWPOLYLINE
  5
4FF
100
AcDbEntity
  8
RACCORDO
100
AcDbPolyline
 62
7
  6
CONTINUOUS
 90
16
 70
0
 10
59.4887956798
 20
-69.9676476891
 10
59.4868119869
 20
-70.0291431258
 10
59.48099162
 20
-70.0883901715
 10
59.4715354575
 20
-70.1452693953
 10
59.4586743472
 20
-70.1995934254
 10
59.442602183
 20
-70.2513864088
 10
59.4234370655
 20
-70.3007949082
 10
59.4014063265
 20
-70.3476236911
 10
59.3766924674
 20
-70.3918313436
 10
59.3492692723
 20
-70.4336688142
 10
59.3193031096
 20
-70.4729913354
 10
59.2869932262
 20
-70.5096497764
 10
59.2522773851
 20
-70.5437716466
 10
59.2152399023
 20
-70.5752646206
 10
59.1761643148
 20
-70.6038907097
 10
59.1352664494
 20
-70.6295218469
  0
LWPOLYLINE
  5
500
100
AcDbEntity
  8
RACCORDO
100
AcDbPolyline
 62
7
  6
CONTINUOUS
 90
12
 70
0
 10
59.4887956798
 20
6.2906761633
 10
59.4884460322
 20
6.2798815599
 10
59.4856517848
 20
6.2583527207
 10
59.4800789164
 20
6.2370046474
 10
59.471758593
 20
6.2159567269
 10
59.460737345
 20
6.1953266678
 10
59.4470768078
 20
6.1752298418
 10
59.4308533766
 20
6.1557786385
 10
59.4121577794
 20
6.1370818368
 10
59.3910945697
 20
6.1192439969
 10
59.3677815414
 20
6.1023648752
 10
59.3423490704
 20
6.0865388667
  0
LWPOLYLINE
  5
501
100
AcDbEntity
  8
RACCORDO
100
AcDbPolyline
 62
7
  6
CONTINUOUS
 90
14
 70
0
 10
38.226774231
 20
-47.5048375701
 10
38.2327137126
 20
-47.5015233285
 10
38.2548618017
 20
-47.4870078373
 10
38.2754393239
 20
-47.4699466378
 10
38.2943587024
 20
-47.4504124264
 10
38.3115382634
 20
-47.4284890894
 10
38.3269043222
 20
-47.4042705171
 10
38.3403922171
 20
-47.3778597894
 10
38.3519431445
 20
-47.3493705575
 10
38.3615071911
 20
-47.3189249639
 10
38.3690452485
 20
-47.2866522359
 10
38.3745248951
 20
-47.2526905226
 10
38.3779205595
 20
-47.217186321
 10
38.3792164127
 20
-47.1802922656
  0
LINE
  5
502
100
AcDbEntity
  8
RACCORDO
100
AcDbLine
 62
7
  6
CONTINUOUS
 10
38.3792164127
 20
-47.1802922656
 11
40.0736892831
 21
-46.2690595912
  0
LINE
  5
503
100
AcDbEntity
  8
RACCORDO
100
AcDbLine
 62
7
  6
CONTINUOUS
 10
38.2265719442
 20
-47.5049464818
 11
39.9225272572
 21
-46.5929165978
  0
LWPOLYLINE
  5
504
100
AcDbEntity
  8
RACCORDO
100
AcDbPolyline
 62
7
  6
CONTINUOUS
 90
19
 70
0
 10
38.3792164127
 20
-47.1802922656
 10
38.3598409293
 20
-47.1901994993
 10
38.3390586362
 20
-47.1991056436
 10
38.3170242071
 20
-47.206944414
 10
38.2939016348
 20
-47.2136574698
 10
38.2698630106
 20
-47.2191948486
 10
38.2450872436
 20
-47.2235153381
 10
38.2197587291
 20
-47.2265867829
 10
38.1940659764
 20
-47.2283863233
 10
38.1682002058
 20
-47.2289005661
 10
38.1423539111
 20
-47.2281256835
 10
38.1167194694
 20
-47.2260674417
 10
38.0914877083
 20
-47.2227411661
 10
38.0668464167
 20
-47.2181716194
 10
38.042978982
 20
-47.2123928163
 10
38.0200630631
 20
-47.2054477815
 10
37.9982692109
 20
-47.1973882172
 10
37.977759603
 20
-47.1882741129
 10
37.9586868672
 20
-47.178173308
  0
LWPOLYLINE
  5
505
100
AcDbEntity
  8
RACCORDO
100
AcDbPolyline
 62
7
  6
CONTINUOUS
 90
11
 70
0
 10
59.4884460321
 20
-69.9784422946
 10
59.4856517817
 20
-69.9999711476
 10
59.480078908
 20
-70.0213192307
 10
59.4717585778
 20
-70.0423671582
 10
59.4607373235
 20
-70.0629972201
 10
59.4470767827
 20
-70.0830940438
 10
59.4308533516
 20
-70.1025452413
 10
59.412157757
 20
-70.1212420362
 10
59.3910945518
 20
-70.1390798695
 10
59.3677815309
 20
-70.1559589841
 10
59.3423490704
 20
-70.1717849854
  0
LWPOLYLINE
  5
506
100
AcDbEntity
  8
RACCORDO
100
AcDbPolyline
 62
7
  6
CONTINUOUS
 90
13
 70
0
 10
55.6350878825
 20
-72.6504810839
 10
55.6666946952
 20
-72.6297630207
 10
55.6960492082
 20
-72.6054112922
 10
55.7230014935
 20
-72.5775441638
 10
55.7474361362
 20
-72.5462809685
 10
55.7692485047
 20
-72.5117555791
 10
55.788345195
 20
-72.4741158393
 10
55.8046444324
 20
-72.4335229287
 10
55.8180764211
 20
-72.3901506725
 10
55.8285836436
 20
-72.3441847976
 10
55.8361211065
 20
-72.2958221372
 10
55.8406565336
 20
-72.2452697879
 10
55.8421705035
 20
-72.1927442227
  0
LINE
  5
507
100
AcDbEntity
  8
RACCORDO
100
AcDbLine
 62
7
  6
CONTINUOUS
 10
55.8421705035
 20
-72.1927442227
 11
59.3423490704
 21
-70.1717849858
  0
LINE
  5
508
100
AcDbEntity
  8
RACCORDO
100
AcDbLine
 62
7
  6
CONTINUOUS
 10
55.6350878825
 20
-72.6504810839
 11
59.1352664494
 21
-70.6295218469
  0
LWPOLYLINE
  5
509
100
AcDbEntity
  8
RACCORDO
100
AcDbPolyline
 62
7
  6
CONTINUOUS
 90
16
 70
0
 10
55.6350878825
 20
-72.6504810839
 10
55.5934196948
 20
-72.6726122052
 10
55.5498871764
 20
-72.6919082431
 10
55.5046746226
 20
-72.7081992463
 10
55.4580685671
 20
-72.7213147218
 10
55.4102043894
 20
-72.7311603066
 10
55.3610331012
 20
-72.7376610013
 10
55.3107693879
 20
-72.7406837433
 10
55.2596364772
 20
-72.7401199048
 10
55.2075488034
 20
-72.73584983
 10
55.1546132781
 20
-72.72772681
 10
55.1011461664
 20
-72.7156491097
 10
55.0472961348
 20
-72.6995090737
 10
54.9932019791
 20
-72.6791959322
 10
54.9390585415
 20
-72.6546230879
 10
54.8850516423
 20
-72.625710495
  0
ARC
  5
50A
100
AcDbEntity
  8
0
100
AcDbCircle
 62
7
  6
CONTINUOUS
 10
27.9052274932
 20
-35.4534788359
 40
0.5
100
AcDbArc
 50
0.2703450501
 51
59.7296550152
  0
ARC
  5
50B
100
AcDbEntity
  8
0
100
AcDbCircle
 62
7
  6
CONTINUOUS
 10
11.9953249165
 20
-26.267300486
 40
0.5
100
AcDbArc
 50
0.2703450501
 51
59.7296550152
  0
ARC
  5
50C
100
AcDbEntity
  8
RACCORDO
100
AcDbCircle
 62
7
  6
CONTINUOUS
 10
-40.6134196038
 20
4.1083292575
 40
0.5
100
AcDbArc
 50
0.2703450501
 51
59.729655018
  0
ELLIPSE
  5
50D
100
AcDbEntity
  8
RACCORDO
100
AcDbEllipse
 62
7
  6
CONTINUOUS
 10
39.5786391377
 20
-45.9830497351
 30
0.0
 11
-0.3501235233
 21
0.606392698
 31
0.0
 40
0.5771558487
 41
-3.1591112814
 42
-2.3563950755
  0
ELLIPSE
  5
50E
100
AcDbEntity
  8
RACCORDO
100
AcDbEllipse
 62
7
  6
CONTINUOUS
 10
39.5786391377
 20
-4.1799456832
 30
0.0
 11
-0.3500169276
 21
0.6062080092
 31
0.0
 40
0.5775075436
 41
-2.3560905478
 42
-0.7855988075
  0
ELLIPSE
  5
50F
100
AcDbEntity
  8
RACCORDO
100
AcDbEllipse
 62
7
  6
CONTINUOUS
 10
-43.8598102452
 20
43.9963692612
 30
0.0
 11
-0.3501235233
 21
0.606392698
 31
0.0
 40
0.5771558487
 41
-0.7852941622
 42
0.0175189984
  0
ELLIPSE
  5
510
100
AcDbEntity
  8
RACCORDO
100
AcDbEllipse
 62
7
  6
CONTINUOUS
 10
-41.8744001751
 20
3.6659747578
 30
0.0
 11
-0.1500072547
 21
0.2598034325
 31
0.0
 40
0.5775075436
 41
0.7855021057
 42
2.355993846
  0
ELLIPSE
  5
511
100
AcDbEntity
  8
RACCORDO
100
AcDbEllipse
 62
7
  6
CONTINUOUS
 10
-41.3603324831
 20
3.9627967607
 30
0.0
 11
-0.1500073079
 21
0.2598034018
 31
0.0
 40
0.5789151826
 41
0.7867191038
 42
2.3547763749
  0
ELLIPSE
  5
512
100
AcDbEntity
  8
RACCORDO
100
AcDbEllipse
 62
7
  6
CONTINUOUS
 10
-5.6551047349
 20
-16.31399351
 30
0.0
 11
-0.1500529386
 21
0.2598825848
 31
0.0
 40
0.5771558487
 41
-0.7852941622
 42
0.0172857704
  0
ELLIPSE
  5
513
100
AcDbEntity
  8
RACCORDO
100
AcDbEllipse
 62
7
  6
CONTINUOUS
 10
-21.5650073116
 20
-7.1278151602
 30
0.0
 11
-0.1500529386
 21
0.2598825848
 31
0.0
 40
0.5771558487
 41
-0.7852941622
 42
0.0172857704
  0
ELLIPSE
  5
514
100
AcDbEntity
  8
RACCORDO
100
AcDbEllipse
 62
7
  6
CONTINUOUS
 10
20.6505017847
 20
-31.5856011006
 30
0.0
 11
-0.1500529386
 21
0.2598825848
 31
0.0
 40
0.5771558487
 41
-0.7852941622
 42
0.0172857759
  0
ELLIPSE
  5
515
100
AcDbEntity
  8
RACCORDO
100
AcDbEllipse
 62
7
  6
CONTINUOUS
 10
-27.0792059454
 20
-4.027066051
 30
0.0
 11
-0.1500529386
 21
0.2598825848
 31
0.0
 40
0.5771558487
 41
-0.7852941622
 42
0.0172857759
  0
ELLIPSE
  5
516
100
AcDbEntity
  8
RACCORDO
100
AcDbEllipse
 62
7
  6
CONTINUOUS
 10
-11.1693033687
 20
-13.2132444009
 30
0.0
 11
-0.1500529386
 21
0.2598825848
 31
0.0
 40
0.5771558487
 41
-0.7852941622
 42
0.0172857759
  0
ELLIPSE
  5
517
100
AcDbEntity
  8
RACCORDO
100
AcDbEllipse
 62
7
  6
CONTINUOUS
 10
4.740599208
 20
-22.3994227507
 30
0.0
 11
-0.1500529386
 21
0.2598825848
 31
0.0
 40
0.5771558487
 41
-0.7852941622
 42
0.0172857759
  0
ELLIPSE
  5
518
100
AcDbEntity
  8
RACCORDO
100
AcDbEllipse
 62
7
  6
CONTINUOUS
 10
33.5683068962
 20
-39.1244187306
 30
0.0
 11
-0.2499740017
 21
0.433071683
 31
0.0
 40
0.5773316645
 41
-0.7852941758
 42
0.0087624365
  0
ELLIPSE
  5
519
100
AcDbEntity
  8
RACCORDO
100
AcDbEllipse
 62
7
  6
CONTINUOUS
 10
17.6584581756
 20
-29.9382714766
 30
0.0
 11
-0.2500882309
 21
0.4331376414
 31
0.0
 40
0.5771558487
 41
-0.7852941622
 42
0.0175190048
  0
ELLIPSE
  5
51A
100
AcDbEntity
  8
RACCORDO
100
AcDbEllipse
 62
7
  6
CONTINUOUS
 10
1.7485555989
 20
-20.7520931267
 30
0.0
 11
-0.2500882309
 21
0.4331376414
 31
0.0
 40
0.5771558487
 41
-0.7852941622
 42
0.0175190048
  0
ELLIPSE
  5
51B
100
AcDbEntity
  8
RACCORDO
100
AcDbEllipse
 62
7
  6
CONTINUOUS
 10
-14.1613469778
 20
-11.5659147768
 30
0.0
 11
-0.2500882309
 21
0.4331376414
 31
0.0
 40
0.5771558487
 41
-0.7852941622
 42
0.0175190048
  0
ELLIPSE
  5
51C
100
AcDbEntity
  8
RACCORDO
100
AcDbEllipse
 62
7
  6
CONTINUOUS
 10
-30.0713034106
 20
-2.3797053311
 30
0.0
 11
-0.2499740017
 21
0.433071683
 31
0.0
 40
0.5773316645
 41
-0.7852941758
 42
0.0087624365
  0
ELLIPSE
  5
51D
100
AcDbEntity
  8
ASSI
100
AcDbEllipse
 62
7
  6
CONTINUOUS
 10
20.6708256397
 20
-29.6289362317
 30
0.0
 11
0.1999995634
 21
0.1164181051
 31
0.0
 40
0.0035896273
 41
-0.7351277754
 42
-0.0020157638
  0
ELLIPSE
  5
51E
100
AcDbEntity
  8
ASSI
100
AcDbEllipse
 62
7
  6
CONTINUOUS
 10
4.760923063
 20
-20.4427578818
 30
0.0
 11
0.1999995634
 21
0.1164181051
 31
0.0
 40
0.0035896273
 41
-0.7351277754
 42
-0.0020157638
  0
ELLIPSE
  5
51F
100
AcDbEntity
  8
ASSI
100
AcDbEllipse
 62
7
  6
CONTINUOUS
 10
-11.1489795137
 20
-11.256579532
 30
0.0
 11
0.1999995634
 21
0.1164181051
 31
0.0
 40
0.0035896273
 41
-0.7351277754
 42
-0.0020157638
  0
ELLIPSE
  5
520
100
AcDbEntity
  8
0
100
AcDbEllipse
 62
7
  6
CONTINUOUS
 10
-27.0588820904
 20
-2.1520482098
 30
0.0
 11
0.1999995634
 21
0.1164181051
 31
0.0
 40
0.0035896273
 41
-0.7351277754
 42
-0.0020757973
  0
ELLIPSE
  5
521
100
AcDbEntity
  8
RACCORDO
100
AcDbEllipse
 62
7
  6
CONTINUOUS
 10
28.2650060373
 20
-36.0623592807
 30
0.0
 11
-0.2499740017
 21
0.433071683
 31
0.0
 40
0.5773316645
 41
-2.3560905026
 42
-0.7852941758
  0
ELLIPSE
  5
522
100
AcDbEntity
  8
RACCORDO
100
AcDbEllipse
 62
7
  6
CONTINUOUS
 10
12.3550496045
 20
-26.876149835
 30
0.0
 11
-0.2500120911
 21
0.4330057209
 31
0.0
 40
0.5775075436
 41
-2.3560905478
 42
-0.7855988075
  0
ELLIPSE
  5
523
100
AcDbEntity
  8
RACCORDO
100
AcDbEllipse
 62
7
  6
CONTINUOUS
 10
19.7587099383
 20
-30.9876115924
 30
0.0
 11
-0.1500072547
 21
0.2598034325
 31
0.0
 40
0.5775075436
 41
-2.3560905478
 42
-0.7855988075
  0
ELLIPSE
  5
524
100
AcDbEntity
  8
RACCORDO
100
AcDbEllipse
 62
7
  6
CONTINUOUS
 10
-19.4647555489
 20
-8.5037931352
 30
0.0
 11
-0.2500120911
 21
0.4330057209
 31
0.0
 40
0.5775075436
 41
-2.3560905478
 42
-0.7855988075
  0
ELLIPSE
  5
525
100
AcDbEntity
  8
RACCORDO
100
AcDbEllipse
 62
7
  6
CONTINUOUS
 10
-3.5548529722
 20
-17.6899714851
 30
0.0
 11
-0.2500120911
 21
0.4330057209
 31
0.0
 40
0.5775075436
 41
-2.3560905478
 42
-0.7855988075
  0
ELLIPSE
  5
526
100
AcDbEntity
  8
RACCORDO
100
AcDbEllipse
 62
7
  6
CONTINUOUS
 10
3.8488073616
 20
-21.8014332425
 30
0.0
 11
-0.1500072547
 21
0.2598034325
 31
0.0
 40
0.5775075436
 41
-2.3560905478
 42
-0.7855988075
  0
ELLIPSE
  5
527
100
AcDbEntity
  8
RACCORDO
100
AcDbEllipse
 62
7
  6
CONTINUOUS
 10
-41.031458519
 20
35.8152187783
 30
0.0
 11
-0.149984401
 21
0.2598430098
 31
0.0
 40
0.5773316645
 41
-3.1502296861
 42
-2.3560905026
  0
ELLIPSE
  5
528
100
AcDbEntity
  8
RACCORDO
100
AcDbEllipse
 62
7
  6
CONTINUOUS
 10
-41.0314908327
 20
27.928592914
 30
0.0
 11
-0.1500072547
 21
0.2598034325
 31
0.0
 40
0.5775075436
 41
-2.3560905478
 42
-0.7855988075
  0
ELLIPSE
  5
529
100
AcDbEntity
  8
RACCORDO
100
AcDbEllipse
 62
7
  6
CONTINUOUS
 10
-41.0314908327
 20
17.8528913464
 30
0.0
 11
-0.1500529386
 21
0.2598825848
 31
0.0
 40
0.5771558487
 41
-3.1588791223
 42
-2.3563950755
  0
ELLIPSE
  5
52A
100
AcDbEntity
  8
RACCORDO
100
AcDbEllipse
 62
7
  6
CONTINUOUS
 10
-41.031458519
 20
9.9662281671
 30
0.0
 11
-0.149984401
 21
0.2598430098
 31
0.0
 40
0.5773316645
 41
-2.3560905026
 42
-0.7852941758
  0
ELLIPSE
  5
52B
100
AcDbEntity
  8
RACCORDO
100
AcDbEllipse
 62
7
  6
CONTINUOUS
 10
-35.3746042695
 20
0.6823541188
 30
0.0
 11
-0.2499740017
 21
0.433071683
 31
0.0
 40
0.5773316645
 41
-2.3560905026
 42
-0.7852941758
  0
ELLIPSE
  5
52C
100
AcDbEntity
  8
0
100
AcDbEllipse
 62
7
  6
CONTINUOUS
 10
32.4648798061
 20
-36.0374304107
 30
0.0
 11
0.1082601067
 21
0.1683382284
 31
0.0
 40
0.6067084637
 41
0.7621560142
 42
0.8145158917
  0
ELLIPSE
  5
52D
100
AcDbEntity
  8
0
100
AcDbEllipse
 62
7
  6
CONTINUOUS
 10
-31.1747305007
 20
0.7072829888
 30
0.0
 11
0.1082601067
 21
0.1683382284
 31
0.0
 40
0.6067084637
 41
0.7621560142
 42
0.8145158917
  0
ELLIPSE
  5
52E
100
AcDbEntity
  8
ASSI
100
AcDbEllipse
 62
7
  6
CONTINUOUS
 10
-15.264827924
 20
-8.4788953611
 30
0.0
 11
0.1082601067
 21
0.1683382284
 31
0.0
 40
0.6067084637
 41
0.7621560142
 42
0.8145158917
  0
ELLIPSE
  5
52F
100
AcDbEntity
  8
ASSI
100
AcDbEllipse
 62
7
  6
CONTINUOUS
 10
0.6450746527
 20
-17.6650737109
 30
0.0
 11
0.1082601067
 21
0.1683382284
 31
0.0
 40
0.6067084637
 41
0.7621560142
 42
0.8145158917
  0
ELLIPSE
  5
530
100
AcDbEntity
  8
ASSI
100
AcDbEllipse
 62
7
  6
CONTINUOUS
 10
16.5549772294
 20
-26.8512520608
 30
0.0
 11
0.1082601067
 21
0.1683382284
 31
0.0
 40
0.6067084637
 41
0.7621560142
 42
0.8145158917
  0
ELLIPSE
  5
531
100
AcDbEntity
  8
0
100
AcDbEllipse
 62
7
  6
CONTINUOUS
 10
35.8306779234
 20
-39.165538007
 30
0.0
 11
0.2123743771
 21
0.3678550612
 31
0.0
 40
0.5773586895
 41
-2.353653638
 42
-1.8309336332
  0
ELLIPSE
  5
532
100
AcDbEntity
  8
0
100
AcDbEllipse
 62
7
  6
CONTINUOUS
 10
-27.8089323834
 20
-2.4208246075
 30
0.0
 11
0.2123743771
 21
0.3678550612
 31
0.0
 40
0.5773586895
 41
-2.195063028
 42
-1.8309336332
  0
ELLIPSE
  5
533
100
AcDbEntity
  8
RACCORDO
100
AcDbEllipse
 62
7
  6
CONTINUOUS
 10
9.2215846391
 20
-24.9866875787
 30
0.0
 11
-0.1500072547
 21
0.2598034325
 31
0.0
 40
0.5775075436
 41
-2.3560905478
 42
-0.7855988075
  0
ELLIPSE
  5
534
100
AcDbEntity
  8
RACCORDO
100
AcDbEllipse
 62
7
  6
CONTINUOUS
 10
-6.6883179376
 20
-15.8005092288
 30
0.0
 11
-0.1500072547
 21
0.2598034325
 31
0.0
 40
0.5775075436
 41
-2.3560905478
 42
-0.7855988075
  0
ELLIPSE
  5
535
100
AcDbEntity
  8
RACCORDO
100
AcDbEllipse
 62
7
  6
CONTINUOUS
 10
25.1314872158
 20
-34.1728659286
 30
0.0
 11
-0.1500072547
 21
0.2598034325
 31
0.0
 40
0.5775075436
 41
-2.3560905478
 42
-0.7855988075
  0
ELLIPSE
  5
536
100
AcDbEntity
  8
RACCORDO
100
AcDbEllipse
 62
7
  6
CONTINUOUS
 10
-41.1034357703
 20
11.2824394728
 30
0.0
 11
-0.1500529386
 21
0.2598825848
 31
0.0
 40
0.5771558487
 41
-3.1588791223
 42
-2.3563950755
  0
ELLIPSE
  5
537
100
AcDbEntity
  8
RACCORDO
100
AcDbEllipse
 62
7
  6
CONTINUOUS
 10
-41.1034357703
 20
16.4564690714
 30
0.0
 11
-0.1500072547
 21
0.2598034325
 31
0.0
 40
0.5775075436
 41
-2.3560905478
 42
-0.7855988075
  0
ELLIPSE
  5
538
100
AcDbEntity
  8
RACCORDO
100
AcDbEllipse
 62
7
  6
CONTINUOUS
 10
-41.1034357703
 20
29.2447855623
 30
0.0
 11
-0.1500529386
 21
0.2598825848
 31
0.0
 40
0.5771558487
 41
-3.1588791223
 42
-2.3563950755
  0
ELLIPSE
  5
539
100
AcDbEntity
  8
RACCORDO
100
AcDbEllipse
 62
7
  6
CONTINUOUS
 10
-41.1034357703
 20
34.4188151608
 30
0.0
 11
-0.1500072547
 21
0.2598034325
 31
0.0
 40
0.5775075436
 41
-2.3560905478
 42
-0.7855988075
  0
ELLIPSE
  5
53A
100
AcDbEntity
  8
RACCORDO
100
AcDbEllipse
 62
7
  6
CONTINUOUS
 10
24.196203027
 20
-34.7128855067
 30
0.0
 11
-0.1500072547
 21
0.2598034325
 31
0.0
 40
0.5775075436
 41
4.1934048395
 42
5.4975864996
  0
ELLIPSE
  5
53B
100
AcDbEntity
  8
RACCORDO
100
AcDbEllipse
 62
7
  6
CONTINUOUS
 10
19.7473083424
 20
-32.1441494735
 30
0.0
 11
-0.1500529386
 21
0.2598825848
 31
0.0
 40
0.5771558487
 41
-0.7852941622
 42
0.7851975781
  0
ELLIPSE
  5
53C
100
AcDbEntity
  8
RACCORDO
100
AcDbEllipse
 62
7
  6
CONTINUOUS
 10
3.8374057657
 20
-22.9579711237
 30
0.0
 11
-0.1500529386
 21
0.2598825848
 31
0.0
 40
0.5771558487
 41
-0.7852941622
 42
0.7851975781
  0
ELLIPSE
  5
53D
100
AcDbEntity
  8
RACCORDO
100
AcDbEllipse
 62
7
  6
CONTINUOUS
 10
8.2863004503
 20
-25.5267071568
 30
0.0
 11
-0.1500072547
 21
0.2598034325
 31
0.0
 40
0.5775075436
 41
4.1934048395
 42
5.4975864996
  0
ELLIPSE
  5
53E
100
AcDbEntity
  8
RACCORDO
100
AcDbEllipse
 62
7
  6
CONTINUOUS
 10
-2.3675287018
 20
-19.0048775039
 30
0.0
 11
0.2435694555
 21
0.4367051162
 31
0.0
 40
0.5671693725
 41
5.4894081695
 42
7.0427512038
  0
ELLIPSE
  5
53F
100
AcDbEntity
  8
RACCORDO
100
AcDbEllipse
 62
7
  6
CONTINUOUS
 10
-12.072496811
 20
-13.7717927738
 30
0.0
 11
-0.1500529386
 21
0.2598825848
 31
0.0
 40
0.5771558487
 41
-0.7852941622
 42
0.7851975781
  0
ELLIPSE
  5
540
100
AcDbEntity
  8
RACCORDO
100
AcDbEllipse
 62
7
  6
CONTINUOUS
 10
-7.6236021264
 20
-16.340528807
 30
0.0
 11
-0.1500072547
 21
0.2598034325
 31
0.0
 40
0.5775075436
 41
4.1934048395
 42
5.4975864996
  0
ELLIPSE
  5
541
100
AcDbEntity
  8
RACCORDO
100
AcDbEllipse
 62
7
  6
CONTINUOUS
 10
-18.2774312785
 20
-9.8186991541
 30
0.0
 11
0.2435694555
 21
0.4367051162
 31
0.0
 40
0.5671693725
 41
5.4894081695
 42
7.0427512038
  0
ELLIPSE
  5
542
100
AcDbEntity
  8
RACCORDO
100
AcDbEllipse
 62
7
  6
CONTINUOUS
 10
-27.9823993877
 20
-4.5856144239
 30
0.0
 11
-0.1500529386
 21
0.2598825848
 31
0.0
 40
0.5771558487
 41
-0.7852941622
 42
0.7851975781
  0
ELLIPSE
  5
543
100
AcDbEntity
  8
RACCORDO
100
AcDbEllipse
 62
7
  6
CONTINUOUS
 10
13.5423738749
 20
-28.1910558538
 30
0.0
 11
0.2435694555
 21
0.4367051162
 31
0.0
 40
0.5671693725
 41
5.4894081695
 42
7.0427512038
  0
ELLIPSE
  5
544
100
AcDbEntity
  8
RACCORDO
100
AcDbEllipse
 62
7
  6
CONTINUOUS
 10
-41.6070503334
 20
17.5433740727
 30
0.0
 11
-0.1500529386
 21
0.2598825848
 31
0.0
 40
0.5771558487
 41
2.5184400051
 42
3.9267902317
  0
ELLIPSE
  5
545
100
AcDbEntity
  8
RACCORDO
100
AcDbEllipse
 62
7
  6
CONTINUOUS
 10
-41.597143944
 20
35.500000337
 30
0.0
 11
-0.149984401
 21
0.2598430098
 31
0.0
 40
0.5773316645
 41
2.4716282084
 42
3.9270948046
  0
ELLIPSE
  5
546
100
AcDbEntity
  8
RACCORDO
100
AcDbEllipse
 62
7
  6
CONTINUOUS
 10
9.8404293913
 20
-26.0888802222
 30
0.0
 11
-0.2500882309
 21
0.4331376414
 31
0.0
 40
0.5771558487
 41
-0.7852941622
 42
0.1453157834
  0
ELLIPSE
  5
547
100
AcDbEntity
  8
RACCORDO
100
AcDbEllipse
 62
7
  6
CONTINUOUS
 10
11.7794901037
 20
-27.2084695753
 30
0.0
 11
-0.2500120911
 21
0.4330057209
 31
0.0
 40
0.5775075436
 41
-1.7162087531
 42
-0.7855988075
  0
ELLIPSE
  5
548
100
AcDbEntity
  8
RACCORDO
100
AcDbEllipse
 62
7
  6
CONTINUOUS
 10
17.1026468264
 20
-30.2819935522
 30
0.0
 11
-0.2500882309
 21
0.4331376414
 31
0.0
 40
0.5771558487
 41
-0.7852941622
 42
0.1453157834
  0
ELLIPSE
  5
549
100
AcDbEntity
  8
RACCORDO
100
AcDbEllipse
 62
7
  6
CONTINUOUS
 10
19.1831504375
 20
-31.3199313328
 30
0.0
 11
-0.1500072547
 21
0.2598034325
 31
0.0
 40
0.5775075436
 41
-2.0217871606
 42
-0.7855988075
  0
ELLIPSE
  5
54A
100
AcDbEntity
  8
RACCORDO
100
AcDbEllipse
 62
7
  6
CONTINUOUS
 10
-42.038719959
 20
28.7418199925
 30
0.0
 11
-0.1500529386
 21
0.2598825848
 31
0.0
 40
0.5771558487
 41
2.3562984914
 42
3.9267902317
  0
ELLIPSE
  5
54B
100
AcDbEntity
  8
RACCORDO
100
AcDbEllipse
 62
7
  6
CONTINUOUS
 10
-42.038719959
 20
10.7794739031
 30
0.0
 11
-0.1500529386
 21
0.2598825848
 31
0.0
 40
0.5771558487
 41
2.3562984914
 42
3.9267902317
  0
ELLIPSE
  5
54C
100
AcDbEntity
  8
RACCORDO
100
AcDbEllipse
 62
7
  6
CONTINUOUS
 10
-22.1208186607
 20
-7.4715372358
 30
0.0
 11
-0.1500529386
 21
0.2598825848
 31
0.0
 40
0.5771558487
 41
-0.7852941622
 42
0.4508941889
  0
ELLIPSE
  5
54D
100
AcDbEntity
  8
RACCORDO
100
AcDbEllipse
 62
7
  6
CONTINUOUS
 10
-20.0403150497
 20
-8.8361128756
 30
0.0
 11
-0.2500120911
 21
0.4330057209
 31
0.0
 40
0.5775075436
 41
-1.7162087531
 42
-0.7855988075
  0
ELLIPSE
  5
54E
100
AcDbEntity
  8
RACCORDO
100
AcDbEllipse
 62
7
  6
CONTINUOUS
 10
-14.717158327
 20
-11.9096368525
 30
0.0
 11
-0.2500882309
 21
0.4331376414
 31
0.0
 40
0.5771558487
 41
-0.7852941622
 42
0.1453157834
  0
ELLIPSE
  5
54F
100
AcDbEntity
  8
RACCORDO
100
AcDbEllipse
 62
7
  6
CONTINUOUS
 10
-12.7780976146
 20
-13.0292262057
 30
0.0
 11
-0.2500120911
 21
0.4330057209
 31
0.0
 40
0.5775075436
 41
-1.7162087519
 42
-0.7855988075
  0
ELLIPSE
  5
550
100
AcDbEntity
  8
RACCORDO
100
AcDbEllipse
 62
7
  6
CONTINUOUS
 10
-6.210916084
 20
-16.6577155857
 30
0.0
 11
-0.1500529386
 21
0.2598825848
 31
0.0
 40
0.5771558487
 41
-0.7852941622
 42
0.4508941889
  0
ELLIPSE
  5
551
100
AcDbEntity
  8
RACCORDO
100
AcDbEllipse
 62
7
  6
CONTINUOUS
 10
-4.130412473
 20
-18.0222912255
 30
0.0
 11
-0.2500120911
 21
0.4330057209
 31
0.0
 40
0.5775075436
 41
-1.7162087531
 42
-0.7855988075
  0
ELLIPSE
  5
552
100
AcDbEntity
  8
RACCORDO
100
AcDbEllipse
 62
7
  6
CONTINUOUS
 10
1.1927442497
 20
-21.0958152024
 30
0.0
 11
-0.2500882309
 21
0.4331376414
 31
0.0
 40
0.5771558487
 41
-0.7852941622
 42
0.1453157834
  0
ELLIPSE
  5
553
100
AcDbEntity
  8
RACCORDO
100
AcDbEllipse
 62
7
  6
CONTINUOUS
 10
3.2732478608
 20
-22.1337529829
 30
0.0
 11
-0.1500072547
 21
0.2598034325
 31
0.0
 40
0.5775075436
 41
-2.0217871606
 42
-0.7855988075
  0
ELLIPSE
  5
554
100
AcDbEntity
  8
RACCORDO
100
AcDbEllipse
 62
7
  6
CONTINUOUS
 10
-41.6070503334
 20
27.5962731737
 30
0.0
 11
-0.1500072547
 21
0.2598034325
 31
0.0
 40
0.5775075436
 41
-2.3560905478
 42
-0.9477403212
  0
ELLIPSE
  5
555
100
AcDbEntity
  8
0
100
AcDbEllipse
 62
7
  6
CONTINUOUS
 10
-26.9172666551
 20
-1.7509232771
 30
0.0
 11
0.0925036689
 21
0.1774691851
 31
0.0
 40
0.5463614449
 41
0.709509901
 42
0.7618697785
  0
ELLIPSE
  5
556
100
AcDbEntity
  8
RACCORDO
100
AcDbEllipse
 62
7
  6
CONTINUOUS
 10
-30.6369888356
 20
-2.7177262391
 30
0.0
 11
-0.2499740017
 21
0.433071683
 31
0.0
 40
0.5773316645
 41
-0.7852941758
 42
0.1453159788
  0
ELLIPSE
  5
557
100
AcDbEntity
  8
RACCORDO
100
AcDbEllipse
 62
7
  6
CONTINUOUS
 10
-28.6880001913
 20
-3.8430478558
 30
0.0
 11
-0.2500120911
 21
0.4330057209
 31
0.0
 40
0.5775075436
 41
-1.7162087531
 42
-0.7855988075
  0
ELLIPSE
  5
558
100
AcDbEntity
  8
RACCORDO
100
AcDbEllipse
 62
7
  6
CONTINUOUS
 10
-41.597143944
 20
9.6282072591
 30
0.0
 11
-0.149984401
 21
0.2598430098
 31
0.0
 40
0.5773316645
 41
-2.3560905026
 42
-0.9006239065
  0
ELLIPSE
  5
559
100
AcDbEntity
  8
RACCORDO
100
AcDbEllipse
 62
7
  6
CONTINUOUS
 10
-35.9402896945
 20
0.3443332108
 30
0.0
 11
-0.2499740017
 21
0.433071683
 31
0.0
 40
0.5773316645
 41
-1.7159043303
 42
-0.7852941758
  0
ELLIPSE
  5
55A
100
AcDbEntity
  8
RACCORDO
100
AcDbEllipse
 62
7
  6
CONTINUOUS
 10
33.0026214712
 20
-39.4624396386
 30
0.0
 11
-0.2499740017
 21
0.433071683
 31
0.0
 40
0.5773316645
 41
-0.7852941758
 42
0.1453159788
  0
ELLIPSE
  5
55B
100
AcDbEntity
  8
RACCORDO
100
AcDbEllipse
 62
7
  6
CONTINUOUS
 10
25.750331968
 20
-35.275058572
 30
0.0
 11
-0.2500882309
 21
0.4331376414
 31
0.0
 40
0.5771558487
 41
-0.7852941622
 42
0.1453157834
  0
ELLIPSE
  5
55C
100
AcDbEntity
  8
RACCORDO
100
AcDbEllipse
 62
7
  6
CONTINUOUS
 10
27.6993206123
 20
-36.4003801887
 30
0.0
 11
-0.2499740017
 21
0.433071683
 31
0.0
 40
0.5773316645
 41
-1.7159043303
 42
-0.7852941758
  0
ELLIPSE
  5
55D
100
AcDbEntity
  8
ASSI
100
AcDbEllipse
 62
7
  6
CONTINUOUS
 10
-11.0073640784
 20
-10.9371016269
 30
0.0
 11
0.0925036689
 21
0.1774691851
 31
0.0
 40
0.5463614449
 41
0.709509901
 42
0.7618697785
  0
ELLIPSE
  5
55E
100
AcDbEntity
  8
ASSI
100
AcDbEllipse
 62
7
  6
CONTINUOUS
 10
4.9025384983
 20
-20.1232799768
 30
0.0
 11
0.0925036689
 21
0.1774691851
 31
0.0
 40
0.5463614449
 41
0.709509901
 42
0.7618697785
  0
ELLIPSE
  5
55F
100
AcDbEntity
  8
ASSI
100
AcDbEllipse
 62
7
  6
CONTINUOUS
 10
20.812441075
 20
-29.3094583267
 30
0.0
 11
0.0925036689
 21
0.1774691851
 31
0.0
 40
0.5463614449
 41
0.709509901
 42
0.7618697785
  0
ELLIPSE
  5
560
100
AcDbEntity
  8
RACCORDO
100
AcDbEllipse
 62
7
  6
CONTINUOUS
 10
-42.038719959
 20
15.9164494933
 30
0.0
 11
-0.1500072547
 21
0.2598034325
 31
0.0
 40
0.5775075436
 41
-2.3560905478
 42
-0.9082096293
  0
ELLIPSE
  5
561
100
AcDbEntity
  8
RACCORDO
100
AcDbEllipse
 62
7
  6
CONTINUOUS
 10
-42.038719959
 20
33.8787955827
 30
0.0
 11
-0.1500072547
 21
0.2598034325
 31
0.0
 40
0.5775075436
 41
-2.3560905478
 42
-0.9082096293
  0
ENDSEC
  0
SECTION
  2
OBJECTS
  0
DICTIONARY
  5
C
100
AcDbDictionary
280
0
281
1
  3
ACAD_GROUP
350
D
  3
ACAD_MLINESTYLE
350
17
  3
ACAD_LAYOUT
350
1A
  3
ACAD_PLOTSETTINGS
350
19
  3
ACAD_PLOTSTYLENAME
350
E
  0
DICTIONARY
  5
D
102
{ACAD_REACTORS
330
C
102
}
100
AcDbDictionary
280
0
281
1
  0
ACDBDICTIONARYWDFLT
  5
E
102
{ACAD_REACTORS
330
C
102
}
100
AcDbDictionary
281
1
  3
Normal
350
F
100
AcDbDictionaryWithDefault
340
F
  0
DICTIONARY
  5
17
102
{ACAD_REACTORS
330
C
102
}
100
AcDbDictionary
280
0
281
1
  3
Standard
350
18
  0
DICTIONARY
  5
19
102
{ACAD_REACTORS
330
C
102
}
100
AcDbDictionary
281
1
  0
DICTIONARY
  5
1A
102
{ACAD_REACTORS
330
C
102
}
100
AcDbDictionary
281
1
  3
Model
350
562
  3
Layout1
350
563
  0
ACDBPLACEHOLDER
  5
F
102
{ACAD_REACTORS
330
E
102
}
  0
MLINESTYLE
  5
18
102
{ACAD_REACTORS
330
17
102
}
100
AcDbMlineStyle
  2
STANDARD
 70
0
  3

 62
256
 51
90.0
 52
90.0
 71
2
 49
0.5
 62
256
  6
BYLAYER
 49
-0.5
 62
256
  6
BYLAYER
  0
LAYOUT
  5
562
102
{ACAD_REACTORS
330
1A
102
}
100
AcDbPlotSettings
  1

  2
none_device
  4
ISO_A4_(297.00_x_210.00_MM)
  6

 40
0.0
 41
0.0
 42
0.0
 43
0.0
 44
297.0
 45
210.0
 46
0.0
 47
0.0
 48
0.0
 49
0.0
140
0.0
141
0.0
142
1.0
143
1.0
 70
1024
 72
1
 73
0
 74
0
  7

 75
0
147
1.0
148
0.0
149
0.0
100
AcDbLayout
  1
Model
 70
0
 71
0
 10
0.0
 20
0.0
 11
297.0
 21
210.0
 12
0.0
 22
0.0
 32
0.0
 14
0.0
 24
0.0
 34
0.0
 15
0.0
 25
0.0
 35
0.0
146
0.0
 13
0.0
 23
0.0
 33
0.0
 16
1.0
 26
0.0
 36
0.0
 17
0.0
 27
1.0
 37
0.0
 76
0
330
215
345
0
346
0
  0
LAYOUT
  5
563
102
{ACAD_REACTORS
330
1A
102
}
100
AcDbPlotSettings
  1

  2
none_device
  4
ISO_A4_(297.00_x_210.00_MM)
  6

 40
0.0
 41
0.0
 42
0.0
 43
0.0
 44
297.0
 45
210.0
 46
0.0
 47
0.0
 48
0.0
 49
0.0
140
0.0
141
0.0
142
1.0
143
1.0
 70
0
 72
1
 73
0
 74
0
  7

 75
0
147
1.0
148
0.0
149
0.0
100
AcDbLayout
  1
Layout1
 70
0
 71
1
 10
0.0
 20
0.0
 11
297.0
 21
210.0
 12
0.0
 22
0.0
 32
0.0
 14
0.0
 24
0.0
 34
0.0
 15
0.0
 25
0.0
 35
0.0
146
0.0
 13
0.0
 23
0.0
 33
0.0
 16
1.0
 26
0.0
 36
0.0
 17
0.0
 27
1.0
 37
0.0
 76
0
330
216
345
0
346
0
  0
ENDSEC
  0
EOF
