  0
SECTION
  2
HEADER
  9
$ACADVER
  1
AC1015
  9
$DWGCODEPAGE
  3
ANSI_1252
  9
$EXTMAX
 10
297.0
 20
210.0
 30
0.0
  9
$EXTMIN
 10
0.0
 20
0.0
 30
0.0
  9
$LIMMIN
 10
0.0
 20
0.0
  9
$LIMMAX
 10
297.0
 20
210.0
  9
$VIEWCTR
 10
148.5
 20
105.0
  9
$VIEWSIZE
 40
210.0
  9
$CLAYER
  8
0
  9
$LTSCALE
 40
16.335
  9
$CELTYPE
  6
BYLAYER
  9
$DIMSCALE
 40
1.0
  9
$DIMASZ
 40
3.0
  9
$DIMEXO
 40
1.85625
  9
$DIMDLI
 40
11.286
  9
$DIMEXE
 40
5.346
  9
$DIMCEN
 40
2.673
  9
$DIMLFAC
 40
1.0
  9
$DIMBLK
  1
_FILLED
  9
$DIMTXT
 40
3.0
  9
$DIMTOL
 70
1
  9
$DIMLIM
 70
0
  9
$DIMTFAC
 40
1.0
  9
$DIMTP
 40
0.01
  9
$DIMTM
 40
0.01
  9
$PDMODE
 70
3
  9
$PDSIZE
 40
3.0
  9
$HANDSEED
  5
46E
  9
$TILEMODE
 70
1
  9
$MEASUREMENT
 70
1
  9
$INSUNITS
 70
4
  0
ENDSEC
  0
SECTION
  2
CLASSES
  0
CLASS
  1
ACDBDICTIONARYWDFLT
  2
AcDbDictionaryWithDefault
  3
AutoCAD 2000
 90
0
280
0
281
0
  0
CLASS
  1
ACDBPLACEHOLDER
  2
AcDbPlaceHolder
  3
AutoCAD 2000
 90
0
280
0
281
0
  0
CLASS
  1
LAYOUT
  2
AcDbLayout
  3
AutoCAD 2000
 90
0
280
0
281
0
  0
ENDSEC
  0
SECTION
  2
TABLES
  0
TABLE
  2
VPORT
  5
8
100
AcDbSymbolTable
 70
2
  0
VPORT
  5
1F4
100
AcDbSymbolTableRecord
100
AcDbViewportTableRecord
  2
*ACTIVE
 70
0
 10
0.0
 20
0.0
 11
1.0
 21
1.0
 12
148.5
 22
105.0
 13
0.0
 23
0.0
 14
1.0
 24
1.0
 15
0.0
 25
0.0
 16
0.0
 26
0.0
 36
1.0
 17
0.0
 27
0.0
 37
0.0
 40
210.0
 41
1.4142857143
 42
50.0
 43
0.0
 44
0.0
 50
0.0
 51
0.0
 71
0
 72
100
 73
1
 74
1
 75
0
 76
0
 77
0
 78
0
  0
ENDTAB
  0
TABLE
  2
LTYPE
  5
5
100
AcDbSymbolTable
 70
6
  0
LTYPE
  5
14
100
AcDbSymbolTableRecord
100
AcDbLinetypeTableRecord
  2
BYBLOCK
 70
0
  3

 72
65
 73
0
 40
0.0
  0
LTYPE
  5
15
100
AcDbSymbolTableRecord
100
AcDbLinetypeTableRecord
  2
BYLAYER
 70
0
  3

 72
65
 73
0
 40
0.0
  0
LTYPE
  5
16
100
AcDbSymbolTableRecord
100
AcDbLinetypeTableRecord
  2
CONTINUOUS
 70
64
  3
Solid line
 72
65
 73
0
 40
0.0
  0
LTYPE
  5
1F5
100
AcDbSymbolTableRecord
100
AcDbLinetypeTableRecord
  2
CENTER
 70
64
  3
____ _ ____ _ ____ _ ____ _ ____ _ ____ _ ____
 72
65
 73
4
 40
0.6
 49
0.375
 74
0
 49
-0.075
 74
0
 49
0.075
 74
0
 49
-0.075
 74
0
  0
LTYPE
  5
1F6
100
AcDbSymbolTableRecord
100
AcDbLinetypeTableRecord
  2
HIDDEN
 70
64
  3
- - - - - - - - - - - - - - - - - - - -
 72
65
 73
2
 40
0.2
 49
0.1
 74
0
 49
-0.1
 74
0
  0
LTYPE
  5
1F7
100
AcDbSymbolTableRecord
100
AcDbLinetypeTableRecord
  2
PHANTOM
 70
64
  3
_____ _ _ _____ _ _ _____ _ _ _____
 72
65
 73
6
 40
0.8
 49
0.45
 74
0
 49
-0.05
 74
0
 49
0.1
 74
0
 49
-0.05
 74
0
 49
0.1
 74
0
 49
-0.05
 74
0
  0
LTYPE
  5
1F8
100
AcDbSymbolTableRecord
100
AcDbLinetypeTableRecord
  2
DOT
 70
64
  3
. . . . . . . . . . . . . . . . . . . .
 72
65
 73
2
 40
0.2
 49
0.1
 74
0
 49
-0.1
 74
0
  0
LTYPE
  5
1F9
100
AcDbSymbolTableRecord
100
AcDbLinetypeTableRecord
  2
DASHED
 70
64
  3
- - - - - - - - - - - - - - - - - - - -
 72
65
 73
2
 40
0.2
 49
0.1
 74
0
 49
-0.1
 74
0
  0
ENDTAB
  0
TABLE
  2
LAYER
  5
2
100
AcDbSymbolTable
 70
36
  0
LAYER
  5
10
100
AcDbSymbolTableRecord
100
AcDbLayerTableRecord
  2
0
 70
0
 62
7
  6
CONTINUOUS
370
-3
390
F
  0
LAYER
  5
1FA
100
AcDbSymbolTableRecord
100
AcDbLayerTableRecord
  2
DEFAULT_1
 70
0
 62
7
  6
CENTER
370
-3
390
F
  0
LAYER
  5
1FB
100
AcDbSymbolTableRecord
100
AcDbLayerTableRecord
  2
DEFAULT_2
 70
0
 62
7
  6
HIDDEN
370
-3
390
F
  0
LAYER
  5
1FC
100
AcDbSymbolTableRecord
100
AcDbLayerTableRecord
  2
DEFAULT_3
 70
0
 62
7
  6
PHANTOM
370
-3
390
F
  0
LAYER
  5
1FD
100
AcDbSymbolTableRecord
100
AcDbLayerTableRecord
  2
ASSI
 70
0
 62
7
  6
CONTINUOUS
370
-3
390
F
  0
LAYER
  5
1FE
100
AcDbSymbolTableRecord
100
AcDbLayerTableRecord
  2
COORDINATE
 70
0
 62
7
  6
CONTINUOUS
370
-3
390
F
  0
LAYER
  5
1FF
100
AcDbSymbolTableRecord
100
AcDbLayerTableRecord
  2
COORD_ORIGINE
 70
0
 62
7
  6
CONTINUOUS
370
-3
390
F
  0
LAYER
  5
200
100
AcDbSymbolTableRecord
100
AcDbLayerTableRecord
  2
COPY_PUBLISH
 70
0
 62
7
  6
CONTINUOUS
370
-3
390
F
  0
LAYER
  5
201
100
AcDbSymbolTableRecord
100
AcDbLayerTableRecord
  2
COSMETIC
 70
0
 62
7
  6
CONTINUOUS
370
-3
390
F
  0
LAYER
  5
202
100
AcDbSymbolTableRecord
100
AcDbLayerTableRecord
  2
CURVE
 70
0
 62
7
  6
CONTINUOUS
370
-3
390
F
  0
LAYER
  5
203
100
AcDbSymbolTableRecord
100
AcDbLayerTableRecord
  2
DRAFT
 70
0
 62
7
  6
CONTINUOUS
370
-3
390
F
  0
LAYER
  5
204
100
AcDbSymbolTableRecord
100
AcDbLayerTableRecord
  2
IMPORT_IGES
 70
0
 62
7
  6
CONTINUOUS
370
-3
390
F
  0
LAYER
  5
205
100
AcDbSymbolTableRecord
100
AcDbLayerTableRecord
  2
INTFCLR_2
 70
0
 62
7
  6
CONTINUOUS
370
-3
390
F
  0
LAYER
  5
206
100
AcDbSymbolTableRecord
100
AcDbLayerTableRecord
  2
PIANI
 70
0
 62
7
  6
CONTINUOUS
370
-3
390
F
  0
LAYER
  5
207
100
AcDbSymbolTableRecord
100
AcDbLayerTableRecord
  2
PIANI_ORIGINE
 70
0
 62
7
  6
CONTINUOUS
370
-3
390
F
  0
LAYER
  5
208
100
AcDbSymbolTableRecord
100
AcDbLayerTableRecord
  2
PIANI_RIFERIMENTO
 70
0
 62
7
  6
CONTINUOUS
370
-3
390
F
  0
LAYER
  5
209
100
AcDbSymbolTableRecord
100
AcDbLayerTableRecord
  2
PUNTI
 70
0
 62
7
  6
CONTINUOUS
370
-3
390
F
  0
LAYER
  5
20A
100
AcDbSymbolTableRecord
100
AcDbLayerTableRecord
  2
RACCORDO
 70
0
 62
7
  6
CONTINUOUS
370
-3
390
F
  0
LAYER
  5
20B
100
AcDbSymbolTableRecord
100
AcDbLayerTableRecord
  2
SMUSSO
 70
0
 62
7
  6
CONTINUOUS
370
-3
390
F
  0
LAYER
  5
20C
100
AcDbSymbolTableRecord
100
AcDbLayerTableRecord
  2
SNAPLINE
 70
0
 62
7
  6
CONTINUOUS
370
-3
390
F
  0
LAYER
  5
20D
100
AcDbSymbolTableRecord
100
AcDbLayerTableRecord
  2
SUPERFICI
 70
0
 62
7
  6
CONTINUOUS
370
-3
390
F
  0
LAYER
  5
20E
100
AcDbSymbolTableRecord
100
AcDbLayerTableRecord
  2
TRASH
 70
0
 62
7
  6
CONTINUOUS
370
-3
390
F
  0
LAYER
  5
20F
100
AcDbSymbolTableRecord
100
AcDbLayerTableRecord
  2
XSEC_DATUMS
 70
0
 62
7
  6
CONTINUOUS
370
-3
390
F
  0
ENDTAB
  0
TABLE
  2
STYLE
  5
3
100
AcDbSymbolTable
 70
1
  0
STYLE
  5
11
100
AcDbSymbolTableRecord
100
AcDbTextStyleTableRecord
  2
STANDARD
 70
0
 40
0.0
 41
0.8
 50
0.0
 71
0
 42
0.2
  3
txt
  4

  0
STYLE
  5
210
100
AcDbSymbolTableRecord
100
AcDbTextStyleTableRecord
  2
TEXTSTYLE_1
 70
0
 40
0.0
 41
0.8
 50
0.0
 71
0
 42
0.2
  3
gdt
  4

  0
ENDTAB
  0
TABLE
  2
VIEW
  5
6
100
AcDbSymbolTable
 70
0
  0
ENDTAB
  0
TABLE
  2
UCS
  5
7
100
AcDbSymbolTable
 70
0
  0
ENDTAB
  0
TABLE
  2
APPID
  5
9
100
AcDbSymbolTable
 70
1
  0
APPID
  5
211
100
AcDbSymbolTableRecord
100
AcDbRegAppTableRecord
  2
ACAD
 70
0
  0
ENDTAB
  0
TABLE
  2
BLOCK_RECORD
  5
1
100
AcDbSymbolTable
 70
0
  0
BLOCK_RECORD
  5
212
100
AcDbSymbolTableRecord
100
AcDbBlockTableRecord
  2
*Model_Space
  0
BLOCK_RECORD
  5
213
100
AcDbSymbolTableRecord
100
AcDbBlockTableRecord
  2
*Paper_Space
  0
ENDTAB
  0
TABLE
  2
DIMSTYLE
  5
A
100
AcDbSymbolTable
 70
1
100
AcDbDimStyleTable
 71
0
  0
DIMSTYLE
105
214
100
AcDbSymbolTableRecord
100
AcDbDimStyleTableRecord
  2
STANDARD
 70
0
  3

  4

 40
1.0
 41
3.0
 42
0.0625
 43
0.38
 44
0.18
 45
0.0
 46
0.0
 47
0.01
 48
0.01
140
3.0
141
0.09
142
0.0
143
25.4
144
1.0
145
0.0
146
1.0
147
0.09
 71
1.0
 72
0.0
 73
0
 74
0
 75
0
 76
0
 77
1
 78
8
170
0
171
2
172
0
173
0
174
0
175
0
176
0
177
0
178
0
270
2
271
2
272
2
273
2
274
2
275
0
280
0
281
0
282
0
283
1
284
8
285
0
286
0
287
3
288
0
340
11
  0
ENDTAB
  0
ENDSEC
  0
SECTION
  2
BLOCKS
  0
BLOCK
  5
20
100
AcDbEntity
  8
0
100
AcDbBlockBegin
  2
*Model_Space
 70
0
 10
0.0
 20
0.0
 30
0.0
  3
*Model_Space
  1

  0
ENDBLK
  5
21
100
AcDbEntity
  8
0
100
AcDbBlockEnd
  0
BLOCK
  5
1C
100
AcDbEntity
  8
0
100
AcDbBlockBegin
  2
*Paper_Space
 70
0
 10
0.0
 20
0.0
 30
0.0
  3
*Paper_Space
  1

  0
ENDBLK
  5
1D
100
AcDbEntity
  8
0
100
AcDbBlockEnd
  0
ENDSEC
  0
SECTION
  2
ENTITIES
  0
LINE
  5
215
100
AcDbEntity
  8
SMUSSO
100
AcDbLine
 62
7
  6
CONTINUOUS
 10
-41.8430437767
 20
65.4394215563
 11
-42.5501505579
 21
64.9269495431
  0
LINE
  5
216
100
AcDbEntity
  8
SMUSSO
100
AcDbLine
 62
7
  6
CONTINUOUS
 10
-42.2572573391
 20
64.0733961525
 11
-42.5501505579
 21
63.8611232943
  0
LINE
  5
217
100
AcDbEntity
  8
SMUSSO
100
AcDbLine
 62
7
  6
CONTINUOUS
 10
-41.8430437767
 20
65.4394215563
 11
-39.6863680941
 21
66.5177593976
  0
LINE
  5
218
100
AcDbEntity
  8
SMUSSO
100
AcDbLine
 62
7
  6
CONTINUOUS
 10
-41.8430437767
 20
65.4394215563
 11
-42.2572573391
 21
64.0733961525
  0
LINE
  5
219
100
AcDbEntity
  8
SMUSSO
100
AcDbLine
 62
7
  6
CONTINUOUS
 10
40.3934748753
 20
-66.0052873844
 11
38.9792613129
 21
-65.6465679168
  0
LINE
  5
21A
100
AcDbEntity
  8
SMUSSO
100
AcDbLine
 62
7
  6
CONTINUOUS
 10
-41.8430437767
 20
-25.7530534622
 11
-42.2572573391
 21
-25.3870280584
  0
LINE
  5
21B
100
AcDbEntity
  8
SMUSSO
100
AcDbLine
 62
7
  6
CONTINUOUS
 10
-42.5501505579
 20
-24.8818619814
 11
-42.2572573391
 21
-25.3870280584
  0
LINE
  5
21C
100
AcDbEntity
  8
SMUSSO
100
AcDbLine
 62
7
  6
CONTINUOUS
 10
-42.5501505579
 20
64.9269495431
 11
-42.5501505579
 21
-24.8818619814
  0
LWPOLYLINE
  5
21D
100
AcDbEntity
  8
RACCORDO
100
AcDbPolyline
 62
7
  6
CONTINUOUS
 90
13
 70
0
 10
-29.5530686788
 20
33.9209276559
 10
-29.5726840665
 20
33.9096930501
 10
-29.6104979154
 20
33.8840592763
 10
-29.6459275825
 20
33.8544213781
 10
-29.6785991552
 20
33.8209620604
 10
-29.7081492225
 20
33.7839394083
 10
-29.7344759347
 20
33.7433401277
 10
-29.7573008004
 20
33.6993359706
 10
-29.7763180192
 20
33.6521993297
 10
-29.7913760525
 20
33.601885012
 10
-29.8022461661
 20
33.5484275364
 10
-29.8086279707
 20
33.4920620028
 10
-29.8103383212
 20
33.4428087965
  0
LINE
  5
21E
100
AcDbEntity
  8
RACCORDO
100
AcDbLine
 62
7
  6
CONTINUOUS
 10
-29.5531093922
 20
33.9209073689
 11
-27.9152692228
 21
34.804559746
  0
LINE
  5
21F
100
AcDbEntity
  8
RACCORDO
100
AcDbLine
 62
7
  6
CONTINUOUS
 10
-29.231250953
 20
33.9056428326
 11
-27.5949175229
 21
34.7884822585
  0
LINE
  5
220
100
AcDbEntity
  8
SMUSSO
100
AcDbLine
 62
7
  6
CONTINUOUS
 10
-41.8430437767
 20
-25.7530534622
 11
39.6863680941
 21
-66.5177593976
  0
LINE
  5
221
100
AcDbEntity
  8
SMUSSO
100
AcDbLine
 62
7
  6
CONTINUOUS
 10
-42.2572573391
 20
-25.3870280584
 11
38.6863680941
 21
-65.858840775
  0
LINE
  5
222
100
AcDbEntity
  8
DRAFT
100
AcDbLine
 62
7
  6
CONTINUOUS
 10
-25.307712128
 20
24.1372608942
 11
-25.8215210152
 21
23.851939604
  0
LINE
  5
223
100
AcDbEntity
  8
RACCORDO
100
AcDbLine
 62
7
  6
CONTINUOUS
 10
-24.8383276399
 20
24.3336272939
 11
-25.7736118287
 21
23.8623790841
  0
LINE
  5
224
100
AcDbEntity
  8
RACCORDO
100
AcDbLine
 62
7
  6
CONTINUOUS
 10
-24.6262279143
 20
23.9678093799
 11
-25.5615121031
 21
23.4965611702
  0
LINE
  5
225
100
AcDbEntity
  8
RACCORDO
100
AcDbLine
 62
7
  6
CONTINUOUS
 10
-25.1298424775
 20
24.9093502653
 11
-24.5542829767
 21
25.1751627161
  0
LINE
  5
226
100
AcDbEntity
  8
RACCORDO
100
AcDbLine
 62
7
  6
CONTINUOUS
 10
-25.210979822
 20
24.7455758864
 11
-24.6354203212
 21
25.0113883372
  0
LINE
  5
227
100
AcDbEntity
  8
SMUSSO
100
AcDbLine
 62
7
  6
CONTINUOUS
 10
39.6863680941
 20
-66.5177593976
 11
38.6863680941
 21
-65.858840775
  0
LWPOLYLINE
  5
228
100
AcDbEntity
  8
RACCORDO
100
AcDbPolyline
 62
7
  6
CONTINUOUS
 90
12
 70
0
 10
-29.8088758593
 20
-10.8731854386
 10
-29.8028744239
 20
-10.9326676168
 10
-29.7924199503
 20
-10.9920117038
 10
-29.7776999593
 20
-11.0509870058
 10
-29.7589016607
 20
-11.1091869102
 10
-29.7361544114
 20
-11.1664178723
 10
-29.7095740227
 20
-11.2223674403
 10
-29.6794474204
 20
-11.2763980123
 10
-29.6458188884
 20
-11.3283747281
 10
-29.6088368092
 20
-11.3778742473
 10
-29.5691171517
 20
-11.4240127487
 10
-29.5267872181
 20
-11.4665889218
  0
LINE
  5
229
100
AcDbEntity
  8
RACCORDO
100
AcDbLine
 62
7
  6
CONTINUOUS
 10
-29.8103386018
 20
-10.826552849
 11
-29.8088758593
 21
-10.8731854386
  0
LINE
  5
22A
100
AcDbEntity
  8
RACCORDO
100
AcDbLine
 62
7
  6
CONTINUOUS
 10
-29.8103483727
 20
33.4427683006
 11
-29.8103483727
 21
-10.8267110477
  0
LINE
  5
22B
100
AcDbEntity
  8
RACCORDO
100
AcDbLine
 62
7
  6
CONTINUOUS
 10
-29.722480407
 20
33.336702287
 11
-29.722480407
 21
-10.9355735778
  0
LINE
  5
22C
100
AcDbEntity
  8
RACCORDO
100
AcDbLine
 62
7
  6
CONTINUOUS
 10
-28.0700295946
 20
-9.5201699913
 11
-28.0700295946
 21
30.2716444006
  0
LINE
  5
22D
100
AcDbEntity
  8
RACCORDO
100
AcDbLine
 62
7
  6
CONTINUOUS
 10
-27.6858246293
 20
-9.5369770634
 11
-27.6858246293
 21
30.2548378292
  0
LINE
  5
22E
100
AcDbEntity
  8
RACCORDO
100
AcDbLine
 62
7
  6
CONTINUOUS
 10
-26.1775075664
 20
29.7222270937
 11
-26.1775075664
 21
-8.4248134127
  0
LINE
  5
22F
100
AcDbEntity
  8
RACCORDO
100
AcDbLine
 62
7
  6
CONTINUOUS
 10
-26.1169665993
 20
29.6919566102
 11
-26.1169665993
 21
-8.3998603517
  0
LINE
  5
230
100
AcDbEntity
  8
RACCORDO
100
AcDbLine
 62
7
  6
CONTINUOUS
 10
-25.8215210152
 20
-8.250998429
 11
-25.8215210152
 21
29.5442338181
  0
LINE
  5
231
100
AcDbEntity
  8
DRAFT
100
AcDbLine
 62
7
  6
CONTINUOUS
 10
-25.307712128
 20
17.6420703658
 11
-25.8215210152
 21
17.3567490756
  0
LINE
  5
232
100
AcDbEntity
  8
RACCORDO
100
AcDbLine
 62
7
  6
CONTINUOUS
 10
-25.307712128
 20
17.4287296649
 11
-24.7663827023
 21
17.701481547
  0
LINE
  5
233
100
AcDbEntity
  8
RACCORDO
100
AcDbLine
 62
7
  6
CONTINUOUS
 10
-25.1298424775
 20
17.0456647347
 11
-24.5542829767
 21
17.335663633
  0
LINE
  5
234
100
AcDbEntity
  8
RACCORDO
100
AcDbLine
 62
7
  6
CONTINUOUS
 10
-25.5615121031
 20
18.041595318
 11
-24.6262279143
 21
18.4735405506
  0
LINE
  5
235
100
AcDbEntity
  8
RACCORDO
100
AcDbLine
 62
7
  6
CONTINUOUS
 10
-25.6426494476
 20
17.8778209391
 11
-24.7073652588
 21
18.3097661717
  0
LWPOLYLINE
  5
236
100
AcDbEntity
  8
RACCORDO
100
AcDbPolyline
 62
7
  6
CONTINUOUS
 90
4
 70
0
 10
-29.481944976
 20
-11.5053795303
 10
-29.4352549646
 20
-11.5397332471
 10
-29.3870432273
 20
-11.5693912434
 10
-29.3616618498
 20
-11.5828092614
  0
LINE
  5
237
100
AcDbEntity
  8
RACCORDO
100
AcDbLine
 62
7
  6
CONTINUOUS
 10
-29.5267872181
 20
-11.4665889218
 11
-29.481944976
 21
-11.5053795303
  0
LWPOLYLINE
  5
238
100
AcDbEntity
  8
RACCORDO
100
AcDbPolyline
 62
7
  6
CONTINUOUS
 90
18
 70
0
 10
-23.8483756198
 20
-7.9972258514
 10
-23.8489638387
 20
-7.9783488371
 10
-23.8506332564
 20
-7.9603230973
 10
-23.8534365308
 20
-7.9421214427
 10
-23.8574206991
 20
-7.9238193161
 10
-23.8626294502
 20
-7.9054953145
 10
-23.869096889
 20
-7.8872482643
 10
-23.8768569685
 20
-7.869164228
 10
-23.8859505029
 20
-7.851315395
 10
-23.896400007
 20
-7.8338125981
 10
-23.9082189067
 20
-7.8167727731
 10
-23.9214323295
 20
-7.8002930058
 10
-23.936038288
 20
-7.7845046982
 10
-23.9520218522
 20
-7.7695444828
 10
-23.969380236
 20
-7.7555332331
 10
-23.988081712
 20
-7.7426146076
 10
-24.0080655125
 20
-7.7309435201
 10
-24.0152138572
 20
-7.7272491202
  0
LINE
  5
239
100
AcDbEntity
  8
RACCORDO
100
AcDbLine
 62
7
  6
CONTINUOUS
 10
-25.5615121031
 20
23.4965611702
 11
-25.5615121031
 21
18.041595318
  0
LINE
  5
23A
100
AcDbEntity
  8
RACCORDO
100
AcDbLine
 62
7
  6
CONTINUOUS
 10
-25.5615121031
 20
4.4440022869
 11
-25.5615121031
 21
-1.0109635653
  0
LINE
  5
23B
100
AcDbEntity
  8
RACCORDO
100
AcDbLine
 62
7
  6
CONTINUOUS
 10
-25.307712128
 20
29.2873293745
 11
-25.307712128
 21
24.1372608942
  0
LINE
  5
23C
100
AcDbEntity
  8
DRAFT
100
AcDbLine
 62
7
  6
CONTINUOUS
 10
-25.307712128
 20
17.6420703658
 11
-25.307712128
 21
5.0847020109
  0
LINE
  5
23D
100
AcDbEntity
  8
RACCORDO
100
AcDbLine
 62
7
  6
CONTINUOUS
 10
-25.307712128
 20
-1.4104885175
 11
-25.307712128
 21
-8.0060694586
  0
LINE
  5
23E
100
AcDbEntity
  8
RACCORDO
100
AcDbLine
 62
7
  6
CONTINUOUS
 10
-25.1298424775
 20
-8.2196418313
 11
-25.1298424775
 21
-2.0068941485
  0
LINE
  5
23F
100
AcDbEntity
  8
RACCORDO
100
AcDbLine
 62
7
  6
CONTINUOUS
 10
-25.1298424775
 20
5.856791382
 11
-25.1298424775
 21
17.0456647347
  0
LINE
  5
240
100
AcDbEntity
  8
RACCORDO
100
AcDbLine
 62
7
  6
CONTINUOUS
 10
-25.1298424775
 20
24.9093502653
 11
-25.1298424775
 21
29.1983945493
  0
LINE
  5
241
100
AcDbEntity
  8
RACCORDO
100
AcDbLine
 62
7
  6
CONTINUOUS
 10
-25.0201823258
 20
24.833692493
 11
-25.0201823258
 21
24.4245546368
  0
LINE
  5
242
100
AcDbEntity
  8
RACCORDO
100
AcDbLine
 62
7
  6
CONTINUOUS
 10
-25.0201823258
 20
18.1652968838
 11
-25.0201823258
 21
17.8283813587
  0
LINE
  5
243
100
AcDbEntity
  8
RACCORDO
100
AcDbLine
 62
7
  6
CONTINUOUS
 10
-25.0201823258
 20
5.7811336097
 11
-25.0201823258
 21
5.3719957535
  0
LINE
  5
244
100
AcDbEntity
  8
RACCORDO
100
AcDbLine
 62
7
  6
CONTINUOUS
 10
-25.0201823258
 20
-1.2241775245
 11
-25.0201823258
 21
-0.8872619994
  0
LINE
  5
245
100
AcDbEntity
  8
RACCORDO
100
AcDbLine
 62
7
  6
CONTINUOUS
 10
-24.8798522259
 20
24.8985015834
 11
-24.8798522259
 21
24.5683545243
  0
LINE
  5
246
100
AcDbEntity
  8
RACCORDO
100
AcDbLine
 62
7
  6
CONTINUOUS
 10
-24.8798522259
 20
18.2301059743
 11
-24.8798522259
 21
17.7582163088
  0
LINE
  5
247
100
AcDbEntity
  8
RACCORDO
100
AcDbLine
 62
7
  6
CONTINUOUS
 10
-24.8798522259
 20
5.8459427002
 11
-24.8798522259
 21
5.5157956411
  0
LINE
  5
248
100
AcDbEntity
  8
RACCORDO
100
AcDbLine
 62
7
  6
CONTINUOUS
 10
-24.8798522259
 20
-1.2943425745
 11
-24.8798522259
 21
-0.822452909
  0
LINE
  5
249
100
AcDbEntity
  8
RACCORDO
100
AcDbLine
 62
7
  6
CONTINUOUS
 10
-24.6262279143
 20
23.9678093799
 11
-24.6262279143
 21
18.4735405506
  0
LINE
  5
24A
100
AcDbEntity
  8
RACCORDO
100
AcDbLine
 62
7
  6
CONTINUOUS
 10
-24.6262279143
 20
4.9152504966
 11
-24.6262279143
 21
-0.5790183326
  0
LINE
  5
24B
100
AcDbEntity
  8
RACCORDO
100
AcDbLine
 62
7
  6
CONTINUOUS
 10
-24.5542829767
 20
-7.929642933
 11
-24.5542829767
 21
-1.7168952502
  0
LINE
  5
24C
100
AcDbEntity
  8
RACCORDO
100
AcDbLine
 62
7
  6
CONTINUOUS
 10
-24.5542829767
 20
6.1226038329
 11
-24.5542829767
 21
17.335663633
  0
LINE
  5
24D
100
AcDbEntity
  8
RACCORDO
100
AcDbLine
 62
7
  6
CONTINUOUS
 10
-24.5542829767
 20
25.1751627161
 11
-24.5542829767
 21
28.9106147989
  0
LINE
  5
24E
100
AcDbEntity
  8
RACCORDO
100
AcDbLine
 62
7
  6
CONTINUOUS
 10
-23.9887061957
 20
-8.1201658013
 11
-23.9887061957
 21
-8.2124313235
  0
LINE
  5
24F
100
AcDbEntity
  8
RACCORDO
100
AcDbLine
 62
7
  6
CONTINUOUS
 10
-23.8483760958
 20
-7.9979812257
 11
-23.8483760958
 21
-8.2825963734
  0
LINE
  5
250
100
AcDbEntity
  8
RACCORDO
100
AcDbLine
 62
7
  6
CONTINUOUS
 10
-21.2852537085
 20
16.1219172116
 11
-21.2852537085
 21
10.7215291581
  0
LINE
  5
251
100
AcDbEntity
  8
RACCORDO
100
AcDbLine
 62
7
  6
CONTINUOUS
 10
-21.2010556486
 20
16.2261159672
 11
-21.2010556486
 21
10.8257279137
  0
LINE
  5
252
100
AcDbEntity
  8
RACCORDO
100
AcDbLine
 62
7
  6
CONTINUOUS
 10
-24.5542829767
 20
14.9714755365
 11
-21.4973534341
 21
16.4877351256
  0
LINE
  5
253
100
AcDbEntity
  8
RACCORDO
100
AcDbLine
 62
7
  6
CONTINUOUS
 10
-24.5542829767
 20
14.500454595
 11
-21.2852537085
 21
16.1219172116
  0
LINE
  5
254
100
AcDbEntity
  8
RACCORDO
100
AcDbLine
 62
7
  6
CONTINUOUS
 10
-21.9350183121
 20
16.6525627628
 11
-24.1848753654
 21
15.6135042178
  0
LINE
  5
255
100
AcDbEntity
  8
RACCORDO
100
AcDbLine
 62
7
  6
CONTINUOUS
 10
-21.8055324846
 20
16.6418246509
 11
-24.1115373246
 21
15.5768351974
  0
LWPOLYLINE
  5
256
100
AcDbEntity
  8
RACCORDO
100
AcDbPolyline
 62
7
  6
CONTINUOUS
 90
11
 70
0
 10
22.1992380299
 20
-37.3632596517
 10
22.2334340499
 20
-37.3790534225
 10
22.2835357104
 20
-37.3976671394
 10
22.3341716771
 20
-37.4111794015
 10
22.3850021772
 20
-37.419509631
 10
22.4354332509
 20
-37.4226053536
 10
22.485001073
 20
-37.4205185893
 10
22.5333110623
 20
-37.4133791886
 10
22.579735192
 20
-37.4014421666
 10
22.6237845033
 20
-37.3850509281
 10
22.6344811559
 20
-37.3802552986
  0
LINE
  5
257
100
AcDbEntity
  8
RACCORDO
100
AcDbLine
 62
7
  6
CONTINUOUS
 10
-29.3617128171
 20
-11.5827964241
 11
22.1990935428
 21
-37.363199604
  0
LINE
  5
258
100
AcDbEntity
  8
0
100
AcDbLine
 62
7
  6
CONTINUOUS
 10
-6.2379029835
 20
-23.0383439443
 11
-5.9647716755
 21
-23.1749095982
  0
LINE
  5
259
100
AcDbEntity
  8
0
100
AcDbLine
 62
7
  6
CONTINUOUS
 10
-5.3724799437
 20
-23.4710554641
 11
-5.0625437278
 21
-23.6260235721
  0
LINE
  5
25A
100
AcDbEntity
  8
0
100
AcDbLine
 62
7
  6
CONTINUOUS
 10
-4.8956955188
 20
-23.7094476766
 11
-4.5991879678
 21
-23.8577014521
  0
LINE
  5
25B
100
AcDbEntity
  8
0
100
AcDbLine
 62
7
  6
CONTINUOUS
 10
-4.1687112589
 20
-24.0729398065
 11
-4.1252432838
 21
-24.0946737941
  0
LINE
  5
25C
100
AcDbEntity
  8
0
100
AcDbLine
 62
7
  6
CONTINUOUS
 10
-3.6930518409
 20
-24.3107695155
 11
-3.3898522313
 21
-24.4623693203
  0
LINE
  5
25D
100
AcDbEntity
  8
0
100
AcDbLine
 62
7
  6
CONTINUOUS
 10
-3.3411841929
 20
-24.4867033395
 11
-3.0346109769
 21
-24.6399899476
  0
LINE
  5
25E
100
AcDbEntity
  8
0
100
AcDbLine
 62
7
  6
CONTINUOUS
 10
-2.4467167421
 20
-24.9339370649
 11
-2.1200574508
 21
-25.0972667106
  0
LINE
  5
25F
100
AcDbEntity
  8
0
100
AcDbLine
 62
7
  6
CONTINUOUS
 10
-2.0290451176
 20
-25.1427732216
 11
-1.7203563204
 21
-25.2971176202
  0
LINE
  5
260
100
AcDbEntity
  8
0
100
AcDbLine
 62
7
  6
CONTINUOUS
 10
-1.2457322634
 20
-25.5344296487
 11
-0.9476099671
 21
-25.6834907969
  0
LINE
  5
261
100
AcDbEntity
  8
RACCORDO
100
AcDbLine
 62
7
  6
CONTINUOUS
 10
-29.4396807729
 20
-11.4205342839
 11
-6.2422828458
 21
-23.0192332474
  0
LINE
  5
262
100
AcDbEntity
  8
RACCORDO
100
AcDbLine
 62
7
  6
CONTINUOUS
 10
-5.9478509099
 20
-23.1664492154
 11
-5.3724799437
 21
-23.4541346985
  0
LINE
  5
263
100
AcDbEntity
  8
RACCORDO
100
AcDbLine
 62
7
  6
CONTINUOUS
 10
-5.0456229622
 20
-23.6175631893
 11
-4.8944480359
 21
-23.6931506524
  0
LINE
  5
264
100
AcDbEntity
  8
RACCORDO
100
AcDbLine
 62
7
  6
CONTINUOUS
 10
-4.5822672022
 20
-23.8492410693
 11
-4.1738923418
 21
-24.0534284995
  0
LINE
  5
265
100
AcDbEntity
  8
RACCORDO
100
AcDbLine
 62
7
  6
CONTINUOUS
 10
-4.1083225181
 20
-24.0862134113
 11
-3.6939630194
 21
-24.2933931607
  0
LINE
  5
266
100
AcDbEntity
  8
RACCORDO
100
AcDbLine
 62
7
  6
CONTINUOUS
 10
-3.3729314657
 20
-24.4539089375
 11
-3.3344158867
 21
-24.473166727
  0
LINE
  5
267
100
AcDbEntity
  8
RACCORDO
100
AcDbLine
 62
7
  6
CONTINUOUS
 10
-3.0176902112
 20
-24.6315295648
 11
-2.4504589664
 21
-24.9151451872
  0
LINE
  5
268
100
AcDbEntity
  8
RACCORDO
100
AcDbLine
 62
7
  6
CONTINUOUS
 10
-2.1031366852
 20
-25.0888063278
 11
-2.0284363309
 21
-25.1261565049
  0
LINE
  5
269
100
AcDbEntity
  8
RACCORDO
100
AcDbLine
 62
7
  6
CONTINUOUS
 10
-1.7034352104
 20
-25.2886570652
 11
-1.2497932879
 21
-25.5154780264
  0
LINE
  5
26A
100
AcDbEntity
  8
RACCORDO
100
AcDbLine
 62
7
  6
CONTINUOUS
 10
-0.930688857
 20
-25.6750302419
 11
22.1234089262
 21
-37.2020791335
  0
LINE
  5
26B
100
AcDbEntity
  8
0
100
AcDbLine
 62
7
  6
CONTINUOUS
 10
-2.9490878259
 20
-24.3197145398
 11
-2.5270065958
 21
-24.5307551548
  0
LINE
  5
26C
100
AcDbEntity
  8
0
100
AcDbLine
 62
7
  6
CONTINUOUS
 10
-2.5889470285
 20
-24.2188679481
 11
-2.8856886319
 21
-24.0704971465
  0
LINE
  5
26D
100
AcDbEntity
  8
0
100
AcDbLine
 62
7
  6
CONTINUOUS
 10
-1.7203563204
 20
-24.5854569919
 11
-1.5541761048
 21
-24.6685470997
  0
LINE
  5
26E
100
AcDbEntity
  8
0
100
AcDbLine
 62
7
  6
CONTINUOUS
 10
-2.6187916583
 20
-24.062524277
 11
-2.7442672756
 21
-23.9997864683
  0
LINE
  5
26F
100
AcDbEntity
  8
0
100
AcDbLine
 62
7
  6
CONTINUOUS
 10
-1.5535080436
 20
-24.371054696
 11
-1.7306333281
 21
-24.2824920538
  0
LINE
  5
270
100
AcDbEntity
  8
0
100
AcDbLine
 62
7
  6
CONTINUOUS
 10
-1.4120866874
 20
-24.3003440179
 11
-1.5892119718
 21
-24.2117813757
  0
LINE
  5
271
100
AcDbEntity
  8
0
100
AcDbLine
 62
7
  6
CONTINUOUS
 10
-2.5756307936
 20
-23.0509799777
 11
-2.8754560897
 21
-22.9010673297
  0
LINE
  5
272
100
AcDbEntity
  8
0
100
AcDbLine
 62
7
  6
CONTINUOUS
 10
-3.5286975976
 20
-22.5744465758
 11
-3.8353485954
 21
-22.4211210769
  0
LINE
  5
273
100
AcDbEntity
  8
0
100
AcDbLine
 62
7
  6
CONTINUOUS
 10
-4.4519471228
 20
-22.1128218132
 11
-4.7616266589
 21
-21.9579820451
  0
LINE
  5
274
100
AcDbEntity
  8
0
100
AcDbLine
 62
7
  6
CONTINUOUS
 10
-5.4874972257
 20
-21.5950467617
 11
-5.7972220166
 21
-21.4401843662
  0
LINE
  5
275
100
AcDbEntity
  8
0
100
AcDbLine
 62
7
  6
CONTINUOUS
 10
-6.3719272957
 20
-21.1528317267
 11
-6.7086133611
 21
-20.984488694
  0
LINE
  5
276
100
AcDbEntity
  8
0
100
AcDbLine
 62
7
  6
CONTINUOUS
 10
-5.0625437278
 20
-21.8074143914
 11
-5.3724799437
 21
-21.6524462835
  0
LINE
  5
277
100
AcDbEntity
  8
0
100
AcDbLine
 62
7
  6
CONTINUOUS
 10
-2.4342094374
 20
-22.9802692996
 11
-2.7340347334
 21
-22.8303566516
  0
LINE
  5
278
100
AcDbEntity
  8
0
100
AcDbLine
 62
7
  6
CONTINUOUS
 10
-3.3872762413
 20
-22.5037358976
 11
-3.6939272391
 21
-22.3504103987
  0
LINE
  5
279
100
AcDbEntity
  8
0
100
AcDbLine
 62
7
  6
CONTINUOUS
 10
-4.3105257665
 20
-22.042111135
 11
-4.6202053027
 21
-21.887271367
  0
LINE
  5
27A
100
AcDbEntity
  8
0
100
AcDbLine
 62
7
  6
CONTINUOUS
 10
-5.3460758694
 20
-21.5243360836
 11
-5.6558006604
 21
-21.3694736881
  0
LINE
  5
27B
100
AcDbEntity
  8
0
100
AcDbLine
 62
7
  6
CONTINUOUS
 10
-6.2305059394
 20
-21.0821210486
 11
-6.5671920049
 21
-20.9137780159
  0
LINE
  5
27C
100
AcDbEntity
  8
0
100
AcDbLine
 62
7
  6
CONTINUOUS
 10
-4.9211223716
 20
-21.7367037133
 11
-5.2310585875
 21
-21.5817356054
  0
LINE
  5
27D
100
AcDbEntity
  8
RACCORDO
100
AcDbLine
 62
7
  6
CONTINUOUS
 10
20.3462516375
 20
-34.2484324768
 11
-27.6648068228
 21
-10.2429032467
  0
LINE
  5
27E
100
AcDbEntity
  8
RACCORDO
100
AcDbLine
 62
7
  6
CONTINUOUS
 10
20.4858205703
 20
-33.9344990333
 11
-27.5252430032
 21
-9.9289672465
  0
LINE
  5
27F
100
AcDbEntity
  8
RACCORDO
100
AcDbLine
 62
7
  6
CONTINUOUS
 10
-18.756007371
 20
-11.088627933
 11
-18.756007371
 21
-11.541373401
  0
LINE
  5
280
100
AcDbEntity
  8
DRAFT
100
AcDbLine
 62
7
  6
CONTINUOUS
 10
-25.307712128
 20
5.0847020109
 11
-25.8215210152
 21
4.7993807208
  0
LINE
  5
281
100
AcDbEntity
  8
RACCORDO
100
AcDbLine
 62
7
  6
CONTINUOUS
 10
-21.2852537085
 20
10.7215291581
 11
-24.5542829767
 21
8.9578128709
  0
LINE
  5
282
100
AcDbEntity
  8
RACCORDO
100
AcDbLine
 62
7
  6
CONTINUOUS
 10
-21.3586085025
 20
10.5617036524
 11
-24.5542829767
 21
8.8375639594
  0
LINE
  5
283
100
AcDbEntity
  8
RACCORDO
100
AcDbLine
 62
7
  6
CONTINUOUS
 10
-24.8383276399
 20
5.2810684106
 11
-25.7736118287
 21
4.8098202009
  0
LINE
  5
284
100
AcDbEntity
  8
RACCORDO
100
AcDbLine
 62
7
  6
CONTINUOUS
 10
-24.6262279143
 20
4.9152504966
 11
-25.5615121031
 21
4.4440022869
  0
LINE
  5
285
100
AcDbEntity
  8
RACCORDO
100
AcDbLine
 62
7
  6
CONTINUOUS
 10
-25.1298424775
 20
5.856791382
 11
-24.5542829767
 21
6.1226038329
  0
LINE
  5
286
100
AcDbEntity
  8
RACCORDO
100
AcDbLine
 62
7
  6
CONTINUOUS
 10
-25.210979822
 20
5.6930170031
 11
-24.6354203212
 21
5.958829454
  0
LINE
  5
287
100
AcDbEntity
  8
RACCORDO
100
AcDbLine
 62
7
  6
CONTINUOUS
 10
-2.6852623654
 20
-18.3041970632
 11
-2.6853019846
 21
-18.3041772657
  0
LINE
  5
288
100
AcDbEntity
  8
RACCORDO
100
AcDbLine
 62
7
  6
CONTINUOUS
 10
-25.9877374331
 20
-8.8330385334
 11
20.6636064436
 21
-32.1587104717
  0
LINE
  5
289
100
AcDbEntity
  8
RACCORDO
100
AcDbLine
 62
7
  6
CONTINUOUS
 10
-25.8729854093
 20
-8.7496146101
 11
20.6636064436
 21
-32.0179105366
  0
LINE
  5
28A
100
AcDbEntity
  8
RACCORDO
100
AcDbLine
 62
7
  6
CONTINUOUS
 10
20.6636064436
 20
-31.7533302096
 11
-25.6094212896
 21
-8.616816343
  0
LINE
  5
28B
100
AcDbEntity
  8
RACCORDO
100
AcDbLine
 62
7
  6
CONTINUOUS
 10
-11.7198890211
 20
-15.3579525459
 11
-7.2659280537
 21
-17.5849330296
  0
LINE
  5
28C
100
AcDbEntity
  8
RACCORDO
100
AcDbLine
 62
7
  6
CONTINUOUS
 10
4.1900135556
 20
-23.3129038343
 11
8.6439745229
 21
-25.539884318
  0
LINE
  5
28D
100
AcDbEntity
  8
RACCORDO
100
AcDbLine
 62
7
  6
CONTINUOUS
 10
-25.0958708133
 20
-8.3714416798
 11
-11.8970715935
 21
-14.9708412897
  0
LINE
  5
28E
100
AcDbEntity
  8
DRAFT
100
AcDbLine
 62
7
  6
CONTINUOUS
 10
-6.5937707346
 20
-17.6224917192
 11
4.0128309832
 21
-22.9257925781
  0
LINE
  5
28F
100
AcDbEntity
  8
RACCORDO
100
AcDbLine
 62
7
  6
CONTINUOUS
 10
9.3161318421
 20
-25.5774430075
 11
20.6636064436
 21
-31.2511803083
  0
LINE
  5
290
100
AcDbEntity
  8
RACCORDO
100
AcDbLine
 62
7
  6
CONTINUOUS
 10
4.4185811598
 20
-23.087465637
 11
4.4389340921
 21
-23.0976421032
  0
LINE
  5
291
100
AcDbEntity
  8
ASSI
100
AcDbLine
 62
7
  6
CONTINUOUS
 10
17.1546352468
 20
-29.4404035203
 11
14.7962093963
 21
-28.2611905951
  0
LINE
  5
292
100
AcDbEntity
  8
ASSI
100
AcDbLine
 62
7
  6
CONTINUOUS
 10
-14.6651699066
 20
-13.5305009436
 11
-17.0235957571
 21
-12.3512880184
  0
LINE
  5
293
100
AcDbEntity
  8
RACCORDO
100
AcDbLine
 62
7
  6
CONTINUOUS
 10
20.6636064436
 20
-31.1163662918
 11
17.3064384695
 21
-29.4377823048
  0
LINE
  5
294
100
AcDbEntity
  8
RACCORDO
100
AcDbLine
 62
7
  6
CONTINUOUS
 10
12.2859803231
 20
-26.9275532316
 11
10.0515942826
 21
-25.8103602113
  0
LINE
  5
295
100
AcDbEntity
  8
RACCORDO
100
AcDbLine
 62
7
  6
CONTINUOUS
 10
3.6309219334
 20
-22.6000240367
 11
1.3965358928
 21
-21.4828310164
  0
LINE
  5
296
100
AcDbEntity
  8
RACCORDO
100
AcDbLine
 62
7
  6
CONTINUOUS
 10
-3.6239222536
 20
-18.9726019432
 11
-5.8583082941
 21
-17.8554089229
  0
LINE
  5
297
100
AcDbEntity
  8
RACCORDO
100
AcDbLine
 62
7
  6
CONTINUOUS
 10
-12.2789806433
 20
-14.6450727483
 11
-14.5133666839
 21
-13.5278797281
  0
LINE
  5
298
100
AcDbEntity
  8
RACCORDO
100
AcDbLine
 62
7
  6
CONTINUOUS
 10
-19.5338248303
 20
-11.0176506549
 11
-25.1298424775
 21
-8.2196418313
  0
LINE
  5
299
100
AcDbEntity
  8
ASSI
100
AcDbLine
 62
7
  6
CONTINUOUS
 10
17.2911833309
 20
-29.3672562061
 11
14.9376307526
 21
-28.190479917
  0
LINE
  5
29A
100
AcDbEntity
  8
ASSI
100
AcDbLine
 62
7
  6
CONTINUOUS
 10
-14.5286218225
 20
-13.4573536294
 11
-16.8821744008
 21
-12.2805773403
  0
LINE
  5
29B
100
AcDbEntity
  8
ASSI
100
AcDbLine
 62
7
  6
CONTINUOUS
 10
17.4988753255
 20
-29.2589701691
 11
15.1497627869
 21
-28.0844138998
  0
LINE
  5
29C
100
AcDbEntity
  8
ASSI
100
AcDbLine
 62
7
  6
CONTINUOUS
 10
-14.3209298279
 20
-13.3490675924
 11
-16.6700423665
 21
-12.1745113231
  0
LINE
  5
29D
100
AcDbEntity
  8
ASSI
100
AcDbLine
 62
7
  6
CONTINUOUS
 10
17.6373366553
 20
-29.1867794777
 11
15.2911841432
 21
-28.0137032217
  0
LINE
  5
29E
100
AcDbEntity
  8
ASSI
100
AcDbLine
 62
7
  6
CONTINUOUS
 10
-14.1824684981
 20
-13.276876901
 11
-16.5286210102
 21
-12.103800645
  0
LINE
  5
29F
100
AcDbEntity
  8
RACCORDO
100
AcDbLine
 62
7
  6
CONTINUOUS
 10
-10.8166955788
 20
-14.870658963
 11
-6.330643865
 21
-17.1136848199
  0
LINE
  5
2A0
100
AcDbEntity
  8
RACCORDO
100
AcDbLine
 62
7
  6
CONTINUOUS
 10
5.0932069979
 20
-22.8256102514
 11
9.5792587117
 21
-25.0686361083
  0
LINE
  5
2A1
100
AcDbEntity
  8
RACCORDO
100
AcDbLine
 62
7
  6
CONTINUOUS
 10
20.6636064436
 20
-30.5385876431
 11
17.8721238945
 21
-29.1428463686
  0
LINE
  5
2A2
100
AcDbEntity
  8
RACCORDO
100
AcDbLine
 62
7
  6
CONTINUOUS
 10
12.8516657481
 20
-26.6326172954
 11
10.6074056317
 21
-25.5104872372
  0
LINE
  5
2A3
100
AcDbEntity
  8
RACCORDO
100
AcDbLine
 62
7
  6
CONTINUOUS
 10
4.2064814342
 20
-22.3100251384
 11
1.9622213178
 21
-21.1878950802
  0
LINE
  5
2A4
100
AcDbEntity
  8
RACCORDO
100
AcDbLine
 62
7
  6
CONTINUOUS
 10
-3.0582368286
 20
-18.677666007
 11
-5.302496945
 21
-17.5555359488
  0
LINE
  5
2A5
100
AcDbEntity
  8
RACCORDO
100
AcDbLine
 62
7
  6
CONTINUOUS
 10
-11.7034211425
 20
-14.3550738501
 11
-13.9476812589
 21
-13.2329437919
  0
LINE
  5
2A6
100
AcDbEntity
  8
RACCORDO
100
AcDbLine
 62
7
  6
CONTINUOUS
 10
-18.9681394053
 20
-10.7227147187
 11
-24.554250668
 21
-7.9296590873
  0
LINE
  5
2A7
100
AcDbEntity
  8
ASSI
100
AcDbLine
 62
7
  6
CONTINUOUS
 10
19.392403474
 20
-29.8521808527
 11
15.5033161775
 21
-27.9076372045
  0
LINE
  5
2A8
100
AcDbEntity
  8
ASSI
100
AcDbLine
 62
7
  6
CONTINUOUS
 10
-12.4274016794
 20
-13.942278276
 11
-16.3164889759
 21
-11.9977346278
  0
LINE
  5
2A9
100
AcDbEntity
  8
ASSI
100
AcDbLine
 62
7
  6
CONTINUOUS
 10
19.5338248303
 20
-29.7814701746
 11
15.6447375338
 21
-27.8369265264
  0
LINE
  5
2AA
100
AcDbEntity
  8
ASSI
100
AcDbLine
 62
7
  6
CONTINUOUS
 10
-12.2859803231
 20
-13.8715675979
 11
-16.1750676196
 21
-11.9270239497
  0
LINE
  5
2AB
100
AcDbEntity
  8
RACCORDO
100
AcDbLine
 62
7
  6
CONTINUOUS
 10
-24.5542829767
 20
-7.5776093596
 11
-24.2008059213
 21
-7.7543478874
  0
LINE
  5
2AC
100
AcDbEntity
  8
ASSI
100
AcDbLine
 62
7
  6
CONTINUOUS
 10
19.7459568646
 20
-29.6754041574
 11
15.8568695681
 21
-27.7308605092
  0
LINE
  5
2AD
100
AcDbEntity
  8
ASSI
100
AcDbLine
 62
7
  6
CONTINUOUS
 10
-12.0738482888
 20
-13.7655015807
 11
-15.9629355853
 21
-11.8209579325
  0
LINE
  5
2AE
100
AcDbEntity
  8
RACCORDO
100
AcDbLine
 62
7
  6
CONTINUOUS
 10
-24.5542829767
 20
-7.4577094747
 11
-24.0154494729
 21
-7.7271262266
  0
LINE
  5
2AF
100
AcDbEntity
  8
RACCORDO
100
AcDbLine
 62
7
  6
CONTINUOUS
 10
-4.3540100293
 20
-17.541763162
 11
-2.8157193707
 21
-18.3109084913
  0
LINE
  5
2B0
100
AcDbEntity
  8
ASSI
100
AcDbLine
 62
7
  6
CONTINUOUS
 10
19.8873782209
 20
-29.6046934793
 11
15.9982909243
 21
-27.6601498311
  0
LINE
  5
2B1
100
AcDbEntity
  8
ASSI
100
AcDbLine
 62
7
  6
CONTINUOUS
 10
-11.9324269325
 20
-13.6947909026
 11
-15.821514229
 21
-11.7502472544
  0
LINE
  5
2B2
100
AcDbEntity
  8
RACCORDO
100
AcDbLine
 62
7
  6
CONTINUOUS
 10
-4.2235481652
 20
-17.5350541632
 11
-2.6852575066
 21
-18.3041994925
  0
LINE
  5
2B3
100
AcDbEntity
  8
ASSI
100
AcDbLine
 62
7
  6
CONTINUOUS
 10
20.0995102552
 20
-29.4986274621
 11
16.2104229587
 21
-27.5540838139
  0
LINE
  5
2B4
100
AcDbEntity
  8
ASSI
100
AcDbLine
 62
7
  6
CONTINUOUS
 10
-11.7202948982
 20
-13.5887248854
 11
-15.6093821947
 21
-11.6441812372
  0
LINE
  5
2B5
100
AcDbEntity
  8
ASSI
100
AcDbLine
 62
7
  6
CONTINUOUS
 10
20.2409316115
 20
-29.427916784
 11
16.3518443149
 21
-27.4833731358
  0
LINE
  5
2B6
100
AcDbEntity
  8
ASSI
100
AcDbLine
 62
7
  6
CONTINUOUS
 10
-11.5788735419
 20
-13.5180142073
 11
-15.4679608385
 21
-11.5734705591
  0
LINE
  5
2B7
100
AcDbEntity
  8
ASSI
100
AcDbLine
 62
7
  6
CONTINUOUS
 10
20.4530636458
 20
-29.3218507669
 11
16.5639763493
 21
-27.3773071186
  0
LINE
  5
2B8
100
AcDbEntity
  8
ASSI
100
AcDbLine
 62
7
  6
CONTINUOUS
 10
-11.3667415076
 20
-13.4119481902
 11
-15.2558288041
 21
-11.4674045419
  0
LINE
  5
2B9
100
AcDbEntity
  8
ASSI
100
AcDbLine
 62
7
  6
CONTINUOUS
 10
20.5944850021
 20
-29.2511400887
 11
16.7053977055
 21
-27.3065964405
  0
LINE
  5
2BA
100
AcDbEntity
  8
ASSI
100
AcDbLine
 62
7
  6
CONTINUOUS
 10
-11.2253201513
 20
-13.341237512
 11
-15.1144074479
 21
-11.3966938638
  0
LINE
  5
2BB
100
AcDbEntity
  8
ASSI
100
AcDbLine
 62
7
  6
CONTINUOUS
 10
20.6636064436
 20
-29.0735687752
 11
16.9175297399
 21
-27.2005304233
  0
LINE
  5
2BC
100
AcDbEntity
  8
ASSI
100
AcDbLine
 62
7
  6
CONTINUOUS
 10
-11.013188117
 20
-13.2351714949
 11
-14.9022754135
 21
-11.2906278466
  0
LINE
  5
2BD
100
AcDbEntity
  8
ASSI
100
AcDbLine
 62
7
  6
CONTINUOUS
 10
1.0709262621
 20
-19.2462476619
 11
5.3283901077
 21
-21.3749795847
  0
LINE
  5
2BE
100
AcDbEntity
  8
ASSI
100
AcDbLine
 62
7
  6
CONTINUOUS
 10
1.1927298307
 20
-19.2567477292
 11
5.3854719773
 21
-21.3531188025
  0
LINE
  5
2BF
100
AcDbEntity
  8
ASSI
100
AcDbLine
 62
7
  6
CONTINUOUS
 10
-14.8389763146
 20
-11.2046938332
 11
-14.7846918507
 21
-11.2318360652
  0
LINE
  5
2C0
100
AcDbEntity
  8
ASSI
100
AcDbLine
 62
7
  6
CONTINUOUS
 10
-10.7657007436
 20
-13.2413316187
 11
-10.581512469
 21
-13.333425756
  0
LINE
  5
2C1
100
AcDbEntity
  8
ASSI
100
AcDbLine
 62
7
  6
CONTINUOUS
 10
16.9808288388
 20
-27.1145964099
 11
17.0351133027
 21
-27.1417386419
  0
LINE
  5
2C2
100
AcDbEntity
  8
ASSI
100
AcDbLine
 62
7
  6
CONTINUOUS
 10
20.6636064436
 20
-28.9321474189
 11
17.0589510961
 21
-27.1298197452
  0
LINE
  5
2C3
100
AcDbEntity
  8
ASSI
100
AcDbLine
 62
7
  6
CONTINUOUS
 10
-10.8717667607
 20
-13.1644608167
 11
-14.7608540573
 21
-11.2199171685
  0
LINE
  5
2C4
100
AcDbEntity
  8
ASSI
100
AcDbLine
 62
7
  6
CONTINUOUS
 10
-14.7171737923
 20
-11.2151933773
 11
-10.5244295531
 21
-13.3115654969
  0
LINE
  5
2C5
100
AcDbEntity
  8
ASSI
100
AcDbLine
 62
7
  6
CONTINUOUS
 10
17.1026313611
 20
-27.125095954
 11
20.6636064436
 21
-28.9055834953
  0
LINE
  5
2C6
100
AcDbEntity
  8
ASSI
100
AcDbLine
 62
7
  6
CONTINUOUS
 10
-12.2859803231
 20
-13.8715675979
 11
-12.1799143059
 21
-13.9484383999
  0
LINE
  5
2C7
100
AcDbEntity
  8
ASSI
100
AcDbLine
 62
7
  6
CONTINUOUS
 10
-11.9324269325
 20
-13.6947909026
 11
-11.8263609153
 21
-13.7716617046
  0
LINE
  5
2C8
100
AcDbEntity
  8
ASSI
100
AcDbLine
 62
7
  6
CONTINUOUS
 10
-11.5788735419
 20
-13.5180142073
 11
-11.4728075248
 21
-13.5948850093
  0
LINE
  5
2C9
100
AcDbEntity
  8
ASSI
100
AcDbLine
 62
7
  6
CONTINUOUS
 10
-11.2253201513
 20
-13.341237512
 11
-11.1192541342
 21
-13.418108314
  0
LINE
  5
2CA
100
AcDbEntity
  8
ASSI
100
AcDbLine
 62
7
  6
CONTINUOUS
 10
-10.8717667607
 20
-13.1644608167
 11
-10.7657007436
 21
-13.2413316187
  0
LINE
  5
2CB
100
AcDbEntity
  8
DRAFT
100
AcDbLine
 62
7
  6
CONTINUOUS
 10
-11.8970715935
 20
-15.3867604154
 11
-11.8970715935
 21
-14.9708412897
  0
LINE
  5
2CC
100
AcDbEntity
  8
RACCORDO
100
AcDbLine
 62
7
  6
CONTINUOUS
 10
-11.4913214169
 20
-15.1536716887
 11
-11.4913214169
 21
-14.720891764
  0
LINE
  5
2CD
100
AcDbEntity
  8
ASSI
100
AcDbLine
 62
7
  6
CONTINUOUS
 10
-10.5744989392
 20
-13.3297684705
 11
-10.5744989392
 21
-13.8418946054
  0
LINE
  5
2CE
100
AcDbEntity
  8
ASSI
100
AcDbLine
 62
7
  6
CONTINUOUS
 10
-10.5231279043
 20
-13.3140100386
 11
-10.5231279043
 21
-13.8245608232
  0
LINE
  5
2CF
100
AcDbEntity
  8
DRAFT
100
AcDbLine
 62
7
  6
CONTINUOUS
 10
-25.307712128
 20
-1.4104885175
 11
-25.8215210152
 21
-1.6958098076
  0
LINE
  5
2D0
100
AcDbEntity
  8
RACCORDO
100
AcDbLine
 62
7
  6
CONTINUOUS
 10
-25.307712128
 20
-1.6238292183
 11
-24.7663827023
 21
-1.3510773363
  0
LINE
  5
2D1
100
AcDbEntity
  8
DRAFT
100
AcDbLine
 62
7
  6
CONTINUOUS
 10
-25.8215210152
 20
-1.1535840739
 11
-25.307712128
 21
-1.4104885175
  0
LINE
  5
2D2
100
AcDbEntity
  8
RACCORDO
100
AcDbLine
 62
7
  6
CONTINUOUS
 10
-25.7736118287
 20
-1.1646817536
 11
-25.8215210152
 21
-1.1407271604
  0
LINE
  5
2D3
100
AcDbEntity
  8
RACCORDO
100
AcDbLine
 62
7
  6
CONTINUOUS
 10
-24.7663827023
 20
-1.3510773363
 11
-25.370467122
 21
-1.0490351264
  0
LINE
  5
2D4
100
AcDbEntity
  8
ASSI
100
AcDbLine
 62
7
  6
CONTINUOUS
 10
19.5338248303
 20
-29.7814701746
 11
19.6398908475
 21
-29.8583409766
  0
LINE
  5
2D5
100
AcDbEntity
  8
ASSI
100
AcDbLine
 62
7
  6
CONTINUOUS
 10
19.8873782209
 20
-29.6046934793
 11
19.993444238
 21
-29.6815642813
  0
LINE
  5
2D6
100
AcDbEntity
  8
ASSI
100
AcDbLine
 62
7
  6
CONTINUOUS
 10
20.2409316115
 20
-29.427916784
 11
20.3469976286
 21
-29.504787586
  0
LINE
  5
2D7
100
AcDbEntity
  8
ASSI
100
AcDbLine
 62
7
  6
CONTINUOUS
 10
20.5944850021
 20
-29.2511400887
 11
20.6636064436
 21
-29.301235499
  0
LINE
  5
2D8
100
AcDbEntity
  8
0
100
AcDbLine
 62
7
  6
CONTINUOUS
 10
-4.5323034445
 20
-22.7036973115
 11
-4.1687112589
 21
-24.0729398065
  0
LINE
  5
2D9
100
AcDbEntity
  8
0
100
AcDbLine
 62
7
  6
CONTINUOUS
 10
-4.1452848113
 20
-23.2757896333
 11
-4.4519471228
 21
-22.1128218132
  0
LINE
  5
2DA
100
AcDbEntity
  8
0
100
AcDbLine
 62
7
  6
CONTINUOUS
 10
-6.7086133611
 20
-20.984488694
 11
-6.2379029835
 21
-23.0383439443
  0
LINE
  5
2DB
100
AcDbEntity
  8
0
100
AcDbLine
 62
7
  6
CONTINUOUS
 10
-6.0888971999
 20
-22.5460765105
 11
-6.3719272957
 21
-21.1528317267
  0
LINE
  5
2DC
100
AcDbEntity
  8
0
100
AcDbLine
 62
7
  6
CONTINUOUS
 10
-6.0008938619
 20
-22.2124101385
 11
-6.2305059394
 21
-21.0821210486
  0
LINE
  5
2DD
100
AcDbEntity
  8
0
100
AcDbLine
 62
7
  6
CONTINUOUS
 10
-3.3898522313
 20
-24.4623693203
 11
-3.5286975976
 21
-22.5744465758
  0
LINE
  5
2DE
100
AcDbEntity
  8
0
100
AcDbLine
 62
7
  6
CONTINUOUS
 10
-3.2614144999
 20
-24.2151163408
 11
-3.3872762413
 21
-22.5037358976
  0
LINE
  5
2DF
100
AcDbEntity
  8
0
100
AcDbLine
 62
7
  6
CONTINUOUS
 10
-3.7567289279
 20
-23.096434771
 11
-3.6930518409
 21
-24.3107695155
  0
LINE
  5
2E0
100
AcDbEntity
  8
RACCORDO
100
AcDbLine
 62
7
  6
CONTINUOUS
 10
-6.1185441394
 20
-17.8601050168
 11
-6.1185441394
 21
-17.4795027339
  0
LINE
  5
2E1
100
AcDbEntity
  8
0
100
AcDbLine
 62
7
  6
CONTINUOUS
 10
-5.3724799437
 20
-21.6524462835
 11
-5.3724799437
 21
-23.4710554641
  0
LINE
  5
2E2
100
AcDbEntity
  8
0
100
AcDbLine
 62
7
  6
CONTINUOUS
 10
-5.0625437278
 20
-23.6260235721
 11
-5.0625437278
 21
-21.8074143914
  0
LINE
  5
2E3
100
AcDbEntity
  8
0
100
AcDbLine
 62
7
  6
CONTINUOUS
 10
-4.9211223716
 20
-23.555312894
 11
-4.9211223716
 21
-21.7367037133
  0
LINE
  5
2E4
100
AcDbEntity
  8
DRAFT
100
AcDbLine
 62
7
  6
CONTINUOUS
 10
-11.100966585
 20
-14.3984372066
 11
-11.0439229331
 21
-14.1662233331
  0
LINE
  5
2E5
100
AcDbEntity
  8
ASSI
100
AcDbLine
 62
7
  6
CONTINUOUS
 10
-17.0488980694
 20
-12.3949280518
 11
-17.0235957571
 21
-12.3512880184
  0
LINE
  5
2E6
100
AcDbEntity
  8
ASSI
100
AcDbLine
 62
7
  6
CONTINUOUS
 10
-16.76539354
 20
-12.3389677707
 11
-16.6700423665
 21
-12.1745113231
  0
LINE
  5
2E7
100
AcDbEntity
  8
ASSI
100
AcDbLine
 62
7
  6
CONTINUOUS
 10
-16.4118401494
 20
-12.1621910754
 11
-16.3164889759
 21
-11.9977346278
  0
LINE
  5
2E8
100
AcDbEntity
  8
ASSI
100
AcDbLine
 62
7
  6
CONTINUOUS
 10
-16.0582867588
 20
-11.9854143801
 11
-15.9629355853
 21
-11.8209579325
  0
LINE
  5
2E9
100
AcDbEntity
  8
ASSI
100
AcDbLine
 62
7
  6
CONTINUOUS
 10
-15.7047333683
 20
-11.8086376848
 11
-15.6093821947
 21
-11.6441812372
  0
LINE
  5
2EA
100
AcDbEntity
  8
ASSI
100
AcDbLine
 62
7
  6
CONTINUOUS
 10
-15.3511799777
 20
-11.6318609895
 11
-15.2558288041
 21
-11.4674045419
  0
LINE
  5
2EB
100
AcDbEntity
  8
ASSI
100
AcDbLine
 62
7
  6
CONTINUOUS
 10
-14.9976265871
 20
-11.4550842942
 11
-14.9022754135
 21
-11.2906278466
  0
LINE
  5
2EC
100
AcDbEntity
  8
RACCORDO
100
AcDbLine
 62
7
  6
CONTINUOUS
 10
-27.6858246293
 20
-9.5369770634
 11
-26.1768497029
 21
-8.4368509112
  0
LINE
  5
2ED
100
AcDbEntity
  8
RACCORDO
100
AcDbLine
 62
7
  6
CONTINUOUS
 10
-27.5252430032
 20
-9.9289672465
 11
-26.0069002923
 21
-8.8219510223
  0
LINE
  5
2EE
100
AcDbEntity
  8
RACCORDO
100
AcDbLine
 62
7
  6
CONTINUOUS
 10
-25.1298424775
 20
-2.0068941485
 11
-24.5542829767
 21
-1.7168952502
  0
LINE
  5
2EF
100
AcDbEntity
  8
RACCORDO
100
AcDbLine
 62
7
  6
CONTINUOUS
 10
-25.5615121031
 20
-1.0109635653
 11
-24.6262279143
 21
-0.5790183326
  0
LINE
  5
2F0
100
AcDbEntity
  8
RACCORDO
100
AcDbLine
 62
7
  6
CONTINUOUS
 10
-25.6426494476
 20
-1.1747379442
 11
-24.7073652588
 21
-0.7427927115
  0
LINE
  5
2F1
100
AcDbEntity
  8
RACCORDO
100
AcDbLine
 62
7
  6
CONTINUOUS
 10
-25.7736118287
 20
4.8098202009
 11
-25.7889294588
 21
4.817479016
  0
LINE
  5
2F2
100
AcDbEntity
  8
RACCORDO
100
AcDbLine
 62
7
  6
CONTINUOUS
 10
-24.8383276399
 20
5.2810684106
 11
-25.307712128
 21
5.5157606547
  0
LINE
  5
2F3
100
AcDbEntity
  8
0
100
AcDbLine
 62
7
  6
CONTINUOUS
 10
-4.0526073196
 20
-23.0202256368
 11
-4.3105257665
 21
-22.042111135
  0
LINE
  5
2F4
100
AcDbEntity
  8
0
100
AcDbLine
 62
7
  6
CONTINUOUS
 10
-2.1200574508
 20
-25.0972667106
 11
-2.5756307936
 21
-23.0509799777
  0
LINE
  5
2F5
100
AcDbEntity
  8
0
100
AcDbLine
 62
7
  6
CONTINUOUS
 10
-2.0290451176
 20
-24.8001351573
 11
-2.4342094374
 21
-22.9802692996
  0
LINE
  5
2F6
100
AcDbEntity
  8
0
100
AcDbLine
 62
7
  6
CONTINUOUS
 10
-2.5270065958
 20
-24.5307551548
 11
-2.4467167421
 21
-24.9339370649
  0
LINE
  5
2F7
100
AcDbEntity
  8
0
100
AcDbLine
 62
7
  6
CONTINUOUS
 10
-2.7313668195
 20
-23.4727895702
 11
-2.5889470285
 21
-24.2188679481
  0
LINE
  5
2F8
100
AcDbEntity
  8
RACCORDO
100
AcDbLine
 62
7
  6
CONTINUOUS
 10
-2.8461047943
 20
-19.0435792213
 11
-2.8461047943
 21
-19.4963246893
  0
LINE
  5
2F9
100
AcDbEntity
  8
RACCORDO
100
AcDbLine
 62
7
  6
CONTINUOUS
 10
-2.6036196451
 20
-18.6767264053
 11
-2.6036196451
 21
-19.6175672639
  0
LINE
  5
2FA
100
AcDbEntity
  8
RACCORDO
100
AcDbLine
 62
7
  6
CONTINUOUS
 10
-2.5194215852
 20
-18.5725276498
 11
-2.5194215852
 21
-19.6596662939
  0
LINE
  5
2FB
100
AcDbEntity
  8
0
100
AcDbLine
 62
7
  6
CONTINUOUS
 10
-2.0290451176
 20
-23.3455188764
 11
-2.0290451176
 21
-25.1427732216
  0
LINE
  5
2FC
100
AcDbEntity
  8
0
100
AcDbLine
 62
7
  6
CONTINUOUS
 10
-1.7306333281
 20
-24.2824920538
 11
-1.7306333281
 21
-23.7832782212
  0
LINE
  5
2FD
100
AcDbEntity
  8
0
100
AcDbLine
 62
7
  6
CONTINUOUS
 10
-1.7203563204
 20
-25.2971176202
 11
-1.7203563204
 21
-24.5854569919
  0
LINE
  5
2FE
100
AcDbEntity
  8
0
100
AcDbLine
 62
7
  6
CONTINUOUS
 10
-1.5892119718
 20
-24.2117813757
 11
-1.5892119718
 21
-23.8370036943
  0
LINE
  5
2FF
100
AcDbEntity
  8
0
100
AcDbLine
 62
7
  6
CONTINUOUS
 10
-1.5789349642
 20
-25.2264069421
 11
-1.5789349642
 21
-24.65616767
  0
LINE
  5
300
100
AcDbEntity
  8
0
100
AcDbLine
 62
7
  6
CONTINUOUS
 10
-1.2322151591
 20
-24.6923283163
 11
-1.2322151591
 21
-24.681582564
  0
LINE
  5
301
100
AcDbEntity
  8
0
100
AcDbLine
 62
7
  6
CONTINUOUS
 10
-4.5991879678
 20
-23.8577014521
 11
-4.5323034445
 21
-22.7036973115
  0
LINE
  5
302
100
AcDbEntity
  8
0
100
AcDbLine
 62
7
  6
CONTINUOUS
 10
-4.4577666116
 20
-23.786990774
 11
-4.4195832557
 21
-23.1281873822
  0
LINE
  5
303
100
AcDbEntity
  8
0
100
AcDbLine
 62
7
  6
CONTINUOUS
 10
-4.7616266589
 20
-21.9579820451
 11
-4.8956955188
 21
-23.7094476766
  0
LINE
  5
304
100
AcDbEntity
  8
0
100
AcDbLine
 62
7
  6
CONTINUOUS
 10
-5.7972220166
 20
-21.4401843662
 11
-6.0888971999
 21
-22.5460765105
  0
LINE
  5
305
100
AcDbEntity
  8
ASSI
100
AcDbLine
 62
7
  6
CONTINUOUS
 10
-12.4502381431
 20
-13.9816653498
 11
-12.4274016794
 21
-13.942278276
  0
LINE
  5
306
100
AcDbEntity
  8
ASSI
100
AcDbLine
 62
7
  6
CONTINUOUS
 10
-12.1799143059
 20
-13.9484383999
 11
-12.0738482888
 21
-13.7655015807
  0
LINE
  5
307
100
AcDbEntity
  8
ASSI
100
AcDbLine
 62
7
  6
CONTINUOUS
 10
-11.8263609153
 20
-13.7716617046
 11
-11.7202948982
 21
-13.5887248854
  0
LINE
  5
308
100
AcDbEntity
  8
ASSI
100
AcDbLine
 62
7
  6
CONTINUOUS
 10
-11.4728075248
 20
-13.5948850093
 11
-11.3667415076
 21
-13.4119481902
  0
LINE
  5
309
100
AcDbEntity
  8
ASSI
100
AcDbLine
 62
7
  6
CONTINUOUS
 10
-11.1192541342
 20
-13.418108314
 11
-11.013188117
 21
-13.2351714949
  0
LINE
  5
30A
100
AcDbEntity
  8
RACCORDO
100
AcDbLine
 62
7
  6
CONTINUOUS
 10
-26.1169665993
 20
-8.3998603517
 11
-25.8215210152
 21
-8.250998429
  0
LINE
  5
30B
100
AcDbEntity
  8
RACCORDO
100
AcDbLine
 62
7
  6
CONTINUOUS
 10
-25.1298424775
 20
-8.2196418313
 11
-24.5542829767
 21
-7.929642933
  0
LINE
  5
30C
100
AcDbEntity
  8
RACCORDO
100
AcDbLine
 62
7
  6
CONTINUOUS
 10
-25.8729854093
 20
-8.7496146101
 11
-25.6094212896
 21
-8.616816343
  0
LINE
  5
30D
100
AcDbEntity
  8
SMUSSO
100
AcDbLine
 62
7
  6
CONTINUOUS
 10
39.6863680941
 20
24.6747156209
 11
41.8430437767
 21
25.7530534622
  0
LINE
  5
30E
100
AcDbEntity
  8
SMUSSO
100
AcDbLine
 62
7
  6
CONTINUOUS
 10
40.3934748753
 20
23.4551368265
 11
42.5501505579
 21
24.5334746678
  0
LINE
  5
30F
100
AcDbEntity
  8
RACCORDO
100
AcDbLine
 62
7
  6
CONTINUOUS
 10
-24.2008059213
 20
-7.7543478874
 11
-24.554250668
 21
-7.9296590873
  0
LINE
  5
310
100
AcDbEntity
  8
RACCORDO
100
AcDbLine
 62
7
  6
CONTINUOUS
 10
-23.9887061957
 20
-8.1201658013
 11
-24.0813415764
 21
-8.1661136331
  0
LINE
  5
311
100
AcDbEntity
  8
RACCORDO
100
AcDbLine
 62
7
  6
CONTINUOUS
 10
-25.8193193972
 20
-8.2555139183
 11
-25.307712128
 21
-8.0060694586
  0
LINE
  5
312
100
AcDbEntity
  8
RACCORDO
100
AcDbLine
 62
7
  6
CONTINUOUS
 10
-25.6074448728
 20
-8.6208699475
 11
-25.0958708133
 21
-8.3714416798
  0
LINE
  5
313
100
AcDbEntity
  8
DRAFT
100
AcDbLine
 62
7
  6
CONTINUOUS
 10
4.0128309832
 20
-23.3417117037
 11
4.0128309832
 21
-22.9257925781
  0
LINE
  5
314
100
AcDbEntity
  8
RACCORDO
100
AcDbLine
 62
7
  6
CONTINUOUS
 10
4.4185811598
 20
-23.1086229771
 11
4.4185811598
 21
-22.6758430524
  0
LINE
  5
315
100
AcDbEntity
  8
ASSI
100
AcDbLine
 62
7
  6
CONTINUOUS
 10
5.3354036375
 20
-21.3713222992
 11
5.3354036375
 21
-21.7968458938
  0
LINE
  5
316
100
AcDbEntity
  8
ASSI
100
AcDbLine
 62
7
  6
CONTINUOUS
 10
5.3867746724
 20
-21.3555634715
 11
5.3867746724
 21
-21.779512101
  0
LINE
  5
317
100
AcDbEntity
  8
0
100
AcDbLine
 62
7
  6
CONTINUOUS
 10
-2.8856886319
 20
-24.0704971465
 11
-2.7313668195
 21
-23.4727895702
  0
LINE
  5
318
100
AcDbEntity
  8
0
100
AcDbLine
 62
7
  6
CONTINUOUS
 10
-2.7442672756
 20
-23.9997864683
 11
-2.6790131136
 21
-23.7470489813
  0
LINE
  5
319
100
AcDbEntity
  8
0
100
AcDbLine
 62
7
  6
CONTINUOUS
 10
-3.0346109769
 20
-24.6399899476
 11
-2.9490878259
 21
-24.3197145398
  0
LINE
  5
31A
100
AcDbEntity
  8
0
100
AcDbLine
 62
7
  6
CONTINUOUS
 10
-2.8931896206
 20
-24.5692792694
 11
-2.8409820836
 21
-24.3737674109
  0
LINE
  5
31B
100
AcDbEntity
  8
0
100
AcDbLine
 62
7
  6
CONTINUOUS
 10
-2.8754560897
 20
-22.9010673297
 11
-3.3411841929
 21
-24.4867033395
  0
LINE
  5
31C
100
AcDbEntity
  8
0
100
AcDbLine
 62
7
  6
CONTINUOUS
 10
-5.9647716755
 20
-23.1749095982
 11
-5.4874972257
 21
-21.5950467617
  0
LINE
  5
31D
100
AcDbEntity
  8
0
100
AcDbLine
 62
7
  6
CONTINUOUS
 10
-5.8233503193
 20
-23.1041989201
 11
-5.3460758694
 21
-21.5243360836
  0
LINE
  5
31E
100
AcDbEntity
  8
0
100
AcDbLine
 62
7
  6
CONTINUOUS
 10
-3.8353485954
 20
-22.4211210769
 11
-4.1452848113
 21
-23.2757896333
  0
LINE
  5
31F
100
AcDbEntity
  8
0
100
AcDbLine
 62
7
  6
CONTINUOUS
 10
-4.1252432838
 20
-24.0946737941
 11
-3.7567289279
 21
-23.096434771
  0
LINE
  5
320
100
AcDbEntity
  8
0
100
AcDbLine
 62
7
  6
CONTINUOUS
 10
-3.9838219275
 20
-24.023963116
 11
-3.7423860274
 21
-23.3699567435
  0
LINE
  5
321
100
AcDbEntity
  8
ASSI
100
AcDbLine
 62
7
  6
CONTINUOUS
 10
-10.8364114217
 20
-14.0604841378
 11
-10.5817065481
 21
-13.8758880869
  0
LINE
  5
322
100
AcDbEntity
  8
RACCORDO
100
AcDbLine
 62
7
  6
CONTINUOUS
 10
-19.5338248303
 20
-11.0176506549
 11
-18.9681394053
 21
-10.7227147187
  0
LINE
  5
323
100
AcDbEntity
  8
RACCORDO
100
AcDbLine
 62
7
  6
CONTINUOUS
 10
-19.1992766283
 20
-11.3197387723
 11
-18.756007371
 21
-11.088627933
  0
LINE
  5
324
100
AcDbEntity
  8
RACCORDO
100
AcDbLine
 62
7
  6
CONTINUOUS
 10
-14.0835545863
 20
-13.2253053633
 11
-14.6492400112
 21
-13.5202412995
  0
LINE
  5
325
100
AcDbEntity
  8
RACCORDO
100
AcDbLine
 62
7
  6
CONTINUOUS
 10
-13.9476812589
 20
-13.2329437919
 11
-14.5133666839
 21
-13.5278797281
  0
LINE
  5
326
100
AcDbEntity
  8
RACCORDO
100
AcDbLine
 62
7
  6
CONTINUOUS
 10
22.3295554075
 20
8.1252396524
 11
24.0240282779
 21
8.9790093581
  0
LINE
  5
327
100
AcDbEntity
  8
RACCORDO
100
AcDbLine
 62
7
  6
CONTINUOUS
 10
22.8244547673
 20
7.2716645198
 11
24.5189276376
 21
8.1254342255
  0
LINE
  5
328
100
AcDbEntity
  8
ASSI
100
AcDbLine
 62
7
  6
CONTINUOUS
 10
-17.0235957571
 20
-12.3512880184
 11
-16.8821744008
 21
-12.2805773403
  0
LINE
  5
329
100
AcDbEntity
  8
ASSI
100
AcDbLine
 62
7
  6
CONTINUOUS
 10
-16.6700423665
 20
-12.1745113231
 11
-16.5286210102
 21
-12.103800645
  0
LINE
  5
32A
100
AcDbEntity
  8
ASSI
100
AcDbLine
 62
7
  6
CONTINUOUS
 10
-16.3164889759
 20
-11.9977346278
 11
-16.1750676196
 21
-11.9270239497
  0
LINE
  5
32B
100
AcDbEntity
  8
ASSI
100
AcDbLine
 62
7
  6
CONTINUOUS
 10
-15.9629355853
 20
-11.8209579325
 11
-15.821514229
 21
-11.7502472544
  0
LINE
  5
32C
100
AcDbEntity
  8
ASSI
100
AcDbLine
 62
7
  6
CONTINUOUS
 10
-15.6093821947
 20
-11.6441812372
 11
-15.4679608385
 21
-11.5734705591
  0
LINE
  5
32D
100
AcDbEntity
  8
ASSI
100
AcDbLine
 62
7
  6
CONTINUOUS
 10
-15.2558288041
 20
-11.4674045419
 11
-15.1144074479
 21
-11.3966938638
  0
LINE
  5
32E
100
AcDbEntity
  8
ASSI
100
AcDbLine
 62
7
  6
CONTINUOUS
 10
-14.9022754135
 20
-11.2906278466
 11
-14.7608540573
 21
-11.2199171685
  0
LINE
  5
32F
100
AcDbEntity
  8
ASSI
100
AcDbLine
 62
7
  6
CONTINUOUS
 10
-14.8389763146
 20
-11.2046938332
 11
-17.2544574886
 21
-12.2921483422
  0
LINE
  5
330
100
AcDbEntity
  8
RACCORDO
100
AcDbLine
 62
7
  6
CONTINUOUS
 10
-21.3668964284
 20
16.4944465536
 11
-21.366936048
 21
16.4944663513
  0
LINE
  5
331
100
AcDbEntity
  8
RACCORDO
100
AcDbLine
 62
7
  6
CONTINUOUS
 10
-24.5542829767
 20
15.7982080235
 11
-24.1115373246
 21
15.5768351974
  0
LINE
  5
332
100
AcDbEntity
  8
DRAFT
100
AcDbLine
 62
7
  6
CONTINUOUS
 10
-25.8215210152
 20
17.8989748094
 11
-25.307712128
 21
17.6420703658
  0
LINE
  5
333
100
AcDbEntity
  8
RACCORDO
100
AcDbLine
 62
7
  6
CONTINUOUS
 10
-25.7736118287
 20
17.8878771296
 11
-25.8215210152
 21
17.9118317229
  0
LINE
  5
334
100
AcDbEntity
  8
RACCORDO
100
AcDbLine
 62
7
  6
CONTINUOUS
 10
-24.7663827023
 20
17.701481547
 11
-25.370467122
 21
18.0035237569
  0
LINE
  5
335
100
AcDbEntity
  8
RACCORDO
100
AcDbLine
 62
7
  6
CONTINUOUS
 10
-21.8055324846
 20
16.6418246509
 11
-21.4973534341
 21
16.4877351256
  0
LINE
  5
336
100
AcDbEntity
  8
RACCORDO
100
AcDbLine
 62
7
  6
CONTINUOUS
 10
-21.6750706204
 20
16.6485336498
 11
-21.3668915699
 21
16.4944441245
  0
LINE
  5
337
100
AcDbEntity
  8
RACCORDO
100
AcDbLine
 62
7
  6
CONTINUOUS
 10
9.7913584373
 20
-25.8150563051
 11
9.7913584373
 21
-25.4344540222
  0
LINE
  5
338
100
AcDbEntity
  8
DRAFT
100
AcDbLine
 62
7
  6
CONTINUOUS
 10
4.8089359917
 20
-22.3533884949
 11
4.8659796436
 21
-22.1211746215
  0
LINE
  5
339
100
AcDbEntity
  8
ASSI
100
AcDbLine
 62
7
  6
CONTINUOUS
 10
-10.581512469
 20
-13.333425756
 11
-12.081174221
 21
-14.1661973108
  0
LINE
  5
33A
100
AcDbEntity
  8
RACCORDO
100
AcDbLine
 62
7
  6
CONTINUOUS
 10
-10.9539891646
 20
-14.8637686113
 11
-11.8571826069
 21
-15.3510621942
  0
LINE
  5
33B
100
AcDbEntity
  8
RACCORDO
100
AcDbLine
 62
7
  6
CONTINUOUS
 10
-10.8166955788
 20
-14.870658963
 11
-11.7198890211
 21
-15.3579525459
  0
LINE
  5
33C
100
AcDbEntity
  8
ASSI
100
AcDbLine
 62
7
  6
CONTINUOUS
 10
-10.8364114217
 20
-14.0604841378
 11
-11.5943884868
 21
-14.446717578
  0
LINE
  5
33D
100
AcDbEntity
  8
RACCORDO
100
AcDbLine
 62
7
  6
CONTINUOUS
 10
-12.2789806433
 20
-14.6450727483
 11
-11.7034211425
 21
-14.3550738501
  0
LINE
  5
33E
100
AcDbEntity
  8
RACCORDO
100
AcDbLine
 62
7
  6
CONTINUOUS
 10
-11.9424068098
 20
-14.9481736816
 11
-11.4913214169
 21
-14.720891764
  0
LINE
  5
33F
100
AcDbEntity
  8
DRAFT
100
AcDbLine
 62
7
  6
CONTINUOUS
 10
-11.4956083117
 20
-14.6677700286
 11
-11.1802655564
 21
-14.5092274653
  0
LINE
  5
340
100
AcDbEntity
  8
DRAFT
100
AcDbLine
 62
7
  6
CONTINUOUS
 10
-11.5103744675
 20
-14.6040594043
 11
-11.100966585
 21
-14.3984372066
  0
LINE
  5
341
100
AcDbEntity
  8
ASSI
100
AcDbLine
 62
7
  6
CONTINUOUS
 10
-12.4274016794
 20
-13.942278276
 11
-12.2859803231
 21
-13.8715675979
  0
LINE
  5
342
100
AcDbEntity
  8
ASSI
100
AcDbLine
 62
7
  6
CONTINUOUS
 10
-12.0738482888
 20
-13.7655015807
 11
-11.9324269325
 21
-13.6947909026
  0
LINE
  5
343
100
AcDbEntity
  8
ASSI
100
AcDbLine
 62
7
  6
CONTINUOUS
 10
-11.7202948982
 20
-13.5887248854
 11
-11.5788735419
 21
-13.5180142073
  0
LINE
  5
344
100
AcDbEntity
  8
ASSI
100
AcDbLine
 62
7
  6
CONTINUOUS
 10
-11.3667415076
 20
-13.4119481902
 11
-11.2253201513
 21
-13.341237512
  0
LINE
  5
345
100
AcDbEntity
  8
ASSI
100
AcDbLine
 62
7
  6
CONTINUOUS
 10
-11.013188117
 20
-13.2351714949
 11
-10.8717667607
 21
-13.1644608167
  0
LINE
  5
346
100
AcDbEntity
  8
ASSI
100
AcDbLine
 62
7
  6
CONTINUOUS
 10
-10.7657007436
 20
-13.2413316187
 11
-12.3483031744
 21
-14.0326328341
  0
LINE
  5
347
100
AcDbEntity
  8
ASSI
100
AcDbLine
 62
7
  6
CONTINUOUS
 10
-10.5744989392
 20
-13.8418946054
 11
-11.6598632356
 21
-14.3826277519
  0
LINE
  5
348
100
AcDbEntity
  8
DRAFT
100
AcDbLine
 62
7
  6
CONTINUOUS
 10
-11.8970715935
 20
-14.9708412897
 11
-12.4336632523
 21
-15.2046953617
  0
LINE
  5
349
100
AcDbEntity
  8
RACCORDO
100
AcDbLine
 62
7
  6
CONTINUOUS
 10
-25.7736118287
 20
23.8623790841
 11
-25.7889294588
 21
23.8700378992
  0
LINE
  5
34A
100
AcDbEntity
  8
RACCORDO
100
AcDbLine
 62
7
  6
CONTINUOUS
 10
-24.8383276399
 20
24.3336272939
 11
-25.307712128
 21
24.5683195379
  0
LINE
  5
34B
100
AcDbEntity
  8
RACCORDO
100
AcDbLine
 62
7
  6
CONTINUOUS
 10
13.0637977824
 20
-26.9985305097
 11
13.0637977824
 21
-27.4512759777
  0
LINE
  5
34C
100
AcDbEntity
  8
SMUSSO
100
AcDbLine
 62
7
  6
CONTINUOUS
 10
39.6863680941
 20
24.6747156209
 11
38.6863680941
 21
23.6015834359
  0
LINE
  5
34D
100
AcDbEntity
  8
RACCORDO
100
AcDbLine
 62
7
  6
CONTINUOUS
 10
-5.9956018798
 20
-17.8485185711
 11
-5.4397905307
 21
-17.548645597
  0
LINE
  5
34E
100
AcDbEntity
  8
RACCORDO
100
AcDbLine
 62
7
  6
CONTINUOUS
 10
-5.8583082941
 20
-17.8554089229
 11
-5.302496945
 21
-17.5555359488
  0
LINE
  5
34F
100
AcDbEntity
  8
RACCORDO
100
AcDbLine
 62
7
  6
CONTINUOUS
 10
-3.6239222536
 20
-18.9726019432
 11
-3.0582368286
 21
-18.677666007
  0
LINE
  5
350
100
AcDbEntity
  8
RACCORDO
100
AcDbLine
 62
7
  6
CONTINUOUS
 10
-3.2893740516
 20
-19.2746900607
 11
-2.8461047943
 21
-19.0435792213
  0
LINE
  5
351
100
AcDbEntity
  8
RACCORDO
100
AcDbLine
 62
7
  6
CONTINUOUS
 10
-7.2659280537
 20
-17.5849330296
 11
-6.330643865
 21
-17.1136848199
  0
LINE
  5
352
100
AcDbEntity
  8
RACCORDO
100
AcDbLine
 62
7
  6
CONTINUOUS
 10
-6.4976845947
 20
-17.6705347891
 11
-6.1185441394
 21
-17.4795027339
  0
LINE
  5
353
100
AcDbEntity
  8
0
100
AcDbLine
 62
7
  6
CONTINUOUS
 10
-6.5671920049
 20
-20.9137780159
 11
-6.7086133611
 21
-20.984488694
  0
LINE
  5
354
100
AcDbEntity
  8
0
100
AcDbLine
 62
7
  6
CONTINUOUS
 10
-6.2305059394
 20
-21.0821210486
 11
-6.3719272957
 21
-21.1528317267
  0
LINE
  5
355
100
AcDbEntity
  8
RACCORDO
100
AcDbLine
 62
7
  6
CONTINUOUS
 10
-2.8157193707
 20
-18.3109084913
 11
-3.3056918933
 21
-18.5539384747
  0
LINE
  5
356
100
AcDbEntity
  8
RACCORDO
100
AcDbLine
 62
7
  6
CONTINUOUS
 10
-2.6036196451
 20
-18.6767264053
 11
-2.9086876019
 21
-18.8280423609
  0
LINE
  5
357
100
AcDbEntity
  8
RACCORDO
100
AcDbLine
 62
7
  6
CONTINUOUS
 10
-4.4834958569
 20
-17.5310250502
 11
-4.9347294703
 21
-17.7394196862
  0
LINE
  5
358
100
AcDbEntity
  8
RACCORDO
100
AcDbLine
 62
7
  6
CONTINUOUS
 10
-4.3540100293
 20
-17.541763162
 11
-4.8613914294
 21
-17.7760887066
  0
LINE
  5
359
100
AcDbEntity
  8
DRAFT
100
AcDbLine
 62
7
  6
CONTINUOUS
 10
-6.5937707346
 20
-17.6224917192
 11
-7.1303623934
 21
-17.8563457911
  0
LINE
  5
35A
100
AcDbEntity
  8
SMUSSO
100
AcDbLine
 62
7
  6
CONTINUOUS
 10
40.3934748753
 20
23.4551368265
 11
38.9792613129
 21
23.0964173589
  0
LINE
  5
35B
100
AcDbEntity
  8
RACCORDO
100
AcDbLine
 62
7
  6
CONTINUOUS
 10
-27.5868388671
 20
30.4268927441
 11
20.4242195997
 21
6.4213635107
  0
LINE
  5
35C
100
AcDbEntity
  8
RACCORDO
100
AcDbLine
 62
7
  6
CONTINUOUS
 10
-27.6648068228
 20
30.5891548842
 11
20.3462516375
 21
6.583625654
  0
LWPOLYLINE
  5
35D
100
AcDbEntity
  8
RACCORDO
100
AcDbPolyline
 62
7
  6
CONTINUOUS
 90
22
 70
0
 10
20.4242510449
 20
6.4213476119
 10
20.430864547
 20
6.4178622799
 10
20.444310825
 20
6.4097567285
 10
20.4594626091
 20
6.399120301
 10
20.4757864807
 20
6.3859714568
 10
20.4929364318
 20
6.3702928325
 10
20.5105794274
 20
6.3521217955
 10
20.5282754001
 20
6.3316872108
 10
20.545680631
 20
6.3092223767
 10
20.5625472064
 20
6.2849156925
 10
20.5786622675
 20
6.2589509354
 10
20.5937840781
 20
6.2316215113
 10
20.607716708
 20
6.2032254401
 10
20.6203476909
 20
6.173938793
 10
20.6315191348
 20
6.1440866857
 10
20.6411084595
 20
6.1140082151
 10
20.6490605129
 20
6.083918274
 10
20.6553093281
 20
6.0541277368
 10
20.6598074712
 20
6.0250136111
 10
20.6625514222
 20
5.9969731586
 10
20.6635912238
 20
5.970397853
 10
20.6636058414
 20
5.967090469
  0
LINE
  5
35E
100
AcDbEntity
  8
RACCORDO
100
AcDbLine
 62
7
  6
CONTINUOUS
 10
20.6636064436
 20
5.9669584158
 11
20.6636064436
 21
-33.8248559548
  0
LINE
  5
35F
100
AcDbEntity
  8
RACCORDO
100
AcDbLine
 62
7
  6
CONTINUOUS
 10
20.7514744093
 20
5.8608923986
 11
20.7514744093
 21
-33.9309219932
  0
LWPOLYLINE
  5
360
100
AcDbEntity
  8
RACCORDO
100
AcDbPolyline
 62
7
  6
CONTINUOUS
 90
8
 70
0
 10
20.663606018
 20
-33.8249941555
 10
20.6634651573
 20
-33.8354458821
 10
20.662566909
 20
-33.8528341953
 10
20.6608969625
 20
-33.8687736773
 10
20.6585891354
 20
-33.8828335202
 10
20.6559472777
 20
-33.8942866821
 10
20.6533096984
 20
-33.9029248948
 10
20.6528106961
 20
-33.9043214915
  0
LINE
  5
361
100
AcDbEntity
  8
ASSI
100
AcDbLine
 62
7
  6
CONTINUOUS
 10
5.073491155
 20
-22.0154354261
 11
5.3281960286
 21
-21.8308393753
  0
LINE
  5
362
100
AcDbEntity
  8
0
100
AcDbLine
 62
7
  6
CONTINUOUS
 10
5.3283901077
 20
-21.3749795847
 11
3.9107922493
 21
-22.162180546
  0
LINE
  5
363
100
AcDbEntity
  8
RACCORDO
100
AcDbLine
 62
7
  6
CONTINUOUS
 10
1.8263479904
 20
-21.1802566517
 11
1.2606625655
 21
-21.4751925879
  0
LINE
  5
364
100
AcDbEntity
  8
RACCORDO
100
AcDbLine
 62
7
  6
CONTINUOUS
 10
1.9622213178
 20
-21.1878950802
 11
1.3965358928
 21
-21.4828310164
  0
LINE
  5
365
100
AcDbEntity
  8
0
100
AcDbLine
 62
7
  6
CONTINUOUS
 10
-5.6558006604
 20
-21.3694736881
 11
-5.7972220166
 21
-21.4401843662
  0
LINE
  5
366
100
AcDbEntity
  8
0
100
AcDbLine
 62
7
  6
CONTINUOUS
 10
-5.3460758694
 20
-21.5243360836
 11
-5.4874972257
 21
-21.5950467617
  0
LINE
  5
367
100
AcDbEntity
  8
0
100
AcDbLine
 62
7
  6
CONTINUOUS
 10
-5.2310585875
 20
-21.5817356054
 11
-5.3724799437
 21
-21.6524462835
  0
LINE
  5
368
100
AcDbEntity
  8
0
100
AcDbLine
 62
7
  6
CONTINUOUS
 10
-4.9211223716
 20
-21.7367037133
 11
-5.0625437278
 21
-21.8074143914
  0
LINE
  5
369
100
AcDbEntity
  8
0
100
AcDbLine
 62
7
  6
CONTINUOUS
 10
-4.6202053027
 20
-21.887271367
 11
-4.7616266589
 21
-21.9579820451
  0
LINE
  5
36A
100
AcDbEntity
  8
0
100
AcDbLine
 62
7
  6
CONTINUOUS
 10
-4.3105257665
 20
-22.042111135
 11
-4.4519471228
 21
-22.1128218132
  0
LINE
  5
36B
100
AcDbEntity
  8
0
100
AcDbLine
 62
7
  6
CONTINUOUS
 10
-5.8233503193
 20
-23.1041989201
 11
-5.9647716755
 21
-23.1749095982
  0
LINE
  5
36C
100
AcDbEntity
  8
0
100
AcDbLine
 62
7
  6
CONTINUOUS
 10
-3.6939272391
 20
-22.3504103987
 11
-3.8353485954
 21
-22.4211210769
  0
LINE
  5
36D
100
AcDbEntity
  8
0
100
AcDbLine
 62
7
  6
CONTINUOUS
 10
-3.3872762413
 20
-22.5037358976
 11
-3.5286975976
 21
-22.5744465758
  0
LINE
  5
36E
100
AcDbEntity
  8
0
100
AcDbLine
 62
7
  6
CONTINUOUS
 10
-4.9211223716
 20
-23.555312894
 11
-5.0625437278
 21
-23.6260235721
  0
LINE
  5
36F
100
AcDbEntity
  8
0
100
AcDbLine
 62
7
  6
CONTINUOUS
 10
-2.7340347334
 20
-22.8303566516
 11
-2.8754560897
 21
-22.9010673297
  0
LINE
  5
370
100
AcDbEntity
  8
0
100
AcDbLine
 62
7
  6
CONTINUOUS
 10
-4.4577666116
 20
-23.786990774
 11
-4.5991879678
 21
-23.8577014521
  0
LINE
  5
371
100
AcDbEntity
  8
0
100
AcDbLine
 62
7
  6
CONTINUOUS
 10
-2.4342094374
 20
-22.9802692996
 11
-2.5756307936
 21
-23.0509799777
  0
LINE
  5
372
100
AcDbEntity
  8
0
100
AcDbLine
 62
7
  6
CONTINUOUS
 10
-3.9838219275
 20
-24.023963116
 11
-4.1252432838
 21
-24.0946737941
  0
LINE
  5
373
100
AcDbEntity
  8
0
100
AcDbLine
 62
7
  6
CONTINUOUS
 10
-1.8876237614
 20
-23.2748081983
 11
-2.0290451176
 21
-23.3455188764
  0
LINE
  5
374
100
AcDbEntity
  8
0
100
AcDbLine
 62
7
  6
CONTINUOUS
 10
-2.7442672756
 20
-23.9997864683
 11
-2.8856886319
 21
-24.0704971465
  0
LINE
  5
375
100
AcDbEntity
  8
0
100
AcDbLine
 62
7
  6
CONTINUOUS
 10
-3.3244289127
 20
-24.429657661
 11
-3.3898522313
 21
-24.4623693203
  0
LINE
  5
376
100
AcDbEntity
  8
0
100
AcDbLine
 62
7
  6
CONTINUOUS
 10
-1.1227493954
 20
-23.6763913663
 11
-1.2641707517
 21
-23.7471020444
  0
LINE
  5
377
100
AcDbEntity
  8
0
100
AcDbLine
 62
7
  6
CONTINUOUS
 10
-2.8931896206
 20
-24.5692792694
 11
-3.0346109769
 21
-24.6399899476
  0
LINE
  5
378
100
AcDbEntity
  8
0
100
AcDbLine
 62
7
  6
CONTINUOUS
 10
-1.5892119718
 20
-24.2117813757
 11
-1.7306333281
 21
-24.2824920538
  0
LINE
  5
379
100
AcDbEntity
  8
0
100
AcDbLine
 62
7
  6
CONTINUOUS
 10
-1.4120866874
 20
-24.3003440179
 11
-1.5535080436
 21
-24.371054696
  0
LINE
  5
37A
100
AcDbEntity
  8
0
100
AcDbLine
 62
7
  6
CONTINUOUS
 10
-2.0290451176
 20
-25.0517605439
 11
-2.1200574508
 21
-25.0972667106
  0
LINE
  5
37B
100
AcDbEntity
  8
0
100
AcDbLine
 62
7
  6
CONTINUOUS
 10
-1.2279168582
 20
-24.6901791659
 11
-1.2322151591
 21
-24.6923283163
  0
LINE
  5
37C
100
AcDbEntity
  8
0
100
AcDbLine
 62
7
  6
CONTINUOUS
 10
-1.1891838712
 20
-24.6748899243
 11
-1.047762515
 21
-24.6041792462
  0
LINE
  5
37D
100
AcDbEntity
  8
0
100
AcDbLine
 62
7
  6
CONTINUOUS
 10
1.0709262621
 20
-19.2462476619
 11
-1.2534137247
 21
-20.2926702241
  0
LINE
  5
37E
100
AcDbEntity
  8
RACCORDO
100
AcDbLine
 62
7
  6
CONTINUOUS
 10
22.1211255876
 20
7.7612566913
 11
-29.4419641115
 21
33.5428015408
  0
LINE
  5
37F
100
AcDbEntity
  8
RACCORDO
100
AcDbLine
 62
7
  6
CONTINUOUS
 10
22.3295554075
 20
8.1252396524
 11
-29.231250953
 21
33.9056428326
  0
LINE
  5
380
100
AcDbEntity
  8
RACCORDO
100
AcDbLine
 62
7
  6
CONTINUOUS
 10
24.0240282779
 20
8.9790093581
 11
-27.5949175229
 21
34.7884822585
  0
LINE
  5
381
100
AcDbEntity
  8
RACCORDO
100
AcDbLine
 62
7
  6
CONTINUOUS
 10
22.4039252218
 20
-36.9959798797
 11
22.4039252218
 21
7.2734994726
  0
LINE
  5
382
100
AcDbEntity
  8
RACCORDO
100
AcDbLine
 62
7
  6
CONTINUOUS
 10
22.8244547673
 20
-36.9978148326
 11
22.8244547673
 21
7.2716645198
  0
LINE
  5
383
100
AcDbEntity
  8
RACCORDO
100
AcDbLine
 62
7
  6
CONTINUOUS
 10
24.5189276376
 20
-36.2152511081
 11
24.5189276376
 21
8.1254342255
  0
LINE
  5
384
100
AcDbEntity
  8
ASSI
100
AcDbLine
 62
7
  6
CONTINUOUS
 10
14.770907084
 20
-28.3048306285
 11
14.7962093963
 21
-28.2611905951
  0
LINE
  5
385
100
AcDbEntity
  8
RACCORDO
100
AcDbLine
 62
7
  6
CONTINUOUS
 10
4.9559134121
 20
-22.8187198996
 11
4.0527199698
 21
-23.3060134825
  0
LINE
  5
386
100
AcDbEntity
  8
RACCORDO
100
AcDbLine
 62
7
  6
CONTINUOUS
 10
5.0932069979
 20
-22.8256102514
 11
4.1900135556
 21
-23.3129038343
  0
LINE
  5
387
100
AcDbEntity
  8
ASSI
100
AcDbLine
 62
7
  6
CONTINUOUS
 10
5.073491155
 20
-22.0154354261
 11
4.3155140899
 21
-22.4016688663
  0
LINE
  5
388
100
AcDbEntity
  8
RACCORDO
100
AcDbLine
 62
7
  6
CONTINUOUS
 10
3.6309219334
 20
-22.6000240367
 11
4.2064814342
 21
-22.3100251384
  0
LINE
  5
389
100
AcDbEntity
  8
RACCORDO
100
AcDbLine
 62
7
  6
CONTINUOUS
 10
3.9674957669
 20
-22.9031249699
 11
4.4185811598
 21
-22.6758430524
  0
LINE
  5
38A
100
AcDbEntity
  8
RACCORDO
100
AcDbLine
 62
7
  6
CONTINUOUS
 10
8.6439745229
 20
-25.539884318
 11
9.5792587117
 21
-25.0686361083
  0
LINE
  5
38B
100
AcDbEntity
  8
DRAFT
100
AcDbLine
 62
7
  6
CONTINUOUS
 10
4.414294265
 20
-22.622721317
 11
4.7296370203
 21
-22.4641787536
  0
LINE
  5
38C
100
AcDbEntity
  8
DRAFT
100
AcDbLine
 62
7
  6
CONTINUOUS
 10
4.3995281092
 20
-22.5590106927
 11
4.8089359917
 21
-22.3533884949
  0
LINE
  5
38D
100
AcDbEntity
  8
0
100
AcDbLine
 62
7
  6
CONTINUOUS
 10
-1.5789349642
 20
-25.2264069421
 11
-1.7203563204
 21
-25.2971176202
  0
LINE
  5
38E
100
AcDbEntity
  8
0
100
AcDbLine
 62
7
  6
CONTINUOUS
 10
-0.9121431121
 20
-25.0676119574
 11
-1.0535644683
 21
-25.1383226355
  0
LINE
  5
38F
100
AcDbEntity
  8
0
100
AcDbLine
 62
7
  6
CONTINUOUS
 10
-0.8061886108
 20
-25.6127801188
 11
-0.9476099671
 21
-25.6834907969
  0
LINE
  5
390
100
AcDbEntity
  8
ASSI
100
AcDbLine
 62
7
  6
CONTINUOUS
 10
5.3354036375
 20
-21.7968458938
 11
4.2500393411
 21
-22.3375790402
  0
LINE
  5
391
100
AcDbEntity
  8
DRAFT
100
AcDbLine
 62
7
  6
CONTINUOUS
 10
4.0128309832
 20
-22.9257925781
 11
3.4762393244
 21
-23.15964665
  0
LWPOLYLINE
  5
392
100
AcDbEntity
  8
RACCORDO
100
AcDbPolyline
 62
7
  6
CONTINUOUS
 90
6
 70
0
 10
-27.6074804006
 20
30.4348943924
 10
-27.6074431666
 20
30.4348861411
 10
-27.6057907773
 20
30.4345015481
 10
-27.6016666795
 20
30.4332432349
 10
-27.5953656768
 20
30.4308299045
 10
-27.5868557788
 20
30.4269009878
  0
LWPOLYLINE
  5
393
100
AcDbEntity
  8
RACCORDO
100
AcDbPolyline
 62
7
  6
CONTINUOUS
 90
3
 70
0
 10
20.6528106961
 20
-33.9043214915
 10
20.6510496241
 20
-33.9087139784
 10
20.6497330623
 20
-33.9114206531
  0
LINE
  5
394
100
AcDbEntity
  8
ASSI
100
AcDbLine
 62
7
  6
CONTINUOUS
 10
15.0544116134
 20
-28.2488703474
 11
15.1497627869
 21
-28.0844138998
  0
LINE
  5
395
100
AcDbEntity
  8
ASSI
100
AcDbLine
 62
7
  6
CONTINUOUS
 10
15.407965004
 20
-28.0720936521
 11
15.5033161775
 21
-27.9076372045
  0
LINE
  5
396
100
AcDbEntity
  8
ASSI
100
AcDbLine
 62
7
  6
CONTINUOUS
 10
15.7615183945
 20
-27.8953169568
 11
15.8568695681
 21
-27.7308605092
  0
LINE
  5
397
100
AcDbEntity
  8
ASSI
100
AcDbLine
 62
7
  6
CONTINUOUS
 10
16.1150717851
 20
-27.7185402615
 11
16.2104229587
 21
-27.5540838139
  0
LINE
  5
398
100
AcDbEntity
  8
ASSI
100
AcDbLine
 62
7
  6
CONTINUOUS
 10
16.4686251757
 20
-27.5417635662
 11
16.5639763493
 21
-27.3773071186
  0
LINE
  5
399
100
AcDbEntity
  8
ASSI
100
AcDbLine
 62
7
  6
CONTINUOUS
 10
16.8221785663
 20
-27.3649868709
 11
16.9175297399
 21
-27.2005304233
  0
LINE
  5
39A
100
AcDbEntity
  8
ASSI
100
AcDbLine
 62
7
  6
CONTINUOUS
 10
19.3695670103
 20
-29.8915679265
 11
19.392403474
 21
-29.8521808527
  0
LINE
  5
39B
100
AcDbEntity
  8
ASSI
100
AcDbLine
 62
7
  6
CONTINUOUS
 10
19.6398908475
 20
-29.8583409766
 11
19.7459568646
 21
-29.6754041574
  0
LINE
  5
39C
100
AcDbEntity
  8
ASSI
100
AcDbLine
 62
7
  6
CONTINUOUS
 10
19.993444238
 20
-29.6815642813
 11
20.0995102552
 21
-29.4986274621
  0
LINE
  5
39D
100
AcDbEntity
  8
RACCORDO
100
AcDbLine
 62
7
  6
CONTINUOUS
 10
9.9143006969
 20
-25.8034698595
 11
10.470112046
 21
-25.5035968854
  0
LINE
  5
39E
100
AcDbEntity
  8
RACCORDO
100
AcDbLine
 62
7
  6
CONTINUOUS
 10
10.0515942826
 20
-25.8103602113
 11
10.6074056317
 21
-25.5104872372
  0
LINE
  5
39F
100
AcDbEntity
  8
RACCORDO
100
AcDbLine
 62
7
  6
CONTINUOUS
 10
12.2859803231
 20
-26.9275532316
 11
12.8516657481
 21
-26.6326172954
  0
LINE
  5
3A0
100
AcDbEntity
  8
RACCORDO
100
AcDbLine
 62
7
  6
CONTINUOUS
 10
12.6205285251
 20
-27.229641349
 11
13.0637977824
 21
-26.9985305097
  0
LINE
  5
3A1
100
AcDbEntity
  8
RACCORDO
100
AcDbLine
 62
7
  6
CONTINUOUS
 10
9.412217982
 20
-25.6254860775
 11
9.7913584373
 21
-25.4344540222
  0
LINE
  5
3A2
100
AcDbEntity
  8
ASSI
100
AcDbLine
 62
7
  6
CONTINUOUS
 10
14.7962093963
 20
-28.2611905951
 11
14.9376307526
 21
-28.190479917
  0
LINE
  5
3A3
100
AcDbEntity
  8
ASSI
100
AcDbLine
 62
7
  6
CONTINUOUS
 10
15.1497627869
 20
-28.0844138998
 11
15.2911841432
 21
-28.0137032217
  0
LINE
  5
3A4
100
AcDbEntity
  8
ASSI
100
AcDbLine
 62
7
  6
CONTINUOUS
 10
15.5033161775
 20
-27.9076372045
 11
15.6447375338
 21
-27.8369265264
  0
LINE
  5
3A5
100
AcDbEntity
  8
ASSI
100
AcDbLine
 62
7
  6
CONTINUOUS
 10
15.8568695681
 20
-27.7308605092
 11
15.9982909243
 21
-27.6601498311
  0
LINE
  5
3A6
100
AcDbEntity
  8
ASSI
100
AcDbLine
 62
7
  6
CONTINUOUS
 10
16.2104229587
 20
-27.5540838139
 11
16.3518443149
 21
-27.4833731358
  0
LINE
  5
3A7
100
AcDbEntity
  8
ASSI
100
AcDbLine
 62
7
  6
CONTINUOUS
 10
16.5639763493
 20
-27.3773071186
 11
16.7053977055
 21
-27.3065964405
  0
LINE
  5
3A8
100
AcDbEntity
  8
ASSI
100
AcDbLine
 62
7
  6
CONTINUOUS
 10
16.9175297399
 20
-27.2005304233
 11
17.0589510961
 21
-27.1298197452
  0
LINE
  5
3A9
100
AcDbEntity
  8
ASSI
100
AcDbLine
 62
7
  6
CONTINUOUS
 10
16.9808288388
 20
-27.1145964099
 11
14.5653476648
 21
-28.2020509189
  0
LINE
  5
3AA
100
AcDbEntity
  8
DRAFT
100
AcDbLine
 62
7
  6
CONTINUOUS
 10
9.3161318421
 20
-25.5774430075
 11
8.7795401833
 21
-25.8112970795
  0
LINE
  5
3AB
100
AcDbEntity
  8
RACCORDO
100
AcDbLine
 62
7
  6
CONTINUOUS
 10
-27.215599184
 20
30.2412729025
 11
-27.6858246293
 21
30.2548378292
  0
LINE
  5
3AC
100
AcDbEntity
  8
RACCORDO
100
AcDbLine
 62
7
  6
CONTINUOUS
 10
-27.6050220102
 20
30.4347225279
 11
-27.6049443858
 21
30.4347202859
  0
LINE
  5
3AD
100
AcDbEntity
  8
ASSI
100
AcDbLine
 62
7
  6
CONTINUOUS
 10
20.3469976286
 20
-29.504787586
 11
20.4530636458
 21
-29.3218507669
  0
LINE
  5
3AE
100
AcDbEntity
  8
RACCORDO
100
AcDbLine
 62
7
  6
CONTINUOUS
 10
20.6498878317
 20
-33.9112126132
 11
20.6511000406
 21
-33.9095751967
  0
LINE
  5
3AF
100
AcDbEntity
  8
RACCORDO
100
AcDbLine
 62
7
  6
CONTINUOUS
 10
20.4858205703
 20
-33.9344990333
 11
20.6636064436
 21
-33.7114334616
  0
LINE
  5
3B0
100
AcDbEntity
  8
ASSI
100
AcDbLine
 62
7
  6
CONTINUOUS
 10
20.6636064436
 20
-29.5624551982
 11
19.7386309324
 21
-30.0760998875
  0
LINE
  5
3B1
100
AcDbEntity
  8
RACCORDO
100
AcDbLine
 62
7
  6
CONTINUOUS
 10
17.7362505671
 20
-29.13520794
 11
17.1705651422
 21
-29.4301438762
  0
LINE
  5
3B2
100
AcDbEntity
  8
RACCORDO
100
AcDbLine
 62
7
  6
CONTINUOUS
 10
17.8721238945
 20
-29.1428463686
 11
17.3064384695
 21
-29.4377823048
  0
LINE
  5
3B3
100
AcDbEntity
  8
ASSI
100
AcDbLine
 62
7
  6
CONTINUOUS
 10
20.6636064436
 20
-30.1333369541
 11
20.2621925548
 21
-30.3378806987
  0
LINE
  5
3B4
100
AcDbEntity
  8
DRAFT
100
AcDbLine
 62
7
  6
CONTINUOUS
 10
20.5324113783
 20
-30.4729901105
 11
20.639539597
 21
-30.419130042
  0
LINE
  5
3B5
100
AcDbEntity
  8
DRAFT
100
AcDbLine
 62
7
  6
CONTINUOUS
 10
20.4615517121
 20
-30.4375602774
 11
20.6636064436
 21
-30.3360797252
  0
LINE
  5
3B6
100
AcDbEntity
  8
ASSI
100
AcDbLine
 62
7
  6
CONTINUOUS
 10
19.392403474
 20
-29.8521808527
 11
19.5338248303
 21
-29.7814701746
  0
LINE
  5
3B7
100
AcDbEntity
  8
ASSI
100
AcDbLine
 62
7
  6
CONTINUOUS
 10
19.7459568646
 20
-29.6754041574
 11
19.8873782209
 21
-29.6046934793
  0
LINE
  5
3B8
100
AcDbEntity
  8
ASSI
100
AcDbLine
 62
7
  6
CONTINUOUS
 10
20.0995102552
 20
-29.4986274621
 11
20.2409316115
 21
-29.427916784
  0
LINE
  5
3B9
100
AcDbEntity
  8
ASSI
100
AcDbLine
 62
7
  6
CONTINUOUS
 10
20.4530636458
 20
-29.3218507669
 11
20.5944850021
 21
-29.2511400887
  0
LINE
  5
3BA
100
AcDbEntity
  8
ASSI
100
AcDbLine
 62
7
  6
CONTINUOUS
 10
20.6636064436
 20
-29.3464831785
 11
19.471501979
 21
-29.9425354108
  0
LINE
  5
3BB
100
AcDbEntity
  8
ASSI
100
AcDbLine
 62
7
  6
CONTINUOUS
 10
20.6636064436
 20
-30.0416025021
 11
20.1657272549
 21
-30.2896480488
  0
LINE
  5
3BC
100
AcDbEntity
  8
SMUSSO
100
AcDbLine
 62
7
  6
CONTINUOUS
 10
38.9792613129
 20
-65.6465679168
 11
38.9792613129
 21
23.0964173589
  0
LINE
  5
3BD
100
AcDbEntity
  8
SMUSSO
100
AcDbLine
 62
7
  6
CONTINUOUS
 10
40.3934748753
 20
-66.0052873844
 11
40.3934748753
 21
23.4551368265
  0
LINE
  5
3BE
100
AcDbEntity
  8
SMUSSO
100
AcDbLine
 62
7
  6
CONTINUOUS
 10
42.5501505579
 20
-64.9269495431
 11
42.5501505579
 21
24.7076683246
  0
LINE
  5
3BF
100
AcDbEntity
  8
SMUSSO
100
AcDbLine
 62
7
  6
CONTINUOUS
 10
38.6863680941
 20
23.6015834359
 11
-42.2572573391
 21
64.0733961525
  0
LINE
  5
3C0
100
AcDbEntity
  8
SMUSSO
100
AcDbLine
 62
7
  6
CONTINUOUS
 10
39.6863680941
 20
24.6747156209
 11
-41.8430437767
 21
65.4394215563
  0
LINE
  5
3C1
100
AcDbEntity
  8
SMUSSO
100
AcDbLine
 62
7
  6
CONTINUOUS
 10
-39.6863680941
 20
66.5177593976
 11
41.8430437767
 21
25.7530534622
  0
LINE
  5
3C2
100
AcDbEntity
  8
RACCORDO
100
AcDbLine
 62
7
  6
CONTINUOUS
 10
22.8244547673
 20
-36.9978148326
 11
24.5189276376
 21
-36.2152511081
  0
LINE
  5
3C3
100
AcDbEntity
  8
RACCORDO
100
AcDbLine
 62
7
  6
CONTINUOUS
 10
22.6337175896
 20
-37.3806093322
 11
24.3296071671
 21
-36.5973913255
  0
LINE
  5
3C4
100
AcDbEntity
  8
SMUSSO
100
AcDbLine
 62
7
  6
CONTINUOUS
 10
41.8430437767
 20
25.7530534622
 11
42.0501505579
 21
25.5700407603
  0
LINE
  5
3C5
100
AcDbEntity
  8
SMUSSO
100
AcDbLine
 62
7
  6
CONTINUOUS
 10
38.9792613129
 20
23.0964173589
 11
38.6863680941
 21
23.6015834359
  0
LINE
  5
3C6
100
AcDbEntity
  8
SMUSSO
100
AcDbLine
 62
7
  6
CONTINUOUS
 10
40.3934748753
 20
23.4551368265
 11
39.6863680941
 21
24.6747156209
  0
LINE
  5
3C7
100
AcDbEntity
  8
SMUSSO
100
AcDbLine
 62
7
  6
CONTINUOUS
 10
41.8430437767
 20
25.7530534622
 11
42.5501505579
 21
24.5334746678
  0
LINE
  5
3C8
100
AcDbEntity
  8
SMUSSO
100
AcDbLine
 62
7
  6
CONTINUOUS
 10
42.0501505579
 20
25.5700407603
 11
42.5501505579
 21
24.7076683246
  0
LINE
  5
3C9
100
AcDbEntity
  8
SMUSSO
100
AcDbLine
 62
7
  6
CONTINUOUS
 10
38.6863680941
 20
-65.858840775
 11
38.9792613129
 21
-65.6465679168
  0
LINE
  5
3CA
100
AcDbEntity
  8
SMUSSO
100
AcDbLine
 62
7
  6
CONTINUOUS
 10
39.6863680941
 20
-66.5177593976
 11
40.3934748753
 21
-66.0052873844
  0
LINE
  5
3CB
100
AcDbEntity
  8
SMUSSO
100
AcDbLine
 62
7
  6
CONTINUOUS
 10
42.5501505579
 20
-64.9269495431
 11
41.8430437767
 21
-65.4394215563
  0
LINE
  5
3CC
100
AcDbEntity
  8
SMUSSO
100
AcDbLine
 62
7
  6
CONTINUOUS
 10
40.3934748753
 20
-66.0052873844
 11
42.5501505579
 21
-64.9269495431
  0
LINE
  5
3CD
100
AcDbEntity
  8
SMUSSO
100
AcDbLine
 62
7
  6
CONTINUOUS
 10
39.6863680941
 20
-66.5177593976
 11
41.8430437767
 21
-65.4394215563
  0
ARC
  5
3CE
100
AcDbEntity
  8
0
100
AcDbCircle
 62
7
  6
CONTINUOUS
 10
-1.4538563046
 20
-24.9163889596
 40
0.3151634009
100
AcDbArc
 50
42.2335013854
 51
45.3110278025
  0
ARC
  5
3CF
100
AcDbEntity
  8
RACCORDO
100
AcDbCircle
 62
7
  6
CONTINUOUS
 10
-21.5024437366
 20
10.827485496
 40
0.3022061597
100
AcDbArc
 50
298.4212682617
 51
318.2487470835
  0
ARC
  5
3D0
100
AcDbEntity
  8
RACCORDO
100
AcDbCircle
 62
7
  6
CONTINUOUS
 10
-2.8194079368
 20
-18.5725236254
 40
0.2999860174
100
AcDbArc
 50
359.9999783173
 51
63.4464442407
  0
ARC
  5
3D1
100
AcDbEntity
  8
RACCORDO
100
AcDbCircle
 62
7
  6
CONTINUOUS
 10
-21.5010420001
 20
16.2261199915
 40
0.2999860174
100
AcDbArc
 50
359.9999783172
 51
63.4464442407
  0
ARC
  5
3D2
100
AcDbEntity
  8
RACCORDO
100
AcDbCircle
 62
7
  6
CONTINUOUS
 10
-21.5009893427
 20
10.8257717578
 40
0.2999338858
100
AcDbArc
 50
318.3283552134
 51
359.99400452
  0
ARC
  5
3D3
100
AcDbEntity
  8
RACCORDO
100
AcDbCircle
 62
7
  6
CONTINUOUS
 10
-4.3577352795
 20
-17.8032772211
 40
0.2998949273
100
AcDbArc
 50
63.4695635946
 51
114.7934812241
  0
ARC
  5
3D4
100
AcDbEntity
  8
RACCORDO
100
AcDbCircle
 62
7
  6
CONTINUOUS
 10
-21.8092577348
 20
16.3803105918
 40
0.2998949273
100
AcDbArc
 50
63.4695635946
 51
114.7934812241
  0
ARC
  5
3D5
100
AcDbEntity
  8
RACCORDO
100
AcDbCircle
 62
7
  6
CONTINUOUS
 10
-25.9100582155
 20
-8.6766797317
 40
0.1745913392
100
AcDbArc
 50
236.3114207215
 51
243.5817652259
  0
ARC
  5
3D6
100
AcDbEntity
  8
DRAFT
100
AcDbCircle
 62
7
  6
CONTINUOUS
 10
20.5815160037
 20
-30.3040122313
 40
0.1289093642
100
AcDbArc
 50
296.7594766855
 51
309.6601179862
  0
ARC
  5
3D7
100
AcDbEntity
  8
RACCORDO
100
AcDbCircle
 62
7
  6
CONTINUOUS
 10
-26.0676551346
 20
-8.4248465731
 40
0.1098524368
100
AcDbArc
 50
179.9827045327
 51
186.2736360138
  0
ARC
  5
3D8
100
AcDbEntity
  8
ASSI
100
AcDbCircle
 62
7
  6
CONTINUOUS
 10
-14.7988907536
 20
-11.2827418634
 40
0.0874961196
100
AcDbArc
 50
105.061869074
 51
111.661129725
  0
ARC
  5
3D9
100
AcDbEntity
  8
ASSI
100
AcDbCircle
 62
7
  6
CONTINUOUS
 10
17.0209143998
 20
-27.1926444401
 40
0.0874961196
100
AcDbArc
 50
105.0618690741
 51
111.661129725
  0
SPLINE
  5
3DA
100
AcDbEntity
  8
0
100
AcDbSpline
 62
7
  6
CONTINUOUS
 70
0
 71
3
 72
11
 73
7
 74
5
 42
0.0000001
 43
0.0000001
 44
0.0000000001
 12
0.3138156219
 22
-0.2015300707
 32
0.0
 13
0.0047321734
 23
-0.3729238803
 33
0.0
 40
0.0
 40
0.0
 40
0.0
 40
0.0
 40
0.2339806254
 40
0.4918424311
 40
0.7556842856
 40
1.0
 40
1.0
 40
1.0
 40
1.0
 10
-1.4878264965
 20
-23.8939767949
 30
0.0
 10
-1.4633509046
 20
-23.9096948389
 30
0.0
 10
-1.4166074823
 20
-23.9501973937
 30
0.0
 10
-1.3604557012
 20
-24.0265694751
 30
0.0
 10
-1.324063823
 20
-24.1154246534
 30
0.0
 10
-1.3131353144
 20
-24.1784691693
 30
0.0
 10
-1.3127499329
 20
-24.2088395574
 30
0.0
 11
-1.4878264965
 21
-23.8939767949
 31
0.0
 11
-1.4211847108
 21
-23.9503139578
 31
0.0
 11
-1.3643155524
 21
-24.027868305
 31
0.0
 11
-1.3266981446
 21
-24.1187949667
 31
0.0
 11
-1.3127499329
 21
-24.2088395574
 31
0.0
  0
SPLINE
  5
3DB
100
AcDbEntity
  8
0
100
AcDbSpline
 62
7
  6
CONTINUOUS
 70
0
 71
3
 72
11
 73
7
 74
5
 42
0.0000001
 43
0.0000001
 44
0.0000000001
 12
0.0026069209
 22
-0.2082217904
 32
0.0
 13
-0.1862538386
 23
-0.09312689
 33
0.0
 40
0.0
 40
0.0
 40
0.0
 40
0.0
 40
0.2862348143
 40
0.5536263917
 40
0.7910497861
 40
1.0
 40
1.0
 40
1.0
 40
1.0
 10
-1.3127499329
 20
-24.2088395574
 30
0.0
 10
-1.3125012024
 20
-24.2287063325
 30
0.0
 10
-1.3149520591
 20
-24.2672526921
 30
0.0
 10
-1.3279131015
 20
-24.320949508
 30
0.0
 10
-1.3502163101
 20
-24.3658274663
 30
0.0
 10
-1.3740215835
 20
-24.3875917327
 30
0.0
 10
-1.3869941767
 20
-24.3940780273
 30
0.0
 11
-1.3127499329
 21
-24.2088395574
 31
0.0
 11
-1.3168050786
 21
-24.2683064507
 31
0.0
 11
-1.3305091546
 21
-24.3222748213
 31
0.0
 11
-1.3538947644
 21
-24.3658349643
 31
0.0
 11
-1.3869941767
 21
-24.3940780273
 31
0.0
  0
SPLINE
  5
3DC
100
AcDbEntity
  8
0
100
AcDbSpline
 62
7
  6
CONTINUOUS
 70
0
 71
3
 72
10
 73
6
 74
4
 42
0.0000001
 43
0.0000001
 44
0.0000000001
 12
0.257046478
 22
-0.0748047261
 32
0.0
 13
0.2252633536
 23
-0.1446549704
 33
0.0
 40
0.0
 40
0.0
 40
0.0
 40
0.0
 40
0.2362920832
 40
0.4814109498
 40
1.0
 40
1.0
 40
1.0
 40
1.0
 10
-1.7306333281
 20
-23.7832782212
 30
0.0
 10
-1.7103873121
 20
-23.7891701427
 30
0.0
 10
-1.6693590766
 20
-23.8020398093
 30
0.0
 10
-1.5866637429
 20
-23.8357999039
 30
0.0
 10
-1.5267661993
 20
-23.8689713003
 30
0.0
 10
-1.4878264965
 20
-23.8939767949
 30
0.0
 11
-1.7306333281
 21
-23.7832782212
 31
0.0
 11
-1.6704047261
 21
-23.8026188161
 31
0.0
 11
-1.609614025
 21
-23.8273286528
 31
0.0
 11
-1.4878264965
 21
-23.8939767949
 31
0.0
  0
SPLINE
  5
3DD
100
AcDbEntity
  8
0
100
AcDbSpline
 62
7
  6
CONTINUOUS
 70
0
 71
3
 72
10
 73
6
 74
4
 42
0.0000001
 43
0.0000001
 44
0.0000000001
 12
0.2763115484
 22
-0.1381557742
 32
0.0
 13
0.0793323206
 23
-0.2985656924
 33
0.0
 40
0.0
 40
0.0
 40
0.0
 40
0.0
 40
0.2224105364
 40
0.6042534692
 40
1.0
 40
1.0
 40
1.0
 40
1.0
 10
-1.5541761048
 20
-24.6685470997
 30
0.0
 10
-1.5336912382
 20
-24.6787895329
 30
0.0
 10
-1.4820857402
 20
-24.7152497468
 30
0.0
 10
-1.4211098773
 20
-24.8006471211
 30
0.0
 10
-1.3917247693
 20
-24.8758516161
 30
0.0
 10
-1.3812596058
 20
-24.9152370618
 30
0.0
 11
-1.5541761048
 21
-24.6685470997
 31
0.0
 11
-1.4977016171
 21
-24.7076810622
 31
0.0
 11
-1.4263051889
 21
-24.8015819156
 31
0.0
 11
-1.3812596058
 21
-24.9152370618
 31
0.0
  0
SPLINE
  5
3DE
100
AcDbEntity
  8
0
100
AcDbSpline
 62
7
  6
CONTINUOUS
 70
0
 71
3
 72
9
 73
5
 74
3
 42
0.0000001
 43
0.0000001
 44
0.0000000001
 12
0.1629167104
 22
-0.6125703128
 32
0.0
 13
0.1303220388
 23
-0.6203228263
 33
0.0
 40
0.0
 40
0.0
 40
0.0
 40
0.0
 40
0.5011449125
 40
1.0
 40
1.0
 40
1.0
 40
1.0
 10
-1.3812596058
 20
-24.9152370618
 30
0.0
 10
-1.3540446456
 20
-25.0175658937
 30
0.0
 10
-1.312113949
 20
-25.2248299622
 30
0.0
 10
-1.2674028674
 20
-25.4312792495
 30
0.0
 10
-1.2457322634
 20
-25.5344296487
 30
0.0
 11
-1.3812596058
 21
-24.9152370618
 31
0.0
 11
-1.3113196518
 21
-25.2250999314
 31
0.0
 11
-1.2457322634
 21
-25.5344296487
 31
0.0
  0
SPLINE
  5
3DF
100
AcDbEntity
  8
0
100
AcDbSpline
 62
7
  6
CONTINUOUS
 70
0
 71
3
 72
9
 73
5
 74
3
 42
0.0000001
 43
0.0000001
 44
0.0000000001
 12
0.0347563402
 22
-0.0118855702
 32
0.0
 13
0.033618906
 23
0.0147999704
 33
0.0
 40
0.0
 40
0.0
 40
0.0
 40
0.0
 40
0.513899542
 40
1.0
 40
1.0
 40
1.0
 40
1.0
 10
-1.2322151591
 20
-24.681582564
 30
0.0
 10
-1.2262614033
 20
-24.6836185604
 30
0.0
 10
-1.2135179812
 20
-24.6848260118
 30
0.0
 10
-1.2017850841
 20
-24.6806811595
 30
0.0
 10
-1.1963376956
 20
-24.6782830687
 30
0.0
 11
-1.2322151591
 21
-24.681582564
 31
0.0
 11
-1.2134305981
 21
-24.6834460733
 31
0.0
 11
-1.1963376956
 21
-24.6782830687
 31
0.0
  0
LINE
  5
3E0
100
AcDbEntity
  8
0
100
AcDbLine
 62
7
  6
CONTINUOUS
 10
-1.1963376956
 20
-24.6782830687
 11
-1.1891838626
 21
-24.67488992
  0
SPLINE
  5
3E1
100
AcDbEntity
  8
0
100
AcDbSpline
 62
7
  6
CONTINUOUS
 70
0
 71
3
 72
11
 73
7
 74
5
 42
0.0000001
 43
0.0000001
 44
0.0000000001
 12
-0.6333494509
 22
0.5969143223
 32
0.0
 13
-0.8289470693
 23
0.2651131674
 33
0.0
 40
0.0
 40
0.0
 40
0.0
 40
0.0
 40
0.2725542141
 40
0.5262218346
 40
0.7671916502
 40
1.0
 40
1.0
 40
1.0
 40
1.0
 10
-1.2641707517
 20
-23.7471020444
 30
0.0
 10
-1.3217114389
 20
-23.6928715398
 30
0.0
 10
-1.4449498704
 20
-23.6009740748
 30
0.0
 10
-1.6401871597
 20
-23.4934336426
 30
0.0
 10
-1.8345542508
 20
-23.4104662527
 30
0.0
 10
-1.9647165178
 20
-23.3660923961
 30
0.0
 10
-2.0290451176
 20
-23.3455188764
 30
0.0
 11
-1.2641707517
 21
-23.7471020444
 31
0.0
 11
-1.4522370686
 21
-23.6025407585
 31
0.0
 11
-1.6450717293
 21
-23.4950518289
 31
0.0
 11
-1.8376591927
 21
-23.4120348436
 31
0.0
 11
-2.0290451176
 21
-23.3455188764
 31
0.0
  0
SPLINE
  5
3E2
100
AcDbEntity
  8
RACCORDO
100
AcDbSpline
 62
7
  6
CONTINUOUS
 70
0
 71
3
 72
9
 73
5
 74
3
 42
0.0000001
 43
0.0000001
 44
0.0000000001
 12
-0.0340063874
 22
-0.0426240626
 32
0.0
 13
-0.046699154
 23
-0.0281502062
 33
0.0
 40
0.0
 40
0.0
 40
0.0
 40
0.0
 40
0.2626289915
 40
1.0
 40
1.0
 40
1.0
 40
1.0
 10
20.6510579615
 20
-33.9096233774
 30
0.0
 10
20.6480809405
 20
-33.9133548156
 30
0.0
 10
20.6362653089
 20
-33.9271538794
 30
0.0
 10
20.6222161542
 20
-33.9391877468
 30
0.0
 10
20.6107379535
 20
-33.9461067954
 30
0.0
 11
20.6510579615
 21
-33.9096233774
 31
0.0
 11
20.6417206306
 21
-33.9204811314
 31
0.0
 11
20.6107379535
 21
-33.9461067954
 31
0.0
  0
SPLINE
  5
3E3
100
AcDbEntity
  8
RACCORDO
100
AcDbSpline
 62
7
  6
CONTINUOUS
 70
0
 71
3
 72
10
 73
6
 74
4
 42
0.0000001
 43
0.0000001
 44
0.0000000001
 12
-0.113752774
 22
-0.0685700654
 32
0.0
 13
-0.106211848
 23
0.0797533122
 33
0.0
 40
0.0
 40
0.0
 40
0.0
 40
0.0
 40
0.2472032649
 40
0.48757135
 40
1.0
 40
1.0
 40
1.0
 40
1.0
 10
20.6107379535
 20
-33.9461067954
 30
0.0
 10
20.6013646011
 20
-33.9517570434
 30
0.0
 10
20.5811526584
 20
-33.9604653896
 30
0.0
 10
20.5361593683
 20
-33.9634714097
 30
0.0
 10
20.5039630852
 20
-33.9481210114
 30
0.0
 10
20.4858210873
 20
-33.934498384
 30
0.0
 11
20.6107379535
 21
-33.9461067954
 31
0.0
 11
20.580425757
 21
-33.9587256733
 31
0.0
 11
20.5485709897
 21
-33.960857867
 31
0.0
 11
20.4858210873
 21
-33.934498384
 31
0.0
  0
SPLINE
  5
3E4
100
AcDbEntity
  8
RACCORDO
100
AcDbSpline
 62
7
  6
CONTINUOUS
 70
0
 71
3
 72
15
 73
11
 74
9
 42
0.0000001
 43
0.0000001
 44
0.0000000001
 12
-0.0000290144
 22
0.6465582094
 32
0.0
 13
0.5782691004
 23
-0.2892099003
 33
0.0
 40
0.0
 40
0.0
 40
0.0
 40
0.0
 40
0.1487694757
 40
0.2853513859
 40
0.4094835004
 40
0.5236207508
 40
0.6329791609
 40
0.7448218248
 40
0.8659417783
 40
1.0
 40
1.0
 40
1.0
 40
1.0
 10
-28.0700295946
 20
30.2716444006
 30
0.0
 10
-28.0700310334
 20
30.3037071092
 30
0.0
 10
-28.0658666967
 20
30.3653428882
 30
0.0
 10
-28.0450837239
 20
30.4516337564
 30
0.0
 10
-28.0096597319
 20
30.5250976654
 30
0.0
 10
-27.9595357482
 20
30.5823005729
 30
0.0
 10
-27.8957002613
 20
30.6191170534
 30
0.0
 10
-27.8217637998
 20
30.6324561502
 30
0.0
 10
-27.7423405542
 20
30.6222557914
 30
0.0
 10
-27.6906473986
 20
30.6020785392
 30
0.0
 10
-27.6648068228
 20
30.5891548842
 30
0.0
 11
-28.0700295946
 21
30.2716444006
 31
0.0
 11
-28.0628841703
 21
30.3675667571
 31
0.0
 11
-28.0413216343
 21
30.4532019563
 31
0.0
 11
-28.0055019516
 21
30.5250239534
 31
0.0
 11
-27.9561553339
 21
30.5798948608
 31
0.0
 11
-27.8947877866
 21
30.6150152864
 31
0.0
 11
-27.8237453282
 21
30.6285100659
 31
0.0
 11
-27.7459350759
 21
30.6196673812
 31
0.0
 11
-27.6648068228
 21
30.5891548842
 31
0.0
  0
SPLINE
  5
3E5
100
AcDbEntity
  8
RACCORDO
100
AcDbSpline
 62
7
  6
CONTINUOUS
 70
0
 71
3
 72
11
 73
7
 74
5
 42
0.0000001
 43
0.0000001
 44
0.0000000001
 12
0.407037927
 22
0.1895225457
 32
0.0
 13
0.0027915047
 23
0.4489887269
 33
0.0
 40
0.0
 40
0.0
 40
0.0
 40
0.0
 40
0.2166726031
 40
0.4495053433
 40
0.7094831531
 40
1.0
 40
1.0
 40
1.0
 40
1.0
 10
22.6344786415
 20
-37.3802561768
 30
0.0
 10
22.6638766306
 20
-37.3665680624
 30
0.0
 10
22.7198213294
 20
-37.3260802055
 30
0.0
 10
22.7801300843
 20
-37.2366285994
 30
0.0
 10
22.8165926534
 20
-37.1239612624
 30
0.0
 10
22.8241844409
 20
-37.041294429
 30
0.0
 10
22.8244547673
 20
-36.9978148326
 30
0.0
 11
22.6344786415
 21
-37.3802561768
 31
0.0
 11
22.7136893698
 21
-37.323775059
 31
0.0
 11
22.7735923983
 21
-37.2380982841
 31
0.0
 11
22.8111492267
 21
-37.1275757589
 31
0.0
 11
22.8244547673
 21
-36.9978148326
 31
0.0
  0
SPLINE
  5
3E6
100
AcDbEntity
  8
RACCORDO
100
AcDbSpline
 62
7
  6
CONTINUOUS
 70
0
 71
3
 72
11
 73
7
 74
5
 42
0.0000001
 43
0.0000001
 44
0.0000000001
 12
-0.7725966311
 22
0.3861795171
 32
0.0
 13
0.0000393165
 23
0.8637361705
 33
0.0
 40
0.0
 40
0.0
 40
0.0
 40
0.0
 40
0.2302795812
 40
0.4899447778
 40
0.754304662
 40
1.0
 40
1.0
 40
1.0
 40
1.0
 10
-27.6648068228
 20
-10.2429032467
 30
0.0
 10
-27.7241112323
 20
-10.2132601608
 30
0.0
 10
-27.8372240707
 20
-10.1237788909
 30
0.0
 10
-27.9647125516
 20
-9.9454158146
 30
0.0
 10
-28.0483621672
 20
-9.7380974449
 30
0.0
 10
-28.0700328145
 20
-9.5909086414
 30
0.0
 10
-28.0700295946
 20
-9.5201699913
 30
0.0
 11
-27.6648068228
 21
-10.2429032467
 31
0.0
 11
-27.8237451533
 21
-10.123320067
 31
0.0
 11
-27.9561552634
 21
-9.9422949909
 31
0.0
 11
-28.0413216102
 21
-9.7304352079
 31
0.0
 11
-28.0700295946
 21
-9.5201699913
 31
0.0
  0
SPLINE
  5
3E7
100
AcDbEntity
  8
0
100
AcDbSpline
 62
7
  6
CONTINUOUS
 70
0
 71
3
 72
9
 73
5
 74
3
 42
0.0000001
 43
0.0000001
 44
0.0000000001
 12
-0.0819756443
 22
0.0180227795
 32
0.0
 13
-0.0758843483
 23
0.0358663146
 33
0.0
 40
0.0
 40
0.0
 40
0.0
 40
0.0
 40
0.2423818729
 40
1.0
 40
1.0
 40
1.0
 40
1.0
 10
-1.3331689521
 20
-24.3286059691
 30
0.0
 10
-1.3397920888
 20
-24.3271498374
 30
0.0
 10
-1.3668717708
 20
-24.3200214727
 30
0.0
 10
-1.3929229015
 20
-24.3094016746
 30
0.0
 10
-1.4120866874
 20
-24.3003440179
 30
0.0
 11
-1.3331689521
 21
-24.3286059691
 31
0.0
 11
-1.3528589105
 21
-24.3234891465
 31
0.0
 11
-1.4120866874
 21
-24.3003440179
 31
0.0
  0
SPLINE
  5
3E8
100
AcDbEntity
  8
RACCORDO
100
AcDbSpline
 62
7
  6
CONTINUOUS
 70
0
 71
3
 72
9
 73
5
 74
3
 42
0.0000001
 43
0.0000001
 44
0.0000000001
 12
-0.1260316343
 22
-0.0657101216
 32
0.0
 13
-0.1032641788
 23
-0.0976642324
 33
0.0
 40
0.0
 40
0.0
 40
0.0
 40
0.0
 40
0.2371046482
 40
1.0
 40
1.0
 40
1.0
 40
1.0
 10
-25.8729854093
 20
-8.7496146101
 30
0.0
 10
-25.8829463047
 20
-8.7548080019
 30
0.0
 10
-25.9240610232
 20
-8.7784214908
 30
0.0
 10
-25.9614775124
 20
-8.8082026704
 30
0.0
 10
-25.9877374331
 20
-8.8330385334
 30
0.0
 11
-25.8729854093
 21
-8.7496146101
 31
0.0
 11
-25.9022353771
 21
-8.7663524769
 31
0.0
 11
-25.9877374331
 21
-8.8330385334
 31
0.0
  0
SPLINE
  5
3E9
100
AcDbEntity
  8
RACCORDO
100
AcDbSpline
 62
7
  6
CONTINUOUS
 70
0
 71
3
 72
9
 73
5
 74
3
 42
0.0000001
 43
0.0000001
 44
0.0000000001
 12
-0.1370511044
 22
-0.0578504483
 32
0.0
 13
-0.1164663607
 23
-0.0925487246
 33
0.0
 40
0.0
 40
0.0
 40
0.0
 40
0.0
 40
0.2394515366
 40
1.0
 40
1.0
 40
1.0
 40
1.0
 10
-25.8797098854
 20
-8.7452484086
 30
0.0
 10
-25.8906489179
 20
-8.7498658682
 30
0.0
 10
-25.9355775669
 20
-8.7709242469
 30
0.0
 10
-25.9773149795
 20
-8.7985269514
 30
0.0
 10
-26.0068410834
 20
-8.8219895482
 30
0.0
 11
-25.8797098854
 21
-8.7452484086
 31
0.0
 11
-25.9119824099
 21
-8.7603260227
 31
0.0
 11
-26.0068410834
 21
-8.8219895482
 31
0.0
  0
SPLINE
  5
3EA
100
AcDbEntity
  8
RACCORDO
100
AcDbSpline
 62
7
  6
CONTINUOUS
 70
0
 71
3
 72
9
 73
5
 74
3
 42
0.0000001
 43
0.0000001
 44
0.0000000001
 12
-0.0583420853
 22
-0.0361533016
 32
0.0
 13
-0.062116526
 23
-0.0291958445
 33
0.0
 40
0.0
 40
0.0
 40
0.0
 40
0.0
 40
0.2435064218
 40
1.0
 40
1.0
 40
1.0
 40
1.0
 10
-26.1164793353
 20
-8.4042483766
 30
0.0
 10
-26.1212148928
 20
-8.4071828969
 30
0.0
 10
-26.1408500386
 20
-8.4189296295
 30
0.0
 10
-26.1611911434
 20
-8.4294851704
 30
0.0
 10
-26.1768547277
 20
-8.4368473266
 30
0.0
 11
-26.1164793353
 21
-8.4042483766
 31
0.0
 11
-26.1308193211
 21
-8.4128330744
 31
0.0
 11
-26.1768547277
 21
-8.4368473266
 31
0.0
  0
SPLINE
  5
3EB
100
AcDbEntity
  8
RACCORDO
100
AcDbSpline
 62
7
  6
CONTINUOUS
 70
0
 71
3
 72
9
 73
5
 74
3
 42
0.0000001
 43
0.0000001
 44
0.0000000001
 12
-0.0589857865
 22
-0.0284807627
 32
0.0
 13
-0.0618223008
 23
-0.0216443983
 33
0.0
 40
0.0
 40
0.0
 40
0.0
 40
0.0
 40
0.2421759401
 40
1.0
 40
1.0
 40
1.0
 40
1.0
 10
-26.1169665993
 20
-8.3998603517
 30
0.0
 10
-26.1217282454
 20
-8.4021594702
 30
0.0
 10
-26.1415374902
 20
-8.4113466618
 30
0.0
 10
-26.1618907574
 20
-8.4193458641
 30
0.0
 10
-26.1775075664
 20
-8.4248134127
 30
0.0
 11
-26.1169665993
 21
-8.3998603517
 31
0.0
 11
-26.1313547969
 21
-8.4065396291
 31
0.0
 11
-26.1775075664
 21
-8.4248134127
 31
0.0
  0
SPLINE
  5
3EC
100
AcDbEntity
  8
0
100
AcDbSpline
 62
7
  6
CONTINUOUS
 70
0
 71
3
 72
10
 73
6
 74
4
 42
0.0000001
 43
0.0000001
 44
0.0000000001
 12
-0.1538658196
 22
-0.0769328856
 32
0.0
 13
-0.1555300032
 23
0.0735103899
 33
0.0
 40
0.0
 40
0.0
 40
0.0
 40
0.0
 40
0.4571693223
 40
0.7225207022
 40
1.0
 40
1.0
 40
1.0
 40
1.0
 10
-1.3869941767
 20
-24.3940780273
 30
0.0
 10
-1.4104417542
 20
-24.4058018123
 30
0.0
 10
-1.4556024382
 20
-24.4057033445
 30
0.0
 10
-1.5102525642
 20
-24.3899636211
 30
0.0
 10
-1.5391225916
 20
-24.3778538998
 30
0.0
 10
-1.5535080436
 20
-24.371054696
 30
0.0
 11
-1.3869941767
 21
-24.3940780273
 31
0.0
 11
-1.4653199006
 21
-24.401163591
 31
0.0
 11
-1.5093996275
 21
-24.3893024696
 31
0.0
 11
-1.5535080436
 21
-24.371054696
 31
0.0
  0
SPLINE
  5
3ED
100
AcDbEntity
  8
RACCORDO
100
AcDbSpline
 62
7
  6
CONTINUOUS
 70
0
 71
3
 72
11
 73
7
 74
5
 42
0.0000001
 43
0.0000001
 44
0.0000000001
 12
0.0000149406
 22
-0.1443839658
 32
0.0
 13
0.129140946
 23
-0.0645704723
 33
0.0
 40
0.0
 40
0.0
 40
0.0
 40
0.0
 40
0.2065459792
 40
0.4344524192
 40
0.697695169
 40
1.0
 40
1.0
 40
1.0
 40
1.0
 10
-29.8103351002
 20
-10.8267110632
 30
0.0
 10
-29.8103340715
 20
-10.8366517058
 30
0.0
 10
-29.8059653158
 20
-10.8577247204
 30
0.0
 10
-29.7876204733
 20
-10.8864852098
 30
0.0
 10
-29.7590264935
 20
-10.912285191
 30
0.0
 10
-29.7354937177
 20
-10.92627041
 30
0.0
 10
-29.722480407
 20
-10.9327770653
 30
0.0
 11
-29.8103351002
 21
-10.8267110632
 31
0.0
 11
-29.8045856422
 21
-10.8559735154
 31
0.0
 11
-29.7875191294
 21
-10.8841078598
 31
0.0
 11
-29.7597512946
 21
-10.9100608534
 31
0.0
 11
-29.722480407
 21
-10.9327770653
 31
0.0
  0
SPLINE
  5
3EE
100
AcDbEntity
  8
RACCORDO
100
AcDbSpline
 62
7
  6
CONTINUOUS
 70
0
 71
3
 72
11
 73
7
 74
5
 42
0.0000001
 43
0.0000001
 44
0.0000000001
 12
0.0000149435
 22
-0.1443839616
 32
0.0
 13
0.1291409438
 23
-0.0645704673
 33
0.0
 40
0.0
 40
0.0
 40
0.0
 40
0.0
 40
0.2065459795
 40
0.4344524194
 40
0.6976951678
 40
1.0
 40
1.0
 40
1.0
 40
1.0
 10
-29.8103351002
 20
33.4427682838
 30
0.0
 10
-29.8103340713
 20
33.4328276415
 30
0.0
 10
-29.8059653154
 20
33.4117546275
 30
0.0
 10
-29.7876204725
 20
33.3829941396
 30
0.0
 10
-29.759026493
 20
33.3571941598
 30
0.0
 10
-29.7354937175
 20
33.3432089418
 30
0.0
 10
-29.722480407
 20
33.336702287
 30
0.0
 11
-29.8103351002
 21
33.4427682838
 31
0.0
 11
-29.8045856417
 21
33.4135058325
 31
0.0
 11
-29.7875191287
 21
33.3853714894
 31
0.0
 11
-29.7597512943
 21
33.3594184973
 31
0.0
 11
-29.722480407
 21
33.336702287
 31
0.0
  0
SPLINE
  5
3EF
100
AcDbEntity
  8
0
100
AcDbSpline
 62
7
  6
CONTINUOUS
 70
0
 71
3
 72
18
 73
14
 74
12
 42
0.0000001
 43
0.0000001
 44
0.0000000001
 12
0.9412015727
 22
0.4705978962
 32
0.0
 13
-0.7660302285
 23
0.7214710455
 33
0.0
 40
0.0
 40
0.0
 40
0.0
 40
0.0
 40
0.0457943283
 40
0.0910579481
 40
0.1389648723
 40
0.1905315768
 40
0.3034454306
 40
0.4295778623
 40
0.5663524613
 40
0.7114676499
 40
0.8584343831
 40
0.9305901698
 40
1.0
 40
1.0
 40
1.0
 40
1.0
 10
-1.0477631633
 20
-24.6041795704
 30
0.0
 10
-1.0333959321
 20
-24.5969959989
 30
0.0
 10
-1.0053075329
 20
-24.5816194553
 30
0.0
 10
-0.9669785564
 20
-24.5508490751
 30
0.0
 10
-0.9361166002
 20
-24.5099784065
 30
0.0
 10
-0.9028584329
 20
-24.442963151
 30
0.0
 10
-0.8801109444
 20
-24.3421927281
 30
0.0
 10
-0.8790524417
 20
-24.2097931235
 30
0.0
 10
-0.9009797859
 20
-24.0676451411
 30
0.0
 10
-0.9504928883
 20
-23.9247743254
 30
0.0
 10
-1.0122639057
 20
-23.8121788583
 30
0.0
 10
-1.0718782439
 20
-23.7303034188
 30
0.0
 10
-1.1050260527
 20
-23.6930837606
 30
0.0
 10
-1.1227493954
 20
-23.6763913663
 30
0.0
 11
-1.0477631633
 21
-24.6041795704
 31
0.0
 11
-1.0058957661
 21
-24.580319345
 31
0.0
 11
-0.96908397
 21
-24.5500940353
 31
0.0
 11
-0.9382036709
 21
-24.5102469002
 31
0.0
 11
-0.91373105
 21
-24.4618155
 31
0.0
 11
-0.885170153
 21
-24.346480642
 31
0.0
 11
-0.8825048745
 21
-24.2137789969
 31
0.0
 11
-0.9046270838
 21
-24.0715622002
 31
0.0
 11
-0.954182204
 21
-23.9271227457
 31
0.0
 11
-1.0286004408
 21
-23.7915527081
 31
0.0
 11
-1.0734584219
 21
-23.7302910513
 31
0.0
 11
-1.1227493954
 21
-23.6763913663
 31
0.0
  0
SPLINE
  5
3F0
100
AcDbEntity
  8
0
100
AcDbSpline
 62
7
  6
CONTINUOUS
 70
0
 71
3
 72
18
 73
14
 74
12
 42
0.0000001
 43
0.0000001
 44
0.0000000001
 12
0.9411997484
 22
0.4705999128
 32
0.0
 13
-0.7660296972
 23
0.7214705451
 33
0.0
 40
0.0
 40
0.0
 40
0.0
 40
0.0
 40
0.0457942916
 40
0.0910579154
 40
0.1389648734
 40
0.1905316077
 40
0.3034455034
 40
0.4295779568
 40
0.5663525553
 40
0.7114677241
 40
0.8584344205
 40
0.9305901879
 40
1.0
 40
1.0
 40
1.0
 40
1.0
 10
-1.1891838626
 20
-24.67488992
 30
0.0
 10
-1.1748166707
 20
-24.6677063235
 30
0.0
 10
-1.1467283114
 20
-24.6523297737
 30
0.0
 10
-1.1083994646
 20
-24.6215592788
 30
0.0
 10
-1.0775376287
 20
-24.5806885401
 30
0.0
 10
-1.0442795975
 20
-24.5136732353
 30
0.0
 10
-1.021532251
 20
-24.4129028275
 30
0.0
 10
-1.0204738395
 20
-24.2805032941
 30
0.0
 10
-1.0424012491
 20
-24.1383554231
 30
0.0
 10
-1.091914367
 20
-23.9954847469
 30
0.0
 10
-1.1536853548
 20
-23.8828893971
 30
0.0
 10
-1.213299646
 20
-23.8010140426
 30
0.0
 10
-1.2464474259
 20
-23.7637944227
 30
0.0
 10
-1.2641707517
 20
-23.7471020444
 30
0.0
 11
-1.1891838626
 21
-24.67488992
 31
0.0
 11
-1.1473165705
 21
-24.6510296557
 31
0.0
 11
-1.1105048835
 21
-24.6208042584
 31
0.0
 11
-1.0796246912
 21
-24.5809570398
 31
0.0
 11
-1.05515217
 21
-24.5325255962
 31
0.0
 11
-1.0265914388
 21
-24.4171907368
 31
0.0
 11
-1.0239262655
 21
-24.2844891587
 31
0.0
 11
-1.0460485397
 21
-24.1422724737
 31
0.0
 11
-1.0956036772
 21
-23.9978331593
 31
0.0
 11
-1.1700218763
 21
-23.8622632674
 31
0.0
 11
-1.214879822
 21
-23.8010016751
 31
0.0
 11
-1.2641707517
 21
-23.7471020444
 31
0.0
  0
SPLINE
  5
3F1
100
AcDbEntity
  8
RACCORDO
100
AcDbSpline
 62
7
  6
CONTINUOUS
 70
0
 71
3
 72
11
 73
7
 74
5
 42
0.0000001
 43
0.0000001
 44
0.0000000001
 12
-0.1689125333
 22
0.0845958693
 32
0.0
 13
-0.0000000007
 23
0.1889124268
 33
0.0
 40
0.0
 40
0.0
 40
0.0
 40
0.0
 40
0.2171672883
 40
0.4503628529
 40
0.710428482
 40
1.0
 40
1.0
 40
1.0
 40
1.0
 10
22.1990956429
 20
-37.3631953995
 30
0.0
 10
22.1868682173
 20
-37.357071581
 30
0.0
 10
22.1637225697
 20
-37.3394774006
 30
0.0
 10
22.1389071732
 20
-37.3014312653
 30
0.0
 10
22.1240879875
 20
-37.2539114101
 30
0.0
 10
22.1211255877
 20
-37.2191720169
 30
0.0
 10
22.1211255876
 20
-37.2009374642
 30
0.0
 11
22.1990956429
 21
-37.3631953995
 31
0.0
 11
22.1662703238
 21
-37.3385864938
 31
0.0
 11
22.1416096859
 21
-37.3020821472
 31
0.0
 11
22.1263127265
 21
-37.2553946383
 31
0.0
 11
22.1211255876
 21
-37.2009374642
 31
0.0
  0
SPLINE
  5
3F2
100
AcDbEntity
  8
RACCORDO
100
AcDbSpline
 62
7
  6
CONTINUOUS
 70
0
 71
3
 72
11
 73
7
 74
5
 42
0.0000001
 43
0.0000001
 44
0.0000000001
 12
-0.1689125355
 22
0.0845958709
 32
0.0
 13
-0.0000000045
 23
0.1889124295
 33
0.0
 40
0.0
 40
0.0
 40
0.0
 40
0.0
 40
0.2171672898
 40
0.450362856
 40
0.7104284838
 40
1.0
 40
1.0
 40
1.0
 40
1.0
 10
-29.3617107142
 20
-11.5827922209
 30
0.0
 10
-29.37393814
 20
-11.5766684023
 30
0.0
 10
-29.3970837881
 20
-11.5590742214
 30
0.0
 10
-29.4218991852
 20
-11.5210280857
 30
0.0
 10
-29.4367183721
 20
-11.4735082303
 30
0.0
 10
-29.4396807724
 20
-11.4387688368
 30
0.0
 10
-29.4396807729
 20
-11.4205342839
 30
0.0
 11
-29.3617107142
 21
-11.5827922209
 31
0.0
 11
-29.3945360339
 21
-11.5581833147
 31
0.0
 11
-29.4191966727
 21
-11.5216789675
 31
0.0
 11
-29.434493633
 21
-11.4749914584
 31
0.0
 11
-29.4396807729
 21
-11.4205342839
 31
0.0
  0
SPLINE
  5
3F3
100
AcDbEntity
  8
RACCORDO
100
AcDbSpline
 62
7
  6
CONTINUOUS
 70
0
 71
3
 72
15
 73
11
 74
9
 42
0.0000001
 43
0.0000001
 44
0.0000000001
 12
0.0000285072
 22
0.4348568756
 32
0.0
 13
0.3889721042
 23
-0.1944253206
 33
0.0
 40
0.0
 40
0.0
 40
0.0
 40
0.0
 40
0.1489156736
 40
0.2843869688
 40
0.4071908649
 40
0.5206712055
 40
0.6305281685
 40
0.7435187225
 40
0.8655203097
 40
1.0
 40
1.0
 40
1.0
 40
1.0
 10
-29.722480407
 20
33.336702287
 30
0.0
 10
-29.722478992
 20
33.3582879552
 30
0.0
 10
-29.7193574769
 20
33.399627491
 30
0.0
 10
-29.7038863735
 20
33.4570105772
 30
0.0
 10
-29.6780824659
 20
33.5049830729
 30
0.0
 10
-29.6424622322
 20
33.5414062266
 30
0.0
 10
-29.5983502856
 20
33.5641373855
 30
0.0
 10
-29.5481545618
 20
33.5718306878
 30
0.0
 10
-29.4945121963
 20
33.5647507933
 30
0.0
 10
-29.4594003942
 20
33.5515169598
 30
0.0
 10
-29.4419641115
 20
33.5428015408
 30
0.0
 11
-29.722480407
 21
33.336702287
 31
0.0
 11
-29.7171030692
 21
33.4012356419
 31
0.0
 11
-29.7011727099
 21
33.4579514714
 31
0.0
 11
-29.6752974523
 21
33.5046661085
 31
0.0
 11
-29.6404603944
 21
33.5396171533
 31
0.0
 11
-29.5979813811
 21
33.5614735651
 31
0.0
 11
-29.5494863993
 21
33.569376564
 31
0.0
 11
-29.4968048572
 21
33.5631075733
 31
0.0
 11
-29.4419641115
 21
33.5428015408
 31
0.0
  0
SPLINE
  5
3F4
100
AcDbEntity
  8
RACCORDO
100
AcDbSpline
 62
7
  6
CONTINUOUS
 70
0
 71
3
 72
11
 73
7
 74
5
 42
0.0000001
 43
0.0000001
 44
0.0000000001
 12
-0.1291394801
 22
0.0645697401
 32
0.0
 13
0.0000513271
 23
0.144382319
 33
0.0
 40
0.0
 40
0.0
 40
0.0
 40
0.0
 40
0.3021491765
 40
0.5655722792
 40
0.7935305764
 40
1.0
 40
1.0
 40
1.0
 40
1.0
 10
20.7514744093
 20
5.8608923986
 30
0.0
 10
20.7384679468
 20
5.8673956299
 30
0.0
 10
20.7149431309
 20
5.8813913092
 30
0.0
 10
20.6863274512
 20
5.9071778258
 30
0.0
 10
20.6680044238
 20
5.935955901
 30
0.0
 10
20.6636068712
 20
5.9570215707
 30
0.0
 10
20.6636104037
 20
5.9669584155
 30
0.0
 11
20.7514744093
 21
5.8608923986
 31
0.0
 11
20.7142255421
 21
5.8836006053
 31
0.0
 11
20.6864331653
 21
5.9095648428
 31
0.0
 11
20.6693700745
 21
5.9377095821
 31
0.0
 11
20.6636104037
 21
5.9669584155
 31
0.0
  0
SPLINE
  5
3F5
100
AcDbEntity
  8
RACCORDO
100
AcDbSpline
 62
7
  6
CONTINUOUS
 70
0
 71
3
 72
11
 73
7
 74
5
 42
0.0000001
 43
0.0000001
 44
0.0000000001
 12
0.0000000198
 22
-0.1889139626
 32
0.0
 13
0.1689716007
 23
-0.0844812607
 33
0.0
 40
0.0
 40
0.0
 40
0.0
 40
0.0
 40
0.2895956155
 40
0.5496517738
 40
0.7828348426
 40
1.0
 40
1.0
 40
1.0
 40
1.0
 10
20.3462516375
 20
6.583625654
 30
0.0
 10
20.3462516394
 20
6.5653894356
 30
0.0
 10
20.3492093851
 20
6.5306479571
 30
0.0
 10
20.3640404792
 20
6.4831303459
 30
0.0
 10
20.3888490088
 20
6.4450861809
 30
0.0
 10
20.4119875179
 20
6.4274779705
 30
0.0
 10
20.4242190993
 20
6.4213625085
 30
0.0
 11
20.3462516375
 21
6.583625654
 31
0.0
 11
20.3514379666
 21
6.5291633831
 31
0.0
 11
20.3667401529
 21
6.4824790496
 31
0.0
 11
20.3913954283
 21
6.4459734972
 31
0.0
 11
20.4242190993
 21
6.4213625085
 31
0.0
  0
SPLINE
  5
3F6
100
AcDbEntity
  8
RACCORDO
100
AcDbSpline
 62
7
  6
CONTINUOUS
 70
0
 71
3
 72
11
 73
7
 74
5
 42
0.0000001
 43
0.0000001
 44
0.0000000001
 12
0.0
 22
-0.18889539
 32
0.0
 13
0.1689407751
 23
-0.084501378
 33
0.0
 40
0.0
 40
0.0
 40
0.0
 40
0.0
 40
0.2895923905
 40
0.5496493617
 40
0.7828350679
 40
1.0
 40
1.0
 40
1.0
 40
1.0
 10
-27.6648068228
 20
30.5891548842
 30
0.0
 10
-27.6648068228
 20
30.5709206617
 30
0.0
 10
-27.6618496929
 20
30.5361827873
 30
0.0
 10
-27.647021954
 20
30.4886693963
 30
0.0
 10
-27.622219147
 20
30.4506268825
 30
0.0
 10
-27.5990855317
 20
30.4330170686
 30
0.0
 10
-27.5868561944
 20
30.4269001566
 30
0.0
 11
-27.6648068228
 21
30.5891548842
 31
0.0
 11
-27.6596216901
 21
30.5346985142
 31
0.0
 11
-27.6443229697
 21
30.4880179658
 31
0.0
 11
-27.6196730784
 21
30.4515134022
 31
0.0
 11
-27.5868561944
 21
30.4269001566
 31
0.0
  0
SPLINE
  5
3F7
100
AcDbEntity
  8
RACCORDO
100
AcDbSpline
 62
7
  6
CONTINUOUS
 70
0
 71
3
 72
11
 73
7
 74
5
 42
0.0000001
 43
0.0000001
 44
0.0000000001
 12
0.3513450533
 22
-0.1756717113
 32
0.0
 13
0.3707502825
 23
0.1298003263
 33
0.0
 40
0.0
 40
0.0
 40
0.0
 40
0.0
 40
0.230199588
 40
0.4886872503
 40
0.753166985
 40
1.0
 40
1.0
 40
1.0
 40
1.0
 10
-28.0700295946
 20
30.2716444006
 30
0.0
 10
-28.0430697657
 20
30.2581645487
 30
0.0
 10
-27.9816446292
 20
30.2379023078
 30
0.0
 10
-27.8833834354
 20
30.2253521401
 30
0.0
 10
-27.7822237832
 20
30.2295725802
 30
0.0
 10
-27.7163290993
 20
30.2441579425
 30
0.0
 10
-27.6858246293
 20
30.2548376111
 30
0.0
 11
-28.0700295946
 21
30.2716444006
 31
0.0
 11
-27.9846830456
 21
30.2417643808
 31
0.0
 11
-27.8840442944
 21
30.2282813885
 31
0.0
 11
-27.7802518531
 21
30.232821673
 31
0.0
 11
-27.6858246293
 21
30.2548376111
 31
0.0
  0
SPLINE
  5
3F8
100
AcDbEntity
  8
RACCORDO
100
AcDbSpline
 62
7
  6
CONTINUOUS
 70
0
 71
3
 72
11
 73
7
 74
5
 42
0.0000001
 43
0.0000001
 44
0.0000000001
 12
0.351344799
 22
-0.1756723995
 32
0.0
 13
0.3707501259
 23
0.1298010165
 33
0.0
 40
0.0
 40
0.0
 40
0.0
 40
0.0
 40
0.2301996678
 40
0.4886873034
 40
0.7531669766
 40
1.0
 40
1.0
 40
1.0
 40
1.0
 10
-28.0700295946
 20
-9.5201699913
 30
0.0
 10
-28.0430697759
 20
-9.5336499006
 30
0.0
 10
-27.9816446412
 20
-9.5539122301
 30
0.0
 10
-27.883383429
 20
-9.5664624423
 30
0.0
 10
-27.782223764
 20
-9.5622419558
 30
0.0
 10
-27.7163290875
 20
-9.5476565065
 30
0.0
 10
-27.6858246293
 20
-9.5369767808
 30
0.0
 11
-28.0700295946
 21
-9.5201699913
 31
0.0
 11
-27.9846830387
 21
-9.5500501422
 31
0.0
 11
-27.884044283
 21
-9.5635331788
 31
0.0
 11
-27.7802518467
 21
-9.5589928481
 31
0.0
 11
-27.6858246293
 21
-9.5369767808
 31
0.0
  0
SPLINE
  5
3F9
100
AcDbEntity
  8
RACCORDO
100
AcDbSpline
 62
7
  6
CONTINUOUS
 70
0
 71
3
 72
11
 73
7
 74
5
 42
0.0000001
 43
0.0000001
 44
0.0000000001
 12
0.5251876529
 22
-0.262645468
 32
0.0
 13
0.0000611188
 23
-0.5872007399
 33
0.0
 40
0.0
 40
0.0
 40
0.0
 40
0.0
 40
0.2296791434
 40
0.4882139181
 40
0.7532029516
 40
1.0
 40
1.0
 40
1.0
 40
1.0
 10
22.1211255876
 20
7.7612566913
 30
0.0
 10
22.1613338044
 20
7.7411486292
 30
0.0
 10
22.23817049
 20
7.6810455082
 30
0.0
 10
22.3268943659
 20
7.5617085909
 30
0.0
 10
22.3872599565
 20
7.422151979
 30
0.0
 10
22.4039201938
 20
7.3218059424
 30
0.0
 10
22.4039252218
 20
7.2734994726
 30
0.0
 11
22.1211255876
 21
7.7612566913
 31
0.0
 11
22.2293515559
 21
7.6807802757
 31
0.0
 11
22.3210997524
 21
7.5598294814
 31
0.0
 11
22.3824000843
 21
7.4168113839
 31
0.0
 11
22.4039252218
 21
7.2734994726
 31
0.0
  0
SPLINE
  5
3FA
100
AcDbEntity
  8
RACCORDO
100
AcDbSpline
 62
7
  6
CONTINUOUS
 70
0
 71
3
 72
9
 73
5
 74
3
 42
0.0000001
 43
0.0000001
 44
0.0000000001
 12
-0.0000000368
 22
0.3499494931
 32
0.0
 13
0.2542495249
 23
0.2404616952
 33
0.0
 40
0.0
 40
0.0
 40
0.0
 40
0.0
 40
0.4929880305
 40
1.0
 40
1.0
 40
1.0
 40
1.0
 10
-27.6648068228
 20
-10.2429032467
 30
0.0
 10
-27.6648068288
 20
-10.1853962762
 30
0.0
 10
-27.6350330574
 20
-10.0688710091
 30
0.0
 10
-27.5681974014
 20
-9.9696136254
 30
0.0
 10
-27.5252282173
 20
-9.9289746395
 30
0.0
 11
-27.6648068228
 21
-10.2429032467
 31
0.0
 11
-27.6264431864
 21
-10.0747018903
 31
0.0
 11
-27.5252282173
 21
-9.9289746395
 31
0.0
  0
SPLINE
  5
3FB
100
AcDbEntity
  8
RACCORDO
100
AcDbSpline
 62
7
  6
CONTINUOUS
 70
0
 71
3
 72
9
 73
5
 74
3
 42
0.0000001
 43
0.0000001
 44
0.0000000001
 12
0.0
 22
0.3499494896
 32
0.0
 13
0.2542494972
 23
0.2404617193
 33
0.0
 40
0.0
 40
0.0
 40
0.0
 40
0.0
 40
0.4929880284
 40
1.0
 40
1.0
 40
1.0
 40
1.0
 10
20.3462516375
 20
-34.2484324768
 30
0.0
 10
20.3462516375
 20
-34.1909255072
 30
0.0
 10
20.3760254147
 20
-34.0744002448
 30
0.0
 10
20.4428610635
 20
-33.9751428598
 30
0.0
 10
20.4858302431
 20
-33.9345038696
 30
0.0
 11
20.3462516375
 21
-34.2484324768
 31
0.0
 11
20.3846152823
 21
-34.080231125
 31
0.0
 11
20.4858302431
 21
-33.9345038696
 31
0.0
  0
SPLINE
  5
3FC
100
AcDbEntity
  8
RACCORDO
100
AcDbSpline
 62
7
  6
CONTINUOUS
 70
0
 71
3
 72
11
 73
7
 74
5
 42
0.0000001
 43
0.0000001
 44
0.0000000001
 12
-0.1290176401
 22
0.0645088591
 32
0.0
 13
-0.0002140763
 23
0.1442459654
 33
0.0
 40
0.0
 40
0.0
 40
0.0
 40
0.0
 40
0.3021029046
 40
0.5655351037
 40
0.79352975
 40
1.0
 40
1.0
 40
1.0
 40
1.0
 10
20.7514744093
 20
-33.9309219932
 30
0.0
 10
20.738482208
 20
-33.9244258886
 30
0.0
 10
20.7149804611
 20
-33.9104462439
 30
0.0
 10
20.6863831818
 20
-33.8846951796
 30
0.0
 10
20.6680526819
 20
-33.8559601225
 30
0.0
 10
20.6636252151
 20
-33.8349216536
 30
0.0
 10
20.6636104816
 20
-33.8249941534
 30
0.0
 11
20.7514744093
 21
-33.9309219932
 31
0.0
 11
20.7142640265
 21
-33.9082425438
 31
0.0
 11
20.6864861312
 21
-33.8823134455
 31
0.0
 11
20.6694105957
 21
-33.8542064448
 31
0.0
 11
20.6636104816
 21
-33.8249941534
 31
0.0
  0
SPLINE
  5
3FD
100
AcDbEntity
  8
RACCORDO
100
AcDbSpline
 62
7
  6
CONTINUOUS
 70
0
 71
3
 72
13
 73
9
 74
7
 42
0.0000001
 43
0.0000001
 44
0.0000000001
 12
-0.0674976152
 22
0.2266372338
 32
0.0
 13
0.2363803959
 23
-0.006683731
 33
0.0
 40
0.0
 40
0.0
 40
0.0
 40
0.0
 40
0.2945425253
 40
0.4247560086
 40
0.5434194907
 40
0.6533395927
 40
0.7606220326
 40
1.0
 40
1.0
 40
1.0
 40
1.0
 10
-27.6858246843
 20
30.2548378308
 30
0.0
 10
-27.692451657
 20
30.2770892652
 30
0.0
 10
-27.6994452517
 20
30.3102787153
 30
0.0
 10
-27.6986760539
 20
30.3532933734
 30
0.0
 10
-27.6925490647
 20
30.3811578031
 30
0.0
 10
-27.6800484752
 20
30.4049643408
 30
0.0
 10
-27.6530673391
 20
30.4299321671
 30
0.0
 10
-27.6238818175
 20
30.4352455662
 30
0.0
 10
-27.605020398
 20
30.4347122536
 30
0.0
 11
-27.6858246843
 21
30.2548378308
 31
0.0
 11
-27.6984988901
 21
30.3233268986
 31
0.0
 11
-27.6975927488
 21
30.3541057794
 31
0.0
 11
-27.6911589564
 21
30.3814191861
 31
0.0
 11
-27.6787334557
 21
30.4042503216
 31
0.0
 11
-27.6600401471
 21
30.4214019065
 31
0.0
 11
-27.605020398
 21
30.4347122536
 31
0.0
  0
SPLINE
  5
3FE
100
AcDbEntity
  8
RACCORDO
100
AcDbSpline
 62
7
  6
CONTINUOUS
 70
0
 71
3
 72
15
 73
11
 74
9
 42
0.0000001
 43
0.0000001
 44
0.0000000001
 12
-0.0000285072
 22
-0.4348568756
 32
0.0
 13
-0.3889721042
 23
0.1944253206
 33
0.0
 40
0.0
 40
0.0
 40
0.0
 40
0.0
 40
0.1489156736
 40
0.2843869688
 40
0.4071908649
 40
0.5206712055
 40
0.6305281685
 40
0.7435187225
 40
0.8655203097
 40
1.0
 40
1.0
 40
1.0
 40
1.0
 10
22.4039252218
 20
-36.9959798797
 30
0.0
 10
22.4039238067
 20
-37.0175655479
 30
0.0
 10
22.4008022916
 20
-37.0589050836
 30
0.0
 10
22.3853311882
 20
-37.1162881698
 30
0.0
 10
22.3595272806
 20
-37.1642606655
 30
0.0
 10
22.3239070469
 20
-37.2006838192
 30
0.0
 10
22.2797951003
 20
-37.2234149782
 30
0.0
 10
22.2295993766
 20
-37.2311082804
 30
0.0
 10
22.175957011
 20
-37.2240283859
 30
0.0
 10
22.1408452089
 20
-37.2107945524
 30
0.0
 10
22.1234089262
 20
-37.2020791335
 30
0.0
 11
22.4039252218
 21
-36.9959798797
 31
0.0
 11
22.398547884
 21
-37.0605132346
 31
0.0
 11
22.3826175247
 21
-37.117229064
 31
0.0
 11
22.356742267
 21
-37.1639437012
 31
0.0
 11
22.3219052091
 21
-37.1988947459
 31
0.0
 11
22.2794261958
 21
-37.2207511578
 31
0.0
 11
22.230931214
 21
-37.2286541566
 31
0.0
 11
22.1782496719
 21
-37.2223851659
 31
0.0
 11
22.1234089262
 21
-37.2020791335
 31
0.0
  0
SPLINE
  5
3FF
100
AcDbEntity
  8
RACCORDO
100
AcDbSpline
 62
7
  6
CONTINUOUS
 70
0
 71
3
 72
12
 73
8
 74
6
 42
0.0000001
 43
0.0000001
 44
0.0000000001
 12
-0.441344934
 22
0.1390635998
 32
0.0
 13
0.1107198175
 23
0.4492940659
 33
0.0
 40
0.0
 40
0.0
 40
0.0
 40
0.0
 40
0.1130791221
 40
0.2328058128
 40
0.4871958177
 40
0.747793034
 40
1.0
 40
1.0
 40
1.0
 40
1.0
 10
-27.525244135
 20
-9.9289680711
 30
0.0
 10
-27.5418797676
 20
-9.9237263412
 30
0.0
 10
-27.5748796354
 20
-9.9084417447
 30
0.0
 10
-27.6335232718
 20
-9.8603355098
 30
0.0
 10
-27.6843089842
 20
-9.7728229002
 30
0.0
 10
-27.7042090141
 20
-9.6543977225
 30
0.0
 10
-27.6951328037
 20
-9.5747488132
 30
0.0
 10
-27.6858247006
 20
-9.5369771154
 30
0.0
 11
-27.525244135
 21
-9.9289680711
 31
0.0
 11
-27.5727631236
 21
-9.9070608633
 31
0.0
 11
-27.6157676138
 21
-9.8721327854
 31
0.0
 11
-27.6770171764
 21
-9.7716073025
 31
0.0
 11
-27.6986476596
 21
-9.652975603
 31
0.0
 11
-27.6858247006
 21
-9.5369771154
 31
0.0
  0
SPLINE
  5
400
100
AcDbEntity
  8
RACCORDO
100
AcDbSpline
 62
7
  6
CONTINUOUS
 70
0
 71
3
 72
11
 73
7
 74
5
 42
0.0000001
 43
0.0000001
 44
0.0000000001
 12
-0.084994152
 22
-0.4356535866
 32
0.0
 13
0.3929170585
 23
-0.2064806009
 33
0.0
 40
0.0
 40
0.0
 40
0.0
 40
0.0
 40
0.2512588128
 40
0.4489107332
 40
0.6470554637
 40
1.0
 40
1.0
 40
1.0
 40
1.0
 10
-26.1768497029
 20
-8.4368509112
 30
0.0
 10
-26.1839682128
 20
-8.4733381789
 30
0.0
 10
-26.1837007717
 20
-8.5412102284
 30
0.0
 10
-26.1602863648
 20
-8.6346531601
 30
0.0
 10
-26.1122303086
 20
-8.7346646369
 30
0.0
 10
-26.0531269277
 20
-8.7976594246
 30
0.0
 10
-26.0069009513
 20
-8.8219514912
 30
0.0
 11
-26.1768497029
 21
-8.4368509112
 31
0.0
 11
-26.178663713
 21
-8.5483616924
 31
0.0
 11
-26.1575408738
 21
-8.6335120796
 31
0.0
 11
-26.1190975972
 21
-8.7126152156
 31
0.0
 11
-26.0069009513
 21
-8.8219514912
 31
0.0
  0
SPLINE
  5
401
100
AcDbEntity
  8
RACCORDO
100
AcDbSpline
 62
7
  6
CONTINUOUS
 70
0
 71
3
 72
12
 73
8
 74
6
 42
0.0000001
 43
0.0000001
 44
0.0000000001
 12
0.1076793122
 22
-0.4047235759
 32
0.0
 13
0.3124884263
 23
-0.2788314735
 33
0.0
 40
0.0
 40
0.0
 40
0.0
 40
0.0
 40
0.1121547113
 40
0.2349960242
 40
0.5039037968
 40
0.7737483018
 40
1.0
 40
1.0
 40
1.0
 40
1.0
 10
-26.1164745047
 20
-8.4042507696
 30
0.0
 10
-26.112448924
 20
-8.4193813215
 30
0.0
 10
-26.1004419033
 20
-8.450095574
 30
0.0
 10
-26.0682671296
 20
-8.5126788479
 30
0.0
 10
-26.0176154888
 20
-8.590218236
 30
0.0
 10
-25.9512532343
 20
-8.6739903825
 30
0.0
 10
-25.9032769046
 20
-8.7242201727
 30
0.0
 10
-25.8797098922
 20
-8.7452488709
 30
0.0
 11
-26.1164745047
 21
-8.4042507696
 31
0.0
 11
-26.1003051133
 21
-8.4483506664
 31
0.0
 11
-26.077104077
 21
-8.4942683709
 31
0.0
 11
-26.0163198323
 21
-8.5890755684
 31
0.0
 11
-25.9460097358
 21
-8.6775523222
 31
0.0
 11
-25.8797098922
 21
-8.7452488709
 31
0.0
  0
SPLINE
  5
402
100
AcDbEntity
  8
RACCORDO
100
AcDbSpline
 62
7
  6
CONTINUOUS
 70
0
 71
3
 72
8
 73
4
 74
2
 42
0.0000001
 43
0.0000001
 44
0.0000000001
 12
0.0059652415
 22
-0.0053567009
 32
0.0
 13
0.0072570612
 23
-0.0034078458
 33
0.0
 40
0.0
 40
0.0
 40
0.0
 40
0.0
 40
1.0
 40
1.0
 40
1.0
 40
1.0
 10
-25.8797098922
 20
-8.7452488709
 30
0.0
 10
-25.8777214784
 20
-8.7470344378
 30
0.0
 10
-25.8754044297
 20
-8.7484786616
 30
0.0
 10
-25.8729854093
 20
-8.7496146101
 30
0.0
 11
-25.8797098922
 21
-8.7452488709
 31
0.0
 11
-25.8729854093
 21
-8.7496146101
 31
0.0
  0
SPLINE
  5
403
100
AcDbEntity
  8
RACCORDO
100
AcDbSpline
 62
7
  6
CONTINUOUS
 70
0
 71
3
 72
12
 73
8
 74
6
 42
0.0000001
 43
0.0000001
 44
0.0000000001
 12
-0.5230246963
 22
0.2615637771
 32
0.0
 13
-0.0000608662
 23
0.5847823858
 33
0.0
 40
0.0
 40
0.0
 40
0.0
 40
0.0
 40
0.2293635132
 40
0.4875027314
 40
0.7523004129
 40
0.8797660388
 40
1.0
 40
1.0
 40
1.0
 40
1.0
 10
-29.4396807729
 20
-11.4205342839
 30
0.0
 10
-29.4796683668
 20
-11.400536555
 30
0.0
 10
-29.5561319886
 20
-11.3408373731
 30
0.0
 10
-29.6445736618
 20
-11.2224108783
 30
0.0
 10
-29.69578946
 20
-11.1049154309
 30
0.0
 10
-29.7180242003
 20
-11.0073246432
 30
0.0
 10
-29.7224779676
 20
-10.9590104787
 30
0.0
 10
-29.722480407
 20
-10.9355735778
 30
0.0
 11
-29.4396807729
 21
-11.4205342839
 31
0.0
 11
-29.5473791472
 21
-11.3405886045
 31
0.0
 11
-29.6388445958
 21
-11.2204987845
 31
0.0
 11
-29.7002830311
 21
-11.0783596347
 31
0.0
 11
-29.7166715717
 21
-11.0056439168
 31
0.0
 11
-29.722480407
 21
-10.9355735778
 31
0.0
  0
SPLINE
  5
404
100
AcDbEntity
  8
RACCORDO
100
AcDbSpline
 62
7
  6
CONTINUOUS
 70
0
 71
3
 72
8
 73
4
 74
2
 42
0.0000001
 43
0.0000001
 44
0.0000000001
 12
-0.0001028668
 22
-0.004416712
 32
0.0
 13
0.0011274426
 23
-0.0042716273
 33
0.0
 40
0.0
 40
0.0
 40
0.0
 40
0.0
 40
1.0
 40
1.0
 40
1.0
 40
1.0
 10
-26.1169665993
 20
-8.3998603517
 30
0.0
 10
-26.1170008883
 20
-8.401332589
 30
0.0
 10
-26.1168503189
 20
-8.4028268938
 30
0.0
 10
-26.1164745047
 20
-8.4042507696
 30
0.0
 11
-26.1169665993
 21
-8.3998603517
 31
0.0
 11
-26.1164745047
 21
-8.4042507696
 31
0.0
  0
SPLINE
  5
405
100
AcDbEntity
  8
RACCORDO
100
AcDbSpline
 62
7
  6
CONTINUOUS
 70
0
 71
3
 72
11
 73
7
 74
5
 42
0.0000001
 43
0.0000001
 44
0.0000000001
 12
-0.0064397843
 22
1.0264956433
 32
0.0
 13
-0.9152946272
 23
0.4647262871
 33
0.0
 40
0.0
 40
0.0
 40
0.0
 40
0.0
 40
0.2466773324
 40
0.5119103822
 40
0.7706310354
 40
1.0
 40
1.0
 40
1.0
 40
1.0
 10
22.8244547673
 20
7.2716645198
 30
0.0
 10
22.823925251
 20
7.3560689221
 30
0.0
 10
22.7939184951
 20
7.5313280683
 30
0.0
 10
22.6879640445
 20
7.7751530364
 30
0.0
 10
22.5332283726
 20
7.9840031547
 30
0.0
 10
22.3995354678
 20
8.08970839
 30
0.0
 10
22.3295554075
 20
8.1252396524
 30
0.0
 11
22.8244547673
 21
7.2716645198
 31
0.0
 11
22.7856306767
 21
7.5218887026
 31
0.0
 11
22.6779502234
 21
7.7719560043
 31
0.0
 11
22.5178044864
 21
7.9838204199
 31
0.0
 11
22.3295554075
 21
8.1252396524
 31
0.0
  0
SPLINE
  5
406
100
AcDbEntity
  8
RACCORDO
100
AcDbSpline
 62
7
  6
CONTINUOUS
 70
0
 71
3
 72
11
 73
7
 74
5
 42
0.0000001
 43
0.0000001
 44
0.0000000001
 12
-0.299686386
 22
0.1475513079
 32
0.0
 13
-0.2939687779
 23
-0.1586369315
 33
0.0
 40
0.0
 40
0.0
 40
0.0
 40
0.0
 40
0.2797829828
 40
0.535973102
 40
0.7731347539
 40
1.0
 40
1.0
 40
1.0
 40
1.0
 10
-29.231250953
 20
33.9056428326
 30
0.0
 10
-29.2592000033
 20
33.9194036143
 30
0.0
 10
-29.3150627402
 20
33.9414922528
 30
0.0
 10
-29.4005434634
 20
33.9564905511
 30
0.0
 10
-29.4814232523
 20
33.950884697
 30
0.0
 10
-29.5307734345
 20
33.9329603065
 30
0.0
 10
-29.5530038676
 20
33.9209639043
 30
0.0
 11
-29.231250953
 21
33.9056428326
 31
0.0
 11
-29.3184472704
 21
33.93927881
 31
0.0
 11
-29.402878191
 21
33.9532433964
 31
0.0
 11
-29.4818586574
 21
33.9470658475
 31
0.0
 11
-29.5530038676
 21
33.9209639043
 31
0.0
  0
SPLINE
  5
407
100
AcDbEntity
  8
RACCORDO
100
AcDbSpline
 62
7
  6
CONTINUOUS
 70
0
 71
3
 72
11
 73
7
 74
5
 42
0.0000001
 43
0.0000001
 44
0.0000000001
 12
-0.3869291761
 22
-0.2017363465
 32
0.0
 13
0.0000000104
 23
-0.4363619379
 33
0.0
 40
0.0
 40
0.0
 40
0.0
 40
0.0
 40
0.2307483971
 40
0.4893409449
 40
0.7537520468
 40
1.0
 40
1.0
 40
1.0
 40
1.0
 10
22.3295554065
 20
8.1252396529
 30
0.0
 10
22.2997943108
 20
8.1097228734
 30
0.0
 10
22.2431214538
 20
8.06435888
 30
0.0
 10
22.1777472546
 20
7.975192099
 30
0.0
 10
22.1333448028
 20
7.8714818931
 30
0.0
 10
22.1211255867
 20
7.797074436
 30
0.0
 10
22.1211255876
 20
7.7612566913
 30
0.0
 11
22.3295554065
 21
8.1252396529
 31
0.0
 11
22.2495107099
 21
8.0641554001
 31
0.0
 11
22.1819610732
 21
7.9737679018
 31
0.0
 11
22.1369229641
 21
7.8675423461
 31
0.0
 11
22.1211255876
 21
7.7612566913
 31
0.0
  0
SPLINE
  5
408
100
AcDbEntity
  8
RACCORDO
100
AcDbSpline
 62
7
  6
CONTINUOUS
 70
0
 71
3
 72
11
 73
7
 74
5
 42
0.0000001
 43
0.0000001
 44
0.0000000001
 12
-0.3869291685
 22
-0.2017363581
 32
0.0
 13
0.0000000016
 23
-0.4363619365
 33
0.0
 40
0.0
 40
0.0
 40
0.0
 40
0.0
 40
0.2307483952
 40
0.4893409435
 40
0.7537520457
 40
1.0
 40
1.0
 40
1.0
 40
1.0
 10
-29.2312509516
 20
33.9056428319
 30
0.0
 10
-29.2610120465
 20
33.8901260516
 30
0.0
 10
-29.3176849021
 20
33.8447620578
 30
0.0
 10
-29.3830591022
 20
33.7555952782
 30
0.0
 10
-29.4274615554
 20
33.6518850731
 30
0.0
 10
-29.439680773
 20
33.5774776163
 30
0.0
 10
-29.4396807729
 20
33.5416598715
 30
0.0
 11
-29.2312509516
 21
33.9056428319
 31
0.0
 11
-29.3112956463
 21
33.8445585785
 31
0.0
 11
-29.3788452836
 21
33.754171081
 31
0.0
 11
-29.4238833943
 21
33.6479455261
 31
0.0
 11
-29.4396807729
 21
33.5416598715
 31
0.0
  0
SPLINE
  5
409
100
AcDbEntity
  8
RACCORDO
100
AcDbSpline
 62
7
  6
CONTINUOUS
 70
0
 71
3
 72
11
 73
7
 74
5
 42
0.0000001
 43
0.0000001
 44
0.0000000001
 12
-0.3888881901
 22
-0.1877724818
 32
0.0
 13
-0.3862564227
 23
0.1931282092
 33
0.0
 40
0.0
 40
0.0
 40
0.0
 40
0.0
 40
0.2366411463
 40
0.5012534836
 40
0.7651925891
 40
1.0
 40
1.0
 40
1.0
 40
1.0
 10
22.8244547673
 20
7.271664518
 30
0.0
 10
22.7937791182
 20
7.2568529529
 30
0.0
 10
22.7238209087
 20
7.2357947095
 30
0.0
 10
22.6135211611
 20
7.2260511598
 30
0.0
 10
22.5035738182
 20
7.2367023231
 30
0.0
 10
22.4341571786
 20
7.2583834944
 30
0.0
 10
22.4039252218
 20
7.2734994726
 30
0.0
 11
22.8244547673
 21
7.271664518
 31
0.0
 11
22.7272130983
 21
7.2402406583
 31
0.0
 11
22.6134394024
 21
7.2295778709
 31
0.0
 11
22.5000552211
 21
7.2412318517
 31
0.0
 11
22.4039252218
 21
7.2734994726
 31
0.0
  0
SPLINE
  5
40A
100
AcDbEntity
  8
RACCORDO
100
AcDbSpline
 62
7
  6
CONTINUOUS
 70
0
 71
3
 72
11
 73
7
 74
5
 42
0.0000001
 43
0.0000001
 44
0.0000000001
 12
-0.388888196
 22
-0.1877724662
 32
0.0
 13
-0.3862564261
 23
0.1931281992
 33
0.0
 40
0.0
 40
0.0
 40
0.0
 40
0.0
 40
0.2366411464
 40
0.5012534856
 40
0.7651925916
 40
1.0
 40
1.0
 40
1.0
 40
1.0
 10
22.8244547673
 20
-36.9978148314
 30
0.0
 10
22.7937791178
 20
-37.0126263952
 30
0.0
 10
22.7238209081
 20
-37.0336846373
 30
0.0
 10
22.6135211606
 20
-37.0434281884
 30
0.0
 10
22.503573818
 20
-37.0327770266
 30
0.0
 10
22.4341571786
 20
-37.011095857
 30
0.0
 10
22.4039252218
 20
-36.9959798797
 30
0.0
 11
22.8244547673
 21
-36.9978148314
 31
0.0
 11
22.727213098
 21
-37.0292386891
 31
0.0
 11
22.6134394018
 21
-37.0399014774
 31
0.0
 11
22.5000552204
 21
-37.0282474981
 31
0.0
 11
22.4039252218
 21
-36.9959798797
 31
0.0
  0
SPLINE
  5
40B
100
AcDbEntity
  8
RACCORDO
100
AcDbSpline
 62
7
  6
CONTINUOUS
 70
0
 71
3
 72
15
 73
11
 74
9
 42
0.0000001
 43
0.0000001
 44
0.0000000001
 12
0.0000674495
 22
-0.6465524092
 32
0.0
 13
-0.5783356639
 23
0.289063803
 33
0.0
 40
0.0
 40
0.0
 40
0.0
 40
0.0
 40
0.1487776577
 40
0.2853588652
 40
0.4094904377
 40
0.5236276668
 40
0.6329871457
 40
0.7448331124
 40
0.8659548653
 40
1.0
 40
1.0
 40
1.0
 40
1.0
 10
20.7514744093
 20
-33.9309219932
 30
0.0
 10
20.7514777543
 20
-33.9629861775
 30
0.0
 10
20.747320153
 20
-34.0246234711
 30
0.0
 10
20.7265383657
 20
-34.1109161326
 30
0.0
 10
20.6911093864
 20
-34.1843765723
 30
0.0
 10
20.640985052
 20
-34.2415778392
 30
0.0
 10
20.577146393
 20
-34.278392003
 30
0.0
 10
20.5032057225
 20
-34.291713974
 30
0.0
 10
20.4237880127
 20
-34.2815095246
 30
0.0
 10
20.3720926649
 20
-34.2613483423
 30
0.0
 10
20.3462516375
 20
-34.2484324768
 30
0.0
 11
20.7514744093
 21
-33.9309219932
 31
0.0
 11
20.7443359853
 21
-34.0268493108
 31
0.0
 11
20.7227751047
 21
-34.1124836418
 31
0.0
 11
20.686952369
 21
-34.1843029204
 31
0.0
 11
20.6376044439
 21
-34.2391717435
 31
0.0
 11
20.5762342849
 21
-34.27428772
 31
0.0
 11
20.5051880115
 21
-34.2877703787
 31
0.0
 11
20.427377632
 21
-34.2789247298
 31
0.0
 11
20.3462516375
 21
-34.2484324768
 31
0.0
  0
SPLINE
  5
40C
100
AcDbEntity
  8
0
100
AcDbSpline
 62
7
  6
CONTINUOUS
 70
0
 71
3
 72
9
 73
5
 74
3
 42
0.0000001
 43
0.0000001
 44
0.0000000001
 12
-0.1087199623
 22
0.5446236221
 32
0.0
 13
-0.1090135263
 23
0.5445649374
 33
0.0
 40
0.0
 40
0.0
 40
0.0
 40
0.0
 40
0.4998343578
 40
1.0
 40
1.0
 40
1.0
 40
1.0
 10
-0.8061886108
 20
-25.6127801188
 30
0.0
 10
-0.8243026017
 20
-25.522039586
 30
0.0
 10
-0.8587039692
 20
-25.3401376419
 30
0.0
 10
-0.893968172
 20
-25.1584028479
 30
0.0
 10
-0.9121431121
 20
-25.0676119574
 30
0.0
 11
-0.8061886108
 21
-25.6127801188
 31
0.0
 11
-0.8589081385
 21
-25.340239663
 31
0.0
 11
-0.9121431121
 21
-25.0676119574
 31
0.0
  0
SPLINE
  5
40D
100
AcDbEntity
  8
0
100
AcDbSpline
 62
7
  6
CONTINUOUS
 70
0
 71
3
 72
10
 73
6
 74
4
 42
0.0000001
 43
0.0000001
 44
0.0000000001
 12
-0.0805674382
 22
0.4024850711
 32
0.0
 13
-0.2265076045
 23
0.3423151321
 33
0.0
 40
0.0
 40
0.0
 40
0.0
 40
0.0
 40
0.2356174448
 40
0.6171421405
 40
1.0
 40
1.0
 40
1.0
 40
1.0
 10
-0.9121431121
 20
-25.0676119574
 30
0.0
 10
-0.9184708101
 20
-25.0360011227
 30
0.0
 10
-0.9344311062
 20
-24.9530540549
 30
0.0
 10
-0.9705171474
 20
-24.8209407435
 30
0.0
 10
-1.013979052
 20
-24.7244725376
 30
0.0
 10
-1.0428857909
 20
-24.6807865246
 30
0.0
 11
-0.9121431121
 21
-25.0676119574
 31
0.0
 11
-0.9315774552
 21
-24.9728708999
 31
0.0
 11
-0.9744247951
 21
-24.8222421628
 31
0.0
 11
-1.0428857909
 21
-24.6807865246
 31
0.0
  0
SPLINE
  5
40E
100
AcDbEntity
  8
0
100
AcDbSpline
 62
7
  6
CONTINUOUS
 70
0
 71
3
 72
9
 73
5
 74
3
 42
0.0000001
 43
0.0000001
 44
0.0000000001
 12
-0.039985989
 22
0.0604297994
 32
0.0
 13
-0.0509040081
 23
0.0515695834
 33
0.0
 40
0.0
 40
0.0
 40
0.0
 40
0.0
 40
0.2559328794
 40
1.0
 40
1.0
 40
1.0
 40
1.0
 10
-1.0428857909
 20
-24.6807865246
 30
0.0
 10
-1.046297034
 20
-24.6756312005
 30
0.0
 10
-1.0600281795
 20
-24.6557629718
 30
0.0
 10
-1.0755154986
 20
-24.6370628422
 30
0.0
 10
-1.0881408315
 20
-24.6242724318
 30
0.0
 11
-1.0428857909
 21
-24.6807865246
 31
0.0
 11
-1.0534405694
 21
-24.6655378469
 31
0.0
 11
-1.0881408315
 21
-24.6242724318
 31
0.0
  0
SPLINE
  5
40F
100
AcDbEntity
  8
0
100
AcDbSpline
 62
7
  6
CONTINUOUS
 70
0
 71
3
 72
11
 73
7
 74
5
 42
0.0000001
 43
0.0000001
 44
0.0000000001
 12
-0.6333494509
 22
0.5969143223
 32
0.0
 13
-0.8289470693
 23
0.2651131674
 33
0.0
 40
0.0
 40
0.0
 40
0.0
 40
0.0
 40
0.2725542141
 40
0.5262218346
 40
0.7671916502
 40
1.0
 40
1.0
 40
1.0
 40
1.0
 10
-1.1227493954
 20
-23.6763913663
 30
0.0
 10
-1.1802900827
 20
-23.6221608616
 30
0.0
 10
-1.3035285141
 20
-23.5302633967
 30
0.0
 10
-1.4987658034
 20
-23.4227229645
 30
0.0
 10
-1.6931328945
 20
-23.3397555746
 30
0.0
 10
-1.8232951616
 20
-23.295381718
 30
0.0
 10
-1.8876237614
 20
-23.2748081983
 30
0.0
 11
-1.1227493954
 21
-23.6763913663
 31
0.0
 11
-1.3108157123
 21
-23.5318300803
 31
0.0
 11
-1.503650373
 21
-23.4243411508
 31
0.0
 11
-1.6962378365
 21
-23.3413241655
 31
0.0
 11
-1.8876237614
 21
-23.2748081983
 31
0.0
  0
SPLINE
  5
410
100
AcDbEntity
  8
RACCORDO
100
AcDbSpline
 62
7
  6
CONTINUOUS
 70
0
 71
3
 72
9
 73
5
 74
3
 42
0.0000001
 43
0.0000001
 44
0.0000000001
 12
0.193050807
 22
-0.0965021325
 32
0.0
 13
0.1468019727
 23
-0.1582101655
 33
0.0
 40
0.0
 40
0.0
 40
0.0
 40
0.0
 40
0.2333737377
 40
1.0
 40
1.0
 40
1.0
 40
1.0
 10
20.3462516375
 20
6.583625654
 30
0.0
 10
20.3612693003
 20
6.5761186329
 30
0.0
 10
20.4238617825
 20
6.5404522688
 30
0.0
 10
20.4790124629
 20
6.4925203625
 30
0.0
 10
20.5165265454
 20
6.4520910065
 30
0.0
 11
20.3462516375
 21
6.583625654
 31
0.0
 11
20.3900788783
 21
6.5588034256
 31
0.0
 11
20.5165265454
 21
6.4520910065
 31
0.0
  0
SPLINE
  5
411
100
AcDbEntity
  8
RACCORDO
100
AcDbSpline
 62
7
  6
CONTINUOUS
 70
0
 71
3
 72
9
 73
5
 74
3
 42
0.0000001
 43
0.0000001
 44
0.0000000001
 12
0.3040485397
 22
-0.3276765897
 32
0.0
 13
0.109879555
 23
-0.4332942941
 33
0.0
 40
0.0
 40
0.0
 40
0.0
 40
0.0
 40
0.4971396009
 40
1.0
 40
1.0
 40
1.0
 40
1.0
 10
20.5165265454
 20
6.4520910065
 30
0.0
 10
20.566911402
 20
6.3977906702
 30
0.0
 10
20.6526911843
 20
6.273663308
 30
0.0
 10
20.7070658677
 20
6.1333331897
 30
0.0
 10
20.7254838933
 20
6.0607043425
 30
0.0
 11
20.5165265454
 21
6.4520910065
 31
0.0
 11
20.6444387549
 21
6.2703689403
 31
0.0
 11
20.7254838933
 21
6.0607043425
 31
0.0
  0
SPLINE
  5
412
100
AcDbEntity
  8
RACCORDO
100
AcDbSpline
 62
7
  6
CONTINUOUS
 70
0
 71
3
 72
9
 73
5
 74
3
 42
0.0000001
 43
0.0000001
 44
0.0000000001
 12
0.049599571
 22
-0.1955888073
 32
0.0
 13
0.0000039847
 23
-0.2017798279
 33
0.0
 40
0.0
 40
0.0
 40
0.0
 40
0.0
 40
0.2600361011
 40
1.0
 40
1.0
 40
1.0
 40
1.0
 10
20.7254838933
 20
6.0607043425
 30
0.0
 10
20.7297831197
 20
6.0437509589
 30
0.0
 10
20.7444211787
 20
5.9781015484
 30
0.0
 10
20.7514734264
 20
5.9106623281
 30
0.0
 10
20.7514744093
 20
5.8608923986
 30
0.0
 11
20.7254838933
 21
6.0607043425
 31
0.0
 11
20.736883024
 21
6.0094875007
 31
0.0
 11
20.7514744093
 21
5.8608923986
 31
0.0
  0
SPLINE
  5
413
100
AcDbEntity
  8
0
100
AcDbSpline
 62
7
  6
CONTINUOUS
 70
0
 71
3
 72
9
 73
5
 74
3
 42
0.0000001
 43
0.0000001
 44
0.0000000001
 12
-0.1087199623
 22
0.5446236221
 32
0.0
 13
-0.1090135263
 23
0.5445649374
 33
0.0
 40
0.0
 40
0.0
 40
0.0
 40
0.0
 40
0.4998343578
 40
1.0
 40
1.0
 40
1.0
 40
1.0
 10
-0.9476099671
 20
-25.6834907969
 30
0.0
 10
-0.9657239579
 20
-25.5927502641
 30
0.0
 10
-1.0001253255
 20
-25.41084832
 30
0.0
 10
-1.0353895282
 20
-25.2291135261
 30
0.0
 10
-1.0535644683
 20
-25.1383226355
 30
0.0
 11
-0.9476099671
 21
-25.6834907969
 31
0.0
 11
-1.0003294947
 21
-25.4109503411
 31
0.0
 11
-1.0535644683
 21
-25.1383226355
 31
0.0
  0
SPLINE
  5
414
100
AcDbEntity
  8
0
100
AcDbSpline
 62
7
  6
CONTINUOUS
 70
0
 71
3
 72
11
 73
7
 74
5
 42
0.0000001
 43
0.0000001
 44
0.0000000001
 12
-0.0922112176
 22
0.460653079
 32
0.0
 13
-0.3159155316
 23
0.3477089944
 33
0.0
 40
0.0
 40
0.0
 40
0.0
 40
0.0
 40
0.2378420178
 40
0.4941048347
 40
0.7548642019
 40
1.0
 40
1.0
 40
1.0
 40
1.0
 10
-1.0535644683
 20
-25.1383226355
 30
0.0
 10
-1.0608750357
 20
-25.1018017496
 30
0.0
 10
-1.0755080781
 20
-25.0258072715
 30
0.0
 10
-1.1069074589
 20
-24.9116236666
 30
0.0
 10
-1.1514324421
 20
-24.8006171702
 30
0.0
 10
-1.1946915639
 20
-24.7329627096
 30
0.0
 10
-1.2205056326
 20
-24.7045507357
 30
0.0
 11
-1.0535644683
 21
-25.1383226355
 31
0.0
 11
-1.076334194
 21
-25.0289310676
 31
0.0
 11
-1.1088572989
 21
-24.9130171785
 31
0.0
 11
-1.1559862866
 21
-24.7999431443
 31
0.0
 11
-1.2205056326
 21
-24.7045507357
 31
0.0
  0
SPLINE
  5
415
100
AcDbEntity
  8
ASSI
100
AcDbSpline
 62
7
  6
CONTINUOUS
 70
0
 71
3
 72
8
 73
4
 74
2
 42
0.0000001
 43
0.0000001
 44
0.0000000001
 12
0.0017199938
 22
-0.0008550042
 32
0.0
 13
0.0000082581
 23
-0.0019207661
 33
0.0
 40
0.0
 40
0.0
 40
0.0
 40
0.0
 40
1.0
 40
1.0
 40
1.0
 40
1.0
 10
5.3857583324
 20
-21.3532619847
 30
0.0
 10
5.3863316636
 20
-21.3535469861
 30
0.0
 10
5.3867740958
 20
-21.3542502365
 30
0.0
 10
5.3867768485
 20
-21.3548904918
 30
0.0
 11
5.3857583324
 21
-21.3532619847
 31
0.0
 11
5.3867768485
 21
-21.3548904918
 31
0.0
  0
SPLINE
  5
416
100
AcDbEntity
  8
ASSI
100
AcDbSpline
 62
7
  6
CONTINUOUS
 70
0
 71
3
 72
8
 73
4
 74
2
 42
0.0000001
 43
0.0000001
 44
0.0000000001
 12
-0.0322886643
 22
0.0161348252
 32
0.0
 13
-0.0345470447
 23
0.0104590691
 33
0.0
 40
0.0
 40
0.0
 40
0.0
 40
0.0
 40
1.0
 40
1.0
 40
1.0
 40
1.0
 10
1.1923941914
 20
-19.2565799142
 30
0.0
 10
1.1816313033
 20
-19.2512016391
 30
0.0
 10
1.1704304655
 20
-19.2465748029
 30
0.0
 10
1.1589147839
 20
-19.2430884465
 30
0.0
 11
1.1923941914
 21
-19.2565799142
 31
0.0
 11
1.1589147839
 21
-19.2430884465
 31
0.0
  0
SPLINE
  5
417
100
AcDbEntity
  8
ASSI
100
AcDbSpline
 62
7
  6
CONTINUOUS
 70
0
 71
3
 72
9
 73
5
 74
3
 42
0.0000001
 43
0.0000001
 44
0.0000000001
 12
-0.0774879905
 22
0.0234593799
 32
0.0
 13
-0.075213758
 23
-0.0299603369
 33
0.0
 40
0.0
 40
0.0
 40
0.0
 40
0.0
 40
0.2646796662
 40
1.0
 40
1.0
 40
1.0
 40
1.0
 10
1.1589147839
 20
-19.2430884465
 30
0.0
 10
1.1520782855
 20
-19.2410187062
 30
0.0
 10
1.1259366018
 20
-19.2347057167
 30
0.0
 10
1.097150978
 20
-19.2356347869
 30
0.0
 10
1.0787155761
 20
-19.2429782686
 30
0.0
 11
1.1589147839
 21
-19.2430884465
 31
0.0
 11
1.1380547191
 21
-19.2381842112
 31
0.0
 11
1.0787155761
 21
-19.2429782686
 31
0.0
  0
SPLINE
  5
418
100
AcDbEntity
  8
ASSI
100
AcDbSpline
 62
7
  6
CONTINUOUS
 70
0
 71
3
 72
8
 73
4
 74
2
 42
0.0000001
 43
0.0000001
 44
0.0000000001
 12
0.0017199875
 22
-0.0008550395
 32
0.0
 13
0.0000082235
 23
-0.0019207763
 33
0.0
 40
0.0
 40
0.0
 40
0.0
 40
0.0
 40
1.0
 40
1.0
 40
1.0
 40
1.0
 10
-10.5241442075
 20
-13.3117081738
 30
0.0
 10
-10.5235708783
 20
-13.3119931869
 30
0.0
 10
-10.5231284658
 20
-13.3126964548
 30
0.0
 10
-10.5231257246
 20
-13.3133367136
 30
0.0
 11
-10.5241442075
 21
-13.3117081738
 31
0.0
 11
-10.5231257246
 21
-13.3133367136
 31
0.0
  0
SPLINE
  5
419
100
AcDbEntity
  8
ASSI
100
AcDbSpline
 62
7
  6
CONTINUOUS
 70
0
 71
3
 72
8
 73
4
 74
2
 42
0.0000001
 43
0.0000001
 44
0.0000000001
 12
-0.032268327
 22
0.0161247358
 32
0.0
 13
-0.0345239903
 23
0.0104568695
 33
0.0
 40
0.0
 40
0.0
 40
0.0
 40
0.0
 40
1.0
 40
1.0
 40
1.0
 40
1.0
 10
-14.7175079757
 20
-11.2150262896
 30
0.0
 10
-14.7282640847
 20
-11.2096513777
 30
0.0
 10
-14.7394575453
 20
-11.205026985
 30
0.0
 10
-14.7509655421
 20
-11.2015413618
 30
0.0
 11
-14.7175079757
 21
-11.2150262896
 31
0.0
 11
-14.7509655421
 21
-11.2015413618
 31
0.0
  0
SPLINE
  5
41A
100
AcDbEntity
  8
ASSI
100
AcDbSpline
 62
7
  6
CONTINUOUS
 70
0
 71
3
 72
9
 73
5
 74
3
 42
0.0000001
 43
0.0000001
 44
0.0000000001
 12
-0.0479673986
 22
0.0145287038
 32
0.0
 13
-0.0500426309
 23
-0.0027730218
 33
0.0
 40
0.0
 40
0.0
 40
0.0
 40
0.0
 40
0.257878631
 40
1.0
 40
1.0
 40
1.0
 40
1.0
 10
-14.7509655421
 20
-11.2015413618
 30
0.0
 10
-14.7550887978
 20
-11.200292481
 30
0.0
 10
-14.771232568
 20
-11.1960176517
 30
0.0
 10
-14.7881326322
 20
-11.1942518999
 30
0.0
 10
-14.8005118675
 20
-11.1949378728
 30
0.0
 11
-14.7509655421
 21
-11.2015413618
 31
0.0
 11
-14.7634653591
 21
-11.1982545639
 31
0.0
 11
-14.8005118675
 21
-11.1949378728
 31
0.0
  0
SPLINE
  5
41B
100
AcDbEntity
  8
ASSI
100
AcDbSpline
 62
7
  6
CONTINUOUS
 70
0
 71
3
 72
8
 73
4
 74
2
 42
0.0000001
 43
0.0000001
 44
0.0000000001
 12
-0.0213414878
 22
-0.0011825999
 32
0.0
 13
-0.0206349063
 23
-0.005572996
 33
0.0
 40
0.0
 40
0.0
 40
0.0
 40
0.0
 40
1.0
 40
1.0
 40
1.0
 40
1.0
 10
-14.8005118675
 20
-11.1949378728
 30
0.0
 10
-14.8076256967
 20
-11.1953320728
 30
0.0
 10
-14.814749361
 20
-11.1963939389
 30
0.0
 10
-14.8216276631
 20
-11.1982516042
 30
0.0
 11
-14.8005118675
 21
-11.1949378728
 31
0.0
 11
-14.8216276631
 21
-11.1982516042
 31
0.0
  0
SPLINE
  5
41C
100
AcDbEntity
  8
ASSI
100
AcDbSpline
 62
7
  6
CONTINUOUS
 70
0
 71
3
 72
8
 73
4
 74
2
 42
0.0000001
 43
0.0000001
 44
0.0000000001
 12
-0.032268327
 22
0.0161247358
 32
0.0
 13
-0.0345239903
 23
0.0104568695
 33
0.0
 40
0.0
 40
0.0
 40
0.0
 40
0.0
 40
1.0
 40
1.0
 40
1.0
 40
1.0
 10
17.1022971777
 20
-27.1249288663
 30
0.0
 10
17.0915410687
 20
-27.1195539544
 30
0.0
 10
17.0803476081
 20
-27.1149295617
 30
0.0
 10
17.0688396113
 20
-27.1114439385
 30
0.0
 11
17.1022971777
 21
-27.1249288663
 31
0.0
 11
17.0688396113
 21
-27.1114439385
 31
0.0
  0
SPLINE
  5
41D
100
AcDbEntity
  8
ASSI
100
AcDbSpline
 62
7
  6
CONTINUOUS
 70
0
 71
3
 72
9
 73
5
 74
3
 42
0.0000001
 43
0.0000001
 44
0.0000000001
 12
-0.0479673986
 22
0.0145287038
 32
0.0
 13
-0.0500426309
 23
-0.0027730218
 33
0.0
 40
0.0
 40
0.0
 40
0.0
 40
0.0
 40
0.257878631
 40
1.0
 40
1.0
 40
1.0
 40
1.0
 10
17.0688396113
 20
-27.1114439385
 30
0.0
 10
17.0647163556
 20
-27.1101950577
 30
0.0
 10
17.0485725854
 20
-27.1059202284
 30
0.0
 10
17.0316725212
 20
-27.1041544766
 30
0.0
 10
17.0192932859
 20
-27.1048404495
 30
0.0
 11
17.0688396113
 21
-27.1114439385
 31
0.0
 11
17.0563397943
 21
-27.1081571406
 31
0.0
 11
17.0192932859
 21
-27.1048404495
 31
0.0
  0
SPLINE
  5
41E
100
AcDbEntity
  8
ASSI
100
AcDbSpline
 62
7
  6
CONTINUOUS
 70
0
 71
3
 72
8
 73
4
 74
2
 42
0.0000001
 43
0.0000001
 44
0.0000000001
 12
-0.0213414878
 22
-0.0011825999
 32
0.0
 13
-0.0206349063
 23
-0.005572996
 33
0.0
 40
0.0
 40
0.0
 40
0.0
 40
0.0
 40
1.0
 40
1.0
 40
1.0
 40
1.0
 10
17.0192932859
 20
-27.1048404495
 30
0.0
 10
17.0121794567
 20
-27.1052346495
 30
0.0
 10
17.0050557924
 20
-27.1062965156
 30
0.0
 10
16.9981774903
 20
-27.1081541809
 30
0.0
 11
17.0192932859
 21
-27.1048404495
 31
0.0
 11
16.9981774903
 21
-27.1081541809
 31
0.0
  0
SPLINE
  5
41F
100
AcDbEntity
  8
DRAFT
100
AcDbSpline
 62
7
  6
CONTINUOUS
 70
0
 71
3
 72
9
 73
5
 74
3
 42
0.0000001
 43
0.0000001
 44
0.0000000001
 12
-0.0332878751
 22
-0.1355086177
 32
0.0
 13
-0.1246655888
 23
-0.0626830046
 33
0.0
 40
0.0
 40
0.0
 40
0.0
 40
0.0
 40
0.5315790208
 40
1.0
 40
1.0
 40
1.0
 40
1.0
 10
-11.100966585
 20
-14.3984372066
 30
0.0
 10
-11.1068649637
 20
-14.422448386
 30
0.0
 10
-11.1246732335
 20
-14.4667714475
 30
0.0
 10
-11.1607828812
 20
-14.4994260594
 30
0.0
 10
-11.1802482069
 20
-14.5092134041
 30
0.0
 11
-11.100966585
 21
-14.3984372066
 31
0.0
 11
-11.1309695038
 21
-14.4662735785
 31
0.0
 11
-11.1802482069
 21
-14.5092134041
 31
0.0
  0
SPLINE
  5
420
100
AcDbEntity
  8
DRAFT
100
AcDbSpline
 62
7
  6
CONTINUOUS
 70
0
 71
3
 72
9
 73
5
 74
3
 42
0.0000001
 43
0.0000001
 44
0.0000000001
 12
-0.0332878751
 22
-0.1355086177
 32
0.0
 13
-0.1246655888
 23
-0.0626830046
 33
0.0
 40
0.0
 40
0.0
 40
0.0
 40
0.0
 40
0.5315790208
 40
1.0
 40
1.0
 40
1.0
 40
1.0
 10
4.8089359917
 20
-22.3533884949
 30
0.0
 10
4.803037613
 20
-22.3773996744
 30
0.0
 10
4.7852293432
 20
-22.4217227358
 30
0.0
 10
4.7491196955
 20
-22.4543773477
 30
0.0
 10
4.7296543698
 20
-22.4641646925
 30
0.0
 11
4.8089359917
 21
-22.3533884949
 31
0.0
 11
4.7789330729
 21
-22.4212248668
 31
0.0
 11
4.7296543698
 21
-22.4641646925
 31
0.0
  0
SPLINE
  5
421
100
AcDbEntity
  8
RACCORDO
100
AcDbSpline
 62
7
  6
CONTINUOUS
 70
0
 71
3
 72
11
 73
7
 74
5
 42
0.0000001
 43
0.0000001
 44
0.0000000001
 12
0.1712622514
 22
0.0869949376
 32
0.0
 13
0.0004293237
 23
0.1920903266
 33
0.0
 40
0.0
 40
0.0
 40
0.0
 40
0.0
 40
0.3609349558
 40
0.6475569956
 40
0.8565789599
 40
1.0
 40
1.0
 40
1.0
 40
1.0
 10
-23.9887061957
 20
-8.1201658013
 30
0.0
 10
-23.9681013513
 20
-8.1096992967
 30
0.0
 10
-23.9317850386
 20
-8.0895817443
 30
0.0
 10
-23.8869986013
 20
-8.0575148149
 30
0.0
 10
-23.8580513917
 20
-8.0284394954
 30
0.0
 10
-23.8483975714
 20
-8.0064943624
 30
0.0
 10
-23.8483770467
 20
-7.9973110976
 30
0.0
 11
-23.9887061957
 21
-8.1201658013
 31
0.0
 11
-23.9283812492
 21
-8.085991735
 31
0.0
 11
-23.8840996871
 21
-8.0532737426
 31
0.0
 11
-23.8572994964
 21
-8.0233761097
 31
0.0
 11
-23.8483770467
 21
-7.9973110976
 31
0.0
  0
SPLINE
  5
422
100
AcDbEntity
  8
RACCORDO
100
AcDbSpline
 62
7
  6
CONTINUOUS
 70
0
 71
3
 72
11
 73
7
 74
5
 42
0.0000001
 43
0.0000001
 44
0.0000000001
 12
0.3974925818
 22
-0.1920748414
 32
0.0
 13
-0.0061350167
 23
-0.4414243523
 33
0.0
 40
0.0
 40
0.0
 40
0.0
 40
0.0
 40
0.230440652
 40
0.4885148107
 40
0.7528953883
 40
1.0
 40
1.0
 40
1.0
 40
1.0
 10
-2.8157193707
 20
-18.3109084913
 30
0.0
 10
-2.7851865542
 20
-18.3256624419
 30
0.0
 10
-2.7268184242
 20
-18.3702391981
 30
0.0
 10
-2.6597671741
 20
-18.4597331557
 30
0.0
 10
-2.6147964321
 20
-18.5647786427
 30
0.0
 10
-2.6031143148
 20
-18.6403670743
 30
0.0
 10
-2.6036196451
 20
-18.6767264053
 30
0.0
 11
-2.8157193707
 21
-18.3109084913
 31
0.0
 11
-2.7334271517
 21
-18.3707196792
 31
0.0
 11
-2.6642323416
 21
-18.4612315635
 31
0.0
 11
-2.6186514452
 21
-18.5686784909
 31
0.0
 11
-2.6036196451
 21
-18.6767264053
 31
0.0
  0
SPLINE
  5
423
100
AcDbEntity
  8
RACCORDO
100
AcDbSpline
 62
7
  6
CONTINUOUS
 70
0
 71
3
 72
14
 73
10
 74
8
 42
0.0000001
 43
0.0000001
 44
0.0000000001
 12
0.3943553874
 22
-0.2003416686
 32
0.0
 13
-0.0117691643
 23
-0.4421701511
 33
0.0
 40
0.0
 40
0.0
 40
0.0
 40
0.0
 40
0.1107720358
 40
0.2307901358
 40
0.3575289023
 40
0.4888703813
 40
0.7527421961
 40
0.8798077521
 40
1.0
 40
1.0
 40
1.0
 40
1.0
 10
-24.2008059196
 20
-7.7543478865
 30
0.0
 10
-24.1862447366
 20
-7.7617453047
 30
0.0
 10
-24.1569819404
 20
-7.7794248933
 30
0.0
 10
-24.116776771
 20
-7.8138655939
 30
0.0
 10
-24.0802158515
 20
-7.856188784
 30
0.0
 10
-24.0374221588
 20
-7.9203165648
 30
0.0
 10
-24.0069261278
 20
-7.9921032383
 30
0.0
 10
-23.9909654884
 20
-8.0658850427
 30
0.0
 10
-23.9882346256
 20
-8.1024506354
 30
0.0
 10
-23.9887061463
 20
-8.1201657769
 30
0.0
 11
-24.2008059196
 21
-7.7543478865
 31
0.0
 11
-24.1589167573
 21
-7.7797653353
 31
0.0
 11
-24.1184522845
 21
-7.8141292552
 31
0.0
 11
-24.0815764003
 21
-7.8563534995
 31
0.0
 11
-24.049318028
 21
-7.904670424
 31
0.0
 11
-24.0037760612
 21
-8.0121363196
 31
0.0
 11
-23.9920686974
 21
-8.0671079747
 31
0.0
 11
-23.9887061463
 21
-8.1201657769
 31
0.0
  0
SPLINE
  5
424
100
AcDbEntity
  8
RACCORDO
100
AcDbSpline
 62
7
  6
CONTINUOUS
 70
0
 71
3
 72
11
 73
7
 74
5
 42
0.0000001
 43
0.0000001
 44
0.0000000001
 12
-0.0000102203
 22
-0.1402935348
 32
0.0
 13
-0.1245845542
 23
-0.0645055413
 33
0.0
 40
0.0
 40
0.0
 40
0.0
 40
0.0
 40
0.2077778344
 40
0.4361450684
 40
0.6987172547
 40
1.0
 40
1.0
 40
1.0
 40
1.0
 10
-2.5194216266
 20
-18.5725270465
 30
0.0
 10
-2.5194223345
 20
-18.5822436754
 30
0.0
 10
-2.5236023986
 20
-18.602791867
 30
0.0
 10
-2.541111921
 20
-18.6309712884
 30
0.0
 10
-2.5684969606
 20
-18.656390572
 30
0.0
 10
-2.5911079196
 20
-18.6702482698
 30
0.0
 10
-2.6036196451
 20
-18.6767264053
 30
0.0
 11
-2.5194216266
 21
-18.5725270465
 31
0.0
 11
-2.5249368942
 21
-18.6011504238
 31
0.0
 11
-2.5412647625
 21
-18.6287160324
 31
0.0
 11
-2.5678354099
 21
-18.6542303136
 31
0.0
 11
-2.6036196451
 21
-18.6767264053
 31
0.0
  0
SPLINE
  5
425
100
AcDbEntity
  8
RACCORDO
100
AcDbSpline
 62
7
  6
CONTINUOUS
 70
0
 71
3
 72
11
 73
7
 74
5
 42
0.0000001
 43
0.0000001
 44
0.0000000001
 12
0.3974925817
 22
-0.1920748416
 32
0.0
 13
-0.0061350169
 23
-0.4414243523
 33
0.0
 40
0.0
 40
0.0
 40
0.0
 40
0.0
 40
0.2304406517
 40
0.4885148109
 40
0.7528953877
 40
1.0
 40
1.0
 40
1.0
 40
1.0
 10
-21.4973534341
 20
16.4877351256
 30
0.0
 10
-21.4668206176
 20
16.4729811751
 30
0.0
 10
-21.4084524876
 20
16.428404419
 30
0.0
 10
-21.3414012375
 20
16.3389104614
 30
0.0
 10
-21.2964304956
 20
16.2338649743
 30
0.0
 10
-21.2847483782
 20
16.1582765428
 30
0.0
 10
-21.2852537085
 20
16.1219172116
 30
0.0
 11
-21.4973534341
 21
16.4877351256
 31
0.0
 11
-21.4150612152
 21
16.4279239379
 31
0.0
 11
-21.345866405
 21
16.3374120534
 31
0.0
 11
-21.3002855086
 21
16.2299651263
 31
0.0
 11
-21.2852537085
 21
16.1219172116
 31
0.0
  0
SPLINE
  5
426
100
AcDbEntity
  8
RACCORDO
100
AcDbSpline
 62
7
  6
CONTINUOUS
 70
0
 71
3
 72
11
 73
7
 74
5
 42
0.0000001
 43
0.0000001
 44
0.0000000001
 12
0.0025984861
 22
-0.1842744525
 32
0.0
 13
-0.1622148733
 23
-0.0874651979
 33
0.0
 40
0.0
 40
0.0
 40
0.0
 40
0.0
 40
0.28852378
 40
0.547995295
 40
0.7816826175
 40
1.0
 40
1.0
 40
1.0
 40
1.0
 10
-21.2852537085
 20
10.7215291581
 30
0.0
 10
-21.2850038001
 20
10.7038066376
 30
0.0
 10
-21.2873872923
 20
10.6699807161
 30
0.0
 10
-21.3011130862
 20
10.6234813979
 30
0.0
 10
-21.3246378623
 20
10.5858840248
 30
0.0
 10
-21.3468052874
 20
10.5680716224
 30
0.0
 10
-21.3586100629
 20
10.5617065647
 30
0.0
 11
-21.2852537085
 21
10.7215291581
 31
0.0
 11
-21.2895203579
 21
10.6685277676
 31
0.0
 11
-21.3036826238
 21
10.6228543544
 31
0.0
 11
-21.3270764431
 21
10.5866951818
 31
0.0
 11
-21.3586100629
 21
10.5617065647
 31
0.0
  0
SPLINE
  5
427
100
AcDbEntity
  8
RACCORDO
100
AcDbSpline
 62
7
  6
CONTINUOUS
 70
0
 71
3
 72
9
 73
5
 74
3
 42
0.0000001
 43
0.0000001
 44
0.0000000001
 12
-0.1200021189
 22
0.0599713195
 32
0.0
 13
-0.1210071334
 23
-0.057916676
 33
0.0
 40
0.0
 40
0.0
 40
0.0
 40
0.0
 40
0.4650416511
 40
1.0
 40
1.0
 40
1.0
 40
1.0
 10
-4.2235548987
 20
-17.5350554818
 30
0.0
 10
-4.2421568932
 20
-17.5257590947
 30
0.0
 10
-4.2885331116
 20
-17.5176352915
 30
0.0
 10
-4.3324321039
 20
-17.5314354922
 30
0.0
 10
-4.3540100293
 20
-17.541763162
 30
0.0
 11
-4.2235548987
 21
-17.5350554818
 31
0.0
 11
-4.2847549054
 21
-17.522944648
 31
0.0
 11
-4.3540100293
 21
-17.541763162
 31
0.0
  0
SPLINE
  5
428
100
AcDbEntity
  8
ASSI
100
AcDbSpline
 62
7
  6
CONTINUOUS
 70
0
 71
3
 72
11
 73
7
 74
5
 42
0.0000001
 43
0.0000001
 44
0.0000000001
 12
0.0483159092
 22
0.0240461291
 32
0.0
 13
0.048326814
 23
-0.0240242057
 33
0.0
 40
0.0
 40
0.0
 40
0.0
 40
0.0
 40
0.4141056993
 40
0.7151930062
 40
0.9055096016
 40
1.0
 40
1.0
 40
1.0
 40
1.0
 10
-10.5744989392
 20
-13.3297684705
 30
0.0
 10
-10.5678296414
 20
-13.3264492575
 30
0.0
 10
-10.5562039261
 20
-13.3210533118
 30
0.0
 10
-10.5409762798
 20
-13.3147813102
 30
0.0
 10
-10.5311796689
 20
-13.3117861791
 30
0.0
 10
-10.5256663475
 20
-13.3109514882
 30
0.0
 10
-10.5241442075
 20
-13.3117081738
 30
0.0
 11
-10.5744989392
 21
-13.3297684705
 31
0.0
 11
-10.5542321866
 21
-13.3203488572
 31
0.0
 11
-10.5391311738
 21
-13.3143487803
 31
0.0
 11
-10.5292419787
 21
-13.311573722
 31
0.0
 11
-10.5241442075
 21
-13.3117081738
 31
0.0
  0
SPLINE
  5
429
100
AcDbEntity
  8
RACCORDO
100
AcDbSpline
 62
7
  6
CONTINUOUS
 70
0
 71
3
 72
9
 73
5
 74
3
 42
0.0000001
 43
0.0000001
 44
0.0000000001
 12
0.1211461435
 22
0.0559349925
 32
0.0
 13
0.1185133239
 23
-0.0613164215
 33
0.0
 40
0.0
 40
0.0
 40
0.0
 40
0.0
 40
0.4648265803
 40
1.0
 40
1.0
 40
1.0
 40
1.0
 10
-4.4834939314
 20
-17.5310292196
 30
0.0
 10
-4.4647232822
 20
-17.5223625292
 30
0.0
 10
-4.4183603678
 20
-17.5157325789
 30
0.0
 10
-4.3751517563
 20
-17.5308248557
 30
0.0
 10
-4.3540100293
 20
-17.541763162
 30
0.0
 11
-4.4834939314
 21
-17.5310292196
 31
0.0
 11
-4.4223033828
 21
-17.5208923608
 31
0.0
 11
-4.3540100293
 21
-17.541763162
 31
0.0
  0
SPLINE
  5
42A
100
AcDbEntity
  8
RACCORDO
100
AcDbSpline
 62
7
  6
CONTINUOUS
 70
0
 71
3
 72
11
 73
7
 74
5
 42
0.0000001
 43
0.0000001
 44
0.0000000001
 12
-0.0000102202
 22
-0.1402935348
 32
0.0
 13
-0.1245845542
 23
-0.0645055413
 33
0.0
 40
0.0
 40
0.0
 40
0.0
 40
0.0
 40
0.2077778343
 40
0.4361450687
 40
0.698717255
 40
1.0
 40
1.0
 40
1.0
 40
1.0
 10
-21.20105569
 20
10.825728517
 30
0.0
 10
-21.2010563979
 20
10.8160118881
 30
0.0
 10
-21.205236462
 20
10.7954636965
 30
0.0
 10
-21.2227459844
 20
10.7672842751
 30
0.0
 10
-21.250131024
 20
10.7418649914
 30
0.0
 10
-21.272741983
 20
10.7280072937
 30
0.0
 10
-21.2852537085
 20
10.7215291582
 30
0.0
 11
-21.20105569
 21
10.825728517
 31
0.0
 11
-21.2065709576
 21
10.7971051397
 31
0.0
 11
-21.2228988259
 21
10.7695395311
 31
0.0
 11
-21.2494694733
 21
10.7440252499
 31
0.0
 11
-21.2852537085
 21
10.7215291582
 31
0.0
  0
SPLINE
  5
42B
100
AcDbEntity
  8
RACCORDO
100
AcDbSpline
 62
7
  6
CONTINUOUS
 70
0
 71
3
 72
11
 73
7
 74
5
 42
0.0000001
 43
0.0000001
 44
0.0000000001
 12
-0.0000102203
 22
-0.1402935348
 32
0.0
 13
-0.1245845542
 23
-0.0645055413
 33
0.0
 40
0.0
 40
0.0
 40
0.0
 40
0.0
 40
0.2077778344
 40
0.4361450684
 40
0.6987172547
 40
1.0
 40
1.0
 40
1.0
 40
1.0
 10
-21.20105569
 20
16.2261165705
 30
0.0
 10
-21.2010563979
 20
16.2163999415
 30
0.0
 10
-21.205236462
 20
16.19585175
 30
0.0
 10
-21.2227459844
 20
16.1676723286
 30
0.0
 10
-21.250131024
 20
16.142253045
 30
0.0
 10
-21.272741983
 20
16.1283953472
 30
0.0
 10
-21.2852537085
 20
16.1219172116
 30
0.0
 11
-21.20105569
 21
16.2261165705
 31
0.0
 11
-21.2065709576
 21
16.1974931931
 31
0.0
 11
-21.2228988259
 21
16.1699275846
 31
0.0
 11
-21.2494694733
 21
16.1444133034
 31
0.0
 11
-21.2852537085
 21
16.1219172116
 31
0.0
  0
SPLINE
  5
42C
100
AcDbEntity
  8
RACCORDO
100
AcDbSpline
 62
7
  6
CONTINUOUS
 70
0
 71
3
 72
9
 73
5
 74
3
 42
0.0000001
 43
0.0000001
 44
0.0000000001
 12
-0.1199872817
 22
0.0599050504
 32
0.0
 13
-0.1209684495
 23
-0.0578981611
 33
0.0
 40
0.0
 40
0.0
 40
0.0
 40
0.0
 40
0.4650457674
 40
1.0
 40
1.0
 40
1.0
 40
1.0
 10
-21.3669379242
 20
16.4944625967
 30
0.0
 10
-21.3855377834
 20
16.5037487934
 30
0.0
 10
-21.4318993953
 20
16.5118564971
 30
0.0
 10
-21.4757825726
 20
16.4980594143
 30
0.0
 10
-21.4973534339
 20
16.4877351255
 30
0.0
 11
-21.3669379242
 21
16.4944625967
 31
0.0
 11
-21.4281223211
 21
16.5065524051
 31
0.0
 11
-21.4973534339
 21
16.4877351255
 31
0.0
  0
SPLINE
  5
42D
100
AcDbEntity
  8
RACCORDO
100
AcDbSpline
 62
7
  6
CONTINUOUS
 70
0
 71
3
 72
9
 73
5
 74
3
 42
0.0000001
 43
0.0000001
 44
0.0000000001
 12
-0.1200021189
 22
0.0599713195
 32
0.0
 13
-0.1210071334
 23
-0.057916676
 33
0.0
 40
0.0
 40
0.0
 40
0.0
 40
0.0
 40
0.4650416511
 40
1.0
 40
1.0
 40
1.0
 40
1.0
 10
-21.6750773539
 20
16.6485323311
 30
0.0
 10
-21.6936793484
 20
16.6578287182
 30
0.0
 10
-21.7400555669
 20
16.6659525214
 30
0.0
 10
-21.7839545592
 20
16.6521523207
 30
0.0
 10
-21.8055324846
 20
16.6418246509
 30
0.0
 11
-21.6750773539
 21
16.6485323311
 31
0.0
 11
-21.7362773607
 21
16.6606431649
 31
0.0
 11
-21.8055324846
 21
16.6418246509
 31
0.0
  0
SPLINE
  5
42E
100
AcDbEntity
  8
RACCORDO
100
AcDbSpline
 62
7
  6
CONTINUOUS
 70
0
 71
3
 72
9
 73
5
 74
3
 42
0.0000001
 43
0.0000001
 44
0.0000000001
 12
0.1211461435
 22
0.0559349925
 32
0.0
 13
0.1185133239
 23
-0.0613164215
 33
0.0
 40
0.0
 40
0.0
 40
0.0
 40
0.0
 40
0.4648265803
 40
1.0
 40
1.0
 40
1.0
 40
1.0
 10
-21.9350163867
 20
16.6525585933
 30
0.0
 10
-21.9162457375
 20
16.6612252837
 30
0.0
 10
-21.869882823
 20
16.667855234
 30
0.0
 10
-21.8266742115
 20
16.6527629572
 30
0.0
 10
-21.8055324846
 20
16.6418246509
 30
0.0
 11
-21.9350163867
 21
16.6525585933
 31
0.0
 11
-21.873825838
 21
16.6626954521
 31
0.0
 11
-21.8055324846
 21
16.6418246509
 31
0.0
  0
SPLINE
  5
42F
100
AcDbEntity
  8
RACCORDO
100
AcDbSpline
 62
7
  6
CONTINUOUS
 70
0
 71
3
 72
10
 73
6
 74
4
 42
0.0000001
 43
0.0000001
 44
0.0000000001
 12
-0.1719060809
 22
0.0858445567
 32
0.0
 13
-0.1728440808
 23
-0.0839399328
 33
0.0
 40
0.0
 40
0.0
 40
0.0
 40
0.0
 40
0.4083751956
 40
0.6803995527
 40
1.0
 40
1.0
 40
1.0
 40
1.0
 10
-24.0152547613
 20
-7.7272230931
 30
0.0
 10
-24.0386554878
 20
-7.7155374973
 30
0.0
 10
-24.0856767754
 20
-7.7144348295
 30
0.0
 10
-24.1472195077
 20
-7.7306073315
 30
0.0
 10
-24.1823922394
 20
-7.745405474
 30
0.0
 10
-24.2008059213
 20
-7.7543478874
 30
0.0
 11
-24.0152547613
 21
-7.7272230931
 31
0.0
 11
-24.0932453759
 21
-7.7185750649
 31
0.0
 11
-24.1440299321
 21
-7.7309435934
 31
0.0
 11
-24.2008059213
 21
-7.7543478874
 31
0.0
  0
SPLINE
  5
430
100
AcDbEntity
  8
ASSI
100
AcDbSpline
 62
7
  6
CONTINUOUS
 70
0
 71
3
 72
11
 73
7
 74
5
 42
0.0000001
 43
0.0000001
 44
0.0000000001
 12
0.048315538
 22
0.0240467905
 32
0.0
 13
0.0483272103
 23
-0.0240233238
 33
0.0
 40
0.0
 40
0.0
 40
0.0
 40
0.0
 40
0.4141046671
 40
0.7151915315
 40
0.9055086154
 40
1.0
 40
1.0
 40
1.0
 40
1.0
 10
5.3354036375
 20
-21.3713222992
 30
0.0
 10
5.3420728674
 20
-21.3680030032
 30
0.0
 10
5.3536986209
 20
-21.3626072063
 30
0.0
 10
5.3689262071
 20
-21.3563351737
 30
0.0
 10
5.3787228415
 20
-21.3533400139
 30
0.0
 10
5.384236164
 20
-21.352505319
 30
0.0
 10
5.3857583324
 20
-21.3532619847
 30
0.0
 11
5.3354036375
 21
-21.3713222992
 31
0.0
 11
5.3556703278
 21
-21.3619027213
 31
0.0
 11
5.370771303
 21
-21.3559026448
 31
0.0
 11
5.3806605108
 21
-21.3531275607
 31
0.0
 11
5.3857583324
 21
-21.3532619847
 31
0.0
  0
SPLINE
  5
431
100
AcDbEntity
  8
RACCORDO
100
AcDbSpline
 62
7
  6
CONTINUOUS
 70
0
 71
3
 72
9
 73
5
 74
3
 42
0.0000001
 43
0.0000001
 44
0.0000000001
 12
-0.1199872818
 22
0.0599050505
 32
0.0
 13
-0.1209684497
 23
-0.0578981612
 33
0.0
 40
0.0
 40
0.0
 40
0.0
 40
0.0
 40
0.4650457663
 40
1.0
 40
1.0
 40
1.0
 40
1.0
 10
-2.6853038609
 20
-18.3041810203
 30
0.0
 10
-2.70390372
 20
-18.2948948236
 30
0.0
 10
-2.750265332
 20
-18.28678712
 30
0.0
 10
-2.7941485093
 20
-18.3005842025
 30
0.0
 10
-2.8157193708
 20
-18.3109084913
 30
0.0
 11
-2.6853038609
 21
-18.3041810203
 31
0.0
 11
-2.7464882577
 21
-18.2920912119
 31
0.0
 11
-2.8157193708
 21
-18.3109084913
 31
0.0
  0
ELLIPSE
  5
432
100
AcDbEntity
  8
RACCORDO
100
AcDbEllipse
 62
7
  6
CONTINUOUS
 10
24.0238774923
 20
-35.9675413615
 30
0.0
 11
-0.313181275
 21
0.626269159
 31
0.0
 40
0.6121897086
 41
-3.160544254
 42
-2.2557347926
  0
ELLIPSE
  5
433
100
AcDbEntity
  8
RACCORDO
100
AcDbEllipse
 62
7
  6
CONTINUOUS
 10
24.0238774923
 20
8.3727746243
 30
0.0
 11
-0.3130130858
 21
0.6261196575
 31
0.0
 40
0.6125552124
 41
-2.255296188
 42
-0.6848044477
  0
ELLIPSE
  5
434
100
AcDbEntity
  8
RACCORDO
100
AcDbEllipse
 62
7
  6
CONTINUOUS
 10
-27.5947667373
 20
34.1820967391
 30
0.0
 11
-0.313181275
 21
0.626269159
 31
0.0
 40
0.6121897086
 41
-0.6846338794
 42
0.019259411
  0
ELLIPSE
  5
435
100
AcDbEntity
  8
RACCORDO
100
AcDbEllipse
 62
7
  6
CONTINUOUS
 10
-25.6093566672
 20
-8.3570014571
 30
0.0
 11
-0.1341484654
 21
0.2683369961
 31
0.0
 40
0.6125552124
 41
0.8862964655
 42
2.4567882058
  0
ELLIPSE
  5
436
100
AcDbEntity
  8
RACCORDO
100
AcDbEllipse
 62
7
  6
CONTINUOUS
 10
-25.0952889751
 20
-8.1115684318
 30
0.0
 11
-0.1340229113
 21
0.2684080287
 31
0.0
 40
0.6140178746
 41
0.8880524522
 42
2.4561097232
  0
ELLIPSE
  5
437
100
AcDbEntity
  8
RACCORDO
100
AcDbEllipse
 62
7
  6
CONTINUOUS
 10
-10.8166309564
 20
-15.1305384713
 30
0.0
 11
-0.1342205464
 21
0.2684010681
 31
0.0
 40
0.6121897086
 41
-0.6846338794
 42
0.0192594208
  0
ELLIPSE
  5
438
100
AcDbEntity
  8
RACCORDO
100
AcDbEllipse
 62
7
  6
CONTINUOUS
 10
5.0932716203
 20
-23.0854897597
 30
0.0
 11
-0.1342205464
 21
0.2684010681
 31
0.0
 40
0.6121897086
 41
-0.6846338794
 42
0.0192594208
  0
ELLIPSE
  5
439
100
AcDbEntity
  8
RACCORDO
100
AcDbEllipse
 62
7
  6
CONTINUOUS
 10
17.8721238945
 20
-29.4026935657
 30
0.0
 11
-0.1341371037
 21
0.2683722998
 31
0.0
 40
0.6123537661
 41
-0.6845550499
 42
0.0106825902
  0
ELLIPSE
  5
43A
100
AcDbEntity
  8
RACCORDO
100
AcDbEllipse
 62
7
  6
CONTINUOUS
 10
1.9622213178
 20
-21.4477422773
 30
0.0
 11
-0.1341371037
 21
0.2683722998
 31
0.0
 40
0.6123537661
 41
-0.6845550499
 42
0.0106825902
  0
ELLIPSE
  5
43B
100
AcDbEntity
  8
RACCORDO
100
AcDbEllipse
 62
7
  6
CONTINUOUS
 10
10.6074702541
 20
-25.7703667455
 30
0.0
 11
-0.1342205464
 21
0.2684010681
 31
0.0
 40
0.6121897086
 41
-0.6846338794
 42
0.019259411
  0
ELLIPSE
  5
43C
100
AcDbEntity
  8
RACCORDO
100
AcDbEllipse
 62
7
  6
CONTINUOUS
 10
-13.9476812589
 20
-13.492790989
 30
0.0
 11
-0.1341371037
 21
0.2683722998
 31
0.0
 40
0.6123537661
 41
-0.6845550499
 42
0.0106825902
  0
ELLIPSE
  5
43D
100
AcDbEntity
  8
RACCORDO
100
AcDbEllipse
 62
7
  6
CONTINUOUS
 10
-5.3024323226
 20
-17.8154154571
 30
0.0
 11
-0.1342205464
 21
0.2684010681
 31
0.0
 40
0.6121897086
 41
-0.6846338794
 42
0.019259411
  0
ELLIPSE
  5
43E
100
AcDbEntity
  8
RACCORDO
100
AcDbEllipse
 62
7
  6
CONTINUOUS
 10
-24.7664473247
 20
-1.6108922222
 30
0.0
 11
-0.1341484654
 21
0.2683369961
 31
0.0
 40
0.6125552124
 41
-2.255296188
 42
-0.6848044477
  0
ELLIPSE
  5
43F
100
AcDbEntity
  8
RACCORDO
100
AcDbEllipse
 62
7
  6
CONTINUOUS
 10
-24.7664473247
 20
25.2813240361
 30
0.0
 11
-0.1342205464
 21
0.2684010681
 31
0.0
 40
0.6121897086
 41
-3.160544254
 42
-2.2557347926
  0
ELLIPSE
  5
440
100
AcDbEntity
  8
RACCORDO
100
AcDbEllipse
 62
7
  6
CONTINUOUS
 10
-24.7664473247
 20
17.4416666611
 30
0.0
 11
-0.1341484654
 21
0.2683369961
 31
0.0
 40
0.6125552124
 41
-2.255296188
 42
-0.6848044477
  0
ELLIPSE
  5
441
100
AcDbEntity
  8
RACCORDO
100
AcDbEllipse
 62
7
  6
CONTINUOUS
 10
-24.7664473247
 20
6.2287651528
 30
0.0
 11
-0.1342205464
 21
0.2684010681
 31
0.0
 40
0.6121897086
 41
-3.160544254
 42
-2.2557347926
  0
ELLIPSE
  5
442
100
AcDbEntity
  8
RACCORDO
100
AcDbEllipse
 62
7
  6
CONTINUOUS
 10
-11.7034857649
 20
-14.614888736
 30
0.0
 11
-0.1341484654
 21
0.2683369961
 31
0.0
 40
0.6125552124
 41
-2.255296188
 42
-0.6848044477
  0
ELLIPSE
  5
443
100
AcDbEntity
  8
RACCORDO
100
AcDbEllipse
 62
7
  6
CONTINUOUS
 10
-18.9681394053
 20
-10.9825619158
 30
0.0
 11
-0.1341371037
 21
0.2683722998
 31
0.0
 40
0.6123537661
 41
-2.2553513767
 42
-0.6845550499
  0
ELLIPSE
  5
444
100
AcDbEntity
  8
RACCORDO
100
AcDbEllipse
 62
7
  6
CONTINUOUS
 10
12.8516657481
 20
-26.8924644925
 30
0.0
 11
-0.1341371037
 21
0.2683722998
 31
0.0
 40
0.6123537661
 41
-2.2553513767
 42
-0.6845550499
  0
ELLIPSE
  5
445
100
AcDbEntity
  8
RACCORDO
100
AcDbEllipse
 62
7
  6
CONTINUOUS
 10
-3.0582368286
 20
-18.9375132041
 30
0.0
 11
-0.1341371037
 21
0.2683722998
 31
0.0
 40
0.6123537661
 41
-2.2553513767
 42
-0.6845550499
  0
ELLIPSE
  5
446
100
AcDbEntity
  8
RACCORDO
100
AcDbEllipse
 62
7
  6
CONTINUOUS
 10
4.2064168118
 20
-22.5698400243
 30
0.0
 11
-0.1341484654
 21
0.2683369961
 31
0.0
 40
0.6125552124
 41
-2.255296188
 42
-0.6848044477
  0
ELLIPSE
  5
447
100
AcDbEntity
  8
ASSI
100
AcDbEllipse
 62
7
  6
CONTINUOUS
 10
16.9808288388
 20
-27.2878014906
 30
0.0
 11
0.0974129977
 21
0.1748074534
 31
0.0
 40
0.6437101552
 41
0.6611775963
 42
0.7135374739
  0
ELLIPSE
  5
448
100
AcDbEntity
  8
ASSI
100
AcDbEllipse
 62
7
  6
CONTINUOUS
 10
-14.8389763146
 20
-11.3778989139
 30
0.0
 11
0.0974129977
 21
0.1748074534
 31
0.0
 40
0.6437101552
 41
0.6611775963
 42
0.7135374739
  0
ELLIPSE
  5
449
100
AcDbEntity
  8
ASSI
100
AcDbEllipse
 62
7
  6
CONTINUOUS
 10
1.0709262621
 20
-19.4194527427
 30
0.0
 11
0.0974129977
 21
0.1748074534
 31
0.0
 40
0.6437101552
 41
0.6611775963
 42
0.7135374739
  0
ELLIPSE
  5
44A
100
AcDbEntity
  8
RACCORDO
100
AcDbEllipse
 62
7
  6
CONTINUOUS
 10
-25.3798522259
 20
24.5630428843
 30
0.0
 11
0.4999863728
 21
0.0072295547
 31
0.0
 40
0.5106100819
 41
-0.6779572665
 42
-0.0074189432
  0
ELLIPSE
  5
44B
100
AcDbEntity
  8
RACCORDO
100
AcDbEllipse
 62
7
  6
CONTINUOUS
 10
-25.3798522259
 20
5.510484001
 30
0.0
 11
0.4999863728
 21
0.0072295547
 31
0.0
 40
0.5106100819
 41
-0.6779572665
 42
-0.0074189432
  0
ELLIPSE
  5
44C
100
AcDbEntity
  8
RACCORDO
100
AcDbEllipse
 62
7
  6
CONTINUOUS
 10
-24.8383922623
 20
18.5797018706
 30
0.0
 11
-0.1342205464
 21
0.2684010681
 31
0.0
 40
0.6121897086
 41
-3.160544254
 42
-2.2557347926
  0
ELLIPSE
  5
44D
100
AcDbEntity
  8
RACCORDO
100
AcDbEllipse
 62
7
  6
CONTINUOUS
 10
-24.8383922623
 20
24.0738124079
 30
0.0
 11
-0.1341484654
 21
0.2683369961
 31
0.0
 40
0.6125552124
 41
-2.255296188
 42
-0.6848044477
  0
ELLIPSE
  5
44E
100
AcDbEntity
  8
RACCORDO
100
AcDbEllipse
 62
7
  6
CONTINUOUS
 10
-24.8383922623
 20
-0.4728570127
 30
0.0
 11
-0.1342205464
 21
0.2684010681
 31
0.0
 40
0.6121897086
 41
-3.160544254
 42
-2.2557347926
  0
ELLIPSE
  5
44F
100
AcDbEntity
  8
RACCORDO
100
AcDbEllipse
 62
7
  6
CONTINUOUS
 10
-24.8383922623
 20
5.0212535247
 30
0.0
 11
-0.1341484654
 21
0.2683369961
 31
0.0
 40
0.6125552124
 41
-2.255296188
 42
-0.6848044477
  0
ELLIPSE
  5
450
100
AcDbEntity
  8
RACCORDO
100
AcDbEllipse
 62
7
  6
CONTINUOUS
 10
-6.3307084874
 20
-17.3734997058
 30
0.0
 11
-0.1341484654
 21
0.2683369961
 31
0.0
 40
0.6125552124
 41
-2.255296188
 42
-0.6848044477
  0
ELLIPSE
  5
451
100
AcDbEntity
  8
RACCORDO
100
AcDbEllipse
 62
7
  6
CONTINUOUS
 10
9.5791940893
 20
-25.3284509942
 30
0.0
 11
-0.1341484654
 21
0.2683369961
 31
0.0
 40
0.6125552124
 41
-2.255296188
 42
-0.6848044477
  0
ELLIPSE
  5
452
100
AcDbEntity
  8
RACCORDO
100
AcDbEllipse
 62
7
  6
CONTINUOUS
 10
8.6439099006
 20
-25.7996992039
 30
0.0
 11
-0.1341484654
 21
0.2683369961
 31
0.0
 40
0.6125552124
 41
4.462141554
 42
5.5983808594
  0
ELLIPSE
  5
453
100
AcDbEntity
  8
RACCORDO
100
AcDbEllipse
 62
7
  6
CONTINUOUS
 10
4.190078178
 20
-23.5727833426
 30
0.0
 11
-0.1342205464
 21
0.2684010681
 31
0.0
 40
0.6121897086
 41
-0.6846338794
 42
0.6678777033
  0
ELLIPSE
  5
454
100
AcDbEntity
  8
RACCORDO
100
AcDbEllipse
 62
7
  6
CONTINUOUS
 10
-7.2659926761
 20
-17.8447479156
 30
0.0
 11
-0.1341484654
 21
0.2683369961
 31
0.0
 40
0.6125552124
 41
4.462141554
 42
5.5983808594
  0
ELLIPSE
  5
455
100
AcDbEntity
  8
RACCORDO
100
AcDbEllipse
 62
7
  6
CONTINUOUS
 10
-11.7198243987
 20
-15.6178320543
 30
0.0
 11
-0.1342205464
 21
0.2684010681
 31
0.0
 40
0.6121897086
 41
-0.6846338794
 42
0.6678777033
  0
ELLIPSE
  5
456
100
AcDbEntity
  8
ASSI
100
AcDbEllipse
 62
7
  6
CONTINUOUS
 10
-10.581512469
 20
-13.5066308367
 30
0.0
 11
0.0823576675
 21
0.1823694112
 31
0.0
 40
0.5796795686
 41
0.6094740628
 42
0.6618339404
  0
ELLIPSE
  5
457
100
AcDbEntity
  8
ASSI
100
AcDbEllipse
 62
7
  6
CONTINUOUS
 10
5.3283901077
 20
-21.5481846655
 30
0.0
 11
0.0823576675
 21
0.1823694112
 31
0.0
 40
0.5796795686
 41
0.6094740628
 42
0.6618339404
  0
ELLIPSE
  5
458
100
AcDbEntity
  8
RACCORDO
100
AcDbEllipse
 62
7
  6
CONTINUOUS
 10
-25.3420068255
 20
5.962952702
 30
0.0
 11
-0.1342205464
 21
0.2684010681
 31
0.0
 40
0.6121897086
 41
2.6191002879
 42
4.0274505145
  0
ELLIPSE
  5
459
100
AcDbEntity
  8
RACCORDO
100
AcDbEllipse
 62
7
  6
CONTINUOUS
 10
-25.3420068255
 20
17.1516677628
 30
0.0
 11
-0.1341484654
 21
0.2683369961
 31
0.0
 40
0.6125552124
 41
-2.255296188
 42
-0.8469459614
  0
ELLIPSE
  5
45A
100
AcDbEntity
  8
RACCORDO
100
AcDbEllipse
 62
7
  6
CONTINUOUS
 10
-25.7736764511
 20
18.1477566379
 30
0.0
 11
-0.1342205464
 21
0.2684010681
 31
0.0
 40
0.6121897086
 41
2.4569587742
 42
4.0274505145
  0
ELLIPSE
  5
45B
100
AcDbEntity
  8
RACCORDO
100
AcDbEllipse
 62
7
  6
CONTINUOUS
 10
-14.5133666839
 20
-13.7877269252
 30
0.0
 11
-0.1341371037
 21
0.2683722998
 31
0.0
 40
0.6123537661
 41
-0.6845550499
 42
0.3838458874
  0
ELLIPSE
  5
45C
100
AcDbEntity
  8
RACCORDO
100
AcDbEllipse
 62
7
  6
CONTINUOUS
 10
-12.2790452657
 20
-14.9048876343
 30
0.0
 11
-0.1341484654
 21
0.2683369961
 31
0.0
 40
0.6125552124
 41
-1.7532033366
 42
-0.6848044477
  0
ELLIPSE
  5
45D
100
AcDbEntity
  8
RACCORDO
100
AcDbEllipse
 62
7
  6
CONTINUOUS
 10
-25.3420068255
 20
-1.9008911205
 30
0.0
 11
-0.1341484654
 21
0.2683369961
 31
0.0
 40
0.6125552124
 41
-2.255296188
 42
-0.8469459614
  0
ELLIPSE
  5
45E
100
AcDbEntity
  8
RACCORDO
100
AcDbEllipse
 62
7
  6
CONTINUOUS
 10
-19.5338248303
 20
-11.277497852
 30
0.0
 11
-0.1341371037
 21
0.2683722998
 31
0.0
 40
0.6123537661
 41
-1.7529559873
 42
-0.6845550499
  0
ELLIPSE
  5
45F
100
AcDbEntity
  8
ASSI
100
AcDbEllipse
 62
7
  6
CONTINUOUS
 10
5.1867746724
 20
-21.9029751248
 30
0.0
 11
0.1997674032
 21
0.1243735635
 31
0.0
 40
0.0775313764
 41
5.4495541764
 42
6.9679906257
  0
ELLIPSE
  5
460
100
AcDbEntity
  8
RACCORDO
100
AcDbEllipse
 62
7
  6
CONTINUOUS
 10
-25.7736764511
 20
-0.9048022453
 30
0.0
 11
-0.1342205464
 21
0.2684010681
 31
0.0
 40
0.6121897086
 41
2.4569587742
 42
4.0274505145
  0
ELLIPSE
  5
461
100
AcDbEntity
  8
ASSI
100
AcDbEllipse
 62
7
  6
CONTINUOUS
 10
-10.7231279043
 20
-13.9480238365
 30
0.0
 11
0.1997674032
 21
0.1243735635
 31
0.0
 40
0.0775313764
 41
5.4495541764
 42
6.9679906257
  0
ELLIPSE
  5
462
100
AcDbEntity
  8
RACCORDO
100
AcDbEllipse
 62
7
  6
CONTINUOUS
 10
1.3965358928
 20
-21.7426782135
 30
0.0
 11
-0.1341371037
 21
0.2683722998
 31
0.0
 40
0.6123537661
 41
-0.6845550499
 42
0.3838458874
  0
ELLIPSE
  5
463
100
AcDbEntity
  8
RACCORDO
100
AcDbEllipse
 62
7
  6
CONTINUOUS
 10
3.630857311
 20
-22.8598389226
 30
0.0
 11
-0.1341484654
 21
0.2683369961
 31
0.0
 40
0.6125552124
 41
-1.7532033366
 42
-0.6848044477
  0
ELLIPSE
  5
464
100
AcDbEntity
  8
RACCORDO
100
AcDbEllipse
 62
7
  6
CONTINUOUS
 10
-5.8582436717
 20
-18.1152884313
 30
0.0
 11
-0.1342205464
 21
0.2684010681
 31
0.0
 40
0.6121897086
 41
-0.6846338794
 42
0.3837650063
  0
ELLIPSE
  5
465
100
AcDbEntity
  8
RACCORDO
100
AcDbEllipse
 62
7
  6
CONTINUOUS
 10
-3.6239222536
 20
-19.2324491403
 30
0.0
 11
-0.1341371037
 21
0.2683722998
 31
0.0
 40
0.6123537661
 41
-1.7529559873
 42
-0.6845550499
  0
ELLIPSE
  5
466
100
AcDbEntity
  8
RACCORDO
100
AcDbEllipse
 62
7
  6
CONTINUOUS
 10
-25.3420068255
 20
25.0155115852
 30
0.0
 11
-0.1342205464
 21
0.2684010681
 31
0.0
 40
0.6121897086
 41
2.6191002879
 42
4.0274505145
  0
ELLIPSE
  5
467
100
AcDbEntity
  8
RACCORDO
100
AcDbEllipse
 62
7
  6
CONTINUOUS
 10
17.3064384695
 20
-29.6976295019
 30
0.0
 11
-0.1341371037
 21
0.2683722998
 31
0.0
 40
0.6123537661
 41
-0.6845550499
 42
0.3838458874
  0
ELLIPSE
  5
468
100
AcDbEntity
  8
RACCORDO
100
AcDbEllipse
 62
7
  6
CONTINUOUS
 10
10.051658905
 20
-26.0702397196
 30
0.0
 11
-0.1342205464
 21
0.2684010681
 31
0.0
 40
0.6121897086
 41
-0.6846338794
 42
0.3837650063
  0
ELLIPSE
  5
469
100
AcDbEntity
  8
RACCORDO
100
AcDbEllipse
 62
7
  6
CONTINUOUS
 10
12.2859803231
 20
-27.1874004287
 30
0.0
 11
-0.1341371037
 21
0.2683722998
 31
0.0
 40
0.6123537661
 41
-1.7529559873
 42
-0.6845550499
  0
ELLIPSE
  5
46A
100
AcDbEntity
  8
RACCORDO
100
AcDbEllipse
 62
7
  6
CONTINUOUS
 10
-25.7736764511
 20
4.550005315
 30
0.0
 11
-0.1341484654
 21
0.2683369961
 31
0.0
 40
0.6125552124
 41
-2.255296188
 42
-0.6848044477
  0
ELLIPSE
  5
46B
100
AcDbEntity
  8
RACCORDO
100
AcDbEllipse
 62
7
  6
CONTINUOUS
 10
-25.7736764511
 20
23.6025641982
 30
0.0
 11
-0.1341484654
 21
0.2683369961
 31
0.0
 40
0.6125552124
 41
-2.255296188
 42
-0.6848044477
  0
ENDSEC
  0
SECTION
  2
OBJECTS
  0
DICTIONARY
  5
C
100
AcDbDictionary
280
0
281
1
  3
ACAD_GROUP
350
D
  3
ACAD_MLINESTYLE
350
17
  3
ACAD_LAYOUT
350
1A
  3
ACAD_PLOTSETTINGS
350
19
  3
ACAD_PLOTSTYLENAME
350
E
  0
DICTIONARY
  5
D
102
{ACAD_REACTORS
330
C
102
}
100
AcDbDictionary
280
0
281
1
  0
ACDBDICTIONARYWDFLT
  5
E
102
{ACAD_REACTORS
330
C
102
}
100
AcDbDictionary
281
1
  3
Normal
350
F
100
AcDbDictionaryWithDefault
340
F
  0
DICTIONARY
  5
17
102
{ACAD_REACTORS
330
C
102
}
100
AcDbDictionary
280
0
281
1
  3
Standard
350
18
  0
DICTIONARY
  5
19
102
{ACAD_REACTORS
330
C
102
}
100
AcDbDictionary
281
1
  0
DICTIONARY
  5
1A
102
{ACAD_REACTORS
330
C
102
}
100
AcDbDictionary
281
1
  3
Model
350
46C
  3
Layout1
350
46D
  0
ACDBPLACEHOLDER
  5
F
102
{ACAD_REACTORS
330
E
102
}
  0
MLINESTYLE
  5
18
102
{ACAD_REACTORS
330
17
102
}
100
AcDbMlineStyle
  2
STANDARD
 70
0
  3

 62
256
 51
90.0
 52
90.0
 71
2
 49
0.5
 62
256
  6
BYLAYER
 49
-0.5
 62
256
  6
BYLAYER
  0
LAYOUT
  5
46C
102
{ACAD_REACTORS
330
1A
102
}
100
AcDbPlotSettings
  1

  2
none_device
  4
ISO_A4_(297.00_x_210.00_MM)
  6

 40
0.0
 41
0.0
 42
0.0
 43
0.0
 44
297.0
 45
210.0
 46
0.0
 47
0.0
 48
0.0
 49
0.0
140
0.0
141
0.0
142
1.0
143
1.0
 70
1024
 72
1
 73
0
 74
0
  7

 75
0
147
1.0
148
0.0
149
0.0
100
AcDbLayout
  1
Model
 70
0
 71
0
 10
0.0
 20
0.0
 11
297.0
 21
210.0
 12
0.0
 22
0.0
 32
0.0
 14
0.0
 24
0.0
 34
0.0
 15
0.0
 25
0.0
 35
0.0
146
0.0
 13
0.0
 23
0.0
 33
0.0
 16
1.0
 26
0.0
 36
0.0
 17
0.0
 27
1.0
 37
0.0
 76
0
330
212
345
0
346
0
  0
LAYOUT
  5
46D
102
{ACAD_REACTORS
330
1A
102
}
100
AcDbPlotSettings
  1

  2
none_device
  4
ISO_A4_(297.00_x_210.00_MM)
  6

 40
0.0
 41
0.0
 42
0.0
 43
0.0
 44
297.0
 45
210.0
 46
0.0
 47
0.0
 48
0.0
 49
0.0
140
0.0
141
0.0
142
1.0
143
1.0
 70
0
 72
1
 73
0
 74
0
  7

 75
0
147
1.0
148
0.0
149
0.0
100
AcDbLayout
  1
Layout1
 70
0
 71
1
 10
0.0
 20
0.0
 11
297.0
 21
210.0
 12
0.0
 22
0.0
 32
0.0
 14
0.0
 24
0.0
 34
0.0
 15
0.0
 25
0.0
 35
0.0
146
0.0
 13
0.0
 23
0.0
 33
0.0
 16
1.0
 26
0.0
 36
0.0
 17
0.0
 27
1.0
 37
0.0
 76
0
330
213
345
0
346
0
  0
ENDSEC
  0
EOF
