  0
SECTION
  2
HEADER
  9
$ACADVER
  1
AC1015
  9
$DWGCODEPAGE
  3
ANSI_1252
  9
$EXTMAX
 10
297.0
 20
210.0
 30
0.0
  9
$EXTMIN
 10
0.0
 20
0.0
 30
0.0
  9
$LIMMIN
 10
0.0
 20
0.0
  9
$LIMMAX
 10
297.0
 20
210.0
  9
$VIEWCTR
 10
148.5
 20
105.0
  9
$VIEWSIZE
 40
210.0
  9
$CLAYER
  8
0
  9
$LTSCALE
 40
16.335
  9
$CELTYPE
  6
BYLAYER
  9
$DIMSCALE
 40
1.0
  9
$DIMASZ
 40
3.0
  9
$DIMEXO
 40
1.85625
  9
$DIMDLI
 40
11.286
  9
$DIMEXE
 40
5.346
  9
$DIMCEN
 40
2.673
  9
$DIMLFAC
 40
1.0
  9
$DIMBLK
  1
_FILLED
  9
$DIMTXT
 40
3.0
  9
$DIMTOL
 70
1
  9
$DIMLIM
 70
0
  9
$DIMTFAC
 40
1.0
  9
$DIMTP
 40
0.01
  9
$DIMTM
 40
0.01
  9
$PDMODE
 70
3
  9
$PDSIZE
 40
3.0
  9
$HANDSEED
  5
48D
  9
$TILEMODE
 70
1
  9
$MEASUREMENT
 70
1
  9
$INSUNITS
 70
4
  0
ENDSEC
  0
SECTION
  2
CLASSES
  0
CLASS
  1
ACDBDICTIONARYWDFLT
  2
AcDbDictionaryWithDefault
  3
AutoCAD 2000
 90
0
280
0
281
0
  0
CLASS
  1
ACDBPLACEHOLDER
  2
AcDbPlaceHolder
  3
AutoCAD 2000
 90
0
280
0
281
0
  0
CLASS
  1
LAYOUT
  2
AcDbLayout
  3
AutoCAD 2000
 90
0
280
0
281
0
  0
ENDSEC
  0
SECTION
  2
TABLES
  0
TABLE
  2
VPORT
  5
8
100
AcDbSymbolTable
 70
2
  0
VPORT
  5
1F4
100
AcDbSymbolTableRecord
100
AcDbViewportTableRecord
  2
*ACTIVE
 70
0
 10
0.0
 20
0.0
 11
1.0
 21
1.0
 12
148.5
 22
105.0
 13
0.0
 23
0.0
 14
1.0
 24
1.0
 15
0.0
 25
0.0
 16
0.0
 26
0.0
 36
1.0
 17
0.0
 27
0.0
 37
0.0
 40
210.0
 41
1.4142857143
 42
50.0
 43
0.0
 44
0.0
 50
0.0
 51
0.0
 71
0
 72
100
 73
1
 74
1
 75
0
 76
0
 77
0
 78
0
  0
ENDTAB
  0
TABLE
  2
LTYPE
  5
5
100
AcDbSymbolTable
 70
6
  0
LTYPE
  5
14
100
AcDbSymbolTableRecord
100
AcDbLinetypeTableRecord
  2
BYBLOCK
 70
0
  3

 72
65
 73
0
 40
0.0
  0
LTYPE
  5
15
100
AcDbSymbolTableRecord
100
AcDbLinetypeTableRecord
  2
BYLAYER
 70
0
  3

 72
65
 73
0
 40
0.0
  0
LTYPE
  5
16
100
AcDbSymbolTableRecord
100
AcDbLinetypeTableRecord
  2
CONTINUOUS
 70
64
  3
Solid line
 72
65
 73
0
 40
0.0
  0
LTYPE
  5
1F5
100
AcDbSymbolTableRecord
100
AcDbLinetypeTableRecord
  2
CENTER
 70
64
  3
____ _ ____ _ ____ _ ____ _ ____ _ ____ _ ____
 72
65
 73
4
 40
0.6
 49
0.375
 74
0
 49
-0.075
 74
0
 49
0.075
 74
0
 49
-0.075
 74
0
  0
LTYPE
  5
1F6
100
AcDbSymbolTableRecord
100
AcDbLinetypeTableRecord
  2
HIDDEN
 70
64
  3
- - - - - - - - - - - - - - - - - - - -
 72
65
 73
2
 40
0.2
 49
0.1
 74
0
 49
-0.1
 74
0
  0
LTYPE
  5
1F7
100
AcDbSymbolTableRecord
100
AcDbLinetypeTableRecord
  2
PHANTOM
 70
64
  3
_____ _ _ _____ _ _ _____ _ _ _____
 72
65
 73
6
 40
0.8
 49
0.45
 74
0
 49
-0.05
 74
0
 49
0.1
 74
0
 49
-0.05
 74
0
 49
0.1
 74
0
 49
-0.05
 74
0
  0
LTYPE
  5
1F8
100
AcDbSymbolTableRecord
100
AcDbLinetypeTableRecord
  2
DOT
 70
64
  3
. . . . . . . . . . . . . . . . . . . .
 72
65
 73
2
 40
0.2
 49
0.1
 74
0
 49
-0.1
 74
0
  0
LTYPE
  5
1F9
100
AcDbSymbolTableRecord
100
AcDbLinetypeTableRecord
  2
DASHED
 70
64
  3
- - - - - - - - - - - - - - - - - - - -
 72
65
 73
2
 40
0.2
 49
0.1
 74
0
 49
-0.1
 74
0
  0
ENDTAB
  0
TABLE
  2
LAYER
  5
2
100
AcDbSymbolTable
 70
36
  0
LAYER
  5
10
100
AcDbSymbolTableRecord
100
AcDbLayerTableRecord
  2
0
 70
0
 62
7
  6
CONTINUOUS
370
-3
390
F
  0
LAYER
  5
1FA
100
AcDbSymbolTableRecord
100
AcDbLayerTableRecord
  2
DEFAULT_1
 70
0
 62
7
  6
CENTER
370
-3
390
F
  0
LAYER
  5
1FB
100
AcDbSymbolTableRecord
100
AcDbLayerTableRecord
  2
DEFAULT_2
 70
0
 62
7
  6
HIDDEN
370
-3
390
F
  0
LAYER
  5
1FC
100
AcDbSymbolTableRecord
100
AcDbLayerTableRecord
  2
DEFAULT_3
 70
0
 62
7
  6
PHANTOM
370
-3
390
F
  0
LAYER
  5
1FD
100
AcDbSymbolTableRecord
100
AcDbLayerTableRecord
  2
ASSI
 70
0
 62
7
  6
CONTINUOUS
370
-3
390
F
  0
LAYER
  5
1FE
100
AcDbSymbolTableRecord
100
AcDbLayerTableRecord
  2
COORDINATE
 70
0
 62
7
  6
CONTINUOUS
370
-3
390
F
  0
LAYER
  5
1FF
100
AcDbSymbolTableRecord
100
AcDbLayerTableRecord
  2
COORD_ORIGINE
 70
0
 62
7
  6
CONTINUOUS
370
-3
390
F
  0
LAYER
  5
200
100
AcDbSymbolTableRecord
100
AcDbLayerTableRecord
  2
COPY_PUBLISH
 70
0
 62
7
  6
CONTINUOUS
370
-3
390
F
  0
LAYER
  5
201
100
AcDbSymbolTableRecord
100
AcDbLayerTableRecord
  2
COSMETIC
 70
0
 62
7
  6
CONTINUOUS
370
-3
390
F
  0
LAYER
  5
202
100
AcDbSymbolTableRecord
100
AcDbLayerTableRecord
  2
CURVE
 70
0
 62
7
  6
CONTINUOUS
370
-3
390
F
  0
LAYER
  5
203
100
AcDbSymbolTableRecord
100
AcDbLayerTableRecord
  2
DRAFT
 70
0
 62
7
  6
CONTINUOUS
370
-3
390
F
  0
LAYER
  5
204
100
AcDbSymbolTableRecord
100
AcDbLayerTableRecord
  2
IMPORT_IGES
 70
0
 62
7
  6
CONTINUOUS
370
-3
390
F
  0
LAYER
  5
205
100
AcDbSymbolTableRecord
100
AcDbLayerTableRecord
  2
INTFCLR_2
 70
0
 62
7
  6
CONTINUOUS
370
-3
390
F
  0
LAYER
  5
206
100
AcDbSymbolTableRecord
100
AcDbLayerTableRecord
  2
PIANI
 70
0
 62
7
  6
CONTINUOUS
370
-3
390
F
  0
LAYER
  5
207
100
AcDbSymbolTableRecord
100
AcDbLayerTableRecord
  2
PIANI_ORIGINE
 70
0
 62
7
  6
CONTINUOUS
370
-3
390
F
  0
LAYER
  5
208
100
AcDbSymbolTableRecord
100
AcDbLayerTableRecord
  2
PIANI_RIFERIMENTO
 70
0
 62
7
  6
CONTINUOUS
370
-3
390
F
  0
LAYER
  5
209
100
AcDbSymbolTableRecord
100
AcDbLayerTableRecord
  2
PUNTI
 70
0
 62
7
  6
CONTINUOUS
370
-3
390
F
  0
LAYER
  5
20A
100
AcDbSymbolTableRecord
100
AcDbLayerTableRecord
  2
RACCORDO
 70
0
 62
7
  6
CONTINUOUS
370
-3
390
F
  0
LAYER
  5
20B
100
AcDbSymbolTableRecord
100
AcDbLayerTableRecord
  2
SMUSSO
 70
0
 62
7
  6
CONTINUOUS
370
-3
390
F
  0
LAYER
  5
20C
100
AcDbSymbolTableRecord
100
AcDbLayerTableRecord
  2
SNAPLINE
 70
0
 62
7
  6
CONTINUOUS
370
-3
390
F
  0
LAYER
  5
20D
100
AcDbSymbolTableRecord
100
AcDbLayerTableRecord
  2
SUPERFICI
 70
0
 62
7
  6
CONTINUOUS
370
-3
390
F
  0
LAYER
  5
20E
100
AcDbSymbolTableRecord
100
AcDbLayerTableRecord
  2
TRASH
 70
0
 62
7
  6
CONTINUOUS
370
-3
390
F
  0
LAYER
  5
20F
100
AcDbSymbolTableRecord
100
AcDbLayerTableRecord
  2
XSEC_DATUMS
 70
0
 62
7
  6
CONTINUOUS
370
-3
390
F
  0
ENDTAB
  0
TABLE
  2
STYLE
  5
3
100
AcDbSymbolTable
 70
1
  0
STYLE
  5
11
100
AcDbSymbolTableRecord
100
AcDbTextStyleTableRecord
  2
STANDARD
 70
0
 40
0.0
 41
0.8
 50
0.0
 71
0
 42
0.2
  3
txt
  4

  0
STYLE
  5
210
100
AcDbSymbolTableRecord
100
AcDbTextStyleTableRecord
  2
TEXTSTYLE_1
 70
0
 40
0.0
 41
0.8
 50
0.0
 71
0
 42
0.2
  3
gdt
  4

  0
ENDTAB
  0
TABLE
  2
VIEW
  5
6
100
AcDbSymbolTable
 70
0
  0
ENDTAB
  0
TABLE
  2
UCS
  5
7
100
AcDbSymbolTable
 70
0
  0
ENDTAB
  0
TABLE
  2
APPID
  5
9
100
AcDbSymbolTable
 70
1
  0
APPID
  5
211
100
AcDbSymbolTableRecord
100
AcDbRegAppTableRecord
  2
ACAD
 70
0
  0
ENDTAB
  0
TABLE
  2
BLOCK_RECORD
  5
1
100
AcDbSymbolTable
 70
0
  0
BLOCK_RECORD
  5
212
100
AcDbSymbolTableRecord
100
AcDbBlockTableRecord
  2
*Model_Space
  0
BLOCK_RECORD
  5
213
100
AcDbSymbolTableRecord
100
AcDbBlockTableRecord
  2
*Paper_Space
  0
ENDTAB
  0
TABLE
  2
DIMSTYLE
  5
A
100
AcDbSymbolTable
 70
1
100
AcDbDimStyleTable
 71
0
  0
DIMSTYLE
105
214
100
AcDbSymbolTableRecord
100
AcDbDimStyleTableRecord
  2
STANDARD
 70
0
  3

  4

 40
1.0
 41
3.0
 42
0.0625
 43
0.38
 44
0.18
 45
0.0
 46
0.0
 47
0.01
 48
0.01
140
3.0
141
0.09
142
0.0
143
25.4
144
1.0
145
0.0
146
1.0
147
0.09
 71
1.0
 72
0.0
 73
0
 74
0
 75
0
 76
0
 77
1
 78
8
170
0
171
2
172
0
173
0
174
0
175
0
176
0
177
0
178
0
270
2
271
2
272
2
273
2
274
2
275
0
280
0
281
0
282
0
283
1
284
8
285
0
286
0
287
3
288
0
340
11
  0
ENDTAB
  0
ENDSEC
  0
SECTION
  2
BLOCKS
  0
BLOCK
  5
20
100
AcDbEntity
  8
0
100
AcDbBlockBegin
  2
*Model_Space
 70
0
 10
0.0
 20
0.0
 30
0.0
  3
*Model_Space
  1

  0
ENDBLK
  5
21
100
AcDbEntity
  8
0
100
AcDbBlockEnd
  0
BLOCK
  5
1C
100
AcDbEntity
  8
0
100
AcDbBlockBegin
  2
*Paper_Space
 70
0
 10
0.0
 20
0.0
 30
0.0
  3
*Paper_Space
  1

  0
ENDBLK
  5
1D
100
AcDbEntity
  8
0
100
AcDbBlockEnd
  0
ENDSEC
  0
SECTION
  2
ENTITIES
  0
LINE
  5
215
100
AcDbEntity
  8
RACCORDO
100
AcDbLine
 62
7
  6
CONTINUOUS
 10
-40.7016446201
 20
66.5630106148
 11
-39.3299578826
 21
67.2757198107
  0
LINE
  5
216
100
AcDbEntity
  8
SMUSSO
100
AcDbLine
 62
7
  6
CONTINUOUS
 10
-40.0217893843
 20
66.5250298794
 11
-38.6488868744
 21
67.2383707735
  0
LINE
  5
217
100
AcDbEntity
  8
RACCORDO
100
AcDbLine
 62
7
  6
CONTINUOUS
 10
-43.3862903977
 20
65.5674569561
 11
-41.618524039
 21
66.4513401355
  0
LINE
  5
218
100
AcDbEntity
  8
SMUSSO
100
AcDbLine
 62
7
  6
CONTINUOUS
 10
-42.9390773965
 20
65.5390548718
 11
-41.1713104435
 21
66.4229383483
  0
LINE
  5
219
100
AcDbEntity
  8
SMUSSO
100
AcDbLine
 62
7
  6
CONTINUOUS
 10
-43.6461841777
 20
64.3194760774
 11
-42.9390773965
 21
65.5390548718
  0
LINE
  5
21A
100
AcDbEntity
  8
SMUSSO
100
AcDbLine
 62
7
  6
CONTINUOUS
 10
-40.3245664851
 20
65.999566369
 11
-40.0217893843
 21
66.5250298794
  0
LINE
  5
21B
100
AcDbEntity
  8
SMUSSO
100
AcDbLine
 62
7
  6
CONTINUOUS
 10
38.37820244
 20
-66.759359225
 11
39.7924160023
 21
-66.759359225
  0
LINE
  5
21C
100
AcDbEntity
  8
SMUSSO
100
AcDbLine
 62
7
  6
CONTINUOUS
 10
41.5601829553
 20
-64.9774089524
 11
42.249072216
 21
-64.9789118851
  0
LINE
  5
21D
100
AcDbEntity
  8
SMUSSO
100
AcDbLine
 62
7
  6
CONTINUOUS
 10
-43.6461841777
 20
-25.7471659162
 11
-43.6461841777
 21
65.0265828586
  0
LWPOLYLINE
  5
21E
100
AcDbEntity
  8
RACCORDO
100
AcDbPolyline
 62
7
  6
CONTINUOUS
 90
13
 70
0
 10
-29.0227567019
 20
34.283137505
 10
-29.0423720896
 20
34.2719028991
 10
-29.0801859385
 20
34.2462691253
 10
-29.1156156056
 20
34.2166312272
 10
-29.1482871782
 20
34.1831719095
 10
-29.1778372455
 20
34.1461492574
 10
-29.2041639578
 20
34.1055499768
 10
-29.2269888235
 20
34.0615458197
 10
-29.2460060423
 20
34.0144091788
 10
-29.2610640755
 20
33.9640948611
 10
-29.2719341892
 20
33.9106373854
 10
-29.2783159937
 20
33.8542718519
 10
-29.2800263443
 20
33.8050186456
  0
LINE
  5
21F
100
AcDbEntity
  8
RACCORDO
100
AcDbLine
 62
7
  6
CONTINUOUS
 10
-29.0227974153
 20
34.283117218
 11
-28.7397474094
 21
34.4358292207
  0
LINE
  5
220
100
AcDbEntity
  8
RACCORDO
100
AcDbLine
 62
7
  6
CONTINUOUS
 10
-28.7009389761
 20
34.2678526817
 11
-28.4193957094
 21
34.4197517332
  0
LINE
  5
221
100
AcDbEntity
  8
SMUSSO
100
AcDbLine
 62
7
  6
CONTINUOUS
 10
-42.9390773965
 20
-26.2596379294
 11
39.0853092211
 21
-67.2718312382
  0
LINE
  5
222
100
AcDbEntity
  8
SMUSSO
100
AcDbLine
 62
7
  6
CONTINUOUS
 10
-43.6461841777
 20
-25.7471659162
 11
38.37820244
 21
-66.759359225
  0
LINE
  5
223
100
AcDbEntity
  8
SMUSSO
100
AcDbLine
 62
7
  6
CONTINUOUS
 10
-43.6461841777
 20
-25.7471659162
 11
-42.9390773965
 21
-26.2596379294
  0
LINE
  5
224
100
AcDbEntity
  8
SMUSSO
100
AcDbLine
 62
7
  6
CONTINUOUS
 10
-43.6461841777
 20
-25.7471659162
 11
-43.0804954799
 21
-26.1714324395
  0
LINE
  5
225
100
AcDbEntity
  8
DRAFT
100
AcDbLine
 62
7
  6
CONTINUOUS
 10
-24.7774001511
 20
24.4994707433
 11
-25.2912090382
 21
24.2141494531
  0
LINE
  5
226
100
AcDbEntity
  8
RACCORDO
100
AcDbLine
 62
7
  6
CONTINUOUS
 10
-24.308015663
 20
24.6958371429
 11
-25.2432998517
 21
24.2245889332
  0
LINE
  5
227
100
AcDbEntity
  8
RACCORDO
100
AcDbLine
 62
7
  6
CONTINUOUS
 10
-24.0959159374
 20
24.330019229
 11
-25.0312001261
 21
23.8587710192
  0
LINE
  5
228
100
AcDbEntity
  8
RACCORDO
100
AcDbLine
 62
7
  6
CONTINUOUS
 10
-24.5995305005
 20
25.2715601144
 11
-24.0239709998
 21
25.5373725652
  0
LINE
  5
229
100
AcDbEntity
  8
RACCORDO
100
AcDbLine
 62
7
  6
CONTINUOUS
 10
-24.6806678451
 20
25.1077857355
 11
-24.1051083443
 21
25.3735981863
  0
LINE
  5
22A
100
AcDbEntity
  8
SMUSSO
100
AcDbLine
 62
7
  6
CONTINUOUS
 10
38.37820244
 20
-66.759359225
 11
39.0853092211
 21
-67.2718312382
  0
LWPOLYLINE
  5
22B
100
AcDbEntity
  8
RACCORDO
100
AcDbPolyline
 62
7
  6
CONTINUOUS
 90
12
 70
0
 10
-29.2785638823
 20
-10.5109755895
 10
-29.272562447
 20
-10.5704577677
 10
-29.2621079734
 20
-10.6298018547
 10
-29.2473879824
 20
-10.6887771568
 10
-29.2285896838
 20
-10.7469770611
 10
-29.2058424344
 20
-10.8042080232
 10
-29.1792620458
 20
-10.8601575912
 10
-29.1491354435
 20
-10.9141881632
 10
-29.1155069114
 20
-10.966164879
 10
-29.0785248322
 20
-11.0156643982
 10
-29.0388051747
 20
-11.0618028996
 10
-28.9964752411
 20
-11.1043790727
  0
LINE
  5
22C
100
AcDbEntity
  8
RACCORDO
100
AcDbLine
 62
7
  6
CONTINUOUS
 10
-29.2800266249
 20
-10.4643429999
 11
-29.2785638823
 21
-10.5109755895
  0
LINE
  5
22D
100
AcDbEntity
  8
RACCORDO
100
AcDbLine
 62
7
  6
CONTINUOUS
 10
-29.2800363957
 20
33.8049781497
 11
-29.2800363957
 21
-10.4645011986
  0
LINE
  5
22E
100
AcDbEntity
  8
RACCORDO
100
AcDbLine
 62
7
  6
CONTINUOUS
 10
-29.1921684301
 20
33.6989121361
 11
-29.1921684301
 21
-10.5733637288
  0
LINE
  5
22F
100
AcDbEntity
  8
RACCORDO
100
AcDbLine
 62
7
  6
CONTINUOUS
 10
-27.5397176176
 20
-9.1579601422
 11
-27.5397176176
 21
30.6338542497
  0
LINE
  5
230
100
AcDbEntity
  8
RACCORDO
100
AcDbLine
 62
7
  6
CONTINUOUS
 10
-27.1555126524
 20
-9.1747672143
 11
-27.1555126524
 21
30.6170476783
  0
LINE
  5
231
100
AcDbEntity
  8
DRAFT
100
AcDbLine
 62
7
  6
CONTINUOUS
 10
-24.7774001511
 20
18.0042802149
 11
-25.2912090382
 21
17.7189589247
  0
LINE
  5
232
100
AcDbEntity
  8
RACCORDO
100
AcDbLine
 62
7
  6
CONTINUOUS
 10
-24.7774001511
 20
17.790939514
 11
-24.2360707254
 21
18.0636913961
  0
LINE
  5
233
100
AcDbEntity
  8
RACCORDO
100
AcDbLine
 62
7
  6
CONTINUOUS
 10
-24.5995305005
 20
17.4078745838
 11
-24.0239709998
 21
17.6978734821
  0
LINE
  5
234
100
AcDbEntity
  8
RACCORDO
100
AcDbLine
 62
7
  6
CONTINUOUS
 10
-25.0312001261
 20
18.4038051671
 11
-24.0959159374
 21
18.8357503997
  0
LINE
  5
235
100
AcDbEntity
  8
RACCORDO
100
AcDbLine
 62
7
  6
CONTINUOUS
 10
-25.1123374706
 20
18.2400307882
 11
-24.1770532819
 21
18.6719760208
  0
LWPOLYLINE
  5
236
100
AcDbEntity
  8
RACCORDO
100
AcDbPolyline
 62
7
  6
CONTINUOUS
 90
4
 70
0
 10
-28.9516329991
 20
-11.1431696812
 10
-28.9049429877
 20
-11.177523398
 10
-28.8567312503
 20
-11.2071813943
 10
-28.8313498729
 20
-11.2205994123
  0
LINE
  5
237
100
AcDbEntity
  8
RACCORDO
100
AcDbLine
 62
7
  6
CONTINUOUS
 10
-28.9964752411
 20
-11.1043790727
 11
-28.9516329991
 21
-11.1431696812
  0
LWPOLYLINE
  5
238
100
AcDbEntity
  8
RACCORDO
100
AcDbPolyline
 62
7
  6
CONTINUOUS
 90
18
 70
0
 10
-23.3180636429
 20
-7.6350160023
 10
-23.3186518618
 20
-7.616138988
 10
-23.3203212795
 20
-7.5981132482
 10
-23.3231245539
 20
-7.5799115936
 10
-23.3271087221
 20
-7.561609467
 10
-23.3323174733
 20
-7.5432854654
 10
-23.338784912
 20
-7.5250384152
 10
-23.3465449916
 20
-7.5069543789
 10
-23.355638526
 20
-7.4891055459
 10
-23.3660880301
 20
-7.471602749
 10
-23.3779069298
 20
-7.454562924
 10
-23.3911203525
 20
-7.4380831567
 10
-23.4057263111
 20
-7.4222948491
 10
-23.4217098752
 20
-7.4073346337
 10
-23.439068259
 20
-7.393323384
 10
-23.4577697351
 20
-7.3804047585
 10
-23.4777535356
 20
-7.368733671
 10
-23.4849018803
 20
-7.3650392711
  0
LINE
  5
239
100
AcDbEntity
  8
RACCORDO
100
AcDbLine
 62
7
  6
CONTINUOUS
 10
-25.6471955894
 20
30.0844369428
 11
-25.6471955894
 21
-8.0626035636
  0
LINE
  5
23A
100
AcDbEntity
  8
RACCORDO
100
AcDbLine
 62
7
  6
CONTINUOUS
 10
-25.5866546224
 20
30.0541664593
 11
-25.5866546224
 21
-8.0376505026
  0
LINE
  5
23B
100
AcDbEntity
  8
RACCORDO
100
AcDbLine
 62
7
  6
CONTINUOUS
 10
-25.2912090382
 20
-7.8887885799
 11
-25.2912090382
 21
29.9064436672
  0
LINE
  5
23C
100
AcDbEntity
  8
RACCORDO
100
AcDbLine
 62
7
  6
CONTINUOUS
 10
-25.0312001261
 20
23.8587710192
 11
-25.0312001261
 21
18.4038051671
  0
LINE
  5
23D
100
AcDbEntity
  8
RACCORDO
100
AcDbLine
 62
7
  6
CONTINUOUS
 10
-25.0312001261
 20
4.806212136
 11
-25.0312001261
 21
-0.6487537162
  0
LINE
  5
23E
100
AcDbEntity
  8
RACCORDO
100
AcDbLine
 62
7
  6
CONTINUOUS
 10
-24.7774001511
 20
29.6495392236
 11
-24.7774001511
 21
24.4994707433
  0
LINE
  5
23F
100
AcDbEntity
  8
DRAFT
100
AcDbLine
 62
7
  6
CONTINUOUS
 10
-24.7774001511
 20
18.0042802149
 11
-24.7774001511
 21
5.44691186
  0
LINE
  5
240
100
AcDbEntity
  8
RACCORDO
100
AcDbLine
 62
7
  6
CONTINUOUS
 10
-24.7774001511
 20
-1.0482786684
 11
-24.7774001511
 21
-7.6438596095
  0
LINE
  5
241
100
AcDbEntity
  8
RACCORDO
100
AcDbLine
 62
7
  6
CONTINUOUS
 10
-24.5995305005
 20
-7.8574319822
 11
-24.5995305005
 21
-1.6446842994
  0
LINE
  5
242
100
AcDbEntity
  8
RACCORDO
100
AcDbLine
 62
7
  6
CONTINUOUS
 10
-24.5995305005
 20
6.2190012311
 11
-24.5995305005
 21
17.4078745838
  0
LINE
  5
243
100
AcDbEntity
  8
RACCORDO
100
AcDbLine
 62
7
  6
CONTINUOUS
 10
-24.5995305005
 20
25.2715601144
 11
-24.5995305005
 21
29.5606043984
  0
LINE
  5
244
100
AcDbEntity
  8
RACCORDO
100
AcDbLine
 62
7
  6
CONTINUOUS
 10
-24.4898703488
 20
25.195902342
 11
-24.4898703488
 21
24.7867644859
  0
LINE
  5
245
100
AcDbEntity
  8
RACCORDO
100
AcDbLine
 62
7
  6
CONTINUOUS
 10
-24.4898703488
 20
18.5275067329
 11
-24.4898703488
 21
18.1905912078
  0
LINE
  5
246
100
AcDbEntity
  8
RACCORDO
100
AcDbLine
 62
7
  6
CONTINUOUS
 10
-24.4898703488
 20
6.1433434588
 11
-24.4898703488
 21
5.7342056026
  0
LINE
  5
247
100
AcDbEntity
  8
RACCORDO
100
AcDbLine
 62
7
  6
CONTINUOUS
 10
-24.4898703488
 20
-0.8619676754
 11
-24.4898703488
 21
-0.5250521504
  0
LINE
  5
248
100
AcDbEntity
  8
RACCORDO
100
AcDbLine
 62
7
  6
CONTINUOUS
 10
-24.349540249
 20
25.2607114325
 11
-24.349540249
 21
24.9305643734
  0
LINE
  5
249
100
AcDbEntity
  8
RACCORDO
100
AcDbLine
 62
7
  6
CONTINUOUS
 10
-24.349540249
 20
18.5923158234
 11
-24.349540249
 21
18.1204261579
  0
LINE
  5
24A
100
AcDbEntity
  8
RACCORDO
100
AcDbLine
 62
7
  6
CONTINUOUS
 10
-24.349540249
 20
6.2081525493
 11
-24.349540249
 21
5.8780054901
  0
LINE
  5
24B
100
AcDbEntity
  8
RACCORDO
100
AcDbLine
 62
7
  6
CONTINUOUS
 10
-24.349540249
 20
-0.9321327254
 11
-24.349540249
 21
-0.4602430599
  0
LINE
  5
24C
100
AcDbEntity
  8
RACCORDO
100
AcDbLine
 62
7
  6
CONTINUOUS
 10
-24.0959159374
 20
24.330019229
 11
-24.0959159374
 21
18.8357503997
  0
LINE
  5
24D
100
AcDbEntity
  8
RACCORDO
100
AcDbLine
 62
7
  6
CONTINUOUS
 10
-24.0959159374
 20
5.2774603457
 11
-24.0959159374
 21
-0.2168084835
  0
LINE
  5
24E
100
AcDbEntity
  8
RACCORDO
100
AcDbLine
 62
7
  6
CONTINUOUS
 10
-24.0239709998
 20
-7.5674330839
 11
-24.0239709998
 21
-1.3546854012
  0
LINE
  5
24F
100
AcDbEntity
  8
RACCORDO
100
AcDbLine
 62
7
  6
CONTINUOUS
 10
-24.0239709998
 20
6.4848136819
 11
-24.0239709998
 21
17.6978734821
  0
LINE
  5
250
100
AcDbEntity
  8
RACCORDO
100
AcDbLine
 62
7
  6
CONTINUOUS
 10
-24.0239709998
 20
25.5373725652
 11
-24.0239709998
 21
29.272824648
  0
LINE
  5
251
100
AcDbEntity
  8
RACCORDO
100
AcDbLine
 62
7
  6
CONTINUOUS
 10
-23.4583942187
 20
-7.7579559523
 11
-23.4583942187
 21
-7.8502214744
  0
LINE
  5
252
100
AcDbEntity
  8
RACCORDO
100
AcDbLine
 62
7
  6
CONTINUOUS
 10
-23.3180641189
 20
-7.6357713766
 11
-23.3180641189
 21
-7.9203865243
  0
LINE
  5
253
100
AcDbEntity
  8
RACCORDO
100
AcDbLine
 62
7
  6
CONTINUOUS
 10
-20.7549417315
 20
16.4841270607
 11
-20.7549417315
 21
11.0837390072
  0
LINE
  5
254
100
AcDbEntity
  8
RACCORDO
100
AcDbLine
 62
7
  6
CONTINUOUS
 10
-24.0239709998
 20
15.3336853856
 11
-20.9670414572
 21
16.8499449747
  0
LINE
  5
255
100
AcDbEntity
  8
RACCORDO
100
AcDbLine
 62
7
  6
CONTINUOUS
 10
-24.0239709998
 20
14.8626644441
 11
-20.7549417315
 21
16.4841270607
  0
LINE
  5
256
100
AcDbEntity
  8
RACCORDO
100
AcDbLine
 62
7
  6
CONTINUOUS
 10
-21.4047063352
 20
17.0147726119
 11
-23.6545633885
 21
15.9757140669
  0
LINE
  5
257
100
AcDbEntity
  8
RACCORDO
100
AcDbLine
 62
7
  6
CONTINUOUS
 10
-21.2752205077
 20
17.0040345
 11
-23.5812253476
 21
15.9390450465
  0
LWPOLYLINE
  5
258
100
AcDbEntity
  8
RACCORDO
100
AcDbPolyline
 62
7
  6
CONTINUOUS
 90
11
 70
0
 10
22.7295500068
 20
-37.0010498026
 10
22.7637460269
 20
-37.0168435734
 10
22.8138476874
 20
-37.0354572903
 10
22.864483654
 20
-37.0489695524
 10
22.9153141542
 20
-37.0572997819
 10
22.9657452279
 20
-37.0603955045
 10
23.01531305
 20
-37.0583087402
 10
23.0636230393
 20
-37.0511693395
 10
23.110047169
 20
-37.0392323175
 10
23.1540964803
 20
-37.022841079
 10
23.1647931328
 20
-37.0180454495
  0
LINE
  5
259
100
AcDbEntity
  8
RACCORDO
100
AcDbLine
 62
7
  6
CONTINUOUS
 10
-28.8314008401
 20
-11.220586575
 11
22.7294055197
 21
-37.0009897549
  0
LINE
  5
25A
100
AcDbEntity
  8
0
100
AcDbLine
 62
7
  6
CONTINUOUS
 10
-1.4987331406
 20
-24.7805633725
 11
-1.1900443435
 21
-24.9349077711
  0
LINE
  5
25B
100
AcDbEntity
  8
0
100
AcDbLine
 62
7
  6
CONTINUOUS
 10
-0.7154202865
 20
-25.1722197996
 11
-0.4172979901
 21
-25.3212809478
  0
LINE
  5
25C
100
AcDbEntity
  8
0
100
AcDbLine
 62
7
  6
CONTINUOUS
 10
-5.7075910065
 20
-22.6761340952
 11
-5.4344596986
 21
-22.8126997491
  0
LINE
  5
25D
100
AcDbEntity
  8
0
100
AcDbLine
 62
7
  6
CONTINUOUS
 10
-4.8421679668
 20
-23.108845615
 11
-4.5322317509
 21
-23.263813723
  0
LINE
  5
25E
100
AcDbEntity
  8
0
100
AcDbLine
 62
7
  6
CONTINUOUS
 10
-4.3653835419
 20
-23.3472378275
 11
-4.0688759909
 21
-23.495491603
  0
LINE
  5
25F
100
AcDbEntity
  8
0
100
AcDbLine
 62
7
  6
CONTINUOUS
 10
-3.638399282
 20
-23.7107299574
 11
-3.5949313068
 21
-23.732463945
  0
LINE
  5
260
100
AcDbEntity
  8
0
100
AcDbLine
 62
7
  6
CONTINUOUS
 10
-3.162739864
 20
-23.9485596664
 11
-2.8595402544
 21
-24.1001594712
  0
LINE
  5
261
100
AcDbEntity
  8
0
100
AcDbLine
 62
7
  6
CONTINUOUS
 10
-2.810872216
 20
-24.1244934904
 11
-2.5042989999
 21
-24.2777800985
  0
LINE
  5
262
100
AcDbEntity
  8
0
100
AcDbLine
 62
7
  6
CONTINUOUS
 10
-1.9164047652
 20
-24.5717272158
 11
-1.5897454739
 21
-24.7350568615
  0
LINE
  5
263
100
AcDbEntity
  8
RACCORDO
100
AcDbLine
 62
7
  6
CONTINUOUS
 10
-28.9093687959
 20
-11.0583244348
 11
-5.7119708689
 21
-22.6570233984
  0
LINE
  5
264
100
AcDbEntity
  8
RACCORDO
100
AcDbLine
 62
7
  6
CONTINUOUS
 10
-5.417538933
 20
-22.8042393663
 11
-4.8421679668
 21
-23.0919248494
  0
LINE
  5
265
100
AcDbEntity
  8
RACCORDO
100
AcDbLine
 62
7
  6
CONTINUOUS
 10
-4.5153109853
 20
-23.2553533402
 11
-4.364136059
 21
-23.3309408033
  0
LINE
  5
266
100
AcDbEntity
  8
RACCORDO
100
AcDbLine
 62
7
  6
CONTINUOUS
 10
-4.0519552252
 20
-23.4870312202
 11
-3.6435803648
 21
-23.6912186504
  0
LINE
  5
267
100
AcDbEntity
  8
RACCORDO
100
AcDbLine
 62
7
  6
CONTINUOUS
 10
-3.5780105412
 20
-23.7240035622
 11
-3.1636510424
 21
-23.9311833116
  0
LINE
  5
268
100
AcDbEntity
  8
RACCORDO
100
AcDbLine
 62
7
  6
CONTINUOUS
 10
-2.8426194888
 20
-24.0916990884
 11
-2.8041039097
 21
-24.1109568779
  0
LINE
  5
269
100
AcDbEntity
  8
RACCORDO
100
AcDbLine
 62
7
  6
CONTINUOUS
 10
-2.4873782343
 20
-24.2693197157
 11
-1.9201469894
 21
-24.5529353381
  0
LINE
  5
26A
100
AcDbEntity
  8
RACCORDO
100
AcDbLine
 62
7
  6
CONTINUOUS
 10
-1.5728247083
 20
-24.7265964787
 11
-1.4981243539
 21
-24.7639466558
  0
LINE
  5
26B
100
AcDbEntity
  8
RACCORDO
100
AcDbLine
 62
7
  6
CONTINUOUS
 10
-1.1731232334
 20
-24.9264472161
 11
-0.7194813117
 21
-25.1532681769
  0
LINE
  5
26C
100
AcDbEntity
  8
RACCORDO
100
AcDbLine
 62
7
  6
CONTINUOUS
 10
-0.40037688
 20
-25.3128203928
 11
22.6537209077
 21
-36.8398692866
  0
LINE
  5
26D
100
AcDbEntity
  8
0
100
AcDbLine
 62
7
  6
CONTINUOUS
 10
-2.4187758489
 20
-23.9575046907
 11
-1.9966946189
 21
-24.1685453058
  0
LINE
  5
26E
100
AcDbEntity
  8
0
100
AcDbLine
 62
7
  6
CONTINUOUS
 10
-2.0586350516
 20
-23.856658099
 11
-2.3553766549
 21
-23.7082872974
  0
LINE
  5
26F
100
AcDbEntity
  8
0
100
AcDbLine
 62
7
  6
CONTINUOUS
 10
-1.1900443435
 20
-24.2232471428
 11
-1.0238641279
 21
-24.3063372506
  0
LINE
  5
270
100
AcDbEntity
  8
0
100
AcDbLine
 62
7
  6
CONTINUOUS
 10
-2.0884796813
 20
-23.7003144279
 11
-2.2139552987
 21
-23.6375766192
  0
LINE
  5
271
100
AcDbEntity
  8
0
100
AcDbLine
 62
7
  6
CONTINUOUS
 10
-1.0231960667
 20
-24.0088448469
 11
-1.2003213511
 21
-23.9202822047
  0
LINE
  5
272
100
AcDbEntity
  8
0
100
AcDbLine
 62
7
  6
CONTINUOUS
 10
-0.8817747105
 20
-23.9381341688
 11
-1.0588999949
 21
-23.8495715266
  0
LINE
  5
273
100
AcDbEntity
  8
0
100
AcDbLine
 62
7
  6
CONTINUOUS
 10
-2.0453188167
 20
-22.6887701286
 11
-2.3451441127
 21
-22.5388574806
  0
LINE
  5
274
100
AcDbEntity
  8
0
100
AcDbLine
 62
7
  6
CONTINUOUS
 10
-2.9983856206
 20
-22.2122367267
 11
-3.3050366184
 21
-22.0589112278
  0
LINE
  5
275
100
AcDbEntity
  8
0
100
AcDbLine
 62
7
  6
CONTINUOUS
 10
-3.9216351458
 20
-21.7506119641
 11
-4.231314682
 21
-21.595772196
  0
LINE
  5
276
100
AcDbEntity
  8
0
100
AcDbLine
 62
7
  6
CONTINUOUS
 10
-4.9571852487
 20
-21.2328369126
 11
-5.2669100397
 21
-21.0779745171
  0
LINE
  5
277
100
AcDbEntity
  8
0
100
AcDbLine
 62
7
  6
CONTINUOUS
 10
-5.8416153187
 20
-20.7906218776
 11
-6.1783013842
 21
-20.6222788449
  0
LINE
  5
278
100
AcDbEntity
  8
0
100
AcDbLine
 62
7
  6
CONTINUOUS
 10
-4.5322317509
 20
-21.4452045423
 11
-4.8421679668
 21
-21.2902364344
  0
LINE
  5
279
100
AcDbEntity
  8
0
100
AcDbLine
 62
7
  6
CONTINUOUS
 10
-1.9038974604
 20
-22.6180594505
 11
-2.2037227565
 21
-22.4681468025
  0
LINE
  5
27A
100
AcDbEntity
  8
0
100
AcDbLine
 62
7
  6
CONTINUOUS
 10
-2.8569642644
 20
-22.1415260485
 11
-3.1636152622
 21
-21.9882005496
  0
LINE
  5
27B
100
AcDbEntity
  8
0
100
AcDbLine
 62
7
  6
CONTINUOUS
 10
-3.7802137896
 20
-21.6799012859
 11
-4.0898933257
 21
-21.5250615179
  0
LINE
  5
27C
100
AcDbEntity
  8
0
100
AcDbLine
 62
7
  6
CONTINUOUS
 10
-4.8157638925
 20
-21.1621262345
 11
-5.1254886834
 21
-21.007263839
  0
LINE
  5
27D
100
AcDbEntity
  8
0
100
AcDbLine
 62
7
  6
CONTINUOUS
 10
-5.7001939625
 20
-20.7199111995
 11
-6.0368800279
 21
-20.5515681668
  0
LINE
  5
27E
100
AcDbEntity
  8
0
100
AcDbLine
 62
7
  6
CONTINUOUS
 10
-4.3908103946
 20
-21.3744938642
 11
-4.7007466105
 21
-21.2195257563
  0
LINE
  5
27F
100
AcDbEntity
  8
RACCORDO
100
AcDbLine
 62
7
  6
CONTINUOUS
 10
20.8765636145
 20
-33.8862226277
 11
-27.1344948459
 21
-9.8806933976
  0
LINE
  5
280
100
AcDbEntity
  8
RACCORDO
100
AcDbLine
 62
7
  6
CONTINUOUS
 10
-20.6707436716
 20
16.5883258163
 11
-20.6707436716
 21
11.1879377628
  0
LINE
  5
281
100
AcDbEntity
  8
RACCORDO
100
AcDbLine
 62
7
  6
CONTINUOUS
 10
-18.225695394
 20
-10.7264180839
 11
-18.225695394
 21
-11.1791635519
  0
LINE
  5
282
100
AcDbEntity
  8
DRAFT
100
AcDbLine
 62
7
  6
CONTINUOUS
 10
-24.7774001511
 20
5.44691186
 11
-25.2912090382
 21
5.1615905699
  0
LINE
  5
283
100
AcDbEntity
  8
RACCORDO
100
AcDbLine
 62
7
  6
CONTINUOUS
 10
-20.7549417315
 20
11.0837390072
 11
-24.0239709998
 21
9.32002272
  0
LINE
  5
284
100
AcDbEntity
  8
RACCORDO
100
AcDbLine
 62
7
  6
CONTINUOUS
 10
-20.8282965255
 20
10.9239135015
 11
-24.0239709998
 21
9.1997738084
  0
LINE
  5
285
100
AcDbEntity
  8
RACCORDO
100
AcDbLine
 62
7
  6
CONTINUOUS
 10
-24.308015663
 20
5.6432782597
 11
-25.2432998517
 21
5.17203005
  0
LINE
  5
286
100
AcDbEntity
  8
RACCORDO
100
AcDbLine
 62
7
  6
CONTINUOUS
 10
-24.0959159374
 20
5.2774603457
 11
-25.0312001261
 21
4.806212136
  0
LINE
  5
287
100
AcDbEntity
  8
RACCORDO
100
AcDbLine
 62
7
  6
CONTINUOUS
 10
-24.5995305005
 20
6.2190012311
 11
-24.0239709998
 21
6.4848136819
  0
LINE
  5
288
100
AcDbEntity
  8
RACCORDO
100
AcDbLine
 62
7
  6
CONTINUOUS
 10
-24.6806678451
 20
6.0552268522
 11
-24.1051083443
 21
6.3210393031
  0
LINE
  5
289
100
AcDbEntity
  8
RACCORDO
100
AcDbLine
 62
7
  6
CONTINUOUS
 10
-2.1549503885
 20
-17.9419872141
 11
-2.1549900077
 21
-17.9419674166
  0
LINE
  5
28A
100
AcDbEntity
  8
RACCORDO
100
AcDbLine
 62
7
  6
CONTINUOUS
 10
21.0161325472
 20
-33.5722891842
 11
-26.9949310269
 21
-9.5667573971
  0
LINE
  5
28B
100
AcDbEntity
  8
RACCORDO
100
AcDbLine
 62
7
  6
CONTINUOUS
 10
-25.4574254562
 20
-8.4708286843
 11
21.1939184206
 21
-31.7965006226
  0
LINE
  5
28C
100
AcDbEntity
  8
RACCORDO
100
AcDbLine
 62
7
  6
CONTINUOUS
 10
-25.3426734323
 20
-8.3874047611
 11
21.1939184206
 21
-31.6557006875
  0
LINE
  5
28D
100
AcDbEntity
  8
RACCORDO
100
AcDbLine
 62
7
  6
CONTINUOUS
 10
21.1939184206
 20
-31.3911203605
 11
-25.0791093126
 21
-8.2546064939
  0
LINE
  5
28E
100
AcDbEntity
  8
RACCORDO
100
AcDbLine
 62
7
  6
CONTINUOUS
 10
-11.1895770442
 20
-14.9957426969
 11
-6.7356160768
 21
-17.2227231805
  0
LINE
  5
28F
100
AcDbEntity
  8
RACCORDO
100
AcDbLine
 62
7
  6
CONTINUOUS
 10
4.7203255325
 20
-22.9506939852
 11
9.1742864999
 21
-25.1776744689
  0
LINE
  5
290
100
AcDbEntity
  8
RACCORDO
100
AcDbLine
 62
7
  6
CONTINUOUS
 10
-24.5655588363
 20
-8.0092318307
 11
-11.3667596165
 21
-14.6086314406
  0
LINE
  5
291
100
AcDbEntity
  8
DRAFT
100
AcDbLine
 62
7
  6
CONTINUOUS
 10
-6.0634587576
 20
-17.2602818701
 11
4.5431429602
 21
-22.563582729
  0
LINE
  5
292
100
AcDbEntity
  8
RACCORDO
100
AcDbLine
 62
7
  6
CONTINUOUS
 10
9.8464438191
 20
-25.2152331584
 11
21.1939184206
 21
-30.8889704592
  0
LINE
  5
293
100
AcDbEntity
  8
RACCORDO
100
AcDbLine
 62
7
  6
CONTINUOUS
 10
4.9488931367
 20
-22.7252557879
 11
4.969246069
 21
-22.7354322541
  0
LINE
  5
294
100
AcDbEntity
  8
ASSI
100
AcDbLine
 62
7
  6
CONTINUOUS
 10
17.6849472237
 20
-29.0781936712
 11
15.3265213733
 21
-27.898980746
  0
LINE
  5
295
100
AcDbEntity
  8
ASSI
100
AcDbLine
 62
7
  6
CONTINUOUS
 10
-14.1348579297
 20
-13.1682910945
 11
-16.4932837801
 21
-11.9890781693
  0
LINE
  5
296
100
AcDbEntity
  8
RACCORDO
100
AcDbLine
 62
7
  6
CONTINUOUS
 10
21.1939184206
 20
-30.7541564427
 11
17.8367504465
 21
-29.0755724557
  0
LINE
  5
297
100
AcDbEntity
  8
RACCORDO
100
AcDbLine
 62
7
  6
CONTINUOUS
 10
12.8162923001
 20
-26.5653433825
 11
10.5819062595
 21
-25.4481503622
  0
LINE
  5
298
100
AcDbEntity
  8
RACCORDO
100
AcDbLine
 62
7
  6
CONTINUOUS
 10
4.1612339103
 20
-22.2378141876
 11
1.9268478698
 21
-21.1206211673
  0
LINE
  5
299
100
AcDbEntity
  8
RACCORDO
100
AcDbLine
 62
7
  6
CONTINUOUS
 10
-3.0936102766
 20
-18.6103920941
 11
-5.3279963172
 21
-17.4931990738
  0
LINE
  5
29A
100
AcDbEntity
  8
RACCORDO
100
AcDbLine
 62
7
  6
CONTINUOUS
 10
-11.7486686664
 20
-14.2828628993
 11
-13.9830547069
 21
-13.165669879
  0
LINE
  5
29B
100
AcDbEntity
  8
RACCORDO
100
AcDbLine
 62
7
  6
CONTINUOUS
 10
-19.0035128533
 20
-10.6554408058
 11
-24.5995305005
 21
-7.8574319822
  0
LINE
  5
29C
100
AcDbEntity
  8
ASSI
100
AcDbLine
 62
7
  6
CONTINUOUS
 10
17.8214953078
 20
-29.005046357
 11
15.4679427295
 21
-27.8282700679
  0
LINE
  5
29D
100
AcDbEntity
  8
ASSI
100
AcDbLine
 62
7
  6
CONTINUOUS
 10
-13.9983098456
 20
-13.0951437803
 11
-16.3518624239
 21
-11.9183674912
  0
LINE
  5
29E
100
AcDbEntity
  8
ASSI
100
AcDbLine
 62
7
  6
CONTINUOUS
 10
18.0291873025
 20
-28.89676032
 11
15.6800747639
 21
-27.7222040507
  0
LINE
  5
29F
100
AcDbEntity
  8
ASSI
100
AcDbLine
 62
7
  6
CONTINUOUS
 10
-13.7906178509
 20
-12.9868577433
 11
-16.1397303895
 21
-11.812301474
  0
LINE
  5
2A0
100
AcDbEntity
  8
ASSI
100
AcDbLine
 62
7
  6
CONTINUOUS
 10
18.1676486322
 20
-28.8245696286
 11
15.8214961201
 21
-27.6514933726
  0
LINE
  5
2A1
100
AcDbEntity
  8
ASSI
100
AcDbLine
 62
7
  6
CONTINUOUS
 10
-13.6521565212
 20
-12.9146670519
 11
-15.9983090333
 21
-11.7415907959
  0
LINE
  5
2A2
100
AcDbEntity
  8
RACCORDO
100
AcDbLine
 62
7
  6
CONTINUOUS
 10
-10.2863836018
 20
-14.5084491139
 11
-5.800331888
 21
-16.7514749708
  0
LINE
  5
2A3
100
AcDbEntity
  8
RACCORDO
100
AcDbLine
 62
7
  6
CONTINUOUS
 10
5.6235189749
 20
-22.4634004023
 11
10.1095706886
 21
-24.7064262592
  0
LINE
  5
2A4
100
AcDbEntity
  8
RACCORDO
100
AcDbLine
 62
7
  6
CONTINUOUS
 10
21.1939184206
 20
-30.1763777941
 11
18.4024358714
 21
-28.7806365195
  0
LINE
  5
2A5
100
AcDbEntity
  8
RACCORDO
100
AcDbLine
 62
7
  6
CONTINUOUS
 10
13.381977725
 20
-26.2704074463
 11
11.1377176086
 21
-25.1482773881
  0
LINE
  5
2A6
100
AcDbEntity
  8
RACCORDO
100
AcDbLine
 62
7
  6
CONTINUOUS
 10
4.7367934111
 20
-21.9478152893
 11
2.4925332947
 21
-20.8256852311
  0
LINE
  5
2A7
100
AcDbEntity
  8
RACCORDO
100
AcDbLine
 62
7
  6
CONTINUOUS
 10
-2.5279248517
 20
-18.3154561579
 11
-4.7721849681
 21
-17.1933260997
  0
LINE
  5
2A8
100
AcDbEntity
  8
RACCORDO
100
AcDbLine
 62
7
  6
CONTINUOUS
 10
-11.1731091656
 20
-13.992864001
 11
-13.417369282
 21
-12.8707339428
  0
LINE
  5
2A9
100
AcDbEntity
  8
RACCORDO
100
AcDbLine
 62
7
  6
CONTINUOUS
 10
-18.4378274284
 20
-10.3605048696
 11
-24.023938691
 21
-7.5674492382
  0
LINE
  5
2AA
100
AcDbEntity
  8
ASSI
100
AcDbLine
 62
7
  6
CONTINUOUS
 10
19.922715451
 20
-29.4899710036
 11
16.0336281545
 21
-27.5454273554
  0
LINE
  5
2AB
100
AcDbEntity
  8
ASSI
100
AcDbLine
 62
7
  6
CONTINUOUS
 10
-11.8970897024
 20
-13.5800684269
 11
-15.7861769989
 21
-11.6355247787
  0
LINE
  5
2AC
100
AcDbEntity
  8
ASSI
100
AcDbLine
 62
7
  6
CONTINUOUS
 10
20.0641368072
 20
-29.4192603255
 11
16.1750495107
 21
-27.4747166773
  0
LINE
  5
2AD
100
AcDbEntity
  8
ASSI
100
AcDbLine
 62
7
  6
CONTINUOUS
 10
-11.7556683462
 20
-13.5093577488
 11
-15.6447556427
 21
-11.5648141006
  0
LINE
  5
2AE
100
AcDbEntity
  8
RACCORDO
100
AcDbLine
 62
7
  6
CONTINUOUS
 10
-24.0239709998
 20
-7.2153995106
 11
-23.6704939443
 21
-7.3921380383
  0
LINE
  5
2AF
100
AcDbEntity
  8
ASSI
100
AcDbLine
 62
7
  6
CONTINUOUS
 10
20.2762688416
 20
-29.3131943083
 11
16.3871815451
 21
-27.3686506601
  0
LINE
  5
2B0
100
AcDbEntity
  8
ASSI
100
AcDbLine
 62
7
  6
CONTINUOUS
 10
-11.5435363118
 20
-13.4032917317
 11
-15.4326236083
 21
-11.4587480834
  0
LINE
  5
2B1
100
AcDbEntity
  8
RACCORDO
100
AcDbLine
 62
7
  6
CONTINUOUS
 10
-24.0239709998
 20
-7.0954996256
 11
-23.4851374959
 21
-7.3649163775
  0
LINE
  5
2B2
100
AcDbEntity
  8
RACCORDO
100
AcDbLine
 62
7
  6
CONTINUOUS
 10
-3.8236980524
 20
-17.179553313
 11
-2.2854073938
 21
-17.9486986423
  0
LINE
  5
2B3
100
AcDbEntity
  8
ASSI
100
AcDbLine
 62
7
  6
CONTINUOUS
 10
20.4176901978
 20
-29.2424836302
 11
16.5286029013
 21
-27.297939982
  0
LINE
  5
2B4
100
AcDbEntity
  8
ASSI
100
AcDbLine
 62
7
  6
CONTINUOUS
 10
-11.4021149556
 20
-13.3325810535
 11
-15.2912022521
 21
-11.3880374053
  0
LINE
  5
2B5
100
AcDbEntity
  8
RACCORDO
100
AcDbLine
 62
7
  6
CONTINUOUS
 10
-3.6932361882
 20
-17.1728443141
 11
-2.1549455296
 21
-17.9419896434
  0
LINE
  5
2B6
100
AcDbEntity
  8
ASSI
100
AcDbLine
 62
7
  6
CONTINUOUS
 10
20.6298222322
 20
-29.1364176131
 11
16.7407349356
 21
-27.1918739648
  0
LINE
  5
2B7
100
AcDbEntity
  8
ASSI
100
AcDbLine
 62
7
  6
CONTINUOUS
 10
-11.1899829212
 20
-13.2265150364
 11
-15.0790702177
 21
-11.2819713881
  0
LINE
  5
2B8
100
AcDbEntity
  8
ASSI
100
AcDbLine
 62
7
  6
CONTINUOUS
 10
20.7712435884
 20
-29.0657069349
 11
16.8821562919
 21
-27.1211632867
  0
LINE
  5
2B9
100
AcDbEntity
  8
ASSI
100
AcDbLine
 62
7
  6
CONTINUOUS
 10
-11.048561565
 20
-13.1558043582
 11
-14.9376488615
 21
-11.21126071
  0
LINE
  5
2BA
100
AcDbEntity
  8
ASSI
100
AcDbLine
 62
7
  6
CONTINUOUS
 10
20.9833756228
 20
-28.9596409178
 11
17.0942883262
 21
-27.0150972695
  0
LINE
  5
2BB
100
AcDbEntity
  8
ASSI
100
AcDbLine
 62
7
  6
CONTINUOUS
 10
-10.8364295306
 20
-13.0497383411
 11
-14.7255168272
 21
-11.1051946928
  0
LINE
  5
2BC
100
AcDbEntity
  8
ASSI
100
AcDbLine
 62
7
  6
CONTINUOUS
 10
21.124796979
 20
-28.8889302396
 11
17.2357096825
 21
-26.9443865914
  0
LINE
  5
2BD
100
AcDbEntity
  8
ASSI
100
AcDbLine
 62
7
  6
CONTINUOUS
 10
-10.6950081744
 20
-12.9790276629
 11
-14.5840954709
 21
-11.0344840147
  0
LINE
  5
2BE
100
AcDbEntity
  8
ASSI
100
AcDbLine
 62
7
  6
CONTINUOUS
 10
21.1939184206
 20
-28.7113589261
 11
17.4478417168
 21
-26.8383205742
  0
LINE
  5
2BF
100
AcDbEntity
  8
ASSI
100
AcDbLine
 62
7
  6
CONTINUOUS
 10
-10.48287614
 20
-12.8729616458
 11
-14.3719634366
 21
-10.9284179975
  0
LINE
  5
2C0
100
AcDbEntity
  8
ASSI
100
AcDbLine
 62
7
  6
CONTINUOUS
 10
1.601238239
 20
-18.8840378128
 11
5.8587020846
 21
-21.0127697356
  0
LINE
  5
2C1
100
AcDbEntity
  8
ASSI
100
AcDbLine
 62
7
  6
CONTINUOUS
 10
1.7230418076
 20
-18.8945378801
 11
5.9157839542
 21
-20.9909089534
  0
LINE
  5
2C2
100
AcDbEntity
  8
ASSI
100
AcDbLine
 62
7
  6
CONTINUOUS
 10
-14.3086643377
 20
-10.8424839841
 11
-14.2543798737
 21
-10.8696262161
  0
LINE
  5
2C3
100
AcDbEntity
  8
ASSI
100
AcDbLine
 62
7
  6
CONTINUOUS
 10
-10.2353887666
 20
-12.8791217696
 11
-10.0512004921
 21
-12.9712159069
  0
LINE
  5
2C4
100
AcDbEntity
  8
ASSI
100
AcDbLine
 62
7
  6
CONTINUOUS
 10
17.5111408157
 20
-26.7523865608
 11
17.5654252797
 21
-26.7795287928
  0
LINE
  5
2C5
100
AcDbEntity
  8
ASSI
100
AcDbLine
 62
7
  6
CONTINUOUS
 10
21.1939184206
 20
-28.5699375698
 11
17.5892630731
 21
-26.7676098961
  0
LINE
  5
2C6
100
AcDbEntity
  8
ASSI
100
AcDbLine
 62
7
  6
CONTINUOUS
 10
-10.3414547838
 20
-12.8022509676
 11
-14.2305420803
 21
-10.8577073194
  0
LINE
  5
2C7
100
AcDbEntity
  8
ASSI
100
AcDbLine
 62
7
  6
CONTINUOUS
 10
-14.1868618154
 20
-10.8529835282
 11
-9.9941175762
 21
-12.9493556478
  0
LINE
  5
2C8
100
AcDbEntity
  8
ASSI
100
AcDbLine
 62
7
  6
CONTINUOUS
 10
17.632943338
 20
-26.7628861049
 11
21.1939184206
 21
-28.5433736462
  0
LINE
  5
2C9
100
AcDbEntity
  8
ASSI
100
AcDbLine
 62
7
  6
CONTINUOUS
 10
-11.7556683462
 20
-13.5093577488
 11
-11.649602329
 21
-13.5862285508
  0
LINE
  5
2CA
100
AcDbEntity
  8
ASSI
100
AcDbLine
 62
7
  6
CONTINUOUS
 10
-11.4021149556
 20
-13.3325810535
 11
-11.2960489384
 21
-13.4094518555
  0
LINE
  5
2CB
100
AcDbEntity
  8
ASSI
100
AcDbLine
 62
7
  6
CONTINUOUS
 10
-11.048561565
 20
-13.1558043582
 11
-10.9424955478
 21
-13.2326751602
  0
LINE
  5
2CC
100
AcDbEntity
  8
ASSI
100
AcDbLine
 62
7
  6
CONTINUOUS
 10
-10.6950081744
 20
-12.9790276629
 11
-10.5889421572
 21
-13.0558984649
  0
LINE
  5
2CD
100
AcDbEntity
  8
ASSI
100
AcDbLine
 62
7
  6
CONTINUOUS
 10
-10.3414547838
 20
-12.8022509676
 11
-10.2353887666
 21
-12.8791217696
  0
LINE
  5
2CE
100
AcDbEntity
  8
DRAFT
100
AcDbLine
 62
7
  6
CONTINUOUS
 10
-11.3667596165
 20
-15.0245505663
 11
-11.3667596165
 21
-14.6086314406
  0
LINE
  5
2CF
100
AcDbEntity
  8
RACCORDO
100
AcDbLine
 62
7
  6
CONTINUOUS
 10
-10.96100944
 20
-14.7914618396
 11
-10.96100944
 21
-14.358681915
  0
LINE
  5
2D0
100
AcDbEntity
  8
ASSI
100
AcDbLine
 62
7
  6
CONTINUOUS
 10
-10.0441869623
 20
-12.9675586214
 11
-10.0441869623
 21
-13.4796847563
  0
LINE
  5
2D1
100
AcDbEntity
  8
ASSI
100
AcDbLine
 62
7
  6
CONTINUOUS
 10
-9.9928159274
 20
-12.9518001895
 11
-9.9928159274
 21
-13.4623509741
  0
LINE
  5
2D2
100
AcDbEntity
  8
DRAFT
100
AcDbLine
 62
7
  6
CONTINUOUS
 10
-24.7774001511
 20
-1.0482786684
 11
-25.2912090382
 21
-1.3335999585
  0
LINE
  5
2D3
100
AcDbEntity
  8
RACCORDO
100
AcDbLine
 62
7
  6
CONTINUOUS
 10
-24.7774001511
 20
-1.2616193692
 11
-24.2360707254
 21
-0.9888674872
  0
LINE
  5
2D4
100
AcDbEntity
  8
DRAFT
100
AcDbLine
 62
7
  6
CONTINUOUS
 10
-25.2912090382
 20
-0.7913742248
 11
-24.7774001511
 21
-1.0482786684
  0
LINE
  5
2D5
100
AcDbEntity
  8
RACCORDO
100
AcDbLine
 62
7
  6
CONTINUOUS
 10
-25.2432998517
 20
-0.8024719045
 11
-25.2912090382
 21
-0.7785173113
  0
LINE
  5
2D6
100
AcDbEntity
  8
RACCORDO
100
AcDbLine
 62
7
  6
CONTINUOUS
 10
-24.2360707254
 20
-0.9888674872
 11
-24.8401551451
 21
-0.6868252773
  0
LINE
  5
2D7
100
AcDbEntity
  8
ASSI
100
AcDbLine
 62
7
  6
CONTINUOUS
 10
20.0641368072
 20
-29.4192603255
 11
20.1702028244
 21
-29.4961311275
  0
LINE
  5
2D8
100
AcDbEntity
  8
ASSI
100
AcDbLine
 62
7
  6
CONTINUOUS
 10
20.4176901978
 20
-29.2424836302
 11
20.523756215
 21
-29.3193544322
  0
LINE
  5
2D9
100
AcDbEntity
  8
ASSI
100
AcDbLine
 62
7
  6
CONTINUOUS
 10
20.7712435884
 20
-29.0657069349
 11
20.8773096056
 21
-29.1425777369
  0
LINE
  5
2DA
100
AcDbEntity
  8
ASSI
100
AcDbLine
 62
7
  6
CONTINUOUS
 10
21.124796979
 20
-28.8889302396
 11
21.1939184206
 21
-28.9390256499
  0
LINE
  5
2DB
100
AcDbEntity
  8
0
100
AcDbLine
 62
7
  6
CONTINUOUS
 10
-6.1783013842
 20
-20.6222788449
 11
-5.7075910065
 21
-22.6761340952
  0
LINE
  5
2DC
100
AcDbEntity
  8
RACCORDO
100
AcDbLine
 62
7
  6
CONTINUOUS
 10
-5.5882321624
 20
-17.4978951677
 11
-5.5882321624
 21
-17.1172928848
  0
LINE
  5
2DD
100
AcDbEntity
  8
0
100
AcDbLine
 62
7
  6
CONTINUOUS
 10
-4.8421679668
 20
-21.2902364344
 11
-4.8421679668
 21
-23.108845615
  0
LINE
  5
2DE
100
AcDbEntity
  8
DRAFT
100
AcDbLine
 62
7
  6
CONTINUOUS
 10
-10.5706546081
 20
-14.0362273575
 11
-10.5136109562
 21
-13.804013484
  0
LINE
  5
2DF
100
AcDbEntity
  8
ASSI
100
AcDbLine
 62
7
  6
CONTINUOUS
 10
-16.5185860924
 20
-12.0327182027
 11
-16.4932837801
 21
-11.9890781693
  0
LINE
  5
2E0
100
AcDbEntity
  8
ASSI
100
AcDbLine
 62
7
  6
CONTINUOUS
 10
-16.2350815631
 20
-11.9767579216
 11
-16.1397303895
 21
-11.812301474
  0
LINE
  5
2E1
100
AcDbEntity
  8
ASSI
100
AcDbLine
 62
7
  6
CONTINUOUS
 10
-15.8815281725
 20
-11.7999812263
 11
-15.7861769989
 21
-11.6355247787
  0
LINE
  5
2E2
100
AcDbEntity
  8
ASSI
100
AcDbLine
 62
7
  6
CONTINUOUS
 10
-15.5279747819
 20
-11.623204531
 11
-15.4326236083
 21
-11.4587480834
  0
LINE
  5
2E3
100
AcDbEntity
  8
ASSI
100
AcDbLine
 62
7
  6
CONTINUOUS
 10
-15.1744213913
 20
-11.4464278357
 11
-15.0790702177
 21
-11.2819713881
  0
LINE
  5
2E4
100
AcDbEntity
  8
ASSI
100
AcDbLine
 62
7
  6
CONTINUOUS
 10
-14.8208680007
 20
-11.2696511404
 11
-14.7255168272
 21
-11.1051946928
  0
LINE
  5
2E5
100
AcDbEntity
  8
ASSI
100
AcDbLine
 62
7
  6
CONTINUOUS
 10
-14.4673146101
 20
-11.0928744451
 11
-14.3719634366
 21
-10.9284179975
  0
LINE
  5
2E6
100
AcDbEntity
  8
RACCORDO
100
AcDbLine
 62
7
  6
CONTINUOUS
 10
-27.1555126524
 20
-9.1747672143
 11
-25.6465377259
 21
-8.0746410621
  0
LINE
  5
2E7
100
AcDbEntity
  8
RACCORDO
100
AcDbLine
 62
7
  6
CONTINUOUS
 10
-26.9949310269
 20
-9.5667573971
 11
-25.4765883307
 21
-8.4597411637
  0
LINE
  5
2E8
100
AcDbEntity
  8
RACCORDO
100
AcDbLine
 62
7
  6
CONTINUOUS
 10
-24.5995305005
 20
-1.6446842994
 11
-24.0239709998
 21
-1.3546854012
  0
LINE
  5
2E9
100
AcDbEntity
  8
SMUSSO
100
AcDbLine
 62
7
  6
CONTINUOUS
 10
41.1884524309
 20
25.9199089718
 11
42.5855281747
 21
26.6211632489
  0
LINE
  5
2EA
100
AcDbEntity
  8
RACCORDO
100
AcDbLine
 62
7
  6
CONTINUOUS
 10
-25.0312001261
 20
-0.6487537162
 11
-24.0959159374
 21
-0.2168084835
  0
LINE
  5
2EB
100
AcDbEntity
  8
RACCORDO
100
AcDbLine
 62
7
  6
CONTINUOUS
 10
-25.1123374706
 20
-0.8125280951
 11
-24.1770532819
 21
-0.3805828624
  0
LINE
  5
2EC
100
AcDbEntity
  8
RACCORDO
100
AcDbLine
 62
7
  6
CONTINUOUS
 10
-25.2432998517
 20
5.17203005
 11
-25.2586174819
 21
5.179688865
  0
LINE
  5
2ED
100
AcDbEntity
  8
RACCORDO
100
AcDbLine
 62
7
  6
CONTINUOUS
 10
-24.308015663
 20
5.6432782597
 11
-24.7774001511
 21
5.8779705037
  0
LINE
  5
2EE
100
AcDbEntity
  8
0
100
AcDbLine
 62
7
  6
CONTINUOUS
 10
-4.0019914676
 20
-22.3414874624
 11
-3.638399282
 21
-23.7107299574
  0
LINE
  5
2EF
100
AcDbEntity
  8
0
100
AcDbLine
 62
7
  6
CONTINUOUS
 10
-3.6149728343
 20
-22.9135797843
 11
-3.9216351458
 21
-21.7506119641
  0
LINE
  5
2F0
100
AcDbEntity
  8
0
100
AcDbLine
 62
7
  6
CONTINUOUS
 10
-3.5222953427
 20
-22.6580157877
 11
-3.7802137896
 21
-21.6799012859
  0
LINE
  5
2F1
100
AcDbEntity
  8
0
100
AcDbLine
 62
7
  6
CONTINUOUS
 10
-1.5897454739
 20
-24.7350568615
 11
-2.0453188167
 21
-22.6887701286
  0
LINE
  5
2F2
100
AcDbEntity
  8
0
100
AcDbLine
 62
7
  6
CONTINUOUS
 10
-1.4987331406
 20
-24.4379253082
 11
-1.9038974604
 21
-22.6180594505
  0
LINE
  5
2F3
100
AcDbEntity
  8
0
100
AcDbLine
 62
7
  6
CONTINUOUS
 10
-5.558585223
 20
-22.1838666614
 11
-5.8416153187
 21
-20.7906218776
  0
LINE
  5
2F4
100
AcDbEntity
  8
0
100
AcDbLine
 62
7
  6
CONTINUOUS
 10
-5.4705818849
 20
-21.8502002894
 11
-5.7001939625
 21
-20.7199111995
  0
LINE
  5
2F5
100
AcDbEntity
  8
0
100
AcDbLine
 62
7
  6
CONTINUOUS
 10
-1.9966946189
 20
-24.1685453058
 11
-1.9164047652
 21
-24.5717272158
  0
LINE
  5
2F6
100
AcDbEntity
  8
0
100
AcDbLine
 62
7
  6
CONTINUOUS
 10
-2.2010548426
 20
-23.1105797211
 11
-2.0586350516
 21
-23.856658099
  0
LINE
  5
2F7
100
AcDbEntity
  8
0
100
AcDbLine
 62
7
  6
CONTINUOUS
 10
-2.8595402544
 20
-24.1001594712
 11
-2.9983856206
 21
-22.2122367267
  0
LINE
  5
2F8
100
AcDbEntity
  8
0
100
AcDbLine
 62
7
  6
CONTINUOUS
 10
-2.7311025229
 20
-23.8529064917
 11
-2.8569642644
 21
-22.1415260485
  0
LINE
  5
2F9
100
AcDbEntity
  8
0
100
AcDbLine
 62
7
  6
CONTINUOUS
 10
-3.226416951
 20
-22.7342249219
 11
-3.162739864
 21
-23.9485596664
  0
LINE
  5
2FA
100
AcDbEntity
  8
0
100
AcDbLine
 62
7
  6
CONTINUOUS
 10
-4.5322317509
 20
-23.263813723
 11
-4.5322317509
 21
-21.4452045423
  0
LINE
  5
2FB
100
AcDbEntity
  8
0
100
AcDbLine
 62
7
  6
CONTINUOUS
 10
-4.3908103946
 20
-23.1931030449
 11
-4.3908103946
 21
-21.3744938642
  0
LINE
  5
2FC
100
AcDbEntity
  8
RACCORDO
100
AcDbLine
 62
7
  6
CONTINUOUS
 10
-2.3157928173
 20
-18.6813693722
 11
-2.3157928173
 21
-19.1341148402
  0
LINE
  5
2FD
100
AcDbEntity
  8
RACCORDO
100
AcDbLine
 62
7
  6
CONTINUOUS
 10
-2.0733076682
 20
-18.3145165562
 11
-2.0733076682
 21
-19.2553574148
  0
LINE
  5
2FE
100
AcDbEntity
  8
RACCORDO
100
AcDbLine
 62
7
  6
CONTINUOUS
 10
-1.9891096083
 20
-18.2103178007
 11
-1.9891096083
 21
-19.2974564448
  0
LINE
  5
2FF
100
AcDbEntity
  8
0
100
AcDbLine
 62
7
  6
CONTINUOUS
 10
-1.4987331406
 20
-22.9833090273
 11
-1.4987331406
 21
-24.7805633725
  0
LINE
  5
300
100
AcDbEntity
  8
0
100
AcDbLine
 62
7
  6
CONTINUOUS
 10
-1.2003213511
 20
-23.9202822047
 11
-1.2003213511
 21
-23.4210683721
  0
LINE
  5
301
100
AcDbEntity
  8
0
100
AcDbLine
 62
7
  6
CONTINUOUS
 10
-1.1900443435
 20
-24.9349077711
 11
-1.1900443435
 21
-24.2232471428
  0
LINE
  5
302
100
AcDbEntity
  8
0
100
AcDbLine
 62
7
  6
CONTINUOUS
 10
-1.0588999949
 20
-23.8495715266
 11
-1.0588999949
 21
-23.4747938513
  0
LINE
  5
303
100
AcDbEntity
  8
0
100
AcDbLine
 62
7
  6
CONTINUOUS
 10
-1.0486229872
 20
-24.864197093
 11
-1.0486229872
 21
-24.2939578209
  0
LINE
  5
304
100
AcDbEntity
  8
0
100
AcDbLine
 62
7
  6
CONTINUOUS
 10
-0.7019031822
 20
-24.3301184673
 11
-0.7019031822
 21
-24.319372715
  0
LINE
  5
305
100
AcDbEntity
  8
0
100
AcDbLine
 62
7
  6
CONTINUOUS
 10
-4.0688759909
 20
-23.495491603
 11
-4.0019914676
 21
-22.3414874624
  0
LINE
  5
306
100
AcDbEntity
  8
0
100
AcDbLine
 62
7
  6
CONTINUOUS
 10
-3.9274546346
 20
-23.4247809249
 11
-3.8892712787
 21
-22.7659775331
  0
LINE
  5
307
100
AcDbEntity
  8
0
100
AcDbLine
 62
7
  6
CONTINUOUS
 10
-4.231314682
 20
-21.595772196
 11
-4.3653835419
 21
-23.3472378275
  0
LINE
  5
308
100
AcDbEntity
  8
0
100
AcDbLine
 62
7
  6
CONTINUOUS
 10
-5.2669100397
 20
-21.0779745171
 11
-5.558585223
 21
-22.1838666614
  0
LINE
  5
309
100
AcDbEntity
  8
ASSI
100
AcDbLine
 62
7
  6
CONTINUOUS
 10
-11.9199261662
 20
-13.6194555007
 11
-11.8970897024
 21
-13.5800684269
  0
LINE
  5
30A
100
AcDbEntity
  8
ASSI
100
AcDbLine
 62
7
  6
CONTINUOUS
 10
-11.649602329
 20
-13.5862285508
 11
-11.5435363118
 21
-13.4032917317
  0
LINE
  5
30B
100
AcDbEntity
  8
ASSI
100
AcDbLine
 62
7
  6
CONTINUOUS
 10
-11.2960489384
 20
-13.4094518555
 11
-11.1899829212
 21
-13.2265150364
  0
LINE
  5
30C
100
AcDbEntity
  8
ASSI
100
AcDbLine
 62
7
  6
CONTINUOUS
 10
-10.9424955478
 20
-13.2326751602
 11
-10.8364295306
 21
-13.0497383411
  0
LINE
  5
30D
100
AcDbEntity
  8
ASSI
100
AcDbLine
 62
7
  6
CONTINUOUS
 10
-10.5889421572
 20
-13.0558984649
 11
-10.48287614
 21
-12.8729616458
  0
LINE
  5
30E
100
AcDbEntity
  8
RACCORDO
100
AcDbLine
 62
7
  6
CONTINUOUS
 10
-19.0035128533
 20
-10.6554408058
 11
-18.4378274284
 21
-10.3605048696
  0
LINE
  5
30F
100
AcDbEntity
  8
RACCORDO
100
AcDbLine
 62
7
  6
CONTINUOUS
 10
-25.5866546224
 20
-8.0376505026
 11
-25.2912090382
 21
-7.8887885799
  0
LINE
  5
310
100
AcDbEntity
  8
RACCORDO
100
AcDbLine
 62
7
  6
CONTINUOUS
 10
-24.5995305005
 20
-7.8574319822
 11
-24.0239709998
 21
-7.5674330839
  0
LINE
  5
311
100
AcDbEntity
  8
RACCORDO
100
AcDbLine
 62
7
  6
CONTINUOUS
 10
-25.3426734323
 20
-8.3874047611
 11
-25.0791093126
 21
-8.2546064939
  0
LINE
  5
312
100
AcDbEntity
  8
SMUSSO
100
AcDbLine
 62
7
  6
CONTINUOUS
 10
42.249072216
 20
24.090610437
 11
43.6461479598
 21
24.7918647141
  0
LINE
  5
313
100
AcDbEntity
  8
SMUSSO
100
AcDbLine
 62
7
  6
CONTINUOUS
 10
39.0853092211
 20
24.5268615629
 11
40.8530761741
 21
25.4107450394
  0
LINE
  5
314
100
AcDbEntity
  8
SMUSSO
100
AcDbLine
 62
7
  6
CONTINUOUS
 10
39.7924160023
 20
23.3072827686
 11
41.5601829553
 21
24.1911662451
  0
LINE
  5
315
100
AcDbEntity
  8
RACCORDO
100
AcDbLine
 62
7
  6
CONTINUOUS
 10
-23.6704939443
 20
-7.3921380383
 11
-24.023938691
 21
-7.5674492382
  0
LINE
  5
316
100
AcDbEntity
  8
RACCORDO
100
AcDbLine
 62
7
  6
CONTINUOUS
 10
-23.4583942187
 20
-7.7579559523
 11
-23.5510295995
 21
-7.803903784
  0
LINE
  5
317
100
AcDbEntity
  8
RACCORDO
100
AcDbLine
 62
7
  6
CONTINUOUS
 10
-25.2890074202
 20
-7.8933040692
 11
-24.7774001511
 21
-7.6438596095
  0
LINE
  5
318
100
AcDbEntity
  8
RACCORDO
100
AcDbLine
 62
7
  6
CONTINUOUS
 10
-25.0771328958
 20
-8.2586600984
 11
-24.5655588363
 21
-8.0092318307
  0
LINE
  5
319
100
AcDbEntity
  8
DRAFT
100
AcDbLine
 62
7
  6
CONTINUOUS
 10
4.5431429602
 20
-22.9795018546
 11
4.5431429602
 21
-22.563582729
  0
LINE
  5
31A
100
AcDbEntity
  8
RACCORDO
100
AcDbLine
 62
7
  6
CONTINUOUS
 10
4.9488931367
 20
-22.746413128
 11
4.9488931367
 21
-22.3136332033
  0
LINE
  5
31B
100
AcDbEntity
  8
ASSI
100
AcDbLine
 62
7
  6
CONTINUOUS
 10
5.8657156144
 20
-21.0091124502
 11
5.8657156144
 21
-21.4346360447
  0
LINE
  5
31C
100
AcDbEntity
  8
ASSI
100
AcDbLine
 62
7
  6
CONTINUOUS
 10
5.9170866493
 20
-20.9933536224
 11
5.9170866493
 21
-21.4173022519
  0
LINE
  5
31D
100
AcDbEntity
  8
0
100
AcDbLine
 62
7
  6
CONTINUOUS
 10
-2.3553766549
 20
-23.7082872974
 11
-2.2010548426
 21
-23.1105797211
  0
LINE
  5
31E
100
AcDbEntity
  8
0
100
AcDbLine
 62
7
  6
CONTINUOUS
 10
-2.2139552987
 20
-23.6375766192
 11
-2.1487011366
 21
-23.3848391322
  0
LINE
  5
31F
100
AcDbEntity
  8
0
100
AcDbLine
 62
7
  6
CONTINUOUS
 10
-2.5042989999
 20
-24.2777800985
 11
-2.4187758489
 21
-23.9575046907
  0
LINE
  5
320
100
AcDbEntity
  8
0
100
AcDbLine
 62
7
  6
CONTINUOUS
 10
-2.3628776437
 20
-24.2070694204
 11
-2.3106701067
 21
-24.0115575618
  0
LINE
  5
321
100
AcDbEntity
  8
0
100
AcDbLine
 62
7
  6
CONTINUOUS
 10
-2.3451441127
 20
-22.5388574806
 11
-2.810872216
 21
-24.1244934904
  0
LINE
  5
322
100
AcDbEntity
  8
0
100
AcDbLine
 62
7
  6
CONTINUOUS
 10
-5.4344596986
 20
-22.8126997491
 11
-4.9571852487
 21
-21.2328369126
  0
LINE
  5
323
100
AcDbEntity
  8
0
100
AcDbLine
 62
7
  6
CONTINUOUS
 10
-5.2930383423
 20
-22.741989071
 11
-4.8157638925
 21
-21.1621262345
  0
LINE
  5
324
100
AcDbEntity
  8
0
100
AcDbLine
 62
7
  6
CONTINUOUS
 10
-3.3050366184
 20
-22.0589112278
 11
-3.6149728343
 21
-22.9135797843
  0
LINE
  5
325
100
AcDbEntity
  8
0
100
AcDbLine
 62
7
  6
CONTINUOUS
 10
-3.5949313068
 20
-23.732463945
 11
-3.226416951
 21
-22.7342249219
  0
LINE
  5
326
100
AcDbEntity
  8
0
100
AcDbLine
 62
7
  6
CONTINUOUS
 10
-3.4535099506
 20
-23.6617532669
 11
-3.2120740504
 21
-23.0077468944
  0
LINE
  5
327
100
AcDbEntity
  8
ASSI
100
AcDbLine
 62
7
  6
CONTINUOUS
 10
-10.3060994447
 20
-13.6982742887
 11
-10.0513945711
 21
-13.5136782378
  0
LINE
  5
328
100
AcDbEntity
  8
RACCORDO
100
AcDbLine
 62
7
  6
CONTINUOUS
 10
-18.6689646513
 20
-10.9575289232
 11
-18.225695394
 21
-10.7264180839
  0
LINE
  5
329
100
AcDbEntity
  8
RACCORDO
100
AcDbLine
 62
7
  6
CONTINUOUS
 10
-13.5532426093
 20
-12.8630955142
 11
-14.1189280343
 21
-13.1580314504
  0
LINE
  5
32A
100
AcDbEntity
  8
RACCORDO
100
AcDbLine
 62
7
  6
CONTINUOUS
 10
-13.417369282
 20
-12.8707339428
 11
-13.9830547069
 21
-13.165669879
  0
LINE
  5
32B
100
AcDbEntity
  8
RACCORDO
100
AcDbLine
 62
7
  6
CONTINUOUS
 10
22.8598673844
 20
8.4874495015
 11
23.1514139717
 21
8.6343468926
  0
LINE
  5
32C
100
AcDbEntity
  8
RACCORDO
100
AcDbLine
 62
7
  6
CONTINUOUS
 10
23.3547667442
 20
7.6338743689
 11
23.6463133315
 21
7.78077176
  0
LINE
  5
32D
100
AcDbEntity
  8
ASSI
100
AcDbLine
 62
7
  6
CONTINUOUS
 10
-16.4932837801
 20
-11.9890781693
 11
-16.3518624239
 21
-11.9183674912
  0
LINE
  5
32E
100
AcDbEntity
  8
ASSI
100
AcDbLine
 62
7
  6
CONTINUOUS
 10
-16.1397303895
 20
-11.812301474
 11
-15.9983090333
 21
-11.7415907959
  0
LINE
  5
32F
100
AcDbEntity
  8
ASSI
100
AcDbLine
 62
7
  6
CONTINUOUS
 10
-15.7861769989
 20
-11.6355247787
 11
-15.6447556427
 21
-11.5648141006
  0
LINE
  5
330
100
AcDbEntity
  8
ASSI
100
AcDbLine
 62
7
  6
CONTINUOUS
 10
-15.4326236083
 20
-11.4587480834
 11
-15.2912022521
 21
-11.3880374053
  0
LINE
  5
331
100
AcDbEntity
  8
ASSI
100
AcDbLine
 62
7
  6
CONTINUOUS
 10
-15.0790702177
 20
-11.2819713881
 11
-14.9376488615
 21
-11.21126071
  0
LINE
  5
332
100
AcDbEntity
  8
ASSI
100
AcDbLine
 62
7
  6
CONTINUOUS
 10
-14.7255168272
 20
-11.1051946928
 11
-14.5840954709
 21
-11.0344840147
  0
LINE
  5
333
100
AcDbEntity
  8
ASSI
100
AcDbLine
 62
7
  6
CONTINUOUS
 10
-14.3719634366
 20
-10.9284179975
 11
-14.2305420803
 21
-10.8577073194
  0
LINE
  5
334
100
AcDbEntity
  8
ASSI
100
AcDbLine
 62
7
  6
CONTINUOUS
 10
-14.3086643377
 20
-10.8424839841
 11
-16.7241455116
 21
-11.9299384931
  0
LINE
  5
335
100
AcDbEntity
  8
RACCORDO
100
AcDbLine
 62
7
  6
CONTINUOUS
 10
-20.8365844514
 20
16.8566564027
 11
-20.8366240711
 21
16.8566762004
  0
LINE
  5
336
100
AcDbEntity
  8
RACCORDO
100
AcDbLine
 62
7
  6
CONTINUOUS
 10
-24.0239709998
 20
16.1604178726
 11
-23.5812253476
 21
15.9390450465
  0
LINE
  5
337
100
AcDbEntity
  8
DRAFT
100
AcDbLine
 62
7
  6
CONTINUOUS
 10
-25.2912090382
 20
18.2611846585
 11
-24.7774001511
 21
18.0042802149
  0
LINE
  5
338
100
AcDbEntity
  8
RACCORDO
100
AcDbLine
 62
7
  6
CONTINUOUS
 10
-25.2432998517
 20
18.2500869787
 11
-25.2912090382
 21
18.274041572
  0
LINE
  5
339
100
AcDbEntity
  8
RACCORDO
100
AcDbLine
 62
7
  6
CONTINUOUS
 10
-24.2360707254
 20
18.0636913961
 11
-24.8401551451
 21
18.3657336059
  0
LINE
  5
33A
100
AcDbEntity
  8
RACCORDO
100
AcDbLine
 62
7
  6
CONTINUOUS
 10
-21.2752205077
 20
17.0040345
 11
-20.9670414572
 21
16.8499449747
  0
LINE
  5
33B
100
AcDbEntity
  8
RACCORDO
100
AcDbLine
 62
7
  6
CONTINUOUS
 10
-21.1447586435
 20
17.0107434989
 11
-20.836579593
 21
16.8566539736
  0
LINE
  5
33C
100
AcDbEntity
  8
RACCORDO
100
AcDbLine
 62
7
  6
CONTINUOUS
 10
10.3216704143
 20
-25.452846456
 11
10.3216704143
 21
-25.0722441732
  0
LINE
  5
33D
100
AcDbEntity
  8
DRAFT
100
AcDbLine
 62
7
  6
CONTINUOUS
 10
5.3392479686
 20
-21.9911786458
 11
5.3962916205
 21
-21.7589647724
  0
LINE
  5
33E
100
AcDbEntity
  8
ASSI
100
AcDbLine
 62
7
  6
CONTINUOUS
 10
-10.0512004921
 20
-12.9712159069
 11
-11.550862244
 21
-13.8039874617
  0
LINE
  5
33F
100
AcDbEntity
  8
RACCORDO
100
AcDbLine
 62
7
  6
CONTINUOUS
 10
-10.4236771876
 20
-14.5015587622
 11
-11.3268706299
 21
-14.9888523451
  0
LINE
  5
340
100
AcDbEntity
  8
RACCORDO
100
AcDbLine
 62
7
  6
CONTINUOUS
 10
-10.2863836018
 20
-14.5084491139
 11
-11.1895770442
 21
-14.9957426969
  0
LINE
  5
341
100
AcDbEntity
  8
ASSI
100
AcDbLine
 62
7
  6
CONTINUOUS
 10
-10.3060994447
 20
-13.6982742887
 11
-11.0640765098
 21
-14.0845077289
  0
LINE
  5
342
100
AcDbEntity
  8
RACCORDO
100
AcDbLine
 62
7
  6
CONTINUOUS
 10
-11.7486686664
 20
-14.2828628993
 11
-11.1731091656
 21
-13.992864001
  0
LINE
  5
343
100
AcDbEntity
  8
RACCORDO
100
AcDbLine
 62
7
  6
CONTINUOUS
 10
-11.4120948329
 20
-14.5859638325
 11
-10.96100944
 21
-14.358681915
  0
LINE
  5
344
100
AcDbEntity
  8
DRAFT
100
AcDbLine
 62
7
  6
CONTINUOUS
 10
-10.9652963348
 20
-14.3055601795
 11
-10.6499535794
 21
-14.1470176162
  0
LINE
  5
345
100
AcDbEntity
  8
DRAFT
100
AcDbLine
 62
7
  6
CONTINUOUS
 10
-10.9800624905
 20
-14.2418495553
 11
-10.5706546081
 21
-14.0362273575
  0
LINE
  5
346
100
AcDbEntity
  8
ASSI
100
AcDbLine
 62
7
  6
CONTINUOUS
 10
-11.8970897024
 20
-13.5800684269
 11
-11.7556683462
 21
-13.5093577488
  0
LINE
  5
347
100
AcDbEntity
  8
ASSI
100
AcDbLine
 62
7
  6
CONTINUOUS
 10
-11.5435363118
 20
-13.4032917317
 11
-11.4021149556
 21
-13.3325810535
  0
LINE
  5
348
100
AcDbEntity
  8
ASSI
100
AcDbLine
 62
7
  6
CONTINUOUS
 10
-11.1899829212
 20
-13.2265150364
 11
-11.048561565
 21
-13.1558043582
  0
LINE
  5
349
100
AcDbEntity
  8
ASSI
100
AcDbLine
 62
7
  6
CONTINUOUS
 10
-10.8364295306
 20
-13.0497383411
 11
-10.6950081744
 21
-12.9790276629
  0
LINE
  5
34A
100
AcDbEntity
  8
ASSI
100
AcDbLine
 62
7
  6
CONTINUOUS
 10
-10.48287614
 20
-12.8729616458
 11
-10.3414547838
 21
-12.8022509676
  0
LINE
  5
34B
100
AcDbEntity
  8
ASSI
100
AcDbLine
 62
7
  6
CONTINUOUS
 10
-10.2353887666
 20
-12.8791217696
 11
-11.8179911974
 21
-13.670422985
  0
LINE
  5
34C
100
AcDbEntity
  8
ASSI
100
AcDbLine
 62
7
  6
CONTINUOUS
 10
-10.0441869623
 20
-13.4796847563
 11
-11.1295512587
 21
-14.0204179028
  0
LINE
  5
34D
100
AcDbEntity
  8
DRAFT
100
AcDbLine
 62
7
  6
CONTINUOUS
 10
-11.3667596165
 20
-14.6086314406
 11
-11.9033512753
 21
-14.8424855126
  0
LINE
  5
34E
100
AcDbEntity
  8
RACCORDO
100
AcDbLine
 62
7
  6
CONTINUOUS
 10
-25.2432998517
 20
24.2245889332
 11
-25.2586174819
 21
24.2322477483
  0
LINE
  5
34F
100
AcDbEntity
  8
RACCORDO
100
AcDbLine
 62
7
  6
CONTINUOUS
 10
-24.308015663
 20
24.6958371429
 11
-24.7774001511
 21
24.930529387
  0
LINE
  5
350
100
AcDbEntity
  8
RACCORDO
100
AcDbLine
 62
7
  6
CONTINUOUS
 10
13.5941097594
 20
-26.6363206606
 11
13.5941097594
 21
-27.0890661286
  0
LINE
  5
351
100
AcDbEntity
  8
RACCORDO
100
AcDbLine
 62
7
  6
CONTINUOUS
 10
-5.4652899029
 20
-17.486308722
 11
-4.9094785538
 21
-17.1864357479
  0
LINE
  5
352
100
AcDbEntity
  8
RACCORDO
100
AcDbLine
 62
7
  6
CONTINUOUS
 10
-5.3279963172
 20
-17.4931990738
 11
-4.7721849681
 21
-17.1933260997
  0
LINE
  5
353
100
AcDbEntity
  8
RACCORDO
100
AcDbLine
 62
7
  6
CONTINUOUS
 10
-3.0936102766
 20
-18.6103920941
 11
-2.5279248517
 21
-18.3154561579
  0
LINE
  5
354
100
AcDbEntity
  8
RACCORDO
100
AcDbLine
 62
7
  6
CONTINUOUS
 10
-2.7590620746
 20
-18.9124802116
 11
-2.3157928173
 21
-18.6813693722
  0
LINE
  5
355
100
AcDbEntity
  8
RACCORDO
100
AcDbLine
 62
7
  6
CONTINUOUS
 10
-6.7356160768
 20
-17.2227231805
 11
-5.800331888
 21
-16.7514749708
  0
LINE
  5
356
100
AcDbEntity
  8
RACCORDO
100
AcDbLine
 62
7
  6
CONTINUOUS
 10
-5.9673726177
 20
-17.30832494
 11
-5.5882321624
 21
-17.1172928848
  0
LINE
  5
357
100
AcDbEntity
  8
0
100
AcDbLine
 62
7
  6
CONTINUOUS
 10
-6.0368800279
 20
-20.5515681668
 11
-6.1783013842
 21
-20.6222788449
  0
LINE
  5
358
100
AcDbEntity
  8
0
100
AcDbLine
 62
7
  6
CONTINUOUS
 10
-5.7001939625
 20
-20.7199111995
 11
-5.8416153187
 21
-20.7906218776
  0
LINE
  5
359
100
AcDbEntity
  8
0
100
AcDbLine
 62
7
  6
CONTINUOUS
 10
-5.1254886834
 20
-21.007263839
 11
-5.2669100397
 21
-21.0779745171
  0
LINE
  5
35A
100
AcDbEntity
  8
RACCORDO
100
AcDbLine
 62
7
  6
CONTINUOUS
 10
-2.2854073938
 20
-17.9486986423
 11
-2.7753799164
 21
-18.1917286256
  0
LINE
  5
35B
100
AcDbEntity
  8
RACCORDO
100
AcDbLine
 62
7
  6
CONTINUOUS
 10
-2.0733076682
 20
-18.3145165562
 11
-2.3783756249
 21
-18.4658325118
  0
LINE
  5
35C
100
AcDbEntity
  8
RACCORDO
100
AcDbLine
 62
7
  6
CONTINUOUS
 10
-3.9531838799
 20
-17.1688152011
 11
-4.4044174933
 21
-17.3772098371
  0
LINE
  5
35D
100
AcDbEntity
  8
RACCORDO
100
AcDbLine
 62
7
  6
CONTINUOUS
 10
-3.8236980524
 20
-17.179553313
 11
-4.3310794524
 21
-17.4138788575
  0
LINE
  5
35E
100
AcDbEntity
  8
DRAFT
100
AcDbLine
 62
7
  6
CONTINUOUS
 10
-6.0634587576
 20
-17.2602818701
 11
-6.6000504164
 21
-17.494135942
  0
LINE
  5
35F
100
AcDbEntity
  8
RACCORDO
100
AcDbLine
 62
7
  6
CONTINUOUS
 10
-27.0565268901
 20
30.7891025932
 11
20.9545315767
 21
6.7835733597
  0
LINE
  5
360
100
AcDbEntity
  8
RACCORDO
100
AcDbLine
 62
7
  6
CONTINUOUS
 10
-27.1344948459
 20
30.9513647333
 11
20.8765636145
 21
6.9458355031
  0
LWPOLYLINE
  5
361
100
AcDbEntity
  8
RACCORDO
100
AcDbPolyline
 62
7
  6
CONTINUOUS
 90
22
 70
0
 10
20.9545630219
 20
6.783557461
 10
20.9611765239
 20
6.780072129
 10
20.974622802
 20
6.7719665775
 10
20.9897745863
 20
6.7613301499
 10
21.0060984579
 20
6.7481813056
 10
21.0232484091
 20
6.7325026812
 10
21.0408914051
 20
6.7143316439
 10
21.058587378
 20
6.6938970587
 10
21.0759926091
 20
6.6714322242
 10
21.0928591847
 20
6.6471255395
 10
21.108974246
 20
6.6211607819
 10
21.1240960566
 20
6.5938313573
 10
21.1380286865
 20
6.5654352858
 10
21.1506596693
 20
6.5361486384
 10
21.1618311131
 20
6.5062965311
 10
21.1714204375
 20
6.4762180605
 10
21.1793724907
 20
6.4461281196
 10
21.1856213056
 20
6.4163375827
 10
21.1901194485
 20
6.3872234575
 10
21.1928633993
 20
6.3591830055
 10
21.1939032007
 20
6.3326077007
 10
21.1939178184
 20
6.329300318
  0
LINE
  5
362
100
AcDbEntity
  8
RACCORDO
100
AcDbLine
 62
7
  6
CONTINUOUS
 10
21.1939184206
 20
6.3291682649
 11
21.1939184206
 21
-33.4626461057
  0
LINE
  5
363
100
AcDbEntity
  8
RACCORDO
100
AcDbLine
 62
7
  6
CONTINUOUS
 10
21.2817863862
 20
6.2231022477
 11
21.2817863862
 21
-33.5687121441
  0
LWPOLYLINE
  5
364
100
AcDbEntity
  8
RACCORDO
100
AcDbPolyline
 62
7
  6
CONTINUOUS
 90
8
 70
0
 10
21.1939179949
 20
-33.4627843064
 10
21.1937771342
 20
-33.473236033
 10
21.1928788859
 20
-33.4906243462
 10
21.1912089395
 20
-33.5065638282
 10
21.1889011124
 20
-33.5206236712
 10
21.1862592546
 20
-33.532076833
 10
21.1836216754
 20
-33.5407150457
 10
21.1831226731
 20
-33.5421116424
  0
LINE
  5
365
100
AcDbEntity
  8
SMUSSO
100
AcDbLine
 62
7
  6
CONTINUOUS
 10
38.37820244
 20
23.3072827686
 11
39.0853092211
 21
24.5268615629
  0
LINE
  5
366
100
AcDbEntity
  8
ASSI
100
AcDbLine
 62
7
  6
CONTINUOUS
 10
5.603803132
 20
-21.653225577
 11
5.8585080056
 21
-21.4686295262
  0
LINE
  5
367
100
AcDbEntity
  8
0
100
AcDbLine
 62
7
  6
CONTINUOUS
 10
5.8587020846
 20
-21.0127697356
 11
4.4411042262
 21
-21.7999706969
  0
LINE
  5
368
100
AcDbEntity
  8
RACCORDO
100
AcDbLine
 62
7
  6
CONTINUOUS
 10
2.3566599674
 20
-20.8180468026
 11
1.7909745424
 21
-21.1129827388
  0
LINE
  5
369
100
AcDbEntity
  8
RACCORDO
100
AcDbLine
 62
7
  6
CONTINUOUS
 10
2.4925332947
 20
-20.8256852311
 11
1.9268478698
 21
-21.1206211673
  0
LINE
  5
36A
100
AcDbEntity
  8
ASSI
100
AcDbLine
 62
7
  6
CONTINUOUS
 10
5.603803132
 20
-21.653225577
 11
4.8458260669
 21
-22.0394590172
  0
LINE
  5
36B
100
AcDbEntity
  8
RACCORDO
100
AcDbLine
 62
7
  6
CONTINUOUS
 10
4.1612339103
 20
-22.2378141876
 11
4.7367934111
 21
-21.9478152893
  0
LINE
  5
36C
100
AcDbEntity
  8
DRAFT
100
AcDbLine
 62
7
  6
CONTINUOUS
 10
4.9446062419
 20
-22.2605114679
 11
5.2599489973
 21
-22.1019689045
  0
LINE
  5
36D
100
AcDbEntity
  8
DRAFT
100
AcDbLine
 62
7
  6
CONTINUOUS
 10
4.9298400862
 20
-22.1968008436
 11
5.3392479686
 21
-21.9911786458
  0
LINE
  5
36E
100
AcDbEntity
  8
0
100
AcDbLine
 62
7
  6
CONTINUOUS
 10
-4.8157638925
 20
-21.1621262345
 11
-4.9571852487
 21
-21.2328369126
  0
LINE
  5
36F
100
AcDbEntity
  8
0
100
AcDbLine
 62
7
  6
CONTINUOUS
 10
-4.7007466105
 20
-21.2195257563
 11
-4.8421679668
 21
-21.2902364344
  0
LINE
  5
370
100
AcDbEntity
  8
0
100
AcDbLine
 62
7
  6
CONTINUOUS
 10
-4.3908103946
 20
-21.3744938642
 11
-4.5322317509
 21
-21.4452045423
  0
LINE
  5
371
100
AcDbEntity
  8
0
100
AcDbLine
 62
7
  6
CONTINUOUS
 10
-4.0898933257
 20
-21.5250615179
 11
-4.231314682
 21
-21.595772196
  0
LINE
  5
372
100
AcDbEntity
  8
0
100
AcDbLine
 62
7
  6
CONTINUOUS
 10
-3.7802137896
 20
-21.6799012859
 11
-3.9216351458
 21
-21.7506119641
  0
LINE
  5
373
100
AcDbEntity
  8
0
100
AcDbLine
 62
7
  6
CONTINUOUS
 10
-5.2930383423
 20
-22.741989071
 11
-5.4344596986
 21
-22.8126997491
  0
LINE
  5
374
100
AcDbEntity
  8
0
100
AcDbLine
 62
7
  6
CONTINUOUS
 10
-3.1636152622
 20
-21.9882005496
 11
-3.3050366184
 21
-22.0589112278
  0
LINE
  5
375
100
AcDbEntity
  8
0
100
AcDbLine
 62
7
  6
CONTINUOUS
 10
-2.8569642644
 20
-22.1415260485
 11
-2.9983856206
 21
-22.2122367267
  0
LINE
  5
376
100
AcDbEntity
  8
0
100
AcDbLine
 62
7
  6
CONTINUOUS
 10
-4.3908103946
 20
-23.1931030449
 11
-4.5322317509
 21
-23.263813723
  0
LINE
  5
377
100
AcDbEntity
  8
0
100
AcDbLine
 62
7
  6
CONTINUOUS
 10
-2.2037227565
 20
-22.4681468025
 11
-2.3451441127
 21
-22.5388574806
  0
LINE
  5
378
100
AcDbEntity
  8
0
100
AcDbLine
 62
7
  6
CONTINUOUS
 10
-3.9274546346
 20
-23.4247809249
 11
-4.0688759909
 21
-23.495491603
  0
LINE
  5
379
100
AcDbEntity
  8
0
100
AcDbLine
 62
7
  6
CONTINUOUS
 10
-1.9038974604
 20
-22.6180594505
 11
-2.0453188167
 21
-22.6887701286
  0
LINE
  5
37A
100
AcDbEntity
  8
0
100
AcDbLine
 62
7
  6
CONTINUOUS
 10
-3.4535099506
 20
-23.6617532669
 11
-3.5949313068
 21
-23.732463945
  0
LINE
  5
37B
100
AcDbEntity
  8
0
100
AcDbLine
 62
7
  6
CONTINUOUS
 10
-1.3573117844
 20
-22.9125983492
 11
-1.4987331406
 21
-22.9833090273
  0
LINE
  5
37C
100
AcDbEntity
  8
0
100
AcDbLine
 62
7
  6
CONTINUOUS
 10
-2.2139552987
 20
-23.6375766192
 11
-2.3553766549
 21
-23.7082872974
  0
LINE
  5
37D
100
AcDbEntity
  8
0
100
AcDbLine
 62
7
  6
CONTINUOUS
 10
-2.7941169357
 20
-24.0674478119
 11
-2.8595402544
 21
-24.1001594712
  0
LINE
  5
37E
100
AcDbEntity
  8
0
100
AcDbLine
 62
7
  6
CONTINUOUS
 10
-0.5924374185
 20
-23.3141815172
 11
-0.7338587747
 21
-23.3848921953
  0
LINE
  5
37F
100
AcDbEntity
  8
0
100
AcDbLine
 62
7
  6
CONTINUOUS
 10
-2.3628776437
 20
-24.2070694204
 11
-2.5042989999
 21
-24.2777800985
  0
LINE
  5
380
100
AcDbEntity
  8
0
100
AcDbLine
 62
7
  6
CONTINUOUS
 10
-1.0588999949
 20
-23.8495715266
 11
-1.2003213511
 21
-23.9202822047
  0
LINE
  5
381
100
AcDbEntity
  8
0
100
AcDbLine
 62
7
  6
CONTINUOUS
 10
-0.8817747105
 20
-23.9381341688
 11
-1.0231960667
 21
-24.0088448469
  0
LINE
  5
382
100
AcDbEntity
  8
0
100
AcDbLine
 62
7
  6
CONTINUOUS
 10
-1.4987331406
 20
-24.6895506948
 11
-1.5897454739
 21
-24.7350568615
  0
LINE
  5
383
100
AcDbEntity
  8
0
100
AcDbLine
 62
7
  6
CONTINUOUS
 10
-0.6976048812
 20
-24.3279693168
 11
-0.7019031822
 21
-24.3301184673
  0
LINE
  5
384
100
AcDbEntity
  8
0
100
AcDbLine
 62
7
  6
CONTINUOUS
 10
-0.6588718943
 20
-24.3126800753
 11
-0.5174505381
 21
-24.2419693971
  0
LINE
  5
385
100
AcDbEntity
  8
0
100
AcDbLine
 62
7
  6
CONTINUOUS
 10
-1.0486229872
 20
-24.864197093
 11
-1.1900443435
 21
-24.9349077711
  0
LINE
  5
386
100
AcDbEntity
  8
0
100
AcDbLine
 62
7
  6
CONTINUOUS
 10
-0.3818311352
 20
-24.7054021083
 11
-0.5232524914
 21
-24.7761127864
  0
LINE
  5
387
100
AcDbEntity
  8
ASSI
100
AcDbLine
 62
7
  6
CONTINUOUS
 10
5.8657156144
 20
-21.4346360447
 11
4.780351318
 21
-21.9753691911
  0
LINE
  5
388
100
AcDbEntity
  8
0
100
AcDbLine
 62
7
  6
CONTINUOUS
 10
1.601238239
 20
-18.8840378128
 11
-0.7231017477
 21
-19.930460375
  0
LINE
  5
389
100
AcDbEntity
  8
RACCORDO
100
AcDbLine
 62
7
  6
CONTINUOUS
 10
22.6514375645
 20
8.1234665404
 11
-28.9116521416
 21
33.9050113934
  0
LINE
  5
38A
100
AcDbEntity
  8
RACCORDO
100
AcDbLine
 62
7
  6
CONTINUOUS
 10
22.8598673844
 20
8.4874495015
 11
-28.7009389761
 21
34.2678526817
  0
LINE
  5
38B
100
AcDbEntity
  8
RACCORDO
100
AcDbLine
 62
7
  6
CONTINUOUS
 10
23.1514139717
 20
8.6343468926
 11
-28.4193957094
 21
34.4197517332
  0
LINE
  5
38C
100
AcDbEntity
  8
RACCORDO
100
AcDbLine
 62
7
  6
CONTINUOUS
 10
22.9342371987
 20
-36.6337700306
 11
22.9342371987
 21
7.6357093217
  0
LINE
  5
38D
100
AcDbEntity
  8
RACCORDO
100
AcDbLine
 62
7
  6
CONTINUOUS
 10
23.3547667442
 20
-36.6356049835
 11
23.3547667442
 21
7.6338743689
  0
LINE
  5
38E
100
AcDbEntity
  8
RACCORDO
100
AcDbLine
 62
7
  6
CONTINUOUS
 10
23.6463133315
 20
-36.5009591079
 11
23.6463133315
 21
7.78077176
  0
LINE
  5
38F
100
AcDbEntity
  8
SMUSSO
100
AcDbLine
 62
7
  6
CONTINUOUS
 10
40.8846006322
 20
25.3925803452
 11
41.1884524309
 21
25.9199089718
  0
LINE
  5
390
100
AcDbEntity
  8
ASSI
100
AcDbLine
 62
7
  6
CONTINUOUS
 10
15.301219061
 20
-27.9426207794
 11
15.3265213733
 21
-27.898980746
  0
LINE
  5
391
100
AcDbEntity
  8
RACCORDO
100
AcDbLine
 62
7
  6
CONTINUOUS
 10
5.4862253891
 20
-22.4565100505
 11
4.5830319468
 21
-22.9438036334
  0
LINE
  5
392
100
AcDbEntity
  8
RACCORDO
100
AcDbLine
 62
7
  6
CONTINUOUS
 10
5.6235189749
 20
-22.4634004023
 11
4.7203255325
 21
-22.9506939852
  0
LINE
  5
393
100
AcDbEntity
  8
RACCORDO
100
AcDbLine
 62
7
  6
CONTINUOUS
 10
10.4446126738
 20
-25.4412600104
 11
11.0004240229
 21
-25.1413870363
  0
LINE
  5
394
100
AcDbEntity
  8
RACCORDO
100
AcDbLine
 62
7
  6
CONTINUOUS
 10
10.5819062595
 20
-25.4481503622
 11
11.1377176086
 21
-25.1482773881
  0
LINE
  5
395
100
AcDbEntity
  8
RACCORDO
100
AcDbLine
 62
7
  6
CONTINUOUS
 10
4.4978077438
 20
-22.5409151208
 11
4.9488931367
 21
-22.3136332033
  0
LINE
  5
396
100
AcDbEntity
  8
RACCORDO
100
AcDbLine
 62
7
  6
CONTINUOUS
 10
9.1742864999
 20
-25.1776744689
 11
10.1095706886
 21
-24.7064262592
  0
LINE
  5
397
100
AcDbEntity
  8
RACCORDO
100
AcDbLine
 62
7
  6
CONTINUOUS
 10
9.942529959
 20
-25.2632762284
 11
10.3216704143
 21
-25.0722441732
  0
LINE
  5
398
100
AcDbEntity
  8
0
100
AcDbLine
 62
7
  6
CONTINUOUS
 10
-0.2758766339
 20
-25.2505702697
 11
-0.4172979901
 21
-25.3212809478
  0
LINE
  5
399
100
AcDbEntity
  8
DRAFT
100
AcDbLine
 62
7
  6
CONTINUOUS
 10
4.5431429602
 20
-22.563582729
 11
4.0065513014
 21
-22.7974368009
  0
LINE
  5
39A
100
AcDbEntity
  8
DRAFT
100
AcDbLine
 62
7
  6
CONTINUOUS
 10
9.8464438191
 20
-25.2152331584
 11
9.3098521603
 21
-25.4490872304
  0
LINE
  5
39B
100
AcDbEntity
  8
SMUSSO
100
AcDbLine
 62
7
  6
CONTINUOUS
 10
38.37820244
 20
23.3072827686
 11
39.7924160023
 21
23.3072827686
  0
LINE
  5
39C
100
AcDbEntity
  8
SMUSSO
100
AcDbLine
 62
7
  6
CONTINUOUS
 10
41.5601829553
 20
24.0921133698
 11
42.249072216
 21
24.090610437
  0
LWPOLYLINE
  5
39D
100
AcDbEntity
  8
RACCORDO
100
AcDbPolyline
 62
7
  6
CONTINUOUS
 90
6
 70
0
 10
-27.0771684237
 20
30.7971042415
 10
-27.0771311896
 20
30.7970959902
 10
-27.0754788004
 20
30.7967113972
 10
-27.0713547025
 20
30.795453084
 10
-27.0650536998
 20
30.7930397536
 10
-27.0565438019
 20
30.7891108369
  0
LWPOLYLINE
  5
39E
100
AcDbEntity
  8
RACCORDO
100
AcDbPolyline
 62
7
  6
CONTINUOUS
 90
3
 70
0
 10
21.1831226731
 20
-33.5421116424
 10
21.181361601
 20
-33.5465041293
 10
21.1800450392
 20
-33.5492108041
  0
LINE
  5
39F
100
AcDbEntity
  8
ASSI
100
AcDbLine
 62
7
  6
CONTINUOUS
 10
15.5847235903
 20
-27.8866604983
 11
15.6800747639
 21
-27.7222040507
  0
LINE
  5
3A0
100
AcDbEntity
  8
ASSI
100
AcDbLine
 62
7
  6
CONTINUOUS
 10
15.9382769809
 20
-27.709883803
 11
16.0336281545
 21
-27.5454273554
  0
LINE
  5
3A1
100
AcDbEntity
  8
ASSI
100
AcDbLine
 62
7
  6
CONTINUOUS
 10
16.2918303715
 20
-27.5331071077
 11
16.3871815451
 21
-27.3686506601
  0
LINE
  5
3A2
100
AcDbEntity
  8
ASSI
100
AcDbLine
 62
7
  6
CONTINUOUS
 10
16.6453837621
 20
-27.3563304124
 11
16.7407349356
 21
-27.1918739648
  0
LINE
  5
3A3
100
AcDbEntity
  8
ASSI
100
AcDbLine
 62
7
  6
CONTINUOUS
 10
16.9989371527
 20
-27.1795537171
 11
17.0942883262
 21
-27.0150972695
  0
LINE
  5
3A4
100
AcDbEntity
  8
ASSI
100
AcDbLine
 62
7
  6
CONTINUOUS
 10
17.3524905433
 20
-27.0027770218
 11
17.4478417168
 21
-26.8383205742
  0
LINE
  5
3A5
100
AcDbEntity
  8
ASSI
100
AcDbLine
 62
7
  6
CONTINUOUS
 10
19.8998789872
 20
-29.5293580774
 11
19.922715451
 21
-29.4899710036
  0
LINE
  5
3A6
100
AcDbEntity
  8
ASSI
100
AcDbLine
 62
7
  6
CONTINUOUS
 10
20.1702028244
 20
-29.4961311275
 11
20.2762688416
 21
-29.3131943083
  0
LINE
  5
3A7
100
AcDbEntity
  8
ASSI
100
AcDbLine
 62
7
  6
CONTINUOUS
 10
20.523756215
 20
-29.3193544322
 11
20.6298222322
 21
-29.1364176131
  0
LINE
  5
3A8
100
AcDbEntity
  8
ASSI
100
AcDbLine
 62
7
  6
CONTINUOUS
 10
20.8773096056
 20
-29.1425777369
 11
20.9833756228
 21
-28.9596409178
  0
LINE
  5
3A9
100
AcDbEntity
  8
RACCORDO
100
AcDbLine
 62
7
  6
CONTINUOUS
 10
12.8162923001
 20
-26.5653433825
 11
13.381977725
 21
-26.2704074463
  0
LINE
  5
3AA
100
AcDbEntity
  8
RACCORDO
100
AcDbLine
 62
7
  6
CONTINUOUS
 10
13.1508405021
 20
-26.8674314999
 11
13.5941097594
 21
-26.6363206606
  0
LINE
  5
3AB
100
AcDbEntity
  8
ASSI
100
AcDbLine
 62
7
  6
CONTINUOUS
 10
15.3265213733
 20
-27.898980746
 11
15.4679427295
 21
-27.8282700679
  0
LINE
  5
3AC
100
AcDbEntity
  8
ASSI
100
AcDbLine
 62
7
  6
CONTINUOUS
 10
15.6800747639
 20
-27.7222040507
 11
15.8214961201
 21
-27.6514933726
  0
LINE
  5
3AD
100
AcDbEntity
  8
ASSI
100
AcDbLine
 62
7
  6
CONTINUOUS
 10
16.0336281545
 20
-27.5454273554
 11
16.1750495107
 21
-27.4747166773
  0
LINE
  5
3AE
100
AcDbEntity
  8
ASSI
100
AcDbLine
 62
7
  6
CONTINUOUS
 10
16.3871815451
 20
-27.3686506601
 11
16.5286029013
 21
-27.297939982
  0
LINE
  5
3AF
100
AcDbEntity
  8
ASSI
100
AcDbLine
 62
7
  6
CONTINUOUS
 10
16.7407349356
 20
-27.1918739648
 11
16.8821562919
 21
-27.1211632867
  0
LINE
  5
3B0
100
AcDbEntity
  8
ASSI
100
AcDbLine
 62
7
  6
CONTINUOUS
 10
17.0942883262
 20
-27.0150972695
 11
17.2357096825
 21
-26.9443865914
  0
LINE
  5
3B1
100
AcDbEntity
  8
ASSI
100
AcDbLine
 62
7
  6
CONTINUOUS
 10
17.4478417168
 20
-26.8383205742
 11
17.5892630731
 21
-26.7676098961
  0
LINE
  5
3B2
100
AcDbEntity
  8
ASSI
100
AcDbLine
 62
7
  6
CONTINUOUS
 10
17.5111408157
 20
-26.7523865608
 11
15.0956596418
 21
-27.8398410698
  0
LINE
  5
3B3
100
AcDbEntity
  8
RACCORDO
100
AcDbLine
 62
7
  6
CONTINUOUS
 10
-26.6852872071
 20
30.6034827516
 11
-27.1555126524
 21
30.6170476783
  0
LINE
  5
3B4
100
AcDbEntity
  8
RACCORDO
100
AcDbLine
 62
7
  6
CONTINUOUS
 10
-27.0747100332
 20
30.796932377
 11
-27.0746324088
 21
30.796930135
  0
LINE
  5
3B5
100
AcDbEntity
  8
RACCORDO
100
AcDbLine
 62
7
  6
CONTINUOUS
 10
21.1801998087
 20
-33.5490027641
 11
21.1814120176
 21
-33.5473653476
  0
LINE
  5
3B6
100
AcDbEntity
  8
RACCORDO
100
AcDbLine
 62
7
  6
CONTINUOUS
 10
21.0161325472
 20
-33.5722891842
 11
21.1939184206
 21
-33.3492235026
  0
LINE
  5
3B7
100
AcDbEntity
  8
ASSI
100
AcDbLine
 62
7
  6
CONTINUOUS
 10
21.1939184206
 20
-29.2002453491
 11
20.2689429094
 21
-29.7138900384
  0
LINE
  5
3B8
100
AcDbEntity
  8
RACCORDO
100
AcDbLine
 62
7
  6
CONTINUOUS
 10
18.2665625441
 20
-28.7729980909
 11
17.7008771191
 21
-29.0679340271
  0
LINE
  5
3B9
100
AcDbEntity
  8
RACCORDO
100
AcDbLine
 62
7
  6
CONTINUOUS
 10
18.4024358714
 20
-28.7806365195
 11
17.8367504465
 21
-29.0755724557
  0
LINE
  5
3BA
100
AcDbEntity
  8
ASSI
100
AcDbLine
 62
7
  6
CONTINUOUS
 10
21.1939184206
 20
-29.771127105
 11
20.7925045317
 21
-29.9756708496
  0
LINE
  5
3BB
100
AcDbEntity
  8
DRAFT
100
AcDbLine
 62
7
  6
CONTINUOUS
 10
21.0627233552
 20
-30.1107802614
 11
21.169851574
 21
-30.0569201929
  0
LINE
  5
3BC
100
AcDbEntity
  8
DRAFT
100
AcDbLine
 62
7
  6
CONTINUOUS
 10
20.991863689
 20
-30.0753504283
 11
21.1939184206
 21
-29.9738698761
  0
LINE
  5
3BD
100
AcDbEntity
  8
ASSI
100
AcDbLine
 62
7
  6
CONTINUOUS
 10
19.922715451
 20
-29.4899710036
 11
20.0641368072
 21
-29.4192603255
  0
LINE
  5
3BE
100
AcDbEntity
  8
ASSI
100
AcDbLine
 62
7
  6
CONTINUOUS
 10
20.2762688416
 20
-29.3131943083
 11
20.4176901978
 21
-29.2424836302
  0
LINE
  5
3BF
100
AcDbEntity
  8
ASSI
100
AcDbLine
 62
7
  6
CONTINUOUS
 10
20.6298222322
 20
-29.1364176131
 11
20.7712435884
 21
-29.0657069349
  0
LINE
  5
3C0
100
AcDbEntity
  8
ASSI
100
AcDbLine
 62
7
  6
CONTINUOUS
 10
20.9833756228
 20
-28.9596409178
 11
21.124796979
 21
-28.8889302396
  0
LINE
  5
3C1
100
AcDbEntity
  8
ASSI
100
AcDbLine
 62
7
  6
CONTINUOUS
 10
21.1939184206
 20
-28.9842733294
 11
20.001813956
 21
-29.5803255617
  0
LINE
  5
3C2
100
AcDbEntity
  8
ASSI
100
AcDbLine
 62
7
  6
CONTINUOUS
 10
21.1939184206
 20
-29.679392653
 11
20.6960392319
 21
-29.9274381997
  0
LINE
  5
3C3
100
AcDbEntity
  8
SMUSSO
100
AcDbLine
 62
7
  6
CONTINUOUS
 10
38.37820244
 20
23.3072827686
 11
-43.6461841777
 21
64.3194760774
  0
LINE
  5
3C4
100
AcDbEntity
  8
SMUSSO
100
AcDbLine
 62
7
  6
CONTINUOUS
 10
38.37820244
 20
-66.759359225
 11
38.37820244
 21
23.3072827686
  0
LINE
  5
3C5
100
AcDbEntity
  8
SMUSSO
100
AcDbLine
 62
7
  6
CONTINUOUS
 10
39.7924160023
 20
-66.759359225
 11
39.7924160023
 21
23.3072827686
  0
LINE
  5
3C6
100
AcDbEntity
  8
SMUSSO
100
AcDbLine
 62
7
  6
CONTINUOUS
 10
41.5601829553
 20
24.5447196356
 11
41.5601829553
 21
-65.8754757485
  0
LINE
  5
3C7
100
AcDbEntity
  8
SMUSSO
100
AcDbLine
 62
7
  6
CONTINUOUS
 10
42.249072216
 20
-64.9789118851
 11
42.249072216
 21
24.090610437
  0
LINE
  5
3C8
100
AcDbEntity
  8
RACCORDO
100
AcDbLine
 62
7
  6
CONTINUOUS
 10
23.3547667442
 20
-36.6356049835
 11
23.6463133315
 21
-36.5009591079
  0
LINE
  5
3C9
100
AcDbEntity
  8
RACCORDO
100
AcDbLine
 62
7
  6
CONTINUOUS
 10
23.1640295666
 20
-37.0183994831
 11
23.4569928609
 21
-36.8830993254
  0
LINE
  5
3CA
100
AcDbEntity
  8
SMUSSO
100
AcDbLine
 62
7
  6
CONTINUOUS
 10
39.0853092211
 20
24.5268615629
 11
-42.9390773965
 21
65.5390548718
  0
LINE
  5
3CB
100
AcDbEntity
  8
SMUSSO
100
AcDbLine
 62
7
  6
CONTINUOUS
 10
-41.1713104435
 20
66.4229383483
 11
40.8530761741
 21
25.4107450394
  0
LINE
  5
3CC
100
AcDbEntity
  8
SMUSSO
100
AcDbLine
 62
7
  6
CONTINUOUS
 10
41.1884524309
 20
25.9199089718
 11
-40.0217893843
 21
66.5250298794
  0
LINE
  5
3CD
100
AcDbEntity
  8
SMUSSO
100
AcDbLine
 62
7
  6
CONTINUOUS
 10
-38.6488868744
 20
67.2383707735
 11
42.5855281747
 21
26.6211632489
  0
LINE
  5
3CE
100
AcDbEntity
  8
SMUSSO
100
AcDbLine
 62
7
  6
CONTINUOUS
 10
43.6461479598
 20
25.492854054
 11
43.6461479598
 21
-64.3072636524
  0
LINE
  5
3CF
100
AcDbEntity
  8
SMUSSO
100
AcDbLine
 62
7
  6
CONTINUOUS
 10
43.3577903417
 20
26.068746924
 11
42.7897191534
 21
26.4934141254
  0
LINE
  5
3D0
100
AcDbEntity
  8
SMUSSO
100
AcDbLine
 62
7
  6
CONTINUOUS
 10
41.2773402428
 20
25.1104050606
 11
40.9944975303
 21
25.322537095
  0
LINE
  5
3D1
100
AcDbEntity
  8
SMUSSO
100
AcDbLine
 62
7
  6
CONTINUOUS
 10
39.7924160023
 20
-66.759359225
 11
41.5601829553
 21
-65.8754757485
  0
LINE
  5
3D2
100
AcDbEntity
  8
RACCORDO
100
AcDbLine
 62
7
  6
CONTINUOUS
 10
39.532523411
 20
-67.3002327283
 11
41.3002897696
 21
-66.4163495489
  0
LINE
  5
3D3
100
AcDbEntity
  8
SMUSSO
100
AcDbLine
 62
7
  6
CONTINUOUS
 10
42.249072216
 20
-64.9789118851
 11
43.6461479598
 21
-64.3072636524
  0
LINE
  5
3D4
100
AcDbEntity
  8
RACCORDO
100
AcDbLine
 62
7
  6
CONTINUOUS
 10
41.8501311152
 20
-65.7946598683
 11
43.245983627
 21
-65.1235997079
  0
ARC
  5
3D5
100
AcDbEntity
  8
SMUSSO
100
AcDbCircle
 62
7
  6
CONTINUOUS
 10
41.5888176557
 20
-65.1641924659
 40
0.6879380521
100
AcDbArc
 50
267.6218131211
 51
271.5607128455
  0
ARC
  5
3D6
100
AcDbEntity
  8
DRAFT
100
AcDbCircle
 62
7
  6
CONTINUOUS
 10
13.2950175099
 20
-26.7321526736
 40
0.4314429704
100
AcDbArc
 50
63.4232082474
 51
65.9709728105
  0
ARC
  5
3D7
100
AcDbEntity
  8
0
100
AcDbCircle
 62
7
  6
CONTINUOUS
 10
-0.9235441489
 20
-24.5541789362
 40
0.3151631512
100
AcDbArc
 50
42.2335523255
 51
45.311028618
  0
ARC
  5
3D8
100
AcDbEntity
  8
RACCORDO
100
AcDbCircle
 62
7
  6
CONTINUOUS
 10
-20.9721317597
 20
11.1896953451
 40
0.3022061597
100
AcDbArc
 50
298.4212682617
 51
318.2487470835
  0
ARC
  5
3D9
100
AcDbEntity
  8
RACCORDO
100
AcDbCircle
 62
7
  6
CONTINUOUS
 10
-2.2890959598
 20
-18.2103137763
 40
0.2999860174
100
AcDbArc
 50
359.9999783173
 51
63.4464442407
  0
ARC
  5
3DA
100
AcDbEntity
  8
RACCORDO
100
AcDbCircle
 62
7
  6
CONTINUOUS
 10
-20.9707300232
 20
16.5883298406
 40
0.2999860174
100
AcDbArc
 50
359.9999783172
 51
63.4464442407
  0
ARC
  5
3DB
100
AcDbEntity
  8
RACCORDO
100
AcDbCircle
 62
7
  6
CONTINUOUS
 10
-20.9706773658
 20
11.1879816069
 40
0.2999338858
100
AcDbArc
 50
318.3283552134
 51
359.99400452
  0
ARC
  5
3DC
100
AcDbEntity
  8
RACCORDO
100
AcDbCircle
 62
7
  6
CONTINUOUS
 10
-3.8274233026
 20
-17.441067372
 40
0.2998949273
100
AcDbArc
 50
63.4695635946
 51
114.7934812241
  0
ARC
  5
3DD
100
AcDbEntity
  8
RACCORDO
100
AcDbCircle
 62
7
  6
CONTINUOUS
 10
-21.2789457579
 20
16.7425204409
 40
0.2998949273
100
AcDbArc
 50
63.4695635946
 51
114.7934812241
  0
ARC
  5
3DE
100
AcDbEntity
  8
RACCORDO
100
AcDbCircle
 62
7
  6
CONTINUOUS
 10
-25.3797465069
 20
-8.3144703371
 40
0.1745908128
100
AcDbArc
 50
236.3114053074
 51
243.5817777084
  0
ARC
  5
3DF
100
AcDbEntity
  8
DRAFT
100
AcDbCircle
 62
7
  6
CONTINUOUS
 10
21.1118279807
 20
-29.9418023822
 40
0.1289093642
100
AcDbArc
 50
296.7594766855
 51
309.6601179861
  0
ARC
  5
3E0
100
AcDbEntity
  8
RACCORDO
100
AcDbCircle
 62
7
  6
CONTINUOUS
 10
-25.5373412904
 20
-8.0626366219
 40
0.109854304
100
AcDbArc
 50
179.9827580498
 51
186.2735824963
  0
ARC
  5
3E1
100
AcDbEntity
  8
ASSI
100
AcDbCircle
 62
7
  6
CONTINUOUS
 10
-14.2685787766
 20
-10.9205320143
 40
0.0874961196
100
AcDbArc
 50
105.061869074
 51
111.661129725
  0
ARC
  5
3E2
100
AcDbEntity
  8
ASSI
100
AcDbCircle
 62
7
  6
CONTINUOUS
 10
17.5512263768
 20
-26.830434591
 40
0.0874961196
100
AcDbArc
 50
105.061869074
 51
111.661129725
  0
SPLINE
  5
3E3
100
AcDbEntity
  8
0
100
AcDbSpline
 62
7
  6
CONTINUOUS
 70
0
 71
3
 72
11
 73
7
 74
5
 42
0.0000001
 43
0.0000001
 44
0.0000000001
 12
0.3138156219
 22
-0.2015300707
 32
0.0
 13
0.0047321734
 23
-0.3729238803
 33
0.0
 40
0.0
 40
0.0
 40
0.0
 40
0.0
 40
0.2339806254
 40
0.4918424311
 40
0.7556842856
 40
1.0
 40
1.0
 40
1.0
 40
1.0
 10
-0.9575145195
 20
-23.5317669458
 30
0.0
 10
-0.9330389277
 20
-23.5474849898
 30
0.0
 10
-0.8862955053
 20
-23.5879875446
 30
0.0
 10
-0.8301437242
 20
-23.664359626
 30
0.0
 10
-0.793751846
 20
-23.7532148044
 30
0.0
 10
-0.7828233374
 20
-23.8162593202
 30
0.0
 10
-0.782437956
 20
-23.8466297083
 30
0.0
 11
-0.9575145195
 21
-23.5317669458
 31
0.0
 11
-0.8908727338
 21
-23.5881041087
 31
0.0
 11
-0.8340035754
 21
-23.6656584559
 31
0.0
 11
-0.7963861676
 21
-23.7565851176
 31
0.0
 11
-0.782437956
 21
-23.8466297083
 31
0.0
  0
SPLINE
  5
3E4
100
AcDbEntity
  8
0
100
AcDbSpline
 62
7
  6
CONTINUOUS
 70
0
 71
3
 72
11
 73
7
 74
5
 42
0.0000001
 43
0.0000001
 44
0.0000000001
 12
0.0026069209
 22
-0.2082217904
 32
0.0
 13
-0.1862538386
 23
-0.09312689
 33
0.0
 40
0.0
 40
0.0
 40
0.0
 40
0.0
 40
0.2862348143
 40
0.5536263917
 40
0.7910497861
 40
1.0
 40
1.0
 40
1.0
 40
1.0
 10
-0.782437956
 20
-23.8466297083
 30
0.0
 10
-0.7821892255
 20
-23.8664964835
 30
0.0
 10
-0.7846400821
 20
-23.905042843
 30
0.0
 10
-0.7976011245
 20
-23.9587396589
 30
0.0
 10
-0.8199043332
 20
-24.0036176172
 30
0.0
 10
-0.8437096066
 20
-24.0253818837
 30
0.0
 10
-0.8566821997
 20
-24.0318681782
 30
0.0
 11
-0.782437956
 21
-23.8466297083
 31
0.0
 11
-0.7864931016
 21
-23.9060966016
 31
0.0
 11
-0.8001971777
 21
-23.9600649722
 31
0.0
 11
-0.8235827874
 21
-24.0036251152
 31
0.0
 11
-0.8566821997
 21
-24.0318681782
 31
0.0
  0
SPLINE
  5
3E5
100
AcDbEntity
  8
0
100
AcDbSpline
 62
7
  6
CONTINUOUS
 70
0
 71
3
 72
10
 73
6
 74
4
 42
0.0000001
 43
0.0000001
 44
0.0000000001
 12
0.257046478
 22
-0.0748047261
 32
0.0
 13
0.2252633536
 23
-0.1446549704
 33
0.0
 40
0.0
 40
0.0
 40
0.0
 40
0.0
 40
0.2362920832
 40
0.4814109498
 40
1.0
 40
1.0
 40
1.0
 40
1.0
 10
-1.2003213511
 20
-23.4210683721
 30
0.0
 10
-1.1800753352
 20
-23.4269602936
 30
0.0
 10
-1.1390470996
 20
-23.4398299602
 30
0.0
 10
-1.056351766
 20
-23.4735900548
 30
0.0
 10
-0.9964542224
 20
-23.5067614513
 30
0.0
 10
-0.9575145195
 20
-23.5317669458
 30
0.0
 11
-1.2003213511
 21
-23.4210683721
 31
0.0
 11
-1.1400927492
 21
-23.440408967
 31
0.0
 11
-1.0793020481
 21
-23.4651188037
 31
0.0
 11
-0.9575145195
 21
-23.5317669458
 31
0.0
  0
SPLINE
  5
3E6
100
AcDbEntity
  8
0
100
AcDbSpline
 62
7
  6
CONTINUOUS
 70
0
 71
3
 72
10
 73
6
 74
4
 42
0.0000001
 43
0.0000001
 44
0.0000000001
 12
0.2763115484
 22
-0.1381557742
 32
0.0
 13
0.0793323206
 23
-0.2985656924
 33
0.0
 40
0.0
 40
0.0
 40
0.0
 40
0.0
 40
0.2224105364
 40
0.6042534692
 40
1.0
 40
1.0
 40
1.0
 40
1.0
 10
-1.0238641279
 20
-24.3063372506
 30
0.0
 10
-1.0033792613
 20
-24.3165796839
 30
0.0
 10
-0.9517737632
 20
-24.3530398977
 30
0.0
 10
-0.8907979004
 20
-24.438437272
 30
0.0
 10
-0.8614127924
 20
-24.513641767
 30
0.0
 10
-0.8509476288
 20
-24.5530272127
 30
0.0
 11
-1.0238641279
 21
-24.3063372506
 31
0.0
 11
-0.9673896402
 21
-24.3454712131
 31
0.0
 11
-0.8959932119
 21
-24.4393720665
 31
0.0
 11
-0.8509476288
 21
-24.5530272127
 31
0.0
  0
SPLINE
  5
3E7
100
AcDbEntity
  8
0
100
AcDbSpline
 62
7
  6
CONTINUOUS
 70
0
 71
3
 72
9
 73
5
 74
3
 42
0.0000001
 43
0.0000001
 44
0.0000000001
 12
0.1629167104
 22
-0.6125703128
 32
0.0
 13
0.1303220388
 23
-0.6203228263
 33
0.0
 40
0.0
 40
0.0
 40
0.0
 40
0.0
 40
0.5011449125
 40
1.0
 40
1.0
 40
1.0
 40
1.0
 10
-0.8509476288
 20
-24.5530272127
 30
0.0
 10
-0.8237326686
 20
-24.6553560446
 30
0.0
 10
-0.781801972
 20
-24.8626201131
 30
0.0
 10
-0.7370908905
 20
-25.0690694004
 30
0.0
 10
-0.7154202865
 20
-25.1722197996
 30
0.0
 11
-0.8509476288
 21
-24.5530272127
 31
0.0
 11
-0.7810076749
 21
-24.8628900823
 31
0.0
 11
-0.7154202865
 21
-25.1722197996
 31
0.0
  0
SPLINE
  5
3E8
100
AcDbEntity
  8
0
100
AcDbSpline
 62
7
  6
CONTINUOUS
 70
0
 71
3
 72
9
 73
5
 74
3
 42
0.0000001
 43
0.0000001
 44
0.0000000001
 12
0.0347599123
 22
-0.0118867917
 32
0.0
 13
0.0336218497
 23
0.0148026531
 33
0.0
 40
0.0
 40
0.0
 40
0.0
 40
0.0
 40
0.5138973552
 40
1.0
 40
1.0
 40
1.0
 40
1.0
 10
-0.7019031822
 20
-24.319372715
 30
0.0
 10
-0.6959488398
 20
-24.3214089119
 30
0.0
 10
-0.6832039716
 20
-24.3226161325
 30
0.0
 10
-0.6714701043
 20
-24.3184702131
 30
0.0
 10
-0.6660222143
 20
-24.3160716768
 30
0.0
 11
-0.7019031822
 21
-24.319372715
 31
0.0
 11
-0.6831167274
 21
-24.3212359735
 31
0.0
 11
-0.6660222143
 21
-24.3160716768
 31
0.0
  0
LINE
  5
3E9
100
AcDbEntity
  8
0
100
AcDbLine
 62
7
  6
CONTINUOUS
 10
-0.6660222143
 20
-24.3160716768
 11
-0.6588718836
 21
-24.3126800699
  0
SPLINE
  5
3EA
100
AcDbEntity
  8
DRAFT
100
AcDbSpline
 62
7
  6
CONTINUOUS
 70
0
 71
3
 72
13
 73
9
 74
7
 42
0.0000001
 43
0.0000001
 44
0.0000000001
 12
0.9035182848
 22
-0.4517591424
 32
0.0
 13
-0.4391536236
 23
-0.9097118822
 33
0.0
 40
0.0
 40
0.0
 40
0.0
 40
0.0
 40
0.1161805295
 40
0.2440991783
 40
0.5175470948
 40
0.6534764453
 40
0.7817146776
 40
1.0
 40
1.0
 40
1.0
 40
1.0
 10
13.4880437422
 20
-26.3462978947
 30
0.0
 10
13.5230341531
 20
-26.3637931001
 30
0.0
 10
13.5919232301
 20
-26.4101055943
 30
0.0
 10
13.7155613292
 20
-26.5338709758
 30
0.0
 10
13.8100489462
 20
-26.6922637925
 30
0.0
 10
13.8660277896
 20
-26.865243052
 30
0.0
 10
13.8901270848
 20
-27.0257760822
 30
0.0
 10
13.8756735583
 20
-27.1478270259
 30
0.0
 10
13.8437199615
 20
-27.2140192764
 30
0.0
 11
13.4880437422
 21
-26.3462978947
 31
0.0
 11
13.5862147845
 21
-26.4106107711
 31
0.0
 11
13.6782256404
 21
-26.5013384367
 31
0.0
 11
13.8211303659
 21
-26.7377274194
 31
0.0
 11
13.8630395966
 21
-26.8684864164
 31
0.0
 11
13.8812790798
 21
-26.9967375929
 31
0.0
 11
13.8437199615
 21
-27.2140192764
 31
0.0
  0
SPLINE
  5
3EB
100
AcDbEntity
  8
RACCORDO
100
AcDbSpline
 62
7
  6
CONTINUOUS
 70
0
 71
3
 72
11
 73
7
 74
5
 42
0.0000001
 43
0.0000001
 44
0.0000000001
 12
0.5251876529
 22
-0.262645468
 32
0.0
 13
0.0000611188
 23
-0.5872007399
 33
0.0
 40
0.0
 40
0.0
 40
0.0
 40
0.0
 40
0.2296791434
 40
0.4882139181
 40
0.7532029516
 40
1.0
 40
1.0
 40
1.0
 40
1.0
 10
22.6514375645
 20
8.1234665404
 30
0.0
 10
22.6916457813
 20
8.1033584783
 30
0.0
 10
22.768482467
 20
8.0432553573
 30
0.0
 10
22.8572063428
 20
7.92391844
 30
0.0
 10
22.9175719334
 20
7.7843618281
 30
0.0
 10
22.9342321707
 20
7.6840157915
 30
0.0
 10
22.9342371987
 20
7.6357093217
 30
0.0
 11
22.6514375645
 21
8.1234665404
 31
0.0
 11
22.7596635329
 21
8.0429901248
 31
0.0
 11
22.8514117293
 21
7.9220393305
 31
0.0
 11
22.9127120612
 21
7.779021233
 31
0.0
 11
22.9342371987
 21
7.6357093217
 31
0.0
  0
SPLINE
  5
3EC
100
AcDbEntity
  8
RACCORDO
100
AcDbSpline
 62
7
  6
CONTINUOUS
 70
0
 71
3
 72
15
 73
11
 74
9
 42
0.0000001
 43
0.0000001
 44
0.0000000001
 12
-0.0000285072
 22
-0.4348568706
 32
0.0
 13
-0.3889720997
 23
0.1944253183
 33
0.0
 40
0.0
 40
0.0
 40
0.0
 40
0.0
 40
0.1489156739
 40
0.2843869695
 40
0.4071908661
 40
0.520671207
 40
0.6305281702
 40
0.7435187239
 40
0.8655203105
 40
1.0
 40
1.0
 40
1.0
 40
1.0
 10
22.9342371987
 20
-36.6337700306
 30
0.0
 10
22.9342357837
 20
-36.6553556986
 30
0.0
 10
22.9311142686
 20
-36.6966952339
 30
0.0
 10
22.9156431655
 20
-36.7540783197
 30
0.0
 10
22.8898392585
 20
-36.8020508151
 30
0.0
 10
22.8542190254
 20
-36.8384739689
 30
0.0
 10
22.8101070797
 20
-36.8612051282
 30
0.0
 10
22.7599113568
 20
-36.8688984312
 30
0.0
 10
22.706268992
 20
-36.8618185378
 30
0.0
 10
22.6711571901
 20
-36.8485847055
 30
0.0
 10
22.6537209077
 20
-36.8398692866
 30
0.0
 11
22.9342371987
 21
-36.6337700306
 31
0.0
 11
22.928859861
 21
-36.6983033849
 31
0.0
 11
22.912929502
 21
-36.7550192138
 31
0.0
 11
22.8870542449
 21
-36.8017338508
 31
0.0
 11
22.8522171877
 21
-36.8366848956
 31
0.0
 11
22.8097381751
 21
-36.8585413079
 31
0.0
 11
22.7612431941
 21
-36.8664443074
 31
0.0
 11
22.7085616527
 21
-36.8601753178
 31
0.0
 11
22.6537209077
 21
-36.8398692866
 31
0.0
  0
SPLINE
  5
3ED
100
AcDbEntity
  8
RACCORDO
100
AcDbSpline
 62
7
  6
CONTINUOUS
 70
0
 71
3
 72
12
 73
8
 74
6
 42
0.0000001
 43
0.0000001
 44
0.0000000001
 12
-0.5230246963
 22
0.261563777
 32
0.0
 13
-0.0000608662
 23
0.5847823858
 33
0.0
 40
0.0
 40
0.0
 40
0.0
 40
0.0
 40
0.2293635132
 40
0.4875027313
 40
0.7523004129
 40
0.8797660388
 40
1.0
 40
1.0
 40
1.0
 40
1.0
 10
-28.9093687959
 20
-11.0583244348
 30
0.0
 10
-28.9493563899
 20
-11.0383267059
 30
0.0
 10
-29.0258200116
 20
-10.978627524
 30
0.0
 10
-29.1142616848
 20
-10.8602010292
 30
0.0
 10
-29.1654774831
 20
-10.7427055818
 30
0.0
 10
-29.1877122233
 20
-10.6451147941
 30
0.0
 10
-29.1921659907
 20
-10.5968006297
 30
0.0
 10
-29.1921684301
 20
-10.5733637288
 30
0.0
 11
-28.9093687959
 21
-11.0583244348
 31
0.0
 11
-29.0170671703
 21
-10.9783787554
 31
0.0
 11
-29.1085326188
 21
-10.8582889355
 31
0.0
 11
-29.1699710541
 21
-10.7161497856
 31
0.0
 11
-29.1863595948
 21
-10.6434340677
 31
0.0
 11
-29.1921684301
 21
-10.5733637288
 31
0.0
  0
SPLINE
  5
3EE
100
AcDbEntity
  8
RACCORDO
100
AcDbSpline
 62
7
  6
CONTINUOUS
 70
0
 71
3
 72
9
 73
5
 74
3
 42
0.0000001
 43
0.0000001
 44
0.0000000001
 12
-0.1260316343
 22
-0.0657101216
 32
0.0
 13
-0.1032641788
 23
-0.0976642324
 33
0.0
 40
0.0
 40
0.0
 40
0.0
 40
0.0
 40
0.2371046482
 40
1.0
 40
1.0
 40
1.0
 40
1.0
 10
-25.3426734323
 20
-8.3874047611
 30
0.0
 10
-25.3526343277
 20
-8.3925981528
 30
0.0
 10
-25.3937490462
 20
-8.4162116417
 30
0.0
 10
-25.4311655355
 20
-8.4459928213
 30
0.0
 10
-25.4574254562
 20
-8.4708286843
 30
0.0
 11
-25.3426734323
 21
-8.3874047611
 31
0.0
 11
-25.3719234001
 21
-8.4041426278
 31
0.0
 11
-25.4574254562
 21
-8.4708286843
 31
0.0
  0
SPLINE
  5
3EF
100
AcDbEntity
  8
RACCORDO
100
AcDbSpline
 62
7
  6
CONTINUOUS
 70
0
 71
3
 72
9
 73
5
 74
3
 42
0.0000001
 43
0.0000001
 44
0.0000000001
 12
-0.1370511041
 22
-0.0578504491
 32
0.0
 13
-0.1164663611
 23
-0.0925487241
 33
0.0
 40
0.0
 40
0.0
 40
0.0
 40
0.0
 40
0.239451536
 40
1.0
 40
1.0
 40
1.0
 40
1.0
 10
-25.3493979084
 20
-8.3830385595
 30
0.0
 10
-25.3603369409
 20
-8.3876560191
 30
0.0
 10
-25.4052655898
 20
-8.4087143981
 30
0.0
 10
-25.4470030024
 20
-8.4363171026
 30
0.0
 10
-25.4765291064
 20
-8.4597796992
 30
0.0
 11
-25.3493979084
 21
-8.3830385595
 31
0.0
 11
-25.3816704328
 21
-8.3981161737
 31
0.0
 11
-25.4765291064
 21
-8.4597796992
 31
0.0
  0
SPLINE
  5
3F0
100
AcDbEntity
  8
RACCORDO
100
AcDbSpline
 62
7
  6
CONTINUOUS
 70
0
 71
3
 72
9
 73
5
 74
3
 42
0.0000001
 43
0.0000001
 44
0.0000000001
 12
-0.0583420856
 22
-0.0361533015
 32
0.0
 13
-0.0621165268
 23
-0.0291958433
 33
0.0
 40
0.0
 40
0.0
 40
0.0
 40
0.0
 40
0.2435064204
 40
1.0
 40
1.0
 40
1.0
 40
1.0
 10
-25.5861673595
 20
-8.0420385269
 30
0.0
 10
-25.590902917
 20
-8.0449730472
 30
0.0
 10
-25.610538063
 20
-8.0567197797
 30
0.0
 10
-25.630879168
 20
-8.0672753203
 30
0.0
 10
-25.6465427526
 20
-8.0746374763
 30
0.0
 11
-25.5861673595
 21
-8.0420385269
 31
0.0
 11
-25.6005073454
 21
-8.0506232246
 31
0.0
 11
-25.6465427526
 21
-8.0746374763
 31
0.0
  0
SPLINE
  5
3F1
100
AcDbEntity
  8
RACCORDO
100
AcDbSpline
 62
7
  6
CONTINUOUS
 70
0
 71
3
 72
9
 73
5
 74
3
 42
0.0000001
 43
0.0000001
 44
0.0000000001
 12
-0.0589857866
 22
-0.0284807626
 32
0.0
 13
-0.0618223008
 23
-0.0216443984
 33
0.0
 40
0.0
 40
0.0
 40
0.0
 40
0.0
 40
0.2421759399
 40
1.0
 40
1.0
 40
1.0
 40
1.0
 10
-25.5866546224
 20
-8.0376505026
 30
0.0
 10
-25.5914162685
 20
-8.0399496211
 30
0.0
 10
-25.6112255133
 20
-8.0491368127
 30
0.0
 10
-25.6315787804
 20
-8.057136015
 30
0.0
 10
-25.6471955894
 20
-8.0626035636
 30
0.0
 11
-25.5866546224
 21
-8.0376505026
 31
0.0
 11
-25.6010428199
 21
-8.04432978
 31
0.0
 11
-25.6471955894
 21
-8.0626035636
 31
0.0
  0
SPLINE
  5
3F2
100
AcDbEntity
  8
RACCORDO
100
AcDbSpline
 62
7
  6
CONTINUOUS
 70
0
 71
3
 72
9
 73
5
 74
3
 42
0.0000001
 43
0.0000001
 44
0.0000000001
 12
-0.0340063979
 22
-0.0426240762
 32
0.0
 13
-0.0466991697
 23
-0.0281502134
 33
0.0
 40
0.0
 40
0.0
 40
0.0
 40
0.0
 40
0.2626289247
 40
1.0
 40
1.0
 40
1.0
 40
1.0
 10
21.1813699715
 20
-33.5474135439
 30
0.0
 10
21.1783929503
 20
-33.5511449824
 30
0.0
 10
21.1665773031
 20
-33.5649440415
 30
0.0
 10
21.1525281292
 20
-33.5769778917
 30
0.0
 10
21.1410499235
 20
-33.5838969428
 30
0.0
 11
21.1813699715
 21
-33.5474135439
 31
0.0
 11
21.1720326337
 21
-33.558271293
 31
0.0
 11
21.1410499235
 21
-33.5838969428
 31
0.0
  0
SPLINE
  5
3F3
100
AcDbEntity
  8
RACCORDO
100
AcDbSpline
 62
7
  6
CONTINUOUS
 70
0
 71
3
 72
10
 73
6
 74
4
 42
0.0000001
 43
0.0000001
 44
0.0000000001
 12
-0.1137527721
 22
-0.0685700588
 32
0.0
 13
-0.106211844
 23
0.0797533092
 33
0.0
 40
0.0
 40
0.0
 40
0.0
 40
0.0
 40
0.24720322
 40
0.4875713084
 40
1.0
 40
1.0
 40
1.0
 40
1.0
 10
21.1410499235
 20
-33.5838969428
 30
0.0
 10
21.131676573
 20
-33.5895471892
 30
0.0
 10
21.1114646364
 20
-33.5982555427
 30
0.0
 10
21.0664713464
 20
-33.6012615599
 30
0.0
 10
21.034275063
 20
-33.5859111629
 30
0.0
 10
21.0161330642
 20
-33.5722885349
 30
0.0
 11
21.1410499235
 21
-33.5838969428
 31
0.0
 11
21.1107377361
 21
-33.5965158237
 31
0.0
 11
21.0788829696
 21
-33.5986480184
 31
0.0
 11
21.0161330642
 21
-33.5722885349
 31
0.0
  0
SPLINE
  5
3F4
100
AcDbEntity
  8
RACCORDO
100
AcDbSpline
 62
7
  6
CONTINUOUS
 70
0
 71
3
 72
11
 73
7
 74
5
 42
0.0000001
 43
0.0000001
 44
0.0000000001
 12
-0.1291394801
 22
0.0645697401
 32
0.0
 13
0.0000513271
 23
0.144382319
 33
0.0
 40
0.0
 40
0.0
 40
0.0
 40
0.0
 40
0.3021491765
 40
0.5655722792
 40
0.7935305764
 40
1.0
 40
1.0
 40
1.0
 40
1.0
 10
21.2817863862
 20
6.2231022477
 30
0.0
 10
21.2687799237
 20
6.229605479
 30
0.0
 10
21.2452551079
 20
6.2436011583
 30
0.0
 10
21.2166394281
 20
6.2693876749
 30
0.0
 10
21.1983164007
 20
6.2981657501
 30
0.0
 10
21.1939188481
 20
6.3192314198
 30
0.0
 10
21.1939223806
 20
6.3291682646
 30
0.0
 11
21.2817863862
 21
6.2231022477
 31
0.0
 11
21.244537519
 21
6.2458104544
 31
0.0
 11
21.2167451422
 21
6.2717746919
 31
0.0
 11
21.1996820514
 21
6.2999194312
 31
0.0
 11
21.1939223806
 21
6.3291682646
 31
0.0
  0
SPLINE
  5
3F5
100
AcDbEntity
  8
RACCORDO
100
AcDbSpline
 62
7
  6
CONTINUOUS
 70
0
 71
3
 72
11
 73
7
 74
5
 42
0.0000001
 43
0.0000001
 44
0.0000000001
 12
0.0000000198
 22
-0.1889139626
 32
0.0
 13
0.1689716007
 23
-0.0844812607
 33
0.0
 40
0.0
 40
0.0
 40
0.0
 40
0.0
 40
0.2895956155
 40
0.5496517738
 40
0.7828348426
 40
1.0
 40
1.0
 40
1.0
 40
1.0
 10
20.8765636145
 20
6.9458355031
 30
0.0
 10
20.8765636164
 20
6.9275992847
 30
0.0
 10
20.8795213621
 20
6.8928578062
 30
0.0
 10
20.8943524561
 20
6.845340195
 30
0.0
 10
20.9191609858
 20
6.80729603
 30
0.0
 10
20.9422994948
 20
6.7896878196
 30
0.0
 10
20.9545310763
 20
6.7835723575
 30
0.0
 11
20.8765636145
 21
6.9458355031
 31
0.0
 11
20.8817499435
 21
6.8913732322
 31
0.0
 11
20.8970521298
 21
6.8446888987
 31
0.0
 11
20.9217074052
 21
6.8081833463
 31
0.0
 11
20.9545310763
 21
6.7835723575
 31
0.0
  0
SPLINE
  5
3F6
100
AcDbEntity
  8
RACCORDO
100
AcDbSpline
 62
7
  6
CONTINUOUS
 70
0
 71
3
 72
11
 73
7
 74
5
 42
0.0000001
 43
0.0000001
 44
0.0000000001
 12
0.0
 22
-0.18889539
 32
0.0
 13
0.1689407751
 23
-0.084501378
 33
0.0
 40
0.0
 40
0.0
 40
0.0
 40
0.0
 40
0.2895923905
 40
0.5496493617
 40
0.7828350679
 40
1.0
 40
1.0
 40
1.0
 40
1.0
 10
-27.1344948459
 20
30.9513647333
 30
0.0
 10
-27.1344948459
 20
30.9331305108
 30
0.0
 10
-27.1315377159
 20
30.8983926364
 30
0.0
 10
-27.1167099771
 20
30.8508792454
 30
0.0
 10
-27.09190717
 20
30.8128367316
 30
0.0
 10
-27.0687735547
 20
30.7952269177
 30
0.0
 10
-27.0565442174
 20
30.7891100057
 30
0.0
 11
-27.1344948459
 21
30.9513647333
 31
0.0
 11
-27.1293097131
 21
30.8969083633
 31
0.0
 11
-27.1140109927
 21
30.8502278149
 31
0.0
 11
-27.0893611014
 21
30.8137232513
 31
0.0
 11
-27.0565442174
 21
30.7891100057
 31
0.0
  0
SPLINE
  5
3F7
100
AcDbEntity
  8
RACCORDO
100
AcDbSpline
 62
7
  6
CONTINUOUS
 70
0
 71
3
 72
11
 73
7
 74
5
 42
0.0000001
 43
0.0000001
 44
0.0000000001
 12
0.3513450533
 22
-0.1756717113
 32
0.0
 13
0.3707502825
 23
0.1298003263
 33
0.0
 40
0.0
 40
0.0
 40
0.0
 40
0.0
 40
0.230199588
 40
0.4886872503
 40
0.753166985
 40
1.0
 40
1.0
 40
1.0
 40
1.0
 10
-27.5397176176
 20
30.6338542497
 30
0.0
 10
-27.5127577888
 20
30.6203743978
 30
0.0
 10
-27.4513326523
 20
30.6001121568
 30
0.0
 10
-27.3530714585
 20
30.5875619891
 30
0.0
 10
-27.2519118062
 20
30.5917824293
 30
0.0
 10
-27.1860171224
 20
30.6063677916
 30
0.0
 10
-27.1555126524
 20
30.6170474602
 30
0.0
 11
-27.5397176176
 21
30.6338542497
 31
0.0
 11
-27.4543710687
 21
30.6039742299
 31
0.0
 11
-27.3537323174
 21
30.5904912376
 31
0.0
 11
-27.2499398761
 21
30.5950315221
 31
0.0
 11
-27.1555126524
 21
30.6170474602
 31
0.0
  0
SPLINE
  5
3F8
100
AcDbEntity
  8
RACCORDO
100
AcDbSpline
 62
7
  6
CONTINUOUS
 70
0
 71
3
 72
11
 73
7
 74
5
 42
0.0000001
 43
0.0000001
 44
0.0000000001
 12
0.351344799
 22
-0.1756723995
 32
0.0
 13
0.3707501259
 23
0.1298010165
 33
0.0
 40
0.0
 40
0.0
 40
0.0
 40
0.0
 40
0.2301996678
 40
0.4886873034
 40
0.7531669766
 40
1.0
 40
1.0
 40
1.0
 40
1.0
 10
-27.5397176176
 20
-9.1579601422
 30
0.0
 10
-27.5127577989
 20
-9.1714400515
 30
0.0
 10
-27.4513326642
 20
-9.191702381
 30
0.0
 10
-27.3530714521
 20
-9.2042525932
 30
0.0
 10
-27.251911787
 20
-9.2000321067
 30
0.0
 10
-27.1860171105
 20
-9.1854466574
 30
0.0
 10
-27.1555126524
 20
-9.1747669317
 30
0.0
 11
-27.5397176176
 21
-9.1579601422
 31
0.0
 11
-27.4543710618
 21
-9.1878402931
 31
0.0
 11
-27.3537323061
 21
-9.2013233297
 31
0.0
 11
-27.2499398697
 21
-9.196782999
 31
0.0
 11
-27.1555126524
 21
-9.1747669317
 31
0.0
  0
SPLINE
  5
3F9
100
AcDbEntity
  8
RACCORDO
100
AcDbSpline
 62
7
  6
CONTINUOUS
 70
0
 71
3
 72
9
 73
5
 74
3
 42
0.0000001
 43
0.0000001
 44
0.0000000001
 12
-0.0000000368
 22
0.3499494931
 32
0.0
 13
0.2542495249
 23
0.2404616951
 33
0.0
 40
0.0
 40
0.0
 40
0.0
 40
0.0
 40
0.4929880305
 40
1.0
 40
1.0
 40
1.0
 40
1.0
 10
-27.1344948459
 20
-9.8806933976
 30
0.0
 10
-27.1344948519
 20
-9.8231864271
 30
0.0
 10
-27.1047210805
 20
-9.70666116
 30
0.0
 10
-27.0378854244
 20
-9.6074037763
 30
0.0
 10
-26.9949162403
 20
-9.5667647904
 30
0.0
 11
-27.1344948459
 21
-9.8806933976
 31
0.0
 11
-27.0961312094
 21
-9.7124920413
 31
0.0
 11
-26.9949162403
 21
-9.5667647904
 31
0.0
  0
SPLINE
  5
3FA
100
AcDbEntity
  8
RACCORDO
100
AcDbSpline
 62
7
  6
CONTINUOUS
 70
0
 71
3
 72
9
 73
5
 74
3
 42
0.0000001
 43
0.0000001
 44
0.0000000001
 12
0.0
 22
0.3499494896
 32
0.0
 13
0.2542494972
 23
0.2404617193
 33
0.0
 40
0.0
 40
0.0
 40
0.0
 40
0.0
 40
0.4929880284
 40
1.0
 40
1.0
 40
1.0
 40
1.0
 10
20.8765636145
 20
-33.8862226277
 30
0.0
 10
20.8765636145
 20
-33.8287156581
 30
0.0
 10
20.9063373916
 20
-33.7121903957
 30
0.0
 10
20.9731730404
 20
-33.6129330107
 30
0.0
 10
21.01614222
 20
-33.5722940206
 30
0.0
 11
20.8765636145
 21
-33.8862226277
 31
0.0
 11
20.9149272592
 21
-33.7180212759
 31
0.0
 11
21.01614222
 21
-33.5722940206
 31
0.0
  0
SPLINE
  5
3FB
100
AcDbEntity
  8
RACCORDO
100
AcDbSpline
 62
7
  6
CONTINUOUS
 70
0
 71
3
 72
11
 73
7
 74
5
 42
0.0000001
 43
0.0000001
 44
0.0000000001
 12
-0.1290176401
 22
0.0645088591
 32
0.0
 13
-0.0002140763
 23
0.1442459654
 33
0.0
 40
0.0
 40
0.0
 40
0.0
 40
0.0
 40
0.3021029046
 40
0.5655351037
 40
0.79352975
 40
1.0
 40
1.0
 40
1.0
 40
1.0
 10
21.2817863862
 20
-33.5687121441
 30
0.0
 10
21.268794185
 20
-33.5622160395
 30
0.0
 10
21.245292438
 20
-33.5482363948
 30
0.0
 10
21.2166951587
 20
-33.5224853305
 30
0.0
 10
21.1983646589
 20
-33.4937502734
 30
0.0
 10
21.193937192
 20
-33.4727118045
 30
0.0
 10
21.1939224586
 20
-33.4627843043
 30
0.0
 11
21.2817863862
 21
-33.5687121441
 31
0.0
 11
21.2445760034
 21
-33.5460326947
 31
0.0
 11
21.2167981082
 21
-33.5201035964
 31
0.0
 11
21.1997225727
 21
-33.4919965957
 31
0.0
 11
21.1939224586
 21
-33.4627843043
 31
0.0
  0
SPLINE
  5
3FC
100
AcDbEntity
  8
RACCORDO
100
AcDbSpline
 62
7
  6
CONTINUOUS
 70
0
 71
3
 72
15
 73
11
 74
9
 42
0.0000001
 43
0.0000001
 44
0.0000000001
 12
0.0000674495
 22
-0.6465524092
 32
0.0
 13
-0.5783356639
 23
0.289063803
 33
0.0
 40
0.0
 40
0.0
 40
0.0
 40
0.0
 40
0.1487776577
 40
0.2853588652
 40
0.4094904377
 40
0.5236276668
 40
0.6329871457
 40
0.7448331124
 40
0.8659548653
 40
1.0
 40
1.0
 40
1.0
 40
1.0
 10
21.2817863862
 20
-33.5687121441
 30
0.0
 10
21.2817897312
 20
-33.6007763285
 30
0.0
 10
21.27763213
 20
-33.662413622
 30
0.0
 10
21.2568503426
 20
-33.7487062835
 30
0.0
 10
21.2214213633
 20
-33.8221667232
 30
0.0
 10
21.171297029
 20
-33.8793679901
 30
0.0
 10
21.1074583699
 20
-33.9161821539
 30
0.0
 10
21.0335176995
 20
-33.9295041249
 30
0.0
 10
20.9540999897
 20
-33.9192996755
 30
0.0
 10
20.9024046418
 20
-33.8991384932
 30
0.0
 10
20.8765636145
 20
-33.8862226277
 30
0.0
 11
21.2817863862
 21
-33.5687121441
 31
0.0
 11
21.2746479622
 21
-33.6646394617
 31
0.0
 11
21.2530870817
 21
-33.7502737927
 31
0.0
 11
21.2172643459
 21
-33.8220930713
 31
0.0
 11
21.1679164209
 21
-33.8769618944
 31
0.0
 11
21.1065462618
 21
-33.912077871
 31
0.0
 11
21.0354999885
 21
-33.9255605296
 31
0.0
 11
20.9576896089
 21
-33.9167148807
 31
0.0
 11
20.8765636145
 21
-33.8862226277
 31
0.0
  0
SPLINE
  5
3FD
100
AcDbEntity
  8
RACCORDO
100
AcDbSpline
 62
7
  6
CONTINUOUS
 70
0
 71
3
 72
13
 73
9
 74
7
 42
0.0000001
 43
0.0000001
 44
0.0000000001
 12
-0.0674976152
 22
0.2266372338
 32
0.0
 13
0.2363803959
 23
-0.006683731
 33
0.0
 40
0.0
 40
0.0
 40
0.0
 40
0.0
 40
0.2945425253
 40
0.4247560086
 40
0.5434194907
 40
0.6533395927
 40
0.7606220326
 40
1.0
 40
1.0
 40
1.0
 40
1.0
 10
-27.1555127074
 20
30.6170476799
 30
0.0
 10
-27.1621396801
 20
30.6392991143
 30
0.0
 10
-27.1691332747
 20
30.6724885644
 30
0.0
 10
-27.168364077
 20
30.7155032225
 30
0.0
 10
-27.1622370877
 20
30.7433676522
 30
0.0
 10
-27.1497364982
 20
30.7671741899
 30
0.0
 10
-27.1227553621
 20
30.7921420162
 30
0.0
 10
-27.0935698406
 20
30.7974554153
 30
0.0
 10
-27.074708421
 20
30.7969221027
 30
0.0
 11
-27.1555127074
 21
30.6170476799
 31
0.0
 11
-27.1681869132
 21
30.6855367477
 31
0.0
 11
-27.1672807718
 21
30.7163156284
 31
0.0
 11
-27.1608469795
 21
30.7436290352
 31
0.0
 11
-27.1484214788
 21
30.7664601707
 31
0.0
 11
-27.1297281701
 21
30.7836117556
 31
0.0
 11
-27.074708421
 21
30.7969221027
 31
0.0
  0
SPLINE
  5
3FE
100
AcDbEntity
  8
RACCORDO
100
AcDbSpline
 62
7
  6
CONTINUOUS
 70
0
 71
3
 72
12
 73
8
 74
6
 42
0.0000001
 43
0.0000001
 44
0.0000000001
 12
-0.4413449355
 22
0.1390635928
 32
0.0
 13
0.1107198174
 23
0.4492940651
 33
0.0
 40
0.0
 40
0.0
 40
0.0
 40
0.0
 40
0.1130791228
 40
0.2328058137
 40
0.4871958184
 40
0.7477930342
 40
1.0
 40
1.0
 40
1.0
 40
1.0
 10
-26.9949321588
 20
-9.5667582217
 30
0.0
 10
-27.0115677915
 20
-9.561516492
 30
0.0
 10
-27.0445676593
 20
-9.5462318951
 30
0.0
 10
-27.1032112954
 20
-9.49812566
 30
0.0
 10
-27.1539970075
 20
-9.4106130504
 30
0.0
 10
-27.1738970371
 20
-9.292187873
 30
0.0
 10
-27.1648208267
 20
-9.212538964
 30
0.0
 10
-27.1555127237
 20
-9.1747672663
 30
0.0
 11
-26.9949321588
 21
-9.5667582217
 31
0.0
 11
-27.0424511476
 21
-9.5448510137
 31
0.0
 11
-27.0854556376
 21
-9.5099229356
 31
0.0
 11
-27.1467051997
 21
-9.4093974527
 31
0.0
 11
-27.1683356827
 21
-9.2907657536
 31
0.0
 11
-27.1555127237
 21
-9.1747672663
 31
0.0
  0
SPLINE
  5
3FF
100
AcDbEntity
  8
RACCORDO
100
AcDbSpline
 62
7
  6
CONTINUOUS
 70
0
 71
3
 72
11
 73
7
 74
5
 42
0.0000001
 43
0.0000001
 44
0.0000000001
 12
-0.0849940566
 22
-0.4356535863
 32
0.0
 13
0.392917127
 23
-0.2064804305
 33
0.0
 40
0.0
 40
0.0
 40
0.0
 40
0.0
 40
0.2512587909
 40
0.4489106646
 40
0.6470553493
 40
1.0
 40
1.0
 40
1.0
 40
1.0
 10
-25.6465377259
 20
-8.0746410621
 30
0.0
 10
-25.6536562272
 20
-8.1111283266
 30
0.0
 10
-25.6533887907
 20
-8.1790003595
 30
0.0
 10
-25.629974405
 20
-8.272443277
 30
0.0
 10
-25.5819183533
 20
-8.372454749
 30
0.0
 10
-25.5228149891
 20
-8.435449578
 30
0.0
 10
-25.4765889897
 20
-8.4597416325
 30
0.0
 11
-25.6465377259
 21
-8.0746410621
 31
0.0
 11
-25.6483517348
 21
-8.186151829
 31
0.0
 11
-25.6272289128
 21
-8.2713021952
 31
0.0
 11
-25.5887856553
 21
-8.3504053138
 31
0.0
 11
-25.4765889897
 21
-8.4597416325
 31
0.0
  0
SPLINE
  5
400
100
AcDbEntity
  8
RACCORDO
100
AcDbSpline
 62
7
  6
CONTINUOUS
 70
0
 71
3
 72
11
 73
7
 74
5
 42
0.0000001
 43
0.0000001
 44
0.0000000001
 12
0.407037927
 22
0.1895225457
 32
0.0
 13
0.0027915047
 23
0.4489887269
 33
0.0
 40
0.0
 40
0.0
 40
0.0
 40
0.0
 40
0.2166726031
 40
0.4495053433
 40
0.7094831531
 40
1.0
 40
1.0
 40
1.0
 40
1.0
 10
23.1647906185
 20
-37.0180463277
 30
0.0
 10
23.1941886076
 20
-37.0043582133
 30
0.0
 10
23.2501333064
 20
-36.9638703564
 30
0.0
 10
23.3104420612
 20
-36.8744187503
 30
0.0
 10
23.3469046303
 20
-36.7617514133
 30
0.0
 10
23.3544964178
 20
-36.6790845799
 30
0.0
 10
23.3547667442
 20
-36.6356049835
 30
0.0
 11
23.1647906185
 21
-37.0180463277
 31
0.0
 11
23.2440013468
 21
-36.9615652099
 31
0.0
 11
23.3039043752
 21
-36.875888435
 31
0.0
 11
23.3414612036
 21
-36.7653659098
 31
0.0
 11
23.3547667442
 21
-36.6356049835
 31
0.0
  0
SPLINE
  5
401
100
AcDbEntity
  8
RACCORDO
100
AcDbSpline
 62
7
  6
CONTINUOUS
 70
0
 71
3
 72
12
 73
8
 74
6
 42
0.0000001
 43
0.0000001
 44
0.0000000001
 12
0.1076789245
 22
-0.4047236788
 32
0.0
 13
0.3124882955
 23
-0.2788316197
 33
0.0
 40
0.0
 40
0.0
 40
0.0
 40
0.0
 40
0.1121547055
 40
0.2349960046
 40
0.5039037045
 40
0.7737482044
 40
1.0
 40
1.0
 40
1.0
 40
1.0
 10
-25.5861625278
 20
-8.0420409205
 30
0.0
 10
-25.5821369617
 20
-8.0571714755
 30
0.0
 10
-25.5701299193
 20
-8.0878857191
 30
0.0
 10
-25.5379551669
 20
-8.1504689866
 30
0.0
 10
-25.487303521
 20
-8.2280083576
 30
0.0
 10
-25.4209412834
 20
-8.311780522
 30
0.0
 10
-25.3729649279
 20
-8.3620103035
 30
0.0
 10
-25.3493979153
 20
-8.3830390218
 30
0.0
 11
-25.5861625278
 21
-8.0420409205
 31
0.0
 11
-25.5699931368
 21
-8.0861408149
 31
0.0
 11
-25.5467921042
 21
-8.1320585147
 31
0.0
 11
-25.486007876
 21
-8.2268656866
 31
0.0
 11
-25.4156977866
 21
-8.3153424433
 31
0.0
 11
-25.3493979153
 21
-8.3830390218
 31
0.0
  0
SPLINE
  5
402
100
AcDbEntity
  8
RACCORDO
100
AcDbSpline
 62
7
  6
CONTINUOUS
 70
0
 71
3
 72
8
 73
4
 74
2
 42
0.0000001
 43
0.0000001
 44
0.0000000001
 12
0.0059652413
 22
-0.0053567011
 32
0.0
 13
0.0072570619
 23
-0.0034078444
 33
0.0
 40
0.0
 40
0.0
 40
0.0
 40
0.0
 40
1.0
 40
1.0
 40
1.0
 40
1.0
 10
-25.3493979153
 20
-8.3830390218
 30
0.0
 10
-25.3474095015
 20
-8.3848245888
 30
0.0
 10
-25.3450924529
 20
-8.3862688129
 30
0.0
 10
-25.3426734323
 20
-8.3874047611
 30
0.0
 11
-25.3493979153
 21
-8.3830390218
 31
0.0
 11
-25.3426734323
 21
-8.3874047611
 31
0.0
  0
SPLINE
  5
403
100
AcDbEntity
  8
RACCORDO
100
AcDbSpline
 62
7
  6
CONTINUOUS
 70
0
 71
3
 72
9
 73
5
 74
3
 42
0.0000001
 43
0.0000001
 44
0.0000000001
 12
0.1930508834
 22
-0.0965021696
 32
0.0
 13
0.1468020125
 23
-0.1582102444
 33
0.0
 40
0.0
 40
0.0
 40
0.0
 40
0.0
 40
0.2333737329
 40
1.0
 40
1.0
 40
1.0
 40
1.0
 10
20.8765636145
 20
6.9458355031
 30
0.0
 10
20.8915812829
 20
6.9383284793
 30
0.0
 10
20.9541737891
 20
6.9026620997
 30
0.0
 10
21.0093244875
 20
6.8547301694
 30
0.0
 10
21.0468385804
 20
6.814300793
 30
0.0
 11
20.8765636145
 21
6.9458355031
 31
0.0
 11
20.9203908711
 21
6.9210132646
 31
0.0
 11
21.0468385804
 21
6.814300793
 31
0.0
  0
SPLINE
  5
404
100
AcDbEntity
  8
RACCORDO
100
AcDbSpline
 62
7
  6
CONTINUOUS
 70
0
 71
3
 72
9
 73
5
 74
3
 42
0.0000001
 43
0.0000001
 44
0.0000000001
 12
0.3040484642
 22
-0.3276765831
 32
0.0
 13
0.1098795275
 23
-0.4332942431
 33
0.0
 40
0.0
 40
0.0
 40
0.0
 40
0.0
 40
0.4971396079
 40
1.0
 40
1.0
 40
1.0
 40
1.0
 10
21.0468385804
 20
6.814300793
 30
0.0
 10
21.0972234252
 20
6.760000457
 30
0.0
 10
21.1830031865
 20
6.6358731042
 30
0.0
 10
21.2373778565
 20
6.4955430014
 30
0.0
 10
21.2557958773
 20
6.4229141638
 30
0.0
 11
21.0468385804
 21
6.814300793
 31
0.0
 11
21.1747507601
 21
6.6325787361
 31
0.0
 11
21.2557958773
 21
6.4229141638
 31
0.0
  0
SPLINE
  5
405
100
AcDbEntity
  8
RACCORDO
100
AcDbSpline
 62
7
  6
CONTINUOUS
 70
0
 71
3
 72
9
 73
5
 74
3
 42
0.0000001
 43
0.0000001
 44
0.0000000001
 12
0.0495995578
 22
-0.1955887811
 32
0.0
 13
0.0000039847
 23
-0.2017797993
 33
0.0
 40
0.0
 40
0.0
 40
0.0
 40
0.0
 40
0.2600361001
 40
1.0
 40
1.0
 40
1.0
 40
1.0
 10
21.2557958773
 20
6.4229141638
 30
0.0
 10
21.2600951025
 20
6.4059607825
 30
0.0
 10
21.2747331577
 20
6.3403113809
 30
0.0
 10
21.2817854034
 20
6.2728721701
 30
0.0
 10
21.2817863862
 20
6.2231022477
 30
0.0
 11
21.2557958773
 21
6.4229141638
 31
0.0
 11
21.2671950049
 21
6.371697329
 31
0.0
 11
21.2817863862
 21
6.2231022477
 31
0.0
  0
SPLINE
  5
406
100
AcDbEntity
  8
RACCORDO
100
AcDbSpline
 62
7
  6
CONTINUOUS
 70
0
 71
3
 72
8
 73
4
 74
2
 42
0.0000001
 43
0.0000001
 44
0.0000000001
 12
-0.000102863
 22
-0.0044167121
 32
0.0
 13
0.0011274682
 23
-0.0042716205
 33
0.0
 40
0.0
 40
0.0
 40
0.0
 40
0.0
 40
1.0
 40
1.0
 40
1.0
 40
1.0
 10
-25.5866546224
 20
-8.0376505026
 30
0.0
 10
-25.58668891
 20
-8.03912274
 30
0.0
 10
-25.5865383505
 20
-8.040617047
 30
0.0
 10
-25.5861625278
 20
-8.0420409205
 30
0.0
 11
-25.5866546224
 21
-8.0376505026
 31
0.0
 11
-25.5861625278
 21
-8.0420409205
 31
0.0
  0
SPLINE
  5
407
100
AcDbEntity
  8
0
100
AcDbSpline
 62
7
  6
CONTINUOUS
 70
0
 71
3
 72
9
 73
5
 74
3
 42
0.0000001
 43
0.0000001
 44
0.0000000001
 12
-0.1087199623
 22
0.5446236221
 32
0.0
 13
-0.1090135263
 23
0.5445649374
 33
0.0
 40
0.0
 40
0.0
 40
0.0
 40
0.0
 40
0.4998343578
 40
1.0
 40
1.0
 40
1.0
 40
1.0
 10
-0.2758766339
 20
-25.2505702697
 30
0.0
 10
-0.2939906247
 20
-25.1598297369
 30
0.0
 10
-0.3283919923
 20
-24.9779277928
 30
0.0
 10
-0.363656195
 20
-24.7961929988
 30
0.0
 10
-0.3818311352
 20
-24.7054021083
 30
0.0
 11
-0.2758766339
 21
-25.2505702697
 31
0.0
 11
-0.3285961615
 21
-24.9780298139
 31
0.0
 11
-0.3818311352
 21
-24.7054021083
 31
0.0
  0
SPLINE
  5
408
100
AcDbEntity
  8
0
100
AcDbSpline
 62
7
  6
CONTINUOUS
 70
0
 71
3
 72
10
 73
6
 74
4
 42
0.0000001
 43
0.0000001
 44
0.0000000001
 12
-0.0805666263
 22
0.4024810149
 32
0.0
 13
-0.226502216
 23
0.3423137374
 33
0.0
 40
0.0
 40
0.0
 40
0.0
 40
0.0
 40
0.2356173307
 40
0.6171416101
 40
1.0
 40
1.0
 40
1.0
 40
1.0
 10
-0.3818311352
 20
-24.7054021083
 30
0.0
 10
-0.3881587663
 20
-24.6737916075
 30
0.0
 10
-0.4041188856
 20
-24.5908454485
 30
0.0
 10
-0.440204386
 20
-24.458733418
 30
0.0
 10
-0.4836654251
 20
-24.3622660433
 30
0.0
 10
-0.5125715163
 20
-24.3185801479
 30
0.0
 11
-0.3818311352
 21
-24.7054021083
 31
0.0
 11
-0.401265256
 21
-24.6106620479
 31
0.0
 11
-0.4441118768
 21
-24.4600349248
 31
0.0
 11
-0.5125715163
 21
-24.3185801479
 31
0.0
  0
SPLINE
  5
409
100
AcDbEntity
  8
0
100
AcDbSpline
 62
7
  6
CONTINUOUS
 70
0
 71
3
 72
9
 73
5
 74
3
 42
0.0000001
 43
0.0000001
 44
0.0000000001
 12
-0.0399877433
 22
0.0604336422
 32
0.0
 13
-0.0509069424
 23
0.0515725502
 33
0.0
 40
0.0
 40
0.0
 40
0.0
 40
0.0
 40
0.2559331982
 40
1.0
 40
1.0
 40
1.0
 40
1.0
 10
-0.5125715163
 20
-24.3185801479
 30
0.0
 10
-0.5159829133
 20
-24.3134244894
 30
0.0
 10
-0.5297146835
 20
-24.2935550026
 30
0.0
 10
-0.5452028115
 20
-24.2748537111
 30
0.0
 10
-0.5578288668
 20
-24.2620625703
 30
0.0
 11
-0.5125715163
 21
-24.3185801479
 31
0.0
 11
-0.5231267897
 21
-24.3033304857
 31
0.0
 11
-0.5578288668
 21
-24.2620625703
 31
0.0
  0
SPLINE
  5
40A
100
AcDbEntity
  8
0
100
AcDbSpline
 62
7
  6
CONTINUOUS
 70
0
 71
3
 72
11
 73
7
 74
5
 42
0.0000001
 43
0.0000001
 44
0.0000000001
 12
-0.6333494509
 22
0.5969143223
 32
0.0
 13
-0.8289470693
 23
0.2651131674
 33
0.0
 40
0.0
 40
0.0
 40
0.0
 40
0.0
 40
0.2725542141
 40
0.5262218346
 40
0.7671916502
 40
1.0
 40
1.0
 40
1.0
 40
1.0
 10
-0.5924374185
 20
-23.3141815172
 30
0.0
 10
-0.6499781058
 20
-23.2599510126
 30
0.0
 10
-0.7732165372
 20
-23.1680535476
 30
0.0
 10
-0.9684538265
 20
-23.0605131154
 30
0.0
 10
-1.1628209176
 20
-22.9775457255
 30
0.0
 10
-1.2929831847
 20
-22.9331718689
 30
0.0
 10
-1.3573117844
 20
-22.9125983492
 30
0.0
 11
-0.5924374185
 21
-23.3141815172
 31
0.0
 11
-0.7805037354
 21
-23.1696202312
 31
0.0
 11
-0.9733383961
 21
-23.0621313017
 31
0.0
 11
-1.1659258595
 21
-22.9791143164
 31
0.0
 11
-1.3573117844
 21
-22.9125983492
 31
0.0
  0
SPLINE
  5
40B
100
AcDbEntity
  8
RACCORDO
100
AcDbSpline
 62
7
  6
CONTINUOUS
 70
0
 71
3
 72
11
 73
7
 74
5
 42
0.0000001
 43
0.0000001
 44
0.0000000001
 12
-0.0064397843
 22
1.0264956433
 32
0.0
 13
-0.9152946272
 23
0.4647262871
 33
0.0
 40
0.0
 40
0.0
 40
0.0
 40
0.0
 40
0.2466773324
 40
0.5119103822
 40
0.7706310354
 40
1.0
 40
1.0
 40
1.0
 40
1.0
 10
23.3547667442
 20
7.6338743689
 30
0.0
 10
23.3542372279
 20
7.7182787712
 30
0.0
 10
23.324230472
 20
7.8935379174
 30
0.0
 10
23.2182760214
 20
8.1373628854
 30
0.0
 10
23.0635403495
 20
8.3462130038
 30
0.0
 10
22.9298474447
 20
8.4519182391
 30
0.0
 10
22.8598673844
 20
8.4874495015
 30
0.0
 11
23.3547667442
 21
7.6338743689
 31
0.0
 11
23.3159426536
 21
7.8840985517
 31
0.0
 11
23.2082622003
 21
8.1341658534
 31
0.0
 11
23.0481164634
 21
8.346030269
 31
0.0
 11
22.8598673844
 21
8.4874495015
 31
0.0
  0
SPLINE
  5
40C
100
AcDbEntity
  8
RACCORDO
100
AcDbSpline
 62
7
  6
CONTINUOUS
 70
0
 71
3
 72
15
 73
11
 74
9
 42
0.0000001
 43
0.0000001
 44
0.0000000001
 12
-0.0000290144
 22
0.6465582094
 32
0.0
 13
0.5782691004
 23
-0.2892099003
 33
0.0
 40
0.0
 40
0.0
 40
0.0
 40
0.0
 40
0.1487694757
 40
0.2853513859
 40
0.4094835004
 40
0.5236207508
 40
0.6329791609
 40
0.7448218248
 40
0.8659417783
 40
1.0
 40
1.0
 40
1.0
 40
1.0
 10
-27.5397176176
 20
30.6338542497
 30
0.0
 10
-27.5397190564
 20
30.6659169583
 30
0.0
 10
-27.5355547197
 20
30.7275527373
 30
0.0
 10
-27.5147717469
 20
30.8138436055
 30
0.0
 10
-27.4793477549
 20
30.8873075145
 30
0.0
 10
-27.4292237712
 20
30.944510422
 30
0.0
 10
-27.3653882844
 20
30.9813269025
 30
0.0
 10
-27.2914518228
 20
30.9946659993
 30
0.0
 10
-27.2120285773
 20
30.9844656405
 30
0.0
 10
-27.1603354216
 20
30.9642883883
 30
0.0
 10
-27.1344948459
 20
30.9513647333
 30
0.0
 11
-27.5397176176
 21
30.6338542497
 31
0.0
 11
-27.5325721934
 21
30.7297766062
 31
0.0
 11
-27.5110096573
 21
30.8154118054
 31
0.0
 11
-27.4751899747
 21
30.8872338025
 31
0.0
 11
-27.425843357
 21
30.9421047099
 31
0.0
 11
-27.3644758097
 21
30.9772251355
 31
0.0
 11
-27.2934333512
 21
30.990719915
 31
0.0
 11
-27.215623099
 21
30.9818772303
 31
0.0
 11
-27.1344948459
 21
30.9513647333
 31
0.0
  0
SPLINE
  5
40D
100
AcDbEntity
  8
RACCORDO
100
AcDbSpline
 62
7
  6
CONTINUOUS
 70
0
 71
3
 72
11
 73
7
 74
5
 42
0.0000001
 43
0.0000001
 44
0.0000000001
 12
-0.299686386
 22
0.1475513079
 32
0.0
 13
-0.2939687779
 23
-0.1586369315
 33
0.0
 40
0.0
 40
0.0
 40
0.0
 40
0.0
 40
0.2797829828
 40
0.535973102
 40
0.7731347539
 40
1.0
 40
1.0
 40
1.0
 40
1.0
 10
-28.7009389761
 20
34.2678526817
 30
0.0
 10
-28.7288880264
 20
34.2816134634
 30
0.0
 10
-28.7847507632
 20
34.3037021019
 30
0.0
 10
-28.8702314865
 20
34.3187004002
 30
0.0
 10
-28.9511112754
 20
34.3130945461
 30
0.0
 10
-29.0004614576
 20
34.2951701556
 30
0.0
 10
-29.0226918906
 20
34.2831737534
 30
0.0
 11
-28.7009389761
 21
34.2678526817
 31
0.0
 11
-28.7881352935
 21
34.3014886591
 31
0.0
 11
-28.8725662141
 21
34.3154532454
 31
0.0
 11
-28.9515466805
 21
34.3092756966
 31
0.0
 11
-29.0226918906
 21
34.2831737534
 31
0.0
  0
SPLINE
  5
40E
100
AcDbEntity
  8
RACCORDO
100
AcDbSpline
 62
7
  6
CONTINUOUS
 70
0
 71
3
 72
11
 73
7
 74
5
 42
0.0000001
 43
0.0000001
 44
0.0000000001
 12
-0.3869291761
 22
-0.2017363465
 32
0.0
 13
0.0000000104
 23
-0.4363619379
 33
0.0
 40
0.0
 40
0.0
 40
0.0
 40
0.0
 40
0.2307483971
 40
0.4893409449
 40
0.7537520468
 40
1.0
 40
1.0
 40
1.0
 40
1.0
 10
22.8598673834
 20
8.487449502
 30
0.0
 10
22.8301062877
 20
8.4719327225
 30
0.0
 10
22.7734334308
 20
8.4265687291
 30
0.0
 10
22.7080592315
 20
8.3374019481
 30
0.0
 10
22.6636567798
 20
8.2336917422
 30
0.0
 10
22.6514375637
 20
8.1592842851
 30
0.0
 10
22.6514375645
 20
8.1234665404
 30
0.0
 11
22.8598673834
 21
8.487449502
 31
0.0
 11
22.7798226869
 21
8.4263652492
 31
0.0
 11
22.7122730502
 21
8.3359777509
 31
0.0
 11
22.667234941
 21
8.2297521951
 31
0.0
 11
22.6514375645
 21
8.1234665404
 31
0.0
  0
SPLINE
  5
40F
100
AcDbEntity
  8
RACCORDO
100
AcDbSpline
 62
7
  6
CONTINUOUS
 70
0
 71
3
 72
11
 73
7
 74
5
 42
0.0000001
 43
0.0000001
 44
0.0000000001
 12
-0.7725966348
 22
0.3861795097
 32
0.0
 13
0.0000393164
 23
0.8637361705
 33
0.0
 40
0.0
 40
0.0
 40
0.0
 40
0.0
 40
0.2302795819
 40
0.4899447783
 40
0.7543046622
 40
1.0
 40
1.0
 40
1.0
 40
1.0
 10
-27.1344948459
 20
-9.8806933976
 30
0.0
 10
-27.1937992559
 20
-9.8510503122
 30
0.0
 10
-27.3069120938
 20
-9.7615690412
 30
0.0
 10
-27.4344005748
 20
-9.5832059652
 30
0.0
 10
-27.5180501903
 20
-9.3758875956
 30
0.0
 10
-27.5397208376
 20
-9.2286987922
 30
0.0
 10
-27.5397176176
 20
-9.1579601422
 30
0.0
 11
-27.1344948459
 21
-9.8806933976
 31
0.0
 11
-27.2934331767
 21
-9.7611102175
 31
0.0
 11
-27.4258432866
 21
-9.5800851414
 31
0.0
 11
-27.5110096333
 21
-9.3682253586
 31
0.0
 11
-27.5397176176
 21
-9.1579601422
 31
0.0
  0
SPLINE
  5
410
100
AcDbEntity
  8
RACCORDO
100
AcDbSpline
 62
7
  6
CONTINUOUS
 70
0
 71
3
 72
11
 73
7
 74
5
 42
0.0000001
 43
0.0000001
 44
0.0000000001
 12
-0.3869291685
 22
-0.2017363581
 32
0.0
 13
0.0000000016
 23
-0.4363619365
 33
0.0
 40
0.0
 40
0.0
 40
0.0
 40
0.0
 40
0.2307483952
 40
0.4893409435
 40
0.7537520457
 40
1.0
 40
1.0
 40
1.0
 40
1.0
 10
-28.7009389747
 20
34.267852681
 30
0.0
 10
-28.7307000696
 20
34.2523359007
 30
0.0
 10
-28.7873729252
 20
34.2069719069
 30
0.0
 10
-28.8527471253
 20
34.1178051273
 30
0.0
 10
-28.8971495785
 20
34.0140949222
 30
0.0
 10
-28.9093687961
 20
33.9396874653
 30
0.0
 10
-28.9093687959
 20
33.9038697206
 30
0.0
 11
-28.7009389747
 21
34.267852681
 31
0.0
 11
-28.7809836693
 21
34.2067684276
 31
0.0
 11
-28.8485333067
 21
34.1163809301
 31
0.0
 11
-28.8935714174
 21
34.0101553752
 31
0.0
 11
-28.9093687959
 21
33.9038697206
 31
0.0
  0
SPLINE
  5
411
100
AcDbEntity
  8
RACCORDO
100
AcDbSpline
 62
7
  6
CONTINUOUS
 70
0
 71
3
 72
11
 73
7
 74
5
 42
0.0000001
 43
0.0000001
 44
0.0000000001
 12
-0.3888881901
 22
-0.1877724818
 32
0.0
 13
-0.3862564227
 23
0.1931282092
 33
0.0
 40
0.0
 40
0.0
 40
0.0
 40
0.0
 40
0.2366411463
 40
0.5012534836
 40
0.7651925891
 40
1.0
 40
1.0
 40
1.0
 40
1.0
 10
23.3547667442
 20
7.6338743671
 30
0.0
 10
23.3240910952
 20
7.619062802
 30
0.0
 10
23.2541328856
 20
7.5980045586
 30
0.0
 10
23.143833138
 20
7.5882610089
 30
0.0
 10
23.0338857951
 20
7.5989121722
 30
0.0
 10
22.9644691556
 20
7.6205933435
 30
0.0
 10
22.9342371987
 20
7.6357093217
 30
0.0
 11
23.3547667442
 21
7.6338743671
 31
0.0
 11
23.2575250753
 21
7.6024505074
 31
0.0
 11
23.1437513794
 21
7.59178772
 31
0.0
 11
23.030367198
 21
7.6034417008
 31
0.0
 11
22.9342371987
 21
7.6357093217
 31
0.0
  0
SPLINE
  5
412
100
AcDbEntity
  8
RACCORDO
100
AcDbSpline
 62
7
  6
CONTINUOUS
 70
0
 71
3
 72
11
 73
7
 74
5
 42
0.0000001
 43
0.0000001
 44
0.0000000001
 12
-0.388888196
 22
-0.1877724662
 32
0.0
 13
-0.3862564261
 23
0.1931281992
 33
0.0
 40
0.0
 40
0.0
 40
0.0
 40
0.0
 40
0.2366411464
 40
0.5012534856
 40
0.7651925916
 40
1.0
 40
1.0
 40
1.0
 40
1.0
 10
23.3547667442
 20
-36.6356049823
 30
0.0
 10
23.3240910947
 20
-36.6504165461
 30
0.0
 10
23.254132885
 20
-36.6714747883
 30
0.0
 10
23.1438331376
 20
-36.6812183393
 30
0.0
 10
23.0338857949
 20
-36.6705671775
 30
0.0
 10
22.9644691555
 20
-36.6488860079
 30
0.0
 10
22.9342371987
 20
-36.6337700306
 30
0.0
 11
23.3547667442
 21
-36.6356049823
 31
0.0
 11
23.2575250749
 21
-36.66702884
 31
0.0
 11
23.1437513787
 21
-36.6776916283
 31
0.0
 11
23.0303671973
 21
-36.666037649
 31
0.0
 11
22.9342371987
 21
-36.6337700306
 31
0.0
  0
SPLINE
  5
413
100
AcDbEntity
  8
RACCORDO
100
AcDbSpline
 62
7
  6
CONTINUOUS
 70
0
 71
3
 72
11
 73
7
 74
5
 42
0.0000001
 43
0.0000001
 44
0.0000000001
 12
0.0000149406
 22
-0.1443839658
 32
0.0
 13
0.129140946
 23
-0.0645704723
 33
0.0
 40
0.0
 40
0.0
 40
0.0
 40
0.0
 40
0.2065459792
 40
0.4344524192
 40
0.697695169
 40
1.0
 40
1.0
 40
1.0
 40
1.0
 10
-29.2800231232
 20
-10.4645012141
 30
0.0
 10
-29.2800220946
 20
-10.4744418567
 30
0.0
 10
-29.2756533389
 20
-10.4955148713
 30
0.0
 10
-29.2573084963
 20
-10.5242753607
 30
0.0
 10
-29.2287145165
 20
-10.5500753419
 30
0.0
 10
-29.2051817407
 20
-10.5640605609
 30
0.0
 10
-29.1921684301
 20
-10.5705672162
 30
0.0
 11
-29.2800231232
 21
-10.4645012141
 31
0.0
 11
-29.2742736652
 21
-10.4937636663
 31
0.0
 11
-29.2572071524
 21
-10.5218980107
 31
0.0
 11
-29.2294393177
 21
-10.5478510043
 31
0.0
 11
-29.1921684301
 21
-10.5705672162
 31
0.0
  0
SPLINE
  5
414
100
AcDbEntity
  8
RACCORDO
100
AcDbSpline
 62
7
  6
CONTINUOUS
 70
0
 71
3
 72
11
 73
7
 74
5
 42
0.0000001
 43
0.0000001
 44
0.0000000001
 12
0.0000149435
 22
-0.1443839616
 32
0.0
 13
0.1291409438
 23
-0.0645704673
 33
0.0
 40
0.0
 40
0.0
 40
0.0
 40
0.0
 40
0.2065459795
 40
0.4344524194
 40
0.6976951678
 40
1.0
 40
1.0
 40
1.0
 40
1.0
 10
-29.2800231232
 20
33.8049781329
 30
0.0
 10
-29.2800220944
 20
33.7950374906
 30
0.0
 10
-29.2756533384
 20
33.7739644766
 30
0.0
 10
-29.2573084956
 20
33.7452039887
 30
0.0
 10
-29.2287145161
 20
33.7194040089
 30
0.0
 10
-29.2051817405
 20
33.7054187909
 30
0.0
 10
-29.1921684301
 20
33.6989121361
 30
0.0
 11
-29.2800231232
 21
33.8049781329
 31
0.0
 11
-29.2742736648
 21
33.7757156816
 31
0.0
 11
-29.2572071517
 21
33.7475813385
 31
0.0
 11
-29.2294393173
 21
33.7216283464
 31
0.0
 11
-29.1921684301
 21
33.6989121361
 31
0.0
  0
SPLINE
  5
415
100
AcDbEntity
  8
RACCORDO
100
AcDbSpline
 62
7
  6
CONTINUOUS
 70
0
 71
3
 72
11
 73
7
 74
5
 42
0.0000001
 43
0.0000001
 44
0.0000000001
 12
-0.1689125333
 22
0.0845958693
 32
0.0
 13
-0.0000000007
 23
0.1889124268
 33
0.0
 40
0.0
 40
0.0
 40
0.0
 40
0.0
 40
0.2171672883
 40
0.4503628529
 40
0.710428482
 40
1.0
 40
1.0
 40
1.0
 40
1.0
 10
22.7294076199
 20
-37.0009855504
 30
0.0
 10
22.7171801943
 20
-36.9948617319
 30
0.0
 10
22.6940345466
 20
-36.9772675515
 30
0.0
 10
22.6692191502
 20
-36.9392214162
 30
0.0
 10
22.6543999644
 20
-36.891701561
 30
0.0
 10
22.6514375646
 20
-36.8569621678
 30
0.0
 10
22.6514375645
 20
-36.8387276151
 30
0.0
 11
22.7294076199
 21
-37.0009855504
 31
0.0
 11
22.6965823008
 21
-36.9763766447
 31
0.0
 11
22.6719216628
 21
-36.9398722981
 31
0.0
 11
22.6566247035
 21
-36.8931847892
 31
0.0
 11
22.6514375645
 21
-36.8387276151
 31
0.0
  0
SPLINE
  5
416
100
AcDbEntity
  8
0
100
AcDbSpline
 62
7
  6
CONTINUOUS
 70
0
 71
3
 72
9
 73
5
 74
3
 42
0.0000001
 43
0.0000001
 44
0.0000000001
 12
-0.1087199623
 22
0.5446236221
 32
0.0
 13
-0.1090135263
 23
0.5445649374
 33
0.0
 40
0.0
 40
0.0
 40
0.0
 40
0.0
 40
0.4998343578
 40
1.0
 40
1.0
 40
1.0
 40
1.0
 10
-0.4172979901
 20
-25.3212809478
 30
0.0
 10
-0.435411981
 20
-25.230540415
 30
0.0
 10
-0.4698133485
 20
-25.0486384709
 30
0.0
 10
-0.5050775513
 20
-24.866903677
 30
0.0
 10
-0.5232524914
 20
-24.7761127864
 30
0.0
 11
-0.4172979901
 21
-25.3212809478
 31
0.0
 11
-0.4700175178
 21
-25.048740492
 31
0.0
 11
-0.5232524914
 21
-24.7761127864
 31
0.0
  0
SPLINE
  5
417
100
AcDbEntity
  8
0
100
AcDbSpline
 62
7
  6
CONTINUOUS
 70
0
 71
3
 72
11
 73
7
 74
5
 42
0.0000001
 43
0.0000001
 44
0.0000000001
 12
-0.092211274
 22
0.4606533606
 32
0.0
 13
-0.315916029
 23
0.3477089304
 33
0.0
 40
0.0
 40
0.0
 40
0.0
 40
0.0
 40
0.2378420333
 40
0.4941048768
 40
0.7548642424
 40
1.0
 40
1.0
 40
1.0
 40
1.0
 10
-0.5232524914
 20
-24.7761127864
 30
0.0
 10
-0.5305630637
 20
-24.7395918758
 30
0.0
 10
-0.5451961166
 20
-24.6635973447
 30
0.0
 10
-0.5765955286
 20
-24.5494136663
 30
0.0
 10
-0.6211205624
 20
-24.4384071135
 30
0.0
 10
-0.664379745
 20
-24.3707526366
 30
0.0
 10
-0.6901938501
 20
-24.3423406726
 30
0.0
 11
-0.5232524914
 21
-24.7761127864
 31
0.0
 11
-0.5460222342
 21
-24.6667211448
 31
0.0
 11
-0.5785453736
 21
-24.550807176
 31
0.0
 11
-0.6256744185
 21
-24.4377330854
 31
0.0
 11
-0.6901938501
 21
-24.3423406726
 31
0.0
  0
SPLINE
  5
418
100
AcDbEntity
  8
RACCORDO
100
AcDbSpline
 62
7
  6
CONTINUOUS
 70
0
 71
3
 72
11
 73
7
 74
5
 42
0.0000001
 43
0.0000001
 44
0.0000000001
 12
-0.1689125355
 22
0.0845958709
 32
0.0
 13
-0.0000000045
 23
0.1889124295
 33
0.0
 40
0.0
 40
0.0
 40
0.0
 40
0.0
 40
0.2171672898
 40
0.450362856
 40
0.7104284838
 40
1.0
 40
1.0
 40
1.0
 40
1.0
 10
-28.8313987372
 20
-11.2205823718
 30
0.0
 10
-28.8436261631
 20
-11.2144585532
 30
0.0
 10
-28.8667718111
 20
-11.1968643724
 30
0.0
 10
-28.8915872083
 20
-11.1588182367
 30
0.0
 10
-28.9064063951
 20
-11.1112983812
 30
0.0
 10
-28.9093687955
 20
-11.0765589877
 30
0.0
 10
-28.9093687959
 20
-11.0583244348
 30
0.0
 11
-28.8313987372
 21
-11.2205823718
 31
0.0
 11
-28.864224057
 21
-11.1959734656
 31
0.0
 11
-28.8888846958
 21
-11.1594691184
 31
0.0
 11
-28.904181656
 21
-11.1127816093
 31
0.0
 11
-28.9093687959
 21
-11.0583244348
 31
0.0
  0
SPLINE
  5
419
100
AcDbEntity
  8
0
100
AcDbSpline
 62
7
  6
CONTINUOUS
 70
0
 71
3
 72
11
 73
7
 74
5
 42
0.0000001
 43
0.0000001
 44
0.0000000001
 12
-0.6333494509
 22
0.5969143223
 32
0.0
 13
-0.8289470693
 23
0.2651131674
 33
0.0
 40
0.0
 40
0.0
 40
0.0
 40
0.0
 40
0.2725542141
 40
0.5262218346
 40
0.7671916502
 40
1.0
 40
1.0
 40
1.0
 40
1.0
 10
-0.7338587747
 20
-23.3848921953
 30
0.0
 10
-0.791399462
 20
-23.3306616907
 30
0.0
 10
-0.9146378934
 20
-23.2387642257
 30
0.0
 10
-1.1098751827
 20
-23.1312237935
 30
0.0
 10
-1.3042422738
 20
-23.0482564036
 30
0.0
 10
-1.4344045409
 20
-23.003882547
 30
0.0
 10
-1.4987331406
 20
-22.9833090273
 30
0.0
 11
-0.7338587747
 21
-23.3848921953
 31
0.0
 11
-0.9219250916
 21
-23.2403309094
 31
0.0
 11
-1.1147597523
 21
-23.1328419798
 31
0.0
 11
-1.3073472158
 21
-23.0498249945
 31
0.0
 11
-1.4987331406
 21
-22.9833090273
 31
0.0
  0
SPLINE
  5
41A
100
AcDbEntity
  8
0
100
AcDbSpline
 62
7
  6
CONTINUOUS
 70
0
 71
3
 72
9
 73
5
 74
3
 42
0.0000001
 43
0.0000001
 44
0.0000000001
 12
-0.0819757197
 22
0.0180227712
 32
0.0
 13
-0.0758844132
 23
0.0358663453
 33
0.0
 40
0.0
 40
0.0
 40
0.0
 40
0.0
 40
0.2423818582
 40
1.0
 40
1.0
 40
1.0
 40
1.0
 10
-0.8028569048
 20
-23.9663961354
 30
0.0
 10
-0.8094800472
 20
-23.9649400045
 30
0.0
 10
-0.836559754
 20
-23.9578116397
 30
0.0
 10
-0.8626109077
 20
-23.9471918334
 30
0.0
 10
-0.8817747105
 20
-23.9381341688
 30
0.0
 11
-0.8028569048
 21
-23.9663961354
 31
0.0
 11
-0.8225468801
 21
-23.9612793133
 31
0.0
 11
-0.8817747105
 21
-23.9381341688
 31
0.0
  0
SPLINE
  5
41B
100
AcDbEntity
  8
0
100
AcDbSpline
 62
7
  6
CONTINUOUS
 70
0
 71
3
 72
10
 73
6
 74
4
 42
0.0000001
 43
0.0000001
 44
0.0000000001
 12
-0.1538658196
 22
-0.0769328856
 32
0.0
 13
-0.1555300032
 23
0.0735103899
 33
0.0
 40
0.0
 40
0.0
 40
0.0
 40
0.0
 40
0.4571693223
 40
0.7225207022
 40
1.0
 40
1.0
 40
1.0
 40
1.0
 10
-0.8566821997
 20
-24.0318681782
 30
0.0
 10
-0.8801297772
 20
-24.0435919632
 30
0.0
 10
-0.9252904612
 20
-24.0434934954
 30
0.0
 10
-0.9799405873
 20
-24.027753772
 30
0.0
 10
-1.0088106147
 20
-24.0156440507
 30
0.0
 10
-1.0231960667
 20
-24.0088448469
 30
0.0
 11
-0.8566821997
 21
-24.0318681782
 31
0.0
 11
-0.9350079236
 21
-24.0389537419
 31
0.0
 11
-0.9790876505
 21
-24.0270926205
 31
0.0
 11
-1.0231960667
 21
-24.0088448469
 31
0.0
  0
SPLINE
  5
41C
100
AcDbEntity
  8
0
100
AcDbSpline
 62
7
  6
CONTINUOUS
 70
0
 71
3
 72
18
 73
14
 74
12
 42
0.0000001
 43
0.0000001
 44
0.0000000001
 12
0.9412015705
 22
0.4705978987
 32
0.0
 13
-0.7660302278
 23
0.7214710449
 33
0.0
 40
0.0
 40
0.0
 40
0.0
 40
0.0
 40
0.0457943282
 40
0.091057948
 40
0.1389648723
 40
0.1905315768
 40
0.3034454307
 40
0.4295778624
 40
0.5663524614
 40
0.71146765
 40
0.8584343832
 40
0.9305901699
 40
1.0
 40
1.0
 40
1.0
 40
1.0
 10
-0.5174511856
 20
-24.2419697209
 30
0.0
 10
-0.5030839544
 20
-24.2347861493
 30
0.0
 10
-0.4749955552
 20
-24.2194096058
 30
0.0
 10
-0.4366665789
 20
-24.1886392254
 30
0.0
 10
-0.4058046229
 20
-24.1477685567
 30
0.0
 10
-0.3725464557
 20
-24.0807533012
 30
0.0
 10
-0.3497989674
 20
-23.9799828783
 30
0.0
 10
-0.3487404648
 20
-23.8475832737
 30
0.0
 10
-0.3706678091
 20
-23.7054352915
 30
0.0
 10
-0.4201809115
 20
-23.562564476
 30
0.0
 10
-0.4819519289
 20
-23.449969009
 30
0.0
 10
-0.541566267
 20
-23.3680935697
 30
0.0
 10
-0.5747140758
 20
-23.3308739114
 30
0.0
 10
-0.5924374185
 20
-23.3141815172
 30
0.0
 11
-0.5174511856
 21
-24.2419697209
 31
0.0
 11
-0.4755837885
 21
-24.2181094954
 31
0.0
 11
-0.4387719925
 21
-24.1878841856
 31
0.0
 11
-0.4078916935
 21
-24.1480370504
 31
0.0
 11
-0.3834190728
 21
-24.0996056502
 31
0.0
 11
-0.354858176
 21
-23.9842707922
 31
0.0
 11
-0.3521928976
 21
-23.8515691472
 31
0.0
 11
-0.3743151069
 21
-23.7093523506
 31
0.0
 11
-0.4238702272
 21
-23.5649128963
 31
0.0
 11
-0.498288464
 21
-23.4293428589
 31
0.0
 11
-0.543146445
 21
-23.3680812022
 31
0.0
 11
-0.5924374185
 21
-23.3141815172
 31
0.0
  0
SPLINE
  5
41D
100
AcDbEntity
  8
0
100
AcDbSpline
 62
7
  6
CONTINUOUS
 70
0
 71
3
 72
18
 73
14
 74
12
 42
0.0000001
 43
0.0000001
 44
0.0000000001
 12
0.9411997429
 22
0.4705999189
 32
0.0
 13
-0.7660296955
 23
0.7214705436
 33
0.0
 40
0.0
 40
0.0
 40
0.0
 40
0.0
 40
0.0457942915
 40
0.0910579153
 40
0.1389648734
 40
0.1905316078
 40
0.3034455036
 40
0.4295779571
 40
0.5663525556
 40
0.7114677243
 40
0.8584344206
 40
0.930590188
 40
1.0
 40
1.0
 40
1.0
 40
1.0
 10
-0.6588718836
 20
-24.3126800699
 30
0.0
 10
-0.6445046919
 20
-24.3054964733
 30
0.0
 10
-0.6164163327
 20
-24.2901199235
 30
0.0
 10
-0.5780874863
 20
-24.2593494283
 30
0.0
 10
-0.5472256507
 20
-24.2184786894
 30
0.0
 10
-0.51396762
 20
-24.1514633844
 30
0.0
 10
-0.4912202739
 20
-24.0506929767
 30
0.0
 10
-0.4901618627
 20
-23.9182934435
 30
0.0
 10
-0.5120892725
 20
-23.7761455728
 30
0.0
 10
-0.5616023905
 20
-23.633274897
 30
0.0
 10
-0.6233733781
 20
-23.5206795475
 30
0.0
 10
-0.6829876692
 20
-23.4388041933
 30
0.0
 10
-0.716135449
 20
-23.4015845736
 30
0.0
 10
-0.7338587747
 20
-23.3848921953
 30
0.0
 11
-0.6588718836
 21
-24.3126800699
 31
0.0
 11
-0.6170045918
 21
-24.2888198055
 31
0.0
 11
-0.5801929052
 21
-24.2585944079
 31
0.0
 11
-0.5493127132
 21
-24.2187471891
 31
0.0
 11
-0.5248401923
 21
-24.1703157454
 31
0.0
 11
-0.4962794616
 21
-24.0549808859
 31
0.0
 11
-0.4936142887
 21
-23.9222793081
 31
0.0
 11
-0.5157365631
 21
-23.7800626233
 31
0.0
 11
-0.5652917006
 21
-23.6356233094
 31
0.0
 11
-0.6397098996
 21
-23.500053418
 31
0.0
 11
-0.6845678452
 21
-23.4387918258
 31
0.0
 11
-0.7338587747
 21
-23.3848921953
 31
0.0
  0
SPLINE
  5
41E
100
AcDbEntity
  8
RACCORDO
100
AcDbSpline
 62
7
  6
CONTINUOUS
 70
0
 71
3
 72
15
 73
11
 74
9
 42
0.0000001
 43
0.0000001
 44
0.0000000001
 12
0.0000285072
 22
0.4348568678
 32
0.0
 13
0.3889720972
 23
-0.1944253171
 33
0.0
 40
0.0
 40
0.0
 40
0.0
 40
0.0
 40
0.148915674
 40
0.2843869698
 40
0.4071908667
 40
0.5206712078
 40
0.6305281711
 40
0.7435187247
 40
0.865520311
 40
1.0
 40
1.0
 40
1.0
 40
1.0
 10
-29.1921684301
 20
33.6989121361
 30
0.0
 10
-29.192167015
 20
33.720497804
 30
0.0
 10
-29.1890455001
 20
33.7618373391
 30
0.0
 10
-29.1735743971
 20
33.8192204246
 30
0.0
 10
-29.1477704903
 20
33.86719292
 30
0.0
 10
-29.1121502577
 20
33.9036160737
 30
0.0
 10
-29.0680383124
 20
33.9263472334
 30
0.0
 10
-29.0178425899
 20
33.9340405367
 30
0.0
 10
-28.9642002256
 20
33.9269606439
 30
0.0
 10
-28.9290884238
 20
33.9137268122
 30
0.0
 10
-28.9116521416
 20
33.9050113934
 30
0.0
 11
-29.1921684301
 21
33.6989121361
 31
0.0
 11
-29.1867910925
 21
33.7634454901
 31
0.0
 11
-29.1708607337
 21
33.8201613188
 31
0.0
 11
-29.1449854768
 21
33.8668759557
 31
0.0
 11
-29.1101484199
 21
33.9018270005
 31
0.0
 11
-29.0676694078
 21
33.9236834131
 31
0.0
 11
-29.0191744272
 21
33.9315864129
 31
0.0
 11
-28.9664928862
 21
33.925317424
 31
0.0
 11
-28.9116521416
 21
33.9050113934
 31
0.0
  0
SPLINE
  5
41F
100
AcDbEntity
  8
ASSI
100
AcDbSpline
 62
7
  6
CONTINUOUS
 70
0
 71
3
 72
8
 73
4
 74
2
 42
0.0000001
 43
0.0000001
 44
0.0000000001
 12
0.0017199938
 22
-0.0008550042
 32
0.0
 13
0.0000082581
 23
-0.0019207661
 33
0.0
 40
0.0
 40
0.0
 40
0.0
 40
0.0
 40
1.0
 40
1.0
 40
1.0
 40
1.0
 10
5.9160703093
 20
-20.9910521356
 30
0.0
 10
5.9166436406
 20
-20.991337137
 30
0.0
 10
5.9170860728
 20
-20.9920403874
 30
0.0
 10
5.9170888255
 20
-20.9926806428
 30
0.0
 11
5.9160703093
 21
-20.9910521356
 31
0.0
 11
5.9170888255
 21
-20.9926806428
 31
0.0
  0
SPLINE
  5
420
100
AcDbEntity
  8
ASSI
100
AcDbSpline
 62
7
  6
CONTINUOUS
 70
0
 71
3
 72
8
 73
4
 74
2
 42
0.0000001
 43
0.0000001
 44
0.0000000001
 12
-0.0322886643
 22
0.0161348252
 32
0.0
 13
-0.0345470447
 23
0.0104590691
 33
0.0
 40
0.0
 40
0.0
 40
0.0
 40
0.0
 40
1.0
 40
1.0
 40
1.0
 40
1.0
 10
1.7227061684
 20
-18.8943700651
 30
0.0
 10
1.7119432803
 20
-18.88899179
 30
0.0
 10
1.7007424425
 20
-18.8843649538
 30
0.0
 10
1.6892267609
 20
-18.8808785974
 30
0.0
 11
1.7227061684
 21
-18.8943700651
 31
0.0
 11
1.6892267609
 21
-18.8808785974
 31
0.0
  0
SPLINE
  5
421
100
AcDbEntity
  8
ASSI
100
AcDbSpline
 62
7
  6
CONTINUOUS
 70
0
 71
3
 72
9
 73
5
 74
3
 42
0.0000001
 43
0.0000001
 44
0.0000000001
 12
-0.0774879905
 22
0.0234593799
 32
0.0
 13
-0.075213758
 23
-0.0299603369
 33
0.0
 40
0.0
 40
0.0
 40
0.0
 40
0.0
 40
0.2646796662
 40
1.0
 40
1.0
 40
1.0
 40
1.0
 10
1.6892267609
 20
-18.8808785974
 30
0.0
 10
1.6823902624
 20
-18.8788088571
 30
0.0
 10
1.6562485787
 20
-18.8724958677
 30
0.0
 10
1.6274629549
 20
-18.8734249378
 30
0.0
 10
1.609027553
 20
-18.8807684195
 30
0.0
 11
1.6892267609
 21
-18.8808785974
 31
0.0
 11
1.6683666961
 21
-18.8759743621
 31
0.0
 11
1.609027553
 21
-18.8807684195
 31
0.0
  0
SPLINE
  5
422
100
AcDbEntity
  8
ASSI
100
AcDbSpline
 62
7
  6
CONTINUOUS
 70
0
 71
3
 72
8
 73
4
 74
2
 42
0.0000001
 43
0.0000001
 44
0.0000000001
 12
0.0017199875
 22
-0.0008550395
 32
0.0
 13
0.0000082235
 23
-0.0019207763
 33
0.0
 40
0.0
 40
0.0
 40
0.0
 40
0.0
 40
1.0
 40
1.0
 40
1.0
 40
1.0
 10
-9.9938322305
 20
-12.9494983247
 30
0.0
 10
-9.9932589014
 20
-12.9497833378
 30
0.0
 10
-9.9928164888
 20
-12.9504866057
 30
0.0
 10
-9.9928137477
 20
-12.9511268645
 30
0.0
 11
-9.9938322305
 21
-12.9494983247
 31
0.0
 11
-9.9928137477
 21
-12.9511268645
 31
0.0
  0
SPLINE
  5
423
100
AcDbEntity
  8
ASSI
100
AcDbSpline
 62
7
  6
CONTINUOUS
 70
0
 71
3
 72
8
 73
4
 74
2
 42
0.0000001
 43
0.0000001
 44
0.0000000001
 12
-0.032268327
 22
0.0161247358
 32
0.0
 13
-0.0345239903
 23
0.0104568695
 33
0.0
 40
0.0
 40
0.0
 40
0.0
 40
0.0
 40
1.0
 40
1.0
 40
1.0
 40
1.0
 10
-14.1871959988
 20
-10.8528164405
 30
0.0
 10
-14.1979521077
 20
-10.8474415286
 30
0.0
 10
-14.2091455684
 20
-10.8428171359
 30
0.0
 10
-14.2206535651
 20
-10.8393315127
 30
0.0
 11
-14.1871959988
 21
-10.8528164405
 31
0.0
 11
-14.2206535651
 21
-10.8393315127
 31
0.0
  0
SPLINE
  5
424
100
AcDbEntity
  8
ASSI
100
AcDbSpline
 62
7
  6
CONTINUOUS
 70
0
 71
3
 72
9
 73
5
 74
3
 42
0.0000001
 43
0.0000001
 44
0.0000000001
 12
-0.0479673986
 22
0.0145287038
 32
0.0
 13
-0.0500426309
 23
-0.0027730218
 33
0.0
 40
0.0
 40
0.0
 40
0.0
 40
0.0
 40
0.257878631
 40
1.0
 40
1.0
 40
1.0
 40
1.0
 10
-14.2206535651
 20
-10.8393315127
 30
0.0
 10
-14.2247768208
 20
-10.8380826319
 30
0.0
 10
-14.240920591
 20
-10.8338078026
 30
0.0
 10
-14.2578206552
 20
-10.8320420508
 30
0.0
 10
-14.2701998905
 20
-10.8327280237
 30
0.0
 11
-14.2206535651
 21
-10.8393315127
 31
0.0
 11
-14.2331533822
 21
-10.8360447148
 31
0.0
 11
-14.2701998905
 21
-10.8327280237
 31
0.0
  0
SPLINE
  5
425
100
AcDbEntity
  8
ASSI
100
AcDbSpline
 62
7
  6
CONTINUOUS
 70
0
 71
3
 72
8
 73
4
 74
2
 42
0.0000001
 43
0.0000001
 44
0.0000000001
 12
-0.0213414878
 22
-0.0011825999
 32
0.0
 13
-0.0206349063
 23
-0.005572996
 33
0.0
 40
0.0
 40
0.0
 40
0.0
 40
0.0
 40
1.0
 40
1.0
 40
1.0
 40
1.0
 10
-14.2701998905
 20
-10.8327280237
 30
0.0
 10
-14.2773137198
 20
-10.8331222237
 30
0.0
 10
-14.2844373841
 20
-10.8341840898
 30
0.0
 10
-14.2913156862
 20
-10.8360417551
 30
0.0
 11
-14.2701998905
 21
-10.8327280237
 31
0.0
 11
-14.2913156862
 21
-10.8360417551
 31
0.0
  0
SPLINE
  5
426
100
AcDbEntity
  8
ASSI
100
AcDbSpline
 62
7
  6
CONTINUOUS
 70
0
 71
3
 72
8
 73
4
 74
2
 42
0.0000001
 43
0.0000001
 44
0.0000000001
 12
-0.032268327
 22
0.0161247358
 32
0.0
 13
-0.0345239903
 23
0.0104568695
 33
0.0
 40
0.0
 40
0.0
 40
0.0
 40
0.0
 40
1.0
 40
1.0
 40
1.0
 40
1.0
 10
17.6326091546
 20
-26.7627190172
 30
0.0
 10
17.6218530456
 20
-26.7573441053
 30
0.0
 10
17.610659585
 20
-26.7527197126
 30
0.0
 10
17.5991515882
 20
-26.7492340894
 30
0.0
 11
17.6326091546
 21
-26.7627190172
 31
0.0
 11
17.5991515882
 21
-26.7492340894
 31
0.0
  0
SPLINE
  5
427
100
AcDbEntity
  8
ASSI
100
AcDbSpline
 62
7
  6
CONTINUOUS
 70
0
 71
3
 72
9
 73
5
 74
3
 42
0.0000001
 43
0.0000001
 44
0.0000000001
 12
-0.0479673986
 22
0.0145287038
 32
0.0
 13
-0.0500426309
 23
-0.0027730218
 33
0.0
 40
0.0
 40
0.0
 40
0.0
 40
0.0
 40
0.257878631
 40
1.0
 40
1.0
 40
1.0
 40
1.0
 10
17.5991515882
 20
-26.7492340894
 30
0.0
 10
17.5950283326
 20
-26.7479852086
 30
0.0
 10
17.5788845623
 20
-26.7437103793
 30
0.0
 10
17.5619844981
 20
-26.7419446275
 30
0.0
 10
17.5496052629
 20
-26.7426306004
 30
0.0
 11
17.5991515882
 21
-26.7492340894
 31
0.0
 11
17.5866517712
 21
-26.7459472915
 31
0.0
 11
17.5496052629
 21
-26.7426306004
 31
0.0
  0
SPLINE
  5
428
100
AcDbEntity
  8
ASSI
100
AcDbSpline
 62
7
  6
CONTINUOUS
 70
0
 71
3
 72
8
 73
4
 74
2
 42
0.0000001
 43
0.0000001
 44
0.0000000001
 12
-0.0213414878
 22
-0.0011825999
 32
0.0
 13
-0.0206349063
 23
-0.005572996
 33
0.0
 40
0.0
 40
0.0
 40
0.0
 40
0.0
 40
1.0
 40
1.0
 40
1.0
 40
1.0
 10
17.5496052629
 20
-26.7426306004
 30
0.0
 10
17.5424914336
 20
-26.7430248004
 30
0.0
 10
17.5353677693
 20
-26.7440866665
 30
0.0
 10
17.5284894672
 20
-26.7459443318
 30
0.0
 11
17.5496052629
 21
-26.7426306004
 31
0.0
 11
17.5284894672
 21
-26.7459443318
 31
0.0
  0
SPLINE
  5
429
100
AcDbEntity
  8
DRAFT
100
AcDbSpline
 62
7
  6
CONTINUOUS
 70
0
 71
3
 72
9
 73
5
 74
3
 42
0.0000001
 43
0.0000001
 44
0.0000000001
 12
-0.0332878751
 22
-0.1355086177
 32
0.0
 13
-0.1246655888
 23
-0.0626830046
 33
0.0
 40
0.0
 40
0.0
 40
0.0
 40
0.0
 40
0.5315790208
 40
1.0
 40
1.0
 40
1.0
 40
1.0
 10
-10.5706546081
 20
-14.0362273575
 30
0.0
 10
-10.5765529868
 20
-14.0602385369
 30
0.0
 10
-10.5943612565
 20
-14.1045615984
 30
0.0
 10
-10.6304709042
 20
-14.1372162103
 30
0.0
 10
-10.6499362299
 20
-14.1470035551
 30
0.0
 11
-10.5706546081
 21
-14.0362273575
 31
0.0
 11
-10.6006575268
 21
-14.1040637294
 31
0.0
 11
-10.6499362299
 21
-14.1470035551
 31
0.0
  0
SPLINE
  5
42A
100
AcDbEntity
  8
DRAFT
100
AcDbSpline
 62
7
  6
CONTINUOUS
 70
0
 71
3
 72
9
 73
5
 74
3
 42
0.0000001
 43
0.0000001
 44
0.0000000001
 12
-0.0332878751
 22
-0.1355086177
 32
0.0
 13
-0.1246655888
 23
-0.0626830046
 33
0.0
 40
0.0
 40
0.0
 40
0.0
 40
0.0
 40
0.5315790208
 40
1.0
 40
1.0
 40
1.0
 40
1.0
 10
5.3392479686
 20
-21.9911786458
 30
0.0
 10
5.3333495899
 20
-22.0151898253
 30
0.0
 10
5.3155413202
 20
-22.0595128867
 30
0.0
 10
5.2794316725
 20
-22.0921674986
 30
0.0
 10
5.2599663467
 20
-22.1019548434
 30
0.0
 11
5.3392479686
 21
-21.9911786458
 31
0.0
 11
5.3092450499
 21
-22.0590150177
 31
0.0
 11
5.2599663467
 21
-22.1019548434
 31
0.0
  0
SPLINE
  5
42B
100
AcDbEntity
  8
RACCORDO
100
AcDbSpline
 62
7
  6
CONTINUOUS
 70
0
 71
3
 72
11
 73
7
 74
5
 42
0.0000001
 43
0.0000001
 44
0.0000000001
 12
0.1712622514
 22
0.0869949376
 32
0.0
 13
0.0004293237
 23
0.1920903266
 33
0.0
 40
0.0
 40
0.0
 40
0.0
 40
0.0
 40
0.3609349558
 40
0.6475569956
 40
0.8565789599
 40
1.0
 40
1.0
 40
1.0
 40
1.0
 10
-23.4583942187
 20
-7.7579559523
 30
0.0
 10
-23.4377893743
 20
-7.7474894476
 30
0.0
 10
-23.4014730617
 20
-7.7273718952
 30
0.0
 10
-23.3566866244
 20
-7.6953049658
 30
0.0
 10
-23.3277394147
 20
-7.6662296463
 30
0.0
 10
-23.3180855945
 20
-7.6442845133
 30
0.0
 10
-23.3180650698
 20
-7.6351012485
 30
0.0
 11
-23.4583942187
 21
-7.7579559523
 31
0.0
 11
-23.3980692722
 21
-7.7237818859
 31
0.0
 11
-23.3537877102
 21
-7.6910638935
 31
0.0
 11
-23.3269875194
 21
-7.6611662606
 31
0.0
 11
-23.3180650698
 21
-7.6351012485
 31
0.0
  0
SPLINE
  5
42C
100
AcDbEntity
  8
RACCORDO
100
AcDbSpline
 62
7
  6
CONTINUOUS
 70
0
 71
3
 72
11
 73
7
 74
5
 42
0.0000001
 43
0.0000001
 44
0.0000000001
 12
0.3974925818
 22
-0.1920748414
 32
0.0
 13
-0.0061350167
 23
-0.4414243523
 33
0.0
 40
0.0
 40
0.0
 40
0.0
 40
0.0
 40
0.230440652
 40
0.4885148107
 40
0.7528953883
 40
1.0
 40
1.0
 40
1.0
 40
1.0
 10
-2.2854073938
 20
-17.9486986423
 30
0.0
 10
-2.2548745772
 20
-17.9634525928
 30
0.0
 10
-2.1965064472
 20
-18.008029349
 30
0.0
 10
-2.1294551972
 20
-18.0975233066
 30
0.0
 10
-2.0844844552
 20
-18.2025687936
 30
0.0
 10
-2.0728023379
 20
-18.2781572252
 30
0.0
 10
-2.0733076682
 20
-18.3145165562
 30
0.0
 11
-2.2854073938
 21
-17.9486986423
 31
0.0
 11
-2.2031151748
 21
-18.0085098301
 31
0.0
 11
-2.1339203647
 21
-18.0990217145
 31
0.0
 11
-2.0883394682
 21
-18.2064686418
 31
0.0
 11
-2.0733076682
 21
-18.3145165562
 31
0.0
  0
SPLINE
  5
42D
100
AcDbEntity
  8
RACCORDO
100
AcDbSpline
 62
7
  6
CONTINUOUS
 70
0
 71
3
 72
14
 73
10
 74
8
 42
0.0000001
 43
0.0000001
 44
0.0000000001
 12
0.3943553874
 22
-0.2003416686
 32
0.0
 13
-0.0117691643
 23
-0.4421701511
 33
0.0
 40
0.0
 40
0.0
 40
0.0
 40
0.0
 40
0.1107720358
 40
0.2307901358
 40
0.3575289023
 40
0.4888703813
 40
0.7527421961
 40
0.8798077521
 40
1.0
 40
1.0
 40
1.0
 40
1.0
 10
-23.6704939427
 20
-7.3921380375
 30
0.0
 10
-23.6559327597
 20
-7.3995354556
 30
0.0
 10
-23.6266699635
 20
-7.4172150442
 30
0.0
 10
-23.5864647941
 20
-7.4516557448
 30
0.0
 10
-23.5499038745
 20
-7.4939789349
 30
0.0
 10
-23.5071101818
 20
-7.5581067157
 30
0.0
 10
-23.4766141508
 20
-7.6298933893
 30
0.0
 10
-23.4606535115
 20
-7.7036751937
 30
0.0
 10
-23.4579226486
 20
-7.7402407863
 30
0.0
 10
-23.4583941694
 20
-7.7579559278
 30
0.0
 11
-23.6704939427
 21
-7.3921380375
 31
0.0
 11
-23.6286047804
 21
-7.4175554862
 31
0.0
 11
-23.5881403076
 21
-7.4519194061
 31
0.0
 11
-23.5512644233
 21
-7.4941436504
 31
0.0
 11
-23.5190060511
 21
-7.5424605749
 31
0.0
 11
-23.4734640842
 21
-7.6499264705
 31
0.0
 11
-23.4617567205
 21
-7.7048981256
 31
0.0
 11
-23.4583941694
 21
-7.7579559278
 31
0.0
  0
SPLINE
  5
42E
100
AcDbEntity
  8
RACCORDO
100
AcDbSpline
 62
7
  6
CONTINUOUS
 70
0
 71
3
 72
11
 73
7
 74
5
 42
0.0000001
 43
0.0000001
 44
0.0000000001
 12
-0.0000102203
 22
-0.1402935348
 32
0.0
 13
-0.1245845542
 23
-0.0645055413
 33
0.0
 40
0.0
 40
0.0
 40
0.0
 40
0.0
 40
0.2077778344
 40
0.4361450684
 40
0.6987172547
 40
1.0
 40
1.0
 40
1.0
 40
1.0
 10
-1.9891096497
 20
-18.2103171974
 30
0.0
 10
-1.9891103575
 20
-18.2200338263
 30
0.0
 10
-1.9932904217
 20
-18.2405820179
 30
0.0
 10
-2.0107999441
 20
-18.2687614393
 30
0.0
 10
-2.0381849837
 20
-18.2941807229
 30
0.0
 10
-2.0607959427
 20
-18.3080384207
 30
0.0
 10
-2.0733076682
 20
-18.3145165562
 30
0.0
 11
-1.9891096497
 21
-18.2103171974
 31
0.0
 11
-1.9946249173
 21
-18.2389405747
 31
0.0
 11
-2.0109527855
 21
-18.2665061833
 31
0.0
 11
-2.0375234329
 21
-18.2920204645
 31
0.0
 11
-2.0733076682
 21
-18.3145165562
 31
0.0
  0
SPLINE
  5
42F
100
AcDbEntity
  8
RACCORDO
100
AcDbSpline
 62
7
  6
CONTINUOUS
 70
0
 71
3
 72
11
 73
7
 74
5
 42
0.0000001
 43
0.0000001
 44
0.0000000001
 12
0.3974925817
 22
-0.1920748416
 32
0.0
 13
-0.0061350169
 23
-0.4414243523
 33
0.0
 40
0.0
 40
0.0
 40
0.0
 40
0.0
 40
0.2304406517
 40
0.4885148109
 40
0.7528953877
 40
1.0
 40
1.0
 40
1.0
 40
1.0
 10
-20.9670414572
 20
16.8499449747
 30
0.0
 10
-20.9365086406
 20
16.8351910242
 30
0.0
 10
-20.8781405106
 20
16.790614268
 30
0.0
 10
-20.8110892606
 20
16.7011203105
 30
0.0
 10
-20.7661185186
 20
16.5960748234
 30
0.0
 10
-20.7544364012
 20
16.5204863919
 30
0.0
 10
-20.7549417315
 20
16.4841270607
 30
0.0
 11
-20.9670414572
 21
16.8499449747
 31
0.0
 11
-20.8847492382
 21
16.790133787
 31
0.0
 11
-20.815554428
 21
16.6996219025
 31
0.0
 11
-20.7699735317
 21
16.5921749754
 31
0.0
 11
-20.7549417315
 21
16.4841270607
 31
0.0
  0
SPLINE
  5
430
100
AcDbEntity
  8
RACCORDO
100
AcDbSpline
 62
7
  6
CONTINUOUS
 70
0
 71
3
 72
11
 73
7
 74
5
 42
0.0000001
 43
0.0000001
 44
0.0000000001
 12
0.0025984861
 22
-0.1842744525
 32
0.0
 13
-0.1622148733
 23
-0.0874651979
 33
0.0
 40
0.0
 40
0.0
 40
0.0
 40
0.0
 40
0.28852378
 40
0.547995295
 40
0.7816826175
 40
1.0
 40
1.0
 40
1.0
 40
1.0
 10
-20.7549417315
 20
11.0837390072
 30
0.0
 10
-20.7546918232
 20
11.0660164867
 30
0.0
 10
-20.7570753153
 20
11.0321905652
 30
0.0
 10
-20.7708011092
 20
10.985691247
 30
0.0
 10
-20.7943258854
 20
10.9480938739
 30
0.0
 10
-20.8164933104
 20
10.9302814715
 30
0.0
 10
-20.8282980859
 20
10.9239164138
 30
0.0
 11
-20.7549417315
 21
11.0837390072
 31
0.0
 11
-20.7592083809
 21
11.0307376167
 31
0.0
 11
-20.7733706469
 21
10.9850642035
 31
0.0
 11
-20.7967644662
 21
10.9489050309
 31
0.0
 11
-20.8282980859
 21
10.9239164138
 31
0.0
  0
SPLINE
  5
431
100
AcDbEntity
  8
RACCORDO
100
AcDbSpline
 62
7
  6
CONTINUOUS
 70
0
 71
3
 72
9
 73
5
 74
3
 42
0.0000001
 43
0.0000001
 44
0.0000000001
 12
-0.1200021189
 22
0.0599713195
 32
0.0
 13
-0.1210071334
 23
-0.057916676
 33
0.0
 40
0.0
 40
0.0
 40
0.0
 40
0.0
 40
0.4650416511
 40
1.0
 40
1.0
 40
1.0
 40
1.0
 10
-3.6932429217
 20
-17.1728456327
 30
0.0
 10
-3.7118449162
 20
-17.1635492456
 30
0.0
 10
-3.7582211347
 20
-17.1554254424
 30
0.0
 10
-3.802120127
 20
-17.1692256432
 30
0.0
 10
-3.8236980524
 20
-17.179553313
 30
0.0
 11
-3.6932429217
 21
-17.1728456327
 31
0.0
 11
-3.7544429284
 21
-17.1607347989
 31
0.0
 11
-3.8236980524
 21
-17.179553313
 31
0.0
  0
SPLINE
  5
432
100
AcDbEntity
  8
ASSI
100
AcDbSpline
 62
7
  6
CONTINUOUS
 70
0
 71
3
 72
11
 73
7
 74
5
 42
0.0000001
 43
0.0000001
 44
0.0000000001
 12
0.0483159092
 22
0.0240461291
 32
0.0
 13
0.048326814
 23
-0.0240242057
 33
0.0
 40
0.0
 40
0.0
 40
0.0
 40
0.0
 40
0.4141056993
 40
0.7151930062
 40
0.9055096016
 40
1.0
 40
1.0
 40
1.0
 40
1.0
 10
-10.0441869623
 20
-12.9675586214
 30
0.0
 10
-10.0375176645
 20
-12.9642394084
 30
0.0
 10
-10.0258919492
 20
-12.9588434628
 30
0.0
 10
-10.0106643029
 20
-12.9525714611
 30
0.0
 10
-10.000867692
 20
-12.94957633
 30
0.0
 10
-9.9953543705
 20
-12.9487416391
 30
0.0
 10
-9.9938322305
 20
-12.9494983247
 30
0.0
 11
-10.0441869623
 21
-12.9675586214
 31
0.0
 11
-10.0239202097
 21
-12.9581390081
 31
0.0
 11
-10.0088191968
 21
-12.9521389312
 31
0.0
 11
-9.9989300017
 21
-12.9493638729
 31
0.0
 11
-9.9938322305
 21
-12.9494983247
 31
0.0
  0
SPLINE
  5
433
100
AcDbEntity
  8
RACCORDO
100
AcDbSpline
 62
7
  6
CONTINUOUS
 70
0
 71
3
 72
9
 73
5
 74
3
 42
0.0000001
 43
0.0000001
 44
0.0000000001
 12
0.1211461435
 22
0.0559349925
 32
0.0
 13
0.1185133239
 23
-0.0613164215
 33
0.0
 40
0.0
 40
0.0
 40
0.0
 40
0.0
 40
0.4648265803
 40
1.0
 40
1.0
 40
1.0
 40
1.0
 10
-3.9531819545
 20
-17.1688193706
 30
0.0
 10
-3.9344113053
 20
-17.1601526801
 30
0.0
 10
-3.8880483908
 20
-17.1535227298
 30
0.0
 10
-3.8448397793
 20
-17.1686150066
 30
0.0
 10
-3.8236980524
 20
-17.179553313
 30
0.0
 11
-3.9531819545
 21
-17.1688193706
 31
0.0
 11
-3.8919914058
 21
-17.1586825117
 31
0.0
 11
-3.8236980524
 21
-17.179553313
 31
0.0
  0
SPLINE
  5
434
100
AcDbEntity
  8
RACCORDO
100
AcDbSpline
 62
7
  6
CONTINUOUS
 70
0
 71
3
 72
11
 73
7
 74
5
 42
0.0000001
 43
0.0000001
 44
0.0000000001
 12
-0.0000102202
 22
-0.1402935348
 32
0.0
 13
-0.1245845542
 23
-0.0645055413
 33
0.0
 40
0.0
 40
0.0
 40
0.0
 40
0.0
 40
0.2077778343
 40
0.4361450687
 40
0.698717255
 40
1.0
 40
1.0
 40
1.0
 40
1.0
 10
-20.6707437131
 20
11.1879383661
 30
0.0
 10
-20.6707444209
 20
11.1782217372
 30
0.0
 10
-20.674924485
 20
11.1576735456
 30
0.0
 10
-20.6924340074
 20
11.1294941242
 30
0.0
 10
-20.719819047
 20
11.1040748405
 30
0.0
 10
-20.742430006
 20
11.0902171428
 30
0.0
 10
-20.7549417315
 20
11.0837390073
 30
0.0
 11
-20.6707437131
 21
11.1879383661
 31
0.0
 11
-20.6762589806
 21
11.1593149888
 31
0.0
 11
-20.6925868489
 21
11.1317493801
 31
0.0
 11
-20.7191574963
 21
11.1062350989
 31
0.0
 11
-20.7549417315
 21
11.0837390073
 31
0.0
  0
SPLINE
  5
435
100
AcDbEntity
  8
RACCORDO
100
AcDbSpline
 62
7
  6
CONTINUOUS
 70
0
 71
3
 72
11
 73
7
 74
5
 42
0.0000001
 43
0.0000001
 44
0.0000000001
 12
-0.0000102203
 22
-0.1402935348
 32
0.0
 13
-0.1245845542
 23
-0.0645055413
 33
0.0
 40
0.0
 40
0.0
 40
0.0
 40
0.0
 40
0.2077778344
 40
0.4361450684
 40
0.6987172547
 40
1.0
 40
1.0
 40
1.0
 40
1.0
 10
-20.6707437131
 20
16.5883264196
 30
0.0
 10
-20.6707444209
 20
16.5786097906
 30
0.0
 10
-20.6749244851
 20
16.5580615991
 30
0.0
 10
-20.6924340074
 20
16.5298821777
 30
0.0
 10
-20.7198190471
 20
16.504462894
 30
0.0
 10
-20.742430006
 20
16.4906051963
 30
0.0
 10
-20.7549417315
 20
16.4841270607
 30
0.0
 11
-20.6707437131
 21
16.5883264196
 31
0.0
 11
-20.6762589806
 21
16.5597030422
 31
0.0
 11
-20.6925868489
 21
16.5321374337
 31
0.0
 11
-20.7191574963
 21
16.5066231525
 31
0.0
 11
-20.7549417315
 21
16.4841270607
 31
0.0
  0
SPLINE
  5
436
100
AcDbEntity
  8
RACCORDO
100
AcDbSpline
 62
7
  6
CONTINUOUS
 70
0
 71
3
 72
9
 73
5
 74
3
 42
0.0000001
 43
0.0000001
 44
0.0000000001
 12
-0.1199872817
 22
0.0599050504
 32
0.0
 13
-0.1209684495
 23
-0.0578981611
 33
0.0
 40
0.0
 40
0.0
 40
0.0
 40
0.0
 40
0.4650457674
 40
1.0
 40
1.0
 40
1.0
 40
1.0
 10
-20.8366259473
 20
16.8566724458
 30
0.0
 10
-20.8552258065
 20
16.8659586425
 30
0.0
 10
-20.9015874184
 20
16.8740663462
 30
0.0
 10
-20.9454705956
 20
16.8602692634
 30
0.0
 10
-20.967041457
 20
16.8499449746
 30
0.0
 11
-20.8366259473
 21
16.8566724458
 31
0.0
 11
-20.8978103442
 21
16.8687622542
 31
0.0
 11
-20.967041457
 21
16.8499449746
 31
0.0
  0
SPLINE
  5
437
100
AcDbEntity
  8
RACCORDO
100
AcDbSpline
 62
7
  6
CONTINUOUS
 70
0
 71
3
 72
9
 73
5
 74
3
 42
0.0000001
 43
0.0000001
 44
0.0000000001
 12
-0.1200021189
 22
0.0599713195
 32
0.0
 13
-0.1210071334
 23
-0.057916676
 33
0.0
 40
0.0
 40
0.0
 40
0.0
 40
0.0
 40
0.4650416511
 40
1.0
 40
1.0
 40
1.0
 40
1.0
 10
-21.144765377
 20
17.0107421802
 30
0.0
 10
-21.1633673715
 20
17.0200385673
 30
0.0
 10
-21.20974359
 20
17.0281623705
 30
0.0
 10
-21.2536425822
 20
17.0143621698
 30
0.0
 10
-21.2752205077
 20
17.0040345
 30
0.0
 11
-21.144765377
 21
17.0107421802
 31
0.0
 11
-21.2059653837
 21
17.022853014
 31
0.0
 11
-21.2752205077
 21
17.0040345
 31
0.0
  0
SPLINE
  5
438
100
AcDbEntity
  8
RACCORDO
100
AcDbSpline
 62
7
  6
CONTINUOUS
 70
0
 71
3
 72
9
 73
5
 74
3
 42
0.0000001
 43
0.0000001
 44
0.0000000001
 12
0.1211461435
 22
0.0559349925
 32
0.0
 13
0.1185133239
 23
-0.0613164215
 33
0.0
 40
0.0
 40
0.0
 40
0.0
 40
0.0
 40
0.4648265803
 40
1.0
 40
1.0
 40
1.0
 40
1.0
 10
-21.4047044097
 20
17.0147684424
 30
0.0
 10
-21.3859337605
 20
17.0234351328
 30
0.0
 10
-21.3395708461
 20
17.0300650831
 30
0.0
 10
-21.2963622346
 20
17.0149728063
 30
0.0
 10
-21.2752205077
 20
17.0040345
 30
0.0
 11
-21.4047044097
 21
17.0147684424
 31
0.0
 11
-21.3435138611
 21
17.0249053012
 31
0.0
 11
-21.2752205077
 21
17.0040345
 31
0.0
  0
SPLINE
  5
439
100
AcDbEntity
  8
RACCORDO
100
AcDbSpline
 62
7
  6
CONTINUOUS
 70
0
 71
3
 72
10
 73
6
 74
4
 42
0.0000001
 43
0.0000001
 44
0.0000000001
 12
-0.1719060809
 22
0.0858445567
 32
0.0
 13
-0.1728440808
 23
-0.0839399328
 33
0.0
 40
0.0
 40
0.0
 40
0.0
 40
0.0
 40
0.4083751956
 40
0.6803995527
 40
1.0
 40
1.0
 40
1.0
 40
1.0
 10
-23.4849427843
 20
-7.3650132441
 30
0.0
 10
-23.5083435108
 20
-7.3533276482
 30
0.0
 10
-23.5553647985
 20
-7.3522249804
 30
0.0
 10
-23.6169075308
 20
-7.3683974824
 30
0.0
 10
-23.6520802625
 20
-7.3831956249
 30
0.0
 10
-23.6704939443
 20
-7.3921380383
 30
0.0
 11
-23.4849427843
 21
-7.3650132441
 31
0.0
 11
-23.5629333989
 21
-7.3563652158
 31
0.0
 11
-23.6137179552
 21
-7.3687337443
 31
0.0
 11
-23.6704939443
 21
-7.3921380383
 31
0.0
  0
SPLINE
  5
43A
100
AcDbEntity
  8
ASSI
100
AcDbSpline
 62
7
  6
CONTINUOUS
 70
0
 71
3
 72
11
 73
7
 74
5
 42
0.0000001
 43
0.0000001
 44
0.0000000001
 12
0.048315538
 22
0.0240467905
 32
0.0
 13
0.0483272103
 23
-0.0240233238
 33
0.0
 40
0.0
 40
0.0
 40
0.0
 40
0.0
 40
0.4141046671
 40
0.7151915315
 40
0.9055086154
 40
1.0
 40
1.0
 40
1.0
 40
1.0
 10
5.8657156144
 20
-21.0091124502
 30
0.0
 10
5.8723848443
 20
-21.0057931541
 30
0.0
 10
5.8840105978
 20
-21.0003973572
 30
0.0
 10
5.899238184
 20
-20.9941253246
 30
0.0
 10
5.9090348184
 20
-20.9911301648
 30
0.0
 10
5.914548141
 20
-20.9902954699
 30
0.0
 10
5.9160703093
 20
-20.9910521356
 30
0.0
 11
5.8657156144
 21
-21.0091124502
 31
0.0
 11
5.8859823048
 21
-20.9996928722
 31
0.0
 11
5.9010832799
 21
-20.9936927958
 31
0.0
 11
5.9109724877
 21
-20.9909177116
 31
0.0
 11
5.9160703093
 21
-20.9910521356
 31
0.0
  0
SPLINE
  5
43B
100
AcDbEntity
  8
RACCORDO
100
AcDbSpline
 62
7
  6
CONTINUOUS
 70
0
 71
3
 72
9
 73
5
 74
3
 42
0.0000001
 43
0.0000001
 44
0.0000000001
 12
-0.1199872818
 22
0.0599050505
 32
0.0
 13
-0.1209684497
 23
-0.0578981612
 33
0.0
 40
0.0
 40
0.0
 40
0.0
 40
0.0
 40
0.4650457663
 40
1.0
 40
1.0
 40
1.0
 40
1.0
 10
-2.1549918839
 20
-17.9419711712
 30
0.0
 10
-2.1735917431
 20
-17.9326849745
 30
0.0
 10
-2.219953355
 20
-17.9245772709
 30
0.0
 10
-2.2638365324
 20
-17.9383743534
 30
0.0
 10
-2.2854073938
 20
-17.9486986422
 30
0.0
 11
-2.1549918839
 21
-17.9419711712
 31
0.0
 11
-2.2161762808
 21
-17.9298813628
 31
0.0
 11
-2.2854073938
 21
-17.9486986422
 31
0.0
  0
SPLINE
  5
43C
100
AcDbEntity
  8
SMUSSO
100
AcDbSpline
 62
7
  6
CONTINUOUS
 70
0
 71
3
 72
11
 73
7
 74
5
 42
0.0000001
 43
0.0000001
 44
0.0000000001
 12
0.5314371028
 22
-0.3973143397
 32
0.0
 13
0.0000207216
 23
-0.6635390556
 33
0.0
 40
0.0
 40
0.0
 40
0.0
 40
0.0
 40
0.2408282557
 40
0.4998996248
 40
0.7590225297
 40
1.0
 40
1.0
 40
1.0
 40
1.0
 10
43.3577905563
 20
26.0687481242
 30
0.0
 10
43.4004522465
 20
26.0368532844
 30
0.0
 10
43.4795256729
 20
25.9576546318
 30
0.0
 10
43.5701069772
 20
25.8149834612
 30
0.0
 10
43.6300822104
 20
25.6569514922
 30
0.0
 10
43.6461462953
 20
25.546153375
 30
0.0
 10
43.6461479598
 20
25.492854054
 30
0.0
 11
43.3577905563
 21
26.0687481242
 31
0.0
 11
43.4721338877
 21
25.9571178949
 31
0.0
 11
43.5648760665
 21
25.8123772173
 31
0.0
 11
43.6252216074
 21
25.651376754
 31
0.0
 11
43.6461479598
 21
25.492854054
 31
0.0
  0
SPLINE
  5
43D
100
AcDbEntity
  8
SMUSSO
100
AcDbSpline
 62
7
  6
CONTINUOUS
 70
0
 71
3
 72
11
 73
7
 74
5
 42
0.0000001
 43
0.0000001
 44
0.0000000001
 12
0.6269693567
 22
0.3257598304
 32
0.0
 13
0.6334267922
 23
-0.3130184344
 33
0.0
 40
0.0
 40
0.0
 40
0.0
 40
0.0
 40
0.2268768967
 40
0.4642616391
 40
0.7204036611
 40
1.0
 40
1.0
 40
1.0
 40
1.0
 10
-39.3299564447
 20
67.2757205636
 30
0.0
 10
-39.2825414907
 20
67.3003563568
 30
0.0
 10
-39.1776546569
 20
67.3368624013
 30
0.0
 10
-39.0064940398
 20
67.3471357663
 30
0.0
 10
-38.8259018394
 20
67.314512628
 30
0.0
 10
-38.7079214784
 20
67.2675437096
 30
0.0
 10
-38.6488868744
 20
67.2383707735
 30
0.0
 11
-39.3299564447
 21
67.2757205636
 31
0.0
 11
-39.1787349599
 21
67.3288991685
 31
0.0
 11
-39.0114075307
 21
67.3404219295
 31
0.0
 11
-38.8330175585
 21
67.3099332862
 31
0.0
 11
-38.6488868744
 21
67.2383707735
 31
0.0
  0
SPLINE
  5
43E
100
AcDbEntity
  8
SMUSSO
100
AcDbSpline
 62
7
  6
CONTINUOUS
 70
0
 71
3
 72
9
 73
5
 74
3
 42
0.0000001
 43
0.0000001
 44
0.0000000001
 12
-0.3173390048
 22
-0.1648825056
 32
0.0
 13
-0.1780683987
 23
-0.310132117
 33
0.0
 40
0.0
 40
0.0
 40
0.0
 40
0.0
 40
0.4863008985
 40
1.0
 40
1.0
 40
1.0
 40
1.0
 10
-40.7016416968
 20
66.5630121396
 30
0.0
 10
-40.7530824445
 20
66.5362846361
 30
0.0
 10
-40.8506800293
 20
66.4642206841
 30
0.0
 10
-40.9228557754
 20
66.36731098
 30
0.0
 10
-40.9533469675
 20
66.3142061167
 30
0.0
 11
-40.7016416968
 21
66.5630121396
 31
0.0
 11
-40.8419940567
 21
66.4603193707
 31
0.0
 11
-40.9533469675
 21
66.3142061167
 31
0.0
  0
SPLINE
  5
43F
100
AcDbEntity
  8
SMUSSO
100
AcDbSpline
 62
7
  6
CONTINUOUS
 70
0
 71
3
 72
9
 73
5
 74
3
 42
0.0000001
 43
0.0000001
 44
0.0000000001
 12
0.2150996941
 22
-0.1087653777
 32
0.0
 13
0.1930650185
 23
-0.1443041387
 33
0.0
 40
0.0
 40
0.0
 40
0.0
 40
0.0
 40
0.2414390003
 40
1.0
 40
1.0
 40
1.0
 40
1.0
 10
42.5855281747
 20
26.6211632489
 30
0.0
 10
42.6028393264
 20
26.6124098476
 30
0.0
 10
42.6736549471
 20
26.5744158889
 30
0.0
 10
42.7409041095
 20
26.5299037548
 30
0.0
 10
42.7897213074
 20
26.4934159242
 30
0.0
 11
42.5855281747
 21
26.6211632489
 31
0.0
 11
42.6368267329
 21
26.5936834382
 31
0.0
 11
42.7897213074
 21
26.4934159242
 31
0.0
  0
SPLINE
  5
440
100
AcDbEntity
  8
SMUSSO
100
AcDbSpline
 62
7
  6
CONTINUOUS
 70
0
 71
3
 72
9
 73
5
 74
3
 42
0.0000001
 43
0.0000001
 44
0.0000000001
 12
0.2505548834
 22
0.0069102273
 32
0.0
 13
0.2259061482
 23
0.1085905753
 33
0.0
 40
0.0
 40
0.0
 40
0.0
 40
0.0
 40
0.5074397527
 40
1.0
 40
1.0
 40
1.0
 40
1.0
 10
41.6075544805
 20
-65.8518753107
 30
0.0
 10
41.6499349832
 20
-65.8507064693
 30
0.0
 10
41.7335044718
 20
-65.8403999427
 30
0.0
 10
41.8130549895
 20
-65.812481332
 30
0.0
 10
41.8501457856
 20
-65.7946521985
 30
0.0
 11
41.6075544805
 21
-65.8518753107
 31
0.0
 11
41.7337130791
 21
-65.8357115613
 31
0.0
 11
41.8501457856
 21
-65.7946521985
 31
0.0
  0
SPLINE
  5
441
100
AcDbEntity
  8
SMUSSO
100
AcDbSpline
 62
7
  6
CONTINUOUS
 70
0
 71
3
 72
11
 73
7
 74
5
 42
0.0000001
 43
0.0000001
 44
0.0000000001
 12
-0.004363262
 22
-0.9549310034
 32
0.0
 13
-0.8606697163
 23
-0.4137147553
 33
0.0
 40
0.0
 40
0.0
 40
0.0
 40
0.0
 40
0.2902474759
 40
0.5501977743
 40
0.7832268094
 40
1.0
 40
1.0
 40
1.0
 40
1.0
 10
43.6461479598
 20
-64.3072636524
 30
0.0
 10
43.6457258179
 20
-64.3996524235
 30
0.0
 10
43.6298925434
 20
-64.5753871831
 30
0.0
 10
43.5532717189
 20
-64.8152246326
 30
0.0
 10
43.4262543059
 20
-65.0063161708
 30
0.0
 10
43.3081808102
 20
-65.0937015676
 30
0.0
 10
43.2459907701
 20
-65.1235956567
 30
0.0
 11
43.6461479598
 21
-64.3072636524
 31
0.0
 11
43.618448116
 21
-64.5830452467
 31
0.0
 11
43.5395169424
 21
-64.8183993896
 31
0.0
 11
43.4132596687
 21
-65.0016430656
 31
0.0
 11
43.2459907701
 21
-65.1235956567
 31
0.0
  0
SPLINE
  5
442
100
AcDbEntity
  8
SMUSSO
100
AcDbSpline
 62
7
  6
CONTINUOUS
 70
0
 71
3
 72
11
 73
7
 74
5
 42
0.0000001
 43
0.0000001
 44
0.0000000001
 12
-0.63172695
 22
0.3140193892
 32
0.0
 13
-0.626012316
 23
-0.3252625038
 33
0.0
 40
0.0
 40
0.0
 40
0.0
 40
0.0
 40
0.2795017989
 40
0.5356010592
 40
0.7729772454
 40
1.0
 40
1.0
 40
1.0
 40
1.0
 10
-40.0217893843
 20
66.5250298794
 30
0.0
 10
-40.0806456572
 20
66.5542862075
 30
0.0
 10
-40.198314328
 20
66.6014446709
 30
0.0
 10
-40.3785685124
 20
66.6342280119
 30
0.0
 10
-40.5495056748
 20
66.6240898084
 30
0.0
 10
-40.6542686833
 20
66.5876261362
 30
0.0
 10
-40.7016416968
 20
66.5630121396
 30
0.0
 11
-40.0217893843
 21
66.5250298794
 31
0.0
 11
-40.2054248211
 21
66.5968488793
 31
0.0
 11
-40.3834734266
 21
66.6275150643
 31
0.0
 11
-40.5505472342
 21
66.6161245151
 31
0.0
 11
-40.7016416968
 21
66.5630121396
 31
0.0
  0
SPLINE
  5
443
100
AcDbEntity
  8
SMUSSO
100
AcDbSpline
 62
7
  6
CONTINUOUS
 70
0
 71
3
 72
11
 73
7
 74
5
 42
0.0000001
 43
0.0000001
 44
0.0000000001
 12
1.5713763602
 22
-1.1745064642
 32
0.0
 13
0.0094018
 23
-1.9617850815
 33
0.0
 40
0.0
 40
0.0
 40
0.0
 40
0.0
 40
0.2405098658
 40
0.4997174688
 40
0.7590756063
 40
1.0
 40
1.0
 40
1.0
 40
1.0
 10
42.7897213074
 20
26.4934159242
 30
0.0
 10
42.9156984799
 20
26.3992557935
 30
0.0
 10
43.1493850545
 20
26.1651961321
 30
0.0
 10
43.4177251334
 20
25.7437354327
 30
0.0
 10
43.5964293725
 20
25.2768630756
 30
0.0
 10
43.6453929188
 20
24.9494120079
 30
0.0
 10
43.6461479598
 20
24.7918647141
 30
0.0
 11
42.7897213074
 21
26.4934159242
 31
0.0
 11
43.1274303187
 21
26.1639010876
 31
0.0
 11
43.4023553797
 21
25.7361112187
 31
0.0
 11
43.5822891837
 21
25.2601782153
 31
0.0
 11
43.6461479598
 21
24.7918647141
 31
0.0
  0
SPLINE
  5
444
100
AcDbEntity
  8
SMUSSO
100
AcDbSpline
 62
7
  6
CONTINUOUS
 70
0
 71
3
 72
11
 73
7
 74
5
 42
0.0000001
 43
0.0000001
 44
0.0000000001
 12
0.8598830409
 22
0.4133362231
 32
0.0
 13
0.0024598947
 23
0.9540647914
 33
0.0
 40
0.0
 40
0.0
 40
0.0
 40
0.0
 40
0.2169693683
 40
0.4499919397
 40
0.7098619696
 40
1.0
 40
1.0
 40
1.0
 40
1.0
 10
41.8501457856
 20
-65.7946521985
 30
0.0
 10
41.9123352123
 20
-65.7647584321
 30
0.0
 10
42.0303748312
 20
-65.6774370366
 30
0.0
 10
42.1572010171
 20
-65.4864089024
 30
0.0
 10
42.2334658538
 20
-65.2467416576
 30
0.0
 10
42.248834313
 20
-65.0711820449
 30
0.0
 10
42.249072216
 20
-64.9789118851
 30
0.0
 11
41.8501457856
 21
-65.7946521985
 31
0.0
 11
42.0174126401
 21
-65.672700331
 31
0.0
 11
42.1434516776
 21
-65.489560867
 31
0.0
 11
42.2219898774
 21
-65.2543952745
 31
0.0
 11
42.249072216
 21
-64.9789118851
 31
0.0
  0
SPLINE
  5
445
100
AcDbEntity
  8
SMUSSO
100
AcDbSpline
 62
7
  6
CONTINUOUS
 70
0
 71
3
 72
12
 73
8
 74
6
 42
0.0000001
 43
0.0000001
 44
0.0000000001
 12
-0.0052606432
 22
2.202474034
 32
0.0
 13
-1.9674509784
 23
0.9899778747
 33
0.0
 40
0.0
 40
0.0
 40
0.0
 40
0.0
 40
0.2466152783
 40
0.5115689375
 40
0.6434285488
 40
0.7705685811
 40
1.0
 40
1.0
 40
1.0
 40
1.0
 10
42.249072216
 20
24.090610437
 30
0.0
 10
42.2486397643
 20
24.2716650193
 30
0.0
 10
42.1853809583
 20
24.6476472626
 30
0.0
 10
41.996093299
 20
25.0849685707
 30
0.0
 10
41.7832751775
 20
25.4066667667
 30
0.0
 10
41.5494766478
 20
25.6788476195
 30
0.0
 10
41.3389174541
 20
25.8441982957
 30
0.0
 10
41.1884524309
 20
25.9199089718
 30
0.0
 11
42.249072216
 21
24.090610437
 31
0.0
 11
42.1673748085
 21
24.6275965379
 31
0.0
 11
41.9371263917
 21
25.1638076534
 31
0.0
 11
41.776491522
 21
25.4057563437
 31
0.0
 11
41.59337073
 21
25.617605088
 31
0.0
 11
41.1884524309
 21
25.9199089718
 31
0.0
  0
SPLINE
  5
446
100
AcDbEntity
  8
SMUSSO
100
AcDbSpline
 62
7
  6
CONTINUOUS
 70
0
 71
3
 72
11
 73
7
 74
5
 42
0.0000001
 43
0.0000001
 44
0.0000000001
 12
0.5211626276
 22
-0.3908665127
 32
0.0
 13
0.0000000002
 23
-0.6514500097
 33
0.0
 40
0.0
 40
0.0
 40
0.0
 40
0.0
 40
0.2409429556
 40
0.5000138533
 40
0.7590645364
 40
1.0
 40
1.0
 40
1.0
 40
1.0
 10
41.2774052785
 20
25.1103545846
 30
0.0
 10
41.3192620998
 20
25.078962407
 30
0.0
 10
41.3968002086
 20
25.001084457
 30
0.0
 10
41.4856378906
 20
24.8609492592
 30
0.0
 10
41.5444338658
 20
24.7057926785
 30
0.0
 10
41.5601829553
 20
24.5970387723
 30
0.0
 10
41.5601829553
 20
24.5447196356
 30
0.0
 11
41.2774052785
 21
25.1103545846
 31
0.0
 11
41.389572929
 21
25.0005566843
 31
0.0
 11
41.4805134952
 21
24.8583817454
 31
0.0
 11
41.5396683627
 21
24.7003306252
 31
0.0
 11
41.5601829553
 21
24.5447196356
 31
0.0
  0
SPLINE
  5
447
100
AcDbEntity
  8
SMUSSO
100
AcDbSpline
 62
7
  6
CONTINUOUS
 70
0
 71
3
 72
9
 73
5
 74
3
 42
0.0000001
 43
0.0000001
 44
0.0000000001
 12
0.1334376539
 22
-0.1000702419
 32
0.0
 13
0.14918354
 23
-0.0745917702
 33
0.0
 40
0.0
 40
0.0
 40
0.0
 40
0.0
 40
0.258699887
 40
1.0
 40
1.0
 40
1.0
 40
1.0
 10
-43.0804893959
 20
-26.1714258065
 30
0.0
 10
-43.0689826272
 20
-26.1800551933
 30
0.0
 10
-43.0238335292
 20
-26.2124987071
 30
0.0
 10
-42.9759406548
 20
-26.2412063002
 30
0.0
 10
-42.9390773965
 20
-26.2596379294
 30
0.0
 11
-43.0804893959
 21
-26.1714258065
 31
0.0
 11
-43.0454388651
 21
-26.1965914311
 31
0.0
 11
-42.9390773965
 21
-26.2596379294
 31
0.0
  0
SPLINE
  5
448
100
AcDbEntity
  8
SMUSSO
100
AcDbSpline
 62
7
  6
CONTINUOUS
 70
0
 71
3
 72
11
 73
7
 74
5
 42
0.0000001
 43
0.0000001
 44
0.0000000001
 12
0.4148284081
 22
0.2074204088
 32
0.0
 13
0.41483089
 23
-0.2074154449
 33
0.0
 40
0.0
 40
0.0
 40
0.0
 40
0.0
 40
0.2271156206
 40
0.4646633313
 40
0.7207940344
 40
1.0
 40
1.0
 40
1.0
 40
1.0
 10
-41.6185223037
 20
66.4513371053
 30
0.0
 10
-41.5871176332
 20
66.4670399103
 30
0.0
 10
-41.5179127113
 20
66.4900638145
 30
0.0
 10
-41.4054686725
 20
66.4956992937
 30
0.0
 10
-41.2871329919
 20
66.4734561695
 30
0.0
 10
-41.2099181966
 20
66.4422422248
 30
0.0
 10
-41.1713104435
 20
66.4229383483
 30
0.0
 11
-41.6185223037
 21
66.4513371053
 31
0.0
 11
-41.5186821901
 21
66.4849143952
 31
0.0
 11
-41.4086980818
 21
66.4913707661
 31
0.0
 11
-41.2917533951
 21
66.4705017756
 31
0.0
 11
-41.1713104435
 21
66.4229383483
 31
0.0
  0
SPLINE
  5
449
100
AcDbEntity
  8
SMUSSO
100
AcDbSpline
 62
7
  6
CONTINUOUS
 70
0
 71
3
 72
11
 73
7
 74
5
 42
0.0000001
 43
0.0000001
 44
0.0000000001
 12
-0.5632490194
 22
-0.2816005953
 32
0.0
 13
-0.0000000006
 23
-0.6297208533
 33
0.0
 40
0.0
 40
0.0
 40
0.0
 40
0.0
 40
0.2171542898
 40
0.4504213951
 40
0.7102377337
 40
1.0
 40
1.0
 40
1.0
 40
1.0
 10
-43.3862902555
 20
65.5674568951
 30
0.0
 10
-43.4270609025
 20
65.5470733026
 30
0.0
 10
-43.5042105288
 20
65.4883782418
 30
0.0
 10
-43.5868736084
 20
65.3615828514
 30
0.0
 10
-43.6363566612
 20
65.2032035091
 30
0.0
 10
-43.6461841776
 20
65.0874059724
 30
0.0
 10
-43.6461841777
 20
65.0265828586
 30
0.0
 11
-43.3862902555
 21
65.5674568951
 31
0.0
 11
-43.4957035162
 21
65.4854302725
 31
0.0
 11
-43.5779151369
 21
65.3636975733
 31
0.0
 11
-43.6288962693
 21
65.2082313896
 31
0.0
 11
-43.6461841777
 21
65.0265828586
 31
0.0
  0
SPLINE
  5
44A
100
AcDbEntity
  8
SMUSSO
100
AcDbSpline
 62
7
  6
CONTINUOUS
 70
0
 71
3
 72
9
 73
5
 74
3
 42
0.0000001
 43
0.0000001
 44
0.0000000001
 12
0.1491934848
 22
-0.0745967426
 32
0.0
 13
0.1334480296
 23
-0.1000749384
 33
0.0
 40
0.0
 40
0.0
 40
0.0
 40
0.0
 40
0.241268694
 40
1.0
 40
1.0
 40
1.0
 40
1.0
 10
40.8530761741
 20
25.4107450394
 30
0.0
 10
40.8650747465
 20
25.4047457532
 30
0.0
 10
40.9141784832
 20
25.3786329958
 30
0.0
 10
40.9607470498
 20
25.3478474806
 30
0.0
 10
40.9944974491
 20
25.3225374843
 30
0.0
 11
40.8530761741
 21
25.4107450394
 31
0.0
 11
40.8886215616
 21
25.3918733675
 31
0.0
 11
40.9944974491
 21
25.3225374843
 31
0.0
  0
SPLINE
  5
44B
100
AcDbEntity
  8
SMUSSO
100
AcDbSpline
 62
7
  6
CONTINUOUS
 70
0
 71
3
 72
11
 73
7
 74
5
 42
0.0000001
 43
0.0000001
 44
0.0000000001
 12
-0.0000000006
 22
-0.6297204291
 32
0.0
 13
-0.5632357047
 23
-0.2816262768
 33
0.0
 40
0.0
 40
0.0
 40
0.0
 40
0.0
 40
0.2897540007
 40
0.5495824015
 40
0.7828478708
 40
1.0
 40
1.0
 40
1.0
 40
1.0
 10
41.5601829553
 20
-65.8754757485
 30
0.0
 10
41.5601829552
 20
-65.9362970864
 30
0.0
 10
41.5503707333
 20
-66.0520976756
 30
0.0
 10
41.5008689668
 20
-66.2104720045
 30
0.0
 10
41.4182093316
 20
-66.3372710102
 30
0.0
 10
41.3410573117
 20
-66.3959612702
 30
0.0
 10
41.3002880343
 20
-66.4163465188
 30
0.0
 11
41.5601829553
 21
-65.8754757485
 31
0.0
 11
41.5429040889
 21
-66.0571197879
 31
0.0
 11
41.4919125754
 21
-66.212590445
 31
0.0
 11
41.4097008292
 21
-66.3343216968
 31
0.0
 11
41.3002880343
 21
-66.4163465188
 31
0.0
  0
SPLINE
  5
44C
100
AcDbEntity
  8
SMUSSO
100
AcDbSpline
 62
7
  6
CONTINUOUS
 70
0
 71
3
 72
11
 73
7
 74
5
 42
0.0000001
 43
0.0000001
 44
0.0000000001
 12
0.4148320327
 22
-0.2074160141
 32
0.0
 13
0.4148390773
 23
0.2074019244
 33
0.0
 40
0.0
 40
0.0
 40
0.0
 40
0.0
 40
0.2792430017
 40
0.5353250678
 40
0.7728906288
 40
1.0
 40
1.0
 40
1.0
 40
1.0
 10
39.0853092211
 20
-67.2718312382
 30
0.0
 10
39.1239222018
 20
-67.2911377283
 30
0.0
 10
39.2011396731
 20
-67.322340861
 30
0.0
 10
39.3194733689
 20
-67.3445923003
 30
0.0
 10
39.4319139183
 20
-67.3389626319
 30
0.0
 10
39.5011188334
 20
-67.3159335514
 30
0.0
 10
39.5325234474
 20
-67.3002325779
 30
0.0
 11
39.0853092211
 21
-67.2718312382
 31
0.0
 11
39.2057712546
 21
-67.3193940811
 31
0.0
 11
39.3226933334
 21
-67.3402632172
 31
0.0
 11
39.4326862433
 21
-67.333810336
 31
0.0
 11
39.5325234474
 21
-67.3002325779
 31
0.0
  0
SPLINE
  5
44D
100
AcDbEntity
  8
SMUSSO
100
AcDbSpline
 62
7
  6
CONTINUOUS
 70
0
 71
3
 72
11
 73
7
 74
5
 42
0.0000001
 43
0.0000001
 44
0.0000000001
 12
0.5632502642
 22
0.2816012163
 32
0.0
 13
-0.0000000006
 23
0.6297222444
 33
0.0
 40
0.0
 40
0.0
 40
0.0
 40
0.0
 40
0.2171526606
 40
0.4504138247
 40
0.7102544983
 40
1.0
 40
1.0
 40
1.0
 40
1.0
 10
39.5325234474
 20
-67.3002325779
 30
0.0
 10
39.5732938786
 20
-67.2798490934
 30
0.0
 10
39.6504446568
 20
-67.2211556673
 30
0.0
 10
39.7330983876
 20
-67.0943527469
 30
0.0
 10
39.782617543
 20
-66.9359827162
 30
0.0
 10
39.7924160024
 20
-66.8201789542
 30
0.0
 10
39.7924160023
 20
-66.759359225
 30
0.0
 11
39.5325234474
 21
-67.3002325779
 31
0.0
 11
39.6419360501
 21
-67.2182062843
 31
0.0
 11
39.7241441628
 21
-67.0964753391
 31
0.0
 11
39.7751452327
 21
-66.9409991867
 31
0.0
 11
39.7924160023
 21
-66.759359225
 31
0.0
  0
SPLINE
  5
44E
100
AcDbEntity
  8
SMUSSO
100
AcDbSpline
 62
7
  6
CONTINUOUS
 70
0
 71
3
 72
11
 73
7
 74
5
 42
0.0000001
 43
0.0000001
 44
0.0000000001
 12
1.0424932166
 22
-0.7817833261
 32
0.0
 13
0.0000000004
 23
-1.3030645708
 33
0.0
 40
0.0
 40
0.0
 40
0.0
 40
0.0
 40
0.240927342
 40
0.4999984982
 40
0.7590654985
 40
1.0
 40
1.0
 40
1.0
 40
1.0
 10
40.9944974491
 20
25.3225374843
 30
0.0
 10
41.0782191557
 20
25.259753158
 30
0.0
 10
41.2333428661
 20
25.1040158766
 30
0.0
 10
41.4110467259
 20
24.8237096539
 30
0.0
 10
41.5286780281
 20
24.5133603218
 30
0.0
 10
41.5601829553
 20
24.295817316
 30
0.0
 10
41.5601829553
 20
24.1911662451
 30
0.0
 11
40.9944974491
 21
25.3225374843
 31
0.0
 11
41.2188745524
 21
25.1029567987
 31
0.0
 11
41.4007959622
 21
24.8185816794
 31
0.0
 11
41.5191444266
 21
24.5024257172
 31
0.0
 11
41.5601829553
 21
24.1911662451
 31
0.0
  0
SPLINE
  5
44F
100
AcDbEntity
  8
SMUSSO
100
AcDbSpline
 62
7
  6
CONTINUOUS
 70
0
 71
3
 72
11
 73
7
 74
5
 42
0.0000001
 43
0.0000001
 44
0.0000000001
 12
0.0000000064
 22
1.4682168624
 32
0.0
 13
-1.3132130846
 23
0.6566065408
 33
0.0
 40
0.0
 40
0.0
 40
0.0
 40
0.0
 40
0.2467918265
 40
0.5117852553
 40
0.770325913
 40
1.0
 40
1.0
 40
1.0
 40
1.0
 10
39.7924160023
 20
23.3072827686
 30
0.0
 10
39.7924160029
 20
23.4280640756
 30
0.0
 10
39.7507312106
 20
23.6789644235
 30
0.0
 10
39.5997961457
 20
24.0279066352
 30
0.0
 10
39.3779547194
 20
24.3262928719
 30
0.0
 10
39.1858462265
 20
24.4765930604
 30
0.0
 10
39.0853092211
 20
24.5268615629
 30
0.0
 11
39.7924160023
 21
23.3072827686
 31
0.0
 11
39.7385889494
 21
23.6656063173
 31
0.0
 11
39.5853076777
 21
24.0232075208
 31
0.0
 11
39.3559032867
 21
24.3256394023
 31
0.0
 11
39.0853092211
 21
24.5268615629
 31
0.0
  0
SPLINE
  5
450
100
AcDbEntity
  8
SMUSSO
100
AcDbSpline
 62
7
  6
CONTINUOUS
 70
0
 71
3
 72
11
 73
7
 74
5
 42
0.0000001
 43
0.0000001
 44
0.0000000001
 12
-0.4148339059
 22
0.2074169551
 32
0.0
 13
-0.4148409518
 23
-0.2074028626
 33
0.0
 40
0.0
 40
0.0
 40
0.0
 40
0.0
 40
0.2792071299
 40
0.5353281238
 40
0.7728865369
 40
1.0
 40
1.0
 40
1.0
 40
1.0
 10
-42.9390773965
 20
65.5390548718
 30
0.0
 10
-42.9776855912
 20
65.5583589693
 30
0.0
 10
-43.0548936242
 20
65.5895915122
 30
0.0
 10
-43.1732351146
 20
65.611809171
 30
0.0
 10
-43.285679952
 20
65.6061901125
 30
0.0
 10
-43.3548849338
 20
65.5831582225
 30
0.0
 10
-43.3862902555
 20
65.5674568951
 30
0.0
 11
-42.9390773965
 21
65.5390548718
 31
0.0
 11
-43.0595179254
 21
65.5866284669
 31
0.0
 11
-43.1764607391
 21
65.6074872355
 31
0.0
 11
-43.2864509075
 21
65.6010357252
 31
0.0
 11
-43.3862902555
 21
65.5674568951
 31
0.0
  0
ELLIPSE
  5
451
100
AcDbEntity
  8
RACCORDO
100
AcDbEllipse
 62
7
  6
CONTINUOUS
 10
-28.4192449238
 20
33.8133662138
 30
0.0
 11
-0.313181275
 21
0.626269159
 31
0.0
 40
0.6121897086
 41
-0.6846338794
 42
0.019259411
  0
ELLIPSE
  5
452
100
AcDbEntity
  8
RACCORDO
100
AcDbEllipse
 62
7
  6
CONTINUOUS
 10
23.1512631861
 20
-36.2532493614
 30
0.0
 11
-0.313181275
 21
0.626269159
 31
0.0
 40
0.6121897086
 41
-3.160544254
 42
-2.2557347926
  0
ELLIPSE
  5
453
100
AcDbEntity
  8
RACCORDO
100
AcDbEllipse
 62
7
  6
CONTINUOUS
 10
23.1512631861
 20
8.0281121588
 30
0.0
 11
-0.3130130858
 21
0.6261196575
 31
0.0
 40
0.6125552124
 41
-2.255296188
 42
-0.6848044477
  0
ELLIPSE
  5
454
100
AcDbEntity
  8
RACCORDO
100
AcDbEllipse
 62
7
  6
CONTINUOUS
 10
-25.0790446902
 20
-7.994791608
 30
0.0
 11
-0.1341484654
 21
0.2683369961
 31
0.0
 40
0.6125552124
 41
0.8862964655
 42
2.4567882058
  0
ELLIPSE
  5
455
100
AcDbEntity
  8
RACCORDO
100
AcDbEllipse
 62
7
  6
CONTINUOUS
 10
-24.5649769982
 20
-7.7493585827
 30
0.0
 11
-0.1340229113
 21
0.2684080287
 31
0.0
 40
0.6140178746
 41
0.8880524522
 42
2.4561097232
  0
ELLIPSE
  5
456
100
AcDbEntity
  8
RACCORDO
100
AcDbEllipse
 62
7
  6
CONTINUOUS
 10
-10.2863189794
 20
-14.7683286222
 30
0.0
 11
-0.1342205464
 21
0.2684010681
 31
0.0
 40
0.6121897086
 41
-0.6846338794
 42
0.0192594208
  0
ELLIPSE
  5
457
100
AcDbEntity
  8
RACCORDO
100
AcDbEllipse
 62
7
  6
CONTINUOUS
 10
5.6235835973
 20
-22.7232799106
 30
0.0
 11
-0.1342205464
 21
0.2684010681
 31
0.0
 40
0.6121897086
 41
-0.6846338794
 42
0.0192594208
  0
ELLIPSE
  5
458
100
AcDbEntity
  8
RACCORDO
100
AcDbEllipse
 62
7
  6
CONTINUOUS
 10
18.4024358714
 20
-29.0404837166
 30
0.0
 11
-0.1341371037
 21
0.2683722998
 31
0.0
 40
0.6123537661
 41
-0.6845550499
 42
0.0106825902
  0
ELLIPSE
  5
459
100
AcDbEntity
  8
RACCORDO
100
AcDbEllipse
 62
7
  6
CONTINUOUS
 10
2.4925332947
 20
-21.0855324283
 30
0.0
 11
-0.1341371037
 21
0.2683722998
 31
0.0
 40
0.6123537661
 41
-0.6845550499
 42
0.0106825902
  0
ELLIPSE
  5
45A
100
AcDbEntity
  8
RACCORDO
100
AcDbEllipse
 62
7
  6
CONTINUOUS
 10
11.137782231
 20
-25.4081568964
 30
0.0
 11
-0.1342205464
 21
0.2684010681
 31
0.0
 40
0.6121897086
 41
-0.6846338794
 42
0.019259411
  0
ELLIPSE
  5
45B
100
AcDbEntity
  8
RACCORDO
100
AcDbEllipse
 62
7
  6
CONTINUOUS
 10
-13.417369282
 20
-13.1305811399
 30
0.0
 11
-0.1341371037
 21
0.2683722998
 31
0.0
 40
0.6123537661
 41
-0.6845550499
 42
0.0106825902
  0
ELLIPSE
  5
45C
100
AcDbEntity
  8
RACCORDO
100
AcDbEllipse
 62
7
  6
CONTINUOUS
 10
-4.7721203457
 20
-17.4532056081
 30
0.0
 11
-0.1342205464
 21
0.2684010681
 31
0.0
 40
0.6121897086
 41
-0.6846338794
 42
0.019259411
  0
ELLIPSE
  5
45D
100
AcDbEntity
  8
RACCORDO
100
AcDbEllipse
 62
7
  6
CONTINUOUS
 10
-24.2361353478
 20
-1.2486823731
 30
0.0
 11
-0.1341484654
 21
0.2683369961
 31
0.0
 40
0.6125552124
 41
-2.255296188
 42
-0.6848044477
  0
ELLIPSE
  5
45E
100
AcDbEntity
  8
RACCORDO
100
AcDbEllipse
 62
7
  6
CONTINUOUS
 10
-24.2361353478
 20
25.6435338852
 30
0.0
 11
-0.1342205464
 21
0.2684010681
 31
0.0
 40
0.6121897086
 41
-3.160544254
 42
-2.2557347926
  0
ELLIPSE
  5
45F
100
AcDbEntity
  8
RACCORDO
100
AcDbEllipse
 62
7
  6
CONTINUOUS
 10
-24.2361353478
 20
17.8038765102
 30
0.0
 11
-0.1341484654
 21
0.2683369961
 31
0.0
 40
0.6125552124
 41
-2.255296188
 42
-0.6848044477
  0
ELLIPSE
  5
460
100
AcDbEntity
  8
RACCORDO
100
AcDbEllipse
 62
7
  6
CONTINUOUS
 10
-24.2361353478
 20
6.5909750019
 30
0.0
 11
-0.1342205464
 21
0.2684010681
 31
0.0
 40
0.6121897086
 41
-3.160544254
 42
-2.2557347926
  0
ELLIPSE
  5
461
100
AcDbEntity
  8
RACCORDO
100
AcDbEllipse
 62
7
  6
CONTINUOUS
 10
-11.173173788
 20
-14.2526788869
 30
0.0
 11
-0.1341484654
 21
0.2683369961
 31
0.0
 40
0.6125552124
 41
-2.255296188
 42
-0.6848044477
  0
ELLIPSE
  5
462
100
AcDbEntity
  8
RACCORDO
100
AcDbEllipse
 62
7
  6
CONTINUOUS
 10
-18.4378274284
 20
-10.6203520667
 30
0.0
 11
-0.1341371037
 21
0.2683722998
 31
0.0
 40
0.6123537661
 41
-2.2553513767
 42
-0.6845550499
  0
ELLIPSE
  5
463
100
AcDbEntity
  8
RACCORDO
100
AcDbEllipse
 62
7
  6
CONTINUOUS
 10
13.381977725
 20
-26.5302546434
 30
0.0
 11
-0.1341371037
 21
0.2683722998
 31
0.0
 40
0.6123537661
 41
-2.2553513767
 42
-0.6845550499
  0
ELLIPSE
  5
464
100
AcDbEntity
  8
RACCORDO
100
AcDbEllipse
 62
7
  6
CONTINUOUS
 10
-2.5279248517
 20
-18.575303355
 30
0.0
 11
-0.1341371037
 21
0.2683722998
 31
0.0
 40
0.6123537661
 41
-2.2553513767
 42
-0.6845550499
  0
ELLIPSE
  5
465
100
AcDbEntity
  8
RACCORDO
100
AcDbEllipse
 62
7
  6
CONTINUOUS
 10
4.7367287887
 20
-22.2076301752
 30
0.0
 11
-0.1341484654
 21
0.2683369961
 31
0.0
 40
0.6125552124
 41
-2.255296188
 42
-0.6848044477
  0
ELLIPSE
  5
466
100
AcDbEntity
  8
ASSI
100
AcDbEllipse
 62
7
  6
CONTINUOUS
 10
17.5111408157
 20
-26.9255916416
 30
0.0
 11
0.0974129977
 21
0.1748074534
 31
0.0
 40
0.6437101552
 41
0.6611775963
 42
0.7135374739
  0
ELLIPSE
  5
467
100
AcDbEntity
  8
ASSI
100
AcDbEllipse
 62
7
  6
CONTINUOUS
 10
-14.3086643377
 20
-11.0156890649
 30
0.0
 11
0.0974129977
 21
0.1748074534
 31
0.0
 40
0.6437101552
 41
0.6611775963
 42
0.7135374739
  0
ELLIPSE
  5
468
100
AcDbEntity
  8
ASSI
100
AcDbEllipse
 62
7
  6
CONTINUOUS
 10
1.601238239
 20
-19.0572428936
 30
0.0
 11
0.0974129977
 21
0.1748074534
 31
0.0
 40
0.6437101552
 41
0.6611775963
 42
0.7135374739
  0
ELLIPSE
  5
469
100
AcDbEntity
  8
RACCORDO
100
AcDbEllipse
 62
7
  6
CONTINUOUS
 10
-24.849540249
 20
24.9252527334
 30
0.0
 11
0.4999863728
 21
0.0072295547
 31
0.0
 40
0.5106100819
 41
-0.6779572665
 42
-0.0074189432
  0
ELLIPSE
  5
46A
100
AcDbEntity
  8
RACCORDO
100
AcDbEllipse
 62
7
  6
CONTINUOUS
 10
-24.849540249
 20
5.8726938501
 30
0.0
 11
0.4999863728
 21
0.0072295547
 31
0.0
 40
0.5106100819
 41
-0.6779572665
 42
-0.0074189432
  0
ELLIPSE
  5
46B
100
AcDbEntity
  8
RACCORDO
100
AcDbEllipse
 62
7
  6
CONTINUOUS
 10
-24.3080802854
 20
18.9419117197
 30
0.0
 11
-0.1342205464
 21
0.2684010681
 31
0.0
 40
0.6121897086
 41
-3.160544254
 42
-2.2557347926
  0
ELLIPSE
  5
46C
100
AcDbEntity
  8
RACCORDO
100
AcDbEllipse
 62
7
  6
CONTINUOUS
 10
-24.3080802854
 20
24.436022257
 30
0.0
 11
-0.1341484654
 21
0.2683369961
 31
0.0
 40
0.6125552124
 41
-2.255296188
 42
-0.6848044477
  0
ELLIPSE
  5
46D
100
AcDbEntity
  8
RACCORDO
100
AcDbEllipse
 62
7
  6
CONTINUOUS
 10
-24.3080802854
 20
-0.1106471636
 30
0.0
 11
-0.1342205464
 21
0.2684010681
 31
0.0
 40
0.6121897086
 41
-3.160544254
 42
-2.2557347926
  0
ELLIPSE
  5
46E
100
AcDbEntity
  8
RACCORDO
100
AcDbEllipse
 62
7
  6
CONTINUOUS
 10
-24.3080802854
 20
5.3834633738
 30
0.0
 11
-0.1341484654
 21
0.2683369961
 31
0.0
 40
0.6125552124
 41
-2.255296188
 42
-0.6848044477
  0
ELLIPSE
  5
46F
100
AcDbEntity
  8
RACCORDO
100
AcDbEllipse
 62
7
  6
CONTINUOUS
 10
-5.8003965104
 20
-17.0112898567
 30
0.0
 11
-0.1341484654
 21
0.2683369961
 31
0.0
 40
0.6125552124
 41
-2.255296188
 42
-0.6848044477
  0
ELLIPSE
  5
470
100
AcDbEntity
  8
RACCORDO
100
AcDbEllipse
 62
7
  6
CONTINUOUS
 10
10.1095060663
 20
-24.9662411451
 30
0.0
 11
-0.1341484654
 21
0.2683369961
 31
0.0
 40
0.6125552124
 41
-2.255296188
 42
-0.6848044477
  0
ELLIPSE
  5
471
100
AcDbEntity
  8
RACCORDO
100
AcDbEllipse
 62
7
  6
CONTINUOUS
 10
9.1742218775
 20
-25.4374893548
 30
0.0
 11
-0.1341484654
 21
0.2683369961
 31
0.0
 40
0.6125552124
 41
4.462141554
 42
5.5983808594
  0
ELLIPSE
  5
472
100
AcDbEntity
  8
RACCORDO
100
AcDbEllipse
 62
7
  6
CONTINUOUS
 10
4.7203901549
 20
-23.2105734935
 30
0.0
 11
-0.1342205464
 21
0.2684010681
 31
0.0
 40
0.6121897086
 41
-0.6846338794
 42
0.6678777033
  0
ELLIPSE
  5
473
100
AcDbEntity
  8
RACCORDO
100
AcDbEllipse
 62
7
  6
CONTINUOUS
 10
-6.7356806992
 20
-17.4825380665
 30
0.0
 11
-0.1341484654
 21
0.2683369961
 31
0.0
 40
0.6125552124
 41
4.462141554
 42
5.5983808594
  0
ELLIPSE
  5
474
100
AcDbEntity
  8
RACCORDO
100
AcDbEllipse
 62
7
  6
CONTINUOUS
 10
-11.1895124218
 20
-15.2556222052
 30
0.0
 11
-0.1342205464
 21
0.2684010681
 31
0.0
 40
0.6121897086
 41
-0.6846338794
 42
0.6678777033
  0
ELLIPSE
  5
475
100
AcDbEntity
  8
ASSI
100
AcDbEllipse
 62
7
  6
CONTINUOUS
 10
-10.0512004921
 20
-13.1444209876
 30
0.0
 11
0.0823576675
 21
0.1823694112
 31
0.0
 40
0.5796795686
 41
0.6094740628
 42
0.6618339404
  0
ELLIPSE
  5
476
100
AcDbEntity
  8
ASSI
100
AcDbEllipse
 62
7
  6
CONTINUOUS
 10
5.8587020846
 20
-21.1859748164
 30
0.0
 11
0.0823576675
 21
0.1823694112
 31
0.0
 40
0.5796795686
 41
0.6094740628
 42
0.6618339404
  0
ELLIPSE
  5
477
100
AcDbEntity
  8
RACCORDO
100
AcDbEllipse
 62
7
  6
CONTINUOUS
 10
-24.8116948485
 20
6.3251625511
 30
0.0
 11
-0.1342205464
 21
0.2684010681
 31
0.0
 40
0.6121897086
 41
2.6191002879
 42
4.0274505145
  0
ELLIPSE
  5
478
100
AcDbEntity
  8
RACCORDO
100
AcDbEllipse
 62
7
  6
CONTINUOUS
 10
-24.8116948485
 20
17.5138776119
 30
0.0
 11
-0.1341484654
 21
0.2683369961
 31
0.0
 40
0.6125552124
 41
-2.255296188
 42
-0.8469459614
  0
ELLIPSE
  5
479
100
AcDbEntity
  8
RACCORDO
100
AcDbEllipse
 62
7
  6
CONTINUOUS
 10
-25.2433644741
 20
18.509966487
 30
0.0
 11
-0.1342205464
 21
0.2684010681
 31
0.0
 40
0.6121897086
 41
2.4569587742
 42
4.0274505145
  0
ELLIPSE
  5
47A
100
AcDbEntity
  8
RACCORDO
100
AcDbEllipse
 62
7
  6
CONTINUOUS
 10
-13.9830547069
 20
-13.4255170761
 30
0.0
 11
-0.1341371037
 21
0.2683722998
 31
0.0
 40
0.6123537661
 41
-0.6845550499
 42
0.3838458874
  0
ELLIPSE
  5
47B
100
AcDbEntity
  8
RACCORDO
100
AcDbEllipse
 62
7
  6
CONTINUOUS
 10
-11.7487332888
 20
-14.5426777852
 30
0.0
 11
-0.1341484654
 21
0.2683369961
 31
0.0
 40
0.6125552124
 41
-1.7532033366
 42
-0.6848044477
  0
ELLIPSE
  5
47C
100
AcDbEntity
  8
RACCORDO
100
AcDbEllipse
 62
7
  6
CONTINUOUS
 10
-24.8116948485
 20
-1.5386812714
 30
0.0
 11
-0.1341484654
 21
0.2683369961
 31
0.0
 40
0.6125552124
 41
-2.255296188
 42
-0.8469459614
  0
ELLIPSE
  5
47D
100
AcDbEntity
  8
RACCORDO
100
AcDbEllipse
 62
7
  6
CONTINUOUS
 10
-19.0035128533
 20
-10.9152880029
 30
0.0
 11
-0.1341371037
 21
0.2683722998
 31
0.0
 40
0.6123537661
 41
-1.7529559873
 42
-0.6845550499
  0
ELLIPSE
  5
47E
100
AcDbEntity
  8
ASSI
100
AcDbEllipse
 62
7
  6
CONTINUOUS
 10
5.7170866493
 20
-21.5407652757
 30
0.0
 11
0.1997674032
 21
0.1243735635
 31
0.0
 40
0.0775313764
 41
5.4495541764
 42
6.9679906257
  0
ELLIPSE
  5
47F
100
AcDbEntity
  8
RACCORDO
100
AcDbEllipse
 62
7
  6
CONTINUOUS
 10
-25.2433644741
 20
-0.5425923962
 30
0.0
 11
-0.1342205464
 21
0.2684010681
 31
0.0
 40
0.6121897086
 41
2.4569587742
 42
4.0274505145
  0
ELLIPSE
  5
480
100
AcDbEntity
  8
ASSI
100
AcDbEllipse
 62
7
  6
CONTINUOUS
 10
-10.1928159274
 20
-13.5858139874
 30
0.0
 11
0.1997674032
 21
0.1243735635
 31
0.0
 40
0.0775313764
 41
5.4495541764
 42
6.9679906257
  0
ELLIPSE
  5
481
100
AcDbEntity
  8
RACCORDO
100
AcDbEllipse
 62
7
  6
CONTINUOUS
 10
1.9268478698
 20
-21.3804683644
 30
0.0
 11
-0.1341371037
 21
0.2683722998
 31
0.0
 40
0.6123537661
 41
-0.6845550499
 42
0.3838458874
  0
ELLIPSE
  5
482
100
AcDbEntity
  8
RACCORDO
100
AcDbEllipse
 62
7
  6
CONTINUOUS
 10
4.1611692879
 20
-22.4976290735
 30
0.0
 11
-0.1341484654
 21
0.2683369961
 31
0.0
 40
0.6125552124
 41
-1.7532033366
 42
-0.6848044477
  0
ELLIPSE
  5
483
100
AcDbEntity
  8
RACCORDO
100
AcDbEllipse
 62
7
  6
CONTINUOUS
 10
-5.3279316948
 20
-17.7530785822
 30
0.0
 11
-0.1342205464
 21
0.2684010681
 31
0.0
 40
0.6121897086
 41
-0.6846338794
 42
0.3837650063
  0
ELLIPSE
  5
484
100
AcDbEntity
  8
RACCORDO
100
AcDbEllipse
 62
7
  6
CONTINUOUS
 10
-3.0936102766
 20
-18.8702392912
 30
0.0
 11
-0.1341371037
 21
0.2683722998
 31
0.0
 40
0.6123537661
 41
-1.7529559873
 42
-0.6845550499
  0
ELLIPSE
  5
485
100
AcDbEntity
  8
RACCORDO
100
AcDbEllipse
 62
7
  6
CONTINUOUS
 10
-24.8116948485
 20
25.3777214343
 30
0.0
 11
-0.1342205464
 21
0.2684010681
 31
0.0
 40
0.6121897086
 41
2.6191002879
 42
4.0274505145
  0
ELLIPSE
  5
486
100
AcDbEntity
  8
RACCORDO
100
AcDbEllipse
 62
7
  6
CONTINUOUS
 10
17.8367504465
 20
-29.3354196528
 30
0.0
 11
-0.1341371037
 21
0.2683722998
 31
0.0
 40
0.6123537661
 41
-0.6845550499
 42
0.3838458874
  0
ELLIPSE
  5
487
100
AcDbEntity
  8
RACCORDO
100
AcDbEllipse
 62
7
  6
CONTINUOUS
 10
10.5819708819
 20
-25.7080298705
 30
0.0
 11
-0.1342205464
 21
0.2684010681
 31
0.0
 40
0.6121897086
 41
-0.6846338794
 42
0.3837650063
  0
ELLIPSE
  5
488
100
AcDbEntity
  8
RACCORDO
100
AcDbEllipse
 62
7
  6
CONTINUOUS
 10
12.8162923001
 20
-26.8251905796
 30
0.0
 11
-0.1341371037
 21
0.2683722998
 31
0.0
 40
0.6123537661
 41
-1.7529559873
 42
-0.6845550499
  0
ELLIPSE
  5
489
100
AcDbEntity
  8
RACCORDO
100
AcDbEllipse
 62
7
  6
CONTINUOUS
 10
-25.2433644741
 20
4.912215164
 30
0.0
 11
-0.1341484654
 21
0.2683369961
 31
0.0
 40
0.6125552124
 41
-2.255296188
 42
-0.6848044477
  0
ELLIPSE
  5
48A
100
AcDbEntity
  8
RACCORDO
100
AcDbEllipse
 62
7
  6
CONTINUOUS
 10
-25.2433644741
 20
23.9647740473
 30
0.0
 11
-0.1341484654
 21
0.2683369961
 31
0.0
 40
0.6125552124
 41
-2.255296188
 42
-0.6848044477
  0
ENDSEC
  0
SECTION
  2
OBJECTS
  0
DICTIONARY
  5
C
100
AcDbDictionary
280
0
281
1
  3
ACAD_GROUP
350
D
  3
ACAD_MLINESTYLE
350
17
  3
ACAD_LAYOUT
350
1A
  3
ACAD_PLOTSETTINGS
350
19
  3
ACAD_PLOTSTYLENAME
350
E
  0
DICTIONARY
  5
D
102
{ACAD_REACTORS
330
C
102
}
100
AcDbDictionary
280
0
281
1
  0
ACDBDICTIONARYWDFLT
  5
E
102
{ACAD_REACTORS
330
C
102
}
100
AcDbDictionary
281
1
  3
Normal
350
F
100
AcDbDictionaryWithDefault
340
F
  0
DICTIONARY
  5
17
102
{ACAD_REACTORS
330
C
102
}
100
AcDbDictionary
280
0
281
1
  3
Standard
350
18
  0
DICTIONARY
  5
19
102
{ACAD_REACTORS
330
C
102
}
100
AcDbDictionary
281
1
  0
DICTIONARY
  5
1A
102
{ACAD_REACTORS
330
C
102
}
100
AcDbDictionary
281
1
  3
Model
350
48B
  3
Layout1
350
48C
  0
ACDBPLACEHOLDER
  5
F
102
{ACAD_REACTORS
330
E
102
}
  0
MLINESTYLE
  5
18
102
{ACAD_REACTORS
330
17
102
}
100
AcDbMlineStyle
  2
STANDARD
 70
0
  3

 62
256
 51
90.0
 52
90.0
 71
2
 49
0.5
 62
256
  6
BYLAYER
 49
-0.5
 62
256
  6
BYLAYER
  0
LAYOUT
  5
48B
102
{ACAD_REACTORS
330
1A
102
}
100
AcDbPlotSettings
  1

  2
none_device
  4
ISO_A4_(297.00_x_210.00_MM)
  6

 40
0.0
 41
0.0
 42
0.0
 43
0.0
 44
297.0
 45
210.0
 46
0.0
 47
0.0
 48
0.0
 49
0.0
140
0.0
141
0.0
142
1.0
143
1.0
 70
1024
 72
1
 73
0
 74
0
  7

 75
0
147
1.0
148
0.0
149
0.0
100
AcDbLayout
  1
Model
 70
0
 71
0
 10
0.0
 20
0.0
 11
297.0
 21
210.0
 12
0.0
 22
0.0
 32
0.0
 14
0.0
 24
0.0
 34
0.0
 15
0.0
 25
0.0
 35
0.0
146
0.0
 13
0.0
 23
0.0
 33
0.0
 16
1.0
 26
0.0
 36
0.0
 17
0.0
 27
1.0
 37
0.0
 76
0
330
212
345
0
346
0
  0
LAYOUT
  5
48C
102
{ACAD_REACTORS
330
1A
102
}
100
AcDbPlotSettings
  1

  2
none_device
  4
ISO_A4_(297.00_x_210.00_MM)
  6

 40
0.0
 41
0.0
 42
0.0
 43
0.0
 44
297.0
 45
210.0
 46
0.0
 47
0.0
 48
0.0
 49
0.0
140
0.0
141
0.0
142
1.0
143
1.0
 70
0
 72
1
 73
0
 74
0
  7

 75
0
147
1.0
148
0.0
149
0.0
100
AcDbLayout
  1
Layout1
 70
0
 71
1
 10
0.0
 20
0.0
 11
297.0
 21
210.0
 12
0.0
 22
0.0
 32
0.0
 14
0.0
 24
0.0
 34
0.0
 15
0.0
 25
0.0
 35
0.0
146
0.0
 13
0.0
 23
0.0
 33
0.0
 16
1.0
 26
0.0
 36
0.0
 17
0.0
 27
1.0
 37
0.0
 76
0
330
213
345
0
346
0
  0
ENDSEC
  0
EOF
