  0
SECTION
  2
HEADER
  9
$ACADVER
  1
AC1015
  9
$DWGCODEPAGE
  3
ANSI_1252
  9
$EXTMAX
 10
297.0
 20
210.0
 30
0.0
  9
$EXTMIN
 10
0.0
 20
0.0
 30
0.0
  9
$LIMMIN
 10
0.0
 20
0.0
  9
$LIMMAX
 10
297.0
 20
210.0
  9
$VIEWCTR
 10
148.5
 20
105.0
  9
$VIEWSIZE
 40
210.0
  9
$CLAYER
  8
0
  9
$LTSCALE
 40
16.335
  9
$CELTYPE
  6
BYLAYER
  9
$DIMSCALE
 40
1.0
  9
$DIMASZ
 40
3.0
  9
$DIMEXO
 40
1.85625
  9
$DIMDLI
 40
11.286
  9
$DIMEXE
 40
5.346
  9
$DIMCEN
 40
2.673
  9
$DIMLFAC
 40
1.0
  9
$DIMBLK
  1
_FILLED
  9
$DIMTXT
 40
3.0
  9
$DIMTOL
 70
1
  9
$DIMLIM
 70
0
  9
$DIMTFAC
 40
1.0
  9
$DIMTP
 40
0.01
  9
$DIMTM
 40
0.01
  9
$PDMODE
 70
3
  9
$PDSIZE
 40
3.0
  9
$HANDSEED
  5
483
  9
$TILEMODE
 70
1
  9
$MEASUREMENT
 70
1
  9
$INSUNITS
 70
4
  0
ENDSEC
  0
SECTION
  2
CLASSES
  0
CLASS
  1
ACDBDICTIONARYWDFLT
  2
AcDbDictionaryWithDefault
  3
AutoCAD 2000
 90
0
280
0
281
0
  0
CLASS
  1
ACDBPLACEHOLDER
  2
AcDbPlaceHolder
  3
AutoCAD 2000
 90
0
280
0
281
0
  0
CLASS
  1
LAYOUT
  2
AcDbLayout
  3
AutoCAD 2000
 90
0
280
0
281
0
  0
ENDSEC
  0
SECTION
  2
TABLES
  0
TABLE
  2
VPORT
  5
8
100
AcDbSymbolTable
 70
2
  0
VPORT
  5
1F4
100
AcDbSymbolTableRecord
100
AcDbViewportTableRecord
  2
*ACTIVE
 70
0
 10
0.0
 20
0.0
 11
1.0
 21
1.0
 12
148.5
 22
105.0
 13
0.0
 23
0.0
 14
1.0
 24
1.0
 15
0.0
 25
0.0
 16
0.0
 26
0.0
 36
1.0
 17
0.0
 27
0.0
 37
0.0
 40
210.0
 41
1.4142857143
 42
50.0
 43
0.0
 44
0.0
 50
0.0
 51
0.0
 71
0
 72
100
 73
1
 74
1
 75
0
 76
0
 77
0
 78
0
  0
ENDTAB
  0
TABLE
  2
LTYPE
  5
5
100
AcDbSymbolTable
 70
6
  0
LTYPE
  5
14
100
AcDbSymbolTableRecord
100
AcDbLinetypeTableRecord
  2
BYBLOCK
 70
0
  3

 72
65
 73
0
 40
0.0
  0
LTYPE
  5
15
100
AcDbSymbolTableRecord
100
AcDbLinetypeTableRecord
  2
BYLAYER
 70
0
  3

 72
65
 73
0
 40
0.0
  0
LTYPE
  5
16
100
AcDbSymbolTableRecord
100
AcDbLinetypeTableRecord
  2
CONTINUOUS
 70
64
  3
Solid line
 72
65
 73
0
 40
0.0
  0
LTYPE
  5
1F5
100
AcDbSymbolTableRecord
100
AcDbLinetypeTableRecord
  2
CENTER
 70
64
  3
____ _ ____ _ ____ _ ____ _ ____ _ ____ _ ____
 72
65
 73
4
 40
0.6
 49
0.375
 74
0
 49
-0.075
 74
0
 49
0.075
 74
0
 49
-0.075
 74
0
  0
LTYPE
  5
1F6
100
AcDbSymbolTableRecord
100
AcDbLinetypeTableRecord
  2
HIDDEN
 70
64
  3
- - - - - - - - - - - - - - - - - - - -
 72
65
 73
2
 40
0.2
 49
0.1
 74
0
 49
-0.1
 74
0
  0
LTYPE
  5
1F7
100
AcDbSymbolTableRecord
100
AcDbLinetypeTableRecord
  2
PHANTOM
 70
64
  3
_____ _ _ _____ _ _ _____ _ _ _____
 72
65
 73
6
 40
0.8
 49
0.45
 74
0
 49
-0.05
 74
0
 49
0.1
 74
0
 49
-0.05
 74
0
 49
0.1
 74
0
 49
-0.05
 74
0
  0
LTYPE
  5
1F8
100
AcDbSymbolTableRecord
100
AcDbLinetypeTableRecord
  2
DOT
 70
64
  3
. . . . . . . . . . . . . . . . . . . .
 72
65
 73
2
 40
0.2
 49
0.1
 74
0
 49
-0.1
 74
0
  0
LTYPE
  5
1F9
100
AcDbSymbolTableRecord
100
AcDbLinetypeTableRecord
  2
DASHED
 70
64
  3
- - - - - - - - - - - - - - - - - - - -
 72
65
 73
2
 40
0.2
 49
0.1
 74
0
 49
-0.1
 74
0
  0
ENDTAB
  0
TABLE
  2
LAYER
  5
2
100
AcDbSymbolTable
 70
36
  0
LAYER
  5
10
100
AcDbSymbolTableRecord
100
AcDbLayerTableRecord
  2
0
 70
0
 62
7
  6
CONTINUOUS
370
-3
390
F
  0
LAYER
  5
1FA
100
AcDbSymbolTableRecord
100
AcDbLayerTableRecord
  2
DEFAULT_1
 70
0
 62
7
  6
CENTER
370
-3
390
F
  0
LAYER
  5
1FB
100
AcDbSymbolTableRecord
100
AcDbLayerTableRecord
  2
DEFAULT_2
 70
0
 62
7
  6
HIDDEN
370
-3
390
F
  0
LAYER
  5
1FC
100
AcDbSymbolTableRecord
100
AcDbLayerTableRecord
  2
DEFAULT_3
 70
0
 62
7
  6
PHANTOM
370
-3
390
F
  0
LAYER
  5
1FD
100
AcDbSymbolTableRecord
100
AcDbLayerTableRecord
  2
ASSI
 70
0
 62
7
  6
CONTINUOUS
370
-3
390
F
  0
LAYER
  5
1FE
100
AcDbSymbolTableRecord
100
AcDbLayerTableRecord
  2
COORDINATE
 70
0
 62
7
  6
CONTINUOUS
370
-3
390
F
  0
LAYER
  5
1FF
100
AcDbSymbolTableRecord
100
AcDbLayerTableRecord
  2
COORD_ORIGINE
 70
0
 62
7
  6
CONTINUOUS
370
-3
390
F
  0
LAYER
  5
200
100
AcDbSymbolTableRecord
100
AcDbLayerTableRecord
  2
COPY_PUBLISH
 70
0
 62
7
  6
CONTINUOUS
370
-3
390
F
  0
LAYER
  5
201
100
AcDbSymbolTableRecord
100
AcDbLayerTableRecord
  2
COSMETIC
 70
0
 62
7
  6
CONTINUOUS
370
-3
390
F
  0
LAYER
  5
202
100
AcDbSymbolTableRecord
100
AcDbLayerTableRecord
  2
COSMETICI
 70
0
 62
7
  6
CONTINUOUS
370
-3
390
F
  0
LAYER
  5
203
100
AcDbSymbolTableRecord
100
AcDbLayerTableRecord
  2
CURVE
 70
0
 62
7
  6
CONTINUOUS
370
-3
390
F
  0
LAYER
  5
204
100
AcDbSymbolTableRecord
100
AcDbLayerTableRecord
  2
DRAFT
 70
0
 62
7
  6
CONTINUOUS
370
-3
390
F
  0
LAYER
  5
205
100
AcDbSymbolTableRecord
100
AcDbLayerTableRecord
  2
IMPORT_IGES
 70
0
 62
7
  6
CONTINUOUS
370
-3
390
F
  0
LAYER
  5
206
100
AcDbSymbolTableRecord
100
AcDbLayerTableRecord
  2
INTFCLR_2
 70
0
 62
7
  6
CONTINUOUS
370
-3
390
F
  0
LAYER
  5
207
100
AcDbSymbolTableRecord
100
AcDbLayerTableRecord
  2
NOTE
 70
0
 62
7
  6
CONTINUOUS
370
-3
390
F
  0
LAYER
  5
208
100
AcDbSymbolTableRecord
100
AcDbLayerTableRecord
  2
PIANI
 70
0
 62
7
  6
CONTINUOUS
370
-3
390
F
  0
LAYER
  5
209
100
AcDbSymbolTableRecord
100
AcDbLayerTableRecord
  2
PIANI_ORIGINE
 70
0
 62
7
  6
CONTINUOUS
370
-3
390
F
  0
LAYER
  5
20A
100
AcDbSymbolTableRecord
100
AcDbLayerTableRecord
  2
PIANI_RIFERIMENTO
 70
0
 62
7
  6
CONTINUOUS
370
-3
390
F
  0
LAYER
  5
20B
100
AcDbSymbolTableRecord
100
AcDbLayerTableRecord
  2
PUNTI
 70
0
 62
7
  6
CONTINUOUS
370
-3
390
F
  0
LAYER
  5
20C
100
AcDbSymbolTableRecord
100
AcDbLayerTableRecord
  2
RACCORDO
 70
0
 62
7
  6
CONTINUOUS
370
-3
390
F
  0
LAYER
  5
20D
100
AcDbSymbolTableRecord
100
AcDbLayerTableRecord
  2
SIMBOLI
 70
0
 62
7
  6
CONTINUOUS
370
-3
390
F
  0
LAYER
  5
20E
100
AcDbSymbolTableRecord
100
AcDbLayerTableRecord
  2
SMUSSO
 70
0
 62
7
  6
CONTINUOUS
370
-3
390
F
  0
LAYER
  5
20F
100
AcDbSymbolTableRecord
100
AcDbLayerTableRecord
  2
SNAPLINE
 70
0
 62
7
  6
CONTINUOUS
370
-3
390
F
  0
LAYER
  5
210
100
AcDbSymbolTableRecord
100
AcDbLayerTableRecord
  2
SUPERFICI
 70
0
 62
7
  6
CONTINUOUS
370
-3
390
F
  0
LAYER
  5
211
100
AcDbSymbolTableRecord
100
AcDbLayerTableRecord
  2
TRASH
 70
0
 62
7
  6
CONTINUOUS
370
-3
390
F
  0
LAYER
  5
212
100
AcDbSymbolTableRecord
100
AcDbLayerTableRecord
  2
XSEC_DATUMS
 70
0
 62
7
  6
CONTINUOUS
370
-3
390
F
  0
ENDTAB
  0
TABLE
  2
STYLE
  5
3
100
AcDbSymbolTable
 70
1
  0
STYLE
  5
11
100
AcDbSymbolTableRecord
100
AcDbTextStyleTableRecord
  2
STANDARD
 70
0
 40
0.0
 41
0.8
 50
0.0
 71
0
 42
0.2
  3
txt
  4

  0
STYLE
  5
213
100
AcDbSymbolTableRecord
100
AcDbTextStyleTableRecord
  2
TEXTSTYLE_1
 70
0
 40
0.0
 41
0.8
 50
0.0
 71
0
 42
0.2
  3
gdt
  4

  0
ENDTAB
  0
TABLE
  2
VIEW
  5
6
100
AcDbSymbolTable
 70
0
  0
ENDTAB
  0
TABLE
  2
UCS
  5
7
100
AcDbSymbolTable
 70
0
  0
ENDTAB
  0
TABLE
  2
APPID
  5
9
100
AcDbSymbolTable
 70
1
  0
APPID
  5
214
100
AcDbSymbolTableRecord
100
AcDbRegAppTableRecord
  2
ACAD
 70
0
  0
ENDTAB
  0
TABLE
  2
BLOCK_RECORD
  5
1
100
AcDbSymbolTable
 70
0
  0
BLOCK_RECORD
  5
215
100
AcDbSymbolTableRecord
100
AcDbBlockTableRecord
  2
*Model_Space
  0
BLOCK_RECORD
  5
216
100
AcDbSymbolTableRecord
100
AcDbBlockTableRecord
  2
*Paper_Space
  0
ENDTAB
  0
TABLE
  2
DIMSTYLE
  5
A
100
AcDbSymbolTable
 70
1
100
AcDbDimStyleTable
 71
0
  0
DIMSTYLE
105
217
100
AcDbSymbolTableRecord
100
AcDbDimStyleTableRecord
  2
STANDARD
 70
0
  3

  4

 40
1.0
 41
3.0
 42
0.0625
 43
0.38
 44
0.18
 45
0.0
 46
0.0
 47
0.01
 48
0.01
140
3.0
141
0.09
142
0.0
143
25.4
144
1.0
145
0.0
146
1.0
147
0.09
 71
1.0
 72
0.0
 73
0
 74
0
 75
0
 76
0
 77
1
 78
8
170
0
171
2
172
0
173
0
174
0
175
0
176
0
177
0
178
0
270
2
271
2
272
2
273
2
274
2
275
0
280
0
281
0
282
0
283
1
284
8
285
0
286
0
287
3
288
0
340
11
  0
ENDTAB
  0
ENDSEC
  0
SECTION
  2
BLOCKS
  0
BLOCK
  5
20
100
AcDbEntity
  8
0
100
AcDbBlockBegin
  2
*Model_Space
 70
0
 10
0.0
 20
0.0
 30
0.0
  3
*Model_Space
  1

  0
ENDBLK
  5
21
100
AcDbEntity
  8
0
100
AcDbBlockEnd
  0
BLOCK
  5
1C
100
AcDbEntity
  8
0
100
AcDbBlockBegin
  2
*Paper_Space
 70
0
 10
0.0
 20
0.0
 30
0.0
  3
*Paper_Space
  1

  0
ENDBLK
  5
1D
100
AcDbEntity
  8
0
100
AcDbBlockEnd
  0
ENDSEC
  0
SECTION
  2
ENTITIES
  0
LINE
  5
218
100
AcDbEntity
  8
RACCORDO
100
AcDbLine
 62
7
  6
CONTINUOUS
 10
-42.7145214409
 20
65.8062875739
 11
-40.2042923677
 21
67.0614021105
  0
LINE
  5
219
100
AcDbEntity
  8
RACCORDO
100
AcDbLine
 62
7
  6
CONTINUOUS
 10
-42.2673078454
 20
65.7778857867
 11
-39.7570787722
 21
67.0330003233
  0
LINE
  5
21A
100
AcDbEntity
  8
RACCORDO
100
AcDbLine
 62
7
  6
CONTINUOUS
 10
-43.120861236
 20
65.0886370782
 11
-43.120861236
 21
-24.9780049154
  0
LINE
  5
21B
100
AcDbEntity
  8
RACCORDO
100
AcDbLine
 62
7
  6
CONTINUOUS
 10
-42.9744146266
 20
64.9118603829
 11
-42.9744146266
 21
-25.1547816107
  0
LWPOLYLINE
  5
21C
100
AcDbEntity
  8
RACCORDO
100
AcDbPolyline
 62
7
  6
CONTINUOUS
 90
13
 70
0
 10
-29.3762919835
 20
34.0093160036
 10
-29.3959073712
 20
33.9980813977
 10
-29.4337212201
 20
33.9724476239
 10
-29.4691508872
 20
33.9428097257
 10
-29.5018224599
 20
33.9093504081
 10
-29.5313725272
 20
33.8723277559
 10
-29.5576992394
 20
33.8317284754
 10
-29.5805241051
 20
33.7877243182
 10
-29.5995413239
 20
33.7405876773
 10
-29.6145993572
 20
33.6902733597
 10
-29.6254694708
 20
33.636815884
 10
-29.6318512754
 20
33.5804503504
 10
-29.6335616259
 20
33.5311971441
  0
LINE
  5
21D
100
AcDbEntity
  8
RACCORDO
100
AcDbLine
 62
7
  6
CONTINUOUS
 10
-29.3763326969
 20
34.0092957166
 11
-27.7384925275
 21
34.8929480937
  0
LINE
  5
21E
100
AcDbEntity
  8
RACCORDO
100
AcDbLine
 62
7
  6
CONTINUOUS
 10
-29.0544742577
 20
33.9940311803
 11
-27.4181408276
 21
34.8768706061
  0
LINE
  5
21F
100
AcDbEntity
  8
RACCORDO
100
AcDbLine
 62
7
  6
CONTINUOUS
 10
-42.4909146432
 20
-26.0350079081
 11
39.5334719745
 21
-67.0472012169
  0
LINE
  5
220
100
AcDbEntity
  8
RACCORDO
100
AcDbLine
 62
7
  6
CONTINUOUS
 10
-42.620861236
 20
-25.7645710079
 11
39.4035253816
 21
-66.7767643167
  0
LINE
  5
221
100
AcDbEntity
  8
DRAFT
100
AcDbLine
 62
7
  6
CONTINUOUS
 10
-25.1309354327
 20
24.2256492418
 11
-25.6447443199
 21
23.9403279517
  0
LINE
  5
222
100
AcDbEntity
  8
RACCORDO
100
AcDbLine
 62
7
  6
CONTINUOUS
 10
-24.6615509446
 20
24.4220156415
 11
-25.5968351334
 21
23.9507674318
  0
LINE
  5
223
100
AcDbEntity
  8
RACCORDO
100
AcDbLine
 62
7
  6
CONTINUOUS
 10
-24.449451219
 20
24.0561977275
 11
-25.3847354078
 21
23.5849495178
  0
LINE
  5
224
100
AcDbEntity
  8
RACCORDO
100
AcDbLine
 62
7
  6
CONTINUOUS
 10
-24.9530657822
 20
24.9977386129
 11
-24.3775062814
 21
25.2635510638
  0
LINE
  5
225
100
AcDbEntity
  8
RACCORDO
100
AcDbLine
 62
7
  6
CONTINUOUS
 10
-25.0342031267
 20
24.833964234
 11
-24.4586436259
 21
25.0997766849
  0
LWPOLYLINE
  5
226
100
AcDbEntity
  8
RACCORDO
100
AcDbPolyline
 62
7
  6
CONTINUOUS
 90
12
 70
0
 10
-29.632099164
 20
-10.784797091
 10
-29.6260977286
 20
-10.8442792691
 10
-29.615643255
 20
-10.9036233562
 10
-29.600923264
 20
-10.9625986582
 10
-29.5821249654
 20
-11.0207985626
 10
-29.5593777161
 20
-11.0780295246
 10
-29.5327973274
 20
-11.1339790926
 10
-29.5026707251
 20
-11.1880096647
 10
-29.4690421931
 20
-11.2399863804
 10
-29.4320601139
 20
-11.2894858996
 10
-29.3923404564
 20
-11.3356244011
 10
-29.3500105228
 20
-11.3782005742
  0
LINE
  5
227
100
AcDbEntity
  8
RACCORDO
100
AcDbLine
 62
7
  6
CONTINUOUS
 10
-29.6335619065
 20
-10.7381645014
 11
-29.632099164
 21
-10.784797091
  0
LINE
  5
228
100
AcDbEntity
  8
RACCORDO
100
AcDbLine
 62
7
  6
CONTINUOUS
 10
-29.6335716774
 20
33.5311566483
 11
-29.6335716774
 21
-10.7383227
  0
LINE
  5
229
100
AcDbEntity
  8
RACCORDO
100
AcDbLine
 62
7
  6
CONTINUOUS
 10
-29.5457037117
 20
33.4250906347
 11
-29.5457037117
 21
-10.8471852302
  0
LINE
  5
22A
100
AcDbEntity
  8
RACCORDO
100
AcDbLine
 62
7
  6
CONTINUOUS
 10
-27.8932528993
 20
-9.4317816436
 11
-27.8932528993
 21
30.3600327482
  0
LINE
  5
22B
100
AcDbEntity
  8
RACCORDO
100
AcDbLine
 62
7
  6
CONTINUOUS
 10
-27.509047934
 20
-9.4485887158
 11
-27.509047934
 21
30.3432261769
  0
LINE
  5
22C
100
AcDbEntity
  8
RACCORDO
100
AcDbLine
 62
7
  6
CONTINUOUS
 10
-26.0007308711
 20
29.8106154414
 11
-26.0007308711
 21
-8.3364250651
  0
LINE
  5
22D
100
AcDbEntity
  8
RACCORDO
100
AcDbLine
 62
7
  6
CONTINUOUS
 10
-25.940189904
 20
29.7803449578
 11
-25.940189904
 21
-8.3114720041
  0
LINE
  5
22E
100
AcDbEntity
  8
DRAFT
100
AcDbLine
 62
7
  6
CONTINUOUS
 10
-25.1309354327
 20
17.7304587134
 11
-25.6447443199
 21
17.4451374233
  0
LINE
  5
22F
100
AcDbEntity
  8
RACCORDO
100
AcDbLine
 62
7
  6
CONTINUOUS
 10
-25.1309354327
 20
17.5171180126
 11
-24.589606007
 21
17.7898698946
  0
LINE
  5
230
100
AcDbEntity
  8
RACCORDO
100
AcDbLine
 62
7
  6
CONTINUOUS
 10
-24.9530657822
 20
17.1340530824
 11
-24.3775062814
 21
17.4240519807
  0
LINE
  5
231
100
AcDbEntity
  8
RACCORDO
100
AcDbLine
 62
7
  6
CONTINUOUS
 10
-25.3847354078
 20
18.1299836656
 11
-24.449451219
 21
18.5619288983
  0
LINE
  5
232
100
AcDbEntity
  8
RACCORDO
100
AcDbLine
 62
7
  6
CONTINUOUS
 10
-25.4658727523
 20
17.9662092868
 11
-24.5305885635
 21
18.3981545194
  0
LWPOLYLINE
  5
233
100
AcDbEntity
  8
RACCORDO
100
AcDbPolyline
 62
7
  6
CONTINUOUS
 90
4
 70
0
 10
-29.3051682807
 20
-11.4169911826
 10
-29.2584782693
 20
-11.4513448994
 10
-29.210266532
 20
-11.4810028957
 10
-29.1848851545
 20
-11.4944209137
  0
LINE
  5
234
100
AcDbEntity
  8
RACCORDO
100
AcDbLine
 62
7
  6
CONTINUOUS
 10
-29.3500105228
 20
-11.3782005742
 11
-29.3051682807
 21
-11.4169911826
  0
LWPOLYLINE
  5
235
100
AcDbEntity
  8
RACCORDO
100
AcDbPolyline
 62
7
  6
CONTINUOUS
 90
18
 70
0
 10
-23.6715989245
 20
-7.9088375037
 10
-23.6721871434
 20
-7.8899604894
 10
-23.6738565611
 20
-7.8719347496
 10
-23.6766598355
 20
-7.853733095
 10
-23.6806440038
 20
-7.8354309684
 10
-23.6858527549
 20
-7.8171069669
 10
-23.6923201937
 20
-7.7988599167
 10
-23.7000802732
 20
-7.7807758804
 10
-23.7091738076
 20
-7.7629270474
 10
-23.7196233117
 20
-7.7454242505
 10
-23.7314422114
 20
-7.7283844254
 10
-23.7446556342
 20
-7.7119046581
 10
-23.7592615927
 20
-7.6961163505
 10
-23.7752451569
 20
-7.6811561352
 10
-23.7926035407
 20
-7.6671448854
 10
-23.8113050167
 20
-7.6542262599
 10
-23.8312888172
 20
-7.6425551725
 10
-23.8384371619
 20
-7.6388607726
  0
LINE
  5
236
100
AcDbEntity
  8
RACCORDO
100
AcDbLine
 62
7
  6
CONTINUOUS
 10
-25.6447443199
 20
-8.1626100814
 11
-25.6447443199
 21
29.6326221658
  0
LINE
  5
237
100
AcDbEntity
  8
RACCORDO
100
AcDbLine
 62
7
  6
CONTINUOUS
 10
-25.3847354078
 20
23.5849495178
 11
-25.3847354078
 21
18.1299836656
  0
LINE
  5
238
100
AcDbEntity
  8
RACCORDO
100
AcDbLine
 62
7
  6
CONTINUOUS
 10
-25.3847354078
 20
4.5323906345
 11
-25.3847354078
 21
-0.9225752176
  0
LINE
  5
239
100
AcDbEntity
  8
RACCORDO
100
AcDbLine
 62
7
  6
CONTINUOUS
 10
-25.1309354327
 20
29.3757177222
 11
-25.1309354327
 21
24.2256492418
  0
LINE
  5
23A
100
AcDbEntity
  8
DRAFT
100
AcDbLine
 62
7
  6
CONTINUOUS
 10
-25.1309354327
 20
17.7304587134
 11
-25.1309354327
 21
5.1730903586
  0
LINE
  5
23B
100
AcDbEntity
  8
RACCORDO
100
AcDbLine
 62
7
  6
CONTINUOUS
 10
-25.1309354327
 20
-1.3221001698
 11
-25.1309354327
 21
-7.917681111
  0
LINE
  5
23C
100
AcDbEntity
  8
RACCORDO
100
AcDbLine
 62
7
  6
CONTINUOUS
 10
-24.9530657822
 20
-8.1312534836
 11
-24.9530657822
 21
-1.9185058009
  0
LINE
  5
23D
100
AcDbEntity
  8
RACCORDO
100
AcDbLine
 62
7
  6
CONTINUOUS
 10
-24.9530657822
 20
5.9451797297
 11
-24.9530657822
 21
17.1340530824
  0
LINE
  5
23E
100
AcDbEntity
  8
RACCORDO
100
AcDbLine
 62
7
  6
CONTINUOUS
 10
-24.9530657822
 20
24.9977386129
 11
-24.9530657822
 21
29.2867828969
  0
LINE
  5
23F
100
AcDbEntity
  8
RACCORDO
100
AcDbLine
 62
7
  6
CONTINUOUS
 10
-24.8434056305
 20
24.9220808406
 11
-24.8434056305
 21
24.5129429844
  0
LINE
  5
240
100
AcDbEntity
  8
RACCORDO
100
AcDbLine
 62
7
  6
CONTINUOUS
 10
-24.8434056305
 20
18.2536852315
 11
-24.8434056305
 21
17.9167697064
  0
LINE
  5
241
100
AcDbEntity
  8
RACCORDO
100
AcDbLine
 62
7
  6
CONTINUOUS
 10
-24.8434056305
 20
5.8695219573
 11
-24.8434056305
 21
5.4603841012
  0
LINE
  5
242
100
AcDbEntity
  8
RACCORDO
100
AcDbLine
 62
7
  6
CONTINUOUS
 10
-24.8434056305
 20
-1.1357891769
 11
-24.8434056305
 21
-0.7988736518
  0
LINE
  5
243
100
AcDbEntity
  8
RACCORDO
100
AcDbLine
 62
7
  6
CONTINUOUS
 10
-24.7030755306
 20
24.9868899311
 11
-24.7030755306
 21
24.656742872
  0
LINE
  5
244
100
AcDbEntity
  8
RACCORDO
100
AcDbLine
 62
7
  6
CONTINUOUS
 10
-24.7030755306
 20
18.3184943219
 11
-24.7030755306
 21
17.8466046565
  0
LINE
  5
245
100
AcDbEntity
  8
RACCORDO
100
AcDbLine
 62
7
  6
CONTINUOUS
 10
-24.7030755306
 20
5.9343310478
 11
-24.7030755306
 21
5.6041839887
  0
LINE
  5
246
100
AcDbEntity
  8
RACCORDO
100
AcDbLine
 62
7
  6
CONTINUOUS
 10
-24.7030755306
 20
-1.2059542268
 11
-24.7030755306
 21
-0.7340645613
  0
LINE
  5
247
100
AcDbEntity
  8
RACCORDO
100
AcDbLine
 62
7
  6
CONTINUOUS
 10
-24.449451219
 20
24.0561977275
 11
-24.449451219
 21
18.5619288983
  0
LINE
  5
248
100
AcDbEntity
  8
RACCORDO
100
AcDbLine
 62
7
  6
CONTINUOUS
 10
-24.449451219
 20
5.0036388443
 11
-24.449451219
 21
-0.490629985
  0
LINE
  5
249
100
AcDbEntity
  8
RACCORDO
100
AcDbLine
 62
7
  6
CONTINUOUS
 10
-24.3775062814
 20
-7.8412545853
 11
-24.3775062814
 21
-1.6285069026
  0
LINE
  5
24A
100
AcDbEntity
  8
RACCORDO
100
AcDbLine
 62
7
  6
CONTINUOUS
 10
-24.3775062814
 20
6.2109921805
 11
-24.3775062814
 21
17.4240519807
  0
LINE
  5
24B
100
AcDbEntity
  8
RACCORDO
100
AcDbLine
 62
7
  6
CONTINUOUS
 10
-24.3775062814
 20
25.2635510638
 11
-24.3775062814
 21
28.9990031465
  0
LINE
  5
24C
100
AcDbEntity
  8
RACCORDO
100
AcDbLine
 62
7
  6
CONTINUOUS
 10
-23.8119295004
 20
-8.0317774537
 11
-23.8119295004
 21
-8.1240429758
  0
LINE
  5
24D
100
AcDbEntity
  8
RACCORDO
100
AcDbLine
 62
7
  6
CONTINUOUS
 10
-23.6715994005
 20
-7.9095928781
 11
-23.6715994005
 21
-8.1942080258
  0
LINE
  5
24E
100
AcDbEntity
  8
RACCORDO
100
AcDbLine
 62
7
  6
CONTINUOUS
 10
-21.1084770132
 20
16.2103055593
 11
-21.1084770132
 21
10.8099175058
  0
LINE
  5
24F
100
AcDbEntity
  8
RACCORDO
100
AcDbLine
 62
7
  6
CONTINUOUS
 10
-21.0242789533
 20
16.3145043149
 11
-21.0242789533
 21
10.9141162613
  0
LINE
  5
250
100
AcDbEntity
  8
RACCORDO
100
AcDbLine
 62
7
  6
CONTINUOUS
 10
-24.3775062814
 20
15.0598638842
 11
-21.3205767388
 21
16.5761234733
  0
LINE
  5
251
100
AcDbEntity
  8
RACCORDO
100
AcDbLine
 62
7
  6
CONTINUOUS
 10
-24.3775062814
 20
14.5888429426
 11
-21.1084770132
 21
16.2103055593
  0
LINE
  5
252
100
AcDbEntity
  8
RACCORDO
100
AcDbLine
 62
7
  6
CONTINUOUS
 10
-21.7582416168
 20
16.7409511104
 11
-24.0080986701
 21
15.7018925655
  0
LINE
  5
253
100
AcDbEntity
  8
RACCORDO
100
AcDbLine
 62
7
  6
CONTINUOUS
 10
-21.6287557893
 20
16.7302129985
 11
-23.9347606293
 21
15.6652235451
  0
LWPOLYLINE
  5
254
100
AcDbEntity
  8
RACCORDO
100
AcDbPolyline
 62
7
  6
CONTINUOUS
 90
11
 70
0
 10
22.3760147252
 20
-37.2748713041
 10
22.4102107452
 20
-37.2906650748
 10
22.4603124057
 20
-37.3092787917
 10
22.5109483723
 20
-37.3227910538
 10
22.5617788725
 20
-37.3311212833
 10
22.6122099462
 20
-37.3342170059
 10
22.6617777683
 20
-37.3321302417
 10
22.7100877576
 20
-37.324990841
 10
22.7565118873
 20
-37.313053819
 10
22.8005611986
 20
-37.2966625804
 10
22.8112578512
 20
-37.291866951
  0
LINE
  5
255
100
AcDbEntity
  8
RACCORDO
100
AcDbLine
 62
7
  6
CONTINUOUS
 10
-29.1849361218
 20
-11.4944080765
 11
22.3758702381
 21
-37.2748112564
  0
LINE
  5
256
100
AcDbEntity
  8
0
100
AcDbLine
 62
7
  6
CONTINUOUS
 10
-6.0611262882
 20
-22.9499555966
 11
-5.7879949802
 21
-23.0865212506
  0
LINE
  5
257
100
AcDbEntity
  8
0
100
AcDbLine
 62
7
  6
CONTINUOUS
 10
-5.1957032484
 20
-23.3826671165
 11
-4.8857670325
 21
-23.5376352244
  0
LINE
  5
258
100
AcDbEntity
  8
0
100
AcDbLine
 62
7
  6
CONTINUOUS
 10
-4.7189188235
 20
-23.6210593289
 11
-4.4224112725
 21
-23.7693131044
  0
LINE
  5
259
100
AcDbEntity
  8
0
100
AcDbLine
 62
7
  6
CONTINUOUS
 10
-3.9919345636
 20
-23.9845514589
 11
-3.9484665885
 21
-24.0062854465
  0
LINE
  5
25A
100
AcDbEntity
  8
0
100
AcDbLine
 62
7
  6
CONTINUOUS
 10
-3.5162751456
 20
-24.2223811679
 11
-3.213075536
 21
-24.3739809727
  0
LINE
  5
25B
100
AcDbEntity
  8
0
100
AcDbLine
 62
7
  6
CONTINUOUS
 10
-3.1644074976
 20
-24.3983149919
 11
-2.8578342816
 21
-24.5516015999
  0
LINE
  5
25C
100
AcDbEntity
  8
0
100
AcDbLine
 62
7
  6
CONTINUOUS
 10
-2.2699400468
 20
-24.8455487173
 11
-1.9432807556
 21
-25.0088783629
  0
LINE
  5
25D
100
AcDbEntity
  8
0
100
AcDbLine
 62
7
  6
CONTINUOUS
 10
-1.8522684223
 20
-25.054384874
 11
-1.5435796251
 21
-25.2087292726
  0
LINE
  5
25E
100
AcDbEntity
  8
0
100
AcDbLine
 62
7
  6
CONTINUOUS
 10
-1.0689555681
 20
-25.4460413011
 11
-0.7708332718
 21
-25.5951024493
  0
LINE
  5
25F
100
AcDbEntity
  8
RACCORDO
100
AcDbLine
 62
7
  6
CONTINUOUS
 10
-29.2629040776
 20
-11.3321459363
 11
-6.0655061505
 21
-22.9308448998
  0
LINE
  5
260
100
AcDbEntity
  8
RACCORDO
100
AcDbLine
 62
7
  6
CONTINUOUS
 10
-5.7710742146
 20
-23.0780608678
 11
-5.1957032484
 21
-23.3657463509
  0
LINE
  5
261
100
AcDbEntity
  8
RACCORDO
100
AcDbLine
 62
7
  6
CONTINUOUS
 10
-4.8688462669
 20
-23.5291748416
 11
-4.7176713406
 21
-23.6047623048
  0
LINE
  5
262
100
AcDbEntity
  8
RACCORDO
100
AcDbLine
 62
7
  6
CONTINUOUS
 10
-4.4054905069
 20
-23.7608527216
 11
-3.9971156465
 21
-23.9650401518
  0
LINE
  5
263
100
AcDbEntity
  8
RACCORDO
100
AcDbLine
 62
7
  6
CONTINUOUS
 10
-3.9315458228
 20
-23.9978250636
 11
-3.5171863241
 21
-24.205004813
  0
LINE
  5
264
100
AcDbEntity
  8
RACCORDO
100
AcDbLine
 62
7
  6
CONTINUOUS
 10
-3.1961547704
 20
-24.3655205899
 11
-3.1576391914
 21
-24.3847783794
  0
LINE
  5
265
100
AcDbEntity
  8
RACCORDO
100
AcDbLine
 62
7
  6
CONTINUOUS
 10
-2.8409135159
 20
-24.5431412171
 11
-2.2736822711
 21
-24.8267568395
  0
LINE
  5
266
100
AcDbEntity
  8
RACCORDO
100
AcDbLine
 62
7
  6
CONTINUOUS
 10
-1.9263599899
 20
-25.0004179801
 11
-1.8516596356
 21
-25.0377681573
  0
LINE
  5
267
100
AcDbEntity
  8
RACCORDO
100
AcDbLine
 62
7
  6
CONTINUOUS
 10
-1.5266585151
 20
-25.2002687175
 11
-1.0730165926
 21
-25.4270896788
  0
LINE
  5
268
100
AcDbEntity
  8
RACCORDO
100
AcDbLine
 62
7
  6
CONTINUOUS
 10
-0.7539121617
 20
-25.5866418942
 11
22.3001856215
 21
-37.1136907858
  0
LINE
  5
269
100
AcDbEntity
  8
0
100
AcDbLine
 62
7
  6
CONTINUOUS
 10
-2.7723111306
 20
-24.2313261922
 11
-2.3502299005
 21
-24.4423668072
  0
LINE
  5
26A
100
AcDbEntity
  8
0
100
AcDbLine
 62
7
  6
CONTINUOUS
 10
-2.4121703332
 20
-24.1304796005
 11
-2.7089119366
 21
-23.9821087988
  0
LINE
  5
26B
100
AcDbEntity
  8
0
100
AcDbLine
 62
7
  6
CONTINUOUS
 10
-1.5435796251
 20
-24.4970686442
 11
-1.3773994095
 21
-24.580158752
  0
LINE
  5
26C
100
AcDbEntity
  8
0
100
AcDbLine
 62
7
  6
CONTINUOUS
 10
-2.442014963
 20
-23.9741359294
 11
-2.5674905804
 21
-23.9113981207
  0
LINE
  5
26D
100
AcDbEntity
  8
0
100
AcDbLine
 62
7
  6
CONTINUOUS
 10
-1.3767313484
 20
-24.2826663484
 11
-1.5538566328
 21
-24.1941037062
  0
LINE
  5
26E
100
AcDbEntity
  8
0
100
AcDbLine
 62
7
  6
CONTINUOUS
 10
-1.2353099921
 20
-24.2119556702
 11
-1.4124352765
 21
-24.123393028
  0
LINE
  5
26F
100
AcDbEntity
  8
0
100
AcDbLine
 62
7
  6
CONTINUOUS
 10
-2.3988540983
 20
-22.9625916301
 11
-2.6986793944
 21
-22.8126789821
  0
LINE
  5
270
100
AcDbEntity
  8
0
100
AcDbLine
 62
7
  6
CONTINUOUS
 10
-3.3519209023
 20
-22.4860582281
 11
-3.6585719001
 21
-22.3327327292
  0
LINE
  5
271
100
AcDbEntity
  8
0
100
AcDbLine
 62
7
  6
CONTINUOUS
 10
-4.2751704275
 20
-22.0244334655
 11
-4.5848499636
 21
-21.8695936974
  0
LINE
  5
272
100
AcDbEntity
  8
0
100
AcDbLine
 62
7
  6
CONTINUOUS
 10
-5.3107205304
 20
-21.5066584141
 11
-5.6204453213
 21
-21.3517960186
  0
LINE
  5
273
100
AcDbEntity
  8
0
100
AcDbLine
 62
7
  6
CONTINUOUS
 10
-6.1951506004
 20
-21.0644433791
 11
-6.5318366658
 21
-20.8961003463
  0
LINE
  5
274
100
AcDbEntity
  8
0
100
AcDbLine
 62
7
  6
CONTINUOUS
 10
-4.8857670325
 20
-21.7190260438
 11
-5.1957032484
 21
-21.5640579358
  0
LINE
  5
275
100
AcDbEntity
  8
0
100
AcDbLine
 62
7
  6
CONTINUOUS
 10
-2.2574327421
 20
-22.891880952
 11
-2.5572580381
 21
-22.7419683039
  0
LINE
  5
276
100
AcDbEntity
  8
0
100
AcDbLine
 62
7
  6
CONTINUOUS
 10
-3.210499546
 20
-22.41534755
 11
-3.5171505438
 21
-22.2620220511
  0
LINE
  5
277
100
AcDbEntity
  8
0
100
AcDbLine
 62
7
  6
CONTINUOUS
 10
-4.1337490712
 20
-21.9537227874
 11
-4.4434286074
 21
-21.7988830193
  0
LINE
  5
278
100
AcDbEntity
  8
0
100
AcDbLine
 62
7
  6
CONTINUOUS
 10
-5.1692991741
 20
-21.435947736
 11
-5.4790239651
 21
-21.2810853405
  0
LINE
  5
279
100
AcDbEntity
  8
0
100
AcDbLine
 62
7
  6
CONTINUOUS
 10
-6.0537292441
 20
-20.9937327009
 11
-6.3904153096
 21
-20.8253896682
  0
LINE
  5
27A
100
AcDbEntity
  8
0
100
AcDbLine
 62
7
  6
CONTINUOUS
 10
-4.7443456763
 20
-21.6483153657
 11
-5.0542818922
 21
-21.4933472577
  0
LINE
  5
27B
100
AcDbEntity
  8
RACCORDO
100
AcDbLine
 62
7
  6
CONTINUOUS
 10
20.5230283328
 20
-34.1600441292
 11
-27.4880301275
 21
-10.154514899
  0
LINE
  5
27C
100
AcDbEntity
  8
RACCORDO
100
AcDbLine
 62
7
  6
CONTINUOUS
 10
20.6625972656
 20
-33.8461106856
 11
-27.3484663079
 21
-9.8405788989
  0
LINE
  5
27D
100
AcDbEntity
  8
RACCORDO
100
AcDbLine
 62
7
  6
CONTINUOUS
 10
-18.5792306757
 20
-11.0002395853
 11
-18.5792306757
 21
-11.4529850533
  0
LINE
  5
27E
100
AcDbEntity
  8
DRAFT
100
AcDbLine
 62
7
  6
CONTINUOUS
 10
-25.1309354327
 20
5.1730903586
 11
-25.6447443199
 21
4.8877690684
  0
LINE
  5
27F
100
AcDbEntity
  8
RACCORDO
100
AcDbLine
 62
7
  6
CONTINUOUS
 10
-21.1084770132
 20
10.8099175058
 11
-24.3775062814
 21
9.0462012185
  0
LINE
  5
280
100
AcDbEntity
  8
RACCORDO
100
AcDbLine
 62
7
  6
CONTINUOUS
 10
-21.1818318072
 20
10.650092
 11
-24.3775062814
 21
8.925952307
  0
LINE
  5
281
100
AcDbEntity
  8
RACCORDO
100
AcDbLine
 62
7
  6
CONTINUOUS
 10
-24.6615509446
 20
5.3694567582
 11
-25.5968351334
 21
4.8982085485
  0
LINE
  5
282
100
AcDbEntity
  8
RACCORDO
100
AcDbLine
 62
7
  6
CONTINUOUS
 10
-24.449451219
 20
5.0036388443
 11
-25.3847354078
 21
4.5323906345
  0
LINE
  5
283
100
AcDbEntity
  8
RACCORDO
100
AcDbLine
 62
7
  6
CONTINUOUS
 10
-24.9530657822
 20
5.9451797297
 11
-24.3775062814
 21
6.2109921805
  0
LINE
  5
284
100
AcDbEntity
  8
RACCORDO
100
AcDbLine
 62
7
  6
CONTINUOUS
 10
-25.0342031267
 20
5.7814053508
 11
-24.4586436259
 21
6.0472178016
  0
LINE
  5
285
100
AcDbEntity
  8
RACCORDO
100
AcDbLine
 62
7
  6
CONTINUOUS
 10
-2.5084856702
 20
-18.2158087155
 11
-2.5085252893
 21
-18.2157889181
  0
LINE
  5
286
100
AcDbEntity
  8
RACCORDO
100
AcDbLine
 62
7
  6
CONTINUOUS
 10
-25.8109607378
 20
-8.7446501857
 11
20.8403831389
 21
-32.0703221241
  0
LINE
  5
287
100
AcDbEntity
  8
RACCORDO
100
AcDbLine
 62
7
  6
CONTINUOUS
 10
-25.696208714
 20
-8.6612262625
 11
20.8403831389
 21
-31.9295221889
  0
LINE
  5
288
100
AcDbEntity
  8
RACCORDO
100
AcDbLine
 62
7
  6
CONTINUOUS
 10
20.8403831389
 20
-31.664941862
 11
-25.4326445943
 21
-8.5284279954
  0
LINE
  5
289
100
AcDbEntity
  8
RACCORDO
100
AcDbLine
 62
7
  6
CONTINUOUS
 10
-11.5431123258
 20
-15.2695641983
 11
-7.0891513585
 21
-17.496544682
  0
LINE
  5
28A
100
AcDbEntity
  8
RACCORDO
100
AcDbLine
 62
7
  6
CONTINUOUS
 10
4.3667902509
 20
-23.2245154866
 11
8.8207512182
 21
-25.4514959703
  0
LINE
  5
28B
100
AcDbEntity
  8
RACCORDO
100
AcDbLine
 62
7
  6
CONTINUOUS
 10
-24.919094118
 20
-8.2830533322
 11
-11.7202948982
 21
-14.8824529421
  0
LINE
  5
28C
100
AcDbEntity
  8
DRAFT
100
AcDbLine
 62
7
  6
CONTINUOUS
 10
-6.4169940393
 20
-17.5341033715
 11
4.1896076785
 21
-22.8374042304
  0
LINE
  5
28D
100
AcDbEntity
  8
RACCORDO
100
AcDbLine
 62
7
  6
CONTINUOUS
 10
9.4929085374
 20
-25.4890546599
 11
20.8403831389
 21
-31.1627919606
  0
LINE
  5
28E
100
AcDbEntity
  8
RACCORDO
100
AcDbLine
 62
7
  6
CONTINUOUS
 10
4.5953578551
 20
-22.9990772894
 11
4.6157107874
 21
-23.0092537555
  0
LINE
  5
28F
100
AcDbEntity
  8
ASSI
100
AcDbLine
 62
7
  6
CONTINUOUS
 10
17.3314119421
 20
-29.3520151726
 11
14.9729860916
 21
-28.1728022474
  0
LINE
  5
290
100
AcDbEntity
  8
ASSI
100
AcDbLine
 62
7
  6
CONTINUOUS
 10
-14.4883932113
 20
-13.4421125959
 11
-16.8468190618
 21
-12.2628996707
  0
LINE
  5
291
100
AcDbEntity
  8
RACCORDO
100
AcDbLine
 62
7
  6
CONTINUOUS
 10
20.8403831389
 20
-31.0279779442
 11
17.4832151648
 21
-29.3493939571
  0
LINE
  5
292
100
AcDbEntity
  8
RACCORDO
100
AcDbLine
 62
7
  6
CONTINUOUS
 10
12.4627570184
 20
-26.8391648839
 11
10.2283709779
 21
-25.7219718636
  0
LINE
  5
293
100
AcDbEntity
  8
RACCORDO
100
AcDbLine
 62
7
  6
CONTINUOUS
 10
3.8076986287
 20
-22.511635689
 11
1.5733125881
 21
-21.3944426688
  0
LINE
  5
294
100
AcDbEntity
  8
RACCORDO
100
AcDbLine
 62
7
  6
CONTINUOUS
 10
-3.4471455583
 20
-18.8842135956
 11
-5.6815315988
 21
-17.7670205753
  0
LINE
  5
295
100
AcDbEntity
  8
RACCORDO
100
AcDbLine
 62
7
  6
CONTINUOUS
 10
-12.102203948
 20
-14.5566844007
 11
-14.3365899886
 21
-13.4394913804
  0
LINE
  5
296
100
AcDbEntity
  8
RACCORDO
100
AcDbLine
 62
7
  6
CONTINUOUS
 10
-19.357048135
 20
-10.9292623072
 11
-24.9530657822
 21
-8.1312534836
  0
LINE
  5
297
100
AcDbEntity
  8
ASSI
100
AcDbLine
 62
7
  6
CONTINUOUS
 10
17.4679600262
 20
-29.2788678585
 11
15.1144074479
 21
-28.1020915693
  0
LINE
  5
298
100
AcDbEntity
  8
ASSI
100
AcDbLine
 62
7
  6
CONTINUOUS
 10
-14.3518451272
 20
-13.3689652818
 11
-16.7053977055
 21
-12.1921889926
  0
LINE
  5
299
100
AcDbEntity
  8
ASSI
100
AcDbLine
 62
7
  6
CONTINUOUS
 10
17.6756520208
 20
-29.1705818214
 11
15.3265394822
 21
-27.9960255521
  0
LINE
  5
29A
100
AcDbEntity
  8
ASSI
100
AcDbLine
 62
7
  6
CONTINUOUS
 10
-14.1441531326
 20
-13.2606792447
 11
-16.4932656712
 21
-12.0861229754
  0
LINE
  5
29B
100
AcDbEntity
  8
ASSI
100
AcDbLine
 62
7
  6
CONTINUOUS
 10
17.8141133506
 20
-29.0983911301
 11
15.4679608385
 21
-27.925314874
  0
LINE
  5
29C
100
AcDbEntity
  8
ASSI
100
AcDbLine
 62
7
  6
CONTINUOUS
 10
-14.0056918028
 20
-13.1884885534
 11
-16.3518443149
 21
-12.0154122973
  0
LINE
  5
29D
100
AcDbEntity
  8
RACCORDO
100
AcDbLine
 62
7
  6
CONTINUOUS
 10
-10.6399188835
 20
-14.7822706154
 11
-6.1538671697
 21
-17.0252964723
  0
LINE
  5
29E
100
AcDbEntity
  8
RACCORDO
100
AcDbLine
 62
7
  6
CONTINUOUS
 10
5.2699836932
 20
-22.7372219037
 11
9.756035407
 21
-24.9802477606
  0
LINE
  5
29F
100
AcDbEntity
  8
RACCORDO
100
AcDbLine
 62
7
  6
CONTINUOUS
 10
20.8403831389
 20
-30.4501992955
 11
18.0489005898
 21
-29.0544580209
  0
LINE
  5
2A0
100
AcDbEntity
  8
RACCORDO
100
AcDbLine
 62
7
  6
CONTINUOUS
 10
13.0284424434
 20
-26.5442289477
 11
10.784182327
 21
-25.4220988895
  0
LINE
  5
2A1
100
AcDbEntity
  8
RACCORDO
100
AcDbLine
 62
7
  6
CONTINUOUS
 10
4.3832581295
 20
-22.2216367908
 11
2.1389980131
 21
-21.0995067326
  0
LINE
  5
2A2
100
AcDbEntity
  8
RACCORDO
100
AcDbLine
 62
7
  6
CONTINUOUS
 10
-2.8814601333
 20
-18.5892776594
 11
-5.1257202497
 21
-17.4671476012
  0
LINE
  5
2A3
100
AcDbEntity
  8
RACCORDO
100
AcDbLine
 62
7
  6
CONTINUOUS
 10
-11.5266444472
 20
-14.2666855024
 11
-13.7709045636
 21
-13.1445554442
  0
LINE
  5
2A4
100
AcDbEntity
  8
RACCORDO
100
AcDbLine
 62
7
  6
CONTINUOUS
 10
-18.79136271
 20
-10.634326371
 11
-24.3774739727
 21
-7.8412707397
  0
LINE
  5
2A5
100
AcDbEntity
  8
ASSI
100
AcDbLine
 62
7
  6
CONTINUOUS
 10
19.5691801693
 20
-29.7637925051
 11
15.6800928728
 21
-27.8192488568
  0
LINE
  5
2A6
100
AcDbEntity
  8
ASSI
100
AcDbLine
 62
7
  6
CONTINUOUS
 10
-12.2506249841
 20
-13.8538899284
 11
-16.1397122806
 21
-11.9093462801
  0
LINE
  5
2A7
100
AcDbEntity
  8
ASSI
100
AcDbLine
 62
7
  6
CONTINUOUS
 10
19.7106015256
 20
-29.693081827
 11
15.821514229
 21
-27.7485381787
  0
LINE
  5
2A8
100
AcDbEntity
  8
ASSI
100
AcDbLine
 62
7
  6
CONTINUOUS
 10
-12.1092036278
 20
-13.7831792503
 11
-15.9982909243
 21
-11.838635602
  0
LINE
  5
2A9
100
AcDbEntity
  8
RACCORDO
100
AcDbLine
 62
7
  6
CONTINUOUS
 10
-24.3775062814
 20
-7.489221012
 11
-24.024029226
 21
-7.6659595397
  0
LINE
  5
2AA
100
AcDbEntity
  8
ASSI
100
AcDbLine
 62
7
  6
CONTINUOUS
 10
19.9227335599
 20
-29.5870158098
 11
16.0336462634
 21
-27.6424721615
  0
LINE
  5
2AB
100
AcDbEntity
  8
ASSI
100
AcDbLine
 62
7
  6
CONTINUOUS
 10
-11.8970715935
 20
-13.6771132331
 11
-15.78615889
 21
-11.7325695848
  0
LINE
  5
2AC
100
AcDbEntity
  8
RACCORDO
100
AcDbLine
 62
7
  6
CONTINUOUS
 10
-24.3775062814
 20
-7.3693211271
 11
-23.8386727776
 21
-7.638737879
  0
LINE
  5
2AD
100
AcDbEntity
  8
RACCORDO
100
AcDbLine
 62
7
  6
CONTINUOUS
 10
-4.177233334
 20
-17.4533748144
 11
-2.6389426754
 21
-18.2225201437
  0
LINE
  5
2AE
100
AcDbEntity
  8
ASSI
100
AcDbLine
 62
7
  6
CONTINUOUS
 10
20.0641549162
 20
-29.5163051317
 11
16.1750676196
 21
-27.5717614834
  0
LINE
  5
2AF
100
AcDbEntity
  8
ASSI
100
AcDbLine
 62
7
  6
CONTINUOUS
 10
-11.7556502372
 20
-13.606402555
 11
-15.6447375338
 21
-11.6618589067
  0
LINE
  5
2B0
100
AcDbEntity
  8
RACCORDO
100
AcDbLine
 62
7
  6
CONTINUOUS
 10
-4.0467714699
 20
-17.4466658155
 11
-2.5084808113
 21
-18.2158111448
  0
LINE
  5
2B1
100
AcDbEntity
  8
ASSI
100
AcDbLine
 62
7
  6
CONTINUOUS
 10
20.2762869505
 20
-29.4102391145
 11
16.387199654
 21
-27.4656954662
  0
LINE
  5
2B2
100
AcDbEntity
  8
ASSI
100
AcDbLine
 62
7
  6
CONTINUOUS
 10
-11.5435182029
 20
-13.5003365378
 11
-15.4326054994
 21
-11.5557928895
  0
LINE
  5
2B3
100
AcDbEntity
  8
ASSI
100
AcDbLine
 62
7
  6
CONTINUOUS
 10
20.4177083068
 20
-29.3395284364
 11
16.5286210102
 21
-27.3949847881
  0
LINE
  5
2B4
100
AcDbEntity
  8
ASSI
100
AcDbLine
 62
7
  6
CONTINUOUS
 10
-11.4020968466
 20
-13.4296258597
 11
-15.2911841432
 21
-11.4850822114
  0
LINE
  5
2B5
100
AcDbEntity
  8
ASSI
100
AcDbLine
 62
7
  6
CONTINUOUS
 10
20.6298403411
 20
-29.2334624192
 11
16.7407530446
 21
-27.2889187709
  0
LINE
  5
2B6
100
AcDbEntity
  8
ASSI
100
AcDbLine
 62
7
  6
CONTINUOUS
 10
-11.1899648123
 20
-13.3235598425
 11
-15.0790521088
 21
-11.3790161942
  0
LINE
  5
2B7
100
AcDbEntity
  8
ASSI
100
AcDbLine
 62
7
  6
CONTINUOUS
 10
20.7712616974
 20
-29.1627517411
 11
16.8821744008
 21
-27.2182080928
  0
LINE
  5
2B8
100
AcDbEntity
  8
ASSI
100
AcDbLine
 62
7
  6
CONTINUOUS
 10
-11.048543456
 20
-13.2528491644
 11
-14.9376307526
 21
-11.3083055161
  0
LINE
  5
2B9
100
AcDbEntity
  8
ASSI
100
AcDbLine
 62
7
  6
CONTINUOUS
 10
20.8403831389
 20
-28.9851804275
 11
17.0943064352
 21
-27.1121420756
  0
LINE
  5
2BA
100
AcDbEntity
  8
ASSI
100
AcDbLine
 62
7
  6
CONTINUOUS
 10
-10.8364114217
 20
-13.1467831472
 11
-14.7254987182
 21
-11.2022394989
  0
LINE
  5
2BB
100
AcDbEntity
  8
ASSI
100
AcDbLine
 62
7
  6
CONTINUOUS
 10
1.2477029574
 20
-19.1578593143
 11
5.5051668029
 21
-21.2865912371
  0
LINE
  5
2BC
100
AcDbEntity
  8
ASSI
100
AcDbLine
 62
7
  6
CONTINUOUS
 10
1.369506526
 20
-19.1683593816
 11
5.5622486726
 21
-21.2647304549
  0
LINE
  5
2BD
100
AcDbEntity
  8
ASSI
100
AcDbLine
 62
7
  6
CONTINUOUS
 10
-14.6621996193
 20
-11.1163054855
 11
-14.6079151554
 21
-11.1434477175
  0
LINE
  5
2BE
100
AcDbEntity
  8
ASSI
100
AcDbLine
 62
7
  6
CONTINUOUS
 10
-10.5889240483
 20
-13.1529432711
 11
-10.4047357737
 21
-13.2450374083
  0
LINE
  5
2BF
100
AcDbEntity
  8
ASSI
100
AcDbLine
 62
7
  6
CONTINUOUS
 10
17.1576055341
 20
-27.0262080622
 11
17.211889998
 21
-27.0533502942
  0
LINE
  5
2C0
100
AcDbEntity
  8
ASSI
100
AcDbLine
 62
7
  6
CONTINUOUS
 10
20.8403831389
 20
-28.8437590713
 11
17.2357277914
 21
-27.0414313975
  0
LINE
  5
2C1
100
AcDbEntity
  8
ASSI
100
AcDbLine
 62
7
  6
CONTINUOUS
 10
-10.6949900654
 20
-13.0760724691
 11
-14.584077362
 21
-11.1315288208
  0
LINE
  5
2C2
100
AcDbEntity
  8
ASSI
100
AcDbLine
 62
7
  6
CONTINUOUS
 10
-14.540397097
 20
-11.1268050297
 11
-10.3476528578
 21
-13.2231771493
  0
LINE
  5
2C3
100
AcDbEntity
  8
ASSI
100
AcDbLine
 62
7
  6
CONTINUOUS
 10
17.2794080564
 20
-27.0367076064
 11
20.8403831389
 21
-28.8171951477
  0
LINE
  5
2C4
100
AcDbEntity
  8
ASSI
100
AcDbLine
 62
7
  6
CONTINUOUS
 10
-12.1092036278
 20
-13.7831792503
 11
-12.0031376106
 21
-13.8600500523
  0
LINE
  5
2C5
100
AcDbEntity
  8
ASSI
100
AcDbLine
 62
7
  6
CONTINUOUS
 10
-11.7556502372
 20
-13.606402555
 11
-11.64958422
 21
-13.683273357
  0
LINE
  5
2C6
100
AcDbEntity
  8
ASSI
100
AcDbLine
 62
7
  6
CONTINUOUS
 10
-11.4020968466
 20
-13.4296258597
 11
-11.2960308295
 21
-13.5064966617
  0
LINE
  5
2C7
100
AcDbEntity
  8
ASSI
100
AcDbLine
 62
7
  6
CONTINUOUS
 10
-11.048543456
 20
-13.2528491644
 11
-10.9424774389
 21
-13.3297199664
  0
LINE
  5
2C8
100
AcDbEntity
  8
ASSI
100
AcDbLine
 62
7
  6
CONTINUOUS
 10
-10.6949900654
 20
-13.0760724691
 11
-10.5889240483
 21
-13.1529432711
  0
LINE
  5
2C9
100
AcDbEntity
  8
DRAFT
100
AcDbLine
 62
7
  6
CONTINUOUS
 10
-11.7202948982
 20
-15.2983720677
 11
-11.7202948982
 21
-14.8824529421
  0
LINE
  5
2CA
100
AcDbEntity
  8
RACCORDO
100
AcDbLine
 62
7
  6
CONTINUOUS
 10
-11.3145447216
 20
-15.0652833411
 11
-11.3145447216
 21
-14.6325034164
  0
LINE
  5
2CB
100
AcDbEntity
  8
ASSI
100
AcDbLine
 62
7
  6
CONTINUOUS
 10
-10.3977222439
 20
-13.2413801229
 11
-10.3977222439
 21
-13.7535062578
  0
LINE
  5
2CC
100
AcDbEntity
  8
ASSI
100
AcDbLine
 62
7
  6
CONTINUOUS
 10
-10.346351209
 20
-13.225621691
 11
-10.346351209
 21
-13.7361724755
  0
LINE
  5
2CD
100
AcDbEntity
  8
DRAFT
100
AcDbLine
 62
7
  6
CONTINUOUS
 10
-25.1309354327
 20
-1.3221001698
 11
-25.6447443199
 21
-1.60742146
  0
LINE
  5
2CE
100
AcDbEntity
  8
RACCORDO
100
AcDbLine
 62
7
  6
CONTINUOUS
 10
-25.1309354327
 20
-1.5354408707
 11
-24.589606007
 21
-1.2626889886
  0
LINE
  5
2CF
100
AcDbEntity
  8
DRAFT
100
AcDbLine
 62
7
  6
CONTINUOUS
 10
-25.6447443199
 20
-1.0651957262
 11
-25.1309354327
 21
-1.3221001698
  0
LINE
  5
2D0
100
AcDbEntity
  8
RACCORDO
100
AcDbLine
 62
7
  6
CONTINUOUS
 10
-25.5968351334
 20
-1.076293406
 11
-25.6447443199
 21
-1.0523388127
  0
LINE
  5
2D1
100
AcDbEntity
  8
RACCORDO
100
AcDbLine
 62
7
  6
CONTINUOUS
 10
-24.589606007
 20
-1.2626889886
 11
-25.1936904267
 21
-0.9606467788
  0
LINE
  5
2D2
100
AcDbEntity
  8
ASSI
100
AcDbLine
 62
7
  6
CONTINUOUS
 10
19.7106015256
 20
-29.693081827
 11
19.8166675428
 21
-29.769952629
  0
LINE
  5
2D3
100
AcDbEntity
  8
ASSI
100
AcDbLine
 62
7
  6
CONTINUOUS
 10
20.0641549162
 20
-29.5163051317
 11
20.1702209333
 21
-29.5931759337
  0
LINE
  5
2D4
100
AcDbEntity
  8
ASSI
100
AcDbLine
 62
7
  6
CONTINUOUS
 10
20.4177083068
 20
-29.3395284364
 11
20.5237743239
 21
-29.4163992384
  0
LINE
  5
2D5
100
AcDbEntity
  8
ASSI
100
AcDbLine
 62
7
  6
CONTINUOUS
 10
20.7712616974
 20
-29.1627517411
 11
20.8403831389
 21
-29.2128471514
  0
LINE
  5
2D6
100
AcDbEntity
  8
0
100
AcDbLine
 62
7
  6
CONTINUOUS
 10
-4.3555267492
 20
-22.6153089638
 11
-3.9919345636
 21
-23.9845514589
  0
LINE
  5
2D7
100
AcDbEntity
  8
0
100
AcDbLine
 62
7
  6
CONTINUOUS
 10
-6.5318366658
 20
-20.8961003463
 11
-6.0611262882
 21
-22.9499555966
  0
LINE
  5
2D8
100
AcDbEntity
  8
0
100
AcDbLine
 62
7
  6
CONTINUOUS
 10
-5.9121205046
 20
-22.4576881629
 11
-6.1951506004
 21
-21.0644433791
  0
LINE
  5
2D9
100
AcDbEntity
  8
0
100
AcDbLine
 62
7
  6
CONTINUOUS
 10
-5.8241171666
 20
-22.1240217909
 11
-6.0537292441
 21
-20.9937327009
  0
LINE
  5
2DA
100
AcDbEntity
  8
0
100
AcDbLine
 62
7
  6
CONTINUOUS
 10
-3.213075536
 20
-24.3739809727
 11
-3.3519209023
 21
-22.4860582281
  0
LINE
  5
2DB
100
AcDbEntity
  8
0
100
AcDbLine
 62
7
  6
CONTINUOUS
 10
-3.0846378046
 20
-24.1267279932
 11
-3.210499546
 21
-22.41534755
  0
LINE
  5
2DC
100
AcDbEntity
  8
0
100
AcDbLine
 62
7
  6
CONTINUOUS
 10
-3.5799522326
 20
-23.0080464233
 11
-3.5162751456
 21
-24.2223811679
  0
LINE
  5
2DD
100
AcDbEntity
  8
RACCORDO
100
AcDbLine
 62
7
  6
CONTINUOUS
 10
-5.9417674441
 20
-17.7717166691
 11
-5.9417674441
 21
-17.3911143862
  0
LINE
  5
2DE
100
AcDbEntity
  8
0
100
AcDbLine
 62
7
  6
CONTINUOUS
 10
-5.1957032484
 20
-21.5640579358
 11
-5.1957032484
 21
-23.3826671165
  0
LINE
  5
2DF
100
AcDbEntity
  8
0
100
AcDbLine
 62
7
  6
CONTINUOUS
 10
-4.8857670325
 20
-23.5376352244
 11
-4.8857670325
 21
-21.7190260438
  0
LINE
  5
2E0
100
AcDbEntity
  8
0
100
AcDbLine
 62
7
  6
CONTINUOUS
 10
-4.7443456763
 20
-23.4669245463
 11
-4.7443456763
 21
-21.6483153657
  0
LINE
  5
2E1
100
AcDbEntity
  8
DRAFT
100
AcDbLine
 62
7
  6
CONTINUOUS
 10
-10.9241898897
 20
-14.3100488589
 11
-10.8671462378
 21
-14.0778349855
  0
LINE
  5
2E2
100
AcDbEntity
  8
ASSI
100
AcDbLine
 62
7
  6
CONTINUOUS
 10
-16.8721213741
 20
-12.3065397041
 11
-16.8468190618
 21
-12.2628996707
  0
LINE
  5
2E3
100
AcDbEntity
  8
ASSI
100
AcDbLine
 62
7
  6
CONTINUOUS
 10
-16.5886168447
 20
-12.250579423
 11
-16.4932656712
 21
-12.0861229754
  0
LINE
  5
2E4
100
AcDbEntity
  8
ASSI
100
AcDbLine
 62
7
  6
CONTINUOUS
 10
-16.2350634541
 20
-12.0738027277
 11
-16.1397122806
 21
-11.9093462801
  0
LINE
  5
2E5
100
AcDbEntity
  8
ASSI
100
AcDbLine
 62
7
  6
CONTINUOUS
 10
-15.8815100635
 20
-11.8970260324
 11
-15.78615889
 21
-11.7325695848
  0
LINE
  5
2E6
100
AcDbEntity
  8
ASSI
100
AcDbLine
 62
7
  6
CONTINUOUS
 10
-15.527956673
 20
-11.7202493371
 11
-15.4326054994
 21
-11.5557928895
  0
LINE
  5
2E7
100
AcDbEntity
  8
ASSI
100
AcDbLine
 62
7
  6
CONTINUOUS
 10
-15.1744032824
 20
-11.5434726418
 11
-15.0790521088
 21
-11.3790161942
  0
LINE
  5
2E8
100
AcDbEntity
  8
ASSI
100
AcDbLine
 62
7
  6
CONTINUOUS
 10
-14.8208498918
 20
-11.3666959465
 11
-14.7254987182
 21
-11.2022394989
  0
LINE
  5
2E9
100
AcDbEntity
  8
RACCORDO
100
AcDbLine
 62
7
  6
CONTINUOUS
 10
-27.509047934
 20
-9.4485887158
 11
-26.0000730076
 21
-8.3484625636
  0
LINE
  5
2EA
100
AcDbEntity
  8
RACCORDO
100
AcDbLine
 62
7
  6
CONTINUOUS
 10
-27.3484663079
 20
-9.8405788989
 11
-25.830123597
 21
-8.7335626747
  0
LINE
  5
2EB
100
AcDbEntity
  8
RACCORDO
100
AcDbLine
 62
7
  6
CONTINUOUS
 10
-24.9530657822
 20
-1.9185058009
 11
-24.3775062814
 21
-1.6285069026
  0
LINE
  5
2EC
100
AcDbEntity
  8
RACCORDO
100
AcDbLine
 62
7
  6
CONTINUOUS
 10
-25.3847354078
 20
-0.9225752176
 11
-24.449451219
 21
-0.490629985
  0
LINE
  5
2ED
100
AcDbEntity
  8
RACCORDO
100
AcDbLine
 62
7
  6
CONTINUOUS
 10
-25.4658727523
 20
-1.0863495965
 11
-24.5305885635
 21
-0.6544043639
  0
LINE
  5
2EE
100
AcDbEntity
  8
RACCORDO
100
AcDbLine
 62
7
  6
CONTINUOUS
 10
-25.5968351334
 20
4.8982085485
 11
-25.6121527635
 21
4.9058673636
  0
LINE
  5
2EF
100
AcDbEntity
  8
RACCORDO
100
AcDbLine
 62
7
  6
CONTINUOUS
 10
-24.6615509446
 20
5.3694567582
 11
-25.1309354327
 21
5.6041490023
  0
LINE
  5
2F0
100
AcDbEntity
  8
0
100
AcDbLine
 62
7
  6
CONTINUOUS
 10
-3.968508116
 20
-23.1874012857
 11
-4.2751704275
 21
-22.0244334655
  0
LINE
  5
2F1
100
AcDbEntity
  8
0
100
AcDbLine
 62
7
  6
CONTINUOUS
 10
-3.8758306243
 20
-22.9318372891
 11
-4.1337490712
 21
-21.9537227874
  0
LINE
  5
2F2
100
AcDbEntity
  8
0
100
AcDbLine
 62
7
  6
CONTINUOUS
 10
-1.9432807556
 20
-25.0088783629
 11
-2.3988540983
 21
-22.9625916301
  0
LINE
  5
2F3
100
AcDbEntity
  8
0
100
AcDbLine
 62
7
  6
CONTINUOUS
 10
-1.8522684223
 20
-24.7117468097
 11
-2.2574327421
 21
-22.891880952
  0
LINE
  5
2F4
100
AcDbEntity
  8
0
100
AcDbLine
 62
7
  6
CONTINUOUS
 10
-2.3502299005
 20
-24.4423668072
 11
-2.2699400468
 21
-24.8455487173
  0
LINE
  5
2F5
100
AcDbEntity
  8
0
100
AcDbLine
 62
7
  6
CONTINUOUS
 10
-2.5545901242
 20
-23.3844012226
 11
-2.4121703332
 21
-24.1304796005
  0
LINE
  5
2F6
100
AcDbEntity
  8
RACCORDO
100
AcDbLine
 62
7
  6
CONTINUOUS
 10
-2.669328099
 20
-18.9551908737
 11
-2.669328099
 21
-19.4079363417
  0
LINE
  5
2F7
100
AcDbEntity
  8
RACCORDO
100
AcDbLine
 62
7
  6
CONTINUOUS
 10
-2.4268429498
 20
-18.5883380577
 11
-2.4268429498
 21
-19.5291789163
  0
LINE
  5
2F8
100
AcDbEntity
  8
RACCORDO
100
AcDbLine
 62
7
  6
CONTINUOUS
 10
-2.3426448899
 20
-18.4841393021
 11
-2.3426448899
 21
-19.5712779462
  0
LINE
  5
2F9
100
AcDbEntity
  8
0
100
AcDbLine
 62
7
  6
CONTINUOUS
 10
-1.8522684223
 20
-23.2571305288
 11
-1.8522684223
 21
-25.054384874
  0
LINE
  5
2FA
100
AcDbEntity
  8
0
100
AcDbLine
 62
7
  6
CONTINUOUS
 10
-1.5538566328
 20
-24.1941037062
 11
-1.5538566328
 21
-23.6948898735
  0
LINE
  5
2FB
100
AcDbEntity
  8
0
100
AcDbLine
 62
7
  6
CONTINUOUS
 10
-1.5435796251
 20
-25.2087292726
 11
-1.5435796251
 21
-24.4970686442
  0
LINE
  5
2FC
100
AcDbEntity
  8
0
100
AcDbLine
 62
7
  6
CONTINUOUS
 10
-1.4124352765
 20
-24.123393028
 11
-1.4124352765
 21
-23.7486153467
  0
LINE
  5
2FD
100
AcDbEntity
  8
0
100
AcDbLine
 62
7
  6
CONTINUOUS
 10
-1.4021582689
 20
-25.1380185944
 11
-1.4021582689
 21
-24.5677793223
  0
LINE
  5
2FE
100
AcDbEntity
  8
0
100
AcDbLine
 62
7
  6
CONTINUOUS
 10
-1.0554384638
 20
-24.6039399687
 11
-1.0554384638
 21
-24.5931942164
  0
LINE
  5
2FF
100
AcDbEntity
  8
0
100
AcDbLine
 62
7
  6
CONTINUOUS
 10
-4.4224112725
 20
-23.7693131044
 11
-4.3555267492
 21
-22.6153089638
  0
LINE
  5
300
100
AcDbEntity
  8
0
100
AcDbLine
 62
7
  6
CONTINUOUS
 10
-4.2809899163
 20
-23.6986024263
 11
-4.2428065604
 21
-23.0397990346
  0
LINE
  5
301
100
AcDbEntity
  8
0
100
AcDbLine
 62
7
  6
CONTINUOUS
 10
-4.5848499636
 20
-21.8695936974
 11
-4.7189188235
 21
-23.6210593289
  0
LINE
  5
302
100
AcDbEntity
  8
0
100
AcDbLine
 62
7
  6
CONTINUOUS
 10
-5.6204453213
 20
-21.3517960186
 11
-5.9121205046
 21
-22.4576881629
  0
LINE
  5
303
100
AcDbEntity
  8
ASSI
100
AcDbLine
 62
7
  6
CONTINUOUS
 10
-12.2734614478
 20
-13.8932770021
 11
-12.2506249841
 21
-13.8538899284
  0
LINE
  5
304
100
AcDbEntity
  8
ASSI
100
AcDbLine
 62
7
  6
CONTINUOUS
 10
-12.0031376106
 20
-13.8600500523
 11
-11.8970715935
 21
-13.6771132331
  0
LINE
  5
305
100
AcDbEntity
  8
ASSI
100
AcDbLine
 62
7
  6
CONTINUOUS
 10
-11.64958422
 20
-13.683273357
 11
-11.5435182029
 21
-13.5003365378
  0
LINE
  5
306
100
AcDbEntity
  8
ASSI
100
AcDbLine
 62
7
  6
CONTINUOUS
 10
-11.2960308295
 20
-13.5064966617
 11
-11.1899648123
 21
-13.3235598425
  0
LINE
  5
307
100
AcDbEntity
  8
ASSI
100
AcDbLine
 62
7
  6
CONTINUOUS
 10
-10.9424774389
 20
-13.3297199664
 11
-10.8364114217
 21
-13.1467831472
  0
LINE
  5
308
100
AcDbEntity
  8
RACCORDO
100
AcDbLine
 62
7
  6
CONTINUOUS
 10
-25.940189904
 20
-8.3114720041
 11
-25.6447443199
 21
-8.1626100814
  0
LINE
  5
309
100
AcDbEntity
  8
RACCORDO
100
AcDbLine
 62
7
  6
CONTINUOUS
 10
-24.9530657822
 20
-8.1312534836
 11
-24.3775062814
 21
-7.8412545853
  0
LINE
  5
30A
100
AcDbEntity
  8
RACCORDO
100
AcDbLine
 62
7
  6
CONTINUOUS
 10
-25.696208714
 20
-8.6612262625
 11
-25.4326445943
 21
-8.5284279954
  0
LINE
  5
30B
100
AcDbEntity
  8
RACCORDO
100
AcDbLine
 62
7
  6
CONTINUOUS
 10
39.7570787722
 20
24.7656924779
 11
42.2673078454
 21
26.0208070145
  0
LINE
  5
30C
100
AcDbEntity
  8
RACCORDO
100
AcDbLine
 62
7
  6
CONTINUOUS
 10
40.4641855534
 20
23.5461136835
 11
42.9744146266
 21
24.8012282201
  0
LINE
  5
30D
100
AcDbEntity
  8
RACCORDO
100
AcDbLine
 62
7
  6
CONTINUOUS
 10
-24.024029226
 20
-7.6659595397
 11
-24.3774739727
 21
-7.8412707397
  0
LINE
  5
30E
100
AcDbEntity
  8
RACCORDO
100
AcDbLine
 62
7
  6
CONTINUOUS
 10
-23.8119295004
 20
-8.0317774537
 11
-23.9045648811
 21
-8.0777252855
  0
LINE
  5
30F
100
AcDbEntity
  8
RACCORDO
100
AcDbLine
 62
7
  6
CONTINUOUS
 10
-25.6425427019
 20
-8.1671255707
 11
-25.1309354327
 21
-7.917681111
  0
LINE
  5
310
100
AcDbEntity
  8
RACCORDO
100
AcDbLine
 62
7
  6
CONTINUOUS
 10
-25.4306681775
 20
-8.5324815999
 11
-24.919094118
 21
-8.2830533322
  0
LINE
  5
311
100
AcDbEntity
  8
DRAFT
100
AcDbLine
 62
7
  6
CONTINUOUS
 10
4.1896076785
 20
-23.2533233561
 11
4.1896076785
 21
-22.8374042304
  0
LINE
  5
312
100
AcDbEntity
  8
RACCORDO
100
AcDbLine
 62
7
  6
CONTINUOUS
 10
4.5953578551
 20
-23.0202346294
 11
4.5953578551
 21
-22.5874547047
  0
LINE
  5
313
100
AcDbEntity
  8
ASSI
100
AcDbLine
 62
7
  6
CONTINUOUS
 10
5.5121803328
 20
-21.2829339516
 11
5.5121803328
 21
-21.7084575461
  0
LINE
  5
314
100
AcDbEntity
  8
ASSI
100
AcDbLine
 62
7
  6
CONTINUOUS
 10
5.5635513677
 20
-21.2671751239
 11
5.5635513677
 21
-21.6911237533
  0
LINE
  5
315
100
AcDbEntity
  8
0
100
AcDbLine
 62
7
  6
CONTINUOUS
 10
-2.7089119366
 20
-23.9821087988
 11
-2.5545901242
 21
-23.3844012226
  0
LINE
  5
316
100
AcDbEntity
  8
0
100
AcDbLine
 62
7
  6
CONTINUOUS
 10
-2.5674905804
 20
-23.9113981207
 11
-2.5022364183
 21
-23.6586606337
  0
LINE
  5
317
100
AcDbEntity
  8
0
100
AcDbLine
 62
7
  6
CONTINUOUS
 10
-2.8578342816
 20
-24.5516015999
 11
-2.7723111306
 21
-24.2313261922
  0
LINE
  5
318
100
AcDbEntity
  8
0
100
AcDbLine
 62
7
  6
CONTINUOUS
 10
-2.7164129253
 20
-24.4808909218
 11
-2.6642053884
 21
-24.2853790633
  0
LINE
  5
319
100
AcDbEntity
  8
0
100
AcDbLine
 62
7
  6
CONTINUOUS
 10
-2.6986793944
 20
-22.8126789821
 11
-3.1644074976
 21
-24.3983149919
  0
LINE
  5
31A
100
AcDbEntity
  8
0
100
AcDbLine
 62
7
  6
CONTINUOUS
 10
-5.7879949802
 20
-23.0865212506
 11
-5.3107205304
 21
-21.5066584141
  0
LINE
  5
31B
100
AcDbEntity
  8
0
100
AcDbLine
 62
7
  6
CONTINUOUS
 10
-5.646573624
 20
-23.0158105725
 11
-5.1692991741
 21
-21.435947736
  0
LINE
  5
31C
100
AcDbEntity
  8
0
100
AcDbLine
 62
7
  6
CONTINUOUS
 10
-3.6585719001
 20
-22.3327327292
 11
-3.968508116
 21
-23.1874012857
  0
LINE
  5
31D
100
AcDbEntity
  8
0
100
AcDbLine
 62
7
  6
CONTINUOUS
 10
-3.9484665885
 20
-24.0062854465
 11
-3.5799522326
 21
-23.0080464233
  0
LINE
  5
31E
100
AcDbEntity
  8
0
100
AcDbLine
 62
7
  6
CONTINUOUS
 10
-3.8070452322
 20
-23.9355747683
 11
-3.5656093321
 21
-23.2815683958
  0
LINE
  5
31F
100
AcDbEntity
  8
ASSI
100
AcDbLine
 62
7
  6
CONTINUOUS
 10
-10.6596347264
 20
-13.9720957901
 11
-10.4049298528
 21
-13.7874997393
  0
LINE
  5
320
100
AcDbEntity
  8
RACCORDO
100
AcDbLine
 62
7
  6
CONTINUOUS
 10
-19.357048135
 20
-10.9292623072
 11
-18.79136271
 21
-10.634326371
  0
LINE
  5
321
100
AcDbEntity
  8
RACCORDO
100
AcDbLine
 62
7
  6
CONTINUOUS
 10
-19.022499933
 20
-11.2313504247
 11
-18.5792306757
 21
-11.0002395853
  0
LINE
  5
322
100
AcDbEntity
  8
RACCORDO
100
AcDbLine
 62
7
  6
CONTINUOUS
 10
-13.906777891
 20
-13.1369170157
 11
-14.4724633159
 21
-13.4318529519
  0
LINE
  5
323
100
AcDbEntity
  8
RACCORDO
100
AcDbLine
 62
7
  6
CONTINUOUS
 10
-13.7709045636
 20
-13.1445554442
 11
-14.3365899886
 21
-13.4394913804
  0
LINE
  5
324
100
AcDbEntity
  8
RACCORDO
100
AcDbLine
 62
7
  6
CONTINUOUS
 10
22.5063321028
 20
8.213628
 11
24.2008049732
 21
9.0673977058
  0
LINE
  5
325
100
AcDbEntity
  8
RACCORDO
100
AcDbLine
 62
7
  6
CONTINUOUS
 10
23.0012314626
 20
7.3600528674
 11
24.6957043329
 21
8.2138225731
  0
LINE
  5
326
100
AcDbEntity
  8
ASSI
100
AcDbLine
 62
7
  6
CONTINUOUS
 10
-16.8468190618
 20
-12.2628996707
 11
-16.7053977055
 21
-12.1921889926
  0
LINE
  5
327
100
AcDbEntity
  8
ASSI
100
AcDbLine
 62
7
  6
CONTINUOUS
 10
-16.4932656712
 20
-12.0861229754
 11
-16.3518443149
 21
-12.0154122973
  0
LINE
  5
328
100
AcDbEntity
  8
ASSI
100
AcDbLine
 62
7
  6
CONTINUOUS
 10
-16.1397122806
 20
-11.9093462801
 11
-15.9982909243
 21
-11.838635602
  0
LINE
  5
329
100
AcDbEntity
  8
ASSI
100
AcDbLine
 62
7
  6
CONTINUOUS
 10
-15.78615889
 20
-11.7325695848
 11
-15.6447375338
 21
-11.6618589067
  0
LINE
  5
32A
100
AcDbEntity
  8
ASSI
100
AcDbLine
 62
7
  6
CONTINUOUS
 10
-15.4326054994
 20
-11.5557928895
 11
-15.2911841432
 21
-11.4850822114
  0
LINE
  5
32B
100
AcDbEntity
  8
ASSI
100
AcDbLine
 62
7
  6
CONTINUOUS
 10
-15.0790521088
 20
-11.3790161942
 11
-14.9376307526
 21
-11.3083055161
  0
LINE
  5
32C
100
AcDbEntity
  8
ASSI
100
AcDbLine
 62
7
  6
CONTINUOUS
 10
-14.7254987182
 20
-11.2022394989
 11
-14.584077362
 21
-11.1315288208
  0
LINE
  5
32D
100
AcDbEntity
  8
ASSI
100
AcDbLine
 62
7
  6
CONTINUOUS
 10
-14.6621996193
 20
-11.1163054855
 11
-17.0776807933
 21
-12.2037599945
  0
LINE
  5
32E
100
AcDbEntity
  8
RACCORDO
100
AcDbLine
 62
7
  6
CONTINUOUS
 10
-21.1901197331
 20
16.5828349012
 11
-21.1901593527
 21
16.5828546989
  0
LINE
  5
32F
100
AcDbEntity
  8
RACCORDO
100
AcDbLine
 62
7
  6
CONTINUOUS
 10
-24.3775062814
 20
15.8865963711
 11
-23.9347606293
 21
15.6652235451
  0
LINE
  5
330
100
AcDbEntity
  8
DRAFT
100
AcDbLine
 62
7
  6
CONTINUOUS
 10
-25.6447443199
 20
17.987363157
 11
-25.1309354327
 21
17.7304587134
  0
LINE
  5
331
100
AcDbEntity
  8
RACCORDO
100
AcDbLine
 62
7
  6
CONTINUOUS
 10
-25.5968351334
 20
17.9762654773
 11
-25.6447443199
 21
18.0002200705
  0
LINE
  5
332
100
AcDbEntity
  8
RACCORDO
100
AcDbLine
 62
7
  6
CONTINUOUS
 10
-24.589606007
 20
17.7898698946
 11
-25.1936904267
 21
18.0919121045
  0
LINE
  5
333
100
AcDbEntity
  8
RACCORDO
100
AcDbLine
 62
7
  6
CONTINUOUS
 10
-21.6287557893
 20
16.7302129985
 11
-21.3205767388
 21
16.5761234733
  0
LINE
  5
334
100
AcDbEntity
  8
RACCORDO
100
AcDbLine
 62
7
  6
CONTINUOUS
 10
-21.4982939251
 20
16.7369219974
 11
-21.1901148746
 21
16.5828324722
  0
LINE
  5
335
100
AcDbEntity
  8
RACCORDO
100
AcDbLine
 62
7
  6
CONTINUOUS
 10
9.9681351326
 20
-25.7266679575
 11
9.9681351326
 21
-25.3460656746
  0
LINE
  5
336
100
AcDbEntity
  8
DRAFT
100
AcDbLine
 62
7
  6
CONTINUOUS
 10
4.985712687
 20
-22.2650001473
 11
5.0427563389
 21
-22.0327862738
  0
LINE
  5
337
100
AcDbEntity
  8
ASSI
100
AcDbLine
 62
7
  6
CONTINUOUS
 10
-10.4047357737
 20
-13.2450374083
 11
-11.9043975257
 21
-14.0778089632
  0
LINE
  5
338
100
AcDbEntity
  8
RACCORDO
100
AcDbLine
 62
7
  6
CONTINUOUS
 10
-10.7772124693
 20
-14.7753802636
 11
-11.6804059116
 21
-15.2626738465
  0
LINE
  5
339
100
AcDbEntity
  8
RACCORDO
100
AcDbLine
 62
7
  6
CONTINUOUS
 10
-10.6399188835
 20
-14.7822706154
 11
-11.5431123258
 21
-15.2695641983
  0
LINE
  5
33A
100
AcDbEntity
  8
ASSI
100
AcDbLine
 62
7
  6
CONTINUOUS
 10
-10.6596347264
 20
-13.9720957901
 11
-11.4176117915
 21
-14.3583292303
  0
LINE
  5
33B
100
AcDbEntity
  8
RACCORDO
100
AcDbLine
 62
7
  6
CONTINUOUS
 10
-12.102203948
 20
-14.5566844007
 11
-11.5266444472
 21
-14.2666855024
  0
LINE
  5
33C
100
AcDbEntity
  8
RACCORDO
100
AcDbLine
 62
7
  6
CONTINUOUS
 10
-11.7656301145
 20
-14.8597853339
 11
-11.3145447216
 21
-14.6325034164
  0
LINE
  5
33D
100
AcDbEntity
  8
DRAFT
100
AcDbLine
 62
7
  6
CONTINUOUS
 10
-11.3188316164
 20
-14.579381681
 11
-11.0034888611
 21
-14.4208391176
  0
LINE
  5
33E
100
AcDbEntity
  8
DRAFT
100
AcDbLine
 62
7
  6
CONTINUOUS
 10
-11.3335977722
 20
-14.5156710567
 11
-10.9241898897
 21
-14.3100488589
  0
LINE
  5
33F
100
AcDbEntity
  8
ASSI
100
AcDbLine
 62
7
  6
CONTINUOUS
 10
-12.2506249841
 20
-13.8538899284
 11
-12.1092036278
 21
-13.7831792503
  0
LINE
  5
340
100
AcDbEntity
  8
ASSI
100
AcDbLine
 62
7
  6
CONTINUOUS
 10
-11.8970715935
 20
-13.6771132331
 11
-11.7556502372
 21
-13.606402555
  0
LINE
  5
341
100
AcDbEntity
  8
ASSI
100
AcDbLine
 62
7
  6
CONTINUOUS
 10
-11.5435182029
 20
-13.5003365378
 11
-11.4020968466
 21
-13.4296258597
  0
LINE
  5
342
100
AcDbEntity
  8
ASSI
100
AcDbLine
 62
7
  6
CONTINUOUS
 10
-11.1899648123
 20
-13.3235598425
 11
-11.048543456
 21
-13.2528491644
  0
LINE
  5
343
100
AcDbEntity
  8
ASSI
100
AcDbLine
 62
7
  6
CONTINUOUS
 10
-10.8364114217
 20
-13.1467831472
 11
-10.6949900654
 21
-13.0760724691
  0
LINE
  5
344
100
AcDbEntity
  8
ASSI
100
AcDbLine
 62
7
  6
CONTINUOUS
 10
-10.5889240483
 20
-13.1529432711
 11
-12.1715264791
 21
-13.9442444865
  0
LINE
  5
345
100
AcDbEntity
  8
ASSI
100
AcDbLine
 62
7
  6
CONTINUOUS
 10
-10.3977222439
 20
-13.7535062578
 11
-11.4830865403
 21
-14.2942394042
  0
LINE
  5
346
100
AcDbEntity
  8
DRAFT
100
AcDbLine
 62
7
  6
CONTINUOUS
 10
-11.7202948982
 20
-14.8824529421
 11
-12.256886557
 21
-15.116307014
  0
LINE
  5
347
100
AcDbEntity
  8
RACCORDO
100
AcDbLine
 62
7
  6
CONTINUOUS
 10
-25.5968351334
 20
23.9507674318
 11
-25.6121527635
 21
23.9584262469
  0
LINE
  5
348
100
AcDbEntity
  8
RACCORDO
100
AcDbLine
 62
7
  6
CONTINUOUS
 10
-24.6615509446
 20
24.4220156415
 11
-25.1309354327
 21
24.6567078856
  0
LINE
  5
349
100
AcDbEntity
  8
RACCORDO
100
AcDbLine
 62
7
  6
CONTINUOUS
 10
13.2405744777
 20
-26.910142162
 11
13.2405744777
 21
-27.36288763
  0
LINE
  5
34A
100
AcDbEntity
  8
RACCORDO
100
AcDbLine
 62
7
  6
CONTINUOUS
 10
-5.8188251845
 20
-17.7601302235
 11
-5.2630138354
 21
-17.4602572494
  0
LINE
  5
34B
100
AcDbEntity
  8
RACCORDO
100
AcDbLine
 62
7
  6
CONTINUOUS
 10
-5.6815315988
 20
-17.7670205753
 11
-5.1257202497
 21
-17.4671476012
  0
LINE
  5
34C
100
AcDbEntity
  8
RACCORDO
100
AcDbLine
 62
7
  6
CONTINUOUS
 10
-3.4471455583
 20
-18.8842135956
 11
-2.8814601333
 21
-18.5892776594
  0
LINE
  5
34D
100
AcDbEntity
  8
RACCORDO
100
AcDbLine
 62
7
  6
CONTINUOUS
 10
-3.1125973563
 20
-19.186301713
 11
-2.669328099
 21
-18.9551908737
  0
LINE
  5
34E
100
AcDbEntity
  8
RACCORDO
100
AcDbLine
 62
7
  6
CONTINUOUS
 10
-7.0891513585
 20
-17.496544682
 11
-6.1538671697
 21
-17.0252964723
  0
LINE
  5
34F
100
AcDbEntity
  8
RACCORDO
100
AcDbLine
 62
7
  6
CONTINUOUS
 10
-6.3209078994
 20
-17.5821464415
 11
-5.9417674441
 21
-17.3911143862
  0
LINE
  5
350
100
AcDbEntity
  8
0
100
AcDbLine
 62
7
  6
CONTINUOUS
 10
-6.3904153096
 20
-20.8253896682
 11
-6.5318366658
 21
-20.8961003463
  0
LINE
  5
351
100
AcDbEntity
  8
0
100
AcDbLine
 62
7
  6
CONTINUOUS
 10
-6.0537292441
 20
-20.9937327009
 11
-6.1951506004
 21
-21.0644433791
  0
LINE
  5
352
100
AcDbEntity
  8
0
100
AcDbLine
 62
7
  6
CONTINUOUS
 10
-5.4790239651
 20
-21.2810853405
 11
-5.6204453213
 21
-21.3517960186
  0
LINE
  5
353
100
AcDbEntity
  8
RACCORDO
100
AcDbLine
 62
7
  6
CONTINUOUS
 10
-2.6389426754
 20
-18.2225201437
 11
-3.128915198
 21
-18.465550127
  0
LINE
  5
354
100
AcDbEntity
  8
RACCORDO
100
AcDbLine
 62
7
  6
CONTINUOUS
 10
-2.4268429498
 20
-18.5883380577
 11
-2.7319109066
 21
-18.7396540132
  0
LINE
  5
355
100
AcDbEntity
  8
RACCORDO
100
AcDbLine
 62
7
  6
CONTINUOUS
 10
-4.3067191616
 20
-17.4426367025
 11
-4.757952775
 21
-17.6510313385
  0
LINE
  5
356
100
AcDbEntity
  8
RACCORDO
100
AcDbLine
 62
7
  6
CONTINUOUS
 10
-4.177233334
 20
-17.4533748144
 11
-4.6846147341
 21
-17.687700359
  0
LINE
  5
357
100
AcDbEntity
  8
DRAFT
100
AcDbLine
 62
7
  6
CONTINUOUS
 10
-6.4169940393
 20
-17.5341033715
 11
-6.9535856981
 21
-17.7679574435
  0
LINE
  5
358
100
AcDbEntity
  8
RACCORDO
100
AcDbLine
 62
7
  6
CONTINUOUS
 10
-27.4100621718
 20
30.5152810917
 11
20.600996295
 21
6.5097518583
  0
LINE
  5
359
100
AcDbEntity
  8
RACCORDO
100
AcDbLine
 62
7
  6
CONTINUOUS
 10
-27.4880301275
 20
30.6775432318
 11
20.5230283328
 21
6.6720140017
  0
LWPOLYLINE
  5
35A
100
AcDbEntity
  8
RACCORDO
100
AcDbPolyline
 62
7
  6
CONTINUOUS
 90
22
 70
0
 10
20.6010277401
 20
6.5097359596
 10
20.6076412423
 20
6.5062506275
 10
20.6210875203
 20
6.4981450761
 10
20.6362393044
 20
6.4875086486
 10
20.652563176
 20
6.4743598044
 10
20.6697131271
 20
6.4586811802
 10
20.6873561227
 20
6.4405101432
 10
20.7050520953
 20
6.4200755584
 10
20.7224573263
 20
6.3976107244
 10
20.7393239017
 20
6.3733040401
 10
20.7554389628
 20
6.3473392831
 10
20.7705607733
 20
6.3200098589
 10
20.7844934033
 20
6.2916137878
 10
20.7971243862
 20
6.2623271406
 10
20.8082958301
 20
6.2324750334
 10
20.8178851548
 20
6.2023965628
 10
20.8258372082
 20
6.1723066217
 10
20.8320860234
 20
6.1425160845
 10
20.8365841665
 20
6.1134019588
 10
20.8393281175
 20
6.0853615062
 10
20.8403679191
 20
6.0587862006
 10
20.8403825367
 20
6.0554788166
  0
LINE
  5
35B
100
AcDbEntity
  8
RACCORDO
100
AcDbLine
 62
7
  6
CONTINUOUS
 10
20.8403831389
 20
6.0553467635
 11
20.8403831389
 21
-33.7364676071
  0
LINE
  5
35C
100
AcDbEntity
  8
RACCORDO
100
AcDbLine
 62
7
  6
CONTINUOUS
 10
20.9282511046
 20
5.9492807463
 11
20.9282511046
 21
-33.8425336456
  0
LWPOLYLINE
  5
35D
100
AcDbEntity
  8
RACCORDO
100
AcDbPolyline
 62
7
  6
CONTINUOUS
 90
8
 70
0
 10
20.8403827133
 20
-33.7366058079
 10
20.8402418526
 20
-33.7470575344
 10
20.8393436043
 20
-33.7644458477
 10
20.8376736578
 20
-33.7803853297
 10
20.8353658307
 20
-33.7944451726
 10
20.8327239729
 20
-33.8058983344
 10
20.8300863937
 20
-33.8145365471
 10
20.8295873914
 20
-33.8159331438
  0
LINE
  5
35E
100
AcDbEntity
  8
ASSI
100
AcDbLine
 62
7
  6
CONTINUOUS
 10
5.2502678503
 20
-21.9270470785
 11
5.5049727239
 21
-21.7424510276
  0
LINE
  5
35F
100
AcDbEntity
  8
0
100
AcDbLine
 62
7
  6
CONTINUOUS
 10
5.5051668029
 20
-21.2865912371
 11
4.0875689446
 21
-22.0737921983
  0
LINE
  5
360
100
AcDbEntity
  8
RACCORDO
100
AcDbLine
 62
7
  6
CONTINUOUS
 10
2.0031246857
 20
-21.091868304
 11
1.4374392608
 21
-21.3868042402
  0
LINE
  5
361
100
AcDbEntity
  8
RACCORDO
100
AcDbLine
 62
7
  6
CONTINUOUS
 10
2.1389980131
 20
-21.0995067326
 11
1.5733125881
 21
-21.3944426688
  0
LINE
  5
362
100
AcDbEntity
  8
ASSI
100
AcDbLine
 62
7
  6
CONTINUOUS
 10
5.2502678503
 20
-21.9270470785
 11
4.4922907852
 21
-22.3132805187
  0
LINE
  5
363
100
AcDbEntity
  8
RACCORDO
100
AcDbLine
 62
7
  6
CONTINUOUS
 10
3.8076986287
 20
-22.511635689
 11
4.3832581295
 21
-22.2216367908
  0
LINE
  5
364
100
AcDbEntity
  8
0
100
AcDbLine
 62
7
  6
CONTINUOUS
 10
-5.1692991741
 20
-21.435947736
 11
-5.3107205304
 21
-21.5066584141
  0
LINE
  5
365
100
AcDbEntity
  8
0
100
AcDbLine
 62
7
  6
CONTINUOUS
 10
-5.0542818922
 20
-21.4933472577
 11
-5.1957032484
 21
-21.5640579358
  0
LINE
  5
366
100
AcDbEntity
  8
0
100
AcDbLine
 62
7
  6
CONTINUOUS
 10
-4.7443456763
 20
-21.6483153657
 11
-4.8857670325
 21
-21.7190260438
  0
LINE
  5
367
100
AcDbEntity
  8
0
100
AcDbLine
 62
7
  6
CONTINUOUS
 10
-4.4434286074
 20
-21.7988830193
 11
-4.5848499636
 21
-21.8695936974
  0
LINE
  5
368
100
AcDbEntity
  8
0
100
AcDbLine
 62
7
  6
CONTINUOUS
 10
-4.1337490712
 20
-21.9537227874
 11
-4.2751704275
 21
-22.0244334655
  0
LINE
  5
369
100
AcDbEntity
  8
0
100
AcDbLine
 62
7
  6
CONTINUOUS
 10
-5.646573624
 20
-23.0158105725
 11
-5.7879949802
 21
-23.0865212506
  0
LINE
  5
36A
100
AcDbEntity
  8
0
100
AcDbLine
 62
7
  6
CONTINUOUS
 10
-3.5171505438
 20
-22.2620220511
 11
-3.6585719001
 21
-22.3327327292
  0
LINE
  5
36B
100
AcDbEntity
  8
0
100
AcDbLine
 62
7
  6
CONTINUOUS
 10
-3.210499546
 20
-22.41534755
 11
-3.3519209023
 21
-22.4860582281
  0
LINE
  5
36C
100
AcDbEntity
  8
0
100
AcDbLine
 62
7
  6
CONTINUOUS
 10
-4.7443456763
 20
-23.4669245463
 11
-4.8857670325
 21
-23.5376352244
  0
LINE
  5
36D
100
AcDbEntity
  8
0
100
AcDbLine
 62
7
  6
CONTINUOUS
 10
-2.5572580381
 20
-22.7419683039
 11
-2.6986793944
 21
-22.8126789821
  0
LINE
  5
36E
100
AcDbEntity
  8
0
100
AcDbLine
 62
7
  6
CONTINUOUS
 10
-4.2809899163
 20
-23.6986024263
 11
-4.4224112725
 21
-23.7693131044
  0
LINE
  5
36F
100
AcDbEntity
  8
0
100
AcDbLine
 62
7
  6
CONTINUOUS
 10
-2.2574327421
 20
-22.891880952
 11
-2.3988540983
 21
-22.9625916301
  0
LINE
  5
370
100
AcDbEntity
  8
0
100
AcDbLine
 62
7
  6
CONTINUOUS
 10
-3.8070452322
 20
-23.9355747683
 11
-3.9484665885
 21
-24.0062854465
  0
LINE
  5
371
100
AcDbEntity
  8
0
100
AcDbLine
 62
7
  6
CONTINUOUS
 10
-1.7108470661
 20
-23.1864198506
 11
-1.8522684223
 21
-23.2571305288
  0
LINE
  5
372
100
AcDbEntity
  8
0
100
AcDbLine
 62
7
  6
CONTINUOUS
 10
-2.5674905804
 20
-23.9113981207
 11
-2.7089119366
 21
-23.9821087988
  0
LINE
  5
373
100
AcDbEntity
  8
0
100
AcDbLine
 62
7
  6
CONTINUOUS
 10
-3.1476522174
 20
-24.3412693134
 11
-3.213075536
 21
-24.3739809727
  0
LINE
  5
374
100
AcDbEntity
  8
0
100
AcDbLine
 62
7
  6
CONTINUOUS
 10
-0.9459727001
 20
-23.5880030187
 11
-1.0873940564
 21
-23.6587136968
  0
LINE
  5
375
100
AcDbEntity
  8
0
100
AcDbLine
 62
7
  6
CONTINUOUS
 10
-2.7164129253
 20
-24.4808909218
 11
-2.8578342816
 21
-24.5516015999
  0
LINE
  5
376
100
AcDbEntity
  8
0
100
AcDbLine
 62
7
  6
CONTINUOUS
 10
-1.4124352765
 20
-24.123393028
 11
-1.5538566328
 21
-24.1941037062
  0
LINE
  5
377
100
AcDbEntity
  8
0
100
AcDbLine
 62
7
  6
CONTINUOUS
 10
-1.2353099921
 20
-24.2119556702
 11
-1.3767313484
 21
-24.2826663484
  0
LINE
  5
378
100
AcDbEntity
  8
0
100
AcDbLine
 62
7
  6
CONTINUOUS
 10
-1.8522684223
 20
-24.9633721963
 11
-1.9432807556
 21
-25.0088783629
  0
LINE
  5
379
100
AcDbEntity
  8
0
100
AcDbLine
 62
7
  6
CONTINUOUS
 10
-1.0511401629
 20
-24.6017908182
 11
-1.0554384638
 21
-24.6039399687
  0
LINE
  5
37A
100
AcDbEntity
  8
0
100
AcDbLine
 62
7
  6
CONTINUOUS
 10
-1.0124071759
 20
-24.5865015767
 11
-0.8709858197
 21
-24.5157908986
  0
LINE
  5
37B
100
AcDbEntity
  8
0
100
AcDbLine
 62
7
  6
CONTINUOUS
 10
-1.4021582689
 20
-25.1380185944
 11
-1.5435796251
 21
-25.2087292726
  0
LINE
  5
37C
100
AcDbEntity
  8
ASSI
100
AcDbLine
 62
7
  6
CONTINUOUS
 10
5.5121803328
 20
-21.7084575461
 11
4.4268160364
 21
-22.2491906926
  0
LINE
  5
37D
100
AcDbEntity
  8
0
100
AcDbLine
 62
7
  6
CONTINUOUS
 10
1.2477029574
 20
-19.1578593143
 11
-1.0766370294
 21
-20.2042818765
  0
LINE
  5
37E
100
AcDbEntity
  8
RACCORDO
100
AcDbLine
 62
7
  6
CONTINUOUS
 10
22.2979022829
 20
7.8496450389
 11
-29.2651874162
 21
33.6311898885
  0
LINE
  5
37F
100
AcDbEntity
  8
RACCORDO
100
AcDbLine
 62
7
  6
CONTINUOUS
 10
22.5063321028
 20
8.213628
 11
-29.0544742577
 21
33.9940311803
  0
LINE
  5
380
100
AcDbEntity
  8
RACCORDO
100
AcDbLine
 62
7
  6
CONTINUOUS
 10
24.2008049732
 20
9.0673977058
 11
-27.4181408276
 21
34.8768706061
  0
LINE
  5
381
100
AcDbEntity
  8
RACCORDO
100
AcDbLine
 62
7
  6
CONTINUOUS
 10
22.5807019171
 20
-36.907591532
 11
22.5807019171
 21
7.3618878203
  0
LINE
  5
382
100
AcDbEntity
  8
RACCORDO
100
AcDbLine
 62
7
  6
CONTINUOUS
 10
23.0012314626
 20
-36.9094264849
 11
23.0012314626
 21
7.3600528674
  0
LINE
  5
383
100
AcDbEntity
  8
RACCORDO
100
AcDbLine
 62
7
  6
CONTINUOUS
 10
24.6957043329
 20
-36.1268627605
 11
24.6957043329
 21
8.2138225731
  0
LINE
  5
384
100
AcDbEntity
  8
ASSI
100
AcDbLine
 62
7
  6
CONTINUOUS
 10
14.9476837793
 20
-28.2164422808
 11
14.9729860916
 21
-28.1728022474
  0
LINE
  5
385
100
AcDbEntity
  8
ASSI
100
AcDbLine
 62
7
  6
CONTINUOUS
 10
15.2311883087
 20
-28.1604819997
 11
15.3265394822
 21
-27.9960255521
  0
LINE
  5
386
100
AcDbEntity
  8
RACCORDO
100
AcDbLine
 62
7
  6
CONTINUOUS
 10
5.1326901074
 20
-22.730331552
 11
4.2294966651
 21
-23.2176251349
  0
LINE
  5
387
100
AcDbEntity
  8
RACCORDO
100
AcDbLine
 62
7
  6
CONTINUOUS
 10
5.2699836932
 20
-22.7372219037
 11
4.3667902509
 21
-23.2245154866
  0
LINE
  5
388
100
AcDbEntity
  8
RACCORDO
100
AcDbLine
 62
7
  6
CONTINUOUS
 10
4.1442724622
 20
-22.8147366223
 11
4.5953578551
 21
-22.5874547047
  0
LINE
  5
389
100
AcDbEntity
  8
RACCORDO
100
AcDbLine
 62
7
  6
CONTINUOUS
 10
8.8207512182
 20
-25.4514959703
 11
9.756035407
 21
-24.9802477606
  0
LINE
  5
38A
100
AcDbEntity
  8
RACCORDO
100
AcDbLine
 62
7
  6
CONTINUOUS
 10
9.5889946773
 20
-25.5370977298
 11
9.9681351326
 21
-25.3460656746
  0
LINE
  5
38B
100
AcDbEntity
  8
DRAFT
100
AcDbLine
 62
7
  6
CONTINUOUS
 10
4.5910709603
 20
-22.5343329693
 11
4.9064137156
 21
-22.375790406
  0
LINE
  5
38C
100
AcDbEntity
  8
DRAFT
100
AcDbLine
 62
7
  6
CONTINUOUS
 10
4.5763048045
 20
-22.470622345
 11
4.985712687
 21
-22.2650001473
  0
LINE
  5
38D
100
AcDbEntity
  8
0
100
AcDbLine
 62
7
  6
CONTINUOUS
 10
-0.7353664168
 20
-24.9792236097
 11
-0.8767877731
 21
-25.0499342879
  0
LINE
  5
38E
100
AcDbEntity
  8
0
100
AcDbLine
 62
7
  6
CONTINUOUS
 10
-0.6294119155
 20
-25.5243917711
 11
-0.7708332718
 21
-25.5951024493
  0
LINE
  5
38F
100
AcDbEntity
  8
DRAFT
100
AcDbLine
 62
7
  6
CONTINUOUS
 10
4.1896076785
 20
-22.8374042304
 11
3.6530160197
 21
-23.0712583024
  0
LINE
  5
390
100
AcDbEntity
  8
DRAFT
100
AcDbLine
 62
7
  6
CONTINUOUS
 10
9.4929085374
 20
-25.4890546599
 11
8.9563168786
 21
-25.7229087318
  0
LWPOLYLINE
  5
391
100
AcDbEntity
  8
RACCORDO
100
AcDbPolyline
 62
7
  6
CONTINUOUS
 90
6
 70
0
 10
-27.4307037053
 20
30.5232827401
 10
-27.4306664713
 20
30.5232744888
 10
-27.4290140821
 20
30.5228898957
 10
-27.4248899842
 20
30.5216315826
 10
-27.4185889815
 20
30.5192182521
 10
-27.4100790835
 20
30.5152893355
  0
LWPOLYLINE
  5
392
100
AcDbEntity
  8
RACCORDO
100
AcDbPolyline
 62
7
  6
CONTINUOUS
 90
3
 70
0
 10
20.8295873914
 20
-33.8159331438
 10
20.8278263194
 20
-33.8203256308
 10
20.8265097576
 20
-33.8230323055
  0
LINE
  5
393
100
AcDbEntity
  8
ASSI
100
AcDbLine
 62
7
  6
CONTINUOUS
 10
15.5847416993
 20
-27.9837053044
 11
15.6800928728
 21
-27.8192488568
  0
LINE
  5
394
100
AcDbEntity
  8
ASSI
100
AcDbLine
 62
7
  6
CONTINUOUS
 10
15.9382950898
 20
-27.8069286091
 11
16.0336462634
 21
-27.6424721615
  0
LINE
  5
395
100
AcDbEntity
  8
ASSI
100
AcDbLine
 62
7
  6
CONTINUOUS
 10
16.2918484804
 20
-27.6301519138
 11
16.387199654
 21
-27.4656954662
  0
LINE
  5
396
100
AcDbEntity
  8
ASSI
100
AcDbLine
 62
7
  6
CONTINUOUS
 10
16.645401871
 20
-27.4533752185
 11
16.7407530446
 21
-27.2889187709
  0
LINE
  5
397
100
AcDbEntity
  8
ASSI
100
AcDbLine
 62
7
  6
CONTINUOUS
 10
16.9989552616
 20
-27.2765985232
 11
17.0943064352
 21
-27.1121420756
  0
LINE
  5
398
100
AcDbEntity
  8
ASSI
100
AcDbLine
 62
7
  6
CONTINUOUS
 10
19.5463437056
 20
-29.8031795788
 11
19.5691801693
 21
-29.7637925051
  0
LINE
  5
399
100
AcDbEntity
  8
ASSI
100
AcDbLine
 62
7
  6
CONTINUOUS
 10
19.8166675428
 20
-29.769952629
 11
19.9227335599
 21
-29.5870158098
  0
LINE
  5
39A
100
AcDbEntity
  8
ASSI
100
AcDbLine
 62
7
  6
CONTINUOUS
 10
20.1702209333
 20
-29.5931759337
 11
20.2762869505
 21
-29.4102391145
  0
LINE
  5
39B
100
AcDbEntity
  8
ASSI
100
AcDbLine
 62
7
  6
CONTINUOUS
 10
20.5237743239
 20
-29.4163992384
 11
20.6298403411
 21
-29.2334624192
  0
LINE
  5
39C
100
AcDbEntity
  8
RACCORDO
100
AcDbLine
 62
7
  6
CONTINUOUS
 10
10.0910773922
 20
-25.7150815118
 11
10.6468887413
 21
-25.4152085377
  0
LINE
  5
39D
100
AcDbEntity
  8
RACCORDO
100
AcDbLine
 62
7
  6
CONTINUOUS
 10
10.2283709779
 20
-25.7219718636
 11
10.784182327
 21
-25.4220988895
  0
LINE
  5
39E
100
AcDbEntity
  8
RACCORDO
100
AcDbLine
 62
7
  6
CONTINUOUS
 10
12.4627570184
 20
-26.8391648839
 11
13.0284424434
 21
-26.5442289477
  0
LINE
  5
39F
100
AcDbEntity
  8
RACCORDO
100
AcDbLine
 62
7
  6
CONTINUOUS
 10
12.7973052204
 20
-27.1412530014
 11
13.2405744777
 21
-26.910142162
  0
LINE
  5
3A0
100
AcDbEntity
  8
ASSI
100
AcDbLine
 62
7
  6
CONTINUOUS
 10
14.9729860916
 20
-28.1728022474
 11
15.1144074479
 21
-28.1020915693
  0
LINE
  5
3A1
100
AcDbEntity
  8
ASSI
100
AcDbLine
 62
7
  6
CONTINUOUS
 10
15.3265394822
 20
-27.9960255521
 11
15.4679608385
 21
-27.925314874
  0
LINE
  5
3A2
100
AcDbEntity
  8
ASSI
100
AcDbLine
 62
7
  6
CONTINUOUS
 10
15.6800928728
 20
-27.8192488568
 11
15.821514229
 21
-27.7485381787
  0
LINE
  5
3A3
100
AcDbEntity
  8
ASSI
100
AcDbLine
 62
7
  6
CONTINUOUS
 10
16.0336462634
 20
-27.6424721615
 11
16.1750676196
 21
-27.5717614834
  0
LINE
  5
3A4
100
AcDbEntity
  8
ASSI
100
AcDbLine
 62
7
  6
CONTINUOUS
 10
16.387199654
 20
-27.4656954662
 11
16.5286210102
 21
-27.3949847881
  0
LINE
  5
3A5
100
AcDbEntity
  8
ASSI
100
AcDbLine
 62
7
  6
CONTINUOUS
 10
16.7407530446
 20
-27.2889187709
 11
16.8821744008
 21
-27.2182080928
  0
LINE
  5
3A6
100
AcDbEntity
  8
ASSI
100
AcDbLine
 62
7
  6
CONTINUOUS
 10
17.0943064352
 20
-27.1121420756
 11
17.2357277914
 21
-27.0414313975
  0
LINE
  5
3A7
100
AcDbEntity
  8
ASSI
100
AcDbLine
 62
7
  6
CONTINUOUS
 10
17.1576055341
 20
-27.0262080622
 11
14.7421243601
 21
-28.1136625712
  0
LINE
  5
3A8
100
AcDbEntity
  8
RACCORDO
100
AcDbLine
 62
7
  6
CONTINUOUS
 10
-27.0388224887
 20
30.3296612502
 11
-27.509047934
 21
30.3432261769
  0
LINE
  5
3A9
100
AcDbEntity
  8
RACCORDO
100
AcDbLine
 62
7
  6
CONTINUOUS
 10
-27.4282453149
 20
30.5231108755
 11
-27.4281676905
 21
30.5231086336
  0
LINE
  5
3AA
100
AcDbEntity
  8
RACCORDO
100
AcDbLine
 62
7
  6
CONTINUOUS
 10
20.826664527
 20
-33.8228242655
 11
20.8278767359
 21
-33.8211868491
  0
LINE
  5
3AB
100
AcDbEntity
  8
RACCORDO
100
AcDbLine
 62
7
  6
CONTINUOUS
 10
20.6625972656
 20
-33.8461106856
 11
20.8403831389
 21
-33.623045114
  0
LINE
  5
3AC
100
AcDbEntity
  8
ASSI
100
AcDbLine
 62
7
  6
CONTINUOUS
 10
20.8403831389
 20
-29.4740668505
 11
19.9154076277
 21
-29.9877115399
  0
LINE
  5
3AD
100
AcDbEntity
  8
RACCORDO
100
AcDbLine
 62
7
  6
CONTINUOUS
 10
17.9130272624
 20
-29.0468195924
 11
17.3473418375
 21
-29.3417555286
  0
LINE
  5
3AE
100
AcDbEntity
  8
RACCORDO
100
AcDbLine
 62
7
  6
CONTINUOUS
 10
18.0489005898
 20
-29.0544580209
 11
17.4832151648
 21
-29.3493939571
  0
LINE
  5
3AF
100
AcDbEntity
  8
ASSI
100
AcDbLine
 62
7
  6
CONTINUOUS
 10
20.8403831389
 20
-30.0449486065
 11
20.4389692501
 21
-30.2494923511
  0
LINE
  5
3B0
100
AcDbEntity
  8
DRAFT
100
AcDbLine
 62
7
  6
CONTINUOUS
 10
20.7091880736
 20
-30.3846017628
 11
20.8163162923
 21
-30.3307416943
  0
LINE
  5
3B1
100
AcDbEntity
  8
DRAFT
100
AcDbLine
 62
7
  6
CONTINUOUS
 10
20.6383284074
 20
-30.3491719297
 11
20.8403831389
 21
-30.2476913775
  0
LINE
  5
3B2
100
AcDbEntity
  8
ASSI
100
AcDbLine
 62
7
  6
CONTINUOUS
 10
19.5691801693
 20
-29.7637925051
 11
19.7106015256
 21
-29.693081827
  0
LINE
  5
3B3
100
AcDbEntity
  8
ASSI
100
AcDbLine
 62
7
  6
CONTINUOUS
 10
19.9227335599
 20
-29.5870158098
 11
20.0641549162
 21
-29.5163051317
  0
LINE
  5
3B4
100
AcDbEntity
  8
ASSI
100
AcDbLine
 62
7
  6
CONTINUOUS
 10
20.2762869505
 20
-29.4102391145
 11
20.4177083068
 21
-29.3395284364
  0
LINE
  5
3B5
100
AcDbEntity
  8
ASSI
100
AcDbLine
 62
7
  6
CONTINUOUS
 10
20.6298403411
 20
-29.2334624192
 11
20.7712616974
 21
-29.1627517411
  0
LINE
  5
3B6
100
AcDbEntity
  8
ASSI
100
AcDbLine
 62
7
  6
CONTINUOUS
 10
20.8403831389
 20
-29.2580948309
 11
19.6482786743
 21
-29.8541470632
  0
LINE
  5
3B7
100
AcDbEntity
  8
ASSI
100
AcDbLine
 62
7
  6
CONTINUOUS
 10
20.8403831389
 20
-29.9532141544
 11
20.3425039502
 21
-30.2012597011
  0
LINE
  5
3B8
100
AcDbEntity
  8
RACCORDO
100
AcDbLine
 62
7
  6
CONTINUOUS
 10
39.7570787722
 20
-66.5205283101
 11
39.7570787722
 21
23.5461136835
  0
LINE
  5
3B9
100
AcDbEntity
  8
RACCORDO
100
AcDbLine
 62
7
  6
CONTINUOUS
 10
40.4641855534
 20
-66.5205283101
 11
40.4641855534
 21
23.5461136835
  0
LINE
  5
3BA
100
AcDbEntity
  8
RACCORDO
100
AcDbLine
 62
7
  6
CONTINUOUS
 10
42.9744146266
 20
24.8012282201
 11
42.9744146266
 21
-65.2654137735
  0
LINE
  5
3BB
100
AcDbEntity
  8
RACCORDO
100
AcDbLine
 62
7
  6
CONTINUOUS
 10
43.120861236
 20
24.9780049154
 11
43.120861236
 21
-65.0886370782
  0
LINE
  5
3BC
100
AcDbEntity
  8
RACCORDO
100
AcDbLine
 62
7
  6
CONTINUOUS
 10
23.0012314626
 20
-36.9094264849
 11
24.6957043329
 21
-36.1268627605
  0
LINE
  5
3BD
100
AcDbEntity
  8
RACCORDO
100
AcDbLine
 62
7
  6
CONTINUOUS
 10
39.4035253816
 20
24.1559030807
 11
-42.620861236
 21
65.1680963895
  0
LINE
  5
3BE
100
AcDbEntity
  8
RACCORDO
100
AcDbLine
 62
7
  6
CONTINUOUS
 10
39.7570787722
 20
24.7656924779
 11
-42.2673078454
 21
65.7778857867
  0
LINE
  5
3BF
100
AcDbEntity
  8
RACCORDO
100
AcDbLine
 62
7
  6
CONTINUOUS
 10
-39.7570787722
 20
67.0330003233
 11
42.2673078454
 21
26.0208070145
  0
LINE
  5
3C0
100
AcDbEntity
  8
RACCORDO
100
AcDbLine
 62
7
  6
CONTINUOUS
 10
-39.5334719745
 20
67.0472012169
 11
42.4909146432
 21
26.0350079081
  0
LINE
  5
3C1
100
AcDbEntity
  8
RACCORDO
100
AcDbLine
 62
7
  6
CONTINUOUS
 10
22.8104942849
 20
-37.2922209846
 11
24.5063838624
 21
-36.5090029779
  0
LINE
  5
3C2
100
AcDbEntity
  8
RACCORDO
100
AcDbLine
 62
7
  6
CONTINUOUS
 10
40.4641855534
 20
-66.5205283101
 11
42.9744146266
 21
-65.2654137735
  0
LINE
  5
3C3
100
AcDbEntity
  8
RACCORDO
100
AcDbLine
 62
7
  6
CONTINUOUS
 10
40.2042923677
 20
-67.0614021105
 11
42.7145214409
 21
-65.8062875739
  0
ARC
  5
3C4
100
AcDbEntity
  8
RACCORDO
100
AcDbCircle
 62
7
  6
CONTINUOUS
 10
42.5463066205
 20
-65.4698911828
 40
0.376106549
100
AcDbArc
 50
296.5673172925
 51
300.3024823316
  0
ARC
  5
3C5
100
AcDbEntity
  8
0
100
AcDbCircle
 62
7
  6
CONTINUOUS
 10
-1.2770796093
 20
-24.828000612
 40
0.3151634009
100
AcDbArc
 50
42.2335013854
 51
45.3110278025
  0
ARC
  5
3C6
100
AcDbEntity
  8
RACCORDO
100
AcDbCircle
 62
7
  6
CONTINUOUS
 10
-21.3256670413
 20
10.9158738437
 40
0.3022061597
100
AcDbArc
 50
298.4212682617
 51
318.2487470835
  0
ARC
  5
3C7
100
AcDbEntity
  8
RACCORDO
100
AcDbCircle
 62
7
  6
CONTINUOUS
 10
-2.6426312415
 20
-18.4841352778
 40
0.2999860174
100
AcDbArc
 50
359.9999783173
 51
63.4464442407
  0
ARC
  5
3C8
100
AcDbEntity
  8
RACCORDO
100
AcDbCircle
 62
7
  6
CONTINUOUS
 10
-21.3242653048
 20
16.3145083392
 40
0.2999860174
100
AcDbArc
 50
359.9999783172
 51
63.4464442407
  0
ARC
  5
3C9
100
AcDbEntity
  8
RACCORDO
100
AcDbCircle
 62
7
  6
CONTINUOUS
 10
-21.3242126474
 20
10.9141601055
 40
0.2999338858
100
AcDbArc
 50
318.3283552134
 51
359.99400452
  0
ARC
  5
3CA
100
AcDbEntity
  8
RACCORDO
100
AcDbCircle
 62
7
  6
CONTINUOUS
 10
-4.1809585842
 20
-17.7148888735
 40
0.2998949273
100
AcDbArc
 50
63.4695635946
 51
114.7934812241
  0
ARC
  5
3CB
100
AcDbEntity
  8
RACCORDO
100
AcDbCircle
 62
7
  6
CONTINUOUS
 10
-21.6324810395
 20
16.4686989395
 40
0.2998949273
100
AcDbArc
 50
63.4695635946
 51
114.7934812241
  0
ARC
  5
3CC
100
AcDbEntity
  8
RACCORDO
100
AcDbCircle
 62
7
  6
CONTINUOUS
 10
-39.6170313146
 20
66.880089139
 40
0.186838518
100
AcDbArc
 50
63.4340433619
 51
65.1968065089
  0
ARC
  5
3CD
100
AcDbEntity
  8
RACCORDO
100
AcDbCircle
 62
7
  6
CONTINUOUS
 10
-25.7332815202
 20
-8.588291384
 40
0.1745913392
100
AcDbArc
 50
236.3114207215
 51
243.5817652259
  0
ARC
  5
3CE
100
AcDbEntity
  8
DRAFT
100
AcDbCircle
 62
7
  6
CONTINUOUS
 10
20.758292699
 20
-30.2156238837
 40
0.1289093642
100
AcDbArc
 50
296.7594766855
 51
309.6601179862
  0
ARC
  5
3CF
100
AcDbEntity
  8
RACCORDO
100
AcDbCircle
 62
7
  6
CONTINUOUS
 10
-25.8908784393
 20
-8.3364582254
 40
0.1098524368
100
AcDbArc
 50
179.9827045327
 51
186.2736360138
  0
ARC
  5
3D0
100
AcDbEntity
  8
ASSI
100
AcDbCircle
 62
7
  6
CONTINUOUS
 10
-14.6221140583
 20
-11.1943535158
 40
0.0874961196
100
AcDbArc
 50
105.061869074
 51
111.661129725
  0
ARC
  5
3D1
100
AcDbEntity
  8
ASSI
100
AcDbCircle
 62
7
  6
CONTINUOUS
 10
17.1976910951
 20
-27.1042560925
 40
0.0874961196
100
AcDbArc
 50
105.0618690741
 51
111.6611297249
  0
SPLINE
  5
3D2
100
AcDbEntity
  8
0
100
AcDbSpline
 62
7
  6
CONTINUOUS
 70
0
 71
3
 72
11
 73
7
 74
5
 42
0.0000001
 43
0.0000001
 44
0.0000000001
 12
0.3138156219
 22
-0.2015300707
 32
0.0
 13
0.0047321734
 23
-0.3729238803
 33
0.0
 40
0.0
 40
0.0
 40
0.0
 40
0.0
 40
0.2339806254
 40
0.4918424311
 40
0.7556842856
 40
1.0
 40
1.0
 40
1.0
 40
1.0
 10
-1.3110498012
 20
-23.8055884473
 30
0.0
 10
-1.2865742093
 20
-23.8213064913
 30
0.0
 10
-1.239830787
 20
-23.8618090461
 30
0.0
 10
-1.1836790059
 20
-23.9381811275
 30
0.0
 10
-1.1472871277
 20
-24.0270363058
 30
0.0
 10
-1.1363586191
 20
-24.0900808217
 30
0.0
 10
-1.1359732376
 20
-24.1204512097
 30
0.0
 11
-1.3110498012
 21
-23.8055884473
 31
0.0
 11
-1.2444080155
 21
-23.8619256102
 31
0.0
 11
-1.1875388571
 21
-23.9394799574
 31
0.0
 11
-1.1499214493
 21
-24.0304066191
 31
0.0
 11
-1.1359732376
 21
-24.1204512097
 31
0.0
  0
SPLINE
  5
3D3
100
AcDbEntity
  8
0
100
AcDbSpline
 62
7
  6
CONTINUOUS
 70
0
 71
3
 72
11
 73
7
 74
5
 42
0.0000001
 43
0.0000001
 44
0.0000000001
 12
0.0026069209
 22
-0.2082217904
 32
0.0
 13
-0.1862538386
 23
-0.09312689
 33
0.0
 40
0.0
 40
0.0
 40
0.0
 40
0.0
 40
0.2862348143
 40
0.5536263917
 40
0.7910497861
 40
1.0
 40
1.0
 40
1.0
 40
1.0
 10
-1.1359732376
 20
-24.1204512097
 30
0.0
 10
-1.1357245071
 20
-24.1403179849
 30
0.0
 10
-1.1381753638
 20
-24.1788643445
 30
0.0
 10
-1.1511364062
 20
-24.2325611603
 30
0.0
 10
-1.1734396148
 20
-24.2774391186
 30
0.0
 10
-1.1972448882
 20
-24.2992033851
 30
0.0
 10
-1.2102174814
 20
-24.3056896796
 30
0.0
 11
-1.1359732376
 21
-24.1204512097
 31
0.0
 11
-1.1400283833
 21
-24.179918103
 31
0.0
 11
-1.1537324593
 21
-24.2338864736
 31
0.0
 11
-1.1771180691
 21
-24.2774466166
 31
0.0
 11
-1.2102174814
 21
-24.3056896796
 31
0.0
  0
SPLINE
  5
3D4
100
AcDbEntity
  8
0
100
AcDbSpline
 62
7
  6
CONTINUOUS
 70
0
 71
3
 72
10
 73
6
 74
4
 42
0.0000001
 43
0.0000001
 44
0.0000000001
 12
0.257046478
 22
-0.0748047261
 32
0.0
 13
0.2252633536
 23
-0.1446549704
 33
0.0
 40
0.0
 40
0.0
 40
0.0
 40
0.0
 40
0.2362920832
 40
0.4814109498
 40
1.0
 40
1.0
 40
1.0
 40
1.0
 10
-1.5538566328
 20
-23.6948898735
 30
0.0
 10
-1.5336106168
 20
-23.7007817951
 30
0.0
 10
-1.4925823813
 20
-23.7136514617
 30
0.0
 10
-1.4098870476
 20
-23.7474115562
 30
0.0
 10
-1.349989504
 20
-23.7805829527
 30
0.0
 10
-1.3110498012
 20
-23.8055884473
 30
0.0
 11
-1.5538566328
 21
-23.6948898735
 31
0.0
 11
-1.4936280308
 21
-23.7142304684
 31
0.0
 11
-1.4328373297
 21
-23.7389403052
 31
0.0
 11
-1.3110498012
 21
-23.8055884473
 31
0.0
  0
SPLINE
  5
3D5
100
AcDbEntity
  8
0
100
AcDbSpline
 62
7
  6
CONTINUOUS
 70
0
 71
3
 72
10
 73
6
 74
4
 42
0.0000001
 43
0.0000001
 44
0.0000000001
 12
0.2763115484
 22
-0.1381557742
 32
0.0
 13
0.0793323206
 23
-0.2985656924
 33
0.0
 40
0.0
 40
0.0
 40
0.0
 40
0.0
 40
0.2224105364
 40
0.6042534692
 40
1.0
 40
1.0
 40
1.0
 40
1.0
 10
-1.3773994095
 20
-24.580158752
 30
0.0
 10
-1.3569145429
 20
-24.5904011853
 30
0.0
 10
-1.3053090449
 20
-24.6268613992
 30
0.0
 10
-1.244333182
 20
-24.7122587734
 30
0.0
 10
-1.214948074
 20
-24.7874632684
 30
0.0
 10
-1.2044829105
 20
-24.8268487141
 30
0.0
 11
-1.3773994095
 21
-24.580158752
 31
0.0
 11
-1.3209249218
 21
-24.6192927146
 31
0.0
 11
-1.2495284936
 21
-24.713193568
 31
0.0
 11
-1.2044829105
 21
-24.8268487141
 31
0.0
  0
SPLINE
  5
3D6
100
AcDbEntity
  8
0
100
AcDbSpline
 62
7
  6
CONTINUOUS
 70
0
 71
3
 72
9
 73
5
 74
3
 42
0.0000001
 43
0.0000001
 44
0.0000000001
 12
0.1629167104
 22
-0.6125703128
 32
0.0
 13
0.1303220388
 23
-0.6203228263
 33
0.0
 40
0.0
 40
0.0
 40
0.0
 40
0.0
 40
0.5011449125
 40
1.0
 40
1.0
 40
1.0
 40
1.0
 10
-1.2044829105
 20
-24.8268487141
 30
0.0
 10
-1.1772679503
 20
-24.9291775461
 30
0.0
 10
-1.1353372537
 20
-25.1364416145
 30
0.0
 10
-1.0906261721
 20
-25.3428909018
 30
0.0
 10
-1.0689555681
 20
-25.4460413011
 30
0.0
 11
-1.2044829105
 21
-24.8268487141
 31
0.0
 11
-1.1345429565
 21
-25.1367115838
 31
0.0
 11
-1.0689555681
 21
-25.4460413011
 31
0.0
  0
SPLINE
  5
3D7
100
AcDbEntity
  8
0
100
AcDbSpline
 62
7
  6
CONTINUOUS
 70
0
 71
3
 72
9
 73
5
 74
3
 42
0.0000001
 43
0.0000001
 44
0.0000000001
 12
0.0347563402
 22
-0.0118855702
 32
0.0
 13
0.033618906
 23
0.0147999704
 33
0.0
 40
0.0
 40
0.0
 40
0.0
 40
0.0
 40
0.513899542
 40
1.0
 40
1.0
 40
1.0
 40
1.0
 10
-1.0554384638
 20
-24.5931942164
 30
0.0
 10
-1.049484708
 20
-24.5952302128
 30
0.0
 10
-1.0367412859
 20
-24.5964376642
 30
0.0
 10
-1.0250083888
 20
-24.5922928119
 30
0.0
 10
-1.0195610003
 20
-24.5898947211
 30
0.0
 11
-1.0554384638
 21
-24.5931942164
 31
0.0
 11
-1.0366539028
 21
-24.5950577257
 31
0.0
 11
-1.0195610003
 21
-24.5898947211
 31
0.0
  0
LINE
  5
3D8
100
AcDbEntity
  8
0
100
AcDbLine
 62
7
  6
CONTINUOUS
 10
-1.0195610003
 20
-24.5898947211
 11
-1.0124071673
 21
-24.5865015724
  0
SPLINE
  5
3D9
100
AcDbEntity
  8
0
100
AcDbSpline
 62
7
  6
CONTINUOUS
 70
0
 71
3
 72
11
 73
7
 74
5
 42
0.0000001
 43
0.0000001
 44
0.0000000001
 12
-0.6333494509
 22
0.5969143223
 32
0.0
 13
-0.8289470693
 23
0.2651131674
 33
0.0
 40
0.0
 40
0.0
 40
0.0
 40
0.0
 40
0.2725542141
 40
0.5262218346
 40
0.7671916502
 40
1.0
 40
1.0
 40
1.0
 40
1.0
 10
-1.0873940564
 20
-23.6587136968
 30
0.0
 10
-1.1449347436
 20
-23.6044831921
 30
0.0
 10
-1.2681731751
 20
-23.5125857271
 30
0.0
 10
-1.4634104644
 20
-23.4050452949
 30
0.0
 10
-1.6577775555
 20
-23.3220779051
 30
0.0
 10
-1.7879398225
 20
-23.2777040484
 30
0.0
 10
-1.8522684223
 20
-23.2571305288
 30
0.0
 11
-1.0873940564
 21
-23.6587136968
 31
0.0
 11
-1.2754603733
 21
-23.5141524108
 31
0.0
 11
-1.468295034
 21
-23.4066634813
 31
0.0
 11
-1.6608824974
 21
-23.323646496
 31
0.0
 11
-1.8522684223
 21
-23.2571305288
 31
0.0
  0
SPLINE
  5
3DA
100
AcDbEntity
  8
RACCORDO
100
AcDbSpline
 62
7
  6
CONTINUOUS
 70
0
 71
3
 72
9
 73
5
 74
3
 42
0.0000001
 43
0.0000001
 44
0.0000000001
 12
-0.0340063874
 22
-0.0426240626
 32
0.0
 13
-0.046699154
 23
-0.0281502062
 33
0.0
 40
0.0
 40
0.0
 40
0.0
 40
0.0
 40
0.2626289915
 40
1.0
 40
1.0
 40
1.0
 40
1.0
 10
20.8278346568
 20
-33.8212350298
 30
0.0
 10
20.8248576358
 20
-33.824966468
 30
0.0
 10
20.8130420041
 20
-33.8387655317
 30
0.0
 10
20.7989928495
 20
-33.8507993991
 30
0.0
 10
20.7875146488
 20
-33.8577184478
 30
0.0
 11
20.8278346568
 21
-33.8212350298
 31
0.0
 11
20.8184973259
 21
-33.8320927837
 31
0.0
 11
20.7875146488
 21
-33.8577184478
 31
0.0
  0
SPLINE
  5
3DB
100
AcDbEntity
  8
RACCORDO
100
AcDbSpline
 62
7
  6
CONTINUOUS
 70
0
 71
3
 72
10
 73
6
 74
4
 42
0.0000001
 43
0.0000001
 44
0.0000000001
 12
-0.113752774
 22
-0.0685700654
 32
0.0
 13
-0.106211848
 23
0.0797533122
 33
0.0
 40
0.0
 40
0.0
 40
0.0
 40
0.0
 40
0.2472032649
 40
0.48757135
 40
1.0
 40
1.0
 40
1.0
 40
1.0
 10
20.7875146488
 20
-33.8577184478
 30
0.0
 10
20.7781412964
 20
-33.8633686958
 30
0.0
 10
20.7579293536
 20
-33.872077042
 30
0.0
 10
20.7129360636
 20
-33.8750830621
 30
0.0
 10
20.6807397805
 20
-33.8597326637
 30
0.0
 10
20.6625977826
 20
-33.8461100364
 30
0.0
 11
20.7875146488
 21
-33.8577184478
 31
0.0
 11
20.7572024523
 21
-33.8703373257
 31
0.0
 11
20.725347685
 21
-33.8724695194
 31
0.0
 11
20.6625977826
 21
-33.8461100364
 31
0.0
  0
SPLINE
  5
3DC
100
AcDbEntity
  8
RACCORDO
100
AcDbSpline
 62
7
  6
CONTINUOUS
 70
0
 71
3
 72
15
 73
11
 74
9
 42
0.0000001
 43
0.0000001
 44
0.0000000001
 12
-0.0000290144
 22
0.6465582094
 32
0.0
 13
0.5782691004
 23
-0.2892099003
 33
0.0
 40
0.0
 40
0.0
 40
0.0
 40
0.0
 40
0.1487694757
 40
0.2853513859
 40
0.4094835004
 40
0.5236207508
 40
0.6329791609
 40
0.7448218248
 40
0.8659417783
 40
1.0
 40
1.0
 40
1.0
 40
1.0
 10
-27.8932528993
 20
30.3600327482
 30
0.0
 10
-27.8932543381
 20
30.3920954568
 30
0.0
 10
-27.8890900014
 20
30.4537312358
 30
0.0
 10
-27.8683070286
 20
30.540022104
 30
0.0
 10
-27.8328830366
 20
30.613486013
 30
0.0
 10
-27.7827590529
 20
30.6706889206
 30
0.0
 10
-27.718923566
 20
30.7075054011
 30
0.0
 10
-27.6449871045
 20
30.7208444979
 30
0.0
 10
-27.5655638589
 20
30.710644139
 30
0.0
 10
-27.5138707033
 20
30.6904668868
 30
0.0
 10
-27.4880301275
 20
30.6775432318
 30
0.0
 11
-27.8932528993
 21
30.3600327482
 31
0.0
 11
-27.8861074751
 21
30.4559551048
 31
0.0
 11
-27.864544939
 21
30.541590304
 31
0.0
 11
-27.8287252563
 21
30.6134123011
 31
0.0
 11
-27.7793786386
 21
30.6682832085
 31
0.0
 11
-27.7180110913
 21
30.703403634
 31
0.0
 11
-27.6469686329
 21
30.7168984135
 31
0.0
 11
-27.5691583806
 21
30.7080557288
 31
0.0
 11
-27.4880301275
 21
30.6775432318
 31
0.0
  0
SPLINE
  5
3DD
100
AcDbEntity
  8
RACCORDO
100
AcDbSpline
 62
7
  6
CONTINUOUS
 70
0
 71
3
 72
11
 73
7
 74
5
 42
0.0000001
 43
0.0000001
 44
0.0000000001
 12
0.407037927
 22
0.1895225457
 32
0.0
 13
0.0027915047
 23
0.4489887269
 33
0.0
 40
0.0
 40
0.0
 40
0.0
 40
0.0
 40
0.2166726031
 40
0.4495053433
 40
0.7094831531
 40
1.0
 40
1.0
 40
1.0
 40
1.0
 10
22.8112553368
 20
-37.2918678292
 30
0.0
 10
22.8406533259
 20
-37.2781797147
 30
0.0
 10
22.8965980247
 20
-37.2376918579
 30
0.0
 10
22.9569067796
 20
-37.1482402517
 30
0.0
 10
22.9933693487
 20
-37.0355729147
 30
0.0
 10
23.0009611362
 20
-36.9529060813
 30
0.0
 10
23.0012314626
 20
-36.9094264849
 30
0.0
 11
22.8112553368
 21
-37.2918678292
 31
0.0
 11
22.8904660651
 21
-37.2353867113
 31
0.0
 11
22.9503690936
 21
-37.1497099364
 31
0.0
 11
22.987925922
 21
-37.0391874113
 31
0.0
 11
23.0012314626
 21
-36.9094264849
 31
0.0
  0
SPLINE
  5
3DE
100
AcDbEntity
  8
RACCORDO
100
AcDbSpline
 62
7
  6
CONTINUOUS
 70
0
 71
3
 72
11
 73
7
 74
5
 42
0.0000001
 43
0.0000001
 44
0.0000000001
 12
-0.7725966311
 22
0.3861795171
 32
0.0
 13
0.0000393165
 23
0.8637361705
 33
0.0
 40
0.0
 40
0.0
 40
0.0
 40
0.0
 40
0.2302795812
 40
0.4899447778
 40
0.754304662
 40
1.0
 40
1.0
 40
1.0
 40
1.0
 10
-27.4880301275
 20
-10.154514899
 30
0.0
 10
-27.547334537
 20
-10.1248718132
 30
0.0
 10
-27.6604473754
 20
-10.0353905432
 30
0.0
 10
-27.7879358563
 20
-9.8570274669
 30
0.0
 10
-27.8715854719
 20
-9.6497090972
 30
0.0
 10
-27.8932561192
 20
-9.5025202937
 30
0.0
 10
-27.8932528993
 20
-9.4317816436
 30
0.0
 11
-27.4880301275
 21
-10.154514899
 31
0.0
 11
-27.646968458
 21
-10.0349317194
 31
0.0
 11
-27.7793785681
 21
-9.8539066432
 31
0.0
 11
-27.8645449149
 21
-9.6420468602
 31
0.0
 11
-27.8932528993
 21
-9.4317816436
 31
0.0
  0
SPLINE
  5
3DF
100
AcDbEntity
  8
0
100
AcDbSpline
 62
7
  6
CONTINUOUS
 70
0
 71
3
 72
9
 73
5
 74
3
 42
0.0000001
 43
0.0000001
 44
0.0000000001
 12
-0.0819756443
 22
0.0180227795
 32
0.0
 13
-0.0758843483
 23
0.0358663146
 33
0.0
 40
0.0
 40
0.0
 40
0.0
 40
0.0
 40
0.2423818729
 40
1.0
 40
1.0
 40
1.0
 40
1.0
 10
-1.1563922568
 20
-24.2402176214
 30
0.0
 10
-1.1630153935
 20
-24.2387614897
 30
0.0
 10
-1.1900950755
 20
-24.231633125
 30
0.0
 10
-1.2161462062
 20
-24.221013327
 30
0.0
 10
-1.2353099921
 20
-24.2119556702
 30
0.0
 11
-1.1563922568
 21
-24.2402176214
 31
0.0
 11
-1.1760822153
 21
-24.2351007988
 31
0.0
 11
-1.2353099921
 21
-24.2119556702
 31
0.0
  0
SPLINE
  5
3E0
100
AcDbEntity
  8
RACCORDO
100
AcDbSpline
 62
7
  6
CONTINUOUS
 70
0
 71
3
 72
9
 73
5
 74
3
 42
0.0000001
 43
0.0000001
 44
0.0000000001
 12
-0.1260316343
 22
-0.0657101216
 32
0.0
 13
-0.1032641788
 23
-0.0976642324
 33
0.0
 40
0.0
 40
0.0
 40
0.0
 40
0.0
 40
0.2371046482
 40
1.0
 40
1.0
 40
1.0
 40
1.0
 10
-25.696208714
 20
-8.6612262625
 30
0.0
 10
-25.7061696094
 20
-8.6664196543
 30
0.0
 10
-25.7472843279
 20
-8.6900331432
 30
0.0
 10
-25.7847008171
 20
-8.7198143227
 30
0.0
 10
-25.8109607378
 20
-8.7446501857
 30
0.0
 11
-25.696208714
 21
-8.6612262625
 31
0.0
 11
-25.7254586818
 21
-8.6779641292
 31
0.0
 11
-25.8109607378
 21
-8.7446501857
 31
0.0
  0
SPLINE
  5
3E1
100
AcDbEntity
  8
RACCORDO
100
AcDbSpline
 62
7
  6
CONTINUOUS
 70
0
 71
3
 72
9
 73
5
 74
3
 42
0.0000001
 43
0.0000001
 44
0.0000000001
 12
-0.1370511044
 22
-0.0578504483
 32
0.0
 13
-0.1164663607
 23
-0.0925487246
 33
0.0
 40
0.0
 40
0.0
 40
0.0
 40
0.0
 40
0.2394515366
 40
1.0
 40
1.0
 40
1.0
 40
1.0
 10
-25.7029331901
 20
-8.6568600609
 30
0.0
 10
-25.7138722226
 20
-8.6614775205
 30
0.0
 10
-25.7588008716
 20
-8.6825358993
 30
0.0
 10
-25.8005382842
 20
-8.7101386038
 30
0.0
 10
-25.8300643881
 20
-8.7336012005
 30
0.0
 11
-25.7029331901
 21
-8.6568600609
 31
0.0
 11
-25.7352057146
 21
-8.6719376751
 31
0.0
 11
-25.8300643881
 21
-8.7336012005
 31
0.0
  0
SPLINE
  5
3E2
100
AcDbEntity
  8
RACCORDO
100
AcDbSpline
 62
7
  6
CONTINUOUS
 70
0
 71
3
 72
9
 73
5
 74
3
 42
0.0000001
 43
0.0000001
 44
0.0000000001
 12
-0.0583420853
 22
-0.0361533016
 32
0.0
 13
-0.062116526
 23
-0.0291958445
 33
0.0
 40
0.0
 40
0.0
 40
0.0
 40
0.0
 40
0.2435064218
 40
1.0
 40
1.0
 40
1.0
 40
1.0
 10
-25.93970264
 20
-8.3158600289
 30
0.0
 10
-25.9444381975
 20
-8.3187945493
 30
0.0
 10
-25.9640733434
 20
-8.3305412819
 30
0.0
 10
-25.9844144481
 20
-8.3410968227
 30
0.0
 10
-26.0000780324
 20
-8.348458979
 30
0.0
 11
-25.93970264
 21
-8.3158600289
 31
0.0
 11
-25.9540426258
 21
-8.3244447268
 31
0.0
 11
-26.0000780324
 21
-8.348458979
 31
0.0
  0
SPLINE
  5
3E3
100
AcDbEntity
  8
RACCORDO
100
AcDbSpline
 62
7
  6
CONTINUOUS
 70
0
 71
3
 72
9
 73
5
 74
3
 42
0.0000001
 43
0.0000001
 44
0.0000000001
 12
-0.0589857865
 22
-0.0284807627
 32
0.0
 13
-0.0618223008
 23
-0.0216443983
 33
0.0
 40
0.0
 40
0.0
 40
0.0
 40
0.0
 40
0.2421759401
 40
1.0
 40
1.0
 40
1.0
 40
1.0
 10
-25.940189904
 20
-8.3114720041
 30
0.0
 10
-25.9449515501
 20
-8.3137711226
 30
0.0
 10
-25.9647607949
 20
-8.3229583142
 30
0.0
 10
-25.9851140621
 20
-8.3309575164
 30
0.0
 10
-26.0007308711
 20
-8.336425065
 30
0.0
 11
-25.940189904
 21
-8.3114720041
 31
0.0
 11
-25.9545781016
 21
-8.3181512815
 31
0.0
 11
-26.0007308711
 21
-8.336425065
 31
0.0
  0
SPLINE
  5
3E4
100
AcDbEntity
  8
0
100
AcDbSpline
 62
7
  6
CONTINUOUS
 70
0
 71
3
 72
10
 73
6
 74
4
 42
0.0000001
 43
0.0000001
 44
0.0000000001
 12
-0.1538658196
 22
-0.0769328856
 32
0.0
 13
-0.1555300032
 23
0.0735103899
 33
0.0
 40
0.0
 40
0.0
 40
0.0
 40
0.0
 40
0.4571693223
 40
0.7225207022
 40
1.0
 40
1.0
 40
1.0
 40
1.0
 10
-1.2102174814
 20
-24.3056896796
 30
0.0
 10
-1.2336650589
 20
-24.3174134647
 30
0.0
 10
-1.2788257429
 20
-24.3173149968
 30
0.0
 10
-1.3334758689
 20
-24.3015752734
 30
0.0
 10
-1.3623458963
 20
-24.2894655522
 30
0.0
 10
-1.3767313484
 20
-24.2826663484
 30
0.0
 11
-1.2102174814
 21
-24.3056896796
 31
0.0
 11
-1.2885432053
 21
-24.3127752433
 31
0.0
 11
-1.3326229322
 21
-24.300914122
 31
0.0
 11
-1.3767313484
 21
-24.2826663484
 31
0.0
  0
SPLINE
  5
3E5
100
AcDbEntity
  8
RACCORDO
100
AcDbSpline
 62
7
  6
CONTINUOUS
 70
0
 71
3
 72
11
 73
7
 74
5
 42
0.0000001
 43
0.0000001
 44
0.0000000001
 12
0.0000149406
 22
-0.1443839658
 32
0.0
 13
0.129140946
 23
-0.0645704723
 33
0.0
 40
0.0
 40
0.0
 40
0.0
 40
0.0
 40
0.2065459792
 40
0.4344524192
 40
0.697695169
 40
1.0
 40
1.0
 40
1.0
 40
1.0
 10
-29.6335584049
 20
-10.7383227156
 30
0.0
 10
-29.6335573762
 20
-10.7482633581
 30
0.0
 10
-29.6291886205
 20
-10.7693363728
 30
0.0
 10
-29.610843778
 20
-10.7980968621
 30
0.0
 10
-29.5822497982
 20
-10.8238968433
 30
0.0
 10
-29.5587170224
 20
-10.8378820624
 30
0.0
 10
-29.5457037117
 20
-10.8443887176
 30
0.0
 11
-29.6335584049
 21
-10.7383227156
 31
0.0
 11
-29.6278089469
 21
-10.7675851678
 31
0.0
 11
-29.6107424341
 21
-10.7957195121
 31
0.0
 11
-29.5829745993
 21
-10.8216725058
 31
0.0
 11
-29.5457037117
 21
-10.8443887176
 31
0.0
  0
SPLINE
  5
3E6
100
AcDbEntity
  8
RACCORDO
100
AcDbSpline
 62
7
  6
CONTINUOUS
 70
0
 71
3
 72
11
 73
7
 74
5
 42
0.0000001
 43
0.0000001
 44
0.0000000001
 12
0.0000149435
 22
-0.1443839616
 32
0.0
 13
0.1291409438
 23
-0.0645704673
 33
0.0
 40
0.0
 40
0.0
 40
0.0
 40
0.0
 40
0.2065459795
 40
0.4344524194
 40
0.6976951678
 40
1.0
 40
1.0
 40
1.0
 40
1.0
 10
-29.6335584049
 20
33.5311566314
 30
0.0
 10
-29.633557376
 20
33.5212159892
 30
0.0
 10
-29.6291886201
 20
33.5001429751
 30
0.0
 10
-29.6108437772
 20
33.4713824873
 30
0.0
 10
-29.5822497977
 20
33.4455825074
 30
0.0
 10
-29.5587170222
 20
33.4315972894
 30
0.0
 10
-29.5457037117
 20
33.4250906347
 30
0.0
 11
-29.6335584049
 21
33.5311566314
 31
0.0
 11
-29.6278089465
 21
33.5018941802
 31
0.0
 11
-29.6107424334
 21
33.4737598371
 31
0.0
 11
-29.582974599
 21
33.447806845
 31
0.0
 11
-29.5457037117
 21
33.4250906347
 31
0.0
  0
SPLINE
  5
3E7
100
AcDbEntity
  8
0
100
AcDbSpline
 62
7
  6
CONTINUOUS
 70
0
 71
3
 72
18
 73
14
 74
12
 42
0.0000001
 43
0.0000001
 44
0.0000000001
 12
0.9412015727
 22
0.4705978962
 32
0.0
 13
-0.7660302285
 23
0.7214710455
 33
0.0
 40
0.0
 40
0.0
 40
0.0
 40
0.0
 40
0.0457943283
 40
0.0910579481
 40
0.1389648723
 40
0.1905315768
 40
0.3034454306
 40
0.4295778623
 40
0.5663524613
 40
0.7114676499
 40
0.8584343831
 40
0.9305901698
 40
1.0
 40
1.0
 40
1.0
 40
1.0
 10
-0.870986468
 20
-24.5157912227
 30
0.0
 10
-0.8566192368
 20
-24.5086076512
 30
0.0
 10
-0.8285308376
 20
-24.4932311076
 30
0.0
 10
-0.7902018611
 20
-24.4624607274
 30
0.0
 10
-0.7593399049
 20
-24.4215900588
 30
0.0
 10
-0.7260817376
 20
-24.3545748034
 30
0.0
 10
-0.7033342491
 20
-24.2538043804
 30
0.0
 10
-0.7022757464
 20
-24.1214047758
 30
0.0
 10
-0.7242030906
 20
-23.9792567934
 30
0.0
 10
-0.773716193
 20
-23.8363859777
 30
0.0
 10
-0.8354872104
 20
-23.7237905106
 30
0.0
 10
-0.8951015486
 20
-23.6419150712
 30
0.0
 10
-0.9282493574
 20
-23.6046954129
 30
0.0
 10
-0.9459727001
 20
-23.5880030187
 30
0.0
 11
-0.870986468
 21
-24.5157912227
 31
0.0
 11
-0.8291190708
 21
-24.4919309973
 31
0.0
 11
-0.7923072747
 21
-24.4617056876
 31
0.0
 11
-0.7614269756
 21
-24.4218585525
 31
0.0
 11
-0.7369543547
 21
-24.3734271523
 31
0.0
 11
-0.7083934577
 21
-24.2580922944
 31
0.0
 11
-0.7057281792
 21
-24.1253906493
 31
0.0
 11
-0.7278503885
 21
-23.9831738526
 31
0.0
 11
-0.7774055087
 21
-23.8387343981
 31
0.0
 11
-0.8518237455
 21
-23.7031643605
 31
0.0
 11
-0.8966817266
 21
-23.6419027037
 31
0.0
 11
-0.9459727001
 21
-23.5880030187
 31
0.0
  0
SPLINE
  5
3E8
100
AcDbEntity
  8
0
100
AcDbSpline
 62
7
  6
CONTINUOUS
 70
0
 71
3
 72
18
 73
14
 74
12
 42
0.0000001
 43
0.0000001
 44
0.0000000001
 12
0.9411997484
 22
0.4705999128
 32
0.0
 13
-0.7660296972
 23
0.7214705451
 33
0.0
 40
0.0
 40
0.0
 40
0.0
 40
0.0
 40
0.0457942916
 40
0.0910579154
 40
0.1389648734
 40
0.1905316077
 40
0.3034455034
 40
0.4295779568
 40
0.5663525553
 40
0.7114677241
 40
0.8584344205
 40
0.9305901879
 40
1.0
 40
1.0
 40
1.0
 40
1.0
 10
-1.0124071673
 20
-24.5865015724
 30
0.0
 10
-0.9980399754
 20
-24.5793179758
 30
0.0
 10
-0.9699516161
 20
-24.5639414261
 30
0.0
 10
-0.9316227693
 20
-24.5331709311
 30
0.0
 10
-0.9007609334
 20
-24.4923001925
 30
0.0
 10
-0.8675029022
 20
-24.4252848877
 30
0.0
 10
-0.8447555557
 20
-24.3245144799
 30
0.0
 10
-0.8436971442
 20
-24.1921149465
 30
0.0
 10
-0.8656245538
 20
-24.0499670754
 30
0.0
 10
-0.9151376717
 20
-23.9070963992
 30
0.0
 10
-0.9769086595
 20
-23.7945010494
 30
0.0
 10
-1.0365229507
 20
-23.7126256949
 30
0.0
 10
-1.0696707306
 20
-23.6754060751
 30
0.0
 10
-1.0873940564
 20
-23.6587136968
 30
0.0
 11
-1.0124071673
 21
-24.5865015724
 31
0.0
 11
-0.9705398752
 21
-24.562641308
 31
0.0
 11
-0.9337281882
 21
-24.5324159107
 31
0.0
 11
-0.9028479959
 21
-24.4925686922
 31
0.0
 11
-0.8783754747
 21
-24.4441372486
 31
0.0
 11
-0.8498147435
 21
-24.3288023891
 31
0.0
 11
-0.8471495702
 21
-24.1961008111
 31
0.0
 11
-0.8692718444
 21
-24.053884126
 31
0.0
 11
-0.9188269819
 21
-23.9094448116
 31
0.0
 11
-0.993245181
 21
-23.7738749198
 31
0.0
 11
-1.0381031267
 21
-23.7126133274
 31
0.0
 11
-1.0873940564
 21
-23.6587136968
 31
0.0
  0
SPLINE
  5
3E9
100
AcDbEntity
  8
RACCORDO
100
AcDbSpline
 62
7
  6
CONTINUOUS
 70
0
 71
3
 72
11
 73
7
 74
5
 42
0.0000001
 43
0.0000001
 44
0.0000000001
 12
-0.1689125333
 22
0.0845958693
 32
0.0
 13
-0.0000000007
 23
0.1889124268
 33
0.0
 40
0.0
 40
0.0
 40
0.0
 40
0.0
 40
0.2171672883
 40
0.4503628529
 40
0.710428482
 40
1.0
 40
1.0
 40
1.0
 40
1.0
 10
22.3758723382
 20
-37.2748070518
 30
0.0
 10
22.3636449126
 20
-37.2686832333
 30
0.0
 10
22.340499265
 20
-37.2510890529
 30
0.0
 10
22.3156838685
 20
-37.2130429176
 30
0.0
 10
22.3008646828
 20
-37.1655230625
 30
0.0
 10
22.297902283
 20
-37.1307836692
 30
0.0
 10
22.2979022829
 20
-37.1125491165
 30
0.0
 11
22.3758723382
 21
-37.2748070518
 31
0.0
 11
22.3430470191
 21
-37.2501981462
 31
0.0
 11
22.3183863812
 21
-37.2136937995
 31
0.0
 11
22.3030894218
 21
-37.1670062906
 31
0.0
 11
22.2979022829
 21
-37.1125491165
 31
0.0
  0
SPLINE
  5
3EA
100
AcDbEntity
  8
RACCORDO
100
AcDbSpline
 62
7
  6
CONTINUOUS
 70
0
 71
3
 72
11
 73
7
 74
5
 42
0.0000001
 43
0.0000001
 44
0.0000000001
 12
-0.1689125355
 22
0.0845958709
 32
0.0
 13
-0.0000000045
 23
0.1889124295
 33
0.0
 40
0.0
 40
0.0
 40
0.0
 40
0.0
 40
0.2171672898
 40
0.450362856
 40
0.7104284838
 40
1.0
 40
1.0
 40
1.0
 40
1.0
 10
-29.1849340189
 20
-11.4944038733
 30
0.0
 10
-29.1971614447
 20
-11.4882800546
 30
0.0
 10
-29.2203070928
 20
-11.4706858738
 30
0.0
 10
-29.24512249
 20
-11.4326397381
 30
0.0
 10
-29.2599416768
 20
-11.3851198826
 30
0.0
 10
-29.2629040771
 20
-11.3503804892
 30
0.0
 10
-29.2629040776
 20
-11.3321459363
 30
0.0
 11
-29.1849340189
 21
-11.4944038733
 31
0.0
 11
-29.2177593386
 21
-11.4697949671
 31
0.0
 11
-29.2424199774
 21
-11.4332906198
 31
0.0
 11
-29.2577169377
 21
-11.3866031107
 31
0.0
 11
-29.2629040776
 21
-11.3321459363
 31
0.0
  0
SPLINE
  5
3EB
100
AcDbEntity
  8
RACCORDO
100
AcDbSpline
 62
7
  6
CONTINUOUS
 70
0
 71
3
 72
15
 73
11
 74
9
 42
0.0000001
 43
0.0000001
 44
0.0000000001
 12
0.0000285072
 22
0.4348568756
 32
0.0
 13
0.3889721042
 23
-0.1944253206
 33
0.0
 40
0.0
 40
0.0
 40
0.0
 40
0.0
 40
0.1489156736
 40
0.2843869688
 40
0.4071908649
 40
0.5206712055
 40
0.6305281685
 40
0.7435187225
 40
0.8655203097
 40
1.0
 40
1.0
 40
1.0
 40
1.0
 10
-29.5457037117
 20
33.4250906347
 30
0.0
 10
-29.5457022967
 20
33.4466763029
 30
0.0
 10
-29.5425807816
 20
33.4880158386
 30
0.0
 10
-29.5271096782
 20
33.5453989248
 30
0.0
 10
-29.5013057706
 20
33.5933714205
 30
0.0
 10
-29.4656855369
 20
33.6297945743
 30
0.0
 10
-29.4215735903
 20
33.6525257332
 30
0.0
 10
-29.3713778665
 20
33.6602190354
 30
0.0
 10
-29.317735501
 20
33.6531391409
 30
0.0
 10
-29.2826236989
 20
33.6399053074
 30
0.0
 10
-29.2651874162
 20
33.6311898885
 30
0.0
 11
-29.5457037117
 21
33.4250906347
 31
0.0
 11
-29.5403263739
 21
33.4896239896
 31
0.0
 11
-29.5243960146
 21
33.546339819
 31
0.0
 11
-29.498520757
 21
33.5930544562
 31
0.0
 11
-29.4636836991
 21
33.6280055009
 31
0.0
 11
-29.4212046858
 21
33.6498619128
 31
0.0
 11
-29.372709704
 21
33.6577649116
 31
0.0
 11
-29.3200281619
 21
33.6514959209
 31
0.0
 11
-29.2651874162
 21
33.6311898885
 31
0.0
  0
SPLINE
  5
3EC
100
AcDbEntity
  8
RACCORDO
100
AcDbSpline
 62
7
  6
CONTINUOUS
 70
0
 71
3
 72
11
 73
7
 74
5
 42
0.0000001
 43
0.0000001
 44
0.0000000001
 12
-0.1291394801
 22
0.0645697401
 32
0.0
 13
0.0000513271
 23
0.144382319
 33
0.0
 40
0.0
 40
0.0
 40
0.0
 40
0.0
 40
0.3021491765
 40
0.5655722792
 40
0.7935305764
 40
1.0
 40
1.0
 40
1.0
 40
1.0
 10
20.9282511046
 20
5.9492807463
 30
0.0
 10
20.9152446421
 20
5.9557839776
 30
0.0
 10
20.8917198262
 20
5.9697796569
 30
0.0
 10
20.8631041465
 20
5.9955661734
 30
0.0
 10
20.8447811191
 20
6.0243442486
 30
0.0
 10
20.8403835665
 20
6.0454099184
 30
0.0
 10
20.840387099
 20
6.0553467631
 30
0.0
 11
20.9282511046
 21
5.9492807463
 31
0.0
 11
20.8910022374
 21
5.9719889529
 31
0.0
 11
20.8632098606
 21
5.9979531904
 31
0.0
 11
20.8461467698
 21
6.0260979298
 31
0.0
 11
20.840387099
 21
6.0553467631
 31
0.0
  0
SPLINE
  5
3ED
100
AcDbEntity
  8
RACCORDO
100
AcDbSpline
 62
7
  6
CONTINUOUS
 70
0
 71
3
 72
11
 73
7
 74
5
 42
0.0000001
 43
0.0000001
 44
0.0000000001
 12
0.0000000198
 22
-0.1889139626
 32
0.0
 13
0.1689716007
 23
-0.0844812607
 33
0.0
 40
0.0
 40
0.0
 40
0.0
 40
0.0
 40
0.2895956155
 40
0.5496517738
 40
0.7828348426
 40
1.0
 40
1.0
 40
1.0
 40
1.0
 10
20.5230283328
 20
6.6720140017
 30
0.0
 10
20.5230283347
 20
6.6537777833
 30
0.0
 10
20.5259860804
 20
6.6190363048
 30
0.0
 10
20.5408171745
 20
6.5715186935
 30
0.0
 10
20.5656257041
 20
6.5334745285
 30
0.0
 10
20.5887642132
 20
6.5158663182
 30
0.0
 10
20.6009957946
 20
6.5097508561
 30
0.0
 11
20.5230283328
 21
6.6720140017
 31
0.0
 11
20.5282146618
 21
6.6175517308
 31
0.0
 11
20.5435168482
 21
6.5708673972
 31
0.0
 11
20.5681721236
 21
6.5343618449
 31
0.0
 11
20.6009957946
 21
6.5097508561
 31
0.0
  0
SPLINE
  5
3EE
100
AcDbEntity
  8
RACCORDO
100
AcDbSpline
 62
7
  6
CONTINUOUS
 70
0
 71
3
 72
11
 73
7
 74
5
 42
0.0000001
 43
0.0000001
 44
0.0000000001
 12
0.0
 22
-0.18889539
 32
0.0
 13
0.1689407751
 23
-0.084501378
 33
0.0
 40
0.0
 40
0.0
 40
0.0
 40
0.0
 40
0.2895923905
 40
0.5496493617
 40
0.7828350679
 40
1.0
 40
1.0
 40
1.0
 40
1.0
 10
-27.4880301275
 20
30.6775432318
 30
0.0
 10
-27.4880301275
 20
30.6593090093
 30
0.0
 10
-27.4850729976
 20
30.6245711349
 30
0.0
 10
-27.4702452587
 20
30.5770577439
 30
0.0
 10
-27.4454424517
 20
30.5390152302
 30
0.0
 10
-27.4223088364
 20
30.5214054162
 30
0.0
 10
-27.4100794991
 20
30.5152885042
 30
0.0
 11
-27.4880301275
 21
30.6775432318
 31
0.0
 11
-27.4828449948
 21
30.6230868618
 31
0.0
 11
-27.4675462744
 21
30.5764063135
 31
0.0
 11
-27.4428963831
 21
30.5399017498
 31
0.0
 11
-27.4100794991
 21
30.5152885042
 31
0.0
  0
SPLINE
  5
3EF
100
AcDbEntity
  8
RACCORDO
100
AcDbSpline
 62
7
  6
CONTINUOUS
 70
0
 71
3
 72
11
 73
7
 74
5
 42
0.0000001
 43
0.0000001
 44
0.0000000001
 12
0.3513450533
 22
-0.1756717113
 32
0.0
 13
0.3707502825
 23
0.1298003263
 33
0.0
 40
0.0
 40
0.0
 40
0.0
 40
0.0
 40
0.230199588
 40
0.4886872503
 40
0.753166985
 40
1.0
 40
1.0
 40
1.0
 40
1.0
 10
-27.8932528993
 20
30.3600327482
 30
0.0
 10
-27.8662930704
 20
30.3465528964
 30
0.0
 10
-27.8048679339
 20
30.3262906554
 30
0.0
 10
-27.7066067401
 20
30.3137404877
 30
0.0
 10
-27.6054470879
 20
30.3179609278
 30
0.0
 10
-27.539552404
 20
30.3325462901
 30
0.0
 10
-27.509047934
 20
30.3432259587
 30
0.0
 11
-27.8932528993
 21
30.3600327482
 31
0.0
 11
-27.8079063504
 21
30.3301527284
 31
0.0
 11
-27.7072675991
 21
30.3166697361
 31
0.0
 11
-27.6034751578
 21
30.3212100207
 31
0.0
 11
-27.509047934
 21
30.3432259587
 31
0.0
  0
SPLINE
  5
3F0
100
AcDbEntity
  8
RACCORDO
100
AcDbSpline
 62
7
  6
CONTINUOUS
 70
0
 71
3
 72
11
 73
7
 74
5
 42
0.0000001
 43
0.0000001
 44
0.0000000001
 12
0.351344799
 22
-0.1756723995
 32
0.0
 13
0.3707501259
 23
0.1298010165
 33
0.0
 40
0.0
 40
0.0
 40
0.0
 40
0.0
 40
0.2301996678
 40
0.4886873034
 40
0.7531669766
 40
1.0
 40
1.0
 40
1.0
 40
1.0
 10
-27.8932528993
 20
-9.4317816436
 30
0.0
 10
-27.8662930806
 20
-9.445261553
 30
0.0
 10
-27.8048679459
 20
-9.4655238824
 30
0.0
 10
-27.7066067337
 20
-9.4780740946
 30
0.0
 10
-27.6054470687
 20
-9.4738536081
 30
0.0
 10
-27.5395523922
 20
-9.4592681589
 30
0.0
 10
-27.509047934
 20
-9.4485884331
 30
0.0
 11
-27.8932528993
 21
-9.4317816436
 31
0.0
 11
-27.8079063434
 21
-9.4616617945
 31
0.0
 11
-27.7072675877
 21
-9.4751448312
 31
0.0
 11
-27.6034751514
 21
-9.4706045004
 31
0.0
 11
-27.509047934
 21
-9.4485884331
 31
0.0
  0
SPLINE
  5
3F1
100
AcDbEntity
  8
RACCORDO
100
AcDbSpline
 62
7
  6
CONTINUOUS
 70
0
 71
3
 72
11
 73
7
 74
5
 42
0.0000001
 43
0.0000001
 44
0.0000000001
 12
0.5251876529
 22
-0.262645468
 32
0.0
 13
0.0000611188
 23
-0.5872007399
 33
0.0
 40
0.0
 40
0.0
 40
0.0
 40
0.0
 40
0.2296791434
 40
0.4882139181
 40
0.7532029516
 40
1.0
 40
1.0
 40
1.0
 40
1.0
 10
22.2979022829
 20
7.8496450389
 30
0.0
 10
22.3381104996
 20
7.8295369769
 30
0.0
 10
22.4149471853
 20
7.7694338558
 30
0.0
 10
22.5036710612
 20
7.6500969385
 30
0.0
 10
22.5640366518
 20
7.5105403267
 30
0.0
 10
22.5806968891
 20
7.4101942901
 30
0.0
 10
22.5807019171
 20
7.3618878203
 30
0.0
 11
22.2979022829
 21
7.8496450389
 31
0.0
 11
22.4061282512
 21
7.7691686234
 31
0.0
 11
22.4978764477
 21
7.648217829
 31
0.0
 11
22.5591767796
 21
7.5051997316
 31
0.0
 11
22.5807019171
 21
7.3618878203
 31
0.0
  0
SPLINE
  5
3F2
100
AcDbEntity
  8
RACCORDO
100
AcDbSpline
 62
7
  6
CONTINUOUS
 70
0
 71
3
 72
9
 73
5
 74
3
 42
0.0000001
 43
0.0000001
 44
0.0000000001
 12
-0.0000000368
 22
0.3499494931
 32
0.0
 13
0.2542495249
 23
0.2404616952
 33
0.0
 40
0.0
 40
0.0
 40
0.0
 40
0.0
 40
0.4929880305
 40
1.0
 40
1.0
 40
1.0
 40
1.0
 10
-27.4880301275
 20
-10.154514899
 30
0.0
 10
-27.4880301335
 20
-10.0970079286
 30
0.0
 10
-27.4582563621
 20
-9.9804826615
 30
0.0
 10
-27.3914207061
 20
-9.8812252777
 30
0.0
 10
-27.348451522
 20
-9.8405862918
 30
0.0
 11
-27.4880301275
 21
-10.154514899
 31
0.0
 11
-27.4496664911
 21
-9.9863135427
 31
0.0
 11
-27.348451522
 21
-9.8405862918
 31
0.0
  0
SPLINE
  5
3F3
100
AcDbEntity
  8
RACCORDO
100
AcDbSpline
 62
7
  6
CONTINUOUS
 70
0
 71
3
 72
9
 73
5
 74
3
 42
0.0000001
 43
0.0000001
 44
0.0000000001
 12
0.0
 22
0.3499494896
 32
0.0
 13
0.2542494972
 23
0.2404617193
 33
0.0
 40
0.0
 40
0.0
 40
0.0
 40
0.0
 40
0.4929880284
 40
1.0
 40
1.0
 40
1.0
 40
1.0
 10
20.5230283328
 20
-34.1600441292
 30
0.0
 10
20.5230283328
 20
-34.1025371596
 30
0.0
 10
20.55280211
 20
-33.9860118972
 30
0.0
 10
20.6196377588
 20
-33.8867545121
 30
0.0
 10
20.6626069384
 20
-33.846115522
 30
0.0
 11
20.5230283328
 21
-34.1600441292
 31
0.0
 11
20.5613919776
 21
-33.9918427773
 31
0.0
 11
20.6626069384
 21
-33.846115522
 31
0.0
  0
SPLINE
  5
3F4
100
AcDbEntity
  8
RACCORDO
100
AcDbSpline
 62
7
  6
CONTINUOUS
 70
0
 71
3
 72
11
 73
7
 74
5
 42
0.0000001
 43
0.0000001
 44
0.0000000001
 12
-0.1290176401
 22
0.0645088591
 32
0.0
 13
-0.0002140763
 23
0.1442459654
 33
0.0
 40
0.0
 40
0.0
 40
0.0
 40
0.0
 40
0.3021029046
 40
0.5655351037
 40
0.79352975
 40
1.0
 40
1.0
 40
1.0
 40
1.0
 10
20.9282511046
 20
-33.8425336456
 30
0.0
 10
20.9152589033
 20
-33.836037541
 30
0.0
 10
20.8917571564
 20
-33.8220578962
 30
0.0
 10
20.8631598771
 20
-33.796306832
 30
0.0
 10
20.8448293772
 20
-33.7675717749
 30
0.0
 10
20.8404019104
 20
-33.7465333059
 30
0.0
 10
20.8403871769
 20
-33.7366058057
 30
0.0
 11
20.9282511046
 21
-33.8425336456
 31
0.0
 11
20.8910407217
 21
-33.8198541962
 31
0.0
 11
20.8632628265
 21
-33.7939250978
 31
0.0
 11
20.846187291
 21
-33.7658180971
 31
0.0
 11
20.8403871769
 21
-33.7366058057
 31
0.0
  0
SPLINE
  5
3F5
100
AcDbEntity
  8
RACCORDO
100
AcDbSpline
 62
7
  6
CONTINUOUS
 70
0
 71
3
 72
13
 73
9
 74
7
 42
0.0000001
 43
0.0000001
 44
0.0000000001
 12
-0.0674976152
 22
0.2266372338
 32
0.0
 13
0.2363803959
 23
-0.006683731
 33
0.0
 40
0.0
 40
0.0
 40
0.0
 40
0.0
 40
0.2945425253
 40
0.4247560086
 40
0.5434194907
 40
0.6533395927
 40
0.7606220326
 40
1.0
 40
1.0
 40
1.0
 40
1.0
 10
-27.509047989
 20
30.3432261785
 30
0.0
 10
-27.5156749617
 20
30.3654776129
 30
0.0
 10
-27.5226685564
 20
30.3986670629
 30
0.0
 10
-27.5218993586
 20
30.441681721
 30
0.0
 10
-27.5157723694
 20
30.4695461508
 30
0.0
 10
-27.5032717799
 20
30.4933526885
 30
0.0
 10
-27.4762906438
 20
30.5183205148
 30
0.0
 10
-27.4471051222
 20
30.5236339139
 30
0.0
 10
-27.4282437027
 20
30.5231006012
 30
0.0
 11
-27.509047989
 21
30.3432261785
 31
0.0
 11
-27.5217221948
 21
30.4117152462
 31
0.0
 11
-27.5208160535
 21
30.442494127
 31
0.0
 11
-27.5143822611
 21
30.4698075337
 31
0.0
 11
-27.5019567604
 21
30.4926386692
 31
0.0
 11
-27.4832634518
 21
30.5097902541
 31
0.0
 11
-27.4282437027
 21
30.5231006012
 31
0.0
  0
SPLINE
  5
3F6
100
AcDbEntity
  8
RACCORDO
100
AcDbSpline
 62
7
  6
CONTINUOUS
 70
0
 71
3
 72
15
 73
11
 74
9
 42
0.0000001
 43
0.0000001
 44
0.0000000001
 12
-0.0000285072
 22
-0.4348568756
 32
0.0
 13
-0.3889721042
 23
0.1944253206
 33
0.0
 40
0.0
 40
0.0
 40
0.0
 40
0.0
 40
0.1489156736
 40
0.2843869688
 40
0.4071908649
 40
0.5206712055
 40
0.6305281685
 40
0.7435187225
 40
0.8655203097
 40
1.0
 40
1.0
 40
1.0
 40
1.0
 10
22.5807019171
 20
-36.907591532
 30
0.0
 10
22.580700502
 20
-36.9291772002
 30
0.0
 10
22.5775789869
 20
-36.9705167359
 30
0.0
 10
22.5621078835
 20
-37.0278998222
 30
0.0
 10
22.5363039759
 20
-37.0758723179
 30
0.0
 10
22.5006837422
 20
-37.1122954716
 30
0.0
 10
22.4565717956
 20
-37.1350266305
 30
0.0
 10
22.4063760718
 20
-37.1427199328
 30
0.0
 10
22.3527337063
 20
-37.1356400383
 30
0.0
 10
22.3176219042
 20
-37.1224062048
 30
0.0
 10
22.3001856215
 20
-37.1136907858
 30
0.0
 11
22.5807019171
 21
-36.907591532
 31
0.0
 11
22.5753245793
 21
-36.9721248869
 31
0.0
 11
22.55939422
 21
-37.0288407164
 31
0.0
 11
22.5335189623
 21
-37.0755553535
 31
0.0
 11
22.4986819044
 21
-37.1105063983
 31
0.0
 11
22.4562028911
 21
-37.1323628101
 31
0.0
 11
22.4077079093
 21
-37.1402658089
 31
0.0
 11
22.3550263672
 21
-37.1339968183
 31
0.0
 11
22.3001856215
 21
-37.1136907858
 31
0.0
  0
SPLINE
  5
3F7
100
AcDbEntity
  8
RACCORDO
100
AcDbSpline
 62
7
  6
CONTINUOUS
 70
0
 71
3
 72
12
 73
8
 74
6
 42
0.0000001
 43
0.0000001
 44
0.0000000001
 12
-0.441344934
 22
0.1390635998
 32
0.0
 13
0.1107198175
 23
0.4492940659
 33
0.0
 40
0.0
 40
0.0
 40
0.0
 40
0.0
 40
0.1130791221
 40
0.2328058128
 40
0.4871958177
 40
0.747793034
 40
1.0
 40
1.0
 40
1.0
 40
1.0
 10
-27.3484674397
 20
-9.8405797234
 30
0.0
 10
-27.3651030723
 20
-9.8353379935
 30
0.0
 10
-27.3981029401
 20
-9.8200533971
 30
0.0
 10
-27.4567465765
 20
-9.7719471622
 30
0.0
 10
-27.5075322889
 20
-9.6844345525
 30
0.0
 10
-27.5274323188
 20
-9.5660093748
 30
0.0
 10
-27.5183561084
 20
-9.4863604655
 30
0.0
 10
-27.5090480053
 20
-9.4485887678
 30
0.0
 11
-27.3484674397
 21
-9.8405797234
 31
0.0
 11
-27.3959864283
 21
-9.8186725157
 31
0.0
 11
-27.4389909185
 21
-9.7837444378
 31
0.0
 11
-27.5002404811
 21
-9.6832189548
 31
0.0
 11
-27.5218709643
 21
-9.5645872553
 31
0.0
 11
-27.5090480053
 21
-9.4485887678
 31
0.0
  0
SPLINE
  5
3F8
100
AcDbEntity
  8
RACCORDO
100
AcDbSpline
 62
7
  6
CONTINUOUS
 70
0
 71
3
 72
11
 73
7
 74
5
 42
0.0000001
 43
0.0000001
 44
0.0000000001
 12
-0.084994152
 22
-0.4356535866
 32
0.0
 13
0.3929170585
 23
-0.2064806009
 33
0.0
 40
0.0
 40
0.0
 40
0.0
 40
0.0
 40
0.2512588128
 40
0.4489107332
 40
0.6470554637
 40
1.0
 40
1.0
 40
1.0
 40
1.0
 10
-26.0000730076
 20
-8.3484625636
 30
0.0
 10
-26.0071915175
 20
-8.3849498312
 30
0.0
 10
-26.0069240764
 20
-8.4528218808
 30
0.0
 10
-25.9835096695
 20
-8.5462648124
 30
0.0
 10
-25.9354536133
 20
-8.6462762893
 30
0.0
 10
-25.8763502324
 20
-8.7092710769
 30
0.0
 10
-25.830124256
 20
-8.7335631436
 30
0.0
 11
-26.0000730076
 21
-8.3484625636
 31
0.0
 11
-26.0018870177
 21
-8.4599733448
 31
0.0
 11
-25.9807641785
 21
-8.5451237319
 31
0.0
 11
-25.9423209019
 21
-8.6242268679
 31
0.0
 11
-25.830124256
 21
-8.7335631436
 31
0.0
  0
SPLINE
  5
3F9
100
AcDbEntity
  8
RACCORDO
100
AcDbSpline
 62
7
  6
CONTINUOUS
 70
0
 71
3
 72
12
 73
8
 74
6
 42
0.0000001
 43
0.0000001
 44
0.0000000001
 12
0.1076793122
 22
-0.4047235759
 32
0.0
 13
0.3124884263
 23
-0.2788314735
 33
0.0
 40
0.0
 40
0.0
 40
0.0
 40
0.0
 40
0.1121547113
 40
0.2349960242
 40
0.5039037968
 40
0.7737483018
 40
1.0
 40
1.0
 40
1.0
 40
1.0
 10
-25.9396978094
 20
-8.3158624219
 30
0.0
 10
-25.9356722287
 20
-8.3309929739
 30
0.0
 10
-25.923665208
 20
-8.3617072263
 30
0.0
 10
-25.8914904343
 20
-8.4242905002
 30
0.0
 10
-25.8408387935
 20
-8.5018298883
 30
0.0
 10
-25.774476539
 20
-8.5856020348
 30
0.0
 10
-25.7265002093
 20
-8.6358318251
 30
0.0
 10
-25.7029331969
 20
-8.6568605232
 30
0.0
 11
-25.9396978094
 21
-8.3158624219
 31
0.0
 11
-25.923528418
 21
-8.3599623187
 31
0.0
 11
-25.9003273817
 21
-8.4058800232
 31
0.0
 11
-25.839543137
 21
-8.5006872208
 31
0.0
 11
-25.7692330405
 21
-8.5891639746
 31
0.0
 11
-25.7029331969
 21
-8.6568605232
 31
0.0
  0
SPLINE
  5
3FA
100
AcDbEntity
  8
RACCORDO
100
AcDbSpline
 62
7
  6
CONTINUOUS
 70
0
 71
3
 72
8
 73
4
 74
2
 42
0.0000001
 43
0.0000001
 44
0.0000000001
 12
0.0059652415
 22
-0.0053567009
 32
0.0
 13
0.0072570612
 23
-0.0034078458
 33
0.0
 40
0.0
 40
0.0
 40
0.0
 40
0.0
 40
1.0
 40
1.0
 40
1.0
 40
1.0
 10
-25.7029331969
 20
-8.6568605232
 30
0.0
 10
-25.7009447831
 20
-8.6586460902
 30
0.0
 10
-25.6986277344
 20
-8.6600903139
 30
0.0
 10
-25.696208714
 20
-8.6612262625
 30
0.0
 11
-25.7029331969
 21
-8.6568605232
 31
0.0
 11
-25.696208714
 21
-8.6612262625
 31
0.0
  0
SPLINE
  5
3FB
100
AcDbEntity
  8
RACCORDO
100
AcDbSpline
 62
7
  6
CONTINUOUS
 70
0
 71
3
 72
12
 73
8
 74
6
 42
0.0000001
 43
0.0000001
 44
0.0000000001
 12
-0.5230246963
 22
0.2615637771
 32
0.0
 13
-0.0000608662
 23
0.5847823858
 33
0.0
 40
0.0
 40
0.0
 40
0.0
 40
0.0
 40
0.2293635132
 40
0.4875027314
 40
0.7523004129
 40
0.8797660388
 40
1.0
 40
1.0
 40
1.0
 40
1.0
 10
-29.2629040776
 20
-11.3321459363
 30
0.0
 10
-29.3028916715
 20
-11.3121482073
 30
0.0
 10
-29.3793552933
 20
-11.2524490254
 30
0.0
 10
-29.4677969665
 20
-11.1340225306
 30
0.0
 10
-29.5190127647
 20
-11.0165270832
 30
0.0
 10
-29.541247505
 20
-10.9189362955
 30
0.0
 10
-29.5457012723
 20
-10.8706221311
 30
0.0
 10
-29.5457037117
 20
-10.8471852302
 30
0.0
 11
-29.2629040776
 21
-11.3321459363
 31
0.0
 11
-29.3706024519
 21
-11.2522002569
 31
0.0
 11
-29.4620679005
 21
-11.1321104369
 31
0.0
 11
-29.5235063358
 21
-10.989971287
 31
0.0
 11
-29.5398948764
 21
-10.9172555691
 31
0.0
 11
-29.5457037117
 21
-10.8471852302
 31
0.0
  0
SPLINE
  5
3FC
100
AcDbEntity
  8
RACCORDO
100
AcDbSpline
 62
7
  6
CONTINUOUS
 70
0
 71
3
 72
8
 73
4
 74
2
 42
0.0000001
 43
0.0000001
 44
0.0000000001
 12
-0.0001028668
 22
-0.004416712
 32
0.0
 13
0.0011274426
 23
-0.0042716273
 33
0.0
 40
0.0
 40
0.0
 40
0.0
 40
0.0
 40
1.0
 40
1.0
 40
1.0
 40
1.0
 10
-25.940189904
 20
-8.3114720041
 30
0.0
 10
-25.940224193
 20
-8.3129442414
 30
0.0
 10
-25.9400736236
 20
-8.3144385462
 30
0.0
 10
-25.9396978094
 20
-8.3158624219
 30
0.0
 11
-25.940189904
 21
-8.3114720041
 31
0.0
 11
-25.9396978094
 21
-8.3158624219
 31
0.0
  0
SPLINE
  5
3FD
100
AcDbEntity
  8
RACCORDO
100
AcDbSpline
 62
7
  6
CONTINUOUS
 70
0
 71
3
 72
11
 73
7
 74
5
 42
0.0000001
 43
0.0000001
 44
0.0000000001
 12
-0.0064397843
 22
1.0264956433
 32
0.0
 13
-0.9152946272
 23
0.4647262871
 33
0.0
 40
0.0
 40
0.0
 40
0.0
 40
0.0
 40
0.2466773324
 40
0.5119103822
 40
0.7706310354
 40
1.0
 40
1.0
 40
1.0
 40
1.0
 10
23.0012314626
 20
7.3600528674
 30
0.0
 10
23.0007019463
 20
7.4444572697
 30
0.0
 10
22.9706951904
 20
7.619716416
 30
0.0
 10
22.8647407398
 20
7.863541384
 30
0.0
 10
22.7100050679
 20
8.0723915024
 30
0.0
 10
22.5763121631
 20
8.1780967376
 30
0.0
 10
22.5063321028
 20
8.213628
 30
0.0
 11
23.0012314626
 21
7.3600528674
 31
0.0
 11
22.962407372
 21
7.6102770502
 31
0.0
 11
22.8547269187
 21
7.860344352
 31
0.0
 11
22.6945811817
 21
8.0722087676
 31
0.0
 11
22.5063321028
 21
8.213628
 31
0.0
  0
SPLINE
  5
3FE
100
AcDbEntity
  8
RACCORDO
100
AcDbSpline
 62
7
  6
CONTINUOUS
 70
0
 71
3
 72
11
 73
7
 74
5
 42
0.0000001
 43
0.0000001
 44
0.0000000001
 12
-0.299686386
 22
0.1475513079
 32
0.0
 13
-0.2939687779
 23
-0.1586369315
 33
0.0
 40
0.0
 40
0.0
 40
0.0
 40
0.0
 40
0.2797829828
 40
0.535973102
 40
0.7731347539
 40
1.0
 40
1.0
 40
1.0
 40
1.0
 10
-29.0544742577
 20
33.9940311803
 30
0.0
 10
-29.082423308
 20
34.007791962
 30
0.0
 10
-29.1382860449
 20
34.0298806005
 30
0.0
 10
-29.2237667681
 20
34.0448788987
 30
0.0
 10
-29.304646557
 20
34.0392730447
 30
0.0
 10
-29.3539967392
 20
34.0213486541
 30
0.0
 10
-29.3762271723
 20
34.009352252
 30
0.0
 11
-29.0544742577
 21
33.9940311803
 31
0.0
 11
-29.1416705751
 21
34.0276671576
 31
0.0
 11
-29.2261014957
 21
34.041631744
 31
0.0
 11
-29.3050819621
 21
34.0354541952
 31
0.0
 11
-29.3762271723
 21
34.009352252
 31
0.0
  0
SPLINE
  5
3FF
100
AcDbEntity
  8
RACCORDO
100
AcDbSpline
 62
7
  6
CONTINUOUS
 70
0
 71
3
 72
11
 73
7
 74
5
 42
0.0000001
 43
0.0000001
 44
0.0000000001
 12
-0.3869291761
 22
-0.2017363465
 32
0.0
 13
0.0000000104
 23
-0.4363619379
 33
0.0
 40
0.0
 40
0.0
 40
0.0
 40
0.0
 40
0.2307483971
 40
0.4893409449
 40
0.7537520468
 40
1.0
 40
1.0
 40
1.0
 40
1.0
 10
22.5063321018
 20
8.2136280005
 30
0.0
 10
22.4765710061
 20
8.198111221
 30
0.0
 10
22.4198981491
 20
8.1527472277
 30
0.0
 10
22.3545239499
 20
8.0635804466
 30
0.0
 10
22.3101214981
 20
7.9598702408
 30
0.0
 10
22.297902282
 20
7.8854627836
 30
0.0
 10
22.2979022829
 20
7.8496450389
 30
0.0
 11
22.5063321018
 21
8.2136280005
 31
0.0
 11
22.4262874052
 21
8.1525437477
 31
0.0
 11
22.3587377685
 21
8.0621562495
 31
0.0
 11
22.3136996594
 21
7.9559306937
 31
0.0
 11
22.2979022829
 21
7.8496450389
 31
0.0
  0
SPLINE
  5
400
100
AcDbEntity
  8
RACCORDO
100
AcDbSpline
 62
7
  6
CONTINUOUS
 70
0
 71
3
 72
11
 73
7
 74
5
 42
0.0000001
 43
0.0000001
 44
0.0000000001
 12
-0.3869291685
 22
-0.2017363581
 32
0.0
 13
0.0000000016
 23
-0.4363619365
 33
0.0
 40
0.0
 40
0.0
 40
0.0
 40
0.0
 40
0.2307483952
 40
0.4893409435
 40
0.7537520457
 40
1.0
 40
1.0
 40
1.0
 40
1.0
 10
-29.0544742563
 20
33.9940311796
 30
0.0
 10
-29.0842353512
 20
33.9785143993
 30
0.0
 10
-29.1409082068
 20
33.9331504055
 30
0.0
 10
-29.2062824069
 20
33.8439836258
 30
0.0
 10
-29.2506848602
 20
33.7402734207
 30
0.0
 10
-29.2629040777
 20
33.6658659639
 30
0.0
 10
-29.2629040776
 20
33.6300482192
 30
0.0
 11
-29.0544742563
 21
33.9940311796
 31
0.0
 11
-29.134518951
 21
33.9329469261
 31
0.0
 11
-29.2020685883
 21
33.8425594287
 31
0.0
 11
-29.2471066991
 21
33.7363338737
 31
0.0
 11
-29.2629040776
 21
33.6300482192
 31
0.0
  0
SPLINE
  5
401
100
AcDbEntity
  8
RACCORDO
100
AcDbSpline
 62
7
  6
CONTINUOUS
 70
0
 71
3
 72
11
 73
7
 74
5
 42
0.0000001
 43
0.0000001
 44
0.0000000001
 12
-0.3888881901
 22
-0.1877724818
 32
0.0
 13
-0.3862564227
 23
0.1931282092
 33
0.0
 40
0.0
 40
0.0
 40
0.0
 40
0.0
 40
0.2366411463
 40
0.5012534836
 40
0.7651925891
 40
1.0
 40
1.0
 40
1.0
 40
1.0
 10
23.0012314626
 20
7.3600528657
 30
0.0
 10
22.9705558135
 20
7.3452413006
 30
0.0
 10
22.900597604
 20
7.3241830572
 30
0.0
 10
22.7902978564
 20
7.3144395075
 30
0.0
 10
22.6803505135
 20
7.3250906707
 30
0.0
 10
22.6109338739
 20
7.346771842
 30
0.0
 10
22.5807019171
 20
7.3618878203
 30
0.0
 11
23.0012314626
 21
7.3600528657
 31
0.0
 11
22.9039897936
 21
7.328629006
 31
0.0
 11
22.7902160977
 21
7.3179662185
 31
0.0
 11
22.6768319164
 21
7.3296201994
 31
0.0
 11
22.5807019171
 21
7.3618878203
 31
0.0
  0
SPLINE
  5
402
100
AcDbEntity
  8
RACCORDO
100
AcDbSpline
 62
7
  6
CONTINUOUS
 70
0
 71
3
 72
11
 73
7
 74
5
 42
0.0000001
 43
0.0000001
 44
0.0000000001
 12
-0.388888196
 22
-0.1877724662
 32
0.0
 13
-0.3862564261
 23
0.1931281992
 33
0.0
 40
0.0
 40
0.0
 40
0.0
 40
0.0
 40
0.2366411464
 40
0.5012534856
 40
0.7651925916
 40
1.0
 40
1.0
 40
1.0
 40
1.0
 10
23.0012314626
 20
-36.9094264837
 30
0.0
 10
22.9705558131
 20
-36.9242380476
 30
0.0
 10
22.9005976034
 20
-36.9452962897
 30
0.0
 10
22.7902978559
 20
-36.9550398408
 30
0.0
 10
22.6803505133
 20
-36.944388679
 30
0.0
 10
22.6109338738
 20
-36.9227075093
 30
0.0
 10
22.5807019171
 20
-36.907591532
 30
0.0
 11
23.0012314626
 21
-36.9094264837
 31
0.0
 11
22.9039897933
 21
-36.9408503414
 31
0.0
 11
22.7902160971
 21
-36.9515131297
 31
0.0
 11
22.6768319157
 21
-36.9398591505
 31
0.0
 11
22.5807019171
 21
-36.907591532
 31
0.0
  0
SPLINE
  5
403
100
AcDbEntity
  8
RACCORDO
100
AcDbSpline
 62
7
  6
CONTINUOUS
 70
0
 71
3
 72
15
 73
11
 74
9
 42
0.0000001
 43
0.0000001
 44
0.0000000001
 12
0.0000674495
 22
-0.6465524092
 32
0.0
 13
-0.5783356639
 23
0.289063803
 33
0.0
 40
0.0
 40
0.0
 40
0.0
 40
0.0
 40
0.1487776577
 40
0.2853588652
 40
0.4094904377
 40
0.5236276668
 40
0.6329871457
 40
0.7448331124
 40
0.8659548653
 40
1.0
 40
1.0
 40
1.0
 40
1.0
 10
20.9282511046
 20
-33.8425336456
 30
0.0
 10
20.9282544496
 20
-33.8745978299
 30
0.0
 10
20.9240968483
 20
-33.9362351235
 30
0.0
 10
20.903315061
 20
-34.022527785
 30
0.0
 10
20.8678860817
 20
-34.0959882246
 30
0.0
 10
20.8177617473
 20
-34.1531894916
 30
0.0
 10
20.7539230883
 20
-34.1900036553
 30
0.0
 10
20.6799824178
 20
-34.2033256264
 30
0.0
 10
20.600564708
 20
-34.1931211769
 30
0.0
 10
20.5488693601
 20
-34.1729599947
 30
0.0
 10
20.5230283328
 20
-34.1600441292
 30
0.0
 11
20.9282511046
 21
-33.8425336456
 31
0.0
 11
20.9211126806
 21
-33.9384609632
 31
0.0
 11
20.8995518
 21
-34.0240952942
 31
0.0
 11
20.8637290643
 21
-34.0959145727
 31
0.0
 11
20.8143811392
 21
-34.1507833959
 31
0.0
 11
20.7530109802
 21
-34.1858993724
 31
0.0
 11
20.6819647068
 21
-34.199382031
 31
0.0
 11
20.6041543273
 21
-34.1905363821
 31
0.0
 11
20.5230283328
 21
-34.1600441292
 31
0.0
  0
SPLINE
  5
404
100
AcDbEntity
  8
0
100
AcDbSpline
 62
7
  6
CONTINUOUS
 70
0
 71
3
 72
9
 73
5
 74
3
 42
0.0000001
 43
0.0000001
 44
0.0000000001
 12
-0.1087199623
 22
0.5446236221
 32
0.0
 13
-0.1090135263
 23
0.5445649374
 33
0.0
 40
0.0
 40
0.0
 40
0.0
 40
0.0
 40
0.4998343578
 40
1.0
 40
1.0
 40
1.0
 40
1.0
 10
-0.6294119155
 20
-25.5243917711
 30
0.0
 10
-0.6475259064
 20
-25.4336512383
 30
0.0
 10
-0.6819272739
 20
-25.2517492943
 30
0.0
 10
-0.7171914767
 20
-25.0700145003
 30
0.0
 10
-0.7353664168
 20
-24.9792236097
 30
0.0
 11
-0.6294119155
 21
-25.5243917711
 31
0.0
 11
-0.6821314432
 21
-25.2518513154
 31
0.0
 11
-0.7353664168
 21
-24.9792236097
 31
0.0
  0
SPLINE
  5
405
100
AcDbEntity
  8
0
100
AcDbSpline
 62
7
  6
CONTINUOUS
 70
0
 71
3
 72
10
 73
6
 74
4
 42
0.0000001
 43
0.0000001
 44
0.0000000001
 12
-0.0805674382
 22
0.4024850711
 32
0.0
 13
-0.2265076045
 23
0.3423151321
 33
0.0
 40
0.0
 40
0.0
 40
0.0
 40
0.0
 40
0.2356174448
 40
0.6171421405
 40
1.0
 40
1.0
 40
1.0
 40
1.0
 10
-0.7353664168
 20
-24.9792236097
 30
0.0
 10
-0.7416941148
 20
-24.9476127751
 30
0.0
 10
-0.7576544109
 20
-24.8646657073
 30
0.0
 10
-0.7937404521
 20
-24.7325523958
 30
0.0
 10
-0.8372023567
 20
-24.6360841899
 30
0.0
 10
-0.8661090956
 20
-24.592398177
 30
0.0
 11
-0.7353664168
 21
-24.9792236097
 31
0.0
 11
-0.7548007599
 21
-24.8844825522
 31
0.0
 11
-0.7976480998
 21
-24.7338538151
 31
0.0
 11
-0.8661090956
 21
-24.592398177
 31
0.0
  0
SPLINE
  5
406
100
AcDbEntity
  8
0
100
AcDbSpline
 62
7
  6
CONTINUOUS
 70
0
 71
3
 72
9
 73
5
 74
3
 42
0.0000001
 43
0.0000001
 44
0.0000000001
 12
-0.039985989
 22
0.0604297994
 32
0.0
 13
-0.0509040081
 23
0.0515695834
 33
0.0
 40
0.0
 40
0.0
 40
0.0
 40
0.0
 40
0.2559328794
 40
1.0
 40
1.0
 40
1.0
 40
1.0
 10
-0.8661090956
 20
-24.592398177
 30
0.0
 10
-0.8695203387
 20
-24.5872428528
 30
0.0
 10
-0.8832514842
 20
-24.5673746242
 30
0.0
 10
-0.8987388033
 20
-24.5486744946
 30
0.0
 10
-0.9113641362
 20
-24.5358840841
 30
0.0
 11
-0.8661090956
 21
-24.592398177
 31
0.0
 11
-0.8766638741
 21
-24.5771494993
 31
0.0
 11
-0.9113641362
 21
-24.5358840841
 31
0.0
  0
SPLINE
  5
407
100
AcDbEntity
  8
0
100
AcDbSpline
 62
7
  6
CONTINUOUS
 70
0
 71
3
 72
11
 73
7
 74
5
 42
0.0000001
 43
0.0000001
 44
0.0000000001
 12
-0.6333494509
 22
0.5969143223
 32
0.0
 13
-0.8289470693
 23
0.2651131674
 33
0.0
 40
0.0
 40
0.0
 40
0.0
 40
0.0
 40
0.2725542141
 40
0.5262218346
 40
0.7671916502
 40
1.0
 40
1.0
 40
1.0
 40
1.0
 10
-0.9459727001
 20
-23.5880030187
 30
0.0
 10
-1.0035133874
 20
-23.533772514
 30
0.0
 10
-1.1267518188
 20
-23.441875049
 30
0.0
 10
-1.3219891081
 20
-23.3343346168
 30
0.0
 10
-1.5163561992
 20
-23.251367227
 30
0.0
 10
-1.6465184663
 20
-23.2069933703
 30
0.0
 10
-1.7108470661
 20
-23.1864198506
 30
0.0
 11
-0.9459727001
 21
-23.5880030187
 31
0.0
 11
-1.1340390171
 21
-23.4434417327
 31
0.0
 11
-1.3268736777
 21
-23.3359528031
 31
0.0
 11
-1.5194611412
 21
-23.2529358178
 31
0.0
 11
-1.7108470661
 21
-23.1864198506
 31
0.0
  0
SPLINE
  5
408
100
AcDbEntity
  8
RACCORDO
100
AcDbSpline
 62
7
  6
CONTINUOUS
 70
0
 71
3
 72
9
 73
5
 74
3
 42
0.0000001
 43
0.0000001
 44
0.0000000001
 12
0.193050807
 22
-0.0965021325
 32
0.0
 13
0.1468019727
 23
-0.1582101655
 33
0.0
 40
0.0
 40
0.0
 40
0.0
 40
0.0
 40
0.2333737377
 40
1.0
 40
1.0
 40
1.0
 40
1.0
 10
20.5230283328
 20
6.6720140017
 30
0.0
 10
20.5380459956
 20
6.6645069806
 30
0.0
 10
20.6006384778
 20
6.6288406164
 30
0.0
 10
20.6557891582
 20
6.5809087101
 30
0.0
 10
20.6933032407
 20
6.5404793542
 30
0.0
 11
20.5230283328
 21
6.6720140017
 31
0.0
 11
20.5668555736
 21
6.6471917732
 31
0.0
 11
20.6933032407
 21
6.5404793542
 31
0.0
  0
SPLINE
  5
409
100
AcDbEntity
  8
RACCORDO
100
AcDbSpline
 62
7
  6
CONTINUOUS
 70
0
 71
3
 72
9
 73
5
 74
3
 42
0.0000001
 43
0.0000001
 44
0.0000000001
 12
0.3040485397
 22
-0.3276765897
 32
0.0
 13
0.109879555
 23
-0.4332942941
 33
0.0
 40
0.0
 40
0.0
 40
0.0
 40
0.0
 40
0.4971396009
 40
1.0
 40
1.0
 40
1.0
 40
1.0
 10
20.6933032407
 20
6.5404793542
 30
0.0
 10
20.7436880973
 20
6.4861790178
 30
0.0
 10
20.8294678796
 20
6.3620516556
 30
0.0
 10
20.883842563
 20
6.2217215374
 30
0.0
 10
20.9022605886
 20
6.1490926902
 30
0.0
 11
20.6933032407
 21
6.5404793542
 31
0.0
 11
20.8212154502
 21
6.358757288
 31
0.0
 11
20.9022605886
 21
6.1490926902
 31
0.0
  0
SPLINE
  5
40A
100
AcDbEntity
  8
RACCORDO
100
AcDbSpline
 62
7
  6
CONTINUOUS
 70
0
 71
3
 72
9
 73
5
 74
3
 42
0.0000001
 43
0.0000001
 44
0.0000000001
 12
0.049599571
 22
-0.1955888073
 32
0.0
 13
0.0000039847
 23
-0.2017798279
 33
0.0
 40
0.0
 40
0.0
 40
0.0
 40
0.0
 40
0.2600361011
 40
1.0
 40
1.0
 40
1.0
 40
1.0
 10
20.9022605886
 20
6.1490926902
 30
0.0
 10
20.9065598149
 20
6.1321393065
 30
0.0
 10
20.921197874
 20
6.066489896
 30
0.0
 10
20.9282501217
 20
5.9990506757
 30
0.0
 10
20.9282511046
 20
5.9492807463
 30
0.0
 11
20.9022605886
 21
6.1490926902
 31
0.0
 11
20.9136597193
 21
6.0978758483
 31
0.0
 11
20.9282511046
 21
5.9492807463
 31
0.0
  0
SPLINE
  5
40B
100
AcDbEntity
  8
0
100
AcDbSpline
 62
7
  6
CONTINUOUS
 70
0
 71
3
 72
9
 73
5
 74
3
 42
0.0000001
 43
0.0000001
 44
0.0000000001
 12
-0.1087199623
 22
0.5446236221
 32
0.0
 13
-0.1090135263
 23
0.5445649374
 33
0.0
 40
0.0
 40
0.0
 40
0.0
 40
0.0
 40
0.4998343578
 40
1.0
 40
1.0
 40
1.0
 40
1.0
 10
-0.7708332718
 20
-25.5951024493
 30
0.0
 10
-0.7889472626
 20
-25.5043619164
 30
0.0
 10
-0.8233486302
 20
-25.3224599724
 30
0.0
 10
-0.8586128329
 20
-25.1407251784
 30
0.0
 10
-0.8767877731
 20
-25.0499342879
 30
0.0
 11
-0.7708332718
 21
-25.5951024493
 31
0.0
 11
-0.8235527994
 21
-25.3225619935
 31
0.0
 11
-0.8767877731
 21
-25.0499342879
 31
0.0
  0
SPLINE
  5
40C
100
AcDbEntity
  8
0
100
AcDbSpline
 62
7
  6
CONTINUOUS
 70
0
 71
3
 72
11
 73
7
 74
5
 42
0.0000001
 43
0.0000001
 44
0.0000000001
 12
-0.0922112176
 22
0.460653079
 32
0.0
 13
-0.3159155316
 23
0.3477089944
 33
0.0
 40
0.0
 40
0.0
 40
0.0
 40
0.0
 40
0.2378420178
 40
0.4941048347
 40
0.7548642019
 40
1.0
 40
1.0
 40
1.0
 40
1.0
 10
-0.8767877731
 20
-25.0499342879
 30
0.0
 10
-0.8840983404
 20
-25.0134134019
 30
0.0
 10
-0.8987313829
 20
-24.9374189238
 30
0.0
 10
-0.9301307636
 20
-24.8232353189
 30
0.0
 10
-0.9746557468
 20
-24.7122288225
 30
0.0
 10
-1.0179148686
 20
-24.644574362
 30
0.0
 10
-1.0437289373
 20
-24.616162388
 30
0.0
 11
-0.8767877731
 21
-25.0499342879
 31
0.0
 11
-0.8995574987
 21
-24.9405427199
 31
0.0
 11
-0.9320806036
 21
-24.8246288308
 31
0.0
 11
-0.9792095913
 21
-24.7115547967
 31
0.0
 11
-1.0437289373
 21
-24.616162388
 31
0.0
  0
SPLINE
  5
40D
100
AcDbEntity
  8
ASSI
100
AcDbSpline
 62
7
  6
CONTINUOUS
 70
0
 71
3
 72
8
 73
4
 74
2
 42
0.0000001
 43
0.0000001
 44
0.0000000001
 12
0.0017199938
 22
-0.0008550042
 32
0.0
 13
0.0000082581
 23
-0.0019207661
 33
0.0
 40
0.0
 40
0.0
 40
0.0
 40
0.0
 40
1.0
 40
1.0
 40
1.0
 40
1.0
 10
5.5625350277
 20
-21.264873637
 30
0.0
 10
5.5631083589
 20
-21.2651586384
 30
0.0
 10
5.5635507911
 20
-21.2658618888
 30
0.0
 10
5.5635535438
 20
-21.2665021442
 30
0.0
 11
5.5625350277
 21
-21.264873637
 31
0.0
 11
5.5635535438
 21
-21.2665021442
 31
0.0
  0
SPLINE
  5
40E
100
AcDbEntity
  8
ASSI
100
AcDbSpline
 62
7
  6
CONTINUOUS
 70
0
 71
3
 72
8
 73
4
 74
2
 42
0.0000001
 43
0.0000001
 44
0.0000000001
 12
-0.0322886643
 22
0.0161348252
 32
0.0
 13
-0.0345470447
 23
0.0104590691
 33
0.0
 40
0.0
 40
0.0
 40
0.0
 40
0.0
 40
1.0
 40
1.0
 40
1.0
 40
1.0
 10
1.3691708867
 20
-19.1681915666
 30
0.0
 10
1.3584079986
 20
-19.1628132915
 30
0.0
 10
1.3472071608
 20
-19.1581864552
 30
0.0
 10
1.3356914792
 20
-19.1547000988
 30
0.0
 11
1.3691708867
 21
-19.1681915666
 31
0.0
 11
1.3356914792
 21
-19.1547000988
 31
0.0
  0
SPLINE
  5
40F
100
AcDbEntity
  8
ASSI
100
AcDbSpline
 62
7
  6
CONTINUOUS
 70
0
 71
3
 72
9
 73
5
 74
3
 42
0.0000001
 43
0.0000001
 44
0.0000000001
 12
-0.0774879905
 22
0.0234593799
 32
0.0
 13
-0.075213758
 23
-0.0299603369
 33
0.0
 40
0.0
 40
0.0
 40
0.0
 40
0.0
 40
0.2646796662
 40
1.0
 40
1.0
 40
1.0
 40
1.0
 10
1.3356914792
 20
-19.1547000988
 30
0.0
 10
1.3288549808
 20
-19.1526303586
 30
0.0
 10
1.3027132971
 20
-19.1463173691
 30
0.0
 10
1.2739276733
 20
-19.1472464392
 30
0.0
 10
1.2554922714
 20
-19.1545899209
 30
0.0
 11
1.3356914792
 21
-19.1547000988
 31
0.0
 11
1.3148314144
 21
-19.1497958635
 31
0.0
 11
1.2554922714
 21
-19.1545899209
 31
0.0
  0
SPLINE
  5
410
100
AcDbEntity
  8
ASSI
100
AcDbSpline
 62
7
  6
CONTINUOUS
 70
0
 71
3
 72
8
 73
4
 74
2
 42
0.0000001
 43
0.0000001
 44
0.0000000001
 12
0.0017199875
 22
-0.0008550395
 32
0.0
 13
0.0000082235
 23
-0.0019207763
 33
0.0
 40
0.0
 40
0.0
 40
0.0
 40
0.0
 40
1.0
 40
1.0
 40
1.0
 40
1.0
 10
-10.3473675122
 20
-13.2233198261
 30
0.0
 10
-10.346794183
 20
-13.2236048393
 30
0.0
 10
-10.3463517705
 20
-13.2243081072
 30
0.0
 10
-10.3463490293
 20
-13.2249483659
 30
0.0
 11
-10.3473675122
 21
-13.2233198261
 31
0.0
 11
-10.3463490293
 21
-13.2249483659
 31
0.0
  0
SPLINE
  5
411
100
AcDbEntity
  8
ASSI
100
AcDbSpline
 62
7
  6
CONTINUOUS
 70
0
 71
3
 72
8
 73
4
 74
2
 42
0.0000001
 43
0.0000001
 44
0.0000000001
 12
-0.032268327
 22
0.0161247358
 32
0.0
 13
-0.0345239903
 23
0.0104568695
 33
0.0
 40
0.0
 40
0.0
 40
0.0
 40
0.0
 40
1.0
 40
1.0
 40
1.0
 40
1.0
 10
-14.5407312804
 20
-11.126637942
 30
0.0
 10
-14.5514873894
 20
-11.1212630301
 30
0.0
 10
-14.56268085
 20
-11.1166386373
 30
0.0
 10
-14.5741888468
 20
-11.1131530141
 30
0.0
 11
-14.5407312804
 21
-11.126637942
 31
0.0
 11
-14.5741888468
 21
-11.1131530141
 31
0.0
  0
SPLINE
  5
412
100
AcDbEntity
  8
ASSI
100
AcDbSpline
 62
7
  6
CONTINUOUS
 70
0
 71
3
 72
9
 73
5
 74
3
 42
0.0000001
 43
0.0000001
 44
0.0000000001
 12
-0.0479673986
 22
0.0145287038
 32
0.0
 13
-0.0500426309
 23
-0.0027730218
 33
0.0
 40
0.0
 40
0.0
 40
0.0
 40
0.0
 40
0.257878631
 40
1.0
 40
1.0
 40
1.0
 40
1.0
 10
-14.5741888468
 20
-11.1131530141
 30
0.0
 10
-14.5783121025
 20
-11.1119041334
 30
0.0
 10
-14.5944558727
 20
-11.107629304
 30
0.0
 10
-14.6113559369
 20
-11.1058635522
 30
0.0
 10
-14.6237351722
 20
-11.1065495251
 30
0.0
 11
-14.5741888468
 21
-11.1131530141
 31
0.0
 11
-14.5866886638
 21
-11.1098662162
 31
0.0
 11
-14.6237351722
 21
-11.1065495251
 31
0.0
  0
SPLINE
  5
413
100
AcDbEntity
  8
ASSI
100
AcDbSpline
 62
7
  6
CONTINUOUS
 70
0
 71
3
 72
8
 73
4
 74
2
 42
0.0000001
 43
0.0000001
 44
0.0000000001
 12
-0.0213414878
 22
-0.0011825999
 32
0.0
 13
-0.0206349063
 23
-0.005572996
 33
0.0
 40
0.0
 40
0.0
 40
0.0
 40
0.0
 40
1.0
 40
1.0
 40
1.0
 40
1.0
 10
-14.6237351722
 20
-11.1065495251
 30
0.0
 10
-14.6308490014
 20
-11.1069437251
 30
0.0
 10
-14.6379726657
 20
-11.1080055913
 30
0.0
 10
-14.6448509678
 20
-11.1098632566
 30
0.0
 11
-14.6237351722
 21
-11.1065495251
 31
0.0
 11
-14.6448509678
 21
-11.1098632566
 31
0.0
  0
SPLINE
  5
414
100
AcDbEntity
  8
ASSI
100
AcDbSpline
 62
7
  6
CONTINUOUS
 70
0
 71
3
 72
8
 73
4
 74
2
 42
0.0000001
 43
0.0000001
 44
0.0000000001
 12
-0.032268327
 22
0.0161247358
 32
0.0
 13
-0.0345239903
 23
0.0104568695
 33
0.0
 40
0.0
 40
0.0
 40
0.0
 40
0.0
 40
1.0
 40
1.0
 40
1.0
 40
1.0
 10
17.279073873
 20
-27.0365405187
 30
0.0
 10
17.268317764
 20
-27.0311656068
 30
0.0
 10
17.2571243034
 20
-27.026541214
 30
0.0
 10
17.2456163066
 20
-27.0230555908
 30
0.0
 11
17.279073873
 21
-27.0365405187
 31
0.0
 11
17.2456163066
 21
-27.0230555908
 31
0.0
  0
SPLINE
  5
415
100
AcDbEntity
  8
ASSI
100
AcDbSpline
 62
7
  6
CONTINUOUS
 70
0
 71
3
 72
9
 73
5
 74
3
 42
0.0000001
 43
0.0000001
 44
0.0000000001
 12
-0.0479673986
 22
0.0145287038
 32
0.0
 13
-0.0500426309
 23
-0.0027730218
 33
0.0
 40
0.0
 40
0.0
 40
0.0
 40
0.0
 40
0.257878631
 40
1.0
 40
1.0
 40
1.0
 40
1.0
 10
17.2456163066
 20
-27.0230555908
 30
0.0
 10
17.2414930509
 20
-27.0218067101
 30
0.0
 10
17.2253492807
 20
-27.0175318807
 30
0.0
 10
17.2084492165
 20
-27.0157661289
 30
0.0
 10
17.1960699812
 20
-27.0164521018
 30
0.0
 11
17.2456163066
 21
-27.0230555908
 31
0.0
 11
17.2331164896
 21
-27.0197687929
 31
0.0
 11
17.1960699812
 21
-27.0164521018
 31
0.0
  0
SPLINE
  5
416
100
AcDbEntity
  8
ASSI
100
AcDbSpline
 62
7
  6
CONTINUOUS
 70
0
 71
3
 72
8
 73
4
 74
2
 42
0.0000001
 43
0.0000001
 44
0.0000000001
 12
-0.0213414878
 22
-0.0011825999
 32
0.0
 13
-0.0206349063
 23
-0.005572996
 33
0.0
 40
0.0
 40
0.0
 40
0.0
 40
0.0
 40
1.0
 40
1.0
 40
1.0
 40
1.0
 10
17.1960699812
 20
-27.0164521018
 30
0.0
 10
17.188956152
 20
-27.0168463018
 30
0.0
 10
17.1818324877
 20
-27.017908168
 30
0.0
 10
17.1749541856
 20
-27.0197658333
 30
0.0
 11
17.1960699812
 21
-27.0164521018
 31
0.0
 11
17.1749541856
 21
-27.0197658333
 31
0.0
  0
SPLINE
  5
417
100
AcDbEntity
  8
DRAFT
100
AcDbSpline
 62
7
  6
CONTINUOUS
 70
0
 71
3
 72
9
 73
5
 74
3
 42
0.0000001
 43
0.0000001
 44
0.0000000001
 12
-0.0332878751
 22
-0.1355086177
 32
0.0
 13
-0.1246655888
 23
-0.0626830046
 33
0.0
 40
0.0
 40
0.0
 40
0.0
 40
0.0
 40
0.5315790208
 40
1.0
 40
1.0
 40
1.0
 40
1.0
 10
-10.9241898897
 20
-14.3100488589
 30
0.0
 10
-10.9300882684
 20
-14.3340600384
 30
0.0
 10
-10.9478965382
 20
-14.3783830998
 30
0.0
 10
-10.9840061859
 20
-14.4110377117
 30
0.0
 10
-11.0034715116
 20
-14.4208250565
 30
0.0
 11
-10.9241898897
 21
-14.3100488589
 31
0.0
 11
-10.9541928085
 21
-14.3778852308
 31
0.0
 11
-11.0034715116
 21
-14.4208250565
 31
0.0
  0
SPLINE
  5
418
100
AcDbEntity
  8
DRAFT
100
AcDbSpline
 62
7
  6
CONTINUOUS
 70
0
 71
3
 72
9
 73
5
 74
3
 42
0.0000001
 43
0.0000001
 44
0.0000000001
 12
-0.0332878751
 22
-0.1355086177
 32
0.0
 13
-0.1246655888
 23
-0.0626830046
 33
0.0
 40
0.0
 40
0.0
 40
0.0
 40
0.0
 40
0.5315790208
 40
1.0
 40
1.0
 40
1.0
 40
1.0
 10
4.985712687
 20
-22.2650001473
 30
0.0
 10
4.9798143083
 20
-22.2890113267
 30
0.0
 10
4.9620060385
 20
-22.3333343882
 30
0.0
 10
4.9258963908
 20
-22.3659890001
 30
0.0
 10
4.9064310651
 20
-22.3757763448
 30
0.0
 11
4.985712687
 21
-22.2650001473
 31
0.0
 11
4.9557097682
 21
-22.3328365192
 31
0.0
 11
4.9064310651
 21
-22.3757763448
 31
0.0
  0
SPLINE
  5
419
100
AcDbEntity
  8
RACCORDO
100
AcDbSpline
 62
7
  6
CONTINUOUS
 70
0
 71
3
 72
11
 73
7
 74
5
 42
0.0000001
 43
0.0000001
 44
0.0000000001
 12
0.1712622514
 22
0.0869949376
 32
0.0
 13
0.0004293237
 23
0.1920903266
 33
0.0
 40
0.0
 40
0.0
 40
0.0
 40
0.0
 40
0.3609349558
 40
0.6475569956
 40
0.8565789599
 40
1.0
 40
1.0
 40
1.0
 40
1.0
 10
-23.8119295004
 20
-8.0317774537
 30
0.0
 10
-23.791324656
 20
-8.021310949
 30
0.0
 10
-23.7550083433
 20
-8.0011933966
 30
0.0
 10
-23.710221906
 20
-7.9691264672
 30
0.0
 10
-23.6812746964
 20
-7.9400511477
 30
0.0
 10
-23.6716208761
 20
-7.9181060147
 30
0.0
 10
-23.6716003514
 20
-7.9089227499
 30
0.0
 11
-23.8119295004
 21
-8.0317774537
 31
0.0
 11
-23.7516045539
 21
-7.9976033873
 31
0.0
 11
-23.7073229918
 21
-7.9648853949
 31
0.0
 11
-23.6805228011
 21
-7.9349877621
 31
0.0
 11
-23.6716003514
 21
-7.9089227499
 31
0.0
  0
SPLINE
  5
41A
100
AcDbEntity
  8
RACCORDO
100
AcDbSpline
 62
7
  6
CONTINUOUS
 70
0
 71
3
 72
11
 73
7
 74
5
 42
0.0000001
 43
0.0000001
 44
0.0000000001
 12
0.3974925818
 22
-0.1920748414
 32
0.0
 13
-0.0061350167
 23
-0.4414243523
 33
0.0
 40
0.0
 40
0.0
 40
0.0
 40
0.0
 40
0.230440652
 40
0.4885148107
 40
0.7528953883
 40
1.0
 40
1.0
 40
1.0
 40
1.0
 10
-2.6389426754
 20
-18.2225201437
 30
0.0
 10
-2.6084098589
 20
-18.2372740943
 30
0.0
 10
-2.5500417289
 20
-18.2818508504
 30
0.0
 10
-2.4829904788
 20
-18.371344808
 30
0.0
 10
-2.4380197368
 20
-18.4763902951
 30
0.0
 10
-2.4263376195
 20
-18.5519787266
 30
0.0
 10
-2.4268429498
 20
-18.5883380577
 30
0.0
 11
-2.6389426754
 21
-18.2225201437
 31
0.0
 11
-2.5566504564
 21
-18.2823313315
 31
0.0
 11
-2.4874556463
 21
-18.3728432159
 31
0.0
 11
-2.4418747499
 21
-18.4802901433
 31
0.0
 11
-2.4268429498
 21
-18.5883380577
 31
0.0
  0
SPLINE
  5
41B
100
AcDbEntity
  8
RACCORDO
100
AcDbSpline
 62
7
  6
CONTINUOUS
 70
0
 71
3
 72
14
 73
10
 74
8
 42
0.0000001
 43
0.0000001
 44
0.0000000001
 12
0.3943553874
 22
-0.2003416686
 32
0.0
 13
-0.0117691643
 23
-0.4421701511
 33
0.0
 40
0.0
 40
0.0
 40
0.0
 40
0.0
 40
0.1107720358
 40
0.2307901358
 40
0.3575289023
 40
0.4888703813
 40
0.7527421961
 40
0.8798077521
 40
1.0
 40
1.0
 40
1.0
 40
1.0
 10
-24.0240292243
 20
-7.6659595389
 30
0.0
 10
-24.0094680413
 20
-7.6733569571
 30
0.0
 10
-23.9802052451
 20
-7.6910365457
 30
0.0
 10
-23.9400000757
 20
-7.7254772462
 30
0.0
 10
-23.9034391562
 20
-7.7678004363
 30
0.0
 10
-23.8606454635
 20
-7.8319282172
 30
0.0
 10
-23.8301494325
 20
-7.9037148907
 30
0.0
 10
-23.8141887931
 20
-7.9774966951
 30
0.0
 10
-23.8114579303
 20
-8.0140622877
 30
0.0
 10
-23.811929451
 20
-8.0317774292
 30
0.0
 11
-24.0240292243
 21
-7.6659595389
 31
0.0
 11
-23.9821400621
 21
-7.6913769877
 31
0.0
 11
-23.9416755892
 21
-7.7257409075
 31
0.0
 11
-23.904799705
 21
-7.7679651519
 31
0.0
 11
-23.8725413327
 21
-7.8162820763
 31
0.0
 11
-23.8269993659
 21
-7.923747972
 31
0.0
 11
-23.8152920021
 21
-7.978719627
 31
0.0
 11
-23.811929451
 21
-8.0317774292
 31
0.0
  0
SPLINE
  5
41C
100
AcDbEntity
  8
RACCORDO
100
AcDbSpline
 62
7
  6
CONTINUOUS
 70
0
 71
3
 72
11
 73
7
 74
5
 42
0.0000001
 43
0.0000001
 44
0.0000000001
 12
-0.0000102203
 22
-0.1402935348
 32
0.0
 13
-0.1245845542
 23
-0.0645055413
 33
0.0
 40
0.0
 40
0.0
 40
0.0
 40
0.0
 40
0.2077778344
 40
0.4361450684
 40
0.6987172547
 40
1.0
 40
1.0
 40
1.0
 40
1.0
 10
-2.3426449313
 20
-18.4841386988
 30
0.0
 10
-2.3426456392
 20
-18.4938553278
 30
0.0
 10
-2.3468257033
 20
-18.5144035194
 30
0.0
 10
-2.3643352257
 20
-18.5425829407
 30
0.0
 10
-2.3917202653
 20
-18.5680022244
 30
0.0
 10
-2.4143312243
 20
-18.5818599222
 30
0.0
 10
-2.4268429498
 20
-18.5883380577
 30
0.0
 11
-2.3426449313
 21
-18.4841386988
 31
0.0
 11
-2.3481601989
 21
-18.5127620762
 31
0.0
 11
-2.3644880672
 21
-18.5403276848
 31
0.0
 11
-2.3910587146
 21
-18.565841966
 31
0.0
 11
-2.4268429498
 21
-18.5883380577
 31
0.0
  0
SPLINE
  5
41D
100
AcDbEntity
  8
RACCORDO
100
AcDbSpline
 62
7
  6
CONTINUOUS
 70
0
 71
3
 72
11
 73
7
 74
5
 42
0.0000001
 43
0.0000001
 44
0.0000000001
 12
0.3974925817
 22
-0.1920748416
 32
0.0
 13
-0.0061350169
 23
-0.4414243523
 33
0.0
 40
0.0
 40
0.0
 40
0.0
 40
0.0
 40
0.2304406517
 40
0.4885148109
 40
0.7528953877
 40
1.0
 40
1.0
 40
1.0
 40
1.0
 10
-21.3205767388
 20
16.5761234733
 30
0.0
 10
-21.2900439223
 20
16.5613695227
 30
0.0
 10
-21.2316757923
 20
16.5167927666
 30
0.0
 10
-21.1646245422
 20
16.427298809
 30
0.0
 10
-21.1196538003
 20
16.322253322
 30
0.0
 10
-21.1079716829
 20
16.2466648904
 30
0.0
 10
-21.1084770132
 20
16.2103055593
 30
0.0
 11
-21.3205767388
 21
16.5761234733
 31
0.0
 11
-21.2382845199
 21
16.5163122855
 31
0.0
 11
-21.1690897097
 21
16.425800401
 31
0.0
 11
-21.1235088133
 21
16.3183534739
 31
0.0
 11
-21.1084770132
 21
16.2103055593
 31
0.0
  0
SPLINE
  5
41E
100
AcDbEntity
  8
RACCORDO
100
AcDbSpline
 62
7
  6
CONTINUOUS
 70
0
 71
3
 72
11
 73
7
 74
5
 42
0.0000001
 43
0.0000001
 44
0.0000000001
 12
0.0025984861
 22
-0.1842744525
 32
0.0
 13
-0.1622148733
 23
-0.0874651979
 33
0.0
 40
0.0
 40
0.0
 40
0.0
 40
0.0
 40
0.28852378
 40
0.547995295
 40
0.7816826175
 40
1.0
 40
1.0
 40
1.0
 40
1.0
 10
-21.1084770132
 20
10.8099175058
 30
0.0
 10
-21.1082271048
 20
10.7921949852
 30
0.0
 10
-21.110610597
 20
10.7583690637
 30
0.0
 10
-21.1243363909
 20
10.7118697456
 30
0.0
 10
-21.147861167
 20
10.6742723725
 30
0.0
 10
-21.1700285921
 20
10.6564599701
 30
0.0
 10
-21.1818333676
 20
10.6500949124
 30
0.0
 11
-21.1084770132
 21
10.8099175058
 31
0.0
 11
-21.1127436626
 21
10.7569161153
 31
0.0
 11
-21.1269059285
 21
10.7112427021
 31
0.0
 11
-21.1502997479
 21
10.6750835295
 31
0.0
 11
-21.1818333676
 21
10.6500949124
 31
0.0
  0
SPLINE
  5
41F
100
AcDbEntity
  8
RACCORDO
100
AcDbSpline
 62
7
  6
CONTINUOUS
 70
0
 71
3
 72
9
 73
5
 74
3
 42
0.0000001
 43
0.0000001
 44
0.0000000001
 12
-0.1200021189
 22
0.0599713195
 32
0.0
 13
-0.1210071334
 23
-0.057916676
 33
0.0
 40
0.0
 40
0.0
 40
0.0
 40
0.0
 40
0.4650416511
 40
1.0
 40
1.0
 40
1.0
 40
1.0
 10
-4.0467782034
 20
-17.4466671342
 30
0.0
 10
-4.0653801979
 20
-17.437370747
 30
0.0
 10
-4.1117564164
 20
-17.4292469439
 30
0.0
 10
-4.1556554086
 20
-17.4430471446
 30
0.0
 10
-4.177233334
 20
-17.4533748144
 30
0.0
 11
-4.0467782034
 21
-17.4466671342
 31
0.0
 11
-4.1079782101
 21
-17.4345563004
 31
0.0
 11
-4.177233334
 21
-17.4533748144
 31
0.0
  0
SPLINE
  5
420
100
AcDbEntity
  8
ASSI
100
AcDbSpline
 62
7
  6
CONTINUOUS
 70
0
 71
3
 72
11
 73
7
 74
5
 42
0.0000001
 43
0.0000001
 44
0.0000000001
 12
0.0483159092
 22
0.0240461291
 32
0.0
 13
0.048326814
 23
-0.0240242057
 33
0.0
 40
0.0
 40
0.0
 40
0.0
 40
0.0
 40
0.4141056993
 40
0.7151930062
 40
0.9055096016
 40
1.0
 40
1.0
 40
1.0
 40
1.0
 10
-10.3977222439
 20
-13.2413801229
 30
0.0
 10
-10.3910529461
 20
-13.2380609098
 30
0.0
 10
-10.3794272308
 20
-13.2326649642
 30
0.0
 10
-10.3641995845
 20
-13.2263929626
 30
0.0
 10
-10.3544029736
 20
-13.2233978315
 30
0.0
 10
-10.3488896522
 20
-13.2225631405
 30
0.0
 10
-10.3473675122
 20
-13.2233198261
 30
0.0
 11
-10.3977222439
 21
-13.2413801229
 31
0.0
 11
-10.3774554914
 21
-13.2319605096
 31
0.0
 11
-10.3623544785
 21
-13.2259604326
 31
0.0
 11
-10.3524652834
 21
-13.2231853743
 31
0.0
 11
-10.3473675122
 21
-13.2233198261
 31
0.0
  0
SPLINE
  5
421
100
AcDbEntity
  8
RACCORDO
100
AcDbSpline
 62
7
  6
CONTINUOUS
 70
0
 71
3
 72
9
 73
5
 74
3
 42
0.0000001
 43
0.0000001
 44
0.0000000001
 12
0.1211461435
 22
0.0559349925
 32
0.0
 13
0.1185133239
 23
-0.0613164215
 33
0.0
 40
0.0
 40
0.0
 40
0.0
 40
0.0
 40
0.4648265803
 40
1.0
 40
1.0
 40
1.0
 40
1.0
 10
-4.3067172361
 20
-17.442640872
 30
0.0
 10
-4.2879465869
 20
-17.4339741816
 30
0.0
 10
-4.2415836725
 20
-17.4273442313
 30
0.0
 10
-4.198375061
 20
-17.4424365081
 30
0.0
 10
-4.177233334
 20
-17.4533748144
 30
0.0
 11
-4.3067172361
 21
-17.442640872
 31
0.0
 11
-4.2455266875
 21
-17.4325040131
 31
0.0
 11
-4.177233334
 21
-17.4533748144
 31
0.0
  0
SPLINE
  5
422
100
AcDbEntity
  8
RACCORDO
100
AcDbSpline
 62
7
  6
CONTINUOUS
 70
0
 71
3
 72
11
 73
7
 74
5
 42
0.0000001
 43
0.0000001
 44
0.0000000001
 12
-0.0000102202
 22
-0.1402935348
 32
0.0
 13
-0.1245845542
 23
-0.0645055413
 33
0.0
 40
0.0
 40
0.0
 40
0.0
 40
0.0
 40
0.2077778343
 40
0.4361450687
 40
0.698717255
 40
1.0
 40
1.0
 40
1.0
 40
1.0
 10
-21.0242789947
 20
10.9141168647
 30
0.0
 10
-21.0242797026
 20
10.9044002357
 30
0.0
 10
-21.0284597667
 20
10.8838520441
 30
0.0
 10
-21.0459692891
 20
10.8556726228
 30
0.0
 10
-21.0733543287
 20
10.8302533391
 30
0.0
 10
-21.0959652877
 20
10.8163956413
 30
0.0
 10
-21.1084770132
 20
10.8099175058
 30
0.0
 11
-21.0242789947
 21
10.9141168647
 31
0.0
 11
-21.0297942623
 21
10.8854934873
 31
0.0
 11
-21.0461221306
 21
10.8579278787
 31
0.0
 11
-21.072692778
 21
10.8324135975
 31
0.0
 11
-21.1084770132
 21
10.8099175058
 31
0.0
  0
SPLINE
  5
423
100
AcDbEntity
  8
RACCORDO
100
AcDbSpline
 62
7
  6
CONTINUOUS
 70
0
 71
3
 72
11
 73
7
 74
5
 42
0.0000001
 43
0.0000001
 44
0.0000000001
 12
-0.0000102203
 22
-0.1402935348
 32
0.0
 13
-0.1245845542
 23
-0.0645055413
 33
0.0
 40
0.0
 40
0.0
 40
0.0
 40
0.0
 40
0.2077778344
 40
0.4361450684
 40
0.6987172547
 40
1.0
 40
1.0
 40
1.0
 40
1.0
 10
-21.0242789947
 20
16.3145049181
 30
0.0
 10
-21.0242797026
 20
16.3047882892
 30
0.0
 10
-21.0284597667
 20
16.2842400976
 30
0.0
 10
-21.0459692891
 20
16.2560606763
 30
0.0
 10
-21.0733543287
 20
16.2306413926
 30
0.0
 10
-21.0959652877
 20
16.2167836948
 30
0.0
 10
-21.1084770132
 20
16.2103055593
 30
0.0
 11
-21.0242789947
 21
16.3145049181
 31
0.0
 11
-21.0297942623
 21
16.2858815408
 31
0.0
 11
-21.0461221306
 21
16.2583159322
 31
0.0
 11
-21.072692778
 21
16.232801651
 31
0.0
 11
-21.1084770132
 21
16.2103055593
 31
0.0
  0
SPLINE
  5
424
100
AcDbEntity
  8
RACCORDO
100
AcDbSpline
 62
7
  6
CONTINUOUS
 70
0
 71
3
 72
9
 73
5
 74
3
 42
0.0000001
 43
0.0000001
 44
0.0000000001
 12
-0.1199872817
 22
0.0599050504
 32
0.0
 13
-0.1209684495
 23
-0.0578981611
 33
0.0
 40
0.0
 40
0.0
 40
0.0
 40
0.0
 40
0.4650457674
 40
1.0
 40
1.0
 40
1.0
 40
1.0
 10
-21.1901612289
 20
16.5828509444
 30
0.0
 10
-21.2087610881
 20
16.5921371411
 30
0.0
 10
-21.2551227
 20
16.6002448447
 30
0.0
 10
-21.2990058773
 20
16.586447762
 30
0.0
 10
-21.3205767386
 20
16.5761234732
 30
0.0
 11
-21.1901612289
 21
16.5828509444
 31
0.0
 11
-21.2513456258
 21
16.5949407528
 31
0.0
 11
-21.3205767386
 21
16.5761234732
 31
0.0
  0
SPLINE
  5
425
100
AcDbEntity
  8
RACCORDO
100
AcDbSpline
 62
7
  6
CONTINUOUS
 70
0
 71
3
 72
9
 73
5
 74
3
 42
0.0000001
 43
0.0000001
 44
0.0000000001
 12
-0.1200021189
 22
0.0599713195
 32
0.0
 13
-0.1210071334
 23
-0.057916676
 33
0.0
 40
0.0
 40
0.0
 40
0.0
 40
0.0
 40
0.4650416511
 40
1.0
 40
1.0
 40
1.0
 40
1.0
 10
-21.4983006586
 20
16.7369206787
 30
0.0
 10
-21.5169026531
 20
16.7462170659
 30
0.0
 10
-21.5632788716
 20
16.754340869
 30
0.0
 10
-21.6071778639
 20
16.7405406683
 30
0.0
 10
-21.6287557893
 20
16.7302129985
 30
0.0
 11
-21.4983006586
 21
16.7369206787
 31
0.0
 11
-21.5595006654
 21
16.7490315125
 31
0.0
 11
-21.6287557893
 21
16.7302129985
 31
0.0
  0
SPLINE
  5
426
100
AcDbEntity
  8
RACCORDO
100
AcDbSpline
 62
7
  6
CONTINUOUS
 70
0
 71
3
 72
9
 73
5
 74
3
 42
0.0000001
 43
0.0000001
 44
0.0000000001
 12
0.1211461435
 22
0.0559349925
 32
0.0
 13
0.1185133239
 23
-0.0613164215
 33
0.0
 40
0.0
 40
0.0
 40
0.0
 40
0.0
 40
0.4648265803
 40
1.0
 40
1.0
 40
1.0
 40
1.0
 10
-21.7582396914
 20
16.7409469409
 30
0.0
 10
-21.7394690422
 20
16.7496136314
 30
0.0
 10
-21.6931061277
 20
16.7562435817
 30
0.0
 10
-21.6498975162
 20
16.7411513049
 30
0.0
 10
-21.6287557893
 20
16.7302129985
 30
0.0
 11
-21.7582396914
 21
16.7409469409
 31
0.0
 11
-21.6970491428
 21
16.7510837998
 31
0.0
 11
-21.6287557893
 21
16.7302129985
 31
0.0
  0
SPLINE
  5
427
100
AcDbEntity
  8
RACCORDO
100
AcDbSpline
 62
7
  6
CONTINUOUS
 70
0
 71
3
 72
10
 73
6
 74
4
 42
0.0000001
 43
0.0000001
 44
0.0000000001
 12
-0.1719060809
 22
0.0858445567
 32
0.0
 13
-0.1728440808
 23
-0.0839399328
 33
0.0
 40
0.0
 40
0.0
 40
0.0
 40
0.0
 40
0.4083751956
 40
0.6803995527
 40
1.0
 40
1.0
 40
1.0
 40
1.0
 10
-23.838478066
 20
-7.6388347455
 30
0.0
 10
-23.8618787925
 20
-7.6271491496
 30
0.0
 10
-23.9089000801
 20
-7.6260464819
 30
0.0
 10
-23.9704428124
 20
-7.6422189839
 30
0.0
 10
-24.0056155441
 20
-7.6570171264
 30
0.0
 10
-24.024029226
 20
-7.6659595397
 30
0.0
 11
-23.838478066
 21
-7.6388347455
 31
0.0
 11
-23.9164686806
 21
-7.6301867172
 31
0.0
 11
-23.9672532368
 21
-7.6425552458
 31
0.0
 11
-24.024029226
 21
-7.6659595397
 31
0.0
  0
SPLINE
  5
428
100
AcDbEntity
  8
ASSI
100
AcDbSpline
 62
7
  6
CONTINUOUS
 70
0
 71
3
 72
11
 73
7
 74
5
 42
0.0000001
 43
0.0000001
 44
0.0000000001
 12
0.048315538
 22
0.0240467905
 32
0.0
 13
0.0483272103
 23
-0.0240233238
 33
0.0
 40
0.0
 40
0.0
 40
0.0
 40
0.0
 40
0.4141046671
 40
0.7151915315
 40
0.9055086154
 40
1.0
 40
1.0
 40
1.0
 40
1.0
 10
5.5121803328
 20
-21.2829339516
 30
0.0
 10
5.5188495627
 20
-21.2796146555
 30
0.0
 10
5.5304753162
 20
-21.2742188586
 30
0.0
 10
5.5457029024
 20
-21.267946826
 30
0.0
 10
5.5554995368
 20
-21.2649516662
 30
0.0
 10
5.5610128593
 20
-21.2641169713
 30
0.0
 10
5.5625350277
 20
-21.264873637
 30
0.0
 11
5.5121803328
 21
-21.2829339516
 31
0.0
 11
5.5324470231
 21
-21.2735143736
 31
0.0
 11
5.5475479983
 21
-21.2675142972
 31
0.0
 11
5.5574372061
 21
-21.264739213
 31
0.0
 11
5.5625350277
 21
-21.264873637
 31
0.0
  0
SPLINE
  5
429
100
AcDbEntity
  8
RACCORDO
100
AcDbSpline
 62
7
  6
CONTINUOUS
 70
0
 71
3
 72
9
 73
5
 74
3
 42
0.0000001
 43
0.0000001
 44
0.0000000001
 12
-0.1199872818
 22
0.0599050505
 32
0.0
 13
-0.1209684497
 23
-0.0578981612
 33
0.0
 40
0.0
 40
0.0
 40
0.0
 40
0.0
 40
0.4650457663
 40
1.0
 40
1.0
 40
1.0
 40
1.0
 10
-2.5085271656
 20
-18.2157926726
 30
0.0
 10
-2.5271270247
 20
-18.2065064759
 30
0.0
 10
-2.5734886367
 20
-18.1983987723
 30
0.0
 10
-2.617371814
 20
-18.2121958549
 30
0.0
 10
-2.6389426755
 20
-18.2225201437
 30
0.0
 11
-2.5085271656
 21
-18.2157926726
 31
0.0
 11
-2.5697115624
 21
-18.2037028642
 31
0.0
 11
-2.6389426755
 21
-18.2225201437
 31
0.0
  0
SPLINE
  5
42A
100
AcDbEntity
  8
RACCORDO
100
AcDbSpline
 62
7
  6
CONTINUOUS
 70
0
 71
3
 72
12
 73
8
 74
6
 42
0.0000001
 43
0.0000001
 44
0.0000000001
 12
1.1507197858
 22
-0.5753598929
 32
0.0
 13
0.0
 23
-1.2865438321
 33
0.0
 40
0.0
 40
0.0
 40
0.0
 40
0.0
 40
0.2441431698
 40
0.4962282067
 40
0.62406458
 40
0.7513337464
 40
1.0
 40
1.0
 40
1.0
 40
1.0
 10
42.4909146432
 20
26.0350079081
 30
0.0
 10
42.5845614352
 20
25.9881845121
 30
0.0
 10
42.7588973213
 20
25.8592249022
 30
0.0
 10
42.9236360311
 20
25.6446060448
 30
0.0
 10
43.0224439003
 20
25.4502464531
 30
0.0
 10
43.0957643888
 20
25.2466855352
 30
0.0
 10
43.120861236
 20
25.084644927
 30
0.0
 10
43.120861236
 20
24.9780049154
 30
0.0
 11
42.4909146432
 21
26.0350079081
 31
0.0
 11
42.7456154739
 21
25.8511958968
 31
0.0
 11
42.9448664104
 21
25.5953023234
 31
0.0
 11
43.0193980833
 21
25.4486924468
 31
0.0
 11
43.074701393
 21
25.2945773361
 31
0.0
 11
43.120861236
 21
24.9780049154
 31
0.0
  0
SPLINE
  5
42B
100
AcDbEntity
  8
RACCORDO
100
AcDbSpline
 62
7
  6
CONTINUOUS
 70
0
 71
3
 72
11
 73
7
 74
5
 42
0.0000001
 43
0.0000001
 44
0.0000000001
 12
-0.0
 22
-0.8666274729
 32
0.0
 13
-0.7751351763
 23
-0.3875675881
 33
0.0
 40
0.0
 40
0.0
 40
0.0
 40
0.0
 40
0.2519644667
 40
0.5012041607
 40
0.7503330772
 40
1.0
 40
1.0
 40
1.0
 40
1.0
 10
43.120861236
 20
-65.0886370782
 30
0.0
 10
43.120861236
 20
-65.1614235212
 30
0.0
 10
43.1054449541
 20
-65.3068792998
 30
0.0
 10
43.0291780852
 20
-65.5124914057
 30
0.0
 10
42.8984305543
 20
-65.6884203873
 30
0.0
 10
42.779029979
 20
-65.7740333049
 30
0.0
 10
42.7145214409
 20
-65.8062875739
 30
0.0
 11
43.120861236
 21
-65.0886370782
 31
0.0
 11
43.0963822775
 21
-65.3056199742
 31
0.0
 11
43.0200496246
 21
-65.5076804788
 31
0.0
 11
42.8904876774
 21
-65.6803864706
 31
0.0
 11
42.7145214409
 21
-65.8062875739
 31
0.0
  0
SPLINE
  5
42C
100
AcDbEntity
  8
RACCORDO
100
AcDbSpline
 62
7
  6
CONTINUOUS
 70
0
 71
3
 72
9
 73
5
 74
3
 42
0.0000001
 43
0.0000001
 44
0.0000000001
 12
0.4501098671
 22
0.2250549335
 32
0.0
 13
0.4890207121
 23
-0.1187744027
 33
0.0
 40
0.0
 40
0.0
 40
0.0
 40
0.0
 40
0.5005138489
 40
1.0
 40
1.0
 40
1.0
 40
1.0
 10
-40.2042923677
 20
67.0614021105
 30
0.0
 10
-40.1291969604
 20
67.0989498142
 30
0.0
 10
-39.9637697724
 20
67.1463854366
 30
0.0
 10
-39.7929748805
 20
67.1326819655
 30
0.0
 10
-39.7115551894
 20
67.1129065757
 30
0.0
 11
-40.2042923677
 21
67.0614021105
 31
0.0
 11
-39.9622550777
 21
67.1311179803
 31
0.0
 11
-39.7115551894
 21
67.1129065757
 31
0.0
  0
SPLINE
  5
42D
100
AcDbEntity
  8
RACCORDO
100
AcDbSpline
 62
7
  6
CONTINUOUS
 70
0
 71
3
 72
9
 73
5
 74
3
 42
0.0000001
 43
0.0000001
 44
0.0000000001
 12
0.1846708987
 22
-0.0448532652
 32
0.0
 13
0.1699768366
 23
-0.0849884183
 33
0.0
 40
0.0
 40
0.0
 40
0.0
 40
0.0
 40
0.748768518
 40
1.0
 40
1.0
 40
1.0
 40
1.0
 10
-39.7115551894
 20
67.1129065757
 30
0.0
 10
-39.665463271
 20
67.1017116714
 30
0.0
 10
-39.6050951937
 20
67.0811523935
 30
0.0
 10
-39.5477064853
 20
67.0543184723
 30
0.0
 10
-39.5334719745
 20
67.0472012169
 30
0.0
 11
-39.7115551894
 21
67.1129065757
 31
0.0
 11
-39.5767302354
 21
67.0674054856
 31
0.0
 11
-39.5334719745
 21
67.0472012169
 31
0.0
  0
SPLINE
  5
42E
100
AcDbEntity
  8
RACCORDO
100
AcDbSpline
 62
7
  6
CONTINUOUS
 70
0
 71
3
 72
11
 73
7
 74
5
 42
0.0000001
 43
0.0000001
 44
0.0000000001
 12
0.0
 22
0.8666274729
 32
0.0
 13
0.7751351763
 23
0.3875675881
 33
0.0
 40
0.0
 40
0.0
 40
0.0
 40
0.0
 40
0.2519644667
 40
0.5012041607
 40
0.7503330772
 40
1.0
 40
1.0
 40
1.0
 40
1.0
 10
-43.120861236
 20
65.0886370782
 30
0.0
 10
-43.120861236
 20
65.1614235212
 30
0.0
 10
-43.1054449541
 20
65.3068792998
 30
0.0
 10
-43.0291780852
 20
65.5124914057
 30
0.0
 10
-42.8984305543
 20
65.6884203873
 30
0.0
 10
-42.779029979
 20
65.7740333049
 30
0.0
 10
-42.7145214409
 20
65.8062875739
 30
0.0
 11
-43.120861236
 21
65.0886370782
 31
0.0
 11
-43.0963822775
 21
65.3056199742
 31
0.0
 11
-43.0200496246
 21
65.5076804788
 31
0.0
 11
-42.8904876774
 21
65.6803864706
 31
0.0
 11
-42.7145214409
 21
65.8062875739
 31
0.0
  0
SPLINE
  5
42F
100
AcDbEntity
  8
RACCORDO
100
AcDbSpline
 62
7
  6
CONTINUOUS
 70
0
 71
3
 72
12
 73
8
 74
6
 42
0.0000001
 43
0.0000001
 44
0.0000000001
 12
-1.1507197858
 22
0.5753598929
 32
0.0
 13
0.0
 23
1.2865438321
 33
0.0
 40
0.0
 40
0.0
 40
0.0
 40
0.0
 40
0.2441431698
 40
0.4962282067
 40
0.62406458
 40
0.7513337464
 40
1.0
 40
1.0
 40
1.0
 40
1.0
 10
-42.4909146432
 20
-26.0350079081
 30
0.0
 10
-42.5845614352
 20
-25.9881845121
 30
0.0
 10
-42.7588973213
 20
-25.8592249022
 30
0.0
 10
-42.9236360311
 20
-25.6446060448
 30
0.0
 10
-43.0224439003
 20
-25.4502464531
 30
0.0
 10
-43.0957643888
 20
-25.2466855352
 30
0.0
 10
-43.120861236
 20
-25.084644927
 30
0.0
 10
-43.120861236
 20
-24.9780049154
 30
0.0
 11
-42.4909146432
 21
-26.0350079081
 31
0.0
 11
-42.7456154739
 21
-25.8511958968
 31
0.0
 11
-42.9448664104
 21
-25.5953023234
 31
0.0
 11
-43.0193980833
 21
-25.4486924468
 31
0.0
 11
-43.074701393
 21
-25.2945773361
 31
0.0
 11
-43.120861236
 21
-24.9780049154
 31
0.0
  0
SPLINE
  5
430
100
AcDbEntity
  8
RACCORDO
100
AcDbSpline
 62
7
  6
CONTINUOUS
 70
0
 71
3
 72
11
 73
7
 74
5
 42
0.0000001
 43
0.0000001
 44
0.0000000001
 12
-0.621178054
 22
-0.310589027
 32
0.0
 13
-0.621178054
 23
0.310589027
 33
0.0
 40
0.0
 40
0.0
 40
0.0
 40
0.0
 40
0.2503580958
 40
0.5002847812
 40
0.7497738124
 40
1.0
 40
1.0
 40
1.0
 40
1.0
 10
40.2042923677
 20
-67.0614021105
 30
0.0
 10
40.1524533828
 20
-67.087321603
 30
0.0
 10
40.0417578297
 20
-67.1260697906
 30
0.0
 10
39.8671693004
 20
-67.1411891448
 30
0.0
 10
39.6941231163
 20
-67.1150085528
 30
0.0
 10
39.5852836466
 20
-67.0731070529
 30
0.0
 10
39.5334719745
 20
-67.0472012169
 30
0.0
 11
40.2042923677
 21
-67.0614021105
 31
0.0
 11
40.0402103163
 21
-67.1189258832
 31
0.0
 11
39.867319596
 21
-67.1343077879
 31
0.0
 11
39.695916985
 21
-67.1089399723
 31
0.0
 11
39.5334719745
 21
-67.0472012169
 31
0.0
  0
SPLINE
  5
431
100
AcDbEntity
  8
RACCORDO
100
AcDbSpline
 62
7
  6
CONTINUOUS
 70
0
 71
3
 72
11
 73
7
 74
5
 42
0.0000001
 43
0.0000001
 44
0.0000000001
 12
0.0
 22
0.7341091226
 32
0.0
 13
-0.6566071604
 23
0.3283035802
 33
0.0
 40
0.0
 40
0.0
 40
0.0
 40
0.0
 40
0.2467983468
 40
0.5117850385
 40
0.7703194491
 40
1.0
 40
1.0
 40
1.0
 40
1.0
 10
39.7570787722
 20
23.5461136835
 30
0.0
 10
39.7570787722
 20
23.6065059894
 30
0.0
 10
39.7362385904
 20
23.7319569961
 30
0.0
 10
39.6607663745
 20
23.906424168
 30
0.0
 10
39.5498519067
 20
24.055620081
 30
0.0
 10
39.4537953464
 20
24.1307680983
 30
0.0
 10
39.4035253816
 20
24.1559030807
 30
0.0
 11
39.7570787722
 21
23.5461136835
 31
0.0
 11
39.7301651444
 21
23.7252804555
 31
0.0
 11
39.6535241831
 21
23.9040757361
 31
0.0
 11
39.5388269975
 21
24.0552899452
 31
0.0
 11
39.4035253816
 21
24.1559030807
 31
0.0
  0
SPLINE
  5
432
100
AcDbEntity
  8
RACCORDO
100
AcDbSpline
 62
7
  6
CONTINUOUS
 70
0
 71
3
 72
11
 73
7
 74
5
 42
0.0000001
 43
0.0000001
 44
0.0000000001
 12
0.5632353699
 22
0.2816265021
 32
0.0
 13
-0.0000000001
 23
0.6297202304
 33
0.0
 40
0.0
 40
0.0
 40
0.0
 40
0.0
 40
0.2171520848
 40
0.4504175247
 40
0.7102459292
 40
1.0
 40
1.0
 40
1.0
 40
1.0
 10
40.2042908142
 20
-67.0613989908
 30
0.0
 10
40.2450600592
 20
-67.0410137301
 30
0.0
 10
40.3222120145
 20
-66.9823234678
 30
0.0
 10
40.4048715899
 20
-66.8555245012
 30
0.0
 10
40.4543733341
 20
-66.6971502117
 30
0.0
 10
40.4641855534
 20
-66.5813496435
 30
0.0
 10
40.4641855534
 20
-66.5205283101
 30
0.0
 11
40.2042908142
 21
-67.0613989908
 31
0.0
 11
40.3137035173
 21
-66.9793741647
 31
0.0
 11
40.3959152023
 21
-66.8576429499
 31
0.0
 11
40.4469066902
 21
-66.7021723363
 31
0.0
 11
40.4641855534
 21
-66.5205283101
 31
0.0
  0
SPLINE
  5
433
100
AcDbEntity
  8
RACCORDO
100
AcDbSpline
 62
7
  6
CONTINUOUS
 70
0
 71
3
 72
15
 73
11
 74
9
 42
0.0000001
 43
0.0000001
 44
0.0000000001
 12
0.4890795838
 22
-0.2445397919
 32
0.0
 13
-0.0
 23
0.5468075979
 33
0.0
 40
0.0
 40
0.0
 40
0.0
 40
0.0
 40
0.1348982525
 40
0.2572075778
 40
0.3703121899
 40
0.4800840678
 40
0.5933696577
 40
0.7159400011
 40
0.8512182943
 40
1.0
 40
1.0
 40
1.0
 40
1.0
 10
39.4035253816
 20
-66.7767643167
 30
0.0
 10
39.4255173753
 20
-66.7877603136
 30
0.0
 10
39.4695408224
 20
-66.8050047974
 30
0.0
 10
39.5370966752
 20
-66.8145425724
 30
0.0
 10
39.6003463694
 20
-66.8053614666
 30
0.0
 10
39.6560230562
 20
-66.7772340436
 30
0.0
 10
39.7010031401
 20
-66.7317292647
 30
0.0
 10
39.7335995809
 20
-66.6716056073
 30
0.0
 10
39.7531341336
 20
-66.599570268
 30
0.0
 10
39.7570787722
 20
-66.5476466325
 30
0.0
 10
39.7570787722
 20
-66.5205283101
 30
0.0
 11
39.4035253816
 21
-66.7767643167
 31
0.0
 11
39.4724929076
 21
-66.8029276111
 31
0.0
 11
39.5388269959
 21
-66.8114527961
 31
0.0
 11
39.5999463053
 21
-66.8019968572
 31
0.0
 11
39.6535241897
 21
-66.7749357688
 31
0.0
 11
39.6974925533
 21
-66.7313007116
 31
0.0
 11
39.7301651445
 21
-66.6727814564
 31
0.0
 11
39.7502851354
 21
-66.6015991259
 31
0.0
 11
39.7570787722
 21
-66.5205283101
 31
0.0
  0
SPLINE
  5
434
100
AcDbEntity
  8
RACCORDO
100
AcDbSpline
 62
7
  6
CONTINUOUS
 70
0
 71
3
 72
11
 73
7
 74
5
 42
0.0000001
 43
0.0000001
 44
0.0000000001
 12
0.0
 22
-0.7341091226
 32
0.0
 13
0.6566071604
 23
-0.3283035802
 33
0.0
 40
0.0
 40
0.0
 40
0.0
 40
0.0
 40
0.2467983468
 40
0.5117850385
 40
0.7703194491
 40
1.0
 40
1.0
 40
1.0
 40
1.0
 10
-42.9744146266
 20
-25.1547816107
 30
0.0
 10
-42.9744146266
 20
-25.2151739166
 30
0.0
 10
-42.9535744448
 20
-25.3406249233
 30
0.0
 10
-42.8781022289
 20
-25.5150920952
 30
0.0
 10
-42.7671877611
 20
-25.6642880082
 30
0.0
 10
-42.6711312008
 20
-25.7394360255
 30
0.0
 10
-42.620861236
 20
-25.7645710079
 30
0.0
 11
-42.9744146266
 21
-25.1547816107
 31
0.0
 11
-42.9475009988
 21
-25.3339483827
 31
0.0
 11
-42.8708600375
 21
-25.5127436633
 31
0.0
 11
-42.7561628519
 21
-25.6639578724
 31
0.0
 11
-42.620861236
 21
-25.7645710079
 31
0.0
  0
SPLINE
  5
435
100
AcDbEntity
  8
RACCORDO
100
AcDbSpline
 62
7
  6
CONTINUOUS
 70
0
 71
3
 72
11
 73
7
 74
5
 42
0.0000001
 43
0.0000001
 44
0.0000000001
 12
0.4148284699
 22
0.207420721
 32
0.0
 13
0.4148310644
 23
-0.2074155322
 33
0.0
 40
0.0
 40
0.0
 40
0.0
 40
0.0
 40
0.2271155739
 40
0.4646632387
 40
0.7207939754
 40
1.0
 40
1.0
 40
1.0
 40
1.0
 10
-40.2042908091
 20
67.0613989934
 30
0.0
 10
-40.1728861405
 20
67.0771018187
 30
0.0
 10
-40.1036812127
 20
67.1001257587
 30
0.0
 10
-39.9912371368
 20
67.1057612854
 30
0.0
 10
-39.8729013947
 20
67.0835181662
 30
0.0
 10
-39.7956865497
 20
67.052304212
 30
0.0
 10
-39.7570787722
 20
67.0330003233
 30
0.0
 11
-40.2042908091
 21
67.0613989934
 31
0.0
 11
-40.1044506898
 21
67.0949763372
 31
0.0
 11
-39.9944665589
 21
67.1014327508
 31
0.0
 11
-39.8775218039
 21
67.0805637706
 31
0.0
 11
-39.7570787722
 21
67.0330003233
 31
0.0
  0
SPLINE
  5
436
100
AcDbEntity
  8
RACCORDO
100
AcDbSpline
 62
7
  6
CONTINUOUS
 70
0
 71
3
 72
10
 73
6
 74
4
 42
0.0000001
 43
0.0000001
 44
0.0000000001
 12
-0.2068625654
 22
0.1034358074
 32
0.0
 13
-0.2068643753
 23
-0.1034321877
 33
0.0
 40
0.0
 40
0.0
 40
0.0
 40
0.0
 40
0.2277246618
 40
0.4658846937
 40
1.0
 40
1.0
 40
1.0
 40
1.0
 10
42.4909146689
 20
26.0350079607
 30
0.0
 10
42.4752120997
 20
26.0428595888
 30
0.0
 10
42.4405971652
 20
26.0543639512
 30
0.0
 10
42.3628861347
 20
26.0582845063
 30
0.0
 10
42.3041376548
 20
26.0392219195
 30
0.0
 10
42.2673078451
 20
26.0208070146
 30
0.0
 11
42.4909146689
 21
26.0350079607
 31
0.0
 11
42.4409927469
 21
26.0517939788
 31
0.0
 11
42.3860055083
 21
26.0550233441
 31
0.0
 11
42.2673078451
 21
26.0208070146
 31
0.0
  0
SPLINE
  5
437
100
AcDbEntity
  8
RACCORDO
100
AcDbSpline
 62
7
  6
CONTINUOUS
 70
0
 71
3
 72
10
 73
6
 74
4
 42
0.0000001
 43
0.0000001
 44
0.0000000001
 12
-0.2048189375
 22
0.0946534588
 32
0.0
 13
-0.201811941
 23
-0.1009059705
 33
0.0
 40
0.0
 40
0.0
 40
0.0
 40
0.0
 40
0.227612673
 40
0.4661060001
 40
1.0
 40
1.0
 40
1.0
 40
1.0
 10
-39.5386520558
 20
67.0496925694
 30
0.0
 10
-39.5541918511
 20
67.0568740116
 30
0.0
 10
-39.5882313808
 20
67.0671875261
 30
0.0
 10
-39.6640438624
 20
67.0697220619
 30
0.0
 10
-39.7211633774
 20
67.0509580207
 30
0.0
 10
-39.7570787722
 20
67.0330003233
 30
0.0
 11
-39.5386520558
 21
67.0496925694
 31
0.0
 11
-39.5877460887
 21
67.0647690773
 31
0.0
 11
-39.6415117905
 21
67.0669977209
 31
0.0
 11
-39.7570787722
 21
67.0330003233
 31
0.0
  0
SPLINE
  5
438
100
AcDbEntity
  8
RACCORDO
100
AcDbSpline
 62
7
  6
CONTINUOUS
 70
0
 71
3
 72
11
 73
7
 74
5
 42
0.0000001
 43
0.0000001
 44
0.0000000001
 12
0.0
 22
-0.2406445043
 32
0.0
 13
-0.215238988
 23
-0.107619494
 33
0.0
 40
0.0
 40
0.0
 40
0.0
 40
0.0
 40
0.2065725467
 40
0.4344970833
 40
0.697456044
 40
1.0
 40
1.0
 40
1.0
 40
1.0
 10
43.1208589002
 20
-65.0886370782
 30
0.0
 10
43.1208589002
 20
-65.1052072609
 30
0.0
 10
43.1135362263
 20
-65.1403267093
 30
0.0
 10
43.0829859217
 20
-65.1882432255
 30
0.0
 10
43.03535614
 20
-65.2312772161
 30
0.0
 10
42.9961210449
 20
-65.2545605639
 30
0.0
 10
42.9744146266
 20
-65.2654137731
 30
0.0
 11
43.1208589002
 21
-65.0886370782
 31
0.0
 11
43.1112493729
 21
-65.1374099762
 31
0.0
 11
43.0828031338
 21
-65.1843056149
 31
0.0
 11
43.036589106
 21
-65.2275326324
 31
0.0
 11
42.9744146266
 21
-65.2654137731
 31
0.0
  0
SPLINE
  5
439
100
AcDbEntity
  8
RACCORDO
100
AcDbSpline
 62
7
  6
CONTINUOUS
 70
0
 71
3
 72
11
 73
7
 74
5
 42
0.0000001
 43
0.0000001
 44
0.0000000001
 12
0.0
 22
-0.2406445045
 32
0.0
 13
-0.2152389882
 23
-0.1076194941
 33
0.0
 40
0.0
 40
0.0
 40
0.0
 40
0.0
 40
0.206572546
 40
0.434497082
 40
0.6974560431
 40
1.0
 40
1.0
 40
1.0
 40
1.0
 10
43.1208589002
 20
24.9780049154
 30
0.0
 10
43.1208589002
 20
24.9614347327
 30
0.0
 10
43.1135362264
 20
24.9263152844
 30
0.0
 10
43.0829859218
 20
24.8783987682
 30
0.0
 10
43.03535614
 20
24.8353647776
 30
0.0
 10
42.996121045
 20
24.8120814293
 30
0.0
 10
42.9744146266
 20
24.8012282201
 30
0.0
 11
43.1208589002
 21
24.9780049154
 31
0.0
 11
43.111249373
 21
24.9292320175
 31
0.0
 11
43.0828031339
 21
24.8823363789
 31
0.0
 11
43.036589106
 21
24.8391093612
 31
0.0
 11
42.9744146266
 21
24.8012282201
 31
0.0
  0
SPLINE
  5
43A
100
AcDbEntity
  8
RACCORDO
100
AcDbSpline
 62
7
  6
CONTINUOUS
 70
0
 71
3
 72
15
 73
11
 74
9
 42
0.0000001
 43
0.0000001
 44
0.0000000001
 12
-0.4890795838
 22
0.2445397919
 32
0.0
 13
-0.0
 23
-0.5468075979
 33
0.0
 40
0.0
 40
0.0
 40
0.0
 40
0.0
 40
0.1348982525
 40
0.2572075778
 40
0.3703121899
 40
0.4800840678
 40
0.5933696577
 40
0.7159400011
 40
0.8512182943
 40
1.0
 40
1.0
 40
1.0
 40
1.0
 10
-42.620861236
 20
65.1680963895
 30
0.0
 10
-42.6428532297
 20
65.1790923864
 30
0.0
 10
-42.6868766768
 20
65.1963368702
 30
0.0
 10
-42.7544325296
 20
65.2058746452
 30
0.0
 10
-42.8176822238
 20
65.1966935394
 30
0.0
 10
-42.8733589106
 20
65.1685661164
 30
0.0
 10
-42.9183389945
 20
65.1230613375
 30
0.0
 10
-42.9509354353
 20
65.0629376801
 30
0.0
 10
-42.970469988
 20
64.9909023408
 30
0.0
 10
-42.9744146266
 20
64.9389787053
 30
0.0
 10
-42.9744146266
 20
64.9118603829
 30
0.0
 11
-42.620861236
 21
65.1680963895
 31
0.0
 11
-42.689828762
 21
65.1942596839
 31
0.0
 11
-42.7561628503
 21
65.2027848689
 31
0.0
 11
-42.8172821597
 21
65.19332893
 31
0.0
 11
-42.8708600441
 21
65.1662678416
 31
0.0
 11
-42.9148284077
 21
65.1226327844
 31
0.0
 11
-42.9475009989
 21
65.0641135292
 31
0.0
 11
-42.9676209898
 21
64.9929311987
 31
0.0
 11
-42.9744146266
 21
64.9118603829
 31
0.0
  0
SPLINE
  5
43B
100
AcDbEntity
  8
RACCORDO
100
AcDbSpline
 62
7
  6
CONTINUOUS
 70
0
 71
3
 72
11
 73
7
 74
5
 42
0.0000001
 43
0.0000001
 44
0.0000000001
 12
0.0
 22
0.7341091507
 32
0.0
 13
0.6566071856
 23
0.3283035928
 33
0.0
 40
0.0
 40
0.0
 40
0.0
 40
0.0
 40
0.2467998966
 40
0.5117850334
 40
0.7703179878
 40
1.0
 40
1.0
 40
1.0
 40
1.0
 10
-42.620861236
 20
65.1680963895
 30
0.0
 10
-42.620861236
 20
65.228489077
 30
0.0
 10
-42.600020999
 20
65.3539401041
 30
0.0
 10
-42.5245487662
 20
65.5284068577
 30
0.0
 10
-42.4136346783
 20
65.6776025503
 30
0.0
 10
-42.3175781321
 20
65.7527506435
 30
0.0
 10
-42.2673078455
 20
65.7778857867
 30
0.0
 11
-42.620861236
 21
65.1680963895
 31
0.0
 11
-42.593947331
 21
65.3472642774
 31
0.0
 11
-42.5173066775
 21
65.5260584561
 31
0.0
 11
-42.4026102576
 21
65.6772719134
 31
0.0
 11
-42.2673078455
 21
65.7778857867
 31
0.0
  0
SPLINE
  5
43C
100
AcDbEntity
  8
RACCORDO
100
AcDbSpline
 62
7
  6
CONTINUOUS
 70
0
 71
3
 72
11
 73
7
 74
5
 42
0.0000001
 43
0.0000001
 44
0.0000000001
 12
-0.2152389882
 22
0.1076194941
 32
0.0
 13
0.0
 23
0.2406445045
 33
0.0
 40
0.0
 40
0.0
 40
0.0
 40
0.0
 40
0.3025439569
 40
0.565502918
 40
0.793427454
 40
1.0
 40
1.0
 40
1.0
 40
1.0
 10
-42.9744146266
 20
64.9118603829
 30
0.0
 10
-42.996121045
 20
64.9227135921
 30
0.0
 10
-43.03535614
 20
64.9459969404
 30
0.0
 10
-43.0829859218
 20
64.989030931
 30
0.0
 10
-43.1135362264
 20
65.0369474472
 30
0.0
 10
-43.1208589002
 20
65.0720668955
 30
0.0
 10
-43.1208589002
 20
65.0886370782
 30
0.0
 11
-42.9744146266
 21
64.9118603829
 31
0.0
 11
-43.036589106
 21
64.949741524
 31
0.0
 11
-43.0828031339
 21
64.9929685417
 31
0.0
 11
-43.111249373
 21
65.0398641803
 31
0.0
 11
-43.1208589002
 21
65.0886370782
 31
0.0
  0
SPLINE
  5
43D
100
AcDbEntity
  8
RACCORDO
100
AcDbSpline
 62
7
  6
CONTINUOUS
 70
0
 71
3
 72
11
 73
7
 74
5
 42
0.0000001
 43
0.0000001
 44
0.0000000001
 12
-0.215238988
 22
0.107619494
 32
0.0
 13
-0.0000000005
 23
0.2406445043
 33
0.0
 40
0.0
 40
0.0
 40
0.0
 40
0.0
 40
0.3025439564
 40
0.5655029169
 40
0.7934274533
 40
1.0
 40
1.0
 40
1.0
 40
1.0
 10
-42.9744146266
 20
-25.1547816107
 30
0.0
 10
-42.9961210449
 20
-25.1439284015
 30
0.0
 10
-43.0353561398
 20
-25.1206450533
 30
0.0
 10
-43.0829859216
 20
-25.0776110628
 30
0.0
 10
-43.1135362263
 20
-25.0296945467
 30
0.0
 10
-43.1208589001
 20
-24.9945750983
 30
0.0
 10
-43.1208589002
 20
-24.9780049156
 30
0.0
 11
-42.9744146266
 21
-25.1547816107
 31
0.0
 11
-43.0365891059
 21
-25.1169004697
 31
0.0
 11
-43.0828031337
 21
-25.0736734522
 31
0.0
 11
-43.1112493729
 21
-25.0267778136
 31
0.0
 11
-43.1208589002
 21
-24.9780049156
 31
0.0
  0
SPLINE
  5
43E
100
AcDbEntity
  8
RACCORDO
100
AcDbSpline
 62
7
  6
CONTINUOUS
 70
0
 71
3
 72
11
 73
7
 74
5
 42
0.0000001
 43
0.0000001
 44
0.0000000001
 12
0.0
 22
-0.3148612163
 32
0.0
 13
0.281617969
 23
-0.1408151451
 33
0.0
 40
0.0
 40
0.0
 40
0.0
 40
0.0
 40
0.2897397513
 40
0.5495873695
 40
0.7828463215
 40
1.0
 40
1.0
 40
1.0
 40
1.0
 10
-42.620861236
 20
-25.7645710079
 30
0.0
 10
-42.620861236
 20
-25.794980278
 30
0.0
 10
-42.6159534186
 20
-25.852880758
 30
0.0
 10
-42.5912073386
 20
-25.9320698394
 30
0.0
 10
-42.5498743811
 20
-25.9954695082
 30
0.0
 10
-42.511299462
 20
-26.0248151182
 30
0.0
 10
-42.4909146694
 20
-26.0350079605
 30
0.0
 11
-42.620861236
 21
-25.7645710079
 31
0.0
 11
-42.6122220666
 21
-25.8553888374
 31
0.0
 11
-42.5867267692
 21
-25.9331309584
 31
0.0
 11
-42.5456212671
 21
-25.9939946407
 31
0.0
 11
-42.4909146694
 21
-26.0350079605
 31
0.0
  0
SPLINE
  5
43F
100
AcDbEntity
  8
RACCORDO
100
AcDbSpline
 62
7
  6
CONTINUOUS
 70
0
 71
3
 72
11
 73
7
 74
5
 42
0.0000001
 43
0.0000001
 44
0.0000000001
 12
0.0
 22
-0.3148612163
 32
0.0
 13
0.2816179689
 23
-0.1408151453
 33
0.0
 40
0.0
 40
0.0
 40
0.0
 40
0.0
 40
0.2897397507
 40
0.5495873683
 40
0.7828463208
 40
1.0
 40
1.0
 40
1.0
 40
1.0
 10
39.4035253816
 20
-66.7767643167
 30
0.0
 10
39.4035253816
 20
-66.8071735868
 30
0.0
 10
39.408433199
 20
-66.8650740666
 30
0.0
 10
39.4331792789
 20
-66.944263148
 30
0.0
 10
39.4745122364
 20
-67.0076628169
 30
0.0
 10
39.5130871556
 20
-67.037008427
 30
0.0
 10
39.5334719483
 20
-67.0472012693
 30
0.0
 11
39.4035253816
 21
-66.7767643167
 31
0.0
 11
39.412164551
 21
-66.867582146
 31
0.0
 11
39.4376598483
 21
-66.9453242669
 31
0.0
 11
39.4787653504
 21
-67.0061879494
 31
0.0
 11
39.5334719483
 21
-67.0472012693
 31
0.0
  0
SPLINE
  5
440
100
AcDbEntity
  8
RACCORDO
100
AcDbSpline
 62
7
  6
CONTINUOUS
 70
0
 71
3
 72
11
 73
7
 74
5
 42
0.0000001
 43
0.0000001
 44
0.0000000001
 12
0.6499096795
 22
-0.3249548398
 32
0.0
 13
0.6499096795
 23
0.3249548398
 33
0.0
 40
0.0
 40
0.0
 40
0.0
 40
0.0
 40
0.2353766984
 40
0.5
 40
0.7646233016
 40
1.0
 40
1.0
 40
1.0
 40
1.0
 10
39.7570787722
 20
-66.5205283101
 30
0.0
 10
39.8080699704
 20
-66.5460239092
 30
0.0
 10
39.925255277
 20
-66.5823924138
 30
0.0
 10
40.1106321628
 20
-66.5997616473
 30
0.0
 10
40.2960090486
 20
-66.5823924138
 30
0.0
 10
40.4131943552
 20
-66.5460239092
 30
0.0
 10
40.4641855534
 20
-66.5205283101
 30
0.0
 11
39.7570787722
 21
-66.5205283101
 31
0.0
 11
39.9192950898
 21
-66.5747225637
 31
0.0
 11
40.1106321628
 21
-66.5937504469
 31
0.0
 11
40.3019692358
 21
-66.5747225637
 31
0.0
 11
40.4641855534
 21
-66.5205283101
 31
0.0
  0
SPLINE
  5
441
100
AcDbEntity
  8
RACCORDO
100
AcDbSpline
 62
7
  6
CONTINUOUS
 70
0
 71
3
 72
11
 73
7
 74
5
 42
0.0000001
 43
0.0000001
 44
0.0000000001
 12
0.6499096796
 22
-0.3249548398
 32
0.0
 13
0.6499096796
 23
0.3249548398
 33
0.0
 40
0.0
 40
0.0
 40
0.0
 40
0.0
 40
0.2353766978
 40
0.4999999999
 40
0.764623302
 40
1.0
 40
1.0
 40
1.0
 40
1.0
 10
39.7570787722
 20
23.5461136835
 30
0.0
 10
39.8080699703
 20
23.5206180844
 30
0.0
 10
39.9252552769
 20
23.4842495798
 30
0.0
 10
40.1106321627
 20
23.4668803463
 30
0.0
 10
40.2960090487
 20
23.4842495797
 30
0.0
 10
40.4131943553
 20
23.5206180846
 30
0.0
 10
40.4641855534
 20
23.5461136836
 30
0.0
 11
39.7570787722
 21
23.5461136835
 31
0.0
 11
39.9192950894
 21
23.4919194299
 31
0.0
 11
40.1106321627
 21
23.4728915467
 31
0.0
 11
40.3019692361
 21
23.4919194299
 31
0.0
 11
40.4641855534
 21
23.5461136836
 31
0.0
  0
SPLINE
  5
442
100
AcDbEntity
  8
RACCORDO
100
AcDbSpline
 62
7
  6
CONTINUOUS
 70
0
 71
3
 72
11
 73
7
 74
5
 42
0.0000001
 43
0.0000001
 44
0.0000000001
 12
-0.0
 22
0.7341091508
 32
0.0
 13
0.6566071856
 23
0.3283035928
 33
0.0
 40
0.0
 40
0.0
 40
0.0
 40
0.0
 40
0.2467998972
 40
0.5117850334
 40
0.7703179873
 40
1.0
 40
1.0
 40
1.0
 40
1.0
 10
39.4035253816
 20
24.1559030807
 30
0.0
 10
39.4035253816
 20
24.2162957683
 30
0.0
 10
39.4243656187
 20
24.3417467955
 30
0.0
 10
39.4998378515
 20
24.5162135489
 30
0.0
 10
39.6107519393
 20
24.6654092414
 30
0.0
 10
39.7068084856
 20
24.7405573345
 30
0.0
 10
39.7570787722
 20
24.7656924779
 30
0.0
 11
39.4035253816
 21
24.1559030807
 31
0.0
 11
39.4304392868
 21
24.335070969
 31
0.0
 11
39.5070799401
 21
24.5138651474
 31
0.0
 11
39.6217763598
 21
24.6650786043
 31
0.0
 11
39.7570787722
 21
24.7656924779
 31
0.0
  0
SPLINE
  5
443
100
AcDbEntity
  8
RACCORDO
100
AcDbSpline
 62
7
  6
CONTINUOUS
 70
0
 71
3
 72
11
 73
7
 74
5
 42
0.0000001
 43
0.0000001
 44
0.0000000001
 12
-0.4148310644
 22
0.2074155322
 32
0.0
 13
-0.4148284699
 23
-0.207420721
 33
0.0
 40
0.0
 40
0.0
 40
0.0
 40
0.0
 40
0.2792060246
 40
0.5353367613
 40
0.7728844261
 40
1.0
 40
1.0
 40
1.0
 40
1.0
 10
-42.2673078454
 20
65.7778857867
 30
0.0
 10
-42.3059156229
 20
65.7971896754
 30
0.0
 10
-42.3831304679
 20
65.8284036296
 30
0.0
 10
-42.50146621
 20
65.8506467488
 30
0.0
 10
-42.6139102859
 20
65.8450112221
 30
0.0
 10
-42.6831152137
 20
65.8219872821
 30
0.0
 10
-42.7145198823
 20
65.8062844568
 30
0.0
 11
-42.2673078454
 21
65.7778857867
 31
0.0
 11
-42.3877508771
 21
65.825449234
 31
0.0
 11
-42.5046956321
 21
65.8463182142
 31
0.0
 11
-42.614679763
 21
65.8398618005
 31
0.0
 11
-42.7145198823
 21
65.8062844568
 31
0.0
  0
SPLINE
  5
444
100
AcDbEntity
  8
RACCORDO
100
AcDbSpline
 62
7
  6
CONTINUOUS
 70
0
 71
3
 72
11
 73
7
 74
5
 42
0.0000001
 43
0.0000001
 44
0.0000000001
 12
1.3132149071
 22
-0.6566074532
 32
0.0
 13
0.0000000001
 23
-1.4682189005
 33
0.0
 40
0.0
 40
0.0
 40
0.0
 40
0.0
 40
0.2296755895
 40
0.4882147768
 40
0.7532068927
 40
1.0
 40
1.0
 40
1.0
 40
1.0
 10
42.2673078454
 20
26.0208070145
 30
0.0
 10
42.3678456481
 20
25.9705381132
 30
0.0
 10
42.5599579443
 20
25.820241969
 30
0.0
 10
42.7817949251
 20
25.5218521112
 30
0.0
 10
42.9327335218
 20
25.1729118334
 30
0.0
 10
42.9744146266
 20
24.9220103216
 30
0.0
 10
42.9744146266
 20
24.8012282201
 30
0.0
 11
42.2673078454
 21
26.0208070145
 31
0.0
 11
42.5379058956
 21
25.8195857308
 31
0.0
 11
42.7673078456
 21
25.517154046
 31
0.0
 11
42.9205893281
 21
25.1595544426
 31
0.0
 11
42.9744146266
 21
24.8012282201
 31
0.0
  0
SPLINE
  5
445
100
AcDbEntity
  8
RACCORDO
100
AcDbSpline
 62
7
  6
CONTINUOUS
 70
0
 71
3
 72
11
 73
7
 74
5
 42
0.0000001
 43
0.0000001
 44
0.0000000001
 12
-0.0000000001
 22
1.4682189005
 32
0.0
 13
-1.3132149071
 23
0.6566074532
 33
0.0
 40
0.0
 40
0.0
 40
0.0
 40
0.0
 40
0.2467931073
 40
0.5117852232
 40
0.7703244105
 40
1.0
 40
1.0
 40
1.0
 40
1.0
 10
40.4641855534
 20
23.5461136835
 30
0.0
 10
40.4641855534
 20
23.666895785
 30
0.0
 10
40.4225044486
 20
23.9177972967
 30
0.0
 10
40.2715658519
 20
24.2667375746
 30
0.0
 10
40.0497288711
 20
24.5651274324
 30
0.0
 10
39.8576165749
 20
24.7154235766
 30
0.0
 10
39.7570787722
 20
24.7656924779
 30
0.0
 11
40.4641855534
 21
23.5461136835
 31
0.0
 11
40.4103602549
 21
23.904439906
 31
0.0
 11
40.2570787724
 21
24.2620395094
 31
0.0
 11
40.0276768224
 21
24.5644711942
 31
0.0
 11
39.7570787722
 21
24.7656924779
 31
0.0
  0
SPLINE
  5
446
100
AcDbEntity
  8
RACCORDO
100
AcDbSpline
 62
7
  6
CONTINUOUS
 70
0
 71
3
 72
11
 73
7
 74
5
 42
0.0000001
 43
0.0000001
 44
0.0000000001
 12
0.0000000001
 22
-0.6055027734
 32
0.0
 13
-0.5227781288
 23
-0.3055104526
 33
0.0
 40
0.0
 40
0.0
 40
0.0
 40
0.0
 40
0.2884407223
 40
0.5484909777
 40
0.7827647689
 40
1.0
 40
1.0
 40
1.0
 40
1.0
 10
42.9744146266
 20
-65.2654137735
 30
0.0
 10
42.9744146266
 20
-65.3236309926
 30
0.0
 10
42.9653924591
 20
-65.4347122447
 30
0.0
 10
42.9201631868
 20
-65.5875165937
 30
0.0
 10
42.8447652738
 20
-65.7119636119
 30
0.0
 10
42.7739321085
 20
-65.7724891377
 30
0.0
 10
42.7360768326
 20
-65.7946116823
 30
0.0
 11
42.9744146266
 21
-65.2654137735
 31
0.0
 11
42.9586559479
 21
-65.4393530314
 31
0.0
 11
42.9120824942
 21
-65.5897688798
 31
0.0
 11
42.8367702159
 21
-65.709978931
 31
0.0
 11
42.7360768326
 21
-65.7946116823
 31
0.0
  0
ELLIPSE
  5
447
100
AcDbEntity
  8
RACCORDO
100
AcDbEllipse
 62
7
  6
CONTINUOUS
 10
24.2006541876
 20
-35.8791530139
 30
0.0
 11
-0.313181275
 21
0.626269159
 31
0.0
 40
0.6121897086
 41
-3.160544254
 42
-2.2557347926
  0
ELLIPSE
  5
448
100
AcDbEntity
  8
RACCORDO
100
AcDbEllipse
 62
7
  6
CONTINUOUS
 10
24.2006541876
 20
8.4611629719
 30
0.0
 11
-0.3130130858
 21
0.6261196575
 31
0.0
 40
0.6125552124
 41
-2.255296188
 42
-0.6848044477
  0
ELLIPSE
  5
449
100
AcDbEntity
  8
RACCORDO
100
AcDbEllipse
 62
7
  6
CONTINUOUS
 10
-27.417990042
 20
34.2704850867
 30
0.0
 11
-0.313181275
 21
0.626269159
 31
0.0
 40
0.6121897086
 41
-0.6846338794
 42
0.019259411
  0
ELLIPSE
  5
44A
100
AcDbEntity
  8
RACCORDO
100
AcDbEllipse
 62
7
  6
CONTINUOUS
 10
-25.4325799719
 20
-8.2686131094
 30
0.0
 11
-0.1341484654
 21
0.2683369961
 31
0.0
 40
0.6125552124
 41
0.8862964655
 42
2.4567882058
  0
ELLIPSE
  5
44B
100
AcDbEntity
  8
RACCORDO
100
AcDbEllipse
 62
7
  6
CONTINUOUS
 10
-24.9185122798
 20
-8.0231800842
 30
0.0
 11
-0.1340229113
 21
0.2684080287
 31
0.0
 40
0.6140178746
 41
0.8880524522
 42
2.4561097232
  0
ELLIPSE
  5
44C
100
AcDbEntity
  8
RACCORDO
100
AcDbEllipse
 62
7
  6
CONTINUOUS
 10
-10.6398542611
 20
-15.0421501237
 30
0.0
 11
-0.1342205464
 21
0.2684010681
 31
0.0
 40
0.6121897086
 41
-0.6846338794
 42
0.0192594208
  0
ELLIPSE
  5
44D
100
AcDbEntity
  8
RACCORDO
100
AcDbEllipse
 62
7
  6
CONTINUOUS
 10
5.2700483156
 20
-22.997101412
 30
0.0
 11
-0.1342205464
 21
0.2684010681
 31
0.0
 40
0.6121897086
 41
-0.6846338794
 42
0.0192594208
  0
ELLIPSE
  5
44E
100
AcDbEntity
  8
RACCORDO
100
AcDbEllipse
 62
7
  6
CONTINUOUS
 10
18.0489005898
 20
-29.314305218
 30
0.0
 11
-0.1341371037
 21
0.2683722998
 31
0.0
 40
0.6123537661
 41
-0.6845550499
 42
0.0106825902
  0
ELLIPSE
  5
44F
100
AcDbEntity
  8
RACCORDO
100
AcDbEllipse
 62
7
  6
CONTINUOUS
 10
2.1389980131
 20
-21.3593539297
 30
0.0
 11
-0.1341371037
 21
0.2683722998
 31
0.0
 40
0.6123537661
 41
-0.6845550499
 42
0.0106825902
  0
ELLIPSE
  5
450
100
AcDbEntity
  8
RACCORDO
100
AcDbEllipse
 62
7
  6
CONTINUOUS
 10
10.7842469494
 20
-25.6819783978
 30
0.0
 11
-0.1342205464
 21
0.2684010681
 31
0.0
 40
0.6121897086
 41
-0.6846338794
 42
0.019259411
  0
ELLIPSE
  5
451
100
AcDbEntity
  8
RACCORDO
100
AcDbEllipse
 62
7
  6
CONTINUOUS
 10
-13.7709045636
 20
-13.4044026413
 30
0.0
 11
-0.1341371037
 21
0.2683722998
 31
0.0
 40
0.6123537661
 41
-0.6845550499
 42
0.0106825902
  0
ELLIPSE
  5
452
100
AcDbEntity
  8
RACCORDO
100
AcDbEllipse
 62
7
  6
CONTINUOUS
 10
-5.1256556273
 20
-17.7270271095
 30
0.0
 11
-0.1342205464
 21
0.2684010681
 31
0.0
 40
0.6121897086
 41
-0.6846338794
 42
0.019259411
  0
ELLIPSE
  5
453
100
AcDbEntity
  8
RACCORDO
100
AcDbEllipse
 62
7
  6
CONTINUOUS
 10
-24.5896706294
 20
-1.5225038745
 30
0.0
 11
-0.1341484654
 21
0.2683369961
 31
0.0
 40
0.6125552124
 41
-2.255296188
 42
-0.6848044477
  0
ELLIPSE
  5
454
100
AcDbEntity
  8
RACCORDO
100
AcDbEllipse
 62
7
  6
CONTINUOUS
 10
-24.5896706294
 20
25.3697123837
 30
0.0
 11
-0.1342205464
 21
0.2684010681
 31
0.0
 40
0.6121897086
 41
-3.160544254
 42
-2.2557347926
  0
ELLIPSE
  5
455
100
AcDbEntity
  8
RACCORDO
100
AcDbEllipse
 62
7
  6
CONTINUOUS
 10
-24.5896706294
 20
17.5300550087
 30
0.0
 11
-0.1341484654
 21
0.2683369961
 31
0.0
 40
0.6125552124
 41
-2.255296188
 42
-0.6848044477
  0
ELLIPSE
  5
456
100
AcDbEntity
  8
RACCORDO
100
AcDbEllipse
 62
7
  6
CONTINUOUS
 10
-24.5896706294
 20
6.3171535005
 30
0.0
 11
-0.1342205464
 21
0.2684010681
 31
0.0
 40
0.6121897086
 41
-3.160544254
 42
-2.2557347926
  0
ELLIPSE
  5
457
100
AcDbEntity
  8
RACCORDO
100
AcDbEllipse
 62
7
  6
CONTINUOUS
 10
-11.5267090696
 20
-14.5265003883
 30
0.0
 11
-0.1341484654
 21
0.2683369961
 31
0.0
 40
0.6125552124
 41
-2.255296188
 42
-0.6848044477
  0
ELLIPSE
  5
458
100
AcDbEntity
  8
RACCORDO
100
AcDbEllipse
 62
7
  6
CONTINUOUS
 10
-18.79136271
 20
-10.8941735681
 30
0.0
 11
-0.1341371037
 21
0.2683722998
 31
0.0
 40
0.6123537661
 41
-2.2553513767
 42
-0.6845550499
  0
ELLIPSE
  5
459
100
AcDbEntity
  8
RACCORDO
100
AcDbEllipse
 62
7
  6
CONTINUOUS
 10
13.0284424434
 20
-26.8040761448
 30
0.0
 11
-0.1341371037
 21
0.2683722998
 31
0.0
 40
0.6123537661
 41
-2.2553513767
 42
-0.6845550499
  0
ELLIPSE
  5
45A
100
AcDbEntity
  8
RACCORDO
100
AcDbEllipse
 62
7
  6
CONTINUOUS
 10
-2.8814601333
 20
-18.8491248565
 30
0.0
 11
-0.1341371037
 21
0.2683722998
 31
0.0
 40
0.6123537661
 41
-2.2553513767
 42
-0.6845550499
  0
ELLIPSE
  5
45B
100
AcDbEntity
  8
RACCORDO
100
AcDbEllipse
 62
7
  6
CONTINUOUS
 10
4.3831935071
 20
-22.4814516767
 30
0.0
 11
-0.1341484654
 21
0.2683369961
 31
0.0
 40
0.6125552124
 41
-2.255296188
 42
-0.6848044477
  0
ELLIPSE
  5
45C
100
AcDbEntity
  8
ASSI
100
AcDbEllipse
 62
7
  6
CONTINUOUS
 10
17.1576055341
 20
-27.199413143
 30
0.0
 11
0.0974129977
 21
0.1748074534
 31
0.0
 40
0.6437101552
 41
0.6611775963
 42
0.7135374739
  0
ELLIPSE
  5
45D
100
AcDbEntity
  8
ASSI
100
AcDbEllipse
 62
7
  6
CONTINUOUS
 10
-14.6621996193
 20
-11.2895105663
 30
0.0
 11
0.0974129977
 21
0.1748074534
 31
0.0
 40
0.6437101552
 41
0.6611775963
 42
0.7135374739
  0
ELLIPSE
  5
45E
100
AcDbEntity
  8
ASSI
100
AcDbEllipse
 62
7
  6
CONTINUOUS
 10
1.2477029574
 20
-19.331064395
 30
0.0
 11
0.0974129977
 21
0.1748074534
 31
0.0
 40
0.6437101552
 41
0.6611775963
 42
0.7135374739
  0
ELLIPSE
  5
45F
100
AcDbEntity
  8
RACCORDO
100
AcDbEllipse
 62
7
  6
CONTINUOUS
 10
-25.2030755306
 20
24.651431232
 30
0.0
 11
0.4999863728
 21
0.0072295547
 31
0.0
 40
0.5106100819
 41
-0.6779572665
 42
-0.0074189432
  0
ELLIPSE
  5
460
100
AcDbEntity
  8
RACCORDO
100
AcDbEllipse
 62
7
  6
CONTINUOUS
 10
-25.2030755306
 20
5.5988723487
 30
0.0
 11
0.4999863728
 21
0.0072295547
 31
0.0
 40
0.5106100819
 41
-0.6779572665
 42
-0.0074189432
  0
ELLIPSE
  5
461
100
AcDbEntity
  8
RACCORDO
100
AcDbEllipse
 62
7
  6
CONTINUOUS
 10
-24.661615567
 20
18.6680902182
 30
0.0
 11
-0.1342205464
 21
0.2684010681
 31
0.0
 40
0.6121897086
 41
-3.160544254
 42
-2.2557347926
  0
ELLIPSE
  5
462
100
AcDbEntity
  8
RACCORDO
100
AcDbEllipse
 62
7
  6
CONTINUOUS
 10
-24.661615567
 20
24.1622007556
 30
0.0
 11
-0.1341484654
 21
0.2683369961
 31
0.0
 40
0.6125552124
 41
-2.255296188
 42
-0.6848044477
  0
ELLIPSE
  5
463
100
AcDbEntity
  8
RACCORDO
100
AcDbEllipse
 62
7
  6
CONTINUOUS
 10
-24.661615567
 20
-0.384468665
 30
0.0
 11
-0.1342205464
 21
0.2684010681
 31
0.0
 40
0.6121897086
 41
-3.160544254
 42
-2.2557347926
  0
ELLIPSE
  5
464
100
AcDbEntity
  8
RACCORDO
100
AcDbEllipse
 62
7
  6
CONTINUOUS
 10
-24.661615567
 20
5.1096418723
 30
0.0
 11
-0.1341484654
 21
0.2683369961
 31
0.0
 40
0.6125552124
 41
-2.255296188
 42
-0.6848044477
  0
ELLIPSE
  5
465
100
AcDbEntity
  8
RACCORDO
100
AcDbEllipse
 62
7
  6
CONTINUOUS
 10
-6.1539317921
 20
-17.2851113582
 30
0.0
 11
-0.1341484654
 21
0.2683369961
 31
0.0
 40
0.6125552124
 41
-2.255296188
 42
-0.6848044477
  0
ELLIPSE
  5
466
100
AcDbEntity
  8
RACCORDO
100
AcDbEllipse
 62
7
  6
CONTINUOUS
 10
9.7559707846
 20
-25.2400626465
 30
0.0
 11
-0.1341484654
 21
0.2683369961
 31
0.0
 40
0.6125552124
 41
-2.255296188
 42
-0.6848044477
  0
ELLIPSE
  5
467
100
AcDbEntity
  8
RACCORDO
100
AcDbEllipse
 62
7
  6
CONTINUOUS
 10
8.8206865959
 20
-25.7113108563
 30
0.0
 11
-0.1341484654
 21
0.2683369961
 31
0.0
 40
0.6125552124
 41
4.462141554
 42
5.5983808594
  0
ELLIPSE
  5
468
100
AcDbEntity
  8
RACCORDO
100
AcDbEllipse
 62
7
  6
CONTINUOUS
 10
4.3668548733
 20
-23.484394995
 30
0.0
 11
-0.1342205464
 21
0.2684010681
 31
0.0
 40
0.6121897086
 41
-0.6846338794
 42
0.6678777033
  0
ELLIPSE
  5
469
100
AcDbEntity
  8
RACCORDO
100
AcDbEllipse
 62
7
  6
CONTINUOUS
 10
-7.0892159808
 20
-17.7563595679
 30
0.0
 11
-0.1341484654
 21
0.2683369961
 31
0.0
 40
0.6125552124
 41
4.462141554
 42
5.5983808594
  0
ELLIPSE
  5
46A
100
AcDbEntity
  8
RACCORDO
100
AcDbEllipse
 62
7
  6
CONTINUOUS
 10
-11.5430477034
 20
-15.5294437066
 30
0.0
 11
-0.1342205464
 21
0.2684010681
 31
0.0
 40
0.6121897086
 41
-0.6846338794
 42
0.6678777033
  0
ELLIPSE
  5
46B
100
AcDbEntity
  8
ASSI
100
AcDbEllipse
 62
7
  6
CONTINUOUS
 10
-10.4047357737
 20
-13.4182424891
 30
0.0
 11
0.0823576675
 21
0.1823694112
 31
0.0
 40
0.5796795686
 41
0.6094740628
 42
0.6618339404
  0
ELLIPSE
  5
46C
100
AcDbEntity
  8
ASSI
100
AcDbEllipse
 62
7
  6
CONTINUOUS
 10
5.5051668029
 20
-21.4597963178
 30
0.0
 11
0.0823576675
 21
0.1823694112
 31
0.0
 40
0.5796795686
 41
0.6094740628
 42
0.6618339404
  0
ELLIPSE
  5
46D
100
AcDbEntity
  8
RACCORDO
100
AcDbEllipse
 62
7
  6
CONTINUOUS
 10
-25.1652301302
 20
6.0513410496
 30
0.0
 11
-0.1342205464
 21
0.2684010681
 31
0.0
 40
0.6121897086
 41
2.6191002879
 42
4.0274505145
  0
ELLIPSE
  5
46E
100
AcDbEntity
  8
RACCORDO
100
AcDbEllipse
 62
7
  6
CONTINUOUS
 10
-25.1652301302
 20
17.2400561104
 30
0.0
 11
-0.1341484654
 21
0.2683369961
 31
0.0
 40
0.6125552124
 41
-2.255296188
 42
-0.8469459614
  0
ELLIPSE
  5
46F
100
AcDbEntity
  8
RACCORDO
100
AcDbEllipse
 62
7
  6
CONTINUOUS
 10
-25.5968997558
 20
18.2361449856
 30
0.0
 11
-0.1342205464
 21
0.2684010681
 31
0.0
 40
0.6121897086
 41
2.4569587742
 42
4.0274505145
  0
ELLIPSE
  5
470
100
AcDbEntity
  8
RACCORDO
100
AcDbEllipse
 62
7
  6
CONTINUOUS
 10
-14.3365899886
 20
-13.6993385775
 30
0.0
 11
-0.1341371037
 21
0.2683722998
 31
0.0
 40
0.6123537661
 41
-0.6845550499
 42
0.3838458874
  0
ELLIPSE
  5
471
100
AcDbEntity
  8
RACCORDO
100
AcDbEllipse
 62
7
  6
CONTINUOUS
 10
-12.1022685704
 20
-14.8164992866
 30
0.0
 11
-0.1341484654
 21
0.2683369961
 31
0.0
 40
0.6125552124
 41
-1.7532033366
 42
-0.6848044477
  0
ELLIPSE
  5
472
100
AcDbEntity
  8
RACCORDO
100
AcDbEllipse
 62
7
  6
CONTINUOUS
 10
-25.1652301302
 20
-1.8125027728
 30
0.0
 11
-0.1341484654
 21
0.2683369961
 31
0.0
 40
0.6125552124
 41
-2.255296188
 42
-0.8469459614
  0
ELLIPSE
  5
473
100
AcDbEntity
  8
RACCORDO
100
AcDbEllipse
 62
7
  6
CONTINUOUS
 10
-19.357048135
 20
-11.1891095043
 30
0.0
 11
-0.1341371037
 21
0.2683722998
 31
0.0
 40
0.6123537661
 41
-1.7529559873
 42
-0.6845550499
  0
ELLIPSE
  5
474
100
AcDbEntity
  8
ASSI
100
AcDbEllipse
 62
7
  6
CONTINUOUS
 10
5.3635513677
 20
-21.8145867772
 30
0.0
 11
0.1997674032
 21
0.1243735635
 31
0.0
 40
0.0775313764
 41
5.4495541764
 42
6.9679906257
  0
ELLIPSE
  5
475
100
AcDbEntity
  8
RACCORDO
100
AcDbEllipse
 62
7
  6
CONTINUOUS
 10
-25.5968997558
 20
-0.8164138977
 30
0.0
 11
-0.1342205464
 21
0.2684010681
 31
0.0
 40
0.6121897086
 41
2.4569587742
 42
4.0274505145
  0
ELLIPSE
  5
476
100
AcDbEntity
  8
ASSI
100
AcDbEllipse
 62
7
  6
CONTINUOUS
 10
-10.546351209
 20
-13.8596354888
 30
0.0
 11
0.1997674032
 21
0.1243735635
 31
0.0
 40
0.0775313764
 41
5.4495541764
 42
6.9679906257
  0
ELLIPSE
  5
477
100
AcDbEntity
  8
RACCORDO
100
AcDbEllipse
 62
7
  6
CONTINUOUS
 10
1.5733125881
 20
-21.6542898659
 30
0.0
 11
-0.1341371037
 21
0.2683722998
 31
0.0
 40
0.6123537661
 41
-0.6845550499
 42
0.3838458874
  0
ELLIPSE
  5
478
100
AcDbEntity
  8
RACCORDO
100
AcDbEllipse
 62
7
  6
CONTINUOUS
 10
3.8076340063
 20
-22.771450575
 30
0.0
 11
-0.1341484654
 21
0.2683369961
 31
0.0
 40
0.6125552124
 41
-1.7532033366
 42
-0.6848044477
  0
ELLIPSE
  5
479
100
AcDbEntity
  8
RACCORDO
100
AcDbEllipse
 62
7
  6
CONTINUOUS
 10
-5.6814669764
 20
-18.0269000836
 30
0.0
 11
-0.1342205464
 21
0.2684010681
 31
0.0
 40
0.6121897086
 41
-0.6846338794
 42
0.3837650063
  0
ELLIPSE
  5
47A
100
AcDbEntity
  8
RACCORDO
100
AcDbEllipse
 62
7
  6
CONTINUOUS
 10
-3.4471455583
 20
-19.1440607927
 30
0.0
 11
-0.1341371037
 21
0.2683722998
 31
0.0
 40
0.6123537661
 41
-1.7529559873
 42
-0.6845550499
  0
ELLIPSE
  5
47B
100
AcDbEntity
  8
RACCORDO
100
AcDbEllipse
 62
7
  6
CONTINUOUS
 10
-25.1652301302
 20
25.1038999329
 30
0.0
 11
-0.1342205464
 21
0.2684010681
 31
0.0
 40
0.6121897086
 41
2.6191002879
 42
4.0274505145
  0
ELLIPSE
  5
47C
100
AcDbEntity
  8
RACCORDO
100
AcDbEllipse
 62
7
  6
CONTINUOUS
 10
17.4832151648
 20
-29.6092411542
 30
0.0
 11
-0.1341371037
 21
0.2683722998
 31
0.0
 40
0.6123537661
 41
-0.6845550499
 42
0.3838458874
  0
ELLIPSE
  5
47D
100
AcDbEntity
  8
RACCORDO
100
AcDbEllipse
 62
7
  6
CONTINUOUS
 10
10.2284356003
 20
-25.981851372
 30
0.0
 11
-0.1342205464
 21
0.2684010681
 31
0.0
 40
0.6121897086
 41
-0.6846338794
 42
0.3837650063
  0
ELLIPSE
  5
47E
100
AcDbEntity
  8
RACCORDO
100
AcDbEllipse
 62
7
  6
CONTINUOUS
 10
12.4627570184
 20
-27.099012081
 30
0.0
 11
-0.1341371037
 21
0.2683722998
 31
0.0
 40
0.6123537661
 41
-1.7529559873
 42
-0.6845550499
  0
ELLIPSE
  5
47F
100
AcDbEntity
  8
RACCORDO
100
AcDbEllipse
 62
7
  6
CONTINUOUS
 10
-25.5968997558
 20
4.6383936626
 30
0.0
 11
-0.1341484654
 21
0.2683369961
 31
0.0
 40
0.6125552124
 41
-2.255296188
 42
-0.6848044477
  0
ELLIPSE
  5
480
100
AcDbEntity
  8
RACCORDO
100
AcDbEllipse
 62
7
  6
CONTINUOUS
 10
-25.5968997558
 20
23.6909525459
 30
0.0
 11
-0.1341484654
 21
0.2683369961
 31
0.0
 40
0.6125552124
 41
-2.255296188
 42
-0.6848044477
  0
ENDSEC
  0
SECTION
  2
OBJECTS
  0
DICTIONARY
  5
C
100
AcDbDictionary
280
0
281
1
  3
ACAD_GROUP
350
D
  3
ACAD_MLINESTYLE
350
17
  3
ACAD_LAYOUT
350
1A
  3
ACAD_PLOTSETTINGS
350
19
  3
ACAD_PLOTSTYLENAME
350
E
  0
DICTIONARY
  5
D
102
{ACAD_REACTORS
330
C
102
}
100
AcDbDictionary
280
0
281
1
  0
ACDBDICTIONARYWDFLT
  5
E
102
{ACAD_REACTORS
330
C
102
}
100
AcDbDictionary
281
1
  3
Normal
350
F
100
AcDbDictionaryWithDefault
340
F
  0
DICTIONARY
  5
17
102
{ACAD_REACTORS
330
C
102
}
100
AcDbDictionary
280
0
281
1
  3
Standard
350
18
  0
DICTIONARY
  5
19
102
{ACAD_REACTORS
330
C
102
}
100
AcDbDictionary
281
1
  0
DICTIONARY
  5
1A
102
{ACAD_REACTORS
330
C
102
}
100
AcDbDictionary
281
1
  3
Model
350
481
  3
Layout1
350
482
  0
ACDBPLACEHOLDER
  5
F
102
{ACAD_REACTORS
330
E
102
}
  0
MLINESTYLE
  5
18
102
{ACAD_REACTORS
330
17
102
}
100
AcDbMlineStyle
  2
STANDARD
 70
0
  3

 62
256
 51
90.0
 52
90.0
 71
2
 49
0.5
 62
256
  6
BYLAYER
 49
-0.5
 62
256
  6
BYLAYER
  0
LAYOUT
  5
481
102
{ACAD_REACTORS
330
1A
102
}
100
AcDbPlotSettings
  1

  2
none_device
  4
ISO_A4_(297.00_x_210.00_MM)
  6

 40
0.0
 41
0.0
 42
0.0
 43
0.0
 44
297.0
 45
210.0
 46
0.0
 47
0.0
 48
0.0
 49
0.0
140
0.0
141
0.0
142
1.0
143
1.0
 70
1024
 72
1
 73
0
 74
0
  7

 75
0
147
1.0
148
0.0
149
0.0
100
AcDbLayout
  1
Model
 70
0
 71
0
 10
0.0
 20
0.0
 11
297.0
 21
210.0
 12
0.0
 22
0.0
 32
0.0
 14
0.0
 24
0.0
 34
0.0
 15
0.0
 25
0.0
 35
0.0
146
0.0
 13
0.0
 23
0.0
 33
0.0
 16
1.0
 26
0.0
 36
0.0
 17
0.0
 27
1.0
 37
0.0
 76
0
330
215
345
0
346
0
  0
LAYOUT
  5
482
102
{ACAD_REACTORS
330
1A
102
}
100
AcDbPlotSettings
  1

  2
none_device
  4
ISO_A4_(297.00_x_210.00_MM)
  6

 40
0.0
 41
0.0
 42
0.0
 43
0.0
 44
297.0
 45
210.0
 46
0.0
 47
0.0
 48
0.0
 49
0.0
140
0.0
141
0.0
142
1.0
143
1.0
 70
0
 72
1
 73
0
 74
0
  7

 75
0
147
1.0
148
0.0
149
0.0
100
AcDbLayout
  1
Layout1
 70
0
 71
1
 10
0.0
 20
0.0
 11
297.0
 21
210.0
 12
0.0
 22
0.0
 32
0.0
 14
0.0
 24
0.0
 34
0.0
 15
0.0
 25
0.0
 35
0.0
146
0.0
 13
0.0
 23
0.0
 33
0.0
 16
1.0
 26
0.0
 36
0.0
 17
0.0
 27
1.0
 37
0.0
 76
0
330
216
345
0
346
0
  0
ENDSEC
  0
EOF
