  0
SECTION
  2
HEADER
  9
$ACADVER
  1
AC1015
  9
$DWGCODEPAGE
  3
ANSI_1252
  9
$EXTMAX
 10
297.0
 20
210.0
 30
0.0
  9
$EXTMIN
 10
0.0
 20
0.0
 30
0.0
  9
$LIMMIN
 10
0.0
 20
0.0
  9
$LIMMAX
 10
297.0
 20
210.0
  9
$VIEWCTR
 10
148.5
 20
105.0
  9
$VIEWSIZE
 40
210.0
  9
$CLAYER
  8
0
  9
$LTSCALE
 40
16.335
  9
$CELTYPE
  6
BYLAYER
  9
$DIMSCALE
 40
1.0
  9
$DIMASZ
 40
3.0
  9
$DIMEXO
 40
1.85625
  9
$DIMDLI
 40
11.286
  9
$DIMEXE
 40
5.346
  9
$DIMCEN
 40
2.673
  9
$DIMLFAC
 40
1.0
  9
$DIMBLK
  1
_FILLED
  9
$DIMTXT
 40
3.0
  9
$DIMTOL
 70
1
  9
$DIMLIM
 70
0
  9
$DIMTFAC
 40
1.0
  9
$DIMTP
 40
0.01
  9
$DIMTM
 40
0.01
  9
$PDMODE
 70
3
  9
$PDSIZE
 40
3.0
  9
$HANDSEED
  5
4AA
  9
$TILEMODE
 70
1
  9
$MEASUREMENT
 70
1
  9
$INSUNITS
 70
4
  0
ENDSEC
  0
SECTION
  2
CLASSES
  0
CLASS
  1
ACDBDICTIONARYWDFLT
  2
AcDbDictionaryWithDefault
  3
AutoCAD 2000
 90
0
280
0
281
0
  0
CLASS
  1
ACDBPLACEHOLDER
  2
AcDbPlaceHolder
  3
AutoCAD 2000
 90
0
280
0
281
0
  0
CLASS
  1
LAYOUT
  2
AcDbLayout
  3
AutoCAD 2000
 90
0
280
0
281
0
  0
ENDSEC
  0
SECTION
  2
TABLES
  0
TABLE
  2
VPORT
  5
8
100
AcDbSymbolTable
 70
2
  0
VPORT
  5
1F4
100
AcDbSymbolTableRecord
100
AcDbViewportTableRecord
  2
*ACTIVE
 70
0
 10
0.0
 20
0.0
 11
1.0
 21
1.0
 12
148.5
 22
105.0
 13
0.0
 23
0.0
 14
1.0
 24
1.0
 15
0.0
 25
0.0
 16
0.0
 26
0.0
 36
1.0
 17
0.0
 27
0.0
 37
0.0
 40
210.0
 41
1.4142857143
 42
50.0
 43
0.0
 44
0.0
 50
0.0
 51
0.0
 71
0
 72
100
 73
1
 74
1
 75
0
 76
0
 77
0
 78
0
  0
ENDTAB
  0
TABLE
  2
LTYPE
  5
5
100
AcDbSymbolTable
 70
6
  0
LTYPE
  5
14
100
AcDbSymbolTableRecord
100
AcDbLinetypeTableRecord
  2
BYBLOCK
 70
0
  3

 72
65
 73
0
 40
0.0
  0
LTYPE
  5
15
100
AcDbSymbolTableRecord
100
AcDbLinetypeTableRecord
  2
BYLAYER
 70
0
  3

 72
65
 73
0
 40
0.0
  0
LTYPE
  5
16
100
AcDbSymbolTableRecord
100
AcDbLinetypeTableRecord
  2
CONTINUOUS
 70
64
  3
Solid line
 72
65
 73
0
 40
0.0
  0
LTYPE
  5
1F5
100
AcDbSymbolTableRecord
100
AcDbLinetypeTableRecord
  2
CENTER
 70
64
  3
____ _ ____ _ ____ _ ____ _ ____ _ ____ _ ____
 72
65
 73
4
 40
0.6
 49
0.375
 74
0
 49
-0.075
 74
0
 49
0.075
 74
0
 49
-0.075
 74
0
  0
LTYPE
  5
1F6
100
AcDbSymbolTableRecord
100
AcDbLinetypeTableRecord
  2
HIDDEN
 70
64
  3
- - - - - - - - - - - - - - - - - - - -
 72
65
 73
2
 40
0.2
 49
0.1
 74
0
 49
-0.1
 74
0
  0
LTYPE
  5
1F7
100
AcDbSymbolTableRecord
100
AcDbLinetypeTableRecord
  2
PHANTOM
 70
64
  3
_____ _ _ _____ _ _ _____ _ _ _____
 72
65
 73
6
 40
0.8
 49
0.45
 74
0
 49
-0.05
 74
0
 49
0.1
 74
0
 49
-0.05
 74
0
 49
0.1
 74
0
 49
-0.05
 74
0
  0
LTYPE
  5
1F8
100
AcDbSymbolTableRecord
100
AcDbLinetypeTableRecord
  2
DOT
 70
64
  3
. . . . . . . . . . . . . . . . . . . .
 72
65
 73
2
 40
0.2
 49
0.1
 74
0
 49
-0.1
 74
0
  0
LTYPE
  5
1F9
100
AcDbSymbolTableRecord
100
AcDbLinetypeTableRecord
  2
DASHED
 70
64
  3
- - - - - - - - - - - - - - - - - - - -
 72
65
 73
2
 40
0.2
 49
0.1
 74
0
 49
-0.1
 74
0
  0
ENDTAB
  0
TABLE
  2
LAYER
  5
2
100
AcDbSymbolTable
 70
36
  0
LAYER
  5
10
100
AcDbSymbolTableRecord
100
AcDbLayerTableRecord
  2
0
 70
0
 62
7
  6
CONTINUOUS
370
-3
390
F
  0
LAYER
  5
1FA
100
AcDbSymbolTableRecord
100
AcDbLayerTableRecord
  2
DEFAULT_1
 70
0
 62
7
  6
CENTER
370
-3
390
F
  0
LAYER
  5
1FB
100
AcDbSymbolTableRecord
100
AcDbLayerTableRecord
  2
DEFAULT_2
 70
0
 62
7
  6
HIDDEN
370
-3
390
F
  0
LAYER
  5
1FC
100
AcDbSymbolTableRecord
100
AcDbLayerTableRecord
  2
DEFAULT_3
 70
0
 62
7
  6
PHANTOM
370
-3
390
F
  0
LAYER
  5
1FD
100
AcDbSymbolTableRecord
100
AcDbLayerTableRecord
  2
ASSI
 70
0
 62
7
  6
CONTINUOUS
370
-3
390
F
  0
LAYER
  5
1FE
100
AcDbSymbolTableRecord
100
AcDbLayerTableRecord
  2
COORDINATE
 70
0
 62
7
  6
CONTINUOUS
370
-3
390
F
  0
LAYER
  5
1FF
100
AcDbSymbolTableRecord
100
AcDbLayerTableRecord
  2
COORD_ORIGINE
 70
0
 62
7
  6
CONTINUOUS
370
-3
390
F
  0
LAYER
  5
200
100
AcDbSymbolTableRecord
100
AcDbLayerTableRecord
  2
COPY_PUBLISH
 70
0
 62
7
  6
CONTINUOUS
370
-3
390
F
  0
LAYER
  5
201
100
AcDbSymbolTableRecord
100
AcDbLayerTableRecord
  2
COSMETIC
 70
0
 62
7
  6
CONTINUOUS
370
-3
390
F
  0
LAYER
  5
202
100
AcDbSymbolTableRecord
100
AcDbLayerTableRecord
  2
CURVE
 70
0
 62
7
  6
CONTINUOUS
370
-3
390
F
  0
LAYER
  5
203
100
AcDbSymbolTableRecord
100
AcDbLayerTableRecord
  2
DRAFT
 70
0
 62
7
  6
CONTINUOUS
370
-3
390
F
  0
LAYER
  5
204
100
AcDbSymbolTableRecord
100
AcDbLayerTableRecord
  2
IMPORT_IGES
 70
0
 62
7
  6
CONTINUOUS
370
-3
390
F
  0
LAYER
  5
205
100
AcDbSymbolTableRecord
100
AcDbLayerTableRecord
  2
INTFCLR_2
 70
0
 62
7
  6
CONTINUOUS
370
-3
390
F
  0
LAYER
  5
206
100
AcDbSymbolTableRecord
100
AcDbLayerTableRecord
  2
PIANI
 70
0
 62
7
  6
CONTINUOUS
370
-3
390
F
  0
LAYER
  5
207
100
AcDbSymbolTableRecord
100
AcDbLayerTableRecord
  2
PIANI_ORIGINE
 70
0
 62
7
  6
CONTINUOUS
370
-3
390
F
  0
LAYER
  5
208
100
AcDbSymbolTableRecord
100
AcDbLayerTableRecord
  2
PIANI_RIFERIMENTO
 70
0
 62
7
  6
CONTINUOUS
370
-3
390
F
  0
LAYER
  5
209
100
AcDbSymbolTableRecord
100
AcDbLayerTableRecord
  2
PUNTI
 70
0
 62
7
  6
CONTINUOUS
370
-3
390
F
  0
LAYER
  5
20A
100
AcDbSymbolTableRecord
100
AcDbLayerTableRecord
  2
RACCORDO
 70
0
 62
7
  6
CONTINUOUS
370
-3
390
F
  0
LAYER
  5
20B
100
AcDbSymbolTableRecord
100
AcDbLayerTableRecord
  2
SMUSSO
 70
0
 62
7
  6
CONTINUOUS
370
-3
390
F
  0
LAYER
  5
20C
100
AcDbSymbolTableRecord
100
AcDbLayerTableRecord
  2
SNAPLINE
 70
0
 62
7
  6
CONTINUOUS
370
-3
390
F
  0
LAYER
  5
20D
100
AcDbSymbolTableRecord
100
AcDbLayerTableRecord
  2
SUPERFICI
 70
0
 62
7
  6
CONTINUOUS
370
-3
390
F
  0
LAYER
  5
20E
100
AcDbSymbolTableRecord
100
AcDbLayerTableRecord
  2
TRASH
 70
0
 62
7
  6
CONTINUOUS
370
-3
390
F
  0
LAYER
  5
20F
100
AcDbSymbolTableRecord
100
AcDbLayerTableRecord
  2
XSEC_DATUMS
 70
0
 62
7
  6
CONTINUOUS
370
-3
390
F
  0
ENDTAB
  0
TABLE
  2
STYLE
  5
3
100
AcDbSymbolTable
 70
1
  0
STYLE
  5
11
100
AcDbSymbolTableRecord
100
AcDbTextStyleTableRecord
  2
STANDARD
 70
0
 40
0.0
 41
0.8
 50
0.0
 71
0
 42
0.2
  3
txt
  4

  0
STYLE
  5
210
100
AcDbSymbolTableRecord
100
AcDbTextStyleTableRecord
  2
TEXTSTYLE_1
 70
0
 40
0.0
 41
0.8
 50
0.0
 71
0
 42
0.2
  3
gdt
  4

  0
ENDTAB
  0
TABLE
  2
VIEW
  5
6
100
AcDbSymbolTable
 70
0
  0
ENDTAB
  0
TABLE
  2
UCS
  5
7
100
AcDbSymbolTable
 70
0
  0
ENDTAB
  0
TABLE
  2
APPID
  5
9
100
AcDbSymbolTable
 70
1
  0
APPID
  5
211
100
AcDbSymbolTableRecord
100
AcDbRegAppTableRecord
  2
ACAD
 70
0
  0
ENDTAB
  0
TABLE
  2
BLOCK_RECORD
  5
1
100
AcDbSymbolTable
 70
0
  0
BLOCK_RECORD
  5
212
100
AcDbSymbolTableRecord
100
AcDbBlockTableRecord
  2
*Model_Space
  0
BLOCK_RECORD
  5
213
100
AcDbSymbolTableRecord
100
AcDbBlockTableRecord
  2
*Paper_Space
  0
ENDTAB
  0
TABLE
  2
DIMSTYLE
  5
A
100
AcDbSymbolTable
 70
1
100
AcDbDimStyleTable
 71
0
  0
DIMSTYLE
105
214
100
AcDbSymbolTableRecord
100
AcDbDimStyleTableRecord
  2
STANDARD
 70
0
  3

  4

 40
1.0
 41
3.0
 42
0.0625
 43
0.38
 44
0.18
 45
0.0
 46
0.0
 47
0.01
 48
0.01
140
3.0
141
0.09
142
0.0
143
25.4
144
1.0
145
0.0
146
1.0
147
0.09
 71
1.0
 72
0.0
 73
0
 74
0
 75
0
 76
0
 77
1
 78
8
170
0
171
2
172
0
173
0
174
0
175
0
176
0
177
0
178
0
270
2
271
2
272
2
273
2
274
2
275
0
280
0
281
0
282
0
283
1
284
8
285
0
286
0
287
3
288
0
340
11
  0
ENDTAB
  0
ENDSEC
  0
SECTION
  2
BLOCKS
  0
BLOCK
  5
20
100
AcDbEntity
  8
0
100
AcDbBlockBegin
  2
*Model_Space
 70
0
 10
0.0
 20
0.0
 30
0.0
  3
*Model_Space
  1

  0
ENDBLK
  5
21
100
AcDbEntity
  8
0
100
AcDbBlockEnd
  0
BLOCK
  5
1C
100
AcDbEntity
  8
0
100
AcDbBlockBegin
  2
*Paper_Space
 70
0
 10
0.0
 20
0.0
 30
0.0
  3
*Paper_Space
  1

  0
ENDBLK
  5
1D
100
AcDbEntity
  8
0
100
AcDbBlockEnd
  0
ENDSEC
  0
SECTION
  2
ENTITIES
  0
LINE
  5
215
100
AcDbEntity
  8
RACCORDO
100
AcDbLine
 62
7
  6
CONTINUOUS
 10
-41.1825342219
 20
66.4836797887
 11
-39.8108482198
 21
67.1963886024
  0
LINE
  5
216
100
AcDbEntity
  8
SMUSSO
100
AcDbLine
 62
7
  6
CONTINUOUS
 10
-40.7288787892
 20
66.4585768016
 11
-39.3559762793
 21
67.1719176957
  0
LINE
  5
217
100
AcDbEntity
  8
RACCORDO
100
AcDbLine
 62
7
  6
CONTINUOUS
 10
-43.0867584406
 20
65.650774631
 11
-41.9720735156
 21
66.2081170935
  0
LINE
  5
218
100
AcDbEntity
  8
SMUSSO
100
AcDbLine
 62
7
  6
CONTINUOUS
 10
-42.5855200919
 20
65.6493852204
 11
-41.5248599201
 21
66.1797153063
  0
LINE
  5
219
100
AcDbEntity
  8
SMUSSO
100
AcDbLine
 62
7
  6
CONTINUOUS
 10
-41.03165589
 20
65.9331132913
 11
-40.7288787892
 21
66.4585768016
  0
LINE
  5
21A
100
AcDbEntity
  8
SMUSSO
100
AcDbLine
 62
7
  6
CONTINUOUS
 10
41.2066334787
 20
-65.6536282084
 11
41.8955227394
 21
-65.6551311412
  0
LINE
  5
21B
100
AcDbEntity
  8
SMUSSO
100
AcDbLine
 62
7
  6
CONTINUOUS
 10
-43.2926268731
 20
65.1369132072
 11
-43.2926268731
 21
-24.9297287864
  0
LWPOLYLINE
  5
21C
100
AcDbEntity
  8
RACCORDO
100
AcDbPolyline
 62
7
  6
CONTINUOUS
 90
13
 70
0
 10
-29.3763061785
 20
34.039914463
 10
-29.3959215661
 20
34.0286798572
 10
-29.433735415
 20
34.0030460834
 10
-29.4691650821
 20
33.9734081852
 10
-29.5018366548
 20
33.9399488676
 10
-29.5313867221
 20
33.9029262154
 10
-29.5577134343
 20
33.8623269349
 10
-29.5805383001
 20
33.8183227777
 10
-29.5995555189
 20
33.7711861368
 10
-29.6146135521
 20
33.7208718192
 10
-29.6254836658
 20
33.6674143435
 10
-29.6318654703
 20
33.6110488099
 10
-29.6335758209
 20
33.5617956036
  0
LINE
  5
21D
100
AcDbEntity
  8
RACCORDO
100
AcDbLine
 62
7
  6
CONTINUOUS
 10
-29.3763468918
 20
34.0398941761
 11
-29.0932968859
 21
34.1926061788
  0
LINE
  5
21E
100
AcDbEntity
  8
RACCORDO
100
AcDbLine
 62
7
  6
CONTINUOUS
 10
-29.0544884526
 20
34.0246296398
 11
-28.772945186
 21
34.1765286912
  0
LINE
  5
21F
100
AcDbEntity
  8
SMUSSO
100
AcDbLine
 62
7
  6
CONTINUOUS
 10
-42.5855200919
 20
-26.1493075807
 11
39.4388665258
 21
-67.1615008896
  0
LINE
  5
220
100
AcDbEntity
  8
SMUSSO
100
AcDbLine
 62
7
  6
CONTINUOUS
 10
-40.4641997483
 20
57.9783590636
 11
-40.4641997483
 21
-23.4280288922
  0
LINE
  5
221
100
AcDbEntity
  8
SMUSSO
100
AcDbLine
 62
7
  6
CONTINUOUS
 10
-40.4641997483
 20
-23.4280288922
 11
34.4891190575
 21
-60.9046882951
  0
LINE
  5
222
100
AcDbEntity
  8
DRAFT
100
AcDbLine
 62
7
  6
CONTINUOUS
 10
-25.1309496276
 20
24.2562477013
 11
-25.6447585148
 21
23.9709264112
  0
LINE
  5
223
100
AcDbEntity
  8
RACCORDO
100
AcDbLine
 62
7
  6
CONTINUOUS
 10
-24.6615651395
 20
24.452614101
 11
-25.5968493283
 21
23.9813658913
  0
LINE
  5
224
100
AcDbEntity
  8
RACCORDO
100
AcDbLine
 62
7
  6
CONTINUOUS
 10
-24.4494654139
 20
24.086796187
 11
-25.3847496027
 21
23.6155479773
  0
LINE
  5
225
100
AcDbEntity
  8
RACCORDO
100
AcDbLine
 62
7
  6
CONTINUOUS
 10
-24.9530799771
 20
25.0283370724
 11
-24.3775204763
 21
25.2941495233
  0
LINE
  5
226
100
AcDbEntity
  8
RACCORDO
100
AcDbLine
 62
7
  6
CONTINUOUS
 10
-25.0342173216
 20
24.8645626935
 11
-24.4586578208
 21
25.1303751444
  0
LWPOLYLINE
  5
227
100
AcDbEntity
  8
RACCORDO
100
AcDbPolyline
 62
7
  6
CONTINUOUS
 90
12
 70
0
 10
-29.6321133589
 20
-10.7541986315
 10
-29.6261119235
 20
-10.8136808096
 10
-29.6156574499
 20
-10.8730248967
 10
-29.6009374589
 20
-10.9320001987
 10
-29.5821391603
 20
-10.9902001031
 10
-29.559391911
 20
-11.0474310651
 10
-29.5328115223
 20
-11.1033806331
 10
-29.50268492
 20
-11.1574112052
 10
-29.469056388
 20
-11.209387921
 10
-29.4320743088
 20
-11.2588874401
 10
-29.3923546513
 20
-11.3050259416
 10
-29.3500247177
 20
-11.3476021147
  0
LINE
  5
228
100
AcDbEntity
  8
RACCORDO
100
AcDbLine
 62
7
  6
CONTINUOUS
 10
-29.6335761015
 20
-10.7075660419
 11
-29.6321133589
 21
-10.7541986315
  0
LINE
  5
229
100
AcDbEntity
  8
RACCORDO
100
AcDbLine
 62
7
  6
CONTINUOUS
 10
-29.6335858723
 20
33.5617551078
 11
-29.6335858723
 21
-10.7077242405
  0
LINE
  5
22A
100
AcDbEntity
  8
RACCORDO
100
AcDbLine
 62
7
  6
CONTINUOUS
 10
-29.5457179067
 20
33.4556890942
 11
-29.5457179067
 21
-10.8165867707
  0
LINE
  5
22B
100
AcDbEntity
  8
RACCORDO
100
AcDbLine
 62
7
  6
CONTINUOUS
 10
-27.8932670942
 20
-9.4011831841
 11
-27.8932670942
 21
30.3906312077
  0
LINE
  5
22C
100
AcDbEntity
  8
RACCORDO
100
AcDbLine
 62
7
  6
CONTINUOUS
 10
-27.5090621289
 20
-9.4179902563
 11
-27.5090621289
 21
30.3738246364
  0
LINE
  5
22D
100
AcDbEntity
  8
RACCORDO
100
AcDbLine
 62
7
  6
CONTINUOUS
 10
-26.000745066
 20
29.8412139009
 11
-26.000745066
 21
-8.3058266056
  0
LINE
  5
22E
100
AcDbEntity
  8
DRAFT
100
AcDbLine
 62
7
  6
CONTINUOUS
 10
-25.1309496276
 20
17.7610571729
 11
-25.6447585148
 21
17.4757358828
  0
LINE
  5
22F
100
AcDbEntity
  8
RACCORDO
100
AcDbLine
 62
7
  6
CONTINUOUS
 10
-25.1309496276
 20
17.5477164721
 11
-24.5896202019
 21
17.8204683541
  0
LINE
  5
230
100
AcDbEntity
  8
RACCORDO
100
AcDbLine
 62
7
  6
CONTINUOUS
 10
-24.9530799771
 20
17.1646515419
 11
-24.3775204763
 21
17.4546504402
  0
LINE
  5
231
100
AcDbEntity
  8
RACCORDO
100
AcDbLine
 62
7
  6
CONTINUOUS
 10
-25.3847496027
 20
18.1605821251
 11
-24.4494654139
 21
18.5925273578
  0
LINE
  5
232
100
AcDbEntity
  8
RACCORDO
100
AcDbLine
 62
7
  6
CONTINUOUS
 10
-25.4658869472
 20
17.9968077462
 11
-24.5306027584
 21
18.4287529789
  0
LWPOLYLINE
  5
233
100
AcDbEntity
  8
RACCORDO
100
AcDbPolyline
 62
7
  6
CONTINUOUS
 90
4
 70
0
 10
-29.3051824756
 20
-11.3863927231
 10
-29.2584924642
 20
-11.4207464399
 10
-29.2102807269
 20
-11.4504044362
 10
-29.1848993494
 20
-11.4638224542
  0
LINE
  5
234
100
AcDbEntity
  8
RACCORDO
100
AcDbLine
 62
7
  6
CONTINUOUS
 10
-29.3500247177
 20
-11.3476021147
 11
-29.3051824756
 21
-11.3863927231
  0
LWPOLYLINE
  5
235
100
AcDbEntity
  8
RACCORDO
100
AcDbPolyline
 62
7
  6
CONTINUOUS
 90
18
 70
0
 10
-23.6716131195
 20
-7.8782390442
 10
-23.6722013383
 20
-7.8593620299
 10
-23.673870756
 20
-7.8413362901
 10
-23.6766740304
 20
-7.8231346355
 10
-23.6806581987
 20
-7.8048325089
 10
-23.6858669498
 20
-7.7865085074
 10
-23.6923343886
 20
-7.7682614572
 10
-23.7000944681
 20
-7.7501774209
 10
-23.7091880025
 20
-7.7323285879
 10
-23.7196375066
 20
-7.714825791
 10
-23.7314564064
 20
-7.6977859659
 10
-23.7446698291
 20
-7.6813061986
 10
-23.7592757876
 20
-7.665517891
 10
-23.7752593518
 20
-7.6505576757
 10
-23.7926177356
 20
-7.6365464259
 10
-23.8113192117
 20
-7.6236278004
 10
-23.8313030121
 20
-7.611956713
 10
-23.8384513568
 20
-7.6082623131
  0
LINE
  5
236
100
AcDbEntity
  8
RACCORDO
100
AcDbLine
 62
7
  6
CONTINUOUS
 10
-25.9402040989
 20
29.8109434173
 11
-25.9402040989
 21
-8.2808735446
  0
LINE
  5
237
100
AcDbEntity
  8
RACCORDO
100
AcDbLine
 62
7
  6
CONTINUOUS
 10
-25.6447585148
 20
-8.1320116219
 11
-25.6447585148
 21
29.6632206253
  0
LINE
  5
238
100
AcDbEntity
  8
RACCORDO
100
AcDbLine
 62
7
  6
CONTINUOUS
 10
-25.3847496027
 20
23.6155479773
 11
-25.3847496027
 21
18.1605821251
  0
LINE
  5
239
100
AcDbEntity
  8
RACCORDO
100
AcDbLine
 62
7
  6
CONTINUOUS
 10
-25.3847496027
 20
4.562989094
 11
-25.3847496027
 21
-0.8919767581
  0
LINE
  5
23A
100
AcDbEntity
  8
RACCORDO
100
AcDbLine
 62
7
  6
CONTINUOUS
 10
-25.1309496276
 20
29.4063161817
 11
-25.1309496276
 21
24.2562477013
  0
LINE
  5
23B
100
AcDbEntity
  8
DRAFT
100
AcDbLine
 62
7
  6
CONTINUOUS
 10
-25.1309496276
 20
17.7610571729
 11
-25.1309496276
 21
5.2036888181
  0
LINE
  5
23C
100
AcDbEntity
  8
RACCORDO
100
AcDbLine
 62
7
  6
CONTINUOUS
 10
-25.1309496276
 20
-1.2915017103
 11
-25.1309496276
 21
-7.8870826515
  0
LINE
  5
23D
100
AcDbEntity
  8
RACCORDO
100
AcDbLine
 62
7
  6
CONTINUOUS
 10
-24.9530799771
 20
-8.1006550241
 11
-24.9530799771
 21
-1.8879073414
  0
LINE
  5
23E
100
AcDbEntity
  8
RACCORDO
100
AcDbLine
 62
7
  6
CONTINUOUS
 10
-24.9530799771
 20
5.9757781892
 11
-24.9530799771
 21
17.1646515419
  0
LINE
  5
23F
100
AcDbEntity
  8
RACCORDO
100
AcDbLine
 62
7
  6
CONTINUOUS
 10
-24.9530799771
 20
25.0283370724
 11
-24.9530799771
 21
29.3173813564
  0
LINE
  5
240
100
AcDbEntity
  8
RACCORDO
100
AcDbLine
 62
7
  6
CONTINUOUS
 10
-24.8434198254
 20
24.9526793001
 11
-24.8434198254
 21
24.5435414439
  0
LINE
  5
241
100
AcDbEntity
  8
RACCORDO
100
AcDbLine
 62
7
  6
CONTINUOUS
 10
-24.8434198254
 20
18.284283691
 11
-24.8434198254
 21
17.9473681659
  0
LINE
  5
242
100
AcDbEntity
  8
RACCORDO
100
AcDbLine
 62
7
  6
CONTINUOUS
 10
-24.8434198254
 20
5.9001204168
 11
-24.8434198254
 21
5.4909825607
  0
LINE
  5
243
100
AcDbEntity
  8
RACCORDO
100
AcDbLine
 62
7
  6
CONTINUOUS
 10
-24.8434198254
 20
-1.1051907174
 11
-24.8434198254
 21
-0.7682751923
  0
LINE
  5
244
100
AcDbEntity
  8
RACCORDO
100
AcDbLine
 62
7
  6
CONTINUOUS
 10
-24.7030897256
 20
25.0174883906
 11
-24.7030897256
 21
24.6873413361
  0
LINE
  5
245
100
AcDbEntity
  8
RACCORDO
100
AcDbLine
 62
7
  6
CONTINUOUS
 10
-24.7030897256
 20
18.3490927814
 11
-24.7030897256
 21
17.8772031159
  0
LINE
  5
246
100
AcDbEntity
  8
RACCORDO
100
AcDbLine
 62
7
  6
CONTINUOUS
 10
-24.7030897256
 20
5.9649295073
 11
-24.7030897256
 21
5.6347824529
  0
LINE
  5
247
100
AcDbEntity
  8
RACCORDO
100
AcDbLine
 62
7
  6
CONTINUOUS
 10
-24.7030897256
 20
-1.1753557673
 11
-24.7030897256
 21
-0.7034661018
  0
LINE
  5
248
100
AcDbEntity
  8
RACCORDO
100
AcDbLine
 62
7
  6
CONTINUOUS
 10
-24.4494654139
 20
24.086796187
 11
-24.4494654139
 21
18.5925273578
  0
LINE
  5
249
100
AcDbEntity
  8
RACCORDO
100
AcDbLine
 62
7
  6
CONTINUOUS
 10
-24.4494654139
 20
5.0342373038
 11
-24.4494654139
 21
-0.4600315255
  0
LINE
  5
24A
100
AcDbEntity
  8
RACCORDO
100
AcDbLine
 62
7
  6
CONTINUOUS
 10
-24.3775204763
 20
-7.8106561258
 11
-24.3775204763
 21
-1.5979084431
  0
LINE
  5
24B
100
AcDbEntity
  8
RACCORDO
100
AcDbLine
 62
7
  6
CONTINUOUS
 10
-24.3775204763
 20
6.24159064
 11
-24.3775204763
 21
17.4546504402
  0
LINE
  5
24C
100
AcDbEntity
  8
RACCORDO
100
AcDbLine
 62
7
  6
CONTINUOUS
 10
-24.3775204763
 20
25.2941495233
 11
-24.3775204763
 21
29.029601606
  0
LINE
  5
24D
100
AcDbEntity
  8
RACCORDO
100
AcDbLine
 62
7
  6
CONTINUOUS
 10
-23.8119436953
 20
-8.0011789942
 11
-23.8119436953
 21
-8.0934445164
  0
LINE
  5
24E
100
AcDbEntity
  8
RACCORDO
100
AcDbLine
 62
7
  6
CONTINUOUS
 10
-23.6716135954
 20
-7.8789944186
 11
-23.6716135954
 21
-8.1636095663
  0
LINE
  5
24F
100
AcDbEntity
  8
RACCORDO
100
AcDbLine
 62
7
  6
CONTINUOUS
 10
-21.1084912081
 20
16.2409040188
 11
-21.1084912081
 21
10.8405159653
  0
LINE
  5
250
100
AcDbEntity
  8
RACCORDO
100
AcDbLine
 62
7
  6
CONTINUOUS
 10
-21.0242931482
 20
16.3451027744
 11
-21.0242931482
 21
10.9447147208
  0
LINE
  5
251
100
AcDbEntity
  8
RACCORDO
100
AcDbLine
 62
7
  6
CONTINUOUS
 10
-24.3775204763
 20
15.0904623437
 11
-21.3205909337
 21
16.6067219328
  0
LINE
  5
252
100
AcDbEntity
  8
RACCORDO
100
AcDbLine
 62
7
  6
CONTINUOUS
 10
-24.3775204763
 20
14.6194414021
 11
-21.1084912081
 21
16.2409040188
  0
LINE
  5
253
100
AcDbEntity
  8
RACCORDO
100
AcDbLine
 62
7
  6
CONTINUOUS
 10
-21.7582558117
 20
16.7715495699
 11
-24.0081128651
 21
15.732491025
  0
LINE
  5
254
100
AcDbEntity
  8
RACCORDO
100
AcDbLine
 62
7
  6
CONTINUOUS
 10
-21.6287699842
 20
16.760811458
 11
-23.9347748242
 21
15.6958220046
  0
LWPOLYLINE
  5
255
100
AcDbEntity
  8
RACCORDO
100
AcDbPolyline
 62
7
  6
CONTINUOUS
 90
11
 70
0
 10
22.3760005303
 20
-37.2442728446
 10
22.4101965503
 20
-37.2600666154
 10
22.4602982108
 20
-37.2786803322
 10
22.5109341774
 20
-37.2921925943
 10
22.5617646776
 20
-37.3005228238
 10
22.6121957513
 20
-37.3036185464
 10
22.6617635734
 20
-37.3015317822
 10
22.7100735627
 20
-37.2943923815
 10
22.7564976924
 20
-37.2824553595
 10
22.8005470037
 20
-37.2660641209
 10
22.8112436563
 20
-37.2612684915
  0
LINE
  5
256
100
AcDbEntity
  8
RACCORDO
100
AcDbLine
 62
7
  6
CONTINUOUS
 10
-29.1849503167
 20
-11.463809617
 11
22.3758560432
 21
-37.2442127969
  0
LINE
  5
257
100
AcDbEntity
  8
0
100
AcDbLine
 62
7
  6
CONTINUOUS
 10
-6.0611404831
 20
-22.9193571371
 11
-5.7880091751
 21
-23.0559227911
  0
LINE
  5
258
100
AcDbEntity
  8
0
100
AcDbLine
 62
7
  6
CONTINUOUS
 10
-5.1957174433
 20
-23.352068657
 11
-4.8857812274
 21
-23.5070367649
  0
LINE
  5
259
100
AcDbEntity
  8
0
100
AcDbLine
 62
7
  6
CONTINUOUS
 10
-4.7189330185
 20
-23.5904608694
 11
-4.4224254674
 21
-23.7387146449
  0
LINE
  5
25A
100
AcDbEntity
  8
0
100
AcDbLine
 62
7
  6
CONTINUOUS
 10
-3.9919487585
 20
-23.9539529994
 11
-3.9484807834
 21
-23.975686987
  0
LINE
  5
25B
100
AcDbEntity
  8
0
100
AcDbLine
 62
7
  6
CONTINUOUS
 10
-3.5162893405
 20
-24.1917827084
 11
-3.213089731
 21
-24.3433825132
  0
LINE
  5
25C
100
AcDbEntity
  8
0
100
AcDbLine
 62
7
  6
CONTINUOUS
 10
-3.1644216925
 20
-24.3677165324
 11
-2.8578484765
 21
-24.5210031404
  0
LINE
  5
25D
100
AcDbEntity
  8
0
100
AcDbLine
 62
7
  6
CONTINUOUS
 10
-2.2699542417
 20
-24.8149502578
 11
-1.9432949505
 21
-24.9782799034
  0
LINE
  5
25E
100
AcDbEntity
  8
0
100
AcDbLine
 62
7
  6
CONTINUOUS
 10
-1.8522826172
 20
-25.0237864145
 11
-1.54359382
 21
-25.1781308131
  0
LINE
  5
25F
100
AcDbEntity
  8
0
100
AcDbLine
 62
7
  6
CONTINUOUS
 10
-1.068969763
 20
-25.4154428416
 11
-0.7708474667
 21
-25.5645039898
  0
LINE
  5
260
100
AcDbEntity
  8
RACCORDO
100
AcDbLine
 62
7
  6
CONTINUOUS
 10
-29.2629182725
 20
-11.3015474768
 11
-6.0655203455
 21
-22.9002464403
  0
LINE
  5
261
100
AcDbEntity
  8
RACCORDO
100
AcDbLine
 62
7
  6
CONTINUOUS
 10
-5.7710884095
 20
-23.0474624083
 11
-5.1957174433
 21
-23.3351478914
  0
LINE
  5
262
100
AcDbEntity
  8
RACCORDO
100
AcDbLine
 62
7
  6
CONTINUOUS
 10
-4.8688604618
 20
-23.4985763821
 11
-4.7176855355
 21
-23.5741638453
  0
LINE
  5
263
100
AcDbEntity
  8
RACCORDO
100
AcDbLine
 62
7
  6
CONTINUOUS
 10
-4.4055047018
 20
-23.7302542621
 11
-3.9971298414
 21
-23.9344416923
  0
LINE
  5
264
100
AcDbEntity
  8
RACCORDO
100
AcDbLine
 62
7
  6
CONTINUOUS
 10
-3.9315600178
 20
-23.9672266041
 11
-3.517200519
 21
-24.1744063535
  0
LINE
  5
265
100
AcDbEntity
  8
RACCORDO
100
AcDbLine
 62
7
  6
CONTINUOUS
 10
-3.1961689653
 20
-24.3349221304
 11
-3.1576533863
 21
-24.3541799199
  0
LINE
  5
266
100
AcDbEntity
  8
RACCORDO
100
AcDbLine
 62
7
  6
CONTINUOUS
 10
-2.8409277108
 20
-24.5125427576
 11
-2.273696466
 21
-24.79615838
  0
LINE
  5
267
100
AcDbEntity
  8
RACCORDO
100
AcDbLine
 62
7
  6
CONTINUOUS
 10
-1.9263741848
 20
-24.9698195206
 11
-1.8516738305
 21
-25.0071696978
  0
LINE
  5
268
100
AcDbEntity
  8
RACCORDO
100
AcDbLine
 62
7
  6
CONTINUOUS
 10
-1.52667271
 20
-25.169670258
 11
-1.0730307883
 21
-25.3964912189
  0
LINE
  5
269
100
AcDbEntity
  8
RACCORDO
100
AcDbLine
 62
7
  6
CONTINUOUS
 10
-0.7539263566
 20
-25.5560434347
 11
22.3001714311
 21
-37.0830923286
  0
LINE
  5
26A
100
AcDbEntity
  8
0
100
AcDbLine
 62
7
  6
CONTINUOUS
 10
-2.7723253255
 20
-24.2007277327
 11
-2.3502440954
 21
-24.4117683477
  0
LINE
  5
26B
100
AcDbEntity
  8
0
100
AcDbLine
 62
7
  6
CONTINUOUS
 10
-2.4121845281
 20
-24.099881141
 11
-2.7089261315
 21
-23.9515103393
  0
LINE
  5
26C
100
AcDbEntity
  8
0
100
AcDbLine
 62
7
  6
CONTINUOUS
 10
-1.54359382
 20
-24.4664701847
 11
-1.3774136044
 21
-24.5495602925
  0
LINE
  5
26D
100
AcDbEntity
  8
IMPORT_IGES
100
AcDbLine
 62
7
  6
CONTINUOUS
 10
-2.5675047753
 20
-23.8807996612
 11
-2.4420291579
 21
-23.9435374699
  0
LINE
  5
26E
100
AcDbEntity
  8
0
100
AcDbLine
 62
7
  6
CONTINUOUS
 10
-2.4420291579
 20
-23.9435374699
 11
-2.5675047753
 21
-23.8807996612
  0
LINE
  5
26F
100
AcDbEntity
  8
0
100
AcDbLine
 62
7
  6
CONTINUOUS
 10
-1.3767455433
 20
-24.2520678889
 11
-1.5538708277
 21
-24.1635052467
  0
LINE
  5
270
100
AcDbEntity
  8
0
100
AcDbLine
 62
7
  6
CONTINUOUS
 10
-1.235324187
 20
-24.1813572108
 11
-1.4124494714
 21
-24.0927945685
  0
LINE
  5
271
100
AcDbEntity
  8
IMPORT_IGES
100
AcDbLine
 62
7
  6
CONTINUOUS
 10
-1.235324187
 20
-24.1813572108
 11
-1.4124494714
 21
-24.0927945685
  0
LINE
  5
272
100
AcDbEntity
  8
0
100
AcDbLine
 62
7
  6
CONTINUOUS
 10
-2.3988682932
 20
-22.9319931706
 11
-2.6986935893
 21
-22.7820805226
  0
LINE
  5
273
100
AcDbEntity
  8
0
100
AcDbLine
 62
7
  6
CONTINUOUS
 10
-3.3519350972
 20
-22.4554597686
 11
-3.658586095
 21
-22.3021342697
  0
LINE
  5
274
100
AcDbEntity
  8
0
100
AcDbLine
 62
7
  6
CONTINUOUS
 10
-4.2751846224
 20
-21.993835006
 11
-4.5848641585
 21
-21.8389952379
  0
LINE
  5
275
100
AcDbEntity
  8
0
100
AcDbLine
 62
7
  6
CONTINUOUS
 10
-5.3107347253
 20
-21.4760599546
 11
-5.6204595162
 21
-21.3211975591
  0
LINE
  5
276
100
AcDbEntity
  8
0
100
AcDbLine
 62
7
  6
CONTINUOUS
 10
-6.1951647953
 20
-21.0338449196
 11
-6.5318508607
 21
-20.8655018868
  0
LINE
  5
277
100
AcDbEntity
  8
0
100
AcDbLine
 62
7
  6
CONTINUOUS
 10
-4.8857812274
 20
-21.6884275843
 11
-5.1957174433
 21
-21.5334594763
  0
LINE
  5
278
100
AcDbEntity
  8
IMPORT_IGES
100
AcDbLine
 62
7
  6
CONTINUOUS
 10
-6.3904295045
 20
-20.7947912087
 11
-6.0537434391
 21
-20.9631342414
  0
LINE
  5
279
100
AcDbEntity
  8
IMPORT_IGES
100
AcDbLine
 62
7
  6
CONTINUOUS
 10
-5.47903816
 20
-21.250486881
 11
-5.169313369
 21
-21.4053492765
  0
LINE
  5
27A
100
AcDbEntity
  8
IMPORT_IGES
100
AcDbLine
 62
7
  6
CONTINUOUS
 10
-4.4434428023
 20
-21.7682845598
 11
-4.1337632662
 21
-21.9231243279
  0
LINE
  5
27B
100
AcDbEntity
  8
IMPORT_IGES
100
AcDbLine
 62
7
  6
CONTINUOUS
 10
-3.5171647387
 20
-22.2314235916
 11
-3.2105137409
 21
-22.3847490905
  0
LINE
  5
27C
100
AcDbEntity
  8
IMPORT_IGES
100
AcDbLine
 62
7
  6
CONTINUOUS
 10
-2.557272233
 20
-22.7113698445
 11
-2.257446937
 21
-22.8612824925
  0
LINE
  5
27D
100
AcDbEntity
  8
0
100
AcDbLine
 62
7
  6
CONTINUOUS
 10
-2.257446937
 20
-22.8612824925
 11
-2.557272233
 21
-22.7113698445
  0
LINE
  5
27E
100
AcDbEntity
  8
0
100
AcDbLine
 62
7
  6
CONTINUOUS
 10
-3.2105137409
 20
-22.3847490905
 11
-3.5171647387
 21
-22.2314235916
  0
LINE
  5
27F
100
AcDbEntity
  8
0
100
AcDbLine
 62
7
  6
CONTINUOUS
 10
-4.1337632662
 20
-21.9231243279
 11
-4.4434428023
 21
-21.7682845598
  0
LINE
  5
280
100
AcDbEntity
  8
0
100
AcDbLine
 62
7
  6
CONTINUOUS
 10
-5.169313369
 20
-21.4053492765
 11
-5.47903816
 21
-21.250486881
  0
LINE
  5
281
100
AcDbEntity
  8
0
100
AcDbLine
 62
7
  6
CONTINUOUS
 10
-6.0537434391
 20
-20.9631342414
 11
-6.3904295045
 21
-20.7947912087
  0
LINE
  5
282
100
AcDbEntity
  8
0
100
AcDbLine
 62
7
  6
CONTINUOUS
 10
-4.7443598712
 20
-21.6177169062
 11
-5.0542960871
 21
-21.4627487982
  0
LINE
  5
283
100
AcDbEntity
  8
IMPORT_IGES
100
AcDbLine
 62
7
  6
CONTINUOUS
 10
-4.7443598712
 20
-21.6177169062
 11
-5.0542960871
 21
-21.4627487982
  0
LINE
  5
284
100
AcDbEntity
  8
RACCORDO
100
AcDbLine
 62
7
  6
CONTINUOUS
 10
20.5230141379
 20
-34.1294456697
 11
-27.4880443224
 21
-10.1239164395
  0
LINE
  5
285
100
AcDbEntity
  8
RACCORDO
100
AcDbLine
 62
7
  6
CONTINUOUS
 10
20.6625830707
 20
-33.8155122261
 11
-27.3484805034
 21
-9.8099804391
  0
LINE
  5
286
100
AcDbEntity
  8
RACCORDO
100
AcDbLine
 62
7
  6
CONTINUOUS
 10
-18.5792448706
 20
-10.9696411258
 11
-18.5792448706
 21
-11.4223865938
  0
LINE
  5
287
100
AcDbEntity
  8
DRAFT
100
AcDbLine
 62
7
  6
CONTINUOUS
 10
-25.1309496276
 20
5.2036888181
 11
-25.6447585148
 21
4.9183675279
  0
LINE
  5
288
100
AcDbEntity
  8
RACCORDO
100
AcDbLine
 62
7
  6
CONTINUOUS
 10
-21.1084912081
 20
10.8405159653
 11
-24.3775204763
 21
9.076799678
  0
LINE
  5
289
100
AcDbEntity
  8
RACCORDO
100
AcDbLine
 62
7
  6
CONTINUOUS
 10
-21.1818460021
 20
10.6806904595
 11
-24.3775204763
 21
8.9565507665
  0
LINE
  5
28A
100
AcDbEntity
  8
RACCORDO
100
AcDbLine
 62
7
  6
CONTINUOUS
 10
-24.6615651395
 20
5.4000552177
 11
-25.5968493283
 21
4.928807008
  0
LINE
  5
28B
100
AcDbEntity
  8
RACCORDO
100
AcDbLine
 62
7
  6
CONTINUOUS
 10
-24.4494654139
 20
5.0342373038
 11
-25.3847496027
 21
4.562989094
  0
LINE
  5
28C
100
AcDbEntity
  8
RACCORDO
100
AcDbLine
 62
7
  6
CONTINUOUS
 10
-24.9530799771
 20
5.9757781892
 11
-24.3775204763
 21
6.24159064
  0
LINE
  5
28D
100
AcDbEntity
  8
RACCORDO
100
AcDbLine
 62
7
  6
CONTINUOUS
 10
-25.0342173216
 20
5.8120038103
 11
-24.4586578208
 21
6.0778162611
  0
LINE
  5
28E
100
AcDbEntity
  8
RACCORDO
100
AcDbLine
 62
7
  6
CONTINUOUS
 10
-2.5084998651
 20
-18.185210256
 11
-2.5085394842
 21
-18.1851904586
  0
LINE
  5
28F
100
AcDbEntity
  8
RACCORDO
100
AcDbLine
 62
7
  6
CONTINUOUS
 10
-25.8109749327
 20
-8.7140517262
 11
20.840368944
 21
-32.0397236646
  0
LINE
  5
290
100
AcDbEntity
  8
RACCORDO
100
AcDbLine
 62
7
  6
CONTINUOUS
 10
-25.6962229089
 20
-8.630627803
 11
20.840368944
 21
-31.8989237294
  0
LINE
  5
291
100
AcDbEntity
  8
RACCORDO
100
AcDbLine
 62
7
  6
CONTINUOUS
 10
20.840368944
 20
-31.6343434025
 11
-25.4326587892
 21
-8.4978295359
  0
LINE
  5
292
100
AcDbEntity
  8
RACCORDO
100
AcDbLine
 62
7
  6
CONTINUOUS
 10
-11.5431265207
 20
-15.2389657388
 11
-7.0891655534
 21
-17.4659462225
  0
LINE
  5
293
100
AcDbEntity
  8
RACCORDO
100
AcDbLine
 62
7
  6
CONTINUOUS
 10
4.366776056
 20
-23.1939170272
 11
8.8207370233
 21
-25.4208975108
  0
LINE
  5
294
100
AcDbEntity
  8
RACCORDO
100
AcDbLine
 62
7
  6
CONTINUOUS
 10
-24.9191083129
 20
-8.2524548727
 11
-11.7203090931
 21
-14.8518544826
  0
LINE
  5
295
100
AcDbEntity
  8
DRAFT
100
AcDbLine
 62
7
  6
CONTINUOUS
 10
-6.4170082342
 20
-17.503504912
 11
4.1895934836
 21
-22.8068057709
  0
LINE
  5
296
100
AcDbEntity
  8
RACCORDO
100
AcDbLine
 62
7
  6
CONTINUOUS
 10
9.4928943425
 20
-25.4584562004
 11
20.840368944
 21
-31.1321935011
  0
LINE
  5
297
100
AcDbEntity
  8
RACCORDO
100
AcDbLine
 62
7
  6
CONTINUOUS
 10
4.5953436602
 20
-22.9684788299
 11
4.6156965925
 21
-22.978655296
  0
LINE
  5
298
100
AcDbEntity
  8
ASSI
100
AcDbLine
 62
7
  6
CONTINUOUS
 10
17.3313977472
 20
-29.3214167131
 11
14.9729718967
 21
-28.1422037879
  0
LINE
  5
299
100
AcDbEntity
  8
ASSI
100
AcDbLine
 62
7
  6
CONTINUOUS
 10
-14.4884074062
 20
-13.4115141365
 11
-16.8468332567
 21
-12.2323012112
  0
LINE
  5
29A
100
AcDbEntity
  8
RACCORDO
100
AcDbLine
 62
7
  6
CONTINUOUS
 10
20.840368944
 20
-30.9973794847
 11
17.4832009699
 21
-29.3187954976
  0
LINE
  5
29B
100
AcDbEntity
  8
RACCORDO
100
AcDbLine
 62
7
  6
CONTINUOUS
 10
12.4627428235
 20
-26.8085664244
 11
10.228356783
 21
-25.6913734041
  0
LINE
  5
29C
100
AcDbEntity
  8
RACCORDO
100
AcDbLine
 62
7
  6
CONTINUOUS
 10
3.8076844338
 20
-22.4810372295
 11
1.5732983932
 21
-21.3638442093
  0
LINE
  5
29D
100
AcDbEntity
  8
RACCORDO
100
AcDbLine
 62
7
  6
CONTINUOUS
 10
-3.4471597532
 20
-18.8536151361
 11
-5.6815457937
 21
-17.7364221158
  0
LINE
  5
29E
100
AcDbEntity
  8
RACCORDO
100
AcDbLine
 62
7
  6
CONTINUOUS
 10
-12.1022181429
 20
-14.5260859412
 11
-14.3366041835
 21
-13.4088929209
  0
LINE
  5
29F
100
AcDbEntity
  8
RACCORDO
100
AcDbLine
 62
7
  6
CONTINUOUS
 10
-19.3570623299
 20
-10.8986638477
 11
-24.9530799771
 21
-8.1006550241
  0
LINE
  5
2A0
100
AcDbEntity
  8
ASSI
100
AcDbLine
 62
7
  6
CONTINUOUS
 10
17.4679458313
 20
-29.248269399
 11
15.114393253
 21
-28.0714931098
  0
LINE
  5
2A1
100
AcDbEntity
  8
ASSI
100
AcDbLine
 62
7
  6
CONTINUOUS
 10
-14.3518593221
 20
-13.3383668223
 11
-16.7054119004
 21
-12.1615905331
  0
LINE
  5
2A2
100
AcDbEntity
  8
ASSI
100
AcDbLine
 62
7
  6
CONTINUOUS
 10
17.6756378259
 20
-29.1399833619
 11
15.3265252873
 21
-27.9654270926
  0
LINE
  5
2A3
100
AcDbEntity
  8
ASSI
100
AcDbLine
 62
7
  6
CONTINUOUS
 10
-14.1441673275
 20
-13.2300807852
 11
-16.4932798661
 21
-12.0555245159
  0
LINE
  5
2A4
100
AcDbEntity
  8
ASSI
100
AcDbLine
 62
7
  6
CONTINUOUS
 10
17.8140991557
 20
-29.0677926706
 11
15.4679466435
 21
-27.8947164145
  0
LINE
  5
2A5
100
AcDbEntity
  8
ASSI
100
AcDbLine
 62
7
  6
CONTINUOUS
 10
-14.0057059977
 20
-13.1578900939
 11
-16.3518585098
 21
-11.9848138378
  0
LINE
  5
2A6
100
AcDbEntity
  8
RACCORDO
100
AcDbLine
 62
7
  6
CONTINUOUS
 10
-10.6399330784
 20
-14.7516721559
 11
-6.1538813646
 21
-16.9946980128
  0
LINE
  5
2A7
100
AcDbEntity
  8
RACCORDO
100
AcDbLine
 62
7
  6
CONTINUOUS
 10
5.2699694983
 20
-22.7066234442
 11
9.7560212121
 21
-24.9496493011
  0
LINE
  5
2A8
100
AcDbEntity
  8
RACCORDO
100
AcDbLine
 62
7
  6
CONTINUOUS
 10
20.840368944
 20
-30.419600836
 11
18.0488863949
 21
-29.0238595614
  0
LINE
  5
2A9
100
AcDbEntity
  8
RACCORDO
100
AcDbLine
 62
7
  6
CONTINUOUS
 10
13.0284282485
 20
-26.5136304882
 11
10.7841681321
 21
-25.39150043
  0
LINE
  5
2AA
100
AcDbEntity
  8
RACCORDO
100
AcDbLine
 62
7
  6
CONTINUOUS
 10
4.3832439345
 20
-22.1910383313
 11
2.1389838182
 21
-21.0689082731
  0
LINE
  5
2AB
100
AcDbEntity
  8
RACCORDO
100
AcDbLine
 62
7
  6
CONTINUOUS
 10
-2.8814743282
 20
-18.5586791999
 11
-5.1257344446
 21
-17.4365491417
  0
LINE
  5
2AC
100
AcDbEntity
  8
RACCORDO
100
AcDbLine
 62
7
  6
CONTINUOUS
 10
-11.5266586421
 20
-14.2360870429
 11
-13.7709187585
 21
-13.1139569847
  0
LINE
  5
2AD
100
AcDbEntity
  8
RACCORDO
100
AcDbLine
 62
7
  6
CONTINUOUS
 10
-18.7913769049
 20
-10.6037279115
 11
-24.3774881676
 21
-7.8106722802
  0
LINE
  5
2AE
100
AcDbEntity
  8
ASSI
100
AcDbLine
 62
7
  6
CONTINUOUS
 10
19.5691659744
 20
-29.7331940456
 11
15.6800786779
 21
-27.7886503973
  0
LINE
  5
2AF
100
AcDbEntity
  8
ASSI
100
AcDbLine
 62
7
  6
CONTINUOUS
 10
-12.250639179
 20
-13.8232914689
 11
-16.1397264755
 21
-11.8787478206
  0
LINE
  5
2B0
100
AcDbEntity
  8
ASSI
100
AcDbLine
 62
7
  6
CONTINUOUS
 10
19.7105873307
 20
-29.6624833675
 11
15.8215000341
 21
-27.7179397192
  0
LINE
  5
2B1
100
AcDbEntity
  8
ASSI
100
AcDbLine
 62
7
  6
CONTINUOUS
 10
-12.1092178227
 20
-13.7525807908
 11
-15.9983051193
 21
-11.8080371425
  0
LINE
  5
2B2
100
AcDbEntity
  8
RACCORDO
100
AcDbLine
 62
7
  6
CONTINUOUS
 10
-24.3775204763
 20
-7.4586225525
 11
-24.0240434209
 21
-7.6353610802
  0
LINE
  5
2B3
100
AcDbEntity
  8
ASSI
100
AcDbLine
 62
7
  6
CONTINUOUS
 10
19.922719365
 20
-29.5564173503
 11
16.0336320685
 21
-27.611873702
  0
LINE
  5
2B4
100
AcDbEntity
  8
ASSI
100
AcDbLine
 62
7
  6
CONTINUOUS
 10
-11.8970857884
 20
-13.6465147736
 11
-15.7861730849
 21
-11.7019711253
  0
LINE
  5
2B5
100
AcDbEntity
  8
RACCORDO
100
AcDbLine
 62
7
  6
CONTINUOUS
 10
-24.3775204763
 20
-7.3387226676
 11
-23.8386869725
 21
-7.6081394195
  0
LINE
  5
2B6
100
AcDbEntity
  8
RACCORDO
100
AcDbLine
 62
7
  6
CONTINUOUS
 10
-4.177247529
 20
-17.4227763549
 11
-2.6389568703
 21
-18.1919216842
  0
LINE
  5
2B7
100
AcDbEntity
  8
ASSI
100
AcDbLine
 62
7
  6
CONTINUOUS
 10
20.0641407213
 20
-29.4857066722
 11
16.1750534247
 21
-27.5411630239
  0
LINE
  5
2B8
100
AcDbEntity
  8
ASSI
100
AcDbLine
 62
7
  6
CONTINUOUS
 10
-11.7556644321
 20
-13.5758040955
 11
-15.6447517287
 21
-11.6312604472
  0
LINE
  5
2B9
100
AcDbEntity
  8
RACCORDO
100
AcDbLine
 62
7
  6
CONTINUOUS
 10
-4.0467856648
 20
-17.416067356
 11
-2.5084950062
 21
-18.1852126853
  0
LINE
  5
2BA
100
AcDbEntity
  8
ASSI
100
AcDbLine
 62
7
  6
CONTINUOUS
 10
20.2762727556
 20
-29.379640655
 11
16.3871854591
 21
-27.4350970067
  0
LINE
  5
2BB
100
AcDbEntity
  8
ASSI
100
AcDbLine
 62
7
  6
CONTINUOUS
 10
-11.5435323978
 20
-13.4697380783
 11
-15.4326196943
 21
-11.52519443
  0
LINE
  5
2BC
100
AcDbEntity
  8
ASSI
100
AcDbLine
 62
7
  6
CONTINUOUS
 10
20.4176941119
 20
-29.3089299769
 11
16.5286068153
 21
-27.3643863286
  0
LINE
  5
2BD
100
AcDbEntity
  8
ASSI
100
AcDbLine
 62
7
  6
CONTINUOUS
 10
-11.4021110415
 20
-13.3990274002
 11
-15.2911983381
 21
-11.4544837519
  0
LINE
  5
2BE
100
AcDbEntity
  8
ASSI
100
AcDbLine
 62
7
  6
CONTINUOUS
 10
20.6298261462
 20
-29.2028639597
 11
16.7407388497
 21
-27.2583203114
  0
LINE
  5
2BF
100
AcDbEntity
  8
ASSI
100
AcDbLine
 62
7
  6
CONTINUOUS
 10
-11.1899790072
 20
-13.292961383
 11
-15.0790663037
 21
-11.3484177347
  0
LINE
  5
2C0
100
AcDbEntity
  8
ASSI
100
AcDbLine
 62
7
  6
CONTINUOUS
 10
20.7712475024
 20
-29.1321532816
 11
16.8821602059
 21
-27.1876096333
  0
LINE
  5
2C1
100
AcDbEntity
  8
ASSI
100
AcDbLine
 62
7
  6
CONTINUOUS
 10
-11.0485576509
 20
-13.2222507049
 11
-14.9376449475
 21
-11.2777070566
  0
LINE
  5
2C2
100
AcDbEntity
  8
ASSI
100
AcDbLine
 62
7
  6
CONTINUOUS
 10
20.840368944
 20
-28.954581968
 11
17.0942922403
 21
-27.0815436161
  0
LINE
  5
2C3
100
AcDbEntity
  8
ASSI
100
AcDbLine
 62
7
  6
CONTINUOUS
 10
-10.8364256166
 20
-13.1161846877
 11
-14.7255129131
 21
-11.1716410394
  0
LINE
  5
2C4
100
AcDbEntity
  8
ASSI
100
AcDbLine
 62
7
  6
CONTINUOUS
 10
1.2476887625
 20
-19.1272608548
 11
5.505152608
 21
-21.2559927776
  0
LINE
  5
2C5
100
AcDbEntity
  8
ASSI
100
AcDbLine
 62
7
  6
CONTINUOUS
 10
1.3694923311
 20
-19.1377609221
 11
5.5622344777
 21
-21.2341319954
  0
LINE
  5
2C6
100
AcDbEntity
  8
ASSI
100
AcDbLine
 62
7
  6
CONTINUOUS
 10
-14.6622138142
 20
-11.085707026
 11
-14.6079293503
 21
-11.112849258
  0
LINE
  5
2C7
100
AcDbEntity
  8
ASSI
100
AcDbLine
 62
7
  6
CONTINUOUS
 10
-10.5889382432
 20
-13.1223448116
 11
-10.4047499687
 21
-13.2144389488
  0
LINE
  5
2C8
100
AcDbEntity
  8
ASSI
100
AcDbLine
 62
7
  6
CONTINUOUS
 10
17.1575913392
 20
-26.9956096027
 11
17.2118758031
 21
-27.0227518347
  0
LINE
  5
2C9
100
AcDbEntity
  8
ASSI
100
AcDbLine
 62
7
  6
CONTINUOUS
 10
20.840368944
 20
-28.8131606118
 11
17.2357135965
 21
-27.010832938
  0
LINE
  5
2CA
100
AcDbEntity
  8
ASSI
100
AcDbLine
 62
7
  6
CONTINUOUS
 10
-10.6950042604
 20
-13.0454740096
 11
-14.5840915569
 21
-11.1009303613
  0
LINE
  5
2CB
100
AcDbEntity
  8
ASSI
100
AcDbLine
 62
7
  6
CONTINUOUS
 10
-14.5404112919
 20
-11.0962065702
 11
-10.3476670527
 21
-13.1925786898
  0
LINE
  5
2CC
100
AcDbEntity
  8
ASSI
100
AcDbLine
 62
7
  6
CONTINUOUS
 10
17.2793938615
 20
-27.0061091469
 11
20.840368944
 21
-28.7865966882
  0
LINE
  5
2CD
100
AcDbEntity
  8
ASSI
100
AcDbLine
 62
7
  6
CONTINUOUS
 10
-12.1092178227
 20
-13.7525807908
 11
-12.0031518056
 21
-13.8294515928
  0
LINE
  5
2CE
100
AcDbEntity
  8
ASSI
100
AcDbLine
 62
7
  6
CONTINUOUS
 10
-11.7556644321
 20
-13.5758040955
 11
-11.649598415
 21
-13.6526748975
  0
LINE
  5
2CF
100
AcDbEntity
  8
ASSI
100
AcDbLine
 62
7
  6
CONTINUOUS
 10
-11.4021110415
 20
-13.3990274002
 11
-11.2960450244
 21
-13.4758982022
  0
LINE
  5
2D0
100
AcDbEntity
  8
ASSI
100
AcDbLine
 62
7
  6
CONTINUOUS
 10
-11.0485576509
 20
-13.2222507049
 11
-10.9424916338
 21
-13.2991215069
  0
LINE
  5
2D1
100
AcDbEntity
  8
ASSI
100
AcDbLine
 62
7
  6
CONTINUOUS
 10
-10.6950042604
 20
-13.0454740096
 11
-10.5889382432
 21
-13.1223448116
  0
LINE
  5
2D2
100
AcDbEntity
  8
SMUSSO
100
AcDbLine
 62
7
  6
CONTINUOUS
 10
-43.1545556856
 20
65.6112144555
 11
-40.4641997483
 21
57.9783590636
  0
LINE
  5
2D3
100
AcDbEntity
  8
DRAFT
100
AcDbLine
 62
7
  6
CONTINUOUS
 10
-11.7203090931
 20
-15.2677736082
 11
-11.7203090931
 21
-14.8518544826
  0
LINE
  5
2D4
100
AcDbEntity
  8
RACCORDO
100
AcDbLine
 62
7
  6
CONTINUOUS
 10
-11.3145589165
 20
-15.0346848816
 11
-11.3145589165
 21
-14.6019049569
  0
LINE
  5
2D5
100
AcDbEntity
  8
ASSI
100
AcDbLine
 62
7
  6
CONTINUOUS
 10
-10.3977364388
 20
-13.2107816634
 11
-10.3977364388
 21
-13.7229077983
  0
LINE
  5
2D6
100
AcDbEntity
  8
ASSI
100
AcDbLine
 62
7
  6
CONTINUOUS
 10
-10.3463654039
 20
-13.1950232315
 11
-10.3463654039
 21
-13.705574016
  0
LINE
  5
2D7
100
AcDbEntity
  8
DRAFT
100
AcDbLine
 62
7
  6
CONTINUOUS
 10
-25.1309496276
 20
-1.2915017103
 11
-25.6447585148
 21
-1.5768230005
  0
LINE
  5
2D8
100
AcDbEntity
  8
RACCORDO
100
AcDbLine
 62
7
  6
CONTINUOUS
 10
-25.1309496276
 20
-1.5048424112
 11
-24.5896202019
 21
-1.2320905291
  0
LINE
  5
2D9
100
AcDbEntity
  8
DRAFT
100
AcDbLine
 62
7
  6
CONTINUOUS
 10
-25.6447585148
 20
-1.0345972667
 11
-25.1309496276
 21
-1.2915017103
  0
LINE
  5
2DA
100
AcDbEntity
  8
RACCORDO
100
AcDbLine
 62
7
  6
CONTINUOUS
 10
-25.5968493283
 20
-1.0456949465
 11
-25.6447585148
 21
-1.0217403532
  0
LINE
  5
2DB
100
AcDbEntity
  8
RACCORDO
100
AcDbLine
 62
7
  6
CONTINUOUS
 10
-24.5896202019
 20
-1.2320905291
 11
-25.1937046217
 21
-0.9300483193
  0
LINE
  5
2DC
100
AcDbEntity
  8
ASSI
100
AcDbLine
 62
7
  6
CONTINUOUS
 10
19.7105873307
 20
-29.6624833675
 11
19.8166533478
 21
-29.7393541695
  0
LINE
  5
2DD
100
AcDbEntity
  8
ASSI
100
AcDbLine
 62
7
  6
CONTINUOUS
 10
20.0641407213
 20
-29.4857066722
 11
20.1702067384
 21
-29.5625774742
  0
LINE
  5
2DE
100
AcDbEntity
  8
ASSI
100
AcDbLine
 62
7
  6
CONTINUOUS
 10
20.4176941119
 20
-29.3089299769
 11
20.523760129
 21
-29.3858007789
  0
LINE
  5
2DF
100
AcDbEntity
  8
ASSI
100
AcDbLine
 62
7
  6
CONTINUOUS
 10
20.7712475024
 20
-29.1321532816
 11
20.840368944
 21
-29.1822486919
  0
LINE
  5
2E0
100
AcDbEntity
  8
SMUSSO
100
AcDbLine
 62
7
  6
CONTINUOUS
 10
39.869830932
 20
-67.1923657183
 11
34.4891190575
 21
-60.9046882951
  0
LINE
  5
2E1
100
AcDbEntity
  8
0
100
AcDbLine
 62
7
  6
CONTINUOUS
 10
-4.3555409441
 20
-22.5847105043
 11
-3.9919487585
 21
-23.9539529994
  0
LINE
  5
2E2
100
AcDbEntity
  8
0
100
AcDbLine
 62
7
  6
CONTINUOUS
 10
-6.5318508607
 20
-20.8655018868
 11
-6.0611404831
 21
-22.9193571371
  0
LINE
  5
2E3
100
AcDbEntity
  8
0
100
AcDbLine
 62
7
  6
CONTINUOUS
 10
-5.9121346995
 20
-22.4270897034
 11
-6.1951647953
 21
-21.0338449196
  0
LINE
  5
2E4
100
AcDbEntity
  8
IMPORT_IGES
100
AcDbLine
 62
7
  6
CONTINUOUS
 10
-6.0537434391
 20
-20.9631342414
 11
-5.8241313615
 21
-22.0934233314
  0
LINE
  5
2E5
100
AcDbEntity
  8
0
100
AcDbLine
 62
7
  6
CONTINUOUS
 10
-5.8241313615
 20
-22.0934233314
 11
-6.0537434391
 21
-20.9631342414
  0
LINE
  5
2E6
100
AcDbEntity
  8
0
100
AcDbLine
 62
7
  6
CONTINUOUS
 10
-3.213089731
 20
-24.3433825132
 11
-3.3519350972
 21
-22.4554597686
  0
LINE
  5
2E7
100
AcDbEntity
  8
0
100
AcDbLine
 62
7
  6
CONTINUOUS
 10
-3.0846519995
 20
-24.0961295337
 11
-3.2105137409
 21
-22.3847490905
  0
LINE
  5
2E8
100
AcDbEntity
  8
IMPORT_IGES
100
AcDbLine
 62
7
  6
CONTINUOUS
 10
-3.2105137409
 20
-22.3847490905
 11
-3.0846519995
 21
-24.0961295337
  0
LINE
  5
2E9
100
AcDbEntity
  8
0
100
AcDbLine
 62
7
  6
CONTINUOUS
 10
-3.5799664275
 20
-22.9774479638
 11
-3.5162893405
 21
-24.1917827084
  0
LINE
  5
2EA
100
AcDbEntity
  8
RACCORDO
100
AcDbLine
 62
7
  6
CONTINUOUS
 10
-5.941781639
 20
-17.7411182096
 11
-5.941781639
 21
-17.3605159268
  0
LINE
  5
2EB
100
AcDbEntity
  8
0
100
AcDbLine
 62
7
  6
CONTINUOUS
 10
-5.1957174433
 20
-21.5334594763
 11
-5.1957174433
 21
-23.352068657
  0
LINE
  5
2EC
100
AcDbEntity
  8
0
100
AcDbLine
 62
7
  6
CONTINUOUS
 10
-4.8857812274
 20
-23.5070367649
 11
-4.8857812274
 21
-21.6884275843
  0
LINE
  5
2ED
100
AcDbEntity
  8
0
100
AcDbLine
 62
7
  6
CONTINUOUS
 10
-4.7443598712
 20
-23.4363260868
 11
-4.7443598712
 21
-21.6177169062
  0
LINE
  5
2EE
100
AcDbEntity
  8
IMPORT_IGES
100
AcDbLine
 62
7
  6
CONTINUOUS
 10
-4.7443598712
 20
-23.4363260868
 11
-4.7443598712
 21
-21.6177169062
  0
LINE
  5
2EF
100
AcDbEntity
  8
DRAFT
100
AcDbLine
 62
7
  6
CONTINUOUS
 10
-10.9242040846
 20
-14.2794503994
 11
-10.8671604328
 21
-14.047236526
  0
LINE
  5
2F0
100
AcDbEntity
  8
ASSI
100
AcDbLine
 62
7
  6
CONTINUOUS
 10
-16.872135569
 20
-12.2759412446
 11
-16.8468332567
 21
-12.2323012112
  0
LINE
  5
2F1
100
AcDbEntity
  8
ASSI
100
AcDbLine
 62
7
  6
CONTINUOUS
 10
-16.5886310396
 20
-12.2199809635
 11
-16.4932798661
 21
-12.0555245159
  0
LINE
  5
2F2
100
AcDbEntity
  8
ASSI
100
AcDbLine
 62
7
  6
CONTINUOUS
 10
-16.2350776491
 20
-12.0432042682
 11
-16.1397264755
 21
-11.8787478206
  0
LINE
  5
2F3
100
AcDbEntity
  8
ASSI
100
AcDbLine
 62
7
  6
CONTINUOUS
 10
-15.8815242585
 20
-11.8664275729
 11
-15.7861730849
 21
-11.7019711253
  0
LINE
  5
2F4
100
AcDbEntity
  8
ASSI
100
AcDbLine
 62
7
  6
CONTINUOUS
 10
-15.5279708679
 20
-11.6896508776
 11
-15.4326196943
 21
-11.52519443
  0
LINE
  5
2F5
100
AcDbEntity
  8
ASSI
100
AcDbLine
 62
7
  6
CONTINUOUS
 10
-15.1744174773
 20
-11.5128741823
 11
-15.0790663037
 21
-11.3484177347
  0
LINE
  5
2F6
100
AcDbEntity
  8
ASSI
100
AcDbLine
 62
7
  6
CONTINUOUS
 10
-14.8208640867
 20
-11.336097487
 11
-14.7255129131
 21
-11.1716410394
  0
LINE
  5
2F7
100
AcDbEntity
  8
SMUSSO
100
AcDbLine
 62
7
  6
CONTINUOUS
 10
-43.1545556856
 20
-25.6801724095
 11
-40.4641997483
 21
-23.4280288922
  0
LINE
  5
2F8
100
AcDbEntity
  8
RACCORDO
100
AcDbLine
 62
7
  6
CONTINUOUS
 10
-27.5090621289
 20
-9.4179902563
 11
-26.0000872025
 21
-8.3178641041
  0
LINE
  5
2F9
100
AcDbEntity
  8
RACCORDO
100
AcDbLine
 62
7
  6
CONTINUOUS
 10
-27.3484805034
 20
-9.8099804391
 11
-25.8301378073
 21
-8.7029642056
  0
LINE
  5
2FA
100
AcDbEntity
  8
RACCORDO
100
AcDbLine
 62
7
  6
CONTINUOUS
 10
-24.9530799771
 20
-1.8879073414
 11
-24.3775204763
 21
-1.5979084431
  0
LINE
  5
2FB
100
AcDbEntity
  8
RACCORDO
100
AcDbLine
 62
7
  6
CONTINUOUS
 10
-25.3847496027
 20
-0.8919767581
 11
-24.4494654139
 21
-0.4600315255
  0
LINE
  5
2FC
100
AcDbEntity
  8
RACCORDO
100
AcDbLine
 62
7
  6
CONTINUOUS
 10
-25.4658869472
 20
-1.055751137
 11
-24.5306027584
 21
-0.6238059044
  0
LINE
  5
2FD
100
AcDbEntity
  8
RACCORDO
100
AcDbLine
 62
7
  6
CONTINUOUS
 10
-25.5968493283
 20
4.928807008
 11
-25.6121669584
 21
4.9364658231
  0
LINE
  5
2FE
100
AcDbEntity
  8
RACCORDO
100
AcDbLine
 62
7
  6
CONTINUOUS
 10
-24.6615651395
 20
5.4000552177
 11
-25.1309496276
 21
5.6347474618
  0
LINE
  5
2FF
100
AcDbEntity
  8
0
100
AcDbLine
 62
7
  6
CONTINUOUS
 10
-3.9685223109
 20
-23.1568028262
 11
-4.2751846224
 21
-21.993835006
  0
LINE
  5
300
100
AcDbEntity
  8
0
100
AcDbLine
 62
7
  6
CONTINUOUS
 10
-3.8758448192
 20
-22.9012388296
 11
-4.1337632662
 21
-21.9231243279
  0
LINE
  5
301
100
AcDbEntity
  8
IMPORT_IGES
100
AcDbLine
 62
7
  6
CONTINUOUS
 10
-4.1337632662
 20
-21.9231243279
 11
-3.8758448192
 21
-22.9012388296
  0
LINE
  5
302
100
AcDbEntity
  8
0
100
AcDbLine
 62
7
  6
CONTINUOUS
 10
-1.9432949505
 20
-24.9782799034
 11
-2.3988682932
 21
-22.9319931706
  0
LINE
  5
303
100
AcDbEntity
  8
0
100
AcDbLine
 62
7
  6
CONTINUOUS
 10
-1.8522826172
 20
-24.6811483502
 11
-2.257446937
 21
-22.8612824925
  0
LINE
  5
304
100
AcDbEntity
  8
IMPORT_IGES
100
AcDbLine
 62
7
  6
CONTINUOUS
 10
-2.257446937
 20
-22.8612824925
 11
-1.8522826172
 21
-24.6811483502
  0
LINE
  5
305
100
AcDbEntity
  8
0
100
AcDbLine
 62
7
  6
CONTINUOUS
 10
-2.3502440954
 20
-24.4117683477
 11
-2.2699542417
 21
-24.8149502578
  0
LINE
  5
306
100
AcDbEntity
  8
0
100
AcDbLine
 62
7
  6
CONTINUOUS
 10
-2.5546043191
 20
-23.3538027631
 11
-2.4121845281
 21
-24.099881141
  0
LINE
  5
307
100
AcDbEntity
  8
RACCORDO
100
AcDbLine
 62
7
  6
CONTINUOUS
 10
-2.6693422939
 20
-18.9245924142
 11
-2.6693422939
 21
-19.3773378822
  0
LINE
  5
308
100
AcDbEntity
  8
RACCORDO
100
AcDbLine
 62
7
  6
CONTINUOUS
 10
-2.4268571447
 20
-18.5577395982
 11
-2.4268571447
 21
-19.4985804568
  0
LINE
  5
309
100
AcDbEntity
  8
RACCORDO
100
AcDbLine
 62
7
  6
CONTINUOUS
 10
-2.3426590848
 20
-18.4535408426
 11
-2.3426590848
 21
-19.5406794867
  0
LINE
  5
30A
100
AcDbEntity
  8
0
100
AcDbLine
 62
7
  6
CONTINUOUS
 10
-1.8522826172
 20
-23.2265320693
 11
-1.8522826172
 21
-25.0237864145
  0
LINE
  5
30B
100
AcDbEntity
  8
0
100
AcDbLine
 62
7
  6
CONTINUOUS
 10
-1.5538708277
 20
-24.1635052467
 11
-1.5538708277
 21
-23.664291414
  0
LINE
  5
30C
100
AcDbEntity
  8
0
100
AcDbLine
 62
7
  6
CONTINUOUS
 10
-1.54359382
 20
-25.1781308131
 11
-1.54359382
 21
-24.4664701847
  0
LINE
  5
30D
100
AcDbEntity
  8
0
100
AcDbLine
 62
7
  6
CONTINUOUS
 10
-1.4124494714
 20
-24.0927945685
 11
-1.4124494714
 21
-23.7180168932
  0
LINE
  5
30E
100
AcDbEntity
  8
IMPORT_IGES
100
AcDbLine
 62
7
  6
CONTINUOUS
 10
-1.4124494714
 20
-24.0927945685
 11
-1.4124494714
 21
-23.7180168932
  0
LINE
  5
30F
100
AcDbEntity
  8
0
100
AcDbLine
 62
7
  6
CONTINUOUS
 10
-1.4021724638
 20
-25.107420135
 11
-1.4021724638
 21
-24.5371808628
  0
LINE
  5
310
100
AcDbEntity
  8
IMPORT_IGES
100
AcDbLine
 62
7
  6
CONTINUOUS
 10
-1.4021724638
 20
-25.107420135
 11
-1.4021724638
 21
-24.5371808628
  0
LINE
  5
311
100
AcDbEntity
  8
0
100
AcDbLine
 62
7
  6
CONTINUOUS
 10
-1.0554526587
 20
-24.5733415092
 11
-1.0554526587
 21
-24.5625957569
  0
LINE
  5
312
100
AcDbEntity
  8
0
100
AcDbLine
 62
7
  6
CONTINUOUS
 10
-4.4224254674
 20
-23.7387146449
 11
-4.3555409441
 21
-22.5847105043
  0
LINE
  5
313
100
AcDbEntity
  8
0
100
AcDbLine
 62
7
  6
CONTINUOUS
 10
-4.2810041112
 20
-23.6680039668
 11
-4.2428207553
 21
-23.0092005751
  0
LINE
  5
314
100
AcDbEntity
  8
IMPORT_IGES
100
AcDbLine
 62
7
  6
CONTINUOUS
 10
-4.2428207553
 20
-23.0092005751
 11
-4.2810041112
 21
-23.6680039668
  0
LINE
  5
315
100
AcDbEntity
  8
0
100
AcDbLine
 62
7
  6
CONTINUOUS
 10
-4.5848641585
 20
-21.8389952379
 11
-4.7189330185
 21
-23.5904608694
  0
LINE
  5
316
100
AcDbEntity
  8
0
100
AcDbLine
 62
7
  6
CONTINUOUS
 10
-5.6204595162
 20
-21.3211975591
 11
-5.9121346995
 21
-22.4270897034
  0
LINE
  5
317
100
AcDbEntity
  8
ASSI
100
AcDbLine
 62
7
  6
CONTINUOUS
 10
-12.2734756427
 20
-13.8626785426
 11
-12.250639179
 21
-13.8232914689
  0
LINE
  5
318
100
AcDbEntity
  8
ASSI
100
AcDbLine
 62
7
  6
CONTINUOUS
 10
-12.0031518056
 20
-13.8294515928
 11
-11.8970857884
 21
-13.6465147736
  0
LINE
  5
319
100
AcDbEntity
  8
ASSI
100
AcDbLine
 62
7
  6
CONTINUOUS
 10
-11.649598415
 20
-13.6526748975
 11
-11.5435323978
 21
-13.4697380783
  0
LINE
  5
31A
100
AcDbEntity
  8
ASSI
100
AcDbLine
 62
7
  6
CONTINUOUS
 10
-11.2960450244
 20
-13.4758982022
 11
-11.1899790072
 21
-13.292961383
  0
LINE
  5
31B
100
AcDbEntity
  8
ASSI
100
AcDbLine
 62
7
  6
CONTINUOUS
 10
-10.9424916338
 20
-13.2991215069
 11
-10.8364256166
 21
-13.1161846877
  0
LINE
  5
31C
100
AcDbEntity
  8
RACCORDO
100
AcDbLine
 62
7
  6
CONTINUOUS
 10
-19.3570623299
 20
-10.8986638477
 11
-18.7913769049
 21
-10.6037279115
  0
LINE
  5
31D
100
AcDbEntity
  8
RACCORDO
100
AcDbLine
 62
7
  6
CONTINUOUS
 10
-25.9402040989
 20
-8.2808735446
 11
-25.6447585148
 21
-8.1320116219
  0
LINE
  5
31E
100
AcDbEntity
  8
RACCORDO
100
AcDbLine
 62
7
  6
CONTINUOUS
 10
-24.9530799771
 20
-8.1006550241
 11
-24.3775204763
 21
-7.8106561258
  0
LINE
  5
31F
100
AcDbEntity
  8
RACCORDO
100
AcDbLine
 62
7
  6
CONTINUOUS
 10
-25.6962229089
 20
-8.630627803
 11
-25.4326587892
 21
-8.4978295359
  0
LINE
  5
320
100
AcDbEntity
  8
SMUSSO
100
AcDbLine
 62
7
  6
CONTINUOUS
 10
41.1884428827
 20
25.4999159657
 11
42.5855186265
 21
26.2011702428
  0
LINE
  5
321
100
AcDbEntity
  8
SMUSSO
100
AcDbLine
 62
7
  6
CONTINUOUS
 10
41.8955227394
 20
24.2803836092
 11
43.2925984832
 21
24.9816378863
  0
LINE
  5
322
100
AcDbEntity
  8
SMUSSO
100
AcDbLine
 62
7
  6
CONTINUOUS
 10
39.4388665258
 20
24.6371919116
 11
40.4995266976
 21
25.1675219975
  0
LINE
  5
323
100
AcDbEntity
  8
SMUSSO
100
AcDbLine
 62
7
  6
CONTINUOUS
 10
40.145973307
 20
23.4176131172
 11
41.2066334787
 21
23.9479432031
  0
LINE
  5
324
100
AcDbEntity
  8
RACCORDO
100
AcDbLine
 62
7
  6
CONTINUOUS
 10
-24.0240434209
 20
-7.6353610802
 11
-24.3774881676
 21
-7.8106722802
  0
LINE
  5
325
100
AcDbEntity
  8
RACCORDO
100
AcDbLine
 62
7
  6
CONTINUOUS
 10
-23.8119436953
 20
-8.0011789942
 11
-23.904579076
 21
-8.047126826
  0
LINE
  5
326
100
AcDbEntity
  8
RACCORDO
100
AcDbLine
 62
7
  6
CONTINUOUS
 10
-25.6425568968
 20
-8.1365271112
 11
-25.1309496276
 21
-7.8870826515
  0
LINE
  5
327
100
AcDbEntity
  8
RACCORDO
100
AcDbLine
 62
7
  6
CONTINUOUS
 10
-25.4306823724
 20
-8.5018831404
 11
-24.9191083129
 21
-8.2524548727
  0
LINE
  5
328
100
AcDbEntity
  8
DRAFT
100
AcDbLine
 62
7
  6
CONTINUOUS
 10
4.1895934836
 20
-23.2227248966
 11
4.1895934836
 21
-22.8068057709
  0
LINE
  5
329
100
AcDbEntity
  8
RACCORDO
100
AcDbLine
 62
7
  6
CONTINUOUS
 10
4.5953436602
 20
-22.9896361699
 11
4.5953436602
 21
-22.5568562452
  0
LINE
  5
32A
100
AcDbEntity
  8
ASSI
100
AcDbLine
 62
7
  6
CONTINUOUS
 10
5.5121661379
 20
-21.2523354921
 11
5.5121661379
 21
-21.6778590866
  0
LINE
  5
32B
100
AcDbEntity
  8
ASSI
100
AcDbLine
 62
7
  6
CONTINUOUS
 10
5.5635371728
 20
-21.2365766644
 11
5.5635371728
 21
-21.6605252938
  0
LINE
  5
32C
100
AcDbEntity
  8
0
100
AcDbLine
 62
7
  6
CONTINUOUS
 10
-2.7089261315
 20
-23.9515103393
 11
-2.5546043191
 21
-23.3538027631
  0
LINE
  5
32D
100
AcDbEntity
  8
0
100
AcDbLine
 62
7
  6
CONTINUOUS
 10
-2.5675047753
 20
-23.8807996612
 11
-2.5022506132
 21
-23.6280621742
  0
LINE
  5
32E
100
AcDbEntity
  8
IMPORT_IGES
100
AcDbLine
 62
7
  6
CONTINUOUS
 10
-2.5022506132
 20
-23.6280621742
 11
-2.5675047753
 21
-23.8807996612
  0
LINE
  5
32F
100
AcDbEntity
  8
0
100
AcDbLine
 62
7
  6
CONTINUOUS
 10
-2.8578484765
 20
-24.5210031404
 11
-2.7723253255
 21
-24.2007277327
  0
LINE
  5
330
100
AcDbEntity
  8
0
100
AcDbLine
 62
7
  6
CONTINUOUS
 10
-2.7164271202
 20
-24.4502924623
 11
-2.6642195833
 21
-24.2547806038
  0
LINE
  5
331
100
AcDbEntity
  8
IMPORT_IGES
100
AcDbLine
 62
7
  6
CONTINUOUS
 10
-2.6642195833
 20
-24.2547806038
 11
-2.7164271202
 21
-24.4502924623
  0
LINE
  5
332
100
AcDbEntity
  8
0
100
AcDbLine
 62
7
  6
CONTINUOUS
 10
-2.6986935893
 20
-22.7820805226
 11
-3.1644216925
 21
-24.3677165324
  0
LINE
  5
333
100
AcDbEntity
  8
0
100
AcDbLine
 62
7
  6
CONTINUOUS
 10
-5.7880091751
 20
-23.0559227911
 11
-5.3107347253
 21
-21.4760599546
  0
LINE
  5
334
100
AcDbEntity
  8
0
100
AcDbLine
 62
7
  6
CONTINUOUS
 10
-5.6465878189
 20
-22.985212113
 11
-5.169313369
 21
-21.4053492765
  0
LINE
  5
335
100
AcDbEntity
  8
IMPORT_IGES
100
AcDbLine
 62
7
  6
CONTINUOUS
 10
-5.169313369
 20
-21.4053492765
 11
-5.6465878189
 21
-22.985212113
  0
LINE
  5
336
100
AcDbEntity
  8
0
100
AcDbLine
 62
7
  6
CONTINUOUS
 10
-3.658586095
 20
-22.3021342697
 11
-3.9685223109
 21
-23.1568028262
  0
LINE
  5
337
100
AcDbEntity
  8
0
100
AcDbLine
 62
7
  6
CONTINUOUS
 10
-3.9484807834
 20
-23.975686987
 11
-3.5799664275
 21
-22.9774479638
  0
LINE
  5
338
100
AcDbEntity
  8
0
100
AcDbLine
 62
7
  6
CONTINUOUS
 10
-3.8070594271
 20
-23.9049763088
 11
-3.565623527
 21
-23.2509699363
  0
LINE
  5
339
100
AcDbEntity
  8
IMPORT_IGES
100
AcDbLine
 62
7
  6
CONTINUOUS
 10
-3.565623527
 20
-23.2509699363
 11
-3.8070594271
 21
-23.9049763088
  0
LINE
  5
33A
100
AcDbEntity
  8
ASSI
100
AcDbLine
 62
7
  6
CONTINUOUS
 10
-10.6596489213
 20
-13.9414973306
 11
-10.4049440477
 21
-13.7569012798
  0
LINE
  5
33B
100
AcDbEntity
  8
SMUSSO
100
AcDbLine
 62
7
  6
CONTINUOUS
 10
39.869830932
 20
24.0990211466
 11
34.4891190575
 21
20.5016996607
  0
LINE
  5
33C
100
AcDbEntity
  8
RACCORDO
100
AcDbLine
 62
7
  6
CONTINUOUS
 10
-19.0225141279
 20
-11.2007519652
 11
-18.5792448706
 21
-10.9696411258
  0
LINE
  5
33D
100
AcDbEntity
  8
RACCORDO
100
AcDbLine
 62
7
  6
CONTINUOUS
 10
-13.9067920859
 20
-13.1063185562
 11
-14.4724775108
 21
-13.4012544924
  0
LINE
  5
33E
100
AcDbEntity
  8
RACCORDO
100
AcDbLine
 62
7
  6
CONTINUOUS
 10
-13.7709187585
 20
-13.1139569847
 11
-14.3366041835
 21
-13.4088929209
  0
LINE
  5
33F
100
AcDbEntity
  8
RACCORDO
100
AcDbLine
 62
7
  6
CONTINUOUS
 10
22.5063179079
 20
8.2442264595
 11
22.7978644951
 21
8.3911238507
  0
LINE
  5
340
100
AcDbEntity
  8
RACCORDO
100
AcDbLine
 62
7
  6
CONTINUOUS
 10
23.0012172676
 20
7.3906513269
 11
23.2927638549
 21
7.537548718
  0
LINE
  5
341
100
AcDbEntity
  8
ASSI
100
AcDbLine
 62
7
  6
CONTINUOUS
 10
-16.8468332567
 20
-12.2323012112
 11
-16.7054119004
 21
-12.1615905331
  0
LINE
  5
342
100
AcDbEntity
  8
ASSI
100
AcDbLine
 62
7
  6
CONTINUOUS
 10
-16.4932798661
 20
-12.0555245159
 11
-16.3518585098
 21
-11.9848138378
  0
LINE
  5
343
100
AcDbEntity
  8
ASSI
100
AcDbLine
 62
7
  6
CONTINUOUS
 10
-16.1397264755
 20
-11.8787478206
 11
-15.9983051193
 21
-11.8080371425
  0
LINE
  5
344
100
AcDbEntity
  8
ASSI
100
AcDbLine
 62
7
  6
CONTINUOUS
 10
-15.7861730849
 20
-11.7019711253
 11
-15.6447517287
 21
-11.6312604472
  0
LINE
  5
345
100
AcDbEntity
  8
ASSI
100
AcDbLine
 62
7
  6
CONTINUOUS
 10
-15.4326196943
 20
-11.52519443
 11
-15.2911983381
 21
-11.4544837519
  0
LINE
  5
346
100
AcDbEntity
  8
ASSI
100
AcDbLine
 62
7
  6
CONTINUOUS
 10
-15.0790663037
 20
-11.3484177347
 11
-14.9376449475
 21
-11.2777070566
  0
LINE
  5
347
100
AcDbEntity
  8
ASSI
100
AcDbLine
 62
7
  6
CONTINUOUS
 10
-14.7255129131
 20
-11.1716410394
 11
-14.5840915569
 21
-11.1009303613
  0
LINE
  5
348
100
AcDbEntity
  8
ASSI
100
AcDbLine
 62
7
  6
CONTINUOUS
 10
-14.6622138142
 20
-11.085707026
 11
-17.0776949882
 21
-12.173161535
  0
LINE
  5
349
100
AcDbEntity
  8
RACCORDO
100
AcDbLine
 62
7
  6
CONTINUOUS
 10
-21.190133928
 20
16.6134333607
 11
-21.1901735476
 21
16.6134531584
  0
LINE
  5
34A
100
AcDbEntity
  8
RACCORDO
100
AcDbLine
 62
7
  6
CONTINUOUS
 10
-24.3775204763
 20
15.9171948306
 11
-23.9347748242
 21
15.6958220046
  0
LINE
  5
34B
100
AcDbEntity
  8
DRAFT
100
AcDbLine
 62
7
  6
CONTINUOUS
 10
-25.6447585148
 20
18.0179616165
 11
-25.1309496276
 21
17.7610571729
  0
LINE
  5
34C
100
AcDbEntity
  8
RACCORDO
100
AcDbLine
 62
7
  6
CONTINUOUS
 10
-25.5968493283
 20
18.0068639368
 11
-25.6447585148
 21
18.03081853
  0
LINE
  5
34D
100
AcDbEntity
  8
RACCORDO
100
AcDbLine
 62
7
  6
CONTINUOUS
 10
-24.5896202019
 20
17.8204683541
 11
-25.1937046217
 21
18.122510564
  0
LINE
  5
34E
100
AcDbEntity
  8
RACCORDO
100
AcDbLine
 62
7
  6
CONTINUOUS
 10
-21.6287699842
 20
16.760811458
 11
-21.3205909337
 21
16.6067219328
  0
LINE
  5
34F
100
AcDbEntity
  8
RACCORDO
100
AcDbLine
 62
7
  6
CONTINUOUS
 10
-21.49830812
 20
16.7675204569
 11
-21.1901290696
 21
16.6134309317
  0
LINE
  5
350
100
AcDbEntity
  8
RACCORDO
100
AcDbLine
 62
7
  6
CONTINUOUS
 10
9.9681209377
 20
-25.696069498
 11
9.9681209377
 21
-25.3154672151
  0
LINE
  5
351
100
AcDbEntity
  8
DRAFT
100
AcDbLine
 62
7
  6
CONTINUOUS
 10
4.9856984921
 20
-22.2344016878
 11
5.0427421439
 21
-22.0021878143
  0
LINE
  5
352
100
AcDbEntity
  8
ASSI
100
AcDbLine
 62
7
  6
CONTINUOUS
 10
-10.4047499687
 20
-13.2144389488
 11
-11.9044117206
 21
-14.0472105037
  0
LINE
  5
353
100
AcDbEntity
  8
RACCORDO
100
AcDbLine
 62
7
  6
CONTINUOUS
 10
-10.7772266642
 20
-14.7447818041
 11
-11.6804201065
 21
-15.232075387
  0
LINE
  5
354
100
AcDbEntity
  8
RACCORDO
100
AcDbLine
 62
7
  6
CONTINUOUS
 10
-10.6399330784
 20
-14.7516721559
 11
-11.5431265207
 21
-15.2389657388
  0
LINE
  5
355
100
AcDbEntity
  8
ASSI
100
AcDbLine
 62
7
  6
CONTINUOUS
 10
-10.6596489213
 20
-13.9414973306
 11
-11.4176259864
 21
-14.3277307708
  0
LINE
  5
356
100
AcDbEntity
  8
RACCORDO
100
AcDbLine
 62
7
  6
CONTINUOUS
 10
-12.1022181429
 20
-14.5260859412
 11
-11.5266586421
 21
-14.2360870429
  0
LINE
  5
357
100
AcDbEntity
  8
RACCORDO
100
AcDbLine
 62
7
  6
CONTINUOUS
 10
-11.7656443094
 20
-14.8291868744
 11
-11.3145589165
 21
-14.6019049569
  0
LINE
  5
358
100
AcDbEntity
  8
DRAFT
100
AcDbLine
 62
7
  6
CONTINUOUS
 10
-11.3188458113
 20
-14.5487832215
 11
-11.003503056
 21
-14.3902406581
  0
LINE
  5
359
100
AcDbEntity
  8
DRAFT
100
AcDbLine
 62
7
  6
CONTINUOUS
 10
-11.3336119671
 20
-14.4850725972
 11
-10.9242040846
 21
-14.2794503994
  0
LINE
  5
35A
100
AcDbEntity
  8
ASSI
100
AcDbLine
 62
7
  6
CONTINUOUS
 10
-12.250639179
 20
-13.8232914689
 11
-12.1092178227
 21
-13.7525807908
  0
LINE
  5
35B
100
AcDbEntity
  8
ASSI
100
AcDbLine
 62
7
  6
CONTINUOUS
 10
-11.8970857884
 20
-13.6465147736
 11
-11.7556644321
 21
-13.5758040955
  0
LINE
  5
35C
100
AcDbEntity
  8
ASSI
100
AcDbLine
 62
7
  6
CONTINUOUS
 10
-11.5435323978
 20
-13.4697380783
 11
-11.4021110415
 21
-13.3990274002
  0
LINE
  5
35D
100
AcDbEntity
  8
ASSI
100
AcDbLine
 62
7
  6
CONTINUOUS
 10
-11.1899790072
 20
-13.292961383
 11
-11.0485576509
 21
-13.2222507049
  0
LINE
  5
35E
100
AcDbEntity
  8
ASSI
100
AcDbLine
 62
7
  6
CONTINUOUS
 10
-10.8364256166
 20
-13.1161846877
 11
-10.6950042604
 21
-13.0454740096
  0
LINE
  5
35F
100
AcDbEntity
  8
ASSI
100
AcDbLine
 62
7
  6
CONTINUOUS
 10
-10.5889382432
 20
-13.1223448116
 11
-12.171540674
 21
-13.913646027
  0
LINE
  5
360
100
AcDbEntity
  8
ASSI
100
AcDbLine
 62
7
  6
CONTINUOUS
 10
-10.3977364388
 20
-13.7229077983
 11
-11.4831007353
 21
-14.2636409447
  0
LINE
  5
361
100
AcDbEntity
  8
DRAFT
100
AcDbLine
 62
7
  6
CONTINUOUS
 10
-11.7203090931
 20
-14.8518544826
 11
-12.2569007519
 21
-15.0857085545
  0
LINE
  5
362
100
AcDbEntity
  8
RACCORDO
100
AcDbLine
 62
7
  6
CONTINUOUS
 10
-25.5968493283
 20
23.9813658913
 11
-25.6121669584
 21
23.9890247064
  0
LINE
  5
363
100
AcDbEntity
  8
RACCORDO
100
AcDbLine
 62
7
  6
CONTINUOUS
 10
-24.6615651395
 20
24.452614101
 11
-25.1309496276
 21
24.6873063451
  0
LINE
  5
364
100
AcDbEntity
  8
RACCORDO
100
AcDbLine
 62
7
  6
CONTINUOUS
 10
13.2405602828
 20
-26.8795437025
 11
13.2405602828
 21
-27.3322891705
  0
LINE
  5
365
100
AcDbEntity
  8
RACCORDO
100
AcDbLine
 62
7
  6
CONTINUOUS
 10
-5.8188393794
 20
-17.729531764
 11
-5.2630280303
 21
-17.4296587899
  0
LINE
  5
366
100
AcDbEntity
  8
RACCORDO
100
AcDbLine
 62
7
  6
CONTINUOUS
 10
-5.6815457937
 20
-17.7364221158
 11
-5.1257344446
 21
-17.4365491417
  0
LINE
  5
367
100
AcDbEntity
  8
RACCORDO
100
AcDbLine
 62
7
  6
CONTINUOUS
 10
-3.4471597532
 20
-18.8536151361
 11
-2.8814743282
 21
-18.5586791999
  0
LINE
  5
368
100
AcDbEntity
  8
RACCORDO
100
AcDbLine
 62
7
  6
CONTINUOUS
 10
-3.1126115512
 20
-19.1557032535
 11
-2.6693422939
 21
-18.9245924142
  0
LINE
  5
369
100
AcDbEntity
  8
RACCORDO
100
AcDbLine
 62
7
  6
CONTINUOUS
 10
-7.0891655534
 20
-17.4659462225
 11
-6.1538813646
 21
-16.9946980128
  0
LINE
  5
36A
100
AcDbEntity
  8
RACCORDO
100
AcDbLine
 62
7
  6
CONTINUOUS
 10
-6.3209220943
 20
-17.551547982
 11
-5.941781639
 21
-17.3605159268
  0
LINE
  5
36B
100
AcDbEntity
  8
0
100
AcDbLine
 62
7
  6
CONTINUOUS
 10
-6.3904295045
 20
-20.7947912087
 11
-6.5318508607
 21
-20.8655018868
  0
LINE
  5
36C
100
AcDbEntity
  8
0
100
AcDbLine
 62
7
  6
CONTINUOUS
 10
-6.0537434391
 20
-20.9631342414
 11
-6.1951647953
 21
-21.0338449196
  0
LINE
  5
36D
100
AcDbEntity
  8
0
100
AcDbLine
 62
7
  6
CONTINUOUS
 10
-5.47903816
 20
-21.250486881
 11
-5.6204595162
 21
-21.3211975591
  0
LINE
  5
36E
100
AcDbEntity
  8
RACCORDO
100
AcDbLine
 62
7
  6
CONTINUOUS
 10
-2.6389568703
 20
-18.1919216842
 11
-3.1289293929
 21
-18.4349516675
  0
LINE
  5
36F
100
AcDbEntity
  8
RACCORDO
100
AcDbLine
 62
7
  6
CONTINUOUS
 10
-2.4268571447
 20
-18.5577395982
 11
-2.7319251015
 21
-18.7090555537
  0
LINE
  5
370
100
AcDbEntity
  8
RACCORDO
100
AcDbLine
 62
7
  6
CONTINUOUS
 10
-4.3067333565
 20
-17.412038243
 11
-4.7579669699
 21
-17.620432879
  0
LINE
  5
371
100
AcDbEntity
  8
RACCORDO
100
AcDbLine
 62
7
  6
CONTINUOUS
 10
-4.177247529
 20
-17.4227763549
 11
-4.684628929
 21
-17.6571018995
  0
LINE
  5
372
100
AcDbEntity
  8
DRAFT
100
AcDbLine
 62
7
  6
CONTINUOUS
 10
-6.4170082342
 20
-17.503504912
 11
-6.953599893
 21
-17.737358984
  0
LINE
  5
373
100
AcDbEntity
  8
RACCORDO
100
AcDbLine
 62
7
  6
CONTINUOUS
 10
-27.4100763667
 20
30.5458795512
 11
20.6009821001
 21
6.5403503178
  0
LINE
  5
374
100
AcDbEntity
  8
RACCORDO
100
AcDbLine
 62
7
  6
CONTINUOUS
 10
-27.4880443224
 20
30.7081416913
 11
20.5230141379
 21
6.7026124612
  0
LWPOLYLINE
  5
375
100
AcDbEntity
  8
RACCORDO
100
AcDbPolyline
 62
7
  6
CONTINUOUS
 90
22
 70
0
 10
20.6010135453
 20
6.540334419
 10
20.6076270474
 20
6.5368490871
 10
20.6210733255
 20
6.5287435355
 10
20.6362251097
 20
6.5181071079
 10
20.6525489813
 20
6.5049582637
 10
20.6696989326
 20
6.4892796393
 10
20.6873419285
 20
6.4711086019
 10
20.7050379014
 20
6.4506740168
 10
20.7224431326
 20
6.4282091822
 10
20.7393097082
 20
6.4039024975
 10
20.7554247694
 20
6.37793774
 10
20.77054658
 20
6.3506083153
 10
20.78447921
 20
6.3222122438
 10
20.7971101928
 20
6.2929255965
 10
20.8082816365
 20
6.2630734892
 10
20.817870961
 20
6.2329950186
 10
20.8258230142
 20
6.2029050777
 10
20.8320718291
 20
6.1731145408
 10
20.836569972
 20
6.1440004155
 10
20.8393139228
 20
6.1159599636
 10
20.8403537242
 20
6.0893846587
 10
20.8403683418
 20
6.0860772761
  0
LINE
  5
376
100
AcDbEntity
  8
RACCORDO
100
AcDbLine
 62
7
  6
CONTINUOUS
 10
20.840368944
 20
6.085945223
 11
20.840368944
 21
-33.7058691476
  0
LINE
  5
377
100
AcDbEntity
  8
RACCORDO
100
AcDbLine
 62
7
  6
CONTINUOUS
 10
20.9282369097
 20
5.9798792058
 11
20.9282369097
 21
-33.8119351861
  0
LWPOLYLINE
  5
378
100
AcDbEntity
  8
RACCORDO
100
AcDbPolyline
 62
7
  6
CONTINUOUS
 90
8
 70
0
 10
20.8403685184
 20
-33.7060073484
 10
20.8402276576
 20
-33.7164590749
 10
20.8393294094
 20
-33.7338473882
 10
20.8376594629
 20
-33.7497868702
 10
20.8353516358
 20
-33.7638467131
 10
20.832709778
 20
-33.7752998749
 10
20.8300721988
 20
-33.7839380876
 10
20.8295731965
 20
-33.7853346843
  0
LINE
  5
379
100
AcDbEntity
  8
ASSI
100
AcDbLine
 62
7
  6
CONTINUOUS
 10
5.2502536554
 20
-21.896448619
 11
5.504958529
 21
-21.7118525681
  0
LINE
  5
37A
100
AcDbEntity
  8
0
100
AcDbLine
 62
7
  6
CONTINUOUS
 10
5.505152608
 20
-21.2559927776
 11
4.0875547497
 21
-22.0431937388
  0
LINE
  5
37B
100
AcDbEntity
  8
RACCORDO
100
AcDbLine
 62
7
  6
CONTINUOUS
 10
2.0031104908
 20
-21.0612698445
 11
1.4374250659
 21
-21.3562057807
  0
LINE
  5
37C
100
AcDbEntity
  8
RACCORDO
100
AcDbLine
 62
7
  6
CONTINUOUS
 10
2.1389838182
 20
-21.0689082731
 11
1.5732983932
 21
-21.3638442093
  0
LINE
  5
37D
100
AcDbEntity
  8
ASSI
100
AcDbLine
 62
7
  6
CONTINUOUS
 10
5.2502536554
 20
-21.896448619
 11
4.4922765903
 21
-22.2826820592
  0
LINE
  5
37E
100
AcDbEntity
  8
RACCORDO
100
AcDbLine
 62
7
  6
CONTINUOUS
 10
3.8076844338
 20
-22.4810372295
 11
4.3832439345
 21
-22.1910383313
  0
LINE
  5
37F
100
AcDbEntity
  8
0
100
AcDbLine
 62
7
  6
CONTINUOUS
 10
-5.169313369
 20
-21.4053492765
 11
-5.3107347253
 21
-21.4760599546
  0
LINE
  5
380
100
AcDbEntity
  8
0
100
AcDbLine
 62
7
  6
CONTINUOUS
 10
-5.0542960871
 20
-21.4627487982
 11
-5.1957174433
 21
-21.5334594763
  0
LINE
  5
381
100
AcDbEntity
  8
0
100
AcDbLine
 62
7
  6
CONTINUOUS
 10
-4.7443598712
 20
-21.6177169062
 11
-4.8857812274
 21
-21.6884275843
  0
LINE
  5
382
100
AcDbEntity
  8
0
100
AcDbLine
 62
7
  6
CONTINUOUS
 10
-4.4434428023
 20
-21.7682845598
 11
-4.5848641585
 21
-21.8389952379
  0
LINE
  5
383
100
AcDbEntity
  8
0
100
AcDbLine
 62
7
  6
CONTINUOUS
 10
-4.1337632662
 20
-21.9231243279
 11
-4.2751846224
 21
-21.993835006
  0
LINE
  5
384
100
AcDbEntity
  8
0
100
AcDbLine
 62
7
  6
CONTINUOUS
 10
-5.6465878189
 20
-22.985212113
 11
-5.7880091751
 21
-23.0559227911
  0
LINE
  5
385
100
AcDbEntity
  8
0
100
AcDbLine
 62
7
  6
CONTINUOUS
 10
-3.5171647387
 20
-22.2314235916
 11
-3.658586095
 21
-22.3021342697
  0
LINE
  5
386
100
AcDbEntity
  8
0
100
AcDbLine
 62
7
  6
CONTINUOUS
 10
-3.2105137409
 20
-22.3847490905
 11
-3.3519350972
 21
-22.4554597686
  0
LINE
  5
387
100
AcDbEntity
  8
0
100
AcDbLine
 62
7
  6
CONTINUOUS
 10
-4.7443598712
 20
-23.4363260868
 11
-4.8857812274
 21
-23.5070367649
  0
LINE
  5
388
100
AcDbEntity
  8
0
100
AcDbLine
 62
7
  6
CONTINUOUS
 10
-2.557272233
 20
-22.7113698445
 11
-2.6986935893
 21
-22.7820805226
  0
LINE
  5
389
100
AcDbEntity
  8
0
100
AcDbLine
 62
7
  6
CONTINUOUS
 10
-4.2810041112
 20
-23.6680039668
 11
-4.4224254674
 21
-23.7387146449
  0
LINE
  5
38A
100
AcDbEntity
  8
0
100
AcDbLine
 62
7
  6
CONTINUOUS
 10
-2.257446937
 20
-22.8612824925
 11
-2.3988682932
 21
-22.9319931706
  0
LINE
  5
38B
100
AcDbEntity
  8
0
100
AcDbLine
 62
7
  6
CONTINUOUS
 10
-3.8070594271
 20
-23.9049763088
 11
-3.9484807834
 21
-23.975686987
  0
LINE
  5
38C
100
AcDbEntity
  8
0
100
AcDbLine
 62
7
  6
CONTINUOUS
 10
-1.710861261
 20
-23.1558213911
 11
-1.8522826172
 21
-23.2265320693
  0
LINE
  5
38D
100
AcDbEntity
  8
0
100
AcDbLine
 62
7
  6
CONTINUOUS
 10
-2.5675047753
 20
-23.8807996612
 11
-2.7089261315
 21
-23.9515103393
  0
LINE
  5
38E
100
AcDbEntity
  8
0
100
AcDbLine
 62
7
  6
CONTINUOUS
 10
-3.1476664123
 20
-24.3106708539
 11
-3.213089731
 21
-24.3433825132
  0
LINE
  5
38F
100
AcDbEntity
  8
0
100
AcDbLine
 62
7
  6
CONTINUOUS
 10
-0.945986895
 20
-23.5574045592
 11
-1.0874082513
 21
-23.6281152373
  0
LINE
  5
390
100
AcDbEntity
  8
0
100
AcDbLine
 62
7
  6
CONTINUOUS
 10
-2.7164271202
 20
-24.4502924623
 11
-2.8578484765
 21
-24.5210031404
  0
LINE
  5
391
100
AcDbEntity
  8
0
100
AcDbLine
 62
7
  6
CONTINUOUS
 10
-1.4124494714
 20
-24.0927945685
 11
-1.5538708277
 21
-24.1635052467
  0
LINE
  5
392
100
AcDbEntity
  8
0
100
AcDbLine
 62
7
  6
CONTINUOUS
 10
-1.235324187
 20
-24.1813572108
 11
-1.3767455433
 21
-24.2520678889
  0
LINE
  5
393
100
AcDbEntity
  8
0
100
AcDbLine
 62
7
  6
CONTINUOUS
 10
-1.8522826172
 20
-24.9327737368
 11
-1.9432949505
 21
-24.9782799034
  0
LINE
  5
394
100
AcDbEntity
  8
0
100
AcDbLine
 62
7
  6
CONTINUOUS
 10
-1.0511543578
 20
-24.5711923587
 11
-1.0554526587
 21
-24.5733415092
  0
LINE
  5
395
100
AcDbEntity
  8
0
100
AcDbLine
 62
7
  6
CONTINUOUS
 10
-1.0124213709
 20
-24.5559031172
 11
-0.8710000146
 21
-24.4851924391
  0
LINE
  5
396
100
AcDbEntity
  8
0
100
AcDbLine
 62
7
  6
CONTINUOUS
 10
-1.4021724638
 20
-25.107420135
 11
-1.54359382
 21
-25.1781308131
  0
LINE
  5
397
100
AcDbEntity
  8
0
100
AcDbLine
 62
7
  6
CONTINUOUS
 10
-0.7353806117
 20
-24.9486251502
 11
-0.876801968
 21
-25.0193358284
  0
LINE
  5
398
100
AcDbEntity
  8
ASSI
100
AcDbLine
 62
7
  6
CONTINUOUS
 10
5.5121661379
 20
-21.6778590866
 11
4.4268018414
 21
-22.2185922331
  0
LINE
  5
399
100
AcDbEntity
  8
0
100
AcDbLine
 62
7
  6
CONTINUOUS
 10
1.2476887625
 20
-19.1272608548
 11
-1.0766512243
 21
-20.173683417
  0
LINE
  5
39A
100
AcDbEntity
  8
RACCORDO
100
AcDbLine
 62
7
  6
CONTINUOUS
 10
22.297888088
 20
7.8802434984
 11
-29.2652016181
 21
33.6617883515
  0
LINE
  5
39B
100
AcDbEntity
  8
RACCORDO
100
AcDbLine
 62
7
  6
CONTINUOUS
 10
22.5063179079
 20
8.2442264595
 11
-29.0544884526
 21
34.0246296398
  0
LINE
  5
39C
100
AcDbEntity
  8
RACCORDO
100
AcDbLine
 62
7
  6
CONTINUOUS
 10
22.7978644951
 20
8.3911238507
 11
-28.772945186
 21
34.1765286912
  0
LINE
  5
39D
100
AcDbEntity
  8
RACCORDO
100
AcDbLine
 62
7
  6
CONTINUOUS
 10
22.5806877221
 20
-36.8769930725
 11
22.5806877221
 21
7.3924862798
  0
LINE
  5
39E
100
AcDbEntity
  8
RACCORDO
100
AcDbLine
 62
7
  6
CONTINUOUS
 10
23.0012172676
 20
-36.8788280254
 11
23.0012172676
 21
7.3906513269
  0
LINE
  5
39F
100
AcDbEntity
  8
RACCORDO
100
AcDbLine
 62
7
  6
CONTINUOUS
 10
23.2927638549
 20
-36.7441821499
 11
23.2927638549
 21
7.537548718
  0
LINE
  5
3A0
100
AcDbEntity
  8
SMUSSO
100
AcDbLine
 62
7
  6
CONTINUOUS
 10
40.8540112491
 20
24.9195166565
 11
41.1884428827
 21
25.4999159657
  0
LINE
  5
3A1
100
AcDbEntity
  8
ASSI
100
AcDbLine
 62
7
  6
CONTINUOUS
 10
14.9476695844
 20
-28.1858438213
 11
14.9729718967
 21
-28.1422037879
  0
LINE
  5
3A2
100
AcDbEntity
  8
ASSI
100
AcDbLine
 62
7
  6
CONTINUOUS
 10
15.2311741138
 20
-28.1298835402
 11
15.3265252873
 21
-27.9654270926
  0
LINE
  5
3A3
100
AcDbEntity
  8
RACCORDO
100
AcDbLine
 62
7
  6
CONTINUOUS
 10
5.1326759125
 20
-22.6997330925
 11
4.2294824702
 21
-23.1870266754
  0
LINE
  5
3A4
100
AcDbEntity
  8
RACCORDO
100
AcDbLine
 62
7
  6
CONTINUOUS
 10
5.2699694983
 20
-22.7066234442
 11
4.366776056
 21
-23.1939170272
  0
LINE
  5
3A5
100
AcDbEntity
  8
RACCORDO
100
AcDbLine
 62
7
  6
CONTINUOUS
 10
4.1442582673
 20
-22.7841381628
 11
4.5953436602
 21
-22.5568562452
  0
LINE
  5
3A6
100
AcDbEntity
  8
RACCORDO
100
AcDbLine
 62
7
  6
CONTINUOUS
 10
8.8207370233
 20
-25.4208975108
 11
9.7560212121
 21
-24.9496493011
  0
LINE
  5
3A7
100
AcDbEntity
  8
RACCORDO
100
AcDbLine
 62
7
  6
CONTINUOUS
 10
9.5889804824
 20
-25.5064992703
 11
9.9681209377
 21
-25.3154672151
  0
LINE
  5
3A8
100
AcDbEntity
  8
DRAFT
100
AcDbLine
 62
7
  6
CONTINUOUS
 10
4.5910567654
 20
-22.5037345098
 11
4.9063995207
 21
-22.3451919465
  0
LINE
  5
3A9
100
AcDbEntity
  8
DRAFT
100
AcDbLine
 62
7
  6
CONTINUOUS
 10
4.5762906096
 20
-22.4400238856
 11
4.9856984921
 21
-22.2344016878
  0
LINE
  5
3AA
100
AcDbEntity
  8
0
100
AcDbLine
 62
7
  6
CONTINUOUS
 10
-0.6294261104
 20
-25.4937933116
 11
-0.7708474667
 21
-25.5645039898
  0
LINE
  5
3AB
100
AcDbEntity
  8
DRAFT
100
AcDbLine
 62
7
  6
CONTINUOUS
 10
4.1895934836
 20
-22.8068057709
 11
3.6530018248
 21
-23.0406598429
  0
LINE
  5
3AC
100
AcDbEntity
  8
DRAFT
100
AcDbLine
 62
7
  6
CONTINUOUS
 10
9.4928943425
 20
-25.4584562004
 11
8.9563026837
 21
-25.6923102723
  0
LINE
  5
3AD
100
AcDbEntity
  8
SMUSSO
100
AcDbLine
 62
7
  6
CONTINUOUS
 10
41.2065906962
 20
24.2818866353
 11
41.8955227394
 21
24.2803836092
  0
LWPOLYLINE
  5
3AE
100
AcDbEntity
  8
RACCORDO
100
AcDbPolyline
 62
7
  6
CONTINUOUS
 90
6
 70
0
 10
-27.4307179002
 20
30.5538811996
 10
-27.4306806662
 20
30.5538729483
 10
-27.429028277
 20
30.5534883552
 10
-27.4249041791
 20
30.5522300421
 10
-27.4186031764
 20
30.5498167116
 10
-27.4100932784
 20
30.545887795
  0
LWPOLYLINE
  5
3AF
100
AcDbEntity
  8
RACCORDO
100
AcDbPolyline
 62
7
  6
CONTINUOUS
 90
3
 70
0
 10
20.8295731965
 20
-33.7853346843
 10
20.8278121244
 20
-33.7897271713
 10
20.8264955627
 20
-33.792433846
  0
LINE
  5
3B0
100
AcDbEntity
  8
ASSI
100
AcDbLine
 62
7
  6
CONTINUOUS
 10
15.5847275043
 20
-27.9531068449
 11
15.6800786779
 21
-27.7886503973
  0
LINE
  5
3B1
100
AcDbEntity
  8
ASSI
100
AcDbLine
 62
7
  6
CONTINUOUS
 10
15.9382808949
 20
-27.7763301496
 11
16.0336320685
 21
-27.611873702
  0
LINE
  5
3B2
100
AcDbEntity
  8
ASSI
100
AcDbLine
 62
7
  6
CONTINUOUS
 10
16.2918342855
 20
-27.5995534543
 11
16.3871854591
 21
-27.4350970067
  0
LINE
  5
3B3
100
AcDbEntity
  8
ASSI
100
AcDbLine
 62
7
  6
CONTINUOUS
 10
16.6453876761
 20
-27.422776759
 11
16.7407388497
 21
-27.2583203114
  0
LINE
  5
3B4
100
AcDbEntity
  8
ASSI
100
AcDbLine
 62
7
  6
CONTINUOUS
 10
16.9989410667
 20
-27.2460000637
 11
17.0942922403
 21
-27.0815436161
  0
LINE
  5
3B5
100
AcDbEntity
  8
ASSI
100
AcDbLine
 62
7
  6
CONTINUOUS
 10
19.5463295107
 20
-29.7725811193
 11
19.5691659744
 21
-29.7331940456
  0
LINE
  5
3B6
100
AcDbEntity
  8
ASSI
100
AcDbLine
 62
7
  6
CONTINUOUS
 10
19.8166533478
 20
-29.7393541695
 11
19.922719365
 21
-29.5564173503
  0
LINE
  5
3B7
100
AcDbEntity
  8
ASSI
100
AcDbLine
 62
7
  6
CONTINUOUS
 10
20.1702067384
 20
-29.5625774742
 11
20.2762727556
 21
-29.379640655
  0
LINE
  5
3B8
100
AcDbEntity
  8
ASSI
100
AcDbLine
 62
7
  6
CONTINUOUS
 10
20.523760129
 20
-29.3858007789
 11
20.6298261462
 21
-29.2028639597
  0
LINE
  5
3B9
100
AcDbEntity
  8
RACCORDO
100
AcDbLine
 62
7
  6
CONTINUOUS
 10
10.0910631973
 20
-25.6844830523
 11
10.6468745464
 21
-25.3846100782
  0
LINE
  5
3BA
100
AcDbEntity
  8
RACCORDO
100
AcDbLine
 62
7
  6
CONTINUOUS
 10
10.228356783
 20
-25.6913734041
 11
10.7841681321
 21
-25.39150043
  0
LINE
  5
3BB
100
AcDbEntity
  8
RACCORDO
100
AcDbLine
 62
7
  6
CONTINUOUS
 10
12.4627428235
 20
-26.8085664244
 11
13.0284282485
 21
-26.5136304882
  0
LINE
  5
3BC
100
AcDbEntity
  8
RACCORDO
100
AcDbLine
 62
7
  6
CONTINUOUS
 10
12.7972910255
 20
-27.1106545419
 11
13.2405602828
 21
-26.8795437025
  0
LINE
  5
3BD
100
AcDbEntity
  8
ASSI
100
AcDbLine
 62
7
  6
CONTINUOUS
 10
14.9729718967
 20
-28.1422037879
 11
15.114393253
 21
-28.0714931098
  0
LINE
  5
3BE
100
AcDbEntity
  8
ASSI
100
AcDbLine
 62
7
  6
CONTINUOUS
 10
15.3265252873
 20
-27.9654270926
 11
15.4679466435
 21
-27.8947164145
  0
LINE
  5
3BF
100
AcDbEntity
  8
ASSI
100
AcDbLine
 62
7
  6
CONTINUOUS
 10
15.6800786779
 20
-27.7886503973
 11
15.8215000341
 21
-27.7179397192
  0
LINE
  5
3C0
100
AcDbEntity
  8
ASSI
100
AcDbLine
 62
7
  6
CONTINUOUS
 10
16.0336320685
 20
-27.611873702
 11
16.1750534247
 21
-27.5411630239
  0
LINE
  5
3C1
100
AcDbEntity
  8
ASSI
100
AcDbLine
 62
7
  6
CONTINUOUS
 10
16.3871854591
 20
-27.4350970067
 11
16.5286068153
 21
-27.3643863286
  0
LINE
  5
3C2
100
AcDbEntity
  8
ASSI
100
AcDbLine
 62
7
  6
CONTINUOUS
 10
16.7407388497
 20
-27.2583203114
 11
16.8821602059
 21
-27.1876096333
  0
LINE
  5
3C3
100
AcDbEntity
  8
ASSI
100
AcDbLine
 62
7
  6
CONTINUOUS
 10
17.0942922403
 20
-27.0815436161
 11
17.2357135965
 21
-27.010832938
  0
LINE
  5
3C4
100
AcDbEntity
  8
ASSI
100
AcDbLine
 62
7
  6
CONTINUOUS
 10
17.1575913392
 20
-26.9956096027
 11
14.7421101652
 21
-28.0830641117
  0
LINE
  5
3C5
100
AcDbEntity
  8
RACCORDO
100
AcDbLine
 62
7
  6
CONTINUOUS
 10
-27.0388366836
 20
30.3602597097
 11
-27.5090621289
 21
30.3738246364
  0
LINE
  5
3C6
100
AcDbEntity
  8
RACCORDO
100
AcDbLine
 62
7
  6
CONTINUOUS
 10
-27.4282595098
 20
30.553709335
 11
-27.4281818854
 21
30.5537070931
  0
LINE
  5
3C7
100
AcDbEntity
  8
SMUSSO
100
AcDbLine
 62
7
  6
CONTINUOUS
 10
34.4891190575
 20
-60.9046882951
 11
34.4891190575
 21
20.5016996607
  0
LINE
  5
3C8
100
AcDbEntity
  8
RACCORDO
100
AcDbLine
 62
7
  6
CONTINUOUS
 10
20.8266503321
 20
-33.792225806
 11
20.827862541
 21
-33.7905883896
  0
LINE
  5
3C9
100
AcDbEntity
  8
RACCORDO
100
AcDbLine
 62
7
  6
CONTINUOUS
 10
20.6625830707
 20
-33.8155122261
 11
20.840368944
 21
-33.5924465445
  0
LINE
  5
3CA
100
AcDbEntity
  8
ASSI
100
AcDbLine
 62
7
  6
CONTINUOUS
 10
20.840368944
 20
-29.443468391
 11
19.9153934328
 21
-29.9571130804
  0
LINE
  5
3CB
100
AcDbEntity
  8
RACCORDO
100
AcDbLine
 62
7
  6
CONTINUOUS
 10
17.9130130675
 20
-29.0162211329
 11
17.3473276426
 21
-29.3111570691
  0
LINE
  5
3CC
100
AcDbEntity
  8
RACCORDO
100
AcDbLine
 62
7
  6
CONTINUOUS
 10
18.0488863949
 20
-29.0238595614
 11
17.4832009699
 21
-29.3187954976
  0
LINE
  5
3CD
100
AcDbEntity
  8
ASSI
100
AcDbLine
 62
7
  6
CONTINUOUS
 10
20.840368944
 20
-30.014350147
 11
20.4389550552
 21
-30.2188938916
  0
LINE
  5
3CE
100
AcDbEntity
  8
DRAFT
100
AcDbLine
 62
7
  6
CONTINUOUS
 10
20.7091738787
 20
-30.3540033033
 11
20.8163020974
 21
-30.3001432348
  0
LINE
  5
3CF
100
AcDbEntity
  8
DRAFT
100
AcDbLine
 62
7
  6
CONTINUOUS
 10
20.6383142125
 20
-30.3185734702
 11
20.840368944
 21
-30.217092918
  0
LINE
  5
3D0
100
AcDbEntity
  8
ASSI
100
AcDbLine
 62
7
  6
CONTINUOUS
 10
19.5691659744
 20
-29.7331940456
 11
19.7105873307
 21
-29.6624833675
  0
LINE
  5
3D1
100
AcDbEntity
  8
ASSI
100
AcDbLine
 62
7
  6
CONTINUOUS
 10
19.922719365
 20
-29.5564173503
 11
20.0641407213
 21
-29.4857066722
  0
LINE
  5
3D2
100
AcDbEntity
  8
ASSI
100
AcDbLine
 62
7
  6
CONTINUOUS
 10
20.2762727556
 20
-29.379640655
 11
20.4176941119
 21
-29.3089299769
  0
LINE
  5
3D3
100
AcDbEntity
  8
ASSI
100
AcDbLine
 62
7
  6
CONTINUOUS
 10
20.6298261462
 20
-29.2028639597
 11
20.7712475024
 21
-29.1321532816
  0
LINE
  5
3D4
100
AcDbEntity
  8
ASSI
100
AcDbLine
 62
7
  6
CONTINUOUS
 10
20.840368944
 20
-29.2274963714
 11
19.6482644794
 21
-29.8235486037
  0
LINE
  5
3D5
100
AcDbEntity
  8
ASSI
100
AcDbLine
 62
7
  6
CONTINUOUS
 10
20.840368944
 20
-29.9226156949
 11
20.3424897553
 21
-30.1706612416
  0
LINE
  5
3D6
100
AcDbEntity
  8
SMUSSO
100
AcDbLine
 62
7
  6
CONTINUOUS
 10
34.4891190575
 20
20.5016996607
 11
-40.4641997483
 21
57.9783590636
  0
LINE
  5
3D7
100
AcDbEntity
  8
SMUSSO
100
AcDbLine
 62
7
  6
CONTINUOUS
 10
40.145973307
 20
-66.6490288764
 11
40.145973307
 21
23.4176131172
  0
LINE
  5
3D8
100
AcDbEntity
  8
SMUSSO
100
AcDbLine
 62
7
  6
CONTINUOUS
 10
41.2066334787
 20
24.3014965937
 11
41.2066334787
 21
-66.1186987905
  0
LINE
  5
3D9
100
AcDbEntity
  8
SMUSSO
100
AcDbLine
 62
7
  6
CONTINUOUS
 10
41.8955227394
 20
-65.6551311412
 11
41.8955227394
 21
24.2803836092
  0
LINE
  5
3DA
100
AcDbEntity
  8
SMUSSO
100
AcDbLine
 62
7
  6
CONTINUOUS
 10
43.2925984832
 20
25.6826272262
 11
43.2925984832
 21
-64.9834829084
  0
LINE
  5
3DB
100
AcDbEntity
  8
RACCORDO
100
AcDbLine
 62
7
  6
CONTINUOUS
 10
23.0012172676
 20
-36.8788280254
 11
23.2927638549
 21
-36.7441821499
  0
LINE
  5
3DC
100
AcDbEntity
  8
SMUSSO
100
AcDbLine
 62
7
  6
CONTINUOUS
 10
39.4388665258
 20
24.6371919116
 11
-42.5855200919
 21
65.6493852204
  0
LINE
  5
3DD
100
AcDbEntity
  8
SMUSSO
100
AcDbLine
 62
7
  6
CONTINUOUS
 10
-41.5248599201
 20
66.1797153063
 11
40.4995266976
 21
25.1675219975
  0
LINE
  5
3DE
100
AcDbEntity
  8
SMUSSO
100
AcDbLine
 62
7
  6
CONTINUOUS
 10
41.1884428827
 20
25.4999159657
 11
-40.7288787892
 21
66.4585768016
  0
LINE
  5
3DF
100
AcDbEntity
  8
SMUSSO
100
AcDbLine
 62
7
  6
CONTINUOUS
 10
-39.3559762793
 20
67.1719176957
 11
42.5855186265
 21
26.2011702428
  0
LINE
  5
3E0
100
AcDbEntity
  8
RACCORDO
100
AcDbLine
 62
7
  6
CONTINUOUS
 10
22.81048009
 20
-37.2616225251
 11
23.1034433843
 21
-37.1263223673
  0
LINE
  5
3E1
100
AcDbEntity
  8
SMUSSO
100
AcDbLine
 62
7
  6
CONTINUOUS
 10
43.2877376623
 20
25.692363237
 11
42.7197369977
 21
26.1169817837
  0
LINE
  5
3E2
100
AcDbEntity
  8
SMUSSO
100
AcDbLine
 62
7
  6
CONTINUOUS
 10
40.9237907663
 20
24.8671820186
 11
40.6409480538
 21
25.079314053
  0
LINE
  5
3E3
100
AcDbEntity
  8
SMUSSO
100
AcDbLine
 62
7
  6
CONTINUOUS
 10
40.145973307
 20
-66.6490288764
 11
41.2066334787
 21
-66.1186987905
  0
LINE
  5
3E4
100
AcDbEntity
  8
RACCORDO
100
AcDbLine
 62
7
  6
CONTINUOUS
 10
39.8720955533
 20
-67.1968949608
 11
40.9467402931
 21
-66.6595725909
  0
LINE
  5
3E5
100
AcDbEntity
  8
SMUSSO
100
AcDbLine
 62
7
  6
CONTINUOUS
 10
41.8955227394
 20
-65.6551311412
 11
43.2925984832
 21
-64.9834829084
  0
LINE
  5
3E6
100
AcDbEntity
  8
RACCORDO
100
AcDbLine
 62
7
  6
CONTINUOUS
 10
41.6291406852
 20
-66.1991656809
 11
43.0249926574
 21
-65.52810578
  0
ARC
  5
3E7
100
AcDbEntity
  8
SMUSSO
100
AcDbCircle
 62
7
  6
CONTINUOUS
 10
41.5288814277
 20
-65.4943658646
 40
0.7543902757
100
AcDbArc
 50
244.5800893031
 51
246.6091317421
  0
ARC
  5
3E8
100
AcDbEntity
  8
IMPORT_IGES
100
AcDbCircle
 62
7
  6
CONTINUOUS
 10
-1.0176359541
 20
-23.7214150698
 40
0.5088565022
100
AcDbArc
 50
244.6720486628
 51
247.0404098965
  0
ARC
  5
3E9
100
AcDbEntity
  8
DRAFT
100
AcDbCircle
 62
7
  6
CONTINUOUS
 10
12.9414680334
 20
-26.9753757155
 40
0.4314429704
100
AcDbArc
 50
63.4232082474
 51
65.9709728105
  0
ARC
  5
3EA
100
AcDbEntity
  8
0
100
AcDbCircle
 62
7
  6
CONTINUOUS
 10
-1.2770936255
 20
-24.7974019782
 40
0.3151631512
100
AcDbArc
 50
42.2335523255
 51
45.311028618
  0
ARC
  5
3EB
100
AcDbEntity
  8
RACCORDO
100
AcDbCircle
 62
7
  6
CONTINUOUS
 10
-21.3256812362
 20
10.9464723032
 40
0.3022061597
100
AcDbArc
 50
298.4212682617
 51
318.2487470835
  0
ARC
  5
3EC
100
AcDbEntity
  8
RACCORDO
100
AcDbCircle
 62
7
  6
CONTINUOUS
 10
-2.6426454364
 20
-18.4535368183
 40
0.2999860174
100
AcDbArc
 50
359.9999783173
 51
63.4464442407
  0
ARC
  5
3ED
100
AcDbEntity
  8
RACCORDO
100
AcDbCircle
 62
7
  6
CONTINUOUS
 10
-21.3242794997
 20
16.3451067987
 40
0.2999860174
100
AcDbArc
 50
359.9999783172
 51
63.4464442407
  0
ARC
  5
3EE
100
AcDbEntity
  8
RACCORDO
100
AcDbCircle
 62
7
  6
CONTINUOUS
 10
-21.3242268423
 20
10.944758565
 40
0.2999338858
100
AcDbArc
 50
318.3283552134
 51
359.99400452
  0
ARC
  5
3EF
100
AcDbEntity
  8
RACCORDO
100
AcDbCircle
 62
7
  6
CONTINUOUS
 10
-4.1809727792
 20
-17.684290414
 40
0.2998949273
100
AcDbArc
 50
63.4695635946
 51
114.7934812241
  0
ARC
  5
3F0
100
AcDbEntity
  8
RACCORDO
100
AcDbCircle
 62
7
  6
CONTINUOUS
 10
-21.6324952344
 20
16.499297399
 40
0.2998949273
100
AcDbArc
 50
63.4695635946
 51
114.7934812241
  0
ARC
  5
3F1
100
AcDbEntity
  8
RACCORDO
100
AcDbCircle
 62
7
  6
CONTINUOUS
 10
-25.7332959834
 20
-8.557693379
 40
0.1745908128
100
AcDbArc
 50
236.3114053074
 51
243.5817777084
  0
ARC
  5
3F2
100
AcDbEntity
  8
DRAFT
100
AcDbCircle
 62
7
  6
CONTINUOUS
 10
20.7582785041
 20
-30.1850254242
 40
0.1289093642
100
AcDbArc
 50
296.7594766855
 51
309.6601179862
  0
ARC
  5
3F3
100
AcDbEntity
  8
RACCORDO
100
AcDbCircle
 62
7
  6
CONTINUOUS
 10
-25.890890767
 20
-8.3058596639
 40
0.109854304
100
AcDbArc
 50
179.9827580498
 51
186.2735824963
  0
ARC
  5
3F4
100
AcDbEntity
  8
ASSI
100
AcDbCircle
 62
7
  6
CONTINUOUS
 10
-14.6221282532
 20
-11.1637550563
 40
0.0874961196
100
AcDbArc
 50
105.0618690741
 51
111.6611297249
  0
ARC
  5
3F5
100
AcDbEntity
  8
ASSI
100
AcDbCircle
 62
7
  6
CONTINUOUS
 10
17.1976769002
 20
-27.073657633
 40
0.0874961196
100
AcDbArc
 50
105.0618690741
 51
111.661129725
  0
SPLINE
  5
3F6
100
AcDbEntity
  8
0
100
AcDbSpline
 62
7
  6
CONTINUOUS
 70
0
 71
3
 72
11
 73
7
 74
5
 42
0.0000001
 43
0.0000001
 44
0.0000000001
 12
0.3138156219
 22
-0.2015300707
 32
0.0
 13
0.0047321734
 23
-0.3729238803
 33
0.0
 40
0.0
 40
0.0
 40
0.0
 40
0.0
 40
0.2339806254
 40
0.4918424311
 40
0.7556842856
 40
1.0
 40
1.0
 40
1.0
 40
1.0
 10
-1.3110639961
 20
-23.7749899878
 30
0.0
 10
-1.2865884042
 20
-23.7907080318
 30
0.0
 10
-1.2398449819
 20
-23.8312105866
 30
0.0
 10
-1.1836932008
 20
-23.907582668
 30
0.0
 10
-1.1473013226
 20
-23.9964378463
 30
0.0
 10
-1.136372814
 20
-24.0594823622
 30
0.0
 10
-1.1359874326
 20
-24.0898527502
 30
0.0
 11
-1.3110639961
 21
-23.7749899878
 31
0.0
 11
-1.2444222104
 21
-23.8313271507
 31
0.0
 11
-1.187553052
 21
-23.9088814979
 31
0.0
 11
-1.1499356442
 21
-23.9998081596
 31
0.0
 11
-1.1359874326
 21
-24.0898527502
 31
0.0
  0
SPLINE
  5
3F7
100
AcDbEntity
  8
0
100
AcDbSpline
 62
7
  6
CONTINUOUS
 70
0
 71
3
 72
9
 73
5
 74
3
 42
0.0000001
 43
0.0000001
 44
0.0000000001
 12
0.0022761671
 22
-0.1818035947
 32
0.0
 13
-0.1324609188
 23
-0.1245465093
 33
0.0
 40
0.0
 40
0.0
 40
0.0
 40
0.0
 40
0.5440472409
 40
1.0
 40
1.0
 40
1.0
 40
1.0
 10
-1.1359874326
 20
-24.0898527502
 30
0.0
 10
-1.1355746517
 20
-24.1228226649
 30
0.0
 10
-1.1418858897
 20
-24.1834202313
 30
0.0
 10
-1.1690647306
 20
-24.2413215674
 30
0.0
 10
-1.1891967044
 20
-24.2602506755
 30
0.0
 11
-1.1359874326
 21
-24.0898527502
 31
0.0
 11
-1.1486184225
 21
-24.1879604923
 31
0.0
 11
-1.1891967044
 21
-24.2602506755
 31
0.0
  0
SPLINE
  5
3F8
100
AcDbEntity
  8
0
100
AcDbSpline
 62
7
  6
CONTINUOUS
 70
0
 71
3
 72
8
 73
4
 74
2
 42
0.0000001
 43
0.0000001
 44
0.0000000001
 12
-0.0187548509
 22
-0.017634267
 32
0.0
 13
-0.0230254101
 23
-0.0115127015
 33
0.0
 40
0.0
 40
0.0
 40
0.0
 40
0.0
 40
1.0
 40
1.0
 40
1.0
 40
1.0
 10
-1.1891967044
 20
-24.2602506755
 30
0.0
 10
-1.1954483213
 20
-24.2661287646
 30
0.0
 10
-1.2025565396
 20
-24.271253653
 30
0.0
 10
-1.2102316763
 20
-24.2750912201
 30
0.0
 11
-1.1891967044
 21
-24.2602506755
 31
0.0
 11
-1.2102316763
 21
-24.2750912201
 31
0.0
  0
SPLINE
  5
3F9
100
AcDbEntity
  8
0
100
AcDbSpline
 62
7
  6
CONTINUOUS
 70
0
 71
3
 72
10
 73
6
 74
4
 42
0.0000001
 43
0.0000001
 44
0.0000000001
 12
0.257046478
 22
-0.0748047261
 32
0.0
 13
0.2252633536
 23
-0.1446549704
 33
0.0
 40
0.0
 40
0.0
 40
0.0
 40
0.0
 40
0.2362920832
 40
0.4814109498
 40
1.0
 40
1.0
 40
1.0
 40
1.0
 10
-1.5538708277
 20
-23.664291414
 30
0.0
 10
-1.5336248118
 20
-23.6701833356
 30
0.0
 10
-1.4925965762
 20
-23.6830530022
 30
0.0
 10
-1.4099012425
 20
-23.7168130967
 30
0.0
 10
-1.3500036989
 20
-23.7499844932
 30
0.0
 10
-1.3110639961
 20
-23.7749899878
 30
0.0
 11
-1.5538708277
 21
-23.664291414
 31
0.0
 11
-1.4936422258
 21
-23.6836320089
 31
0.0
 11
-1.4328515246
 21
-23.7083418457
 31
0.0
 11
-1.3110639961
 21
-23.7749899878
 31
0.0
  0
SPLINE
  5
3FA
100
AcDbEntity
  8
0
100
AcDbSpline
 62
7
  6
CONTINUOUS
 70
0
 71
3
 72
10
 73
6
 74
4
 42
0.0000001
 43
0.0000001
 44
0.0000000001
 12
0.2763115484
 22
-0.1381557742
 32
0.0
 13
0.0793323206
 23
-0.2985656924
 33
0.0
 40
0.0
 40
0.0
 40
0.0
 40
0.0
 40
0.2224105364
 40
0.6042534692
 40
1.0
 40
1.0
 40
1.0
 40
1.0
 10
-1.3774136044
 20
-24.5495602925
 30
0.0
 10
-1.3569287379
 20
-24.5598027258
 30
0.0
 10
-1.3053232398
 20
-24.5962629397
 30
0.0
 10
-1.2443473769
 20
-24.6816603139
 30
0.0
 10
-1.2149622689
 20
-24.7568648089
 30
0.0
 10
-1.2044971054
 20
-24.7962502546
 30
0.0
 11
-1.3774136044
 21
-24.5495602925
 31
0.0
 11
-1.3209391168
 21
-24.5886942551
 31
0.0
 11
-1.2495426885
 21
-24.6825951085
 31
0.0
 11
-1.2044971054
 21
-24.7962502546
 31
0.0
  0
SPLINE
  5
3FB
100
AcDbEntity
  8
0
100
AcDbSpline
 62
7
  6
CONTINUOUS
 70
0
 71
3
 72
9
 73
5
 74
3
 42
0.0000001
 43
0.0000001
 44
0.0000000001
 12
0.1629167104
 22
-0.6125703128
 32
0.0
 13
0.1303220388
 23
-0.6203228263
 33
0.0
 40
0.0
 40
0.0
 40
0.0
 40
0.0
 40
0.5011449125
 40
1.0
 40
1.0
 40
1.0
 40
1.0
 10
-1.2044971054
 20
-24.7962502546
 30
0.0
 10
-1.1772821452
 20
-24.8985790866
 30
0.0
 10
-1.1353514486
 20
-25.1058431551
 30
0.0
 10
-1.0906403671
 20
-25.3122924423
 30
0.0
 10
-1.068969763
 20
-25.4154428416
 30
0.0
 11
-1.2044971054
 21
-24.7962502546
 31
0.0
 11
-1.1345571515
 21
-25.1061131243
 31
0.0
 11
-1.068969763
 21
-25.4154428416
 31
0.0
  0
SPLINE
  5
3FC
100
AcDbEntity
  8
0
100
AcDbSpline
 62
7
  6
CONTINUOUS
 70
0
 71
3
 72
9
 73
5
 74
3
 42
0.0000001
 43
0.0000001
 44
0.0000000001
 12
0.0347599123
 22
-0.0118867917
 32
0.0
 13
0.0336218497
 23
0.0148026531
 33
0.0
 40
0.0
 40
0.0
 40
0.0
 40
0.0
 40
0.5138973552
 40
1.0
 40
1.0
 40
1.0
 40
1.0
 10
-1.0554526587
 20
-24.5625957569
 30
0.0
 10
-1.0494983164
 20
-24.5646319538
 30
0.0
 10
-1.0367534481
 20
-24.5658391745
 30
0.0
 10
-1.0250195809
 20
-24.5616932551
 30
0.0
 10
-1.0195716909
 20
-24.5592947188
 30
0.0
 11
-1.0554526587
 21
-24.5625957569
 31
0.0
 11
-1.036666204
 21
-24.5644590154
 31
0.0
 11
-1.0195716909
 21
-24.5592947188
 31
0.0
  0
LINE
  5
3FD
100
AcDbEntity
  8
0
100
AcDbLine
 62
7
  6
CONTINUOUS
 10
-1.0195716909
 20
-24.5592947188
 11
-1.0124213602
 21
-24.5559031119
  0
SPLINE
  5
3FE
100
AcDbEntity
  8
DRAFT
100
AcDbSpline
 62
7
  6
CONTINUOUS
 70
0
 71
3
 72
13
 73
9
 74
7
 42
0.0000001
 43
0.0000001
 44
0.0000000001
 12
0.9035182848
 22
-0.4517591424
 32
0.0
 13
-0.4391536236
 23
-0.9097118822
 33
0.0
 40
0.0
 40
0.0
 40
0.0
 40
0.0
 40
0.1161805295
 40
0.2440991783
 40
0.5175470948
 40
0.6534764453
 40
0.7817146776
 40
1.0
 40
1.0
 40
1.0
 40
1.0
 10
13.1344942656
 20
-26.5895209366
 30
0.0
 10
13.1694846766
 20
-26.6070161421
 30
0.0
 10
13.2383737535
 20
-26.6533286363
 30
0.0
 10
13.3620118526
 20
-26.7770940178
 30
0.0
 10
13.4564994696
 20
-26.9354868345
 30
0.0
 10
13.5124783131
 20
-27.108466094
 30
0.0
 10
13.5365776083
 20
-27.2689991241
 30
0.0
 10
13.5221240817
 20
-27.3910500678
 30
0.0
 10
13.490170485
 20
-27.4572423183
 30
0.0
 11
13.1344942656
 21
-26.5895209366
 31
0.0
 11
13.232665308
 21
-26.6538338131
 31
0.0
 11
13.3246761639
 21
-26.7445614786
 31
0.0
 11
13.4675808893
 21
-26.9809504613
 31
0.0
 11
13.50949012
 21
-27.1117094584
 31
0.0
 11
13.5277296033
 21
-27.2399606348
 31
0.0
 11
13.490170485
 21
-27.4572423183
 31
0.0
  0
SPLINE
  5
3FF
100
AcDbEntity
  8
0
100
AcDbSpline
 62
7
  6
CONTINUOUS
 70
0
 71
3
 72
9
 73
5
 74
3
 42
0.0000001
 43
0.0000001
 44
0.0000000001
 12
-0.1087199623
 22
0.5446236221
 32
0.0
 13
-0.1090135263
 23
0.5445649374
 33
0.0
 40
0.0
 40
0.0
 40
0.0
 40
0.0
 40
0.4998343578
 40
1.0
 40
1.0
 40
1.0
 40
1.0
 10
-0.7708474667
 20
-25.5645039898
 30
0.0
 10
-0.7889614575
 20
-25.473763457
 30
0.0
 10
-0.8233628251
 20
-25.2918615129
 30
0.0
 10
-0.8586270278
 20
-25.1101267189
 30
0.0
 10
-0.876801968
 20
-25.0193358284
 30
0.0
 11
-0.7708474667
 21
-25.5645039898
 31
0.0
 11
-0.8235669943
 21
-25.291963534
 31
0.0
 11
-0.876801968
 21
-25.0193358284
 31
0.0
  0
SPLINE
  5
400
100
AcDbEntity
  8
0
100
AcDbSpline
 62
7
  6
CONTINUOUS
 70
0
 71
3
 72
11
 73
7
 74
5
 42
0.0000001
 43
0.0000001
 44
0.0000000001
 12
-0.092211274
 22
0.4606533606
 32
0.0
 13
-0.315916029
 23
0.3477089304
 33
0.0
 40
0.0
 40
0.0
 40
0.0
 40
0.0
 40
0.2378420333
 40
0.4941048768
 40
0.7548642424
 40
1.0
 40
1.0
 40
1.0
 40
1.0
 10
-0.876801968
 20
-25.0193358284
 30
0.0
 10
-0.8841125403
 20
-24.9828149177
 30
0.0
 10
-0.8987455931
 20
-24.9068203867
 30
0.0
 10
-0.9301450052
 20
-24.7926367082
 30
0.0
 10
-0.974670039
 20
-24.6816301555
 30
0.0
 10
-1.0179292216
 20
-24.6139756786
 30
0.0
 10
-1.0437433266
 20
-24.5855637146
 30
0.0
 11
-0.876801968
 21
-25.0193358284
 31
0.0
 11
-0.8995717108
 21
-24.9099441868
 31
0.0
 11
-0.9320948501
 21
-24.7940302179
 31
0.0
 11
-0.9792238951
 21
-24.6809561273
 31
0.0
 11
-1.0437433266
 21
-24.5855637146
 31
0.0
  0
SPLINE
  5
401
100
AcDbEntity
  8
0
100
AcDbSpline
 62
7
  6
CONTINUOUS
 70
0
 71
3
 72
11
 73
7
 74
5
 42
0.0000001
 43
0.0000001
 44
0.0000000001
 12
-0.6333494509
 22
0.5969143223
 32
0.0
 13
-0.8289470693
 23
0.2651131674
 33
0.0
 40
0.0
 40
0.0
 40
0.0
 40
0.0
 40
0.2725542141
 40
0.5262218346
 40
0.7671916502
 40
1.0
 40
1.0
 40
1.0
 40
1.0
 10
-1.0874082513
 20
-23.6281152373
 30
0.0
 10
-1.1449489386
 20
-23.5738847326
 30
0.0
 10
-1.26818737
 20
-23.4819872677
 30
0.0
 10
-1.4634246593
 20
-23.3744468354
 30
0.0
 10
-1.6577917504
 20
-23.2914794456
 30
0.0
 10
-1.7879540174
 20
-23.2471055889
 30
0.0
 10
-1.8522826172
 20
-23.2265320693
 30
0.0
 11
-1.0874082513
 21
-23.6281152373
 31
0.0
 11
-1.2754745682
 21
-23.4835539513
 31
0.0
 11
-1.4683092289
 21
-23.3760650218
 31
0.0
 11
-1.6608966923
 21
-23.2930480365
 31
0.0
 11
-1.8522826172
 21
-23.2265320693
 31
0.0
  0
SPLINE
  5
402
100
AcDbEntity
  8
0
100
AcDbSpline
 62
7
  6
CONTINUOUS
 70
0
 71
3
 72
9
 73
5
 74
3
 42
0.0000001
 43
0.0000001
 44
0.0000000001
 12
-0.1087199623
 22
0.5446236221
 32
0.0
 13
-0.1090135263
 23
0.5445649374
 33
0.0
 40
0.0
 40
0.0
 40
0.0
 40
0.0
 40
0.4998343578
 40
1.0
 40
1.0
 40
1.0
 40
1.0
 10
-0.6294261104
 20
-25.4937933116
 30
0.0
 10
-0.6475401013
 20
-25.4030527788
 30
0.0
 10
-0.6819414688
 20
-25.2211508348
 30
0.0
 10
-0.7172056716
 20
-25.0394160408
 30
0.0
 10
-0.7353806117
 20
-24.9486251502
 30
0.0
 11
-0.6294261104
 21
-25.4937933116
 31
0.0
 11
-0.6821456381
 21
-25.2212528559
 31
0.0
 11
-0.7353806117
 21
-24.9486251502
 31
0.0
  0
SPLINE
  5
403
100
AcDbEntity
  8
0
100
AcDbSpline
 62
7
  6
CONTINUOUS
 70
0
 71
3
 72
10
 73
6
 74
4
 42
0.0000001
 43
0.0000001
 44
0.0000000001
 12
-0.0805666263
 22
0.4024810149
 32
0.0
 13
-0.226502216
 23
0.3423137374
 33
0.0
 40
0.0
 40
0.0
 40
0.0
 40
0.0
 40
0.2356173307
 40
0.6171416101
 40
1.0
 40
1.0
 40
1.0
 40
1.0
 10
-0.7353806117
 20
-24.9486251502
 30
0.0
 10
-0.7417082429
 20
-24.9170146494
 30
0.0
 10
-0.7576683621
 20
-24.8340684904
 30
0.0
 10
-0.7937538625
 20
-24.7019564599
 30
0.0
 10
-0.8372149016
 20
-24.6054890853
 30
0.0
 10
-0.8661209929
 20
-24.5618031898
 30
0.0
 11
-0.7353806117
 21
-24.9486251502
 31
0.0
 11
-0.7548147325
 21
-24.8538850899
 31
0.0
 11
-0.7976613534
 21
-24.7032579667
 31
0.0
 11
-0.8661209929
 21
-24.5618031898
 31
0.0
  0
SPLINE
  5
404
100
AcDbEntity
  8
0
100
AcDbSpline
 62
7
  6
CONTINUOUS
 70
0
 71
3
 72
9
 73
5
 74
3
 42
0.0000001
 43
0.0000001
 44
0.0000000001
 12
-0.0399877433
 22
0.0604336422
 32
0.0
 13
-0.0509069424
 23
0.0515725502
 33
0.0
 40
0.0
 40
0.0
 40
0.0
 40
0.0
 40
0.2559331982
 40
1.0
 40
1.0
 40
1.0
 40
1.0
 10
-0.8661209929
 20
-24.5618031898
 30
0.0
 10
-0.8695323899
 20
-24.5566475314
 30
0.0
 10
-0.8832641601
 20
-24.5367780445
 30
0.0
 10
-0.8987522881
 20
-24.5180767531
 30
0.0
 10
-0.9113783434
 20
-24.5052856122
 30
0.0
 11
-0.8661209929
 21
-24.5618031898
 31
0.0
 11
-0.8766762662
 21
-24.5465535276
 31
0.0
 11
-0.9113783434
 21
-24.5052856122
 31
0.0
  0
SPLINE
  5
405
100
AcDbEntity
  8
0
100
AcDbSpline
 62
7
  6
CONTINUOUS
 70
0
 71
3
 72
11
 73
7
 74
5
 42
0.0000001
 43
0.0000001
 44
0.0000000001
 12
-0.6333494509
 22
0.5969143223
 32
0.0
 13
-0.8289470693
 23
0.2651131674
 33
0.0
 40
0.0
 40
0.0
 40
0.0
 40
0.0
 40
0.2725542141
 40
0.5262218346
 40
0.7671916502
 40
1.0
 40
1.0
 40
1.0
 40
1.0
 10
-0.945986895
 20
-23.5574045592
 30
0.0
 10
-1.0035275823
 20
-23.5031740545
 30
0.0
 10
-1.1267660137
 20
-23.4112765895
 30
0.0
 10
-1.322003303
 20
-23.3037361573
 30
0.0
 10
-1.5163703941
 20
-23.2207687675
 30
0.0
 10
-1.6465326612
 20
-23.1763949108
 30
0.0
 10
-1.710861261
 20
-23.1558213911
 30
0.0
 11
-0.945986895
 21
-23.5574045592
 31
0.0
 11
-1.134053212
 21
-23.4128432732
 31
0.0
 11
-1.3268878727
 21
-23.3053543436
 31
0.0
 11
-1.5194753361
 21
-23.2223373583
 31
0.0
 11
-1.710861261
 21
-23.1558213911
 31
0.0
  0
SPLINE
  5
406
100
AcDbEntity
  8
RACCORDO
100
AcDbSpline
 62
7
  6
CONTINUOUS
 70
0
 71
3
 72
9
 73
5
 74
3
 42
0.0000001
 43
0.0000001
 44
0.0000000001
 12
-0.0340063979
 22
-0.0426240762
 32
0.0
 13
-0.0466991697
 23
-0.0281502134
 33
0.0
 40
0.0
 40
0.0
 40
0.0
 40
0.0
 40
0.2626289247
 40
1.0
 40
1.0
 40
1.0
 40
1.0
 10
20.827820495
 20
-33.7906365859
 30
0.0
 10
20.8248434737
 20
-33.7943680243
 30
0.0
 10
20.8130278265
 20
-33.8081670834
 30
0.0
 10
20.7989786526
 20
-33.8202009337
 30
0.0
 10
20.787500447
 20
-33.8271199847
 30
0.0
 11
20.827820495
 21
-33.7906365859
 31
0.0
 11
20.8184831571
 21
-33.801494335
 31
0.0
 11
20.787500447
 21
-33.8271199847
 31
0.0
  0
SPLINE
  5
407
100
AcDbEntity
  8
RACCORDO
100
AcDbSpline
 62
7
  6
CONTINUOUS
 70
0
 71
3
 72
10
 73
6
 74
4
 42
0.0000001
 43
0.0000001
 44
0.0000000001
 12
-0.1137527721
 22
-0.0685700588
 32
0.0
 13
-0.106211844
 23
0.0797533092
 33
0.0
 40
0.0
 40
0.0
 40
0.0
 40
0.0
 40
0.24720322
 40
0.4875713084
 40
1.0
 40
1.0
 40
1.0
 40
1.0
 10
20.787500447
 20
-33.8271199847
 30
0.0
 10
20.7781270964
 20
-33.8327702312
 30
0.0
 10
20.7579151599
 20
-33.8414785847
 30
0.0
 10
20.7129218698
 20
-33.8444846019
 30
0.0
 10
20.6807255864
 20
-33.8291342048
 30
0.0
 10
20.6625835877
 20
-33.8155115769
 30
0.0
 11
20.787500447
 21
-33.8271199847
 31
0.0
 11
20.7571882595
 21
-33.8397388657
 31
0.0
 11
20.7253334931
 21
-33.8418710603
 31
0.0
 11
20.6625835877
 21
-33.8155115769
 31
0.0
  0
SPLINE
  5
408
100
AcDbEntity
  8
RACCORDO
100
AcDbSpline
 62
7
  6
CONTINUOUS
 70
0
 71
3
 72
15
 73
11
 74
9
 42
0.0000001
 43
0.0000001
 44
0.0000000001
 12
0.0000285072
 22
0.4348568678
 32
0.0
 13
0.3889720972
 23
-0.1944253171
 33
0.0
 40
0.0
 40
0.0
 40
0.0
 40
0.0
 40
0.148915674
 40
0.2843869698
 40
0.4071908667
 40
0.5206712078
 40
0.6305281711
 40
0.7435187247
 40
0.865520311
 40
1.0
 40
1.0
 40
1.0
 40
1.0
 10
-29.5457179067
 20
33.4556890942
 30
0.0
 10
-29.5457164916
 20
33.477274762
 30
0.0
 10
-29.5425949766
 20
33.5186142972
 30
0.0
 10
-29.5271238737
 20
33.5759973827
 30
0.0
 10
-29.5013199669
 20
33.623969878
 30
0.0
 10
-29.4656997343
 20
33.6603930318
 30
0.0
 10
-29.421587789
 20
33.6831241914
 30
0.0
 10
-29.3713920665
 20
33.6908174948
 30
0.0
 10
-29.3177497022
 20
33.6837376019
 30
0.0
 10
-29.2826379004
 20
33.6705037702
 30
0.0
 10
-29.2652016181
 20
33.6617883515
 30
0.0
 11
-29.5457179067
 21
33.4556890942
 31
0.0
 11
-29.540340569
 21
33.5202224481
 31
0.0
 11
-29.5244102102
 21
33.5769382769
 31
0.0
 11
-29.4985349534
 21
33.6236529137
 31
0.0
 11
-29.4636978965
 21
33.6586039586
 31
0.0
 11
-29.4212188843
 21
33.6804603711
 31
0.0
 11
-29.3727239037
 21
33.688363371
 31
0.0
 11
-29.3200423628
 21
33.682094382
 31
0.0
 11
-29.2652016181
 21
33.6617883515
 31
0.0
  0
SPLINE
  5
409
100
AcDbEntity
  8
RACCORDO
100
AcDbSpline
 62
7
  6
CONTINUOUS
 70
0
 71
3
 72
11
 73
7
 74
5
 42
0.0000001
 43
0.0000001
 44
0.0000000001
 12
0.407037927
 22
0.1895225457
 32
0.0
 13
0.0027915047
 23
0.4489887269
 33
0.0
 40
0.0
 40
0.0
 40
0.0
 40
0.0
 40
0.2166726031
 40
0.4495053433
 40
0.7094831531
 40
1.0
 40
1.0
 40
1.0
 40
1.0
 10
22.8112411419
 20
-37.2612693697
 30
0.0
 10
22.840639131
 20
-37.2475812552
 30
0.0
 10
22.8965838298
 20
-37.2070933984
 30
0.0
 10
22.9568925846
 20
-37.1176417922
 30
0.0
 10
22.9933551538
 20
-37.0049744552
 30
0.0
 10
23.0009469413
 20
-36.9223076218
 30
0.0
 10
23.0012172676
 20
-36.8788280254
 30
0.0
 11
22.8112411419
 21
-37.2612693697
 31
0.0
 11
22.8904518702
 21
-37.2047882518
 31
0.0
 11
22.9503548987
 21
-37.1191114769
 31
0.0
 11
22.9879117271
 21
-37.0085889518
 31
0.0
 11
23.0012172676
 21
-36.8788280254
 31
0.0
  0
SPLINE
  5
40A
100
AcDbEntity
  8
RACCORDO
100
AcDbSpline
 62
7
  6
CONTINUOUS
 70
0
 71
3
 72
9
 73
5
 74
3
 42
0.0000001
 43
0.0000001
 44
0.0000000001
 12
-0.1260316343
 22
-0.0657101216
 32
0.0
 13
-0.1032641788
 23
-0.0976642324
 33
0.0
 40
0.0
 40
0.0
 40
0.0
 40
0.0
 40
0.2371046482
 40
1.0
 40
1.0
 40
1.0
 40
1.0
 10
-25.6962229089
 20
-8.630627803
 30
0.0
 10
-25.7061838043
 20
-8.6358211948
 30
0.0
 10
-25.7472985228
 20
-8.6594346837
 30
0.0
 10
-25.784715012
 20
-8.6892158632
 30
0.0
 10
-25.8109749327
 20
-8.7140517262
 30
0.0
 11
-25.6962229089
 21
-8.630627803
 31
0.0
 11
-25.7254728767
 21
-8.6473656697
 31
0.0
 11
-25.8109749327
 21
-8.7140517262
 31
0.0
  0
SPLINE
  5
40B
100
AcDbEntity
  8
RACCORDO
100
AcDbSpline
 62
7
  6
CONTINUOUS
 70
0
 71
3
 72
9
 73
5
 74
3
 42
0.0000001
 43
0.0000001
 44
0.0000000001
 12
-0.1370511041
 22
-0.0578504491
 32
0.0
 13
-0.1164663611
 23
-0.0925487241
 33
0.0
 40
0.0
 40
0.0
 40
0.0
 40
0.0
 40
0.239451536
 40
1.0
 40
1.0
 40
1.0
 40
1.0
 10
-25.702947385
 20
-8.6262616014
 30
0.0
 10
-25.7138864175
 20
-8.630879061
 30
0.0
 10
-25.7588150663
 20
-8.65193744
 30
0.0
 10
-25.800552479
 20
-8.6795401445
 30
0.0
 10
-25.830078583
 20
-8.7030027412
 30
0.0
 11
-25.702947385
 21
-8.6262616014
 31
0.0
 11
-25.7352199094
 21
-8.6413392157
 31
0.0
 11
-25.830078583
 21
-8.7030027412
 31
0.0
  0
SPLINE
  5
40C
100
AcDbEntity
  8
RACCORDO
100
AcDbSpline
 62
7
  6
CONTINUOUS
 70
0
 71
3
 72
9
 73
5
 74
3
 42
0.0000001
 43
0.0000001
 44
0.0000000001
 12
-0.0583420856
 22
-0.0361533015
 32
0.0
 13
-0.0621165268
 23
-0.0291958433
 33
0.0
 40
0.0
 40
0.0
 40
0.0
 40
0.0
 40
0.2435064204
 40
1.0
 40
1.0
 40
1.0
 40
1.0
 10
-25.9397168361
 20
-8.2852615688
 30
0.0
 10
-25.9444523936
 20
-8.2881960892
 30
0.0
 10
-25.9640875396
 20
-8.2999428217
 30
0.0
 10
-25.9844286446
 20
-8.3104983622
 30
0.0
 10
-26.0000922292
 20
-8.3178605182
 30
0.0
 11
-25.9397168361
 21
-8.2852615688
 31
0.0
 11
-25.9540568219
 21
-8.2938462666
 31
0.0
 11
-26.0000922292
 21
-8.3178605182
 31
0.0
  0
SPLINE
  5
40D
100
AcDbEntity
  8
RACCORDO
100
AcDbSpline
 62
7
  6
CONTINUOUS
 70
0
 71
3
 72
9
 73
5
 74
3
 42
0.0000001
 43
0.0000001
 44
0.0000000001
 12
-0.0589857866
 22
-0.0284807626
 32
0.0
 13
-0.0618223008
 23
-0.0216443984
 33
0.0
 40
0.0
 40
0.0
 40
0.0
 40
0.0
 40
0.2421759399
 40
1.0
 40
1.0
 40
1.0
 40
1.0
 10
-25.9402040989
 20
-8.2808735446
 30
0.0
 10
-25.944965745
 20
-8.2831726631
 30
0.0
 10
-25.9647749899
 20
-8.2923598546
 30
0.0
 10
-25.985128257
 20
-8.3003590569
 30
0.0
 10
-26.000745066
 20
-8.3058266055
 30
0.0
 11
-25.9402040989
 21
-8.2808735446
 31
0.0
 11
-25.9545922965
 21
-8.287552822
 31
0.0
 11
-26.000745066
 21
-8.3058266055
 31
0.0
  0
SPLINE
  5
40E
100
AcDbEntity
  8
RACCORDO
100
AcDbSpline
 62
7
  6
CONTINUOUS
 70
0
 71
3
 72
11
 73
7
 74
5
 42
0.0000001
 43
0.0000001
 44
0.0000000001
 12
0.5251876529
 22
-0.262645468
 32
0.0
 13
0.0000611188
 23
-0.5872007399
 33
0.0
 40
0.0
 40
0.0
 40
0.0
 40
0.0
 40
0.2296791434
 40
0.4882139181
 40
0.7532029516
 40
1.0
 40
1.0
 40
1.0
 40
1.0
 10
22.297888088
 20
7.8802434984
 30
0.0
 10
22.3380963047
 20
7.8601354364
 30
0.0
 10
22.4149329904
 20
7.8000323153
 30
0.0
 10
22.5036568663
 20
7.680695398
 30
0.0
 10
22.5640224569
 20
7.5411387861
 30
0.0
 10
22.5806826942
 20
7.4407927496
 30
0.0
 10
22.5806877221
 20
7.3924862798
 30
0.0
 11
22.297888088
 21
7.8802434984
 31
0.0
 11
22.4061140563
 21
7.7997670829
 31
0.0
 11
22.4978622527
 21
7.6788162885
 31
0.0
 11
22.5591625847
 21
7.5357981911
 31
0.0
 11
22.5806877221
 21
7.3924862798
 31
0.0
  0
SPLINE
  5
40F
100
AcDbEntity
  8
RACCORDO
100
AcDbSpline
 62
7
  6
CONTINUOUS
 70
0
 71
3
 72
15
 73
11
 74
9
 42
0.0000001
 43
0.0000001
 44
0.0000000001
 12
-0.0000285072
 22
-0.4348568706
 32
0.0
 13
-0.3889720997
 23
0.1944253183
 33
0.0
 40
0.0
 40
0.0
 40
0.0
 40
0.0
 40
0.1489156739
 40
0.2843869695
 40
0.4071908661
 40
0.520671207
 40
0.6305281702
 40
0.7435187239
 40
0.8655203105
 40
1.0
 40
1.0
 40
1.0
 40
1.0
 10
22.5806877221
 20
-36.8769930725
 30
0.0
 10
22.5806863071
 20
-36.8985787405
 30
0.0
 10
22.5775647921
 20
-36.9399182759
 30
0.0
 10
22.562093689
 20
-36.9973013616
 30
0.0
 10
22.5362897819
 20
-37.0452738571
 30
0.0
 10
22.5006695489
 20
-37.0816970108
 30
0.0
 10
22.4565576031
 20
-37.1044281702
 30
0.0
 10
22.4063618802
 20
-37.1121214732
 30
0.0
 10
22.3527195155
 20
-37.1050415798
 30
0.0
 10
22.3176077135
 20
-37.0918077474
 30
0.0
 10
22.3001714311
 20
-37.0830923286
 30
0.0
 11
22.5806877221
 21
-36.8769930725
 31
0.0
 11
22.5753103845
 21
-36.9415264268
 31
0.0
 11
22.5593800255
 21
-36.9982422558
 31
0.0
 11
22.5335047683
 21
-37.0449568927
 31
0.0
 11
22.4986677111
 21
-37.0799079376
 31
0.0
 11
22.4561886985
 21
-37.1017643499
 31
0.0
 11
22.4076937175
 21
-37.1096673494
 31
0.0
 11
22.3550121762
 21
-37.1033983598
 31
0.0
 11
22.3001714311
 21
-37.0830923286
 31
0.0
  0
SPLINE
  5
410
100
AcDbEntity
  8
RACCORDO
100
AcDbSpline
 62
7
  6
CONTINUOUS
 70
0
 71
3
 72
11
 73
7
 74
5
 42
0.0000001
 43
0.0000001
 44
0.0000000001
 12
0.0000149406
 22
-0.1443839658
 32
0.0
 13
0.129140946
 23
-0.0645704723
 33
0.0
 40
0.0
 40
0.0
 40
0.0
 40
0.0
 40
0.2065459792
 40
0.4344524192
 40
0.697695169
 40
1.0
 40
1.0
 40
1.0
 40
1.0
 10
-29.6335725998
 20
-10.7077242561
 30
0.0
 10
-29.6335715711
 20
-10.7176648986
 30
0.0
 10
-29.6292028154
 20
-10.7387379133
 30
0.0
 10
-29.6108579729
 20
-10.7674984026
 30
0.0
 10
-29.5822639931
 20
-10.7932983838
 30
0.0
 10
-29.5587312173
 20
-10.8072836029
 30
0.0
 10
-29.5457179067
 20
-10.8137902581
 30
0.0
 11
-29.6335725998
 21
-10.7077242561
 31
0.0
 11
-29.6278231418
 21
-10.7369867083
 31
0.0
 11
-29.610756629
 21
-10.7651210527
 31
0.0
 11
-29.5829887942
 21
-10.7910740463
 31
0.0
 11
-29.5457179067
 21
-10.8137902581
 31
0.0
  0
SPLINE
  5
411
100
AcDbEntity
  8
RACCORDO
100
AcDbSpline
 62
7
  6
CONTINUOUS
 70
0
 71
3
 72
11
 73
7
 74
5
 42
0.0000001
 43
0.0000001
 44
0.0000000001
 12
0.0000149435
 22
-0.1443839616
 32
0.0
 13
0.1291409438
 23
-0.0645704673
 33
0.0
 40
0.0
 40
0.0
 40
0.0
 40
0.0
 40
0.2065459795
 40
0.4344524194
 40
0.6976951678
 40
1.0
 40
1.0
 40
1.0
 40
1.0
 10
-29.6335725998
 20
33.5617550909
 30
0.0
 10
-29.6335715709
 20
33.5518144487
 30
0.0
 10
-29.629202815
 20
33.5307414346
 30
0.0
 10
-29.6108579721
 20
33.5019809468
 30
0.0
 10
-29.5822639926
 20
33.4761809669
 30
0.0
 10
-29.5587312171
 20
33.4621957489
 30
0.0
 10
-29.5457179067
 20
33.4556890942
 30
0.0
 11
-29.6335725998
 21
33.5617550909
 31
0.0
 11
-29.6278231414
 21
33.5324926397
 31
0.0
 11
-29.6107566283
 21
33.5043582966
 31
0.0
 11
-29.5829887939
 21
33.4784053045
 31
0.0
 11
-29.5457179067
 21
33.4556890942
 31
0.0
  0
SPLINE
  5
412
100
AcDbEntity
  8
RACCORDO
100
AcDbSpline
 62
7
  6
CONTINUOUS
 70
0
 71
3
 72
11
 73
7
 74
5
 42
0.0000001
 43
0.0000001
 44
0.0000000001
 12
-0.1689125333
 22
0.0845958693
 32
0.0
 13
-0.0000000007
 23
0.1889124268
 33
0.0
 40
0.0
 40
0.0
 40
0.0
 40
0.0
 40
0.2171672883
 40
0.4503628529
 40
0.710428482
 40
1.0
 40
1.0
 40
1.0
 40
1.0
 10
22.3758581433
 20
-37.2442085923
 30
0.0
 10
22.3636307177
 20
-37.2380847738
 30
0.0
 10
22.3404850701
 20
-37.2204905934
 30
0.0
 10
22.3156696736
 20
-37.1824444581
 30
0.0
 10
22.3008504879
 20
-37.134924603
 30
0.0
 10
22.2978880881
 20
-37.1001852098
 30
0.0
 10
22.297888088
 20
-37.081950657
 30
0.0
 11
22.3758581433
 21
-37.2442085923
 31
0.0
 11
22.3430328242
 21
-37.2195996867
 31
0.0
 11
22.3183721863
 21
-37.18309534
 31
0.0
 11
22.3030752269
 21
-37.1364078311
 31
0.0
 11
22.297888088
 21
-37.081950657
 31
0.0
  0
SPLINE
  5
413
100
AcDbEntity
  8
RACCORDO
100
AcDbSpline
 62
7
  6
CONTINUOUS
 70
0
 71
3
 72
11
 73
7
 74
5
 42
0.0000001
 43
0.0000001
 44
0.0000000001
 12
-0.1689125355
 22
0.0845958709
 32
0.0
 13
-0.0000000045
 23
0.1889124295
 33
0.0
 40
0.0
 40
0.0
 40
0.0
 40
0.0
 40
0.2171672898
 40
0.450362856
 40
0.7104284838
 40
1.0
 40
1.0
 40
1.0
 40
1.0
 10
-29.1849482138
 20
-11.4638054138
 30
0.0
 10
-29.1971756396
 20
-11.4576815951
 30
0.0
 10
-29.2203212877
 20
-11.4400874143
 30
0.0
 10
-29.2451366849
 20
-11.4020412786
 30
0.0
 10
-29.2599558717
 20
-11.3545214232
 30
0.0
 10
-29.2629182721
 20
-11.3197820297
 30
0.0
 10
-29.2629182725
 20
-11.3015474768
 30
0.0
 11
-29.1849482138
 21
-11.4638054138
 31
0.0
 11
-29.2177735335
 21
-11.4391965076
 31
0.0
 11
-29.2424341723
 21
-11.4026921604
 31
0.0
 11
-29.2577311326
 21
-11.3560046512
 31
0.0
 11
-29.2629182725
 21
-11.3015474768
 31
0.0
  0
SPLINE
  5
414
100
AcDbEntity
  8
RACCORDO
100
AcDbSpline
 62
7
  6
CONTINUOUS
 70
0
 71
3
 72
12
 73
8
 74
6
 42
0.0000001
 43
0.0000001
 44
0.0000000001
 12
-0.5230246963
 22
0.261563777
 32
0.0
 13
-0.0000608662
 23
0.5847823858
 33
0.0
 40
0.0
 40
0.0
 40
0.0
 40
0.0
 40
0.2293635132
 40
0.4875027313
 40
0.7523004129
 40
0.8797660388
 40
1.0
 40
1.0
 40
1.0
 40
1.0
 10
-29.2629182725
 20
-11.3015474768
 30
0.0
 10
-29.3029058664
 20
-11.2815497478
 30
0.0
 10
-29.3793694882
 20
-11.2218505659
 30
0.0
 10
-29.4678111614
 20
-11.1034240711
 30
0.0
 10
-29.5190269596
 20
-10.9859286237
 30
0.0
 10
-29.5412616999
 20
-10.888337836
 30
0.0
 10
-29.5457154673
 20
-10.8400236716
 30
0.0
 10
-29.5457179067
 20
-10.8165867707
 30
0.0
 11
-29.2629182725
 21
-11.3015474768
 31
0.0
 11
-29.3706166468
 21
-11.2216017974
 31
0.0
 11
-29.4620820954
 21
-11.1015119774
 31
0.0
 11
-29.5235205307
 21
-10.9593728276
 31
0.0
 11
-29.5399090713
 21
-10.8866571096
 31
0.0
 11
-29.5457179067
 21
-10.8165867707
 31
0.0
  0
SPLINE
  5
415
100
AcDbEntity
  8
RACCORDO
100
AcDbSpline
 62
7
  6
CONTINUOUS
 70
0
 71
3
 72
15
 73
11
 74
9
 42
0.0000001
 43
0.0000001
 44
0.0000000001
 12
0.0000674495
 22
-0.6465524092
 32
0.0
 13
-0.5783356639
 23
0.289063803
 33
0.0
 40
0.0
 40
0.0
 40
0.0
 40
0.0
 40
0.1487776577
 40
0.2853588652
 40
0.4094904377
 40
0.5236276668
 40
0.6329871457
 40
0.7448331124
 40
0.8659548653
 40
1.0
 40
1.0
 40
1.0
 40
1.0
 10
20.9282369097
 20
-33.8119351861
 30
0.0
 10
20.9282402547
 20
-33.8439993704
 30
0.0
 10
20.9240826534
 20
-33.905636664
 30
0.0
 10
20.903300866
 20
-33.9919293255
 30
0.0
 10
20.8678718868
 20
-34.0653897651
 30
0.0
 10
20.8177475524
 20
-34.1225910321
 30
0.0
 10
20.7539088933
 20
-34.1594051958
 30
0.0
 10
20.6799682229
 20
-34.1727271669
 30
0.0
 10
20.6005505131
 20
-34.1625227174
 30
0.0
 10
20.5488551652
 20
-34.1423615352
 30
0.0
 10
20.5230141379
 20
-34.1294456697
 30
0.0
 11
20.9282369097
 21
-33.8119351861
 31
0.0
 11
20.9210984857
 21
-33.9078625037
 31
0.0
 11
20.8995376051
 21
-33.9934968347
 31
0.0
 11
20.8637148694
 21
-34.0653161132
 31
0.0
 11
20.8143669443
 21
-34.1201849364
 31
0.0
 11
20.7529967853
 21
-34.1553009129
 31
0.0
 11
20.6819505119
 21
-34.1687835715
 31
0.0
 11
20.6041401324
 21
-34.1599379226
 31
0.0
 11
20.5230141379
 21
-34.1294456697
 31
0.0
  0
SPLINE
  5
416
100
AcDbEntity
  8
RACCORDO
100
AcDbSpline
 62
7
  6
CONTINUOUS
 70
0
 71
3
 72
9
 73
5
 74
3
 42
0.0000001
 43
0.0000001
 44
0.0000000001
 12
0.1930508834
 22
-0.0965021696
 32
0.0
 13
0.1468020125
 23
-0.1582102444
 33
0.0
 40
0.0
 40
0.0
 40
0.0
 40
0.0
 40
0.2333737329
 40
1.0
 40
1.0
 40
1.0
 40
1.0
 10
20.5230141379
 20
6.7026124612
 30
0.0
 10
20.5380318063
 20
6.6951054373
 30
0.0
 10
20.6006243125
 20
6.6594390578
 30
0.0
 10
20.6557750109
 20
6.6115071274
 30
0.0
 10
20.6932891039
 20
6.571077751
 30
0.0
 11
20.5230141379
 21
6.7026124612
 31
0.0
 11
20.5668413946
 21
6.6777902227
 31
0.0
 11
20.6932891039
 21
6.571077751
 31
0.0
  0
SPLINE
  5
417
100
AcDbEntity
  8
RACCORDO
100
AcDbSpline
 62
7
  6
CONTINUOUS
 70
0
 71
3
 72
9
 73
5
 74
3
 42
0.0000001
 43
0.0000001
 44
0.0000000001
 12
0.3040484642
 22
-0.3276765831
 32
0.0
 13
0.1098795275
 23
-0.4332942431
 33
0.0
 40
0.0
 40
0.0
 40
0.0
 40
0.0
 40
0.4971396079
 40
1.0
 40
1.0
 40
1.0
 40
1.0
 10
20.6932891039
 20
6.571077751
 30
0.0
 10
20.7436739486
 20
6.516777415
 30
0.0
 10
20.8294537099
 20
6.3926500622
 30
0.0
 10
20.88382838
 20
6.2523199595
 30
0.0
 10
20.9022464007
 20
6.1796911218
 30
0.0
 11
20.6932891039
 21
6.571077751
 31
0.0
 11
20.8212012835
 21
6.3893556942
 31
0.0
 11
20.9022464007
 21
6.1796911218
 31
0.0
  0
SPLINE
  5
418
100
AcDbEntity
  8
RACCORDO
100
AcDbSpline
 62
7
  6
CONTINUOUS
 70
0
 71
3
 72
9
 73
5
 74
3
 42
0.0000001
 43
0.0000001
 44
0.0000000001
 12
0.0495995578
 22
-0.1955887811
 32
0.0
 13
0.0000039847
 23
-0.2017797993
 33
0.0
 40
0.0
 40
0.0
 40
0.0
 40
0.0
 40
0.2600361001
 40
1.0
 40
1.0
 40
1.0
 40
1.0
 10
20.9022464007
 20
6.1796911218
 30
0.0
 10
20.9065456259
 20
6.1627377405
 30
0.0
 10
20.9211836811
 20
6.0970883389
 30
0.0
 10
20.9282359268
 20
6.0296491282
 30
0.0
 10
20.9282369097
 20
5.9798792058
 30
0.0
 11
20.9022464007
 21
6.1796911218
 31
0.0
 11
20.9136455284
 21
6.1284742871
 31
0.0
 11
20.9282369097
 21
5.9798792058
 31
0.0
  0
SPLINE
  5
419
100
AcDbEntity
  8
0
100
AcDbSpline
 62
7
  6
CONTINUOUS
 70
0
 71
3
 72
9
 73
5
 74
3
 42
0.0000001
 43
0.0000001
 44
0.0000000001
 12
-0.0819757197
 22
0.0180227712
 32
0.0
 13
-0.0758844132
 23
0.0358663453
 33
0.0
 40
0.0
 40
0.0
 40
0.0
 40
0.0
 40
0.2423818582
 40
1.0
 40
1.0
 40
1.0
 40
1.0
 10
-1.1564063813
 20
-24.2096191774
 30
0.0
 10
-1.1630295238
 20
-24.2081630465
 30
0.0
 10
-1.1901092305
 20
-24.2010346816
 30
0.0
 10
-1.2161603843
 20
-24.1904148754
 30
0.0
 10
-1.235324187
 20
-24.1813572108
 30
0.0
 11
-1.1564063813
 21
-24.2096191774
 31
0.0
 11
-1.1760963566
 21
-24.2045023553
 31
0.0
 11
-1.235324187
 21
-24.1813572108
 31
0.0
  0
SPLINE
  5
41A
100
AcDbEntity
  8
0
100
AcDbSpline
 62
7
  6
CONTINUOUS
 70
0
 71
3
 72
10
 73
6
 74
4
 42
0.0000001
 43
0.0000001
 44
0.0000000001
 12
-0.1538658196
 22
-0.0769328856
 32
0.0
 13
-0.1555300032
 23
0.0735103899
 33
0.0
 40
0.0
 40
0.0
 40
0.0
 40
0.0
 40
0.4571693223
 40
0.7225207022
 40
1.0
 40
1.0
 40
1.0
 40
1.0
 10
-1.2102316763
 20
-24.2750912201
 30
0.0
 10
-1.2336792538
 20
-24.2868150052
 30
0.0
 10
-1.2788399378
 20
-24.2867165373
 30
0.0
 10
-1.3334900638
 20
-24.2709768139
 30
0.0
 10
-1.3623600912
 20
-24.2588670927
 30
0.0
 10
-1.3767455433
 20
-24.2520678889
 30
0.0
 11
-1.2102316763
 21
-24.2750912201
 31
0.0
 11
-1.2885574002
 21
-24.2821767838
 31
0.0
 11
-1.3326371271
 21
-24.2703156625
 31
0.0
 11
-1.3767455433
 21
-24.2520678889
 31
0.0
  0
SPLINE
  5
41B
100
AcDbEntity
  8
RACCORDO
100
AcDbSpline
 62
7
  6
CONTINUOUS
 70
0
 71
3
 72
15
 73
11
 74
9
 42
0.0000001
 43
0.0000001
 44
0.0000000001
 12
-0.0000290144
 22
0.6465582094
 32
0.0
 13
0.5782691004
 23
-0.2892099003
 33
0.0
 40
0.0
 40
0.0
 40
0.0
 40
0.0
 40
0.1487694757
 40
0.2853513859
 40
0.4094835004
 40
0.5236207508
 40
0.6329791609
 40
0.7448218248
 40
0.8659417783
 40
1.0
 40
1.0
 40
1.0
 40
1.0
 10
-27.8932670942
 20
30.3906312077
 30
0.0
 10
-27.893268533
 20
30.4226939163
 30
0.0
 10
-27.8891041963
 20
30.4843296953
 30
0.0
 10
-27.8683212235
 20
30.5706205635
 30
0.0
 10
-27.8328972315
 20
30.6440844725
 30
0.0
 10
-27.7827732478
 20
30.7012873801
 30
0.0
 10
-27.7189377609
 20
30.7381038606
 30
0.0
 10
-27.6450012994
 20
30.7514429574
 30
0.0
 10
-27.5655780538
 20
30.7412425985
 30
0.0
 10
-27.5138848982
 20
30.7210653463
 30
0.0
 10
-27.4880443224
 20
30.7081416913
 30
0.0
 11
-27.8932670942
 21
30.3906312077
 31
0.0
 11
-27.88612167
 21
30.4865535643
 31
0.0
 11
-27.8645591339
 21
30.5721887635
 31
0.0
 11
-27.8287394512
 21
30.6440107606
 31
0.0
 11
-27.7793928335
 21
30.698881668
 31
0.0
 11
-27.7180252862
 21
30.7340020935
 31
0.0
 11
-27.6469828278
 21
30.747496873
 31
0.0
 11
-27.5691725755
 21
30.7386541883
 31
0.0
 11
-27.4880443224
 21
30.7081416913
 31
0.0
  0
SPLINE
  5
41C
100
AcDbEntity
  8
0
100
AcDbSpline
 62
7
  6
CONTINUOUS
 70
0
 71
3
 72
18
 73
14
 74
12
 42
0.0000001
 43
0.0000001
 44
0.0000000001
 12
0.9412015705
 22
0.4705978987
 32
0.0
 13
-0.7660302278
 23
0.7214710449
 33
0.0
 40
0.0
 40
0.0
 40
0.0
 40
0.0
 40
0.0457943282
 40
0.091057948
 40
0.1389648723
 40
0.1905315768
 40
0.3034454307
 40
0.4295778624
 40
0.5663524614
 40
0.71146765
 40
0.8584343832
 40
0.9305901699
 40
1.0
 40
1.0
 40
1.0
 40
1.0
 10
-0.8710006621
 20
-24.4851927628
 30
0.0
 10
-0.8566334309
 20
-24.4780091913
 30
0.0
 10
-0.8285450318
 20
-24.4626326477
 30
0.0
 10
-0.7902160555
 20
-24.4318622674
 30
0.0
 10
-0.7593540995
 20
-24.3909915987
 30
0.0
 10
-0.7260959323
 20
-24.3239763431
 30
0.0
 10
-0.7033484439
 20
-24.2232059202
 30
0.0
 10
-0.7022899414
 20
-24.0908063157
 30
0.0
 10
-0.7242172857
 20
-23.9486583334
 30
0.0
 10
-0.773730388
 20
-23.8057875179
 30
0.0
 10
-0.8355014054
 20
-23.6931920509
 30
0.0
 10
-0.8951157436
 20
-23.6113166116
 30
0.0
 10
-0.9282635524
 20
-23.5740969534
 30
0.0
 10
-0.945986895
 20
-23.5574045592
 30
0.0
 11
-0.8710006621
 21
-24.4851927628
 31
0.0
 11
-0.8291332651
 21
-24.4613325374
 31
0.0
 11
-0.7923214691
 21
-24.4311072275
 31
0.0
 11
-0.7614411701
 21
-24.3912600924
 31
0.0
 11
-0.7369685493
 21
-24.3428286921
 31
0.0
 11
-0.7084076525
 21
-24.2274938342
 31
0.0
 11
-0.7057423742
 21
-24.0947921891
 31
0.0
 11
-0.7278645835
 21
-23.9525753926
 31
0.0
 11
-0.7774197037
 21
-23.8081359383
 31
0.0
 11
-0.8518379405
 21
-23.6725659008
 31
0.0
 11
-0.8966959216
 21
-23.6113042441
 31
0.0
 11
-0.945986895
 21
-23.5574045592
 31
0.0
  0
SPLINE
  5
41D
100
AcDbEntity
  8
0
100
AcDbSpline
 62
7
  6
CONTINUOUS
 70
0
 71
3
 72
18
 73
14
 74
12
 42
0.0000001
 43
0.0000001
 44
0.0000000001
 12
0.9411997429
 22
0.4705999189
 32
0.0
 13
-0.7660296955
 23
0.7214705436
 33
0.0
 40
0.0
 40
0.0
 40
0.0
 40
0.0
 40
0.0457942915
 40
0.0910579153
 40
0.1389648734
 40
0.1905316078
 40
0.3034455036
 40
0.4295779571
 40
0.5663525556
 40
0.7114677243
 40
0.8584344206
 40
0.930590188
 40
1.0
 40
1.0
 40
1.0
 40
1.0
 10
-1.0124213602
 20
-24.5559031119
 30
0.0
 10
-0.9980541684
 20
-24.5487195153
 30
0.0
 10
-0.9699658093
 20
-24.5333429655
 30
0.0
 10
-0.9316369628
 20
-24.5025724702
 30
0.0
 10
-0.9007751273
 20
-24.4617017313
 30
0.0
 10
-0.8675170965
 20
-24.3946864264
 30
0.0
 10
-0.8447697505
 20
-24.2939160186
 30
0.0
 10
-0.8437113392
 20
-24.1615164855
 30
0.0
 10
-0.865638749
 20
-24.0193686147
 30
0.0
 10
-0.915151867
 20
-23.8764979389
 30
0.0
 10
-0.9769228547
 20
-23.7639025895
 30
0.0
 10
-1.0365371458
 20
-23.6820272353
 30
0.0
 10
-1.0696849256
 20
-23.6448076156
 30
0.0
 10
-1.0874082513
 20
-23.6281152373
 30
0.0
 11
-1.0124213602
 21
-24.5559031119
 31
0.0
 11
-0.9705540684
 21
-24.5320428474
 31
0.0
 11
-0.9337423818
 21
-24.5018174499
 31
0.0
 11
-0.9028621898
 21
-24.461970231
 31
0.0
 11
-0.8783896689
 21
-24.4135387873
 31
0.0
 11
-0.8498289381
 21
-24.2982039278
 31
0.0
 11
-0.8471637652
 21
-24.16550235
 31
0.0
 11
-0.8692860396
 21
-24.0232856653
 31
0.0
 11
-0.9188411772
 21
-23.8788463513
 31
0.0
 11
-0.9932593762
 21
-23.7432764599
 31
0.0
 11
-1.0381173217
 21
-23.6820148678
 31
0.0
 11
-1.0874082513
 21
-23.6281152373
 31
0.0
  0
SPLINE
  5
41E
100
AcDbEntity
  8
RACCORDO
100
AcDbSpline
 62
7
  6
CONTINUOUS
 70
0
 71
3
 72
11
 73
7
 74
5
 42
0.0000001
 43
0.0000001
 44
0.0000000001
 12
-0.7725966348
 22
0.3861795097
 32
0.0
 13
0.0000393164
 23
0.8637361705
 33
0.0
 40
0.0
 40
0.0
 40
0.0
 40
0.0
 40
0.2302795819
 40
0.4899447783
 40
0.7543046622
 40
1.0
 40
1.0
 40
1.0
 40
1.0
 10
-27.4880443224
 20
-10.1239164395
 30
0.0
 10
-27.5473487324
 20
-10.0942733542
 30
0.0
 10
-27.6604615704
 20
-10.0047920831
 30
0.0
 10
-27.7879500514
 20
-9.8264290071
 30
0.0
 10
-27.8715996669
 20
-9.6191106375
 30
0.0
 10
-27.8932703141
 20
-9.4719218342
 30
0.0
 10
-27.8932670942
 20
-9.4011831841
 30
0.0
 11
-27.4880443224
 21
-10.1239164395
 31
0.0
 11
-27.6469826533
 21
-10.0043332594
 31
0.0
 11
-27.7793927631
 21
-9.8233081834
 31
0.0
 11
-27.8645591098
 21
-9.6114484005
 31
0.0
 11
-27.8932670942
 21
-9.4011831841
 31
0.0
  0
SPLINE
  5
41F
100
AcDbEntity
  8
RACCORDO
100
AcDbSpline
 62
7
  6
CONTINUOUS
 70
0
 71
3
 72
11
 73
7
 74
5
 42
0.0000001
 43
0.0000001
 44
0.0000000001
 12
-0.1291394801
 22
0.0645697401
 32
0.0
 13
0.0000513271
 23
0.144382319
 33
0.0
 40
0.0
 40
0.0
 40
0.0
 40
0.0
 40
0.3021491765
 40
0.5655722792
 40
0.7935305764
 40
1.0
 40
1.0
 40
1.0
 40
1.0
 10
20.9282369097
 20
5.9798792058
 30
0.0
 10
20.9152304471
 20
5.9863824371
 30
0.0
 10
20.8917056313
 20
6.0003781164
 30
0.0
 10
20.8630899516
 20
6.0261646329
 30
0.0
 10
20.8447669242
 20
6.0549427081
 30
0.0
 10
20.8403693716
 20
6.0760083779
 30
0.0
 10
20.8403729041
 20
6.0859452226
 30
0.0
 11
20.9282369097
 21
5.9798792058
 31
0.0
 11
20.8909880424
 21
6.0025874124
 31
0.0
 11
20.8631956657
 21
6.0285516499
 31
0.0
 11
20.8461325749
 21
6.0566963893
 31
0.0
 11
20.8403729041
 21
6.0859452226
 31
0.0
  0
SPLINE
  5
420
100
AcDbEntity
  8
RACCORDO
100
AcDbSpline
 62
7
  6
CONTINUOUS
 70
0
 71
3
 72
11
 73
7
 74
5
 42
0.0000001
 43
0.0000001
 44
0.0000000001
 12
0.0000000198
 22
-0.1889139626
 32
0.0
 13
0.1689716007
 23
-0.0844812607
 33
0.0
 40
0.0
 40
0.0
 40
0.0
 40
0.0
 40
0.2895956155
 40
0.5496517738
 40
0.7828348426
 40
1.0
 40
1.0
 40
1.0
 40
1.0
 10
20.5230141379
 20
6.7026124612
 30
0.0
 10
20.5230141398
 20
6.6843762428
 30
0.0
 10
20.5259718855
 20
6.6496347643
 30
0.0
 10
20.5408029796
 20
6.602117153
 30
0.0
 10
20.5656115092
 20
6.564072988
 30
0.0
 10
20.5887500183
 20
6.5464647777
 30
0.0
 10
20.6009815997
 20
6.5403493156
 30
0.0
 11
20.5230141379
 21
6.7026124612
 31
0.0
 11
20.5282004669
 21
6.6481501903
 31
0.0
 11
20.5435026533
 21
6.6014658567
 31
0.0
 11
20.5681579287
 21
6.5649603044
 31
0.0
 11
20.6009815997
 21
6.5403493156
 31
0.0
  0
SPLINE
  5
421
100
AcDbEntity
  8
RACCORDO
100
AcDbSpline
 62
7
  6
CONTINUOUS
 70
0
 71
3
 72
11
 73
7
 74
5
 42
0.0000001
 43
0.0000001
 44
0.0000000001
 12
0.0
 22
-0.18889539
 32
0.0
 13
0.1689407751
 23
-0.084501378
 33
0.0
 40
0.0
 40
0.0
 40
0.0
 40
0.0
 40
0.2895923905
 40
0.5496493617
 40
0.7828350679
 40
1.0
 40
1.0
 40
1.0
 40
1.0
 10
-27.4880443224
 20
30.7081416913
 30
0.0
 10
-27.4880443224
 20
30.6899074688
 30
0.0
 10
-27.4850871925
 20
30.6551695944
 30
0.0
 10
-27.4702594537
 20
30.6076562034
 30
0.0
 10
-27.4454566466
 20
30.5696136897
 30
0.0
 10
-27.4223230313
 20
30.5520038757
 30
0.0
 10
-27.410093694
 20
30.5458869637
 30
0.0
 11
-27.4880443224
 21
30.7081416913
 31
0.0
 11
-27.4828591897
 21
30.6536853213
 31
0.0
 11
-27.4675604693
 21
30.607004773
 31
0.0
 11
-27.442910578
 21
30.5705002093
 31
0.0
 11
-27.410093694
 21
30.5458869637
 31
0.0
  0
SPLINE
  5
422
100
AcDbEntity
  8
RACCORDO
100
AcDbSpline
 62
7
  6
CONTINUOUS
 70
0
 71
3
 72
11
 73
7
 74
5
 42
0.0000001
 43
0.0000001
 44
0.0000000001
 12
0.3513450533
 22
-0.1756717113
 32
0.0
 13
0.3707502825
 23
0.1298003263
 33
0.0
 40
0.0
 40
0.0
 40
0.0
 40
0.0
 40
0.230199588
 40
0.4886872503
 40
0.753166985
 40
1.0
 40
1.0
 40
1.0
 40
1.0
 10
-27.8932670942
 20
30.3906312077
 30
0.0
 10
-27.8663072653
 20
30.3771513559
 30
0.0
 10
-27.8048821288
 20
30.3568891149
 30
0.0
 10
-27.706620935
 20
30.3443389472
 30
0.0
 10
-27.6054612828
 20
30.3485593873
 30
0.0
 10
-27.5395665989
 20
30.3631447496
 30
0.0
 10
-27.5090621289
 20
30.3738244182
 30
0.0
 11
-27.8932670942
 21
30.3906312077
 31
0.0
 11
-27.8079205453
 21
30.3607511879
 31
0.0
 11
-27.707281794
 21
30.3472681956
 31
0.0
 11
-27.6034893527
 21
30.3518084802
 31
0.0
 11
-27.5090621289
 21
30.3738244182
 31
0.0
  0
SPLINE
  5
423
100
AcDbEntity
  8
RACCORDO
100
AcDbSpline
 62
7
  6
CONTINUOUS
 70
0
 71
3
 72
11
 73
7
 74
5
 42
0.0000001
 43
0.0000001
 44
0.0000000001
 12
0.351344799
 22
-0.1756723995
 32
0.0
 13
0.3707501259
 23
0.1298010165
 33
0.0
 40
0.0
 40
0.0
 40
0.0
 40
0.0
 40
0.2301996678
 40
0.4886873034
 40
0.7531669766
 40
1.0
 40
1.0
 40
1.0
 40
1.0
 10
-27.8932670942
 20
-9.4011831841
 30
0.0
 10
-27.8663072755
 20
-9.4146630935
 30
0.0
 10
-27.8048821408
 20
-9.4349254229
 30
0.0
 10
-27.7066209286
 20
-9.4474756351
 30
0.0
 10
-27.6054612636
 20
-9.4432551486
 30
0.0
 10
-27.5395665871
 20
-9.4286696994
 30
0.0
 10
-27.5090621289
 20
-9.4179899736
 30
0.0
 11
-27.8932670942
 21
-9.4011831841
 31
0.0
 11
-27.8079205383
 21
-9.431063335
 31
0.0
 11
-27.7072817826
 21
-9.4445463717
 31
0.0
 11
-27.6034893463
 21
-9.4400060409
 31
0.0
 11
-27.5090621289
 21
-9.4179899736
 31
0.0
  0
SPLINE
  5
424
100
AcDbEntity
  8
RACCORDO
100
AcDbSpline
 62
7
  6
CONTINUOUS
 70
0
 71
3
 72
9
 73
5
 74
3
 42
0.0000001
 43
0.0000001
 44
0.0000000001
 12
-0.0000000368
 22
0.3499494931
 32
0.0
 13
0.2542495249
 23
0.2404616951
 33
0.0
 40
0.0
 40
0.0
 40
0.0
 40
0.0
 40
0.4929880305
 40
1.0
 40
1.0
 40
1.0
 40
1.0
 10
-27.4880443224
 20
-10.1239164395
 30
0.0
 10
-27.4880443285
 20
-10.0664094691
 30
0.0
 10
-27.458270557
 20
-9.949884202
 30
0.0
 10
-27.391434901
 20
-9.8506268182
 30
0.0
 10
-27.3484657169
 20
-9.8099878323
 30
0.0
 11
-27.4880443224
 21
-10.1239164395
 31
0.0
 11
-27.449680686
 21
-9.9557150832
 31
0.0
 11
-27.3484657169
 21
-9.8099878323
 31
0.0
  0
SPLINE
  5
425
100
AcDbEntity
  8
RACCORDO
100
AcDbSpline
 62
7
  6
CONTINUOUS
 70
0
 71
3
 72
9
 73
5
 74
3
 42
0.0000001
 43
0.0000001
 44
0.0000000001
 12
0.0
 22
0.3499494896
 32
0.0
 13
0.2542494972
 23
0.2404617193
 33
0.0
 40
0.0
 40
0.0
 40
0.0
 40
0.0
 40
0.4929880284
 40
1.0
 40
1.0
 40
1.0
 40
1.0
 10
20.5230141379
 20
-34.1294456697
 30
0.0
 10
20.5230141379
 20
-34.0719387001
 30
0.0
 10
20.5527879151
 20
-33.9554134377
 30
0.0
 10
20.6196235639
 20
-33.8561560526
 30
0.0
 10
20.6625927435
 20
-33.8155170625
 30
0.0
 11
20.5230141379
 21
-34.1294456697
 31
0.0
 11
20.5613777827
 21
-33.9612443178
 31
0.0
 11
20.6625927435
 21
-33.8155170625
 31
0.0
  0
SPLINE
  5
426
100
AcDbEntity
  8
RACCORDO
100
AcDbSpline
 62
7
  6
CONTINUOUS
 70
0
 71
3
 72
11
 73
7
 74
5
 42
0.0000001
 43
0.0000001
 44
0.0000000001
 12
-0.1290176401
 22
0.0645088591
 32
0.0
 13
-0.0002140763
 23
0.1442459654
 33
0.0
 40
0.0
 40
0.0
 40
0.0
 40
0.0
 40
0.3021029046
 40
0.5655351037
 40
0.79352975
 40
1.0
 40
1.0
 40
1.0
 40
1.0
 10
20.9282369097
 20
-33.8119351861
 30
0.0
 10
20.9152447084
 20
-33.8054390815
 30
0.0
 10
20.8917429615
 20
-33.7914594367
 30
0.0
 10
20.8631456821
 20
-33.7657083725
 30
0.0
 10
20.8448151823
 20
-33.7369733154
 30
0.0
 10
20.8403877155
 20
-33.7159348464
 30
0.0
 10
20.840372982
 20
-33.7060073462
 30
0.0
 11
20.9282369097
 21
-33.8119351861
 31
0.0
 11
20.8910265268
 21
-33.7892557367
 31
0.0
 11
20.8632486316
 21
-33.7633266383
 31
0.0
 11
20.8461730961
 21
-33.7352196376
 31
0.0
 11
20.840372982
 21
-33.7060073462
 31
0.0
  0
SPLINE
  5
427
100
AcDbEntity
  8
RACCORDO
100
AcDbSpline
 62
7
  6
CONTINUOUS
 70
0
 71
3
 72
13
 73
9
 74
7
 42
0.0000001
 43
0.0000001
 44
0.0000000001
 12
-0.0674976152
 22
0.2266372338
 32
0.0
 13
0.2363803959
 23
-0.006683731
 33
0.0
 40
0.0
 40
0.0
 40
0.0
 40
0.0
 40
0.2945425253
 40
0.4247560086
 40
0.5434194907
 40
0.6533395927
 40
0.7606220326
 40
1.0
 40
1.0
 40
1.0
 40
1.0
 10
-27.509062184
 20
30.373824638
 30
0.0
 10
-27.5156891566
 20
30.3960760724
 30
0.0
 10
-27.5226827513
 20
30.4292655224
 30
0.0
 10
-27.5219135535
 20
30.4722801805
 30
0.0
 10
-27.5157865643
 20
30.5001446103
 30
0.0
 10
-27.5032859748
 20
30.523951148
 30
0.0
 10
-27.4763048387
 20
30.5489189743
 30
0.0
 10
-27.4471193171
 20
30.5542323733
 30
0.0
 10
-27.4282578976
 20
30.5536990607
 30
0.0
 11
-27.509062184
 21
30.373824638
 31
0.0
 11
-27.5217363897
 21
30.4423137057
 31
0.0
 11
-27.5208302484
 21
30.4730925865
 31
0.0
 11
-27.514396456
 21
30.5004059932
 31
0.0
 11
-27.5019709553
 21
30.5232371287
 31
0.0
 11
-27.4832776467
 21
30.5403887136
 31
0.0
 11
-27.4282578976
 21
30.5536990607
 31
0.0
  0
SPLINE
  5
428
100
AcDbEntity
  8
RACCORDO
100
AcDbSpline
 62
7
  6
CONTINUOUS
 70
0
 71
3
 72
12
 73
8
 74
6
 42
0.0000001
 43
0.0000001
 44
0.0000000001
 12
-0.4413449355
 22
0.1390635928
 32
0.0
 13
0.1107198174
 23
0.4492940651
 33
0.0
 40
0.0
 40
0.0
 40
0.0
 40
0.0
 40
0.1130791228
 40
0.2328058137
 40
0.4871958184
 40
0.7477930342
 40
1.0
 40
1.0
 40
1.0
 40
1.0
 10
-27.3484816354
 20
-9.8099812637
 30
0.0
 10
-27.3651172681
 20
-9.804739534
 30
0.0
 10
-27.3981171359
 20
-9.789454937
 30
0.0
 10
-27.456760772
 20
-9.741348702
 30
0.0
 10
-27.507546484
 20
-9.6538360923
 30
0.0
 10
-27.5274465137
 20
-9.535410915
 30
0.0
 10
-27.5183703033
 20
-9.4557620059
 30
0.0
 10
-27.5090622002
 20
-9.4179903083
 30
0.0
 11
-27.3484816354
 21
-9.8099812637
 31
0.0
 11
-27.3960006241
 21
-9.7880740557
 31
0.0
 11
-27.4390051141
 21
-9.7531459775
 31
0.0
 11
-27.5002546763
 21
-9.6526204947
 31
0.0
 11
-27.5218851593
 21
-9.5339887955
 31
0.0
 11
-27.5090622002
 21
-9.4179903083
 31
0.0
  0
SPLINE
  5
429
100
AcDbEntity
  8
RACCORDO
100
AcDbSpline
 62
7
  6
CONTINUOUS
 70
0
 71
3
 72
11
 73
7
 74
5
 42
0.0000001
 43
0.0000001
 44
0.0000000001
 12
-0.0849940566
 22
-0.4356535863
 32
0.0
 13
0.392917127
 23
-0.2064804305
 33
0.0
 40
0.0
 40
0.0
 40
0.0
 40
0.0
 40
0.2512587909
 40
0.4489106646
 40
0.6470553493
 40
1.0
 40
1.0
 40
1.0
 40
1.0
 10
-26.0000872025
 20
-8.3178641041
 30
0.0
 10
-26.0072057038
 20
-8.3543513685
 30
0.0
 10
-26.0069382672
 20
-8.4222234014
 30
0.0
 10
-25.9835238815
 20
-8.5156663189
 30
0.0
 10
-25.9354678299
 20
-8.615677791
 30
0.0
 10
-25.8763644656
 20
-8.67867262
 30
0.0
 10
-25.8301384663
 20
-8.7029646745
 30
0.0
 11
-26.0000872025
 21
-8.3178641041
 31
0.0
 11
-26.0019012114
 21
-8.4293748709
 31
0.0
 11
-25.9807783893
 21
-8.5145252371
 31
0.0
 11
-25.9423351319
 21
-8.5936283557
 31
0.0
 11
-25.8301384663
 21
-8.7029646745
 31
0.0
  0
SPLINE
  5
42A
100
AcDbEntity
  8
RACCORDO
100
AcDbSpline
 62
7
  6
CONTINUOUS
 70
0
 71
3
 72
12
 73
8
 74
6
 42
0.0000001
 43
0.0000001
 44
0.0000000001
 12
0.1076789245
 22
-0.4047236788
 32
0.0
 13
0.3124882955
 23
-0.2788316197
 33
0.0
 40
0.0
 40
0.0
 40
0.0
 40
0.0
 40
0.1121547055
 40
0.2349960046
 40
0.5039037045
 40
0.7737482044
 40
1.0
 40
1.0
 40
1.0
 40
1.0
 10
-25.9397120043
 20
-8.2852639624
 30
0.0
 10
-25.9356864383
 20
-8.3003945174
 30
0.0
 10
-25.9236793959
 20
-8.3311087611
 30
0.0
 10
-25.8915046435
 20
-8.3936920285
 30
0.0
 10
-25.8408529976
 20
-8.4712313995
 30
0.0
 10
-25.77449076
 20
-8.5550035639
 30
0.0
 10
-25.7265144045
 20
-8.6052333455
 30
0.0
 10
-25.7029473918
 20
-8.6262620637
 30
0.0
 11
-25.9397120043
 21
-8.2852639624
 31
0.0
 11
-25.9235426133
 21
-8.3293638568
 31
0.0
 11
-25.9003415807
 21
-8.3752815567
 31
0.0
 11
-25.8395573525
 21
-8.4700887285
 31
0.0
 11
-25.7692472632
 21
-8.5585654852
 31
0.0
 11
-25.7029473918
 21
-8.6262620637
 31
0.0
  0
SPLINE
  5
42B
100
AcDbEntity
  8
RACCORDO
100
AcDbSpline
 62
7
  6
CONTINUOUS
 70
0
 71
3
 72
8
 73
4
 74
2
 42
0.0000001
 43
0.0000001
 44
0.0000000001
 12
0.0059652413
 22
-0.0053567011
 32
0.0
 13
0.0072570619
 23
-0.0034078444
 33
0.0
 40
0.0
 40
0.0
 40
0.0
 40
0.0
 40
1.0
 40
1.0
 40
1.0
 40
1.0
 10
-25.7029473918
 20
-8.6262620637
 30
0.0
 10
-25.700958978
 20
-8.6280476307
 30
0.0
 10
-25.6986419295
 20
-8.6294918549
 30
0.0
 10
-25.6962229089
 20
-8.630627803
 30
0.0
 11
-25.7029473918
 21
-8.6262620637
 31
0.0
 11
-25.6962229089
 21
-8.630627803
 31
0.0
  0
SPLINE
  5
42C
100
AcDbEntity
  8
RACCORDO
100
AcDbSpline
 62
7
  6
CONTINUOUS
 70
0
 71
3
 72
8
 73
4
 74
2
 42
0.0000001
 43
0.0000001
 44
0.0000000001
 12
-0.000102863
 22
-0.0044167121
 32
0.0
 13
0.0011274682
 23
-0.0042716205
 33
0.0
 40
0.0
 40
0.0
 40
0.0
 40
0.0
 40
1.0
 40
1.0
 40
1.0
 40
1.0
 10
-25.9402040989
 20
-8.2808735446
 30
0.0
 10
-25.9402383866
 20
-8.2823457819
 30
0.0
 10
-25.9400878271
 20
-8.283840089
 30
0.0
 10
-25.9397120043
 20
-8.2852639624
 30
0.0
 11
-25.9402040989
 21
-8.2808735446
 31
0.0
 11
-25.9397120043
 21
-8.2852639624
 31
0.0
  0
SPLINE
  5
42D
100
AcDbEntity
  8
RACCORDO
100
AcDbSpline
 62
7
  6
CONTINUOUS
 70
0
 71
3
 72
11
 73
7
 74
5
 42
0.0000001
 43
0.0000001
 44
0.0000000001
 12
-0.0064397843
 22
1.0264956433
 32
0.0
 13
-0.9152946272
 23
0.4647262871
 33
0.0
 40
0.0
 40
0.0
 40
0.0
 40
0.0
 40
0.2466773324
 40
0.5119103822
 40
0.7706310354
 40
1.0
 40
1.0
 40
1.0
 40
1.0
 10
23.0012172676
 20
7.3906513269
 30
0.0
 10
23.0006877514
 20
7.4750557292
 30
0.0
 10
22.9706809955
 20
7.6503148755
 30
0.0
 10
22.8647265449
 20
7.8941398435
 30
0.0
 10
22.709990873
 20
8.1029899619
 30
0.0
 10
22.5762979682
 20
8.2086951971
 30
0.0
 10
22.5063179079
 20
8.2442264595
 30
0.0
 11
23.0012172676
 21
7.3906513269
 31
0.0
 11
22.9623931771
 21
7.6408755097
 31
0.0
 11
22.8547127238
 21
7.8909428115
 31
0.0
 11
22.6945669868
 21
8.1028072271
 31
0.0
 11
22.5063179079
 21
8.2442264595
 31
0.0
  0
SPLINE
  5
42E
100
AcDbEntity
  8
RACCORDO
100
AcDbSpline
 62
7
  6
CONTINUOUS
 70
0
 71
3
 72
11
 73
7
 74
5
 42
0.0000001
 43
0.0000001
 44
0.0000000001
 12
-0.299686386
 22
0.1475513079
 32
0.0
 13
-0.2939687779
 23
-0.1586369315
 33
0.0
 40
0.0
 40
0.0
 40
0.0
 40
0.0
 40
0.2797829828
 40
0.535973102
 40
0.7731347539
 40
1.0
 40
1.0
 40
1.0
 40
1.0
 10
-29.0544884526
 20
34.0246296398
 30
0.0
 10
-29.082437503
 20
34.0383904215
 30
0.0
 10
-29.1383002398
 20
34.06047906
 30
0.0
 10
-29.223780963
 20
34.0754773582
 30
0.0
 10
-29.3046607519
 20
34.0698715041
 30
0.0
 10
-29.3540109341
 20
34.0519471136
 30
0.0
 10
-29.3762413672
 20
34.0399507115
 30
0.0
 11
-29.0544884526
 21
34.0246296398
 31
0.0
 11
-29.14168477
 21
34.0582656171
 31
0.0
 11
-29.2261156906
 21
34.0722302035
 31
0.0
 11
-29.305096157
 21
34.0660526547
 31
0.0
 11
-29.3762413672
 21
34.0399507115
 31
0.0
  0
SPLINE
  5
42F
100
AcDbEntity
  8
RACCORDO
100
AcDbSpline
 62
7
  6
CONTINUOUS
 70
0
 71
3
 72
11
 73
7
 74
5
 42
0.0000001
 43
0.0000001
 44
0.0000000001
 12
-0.3869291761
 22
-0.2017363465
 32
0.0
 13
0.0000000104
 23
-0.4363619379
 33
0.0
 40
0.0
 40
0.0
 40
0.0
 40
0.0
 40
0.2307483971
 40
0.4893409449
 40
0.7537520468
 40
1.0
 40
1.0
 40
1.0
 40
1.0
 10
22.5063179069
 20
8.24422646
 30
0.0
 10
22.4765568112
 20
8.2287096805
 30
0.0
 10
22.4198839542
 20
8.1833456872
 30
0.0
 10
22.354509755
 20
8.0941789061
 30
0.0
 10
22.3101073032
 20
7.9904687003
 30
0.0
 10
22.2978880871
 20
7.9160612431
 30
0.0
 10
22.297888088
 20
7.8802434984
 30
0.0
 11
22.5063179069
 21
8.24422646
 31
0.0
 11
22.4262732103
 21
8.1831422072
 31
0.0
 11
22.3587235736
 21
8.092754709
 31
0.0
 11
22.3136854645
 21
7.9865291532
 31
0.0
 11
22.297888088
 21
7.8802434984
 31
0.0
  0
SPLINE
  5
430
100
AcDbEntity
  8
RACCORDO
100
AcDbSpline
 62
7
  6
CONTINUOUS
 70
0
 71
3
 72
11
 73
7
 74
5
 42
0.0000001
 43
0.0000001
 44
0.0000000001
 12
-0.3869291685
 22
-0.2017363581
 32
0.0
 13
0.0000000016
 23
-0.4363619365
 33
0.0
 40
0.0
 40
0.0
 40
0.0
 40
0.0
 40
0.2307483952
 40
0.4893409435
 40
0.7537520457
 40
1.0
 40
1.0
 40
1.0
 40
1.0
 10
-29.0544884512
 20
34.0246296391
 30
0.0
 10
-29.0842495461
 20
34.0091128588
 30
0.0
 10
-29.1409224017
 20
33.963748865
 30
0.0
 10
-29.2062966018
 20
33.8745820853
 30
0.0
 10
-29.2506990551
 20
33.7708718802
 30
0.0
 10
-29.2629182726
 20
33.6964644234
 30
0.0
 10
-29.2629182725
 20
33.6606466787
 30
0.0
 11
-29.0544884512
 21
34.0246296391
 31
0.0
 11
-29.1345331459
 21
33.9635453856
 31
0.0
 11
-29.2020827833
 21
33.8731578882
 31
0.0
 11
-29.247120894
 21
33.7669323332
 31
0.0
 11
-29.2629182725
 21
33.6606466787
 31
0.0
  0
SPLINE
  5
431
100
AcDbEntity
  8
RACCORDO
100
AcDbSpline
 62
7
  6
CONTINUOUS
 70
0
 71
3
 72
11
 73
7
 74
5
 42
0.0000001
 43
0.0000001
 44
0.0000000001
 12
-0.3888881901
 22
-0.1877724818
 32
0.0
 13
-0.3862564227
 23
0.1931282092
 33
0.0
 40
0.0
 40
0.0
 40
0.0
 40
0.0
 40
0.2366411463
 40
0.5012534836
 40
0.7651925891
 40
1.0
 40
1.0
 40
1.0
 40
1.0
 10
23.0012172676
 20
7.3906513252
 30
0.0
 10
22.9705416186
 20
7.3758397601
 30
0.0
 10
22.9005834091
 20
7.3547815167
 30
0.0
 10
22.7902836615
 20
7.345037967
 30
0.0
 10
22.6803363186
 20
7.3556891302
 30
0.0
 10
22.610919679
 20
7.3773703015
 30
0.0
 10
22.5806877221
 20
7.3924862798
 30
0.0
 11
23.0012172676
 21
7.3906513252
 31
0.0
 11
22.9039755987
 21
7.3592274655
 31
0.0
 11
22.7902019028
 21
7.348564678
 31
0.0
 11
22.6768177215
 21
7.3602186589
 31
0.0
 11
22.5806877221
 21
7.3924862798
 31
0.0
  0
SPLINE
  5
432
100
AcDbEntity
  8
RACCORDO
100
AcDbSpline
 62
7
  6
CONTINUOUS
 70
0
 71
3
 72
11
 73
7
 74
5
 42
0.0000001
 43
0.0000001
 44
0.0000000001
 12
-0.388888196
 22
-0.1877724662
 32
0.0
 13
-0.3862564261
 23
0.1931281992
 33
0.0
 40
0.0
 40
0.0
 40
0.0
 40
0.0
 40
0.2366411464
 40
0.5012534856
 40
0.7651925916
 40
1.0
 40
1.0
 40
1.0
 40
1.0
 10
23.0012172676
 20
-36.8788280242
 30
0.0
 10
22.9705416181
 20
-36.8936395881
 30
0.0
 10
22.9005834085
 20
-36.9146978302
 30
0.0
 10
22.790283661
 20
-36.9244413813
 30
0.0
 10
22.6803363184
 20
-36.9137902195
 30
0.0
 10
22.6109196789
 20
-36.8921090498
 30
0.0
 10
22.5806877221
 20
-36.8769930725
 30
0.0
 11
23.0012172676
 21
-36.8788280242
 31
0.0
 11
22.9039755984
 21
-36.9102518819
 31
0.0
 11
22.7902019021
 21
-36.9209146702
 31
0.0
 11
22.6768177208
 21
-36.909260691
 31
0.0
 11
22.5806877221
 21
-36.8769930725
 31
0.0
  0
SPLINE
  5
433
100
AcDbEntity
  8
IMPORT_IGES
100
AcDbSpline
 62
7
  6
CONTINUOUS
 70
0
 71
3
 72
8
 73
4
 74
2
 42
0.0000001
 43
0.0000001
 44
0.0000000001
 12
-0.0588517268
 22
0.0129658433
 32
0.0
 13
-0.0593959215
 23
0.0251224361
 33
0.0
 40
0.0
 40
0.0
 40
0.0
 40
0.0
 40
1.0
 40
1.0
 40
1.0
 40
1.0
 10
-1.1565127343
 20
-24.2095957708
 30
0.0
 10
-1.1761299765
 20
-24.205273823
 30
0.0
 10
-1.1963329802
 20
-24.1983342078
 30
0.0
 10
-1.2161316207
 20
-24.1899600624
 30
0.0
 11
-1.1565127343
 21
-24.2095957708
 31
0.0
 11
-1.2161316207
 21
-24.1899600624
 31
0.0
  0
SPLINE
  5
434
100
AcDbEntity
  8
IMPORT_IGES
100
AcDbSpline
 62
7
  6
CONTINUOUS
 70
0
 71
3
 72
9
 73
5
 74
3
 42
0.0000001
 43
0.0000001
 44
0.0000000001
 12
-0.0719484215
 22
0.3594276568
 32
0.0
 13
-0.1990361688
 23
0.332124161
 33
0.0
 40
0.0
 40
0.0
 40
0.0
 40
0.0
 40
0.3064912004
 40
1.0
 40
1.0
 40
1.0
 40
1.0
 10
-0.7353806117
 20
-24.9486251502
 30
0.0
 10
-0.7427311311
 20
-24.9119046789
 30
0.0
 10
-0.7649612383
 20
-24.7951373686
 30
0.0
 10
-0.8085501825
 20
-24.6569451633
 30
0.0
 10
-0.854561294
 20
-24.5801681539
 30
0.0
 11
-0.7353806117
 21
-24.9486251502
 31
0.0
 11
-0.7583641776
 21
-24.8383157854
 31
0.0
 11
-0.854561294
 21
-24.5801681539
 31
0.0
  0
SPLINE
  5
435
100
AcDbEntity
  8
IMPORT_IGES
100
AcDbSpline
 62
7
  6
CONTINUOUS
 70
0
 71
3
 72
8
 73
4
 74
2
 42
0.0000001
 43
0.0000001
 44
0.0000000001
 12
-0.0523574717
 22
0.0873669417
 32
0.0
 13
-0.0668832013
 23
0.0661051502
 33
0.0
 40
0.0
 40
0.0
 40
0.0
 40
0.0
 40
1.0
 40
1.0
 40
1.0
 40
1.0
 10
-0.854561294
 20
-24.5801681539
 30
0.0
 10
-0.8720137846
 20
-24.55104584
 30
0.0
 10
-0.891736902
 20
-24.5246658812
 30
0.0
 10
-0.9140313025
 20
-24.5026308311
 30
0.0
 11
-0.854561294
 21
-24.5801681539
 31
0.0
 11
-0.9140313025
 21
-24.5026308311
 31
0.0
  0
SPLINE
  5
436
100
AcDbEntity
  8
IMPORT_IGES
100
AcDbSpline
 62
7
  6
CONTINUOUS
 70
0
 71
3
 72
9
 73
5
 74
3
 42
0.0000001
 43
0.0000001
 44
0.0000000001
 12
-0.1089310306
 22
0.5456809512
 32
0.0
 13
-0.1092475052
 23
0.545733753
 33
0.0
 40
0.0
 40
0.0
 40
0.0
 40
0.0
 40
0.1980141723
 40
1.0
 40
1.0
 40
1.0
 40
1.0
 10
-0.6294261104
 20
-25.4937933116
 30
0.0
 10
-0.6366160731
 20
-25.457775791
 30
0.0
 10
-0.6718077184
 20
-25.2760734488
 30
0.0
 10
-0.7061756281
 20
-25.0945153954
 30
0.0
 10
-0.7353806117
 20
-24.9486251502
 30
0.0
 11
-0.6294261104
 21
-25.4937933116
 31
0.0
 11
-0.6505206637
 21
-25.3858221707
 31
0.0
 11
-0.7353806117
 21
-24.9486251502
 31
0.0
  0
SPLINE
  5
437
100
AcDbEntity
  8
IMPORT_IGES
100
AcDbSpline
 62
7
  6
CONTINUOUS
 70
0
 71
3
 72
9
 73
5
 74
3
 42
0.0000001
 43
0.0000001
 44
0.0000000001
 12
-0.7242720778
 22
0.6826063808
 32
0.0
 13
-0.7618885033
 23
0.2436665522
 33
0.0
 40
0.0
 40
0.0
 40
0.0
 40
0.0
 40
0.2957417834
 40
1.0
 40
1.0
 40
1.0
 40
1.0
 10
-0.945986895
 20
-23.5574045592
 30
0.0
 10
-1.017386067
 20
-23.4901128164
 30
0.0
 10
-1.2740228678
 20
-23.3102973174
 30
0.0
 10
-1.5320058481
 20
-23.2130227816
 30
0.0
 10
-1.710861261
 20
-23.1558213911
 30
0.0
 11
-0.945986895
 21
-23.5574045592
 31
0.0
 11
-1.1693002585
 21
-23.3909742006
 31
0.0
 11
-1.710861261
 21
-23.1558213911
 31
0.0
  0
SPLINE
  5
438
100
AcDbEntity
  8
IMPORT_IGES
100
AcDbSpline
 62
7
  6
CONTINUOUS
 70
0
 71
3
 72
9
 73
5
 74
3
 42
0.0000001
 43
0.0000001
 44
0.0000000001
 12
0.0443426486
 22
0.0221713243
 32
0.0
 13
0.0397038801
 23
0.0264877824
 33
0.0
 40
0.0
 40
0.0
 40
0.0
 40
0.0
 40
0.0529699826
 40
1.0
 40
1.0
 40
1.0
 40
1.0
 10
-0.8710000146
 20
-24.4851924391
 30
0.0
 10
-0.8702170715
 20
-24.4848009675
 30
0.0
 10
-0.8554799623
 20
-24.477350204
 30
0.0
 10
-0.8414372276
 20
-24.469541086
 30
0.0
 10
-0.8289036388
 20
-24.461179511
 30
0.0
 11
-0.8710000146
 21
-24.4851924391
 31
0.0
 11
-0.868657771
 21
-24.4840106284
 31
0.0
 11
-0.8289036388
 21
-24.461179511
 31
0.0
  0
SPLINE
  5
439
100
AcDbEntity
  8
IMPORT_IGES
100
AcDbSpline
 62
7
  6
CONTINUOUS
 70
0
 71
3
 72
16
 73
12
 74
10
 42
0.0000001
 43
0.0000001
 44
0.0000000001
 12
0.5918942464
 22
0.3948723892
 32
0.0
 13
-0.7723802419
 23
0.7274516852
 33
0.0
 40
0.0
 40
0.0
 40
0.0
 40
0.0
 40
0.063526156
 40
0.2350520403
 40
0.3378746638
 40
0.4554210254
 40
0.5509332403
 40
0.636789735
 40
0.7863333931
 40
0.909918364
 40
1.0
 40
1.0
 40
1.0
 40
1.0
 10
-0.8289036388
 20
-24.461179511
 30
0.0
 10
-0.8163700501
 20
-24.452817936
 30
0.0
 10
-0.7728264161
 20
-24.418304744
 30
0.0
 10
-0.7281007243
 20
-24.3369938053
 30
0.0
 10
-0.7044303534
 20
-24.2203387542
 30
0.0
 10
-0.7022065695
 20
-24.1148064319
 30
0.0
 10
-0.7139261583
 20
-24.0093418065
 30
0.0
 10
-0.7423304177
 20
-23.8893017736
 30
0.0
 10
-0.7956794297
 20
-23.7589038153
 30
0.0
 10
-0.8710040834
 20
-23.6401270239
 30
0.0
 10
-0.9227944698
 20
-23.5792479051
 30
0.0
 10
-0.945986895
 20
-23.5574045592
 30
0.0
 11
-0.8289036388
 21
-24.461179511
 31
0.0
 11
-0.793741322
 21
-24.4325517584
 31
0.0
 11
-0.7267246963
 21
-24.3143457822
 31
0.0
 11
-0.7078796737
 21
-24.2229742897
 31
0.0
 11
-0.7050506347
 21
-24.1062300132
 31
0.0
 11
-0.7166501077
 21
-24.0054355635
 31
0.0
 11
-0.7388294775
 21
-23.9123893818
 31
0.0
 11
-0.8043495766
 21
-23.7524402967
 31
0.0
 11
-0.8804542698
 21
-23.6321797063
 31
0.0
 11
-0.945986895
 21
-23.5574045592
 31
0.0
  0
SPLINE
  5
43A
100
AcDbEntity
  8
ASSI
100
AcDbSpline
 62
7
  6
CONTINUOUS
 70
0
 71
3
 72
8
 73
4
 74
2
 42
0.0000001
 43
0.0000001
 44
0.0000000001
 12
0.0017199938
 22
-0.0008550042
 32
0.0
 13
0.0000082581
 23
-0.0019207661
 33
0.0
 40
0.0
 40
0.0
 40
0.0
 40
0.0
 40
1.0
 40
1.0
 40
1.0
 40
1.0
 10
5.5625208328
 20
-21.2342751775
 30
0.0
 10
5.563094164
 20
-21.2345601789
 30
0.0
 10
5.5635365962
 20
-21.2352634293
 30
0.0
 10
5.5635393489
 20
-21.2359036847
 30
0.0
 11
5.5625208328
 21
-21.2342751775
 31
0.0
 11
5.5635393489
 21
-21.2359036847
 31
0.0
  0
SPLINE
  5
43B
100
AcDbEntity
  8
ASSI
100
AcDbSpline
 62
7
  6
CONTINUOUS
 70
0
 71
3
 72
8
 73
4
 74
2
 42
0.0000001
 43
0.0000001
 44
0.0000000001
 12
-0.0322886643
 22
0.0161348252
 32
0.0
 13
-0.0345470447
 23
0.0104590691
 33
0.0
 40
0.0
 40
0.0
 40
0.0
 40
0.0
 40
1.0
 40
1.0
 40
1.0
 40
1.0
 10
1.3691566918
 20
-19.1375931071
 30
0.0
 10
1.3583938037
 20
-19.132214832
 30
0.0
 10
1.3471929659
 20
-19.1275879957
 30
0.0
 10
1.3356772843
 20
-19.1241016393
 30
0.0
 11
1.3691566918
 21
-19.1375931071
 31
0.0
 11
1.3356772843
 21
-19.1241016393
 31
0.0
  0
SPLINE
  5
43C
100
AcDbEntity
  8
ASSI
100
AcDbSpline
 62
7
  6
CONTINUOUS
 70
0
 71
3
 72
9
 73
5
 74
3
 42
0.0000001
 43
0.0000001
 44
0.0000000001
 12
-0.0774879905
 22
0.0234593799
 32
0.0
 13
-0.075213758
 23
-0.0299603369
 33
0.0
 40
0.0
 40
0.0
 40
0.0
 40
0.0
 40
0.2646796662
 40
1.0
 40
1.0
 40
1.0
 40
1.0
 10
1.3356772843
 20
-19.1241016393
 30
0.0
 10
1.3288407858
 20
-19.1220318991
 30
0.0
 10
1.3026991022
 20
-19.1157189096
 30
0.0
 10
1.2739134783
 20
-19.1166479798
 30
0.0
 10
1.2554780765
 20
-19.1239914614
 30
0.0
 11
1.3356772843
 21
-19.1241016393
 31
0.0
 11
1.3148172195
 21
-19.119197404
 31
0.0
 11
1.2554780765
 21
-19.1239914614
 31
0.0
  0
SPLINE
  5
43D
100
AcDbEntity
  8
ASSI
100
AcDbSpline
 62
7
  6
CONTINUOUS
 70
0
 71
3
 72
8
 73
4
 74
2
 42
0.0000001
 43
0.0000001
 44
0.0000000001
 12
0.0017199875
 22
-0.0008550395
 32
0.0
 13
0.0000082235
 23
-0.0019207763
 33
0.0
 40
0.0
 40
0.0
 40
0.0
 40
0.0
 40
1.0
 40
1.0
 40
1.0
 40
1.0
 10
-10.3473817071
 20
-13.1927213666
 30
0.0
 10
-10.3468083779
 20
-13.1930063798
 30
0.0
 10
-10.3463659654
 20
-13.1937096477
 30
0.0
 10
-10.3463632242
 20
-13.1943499064
 30
0.0
 11
-10.3473817071
 21
-13.1927213666
 31
0.0
 11
-10.3463632242
 21
-13.1943499064
 31
0.0
  0
SPLINE
  5
43E
100
AcDbEntity
  8
ASSI
100
AcDbSpline
 62
7
  6
CONTINUOUS
 70
0
 71
3
 72
8
 73
4
 74
2
 42
0.0000001
 43
0.0000001
 44
0.0000000001
 12
-0.032268327
 22
0.0161247358
 32
0.0
 13
-0.0345239903
 23
0.0104568695
 33
0.0
 40
0.0
 40
0.0
 40
0.0
 40
0.0
 40
1.0
 40
1.0
 40
1.0
 40
1.0
 10
-14.5407454753
 20
-11.0960394825
 30
0.0
 10
-14.5515015843
 20
-11.0906645706
 30
0.0
 10
-14.5626950449
 20
-11.0860401778
 30
0.0
 10
-14.5742030417
 20
-11.0825545546
 30
0.0
 11
-14.5407454753
 21
-11.0960394825
 31
0.0
 11
-14.5742030417
 21
-11.0825545546
 31
0.0
  0
SPLINE
  5
43F
100
AcDbEntity
  8
ASSI
100
AcDbSpline
 62
7
  6
CONTINUOUS
 70
0
 71
3
 72
9
 73
5
 74
3
 42
0.0000001
 43
0.0000001
 44
0.0000000001
 12
-0.0479673986
 22
0.0145287038
 32
0.0
 13
-0.0500426309
 23
-0.0027730218
 33
0.0
 40
0.0
 40
0.0
 40
0.0
 40
0.0
 40
0.257878631
 40
1.0
 40
1.0
 40
1.0
 40
1.0
 10
-14.5742030417
 20
-11.0825545546
 30
0.0
 10
-14.5783262974
 20
-11.0813056739
 30
0.0
 10
-14.5944700676
 20
-11.0770308445
 30
0.0
 10
-14.6113701318
 20
-11.0752650927
 30
0.0
 10
-14.6237493671
 20
-11.0759510656
 30
0.0
 11
-14.5742030417
 21
-11.0825545546
 31
0.0
 11
-14.5867028587
 21
-11.0792677567
 31
0.0
 11
-14.6237493671
 21
-11.0759510656
 31
0.0
  0
SPLINE
  5
440
100
AcDbEntity
  8
ASSI
100
AcDbSpline
 62
7
  6
CONTINUOUS
 70
0
 71
3
 72
8
 73
4
 74
2
 42
0.0000001
 43
0.0000001
 44
0.0000000001
 12
-0.0213414878
 22
-0.0011825999
 32
0.0
 13
-0.0206349063
 23
-0.005572996
 33
0.0
 40
0.0
 40
0.0
 40
0.0
 40
0.0
 40
1.0
 40
1.0
 40
1.0
 40
1.0
 10
-14.6237493671
 20
-11.0759510656
 30
0.0
 10
-14.6308631963
 20
-11.0763452656
 30
0.0
 10
-14.6379868606
 20
-11.0774071318
 30
0.0
 10
-14.6448651627
 20
-11.0792647971
 30
0.0
 11
-14.6237493671
 21
-11.0759510656
 31
0.0
 11
-14.6448651627
 21
-11.0792647971
 31
0.0
  0
SPLINE
  5
441
100
AcDbEntity
  8
ASSI
100
AcDbSpline
 62
7
  6
CONTINUOUS
 70
0
 71
3
 72
8
 73
4
 74
2
 42
0.0000001
 43
0.0000001
 44
0.0000000001
 12
-0.032268327
 22
0.0161247358
 32
0.0
 13
-0.0345239903
 23
0.0104568695
 33
0.0
 40
0.0
 40
0.0
 40
0.0
 40
0.0
 40
1.0
 40
1.0
 40
1.0
 40
1.0
 10
17.2790596781
 20
-27.0059420592
 30
0.0
 10
17.2683035691
 20
-27.0005671473
 30
0.0
 10
17.2571101085
 20
-26.9959427545
 30
0.0
 10
17.2456021117
 20
-26.9924571313
 30
0.0
 11
17.2790596781
 21
-27.0059420592
 31
0.0
 11
17.2456021117
 21
-26.9924571313
 31
0.0
  0
SPLINE
  5
442
100
AcDbEntity
  8
ASSI
100
AcDbSpline
 62
7
  6
CONTINUOUS
 70
0
 71
3
 72
9
 73
5
 74
3
 42
0.0000001
 43
0.0000001
 44
0.0000000001
 12
-0.0479673986
 22
0.0145287038
 32
0.0
 13
-0.0500426309
 23
-0.0027730218
 33
0.0
 40
0.0
 40
0.0
 40
0.0
 40
0.0
 40
0.257878631
 40
1.0
 40
1.0
 40
1.0
 40
1.0
 10
17.2456021117
 20
-26.9924571313
 30
0.0
 10
17.241478856
 20
-26.9912082506
 30
0.0
 10
17.2253350858
 20
-26.9869334212
 30
0.0
 10
17.2084350216
 20
-26.9851676694
 30
0.0
 10
17.1960557863
 20
-26.9858536423
 30
0.0
 11
17.2456021117
 21
-26.9924571313
 31
0.0
 11
17.2331022947
 21
-26.9891703334
 31
0.0
 11
17.1960557863
 21
-26.9858536423
 31
0.0
  0
SPLINE
  5
443
100
AcDbEntity
  8
ASSI
100
AcDbSpline
 62
7
  6
CONTINUOUS
 70
0
 71
3
 72
8
 73
4
 74
2
 42
0.0000001
 43
0.0000001
 44
0.0000000001
 12
-0.0213414878
 22
-0.0011825999
 32
0.0
 13
-0.0206349063
 23
-0.005572996
 33
0.0
 40
0.0
 40
0.0
 40
0.0
 40
0.0
 40
1.0
 40
1.0
 40
1.0
 40
1.0
 10
17.1960557863
 20
-26.9858536423
 30
0.0
 10
17.1889419571
 20
-26.9862478423
 30
0.0
 10
17.1818182928
 20
-26.9873097085
 30
0.0
 10
17.1749399907
 20
-26.9891673738
 30
0.0
 11
17.1960557863
 21
-26.9858536423
 31
0.0
 11
17.1749399907
 21
-26.9891673738
 31
0.0
  0
SPLINE
  5
444
100
AcDbEntity
  8
DRAFT
100
AcDbSpline
 62
7
  6
CONTINUOUS
 70
0
 71
3
 72
9
 73
5
 74
3
 42
0.0000001
 43
0.0000001
 44
0.0000000001
 12
-0.0332878751
 22
-0.1355086177
 32
0.0
 13
-0.1246655888
 23
-0.0626830046
 33
0.0
 40
0.0
 40
0.0
 40
0.0
 40
0.0
 40
0.5315790208
 40
1.0
 40
1.0
 40
1.0
 40
1.0
 10
-10.9242040846
 20
-14.2794503994
 30
0.0
 10
-10.9301024633
 20
-14.3034615789
 30
0.0
 10
-10.9479107331
 20
-14.3477846403
 30
0.0
 10
-10.9840203808
 20
-14.3804392522
 30
0.0
 10
-11.0034857065
 20
-14.390226597
 30
0.0
 11
-10.9242040846
 21
-14.2794503994
 31
0.0
 11
-10.9542070034
 21
-14.3472867713
 31
0.0
 11
-11.0034857065
 21
-14.390226597
 31
0.0
  0
SPLINE
  5
445
100
AcDbEntity
  8
DRAFT
100
AcDbSpline
 62
7
  6
CONTINUOUS
 70
0
 71
3
 72
9
 73
5
 74
3
 42
0.0000001
 43
0.0000001
 44
0.0000000001
 12
-0.0332878751
 22
-0.1355086177
 32
0.0
 13
-0.1246655888
 23
-0.0626830046
 33
0.0
 40
0.0
 40
0.0
 40
0.0
 40
0.0
 40
0.5315790208
 40
1.0
 40
1.0
 40
1.0
 40
1.0
 10
4.9856984921
 20
-22.2344016878
 30
0.0
 10
4.9798001134
 20
-22.2584128672
 30
0.0
 10
4.9619918436
 20
-22.3027359287
 30
0.0
 10
4.9258821959
 20
-22.3353905406
 30
0.0
 10
4.9064168702
 20
-22.3451778854
 30
0.0
 11
4.9856984921
 21
-22.2344016878
 31
0.0
 11
4.9556955733
 21
-22.3022380597
 31
0.0
 11
4.9064168702
 21
-22.3451778854
 31
0.0
  0
SPLINE
  5
446
100
AcDbEntity
  8
RACCORDO
100
AcDbSpline
 62
7
  6
CONTINUOUS
 70
0
 71
3
 72
9
 73
5
 74
3
 42
0.0000001
 43
0.0000001
 44
0.0000000001
 12
-0.1199872817
 22
0.0599050504
 32
0.0
 13
-0.1209684495
 23
-0.0578981611
 33
0.0
 40
0.0
 40
0.0
 40
0.0
 40
0.0
 40
0.4650457674
 40
1.0
 40
1.0
 40
1.0
 40
1.0
 10
-21.1901754239
 20
16.6134494038
 30
0.0
 10
-21.208775283
 20
16.6227356006
 30
0.0
 10
-21.2551368949
 20
16.6308433042
 30
0.0
 10
-21.2990200722
 20
16.6170462215
 30
0.0
 10
-21.3205909335
 20
16.6067219327
 30
0.0
 11
-21.1901754239
 21
16.6134494038
 31
0.0
 11
-21.2513598208
 21
16.6255392123
 31
0.0
 11
-21.3205909335
 21
16.6067219327
 31
0.0
  0
SPLINE
  5
447
100
AcDbEntity
  8
RACCORDO
100
AcDbSpline
 62
7
  6
CONTINUOUS
 70
0
 71
3
 72
9
 73
5
 74
3
 42
0.0000001
 43
0.0000001
 44
0.0000000001
 12
-0.1200021189
 22
0.0599713195
 32
0.0
 13
-0.1210071334
 23
-0.057916676
 33
0.0
 40
0.0
 40
0.0
 40
0.0
 40
0.0
 40
0.4650416511
 40
1.0
 40
1.0
 40
1.0
 40
1.0
 10
-21.4983148535
 20
16.7675191382
 30
0.0
 10
-21.516916848
 20
16.7768155254
 30
0.0
 10
-21.5632930665
 20
16.7849393285
 30
0.0
 10
-21.6071920588
 20
16.7711391278
 30
0.0
 10
-21.6287699842
 20
16.760811458
 30
0.0
 11
-21.4983148535
 21
16.7675191382
 31
0.0
 11
-21.5595148603
 21
16.779629972
 31
0.0
 11
-21.6287699842
 21
16.760811458
 31
0.0
  0
SPLINE
  5
448
100
AcDbEntity
  8
RACCORDO
100
AcDbSpline
 62
7
  6
CONTINUOUS
 70
0
 71
3
 72
9
 73
5
 74
3
 42
0.0000001
 43
0.0000001
 44
0.0000000001
 12
0.1211461435
 22
0.0559349925
 32
0.0
 13
0.1185133239
 23
-0.0613164215
 33
0.0
 40
0.0
 40
0.0
 40
0.0
 40
0.0
 40
0.4648265803
 40
1.0
 40
1.0
 40
1.0
 40
1.0
 10
-21.7582538863
 20
16.7715454004
 30
0.0
 10
-21.7394832371
 20
16.7802120908
 30
0.0
 10
-21.6931203226
 20
16.7868420412
 30
0.0
 10
-21.6499117112
 20
16.7717497643
 30
0.0
 10
-21.6287699842
 20
16.760811458
 30
0.0
 11
-21.7582538863
 21
16.7715454004
 31
0.0
 11
-21.6970633377
 21
16.7816822593
 31
0.0
 11
-21.6287699842
 21
16.760811458
 31
0.0
  0
SPLINE
  5
449
100
AcDbEntity
  8
RACCORDO
100
AcDbSpline
 62
7
  6
CONTINUOUS
 70
0
 71
3
 72
11
 73
7
 74
5
 42
0.0000001
 43
0.0000001
 44
0.0000000001
 12
-0.0000102202
 22
-0.1402935348
 32
0.0
 13
-0.1245845542
 23
-0.0645055413
 33
0.0
 40
0.0
 40
0.0
 40
0.0
 40
0.0
 40
0.2077778343
 40
0.4361450687
 40
0.698717255
 40
1.0
 40
1.0
 40
1.0
 40
1.0
 10
-21.0242931896
 20
10.9447153241
 30
0.0
 10
-21.0242938975
 20
10.9349986952
 30
0.0
 10
-21.0284739616
 20
10.9144505036
 30
0.0
 10
-21.045983484
 20
10.8862710822
 30
0.0
 10
-21.0733685236
 20
10.8608517986
 30
0.0
 10
-21.0959794826
 20
10.8469941008
 30
0.0
 10
-21.1084912081
 20
10.8405159653
 30
0.0
 11
-21.0242931896
 21
10.9447153241
 31
0.0
 11
-21.0298084572
 21
10.9160919468
 31
0.0
 11
-21.0461363255
 21
10.8885263382
 31
0.0
 11
-21.0727069729
 21
10.863012057
 31
0.0
 11
-21.1084912081
 21
10.8405159653
 31
0.0
  0
SPLINE
  5
44A
100
AcDbEntity
  8
RACCORDO
100
AcDbSpline
 62
7
  6
CONTINUOUS
 70
0
 71
3
 72
11
 73
7
 74
5
 42
0.0000001
 43
0.0000001
 44
0.0000000001
 12
-0.0000102203
 22
-0.1402935348
 32
0.0
 13
-0.1245845542
 23
-0.0645055413
 33
0.0
 40
0.0
 40
0.0
 40
0.0
 40
0.0
 40
0.2077778344
 40
0.4361450684
 40
0.6987172547
 40
1.0
 40
1.0
 40
1.0
 40
1.0
 10
-21.0242931896
 20
16.3451033776
 30
0.0
 10
-21.0242938975
 20
16.3353867487
 30
0.0
 10
-21.0284739616
 20
16.3148385571
 30
0.0
 10
-21.045983484
 20
16.2866591357
 30
0.0
 10
-21.0733685236
 20
16.2612398521
 30
0.0
 10
-21.0959794826
 20
16.2473821543
 30
0.0
 10
-21.1084912081
 20
16.2409040188
 30
0.0
 11
-21.0242931896
 21
16.3451033776
 31
0.0
 11
-21.0298084572
 21
16.3164800003
 31
0.0
 11
-21.0461363255
 21
16.2889143917
 31
0.0
 11
-21.0727069729
 21
16.2634001105
 31
0.0
 11
-21.1084912081
 21
16.2409040188
 31
0.0
  0
SPLINE
  5
44B
100
AcDbEntity
  8
RACCORDO
100
AcDbSpline
 62
7
  6
CONTINUOUS
 70
0
 71
3
 72
11
 73
7
 74
5
 42
0.0000001
 43
0.0000001
 44
0.0000000001
 12
0.1712622514
 22
0.0869949376
 32
0.0
 13
0.0004293237
 23
0.1920903266
 33
0.0
 40
0.0
 40
0.0
 40
0.0
 40
0.0
 40
0.3609349558
 40
0.6475569956
 40
0.8565789599
 40
1.0
 40
1.0
 40
1.0
 40
1.0
 10
-23.8119436953
 20
-8.0011789942
 30
0.0
 10
-23.7913388509
 20
-7.9907124895
 30
0.0
 10
-23.7550225382
 20
-7.9705949371
 30
0.0
 10
-23.7102361009
 20
-7.9385280077
 30
0.0
 10
-23.6812888913
 20
-7.9094526883
 30
0.0
 10
-23.671635071
 20
-7.8875075552
 30
0.0
 10
-23.6716145463
 20
-7.8783242904
 30
0.0
 11
-23.8119436953
 21
-8.0011789942
 31
0.0
 11
-23.7516187488
 21
-7.9670049278
 31
0.0
 11
-23.7073371867
 21
-7.9342869354
 31
0.0
 11
-23.680536996
 21
-7.9043893026
 31
0.0
 11
-23.6716145463
 21
-7.8783242904
 31
0.0
  0
SPLINE
  5
44C
100
AcDbEntity
  8
RACCORDO
100
AcDbSpline
 62
7
  6
CONTINUOUS
 70
0
 71
3
 72
11
 73
7
 74
5
 42
0.0000001
 43
0.0000001
 44
0.0000000001
 12
0.3974925818
 22
-0.1920748414
 32
0.0
 13
-0.0061350167
 23
-0.4414243523
 33
0.0
 40
0.0
 40
0.0
 40
0.0
 40
0.0
 40
0.230440652
 40
0.4885148107
 40
0.7528953883
 40
1.0
 40
1.0
 40
1.0
 40
1.0
 10
-2.6389568703
 20
-18.1919216842
 30
0.0
 10
-2.6084240538
 20
-18.2066756348
 30
0.0
 10
-2.5500559238
 20
-18.2512523909
 30
0.0
 10
-2.4830046737
 20
-18.3407463485
 30
0.0
 10
-2.4380339317
 20
-18.4457918356
 30
0.0
 10
-2.4263518144
 20
-18.5213802671
 30
0.0
 10
-2.4268571447
 20
-18.5577395982
 30
0.0
 11
-2.6389568703
 21
-18.1919216842
 31
0.0
 11
-2.5566646513
 21
-18.251732872
 31
0.0
 11
-2.4874698412
 21
-18.3422447564
 31
0.0
 11
-2.4418889448
 21
-18.4496916838
 31
0.0
 11
-2.4268571447
 21
-18.5577395982
 31
0.0
  0
SPLINE
  5
44D
100
AcDbEntity
  8
RACCORDO
100
AcDbSpline
 62
7
  6
CONTINUOUS
 70
0
 71
3
 72
14
 73
10
 74
8
 42
0.0000001
 43
0.0000001
 44
0.0000000001
 12
0.3943553874
 22
-0.2003416686
 32
0.0
 13
-0.0117691643
 23
-0.4421701511
 33
0.0
 40
0.0
 40
0.0
 40
0.0
 40
0.0
 40
0.1107720358
 40
0.2307901358
 40
0.3575289023
 40
0.4888703813
 40
0.7527421961
 40
0.8798077521
 40
1.0
 40
1.0
 40
1.0
 40
1.0
 10
-24.0240434193
 20
-7.6353610794
 30
0.0
 10
-24.0094822362
 20
-7.6427584976
 30
0.0
 10
-23.98021944
 20
-7.6604380862
 30
0.0
 10
-23.9400142706
 20
-7.6948787868
 30
0.0
 10
-23.9034533511
 20
-7.7372019768
 30
0.0
 10
-23.8606596584
 20
-7.8013297577
 30
0.0
 10
-23.8301636274
 20
-7.8731164312
 30
0.0
 10
-23.814202988
 20
-7.9468982356
 30
0.0
 10
-23.8114721252
 20
-7.9834638283
 30
0.0
 10
-23.8119436459
 20
-8.0011789697
 30
0.0
 11
-24.0240434193
 21
-7.6353610794
 31
0.0
 11
-23.982154257
 21
-7.6607785282
 31
0.0
 11
-23.9416897842
 21
-7.695142448
 31
0.0
 11
-23.9048138999
 21
-7.7373666924
 31
0.0
 11
-23.8725555276
 21
-7.7856836168
 31
0.0
 11
-23.8270135608
 21
-7.8931495125
 31
0.0
 11
-23.815306197
 21
-7.9481211675
 31
0.0
 11
-23.8119436459
 21
-8.0011789697
 31
0.0
  0
SPLINE
  5
44E
100
AcDbEntity
  8
RACCORDO
100
AcDbSpline
 62
7
  6
CONTINUOUS
 70
0
 71
3
 72
11
 73
7
 74
5
 42
0.0000001
 43
0.0000001
 44
0.0000000001
 12
0.3974925817
 22
-0.1920748416
 32
0.0
 13
-0.0061350169
 23
-0.4414243523
 33
0.0
 40
0.0
 40
0.0
 40
0.0
 40
0.0
 40
0.2304406517
 40
0.4885148109
 40
0.7528953877
 40
1.0
 40
1.0
 40
1.0
 40
1.0
 10
-21.3205909337
 20
16.6067219328
 30
0.0
 10
-21.2900581172
 20
16.5919679822
 30
0.0
 10
-21.2316899872
 20
16.5473912261
 30
0.0
 10
-21.1646387371
 20
16.4578972685
 30
0.0
 10
-21.1196679952
 20
16.3528517815
 30
0.0
 10
-21.1079858778
 20
16.2772633499
 30
0.0
 10
-21.1084912081
 20
16.2409040188
 30
0.0
 11
-21.3205909337
 21
16.6067219328
 31
0.0
 11
-21.2382987148
 21
16.546910745
 31
0.0
 11
-21.1691039046
 21
16.4563988605
 31
0.0
 11
-21.1235230082
 21
16.3489519334
 31
0.0
 11
-21.1084912081
 21
16.2409040188
 31
0.0
  0
SPLINE
  5
44F
100
AcDbEntity
  8
RACCORDO
100
AcDbSpline
 62
7
  6
CONTINUOUS
 70
0
 71
3
 72
11
 73
7
 74
5
 42
0.0000001
 43
0.0000001
 44
0.0000000001
 12
0.0025984861
 22
-0.1842744525
 32
0.0
 13
-0.1622148733
 23
-0.0874651979
 33
0.0
 40
0.0
 40
0.0
 40
0.0
 40
0.0
 40
0.28852378
 40
0.547995295
 40
0.7816826175
 40
1.0
 40
1.0
 40
1.0
 40
1.0
 10
-21.1084912081
 20
10.8405159653
 30
0.0
 10
-21.1082412998
 20
10.8227934447
 30
0.0
 10
-21.1106247919
 20
10.7889675232
 30
0.0
 10
-21.1243505858
 20
10.7424682051
 30
0.0
 10
-21.147875362
 20
10.704870832
 30
0.0
 10
-21.170042787
 20
10.6870584295
 30
0.0
 10
-21.1818475625
 20
10.6806933719
 30
0.0
 11
-21.1084912081
 21
10.8405159653
 31
0.0
 11
-21.1127578575
 21
10.7875145748
 31
0.0
 11
-21.1269201235
 21
10.7418411616
 31
0.0
 11
-21.1503139428
 21
10.705681989
 31
0.0
 11
-21.1818475625
 21
10.6806933719
 31
0.0
  0
SPLINE
  5
450
100
AcDbEntity
  8
RACCORDO
100
AcDbSpline
 62
7
  6
CONTINUOUS
 70
0
 71
3
 72
11
 73
7
 74
5
 42
0.0000001
 43
0.0000001
 44
0.0000000001
 12
-0.0000102203
 22
-0.1402935348
 32
0.0
 13
-0.1245845542
 23
-0.0645055413
 33
0.0
 40
0.0
 40
0.0
 40
0.0
 40
0.0
 40
0.2077778344
 40
0.4361450684
 40
0.6987172547
 40
1.0
 40
1.0
 40
1.0
 40
1.0
 10
-2.3426591263
 20
-18.4535402393
 30
0.0
 10
-2.3426598341
 20
-18.4632568683
 30
0.0
 10
-2.3468398982
 20
-18.4838050599
 30
0.0
 10
-2.3643494206
 20
-18.5119844812
 30
0.0
 10
-2.3917344602
 20
-18.5374037649
 30
0.0
 10
-2.4143454192
 20
-18.5512614627
 30
0.0
 10
-2.4268571447
 20
-18.5577395982
 30
0.0
 11
-2.3426591263
 21
-18.4535402393
 31
0.0
 11
-2.3481743938
 21
-18.4821636167
 31
0.0
 11
-2.3645022621
 21
-18.5097292253
 31
0.0
 11
-2.3910729095
 21
-18.5352435065
 31
0.0
 11
-2.4268571447
 21
-18.5577395982
 31
0.0
  0
SPLINE
  5
451
100
AcDbEntity
  8
RACCORDO
100
AcDbSpline
 62
7
  6
CONTINUOUS
 70
0
 71
3
 72
9
 73
5
 74
3
 42
0.0000001
 43
0.0000001
 44
0.0000000001
 12
-0.1199872818
 22
0.0599050505
 32
0.0
 13
-0.1209684497
 23
-0.0578981612
 33
0.0
 40
0.0
 40
0.0
 40
0.0
 40
0.0
 40
0.4650457663
 40
1.0
 40
1.0
 40
1.0
 40
1.0
 10
-2.5085413605
 20
-18.1851942131
 30
0.0
 10
-2.5271412196
 20
-18.1759080164
 30
0.0
 10
-2.5735028316
 20
-18.1678003128
 30
0.0
 10
-2.617386009
 20
-18.1815973954
 30
0.0
 10
-2.6389568704
 20
-18.1919216842
 30
0.0
 11
-2.5085413605
 21
-18.1851942131
 31
0.0
 11
-2.5697257573
 21
-18.1731044047
 31
0.0
 11
-2.6389568704
 21
-18.1919216842
 31
0.0
  0
SPLINE
  5
452
100
AcDbEntity
  8
RACCORDO
100
AcDbSpline
 62
7
  6
CONTINUOUS
 70
0
 71
3
 72
9
 73
5
 74
3
 42
0.0000001
 43
0.0000001
 44
0.0000000001
 12
-0.1200021189
 22
0.0599713195
 32
0.0
 13
-0.1210071334
 23
-0.057916676
 33
0.0
 40
0.0
 40
0.0
 40
0.0
 40
0.0
 40
0.4650416511
 40
1.0
 40
1.0
 40
1.0
 40
1.0
 10
-4.0467923983
 20
-17.4160686747
 30
0.0
 10
-4.0653943928
 20
-17.4067722876
 30
0.0
 10
-4.1117706113
 20
-17.3986484844
 30
0.0
 10
-4.1556696035
 20
-17.4124486851
 30
0.0
 10
-4.177247529
 20
-17.4227763549
 30
0.0
 11
-4.0467923983
 21
-17.4160686747
 31
0.0
 11
-4.107992405
 21
-17.4039578409
 31
0.0
 11
-4.177247529
 21
-17.4227763549
 31
0.0
  0
SPLINE
  5
453
100
AcDbEntity
  8
RACCORDO
100
AcDbSpline
 62
7
  6
CONTINUOUS
 70
0
 71
3
 72
9
 73
5
 74
3
 42
0.0000001
 43
0.0000001
 44
0.0000000001
 12
0.1211461435
 22
0.0559349925
 32
0.0
 13
0.1185133239
 23
-0.0613164215
 33
0.0
 40
0.0
 40
0.0
 40
0.0
 40
0.0
 40
0.4648265803
 40
1.0
 40
1.0
 40
1.0
 40
1.0
 10
-4.3067314311
 20
-17.4120424125
 30
0.0
 10
-4.2879607818
 20
-17.4033757221
 30
0.0
 10
-4.2415978674
 20
-17.3967457718
 30
0.0
 10
-4.1983892559
 20
-17.4118380486
 30
0.0
 10
-4.177247529
 20
-17.4227763549
 30
0.0
 11
-4.3067314311
 21
-17.4120424125
 31
0.0
 11
-4.2455408824
 21
-17.4019055537
 31
0.0
 11
-4.177247529
 21
-17.4227763549
 31
0.0
  0
SPLINE
  5
454
100
AcDbEntity
  8
ASSI
100
AcDbSpline
 62
7
  6
CONTINUOUS
 70
0
 71
3
 72
11
 73
7
 74
5
 42
0.0000001
 43
0.0000001
 44
0.0000000001
 12
0.0483159092
 22
0.0240461291
 32
0.0
 13
0.048326814
 23
-0.0240242057
 33
0.0
 40
0.0
 40
0.0
 40
0.0
 40
0.0
 40
0.4141056993
 40
0.7151930062
 40
0.9055096016
 40
1.0
 40
1.0
 40
1.0
 40
1.0
 10
-10.3977364388
 20
-13.2107816634
 30
0.0
 10
-10.391067141
 20
-13.2074624503
 30
0.0
 10
-10.3794414258
 20
-13.2020665047
 30
0.0
 10
-10.3642137794
 20
-13.1957945031
 30
0.0
 10
-10.3544171685
 20
-13.192799372
 30
0.0
 10
-10.3489038471
 20
-13.191964681
 30
0.0
 10
-10.3473817071
 20
-13.1927213666
 30
0.0
 11
-10.3977364388
 21
-13.2107816634
 31
0.0
 11
-10.3774696863
 21
-13.2013620501
 31
0.0
 11
-10.3623686734
 21
-13.1953619731
 31
0.0
 11
-10.3524794783
 21
-13.1925869148
 31
0.0
 11
-10.3473817071
 21
-13.1927213666
 31
0.0
  0
SPLINE
  5
455
100
AcDbEntity
  8
ASSI
100
AcDbSpline
 62
7
  6
CONTINUOUS
 70
0
 71
3
 72
11
 73
7
 74
5
 42
0.0000001
 43
0.0000001
 44
0.0000000001
 12
0.048315538
 22
0.0240467905
 32
0.0
 13
0.0483272103
 23
-0.0240233238
 33
0.0
 40
0.0
 40
0.0
 40
0.0
 40
0.0
 40
0.4141046671
 40
0.7151915315
 40
0.9055086154
 40
1.0
 40
1.0
 40
1.0
 40
1.0
 10
5.5121661379
 20
-21.2523354921
 30
0.0
 10
5.5188353678
 20
-21.249016196
 30
0.0
 10
5.5304611212
 20
-21.2436203991
 30
0.0
 10
5.5456887075
 20
-21.2373483665
 30
0.0
 10
5.5554853418
 20
-21.2343532067
 30
0.0
 10
5.5609986644
 20
-21.2335185118
 30
0.0
 10
5.5625208328
 20
-21.2342751775
 30
0.0
 11
5.5121661379
 21
-21.2523354921
 31
0.0
 11
5.5324328282
 21
-21.2429159141
 31
0.0
 11
5.5475338034
 21
-21.2369158377
 31
0.0
 11
5.5574230111
 21
-21.2341407535
 31
0.0
 11
5.5625208328
 21
-21.2342751775
 31
0.0
  0
SPLINE
  5
456
100
AcDbEntity
  8
RACCORDO
100
AcDbSpline
 62
7
  6
CONTINUOUS
 70
0
 71
3
 72
10
 73
6
 74
4
 42
0.0000001
 43
0.0000001
 44
0.0000000001
 12
-0.1719060809
 22
0.0858445567
 32
0.0
 13
-0.1728440808
 23
-0.0839399328
 33
0.0
 40
0.0
 40
0.0
 40
0.0
 40
0.0
 40
0.4083751956
 40
0.6803995527
 40
1.0
 40
1.0
 40
1.0
 40
1.0
 10
-23.8384922609
 20
-7.608236286
 30
0.0
 10
-23.8618929874
 20
-7.5965506901
 30
0.0
 10
-23.908914275
 20
-7.5954480224
 30
0.0
 10
-23.9704570073
 20
-7.6116205244
 30
0.0
 10
-24.0056297391
 20
-7.6264186669
 30
0.0
 10
-24.0240434209
 20
-7.6353610802
 30
0.0
 11
-23.8384922609
 21
-7.608236286
 31
0.0
 11
-23.9164828755
 21
-7.5995882577
 31
0.0
 11
-23.9672674317
 21
-7.6119567863
 31
0.0
 11
-24.0240434209
 21
-7.6353610802
 31
0.0
  0
SPLINE
  5
457
100
AcDbEntity
  8
SMUSSO
100
AcDbSpline
 62
7
  6
CONTINUOUS
 70
0
 71
3
 72
8
 73
4
 74
2
 42
0.0000001
 43
0.0000001
 44
0.0000000001
 12
0.0086955701
 22
-0.006542547
 32
0.0
 13
0.0000027691
 23
-0.0108819967
 33
0.0
 40
0.0
 40
0.0
 40
0.0
 40
0.0
 40
1.0
 40
1.0
 40
1.0
 40
1.0
 10
43.2877376661
 20
25.692363258
 30
0.0
 10
43.2906361895
 20
25.690182409
 30
0.0
 10
43.2925975602
 20
25.6862545584
 30
0.0
 10
43.2925984832
 20
25.6826272262
 30
0.0
 11
43.2877376661
 21
25.692363258
 31
0.0
 11
43.2925984832
 21
25.6826272262
 31
0.0
  0
SPLINE
  5
458
100
AcDbEntity
  8
SMUSSO
100
AcDbSpline
 62
7
  6
CONTINUOUS
 70
0
 71
3
 72
11
 73
7
 74
5
 42
0.0000001
 43
0.0000001
 44
0.0000000001
 12
0.4186313214
 22
0.2175118636
 32
0.0
 13
0.423469719
 23
-0.2079350646
 33
0.0
 40
0.0
 40
0.0
 40
0.0
 40
0.0
 40
0.2267291107
 40
0.4641191386
 40
0.7203320233
 40
1.0
 40
1.0
 40
1.0
 40
1.0
 10
-39.810848215
 20
67.1963886087
 30
0.0
 10
-39.7792095792
 20
67.2128273658
 30
0.0
 10
-39.7092007584
 20
67.2371952295
 30
0.0
 10
-39.5949392694
 20
67.2441280232
 30
0.0
 10
-39.4743076321
 20
67.2225151178
 30
0.0
 10
-39.3954532525
 20
67.1913019553
 30
0.0
 10
-39.3559762793
 20
67.1719176957
 30
0.0
 11
-39.810848215
 21
67.1963886087
 31
0.0
 11
-39.7099470466
 21
67.2318861902
 31
0.0
 11
-39.5982243169
 21
67.2396570392
 31
0.0
 11
-39.4790511175
 21
67.2194593889
 31
0.0
 11
-39.3559762793
 21
67.1719176957
 31
0.0
  0
SPLINE
  5
459
100
AcDbEntity
  8
SMUSSO
100
AcDbSpline
 62
7
  6
CONTINUOUS
 70
0
 71
3
 72
11
 73
7
 74
5
 42
0.0000001
 43
0.0000001
 44
0.0000000001
 12
-0.392282727
 22
-0.2038219584
 32
0.0
 13
-0.0863401176
 23
-0.4335602758
 33
0.0
 40
0.0
 40
0.0
 40
0.0
 40
0.0
 40
0.2283675628
 40
0.4666380695
 40
0.7223720752
 40
1.0
 40
1.0
 40
1.0
 40
1.0
 10
-41.1825328241
 20
66.4836805197
 30
0.0
 10
-41.2123943742
 20
66.4681650784
 30
0.0
 10
-41.2693316555
 20
66.4279210686
 30
0.0
 10
-41.3382270057
 20
66.3454489051
 30
0.0
 10
-41.3899250774
 20
66.2432489639
 30
0.0
 10
-41.411372227
 20
66.167140919
 30
0.0
 10
-41.4193623695
 20
66.1270181058
 30
0.0
 11
-41.1825328241
 21
66.4836805197
 31
0.0
 11
-41.2651457946
 21
66.4256540867
 31
0.0
 11
-41.3333004327
 21
66.345342127
 31
0.0
 11
-41.3851736401
 21
66.2448920785
 31
0.0
 11
-41.4193623695
 21
66.1270181058
 31
0.0
  0
SPLINE
  5
45A
100
AcDbEntity
  8
SMUSSO
100
AcDbSpline
 62
7
  6
CONTINUOUS
 70
0
 71
3
 72
9
 73
5
 74
3
 42
0.0000001
 43
0.0000001
 44
0.0000000001
 12
0.1413043801
 22
-0.0719067609
 32
0.0
 13
0.1269934883
 23
-0.0949218839
 33
0.0
 40
0.0
 40
0.0
 40
0.0
 40
0.0
 40
0.2414302527
 40
1.0
 40
1.0
 40
1.0
 40
1.0
 10
42.5855186265
 20
26.2011702428
 30
0.0
 10
42.5968903439
 20
26.1953834203
 30
0.0
 10
42.6434170666
 20
26.1702915549
 30
0.0
 10
42.6876271794
 20
26.1409845235
 30
0.0
 10
42.7197383189
 20
26.1169829004
 30
0.0
 11
42.5855186265
 21
26.2011702428
 31
0.0
 11
42.6192212289
 21
26.1830218535
 31
0.0
 11
42.7197383189
 21
26.1169829004
 31
0.0
  0
SPLINE
  5
45B
100
AcDbEntity
  8
SMUSSO
100
AcDbSpline
 62
7
  6
CONTINUOUS
 70
0
 71
3
 72
10
 73
6
 74
4
 42
0.0000001
 43
0.0000001
 44
0.0000000001
 12
0.3771590029
 22
-0.1630740524
 32
0.0
 13
0.3703396798
 23
0.1780184866
 33
0.0
 40
0.0
 40
0.0
 40
0.0
 40
0.0
 40
0.5295721514
 40
0.7692687208
 40
1.0
 40
1.0
 40
1.0
 40
1.0
 10
41.22938727
 20
-66.1867587716
 30
0.0
 10
41.2959649049
 20
-66.2155452639
 30
0.0
 10
41.4010943167
 20
-66.2437059219
 30
0.0
 10
41.5387238073
 20
-66.2333777937
 30
0.0
 10
41.6006648754
 20
-66.2128533055
 30
0.0
 10
41.6291478581
 20
-66.1991618278
 30
0.0
 11
41.22938727
 21
-66.1867587716
 31
0.0
 11
41.4410620424
 21
-66.2372065977
 31
0.0
 11
41.5392298059
 21
-66.2292180365
 31
0.0
 11
41.6291478581
 21
-66.1991618278
 31
0.0
  0
SPLINE
  5
45C
100
AcDbEntity
  8
SMUSSO
100
AcDbSpline
 62
7
  6
CONTINUOUS
 70
0
 71
3
 72
11
 73
7
 74
5
 42
0.0000001
 43
0.0000001
 44
0.0000000001
 12
-0.0045541136
 22
-0.6372058395
 32
0.0
 13
-0.5743158527
 23
-0.2760676062
 33
0.0
 40
0.0
 40
0.0
 40
0.0
 40
0.0
 40
0.2903466894
 40
0.5503959283
 40
0.7834270883
 40
1.0
 40
1.0
 40
1.0
 40
1.0
 10
43.2925984832
 20
-64.9834829084
 30
0.0
 10
43.292157726
 20
-65.0451531104
 30
0.0
 10
43.281356249
 20
-65.1624329866
 30
0.0
 10
43.2299905644
 20
-65.3224331983
 30
0.0
 10
43.1451934332
 20
-65.4498765727
 30
0.0
 10
43.0664529141
 20
-65.5081758575
 30
0.0
 10
43.0249924953
 20
-65.5281054459
 30
0.0
 11
43.2925984832
 21
-64.9834829084
 31
0.0
 11
43.2737252116
 21
-65.1675330982
 31
0.0
 11
43.2208232642
 21
-65.3245709862
 31
0.0
 11
43.1365063274
 21
-65.4468031786
 31
0.0
 11
43.0249924953
 21
-65.5281054459
 31
0.0
  0
SPLINE
  5
45D
100
AcDbEntity
  8
SMUSSO
100
AcDbSpline
 62
7
  6
CONTINUOUS
 70
0
 71
3
 72
11
 73
7
 74
5
 42
0.0000001
 43
0.0000001
 44
0.0000000001
 12
1.0487971284
 22
-0.7839283779
 32
0.0
 13
0.0096952264
 23
-1.3093605771
 33
0.0
 40
0.0
 40
0.0
 40
0.0
 40
0.0
 40
0.2403523589
 40
0.4996289338
 40
0.7591036403
 40
1.0
 40
1.0
 40
1.0
 40
1.0
 10
42.7197383189
 20
26.1169829004
 30
0.0
 10
42.8037652735
 20
26.0541765554
 30
0.0
 10
42.9596891945
 20
25.8979696545
 30
0.0
 10
43.1389485249
 20
25.6167791259
 30
0.0
 10
43.2586872782
 20
25.3052860188
 30
0.0
 10
43.2918199683
 20
25.0867779518
 30
0.0
 10
43.2925984832
 20
24.9816378863
 30
0.0
 11
42.7197383189
 21
26.1169829004
 31
0.0
 11
42.9450035889
 21
25.8972056205
 31
0.0
 11
43.1287261692
 21
25.6117175585
 31
0.0
 11
43.2493163479
 21
25.2940831005
 31
0.0
 11
43.2925984832
 21
24.9816378863
 31
0.0
  0
SPLINE
  5
45E
100
AcDbEntity
  8
SMUSSO
100
AcDbSpline
 62
7
  6
CONTINUOUS
 70
0
 71
3
 72
11
 73
7
 74
5
 42
0.0000001
 43
0.0000001
 44
0.0000000001
 12
0.5735269842
 22
0.2756885403
 32
0.0
 13
0.0022732118
 23
0.6363428363
 33
0.0
 40
0.0
 40
0.0
 40
0.0
 40
0.0
 40
0.2168660749
 40
0.4498901102
 40
0.7098128883
 40
1.0
 40
1.0
 40
1.0
 40
1.0
 10
41.6291478581
 20
-66.1991618278
 30
0.0
 10
41.6706073734
 20
-66.1792326639
 30
0.0
 10
41.7493123405
 20
-66.1209968974
 30
0.0
 10
41.8339254352
 20
-65.9936198034
 30
0.0
 10
41.884907202
 20
-65.8337871527
 30
0.0
 10
41.8953028538
 20
-65.7166839711
 30
0.0
 10
41.8955227394
 20
-65.6551311412
 30
0.0
 11
41.6291478581
 21
-66.1991618278
 31
0.0
 11
41.7406588648
 21
-66.1178607687
 31
0.0
 11
41.824759067
 21
-65.9957324069
 31
0.0
 11
41.8772628311
 21
-65.8388857839
 31
0.0
 11
41.8955227394
 21
-65.6551311412
 31
0.0
  0
SPLINE
  5
45F
100
AcDbEntity
  8
SMUSSO
100
AcDbSpline
 62
7
  6
CONTINUOUS
 70
0
 71
3
 72
11
 73
7
 74
5
 42
0.0000001
 43
0.0000001
 44
0.0000000001
 12
-0.0052178274
 22
1.4672484856
 32
0.0
 13
-1.3100359115
 23
0.6607959252
 33
0.0
 40
0.0
 40
0.0
 40
0.0
 40
0.0
 40
0.2467198519
 40
0.5118596855
 40
0.7705113027
 40
1.0
 40
1.0
 40
1.0
 40
1.0
 10
41.8955227394
 20
24.2803836092
 30
0.0
 10
41.8950936255
 20
24.4010500522
 30
0.0
 10
41.8527038196
 20
24.6516552531
 30
0.0
 10
41.7015103303
 20
25.0002543989
 30
0.0
 10
41.4801125225
 20
25.2986333259
 30
0.0
 10
41.2886556943
 20
25.449367567
 30
0.0
 10
41.1884428827
 20
25.4999159657
 30
0.0
 11
41.8955227394
 21
24.2803836092
 31
0.0
 11
41.840742533
 21
24.6382163919
 31
0.0
 11
41.6871264387
 21
24.9956310717
 31
0.0
 11
41.4580682732
 21
25.2982184627
 31
0.0
 11
41.1884428827
 21
25.4999159657
 31
0.0
  0
SPLINE
  5
460
100
AcDbEntity
  8
SMUSSO
100
AcDbSpline
 62
7
  6
CONTINUOUS
 70
0
 71
3
 72
11
 73
7
 74
5
 42
0.0000001
 43
0.0000001
 44
0.0000000001
 12
-0.4217225947
 22
0.2090320347
 32
0.0
 13
-0.417671523
 23
-0.2170134496
 33
0.0
 40
0.0
 40
0.0
 40
0.0
 40
0.0
 40
0.2795484027
 40
0.5356622277
 40
0.7730554916
 40
1.0
 40
1.0
 40
1.0
 40
1.0
 10
-40.7288787892
 20
66.4585768016
 30
0.0
 10
-40.7681760818
 20
66.4780549921
 30
0.0
 10
-40.8467295016
 20
66.5094242778
 30
0.0
 10
-40.9670148201
 20
66.5312310807
 30
0.0
 10
-41.081050393
 20
66.5244197141
 30
0.0
 10
-41.1509367379
 20
66.5000971899
 30
0.0
 10
-41.1825328241
 20
66.4836805197
 30
0.0
 11
-40.7288787892
 21
66.4585768016
 31
0.0
 11
-40.8514718216
 21
66.5063684576
 31
0.0
 11
-40.9702847232
 21
66.526753214
 31
0.0
 11
-41.0817605156
 21
66.5191110056
 31
0.0
 11
-41.1825328241
 21
66.4836805197
 31
0.0
  0
SPLINE
  5
461
100
AcDbEntity
  8
SMUSSO
100
AcDbSpline
 62
7
  6
CONTINUOUS
 70
0
 71
3
 72
11
 73
7
 74
5
 42
0.0000001
 43
0.0000001
 44
0.0000000001
 12
0.5211626276
 22
-0.3908665127
 32
0.0
 13
0.0000000002
 23
-0.6514500097
 33
0.0
 40
0.0
 40
0.0
 40
0.0
 40
0.0
 40
0.2409429556
 40
0.5000138533
 40
0.7590645364
 40
1.0
 40
1.0
 40
1.0
 40
1.0
 10
40.923855802
 20
24.8671315426
 30
0.0
 10
40.9657126233
 20
24.835739365
 30
0.0
 10
41.0432507321
 20
24.7578614151
 30
0.0
 10
41.132088414
 20
24.6177262172
 30
0.0
 10
41.1908843892
 20
24.4625696365
 30
0.0
 10
41.2066334787
 20
24.3538157304
 30
0.0
 10
41.2066334787
 20
24.3014965937
 30
0.0
 11
40.923855802
 21
24.8671315426
 31
0.0
 11
41.0360234525
 21
24.7573336424
 31
0.0
 11
41.1269640187
 21
24.6151587034
 31
0.0
 11
41.1861188862
 21
24.4571075833
 31
0.0
 11
41.2066334787
 21
24.3014965937
 31
0.0
  0
SPLINE
  5
462
100
AcDbEntity
  8
SMUSSO
100
AcDbSpline
 62
7
  6
CONTINUOUS
 70
0
 71
3
 72
11
 73
7
 74
5
 42
0.0000001
 43
0.0000001
 44
0.0000000001
 12
0.4148284081
 22
0.2074204088
 32
0.0
 13
0.41483089
 23
-0.2074154449
 33
0.0
 40
0.0
 40
0.0
 40
0.0
 40
0.0
 40
0.2271156206
 40
0.4646633313
 40
0.7207940344
 40
1.0
 40
1.0
 40
1.0
 40
1.0
 10
-41.9720717802
 20
66.2081140633
 30
0.0
 10
-41.9406671098
 20
66.2238168683
 30
0.0
 10
-41.8714621878
 20
66.2468407726
 30
0.0
 10
-41.759018149
 20
66.2524762517
 30
0.0
 10
-41.6406824684
 20
66.2302331275
 30
0.0
 10
-41.5634676732
 20
66.1990191828
 30
0.0
 10
-41.5248599201
 20
66.1797153063
 30
0.0
 11
-41.9720717802
 21
66.2081140633
 31
0.0
 11
-41.8722316666
 21
66.2416913532
 31
0.0
 11
-41.7622475583
 21
66.2481477242
 31
0.0
 11
-41.6453028717
 21
66.2272787337
 31
0.0
 11
-41.5248599201
 21
66.1797153063
 31
0.0
  0
SPLINE
  5
463
100
AcDbEntity
  8
SMUSSO
100
AcDbSpline
 62
7
  6
CONTINUOUS
 70
0
 71
3
 72
9
 73
5
 74
3
 42
0.0000001
 43
0.0000001
 44
0.0000000001
 12
0.1491934848
 22
-0.0745967426
 32
0.0
 13
0.1334480296
 23
-0.1000749384
 33
0.0
 40
0.0
 40
0.0
 40
0.0
 40
0.0
 40
0.241268694
 40
1.0
 40
1.0
 40
1.0
 40
1.0
 10
40.4995266976
 20
25.1675219975
 30
0.0
 10
40.51152527
 20
25.1615227113
 30
0.0
 10
40.5606290066
 20
25.1354099539
 30
0.0
 10
40.6071975733
 20
25.1046244386
 30
0.0
 10
40.6409479725
 20
25.0793144424
 30
0.0
 11
40.4995266976
 21
25.1675219975
 31
0.0
 11
40.5350720851
 21
25.1486503256
 31
0.0
 11
40.6409479725
 21
25.0793144424
 31
0.0
  0
SPLINE
  5
464
100
AcDbEntity
  8
SMUSSO
100
AcDbSpline
 62
7
  6
CONTINUOUS
 70
0
 71
3
 72
11
 73
7
 74
5
 42
0.0000001
 43
0.0000001
 44
0.0000000001
 12
-0.0000000006
 22
-0.6297204291
 32
0.0
 13
-0.5632357047
 23
-0.2816262768
 33
0.0
 40
0.0
 40
0.0
 40
0.0
 40
0.0
 40
0.2897540007
 40
0.5495824015
 40
0.7828478708
 40
1.0
 40
1.0
 40
1.0
 40
1.0
 10
41.2066334787
 20
-66.1186987905
 30
0.0
 10
41.2066334787
 20
-66.1795201284
 30
0.0
 10
41.1968212567
 20
-66.2953207176
 30
0.0
 10
41.1473194902
 20
-66.4536950464
 30
0.0
 10
41.0646598551
 20
-66.5804940521
 30
0.0
 10
40.9875078352
 20
-66.6391843122
 30
0.0
 10
40.9467385577
 20
-66.6595695607
 30
0.0
 11
41.2066334787
 21
-66.1186987905
 31
0.0
 11
41.1893546123
 21
-66.3003428299
 31
0.0
 11
41.1383630988
 21
-66.4558134869
 31
0.0
 11
41.0561513526
 21
-66.5775447388
 31
0.0
 11
40.9467385577
 21
-66.6595695607
 31
0.0
  0
SPLINE
  5
465
100
AcDbEntity
  8
SMUSSO
100
AcDbSpline
 62
7
  6
CONTINUOUS
 70
0
 71
3
 72
11
 73
7
 74
5
 42
0.0000001
 43
0.0000001
 44
0.0000000001
 12
1.0424932166
 22
-0.7817833261
 32
0.0
 13
0.0000000004
 23
-1.3030645708
 33
0.0
 40
0.0
 40
0.0
 40
0.0
 40
0.0
 40
0.240927342
 40
0.4999984982
 40
0.7590654985
 40
1.0
 40
1.0
 40
1.0
 40
1.0
 10
40.6409479725
 20
25.0793144424
 30
0.0
 10
40.7246696791
 20
25.0165301161
 30
0.0
 10
40.8797933896
 20
24.8607928347
 30
0.0
 10
41.0574972493
 20
24.580486612
 30
0.0
 10
41.1751285516
 20
24.2701372798
 30
0.0
 10
41.2066334787
 20
24.052594274
 30
0.0
 10
41.2066334787
 20
23.9479432031
 30
0.0
 11
40.6409479725
 21
25.0793144424
 31
0.0
 11
40.8653250759
 21
24.8597337568
 31
0.0
 11
41.0472464856
 21
24.5753586375
 31
0.0
 11
41.1655949501
 21
24.2592026753
 31
0.0
 11
41.2066334787
 21
23.9479432031
 31
0.0
  0
ELLIPSE
  5
466
100
AcDbEntity
  8
RACCORDO
100
AcDbEllipse
 62
7
  6
CONTINUOUS
 10
-28.7727944004
 20
33.5701431718
 30
0.0
 11
-0.313181275
 21
0.626269159
 31
0.0
 40
0.6121897086
 41
-0.6846338794
 42
0.019259411
  0
ELLIPSE
  5
467
100
AcDbEntity
  8
RACCORDO
100
AcDbEllipse
 62
7
  6
CONTINUOUS
 10
22.7977137095
 20
-36.4964724033
 30
0.0
 11
-0.313181275
 21
0.626269159
 31
0.0
 40
0.6121897086
 41
-3.160544254
 42
-2.2557347926
  0
ELLIPSE
  5
468
100
AcDbEntity
  8
RACCORDO
100
AcDbEllipse
 62
7
  6
CONTINUOUS
 10
22.7977137095
 20
7.7848891168
 30
0.0
 11
-0.3130130858
 21
0.6261196575
 31
0.0
 40
0.6125552124
 41
-2.255296188
 42
-0.6848044477
  0
ELLIPSE
  5
469
100
AcDbEntity
  8
RACCORDO
100
AcDbEllipse
 62
7
  6
CONTINUOUS
 10
-25.4325941668
 20
-8.2380146499
 30
0.0
 11
-0.1341484654
 21
0.2683369961
 31
0.0
 40
0.6125552124
 41
0.8862964655
 42
2.4567882058
  0
ELLIPSE
  5
46A
100
AcDbEntity
  8
RACCORDO
100
AcDbEllipse
 62
7
  6
CONTINUOUS
 10
-24.9185264747
 20
-7.9925816247
 30
0.0
 11
-0.1340229113
 21
0.2684080287
 31
0.0
 40
0.6140178746
 41
0.8880524522
 42
2.4561097232
  0
ELLIPSE
  5
46B
100
AcDbEntity
  8
RACCORDO
100
AcDbEllipse
 62
7
  6
CONTINUOUS
 10
5.2700341207
 20
-22.9665029525
 30
0.0
 11
-0.1342205464
 21
0.2684010681
 31
0.0
 40
0.6121897086
 41
-0.6846338794
 42
0.0192594208
  0
ELLIPSE
  5
46C
100
AcDbEntity
  8
RACCORDO
100
AcDbEllipse
 62
7
  6
CONTINUOUS
 10
-10.639868456
 20
-15.0115516642
 30
0.0
 11
-0.1342205464
 21
0.2684010681
 31
0.0
 40
0.6121897086
 41
-0.6846338794
 42
0.0192594208
  0
ELLIPSE
  5
46D
100
AcDbEntity
  8
RACCORDO
100
AcDbEllipse
 62
7
  6
CONTINUOUS
 10
10.7842327545
 20
-25.6513799384
 30
0.0
 11
-0.1342205464
 21
0.2684010681
 31
0.0
 40
0.6121897086
 41
-0.6846338794
 42
0.019259411
  0
ELLIPSE
  5
46E
100
AcDbEntity
  8
RACCORDO
100
AcDbEllipse
 62
7
  6
CONTINUOUS
 10
-5.1256698222
 20
-17.69642865
 30
0.0
 11
-0.1342205464
 21
0.2684010681
 31
0.0
 40
0.6121897086
 41
-0.6846338794
 42
0.019259411
  0
ELLIPSE
  5
46F
100
AcDbEntity
  8
RACCORDO
100
AcDbEllipse
 62
7
  6
CONTINUOUS
 10
2.1389838182
 20
-21.3287554702
 30
0.0
 11
-0.1341371037
 21
0.2683722998
 31
0.0
 40
0.6123537661
 41
-0.6845550499
 42
0.0106825902
  0
ELLIPSE
  5
470
100
AcDbEntity
  8
RACCORDO
100
AcDbEllipse
 62
7
  6
CONTINUOUS
 10
18.0488863949
 20
-29.2837067585
 30
0.0
 11
-0.1341371037
 21
0.2683722998
 31
0.0
 40
0.6123537661
 41
-0.6845550499
 42
0.0106825902
  0
ELLIPSE
  5
471
100
AcDbEntity
  8
RACCORDO
100
AcDbEllipse
 62
7
  6
CONTINUOUS
 10
-13.7709187585
 20
-13.3738041819
 30
0.0
 11
-0.1341371037
 21
0.2683722998
 31
0.0
 40
0.6123537661
 41
-0.6845550499
 42
0.0106825902
  0
ELLIPSE
  5
472
100
AcDbEntity
  8
RACCORDO
100
AcDbEllipse
 62
7
  6
CONTINUOUS
 10
-24.5896848243
 20
-1.491905415
 30
0.0
 11
-0.1341484654
 21
0.2683369961
 31
0.0
 40
0.6125552124
 41
-2.255296188
 42
-0.6848044477
  0
ELLIPSE
  5
473
100
AcDbEntity
  8
RACCORDO
100
AcDbEllipse
 62
7
  6
CONTINUOUS
 10
-24.5896848243
 20
25.4003108432
 30
0.0
 11
-0.1342205464
 21
0.2684010681
 31
0.0
 40
0.6121897086
 41
-3.160544254
 42
-2.2557347926
  0
ELLIPSE
  5
474
100
AcDbEntity
  8
RACCORDO
100
AcDbEllipse
 62
7
  6
CONTINUOUS
 10
-24.5896848243
 20
17.5606534682
 30
0.0
 11
-0.1341484654
 21
0.2683369961
 31
0.0
 40
0.6125552124
 41
-2.255296188
 42
-0.6848044477
  0
ELLIPSE
  5
475
100
AcDbEntity
  8
RACCORDO
100
AcDbEllipse
 62
7
  6
CONTINUOUS
 10
-24.5896848243
 20
6.3477519599
 30
0.0
 11
-0.1342205464
 21
0.2684010681
 31
0.0
 40
0.6121897086
 41
-3.160544254
 42
-2.2557347926
  0
ELLIPSE
  5
476
100
AcDbEntity
  8
RACCORDO
100
AcDbEllipse
 62
7
  6
CONTINUOUS
 10
-11.5267232645
 20
-14.4959019288
 30
0.0
 11
-0.1341484654
 21
0.2683369961
 31
0.0
 40
0.6125552124
 41
-2.255296188
 42
-0.6848044477
  0
ELLIPSE
  5
477
100
AcDbEntity
  8
RACCORDO
100
AcDbEllipse
 62
7
  6
CONTINUOUS
 10
-18.7913769049
 20
-10.8635751086
 30
0.0
 11
-0.1341371037
 21
0.2683722998
 31
0.0
 40
0.6123537661
 41
-2.2553513767
 42
-0.6845550499
  0
ELLIPSE
  5
478
100
AcDbEntity
  8
RACCORDO
100
AcDbEllipse
 62
7
  6
CONTINUOUS
 10
13.0284282485
 20
-26.7734776853
 30
0.0
 11
-0.1341371037
 21
0.2683722998
 31
0.0
 40
0.6123537661
 41
-2.2553513767
 42
-0.6845550499
  0
ELLIPSE
  5
479
100
AcDbEntity
  8
RACCORDO
100
AcDbEllipse
 62
7
  6
CONTINUOUS
 10
-2.8814743282
 20
-18.818526397
 30
0.0
 11
-0.1341371037
 21
0.2683722998
 31
0.0
 40
0.6123537661
 41
-2.2553513767
 42
-0.6845550499
  0
ELLIPSE
  5
47A
100
AcDbEntity
  8
RACCORDO
100
AcDbEllipse
 62
7
  6
CONTINUOUS
 10
4.3831793122
 20
-22.4508532172
 30
0.0
 11
-0.1341484654
 21
0.2683369961
 31
0.0
 40
0.6125552124
 41
-2.255296188
 42
-0.6848044477
  0
ELLIPSE
  5
47B
100
AcDbEntity
  8
RACCORDO
100
AcDbEllipse
 62
7
  6
CONTINUOUS
 10
-25.2030897256
 20
5.6294708082
 30
0.0
 11
0.4999863728
 21
0.0072295547
 31
0.0
 40
0.5106100819
 41
-0.6779572773
 42
-0.0074184226
  0
ELLIPSE
  5
47C
100
AcDbEntity
  8
ASSI
100
AcDbEllipse
 62
7
  6
CONTINUOUS
 10
17.1575913392
 20
-27.1688146835
 30
0.0
 11
0.0974129977
 21
0.1748074534
 31
0.0
 40
0.6437101552
 41
0.6611775963
 42
0.7135374739
  0
ELLIPSE
  5
47D
100
AcDbEntity
  8
RACCORDO
100
AcDbEllipse
 62
7
  6
CONTINUOUS
 10
-25.2030897256
 20
24.6820296914
 30
0.0
 11
0.4999863728
 21
0.0072295547
 31
0.0
 40
0.5106100819
 41
-0.6779572773
 42
-0.0074184226
  0
ELLIPSE
  5
47E
100
AcDbEntity
  8
ASSI
100
AcDbEllipse
 62
7
  6
CONTINUOUS
 10
-14.6622138142
 20
-11.2589121068
 30
0.0
 11
0.0974129977
 21
0.1748074534
 31
0.0
 40
0.6437101552
 41
0.6611775963
 42
0.7135374739
  0
ELLIPSE
  5
47F
100
AcDbEntity
  8
ASSI
100
AcDbEllipse
 62
7
  6
CONTINUOUS
 10
1.2476887625
 20
-19.3004659355
 30
0.0
 11
0.0974129977
 21
0.1748074534
 31
0.0
 40
0.6437101552
 41
0.6611775963
 42
0.7135374739
  0
ELLIPSE
  5
480
100
AcDbEntity
  8
RACCORDO
100
AcDbEllipse
 62
7
  6
CONTINUOUS
 10
-24.6616297619
 20
18.6986886777
 30
0.0
 11
-0.1342205464
 21
0.2684010681
 31
0.0
 40
0.6121897086
 41
-3.160544254
 42
-2.2557347926
  0
ELLIPSE
  5
481
100
AcDbEntity
  8
RACCORDO
100
AcDbEllipse
 62
7
  6
CONTINUOUS
 10
-24.6616297619
 20
24.1927992151
 30
0.0
 11
-0.1341484654
 21
0.2683369961
 31
0.0
 40
0.6125552124
 41
-2.255296188
 42
-0.6848044477
  0
ELLIPSE
  5
482
100
AcDbEntity
  8
RACCORDO
100
AcDbEllipse
 62
7
  6
CONTINUOUS
 10
-24.6616297619
 20
-0.3538702055
 30
0.0
 11
-0.1342205464
 21
0.2684010681
 31
0.0
 40
0.6121897086
 41
-3.160544254
 42
-2.2557347926
  0
ELLIPSE
  5
483
100
AcDbEntity
  8
RACCORDO
100
AcDbEllipse
 62
7
  6
CONTINUOUS
 10
-24.6616297619
 20
5.1402403318
 30
0.0
 11
-0.1341484654
 21
0.2683369961
 31
0.0
 40
0.6125552124
 41
-2.255296188
 42
-0.6848044477
  0
ELLIPSE
  5
484
100
AcDbEntity
  8
RACCORDO
100
AcDbEllipse
 62
7
  6
CONTINUOUS
 10
-6.153945987
 20
-17.2545128987
 30
0.0
 11
-0.1341484654
 21
0.2683369961
 31
0.0
 40
0.6125552124
 41
-2.255296188
 42
-0.6848044477
  0
ELLIPSE
  5
485
100
AcDbEntity
  8
RACCORDO
100
AcDbEllipse
 62
7
  6
CONTINUOUS
 10
9.7559565897
 20
-25.209464187
 30
0.0
 11
-0.1341484654
 21
0.2683369961
 31
0.0
 40
0.6125552124
 41
-2.255296188
 42
-0.6848044477
  0
ELLIPSE
  5
486
100
AcDbEntity
  8
RACCORDO
100
AcDbEllipse
 62
7
  6
CONTINUOUS
 10
-25.1652443251
 20
6.0819395091
 30
0.0
 11
-0.1342205464
 21
0.2684010681
 31
0.0
 40
0.6121897086
 41
2.6191002879
 42
4.0274505145
  0
ELLIPSE
  5
487
100
AcDbEntity
  8
RACCORDO
100
AcDbEllipse
 62
7
  6
CONTINUOUS
 10
-25.1652443251
 20
25.1344983924
 30
0.0
 11
-0.1342205464
 21
0.2684010681
 31
0.0
 40
0.6121897086
 41
2.6191002879
 42
4.0274505145
  0
ELLIPSE
  5
488
100
AcDbEntity
  8
ASSI
100
AcDbEllipse
 62
7
  6
CONTINUOUS
 10
5.3635371728
 20
-21.7839883177
 30
0.0
 11
0.1997674032
 21
0.1243735635
 31
0.0
 40
0.0775313764
 41
5.4495541764
 42
6.9679906257
  0
ELLIPSE
  5
489
100
AcDbEntity
  8
ASSI
100
AcDbEllipse
 62
7
  6
CONTINUOUS
 10
-10.5463654039
 20
-13.8290370293
 30
0.0
 11
0.1997674032
 21
0.1243735635
 31
0.0
 40
0.0775313764
 41
5.4495541764
 42
6.9679906257
  0
ELLIPSE
  5
48A
100
AcDbEntity
  8
RACCORDO
100
AcDbEllipse
 62
7
  6
CONTINUOUS
 10
8.8206724009
 20
-25.6807123968
 30
0.0
 11
-0.1341484654
 21
0.2683369961
 31
0.0
 40
0.6125552124
 41
4.462141554
 42
5.5983808594
  0
ELLIPSE
  5
48B
100
AcDbEntity
  8
RACCORDO
100
AcDbEllipse
 62
7
  6
CONTINUOUS
 10
4.3668406784
 20
-23.4537965355
 30
0.0
 11
-0.1342205464
 21
0.2684010681
 31
0.0
 40
0.6121897086
 41
-0.6846338794
 42
0.6678777033
  0
ELLIPSE
  5
48C
100
AcDbEntity
  8
RACCORDO
100
AcDbEllipse
 62
7
  6
CONTINUOUS
 10
-7.0892301758
 20
-17.7257611084
 30
0.0
 11
-0.1341484654
 21
0.2683369961
 31
0.0
 40
0.6125552124
 41
4.462141554
 42
5.5983808594
  0
ELLIPSE
  5
48D
100
AcDbEntity
  8
RACCORDO
100
AcDbEllipse
 62
7
  6
CONTINUOUS
 10
-11.5430618983
 20
-15.4988452471
 30
0.0
 11
-0.1342205464
 21
0.2684010681
 31
0.0
 40
0.6121897086
 41
-0.6846338794
 42
0.6678777033
  0
ELLIPSE
  5
48E
100
AcDbEntity
  8
RACCORDO
100
AcDbEllipse
 62
7
  6
CONTINUOUS
 10
-25.1652443251
 20
17.2706545699
 30
0.0
 11
-0.1341484654
 21
0.2683369961
 31
0.0
 40
0.6125552124
 41
-2.255296188
 42
-0.8469459614
  0
ELLIPSE
  5
48F
100
AcDbEntity
  8
RACCORDO
100
AcDbEllipse
 62
7
  6
CONTINUOUS
 10
-14.3366041835
 20
-13.668740118
 30
0.0
 11
-0.1341371037
 21
0.2683722998
 31
0.0
 40
0.6123537661
 41
-0.6845550499
 42
0.3838458874
  0
ELLIPSE
  5
490
100
AcDbEntity
  8
ASSI
100
AcDbEllipse
 62
7
  6
CONTINUOUS
 10
-10.4047499687
 20
-13.3876440296
 30
0.0
 11
0.0823576675
 21
0.1823694112
 31
0.0
 40
0.5796795686
 41
0.6094740628
 42
0.6618339404
  0
ELLIPSE
  5
491
100
AcDbEntity
  8
RACCORDO
100
AcDbEllipse
 62
7
  6
CONTINUOUS
 10
-12.1022827653
 20
-14.7859008271
 30
0.0
 11
-0.1341484654
 21
0.2683369961
 31
0.0
 40
0.6125552124
 41
-1.7532033366
 42
-0.6848044477
  0
ELLIPSE
  5
492
100
AcDbEntity
  8
RACCORDO
100
AcDbEllipse
 62
7
  6
CONTINUOUS
 10
-25.1652443251
 20
-1.7819043133
 30
0.0
 11
-0.1341484654
 21
0.2683369961
 31
0.0
 40
0.6125552124
 41
-2.255296188
 42
-0.8469459614
  0
ELLIPSE
  5
493
100
AcDbEntity
  8
RACCORDO
100
AcDbEllipse
 62
7
  6
CONTINUOUS
 10
-19.3570623299
 20
-11.1585110448
 30
0.0
 11
-0.1341371037
 21
0.2683722998
 31
0.0
 40
0.6123537661
 41
-1.7529559873
 42
-0.6845550499
  0
ELLIPSE
  5
494
100
AcDbEntity
  8
ASSI
100
AcDbEllipse
 62
7
  6
CONTINUOUS
 10
5.505152608
 20
-21.4291978583
 30
0.0
 11
0.0823576675
 21
0.1823694112
 31
0.0
 40
0.5796795686
 41
0.6094740628
 42
0.6618339404
  0
ELLIPSE
  5
495
100
AcDbEntity
  8
RACCORDO
100
AcDbEllipse
 62
7
  6
CONTINUOUS
 10
1.5732983932
 20
-21.6236914064
 30
0.0
 11
-0.1341371037
 21
0.2683722998
 31
0.0
 40
0.6123537661
 41
-0.6845550499
 42
0.3838458874
  0
ELLIPSE
  5
496
100
AcDbEntity
  8
RACCORDO
100
AcDbEllipse
 62
7
  6
CONTINUOUS
 10
3.8076198114
 20
-22.7408521155
 30
0.0
 11
-0.1341484654
 21
0.2683369961
 31
0.0
 40
0.6125552124
 41
-1.7532033366
 42
-0.6848044477
  0
ELLIPSE
  5
497
100
AcDbEntity
  8
RACCORDO
100
AcDbEllipse
 62
7
  6
CONTINUOUS
 10
-5.6814811713
 20
-17.9963016241
 30
0.0
 11
-0.1342205464
 21
0.2684010681
 31
0.0
 40
0.6121897086
 41
-0.6846338794
 42
0.3837650063
  0
ELLIPSE
  5
498
100
AcDbEntity
  8
RACCORDO
100
AcDbEllipse
 62
7
  6
CONTINUOUS
 10
-3.4471597532
 20
-19.1134623332
 30
0.0
 11
-0.1341371037
 21
0.2683722998
 31
0.0
 40
0.6123537661
 41
-1.7529559873
 42
-0.6845550499
  0
ELLIPSE
  5
499
100
AcDbEntity
  8
RACCORDO
100
AcDbEllipse
 62
7
  6
CONTINUOUS
 10
17.4832009699
 20
-29.5786426947
 30
0.0
 11
-0.1341371037
 21
0.2683722998
 31
0.0
 40
0.6123537661
 41
-0.6845550499
 42
0.3838458874
  0
ELLIPSE
  5
49A
100
AcDbEntity
  8
RACCORDO
100
AcDbEllipse
 62
7
  6
CONTINUOUS
 10
10.2284214054
 20
-25.9512529125
 30
0.0
 11
-0.1342205464
 21
0.2684010681
 31
0.0
 40
0.6121897086
 41
-0.6846338794
 42
0.3837650063
  0
ELLIPSE
  5
49B
100
AcDbEntity
  8
RACCORDO
100
AcDbEllipse
 62
7
  6
CONTINUOUS
 10
12.4627428235
 20
-27.0684136215
 30
0.0
 11
-0.1341371037
 21
0.2683722998
 31
0.0
 40
0.6123537661
 41
-1.7529559873
 42
-0.6845550499
  0
ELLIPSE
  5
49C
100
AcDbEntity
  8
RACCORDO
100
AcDbEllipse
 62
7
  6
CONTINUOUS
 10
-25.5969139507
 20
4.6689921221
 30
0.0
 11
-0.1341484654
 21
0.2683369961
 31
0.0
 40
0.6125552124
 41
-2.255296188
 42
-0.6848044477
  0
ELLIPSE
  5
49D
100
AcDbEntity
  8
RACCORDO
100
AcDbEllipse
 62
7
  6
CONTINUOUS
 10
-25.5969139507
 20
23.7215510054
 30
0.0
 11
-0.1341484654
 21
0.2683369961
 31
0.0
 40
0.6125552124
 41
-2.255296188
 42
-0.6848044477
  0
ELLIPSE
  5
49E
100
AcDbEntity
  8
RACCORDO
100
AcDbEllipse
 62
7
  6
CONTINUOUS
 10
-25.5969139507
 20
-0.7858154382
 30
0.0
 11
-0.1342205464
 21
0.2684010681
 31
0.0
 40
0.6121897086
 41
2.4569587742
 42
4.0274505145
  0
ELLIPSE
  5
49F
100
AcDbEntity
  8
RACCORDO
100
AcDbEllipse
 62
7
  6
CONTINUOUS
 10
-25.5969139507
 20
18.2667434451
 30
0.0
 11
-0.1342205464
 21
0.2684010681
 31
0.0
 40
0.6121897086
 41
2.4569587742
 42
4.0274505145
  0
ELLIPSE
  5
4A0
100
AcDbEntity
  8
SMUSSO
100
AcDbEllipse
 62
7
  6
CONTINUOUS
 10
-42.8212223523
 20
64.6655086864
 30
0.0
 11
-0.268640788
 21
0.9802821504
 31
0.0
 40
0.3951602023
 41
0.1790466627
 42
0.9644448261
  0
ELLIPSE
  5
4A1
100
AcDbEntity
  8
SMUSSO
100
AcDbEllipse
 62
7
  6
CONTINUOUS
 10
-42.8212223523
 20
-25.4011333072
 30
0.0
 11
-0.6685268303
 21
0.7774608711
 31
0.0
 40
0.423927136
 41
1.5651843117
 42
2.3505824751
  0
ELLIPSE
  5
4A2
100
AcDbEntity
  8
SMUSSO
100
AcDbEllipse
 62
7
  6
CONTINUOUS
 10
-42.8212223523
 20
-25.4011333072
 30
0.0
 11
-0.268640788
 21
0.9802821504
 31
0.0
 40
0.3951602023
 41
0.9644448261
 42
1.7498429895
  0
ELLIPSE
  5
4A3
100
AcDbEntity
  8
SMUSSO
100
AcDbEllipse
 62
7
  6
CONTINUOUS
 10
-42.8212223523
 20
64.6655086864
 30
0.0
 11
-0.0351548098
 21
1.0451726698
 31
0.0
 40
0.7123478368
 41
-0.3689331855
 42
0.4164649779
  0
ELLIPSE
  5
4A4
100
AcDbEntity
  8
SMUSSO
100
AcDbEllipse
 62
7
  6
CONTINUOUS
 10
39.2031642654
 20
-66.413326616
 30
0.0
 11
0.7972192175
 21
-0.6616331853
 31
0.0
 40
0.76072271
 41
-0.2222500336
 42
0.5631481298
  0
ELLIPSE
  5
4A5
100
AcDbEntity
  8
SMUSSO
100
AcDbEllipse
 62
7
  6
CONTINUOUS
 10
39.2031642654
 20
23.6533153776
 30
0.0
 11
0.7972192175
 21
-0.6616331853
 31
0.0
 40
0.76072271
 41
0.5631481298
 42
1.3485462932
  0
ELLIPSE
  5
4A6
100
AcDbEntity
  8
SMUSSO
100
AcDbEllipse
 62
7
  6
CONTINUOUS
 10
39.2031642654
 20
23.6533153776
 30
0.0
 11
-0.0351548098
 21
1.0451726698
 31
0.0
 40
0.7123478368
 41
-1.1543313489
 42
-0.3689331855
  0
ELLIPSE
  5
4A7
100
AcDbEntity
  8
SMUSSO
100
AcDbEllipse
 62
7
  6
CONTINUOUS
 10
39.2031642654
 20
-66.413326616
 30
0.0
 11
-0.6685268303
 21
0.7774608711
 31
0.0
 40
0.423927136
 41
2.3505824751
 42
3.1359806385
  0
ENDSEC
  0
SECTION
  2
OBJECTS
  0
DICTIONARY
  5
C
100
AcDbDictionary
280
0
281
1
  3
ACAD_GROUP
350
D
  3
ACAD_MLINESTYLE
350
17
  3
ACAD_LAYOUT
350
1A
  3
ACAD_PLOTSETTINGS
350
19
  3
ACAD_PLOTSTYLENAME
350
E
  0
DICTIONARY
  5
D
102
{ACAD_REACTORS
330
C
102
}
100
AcDbDictionary
280
0
281
1
  0
ACDBDICTIONARYWDFLT
  5
E
102
{ACAD_REACTORS
330
C
102
}
100
AcDbDictionary
281
1
  3
Normal
350
F
100
AcDbDictionaryWithDefault
340
F
  0
DICTIONARY
  5
17
102
{ACAD_REACTORS
330
C
102
}
100
AcDbDictionary
280
0
281
1
  3
Standard
350
18
  0
DICTIONARY
  5
19
102
{ACAD_REACTORS
330
C
102
}
100
AcDbDictionary
281
1
  0
DICTIONARY
  5
1A
102
{ACAD_REACTORS
330
C
102
}
100
AcDbDictionary
281
1
  3
Model
350
4A8
  3
Layout1
350
4A9
  0
ACDBPLACEHOLDER
  5
F
102
{ACAD_REACTORS
330
E
102
}
  0
MLINESTYLE
  5
18
102
{ACAD_REACTORS
330
17
102
}
100
AcDbMlineStyle
  2
STANDARD
 70
0
  3

 62
256
 51
90.0
 52
90.0
 71
2
 49
0.5
 62
256
  6
BYLAYER
 49
-0.5
 62
256
  6
BYLAYER
  0
LAYOUT
  5
4A8
102
{ACAD_REACTORS
330
1A
102
}
100
AcDbPlotSettings
  1

  2
none_device
  4
ISO_A4_(297.00_x_210.00_MM)
  6

 40
0.0
 41
0.0
 42
0.0
 43
0.0
 44
297.0
 45
210.0
 46
0.0
 47
0.0
 48
0.0
 49
0.0
140
0.0
141
0.0
142
1.0
143
1.0
 70
1024
 72
1
 73
0
 74
0
  7

 75
0
147
1.0
148
0.0
149
0.0
100
AcDbLayout
  1
Model
 70
0
 71
0
 10
0.0
 20
0.0
 11
297.0
 21
210.0
 12
0.0
 22
0.0
 32
0.0
 14
0.0
 24
0.0
 34
0.0
 15
0.0
 25
0.0
 35
0.0
146
0.0
 13
0.0
 23
0.0
 33
0.0
 16
1.0
 26
0.0
 36
0.0
 17
0.0
 27
1.0
 37
0.0
 76
0
330
212
345
0
346
0
  0
LAYOUT
  5
4A9
102
{ACAD_REACTORS
330
1A
102
}
100
AcDbPlotSettings
  1

  2
none_device
  4
ISO_A4_(297.00_x_210.00_MM)
  6

 40
0.0
 41
0.0
 42
0.0
 43
0.0
 44
297.0
 45
210.0
 46
0.0
 47
0.0
 48
0.0
 49
0.0
140
0.0
141
0.0
142
1.0
143
1.0
 70
0
 72
1
 73
0
 74
0
  7

 75
0
147
1.0
148
0.0
149
0.0
100
AcDbLayout
  1
Layout1
 70
0
 71
1
 10
0.0
 20
0.0
 11
297.0
 21
210.0
 12
0.0
 22
0.0
 32
0.0
 14
0.0
 24
0.0
 34
0.0
 15
0.0
 25
0.0
 35
0.0
146
0.0
 13
0.0
 23
0.0
 33
0.0
 16
1.0
 26
0.0
 36
0.0
 17
0.0
 27
1.0
 37
0.0
 76
0
330
213
345
0
346
0
  0
ENDSEC
  0
EOF
